  0
SECTION
  2
HEADER
  9
$ACADVER
  1
AC1018
  9
$ACADMAINTVER
 70
     0
  9
$DWGCODEPAGE
  3
ANSI_1252
  9
$AUTHOR
  1
g6edxjah
  9
$LASTSAVEDBY
  1
g6edxjah
  9
$INSBASE
 10
0.0
 20
0.0
 30
0.0
  9
$EXTMIN
 10
-799.6271
 20
42.597
 30
0.0
  9
$EXTMAX
 10
-776.6569
 20
55.437
 30
0.0
  9
$LIMMIN
 10
-840.772626
 20
-3.613626
  9
$LIMMAX
 10
-735.511374
 20
101.647626
  9
$ORTHOMODE
 70
     0
  9
$REGENMODE
 70
     1
  9
$FILLMODE
 70
     1
  9
$QTEXTMODE
 70
     0
  9
$MIRRTEXT
 70
     0
  9
$LTSCALE
 40
1.0
  9
$ATTMODE
 70
     1
  9
$TEXTSIZE
 40
0.06
  9
$TRACEWID
 40
0.05
  9
$TEXTSTYLE
  7
Standard
  9
$CLAYER
  8
Level 46
  9
$CELTYPE
  6
Continuous
  9
$CECOLOR
 62
     7
  9
$CELTSCALE
 40
1.0
  9
$DISPSILH
 70
     0
  9
$DIMSCALE
 40
1.0
  9
$DIMASZ
 40
0.06
  9
$DIMEXO
 40
0.03
  9
$DIMDLI
 40
0.0
  9
$DIMRND
 40
0.0
  9
$DIMDLE
 40
0.0
  9
$DIMEXE
 40
0.03
  9
$DIMTP
 40
0.0
  9
$DIMTM
 40
0.0
  9
$DIMTXT
 40
0.06
  9
$DIMCEN
 40
0.09
  9
$DIMTSZ
 40
0.0
  9
$DIMTOL
 70
     0
  9
$DIMLIM
 70
     0
  9
$DIMTIH
 70
     1
  9
$DIMTOH
 70
     1
  9
$DIMSE1
 70
     0
  9
$DIMSE2
 70
     0
  9
$DIMTAD
 70
     0
  9
$DIMZIN
 70
    11
  9
$DIMBLK
  1
TerminatorOpen_0.5
  9
$DIMASO
 70
     1
  9
$DIMSHO
 70
     1
  9
$DIMPOST
  1

  9
$DIMAPOST
  1

  9
$DIMALT
 70
     0
  9
$DIMALTD
 70
     2
  9
$DIMALTF
 40
0.03937
  9
$DIMLFAC
 40
1.0
  9
$DIMTOFL
 70
     0
  9
$DIMTVP
 40
0.0
  9
$DIMTIX
 70
     0
  9
$DIMSOXD
 70
     0
  9
$DIMSAH
 70
     0
  9
$DIMBLK1
  1

  9
$DIMBLK2
  1

  9
$DIMSTYLE
  2
Standard
  9
$DIMCLRD
 70
     0
  9
$DIMCLRE
 70
     0
  9
$DIMCLRT
 70
     0
  9
$DIMTFAC
 40
1.0
  9
$DIMGAP
 40
0.03
  9
$DIMJUST
 70
     0
  9
$DIMSD1
 70
     0
  9
$DIMSD2
 70
     0
  9
$DIMTOLJ
 70
     0
  9
$DIMTZIN
 70
    11
  9
$DIMALTZ
 70
    15
  9
$DIMALTTZ
 70
    15
  9
$DIMUPT
 70
     1
  9
$DIMDEC
 70
     3
  9
$DIMTDEC
 70
     3
  9
$DIMALTU
 70
     2
  9
$DIMALTTD
 70
     2
  9
$DIMTXSTY
  7
Style-Arial
  9
$DIMAUNIT
 70
     0
  9
$DIMADEC
 70
     4
  9
$DIMALTRND
 40
0.0
  9
$DIMAZIN
 70
     3
  9
$DIMDSEP
 70
    46
  9
$DIMATFIT
 70
     1
  9
$DIMFRAC
 70
     0
  9
$DIMLDRBLK
  1
TerminatorOpen_0.5
  9
$DIMLUNIT
 70
     2
  9
$DIMLWD
 70
    -2
  9
$DIMLWE
 70
    -2
  9
$DIMTMOVE
 70
     0
  9
$LUNITS
 70
     2
  9
$LUPREC
 70
     3
  9
$SKETCHINC
 40
0.1
  9
$FILLETRAD
 40
0.0
  9
$AUNITS
 70
     0
  9
$AUPREC
 70
     4
  9
$MENU
  1
.
  9
$ELEVATION
 40
0.0
  9
$PELEVATION
 40
0.0
  9
$THICKNESS
 40
0.0
  9
$LIMCHECK
 70
     0
  9
$CHAMFERA
 40
0.0
  9
$CHAMFERB
 40
0.0
  9
$CHAMFERC
 40
0.0
  9
$CHAMFERD
 40
0.0
  9
$SKPOLY
 70
     0
  9
$TDCREATE
 40
2455405.411816863
  9
$TDUCREATE
 40
2455405.620150197
  9
$TDUPDATE
 40
2455405.411816863
  9
$TDUUPDATE
 40
2455405.620150197
  9
$TDINDWG
 40
0.0
  9
$TDUSRTIMER
 40
0.0006630093
  9
$USRTIMER
 70
     1
  9
$ANGBASE
 50
0.0
  9
$ANGDIR
 70
     0
  9
$PDMODE
 70
     0
  9
$PDSIZE
 40
0.0
  9
$PLINEWID
 40
0.0
  9
$SPLFRAME
 70
     0
  9
$SPLINETYPE
 70
     6
  9
$SPLINESEGS
 70
     8
  9
$HANDSEED
  5
717
  9
$SURFTAB1
 70
     6
  9
$SURFTAB2
 70
     6
  9
$SURFTYPE
 70
     6
  9
$SURFU
 70
     6
  9
$SURFV
 70
     6
  9
$UCSBASE
  2

  9
$UCSNAME
  2

  9
$UCSORG
 10
0.0
 20
0.0
 30
0.0
  9
$UCSXDIR
 10
1.0
 20
0.0
 30
0.0
  9
$UCSYDIR
 10
0.0
 20
1.0
 30
0.0
  9
$UCSORTHOREF
  2

  9
$UCSORTHOVIEW
 70
     0
  9
$UCSORGTOP
 10
0.0
 20
0.0
 30
0.0
  9
$UCSORGBOTTOM
 10
0.0
 20
0.0
 30
0.0
  9
$UCSORGLEFT
 10
0.0
 20
0.0
 30
0.0
  9
$UCSORGRIGHT
 10
0.0
 20
0.0
 30
0.0
  9
$UCSORGFRONT
 10
0.0
 20
0.0
 30
0.0
  9
$UCSORGBACK
 10
0.0
 20
0.0
 30
0.0
  9
$PUCSBASE
  2

  9
$PUCSNAME
  2

  9
$PUCSORG
 10
0.0
 20
0.0
 30
0.0
  9
$PUCSXDIR
 10
1.0
 20
0.0
 30
0.0
  9
$PUCSYDIR
 10
0.0
 20
1.0
 30
0.0
  9
$PUCSORTHOREF
  2

  9
$PUCSORTHOVIEW
 70
     0
  9
$PUCSORGTOP
 10
0.0
 20
0.0
 30
0.0
  9
$PUCSORGBOTTOM
 10
0.0
 20
0.0
 30
0.0
  9
$PUCSORGLEFT
 10
0.0
 20
0.0
 30
0.0
  9
$PUCSORGRIGHT
 10
0.0
 20
0.0
 30
0.0
  9
$PUCSORGFRONT
 10
0.0
 20
0.0
 30
0.0
  9
$PUCSORGBACK
 10
0.0
 20
0.0
 30
0.0
  9
$USERI1
 70
     0
  9
$USERI2
 70
     0
  9
$USERI3
 70
     0
  9
$USERI4
 70
     0
  9
$USERI5
 70
     0
  9
$USERR1
 40
0.0
  9
$USERR2
 40
0.0
  9
$USERR3
 40
0.0
  9
$USERR4
 40
0.0
  9
$USERR5
 40
0.0
  9
$WORLDVIEW
 70
     1
  9
$SHADEDGE
 70
     3
  9
$SHADEDIF
 70
    70
  9
$TILEMODE
 70
     1
  9
$MAXACTVP
 70
    64
  9
$PINSBASE
 10
0.0
 20
0.0
 30
0.0
  9
$PLIMCHECK
 70
     0
  9
$PEXTMIN
 10
1.049744
 20
0.799667
 30
-0.001526
  9
$PEXTMAX
 10
9.450623
 20
7.200577
 30
0.0
  9
$PLIMMIN
 10
-0.25
 20
-0.25
  9
$PLIMMAX
 10
10.75
 20
8.25
  9
$UNITMODE
 70
     0
  9
$VISRETAIN
 70
     1
  9
$PLINEGEN
 70
     0
  9
$PSLTSCALE
 70
     0
  9
$TREEDEPTH
 70
  3020
  9
$CMLSTYLE
  2
Standard
  9
$CMLJUST
 70
     0
  9
$CMLSCALE
 40
1.0
  9
$PROXYGRAPHICS
 70
     1
  9
$MEASUREMENT
 70
     0
  9
$CELWEIGHT
370
    13
  9
$ENDCAPS
280
     0
  9
$JOINSTYLE
280
     0
  9
$LWDISPLAY
290
     1
  9
$INSUNITS
 70
     6
  9
$HYPERLINKBASE
  1

  9
$STYLESHEET
  1

  9
$XEDIT
290
     1
  9
$CEPSNTYPE
380
     0
  9
$PSTYLEMODE
290
     1
  9
$FINGERPRINTGUID
  2
{02C0BBB5-38A7-4FBF-829E-00875EC88963}
  9
$VERSIONGUID
  2
{82C521FC-BF81-46B3-825E-420B6BD93A99}
  9
$EXTNAMES
290
     1
  9
$PSVPSCALE
 40
0.0
  9
$OLESTARTUP
290
     0
  9
$SORTENTS
280
   127
  9
$INDEXCTL
280
     0
  9
$HIDETEXT
280
     1
  9
$XCLIPFRAME
290
     0
  9
$HALOGAP
280
     0
  9
$OBSCOLOR
 70
   257
  9
$OBSLTYPE
280
     0
  9
$INTERSECTIONDISPLAY
280
     0
  9
$INTERSECTIONCOLOR
 70
   257
  9
$DIMASSOC
280
     1
  9
$PROJECTNAME
  1

  0
ENDSEC
  0
SECTION
  2
CLASSES
  0
CLASS
  1
ACDBDICTIONARYWDFLT
  2
AcDbDictionaryWithDefault
  3
ObjectDBX Classes
 90
        0
 91
        3
280
     0
281
     0
  0
CLASS
  1
SORTENTSTABLE
  2
AcDbSortentsTable
  3
ObjectDBX Classes
 90
        0
 91
        3
280
     0
281
     0
  0
ENDSEC
  0
SECTION
  2
TABLES
  0
TABLE
  2
VPORT
  5
6F8
330
0
100
AcDbSymbolTable
 70
     4
  0
VPORT
  5
49
330
6F8
100
AcDbSymbolTableRecord
100
AcDbViewportTableRecord
  2
*ACTIVE
 70
     0
 10
0.0
 20
0.0
 11
1.0
 21
1.0
 12
-788.141924
 22
49.016999
 13
0.0
 23
0.0
 14
0.8
 24
0.8
 15
0.8
 25
0.8
 16
0.0
 26
0.0
 36
1.0
 17
0.0
 27
0.0
 37
0.0
 40
13.353602
 41
1.884937
 42
50.0
 43
0.0
 44
0.0
 50
0.0
 51
0.0
 71
     0
 72
   100
 73
     1
 74
     2
 75
     0
 76
     0
 77
     0
 78
     1
281
     0
 65
     1
110
0.0
120
0.0
130
0.0
111
1.0
121
0.0
131
0.0
112
0.0
122
1.0
132
0.0
 79
     0
146
0.0
  0
ENDTAB
  0
TABLE
  2
LTYPE
  5
6DF
330
0
100
AcDbSymbolTable
 70
     2
  0
LTYPE
  5
6E0
330
6DF
100
AcDbSymbolTableRecord
100
AcDbLinetypeTableRecord
  2
ByBlock
 70
     0
  3

 72
    65
 73
     0
 40
0.0
  0
LTYPE
  5
6E1
330
6DF
100
AcDbSymbolTableRecord
100
AcDbLinetypeTableRecord
  2
ByLayer
 70
     0
  3

 72
    65
 73
     0
 40
0.0
  0
LTYPE
  5
6DE
330
6DF
100
AcDbSymbolTableRecord
100
AcDbLinetypeTableRecord
  2
Continuous
 70
     0
  3
Solid line
 72
    65
 73
     0
 40
0.0
  0
LTYPE
  5
711
330
6DF
100
AcDbSymbolTableRecord
100
AcDbLinetypeTableRecord
  2
DGN Style 1
 70
     0
  3
Dgn Style 1
 72
    65
 73
     2
 40
0.151276
 49
0.000252
 74
     0
 49
-0.151024
 74
     0
  0
ENDTAB
  0
TABLE
  2
LAYER
  5
6D8
102
{ACAD_XDICTIONARY
360
6D9
102
}
330
0
100
AcDbSymbolTable
 70
    64
  0
LAYER
  5
6D7
330
6D8
100
AcDbSymbolTableRecord
100
AcDbLayerTableRecord
  2
0
 70
     0
 62
     7
  6
Continuous
370
    -3
390
6DB
  0
LAYER
  5
7
330
6D8
100
AcDbSymbolTableRecord
100
AcDbLayerTableRecord
  2
Level 1
 70
     0
 62
     7
  6
Continuous
370
     0
390
6DB
  0
LAYER
  5
8
330
6D8
100
AcDbSymbolTableRecord
100
AcDbLayerTableRecord
  2
Level 2
 70
     0
 62
     7
  6
Continuous
370
     0
390
6DB
  0
LAYER
  5
9
330
6D8
100
AcDbSymbolTableRecord
100
AcDbLayerTableRecord
  2
Level 3
 70
     0
 62
     7
  6
Continuous
370
     0
390
6DB
  0
LAYER
  5
A
330
6D8
100
AcDbSymbolTableRecord
100
AcDbLayerTableRecord
  2
Level 4
 70
     0
 62
     7
  6
Continuous
370
     0
390
6DB
  0
LAYER
  5
B
330
6D8
100
AcDbSymbolTableRecord
100
AcDbLayerTableRecord
  2
Level 5
 70
     0
 62
     7
  6
Continuous
370
     0
390
6DB
  0
LAYER
  5
C
330
6D8
100
AcDbSymbolTableRecord
100
AcDbLayerTableRecord
  2
Level 6
 70
     0
 62
     7
  6
Continuous
370
     0
390
6DB
  0
LAYER
  5
D
330
6D8
100
AcDbSymbolTableRecord
100
AcDbLayerTableRecord
  2
Level 7
 70
     0
 62
     7
  6
Continuous
370
     0
390
6DB
  0
LAYER
  5
E
330
6D8
100
AcDbSymbolTableRecord
100
AcDbLayerTableRecord
  2
Level 8
 70
     0
 62
     7
  6
Continuous
370
     0
390
6DB
  0
LAYER
  5
F
330
6D8
100
AcDbSymbolTableRecord
100
AcDbLayerTableRecord
  2
Level 9
 70
     0
 62
     7
  6
Continuous
370
     0
390
6DB
  0
LAYER
  5
10
330
6D8
100
AcDbSymbolTableRecord
100
AcDbLayerTableRecord
  2
Level 10
 70
     0
 62
     7
  6
Continuous
370
     0
390
6DB
  0
LAYER
  5
11
330
6D8
100
AcDbSymbolTableRecord
100
AcDbLayerTableRecord
  2
Level 11
 70
     0
 62
     7
  6
Continuous
370
     0
390
6DB
  0
LAYER
  5
12
330
6D8
100
AcDbSymbolTableRecord
100
AcDbLayerTableRecord
  2
Level 12
 70
     0
 62
     7
  6
Continuous
370
     0
390
6DB
  0
LAYER
  5
13
330
6D8
100
AcDbSymbolTableRecord
100
AcDbLayerTableRecord
  2
Level 13
 70
     0
 62
     7
  6
Continuous
370
     0
390
6DB
  0
LAYER
  5
14
330
6D8
100
AcDbSymbolTableRecord
100
AcDbLayerTableRecord
  2
Level 14
 70
     0
 62
     7
  6
Continuous
370
     0
390
6DB
  0
LAYER
  5
15
330
6D8
100
AcDbSymbolTableRecord
100
AcDbLayerTableRecord
  2
Level 15
 70
     0
 62
     7
  6
Continuous
370
     0
390
6DB
  0
LAYER
  5
16
330
6D8
100
AcDbSymbolTableRecord
100
AcDbLayerTableRecord
  2
Level 16
 70
     0
 62
     7
  6
Continuous
370
     0
390
6DB
  0
LAYER
  5
17
330
6D8
100
AcDbSymbolTableRecord
100
AcDbLayerTableRecord
  2
Level 17
 70
     0
 62
     7
  6
Continuous
370
     0
390
6DB
  0
LAYER
  5
18
330
6D8
100
AcDbSymbolTableRecord
100
AcDbLayerTableRecord
  2
Level 18
 70
     0
 62
     7
  6
Continuous
370
     0
390
6DB
  0
LAYER
  5
19
330
6D8
100
AcDbSymbolTableRecord
100
AcDbLayerTableRecord
  2
Level 19
 70
     0
 62
     7
  6
Continuous
370
     0
390
6DB
  0
LAYER
  5
1A
330
6D8
100
AcDbSymbolTableRecord
100
AcDbLayerTableRecord
  2
Level 20
 70
     0
 62
     7
  6
Continuous
370
     0
390
6DB
  0
LAYER
  5
1B
330
6D8
100
AcDbSymbolTableRecord
100
AcDbLayerTableRecord
  2
Level 21
 70
     0
 62
     7
  6
Continuous
370
     0
390
6DB
  0
LAYER
  5
1C
330
6D8
100
AcDbSymbolTableRecord
100
AcDbLayerTableRecord
  2
Level 22
 70
     0
 62
     7
  6
Continuous
370
     0
390
6DB
  0
LAYER
  5
1D
330
6D8
100
AcDbSymbolTableRecord
100
AcDbLayerTableRecord
  2
Level 23
 70
     0
 62
     7
  6
Continuous
370
     0
390
6DB
  0
LAYER
  5
1E
330
6D8
100
AcDbSymbolTableRecord
100
AcDbLayerTableRecord
  2
Level 24
 70
     0
 62
     7
  6
Continuous
370
     0
390
6DB
  0
LAYER
  5
1F
330
6D8
100
AcDbSymbolTableRecord
100
AcDbLayerTableRecord
  2
Level 25
 70
     0
 62
     7
  6
Continuous
370
     0
390
6DB
  0
LAYER
  5
20
330
6D8
100
AcDbSymbolTableRecord
100
AcDbLayerTableRecord
  2
Level 26
 70
     0
 62
     7
  6
Continuous
370
     0
390
6DB
  0
LAYER
  5
21
330
6D8
100
AcDbSymbolTableRecord
100
AcDbLayerTableRecord
  2
Level 27
 70
     0
 62
     7
  6
Continuous
370
     0
390
6DB
  0
LAYER
  5
22
330
6D8
100
AcDbSymbolTableRecord
100
AcDbLayerTableRecord
  2
Level 28
 70
     0
 62
     7
  6
Continuous
370
     0
390
6DB
  0
LAYER
  5
23
330
6D8
100
AcDbSymbolTableRecord
100
AcDbLayerTableRecord
  2
Level 29
 70
     0
 62
     7
  6
Continuous
370
     0
390
6DB
  0
LAYER
  5
24
330
6D8
100
AcDbSymbolTableRecord
100
AcDbLayerTableRecord
  2
Level 30
 70
     0
 62
     7
  6
Continuous
370
     0
390
6DB
  0
LAYER
  5
25
330
6D8
100
AcDbSymbolTableRecord
100
AcDbLayerTableRecord
  2
Level 31
 70
     0
 62
     7
  6
Continuous
370
     0
390
6DB
  0
LAYER
  5
26
330
6D8
100
AcDbSymbolTableRecord
100
AcDbLayerTableRecord
  2
Level 32
 70
     0
 62
     7
  6
Continuous
370
     0
390
6DB
  0
LAYER
  5
27
330
6D8
100
AcDbSymbolTableRecord
100
AcDbLayerTableRecord
  2
Level 33
 70
     0
 62
     7
  6
Continuous
370
     0
390
6DB
  0
LAYER
  5
28
330
6D8
100
AcDbSymbolTableRecord
100
AcDbLayerTableRecord
  2
Level 34
 70
     0
 62
     7
  6
Continuous
370
     0
390
6DB
  0
LAYER
  5
29
330
6D8
100
AcDbSymbolTableRecord
100
AcDbLayerTableRecord
  2
Level 35
 70
     0
 62
     7
  6
Continuous
370
     0
390
6DB
  0
LAYER
  5
2A
330
6D8
100
AcDbSymbolTableRecord
100
AcDbLayerTableRecord
  2
Level 36
 70
     0
 62
     7
  6
Continuous
370
     0
390
6DB
  0
LAYER
  5
2B
330
6D8
100
AcDbSymbolTableRecord
100
AcDbLayerTableRecord
  2
Level 37
 70
     0
 62
     7
  6
Continuous
370
     0
390
6DB
  0
LAYER
  5
2C
330
6D8
100
AcDbSymbolTableRecord
100
AcDbLayerTableRecord
  2
Level 38
 70
     0
 62
     7
  6
Continuous
370
     0
390
6DB
  0
LAYER
  5
2D
330
6D8
100
AcDbSymbolTableRecord
100
AcDbLayerTableRecord
  2
Level 39
 70
     0
 62
     7
  6
Continuous
370
     0
390
6DB
  0
LAYER
  5
2E
330
6D8
100
AcDbSymbolTableRecord
100
AcDbLayerTableRecord
  2
Level 40
 70
     0
 62
     7
  6
Continuous
370
     0
390
6DB
  0
LAYER
  5
2F
330
6D8
100
AcDbSymbolTableRecord
100
AcDbLayerTableRecord
  2
Level 41
 70
     0
 62
     7
  6
Continuous
370
     0
390
6DB
  0
LAYER
  5
30
330
6D8
100
AcDbSymbolTableRecord
100
AcDbLayerTableRecord
  2
Level 42
 70
     0
 62
     7
  6
Continuous
370
     0
390
6DB
  0
LAYER
  5
31
330
6D8
100
AcDbSymbolTableRecord
100
AcDbLayerTableRecord
  2
Level 43
 70
     0
 62
     7
  6
Continuous
370
     0
390
6DB
  0
LAYER
  5
32
330
6D8
100
AcDbSymbolTableRecord
100
AcDbLayerTableRecord
  2
Level 44
 70
     0
 62
     7
  6
Continuous
370
     0
390
6DB
  0
LAYER
  5
33
330
6D8
100
AcDbSymbolTableRecord
100
AcDbLayerTableRecord
  2
Level 45
 70
     0
 62
     7
  6
Continuous
370
     0
390
6DB
  0
LAYER
  5
34
330
6D8
100
AcDbSymbolTableRecord
100
AcDbLayerTableRecord
  2
Level 46
 70
     0
 62
     7
  6
Continuous
370
     0
390
6DB
  0
LAYER
  5
35
330
6D8
100
AcDbSymbolTableRecord
100
AcDbLayerTableRecord
  2
Level 47
 70
     0
 62
     7
  6
Continuous
370
     0
390
6DB
  0
LAYER
  5
36
330
6D8
100
AcDbSymbolTableRecord
100
AcDbLayerTableRecord
  2
Level 48
 70
     0
 62
     7
  6
Continuous
370
     0
390
6DB
  0
LAYER
  5
37
330
6D8
100
AcDbSymbolTableRecord
100
AcDbLayerTableRecord
  2
Level 49
 70
     0
 62
     7
  6
Continuous
370
     0
390
6DB
  0
LAYER
  5
38
330
6D8
100
AcDbSymbolTableRecord
100
AcDbLayerTableRecord
  2
Level 50
 70
     0
 62
     7
  6
Continuous
370
     0
390
6DB
  0
LAYER
  5
39
330
6D8
100
AcDbSymbolTableRecord
100
AcDbLayerTableRecord
  2
Level 51
 70
     0
 62
     7
  6
Continuous
370
     0
390
6DB
  0
LAYER
  5
3A
330
6D8
100
AcDbSymbolTableRecord
100
AcDbLayerTableRecord
  2
Level 52
 70
     0
 62
     7
  6
Continuous
370
     0
390
6DB
  0
LAYER
  5
3B
330
6D8
100
AcDbSymbolTableRecord
100
AcDbLayerTableRecord
  2
Level 53
 70
     0
 62
     7
  6
Continuous
370
     0
390
6DB
  0
LAYER
  5
3C
330
6D8
100
AcDbSymbolTableRecord
100
AcDbLayerTableRecord
  2
Level 54
 70
     0
 62
     7
  6
Continuous
370
     0
390
6DB
  0
LAYER
  5
3D
330
6D8
100
AcDbSymbolTableRecord
100
AcDbLayerTableRecord
  2
Level 55
 70
     0
 62
     7
  6
Continuous
370
     0
390
6DB
  0
LAYER
  5
3E
330
6D8
100
AcDbSymbolTableRecord
100
AcDbLayerTableRecord
  2
Level 56
 70
     0
 62
     7
  6
Continuous
370
     0
390
6DB
  0
LAYER
  5
3F
330
6D8
100
AcDbSymbolTableRecord
100
AcDbLayerTableRecord
  2
Level 57
 70
     0
 62
     7
  6
Continuous
370
     0
390
6DB
  0
LAYER
  5
40
330
6D8
100
AcDbSymbolTableRecord
100
AcDbLayerTableRecord
  2
Level 58
 70
     0
 62
     7
  6
Continuous
370
     0
390
6DB
  0
LAYER
  5
41
330
6D8
100
AcDbSymbolTableRecord
100
AcDbLayerTableRecord
  2
Level 59
 70
     0
 62
     7
  6
Continuous
370
     0
390
6DB
  0
LAYER
  5
42
330
6D8
100
AcDbSymbolTableRecord
100
AcDbLayerTableRecord
  2
Level 60
 70
     0
 62
     7
  6
Continuous
370
     0
390
6DB
  0
LAYER
  5
43
330
6D8
100
AcDbSymbolTableRecord
100
AcDbLayerTableRecord
  2
Level 61
 70
     0
 62
     7
  6
Continuous
370
     0
390
6DB
  0
LAYER
  5
44
330
6D8
100
AcDbSymbolTableRecord
100
AcDbLayerTableRecord
  2
Level 62
 70
     0
 62
     7
  6
Continuous
370
     0
390
6DB
  0
LAYER
  5
45
330
6D8
100
AcDbSymbolTableRecord
100
AcDbLayerTableRecord
  2
Level 63
 70
     0
 62
     7
  6
Continuous
370
     0
390
6DB
  0
ENDTAB
  0
TABLE
  2
STYLE
  5
6E3
330
0
100
AcDbSymbolTable
 70
     8
  0
STYLE
  5
6E2
330
6E3
100
AcDbSymbolTableRecord
100
AcDbTextStyleTableRecord
  2
Standard
 70
     0
 40
0.0
 41
1.0
 50
0.0
 71
     0
 42
0.06
  3
txt
  4

  0
STYLE
  5
701
330
6E3
100
AcDbSymbolTableRecord
100
AcDbTextStyleTableRecord
  2
Style-Arial
 70
     0
 40
0.0
 41
1.0
 50
0.0
 71
     0
 42
0.2
  3

  4

1001
ACAD
1000
Arial
1071
       39
  0
STYLE
  5
70B
330
6E3
100
AcDbSymbolTableRecord
100
AcDbTextStyleTableRecord
  2
Style-ENGINEERING
 70
     0
 40
0.0
 41
1.0
 50
0.0
 71
     0
 42
0.2
  3
ENGINEERING.shx
  4

  0
STYLE
  5
70C
330
6E3
100
AcDbSymbolTableRecord
100
AcDbTextStyleTableRecord
  2
Style-COMPRESSED
 70
     0
 40
0.0
 41
1.0
 50
0.0
 71
     0
 42
0.2
  3
COMPRESSED.shx
  4

  0
STYLE
  5
70D
330
6E3
100
AcDbSymbolTableRecord
100
AcDbTextStyleTableRecord
  2
Style-CHAR_FAST_FONT
 70
     0
 40
0.0
 41
1.0
 50
0.0
 71
     0
 42
0.2
  3
CHAR_FAST_FONT.shx
  4

  0
STYLE
  5
70E
330
6E3
100
AcDbSymbolTableRecord
100
AcDbTextStyleTableRecord
  2
Style-ITALICS
 70
     0
 40
0.0
 41
1.0
 50
0.0
 71
     0
 42
0.2
  3
ITALICS.shx
  4

  0
STYLE
  5
70F
330
6E3
100
AcDbSymbolTableRecord
100
AcDbTextStyleTableRecord
  2
Style-WORKING
 70
     0
 40
0.0
 41
1.0
 50
0.0
 71
     0
 42
0.2
  3
WORKING.shx
  4

  0
STYLE
  5
710
330
6E3
100
AcDbSymbolTableRecord
100
AcDbTextStyleTableRecord
  2
Style-FANCY
 70
     0
 40
0.0
 41
1.0
 50
0.0
 71
     0
 42
0.2
  3
FANCY.shx
  4

  0
ENDTAB
  0
TABLE
  2
VIEW
  5
6F6
330
0
100
AcDbSymbolTable
 70
     0
  0
ENDTAB
  0
TABLE
  2
UCS
  5
6F7
330
0
100
AcDbSymbolTable
 70
     0
  0
ENDTAB
  0
TABLE
  2
APPID
  5
6F5
330
0
100
AcDbSymbolTable
 70
     2
  0
APPID
  5
6FD
330
6F5
100
AcDbSymbolTableRecord
100
AcDbRegAppTableRecord
  2
ACAD
 70
     0
  0
APPID
  5
6F4
330
6F5
100
AcDbSymbolTableRecord
100
AcDbRegAppTableRecord
  2
ACAD_PSEXT
 70
     0
  0
ENDTAB
  0
TABLE
  2
DIMSTYLE
  5
6E5
330
0
100
AcDbSymbolTable
 70
     1
100
AcDbDimStyleTable
  0
DIMSTYLE
105
6E4
330
6E5
100
AcDbSymbolTableRecord
100
AcDbDimStyleTableRecord
  2
Standard
 70
     0
340
6E2
  0
ENDTAB
  0
TABLE
  2
BLOCK_RECORD
  5
6E8
330
0
100
AcDbSymbolTable
 70
     1
  0
BLOCK_RECORD
  5
6E9
102
{ACAD_XDICTIONARY
360
712
102
}
330
6E8
100
AcDbSymbolTableRecord
100
AcDbBlockTableRecord
  2
*Model_Space
340
6EC
  0
BLOCK_RECORD
  5
6EE
330
6E8
100
AcDbSymbolTableRecord
100
AcDbBlockTableRecord
  2
*Paper_Space
340
6F1
  0
BLOCK_RECORD
  5
702
330
6E8
100
AcDbSymbolTableRecord
100
AcDbBlockTableRecord
  2
TerminatorOpen_0.5
340
0
  0
ENDTAB
  0
ENDSEC
  0
SECTION
  2
BLOCKS
  0
BLOCK
  5
6EA
330
6E9
100
AcDbEntity
  8
0
100
AcDbBlockBegin
  2
*Model_Space
 70
     0
 71
     0
 10
0.0
 20
0.0
 30
0.0
  3
*Model_Space
  1

  0
ENDBLK
  5
6EB
330
6E9
100
AcDbEntity
  8
0
100
AcDbBlockEnd
  0
BLOCK
  5
6EF
330
6EE
100
AcDbEntity
 67
     1
  8
0
100
AcDbBlockBegin
  2
*Paper_Space
 70
     0
 71
     0
 10
0.0
 20
0.0
 30
0.0
  3
*Paper_Space
  1

  0
ENDBLK
  5
6F0
330
6EE
100
AcDbEntity
 67
     1
  8
0
100
AcDbBlockEnd
  0
BLOCK
  5
706
330
702
100
AcDbEntity
  8
0
100
AcDbBlockBegin
  2
TerminatorOpen_0.5
 70
     0
 71
     0
 10
0.0
 20
0.0
 30
0.0
  3
TerminatorOpen_0.5
  1

  0
LINE
  5
703
330
702
100
AcDbEntity
  8
0
  6
ByBlock
 62
     0
370
    -2
100
AcDbLine
 10
0.0
 20
0.0
 30
0.0
 11
-1.0
 21
0.0
 31
0.0
  0
LINE
  5
704
330
702
100
AcDbEntity
  8
0
  6
ByBlock
 62
     0
370
    -2
100
AcDbLine
 10
0.0
 20
0.0
 30
0.0
 11
-1.0
 21
0.25
 31
0.0
  0
LINE
  5
705
330
702
100
AcDbEntity
  8
0
  6
ByBlock
 62
     0
370
    -2
100
AcDbLine
 10
0.0
 20
0.0
 30
0.0
 11
-1.0
 21
-0.25
 31
0.0
  0
ENDBLK
  5
707
330
702
100
AcDbEntity
  8
0
100
AcDbBlockEnd
  0
ENDSEC
  0
SECTION
  2
ENTITIES
  0
LINE
  5
5B
330
6E9
100
AcDbEntity
  8
Level 10
  6
Continuous
 62
     7
370
    13
100
AcDbLine
 10
-798.0575
 20
51.0959
 30
0.0
 11
-798.0575
 21
51.122
 31
0.0
  0
LINE
  5
5C
330
6E9
100
AcDbEntity
  8
Level 10
  6
Continuous
 62
     7
370
    13
100
AcDbLine
 10
-798.0836
 20
51.0959
 30
0.0
 11
-798.0836
 21
51.122
 31
0.0
  0
LINE
  5
5D
330
6E9
100
AcDbEntity
  8
Level 10
  6
Continuous
 62
     7
370
    13
100
AcDbLine
 10
-798.0461
 20
51.467
 30
0.0
 11
-798.0461
 21
51.4934
 31
0.0
  0
LINE
  5
5E
330
6E9
100
AcDbEntity
  8
Level 10
  6
Continuous
 62
     7
370
    13
100
AcDbLine
 10
-798.0197
 20
51.467
 30
0.0
 11
-798.0197
 21
51.4934
 31
0.0
  0
LINE
  5
5F
330
6E9
100
AcDbEntity
  8
Level 10
  6
Continuous
 62
     7
370
    13
100
AcDbLine
 10
-798.0461
 20
51.4934
 30
0.0
 11
-798.0197
 21
51.4934
 31
0.0
  0
LINE
  5
60
330
6E9
100
AcDbEntity
  8
Level 10
  6
Continuous
 62
     7
370
    13
100
AcDbLine
 10
-798.0461
 20
51.467
 30
0.0
 11
-798.0197
 21
51.467
 31
0.0
  0
LINE
  5
61
330
6E9
100
AcDbEntity
  8
Level 10
  6
Continuous
 62
     7
370
    13
100
AcDbLine
 10
-798.0836
 20
51.0959
 30
0.0
 11
-798.0575
 21
51.0959
 31
0.0
  0
LINE
  5
62
330
6E9
100
AcDbEntity
  8
Level 10
  6
Continuous
 62
     7
370
    13
100
AcDbLine
 10
-798.0836
 20
51.122
 30
0.0
 11
-798.0575
 21
51.122
 31
0.0
  0
LINE
  5
63
330
6E9
100
AcDbEntity
  8
Level 10
  6
Continuous
 62
     7
370
    13
100
AcDbLine
 10
-798.1136
 20
51.41
 30
0.0
 11
-798.1136
 21
51.4385
 31
0.0
  0
LINE
  5
64
330
6E9
100
AcDbEntity
  8
Level 10
  6
Continuous
 62
     7
370
    13
100
AcDbLine
 10
-798.0851
 20
51.41
 30
0.0
 11
-798.0851
 21
51.4385
 31
0.0
  0
LINE
  5
65
330
6E9
100
AcDbEntity
  8
Level 10
  6
Continuous
 62
     7
370
    13
100
AcDbLine
 10
-798.1136
 20
51.41
 30
0.0
 11
-798.0851
 21
51.41
 31
0.0
  0
LINE
  5
66
330
6E9
100
AcDbEntity
  8
Level 10
  6
Continuous
 62
     7
370
    13
100
AcDbLine
 10
-798.1232
 20
51.1721
 30
0.0
 11
-798.1232
 21
51.2006
 31
0.0
  0
LINE
  5
67
330
6E9
100
AcDbEntity
  8
Level 10
  6
Continuous
 62
     7
370
    13
100
AcDbLine
 10
-798.1517
 20
51.1721
 30
0.0
 11
-798.1517
 21
51.2006
 31
0.0
  0
LINE
  5
68
330
6E9
100
AcDbEntity
  8
Level 10
  6
Continuous
 62
     7
370
    13
100
AcDbLine
 10
-798.1136
 20
51.4385
 30
0.0
 11
-798.0851
 21
51.4385
 31
0.0
  0
LINE
  5
69
330
6E9
100
AcDbEntity
  8
Level 10
  6
Continuous
 62
     7
370
    13
100
AcDbLine
 10
-797.9801
 20
51.4385
 30
0.0
 11
-797.9516
 21
51.4385
 31
0.0
  0
LINE
  5
6A
330
6E9
100
AcDbEntity
  8
Level 10
  6
Continuous
 62
     7
370
    13
100
AcDbLine
 10
-797.9801
 20
51.41
 30
0.0
 11
-797.9516
 21
51.41
 31
0.0
  0
LINE
  5
6B
330
6E9
100
AcDbEntity
  8
Level 10
  6
Continuous
 62
     7
370
    13
100
AcDbLine
 10
-797.9801
 20
51.41
 30
0.0
 11
-797.9801
 21
51.4385
 31
0.0
  0
LINE
  5
6C
330
6E9
100
AcDbEntity
  8
Level 10
  6
Continuous
 62
     7
370
    13
100
AcDbLine
 10
-798.0851
 20
51.4115
 30
0.0
 11
-797.9801
 21
51.4115
 31
0.0
  0
LINE
  5
6D
330
6E9
100
AcDbEntity
  8
Level 10
  6
Continuous
 62
     7
370
    13
100
AcDbLine
 10
-797.9516
 20
51.4115
 30
0.0
 11
-797.9042
 21
51.4115
 31
0.0
  0
LINE
  5
6E
330
6E9
100
AcDbEntity
  8
Level 10
  6
Continuous
 62
     7
370
    13
100
AcDbLine
 10
-797.9516
 20
51.41
 30
0.0
 11
-797.9516
 21
51.4385
 31
0.0
  0
LINE
  5
6F
330
6E9
100
AcDbEntity
  8
Level 10
  6
Continuous
 62
     7
370
    13
100
AcDbLine
 10
-798.1991
 20
51.1994
 30
0.0
 11
-798.1517
 21
51.1994
 31
0.0
  0
LINE
  5
70
330
6E9
100
AcDbEntity
  8
Level 10
  6
Continuous
 62
     7
370
    13
100
AcDbLine
 10
-798.1517
 20
51.2006
 30
0.0
 11
-798.1232
 21
51.2006
 31
0.0
  0
LINE
  5
71
330
6E9
100
AcDbEntity
  8
Level 10
  6
Continuous
 62
     7
370
    13
100
AcDbLine
 10
-798.0185
 20
51.2006
 30
0.0
 11
-797.99
 21
51.2006
 31
0.0
  0
LINE
  5
72
330
6E9
100
AcDbEntity
  8
Level 10
  6
Continuous
 62
     7
370
    13
100
AcDbLine
 10
-798.1517
 20
51.1721
 30
0.0
 11
-798.1232
 21
51.1721
 31
0.0
  0
LINE
  5
73
330
6E9
100
AcDbEntity
  8
Level 10
  6
Continuous
 62
     7
370
    13
100
AcDbLine
 10
-798.0185
 20
51.1721
 30
0.0
 11
-797.99
 21
51.1721
 31
0.0
  0
LINE
  5
74
330
6E9
100
AcDbEntity
  8
Level 10
  6
Continuous
 62
     7
370
    13
100
AcDbLine
 10
-798.1232
 20
51.1994
 30
0.0
 11
-798.0185
 21
51.1994
 31
0.0
  0
LINE
  5
75
330
6E9
100
AcDbEntity
  8
Level 10
  6
Continuous
 62
     7
370
    13
100
AcDbLine
 10
-797.99
 20
51.1994
 30
0.0
 11
-797.9042
 21
51.1994
 31
0.0
  0
LINE
  5
76
330
6E9
100
AcDbEntity
  8
Level 10
  6
Continuous
 62
     7
370
    13
100
AcDbLine
 10
-797.99
 20
51.1721
 30
0.0
 11
-797.99
 21
51.2006
 31
0.0
  0
LINE
  5
77
330
6E9
100
AcDbEntity
  8
Level 10
  6
Continuous
 62
     7
370
    13
100
AcDbLine
 10
-798.0185
 20
51.1721
 30
0.0
 11
-798.0185
 21
51.2006
 31
0.0
  0
LINE
  5
78
330
6E9
100
AcDbEntity
  8
Level 10
  6
Continuous
 62
     7
370
    13
100
AcDbLine
 10
-798.1991
 20
51.0614
 30
0.0
 11
-798.1991
 21
51.5186
 31
0.0
  0
LINE
  5
79
330
6E9
100
AcDbEntity
  8
Level 10
  6
Continuous
 62
     7
370
    13
100
AcDbLine
 10
-797.9042
 20
51.0614
 30
0.0
 11
-797.9042
 21
51.5186
 31
0.0
  0
LINE
  5
7A
330
6E9
100
AcDbEntity
  8
Level 10
  6
Continuous
 62
     7
370
    13
100
AcDbLine
 10
-798.1991
 20
51.4115
 30
0.0
 11
-798.1136
 21
51.4115
 31
0.0
  0
LINE
  5
7B
330
6E9
100
AcDbEntity
  8
Level 10
  6
Continuous
 62
     7
370
    13
100
AcDbLine
 10
-798.1991
 20
51.0614
 30
0.0
 11
-797.9042
 21
51.0614
 31
0.0
  0
LINE
  5
7C
330
6E9
100
AcDbEntity
  8
Level 10
  6
Continuous
 62
     7
370
    13
100
AcDbLine
 10
-798.1991
 20
51.5186
 30
0.0
 11
-797.9042
 21
51.5186
 31
0.0
  0
LINE
  5
7D
330
6E9
100
AcDbEntity
  8
Level 10
  6
Continuous
 62
     7
370
    13
100
AcDbLine
 10
-798.0461
 20
53.771
 30
0.0
 11
-798.0461
 21
53.7449
 31
0.0
  0
LINE
  5
7E
330
6E9
100
AcDbEntity
  8
Level 10
  6
Continuous
 62
     7
370
    13
100
AcDbLine
 10
-798.0197
 20
53.771
 30
0.0
 11
-798.0197
 21
53.7449
 31
0.0
  0
LINE
  5
7F
330
6E9
100
AcDbEntity
  8
Level 10
  6
Continuous
 62
     7
370
    13
100
AcDbLine
 10
-798.0575
 20
53.3996
 30
0.0
 11
-798.0575
 21
53.3735
 31
0.0
  0
LINE
  5
80
330
6E9
100
AcDbEntity
  8
Level 10
  6
Continuous
 62
     7
370
    13
100
AcDbLine
 10
-798.0836
 20
53.3996
 30
0.0
 11
-798.0836
 21
53.3735
 31
0.0
  0
LINE
  5
81
330
6E9
100
AcDbEntity
  8
Level 10
  6
Continuous
 62
     7
370
    13
100
AcDbLine
 10
-798.0575
 20
53.3735
 30
0.0
 11
-798.0836
 21
53.3735
 31
0.0
  0
LINE
  5
82
330
6E9
100
AcDbEntity
  8
Level 10
  6
Continuous
 62
     7
370
    13
100
AcDbLine
 10
-798.0575
 20
53.3996
 30
0.0
 11
-798.0836
 21
53.3996
 31
0.0
  0
LINE
  5
83
330
6E9
100
AcDbEntity
  8
Level 10
  6
Continuous
 62
     7
370
    13
100
AcDbLine
 10
-798.0197
 20
53.771
 30
0.0
 11
-798.0461
 21
53.771
 31
0.0
  0
LINE
  5
84
330
6E9
100
AcDbEntity
  8
Level 10
  6
Continuous
 62
     7
370
    13
100
AcDbLine
 10
-798.0197
 20
53.7449
 30
0.0
 11
-798.0461
 21
53.7449
 31
0.0
  0
LINE
  5
85
330
6E9
100
AcDbEntity
  8
Level 10
  6
Continuous
 62
     7
370
    13
100
AcDbLine
 10
-797.99
 20
53.4569
 30
0.0
 11
-797.99
 21
53.4284
 31
0.0
  0
LINE
  5
86
330
6E9
100
AcDbEntity
  8
Level 10
  6
Continuous
 62
     7
370
    13
100
AcDbLine
 10
-798.0185
 20
53.4569
 30
0.0
 11
-798.0185
 21
53.4284
 31
0.0
  0
LINE
  5
87
330
6E9
100
AcDbEntity
  8
Level 10
  6
Continuous
 62
     7
370
    13
100
AcDbLine
 10
-797.99
 20
53.4569
 30
0.0
 11
-798.0185
 21
53.4569
 31
0.0
  0
LINE
  5
88
330
6E9
100
AcDbEntity
  8
Level 10
  6
Continuous
 62
     7
370
    13
100
AcDbLine
 10
-797.9801
 20
53.6951
 30
0.0
 11
-797.9801
 21
53.666
 31
0.0
  0
LINE
  5
89
330
6E9
100
AcDbEntity
  8
Level 10
  6
Continuous
 62
     7
370
    13
100
AcDbLine
 10
-797.9516
 20
53.6951
 30
0.0
 11
-797.9516
 21
53.666
 31
0.0
  0
LINE
  5
8A
330
6E9
100
AcDbEntity
  8
Level 10
  6
Continuous
 62
     7
370
    13
100
AcDbLine
 10
-797.99
 20
53.4284
 30
0.0
 11
-798.0185
 21
53.4284
 31
0.0
  0
LINE
  5
8B
330
6E9
100
AcDbEntity
  8
Level 10
  6
Continuous
 62
     7
370
    13
100
AcDbLine
 10
-798.1232
 20
53.4284
 30
0.0
 11
-798.1517
 21
53.4284
 31
0.0
  0
LINE
  5
8C
330
6E9
100
AcDbEntity
  8
Level 10
  6
Continuous
 62
     7
370
    13
100
AcDbLine
 10
-798.1232
 20
53.4569
 30
0.0
 11
-798.1517
 21
53.4569
 31
0.0
  0
LINE
  5
8D
330
6E9
100
AcDbEntity
  8
Level 10
  6
Continuous
 62
     7
370
    13
100
AcDbLine
 10
-798.1232
 20
53.4569
 30
0.0
 11
-798.1232
 21
53.4284
 31
0.0
  0
LINE
  5
8E
330
6E9
100
AcDbEntity
  8
Level 10
  6
Continuous
 62
     7
370
    13
100
AcDbLine
 10
-798.0185
 20
53.456
 30
0.0
 11
-798.1232
 21
53.456
 31
0.0
  0
LINE
  5
8F
330
6E9
100
AcDbEntity
  8
Level 10
  6
Continuous
 62
     7
370
    13
100
AcDbLine
 10
-798.1517
 20
53.456
 30
0.0
 11
-798.1991
 21
53.456
 31
0.0
  0
LINE
  5
90
330
6E9
100
AcDbEntity
  8
Level 10
  6
Continuous
 62
     7
370
    13
100
AcDbLine
 10
-798.1517
 20
53.4569
 30
0.0
 11
-798.1517
 21
53.4284
 31
0.0
  0
LINE
  5
91
330
6E9
100
AcDbEntity
  8
Level 10
  6
Continuous
 62
     7
370
    13
100
AcDbLine
 10
-797.9042
 20
53.6675
 30
0.0
 11
-797.9516
 21
53.6675
 31
0.0
  0
LINE
  5
92
330
6E9
100
AcDbEntity
  8
Level 10
  6
Continuous
 62
     7
370
    13
100
AcDbLine
 10
-797.9516
 20
53.666
 30
0.0
 11
-797.9801
 21
53.666
 31
0.0
  0
LINE
  5
93
330
6E9
100
AcDbEntity
  8
Level 10
  6
Continuous
 62
     7
370
    13
100
AcDbLine
 10
-798.0851
 20
53.666
 30
0.0
 11
-798.1136
 21
53.666
 31
0.0
  0
LINE
  5
94
330
6E9
100
AcDbEntity
  8
Level 10
  6
Continuous
 62
     7
370
    13
100
AcDbLine
 10
-797.9516
 20
53.6951
 30
0.0
 11
-797.9801
 21
53.6951
 31
0.0
  0
LINE
  5
95
330
6E9
100
AcDbEntity
  8
Level 10
  6
Continuous
 62
     7
370
    13
100
AcDbLine
 10
-798.0851
 20
53.6951
 30
0.0
 11
-798.1136
 21
53.6951
 31
0.0
  0
LINE
  5
96
330
6E9
100
AcDbEntity
  8
Level 10
  6
Continuous
 62
     7
370
    13
100
AcDbLine
 10
-797.9801
 20
53.6675
 30
0.0
 11
-798.0851
 21
53.6675
 31
0.0
  0
LINE
  5
97
330
6E9
100
AcDbEntity
  8
Level 10
  6
Continuous
 62
     7
370
    13
100
AcDbLine
 10
-798.1136
 20
53.6675
 30
0.0
 11
-798.1991
 21
53.6675
 31
0.0
  0
LINE
  5
98
330
6E9
100
AcDbEntity
  8
Level 10
  6
Continuous
 62
     7
370
    13
100
AcDbLine
 10
-798.1136
 20
53.6951
 30
0.0
 11
-798.1136
 21
53.666
 31
0.0
  0
LINE
  5
99
330
6E9
100
AcDbEntity
  8
Level 10
  6
Continuous
 62
     7
370
    13
100
AcDbLine
 10
-798.0851
 20
53.6951
 30
0.0
 11
-798.0851
 21
53.666
 31
0.0
  0
LINE
  5
9A
330
6E9
100
AcDbEntity
  8
Level 10
  6
Continuous
 62
     7
370
    13
100
AcDbLine
 10
-797.9042
 20
53.8055
 30
0.0
 11
-797.9042
 21
53.3486
 31
0.0
  0
LINE
  5
9B
330
6E9
100
AcDbEntity
  8
Level 10
  6
Continuous
 62
     7
370
    13
100
AcDbLine
 10
-798.1991
 20
53.8055
 30
0.0
 11
-798.1991
 21
53.3486
 31
0.0
  0
LINE
  5
9C
330
6E9
100
AcDbEntity
  8
Level 10
  6
Continuous
 62
     7
370
    13
100
AcDbLine
 10
-797.9042
 20
53.456
 30
0.0
 11
-797.99
 21
53.456
 31
0.0
  0
LINE
  5
9D
330
6E9
100
AcDbEntity
  8
Level 10
  6
Continuous
 62
     7
370
    13
100
AcDbLine
 10
-797.9042
 20
53.8055
 30
0.0
 11
-798.1991
 21
53.8055
 31
0.0
  0
LINE
  5
9E
330
6E9
100
AcDbEntity
  8
Level 10
  6
Continuous
 62
     7
370
    13
100
AcDbLine
 10
-797.9042
 20
53.3486
 30
0.0
 11
-798.1991
 21
53.3486
 31
0.0
  0
LINE
  5
9F
330
6E9
100
AcDbEntity
  8
Level 10
  6
Continuous
 62
     7
370
    13
100
AcDbLine
 10
-797.3895
 20
52.4336
 30
0.0
 11
-797.085
 21
52.4336
 31
0.0
  0
LINE
  5
A0
330
6E9
100
AcDbEntity
  8
Level 10
  6
Continuous
 62
     7
370
    13
100
AcDbLine
 10
-798.2231
 20
54.3764
 30
0.0
 11
-798.2231
 21
50.4905
 31
0.0
  0
LINE
  5
A1
330
6E9
100
AcDbEntity
  8
Level 10
  6
Continuous
 62
     7
370
    13
100
AcDbLine
 10
-797.8802
 20
54.3764
 30
0.0
 11
-797.8802
 21
50.4905
 31
0.0
  0
LINE
  5
A2
330
6E9
100
AcDbEntity
  8
Level 10
  6
Continuous
 62
     7
370
    13
100
AcDbLine
 10
-798.2231
 20
54.3764
 30
0.0
 11
-797.8802
 21
54.3764
 31
0.0
  0
LINE
  5
A3
330
6E9
100
AcDbEntity
  8
Level 10
  6
Continuous
 62
     7
370
    13
100
AcDbLine
 10
-798.2231
 20
50.4905
 30
0.0
 11
-797.8802
 21
50.4905
 31
0.0
  0
LINE
  5
A4
330
6E9
100
AcDbEntity
  8
Level 10
  6
Continuous
 62
     7
370
    13
100
AcDbLine
 10
-797.2506
 20
51.467
 30
0.0
 11
-797.2506
 21
51.4934
 31
0.0
  0
LINE
  5
A5
330
6E9
100
AcDbEntity
  8
Level 10
  6
Continuous
 62
     7
370
    13
100
AcDbLine
 10
-797.2242
 20
51.467
 30
0.0
 11
-797.2242
 21
51.4934
 31
0.0
  0
LINE
  5
A6
330
6E9
100
AcDbEntity
  8
Level 10
  6
Continuous
 62
     7
370
    13
100
AcDbLine
 10
-797.2506
 20
51.4934
 30
0.0
 11
-797.2242
 21
51.4934
 31
0.0
  0
LINE
  5
A7
330
6E9
100
AcDbEntity
  8
Level 10
  6
Continuous
 62
     7
370
    13
100
AcDbLine
 10
-797.2506
 20
51.467
 30
0.0
 11
-797.2242
 21
51.467
 31
0.0
  0
LINE
  5
A8
330
6E9
100
AcDbEntity
  8
Level 10
  6
Continuous
 62
     7
370
    13
100
AcDbLine
 10
-797.361
 20
51.41
 30
0.0
 11
-797.361
 21
51.4385
 31
0.0
  0
LINE
  5
A9
330
6E9
100
AcDbEntity
  8
Level 10
  6
Continuous
 62
     7
370
    13
100
AcDbLine
 10
-797.3325
 20
51.41
 30
0.0
 11
-797.3325
 21
51.4385
 31
0.0
  0
LINE
  5
AA
330
6E9
100
AcDbEntity
  8
Level 10
  6
Continuous
 62
     7
370
    13
100
AcDbLine
 10
-797.361
 20
51.41
 30
0.0
 11
-797.3325
 21
51.41
 31
0.0
  0
LINE
  5
AB
330
6E9
100
AcDbEntity
  8
Level 10
  6
Continuous
 62
     7
370
    13
100
AcDbLine
 10
-797.361
 20
51.4385
 30
0.0
 11
-797.3325
 21
51.4385
 31
0.0
  0
LINE
  5
AC
330
6E9
100
AcDbEntity
  8
Level 10
  6
Continuous
 62
     7
370
    13
100
AcDbLine
 10
-797.142
 20
51.4385
 30
0.0
 11
-797.1135
 21
51.4385
 31
0.0
  0
LINE
  5
AD
330
6E9
100
AcDbEntity
  8
Level 10
  6
Continuous
 62
     7
370
    13
100
AcDbLine
 10
-797.142
 20
51.41
 30
0.0
 11
-797.1135
 21
51.41
 31
0.0
  0
LINE
  5
AE
330
6E9
100
AcDbEntity
  8
Level 10
  6
Continuous
 62
     7
370
    13
100
AcDbLine
 10
-797.142
 20
51.41
 30
0.0
 11
-797.142
 21
51.4385
 31
0.0
  0
LINE
  5
AF
330
6E9
100
AcDbEntity
  8
Level 10
  6
Continuous
 62
     7
370
    13
100
AcDbLine
 10
-797.3325
 20
51.4115
 30
0.0
 11
-797.142
 21
51.4115
 31
0.0
  0
LINE
  5
B0
330
6E9
100
AcDbEntity
  8
Level 10
  6
Continuous
 62
     7
370
    13
100
AcDbLine
 10
-797.1135
 20
51.4115
 30
0.0
 11
-797.085
 21
51.4115
 31
0.0
  0
LINE
  5
B1
330
6E9
100
AcDbEntity
  8
Level 10
  6
Continuous
 62
     7
370
    13
100
AcDbLine
 10
-797.1135
 20
51.41
 30
0.0
 11
-797.1135
 21
51.4385
 31
0.0
  0
LINE
  5
B2
330
6E9
100
AcDbEntity
  8
Level 10
  6
Continuous
 62
     7
370
    13
100
AcDbLine
 10
-797.3895
 20
51.1994
 30
0.0
 11
-797.085
 21
51.1994
 31
0.0
  0
LINE
  5
B3
330
6E9
100
AcDbEntity
  8
Level 10
  6
Continuous
 62
     7
370
    13
100
AcDbLine
 10
-797.3895
 20
51.4115
 30
0.0
 11
-797.361
 21
51.4115
 31
0.0
  0
LINE
  5
B4
330
6E9
100
AcDbEntity
  8
Level 10
  6
Continuous
 62
     7
370
    13
100
AcDbLine
 10
-797.1612
 20
53.7725
 30
0.0
 11
-797.1612
 21
53.744
 31
0.0
  0
LINE
  5
B5
330
6E9
100
AcDbEntity
  8
Level 10
  6
Continuous
 62
     7
370
    13
100
AcDbLine
 10
-797.1327
 20
53.7725
 30
0.0
 11
-797.1327
 21
53.744
 31
0.0
  0
LINE
  5
B6
330
6E9
100
AcDbEntity
  8
Level 10
  6
Continuous
 62
     7
370
    13
100
AcDbLine
 10
-797.1327
 20
53.744
 30
0.0
 11
-797.1612
 21
53.744
 31
0.0
  0
LINE
  5
B7
330
6E9
100
AcDbEntity
  8
Level 10
  6
Continuous
 62
     7
370
    13
100
AcDbLine
 10
-797.3136
 20
53.744
 30
0.0
 11
-797.3421
 21
53.744
 31
0.0
  0
LINE
  5
B8
330
6E9
100
AcDbEntity
  8
Level 10
  6
Continuous
 62
     7
370
    13
100
AcDbLine
 10
-797.1327
 20
53.7725
 30
0.0
 11
-797.1612
 21
53.7725
 31
0.0
  0
LINE
  5
B9
330
6E9
100
AcDbEntity
  8
Level 10
  6
Continuous
 62
     7
370
    13
100
AcDbLine
 10
-797.3136
 20
53.7725
 30
0.0
 11
-797.3421
 21
53.7725
 31
0.0
  0
LINE
  5
BA
330
6E9
100
AcDbEntity
  8
Level 10
  6
Continuous
 62
     7
370
    13
100
AcDbLine
 10
-797.3421
 20
53.7725
 30
0.0
 11
-797.3421
 21
53.744
 31
0.0
  0
LINE
  5
BB
330
6E9
100
AcDbEntity
  8
Level 10
  6
Continuous
 62
     7
370
    13
100
AcDbLine
 10
-797.3136
 20
53.7725
 30
0.0
 11
-797.3136
 21
53.744
 31
0.0
  0
LINE
  5
BC
330
6E9
100
AcDbEntity
  8
Level 10
  6
Continuous
 62
     7
370
    13
100
AcDbLine
 10
-797.4087
 20
54.3764
 30
0.0
 11
-797.4087
 21
50.4905
 31
0.0
  0
LINE
  5
BD
330
6E9
100
AcDbEntity
  8
Level 10
  6
Continuous
 62
     7
370
    13
100
AcDbLine
 10
-797.0661
 20
54.3764
 30
0.0
 11
-797.0661
 21
50.4905
 31
0.0
  0
LINE
  5
BE
330
6E9
100
AcDbEntity
  8
Level 10
  6
Continuous
 62
     7
370
    13
100
AcDbLine
 10
-797.4087
 20
54.3764
 30
0.0
 11
-797.0661
 21
54.3764
 31
0.0
  0
LINE
  5
BF
330
6E9
100
AcDbEntity
  8
Level 10
  6
Continuous
 62
     7
370
    13
100
AcDbLine
 10
-797.4087
 20
50.4905
 30
0.0
 11
-797.0661
 21
50.4905
 31
0.0
  0
LINE
  5
C0
330
6E9
100
AcDbEntity
  8
Level 10
  6
Continuous
 62
     7
370
    13
100
AcDbLine
 10
-796.2706
 20
53.456
 30
0.0
 11
-796.5751
 21
53.456
 31
0.0
  0
LINE
  5
C1
330
6E9
100
AcDbEntity
  8
Level 10
  6
Continuous
 62
     7
370
    13
100
AcDbLine
 10
-796.2706
 20
53.6675
 30
0.0
 11
-796.5751
 21
53.6675
 31
0.0
  0
LINE
  5
C2
330
6E9
100
AcDbEntity
  8
Level 10
  6
Continuous
 62
     7
370
    13
100
AcDbLine
 10
-796.5946
 20
54.3764
 30
0.0
 11
-796.5946
 21
50.4905
 31
0.0
  0
LINE
  5
C3
330
6E9
100
AcDbEntity
  8
Level 10
  6
Continuous
 62
     7
370
    13
100
AcDbLine
 10
-796.2511
 20
54.3764
 30
0.0
 11
-796.2511
 21
50.4905
 31
0.0
  0
LINE
  5
C4
330
6E9
100
AcDbEntity
  8
Level 10
  6
Continuous
 62
     7
370
    13
100
AcDbLine
 10
-796.5946
 20
54.3764
 30
0.0
 11
-796.2511
 21
54.3764
 31
0.0
  0
LINE
  5
C5
330
6E9
100
AcDbEntity
  8
Level 10
  6
Continuous
 62
     7
370
    13
100
AcDbLine
 10
-796.5946
 20
50.4905
 30
0.0
 11
-796.2511
 21
50.4905
 31
0.0
  0
LINE
  5
C6
330
6E9
100
AcDbEntity
  8
Level 10
  6
Continuous
 62
     7
370
    13
100
AcDbLine
 10
-795.5951
 20
51.0944
 30
0.0
 11
-795.5951
 21
51.1205
 31
0.0
  0
LINE
  5
C7
330
6E9
100
AcDbEntity
  8
Level 10
  6
Continuous
 62
     7
370
    13
100
AcDbLine
 10
-795.6215
 20
51.0944
 30
0.0
 11
-795.6215
 21
51.1205
 31
0.0
  0
LINE
  5
C8
330
6E9
100
AcDbEntity
  8
Level 10
  6
Continuous
 62
     7
370
    13
100
AcDbLine
 10
-795.6215
 20
51.0944
 30
0.0
 11
-795.5951
 21
51.0944
 31
0.0
  0
LINE
  5
C9
330
6E9
100
AcDbEntity
  8
Level 10
  6
Continuous
 62
     7
370
    13
100
AcDbLine
 10
-795.6215
 20
51.1205
 30
0.0
 11
-795.5951
 21
51.1205
 31
0.0
  0
LINE
  5
CA
330
6E9
100
AcDbEntity
  8
Level 10
  6
Continuous
 62
     7
370
    13
100
AcDbLine
 10
-795.68
 20
51.1721
 30
0.0
 11
-795.68
 21
51.2006
 31
0.0
  0
LINE
  5
CB
330
6E9
100
AcDbEntity
  8
Level 10
  6
Continuous
 62
     7
370
    13
100
AcDbLine
 10
-795.7085
 20
51.1721
 30
0.0
 11
-795.7085
 21
51.2006
 31
0.0
  0
LINE
  5
CC
330
6E9
100
AcDbEntity
  8
Level 10
  6
Continuous
 62
     7
370
    13
100
AcDbLine
 10
-795.761
 20
51.1994
 30
0.0
 11
-795.7085
 21
51.1994
 31
0.0
  0
LINE
  5
CD
330
6E9
100
AcDbEntity
  8
Level 10
  6
Continuous
 62
     7
370
    13
100
AcDbLine
 10
-795.7085
 20
51.2006
 30
0.0
 11
-795.68
 21
51.2006
 31
0.0
  0
LINE
  5
CE
330
6E9
100
AcDbEntity
  8
Level 10
  6
Continuous
 62
     7
370
    13
100
AcDbLine
 10
-795.5372
 20
51.2006
 30
0.0
 11
-795.5087
 21
51.2006
 31
0.0
  0
LINE
  5
CF
330
6E9
100
AcDbEntity
  8
Level 10
  6
Continuous
 62
     7
370
    13
100
AcDbLine
 10
-795.7085
 20
51.1721
 30
0.0
 11
-795.68
 21
51.1721
 31
0.0
  0
LINE
  5
D0
330
6E9
100
AcDbEntity
  8
Level 10
  6
Continuous
 62
     7
370
    13
100
AcDbLine
 10
-795.5372
 20
51.1721
 30
0.0
 11
-795.5087
 21
51.1721
 31
0.0
  0
LINE
  5
D1
330
6E9
100
AcDbEntity
  8
Level 10
  6
Continuous
 62
     7
370
    13
100
AcDbLine
 10
-795.68
 20
51.1994
 30
0.0
 11
-795.5372
 21
51.1994
 31
0.0
  0
LINE
  5
D2
330
6E9
100
AcDbEntity
  8
Level 10
  6
Continuous
 62
     7
370
    13
100
AcDbLine
 10
-795.5087
 20
51.1994
 30
0.0
 11
-795.4562
 21
51.1994
 31
0.0
  0
LINE
  5
D3
330
6E9
100
AcDbEntity
  8
Level 10
  6
Continuous
 62
     7
370
    13
100
AcDbLine
 10
-795.5087
 20
51.1721
 30
0.0
 11
-795.5087
 21
51.2006
 31
0.0
  0
LINE
  5
D4
330
6E9
100
AcDbEntity
  8
Level 10
  6
Continuous
 62
     7
370
    13
100
AcDbLine
 10
-795.5372
 20
51.1721
 30
0.0
 11
-795.5372
 21
51.2006
 31
0.0
  0
LINE
  5
D5
330
6E9
100
AcDbEntity
  8
Level 10
  6
Continuous
 62
     7
370
    13
100
AcDbLine
 10
-795.761
 20
51.4115
 30
0.0
 11
-795.4562
 21
51.4115
 31
0.0
  0
LINE
  5
D6
330
6E9
100
AcDbEntity
  8
Level 10
  6
Continuous
 62
     7
370
    13
100
AcDbLine
 10
-795.7796
 20
54.3764
 30
0.0
 11
-795.7796
 21
50.4905
 31
0.0
  0
LINE
  5
D7
330
6E9
100
AcDbEntity
  8
Level 10
  6
Continuous
 62
     7
370
    13
100
AcDbLine
 10
-795.437
 20
54.3764
 30
0.0
 11
-795.437
 21
50.4905
 31
0.0
  0
LINE
  5
D8
330
6E9
100
AcDbEntity
  8
Level 10
  6
Continuous
 62
     7
370
    13
100
AcDbLine
 10
-795.7796
 20
54.3764
 30
0.0
 11
-795.437
 21
54.3764
 31
0.0
  0
LINE
  5
D9
330
6E9
100
AcDbEntity
  8
Level 10
  6
Continuous
 62
     7
370
    13
100
AcDbLine
 10
-795.7796
 20
50.4905
 30
0.0
 11
-795.437
 21
50.4905
 31
0.0
  0
LINE
  5
F6
330
6E9
100
AcDbEntity
  8
Level 10
  6
Continuous
 62
     7
370
    13
100
AcDbLine
 10
-794.7999
 20
51.0959
 30
0.0
 11
-794.7999
 21
51.122
 31
0.0
  0
LINE
  5
F7
330
6E9
100
AcDbEntity
  8
Level 10
  6
Continuous
 62
     7
370
    13
100
AcDbLine
 10
-794.8263
 20
51.0959
 30
0.0
 11
-794.8263
 21
51.122
 31
0.0
  0
LINE
  5
F8
330
6E9
100
AcDbEntity
  8
Level 10
  6
Continuous
 62
     7
370
    13
100
AcDbLine
 10
-794.7879
 20
51.467
 30
0.0
 11
-794.7879
 21
51.4934
 31
0.0
  0
LINE
  5
F9
330
6E9
100
AcDbEntity
  8
Level 10
  6
Continuous
 62
     7
370
    13
100
AcDbLine
 10
-794.7618
 20
51.467
 30
0.0
 11
-794.7618
 21
51.4934
 31
0.0
  0
LINE
  5
FA
330
6E9
100
AcDbEntity
  8
Level 10
  6
Continuous
 62
     7
370
    13
100
AcDbLine
 10
-794.7879
 20
51.4934
 30
0.0
 11
-794.7618
 21
51.4934
 31
0.0
  0
LINE
  5
FB
330
6E9
100
AcDbEntity
  8
Level 10
  6
Continuous
 62
     7
370
    13
100
AcDbLine
 10
-794.7879
 20
51.467
 30
0.0
 11
-794.7618
 21
51.467
 31
0.0
  0
LINE
  5
FC
330
6E9
100
AcDbEntity
  8
Level 10
  6
Continuous
 62
     7
370
    13
100
AcDbLine
 10
-794.8263
 20
51.0959
 30
0.0
 11
-794.7999
 21
51.0959
 31
0.0
  0
LINE
  5
FD
330
6E9
100
AcDbEntity
  8
Level 10
  6
Continuous
 62
     7
370
    13
100
AcDbLine
 10
-794.8263
 20
51.122
 30
0.0
 11
-794.7999
 21
51.122
 31
0.0
  0
LINE
  5
FE
330
6E9
100
AcDbEntity
  8
Level 10
  6
Continuous
 62
     7
370
    13
100
AcDbLine
 10
-794.856
 20
51.41
 30
0.0
 11
-794.856
 21
51.4385
 31
0.0
  0
LINE
  5
FF
330
6E9
100
AcDbEntity
  8
Level 10
  6
Continuous
 62
     7
370
    13
100
AcDbLine
 10
-794.8275
 20
51.41
 30
0.0
 11
-794.8275
 21
51.4385
 31
0.0
  0
LINE
  5
100
330
6E9
100
AcDbEntity
  8
Level 10
  6
Continuous
 62
     7
370
    13
100
AcDbLine
 10
-794.856
 20
51.41
 30
0.0
 11
-794.8275
 21
51.41
 31
0.0
  0
LINE
  5
101
330
6E9
100
AcDbEntity
  8
Level 10
  6
Continuous
 62
     7
370
    13
100
AcDbLine
 10
-794.8659
 20
51.1721
 30
0.0
 11
-794.8659
 21
51.2006
 31
0.0
  0
LINE
  5
102
330
6E9
100
AcDbEntity
  8
Level 10
  6
Continuous
 62
     7
370
    13
100
AcDbLine
 10
-794.8944
 20
51.1721
 30
0.0
 11
-794.8944
 21
51.2006
 31
0.0
  0
LINE
  5
103
330
6E9
100
AcDbEntity
  8
Level 10
  6
Continuous
 62
     7
370
    13
100
AcDbLine
 10
-794.856
 20
51.4385
 30
0.0
 11
-794.8275
 21
51.4385
 31
0.0
  0
LINE
  5
104
330
6E9
100
AcDbEntity
  8
Level 10
  6
Continuous
 62
     7
370
    13
100
AcDbLine
 10
-794.7228
 20
51.4385
 30
0.0
 11
-794.6943
 21
51.4385
 31
0.0
  0
LINE
  5
105
330
6E9
100
AcDbEntity
  8
Level 10
  6
Continuous
 62
     7
370
    13
100
AcDbLine
 10
-794.7228
 20
51.41
 30
0.0
 11
-794.6943
 21
51.41
 31
0.0
  0
LINE
  5
106
330
6E9
100
AcDbEntity
  8
Level 10
  6
Continuous
 62
     7
370
    13
100
AcDbLine
 10
-794.7228
 20
51.41
 30
0.0
 11
-794.7228
 21
51.4385
 31
0.0
  0
LINE
  5
107
330
6E9
100
AcDbEntity
  8
Level 10
  6
Continuous
 62
     7
370
    13
100
AcDbLine
 10
-794.8275
 20
51.4115
 30
0.0
 11
-794.7228
 21
51.4115
 31
0.0
  0
LINE
  5
108
330
6E9
100
AcDbEntity
  8
Level 10
  6
Continuous
 62
     7
370
    13
100
AcDbLine
 10
-794.6943
 20
51.4115
 30
0.0
 11
-794.6463
 21
51.4115
 31
0.0
  0
LINE
  5
109
330
6E9
100
AcDbEntity
  8
Level 10
  6
Continuous
 62
     7
370
    13
100
AcDbLine
 10
-794.6943
 20
51.41
 30
0.0
 11
-794.6943
 21
51.4385
 31
0.0
  0
LINE
  5
10A
330
6E9
100
AcDbEntity
  8
Level 10
  6
Continuous
 62
     7
370
    13
100
AcDbLine
 10
-794.9418
 20
51.1994
 30
0.0
 11
-794.8944
 21
51.1994
 31
0.0
  0
LINE
  5
10B
330
6E9
100
AcDbEntity
  8
Level 10
  6
Continuous
 62
     7
370
    13
100
AcDbLine
 10
-794.8944
 20
51.2006
 30
0.0
 11
-794.8659
 21
51.2006
 31
0.0
  0
LINE
  5
10C
330
6E9
100
AcDbEntity
  8
Level 10
  6
Continuous
 62
     7
370
    13
100
AcDbLine
 10
-794.7609
 20
51.2006
 30
0.0
 11
-794.7324
 21
51.2006
 31
0.0
  0
LINE
  5
10D
330
6E9
100
AcDbEntity
  8
Level 10
  6
Continuous
 62
     7
370
    13
100
AcDbLine
 10
-794.8944
 20
51.1721
 30
0.0
 11
-794.8659
 21
51.1721
 31
0.0
  0
LINE
  5
10E
330
6E9
100
AcDbEntity
  8
Level 10
  6
Continuous
 62
     7
370
    13
100
AcDbLine
 10
-794.7609
 20
51.1721
 30
0.0
 11
-794.7324
 21
51.1721
 31
0.0
  0
LINE
  5
10F
330
6E9
100
AcDbEntity
  8
Level 10
  6
Continuous
 62
     7
370
    13
100
AcDbLine
 10
-794.8659
 20
51.1994
 30
0.0
 11
-794.7609
 21
51.1994
 31
0.0
  0
LINE
  5
110
330
6E9
100
AcDbEntity
  8
Level 10
  6
Continuous
 62
     7
370
    13
100
AcDbLine
 10
-794.7324
 20
51.1994
 30
0.0
 11
-794.6463
 21
51.1994
 31
0.0
  0
LINE
  5
111
330
6E9
100
AcDbEntity
  8
Level 10
  6
Continuous
 62
     7
370
    13
100
AcDbLine
 10
-794.7324
 20
51.1721
 30
0.0
 11
-794.7324
 21
51.2006
 31
0.0
  0
LINE
  5
112
330
6E9
100
AcDbEntity
  8
Level 10
  6
Continuous
 62
     7
370
    13
100
AcDbLine
 10
-794.7609
 20
51.1721
 30
0.0
 11
-794.7609
 21
51.2006
 31
0.0
  0
LINE
  5
113
330
6E9
100
AcDbEntity
  8
Level 10
  6
Continuous
 62
     7
370
    13
100
AcDbLine
 10
-794.9418
 20
51.0614
 30
0.0
 11
-794.9418
 21
51.5186
 31
0.0
  0
LINE
  5
114
330
6E9
100
AcDbEntity
  8
Level 10
  6
Continuous
 62
     7
370
    13
100
AcDbLine
 10
-794.6463
 20
51.0614
 30
0.0
 11
-794.6463
 21
51.5186
 31
0.0
  0
LINE
  5
115
330
6E9
100
AcDbEntity
  8
Level 10
  6
Continuous
 62
     7
370
    13
100
AcDbLine
 10
-794.9418
 20
51.4115
 30
0.0
 11
-794.856
 21
51.4115
 31
0.0
  0
LINE
  5
116
330
6E9
100
AcDbEntity
  8
Level 10
  6
Continuous
 62
     7
370
    13
100
AcDbLine
 10
-794.9418
 20
51.0614
 30
0.0
 11
-794.6463
 21
51.0614
 31
0.0
  0
LINE
  5
117
330
6E9
100
AcDbEntity
  8
Level 10
  6
Continuous
 62
     7
370
    13
100
AcDbLine
 10
-794.9418
 20
51.5186
 30
0.0
 11
-794.6463
 21
51.5186
 31
0.0
  0
LINE
  5
118
330
6E9
100
AcDbEntity
  8
Level 10
  6
Continuous
 62
     7
370
    13
100
AcDbLine
 10
-794.7879
 20
53.771
 30
0.0
 11
-794.7879
 21
53.7449
 31
0.0
  0
LINE
  5
119
330
6E9
100
AcDbEntity
  8
Level 10
  6
Continuous
 62
     7
370
    13
100
AcDbLine
 10
-794.7618
 20
53.771
 30
0.0
 11
-794.7618
 21
53.7449
 31
0.0
  0
LINE
  5
11A
330
6E9
100
AcDbEntity
  8
Level 10
  6
Continuous
 62
     7
370
    13
100
AcDbLine
 10
-794.7999
 20
53.3996
 30
0.0
 11
-794.7999
 21
53.3735
 31
0.0
  0
LINE
  5
11B
330
6E9
100
AcDbEntity
  8
Level 10
  6
Continuous
 62
     7
370
    13
100
AcDbLine
 10
-794.8263
 20
53.3996
 30
0.0
 11
-794.8263
 21
53.3735
 31
0.0
  0
LINE
  5
11C
330
6E9
100
AcDbEntity
  8
Level 10
  6
Continuous
 62
     7
370
    13
100
AcDbLine
 10
-794.7999
 20
53.3735
 30
0.0
 11
-794.8263
 21
53.3735
 31
0.0
  0
LINE
  5
11D
330
6E9
100
AcDbEntity
  8
Level 10
  6
Continuous
 62
     7
370
    13
100
AcDbLine
 10
-794.7999
 20
53.3996
 30
0.0
 11
-794.8263
 21
53.3996
 31
0.0
  0
LINE
  5
11E
330
6E9
100
AcDbEntity
  8
Level 10
  6
Continuous
 62
     7
370
    13
100
AcDbLine
 10
-794.7618
 20
53.771
 30
0.0
 11
-794.7879
 21
53.771
 31
0.0
  0
LINE
  5
11F
330
6E9
100
AcDbEntity
  8
Level 10
  6
Continuous
 62
     7
370
    13
100
AcDbLine
 10
-794.7618
 20
53.7449
 30
0.0
 11
-794.7879
 21
53.7449
 31
0.0
  0
LINE
  5
120
330
6E9
100
AcDbEntity
  8
Level 10
  6
Continuous
 62
     7
370
    13
100
AcDbLine
 10
-794.7324
 20
53.4569
 30
0.0
 11
-794.7324
 21
53.4284
 31
0.0
  0
LINE
  5
121
330
6E9
100
AcDbEntity
  8
Level 10
  6
Continuous
 62
     7
370
    13
100
AcDbLine
 10
-794.7609
 20
53.4569
 30
0.0
 11
-794.7609
 21
53.4284
 31
0.0
  0
LINE
  5
122
330
6E9
100
AcDbEntity
  8
Level 10
  6
Continuous
 62
     7
370
    13
100
AcDbLine
 10
-794.7324
 20
53.4569
 30
0.0
 11
-794.7609
 21
53.4569
 31
0.0
  0
LINE
  5
123
330
6E9
100
AcDbEntity
  8
Level 10
  6
Continuous
 62
     7
370
    13
100
AcDbLine
 10
-794.7228
 20
53.6951
 30
0.0
 11
-794.7228
 21
53.666
 31
0.0
  0
LINE
  5
124
330
6E9
100
AcDbEntity
  8
Level 10
  6
Continuous
 62
     7
370
    13
100
AcDbLine
 10
-794.6943
 20
53.6951
 30
0.0
 11
-794.6943
 21
53.666
 31
0.0
  0
LINE
  5
125
330
6E9
100
AcDbEntity
  8
Level 10
  6
Continuous
 62
     7
370
    13
100
AcDbLine
 10
-794.7324
 20
53.4284
 30
0.0
 11
-794.7609
 21
53.4284
 31
0.0
  0
LINE
  5
126
330
6E9
100
AcDbEntity
  8
Level 10
  6
Continuous
 62
     7
370
    13
100
AcDbLine
 10
-794.8659
 20
53.4284
 30
0.0
 11
-794.8944
 21
53.4284
 31
0.0
  0
LINE
  5
127
330
6E9
100
AcDbEntity
  8
Level 10
  6
Continuous
 62
     7
370
    13
100
AcDbLine
 10
-794.8659
 20
53.4569
 30
0.0
 11
-794.8944
 21
53.4569
 31
0.0
  0
LINE
  5
128
330
6E9
100
AcDbEntity
  8
Level 10
  6
Continuous
 62
     7
370
    13
100
AcDbLine
 10
-794.8659
 20
53.4569
 30
0.0
 11
-794.8659
 21
53.4284
 31
0.0
  0
LINE
  5
129
330
6E9
100
AcDbEntity
  8
Level 10
  6
Continuous
 62
     7
370
    13
100
AcDbLine
 10
-794.7609
 20
53.456
 30
0.0
 11
-794.8659
 21
53.456
 31
0.0
  0
LINE
  5
12A
330
6E9
100
AcDbEntity
  8
Level 10
  6
Continuous
 62
     7
370
    13
100
AcDbLine
 10
-794.8944
 20
53.456
 30
0.0
 11
-794.9418
 21
53.456
 31
0.0
  0
LINE
  5
12B
330
6E9
100
AcDbEntity
  8
Level 10
  6
Continuous
 62
     7
370
    13
100
AcDbLine
 10
-794.8944
 20
53.4569
 30
0.0
 11
-794.8944
 21
53.4284
 31
0.0
  0
LINE
  5
12C
330
6E9
100
AcDbEntity
  8
Level 10
  6
Continuous
 62
     7
370
    13
100
AcDbLine
 10
-794.6463
 20
53.6675
 30
0.0
 11
-794.6943
 21
53.6675
 31
0.0
  0
LINE
  5
12D
330
6E9
100
AcDbEntity
  8
Level 10
  6
Continuous
 62
     7
370
    13
100
AcDbLine
 10
-794.6943
 20
53.666
 30
0.0
 11
-794.7228
 21
53.666
 31
0.0
  0
LINE
  5
12E
330
6E9
100
AcDbEntity
  8
Level 10
  6
Continuous
 62
     7
370
    13
100
AcDbLine
 10
-794.8275
 20
53.666
 30
0.0
 11
-794.856
 21
53.666
 31
0.0
  0
LINE
  5
12F
330
6E9
100
AcDbEntity
  8
Level 10
  6
Continuous
 62
     7
370
    13
100
AcDbLine
 10
-794.6943
 20
53.6951
 30
0.0
 11
-794.7228
 21
53.6951
 31
0.0
  0
LINE
  5
130
330
6E9
100
AcDbEntity
  8
Level 10
  6
Continuous
 62
     7
370
    13
100
AcDbLine
 10
-794.8275
 20
53.6951
 30
0.0
 11
-794.856
 21
53.6951
 31
0.0
  0
LINE
  5
131
330
6E9
100
AcDbEntity
  8
Level 10
  6
Continuous
 62
     7
370
    13
100
AcDbLine
 10
-794.7228
 20
53.6675
 30
0.0
 11
-794.8275
 21
53.6675
 31
0.0
  0
LINE
  5
132
330
6E9
100
AcDbEntity
  8
Level 10
  6
Continuous
 62
     7
370
    13
100
AcDbLine
 10
-794.856
 20
53.6675
 30
0.0
 11
-794.9418
 21
53.6675
 31
0.0
  0
LINE
  5
133
330
6E9
100
AcDbEntity
  8
Level 10
  6
Continuous
 62
     7
370
    13
100
AcDbLine
 10
-794.856
 20
53.6951
 30
0.0
 11
-794.856
 21
53.666
 31
0.0
  0
LINE
  5
134
330
6E9
100
AcDbEntity
  8
Level 10
  6
Continuous
 62
     7
370
    13
100
AcDbLine
 10
-794.8275
 20
53.6951
 30
0.0
 11
-794.8275
 21
53.666
 31
0.0
  0
LINE
  5
135
330
6E9
100
AcDbEntity
  8
Level 10
  6
Continuous
 62
     7
370
    13
100
AcDbLine
 10
-794.6463
 20
53.8055
 30
0.0
 11
-794.6463
 21
53.3486
 31
0.0
  0
LINE
  5
136
330
6E9
100
AcDbEntity
  8
Level 10
  6
Continuous
 62
     7
370
    13
100
AcDbLine
 10
-794.9418
 20
53.8055
 30
0.0
 11
-794.9418
 21
53.3486
 31
0.0
  0
LINE
  5
137
330
6E9
100
AcDbEntity
  8
Level 10
  6
Continuous
 62
     7
370
    13
100
AcDbLine
 10
-794.6463
 20
53.456
 30
0.0
 11
-794.7324
 21
53.456
 31
0.0
  0
LINE
  5
138
330
6E9
100
AcDbEntity
  8
Level 10
  6
Continuous
 62
     7
370
    13
100
AcDbLine
 10
-794.6463
 20
53.8055
 30
0.0
 11
-794.9418
 21
53.8055
 31
0.0
  0
LINE
  5
139
330
6E9
100
AcDbEntity
  8
Level 10
  6
Continuous
 62
     7
370
    13
100
AcDbLine
 10
-794.6463
 20
53.3486
 30
0.0
 11
-794.9418
 21
53.3486
 31
0.0
  0
LINE
  5
13A
330
6E9
100
AcDbEntity
  8
Level 10
  6
Continuous
 62
     7
370
    13
100
AcDbLine
 10
-794.9655
 20
54.3764
 30
0.0
 11
-794.9655
 21
50.2619
 31
0.0
  0
LINE
  5
13B
330
6E9
100
AcDbEntity
  8
Level 10
  6
Continuous
 62
     7
370
    13
100
AcDbLine
 10
-794.6229
 20
54.3764
 30
0.0
 11
-794.6229
 21
50.2619
 31
0.0
  0
LINE
  5
13C
330
6E9
100
AcDbEntity
  8
Level 10
  6
Continuous
 62
     7
370
    13
100
AcDbLine
 10
-794.9655
 20
54.3764
 30
0.0
 11
-794.6229
 21
54.3764
 31
0.0
  0
LINE
  5
140
330
6E9
100
AcDbEntity
  8
Level 10
  6
Continuous
 62
     7
370
    13
100
AcDbLine
 10
-794.1508
 20
54.3764
 30
0.0
 11
-794.1508
 21
50.2619
 31
0.0
  0
LINE
  5
141
330
6E9
100
AcDbEntity
  8
Level 10
  6
Continuous
 62
     7
370
    13
100
AcDbLine
 10
-793.8082
 20
54.3764
 30
0.0
 11
-793.8082
 21
50.2619
 31
0.0
  0
LINE
  5
142
330
6E9
100
AcDbEntity
  8
Level 10
  6
Continuous
 62
     7
370
    13
100
AcDbLine
 10
-794.1508
 20
54.3764
 30
0.0
 11
-793.8082
 21
54.3764
 31
0.0
  0
LINE
  5
143
330
6E9
100
AcDbEntity
  8
Level 10
  6
Continuous
 62
     7
370
    13
100
AcDbLine
 10
-793.3367
 20
54.3764
 30
0.0
 11
-793.3367
 21
50.2619
 31
0.0
  0
LINE
  5
144
330
6E9
100
AcDbEntity
  8
Level 10
  6
Continuous
 62
     7
370
    13
100
AcDbLine
 10
-792.9938
 20
54.3764
 30
0.0
 11
-792.9938
 21
50.2619
 31
0.0
  0
LINE
  5
145
330
6E9
100
AcDbEntity
  8
Level 10
  6
Continuous
 62
     7
370
    13
100
AcDbLine
 10
-793.3367
 20
54.3764
 30
0.0
 11
-792.9938
 21
54.3764
 31
0.0
  0
LINE
  5
146
330
6E9
100
AcDbEntity
  8
Level 10
  6
Continuous
 62
     7
370
    13
100
AcDbLine
 10
-797.3895
 20
53.852
 30
0.0
 11
-797.3895
 21
52.4336
 31
0.0
  0
LINE
  5
147
330
6E9
100
AcDbEntity
  8
Level 10
  6
Continuous
 62
     7
370
    13
100
AcDbLine
 10
-797.085
 20
53.852
 30
0.0
 11
-797.085
 21
52.4336
 31
0.0
  0
LINE
  5
148
330
6E9
100
AcDbEntity
  8
Level 10
  6
Continuous
 62
     7
370
    13
100
AcDbLine
 10
-797.085
 20
53.8331
 30
0.0
 11
-797.3895
 21
53.8331
 31
0.0
  0
LINE
  5
149
330
6E9
100
AcDbEntity
  8
Level 10
  6
Continuous
 62
     7
370
    13
100
AcDbLine
 10
-797.085
 20
53.852
 30
0.0
 11
-797.3895
 21
53.852
 31
0.0
  0
LINE
  5
14A
330
6E9
100
AcDbEntity
  8
Level 10
  6
Continuous
 62
     7
370
    13
100
AcDbLine
 10
-797.3325
 20
52.181
 30
0.0
 11
-797.3325
 21
52.1525
 31
0.0
  0
LINE
  5
14B
330
6E9
100
AcDbEntity
  8
Level 10
  6
Continuous
 62
     7
370
    13
100
AcDbLine
 10
-797.304
 20
52.181
 30
0.0
 11
-797.304
 21
52.1525
 31
0.0
  0
LINE
  5
14C
330
6E9
100
AcDbEntity
  8
Level 10
  6
Continuous
 62
     7
370
    13
100
AcDbLine
 10
-797.304
 20
52.1525
 30
0.0
 11
-797.3325
 21
52.1525
 31
0.0
  0
LINE
  5
14D
330
6E9
100
AcDbEntity
  8
Level 10
  6
Continuous
 62
     7
370
    13
100
AcDbLine
 10
-797.304
 20
52.181
 30
0.0
 11
-797.3325
 21
52.181
 31
0.0
  0
LINE
  5
14E
330
6E9
100
AcDbEntity
  8
Level 10
  6
Continuous
 62
     7
370
    13
100
AcDbLine
 10
-797.142
 20
53.1524
 30
0.0
 11
-797.142
 21
53.1239
 31
0.0
  0
LINE
  5
14F
330
6E9
100
AcDbEntity
  8
Level 10
  6
Continuous
 62
     7
370
    13
100
AcDbLine
 10
-797.1135
 20
53.1524
 30
0.0
 11
-797.1135
 21
53.1239
 31
0.0
  0
LINE
  5
150
330
6E9
100
AcDbEntity
  8
Level 10
  6
Continuous
 62
     7
370
    13
100
AcDbLine
 10
-797.1135
 20
53.1239
 30
0.0
 11
-797.142
 21
53.1239
 31
0.0
  0
LINE
  5
151
330
6E9
100
AcDbEntity
  8
Level 10
  6
Continuous
 62
     7
370
    13
100
AcDbLine
 10
-797.1135
 20
53.1524
 30
0.0
 11
-797.142
 21
53.1524
 31
0.0
  0
LINE
  5
152
330
6E9
100
AcDbEntity
  8
Level 10
  6
Continuous
 62
     7
370
    13
100
AcDbLine
 10
-797.1705
 20
52.7144
 30
0.0
 11
-797.1705
 21
52.6859
 31
0.0
  0
LINE
  5
153
330
6E9
100
AcDbEntity
  8
Level 10
  6
Continuous
 62
     7
370
    13
100
AcDbLine
 10
-797.142
 20
52.7144
 30
0.0
 11
-797.142
 21
52.6859
 31
0.0
  0
LINE
  5
154
330
6E9
100
AcDbEntity
  8
Level 10
  6
Continuous
 62
     7
370
    13
100
AcDbLine
 10
-797.142
 20
52.6859
 30
0.0
 11
-797.1705
 21
52.6859
 31
0.0
  0
LINE
  5
155
330
6E9
100
AcDbEntity
  8
Level 10
  6
Continuous
 62
     7
370
    13
100
AcDbLine
 10
-797.142
 20
52.7144
 30
0.0
 11
-797.1705
 21
52.7144
 31
0.0
  0
LINE
  5
156
330
6E9
100
AcDbEntity
  8
Level 10
  6
Continuous
 62
     7
370
    13
100
AcDbLine
 10
-797.361
 20
51.743
 30
0.0
 11
-797.361
 21
51.7145
 31
0.0
  0
LINE
  5
157
330
6E9
100
AcDbEntity
  8
Level 10
  6
Continuous
 62
     7
370
    13
100
AcDbLine
 10
-797.3325
 20
51.743
 30
0.0
 11
-797.3325
 21
51.7145
 31
0.0
  0
LINE
  5
158
330
6E9
100
AcDbEntity
  8
Level 10
  6
Continuous
 62
     7
370
    13
100
AcDbLine
 10
-797.3325
 20
51.7145
 30
0.0
 11
-797.361
 21
51.7145
 31
0.0
  0
LINE
  5
159
330
6E9
100
AcDbEntity
  8
Level 10
  6
Continuous
 62
     7
370
    13
100
AcDbLine
 10
-797.3325
 20
51.743
 30
0.0
 11
-797.361
 21
51.743
 31
0.0
  0
LINE
  5
15A
330
6E9
100
AcDbEntity
  8
Level 10
  6
Continuous
 62
     7
370
    13
100
AcDbLine
 10
-797.3895
 20
52.4336
 30
0.0
 11
-797.3895
 21
50.8376
 31
0.0
  0
LINE
  5
15B
330
6E9
100
AcDbEntity
  8
Level 10
  6
Continuous
 62
     7
370
    13
100
AcDbLine
 10
-797.085
 20
52.4336
 30
0.0
 11
-797.085
 21
50.8376
 31
0.0
  0
CIRCLE
  5
15C
330
6E9
100
AcDbEntity
  8
Level 10
  6
Continuous
 62
     7
370
    13
100
AcDbCircle
 10
-797.184772
 20
51.16121
 30
0.0
 40
0.022621875
  0
CIRCLE
  5
15D
330
6E9
100
AcDbEntity
  8
Level 10
  6
Continuous
 62
     7
370
    13
100
AcDbCircle
 10
-797.289547
 20
51.16121
 30
0.0
 40
0.022621875
  0
LINE
  5
15E
330
6E9
100
AcDbEntity
  8
Level 10
  6
Continuous
 62
     7
370
    13
100
AcDbLine
 10
-797.3895
 20
51.0089
 30
0.0
 11
-797.085
 21
51.053
 31
0.0
  0
LINE
  5
15F
330
6E9
100
AcDbEntity
  8
Level 10
  6
Continuous
 62
     7
370
    13
100
AcDbLine
 10
-797.3895
 20
50.8376
 30
0.0
 11
-797.085
 21
50.8376
 31
0.0
  0
LINE
  5
160
330
6E9
100
AcDbEntity
  8
Level 10
  6
Continuous
 62
     7
370
    13
100
AcDbLine
 10
-797.3895
 20
51.1241
 30
0.0
 11
-797.205
 21
51.1505
 31
0.0
  0
LINE
  5
161
330
6E9
100
AcDbEntity
  8
Level 10
  6
Continuous
 62
     7
370
    13
100
AcDbLine
 10
-797.1627
 20
51.1565
 30
0.0
 11
-797.085
 21
51.1679
 31
0.0
  0
LINE
  5
162
330
6E9
100
AcDbEntity
  8
Level 10
  6
Continuous
 62
     7
370
    13
100
AcDbLine
 10
-797.1612
 20
50.9135
 30
0.0
 11
-797.1327
 21
50.9135
 31
0.0
  0
LINE
  5
163
330
6E9
100
AcDbEntity
  8
Level 10
  6
Continuous
 62
     7
370
    13
100
AcDbLine
 10
-797.1612
 20
50.885
 30
0.0
 11
-797.1327
 21
50.885
 31
0.0
  0
LINE
  5
164
330
6E9
100
AcDbEntity
  8
Level 10
  6
Continuous
 62
     7
370
    13
100
AcDbLine
 10
-797.1612
 20
50.885
 30
0.0
 11
-797.1612
 21
50.9135
 31
0.0
  0
LINE
  5
165
330
6E9
100
AcDbEntity
  8
Level 10
  6
Continuous
 62
     7
370
    13
100
AcDbLine
 10
-797.1327
 20
50.885
 30
0.0
 11
-797.1327
 21
50.9135
 31
0.0
  0
LINE
  5
166
330
6E9
100
AcDbEntity
  8
Level 10
  6
Continuous
 62
     7
370
    13
100
AcDbLine
 10
-797.3421
 20
50.9135
 30
0.0
 11
-797.3136
 21
50.9135
 31
0.0
  0
LINE
  5
167
330
6E9
100
AcDbEntity
  8
Level 10
  6
Continuous
 62
     7
370
    13
100
AcDbLine
 10
-797.3421
 20
50.885
 30
0.0
 11
-797.3136
 21
50.885
 31
0.0
  0
LINE
  5
168
330
6E9
100
AcDbEntity
  8
Level 10
  6
Continuous
 62
     7
370
    13
100
AcDbLine
 10
-797.3421
 20
50.885
 30
0.0
 11
-797.3421
 21
50.9135
 31
0.0
  0
LINE
  5
169
330
6E9
100
AcDbEntity
  8
Level 10
  6
Continuous
 62
     7
370
    13
100
AcDbLine
 10
-797.3136
 20
50.885
 30
0.0
 11
-797.3136
 21
50.9135
 31
0.0
  0
LINE
  5
16A
330
6E9
100
AcDbEntity
  8
Level 10
  6
Continuous
 62
     7
370
    40
100
AcDbLine
 10
-797.1612
 20
50.9135
 30
0.0
 11
-797.1327
 21
50.885
 31
0.0
  0
LINE
  5
16B
330
6E9
100
AcDbEntity
  8
Level 10
  6
Continuous
 62
     7
370
    40
100
AcDbLine
 10
-797.1327
 20
50.9135
 30
0.0
 11
-797.1612
 21
50.885
 31
0.0
  0
LINE
  5
16C
330
6E9
100
AcDbEntity
  8
Level 10
  6
Continuous
 62
     7
370
    40
100
AcDbLine
 10
-797.3136
 20
50.9135
 30
0.0
 11
-797.3421
 21
50.885
 31
0.0
  0
LINE
  5
16D
330
6E9
100
AcDbEntity
  8
Level 10
  6
Continuous
 62
     7
370
    40
100
AcDbLine
 10
-797.3421
 20
50.9135
 30
0.0
 11
-797.3136
 21
50.885
 31
0.0
  0
LINE
  5
16E
330
6E9
100
AcDbEntity
  8
Level 10
  6
Continuous
 62
     7
370
    40
100
AcDbLine
 10
-797.3325
 20
51.7145
 30
0.0
 11
-797.361
 21
51.743
 31
0.0
  0
LINE
  5
16F
330
6E9
100
AcDbEntity
  8
Level 10
  6
Continuous
 62
     7
370
    40
100
AcDbLine
 10
-797.361
 20
51.7145
 30
0.0
 11
-797.3325
 21
51.743
 31
0.0
  0
LINE
  5
170
330
6E9
100
AcDbEntity
  8
Level 10
  6
Continuous
 62
     7
370
    40
100
AcDbLine
 10
-797.3325
 20
52.181
 30
0.0
 11
-797.304
 21
52.1525
 31
0.0
  0
LINE
  5
171
330
6E9
100
AcDbEntity
  8
Level 10
  6
Continuous
 62
     7
370
    40
100
AcDbLine
 10
-797.304
 20
52.181
 30
0.0
 11
-797.3325
 21
52.1525
 31
0.0
  0
LINE
  5
172
330
6E9
100
AcDbEntity
  8
Level 10
  6
Continuous
 62
     7
370
    40
100
AcDbLine
 10
-797.1705
 20
52.7144
 30
0.0
 11
-797.142
 21
52.6859
 31
0.0
  0
LINE
  5
173
330
6E9
100
AcDbEntity
  8
Level 10
  6
Continuous
 62
     7
370
    40
100
AcDbLine
 10
-797.142
 20
52.7144
 30
0.0
 11
-797.1705
 21
52.6859
 31
0.0
  0
LINE
  5
174
330
6E9
100
AcDbEntity
  8
Level 10
  6
Continuous
 62
     7
370
    40
100
AcDbLine
 10
-797.142
 20
53.1524
 30
0.0
 11
-797.1135
 21
53.1239
 31
0.0
  0
LINE
  5
175
330
6E9
100
AcDbEntity
  8
Level 10
  6
Continuous
 62
     7
370
    40
100
AcDbLine
 10
-797.1135
 20
53.1524
 30
0.0
 11
-797.142
 21
53.1239
 31
0.0
  0
LINE
  5
176
330
6E9
100
AcDbEntity
  8
Level 10
  6
Continuous
 62
     7
370
    40
100
AcDbLine
 10
-797.1612
 20
53.7725
 30
0.0
 11
-797.1327
 21
53.744
 31
0.0
  0
LINE
  5
177
330
6E9
100
AcDbEntity
  8
Level 10
  6
Continuous
 62
     7
370
    40
100
AcDbLine
 10
-797.1327
 20
53.7725
 30
0.0
 11
-797.1612
 21
53.744
 31
0.0
  0
LINE
  5
178
330
6E9
100
AcDbEntity
  8
Level 10
  6
Continuous
 62
     7
370
    40
100
AcDbLine
 10
-797.3136
 20
53.7725
 30
0.0
 11
-797.3421
 21
53.744
 31
0.0
  0
LINE
  5
179
330
6E9
100
AcDbEntity
  8
Level 10
  6
Continuous
 62
     7
370
    40
100
AcDbLine
 10
-797.3421
 20
53.7725
 30
0.0
 11
-797.3136
 21
53.744
 31
0.0
  0
LINE
  5
17A
330
6E9
100
AcDbEntity
  8
Level 10
  6
Continuous
 62
     7
370
    40
100
AcDbLine
 10
-798.1517
 20
53.4569
 30
0.0
 11
-798.1232
 21
53.4284
 31
0.0
  0
LINE
  5
17B
330
6E9
100
AcDbEntity
  8
Level 10
  6
Continuous
 62
     7
370
    40
100
AcDbLine
 10
-798.1232
 20
53.4569
 30
0.0
 11
-798.1517
 21
53.4284
 31
0.0
  0
LINE
  5
17C
330
6E9
100
AcDbEntity
  8
Level 10
  6
Continuous
 62
     7
370
    40
100
AcDbLine
 10
-797.9801
 20
53.6951
 30
0.0
 11
-797.9516
 21
53.666
 31
0.0
  0
LINE
  5
17D
330
6E9
100
AcDbEntity
  8
Level 10
  6
Continuous
 62
     7
370
    40
100
AcDbLine
 10
-797.9516
 20
53.6951
 30
0.0
 11
-797.9801
 21
53.666
 31
0.0
  0
LINE
  5
17E
330
6E9
100
AcDbEntity
  8
Level 10
  6
Continuous
 62
     7
370
    40
100
AcDbLine
 10
-798.1136
 20
51.4385
 30
0.0
 11
-798.0851
 21
51.41
 31
0.0
  0
LINE
  5
17F
330
6E9
100
AcDbEntity
  8
Level 10
  6
Continuous
 62
     7
370
    40
100
AcDbLine
 10
-798.0851
 20
51.4385
 30
0.0
 11
-798.1136
 21
51.41
 31
0.0
  0
LINE
  5
180
330
6E9
100
AcDbEntity
  8
Level 10
  6
Continuous
 62
     7
370
    40
100
AcDbLine
 10
-798.0185
 20
51.2006
 30
0.0
 11
-797.99
 21
51.1721
 31
0.0
  0
LINE
  5
181
330
6E9
100
AcDbEntity
  8
Level 10
  6
Continuous
 62
     7
370
    40
100
AcDbLine
 10
-797.99
 20
51.2006
 30
0.0
 11
-798.0185
 21
51.1721
 31
0.0
  0
LINE
  5
182
330
6E9
100
AcDbEntity
  8
Level 10
  6
Continuous
 62
     7
370
    40
100
AcDbLine
 10
-798.0461
 20
53.771
 30
0.0
 11
-798.0197
 21
53.7449
 31
0.0
  0
LINE
  5
183
330
6E9
100
AcDbEntity
  8
Level 10
  6
Continuous
 62
     7
370
    40
100
AcDbLine
 10
-798.0197
 20
53.771
 30
0.0
 11
-798.0461
 21
53.7449
 31
0.0
  0
LINE
  5
184
330
6E9
100
AcDbEntity
  8
Level 10
  6
Continuous
 62
     7
370
    13
100
AcDbLine
 10
-797.2515
 20
53.3939
 30
0.0
 11
-797.2515
 21
53.3654
 31
0.0
  0
LINE
  5
185
330
6E9
100
AcDbEntity
  8
Level 10
  6
Continuous
 62
     7
370
    13
100
AcDbLine
 10
-797.223
 20
53.3939
 30
0.0
 11
-797.223
 21
53.3654
 31
0.0
  0
LINE
  5
186
330
6E9
100
AcDbEntity
  8
Level 10
  6
Continuous
 62
     7
370
    13
100
AcDbLine
 10
-797.223
 20
53.3654
 30
0.0
 11
-797.2515
 21
53.3654
 31
0.0
  0
LINE
  5
187
330
6E9
100
AcDbEntity
  8
Level 10
  6
Continuous
 62
     7
370
    13
100
AcDbLine
 10
-797.223
 20
53.3939
 30
0.0
 11
-797.2515
 21
53.3939
 31
0.0
  0
LINE
  5
188
330
6E9
100
AcDbEntity
  8
Level 10
  6
Continuous
 62
     7
370
    13
100
AcDbLine
 10
-796.4362
 20
51.467
 30
0.0
 11
-796.4362
 21
51.4934
 31
0.0
  0
LINE
  5
189
330
6E9
100
AcDbEntity
  8
Level 10
  6
Continuous
 62
     7
370
    13
100
AcDbLine
 10
-796.4101
 20
51.467
 30
0.0
 11
-796.4101
 21
51.4934
 31
0.0
  0
LINE
  5
18A
330
6E9
100
AcDbEntity
  8
Level 10
  6
Continuous
 62
     7
370
    13
100
AcDbLine
 10
-796.4362
 20
51.4934
 30
0.0
 11
-796.4101
 21
51.4934
 31
0.0
  0
LINE
  5
18B
330
6E9
100
AcDbEntity
  8
Level 10
  6
Continuous
 62
     7
370
    13
100
AcDbLine
 10
-796.4362
 20
51.467
 30
0.0
 11
-796.4101
 21
51.467
 31
0.0
  0
LINE
  5
18C
330
6E9
100
AcDbEntity
  8
Level 10
  6
Continuous
 62
     7
370
    13
100
AcDbLine
 10
-796.5466
 20
51.41
 30
0.0
 11
-796.5466
 21
51.4385
 31
0.0
  0
LINE
  5
18D
330
6E9
100
AcDbEntity
  8
Level 10
  6
Continuous
 62
     7
370
    13
100
AcDbLine
 10
-796.5181
 20
51.41
 30
0.0
 11
-796.5181
 21
51.4385
 31
0.0
  0
LINE
  5
18E
330
6E9
100
AcDbEntity
  8
Level 10
  6
Continuous
 62
     7
370
    13
100
AcDbLine
 10
-796.5466
 20
51.41
 30
0.0
 11
-796.5181
 21
51.41
 31
0.0
  0
LINE
  5
18F
330
6E9
100
AcDbEntity
  8
Level 10
  6
Continuous
 62
     7
370
    13
100
AcDbLine
 10
-796.5466
 20
51.4385
 30
0.0
 11
-796.5181
 21
51.4385
 31
0.0
  0
LINE
  5
190
330
6E9
100
AcDbEntity
  8
Level 10
  6
Continuous
 62
     7
370
    13
100
AcDbLine
 10
-796.3276
 20
51.4385
 30
0.0
 11
-796.2991
 21
51.4385
 31
0.0
  0
LINE
  5
191
330
6E9
100
AcDbEntity
  8
Level 10
  6
Continuous
 62
     7
370
    13
100
AcDbLine
 10
-796.3276
 20
51.41
 30
0.0
 11
-796.2991
 21
51.41
 31
0.0
  0
LINE
  5
192
330
6E9
100
AcDbEntity
  8
Level 10
  6
Continuous
 62
     7
370
    13
100
AcDbLine
 10
-796.3276
 20
51.41
 30
0.0
 11
-796.3276
 21
51.4385
 31
0.0
  0
LINE
  5
193
330
6E9
100
AcDbEntity
  8
Level 10
  6
Continuous
 62
     7
370
    13
100
AcDbLine
 10
-796.5181
 20
51.4115
 30
0.0
 11
-796.3276
 21
51.4115
 31
0.0
  0
LINE
  5
194
330
6E9
100
AcDbEntity
  8
Level 10
  6
Continuous
 62
     7
370
    13
100
AcDbLine
 10
-796.2991
 20
51.4115
 30
0.0
 11
-796.2706
 21
51.4115
 31
0.0
  0
LINE
  5
195
330
6E9
100
AcDbEntity
  8
Level 10
  6
Continuous
 62
     7
370
    13
100
AcDbLine
 10
-796.2991
 20
51.41
 30
0.0
 11
-796.2991
 21
51.4385
 31
0.0
  0
LINE
  5
196
330
6E9
100
AcDbEntity
  8
Level 10
  6
Continuous
 62
     7
370
    13
100
AcDbLine
 10
-796.5751
 20
51.1994
 30
0.0
 11
-796.2706
 21
51.1994
 31
0.0
  0
LINE
  5
197
330
6E9
100
AcDbEntity
  8
Level 10
  6
Continuous
 62
     7
370
    13
100
AcDbLine
 10
-796.5751
 20
51.4115
 30
0.0
 11
-796.5466
 21
51.4115
 31
0.0
  0
CIRCLE
  5
198
330
6E9
100
AcDbEntity
  8
Level 10
  6
Continuous
 62
     7
370
    13
100
AcDbCircle
 10
-796.370372
 20
51.16121
 30
0.0
 40
0.022621875
  0
CIRCLE
  5
199
330
6E9
100
AcDbEntity
  8
Level 10
  6
Continuous
 62
     7
370
    13
100
AcDbCircle
 10
-796.475147
 20
51.16121
 30
0.0
 40
0.022621875
  0
LINE
  5
19A
330
6E9
100
AcDbEntity
  8
Level 10
  6
Continuous
 62
     7
370
    13
100
AcDbLine
 10
-796.5751
 20
51.0089
 30
0.0
 11
-796.2706
 21
51.053
 31
0.0
  0
LINE
  5
19B
330
6E9
100
AcDbEntity
  8
Level 10
  6
Continuous
 62
     7
370
    13
100
AcDbLine
 10
-796.5751
 20
50.8376
 30
0.0
 11
-796.2706
 21
50.8376
 31
0.0
  0
LINE
  5
19C
330
6E9
100
AcDbEntity
  8
Level 10
  6
Continuous
 62
     7
370
    13
100
AcDbLine
 10
-796.5751
 20
51.1241
 30
0.0
 11
-796.3906
 21
51.1505
 31
0.0
  0
LINE
  5
19D
330
6E9
100
AcDbEntity
  8
Level 10
  6
Continuous
 62
     7
370
    13
100
AcDbLine
 10
-796.3486
 20
51.1565
 30
0.0
 11
-796.2706
 21
51.1679
 31
0.0
  0
LINE
  5
19E
330
6E9
100
AcDbEntity
  8
Level 10
  6
Continuous
 62
     7
370
    13
100
AcDbLine
 10
-796.3465
 20
50.9135
 30
0.0
 11
-796.318
 21
50.9135
 31
0.0
  0
LINE
  5
19F
330
6E9
100
AcDbEntity
  8
Level 10
  6
Continuous
 62
     7
370
    13
100
AcDbLine
 10
-796.3465
 20
50.885
 30
0.0
 11
-796.318
 21
50.885
 31
0.0
  0
LINE
  5
1A0
330
6E9
100
AcDbEntity
  8
Level 10
  6
Continuous
 62
     7
370
    13
100
AcDbLine
 10
-796.3465
 20
50.885
 30
0.0
 11
-796.3465
 21
50.9135
 31
0.0
  0
LINE
  5
1A1
330
6E9
100
AcDbEntity
  8
Level 10
  6
Continuous
 62
     7
370
    13
100
AcDbLine
 10
-796.318
 20
50.885
 30
0.0
 11
-796.318
 21
50.9135
 31
0.0
  0
LINE
  5
1A2
330
6E9
100
AcDbEntity
  8
Level 10
  6
Continuous
 62
     7
370
    13
100
AcDbLine
 10
-796.5277
 20
50.9135
 30
0.0
 11
-796.4992
 21
50.9135
 31
0.0
  0
LINE
  5
1A3
330
6E9
100
AcDbEntity
  8
Level 10
  6
Continuous
 62
     7
370
    13
100
AcDbLine
 10
-796.5277
 20
50.885
 30
0.0
 11
-796.4992
 21
50.885
 31
0.0
  0
LINE
  5
1A4
330
6E9
100
AcDbEntity
  8
Level 10
  6
Continuous
 62
     7
370
    13
100
AcDbLine
 10
-796.5277
 20
50.885
 30
0.0
 11
-796.5277
 21
50.9135
 31
0.0
  0
LINE
  5
1A5
330
6E9
100
AcDbEntity
  8
Level 10
  6
Continuous
 62
     7
370
    13
100
AcDbLine
 10
-796.4992
 20
50.885
 30
0.0
 11
-796.4992
 21
50.9135
 31
0.0
  0
LINE
  5
1A6
330
6E9
100
AcDbEntity
  8
Level 10
  6
Continuous
 62
     7
370
    40
100
AcDbLine
 10
-796.3465
 20
50.9135
 30
0.0
 11
-796.318
 21
50.885
 31
0.0
  0
LINE
  5
1A7
330
6E9
100
AcDbEntity
  8
Level 10
  6
Continuous
 62
     7
370
    40
100
AcDbLine
 10
-796.318
 20
50.9135
 30
0.0
 11
-796.3465
 21
50.885
 31
0.0
  0
LINE
  5
1A8
330
6E9
100
AcDbEntity
  8
Level 10
  6
Continuous
 62
     7
370
    40
100
AcDbLine
 10
-796.4992
 20
50.9135
 30
0.0
 11
-796.5277
 21
50.885
 31
0.0
  0
LINE
  5
1A9
330
6E9
100
AcDbEntity
  8
Level 10
  6
Continuous
 62
     7
370
    40
100
AcDbLine
 10
-796.5277
 20
50.9135
 30
0.0
 11
-796.4992
 21
50.885
 31
0.0
  0
LINE
  5
1AA
330
6E9
100
AcDbEntity
  8
Level 10
  6
Continuous
 62
     7
370
    13
100
AcDbLine
 10
-796.5751
 20
51.7925
 30
0.0
 11
-796.2706
 21
51.7925
 31
0.0
  0
LINE
  5
1AB
330
6E9
100
AcDbEntity
  8
Level 10
  6
Continuous
 62
     7
370
    13
100
AcDbLine
 10
-796.2706
 20
53.852
 30
0.0
 11
-796.2706
 21
53.075
 31
0.0
  0
LINE
  5
1AC
330
6E9
100
AcDbEntity
  8
Level 10
  6
Continuous
 62
     7
370
    13
100
AcDbLine
 10
-796.2706
 20
51.7925
 30
0.0
 11
-796.2706
 21
50.8376
 31
0.0
  0
LINE
  5
1AD
330
6E9
100
AcDbEntity
  8
Level 10
  6
Continuous
 62
     7
370
    13
100
AcDbLine
 10
-796.5751
 20
53.852
 30
0.0
 11
-796.5751
 21
53.075
 31
0.0
  0
LINE
  5
1AE
330
6E9
100
AcDbEntity
  8
Level 10
  6
Continuous
 62
     7
370
    13
100
AcDbLine
 10
-796.5751
 20
51.7925
 30
0.0
 11
-796.5751
 21
50.8376
 31
0.0
  0
LINE
  5
1AF
330
6E9
100
AcDbEntity
  8
Level 10
  6
Continuous
 62
     7
370
    13
100
AcDbLine
 10
-796.3465
 20
51.7445
 30
0.0
 11
-796.318
 21
51.7445
 31
0.0
  0
LINE
  5
1B0
330
6E9
100
AcDbEntity
  8
Level 10
  6
Continuous
 62
     7
370
    13
100
AcDbLine
 10
-796.3465
 20
51.716
 30
0.0
 11
-796.318
 21
51.716
 31
0.0
  0
LINE
  5
1B1
330
6E9
100
AcDbEntity
  8
Level 10
  6
Continuous
 62
     7
370
    13
100
AcDbLine
 10
-796.3465
 20
51.716
 30
0.0
 11
-796.3465
 21
51.7445
 31
0.0
  0
LINE
  5
1B2
330
6E9
100
AcDbEntity
  8
Level 10
  6
Continuous
 62
     7
370
    13
100
AcDbLine
 10
-796.318
 20
51.716
 30
0.0
 11
-796.318
 21
51.7445
 31
0.0
  0
LINE
  5
1B3
330
6E9
100
AcDbEntity
  8
Level 10
  6
Continuous
 62
     7
370
    13
100
AcDbLine
 10
-796.5277
 20
51.7445
 30
0.0
 11
-796.4992
 21
51.7445
 31
0.0
  0
LINE
  5
1B4
330
6E9
100
AcDbEntity
  8
Level 10
  6
Continuous
 62
     7
370
    13
100
AcDbLine
 10
-796.5277
 20
51.716
 30
0.0
 11
-796.4992
 21
51.716
 31
0.0
  0
LINE
  5
1B5
330
6E9
100
AcDbEntity
  8
Level 10
  6
Continuous
 62
     7
370
    13
100
AcDbLine
 10
-796.5277
 20
51.716
 30
0.0
 11
-796.5277
 21
51.7445
 31
0.0
  0
LINE
  5
1B6
330
6E9
100
AcDbEntity
  8
Level 10
  6
Continuous
 62
     7
370
    13
100
AcDbLine
 10
-796.4992
 20
51.716
 30
0.0
 11
-796.4992
 21
51.7445
 31
0.0
  0
LINE
  5
1B7
330
6E9
100
AcDbEntity
  8
Level 10
  6
Continuous
 62
     7
370
    40
100
AcDbLine
 10
-796.5277
 20
51.7445
 30
0.0
 11
-796.4992
 21
51.716
 31
0.0
  0
LINE
  5
1B8
330
6E9
100
AcDbEntity
  8
Level 10
  6
Continuous
 62
     7
370
    40
100
AcDbLine
 10
-796.4992
 20
51.7445
 30
0.0
 11
-796.5277
 21
51.716
 31
0.0
  0
LINE
  5
1B9
330
6E9
100
AcDbEntity
  8
Level 10
  6
Continuous
 62
     7
370
    40
100
AcDbLine
 10
-796.318
 20
51.7445
 30
0.0
 11
-796.3465
 21
51.716
 31
0.0
  0
LINE
  5
1BA
330
6E9
100
AcDbEntity
  8
Level 10
  6
Continuous
 62
     7
370
    40
100
AcDbLine
 10
-796.3465
 20
51.7445
 30
0.0
 11
-796.318
 21
51.716
 31
0.0
  0
LINE
  5
1BB
330
6E9
100
AcDbEntity
  8
Level 10
  6
Continuous
 62
     7
370
    13
100
AcDbLine
 10
-796.2706
 20
53.852
 30
0.0
 11
-796.5751
 21
53.852
 31
0.0
  0
LINE
  5
1BC
330
6E9
100
AcDbEntity
  8
Level 10
  6
Continuous
 62
     7
370
    13
100
AcDbLine
 10
-796.2706
 20
53.8331
 30
0.0
 11
-796.5751
 21
53.8331
 31
0.0
  0
LINE
  5
1BD
330
6E9
100
AcDbEntity
  8
Level 10
  6
Continuous
 62
     7
370
    13
100
AcDbLine
 10
-796.3465
 20
53.7725
 30
0.0
 11
-796.3465
 21
53.744
 31
0.0
  0
LINE
  5
1BE
330
6E9
100
AcDbEntity
  8
Level 10
  6
Continuous
 62
     7
370
    13
100
AcDbLine
 10
-796.318
 20
53.7725
 30
0.0
 11
-796.318
 21
53.744
 31
0.0
  0
LINE
  5
1BF
330
6E9
100
AcDbEntity
  8
Level 10
  6
Continuous
 62
     7
370
    13
100
AcDbLine
 10
-796.318
 20
53.744
 30
0.0
 11
-796.3465
 21
53.744
 31
0.0
  0
LINE
  5
1C0
330
6E9
100
AcDbEntity
  8
Level 10
  6
Continuous
 62
     7
370
    13
100
AcDbLine
 10
-796.4992
 20
53.744
 30
0.0
 11
-796.5277
 21
53.744
 31
0.0
  0
LINE
  5
1C1
330
6E9
100
AcDbEntity
  8
Level 10
  6
Continuous
 62
     7
370
    13
100
AcDbLine
 10
-796.318
 20
53.7725
 30
0.0
 11
-796.3465
 21
53.7725
 31
0.0
  0
LINE
  5
1C2
330
6E9
100
AcDbEntity
  8
Level 10
  6
Continuous
 62
     7
370
    13
100
AcDbLine
 10
-796.4992
 20
53.7725
 30
0.0
 11
-796.5277
 21
53.7725
 31
0.0
  0
LINE
  5
1C3
330
6E9
100
AcDbEntity
  8
Level 10
  6
Continuous
 62
     7
370
    13
100
AcDbLine
 10
-796.5277
 20
53.7725
 30
0.0
 11
-796.5277
 21
53.744
 31
0.0
  0
LINE
  5
1C4
330
6E9
100
AcDbEntity
  8
Level 10
  6
Continuous
 62
     7
370
    13
100
AcDbLine
 10
-796.4992
 20
53.7725
 30
0.0
 11
-796.4992
 21
53.744
 31
0.0
  0
LINE
  5
1C5
330
6E9
100
AcDbEntity
  8
Level 10
  6
Continuous
 62
     7
370
    40
100
AcDbLine
 10
-796.3465
 20
53.7725
 30
0.0
 11
-796.318
 21
53.744
 31
0.0
  0
LINE
  5
1C6
330
6E9
100
AcDbEntity
  8
Level 10
  6
Continuous
 62
     7
370
    40
100
AcDbLine
 10
-796.318
 20
53.7725
 30
0.0
 11
-796.3465
 21
53.744
 31
0.0
  0
LINE
  5
1C7
330
6E9
100
AcDbEntity
  8
Level 10
  6
Continuous
 62
     7
370
    40
100
AcDbLine
 10
-796.4992
 20
53.7725
 30
0.0
 11
-796.5277
 21
53.744
 31
0.0
  0
LINE
  5
1C8
330
6E9
100
AcDbEntity
  8
Level 10
  6
Continuous
 62
     7
370
    40
100
AcDbLine
 10
-796.5277
 20
53.7725
 30
0.0
 11
-796.4992
 21
53.744
 31
0.0
  0
LINE
  5
1C9
330
6E9
100
AcDbEntity
  8
Level 10
  6
Continuous
 62
     7
370
    13
100
AcDbLine
 10
-796.2706
 20
53.6819
 30
0.0
 11
-796.5751
 21
53.6819
 31
0.0
  0
LINE
  5
1CA
330
6E9
100
AcDbEntity
  8
Level 10
  6
Continuous
 62
     7
370
    13
100
AcDbLine
 10
-796.2706
 20
53.6864
 30
0.0
 11
-796.5751
 21
53.6864
 31
0.0
  0
LINE
  5
1CB
330
6E9
100
AcDbEntity
  8
Level 10
  6
Continuous
 62
     7
370
    13
100
AcDbLine
 10
-796.2706
 20
53.075
 30
0.0
 11
-796.5751
 21
53.075
 31
0.0
  0
LINE
  5
1CC
330
6E9
100
AcDbEntity
  8
Level 10
  6
Continuous
 62
     7
370
    13
100
AcDbLine
 10
-796.3465
 20
53.1509
 30
0.0
 11
-796.318
 21
53.1509
 31
0.0
  0
LINE
  5
1CD
330
6E9
100
AcDbEntity
  8
Level 10
  6
Continuous
 62
     7
370
    13
100
AcDbLine
 10
-796.3465
 20
53.1224
 30
0.0
 11
-796.318
 21
53.1224
 31
0.0
  0
LINE
  5
1CE
330
6E9
100
AcDbEntity
  8
Level 10
  6
Continuous
 62
     7
370
    13
100
AcDbLine
 10
-796.3465
 20
53.1224
 30
0.0
 11
-796.3465
 21
53.1509
 31
0.0
  0
LINE
  5
1CF
330
6E9
100
AcDbEntity
  8
Level 10
  6
Continuous
 62
     7
370
    13
100
AcDbLine
 10
-796.318
 20
53.1224
 30
0.0
 11
-796.318
 21
53.1509
 31
0.0
  0
LINE
  5
1D0
330
6E9
100
AcDbEntity
  8
Level 10
  6
Continuous
 62
     7
370
    13
100
AcDbLine
 10
-796.5277
 20
53.1509
 30
0.0
 11
-796.4992
 21
53.1509
 31
0.0
  0
LINE
  5
1D1
330
6E9
100
AcDbEntity
  8
Level 10
  6
Continuous
 62
     7
370
    13
100
AcDbLine
 10
-796.5277
 20
53.1224
 30
0.0
 11
-796.4992
 21
53.1224
 31
0.0
  0
LINE
  5
1D2
330
6E9
100
AcDbEntity
  8
Level 10
  6
Continuous
 62
     7
370
    13
100
AcDbLine
 10
-796.5277
 20
53.1224
 30
0.0
 11
-796.5277
 21
53.1509
 31
0.0
  0
LINE
  5
1D3
330
6E9
100
AcDbEntity
  8
Level 10
  6
Continuous
 62
     7
370
    13
100
AcDbLine
 10
-796.4992
 20
53.1224
 30
0.0
 11
-796.4992
 21
53.1509
 31
0.0
  0
LINE
  5
1D4
330
6E9
100
AcDbEntity
  8
Level 10
  6
Continuous
 62
     7
370
    40
100
AcDbLine
 10
-796.3465
 20
53.1509
 30
0.0
 11
-796.318
 21
53.1224
 31
0.0
  0
LINE
  5
1D5
330
6E9
100
AcDbEntity
  8
Level 10
  6
Continuous
 62
     7
370
    40
100
AcDbLine
 10
-796.318
 20
53.1509
 30
0.0
 11
-796.3465
 21
53.1224
 31
0.0
  0
LINE
  5
1D6
330
6E9
100
AcDbEntity
  8
Level 10
  6
Continuous
 62
     7
370
    40
100
AcDbLine
 10
-796.4992
 20
53.1509
 30
0.0
 11
-796.5277
 21
53.1224
 31
0.0
  0
LINE
  5
1D7
330
6E9
100
AcDbEntity
  8
Level 10
  6
Continuous
 62
     7
370
    40
100
AcDbLine
 10
-796.5277
 20
53.1509
 30
0.0
 11
-796.4992
 21
53.1224
 31
0.0
  0
LINE
  5
1D8
330
6E9
100
AcDbEntity
  8
Level 10
  6
Continuous
 62
     7
370
    13
100
AcDbLine
 10
-796.4086
 20
53.3939
 30
0.0
 11
-796.4371
 21
53.3939
 31
0.0
  0
LINE
  5
1D9
330
6E9
100
AcDbEntity
  8
Level 10
  6
Continuous
 62
     7
370
    13
100
AcDbLine
 10
-796.4086
 20
53.3561
 30
0.0
 11
-796.4371
 21
53.3561
 31
0.0
  0
LINE
  5
1DA
330
6E9
100
AcDbEntity
  8
Level 10
  6
Continuous
 62
     7
370
    13
100
AcDbLine
 10
-796.4371
 20
53.3939
 30
0.0
 11
-796.4371
 21
53.3561
 31
0.0
  0
LINE
  5
1DB
330
6E9
100
AcDbEntity
  8
Level 10
  6
Continuous
 62
     7
370
    13
100
AcDbLine
 10
-796.4086
 20
53.3939
 30
0.0
 11
-796.4086
 21
53.3561
 31
0.0
  0
LINE
  5
1E4
330
6E9
100
AcDbEntity
  8
Level 10
  6
Continuous
 62
     7
370
    13
100
AcDbLine
 10
-795.761
 20
51.047
 30
0.0
 11
-795.4562
 21
51.047
 31
0.0
  0
LINE
  5
1E5
330
6E9
100
AcDbEntity
  8
Level 10
  6
Continuous
 62
     7
370
    13
100
AcDbLine
 10
-795.761
 20
51.7925
 30
0.0
 11
-795.4562
 21
51.7925
 31
0.0
  0
LINE
  5
1E6
330
6E9
100
AcDbEntity
  8
Level 10
  6
Continuous
 62
     7
370
    13
100
AcDbLine
 10
-795.761
 20
51.047
 30
0.0
 11
-795.761
 21
51.7925
 31
0.0
  0
LINE
  5
1E7
330
6E9
100
AcDbEntity
  8
Level 10
  6
Continuous
 62
     7
370
    13
100
AcDbLine
 10
-795.4562
 20
51.047
 30
0.0
 11
-795.4562
 21
51.7925
 31
0.0
  0
LINE
  5
1E8
330
6E9
100
AcDbEntity
  8
Level 10
  6
Continuous
 62
     7
370
    13
100
AcDbLine
 10
-795.5321
 20
51.7445
 30
0.0
 11
-795.5036
 21
51.7445
 31
0.0
  0
LINE
  5
1E9
330
6E9
100
AcDbEntity
  8
Level 10
  6
Continuous
 62
     7
370
    13
100
AcDbLine
 10
-795.5321
 20
51.716
 30
0.0
 11
-795.5036
 21
51.716
 31
0.0
  0
LINE
  5
1EA
330
6E9
100
AcDbEntity
  8
Level 10
  6
Continuous
 62
     7
370
    13
100
AcDbLine
 10
-795.5321
 20
51.716
 30
0.0
 11
-795.5321
 21
51.7445
 31
0.0
  0
LINE
  5
1EB
330
6E9
100
AcDbEntity
  8
Level 10
  6
Continuous
 62
     7
370
    13
100
AcDbLine
 10
-795.5036
 20
51.716
 30
0.0
 11
-795.5036
 21
51.7445
 31
0.0
  0
LINE
  5
1EC
330
6E9
100
AcDbEntity
  8
Level 10
  6
Continuous
 62
     7
370
    13
100
AcDbLine
 10
-795.7136
 20
51.7445
 30
0.0
 11
-795.6845
 21
51.7445
 31
0.0
  0
LINE
  5
1ED
330
6E9
100
AcDbEntity
  8
Level 10
  6
Continuous
 62
     7
370
    13
100
AcDbLine
 10
-795.7136
 20
51.716
 30
0.0
 11
-795.6845
 21
51.716
 31
0.0
  0
LINE
  5
1EE
330
6E9
100
AcDbEntity
  8
Level 10
  6
Continuous
 62
     7
370
    13
100
AcDbLine
 10
-795.7136
 20
51.716
 30
0.0
 11
-795.7136
 21
51.7445
 31
0.0
  0
LINE
  5
1EF
330
6E9
100
AcDbEntity
  8
Level 10
  6
Continuous
 62
     7
370
    13
100
AcDbLine
 10
-795.6845
 20
51.716
 30
0.0
 11
-795.6845
 21
51.7445
 31
0.0
  0
LINE
  5
1F0
330
6E9
100
AcDbEntity
  8
Level 10
  6
Continuous
 62
     7
370
    40
100
AcDbLine
 10
-795.7136
 20
51.7445
 30
0.0
 11
-795.6845
 21
51.716
 31
0.0
  0
LINE
  5
1F1
330
6E9
100
AcDbEntity
  8
Level 10
  6
Continuous
 62
     7
370
    40
100
AcDbLine
 10
-795.6845
 20
51.7445
 30
0.0
 11
-795.7136
 21
51.716
 31
0.0
  0
LINE
  5
1F2
330
6E9
100
AcDbEntity
  8
Level 10
  6
Continuous
 62
     7
370
    40
100
AcDbLine
 10
-795.5036
 20
51.7445
 30
0.0
 11
-795.5321
 21
51.716
 31
0.0
  0
LINE
  5
1F3
330
6E9
100
AcDbEntity
  8
Level 10
  6
Continuous
 62
     7
370
    40
100
AcDbLine
 10
-795.5321
 20
51.7445
 30
0.0
 11
-795.5036
 21
51.716
 31
0.0
  0
LINE
  5
1F4
330
6E9
100
AcDbEntity
  8
Level 10
  6
Continuous
 62
     7
370
    40
100
AcDbLine
 10
-795.5372
 20
51.2006
 30
0.0
 11
-795.5087
 21
51.1721
 31
0.0
  0
LINE
  5
1F5
330
6E9
100
AcDbEntity
  8
Level 10
  6
Continuous
 62
     7
370
    40
100
AcDbLine
 10
-795.5087
 20
51.2006
 30
0.0
 11
-795.5372
 21
51.1721
 31
0.0
  0
LINE
  5
1F6
330
6E9
100
AcDbEntity
  8
Level 10
  6
Continuous
 62
     7
370
    40
100
AcDbLine
 10
-795.7085
 20
51.1721
 30
0.0
 11
-795.68
 21
51.2006
 31
0.0
  0
LINE
  5
1F7
330
6E9
100
AcDbEntity
  8
Level 10
  6
Continuous
 62
     7
370
    40
100
AcDbLine
 10
-795.7085
 20
51.2006
 30
0.0
 11
-795.68
 21
51.1721
 31
0.0
  0
LINE
  5
1F8
330
6E9
100
AcDbEntity
  8
Level 10
  6
Continuous
 62
     7
370
    13
100
AcDbLine
 10
-795.6215
 20
53.7725
 30
0.0
 11
-795.6215
 21
53.7461
 31
0.0
  0
LINE
  5
1F9
330
6E9
100
AcDbEntity
  8
Level 10
  6
Continuous
 62
     7
370
    13
100
AcDbLine
 10
-795.5951
 20
53.7725
 30
0.0
 11
-795.5951
 21
53.7461
 31
0.0
  0
LINE
  5
1FA
330
6E9
100
AcDbEntity
  8
Level 10
  6
Continuous
 62
     7
370
    13
100
AcDbLine
 10
-795.5951
 20
53.7725
 30
0.0
 11
-795.6215
 21
53.7725
 31
0.0
  0
LINE
  5
1FB
330
6E9
100
AcDbEntity
  8
Level 10
  6
Continuous
 62
     7
370
    13
100
AcDbLine
 10
-795.5951
 20
53.7461
 30
0.0
 11
-795.6215
 21
53.7461
 31
0.0
  0
LINE
  5
1FC
330
6E9
100
AcDbEntity
  8
Level 10
  6
Continuous
 62
     7
370
    13
100
AcDbLine
 10
-795.5372
 20
53.6951
 30
0.0
 11
-795.5372
 21
53.666
 31
0.0
  0
LINE
  5
1FD
330
6E9
100
AcDbEntity
  8
Level 10
  6
Continuous
 62
     7
370
    13
100
AcDbLine
 10
-795.5087
 20
53.6951
 30
0.0
 11
-795.5087
 21
53.666
 31
0.0
  0
LINE
  5
1FE
330
6E9
100
AcDbEntity
  8
Level 10
  6
Continuous
 62
     7
370
    13
100
AcDbLine
 10
-795.4562
 20
53.6675
 30
0.0
 11
-795.5087
 21
53.6675
 31
0.0
  0
LINE
  5
1FF
330
6E9
100
AcDbEntity
  8
Level 10
  6
Continuous
 62
     7
370
    13
100
AcDbLine
 10
-795.5087
 20
53.666
 30
0.0
 11
-795.5372
 21
53.666
 31
0.0
  0
LINE
  5
200
330
6E9
100
AcDbEntity
  8
Level 10
  6
Continuous
 62
     7
370
    13
100
AcDbLine
 10
-795.68
 20
53.666
 30
0.0
 11
-795.7085
 21
53.666
 31
0.0
  0
LINE
  5
201
330
6E9
100
AcDbEntity
  8
Level 10
  6
Continuous
 62
     7
370
    13
100
AcDbLine
 10
-795.5087
 20
53.6951
 30
0.0
 11
-795.5372
 21
53.6951
 31
0.0
  0
LINE
  5
202
330
6E9
100
AcDbEntity
  8
Level 10
  6
Continuous
 62
     7
370
    13
100
AcDbLine
 10
-795.68
 20
53.6951
 30
0.0
 11
-795.7085
 21
53.6951
 31
0.0
  0
LINE
  5
203
330
6E9
100
AcDbEntity
  8
Level 10
  6
Continuous
 62
     7
370
    13
100
AcDbLine
 10
-795.5372
 20
53.6675
 30
0.0
 11
-795.68
 21
53.6675
 31
0.0
  0
LINE
  5
204
330
6E9
100
AcDbEntity
  8
Level 10
  6
Continuous
 62
     7
370
    13
100
AcDbLine
 10
-795.7085
 20
53.6675
 30
0.0
 11
-795.761
 21
53.6675
 31
0.0
  0
LINE
  5
205
330
6E9
100
AcDbEntity
  8
Level 10
  6
Continuous
 62
     7
370
    13
100
AcDbLine
 10
-795.7085
 20
53.6951
 30
0.0
 11
-795.7085
 21
53.666
 31
0.0
  0
LINE
  5
206
330
6E9
100
AcDbEntity
  8
Level 10
  6
Continuous
 62
     7
370
    13
100
AcDbLine
 10
-795.68
 20
53.6951
 30
0.0
 11
-795.68
 21
53.666
 31
0.0
  0
LINE
  5
207
330
6E9
100
AcDbEntity
  8
Level 10
  6
Continuous
 62
     7
370
    13
100
AcDbLine
 10
-795.4562
 20
53.8199
 30
0.0
 11
-795.761
 21
53.8199
 31
0.0
  0
LINE
  5
208
330
6E9
100
AcDbEntity
  8
Level 10
  6
Continuous
 62
     7
370
    13
100
AcDbLine
 10
-795.4562
 20
53.8199
 30
0.0
 11
-795.4562
 21
53.0579
 31
0.0
  0
LINE
  5
209
330
6E9
100
AcDbEntity
  8
Level 10
  6
Continuous
 62
     7
370
    13
100
AcDbLine
 10
-795.761
 20
53.8199
 30
0.0
 11
-795.761
 21
53.0579
 31
0.0
  0
LINE
  5
20A
330
6E9
100
AcDbEntity
  8
Level 10
  6
Continuous
 62
     7
370
    13
100
AcDbLine
 10
-795.6845
 20
53.1056
 30
0.0
 11
-795.7136
 21
53.1056
 31
0.0
  0
LINE
  5
20B
330
6E9
100
AcDbEntity
  8
Level 10
  6
Continuous
 62
     7
370
    13
100
AcDbLine
 10
-795.6845
 20
53.1341
 30
0.0
 11
-795.7136
 21
53.1341
 31
0.0
  0
LINE
  5
20C
330
6E9
100
AcDbEntity
  8
Level 10
  6
Continuous
 62
     7
370
    13
100
AcDbLine
 10
-795.6845
 20
53.1341
 30
0.0
 11
-795.6845
 21
53.1056
 31
0.0
  0
LINE
  5
20D
330
6E9
100
AcDbEntity
  8
Level 10
  6
Continuous
 62
     7
370
    13
100
AcDbLine
 10
-795.7136
 20
53.1341
 30
0.0
 11
-795.7136
 21
53.1056
 31
0.0
  0
LINE
  5
20E
330
6E9
100
AcDbEntity
  8
Level 10
  6
Continuous
 62
     7
370
    13
100
AcDbLine
 10
-795.5036
 20
53.1056
 30
0.0
 11
-795.5321
 21
53.1056
 31
0.0
  0
LINE
  5
20F
330
6E9
100
AcDbEntity
  8
Level 10
  6
Continuous
 62
     7
370
    13
100
AcDbLine
 10
-795.5036
 20
53.1341
 30
0.0
 11
-795.5321
 21
53.1341
 31
0.0
  0
LINE
  5
210
330
6E9
100
AcDbEntity
  8
Level 10
  6
Continuous
 62
     7
370
    13
100
AcDbLine
 10
-795.5036
 20
53.1341
 30
0.0
 11
-795.5036
 21
53.1056
 31
0.0
  0
LINE
  5
211
330
6E9
100
AcDbEntity
  8
Level 10
  6
Continuous
 62
     7
370
    13
100
AcDbLine
 10
-795.5321
 20
53.1341
 30
0.0
 11
-795.5321
 21
53.1056
 31
0.0
  0
LINE
  5
212
330
6E9
100
AcDbEntity
  8
Level 10
  6
Continuous
 62
     7
370
    40
100
AcDbLine
 10
-795.5036
 20
53.1056
 30
0.0
 11
-795.5321
 21
53.1341
 31
0.0
  0
LINE
  5
213
330
6E9
100
AcDbEntity
  8
Level 10
  6
Continuous
 62
     7
370
    40
100
AcDbLine
 10
-795.5321
 20
53.1056
 30
0.0
 11
-795.5036
 21
53.1341
 31
0.0
  0
LINE
  5
214
330
6E9
100
AcDbEntity
  8
Level 10
  6
Continuous
 62
     7
370
    40
100
AcDbLine
 10
-795.7136
 20
53.1056
 30
0.0
 11
-795.6845
 21
53.1341
 31
0.0
  0
LINE
  5
215
330
6E9
100
AcDbEntity
  8
Level 10
  6
Continuous
 62
     7
370
    40
100
AcDbLine
 10
-795.6845
 20
53.1056
 30
0.0
 11
-795.7136
 21
53.1341
 31
0.0
  0
LINE
  5
216
330
6E9
100
AcDbEntity
  8
Level 10
  6
Continuous
 62
     7
370
    40
100
AcDbLine
 10
-795.68
 20
53.666
 30
0.0
 11
-795.7085
 21
53.6951
 31
0.0
  0
LINE
  5
217
330
6E9
100
AcDbEntity
  8
Level 10
  6
Continuous
 62
     7
370
    40
100
AcDbLine
 10
-795.7085
 20
53.666
 30
0.0
 11
-795.68
 21
53.6951
 31
0.0
  0
LINE
  5
218
330
6E9
100
AcDbEntity
  8
Level 10
  6
Continuous
 62
     7
370
    40
100
AcDbLine
 10
-795.5087
 20
53.6951
 30
0.0
 11
-795.5372
 21
53.666
 31
0.0
  0
LINE
  5
219
330
6E9
100
AcDbEntity
  8
Level 10
  6
Continuous
 62
     7
370
    40
100
AcDbLine
 10
-795.5087
 20
53.666
 30
0.0
 11
-795.5372
 21
53.6951
 31
0.0
  0
LINE
  5
21A
330
6E9
100
AcDbEntity
  8
Level 10
  6
Continuous
 62
     7
370
    13
100
AcDbLine
 10
-795.4562
 20
53.0579
 30
0.0
 11
-795.761
 21
53.0579
 31
0.0
  0
LINE
  5
300
330
6E9
100
AcDbEntity
  8
Level 10
  6
Continuous
 62
     7
370
    13
100
AcDbLine
 10
-794.7798
 20
53.24
 30
0.0
 11
-794.781
 21
53.2136
 31
0.0
  0
LINE
  5
301
330
6E9
100
AcDbEntity
  8
Level 10
  6
Continuous
 62
     7
370
    13
100
AcDbLine
 10
-794.7534
 20
53.2385
 30
0.0
 11
-794.7549
 21
53.2124
 31
0.0
  0
LINE
  5
302
330
6E9
100
AcDbEntity
  8
Level 10
  6
Continuous
 62
     7
370
    13
100
AcDbLine
 10
-794.8074
 20
52.8695
 30
0.0
 11
-794.8089
 21
52.8431
 31
0.0
  0
LINE
  5
303
330
6E9
100
AcDbEntity
  8
Level 10
  6
Continuous
 62
     7
370
    13
100
AcDbLine
 10
-794.8338
 20
52.8704
 30
0.0
 11
-794.8353
 21
52.844
 31
0.0
  0
LINE
  5
304
330
6E9
100
AcDbEntity
  8
Level 10
  6
Continuous
 62
     7
370
    13
100
AcDbLine
 10
-794.8089
 20
52.8431
 30
0.0
 11
-794.8353
 21
52.844
 31
0.0
  0
LINE
  5
305
330
6E9
100
AcDbEntity
  8
Level 10
  6
Continuous
 62
     7
370
    13
100
AcDbLine
 10
-794.8074
 20
52.8695
 30
0.0
 11
-794.8338
 21
52.8704
 31
0.0
  0
LINE
  5
306
330
6E9
100
AcDbEntity
  8
Level 10
  6
Continuous
 62
     7
370
    13
100
AcDbLine
 10
-794.7534
 20
53.2385
 30
0.0
 11
-794.7798
 21
53.24
 31
0.0
  0
LINE
  5
307
330
6E9
100
AcDbEntity
  8
Level 10
  6
Continuous
 62
     7
370
    13
100
AcDbLine
 10
-794.7549
 20
53.2124
 30
0.0
 11
-794.781
 21
53.2136
 31
0.0
  0
LINE
  5
308
330
6E9
100
AcDbEntity
  8
Level 10
  6
Continuous
 62
     7
370
    13
100
AcDbLine
 10
-794.7375
 20
52.9235
 30
0.0
 11
-794.7384
 21
52.895
 31
0.0
  0
LINE
  5
309
330
6E9
100
AcDbEntity
  8
Level 10
  6
Continuous
 62
     7
370
    13
100
AcDbLine
 10
-794.766
 20
52.9244
 30
0.0
 11
-794.7669
 21
52.8959
 31
0.0
  0
LINE
  5
30A
330
6E9
100
AcDbEntity
  8
Level 10
  6
Continuous
 62
     7
370
    13
100
AcDbLine
 10
-794.7375
 20
52.9235
 30
0.0
 11
-794.766
 21
52.9244
 31
0.0
  0
LINE
  5
30B
330
6E9
100
AcDbEntity
  8
Level 10
  6
Continuous
 62
     7
370
    13
100
AcDbLine
 10
-794.7174
 20
53.1605
 30
0.0
 11
-794.7189
 21
53.132
 31
0.0
  0
LINE
  5
30C
330
6E9
100
AcDbEntity
  8
Level 10
  6
Continuous
 62
     7
370
    13
100
AcDbLine
 10
-794.6889
 20
53.1596
 30
0.0
 11
-794.6904
 21
53.1311
 31
0.0
  0
LINE
  5
30D
330
6E9
100
AcDbEntity
  8
Level 10
  6
Continuous
 62
     7
370
    13
100
AcDbLine
 10
-794.7384
 20
52.895
 30
0.0
 11
-794.7669
 21
52.8959
 31
0.0
  0
LINE
  5
30E
330
6E9
100
AcDbEntity
  8
Level 10
  6
Continuous
 62
     7
370
    13
100
AcDbLine
 10
-794.8719
 20
52.901
 30
0.0
 11
-794.9004
 21
52.9019
 31
0.0
  0
LINE
  5
30F
330
6E9
100
AcDbEntity
  8
Level 10
  6
Continuous
 62
     7
370
    13
100
AcDbLine
 10
-794.8704
 20
52.9295
 30
0.0
 11
-794.8989
 21
52.9304
 31
0.0
  0
LINE
  5
310
330
6E9
100
AcDbEntity
  8
Level 10
  6
Continuous
 62
     7
370
    13
100
AcDbLine
 10
-794.8704
 20
52.9295
 30
0.0
 11
-794.8719
 21
52.901
 31
0.0
  0
LINE
  5
311
330
6E9
100
AcDbEntity
  8
Level 10
  6
Continuous
 62
     7
370
    13
100
AcDbLine
 10
-794.7663
 20
52.9235
 30
0.0
 11
-794.8704
 21
52.928
 31
0.0
  0
LINE
  5
312
330
6E9
100
AcDbEntity
  8
Level 10
  6
Continuous
 62
     7
370
    13
100
AcDbLine
 10
-794.8995
 20
52.9295
 30
0.0
 11
-794.9469
 21
52.931
 31
0.0
  0
LINE
  5
313
330
6E9
100
AcDbEntity
  8
Level 10
  6
Continuous
 62
     7
370
    13
100
AcDbLine
 10
-794.8989
 20
52.9304
 30
0.0
 11
-794.9004
 21
52.9019
 31
0.0
  0
LINE
  5
314
330
6E9
100
AcDbEntity
  8
Level 10
  6
Continuous
 62
     7
370
    13
100
AcDbLine
 10
-794.6424
 20
53.1305
 30
0.0
 11
-794.6904
 21
53.132
 31
0.0
  0
LINE
  5
315
330
6E9
100
AcDbEntity
  8
Level 10
  6
Continuous
 62
     7
370
    13
100
AcDbLine
 10
-794.6904
 20
53.1311
 30
0.0
 11
-794.7189
 21
53.132
 31
0.0
  0
LINE
  5
316
330
6E9
100
AcDbEntity
  8
Level 10
  6
Continuous
 62
     7
370
    13
100
AcDbLine
 10
-794.8233
 20
53.1365
 30
0.0
 11
-794.8524
 21
53.138
 31
0.0
  0
LINE
  5
317
330
6E9
100
AcDbEntity
  8
Level 10
  6
Continuous
 62
     7
370
    13
100
AcDbLine
 10
-794.6889
 20
53.1596
 30
0.0
 11
-794.7174
 21
53.1605
 31
0.0
  0
LINE
  5
318
330
6E9
100
AcDbEntity
  8
Level 10
  6
Continuous
 62
     7
370
    13
100
AcDbLine
 10
-794.8224
 20
53.1656
 30
0.0
 11
-794.8509
 21
53.1665
 31
0.0
  0
LINE
  5
319
330
6E9
100
AcDbEntity
  8
Level 10
  6
Continuous
 62
     7
370
    13
100
AcDbLine
 10
-794.7189
 20
53.1335
 30
0.0
 11
-794.8233
 21
53.138
 31
0.0
  0
LINE
  5
31A
330
6E9
100
AcDbEntity
  8
Level 10
  6
Continuous
 62
     7
370
    13
100
AcDbLine
 10
-794.8518
 20
53.1395
 30
0.0
 11
-794.9379
 21
53.1431
 31
0.0
  0
LINE
  5
31B
330
6E9
100
AcDbEntity
  8
Level 10
  6
Continuous
 62
     7
370
    13
100
AcDbLine
 10
-794.8509
 20
53.1665
 30
0.0
 11
-794.8524
 21
53.138
 31
0.0
  0
LINE
  5
31C
330
6E9
100
AcDbEntity
  8
Level 10
  6
Continuous
 62
     7
370
    13
100
AcDbLine
 10
-794.8224
 20
53.1656
 30
0.0
 11
-794.8233
 21
53.1365
 31
0.0
  0
LINE
  5
31D
330
6E9
100
AcDbEntity
  8
Level 10
  6
Continuous
 62
     7
370
    13
100
AcDbLine
 10
-794.6364
 20
53.2685
 30
0.0
 11
-794.6565
 21
52.8116
 31
0.0
  0
LINE
  5
31E
330
6E9
100
AcDbEntity
  8
Level 10
  6
Continuous
 62
     7
370
    13
100
AcDbLine
 10
-794.9319
 20
53.2811
 30
0.0
 11
-794.9514
 21
52.8245
 31
0.0
  0
LINE
  5
31F
330
6E9
100
AcDbEntity
  8
Level 10
  6
Continuous
 62
     7
370
    13
100
AcDbLine
 10
-794.652
 20
52.9184
 30
0.0
 11
-794.7375
 21
52.922
 31
0.0
  0
LINE
  5
320
330
6E9
100
AcDbEntity
  8
Level 10
  6
Continuous
 62
     7
370
    13
100
AcDbLine
 10
-794.6364
 20
53.2685
 30
0.0
 11
-794.9319
 21
53.2811
 31
0.0
  0
LINE
  5
321
330
6E9
100
AcDbEntity
  8
Level 10
  6
Continuous
 62
     7
370
    13
100
AcDbLine
 10
-794.6565
 20
52.8116
 30
0.0
 11
-794.9514
 21
52.8245
 31
0.0
  0
LINE
  5
322
330
6E9
100
AcDbEntity
  8
Level 10
  6
Continuous
 62
     7
370
    13
100
AcDbLine
 10
-794.7798
 20
50.9525
 30
0.0
 11
-794.781
 21
50.9264
 31
0.0
  0
LINE
  5
323
330
6E9
100
AcDbEntity
  8
Level 10
  6
Continuous
 62
     7
370
    13
100
AcDbLine
 10
-794.7534
 20
50.9516
 30
0.0
 11
-794.7549
 21
50.9255
 31
0.0
  0
LINE
  5
324
330
6E9
100
AcDbEntity
  8
Level 10
  6
Continuous
 62
     7
370
    13
100
AcDbLine
 10
-794.8074
 20
50.582
 30
0.0
 11
-794.8089
 21
50.5559
 31
0.0
  0
LINE
  5
325
330
6E9
100
AcDbEntity
  8
Level 10
  6
Continuous
 62
     7
370
    13
100
AcDbLine
 10
-794.8338
 20
50.5835
 30
0.0
 11
-794.8353
 21
50.5571
 31
0.0
  0
LINE
  5
326
330
6E9
100
AcDbEntity
  8
Level 10
  6
Continuous
 62
     7
370
    13
100
AcDbLine
 10
-794.8089
 20
50.5559
 30
0.0
 11
-794.8353
 21
50.5571
 31
0.0
  0
LINE
  5
327
330
6E9
100
AcDbEntity
  8
Level 10
  6
Continuous
 62
     7
370
    13
100
AcDbLine
 10
-794.8074
 20
50.582
 30
0.0
 11
-794.8338
 21
50.5835
 31
0.0
  0
LINE
  5
328
330
6E9
100
AcDbEntity
  8
Level 10
  6
Continuous
 62
     7
370
    13
100
AcDbLine
 10
-794.7534
 20
50.9516
 30
0.0
 11
-794.7798
 21
50.9525
 31
0.0
  0
LINE
  5
329
330
6E9
100
AcDbEntity
  8
Level 10
  6
Continuous
 62
     7
370
    13
100
AcDbLine
 10
-794.7549
 20
50.9255
 30
0.0
 11
-794.781
 21
50.9264
 31
0.0
  0
LINE
  5
32A
330
6E9
100
AcDbEntity
  8
Level 10
  6
Continuous
 62
     7
370
    13
100
AcDbLine
 10
-794.7375
 20
50.636
 30
0.0
 11
-794.7384
 21
50.6075
 31
0.0
  0
LINE
  5
32B
330
6E9
100
AcDbEntity
  8
Level 10
  6
Continuous
 62
     7
370
    13
100
AcDbLine
 10
-794.766
 20
50.6375
 30
0.0
 11
-794.7669
 21
50.609
 31
0.0
  0
LINE
  5
32C
330
6E9
100
AcDbEntity
  8
Level 10
  6
Continuous
 62
     7
370
    13
100
AcDbLine
 10
-794.7375
 20
50.636
 30
0.0
 11
-794.766
 21
50.6375
 31
0.0
  0
LINE
  5
32D
330
6E9
100
AcDbEntity
  8
Level 10
  6
Continuous
 62
     7
370
    13
100
AcDbLine
 10
-794.7174
 20
50.8736
 30
0.0
 11
-794.7189
 21
50.8451
 31
0.0
  0
LINE
  5
32E
330
6E9
100
AcDbEntity
  8
Level 10
  6
Continuous
 62
     7
370
    13
100
AcDbLine
 10
-794.6889
 20
50.8724
 30
0.0
 11
-794.6904
 21
50.8439
 31
0.0
  0
LINE
  5
32F
330
6E9
100
AcDbEntity
  8
Level 10
  6
Continuous
 62
     7
370
    13
100
AcDbLine
 10
-794.7384
 20
50.6075
 30
0.0
 11
-794.7669
 21
50.609
 31
0.0
  0
LINE
  5
330
330
6E9
100
AcDbEntity
  8
Level 10
  6
Continuous
 62
     7
370
    13
100
AcDbLine
 10
-794.8719
 20
50.6135
 30
0.0
 11
-794.9004
 21
50.615
 31
0.0
  0
LINE
  5
331
330
6E9
100
AcDbEntity
  8
Level 10
  6
Continuous
 62
     7
370
    13
100
AcDbLine
 10
-794.8704
 20
50.642
 30
0.0
 11
-794.8989
 21
50.6435
 31
0.0
  0
LINE
  5
332
330
6E9
100
AcDbEntity
  8
Level 10
  6
Continuous
 62
     7
370
    13
100
AcDbLine
 10
-794.8704
 20
50.642
 30
0.0
 11
-794.8719
 21
50.6135
 31
0.0
  0
LINE
  5
333
330
6E9
100
AcDbEntity
  8
Level 10
  6
Continuous
 62
     7
370
    13
100
AcDbLine
 10
-794.7663
 20
50.636
 30
0.0
 11
-794.8704
 21
50.6405
 31
0.0
  0
LINE
  5
334
330
6E9
100
AcDbEntity
  8
Level 10
  6
Continuous
 62
     7
370
    13
100
AcDbLine
 10
-794.8995
 20
50.642
 30
0.0
 11
-794.9469
 21
50.6441
 31
0.0
  0
LINE
  5
335
330
6E9
100
AcDbEntity
  8
Level 10
  6
Continuous
 62
     7
370
    13
100
AcDbLine
 10
-794.8989
 20
50.6435
 30
0.0
 11
-794.9004
 21
50.615
 31
0.0
  0
LINE
  5
336
330
6E9
100
AcDbEntity
  8
Level 10
  6
Continuous
 62
     7
370
    13
100
AcDbLine
 10
-794.6424
 20
50.843
 30
0.0
 11
-794.6904
 21
50.8451
 31
0.0
  0
LINE
  5
337
330
6E9
100
AcDbEntity
  8
Level 10
  6
Continuous
 62
     7
370
    13
100
AcDbLine
 10
-794.6904
 20
50.8439
 30
0.0
 11
-794.7189
 21
50.8451
 31
0.0
  0
LINE
  5
338
330
6E9
100
AcDbEntity
  8
Level 10
  6
Continuous
 62
     7
370
    13
100
AcDbLine
 10
-794.8233
 20
50.8499
 30
0.0
 11
-794.8524
 21
50.8511
 31
0.0
  0
LINE
  5
339
330
6E9
100
AcDbEntity
  8
Level 10
  6
Continuous
 62
     7
370
    13
100
AcDbLine
 10
-794.6889
 20
50.8724
 30
0.0
 11
-794.7174
 21
50.8736
 31
0.0
  0
LINE
  5
33A
330
6E9
100
AcDbEntity
  8
Level 10
  6
Continuous
 62
     7
370
    13
100
AcDbLine
 10
-794.8224
 20
50.8784
 30
0.0
 11
-794.8509
 21
50.8796
 31
0.0
  0
LINE
  5
33B
330
6E9
100
AcDbEntity
  8
Level 10
  6
Continuous
 62
     7
370
    13
100
AcDbLine
 10
-794.7189
 20
50.846
 30
0.0
 11
-794.8233
 21
50.8505
 31
0.0
  0
LINE
  5
33C
330
6E9
100
AcDbEntity
  8
Level 10
  6
Continuous
 62
     7
370
    13
100
AcDbLine
 10
-794.8518
 20
50.852
 30
0.0
 11
-794.9379
 21
50.8559
 31
0.0
  0
LINE
  5
33D
330
6E9
100
AcDbEntity
  8
Level 10
  6
Continuous
 62
     7
370
    13
100
AcDbLine
 10
-794.8509
 20
50.8796
 30
0.0
 11
-794.8524
 21
50.8511
 31
0.0
  0
LINE
  5
33E
330
6E9
100
AcDbEntity
  8
Level 10
  6
Continuous
 62
     7
370
    13
100
AcDbLine
 10
-794.8224
 20
50.8784
 30
0.0
 11
-794.8233
 21
50.8499
 31
0.0
  0
LINE
  5
33F
330
6E9
100
AcDbEntity
  8
Level 10
  6
Continuous
 62
     7
370
    13
100
AcDbLine
 10
-794.6364
 20
50.981
 30
0.0
 11
-794.6565
 21
50.5244
 31
0.0
  0
LINE
  5
340
330
6E9
100
AcDbEntity
  8
Level 10
  6
Continuous
 62
     7
370
    13
100
AcDbLine
 10
-794.9319
 20
50.9939
 30
0.0
 11
-794.9514
 21
50.537
 31
0.0
  0
LINE
  5
341
330
6E9
100
AcDbEntity
  8
Level 10
  6
Continuous
 62
     7
370
    13
100
AcDbLine
 10
-794.652
 20
50.6315
 30
0.0
 11
-794.7375
 21
50.6351
 31
0.0
  0
LINE
  5
342
330
6E9
100
AcDbEntity
  8
Level 10
  6
Continuous
 62
     7
370
    13
100
AcDbLine
 10
-794.6364
 20
50.981
 30
0.0
 11
-794.9319
 21
50.9939
 31
0.0
  0
LINE
  5
343
330
6E9
100
AcDbEntity
  8
Level 10
  6
Continuous
 62
     7
370
    13
100
AcDbLine
 10
-794.6565
 20
50.5244
 30
0.0
 11
-794.9514
 21
50.537
 31
0.0
  0
LINE
  5
345
330
6E9
100
AcDbEntity
  8
Level 10
  6
Continuous
 62
     7
370
    13
100
AcDbLine
 10
-794.9655
 20
50.2619
 30
0.0
 11
-794.6229
 21
50.2619
 31
0.0
  0
LINE
  5
346
330
6E9
100
AcDbEntity
  8
Level 10
  6
Continuous
 62
     7
370
    40
100
AcDbLine
 10
-794.856
 20
53.6951
 30
0.0
 11
-794.8275
 21
53.666
 31
0.0
  0
LINE
  5
347
330
6E9
100
AcDbEntity
  8
Level 10
  6
Continuous
 62
     7
370
    40
100
AcDbLine
 10
-794.8275
 20
53.6951
 30
0.0
 11
-794.856
 21
53.666
 31
0.0
  0
LINE
  5
348
330
6E9
100
AcDbEntity
  8
Level 10
  6
Continuous
 62
     7
370
    40
100
AcDbLine
 10
-794.7609
 20
53.4569
 30
0.0
 11
-794.7324
 21
53.4284
 31
0.0
  0
LINE
  5
349
330
6E9
100
AcDbEntity
  8
Level 10
  6
Continuous
 62
     7
370
    40
100
AcDbLine
 10
-794.7324
 20
53.4569
 30
0.0
 11
-794.7609
 21
53.4284
 31
0.0
  0
LINE
  5
34A
330
6E9
100
AcDbEntity
  8
Level 10
  6
Continuous
 62
     7
370
    40
100
AcDbLine
 10
-794.7798
 20
53.24
 30
0.0
 11
-794.7549
 21
53.2124
 31
0.0
  0
LINE
  5
34B
330
6E9
100
AcDbEntity
  8
Level 10
  6
Continuous
 62
     7
370
    40
100
AcDbLine
 10
-794.781
 20
53.2136
 30
0.0
 11
-794.7534
 21
53.2385
 31
0.0
  0
LINE
  5
34C
330
6E9
100
AcDbEntity
  8
Level 10
  6
Continuous
 62
     7
370
    40
100
AcDbLine
 10
-794.7228
 20
51.4385
 30
0.0
 11
-794.6943
 21
51.41
 31
0.0
  0
LINE
  5
34D
330
6E9
100
AcDbEntity
  8
Level 10
  6
Continuous
 62
     7
370
    40
100
AcDbLine
 10
-794.6943
 20
51.4385
 30
0.0
 11
-794.7228
 21
51.41
 31
0.0
  0
LINE
  5
34E
330
6E9
100
AcDbEntity
  8
Level 10
  6
Continuous
 62
     7
370
    40
100
AcDbLine
 10
-794.8659
 20
51.2006
 30
0.0
 11
-794.8944
 21
51.1721
 31
0.0
  0
LINE
  5
34F
330
6E9
100
AcDbEntity
  8
Level 10
  6
Continuous
 62
     7
370
    40
100
AcDbLine
 10
-794.8659
 20
51.1721
 30
0.0
 11
-794.8944
 21
51.2006
 31
0.0
  0
LINE
  5
350
330
6E9
100
AcDbEntity
  8
Level 10
  6
Continuous
 62
     7
370
    40
100
AcDbLine
 10
-794.8509
 20
53.1665
 30
0.0
 11
-794.8233
 21
53.1365
 31
0.0
  0
LINE
  5
351
330
6E9
100
AcDbEntity
  8
Level 10
  6
Continuous
 62
     7
370
    40
100
AcDbLine
 10
-794.8224
 20
53.1656
 30
0.0
 11
-794.8524
 21
53.138
 31
0.0
  0
LINE
  5
352
330
6E9
100
AcDbEntity
  8
Level 10
  6
Continuous
 62
     7
370
    40
100
AcDbLine
 10
-794.7669
 20
52.8959
 30
0.0
 11
-794.7375
 21
52.9235
 31
0.0
  0
LINE
  5
353
330
6E9
100
AcDbEntity
  8
Level 10
  6
Continuous
 62
     7
370
    40
100
AcDbLine
 10
-794.7384
 20
52.895
 30
0.0
 11
-794.766
 21
52.9244
 31
0.0
  0
LINE
  5
354
330
6E9
100
AcDbEntity
  8
Level 10
  6
Continuous
 62
     7
370
    40
100
AcDbLine
 10
-794.8989
 20
52.9304
 30
0.0
 11
-794.8719
 21
52.901
 31
0.0
  0
LINE
  5
355
330
6E9
100
AcDbEntity
  8
Level 10
  6
Continuous
 62
     7
370
    40
100
AcDbLine
 10
-794.8704
 20
52.9295
 30
0.0
 11
-794.9004
 21
52.9019
 31
0.0
  0
LINE
  5
356
330
6E9
100
AcDbEntity
  8
Level 10
  6
Continuous
 62
     7
370
    40
100
AcDbLine
 10
-794.8224
 20
50.8784
 30
0.0
 11
-794.8524
 21
50.8511
 31
0.0
  0
LINE
  5
357
330
6E9
100
AcDbEntity
  8
Level 10
  6
Continuous
 62
     7
370
    40
100
AcDbLine
 10
-794.8509
 20
50.8796
 30
0.0
 11
-794.8233
 21
50.8499
 31
0.0
  0
LINE
  5
358
330
6E9
100
AcDbEntity
  8
Level 10
  6
Continuous
 62
     7
370
    40
100
AcDbLine
 10
-794.766
 20
50.6375
 30
0.0
 11
-794.7384
 21
50.6075
 31
0.0
  0
LINE
  5
359
330
6E9
100
AcDbEntity
  8
Level 10
  6
Continuous
 62
     7
370
    40
100
AcDbLine
 10
-794.7669
 20
50.609
 30
0.0
 11
-794.7375
 21
50.636
 31
0.0
  0
LINE
  5
35A
330
6E9
100
AcDbEntity
  8
Level 10
  6
Continuous
 62
     7
370
    40
100
AcDbLine
 10
-794.8074
 20
50.582
 30
0.0
 11
-794.8353
 21
50.5571
 31
0.0
  0
LINE
  5
35B
330
6E9
100
AcDbEntity
  8
Level 10
  6
Continuous
 62
     7
370
    40
100
AcDbLine
 10
-794.8338
 20
50.5835
 30
0.0
 11
-794.8089
 21
50.5559
 31
0.0
  0
LINE
  5
361
330
6E9
100
AcDbEntity
  8
Level 10
  6
Continuous
 62
     7
370
    13
100
AcDbLine
 10
-794.1508
 20
50.2619
 30
0.0
 11
-793.8082
 21
50.2619
 31
0.0
  0
LINE
  5
362
330
6E9
100
AcDbEntity
  8
Level 10
  6
Continuous
 62
     7
370
    13
100
AcDbLine
 10
-793.3367
 20
50.2619
 30
0.0
 11
-792.9938
 21
50.2619
 31
0.0
  0
LINE
  5
3AD
330
6E9
100
AcDbEntity
  8
Level 10
  6
Continuous
 62
     7
370
    13
100
AcDbLine
 10
-793.1654
 20
50.6615
 30
0.0
 11
-793.0127
 21
50.6615
 31
0.0
  0
LINE
  5
3AE
330
6E9
100
AcDbEntity
  8
Level 10
  6
Continuous
 62
     7
370
    13
100
AcDbLine
 10
-793.0127
 20
50.6615
 30
0.0
 11
-793.0127
 21
51.6899
 31
0.0
  0
LINE
  5
3AF
330
6E9
100
AcDbEntity
  8
Level 10
  6
Continuous
 62
     7
370
    13
100
AcDbLine
 10
-793.1654
 20
50.6615
 30
0.0
 11
-793.1654
 21
51.6845
 31
0.0
  0
LINE
  5
3B0
330
6E9
100
AcDbEntity
  8
Level 10
  6
Continuous
 62
     7
370
    13
100
AcDbLine
 10
-793.0703
 20
50.699
 30
0.0
 11
-793.0703
 21
50.7281
 31
0.0
  0
LINE
  5
3B1
330
6E9
100
AcDbEntity
  8
Level 10
  6
Continuous
 62
     7
370
    13
100
AcDbLine
 10
-793.0703
 20
51.623
 30
0.0
 11
-793.0703
 21
51.6515
 31
0.0
  0
LINE
  5
3B2
330
6E9
100
AcDbEntity
  8
Level 10
  6
Continuous
 62
     7
370
    13
100
AcDbLine
 10
-793.1078
 20
50.699
 30
0.0
 11
-793.1078
 21
50.7281
 31
0.0
  0
LINE
  5
3B3
330
6E9
100
AcDbEntity
  8
Level 10
  6
Continuous
 62
     7
370
    13
100
AcDbLine
 10
-793.1078
 20
51.623
 30
0.0
 11
-793.1078
 21
51.6515
 31
0.0
  0
LINE
  5
3B4
330
6E9
100
AcDbEntity
  8
Level 10
  6
Continuous
 62
     7
370
    13
100
AcDbLine
 10
-793.1369
 20
50.7281
 30
0.0
 11
-793.1078
 21
50.7281
 31
0.0
  0
LINE
  5
3B5
330
6E9
100
AcDbEntity
  8
Level 10
  6
Continuous
 62
     7
370
    13
100
AcDbLine
 10
-793.0703
 20
50.7281
 30
0.0
 11
-793.0418
 21
50.7281
 31
0.0
  0
LINE
  5
3B6
330
6E9
100
AcDbEntity
  8
Level 10
  6
Continuous
 62
     7
370
    13
100
AcDbLine
 10
-793.0418
 20
50.699
 30
0.0
 11
-793.0418
 21
50.7281
 31
0.0
  0
LINE
  5
3B7
330
6E9
100
AcDbEntity
  8
Level 10
  6
Continuous
 62
     7
370
    13
100
AcDbLine
 10
-793.0418
 20
51.623
 30
0.0
 11
-793.0418
 21
51.6515
 31
0.0
  0
LINE
  5
3B8
330
6E9
100
AcDbEntity
  8
Level 10
  6
Continuous
 62
     7
370
    13
100
AcDbLine
 10
-793.1369
 20
50.699
 30
0.0
 11
-793.1369
 21
50.7281
 31
0.0
  0
LINE
  5
3B9
330
6E9
100
AcDbEntity
  8
Level 10
  6
Continuous
 62
     7
370
    13
100
AcDbLine
 10
-793.1369
 20
51.623
 30
0.0
 11
-793.1369
 21
51.6515
 31
0.0
  0
LINE
  5
3BA
330
6E9
100
AcDbEntity
  8
Level 10
  6
Continuous
 62
     7
370
    13
100
AcDbLine
 10
-793.1369
 20
50.699
 30
0.0
 11
-793.1078
 21
50.699
 31
0.0
  0
LINE
  5
3BB
330
6E9
100
AcDbEntity
  8
Level 10
  6
Continuous
 62
     7
370
    13
100
AcDbLine
 10
-793.0703
 20
50.699
 30
0.0
 11
-793.0418
 21
50.699
 31
0.0
  0
LINE
  5
3BC
330
6E9
100
AcDbEntity
  8
Level 10
  6
Continuous
 62
     7
370
    13
100
AcDbLine
 10
-793.1654
 20
51.6899
 30
0.0
 11
-793.0127
 21
51.6899
 31
0.0
  0
LINE
  5
3BD
330
6E9
100
AcDbEntity
  8
Level 10
  6
Continuous
 62
     7
370
    13
100
AcDbLine
 10
-793.1369
 20
51.6515
 30
0.0
 11
-793.1078
 21
51.6515
 31
0.0
  0
LINE
  5
3BE
330
6E9
100
AcDbEntity
  8
Level 10
  6
Continuous
 62
     7
370
    13
100
AcDbLine
 10
-793.0703
 20
51.6515
 30
0.0
 11
-793.0418
 21
51.6515
 31
0.0
  0
LINE
  5
3BF
330
6E9
100
AcDbEntity
  8
Level 10
  6
Continuous
 62
     7
370
    13
100
AcDbLine
 10
-793.1369
 20
51.623
 30
0.0
 11
-793.1078
 21
51.623
 31
0.0
  0
LINE
  5
3C0
330
6E9
100
AcDbEntity
  8
Level 10
  6
Continuous
 62
     7
370
    13
100
AcDbLine
 10
-793.0703
 20
51.623
 30
0.0
 11
-793.0418
 21
51.623
 31
0.0
  0
LINE
  5
3C1
330
6E9
100
AcDbEntity
  8
Level 10
  6
Continuous
 62
     7
370
    13
100
AcDbLine
 10
-793.1129
 20
51.347
 30
0.0
 11
-793.0652
 21
51.347
 31
0.0
  0
LINE
  5
3C2
330
6E9
100
AcDbEntity
  8
Level 10
  6
Continuous
 62
     7
370
    13
100
AcDbLine
 10
-793.1129
 20
51.2705
 30
0.0
 11
-793.0652
 21
51.2705
 31
0.0
  0
LINE
  5
3C3
330
6E9
100
AcDbEntity
  8
Level 10
  6
Continuous
 62
     7
370
    13
100
AcDbLine
 10
-793.1129
 20
51.3851
 30
0.0
 11
-793.1129
 21
51.2705
 31
0.0
  0
LINE
  5
3C4
330
6E9
100
AcDbEntity
  8
Level 10
  6
Continuous
 62
     7
370
    13
100
AcDbLine
 10
-793.0652
 20
51.3851
 30
0.0
 11
-793.0652
 21
51.2705
 31
0.0
  0
LINE
  5
3C5
330
6E9
100
AcDbEntity
  8
Level 10
  6
Continuous
 62
     7
370
    13
100
AcDbLine
 10
-793.1033
 20
51.4949
 30
0.0
 11
-793.0748
 21
51.4949
 31
0.0
  0
LINE
  5
3C6
330
6E9
100
AcDbEntity
  8
Level 10
  6
Continuous
 62
     7
370
    13
100
AcDbLine
 10
-793.1033
 20
51.5711
 30
0.0
 11
-793.0748
 21
51.5711
 31
0.0
  0
LINE
  5
3C7
330
6E9
100
AcDbEntity
  8
Level 10
  6
Continuous
 62
     7
370
    13
100
AcDbLine
 10
-793.0748
 20
51.5711
 30
0.0
 11
-793.0748
 21
51.4949
 31
0.0
  0
LINE
  5
3C8
330
6E9
100
AcDbEntity
  8
Level 10
  6
Continuous
 62
     7
370
    13
100
AcDbLine
 10
-793.1033
 20
51.5711
 30
0.0
 11
-793.1033
 21
51.4949
 31
0.0
  0
LINE
  5
3C9
330
6E9
100
AcDbEntity
  8
Level 10
  6
Continuous
 62
     7
370
    13
100
AcDbLine
 10
-793.1033
 20
51.542
 30
0.0
 11
-793.0748
 21
51.542
 31
0.0
  0
LINE
  5
3CA
330
6E9
100
AcDbEntity
  8
Level 10
  6
Continuous
 62
     7
370
    40
100
AcDbLine
 10
-793.1033
 20
51.5711
 30
0.0
 11
-793.0748
 21
51.542
 31
0.0
  0
LINE
  5
3CB
330
6E9
100
AcDbEntity
  8
Level 10
  6
Continuous
 62
     7
370
    40
100
AcDbLine
 10
-793.0748
 20
51.5711
 30
0.0
 11
-793.1033
 21
51.542
 31
0.0
  0
LINE
  5
3CC
330
6E9
100
AcDbEntity
  8
Level 10
  6
Continuous
 62
     7
370
    13
100
AcDbLine
 10
-793.1654
 20
51.8375
 30
0.0
 11
-793.3178
 21
51.8375
 31
0.0
  0
LINE
  5
3CD
330
6E9
100
AcDbEntity
  8
Level 10
  6
Continuous
 62
     7
370
    13
100
AcDbLine
 10
-793.3178
 20
51.8375
 30
0.0
 11
-793.3178
 21
50.8085
 31
0.0
  0
LINE
  5
3CE
330
6E9
100
AcDbEntity
  8
Level 10
  6
Continuous
 62
     7
370
    13
100
AcDbLine
 10
-793.1654
 20
51.8375
 30
0.0
 11
-793.1654
 21
50.8136
 31
0.0
  0
LINE
  5
3CF
330
6E9
100
AcDbEntity
  8
Level 10
  6
Continuous
 62
     7
370
    13
100
AcDbLine
 10
-793.2608
 20
51.7991
 30
0.0
 11
-793.2608
 21
51.7706
 31
0.0
  0
LINE
  5
3D0
330
6E9
100
AcDbEntity
  8
Level 10
  6
Continuous
 62
     7
370
    13
100
AcDbLine
 10
-793.2608
 20
50.8751
 30
0.0
 11
-793.2608
 21
50.8466
 31
0.0
  0
LINE
  5
3D1
330
6E9
100
AcDbEntity
  8
Level 10
  6
Continuous
 62
     7
370
    13
100
AcDbLine
 10
-793.2224
 20
51.7991
 30
0.0
 11
-793.2224
 21
51.7706
 31
0.0
  0
LINE
  5
3D2
330
6E9
100
AcDbEntity
  8
Level 10
  6
Continuous
 62
     7
370
    13
100
AcDbLine
 10
-793.2224
 20
50.8751
 30
0.0
 11
-793.2224
 21
50.8466
 31
0.0
  0
LINE
  5
3D3
330
6E9
100
AcDbEntity
  8
Level 10
  6
Continuous
 62
     7
370
    13
100
AcDbLine
 10
-793.1939
 20
51.7706
 30
0.0
 11
-793.2224
 21
51.7706
 31
0.0
  0
LINE
  5
3D4
330
6E9
100
AcDbEntity
  8
Level 10
  6
Continuous
 62
     7
370
    13
100
AcDbLine
 10
-793.2608
 20
51.7706
 30
0.0
 11
-793.2893
 21
51.7706
 31
0.0
  0
LINE
  5
3D5
330
6E9
100
AcDbEntity
  8
Level 10
  6
Continuous
 62
     7
370
    13
100
AcDbLine
 10
-793.2893
 20
51.7991
 30
0.0
 11
-793.2893
 21
51.7706
 31
0.0
  0
LINE
  5
3D6
330
6E9
100
AcDbEntity
  8
Level 10
  6
Continuous
 62
     7
370
    13
100
AcDbLine
 10
-793.2893
 20
50.8751
 30
0.0
 11
-793.2893
 21
50.8466
 31
0.0
  0
LINE
  5
3D7
330
6E9
100
AcDbEntity
  8
Level 10
  6
Continuous
 62
     7
370
    13
100
AcDbLine
 10
-793.1939
 20
51.7991
 30
0.0
 11
-793.1939
 21
51.7706
 31
0.0
  0
LINE
  5
3D8
330
6E9
100
AcDbEntity
  8
Level 10
  6
Continuous
 62
     7
370
    13
100
AcDbLine
 10
-793.1939
 20
50.8751
 30
0.0
 11
-793.1939
 21
50.8466
 31
0.0
  0
LINE
  5
3D9
330
6E9
100
AcDbEntity
  8
Level 10
  6
Continuous
 62
     7
370
    13
100
AcDbLine
 10
-793.1939
 20
51.7991
 30
0.0
 11
-793.2224
 21
51.7991
 31
0.0
  0
LINE
  5
3DA
330
6E9
100
AcDbEntity
  8
Level 10
  6
Continuous
 62
     7
370
    13
100
AcDbLine
 10
-793.2608
 20
51.7991
 30
0.0
 11
-793.2893
 21
51.7991
 31
0.0
  0
LINE
  5
3DB
330
6E9
100
AcDbEntity
  8
Level 10
  6
Continuous
 62
     7
370
    13
100
AcDbLine
 10
-793.1654
 20
50.8085
 30
0.0
 11
-793.3178
 21
50.8085
 31
0.0
  0
LINE
  5
3DC
330
6E9
100
AcDbEntity
  8
Level 10
  6
Continuous
 62
     7
370
    13
100
AcDbLine
 10
-793.1939
 20
50.8466
 30
0.0
 11
-793.2224
 21
50.8466
 31
0.0
  0
LINE
  5
3DD
330
6E9
100
AcDbEntity
  8
Level 10
  6
Continuous
 62
     7
370
    13
100
AcDbLine
 10
-793.2608
 20
50.8466
 30
0.0
 11
-793.2893
 21
50.8466
 31
0.0
  0
LINE
  5
3DE
330
6E9
100
AcDbEntity
  8
Level 10
  6
Continuous
 62
     7
370
    13
100
AcDbLine
 10
-793.1939
 20
50.8751
 30
0.0
 11
-793.2224
 21
50.8751
 31
0.0
  0
LINE
  5
3DF
330
6E9
100
AcDbEntity
  8
Level 10
  6
Continuous
 62
     7
370
    13
100
AcDbLine
 10
-793.2608
 20
50.8751
 30
0.0
 11
-793.2893
 21
50.8751
 31
0.0
  0
LINE
  5
3E0
330
6E9
100
AcDbEntity
  8
Level 10
  6
Continuous
 62
     7
370
    13
100
AcDbLine
 10
-793.2179
 20
51.1514
 30
0.0
 11
-793.2653
 21
51.1514
 31
0.0
  0
LINE
  5
3E1
330
6E9
100
AcDbEntity
  8
Level 10
  6
Continuous
 62
     7
370
    13
100
AcDbLine
 10
-793.2179
 20
51.2276
 30
0.0
 11
-793.2653
 21
51.2276
 31
0.0
  0
LINE
  5
3E2
330
6E9
100
AcDbEntity
  8
Level 10
  6
Continuous
 62
     7
370
    13
100
AcDbLine
 10
-793.2179
 20
51.113
 30
0.0
 11
-793.2179
 21
51.2276
 31
0.0
  0
LINE
  5
3E3
330
6E9
100
AcDbEntity
  8
Level 10
  6
Continuous
 62
     7
370
    13
100
AcDbLine
 10
-793.2653
 20
51.113
 30
0.0
 11
-793.2653
 21
51.2276
 31
0.0
  0
LINE
  5
3E4
330
6E9
100
AcDbEntity
  8
Level 10
  6
Continuous
 62
     7
370
    13
100
AcDbLine
 10
-793.2272
 20
51.0035
 30
0.0
 11
-793.2557
 21
51.0035
 31
0.0
  0
LINE
  5
3E5
330
6E9
100
AcDbEntity
  8
Level 10
  6
Continuous
 62
     7
370
    13
100
AcDbLine
 10
-793.2272
 20
50.9276
 30
0.0
 11
-793.2557
 21
50.9276
 31
0.0
  0
LINE
  5
3E6
330
6E9
100
AcDbEntity
  8
Level 10
  6
Continuous
 62
     7
370
    13
100
AcDbLine
 10
-793.2557
 20
50.9276
 30
0.0
 11
-793.2557
 21
51.0035
 31
0.0
  0
LINE
  5
3E7
330
6E9
100
AcDbEntity
  8
Level 10
  6
Continuous
 62
     7
370
    13
100
AcDbLine
 10
-793.2272
 20
50.9276
 30
0.0
 11
-793.2272
 21
51.0035
 31
0.0
  0
LINE
  5
3E8
330
6E9
100
AcDbEntity
  8
Level 10
  6
Continuous
 62
     7
370
    13
100
AcDbLine
 10
-793.2272
 20
50.9561
 30
0.0
 11
-793.2557
 21
50.9561
 31
0.0
  0
LINE
  5
3E9
330
6E9
100
AcDbEntity
  8
Level 10
  6
Continuous
 62
     7
370
    40
100
AcDbLine
 10
-793.2272
 20
50.9276
 30
0.0
 11
-793.2557
 21
50.9561
 31
0.0
  0
LINE
  5
3EA
330
6E9
100
AcDbEntity
  8
Level 10
  6
Continuous
 62
     7
370
    40
100
AcDbLine
 10
-793.2557
 20
50.9276
 30
0.0
 11
-793.2272
 21
50.9561
 31
0.0
  0
LINE
  5
3EB
330
6E9
100
AcDbEntity
  8
Level 10
  6
Continuous
 62
     7
370
    40
100
AcDbLine
 10
-793.0703
 20
51.6515
 30
0.0
 11
-793.0418
 21
51.623
 31
0.0
  0
LINE
  5
3EC
330
6E9
100
AcDbEntity
  8
Level 10
  6
Continuous
 62
     7
370
    40
100
AcDbLine
 10
-793.0418
 20
51.6515
 30
0.0
 11
-793.0703
 21
51.623
 31
0.0
  0
LINE
  5
3ED
330
6E9
100
AcDbEntity
  8
Level 10
  6
Continuous
 62
     7
370
    40
100
AcDbLine
 10
-793.1369
 20
50.7281
 30
0.0
 11
-793.1078
 21
50.699
 31
0.0
  0
LINE
  5
3EE
330
6E9
100
AcDbEntity
  8
Level 10
  6
Continuous
 62
     7
370
    40
100
AcDbLine
 10
-793.1078
 20
50.7281
 30
0.0
 11
-793.1369
 21
50.699
 31
0.0
  0
LINE
  5
3EF
330
6E9
100
AcDbEntity
  8
Level 10
  6
Continuous
 62
     7
370
    40
100
AcDbLine
 10
-793.2893
 20
50.8466
 30
0.0
 11
-793.2608
 21
50.8751
 31
0.0
  0
LINE
  5
3F0
330
6E9
100
AcDbEntity
  8
Level 10
  6
Continuous
 62
     7
370
    40
100
AcDbLine
 10
-793.2893
 20
50.8751
 30
0.0
 11
-793.2608
 21
50.8466
 31
0.0
  0
LINE
  5
3F1
330
6E9
100
AcDbEntity
  8
Level 10
  6
Continuous
 62
     7
370
    40
100
AcDbLine
 10
-793.2224
 20
51.7991
 30
0.0
 11
-793.1939
 21
51.7706
 31
0.0
  0
LINE
  5
3F2
330
6E9
100
AcDbEntity
  8
Level 10
  6
Continuous
 62
     7
370
    40
100
AcDbLine
 10
-793.1939
 20
51.7991
 30
0.0
 11
-793.2224
 21
51.7706
 31
0.0
  0
LINE
  5
3F5
330
6E9
100
AcDbEntity
  8
Level 10
  6
Continuous
 62
     7
370
    13
100
AcDbLine
 10
-794.1322
 20
53.8154
 30
0.0
 11
-794.1322
 21
53.1674
 31
0.0
  0
LINE
  5
3F6
330
6E9
100
AcDbEntity
  8
Level 10
  6
Continuous
 62
     7
370
    13
100
AcDbLine
 10
-793.8274
 20
53.8154
 30
0.0
 11
-793.8274
 21
53.1674
 31
0.0
  0
LINE
  5
3F7
330
6E9
100
AcDbEntity
  8
Level 10
  6
Continuous
 62
     7
370
    13
100
AcDbLine
 10
-793.8844
 20
53.6975
 30
0.0
 11
-793.9132
 21
53.6975
 31
0.0
  0
LINE
  5
3F8
330
6E9
100
AcDbEntity
  8
Level 10
  6
Continuous
 62
     7
370
    13
100
AcDbLine
 10
-794.0464
 20
53.6975
 30
0.0
 11
-794.0749
 21
53.6975
 31
0.0
  0
LINE
  5
3F9
330
6E9
100
AcDbEntity
  8
Level 10
  6
Continuous
 62
     7
370
    13
100
AcDbLine
 10
-793.9132
 20
53.6975
 30
0.0
 11
-793.9132
 21
53.666
 31
0.0
  0
LINE
  5
3FA
330
6E9
100
AcDbEntity
  8
Level 10
  6
Continuous
 62
     7
370
    13
100
AcDbLine
 10
-793.9132
 20
53.2844
 30
0.0
 11
-793.9132
 21
53.2535
 31
0.0
  0
LINE
  5
3FB
330
6E9
100
AcDbEntity
  8
Level 10
  6
Continuous
 62
     7
370
    13
100
AcDbLine
 10
-793.8844
 20
53.6975
 30
0.0
 11
-793.8844
 21
53.666
 31
0.0
  0
LINE
  5
3FC
330
6E9
100
AcDbEntity
  8
Level 10
  6
Continuous
 62
     7
370
    13
100
AcDbLine
 10
-793.8844
 20
53.2844
 30
0.0
 11
-793.8844
 21
53.2535
 31
0.0
  0
LINE
  5
3FD
330
6E9
100
AcDbEntity
  8
Level 10
  6
Continuous
 62
     7
370
    13
100
AcDbLine
 10
-794.0464
 20
53.6975
 30
0.0
 11
-794.0464
 21
53.666
 31
0.0
  0
LINE
  5
3FE
330
6E9
100
AcDbEntity
  8
Level 10
  6
Continuous
 62
     7
370
    13
100
AcDbLine
 10
-794.0464
 20
53.2844
 30
0.0
 11
-794.0464
 21
53.2535
 31
0.0
  0
LINE
  5
3FF
330
6E9
100
AcDbEntity
  8
Level 10
  6
Continuous
 62
     7
370
    13
100
AcDbLine
 10
-794.0749
 20
53.6975
 30
0.0
 11
-794.0749
 21
53.666
 31
0.0
  0
LINE
  5
400
330
6E9
100
AcDbEntity
  8
Level 10
  6
Continuous
 62
     7
370
    13
100
AcDbLine
 10
-794.0749
 20
53.2844
 30
0.0
 11
-794.0749
 21
53.2535
 31
0.0
  0
LINE
  5
401
330
6E9
100
AcDbEntity
  8
Level 10
  6
Continuous
 62
     7
370
    13
100
AcDbLine
 10
-793.8844
 20
53.666
 30
0.0
 11
-793.9132
 21
53.666
 31
0.0
  0
LINE
  5
402
330
6E9
100
AcDbEntity
  8
Level 10
  6
Continuous
 62
     7
370
    13
100
AcDbLine
 10
-794.0464
 20
53.666
 30
0.0
 11
-794.0749
 21
53.666
 31
0.0
  0
LINE
  5
403
330
6E9
100
AcDbEntity
  8
Level 10
  6
Continuous
 62
     7
370
    13
100
AcDbLine
 10
-794.0464
 20
53.2844
 30
0.0
 11
-794.0749
 21
53.2844
 31
0.0
  0
LINE
  5
404
330
6E9
100
AcDbEntity
  8
Level 10
  6
Continuous
 62
     7
370
    13
100
AcDbLine
 10
-793.8844
 20
53.2844
 30
0.0
 11
-793.9132
 21
53.2844
 31
0.0
  0
LINE
  5
405
330
6E9
100
AcDbEntity
  8
Level 10
  6
Continuous
 62
     7
370
    13
100
AcDbLine
 10
-794.0464
 20
53.2535
 30
0.0
 11
-794.0749
 21
53.2535
 31
0.0
  0
LINE
  5
406
330
6E9
100
AcDbEntity
  8
Level 10
  6
Continuous
 62
     7
370
    13
100
AcDbLine
 10
-793.8844
 20
53.2535
 30
0.0
 11
-793.9132
 21
53.2535
 31
0.0
  0
LINE
  5
407
330
6E9
100
AcDbEntity
  8
Level 10
  6
Continuous
 62
     7
370
    13
100
AcDbLine
 10
-793.8274
 20
53.282
 30
0.0
 11
-793.8844
 21
53.282
 31
0.0
  0
LINE
  5
408
330
6E9
100
AcDbEntity
  8
Level 10
  6
Continuous
 62
     7
370
    13
100
AcDbLine
 10
-793.9132
 20
53.282
 30
0.0
 11
-794.0464
 21
53.282
 31
0.0
  0
LINE
  5
409
330
6E9
100
AcDbEntity
  8
Level 10
  6
Continuous
 62
     7
370
    13
100
AcDbLine
 10
-794.0749
 20
53.282
 30
0.0
 11
-794.1322
 21
53.282
 31
0.0
  0
LINE
  5
40A
330
6E9
100
AcDbEntity
  8
Level 10
  6
Continuous
 62
     7
370
    13
100
AcDbLine
 10
-793.8274
 20
53.1674
 30
0.0
 11
-794.1322
 21
53.1674
 31
0.0
  0
LINE
  5
40B
330
6E9
100
AcDbEntity
  8
Level 10
  6
Continuous
 62
     7
370
    13
100
AcDbLine
 10
-793.9654
 20
53.2151
 30
0.0
 11
-793.9942
 21
53.2151
 31
0.0
  0
LINE
  5
40C
330
6E9
100
AcDbEntity
  8
Level 10
  6
Continuous
 62
     7
370
    13
100
AcDbLine
 10
-793.9654
 20
53.2439
 30
0.0
 11
-793.9942
 21
53.2439
 31
0.0
  0
LINE
  5
40D
330
6E9
100
AcDbEntity
  8
Level 10
  6
Continuous
 62
     7
370
    13
100
AcDbLine
 10
-793.9654
 20
53.7674
 30
0.0
 11
-793.9654
 21
53.7389
 31
0.0
  0
LINE
  5
40E
330
6E9
100
AcDbEntity
  8
Level 10
  6
Continuous
 62
     7
370
    13
100
AcDbLine
 10
-793.9654
 20
53.2439
 30
0.0
 11
-793.9654
 21
53.2151
 31
0.0
  0
LINE
  5
40F
330
6E9
100
AcDbEntity
  8
Level 10
  6
Continuous
 62
     7
370
    13
100
AcDbLine
 10
-793.9942
 20
53.7674
 30
0.0
 11
-793.9942
 21
53.7389
 31
0.0
  0
LINE
  5
410
330
6E9
100
AcDbEntity
  8
Level 10
  6
Continuous
 62
     7
370
    13
100
AcDbLine
 10
-793.9942
 20
53.2439
 30
0.0
 11
-793.9942
 21
53.2151
 31
0.0
  0
LINE
  5
411
330
6E9
100
AcDbEntity
  8
Level 10
  6
Continuous
 62
     7
370
    13
100
AcDbLine
 10
-793.8274
 20
53.8154
 30
0.0
 11
-794.1322
 21
53.8154
 31
0.0
  0
LINE
  5
412
330
6E9
100
AcDbEntity
  8
Level 10
  6
Continuous
 62
     7
370
    13
100
AcDbLine
 10
-793.9654
 20
53.7674
 30
0.0
 11
-793.9942
 21
53.7674
 31
0.0
  0
LINE
  5
413
330
6E9
100
AcDbEntity
  8
Level 10
  6
Continuous
 62
     7
370
    13
100
AcDbLine
 10
-793.9654
 20
53.7389
 30
0.0
 11
-793.9942
 21
53.7389
 31
0.0
  0
LINE
  5
414
330
6E9
100
AcDbEntity
  8
Level 10
  6
Continuous
 62
     7
370
    13
100
AcDbLine
 10
-793.9654
 20
53.4614
 30
0.0
 11
-793.9942
 21
53.4614
 31
0.0
  0
LINE
  5
415
330
6E9
100
AcDbEntity
  8
Level 10
  6
Continuous
 62
     7
370
    13
100
AcDbLine
 10
-793.9654
 20
53.4305
 30
0.0
 11
-793.9942
 21
53.4305
 31
0.0
  0
LINE
  5
416
330
6E9
100
AcDbEntity
  8
Level 10
  6
Continuous
 62
     7
370
    13
100
AcDbLine
 10
-793.9942
 20
53.4614
 30
0.0
 11
-793.9942
 21
53.4305
 31
0.0
  0
LINE
  5
417
330
6E9
100
AcDbEntity
  8
Level 10
  6
Continuous
 62
     7
370
    13
100
AcDbLine
 10
-793.9654
 20
53.4614
 30
0.0
 11
-793.9654
 21
53.4305
 31
0.0
  0
LINE
  5
418
330
6E9
100
AcDbEntity
  8
Level 10
  6
Continuous
 62
     7
370
    40
100
AcDbLine
 10
-794.0464
 20
53.6975
 30
0.0
 11
-794.0749
 21
53.666
 31
0.0
  0
LINE
  5
419
330
6E9
100
AcDbEntity
  8
Level 10
  6
Continuous
 62
     7
370
    40
100
AcDbLine
 10
-794.0749
 20
53.6975
 30
0.0
 11
-794.0464
 21
53.666
 31
0.0
  0
LINE
  5
41A
330
6E9
100
AcDbEntity
  8
Level 10
  6
Continuous
 62
     7
370
    40
100
AcDbLine
 10
-793.9132
 20
53.6975
 30
0.0
 11
-793.8844
 21
53.666
 31
0.0
  0
LINE
  5
41B
330
6E9
100
AcDbEntity
  8
Level 10
  6
Continuous
 62
     7
370
    40
100
AcDbLine
 10
-793.8844
 20
53.6975
 30
0.0
 11
-793.9132
 21
53.666
 31
0.0
  0
LINE
  5
41C
330
6E9
100
AcDbEntity
  8
Level 10
  6
Continuous
 62
     7
370
    40
100
AcDbLine
 10
-794.0749
 20
53.2844
 30
0.0
 11
-794.0464
 21
53.2535
 31
0.0
  0
LINE
  5
41D
330
6E9
100
AcDbEntity
  8
Level 10
  6
Continuous
 62
     7
370
    40
100
AcDbLine
 10
-794.0464
 20
53.2844
 30
0.0
 11
-794.0749
 21
53.2535
 31
0.0
  0
LINE
  5
41E
330
6E9
100
AcDbEntity
  8
Level 10
  6
Continuous
 62
     7
370
    40
100
AcDbLine
 10
-793.9132
 20
53.2844
 30
0.0
 11
-793.8844
 21
53.2535
 31
0.0
  0
LINE
  5
41F
330
6E9
100
AcDbEntity
  8
Level 10
  6
Continuous
 62
     7
370
    40
100
AcDbLine
 10
-793.8844
 20
53.2844
 30
0.0
 11
-793.9132
 21
53.2535
 31
0.0
  0
LINE
  5
426
330
6E9
100
AcDbEntity
  8
Level 10
  6
Continuous
 62
     7
370
    13
100
AcDbLine
 10
-798.1211
 20
49.9094
 30
0.0
 11
-798.0926
 21
49.9094
 31
0.0
  0
LINE
  5
427
330
6E9
100
AcDbEntity
  8
Level 10
  6
Continuous
 62
     7
370
    13
100
AcDbLine
 10
-798.1211
 20
49.8809
 30
0.0
 11
-798.0926
 21
49.8809
 31
0.0
  0
LINE
  5
428
330
6E9
100
AcDbEntity
  8
Level 10
  6
Continuous
 62
     7
370
    13
100
AcDbLine
 10
-798.0926
 20
49.8809
 30
0.0
 11
-798.0926
 21
49.9094
 31
0.0
  0
LINE
  5
429
330
6E9
100
AcDbEntity
  8
Level 10
  6
Continuous
 62
     7
370
    13
100
AcDbLine
 10
-798.1211
 20
49.8809
 30
0.0
 11
-798.1211
 21
49.9094
 31
0.0
  0
LINE
  5
42A
330
6E9
100
AcDbEntity
  8
Level 10
  6
Continuous
 62
     7
370
    40
100
AcDbLine
 10
-798.1211
 20
49.9094
 30
0.0
 11
-798.0926
 21
49.8809
 31
0.0
  0
LINE
  5
42B
330
6E9
100
AcDbEntity
  8
Level 10
  6
Continuous
 62
     7
370
    40
100
AcDbLine
 10
-798.0926
 20
49.9094
 30
0.0
 11
-798.1211
 21
49.8809
 31
0.0
  0
LINE
  5
42F
330
6E9
100
AcDbEntity
  8
Level 47
  6
Continuous
 62
     7
370
    53
100
AcDbLine
 10
-796.742689
 20
49.6477
 30
0.0
 11
-795.112959
 21
49.6477
 31
0.0
  0
LINE
  5
433
330
6E9
100
AcDbEntity
  8
Level 10
  6
Continuous
 62
     7
370
    13
100
AcDbLine
 10
-793.1654
 20
52.8101
 30
0.0
 11
-793.0127
 21
52.8101
 31
0.0
  0
LINE
  5
434
330
6E9
100
AcDbEntity
  8
Level 10
  6
Continuous
 62
     7
370
    13
100
AcDbLine
 10
-793.0127
 20
52.8101
 30
0.0
 11
-793.0127
 21
53.8385
 31
0.0
  0
LINE
  5
435
330
6E9
100
AcDbEntity
  8
Level 10
  6
Continuous
 62
     7
370
    13
100
AcDbLine
 10
-793.1654
 20
52.8101
 30
0.0
 11
-793.1654
 21
53.8334
 31
0.0
  0
LINE
  5
436
330
6E9
100
AcDbEntity
  8
Level 10
  6
Continuous
 62
     7
370
    13
100
AcDbLine
 10
-793.0703
 20
52.8479
 30
0.0
 11
-793.0703
 21
52.877
 31
0.0
  0
LINE
  5
437
330
6E9
100
AcDbEntity
  8
Level 10
  6
Continuous
 62
     7
370
    13
100
AcDbLine
 10
-793.0703
 20
53.7719
 30
0.0
 11
-793.0703
 21
53.8004
 31
0.0
  0
LINE
  5
438
330
6E9
100
AcDbEntity
  8
Level 10
  6
Continuous
 62
     7
370
    13
100
AcDbLine
 10
-793.1078
 20
52.8479
 30
0.0
 11
-793.1078
 21
52.877
 31
0.0
  0
LINE
  5
439
330
6E9
100
AcDbEntity
  8
Level 10
  6
Continuous
 62
     7
370
    13
100
AcDbLine
 10
-793.1078
 20
53.7719
 30
0.0
 11
-793.1078
 21
53.8004
 31
0.0
  0
LINE
  5
43A
330
6E9
100
AcDbEntity
  8
Level 10
  6
Continuous
 62
     7
370
    13
100
AcDbLine
 10
-793.1369
 20
52.877
 30
0.0
 11
-793.1078
 21
52.877
 31
0.0
  0
LINE
  5
43B
330
6E9
100
AcDbEntity
  8
Level 10
  6
Continuous
 62
     7
370
    13
100
AcDbLine
 10
-793.0703
 20
52.877
 30
0.0
 11
-793.0418
 21
52.877
 31
0.0
  0
LINE
  5
43C
330
6E9
100
AcDbEntity
  8
Level 10
  6
Continuous
 62
     7
370
    13
100
AcDbLine
 10
-793.0418
 20
52.8479
 30
0.0
 11
-793.0418
 21
52.877
 31
0.0
  0
LINE
  5
43D
330
6E9
100
AcDbEntity
  8
Level 10
  6
Continuous
 62
     7
370
    13
100
AcDbLine
 10
-793.0418
 20
53.7719
 30
0.0
 11
-793.0418
 21
53.8004
 31
0.0
  0
LINE
  5
43E
330
6E9
100
AcDbEntity
  8
Level 10
  6
Continuous
 62
     7
370
    13
100
AcDbLine
 10
-793.1369
 20
52.8479
 30
0.0
 11
-793.1369
 21
52.877
 31
0.0
  0
LINE
  5
43F
330
6E9
100
AcDbEntity
  8
Level 10
  6
Continuous
 62
     7
370
    13
100
AcDbLine
 10
-793.1369
 20
53.7719
 30
0.0
 11
-793.1369
 21
53.8004
 31
0.0
  0
LINE
  5
440
330
6E9
100
AcDbEntity
  8
Level 10
  6
Continuous
 62
     7
370
    13
100
AcDbLine
 10
-793.1369
 20
52.8479
 30
0.0
 11
-793.1078
 21
52.8479
 31
0.0
  0
LINE
  5
441
330
6E9
100
AcDbEntity
  8
Level 10
  6
Continuous
 62
     7
370
    13
100
AcDbLine
 10
-793.0703
 20
52.8479
 30
0.0
 11
-793.0418
 21
52.8479
 31
0.0
  0
LINE
  5
442
330
6E9
100
AcDbEntity
  8
Level 10
  6
Continuous
 62
     7
370
    13
100
AcDbLine
 10
-793.1654
 20
53.8385
 30
0.0
 11
-793.0127
 21
53.8385
 31
0.0
  0
LINE
  5
443
330
6E9
100
AcDbEntity
  8
Level 10
  6
Continuous
 62
     7
370
    13
100
AcDbLine
 10
-793.1369
 20
53.8004
 30
0.0
 11
-793.1078
 21
53.8004
 31
0.0
  0
LINE
  5
444
330
6E9
100
AcDbEntity
  8
Level 10
  6
Continuous
 62
     7
370
    13
100
AcDbLine
 10
-793.0703
 20
53.8004
 30
0.0
 11
-793.0418
 21
53.8004
 31
0.0
  0
LINE
  5
445
330
6E9
100
AcDbEntity
  8
Level 10
  6
Continuous
 62
     7
370
    13
100
AcDbLine
 10
-793.1369
 20
53.7719
 30
0.0
 11
-793.1078
 21
53.7719
 31
0.0
  0
LINE
  5
446
330
6E9
100
AcDbEntity
  8
Level 10
  6
Continuous
 62
     7
370
    13
100
AcDbLine
 10
-793.0703
 20
53.7719
 30
0.0
 11
-793.0418
 21
53.7719
 31
0.0
  0
LINE
  5
447
330
6E9
100
AcDbEntity
  8
Level 10
  6
Continuous
 62
     7
370
    13
100
AcDbLine
 10
-793.1129
 20
53.7245
 30
0.0
 11
-793.1129
 21
53.6099
 31
0.0
  0
LINE
  5
448
330
6E9
100
AcDbEntity
  8
Level 10
  6
Continuous
 62
     7
370
    13
100
AcDbLine
 10
-793.0652
 20
53.7245
 30
0.0
 11
-793.0652
 21
53.6099
 31
0.0
  0
LINE
  5
449
330
6E9
100
AcDbEntity
  8
Level 10
  6
Continuous
 62
     7
370
    13
100
AcDbLine
 10
-793.1033
 20
53.4245
 30
0.0
 11
-793.0748
 21
53.4245
 31
0.0
  0
LINE
  5
44A
330
6E9
100
AcDbEntity
  8
Level 10
  6
Continuous
 62
     7
370
    13
100
AcDbLine
 10
-793.1033
 20
53.5004
 30
0.0
 11
-793.0748
 21
53.5004
 31
0.0
  0
LINE
  5
44B
330
6E9
100
AcDbEntity
  8
Level 10
  6
Continuous
 62
     7
370
    13
100
AcDbLine
 10
-793.0748
 20
53.5004
 30
0.0
 11
-793.0748
 21
53.4245
 31
0.0
  0
LINE
  5
44C
330
6E9
100
AcDbEntity
  8
Level 10
  6
Continuous
 62
     7
370
    13
100
AcDbLine
 10
-793.1033
 20
53.5004
 30
0.0
 11
-793.1033
 21
53.4245
 31
0.0
  0
LINE
  5
44D
330
6E9
100
AcDbEntity
  8
Level 10
  6
Continuous
 62
     7
370
    40
100
AcDbLine
 10
-793.1033
 20
53.453
 30
0.0
 11
-793.0748
 21
53.4245
 31
0.0
  0
LINE
  5
44E
330
6E9
100
AcDbEntity
  8
Level 10
  6
Continuous
 62
     7
370
    40
100
AcDbLine
 10
-793.0748
 20
53.453
 30
0.0
 11
-793.1033
 21
53.4245
 31
0.0
  0
LINE
  5
44F
330
6E9
100
AcDbEntity
  8
Level 10
  6
Continuous
 62
     7
370
    13
100
AcDbLine
 10
-793.1654
 20
53.9861
 30
0.0
 11
-793.1654
 21
52.9625
 31
0.0
  0
LINE
  5
450
330
6E9
100
AcDbEntity
  8
Level 10
  6
Continuous
 62
     7
370
    40
100
AcDbLine
 10
-793.0703
 20
53.8004
 30
0.0
 11
-793.0418
 21
53.7719
 31
0.0
  0
LINE
  5
451
330
6E9
100
AcDbEntity
  8
Level 10
  6
Continuous
 62
     7
370
    40
100
AcDbLine
 10
-793.0418
 20
53.8004
 30
0.0
 11
-793.0703
 21
53.7719
 31
0.0
  0
LINE
  5
452
330
6E9
100
AcDbEntity
  8
Level 10
  6
Continuous
 62
     7
370
    40
100
AcDbLine
 10
-793.1369
 20
52.877
 30
0.0
 11
-793.1078
 21
52.8479
 31
0.0
  0
LINE
  5
453
330
6E9
100
AcDbEntity
  8
Level 10
  6
Continuous
 62
     7
370
    40
100
AcDbLine
 10
-793.1078
 20
52.877
 30
0.0
 11
-793.1369
 21
52.8479
 31
0.0
  0
LINE
  5
454
330
6E9
100
AcDbEntity
  8
Level 10
  6
Continuous
 62
     7
370
    13
100
AcDbLine
 10
-793.2179
 20
51.113
 30
0.0
 11
-793.2653
 21
51.113
 31
0.0
  0
LINE
  5
455
330
6E9
100
AcDbEntity
  8
Level 10
  6
Continuous
 62
     7
370
    13
100
AcDbLine
 10
-793.1129
 20
51.3851
 30
0.0
 11
-793.0652
 21
51.3851
 31
0.0
  0
LINE
  5
456
330
6E9
100
AcDbEntity
  8
Level 10
  6
Continuous
 62
     7
370
    13
100
AcDbLine
 10
-793.0652
 20
53.7245
 30
0.0
 11
-793.1129
 21
53.7245
 31
0.0
  0
LINE
  5
457
330
6E9
100
AcDbEntity
  8
Level 10
  6
Continuous
 62
     7
370
    13
100
AcDbLine
 10
-793.0652
 20
53.648
 30
0.0
 11
-793.1129
 21
53.648
 31
0.0
  0
LINE
  5
458
330
6E9
100
AcDbEntity
  8
Level 10
  6
Continuous
 62
     7
370
    13
100
AcDbLine
 10
-793.0652
 20
53.6099
 30
0.0
 11
-793.1129
 21
53.6099
 31
0.0
  0
LINE
  5
459
330
6E9
100
AcDbEntity
  8
Level 10
  6
Continuous
 62
     7
370
    13
100
AcDbLine
 10
-793.1033
 20
53.453
 30
0.0
 11
-793.0748
 21
53.453
 31
0.0
  0
LINE
  5
45A
330
6E9
100
AcDbEntity
  8
Level 10
  6
Continuous
 62
     7
370
    13
100
AcDbLine
 10
-793.1654
 20
53.9861
 30
0.0
 11
-793.3178
 21
53.9861
 31
0.0
  0
LINE
  5
45B
330
6E9
100
AcDbEntity
  8
Level 10
  6
Continuous
 62
     7
370
    13
100
AcDbLine
 10
-793.3178
 20
53.9861
 30
0.0
 11
-793.3178
 21
52.9574
 31
0.0
  0
LINE
  5
45C
330
6E9
100
AcDbEntity
  8
Level 10
  6
Continuous
 62
     7
370
    13
100
AcDbLine
 10
-793.1654
 20
53.9861
 30
0.0
 11
-793.1654
 21
52.9625
 31
0.0
  0
LINE
  5
45D
330
6E9
100
AcDbEntity
  8
Level 10
  6
Continuous
 62
     7
370
    13
100
AcDbLine
 10
-793.2608
 20
53.948
 30
0.0
 11
-793.2608
 21
53.9195
 31
0.0
  0
LINE
  5
45E
330
6E9
100
AcDbEntity
  8
Level 10
  6
Continuous
 62
     7
370
    13
100
AcDbLine
 10
-793.2608
 20
53.024
 30
0.0
 11
-793.2608
 21
52.9955
 31
0.0
  0
LINE
  5
45F
330
6E9
100
AcDbEntity
  8
Level 10
  6
Continuous
 62
     7
370
    13
100
AcDbLine
 10
-793.2224
 20
53.948
 30
0.0
 11
-793.2224
 21
53.9195
 31
0.0
  0
LINE
  5
460
330
6E9
100
AcDbEntity
  8
Level 10
  6
Continuous
 62
     7
370
    13
100
AcDbLine
 10
-793.2224
 20
53.024
 30
0.0
 11
-793.2224
 21
52.9955
 31
0.0
  0
LINE
  5
461
330
6E9
100
AcDbEntity
  8
Level 10
  6
Continuous
 62
     7
370
    13
100
AcDbLine
 10
-793.1939
 20
53.9195
 30
0.0
 11
-793.2224
 21
53.9195
 31
0.0
  0
LINE
  5
462
330
6E9
100
AcDbEntity
  8
Level 10
  6
Continuous
 62
     7
370
    13
100
AcDbLine
 10
-793.2608
 20
53.9195
 30
0.0
 11
-793.2893
 21
53.9195
 31
0.0
  0
LINE
  5
463
330
6E9
100
AcDbEntity
  8
Level 10
  6
Continuous
 62
     7
370
    13
100
AcDbLine
 10
-793.2893
 20
53.948
 30
0.0
 11
-793.2893
 21
53.9195
 31
0.0
  0
LINE
  5
464
330
6E9
100
AcDbEntity
  8
Level 10
  6
Continuous
 62
     7
370
    13
100
AcDbLine
 10
-793.2893
 20
53.024
 30
0.0
 11
-793.2893
 21
52.9955
 31
0.0
  0
LINE
  5
465
330
6E9
100
AcDbEntity
  8
Level 10
  6
Continuous
 62
     7
370
    13
100
AcDbLine
 10
-793.1939
 20
53.948
 30
0.0
 11
-793.1939
 21
53.9195
 31
0.0
  0
LINE
  5
466
330
6E9
100
AcDbEntity
  8
Level 10
  6
Continuous
 62
     7
370
    13
100
AcDbLine
 10
-793.1939
 20
53.024
 30
0.0
 11
-793.1939
 21
52.9955
 31
0.0
  0
LINE
  5
467
330
6E9
100
AcDbEntity
  8
Level 10
  6
Continuous
 62
     7
370
    13
100
AcDbLine
 10
-793.1939
 20
53.948
 30
0.0
 11
-793.2224
 21
53.948
 31
0.0
  0
LINE
  5
468
330
6E9
100
AcDbEntity
  8
Level 10
  6
Continuous
 62
     7
370
    13
100
AcDbLine
 10
-793.2608
 20
53.948
 30
0.0
 11
-793.2893
 21
53.948
 31
0.0
  0
LINE
  5
469
330
6E9
100
AcDbEntity
  8
Level 10
  6
Continuous
 62
     7
370
    13
100
AcDbLine
 10
-793.1654
 20
52.9574
 30
0.0
 11
-793.3178
 21
52.9574
 31
0.0
  0
LINE
  5
46A
330
6E9
100
AcDbEntity
  8
Level 10
  6
Continuous
 62
     7
370
    13
100
AcDbLine
 10
-793.1939
 20
52.9955
 30
0.0
 11
-793.2224
 21
52.9955
 31
0.0
  0
LINE
  5
46B
330
6E9
100
AcDbEntity
  8
Level 10
  6
Continuous
 62
     7
370
    13
100
AcDbLine
 10
-793.2608
 20
52.9955
 30
0.0
 11
-793.2893
 21
52.9955
 31
0.0
  0
LINE
  5
46C
330
6E9
100
AcDbEntity
  8
Level 10
  6
Continuous
 62
     7
370
    13
100
AcDbLine
 10
-793.1939
 20
53.024
 30
0.0
 11
-793.2224
 21
53.024
 31
0.0
  0
LINE
  5
46D
330
6E9
100
AcDbEntity
  8
Level 10
  6
Continuous
 62
     7
370
    13
100
AcDbLine
 10
-793.2608
 20
53.024
 30
0.0
 11
-793.2893
 21
53.024
 31
0.0
  0
LINE
  5
46E
330
6E9
100
AcDbEntity
  8
Level 10
  6
Continuous
 62
     7
370
    13
100
AcDbLine
 10
-793.2179
 20
53.0714
 30
0.0
 11
-793.2179
 21
53.186
 31
0.0
  0
LINE
  5
46F
330
6E9
100
AcDbEntity
  8
Level 10
  6
Continuous
 62
     7
370
    13
100
AcDbLine
 10
-793.2653
 20
53.0714
 30
0.0
 11
-793.2653
 21
53.186
 31
0.0
  0
LINE
  5
470
330
6E9
100
AcDbEntity
  8
Level 10
  6
Continuous
 62
     7
370
    13
100
AcDbLine
 10
-793.2272
 20
53.3714
 30
0.0
 11
-793.2557
 21
53.3714
 31
0.0
  0
LINE
  5
471
330
6E9
100
AcDbEntity
  8
Level 10
  6
Continuous
 62
     7
370
    13
100
AcDbLine
 10
-793.2272
 20
53.2955
 30
0.0
 11
-793.2557
 21
53.2955
 31
0.0
  0
LINE
  5
472
330
6E9
100
AcDbEntity
  8
Level 10
  6
Continuous
 62
     7
370
    13
100
AcDbLine
 10
-793.2557
 20
53.2955
 30
0.0
 11
-793.2557
 21
53.3714
 31
0.0
  0
LINE
  5
473
330
6E9
100
AcDbEntity
  8
Level 10
  6
Continuous
 62
     7
370
    13
100
AcDbLine
 10
-793.2272
 20
53.2955
 30
0.0
 11
-793.2272
 21
53.3714
 31
0.0
  0
LINE
  5
474
330
6E9
100
AcDbEntity
  8
Level 10
  6
Continuous
 62
     7
370
    40
100
AcDbLine
 10
-793.2272
 20
53.3429
 30
0.0
 11
-793.2557
 21
53.3714
 31
0.0
  0
LINE
  5
475
330
6E9
100
AcDbEntity
  8
Level 10
  6
Continuous
 62
     7
370
    40
100
AcDbLine
 10
-793.2557
 20
53.3429
 30
0.0
 11
-793.2272
 21
53.3714
 31
0.0
  0
LINE
  5
476
330
6E9
100
AcDbEntity
  8
Level 10
  6
Continuous
 62
     7
370
    40
100
AcDbLine
 10
-793.2608
 20
52.9955
 30
0.0
 11
-793.2893
 21
53.024
 31
0.0
  0
LINE
  5
477
330
6E9
100
AcDbEntity
  8
Level 10
  6
Continuous
 62
     7
370
    40
100
AcDbLine
 10
-793.2893
 20
52.9955
 30
0.0
 11
-793.2608
 21
53.024
 31
0.0
  0
LINE
  5
478
330
6E9
100
AcDbEntity
  8
Level 10
  6
Continuous
 62
     7
370
    40
100
AcDbLine
 10
-793.1939
 20
53.9195
 30
0.0
 11
-793.2224
 21
53.948
 31
0.0
  0
LINE
  5
479
330
6E9
100
AcDbEntity
  8
Level 10
  6
Continuous
 62
     7
370
    40
100
AcDbLine
 10
-793.2224
 20
53.9195
 30
0.0
 11
-793.1939
 21
53.948
 31
0.0
  0
LINE
  5
47A
330
6E9
100
AcDbEntity
  8
Level 10
  6
Continuous
 62
     7
370
    13
100
AcDbLine
 10
-793.2653
 20
53.0714
 30
0.0
 11
-793.2179
 21
53.0714
 31
0.0
  0
LINE
  5
47B
330
6E9
100
AcDbEntity
  8
Level 10
  6
Continuous
 62
     7
370
    13
100
AcDbLine
 10
-793.2653
 20
53.1479
 30
0.0
 11
-793.2179
 21
53.1479
 31
0.0
  0
LINE
  5
47C
330
6E9
100
AcDbEntity
  8
Level 10
  6
Continuous
 62
     7
370
    13
100
AcDbLine
 10
-793.2653
 20
53.186
 30
0.0
 11
-793.2179
 21
53.186
 31
0.0
  0
LINE
  5
47D
330
6E9
100
AcDbEntity
  8
Level 10
  6
Continuous
 62
     7
370
    13
100
AcDbLine
 10
-793.2272
 20
53.3429
 30
0.0
 11
-793.2557
 21
53.3429
 31
0.0
  0
LINE
  5
47E
330
6E9
100
AcDbEntity
  8
Level 10
  6
Continuous
 62
     7
370
    40
100
AcDbLine
 10
-794.7534
 20
50.9516
 30
0.0
 11
-794.781
 21
50.9264
 31
0.0
  0
LINE
  5
47F
330
6E9
100
AcDbEntity
  8
Level 10
  6
Continuous
 62
     7
370
    40
100
AcDbLine
 10
-794.7798
 20
50.9525
 30
0.0
 11
-794.7549
 21
50.9255
 31
0.0
  0
LINE
  5
480
330
6E9
100
AcDbEntity
  8
Level 10
  6
Continuous
 62
     7
370
    40
100
AcDbLine
 10
-798.0836
 20
51.122
 30
0.0
 11
-798.0575
 21
51.0959
 31
0.0
  0
LINE
  5
481
330
6E9
100
AcDbEntity
  8
Level 10
  6
Continuous
 62
     7
370
    40
100
AcDbLine
 10
-798.0575
 20
51.122
 30
0.0
 11
-798.0836
 21
51.0959
 31
0.0
  0
LINE
  5
483
330
6E9
100
AcDbEntity
  8
Level 1
  6
Continuous
 62
     7
370
   106
100
AcDbLine
 10
-783.0471
 20
55.317
 30
0.0
 11
-783.0471
 21
55.197
 31
0.0
  0
LINE
  5
484
330
6E9
100
AcDbEntity
  8
Level 1
  6
Continuous
 62
     7
370
   106
100
AcDbLine
 10
-783.0471
 20
55.197
 30
0.0
 11
-783.0471
 21
43.797
 31
0.0
  0
LINE
  5
485
330
6E9
100
AcDbEntity
  8
Level 1
  6
Continuous
 62
     7
370
   106
100
AcDbLine
 10
-783.0471
 20
43.797
 30
0.0
 11
-783.0471
 21
43.677
 31
0.0
  0
LINE
  5
486
330
6E9
100
AcDbEntity
  8
Level 1
  6
Continuous
 62
     7
370
   106
100
AcDbLine
 10
-799.0871
 20
43.797
 30
0.0
 11
-799.0871
 21
55.197
 31
0.0
  0
LINE
  5
487
330
6E9
100
AcDbEntity
  8
Level 1
  6
Continuous
 62
     7
370
   106
100
AcDbLine
 10
-783.0471
 20
43.797
 30
0.0
 11
-784.1271
 21
43.797
 31
0.0
  0
LINE
  5
488
330
6E9
100
AcDbEntity
  8
Level 1
  6
Continuous
 62
     7
370
   106
100
AcDbLine
 10
-783.0471
 20
43.797
 30
0.0
 11
-799.0871
 21
43.797
 31
0.0
  0
LINE
  5
489
330
6E9
100
AcDbEntity
  8
Level 1
  6
Continuous
 62
     7
370
   106
100
AcDbLine
 10
-782.9271
 20
55.197
 30
0.0
 11
-783.0471
 21
55.197
 31
0.0
  0
LINE
  5
48A
330
6E9
100
AcDbEntity
  8
Level 1
  6
Continuous
 62
     7
370
   106
100
AcDbLine
 10
-784.1271
 20
55.317
 30
0.0
 11
-784.1271
 21
55.197
 31
0.0
  0
LINE
  5
48B
330
6E9
100
AcDbEntity
  8
Level 1
  6
Continuous
 62
     7
370
   106
100
AcDbLine
 10
-799.0871
 20
55.197
 30
0.0
 11
-783.0471
 21
55.197
 31
0.0
  0
LINE
  5
48C
330
6E9
100
AcDbEntity
  8
Level 1
  6
Continuous
 62
     7
370
   106
100
AcDbLine
 10
-784.1271
 20
55.197
 30
0.0
 11
-783.0471
 21
55.197
 31
0.0
  0
LINE
  5
48D
330
6E9
100
AcDbEntity
  8
Level 1
  6
Continuous
 62
     7
370
   106
100
AcDbLine
 10
-787.8671
 20
55.317
 30
0.0
 11
-787.8671
 21
55.197
 31
0.0
  0
LINE
  5
48E
330
6E9
100
AcDbEntity
  8
Level 1
  6
Continuous
 62
     7
370
   106
100
AcDbLine
 10
-791.6071
 20
55.317
 30
0.0
 11
-791.6071
 21
55.197
 31
0.0
  0
LINE
  5
48F
330
6E9
100
AcDbEntity
  8
Level 1
  6
Continuous
 62
     7
370
   106
100
AcDbLine
 10
-795.3471
 20
55.317
 30
0.0
 11
-795.3471
 21
55.197
 31
0.0
  0
LINE
  5
490
330
6E9
100
AcDbEntity
  8
Level 1
  6
Continuous
 62
     7
370
   106
100
AcDbLine
 10
-799.0871
 20
55.317
 30
0.0
 11
-799.0871
 21
55.197
 31
0.0
  0
LINE
  5
491
330
6E9
100
AcDbEntity
  8
Level 1
  6
Continuous
 62
     7
370
   106
100
AcDbLine
 10
-799.0871
 20
55.197
 30
0.0
 11
-799.2071
 21
55.197
 31
0.0
  0
LINE
  5
492
330
6E9
100
AcDbEntity
  8
Level 1
  6
Continuous
 62
     7
370
   106
100
AcDbLine
 10
-782.9271
 20
43.797
 30
0.0
 11
-783.0471
 21
43.797
 31
0.0
  0
LINE
  5
493
330
6E9
100
AcDbEntity
  8
Level 1
  6
Continuous
 62
     7
370
   106
100
AcDbLine
 10
-784.1271
 20
43.797
 30
0.0
 11
-784.1271
 21
43.677
 31
0.0
  0
LINE
  5
494
330
6E9
100
AcDbEntity
  8
Level 1
  6
Continuous
 62
     7
370
   106
100
AcDbLine
 10
-787.8671
 20
43.797
 30
0.0
 11
-787.8671
 21
43.677
 31
0.0
  0
LINE
  5
495
330
6E9
100
AcDbEntity
  8
Level 1
  6
Continuous
 62
     7
370
   106
100
AcDbLine
 10
-791.6071
 20
43.797
 30
0.0
 11
-791.6071
 21
43.677
 31
0.0
  0
LINE
  5
496
330
6E9
100
AcDbEntity
  8
Level 1
  6
Continuous
 62
     7
370
   106
100
AcDbLine
 10
-795.3471
 20
43.797
 30
0.0
 11
-795.3471
 21
43.677
 31
0.0
  0
LINE
  5
497
330
6E9
100
AcDbEntity
  8
Level 1
  6
Continuous
 62
     7
370
   106
100
AcDbLine
 10
-799.0871
 20
43.797
 30
0.0
 11
-799.0871
 21
43.677
 31
0.0
  0
LINE
  5
498
330
6E9
100
AcDbEntity
  8
Level 1
  6
Continuous
 62
     7
370
   106
100
AcDbLine
 10
-799.0871
 20
43.797
 30
0.0
 11
-799.2071
 21
43.797
 31
0.0
  0
LINE
  5
499
330
6E9
100
AcDbEntity
  8
Level 1
  6
Continuous
 62
     7
370
   106
100
AcDbLine
 10
-799.0871
 20
51.397
 30
0.0
 11
-799.2071
 21
51.397
 31
0.0
  0
LINE
  5
49A
330
6E9
100
AcDbEntity
  8
Level 1
  6
Continuous
 62
     7
370
   106
100
AcDbLine
 10
-799.0871
 20
47.597
 30
0.0
 11
-799.2071
 21
47.597
 31
0.0
  0
LINE
  5
49B
330
6E9
100
AcDbEntity
  8
Level 1
  6
Continuous
 62
     7
370
   106
100
AcDbLine
 10
-782.9271
 20
47.597
 30
0.0
 11
-783.0471
 21
47.597
 31
0.0
  0
LINE
  5
49C
330
6E9
100
AcDbEntity
  8
Level 1
  6
Continuous
 62
     7
370
   106
100
AcDbLine
 10
-782.9271
 20
51.397
 30
0.0
 11
-783.0471
 21
51.397
 31
0.0
  0
LINE
  5
49D
330
6E9
100
AcDbEntity
  8
Level 1
  6
Continuous
 62
     7
370
   106
100
AcDbLine
 10
-797.2171
 20
55.317
 30
0.0
 11
-797.2171
 21
55.197
 31
0.0
  0
LINE
  5
49E
330
6E9
100
AcDbEntity
  8
Level 1
  6
Continuous
 62
     7
370
   106
100
AcDbLine
 10
-793.4771
 20
55.317
 30
0.0
 11
-793.4771
 21
55.197
 31
0.0
  0
LINE
  5
4A2
330
6E9
100
AcDbEntity
  8
Level 1
  6
Continuous
 62
     7
370
   106
100
AcDbLine
 10
-799.0871
 20
53.297
 30
0.0
 11
-799.2071
 21
53.297
 31
0.0
  0
LINE
  5
4A8
330
6E9
100
AcDbEntity
  8
Level 1
  6
Continuous
 62
     7
370
   106
100
AcDbLine
 10
-799.0871
 20
49.497
 30
0.0
 11
-799.2071
 21
49.497
 31
0.0
  0
LINE
  5
4A9
330
6E9
100
AcDbEntity
  8
Level 1
  6
Continuous
 62
     7
370
   106
100
AcDbLine
 10
-799.0871
 20
45.697
 30
0.0
 11
-799.2071
 21
45.697
 31
0.0
  0
LINE
  5
4AA
330
6E9
100
AcDbEntity
  8
Level 1
  6
Continuous
 62
     7
370
   106
100
AcDbLine
 10
-789.7371
 20
55.317
 30
0.0
 11
-789.7371
 21
55.197
 31
0.0
  0
LINE
  5
4AB
330
6E9
100
AcDbEntity
  8
Level 1
  6
Continuous
 62
     7
370
   106
100
AcDbLine
 10
-785.9971
 20
55.317
 30
0.0
 11
-785.9971
 21
55.197
 31
0.0
  0
LINE
  5
4B0
330
6E9
100
AcDbEntity
  8
Level 1
  6
Continuous
 62
     7
370
   106
100
AcDbLine
 10
-782.9271
 20
53.297
 30
0.0
 11
-783.0471
 21
53.297
 31
0.0
  0
LINE
  5
4B1
330
6E9
100
AcDbEntity
  8
Level 1
  6
Continuous
 62
     7
370
   106
100
AcDbLine
 10
-782.9271
 20
49.497
 30
0.0
 11
-783.0471
 21
49.497
 31
0.0
  0
LINE
  5
4B2
330
6E9
100
AcDbEntity
  8
Level 1
  6
Continuous
 62
     7
370
   106
100
AcDbLine
 10
-782.9271
 20
45.697
 30
0.0
 11
-783.0471
 21
45.697
 31
0.0
  0
LINE
  5
4B3
330
6E9
100
AcDbEntity
  8
Level 1
  6
Continuous
 62
     7
370
   106
100
AcDbLine
 10
-785.9971
 20
43.797
 30
0.0
 11
-785.9971
 21
43.677
 31
0.0
  0
LINE
  5
4B4
330
6E9
100
AcDbEntity
  8
Level 1
  6
Continuous
 62
     7
370
   106
100
AcDbLine
 10
-789.7371
 20
43.797
 30
0.0
 11
-789.7371
 21
43.677
 31
0.0
  0
LINE
  5
4B5
330
6E9
100
AcDbEntity
  8
Level 1
  6
Continuous
 62
     7
370
   106
100
AcDbLine
 10
-793.4771
 20
43.797
 30
0.0
 11
-793.4771
 21
43.677
 31
0.0
  0
LINE
  5
4B6
330
6E9
100
AcDbEntity
  8
Level 1
  6
Continuous
 62
     7
370
   106
100
AcDbLine
 10
-797.2171
 20
43.797
 30
0.0
 11
-797.2171
 21
43.677
 31
0.0
  0
LINE
  5
4B7
330
6E9
100
AcDbEntity
  8
Level 1
  6
Continuous
 62
     7
370
    40
100
AcDbLine
 10
-783.853965
 20
48.285
 30
0.0
 11
-783.663965
 21
48.285
 31
0.0
  0
LINE
  5
4BC
330
6E9
100
AcDbEntity
  8
Level 1
  6
Continuous
 62
     7
370
    40
100
AcDbLine
 10
-783.1671
 20
48.695
 30
0.0
 11
-784.0071
 21
48.695
 31
0.0
  0
LINE
  5
4BD
330
6E9
100
AcDbEntity
  8
Level 1
  6
Continuous
 62
     7
370
    40
100
AcDbLine
 10
-783.8171
 20
50.293
 30
0.0
 11
-783.8171
 21
47.875
 31
0.0
  0
LWPOLYLINE
  5
4BF
330
6E9
100
AcDbEntity
  8
Level 1
  6
Continuous
 62
     7
370
   100
100
AcDbPolyline
 90
        2
 70
   128
 43
0.0
 10
-784.0071
 20
54.439
 10
-784.0071
 20
55.039
  0
LWPOLYLINE
  5
4C0
330
6E9
100
AcDbEntity
  8
Level 1
  6
Continuous
 62
     7
370
   100
100
AcDbPolyline
 90
        2
 70
   128
 43
0.0
 10
-783.9471
 20
55.099
 10
-783.2271
 20
55.099
  0
LWPOLYLINE
  5
4C1
330
6E9
100
AcDbEntity
  8
Level 1
  6
Continuous
 62
     7
370
   100
100
AcDbPolyline
 90
        2
 70
   128
 43
0.0
 10
-783.1671
 20
55.039
 10
-783.1671
 20
54.439
  0
LWPOLYLINE
  5
4C2
330
6E9
100
AcDbEntity
  8
Level 1
  6
Continuous
 62
     7
370
   100
100
AcDbPolyline
 90
        2
 70
   128
 43
0.0
 10
-783.2271
 20
54.379
 10
-783.9471
 20
54.379
  0
LWPOLYLINE
  5
4C3
330
6E9
100
AcDbEntity
  8
Level 1
  6
Continuous
 62
     7
370
   100
100
AcDbPolyline
 90
        2
 70
   128
 43
0.0
 10
-783.1671
 20
49.515
 10
-784.0071
 20
49.515
  0
LWPOLYLINE
  5
4C4
330
6E9
100
AcDbEntity
  8
Level 1
  6
Continuous
 62
     7
370
   100
100
AcDbPolyline
 90
        2
 70
   128
 43
0.0
 10
-784.0071
 20
47.697
 10
-784.0071
 20
44.817
  0
LWPOLYLINE
  5
4C5
330
6E9
100
AcDbEntity
  8
Level 1
  6
Continuous
 62
     7
370
   100
100
AcDbPolyline
 90
        2
 70
   128
 43
0.0
 10
-783.1671
 20
44.817
 10
-783.1671
 20
47.697
  0
LWPOLYLINE
  5
4C6
330
6E9
100
AcDbEntity
  8
Level 1
  6
Continuous
 62
     7
370
   100
100
AcDbPolyline
 90
        2
 70
   128
 43
0.0
 10
-783.9471
 20
44.757
 10
-783.2271
 20
44.757
  0
LWPOLYLINE
  5
4C7
330
6E9
100
AcDbEntity
  8
Level 1
  6
Continuous
 62
     7
370
   100
100
AcDbPolyline
 90
        2
 70
   128
 43
0.0
 10
-783.9471
 20
44.637
 10
-783.2271
 20
44.637
  0
LWPOLYLINE
  5
4C8
330
6E9
100
AcDbEntity
  8
Level 1
  6
Continuous
 62
     7
370
   100
100
AcDbPolyline
 90
        2
 70
   128
 43
0.0
 10
-784.0071
 20
43.977
 10
-784.0071
 20
44.577
  0
LWPOLYLINE
  5
4C9
330
6E9
100
AcDbEntity
  8
Level 1
  6
Continuous
 62
     7
370
   100
100
AcDbPolyline
 90
        2
 70
   128
 43
0.0
 10
-783.1671
 20
44.577
 10
-783.1671
 20
43.977
  0
ARC
  5
4CC
330
6E9
100
AcDbEntity
  8
Level 1
  6
Continuous
 62
     7
370
   100
100
AcDbCircle
 10
783.94704
 20
55.03808
 30
0.0
 40
0.06
210
0.0
220
0.0
230
-1.0
100
AcDbArc
 50
0.0
 51
90.0
  0
ARC
  5
4CD
330
6E9
100
AcDbEntity
  8
Level 1
  6
Continuous
 62
     7
370
   100
100
AcDbCircle
 10
783.22704
 20
55.03808
 30
0.0
 40
0.0599999999112014
210
0.0
220
0.0
230
-1.0
100
AcDbArc
 50
90.0
 51
180.0
  0
ARC
  5
4CE
330
6E9
100
AcDbEntity
  8
Level 1
  6
Continuous
 62
     7
370
   100
100
AcDbCircle
 10
783.22704
 20
54.43808
 30
0.0
 40
0.06
210
0.0
220
0.0
230
-1.0
100
AcDbArc
 50
180.0
 51
270.0
  0
ARC
  5
4CF
330
6E9
100
AcDbEntity
  8
Level 1
  6
Continuous
 62
     7
370
   100
100
AcDbCircle
 10
-783.94704
 20
54.43808
 30
0.0
 40
0.06
100
AcDbArc
 50
180.0
 51
270.0
  0
ARC
  5
4D0
330
6E9
100
AcDbEntity
  8
Level 1
  6
Continuous
 62
     7
370
   100
100
AcDbCircle
 10
783.22704
 20
50.23238
 30
0.0
 40
0.0599999999112014
210
0.0
220
0.0
230
-1.0
100
AcDbArc
 50
90.0
 51
180.0
  0
ARC
  5
4D1
330
6E9
100
AcDbEntity
  8
Level 1
  6
Continuous
 62
     7
370
   100
100
AcDbCircle
 10
-783.94702
 20
50.23238
 30
0.0
 40
0.0599999999112014
100
AcDbArc
 50
90.0
 51
180.0
  0
ARC
  5
4D2
330
6E9
100
AcDbEntity
  8
Level 1
  6
Continuous
 62
     7
370
   100
100
AcDbCircle
 10
-783.9471
 20
47.93758
 30
0.0
 40
0.06
100
AcDbArc
 50
180.0
 51
270.0
  0
ARC
  5
4D3
330
6E9
100
AcDbEntity
  8
Level 1
  6
Continuous
 62
     7
370
   100
100
AcDbCircle
 10
-783.2271
 20
47.93758
 30
0.0
 40
0.0599999999112014
100
AcDbArc
 50
270.0
 51
0.0
  0
ARC
  5
4D4
330
6E9
100
AcDbEntity
  8
Level 1
  6
Continuous
 62
     7
370
   100
100
AcDbCircle
 10
-783.2271
 20
47.69758
 30
0.0
 40
0.06
100
AcDbArc
 50
0.0
 51
90.0
  0
ARC
  5
4D5
330
6E9
100
AcDbEntity
  8
Level 1
  6
Continuous
 62
     7
370
   100
100
AcDbCircle
 10
-783.9471
 20
47.69758
 30
0.0
 40
0.0599999999112014
100
AcDbArc
 50
90.0
 51
180.0
  0
ARC
  5
4D6
330
6E9
100
AcDbEntity
  8
Level 1
  6
Continuous
 62
     7
370
   100
100
AcDbCircle
 10
-783.9471
 20
44.81718
 30
0.0
 40
0.06
100
AcDbArc
 50
180.0
 51
270.0
  0
ARC
  5
4D7
330
6E9
100
AcDbEntity
  8
Level 1
  6
Continuous
 62
     7
370
   100
100
AcDbCircle
 10
-783.2271
 20
44.81718
 30
0.0
 40
0.0599999999112014
100
AcDbArc
 50
270.0
 51
0.0
  0
ARC
  5
4D8
330
6E9
100
AcDbEntity
  8
Level 1
  6
Continuous
 62
     7
370
   100
100
AcDbCircle
 10
-783.22704
 20
44.57718
 30
0.0
 40
0.06
100
AcDbArc
 50
0.0
 51
90.0
  0
ARC
  5
4D9
330
6E9
100
AcDbEntity
  8
Level 1
  6
Continuous
 62
     7
370
   100
100
AcDbCircle
 10
-783.94704
 20
44.57718
 30
0.0
 40
0.0599999999112014
100
AcDbArc
 50
90.0
 51
180.0
  0
ARC
  5
4DA
330
6E9
100
AcDbEntity
  8
Level 1
  6
Continuous
 62
     7
370
   100
100
AcDbCircle
 10
-783.94704
 20
43.97718
 30
0.0
 40
0.06
100
AcDbArc
 50
180.0
 51
270.0
  0
ARC
  5
4DB
330
6E9
100
AcDbEntity
  8
Level 1
  6
Continuous
 62
     7
370
   100
100
AcDbCircle
 10
-783.22704
 20
43.97718
 30
0.0
 40
0.0599999999112014
100
AcDbArc
 50
270.0
 51
0.0
  0
LWPOLYLINE
  5
4DC
330
6E9
100
AcDbEntity
  8
Level 1
  6
Continuous
 62
     7
370
   100
100
AcDbPolyline
 90
        2
 70
   128
 43
0.0
 10
-783.2271
 20
43.917
 10
-783.9471
 20
43.917
  0
LWPOLYLINE
  5
4DF
330
6E9
100
AcDbEntity
  8
Level 1
  6
Continuous
 62
     7
370
   100
100
AcDbPolyline
 90
        2
 70
   128
 43
0.0
 10
-783.2271
 20
52.873
 10
-783.9471
 20
52.873
  0
LWPOLYLINE
  5
4E0
330
6E9
100
AcDbEntity
  8
Level 1
  6
Continuous
 62
     7
370
   100
100
AcDbPolyline
 90
        2
 70
   128
 43
0.0
 10
-783.9471
 20
50.413
 10
-783.2271
 20
50.413
  0
ARC
  5
4E1
330
6E9
100
AcDbEntity
  8
Level 1
  6
Continuous
 62
     7
370
   100
100
AcDbCircle
 10
783.94702
 20
52.81238
 30
0.0
 40
0.0599999999556007
210
0.0
220
0.0
230
-1.0
100
AcDbArc
 50
0.0
 51
90.0
  0
ARC
  5
4E2
330
6E9
100
AcDbEntity
  8
Level 1
  6
Continuous
 62
     7
370
   100
100
AcDbCircle
 10
783.22704
 20
52.81238
 30
0.0
 40
0.0599999998668022
210
0.0
220
0.0
230
-1.0
100
AcDbArc
 50
90.0
 51
180.0
  0
ARC
  5
4E3
330
6E9
100
AcDbEntity
  8
Level 1
  6
Continuous
 62
     7
370
   100
100
AcDbCircle
 10
-783.94702
 20
50.47238
 30
0.0
 40
0.0599999999556007
100
AcDbArc
 50
180.0
 51
270.0
  0
ARC
  5
4E4
330
6E9
100
AcDbEntity
  8
Level 1
  6
Continuous
 62
     7
370
   100
100
AcDbCircle
 10
-783.22704
 20
50.47238
 30
0.0
 40
0.0599999998668022
100
AcDbArc
 50
270.0
 51
0.0
  0
LINE
  5
4E7
330
6E9
100
AcDbEntity
  8
Level 1
  6
Continuous
 62
     7
370
    13
100
AcDbLine
 10
-784.0071
 20
50.701
 30
0.0
 11
-783.1671
 21
50.701
 31
0.0
  0
LINE
  5
4E8
330
6E9
100
AcDbEntity
  8
Level 1
  6
Continuous
 62
     7
370
    13
100
AcDbLine
 10
-783.9111
 20
52.873
 30
0.0
 11
-783.9111
 21
50.413
 31
0.0
  0
LWPOLYLINE
  5
4E9
330
6E9
100
AcDbEntity
  8
Level 1
  6
Continuous
 62
     7
370
   100
100
AcDbPolyline
 90
        2
 70
   128
 43
0.0
 10
-784.0071
 20
52.813
 10
-784.0071
 20
50.473
  0
LWPOLYLINE
  5
4EA
330
6E9
100
AcDbEntity
  8
Level 1
  6
Continuous
 62
     7
370
   100
100
AcDbPolyline
 90
        2
 70
   128
 43
0.0
 10
-783.1671
 20
50.473
 10
-783.1671
 20
52.813
  0
LINE
  5
4EB
330
6E9
100
AcDbEntity
  8
Level 1
  6
Continuous
 62
     7
370
    13
100
AcDbLine
 10
-783.8171
 20
52.873
 30
0.0
 11
-783.8171
 21
50.413
 31
0.0
  0
LINE
  5
4EC
330
6E9
100
AcDbEntity
  8
Level 1
  6
Continuous
 62
     7
370
    13
100
AcDbLine
 10
-783.7231
 20
52.873
 30
0.0
 11
-783.7231
 21
50.413
 31
0.0
  0
LINE
  5
4ED
330
6E9
100
AcDbEntity
  8
Level 1
  6
Continuous
 62
     7
370
    13
100
AcDbLine
 10
-783.6291
 20
52.873
 30
0.0
 11
-783.6291
 21
50.413
 31
0.0
  0
LINE
  5
4EE
330
6E9
100
AcDbEntity
  8
Level 1
  6
Continuous
 62
     7
370
    13
100
AcDbLine
 10
-783.5351
 20
52.873
 30
0.0
 11
-783.5351
 21
50.413
 31
0.0
  0
LINE
  5
4EF
330
6E9
100
AcDbEntity
  8
Level 1
  6
Continuous
 62
     7
370
    13
100
AcDbLine
 10
-783.4391
 20
52.873
 30
0.0
 11
-783.4391
 21
50.413
 31
0.0
  0
LINE
  5
4F0
330
6E9
100
AcDbEntity
  8
Level 1
  6
Continuous
 62
     7
370
    13
100
AcDbLine
 10
-783.3451
 20
52.873
 30
0.0
 11
-783.3451
 21
50.413
 31
0.0
  0
LINE
  5
4F1
330
6E9
100
AcDbEntity
  8
Level 1
  6
Continuous
 62
     7
370
    13
100
AcDbLine
 10
-783.2511
 20
52.873
 30
0.0
 11
-783.2511
 21
50.413
 31
0.0
  0
LINE
  5
4F2
330
6E9
100
AcDbEntity
  8
Level 1
  6
Continuous
 62
     7
370
    13
100
AcDbLine
 10
-784.0071
 20
52.439
 30
0.0
 11
-783.1671
 21
52.439
 31
0.0
  0
LINE
  5
4F3
330
6E9
100
AcDbEntity
  8
Level 1
  6
Continuous
 62
     7
370
    13
100
AcDbLine
 10
-784.0071
 20
52.195
 30
0.0
 11
-783.1671
 21
52.195
 31
0.0
  0
LWPOLYLINE
  5
4F4
330
6E9
100
AcDbEntity
  8
Level 1
  6
Continuous
 62
     7
370
   100
100
AcDbPolyline
 90
        2
 70
   128
 43
0.0
 10
-783.2271
 20
52.873
 10
-783.9471
 20
52.873
  0
LWPOLYLINE
  5
4F5
330
6E9
100
AcDbEntity
  8
Level 1
  6
Continuous
 62
     7
370
   100
100
AcDbPolyline
 90
        2
 70
   128
 43
0.0
 10
-783.9471
 20
50.293
 10
-783.2271
 20
50.293
  0
LINE
  5
4F8
330
6E9
100
AcDbEntity
  8
Level 1
  6
Continuous
 62
     7
370
    40
100
AcDbLine
 10
-783.6271
 20
49.515
 30
0.0
 11
-783.6271
 21
47.875
 31
0.0
  0
LINE
  5
4FB
330
6E9
100
AcDbEntity
  8
Level 1
  6
Continuous
 62
     7
370
    40
100
AcDbLine
 10
-783.4371
 20
49.515
 30
0.0
 11
-783.4371
 21
47.875
 31
0.0
  0
LINE
  5
4FC
330
6E9
100
AcDbEntity
  8
Level 1
  6
Continuous
 62
     7
370
    40
100
AcDbLine
 10
-783.4951
 20
50.293
 30
0.0
 11
-783.4951
 21
49.515
 31
0.0
  0
LWPOLYLINE
  5
4FD
330
6E9
100
AcDbEntity
  8
Level 1
  6
Continuous
 62
     7
370
   100
100
AcDbPolyline
 90
        2
 70
   128
 43
0.0
 10
-783.2271
 20
47.757
 10
-783.9471
 20
47.757
  0
LWPOLYLINE
  5
4FE
330
6E9
100
AcDbEntity
  8
Level 1
  6
Continuous
 62
     7
370
   100
100
AcDbPolyline
 90
        2
 70
   128
 43
0.0
 10
-783.2271
 20
47.877
 10
-783.9471
 20
47.877
  0
LWPOLYLINE
  5
4FF
330
6E9
100
AcDbEntity
  8
Level 1
  6
Continuous
 62
     7
370
   100
100
AcDbPolyline
 90
        2
 70
   128
 43
0.0
 10
-783.9471
 20
50.293
 10
-783.2271
 20
50.293
  0
LWPOLYLINE
  5
500
330
6E9
100
AcDbEntity
  8
Level 1
  6
Continuous
 62
     7
370
   100
100
AcDbPolyline
 90
        2
 70
   128
 43
0.0
 10
-783.1671
 20
47.937
 10
-783.1671
 20
50.233
  0
LWPOLYLINE
  5
501
330
6E9
100
AcDbEntity
  8
Level 1
  6
Continuous
 62
     7
370
   100
100
AcDbPolyline
 90
        2
 70
   128
 43
0.0
 10
-784.0071
 20
50.233
 10
-784.0071
 20
47.937
  0
LWPOLYLINE
  5
502
330
6E9
100
AcDbEntity
  8
Level 1
  6
Continuous
 62
     7
370
   100
100
AcDbPolyline
 90
        2
 70
   128
 43
0.0
 10
-783.9471
 20
50.413
 10
-783.2271
 20
50.413
  0
LWPOLYLINE
  5
503
330
6E9
100
AcDbEntity
  8
Level 1
  6
Continuous
 62
     7
370
   100
100
AcDbPolyline
 90
        2
 70
   128
 43
0.0
 10
-783.2271
 20
52.993
 10
-783.9471
 20
52.993
  0
ARC
  5
504
330
6E9
100
AcDbEntity
  8
Level 1
  6
Continuous
 62
     7
370
   100
100
AcDbCircle
 10
-783.94702
 20
53.05238
 30
0.0
 40
0.06
100
AcDbArc
 50
180.0
 51
270.0
  0
ARC
  5
505
330
6E9
100
AcDbEntity
  8
Level 1
  6
Continuous
 62
     7
370
   100
100
AcDbCircle
 10
783.94704
 20
54.19808
 30
0.0
 40
0.06
210
0.0
220
0.0
230
-1.0
100
AcDbArc
 50
0.0
 51
90.0
  0
ARC
  5
506
330
6E9
100
AcDbEntity
  8
Level 1
  6
Continuous
 62
     7
370
   100
100
AcDbCircle
 10
783.22704
 20
54.19808
 30
0.0
 40
0.0599999999112014
210
0.0
220
0.0
230
-1.0
100
AcDbArc
 50
90.0
 51
180.0
  0
ARC
  5
507
330
6E9
100
AcDbEntity
  8
Level 1
  6
Continuous
 62
     7
370
   100
100
AcDbCircle
 10
783.22704
 20
53.05238
 30
0.0
 40
0.06
210
0.0
220
0.0
230
-1.0
100
AcDbArc
 50
180.0
 51
270.0
  0
LINE
  5
508
330
6E9
100
AcDbEntity
  8
Level 1
  6
Continuous
 62
     7
370
   100
100
AcDbLine
 10
-784.0071
 20
53.053
 30
0.0
 11
-784.0071
 21
54.199
 31
0.0
  0
LINE
  5
509
330
6E9
100
AcDbEntity
  8
Level 1
  6
Continuous
 62
     7
370
   100
100
AcDbLine
 10
-783.1671
 20
53.053
 30
0.0
 11
-783.1671
 21
54.199
 31
0.0
  0
LWPOLYLINE
  5
50A
330
6E9
100
AcDbEntity
  8
Level 1
  6
Continuous
 62
     7
370
   100
100
AcDbPolyline
 90
        2
 70
   128
 43
0.0
 10
-783.2271
 20
54.259
 10
-783.9471
 20
54.259
  0
HATCH
  5
51D
330
6E9
100
AcDbEntity
  8
Level 1
  6
Continuous
 62
     7
370
     0
100
AcDbHatch
 10
0.0
 20
0.0
 30
0.0
210
0.0
220
0.0
230
1.0
  2
SOLID
 70
     1
 71
     0
 91
        1
 92
        3
 72
     0
 73
     1
 93
       24
 10
-783.9111
 20
54.985
 10
-783.9111
 20
54.991
 10
-783.9091000000001
 20
54.997
 10
-783.9071
 20
55.003
 10
-783.9031
 20
55.009
 10
-783.8991000000001
 20
55.015
 10
-783.8951000000001
 20
55.021
 10
-783.8891
 20
55.02500000000001
 10
-783.8831
 20
55.029
 10
-783.8751000000001
 20
55.03100000000001
 10
-783.8691
 20
55.03100000000001
 10
-783.8631
 20
55.033
 10
-783.8631
 20
55.017
 10
-783.8671
 20
55.017
 10
-783.8711000000001
 20
55.017
 10
-783.8751000000001
 20
55.015
 10
-783.8811000000001
 20
55.01300000000001
 10
-783.8831
 20
55.011
 10
-783.8871
 20
55.00700000000001
 10
-783.8911
 20
55.003
 10
-783.8931
 20
55.001
 10
-783.8951000000001
 20
54.995
 10
-783.8951000000001
 20
54.991
 10
-783.8971
 20
54.985
 97
        0
 75
     0
 76
     1
 98
        0
  0
HATCH
  5
51E
330
6E9
100
AcDbEntity
  8
Level 1
  6
Continuous
 62
     7
370
     0
100
AcDbHatch
 10
0.0
 20
0.0
 30
0.0
210
0.0
220
0.0
230
1.0
  2
SOLID
 70
     1
 71
     0
 91
        1
 92
        3
 72
     0
 73
     1
 93
       24
 10
-783.5611
 20
54.985
 10
-783.5611
 20
54.991
 10
-783.5631000000001
 20
54.995
 10
-783.5651
 20
55.001
 10
-783.5671
 20
55.003
 10
-783.5691
 20
55.00700000000001
 10
-783.5731000000001
 20
55.011
 10
-783.5771000000001
 20
55.01300000000001
 10
-783.5811
 20
55.015
 10
-783.5871000000001
 20
55.017
 10
-783.5911
 20
55.017
 10
-783.5931
 20
55.017
 10
-783.5931
 20
55.033
 10
-783.5871000000001
 20
55.03100000000001
 10
-783.5831000000001
 20
55.03100000000001
 10
-783.5751
 20
55.029
 10
-783.5691
 20
55.02500000000001
 10
-783.5631000000001
 20
55.021
 10
-783.5571
 20
55.015
 10
-783.5531000000001
 20
55.009
 10
-783.5491000000001
 20
55.003
 10
-783.5471
 20
54.997
 10
-783.5471
 20
54.991
 10
-783.5471
 20
54.985
 97
        0
 75
     0
 76
     1
 98
        0
  0
SOLID
  5
51F
330
6E9
100
AcDbEntity
  8
Level 1
  6
Continuous
 62
     7
370
     0
100
AcDbTrace
 10
-783.8631
 20
55.017
 30
0.0
 11
-783.5931
 21
55.017
 31
0.0
 12
-783.8631
 22
55.033
 32
0.0
 13
-783.5931
 23
55.033
 33
0.0
  0
HATCH
  5
520
330
6E9
100
AcDbEntity
  8
Level 1
  6
Continuous
 62
     7
370
     0
100
AcDbHatch
 10
0.0
 20
0.0
 30
0.0
210
0.0
220
0.0
230
1.0
  2
SOLID
 70
     1
 71
     0
 91
        1
 92
        3
 72
     0
 73
     1
 93
       24
 10
-783.8751000000001
 20
54.755
 10
-783.8831
 20
54.759
 10
-783.8891
 20
54.761
 10
-783.8951000000001
 20
54.767
 10
-783.8991000000001
 20
54.771
 10
-783.9031
 20
54.777
 10
-783.9071
 20
54.783
 10
-783.9091000000001
 20
54.789
 10
-783.9111
 20
54.797
 10
-783.9111
 20
54.801
 10
-783.8971
 20
54.801
 10
-783.8951000000001
 20
54.795
 10
-783.8951000000001
 20
54.791
 10
-783.8931
 20
54.78700000000001
 10
-783.8911
 20
54.783
 10
-783.8871
 20
54.779
 10
-783.8831
 20
54.77500000000001
 10
-783.8811000000001
 20
54.773
 10
-783.8751000000001
 20
54.771
 10
-783.8711000000001
 20
54.76900000000001
 10
-783.8671
 20
54.76900000000001
 10
-783.8631
 20
54.76900000000001
 10
-783.8631
 20
54.755
 10
-783.8691
 20
54.755
 97
        0
 75
     0
 76
     1
 98
        0
  0
HATCH
  5
521
330
6E9
100
AcDbEntity
  8
Level 1
  6
Continuous
 62
     7
370
     0
100
AcDbHatch
 10
0.0
 20
0.0
 30
0.0
210
0.0
220
0.0
230
1.0
  2
SOLID
 70
     1
 71
     0
 91
        1
 92
        3
 72
     0
 73
     1
 93
       24
 10
-783.5931
 20
54.755
 10
-783.5931
 20
54.76900000000001
 10
-783.5911
 20
54.76900000000001
 10
-783.5871000000001
 20
54.76900000000001
 10
-783.5811
 20
54.771
 10
-783.5771000000001
 20
54.773
 10
-783.5731000000001
 20
54.77500000000001
 10
-783.5691
 20
54.779
 10
-783.5671
 20
54.783
 10
-783.5651
 20
54.78700000000001
 10
-783.5631000000001
 20
54.791
 10
-783.5611
 20
54.795
 10
-783.5611
 20
54.801
 10
-783.5471
 20
54.801
 10
-783.5471
 20
54.797
 10
-783.5471
 20
54.789
 10
-783.5491000000001
 20
54.783
 10
-783.5531000000001
 20
54.777
 10
-783.5571
 20
54.771
 10
-783.5631000000001
 20
54.767
 10
-783.5691
 20
54.761
 10
-783.5751
 20
54.759
 10
-783.5831000000001
 20
54.755
 10
-783.5871000000001
 20
54.755
 97
        0
 75
     0
 76
     1
 98
        0
  0
SOLID
  5
522
330
6E9
100
AcDbEntity
  8
Level 1
  6
Continuous
 62
     7
370
     0
100
AcDbTrace
 10
783.8631
 20
54.769
 30
0.0
 11
783.5931
 21
54.769
 31
0.0
 12
783.8631
 22
54.755
 32
0.0
 13
783.5931
 23
54.755
 33
0.0
210
0.0
220
0.0
230
-1.0
  0
SOLID
  5
523
330
6E9
100
AcDbEntity
  8
Level 1
  6
Continuous
 62
     7
370
     0
100
AcDbTrace
 10
783.9111
 20
54.801
 30
0.0
 11
783.8971
 21
54.801
 31
0.0
 12
783.9111
 22
54.985
 32
0.0
 13
783.8971
 23
54.985
 33
0.0
210
0.0
220
0.0
230
-1.0
  0
SOLID
  5
524
330
6E9
100
AcDbEntity
  8
Level 1
  6
Continuous
 62
     7
370
     0
100
AcDbTrace
 10
-783.5471
 20
54.801
 30
0.0
 11
-783.5611
 21
54.801
 31
0.0
 12
-783.5471
 22
54.985
 32
0.0
 13
-783.5611
 23
54.985
 33
0.0
  0
HATCH
  5
525
330
6E9
100
AcDbEntity
  8
Level 1
  6
Continuous
 62
     7
370
     0
100
AcDbHatch
 10
0.0
 20
0.0
 30
0.0
210
0.0
220
0.0
230
1.0
  2
SOLID
 70
     1
 71
     0
 91
        1
 92
        3
 72
     0
 73
     1
 93
       10
 10
-783.7471
 20
54.83300000000001
 10
-783.7471
 20
54.865
 10
-783.7451000000001
 20
54.867
 10
-783.7451000000001
 20
54.871
 10
-783.7431
 20
54.875
 10
-783.7391
 20
54.879
 10
-783.7371
 20
54.881
 10
-783.7331
 20
54.883
 10
-783.7291
 20
54.88500000000001
 10
-783.7291
 20
54.83300000000001
 97
        0
 75
     0
 76
     1
 98
        0
  0
HATCH
  5
526
330
6E9
100
AcDbEntity
  8
Level 1
  6
Continuous
 62
     7
370
     0
100
AcDbHatch
 10
0.0
 20
0.0
 30
0.0
210
0.0
220
0.0
230
1.0
  2
SOLID
 70
     1
 71
     0
 91
        1
 92
        3
 72
     0
 73
     1
 93
       10
 10
-783.7291
 20
54.83300000000001
 10
-783.7291
 20
54.88500000000001
 10
-783.7251
 20
54.883
 10
-783.7211000000001
 20
54.881
 10
-783.7171000000001
 20
54.879
 10
-783.7151
 20
54.875
 10
-783.7131
 20
54.871
 10
-783.7111
 20
54.867
 10
-783.7111
 20
54.865
 10
-783.7111
 20
54.83300000000001
 97
        0
 75
     0
 76
     1
 98
        0
  0
SOLID
  5
527
330
6E9
100
AcDbEntity
  8
Level 1
  6
Continuous
 62
     7
370
     0
100
AcDbTrace
 10
783.8151
 20
54.907
 30
0.0
 11
783.8131
 21
54.907
 31
0.0
 12
783.8151
 22
54.933
 32
0.0
 13
783.8131
 23
54.933
 33
0.0
210
0.0
220
0.0
230
-1.0
  0
SOLID
  5
528
330
6E9
100
AcDbEntity
  8
Level 1
  6
Continuous
 62
     7
370
     0
100
AcDbTrace
 10
783.8151
 20
54.849
 30
0.0
 11
783.8131
 21
54.849
 31
0.0
 12
783.8151
 22
54.873
 32
0.0
 13
783.8131
 23
54.873
 33
0.0
210
0.0
220
0.0
230
-1.0
  0
SOLID
  5
529
330
6E9
100
AcDbEntity
  8
Level 1
  6
Continuous
 62
     7
370
     0
100
AcDbTrace
 10
783.7751
 20
54.857
 30
0.0
 11
783.7731
 21
54.857
 31
0.0
 12
783.7751
 22
54.873
 32
0.0
 13
783.7731
 23
54.873
 33
0.0
210
0.0
220
0.0
230
-1.0
  0
SOLID
  5
52A
330
6E9
100
AcDbEntity
  8
Level 1
  6
Continuous
 62
     7
370
     0
100
AcDbTrace
 10
-783.6411
 20
54.907
 30
0.0
 11
-783.6451
 21
54.907
 31
0.0
 12
-783.6411
 22
54.933
 32
0.0
 13
-783.6451
 23
54.933
 33
0.0
  0
SOLID
  5
52B
330
6E9
100
AcDbEntity
  8
Level 1
  6
Continuous
 62
     7
370
     0
100
AcDbTrace
 10
-783.6411
 20
54.849
 30
0.0
 11
-783.6451
 21
54.849
 31
0.0
 12
-783.6411
 22
54.873
 32
0.0
 13
-783.6451
 23
54.873
 33
0.0
  0
SOLID
  5
52C
330
6E9
100
AcDbEntity
  8
Level 1
  6
Continuous
 62
     7
370
     0
100
AcDbTrace
 10
-783.6831
 20
54.857
 30
0.0
 11
-783.6851
 21
54.857
 31
0.0
 12
-783.6831
 22
54.873
 32
0.0
 13
-783.6851
 23
54.873
 33
0.0
  0
HATCH
  5
52D
330
6E9
100
AcDbEntity
  8
Level 1
  6
Continuous
 62
     7
370
     0
100
AcDbHatch
 10
0.0
 20
0.0
 30
0.0
210
0.0
220
0.0
230
1.0
  2
SOLID
 70
     1
 71
     0
 91
        1
 92
        3
 72
     0
 73
     1
 93
       42
 10
-783.8631
 20
54.785
 10
-783.8711000000001
 20
54.78700000000001
 10
-783.8731
 20
54.789
 10
-783.8771
 20
54.791
 10
-783.8791
 20
54.797
 10
-783.8811000000001
 20
54.803
 10
-783.8811000000001
 20
54.985
 10
-783.8811000000001
 20
54.989
 10
-783.8771
 20
54.995
 10
-783.8731
 20
54.999
 10
-783.8671
 20
55.001
 10
-783.8631
 20
55.003
 10
-783.7291
 20
55.003
 10
-783.7291
 20
54.953
 10
-783.7411000000001
 20
54.953
 10
-783.7411000000001
 20
54.939
 10
-783.7431
 20
54.939
 10
-783.7431
 20
54.953
 10
-783.7651000000001
 20
54.953
 10
-783.7651000000001
 20
54.923
 10
-783.7571
 20
54.915
 10
-783.7571
 20
54.907
 10
-783.7851
 20
54.907
 10
-783.7851
 20
54.943
 10
-783.7771
 20
54.951
 10
-783.7771
 20
54.981
 10
-783.7991000000001
 20
54.981
 10
-783.7991000000001
 20
54.96700000000001
 10
-783.8011
 20
54.96700000000001
 10
-783.8011
 20
54.981
 10
-783.8251
 20
54.981
 10
-783.8251
 20
54.96700000000001
 10
-783.8271000000001
 20
54.96700000000001
 10
-783.8271000000001
 20
54.981
 10
-783.8511000000001
 20
54.981
 10
-783.8511000000001
 20
54.951
 10
-783.8431
 20
54.943
 10
-783.8431
 20
54.855
 10
-783.8511000000001
 20
54.847
 10
-783.8511000000001
 20
54.815
 10
-783.7291
 20
54.815
 10
-783.7291
 20
54.785
 97
        0
 75
     0
 76
     1
 98
        0
  0
HATCH
  5
52E
330
6E9
100
AcDbEntity
  8
Level 1
  6
Continuous
 62
     7
370
     0
100
AcDbHatch
 10
0.0
 20
0.0
 30
0.0
210
0.0
220
0.0
230
1.0
  2
SOLID
 70
     1
 71
     0
 91
        1
 92
        3
 72
     0
 73
     1
 93
       42
 10
-783.7291
 20
54.785
 10
-783.7291
 20
54.815
 10
-783.6051
 20
54.815
 10
-783.6051
 20
54.847
 10
-783.6131
 20
54.855
 10
-783.6131
 20
54.943
 10
-783.6051
 20
54.951
 10
-783.6051
 20
54.981
 10
-783.6291
 20
54.981
 10
-783.6291
 20
54.96700000000001
 10
-783.6311000000001
 20
54.96700000000001
 10
-783.6311000000001
 20
54.981
 10
-783.6551000000001
 20
54.981
 10
-783.6551000000001
 20
54.96700000000001
 10
-783.6571
 20
54.96700000000001
 10
-783.6571
 20
54.981
 10
-783.6811
 20
54.981
 10
-783.6811
 20
54.951
 10
-783.6731000000001
 20
54.943
 10
-783.6731000000001
 20
54.907
 10
-783.6991
 20
54.907
 10
-783.6991
 20
54.915
 10
-783.6911
 20
54.923
 10
-783.6911
 20
54.953
 10
-783.7151
 20
54.953
 10
-783.7151
 20
54.939
 10
-783.7171000000001
 20
54.939
 10
-783.7171000000001
 20
54.953
 10
-783.7291
 20
54.953
 10
-783.7291
 20
55.003
 10
-783.5931
 20
55.003
 10
-783.5891
 20
55.001
 10
-783.5831000000001
 20
54.999
 10
-783.5791
 20
54.995
 10
-783.5771000000001
 20
54.989
 10
-783.5751
 20
54.985
 10
-783.5751
 20
54.803
 10
-783.5771000000001
 20
54.797
 10
-783.5791
 20
54.791
 10
-783.5831000000001
 20
54.789
 10
-783.5871000000001
 20
54.78700000000001
 10
-783.5931
 20
54.785
 97
        0
 75
     0
 76
     1
 98
        0
  0
LINE
  5
530
330
6E9
100
AcDbEntity
  8
Level 1
  6
Continuous
 62
     7
370
     0
100
AcDbLine
 10
-799.6271
 20
43.557
 30
0.0
 11
-782.8071
 21
43.557
 31
0.0
  0
LINE
  5
531
330
6E9
100
AcDbEntity
  8
Level 1
  6
Continuous
 62
     7
370
     0
100
AcDbLine
 10
-799.6271
 20
55.437
 30
0.0
 11
-799.6271
 21
43.557
 31
0.0
  0
LINE
  5
532
330
6E9
100
AcDbEntity
  8
Level 1
  6
Continuous
 62
     7
370
     0
100
AcDbLine
 10
-782.8071
 20
43.557
 30
0.0
 11
-782.8071
 21
55.437
 31
0.0
  0
LINE
  5
533
330
6E9
100
AcDbEntity
  8
Level 1
  6
Continuous
 62
     7
370
     0
100
AcDbLine
 10
-782.8071
 20
55.437
 30
0.0
 11
-799.6271
 21
55.437
 31
0.0
  0
TEXT
  5
534
330
6E9
100
AcDbEntity
  8
Level 4
  6
Continuous
 62
    52
370
     0
100
AcDbText
 10
-782.3811
 20
42.697
 30
0.0
 40
0.200004
  1
841 x 594 mm
  7
Style-ENGINEERING
 11
-782.3811
 21
42.797002
 31
0.0
100
AcDbText
 73
     2
  0
LINE
  5
535
330
6E9
100
AcDbEntity
  8
Level 63
  6
Continuous
 62
     7
370
    53
100
AcDbLine
 10
-777.0131
 20
43.913
 30
0.0
 11
-777.0131
 21
44.145
 31
0.0
  0
LINE
  5
536
330
6E9
100
AcDbEntity
  8
Level 63
  6
Continuous
 62
     4
370
    53
100
AcDbLine
 10
-777.0131
 20
43.681
 30
0.0
 11
-777.0131
 21
43.913
 31
0.0
  0
LINE
  5
537
330
6E9
100
AcDbEntity
  8
Level 63
  6
Continuous
 62
     6
370
    13
100
AcDbLine
 10
-777.0131
 20
43.913
 30
0.0
 11
-777.0631
 21
44.139
 31
0.0
  0
LINE
  5
538
330
6E9
100
AcDbEntity
  8
Level 63
  6
Continuous
 62
     2
370
    13
100
AcDbLine
 10
-777.0131
 20
43.913
 30
0.0
 11
-777.1111
 21
44.123
 31
0.0
  0
LINE
  5
539
330
6E9
100
AcDbEntity
  8
Level 63
  6
Continuous
 62
     1
370
    13
100
AcDbLine
 10
-777.0131
 20
43.913
 30
0.0
 11
-777.1531
 21
44.097
 31
0.0
  0
LINE
  5
53A
330
6E9
100
AcDbEntity
  8
Level 63
  6
Continuous
 62
     3
370
    13
100
AcDbLine
 10
-777.0131
 20
43.913
 30
0.0
 11
-777.1891
 21
44.063
 31
0.0
  0
LINE
  5
53B
330
6E9
100
AcDbEntity
  8
Level 63
  6
Continuous
 62
     5
370
    53
100
AcDbLine
 10
-777.0131
 20
43.913
 30
0.0
 11
-777.2171
 21
44.021
 31
0.0
  0
LINE
  5
53C
330
6E9
100
AcDbEntity
  8
Level 63
  6
Continuous
 62
   254
370
    13
100
AcDbLine
 10
-777.0131
 20
43.913
 30
0.0
 11
-777.2371
 21
43.975
 31
0.0
  0
LINE
  5
53D
330
6E9
100
AcDbEntity
  8
Level 63
  6
Continuous
 62
     4
370
    13
100
AcDbLine
 10
-777.0131
 20
43.913
 30
0.0
 11
-777.2451
 21
43.925
 31
0.0
  0
LINE
  5
53E
330
6E9
100
AcDbEntity
  8
Level 63
  6
Continuous
 62
    30
370
    13
100
AcDbLine
 10
-777.0131
 20
43.913
 30
0.0
 11
-777.2411
 21
43.875
 31
0.0
  0
LINE
  5
53F
330
6E9
100
AcDbEntity
  8
Level 63
  6
Continuous
 62
     6
370
    13
100
AcDbLine
 10
-777.0131
 20
43.913
 30
0.0
 11
-777.2291
 21
43.827
 31
0.0
  0
LINE
  5
540
330
6E9
100
AcDbEntity
  8
Level 63
  6
Continuous
 62
     2
370
    53
100
AcDbLine
 10
-777.0131
 20
43.913
 30
0.0
 11
-777.2051
 21
43.783
 31
0.0
  0
LINE
  5
541
330
6E9
100
AcDbEntity
  8
Level 63
  6
Continuous
 62
     1
370
    13
100
AcDbLine
 10
-777.0131
 20
43.913
 30
0.0
 11
-777.1731
 21
43.745
 31
0.0
  0
LINE
  5
542
330
6E9
100
AcDbEntity
  8
Level 63
  6
Continuous
 62
     3
370
    13
100
AcDbLine
 10
-777.0131
 20
43.913
 30
0.0
 11
-777.1331
 21
43.713
 31
0.0
  0
LINE
  5
543
330
6E9
100
AcDbEntity
  8
Level 63
  6
Continuous
 62
     5
370
    13
100
AcDbLine
 10
-777.0131
 20
43.913
 30
0.0
 11
-777.0871
 21
43.693
 31
0.0
  0
LINE
  5
544
330
6E9
100
AcDbEntity
  8
Level 63
  6
Continuous
 62
   254
370
    13
100
AcDbLine
 10
-777.0131
 20
43.913
 30
0.0
 11
-777.0391
 21
43.681
 31
0.0
  0
LINE
  5
545
330
6E9
100
AcDbEntity
  8
Level 63
  6
Continuous
 62
   253
370
    13
100
AcDbLine
 10
-777.0131
 20
43.913
 30
0.0
 11
-776.9871
 21
43.681
 31
0.0
  0
LINE
  5
546
330
6E9
100
AcDbEntity
  8
Level 63
  6
Continuous
 62
   204
370
    13
100
AcDbLine
 10
-777.0131
 20
43.913
 30
0.0
 11
-776.9391
 21
43.693
 31
0.0
  0
LINE
  5
547
330
6E9
100
AcDbEntity
  8
Level 63
  6
Continuous
 62
   120
370
    13
100
AcDbLine
 10
-777.0131
 20
43.913
 30
0.0
 11
-776.8931
 21
43.713
 31
0.0
  0
LINE
  5
548
330
6E9
100
AcDbEntity
  8
Level 63
  6
Continuous
 62
    62
370
    13
100
AcDbLine
 10
-777.0131
 20
43.913
 30
0.0
 11
-776.8531
 21
43.743
 31
0.0
  0
LINE
  5
549
330
6E9
100
AcDbEntity
  8
Level 63
  6
Continuous
 62
   230
370
    53
100
AcDbLine
 10
-777.0131
 20
43.913
 30
0.0
 11
-776.8211
 21
43.781
 31
0.0
  0
LINE
  5
54A
330
6E9
100
AcDbEntity
  8
Level 63
  6
Continuous
 62
     9
370
    13
100
AcDbLine
 10
-777.0131
 20
43.913
 30
0.0
 11
-776.7971
 21
43.827
 31
0.0
  0
LINE
  5
54B
330
6E9
100
AcDbEntity
  8
Level 63
  6
Continuous
 62
   250
370
    13
100
AcDbLine
 10
-777.0131
 20
43.913
 30
0.0
 11
-776.7831
 21
43.875
 31
0.0
  0
LINE
  5
54C
330
6E9
100
AcDbEntity
  8
Level 63
  6
Continuous
 62
     4
370
    13
100
AcDbLine
 10
-777.0131
 20
43.913
 30
0.0
 11
-776.7811
 21
43.925
 31
0.0
  0
LINE
  5
54D
330
6E9
100
AcDbEntity
  8
Level 63
  6
Continuous
 62
    30
370
    13
100
AcDbLine
 10
-777.0131
 20
43.913
 30
0.0
 11
-776.7891
 21
43.975
 31
0.0
  0
LINE
  5
54E
330
6E9
100
AcDbEntity
  8
Level 63
  6
Continuous
 62
     6
370
    53
100
AcDbLine
 10
-777.0131
 20
43.913
 30
0.0
 11
-776.8071
 21
44.021
 31
0.0
  0
LINE
  5
54F
330
6E9
100
AcDbEntity
  8
Level 63
  6
Continuous
 62
     2
370
    13
100
AcDbLine
 10
-777.0131
 20
43.913
 30
0.0
 11
-776.8351
 21
44.063
 31
0.0
  0
LINE
  5
550
330
6E9
100
AcDbEntity
  8
Level 63
  6
Continuous
 62
     1
370
    13
100
AcDbLine
 10
-777.0131
 20
43.913
 30
0.0
 11
-776.8731
 21
44.097
 31
0.0
  0
LINE
  5
551
330
6E9
100
AcDbEntity
  8
Level 63
  6
Continuous
 62
     3
370
    13
100
AcDbLine
 10
-777.0131
 20
43.913
 30
0.0
 11
-776.9151
 21
44.123
 31
0.0
  0
LINE
  5
552
330
6E9
100
AcDbEntity
  8
Level 63
  6
Continuous
 62
     5
370
    13
100
AcDbLine
 10
-777.0131
 20
43.913
 30
0.0
 11
-776.9631
 21
44.139
 31
0.0
  0
TEXT
  5
553
330
6E9
100
AcDbEntity
  8
Level 63
  6
Continuous
 62
     1
370
    13
100
AcDbText
 10
-777.0191
 20
44.163
 30
0.0
 40
0.033444
  1
0
 41
0.759598
  7
Style-ENGINEERING
 72
     1
 11
-777.010681
 21
44.179722
 31
0.0
100
AcDbText
 73
     2
  0
TEXT
  5
554
330
6E9
100
AcDbEntity
  8
Level 63
  6
Continuous
 62
     1
370
    13
100
AcDbText
 10
-776.7851
 20
44.015
 30
0.0
 40
0.033384
  1
5
 50
27.839281
 41
0.758447
  7
Style-ENGINEERING
 72
     1
 11
-776.778541
 21
44.018464
 31
0.0
100
AcDbText
  0
TEXT
  5
555
330
6E9
100
AcDbEntity
  8
Level 63
  6
Continuous
 62
     1
370
    13
100
AcDbText
 10
-776.8191
 20
43.761
 30
0.0
 40
0.033359
  1
10
 50
325.788931
 41
0.758629
  7
Style-ENGINEERING
 72
     1
 11
-776.8017
 21
43.74917
 31
0.0
100
AcDbText
  0
TEXT
  5
556
330
6E9
100
AcDbEntity
  8
Level 63
  6
Continuous
 62
     1
370
    13
100
AcDbText
 10
-777.0331
 20
43.629
 30
0.0
 40
0.033384
  1
15
 41
0.758447
  7
Style-ENGINEERING
 72
     1
 11
-777.013022
 21
43.645692
 31
0.0
100
AcDbText
 73
     2
  0
TEXT
  5
557
330
6E9
100
AcDbEntity
  8
Level 63
  6
Continuous
 62
     1
370
    13
100
AcDbText
 10
-777.2431
 20
43.737
 30
0.0
 40
0.033384
  1
20
 50
34.0999
 41
0.758447
  7
Style-ENGINEERING
 72
     1
 11
-777.225668
 21
43.748802
 31
0.0
100
AcDbText
  0
TEXT
  5
558
330
6E9
100
AcDbEntity
  8
Level 63
  6
Continuous
 62
     1
370
    13
100
AcDbText
 10
-776.9611
 20
44.149
 30
0.0
 40
0.033384
  1
1
 41
0.758447
  7
Style-ENGINEERING
 72
     1
 11
-776.956879
 21
44.165692
 31
0.0
100
AcDbText
 73
     2
  0
TEXT
  5
559
330
6E9
100
AcDbEntity
  8
Level 63
  6
Continuous
 62
     1
370
     0
100
AcDbText
 10
-777.3871
 20
43.501
 30
0.0
 40
0.072276
  1
COLOR WHEEL (STD.TBL)
 41
0.758924
  7
Style-COMPRESSED
 72
     1
 11
-777.021924
 21
43.573276
 31
0.0
100
AcDbText
 73
     3
  0
TEXT
  5
55A
330
6E9
100
AcDbEntity
  8
Level 63
  6
Continuous
 62
     1
370
    13
100
AcDbText
 10
-777.2711
 20
44.035
 30
0.0
 40
0.033384
  1
25
 50
332.053069
 41
0.758447
  7
Style-ENGINEERING
 72
     1
 11
-777.253363
 21
44.02559
 31
0.0
100
AcDbText
  0
TEXT
  5
55B
330
6E9
100
AcDbEntity
  8
Level 63
  6
Continuous
 62
     1
370
    13
100
AcDbText
 10
-777.0871
 20
44.153
 30
0.0
 40
0.033396
  1
29
 41
0.754222
  7
Style-ENGINEERING
 72
     1
 11
-777.067159
 21
44.153
 31
0.0
100
AcDbText
  0
TEXT
  5
563
330
6E9
100
AcDbEntity
  8
Level 47
  6
Continuous
 62
     7
370
     0
100
AcDbText
 10
-782.3371
 20
44.265
 30
0.0
 40
0.068904
  1
LABELS, AND SECT. REFERENCES
  7
Style-CHAR_FAST_FONT
 11
-782.3371
 21
44.299452
 31
0.0
100
AcDbText
 73
     2
  0
TEXT
  5
564
330
6E9
100
AcDbEntity
  8
Level 47
  6
Continuous
 62
     7
370
     0
100
AcDbText
 10
-782.3271
 20
43.997
 30
0.0
 40
0.09732
  1
SUBTITLES
  7
Style-CHAR_FAST_FONT
 11
-782.3271
 21
44.04566
 31
0.0
100
AcDbText
 73
     2
  0
TEXT
  5
565
330
6E9
100
AcDbEntity
  8
Level 47
  6
Continuous
 62
     7
370
     0
100
AcDbText
 10
-782.3271
 20
43.815
 30
0.0
 40
0.110604
  1
MAIN TITLES
  7
Style-CHAR_FAST_FONT
 11
-782.3271
 21
43.870302
 31
0.0
100
AcDbText
 73
     2
  0
TEXT
  5
566
330
6E9
100
AcDbEntity
  8
Level 47
  6
Continuous
 62
     7
370
     0
100
AcDbText
 10
-782.3311
 20
44.137
 30
0.0
 40
0.079176
  1
DETAIL AND NOTE REFERENCES
  7
Style-CHAR_FAST_FONT
 11
-782.3311
 21
44.176588
 31
0.0
100
AcDbText
 73
     2
  0
TEXT
  5
567
330
6E9
100
AcDbEntity
  8
Level 46
  6
Continuous
 62
     7
370
    13
100
AcDbText
 10
-782.3191
 20
43.497
 30
0.0
 40
0.078612
  1
Freehand style
  7
Style-ITALICS
 11
-782.3191
 21
43.536306
 31
0.0
100
AcDbText
 73
     2
  0
LINE
  5
568
330
6E9
100
AcDbEntity
  8
Level 47
  6
Continuous
 62
     7
370
    40
100
AcDbLine
 10
-782.3171
 20
43.785
 30
0.0
 11
-781.3771
 21
43.785
 31
0.0
  0
LINE
  5
569
330
6E9
100
AcDbEntity
  8
Level 47
  6
Continuous
 62
     7
370
    40
100
AcDbLine
 10
-782.3191
 20
43.977
 30
0.0
 11
-781.6571
 21
43.977
 31
0.0
  0
ARC
  5
56A
330
6E9
100
AcDbEntity
  8
Level 46
  6
Continuous
 62
     7
370
     0
100
AcDbCircle
 10
781.405503
 20
43.040909
 30
0.0
 40
0.4945054020163926
210
0.0
220
0.0
230
-1.0
100
AcDbArc
 50
76.962117
 51
104.245044
  0
HATCH
  5
56B
330
6E9
100
AcDbEntity
  8
Level 46
  6
Continuous
 62
     7
370
    13
100
AcDbHatch
 10
0.0
 20
0.0
 30
0.0
210
0.0
220
0.0
230
1.0
  2
SOLID
 70
     1
 71
     0
 91
        1
 92
        3
 72
     0
 73
     1
 93
        9
 10
-781.2851
 20
43.51900000000001
 10
-781.3651
 20
43.525
 10
-781.3591
 20
43.527
 10
-781.3571000000001
 20
43.529
 10
-781.3551
 20
43.533
 10
-781.3551
 20
43.535
 10
-781.3551
 20
43.537
 10
-781.3571000000001
 20
43.543
 10
-781.3591
 20
43.547
 97
        0
 75
     0
 76
     1
 98
        0
  0
CIRCLE
  5
56C
330
6E9
100
AcDbEntity
  8
Level 46
  6
Continuous
 62
     7
370
     0
100
AcDbCircle
 10
-781.326033
 20
43.529093
 30
0.0
 40
0.0633101016155107
  0
LINE
  5
56D
330
6E9
100
AcDbEntity
  8
Level 46
  6
Continuous
 62
     7
370
    40
100
AcDbLine
 10
-781.1351
 20
43.519
 30
0.0
 11
-780.9171
 21
43.519
 31
0.0
  0
SOLID
  5
56E
330
6E9
100
AcDbEntity
  8
Level 46
  6
Continuous
 62
     7
370
    13
100
AcDbTrace
 10
781.1711
 20
43.519
 30
0.0
 11
781.0871
 21
43.543
 31
0.0
 12
781.0871
 22
43.497
 32
0.0
 13
781.0871
 23
43.497
 33
0.0
210
0.0
220
0.0
230
-1.0
  0
MTEXT
  5
56F
330
6E9
100
AcDbEntity
  8
Level 46
  6
Continuous
 62
     7
370
     0
100
AcDbMText
 10
-781.2151
 20
43.31144
 30
0.0
 40
0.04536
 41
0.0
 71
     4
 72
     1
  1
Arrow\Psizes\P
  7
Style-WORKING
 73
     2
 44
1.000829
  0
ARC
  5
572
330
6E9
100
AcDbEntity
  8
Level 46
  6
Continuous
 62
     7
370
     0
100
AcDbCircle
 10
781.102111
 20
43.555354
 30
0.0
 40
0.2306090157229863
210
0.0
220
0.0
230
-1.0
100
AcDbArc
 50
304.574164
 51
337.396683
  0
CIRCLE
  5
573
330
6E9
100
AcDbEntity
  8
Level 46
  6
Continuous
 62
     7
370
     0
100
AcDbCircle
 10
-781.12379
 20
43.518698
 30
0.0
 40
0.0633101016155107
  0
ARC
  5
574
330
6E9
100
AcDbEntity
  8
Level 46
  6
Continuous
 62
     7
370
     0
100
AcDbCircle
 10
781.087279
 20
43.366214
 30
0.0
 40
0.1456986246784501
210
0.0
220
0.0
230
-1.0
100
AcDbArc
 50
359.708039
 51
52.726975
  0
TEXT
  5
575
330
6E9
100
AcDbEntity
  8
Level 46
  6
Continuous
 62
     7
370
     0
100
AcDbText
 10
-782.3311
 20
44.363
 30
0.0
 40
0.045
  1
SMALL LABELS (USE SPARINGLY)
  7
Style-WORKING
 11
-782.3311
 21
44.3855
 31
0.0
100
AcDbText
 73
     2
  0
TEXT
  5
576
330
6E9
100
AcDbEntity
  8
Level 46
  6
Continuous
 62
     1
370
    13
100
AcDbText
 10
-779.6571
 20
43.869
 30
0.0
 40
0.05952
  1
ARCH. FREEHAND
  7
Style-FANCY
 11
-779.6571
 21
43.89876
 31
0.0
100
AcDbText
 73
     2
  0
TEXT
  5
577
330
6E9
100
AcDbEntity
  8
Level 46
  6
Continuous
 62
     1
370
    13
100
AcDbText
 10
-780.3671
 20
43.869
 30
0.0
 40
0.074424
  1
Freehand
  7
Style-ITALICS
 11
-780.3671
 21
43.906212
 31
0.0
100
AcDbText
 73
     2
  0
TEXT
  5
578
330
6E9
100
AcDbEntity
  8
Level 47
  6
Continuous
 62
    30
370
    53
100
AcDbText
 10
-780.3611
 20
44.009
 30
0.0
 40
0.095604
  1
200---MAIN TITLES
  7
Style-FANCY
 11
-780.3611
 21
44.056802
 31
0.0
100
AcDbText
 73
     2
  0
TEXT
  5
579
330
6E9
100
AcDbEntity
  8
Level 47
  6
Continuous
 62
    30
370
    40
100
AcDbText
 10
-780.3811
 20
44.147
 30
0.0
 40
0.083556
  1
175---SUB TITLES
  7
Style-FANCY
 11
-780.3811
 21
44.188778
 31
0.0
100
AcDbText
 73
     2
  0
TEXT
  5
57A
330
6E9
100
AcDbEntity
  8
Level 46
  6
Continuous
 62
     1
370
    40
100
AcDbText
 10
-779.1411
 20
44.267
 30
0.0
 40
0.066972
  1
140
  7
Style-FANCY
 11
-779.1411
 21
44.300486
 31
0.0
100
AcDbText
 73
     2
  0
TEXT
  5
57B
330
6E9
100
AcDbEntity
  8
Level 48
  6
Continuous
 62
     1
370
    13
100
AcDbText
 10
-779.4751
 20
44.275
 30
0.0
 40
0.057252
  1
120
  7
Style-FANCY
 11
-779.4751
 21
44.303626
 31
0.0
100
AcDbText
 73
     2
  0
TEXT
  5
57C
330
6E9
100
AcDbEntity
  8
Level 46
  6
Continuous
 62
     1
370
    40
100
AcDbText
 10
-780.3771
 20
44.395
 30
0.0
 40
0.083556
  1
CORPS TEXT STANDARDS
  7
Style-FANCY
 11
-780.3771
 21
44.436778
 31
0.0
100
AcDbText
 73
     2
  0
TEXT
  5
57D
330
6E9
100
AcDbEntity
  8
Level 46
  6
Continuous
 62
     1
370
     0
100
AcDbText
 10
-780.3591
 20
44.275
 30
0.0
 40
0.042936
  1
90--(RARELY USED)
  7
Style-FANCY
 11
-780.3591
 21
44.296468
 31
0.0
100
AcDbText
 73
     2
  0
TEXT
  5
57E
330
6E9
100
AcDbEntity
  8
Level 46
  6
Continuous
 62
     1
370
     0
100
AcDbText
 10
-780.3571
 20
43.773
 30
0.0
 40
0.042936
  1
N0.'S ARE WRICO EQUIVALENTS
  7
Style-FANCY
 11
-780.3571
 21
43.794468
 31
0.0
100
AcDbText
 73
     2
  0
TEXT
  5
57F
330
6E9
100
AcDbEntity
  8
Level 46
  6
Continuous
 62
     1
370
     0
100
AcDbText
 10
-780.3591
 20
43.705
 30
0.0
 40
0.042936
  1
FOR DRAFTING'S REFERENCE
  7
Style-FANCY
 11
-780.3591
 21
43.726468
 31
0.0
100
AcDbText
 73
     2
  0
LINE
  5
580
330
6E9
100
AcDbEntity
  8
Level 46
  6
Continuous
 62
     1
370
    40
100
AcDbLine
 10
-780.3751
 20
44.365
 30
0.0
 11
-778.8071
 21
44.365
 31
0.0
  0
MTEXT
  5
581
330
6E9
100
AcDbEntity
  8
Level 46
  6
DGN Style 1
 62
     1
370
    13
100
AcDbMText
 10
-780.3571
 20
43.637
 30
0.0
 40
0.074424
 41
0.0
 71
     1
 72
     1
  1
Freehand \Ptext LV=46\P
  7
Style-ITALICS
 73
     2
 44
0.877616
  0
MTEXT
  5
584
330
6E9
100
AcDbEntity
  8
Level 47
  6
DGN Style 1
 62
    30
370
    53
100
AcDbMText
 10
-779.806012
 20
43.229066
 30
0.0
 40
0.095604
 41
0.0
 71
     5
 72
     1
  1
200 MAIN TITLE\PLEVEL = 47\P
  7
Style-FANCY
 73
     2
 44
0.89226
  0
MTEXT
  5
587
330
6E9
100
AcDbEntity
  8
Level 41
  6
Continuous
 62
     6
370
    40
100
AcDbMText
 10
-778.9451
 20
43.299
 30
0.0
 40
0.066972
 41
0.0
 71
     1
 72
     1
  1
MATCHLINE AREA X\PSEE SHEET SX\P
  7
Style-FANCY
 73
     2
 44
0.890248
  0
MTEXT
  5
58A
330
6E9
100
AcDbEntity
  8
Level 46
  6
Continuous
 62
     1
370
    13
100
AcDbMText
 10
-779.7131
 20
43.617
 30
0.0
 40
0.06
 41
0.0
 71
     1
 72
     1
  1
ARCH FREEHAND\PLEVEL=46\P
  7
Style-FANCY
 73
     2
 44
1.004016
  0
TEXT
  5
58D
330
6E9
100
AcDbEntity
  8
Level 46
  6
Continuous
 62
     7
370
    13
100
AcDbText
 10
-782.3211
 20
43.645
 30
0.0
 40
0.062004
  1
2.5MM ENGR. FONT 3 (EQUAL TILE)
 41
0.870912
  7
Style-ENGINEERING
 11
-782.3211
 21
43.676002
 31
0.0
100
AcDbText
 73
     2
  0
TEXT
  5
58E
330
6E9
100
AcDbEntity
  8
Level 46
  6
Continuous
 62
     7
370
    13
100
AcDbText
 10
-782.3251
 20
43.355
 30
0.0
 40
0.062004
  1
ARCHITECTURAL FT=2
  7
Style-FANCY
 11
-782.3251
 21
43.386002
 31
0.0
100
AcDbText
 73
     2
  0
LINE
  5
5FB
330
6E9
100
AcDbEntity
  8
Level 10
  6
Continuous
 62
     7
370
    13
100
AcDbLine
 10
-794.1322
 20
50.823
 30
0.0
 11
-794.1322
 21
51.471
 31
0.0
  0
LINE
  5
5FC
330
6E9
100
AcDbEntity
  8
Level 10
  6
Continuous
 62
     7
370
    13
100
AcDbLine
 10
-793.8274
 20
50.823
 30
0.0
 11
-793.8274
 21
51.471
 31
0.0
  0
LINE
  5
5FD
330
6E9
100
AcDbEntity
  8
Level 10
  6
Continuous
 62
     7
370
    13
100
AcDbLine
 10
-793.8844
 20
50.9409
 30
0.0
 11
-793.9132
 21
50.9409
 31
0.0
  0
LINE
  5
5FE
330
6E9
100
AcDbEntity
  8
Level 10
  6
Continuous
 62
     7
370
    13
100
AcDbLine
 10
-794.0464
 20
50.9409
 30
0.0
 11
-794.0749
 21
50.9409
 31
0.0
  0
LINE
  5
5FF
330
6E9
100
AcDbEntity
  8
Level 10
  6
Continuous
 62
     7
370
    13
100
AcDbLine
 10
-793.9132
 20
50.9409
 30
0.0
 11
-793.9132
 21
50.9724
 31
0.0
  0
LINE
  5
600
330
6E9
100
AcDbEntity
  8
Level 10
  6
Continuous
 62
     7
370
    13
100
AcDbLine
 10
-793.9132
 20
51.354
 30
0.0
 11
-793.9132
 21
51.3849
 31
0.0
  0
LINE
  5
601
330
6E9
100
AcDbEntity
  8
Level 10
  6
Continuous
 62
     7
370
    13
100
AcDbLine
 10
-793.8844
 20
50.9409
 30
0.0
 11
-793.8844
 21
50.9724
 31
0.0
  0
LINE
  5
602
330
6E9
100
AcDbEntity
  8
Level 10
  6
Continuous
 62
     7
370
    13
100
AcDbLine
 10
-793.8844
 20
51.354
 30
0.0
 11
-793.8844
 21
51.3849
 31
0.0
  0
LINE
  5
603
330
6E9
100
AcDbEntity
  8
Level 10
  6
Continuous
 62
     7
370
    13
100
AcDbLine
 10
-794.0464
 20
50.9409
 30
0.0
 11
-794.0464
 21
50.9724
 31
0.0
  0
LINE
  5
604
330
6E9
100
AcDbEntity
  8
Level 10
  6
Continuous
 62
     7
370
    13
100
AcDbLine
 10
-794.0464
 20
51.354
 30
0.0
 11
-794.0464
 21
51.3849
 31
0.0
  0
LINE
  5
605
330
6E9
100
AcDbEntity
  8
Level 10
  6
Continuous
 62
     7
370
    13
100
AcDbLine
 10
-794.0749
 20
50.9409
 30
0.0
 11
-794.0749
 21
50.9724
 31
0.0
  0
LINE
  5
606
330
6E9
100
AcDbEntity
  8
Level 10
  6
Continuous
 62
     7
370
    13
100
AcDbLine
 10
-794.0749
 20
51.354
 30
0.0
 11
-794.0749
 21
51.3849
 31
0.0
  0
LINE
  5
607
330
6E9
100
AcDbEntity
  8
Level 10
  6
Continuous
 62
     7
370
    13
100
AcDbLine
 10
-793.8844
 20
50.9724
 30
0.0
 11
-793.9132
 21
50.9724
 31
0.0
  0
LINE
  5
608
330
6E9
100
AcDbEntity
  8
Level 10
  6
Continuous
 62
     7
370
    13
100
AcDbLine
 10
-794.0464
 20
50.9724
 30
0.0
 11
-794.0749
 21
50.9724
 31
0.0
  0
LINE
  5
609
330
6E9
100
AcDbEntity
  8
Level 10
  6
Continuous
 62
     7
370
    13
100
AcDbLine
 10
-794.0464
 20
51.354
 30
0.0
 11
-794.0749
 21
51.354
 31
0.0
  0
LINE
  5
60A
330
6E9
100
AcDbEntity
  8
Level 10
  6
Continuous
 62
     7
370
    13
100
AcDbLine
 10
-793.8844
 20
51.354
 30
0.0
 11
-793.9132
 21
51.354
 31
0.0
  0
LINE
  5
60B
330
6E9
100
AcDbEntity
  8
Level 10
  6
Continuous
 62
     7
370
    13
100
AcDbLine
 10
-794.0464
 20
51.3849
 30
0.0
 11
-794.0749
 21
51.3849
 31
0.0
  0
LINE
  5
60C
330
6E9
100
AcDbEntity
  8
Level 10
  6
Continuous
 62
     7
370
    13
100
AcDbLine
 10
-793.8844
 20
51.3849
 30
0.0
 11
-793.9132
 21
51.3849
 31
0.0
  0
LINE
  5
60D
330
6E9
100
AcDbEntity
  8
Level 10
  6
Continuous
 62
     7
370
    13
100
AcDbLine
 10
-793.8274
 20
51.3564
 30
0.0
 11
-793.8844
 21
51.3564
 31
0.0
  0
LINE
  5
60E
330
6E9
100
AcDbEntity
  8
Level 10
  6
Continuous
 62
     7
370
    13
100
AcDbLine
 10
-793.9132
 20
51.3564
 30
0.0
 11
-794.0464
 21
51.3564
 31
0.0
  0
LINE
  5
60F
330
6E9
100
AcDbEntity
  8
Level 10
  6
Continuous
 62
     7
370
    13
100
AcDbLine
 10
-794.0749
 20
51.3564
 30
0.0
 11
-794.1322
 21
51.3564
 31
0.0
  0
LINE
  5
610
330
6E9
100
AcDbEntity
  8
Level 10
  6
Continuous
 62
     7
370
    13
100
AcDbLine
 10
-793.8274
 20
51.471
 30
0.0
 11
-794.1322
 21
51.471
 31
0.0
  0
LINE
  5
611
330
6E9
100
AcDbEntity
  8
Level 10
  6
Continuous
 62
     7
370
    13
100
AcDbLine
 10
-793.9654
 20
51.4233
 30
0.0
 11
-793.9942
 21
51.4233
 31
0.0
  0
LINE
  5
612
330
6E9
100
AcDbEntity
  8
Level 10
  6
Continuous
 62
     7
370
    13
100
AcDbLine
 10
-793.9654
 20
51.3945
 30
0.0
 11
-793.9942
 21
51.3945
 31
0.0
  0
LINE
  5
613
330
6E9
100
AcDbEntity
  8
Level 10
  6
Continuous
 62
     7
370
    13
100
AcDbLine
 10
-793.9654
 20
50.871
 30
0.0
 11
-793.9654
 21
50.8995
 31
0.0
  0
LINE
  5
614
330
6E9
100
AcDbEntity
  8
Level 10
  6
Continuous
 62
     7
370
    13
100
AcDbLine
 10
-793.9654
 20
51.3945
 30
0.0
 11
-793.9654
 21
51.4233
 31
0.0
  0
LINE
  5
615
330
6E9
100
AcDbEntity
  8
Level 10
  6
Continuous
 62
     7
370
    13
100
AcDbLine
 10
-793.9942
 20
50.871
 30
0.0
 11
-793.9942
 21
50.8995
 31
0.0
  0
LINE
  5
616
330
6E9
100
AcDbEntity
  8
Level 10
  6
Continuous
 62
     7
370
    13
100
AcDbLine
 10
-793.9942
 20
51.3945
 30
0.0
 11
-793.9942
 21
51.4233
 31
0.0
  0
LINE
  5
617
330
6E9
100
AcDbEntity
  8
Level 10
  6
Continuous
 62
     7
370
    13
100
AcDbLine
 10
-793.8274
 20
50.823
 30
0.0
 11
-794.1322
 21
50.823
 31
0.0
  0
LINE
  5
618
330
6E9
100
AcDbEntity
  8
Level 10
  6
Continuous
 62
     7
370
    13
100
AcDbLine
 10
-793.9654
 20
50.871
 30
0.0
 11
-793.9942
 21
50.871
 31
0.0
  0
LINE
  5
619
330
6E9
100
AcDbEntity
  8
Level 10
  6
Continuous
 62
     7
370
    13
100
AcDbLine
 10
-793.9654
 20
50.8995
 30
0.0
 11
-793.9942
 21
50.8995
 31
0.0
  0
LINE
  5
61A
330
6E9
100
AcDbEntity
  8
Level 10
  6
Continuous
 62
     7
370
    13
100
AcDbLine
 10
-793.9654
 20
51.177
 30
0.0
 11
-793.9942
 21
51.177
 31
0.0
  0
LINE
  5
61B
330
6E9
100
AcDbEntity
  8
Level 10
  6
Continuous
 62
     7
370
    13
100
AcDbLine
 10
-793.9654
 20
51.2079
 30
0.0
 11
-793.9942
 21
51.2079
 31
0.0
  0
LINE
  5
61C
330
6E9
100
AcDbEntity
  8
Level 10
  6
Continuous
 62
     7
370
    13
100
AcDbLine
 10
-793.9942
 20
51.177
 30
0.0
 11
-793.9942
 21
51.2079
 31
0.0
  0
LINE
  5
61D
330
6E9
100
AcDbEntity
  8
Level 10
  6
Continuous
 62
     7
370
    13
100
AcDbLine
 10
-793.9654
 20
51.177
 30
0.0
 11
-793.9654
 21
51.2079
 31
0.0
  0
LINE
  5
61E
330
6E9
100
AcDbEntity
  8
Level 10
  6
Continuous
 62
     7
370
    40
100
AcDbLine
 10
-794.0464
 20
50.9409
 30
0.0
 11
-794.0749
 21
50.9724
 31
0.0
  0
LINE
  5
61F
330
6E9
100
AcDbEntity
  8
Level 10
  6
Continuous
 62
     7
370
    40
100
AcDbLine
 10
-794.0749
 20
50.9409
 30
0.0
 11
-794.0464
 21
50.9724
 31
0.0
  0
LINE
  5
620
330
6E9
100
AcDbEntity
  8
Level 10
  6
Continuous
 62
     7
370
    40
100
AcDbLine
 10
-793.9132
 20
50.9409
 30
0.0
 11
-793.8844
 21
50.9724
 31
0.0
  0
LINE
  5
621
330
6E9
100
AcDbEntity
  8
Level 10
  6
Continuous
 62
     7
370
    40
100
AcDbLine
 10
-793.8844
 20
50.9409
 30
0.0
 11
-793.9132
 21
50.9724
 31
0.0
  0
LINE
  5
622
330
6E9
100
AcDbEntity
  8
Level 10
  6
Continuous
 62
     7
370
    40
100
AcDbLine
 10
-794.0749
 20
51.354
 30
0.0
 11
-794.0464
 21
51.3849
 31
0.0
  0
LINE
  5
623
330
6E9
100
AcDbEntity
  8
Level 10
  6
Continuous
 62
     7
370
    40
100
AcDbLine
 10
-794.0464
 20
51.354
 30
0.0
 11
-794.0749
 21
51.3849
 31
0.0
  0
LINE
  5
624
330
6E9
100
AcDbEntity
  8
Level 10
  6
Continuous
 62
     7
370
    40
100
AcDbLine
 10
-793.9132
 20
51.354
 30
0.0
 11
-793.8844
 21
51.3849
 31
0.0
  0
LINE
  5
625
330
6E9
100
AcDbEntity
  8
Level 10
  6
Continuous
 62
     7
370
    40
100
AcDbLine
 10
-793.8844
 20
51.354
 30
0.0
 11
-793.9132
 21
51.3849
 31
0.0
  0
MTEXT
  5
1DC
330
6E9
100
AcDbEntity
  8
Level 46
  6
Continuous
 62
     7
370
    13
100
AcDbMText
 10
-796.66495
 20
50.3765
 30
0.0
 40
0.06
 41
0.0
 71
     1
 72
     1
  1
SOLID BASE\PSLIDE PLATES\P
  7
Style-Arial
 73
     2
 44
0.779643
  0
TEXT
  5
1DF
330
6E9
100
AcDbEntity
  8
Level 46
  6
Continuous
 62
     7
370
    13
100
AcDbText
 10
-797.523
 20
50.2706
 30
0.0
 40
0.06
  1
GAGE PLATES
  7
Style-Arial
 11
-797.523
 21
50.3306
 31
0.0
100
AcDbText
 73
     3
  0
MTEXT
  5
1E0
330
6E9
100
AcDbEntity
  8
Level 46
  6
Continuous
 62
     7
370
    13
100
AcDbMText
 10
-798.265191
 20
50.3756
 30
0.0
 40
0.06
 41
0.0
 71
     1
 72
     1
  1
TIE PLATES\PAHEAD OF\PSWITCH\P
  7
Style-Arial
 73
     2
 44
0.779643
  0
MTEXT
  5
21B
330
6E9
100
AcDbEntity
  8
Level 46
  6
Continuous
 62
     7
370
    13
100
AcDbMText
 10
-795.80645
 20
50.363
 30
0.0
 40
0.06
 41
0.0
 71
     1
 72
     1
  1
SHOULDER\PSLIDE AND\PHEEL PLATES\P
  7
Style-Arial
 73
     2
 44
0.779643
  0
MTEXT
  5
3AA
330
6E9
100
AcDbEntity
  8
Level 46
  6
Continuous
 62
     7
370
    13
100
AcDbMText
 10
-793.424734
 20
50.1485
 30
0.0
 40
0.06
 41
0.0
 71
     1
 72
     1
  1
HOOK TWIN\PTIE PLATES\P
  7
Style-Arial
 73
     2
 44
0.779643
  0
TEXT
  5
3F3
330
6E9
100
AcDbEntity
  8
Level 46
  6
Continuous
 62
     7
370
    13
100
AcDbText
 10
-797.312357
 20
54.4784
 30
0.0
 40
0.06
  1
SWITCH PLATE AREA
  7
Style-Arial
 11
-797.312357
 21
54.5384
 31
0.0
100
AcDbText
 73
     3
  0
TEXT
  5
3F4
330
6E9
100
AcDbEntity
  8
Level 46
  6
Continuous
 62
     7
370
    13
100
AcDbText
 10
-794.3617
 20
54.457705
 30
0.0
 40
0.06
  1
FROG PLATE AREA
  7
Style-Arial
 11
-794.3617
 21
54.517705
 31
0.0
100
AcDbText
 73
     3
  0
MTEXT
  5
420
330
6E9
100
AcDbEntity
  8
Level 46
  6
Continuous
 62
     7
370
    13
100
AcDbMText
 10
-794.208234
 20
50.1539
 30
0.0
 40
0.06
 41
0.0
 71
     1
 72
     1
  1
GUARDRAIL\PTIE PLATES\P
  7
Style-Arial
 73
     2
 44
0.779643
  0
MTEXT
  5
423
330
6E9
100
AcDbEntity
  8
Level 46
  6
Continuous
 62
     7
370
    13
100
AcDbMText
 10
-798.1151
 20
51.714409
 30
0.0
 40
0.06
 41
0.0
 71
     1
 72
     1
  1
USE THIS PATTERN IN THE 5 TIES\PAHEAD OF THE POINT OF SWITCH\P
  7
Style-Arial
 11
6.123031769111886E-17
 21
1.0
 31
0.0
 73
     2
 44
0.779643
  0
MTEXT
  5
42C
330
6E9
100
AcDbEntity
  8
Level 46
  6
Continuous
 62
     7
370
    13
100
AcDbMText
 10
-792.943161
 20
50.678582
 30
0.0
 40
0.06
 41
0.0
 71
     1
 72
     1
  1
HOOKS ON FIELD SIDE\PGAGE SPIKE AGAINST BASE\P
  7
Style-Arial
 11
6.123031769111886E-17
 21
1.0
 31
0.0
 73
     2
 44
0.779643
  0
TEXT
  5
431
330
6E9
100
AcDbEntity
  8
Level 46
  6
Continuous
 62
     7
370
    13
100
AcDbText
 10
-796.1789
 20
49.513804
 30
0.0
 40
0.06
  1
NO SCALE
  7
Style-Arial
 11
-796.1789
 21
49.573804
 31
0.0
100
AcDbText
 73
     3
  0
TEXT
  5
432
330
6E9
100
AcDbEntity
  8
Level 46
  6
Continuous
 62
     7
370
    13
100
AcDbText
 10
-797.9411
 20
49.8359
 30
0.0
 40
0.06
  1
SPIKE LOCATION
  7
Style-Arial
 11
-797.9411
 21
49.8959
 31
0.0
100
AcDbText
 73
     3
  0
TEXT
  5
482
330
6E9
100
AcDbEntity
  8
Level 1
  6
Continuous
 62
     7
370
     0
100
AcDbText
 10
-798.158658
 20
55.206002
 30
0.0
 40
0.06
  1
A
  7
Style-Arial
 11
-798.158658
 21
55.266002
 31
0.0
100
AcDbText
 73
     3
  0
TEXT
  5
49F
330
6E9
100
AcDbEntity
  8
Level 1
  6
Continuous
 62
     7
370
     0
100
AcDbText
 10
-796.286658
 20
55.206002
 30
0.0
 40
0.06
  1
B
  7
Style-Arial
 11
-796.286658
 21
55.266002
 31
0.0
100
AcDbText
 73
     3
  0
TEXT
  5
4A0
330
6E9
100
AcDbEntity
  8
Level 1
  6
Continuous
 62
     7
370
     0
100
AcDbText
 10
-794.418658
 20
55.206002
 30
0.0
 40
0.06
  1
C
  7
Style-Arial
 11
-794.418658
 21
55.266002
 31
0.0
100
AcDbText
 73
     3
  0
TEXT
  5
4A1
330
6E9
100
AcDbEntity
  8
Level 1
  6
Continuous
 62
     7
370
     0
100
AcDbText
 10
-792.548658
 20
55.206002
 30
0.0
 40
0.06
  1
D
  7
Style-Arial
 11
-792.548658
 21
55.266002
 31
0.0
100
AcDbText
 73
     3
  0
TEXT
  5
4A3
330
6E9
100
AcDbEntity
  8
Level 1
  6
Continuous
 62
     7
370
     0
100
AcDbText
 10
-799.146658
 20
52.286002
 30
0.0
 40
0.06
  1
5
  7
Style-Arial
 11
-799.146658
 21
52.346002
 31
0.0
100
AcDbText
 73
     3
  0
TEXT
  5
4A4
330
6E9
100
AcDbEntity
  8
Level 1
  6
Continuous
 62
     7
370
     0
100
AcDbText
 10
-799.148658
 20
50.386002
 30
0.0
 40
0.06
  1
4
  7
Style-Arial
 11
-799.148658
 21
50.446002
 31
0.0
100
AcDbText
 73
     3
  0
TEXT
  5
4A5
330
6E9
100
AcDbEntity
  8
Level 1
  6
Continuous
 62
     7
370
     0
100
AcDbText
 10
-799.146658
 20
48.486002
 30
0.0
 40
0.06
  1
3
  7
Style-Arial
 11
-799.146658
 21
48.546002
 31
0.0
100
AcDbText
 73
     3
  0
TEXT
  5
4A6
330
6E9
100
AcDbEntity
  8
Level 1
  6
Continuous
 62
     7
370
     0
100
AcDbText
 10
-799.146658
 20
46.586002
 30
0.0
 40
0.06
  1
2
  7
Style-Arial
 11
-799.146658
 21
46.646002
 31
0.0
100
AcDbText
 73
     3
  0
TEXT
  5
4A7
330
6E9
100
AcDbEntity
  8
Level 1
  6
Continuous
 62
     7
370
     0
100
AcDbText
 10
-799.132658
 20
44.686002
 30
0.0
 40
0.06
  1
1
  7
Style-Arial
 11
-799.132658
 21
44.746002
 31
0.0
100
AcDbText
 73
     3
  0
TEXT
  5
4AC
330
6E9
100
AcDbEntity
  8
Level 1
  6
Continuous
 62
     7
370
     0
100
AcDbText
 10
-790.670658
 20
55.206002
 30
0.0
 40
0.06
  1
E
  7
Style-Arial
 11
-790.670658
 21
55.266002
 31
0.0
100
AcDbText
 73
     3
  0
TEXT
  5
4AD
330
6E9
100
AcDbEntity
  8
Level 1
  6
Continuous
 62
     7
370
     0
100
AcDbText
 10
-788.800658
 20
55.206002
 30
0.0
 40
0.06
  1
F
  7
Style-Arial
 11
-788.800658
 21
55.266002
 31
0.0
100
AcDbText
 73
     3
  0
TEXT
  5
4AE
330
6E9
100
AcDbEntity
  8
Level 1
  6
Continuous
 62
     7
370
     0
100
AcDbText
 10
-786.940658
 20
55.206002
 30
0.0
 40
0.06
  1
G
  7
Style-Arial
 11
-786.940658
 21
55.266002
 31
0.0
100
AcDbText
 73
     3
  0
TEXT
  5
4AF
330
6E9
100
AcDbEntity
  8
Level 1
  6
Continuous
 62
     7
370
     0
100
AcDbText
 10
-785.066658
 20
55.206002
 30
0.0
 40
0.06
  1
H
  7
Style-Arial
 11
-785.066658
 21
55.266002
 31
0.0
100
AcDbText
 73
     3
  0
TEXT
  5
4B8
330
6E9
100
AcDbEntity
  8
Level 1
  6
Continuous
 62
     7
370
     0
100
AcDbText
 10
-783.752967
 20
47.907
 30
0.0
 40
0.06
  1
Dwn by:
 50
90.0
  7
Style-Arial
 11
-783.812967
 21
47.907
 31
0.0
100
AcDbText
 73
     3
  0
TEXT
  5
4B9
330
6E9
100
AcDbEntity
  8
Level 1
  6
Continuous
 62
     7
370
     0
100
AcDbText
 10
-783.562967
 20
47.905
 30
0.0
 40
0.06
  1
Reviewed by:
 50
90.0
  7
Style-Arial
 11
-783.622967
 21
47.905
 31
0.0
100
AcDbText
 73
     3
  0
TEXT
  5
4BA
330
6E9
100
AcDbEntity
  8
Level 1
  6
Continuous
 62
     7
370
     0
100
AcDbText
 10
-783.924967
 20
48.731
 30
0.0
 40
0.06
  1
Date:
 50
90.0
  7
Style-Arial
 11
-783.984967
 21
48.731
 31
0.0
100
AcDbText
 73
     3
  0
TEXT
  5
4BB
330
6E9
100
AcDbEntity
  8
Level 1
  6
Continuous
 62
     7
370
     0
100
AcDbText
 10
-783.909104
 20
49.551
 30
0.0
 40
0.06
  1
Rev.
 50
90.0
  7
Style-Arial
 11
-783.969104
 21
49.551
 31
0.0
100
AcDbText
 73
     3
  0
TEXT
  5
4BE
330
6E9
100
AcDbEntity
  8
Level 1
  6
Continuous
 62
     7
370
     0
100
AcDbText
 10
-783.756967
 20
48.307
 30
0.0
 40
0.06
  1
Ckd by:
 50
90.0
  7
Style-Arial
 11
-783.816967
 21
48.307
 31
0.0
100
AcDbText
 73
     3
  0
TEXT
  5
4CA
330
6E9
100
AcDbEntity
  8
Level 1
  6
Continuous
 62
     7
370
     0
100
AcDbText
 10
-783.831072
 20
49.557
 30
0.0
 40
0.06
  1
__
 50
90.0
  7
Style-Arial
 11
-783.891072
 21
49.557
 31
0.0
100
AcDbText
 73
     3
  0
TEXT
  5
4CB
330
6E9
100
AcDbEntity
  8
Level 1
  6
Continuous
 62
     7
370
     0
100
AcDbText
 10
-783.727472
 20
48.730773
 30
0.0
 40
0.06
  1
Design file no.   
 50
90.0
  7
Style-Arial
 11
-783.787472
 21
48.730773
 31
0.0
100
AcDbText
 73
     3
  0
TEXT
  5
4DD
330
6E9
100
AcDbEntity
  8
Level 1
  6
Continuous
 62
     7
370
     0
100
AcDbText
 10
-783.185963
 20
51.218912
 30
0.0
 40
0.06
  1
Description
 50
90.0
  7
Style-Arial
 11
-783.245963
 21
51.218912
 31
0.0
100
AcDbText
 73
     3
  0
TEXT
  5
4DE
330
6E9
100
AcDbEntity
  8
Level 1
  6
Continuous
 62
     7
370
     0
100
AcDbText
 10
-783.188651
 20
52.228022
 30
0.0
 40
0.06
  1
Date
 50
90.0
  7
Style-Arial
 11
-783.248651
 21
52.228022
 31
0.0
100
AcDbText
 73
     3
  0
TEXT
  5
4E5
330
6E9
100
AcDbEntity
  8
Level 1
  6
Continuous
 62
     7
370
     0
100
AcDbText
 10
-783.185963
 20
52.470446
 30
0.0
 40
0.06
  1
Approved
 50
90.0
  7
Style-Arial
 11
-783.245963
 21
52.470446
 31
0.0
100
AcDbText
 73
     3
  0
TEXT
  5
4E6
330
6E9
100
AcDbEntity
  8
Level 1
  6
Continuous
 62
     7
370
     0
100
AcDbText
 10
-783.181556
 20
50.422178
 30
0.0
 40
0.06
  1
Symbol
 50
90.0
  7
Style-Arial
 11
-783.241556
 21
50.422178
 31
0.0
100
AcDbText
 73
     3
  0
TEXT
  5
4F6
330
6E9
100
AcDbEntity
  8
Level 1
  6
Continuous
 62
     7
370
     0
100
AcDbText
 10
-783.324102
 20
48.735
 30
0.0
 40
0.06
  1
Drawing code:     
 50
90.0
  7
Style-Arial
 11
-783.384102
 21
48.735
 31
0.0
100
AcDbText
 73
     3
  0
TEXT
  5
4F7
330
6E9
100
AcDbEntity
  8
Level 1
  6
Continuous
 62
     7
370
     0
100
AcDbText
 10
-783.544534
 20
48.737
 30
0.0
 40
0.06
  1
Plot Scale Ratio:     
 50
90.0
  7
Style-Arial
 11
-783.604534
 21
48.737
 31
0.0
100
AcDbText
 73
     3
  0
TEXT
  5
4F9
330
6E9
100
AcDbEntity
  8
Level 1
  6
Continuous
 62
     7
370
    13
100
AcDbText
 10
-783.575585
 20
49.543632
 30
0.0
 40
0.06
  1
DACA 45          
 50
90.0
  7
Style-Arial
 11
-783.635585
 21
49.543632
 31
0.0
100
AcDbText
 73
     3
  0
TEXT
  5
4FA
330
6E9
100
AcDbEntity
  8
Level 1
  6
Continuous
 62
     7
370
    13
100
AcDbText
 10
-783.262827
 20
49.548476
 30
0.0
 40
0.06
  1
DACA 45          
 50
90.0
  7
Style-Arial
 11
-783.322827
 21
49.548476
 31
0.0
100
AcDbText
 73
     3
  0
TEXT
  5
50B
330
6E9
100
AcDbEntity
  8
Level 1
  6
Continuous
 62
     7
370
     0
100
AcDbText
 10
-783.391104
 20
49.545
 30
0.0
 40
0.06
  1
Contract No.     
 50
90.0
  7
Style-Arial
 11
-783.451104
 21
49.545
 31
0.0
100
AcDbText
 73
     3
  0
TEXT
  5
50C
330
6E9
100
AcDbEntity
  8
Level 1
  6
Continuous
 62
     7
370
     0
100
AcDbText
 10
-783.701104
 20
49.547
 30
0.0
 40
0.06
  1
Spec. No.   
 50
90.0
  7
Style-Arial
 11
-783.761104
 21
49.547
 31
0.0
100
AcDbText
 73
     3
  0
TEXT
  5
50D
330
6E9
100
AcDbEntity
  8
Level 2
  6
Continuous
 62
     7
370
     0
100
AcDbText
 10
-783.847967
 20
47.917
 30
0.0
 40
0.06
  1
X
 50
90.0
  7
Style-Arial
 11
-783.907967
 21
47.917
 31
0.0
100
AcDbText
 73
     3
  0
TEXT
  5
50E
330
6E9
100
AcDbEntity
  8
Level 2
  6
Continuous
 62
     7
370
     0
100
AcDbText
 10
-783.669967
 20
48.313
 30
0.0
 40
0.06
  1
X
 50
90.0
  7
Style-Arial
 11
-783.729967
 21
48.313
 31
0.0
100
AcDbText
 73
     3
  0
TEXT
  5
50F
330
6E9
100
AcDbEntity
  8
Level 2
  6
Continuous
 62
     7
370
     0
100
AcDbText
 10
-783.475967
 20
47.917
 30
0.0
 40
0.06
  1
X
 50
90.0
  7
Style-Arial
 11
-783.535967
 21
47.917
 31
0.0
100
AcDbText
 73
     3
  0
TEXT
  5
510
330
6E9
100
AcDbEntity
  8
Level 2
  6
Continuous
 62
     7
370
     0
100
AcDbText
 10
-783.359967
 20
48.469
 30
0.0
 40
0.06
  1
X
 50
90.0
  7
Style-Arial
 11
-783.419967
 21
48.469
 31
0.0
100
AcDbText
 73
     3
  0
TEXT
  5
511
330
6E9
100
AcDbEntity
  8
Level 1
  6
Continuous
 62
     7
370
     0
100
AcDbText
 10
-783.364967
 20
47.903
 30
0.0
 40
0.06
  1
Submitted by:
 50
90.0
  7
Style-Arial
 11
-783.424967
 21
47.903
 31
0.0
100
AcDbText
 73
     3
  0
TEXT
  5
512
330
6E9
100
AcDbEntity
  8
Level 1
  6
Continuous
 62
     7
370
     0
100
AcDbText
 10
-783.276967
 20
47.903
 30
0.0
 40
0.06
  1
Chief:
 50
90.0
  7
Style-Arial
 11
-783.336967
 21
47.903
 31
0.0
100
AcDbText
 73
     3
  0
MTEXT
  5
513
330
6E9
100
AcDbEntity
  8
Level 1
  6
Continuous
 62
     7
370
     0
100
AcDbMText
 10
-783.958238
 20
44.577396
 30
0.0
 40
0.06
 41
0.0
 71
     1
 72
     1
  1
Sheet\Preference\Pnumber:\P
  7
Style-Arial
 73
     2
 44
0.779643
  0
TEXT
  5
517
330
6E9
100
AcDbEntity
  8
Level 1
  6
Continuous
 62
     7
370
     0
100
AcDbText
 10
-783.924967
 20
47.907
 30
0.0
 40
0.06
  1
Designed by:
 50
90.0
  7
Style-Arial
 11
-783.984967
 21
47.907
 31
0.0
100
AcDbText
 73
     3
  0
TEXT
  5
518
330
6E9
100
AcDbEntity
  8
Level 2
  6
Continuous
 62
     7
370
    13
100
AcDbText
 10
-783.459288
 20
48.743
 30
0.0
 40
0.06
  1
20 : 1
 50
90.0
  7
Style-Arial
 11
-783.519288
 21
48.743
 31
0.0
100
AcDbText
 73
     3
  0
TEXT
  5
519
330
6E9
100
AcDbEntity
  8
Level 1
  6
Continuous
 62
     7
370
     0
100
AcDbText
 10
-783.205098
 20
48.745
 30
0.0
 40
0.06
  1
X
 50
90.0
  7
Style-Arial
 11
-783.265098
 21
48.745
 31
0.0
100
AcDbText
 73
     3
  0
TEXT
  5
51A
330
6E9
100
AcDbEntity
  8
Level 1
  6
Continuous
 62
     7
370
     0
100
AcDbText
 10
-783.9151
 20
54.447055
 30
0.0
 40
0.06
  1
Omaha District
  7
Style-Arial
 11
-783.9151
 21
54.507055
 31
0.0
100
AcDbText
 73
     3
  0
TEXT
  5
51B
330
6E9
100
AcDbEntity
  8
Level 1
  6
Continuous
 62
     7
370
     0
100
AcDbText
 10
-783.9151
 20
54.650959
 30
0.0
 40
0.06
  1
US Army Corps
  7
Style-Arial
 11
-783.9151
 21
54.710959
 31
0.0
100
AcDbText
 73
     3
  0
TEXT
  5
51C
330
6E9
100
AcDbEntity
  8
Level 1
  6
Continuous
 62
     7
370
     0
100
AcDbText
 10
-783.9171
 20
54.549543
 30
0.0
 40
0.06
  1
of Engineers
  7
Style-Arial
 11
-783.9171
 21
54.609543
 31
0.0
100
AcDbText
 73
     3
  0
TEXT
  5
52F
330
6E9
100
AcDbEntity
  8
Level 1
  6
Continuous
 62
     7
370
     0
100
AcDbText
 10
-799.15167
 20
54.191496
 30
0.0
 40
0.06
  1
6
  7
Style-Arial
 11
-799.15167
 21
54.251496
 31
0.0
100
AcDbText
 73
     3
  0
MTEXT
  5
55C
330
6E9
100
AcDbEntity
  8
Level 1
  6
Continuous
 62
     7
370
     0
100
AcDbMText
 10
-783.917144
 20
46.254643
 30
0.0
 40
0.06
 41
0.0
 71
     1
 72
     1
  1
 X\P X\P
  7
Style-Arial
 11
6.123031769111886E-17
 21
1.0
 31
0.0
 73
     2
 44
0.779643
  0
MTEXT
  5
55F
330
6E9
100
AcDbEntity
  8
Level 1
  6
Continuous
 62
     7
370
     0
100
AcDbMText
 10
-783.6651
 20
46.253366
 30
0.0
 40
0.06
 41
0.0
 71
     1
 72
     1
  1
X\P \P \P
  7
Style-Arial
 11
6.123031769111886E-17
 21
1.0
 31
0.0
 73
     2
 44
0.779643
  0
MTEXT
  5
680
330
6E9
100
AcDbEntity
  8
Level 46
  6
Continuous
 62
     7
370
    13
100
AcDbMText
 10
-795.042434
 20
50.1449
 30
0.0
 40
0.06
 41
0.0
 71
     1
 72
     1
  1
TIE PLATES\PBETWEEN HOOK\PTWIN PLATES\P
  7
Style-Arial
 73
     2
 44
0.779643
  0
TEXT
  5
684
330
6E9
100
AcDbEntity
  8
Level 1
  6
Continuous
 62
     7
370
     0
100
AcDbText
 10
-783.841612
 20
48.731005
 30
0.0
 40
0.06
  1
DECEMBER 1997
 50
90.0
  7
Style-Arial
 11
-783.901612
 21
48.731005
 31
0.0
100
AcDbText
 73
     3
  0
TEXT
  5
685
330
6E9
100
AcDbEntity
  8
Level 2
  6
Continuous
 62
     7
370
    13
100
AcDbText
 10
-783.649144
 20
48.730462
 30
0.0
 40
0.06
  1
C211.DGN
 50
90.0
  7
Style-Arial
 11
-783.709144
 21
48.730462
 31
0.0
100
AcDbText
 73
     3
  0
TEXT
  5
686
330
6E9
100
AcDbEntity
  8
Level 2
  6
Continuous
 62
     7
370
     0
100
AcDbText
 10
-783.665965
 20
47.913
 30
0.0
 40
0.06
  1
X
 50
90.0
  7
Style-Arial
 11
-783.725965
 21
47.913
 31
0.0
100
AcDbText
 73
     3
  0
TEXT
  5
687
330
6E9
100
AcDbEntity
  8
Level 2
  6
Continuous
 62
     7
370
     0
100
AcDbText
 10
-783.208965
 20
47.911
 30
0.0
 40
0.06
  1
X
 50
90.0
  7
Style-Arial
 11
-783.268965
 21
47.911
 31
0.0
100
AcDbText
 73
     3
  0
TEXT
  5
430
330
6E9
100
AcDbEntity
  8
Level 47
  6
Continuous
 62
     7
370
    53
100
AcDbText
 10
-796.731919
 20
49.678379
 30
0.0
 40
0.09
  1
TURNOUT SPIKING PLANS
  7
Style-Arial
 11
-796.731919
 21
49.768379
 31
0.0
100
AcDbText
 73
     3
  0
TEXT
  5
590
330
6E9
100
AcDbEntity
  8
Level 2
  6
Continuous
 62
     7
370
     0
100
AcDbText
 10
-783.845528
 20
44.104542
 30
0.0
 40
0.135
  1
C2.11
  7
Style-Arial
 11
-783.845528
 21
44.239542
 31
0.0
100
AcDbText
 73
     3
  0
TEXT
  5
58F
330
6E9
100
AcDbEntity
  8
Level 2
  6
Continuous
 62
     7
370
     0
100
AcDbText
 10
-783.3911
 20
45.330948
 30
0.0
 40
0.09
  1
TURNOUT SPIKING DETAILS
 50
90.0
  7
Style-Arial
 11
-783.4811
 21
45.330948
 31
0.0
100
AcDbText
 73
     3
  0
ENDSEC
  0
SECTION
  2
OBJECTS
  0
DICTIONARY
  5
6DD
330
0
100
AcDbDictionary
281
     1
  3
ACAD_COLOR
350
6FC
  3
ACAD_GROUP
350
6F9
  3
ACAD_LAYOUT
350
6ED
  3
ACAD_MATERIAL
350
6FB
  3
ACAD_MLINESTYLE
350
6E7
  3
ACAD_PLOTSETTINGS
350
6FA
  3
ACAD_PLOTSTYLENAME
350
6DC
  3
ACAD_TABLESTYLE
350
716
  3
AcadDim
350
708
  3
MicroStation
350
700
  0
DICTIONARY
  5
6D9
330
6D8
100
AcDbDictionary
280
     1
281
     1
  3
ACAD_LAYERFILTERS
360
6FF
  3
ACAD_LAYERSTATES
360
6DA
  0
DICTIONARY
  5
712
330
6E9
100
AcDbDictionary
280
     1
281
     1
  3
ACAD_SORTENTS
360
713
  0
DICTIONARY
  5
6FC
102
{ACAD_REACTORS
330
6DD
102
}
330
6DD
100
AcDbDictionary
281
     1
  0
DICTIONARY
  5
6F9
102
{ACAD_REACTORS
330
6DD
102
}
330
6DD
100
AcDbDictionary
281
     1
  0
DICTIONARY
  5
6ED
102
{ACAD_REACTORS
330
6DD
102
}
330
6DD
100
AcDbDictionary
281
     1
  3
Layout1
350
6F1
  3
Model
350
6EC
  0
DICTIONARY
  5
6FB
102
{ACAD_REACTORS
330
6DD
102
}
330
6DD
100
AcDbDictionary
281
     1
  0
DICTIONARY
  5
6E7
102
{ACAD_REACTORS
330
6DD
102
}
330
6DD
100
AcDbDictionary
281
     1
  3
Standard
350
6E6
  0
DICTIONARY
  5
6FA
102
{ACAD_REACTORS
330
6DD
102
}
330
6DD
100
AcDbDictionary
281
     1
  0
ACDBDICTIONARYWDFLT
  5
6DC
102
{ACAD_REACTORS
330
6DD
102
}
330
6DD
100
AcDbDictionary
281
     1
  3
Normal
350
6DB
100
AcDbDictionaryWithDefault
340
6DB
  0
DICTIONARY
  5
716
102
{ACAD_REACTORS
330
6DD
102
}
330
6DD
100
AcDbDictionary
281
     1
  0
XRECORD
  5
708
102
{ACAD_REACTORS
330
6DD
102
}
330
6DD
100
AcDbXrecord
280
     1
 90
   990106
  3
 
 60
     0
 61
     0
 62
     1
 63
     1
 64
     0
 65
     0
 66
     0
 67
     3
 68
     1
 69
     1
 70
     0
 71
     0
 72
     0
 40
0.0
170
     0
  0
DICTIONARY
  5
700
102
{ACAD_REACTORS
330
6DD
102
}
330
6DD
100
AcDbDictionary
281
     1
  3
ApplicationElement 1749
350
6D5
  3
ModelApplicationElement 0 1748
350
6D4
  0
DICTIONARY
  5
6FF
102
{ACAD_REACTORS
330
6D9
102
}
330
6D9
100
AcDbDictionary
281
     1
  0
DICTIONARY
  5
6DA
102
{ACAD_REACTORS
330
6D9
102
}
330
6D9
100
AcDbDictionary
281
     1
  0
SORTENTSTABLE
  5
713
102
{ACAD_REACTORS
330
712
102
}
330
712
100
AcDbSortentsTable
330
6E9
331
1DC
  5
577
331
1DF
  5
578
331
1E0
  5
579
331
1E4
  5
1DC
331
1E5
  5
1DF
331
1E6
  5
1E0
331
1E7
  5
1E4
331
1E8
  5
1E5
331
1E9
  5
1E6
331
1EA
  5
1E7
331
1EB
  5
1E8
331
1EC
  5
1E9
331
1ED
  5
1EA
331
1EE
  5
1EB
331
1EF
  5
1EC
331
1F0
  5
1ED
331
1F1
  5
1EE
331
1F2
  5
1EF
331
1F3
  5
1F0
331
1F4
  5
1F1
331
1F5
  5
1F2
331
1F6
  5
1F3
331
1F7
  5
1F4
331
1F8
  5
1F5
331
1F9
  5
1F6
331
1FA
  5
1F7
331
1FB
  5
1F8
331
1FC
  5
1F9
331
1FD
  5
1FA
331
1FE
  5
1FB
331
1FF
  5
1FC
331
200
  5
1FD
331
201
  5
1FE
331
202
  5
1FF
331
203
  5
200
331
204
  5
201
331
205
  5
202
331
206
  5
203
331
207
  5
204
331
208
  5
205
331
209
  5
206
331
20A
  5
207
331
20B
  5
208
331
20C
  5
209
331
20D
  5
20A
331
20E
  5
20B
331
20F
  5
20C
331
210
  5
20D
331
211
  5
20E
331
212
  5
20F
331
213
  5
210
331
214
  5
211
331
215
  5
212
331
216
  5
213
331
217
  5
214
331
218
  5
215
331
219
  5
216
331
21A
  5
217
331
21B
  5
57A
331
300
  5
218
331
301
  5
219
331
302
  5
21A
331
303
  5
21B
331
304
  5
300
331
305
  5
301
331
306
  5
302
331
307
  5
303
331
308
  5
304
331
309
  5
305
331
30A
  5
306
331
30B
  5
307
331
30C
  5
308
331
30D
  5
309
331
30E
  5
30A
331
30F
  5
30B
331
310
  5
30C
331
311
  5
30D
331
312
  5
30E
331
313
  5
30F
331
314
  5
310
331
315
  5
311
331
316
  5
312
331
317
  5
313
331
318
  5
314
331
319
  5
315
331
31A
  5
316
331
31B
  5
317
331
31C
  5
318
331
31D
  5
319
331
31E
  5
31A
331
31F
  5
31B
331
320
  5
31C
331
321
  5
31D
331
322
  5
31E
331
323
  5
31F
331
324
  5
320
331
325
  5
321
331
326
  5
322
331
327
  5
323
331
328
  5
324
331
329
  5
325
331
32A
  5
326
331
32B
  5
327
331
32C
  5
328
331
32D
  5
329
331
32E
  5
32A
331
32F
  5
32B
331
330
  5
32C
331
331
  5
32D
331
332
  5
32E
331
333
  5
32F
331
334
  5
330
331
335
  5
331
331
336
  5
332
331
337
  5
333
331
338
  5
334
331
339
  5
335
331
33A
  5
336
331
33B
  5
337
331
33C
  5
338
331
33D
  5
339
331
33E
  5
33A
331
33F
  5
33B
331
340
  5
33C
331
341
  5
33D
331
342
  5
33E
331
343
  5
33F
331
345
  5
340
331
346
  5
341
331
347
  5
342
331
348
  5
343
331
349
  5
345
331
34A
  5
346
331
34B
  5
347
331
34C
  5
348
331
34D
  5
349
331
34E
  5
34A
331
34F
  5
34B
331
350
  5
34C
331
351
  5
34D
331
352
  5
34E
331
353
  5
34F
331
354
  5
350
331
355
  5
351
331
356
  5
352
331
357
  5
353
331
358
  5
354
331
359
  5
355
331
35A
  5
356
331
35B
  5
357
331
361
  5
358
331
362
  5
359
331
3AA
  5
57B
331
3AD
  5
35A
331
3AE
  5
35B
331
3AF
  5
361
331
3B0
  5
362
331
3B1
  5
3AA
331
3B2
  5
3AD
331
3B3
  5
3AE
331
3B4
  5
3AF
331
3B5
  5
3B0
331
3B6
  5
3B1
331
3B7
  5
3B2
331
3B8
  5
3B3
331
3B9
  5
3B4
331
3BA
  5
3B5
331
3BB
  5
3B6
331
3BC
  5
3B7
331
3BD
  5
3B8
331
3BE
  5
3B9
331
3BF
  5
3BA
331
3C0
  5
3BB
331
3C1
  5
3BC
331
3C2
  5
3BD
331
3C3
  5
3BE
331
3C4
  5
3BF
331
3C5
  5
3C0
331
3C6
  5
3C1
331
3C7
  5
3C2
331
3C8
  5
3C3
331
3C9
  5
3C4
331
3CA
  5
3C5
331
3CB
  5
3C6
331
3CC
  5
3C7
331
3CD
  5
3C8
331
3CE
  5
3C9
331
3CF
  5
3CA
331
3D0
  5
3CB
331
3D1
  5
3CC
331
3D2
  5
3CD
331
3D3
  5
3CE
331
3D4
  5
3CF
331
3D5
  5
3D0
331
3D6
  5
3D1
331
3D7
  5
3D2
331
3D8
  5
3D3
331
3D9
  5
3D4
331
3DA
  5
3D5
331
3DB
  5
3D6
331
3DC
  5
3D7
331
3DD
  5
3D8
331
3DE
  5
3D9
331
3DF
  5
3DA
331
3E0
  5
3DB
331
3E1
  5
3DC
331
3E2
  5
3DD
331
3E3
  5
3DE
331
3E4
  5
3DF
331
3E5
  5
3E0
331
3E6
  5
3E1
331
3E7
  5
3E2
331
3E8
  5
3E3
331
3E9
  5
3E4
331
3EA
  5
3E5
331
3EB
  5
3E6
331
3EC
  5
3E7
331
3ED
  5
3E8
331
3EE
  5
3E9
331
3EF
  5
3EA
331
3F0
  5
3EB
331
3F1
  5
3EC
331
3F2
  5
3ED
331
3F3
  5
57C
331
3F4
  5
57D
331
3F5
  5
3EE
331
3F6
  5
3EF
331
3F7
  5
3F0
331
3F8
  5
3F1
331
3F9
  5
3F2
331
3FA
  5
3F3
331
3FB
  5
3F4
331
3FC
  5
3F5
331
3FD
  5
3F6
331
3FE
  5
3F7
331
3FF
  5
3F8
331
400
  5
3F9
331
401
  5
3FA
331
402
  5
3FB
331
403
  5
3FC
331
404
  5
3FD
331
405
  5
3FE
331
406
  5
3FF
331
407
  5
400
331
408
  5
401
331
409
  5
402
331
40A
  5
403
331
40B
  5
404
331
40C
  5
405
331
40D
  5
406
331
40E
  5
407
331
40F
  5
408
331
410
  5
409
331
411
  5
40A
331
412
  5
40B
331
413
  5
40C
331
414
  5
40D
331
415
  5
40E
331
416
  5
40F
331
417
  5
410
331
418
  5
411
331
419
  5
412
331
41A
  5
413
331
41B
  5
414
331
41C
  5
415
331
41D
  5
416
331
41E
  5
417
331
41F
  5
418
331
420
  5
57E
331
423
  5
57F
331
426
  5
419
331
427
  5
41A
331
428
  5
41B
331
429
  5
41C
331
42A
  5
41D
331
42B
  5
41E
331
42C
  5
580
331
42F
  5
41F
331
430
  5
685
331
431
  5
581
331
432
  5
584
331
433
  5
420
331
434
  5
423
331
435
  5
426
331
436
  5
427
331
437
  5
428
331
438
  5
429
331
439
  5
42A
331
43A
  5
42B
331
43B
  5
42C
331
43C
  5
42F
331
43D
  5
430
331
43E
  5
431
331
43F
  5
432
331
440
  5
433
331
441
  5
434
331
442
  5
435
331
443
  5
436
331
444
  5
437
331
445
  5
438
331
446
  5
439
331
447
  5
43A
331
448
  5
43B
331
449
  5
43C
331
44A
  5
43D
331
44B
  5
43E
331
44C
  5
43F
331
44D
  5
440
331
44E
  5
441
331
44F
  5
442
331
450
  5
443
331
451
  5
444
331
452
  5
445
331
453
  5
446
331
454
  5
447
331
455
  5
448
331
456
  5
449
331
457
  5
44A
331
458
  5
44B
331
459
  5
44C
331
45A
  5
44D
331
45B
  5
44E
331
45C
  5
44F
331
45D
  5
450
331
45E
  5
451
331
45F
  5
452
331
460
  5
453
331
461
  5
454
331
462
  5
455
331
463
  5
456
331
464
  5
457
331
465
  5
458
331
466
  5
459
331
467
  5
45A
331
468
  5
45B
331
469
  5
45C
331
46A
  5
45D
331
46B
  5
45E
331
46C
  5
45F
331
46D
  5
460
331
46E
  5
461
331
46F
  5
462
331
470
  5
463
331
471
  5
464
331
472
  5
465
331
473
  5
466
331
474
  5
467
331
475
  5
468
331
476
  5
469
331
477
  5
46A
331
478
  5
46B
331
479
  5
46C
331
47A
  5
46D
331
47B
  5
46E
331
47C
  5
46F
331
47D
  5
470
331
47E
  5
471
331
47F
  5
472
331
480
  5
473
331
481
  5
474
331
482
  5
587
331
483
  5
475
331
484
  5
476
331
485
  5
477
331
486
  5
478
331
487
  5
479
331
488
  5
47A
331
489
  5
47B
331
48A
  5
47C
331
48B
  5
47D
331
48C
  5
47E
331
48D
  5
47F
331
48E
  5
480
331
48F
  5
481
331
490
  5
482
331
491
  5
483
331
492
  5
484
331
493
  5
485
331
494
  5
486
331
495
  5
487
331
496
  5
488
331
497
  5
489
331
498
  5
48A
331
499
  5
48B
331
49A
  5
48C
331
49B
  5
48D
331
49C
  5
48E
331
49D
  5
48F
331
49E
  5
490
331
49F
  5
58A
331
4A0
  5
58D
331
4A1
  5
58E
331
4A2
  5
491
331
4A3
  5
58F
331
4A4
  5
590
331
4A5
  5
5FB
331
4A6
  5
5FC
331
4A7
  5
5FD
331
4A8
  5
492
331
4A9
  5
493
331
4AA
  5
494
331
4AB
  5
495
331
4AC
  5
5FE
331
4AD
  5
5FF
331
4AE
  5
600
331
4AF
  5
601
331
4B0
  5
496
331
4B1
  5
497
331
4B2
  5
498
331
4B3
  5
499
331
4B4
  5
49A
331
4B5
  5
49B
331
4B6
  5
49C
331
4B7
  5
49D
331
4B8
  5
602
331
4B9
  5
603
331
4BA
  5
604
331
4BB
  5
605
331
4BC
  5
49E
331
4BD
  5
49F
331
4BE
  5
606
331
4BF
  5
4A0
331
4C0
  5
4A1
331
4C1
  5
4A2
331
4C2
  5
4A3
331
4C3
  5
4A4
331
4C4
  5
4A5
331
4C5
  5
4A6
331
4C6
  5
4A7
331
4C7
  5
4A8
331
4C8
  5
4A9
331
4C9
  5
4AA
331
4CA
  5
607
331
4CB
  5
608
331
4CC
  5
4AB
331
4CD
  5
4AC
331
4CE
  5
4AD
331
4CF
  5
4AE
331
4D0
  5
4AF
331
4D1
  5
4B0
331
4D2
  5
4B1
331
4D3
  5
4B2
331
4D4
  5
4B3
331
4D5
  5
4B4
331
4D6
  5
4B5
331
4D7
  5
4B6
331
4D8
  5
4B7
331
4D9
  5
4B8
331
4DA
  5
4B9
331
4DB
  5
4BA
331
4DC
  5
4BB
331
4DD
  5
609
331
4DE
  5
60A
331
4DF
  5
4BC
331
4E0
  5
4BD
331
4E1
  5
4BE
331
4E2
  5
4BF
331
4E3
  5
4C0
331
4E4
  5
4C1
331
4E5
  5
60B
331
4E6
  5
60C
331
4E7
  5
4C2
331
4E8
  5
4C3
331
4E9
  5
4C4
331
4EA
  5
4C5
331
4EB
  5
4C6
331
4EC
  5
4C7
331
4ED
  5
4C8
331
4EE
  5
4C9
331
4EF
  5
4CA
331
4F0
  5
4CB
331
4F1
  5
4CC
331
4F2
  5
4CD
331
4F3
  5
4CE
331
4F4
  5
4CF
331
4F5
  5
4D0
331
4F6
  5
60D
331
4F7
  5
60E
331
4F8
  5
4D1
331
4F9
  5
60F
331
4FA
  5
610
331
4FB
  5
4D2
331
4FC
  5
4D3
331
4FD
  5
4D4
331
4FE
  5
4D5
331
4FF
  5
4D6
331
500
  5
4D7
331
501
  5
4D8
331
502
  5
4D9
331
503
  5
4DA
331
504
  5
4DB
331
505
  5
4DC
331
506
  5
4DD
331
507
  5
4DE
331
508
  5
4DF
331
509
  5
4E0
331
50A
  5
4E1
331
50B
  5
611
331
50C
  5
612
331
50D
  5
613
331
50E
  5
614
331
50F
  5
615
331
510
  5
616
331
511
  5
617
331
512
  5
618
331
513
  5
619
331
517
  5
61A
331
518
  5
61B
331
519
  5
61C
331
51A
  5
61D
331
51B
  5
61E
331
51C
  5
61F
331
51D
  5
4E2
331
51E
  5
4E3
331
51F
  5
4E4
331
520
  5
4E5
331
521
  5
4E6
331
522
  5
4E7
331
523
  5
4E8
331
524
  5
4E9
331
525
  5
4EA
331
526
  5
4EB
331
527
  5
4EC
331
528
  5
4ED
331
529
  5
4EE
331
52A
  5
4EF
331
52B
  5
4F0
331
52C
  5
4F1
331
52D
  5
4F2
331
52E
  5
4F3
331
52F
  5
620
331
530
  5
4F4
331
531
  5
4F5
331
532
  5
4F6
331
533
  5
4F7
331
534
  5
4F8
331
535
  5
4F9
331
536
  5
4FA
331
537
  5
4FB
331
538
  5
4FC
331
539
  5
4FD
331
53A
  5
4FE
331
53B
  5
4FF
331
53C
  5
500
331
53D
  5
501
331
53E
  5
502
331
53F
  5
503
331
540
  5
504
331
541
  5
505
331
542
  5
506
331
543
  5
507
331
544
  5
508
331
545
  5
509
331
546
  5
50A
331
547
  5
50B
331
548
  5
50C
331
549
  5
50D
331
54A
  5
50E
331
54B
  5
50F
331
54C
  5
510
331
54D
  5
511
331
54E
  5
512
331
54F
  5
513
331
550
  5
517
331
551
  5
518
331
552
  5
519
331
553
  5
51A
331
554
  5
51B
331
555
  5
51C
331
556
  5
51D
331
557
  5
51E
331
558
  5
51F
331
559
  5
520
331
55A
  5
521
331
55B
  5
522
331
55C
  5
621
331
55F
  5
622
331
563
  5
523
331
564
  5
524
331
565
  5
525
331
566
  5
526
331
567
  5
527
331
568
  5
528
331
569
  5
529
331
56A
  5
52A
331
56B
  5
52B
331
56C
  5
52C
331
56D
  5
52D
331
56E
  5
52E
331
56F
  5
52F
331
572
  5
530
331
573
  5
531
331
574
  5
532
331
575
  5
533
331
576
  5
534
331
577
  5
535
331
578
  5
536
331
579
  5
537
331
57A
  5
538
331
57B
  5
539
331
57C
  5
53A
331
57D
  5
53B
331
57E
  5
53C
331
57F
  5
53D
331
580
  5
53E
331
581
  5
53F
331
584
  5
540
331
587
  5
541
331
58A
  5
542
331
58D
  5
543
331
58E
  5
544
331
58F
  5
687
331
590
  5
686
331
5FB
  5
545
331
5FC
  5
546
331
5FD
  5
547
331
5FE
  5
548
331
5FF
  5
549
331
600
  5
54A
331
601
  5
54B
331
602
  5
54C
331
603
  5
54D
331
604
  5
54E
331
605
  5
54F
331
606
  5
550
331
607
  5
551
331
608
  5
552
331
609
  5
553
331
60A
  5
554
331
60B
  5
555
331
60C
  5
556
331
60D
  5
557
331
60E
  5
558
331
60F
  5
559
331
610
  5
55A
331
611
  5
55B
331
612
  5
55C
331
613
  5
55F
331
614
  5
563
331
615
  5
564
331
616
  5
565
331
617
  5
566
331
618
  5
567
331
619
  5
568
331
61A
  5
569
331
61B
  5
56A
331
61C
  5
56B
331
61D
  5
56C
331
61E
  5
56D
331
61F
  5
56E
331
620
  5
56F
331
621
  5
572
331
622
  5
573
331
623
  5
574
331
624
  5
575
331
625
  5
576
331
680
  5
623
331
684
  5
624
331
685
  5
625
331
686
  5
680
331
687
  5
684
  0
LAYOUT
  5
6F1
102
{ACAD_REACTORS
330
6ED
330
6ED
102
}
102
{ACAD_XDICTIONARY
360
6F2
102
}
330
6ED
100
AcDbPlotSettings
  1

  2
none_device
  4
Letter_(8.50_x_11.00_Inches)
  6

 40
6.35
 41
6.35
 42
6.350006
 43
6.350006
 44
215.899994
 45
279.399994
 46
0.0
 47
0.0
 48
0.0
 49
0.0
140
0.0
141
0.0
142
1.0
143
1.0
 70
   688
 72
     0
 73
     1
 74
     5
  7

 75
    16
 76
     0
 77
     2
 78
   300
147
1.0
148
0.0
149
0.0
100
AcDbLayout
  1
Layout1
 70
     1
 71
     1
 10
-0.25
 20
-0.25
 11
10.75
 21
8.25
 12
0.0
 22
0.0
 32
0.0
 14
1.049744
 24
0.799667
 34
-0.001526
 15
9.450623
 25
7.200577
 35
0.0
146
0.0
 13
0.0
 23
0.0
 33
0.0
 16
1.0
 26
0.0
 36
0.0
 17
0.0
 27
1.0
 37
0.0
 76
     0
330
6EE
1001
ACAD_PSEXT
1000
None
1000
None
1000
Not applicable
1000
The layout will not be plotted unless a new plotter configuration name is selected.
1070
     0
  0
LAYOUT
  5
6EC
102
{ACAD_REACTORS
330
6ED
330
6ED
102
}
330
6ED
100
AcDbPlotSettings
  1

  2
none_device
  4
ANSI_A_(8.50_x_11.00_Inches)
  6

 40
6.35
 41
19.049999
 42
6.350006
 43
19.049988
 44
215.899994
 45
279.399994
 46
0.0
 47
0.0
 48
0.0
 49
0.0
140
0.0
141
0.0
142
1.0
143
2.584895
 70
 11952
 72
     0
 73
     1
 74
     0
  7

 75
     0
 76
     0
 77
     2
 78
   300
147
0.386863
148
0.0
149
0.0
100
AcDbLayout
  1
Model
 70
     1
 71
     0
 10
0.0
 20
0.0
 11
12.0
 21
9.0
 12
0.0
 22
0.0
 32
0.0
 14
0.0
 24
0.0
 34
0.0
 15
0.0
 25
0.0
 35
0.0
146
0.0
 13
0.0
 23
0.0
 33
0.0
 16
1.0
 26
0.0
 36
0.0
 17
0.0
 27
1.0
 37
0.0
 76
     0
330
6E9
331
49
  0
MLINESTYLE
  5
6E6
102
{ACAD_REACTORS
330
6E7
102
}
330
6E7
100
AcDbMlineStyle
  2
STANDARD
 70
     0
  3

 62
   256
 51
90.0
 52
90.0
 71
     2
 49
0.5
 62
   256
  6
BYLAYER
 49
-0.5
 62
   256
  6
BYLAYER
  0
ACDBPLACEHOLDER
  5
6DB
102
{ACAD_REACTORS
330
6DC
102
}
330
6DC
  0
XRECORD
  5
6D5
102
{ACAD_REACTORS
330
700
102
}
330
700
100
AcDbXrecord
280
     1
310
3E4F020000004D6F64656C6572000000000000000000000000000000000000000000000000000000000000000000000000000000000000000000000000000000000000000000000000000000000000000000000000000000000000000000000000000000000000000000000000000000000000000000000000000000000000
310
00000000000000000000000000000000000000000000000000000000000000000000000000000000000000000000000000000000000000000000000000000000000000000000000000000000000000000000000000000000000000000000000000000000000000000000000000000000000000000000000000000000000000
310
00
310
00000000000000000000000000000000000000000000000000000000000000000000000000000000000000000000000000000000000000000000000000000000000000000000000000000000000000000000000000000000000000000000000000000000000000000000000000000000000000000000000000000000000000
310
00000000000000000000000000000000000000000000000000000000000000000000000000000000000000000000000000000000000000000000000000000000000000000000000000000000000000000000000000000000000000000000000000000000000000000000000000000000000000000000000000000000000000
310
00
310
00000000000000000000000000000000000000000000000000000000000000000000000000000000000000000000000000000000000000000000000000000000000000000000000000000000000000000000000000000000000000000000000000000000000000000000000000000000000000000000000000000000000000
310
00000000000000000000000000000000000000000000000000000000000000000000000000000000000000000000000000000000000000000000000000000000000000000000000000000000000000000000000000000000000000000000000000000000000000000000000000000000000000000000000000000000000000
310
00
310
00000000000000000000000000000000000000000000000000000000000000000000000000000000000000000000000000000000000000000000000000000000000000000000000000000000000000000000000000000000000000000000000000000000000000000000000000000000000000000000000000000000000000
310
00000000000000000000000000000000000000000000000000000000000000000000000000000000000000000000000000000000000000000000000000000000000000000000000000000000000000000000000000000000000000000000000000000000000000000000000000000000000000000000000000000000000000
310
00
310
00000000000000000000000000000000000000000000000000000000000000000000000000000000000000000000000000000000000000000000000000000000000000000000000000000000000000000000000000000000000000000000000000000000000000000000000000000000000000000000000000000000000000
310
00000000000000000000000000000000000000000000000000000000000000000000000000000000000000000000000000000000000000000000000000000000000000000000000000000000000000000000000000000000000000000000000000000000000000000000000000000000000000000000000000000000000000
310
00
310
00000000000000000000000000000000000000000000000000000000000000000000000000000000000000000000000000000000000000000000000000000000000000000000000000000000000000000000000000000000000000000000000000000000000000000000000000000000000000000000000000000000000000
310
00000000000000000000000000000000000000000000000000000000000000000000000000000000000000000000000000000000000000000000000000000000000000000000000000000000000000000000000000000000000000000000000000000000000000000000000000000000000000000000000000000000000000
310
00
310
00000000000000000000000000000000000000000000000000000000000000000000000000000000000000000000000000000000000000000000000000000000000000000000000000000000000000000000000000000000000000000000000000000000000000000000000000000000000000000000000000000000000000
310
00000000000000000000000000000000000000000000000000000000000000000000000000000000000000000000000000000000000000000000000000000000000000000000000000000000000000000000000000000000000000000000000000000000000000000000000000000000000000000000000000000000000000
310
00
310
00000000000000000000000000000000000000000000000000000000000000000000000000000000000000000000000000000000000000000000000000000000000000000000000000000000000000000000000000000000000000000000000000000000000000000000000000000000000000000000000000000000000000
310
00000000000000000000000000000000000000000000000000000000000000000000000000000000000000000000000000000000000000000000000000000000000000000000000000000000000000000000000000000000000000000000000000000000000000000000000000000000000000000000000000000000000000
310
00
310
00000000000000000000000000000000000000000000000000000000000000000000000000000000000000000000000000000000000000000000000000000000000000000000000000000000000000000000000000000000000000000000000000000000000000000000000000000000000000000000000000000000000000
310
00000000000000000000000000000000000000000000000000000000000000000000000000000000000000000000000000000000000000000000000000000000000000000000000000000000000000000000000000000000000000000000000000000000000000000000000000000000000000000000000000000000000000
310
00
310
00000000000000000000000000000000000000000000000000000000000000000000000000000000000000000000000000000000000000000000000000000000000000000000000000000000000000000000000000000000000000000000000000000000000000000000000000000000000000000000000000000000000000
310
00000000000000000000000000000000000000000000000000000000000000000000000000000000000000000000000000000000000000000000000000000000000000000000000000000000000000000000000000000000000000000000000000000000000000000000000000000000000000000000000000000000000000
310
00
310
00000000000000000000000000000000000000000000000000000000000000000000000000000000000000000000000000000000000000000000000000000000000000000000000000000000000000000000000000000000000000000000000000000000000000000000000000000000000000000000000000000000000000
310
00000000000000000000000000000000000000000000000000000000000000000000000000000000000000000000000000000000000000000000000000000000000000000000000000000000000000000000000000000000000000000000000000000000000000000000000000000000000000000000000000000000000000
310
00
310
00000000000000000000000000000000000000000000000000000000000000000000000000000000000000000000000000000000000000000000000000000000000000000000000000000000000000000000000000000000000000000000000000000000000000000000000000000000000000000000000000000000000000
310
00000000000000000000000000000000000000000000000000000000000000000000000000000000000000000000000000000000000000000000000000000000000000000000000000000000000000000000000000000000000000000000000000000000000000000000000000000000000000000000000000000000000000
310
00
310
00000000000000000000000000000000000000000000000000000000000000000000000000000000000000000000000000000000000000000000000000000000000000000000000000000000000000000000000000000000000000000000000000000000000000000000000000000000000000000000000000000000000000
310
00000000000000000000000000000000000000000000000000000000000000000000000000000000000000000000000000000000000000000000000000000000000000000000000000000000000000000000000000000000000000000000000000000000000000000000000000000000000000000000000000000000000000
310
00
310
00000000000000000000000000000000000000000000000000000000000000000000000000000000000000000000000000000000000000000000000000000000000000000000000000000000000000000000000000000000000000000000000000000000000000000000000000000000000000
  0
XRECORD
  5
6D4
102
{ACAD_REACTORS
330
700
102
}
330
700
100
AcDbXrecord
280
     1
310
DF56060034040701D0009A9999999999B93F000000000000000000000000000000000400000009000000000000000200000064000000640000000100000001000000190000007B14AE47E17A843F00000000004060409A9999999999B93F00000000006AF840000000000088C34000000000004CED40000000000000000000
310
0000000000000000000000000000000AD482040000000000000000000000000000F03F000000000000000000000000000030402D431CEBE2362A3F00000000000008400000000000000000009807C000000000000000007C1A61B9A711364020000000050000000A000000200000002000000020000000000000000000F03F
310
00
310
0000000000F03F000000000000F03F333333333333D33F333333333333D33F333333333333D33F000000000000F43F000000000000F43F000000000000F03F0200000064000000000000000000000000000840000000000000F83F00000000000000000000000000000000008056409A9999999999B93F0000000000000000
310
00000000000000000000000000000000000000000000000000000000000000000000000000000000000000000000000000000000000000000000000000000000000000000000000000000000000000000000000000000000000000000000000000000000000000000000000000000000000000000000000000000000000000
310
00
310
0000000000000000000000000000000000000000000000000000000000000000000000000000000000000000000000000000000000000000000000000000000000000000000000000000000000000000000000000000000000000000000000000000000000000000000000000000000000000000000000009A9999999999A9
310
3F910000000000000000000000000000000000000000404540000000000000F03F000000000000F03F666666666666164000000000104068F200000000000000000000000000000000000000000000000000000000000000000000000000000000000000000000000000000000000000000000000000000000000000000000
310
00
310
00000000000000000000000000000000000000000000000000000000000000000000000000000000000000000000000000000000000000000000000000000000000000000000000000000000000000000000000000000000000000000000000000000000000000000000000000000000000000000000000000000000000000
310
000000000000000000000000000000000000000000000000000000000000000000000000000000000000000000000000000000000000000000000000FF000000000000000000000000000000000000000000000000000000000000000000000000000000000000000000000000000000000000000000000000000000000000
310
00
310
0000000000000000000000000000000000000000000000000000000000000000000000000000000000000000000000000000000000000000000000000000000000000000
  0
DICTIONARY
  5
6F2
330
6F1
100
AcDbDictionary
280
     1
281
     1
  3
ADSK_XREC_LAYOUTTHUMBNAIL
360
6F3
  0
XRECORD
  5
6F3
102
{ACAD_REACTORS
330
6F2
102
}
330
6F2
100
AcDbXrecord
280
     1
310
28000000B40000008B0000000100080000000000BC61000000000000000000000001000000000000FFFFFF0000000000FFFFFF000000000000000000000000000000000000000000000000000000000000000000330000006600000099000000CC000000FF00000000330000333300006633000099330000CC330000FF3300
310
0000660000336600006666000099660000CC660000FF66000000990000339900006699000099990000CC990000FF99000000CC000033CC000066CC000099CC0000CCCC0000FFCC000000FF000033FF000066FF000099FF0000CCFF0000FFFF000000003300330033006600330099003300CC003300FF003300003333003333
310
33006633330099333300CC333300FF33330000663300336633006666330099663300CC663300FF66330000993300339933006699330099993300CC993300FF99330000CC330033CC330066CC330099CC3300CCCC3300FFCC330000FF330033FF330066FF330099FF3300CCFF3300FFFF330000006600330066006600660099
310
006600CC006600FF00660000336600333366006633660099336600CC336600FF33660000666600336666006666660099666600CC666600FF66660000996600339966006699660099996600CC996600FF99660000CC660033CC660066CC660099CC6600CCCC6600FFCC660000FF660033FF660066FF660099FF6600CCFF6600
310
FFFF660000009900330099006600990099009900CC009900FF00990000339900333399006633990099339900CC339900FF33990000669900336699006666990099669900CC669900FF66990000999900339999006699990099999900CC999900FF99990000CC990033CC990066CC990099CC9900CCCC9900FFCC990000FF99
310
0033FF990066FF990099FF9900CCFF9900FFFF99000000CC003300CC006600CC009900CC00CC00CC00FF00CC000033CC003333CC006633CC009933CC00CC33CC00FF33CC000066CC003366CC006666CC009966CC00CC66CC00FF66CC000099CC003399CC006699CC009999CC00CC99CC00FF99CC0000CCCC0033CCCC0066CC
310
CC0099CCCC00CCCCCC00FFCCCC0000FFCC0033FFCC0066FFCC0099FFCC00CCFFCC00FFFFCC000000FF003300FF006600FF009900FF00CC00FF00FF00FF000033FF003333FF006633FF009933FF00CC33FF00FF33FF000066FF003366FF006666FF009966FF00CC66FF00FF66FF000099FF003399FF006699FF009999FF00CC
310
99FF00FF99FF0000CCFF0033CCFF0066CCFF0099CCFF00CCCCFF00FFCCFF0000FFFF0033FFFF0066FFFF0099FFFF00CCFFFF00FFFFFF00000000000D0D0D001A1A1A00282828003535350043434300505050005D5D5D006B6B6B00787878008686860093939300A1A1A100AEAEAE00BBBBBB00C9C9C900D6D6D600E4E4E400
310
F1F1F100FFFFFF0000000000000000000000000000000000000000000000000000000000000000000000000000000000E2E2E2E2E2E2E2E2E2E2E2E2E2E2E2E2E2E2E2E2E2E2E2E2E2E2E2E2E2E2E2E2E2E2E2E2E2E2E2E2E2E2E2E2E2E2E2E2E2E2E2E2E2E2E2E2E2E2E2E2E2E2E2E2E2E2E2E2E2E2E2E2E2E2E2E2E2E2E2
310
E2E2E2E2E2E2E2E2E2E2E2E2E2E2E2E2E2E2E2E2E2E2E2E2E2E2E2E2E2E2E2E2E2E2E2E2E2E2E2E2E2E2E2E2E2E2E2E2E2E2E2E2E2E2E2E2E2E2E2E2E2E2E2E2E2E2E2E2E2E2E2E2E2E2E2E2E2E2E2E2E2E2E2E2E2E2E2E2E2E2E2E2E2E2E2E2E2E2E2E2EFF5F5F5F5F5F5F5F5F5F5F5F5F5F5F5F5F5F5F5F5F5F5F5F5F5F5
310
F5F5F5F5F5F5F5F5F5F5F5F5F5F5F5F5F5F5F5F5F5F5F5F5F5F5F5F5F5F5F5F5F5F5F5F5F5F5F5F5F5F5F5F5F5F5F5F5F5F5F5F5F5F5F5F5F5F5F5F5F5F5F5F5F5F5F5F5F5F5F5F5F5F5F5F5F5F5F5F5F5F5F5F5F5F5F5F5F5F5F5F5F5F5F5F5F5F5F5F5F5F5F5F5F5F5F5F5F5F5F5F5F5F5F5F5F5F5F5F5F5F5F5F5F5F5F5
310
F5F5F5F5F5F5F5F5F5F5F5F5F5F5F5F5F5F5F5F5F5F5F5F5E2E2EFF5F5F5F5F5F5F5F5F5F5F5F5F5F5F5F5F5F5F5F5F5F5F5F5F5F5F5F5F5F5F5F5F5F5F5F5F5F5F5F5F5F5F5F5F5F5F5F5F5F5F5F5F5F5F5F5F5F5F5F5F5F5F5F5F5F5F5F5F5F5F5F5F5F5F5F5F5F5F5F5F5F5F5F5F5F5F5F5F5F5F5F5F5F5F5F5F5F5F5F5
310
F5F5F5F5F5F5F5F5F5F5F5F5F5F5F5F5F5F5F5F5F5F5F5F5F5F5F5F5F5F5F5F5F5F5F5F5F5F5F5F5F5F5F5F5F5F5F5F5F5F5F5F5F5F5F5F5F5F5F5F5F5F5F5F5F5F5F5F5F5F5F5F5F5F5F5F5F5E2E2EFF5F5F5F5F5F5F5F5F5F5F5F5F5F5F5F5F5F5F5F5F5F5F5F5F5F5F5F5F5F5F5F5F5F5F5F5F5F5F5F5F5F5F5F5F5F5F5
310
F5F5F5F5F5F5F5F5F5F5F5F5F5F5F5F5F5F5F5F5F5F5F5F5F5F5F5F5F5F5F5F5F5F5F5F5F5F5F5F5F5F5F5F5F5F5F5F5F5F5F5F5F5F5F5F5F5F5F5F5F5F5F5F5F5F5F5F5F5F5F5F5F5F5F5F5F5F5F5F5F5F5F5F5F5F5F5F5F5F5F5F5F5F5F5F5F5F5F5F5F5F5F5F5F5F5F5F5F5F5F5F5F5F5F5F5F5F5F5F5F5F5F5F5F5F5F5
310
F5F5F5E2E2EFF5F5F5E2E2E2E2E2E2E2E2F5F5F5F5F5F5F5F5F5E2E2E2E2E2E2E2E2E2E2E2E2E2E2E2E2F5F5F5F5F5F5F5F5E2E2E2E2E2E2E2E2E2E2E2E2E2E2E2E2F5F5F5F5F5F5F5F5F5E2E2E2E2E2E2E2E2E2E2E2E2E2E2E2F5F5F5F5F5F5F5F5F5E2E2E2E2E2E2E2E2E2E2E2E2E2E2E2F5F5F5F5F5F5F5F5F5E2E2E2E2
310
E2E2E2E2E2E2E2E2E2E2E2E2F5F5F5F5F5F5F5F5E2E2E2E2E2E2E2E2E2E2E2E2E2E2E2E2F5F5F5F5F5F5F5F5F5E2E2E2E2E2E2E2E2F5F5F5E2E2EFF5F5F5E2F5F5F5F5F5F5F5F5F5F5F5F5F5F5F5F5F5F5F5F5F5F5F5F5F5F5F5F5F5F5F5F5F5F5F5F5F5F5F5F5F5F5F5F5F5F5F5F5F5F5F5F5F5F5F5F5F5F5F5F5F5F5F5F5
310
F5F5F5F5F5F5F5F5F5F5F5F5F5F5F5F5F5F5F5F5F5F5F5F5F5F5F5F5F5F5F5F5F5F5F5F5F5F5F5F5F5F5F5F5F5F5F5F5F5F5F5F5F5F5F5F5F5F5F5F5F5F5F5F5F5F5F5F5F5F5F5F5F5F5F5F5F5F5F5F5F5F5F5F5F5F5F5F5F5F5F5F5F5F5F5F5F5F5F5F5F5F5F5F5F5E2F5F5F5E2E2EFF5F5F5E2F5F5F5F5F5F5F5F5F5F5F5
310
F5F5F5F5F5F5F5F5F5F5F5F5F5F5F5F5F5F5F5F5F5F5F5F5F5F5F5F5F5F5F5F5F5F5F5F5F5F5F5F5F5F5F5F5F5F5F5F5F5F5F5F5F5F5F5F5F5F5F5F5F5F5F5F5F5F5F5F5F5F5F5F5F5F5F5F5F5F5F5F5F5F5F5F5F5F5F5F5F5F5F5F5F5F5F5F5F5F5F5F5F5F5F5F5F5F5F5F5F5F5F5F5F5F5F5F5F5F5F5F5F5F5F5F5F5F5F5
310
F5F5F5F5F5F5F5F5F5F5F5F5F5F5F5F5F5F5F5F5F5F5F5F5F5F5F5F5F5F5F5E2F5F5F5E2E2EFF5F5F5E2F5F5F5F5F5F5F5F5F5F5F5F5F5F5F5F5F5F5F5F5F5F5F5F5F5F5F5F5F5F5F5F5F5F5F5F5F5F5F5F5F5F5F5F5F5F5F5F5F5F5F5F5F5F5F5F5F5F5F5F5F5F5F5F5F5F5F5F5F5F5F5F5F5F5F5F5F5F5F5F5F5F5F5F5F5
310
F5F5F5F5F5F5F5F5F5F5F5F5F5F5F5F5F5F5F5F5F5F5F5F5F5F5F5F5F5F5F5F5F5F5F5F5F5F5F5F5F5F5F5F5F5F5F5F5F5F5F5F5F5F5F5F5F5F5F5F5F5F5F5F5F5F5F5F5F5F5F5F5F5F5F5F5F5F5F5F5F5F5F5F5E2F5F5F5E2E2EFF5F5F5E2F5F5F5F5F5F5F5F5F5F5F5F5F5F5F5F5F5F5F5F5F5F5F5F5F5F5F5F5F5F5F5F5
310
F5F5F5F5F5F5F5F5F5F5F5F5F5F5F5F5F5F5F5F5F5F5F5F5F5F5F5F5F5F5F5F5F5F5F5F5F5F5F5F5F5F5F5F5F5F5F5F5F5F5F5F5F5F5F5F5F5F5F5F5F5F5F5F5F5F5F5F5F5F5F5F5F5F5F5F5F5F5F5F5F5F5F5F5F5F5F5F5F5F5F5F5F5F5F5F5F5F5F5F5F5F5F5F5F5F5F5F5F5F5F5F5F5F5F5F5F5F5F5F5F5F5F5F5F5F5F5
310
F5F5F5F5F5F5F5F5F5F5E2F5F5F5E2E2EFF5F5F5E2F5F5F5F5F5F5F5F5F5F5F5F5F5F5F5F5F5F5F5F5F5F5F5F5F5F5F5F5F5F5F5F5F5F5F5F5F5F5F5F5F5F5F5F5F5F5F5F5F5F5F5F5F5F5F5F5F5F5F5F5F5F5F5F5F5F5F5F5F5F5F5F5F5F5F5F5F5F5F5F5F5F5F5F5F5F5F5F5F5F5F5F5F5F5F5F5F5F5F5F5F5F5F5F5F5F5
310
F5F5F5F5F5F5F5F5F5F5F5F5F5F5F5F5F5F5F5F5F5F5F5F5F5F5F5F5F5F5F5F5F5F5F5F5F5F5F5F5F5F5F5F5F5F5F5F5F5F5F5F5F5F5F5F5F5F5F5F5F5F5F5E2F5F5F5E2E2EFF5F5F5E2F5F5F5F5F5F5F5F5F5F5F5F5F5F5F5F5F5F5F5F5F5F5F5F5F5F5F5F5F5F5F5F5F5F5F5F5F5F5F5F5F5F5F5F5F5F5F5F5F5F5F5F5F5
310
F5F5F5F5F5F5F5F5F5F5F5F5F5F5F5F5F5F5F5F5F5F5F5F5F5F5F5F5F5F5F5F5F5F5F5F5F5F5F5F5F5F5F5F5F5F5F5F5F5F5F5F5F5F5F5F5F5F5F5F5F5F5F5F5F5F5F5F5F5F5F5F5F5F5F5F5F5F5F5F5F5F5F5F5F5F5F5F5F5F5F5F5F5F5F5F5F5F5F5F5F5F5F5F5F5F5F5F5F5F5F5F5F5F5F5F5E2F5F5F5E2E2EFF5F5F5E2
310
F5F5F5F5F5F5F5F5F5F5F5F5F5F5F5F5F5F5F5F5F5F5F5F5F5F5F5F5F5F5F5F5F5F5F5F5F5F5F5F5F5F5F5F5F5F5F5F5F5F5F5F5F5F5F5F5F5F5F5F5F5F5F5F5F5F5F5F5F5F5F5F5F5F5F5F5F5F5F5F5F5F5F5F5F5F5F5F5F5F5F5F5F5F5F5F5F5F5F5F5F5F5F5F5F5F5F5F5F5F5F5F5F5F5F5F5F5F5F5F5F5F5F5F5F5F5F5
310
F5F5F5F5F5F5F5F5F5F5F5F5F5F5F5F5F5F5F5F5F5F5F5F5F5F5F5F5F5F5F5F5F5F5F5F5F5F5F5F5F5F5E2F5F5F5E2E2EFF5F5F5E2F5F5F5F5F5F5F5F5F5F5F5F5F5F5F5F5F5F5F5F5F5F5F5F5F5F5F5F5F5F5F5F5F5F5F5F5F5F5F5F5F5F5F5F5F5F5F5F5F5F5F5F5F5F5F5F5F5F5F5F5F5F5F5F5F5F5F5F5F5F5F5F5F5F5
310
F5F5F5F5F5F5F5F5F5F5F5F5F5F5F5F5F5F5F5F5F5F5F5F5F5F5F5F5F5F5F5F5F5F5F5F5F5F5F5F5F5F5F5F5F5F5F5F5F5F5F5F5F5F5F5F5F5F5F5F5F5F5F5F5F5F5F5F5F5F5F5F5F5F5F5F5F5F5F5F5F5F5F5F5F5F5F5F5F5F5F5F5F5F5F5E2F5F5F5E2E2EFF5F5F5F5F5F5F5F5F5F5F5F5F5F5F5F5F5F5F5F5F5F5F5F5F5
310
F5F5F5F5F5F5F5F5F5F5F5F5F5F5F5F5F5F5F5F5F5F5F5F5F5F5F5F5F5F5F5F5F5F5F5F5F5F5F5F5F5F5F5F5F5F5F5F5F5F5F5F5F5F5F5F5F5F5F5F5F5F5F5F5F5F5F5F5F5F5F5F5F5F5F5F5F5F5F5F5F5F5F5F5F5F5F5F5F5F5F5F5F5F5F5F5F5F5F5F5F5F5F5F5F5F5F5F5F5F5F5F5F5F5F5F5F5F5F5F5F5F5F5F5F5F5F5
310
F5F5F5F5F5F5F5F5F5F5F5F5F5F5F5F5F5F5F5F5F5F5F5F5F5E2E2EFF5F5F5F5F5F5F5F5F5F5F5F5F5F5F5F5F5F5F5F5F5F5F5F5F5F5F5F5F5F5F5F5F5F5F5F5F5F5F5F5F5F5F5F5F5F5F5F5F5F5F5F5F5F5F5F5F5F5F5F5F5F5F5F5F5F5F5F5F5F5F5F5F5F5F5F5F5F5F5F5F5F5F5F5F5F5F5F5F5F5F5F5F5F5F5F5F5F5F5
310
F5F5F5F5F5F5F5F5F5F5F5F5F5F5F5F5F5F5F5F5F5F5F5F5F5F5F5F5F5F5F5F5F5F5F5F5F5F5F5F5F5F5F5F5F5F5F5F5F5F5F5F5F5F5F5F5F5F5F5F5F5F5F5F5F5F5F5F5F5F5F5F5F5F5F5F5F5F5E2E2EFF5F5F5F5F5F5F5F5F5F5F5F5F5F5F5F5F5F5F5F5F5F5F5F5F5F5F5F5F5F5F5F5F5F5F5F5F5F5F5F5F5F5F5F5F5F5
310
F5F5F5F5F5F5F5F5F5F5F5F5F5F5F5F5F5F5F5F5F5F5F5F5F5F5F5F5F5F5F5F5F5F5F5F5F5F5F5F5F5F5F5F5F5F5F5F5F5F5F5F5F5F5F5F5F5F5F5F5F5F5F5F5F5F5F5F5F5F5F5F5F5F5F5F5F5F5F5F5F5F5F5F5F5F5F5F5F5F5F5F5F5F5F5F5F5F5F5F5F5F5F5F5F5F5F5F5F5F5F5F5F5F5F5F5F5F5F5F5F5F5F5F5F5F5F5
310
F5F5F5F5E2E2EFF5F5F5F5F5F5F5F5F5F5F5F5F5F5F5F5F5F5F5F5F5F5F5F5F5F5F5F5F5F5F5F5F5F5F5F5F5F5F5F5F5F5F5F5F5F5F5F5F5F5F5F5F5F5F5F5F5F5F5F5F5F5F5F5F5F5F5F5F5F5F5F5F5F5F5F5F5F5F5F5F5F5F5F5F5F5F5F5F5F5F5F5F5F5F5F5F5F5F5F5F5F5F5F5F5F5F5F5F5F5F5F5F5F5F5F5F5F5F5F5
310
F5F5F5F5F5F5F5F5F5F5F5F5F5F5F5F5F5F5F5F5F5F5F5F5F5F5F5F5F5F5F5F5F5F5F5F5F5F5F5F5F5F5F5F5F5F5F5F5F5F5F5F5F5F5F5F5F5E2E2EFF5F5F5F5F5F5F5F5F5F5F5F5F5F5F5F5F5F5F5F5E2E2E2E2E2E2E2E2E2E2E2E2E2E2E2E2E2E2E2E2E2E2E2E2E2E2E2E2E2E2E2E2E2E2E2E2E2E2E2E2E2E2E2E2E2E2E2
310
E2E2E2E2E2E2E2E2E2E2E2E2E2E2E2E2E2E2E2E2E2E2E2E2E2E2E2E2E2E2E2E2E2E2E2E2E2E2E2E2E2E2E2E2E2E2E2E2E2E2E2E2E2E2E2E2E2E2E2E2E2E2E2E2E2E2E2E2E2E2E2E2E2E2E2E2E2E2E2E2E2E2E2E2E2E2E2E2E2E2F5F5F5F5F5F5F5F5F5F5F5F5F5F5F5F5F5F5F5F5E2E2EFF5F5F5F5F5F5F5F5F5F5F5F5F5F5
310
F5F5F5F5F5F5E2F5F5F5F5F5F5F5F5F5F5F5F5F5F5F5F5F5F5F5F5F5F5F5F5F5F5F5F5F5F5F5F5F5F5F5F5F5F5F5F5F5F5F5F5F5F5F5F5F5F5F5F5F5F5F5F5F5F5F5F5F5F5F5F5F5F5F5F5F5F5F5F5F5F5F5F5F5F5F5F5F5F5F5F5F5F5F5F5F5F5F5F5F5F5F5F5F5F5F5F5F5F5F5F5F5F5F5F5F5F5F5F5F5F5F5F5F5F5F5F5
310
F5F5F5F5F5F5F5F5F5F5F5F5F5F5F5E2F5F5F5F5F5F5F5F5F5F5F5F5F5F5F5F5F5F5F5F5E2E2EFF5F5F5F5F5F5F5F5F5F5F5F5F5F5F5F5F5F5F5F5E2F5F5F5F5F5F5F5F5F5F5F5F5F5F5F5F5F5F5F5F5F5F5F5F5F5F5F5F5F5F5F5F5F5F5F5F5F5F5F5F5F5F5F5F5F5F5F5F5F5F5F5F5F5F5F5F5F5F5F5F5F5F5F5F5F5F5F5
310
F5F5F5F5F5F5F5F5F5F5F5F5F5F5F5F5F5F5F5F5F5F5F5F5F5F5F5F5F5F5F5F5F5F5F5F5F5F5F5F5F5F5F5F5F5F5F5F5F5F5F5F5F5F5F5F5F5F5F5F5F5F5F5F5F5F5F5F5E2F5F5F5F5F5F5F5F5F5F5F5F5F5F5F5F5F5F5F5F5E2E2EFF5F5F5F5F5F5F5F5F5F5F5F5F5F5F5F5F5F5F5F5E2F5F5F5F5F5F5F5F5F5F5F5F5F5F5
310
F5F5F5F5F5F5F5F5F5F5F5F5F5F5F5F5F5F5F5F5F5F5F5F5F5F5F5F5F5F5F5F5F5F5F5F5F5F5F5F5F5F5F5F5F5F5F5F5F5F5F5F5F5F5F5F5F5F5F5F5F5F5F5F5F5F5F5F5F5F5F5F5F5F5F5F5F5F5F5F5F5F5F5F5F5F5F5F5F5F5F5F5F5F5F5F5F5F5F5F5F5F5F5F5F5F5F5F5F5F5F5F5F5F5F5F5F5F5F5F5F5E2F5F5F5F5F5
310
F5F5F5F5F5F5F5F5F5F5F5F5F5F5F5E2E2EFF5F5F5F5F5F5F5F5F5F5F5F5F5F5F5F5F5F5F5F5E2F5F5F5F5F5F5F5F5F5F5F5F5F5F5F5F5F5F5F5F5F5F5F5F5F5F5F5F5F5F5F5F5F5F5F5F5F5F5F5F5F5F5F5F5F5F5F5F5F5F5F5F5F5F5F5F5F5F5F5F5F5F5F5F5F5F5F5F5F5F5F5F5F5F5F5F5F5F5F5F5F5F5F5F5F5F5F5F5
310
F5F5F5F5F5F5F5F5F5F5F5F5F5F5F5F5F5F5F5F5F5F5F5F5F5F5F5F5F5F5F5F5F5F5F5F5F5F5F5F5F5F5F5F5F5F5F5E2F5F5F5F5F5F5F5F5F5F5F5F5F5F5F5F5F5F5F5F5E2E2EFF5F5F5E2F5F5F5F5F5F5F5F5F5F5F5F5F5F5F5F5E2F5F5F5F5F5F5F5F5F5F5F5F5F5F5F5F5F5F5F5F5F5F5F5F5F5F5F5F5F5F5F5F5F5F5F5
310
F5F5F5F5F5F5F5F5F5F5F5F5F5F5F5F5F5F5F5F5F5F5F5F5F5F5F5F5F5F5F5F5F5F5F5F5F5F5F5F5F5F5F5F5F5F5F5F5F5F5F5F5F5F5F5F5F5F5F5F5F5F5F5F5F5F5F5F5F5F5F5F5F5F5F5F5F5F5F5F5F5F5F5F5F5F5F5F5F5F5F5F5F5F5F5F5F5F5F5F5E2F5F5F5F5F5F5F5F5F5F5F5F5F5F5F5F5E2F5F5F5E2E2EFF5F5F5
310
E2F5F5F5F5F5F5F5F5F5F5F5F5F5F5F5F5E2F5F5F5F5F5F5F5F5F5F5F5F5F5F5F5F5F5F5F5F5F5F5F5F5F5F5F5F5F5F5F5F5F5F5F5F5F5F5F5F5F5F5F5F5F5F5F5F5F5F5F5F5F5F5F5F5F5F5F5F5F5F5F5F5F5F5F5F5F5F5F5F5F5F5F5F5F5F5F5F5F5F5F5F5F5F5F5F5F5F5F5F5F5F5F5F5F5F5F5F5F5F5F5F5F5F5F5F5F5
310
F5F5F5F5F5F5F5F5F5F5F5F5F5F5F5F5F5F5F5F5F5F5F5F5F5F5E2F5F5F5F5F5F5F5F5F5F5F5F5F5F5F5F5E2F5F5F5E2E2EFF5F5F5E2F5F5F5F5F5F5F5F5F5F5F5F5F5F5F5F5E2F5F5F5F5F5F5F5F5F5F5F5F5F5F5F5F5F5F5F5F5F5F5F5F5F5F5F5F5F5F5F5F5F5F5F5F5F5F5F5F5F5F5F5F5F5F5F5F5F5F5F5F5F5F5F5F5
310
F5F5F5F5F5F5F5F5F5F5F5F5F5F5F5F5F5F5F5F5F5F5F5F5F5F5F5F5F5F5F5F5F5F5F5F5F5F5F5F5F5F5F5F5F5F5F5F5F5F5F5F5F5F5F5F5F5F5F5F5F5F5F5F5F5F5F5F5F5F5F5F5F5F5F5F5F5F5F5E2F5F5F5F5F5F5F5F5F5F5F5F5F5F5F5F5E2F5F5F5E2E2EFF5F5F5E2F5F5F5F5F5F5F5F5F5F5F5F5F5F5F5F5E2F5F5F5
310
F5F5F5F5F5F5F5F5F5F5F5F5F5F5F5F5F5F5F5F5F5F5F5F5F5F5F5F5F5F5F5F5F5F5F5F5F5F5F5F5F5F5F5F5F5F5F5F5F5F5F5F5F5F5F5F5F5F5F5F5F5F5F5F5F5F5F5F5F5F5F5F5F5F5F5F5F5F5F5F5F5F5F5F5F5F5F5F5F5F5F5F5F5F5F5F5F5F5F5F5F5F5F5F5F5F5F5F5F5F5F5F5F5F5F5F5F5F5F5F5F5F5F5F5F5F5F5
310
F5F5F5F5F5E2F5F5F5F5F5F5F5F5F5F5F5F5F5F5F5F5E2F5F5F5E2E2EFF5F5F5E2F5F5F5F5F5F5F5F5F5F5F5F5F5F5F5F5E2F5F5F5F5F5F5F5F5F5F5F5F5F5F5F5F5F5F5F5F5F5F5F5F5F5F5F5F5F5F5F5F5F5F5F5F5F5F5F5F5F5F5F5F5F5F5F5F5F5F5F5F5F5F5F5F5F5F5F5F5F5F5F5F5F5F5F5F5F5F5F5F5F5F5F5F5F5
310
F5F5F5F5F5F5F5F5F5F5F5F5F5F5F5F5F5F5F5F5F5F5F5F5F5F5F5F5F5F5F5F5F5F5F5F5F5F5F5F5F5F5F5F5F5F5F5F5F5F5F5F5F5F5F5F5F5F5E2F5F5F5F5F5F5F5F5F5F5F5F5F5F5F5F5E2F5F5F5E2E2EFF5F5F5E2F5F5F5F5F5F5F5F5F5F5F5F5F5F5F5F5E2F5F5F5F5F5F5F5F5F5F5F5F5F5F5F5F5F5F5F5F5F5F5F5F5
310
F5F5F5F5F5F5F5F5F5F5F5F5F5F5F5F5F5F5F5F5F5F5F5F5F5F5F5F5F5F5F5F5F5F5F5F5F5F5F5F5F5F5F5F5F5F5F5F5F5F5F5F5F5F5F5F5F5F5F5F5F5F5F5F5F5F5F5F5F5F5F5F5F5F5F5F5F5F5F5F5F5F5F5F5F5F5F5F5F5F5F5F5F5F5F5F5F5F5F5F5F5F5F5F5F5F5F5F5F5F5F5E2F5F5F5F5F5F5F5F5F5F5F5F5F5F5F5
310
F5E2F5F5F5E2E2EFF5F5F5E2F5F5F5F5F5F5F5F5F5F5F5F5F5F5F5F5E2F5F5F5F5F5F5F5F5F5F5F5F5F5F5F5F5F5F5F5F5F5F5F5F5F5F5F5F5F5F5F5F5F5F5F5F5F5F5F5F5F5F5F5F5F5F5F5F5F5F5F5F5F5F5F5F5F5F5F5F5F5F5F5F5F5F5F5F5F5F5F5F5F5F5F5F5F5F5F5F5F5F5F5F5F5F5F5F5F5F5F5F5F5F5F5F5F5F5
310
F5F5F5F5F5F5F5F5F5F5F5F5F5F5F5F5F5F5F5F5F5F5F5F5F5F5F5F5F5F5F5F5F5F5F5F5F5E2F5F5F5F5F5F5F5F5F5F5F5F5F5F5F5F5E2F5F5F5E2E2EFF5F5F5E2F5F5F5F5F5F5F5F5F5F5F5F5F5F5F5F5E2F5F5F5F5F5F5F5F5F5F5F5F5F5F5F5F5F5F5F5F5F5F5F5F5F5F5F5F5F5F5F5F5F5F5F5F5F5F5F5F5F5F5F5F5F5
310
F5F5F5F5F5F5F5F5F5F5F5F5F5F5F5F5F5F5F5F5F5F5F5F5F5F5F5F5F5F5F5F5F5F5F5F5F5F5F5F5F5F5F5F5F5F5F5F5F5F5F5F5F5F5F5F5F5F5F5F5F5F5F5F5F5F5F5F5F5F5F5F5F5F5F5F5F5F5F5F5F5F5F5F5F5F5F5F5F5F5E2F5F5F5F5F5F5F5F5F5F5F5F5F5F5F5F5E2F5F5F5E2E2EFF5F5F5E2F5F5F5F5F5F5F5F5F5
310
F5F5F5F5F5F5F5E2F5F5F5F5F5F5F5F5F5F5F5F5F5F5F5F5F5F5F5F5F5F5F5F5F5F5F5F5F5F5F5F5F5F5F5F5F5F5F5F5F5F5F5F5F5F5F5F5F5F5F5F5F5F5F5F5F5F5F5F5F5F5F5F5F5F5F5F5F5F5F5F5F5F5F5F5F5F5F5F5F5F5F5F5F5F5F5F5F5F5F5F5F5F5F5F5F5F5F5F5F5F5F5F5F5F5F5F5F5F5F5F5F5F5F5F5F5F5F5
310
F5F5F5F5F5F5F5F5F5F5F5F5F5F5F5F5E2F5F5F5F5F5F5F5F5F5F5F5F5F5F5F5F5E2F5F5F5E2E2EFF5F5F5E2F5F5F5F5F5F5F5F5F5F5F5F5F5F5F5F5E2F5F5F5F5F5F5F5F5F5F5F5F5F5F5F5F5F5F5F5F5F5F5F5F5F5F5F5F5F5F5F5F5F5F5F5F5F5F5F5F5F5F5F5F5F5F5F5F5F5F5F5F5F5F5F5F5F5F5F5F5F5F5F5F5F5F5
310
F5F5F5F5F5F5F5F5F5F5F5F5F5F5F5F5F5F5F5F5F5F5F5F5F5F5F5F5F5F5F5F5F5F5F5F5F5F5F5F5F5F5F5F5F5F5F5F5F5F5F5F5F5F5F5F5F5F5F5F5F5F5F5F5F5F5F5F5F5E2F5F5F5F5F5F5F5F5F5F5F5F5F5F5F5F5E2F5F5F5E2E2EFF5F5F5E2F5F5F5F5F5F5F5F5F5F5F5F5F5F5F5F5E2F5F5F5F5F5F5F5F5F5F5F5F5F5
310
F5F5F5F5F5F5F5F5F5F5F5F5F5F5F5F5F5F5F5F5F5F5F5F5F5F5F5F5F5F5F5F5F5F5F5F5F5F5F5F5F5F5F5F5F5F5F5F5F5F5F5F5F5F5F5F5F5F5F5F5F5F5F5F5F5F5F5F5F5F5F5F5F5F5F5F5F5F5F5F5F5F5F5F5F5F5F5F5F5F5F5F5F5F5F5F5F5F5F5F5F5F5F5F5F5F5F5F5F5F5F5F5F5F5F5F5F5F5F5F5F5F5E2F5F5F5F5
310
F5F5F5F5F5F5F5F5F5F5F5F5E2F5F5F5E2E2EFF5F5F5E2F5F5F5F5F5F5F5F5F5F5F5F5F5F5F5F5E2F5F5F5F5F5F5F5F5F5F5F5F5F5F5F5F5F5F5F5F5F5F5F5F5F5F5F5F5F5F5F5F5F5F5F5F5F5F5F5F5F5F5F5F5F5F5F5F5F5F5F5F5F5F5F5F5F5F5F5F5F5F5F5F5F5F5F5F5F5F5F5F5F5F5F5F5F5F5F5F5F5F5F5F5F5F5F5
310
F5F5F5F5F5F5F5F5F5F5F5F5F5F5F5F5F5F5F5F5F5F5F5F5F5F5F5F5F5F5F5F5F5F5F5F5F5F5F5F5F5F5F5F5F5F5F5F5E2F5F5F5F5F5F5F5F5F5F5F5F5F5F5F5F5E2F5F5F5E2E2EFF5F5F5E2F5F5F5F5F5F5F5F5F5F5F5F5F5F5F5F5E2F5F5F5F5F5F5F5F5F5F5F5F5F5F5F5F5F5F5F5F5F5F5F5F5F5F5F5F5F5F5F5F5F5F5
310
F5F5F5F5F5F5F5F5F5F5F5F5F5F5F5F5F5F5F5F5F5F5F5F5F5F5F5F5F5F5F5F5F5F5F5F5F5F5F5F5F5F5F5F5F5F5F5F5F5F5F5F5F5F5F5F5F5F5F5F5F5F5F5F5F5F5F5F5F5F5F5F5F5F5F5F5F5F5F5F5F5F5F5F5F5F5F5F5F5F5F5F5F5F5F5F5F5F5F5F5F5E2F5F5F5F5F5F5F5F5F5F5F5F5F5F5F5F5E2F5F5F5E2E2EFF5F5
310
F5E2F5F5F5F5F5F5F5F5F5F5F5F5F5F5F5F5E2F5F5F5F5F5F5F5F5F5F5F5F5F5F5F5F5F5F5F5F5F5F5F5F5F5F5F5F5F5F5F5F5F5F5F5F5F5F5F5F5F5F5F5F5F5F5F5F5F5F5F5F5F5F5F5F5F5F5F5F5F5F5F5F5F5F5F5F5F5F5F5F5F5F5F5F5F5F5F5F5F5F5F5F5F5F5F5F5F5F5F5F5F5F5F5F5F5F5F5F5F5F5F5F5F5F5F5F5
310
F5F5F5F5F5F5F5F5F5F5F5F5F5F5F5F5F5F5F5F5F5F5F5F5F5F5F5E2F5F5F5F5F5F5F5F5F5F5F5F5F5F5F5F5E2F5F5F5E2E2EFF5F5F5E2F5F5F5F5F5F5F5F5F5F5F5F5F5F5F5F5E2F5F5F5F5F5F5F5F5F5F5F5F5F5F5F5F5F5F5F5F5F5F5F5F5F5F5F5F5F5F5F5F5F5F5F5F5F5F5F5F5F5F5F5F5F5F5F5F5F5F5F5F5F5F5F5
310
F5F5F5F5F5F5F5F5F5F5F5F5F5F5F5F5F5F5F5F5F5F5F5F5F5F5F5F5F5F5F5F5F5F5F5F5F5F5F5F5F5F5F5F5F5F5F5F5F5F5F5F5F5F5F5F5F5F5F5F5F5F5F5F5F5F5F5F5F5F5F5F5F5F5F5F5F5F5F5F5E2F5F5F5F5F5F5F5F5F5F5F5F5F5F5F5F5E2F5F5F5E2E2EFF5F5F5E2F5F5F5F5F5F5F5F5F5F5F5F5F5F5F5F5E2F5F5
310
F5F5F5F5F5F5F5F5F5F5F5F5F5F5F5F5F5F5F5F5F5F5F5F5F5F5F5F5F5F5F5F5F5F5F5F5F5F5F5F5F5F5F5F5F5F5F5F5F5F5F5F5F5F5F5F5F5F5F5F5F5F5F5F5F5F5F5F5F5F5F5F5F5F5F5F5F5F5F5F5F5F5F5F5F5F5F5F5F5F5F5F5F5F5F5F5F5F5F5F5F5F5F5F5F5F5F5F5F5F5F5F5F5F5F5F5F5F5F5F5F5F5F5F5F5F5F5
310
F5F5F5F5F5F5E2F5F5F5F5F5F5F5F5F5F5F5F5F5F5F5F5E2F5F5F5E2E2EFF5F5F5E2F5F5F5F5F5F5F5F5F5F5F5F5F5F5F5F5E2F5F5F5F5F5F5F5F5F5F5F5F5F5F5F5F5F5F5F5F5F5F5F5F5F5F5F5F5F5F5F5F5F5F5F5F5F5F5F5F5F5F5F5F5F5F5F5F5F5F5F5F5F5F5F5F5F5F5F5F5F5F5F5F5F5F5F5F5F5F5F5F5F5F5F5F5
310
F5F5F5F5F5F5F5F5F5F5F5F5F5F5F5F5F5F5F5F5F5F5F5F5F5F5F5F5F5F5F5F5F5F5F5F5F5F5F5F5F5F5F5F5F5F5F5F5F5F5F5F5F5F5F5F5F5F5F5E2F5F5F5F5F5F5F5F5F5F5F5F5F5F5F5F5E2F5F5F5E2E2EFF5F5F5F5F5F5F5F5F5F5F5F5F5F5F5F5F5F5F5F5E2F5F5F5F5F5F5F5F5F5F5F5F5F5F5F5F5F5F5F5F5F5F5F5
310
F5F5F5F5F5F5F5F5F5F5F5F5F5F5F5F5F5F5F5F5F5F5F5F5F5F5F5F5F5F5F5F5F5F5F5F5F5F5F5F5F5F5F5F5F5F5F5F5F5F5F5F5F5F5F5F5F5F5F5F5F5F5F5F5F5F5F5F5F5F5F5F5F5F5F5F5F5F5F5F5F5F5F5F5F5F5F5F5F5F5F5F5F5F5F5F5F5F5F5F5F5F5F5F5F5F5F5F5F5F5F5F5E2F5F5F5F5F5F5F5F5F5F5F5F5F5F5
310
F5F5F5F5F5F5E2E2EFF5F5F5F5F5F5F5F5F5F5F5F5F5F5F5F5F5F5F5F5E2F5F5F5F5F5F5F5F5F5F5F5F5F5F5F5F5F5F5F5F5F5F5F5F5F5F5F5F5F5F5F5F5F5F5F5F5F5F5F5F5F5F5F5F5F5F5F5F5F5F5F5F5F5F5F5F5F5F5F5F5F5F5F5F5F5F5F5F5F5F5F5F5F5F5F5F5F5F5F5F5F5F5F5F5F5F5F5F5F5F5F5F5F5F5F5F5F5
310
F5F5F5F5F5F5F5F5F5F5F5F5F5F5F5F5F5F5F5F5F5F5F5F5F5F5F5F5F5F5F5F5F5F5F5F5F5F5E2F5F5F5F5F5F5F5F5F5F5F5F5F5F5F5F5F5F5F5F5E2E2EFF5F5F5F5F5F5F5F5F5F5F5F5F5F5F5F5F5F5F5F5E2F5F5F5F5F5F5F5F5F5F5F5F5F5F5F5F5F5F5F5F5F5F5F5F5F5F5F5F5F5F5F5F5F5F5F5F5F5F5F5F5F5F5F5F5
310
F5F5F5F5F5F5F5F5F5F5F5F5F5F5F5F5F5F5F5F5F5F5F5F5F5F5F5F5F5F5F5F5F5F5F5F5F5F5F5F5F5F5F5F5F5F5F5F5F5F5F5F5F5F5F5F5F5F5F5F5F5F5F5F5F5F5F5F5F5F5F5F5F5F5F5F5F5F5F5F5F5F5F5F5F5F5F5F5F5F5F5E2F5F5F5F5F5F5F5F5F5F5F5F5F5F5F5F5F5F5F5F5E2E2EFF5F5F5F5F5F5F5F5F5F5F5F5
310
F5F5F5F5F5F5F5F5E2F5F5F5F5F5F5F5F5F5F5F5F5F5F5F5F5F5F5F5F5F5F5F5F5F5F5F5F5F5F5F5F5F5F5F5F5F5F5F5F5F5F5F5F5F5F5F5F5F5F5F5F5F5F5F5F5F5F5F5F5F5F5F5F5F5F5F5F5F5F5F5F5F5F5F5F5F5F5F5F5F5F5F5F5F5F5F5F5F5F5F5F5F5F5F5F5F5F5F5F5F5F5F5F5F5F5F5F5F5F5F5F5F5F5F5F5F5F5
310
F5F5F5F5F5F5F5F5F5F5F5F5F5F5F5F5F5E2F5F5F5F5F5F5F5F5F5F5F5F5F5F5F5F5F5F5F5F5E2E2EFF5F5F5F5F5F5F5F5F5F5F5F5F5F5F5F5F5F5F5F5E2F5F5F5F5F5F5F5F5F5F5F5F5F5F5F5F5F5F5F5F5F5F5F5F5F5F5F5F5F5F5F5F5F5F5F5F5F5F5F5F5F5F5F5F5F5F5F5F5F5F5F5F5F5F5F5F5F5F5F5F5F5F5F5F5F5
310
F5F5F5F5F5F5F5F5F5F5F5F5F5F5F5F5F5F5F5F5F5F5F5F5F5F5F5F5F5F5F5F5F5F5F5F5F5F5F5F5F5F5F5F5F5F5F5F5F5F5F5F5F5F5F5F5F5F5F5F5F5F5F5F5F5F5F5F5F5F5E2F5F5F5F5F5F5F5F5F5F5F5F5F5F5F5F5F5F5F5F5E2E2EFF5F5F5F5F5F5F5F5F5F5F5F5F5F5F5F5F5F5F5F5E2F5F5F5F5F5F5F5F5F5F5F5F5
310
F5F5F5F5F5F5F5F5F5F5F5F5F5F5F5F5F5F5F5F5F5F5F5F5F5F5F5F5F5F5F5F5F5F5F5F5F5F5F5F5F5F5F5F5F5F5F5F5F5F5F5F5F5F5F5F5F5F5F5F5F5F5F5F5F5F5F5F5F5F5F5F5F5F5F5F5F5F5F5F5F5F5F5F5F5F5F5F5F5F5F5F5F5F5F5F5F5F5F5F5F5F5F5F5F5F5F5F5F5F5F5F5F5F5F5F5F5F5F5F5F5F5F5E2F5F5F5
310
F5F5F5F5F5F5F5F5F5F5F5F5F5F5F5F5F5E2E2EFF5F5F5F5F5F5F5F5F5F5F5F5F5F5F5F5F5F5F5F5E2F5F5F5F5F5F5F5F5F5F5F5F5F5F5F5F5F5F5F5F5F5F5F5F5F5F5F5F5F5F5F5F5F5F5F5F5F5F5F5F5F5F5F5F5F5F5F5F5F5F5F5F5F5F5F5F5F5F5F5F5F5F5F5F5F5F5F5F5F5F5F5F5F5F5F5F5F5F5F5F5F5F5F5F5F5F5
310
F5F5F5F5F5F5F5F5F5F5F5F5F5F5F5F5F5F5F5F5F5F5F5F5F5F5F5F5F5F5F5F5F5F5F5F5F5F5F5F5F5F5F5F5F5F5F5F5F5E2F5F5F5F5F5F5F5F5F5F5F5F5F5F5F5F5F5F5F5F5E2E2EFF5F5F5F5F5F5F5F5F5F5F5F5F5F5F5F5F5F5F5F5E2F5F5F5F5F5F5F5F5F5F5F5F5F5F5F5F5F5F5F5F5F5F5F5F5F5F5F5F5F5F5F5F5F5
310
F5F5F5F5F5F5F5F5F5F5F5F5F5F5F5F5F5F5F5F5F5F5F5F5F5F5F5F5F5F5F5F5F5F5F5F5F5F5F5F5F5F5F5F5F5F5F5F5F5F5F5F5F5F5F5F5F5F5F5F5F5F5F5F5F5F5F5F5F5F5F5F5F5F5F5F5F5F5F5F5F5F5F5F5F5F5F5F5F5F5F5F5F5F5F5F5F5F5F5F5F5F5E2F5F5F5F5F5F5F5F5F5F5F5F5F5F5F5F5F5F5F5F5E2E2EFF5
310
F5F5F5F5F5F5F5F5F5F5F5F5F5F5F5F5F5F5F5E2F5F5F5F5F5F5F5F5F5F5F5F5F5F5F5F5F5F5F5F5F5F5F5F5F5F5F5F5F5F5F5F5F5F5F5F5F5F5F5F5F5F5F5F5F5F5F5F5F5F5F5F5F5F5F5F5F5F5F5F5F5F5F5F5F5F5F5F5F5F5F5F5F5F5F5F5F5F5F5F5F5F5F5F5F5F5F5F5F5F5F5F5F5F5F5F5F5F5F5F5F5F5F5F5F5F5F5
310
F5F5F5F5F5F5F5F5F5F5F5F5F5F5F5F5F5F5F5F5F5F5F5F5F5F5F5F5E2F5F5F5F5F5F5F5F5F5F5F5F5F5F5F5F5F5F5F5F5E2E2EFF5F5F5E2F5F5F5F5F5F5F5F5F5F5F5F5F5F5F5F5E2F5F5F5F5F5F5F5F5F5F5F5F5F5F5F5F5F5F5F5F5F5F5F5F5F5F5F5F5F5F5F5F5F5F5F5F5F5F5F5F5F5F5F5F5F5F5F5F5F5F5F5F5F5F5
310
F5F5F5F5F5F5F5F5F5F5F5F5F5F5F5F5F5F5F5F5F5F5F5F5F5F5F5F5F5F5F5F5F5F5F5F5F5F5F5F5F5F5F5F5F5F5F5F5F5F5F5F5F5F5F5F5F5F5F5F5F5F5F5F5F5F5F5F5F5F5F5F5F5F5F5F5F5F5F5F5F5E2F5F5F5F5F5F5F5F5F5F5F5F5F5F5F5F5E2F5F5F5E2E2EFF5F5F5E2F5F5F5F5F5F5F5F5F5F5F5F5F5F5F5F5E2F5
310
F5F5F5F5F5F5F5F5F5F5F5F5F5F5F5F5F5F5F5F5F5F5F5F5F5F5F5F5F5F5F5F5F5F5F5F5F5F5F5F5F5F5F5F5F5F5F5F5F5F5F5F5F5F5F5F5F5F5F5F5F5F5F5F5F5F5F5F5F5F5F5F5F5F5F5F5F5F5F5F5F5F5F5F5F5F5F5F5F5F5F5F5F5F5F5F5F5F5F5F5F5F5F5F5F5F5F5F5F5F5F5F5F5F5F5F5F5F5F5F5F5F5F5F5F5F5F5
310
F5F5F5F5F5F5F5E2F5F5F5F5F5F5F5F5F5F5F5F5F5F5F5F5E2F5F5F5E2E2EFF5F5F5E2F5F5F5F5F5F5F5F5F5F5F5F5F5F5F5F5E2F5F5F5F5F5F5F5F5F5F5F5F5F5F5F5F5F5F5F5F5F5F5F5F5F5F5F5F5F5F5F5F5F5F5F5F5F5F5F5F5F5F5F5F5F5F5F5F5F5F5F5F5F5F5F5F5F5F5F5F5F5F5F5F5F5F5F5F5F5F5F5F5F5F5F5
310
F5F5F5F5F5F5F5F5F5F5F5F5F5F5F5F5F5F5F5F5F5F5F5F5F5F5F5F5F5F5F5F5F5F5F5F5F5F5F5F5F5F5F5F5F5F5F5F5F5F5F5F5F5F5F5F5F5F5F5F5E2F5F5F5F5F5F5F5F5F5F5F5F5F5F5F5F5E2F5F5F5E2E2EFF5F5F5E2F5F5F5F5F5F5F5F5F5F5F5F5F5F5F5F5E2F5F5F5F5F5F5F5F5F5F5F5F5F5F5F5F5F5F5F5F5F5F5
310
F5F5F5F5F5F5F5F5F5F5F5F5F5F5F5F5F5F5F5F5F5F5F5F5F5F5F5F5F5F5F5F5F5F5F5F5F5F5F5F5F5F5F5F5F5F5F5F5F5F5F5F5F5F5F5F5F5F5F5F5F5F5F5F5F5F5F5F5F5F5F5F5F5F5F5F5F5F5F5F5F5F5F5F5F5F5F5F5F5F5F5F5F5F5F5F5F5F5F5F5F5F5F5F5F5F5F5F5F5F5F5F5F5E2F5F5F5F5F5F5F5F5F5F5F5F5F5
310
F5F5F5E2F5F5F5E2E2EFF5F5F5E2F5F5F5F5F5F5F5F5F5F5F5F5F5F5F5F5E2F5F5F5F5F5F5F5F5F5F5F5F5F5F5F5F5F5F5F5F5F5F5F5F5F5F5F5F5F5F5F5F5F5F5F5F5F5F5F5F5F5F5F5F5F5F5F5F5F5F5F5F5F5F5F5F5F5F5F5F5F5F5F5F5F5F5F5F5F5F5F5F5F5F5F5F5F5F5F5F5F5F5F5F5F5F5F5F5F5F5F5F5F5F5F5F5
310
F5F5F5F5F5F5F5F5F5F5F5F5F5F5F5F5F5F5F5F5F5F5F5F5F5F5F5F5F5F5F5F5F5F5F5F5F5F5F5E2F5F5F5F5F5F5F5F5F5F5F5F5F5F5F5F5E2F5F5F5E2E2EFF5F5F5E2F5F5F5F5F5F5F5F5F5F5F5F5F5F5F5F5E2F5F5F5F5F5F5F5F5F5F5F5F5F5F5F5F5F5F5F5F5F5F5F5F5F5F5F5F5F5F5F5F5F5F5F5F5F5F5F5F5F5F5F5
310
F5F5F5F5F5F5F5F5F5F5F5F5F5F5F5F5F5F5F5F5F5F5F5F5F5F5F5F5F5F5F5F5F5F5F5F5F5F5F5F5F5F5F5F5F5F5F5F5F5F5F5F5F5F5F5F5F5F5F5F5F5F5F5F5F5F5F5F5F5F5F5F5F5F5F5F5F5F5F5F5F5F5F5F5F5F5F5F5F5F5F5F5E2F5F5F5F5F5F5F5F5F5F5F5F5F5F5F5F5E2F5F5F5E2E2EFF5F5F5E2F5F5F5F5F5F5F5
310
F5F5F5F5F5F5F5F5F5E2F5F5F5F5F5F5F5F5F5F5F5F5F5F5F5F5F5F5F5F5F5F5F5F5F5F5F5F5F5F5F5F5F5F5F5F5F5F5F5F5F5F5F5F5F5F5F5F5F5F5F5F5F5F5F5F5F5F5F5F5F5F5F5F5F5F5F5F5F5F5F5F5F5F5F5F5F5F5F5F5F5F5F5F5F5F5F5F5F5F5F5F5F5F5F5F5F5F5F5F5F5F5F5F5F5F5F5F5F5F5F5F5F5F5F5F5F5
310
F5F5F5F5F5F5F5F5F5F5F5F5F5F5F5F5F5F5E2F5F5F5F5F5F5F5F5F5F5F5F5F5F5F5F5E2F5F5F5E2E2EFF5F5F5E2F5F5F5F5F5F5F5F5F5F5F5F5F5F5F5F5E2F5F5F5F5F5F5F5F5F5F5F5F5F5F5F5F5F5F5F5F5F5F5F5F5F5F5F5F5F5F5F5F5F5F5F5F5F5F5F5F5F5F5F5F5F5F5F5F5F5F5F5F5F5F5F5F5F5F5F5F5F5F5F5F5
310
F5F5F5F5F5F5F5F5F5F5F5F5F5F5F5F5F5F5F5F5F5F5F5F5F5F5F5F5F5F5F5F5F5F5F5F5F5F5F5F5F5F5F5F5F5F5F5F5F5F5F5F5F5F5F5F5F5F5F5F5F5F5F5F5F5F5F5F5F5F5F5E2F5F5F5F5F5F5F5F5F5F5F5F5F5F5F5F5E2F5F5F5E2E2EFF5F5F5E2F5F5F5F5F5F5F5F5F5F5F5F5F5F5F5F5E2F5F5F5F5F5F5F5F5F5F5F5
310
F5F5F5F5F5F5F5F5F5F5F5F5F5F5F5F5F5F5F5F5F5F5F5F5F5F5F5F5F5F5F5F5F5F5F5F5F5F5F5F5F5F5F5F5F5F5F5F5F5F5F5F5F5F5F5F5F5F5F5F5F5F5F5F5F5F5F5F5F5F5F5F5F5F5F5F5F5F5F5F5F5F5F5F5F5F5F5F5F5F5F5F5F5F5F5F5F5F5F5F5F5F5F5F5F5F5F5F5F5F5F5F5F5F5F5F5F5F5F5F5F5F5F5F5E2F5F5
310
F5F5F5F5F5F5F5F5F5F5F5F5F5F5E2F5F5F5E2E2EFF5F5F5E2F5F5F5F5F5F5F5F5F5F5F5F5F5F5F5F5E2F5F5F5F5F5F5F5F5F5F5F5F5F5F5F5F5F5F5F5F5F5F5F5F5F5F5F5F5F5F5F5F5F5F5F5F5F5F5F5F5F5F5F5F5F5F5F5F5F5F5F5F5F5F5F5F5F5F5F5F5F5F5F5F5F5F5F5F5F5F5F5F5F5F5F5F5F5F5F5F5F5F5F5F5F5
310
F5F5F5F5F5F5F5F5F5F5F5F5F5F5F5F5F5F5F5F5F5F5F5F5F5F5F5F5F5F5F5F5F5F5F5F5F5F5F5F5F5F5F5F5F5F5F5F5F5F5E2F5F5F5F5F5F5F5F5F5F5F5F5F5F5F5F5E2F5F5F5E2E2EFF5F5F5E2F5F5F5F5F5F5F5F5F5F5F5F5F5F5F5F5E2F5F5F5F5F5F5F5F5F5F5F5F5F5F5F5F5F5F5F5F5F5F5F5F5F5F5F5F5F5F5F5F5
310
F5F5F5F5F5F5F5F5F5F5F5F5F5F5F5F5F5F5F5F5F5F5F5F5F5F5F5F5F5F5F5F5F5F5F5F5F5F5F5F5F5F5F5F5F5F5F5F5F5F5F5F5F5F5F5F5F5F5F5F5F5F5F5F5F5F5F5F5F5F5F5F5F5F5F5F5F5F5F5F5F5F5F5F5F5F5F5F5F5F5F5F5F5F5F5F5F5F5F5F5F5F5F5E2F5F5F5F5F5F5F5F5F5F5F5F5F5F5F5F5E2F5F5F5E2E2EF
310
F5F5F5E2F5F5F5F5F5F5F5F5F5F5F5F5F5F5F5F5E2F5F5F5F5F5F5F5F5F5F5F5F5F5F5F5F5F5F5F5F5F5F5F5F5F5F5F5F5F5F5F5F5F5F5F5F5F5F5F5F5F5F5F5F5F5F5F5F5F5F5F5F5F5F5F5F5F5F5F5F5F5F5F5F5F5F5F5F5F5F5F5F5F5F5F5F5F5F5F5F5F5F5F5F5F5F5F5F5F5F5F5F5F5F5F5F5F5F5F5F5F5F5F5F5F5F5
310
F5F5F5F5F5F5F5F5F5F5F5F5F5F5F5F5F5F5F5F5F5F5F5F5F5F5F5F5F5E2F5F5F5F5F5F5F5F5F5F5F5F5F5F5F5F5E2F5F5F5E2E2EFF5F5F5E2F5F5F5F5F5F5F5F5F5F5F5F5F5F5F5F5E2F5F5F5F5F5F5F5F5F5F5F5F5F5F5F5F5F5F5F5F5F5F5F5F5F5F5F5F5F5F5F5F5F5F5F5F5F5F5F5F5F5F5F5F5F5F5F5F5F5F5F5F5F5
310
F5F5F5F5F5F5F5F5F5F5F5F5F5F5F5F5F5F5F5F5F5F5F5F5F5F5F5F5F5F5F5F5F5F5F5F5F5F5F5F5F5F5F5F5F5F5F5F5F5F5F5F5F5F5F5F5F5F5F5F5F5F5F5F5F5F5F5F5F5F5F5F5F5F5F5F5F5F5F5F5F5F5E2F5F5F5F5F5F5F5F5F5F5F5F5F5F5F5F5E2F5F5F5E2E2EFF5F5F5E2F5F5F5F5F5F5F5F5F5F5F5F5F5F5F5F5E2
310
F5F5F5F5F5F5F5F5F5F5F5F5F5F5F5F5F5F5F5F5F5F5F5F5F5F5F5F5F5F5F5F5F5F5F5F5F5F5F5F5F5F5F5F5F5F5F5F5F5F5F5F5F5F5F5F5F5F5F5F5F5F5F5F5F5F5F5F5F5F5F5F5F5F5F5F5F5F5F5F5F5F5F5F5F5F5F5F5F5F5F5F5F5F5F5F5F5F5F5F5F5F5F5F5F5F5F5F5F5F5F5F5F5F5F5F5F5F5F5F5F5F5F5F5F5F5F5
310
F5F5F5F5F5F5F5F5E2F5F5F5F5F5F5F5F5F5F5F5F5F5F5F5F5E2F5F5F5E2E2EFF5F5F5E2F5F5F5F5F5F5F5F5F5F5F5F5F5F5F5F5E2F5F5F5F5F5F5F5F5F5F5F5F5F5F5F5F5F5F5F5F5F5F5F5F5F5F5F5F5F5F5F5F5F5F5F5F5F5F5F5F5F5F5F5F5F5F5F5F5F5F5F5F5F5F5F5F5F5F5F5F5F5F5F5F5F5F5F5F5F5F5F5F5F5F5
310
F5F5F5F5F5F5F5F5F5F5F5F5F5F5F5F5F5F5F5F5F5F5F5F5F5F5F5F5F5F5F5F5F5F5F5F5F5F5F5F5F5F5F5F5F5F5F5F5F5F5F5F5F5F5F5F5F5F5F5F5F5E2F5F5F5F5F5F5F5F5F5F5F5F5F5F5F5F5E2F5F5F5E2E2EFF5F5F5E2F5F5F5F5F5F5F5F5F5F5F5F5F5F5F5F5E2F5F5F5F5F5F5F5F5F5F5F5F5F5F5F5F5F5F5F5F5F5
310
F5F5F5F5F5F5F5F5F5F5F5F5F5F5F5F5F5F5F5F5F5F5F5F5F5F5F5F5F5F5F5F5F5F5F5F5F5F5F5F5F5F5F5F5F5F5F5F5F5F5F5F5F5F5F5F5F5F5F5F5F5F5F5F5F5F5F5F5F5F5F5F5F5F5F5F5F5F5F5F5F5F5F5F5F5F5F5F5F5F5F5F5F5F5F5F5F5F5F5F5F5F5F5F5F5F5F5F5F5F5F5F5F5F5E2F5F5F5F5F5F5F5F5F5F5F5F5
310
F5F5F5F5E2F5F5F5E2E2EFF5F5F5E2F5F5F5F5F5F5F5F5F5F5F5F5F5F5F5F5E2F5F5F5F5F5F5F5F5F5F5F5F5F5F5F5F5F5F5F5F5F5F5F5F5F5F5F5F5F5F5F5F5F5F5F5F5F5F5F5F5F5F5F5F5F5F5F5F5F5F5F5F5F5F5F5F5F5F5F5F5F5F5F5F5F5F5F5F5F5F5F5F5F5F5F5F5F5F5F5F5F5F5F5F5F5F5F5F5F5F5F5F5F5F5F5
310
F5F5F5F5F5F5F5F5F5F5F5F5F5F5F5F5F5F5F5F5F5F5F5F5F5F5F5F5F5F5F5F5F5F5F5F5F5F5F5F5E2F5F5F5F5F5F5F5F5F5F5F5F5F5F5F5F5E2F5F5F5E2E2EFF5F5F5F5F5F5F5F5F5F5F5F5F5F5F5F5F5F5F5F5E2F5F5F5F5F5F5F5F5F5F5F5F5F5F5F5F5F5F5F5F5F5F5F5F5F5F5F5F5F5F5F5F5F5F5F5F5F5F5F5F5F5F5
310
F5F5F5F5F5F5F5F5F5F5F5F5F5F5F5F5F5F5F5F5F5F5F5F5F5F5F5F5F5F5F5F5F5F5F5F5F5F5F5F5F5F5F5F5F5F5F5F5F5F5F5F5F5F5F5F5F5F5F5F5F5F5F5F5F5F5F5F5F5F5F5F5F5F5F5F5F5F5F5F5F5F5F5F5F5F5F5F5F5F5F5F5F5E2F5F5F5F5F5F5F5F5F5F5F5F5F5F5F5F5F5F5F5F5E2E2EFF5F5F5F5F5F5F5F5F5F5
310
F5F5F5F5F5F5F5F5F5F5E2F5F5F5F5F5F5F5F5F5F5F5F5F5F5F5F5F5F5F5F5F5F5F5F5F5F5F5F5F5F5F5F5F5F5F5F5F5F5F5F5F5F5F5F5F5F5F5F5F5F5F5F5F5F5F5F5F5F5F5F5F5F5F5F5F5F5F5F5F5F5F5F5F5F5F5F5F5F5F5F5F5F5F5F5F5F5F5F5F5F5F5F5F5F5F5F5F5F5F5F5F5F5F5F5F5F5F5F5F5F5F5F5F5F5F5F5
310
F5F5F5F5F5F5F5F5F5F5F5F5F5F5F5F5F5F5F5E2F5F5F5F5F5F5F5F5F5F5F5F5F5F5F5F5F5F5F5F5E2E2EFF5F5F5F5F5F5F5F5F5F5F5F5F5F5F5F5F5F5F5F5E2F5F5F5F5F5F5F5F5F5F5F5F5F5F5F5F5F5F5F5F5F5F5F5F5F5F5F5F5F5F5F5F5F5F5F5F5F5F5F5F5F5F5F5F5F5F5F5F5F5F5F5F5F5F5F5F5F5F5F5F5F5F5F5
310
F5F5F5F5F5F5F5F5F5F5F5F5F5F5F5F5F5F5F5F5F5F5F5F5F5F5F5F5F5F5F5F5F5F5F5F5F5F5F5F5F5F5F5F5F5F5F5F5F5F5F5F5F5F5F5F5F5F5F5F5F5F5F5F5F5F5F5F5F5F5F5F5E2F5F5F5F5F5F5F5F5F5F5F5F5F5F5F5F5F5F5F5F5E2E2EFF5F5F5F5F5F5F5F5F5F5F5F5F5F5F5F5F5F5F5F5E2F5F5F5F5F5F5F5F5F5F5
310
F5F5F5F5F5F5F5F5F5F5F5F5F5F5F5F5F5F5F5F5F5F5F5F5F5F5F5F5F5F5F5F5F5F5F5F5F5F5F5F5F5F5F5F5F5F5F5F5F5F5F5F5F5F5F5F5F5F5F5F5F5F5F5F5F5F5F5F5F5F5F5F5F5F5F5F5F5F5F5F5F5F5F5F5F5F5F5F5F5F5F5F5F5F5F5F5F5F5F5F5F5F5F5F5F5F5F5F5F5F5F5F5F5F5F5F5F5F5F5F5F5F5F5F5F5E2F5
310
F5F5F5F5F5F5F5F5F5F5F5F5F5F5F5F5F5F5F5E2E2EFF5F5F5F5F5F5F5F5F5F5F5F5F5F5F5F5F5F5F5F5E2F5F5F5F5F5F5F5F5F5F5F5F5F5F5F5F5F5F5F5F5F5F5F5F5F5F5F5F5F5F5F5F5F5F5F5F5F5F5F5F5F5F5F5F5F5F5F5F5F5F5F5F5F5F5F5F5F5F5F5F5F5F5F5F5F5F5F5F5F5F5F5F5F5F5F5F5F5F5F5F5F5F5F5F5
310
F5F5F5F5F5F5F5F5F5F5F5F5F5F5F5F5F5F5F5F5F5F5F5F5F5F5F5F5F5F5F5F5F5F5F5F5F5F5F5F5F5F5F5F5F5F5F5F5F5F5F5E2F5F5F5F5F5F5F5F5F5F5F5F5F5F5F5F5F5F5F5F5E2E2EFF5F5F5F5F5F5F5F5F5F5F5F5F5F5F5F5F5F5F5F5E2F5F5F5F5F5F5F5F5F5F5F5F5F5F5F5F5F5F5F5F5F5F5F5F5F5F5F5F5F5F5F5
310
F5F5F5F5F5F5F5F5F5F5F5F5F5F5F5F5F5F5F5F5F5F5F5F5F5F5F5F5F5F5F5F5F5F5F5F5F5F5F5F5F5F5F5F5F5F5F5F5F5F5F5F5F5F5F5F5F5F5F5F5F5F5F5F5F5F5F5F5F5F5F5F5F5F5F5F5F5F5F5F5F5F5F5F5F5F5F5F5F5F5F5F5F5F5F5F5F5F5F5F5F5F5F5F5E2F5F5F5F5F5F5F5F5F5F5F5F5F5F5F5F5F5F5F5F5E2E2
310
EFF5F5F5F5F5F5F5F5F5F5F5F5F5F5F5F5F5F5F5F5E2F5F5F5F5F5F5F5F5F5F5F5F5F5F5F5F5F5F5F5F5F5F5F5F5F5F5F5F5F5F5F5F5F5F5F5F5F5F5F5F5F5F5F5F5F5F5F5F5F5F5F5F5F5F5F5F5F5F5F5F5F5F5F5F5F5F5F5F5F5F5F5F5F5F5F5F5F5F5F5F5F5F5F5F5F5F5F5F5F5F5F5F5F5F5F5F5F5F5F5F5F5F5F5F5F5
310
F5F5F5F5F5F5F5F5F5F5F5F5F5F5F5F5F5F5F5F5F5F5F5F5F5F5F5F5F5F5E2F5F5F5F5F5F5F5F5F5F5F5F5F5F5F5F5F5F5F5F5E2E2EFF5F5F5F5F5F5F5F5F5F5F5F5F5F5F5F5F5F5F5F5E2F5F5F5F5F5F5F5F5F5F5F5F5F5F5F5F5F5F5F5F5F5F5F5F5F5F5F5F5F5F5F5F5F5F5F5F5F5F5F5F5F5F5F5F5F5F5F5F5F5F5F5F5
310
F5F5F5F5F5F5F5F5F5F5F5F5F5F5F5F5F5F5F5F5F5F5F5F5F5F5F5F5F5F5F5F5F5F5F5F5F5F5F5F5F5F5F5F5F5F5F5F5F5F5F5F5F5F5F5F5F5F5F5F5F5F5F5F5F5F5F5F5F5F5F5F5F5F5F5F5F5F5F5F5F5F5F5E2F5F5F5F5F5F5F5F5F5F5F5F5F5F5F5F5F5F5F5F5E2E2EFF5F5F5F5F5F5F5F5F5F5F5F5F5F5F5F5F5F5F5F5
310
E2F5F5F5F5F5F5F5F5F5F5F5F5F5F5F5F5F5F5F5F5F5F5F5F5F5F5F5F5F5F5F5F5F5F5F5F5F5F5F5F5F5F5F5F5F5F5F5F5F5F5F5F5F5F5F5F5F5F5F5F5F5F5F5F5F5F5F5F5F5F5F5F5F5F5F5F5F5F5F5F5F5F5F5F5F5F5F5F5F5F5F5F5F5F5F5F5F5F5F5F5F5F5F5F5F5F5F5F5F5F5F5F5F5F5F5F5F5F5F5F5F5F5F5F5F5F5
310
F5F5F5F5F5F5F5F5F5E2F5F5F5F5F5F5F5F5F5F5F5F5F5F5F5F5F5F5F5F5E2E2EFF5F5F5E2F5F5F5F5F5F5F5F5F5F5F5F5F5F5F5F5E2F5F5F5F5F5F5F5F5F5F5F5F5F5F5F5F5F5F5F5F5F5F5F5F5F5F5F5F5F5F5F5F5F5F5F5F5F5F5F5F5F5F5F5F5F5F5F5F5F5F5F5F5F5F5F5F5F5F5F5F5F5F5F5F5F5F5F5F5F5F5F5F5F5
310
F5F5F5F5F5F5F5F5F5F5F5F5F5F5F5F5F5F5F5F5F5F5F5F5F5F5F5F5F5F5F5F5F5F5F5F5F5F5F5F5F5F5F5F5F5F5F5F5F5F5F5F5F5F5F5F5F5F5F5F5F5F5E2F5F5F5F5F5F5F5F5F5F5F5F5F5F5F5F5E2F5F5F5E2E2EFF5F5F5E2F5F5F5F5F5F5F5F5F5F5F5F5F5F5F5F5E2F5F5F5F5F5F5F5F5F5F5F5F5F5F5F5F5F5F5F5F5
310
F5F5F5F5F5F5F5F5F5F5F5F5F5F5F5F5F5F5F5F5F5F5F5F5F5F5F5F5F5F5F5F5F5F5F5F5F5F5F5F5F5F5F5F5F5F5F5F5F5F5F5F5F5F5F5F5F5F5F5F5F5F5F5F5F5F5F5F5F5F5F5F5F5F5F5F5F5F5F5F5F5F5F5F5F5F5F5F5F5F5F5F5F5F5F5F5F5F5F5F5F5F5F5F5F5F5F5F5F5F5F5F5F5F5F5E2F5F5F5F5F5F5F5F5F5F5F5
310
F5F5F5F5F5E2F5F5F5E2E2EFF5F5F5E2F5F5F5F5F5F5F5F5F5F5F5F5F5F5F5F5E2F5F5F5F5F5F5F5F5F5F5F5F5F5F5F5F5F5F5F5F5F5F5F5F5F5F5F5F5F5F5F5F5F5F5F5F5F5F5F5F5F5F5F5F5F5F5F5F5F5F5F5F5F5F5F5F5F5F5F5F5F5F5F5F5F5F5F5F5F5F5F5F5F5F5F5F5F5F5F5F5F5F5F5F5F5F5F5F5F5F5F5F5F5F5
310
F5F5F5F5F5F5F5F5F5F5F5F5F5F5F5F5F5F5F5F5F5F5F5F5F5F5F5F5F5F5F5F5F5F5F5F5F5F5F5F5F5E2F5F5F5F5F5F5F5F5F5F5F5F5F5F5F5F5E2F5F5F5E2E2EFF5F5F5E2F5F5F5F5F5F5F5F5F5F5F5F5F5F5F5F5E2F5F5F5F5F5F5F5F5F5F5F5F5F5F5F5F5F5F5F5F5F5F5F5F5F5F5F5F5F5F5F5F5F5F5F5F5F5F5F5F5F5
310
F5F5F5F5F5F5F5F5F5F5F5F5F5F5F5F5F5F5F5F5F5F5F5F5F5F5F5F5F5F5F5F5F5F5F5F5F5F5F5F5F5F5F5F5F5F5F5F5F5F5F5F5F5F5F5F5F5F5F5F5F5F5F5F5F5F5F5F5F5F5F5F5F5F5F5F5F5F5F5F5F5F5F5F5F5F5F5F5F5F5F5F5F5F5E2F5F5F5F5F5F5F5F5F5F5F5F5F5F5F5F5E2F5F5F5E2E2EFF5F5F5E2F5F5F5F5F5
310
F5F5F5F5F5F5F5F5F5F5F5E2F5F5F5F5F5F5F5F5F5F5F5F5F5F5F5F5F5F5F5F5F5F5F5F5F5F5F5F5F5F5F5F5F5F5F5F5F5F5F5F5F5F5F5F5F5F5F5F5F5F5F5F5F5F5F5F5F5F5F5F5F5F5F5F5F5F5F5F5F5F5F5F5F5F5F5F5F5F5F5F5F5F5F5F5F5F5F5F5F5F5F5F5F5F5F5F5F5F5F5F5F5F5F5F5F5F5F5F5F5F5F5F5F5F5F5
310
F5F5F5F5F5F5F5F5F5F5F5F5F5F5F5F5F5F5F5F5E2F5F5F5F5F5F5F5F5F5F5F5F5F5F5F5F5E2F5F5F5E2E2EFF5F5F5E2F5F5F5F5F5F5F5F5F5F5F5F5F5F5F5F5E2F5F5F5F5F5F5F5F5F5F5F5F5F5F5F5F5F5F5F5F5F5F5F5F5F5F5F5F5F5F5F5F5F5F5F5F5F5F5F5F5F5F5F5F5F5F5F5F5F5F5F5F5F5F5F5F5F5F5F5F5F5F5
310
F5F5F5F5F5F5F5F5F5F5F5F5F5F5F5F5F5F5F5F5F5F5F5F5F5F5F5F5F5F5F5F5F5F5F5F5F5F5F5F5F5F5F5F5F5F5F5F5F5F5F5F5F5F5F5F5F5F5F5F5F5F5F5F5F5F5F5F5F5F5F5F5F5E2F5F5F5F5F5F5F5F5F5F5F5F5F5F5F5F5E2F5F5F5E2E2EFF5F5F5E2F5F5F5F5F5F5F5F5F5F5F5F5F5F5F5F5E2F5F5F5F5F5F5F5F5F5
310
F5F5F5F5F5F5F5F5F5F5F5F5F5F5F5F5F5F5F5F5F5F5F5F5F5F5F5F5F5F5F5F5F5F5F5F5F5F5F5F5F5F5F5F5F5F5F5F5F5F5F5F5F5F5F5F5F5F5F5F5F5F5F5F5F5F5F5F5F5F5F5F5F5F5F5F5F5F5F5F5F5F5F5F5F5F5F5F5F5F5F5F5F5F5F5F5F5F5F5F5F5F5F5F5F5F5F5F5F5F5F5F5F5F5F5F5F5F5F5F5F5F5F5F5F5F5E2
310
F5F5F5F5F5F5F5F5F5F5F5F5F5F5F5F5E2F5F5F5E2E2EFF5F5F5E2F5F5F5F5F5F5F5F5F5F5F5F5F5F5F5F5E2F5F5F5F5F5F5F5F5F5F5F5F5F5F5F5F5F5F5F5F5F5F5F5F5F5F5F5F5F5F5F5F5F5F5F5F5F5F5F5F5F5F5F5F5F5F5F5F5F5F5F5F5F5F5F5F5F5F5F5F5F5F5F5F5F5F5F5F5F5F5F5F5F5F5F5F5F5F5F5F5F5F5F5
310
F5F5F5F5F5F5F5F5F5F5F5F5F5F5F5F5F5F5F5F5F5F5F5F5F5F5F5F5F5F5F5F5F5F5F5F5F5F5F5F5F5F5F5F5F5F5F5F5F5F5F5F5E2F5F5F5F5F5F5F5F5F5F5F5F5F5F5F5F5E2F5F5F5E2E2EFF5F5F5E2F5F5F5F5F5F5F5F5F5F5F5F5F5F5F5F5E2F5F5F5F5F5F5F5F5F5F5F5F5F5F5F5F5F5F5F5F5F5F5F5F5F5F5F5F5F5F5
310
F5F5F5F5F5F5F5F5F5F5F5F5F5F5F5F5F5F5F5F5F5F5F5F5F5F5F5F5F5F5F5F5F5F5F5F5F5F5F5F5F5F5F5F5F5F5F5F5F5F5F5F5F5F5F5F5F5F5F5F5F5F5F5F5F5F5F5F5F5F5F5F5F5F5F5F5F5F5F5F5F5F5F5F5F5F5F5F5F5F5F5F5F5F5F5F5F5F5F5F5F5F5F5F5F5E2F5F5F5F5F5F5F5F5F5F5F5F5F5F5F5F5E2F5F5F5E2
310
E2EFF5F5F5E2F5F5F5F5F5F5F5F5F5F5F5F5F5F5F5F5E2F5F5F5F5F5F5F5F5F5F5F5F5F5F5F5F5F5F5F5F5F5F5F5F5F5F5F5F5F5F5F5F5F5F5F5F5F5F5F5F5F5F5F5F5F5F5F5F5F5F5F5F5F5F5F5F5F5F5F5F5F5F5F5F5F5F5F5F5F5F5F5F5F5F5F5F5F5F5F5F5F5F5F5F5F5F5F5F5F5F5F5F5F5F5F5F5F5F5F5F5F5F5F5F5
310
F5F5F5F5F5F5F5F5F5F5F5F5F5F5F5F5F5F5F5F5F5F5F5F5F5F5F5F5F5F5F5E2F5F5F5F5F5F5F5F5F5F5F5F5F5F5F5F5E2F5F5F5E2E2EFF5F5F5E2F5F5F5F5F5F5F5F5F5F5F5F5F5F5F5F5E2F5F5F5F5F5F5F5F5F5F5F5F5F5F5F5F5F5F5F5F5F5F5F5F5F5F5F5F5F5F5F5F5F5F5F5F5F5F5F5F5F5F5F5F5F5F5F5F5F5F5F5
310
F5F5F5F5F5F5F5F5F5F5F5F5F5F5F5F5F5F5F5F5F5F5F5F5F5F5F5F5F5F5F5F5F5F5F5F5F5F5F5F5F5F5F5F5F5F5F5F5F5F5F5F5F5F5F5F5F5F5F5F5F5F5F5F5F5F5F5F5F5F5F5F5F5F5F5F5F5F5F5F5F5F5F5F5E2F5F5F5F5F5F5F5F5F5F5F5F5F5F5F5F5E2F5F5F5E2E2EFF5F5F5E2F5F5F5F5F5F5F5F5F5F5F5F5F5F5F5
310
F5E2F5F5F5F5F5F5F5F5F5F5F5F5F5F5F5F5F5F5F5F5F5F5F5F5F5F5F5F5F5F5F5F5F5F5F5F5F5F5F5F5F5F5F5F5F5F5F5F5F5F5F5F5F5F5F5F5F5F5F5F5F5F5F5F5F5F5F5F5F5F5F5F5F5F5F5F5F5F5F5F5F5F5F5F5F5F5F5F5F5F5F5F5F5F5F5F5F5F5F5F5F5F5F5F5F5F5F5F5F5F5F5F5F5F5F5F5F5F5F5F5F5F5F5F5F5
310
F5F5F5F5F5F5F5F5F5F5E2F5F5F5F5F5F5F5F5F5F5F5F5F5F5F5F5E2F5F5F5E2E2EFF5F5F5E2F5F5F5F5F5F5F5F5F5F5F5F5F5F5F5F5E2F5F5F5F5F5F5F5F5F5F5F5F5F5F5F5F5F5F5F5F5F5F5F5F5F5F5F5F5F5F5F5F5F5F5F5F5F5F5F5F5F5F5F5F5F5F5F5F5F5F5F5F5F5F5F5F5F5F5F5F5F5F5F5F5F5F5F5F5F5F5F5F5
310
F5F5F5F5F5F5F5F5F5F5F5F5F5F5F5F5F5F5F5F5F5F5F5F5F5F5F5F5F5F5F5F5F5F5F5F5F5F5F5F5F5F5F5F5F5F5F5F5F5F5F5F5F5F5F5F5F5F5F5F5F5F5F5E2F5F5F5F5F5F5F5F5F5F5F5F5F5F5F5F5E2F5F5F5E2E2EFF5F5F5E2F5F5F5F5F5F5F5F5F5F5F5F5F5F5F5F5E2F5F5F5F5F5F5F5F5F5F5F5F5F5F5F5F5F5F5F5
310
F5F5F5F5F5F5F5F5F5F5F5F5F5F5F5F5F5F5F5F5F5F5F5F5F5F5F5F5F5F5F5F5F5F5F5F5F5F5F5F5F5F5F5F5F5F5F5F5F5F5F5F5F5F5F5F5F5F5F5F5F5F5F5F5F5F5F5F5F5F5F5F5F5F5F5F5F5F5F5F5F5F5F5F5F5F5F5F5F5F5F5F5F5F5F5F5F5F5F5F5F5F5F5F5F5F5F5F5F5F5F5F5F5F5F5F5E2F5F5F5F5F5F5F5F5F5F5
310
F5F5F5F5F5F5E2F5F5F5E2E2EFF5F5F5E2F5F5F5F5F5F5F5F5F5F5F5F5F5F5F5F5E2F5F5F5F5F5F5F5F5F5F5F5F5F5F5F5F5F5F5F5F5F5F5F5F5F5F5F5F5F5F5F5F5F5F5F5F5F5F5F5F5F5F5F5F5F5F5F5F5F5F5F5F5F5F5F5F5F5F5F5F5F5F5F5F5F5F5F5F5F5F5F5F5F5F5F5F5F5F5F5F5F5F5F5F5F5F5F5F5F5F5F5F5F5
310
F5F5F5F5F5F5F5F5F5F5F5F5F5F5F5F5F5F5F5F5F5F5F5F5F5F5F5F5F5F5F5F5F5F5F5F5F5F5F5F5F5F5E2F5F5F5F5F5F5F5F5F5F5F5F5F5F5F5F5E2F5F5F5E2E2EFF5F5F5E2F5F5F5F5F5F5F5F5F5F5F5F5F5F5F5F5E2F5F5F5F5F5F5F5F5F5F5F5F5F5F5F5F5F5F5F5F5F5F5F5F5F5F5F5F5F5F5F5F5F5F5F5F5F5F5F5F5
310
F5F5F5F5F5F5F5F5F5F5F5F5F5F5F5F5F5F5F5F5F5F5F5F5F5F5F5F5F5F5F5F5F5F5F5F5F5F5F5F5F5F5F5F5F5F5F5F5F5F5F5F5F5F5F5F5F5F5F5F5F5F5F5F5F5F5F5F5F5F5F5F5F5F5F5F5F5F5F5F5F5F5F5F5F5F5F5F5F5F5F5F5F5F5F5E2F5F5F5F5F5F5F5F5F5F5F5F5F5F5F5F5E2F5F5F5E2E2EFF5F5F5E2F5F5F5F5
310
F5F5F5F5F5F5F5F5F5F5F5F5E2F5F5F5F5F5F5F5F5F5F5F5F5F5F5F5F5F5F5F5F5F5F5F5F5F5F5F5F5F5F5F5F5F5F5F5F5F5F5F5F5F5F5F5F5F5F5F5F5F5F5F5F5F5F5F5F5F5F5F5F5F5F5F5F5F5F5F5F5F5F5F5F5F5F5F5F5F5F5F5F5F5F5F5F5F5F5F5F5F5F5F5F5F5F5F5F5F5F5F5F5F5F5F5F5F5F5F5F5F5F5F5F5F5F5
310
F5F5F5F5F5F5F5F5F5F5F5F5F5F5F5F5F5F5F5F5F5E2F5F5F5F5F5F5F5F5F5F5F5F5F5F5F5F5E2F5F5F5E2E2EFF5F5F5F5F5F5F5F5F5F5F5F5F5F5F5F5F5F5F5F5E2F5F5F5F5F5F5F5F5F5F5F5F5F5F5F5F5F5F5F5F5F5F5F5F5F5F5F5F5F5F5F5F5F5F5F5F5F5F5F5F5F5F5F5F5F5F5F5F5F5F5F5F5F5F5F5F5F5F5F5F5F5
310
F5F5F5F5F5F5F5F5F5F5F5F5F5F5F5F5F5F5F5F5F5F5F5F5F5F5F5F5F5F5F5F5F5F5F5F5F5F5F5F5F5F5F5F5F5F5F5F5F5F5F5F5F5F5F5F5F5F5F5F5F5F5F5F5F5F5F5F5F5F5F5F5F5F5E2F5F5F5F5F5F5F5F5F5F5F5F5F5F5F5F5F5F5F5F5E2E2EFF5F5F5F5F5F5F5F5F5F5F5F5F5F5F5F5F5F5F5F5E2F5F5F5F5F5F5F5F5
310
F5F5F5F5F5F5F5F5F5F5F5F5F5F5F5F5F5F5F5F5F5F5F5F5F5F5F5F5F5F5F5F5F5F5F5F5F5F5F5F5F5F5F5F5F5F5F5F5F5F5F5F5F5F5F5F5F5F5F5F5F5F5F5F5F5F5F5F5F5F5F5F5F5F5F5F5F5F5F5F5F5F5F5F5F5F5F5F5F5F5F5F5F5F5F5F5F5F5F5F5F5F5F5F5F5F5F5F5F5F5F5F5F5F5F5F5F5F5F5F5F5F5F5F5F5F5F5
310
E2F5F5F5F5F5F5F5F5F5F5F5F5F5F5F5F5F5F5F5F5E2E2EFF5F5F5F5F5F5F5F5F5F5F5F5F5F5F5F5F5F5F5F5E2F5F5F5F5F5F5F5F5F5F5F5F5F5F5F5F5F5F5F5F5F5F5F5F5F5F5F5F5F5F5F5F5F5F5F5F5F5F5F5F5F5F5F5F5F5F5F5F5F5F5F5F5F5F5F5F5F5F5F5F5F5F5F5F5F5F5F5F5F5F5F5F5F5F5F5F5F5F5F5F5F5F5
310
F5F5F5F5F5F5F5F5F5F5F5F5F5F5F5F5F5F5F5F5F5F5F5F5F5F5F5F5F5F5F5F5F5F5F5F5F5F5F5F5F5F5F5F5F5F5F5F5F5F5F5F5F5E2F5F5F5F5F5F5F5F5F5F5F5F5F5F5F5F5F5F5F5F5E2E2EFF5F5F5F5F5F5F5F5F5F5F5F5F5F5F5F5F5F5F5F5E2F5F5F5F5F5F5F5F5F5F5F5F5F5F5F5F5F5F5F5F5F5F5F5F5F5F5F5F5F5
310
F5F5F5F5F5F5F5F5F5F5F5F5F5F5F5F5F5F5F5F5F5F5F5F5F5F5F5F5F5F5F5F5F5F5F5F5F5F5F5F5F5F5F5F5F5F5F5F5F5F5F5F5F5F5F5F5F5F5F5F5F5F5F5F5F5F5F5F5F5F5F5F5F5F5F5F5F5F5F5F5F5F5F5F5F5F5F5F5F5F5F5F5F5F5F5F5F5F5F5F5F5F5F5F5F5F5E2F5F5F5F5F5F5F5F5F5F5F5F5F5F5F5F5F5F5F5F5
310
E2E2EFF5F5F5F5F5F5F5F5F5F5F5F5F5F5F5F5F5F5F5F5E2F5F5F5F5F5F5F5F5F5F5F5F5F5F5F5F5F5F5F5F5F5F5F5F5F5F5F5F5F5F5F5F5F5F5F5F5F5F5F5F5F5F5F5F5F5F5F5F5F5F5F5F5F5F5F5F5F5F5F5F5F5F5F5F5F5F5F5F5F5F5F5F5F5F5F5F5F5F5F5F5F5F5F5F5F5F5F5F5F5F5F5F5F5F5F5F5F5F5F5F5F5F5F5
310
F5F5F5F5F5F5F5F5F5F5F5F5F5F5F5F5F5F5F5F5F5F5F5F5F5F5F5F5F5F5F5F5E2F5F5F5F5F5F5F5F5F5F5F5F5F5F5F5F5F5F5F5F5E2E2EFF5F5F5F5F5F5F5F5F5F5F5F5F5F5F5F5F5F5F5F5E2F5F5F5F5F5F5F5F5F5F5F5F5F5F5F5F5F5F5F5F5F5F5F5F5F5F5F5F5F5F5F5F5F5F5F5F5F5F5F5F5F5F5F5F5F5F5F5F5F5F5
310
F5F5F5F5F5F5F5F5F5F5F5F5F5F5F5F5F5F5F5F5F5F5F5F5F5F5F5F5F5F5F5F5F5F5F5F5F5F5F5F5F5F5F5F5F5F5F5F5F5F5F5F5F5F5F5F5F5F5F5F5F5F5F5F5F5F5F5F5F5F5F5F5F5F5F5F5F5F5F5F5F5F5F5F5F5E2F5F5F5F5F5F5F5F5F5F5F5F5F5F5F5F5F5F5F5F5E2E2EFF5F5F5F5F5F5F5F5F5F5F5F5F5F5F5F5F5F5
310
F5F5E2F5F5F5F5F5F5F5F5F5F5F5F5F5F5F5F5F5F5F5F5F5F5F5F5F5F5F5F5F5F5F5F5F5F5F5F5F5F5F5F5F5F5F5F5F5F5F5F5F5F5F5F5F5F5F5F5F5F5F5F5F5F5F5F5F5F5F5F5F5F5F5F5F5F5F5F5F5F5F5F5F5F5F5F5F5F5F5F5F5F5F5F5F5F5F5F5F5F5F5F5F5F5F5F5F5F5F5F5F5F5F5F5F5F5F5F5F5F5F5F5F5F5F5F5
310
F5F5F5F5F5F5F5F5F5F5F5E2F5F5F5F5F5F5F5F5F5F5F5F5F5F5F5F5F5F5F5F5E2E2EFF5F5F5F5F5F5F5F5F5F5F5F5F5F5F5F5F5F5F5F5E2F5F5F5F5F5F5F5F5F5F5F5F5F5F5F5F5F5F5F5F5F5F5F5F5F5F5F5F5F5F5F5F5F5F5F5F5F5F5F5F5F5F5F5F5F5F5F5F5F5F5F5F5F5F5F5F5F5F5F5F5F5F5F5F5F5F5F5F5F5F5F5
310
F5F5F5F5F5F5F5F5F5F5F5F5F5F5F5F5F5F5F5F5F5F5F5F5F5F5F5F5F5F5F5F5F5F5F5F5F5F5F5F5F5F5F5F5F5F5F5F5F5F5F5F5F5F5F5F5F5F5F5F5F5F5F5F5E2F5F5F5F5F5F5F5F5F5F5F5F5F5F5F5F5F5F5F5F5E2E2EFF5F5F5F5F5F5F5F5F5F5F5F5F5F5F5F5F5F5F5F5E2F5F5F5F5F5F5F5F5F5F5F5F5F5F5F5F5F5F5
310
F5F5F5F5F5F5F5F5F5F5F5F5F5F5F5F5F5F5F5F5F5F5F5F5F5F5F5F5F5F5F5F5F5F5F5F5F5F5F5F5F5F5F5F5F5F5F5F5F5F5F5F5F5F5F5F5F5F5F5F5F5F5F5F5F5F5F5F5F5F5F5F5F5F5F5F5F5F5F5F5F5F5F5F5F5F5F5F5F5F5F5F5F5F5F5F5F5F5F5F5F5F5F5F5F5F5F5F5F5F5F5F5F5F5F5F5F5E2F5F5F5F5F5F5F5F5F5
310
F5F5F5F5F5F5F5F5F5F5F5E2E2EFF5F5F5E2F5F5F5F5F5F5F5F5F5F5F5F5F5F5F5F5E2F5F5F5F5F5F5F5F5F5F5F5F5F5F5F5F5F5F5F5F5F5F5F5F5F5F5F5F5F5F5F5F5F5F5F5F5F5F5F5F5F5F5F5F5F5F5F5F5F5F5F5F5F5F5F5F5F5F5F5F5F5F5F5F5F5F5F5F5F5F5F5F5F5F5F5F5F5F5F5F5F5F5F5F5F5F5F5F5F5F5F5F5
310
F5F5F5F5F5F5F5F5F5F5F5F5F5F5F5F5F5F5F5F5F5F5F5F5F5F5F5F5F5F5F5F5F5F5F5F5F5F5F5F5F5F5F5E2F5F5F5F5F5F5F5F5F5F5F5F5F5F5F5F5E2F5F5F5E2E2EFF5F5F5E2F5F5F5F5F5F5F5F5F5F5F5F5F5F5F5F5E2F5F5F5F5F5F5F5F5F5F5F5F5F5F5F5F5F5F5F5F5F5F5F5F5F5F5F5F5F5F5F5F5F5F5F5F5F5F5F5
310
F5F5F5F5F5F5F5F5F5F5F5F5F5F5F5F5F5F5F5F5F5F5F5F5F5F5F5F5F5F5F5F5F5F5F5F5F5F5F5F5F5F5F5F5F5F5F5F5F5F5F5F5F5F5F5F5F5F5F5F5F5F5F5F5F5F5F5F5F5F5F5F5F5F5F5F5F5F5F5F5F5F5F5F5F5F5F5F5F5F5F5F5F5F5F5F5E2F5F5F5F5F5F5F5F5F5F5F5F5F5F5F5F5E2F5F5F5E2E2EFF5F5F5E2F5F5F5
310
F5F5F5F5F5F5F5F5F5F5F5F5F5E2F5F5F5F5F5F5F5F5F5F5F5F5F5F5F5F5F5F5F5F5F5F5F5F5F5F5F5F5F5F5F5F5F5F5F5F5F5F5F5F5F5F5F5F5F5F5F5F5F5F5F5F5F5F5F5F5F5F5F5F5F5F5F5F5F5F5F5F5F5F5F5F5F5F5F5F5F5F5F5F5F5F5F5F5F5F5F5F5F5F5F5F5F5F5F5F5F5F5F5F5F5F5F5F5F5F5F5F5F5F5F5F5F5
310
F5F5F5F5F5F5F5F5F5F5F5F5F5F5F5F5F5F5F5F5F5F5E2F5F5F5F5F5F5F5F5F5F5F5F5F5F5F5F5E2F5F5F5E2E2EFF5F5F5E2F5F5F5F5F5F5F5F5F5F5F5F5F5F5F5F5E2F5F5F5F5F5F5F5F5F5F5F5F5F5F5F5F5F5F5F5F5F5F5F5F5F5F5F5F5F5F5F5F5F5F5F5F5F5F5F5F5F5F5F5F5F5F5F5F5F5F5F5F5F5F5F5F5F5F5F5F5
310
F5F5F5F5F5F5F5F5F5F5F5F5F5F5F5F5F5F5F5F5F5F5F5F5F5F5F5F5F5F5F5F5F5F5F5F5F5F5F5F5F5F5F5F5F5F5F5F5F5F5F5F5F5F5F5F5F5F5F5F5F5F5F5F5F5F5F5F5F5F5F5F5F5F5F5E2F5F5F5F5F5F5F5F5F5F5F5F5F5F5F5F5E2F5F5F5E2E2EFF5F5F5E2F5F5F5F5F5F5F5F5F5F5F5F5F5F5F5F5E2F5F5F5F5F5F5F5
310
F5F5F5F5F5F5F5F5F5F5F5F5F5F5F5F5F5F5F5F5F5F5F5F5F5F5F5F5F5F5F5F5F5F5F5F5F5F5F5F5F5F5F5F5F5F5F5F5F5F5F5F5F5F5F5F5F5F5F5F5F5F5F5F5F5F5F5F5F5F5F5F5F5F5F5F5F5F5F5F5F5F5F5F5F5F5F5F5F5F5F5F5F5F5F5F5F5F5F5F5F5F5F5F5F5F5F5F5F5F5F5F5F5F5F5F5F5F5F5F5F5F5F5F5F5F5F5
310
F5E2F5F5F5F5F5F5F5F5F5F5F5F5F5F5F5F5E2F5F5F5E2E2EFF5F5F5E2F5F5F5F5F5F5F5F5F5F5F5F5F5F5F5F5E2F5F5F5F5F5F5F5F5F5F5F5F5F5F5F5F5F5F5F5F5F5F5F5F5F5F5F5F5F5F5F5F5F5F5F5F5F5F5F5F5F5F5F5F5F5F5F5F5F5F5F5F5F5F5F5F5F5F5F5F5F5F5F5F5F5F5F5F5F5F5F5F5F5F5F5F5F5F5F5F5F5
310
F5F5F5F5F5F5F5F5F5F5F5F5F5F5F5F5F5F5F5F5F5F5F5F5F5F5F5F5F5F5F5F5F5F5F5F5F5F5F5F5F5F5F5F5F5F5F5F5F5F5F5F5F5F5E2F5F5F5F5F5F5F5F5F5F5F5F5F5F5F5F5E2F5F5F5E2E2EFF5F5F5E2F5F5F5F5F5F5F5F5F5F5F5F5F5F5F5F5E2F5F5F5F5F5F5F5F5F5F5F5F5F5F5F5F5F5F5F5F5F5F5F5F5F5F5F5F5
310
F5F5F5F5F5F5F5F5F5F5F5F5F5F5F5F5F5F5F5F5F5F5F5F5F5F5F5F5F5F5F5F5F5F5F5F5F5F5F5F5F5F5F5F5F5F5F5F5F5F5F5F5F5F5F5F5F5F5F5F5F5F5F5F5F5F5F5F5F5F5F5F5F5F5F5F5F5F5F5F5F5F5F5F5F5F5F5F5F5F5F5F5F5F5F5F5F5F5F5F5F5F5F5F5F5F5F5E2F5F5F5F5F5F5F5F5F5F5F5F5F5F5F5F5E2F5F5
310
F5E2E2EFF5F5F5E2F5F5F5F5F5F5F5F5F5F5F5F5F5F5F5F5E2F5F5F5F5F5F5F5F5F5F5F5F5F5F5F5F5F5F5F5F5F5F5F5F5F5F5F5F5F5F5F5F5F5F5F5F5F5F5F5F5F5F5F5F5F5F5F5F5F5F5F5F5F5F5F5F5F5F5F5F5F5F5F5F5F5F5F5F5F5F5F5F5F5F5F5F5F5F5F5F5F5F5F5F5F5F5F5F5F5F5F5F5F5F5F5F5F5F5F5F5F5F5
310
F5F5F5F5F5F5F5F5F5F5F5F5F5F5F5F5F5F5F5F5F5F5F5F5F5F5F5F5F5F5F5F5F5E2F5F5F5F5F5F5F5F5F5F5F5F5F5F5F5F5E2F5F5F5E2E2EFF5F5F5E2F5F5F5F5F5F5F5F5F5F5F5F5F5F5F5F5E2F5F5F5F5F5F5F5F5F5F5F5F5F5F5F5F5F5F5F5F5F5F5F5F5F5F5F5F5F5F5F5F5F5F5F5F5F5F5F5F5F5F5F5F5F5F5F5F5F5
310
F5F5F5F5F5F5F5F5F5F5F5F5F5F5F5F5F5F5F5F5F5F5F5F5F5F5F5F5F5F5F5F5F5F5F5F5F5F5F5F5F5F5F5F5F5F5F5F5F5F5F5F5F5F5F5F5F5F5F5F5F5F5F5F5F5F5F5F5F5F5F5F5F5F5F5F5F5F5F5F5F5F5F5F5F5F5E2F5F5F5F5F5F5F5F5F5F5F5F5F5F5F5F5E2F5F5F5E2E2EFF5F5F5E2F5F5F5F5F5F5F5F5F5F5F5F5F5
310
F5F5F5E2F5F5F5F5F5F5F5F5F5F5F5F5F5F5F5F5F5F5F5F5F5F5F5F5F5F5F5F5F5F5F5F5F5F5F5F5F5F5F5F5F5F5F5F5F5F5F5F5F5F5F5F5F5F5F5F5F5F5F5F5F5F5F5F5F5F5F5F5F5F5F5F5F5F5F5F5F5F5F5F5F5F5F5F5F5F5F5F5F5F5F5F5F5F5F5F5F5F5F5F5F5F5F5F5F5F5F5F5F5F5F5F5F5F5F5F5F5F5F5F5F5F5F5
310
F5F5F5F5F5F5F5F5F5F5F5F5E2F5F5F5F5F5F5F5F5F5F5F5F5F5F5F5F5E2F5F5F5E2E2EFF5F5F5E2F5F5F5F5F5F5F5F5F5F5F5F5F5F5F5F5E2F5F5F5F5F5F5F5F5F5F5F5F5F5F5F5F5F5F5F5F5F5F5F5F5F5F5F5F5F5F5F5F5F5F5F5F5F5F5F5F5F5F5F5F5F5F5F5F5F5F5F5F5F5F5F5F5F5F5F5F5F5F5F5F5F5F5F5F5F5F5
310
F5F5F5F5F5F5F5F5F5F5F5F5F5F5F5F5F5F5F5F5F5F5F5F5F5F5F5F5F5F5F5F5F5F5F5F5F5F5F5F5F5F5F5F5F5F5F5F5F5F5F5F5F5F5F5F5F5F5F5F5F5F5F5F5F5E2F5F5F5F5F5F5F5F5F5F5F5F5F5F5F5F5E2F5F5F5E2E2EFF5F5F5E2F5F5F5F5F5F5F5F5F5F5F5F5F5F5F5F5E2F5F5F5F5F5F5F5F5F5F5F5F5F5F5F5F5F5
310
F5F5F5F5F5F5F5F5F5F5F5F5F5F5F5F5F5F5F5F5F5F5F5F5F5F5F5F5F5F5F5F5F5F5F5F5F5F5F5F5F5F5F5F5F5F5F5F5F5F5F5F5F5F5F5F5F5F5F5F5F5F5F5F5F5F5F5F5F5F5F5F5F5F5F5F5F5F5F5F5F5F5F5F5F5F5F5F5F5F5F5F5F5F5F5F5F5F5F5F5F5F5F5F5F5F5F5F5F5F5F5F5F5F5F5F5F5F5E2F5F5F5F5F5F5F5F5
310
F5F5F5F5F5F5F5F5E2F5F5F5E2E2EFF5F5F5E2F5F5F5F5F5F5F5F5F5F5F5F5F5F5F5F5E2F5F5F5F5F5F5F5F5F5F5F5F5F5F5F5F5F5F5F5F5F5F5F5F5F5F5F5F5F5F5F5F5F5F5F5F5F5F5F5F5F5F5F5F5F5F5F5F5F5F5F5F5F5F5F5F5F5F5F5F5F5F5F5F5F5F5F5F5F5F5F5F5F5F5F5F5F5F5F5F5F5F5F5F5F5F5F5F5F5F5F5
310
F5F5F5F5F5F5F5F5F5F5F5F5F5F5F5F5F5F5F5F5F5F5F5F5F5F5F5F5F5F5F5F5F5F5F5F5F5F5F5F5F5F5F5F5E2F5F5F5F5F5F5F5F5F5F5F5F5F5F5F5F5E2F5F5F5E2E2EFF5F5F5E2F5F5F5F5F5F5F5F5F5F5F5F5F5F5F5F5E2F5F5F5F5F5F5F5F5F5F5F5F5F5F5F5F5F5F5F5F5F5F5F5F5F5F5F5F5F5F5F5F5F5F5F5F5F5F5
310
F5F5F5F5F5F5F5F5F5F5F5F5F5F5F5F5F5F5F5F5F5F5F5F5F5F5F5F5F5F5F5F5F5F5F5F5F5F5F5F5F5F5F5F5F5F5F5F5F5F5F5F5F5F5F5F5F5F5F5F5F5F5F5F5F5F5F5F5F5F5F5F5F5F5F5F5F5F5F5F5F5F5F5F5F5F5F5F5F5F5F5F5F5F5F5F5F5E2F5F5F5F5F5F5F5F5F5F5F5F5F5F5F5F5E2F5F5F5E2E2EFF5F5F5E2F5F5
310
F5F5F5F5F5F5F5F5F5F5F5F5F5F5E2F5F5F5F5F5F5F5F5F5F5F5F5F5F5F5F5F5F5F5F5F5F5F5F5F5F5F5F5F5F5F5F5F5F5F5F5F5F5F5F5F5F5F5F5F5F5F5F5F5F5F5F5F5F5F5F5F5F5F5F5F5F5F5F5F5F5F5F5F5F5F5F5F5F5F5F5F5F5F5F5F5F5F5F5F5F5F5F5F5F5F5F5F5F5F5F5F5F5F5F5F5F5F5F5F5F5F5F5F5F5F5F5
310
F5F5F5F5F5F5F5F5F5F5F5F5F5F5F5F5F5F5F5F5F5F5F5E2F5F5F5F5F5F5F5F5F5F5F5F5F5F5F5F5E2F5F5F5E2E2EFF5F5F5E2F5F5F5F5F5F5F5F5F5F5F5F5F5F5F5F5E2F5F5F5F5F5F5F5F5F5F5F5F5F5F5F5F5F5F5F5F5F5F5F5F5F5F5F5F5F5F5F5F5F5F5F5F5F5F5F5F5F5F5F5F5F5F5F5F5F5F5F5F5F5F5F5F5F5F5F5
310
F5F5F5F5F5F5F5F5F5F5F5F5F5F5F5F5F5F5F5F5F5F5F5F5F5F5F5F5F5F5F5F5F5F5F5F5F5F5F5F5F5F5F5F5F5F5F5F5F5F5F5F5F5F5F5F5F5F5F5F5F5F5F5F5F5F5F5F5F5F5F5F5F5F5F5F5E2F5F5F5F5F5F5F5F5F5F5F5F5F5F5F5F5E2F5F5F5E2E2EFF5F5F5E2F5F5F5F5F5F5F5F5F5F5F5F5F5F5F5F5E2F5F5F5F5F5F5
310
F5F5F5F5F5F5F5F5F5F5F5F5F5F5F5F5F5F5F5F5F5F5F5F5F5F5F5F5F5F5F5F5F5F5F5F5F5F5F5F5F5F5F5F5F5F5F5F5F5F5F5F5F5F5F5F5F5F5F5F5F5F5F5F5F5F5F5F5F5F5F5F5F5F5F5F5F5F5F5F5F5F5F5F5F5F5F5F5F5F5F5F5F5F5F5F5F5F5F5F5F5F5F5F5F5F5F5F5F5F5F5F5F5F5F5F5F5F5F5F5F5F5F5F5F5F5F5
310
F5F5E2F5F5F5F5F5F5F5F5F5F5F5F5F5F5F5F5E2F5F5F5E2E2EFF5F5F5F5F5F5F5F5F5F5F5F5F5F5F5F5F5F5F5F5E2F5F5F5F5F5F5F5F5F5F5F5F5F5F5F5F5F5F5F5F5F5F5F5F5F5F5F5F5F5F5F5F5F5F5F5F5F5F5F5F5F5F5F5F5F5F5F5F5F5F5F5F5F5F5F5F5F5F5F5F5F5F5F5F5F5F5F5F5F5F5F5F5F5F5F5F5F5F5F5F5
310
F5F5F5F5F5F5F5F5F5F5F5F5F5F5F5F5F5F5F5F5F5F5F5F5F5F5F5F5F5F5F5F5F5F5F5F5F5F5F5F5F5F5F5F5F5F5F5F5F5F5F5F5F5F5F5E2F5F5F5F5F5F5F5F5F5F5F5F5F5F5F5F5F5F5F5F5E2E2EFF5F5F5F5F5F5F5F5F5F5F5F5F5F5F5F5F5F5F5F5E2F5F5F5F5F5F5F5F5F5F5F5F5F5F5F5F5F5F5F5F5F5F5F5F5F5F5F5
310
F5F5F5F5F5F5F5F5F5F5F5F5F5F5F5F5F5F5F5F5F5F5F5F5F5F5F5F5F5F5F5F5F5F5F5F5F5F5F5F5F5F5F5F5F5F5F5F5F5F5F5F5F5F5F5F5F5F5F5F5F5F5F5F5F5F5F5F5F5F5F5F5F5F5F5F5F5F5F5F5F5F5F5F5F5F5F5F5F5F5F5F5F5F5F5F5F5F5F5F5F5F5F5F5F5F5F5F5E2F5F5F5F5F5F5F5F5F5F5F5F5F5F5F5F5F5F5
310
F5F5E2E2EFF5F5F5F5F5F5F5F5F5F5F5F5F5F5F5F5F5F5F5F5E2F5F5F5F5F5F5F5F5F5F5F5F5F5F5F5F5F5F5F5F5F5F5F5F5F5F5F5F5F5F5F5F5F5F5F5F5F5F5F5F5F5F5F5F5F5F5F5F5F5F5F5F5F5F5F5F5F5F5F5F5F5F5F5F5F5F5F5F5F5F5F5F5F5F5F5F5F5F5F5F5F5F5F5F5F5F5F5F5F5F5F5F5F5F5F5F5F5F5F5F5F5
310
F5F5F5F5F5F5F5F5F5F5F5F5F5F5F5F5F5F5F5F5F5F5F5F5F5F5F5F5F5F5F5F5F5F5E2F5F5F5F5F5F5F5F5F5F5F5F5F5F5F5F5F5F5F5F5E2E2EFF5F5F5F5F5F5F5F5F5F5F5F5F5F5F5F5F5F5F5F5E2F5F5F5F5F5F5F5F5F5F5F5F5F5F5F5F5F5F5F5F5F5F5F5F5F5F5F5F5F5F5F5F5F5F5F5F5F5F5F5F5F5F5F5F5F5F5F5F5
310
F5F5F5F5F5F5F5F5F5F5F5F5F5F5F5F5F5F5F5F5F5F5F5F5F5F5F5F5F5F5F5F5F5F5F5F5F5F5F5F5F5F5F5F5F5F5F5F5F5F5F5F5F5F5F5F5F5F5F5F5F5F5F5F5F5F5F5F5F5F5F5F5F5F5F5F5F5F5F5F5F5F5F5F5F5F5F5E2F5F5F5F5F5F5F5F5F5F5F5F5F5F5F5F5F5F5F5F5E2E2EFF5F5F5F5F5F5F5F5F5F5F5F5F5F5F5F5
310
F5F5F5F5E2E2E2E2E2E2E2E2E2E2E2E2E2E2E2E2E2E2E2E2E2E2E2E2E2E2E2E2E2E2E2E2E2E2E2E2E2E2E2E2E2E2E2E2E2E2E2E2E2E2E2E2E2E2E2E2E2E2E2E2E2E2E2E2E2E2E2E2E2E2E2E2E2E2E2E2E2E2E2E2E2E2E2E2E2E2E2E2E2E2E2E2E2E2E2E2E2E2E2E2E2E2E2E2E2E2E2E2E2E2E2E2E2E2E2E2E2E2E2E2E2E2E2
310
E2E2E2E2E2E2E2E2E2E2E2E2E2E2F5F5F5F5F5F5F5F5F5F5F5F5F5F5F5F5F5F5F5F5E2E2EFF5F5F5F5F5F5F5F5F5F5F5F5F5F5F5F5F5F5F5F5F5F5F5F5F5F5F5F5F5F5F5F5F5F5F5F5F5F5F5F5F5F5F5F5F5F5F5F5F5F5F5F5F5F5F5F5F5F5F5F5F5F5F5F5F5F5F5F5F5F5F5F5F5F5F5F5F5F5F5F5F5F5F5F5F5F5F5F5F5F5
310
F5F5F5F5F5F5F5F5F5F5F5F5F5F5F5F5F5F5F5F5F5F5F5F5F5F5F5F5F5F5F5F5F5F5F5F5F5F5F5F5F5F5F5F5F5F5F5F5F5F5F5F5F5F5F5F5F5F5F5F5F5F5F5F5F5F5F5F5F5F5F5F5F5F5F5F5F5F5F5F5F5F5F5F5F5F5F5E2E2EFF5F5F5F5F5F5F5F5F5F5F5F5F5F5F5F5F5F5F5F5F5F5F5F5F5F5F5F5F5F5F5F5F5F5F5F5F5
310
F5F5F5F5F5F5F5F5F5F5F5F5F5F5F5F5F5F5F5F5F5F5F5F5F5F5F5F5F5F5F5F5F5F5F5F5F5F5F5F5F5F5F5F5F5F5F5F5F5F5F5F5F5F5F5F5F5F5F5F5F5F5F5F5F5F5F5F5F5F5F5F5F5F5F5F5F5F5F5F5F5F5F5F5F5F5F5F5F5F5F5F5F5F5F5F5F5F5F5F5F5F5F5F5F5F5F5F5F5F5F5F5F5F5F5F5F5F5F5F5F5F5F5F5F5F5F5
310
F5F5F5F5F5F5F5F5F5F5F5F5F5E2E2EFF5F5F5F5F5F5F5F5F5F5F5F5F5F5F5F5F5F5F5F5F5F5F5F5F5F5F5F5F5F5F5F5F5F5F5F5F5F5F5F5F5F5F5F5F5F5F5F5F5F5F5F5F5F5F5F5F5F5F5F5F5F5F5F5F5F5F5F5F5F5F5F5F5F5F5F5F5F5F5F5F5F5F5F5F5F5F5F5F5F5F5F5F5F5F5F5F5F5F5F5F5F5F5F5F5F5F5F5F5F5F5
310
F5F5F5F5F5F5F5F5F5F5F5F5F5F5F5F5F5F5F5F5F5F5F5F5F5F5F5F5F5F5F5F5F5F5F5F5F5F5F5F5F5F5F5F5F5F5F5F5F5F5F5F5F5F5F5F5F5F5F5F5F5F5F5F5F5F5E2E2EFF5F5F5F5F5F5F5F5F5F5F5F5F5F5F5F5F5F5F5F5F5F5F5F5F5F5F5F5F5F5F5F5F5F5F5F5F5F5F5F5F5F5F5F5F5F5F5F5F5F5F5F5F5F5F5F5F5F5
310
F5F5F5F5F5F5F5F5F5F5F5F5F5F5F5F5F5F5F5F5F5F5F5F5F5F5F5F5F5F5F5F5F5F5F5F5F5F5F5F5F5F5F5F5F5F5F5F5F5F5F5F5F5F5F5F5F5F5F5F5F5F5F5F5F5F5F5F5F5F5F5F5F5F5F5F5F5F5F5F5F5F5F5F5F5F5F5F5F5F5F5F5F5F5F5F5F5F5F5F5F5F5F5F5F5F5F5F5F5F5F5F5F5F5F5F5F5F5F5E2E2EFF5F5F5E2F5
310
F5F5F5F5F5F5F5F5F5F5F5F5F5F5F5F5F5F5F5F5F5F5F5F5F5F5F5F5F5F5F5F5F5F5F5F5F5F5F5F5F5F5F5F5F5F5F5F5F5F5F5F5F5F5F5F5F5F5F5F5F5F5F5F5F5F5F5F5F5F5F5F5F5F5F5F5F5F5F5F5F5F5F5F5F5F5F5F5F5F5F5F5F5F5F5F5F5F5F5F5F5F5F5F5F5F5F5F5F5F5F5F5F5F5F5F5F5F5F5F5F5F5F5F5F5F5F5
310
F5F5F5F5F5F5F5F5F5F5F5F5F5F5F5F5F5F5F5F5F5F5F5F5F5F5F5F5F5F5F5F5F5F5F5F5F5F5F5F5F5E2F5F5F5E2E2EFF5F5F5E2F5F5F5F5F5F5F5F5F5F5F5F5F5F5F5F5F5F5F5F5F5F5F5F5F5F5F5F5F5F5F5F5F5F5F5F5F5F5F5F5F5F5F5F5F5F5F5F5F5F5F5F5F5F5F5F5F5F5F5F5F5F5F5F5F5F5F5F5F5F5F5F5F5F5F5
310
F5F5F5F5F5F5F5F5F5F5F5F5F5F5F5F5F5F5F5F5F5F5F5F5F5F5F5F5F5F5F5F5F5F5F5F5F5F5F5F5F5F5F5F5F5F5F5F5F5F5F5F5F5F5F5F5F5F5F5F5F5F5F5F5F5F5F5F5F5F5F5F5F5F5F5F5F5F5F5F5F5F5F5F5F5F5F5F5F5F5F5F5F5F5E2F5F5F5E2E2EFF5F5F5E2F5F5F5F5F5F5F5F5F5F5F5F5F5F5F5F5F5F5F5F5F5F5
310
F5F5F5F5F5F5F5F5F5F5F5F5F5F5F5F5F5F5F5F5F5F5F5F5F5F5F5F5F5F5F5F5F5F5F5F5F5F5F5F5F5F5F5F5F5F5F5F5F5F5F5F5F5F5F5F5F5F5F5F5F5F5F5F5F5F5F5F5F5F5F5F5F5F5F5F5F5F5F5F5F5F5F5F5F5F5F5F5F5F5F5F5F5F5F5F5F5F5F5F5F5F5F5F5F5F5F5F5F5F5F5F5F5F5F5F5F5F5F5F5F5F5F5F5F5F5F5
310
F5F5F5F5F5F5F5F5F5F5F5F5F5F5F5F5F5F5F5F5E2F5F5F5E2E2EFF5F5F5E2F5F5F5F5F5F5F5F5F5F5F5F5F5F5F5F5F5F5F5F5F5F5F5F5F5F5F5F5F5F5F5F5F5F5F5F5F5F5F5F5F5F5F5F5F5F5F5F5F5F5F5F5F5F5F5F5F5F5F5F5F5F5F5F5F5F5F5F5F5F5F5F5F5F5F5F5F5F5F5F5F5F5F5F5F5F5F5F5F5F5F5F5F5F5F5F5
310
F5F5F5F5F5F5F5F5F5F5F5F5F5F5F5F5F5F5F5F5F5F5F5F5F5F5F5F5F5F5F5F5F5F5F5F5F5F5F5F5F5F5F5F5F5F5F5F5F5F5F5F5F5F5F5F5F5F5F5F5F5F5F5F5F5F5F5F5F5F5F5F5F5E2F5F5F5E2E2EFF5F5F5E2F5F5F5F5F5F5F5F5F5F5F5F5F5F5F5F5F5F5F5F5F5F5F5F5F5F5F5F5F5F5F5F5F5F5F5F5F5F5F5F5F5F5F5
310
F5F5F5F5F5F5F5F5F5F5F5F5F5F5F5F5F5F5F5F5F5F5F5F5F5F5F5F5F5F5F5F5F5F5F5F5F5F5F5F5F5F5F5F5F5F5F5F5F5F5F5F5F5F5F5F5F5F5F5F5F5F5F5F5F5F5F5F5F5F5F5F5F5F5F5F5F5F5F5F5F5F5F5F5F5F5F5F5F5F5F5F5F5F5F5F5F5F5F5F5F5F5F5F5F5F5F5F5F5F5F5F5F5F5F5F5F5F5F5F5F5F5F5F5F5F5E2
310
F5F5F5E2E2EFF5F5F5E2F5F5F5F5F5F5F5F5F5F5F5F5F5F5F5F5F5F5F5F5F5F5F5F5F5F5F5F5F5F5F5F5F5F5F5F5F5F5F5F5F5F5F5F5F5F5F5F5F5F5F5F5F5F5F5F5F5F5F5F5F5F5F5F5F5F5F5F5F5F5F5F5F5F5F5F5F5F5F5F5F5F5F5F5F5F5F5F5F5F5F5F5F5F5F5F5F5F5F5F5F5F5F5F5F5F5F5F5F5F5F5F5F5F5F5F5F5
310
F5F5F5F5F5F5F5F5F5F5F5F5F5F5F5F5F5F5F5F5F5F5F5F5F5F5F5F5F5F5F5F5F5F5F5F5F5F5F5F5F5F5F5F5F5F5F5F5F5F5F5F5E2F5F5F5E2E2EFF5F5F5E2F5F5F5F5F5F5F5F5F5F5F5F5F5F5F5F5F5F5F5F5F5F5F5F5F5F5F5F5F5F5F5F5F5F5F5F5F5F5F5F5F5F5F5F5F5F5F5F5F5F5F5F5F5F5F5F5F5F5F5F5F5F5F5F5
310
F5F5F5F5F5F5F5F5F5F5F5F5F5F5F5F5F5F5F5F5F5F5F5F5F5F5F5F5F5F5F5F5F5F5F5F5F5F5F5F5F5F5F5F5F5F5F5F5F5F5F5F5F5F5F5F5F5F5F5F5F5F5F5F5F5F5F5F5F5F5F5F5F5F5F5F5F5F5F5F5F5F5F5F5F5F5F5F5F5F5F5F5F5F5F5F5F5F5F5F5F5F5F5F5F5E2F5F5F5E2E2EFF5F5F5E2F5F5F5F5F5F5F5F5F5F5F5
310
F5F5F5F5F5F5F5F5F5F5F5F5F5F5F5F5F5F5F5F5F5F5F5F5F5F5F5F5F5F5F5F5F5F5F5F5F5F5F5F5F5F5F5F5F5F5F5F5F5F5F5F5F5F5F5F5F5F5F5F5F5F5F5F5F5F5F5F5F5F5F5F5F5F5F5F5F5F5F5F5F5F5F5F5F5F5F5F5F5F5F5F5F5F5F5F5F5F5F5F5F5F5F5F5F5F5F5F5F5F5F5F5F5F5F5F5F5F5F5F5F5F5F5F5F5F5F5
310
F5F5F5F5F5F5F5F5F5F5F5F5F5F5F5F5F5F5F5F5F5F5F5F5F5F5F5F5F5F5F5E2F5F5F5E2E2EFF5F5F5E2E2E2E2E2E2E2E2F5F5F5F5F5F5F5F5F5E2E2E2E2E2E2E2E2E2E2E2E2E2E2E2E2F5F5F5F5F5F5F5F5E2E2E2E2E2E2E2E2E2E2E2E2E2E2E2E2F5F5F5F5F5F5F5F5F5E2E2E2E2E2E2E2E2E2E2E2E2E2E2E2F5F5F5F5F5
310
F5F5F5F5E2E2E2E2E2E2E2E2E2E2E2E2E2E2E2F5F5F5F5F5F5F5F5F5E2E2E2E2E2E2E2E2E2E2E2E2E2E2E2E2F5F5F5F5F5F5F5F5E2E2E2E2E2E2E2E2E2E2E2E2E2E2E2E2F5F5F5F5F5F5F5F5F5E2E2E2E2E2E2E2E2F5F5F5E2E2EFF5F5F5F5F5F5F5F5F5F5F5F5F5F5F5F5F5F5F5F5F5F5F5F5F5F5F5F5F5F5F5F5F5F5F5F5
310
F5F5F5F5F5F5F5F5F5F5F5F5F5F5F5F5F5F5F5F5F5F5F5F5F5F5F5F5F5F5F5F5F5F5F5F5F5F5F5F5F5F5F5F5F5F5F5F5F5F5F5F5F5F5F5F5F5F5F5F5F5F5F5F5F5F5F5F5F5F5F5F5F5F5F5F5F5F5F5F5F5F5F5F5F5F5F5F5F5F5F5F5F5F5F5F5F5F5F5F5F5F5F5F5F5F5F5F5F5F5F5F5F5F5F5F5F5F5F5F5F5F5F5F5F5F5F5
310
F5F5F5F5F5F5F5F5F5F5F5F5F5F5E2E2EFF5F5F5F5F5F5F5F5F5F5F5F5F5F5F5F5F5F5F5F5F5F5F5F5F5F5F5F5F5F5F5F5F5F5F5F5F5F5F5F5F5F5F5F5F5F5F5F5F5F5F5F5F5F5F5F5F5F5F5F5F5F5F5F5F5F5F5F5F5F5F5F5F5F5F5F5F5F5F5F5F5F5F5F5F5F5F5F5F5F5F5F5F5F5F5F5F5F5F5F5F5F5F5F5F5F5F5F5F5F5
310
F5F5F5F5F5F5F5F5F5F5F5F5F5F5F5F5F5F5F5F5F5F5F5F5F5F5F5F5F5F5F5F5F5F5F5F5F5F5F5F5F5F5F5F5F5F5F5F5F5F5F5F5F5F5F5F5F5F5F5F5F5F5F5F5F5F5F5E2EFEFF5F5F5F5F5F5F5F5F5F5F5F5F5F5F5F5F5F5F5F5F5F5F5F5F5F5F5F5F5F5F5F5F5F5F5F5F5F5F5F5F5F5F5F5F5F5F5F5F5F5F5F5F5F5F5F5F5
310
F5F5F5F5F5F5F5F5F5F5F5F5F5F5F5F5F5F5F5F5F5F5F5F5F5F5F5F5F5F5F5F5F5F5F5F5F5F5F5F5F5F5F5F5F5F5F5F5F5F5F5F5F5F5F5F5F5F5F5F5F5F5F5F5F5F5F5F5F5F5F5F5F5F5F5F5F5F5F5F5F5F5F5F5F5F5F5F5F5F5F5F5F5F5F5F5F5F5F5F5F5F5F5F5F5F5F5F5F5F5F5F5F5F5F5F5F5F5F5F5E2EFEFE2E2E2E2
310
E2E2E2E2E2E2E2E2E2E2E2E2E2E2E2E2E2E2E2E2E2E2E2E2E2E2E2E2E2E2E2E2E2E2E2E2E2E2E2E2E2E2E2E2E2E2E2E2E2E2E2E2E2E2E2E2E2E2E2E2E2E2E2E2E2E2E2E2E2E2E2E2E2E2E2E2E2E2E2E2E2E2E2E2E2E2E2E2E2E2E2E2E2E2E2E2E2E2E2E2E2E2E2E2E2E2E2E2E2E2E2E2E2E2E2E2E2E2E2E2E2E2E2E2E2E2E2
310
E2E2E2E2E2E2E2E2E2E2E2E2E2E2E2E2E2E2E2E2E2E2E2E2E2E2E2E2E2E2E2E2E2E2E2E2E2E2E2E2E2E2E2E2E2E2E2EFEF
  0
ENDSEC
  0
EOF
