  0
SECTION
  2
HEADER
  9
$ACADVER
  1
AC1018
  9
$ACADMAINTVER
 70
     0
  9
$DWGCODEPAGE
  3
ANSI_1252
  9
$AUTHOR
  1
g6edxjah
  9
$LASTSAVEDBY
  1
g6edxjah
  9
$INSBASE
 10
0.0
 20
0.0
 30
0.0
  9
$EXTMIN
 10
61187.3014
 20
80110.25
 30
0.0
  9
$EXTMAX
 10
61244.7264
 20
80142.35
 30
0.0
  9
$LIMMIN
 10
61084.438209
 20
79994.724309
  9
$LIMMAX
 10
61347.589591
 20
80257.875691
  9
$ORTHOMODE
 70
     0
  9
$REGENMODE
 70
     1
  9
$FILLMODE
 70
     1
  9
$QTEXTMODE
 70
     0
  9
$MIRRTEXT
 70
     0
  9
$LTSCALE
 40
1.0
  9
$ATTMODE
 70
     1
  9
$TEXTSIZE
 40
0.15
  9
$TRACEWID
 40
0.05
  9
$TEXTSTYLE
  7
Standard
  9
$CLAYER
  8
Level 46
  9
$CELTYPE
  6
Continuous
  9
$CECOLOR
 62
     7
  9
$CELTSCALE
 40
1.0
  9
$DISPSILH
 70
     0
  9
$DIMSCALE
 40
1.0
  9
$DIMASZ
 40
0.15
  9
$DIMEXO
 40
0.075
  9
$DIMDLI
 40
0.0
  9
$DIMRND
 40
0.0
  9
$DIMDLE
 40
0.0
  9
$DIMEXE
 40
0.075
  9
$DIMTP
 40
0.0
  9
$DIMTM
 40
0.0
  9
$DIMTXT
 40
0.15
  9
$DIMCEN
 40
0.09
  9
$DIMTSZ
 40
0.0
  9
$DIMTOL
 70
     0
  9
$DIMLIM
 70
     0
  9
$DIMTIH
 70
     1
  9
$DIMTOH
 70
     1
  9
$DIMSE1
 70
     0
  9
$DIMSE2
 70
     0
  9
$DIMTAD
 70
     0
  9
$DIMZIN
 70
    11
  9
$DIMBLK
  1
TerminatorOpen_0.5
  9
$DIMASO
 70
     1
  9
$DIMSHO
 70
     1
  9
$DIMPOST
  1

  9
$DIMAPOST
  1

  9
$DIMALT
 70
     0
  9
$DIMALTD
 70
     2
  9
$DIMALTF
 40
0.03937
  9
$DIMLFAC
 40
1.0
  9
$DIMTOFL
 70
     0
  9
$DIMTVP
 40
0.0
  9
$DIMTIX
 70
     0
  9
$DIMSOXD
 70
     0
  9
$DIMSAH
 70
     0
  9
$DIMBLK1
  1

  9
$DIMBLK2
  1

  9
$DIMSTYLE
  2
Standard
  9
$DIMCLRD
 70
     0
  9
$DIMCLRE
 70
     0
  9
$DIMCLRT
 70
     0
  9
$DIMTFAC
 40
1.0
  9
$DIMGAP
 40
0.075
  9
$DIMJUST
 70
     0
  9
$DIMSD1
 70
     0
  9
$DIMSD2
 70
     0
  9
$DIMTOLJ
 70
     0
  9
$DIMTZIN
 70
    11
  9
$DIMALTZ
 70
    15
  9
$DIMALTTZ
 70
    15
  9
$DIMUPT
 70
     1
  9
$DIMDEC
 70
     3
  9
$DIMTDEC
 70
     3
  9
$DIMALTU
 70
     2
  9
$DIMALTTD
 70
     2
  9
$DIMTXSTY
  7
Style-Arial
  9
$DIMAUNIT
 70
     0
  9
$DIMADEC
 70
     4
  9
$DIMALTRND
 40
0.0
  9
$DIMAZIN
 70
     3
  9
$DIMDSEP
 70
    46
  9
$DIMATFIT
 70
     1
  9
$DIMFRAC
 70
     0
  9
$DIMLDRBLK
  1
TerminatorOpen_0.5
  9
$DIMLUNIT
 70
     2
  9
$DIMLWD
 70
    -2
  9
$DIMLWE
 70
    -2
  9
$DIMTMOVE
 70
     0
  9
$LUNITS
 70
     2
  9
$LUPREC
 70
     3
  9
$SKETCHINC
 40
0.1
  9
$FILLETRAD
 40
0.0
  9
$AUNITS
 70
     0
  9
$AUPREC
 70
     4
  9
$MENU
  1
.
  9
$ELEVATION
 40
0.0
  9
$PELEVATION
 40
0.0
  9
$THICKNESS
 40
0.0
  9
$LIMCHECK
 70
     0
  9
$CHAMFERA
 40
0.0
  9
$CHAMFERB
 40
0.0
  9
$CHAMFERC
 40
0.0
  9
$CHAMFERD
 40
0.0
  9
$SKPOLY
 70
     0
  9
$TDCREATE
 40
2455405.402775717
  9
$TDUCREATE
 40
2455405.611109051
  9
$TDUPDATE
 40
2455405.402775717
  9
$TDUUPDATE
 40
2455405.611109051
  9
$TDINDWG
 40
0.0
  9
$TDUSRTIMER
 40
0.0006630093
  9
$USRTIMER
 70
     1
  9
$ANGBASE
 50
0.0
  9
$ANGDIR
 70
     0
  9
$PDMODE
 70
     0
  9
$PDSIZE
 40
0.0
  9
$PLINEWID
 40
0.0
  9
$SPLFRAME
 70
     0
  9
$SPLINETYPE
 70
     6
  9
$SPLINESEGS
 70
     8
  9
$HANDSEED
  5
5C2
  9
$SURFTAB1
 70
     6
  9
$SURFTAB2
 70
     6
  9
$SURFTYPE
 70
     6
  9
$SURFU
 70
     6
  9
$SURFV
 70
     6
  9
$UCSBASE
  2

  9
$UCSNAME
  2

  9
$UCSORG
 10
0.0
 20
0.0
 30
0.0
  9
$UCSXDIR
 10
1.0
 20
0.0
 30
0.0
  9
$UCSYDIR
 10
0.0
 20
1.0
 30
0.0
  9
$UCSORTHOREF
  2

  9
$UCSORTHOVIEW
 70
     0
  9
$UCSORGTOP
 10
0.0
 20
0.0
 30
0.0
  9
$UCSORGBOTTOM
 10
0.0
 20
0.0
 30
0.0
  9
$UCSORGLEFT
 10
0.0
 20
0.0
 30
0.0
  9
$UCSORGRIGHT
 10
0.0
 20
0.0
 30
0.0
  9
$UCSORGFRONT
 10
0.0
 20
0.0
 30
0.0
  9
$UCSORGBACK
 10
0.0
 20
0.0
 30
0.0
  9
$PUCSBASE
  2

  9
$PUCSNAME
  2

  9
$PUCSORG
 10
0.0
 20
0.0
 30
0.0
  9
$PUCSXDIR
 10
1.0
 20
0.0
 30
0.0
  9
$PUCSYDIR
 10
0.0
 20
1.0
 30
0.0
  9
$PUCSORTHOREF
  2

  9
$PUCSORTHOVIEW
 70
     0
  9
$PUCSORGTOP
 10
0.0
 20
0.0
 30
0.0
  9
$PUCSORGBOTTOM
 10
0.0
 20
0.0
 30
0.0
  9
$PUCSORGLEFT
 10
0.0
 20
0.0
 30
0.0
  9
$PUCSORGRIGHT
 10
0.0
 20
0.0
 30
0.0
  9
$PUCSORGFRONT
 10
0.0
 20
0.0
 30
0.0
  9
$PUCSORGBACK
 10
0.0
 20
0.0
 30
0.0
  9
$USERI1
 70
     0
  9
$USERI2
 70
     0
  9
$USERI3
 70
     0
  9
$USERI4
 70
     0
  9
$USERI5
 70
     0
  9
$USERR1
 40
0.0
  9
$USERR2
 40
0.0
  9
$USERR3
 40
0.0
  9
$USERR4
 40
0.0
  9
$USERR5
 40
0.0
  9
$WORLDVIEW
 70
     1
  9
$SHADEDGE
 70
     3
  9
$SHADEDIF
 70
    70
  9
$TILEMODE
 70
     1
  9
$MAXACTVP
 70
    64
  9
$PINSBASE
 10
0.0
 20
0.0
 30
0.0
  9
$PLIMCHECK
 70
     0
  9
$PEXTMIN
 10
1.049744
 20
0.799667
 30
-0.001526
  9
$PEXTMAX
 10
9.450623
 20
7.200577
 30
0.0
  9
$PLIMMIN
 10
-0.25
 20
-0.25
  9
$PLIMMAX
 10
10.75
 20
8.25
  9
$UNITMODE
 70
     0
  9
$VISRETAIN
 70
     1
  9
$PLINEGEN
 70
     0
  9
$PSLTSCALE
 70
     0
  9
$TREEDEPTH
 70
  3020
  9
$CMLSTYLE
  2
Standard
  9
$CMLJUST
 70
     0
  9
$CMLSCALE
 40
1.0
  9
$PROXYGRAPHICS
 70
     1
  9
$MEASUREMENT
 70
     0
  9
$CELWEIGHT
370
    13
  9
$ENDCAPS
280
     0
  9
$JOINSTYLE
280
     0
  9
$LWDISPLAY
290
     1
  9
$INSUNITS
 70
     6
  9
$HYPERLINKBASE
  1

  9
$STYLESHEET
  1

  9
$XEDIT
290
     1
  9
$CEPSNTYPE
380
     0
  9
$PSTYLEMODE
290
     1
  9
$FINGERPRINTGUID
  2
{02C0BBB5-38A7-4FBF-829E-00875EC88963}
  9
$VERSIONGUID
  2
{82C521FC-BF81-46B3-825E-420B6BD93A99}
  9
$EXTNAMES
290
     1
  9
$PSVPSCALE
 40
0.0
  9
$OLESTARTUP
290
     0
  9
$SORTENTS
280
   127
  9
$INDEXCTL
280
     0
  9
$HIDETEXT
280
     1
  9
$XCLIPFRAME
290
     0
  9
$HALOGAP
280
     0
  9
$OBSCOLOR
 70
   257
  9
$OBSLTYPE
280
     0
  9
$INTERSECTIONDISPLAY
280
     0
  9
$INTERSECTIONCOLOR
 70
   257
  9
$DIMASSOC
280
     1
  9
$PROJECTNAME
  1

  0
ENDSEC
  0
SECTION
  2
CLASSES
  0
CLASS
  1
ACDBDICTIONARYWDFLT
  2
AcDbDictionaryWithDefault
  3
ObjectDBX Classes
 90
        0
 91
        3
280
     0
281
     0
  0
CLASS
  1
SORTENTSTABLE
  2
AcDbSortentsTable
  3
ObjectDBX Classes
 90
        0
 91
        3
280
     0
281
     0
  0
ENDSEC
  0
SECTION
  2
TABLES
  0
TABLE
  2
VPORT
  5
59D
330
0
100
AcDbSymbolTable
 70
     4
  0
VPORT
  5
49
330
59D
100
AcDbSymbolTableRecord
100
AcDbViewportTableRecord
  2
*ACTIVE
 70
     0
 10
0.0
 20
0.0
 11
1.0
 21
1.0
 12
61216.01434
 22
80126.299997
 13
0.0
 23
0.0
 14
0.8
 24
0.8
 15
0.8
 25
0.8
 16
0.0
 26
0.0
 36
1.0
 17
0.0
 27
0.0
 37
0.0
 40
33.384005
 41
1.884937
 42
50.0
 43
0.0
 44
0.0
 50
0.0
 51
0.0
 71
     0
 72
   100
 73
     1
 74
     2
 75
     0
 76
     0
 77
     0
 78
     1
281
     0
 65
     1
110
0.0
120
0.0
130
0.0
111
1.0
121
0.0
131
0.0
112
0.0
122
1.0
132
0.0
 79
     0
146
0.0
  0
ENDTAB
  0
TABLE
  2
LTYPE
  5
584
330
0
100
AcDbSymbolTable
 70
     2
  0
LTYPE
  5
585
330
584
100
AcDbSymbolTableRecord
100
AcDbLinetypeTableRecord
  2
ByBlock
 70
     0
  3

 72
    65
 73
     0
 40
0.0
  0
LTYPE
  5
586
330
584
100
AcDbSymbolTableRecord
100
AcDbLinetypeTableRecord
  2
ByLayer
 70
     0
  3

 72
    65
 73
     0
 40
0.0
  0
LTYPE
  5
583
330
584
100
AcDbSymbolTableRecord
100
AcDbLinetypeTableRecord
  2
Continuous
 70
     0
  3
Solid line
 72
    65
 73
     0
 40
0.0
  0
LTYPE
  5
5BC
330
584
100
AcDbSymbolTableRecord
100
AcDbLinetypeTableRecord
  2
DGN Style 1
 70
     0
  3
Dgn Style 1
 72
    65
 73
     2
 40
0.37819
 49
0.000629
 74
     0
 49
-0.377561
 74
     0
  0
ENDTAB
  0
TABLE
  2
LAYER
  5
57D
102
{ACAD_XDICTIONARY
360
57E
102
}
330
0
100
AcDbSymbolTable
 70
    64
  0
LAYER
  5
57C
330
57D
100
AcDbSymbolTableRecord
100
AcDbLayerTableRecord
  2
0
 70
     0
 62
     7
  6
Continuous
370
    -3
390
580
  0
LAYER
  5
7
330
57D
100
AcDbSymbolTableRecord
100
AcDbLayerTableRecord
  2
Level 1
 70
     0
 62
     7
  6
Continuous
370
     0
390
580
  0
LAYER
  5
8
330
57D
100
AcDbSymbolTableRecord
100
AcDbLayerTableRecord
  2
Level 2
 70
     0
 62
     7
  6
Continuous
370
     0
390
580
  0
LAYER
  5
9
330
57D
100
AcDbSymbolTableRecord
100
AcDbLayerTableRecord
  2
Level 3
 70
     0
 62
     7
  6
Continuous
370
     0
390
580
  0
LAYER
  5
A
330
57D
100
AcDbSymbolTableRecord
100
AcDbLayerTableRecord
  2
Level 4
 70
     0
 62
     7
  6
Continuous
370
     0
390
580
  0
LAYER
  5
B
330
57D
100
AcDbSymbolTableRecord
100
AcDbLayerTableRecord
  2
Level 5
 70
     0
 62
     7
  6
Continuous
370
     0
390
580
  0
LAYER
  5
C
330
57D
100
AcDbSymbolTableRecord
100
AcDbLayerTableRecord
  2
Level 6
 70
     0
 62
     7
  6
Continuous
370
     0
390
580
  0
LAYER
  5
D
330
57D
100
AcDbSymbolTableRecord
100
AcDbLayerTableRecord
  2
Level 7
 70
     0
 62
     7
  6
Continuous
370
     0
390
580
  0
LAYER
  5
E
330
57D
100
AcDbSymbolTableRecord
100
AcDbLayerTableRecord
  2
Level 8
 70
     0
 62
     7
  6
Continuous
370
     0
390
580
  0
LAYER
  5
F
330
57D
100
AcDbSymbolTableRecord
100
AcDbLayerTableRecord
  2
Level 9
 70
     0
 62
     7
  6
Continuous
370
     0
390
580
  0
LAYER
  5
10
330
57D
100
AcDbSymbolTableRecord
100
AcDbLayerTableRecord
  2
Level 10
 70
     0
 62
     7
  6
Continuous
370
     0
390
580
  0
LAYER
  5
11
330
57D
100
AcDbSymbolTableRecord
100
AcDbLayerTableRecord
  2
Level 11
 70
     0
 62
     7
  6
Continuous
370
     0
390
580
  0
LAYER
  5
12
330
57D
100
AcDbSymbolTableRecord
100
AcDbLayerTableRecord
  2
Level 12
 70
     0
 62
     7
  6
Continuous
370
     0
390
580
  0
LAYER
  5
13
330
57D
100
AcDbSymbolTableRecord
100
AcDbLayerTableRecord
  2
Level 13
 70
     0
 62
     7
  6
Continuous
370
     0
390
580
  0
LAYER
  5
14
330
57D
100
AcDbSymbolTableRecord
100
AcDbLayerTableRecord
  2
Level 14
 70
     0
 62
     7
  6
Continuous
370
     0
390
580
  0
LAYER
  5
15
330
57D
100
AcDbSymbolTableRecord
100
AcDbLayerTableRecord
  2
Level 15
 70
     0
 62
     7
  6
Continuous
370
     0
390
580
  0
LAYER
  5
16
330
57D
100
AcDbSymbolTableRecord
100
AcDbLayerTableRecord
  2
Level 16
 70
     0
 62
     7
  6
Continuous
370
     0
390
580
  0
LAYER
  5
17
330
57D
100
AcDbSymbolTableRecord
100
AcDbLayerTableRecord
  2
Level 17
 70
     0
 62
     7
  6
Continuous
370
     0
390
580
  0
LAYER
  5
18
330
57D
100
AcDbSymbolTableRecord
100
AcDbLayerTableRecord
  2
Level 18
 70
     0
 62
     7
  6
Continuous
370
     0
390
580
  0
LAYER
  5
19
330
57D
100
AcDbSymbolTableRecord
100
AcDbLayerTableRecord
  2
Level 19
 70
     0
 62
     7
  6
Continuous
370
     0
390
580
  0
LAYER
  5
1A
330
57D
100
AcDbSymbolTableRecord
100
AcDbLayerTableRecord
  2
Level 20
 70
     0
 62
     7
  6
Continuous
370
     0
390
580
  0
LAYER
  5
1B
330
57D
100
AcDbSymbolTableRecord
100
AcDbLayerTableRecord
  2
Level 21
 70
     0
 62
     7
  6
Continuous
370
     0
390
580
  0
LAYER
  5
1C
330
57D
100
AcDbSymbolTableRecord
100
AcDbLayerTableRecord
  2
Level 22
 70
     0
 62
     7
  6
Continuous
370
     0
390
580
  0
LAYER
  5
1D
330
57D
100
AcDbSymbolTableRecord
100
AcDbLayerTableRecord
  2
Level 23
 70
     0
 62
     7
  6
Continuous
370
     0
390
580
  0
LAYER
  5
1E
330
57D
100
AcDbSymbolTableRecord
100
AcDbLayerTableRecord
  2
Level 24
 70
     0
 62
     7
  6
Continuous
370
     0
390
580
  0
LAYER
  5
1F
330
57D
100
AcDbSymbolTableRecord
100
AcDbLayerTableRecord
  2
Level 25
 70
     0
 62
     7
  6
Continuous
370
     0
390
580
  0
LAYER
  5
20
330
57D
100
AcDbSymbolTableRecord
100
AcDbLayerTableRecord
  2
Level 26
 70
     0
 62
     7
  6
Continuous
370
     0
390
580
  0
LAYER
  5
21
330
57D
100
AcDbSymbolTableRecord
100
AcDbLayerTableRecord
  2
Level 27
 70
     0
 62
     7
  6
Continuous
370
     0
390
580
  0
LAYER
  5
22
330
57D
100
AcDbSymbolTableRecord
100
AcDbLayerTableRecord
  2
Level 28
 70
     0
 62
     7
  6
Continuous
370
     0
390
580
  0
LAYER
  5
23
330
57D
100
AcDbSymbolTableRecord
100
AcDbLayerTableRecord
  2
Level 29
 70
     0
 62
     7
  6
Continuous
370
     0
390
580
  0
LAYER
  5
24
330
57D
100
AcDbSymbolTableRecord
100
AcDbLayerTableRecord
  2
Level 30
 70
     0
 62
     7
  6
Continuous
370
     0
390
580
  0
LAYER
  5
25
330
57D
100
AcDbSymbolTableRecord
100
AcDbLayerTableRecord
  2
Level 31
 70
     0
 62
     7
  6
Continuous
370
     0
390
580
  0
LAYER
  5
26
330
57D
100
AcDbSymbolTableRecord
100
AcDbLayerTableRecord
  2
Level 32
 70
     0
 62
     7
  6
Continuous
370
     0
390
580
  0
LAYER
  5
27
330
57D
100
AcDbSymbolTableRecord
100
AcDbLayerTableRecord
  2
Level 33
 70
     0
 62
     7
  6
Continuous
370
     0
390
580
  0
LAYER
  5
28
330
57D
100
AcDbSymbolTableRecord
100
AcDbLayerTableRecord
  2
Level 34
 70
     0
 62
     7
  6
Continuous
370
     0
390
580
  0
LAYER
  5
29
330
57D
100
AcDbSymbolTableRecord
100
AcDbLayerTableRecord
  2
Level 35
 70
     0
 62
     7
  6
Continuous
370
     0
390
580
  0
LAYER
  5
2A
330
57D
100
AcDbSymbolTableRecord
100
AcDbLayerTableRecord
  2
Level 36
 70
     0
 62
     7
  6
Continuous
370
     0
390
580
  0
LAYER
  5
2B
330
57D
100
AcDbSymbolTableRecord
100
AcDbLayerTableRecord
  2
Level 37
 70
     0
 62
     7
  6
Continuous
370
     0
390
580
  0
LAYER
  5
2C
330
57D
100
AcDbSymbolTableRecord
100
AcDbLayerTableRecord
  2
Level 38
 70
     0
 62
     7
  6
Continuous
370
     0
390
580
  0
LAYER
  5
2D
330
57D
100
AcDbSymbolTableRecord
100
AcDbLayerTableRecord
  2
Level 39
 70
     0
 62
     7
  6
Continuous
370
     0
390
580
  0
LAYER
  5
2E
330
57D
100
AcDbSymbolTableRecord
100
AcDbLayerTableRecord
  2
Level 40
 70
     0
 62
     7
  6
Continuous
370
     0
390
580
  0
LAYER
  5
2F
330
57D
100
AcDbSymbolTableRecord
100
AcDbLayerTableRecord
  2
Level 41
 70
     0
 62
     7
  6
Continuous
370
     0
390
580
  0
LAYER
  5
30
330
57D
100
AcDbSymbolTableRecord
100
AcDbLayerTableRecord
  2
Level 42
 70
     0
 62
     7
  6
Continuous
370
     0
390
580
  0
LAYER
  5
31
330
57D
100
AcDbSymbolTableRecord
100
AcDbLayerTableRecord
  2
Level 43
 70
     0
 62
     7
  6
Continuous
370
     0
390
580
  0
LAYER
  5
32
330
57D
100
AcDbSymbolTableRecord
100
AcDbLayerTableRecord
  2
Level 44
 70
     0
 62
     7
  6
Continuous
370
     0
390
580
  0
LAYER
  5
33
330
57D
100
AcDbSymbolTableRecord
100
AcDbLayerTableRecord
  2
Level 45
 70
     0
 62
     7
  6
Continuous
370
     0
390
580
  0
LAYER
  5
34
330
57D
100
AcDbSymbolTableRecord
100
AcDbLayerTableRecord
  2
Level 46
 70
     0
 62
     7
  6
Continuous
370
     0
390
580
  0
LAYER
  5
35
330
57D
100
AcDbSymbolTableRecord
100
AcDbLayerTableRecord
  2
Level 47
 70
     0
 62
     7
  6
Continuous
370
     0
390
580
  0
LAYER
  5
36
330
57D
100
AcDbSymbolTableRecord
100
AcDbLayerTableRecord
  2
Level 48
 70
     0
 62
     7
  6
Continuous
370
     0
390
580
  0
LAYER
  5
37
330
57D
100
AcDbSymbolTableRecord
100
AcDbLayerTableRecord
  2
Level 49
 70
     0
 62
     7
  6
Continuous
370
     0
390
580
  0
LAYER
  5
38
330
57D
100
AcDbSymbolTableRecord
100
AcDbLayerTableRecord
  2
Level 50
 70
     0
 62
     7
  6
Continuous
370
     0
390
580
  0
LAYER
  5
39
330
57D
100
AcDbSymbolTableRecord
100
AcDbLayerTableRecord
  2
Level 51
 70
     0
 62
     7
  6
Continuous
370
     0
390
580
  0
LAYER
  5
3A
330
57D
100
AcDbSymbolTableRecord
100
AcDbLayerTableRecord
  2
Level 52
 70
     0
 62
     7
  6
Continuous
370
     0
390
580
  0
LAYER
  5
3B
330
57D
100
AcDbSymbolTableRecord
100
AcDbLayerTableRecord
  2
Level 53
 70
     0
 62
     7
  6
Continuous
370
     0
390
580
  0
LAYER
  5
3C
330
57D
100
AcDbSymbolTableRecord
100
AcDbLayerTableRecord
  2
Level 54
 70
     0
 62
     7
  6
Continuous
370
     0
390
580
  0
LAYER
  5
3D
330
57D
100
AcDbSymbolTableRecord
100
AcDbLayerTableRecord
  2
Level 55
 70
     0
 62
     7
  6
Continuous
370
     0
390
580
  0
LAYER
  5
3E
330
57D
100
AcDbSymbolTableRecord
100
AcDbLayerTableRecord
  2
Level 56
 70
     0
 62
     7
  6
Continuous
370
     0
390
580
  0
LAYER
  5
3F
330
57D
100
AcDbSymbolTableRecord
100
AcDbLayerTableRecord
  2
Level 57
 70
     0
 62
     7
  6
Continuous
370
     0
390
580
  0
LAYER
  5
40
330
57D
100
AcDbSymbolTableRecord
100
AcDbLayerTableRecord
  2
Level 58
 70
     0
 62
     7
  6
Continuous
370
     0
390
580
  0
LAYER
  5
41
330
57D
100
AcDbSymbolTableRecord
100
AcDbLayerTableRecord
  2
Level 59
 70
     0
 62
     7
  6
Continuous
370
     0
390
580
  0
LAYER
  5
42
330
57D
100
AcDbSymbolTableRecord
100
AcDbLayerTableRecord
  2
Level 60
 70
     0
 62
     7
  6
Continuous
370
     0
390
580
  0
LAYER
  5
43
330
57D
100
AcDbSymbolTableRecord
100
AcDbLayerTableRecord
  2
Level 61
 70
     0
 62
     7
  6
Continuous
370
     0
390
580
  0
LAYER
  5
44
330
57D
100
AcDbSymbolTableRecord
100
AcDbLayerTableRecord
  2
Level 62
 70
     0
 62
     7
  6
Continuous
370
     0
390
580
  0
LAYER
  5
45
330
57D
100
AcDbSymbolTableRecord
100
AcDbLayerTableRecord
  2
Level 63
 70
     0
 62
     7
  6
Continuous
370
     0
390
580
  0
ENDTAB
  0
TABLE
  2
STYLE
  5
588
330
0
100
AcDbSymbolTable
 70
     8
  0
STYLE
  5
587
330
588
100
AcDbSymbolTableRecord
100
AcDbTextStyleTableRecord
  2
Standard
 70
     0
 40
0.0
 41
1.0
 50
0.0
 71
     0
 42
0.15
  3
txt
  4

  0
STYLE
  5
5A6
330
588
100
AcDbSymbolTableRecord
100
AcDbTextStyleTableRecord
  2
Style-Arial
 70
     0
 40
0.0
 41
1.0
 50
0.0
 71
     0
 42
0.2
  3

  4

1001
ACAD
1000
Arial
1071
       39
  0
STYLE
  5
5B6
330
588
100
AcDbSymbolTableRecord
100
AcDbTextStyleTableRecord
  2
Style-ENGINEERING
 70
     0
 40
0.0
 41
1.0
 50
0.0
 71
     0
 42
0.2
  3
ENGINEERING.shx
  4

  0
STYLE
  5
5B7
330
588
100
AcDbSymbolTableRecord
100
AcDbTextStyleTableRecord
  2
Style-COMPRESSED
 70
     0
 40
0.0
 41
1.0
 50
0.0
 71
     0
 42
0.2
  3
COMPRESSED.shx
  4

  0
STYLE
  5
5B8
330
588
100
AcDbSymbolTableRecord
100
AcDbTextStyleTableRecord
  2
Style-CHAR_FAST_FONT
 70
     0
 40
0.0
 41
1.0
 50
0.0
 71
     0
 42
0.2
  3
CHAR_FAST_FONT.shx
  4

  0
STYLE
  5
5B9
330
588
100
AcDbSymbolTableRecord
100
AcDbTextStyleTableRecord
  2
Style-ITALICS
 70
     0
 40
0.0
 41
1.0
 50
0.0
 71
     0
 42
0.2
  3
ITALICS.shx
  4

  0
STYLE
  5
5BA
330
588
100
AcDbSymbolTableRecord
100
AcDbTextStyleTableRecord
  2
Style-WORKING
 70
     0
 40
0.0
 41
1.0
 50
0.0
 71
     0
 42
0.2
  3
WORKING.shx
  4

  0
STYLE
  5
5BB
330
588
100
AcDbSymbolTableRecord
100
AcDbTextStyleTableRecord
  2
Style-FANCY
 70
     0
 40
0.0
 41
1.0
 50
0.0
 71
     0
 42
0.2
  3
FANCY.shx
  4

  0
ENDTAB
  0
TABLE
  2
VIEW
  5
59B
330
0
100
AcDbSymbolTable
 70
     0
  0
ENDTAB
  0
TABLE
  2
UCS
  5
59C
330
0
100
AcDbSymbolTable
 70
     0
  0
ENDTAB
  0
TABLE
  2
APPID
  5
59A
330
0
100
AcDbSymbolTable
 70
     2
  0
APPID
  5
5A2
330
59A
100
AcDbSymbolTableRecord
100
AcDbRegAppTableRecord
  2
ACAD
 70
     0
  0
APPID
  5
599
330
59A
100
AcDbSymbolTableRecord
100
AcDbRegAppTableRecord
  2
ACAD_PSEXT
 70
     0
  0
ENDTAB
  0
TABLE
  2
DIMSTYLE
  5
58A
330
0
100
AcDbSymbolTable
 70
     1
100
AcDbDimStyleTable
  0
DIMSTYLE
105
589
330
58A
100
AcDbSymbolTableRecord
100
AcDbDimStyleTableRecord
  2
Standard
 70
     0
340
587
  0
ENDTAB
  0
TABLE
  2
BLOCK_RECORD
  5
58D
330
0
100
AcDbSymbolTable
 70
     3
  0
BLOCK_RECORD
  5
58E
102
{ACAD_XDICTIONARY
360
5BD
102
}
330
58D
100
AcDbSymbolTableRecord
100
AcDbBlockTableRecord
  2
*Model_Space
340
591
  0
BLOCK_RECORD
  5
593
330
58D
100
AcDbSymbolTableRecord
100
AcDbBlockTableRecord
  2
*Paper_Space
340
596
  0
BLOCK_RECORD
  5
5A7
330
58D
100
AcDbSymbolTableRecord
100
AcDbBlockTableRecord
  2
TerminatorOpen_0.5
340
0
  0
BLOCK_RECORD
  5
5B0
330
58D
100
AcDbSymbolTableRecord
100
AcDbBlockTableRecord
  2
LARROW
340
0
102
{BLKREFS
331
68
331
6A
331
6E
331
114
331
116
331
118
331
11A
331
11D
331
1A9
331
1AB
331
1ED
331
1EF
331
1F3
331
283
331
285
331
287
331
289
331
28C
331
318
331
31A
102
}
  0
BLOCK_RECORD
  5
5B3
330
58D
100
AcDbSymbolTableRecord
100
AcDbBlockTableRecord
  2
LARROW_1
340
0
102
{BLKREFS
331
14D
331
14F
331
2BC
331
2BE
102
}
  0
ENDTAB
  0
ENDSEC
  0
SECTION
  2
BLOCKS
  0
BLOCK
  5
58F
330
58E
100
AcDbEntity
  8
0
100
AcDbBlockBegin
  2
*Model_Space
 70
     0
 71
     0
 10
0.0
 20
0.0
 30
0.0
  3
*Model_Space
  1

  0
ENDBLK
  5
590
330
58E
100
AcDbEntity
  8
0
100
AcDbBlockEnd
  0
BLOCK
  5
594
330
593
100
AcDbEntity
 67
     1
  8
0
100
AcDbBlockBegin
  2
*Paper_Space
 70
     0
 71
     0
 10
0.0
 20
0.0
 30
0.0
  3
*Paper_Space
  1

  0
ENDBLK
  5
595
330
593
100
AcDbEntity
 67
     1
  8
0
100
AcDbBlockEnd
  0
BLOCK
  5
5AB
330
5A7
100
AcDbEntity
  8
0
100
AcDbBlockBegin
  2
TerminatorOpen_0.5
 70
     0
 71
     0
 10
0.0
 20
0.0
 30
0.0
  3
TerminatorOpen_0.5
  1

  0
LINE
  5
5A8
330
5A7
100
AcDbEntity
  8
0
  6
ByBlock
 62
     0
370
    -2
100
AcDbLine
 10
0.0
 20
0.0
 30
0.0
 11
-1.0
 21
0.0
 31
0.0
  0
LINE
  5
5A9
330
5A7
100
AcDbEntity
  8
0
  6
ByBlock
 62
     0
370
    -2
100
AcDbLine
 10
0.0
 20
0.0
 30
0.0
 11
-1.0
 21
0.25
 31
0.0
  0
LINE
  5
5AA
330
5A7
100
AcDbEntity
  8
0
  6
ByBlock
 62
     0
370
    -2
100
AcDbLine
 10
0.0
 20
0.0
 30
0.0
 11
-1.0
 21
-0.25
 31
0.0
  0
ENDBLK
  5
5AC
330
5A7
100
AcDbEntity
  8
0
100
AcDbBlockEnd
  0
BLOCK
  5
5B1
330
5B0
100
AcDbEntity
  8
0
100
AcDbBlockBegin
  2
LARROW
 70
     0
 71
     0
 10
0.0
 20
0.0
 30
0.0
  3
LARROW
  1

  0
LWPOLYLINE
  5
69
330
5B0
100
AcDbEntity
  8
Level 46
  6
Continuous
 62
     7
370
     0
100
AcDbPolyline
 90
       63
 70
   128
 43
0.0
 10
-0.125066
 20
0.01811
 10
0.0
 20
0.0
 10
-0.125
 20
-0.01811
 10
-0.121063
 20
-0.015092
 10
-0.115551
 20
-0.009711
 10
-0.112861
 20
-0.004724
 10
-0.112205
 20
0.0
 10
-0.113189
 20
0.005249
 10
-0.116076
 20
0.010499
 10
-0.121654
 20
0.015551
 10
-0.125066
 20
0.01811
 10
-0.003675
 20
0.000197
 10
-0.120997
 20
-0.016929
 10
-0.117388
 20
-0.014239
 10
-0.111549
 20
-0.008727
 10
-0.109711
 20
-0.00164
 10
-0.110958
 20
0.005512
 10
-0.11437
 20
0.010367
 10
-0.118504
 20
0.01437
 10
-0.12126
 20
0.016601
 10
-0.010302
 20
0.000197
 10
-0.115682
 20
-0.014895
 10
-0.112008
 20
-0.012533
 10
-0.110105
 20
-0.009449
 10
-0.108005
 20
-0.005446
 10
-0.10689
 20
0.000197
 10
-0.10748
 20
0.00479
 10
-0.109711
 20
0.008399
 10
-0.114173
 20
0.011286
 10
-0.117192
 20
0.014764
 10
-0.017979
 20
0.000197
 10
-0.109908
 20
-0.01273
 10
-0.105774
 20
-0.007612
 10
-0.104593
 20
-0.001444
 10
-0.105184
 20
0.005512
 10
-0.113058
 20
0.012992
 10
-0.026575
 20
0.000591
 10
-0.104593
 20
-0.010302
 10
-0.103478
 20
-0.006693
 10
-0.10105
 20
-0.000919
 10
-0.102559
 20
0.005249
 10
-0.108793
 20
0.010761
 10
-0.034449
 20
0.000591
 10
-0.101772
 20
-0.008005
 10
-0.099606
 20
-0.003609
 10
-0.098556
 20
0.00105
 10
-0.103281
 20
0.008399
 10
-0.043898
 20
0.000591
 10
-0.097703
 20
-0.006037
 10
-0.096194
 20
-0.00269
 10
-0.095801
 20
0.00105
 10
-0.099606
 20
0.006365
 10
-0.055052
 20
0.000591
 10
-0.094291
 20
-0.003806
 10
-0.093176
 20
0.001247
 10
-0.096785
 20
0.004396
 10
-0.064304
 20
0.000591
 10
-0.091667
 20
-0.002297
 10
-0.092257
 20
0.002559
 10
-0.073688
 20
0.000591
 10
-0.090551
 20
-0.000722
 10
-0.091076
 20
0.000787
 10
-0.085302
 20
0.000787
  0
ENDBLK
  5
5B2
330
5B0
100
AcDbEntity
  8
0
100
AcDbBlockEnd
  0
BLOCK
  5
5B4
330
5B3
100
AcDbEntity
  8
0
100
AcDbBlockBegin
  2
LARROW_1
 70
     0
 71
     0
 10
0.0
 20
0.0
 30
0.0
  3
LARROW_1
  1

  0
LWPOLYLINE
  5
14E
330
5B3
100
AcDbEntity
  8
Level 46
  6
Continuous
 62
     7
370
    13
100
AcDbPolyline
 90
       63
 70
   128
 43
0.0
 10
-0.125066
 20
0.01811
 10
0.0
 20
0.0
 10
-0.125
 20
-0.01811
 10
-0.121063
 20
-0.015092
 10
-0.115551
 20
-0.009711
 10
-0.112861
 20
-0.004724
 10
-0.112205
 20
0.0
 10
-0.113189
 20
0.005315
 10
-0.116076
 20
0.010499
 10
-0.121654
 20
0.015617
 10
-0.125066
 20
0.01811
 10
-0.003675
 20
0.000197
 10
-0.120997
 20
-0.016929
 10
-0.117388
 20
-0.014239
 10
-0.111549
 20
-0.008727
 10
-0.109711
 20
-0.00164
 10
-0.110958
 20
0.005512
 10
-0.11437
 20
0.010367
 10
-0.118504
 20
0.01437
 10
-0.12126
 20
0.016601
 10
-0.010302
 20
0.000197
 10
-0.115682
 20
-0.014895
 10
-0.112008
 20
-0.012533
 10
-0.110105
 20
-0.009383
 10
-0.108005
 20
-0.005381
 10
-0.10689
 20
0.000197
 10
-0.10748
 20
0.00479
 10
-0.109711
 20
0.008399
 10
-0.114173
 20
0.011286
 10
-0.117192
 20
0.014764
 10
-0.017979
 20
0.000197
 10
-0.109908
 20
-0.01273
 10
-0.105774
 20
-0.007612
 10
-0.104593
 20
-0.001378
 10
-0.105184
 20
0.005512
 10
-0.113058
 20
0.012992
 10
-0.026575
 20
0.000591
 10
-0.104593
 20
-0.010302
 10
-0.103478
 20
-0.006693
 10
-0.10105
 20
-0.000919
 10
-0.102559
 20
0.005315
 10
-0.108793
 20
0.010761
 10
-0.034449
 20
0.000591
 10
-0.101772
 20
-0.008005
 10
-0.099606
 20
-0.003609
 10
-0.098556
 20
0.001115
 10
-0.103281
 20
0.008399
 10
-0.043898
 20
0.000591
 10
-0.097703
 20
-0.006037
 10
-0.096194
 20
-0.00269
 10
-0.095801
 20
0.001115
 10
-0.099606
 20
0.006365
 10
-0.055052
 20
0.000591
 10
-0.094291
 20
-0.003806
 10
-0.093176
 20
0.001312
 10
-0.096785
 20
0.004396
 10
-0.064304
 20
0.000591
 10
-0.091667
 20
-0.002297
 10
-0.092257
 20
0.002559
 10
-0.073688
 20
0.000591
 10
-0.090551
 20
-0.000722
 10
-0.091076
 20
0.000787
 10
-0.085302
 20
0.000787
  0
ENDBLK
  5
5B5
330
5B3
100
AcDbEntity
  8
0
100
AcDbBlockEnd
  0
ENDSEC
  0
SECTION
  2
ENTITIES
  0
LINE
  5
5C
330
58E
100
AcDbEntity
  8
Level 10
  6
Continuous
 62
     7
370
    70
100
AcDbLine
 10
61218.3977
 20
80137.8359
 30
0.0
 11
61189.2682
 21
80137.8359
 31
0.0
  0
LINE
  5
5D
330
58E
100
AcDbEntity
  8
Level 46
  6
Continuous
 62
     7
370
     0
100
AcDbLine
 10
61213.1977
 20
80140.2063
 30
0.0
 11
61213.1977
 21
80136.7483
 31
0.0
  0
LINE
  5
5E
330
58E
100
AcDbEntity
  8
Level 46
  6
Continuous
 62
     7
370
     0
100
AcDbLine
 10
61192.4713
 20
80139.271
 30
0.0
 11
61192.4713
 21
80136.7483
 31
0.0
  0
LINE
  5
5F
330
58E
100
AcDbEntity
  8
Level 10
  6
Continuous
 62
     7
370
    70
100
AcDbLine
 10
61194.188
 20
80140.5147
 30
0.0
 11
61189.464
 21
80141.1075
 31
0.0
  0
LINE
  5
60
330
58E
100
AcDbEntity
  8
Level 10
  6
Continuous
 62
     7
370
    70
100
AcDbLine
 10
61213.3004
 20
80137.8359
 30
0.0
 11
61208.1685
 21
80137.9947
 31
0.0
  0
LINE
  5
61
330
58E
100
AcDbEntity
  8
Level 10
  6
Continuous
 62
     7
370
    70
100
AcDbLine
 10
61213.2422
 20
80139.2735
 30
0.0
 11
61208.0196
 21
80139.4351
 31
0.0
  0
ARC
  5
62
330
58E
100
AcDbEntity
  8
Level 10
  6
Continuous
 62
     7
370
    70
100
AcDbCircle
 10
-61212.592016
 20
80287.169782
 30
0.0
 40
147.8053939898401
210
0.0
220
0.0
230
-1.0
100
AcDbArc
 50
271.772761
 51
277.152778
  0
LINE
  5
63
330
58E
100
AcDbEntity
  8
Level 10
  6
Continuous
 62
     7
370
    70
100
AcDbLine
 10
61194.0093
 20
80139.0907
 30
0.0
 11
61189.2853
 21
80139.6835
 31
0.0
  0
ARC
  5
64
330
58E
100
AcDbEntity
  8
Level 10
  6
Continuous
 62
     7
370
    70
100
AcDbCircle
 10
-61212.592001
 20
80287.169778
 30
0.0
 40
149.240494
210
0.0
220
0.0
230
-1.0
100
AcDbArc
 50
271.698492
 51
277.152772
  0
LINE
  5
65
330
58E
100
AcDbEntity
  8
Level 10
  6
Continuous
 62
     7
370
    70
100
AcDbLine
 10
61218.3977
 20
80139.271
 30
0.0
 11
61192.5728
 21
80139.271
 31
0.0
  0
LINE
  5
66
330
58E
100
AcDbEntity
  8
Level 10
  6
Continuous
 62
     7
370
    70
100
AcDbLine
 10
61192.5728
 20
80139.271
 30
0.0
 11
61189.2682
 21
80139.271
 31
0.0
  0
LINE
  5
67
330
58E
100
AcDbEntity
  8
Level 46
  6
Continuous
 62
     7
370
     0
100
AcDbLine
 10
61213.1977
 20
80137.0531
 30
0.0
 11
61192.4713
 21
80137.0531
 31
0.0
  0
INSERT
  5
68
330
58E
100
AcDbEntity
  8
Level 46
  6
Continuous
 62
     7
370
     0
100
AcDbBlockReference
  2
LARROW
 10
61213.1977
 20
80137.0531
 30
0.0
 41
1.524
 42
1.524
 43
1.524
  0
INSERT
  5
6A
330
58E
100
AcDbEntity
  8
Level 46
  6
Continuous
 62
     7
370
     0
100
AcDbBlockReference
  2
LARROW
 10
61192.4713
 20
80137.0531
 30
0.0
 41
1.524
 42
1.524
 43
1.524
 50
180.0
  0
LINE
  5
6C
330
58E
100
AcDbEntity
  8
Level 46
  6
Continuous
 62
     7
370
     0
100
AcDbLine
 10
61213.8799
 20
80138.8557
 30
0.0
 11
61213.1977
 21
80138.8557
 31
0.0
  0
LINE
  5
6D
330
58E
100
AcDbEntity
  8
Level 46
  6
Continuous
 62
     7
370
     0
100
AcDbLine
 10
61208.1685
 20
80137.9947
 30
0.0
 11
61208.2353
 21
80140.1508
 31
0.0
  0
INSERT
  5
6E
330
58E
100
AcDbEntity
  8
Level 46
  6
Continuous
 62
     7
370
     0
100
AcDbBlockReference
  2
LARROW
 10
61192.4713
 20
80138.6457
 30
0.0
 41
1.524
 42
1.524
 43
1.524
  0
CIRCLE
  5
70
330
58E
100
AcDbEntity
  8
Level 10
  6
Continuous
 62
     7
370
    13
100
AcDbCircle
 10
61193.761524
 20
80140.568172
 30
0.0
 40
0.0612055791660011
  0
CIRCLE
  5
71
330
58E
100
AcDbEntity
  8
Level 10
  6
Continuous
 62
     7
370
    13
100
AcDbCircle
 10
61193.761524
 20
80140.568172
 30
0.0
 40
0.0581575791660011
  0
CIRCLE
  5
72
330
58E
100
AcDbEntity
  8
Level 10
  6
Continuous
 62
     7
370
    13
100
AcDbCircle
 10
61193.761524
 20
80140.568172
 30
0.0
 40
0.0551095791660011
  0
CIRCLE
  5
73
330
58E
100
AcDbEntity
  8
Level 10
  6
Continuous
 62
     7
370
    13
100
AcDbCircle
 10
61193.761524
 20
80140.568172
 30
0.0
 40
0.0520615791660011
  0
CIRCLE
  5
74
330
58E
100
AcDbEntity
  8
Level 10
  6
Continuous
 62
     7
370
    13
100
AcDbCircle
 10
61193.761524
 20
80140.568172
 30
0.0
 40
0.0490135791660011
  0
CIRCLE
  5
75
330
58E
100
AcDbEntity
  8
Level 10
  6
Continuous
 62
     7
370
    13
100
AcDbCircle
 10
61193.761524
 20
80140.568172
 30
0.0
 40
0.0459655791660011
  0
CIRCLE
  5
76
330
58E
100
AcDbEntity
  8
Level 10
  6
Continuous
 62
     7
370
    13
100
AcDbCircle
 10
61193.761524
 20
80140.568172
 30
0.0
 40
0.0429175791660011
  0
CIRCLE
  5
77
330
58E
100
AcDbEntity
  8
Level 10
  6
Continuous
 62
     7
370
    13
100
AcDbCircle
 10
61193.761524
 20
80140.568172
 30
0.0
 40
0.0398695791660011
  0
CIRCLE
  5
78
330
58E
100
AcDbEntity
  8
Level 10
  6
Continuous
 62
     7
370
    13
100
AcDbCircle
 10
61193.761524
 20
80140.568172
 30
0.0
 40
0.0368215791660011
  0
CIRCLE
  5
79
330
58E
100
AcDbEntity
  8
Level 10
  6
Continuous
 62
     7
370
    13
100
AcDbCircle
 10
61193.761524
 20
80140.568172
 30
0.0
 40
0.0337735791660011
  0
CIRCLE
  5
7A
330
58E
100
AcDbEntity
  8
Level 10
  6
Continuous
 62
     7
370
    13
100
AcDbCircle
 10
61193.761524
 20
80140.568172
 30
0.0
 40
0.0307255791660011
  0
CIRCLE
  5
7B
330
58E
100
AcDbEntity
  8
Level 10
  6
Continuous
 62
     7
370
    13
100
AcDbCircle
 10
61193.761524
 20
80140.568172
 30
0.0
 40
0.0276775791660011
  0
CIRCLE
  5
7C
330
58E
100
AcDbEntity
  8
Level 10
  6
Continuous
 62
     7
370
    13
100
AcDbCircle
 10
61193.761524
 20
80140.568172
 30
0.0
 40
0.0246295791660011
  0
CIRCLE
  5
7D
330
58E
100
AcDbEntity
  8
Level 10
  6
Continuous
 62
     7
370
    13
100
AcDbCircle
 10
61193.761524
 20
80140.568172
 30
0.0
 40
0.0215815791660011
  0
CIRCLE
  5
7E
330
58E
100
AcDbEntity
  8
Level 10
  6
Continuous
 62
     7
370
    13
100
AcDbCircle
 10
61193.761524
 20
80140.568172
 30
0.0
 40
0.0185335791660011
  0
CIRCLE
  5
7F
330
58E
100
AcDbEntity
  8
Level 10
  6
Continuous
 62
     7
370
    13
100
AcDbCircle
 10
61193.761524
 20
80140.568172
 30
0.0
 40
0.0154855791660011
  0
CIRCLE
  5
80
330
58E
100
AcDbEntity
  8
Level 10
  6
Continuous
 62
     7
370
    13
100
AcDbCircle
 10
61193.761524
 20
80140.568172
 30
0.0
 40
0.0124375791660011
  0
CIRCLE
  5
81
330
58E
100
AcDbEntity
  8
Level 10
  6
Continuous
 62
     7
370
    13
100
AcDbCircle
 10
61193.761524
 20
80140.568172
 30
0.0
 40
0.0093895791660011
  0
CIRCLE
  5
82
330
58E
100
AcDbEntity
  8
Level 10
  6
Continuous
 62
     7
370
    13
100
AcDbCircle
 10
61193.761524
 20
80140.568172
 30
0.0
 40
0.0063415791660011
  0
CIRCLE
  5
83
330
58E
100
AcDbEntity
  8
Level 10
  6
Continuous
 62
     7
370
    13
100
AcDbCircle
 10
61193.761524
 20
80140.568172
 30
0.0
 40
0.0032935791660011
  0
CIRCLE
  5
84
330
58E
100
AcDbEntity
  8
Level 10
  6
Continuous
 62
     7
370
    13
100
AcDbCircle
 10
61194.010244
 20
80139.0906
 30
0.0
 40
0.0612055791660011
  0
CIRCLE
  5
85
330
58E
100
AcDbEntity
  8
Level 10
  6
Continuous
 62
     7
370
    13
100
AcDbCircle
 10
61194.010244
 20
80139.0906
 30
0.0
 40
0.0581575791660011
  0
CIRCLE
  5
86
330
58E
100
AcDbEntity
  8
Level 10
  6
Continuous
 62
     7
370
    13
100
AcDbCircle
 10
61194.010244
 20
80139.0906
 30
0.0
 40
0.0551095791660011
  0
CIRCLE
  5
87
330
58E
100
AcDbEntity
  8
Level 10
  6
Continuous
 62
     7
370
    13
100
AcDbCircle
 10
61194.010244
 20
80139.0906
 30
0.0
 40
0.0520615791660011
  0
CIRCLE
  5
88
330
58E
100
AcDbEntity
  8
Level 10
  6
Continuous
 62
     7
370
    13
100
AcDbCircle
 10
61194.010244
 20
80139.0906
 30
0.0
 40
0.0490135791660011
  0
CIRCLE
  5
89
330
58E
100
AcDbEntity
  8
Level 10
  6
Continuous
 62
     7
370
    13
100
AcDbCircle
 10
61194.010244
 20
80139.0906
 30
0.0
 40
0.0459655791660011
  0
CIRCLE
  5
8A
330
58E
100
AcDbEntity
  8
Level 10
  6
Continuous
 62
     7
370
    13
100
AcDbCircle
 10
61194.010244
 20
80139.0906
 30
0.0
 40
0.0429175791660011
  0
CIRCLE
  5
8B
330
58E
100
AcDbEntity
  8
Level 10
  6
Continuous
 62
     7
370
    13
100
AcDbCircle
 10
61194.010244
 20
80139.0906
 30
0.0
 40
0.0398695791660011
  0
CIRCLE
  5
8C
330
58E
100
AcDbEntity
  8
Level 10
  6
Continuous
 62
     7
370
    13
100
AcDbCircle
 10
61194.010244
 20
80139.0906
 30
0.0
 40
0.0368215791660011
  0
CIRCLE
  5
8D
330
58E
100
AcDbEntity
  8
Level 10
  6
Continuous
 62
     7
370
    13
100
AcDbCircle
 10
61194.010244
 20
80139.0906
 30
0.0
 40
0.0337735791660011
  0
CIRCLE
  5
8E
330
58E
100
AcDbEntity
  8
Level 10
  6
Continuous
 62
     7
370
    13
100
AcDbCircle
 10
61194.010244
 20
80139.0906
 30
0.0
 40
0.0307255791660011
  0
CIRCLE
  5
8F
330
58E
100
AcDbEntity
  8
Level 10
  6
Continuous
 62
     7
370
    13
100
AcDbCircle
 10
61194.010244
 20
80139.0906
 30
0.0
 40
0.0276775791660011
  0
CIRCLE
  5
90
330
58E
100
AcDbEntity
  8
Level 10
  6
Continuous
 62
     7
370
    13
100
AcDbCircle
 10
61194.010244
 20
80139.0906
 30
0.0
 40
0.0246295791660011
  0
CIRCLE
  5
91
330
58E
100
AcDbEntity
  8
Level 10
  6
Continuous
 62
     7
370
    13
100
AcDbCircle
 10
61194.010244
 20
80139.0906
 30
0.0
 40
0.0215815791660011
  0
CIRCLE
  5
92
330
58E
100
AcDbEntity
  8
Level 10
  6
Continuous
 62
     7
370
    13
100
AcDbCircle
 10
61194.010244
 20
80139.0906
 30
0.0
 40
0.0185335791660011
  0
CIRCLE
  5
93
330
58E
100
AcDbEntity
  8
Level 10
  6
Continuous
 62
     7
370
    13
100
AcDbCircle
 10
61194.010244
 20
80139.0906
 30
0.0
 40
0.0154855791660011
  0
CIRCLE
  5
94
330
58E
100
AcDbEntity
  8
Level 10
  6
Continuous
 62
     7
370
    13
100
AcDbCircle
 10
61194.010244
 20
80139.0906
 30
0.0
 40
0.0124375791660011
  0
CIRCLE
  5
95
330
58E
100
AcDbEntity
  8
Level 10
  6
Continuous
 62
     7
370
    13
100
AcDbCircle
 10
61194.010244
 20
80139.0906
 30
0.0
 40
0.0093895791660011
  0
CIRCLE
  5
96
330
58E
100
AcDbEntity
  8
Level 10
  6
Continuous
 62
     7
370
    13
100
AcDbCircle
 10
61194.010244
 20
80139.0906
 30
0.0
 40
0.0063415791660011
  0
CIRCLE
  5
97
330
58E
100
AcDbEntity
  8
Level 10
  6
Continuous
 62
     7
370
    13
100
AcDbCircle
 10
61194.010244
 20
80139.0906
 30
0.0
 40
0.0032935791660011
  0
CIRCLE
  5
98
330
58E
100
AcDbEntity
  8
Level 10
  6
Continuous
 62
     7
370
    13
100
AcDbCircle
 10
61194.020725
 20
80139.270994
 30
0.0
 40
0.0612055791660011
  0
CIRCLE
  5
99
330
58E
100
AcDbEntity
  8
Level 10
  6
Continuous
 62
     7
370
    13
100
AcDbCircle
 10
61194.020725
 20
80139.270994
 30
0.0
 40
0.0581575791660011
  0
CIRCLE
  5
9A
330
58E
100
AcDbEntity
  8
Level 10
  6
Continuous
 62
     7
370
    13
100
AcDbCircle
 10
61194.020725
 20
80139.270994
 30
0.0
 40
0.0551095791660011
  0
CIRCLE
  5
9B
330
58E
100
AcDbEntity
  8
Level 10
  6
Continuous
 62
     7
370
    13
100
AcDbCircle
 10
61194.020725
 20
80139.270994
 30
0.0
 40
0.0520615791660011
  0
CIRCLE
  5
9C
330
58E
100
AcDbEntity
  8
Level 10
  6
Continuous
 62
     7
370
    13
100
AcDbCircle
 10
61194.020725
 20
80139.270994
 30
0.0
 40
0.0490135791660011
  0
CIRCLE
  5
9D
330
58E
100
AcDbEntity
  8
Level 10
  6
Continuous
 62
     7
370
    13
100
AcDbCircle
 10
61194.020725
 20
80139.270994
 30
0.0
 40
0.0459655791660011
  0
CIRCLE
  5
9E
330
58E
100
AcDbEntity
  8
Level 10
  6
Continuous
 62
     7
370
    13
100
AcDbCircle
 10
61194.020725
 20
80139.270994
 30
0.0
 40
0.0429175791660011
  0
CIRCLE
  5
9F
330
58E
100
AcDbEntity
  8
Level 10
  6
Continuous
 62
     7
370
    13
100
AcDbCircle
 10
61194.020725
 20
80139.270994
 30
0.0
 40
0.0398695791660011
  0
CIRCLE
  5
A0
330
58E
100
AcDbEntity
  8
Level 10
  6
Continuous
 62
     7
370
    13
100
AcDbCircle
 10
61194.020725
 20
80139.270994
 30
0.0
 40
0.0368215791660011
  0
CIRCLE
  5
A1
330
58E
100
AcDbEntity
  8
Level 10
  6
Continuous
 62
     7
370
    13
100
AcDbCircle
 10
61194.020725
 20
80139.270994
 30
0.0
 40
0.0337735791660011
  0
CIRCLE
  5
A2
330
58E
100
AcDbEntity
  8
Level 10
  6
Continuous
 62
     7
370
    13
100
AcDbCircle
 10
61194.020725
 20
80139.270994
 30
0.0
 40
0.0307255791660011
  0
CIRCLE
  5
A3
330
58E
100
AcDbEntity
  8
Level 10
  6
Continuous
 62
     7
370
    13
100
AcDbCircle
 10
61194.020725
 20
80139.270994
 30
0.0
 40
0.0276775791660011
  0
CIRCLE
  5
A4
330
58E
100
AcDbEntity
  8
Level 10
  6
Continuous
 62
     7
370
    13
100
AcDbCircle
 10
61194.020725
 20
80139.270994
 30
0.0
 40
0.0246295791660011
  0
CIRCLE
  5
A5
330
58E
100
AcDbEntity
  8
Level 10
  6
Continuous
 62
     7
370
    13
100
AcDbCircle
 10
61194.020725
 20
80139.270994
 30
0.0
 40
0.0215815791660011
  0
CIRCLE
  5
A6
330
58E
100
AcDbEntity
  8
Level 10
  6
Continuous
 62
     7
370
    13
100
AcDbCircle
 10
61194.020725
 20
80139.270994
 30
0.0
 40
0.0185335791660011
  0
CIRCLE
  5
A7
330
58E
100
AcDbEntity
  8
Level 10
  6
Continuous
 62
     7
370
    13
100
AcDbCircle
 10
61194.020725
 20
80139.270994
 30
0.0
 40
0.0154855791660011
  0
CIRCLE
  5
A8
330
58E
100
AcDbEntity
  8
Level 10
  6
Continuous
 62
     7
370
    13
100
AcDbCircle
 10
61194.020725
 20
80139.270994
 30
0.0
 40
0.0124375791660011
  0
CIRCLE
  5
A9
330
58E
100
AcDbEntity
  8
Level 10
  6
Continuous
 62
     7
370
    13
100
AcDbCircle
 10
61194.020725
 20
80139.270994
 30
0.0
 40
0.0093895791660011
  0
CIRCLE
  5
AA
330
58E
100
AcDbEntity
  8
Level 10
  6
Continuous
 62
     7
370
    13
100
AcDbCircle
 10
61194.020725
 20
80139.270994
 30
0.0
 40
0.0063415791660011
  0
CIRCLE
  5
AB
330
58E
100
AcDbEntity
  8
Level 10
  6
Continuous
 62
     7
370
    13
100
AcDbCircle
 10
61194.020725
 20
80139.270994
 30
0.0
 40
0.0032935791660011
  0
CIRCLE
  5
AC
330
58E
100
AcDbEntity
  8
Level 10
  6
Continuous
 62
     7
370
    13
100
AcDbCircle
 10
61208.168525
 20
80137.99473
 30
0.0
 40
0.0612055791660011
  0
CIRCLE
  5
AD
330
58E
100
AcDbEntity
  8
Level 10
  6
Continuous
 62
     7
370
    13
100
AcDbCircle
 10
61208.168525
 20
80137.99473
 30
0.0
 40
0.0581575791660011
  0
CIRCLE
  5
AE
330
58E
100
AcDbEntity
  8
Level 10
  6
Continuous
 62
     7
370
    13
100
AcDbCircle
 10
61208.168525
 20
80137.99473
 30
0.0
 40
0.0551095791660011
  0
CIRCLE
  5
AF
330
58E
100
AcDbEntity
  8
Level 10
  6
Continuous
 62
     7
370
    13
100
AcDbCircle
 10
61208.168525
 20
80137.99473
 30
0.0
 40
0.0520615791660011
  0
CIRCLE
  5
B0
330
58E
100
AcDbEntity
  8
Level 10
  6
Continuous
 62
     7
370
    13
100
AcDbCircle
 10
61208.168525
 20
80137.99473
 30
0.0
 40
0.0490135791660011
  0
CIRCLE
  5
B1
330
58E
100
AcDbEntity
  8
Level 10
  6
Continuous
 62
     7
370
    13
100
AcDbCircle
 10
61208.168525
 20
80137.99473
 30
0.0
 40
0.0459655791660011
  0
CIRCLE
  5
B2
330
58E
100
AcDbEntity
  8
Level 10
  6
Continuous
 62
     7
370
    13
100
AcDbCircle
 10
61208.168525
 20
80137.99473
 30
0.0
 40
0.0429175791660011
  0
CIRCLE
  5
B3
330
58E
100
AcDbEntity
  8
Level 10
  6
Continuous
 62
     7
370
    13
100
AcDbCircle
 10
61208.168525
 20
80137.99473
 30
0.0
 40
0.0398695791660011
  0
CIRCLE
  5
B4
330
58E
100
AcDbEntity
  8
Level 10
  6
Continuous
 62
     7
370
    13
100
AcDbCircle
 10
61208.168525
 20
80137.99473
 30
0.0
 40
0.0368215791660011
  0
CIRCLE
  5
B5
330
58E
100
AcDbEntity
  8
Level 10
  6
Continuous
 62
     7
370
    13
100
AcDbCircle
 10
61208.168525
 20
80137.99473
 30
0.0
 40
0.0337735791660011
  0
CIRCLE
  5
B6
330
58E
100
AcDbEntity
  8
Level 10
  6
Continuous
 62
     7
370
    13
100
AcDbCircle
 10
61208.168525
 20
80137.99473
 30
0.0
 40
0.0307255791660011
  0
CIRCLE
  5
B7
330
58E
100
AcDbEntity
  8
Level 10
  6
Continuous
 62
     7
370
    13
100
AcDbCircle
 10
61208.168525
 20
80137.99473
 30
0.0
 40
0.0276775791660011
  0
CIRCLE
  5
B8
330
58E
100
AcDbEntity
  8
Level 10
  6
Continuous
 62
     7
370
    13
100
AcDbCircle
 10
61208.168525
 20
80137.99473
 30
0.0
 40
0.0246295791660011
  0
CIRCLE
  5
B9
330
58E
100
AcDbEntity
  8
Level 10
  6
Continuous
 62
     7
370
    13
100
AcDbCircle
 10
61208.168525
 20
80137.99473
 30
0.0
 40
0.0215815791660011
  0
CIRCLE
  5
BA
330
58E
100
AcDbEntity
  8
Level 10
  6
Continuous
 62
     7
370
    13
100
AcDbCircle
 10
61208.168525
 20
80137.99473
 30
0.0
 40
0.0185335791660011
  0
CIRCLE
  5
BB
330
58E
100
AcDbEntity
  8
Level 10
  6
Continuous
 62
     7
370
    13
100
AcDbCircle
 10
61208.168525
 20
80137.99473
 30
0.0
 40
0.0154855791660011
  0
CIRCLE
  5
BC
330
58E
100
AcDbEntity
  8
Level 10
  6
Continuous
 62
     7
370
    13
100
AcDbCircle
 10
61208.168525
 20
80137.99473
 30
0.0
 40
0.0124375791660011
  0
CIRCLE
  5
BD
330
58E
100
AcDbEntity
  8
Level 10
  6
Continuous
 62
     7
370
    13
100
AcDbCircle
 10
61208.168525
 20
80137.99473
 30
0.0
 40
0.0093895791660011
  0
CIRCLE
  5
BE
330
58E
100
AcDbEntity
  8
Level 10
  6
Continuous
 62
     7
370
    13
100
AcDbCircle
 10
61208.168525
 20
80137.99473
 30
0.0
 40
0.0063415791660011
  0
CIRCLE
  5
BF
330
58E
100
AcDbEntity
  8
Level 10
  6
Continuous
 62
     7
370
    13
100
AcDbCircle
 10
61208.168525
 20
80137.99473
 30
0.0
 40
0.0032935791660011
  0
CIRCLE
  5
C0
330
58E
100
AcDbEntity
  8
Level 10
  6
Continuous
 62
     7
370
    13
100
AcDbCircle
 10
61208.168525
 20
80139.270994
 30
0.0
 40
0.0612055791660011
  0
CIRCLE
  5
C1
330
58E
100
AcDbEntity
  8
Level 10
  6
Continuous
 62
     7
370
    13
100
AcDbCircle
 10
61208.168525
 20
80139.270994
 30
0.0
 40
0.0581575791660011
  0
CIRCLE
  5
C2
330
58E
100
AcDbEntity
  8
Level 10
  6
Continuous
 62
     7
370
    13
100
AcDbCircle
 10
61208.168525
 20
80139.270994
 30
0.0
 40
0.0551095791660011
  0
CIRCLE
  5
C3
330
58E
100
AcDbEntity
  8
Level 10
  6
Continuous
 62
     7
370
    13
100
AcDbCircle
 10
61208.168525
 20
80139.270994
 30
0.0
 40
0.0520615791660011
  0
CIRCLE
  5
C4
330
58E
100
AcDbEntity
  8
Level 10
  6
Continuous
 62
     7
370
    13
100
AcDbCircle
 10
61208.168525
 20
80139.270994
 30
0.0
 40
0.0490135791660011
  0
CIRCLE
  5
C5
330
58E
100
AcDbEntity
  8
Level 10
  6
Continuous
 62
     7
370
    13
100
AcDbCircle
 10
61208.168525
 20
80139.270994
 30
0.0
 40
0.0459655791660011
  0
CIRCLE
  5
C6
330
58E
100
AcDbEntity
  8
Level 10
  6
Continuous
 62
     7
370
    13
100
AcDbCircle
 10
61208.168525
 20
80139.270994
 30
0.0
 40
0.0429175791660011
  0
CIRCLE
  5
C7
330
58E
100
AcDbEntity
  8
Level 10
  6
Continuous
 62
     7
370
    13
100
AcDbCircle
 10
61208.168525
 20
80139.270994
 30
0.0
 40
0.0398695791660011
  0
CIRCLE
  5
C8
330
58E
100
AcDbEntity
  8
Level 10
  6
Continuous
 62
     7
370
    13
100
AcDbCircle
 10
61208.168525
 20
80139.270994
 30
0.0
 40
0.0368215791660011
  0
CIRCLE
  5
C9
330
58E
100
AcDbEntity
  8
Level 10
  6
Continuous
 62
     7
370
    13
100
AcDbCircle
 10
61208.168525
 20
80139.270994
 30
0.0
 40
0.0337735791660011
  0
CIRCLE
  5
CA
330
58E
100
AcDbEntity
  8
Level 10
  6
Continuous
 62
     7
370
    13
100
AcDbCircle
 10
61208.168525
 20
80139.270994
 30
0.0
 40
0.0307255791660011
  0
CIRCLE
  5
CB
330
58E
100
AcDbEntity
  8
Level 10
  6
Continuous
 62
     7
370
    13
100
AcDbCircle
 10
61208.168525
 20
80139.270994
 30
0.0
 40
0.0276775791660011
  0
CIRCLE
  5
CC
330
58E
100
AcDbEntity
  8
Level 10
  6
Continuous
 62
     7
370
    13
100
AcDbCircle
 10
61208.168525
 20
80139.270994
 30
0.0
 40
0.0246295791660011
  0
CIRCLE
  5
CD
330
58E
100
AcDbEntity
  8
Level 10
  6
Continuous
 62
     7
370
    13
100
AcDbCircle
 10
61208.168525
 20
80139.270994
 30
0.0
 40
0.0215815791660011
  0
CIRCLE
  5
CE
330
58E
100
AcDbEntity
  8
Level 10
  6
Continuous
 62
     7
370
    13
100
AcDbCircle
 10
61208.168525
 20
80139.270994
 30
0.0
 40
0.0185335791660011
  0
CIRCLE
  5
CF
330
58E
100
AcDbEntity
  8
Level 10
  6
Continuous
 62
     7
370
    13
100
AcDbCircle
 10
61208.168525
 20
80139.270994
 30
0.0
 40
0.0154855791660011
  0
CIRCLE
  5
D0
330
58E
100
AcDbEntity
  8
Level 10
  6
Continuous
 62
     7
370
    13
100
AcDbCircle
 10
61208.168525
 20
80139.270994
 30
0.0
 40
0.0124375791660011
  0
CIRCLE
  5
D1
330
58E
100
AcDbEntity
  8
Level 10
  6
Continuous
 62
     7
370
    13
100
AcDbCircle
 10
61208.168525
 20
80139.270994
 30
0.0
 40
0.0093895791660011
  0
CIRCLE
  5
D2
330
58E
100
AcDbEntity
  8
Level 10
  6
Continuous
 62
     7
370
    13
100
AcDbCircle
 10
61208.168525
 20
80139.270994
 30
0.0
 40
0.0063415791660011
  0
CIRCLE
  5
D3
330
58E
100
AcDbEntity
  8
Level 10
  6
Continuous
 62
     7
370
    13
100
AcDbCircle
 10
61208.168525
 20
80139.270994
 30
0.0
 40
0.0032935791660011
  0
LINE
  5
D4
330
58E
100
AcDbEntity
  8
Level 46
  6
Continuous
 62
     7
370
    13
100
AcDbLine
 10
61213.1705
 20
80132.7038
 30
0.0
 11
61193.7824
 21
80132.7038
 31
0.0
  0
LINE
  5
DB
330
58E
100
AcDbEntity
  8
Level 46
  6
Continuous
 62
     7
370
    13
100
AcDbLine
 10
61213.1705
 20
80132.4032
 30
0.0
 11
61193.7824
 21
80132.4032
 31
0.0
  0
LINE
  5
DC
330
58E
100
AcDbEntity
  8
Level 46
  6
Continuous
 62
     7
370
    13
100
AcDbLine
 10
61213.1705
 20
80132.1026
 30
0.0
 11
61193.7824
 21
80132.1026
 31
0.0
  0
LINE
  5
DD
330
58E
100
AcDbEntity
  8
Level 46
  6
Continuous
 62
     7
370
    13
100
AcDbLine
 10
61213.1705
 20
80131.802
 30
0.0
 11
61193.7824
 21
80131.802
 31
0.0
  0
LINE
  5
DE
330
58E
100
AcDbEntity
  8
Level 46
  6
Continuous
 62
     7
370
    13
100
AcDbLine
 10
61193.7824
 20
80135.2087
 30
0.0
 11
61193.7824
 21
80131.802
 31
0.0
  0
LINE
  5
E2
330
58E
100
AcDbEntity
  8
Level 46
  6
Continuous
 62
     7
370
    13
100
AcDbLine
 10
61208.3611
 20
80133.0044
 30
0.0
 11
61198.1409
 21
80133.0044
 31
0.0
  0
LINE
  5
E3
330
58E
100
AcDbEntity
  8
Level 46
  6
Continuous
 62
     7
370
    13
100
AcDbLine
 10
61194.3835
 20
80134.808
 30
0.0
 11
61194.3835
 21
80131.802
 31
0.0
  0
LINE
  5
E5
330
58E
100
AcDbEntity
  8
Level 46
  6
Continuous
 62
     7
370
    13
100
AcDbLine
 10
61195.5859
 20
80134.808
 30
0.0
 11
61195.5859
 21
80131.802
 31
0.0
  0
LINE
  5
E7
330
58E
100
AcDbEntity
  8
Level 46
  6
Continuous
 62
     7
370
    13
100
AcDbLine
 10
61213.1705
 20
80135.2087
 30
0.0
 11
61193.7824
 21
80135.2087
 31
0.0
  0
LINE
  5
E8
330
58E
100
AcDbEntity
  8
Level 46
  6
Continuous
 62
     7
370
     0
100
AcDbLine
 10
61216.9315
 20
80137.8359
 30
0.0
 11
61216.9315
 21
80138.6319
 31
0.0
  0
LINE
  5
E9
330
58E
100
AcDbEntity
  8
Level 46
  6
Continuous
 62
     7
370
     0
100
AcDbLine
 10
61217.4395
 20
80140.2063
 30
0.0
 11
61217.4395
 21
80139.271
 31
0.0
  0
CIRCLE
  5
EA
330
58E
100
AcDbEntity
  8
Level 10
  6
Continuous
 62
     7
370
    13
100
AcDbCircle
 10
61216.931525
 20
80137.835894
 30
0.0
 40
0.0612055791660011
  0
CIRCLE
  5
EB
330
58E
100
AcDbEntity
  8
Level 10
  6
Continuous
 62
     7
370
    13
100
AcDbCircle
 10
61216.931525
 20
80137.835894
 30
0.0
 40
0.0581575791660011
  0
CIRCLE
  5
EC
330
58E
100
AcDbEntity
  8
Level 10
  6
Continuous
 62
     7
370
    13
100
AcDbCircle
 10
61216.931525
 20
80137.835894
 30
0.0
 40
0.0551095791660011
  0
CIRCLE
  5
ED
330
58E
100
AcDbEntity
  8
Level 10
  6
Continuous
 62
     7
370
    13
100
AcDbCircle
 10
61216.931525
 20
80137.835894
 30
0.0
 40
0.0520615791660011
  0
CIRCLE
  5
EE
330
58E
100
AcDbEntity
  8
Level 10
  6
Continuous
 62
     7
370
    13
100
AcDbCircle
 10
61216.931525
 20
80137.835894
 30
0.0
 40
0.0490135791660011
  0
CIRCLE
  5
EF
330
58E
100
AcDbEntity
  8
Level 10
  6
Continuous
 62
     7
370
    13
100
AcDbCircle
 10
61216.931525
 20
80137.835894
 30
0.0
 40
0.0459655791660011
  0
CIRCLE
  5
F0
330
58E
100
AcDbEntity
  8
Level 10
  6
Continuous
 62
     7
370
    13
100
AcDbCircle
 10
61216.931525
 20
80137.835894
 30
0.0
 40
0.0429175791660011
  0
CIRCLE
  5
F1
330
58E
100
AcDbEntity
  8
Level 10
  6
Continuous
 62
     7
370
    13
100
AcDbCircle
 10
61216.931525
 20
80137.835894
 30
0.0
 40
0.0398695791660011
  0
CIRCLE
  5
F2
330
58E
100
AcDbEntity
  8
Level 10
  6
Continuous
 62
     7
370
    13
100
AcDbCircle
 10
61216.931525
 20
80137.835894
 30
0.0
 40
0.0368215791660011
  0
CIRCLE
  5
F3
330
58E
100
AcDbEntity
  8
Level 10
  6
Continuous
 62
     7
370
    13
100
AcDbCircle
 10
61216.931525
 20
80137.835894
 30
0.0
 40
0.0337735791660011
  0
CIRCLE
  5
F4
330
58E
100
AcDbEntity
  8
Level 10
  6
Continuous
 62
     7
370
    13
100
AcDbCircle
 10
61216.931525
 20
80137.835894
 30
0.0
 40
0.0307255791660011
  0
CIRCLE
  5
F5
330
58E
100
AcDbEntity
  8
Level 10
  6
Continuous
 62
     7
370
    13
100
AcDbCircle
 10
61216.931525
 20
80137.835894
 30
0.0
 40
0.0276775791660011
  0
CIRCLE
  5
F6
330
58E
100
AcDbEntity
  8
Level 10
  6
Continuous
 62
     7
370
    13
100
AcDbCircle
 10
61216.931525
 20
80137.835894
 30
0.0
 40
0.0246295791660011
  0
CIRCLE
  5
F7
330
58E
100
AcDbEntity
  8
Level 10
  6
Continuous
 62
     7
370
    13
100
AcDbCircle
 10
61216.931525
 20
80137.835894
 30
0.0
 40
0.0215815791660011
  0
CIRCLE
  5
F8
330
58E
100
AcDbEntity
  8
Level 10
  6
Continuous
 62
     7
370
    13
100
AcDbCircle
 10
61216.931525
 20
80137.835894
 30
0.0
 40
0.0185335791660011
  0
CIRCLE
  5
F9
330
58E
100
AcDbEntity
  8
Level 10
  6
Continuous
 62
     7
370
    13
100
AcDbCircle
 10
61216.931525
 20
80137.835894
 30
0.0
 40
0.0154855791660011
  0
CIRCLE
  5
FA
330
58E
100
AcDbEntity
  8
Level 10
  6
Continuous
 62
     7
370
    13
100
AcDbCircle
 10
61216.931525
 20
80137.835894
 30
0.0
 40
0.0124375791660011
  0
CIRCLE
  5
FB
330
58E
100
AcDbEntity
  8
Level 10
  6
Continuous
 62
     7
370
    13
100
AcDbCircle
 10
61216.931525
 20
80137.835894
 30
0.0
 40
0.0093895791660011
  0
CIRCLE
  5
FC
330
58E
100
AcDbEntity
  8
Level 10
  6
Continuous
 62
     7
370
    13
100
AcDbCircle
 10
61216.931525
 20
80137.835894
 30
0.0
 40
0.0063415791660011
  0
CIRCLE
  5
FD
330
58E
100
AcDbEntity
  8
Level 10
  6
Continuous
 62
     7
370
    13
100
AcDbCircle
 10
61216.931525
 20
80137.835894
 30
0.0
 40
0.0032935791660011
  0
CIRCLE
  5
FE
330
58E
100
AcDbEntity
  8
Level 10
  6
Continuous
 62
     7
370
    13
100
AcDbCircle
 10
61217.439525
 20
80139.270994
 30
0.0
 40
0.0612055791660011
  0
CIRCLE
  5
FF
330
58E
100
AcDbEntity
  8
Level 10
  6
Continuous
 62
     7
370
    13
100
AcDbCircle
 10
61217.439525
 20
80139.270994
 30
0.0
 40
0.0581575791660011
  0
CIRCLE
  5
100
330
58E
100
AcDbEntity
  8
Level 10
  6
Continuous
 62
     7
370
    13
100
AcDbCircle
 10
61217.439525
 20
80139.270994
 30
0.0
 40
0.0551095791660011
  0
CIRCLE
  5
101
330
58E
100
AcDbEntity
  8
Level 10
  6
Continuous
 62
     7
370
    13
100
AcDbCircle
 10
61217.439525
 20
80139.270994
 30
0.0
 40
0.0520615791660011
  0
CIRCLE
  5
102
330
58E
100
AcDbEntity
  8
Level 10
  6
Continuous
 62
     7
370
    13
100
AcDbCircle
 10
61217.439525
 20
80139.270994
 30
0.0
 40
0.0490135791660011
  0
CIRCLE
  5
103
330
58E
100
AcDbEntity
  8
Level 10
  6
Continuous
 62
     7
370
    13
100
AcDbCircle
 10
61217.439525
 20
80139.270994
 30
0.0
 40
0.0459655791660011
  0
CIRCLE
  5
104
330
58E
100
AcDbEntity
  8
Level 10
  6
Continuous
 62
     7
370
    13
100
AcDbCircle
 10
61217.439525
 20
80139.270994
 30
0.0
 40
0.0429175791660011
  0
CIRCLE
  5
105
330
58E
100
AcDbEntity
  8
Level 10
  6
Continuous
 62
     7
370
    13
100
AcDbCircle
 10
61217.439525
 20
80139.270994
 30
0.0
 40
0.0398695791660011
  0
CIRCLE
  5
106
330
58E
100
AcDbEntity
  8
Level 10
  6
Continuous
 62
     7
370
    13
100
AcDbCircle
 10
61217.439525
 20
80139.270994
 30
0.0
 40
0.0368215791660011
  0
CIRCLE
  5
107
330
58E
100
AcDbEntity
  8
Level 10
  6
Continuous
 62
     7
370
    13
100
AcDbCircle
 10
61217.439525
 20
80139.270994
 30
0.0
 40
0.0337735791660011
  0
CIRCLE
  5
108
330
58E
100
AcDbEntity
  8
Level 10
  6
Continuous
 62
     7
370
    13
100
AcDbCircle
 10
61217.439525
 20
80139.270994
 30
0.0
 40
0.0307255791660011
  0
CIRCLE
  5
109
330
58E
100
AcDbEntity
  8
Level 10
  6
Continuous
 62
     7
370
    13
100
AcDbCircle
 10
61217.439525
 20
80139.270994
 30
0.0
 40
0.0276775791660011
  0
CIRCLE
  5
10A
330
58E
100
AcDbEntity
  8
Level 10
  6
Continuous
 62
     7
370
    13
100
AcDbCircle
 10
61217.439525
 20
80139.270994
 30
0.0
 40
0.0246295791660011
  0
CIRCLE
  5
10B
330
58E
100
AcDbEntity
  8
Level 10
  6
Continuous
 62
     7
370
    13
100
AcDbCircle
 10
61217.439525
 20
80139.270994
 30
0.0
 40
0.0215815791660011
  0
CIRCLE
  5
10C
330
58E
100
AcDbEntity
  8
Level 10
  6
Continuous
 62
     7
370
    13
100
AcDbCircle
 10
61217.439525
 20
80139.270994
 30
0.0
 40
0.0185335791660011
  0
CIRCLE
  5
10D
330
58E
100
AcDbEntity
  8
Level 10
  6
Continuous
 62
     7
370
    13
100
AcDbCircle
 10
61217.439525
 20
80139.270994
 30
0.0
 40
0.0154855791660011
  0
CIRCLE
  5
10E
330
58E
100
AcDbEntity
  8
Level 10
  6
Continuous
 62
     7
370
    13
100
AcDbCircle
 10
61217.439525
 20
80139.270994
 30
0.0
 40
0.0124375791660011
  0
CIRCLE
  5
10F
330
58E
100
AcDbEntity
  8
Level 10
  6
Continuous
 62
     7
370
    13
100
AcDbCircle
 10
61217.439525
 20
80139.270994
 30
0.0
 40
0.0093895791660011
  0
CIRCLE
  5
110
330
58E
100
AcDbEntity
  8
Level 10
  6
Continuous
 62
     7
370
    13
100
AcDbCircle
 10
61217.439525
 20
80139.270994
 30
0.0
 40
0.0063415791660011
  0
CIRCLE
  5
111
330
58E
100
AcDbEntity
  8
Level 10
  6
Continuous
 62
     7
370
    13
100
AcDbCircle
 10
61217.439525
 20
80139.270994
 30
0.0
 40
0.0032935791660011
  0
LINE
  5
112
330
58E
100
AcDbEntity
  8
Level 46
  6
Continuous
 62
     7
370
     0
100
AcDbLine
 10
61216.9315
 20
80138.3271
 30
0.0
 11
61213.1977
 21
80138.3271
 31
0.0
  0
LINE
  5
113
330
58E
100
AcDbEntity
  8
Level 46
  6
Continuous
 62
     7
370
     0
100
AcDbLine
 10
61217.4395
 20
80139.9015
 30
0.0
 11
61213.1977
 21
80139.9015
 31
0.0
  0
INSERT
  5
114
330
58E
100
AcDbEntity
  8
Level 46
  6
Continuous
 62
     7
370
     0
100
AcDbBlockReference
  2
LARROW
 10
61217.4395
 20
80139.9015
 30
0.0
 41
1.524
 42
1.524
 43
1.524
  0
INSERT
  5
116
330
58E
100
AcDbEntity
  8
Level 46
  6
Continuous
 62
     7
370
     0
100
AcDbBlockReference
  2
LARROW
 10
61213.1977
 20
80139.9015
 30
0.0
 41
1.524
 42
1.524
 43
1.524
 50
180.0
  0
INSERT
  5
118
330
58E
100
AcDbEntity
  8
Level 46
  6
Continuous
 62
     7
370
     0
100
AcDbBlockReference
  2
LARROW
 10
61213.1977
 20
80138.3271
 30
0.0
 41
1.524
 42
1.524
 43
1.524
 50
180.0
  0
INSERT
  5
11A
330
58E
100
AcDbEntity
  8
Level 46
  6
Continuous
 62
     7
370
     0
100
AcDbBlockReference
  2
LARROW
 10
61216.9315
 20
80138.3271
 30
0.0
 41
1.524
 42
1.524
 43
1.524
  0
INSERT
  5
11D
330
58E
100
AcDbEntity
  8
Level 46
  6
Continuous
 62
     7
370
     0
100
AcDbBlockReference
  2
LARROW
 10
61213.1977
 20
80138.8557
 30
0.0
 41
1.524
 42
1.524
 43
1.524
 50
180.0
  0
CIRCLE
  5
121
330
58E
100
AcDbEntity
  8
Level 10
  6
Continuous
 62
     7
370
    13
100
AcDbCircle
 10
61205.044325
 20
80137.835894
 30
0.0
 40
0.0612055791660011
  0
CIRCLE
  5
122
330
58E
100
AcDbEntity
  8
Level 10
  6
Continuous
 62
     7
370
    13
100
AcDbCircle
 10
61205.044325
 20
80137.835894
 30
0.0
 40
0.0581575791660011
  0
CIRCLE
  5
123
330
58E
100
AcDbEntity
  8
Level 10
  6
Continuous
 62
     7
370
    13
100
AcDbCircle
 10
61205.044325
 20
80137.835894
 30
0.0
 40
0.0551095791660011
  0
CIRCLE
  5
124
330
58E
100
AcDbEntity
  8
Level 10
  6
Continuous
 62
     7
370
    13
100
AcDbCircle
 10
61205.044325
 20
80137.835894
 30
0.0
 40
0.0520615791660011
  0
CIRCLE
  5
125
330
58E
100
AcDbEntity
  8
Level 10
  6
Continuous
 62
     7
370
    13
100
AcDbCircle
 10
61205.044325
 20
80137.835894
 30
0.0
 40
0.0490135791660011
  0
CIRCLE
  5
126
330
58E
100
AcDbEntity
  8
Level 10
  6
Continuous
 62
     7
370
    13
100
AcDbCircle
 10
61205.044325
 20
80137.835894
 30
0.0
 40
0.0459655791660011
  0
CIRCLE
  5
127
330
58E
100
AcDbEntity
  8
Level 10
  6
Continuous
 62
     7
370
    13
100
AcDbCircle
 10
61205.044325
 20
80137.835894
 30
0.0
 40
0.0429175791660011
  0
CIRCLE
  5
128
330
58E
100
AcDbEntity
  8
Level 10
  6
Continuous
 62
     7
370
    13
100
AcDbCircle
 10
61205.044325
 20
80137.835894
 30
0.0
 40
0.0398695791660011
  0
CIRCLE
  5
129
330
58E
100
AcDbEntity
  8
Level 10
  6
Continuous
 62
     7
370
    13
100
AcDbCircle
 10
61205.044325
 20
80137.835894
 30
0.0
 40
0.0368215791660011
  0
CIRCLE
  5
12A
330
58E
100
AcDbEntity
  8
Level 10
  6
Continuous
 62
     7
370
    13
100
AcDbCircle
 10
61205.044325
 20
80137.835894
 30
0.0
 40
0.0337735791660011
  0
CIRCLE
  5
12B
330
58E
100
AcDbEntity
  8
Level 10
  6
Continuous
 62
     7
370
    13
100
AcDbCircle
 10
61205.044325
 20
80137.835894
 30
0.0
 40
0.0307255791660011
  0
CIRCLE
  5
12C
330
58E
100
AcDbEntity
  8
Level 10
  6
Continuous
 62
     7
370
    13
100
AcDbCircle
 10
61205.044325
 20
80137.835894
 30
0.0
 40
0.0276775791660011
  0
CIRCLE
  5
12D
330
58E
100
AcDbEntity
  8
Level 10
  6
Continuous
 62
     7
370
    13
100
AcDbCircle
 10
61205.044325
 20
80137.835894
 30
0.0
 40
0.0246295791660011
  0
CIRCLE
  5
12E
330
58E
100
AcDbEntity
  8
Level 10
  6
Continuous
 62
     7
370
    13
100
AcDbCircle
 10
61205.044325
 20
80137.835894
 30
0.0
 40
0.0215815791660011
  0
CIRCLE
  5
12F
330
58E
100
AcDbEntity
  8
Level 10
  6
Continuous
 62
     7
370
    13
100
AcDbCircle
 10
61205.044325
 20
80137.835894
 30
0.0
 40
0.0185335791660011
  0
CIRCLE
  5
130
330
58E
100
AcDbEntity
  8
Level 10
  6
Continuous
 62
     7
370
    13
100
AcDbCircle
 10
61205.044325
 20
80137.835894
 30
0.0
 40
0.0154855791660011
  0
CIRCLE
  5
131
330
58E
100
AcDbEntity
  8
Level 10
  6
Continuous
 62
     7
370
    13
100
AcDbCircle
 10
61205.044325
 20
80137.835894
 30
0.0
 40
0.0124375791660011
  0
CIRCLE
  5
132
330
58E
100
AcDbEntity
  8
Level 10
  6
Continuous
 62
     7
370
    13
100
AcDbCircle
 10
61205.044325
 20
80137.835894
 30
0.0
 40
0.0093895791660011
  0
CIRCLE
  5
133
330
58E
100
AcDbEntity
  8
Level 10
  6
Continuous
 62
     7
370
    13
100
AcDbCircle
 10
61205.044325
 20
80137.835894
 30
0.0
 40
0.0063415791660011
  0
CIRCLE
  5
134
330
58E
100
AcDbEntity
  8
Level 10
  6
Continuous
 62
     7
370
    13
100
AcDbCircle
 10
61205.044325
 20
80137.835894
 30
0.0
 40
0.0032935791660011
  0
CIRCLE
  5
135
330
58E
100
AcDbEntity
  8
Level 10
  6
Continuous
 62
     7
370
    13
100
AcDbCircle
 10
61195.900325
 20
80137.835894
 30
0.0
 40
0.0612055791660011
  0
CIRCLE
  5
136
330
58E
100
AcDbEntity
  8
Level 10
  6
Continuous
 62
     7
370
    13
100
AcDbCircle
 10
61195.900325
 20
80137.835894
 30
0.0
 40
0.0581575791660011
  0
CIRCLE
  5
137
330
58E
100
AcDbEntity
  8
Level 10
  6
Continuous
 62
     7
370
    13
100
AcDbCircle
 10
61195.900325
 20
80137.835894
 30
0.0
 40
0.0551095791660011
  0
CIRCLE
  5
138
330
58E
100
AcDbEntity
  8
Level 10
  6
Continuous
 62
     7
370
    13
100
AcDbCircle
 10
61195.900325
 20
80137.835894
 30
0.0
 40
0.0520615791660011
  0
CIRCLE
  5
139
330
58E
100
AcDbEntity
  8
Level 10
  6
Continuous
 62
     7
370
    13
100
AcDbCircle
 10
61195.900325
 20
80137.835894
 30
0.0
 40
0.0490135791660011
  0
CIRCLE
  5
13A
330
58E
100
AcDbEntity
  8
Level 10
  6
Continuous
 62
     7
370
    13
100
AcDbCircle
 10
61195.900325
 20
80137.835894
 30
0.0
 40
0.0459655791660011
  0
CIRCLE
  5
13B
330
58E
100
AcDbEntity
  8
Level 10
  6
Continuous
 62
     7
370
    13
100
AcDbCircle
 10
61195.900325
 20
80137.835894
 30
0.0
 40
0.0429175791660011
  0
CIRCLE
  5
13C
330
58E
100
AcDbEntity
  8
Level 10
  6
Continuous
 62
     7
370
    13
100
AcDbCircle
 10
61195.900325
 20
80137.835894
 30
0.0
 40
0.0398695791660011
  0
CIRCLE
  5
13D
330
58E
100
AcDbEntity
  8
Level 10
  6
Continuous
 62
     7
370
    13
100
AcDbCircle
 10
61195.900325
 20
80137.835894
 30
0.0
 40
0.0368215791660011
  0
CIRCLE
  5
13E
330
58E
100
AcDbEntity
  8
Level 10
  6
Continuous
 62
     7
370
    13
100
AcDbCircle
 10
61195.900325
 20
80137.835894
 30
0.0
 40
0.0337735791660011
  0
CIRCLE
  5
13F
330
58E
100
AcDbEntity
  8
Level 10
  6
Continuous
 62
     7
370
    13
100
AcDbCircle
 10
61195.900325
 20
80137.835894
 30
0.0
 40
0.0307255791660011
  0
CIRCLE
  5
140
330
58E
100
AcDbEntity
  8
Level 10
  6
Continuous
 62
     7
370
    13
100
AcDbCircle
 10
61195.900325
 20
80137.835894
 30
0.0
 40
0.0276775791660011
  0
CIRCLE
  5
141
330
58E
100
AcDbEntity
  8
Level 10
  6
Continuous
 62
     7
370
    13
100
AcDbCircle
 10
61195.900325
 20
80137.835894
 30
0.0
 40
0.0246295791660011
  0
CIRCLE
  5
142
330
58E
100
AcDbEntity
  8
Level 10
  6
Continuous
 62
     7
370
    13
100
AcDbCircle
 10
61195.900325
 20
80137.835894
 30
0.0
 40
0.0215815791660011
  0
CIRCLE
  5
143
330
58E
100
AcDbEntity
  8
Level 10
  6
Continuous
 62
     7
370
    13
100
AcDbCircle
 10
61195.900325
 20
80137.835894
 30
0.0
 40
0.0185335791660011
  0
CIRCLE
  5
144
330
58E
100
AcDbEntity
  8
Level 10
  6
Continuous
 62
     7
370
    13
100
AcDbCircle
 10
61195.900325
 20
80137.835894
 30
0.0
 40
0.0154855791660011
  0
CIRCLE
  5
145
330
58E
100
AcDbEntity
  8
Level 10
  6
Continuous
 62
     7
370
    13
100
AcDbCircle
 10
61195.900325
 20
80137.835894
 30
0.0
 40
0.0124375791660011
  0
CIRCLE
  5
146
330
58E
100
AcDbEntity
  8
Level 10
  6
Continuous
 62
     7
370
    13
100
AcDbCircle
 10
61195.900325
 20
80137.835894
 30
0.0
 40
0.0093895791660011
  0
CIRCLE
  5
147
330
58E
100
AcDbEntity
  8
Level 10
  6
Continuous
 62
     7
370
    13
100
AcDbCircle
 10
61195.900325
 20
80137.835894
 30
0.0
 40
0.0063415791660011
  0
CIRCLE
  5
148
330
58E
100
AcDbEntity
  8
Level 10
  6
Continuous
 62
     7
370
    13
100
AcDbCircle
 10
61195.900325
 20
80137.835894
 30
0.0
 40
0.0032935791660011
  0
LINE
  5
14B
330
58E
100
AcDbEntity
  8
Level 46
  6
Continuous
 62
     7
370
     0
100
AcDbLine
 10
61195.9003
 20
80138.6502
 30
0.0
 11
61195.9003
 21
80137.8359
 31
0.0
  0
LINE
  5
14C
330
58E
100
AcDbEntity
  8
Level 46
  6
Continuous
 62
     7
370
     0
100
AcDbLine
 10
61195.9003
 20
80138.3454
 30
0.0
 11
61192.4713
 21
80138.3454
 31
0.0
  0
INSERT
  5
14D
330
58E
100
AcDbEntity
  8
Level 46
  6
Continuous
 62
     7
370
    13
100
AcDbBlockReference
  2
LARROW_1
 10
61195.9003
 20
80138.3454
 30
0.0
 41
1.524
 42
1.524
 43
1.524
  0
INSERT
  5
14F
330
58E
100
AcDbEntity
  8
Level 46
  6
Continuous
 62
     7
370
    13
100
AcDbBlockReference
  2
LARROW_1
 10
61192.4713
 20
80138.3454
 30
0.0
 41
1.524
 42
1.524
 43
1.524
 50
180.0
  0
LINE
  5
152
330
58E
100
AcDbEntity
  8
Level 46
  6
Continuous
 62
     7
370
     0
100
AcDbLine
 10
61192.4713
 20
80138.6457
 30
0.0
 11
61191.712
 21
80138.6457
 31
0.0
  0
CIRCLE
  5
153
330
58E
100
AcDbEntity
  8
Level 10
  6
Continuous
 62
     7
370
    13
100
AcDbCircle
 10
61199.953596
 20
80138.465386
 30
0.0
 40
0.0612055791660011
  0
CIRCLE
  5
154
330
58E
100
AcDbEntity
  8
Level 10
  6
Continuous
 62
     7
370
    13
100
AcDbCircle
 10
61199.953596
 20
80138.465386
 30
0.0
 40
0.0581575791660011
  0
CIRCLE
  5
155
330
58E
100
AcDbEntity
  8
Level 10
  6
Continuous
 62
     7
370
    13
100
AcDbCircle
 10
61199.953596
 20
80138.465386
 30
0.0
 40
0.0551095791660011
  0
CIRCLE
  5
156
330
58E
100
AcDbEntity
  8
Level 10
  6
Continuous
 62
     7
370
    13
100
AcDbCircle
 10
61199.953596
 20
80138.465386
 30
0.0
 40
0.0520615791660011
  0
CIRCLE
  5
157
330
58E
100
AcDbEntity
  8
Level 10
  6
Continuous
 62
     7
370
    13
100
AcDbCircle
 10
61199.953596
 20
80138.465386
 30
0.0
 40
0.0490135791660011
  0
CIRCLE
  5
158
330
58E
100
AcDbEntity
  8
Level 10
  6
Continuous
 62
     7
370
    13
100
AcDbCircle
 10
61199.953596
 20
80138.465386
 30
0.0
 40
0.0459655791660011
  0
CIRCLE
  5
159
330
58E
100
AcDbEntity
  8
Level 10
  6
Continuous
 62
     7
370
    13
100
AcDbCircle
 10
61199.953596
 20
80138.465386
 30
0.0
 40
0.0429175791660011
  0
CIRCLE
  5
15A
330
58E
100
AcDbEntity
  8
Level 10
  6
Continuous
 62
     7
370
    13
100
AcDbCircle
 10
61199.953596
 20
80138.465386
 30
0.0
 40
0.0398695791660011
  0
CIRCLE
  5
15B
330
58E
100
AcDbEntity
  8
Level 10
  6
Continuous
 62
     7
370
    13
100
AcDbCircle
 10
61199.953596
 20
80138.465386
 30
0.0
 40
0.0368215791660011
  0
CIRCLE
  5
15C
330
58E
100
AcDbEntity
  8
Level 10
  6
Continuous
 62
     7
370
    13
100
AcDbCircle
 10
61199.953596
 20
80138.465386
 30
0.0
 40
0.0337735791660011
  0
CIRCLE
  5
15D
330
58E
100
AcDbEntity
  8
Level 10
  6
Continuous
 62
     7
370
    13
100
AcDbCircle
 10
61199.953596
 20
80138.465386
 30
0.0
 40
0.0307255791660011
  0
CIRCLE
  5
15E
330
58E
100
AcDbEntity
  8
Level 10
  6
Continuous
 62
     7
370
    13
100
AcDbCircle
 10
61199.953596
 20
80138.465386
 30
0.0
 40
0.0276775791660011
  0
CIRCLE
  5
15F
330
58E
100
AcDbEntity
  8
Level 10
  6
Continuous
 62
     7
370
    13
100
AcDbCircle
 10
61199.953596
 20
80138.465386
 30
0.0
 40
0.0246295791660011
  0
CIRCLE
  5
160
330
58E
100
AcDbEntity
  8
Level 10
  6
Continuous
 62
     7
370
    13
100
AcDbCircle
 10
61199.953596
 20
80138.465386
 30
0.0
 40
0.0215815791660011
  0
CIRCLE
  5
161
330
58E
100
AcDbEntity
  8
Level 10
  6
Continuous
 62
     7
370
    13
100
AcDbCircle
 10
61199.953596
 20
80138.465386
 30
0.0
 40
0.0185335791660011
  0
CIRCLE
  5
162
330
58E
100
AcDbEntity
  8
Level 10
  6
Continuous
 62
     7
370
    13
100
AcDbCircle
 10
61199.953596
 20
80138.465386
 30
0.0
 40
0.0154855791660011
  0
CIRCLE
  5
163
330
58E
100
AcDbEntity
  8
Level 10
  6
Continuous
 62
     7
370
    13
100
AcDbCircle
 10
61199.953596
 20
80138.465386
 30
0.0
 40
0.0124375791660011
  0
CIRCLE
  5
164
330
58E
100
AcDbEntity
  8
Level 10
  6
Continuous
 62
     7
370
    13
100
AcDbCircle
 10
61199.953596
 20
80138.465386
 30
0.0
 40
0.0093895791660011
  0
CIRCLE
  5
165
330
58E
100
AcDbEntity
  8
Level 10
  6
Continuous
 62
     7
370
    13
100
AcDbCircle
 10
61199.953596
 20
80138.465386
 30
0.0
 40
0.0063415791660011
  0
CIRCLE
  5
166
330
58E
100
AcDbEntity
  8
Level 10
  6
Continuous
 62
     7
370
    13
100
AcDbCircle
 10
61199.953596
 20
80138.465386
 30
0.0
 40
0.0032935791660011
  0
CIRCLE
  5
169
330
58E
100
AcDbEntity
  8
Level 10
  6
Continuous
 62
     7
370
    13
100
AcDbCircle
 10
61199.024525
 20
80139.270994
 30
0.0
 40
0.0612055791660011
  0
CIRCLE
  5
16A
330
58E
100
AcDbEntity
  8
Level 10
  6
Continuous
 62
     7
370
    13
100
AcDbCircle
 10
61199.024525
 20
80139.270994
 30
0.0
 40
0.0581575791660011
  0
CIRCLE
  5
16B
330
58E
100
AcDbEntity
  8
Level 10
  6
Continuous
 62
     7
370
    13
100
AcDbCircle
 10
61199.024525
 20
80139.270994
 30
0.0
 40
0.0551095791660011
  0
CIRCLE
  5
16C
330
58E
100
AcDbEntity
  8
Level 10
  6
Continuous
 62
     7
370
    13
100
AcDbCircle
 10
61199.024525
 20
80139.270994
 30
0.0
 40
0.0520615791660011
  0
CIRCLE
  5
16D
330
58E
100
AcDbEntity
  8
Level 10
  6
Continuous
 62
     7
370
    13
100
AcDbCircle
 10
61199.024525
 20
80139.270994
 30
0.0
 40
0.0490135791660011
  0
CIRCLE
  5
16E
330
58E
100
AcDbEntity
  8
Level 10
  6
Continuous
 62
     7
370
    13
100
AcDbCircle
 10
61199.024525
 20
80139.270994
 30
0.0
 40
0.0459655791660011
  0
CIRCLE
  5
16F
330
58E
100
AcDbEntity
  8
Level 10
  6
Continuous
 62
     7
370
    13
100
AcDbCircle
 10
61199.024525
 20
80139.270994
 30
0.0
 40
0.0429175791660011
  0
CIRCLE
  5
170
330
58E
100
AcDbEntity
  8
Level 10
  6
Continuous
 62
     7
370
    13
100
AcDbCircle
 10
61199.024525
 20
80139.270994
 30
0.0
 40
0.0398695791660011
  0
CIRCLE
  5
171
330
58E
100
AcDbEntity
  8
Level 10
  6
Continuous
 62
     7
370
    13
100
AcDbCircle
 10
61199.024525
 20
80139.270994
 30
0.0
 40
0.0368215791660011
  0
CIRCLE
  5
172
330
58E
100
AcDbEntity
  8
Level 10
  6
Continuous
 62
     7
370
    13
100
AcDbCircle
 10
61199.024525
 20
80139.270994
 30
0.0
 40
0.0337735791660011
  0
CIRCLE
  5
173
330
58E
100
AcDbEntity
  8
Level 10
  6
Continuous
 62
     7
370
    13
100
AcDbCircle
 10
61199.024525
 20
80139.270994
 30
0.0
 40
0.0307255791660011
  0
CIRCLE
  5
174
330
58E
100
AcDbEntity
  8
Level 10
  6
Continuous
 62
     7
370
    13
100
AcDbCircle
 10
61199.024525
 20
80139.270994
 30
0.0
 40
0.0276775791660011
  0
CIRCLE
  5
175
330
58E
100
AcDbEntity
  8
Level 10
  6
Continuous
 62
     7
370
    13
100
AcDbCircle
 10
61199.024525
 20
80139.270994
 30
0.0
 40
0.0246295791660011
  0
CIRCLE
  5
176
330
58E
100
AcDbEntity
  8
Level 10
  6
Continuous
 62
     7
370
    13
100
AcDbCircle
 10
61199.024525
 20
80139.270994
 30
0.0
 40
0.0215815791660011
  0
CIRCLE
  5
177
330
58E
100
AcDbEntity
  8
Level 10
  6
Continuous
 62
     7
370
    13
100
AcDbCircle
 10
61199.024525
 20
80139.270994
 30
0.0
 40
0.0185335791660011
  0
CIRCLE
  5
178
330
58E
100
AcDbEntity
  8
Level 10
  6
Continuous
 62
     7
370
    13
100
AcDbCircle
 10
61199.024525
 20
80139.270994
 30
0.0
 40
0.0154855791660011
  0
CIRCLE
  5
179
330
58E
100
AcDbEntity
  8
Level 10
  6
Continuous
 62
     7
370
    13
100
AcDbCircle
 10
61199.024525
 20
80139.270994
 30
0.0
 40
0.0124375791660011
  0
CIRCLE
  5
17A
330
58E
100
AcDbEntity
  8
Level 10
  6
Continuous
 62
     7
370
    13
100
AcDbCircle
 10
61199.024525
 20
80139.270994
 30
0.0
 40
0.0093895791660011
  0
CIRCLE
  5
17B
330
58E
100
AcDbEntity
  8
Level 10
  6
Continuous
 62
     7
370
    13
100
AcDbCircle
 10
61199.024525
 20
80139.270994
 30
0.0
 40
0.0063415791660011
  0
CIRCLE
  5
17C
330
58E
100
AcDbEntity
  8
Level 10
  6
Continuous
 62
     7
370
    13
100
AcDbCircle
 10
61199.024525
 20
80139.270994
 30
0.0
 40
0.0032935791660011
  0
CIRCLE
  5
17D
330
58E
100
AcDbEntity
  8
Level 10
  6
Continuous
 62
     7
370
    13
100
AcDbCircle
 10
61199.67164
 20
80139.930188
 30
0.0
 40
0.0612055791660011
  0
CIRCLE
  5
17E
330
58E
100
AcDbEntity
  8
Level 10
  6
Continuous
 62
     7
370
    13
100
AcDbCircle
 10
61199.67164
 20
80139.930188
 30
0.0
 40
0.0581575791660011
  0
CIRCLE
  5
17F
330
58E
100
AcDbEntity
  8
Level 10
  6
Continuous
 62
     7
370
    13
100
AcDbCircle
 10
61199.67164
 20
80139.930188
 30
0.0
 40
0.0551095791660011
  0
CIRCLE
  5
180
330
58E
100
AcDbEntity
  8
Level 10
  6
Continuous
 62
     7
370
    13
100
AcDbCircle
 10
61199.67164
 20
80139.930188
 30
0.0
 40
0.0520615791660011
  0
CIRCLE
  5
181
330
58E
100
AcDbEntity
  8
Level 10
  6
Continuous
 62
     7
370
    13
100
AcDbCircle
 10
61199.67164
 20
80139.930188
 30
0.0
 40
0.0490135791660011
  0
CIRCLE
  5
182
330
58E
100
AcDbEntity
  8
Level 10
  6
Continuous
 62
     7
370
    13
100
AcDbCircle
 10
61199.67164
 20
80139.930188
 30
0.0
 40
0.0459655791660011
  0
CIRCLE
  5
183
330
58E
100
AcDbEntity
  8
Level 10
  6
Continuous
 62
     7
370
    13
100
AcDbCircle
 10
61199.67164
 20
80139.930188
 30
0.0
 40
0.0429175791660011
  0
CIRCLE
  5
184
330
58E
100
AcDbEntity
  8
Level 10
  6
Continuous
 62
     7
370
    13
100
AcDbCircle
 10
61199.67164
 20
80139.930188
 30
0.0
 40
0.0398695791660011
  0
CIRCLE
  5
185
330
58E
100
AcDbEntity
  8
Level 10
  6
Continuous
 62
     7
370
    13
100
AcDbCircle
 10
61199.67164
 20
80139.930188
 30
0.0
 40
0.0368215791660011
  0
CIRCLE
  5
186
330
58E
100
AcDbEntity
  8
Level 10
  6
Continuous
 62
     7
370
    13
100
AcDbCircle
 10
61199.67164
 20
80139.930188
 30
0.0
 40
0.0337735791660011
  0
CIRCLE
  5
187
330
58E
100
AcDbEntity
  8
Level 10
  6
Continuous
 62
     7
370
    13
100
AcDbCircle
 10
61199.67164
 20
80139.930188
 30
0.0
 40
0.0307255791660011
  0
CIRCLE
  5
188
330
58E
100
AcDbEntity
  8
Level 10
  6
Continuous
 62
     7
370
    13
100
AcDbCircle
 10
61199.67164
 20
80139.930188
 30
0.0
 40
0.0276775791660011
  0
CIRCLE
  5
189
330
58E
100
AcDbEntity
  8
Level 10
  6
Continuous
 62
     7
370
    13
100
AcDbCircle
 10
61199.67164
 20
80139.930188
 30
0.0
 40
0.0246295791660011
  0
CIRCLE
  5
18A
330
58E
100
AcDbEntity
  8
Level 10
  6
Continuous
 62
     7
370
    13
100
AcDbCircle
 10
61199.67164
 20
80139.930188
 30
0.0
 40
0.0215815791660011
  0
CIRCLE
  5
18B
330
58E
100
AcDbEntity
  8
Level 10
  6
Continuous
 62
     7
370
    13
100
AcDbCircle
 10
61199.67164
 20
80139.930188
 30
0.0
 40
0.0185335791660011
  0
CIRCLE
  5
18C
330
58E
100
AcDbEntity
  8
Level 10
  6
Continuous
 62
     7
370
    13
100
AcDbCircle
 10
61199.67164
 20
80139.930188
 30
0.0
 40
0.0154855791660011
  0
CIRCLE
  5
18D
330
58E
100
AcDbEntity
  8
Level 10
  6
Continuous
 62
     7
370
    13
100
AcDbCircle
 10
61199.67164
 20
80139.930188
 30
0.0
 40
0.0124375791660011
  0
CIRCLE
  5
18E
330
58E
100
AcDbEntity
  8
Level 10
  6
Continuous
 62
     7
370
    13
100
AcDbCircle
 10
61199.67164
 20
80139.930188
 30
0.0
 40
0.0093895791660011
  0
CIRCLE
  5
18F
330
58E
100
AcDbEntity
  8
Level 10
  6
Continuous
 62
     7
370
    13
100
AcDbCircle
 10
61199.67164
 20
80139.930188
 30
0.0
 40
0.0063415791660011
  0
CIRCLE
  5
190
330
58E
100
AcDbEntity
  8
Level 10
  6
Continuous
 62
     7
370
    13
100
AcDbCircle
 10
61199.67164
 20
80139.930188
 30
0.0
 40
0.0032935791660011
  0
CIRCLE
  5
191
330
58E
100
AcDbEntity
  8
Level 10
  6
Continuous
 62
     7
370
    13
100
AcDbCircle
 10
61205.601337
 20
80139.529798
 30
0.0
 40
0.0612055791660011
  0
CIRCLE
  5
192
330
58E
100
AcDbEntity
  8
Level 10
  6
Continuous
 62
     7
370
    13
100
AcDbCircle
 10
61205.601337
 20
80139.529798
 30
0.0
 40
0.0581575791660011
  0
CIRCLE
  5
193
330
58E
100
AcDbEntity
  8
Level 10
  6
Continuous
 62
     7
370
    13
100
AcDbCircle
 10
61205.601337
 20
80139.529798
 30
0.0
 40
0.0551095791660011
  0
CIRCLE
  5
194
330
58E
100
AcDbEntity
  8
Level 10
  6
Continuous
 62
     7
370
    13
100
AcDbCircle
 10
61205.601337
 20
80139.529798
 30
0.0
 40
0.0520615791660011
  0
CIRCLE
  5
195
330
58E
100
AcDbEntity
  8
Level 10
  6
Continuous
 62
     7
370
    13
100
AcDbCircle
 10
61205.601337
 20
80139.529798
 30
0.0
 40
0.0490135791660011
  0
CIRCLE
  5
196
330
58E
100
AcDbEntity
  8
Level 10
  6
Continuous
 62
     7
370
    13
100
AcDbCircle
 10
61205.601337
 20
80139.529798
 30
0.0
 40
0.0459655791660011
  0
CIRCLE
  5
197
330
58E
100
AcDbEntity
  8
Level 10
  6
Continuous
 62
     7
370
    13
100
AcDbCircle
 10
61205.601337
 20
80139.529798
 30
0.0
 40
0.0429175791660011
  0
CIRCLE
  5
198
330
58E
100
AcDbEntity
  8
Level 10
  6
Continuous
 62
     7
370
    13
100
AcDbCircle
 10
61205.601337
 20
80139.529798
 30
0.0
 40
0.0398695791660011
  0
CIRCLE
  5
199
330
58E
100
AcDbEntity
  8
Level 10
  6
Continuous
 62
     7
370
    13
100
AcDbCircle
 10
61205.601337
 20
80139.529798
 30
0.0
 40
0.0368215791660011
  0
CIRCLE
  5
19A
330
58E
100
AcDbEntity
  8
Level 10
  6
Continuous
 62
     7
370
    13
100
AcDbCircle
 10
61205.601337
 20
80139.529798
 30
0.0
 40
0.0337735791660011
  0
CIRCLE
  5
19B
330
58E
100
AcDbEntity
  8
Level 10
  6
Continuous
 62
     7
370
    13
100
AcDbCircle
 10
61205.601337
 20
80139.529798
 30
0.0
 40
0.0307255791660011
  0
CIRCLE
  5
19C
330
58E
100
AcDbEntity
  8
Level 10
  6
Continuous
 62
     7
370
    13
100
AcDbCircle
 10
61205.601337
 20
80139.529798
 30
0.0
 40
0.0276775791660011
  0
CIRCLE
  5
19D
330
58E
100
AcDbEntity
  8
Level 10
  6
Continuous
 62
     7
370
    13
100
AcDbCircle
 10
61205.601337
 20
80139.529798
 30
0.0
 40
0.0246295791660011
  0
CIRCLE
  5
19E
330
58E
100
AcDbEntity
  8
Level 10
  6
Continuous
 62
     7
370
    13
100
AcDbCircle
 10
61205.601337
 20
80139.529798
 30
0.0
 40
0.0215815791660011
  0
CIRCLE
  5
19F
330
58E
100
AcDbEntity
  8
Level 10
  6
Continuous
 62
     7
370
    13
100
AcDbCircle
 10
61205.601337
 20
80139.529798
 30
0.0
 40
0.0185335791660011
  0
CIRCLE
  5
1A0
330
58E
100
AcDbEntity
  8
Level 10
  6
Continuous
 62
     7
370
    13
100
AcDbCircle
 10
61205.601337
 20
80139.529798
 30
0.0
 40
0.0154855791660011
  0
CIRCLE
  5
1A1
330
58E
100
AcDbEntity
  8
Level 10
  6
Continuous
 62
     7
370
    13
100
AcDbCircle
 10
61205.601337
 20
80139.529798
 30
0.0
 40
0.0124375791660011
  0
CIRCLE
  5
1A2
330
58E
100
AcDbEntity
  8
Level 10
  6
Continuous
 62
     7
370
    13
100
AcDbCircle
 10
61205.601337
 20
80139.529798
 30
0.0
 40
0.0093895791660011
  0
CIRCLE
  5
1A3
330
58E
100
AcDbEntity
  8
Level 10
  6
Continuous
 62
     7
370
    13
100
AcDbCircle
 10
61205.601337
 20
80139.529798
 30
0.0
 40
0.0063415791660011
  0
CIRCLE
  5
1A4
330
58E
100
AcDbEntity
  8
Level 10
  6
Continuous
 62
     7
370
    13
100
AcDbCircle
 10
61205.601337
 20
80139.529798
 30
0.0
 40
0.0032935791660011
  0
LINE
  5
1A6
330
58E
100
AcDbEntity
  8
Level 46
  6
Continuous
 62
     7
370
     0
100
AcDbLine
 10
61193.7615
 20
80140.5682
 30
0.0
 11
61193.6333
 21
80139.5462
 31
0.0
  0
LINE
  5
1A7
330
58E
100
AcDbEntity
  8
Level 46
  6
Continuous
 62
     7
370
     0
100
AcDbLine
 10
61192.4729
 20
80139.2835
 30
0.0
 11
61192.5992
 21
80140.2903
 31
0.0
  0
LINE
  5
1A8
330
58E
100
AcDbEntity
  8
Level 46
  6
Continuous
 62
     7
370
     0
100
AcDbLine
 10
61193.6712
 20
80139.8486
 30
0.0
 11
61192.5613
 21
80139.9879
 31
0.0
  0
INSERT
  5
1A9
330
58E
100
AcDbEntity
  8
Level 46
  6
Continuous
 62
     7
370
     0
100
AcDbBlockReference
  2
LARROW
 10
61192.5613
 20
80139.9879
 30
0.0
 41
1.524
 42
1.524
 43
1.524
 50
172.847211
  0
INSERT
  5
1AB
330
58E
100
AcDbEntity
  8
Level 46
  6
Continuous
 62
     7
370
     0
100
AcDbBlockReference
  2
LARROW
 10
61193.6712
 20
80139.8486
 30
0.0
 41
1.524
 42
1.524
 43
1.524
 50
352.847211
  0
LINE
  5
1B0
330
58E
100
AcDbEntity
  8
Level 47
  6
Continuous
 62
     7
370
    53
100
AcDbLine
 10
61199.156734
 20
80135.859
 30
0.0
 11
61206.671267
 21
80135.859
 31
0.0
  0
LINE
  5
1BA
330
58E
100
AcDbEntity
  8
Level 46
  6
Continuous
 62
     7
370
    13
100
AcDbLine
 10
61196.7883
 20
80134.808
 30
0.0
 11
61196.7883
 21
80131.802
 31
0.0
  0
LINE
  5
1BD
330
58E
100
AcDbEntity
  8
Level 46
  6
Continuous
 62
     7
370
    13
100
AcDbLine
 10
61198.1409
 20
80134.808
 30
0.0
 11
61198.1409
 21
80131.802
 31
0.0
  0
LINE
  5
1BE
330
58E
100
AcDbEntity
  8
Level 46
  6
Continuous
 62
     7
370
    13
100
AcDbLine
 10
61199.4936
 20
80133.0044
 30
0.0
 11
61199.4936
 21
80131.802
 31
0.0
  0
LINE
  5
1BF
330
58E
100
AcDbEntity
  8
Level 46
  6
Continuous
 62
     7
370
    13
100
AcDbLine
 10
61200.8463
 20
80133.6056
 30
0.0
 11
61200.8463
 21
80131.802
 31
0.0
  0
LINE
  5
1C0
330
58E
100
AcDbEntity
  8
Level 46
  6
Continuous
 62
     7
370
    13
100
AcDbLine
 10
61202.1989
 20
80133.0044
 30
0.0
 11
61202.1989
 21
80131.802
 31
0.0
  0
LINE
  5
1C3
330
58E
100
AcDbEntity
  8
Level 46
  6
Continuous
 62
     7
370
    13
100
AcDbLine
 10
61203.5516
 20
80134.808
 30
0.0
 11
61203.5516
 21
80131.802
 31
0.0
  0
LINE
  5
1C4
330
58E
100
AcDbEntity
  8
Level 46
  6
Continuous
 62
     7
370
    13
100
AcDbLine
 10
61205.6557
 20
80133.6056
 30
0.0
 11
61205.6557
 21
80131.802
 31
0.0
  0
LINE
  5
1C5
330
58E
100
AcDbEntity
  8
Level 46
  6
Continuous
 62
     7
370
    13
100
AcDbLine
 10
61207.0084
 20
80133.0044
 30
0.0
 11
61207.0084
 21
80131.802
 31
0.0
  0
LINE
  5
1C9
330
58E
100
AcDbEntity
  8
Level 46
  6
Continuous
 62
     7
370
    13
100
AcDbLine
 10
61205.6557
 20
80133.0044
 30
0.0
 11
61205.6557
 21
80131.802
 31
0.0
  0
LINE
  5
1CC
330
58E
100
AcDbEntity
  8
Level 46
  6
Continuous
 62
     7
370
    13
100
AcDbLine
 10
61207.0084
 20
80133.0044
 30
0.0
 11
61207.0084
 21
80131.802
 31
0.0
  0
LINE
  5
1CD
330
58E
100
AcDbEntity
  8
Level 46
  6
Continuous
 62
     7
370
    13
100
AcDbLine
 10
61208.3611
 20
80134.808
 30
0.0
 11
61208.3611
 21
80131.802
 31
0.0
  0
LINE
  5
1CE
330
58E
100
AcDbEntity
  8
Level 46
  6
Continuous
 62
     7
370
    13
100
AcDbLine
 10
61207.0084
 20
80133.0044
 30
0.0
 11
61207.0084
 21
80131.802
 31
0.0
  0
LINE
  5
1D0
330
58E
100
AcDbEntity
  8
Level 46
  6
Continuous
 62
     7
370
    13
100
AcDbLine
 10
61208.3611
 20
80133.0044
 30
0.0
 11
61208.3611
 21
80131.802
 31
0.0
  0
LINE
  5
1D7
330
58E
100
AcDbEntity
  8
Level 46
  6
Continuous
 62
     7
370
    13
100
AcDbLine
 10
61209.5634
 20
80134.808
 30
0.0
 11
61209.5634
 21
80131.802
 31
0.0
  0
LINE
  5
1D9
330
58E
100
AcDbEntity
  8
Level 46
  6
Continuous
 62
     7
370
    13
100
AcDbLine
 10
61210.7658
 20
80134.808
 30
0.0
 11
61210.7658
 21
80131.802
 31
0.0
  0
LINE
  5
1DA
330
58E
100
AcDbEntity
  8
Level 46
  6
Continuous
 62
     7
370
    13
100
AcDbLine
 10
61211.9682
 20
80134.808
 30
0.0
 11
61211.9682
 21
80131.802
 31
0.0
  0
LINE
  5
1DB
330
58E
100
AcDbEntity
  8
Level 46
  6
Continuous
 62
     7
370
    13
100
AcDbLine
 10
61213.1705
 20
80135.2087
 30
0.0
 11
61213.1705
 21
80131.802
 31
0.0
  0
LINE
  5
1DC
330
58E
100
AcDbEntity
  8
Level 46
  6
Continuous
 62
     7
370
    13
100
AcDbLine
 10
61213.1705
 20
80134.808
 30
0.0
 11
61193.7824
 21
80134.808
 31
0.0
  0
LINE
  5
1DF
330
58E
100
AcDbEntity
  8
Level 46
  6
Continuous
 62
     7
370
    13
100
AcDbLine
 10
61208.3611
 20
80133.6056
 30
0.0
 11
61203.5516
 21
80133.6056
 31
0.0
  0
LINE
  5
1E0
330
58E
100
AcDbEntity
  8
Level 46
  6
Continuous
 62
     7
370
    13
100
AcDbLine
 10
61203.5516
 20
80133.6056
 30
0.0
 11
61198.1409
 21
80133.6056
 31
0.0
  0
LINE
  5
1E1
330
58E
100
AcDbEntity
  8
Level 10
  6
Continuous
 62
     7
370
    70
100
AcDbLine
 10
61189.493
 20
80127.6541
 30
0.0
 11
61218.6225
 21
80127.6541
 31
0.0
  0
LINE
  5
1E2
330
58E
100
AcDbEntity
  8
Level 46
  6
Continuous
 62
     7
370
     0
100
AcDbLine
 10
61194.6929
 20
80130.0245
 30
0.0
 11
61194.6929
 21
80126.5664
 31
0.0
  0
LINE
  5
1E3
330
58E
100
AcDbEntity
  8
Level 46
  6
Continuous
 62
     7
370
     0
100
AcDbLine
 10
61215.4193
 20
80129.0892
 30
0.0
 11
61215.4193
 21
80126.5664
 31
0.0
  0
LINE
  5
1E4
330
58E
100
AcDbEntity
  8
Level 10
  6
Continuous
 62
     7
370
    70
100
AcDbLine
 10
61213.7027
 20
80130.3328
 30
0.0
 11
61218.4266
 21
80130.9257
 31
0.0
  0
LINE
  5
1E5
330
58E
100
AcDbEntity
  8
Level 10
  6
Continuous
 62
     7
370
    70
100
AcDbLine
 10
61194.5902
 20
80127.6541
 30
0.0
 11
61199.7221
 21
80127.8129
 31
0.0
  0
LINE
  5
1E6
330
58E
100
AcDbEntity
  8
Level 10
  6
Continuous
 62
     7
370
    70
100
AcDbLine
 10
61194.6484
 20
80129.0917
 30
0.0
 11
61199.8711
 21
80129.2533
 31
0.0
  0
ARC
  5
1E7
330
58E
100
AcDbEntity
  8
Level 10
  6
Continuous
 62
     7
370
    70
100
AcDbCircle
 10
61195.298629
 20
80276.987953
 30
0.0
 40
147.8053939898401
100
AcDbArc
 50
271.772761
 51
277.152778
  0
LINE
  5
1E8
330
58E
100
AcDbEntity
  8
Level 10
  6
Continuous
 62
     7
370
    70
100
AcDbLine
 10
61213.8814
 20
80128.9089
 30
0.0
 11
61218.6053
 21
80129.5017
 31
0.0
  0
ARC
  5
1E9
330
58E
100
AcDbEntity
  8
Level 10
  6
Continuous
 62
     7
370
    70
100
AcDbCircle
 10
61195.298643
 20
80276.987948
 30
0.0
 40
149.240494
100
AcDbArc
 50
271.698492
 51
277.152772
  0
LINE
  5
1EA
330
58E
100
AcDbEntity
  8
Level 10
  6
Continuous
 62
     7
370
    70
100
AcDbLine
 10
61189.493
 20
80129.0892
 30
0.0
 11
61215.3179
 21
80129.0892
 31
0.0
  0
LINE
  5
1EB
330
58E
100
AcDbEntity
  8
Level 10
  6
Continuous
 62
     7
370
    70
100
AcDbLine
 10
61215.3179
 20
80129.0892
 30
0.0
 11
61218.6225
 21
80129.0892
 31
0.0
  0
LINE
  5
1EC
330
58E
100
AcDbEntity
  8
Level 46
  6
Continuous
 62
     7
370
     0
100
AcDbLine
 10
61194.6929
 20
80126.8712
 30
0.0
 11
61215.4193
 21
80126.8712
 31
0.0
  0
INSERT
  5
1ED
330
58E
100
AcDbEntity
  8
Level 46
  6
Continuous
 62
     7
370
     0
100
AcDbBlockReference
  2
LARROW
 10
-61194.6929
 20
80126.8712
 30
0.0
 41
1.524
 42
1.524
 43
1.524
210
0.0
220
0.0
230
-1.0
  0
INSERT
  5
1EF
330
58E
100
AcDbEntity
  8
Level 46
  6
Continuous
 62
     7
370
     0
100
AcDbBlockReference
  2
LARROW
 10
-61215.4193
 20
80126.8712
 30
0.0
 41
1.524
 42
1.524
 43
1.524
 50
180.0
210
0.0
220
0.0
230
-1.0
  0
LINE
  5
1F1
330
58E
100
AcDbEntity
  8
Level 46
  6
Continuous
 62
     7
370
     0
100
AcDbLine
 10
61194.0107
 20
80128.6739
 30
0.0
 11
61194.6929
 21
80128.6739
 31
0.0
  0
LINE
  5
1F2
330
58E
100
AcDbEntity
  8
Level 46
  6
Continuous
 62
     7
370
     0
100
AcDbLine
 10
61199.7221
 20
80127.8129
 30
0.0
 11
61199.6554
 21
80129.9689
 31
0.0
  0
INSERT
  5
1F3
330
58E
100
AcDbEntity
  8
Level 46
  6
Continuous
 62
     7
370
     0
100
AcDbBlockReference
  2
LARROW
 10
-61215.4193
 20
80128.4639
 30
0.0
 41
1.524
 42
1.524
 43
1.524
210
0.0
220
0.0
230
-1.0
  0
CIRCLE
  5
1F5
330
58E
100
AcDbEntity
  8
Level 10
  6
Continuous
 62
     7
370
    13
100
AcDbCircle
 10
61214.12912
 20
80130.386343
 30
0.0
 40
0.0612055791660011
  0
CIRCLE
  5
1F6
330
58E
100
AcDbEntity
  8
Level 10
  6
Continuous
 62
     7
370
    13
100
AcDbCircle
 10
61214.12912
 20
80130.386343
 30
0.0
 40
0.0581575791660011
  0
CIRCLE
  5
1F7
330
58E
100
AcDbEntity
  8
Level 10
  6
Continuous
 62
     7
370
    13
100
AcDbCircle
 10
61214.12912
 20
80130.386343
 30
0.0
 40
0.0551095791660011
  0
CIRCLE
  5
1F8
330
58E
100
AcDbEntity
  8
Level 10
  6
Continuous
 62
     7
370
    13
100
AcDbCircle
 10
61214.12912
 20
80130.386343
 30
0.0
 40
0.0520615791660011
  0
CIRCLE
  5
1F9
330
58E
100
AcDbEntity
  8
Level 10
  6
Continuous
 62
     7
370
    13
100
AcDbCircle
 10
61214.12912
 20
80130.386343
 30
0.0
 40
0.0490135791660011
  0
CIRCLE
  5
1FA
330
58E
100
AcDbEntity
  8
Level 10
  6
Continuous
 62
     7
370
    13
100
AcDbCircle
 10
61214.12912
 20
80130.386343
 30
0.0
 40
0.0459655791660011
  0
CIRCLE
  5
1FB
330
58E
100
AcDbEntity
  8
Level 10
  6
Continuous
 62
     7
370
    13
100
AcDbCircle
 10
61214.12912
 20
80130.386343
 30
0.0
 40
0.0429175791660011
  0
CIRCLE
  5
1FC
330
58E
100
AcDbEntity
  8
Level 10
  6
Continuous
 62
     7
370
    13
100
AcDbCircle
 10
61214.12912
 20
80130.386343
 30
0.0
 40
0.0398695791660011
  0
CIRCLE
  5
1FD
330
58E
100
AcDbEntity
  8
Level 10
  6
Continuous
 62
     7
370
    13
100
AcDbCircle
 10
61214.12912
 20
80130.386343
 30
0.0
 40
0.0368215791660011
  0
CIRCLE
  5
1FE
330
58E
100
AcDbEntity
  8
Level 10
  6
Continuous
 62
     7
370
    13
100
AcDbCircle
 10
61214.12912
 20
80130.386343
 30
0.0
 40
0.0337735791660011
  0
CIRCLE
  5
1FF
330
58E
100
AcDbEntity
  8
Level 10
  6
Continuous
 62
     7
370
    13
100
AcDbCircle
 10
61214.12912
 20
80130.386343
 30
0.0
 40
0.0307255791660011
  0
CIRCLE
  5
200
330
58E
100
AcDbEntity
  8
Level 10
  6
Continuous
 62
     7
370
    13
100
AcDbCircle
 10
61214.12912
 20
80130.386343
 30
0.0
 40
0.0276775791660011
  0
CIRCLE
  5
201
330
58E
100
AcDbEntity
  8
Level 10
  6
Continuous
 62
     7
370
    13
100
AcDbCircle
 10
61214.12912
 20
80130.386343
 30
0.0
 40
0.0246295791660011
  0
CIRCLE
  5
202
330
58E
100
AcDbEntity
  8
Level 10
  6
Continuous
 62
     7
370
    13
100
AcDbCircle
 10
61214.12912
 20
80130.386343
 30
0.0
 40
0.0215815791660011
  0
CIRCLE
  5
203
330
58E
100
AcDbEntity
  8
Level 10
  6
Continuous
 62
     7
370
    13
100
AcDbCircle
 10
61214.12912
 20
80130.386343
 30
0.0
 40
0.0185335791660011
  0
CIRCLE
  5
204
330
58E
100
AcDbEntity
  8
Level 10
  6
Continuous
 62
     7
370
    13
100
AcDbCircle
 10
61214.12912
 20
80130.386343
 30
0.0
 40
0.0154855791660011
  0
CIRCLE
  5
205
330
58E
100
AcDbEntity
  8
Level 10
  6
Continuous
 62
     7
370
    13
100
AcDbCircle
 10
61214.12912
 20
80130.386343
 30
0.0
 40
0.0124375791660011
  0
CIRCLE
  5
206
330
58E
100
AcDbEntity
  8
Level 10
  6
Continuous
 62
     7
370
    13
100
AcDbCircle
 10
61214.12912
 20
80130.386343
 30
0.0
 40
0.0093895791660011
  0
CIRCLE
  5
207
330
58E
100
AcDbEntity
  8
Level 10
  6
Continuous
 62
     7
370
    13
100
AcDbCircle
 10
61214.12912
 20
80130.386343
 30
0.0
 40
0.0063415791660011
  0
CIRCLE
  5
208
330
58E
100
AcDbEntity
  8
Level 10
  6
Continuous
 62
     7
370
    13
100
AcDbCircle
 10
61214.12912
 20
80130.386343
 30
0.0
 40
0.0032935791660011
  0
CIRCLE
  5
209
330
58E
100
AcDbEntity
  8
Level 10
  6
Continuous
 62
     7
370
    13
100
AcDbCircle
 10
61213.8804
 20
80128.908771
 30
0.0
 40
0.0612055791660011
  0
CIRCLE
  5
20A
330
58E
100
AcDbEntity
  8
Level 10
  6
Continuous
 62
     7
370
    13
100
AcDbCircle
 10
61213.8804
 20
80128.908771
 30
0.0
 40
0.0581575791660011
  0
CIRCLE
  5
20B
330
58E
100
AcDbEntity
  8
Level 10
  6
Continuous
 62
     7
370
    13
100
AcDbCircle
 10
61213.8804
 20
80128.908771
 30
0.0
 40
0.0551095791660011
  0
CIRCLE
  5
20C
330
58E
100
AcDbEntity
  8
Level 10
  6
Continuous
 62
     7
370
    13
100
AcDbCircle
 10
61213.8804
 20
80128.908771
 30
0.0
 40
0.0520615791660011
  0
CIRCLE
  5
20D
330
58E
100
AcDbEntity
  8
Level 10
  6
Continuous
 62
     7
370
    13
100
AcDbCircle
 10
61213.8804
 20
80128.908771
 30
0.0
 40
0.0490135791660011
  0
CIRCLE
  5
20E
330
58E
100
AcDbEntity
  8
Level 10
  6
Continuous
 62
     7
370
    13
100
AcDbCircle
 10
61213.8804
 20
80128.908771
 30
0.0
 40
0.0459655791660011
  0
CIRCLE
  5
20F
330
58E
100
AcDbEntity
  8
Level 10
  6
Continuous
 62
     7
370
    13
100
AcDbCircle
 10
61213.8804
 20
80128.908771
 30
0.0
 40
0.0429175791660011
  0
CIRCLE
  5
210
330
58E
100
AcDbEntity
  8
Level 10
  6
Continuous
 62
     7
370
    13
100
AcDbCircle
 10
61213.8804
 20
80128.908771
 30
0.0
 40
0.0398695791660011
  0
CIRCLE
  5
211
330
58E
100
AcDbEntity
  8
Level 10
  6
Continuous
 62
     7
370
    13
100
AcDbCircle
 10
61213.8804
 20
80128.908771
 30
0.0
 40
0.0368215791660011
  0
CIRCLE
  5
212
330
58E
100
AcDbEntity
  8
Level 10
  6
Continuous
 62
     7
370
    13
100
AcDbCircle
 10
61213.8804
 20
80128.908771
 30
0.0
 40
0.0337735791660011
  0
CIRCLE
  5
213
330
58E
100
AcDbEntity
  8
Level 10
  6
Continuous
 62
     7
370
    13
100
AcDbCircle
 10
61213.8804
 20
80128.908771
 30
0.0
 40
0.0307255791660011
  0
CIRCLE
  5
214
330
58E
100
AcDbEntity
  8
Level 10
  6
Continuous
 62
     7
370
    13
100
AcDbCircle
 10
61213.8804
 20
80128.908771
 30
0.0
 40
0.0276775791660011
  0
CIRCLE
  5
215
330
58E
100
AcDbEntity
  8
Level 10
  6
Continuous
 62
     7
370
    13
100
AcDbCircle
 10
61213.8804
 20
80128.908771
 30
0.0
 40
0.0246295791660011
  0
CIRCLE
  5
216
330
58E
100
AcDbEntity
  8
Level 10
  6
Continuous
 62
     7
370
    13
100
AcDbCircle
 10
61213.8804
 20
80128.908771
 30
0.0
 40
0.0215815791660011
  0
CIRCLE
  5
217
330
58E
100
AcDbEntity
  8
Level 10
  6
Continuous
 62
     7
370
    13
100
AcDbCircle
 10
61213.8804
 20
80128.908771
 30
0.0
 40
0.0185335791660011
  0
CIRCLE
  5
218
330
58E
100
AcDbEntity
  8
Level 10
  6
Continuous
 62
     7
370
    13
100
AcDbCircle
 10
61213.8804
 20
80128.908771
 30
0.0
 40
0.0154855791660011
  0
CIRCLE
  5
219
330
58E
100
AcDbEntity
  8
Level 10
  6
Continuous
 62
     7
370
    13
100
AcDbCircle
 10
61213.8804
 20
80128.908771
 30
0.0
 40
0.0124375791660011
  0
CIRCLE
  5
21A
330
58E
100
AcDbEntity
  8
Level 10
  6
Continuous
 62
     7
370
    13
100
AcDbCircle
 10
61213.8804
 20
80128.908771
 30
0.0
 40
0.0093895791660011
  0
CIRCLE
  5
21B
330
58E
100
AcDbEntity
  8
Level 10
  6
Continuous
 62
     7
370
    13
100
AcDbCircle
 10
61213.8804
 20
80128.908771
 30
0.0
 40
0.0063415791660011
  0
CIRCLE
  5
21C
330
58E
100
AcDbEntity
  8
Level 10
  6
Continuous
 62
     7
370
    13
100
AcDbCircle
 10
61213.8804
 20
80128.908771
 30
0.0
 40
0.0032935791660011
  0
CIRCLE
  5
21D
330
58E
100
AcDbEntity
  8
Level 10
  6
Continuous
 62
     7
370
    13
100
AcDbCircle
 10
61213.86992
 20
80129.089165
 30
0.0
 40
0.0612055791660011
  0
CIRCLE
  5
21E
330
58E
100
AcDbEntity
  8
Level 10
  6
Continuous
 62
     7
370
    13
100
AcDbCircle
 10
61213.86992
 20
80129.089165
 30
0.0
 40
0.0581575791660011
  0
CIRCLE
  5
21F
330
58E
100
AcDbEntity
  8
Level 10
  6
Continuous
 62
     7
370
    13
100
AcDbCircle
 10
61213.86992
 20
80129.089165
 30
0.0
 40
0.0551095791660011
  0
CIRCLE
  5
220
330
58E
100
AcDbEntity
  8
Level 10
  6
Continuous
 62
     7
370
    13
100
AcDbCircle
 10
61213.86992
 20
80129.089165
 30
0.0
 40
0.0520615791660011
  0
CIRCLE
  5
221
330
58E
100
AcDbEntity
  8
Level 10
  6
Continuous
 62
     7
370
    13
100
AcDbCircle
 10
61213.86992
 20
80129.089165
 30
0.0
 40
0.0490135791660011
  0
CIRCLE
  5
222
330
58E
100
AcDbEntity
  8
Level 10
  6
Continuous
 62
     7
370
    13
100
AcDbCircle
 10
61213.86992
 20
80129.089165
 30
0.0
 40
0.0459655791660011
  0
CIRCLE
  5
223
330
58E
100
AcDbEntity
  8
Level 10
  6
Continuous
 62
     7
370
    13
100
AcDbCircle
 10
61213.86992
 20
80129.089165
 30
0.0
 40
0.0429175791660011
  0
CIRCLE
  5
224
330
58E
100
AcDbEntity
  8
Level 10
  6
Continuous
 62
     7
370
    13
100
AcDbCircle
 10
61213.86992
 20
80129.089165
 30
0.0
 40
0.0398695791660011
  0
CIRCLE
  5
225
330
58E
100
AcDbEntity
  8
Level 10
  6
Continuous
 62
     7
370
    13
100
AcDbCircle
 10
61213.86992
 20
80129.089165
 30
0.0
 40
0.0368215791660011
  0
CIRCLE
  5
226
330
58E
100
AcDbEntity
  8
Level 10
  6
Continuous
 62
     7
370
    13
100
AcDbCircle
 10
61213.86992
 20
80129.089165
 30
0.0
 40
0.0337735791660011
  0
CIRCLE
  5
227
330
58E
100
AcDbEntity
  8
Level 10
  6
Continuous
 62
     7
370
    13
100
AcDbCircle
 10
61213.86992
 20
80129.089165
 30
0.0
 40
0.0307255791660011
  0
CIRCLE
  5
228
330
58E
100
AcDbEntity
  8
Level 10
  6
Continuous
 62
     7
370
    13
100
AcDbCircle
 10
61213.86992
 20
80129.089165
 30
0.0
 40
0.0276775791660011
  0
CIRCLE
  5
229
330
58E
100
AcDbEntity
  8
Level 10
  6
Continuous
 62
     7
370
    13
100
AcDbCircle
 10
61213.86992
 20
80129.089165
 30
0.0
 40
0.0246295791660011
  0
CIRCLE
  5
22A
330
58E
100
AcDbEntity
  8
Level 10
  6
Continuous
 62
     7
370
    13
100
AcDbCircle
 10
61213.86992
 20
80129.089165
 30
0.0
 40
0.0215815791660011
  0
CIRCLE
  5
22B
330
58E
100
AcDbEntity
  8
Level 10
  6
Continuous
 62
     7
370
    13
100
AcDbCircle
 10
61213.86992
 20
80129.089165
 30
0.0
 40
0.0185335791660011
  0
CIRCLE
  5
22C
330
58E
100
AcDbEntity
  8
Level 10
  6
Continuous
 62
     7
370
    13
100
AcDbCircle
 10
61213.86992
 20
80129.089165
 30
0.0
 40
0.0154855791660011
  0
CIRCLE
  5
22D
330
58E
100
AcDbEntity
  8
Level 10
  6
Continuous
 62
     7
370
    13
100
AcDbCircle
 10
61213.86992
 20
80129.089165
 30
0.0
 40
0.0124375791660011
  0
CIRCLE
  5
22E
330
58E
100
AcDbEntity
  8
Level 10
  6
Continuous
 62
     7
370
    13
100
AcDbCircle
 10
61213.86992
 20
80129.089165
 30
0.0
 40
0.0093895791660011
  0
CIRCLE
  5
22F
330
58E
100
AcDbEntity
  8
Level 10
  6
Continuous
 62
     7
370
    13
100
AcDbCircle
 10
61213.86992
 20
80129.089165
 30
0.0
 40
0.0063415791660011
  0
CIRCLE
  5
230
330
58E
100
AcDbEntity
  8
Level 10
  6
Continuous
 62
     7
370
    13
100
AcDbCircle
 10
61213.86992
 20
80129.089165
 30
0.0
 40
0.0032935791660011
  0
CIRCLE
  5
231
330
58E
100
AcDbEntity
  8
Level 10
  6
Continuous
 62
     7
370
    13
100
AcDbCircle
 10
61199.72212
 20
80127.8129
 30
0.0
 40
0.0612055791660011
  0
CIRCLE
  5
232
330
58E
100
AcDbEntity
  8
Level 10
  6
Continuous
 62
     7
370
    13
100
AcDbCircle
 10
61199.72212
 20
80127.8129
 30
0.0
 40
0.0581575791660011
  0
CIRCLE
  5
233
330
58E
100
AcDbEntity
  8
Level 10
  6
Continuous
 62
     7
370
    13
100
AcDbCircle
 10
61199.72212
 20
80127.8129
 30
0.0
 40
0.0551095791660011
  0
CIRCLE
  5
234
330
58E
100
AcDbEntity
  8
Level 10
  6
Continuous
 62
     7
370
    13
100
AcDbCircle
 10
61199.72212
 20
80127.8129
 30
0.0
 40
0.0520615791660011
  0
CIRCLE
  5
235
330
58E
100
AcDbEntity
  8
Level 10
  6
Continuous
 62
     7
370
    13
100
AcDbCircle
 10
61199.72212
 20
80127.8129
 30
0.0
 40
0.0490135791660011
  0
CIRCLE
  5
236
330
58E
100
AcDbEntity
  8
Level 10
  6
Continuous
 62
     7
370
    13
100
AcDbCircle
 10
61199.72212
 20
80127.8129
 30
0.0
 40
0.0459655791660011
  0
CIRCLE
  5
237
330
58E
100
AcDbEntity
  8
Level 10
  6
Continuous
 62
     7
370
    13
100
AcDbCircle
 10
61199.72212
 20
80127.8129
 30
0.0
 40
0.0429175791660011
  0
CIRCLE
  5
238
330
58E
100
AcDbEntity
  8
Level 10
  6
Continuous
 62
     7
370
    13
100
AcDbCircle
 10
61199.72212
 20
80127.8129
 30
0.0
 40
0.0398695791660011
  0
CIRCLE
  5
239
330
58E
100
AcDbEntity
  8
Level 10
  6
Continuous
 62
     7
370
    13
100
AcDbCircle
 10
61199.72212
 20
80127.8129
 30
0.0
 40
0.0368215791660011
  0
CIRCLE
  5
23A
330
58E
100
AcDbEntity
  8
Level 10
  6
Continuous
 62
     7
370
    13
100
AcDbCircle
 10
61199.72212
 20
80127.8129
 30
0.0
 40
0.0337735791660011
  0
CIRCLE
  5
23B
330
58E
100
AcDbEntity
  8
Level 10
  6
Continuous
 62
     7
370
    13
100
AcDbCircle
 10
61199.72212
 20
80127.8129
 30
0.0
 40
0.0307255791660011
  0
CIRCLE
  5
23C
330
58E
100
AcDbEntity
  8
Level 10
  6
Continuous
 62
     7
370
    13
100
AcDbCircle
 10
61199.72212
 20
80127.8129
 30
0.0
 40
0.0276775791660011
  0
CIRCLE
  5
23D
330
58E
100
AcDbEntity
  8
Level 10
  6
Continuous
 62
     7
370
    13
100
AcDbCircle
 10
61199.72212
 20
80127.8129
 30
0.0
 40
0.0246295791660011
  0
CIRCLE
  5
23E
330
58E
100
AcDbEntity
  8
Level 10
  6
Continuous
 62
     7
370
    13
100
AcDbCircle
 10
61199.72212
 20
80127.8129
 30
0.0
 40
0.0215815791660011
  0
CIRCLE
  5
23F
330
58E
100
AcDbEntity
  8
Level 10
  6
Continuous
 62
     7
370
    13
100
AcDbCircle
 10
61199.72212
 20
80127.8129
 30
0.0
 40
0.0185335791660011
  0
CIRCLE
  5
240
330
58E
100
AcDbEntity
  8
Level 10
  6
Continuous
 62
     7
370
    13
100
AcDbCircle
 10
61199.72212
 20
80127.8129
 30
0.0
 40
0.0154855791660011
  0
CIRCLE
  5
241
330
58E
100
AcDbEntity
  8
Level 10
  6
Continuous
 62
     7
370
    13
100
AcDbCircle
 10
61199.72212
 20
80127.8129
 30
0.0
 40
0.0124375791660011
  0
CIRCLE
  5
242
330
58E
100
AcDbEntity
  8
Level 10
  6
Continuous
 62
     7
370
    13
100
AcDbCircle
 10
61199.72212
 20
80127.8129
 30
0.0
 40
0.0093895791660011
  0
CIRCLE
  5
243
330
58E
100
AcDbEntity
  8
Level 10
  6
Continuous
 62
     7
370
    13
100
AcDbCircle
 10
61199.72212
 20
80127.8129
 30
0.0
 40
0.0063415791660011
  0
CIRCLE
  5
244
330
58E
100
AcDbEntity
  8
Level 10
  6
Continuous
 62
     7
370
    13
100
AcDbCircle
 10
61199.72212
 20
80127.8129
 30
0.0
 40
0.0032935791660011
  0
CIRCLE
  5
245
330
58E
100
AcDbEntity
  8
Level 10
  6
Continuous
 62
     7
370
    13
100
AcDbCircle
 10
61199.72212
 20
80129.089165
 30
0.0
 40
0.0612055791660011
  0
CIRCLE
  5
246
330
58E
100
AcDbEntity
  8
Level 10
  6
Continuous
 62
     7
370
    13
100
AcDbCircle
 10
61199.72212
 20
80129.089165
 30
0.0
 40
0.0581575791660011
  0
CIRCLE
  5
247
330
58E
100
AcDbEntity
  8
Level 10
  6
Continuous
 62
     7
370
    13
100
AcDbCircle
 10
61199.72212
 20
80129.089165
 30
0.0
 40
0.0551095791660011
  0
CIRCLE
  5
248
330
58E
100
AcDbEntity
  8
Level 10
  6
Continuous
 62
     7
370
    13
100
AcDbCircle
 10
61199.72212
 20
80129.089165
 30
0.0
 40
0.0520615791660011
  0
CIRCLE
  5
249
330
58E
100
AcDbEntity
  8
Level 10
  6
Continuous
 62
     7
370
    13
100
AcDbCircle
 10
61199.72212
 20
80129.089165
 30
0.0
 40
0.0490135791660011
  0
CIRCLE
  5
24A
330
58E
100
AcDbEntity
  8
Level 10
  6
Continuous
 62
     7
370
    13
100
AcDbCircle
 10
61199.72212
 20
80129.089165
 30
0.0
 40
0.0459655791660011
  0
CIRCLE
  5
24B
330
58E
100
AcDbEntity
  8
Level 10
  6
Continuous
 62
     7
370
    13
100
AcDbCircle
 10
61199.72212
 20
80129.089165
 30
0.0
 40
0.0429175791660011
  0
CIRCLE
  5
24C
330
58E
100
AcDbEntity
  8
Level 10
  6
Continuous
 62
     7
370
    13
100
AcDbCircle
 10
61199.72212
 20
80129.089165
 30
0.0
 40
0.0398695791660011
  0
CIRCLE
  5
24D
330
58E
100
AcDbEntity
  8
Level 10
  6
Continuous
 62
     7
370
    13
100
AcDbCircle
 10
61199.72212
 20
80129.089165
 30
0.0
 40
0.0368215791660011
  0
CIRCLE
  5
24E
330
58E
100
AcDbEntity
  8
Level 10
  6
Continuous
 62
     7
370
    13
100
AcDbCircle
 10
61199.72212
 20
80129.089165
 30
0.0
 40
0.0337735791660011
  0
CIRCLE
  5
24F
330
58E
100
AcDbEntity
  8
Level 10
  6
Continuous
 62
     7
370
    13
100
AcDbCircle
 10
61199.72212
 20
80129.089165
 30
0.0
 40
0.0307255791660011
  0
CIRCLE
  5
250
330
58E
100
AcDbEntity
  8
Level 10
  6
Continuous
 62
     7
370
    13
100
AcDbCircle
 10
61199.72212
 20
80129.089165
 30
0.0
 40
0.0276775791660011
  0
CIRCLE
  5
251
330
58E
100
AcDbEntity
  8
Level 10
  6
Continuous
 62
     7
370
    13
100
AcDbCircle
 10
61199.72212
 20
80129.089165
 30
0.0
 40
0.0246295791660011
  0
CIRCLE
  5
252
330
58E
100
AcDbEntity
  8
Level 10
  6
Continuous
 62
     7
370
    13
100
AcDbCircle
 10
61199.72212
 20
80129.089165
 30
0.0
 40
0.0215815791660011
  0
CIRCLE
  5
253
330
58E
100
AcDbEntity
  8
Level 10
  6
Continuous
 62
     7
370
    13
100
AcDbCircle
 10
61199.72212
 20
80129.089165
 30
0.0
 40
0.0185335791660011
  0
CIRCLE
  5
254
330
58E
100
AcDbEntity
  8
Level 10
  6
Continuous
 62
     7
370
    13
100
AcDbCircle
 10
61199.72212
 20
80129.089165
 30
0.0
 40
0.0154855791660011
  0
CIRCLE
  5
255
330
58E
100
AcDbEntity
  8
Level 10
  6
Continuous
 62
     7
370
    13
100
AcDbCircle
 10
61199.72212
 20
80129.089165
 30
0.0
 40
0.0124375791660011
  0
CIRCLE
  5
256
330
58E
100
AcDbEntity
  8
Level 10
  6
Continuous
 62
     7
370
    13
100
AcDbCircle
 10
61199.72212
 20
80129.089165
 30
0.0
 40
0.0093895791660011
  0
CIRCLE
  5
257
330
58E
100
AcDbEntity
  8
Level 10
  6
Continuous
 62
     7
370
    13
100
AcDbCircle
 10
61199.72212
 20
80129.089165
 30
0.0
 40
0.0063415791660011
  0
CIRCLE
  5
258
330
58E
100
AcDbEntity
  8
Level 10
  6
Continuous
 62
     7
370
    13
100
AcDbCircle
 10
61199.72212
 20
80129.089165
 30
0.0
 40
0.0032935791660011
  0
CIRCLE
  5
259
330
58E
100
AcDbEntity
  8
Level 10
  6
Continuous
 62
     7
370
    13
100
AcDbCircle
 10
61190.45112
 20
80127.654065
 30
0.0
 40
0.0612055791660011
  0
CIRCLE
  5
25A
330
58E
100
AcDbEntity
  8
Level 10
  6
Continuous
 62
     7
370
    13
100
AcDbCircle
 10
61190.45112
 20
80127.654065
 30
0.0
 40
0.0581575791660011
  0
CIRCLE
  5
25B
330
58E
100
AcDbEntity
  8
Level 10
  6
Continuous
 62
     7
370
    13
100
AcDbCircle
 10
61190.45112
 20
80127.654065
 30
0.0
 40
0.0551095791660011
  0
CIRCLE
  5
25C
330
58E
100
AcDbEntity
  8
Level 10
  6
Continuous
 62
     7
370
    13
100
AcDbCircle
 10
61190.45112
 20
80127.654065
 30
0.0
 40
0.0520615791660011
  0
CIRCLE
  5
25D
330
58E
100
AcDbEntity
  8
Level 10
  6
Continuous
 62
     7
370
    13
100
AcDbCircle
 10
61190.45112
 20
80127.654065
 30
0.0
 40
0.0490135791660011
  0
CIRCLE
  5
25E
330
58E
100
AcDbEntity
  8
Level 10
  6
Continuous
 62
     7
370
    13
100
AcDbCircle
 10
61190.45112
 20
80127.654065
 30
0.0
 40
0.0459655791660011
  0
CIRCLE
  5
25F
330
58E
100
AcDbEntity
  8
Level 10
  6
Continuous
 62
     7
370
    13
100
AcDbCircle
 10
61190.45112
 20
80127.654065
 30
0.0
 40
0.0429175791660011
  0
CIRCLE
  5
260
330
58E
100
AcDbEntity
  8
Level 10
  6
Continuous
 62
     7
370
    13
100
AcDbCircle
 10
61190.45112
 20
80127.654065
 30
0.0
 40
0.0398695791660011
  0
CIRCLE
  5
261
330
58E
100
AcDbEntity
  8
Level 10
  6
Continuous
 62
     7
370
    13
100
AcDbCircle
 10
61190.45112
 20
80127.654065
 30
0.0
 40
0.0368215791660011
  0
CIRCLE
  5
262
330
58E
100
AcDbEntity
  8
Level 10
  6
Continuous
 62
     7
370
    13
100
AcDbCircle
 10
61190.45112
 20
80127.654065
 30
0.0
 40
0.0337735791660011
  0
CIRCLE
  5
263
330
58E
100
AcDbEntity
  8
Level 10
  6
Continuous
 62
     7
370
    13
100
AcDbCircle
 10
61190.45112
 20
80127.654065
 30
0.0
 40
0.0307255791660011
  0
CIRCLE
  5
264
330
58E
100
AcDbEntity
  8
Level 10
  6
Continuous
 62
     7
370
    13
100
AcDbCircle
 10
61190.45112
 20
80127.654065
 30
0.0
 40
0.0276775791660011
  0
CIRCLE
  5
265
330
58E
100
AcDbEntity
  8
Level 10
  6
Continuous
 62
     7
370
    13
100
AcDbCircle
 10
61190.45112
 20
80127.654065
 30
0.0
 40
0.0246295791660011
  0
CIRCLE
  5
266
330
58E
100
AcDbEntity
  8
Level 10
  6
Continuous
 62
     7
370
    13
100
AcDbCircle
 10
61190.45112
 20
80127.654065
 30
0.0
 40
0.0215815791660011
  0
CIRCLE
  5
267
330
58E
100
AcDbEntity
  8
Level 10
  6
Continuous
 62
     7
370
    13
100
AcDbCircle
 10
61190.45112
 20
80127.654065
 30
0.0
 40
0.0185335791660011
  0
CIRCLE
  5
268
330
58E
100
AcDbEntity
  8
Level 10
  6
Continuous
 62
     7
370
    13
100
AcDbCircle
 10
61190.45112
 20
80127.654065
 30
0.0
 40
0.0154855791660011
  0
CIRCLE
  5
269
330
58E
100
AcDbEntity
  8
Level 10
  6
Continuous
 62
     7
370
    13
100
AcDbCircle
 10
61190.45112
 20
80127.654065
 30
0.0
 40
0.0124375791660011
  0
CIRCLE
  5
26A
330
58E
100
AcDbEntity
  8
Level 10
  6
Continuous
 62
     7
370
    13
100
AcDbCircle
 10
61190.45112
 20
80127.654065
 30
0.0
 40
0.0093895791660011
  0
CIRCLE
  5
26B
330
58E
100
AcDbEntity
  8
Level 10
  6
Continuous
 62
     7
370
    13
100
AcDbCircle
 10
61190.45112
 20
80127.654065
 30
0.0
 40
0.0063415791660011
  0
CIRCLE
  5
26C
330
58E
100
AcDbEntity
  8
Level 10
  6
Continuous
 62
     7
370
    13
100
AcDbCircle
 10
61190.45112
 20
80127.654065
 30
0.0
 40
0.0032935791660011
  0
CIRCLE
  5
26D
330
58E
100
AcDbEntity
  8
Level 10
  6
Continuous
 62
     7
370
    13
100
AcDbCircle
 10
61190.95912
 20
80129.089165
 30
0.0
 40
0.0612055791660011
  0
CIRCLE
  5
26E
330
58E
100
AcDbEntity
  8
Level 10
  6
Continuous
 62
     7
370
    13
100
AcDbCircle
 10
61190.95912
 20
80129.089165
 30
0.0
 40
0.0581575791660011
  0
CIRCLE
  5
26F
330
58E
100
AcDbEntity
  8
Level 10
  6
Continuous
 62
     7
370
    13
100
AcDbCircle
 10
61190.95912
 20
80129.089165
 30
0.0
 40
0.0551095791660011
  0
CIRCLE
  5
270
330
58E
100
AcDbEntity
  8
Level 10
  6
Continuous
 62
     7
370
    13
100
AcDbCircle
 10
61190.95912
 20
80129.089165
 30
0.0
 40
0.0520615791660011
  0
CIRCLE
  5
271
330
58E
100
AcDbEntity
  8
Level 10
  6
Continuous
 62
     7
370
    13
100
AcDbCircle
 10
61190.95912
 20
80129.089165
 30
0.0
 40
0.0490135791660011
  0
CIRCLE
  5
272
330
58E
100
AcDbEntity
  8
Level 10
  6
Continuous
 62
     7
370
    13
100
AcDbCircle
 10
61190.95912
 20
80129.089165
 30
0.0
 40
0.0459655791660011
  0
CIRCLE
  5
273
330
58E
100
AcDbEntity
  8
Level 10
  6
Continuous
 62
     7
370
    13
100
AcDbCircle
 10
61190.95912
 20
80129.089165
 30
0.0
 40
0.0429175791660011
  0
CIRCLE
  5
274
330
58E
100
AcDbEntity
  8
Level 10
  6
Continuous
 62
     7
370
    13
100
AcDbCircle
 10
61190.95912
 20
80129.089165
 30
0.0
 40
0.0398695791660011
  0
CIRCLE
  5
275
330
58E
100
AcDbEntity
  8
Level 10
  6
Continuous
 62
     7
370
    13
100
AcDbCircle
 10
61190.95912
 20
80129.089165
 30
0.0
 40
0.0368215791660011
  0
CIRCLE
  5
276
330
58E
100
AcDbEntity
  8
Level 10
  6
Continuous
 62
     7
370
    13
100
AcDbCircle
 10
61190.95912
 20
80129.089165
 30
0.0
 40
0.0337735791660011
  0
CIRCLE
  5
277
330
58E
100
AcDbEntity
  8
Level 10
  6
Continuous
 62
     7
370
    13
100
AcDbCircle
 10
61190.95912
 20
80129.089165
 30
0.0
 40
0.0307255791660011
  0
CIRCLE
  5
278
330
58E
100
AcDbEntity
  8
Level 10
  6
Continuous
 62
     7
370
    13
100
AcDbCircle
 10
61190.95912
 20
80129.089165
 30
0.0
 40
0.0276775791660011
  0
CIRCLE
  5
279
330
58E
100
AcDbEntity
  8
Level 10
  6
Continuous
 62
     7
370
    13
100
AcDbCircle
 10
61190.95912
 20
80129.089165
 30
0.0
 40
0.0246295791660011
  0
CIRCLE
  5
27A
330
58E
100
AcDbEntity
  8
Level 10
  6
Continuous
 62
     7
370
    13
100
AcDbCircle
 10
61190.95912
 20
80129.089165
 30
0.0
 40
0.0215815791660011
  0
CIRCLE
  5
27B
330
58E
100
AcDbEntity
  8
Level 10
  6
Continuous
 62
     7
370
    13
100
AcDbCircle
 10
61190.95912
 20
80129.089165
 30
0.0
 40
0.0185335791660011
  0
CIRCLE
  5
27C
330
58E
100
AcDbEntity
  8
Level 10
  6
Continuous
 62
     7
370
    13
100
AcDbCircle
 10
61190.95912
 20
80129.089165
 30
0.0
 40
0.0154855791660011
  0
CIRCLE
  5
27D
330
58E
100
AcDbEntity
  8
Level 10
  6
Continuous
 62
     7
370
    13
100
AcDbCircle
 10
61190.95912
 20
80129.089165
 30
0.0
 40
0.0124375791660011
  0
CIRCLE
  5
27E
330
58E
100
AcDbEntity
  8
Level 10
  6
Continuous
 62
     7
370
    13
100
AcDbCircle
 10
61190.95912
 20
80129.089165
 30
0.0
 40
0.0093895791660011
  0
CIRCLE
  5
27F
330
58E
100
AcDbEntity
  8
Level 10
  6
Continuous
 62
     7
370
    13
100
AcDbCircle
 10
61190.95912
 20
80129.089165
 30
0.0
 40
0.0063415791660011
  0
CIRCLE
  5
280
330
58E
100
AcDbEntity
  8
Level 10
  6
Continuous
 62
     7
370
    13
100
AcDbCircle
 10
61190.95912
 20
80129.089165
 30
0.0
 40
0.0032935791660011
  0
LINE
  5
281
330
58E
100
AcDbEntity
  8
Level 46
  6
Continuous
 62
     7
370
     0
100
AcDbLine
 10
61190.4511
 20
80128.1453
 30
0.0
 11
61194.6929
 21
80128.1453
 31
0.0
  0
LINE
  5
282
330
58E
100
AcDbEntity
  8
Level 46
  6
Continuous
 62
     7
370
     0
100
AcDbLine
 10
61190.9591
 20
80129.7197
 30
0.0
 11
61194.6929
 21
80129.7197
 31
0.0
  0
INSERT
  5
283
330
58E
100
AcDbEntity
  8
Level 46
  6
Continuous
 62
     7
370
     0
100
AcDbBlockReference
  2
LARROW
 10
-61190.9591
 20
80129.7197
 30
0.0
 41
1.524
 42
1.524
 43
1.524
210
0.0
220
0.0
230
-1.0
  0
INSERT
  5
285
330
58E
100
AcDbEntity
  8
Level 46
  6
Continuous
 62
     7
370
     0
100
AcDbBlockReference
  2
LARROW
 10
-61194.6929
 20
80129.7197
 30
0.0
 41
1.524
 42
1.524
 43
1.524
 50
180.0
210
0.0
220
0.0
230
-1.0
  0
INSERT
  5
287
330
58E
100
AcDbEntity
  8
Level 46
  6
Continuous
 62
     7
370
     0
100
AcDbBlockReference
  2
LARROW
 10
-61194.6929
 20
80128.1453
 30
0.0
 41
1.524
 42
1.524
 43
1.524
 50
180.0
210
0.0
220
0.0
230
-1.0
  0
INSERT
  5
289
330
58E
100
AcDbEntity
  8
Level 46
  6
Continuous
 62
     7
370
     0
100
AcDbBlockReference
  2
LARROW
 10
-61190.4511
 20
80128.1453
 30
0.0
 41
1.524
 42
1.524
 43
1.524
210
0.0
220
0.0
230
-1.0
  0
INSERT
  5
28C
330
58E
100
AcDbEntity
  8
Level 46
  6
Continuous
 62
     7
370
     0
100
AcDbBlockReference
  2
LARROW
 10
-61194.6929
 20
80128.6739
 30
0.0
 41
1.524
 42
1.524
 43
1.524
 50
180.0
210
0.0
220
0.0
230
-1.0
  0
CIRCLE
  5
290
330
58E
100
AcDbEntity
  8
Level 10
  6
Continuous
 62
     7
370
    13
100
AcDbCircle
 10
61202.84632
 20
80127.654065
 30
0.0
 40
0.0612055791660011
  0
CIRCLE
  5
291
330
58E
100
AcDbEntity
  8
Level 10
  6
Continuous
 62
     7
370
    13
100
AcDbCircle
 10
61202.84632
 20
80127.654065
 30
0.0
 40
0.0581575791660011
  0
CIRCLE
  5
292
330
58E
100
AcDbEntity
  8
Level 10
  6
Continuous
 62
     7
370
    13
100
AcDbCircle
 10
61202.84632
 20
80127.654065
 30
0.0
 40
0.0551095791660011
  0
CIRCLE
  5
293
330
58E
100
AcDbEntity
  8
Level 10
  6
Continuous
 62
     7
370
    13
100
AcDbCircle
 10
61202.84632
 20
80127.654065
 30
0.0
 40
0.0520615791660011
  0
CIRCLE
  5
294
330
58E
100
AcDbEntity
  8
Level 10
  6
Continuous
 62
     7
370
    13
100
AcDbCircle
 10
61202.84632
 20
80127.654065
 30
0.0
 40
0.0490135791660011
  0
CIRCLE
  5
295
330
58E
100
AcDbEntity
  8
Level 10
  6
Continuous
 62
     7
370
    13
100
AcDbCircle
 10
61202.84632
 20
80127.654065
 30
0.0
 40
0.0459655791660011
  0
CIRCLE
  5
296
330
58E
100
AcDbEntity
  8
Level 10
  6
Continuous
 62
     7
370
    13
100
AcDbCircle
 10
61202.84632
 20
80127.654065
 30
0.0
 40
0.0429175791660011
  0
CIRCLE
  5
297
330
58E
100
AcDbEntity
  8
Level 10
  6
Continuous
 62
     7
370
    13
100
AcDbCircle
 10
61202.84632
 20
80127.654065
 30
0.0
 40
0.0398695791660011
  0
CIRCLE
  5
298
330
58E
100
AcDbEntity
  8
Level 10
  6
Continuous
 62
     7
370
    13
100
AcDbCircle
 10
61202.84632
 20
80127.654065
 30
0.0
 40
0.0368215791660011
  0
CIRCLE
  5
299
330
58E
100
AcDbEntity
  8
Level 10
  6
Continuous
 62
     7
370
    13
100
AcDbCircle
 10
61202.84632
 20
80127.654065
 30
0.0
 40
0.0337735791660011
  0
CIRCLE
  5
29A
330
58E
100
AcDbEntity
  8
Level 10
  6
Continuous
 62
     7
370
    13
100
AcDbCircle
 10
61202.84632
 20
80127.654065
 30
0.0
 40
0.0307255791660011
  0
CIRCLE
  5
29B
330
58E
100
AcDbEntity
  8
Level 10
  6
Continuous
 62
     7
370
    13
100
AcDbCircle
 10
61202.84632
 20
80127.654065
 30
0.0
 40
0.0276775791660011
  0
CIRCLE
  5
29C
330
58E
100
AcDbEntity
  8
Level 10
  6
Continuous
 62
     7
370
    13
100
AcDbCircle
 10
61202.84632
 20
80127.654065
 30
0.0
 40
0.0246295791660011
  0
CIRCLE
  5
29D
330
58E
100
AcDbEntity
  8
Level 10
  6
Continuous
 62
     7
370
    13
100
AcDbCircle
 10
61202.84632
 20
80127.654065
 30
0.0
 40
0.0215815791660011
  0
CIRCLE
  5
29E
330
58E
100
AcDbEntity
  8
Level 10
  6
Continuous
 62
     7
370
    13
100
AcDbCircle
 10
61202.84632
 20
80127.654065
 30
0.0
 40
0.0185335791660011
  0
CIRCLE
  5
29F
330
58E
100
AcDbEntity
  8
Level 10
  6
Continuous
 62
     7
370
    13
100
AcDbCircle
 10
61202.84632
 20
80127.654065
 30
0.0
 40
0.0154855791660011
  0
CIRCLE
  5
2A0
330
58E
100
AcDbEntity
  8
Level 10
  6
Continuous
 62
     7
370
    13
100
AcDbCircle
 10
61202.84632
 20
80127.654065
 30
0.0
 40
0.0124375791660011
  0
CIRCLE
  5
2A1
330
58E
100
AcDbEntity
  8
Level 10
  6
Continuous
 62
     7
370
    13
100
AcDbCircle
 10
61202.84632
 20
80127.654065
 30
0.0
 40
0.0093895791660011
  0
CIRCLE
  5
2A2
330
58E
100
AcDbEntity
  8
Level 10
  6
Continuous
 62
     7
370
    13
100
AcDbCircle
 10
61202.84632
 20
80127.654065
 30
0.0
 40
0.0063415791660011
  0
CIRCLE
  5
2A3
330
58E
100
AcDbEntity
  8
Level 10
  6
Continuous
 62
     7
370
    13
100
AcDbCircle
 10
61202.84632
 20
80127.654065
 30
0.0
 40
0.0032935791660011
  0
CIRCLE
  5
2A4
330
58E
100
AcDbEntity
  8
Level 10
  6
Continuous
 62
     7
370
    13
100
AcDbCircle
 10
61211.99032
 20
80127.654065
 30
0.0
 40
0.0612055791660011
  0
CIRCLE
  5
2A5
330
58E
100
AcDbEntity
  8
Level 10
  6
Continuous
 62
     7
370
    13
100
AcDbCircle
 10
61211.99032
 20
80127.654065
 30
0.0
 40
0.0581575791660011
  0
CIRCLE
  5
2A6
330
58E
100
AcDbEntity
  8
Level 10
  6
Continuous
 62
     7
370
    13
100
AcDbCircle
 10
61211.99032
 20
80127.654065
 30
0.0
 40
0.0551095791660011
  0
CIRCLE
  5
2A7
330
58E
100
AcDbEntity
  8
Level 10
  6
Continuous
 62
     7
370
    13
100
AcDbCircle
 10
61211.99032
 20
80127.654065
 30
0.0
 40
0.0520615791660011
  0
CIRCLE
  5
2A8
330
58E
100
AcDbEntity
  8
Level 10
  6
Continuous
 62
     7
370
    13
100
AcDbCircle
 10
61211.99032
 20
80127.654065
 30
0.0
 40
0.0490135791660011
  0
CIRCLE
  5
2A9
330
58E
100
AcDbEntity
  8
Level 10
  6
Continuous
 62
     7
370
    13
100
AcDbCircle
 10
61211.99032
 20
80127.654065
 30
0.0
 40
0.0459655791660011
  0
CIRCLE
  5
2AA
330
58E
100
AcDbEntity
  8
Level 10
  6
Continuous
 62
     7
370
    13
100
AcDbCircle
 10
61211.99032
 20
80127.654065
 30
0.0
 40
0.0429175791660011
  0
CIRCLE
  5
2AB
330
58E
100
AcDbEntity
  8
Level 10
  6
Continuous
 62
     7
370
    13
100
AcDbCircle
 10
61211.99032
 20
80127.654065
 30
0.0
 40
0.0398695791660011
  0
CIRCLE
  5
2AC
330
58E
100
AcDbEntity
  8
Level 10
  6
Continuous
 62
     7
370
    13
100
AcDbCircle
 10
61211.99032
 20
80127.654065
 30
0.0
 40
0.0368215791660011
  0
CIRCLE
  5
2AD
330
58E
100
AcDbEntity
  8
Level 10
  6
Continuous
 62
     7
370
    13
100
AcDbCircle
 10
61211.99032
 20
80127.654065
 30
0.0
 40
0.0337735791660011
  0
CIRCLE
  5
2AE
330
58E
100
AcDbEntity
  8
Level 10
  6
Continuous
 62
     7
370
    13
100
AcDbCircle
 10
61211.99032
 20
80127.654065
 30
0.0
 40
0.0307255791660011
  0
CIRCLE
  5
2AF
330
58E
100
AcDbEntity
  8
Level 10
  6
Continuous
 62
     7
370
    13
100
AcDbCircle
 10
61211.99032
 20
80127.654065
 30
0.0
 40
0.0276775791660011
  0
CIRCLE
  5
2B0
330
58E
100
AcDbEntity
  8
Level 10
  6
Continuous
 62
     7
370
    13
100
AcDbCircle
 10
61211.99032
 20
80127.654065
 30
0.0
 40
0.0246295791660011
  0
CIRCLE
  5
2B1
330
58E
100
AcDbEntity
  8
Level 10
  6
Continuous
 62
     7
370
    13
100
AcDbCircle
 10
61211.99032
 20
80127.654065
 30
0.0
 40
0.0215815791660011
  0
CIRCLE
  5
2B2
330
58E
100
AcDbEntity
  8
Level 10
  6
Continuous
 62
     7
370
    13
100
AcDbCircle
 10
61211.99032
 20
80127.654065
 30
0.0
 40
0.0185335791660011
  0
CIRCLE
  5
2B3
330
58E
100
AcDbEntity
  8
Level 10
  6
Continuous
 62
     7
370
    13
100
AcDbCircle
 10
61211.99032
 20
80127.654065
 30
0.0
 40
0.0154855791660011
  0
CIRCLE
  5
2B4
330
58E
100
AcDbEntity
  8
Level 10
  6
Continuous
 62
     7
370
    13
100
AcDbCircle
 10
61211.99032
 20
80127.654065
 30
0.0
 40
0.0124375791660011
  0
CIRCLE
  5
2B5
330
58E
100
AcDbEntity
  8
Level 10
  6
Continuous
 62
     7
370
    13
100
AcDbCircle
 10
61211.99032
 20
80127.654065
 30
0.0
 40
0.0093895791660011
  0
CIRCLE
  5
2B6
330
58E
100
AcDbEntity
  8
Level 10
  6
Continuous
 62
     7
370
    13
100
AcDbCircle
 10
61211.99032
 20
80127.654065
 30
0.0
 40
0.0063415791660011
  0
CIRCLE
  5
2B7
330
58E
100
AcDbEntity
  8
Level 10
  6
Continuous
 62
     7
370
    13
100
AcDbCircle
 10
61211.99032
 20
80127.654065
 30
0.0
 40
0.0032935791660011
  0
LINE
  5
2BA
330
58E
100
AcDbEntity
  8
Level 46
  6
Continuous
 62
     7
370
     0
100
AcDbLine
 10
61211.9903
 20
80128.4684
 30
0.0
 11
61211.9903
 21
80127.6541
 31
0.0
  0
LINE
  5
2BB
330
58E
100
AcDbEntity
  8
Level 46
  6
Continuous
 62
     7
370
     0
100
AcDbLine
 10
61211.9903
 20
80128.1636
 30
0.0
 11
61215.4193
 21
80128.1636
 31
0.0
  0
INSERT
  5
2BC
330
58E
100
AcDbEntity
  8
Level 46
  6
Continuous
 62
     7
370
    13
100
AcDbBlockReference
  2
LARROW_1
 10
-61211.9903
 20
80128.1636
 30
0.0
 41
1.524
 42
1.524
 43
1.524
210
0.0
220
0.0
230
-1.0
  0
INSERT
  5
2BE
330
58E
100
AcDbEntity
  8
Level 46
  6
Continuous
 62
     7
370
    13
100
AcDbBlockReference
  2
LARROW_1
 10
-61215.4193
 20
80128.1636
 30
0.0
 41
1.524
 42
1.524
 43
1.524
 50
180.0
210
0.0
220
0.0
230
-1.0
  0
LINE
  5
2C1
330
58E
100
AcDbEntity
  8
Level 46
  6
Continuous
 62
     7
370
     0
100
AcDbLine
 10
61215.4193
 20
80128.4639
 30
0.0
 11
61216.1787
 21
80128.4639
 31
0.0
  0
CIRCLE
  5
2C2
330
58E
100
AcDbEntity
  8
Level 10
  6
Continuous
 62
     7
370
    13
100
AcDbCircle
 10
61207.937048
 20
80128.283556
 30
0.0
 40
0.0612055791660011
  0
CIRCLE
  5
2C3
330
58E
100
AcDbEntity
  8
Level 10
  6
Continuous
 62
     7
370
    13
100
AcDbCircle
 10
61207.937048
 20
80128.283556
 30
0.0
 40
0.0581575791660011
  0
CIRCLE
  5
2C4
330
58E
100
AcDbEntity
  8
Level 10
  6
Continuous
 62
     7
370
    13
100
AcDbCircle
 10
61207.937048
 20
80128.283556
 30
0.0
 40
0.0551095791660011
  0
CIRCLE
  5
2C5
330
58E
100
AcDbEntity
  8
Level 10
  6
Continuous
 62
     7
370
    13
100
AcDbCircle
 10
61207.937048
 20
80128.283556
 30
0.0
 40
0.0520615791660011
  0
CIRCLE
  5
2C6
330
58E
100
AcDbEntity
  8
Level 10
  6
Continuous
 62
     7
370
    13
100
AcDbCircle
 10
61207.937048
 20
80128.283556
 30
0.0
 40
0.0490135791660011
  0
CIRCLE
  5
2C7
330
58E
100
AcDbEntity
  8
Level 10
  6
Continuous
 62
     7
370
    13
100
AcDbCircle
 10
61207.937048
 20
80128.283556
 30
0.0
 40
0.0459655791660011
  0
CIRCLE
  5
2C8
330
58E
100
AcDbEntity
  8
Level 10
  6
Continuous
 62
     7
370
    13
100
AcDbCircle
 10
61207.937048
 20
80128.283556
 30
0.0
 40
0.0429175791660011
  0
CIRCLE
  5
2C9
330
58E
100
AcDbEntity
  8
Level 10
  6
Continuous
 62
     7
370
    13
100
AcDbCircle
 10
61207.937048
 20
80128.283556
 30
0.0
 40
0.0398695791660011
  0
CIRCLE
  5
2CA
330
58E
100
AcDbEntity
  8
Level 10
  6
Continuous
 62
     7
370
    13
100
AcDbCircle
 10
61207.937048
 20
80128.283556
 30
0.0
 40
0.0368215791660011
  0
CIRCLE
  5
2CB
330
58E
100
AcDbEntity
  8
Level 10
  6
Continuous
 62
     7
370
    13
100
AcDbCircle
 10
61207.937048
 20
80128.283556
 30
0.0
 40
0.0337735791660011
  0
CIRCLE
  5
2CC
330
58E
100
AcDbEntity
  8
Level 10
  6
Continuous
 62
     7
370
    13
100
AcDbCircle
 10
61207.937048
 20
80128.283556
 30
0.0
 40
0.0307255791660011
  0
CIRCLE
  5
2CD
330
58E
100
AcDbEntity
  8
Level 10
  6
Continuous
 62
     7
370
    13
100
AcDbCircle
 10
61207.937048
 20
80128.283556
 30
0.0
 40
0.0276775791660011
  0
CIRCLE
  5
2CE
330
58E
100
AcDbEntity
  8
Level 10
  6
Continuous
 62
     7
370
    13
100
AcDbCircle
 10
61207.937048
 20
80128.283556
 30
0.0
 40
0.0246295791660011
  0
CIRCLE
  5
2CF
330
58E
100
AcDbEntity
  8
Level 10
  6
Continuous
 62
     7
370
    13
100
AcDbCircle
 10
61207.937048
 20
80128.283556
 30
0.0
 40
0.0215815791660011
  0
CIRCLE
  5
2D0
330
58E
100
AcDbEntity
  8
Level 10
  6
Continuous
 62
     7
370
    13
100
AcDbCircle
 10
61207.937048
 20
80128.283556
 30
0.0
 40
0.0185335791660011
  0
CIRCLE
  5
2D1
330
58E
100
AcDbEntity
  8
Level 10
  6
Continuous
 62
     7
370
    13
100
AcDbCircle
 10
61207.937048
 20
80128.283556
 30
0.0
 40
0.0154855791660011
  0
CIRCLE
  5
2D2
330
58E
100
AcDbEntity
  8
Level 10
  6
Continuous
 62
     7
370
    13
100
AcDbCircle
 10
61207.937048
 20
80128.283556
 30
0.0
 40
0.0124375791660011
  0
CIRCLE
  5
2D3
330
58E
100
AcDbEntity
  8
Level 10
  6
Continuous
 62
     7
370
    13
100
AcDbCircle
 10
61207.937048
 20
80128.283556
 30
0.0
 40
0.0093895791660011
  0
CIRCLE
  5
2D4
330
58E
100
AcDbEntity
  8
Level 10
  6
Continuous
 62
     7
370
    13
100
AcDbCircle
 10
61207.937048
 20
80128.283556
 30
0.0
 40
0.0063415791660011
  0
CIRCLE
  5
2D5
330
58E
100
AcDbEntity
  8
Level 10
  6
Continuous
 62
     7
370
    13
100
AcDbCircle
 10
61207.937048
 20
80128.283556
 30
0.0
 40
0.0032935791660011
  0
CIRCLE
  5
2D8
330
58E
100
AcDbEntity
  8
Level 10
  6
Continuous
 62
     7
370
    13
100
AcDbCircle
 10
61208.86612
 20
80129.089165
 30
0.0
 40
0.0612055791660011
  0
CIRCLE
  5
2D9
330
58E
100
AcDbEntity
  8
Level 10
  6
Continuous
 62
     7
370
    13
100
AcDbCircle
 10
61208.86612
 20
80129.089165
 30
0.0
 40
0.0581575791660011
  0
CIRCLE
  5
2DA
330
58E
100
AcDbEntity
  8
Level 10
  6
Continuous
 62
     7
370
    13
100
AcDbCircle
 10
61208.86612
 20
80129.089165
 30
0.0
 40
0.0551095791660011
  0
CIRCLE
  5
2DB
330
58E
100
AcDbEntity
  8
Level 10
  6
Continuous
 62
     7
370
    13
100
AcDbCircle
 10
61208.86612
 20
80129.089165
 30
0.0
 40
0.0520615791660011
  0
CIRCLE
  5
2DC
330
58E
100
AcDbEntity
  8
Level 10
  6
Continuous
 62
     7
370
    13
100
AcDbCircle
 10
61208.86612
 20
80129.089165
 30
0.0
 40
0.0490135791660011
  0
CIRCLE
  5
2DD
330
58E
100
AcDbEntity
  8
Level 10
  6
Continuous
 62
     7
370
    13
100
AcDbCircle
 10
61208.86612
 20
80129.089165
 30
0.0
 40
0.0459655791660011
  0
CIRCLE
  5
2DE
330
58E
100
AcDbEntity
  8
Level 10
  6
Continuous
 62
     7
370
    13
100
AcDbCircle
 10
61208.86612
 20
80129.089165
 30
0.0
 40
0.0429175791660011
  0
CIRCLE
  5
2DF
330
58E
100
AcDbEntity
  8
Level 10
  6
Continuous
 62
     7
370
    13
100
AcDbCircle
 10
61208.86612
 20
80129.089165
 30
0.0
 40
0.0398695791660011
  0
CIRCLE
  5
2E0
330
58E
100
AcDbEntity
  8
Level 10
  6
Continuous
 62
     7
370
    13
100
AcDbCircle
 10
61208.86612
 20
80129.089165
 30
0.0
 40
0.0368215791660011
  0
CIRCLE
  5
2E1
330
58E
100
AcDbEntity
  8
Level 10
  6
Continuous
 62
     7
370
    13
100
AcDbCircle
 10
61208.86612
 20
80129.089165
 30
0.0
 40
0.0337735791660011
  0
CIRCLE
  5
2E2
330
58E
100
AcDbEntity
  8
Level 10
  6
Continuous
 62
     7
370
    13
100
AcDbCircle
 10
61208.86612
 20
80129.089165
 30
0.0
 40
0.0307255791660011
  0
CIRCLE
  5
2E3
330
58E
100
AcDbEntity
  8
Level 10
  6
Continuous
 62
     7
370
    13
100
AcDbCircle
 10
61208.86612
 20
80129.089165
 30
0.0
 40
0.0276775791660011
  0
CIRCLE
  5
2E4
330
58E
100
AcDbEntity
  8
Level 10
  6
Continuous
 62
     7
370
    13
100
AcDbCircle
 10
61208.86612
 20
80129.089165
 30
0.0
 40
0.0246295791660011
  0
CIRCLE
  5
2E5
330
58E
100
AcDbEntity
  8
Level 10
  6
Continuous
 62
     7
370
    13
100
AcDbCircle
 10
61208.86612
 20
80129.089165
 30
0.0
 40
0.0215815791660011
  0
CIRCLE
  5
2E6
330
58E
100
AcDbEntity
  8
Level 10
  6
Continuous
 62
     7
370
    13
100
AcDbCircle
 10
61208.86612
 20
80129.089165
 30
0.0
 40
0.0185335791660011
  0
CIRCLE
  5
2E7
330
58E
100
AcDbEntity
  8
Level 10
  6
Continuous
 62
     7
370
    13
100
AcDbCircle
 10
61208.86612
 20
80129.089165
 30
0.0
 40
0.0154855791660011
  0
CIRCLE
  5
2E8
330
58E
100
AcDbEntity
  8
Level 10
  6
Continuous
 62
     7
370
    13
100
AcDbCircle
 10
61208.86612
 20
80129.089165
 30
0.0
 40
0.0124375791660011
  0
CIRCLE
  5
2E9
330
58E
100
AcDbEntity
  8
Level 10
  6
Continuous
 62
     7
370
    13
100
AcDbCircle
 10
61208.86612
 20
80129.089165
 30
0.0
 40
0.0093895791660011
  0
CIRCLE
  5
2EA
330
58E
100
AcDbEntity
  8
Level 10
  6
Continuous
 62
     7
370
    13
100
AcDbCircle
 10
61208.86612
 20
80129.089165
 30
0.0
 40
0.0063415791660011
  0
CIRCLE
  5
2EB
330
58E
100
AcDbEntity
  8
Level 10
  6
Continuous
 62
     7
370
    13
100
AcDbCircle
 10
61208.86612
 20
80129.089165
 30
0.0
 40
0.0032935791660011
  0
CIRCLE
  5
2EC
330
58E
100
AcDbEntity
  8
Level 10
  6
Continuous
 62
     7
370
    13
100
AcDbCircle
 10
61208.219004
 20
80129.748358
 30
0.0
 40
0.0612055791660011
  0
CIRCLE
  5
2ED
330
58E
100
AcDbEntity
  8
Level 10
  6
Continuous
 62
     7
370
    13
100
AcDbCircle
 10
61208.219004
 20
80129.748358
 30
0.0
 40
0.0581575791660011
  0
CIRCLE
  5
2EE
330
58E
100
AcDbEntity
  8
Level 10
  6
Continuous
 62
     7
370
    13
100
AcDbCircle
 10
61208.219004
 20
80129.748358
 30
0.0
 40
0.0551095791660011
  0
CIRCLE
  5
2EF
330
58E
100
AcDbEntity
  8
Level 10
  6
Continuous
 62
     7
370
    13
100
AcDbCircle
 10
61208.219004
 20
80129.748358
 30
0.0
 40
0.0520615791660011
  0
CIRCLE
  5
2F0
330
58E
100
AcDbEntity
  8
Level 10
  6
Continuous
 62
     7
370
    13
100
AcDbCircle
 10
61208.219004
 20
80129.748358
 30
0.0
 40
0.0490135791660011
  0
CIRCLE
  5
2F1
330
58E
100
AcDbEntity
  8
Level 10
  6
Continuous
 62
     7
370
    13
100
AcDbCircle
 10
61208.219004
 20
80129.748358
 30
0.0
 40
0.0459655791660011
  0
CIRCLE
  5
2F2
330
58E
100
AcDbEntity
  8
Level 10
  6
Continuous
 62
     7
370
    13
100
AcDbCircle
 10
61208.219004
 20
80129.748358
 30
0.0
 40
0.0429175791660011
  0
CIRCLE
  5
2F3
330
58E
100
AcDbEntity
  8
Level 10
  6
Continuous
 62
     7
370
    13
100
AcDbCircle
 10
61208.219004
 20
80129.748358
 30
0.0
 40
0.0398695791660011
  0
CIRCLE
  5
2F4
330
58E
100
AcDbEntity
  8
Level 10
  6
Continuous
 62
     7
370
    13
100
AcDbCircle
 10
61208.219004
 20
80129.748358
 30
0.0
 40
0.0368215791660011
  0
CIRCLE
  5
2F5
330
58E
100
AcDbEntity
  8
Level 10
  6
Continuous
 62
     7
370
    13
100
AcDbCircle
 10
61208.219004
 20
80129.748358
 30
0.0
 40
0.0337735791660011
  0
CIRCLE
  5
2F6
330
58E
100
AcDbEntity
  8
Level 10
  6
Continuous
 62
     7
370
    13
100
AcDbCircle
 10
61208.219004
 20
80129.748358
 30
0.0
 40
0.0307255791660011
  0
CIRCLE
  5
2F7
330
58E
100
AcDbEntity
  8
Level 10
  6
Continuous
 62
     7
370
    13
100
AcDbCircle
 10
61208.219004
 20
80129.748358
 30
0.0
 40
0.0276775791660011
  0
CIRCLE
  5
2F8
330
58E
100
AcDbEntity
  8
Level 10
  6
Continuous
 62
     7
370
    13
100
AcDbCircle
 10
61208.219004
 20
80129.748358
 30
0.0
 40
0.0246295791660011
  0
CIRCLE
  5
2F9
330
58E
100
AcDbEntity
  8
Level 10
  6
Continuous
 62
     7
370
    13
100
AcDbCircle
 10
61208.219004
 20
80129.748358
 30
0.0
 40
0.0215815791660011
  0
CIRCLE
  5
2FA
330
58E
100
AcDbEntity
  8
Level 10
  6
Continuous
 62
     7
370
    13
100
AcDbCircle
 10
61208.219004
 20
80129.748358
 30
0.0
 40
0.0185335791660011
  0
CIRCLE
  5
2FB
330
58E
100
AcDbEntity
  8
Level 10
  6
Continuous
 62
     7
370
    13
100
AcDbCircle
 10
61208.219004
 20
80129.748358
 30
0.0
 40
0.0154855791660011
  0
CIRCLE
  5
2FC
330
58E
100
AcDbEntity
  8
Level 10
  6
Continuous
 62
     7
370
    13
100
AcDbCircle
 10
61208.219004
 20
80129.748358
 30
0.0
 40
0.0124375791660011
  0
CIRCLE
  5
2FD
330
58E
100
AcDbEntity
  8
Level 10
  6
Continuous
 62
     7
370
    13
100
AcDbCircle
 10
61208.219004
 20
80129.748358
 30
0.0
 40
0.0093895791660011
  0
CIRCLE
  5
2FE
330
58E
100
AcDbEntity
  8
Level 10
  6
Continuous
 62
     7
370
    13
100
AcDbCircle
 10
61208.219004
 20
80129.748358
 30
0.0
 40
0.0063415791660011
  0
CIRCLE
  5
2FF
330
58E
100
AcDbEntity
  8
Level 10
  6
Continuous
 62
     7
370
    13
100
AcDbCircle
 10
61208.219004
 20
80129.748358
 30
0.0
 40
0.0032935791660011
  0
CIRCLE
  5
300
330
58E
100
AcDbEntity
  8
Level 10
  6
Continuous
 62
     7
370
    13
100
AcDbCircle
 10
61202.289307
 20
80129.347968
 30
0.0
 40
0.0612055791660011
  0
CIRCLE
  5
301
330
58E
100
AcDbEntity
  8
Level 10
  6
Continuous
 62
     7
370
    13
100
AcDbCircle
 10
61202.289307
 20
80129.347968
 30
0.0
 40
0.0581575791660011
  0
CIRCLE
  5
302
330
58E
100
AcDbEntity
  8
Level 10
  6
Continuous
 62
     7
370
    13
100
AcDbCircle
 10
61202.289307
 20
80129.347968
 30
0.0
 40
0.0551095791660011
  0
CIRCLE
  5
303
330
58E
100
AcDbEntity
  8
Level 10
  6
Continuous
 62
     7
370
    13
100
AcDbCircle
 10
61202.289307
 20
80129.347968
 30
0.0
 40
0.0520615791660011
  0
CIRCLE
  5
304
330
58E
100
AcDbEntity
  8
Level 10
  6
Continuous
 62
     7
370
    13
100
AcDbCircle
 10
61202.289307
 20
80129.347968
 30
0.0
 40
0.0490135791660011
  0
CIRCLE
  5
305
330
58E
100
AcDbEntity
  8
Level 10
  6
Continuous
 62
     7
370
    13
100
AcDbCircle
 10
61202.289307
 20
80129.347968
 30
0.0
 40
0.0459655791660011
  0
CIRCLE
  5
306
330
58E
100
AcDbEntity
  8
Level 10
  6
Continuous
 62
     7
370
    13
100
AcDbCircle
 10
61202.289307
 20
80129.347968
 30
0.0
 40
0.0429175791660011
  0
CIRCLE
  5
307
330
58E
100
AcDbEntity
  8
Level 10
  6
Continuous
 62
     7
370
    13
100
AcDbCircle
 10
61202.289307
 20
80129.347968
 30
0.0
 40
0.0398695791660011
  0
CIRCLE
  5
308
330
58E
100
AcDbEntity
  8
Level 10
  6
Continuous
 62
     7
370
    13
100
AcDbCircle
 10
61202.289307
 20
80129.347968
 30
0.0
 40
0.0368215791660011
  0
CIRCLE
  5
309
330
58E
100
AcDbEntity
  8
Level 10
  6
Continuous
 62
     7
370
    13
100
AcDbCircle
 10
61202.289307
 20
80129.347968
 30
0.0
 40
0.0337735791660011
  0
CIRCLE
  5
30A
330
58E
100
AcDbEntity
  8
Level 10
  6
Continuous
 62
     7
370
    13
100
AcDbCircle
 10
61202.289307
 20
80129.347968
 30
0.0
 40
0.0307255791660011
  0
CIRCLE
  5
30B
330
58E
100
AcDbEntity
  8
Level 10
  6
Continuous
 62
     7
370
    13
100
AcDbCircle
 10
61202.289307
 20
80129.347968
 30
0.0
 40
0.0276775791660011
  0
CIRCLE
  5
30C
330
58E
100
AcDbEntity
  8
Level 10
  6
Continuous
 62
     7
370
    13
100
AcDbCircle
 10
61202.289307
 20
80129.347968
 30
0.0
 40
0.0246295791660011
  0
CIRCLE
  5
30D
330
58E
100
AcDbEntity
  8
Level 10
  6
Continuous
 62
     7
370
    13
100
AcDbCircle
 10
61202.289307
 20
80129.347968
 30
0.0
 40
0.0215815791660011
  0
CIRCLE
  5
30E
330
58E
100
AcDbEntity
  8
Level 10
  6
Continuous
 62
     7
370
    13
100
AcDbCircle
 10
61202.289307
 20
80129.347968
 30
0.0
 40
0.0185335791660011
  0
CIRCLE
  5
30F
330
58E
100
AcDbEntity
  8
Level 10
  6
Continuous
 62
     7
370
    13
100
AcDbCircle
 10
61202.289307
 20
80129.347968
 30
0.0
 40
0.0154855791660011
  0
CIRCLE
  5
310
330
58E
100
AcDbEntity
  8
Level 10
  6
Continuous
 62
     7
370
    13
100
AcDbCircle
 10
61202.289307
 20
80129.347968
 30
0.0
 40
0.0124375791660011
  0
CIRCLE
  5
311
330
58E
100
AcDbEntity
  8
Level 10
  6
Continuous
 62
     7
370
    13
100
AcDbCircle
 10
61202.289307
 20
80129.347968
 30
0.0
 40
0.0093895791660011
  0
CIRCLE
  5
312
330
58E
100
AcDbEntity
  8
Level 10
  6
Continuous
 62
     7
370
    13
100
AcDbCircle
 10
61202.289307
 20
80129.347968
 30
0.0
 40
0.0063415791660011
  0
CIRCLE
  5
313
330
58E
100
AcDbEntity
  8
Level 10
  6
Continuous
 62
     7
370
    13
100
AcDbCircle
 10
61202.289307
 20
80129.347968
 30
0.0
 40
0.0032935791660011
  0
LINE
  5
315
330
58E
100
AcDbEntity
  8
Level 46
  6
Continuous
 62
     7
370
     0
100
AcDbLine
 10
61214.1291
 20
80130.3863
 30
0.0
 11
61214.2574
 21
80129.3644
 31
0.0
  0
LINE
  5
316
330
58E
100
AcDbEntity
  8
Level 46
  6
Continuous
 62
     7
370
     0
100
AcDbLine
 10
61215.4178
 20
80129.1017
 30
0.0
 11
61215.2914
 21
80130.1085
 31
0.0
  0
LINE
  5
317
330
58E
100
AcDbEntity
  8
Level 46
  6
Continuous
 62
     7
370
     0
100
AcDbLine
 10
61214.2194
 20
80129.6668
 30
0.0
 11
61215.3294
 21
80129.8061
 31
0.0
  0
INSERT
  5
318
330
58E
100
AcDbEntity
  8
Level 46
  6
Continuous
 62
     7
370
     0
100
AcDbBlockReference
  2
LARROW
 10
-61215.3294
 20
80129.8061
 30
0.0
 41
1.524
 42
1.524
 43
1.524
 50
172.847211
210
0.0
220
0.0
230
-0.9999999999999999
  0
INSERT
  5
31A
330
58E
100
AcDbEntity
  8
Level 46
  6
Continuous
 62
     7
370
     0
100
AcDbBlockReference
  2
LARROW
 10
-61214.2194
 20
80129.6668
 30
0.0
 41
1.524
 42
1.524
 43
1.524
 50
352.847211
210
0.0
220
0.0
230
-0.9999999999999999
  0
LINE
  5
31F
330
58E
100
AcDbEntity
  8
Level 46
  6
Continuous
 62
     7
370
     0
100
AcDbLine
 10
61190.4511
 20
80127.6541
 30
0.0
 11
61190.4511
 21
80128.4501
 31
0.0
  0
LINE
  5
320
330
58E
100
AcDbEntity
  8
Level 46
  6
Continuous
 62
     7
370
     0
100
AcDbLine
 10
61190.9591
 20
80130.0245
 30
0.0
 11
61190.9591
 21
80129.0892
 31
0.0
  0
LINE
  5
321
330
58E
100
AcDbEntity
  8
Level 47
  6
Continuous
 62
     7
370
    53
100
AcDbLine
 10
61199.345074
 20
80125.8488
 30
0.0
 11
61206.580735
 21
80125.8488
 31
0.0
  0
LINE
  5
322
330
58E
100
AcDbEntity
  8
Level 46
  6
Continuous
 62
     7
370
    13
100
AcDbLine
 10
61213.272
 20
80122.5347
 30
0.0
 11
61193.5832
 21
80122.5347
 31
0.0
  0
LINE
  5
329
330
58E
100
AcDbEntity
  8
Level 46
  6
Continuous
 62
     7
370
    13
100
AcDbLine
 10
61213.272
 20
80122.2341
 30
0.0
 11
61193.5832
 21
80122.2341
 31
0.0
  0
LINE
  5
32A
330
58E
100
AcDbEntity
  8
Level 46
  6
Continuous
 62
     7
370
    13
100
AcDbLine
 10
61213.272
 20
80121.9335
 30
0.0
 11
61193.5832
 21
80121.9335
 31
0.0
  0
LINE
  5
32B
330
58E
100
AcDbEntity
  8
Level 46
  6
Continuous
 62
     7
370
    13
100
AcDbLine
 10
61213.272
 20
80121.6329
 30
0.0
 11
61193.5832
 21
80121.6329
 31
0.0
  0
LINE
  5
32C
330
58E
100
AcDbEntity
  8
Level 46
  6
Continuous
 62
     7
370
    13
100
AcDbLine
 10
61193.5832
 20
80125.0396
 30
0.0
 11
61193.5832
 21
80121.6329
 31
0.0
  0
LINE
  5
330
330
58E
100
AcDbEntity
  8
Level 46
  6
Continuous
 62
     7
370
    13
100
AcDbLine
 10
61208.1619
 20
80122.8353
 30
0.0
 11
61197.9418
 21
80122.8353
 31
0.0
  0
LINE
  5
331
330
58E
100
AcDbEntity
  8
Level 46
  6
Continuous
 62
     7
370
    13
100
AcDbLine
 10
61194.1844
 20
80124.6388
 30
0.0
 11
61194.1844
 21
80121.6329
 31
0.0
  0
LINE
  5
333
330
58E
100
AcDbEntity
  8
Level 46
  6
Continuous
 62
     7
370
    13
100
AcDbLine
 10
61195.3868
 20
80124.6388
 30
0.0
 11
61195.3868
 21
80121.6329
 31
0.0
  0
LINE
  5
334
330
58E
100
AcDbEntity
  8
Level 46
  6
Continuous
 62
     7
370
    13
100
AcDbLine
 10
61213.272
 20
80125.0396
 30
0.0
 11
61193.5832
 21
80125.0396
 31
0.0
  0
LINE
  5
33E
330
58E
100
AcDbEntity
  8
Level 46
  6
Continuous
 62
     7
370
    13
100
AcDbLine
 10
61196.5892
 20
80124.6388
 30
0.0
 11
61196.5892
 21
80121.6329
 31
0.0
  0
LINE
  5
33F
330
58E
100
AcDbEntity
  8
Level 46
  6
Continuous
 62
     7
370
    13
100
AcDbLine
 10
61197.9418
 20
80124.6388
 30
0.0
 11
61197.9418
 21
80121.6329
 31
0.0
  0
LINE
  5
340
330
58E
100
AcDbEntity
  8
Level 46
  6
Continuous
 62
     7
370
    13
100
AcDbLine
 10
61199.2945
 20
80122.8353
 30
0.0
 11
61199.2945
 21
80121.6329
 31
0.0
  0
LINE
  5
341
330
58E
100
AcDbEntity
  8
Level 46
  6
Continuous
 62
     7
370
    13
100
AcDbLine
 10
61200.6471
 20
80123.4364
 30
0.0
 11
61200.6471
 21
80121.6329
 31
0.0
  0
LINE
  5
342
330
58E
100
AcDbEntity
  8
Level 46
  6
Continuous
 62
     7
370
    13
100
AcDbLine
 10
61201.9998
 20
80122.8353
 30
0.0
 11
61201.9998
 21
80121.6329
 31
0.0
  0
LINE
  5
345
330
58E
100
AcDbEntity
  8
Level 46
  6
Continuous
 62
     7
370
    13
100
AcDbLine
 10
61203.3525
 20
80124.6388
 30
0.0
 11
61203.3525
 21
80121.6329
 31
0.0
  0
LINE
  5
346
330
58E
100
AcDbEntity
  8
Level 46
  6
Continuous
 62
     7
370
    13
100
AcDbLine
 10
61205.4566
 20
80123.4364
 30
0.0
 11
61205.4566
 21
80121.6329
 31
0.0
  0
LINE
  5
347
330
58E
100
AcDbEntity
  8
Level 46
  6
Continuous
 62
     7
370
    13
100
AcDbLine
 10
61206.8093
 20
80122.8353
 30
0.0
 11
61206.8093
 21
80121.6329
 31
0.0
  0
LINE
  5
34A
330
58E
100
AcDbEntity
  8
Level 46
  6
Continuous
 62
     7
370
    13
100
AcDbLine
 10
61205.4566
 20
80122.8353
 30
0.0
 11
61205.4566
 21
80121.6329
 31
0.0
  0
LINE
  5
34C
330
58E
100
AcDbEntity
  8
Level 46
  6
Continuous
 62
     7
370
    13
100
AcDbLine
 10
61206.8093
 20
80122.8353
 30
0.0
 11
61206.8093
 21
80121.6329
 31
0.0
  0
LINE
  5
34D
330
58E
100
AcDbEntity
  8
Level 46
  6
Continuous
 62
     7
370
    13
100
AcDbLine
 10
61208.1619
 20
80124.6388
 30
0.0
 11
61208.1619
 21
80121.6329
 31
0.0
  0
LINE
  5
34E
330
58E
100
AcDbEntity
  8
Level 46
  6
Continuous
 62
     7
370
    13
100
AcDbLine
 10
61206.8093
 20
80122.8353
 30
0.0
 11
61206.8093
 21
80121.6329
 31
0.0
  0
LINE
  5
350
330
58E
100
AcDbEntity
  8
Level 46
  6
Continuous
 62
     7
370
    13
100
AcDbLine
 10
61208.1619
 20
80122.8353
 30
0.0
 11
61208.1619
 21
80121.6329
 31
0.0
  0
LINE
  5
357
330
58E
100
AcDbEntity
  8
Level 46
  6
Continuous
 62
     7
370
    13
100
AcDbLine
 10
61209.3643
 20
80124.6388
 30
0.0
 11
61209.3643
 21
80121.6329
 31
0.0
  0
LINE
  5
358
330
58E
100
AcDbEntity
  8
Level 46
  6
Continuous
 62
     7
370
    13
100
AcDbLine
 10
61210.5667
 20
80124.6388
 30
0.0
 11
61210.5667
 21
80121.6329
 31
0.0
  0
LINE
  5
359
330
58E
100
AcDbEntity
  8
Level 46
  6
Continuous
 62
     7
370
    13
100
AcDbLine
 10
61213.272
 20
80124.6388
 30
0.0
 11
61193.5832
 21
80124.6388
 31
0.0
  0
LINE
  5
35C
330
58E
100
AcDbEntity
  8
Level 46
  6
Continuous
 62
     7
370
    13
100
AcDbLine
 10
61208.1619
 20
80123.4364
 30
0.0
 11
61203.3525
 21
80123.4364
 31
0.0
  0
LINE
  5
35D
330
58E
100
AcDbEntity
  8
Level 46
  6
Continuous
 62
     7
370
    13
100
AcDbLine
 10
61203.3525
 20
80123.4364
 30
0.0
 11
61197.9418
 21
80123.4364
 31
0.0
  0
LINE
  5
362
330
58E
100
AcDbEntity
  8
Level 46
  6
Continuous
 62
     7
370
    13
100
AcDbLine
 10
61213.272
 20
80125.0396
 30
0.0
 11
61213.272
 21
80121.6329
 31
0.0
  0
LINE
  5
363
330
58E
100
AcDbEntity
  8
Level 46
  6
Continuous
 62
     7
370
    13
100
AcDbLine
 10
61212.0696
 20
80124.6388
 30
0.0
 11
61212.0696
 21
80121.6329
 31
0.0
  0
LINE
  5
369
330
58E
100
AcDbEntity
  8
Level 1
  6
Continuous
 62
     7
370
   106
100
AcDbLine
 10
61228.7514
 20
80142.05
 30
0.0
 11
61228.7514
 21
80141.75
 31
0.0
  0
LINE
  5
36A
330
58E
100
AcDbEntity
  8
Level 1
  6
Continuous
 62
     7
370
   106
100
AcDbLine
 10
61228.7514
 20
80141.75
 30
0.0
 11
61228.7514
 21
80113.25
 31
0.0
  0
LINE
  5
36B
330
58E
100
AcDbEntity
  8
Level 1
  6
Continuous
 62
     7
370
   106
100
AcDbLine
 10
61228.7514
 20
80113.25
 30
0.0
 11
61228.7514
 21
80112.95
 31
0.0
  0
LINE
  5
36C
330
58E
100
AcDbEntity
  8
Level 1
  6
Continuous
 62
     7
370
   106
100
AcDbLine
 10
61188.6514
 20
80113.25
 30
0.0
 11
61188.6514
 21
80141.75
 31
0.0
  0
LINE
  5
36D
330
58E
100
AcDbEntity
  8
Level 1
  6
Continuous
 62
     7
370
   106
100
AcDbLine
 10
61228.7514
 20
80113.25
 30
0.0
 11
61226.0514
 21
80113.25
 31
0.0
  0
LINE
  5
36E
330
58E
100
AcDbEntity
  8
Level 1
  6
Continuous
 62
     7
370
   106
100
AcDbLine
 10
61228.7514
 20
80113.25
 30
0.0
 11
61188.6514
 21
80113.25
 31
0.0
  0
LINE
  5
36F
330
58E
100
AcDbEntity
  8
Level 1
  6
Continuous
 62
     7
370
   106
100
AcDbLine
 10
61229.0514
 20
80141.75
 30
0.0
 11
61228.7514
 21
80141.75
 31
0.0
  0
LINE
  5
370
330
58E
100
AcDbEntity
  8
Level 1
  6
Continuous
 62
     7
370
   106
100
AcDbLine
 10
61226.0514
 20
80142.05
 30
0.0
 11
61226.0514
 21
80141.75
 31
0.0
  0
LINE
  5
371
330
58E
100
AcDbEntity
  8
Level 1
  6
Continuous
 62
     7
370
   106
100
AcDbLine
 10
61188.6514
 20
80141.75
 30
0.0
 11
61228.7514
 21
80141.75
 31
0.0
  0
LINE
  5
372
330
58E
100
AcDbEntity
  8
Level 1
  6
Continuous
 62
     7
370
   106
100
AcDbLine
 10
61226.0514
 20
80141.75
 30
0.0
 11
61228.7514
 21
80141.75
 31
0.0
  0
LINE
  5
373
330
58E
100
AcDbEntity
  8
Level 1
  6
Continuous
 62
     7
370
   106
100
AcDbLine
 10
61216.7014
 20
80142.05
 30
0.0
 11
61216.7014
 21
80141.75
 31
0.0
  0
LINE
  5
374
330
58E
100
AcDbEntity
  8
Level 1
  6
Continuous
 62
     7
370
   106
100
AcDbLine
 10
61207.3514
 20
80142.05
 30
0.0
 11
61207.3514
 21
80141.75
 31
0.0
  0
LINE
  5
375
330
58E
100
AcDbEntity
  8
Level 1
  6
Continuous
 62
     7
370
   106
100
AcDbLine
 10
61198.0014
 20
80142.05
 30
0.0
 11
61198.0014
 21
80141.75
 31
0.0
  0
LINE
  5
376
330
58E
100
AcDbEntity
  8
Level 1
  6
Continuous
 62
     7
370
   106
100
AcDbLine
 10
61188.6514
 20
80142.05
 30
0.0
 11
61188.6514
 21
80141.75
 31
0.0
  0
LINE
  5
377
330
58E
100
AcDbEntity
  8
Level 1
  6
Continuous
 62
     7
370
   106
100
AcDbLine
 10
61188.6514
 20
80141.75
 30
0.0
 11
61188.3514
 21
80141.75
 31
0.0
  0
LINE
  5
378
330
58E
100
AcDbEntity
  8
Level 1
  6
Continuous
 62
     7
370
   106
100
AcDbLine
 10
61229.0514
 20
80113.25
 30
0.0
 11
61228.7514
 21
80113.25
 31
0.0
  0
LINE
  5
379
330
58E
100
AcDbEntity
  8
Level 1
  6
Continuous
 62
     7
370
   106
100
AcDbLine
 10
61226.0514
 20
80113.25
 30
0.0
 11
61226.0514
 21
80112.95
 31
0.0
  0
LINE
  5
37A
330
58E
100
AcDbEntity
  8
Level 1
  6
Continuous
 62
     7
370
   106
100
AcDbLine
 10
61216.7014
 20
80113.25
 30
0.0
 11
61216.7014
 21
80112.95
 31
0.0
  0
LINE
  5
37B
330
58E
100
AcDbEntity
  8
Level 1
  6
Continuous
 62
     7
370
   106
100
AcDbLine
 10
61207.3514
 20
80113.25
 30
0.0
 11
61207.3514
 21
80112.95
 31
0.0
  0
LINE
  5
37C
330
58E
100
AcDbEntity
  8
Level 1
  6
Continuous
 62
     7
370
   106
100
AcDbLine
 10
61198.0014
 20
80113.25
 30
0.0
 11
61198.0014
 21
80112.95
 31
0.0
  0
LINE
  5
37D
330
58E
100
AcDbEntity
  8
Level 1
  6
Continuous
 62
     7
370
   106
100
AcDbLine
 10
61188.6514
 20
80113.25
 30
0.0
 11
61188.6514
 21
80112.95
 31
0.0
  0
LINE
  5
37E
330
58E
100
AcDbEntity
  8
Level 1
  6
Continuous
 62
     7
370
   106
100
AcDbLine
 10
61188.6514
 20
80113.25
 30
0.0
 11
61188.3514
 21
80113.25
 31
0.0
  0
LINE
  5
37F
330
58E
100
AcDbEntity
  8
Level 1
  6
Continuous
 62
     7
370
   106
100
AcDbLine
 10
61188.6514
 20
80132.25
 30
0.0
 11
61188.3514
 21
80132.25
 31
0.0
  0
LINE
  5
380
330
58E
100
AcDbEntity
  8
Level 1
  6
Continuous
 62
     7
370
   106
100
AcDbLine
 10
61188.6514
 20
80122.75
 30
0.0
 11
61188.3514
 21
80122.75
 31
0.0
  0
LINE
  5
381
330
58E
100
AcDbEntity
  8
Level 1
  6
Continuous
 62
     7
370
   106
100
AcDbLine
 10
61229.0514
 20
80122.75
 30
0.0
 11
61228.7514
 21
80122.75
 31
0.0
  0
LINE
  5
382
330
58E
100
AcDbEntity
  8
Level 1
  6
Continuous
 62
     7
370
   106
100
AcDbLine
 10
61229.0514
 20
80132.25
 30
0.0
 11
61228.7514
 21
80132.25
 31
0.0
  0
LINE
  5
383
330
58E
100
AcDbEntity
  8
Level 1
  6
Continuous
 62
     7
370
   106
100
AcDbLine
 10
61193.3264
 20
80142.05
 30
0.0
 11
61193.3264
 21
80141.75
 31
0.0
  0
LINE
  5
384
330
58E
100
AcDbEntity
  8
Level 1
  6
Continuous
 62
     7
370
   106
100
AcDbLine
 10
61202.6764
 20
80142.05
 30
0.0
 11
61202.6764
 21
80141.75
 31
0.0
  0
LINE
  5
388
330
58E
100
AcDbEntity
  8
Level 1
  6
Continuous
 62
     7
370
   106
100
AcDbLine
 10
61188.6514
 20
80137.0
 30
0.0
 11
61188.3514
 21
80137.0
 31
0.0
  0
LINE
  5
38E
330
58E
100
AcDbEntity
  8
Level 1
  6
Continuous
 62
     7
370
   106
100
AcDbLine
 10
61188.6514
 20
80127.5
 30
0.0
 11
61188.3514
 21
80127.5
 31
0.0
  0
LINE
  5
38F
330
58E
100
AcDbEntity
  8
Level 1
  6
Continuous
 62
     7
370
   106
100
AcDbLine
 10
61188.6514
 20
80118.0
 30
0.0
 11
61188.3514
 21
80118.0
 31
0.0
  0
LINE
  5
390
330
58E
100
AcDbEntity
  8
Level 1
  6
Continuous
 62
     7
370
   106
100
AcDbLine
 10
61212.0264
 20
80142.05
 30
0.0
 11
61212.0264
 21
80141.75
 31
0.0
  0
LINE
  5
391
330
58E
100
AcDbEntity
  8
Level 1
  6
Continuous
 62
     7
370
   106
100
AcDbLine
 10
61221.3764
 20
80142.05
 30
0.0
 11
61221.3764
 21
80141.75
 31
0.0
  0
LINE
  5
396
330
58E
100
AcDbEntity
  8
Level 1
  6
Continuous
 62
     7
370
   106
100
AcDbLine
 10
61229.0514
 20
80137.0
 30
0.0
 11
61228.7514
 21
80137.0
 31
0.0
  0
LINE
  5
397
330
58E
100
AcDbEntity
  8
Level 1
  6
Continuous
 62
     7
370
   106
100
AcDbLine
 10
61229.0514
 20
80127.5
 30
0.0
 11
61228.7514
 21
80127.5
 31
0.0
  0
LINE
  5
398
330
58E
100
AcDbEntity
  8
Level 1
  6
Continuous
 62
     7
370
   106
100
AcDbLine
 10
61229.0514
 20
80118.0
 30
0.0
 11
61228.7514
 21
80118.0
 31
0.0
  0
LINE
  5
399
330
58E
100
AcDbEntity
  8
Level 1
  6
Continuous
 62
     7
370
   106
100
AcDbLine
 10
61221.3764
 20
80113.25
 30
0.0
 11
61221.3764
 21
80112.95
 31
0.0
  0
LINE
  5
39A
330
58E
100
AcDbEntity
  8
Level 1
  6
Continuous
 62
     7
370
   106
100
AcDbLine
 10
61212.0264
 20
80113.25
 30
0.0
 11
61212.0264
 21
80112.95
 31
0.0
  0
LINE
  5
39B
330
58E
100
AcDbEntity
  8
Level 1
  6
Continuous
 62
     7
370
   106
100
AcDbLine
 10
61202.6764
 20
80113.25
 30
0.0
 11
61202.6764
 21
80112.95
 31
0.0
  0
LINE
  5
39C
330
58E
100
AcDbEntity
  8
Level 1
  6
Continuous
 62
     7
370
   106
100
AcDbLine
 10
61193.3264
 20
80113.25
 30
0.0
 11
61193.3264
 21
80112.95
 31
0.0
  0
LINE
  5
39D
330
58E
100
AcDbEntity
  8
Level 1
  6
Continuous
 62
     7
370
    40
100
AcDbLine
 10
61226.740713
 20
80124.47
 30
0.0
 11
61227.215713
 21
80124.47
 31
0.0
  0
LINE
  5
3A2
330
58E
100
AcDbEntity
  8
Level 1
  6
Continuous
 62
     7
370
    40
100
AcDbLine
 10
61228.4514
 20
80125.495
 30
0.0
 11
61226.3514
 21
80125.495
 31
0.0
  0
LINE
  5
3A3
330
58E
100
AcDbEntity
  8
Level 1
  6
Continuous
 62
     7
370
    40
100
AcDbLine
 10
61226.8264
 20
80129.49
 30
0.0
 11
61226.8264
 21
80123.445
 31
0.0
  0
LWPOLYLINE
  5
3A5
330
58E
100
AcDbEntity
  8
Level 1
  6
Continuous
 62
     7
370
   100
100
AcDbPolyline
 90
        2
 70
   128
 43
0.0
 10
61226.3514
 20
80139.855
 10
61226.3514
 20
80141.355
  0
LWPOLYLINE
  5
3A6
330
58E
100
AcDbEntity
  8
Level 1
  6
Continuous
 62
     7
370
   100
100
AcDbPolyline
 90
        2
 70
   128
 43
0.0
 10
61226.5014
 20
80141.505
 10
61228.3014
 20
80141.505
  0
LWPOLYLINE
  5
3A7
330
58E
100
AcDbEntity
  8
Level 1
  6
Continuous
 62
     7
370
   100
100
AcDbPolyline
 90
        2
 70
   128
 43
0.0
 10
61228.4514
 20
80141.355
 10
61228.4514
 20
80139.855
  0
LWPOLYLINE
  5
3A8
330
58E
100
AcDbEntity
  8
Level 1
  6
Continuous
 62
     7
370
   100
100
AcDbPolyline
 90
        2
 70
   128
 43
0.0
 10
61228.3014
 20
80139.705
 10
61226.5014
 20
80139.705
  0
LWPOLYLINE
  5
3A9
330
58E
100
AcDbEntity
  8
Level 1
  6
Continuous
 62
     7
370
   100
100
AcDbPolyline
 90
        2
 70
   128
 43
0.0
 10
61228.4514
 20
80127.545
 10
61226.3514
 20
80127.545
  0
LWPOLYLINE
  5
3AA
330
58E
100
AcDbEntity
  8
Level 1
  6
Continuous
 62
     7
370
   100
100
AcDbPolyline
 90
        2
 70
   128
 43
0.0
 10
61226.3514
 20
80123.0
 10
61226.3514
 20
80115.8
  0
LWPOLYLINE
  5
3AB
330
58E
100
AcDbEntity
  8
Level 1
  6
Continuous
 62
     7
370
   100
100
AcDbPolyline
 90
        2
 70
   128
 43
0.0
 10
61228.4514
 20
80115.8
 10
61228.4514
 20
80123.0
  0
LWPOLYLINE
  5
3AC
330
58E
100
AcDbEntity
  8
Level 1
  6
Continuous
 62
     7
370
   100
100
AcDbPolyline
 90
        2
 70
   128
 43
0.0
 10
61226.5014
 20
80115.65
 10
61228.3014
 20
80115.65
  0
LWPOLYLINE
  5
3AD
330
58E
100
AcDbEntity
  8
Level 1
  6
Continuous
 62
     7
370
   100
100
AcDbPolyline
 90
        2
 70
   128
 43
0.0
 10
61226.5014
 20
80115.35
 10
61228.3014
 20
80115.35
  0
LWPOLYLINE
  5
3AE
330
58E
100
AcDbEntity
  8
Level 1
  6
Continuous
 62
     7
370
   100
100
AcDbPolyline
 90
        2
 70
   128
 43
0.0
 10
61226.3514
 20
80113.7
 10
61226.3514
 20
80115.2
  0
LWPOLYLINE
  5
3AF
330
58E
100
AcDbEntity
  8
Level 1
  6
Continuous
 62
     7
370
   100
100
AcDbPolyline
 90
        2
 70
   128
 43
0.0
 10
61228.4514
 20
80115.2
 10
61228.4514
 20
80113.7
  0
ARC
  5
3B2
330
58E
100
AcDbEntity
  8
Level 1
  6
Continuous
 62
     7
370
   100
100
AcDbCircle
 10
-61226.50155
 20
80141.3527
 30
0.0
 40
0.15
210
0.0
220
0.0
230
-1.0
100
AcDbArc
 50
0.0
 51
90.0
  0
ARC
  5
3B3
330
58E
100
AcDbEntity
  8
Level 1
  6
Continuous
 62
     7
370
   100
100
AcDbCircle
 10
-61228.30155
 20
80141.3527
 30
0.0
 40
0.1499999997780036
210
0.0
220
0.0
230
-1.0
100
AcDbArc
 50
90.0
 51
180.0
  0
ARC
  5
3B4
330
58E
100
AcDbEntity
  8
Level 1
  6
Continuous
 62
     7
370
   100
100
AcDbCircle
 10
-61228.30155
 20
80139.8527
 30
0.0
 40
0.15
210
0.0
220
0.0
230
-1.0
100
AcDbArc
 50
180.0
 51
270.0
  0
ARC
  5
3B5
330
58E
100
AcDbEntity
  8
Level 1
  6
Continuous
 62
     7
370
   100
100
AcDbCircle
 10
61226.50155
 20
80139.8527
 30
0.0
 40
0.15
100
AcDbArc
 50
180.0
 51
270.0
  0
ARC
  5
3B6
330
58E
100
AcDbEntity
  8
Level 1
  6
Continuous
 62
     7
370
   100
100
AcDbCircle
 10
-61228.30155
 20
80129.33845
 30
0.0
 40
0.1499999997780036
210
0.0
220
0.0
230
-1.0
100
AcDbArc
 50
90.0
 51
180.0
  0
ARC
  5
3B7
330
58E
100
AcDbEntity
  8
Level 1
  6
Continuous
 62
     7
370
   100
100
AcDbCircle
 10
61226.5016
 20
80129.33845
 30
0.0
 40
0.1499999997780036
100
AcDbArc
 50
90.0
 51
180.0
  0
ARC
  5
3B8
330
58E
100
AcDbEntity
  8
Level 1
  6
Continuous
 62
     7
370
   100
100
AcDbCircle
 10
61226.5014
 20
80123.60145
 30
0.0
 40
0.15
100
AcDbArc
 50
180.0
 51
270.0
  0
ARC
  5
3B9
330
58E
100
AcDbEntity
  8
Level 1
  6
Continuous
 62
     7
370
   100
100
AcDbCircle
 10
61228.3014
 20
80123.60145
 30
0.0
 40
0.1499999997780036
100
AcDbArc
 50
270.0
 51
0.0
  0
ARC
  5
3BA
330
58E
100
AcDbEntity
  8
Level 1
  6
Continuous
 62
     7
370
   100
100
AcDbCircle
 10
61228.3014
 20
80123.00145
 30
0.0
 40
0.15
100
AcDbArc
 50
0.0
 51
90.0
  0
ARC
  5
3BB
330
58E
100
AcDbEntity
  8
Level 1
  6
Continuous
 62
     7
370
   100
100
AcDbCircle
 10
61226.5014
 20
80123.00145
 30
0.0
 40
0.1499999997780036
100
AcDbArc
 50
90.0
 51
180.0
  0
ARC
  5
3BC
330
58E
100
AcDbEntity
  8
Level 1
  6
Continuous
 62
     7
370
   100
100
AcDbCircle
 10
61226.5014
 20
80115.80045
 30
0.0
 40
0.15
100
AcDbArc
 50
180.0
 51
270.0
  0
ARC
  5
3BD
330
58E
100
AcDbEntity
  8
Level 1
  6
Continuous
 62
     7
370
   100
100
AcDbCircle
 10
61228.3014
 20
80115.80045
 30
0.0
 40
0.1499999997780036
100
AcDbArc
 50
270.0
 51
0.0
  0
ARC
  5
3BE
330
58E
100
AcDbEntity
  8
Level 1
  6
Continuous
 62
     7
370
   100
100
AcDbCircle
 10
61228.30155
 20
80115.20045
 30
0.0
 40
0.15
100
AcDbArc
 50
0.0
 51
90.0
  0
ARC
  5
3BF
330
58E
100
AcDbEntity
  8
Level 1
  6
Continuous
 62
     7
370
   100
100
AcDbCircle
 10
61226.50155
 20
80115.20045
 30
0.0
 40
0.1499999997780036
100
AcDbArc
 50
90.0
 51
180.0
  0
ARC
  5
3C0
330
58E
100
AcDbEntity
  8
Level 1
  6
Continuous
 62
     7
370
   100
100
AcDbCircle
 10
61226.50155
 20
80113.70045
 30
0.0
 40
0.15
100
AcDbArc
 50
180.0
 51
270.0
  0
ARC
  5
3C1
330
58E
100
AcDbEntity
  8
Level 1
  6
Continuous
 62
     7
370
   100
100
AcDbCircle
 10
61228.30155
 20
80113.70045
 30
0.0
 40
0.1499999997780036
100
AcDbArc
 50
270.0
 51
0.0
  0
LWPOLYLINE
  5
3C2
330
58E
100
AcDbEntity
  8
Level 1
  6
Continuous
 62
     7
370
   100
100
AcDbPolyline
 90
        2
 70
   128
 43
0.0
 10
61228.3014
 20
80113.55
 10
61226.5014
 20
80113.55
  0
LWPOLYLINE
  5
3C5
330
58E
100
AcDbEntity
  8
Level 1
  6
Continuous
 62
     7
370
   100
100
AcDbPolyline
 90
        2
 70
   128
 43
0.0
 10
61228.3014
 20
80135.94
 10
61226.5014
 20
80135.94
  0
LWPOLYLINE
  5
3C6
330
58E
100
AcDbEntity
  8
Level 1
  6
Continuous
 62
     7
370
   100
100
AcDbPolyline
 90
        2
 70
   128
 43
0.0
 10
61226.5014
 20
80129.79
 10
61228.3014
 20
80129.79
  0
ARC
  5
3C7
330
58E
100
AcDbEntity
  8
Level 1
  6
Continuous
 62
     7
370
   100
100
AcDbCircle
 10
-61226.5016
 20
80135.78845
 30
0.0
 40
0.1499999998890018
210
0.0
220
0.0
230
-1.0
100
AcDbArc
 50
0.0
 51
90.0
  0
ARC
  5
3C8
330
58E
100
AcDbEntity
  8
Level 1
  6
Continuous
 62
     7
370
   100
100
AcDbCircle
 10
-61228.30155
 20
80135.78845
 30
0.0
 40
0.1499999996670054
210
0.0
220
0.0
230
-1.0
100
AcDbArc
 50
90.0
 51
180.0
  0
ARC
  5
3C9
330
58E
100
AcDbEntity
  8
Level 1
  6
Continuous
 62
     7
370
   100
100
AcDbCircle
 10
61226.5016
 20
80129.93845
 30
0.0
 40
0.1499999998890018
100
AcDbArc
 50
180.0
 51
270.0
  0
ARC
  5
3CA
330
58E
100
AcDbEntity
  8
Level 1
  6
Continuous
 62
     7
370
   100
100
AcDbCircle
 10
61228.30155
 20
80129.93845
 30
0.0
 40
0.1499999996670054
100
AcDbArc
 50
270.0
 51
0.0
  0
LINE
  5
3CD
330
58E
100
AcDbEntity
  8
Level 1
  6
Continuous
 62
     7
370
    13
100
AcDbLine
 10
61226.3514
 20
80130.51
 30
0.0
 11
61228.4514
 21
80130.51
 31
0.0
  0
LINE
  5
3CE
330
58E
100
AcDbEntity
  8
Level 1
  6
Continuous
 62
     7
370
    13
100
AcDbLine
 10
61226.5914
 20
80135.94
 30
0.0
 11
61226.5914
 21
80129.79
 31
0.0
  0
LWPOLYLINE
  5
3CF
330
58E
100
AcDbEntity
  8
Level 1
  6
Continuous
 62
     7
370
   100
100
AcDbPolyline
 90
        2
 70
   128
 43
0.0
 10
61226.3514
 20
80135.79
 10
61226.3514
 20
80129.94
  0
LWPOLYLINE
  5
3D0
330
58E
100
AcDbEntity
  8
Level 1
  6
Continuous
 62
     7
370
   100
100
AcDbPolyline
 90
        2
 70
   128
 43
0.0
 10
61228.4514
 20
80129.94
 10
61228.4514
 20
80135.79
  0
LINE
  5
3D1
330
58E
100
AcDbEntity
  8
Level 1
  6
Continuous
 62
     7
370
    13
100
AcDbLine
 10
61226.8264
 20
80135.94
 30
0.0
 11
61226.8264
 21
80129.79
 31
0.0
  0
LINE
  5
3D2
330
58E
100
AcDbEntity
  8
Level 1
  6
Continuous
 62
     7
370
    13
100
AcDbLine
 10
61227.0614
 20
80135.94
 30
0.0
 11
61227.0614
 21
80129.79
 31
0.0
  0
LINE
  5
3D3
330
58E
100
AcDbEntity
  8
Level 1
  6
Continuous
 62
     7
370
    13
100
AcDbLine
 10
61227.2964
 20
80135.94
 30
0.0
 11
61227.2964
 21
80129.79
 31
0.0
  0
LINE
  5
3D4
330
58E
100
AcDbEntity
  8
Level 1
  6
Continuous
 62
     7
370
    13
100
AcDbLine
 10
61227.5314
 20
80135.94
 30
0.0
 11
61227.5314
 21
80129.79
 31
0.0
  0
LINE
  5
3D5
330
58E
100
AcDbEntity
  8
Level 1
  6
Continuous
 62
     7
370
    13
100
AcDbLine
 10
61227.7714
 20
80135.94
 30
0.0
 11
61227.7714
 21
80129.79
 31
0.0
  0
LINE
  5
3D6
330
58E
100
AcDbEntity
  8
Level 1
  6
Continuous
 62
     7
370
    13
100
AcDbLine
 10
61228.0064
 20
80135.94
 30
0.0
 11
61228.0064
 21
80129.79
 31
0.0
  0
LINE
  5
3D7
330
58E
100
AcDbEntity
  8
Level 1
  6
Continuous
 62
     7
370
    13
100
AcDbLine
 10
61228.2414
 20
80135.94
 30
0.0
 11
61228.2414
 21
80129.79
 31
0.0
  0
LINE
  5
3D8
330
58E
100
AcDbEntity
  8
Level 1
  6
Continuous
 62
     7
370
    13
100
AcDbLine
 10
61226.3514
 20
80134.855
 30
0.0
 11
61228.4514
 21
80134.855
 31
0.0
  0
LINE
  5
3D9
330
58E
100
AcDbEntity
  8
Level 1
  6
Continuous
 62
     7
370
    13
100
AcDbLine
 10
61226.3514
 20
80134.245
 30
0.0
 11
61228.4514
 21
80134.245
 31
0.0
  0
LWPOLYLINE
  5
3DA
330
58E
100
AcDbEntity
  8
Level 1
  6
Continuous
 62
     7
370
   100
100
AcDbPolyline
 90
        2
 70
   128
 43
0.0
 10
61228.3014
 20
80135.94
 10
61226.5014
 20
80135.94
  0
LWPOLYLINE
  5
3DB
330
58E
100
AcDbEntity
  8
Level 1
  6
Continuous
 62
     7
370
   100
100
AcDbPolyline
 90
        2
 70
   128
 43
0.0
 10
61226.5014
 20
80129.49
 10
61228.3014
 20
80129.49
  0
LINE
  5
3DE
330
58E
100
AcDbEntity
  8
Level 1
  6
Continuous
 62
     7
370
    40
100
AcDbLine
 10
61227.3014
 20
80127.545
 30
0.0
 11
61227.3014
 21
80123.445
 31
0.0
  0
LINE
  5
3E1
330
58E
100
AcDbEntity
  8
Level 1
  6
Continuous
 62
     7
370
    40
100
AcDbLine
 10
61227.7764
 20
80127.545
 30
0.0
 11
61227.7764
 21
80123.445
 31
0.0
  0
LINE
  5
3E2
330
58E
100
AcDbEntity
  8
Level 1
  6
Continuous
 62
     7
370
    40
100
AcDbLine
 10
61227.6314
 20
80129.49
 30
0.0
 11
61227.6314
 21
80127.545
 31
0.0
  0
LWPOLYLINE
  5
3E3
330
58E
100
AcDbEntity
  8
Level 1
  6
Continuous
 62
     7
370
   100
100
AcDbPolyline
 90
        2
 70
   128
 43
0.0
 10
61228.3014
 20
80123.15
 10
61226.5014
 20
80123.15
  0
LWPOLYLINE
  5
3E4
330
58E
100
AcDbEntity
  8
Level 1
  6
Continuous
 62
     7
370
   100
100
AcDbPolyline
 90
        2
 70
   128
 43
0.0
 10
61228.3014
 20
80123.45
 10
61226.5014
 20
80123.45
  0
LWPOLYLINE
  5
3E5
330
58E
100
AcDbEntity
  8
Level 1
  6
Continuous
 62
     7
370
   100
100
AcDbPolyline
 90
        2
 70
   128
 43
0.0
 10
61226.5014
 20
80129.49
 10
61228.3014
 20
80129.49
  0
LWPOLYLINE
  5
3E6
330
58E
100
AcDbEntity
  8
Level 1
  6
Continuous
 62
     7
370
   100
100
AcDbPolyline
 90
        2
 70
   128
 43
0.0
 10
61228.4514
 20
80123.6
 10
61228.4514
 20
80129.34
  0
LWPOLYLINE
  5
3E7
330
58E
100
AcDbEntity
  8
Level 1
  6
Continuous
 62
     7
370
   100
100
AcDbPolyline
 90
        2
 70
   128
 43
0.0
 10
61226.3514
 20
80129.34
 10
61226.3514
 20
80123.6
  0
LWPOLYLINE
  5
3E8
330
58E
100
AcDbEntity
  8
Level 1
  6
Continuous
 62
     7
370
   100
100
AcDbPolyline
 90
        2
 70
   128
 43
0.0
 10
61226.5014
 20
80129.79
 10
61228.3014
 20
80129.79
  0
LWPOLYLINE
  5
3E9
330
58E
100
AcDbEntity
  8
Level 1
  6
Continuous
 62
     7
370
   100
100
AcDbPolyline
 90
        2
 70
   128
 43
0.0
 10
61228.3014
 20
80136.24
 10
61226.5014
 20
80136.24
  0
ARC
  5
3EA
330
58E
100
AcDbEntity
  8
Level 1
  6
Continuous
 62
     7
370
   100
100
AcDbCircle
 10
61226.5016
 20
80136.38845
 30
0.0
 40
0.15
100
AcDbArc
 50
180.0
 51
270.0
  0
ARC
  5
3EB
330
58E
100
AcDbEntity
  8
Level 1
  6
Continuous
 62
     7
370
   100
100
AcDbCircle
 10
-61226.50155
 20
80139.2527
 30
0.0
 40
0.15
210
0.0
220
0.0
230
-1.0
100
AcDbArc
 50
0.0
 51
90.0
  0
ARC
  5
3EC
330
58E
100
AcDbEntity
  8
Level 1
  6
Continuous
 62
     7
370
   100
100
AcDbCircle
 10
-61228.30155
 20
80139.2527
 30
0.0
 40
0.1499999997780036
210
0.0
220
0.0
230
-1.0
100
AcDbArc
 50
90.0
 51
180.0
  0
ARC
  5
3ED
330
58E
100
AcDbEntity
  8
Level 1
  6
Continuous
 62
     7
370
   100
100
AcDbCircle
 10
-61228.30155
 20
80136.38845
 30
0.0
 40
0.15
210
0.0
220
0.0
230
-1.0
100
AcDbArc
 50
180.0
 51
270.0
  0
LINE
  5
3EE
330
58E
100
AcDbEntity
  8
Level 1
  6
Continuous
 62
     7
370
   100
100
AcDbLine
 10
61226.3514
 20
80136.39
 30
0.0
 11
61226.3514
 21
80139.255
 31
0.0
  0
LINE
  5
3EF
330
58E
100
AcDbEntity
  8
Level 1
  6
Continuous
 62
     7
370
   100
100
AcDbLine
 10
61228.4514
 20
80136.39
 30
0.0
 11
61228.4514
 21
80139.255
 31
0.0
  0
LWPOLYLINE
  5
3F0
330
58E
100
AcDbEntity
  8
Level 1
  6
Continuous
 62
     7
370
   100
100
AcDbPolyline
 90
        2
 70
   128
 43
0.0
 10
61228.3014
 20
80139.405
 10
61226.5014
 20
80139.405
  0
HATCH
  5
403
330
58E
100
AcDbEntity
  8
Level 1
  6
Continuous
 62
     7
370
     0
100
AcDbHatch
 10
0.0
 20
0.0
 30
0.0
210
0.0
220
0.0
230
1.0
  2
SOLID
 70
     1
 71
     0
 91
        1
 92
        3
 72
     0
 73
     1
 93
       24
 10
61226.5914
 20
80141.22
 10
61226.5914
 20
80141.235
 10
61226.5964
 20
80141.25
 10
61226.6014
 20
80141.265
 10
61226.6114
 20
80141.28
 10
61226.6214
 20
80141.295
 10
61226.63140000001
 20
80141.31
 10
61226.64640000001
 20
80141.32
 10
61226.6614
 20
80141.33
 10
61226.6814
 20
80141.335
 10
61226.6964
 20
80141.335
 10
61226.7114
 20
80141.34000000001
 10
61226.7114
 20
80141.3
 10
61226.70140000001
 20
80141.3
 10
61226.6914
 20
80141.3
 10
61226.6814
 20
80141.295
 10
61226.6664
 20
80141.29000000001
 10
61226.6614
 20
80141.285
 10
61226.6514
 20
80141.27500000001
 10
61226.6414
 20
80141.265
 10
61226.6364
 20
80141.26000000001
 10
61226.63140000001
 20
80141.24500000001
 10
61226.63140000001
 20
80141.235
 10
61226.6264
 20
80141.22
 97
        0
 75
     0
 76
     1
 98
        0
  0
HATCH
  5
404
330
58E
100
AcDbEntity
  8
Level 1
  6
Continuous
 62
     7
370
     0
100
AcDbHatch
 10
0.0
 20
0.0
 30
0.0
210
0.0
220
0.0
230
1.0
  2
SOLID
 70
     1
 71
     0
 91
        1
 92
        3
 72
     0
 73
     1
 93
       24
 10
61227.4664
 20
80141.22
 10
61227.4664
 20
80141.235
 10
61227.4614
 20
80141.24500000001
 10
61227.4564
 20
80141.26000000001
 10
61227.45140000001
 20
80141.265
 10
61227.4464
 20
80141.27500000001
 10
61227.43640000001
 20
80141.285
 10
61227.4264
 20
80141.29000000001
 10
61227.4164
 20
80141.295
 10
61227.4014
 20
80141.3
 10
61227.3914
 20
80141.3
 10
61227.3864
 20
80141.3
 10
61227.3864
 20
80141.34000000001
 10
61227.4014
 20
80141.335
 10
61227.4114
 20
80141.335
 10
61227.4314
 20
80141.33
 10
61227.4464
 20
80141.32
 10
61227.4614
 20
80141.31
 10
61227.4764
 20
80141.295
 10
61227.4864
 20
80141.28
 10
61227.4964
 20
80141.265
 10
61227.5014
 20
80141.25
 10
61227.5014
 20
80141.235
 10
61227.5014
 20
80141.22
 97
        0
 75
     0
 76
     1
 98
        0
  0
SOLID
  5
405
330
58E
100
AcDbEntity
  8
Level 1
  6
Continuous
 62
     7
370
     0
100
AcDbTrace
 10
61226.7114
 20
80141.3
 30
0.0
 11
61227.3864
 21
80141.3
 31
0.0
 12
61226.7114
 22
80141.34
 32
0.0
 13
61227.3864
 23
80141.34
 33
0.0
  0
HATCH
  5
406
330
58E
100
AcDbEntity
  8
Level 1
  6
Continuous
 62
     7
370
     0
100
AcDbHatch
 10
0.0
 20
0.0
 30
0.0
210
0.0
220
0.0
230
1.0
  2
SOLID
 70
     1
 71
     0
 91
        1
 92
        3
 72
     0
 73
     1
 93
       24
 10
61226.6814
 20
80140.645
 10
61226.6614
 20
80140.655
 10
61226.64640000001
 20
80140.66
 10
61226.63140000001
 20
80140.675
 10
61226.6214
 20
80140.685
 10
61226.6114
 20
80140.7
 10
61226.6014
 20
80140.71500000001
 10
61226.5964
 20
80140.73000000001
 10
61226.5914
 20
80140.75
 10
61226.5914
 20
80140.76000000001
 10
61226.6264
 20
80140.76000000001
 10
61226.63140000001
 20
80140.74500000001
 10
61226.63140000001
 20
80140.735
 10
61226.6364
 20
80140.725
 10
61226.6414
 20
80140.71500000001
 10
61226.6514
 20
80140.705
 10
61226.6614
 20
80140.695
 10
61226.6664
 20
80140.69
 10
61226.6814
 20
80140.685
 10
61226.6914
 20
80140.68000000001
 10
61226.70140000001
 20
80140.68000000001
 10
61226.7114
 20
80140.68000000001
 10
61226.7114
 20
80140.645
 10
61226.6964
 20
80140.645
 97
        0
 75
     0
 76
     1
 98
        0
  0
HATCH
  5
407
330
58E
100
AcDbEntity
  8
Level 1
  6
Continuous
 62
     7
370
     0
100
AcDbHatch
 10
0.0
 20
0.0
 30
0.0
210
0.0
220
0.0
230
1.0
  2
SOLID
 70
     1
 71
     0
 91
        1
 92
        3
 72
     0
 73
     1
 93
       24
 10
61227.3864
 20
80140.645
 10
61227.3864
 20
80140.68000000001
 10
61227.3914
 20
80140.68000000001
 10
61227.4014
 20
80140.68000000001
 10
61227.4164
 20
80140.685
 10
61227.4264
 20
80140.69
 10
61227.43640000001
 20
80140.695
 10
61227.4464
 20
80140.705
 10
61227.45140000001
 20
80140.71500000001
 10
61227.4564
 20
80140.725
 10
61227.4614
 20
80140.735
 10
61227.4664
 20
80140.74500000001
 10
61227.4664
 20
80140.76000000001
 10
61227.5014
 20
80140.76000000001
 10
61227.5014
 20
80140.75
 10
61227.5014
 20
80140.73000000001
 10
61227.4964
 20
80140.71500000001
 10
61227.4864
 20
80140.7
 10
61227.4764
 20
80140.685
 10
61227.4614
 20
80140.675
 10
61227.4464
 20
80140.66
 10
61227.4314
 20
80140.655
 10
61227.4114
 20
80140.645
 10
61227.4014
 20
80140.645
 97
        0
 75
     0
 76
     1
 98
        0
  0
SOLID
  5
408
330
58E
100
AcDbEntity
  8
Level 1
  6
Continuous
 62
     7
370
     0
100
AcDbTrace
 10
-61226.7114
 20
80140.68
 30
0.0
 11
-61227.3864
 21
80140.68
 31
0.0
 12
-61226.7114
 22
80140.645
 32
0.0
 13
-61227.3864
 23
80140.645
 33
0.0
210
0.0
220
0.0
230
-1.0
  0
SOLID
  5
409
330
58E
100
AcDbEntity
  8
Level 1
  6
Continuous
 62
     7
370
     0
100
AcDbTrace
 10
-61226.5914
 20
80140.76
 30
0.0
 11
-61226.6264
 21
80140.76
 31
0.0
 12
-61226.5914
 22
80141.22
 32
0.0
 13
-61226.6264
 23
80141.22
 33
0.0
210
0.0
220
0.0
230
-1.0
  0
SOLID
  5
40A
330
58E
100
AcDbEntity
  8
Level 1
  6
Continuous
 62
     7
370
     0
100
AcDbTrace
 10
61227.5014
 20
80140.76
 30
0.0
 11
61227.4664
 21
80140.76
 31
0.0
 12
61227.5014
 22
80141.22
 32
0.0
 13
61227.4664
 23
80141.22
 33
0.0
  0
HATCH
  5
40B
330
58E
100
AcDbEntity
  8
Level 1
  6
Continuous
 62
     7
370
     0
100
AcDbHatch
 10
0.0
 20
0.0
 30
0.0
210
0.0
220
0.0
230
1.0
  2
SOLID
 70
     1
 71
     0
 91
        1
 92
        3
 72
     0
 73
     1
 93
       10
 10
61227.0014
 20
80140.84000000001
 10
61227.0014
 20
80140.92
 10
61227.00640000001
 20
80140.925
 10
61227.00640000001
 20
80140.935
 10
61227.0114
 20
80140.945
 10
61227.02140000001
 20
80140.955
 10
61227.0264
 20
80140.96
 10
61227.0364
 20
80140.96500000001
 10
61227.04640000001
 20
80140.97
 10
61227.04640000001
 20
80140.84000000001
 97
        0
 75
     0
 76
     1
 98
        0
  0
HATCH
  5
40C
330
58E
100
AcDbEntity
  8
Level 1
  6
Continuous
 62
     7
370
     0
100
AcDbHatch
 10
0.0
 20
0.0
 30
0.0
210
0.0
220
0.0
230
1.0
  2
SOLID
 70
     1
 71
     0
 91
        1
 92
        3
 72
     0
 73
     1
 93
       10
 10
61227.04640000001
 20
80140.84000000001
 10
61227.04640000001
 20
80140.97
 10
61227.0564
 20
80140.96500000001
 10
61227.0664
 20
80140.96
 10
61227.07640000001
 20
80140.955
 10
61227.0814
 20
80140.945
 10
61227.0864
 20
80140.935
 10
61227.0914
 20
80140.925
 10
61227.0914
 20
80140.92
 10
61227.0914
 20
80140.84000000001
 97
        0
 75
     0
 76
     1
 98
        0
  0
SOLID
  5
40D
330
58E
100
AcDbEntity
  8
Level 1
  6
Continuous
 62
     7
370
     0
100
AcDbTrace
 10
-61226.8314
 20
80141.025
 30
0.0
 11
-61226.8364
 21
80141.025
 31
0.0
 12
-61226.8314
 22
80141.09
 32
0.0
 13
-61226.8364
 23
80141.09
 33
0.0
210
0.0
220
0.0
230
-1.0
  0
SOLID
  5
40E
330
58E
100
AcDbEntity
  8
Level 1
  6
Continuous
 62
     7
370
     0
100
AcDbTrace
 10
-61226.8314
 20
80140.88
 30
0.0
 11
-61226.8364
 21
80140.88
 31
0.0
 12
-61226.8314
 22
80140.94
 32
0.0
 13
-61226.8364
 23
80140.94
 33
0.0
210
0.0
220
0.0
230
-1.0
  0
SOLID
  5
40F
330
58E
100
AcDbEntity
  8
Level 1
  6
Continuous
 62
     7
370
     0
100
AcDbTrace
 10
-61226.9314
 20
80140.9
 30
0.0
 11
-61226.9364
 21
80140.9
 31
0.0
 12
-61226.9314
 22
80140.94
 32
0.0
 13
-61226.9364
 23
80140.94
 33
0.0
210
0.0
220
0.0
230
-1.0
  0
SOLID
  5
410
330
58E
100
AcDbEntity
  8
Level 1
  6
Continuous
 62
     7
370
     0
100
AcDbTrace
 10
61227.2664
 20
80141.025
 30
0.0
 11
61227.2564
 21
80141.025
 31
0.0
 12
61227.2664
 22
80141.09
 32
0.0
 13
61227.2564
 23
80141.09
 33
0.0
  0
SOLID
  5
411
330
58E
100
AcDbEntity
  8
Level 1
  6
Continuous
 62
     7
370
     0
100
AcDbTrace
 10
61227.2664
 20
80140.88
 30
0.0
 11
61227.2564
 21
80140.88
 31
0.0
 12
61227.2664
 22
80140.94
 32
0.0
 13
61227.2564
 23
80140.94
 33
0.0
  0
SOLID
  5
412
330
58E
100
AcDbEntity
  8
Level 1
  6
Continuous
 62
     7
370
     0
100
AcDbTrace
 10
61227.1614
 20
80140.9
 30
0.0
 11
61227.1564
 21
80140.9
 31
0.0
 12
61227.1614
 22
80140.94
 32
0.0
 13
61227.1564
 23
80140.94
 33
0.0
  0
HATCH
  5
413
330
58E
100
AcDbEntity
  8
Level 1
  6
Continuous
 62
     7
370
     0
100
AcDbHatch
 10
0.0
 20
0.0
 30
0.0
210
0.0
220
0.0
230
1.0
  2
SOLID
 70
     1
 71
     0
 91
        1
 92
        3
 72
     0
 73
     1
 93
       42
 10
61226.7114
 20
80140.72
 10
61226.6914
 20
80140.725
 10
61226.68640000001
 20
80140.73000000001
 10
61226.6764
 20
80140.735
 10
61226.67140000001
 20
80140.75
 10
61226.6664
 20
80140.765
 10
61226.6664
 20
80141.22
 10
61226.6664
 20
80141.23000000001
 10
61226.6764
 20
80141.24500000001
 10
61226.68640000001
 20
80141.255
 10
61226.70140000001
 20
80141.26000000001
 10
61226.7114
 20
80141.265
 10
61227.04640000001
 20
80141.265
 10
61227.04640000001
 20
80141.14
 10
61227.0164
 20
80141.14
 10
61227.0164
 20
80141.10500000001
 10
61227.0114
 20
80141.10500000001
 10
61227.0114
 20
80141.14
 10
61226.9564
 20
80141.14
 10
61226.9564
 20
80141.065
 10
61226.9764
 20
80141.045
 10
61226.9764
 20
80141.02500000001
 10
61226.9064
 20
80141.02500000001
 10
61226.9064
 20
80141.115
 10
61226.9264
 20
80141.13500000001
 10
61226.9264
 20
80141.21
 10
61226.8714
 20
80141.21
 10
61226.8714
 20
80141.175
 10
61226.86640000001
 20
80141.175
 10
61226.86640000001
 20
80141.21
 10
61226.8064
 20
80141.21
 10
61226.8064
 20
80141.175
 10
61226.8014
 20
80141.175
 10
61226.8014
 20
80141.21
 10
61226.74140000001
 20
80141.21
 10
61226.74140000001
 20
80141.13500000001
 10
61226.7614
 20
80141.115
 10
61226.7614
 20
80140.895
 10
61226.74140000001
 20
80140.875
 10
61226.74140000001
 20
80140.795
 10
61227.04640000001
 20
80140.795
 10
61227.04640000001
 20
80140.72
 97
        0
 75
     0
 76
     1
 98
        0
  0
HATCH
  5
414
330
58E
100
AcDbEntity
  8
Level 1
  6
Continuous
 62
     7
370
     0
100
AcDbHatch
 10
0.0
 20
0.0
 30
0.0
210
0.0
220
0.0
230
1.0
  2
SOLID
 70
     1
 71
     0
 91
        1
 92
        3
 72
     0
 73
     1
 93
       42
 10
61227.04640000001
 20
80140.72
 10
61227.04640000001
 20
80140.795
 10
61227.3564
 20
80140.795
 10
61227.3564
 20
80140.875
 10
61227.3364
 20
80140.895
 10
61227.3364
 20
80141.115
 10
61227.3564
 20
80141.13500000001
 10
61227.3564
 20
80141.21
 10
61227.29640000001
 20
80141.21
 10
61227.29640000001
 20
80141.175
 10
61227.2914
 20
80141.175
 10
61227.2914
 20
80141.21
 10
61227.2314
 20
80141.21
 10
61227.2314
 20
80141.175
 10
61227.2264
 20
80141.175
 10
61227.2264
 20
80141.21
 10
61227.1664
 20
80141.21
 10
61227.1664
 20
80141.13500000001
 10
61227.18640000001
 20
80141.115
 10
61227.18640000001
 20
80141.02500000001
 10
61227.1214
 20
80141.02500000001
 10
61227.1214
 20
80141.045
 10
61227.1414
 20
80141.065
 10
61227.1414
 20
80141.14
 10
61227.0814
 20
80141.14
 10
61227.0814
 20
80141.10500000001
 10
61227.07640000001
 20
80141.10500000001
 10
61227.07640000001
 20
80141.14
 10
61227.04640000001
 20
80141.14
 10
61227.04640000001
 20
80141.265
 10
61227.3864
 20
80141.265
 10
61227.39640000001
 20
80141.26000000001
 10
61227.4114
 20
80141.255
 10
61227.42140000001
 20
80141.24500000001
 10
61227.4264
 20
80141.23000000001
 10
61227.4314
 20
80141.22
 10
61227.4314
 20
80140.765
 10
61227.4264
 20
80140.75
 10
61227.42140000001
 20
80140.735
 10
61227.4114
 20
80140.73000000001
 10
61227.4014
 20
80140.725
 10
61227.3864
 20
80140.72
 97
        0
 75
     0
 76
     1
 98
        0
  0
LINE
  5
416
330
58E
100
AcDbEntity
  8
Level 1
  6
Continuous
 62
     7
370
     0
100
AcDbLine
 10
61187.3014
 20
80112.65
 30
0.0
 11
61229.3514
 21
80112.65
 31
0.0
  0
LINE
  5
417
330
58E
100
AcDbEntity
  8
Level 1
  6
Continuous
 62
     7
370
     0
100
AcDbLine
 10
61187.3014
 20
80142.35
 30
0.0
 11
61187.3014
 21
80112.65
 31
0.0
  0
LINE
  5
418
330
58E
100
AcDbEntity
  8
Level 1
  6
Continuous
 62
     7
370
     0
100
AcDbLine
 10
61229.3514
 20
80112.65
 30
0.0
 11
61229.3514
 21
80142.35
 31
0.0
  0
LINE
  5
419
330
58E
100
AcDbEntity
  8
Level 1
  6
Continuous
 62
     7
370
     0
100
AcDbLine
 10
61229.3514
 20
80142.35
 30
0.0
 11
61187.3014
 21
80142.35
 31
0.0
  0
TEXT
  5
41A
330
58E
100
AcDbEntity
  8
Level 4
  6
Continuous
 62
    52
370
     0
100
AcDbText
 10
61230.4164
 20
80110.5
 30
0.0
 40
0.50001
  1
841 x 594 mm
  7
Style-ENGINEERING
 11
61230.4164
 21
80110.750005
 31
0.0
100
AcDbText
 73
     2
  0
LINE
  5
41B
330
58E
100
AcDbEntity
  8
Level 63
  6
Continuous
 62
     7
370
    53
100
AcDbLine
 10
61243.8364
 20
80113.54
 30
0.0
 11
61243.8364
 21
80114.12
 31
0.0
  0
LINE
  5
41C
330
58E
100
AcDbEntity
  8
Level 63
  6
Continuous
 62
     4
370
    53
100
AcDbLine
 10
61243.8364
 20
80112.96
 30
0.0
 11
61243.8364
 21
80113.54
 31
0.0
  0
LINE
  5
41D
330
58E
100
AcDbEntity
  8
Level 63
  6
Continuous
 62
     6
370
    13
100
AcDbLine
 10
61243.8364
 20
80113.54
 30
0.0
 11
61243.7114
 21
80114.105
 31
0.0
  0
LINE
  5
41E
330
58E
100
AcDbEntity
  8
Level 63
  6
Continuous
 62
     2
370
    13
100
AcDbLine
 10
61243.8364
 20
80113.54
 30
0.0
 11
61243.5914
 21
80114.065
 31
0.0
  0
LINE
  5
41F
330
58E
100
AcDbEntity
  8
Level 63
  6
Continuous
 62
     1
370
    13
100
AcDbLine
 10
61243.8364
 20
80113.54
 30
0.0
 11
61243.4864
 21
80114.0
 31
0.0
  0
LINE
  5
420
330
58E
100
AcDbEntity
  8
Level 63
  6
Continuous
 62
     3
370
    13
100
AcDbLine
 10
61243.8364
 20
80113.54
 30
0.0
 11
61243.3964
 21
80113.915
 31
0.0
  0
LINE
  5
421
330
58E
100
AcDbEntity
  8
Level 63
  6
Continuous
 62
     5
370
    53
100
AcDbLine
 10
61243.8364
 20
80113.54
 30
0.0
 11
61243.3264
 21
80113.81
 31
0.0
  0
LINE
  5
422
330
58E
100
AcDbEntity
  8
Level 63
  6
Continuous
 62
   254
370
    13
100
AcDbLine
 10
61243.8364
 20
80113.54
 30
0.0
 11
61243.2764
 21
80113.695
 31
0.0
  0
LINE
  5
423
330
58E
100
AcDbEntity
  8
Level 63
  6
Continuous
 62
     4
370
    13
100
AcDbLine
 10
61243.8364
 20
80113.54
 30
0.0
 11
61243.2564
 21
80113.57
 31
0.0
  0
LINE
  5
424
330
58E
100
AcDbEntity
  8
Level 63
  6
Continuous
 62
    30
370
    13
100
AcDbLine
 10
61243.8364
 20
80113.54
 30
0.0
 11
61243.2664
 21
80113.445
 31
0.0
  0
LINE
  5
425
330
58E
100
AcDbEntity
  8
Level 63
  6
Continuous
 62
     6
370
    13
100
AcDbLine
 10
61243.8364
 20
80113.54
 30
0.0
 11
61243.2964
 21
80113.325
 31
0.0
  0
LINE
  5
426
330
58E
100
AcDbEntity
  8
Level 63
  6
Continuous
 62
     2
370
    53
100
AcDbLine
 10
61243.8364
 20
80113.54
 30
0.0
 11
61243.3564
 21
80113.215
 31
0.0
  0
LINE
  5
427
330
58E
100
AcDbEntity
  8
Level 63
  6
Continuous
 62
     1
370
    13
100
AcDbLine
 10
61243.8364
 20
80113.54
 30
0.0
 11
61243.4364
 21
80113.12
 31
0.0
  0
LINE
  5
428
330
58E
100
AcDbEntity
  8
Level 63
  6
Continuous
 62
     3
370
    13
100
AcDbLine
 10
61243.8364
 20
80113.54
 30
0.0
 11
61243.5364
 21
80113.04
 31
0.0
  0
LINE
  5
429
330
58E
100
AcDbEntity
  8
Level 63
  6
Continuous
 62
     5
370
    13
100
AcDbLine
 10
61243.8364
 20
80113.54
 30
0.0
 11
61243.6514
 21
80112.99
 31
0.0
  0
LINE
  5
42A
330
58E
100
AcDbEntity
  8
Level 63
  6
Continuous
 62
   254
370
    13
100
AcDbLine
 10
61243.8364
 20
80113.54
 30
0.0
 11
61243.7714
 21
80112.96
 31
0.0
  0
LINE
  5
42B
330
58E
100
AcDbEntity
  8
Level 63
  6
Continuous
 62
   253
370
    13
100
AcDbLine
 10
61243.8364
 20
80113.54
 30
0.0
 11
61243.9014
 21
80112.96
 31
0.0
  0
LINE
  5
42C
330
58E
100
AcDbEntity
  8
Level 63
  6
Continuous
 62
   204
370
    13
100
AcDbLine
 10
61243.8364
 20
80113.54
 30
0.0
 11
61244.0214
 21
80112.99
 31
0.0
  0
LINE
  5
42D
330
58E
100
AcDbEntity
  8
Level 63
  6
Continuous
 62
   120
370
    13
100
AcDbLine
 10
61243.8364
 20
80113.54
 30
0.0
 11
61244.1364
 21
80113.04
 31
0.0
  0
LINE
  5
42E
330
58E
100
AcDbEntity
  8
Level 63
  6
Continuous
 62
    62
370
    13
100
AcDbLine
 10
61243.8364
 20
80113.54
 30
0.0
 11
61244.2364
 21
80113.115
 31
0.0
  0
LINE
  5
42F
330
58E
100
AcDbEntity
  8
Level 63
  6
Continuous
 62
   230
370
    53
100
AcDbLine
 10
61243.8364
 20
80113.54
 30
0.0
 11
61244.3164
 21
80113.21
 31
0.0
  0
LINE
  5
430
330
58E
100
AcDbEntity
  8
Level 63
  6
Continuous
 62
     9
370
    13
100
AcDbLine
 10
61243.8364
 20
80113.54
 30
0.0
 11
61244.3764
 21
80113.325
 31
0.0
  0
LINE
  5
431
330
58E
100
AcDbEntity
  8
Level 63
  6
Continuous
 62
   250
370
    13
100
AcDbLine
 10
61243.8364
 20
80113.54
 30
0.0
 11
61244.4114
 21
80113.445
 31
0.0
  0
LINE
  5
432
330
58E
100
AcDbEntity
  8
Level 63
  6
Continuous
 62
     4
370
    13
100
AcDbLine
 10
61243.8364
 20
80113.54
 30
0.0
 11
61244.4164
 21
80113.57
 31
0.0
  0
LINE
  5
433
330
58E
100
AcDbEntity
  8
Level 63
  6
Continuous
 62
    30
370
    13
100
AcDbLine
 10
61243.8364
 20
80113.54
 30
0.0
 11
61244.3964
 21
80113.695
 31
0.0
  0
LINE
  5
434
330
58E
100
AcDbEntity
  8
Level 63
  6
Continuous
 62
     6
370
    53
100
AcDbLine
 10
61243.8364
 20
80113.54
 30
0.0
 11
61244.3514
 21
80113.81
 31
0.0
  0
LINE
  5
435
330
58E
100
AcDbEntity
  8
Level 63
  6
Continuous
 62
     2
370
    13
100
AcDbLine
 10
61243.8364
 20
80113.54
 30
0.0
 11
61244.2814
 21
80113.915
 31
0.0
  0
LINE
  5
436
330
58E
100
AcDbEntity
  8
Level 63
  6
Continuous
 62
     1
370
    13
100
AcDbLine
 10
61243.8364
 20
80113.54
 30
0.0
 11
61244.1864
 21
80114.0
 31
0.0
  0
LINE
  5
437
330
58E
100
AcDbEntity
  8
Level 63
  6
Continuous
 62
     3
370
    13
100
AcDbLine
 10
61243.8364
 20
80113.54
 30
0.0
 11
61244.0814
 21
80114.065
 31
0.0
  0
LINE
  5
438
330
58E
100
AcDbEntity
  8
Level 63
  6
Continuous
 62
     5
370
    13
100
AcDbLine
 10
61243.8364
 20
80113.54
 30
0.0
 11
61243.9614
 21
80114.105
 31
0.0
  0
TEXT
  5
439
330
58E
100
AcDbEntity
  8
Level 63
  6
Continuous
 62
     1
370
    13
100
AcDbText
 10
61243.8214
 20
80114.165
 30
0.0
 40
0.08361
  1
0
 41
0.759598
  7
Style-ENGINEERING
 72
     1
 11
61243.842449
 21
80114.206805
 31
0.0
100
AcDbText
 73
     2
  0
TEXT
  5
43A
330
58E
100
AcDbEntity
  8
Level 63
  6
Continuous
 62
     1
370
    13
100
AcDbText
 10
61244.4064
 20
80113.795
 30
0.0
 40
0.083459
  1
5
 50
27.839281
 41
0.758445
  7
Style-ENGINEERING
 72
     1
 11
61244.422798
 21
80113.80366
 31
0.0
100
AcDbText
  0
TEXT
  5
43B
330
58E
100
AcDbEntity
  8
Level 63
  6
Continuous
 62
     1
370
    13
100
AcDbText
 10
61244.3214
 20
80113.16
 30
0.0
 40
0.083399
  1
10
 50
325.788931
 41
0.758631
  7
Style-ENGINEERING
 72
     1
 11
61244.364902
 21
80113.130424
 31
0.0
100
AcDbText
  0
TEXT
  5
43C
330
58E
100
AcDbEntity
  8
Level 63
  6
Continuous
 62
     1
370
    13
100
AcDbText
 10
61243.7864
 20
80112.83
 30
0.0
 40
0.08346
  1
15
 41
0.758447
  7
Style-ENGINEERING
 72
     1
 11
61243.836595
 21
80112.87173
 31
0.0
100
AcDbText
 73
     2
  0
TEXT
  5
43D
330
58E
100
AcDbEntity
  8
Level 63
  6
Continuous
 62
     1
370
    13
100
AcDbText
 10
61243.2614
 20
80113.1
 30
0.0
 40
0.08346
  1
20
 50
34.0999
 41
0.758447
  7
Style-ENGINEERING
 72
     1
 11
61243.30498
 21
80113.129506
 31
0.0
100
AcDbText
  0
TEXT
  5
43E
330
58E
100
AcDbEntity
  8
Level 63
  6
Continuous
 62
     1
370
    13
100
AcDbText
 10
61243.9664
 20
80114.13
 30
0.0
 40
0.08346
  1
1
 41
0.758447
  7
Style-ENGINEERING
 72
     1
 11
61243.976951
 21
80114.17173
 31
0.0
100
AcDbText
 73
     2
  0
TEXT
  5
43F
330
58E
100
AcDbEntity
  8
Level 63
  6
Continuous
 62
     1
370
     0
100
AcDbText
 10
61242.9014
 20
80112.51
 30
0.0
 40
0.18069
  1
COLOR WHEEL (STD.TBL)
 41
0.758924
  7
Style-COMPRESSED
 72
     1
 11
61243.81434
 21
80112.69069
 31
0.0
100
AcDbText
 73
     3
  0
TEXT
  5
440
330
58E
100
AcDbEntity
  8
Level 63
  6
Continuous
 62
     1
370
    13
100
AcDbText
 10
61243.1914
 20
80113.845
 30
0.0
 40
0.08346
  1
25
 50
332.053069
 41
0.758447
  7
Style-ENGINEERING
 72
     1
 11
61243.235741
 21
80113.821476
 31
0.0
100
AcDbText
  0
TEXT
  5
441
330
58E
100
AcDbEntity
  8
Level 63
  6
Continuous
 62
     1
370
    13
100
AcDbText
 10
61243.6514
 20
80114.14
 30
0.0
 40
0.08349
  1
29
 41
0.754222
  7
Style-ENGINEERING
 72
     1
 11
61243.701253
 21
80114.14
 31
0.0
100
AcDbText
  0
TEXT
  5
449
330
58E
100
AcDbEntity
  8
Level 47
  6
Continuous
 62
     7
370
     0
100
AcDbText
 10
61230.5264
 20
80114.42
 30
0.0
 40
0.17226
  1
LABELS, AND SECT. REFERENCES
  7
Style-CHAR_FAST_FONT
 11
61230.5264
 21
80114.50613
 31
0.0
100
AcDbText
 73
     2
  0
TEXT
  5
44A
330
58E
100
AcDbEntity
  8
Level 47
  6
Continuous
 62
     7
370
     0
100
AcDbText
 10
61230.5514
 20
80113.75
 30
0.0
 40
0.2433
  1
SUBTITLES
  7
Style-CHAR_FAST_FONT
 11
61230.5514
 21
80113.87165
 31
0.0
100
AcDbText
 73
     2
  0
TEXT
  5
44B
330
58E
100
AcDbEntity
  8
Level 47
  6
Continuous
 62
     7
370
     0
100
AcDbText
 10
61230.5514
 20
80113.295
 30
0.0
 40
0.27651
  1
MAIN TITLES
  7
Style-CHAR_FAST_FONT
 11
61230.5514
 21
80113.433255
 31
0.0
100
AcDbText
 73
     2
  0
TEXT
  5
44C
330
58E
100
AcDbEntity
  8
Level 47
  6
Continuous
 62
     7
370
     0
100
AcDbText
 10
61230.5414
 20
80114.1
 30
0.0
 40
0.19794
  1
DETAIL AND NOTE REFERENCES
  7
Style-CHAR_FAST_FONT
 11
61230.5414
 21
80114.19897
 31
0.0
100
AcDbText
 73
     2
  0
TEXT
  5
44D
330
58E
100
AcDbEntity
  8
Level 46
  6
Continuous
 62
     7
370
    13
100
AcDbText
 10
61230.5714
 20
80112.5
 30
0.0
 40
0.19653
  1
Freehand style
  7
Style-ITALICS
 11
61230.5714
 21
80112.598265
 31
0.0
100
AcDbText
 73
     2
  0
LINE
  5
44E
330
58E
100
AcDbEntity
  8
Level 47
  6
Continuous
 62
     7
370
    40
100
AcDbLine
 10
61230.5764
 20
80113.22
 30
0.0
 11
61232.9264
 21
80113.22
 31
0.0
  0
LINE
  5
44F
330
58E
100
AcDbEntity
  8
Level 47
  6
Continuous
 62
     7
370
    40
100
AcDbLine
 10
61230.5714
 20
80113.7
 30
0.0
 11
61232.2264
 21
80113.7
 31
0.0
  0
ARC
  5
450
330
58E
100
AcDbEntity
  8
Level 46
  6
Continuous
 62
     7
370
     0
100
AcDbCircle
 10
-61232.855393
 20
80111.359773
 30
0.0
 40
1.236263505040982
210
0.0
220
0.0
230
-1.0
100
AcDbArc
 50
76.962117
 51
104.245044
  0
HATCH
  5
451
330
58E
100
AcDbEntity
  8
Level 46
  6
Continuous
 62
     7
370
    13
100
AcDbHatch
 10
0.0
 20
0.0
 30
0.0
210
0.0
220
0.0
230
1.0
  2
SOLID
 70
     1
 71
     0
 91
        1
 92
        3
 72
     0
 73
     1
 93
        9
 10
61233.1564
 20
80112.55500000001
 10
61232.9564
 20
80112.57
 10
61232.9714
 20
80112.575
 10
61232.9764
 20
80112.58
 10
61232.9814
 20
80112.59000000001
 10
61232.9814
 20
80112.595
 10
61232.9814
 20
80112.6
 10
61232.9764
 20
80112.615
 10
61232.9714
 20
80112.625
 97
        0
 75
     0
 76
     1
 98
        0
  0
CIRCLE
  5
452
330
58E
100
AcDbEntity
  8
Level 46
  6
Continuous
 62
     7
370
     0
100
AcDbCircle
 10
61233.054068
 20
80112.580233
 30
0.0
 40
0.1582752540387768
  0
LINE
  5
453
330
58E
100
AcDbEntity
  8
Level 46
  6
Continuous
 62
     7
370
    40
100
AcDbLine
 10
61233.5314
 20
80112.555
 30
0.0
 11
61234.0764
 21
80112.555
 31
0.0
  0
SOLID
  5
454
330
58E
100
AcDbEntity
  8
Level 46
  6
Continuous
 62
     7
370
    13
100
AcDbTrace
 10
-61233.4414
 20
80112.555
 30
0.0
 11
-61233.6514
 21
80112.615
 31
0.0
 12
-61233.6514
 22
80112.5
 32
0.0
 13
-61233.6514
 23
80112.5
 33
0.0
210
0.0
220
0.0
230
-1.0
  0
MTEXT
  5
455
330
58E
100
AcDbEntity
  8
Level 46
  6
Continuous
 62
     7
370
     0
100
AcDbMText
 10
61233.3314
 20
80112.0361
 30
0.0
 40
0.1134
 41
0.0
 71
     4
 72
     1
  1
Arrow\Psizes\P
  7
Style-WORKING
 73
     2
 44
1.000829
  0
ARC
  5
458
330
58E
100
AcDbEntity
  8
Level 46
  6
Continuous
 62
     7
370
     0
100
AcDbCircle
 10
-61233.613871
 20
80112.645884
 30
0.0
 40
0.576522539307466
210
0.0
220
0.0
230
-1.0
100
AcDbArc
 50
304.574164
 51
337.396683
  0
CIRCLE
  5
459
330
58E
100
AcDbEntity
  8
Level 46
  6
Continuous
 62
     7
370
     0
100
AcDbCircle
 10
61233.559675
 20
80112.554244
 30
0.0
 40
0.1582752540387768
  0
ARC
  5
45A
330
58E
100
AcDbEntity
  8
Level 46
  6
Continuous
 62
     7
370
     0
100
AcDbCircle
 10
-61233.650952
 20
80112.173036
 30
0.0
 40
0.3642465616961252
210
0.0
220
0.0
230
-1.0
100
AcDbArc
 50
359.708039
 51
52.726975
  0
TEXT
  5
45B
330
58E
100
AcDbEntity
  8
Level 46
  6
Continuous
 62
     7
370
     0
100
AcDbText
 10
61230.5414
 20
80114.665
 30
0.0
 40
0.1125
  1
SMALL LABELS (USE SPARINGLY)
  7
Style-WORKING
 11
61230.5414
 21
80114.72125
 31
0.0
100
AcDbText
 73
     2
  0
TEXT
  5
45C
330
58E
100
AcDbEntity
  8
Level 46
  6
Continuous
 62
     1
370
    13
100
AcDbText
 10
61237.2264
 20
80113.43
 30
0.0
 40
0.1488
  1
ARCH. FREEHAND
  7
Style-FANCY
 11
61237.2264
 21
80113.5044
 31
0.0
100
AcDbText
 73
     2
  0
TEXT
  5
45D
330
58E
100
AcDbEntity
  8
Level 46
  6
Continuous
 62
     1
370
    13
100
AcDbText
 10
61235.4514
 20
80113.43
 30
0.0
 40
0.18606
  1
Freehand
  7
Style-ITALICS
 11
61235.4514
 21
80113.52303
 31
0.0
100
AcDbText
 73
     2
  0
TEXT
  5
45E
330
58E
100
AcDbEntity
  8
Level 47
  6
Continuous
 62
    30
370
    53
100
AcDbText
 10
61235.4664
 20
80113.78
 30
0.0
 40
0.23901
  1
200---MAIN TITLES
  7
Style-FANCY
 11
61235.4664
 21
80113.899505
 31
0.0
100
AcDbText
 73
     2
  0
TEXT
  5
45F
330
58E
100
AcDbEntity
  8
Level 47
  6
Continuous
 62
    30
370
    40
100
AcDbText
 10
61235.4164
 20
80114.125
 30
0.0
 40
0.20889
  1
175---SUB TITLES
  7
Style-FANCY
 11
61235.4164
 21
80114.229445
 31
0.0
100
AcDbText
 73
     2
  0
TEXT
  5
460
330
58E
100
AcDbEntity
  8
Level 46
  6
Continuous
 62
     1
370
    40
100
AcDbText
 10
61238.5164
 20
80114.425
 30
0.0
 40
0.16743
  1
140
  7
Style-FANCY
 11
61238.5164
 21
80114.508715
 31
0.0
100
AcDbText
 73
     2
  0
TEXT
  5
461
330
58E
100
AcDbEntity
  8
Level 48
  6
Continuous
 62
     1
370
    13
100
AcDbText
 10
61237.6814
 20
80114.445
 30
0.0
 40
0.14313
  1
120
  7
Style-FANCY
 11
61237.6814
 21
80114.516565
 31
0.0
100
AcDbText
 73
     2
  0
TEXT
  5
462
330
58E
100
AcDbEntity
  8
Level 46
  6
Continuous
 62
     1
370
    40
100
AcDbText
 10
61235.4264
 20
80114.745
 30
0.0
 40
0.20889
  1
CORPS TEXT STANDARDS
  7
Style-FANCY
 11
61235.4264
 21
80114.849445
 31
0.0
100
AcDbText
 73
     2
  0
TEXT
  5
463
330
58E
100
AcDbEntity
  8
Level 46
  6
Continuous
 62
     1
370
     0
100
AcDbText
 10
61235.4714
 20
80114.445
 30
0.0
 40
0.10734
  1
90--(RARELY USED)
  7
Style-FANCY
 11
61235.4714
 21
80114.49867
 31
0.0
100
AcDbText
 73
     2
  0
TEXT
  5
464
330
58E
100
AcDbEntity
  8
Level 46
  6
Continuous
 62
     1
370
     0
100
AcDbText
 10
61235.4764
 20
80113.19
 30
0.0
 40
0.10734
  1
N0.'S ARE WRICO EQUIVALENTS
  7
Style-FANCY
 11
61235.4764
 21
80113.24367
 31
0.0
100
AcDbText
 73
     2
  0
TEXT
  5
465
330
58E
100
AcDbEntity
  8
Level 46
  6
Continuous
 62
     1
370
     0
100
AcDbText
 10
61235.4714
 20
80113.02
 30
0.0
 40
0.10734
  1
FOR DRAFTING'S REFERENCE
  7
Style-FANCY
 11
61235.4714
 21
80113.07367
 31
0.0
100
AcDbText
 73
     2
  0
LINE
  5
466
330
58E
100
AcDbEntity
  8
Level 46
  6
Continuous
 62
     1
370
    40
100
AcDbLine
 10
61235.4314
 20
80114.67
 30
0.0
 11
61239.3514
 21
80114.67
 31
0.0
  0
MTEXT
  5
467
330
58E
100
AcDbEntity
  8
Level 46
  6
DGN Style 1
 62
     1
370
    13
100
AcDbMText
 10
61235.4764
 20
80112.85
 30
0.0
 40
0.18606
 41
0.0
 71
     1
 72
     1
  1
Freehand \Ptext LV=46\P
  7
Style-ITALICS
 73
     2
 44
0.877616
  0
MTEXT
  5
46A
330
58E
100
AcDbEntity
  8
Level 47
  6
DGN Style 1
 62
    30
370
    53
100
AcDbMText
 10
61236.85412
 20
80111.830165
 30
0.0
 40
0.23901
 41
0.0
 71
     5
 72
     1
  1
200 MAIN TITLE\PLEVEL = 47\P
  7
Style-FANCY
 73
     2
 44
0.89226
  0
MTEXT
  5
46D
330
58E
100
AcDbEntity
  8
Level 41
  6
Continuous
 62
     6
370
    40
100
AcDbMText
 10
61239.0064
 20
80112.005
 30
0.0
 40
0.16743
 41
0.0
 71
     1
 72
     1
  1
MATCHLINE AREA X\PSEE SHEET SX\P
  7
Style-FANCY
 73
     2
 44
0.890248
  0
MTEXT
  5
470
330
58E
100
AcDbEntity
  8
Level 46
  6
Continuous
 62
     1
370
    13
100
AcDbMText
 10
61237.0864
 20
80112.8
 30
0.0
 40
0.15
 41
0.0
 71
     1
 72
     1
  1
ARCH FREEHAND\PLEVEL=46\P
  7
Style-FANCY
 73
     2
 44
1.004016
  0
TEXT
  5
473
330
58E
100
AcDbEntity
  8
Level 46
  6
Continuous
 62
     7
370
    13
100
AcDbText
 10
61230.5664
 20
80112.87
 30
0.0
 40
0.15501
  1
2.5MM ENGR. FONT 3 (EQUAL TILE)
 41
0.870912
  7
Style-ENGINEERING
 11
61230.5664
 21
80112.947505
 31
0.0
100
AcDbText
 73
     2
  0
TEXT
  5
474
330
58E
100
AcDbEntity
  8
Level 46
  6
Continuous
 62
     7
370
    13
100
AcDbText
 10
61230.5564
 20
80112.145
 30
0.0
 40
0.15501
  1
ARCHITECTURAL FT=2
  7
Style-FANCY
 11
61230.5564
 21
80112.222505
 31
0.0
100
AcDbText
 73
     2
  0
MTEXT
  5
D5
330
58E
100
AcDbEntity
  8
Level 46
  6
Continuous
 62
     7
370
    13
100
AcDbMText
 10
61193.910858
 20
80132.988546
 30
0.0
 40
0.15
 41
0.0
 71
     1
 72
     1
  1
FROG\PNUMBER\P
  7
Style-Arial
 11
6.123031769111886E-17
 21
1.0
 31
0.0
 73
     2
 44
0.779643
  0
MTEXT
  5
D8
330
58E
100
AcDbEntity
  8
Level 46
  6
Continuous
 62
     7
370
    13
100
AcDbMText
 10
61194.823617
 20
80132.982589
 30
0.0
 40
0.15
 41
0.0
 71
     1
 72
     1
  1
LENGTH OF\PSWITCH RAIL\P
  7
Style-Arial
 11
6.123031769111886E-17
 21
1.0
 31
0.0
 73
     2
 44
0.779643
  0
TEXT
  5
DF
330
58E
100
AcDbEntity
  8
Level 46
  6
Continuous
 62
     7
370
    13
100
AcDbText
 10
61194.035902
 20
80132.480271
 30
0.0
 40
0.15
  1
8
  7
Style-Arial
 11
61194.035902
 21
80132.630271
 31
0.0
100
AcDbText
 73
     3
  0
TEXT
  5
E0
330
58E
100
AcDbEntity
  8
Level 46
  6
Continuous
 62
     7
370
    13
100
AcDbText
 10
61194.04016
 20
80132.177542
 30
0.0
 40
0.15
  1
9
  7
Style-Arial
 11
61194.04016
 21
80132.327542
 31
0.0
100
AcDbText
 73
     3
  0
TEXT
  5
E1
330
58E
100
AcDbEntity
  8
Level 46
  6
Continuous
 62
     7
370
    13
100
AcDbText
 10
61193.966867
 20
80131.870552
 30
0.0
 40
0.15
  1
10
  7
Style-Arial
 11
61193.966867
 21
80132.020552
 31
0.0
100
AcDbText
 73
     3
  0
TEXT
  5
E4
330
58E
100
AcDbEntity
  8
Level 46
  6
Continuous
 62
     7
370
    13
100
AcDbText
 10
61198.408338
 20
80132.772352
 30
0.0
 40
0.15
  1
RAIL "A"
  7
Style-Arial
 11
61198.408338
 21
80132.922352
 31
0.0
100
AcDbText
 73
     3
  0
TEXT
  5
E6
330
58E
100
AcDbEntity
  8
Level 46
  6
Continuous
 62
     7
370
    13
100
AcDbText
 10
61198.496766
 20
80131.868275
 30
0.0
 40
0.15
  1
10 058
  7
Style-Arial
 11
61198.496766
 21
80132.018275
 31
0.0
100
AcDbText
 73
     3
  0
TEXT
  5
11C
330
58E
100
AcDbEntity
  8
Level 46
  6
Continuous
 62
     7
370
    13
100
AcDbText
 10
61213.966696
 20
80138.786653
 30
0.0
 40
0.15
  1
POINT OF SWITCH
  7
Style-Arial
 11
61213.966696
 21
80138.936653
 31
0.0
100
AcDbText
 73
     3
  0
TEXT
  5
11F
330
58E
100
AcDbEntity
  8
Level 46
  6
Continuous
 62
     7
370
    13
100
AcDbText
 10
61209.92628
 20
80137.988615
 30
0.0
 40
0.15
  1
SWITCH RAIL
 50
358.227217
  7
Style-Arial
 11
61209.93092
 21
80138.138544
 31
0.0
100
AcDbText
 73
     3
  0
TEXT
  5
120
330
58E
100
AcDbEntity
  8
Level 46
  6
Continuous
 62
     7
370
    13
100
AcDbText
 10
61210.0154
 20
80138.9309
 30
0.0
 40
0.15
  1
SWITCH RAIL
  7
Style-Arial
 11
61210.0154
 21
80139.0809
 31
0.0
100
AcDbText
 73
     3
  0
TEXT
  5
149
330
58E
100
AcDbEntity
  8
Level 46
  6
Continuous
 62
     7
370
    13
100
AcDbText
 10
61200.0398
 20
80137.549449
 30
0.0
 40
0.15
  1
RAIL "G"
  7
Style-Arial
 11
61200.0398
 21
80137.699449
 31
0.0
100
AcDbText
 73
     3
  0
TEXT
  5
14A
330
58E
100
AcDbEntity
  8
Level 46
  6
Continuous
 62
     7
370
    13
100
AcDbText
 10
61202.486656
 20
80137.130546
 30
0.0
 40
0.15
  1
LEAD
  7
Style-Arial
 11
61202.486656
 21
80137.280546
 31
0.0
100
AcDbText
 73
     3
  0
TEXT
  5
151
330
58E
100
AcDbEntity
  8
Level 46
  6
Continuous
 62
     7
370
    13
100
AcDbText
 10
61193.829409
 20
80138.391844
 30
0.0
 40
0.15
  1
LAP "Y"
  7
Style-Arial
 11
61193.829409
 21
80138.541844
 31
0.0
100
AcDbText
 73
     3
  0
TEXT
  5
167
330
58E
100
AcDbEntity
  8
Level 46
  6
Continuous
 62
     7
370
    13
100
AcDbText
 10
61204.01219
 20
80138.261754
 30
0.0
 40
0.15
  1
RAIL "D"
 50
356.705233
  7
Style-Arial
 11
61204.02081
 21
80138.411506
 31
0.0
100
AcDbText
 73
     3
  0
TEXT
  5
168
330
58E
100
AcDbEntity
  8
Level 46
  6
Continuous
 62
     7
370
    13
100
AcDbText
 10
61197.545923
 20
80138.763046
 30
0.0
 40
0.15
  1
RAIL "E"
 50
355.014042
  7
Style-Arial
 11
61197.55896
 21
80138.912479
 31
0.0
100
AcDbText
 73
     3
  0
TEXT
  5
1A5
330
58E
100
AcDbEntity
  8
Level 46
  6
Continuous
 62
     7
370
    13
100
AcDbText
 10
61202.465463
 20
80139.823794
 30
0.0
 40
0.15
  1
RAIL "K"
 50
356.072617
  7
Style-Arial
 11
61202.475737
 21
80139.973442
 31
0.0
100
AcDbText
 73
     3
  0
TEXT
  5
1AD
330
58E
100
AcDbEntity
  8
Level 46
  6
Continuous
 62
     7
370
    13
100
AcDbText
 10
61192.797167
 20
80140.014364
 30
0.0
 40
0.15
  1
LAP "X"
 50
352.847289
  7
Style-Arial
 11
61192.815844
 21
80140.163197
 31
0.0
100
AcDbText
 73
     3
  0
TEXT
  5
1AE
330
58E
100
AcDbEntity
  8
Level 46
  6
Continuous
 62
     7
370
    13
100
AcDbText
 10
61203.2939
 20
80138.9566
 30
0.0
 40
0.15
  1
RAIL "A"
  7
Style-Arial
 11
61203.2939
 21
80139.1066
 31
0.0
100
AcDbText
 73
     3
  0
TEXT
  5
1AF
330
58E
100
AcDbEntity
  8
Level 46
  6
Continuous
 62
     7
370
    13
100
AcDbText
 10
61196.5638
 20
80138.9626
 30
0.0
 40
0.15
  1
RAIL "A"
  7
Style-Arial
 11
61196.5638
 21
80139.1126
 31
0.0
100
AcDbText
 73
     3
  0
MTEXT
  5
1B1
330
58E
100
AcDbEntity
  8
Level 46
  6
Continuous
 62
     7
370
    13
100
AcDbMText
 10
61208.78878
 20
80132.988682
 30
0.0
 40
0.15
 41
0.0
 71
     1
 72
     1
  1
STRAIGHT\PSTOCK RAIL\P
  7
Style-Arial
 11
6.123031769111886E-17
 21
1.0
 31
0.0
 73
     2
 44
0.779643
  0
MTEXT
  5
1B4
330
58E
100
AcDbEntity
  8
Level 46
  6
Continuous
 62
     7
370
    13
100
AcDbMText
 10
61210.006064
 20
80132.988791
 30
0.0
 40
0.15
 41
0.0
 71
     1
 72
     1
  1
CURVED\PSTOCK RAIL\P
  7
Style-Arial
 11
6.123031769111886E-17
 21
1.0
 31
0.0
 73
     2
 44
0.779643
  0
TEXT
  5
1B8
330
58E
100
AcDbEntity
  8
Level 46
  6
Continuous
 62
     7
370
    13
100
AcDbText
 10
61211.443822
 20
80132.973278
 30
0.0
 40
0.15
  1
LAP "X"
 50
90.0
  7
Style-Arial
 11
61211.293822
 21
80132.973278
 31
0.0
100
AcDbText
 73
     3
  0
TEXT
  5
1B9
330
58E
100
AcDbEntity
  8
Level 46
  6
Continuous
 62
     7
370
    13
100
AcDbText
 10
61212.666615
 20
80132.973317
 30
0.0
 40
0.15
  1
LAP "Y"
 50
90.0
  7
Style-Arial
 11
61212.516615
 21
80132.973317
 31
0.0
100
AcDbText
 73
     3
  0
TEXT
  5
1BB
330
58E
100
AcDbEntity
  8
Level 46
  6
Continuous
 62
     7
370
    13
100
AcDbText
 10
61197.168453
 20
80132.477883
 30
0.0
 40
0.15
  1
20 726
  7
Style-Arial
 11
61197.168453
 21
80132.627883
 31
0.0
100
AcDbText
 73
     3
  0
TEXT
  5
1BC
330
58E
100
AcDbEntity
  8
Level 46
  6
Continuous
 62
     7
370
    13
100
AcDbText
 10
61197.175999
 20
80131.868027
 30
0.0
 40
0.15
  1
24 003
  7
Style-Arial
 11
61197.175999
 21
80132.018027
 31
0.0
100
AcDbText
 73
     3
  0
TEXT
  5
1C1
330
58E
100
AcDbEntity
  8
Level 46
  6
Continuous
 62
     7
370
    13
100
AcDbText
 10
61199.76823
 20
80132.772142
 30
0.0
 40
0.15
  1
RAIL "B"
  7
Style-Arial
 11
61199.76823
 21
80132.922142
 31
0.0
100
AcDbText
 73
     3
  0
TEXT
  5
1C2
330
58E
100
AcDbEntity
  8
Level 46
  6
Continuous
 62
     7
370
    13
100
AcDbText
 10
61201.118492
 20
80132.772279
 30
0.0
 40
0.15
  1
RAIL "D"
  7
Style-Arial
 11
61201.118492
 21
80132.922279
 31
0.0
100
AcDbText
 73
     3
  0
TEXT
  5
1C6
330
58E
100
AcDbEntity
  8
Level 46
  6
Continuous
 62
     7
370
    13
100
AcDbText
 10
61202.47911
 20
80132.772385
 30
0.0
 40
0.15
  1
RAIL "E"
  7
Style-Arial
 11
61202.47911
 21
80132.922385
 31
0.0
100
AcDbText
 73
     3
  0
TEXT
  5
1C7
330
58E
100
AcDbEntity
  8
Level 46
  6
Continuous
 62
     7
370
    13
100
AcDbText
 10
61204.196867
 20
80132.772259
 30
0.0
 40
0.15
  1
RAIL "G"
  7
Style-Arial
 11
61204.196867
 21
80132.922259
 31
0.0
100
AcDbText
 73
     3
  0
TEXT
  5
1C8
330
58E
100
AcDbEntity
  8
Level 46
  6
Continuous
 62
     7
370
    13
100
AcDbText
 10
61204.31287
 20
80131.867939
 30
0.0
 40
0.15
  1
11 887
  7
Style-Arial
 11
61204.31287
 21
80132.017939
 31
0.0
100
AcDbText
 73
     3
  0
TEXT
  5
1CA
330
58E
100
AcDbEntity
  8
Level 46
  6
Continuous
 62
     7
370
    13
100
AcDbText
 10
61204.293711
 20
80132.17515
 30
0.0
 40
0.15
  1
10 058
  7
Style-Arial
 11
61204.293711
 21
80132.32515
 31
0.0
100
AcDbText
 73
     3
  0
TEXT
  5
1CB
330
58E
100
AcDbEntity
  8
Level 46
  6
Continuous
 62
     7
370
    13
100
AcDbText
 10
61205.950812
 20
80132.772329
 30
0.0
 40
0.15
  1
RAIL "K"
  7
Style-Arial
 11
61205.950812
 21
80132.922329
 31
0.0
100
AcDbText
 73
     3
  0
TEXT
  5
1CF
330
58E
100
AcDbEntity
  8
Level 46
  6
Continuous
 62
     7
370
    13
100
AcDbText
 10
61207.280096
 20
80132.772352
 30
0.0
 40
0.15
  1
RAIL "M"
  7
Style-Arial
 11
61207.280096
 21
80132.922352
 31
0.0
100
AcDbText
 73
     3
  0
TEXT
  5
1D1
330
58E
100
AcDbEntity
  8
Level 46
  6
Continuous
 62
     7
370
    13
100
AcDbText
 10
61207.567325
 20
80132.518613
 30
0.0
 40
0.15
  1
----
  7
Style-Arial
 11
61207.567325
 21
80132.668613
 31
0.0
100
AcDbText
 73
     3
  0
TEXT
  5
1D2
330
58E
100
AcDbEntity
  8
Level 46
  6
Continuous
 62
     7
370
    13
100
AcDbText
 10
61207.573711
 20
80132.226532
 30
0.0
 40
0.15
  1
----
  7
Style-Arial
 11
61207.573711
 21
80132.376532
 31
0.0
100
AcDbText
 73
     3
  0
TEXT
  5
1D3
330
58E
100
AcDbEntity
  8
Level 46
  6
Continuous
 62
     7
370
    13
100
AcDbText
 10
61198.679279
 20
80133.247873
 30
0.0
 40
0.15
  1
STRAIGHT RAIL
  7
Style-Arial
 11
61198.679279
 21
80133.397873
 31
0.0
100
AcDbText
 73
     3
  0
TEXT
  5
1D4
330
58E
100
AcDbEntity
  8
Level 46
  6
Continuous
 62
     7
370
    13
100
AcDbText
 10
61201.520391
 20
80133.247303
 30
0.0
 40
0.15
  1
CURVED RAIL
  7
Style-Arial
 11
61201.520391
 21
80133.397303
 31
0.0
100
AcDbText
 73
     3
  0
TEXT
  5
1D5
330
58E
100
AcDbEntity
  8
Level 46
  6
Continuous
 62
     7
370
    13
100
AcDbText
 10
61206.362388
 20
80133.247796
 30
0.0
 40
0.15
  1
CURVED RAIL
  7
Style-Arial
 11
61206.362388
 21
80133.397796
 31
0.0
100
AcDbText
 73
     3
  0
TEXT
  5
1D6
330
58E
100
AcDbEntity
  8
Level 46
  6
Continuous
 62
     7
370
    13
100
AcDbText
 10
61203.79914
 20
80133.247965
 30
0.0
 40
0.15
  1
STRAIGHT RAIL
  7
Style-Arial
 11
61203.79914
 21
80133.397965
 31
0.0
100
AcDbText
 73
     3
  0
TEXT
  5
1D8
330
58E
100
AcDbEntity
  8
Level 46
  6
Continuous
 62
     7
370
    13
100
AcDbText
 10
61208.662955
 20
80132.477735
 30
0.0
 40
0.15
  1
11 887
  7
Style-Arial
 11
61208.662955
 21
80132.627735
 31
0.0
100
AcDbText
 73
     3
  0
TEXT
  5
1DD
330
58E
100
AcDbEntity
  8
Level 46
  6
Continuous
 62
     7
370
    13
100
AcDbText
 10
61199.966572
 20
80134.282298
 30
0.0
 40
0.15
  1
CLOSURE RAILS
  7
Style-Arial
 11
61199.966572
 21
80134.432298
 31
0.0
100
AcDbText
 73
     3
  0
TEXT
  5
1DE
330
58E
100
AcDbEntity
  8
Level 46
  6
Continuous
 62
     7
370
    13
100
AcDbText
 10
61205.114325
 20
80134.282298
 30
0.0
 40
0.15
  1
TURNOUT RAILS
  7
Style-Arial
 11
61205.114325
 21
80134.432298
 31
0.0
100
AcDbText
 73
     3
  0
TEXT
  5
28B
330
58E
100
AcDbEntity
  8
Level 46
  6
Continuous
 62
     7
370
    13
100
AcDbText
 10
61192.056746
 20
80128.61481
 30
0.0
 40
0.15
  1
POINT OF SWITCH
  7
Style-Arial
 11
61192.056746
 21
80128.76481
 31
0.0
100
AcDbText
 73
     3
  0
TEXT
  5
28E
330
58E
100
AcDbEntity
  8
Level 46
  6
Continuous
 62
     7
370
    13
100
AcDbText
 10
61196.756715
 20
80127.830376
 30
0.0
 40
0.15
  1
SWITCH RAIL
 50
2.227217
  7
Style-Arial
 11
61196.750885
 21
80127.980263
 31
0.0
100
AcDbText
 73
     3
  0
TEXT
  5
28F
330
58E
100
AcDbEntity
  8
Level 46
  6
Continuous
 62
     7
370
    13
100
AcDbText
 10
61196.7163
 20
80128.837351
 30
0.0
 40
0.15
  1
SWITCH RAIL
  7
Style-Arial
 11
61196.7163
 21
80128.987351
 31
0.0
100
AcDbText
 73
     3
  0
TEXT
  5
2B8
330
58E
100
AcDbEntity
  8
Level 46
  6
Continuous
 62
     7
370
    13
100
AcDbText
 10
61206.543
 20
80127.38722
 30
0.0
 40
0.15
  1
RAIL "G"
  7
Style-Arial
 11
61206.543
 21
80127.53722
 31
0.0
100
AcDbText
 73
     3
  0
TEXT
  5
2B9
330
58E
100
AcDbEntity
  8
Level 46
  6
Continuous
 62
     7
370
    13
100
AcDbText
 10
61205.149727
 20
80126.8955
 30
0.0
 40
0.15
  1
LEAD
  7
Style-Arial
 11
61205.149727
 21
80127.0455
 31
0.0
100
AcDbText
 73
     3
  0
TEXT
  5
2C0
330
58E
100
AcDbEntity
  8
Level 46
  6
Continuous
 62
     7
370
    13
100
AcDbText
 10
61213.413016
 20
80128.224055
 30
0.0
 40
0.15
  1
LAP "Y"
  7
Style-Arial
 11
61213.413016
 21
80128.374055
 31
0.0
100
AcDbText
 73
     3
  0
TEXT
  5
2D6
330
58E
100
AcDbEntity
  8
Level 46
  6
Continuous
 62
     7
370
    13
100
AcDbText
 10
61203.151247
 20
80128.024539
 30
0.0
 40
0.15
  1
RAIL "D"
 50
3.705233
  7
Style-Arial
 11
61203.141553
 21
80128.174226
 31
0.0
100
AcDbText
 73
     3
  0
TEXT
  5
2D7
330
58E
100
AcDbEntity
  8
Level 46
  6
Continuous
 62
     7
370
    13
100
AcDbText
 10
61209.539158
 20
80128.50616
 30
0.0
 40
0.15
  1
RAIL "E"
 50
6.014042
  7
Style-Arial
 11
61209.523442
 21
80128.655335
 31
0.0
100
AcDbText
 73
     3
  0
TEXT
  5
314
330
58E
100
AcDbEntity
  8
Level 46
  6
Continuous
 62
     7
370
    13
100
AcDbText
 10
61204.752888
 20
80129.557336
 30
0.0
 40
0.15
  1
RAIL "K"
 50
4.072617
  7
Style-Arial
 11
61204.742235
 21
80129.706957
 31
0.0
100
AcDbText
 73
     3
  0
TEXT
  5
31C
330
58E
100
AcDbEntity
  8
Level 46
  6
Continuous
 62
     7
370
    13
100
AcDbText
 10
61214.422272
 20
80129.75851
 30
0.0
 40
0.15
  1
LAP "X"
 50
5.847289
  7
Style-Arial
 11
61214.406991
 21
80129.907729
 31
0.0
100
AcDbText
 73
     3
  0
TEXT
  5
31D
330
58E
100
AcDbEntity
  8
Level 46
  6
Continuous
 62
     7
370
    13
100
AcDbText
 10
61203.916459
 20
80128.856801
 30
0.0
 40
0.15
  1
RAIL "A"
  7
Style-Arial
 11
61203.916459
 21
80129.006801
 31
0.0
100
AcDbText
 73
     3
  0
TEXT
  5
31E
330
58E
100
AcDbEntity
  8
Level 46
  6
Continuous
 62
     7
370
    13
100
AcDbText
 10
61210.6159
 20
80128.853692
 30
0.0
 40
0.15
  1
RAIL "A"
  7
Style-Arial
 11
61210.6159
 21
80129.003692
 31
0.0
100
AcDbText
 73
     3
  0
MTEXT
  5
323
330
58E
100
AcDbEntity
  8
Level 46
  6
Continuous
 62
     7
370
    13
100
AcDbMText
 10
61193.70999
 20
80122.812611
 30
0.0
 40
0.15
 41
0.0
 71
     1
 72
     1
  1
FROG\PNUMBER\P
  7
Style-Arial
 11
6.123031769111886E-17
 21
1.0
 31
0.0
 73
     2
 44
0.779643
  0
MTEXT
  5
326
330
58E
100
AcDbEntity
  8
Level 46
  6
Continuous
 62
     7
370
    13
100
AcDbMText
 10
61194.61592
 20
80122.807551
 30
0.0
 40
0.15
 41
0.0
 71
     1
 72
     1
  1
LENGTH OF\PSWITCH RAIL\P
  7
Style-Arial
 11
6.123031769111886E-17
 21
1.0
 31
0.0
 73
     2
 44
0.779643
  0
TEXT
  5
32D
330
58E
100
AcDbEntity
  8
Level 46
  6
Continuous
 62
     7
370
    13
100
AcDbText
 10
61193.832743
 20
80122.304989
 30
0.0
 40
0.15
  1
8
  7
Style-Arial
 11
61193.832743
 21
80122.454989
 31
0.0
100
AcDbText
 73
     3
  0
TEXT
  5
32E
330
58E
100
AcDbEntity
  8
Level 46
  6
Continuous
 62
     7
370
    13
100
AcDbText
 10
61193.835176
 20
80122.001955
 30
0.0
 40
0.15
  1
9
  7
Style-Arial
 11
61193.835176
 21
80122.151955
 31
0.0
100
AcDbText
 73
     3
  0
TEXT
  5
32F
330
58E
100
AcDbEntity
  8
Level 46
  6
Continuous
 62
     7
370
    13
100
AcDbText
 10
61193.7708
 20
80121.702572
 30
0.0
 40
0.15
  1
10
  7
Style-Arial
 11
61193.7708
 21
80121.852572
 31
0.0
100
AcDbText
 73
     3
  0
TEXT
  5
332
330
58E
100
AcDbEntity
  8
Level 46
  6
Continuous
 62
     7
370
    13
100
AcDbText
 10
61198.232733
 20
80122.605589
 30
0.0
 40
0.15
  1
RAIL "A"
  7
Style-Arial
 11
61198.232733
 21
80122.755589
 31
0.0
100
AcDbText
 73
     3
  0
MTEXT
  5
335
330
58E
100
AcDbEntity
  8
Level 46
  6
Continuous
 62
     7
370
    13
100
AcDbMText
 10
61208.599535
 20
80122.813675
 30
0.0
 40
0.15
 41
0.0
 71
     1
 72
     1
  1
STRAIGHT\PSTOCK RAIL\P
  7
Style-Arial
 11
6.123031769111886E-17
 21
1.0
 31
0.0
 73
     2
 44
0.779643
  0
MTEXT
  5
338
330
58E
100
AcDbEntity
  8
Level 46
  6
Continuous
 62
     7
370
    13
100
AcDbMText
 10
61209.799374
 20
80122.813615
 30
0.0
 40
0.15
 41
0.0
 71
     1
 72
     1
  1
CURVED\PSTOCK RAIL\P
  7
Style-Arial
 11
6.123031769111886E-17
 21
1.0
 31
0.0
 73
     2
 44
0.779643
  0
TEXT
  5
33C
330
58E
100
AcDbEntity
  8
Level 46
  6
Continuous
 62
     7
370
    13
100
AcDbText
 10
61211.408494
 20
80122.798257
 30
0.0
 40
0.15
  1
LAP "X"
 50
90.0
  7
Style-Arial
 11
61211.258494
 21
80122.798257
 31
0.0
100
AcDbText
 73
     3
  0
TEXT
  5
33D
330
58E
100
AcDbEntity
  8
Level 46
  6
Continuous
 62
     7
370
    13
100
AcDbText
 10
61212.725148
 20
80122.79818
 30
0.0
 40
0.15
  1
LAP "Y"
 50
90.0
  7
Style-Arial
 11
61212.575148
 21
80122.79818
 31
0.0
100
AcDbText
 73
     3
  0
TEXT
  5
343
330
58E
100
AcDbEntity
  8
Level 46
  6
Continuous
 62
     7
370
    13
100
AcDbText
 10
61199.591727
 20
80122.605676
 30
0.0
 40
0.15
  1
RAIL "B"
  7
Style-Arial
 11
61199.591727
 21
80122.755676
 31
0.0
100
AcDbText
 73
     3
  0
TEXT
  5
344
330
58E
100
AcDbEntity
  8
Level 46
  6
Continuous
 62
     7
370
    13
100
AcDbText
 10
61200.937941
 20
80122.605688
 30
0.0
 40
0.15
  1
RAIL "D"
  7
Style-Arial
 11
61200.937941
 21
80122.755688
 31
0.0
100
AcDbText
 73
     3
  0
TEXT
  5
348
330
58E
100
AcDbEntity
  8
Level 46
  6
Continuous
 62
     7
370
    13
100
AcDbText
 10
61202.262966
 20
80122.60563
 30
0.0
 40
0.15
  1
RAIL "E"
  7
Style-Arial
 11
61202.262966
 21
80122.75563
 31
0.0
100
AcDbText
 73
     3
  0
TEXT
  5
349
330
58E
100
AcDbEntity
  8
Level 46
  6
Continuous
 62
     7
370
    13
100
AcDbText
 10
61204.033943
 20
80122.605574
 30
0.0
 40
0.15
  1
RAIL "G"
  7
Style-Arial
 11
61204.033943
 21
80122.755574
 31
0.0
100
AcDbText
 73
     3
  0
TEXT
  5
34B
330
58E
100
AcDbEntity
  8
Level 46
  6
Continuous
 62
     7
370
    13
100
AcDbText
 10
61205.730942
 20
80122.605771
 30
0.0
 40
0.15
  1
RAIL "K"
  7
Style-Arial
 11
61205.730942
 21
80122.755771
 31
0.0
100
AcDbText
 73
     3
  0
TEXT
  5
34F
330
58E
100
AcDbEntity
  8
Level 46
  6
Continuous
 62
     7
370
    13
100
AcDbText
 10
61207.079917
 20
80122.605638
 30
0.0
 40
0.15
  1
RAIL "M"
  7
Style-Arial
 11
61207.079917
 21
80122.755638
 31
0.0
100
AcDbText
 73
     3
  0
TEXT
  5
351
330
58E
100
AcDbEntity
  8
Level 46
  6
Continuous
 62
     7
370
    13
100
AcDbText
 10
61207.396
 20
80122.317464
 30
0.0
 40
0.15
  1
----
  7
Style-Arial
 11
61207.396
 21
80122.467464
 31
0.0
100
AcDbText
 73
     3
  0
TEXT
  5
352
330
58E
100
AcDbEntity
  8
Level 46
  6
Continuous
 62
     7
370
    13
100
AcDbText
 10
61207.408773
 20
80122.006214
 30
0.0
 40
0.15
  1
----
  7
Style-Arial
 11
61207.408773
 21
80122.156214
 31
0.0
100
AcDbText
 73
     3
  0
TEXT
  5
353
330
58E
100
AcDbEntity
  8
Level 46
  6
Continuous
 62
     7
370
    13
100
AcDbText
 10
61198.525787
 20
80123.057649
 30
0.0
 40
0.15
  1
STRAIGHT RAIL
  7
Style-Arial
 11
61198.525787
 21
80123.207649
 31
0.0
100
AcDbText
 73
     3
  0
TEXT
  5
354
330
58E
100
AcDbEntity
  8
Level 46
  6
Continuous
 62
     7
370
    13
100
AcDbText
 10
61201.327686
 20
80123.057649
 30
0.0
 40
0.15
  1
CURVED RAIL
  7
Style-Arial
 11
61201.327686
 21
80123.207649
 31
0.0
100
AcDbText
 73
     3
  0
TEXT
  5
355
330
58E
100
AcDbEntity
  8
Level 46
  6
Continuous
 62
     7
370
    13
100
AcDbText
 10
61206.176304
 20
80123.056722
 30
0.0
 40
0.15
  1
CURVED RAIL
  7
Style-Arial
 11
61206.176304
 21
80123.206722
 31
0.0
100
AcDbText
 73
     3
  0
TEXT
  5
356
330
58E
100
AcDbEntity
  8
Level 46
  6
Continuous
 62
     7
370
    13
100
AcDbText
 10
61203.613049
 20
80123.058211
 30
0.0
 40
0.15
  1
STRAIGHT RAIL
  7
Style-Arial
 11
61203.613049
 21
80123.208211
 31
0.0
100
AcDbText
 73
     3
  0
TEXT
  5
35A
330
58E
100
AcDbEntity
  8
Level 46
  6
Continuous
 62
     7
370
    13
100
AcDbText
 10
61199.786999
 20
80124.113098
 30
0.0
 40
0.15
  1
CLOSURE RAILS
  7
Style-Arial
 11
61199.786999
 21
80124.263098
 31
0.0
100
AcDbText
 73
     3
  0
TEXT
  5
35B
330
58E
100
AcDbEntity
  8
Level 46
  6
Continuous
 62
     7
370
    13
100
AcDbText
 10
61204.901433
 20
80124.112837
 30
0.0
 40
0.15
  1
TURNOUT RAILS
  7
Style-Arial
 11
61204.901433
 21
80124.262837
 31
0.0
100
AcDbText
 73
     3
  0
TEXT
  5
35E
330
58E
100
AcDbEntity
  8
Level 46
  6
Continuous
 62
     7
370
    13
100
AcDbText
 10
61202.4252
 20
80135.56703
 30
0.0
 40
0.15
  1
NO SCALE
  7
Style-Arial
 11
61202.4252
 21
80135.71703
 31
0.0
100
AcDbText
 73
     3
  0
TEXT
  5
35F
330
58E
100
AcDbEntity
  8
Level 46
  6
Continuous
 62
     7
370
    13
100
AcDbText
 10
61202.465
 20
80125.5828
 30
0.0
 40
0.15
  1
NO SCALE
  7
Style-Arial
 11
61202.465
 21
80125.7328
 31
0.0
100
AcDbText
 73
     3
  0
TEXT
  5
364
330
58E
100
AcDbEntity
  8
Level 46
  6
Continuous
 62
     7
370
    13
100
AcDbText
 10
61196.0857
 20
80127.382201
 30
0.0
 40
0.15
  1
STRAIGHT STOCK RAIL
  7
Style-Arial
 11
61196.0857
 21
80127.532201
 31
0.0
100
AcDbText
 73
     3
  0
TEXT
  5
365
330
58E
100
AcDbEntity
  8
Level 46
  6
Continuous
 62
     7
370
    13
100
AcDbText
 10
61196.375717
 20
80129.261503
 30
0.0
 40
0.15
  1
BENT STOCK RAIL
 50
2.0
  7
Style-Arial
 11
61196.370483
 21
80129.411412
 31
0.0
100
AcDbText
 73
     3
  0
TEXT
  5
366
330
58E
100
AcDbEntity
  8
Level 46
  6
Continuous
 62
     7
370
    13
100
AcDbText
 10
61209.671083
 20
80139.444233
 30
0.0
 40
0.15
  1
BENT STOCK RAIL
 50
358.0
  7
Style-Arial
 11
61209.676317
 21
80139.594142
 31
0.0
100
AcDbText
 73
     3
  0
TEXT
  5
367
330
58E
100
AcDbEntity
  8
Level 46
  6
Continuous
 62
     7
370
    13
100
AcDbText
 10
61209.3461
 20
80137.4959
 30
0.0
 40
0.15
  1
STRAIGHT STOCK RAIL
  7
Style-Arial
 11
61209.3461
 21
80137.6459
 31
0.0
100
AcDbText
 73
     3
  0
TEXT
  5
368
330
58E
100
AcDbEntity
  8
Level 1
  6
Continuous
 62
     7
370
     0
100
AcDbText
 10
61190.972506
 20
80141.772505
 30
0.0
 40
0.15
  1
A
  7
Style-Arial
 11
61190.972506
 21
80141.922505
 31
0.0
100
AcDbText
 73
     3
  0
TEXT
  5
385
330
58E
100
AcDbEntity
  8
Level 1
  6
Continuous
 62
     7
370
     0
100
AcDbText
 10
61195.652506
 20
80141.772505
 30
0.0
 40
0.15
  1
B
  7
Style-Arial
 11
61195.652506
 21
80141.922505
 31
0.0
100
AcDbText
 73
     3
  0
TEXT
  5
386
330
58E
100
AcDbEntity
  8
Level 1
  6
Continuous
 62
     7
370
     0
100
AcDbText
 10
61200.322506
 20
80141.772505
 30
0.0
 40
0.15
  1
C
  7
Style-Arial
 11
61200.322506
 21
80141.922505
 31
0.0
100
AcDbText
 73
     3
  0
TEXT
  5
387
330
58E
100
AcDbEntity
  8
Level 1
  6
Continuous
 62
     7
370
     0
100
AcDbText
 10
61204.997506
 20
80141.772505
 30
0.0
 40
0.15
  1
D
  7
Style-Arial
 11
61204.997506
 21
80141.922505
 31
0.0
100
AcDbText
 73
     3
  0
TEXT
  5
389
330
58E
100
AcDbEntity
  8
Level 1
  6
Continuous
 62
     7
370
     0
100
AcDbText
 10
61188.502506
 20
80134.472505
 30
0.0
 40
0.15
  1
5
  7
Style-Arial
 11
61188.502506
 21
80134.622505
 31
0.0
100
AcDbText
 73
     3
  0
TEXT
  5
38A
330
58E
100
AcDbEntity
  8
Level 1
  6
Continuous
 62
     7
370
     0
100
AcDbText
 10
61188.497506
 20
80129.722505
 30
0.0
 40
0.15
  1
4
  7
Style-Arial
 11
61188.497506
 21
80129.872505
 31
0.0
100
AcDbText
 73
     3
  0
TEXT
  5
38B
330
58E
100
AcDbEntity
  8
Level 1
  6
Continuous
 62
     7
370
     0
100
AcDbText
 10
61188.502506
 20
80124.972505
 30
0.0
 40
0.15
  1
3
  7
Style-Arial
 11
61188.502506
 21
80125.122505
 31
0.0
100
AcDbText
 73
     3
  0
TEXT
  5
38C
330
58E
100
AcDbEntity
  8
Level 1
  6
Continuous
 62
     7
370
     0
100
AcDbText
 10
61188.502506
 20
80120.222505
 30
0.0
 40
0.15
  1
2
  7
Style-Arial
 11
61188.502506
 21
80120.372505
 31
0.0
100
AcDbText
 73
     3
  0
TEXT
  5
38D
330
58E
100
AcDbEntity
  8
Level 1
  6
Continuous
 62
     7
370
     0
100
AcDbText
 10
61188.537506
 20
80115.472505
 30
0.0
 40
0.15
  1
1
  7
Style-Arial
 11
61188.537506
 21
80115.622505
 31
0.0
100
AcDbText
 73
     3
  0
TEXT
  5
392
330
58E
100
AcDbEntity
  8
Level 1
  6
Continuous
 62
     7
370
     0
100
AcDbText
 10
61209.692506
 20
80141.772505
 30
0.0
 40
0.15
  1
E
  7
Style-Arial
 11
61209.692506
 21
80141.922505
 31
0.0
100
AcDbText
 73
     3
  0
TEXT
  5
393
330
58E
100
AcDbEntity
  8
Level 1
  6
Continuous
 62
     7
370
     0
100
AcDbText
 10
61214.367506
 20
80141.772505
 30
0.0
 40
0.15
  1
F
  7
Style-Arial
 11
61214.367506
 21
80141.922505
 31
0.0
100
AcDbText
 73
     3
  0
TEXT
  5
394
330
58E
100
AcDbEntity
  8
Level 1
  6
Continuous
 62
     7
370
     0
100
AcDbText
 10
61219.017506
 20
80141.772505
 30
0.0
 40
0.15
  1
G
  7
Style-Arial
 11
61219.017506
 21
80141.922505
 31
0.0
100
AcDbText
 73
     3
  0
TEXT
  5
395
330
58E
100
AcDbEntity
  8
Level 1
  6
Continuous
 62
     7
370
     0
100
AcDbText
 10
61223.702506
 20
80141.772505
 30
0.0
 40
0.15
  1
H
  7
Style-Arial
 11
61223.702506
 21
80141.922505
 31
0.0
100
AcDbText
 73
     3
  0
TEXT
  5
39E
330
58E
100
AcDbEntity
  8
Level 1
  6
Continuous
 62
     7
370
     0
100
AcDbText
 10
61226.993208
 20
80123.525
 30
0.0
 40
0.15
  1
Dwn by:
 50
90.0
  7
Style-Arial
 11
61226.843208
 21
80123.525
 31
0.0
100
AcDbText
 73
     3
  0
TEXT
  5
39F
330
58E
100
AcDbEntity
  8
Level 1
  6
Continuous
 62
     7
370
     0
100
AcDbText
 10
61227.468208
 20
80123.52
 30
0.0
 40
0.15
  1
Reviewed by:
 50
90.0
  7
Style-Arial
 11
61227.318208
 21
80123.52
 31
0.0
100
AcDbText
 73
     3
  0
TEXT
  5
3A0
330
58E
100
AcDbEntity
  8
Level 1
  6
Continuous
 62
     7
370
     0
100
AcDbText
 10
61226.532673
 20
80125.585
 30
0.0
 40
0.15
  1
Date:
 50
90.0
  7
Style-Arial
 11
61226.382673
 21
80125.585
 31
0.0
100
AcDbText
 73
     3
  0
TEXT
  5
3A1
330
58E
100
AcDbEntity
  8
Level 1
  6
Continuous
 62
     7
370
     0
100
AcDbText
 10
61226.59639
 20
80127.635
 30
0.0
 40
0.15
  1
Rev.
 50
90.0
  7
Style-Arial
 11
61226.44639
 21
80127.635
 31
0.0
100
AcDbText
 73
     3
  0
TEXT
  5
3A4
330
58E
100
AcDbEntity
  8
Level 1
  6
Continuous
 62
     7
370
     0
100
AcDbText
 10
61226.983208
 20
80124.525
 30
0.0
 40
0.15
  1
Ckd by:
 50
90.0
  7
Style-Arial
 11
61226.833208
 21
80124.525
 31
0.0
100
AcDbText
 73
     3
  0
TEXT
  5
3B0
330
58E
100
AcDbEntity
  8
Level 1
  6
Continuous
 62
     7
370
     0
100
AcDbText
 10
61226.79147
 20
80127.65
 30
0.0
 40
0.15
  1
__
 50
90.0
  7
Style-Arial
 11
61226.64147
 21
80127.65
 31
0.0
100
AcDbText
 73
     3
  0
TEXT
  5
3B1
330
58E
100
AcDbEntity
  8
Level 1
  6
Continuous
 62
     7
370
     0
100
AcDbText
 10
61227.015925
 20
80125.585037
 30
0.0
 40
0.15
  1
Design file no.   
 50
90.0
  7
Style-Arial
 11
61226.865925
 21
80125.585037
 31
0.0
100
AcDbText
 73
     3
  0
TEXT
  5
3C3
330
58E
100
AcDbEntity
  8
Level 1
  6
Continuous
 62
     7
370
     0
100
AcDbText
 10
61228.39206
 20
80132.043752
 30
0.0
 40
0.15
  1
Description
 50
90.0
  7
Style-Arial
 11
61228.24206
 21
80132.043752
 31
0.0
100
AcDbText
 73
     3
  0
TEXT
  5
3C4
330
58E
100
AcDbEntity
  8
Level 1
  6
Continuous
 62
     7
370
     0
100
AcDbText
 10
61228.406003
 20
80134.323963
 30
0.0
 40
0.15
  1
Date
 50
90.0
  7
Style-Arial
 11
61228.256003
 21
80134.323963
 31
0.0
100
AcDbText
 73
     3
  0
TEXT
  5
3CB
330
58E
100
AcDbEntity
  8
Level 1
  6
Continuous
 62
     7
370
     0
100
AcDbText
 10
61228.402557
 20
80134.940842
 30
0.0
 40
0.15
  1
Approved
 50
90.0
  7
Style-Arial
 11
61228.252557
 21
80134.940842
 31
0.0
100
AcDbText
 73
     3
  0
TEXT
  5
3CC
330
58E
100
AcDbEntity
  8
Level 1
  6
Continuous
 62
     7
370
     0
100
AcDbText
 10
61228.410191
 20
80129.81211
 30
0.0
 40
0.15
  1
Symbol
 50
90.0
  7
Style-Arial
 11
61228.260191
 21
80129.81211
 31
0.0
100
AcDbText
 73
     3
  0
TEXT
  5
3DC
330
58E
100
AcDbEntity
  8
Level 1
  6
Continuous
 62
     7
370
     0
100
AcDbText
 10
61227.973208
 20
80125.595
 30
0.0
 40
0.15
  1
Drawing code:     
 50
90.0
  7
Style-Arial
 11
61227.823208
 21
80125.595
 31
0.0
100
AcDbText
 73
     3
  0
TEXT
  5
3DD
330
58E
100
AcDbEntity
  8
Level 1
  6
Continuous
 62
     7
370
     0
100
AcDbText
 10
61227.502795
 20
80125.6
 30
0.0
 40
0.15
  1
Plot Scale Ratio:     
 50
90.0
  7
Style-Arial
 11
61227.352795
 21
80125.6
 31
0.0
100
AcDbText
 73
     3
  0
TEXT
  5
3DF
330
58E
100
AcDbEntity
  8
Level 1
  6
Continuous
 62
     7
370
    13
100
AcDbText
 10
61227.505783
 20
80127.655
 30
0.0
 40
0.15
  1
DACA 45          
 50
90.0
  7
Style-Arial
 11
61227.355783
 21
80127.655
 31
0.0
100
AcDbText
 73
     3
  0
TEXT
  5
3E0
330
58E
100
AcDbEntity
  8
Level 1
  6
Continuous
 62
     7
370
    13
100
AcDbText
 10
61228.258794
 20
80127.645
 30
0.0
 40
0.15
  1
DACA 45          
 50
90.0
  7
Style-Arial
 11
61228.108794
 21
80127.645
 31
0.0
100
AcDbText
 73
     3
  0
TEXT
  5
3F1
330
58E
100
AcDbEntity
  8
Level 1
  6
Continuous
 62
     7
370
     0
100
AcDbText
 10
61227.89139
 20
80127.62
 30
0.0
 40
0.15
  1
Contract No.     
 50
90.0
  7
Style-Arial
 11
61227.74139
 21
80127.62
 31
0.0
100
AcDbText
 73
     3
  0
TEXT
  5
3F2
330
58E
100
AcDbEntity
  8
Level 1
  6
Continuous
 62
     7
370
     0
100
AcDbText
 10
61227.11639
 20
80127.625
 30
0.0
 40
0.15
  1
Spec. No.   
 50
90.0
  7
Style-Arial
 11
61226.96639
 21
80127.625
 31
0.0
100
AcDbText
 73
     3
  0
TEXT
  5
3F3
330
58E
100
AcDbEntity
  8
Level 2
  6
Continuous
 62
     7
370
     0
100
AcDbText
 10
61226.755708
 20
80123.55
 30
0.0
 40
0.15
  1
X
 50
90.0
  7
Style-Arial
 11
61226.605708
 21
80123.55
 31
0.0
100
AcDbText
 73
     3
  0
TEXT
  5
3F4
330
58E
100
AcDbEntity
  8
Level 2
  6
Continuous
 62
     7
370
     0
100
AcDbText
 10
61227.200708
 20
80124.54
 30
0.0
 40
0.15
  1
X
 50
90.0
  7
Style-Arial
 11
61227.050708
 21
80124.54
 31
0.0
100
AcDbText
 73
     3
  0
TEXT
  5
3F5
330
58E
100
AcDbEntity
  8
Level 2
  6
Continuous
 62
     7
370
     0
100
AcDbText
 10
61227.685708
 20
80123.55
 30
0.0
 40
0.15
  1
X
 50
90.0
  7
Style-Arial
 11
61227.535708
 21
80123.55
 31
0.0
100
AcDbText
 73
     3
  0
TEXT
  5
3F6
330
58E
100
AcDbEntity
  8
Level 2
  6
Continuous
 62
     7
370
     0
100
AcDbText
 10
61227.975708
 20
80124.93
 30
0.0
 40
0.15
  1
X
 50
90.0
  7
Style-Arial
 11
61227.825708
 21
80124.93
 31
0.0
100
AcDbText
 73
     3
  0
TEXT
  5
3F7
330
58E
100
AcDbEntity
  8
Level 1
  6
Continuous
 62
     7
370
     0
100
AcDbText
 10
61227.963208
 20
80123.515
 30
0.0
 40
0.15
  1
Submitted by:
 50
90.0
  7
Style-Arial
 11
61227.813208
 21
80123.515
 31
0.0
100
AcDbText
 73
     3
  0
TEXT
  5
3F8
330
58E
100
AcDbEntity
  8
Level 1
  6
Continuous
 62
     7
370
     0
100
AcDbText
 10
61228.183208
 20
80123.515
 30
0.0
 40
0.15
  1
Chief:
 50
90.0
  7
Style-Arial
 11
61228.033208
 21
80123.515
 31
0.0
100
AcDbText
 73
     3
  0
MTEXT
  5
3F9
330
58E
100
AcDbEntity
  8
Level 1
  6
Continuous
 62
     7
370
     0
100
AcDbMText
 10
61226.494105
 20
80115.251461
 30
0.0
 40
0.15
 41
0.0
 71
     1
 72
     1
  1
Sheet\Preference\Pnumber:\P
  7
Style-Arial
 73
     2
 44
0.779643
  0
TEXT
  5
3FD
330
58E
100
AcDbEntity
  8
Level 1
  6
Continuous
 62
     7
370
     0
100
AcDbText
 10
61226.563208
 20
80123.525
 30
0.0
 40
0.15
  1
Designed by:
 50
90.0
  7
Style-Arial
 11
61226.413208
 21
80123.525
 31
0.0
100
AcDbText
 73
     3
  0
TEXT
  5
3FE
330
58E
100
AcDbEntity
  8
Level 2
  6
Continuous
 62
     7
370
    13
100
AcDbText
 10
61227.719365
 20
80125.600037
 30
0.0
 40
0.15
  1
50 : 1
 50
90.0
  7
Style-Arial
 11
61227.569365
 21
80125.600037
 31
0.0
100
AcDbText
 73
     3
  0
TEXT
  5
3FF
330
58E
100
AcDbEntity
  8
Level 1
  6
Continuous
 62
     7
370
     0
100
AcDbText
 10
61228.270718
 20
80125.62
 30
0.0
 40
0.15
  1
X
 50
90.0
  7
Style-Arial
 11
61228.120718
 21
80125.62
 31
0.0
100
AcDbText
 73
     3
  0
TEXT
  5
400
330
58E
100
AcDbEntity
  8
Level 1
  6
Continuous
 62
     7
370
     0
100
AcDbText
 10
61226.5814
 20
80139.898933
 30
0.0
 40
0.15
  1
Omaha District
  7
Style-Arial
 11
61226.5814
 21
80140.048933
 31
0.0
100
AcDbText
 73
     3
  0
TEXT
  5
401
330
58E
100
AcDbEntity
  8
Level 1
  6
Continuous
 62
     7
370
     0
100
AcDbText
 10
61226.5814
 20
80140.369839
 30
0.0
 40
0.15
  1
US Army Corps
  7
Style-Arial
 11
61226.5814
 21
80140.519839
 31
0.0
100
AcDbText
 73
     3
  0
TEXT
  5
402
330
58E
100
AcDbEntity
  8
Level 1
  6
Continuous
 62
     7
370
     0
100
AcDbText
 10
61226.5764
 20
80140.14102
 30
0.0
 40
0.15
  1
of Engineers
  7
Style-Arial
 11
61226.5764
 21
80140.29102
 31
0.0
100
AcDbText
 73
     3
  0
TEXT
  5
415
330
58E
100
AcDbEntity
  8
Level 1
  6
Continuous
 62
     7
370
     0
100
AcDbText
 10
61188.489976
 20
80139.23624
 30
0.0
 40
0.15
  1
6
  7
Style-Arial
 11
61188.489976
 21
80139.38624
 31
0.0
100
AcDbText
 73
     3
  0
MTEXT
  5
442
330
58E
100
AcDbEntity
  8
Level 1
  6
Continuous
 62
     7
370
     0
100
AcDbMText
 10
61226.522185
 20
80119.394108
 30
0.0
 40
0.15
 41
0.0
 71
     1
 72
     1
  1
 X\P X\P
  7
Style-Arial
 11
6.123031769111886E-17
 21
1.0
 31
0.0
 73
     2
 44
0.779643
  0
MTEXT
  5
445
330
58E
100
AcDbEntity
  8
Level 1
  6
Continuous
 62
     7
370
     0
100
AcDbMText
 10
61227.2064
 20
80119.390915
 30
0.0
 40
0.15
 41
0.0
 71
     1
 72
     1
  1
X\P \P \P
  7
Style-Arial
 11
6.123031769111886E-17
 21
1.0
 31
0.0
 73
     2
 44
0.779643
  0
TEXT
  5
47A
330
58E
100
AcDbEntity
  8
Level 46
  6
Continuous
 62
     7
370
    13
100
AcDbText
 10
61215.161869
 20
80139.938536
 30
0.0
 40
0.15
  1
4242
  7
Style-Arial
 11
61215.161869
 21
80140.088536
 31
0.0
100
AcDbText
 73
     3
  0
TEXT
  5
47B
330
58E
100
AcDbEntity
  8
Level 46
  6
Continuous
 62
     7
370
    13
100
AcDbText
 10
61214.937163
 20
80138.378362
 30
0.0
 40
0.15
  1
3734
  7
Style-Arial
 11
61214.937163
 21
80138.528362
 31
0.0
100
AcDbText
 73
     3
  0
TEXT
  5
47F
330
58E
100
AcDbEntity
  8
Level 46
  6
Continuous
 62
     7
370
    13
100
AcDbText
 10
61192.604746
 20
80129.745701
 30
0.0
 40
0.15
  1
3734
  7
Style-Arial
 11
61192.604746
 21
80129.895701
 31
0.0
100
AcDbText
 73
     3
  0
TEXT
  5
480
330
58E
100
AcDbEntity
  8
Level 46
  6
Continuous
 62
     7
370
    13
100
AcDbText
 10
61192.328544
 20
80128.188073
 30
0.0
 40
0.15
  1
4242
  7
Style-Arial
 11
61192.328544
 21
80128.338073
 31
0.0
100
AcDbText
 73
     3
  0
TEXT
  5
489
330
58E
100
AcDbEntity
  8
Level 46
  6
Continuous
 62
     7
370
    13
100
AcDbText
 10
61194.773667
 20
80132.477735
 30
0.0
 40
0.15
  1
5029
  7
Style-Arial
 11
61194.773667
 21
80132.627735
 31
0.0
100
AcDbText
 73
     3
  0
TEXT
  5
48A
330
58E
100
AcDbEntity
  8
Level 46
  6
Continuous
 62
     7
370
    13
100
AcDbText
 10
61194.784311
 20
80132.175059
 30
0.0
 40
0.15
  1
5029
  7
Style-Arial
 11
61194.784311
 21
80132.325059
 31
0.0
100
AcDbText
 73
     3
  0
TEXT
  5
48B
330
58E
100
AcDbEntity
  8
Level 46
  6
Continuous
 62
     7
370
    13
100
AcDbText
 10
61194.788569
 20
80131.867885
 30
0.0
 40
0.15
  1
5029
  7
Style-Arial
 11
61194.788569
 21
80132.017885
 31
0.0
100
AcDbText
 73
     3
  0
TEXT
  5
48C
330
58E
100
AcDbEntity
  8
Level 46
  6
Continuous
 62
     7
370
    13
100
AcDbText
 10
61195.973254
 20
80132.477673
 30
0.0
 40
0.15
  1
1549
  7
Style-Arial
 11
61195.973254
 21
80132.627673
 31
0.0
100
AcDbText
 73
     3
  0
TEXT
  5
48D
330
58E
100
AcDbEntity
  8
Level 46
  6
Continuous
 62
     7
370
    13
100
AcDbText
 10
61198.584979
 20
80132.477672
 30
0.0
 40
0.15
  1
9144
  7
Style-Arial
 11
61198.584979
 21
80132.627672
 31
0.0
100
AcDbText
 73
     3
  0
TEXT
  5
48E
330
58E
100
AcDbEntity
  8
Level 46
  6
Continuous
 62
     7
370
    13
100
AcDbText
 10
61198.593494
 20
80132.175186
 30
0.0
 40
0.15
  1
9144
  7
Style-Arial
 11
61198.593494
 21
80132.325186
 31
0.0
100
AcDbText
 73
     3
  0
TEXT
  5
48F
330
58E
100
AcDbEntity
  8
Level 46
  6
Continuous
 62
     7
370
    13
100
AcDbText
 10
61204.388309
 20
80132.477809
 30
0.0
 40
0.15
  1
9144
  7
Style-Arial
 11
61204.388309
 21
80132.627809
 31
0.0
100
AcDbText
 73
     3
  0
TEXT
  5
490
330
58E
100
AcDbEntity
  8
Level 46
  6
Continuous
 62
     7
370
    13
100
AcDbText
 10
61199.979547
 20
80132.477654
 30
0.0
 40
0.15
  1
5004
  7
Style-Arial
 11
61199.979547
 21
80132.627654
 31
0.0
100
AcDbText
 73
     3
  0
TEXT
  5
491
330
58E
100
AcDbEntity
  8
Level 46
  6
Continuous
 62
     7
370
    13
100
AcDbText
 10
61201.292467
 20
80132.477614
 30
0.0
 40
0.15
  1
8230
  7
Style-Arial
 11
61201.292467
 21
80132.627614
 31
0.0
100
AcDbText
 73
     3
  0
TEXT
  5
492
330
58E
100
AcDbEntity
  8
Level 46
  6
Continuous
 62
     7
370
    13
100
AcDbText
 10
61201.296725
 20
80132.175312
 30
0.0
 40
0.15
  1
8230
  7
Style-Arial
 11
61201.296725
 21
80132.325312
 31
0.0
100
AcDbText
 73
     3
  0
TEXT
  5
493
330
58E
100
AcDbEntity
  8
Level 46
  6
Continuous
 62
     7
370
    13
100
AcDbText
 10
61202.691942
 20
80132.477475
 30
0.0
 40
0.15
  1
5972
  7
Style-Arial
 11
61202.691942
 21
80132.627475
 31
0.0
100
AcDbText
 73
     3
  0
TEXT
  5
494
330
58E
100
AcDbEntity
  8
Level 46
  6
Continuous
 62
     7
370
    13
100
AcDbText
 10
61209.886644
 20
80132.477714
 30
0.0
 40
0.15
  1
11 887
  7
Style-Arial
 11
61209.886644
 21
80132.627714
 31
0.0
100
AcDbText
 73
     3
  0
TEXT
  5
495
330
58E
100
AcDbEntity
  8
Level 46
  6
Continuous
 62
     7
370
    13
100
AcDbText
 10
61209.907932
 20
80132.175198
 30
0.0
 40
0.15
  1
11 887
  7
Style-Arial
 11
61209.907932
 21
80132.325198
 31
0.0
100
AcDbText
 73
     3
  0
TEXT
  5
496
330
58E
100
AcDbEntity
  8
Level 46
  6
Continuous
 62
     7
370
    13
100
AcDbText
 10
61208.675728
 20
80132.175198
 30
0.0
 40
0.15
  1
11 887
  7
Style-Arial
 11
61208.675728
 21
80132.325198
 31
0.0
100
AcDbText
 73
     3
  0
TEXT
  5
497
330
58E
100
AcDbEntity
  8
Level 46
  6
Continuous
 62
     7
370
    13
100
AcDbText
 10
61208.69063
 20
80131.868071
 30
0.0
 40
0.15
  1
11 887
  7
Style-Arial
 11
61208.69063
 21
80132.018071
 31
0.0
100
AcDbText
 73
     3
  0
TEXT
  5
498
330
58E
100
AcDbEntity
  8
Level 46
  6
Continuous
 62
     7
370
    13
100
AcDbText
 10
61209.924963
 20
80131.867828
 30
0.0
 40
0.15
  1
11 887
  7
Style-Arial
 11
61209.924963
 21
80132.017828
 31
0.0
100
AcDbText
 73
     3
  0
TEXT
  5
499
330
58E
100
AcDbEntity
  8
Level 46
  6
Continuous
 62
     7
370
    13
100
AcDbText
 10
61206.199735
 20
80132.175224
 30
0.0
 40
0.15
  1
4877
  7
Style-Arial
 11
61206.199735
 21
80132.325224
 31
0.0
100
AcDbText
 73
     3
  0
TEXT
  5
49A
330
58E
100
AcDbEntity
  8
Level 46
  6
Continuous
 62
     7
370
    13
100
AcDbText
 10
61206.218373
 20
80131.868137
 30
0.0
 40
0.15
  1
4877
  7
Style-Arial
 11
61206.218373
 21
80132.018137
 31
0.0
100
AcDbText
 73
     3
  0
TEXT
  5
49B
330
58E
100
AcDbEntity
  8
Level 46
  6
Continuous
 62
     7
370
    13
100
AcDbText
 10
61206.184833
 20
80132.477605
 30
0.0
 40
0.15
  1
5944
  7
Style-Arial
 11
61206.184833
 21
80132.627605
 31
0.0
100
AcDbText
 73
     3
  0
TEXT
  5
49C
330
58E
100
AcDbEntity
  8
Level 46
  6
Continuous
 62
     7
370
    13
100
AcDbText
 10
61207.483095
 20
80131.868337
 30
0.0
 40
0.15
  1
5944
  7
Style-Arial
 11
61207.483095
 21
80132.018337
 31
0.0
100
AcDbText
 73
     3
  0
TEXT
  5
49D
330
58E
100
AcDbEntity
  8
Level 46
  6
Continuous
 62
     7
370
    13
100
AcDbText
 10
61204.703277
 20
80133.981563
 30
0.0
 40
0.15
  1
LENGTH IN MILLIMETRES
  7
Style-Arial
 11
61204.703277
 21
80134.131563
 31
0.0
100
AcDbText
 73
     3
  0
TEXT
  5
49E
330
58E
100
AcDbEntity
  8
Level 46
  6
Continuous
 62
     7
370
    13
100
AcDbText
 10
61199.547542
 20
80133.9817
 30
0.0
 40
0.15
  1
LENGTH IN MILLIMETRES
  7
Style-Arial
 11
61199.547542
 21
80134.1317
 31
0.0
100
AcDbText
 73
     3
  0
TEXT
  5
49F
330
58E
100
AcDbEntity
  8
Level 46
  6
Continuous
 62
     7
370
    13
100
AcDbText
 10
61202.732291
 20
80131.868077
 30
0.0
 40
0.15
  1
9144
  7
Style-Arial
 11
61202.732291
 21
80132.018077
 31
0.0
100
AcDbText
 73
     3
  0
TEXT
  5
4A0
330
58E
100
AcDbEntity
  8
Level 46
  6
Continuous
 62
     7
370
    13
100
AcDbText
 10
61212.37104
 20
80132.477681
 30
0.0
 40
0.15
  1
3429
  7
Style-Arial
 11
61212.37104
 21
80132.627681
 31
0.0
100
AcDbText
 73
     3
  0
TEXT
  5
4A1
330
58E
100
AcDbEntity
  8
Level 46
  6
Continuous
 62
     7
370
    13
100
AcDbText
 10
61212.402973
 20
80131.868039
 30
0.0
 40
0.15
  1
3962
  7
Style-Arial
 11
61212.402973
 21
80132.018039
 31
0.0
100
AcDbText
 73
     3
  0
TEXT
  5
4A2
330
58E
100
AcDbEntity
  8
Level 46
  6
Continuous
 62
     7
370
    13
100
AcDbText
 10
61211.127988
 20
80132.477746
 30
0.0
 40
0.15
  1
7022
  7
Style-Arial
 11
61211.127988
 21
80132.627746
 31
0.0
100
AcDbText
 73
     3
  0
TEXT
  5
4A3
330
58E
100
AcDbEntity
  8
Level 46
  6
Continuous
 62
     7
370
    13
100
AcDbText
 10
61211.140213
 20
80131.868039
 30
0.0
 40
0.15
  1
3150
  7
Style-Arial
 11
61211.140213
 21
80132.018039
 31
0.0
100
AcDbText
 73
     3
  0
TEXT
  5
4A4
330
58E
100
AcDbEntity
  8
Level 46
  6
Continuous
 62
     7
370
    13
100
AcDbText
 10
61212.373269
 20
80132.175227
 30
0.0
 40
0.15
  1
3823
  7
Style-Arial
 11
61212.373269
 21
80132.325227
 31
0.0
100
AcDbText
 73
     3
  0
TEXT
  5
4A5
330
58E
100
AcDbEntity
  8
Level 46
  6
Continuous
 62
     7
370
    13
100
AcDbText
 10
61211.135287
 20
80132.175282
 30
0.0
 40
0.15
  1
3458
  7
Style-Arial
 11
61211.135287
 21
80132.325282
 31
0.0
100
AcDbText
 73
     3
  0
TEXT
  5
4A6
330
58E
100
AcDbEntity
  8
Level 46
  6
Continuous
 62
     7
370
    13
100
AcDbText
 10
61196.000313
 20
80131.868071
 30
0.0
 40
0.15
  1
1956
  7
Style-Arial
 11
61196.000313
 21
80132.018071
 31
0.0
100
AcDbText
 73
     3
  0
TEXT
  5
4A7
330
58E
100
AcDbEntity
  8
Level 46
  6
Continuous
 62
     7
370
    13
100
AcDbText
 10
61195.992338
 20
80132.175174
 30
0.0
 40
0.15
  1
1943
  7
Style-Arial
 11
61195.992338
 21
80132.325174
 31
0.0
100
AcDbText
 73
     3
  0
TEXT
  5
4A8
330
58E
100
AcDbEntity
  8
Level 46
  6
Continuous
 62
     7
370
    13
100
AcDbText
 10
61197.166601
 20
80132.17526
 30
0.0
 40
0.15
  1
22 035
  7
Style-Arial
 11
61197.166601
 21
80132.32526
 31
0.0
100
AcDbText
 73
     3
  0
TEXT
  5
4A9
330
58E
100
AcDbEntity
  8
Level 46
  6
Continuous
 62
     7
370
    13
100
AcDbText
 10
61199.98563
 20
80132.175195
 30
0.0
 40
0.15
  1
5918
  7
Style-Arial
 11
61199.98563
 21
80132.325195
 31
0.0
100
AcDbText
 73
     3
  0
TEXT
  5
4AA
330
58E
100
AcDbEntity
  8
Level 46
  6
Continuous
 62
     7
370
    13
100
AcDbText
 10
61199.996738
 20
80131.870539
 30
0.0
 40
0.15
  1
6960
  7
Style-Arial
 11
61199.996738
 21
80132.020539
 31
0.0
100
AcDbText
 73
     3
  0
TEXT
  5
4AB
330
58E
100
AcDbEntity
  8
Level 46
  6
Continuous
 62
     7
370
    13
100
AcDbText
 10
61202.702647
 20
80132.177547
 30
0.0
 40
0.15
  1
6880
  7
Style-Arial
 11
61202.702647
 21
80132.327547
 31
0.0
100
AcDbText
 73
     3
  0
TEXT
  5
4AC
330
58E
100
AcDbEntity
  8
Level 46
  6
Continuous
 62
     7
370
    13
100
AcDbText
 10
61201.309631
 20
80131.868089
 30
0.0
 40
0.15
  1
7915
  7
Style-Arial
 11
61201.309631
 21
80132.018089
 31
0.0
100
AcDbText
 73
     3
  0
TEXT
  5
4B5
330
58E
100
AcDbEntity
  8
Level 46
  6
Continuous
 62
     7
370
    13
100
AcDbText
 10
61199.354914
 20
80123.8125
 30
0.0
 40
0.15
  1
LENGTH IN MILLIMETRES
  7
Style-Arial
 11
61199.354914
 21
80123.9625
 31
0.0
100
AcDbText
 73
     3
  0
TEXT
  5
4B6
330
58E
100
AcDbEntity
  8
Level 46
  6
Continuous
 62
     7
370
    13
100
AcDbText
 10
61204.474147
 20
80123.812348
 30
0.0
 40
0.15
  1
LENGTH IN MILLIMETRES
  7
Style-Arial
 11
61204.474147
 21
80123.962348
 31
0.0
100
AcDbText
 73
     3
  0
TEXT
  5
4B7
330
58E
100
AcDbEntity
  8
Level 46
  6
Continuous
 62
     7
370
    13
100
AcDbText
 10
61194.585211
 20
80122.302557
 30
0.0
 40
0.15
  1
5029
  7
Style-Arial
 11
61194.585211
 21
80122.452557
 31
0.0
100
AcDbText
 73
     3
  0
TEXT
  5
4B8
330
58E
100
AcDbEntity
  8
Level 46
  6
Continuous
 62
     7
370
    13
100
AcDbText
 10
61194.593727
 20
80121.999457
 30
0.0
 40
0.15
  1
5029
  7
Style-Arial
 11
61194.593727
 21
80122.149457
 31
0.0
100
AcDbText
 73
     3
  0
TEXT
  5
4B9
330
58E
100
AcDbEntity
  8
Level 46
  6
Continuous
 62
     7
370
    13
100
AcDbText
 10
61194.604371
 20
80121.702626
 30
0.0
 40
0.15
  1
5029
  7
Style-Arial
 11
61194.604371
 21
80121.852626
 31
0.0
100
AcDbText
 73
     3
  0
TEXT
  5
4BA
330
58E
100
AcDbEntity
  8
Level 46
  6
Continuous
 62
     7
370
    13
100
AcDbText
 10
61195.766192
 20
80122.302588
 30
0.0
 40
0.15
  1
1549
  7
Style-Arial
 11
61195.766192
 21
80122.452588
 31
0.0
100
AcDbText
 73
     3
  0
TEXT
  5
4BB
330
58E
100
AcDbEntity
  8
Level 46
  6
Continuous
 62
     7
370
    13
100
AcDbText
 10
61196.960838
 20
80122.302534
 30
0.0
 40
0.15
  1
20 726
  7
Style-Arial
 11
61196.960838
 21
80122.452534
 31
0.0
100
AcDbText
 73
     3
  0
TEXT
  5
4BC
330
58E
100
AcDbEntity
  8
Level 46
  6
Continuous
 62
     7
370
    13
100
AcDbText
 10
61195.780312
 20
80121.999404
 30
0.0
 40
0.15
  1
1943
  7
Style-Arial
 11
61195.780312
 21
80122.149404
 31
0.0
100
AcDbText
 73
     3
  0
TEXT
  5
4BD
330
58E
100
AcDbEntity
  8
Level 46
  6
Continuous
 62
     7
370
    13
100
AcDbText
 10
61195.790264
 20
80121.702296
 30
0.0
 40
0.15
  1
1956
  7
Style-Arial
 11
61195.790264
 21
80121.852296
 31
0.0
100
AcDbText
 73
     3
  0
TEXT
  5
4BE
330
58E
100
AcDbEntity
  8
Level 46
  6
Continuous
 62
     7
370
    13
100
AcDbText
 10
61196.961114
 20
80121.999362
 30
0.0
 40
0.15
  1
22 035
  7
Style-Arial
 11
61196.961114
 21
80122.149362
 31
0.0
100
AcDbText
 73
     3
  0
TEXT
  5
4BF
330
58E
100
AcDbEntity
  8
Level 46
  6
Continuous
 62
     7
370
    13
100
AcDbText
 10
61196.968384
 20
80121.702668
 30
0.0
 40
0.15
  1
24 003
  7
Style-Arial
 11
61196.968384
 21
80121.852668
 31
0.0
100
AcDbText
 73
     3
  0
TEXT
  5
4C0
330
58E
100
AcDbEntity
  8
Level 46
  6
Continuous
 62
     7
370
    13
100
AcDbText
 10
61198.441049
 20
80121.702594
 30
0.0
 40
0.15
  1
9144
  7
Style-Arial
 11
61198.441049
 21
80121.852594
 31
0.0
100
AcDbText
 73
     3
  0
TEXT
  5
4C1
330
58E
100
AcDbEntity
  8
Level 46
  6
Continuous
 62
     7
370
    13
100
AcDbText
 10
61198.431267
 20
80121.999415
 30
0.0
 40
0.15
  1
9144
  7
Style-Arial
 11
61198.431267
 21
80122.149415
 31
0.0
100
AcDbText
 73
     3
  0
TEXT
  5
4C2
330
58E
100
AcDbEntity
  8
Level 46
  6
Continuous
 62
     7
370
    13
100
AcDbText
 10
61199.71719
 20
80122.302435
 30
0.0
 40
0.15
  1
5918
  7
Style-Arial
 11
61199.71719
 21
80122.452435
 31
0.0
100
AcDbText
 73
     3
  0
TEXT
  5
4C3
330
58E
100
AcDbEntity
  8
Level 46
  6
Continuous
 62
     7
370
    13
100
AcDbText
 10
61199.727834
 20
80121.999499
 30
0.0
 40
0.15
  1
5918
  7
Style-Arial
 11
61199.727834
 21
80122.149499
 31
0.0
100
AcDbText
 73
     3
  0
TEXT
  5
4C4
330
58E
100
AcDbEntity
  8
Level 46
  6
Continuous
 62
     7
370
    13
100
AcDbText
 10
61201.127777
 20
80122.30244
 30
0.0
 40
0.15
  1
8230
  7
Style-Arial
 11
61201.127777
 21
80122.45244
 31
0.0
100
AcDbText
 73
     3
  0
TEXT
  5
4C5
330
58E
100
AcDbEntity
  8
Level 46
  6
Continuous
 62
     7
370
    13
100
AcDbText
 10
61201.132208
 20
80121.999453
 30
0.0
 40
0.15
  1
8230
  7
Style-Arial
 11
61201.132208
 21
80122.149453
 31
0.0
100
AcDbText
 73
     3
  0
TEXT
  5
4C6
330
58E
100
AcDbEntity
  8
Level 46
  6
Continuous
 62
     7
370
    13
100
AcDbText
 10
61202.433234
 20
80122.302516
 30
0.0
 40
0.15
  1
5972
  7
Style-Arial
 11
61202.433234
 21
80122.452516
 31
0.0
100
AcDbText
 73
     3
  0
TEXT
  5
4C7
330
58E
100
AcDbEntity
  8
Level 46
  6
Continuous
 62
     7
370
    13
100
AcDbText
 10
61202.433294
 20
80122.002151
 30
0.0
 40
0.15
  1
6880
  7
Style-Arial
 11
61202.433294
 21
80122.152151
 31
0.0
100
AcDbText
 73
     3
  0
TEXT
  5
4C8
330
58E
100
AcDbEntity
  8
Level 46
  6
Continuous
 62
     7
370
    13
100
AcDbText
 10
61202.450165
 20
80121.702535
 30
0.0
 40
0.15
  1
9144
  7
Style-Arial
 11
61202.450165
 21
80121.852535
 31
0.0
100
AcDbText
 73
     3
  0
TEXT
  5
4C9
330
58E
100
AcDbEntity
  8
Level 46
  6
Continuous
 62
     7
370
    13
100
AcDbText
 10
61204.164863
 20
80121.702638
 30
0.0
 40
0.15
  1
11 887
  7
Style-Arial
 11
61204.164863
 21
80121.852638
 31
0.0
100
AcDbText
 73
     3
  0
TEXT
  5
4CA
330
58E
100
AcDbEntity
  8
Level 46
  6
Continuous
 62
     7
370
    13
100
AcDbText
 10
61204.154219
 20
80121.999468
 30
0.0
 40
0.15
  1
10 058
  7
Style-Arial
 11
61204.154219
 21
80122.149468
 31
0.0
100
AcDbText
 73
     3
  0
TEXT
  5
4CB
330
58E
100
AcDbEntity
  8
Level 46
  6
Continuous
 62
     7
370
    13
100
AcDbText
 10
61204.137188
 20
80122.302435
 30
0.0
 40
0.15
  1
10 058
  7
Style-Arial
 11
61204.137188
 21
80122.452435
 31
0.0
100
AcDbText
 73
     3
  0
TEXT
  5
4CC
330
58E
100
AcDbEntity
  8
Level 46
  6
Continuous
 62
     7
370
    13
100
AcDbText
 10
61205.900578
 20
80122.302446
 30
0.0
 40
0.15
  1
4877
  7
Style-Arial
 11
61205.900578
 21
80122.452446
 31
0.0
100
AcDbText
 73
     3
  0
TEXT
  5
4CD
330
58E
100
AcDbEntity
  8
Level 46
  6
Continuous
 62
     7
370
    13
100
AcDbText
 10
61205.904328
 20
80121.999437
 30
0.0
 40
0.15
  1
4877
  7
Style-Arial
 11
61205.904328
 21
80122.149437
 31
0.0
100
AcDbText
 73
     3
  0
TEXT
  5
4CE
330
58E
100
AcDbEntity
  8
Level 46
  6
Continuous
 62
     7
370
    13
100
AcDbText
 10
61205.915481
 20
80121.70262
 30
0.0
 40
0.15
  1
5029
  7
Style-Arial
 11
61205.915481
 21
80121.85262
 31
0.0
100
AcDbText
 73
     3
  0
TEXT
  5
4CF
330
58E
100
AcDbEntity
  8
Level 46
  6
Continuous
 62
     7
370
    13
100
AcDbText
 10
61207.310758
 20
80121.702662
 30
0.0
 40
0.15
  1
5944
  7
Style-Arial
 11
61207.310758
 21
80121.852662
 31
0.0
100
AcDbText
 73
     3
  0
TEXT
  5
4D0
330
58E
100
AcDbEntity
  8
Level 46
  6
Continuous
 62
     7
370
    13
100
AcDbText
 10
61208.448953
 20
80122.302435
 30
0.0
 40
0.15
  1
11 887
  7
Style-Arial
 11
61208.448953
 21
80122.452435
 31
0.0
100
AcDbText
 73
     3
  0
TEXT
  5
4D1
330
58E
100
AcDbEntity
  8
Level 46
  6
Continuous
 62
     7
370
    13
100
AcDbText
 10
61208.459597
 20
80121.999438
 30
0.0
 40
0.15
  1
11 887
  7
Style-Arial
 11
61208.459597
 21
80122.149438
 31
0.0
100
AcDbText
 73
     3
  0
TEXT
  5
4D2
330
58E
100
AcDbEntity
  8
Level 46
  6
Continuous
 62
     7
370
    13
100
AcDbText
 10
61208.468113
 20
80121.702577
 30
0.0
 40
0.15
  1
11 887
  7
Style-Arial
 11
61208.468113
 21
80121.852577
 31
0.0
100
AcDbText
 73
     3
  0
TEXT
  5
4D3
330
58E
100
AcDbEntity
  8
Level 46
  6
Continuous
 62
     7
370
    13
100
AcDbText
 10
61209.655611
 20
80122.302471
 30
0.0
 40
0.15
  1
11 887
  7
Style-Arial
 11
61209.655611
 21
80122.452471
 31
0.0
100
AcDbText
 73
     3
  0
TEXT
  5
4D4
330
58E
100
AcDbEntity
  8
Level 46
  6
Continuous
 62
     7
370
    13
100
AcDbText
 10
61209.666255
 20
80121.999462
 30
0.0
 40
0.15
  1
11 887
  7
Style-Arial
 11
61209.666255
 21
80122.149462
 31
0.0
100
AcDbText
 73
     3
  0
TEXT
  5
4D5
330
58E
100
AcDbEntity
  8
Level 46
  6
Continuous
 62
     7
370
    13
100
AcDbText
 10
61209.689672
 20
80121.702566
 30
0.0
 40
0.15
  1
11 887
  7
Style-Arial
 11
61209.689672
 21
80121.852566
 31
0.0
100
AcDbText
 73
     3
  0
TEXT
  5
4D6
330
58E
100
AcDbEntity
  8
Level 46
  6
Continuous
 62
     7
370
    13
100
AcDbText
 10
61212.466154
 20
80122.302537
 30
0.0
 40
0.15
  1
3023
  7
Style-Arial
 11
61212.466154
 21
80122.452537
 31
0.0
100
AcDbText
 73
     3
  0
TEXT
  5
4D7
330
58E
100
AcDbEntity
  8
Level 46
  6
Continuous
 62
     7
370
    13
100
AcDbText
 10
61212.51092
 20
80121.702535
 30
0.0
 40
0.15
  1
4470
  7
Style-Arial
 11
61212.51092
 21
80121.852535
 31
0.0
100
AcDbText
 73
     3
  0
TEXT
  5
4D8
330
58E
100
AcDbEntity
  8
Level 46
  6
Continuous
 62
     7
370
    13
100
AcDbText
 10
61211.122069
 20
80121.702614
 30
0.0
 40
0.15
  1
2489
  7
Style-Arial
 11
61211.122069
 21
80121.852614
 31
0.0
100
AcDbText
 73
     3
  0
TEXT
  5
4D9
330
58E
100
AcDbEntity
  8
Level 46
  6
Continuous
 62
     7
370
    13
100
AcDbText
 10
61212.49195
 20
80121.999439
 30
0.0
 40
0.15
  1
4331
  7
Style-Arial
 11
61212.49195
 21
80122.149439
 31
0.0
100
AcDbText
 73
     3
  0
TEXT
  5
4DA
330
58E
100
AcDbEntity
  8
Level 46
  6
Continuous
 62
     7
370
    13
100
AcDbText
 10
61211.117871
 20
80121.999488
 30
0.0
 40
0.15
  1
2950
  7
Style-Arial
 11
61211.117871
 21
80122.149488
 31
0.0
100
AcDbText
 73
     3
  0
TEXT
  5
4DB
330
58E
100
AcDbEntity
  8
Level 46
  6
Continuous
 62
     7
370
    13
100
AcDbText
 10
61211.109356
 20
80122.302457
 30
0.0
 40
0.15
  1
7580
  7
Style-Arial
 11
61211.109356
 21
80122.452457
 31
0.0
100
AcDbText
 73
     3
  0
TEXT
  5
4DC
330
58E
100
AcDbEntity
  8
Level 46
  6
Continuous
 62
     7
370
    13
100
AcDbText
 10
61198.421421
 20
80122.302534
 30
0.0
 40
0.15
  1
8230
  7
Style-Arial
 11
61198.421421
 21
80122.452534
 31
0.0
100
AcDbText
 73
     3
  0
TEXT
  5
4DD
330
58E
100
AcDbEntity
  8
Level 46
  6
Continuous
 62
     7
370
    13
100
AcDbText
 10
61199.746994
 20
80121.702566
 30
0.0
 40
0.15
  1
7874
  7
Style-Arial
 11
61199.746994
 21
80121.852566
 31
0.0
100
AcDbText
 73
     3
  0
TEXT
  5
4DE
330
58E
100
AcDbEntity
  8
Level 46
  6
Continuous
 62
     7
370
    13
100
AcDbText
 10
61201.127561
 20
80121.702549
 30
0.0
 40
0.15
  1
7915
  7
Style-Arial
 11
61201.127561
 21
80121.852549
 31
0.0
100
AcDbText
 73
     3
  0
TEXT
  5
4DF
330
58E
100
AcDbEntity
  8
Level 47
  6
Continuous
 62
     7
370
     0
100
AcDbText
 10
61218.066874
 20
80113.687935
 30
0.0
 40
0.15
  1
ALL DIMENSIONS SHOWN IN MILLIMETRES UNLESS OTHERWISE NOTED
  7
Style-Arial
 11
61218.066874
 21
80113.837935
 31
0.0
100
AcDbText
 73
     3
  0
TEXT
  5
4E0
330
58E
100
AcDbEntity
  8
Level 1
  6
Continuous
 62
     7
370
     0
100
AcDbText
 10
61226.750713
 20
80125.585996
 30
0.0
 40
0.15
  1
DECEMBER 1997
 50
90.0
  7
Style-Arial
 11
61226.600713
 21
80125.585996
 31
0.0
100
AcDbText
 73
     3
  0
TEXT
  5
508
330
58E
100
AcDbEntity
  8
Level 2
  6
Continuous
 62
     7
370
    13
100
AcDbText
 10
61227.237021
 20
80125.587199
 30
0.0
 40
0.15
  1
C210.DGN
 50
90.0
  7
Style-Arial
 11
61227.087021
 21
80125.587199
 31
0.0
100
AcDbText
 73
     3
  0
TEXT
  5
509
330
58E
100
AcDbEntity
  8
Level 2
  6
Continuous
 62
     7
370
     0
100
AcDbText
 10
61227.210713
 20
80123.54
 30
0.0
 40
0.15
  1
X
 50
90.0
  7
Style-Arial
 11
61227.060713
 21
80123.54
 31
0.0
100
AcDbText
 73
     3
  0
TEXT
  5
50A
330
58E
100
AcDbEntity
  8
Level 2
  6
Continuous
 62
     7
370
     0
100
AcDbText
 10
61228.353213
 20
80123.535
 30
0.0
 40
0.15
  1
X
 50
90.0
  7
Style-Arial
 11
61228.203213
 21
80123.535
 31
0.0
100
AcDbText
 73
     3
  0
MTEXT
  5
477
330
58E
100
AcDbEntity
  8
Level 46
  6
Continuous
 62
     7
370
    13
100
AcDbMText
 10
61189.97992
 20
80138.883334
 30
0.0
 40
0.15
 41
0.0
 71
     1
 72
     1
  1
12.7 mm (1/2")\PPOINT OF FROG\P
  7
Style-Arial
 73
     2
 44
0.779643
  0
MTEXT
  5
485
330
58E
100
AcDbEntity
  8
Level 46
  6
Continuous
 62
     7
370
    13
100
AcDbMText
 10
61195.92218
 20
80132.988555
 30
0.0
 40
0.15
 41
0.0
 71
     1
 72
     1
  1
TOE LENGTH\PTO  12.7 mm\P(1/2") PT.\P
  7
Style-Arial
 11
6.123031769111886E-17
 21
1.0
 31
0.0
 73
     2
 44
0.779643
  0
MTEXT
  5
481
330
58E
100
AcDbEntity
  8
Level 46
  6
Continuous
 62
     7
370
    13
100
AcDbMText
 10
61197.205185
 20
80132.985878
 30
0.0
 40
0.15
 41
0.0
 71
     1
 72
     1
  1
LEAD\PP.S.TO 12.7 mm\P(1/2") PT.\P
  7
Style-Arial
 11
6.123031769111886E-17
 21
1.0
 31
0.0
 73
     2
 44
0.779643
  0
MTEXT
  5
47C
330
58E
100
AcDbEntity
  8
Level 46
  6
Continuous
 62
     7
370
    13
100
AcDbMText
 10
61216.29022
 20
80128.5416
 30
0.0
 40
0.15
 41
0.0
 71
     1
 72
     1
  1
12.7 mm (1/2")\PPOINT OF FROG\P
  7
Style-Arial
 73
     2
 44
0.779643
  0
MTEXT
  5
4AD
330
58E
100
AcDbEntity
  8
Level 46
  6
Continuous
 62
     7
370
    13
100
AcDbMText
 10
61195.730199
 20
80122.813719
 30
0.0
 40
0.15
 41
0.0
 71
     1
 72
     1
  1
TOE LENGTH\PTO 12.7 mm\P(1/2") PT.\P
  7
Style-Arial
 11
6.123031769111886E-17
 21
1.0
 31
0.0
 73
     2
 44
0.779643
  0
MTEXT
  5
4B1
330
58E
100
AcDbEntity
  8
Level 46
  6
Continuous
 62
     7
370
    13
100
AcDbMText
 10
61196.981968
 20
80122.810127
 30
0.0
 40
0.15
 41
0.0
 71
     1
 72
     1
  1
LEAD\PP.S.TO 12.7 mm\P(1/2") PT.\P
  7
Style-Arial
 11
6.123031769111886E-17
 21
1.0
 31
0.0
 73
     2
 44
0.779643
  0
TEXT
  5
360
330
58E
100
AcDbEntity
  8
Level 47
  6
Continuous
 62
     7
370
    53
100
AcDbText
 10
61199.215851
 20
80135.890746
 30
0.0
 40
0.225
  1
RAIL LAYOUT PLAN FOR RIGHT HAND TURNOUT
  7
Style-Arial
 11
61199.215851
 21
80136.115746
 31
0.0
100
AcDbText
 73
     3
  0
TEXT
  5
1B7
330
58E
100
AcDbEntity
  8
Level 47
  6
Continuous
 62
     7
370
    40
100
AcDbText
 10
61198.321121
 20
80134.922357
 30
0.0
 40
0.225
  1
CLOSURE RAILS AND JOINT LOCATIONS FOR RIGHT HAND TURNOUT
  7
Style-Arial
 11
61198.321121
 21
80135.147357
 31
0.0
100
AcDbText
 73
     3
  0
TEXT
  5
33B
330
58E
100
AcDbEntity
  8
Level 47
  6
Continuous
 62
     7
370
    40
100
AcDbText
 10
61198.721523
 20
80124.752542
 30
0.0
 40
0.225
  1
CLOSURE RAILS AND JOINT LOCATIONS FOR LEFT HAND TURNOUT
  7
Style-Arial
 11
61198.721523
 21
80124.977542
 31
0.0
100
AcDbText
 73
     3
  0
TEXT
  5
361
330
58E
100
AcDbEntity
  8
Level 47
  6
Continuous
 62
     7
370
    53
100
AcDbText
 10
61199.420511
 20
80125.966376
 30
0.0
 40
0.225
  1
RAIL LAYOUT PLAN FOR LEFT HAND TURNOUT
  7
Style-Arial
 11
61199.420511
 21
80126.191376
 31
0.0
100
AcDbText
 73
     3
  0
TEXT
  5
475
330
58E
100
AcDbEntity
  8
Level 2
  6
Continuous
 62
     7
370
     0
100
AcDbText
 10
61226.771687
 20
80114.0825
 30
0.0
 40
0.3375
  1
C2.10
  7
Style-Arial
 11
61226.771687
 21
80114.42
 31
0.0
100
AcDbText
 73
     3
  0
TEXT
  5
476
330
58E
100
AcDbEntity
  8
Level 2
  6
Continuous
 62
     7
370
     0
100
AcDbText
 10
61228.0789
 20
80117.306118
 30
0.0
 40
0.3375
  1
TURNOUT DETAILS
 50
90.0
  7
Style-Arial
 11
61227.7414
 21
80117.306118
 31
0.0
100
AcDbText
 73
     3
  0
ENDSEC
  0
SECTION
  2
OBJECTS
  0
DICTIONARY
  5
582
330
0
100
AcDbDictionary
281
     1
  3
ACAD_COLOR
350
5A1
  3
ACAD_GROUP
350
59E
  3
ACAD_LAYOUT
350
592
  3
ACAD_MATERIAL
350
5A0
  3
ACAD_MLINESTYLE
350
58C
  3
ACAD_PLOTSETTINGS
350
59F
  3
ACAD_PLOTSTYLENAME
350
581
  3
ACAD_TABLESTYLE
350
5C1
  3
AcadDim
350
5AD
  3
MicroStation
350
5A5
  0
DICTIONARY
  5
57E
330
57D
100
AcDbDictionary
280
     1
281
     1
  3
ACAD_LAYERFILTERS
360
5A4
  3
ACAD_LAYERSTATES
360
57F
  0
DICTIONARY
  5
5BD
330
58E
100
AcDbDictionary
280
     1
281
     1
  3
ACAD_SORTENTS
360
5BE
  0
DICTIONARY
  5
5A1
102
{ACAD_REACTORS
330
582
102
}
330
582
100
AcDbDictionary
281
     1
  0
DICTIONARY
  5
59E
102
{ACAD_REACTORS
330
582
102
}
330
582
100
AcDbDictionary
281
     1
  0
DICTIONARY
  5
592
102
{ACAD_REACTORS
330
582
102
}
330
582
100
AcDbDictionary
281
     1
  3
Layout1
350
596
  3
Model
350
591
  0
DICTIONARY
  5
5A0
102
{ACAD_REACTORS
330
582
102
}
330
582
100
AcDbDictionary
281
     1
  0
DICTIONARY
  5
58C
102
{ACAD_REACTORS
330
582
102
}
330
582
100
AcDbDictionary
281
     1
  3
Standard
350
58B
  0
DICTIONARY
  5
59F
102
{ACAD_REACTORS
330
582
102
}
330
582
100
AcDbDictionary
281
     1
  0
ACDBDICTIONARYWDFLT
  5
581
102
{ACAD_REACTORS
330
582
102
}
330
582
100
AcDbDictionary
281
     1
  3
Normal
350
580
100
AcDbDictionaryWithDefault
340
580
  0
DICTIONARY
  5
5C1
102
{ACAD_REACTORS
330
582
102
}
330
582
100
AcDbDictionary
281
     1
  0
XRECORD
  5
5AD
102
{ACAD_REACTORS
330
582
102
}
330
582
100
AcDbXrecord
280
     1
 90
   990106
  3
 
 60
     0
 61
     0
 62
     1
 63
     1
 64
     0
 65
     0
 66
     0
 67
     3
 68
     1
 69
     1
 70
     0
 71
     0
 72
     0
 40
0.0
170
     0
  0
DICTIONARY
  5
5A5
102
{ACAD_REACTORS
330
582
102
}
330
582
100
AcDbDictionary
281
     1
  3
ApplicationElement 1365
350
555
  3
ApplicationElement 1402
350
57A
  3
ModelApplicationElement 0 1364
350
554
  0
DICTIONARY
  5
5A4
102
{ACAD_REACTORS
330
57E
102
}
330
57E
100
AcDbDictionary
281
     1
  0
DICTIONARY
  5
57F
102
{ACAD_REACTORS
330
57E
102
}
330
57E
100
AcDbDictionary
281
     1
  0
SORTENTSTABLE
  5
5BE
102
{ACAD_REACTORS
330
5BD
102
}
330
5BD
100
AcDbSortentsTable
330
58E
331
D5
  5
3DD
331
D8
  5
3DE
331
DB
  5
D5
331
DC
  5
D8
331
DD
  5
DB
331
DE
  5
DC
331
DF
  5
3DF
331
E0
  5
3E0
331
E1
  5
3E1
331
E2
  5
DD
331
E3
  5
DE
331
E4
  5
3E2
331
E5
  5
DF
331
E6
  5
3E3
331
E7
  5
E0
331
E8
  5
E1
331
E9
  5
E2
331
EA
  5
E3
331
EB
  5
E4
331
EC
  5
E5
331
ED
  5
E6
331
EE
  5
E7
331
EF
  5
E8
331
F0
  5
E9
331
F1
  5
EA
331
F2
  5
EB
331
F3
  5
EC
331
F4
  5
ED
331
F5
  5
EE
331
F6
  5
EF
331
F7
  5
F0
331
F8
  5
F1
331
F9
  5
F2
331
FA
  5
F3
331
FB
  5
F4
331
FC
  5
F5
331
FD
  5
F6
331
FE
  5
F7
331
FF
  5
F8
331
100
  5
F9
331
101
  5
FA
331
102
  5
FB
331
103
  5
FC
331
104
  5
FD
331
105
  5
FE
331
106
  5
FF
331
107
  5
100
331
108
  5
101
331
109
  5
102
331
10A
  5
103
331
10B
  5
104
331
10C
  5
105
331
10D
  5
106
331
10E
  5
107
331
10F
  5
108
331
110
  5
109
331
111
  5
10A
331
112
  5
10B
331
113
  5
10C
331
114
  5
10D
331
116
  5
10E
331
118
  5
10F
331
11A
  5
110
331
11C
  5
3E4
331
11D
  5
111
331
11F
  5
3E5
331
120
  5
3E6
331
121
  5
112
331
122
  5
113
331
123
  5
114
331
124
  5
116
331
125
  5
118
331
126
  5
11A
331
127
  5
11C
331
128
  5
11D
331
129
  5
11F
331
12A
  5
120
331
12B
  5
121
331
12C
  5
122
331
12D
  5
123
331
12E
  5
124
331
12F
  5
125
331
130
  5
126
331
131
  5
127
331
132
  5
128
331
133
  5
129
331
134
  5
12A
331
135
  5
12B
331
136
  5
12C
331
137
  5
12D
331
138
  5
12E
331
139
  5
12F
331
13A
  5
130
331
13B
  5
131
331
13C
  5
132
331
13D
  5
133
331
13E
  5
134
331
13F
  5
135
331
140
  5
136
331
141
  5
137
331
142
  5
138
331
143
  5
139
331
144
  5
13A
331
145
  5
13B
331
146
  5
13C
331
147
  5
13D
331
148
  5
13E
331
149
  5
3E7
331
14A
  5
3E8
331
14B
  5
13F
331
14C
  5
140
331
14D
  5
141
331
14F
  5
142
331
151
  5
3E9
331
152
  5
143
331
153
  5
144
331
154
  5
145
331
155
  5
146
331
156
  5
147
331
157
  5
148
331
158
  5
149
331
159
  5
14A
331
15A
  5
14B
331
15B
  5
14C
331
15C
  5
14D
331
15D
  5
14F
331
15E
  5
151
331
15F
  5
152
331
160
  5
153
331
161
  5
154
331
162
  5
155
331
163
  5
156
331
164
  5
157
331
165
  5
158
331
166
  5
159
331
167
  5
3EA
331
168
  5
3EB
331
169
  5
15A
331
16A
  5
15B
331
16B
  5
15C
331
16C
  5
15D
331
16D
  5
15E
331
16E
  5
15F
331
16F
  5
160
331
170
  5
161
331
171
  5
162
331
172
  5
163
331
173
  5
164
331
174
  5
165
331
175
  5
166
331
176
  5
167
331
177
  5
168
331
178
  5
169
331
179
  5
16A
331
17A
  5
16B
331
17B
  5
16C
331
17C
  5
16D
331
17D
  5
16E
331
17E
  5
16F
331
17F
  5
170
331
180
  5
171
331
181
  5
172
331
182
  5
173
331
183
  5
174
331
184
  5
175
331
185
  5
176
331
186
  5
177
331
187
  5
178
331
188
  5
179
331
189
  5
17A
331
18A
  5
17B
331
18B
  5
17C
331
18C
  5
17D
331
18D
  5
17E
331
18E
  5
17F
331
18F
  5
180
331
190
  5
181
331
191
  5
182
331
192
  5
183
331
193
  5
184
331
194
  5
185
331
195
  5
186
331
196
  5
187
331
197
  5
188
331
198
  5
189
331
199
  5
18A
331
19A
  5
18B
331
19B
  5
18C
331
19C
  5
18D
331
19D
  5
18E
331
19E
  5
18F
331
19F
  5
190
331
1A0
  5
191
331
1A1
  5
192
331
1A2
  5
193
331
1A3
  5
194
331
1A4
  5
195
331
1A5
  5
3EC
331
1A6
  5
196
331
1A7
  5
197
331
1A8
  5
198
331
1A9
  5
199
331
1AB
  5
19A
331
1AD
  5
3ED
331
1AE
  5
3EE
331
1AF
  5
3EF
331
1B0
  5
19B
331
1B1
  5
3F0
331
1B4
  5
3F1
331
1B7
  5
4DF
331
1B8
  5
3F2
331
1B9
  5
3F3
331
1BA
  5
19C
331
1BB
  5
3F4
331
1BC
  5
3F5
331
1BD
  5
19D
331
1BE
  5
19E
331
1BF
  5
19F
331
1C0
  5
1A0
331
1C1
  5
3F6
331
1C2
  5
3F7
331
1C3
  5
1A1
331
1C4
  5
1A2
331
1C5
  5
1A3
331
1C6
  5
3F8
331
1C7
  5
3F9
331
1C8
  5
3FD
331
1C9
  5
1A4
331
1CA
  5
3FE
331
1CB
  5
3FF
331
1CC
  5
1A5
331
1CD
  5
1A6
331
1CE
  5
1A7
331
1CF
  5
400
331
1D0
  5
1A8
331
1D1
  5
401
331
1D2
  5
402
331
1D3
  5
403
331
1D4
  5
404
331
1D5
  5
405
331
1D6
  5
406
331
1D7
  5
1A9
331
1D8
  5
407
331
1D9
  5
1AB
331
1DA
  5
1AD
331
1DB
  5
1AE
331
1DC
  5
1AF
331
1DD
  5
408
331
1DE
  5
409
331
1DF
  5
1B0
331
1E0
  5
1B1
331
1E1
  5
1B4
331
1E2
  5
1B7
331
1E3
  5
1B8
331
1E4
  5
1B9
331
1E5
  5
1BA
331
1E6
  5
1BB
331
1E7
  5
1BC
331
1E8
  5
1BD
331
1E9
  5
1BE
331
1EA
  5
1BF
331
1EB
  5
1C0
331
1EC
  5
1C1
331
1ED
  5
1C2
331
1EF
  5
1C3
331
1F1
  5
1C4
331
1F2
  5
1C5
331
1F3
  5
1C6
331
1F5
  5
1C7
331
1F6
  5
1C8
331
1F7
  5
1C9
331
1F8
  5
1CA
331
1F9
  5
1CB
331
1FA
  5
1CC
331
1FB
  5
1CD
331
1FC
  5
1CE
331
1FD
  5
1CF
331
1FE
  5
1D0
331
1FF
  5
1D1
331
200
  5
1D2
331
201
  5
1D3
331
202
  5
1D4
331
203
  5
1D5
331
204
  5
1D6
331
205
  5
1D7
331
206
  5
1D8
331
207
  5
1D9
331
208
  5
1DA
331
209
  5
1DB
331
20A
  5
1DC
331
20B
  5
1DD
331
20C
  5
1DE
331
20D
  5
1DF
331
20E
  5
1E0
331
20F
  5
1E1
331
210
  5
1E2
331
211
  5
1E3
331
212
  5
1E4
331
213
  5
1E5
331
214
  5
1E6
331
215
  5
1E7
331
216
  5
1E8
331
217
  5
1E9
331
218
  5
1EA
331
219
  5
1EB
331
21A
  5
1EC
331
21B
  5
1ED
331
21C
  5
1EF
331
21D
  5
1F1
331
21E
  5
1F2
331
21F
  5
1F3
331
220
  5
1F5
331
221
  5
1F6
331
222
  5
1F7
331
223
  5
1F8
331
224
  5
1F9
331
225
  5
1FA
331
226
  5
1FB
331
227
  5
1FC
331
228
  5
1FD
331
229
  5
1FE
331
22A
  5
1FF
331
22B
  5
200
331
22C
  5
201
331
22D
  5
202
331
22E
  5
203
331
22F
  5
204
331
230
  5
205
331
231
  5
206
331
232
  5
207
331
233
  5
208
331
234
  5
209
331
235
  5
20A
331
236
  5
20B
331
237
  5
20C
331
238
  5
20D
331
239
  5
20E
331
23A
  5
20F
331
23B
  5
210
331
23C
  5
211
331
23D
  5
212
331
23E
  5
213
331
23F
  5
214
331
240
  5
215
331
241
  5
216
331
242
  5
217
331
243
  5
218
331
244
  5
219
331
245
  5
21A
331
246
  5
21B
331
247
  5
21C
331
248
  5
21D
331
249
  5
21E
331
24A
  5
21F
331
24B
  5
220
331
24C
  5
221
331
24D
  5
222
331
24E
  5
223
331
24F
  5
224
331
250
  5
225
331
251
  5
226
331
252
  5
227
331
253
  5
228
331
254
  5
229
331
255
  5
22A
331
256
  5
22B
331
257
  5
22C
331
258
  5
22D
331
259
  5
22E
331
25A
  5
22F
331
25B
  5
230
331
25C
  5
231
331
25D
  5
232
331
25E
  5
233
331
25F
  5
234
331
260
  5
235
331
261
  5
236
331
262
  5
237
331
263
  5
238
331
264
  5
239
331
265
  5
23A
331
266
  5
23B
331
267
  5
23C
331
268
  5
23D
331
269
  5
23E
331
26A
  5
23F
331
26B
  5
240
331
26C
  5
241
331
26D
  5
242
331
26E
  5
243
331
26F
  5
244
331
270
  5
245
331
271
  5
246
331
272
  5
247
331
273
  5
248
331
274
  5
249
331
275
  5
24A
331
276
  5
24B
331
277
  5
24C
331
278
  5
24D
331
279
  5
24E
331
27A
  5
24F
331
27B
  5
250
331
27C
  5
251
331
27D
  5
252
331
27E
  5
253
331
27F
  5
254
331
280
  5
255
331
281
  5
256
331
282
  5
257
331
283
  5
258
331
285
  5
259
331
287
  5
25A
331
289
  5
25B
331
28B
  5
40A
331
28C
  5
25C
331
28E
  5
40B
331
28F
  5
40C
331
290
  5
25D
331
291
  5
25E
331
292
  5
25F
331
293
  5
260
331
294
  5
261
331
295
  5
262
331
296
  5
263
331
297
  5
264
331
298
  5
265
331
299
  5
266
331
29A
  5
267
331
29B
  5
268
331
29C
  5
269
331
29D
  5
26A
331
29E
  5
26B
331
29F
  5
26C
331
2A0
  5
26D
331
2A1
  5
26E
331
2A2
  5
26F
331
2A3
  5
270
331
2A4
  5
271
331
2A5
  5
272
331
2A6
  5
273
331
2A7
  5
274
331
2A8
  5
275
331
2A9
  5
276
331
2AA
  5
277
331
2AB
  5
278
331
2AC
  5
279
331
2AD
  5
27A
331
2AE
  5
27B
331
2AF
  5
27C
331
2B0
  5
27D
331
2B1
  5
27E
331
2B2
  5
27F
331
2B3
  5
280
331
2B4
  5
281
331
2B5
  5
282
331
2B6
  5
283
331
2B7
  5
285
331
2B8
  5
40D
331
2B9
  5
40E
331
2BA
  5
287
331
2BB
  5
289
331
2BC
  5
28B
331
2BE
  5
28C
331
2C0
  5
40F
331
2C1
  5
28E
331
2C2
  5
28F
331
2C3
  5
290
331
2C4
  5
291
331
2C5
  5
292
331
2C6
  5
293
331
2C7
  5
294
331
2C8
  5
295
331
2C9
  5
296
331
2CA
  5
297
331
2CB
  5
298
331
2CC
  5
299
331
2CD
  5
29A
331
2CE
  5
29B
331
2CF
  5
29C
331
2D0
  5
29D
331
2D1
  5
29E
331
2D2
  5
29F
331
2D3
  5
2A0
331
2D4
  5
2A1
331
2D5
  5
2A2
331
2D6
  5
410
331
2D7
  5
411
331
2D8
  5
2A3
331
2D9
  5
2A4
331
2DA
  5
2A5
331
2DB
  5
2A6
331
2DC
  5
2A7
331
2DD
  5
2A8
331
2DE
  5
2A9
331
2DF
  5
2AA
331
2E0
  5
2AB
331
2E1
  5
2AC
331
2E2
  5
2AD
331
2E3
  5
2AE
331
2E4
  5
2AF
331
2E5
  5
2B0
331
2E6
  5
2B1
331
2E7
  5
2B2
331
2E8
  5
2B3
331
2E9
  5
2B4
331
2EA
  5
2B5
331
2EB
  5
2B6
331
2EC
  5
2B7
331
2ED
  5
2B8
331
2EE
  5
2B9
331
2EF
  5
2BA
331
2F0
  5
2BB
331
2F1
  5
2BC
331
2F2
  5
2BE
331
2F3
  5
2C0
331
2F4
  5
2C1
331
2F5
  5
2C2
331
2F6
  5
2C3
331
2F7
  5
2C4
331
2F8
  5
2C5
331
2F9
  5
2C6
331
2FA
  5
2C7
331
2FB
  5
2C8
331
2FC
  5
2C9
331
2FD
  5
2CA
331
2FE
  5
2CB
331
2FF
  5
2CC
331
300
  5
2CD
331
301
  5
2CE
331
302
  5
2CF
331
303
  5
2D0
331
304
  5
2D1
331
305
  5
2D2
331
306
  5
2D3
331
307
  5
2D4
331
308
  5
2D5
331
309
  5
2D6
331
30A
  5
2D7
331
30B
  5
2D8
331
30C
  5
2D9
331
30D
  5
2DA
331
30E
  5
2DB
331
30F
  5
2DC
331
310
  5
2DD
331
311
  5
2DE
331
312
  5
2DF
331
313
  5
2E0
331
314
  5
412
331
315
  5
2E1
331
316
  5
2E2
331
317
  5
2E3
331
318
  5
2E4
331
31A
  5
2E5
331
31C
  5
413
331
31D
  5
414
331
31E
  5
415
331
31F
  5
2E6
331
320
  5
2E7
331
321
  5
2E8
331
322
  5
2E9
331
323
  5
416
331
326
  5
417
331
329
  5
2EA
331
32A
  5
2EB
331
32B
  5
2EC
331
32C
  5
2ED
331
32D
  5
418
331
32E
  5
419
331
32F
  5
41A
331
330
  5
2EE
331
331
  5
2EF
331
332
  5
41B
331
333
  5
2F0
331
334
  5
2F1
331
335
  5
41C
331
338
  5
41D
331
33B
  5
4E0
331
33C
  5
41E
331
33D
  5
41F
331
33E
  5
2F2
331
33F
  5
2F3
331
340
  5
2F4
331
341
  5
2F5
331
342
  5
2F6
331
343
  5
420
331
344
  5
421
331
345
  5
2F7
331
346
  5
2F8
331
347
  5
2F9
331
348
  5
422
331
349
  5
423
331
34A
  5
2FA
331
34B
  5
424
331
34C
  5
2FB
331
34D
  5
2FC
331
34E
  5
2FD
331
34F
  5
425
331
350
  5
2FE
331
351
  5
426
331
352
  5
427
331
353
  5
428
331
354
  5
429
331
355
  5
42A
331
356
  5
42B
331
357
  5
2FF
331
358
  5
300
331
359
  5
301
331
35A
  5
42C
331
35B
  5
42D
331
35C
  5
302
331
35D
  5
303
331
35E
  5
42E
331
35F
  5
42F
331
360
  5
4DE
331
361
  5
508
331
362
  5
304
331
363
  5
305
331
364
  5
430
331
365
  5
431
331
366
  5
432
331
367
  5
433
331
368
  5
434
331
369
  5
306
331
36A
  5
307
331
36B
  5
308
331
36C
  5
309
331
36D
  5
30A
331
36E
  5
30B
331
36F
  5
30C
331
370
  5
30D
331
371
  5
30E
331
372
  5
30F
331
373
  5
310
331
374
  5
311
331
375
  5
312
331
376
  5
313
331
377
  5
314
331
378
  5
315
331
379
  5
316
331
37A
  5
317
331
37B
  5
318
331
37C
  5
31A
331
37D
  5
31C
331
37E
  5
31D
331
37F
  5
31E
331
380
  5
31F
331
381
  5
320
331
382
  5
321
331
383
  5
322
331
384
  5
323
331
385
  5
435
331
386
  5
436
331
387
  5
437
331
388
  5
326
331
389
  5
438
331
38A
  5
439
331
38B
  5
43A
331
38C
  5
43B
331
38D
  5
43C
331
38E
  5
329
331
38F
  5
32A
331
390
  5
32B
331
391
  5
32C
331
392
  5
43D
331
393
  5
43E
331
394
  5
43F
331
395
  5
440
331
396
  5
32D
331
397
  5
32E
331
398
  5
32F
331
399
  5
330
331
39A
  5
331
331
39B
  5
332
331
39C
  5
333
331
39D
  5
334
331
39E
  5
441
331
39F
  5
442
331
3A0
  5
445
331
3A1
  5
449
331
3A2
  5
335
331
3A3
  5
338
331
3A4
  5
44A
331
3A5
  5
33B
331
3A6
  5
33C
331
3A7
  5
33D
331
3A8
  5
33E
331
3A9
  5
33F
331
3AA
  5
340
331
3AB
  5
341
331
3AC
  5
342
331
3AD
  5
343
331
3AE
  5
344
331
3AF
  5
345
331
3B0
  5
44B
331
3B1
  5
44C
331
3B2
  5
346
331
3B3
  5
347
331
3B4
  5
348
331
3B5
  5
349
331
3B6
  5
34A
331
3B7
  5
34B
331
3B8
  5
34C
331
3B9
  5
34D
331
3BA
  5
34E
331
3BB
  5
34F
331
3BC
  5
350
331
3BD
  5
351
331
3BE
  5
352
331
3BF
  5
353
331
3C0
  5
354
331
3C1
  5
355
331
3C2
  5
356
331
3C3
  5
44D
331
3C4
  5
44E
331
3C5
  5
357
331
3C6
  5
358
331
3C7
  5
359
331
3C8
  5
35A
331
3C9
  5
35B
331
3CA
  5
35C
331
3CB
  5
44F
331
3CC
  5
450
331
3CD
  5
35D
331
3CE
  5
35E
331
3CF
  5
35F
331
3D0
  5
360
331
3D1
  5
361
331
3D2
  5
362
331
3D3
  5
363
331
3D4
  5
364
331
3D5
  5
365
331
3D6
  5
366
331
3D7
  5
367
331
3D8
  5
368
331
3D9
  5
369
331
3DA
  5
36A
331
3DB
  5
36B
331
3DC
  5
451
331
3DD
  5
452
331
3DE
  5
36C
331
3DF
  5
453
331
3E0
  5
454
331
3E1
  5
36D
331
3E2
  5
36E
331
3E3
  5
36F
331
3E4
  5
370
331
3E5
  5
371
331
3E6
  5
372
331
3E7
  5
373
331
3E8
  5
374
331
3E9
  5
375
331
3EA
  5
376
331
3EB
  5
377
331
3EC
  5
378
331
3ED
  5
379
331
3EE
  5
37A
331
3EF
  5
37B
331
3F0
  5
37C
331
3F1
  5
455
331
3F2
  5
458
331
3F3
  5
459
331
3F4
  5
45A
331
3F5
  5
45B
331
3F6
  5
45C
331
3F7
  5
45D
331
3F8
  5
45E
331
3F9
  5
45F
331
3FD
  5
460
331
3FE
  5
461
331
3FF
  5
462
331
400
  5
463
331
401
  5
464
331
402
  5
465
331
403
  5
37D
331
404
  5
37E
331
405
  5
37F
331
406
  5
380
331
407
  5
381
331
408
  5
382
331
409
  5
383
331
40A
  5
384
331
40B
  5
385
331
40C
  5
386
331
40D
  5
387
331
40E
  5
388
331
40F
  5
389
331
410
  5
38A
331
411
  5
38B
331
412
  5
38C
331
413
  5
38D
331
414
  5
38E
331
415
  5
466
331
416
  5
38F
331
417
  5
390
331
418
  5
391
331
419
  5
392
331
41A
  5
393
331
41B
  5
394
331
41C
  5
395
331
41D
  5
396
331
41E
  5
397
331
41F
  5
398
331
420
  5
399
331
421
  5
39A
331
422
  5
39B
331
423
  5
39C
331
424
  5
39D
331
425
  5
39E
331
426
  5
39F
331
427
  5
3A0
331
428
  5
3A1
331
429
  5
3A2
331
42A
  5
3A3
331
42B
  5
3A4
331
42C
  5
3A5
331
42D
  5
3A6
331
42E
  5
3A7
331
42F
  5
3A8
331
430
  5
3A9
331
431
  5
3AA
331
432
  5
3AB
331
433
  5
3AC
331
434
  5
3AD
331
435
  5
3AE
331
436
  5
3AF
331
437
  5
3B0
331
438
  5
3B1
331
439
  5
3B2
331
43A
  5
3B3
331
43B
  5
3B4
331
43C
  5
3B5
331
43D
  5
3B6
331
43E
  5
3B7
331
43F
  5
3B8
331
440
  5
3B9
331
441
  5
3BA
331
442
  5
467
331
445
  5
46A
331
449
  5
3BB
331
44A
  5
3BC
331
44B
  5
3BD
331
44C
  5
3BE
331
44D
  5
3BF
331
44E
  5
3C0
331
44F
  5
3C1
331
450
  5
3C2
331
451
  5
3C3
331
452
  5
3C4
331
453
  5
3C5
331
454
  5
3C6
331
455
  5
3C7
331
458
  5
3C8
331
459
  5
3C9
331
45A
  5
3CA
331
45B
  5
3CB
331
45C
  5
3CC
331
45D
  5
3CD
331
45E
  5
3CE
331
45F
  5
3CF
331
460
  5
3D0
331
461
  5
3D1
331
462
  5
3D2
331
463
  5
3D3
331
464
  5
3D4
331
465
  5
3D5
331
466
  5
3D6
331
467
  5
3D7
331
46A
  5
3D8
331
46D
  5
3D9
331
470
  5
3DA
331
473
  5
3DB
331
474
  5
3DC
331
475
  5
509
331
476
  5
50A
331
477
  5
4D8
331
47A
  5
46D
331
47B
  5
470
331
47C
  5
4DB
331
47F
  5
473
331
480
  5
474
331
481
  5
4DA
331
485
  5
4D9
331
489
  5
475
331
48A
  5
476
331
48B
  5
477
331
48C
  5
47A
331
48D
  5
47B
331
48E
  5
47C
331
48F
  5
47F
331
490
  5
480
331
491
  5
481
331
492
  5
485
331
493
  5
489
331
494
  5
48A
331
495
  5
48B
331
496
  5
48C
331
497
  5
48D
331
498
  5
48E
331
499
  5
48F
331
49A
  5
490
331
49B
  5
491
331
49C
  5
492
331
49D
  5
493
331
49E
  5
494
331
49F
  5
495
331
4A0
  5
496
331
4A1
  5
497
331
4A2
  5
498
331
4A3
  5
499
331
4A4
  5
49A
331
4A5
  5
49B
331
4A6
  5
49C
331
4A7
  5
49D
331
4A8
  5
49E
331
4A9
  5
49F
331
4AA
  5
4A0
331
4AB
  5
4A1
331
4AC
  5
4A2
331
4AD
  5
4DC
331
4B1
  5
4DD
331
4B5
  5
4A3
331
4B6
  5
4A4
331
4B7
  5
4A5
331
4B8
  5
4A6
331
4B9
  5
4A7
331
4BA
  5
4A8
331
4BB
  5
4A9
331
4BC
  5
4AA
331
4BD
  5
4AB
331
4BE
  5
4AC
331
4BF
  5
4AD
331
4C0
  5
4B1
331
4C1
  5
4B5
331
4C2
  5
4B6
331
4C3
  5
4B7
331
4C4
  5
4B8
331
4C5
  5
4B9
331
4C6
  5
4BA
331
4C7
  5
4BB
331
4C8
  5
4BC
331
4C9
  5
4BD
331
4CA
  5
4BE
331
4CB
  5
4BF
331
4CC
  5
4C0
331
4CD
  5
4C1
331
4CE
  5
4C2
331
4CF
  5
4C3
331
4D0
  5
4C4
331
4D1
  5
4C5
331
4D2
  5
4C6
331
4D3
  5
4C7
331
4D4
  5
4C8
331
4D5
  5
4C9
331
4D6
  5
4CA
331
4D7
  5
4CB
331
4D8
  5
4CC
331
4D9
  5
4CD
331
4DA
  5
4CE
331
4DB
  5
4CF
331
4DC
  5
4D0
331
4DD
  5
4D1
331
4DE
  5
4D2
331
4DF
  5
4D3
331
4E0
  5
4D4
331
508
  5
4D5
331
509
  5
4D6
331
50A
  5
4D7
  0
LAYOUT
  5
596
102
{ACAD_REACTORS
330
592
330
592
102
}
102
{ACAD_XDICTIONARY
360
597
102
}
330
592
100
AcDbPlotSettings
  1

  2
none_device
  4
Letter_(8.50_x_11.00_Inches)
  6

 40
6.35
 41
6.35
 42
6.350006
 43
6.350006
 44
215.899994
 45
279.399994
 46
0.0
 47
0.0
 48
0.0
 49
0.0
140
0.0
141
0.0
142
1.0
143
1.0
 70
   688
 72
     0
 73
     1
 74
     5
  7

 75
    16
 76
     0
 77
     2
 78
   300
147
1.0
148
0.0
149
0.0
100
AcDbLayout
  1
Layout1
 70
     1
 71
     1
 10
-0.25
 20
-0.25
 11
10.75
 21
8.25
 12
0.0
 22
0.0
 32
0.0
 14
1.049744
 24
0.799667
 34
-0.001526
 15
9.450623
 25
7.200577
 35
0.0
146
0.0
 13
0.0
 23
0.0
 33
0.0
 16
1.0
 26
0.0
 36
0.0
 17
0.0
 27
1.0
 37
0.0
 76
     0
330
593
1001
ACAD_PSEXT
1000
None
1000
None
1000
Not applicable
1000
The layout will not be plotted unless a new plotter configuration name is selected.
1070
     0
  0
LAYOUT
  5
591
102
{ACAD_REACTORS
330
592
330
592
102
}
330
592
100
AcDbPlotSettings
  1

  2
none_device
  4
ANSI_A_(8.50_x_11.00_Inches)
  6

 40
6.35
 41
19.049999
 42
6.350006
 43
19.049988
 44
215.899994
 45
279.399994
 46
0.0
 47
0.0
 48
0.0
 49
0.0
140
0.0
141
0.0
142
1.0
143
2.584895
 70
 11952
 72
     0
 73
     1
 74
     0
  7

 75
     0
 76
     0
 77
     2
 78
   300
147
0.386863
148
0.0
149
0.0
100
AcDbLayout
  1
Model
 70
     1
 71
     0
 10
0.0
 20
0.0
 11
12.0
 21
9.0
 12
0.0
 22
0.0
 32
0.0
 14
0.0
 24
0.0
 34
0.0
 15
0.0
 25
0.0
 35
0.0
146
0.0
 13
0.0
 23
0.0
 33
0.0
 16
1.0
 26
0.0
 36
0.0
 17
0.0
 27
1.0
 37
0.0
 76
     0
330
58E
331
49
  0
MLINESTYLE
  5
58B
102
{ACAD_REACTORS
330
58C
102
}
330
58C
100
AcDbMlineStyle
  2
STANDARD
 70
     0
  3

 62
   256
 51
90.0
 52
90.0
 71
     2
 49
0.5
 62
   256
  6
BYLAYER
 49
-0.5
 62
   256
  6
BYLAYER
  0
ACDBPLACEHOLDER
  5
580
102
{ACAD_REACTORS
330
581
102
}
330
581
  0
XRECORD
  5
555
102
{ACAD_REACTORS
330
5A5
102
}
330
5A5
100
AcDbXrecord
280
     1
310
3E4F020000004D6F64656C6572000000000000000000000000000000000000000000000000000000000000000000000000000000000000000000000000000000000000000000000000000000000000000000000000000000000000000000000000000000000000000000000000000000000000000000000000000000000000
310
00000000000000000000000000000000000000000000000000000000000000000000000000000000000000000000000000000000000000000000000000000000000000000000000000000000000000000000000000000000000000000000000000000000000000000000000000000000000000000000000000000000000000
310
00
310
00000000000000000000000000000000000000000000000000000000000000000000000000000000000000000000000000000000000000000000000000000000000000000000000000000000000000000000000000000000000000000000000000000000000000000000000000000000000000000000000000000000000000
310
00000000000000000000000000000000000000000000000000000000000000000000000000000000000000000000000000000000000000000000000000000000000000000000000000000000000000000000000000000000000000000000000000000000000000000000000000000000000000000000000000000000000000
310
00
310
00000000000000000000000000000000000000000000000000000000000000000000000000000000000000000000000000000000000000000000000000000000000000000000000000000000000000000000000000000000000000000000000000000000000000000000000000000000000000000000000000000000000000
310
00000000000000000000000000000000000000000000000000000000000000000000000000000000000000000000000000000000000000000000000000000000000000000000000000000000000000000000000000000000000000000000000000000000000000000000000000000000000000000000000000000000000000
310
00
310
00000000000000000000000000000000000000000000000000000000000000000000000000000000000000000000000000000000000000000000000000000000000000000000000000000000000000000000000000000000000000000000000000000000000000000000000000000000000000000000000000000000000000
310
00000000000000000000000000000000000000000000000000000000000000000000000000000000000000000000000000000000000000000000000000000000000000000000000000000000000000000000000000000000000000000000000000000000000000000000000000000000000000000000000000000000000000
310
00
310
00000000000000000000000000000000000000000000000000000000000000000000000000000000000000000000000000000000000000000000000000000000000000000000000000000000000000000000000000000000000000000000000000000000000000000000000000000000000000000000000000000000000000
310
00000000000000000000000000000000000000000000000000000000000000000000000000000000000000000000000000000000000000000000000000000000000000000000000000000000000000000000000000000000000000000000000000000000000000000000000000000000000000000000000000000000000000
310
00
310
00000000000000000000000000000000000000000000000000000000000000000000000000000000000000000000000000000000000000000000000000000000000000000000000000000000000000000000000000000000000000000000000000000000000000000000000000000000000000000000000000000000000000
310
00000000000000000000000000000000000000000000000000000000000000000000000000000000000000000000000000000000000000000000000000000000000000000000000000000000000000000000000000000000000000000000000000000000000000000000000000000000000000000000000000000000000000
310
00
310
00000000000000000000000000000000000000000000000000000000000000000000000000000000000000000000000000000000000000000000000000000000000000000000000000000000000000000000000000000000000000000000000000000000000000000000000000000000000000000000000000000000000000
310
00000000000000000000000000000000000000000000000000000000000000000000000000000000000000000000000000000000000000000000000000000000000000000000000000000000000000000000000000000000000000000000000000000000000000000000000000000000000000000000000000000000000000
310
00
310
00000000000000000000000000000000000000000000000000000000000000000000000000000000000000000000000000000000000000000000000000000000000000000000000000000000000000000000000000000000000000000000000000000000000000000000000000000000000000000000000000000000000000
310
00000000000000000000000000000000000000000000000000000000000000000000000000000000000000000000000000000000000000000000000000000000000000000000000000000000000000000000000000000000000000000000000000000000000000000000000000000000000000000000000000000000000000
310
00
310
00000000000000000000000000000000000000000000000000000000000000000000000000000000000000000000000000000000000000000000000000000000000000000000000000000000000000000000000000000000000000000000000000000000000000000000000000000000000000000000000000000000000000
310
00000000000000000000000000000000000000000000000000000000000000000000000000000000000000000000000000000000000000000000000000000000000000000000000000000000000000000000000000000000000000000000000000000000000000000000000000000000000000000000000000000000000000
310
00
310
00000000000000000000000000000000000000000000000000000000000000000000000000000000000000000000000000000000000000000000000000000000000000000000000000000000000000000000000000000000000000000000000000000000000000000000000000000000000000000000000000000000000000
310
00000000000000000000000000000000000000000000000000000000000000000000000000000000000000000000000000000000000000000000000000000000000000000000000000000000000000000000000000000000000000000000000000000000000000000000000000000000000000000000000000000000000000
310
00
310
00000000000000000000000000000000000000000000000000000000000000000000000000000000000000000000000000000000000000000000000000000000000000000000000000000000000000000000000000000000000000000000000000000000000000000000000000000000000000000000000000000000000000
310
00000000000000000000000000000000000000000000000000000000000000000000000000000000000000000000000000000000000000000000000000000000000000000000000000000000000000000000000000000000000000000000000000000000000000000000000000000000000000000000000000000000000000
310
00
310
00000000000000000000000000000000000000000000000000000000000000000000000000000000000000000000000000000000000000000000000000000000000000000000000000000000000000000000000000000000000000000000000000000000000000000000000000000000000000000000000000000000000000
310
00000000000000000000000000000000000000000000000000000000000000000000000000000000000000000000000000000000000000000000000000000000000000000000000000000000000000000000000000000000000000000000000000000000000000000000000000000000000000000000000000000000000000
310
00
310
00000000000000000000000000000000000000000000000000000000000000000000000000000000000000000000000000000000000000000000000000000000000000000000000000000000000000000000000000000000000000000000000000000000000000000000000000000000000000000000000000000000000000
310
00000000000000000000000000000000000000000000000000000000000000000000000000000000000000000000000000000000000000000000000000000000000000000000000000000000000000000000000000000000000000000000000000000000000000000000000000000000000000000000000000000000000000
310
00
310
00000000000000000000000000000000000000000000000000000000000000000000000000000000000000000000000000000000000000000000000000000000000000000000000000000000000000000000000000000000000000000000000000000000000000000000000000000000000000
  0
XRECORD
  5
57A
102
{ACAD_REACTORS
330
5A5
102
}
330
5A5
100
AcDbXrecord
280
     1
310
3E4F020000004D6F64656C6572000000000000000000000000000000000000000000000000000000000000000000000000000000000000000000000000000000000000000000000000000000000000000000000000000000000000000000000000000000000000000000000000000000000000000000000000000000000000
310
00000000000000000000000000000000000000000000000000000000000000000000000000000000000000000000000000000000000000000000000000000000000000000000000000000000000000000000000000000000000000000000000000000000000000000000000000000000000000000000000000000000000000
310
00
310
00000000000000000000000000000000000000000000000000000000000000000000000000000000000000000000000000000000000000000000000000000000000000000000000000000000000000000000000000000000000000000000000000000000000000000000000000000000000000000000000000000000000000
310
00000000000000000000000000000000000000000000000000000000000000000000000000000000000000000000000000000000000000000000000000000000000000000000000000000000000000000000000000000000000000000000000000000000000000000000000000000000000000000000000000000000000000
310
00
310
00000000000000000000000000000000000000000000000000000000000000000000000000000000000000000000000000000000000000000000000000000000000000000000000000000000000000000000000000000000000000000000000000000000000000000000000000000000000000000000000000000000000000
310
00000000000000000000000000000000000000000000000000000000000000000000000000000000000000000000000000000000000000000000000000000000000000000000000000000000000000000000000000000000000000000000000000000000000000000000000000000000000000000000000000000000000000
310
00
310
00000000000000000000000000000000000000000000000000000000000000000000000000000000000000000000000000000000000000000000000000000000000000000000000000000000000000000000000000000000000000000000000000000000000000000000000000000000000000000000000000000000000000
310
00000000000000000000000000000000000000000000000000000000000000000000000000000000000000000000000000000000000000000000000000000000000000000000000000000000000000000000000000000000000000000000000000000000000000000000000000000000000000000000000000000000000000
310
00
310
00000000000000000000000000000000000000000000000000000000000000000000000000000000000000000000000000000000000000000000000000000000000000000000000000000000000000000000000000000000000000000000000000000000000000000000000000000000000000000000000000000000000000
310
00000000000000000000000000000000000000000000000000000000000000000000000000000000000000000000000000000000000000000000000000000000000000000000000000000000000000000000000000000000000000000000000000000000000000000000000000000000000000000000000000000000000000
310
00
310
00000000000000000000000000000000000000000000000000000000000000000000000000000000000000000000000000000000000000000000000000000000000000000000000000000000000000000000000000000000000000000000000000000000000000000000000000000000000000000000000000000000000000
310
00000000000000000000000000000000000000000000000000000000000000000000000000000000000000000000000000000000000000000000000000000000000000000000000000000000000000000000000000000000000000000000000000000000000000000000000000000000000000000000000000000000000000
310
00
310
00000000000000000000000000000000000000000000000000000000000000000000000000000000000000000000000000000000000000000000000000000000000000000000000000000000000000000000000000000000000000000000000000000000000000000000000000000000000000000000000000000000000000
310
00000000000000000000000000000000000000000000000000000000000000000000000000000000000000000000000000000000000000000000000000000000000000000000000000000000000000000000000000000000000000000000000000000000000000000000000000000000000000000000000000000000000000
310
00
310
00000000000000000000000000000000000000000000000000000000000000000000000000000000000000000000000000000000000000000000000000000000000000000000000000000000000000000000000000000000000000000000000000000000000000000000000000000000000000000000000000000000000000
310
00000000000000000000000000000000000000000000000000000000000000000000000000000000000000000000000000000000000000000000000000000000000000000000000000000000000000000000000000000000000000000000000000000000000000000000000000000000000000000000000000000000000000
310
00
310
00000000000000000000000000000000000000000000000000000000000000000000000000000000000000000000000000000000000000000000000000000000000000000000000000000000000000000000000000000000000000000000000000000000000000000000000000000000000000000000000000000000000000
310
00000000000000000000000000000000000000000000000000000000000000000000000000000000000000000000000000000000000000000000000000000000000000000000000000000000000000000000000000000000000000000000000000000000000000000000000000000000000000000000000000000000000000
310
00
310
00000000000000000000000000000000000000000000000000000000000000000000000000000000000000000000000000000000000000000000000000000000000000000000000000000000000000000000000000000000000000000000000000000000000000000000000000000000000000000000000000000000000000
310
00000000000000000000000000000000000000000000000000000000000000000000000000000000000000000000000000000000000000000000000000000000000000000000000000000000000000000000000000000000000000000000000000000000000000000000000000000000000000000000000000000000000000
310
00
310
00000000000000000000000000000000000000000000000000000000000000000000000000000000000000000000000000000000000000000000000000000000000000000000000000000000000000000000000000000000000000000000000000000000000000000000000000000000000000000000000000000000000000
310
00000000000000000000000000000000000000000000000000000000000000000000000000000000000000000000000000000000000000000000000000000000000000000000000000000000000000000000000000000000000000000000000000000000000000000000000000000000000000000000000000000000000000
310
00
310
00000000000000000000000000000000000000000000000000000000000000000000000000000000000000000000000000000000000000000000000000000000000000000000000000000000000000000000000000000000000000000000000000000000000000000000000000000000000000000000000000000000000000
310
00000000000000000000000000000000000000000000000000000000000000000000000000000000000000000000000000000000000000000000000000000000000000000000000000000000000000000000000000000000000000000000000000000000000000000000000000000000000000000000000000000000000000
310
00
310
00000000000000000000000000000000000000000000000000000000000000000000000000000000000000000000000000000000000000000000000000000000000000000000000000000000000000000000000000000000000000000000000000000000000000000000000000000000000000000000000000000000000000
310
00000000000000000000000000000000000000000000000000000000000000000000000000000000000000000000000000000000000000000000000000000000000000000000000000000000000000000000000000000000000000000000000000000000000000000000000000000000000000000000000000000000000000
310
00
310
00000000000000000000000000000000000000000000000000000000000000000000000000000000000000000000000000000000000000000000000000000000000000000000000000000000000000000000000000000000000000000000000000000000000000000000000000000000000000
  0
XRECORD
  5
554
102
{ACAD_REACTORS
330
5A5
102
}
330
5A5
100
AcDbXrecord
280
     1
310
DF56060034040701D0009A9999999999B93F000000000000000000000000000000000400000009000000000000000200000064000000640000000100000001000000190000007B14AE47E17A843F00000000004060409A9999999999B93F00000000006AF840000000000088C34000000000004CED40000000000000000000
310
0000000000000000000000000000000AD482040000000000000000000000000000F03F000000000000000000000000000030402D431CEBE2362A3F00000000000008400000000000000000009807C000000000000000007C1A61B9A711364020000000050000000A000000200000002000000020000000000000000000F03F
310
00
310
0000000000F03F000000000000F03F333333333333D33F333333333333D33F333333333333D33F000000000000F43F000000000000F43F000000000000F03F0200000064000000000000000000000000000840000000000000F83F00000000000000000000000000000000008056409A9999999999B93F0000000000000000
310
00000000000000000000000000000000000000000000000000000000000000000000000000000000000000000000000000000000000000000000000000000000000000000000000000000000000000000000000000000000000000000000000000000000000000000000000000000000000000000000000000000000000000
310
00
310
0000000000000000000000000000000000000000000000000000000000000000000000000000000000000000000000000000000000000000000000000000000000000000000000000000000000000000000000000000000000000000000000000000000000000000000000000000000000000000000000009A9999999999A9
310
3F910000000000000000000000000000000000000000404540000000000000F03F000000000000F03F666666666666164000000000104068F200000000000000000000000000000000000000000000000000000000000000000000000000000000000000000000000000000000000000000000000000000000000000000000
310
00
310
00000000000000000000000000000000000000000000000000000000000000000000000000000000000000000000000000000000000000000000000000000000000000000000000000000000000000000000000000000000000000000000000000000000000000000000000000000000000000000000000000000000000000
310
000000000000000000000000000000000000000000000000000000000000000000000000000000000000000000000000000000000000000000000000FF000000000000000000000000000000000000000000000000000000000000000000000000000000000000000000000000000000000000000000000000000000000000
310
00
310
0000000000000000000000000000000000000000000000000000000000000000000000000000000000000000000000000000000000000000000000000000000000000000
  0
DICTIONARY
  5
597
330
596
100
AcDbDictionary
280
     1
281
     1
  3
ADSK_XREC_LAYOUTTHUMBNAIL
360
598
  0
XRECORD
  5
598
102
{ACAD_REACTORS
330
597
102
}
330
597
100
AcDbXrecord
280
     1
310
28000000B40000008B0000000100080000000000BC61000000000000000000000001000000000000FFFFFF0000000000FFFFFF000000000000000000000000000000000000000000000000000000000000000000330000006600000099000000CC000000FF00000000330000333300006633000099330000CC330000FF3300
310
0000660000336600006666000099660000CC660000FF66000000990000339900006699000099990000CC990000FF99000000CC000033CC000066CC000099CC0000CCCC0000FFCC000000FF000033FF000066FF000099FF0000CCFF0000FFFF000000003300330033006600330099003300CC003300FF003300003333003333
310
33006633330099333300CC333300FF33330000663300336633006666330099663300CC663300FF66330000993300339933006699330099993300CC993300FF99330000CC330033CC330066CC330099CC3300CCCC3300FFCC330000FF330033FF330066FF330099FF3300CCFF3300FFFF330000006600330066006600660099
310
006600CC006600FF00660000336600333366006633660099336600CC336600FF33660000666600336666006666660099666600CC666600FF66660000996600339966006699660099996600CC996600FF99660000CC660033CC660066CC660099CC6600CCCC6600FFCC660000FF660033FF660066FF660099FF6600CCFF6600
310
FFFF660000009900330099006600990099009900CC009900FF00990000339900333399006633990099339900CC339900FF33990000669900336699006666990099669900CC669900FF66990000999900339999006699990099999900CC999900FF99990000CC990033CC990066CC990099CC9900CCCC9900FFCC990000FF99
310
0033FF990066FF990099FF9900CCFF9900FFFF99000000CC003300CC006600CC009900CC00CC00CC00FF00CC000033CC003333CC006633CC009933CC00CC33CC00FF33CC000066CC003366CC006666CC009966CC00CC66CC00FF66CC000099CC003399CC006699CC009999CC00CC99CC00FF99CC0000CCCC0033CCCC0066CC
310
CC0099CCCC00CCCCCC00FFCCCC0000FFCC0033FFCC0066FFCC0099FFCC00CCFFCC00FFFFCC000000FF003300FF006600FF009900FF00CC00FF00FF00FF000033FF003333FF006633FF009933FF00CC33FF00FF33FF000066FF003366FF006666FF009966FF00CC66FF00FF66FF000099FF003399FF006699FF009999FF00CC
310
99FF00FF99FF0000CCFF0033CCFF0066CCFF0099CCFF00CCCCFF00FFCCFF0000FFFF0033FFFF0066FFFF0099FFFF00CCFFFF00FFFFFF00000000000D0D0D001A1A1A00282828003535350043434300505050005D5D5D006B6B6B00787878008686860093939300A1A1A100AEAEAE00BBBBBB00C9C9C900D6D6D600E4E4E400
310
F1F1F100FFFFFF0000000000000000000000000000000000000000000000000000000000000000000000000000000000E2E2E2E2E2E2E2E2E2E2E2E2E2E2E2E2E2E2E2E2E2E2E2E2E2E2E2E2E2E2E2E2E2E2E2E2E2E2E2E2E2E2E2E2E2E2E2E2E2E2E2E2E2E2E2E2E2E2E2E2E2E2E2E2E2E2E2E2E2E2E2E2E2E2E2E2E2E2E2
310
E2E2E2E2E2E2E2E2E2E2E2E2E2E2E2E2E2E2E2E2E2E2E2E2E2E2E2E2E2E2E2E2E2E2E2E2E2E2E2E2E2E2E2E2E2E2E2E2E2E2E2E2E2E2E2E2E2E2E2E2E2E2E2E2E2E2E2E2E2E2E2E2E2E2E2E2E2E2E2E2E2E2E2E2E2E2E2E2E2E2E2E2E2E2E2E2E2E2E2E2EFF5F5F5F5F5F5F5F5F5F5F5F5F5F5F5F5F5F5F5F5F5F5F5F5F5F5
310
F5F5F5F5F5F5F5F5F5F5F5F5F5F5F5F5F5F5F5F5F5F5F5F5F5F5F5F5F5F5F5F5F5F5F5F5F5F5F5F5F5F5F5F5F5F5F5F5F5F5F5F5F5F5F5F5F5F5F5F5F5F5F5F5F5F5F5F5F5F5F5F5F5F5F5F5F5F5F5F5F5F5F5F5F5F5F5F5F5F5F5F5F5F5F5F5F5F5F5F5F5F5F5F5F5F5F5F5F5F5F5F5F5F5F5F5F5F5F5F5F5F5F5F5F5F5F5
310
F5F5F5F5F5F5F5F5F5F5F5F5F5F5F5F5F5F5F5F5F5F5F5F5E2E2EFF5F5F5F5F5F5F5F5F5F5F5F5F5F5F5F5F5F5F5F5F5F5F5F5F5F5F5F5F5F5F5F5F5F5F5F5F5F5F5F5F5F5F5F5F5F5F5F5F5F5F5F5F5F5F5F5F5F5F5F5F5F5F5F5F5F5F5F5F5F5F5F5F5F5F5F5F5F5F5F5F5F5F5F5F5F5F5F5F5F5F5F5F5F5F5F5F5F5F5F5
310
F5F5F5F5F5F5F5F5F5F5F5F5F5F5F5F5F5F5F5F5F5F5F5F5F5F5F5F5F5F5F5F5F5F5F5F5F5F5F5F5F5F5F5F5F5F5F5F5F5F5F5F5F5F5F5F5F5F5F5F5F5F5F5F5F5F5F5F5F5F5F5F5F5F5F5F5F5E2E2EFF5F5F5F5F5F5F5F5F5F5F5F5F5F5F5F5F5F5F5F5F5F5F5F5F5F5F5F5F5F5F5F5F5F5F5F5F5F5F5F5F5F5F5F5F5F5F5
310
F5F5F5F5F5F5F5F5F5F5F5F5F5F5F5F5F5F5F5F5F5F5F5F5F5F5F5F5F5F5F5F5F5F5F5F5F5F5F5F5F5F5F5F5F5F5F5F5F5F5F5F5F5F5F5F5F5F5F5F5F5F5F5F5F5F5F5F5F5F5F5F5F5F5F5F5F5F5F5F5F5F5F5F5F5F5F5F5F5F5F5F5F5F5F5F5F5F5F5F5F5F5F5F5F5F5F5F5F5F5F5F5F5F5F5F5F5F5F5F5F5F5F5F5F5F5F5
310
F5F5F5E2E2EFF5F5F5E2E2E2E2E2E2E2E2F5F5F5F5F5F5F5F5F5E2E2E2E2E2E2E2E2E2E2E2E2E2E2E2E2F5F5F5F5F5F5F5F5E2E2E2E2E2E2E2E2E2E2E2E2E2E2E2E2F5F5F5F5F5F5F5F5F5E2E2E2E2E2E2E2E2E2E2E2E2E2E2E2F5F5F5F5F5F5F5F5F5E2E2E2E2E2E2E2E2E2E2E2E2E2E2E2F5F5F5F5F5F5F5F5F5E2E2E2E2
310
E2E2E2E2E2E2E2E2E2E2E2E2F5F5F5F5F5F5F5F5E2E2E2E2E2E2E2E2E2E2E2E2E2E2E2E2F5F5F5F5F5F5F5F5F5E2E2E2E2E2E2E2E2F5F5F5E2E2EFF5F5F5E2F5F5F5F5F5F5F5F5F5F5F5F5F5F5F5F5F5F5F5F5F5F5F5F5F5F5F5F5F5F5F5F5F5F5F5F5F5F5F5F5F5F5F5F5F5F5F5F5F5F5F5F5F5F5F5F5F5F5F5F5F5F5F5F5
310
F5F5F5F5F5F5F5F5F5F5F5F5F5F5F5F5F5F5F5F5F5F5F5F5F5F5F5F5F5F5F5F5F5F5F5F5F5F5F5F5F5F5F5F5F5F5F5F5F5F5F5F5F5F5F5F5F5F5F5F5F5F5F5F5F5F5F5F5F5F5F5F5F5F5F5F5F5F5F5F5F5F5F5F5F5F5F5F5F5F5F5F5F5F5F5F5F5F5F5F5F5F5F5F5F5E2F5F5F5E2E2EFF5F5F5E2F5F5F5F5F5F5F5F5F5F5F5
310
F5F5F5F5F5F5F5F5F5F5F5F5F5F5F5F5F5F5F5F5F5F5F5F5F5F5F5F5F5F5F5F5F5F5F5F5F5F5F5F5F5F5F5F5F5F5F5F5F5F5F5F5F5F5F5F5F5F5F5F5F5F5F5F5F5F5F5F5F5F5F5F5F5F5F5F5F5F5F5F5F5F5F5F5F5F5F5F5F5F5F5F5F5F5F5F5F5F5F5F5F5F5F5F5F5F5F5F5F5F5F5F5F5F5F5F5F5F5F5F5F5F5F5F5F5F5F5
310
F5F5F5F5F5F5F5F5F5F5F5F5F5F5F5F5F5F5F5F5F5F5F5F5F5F5F5F5F5F5F5E2F5F5F5E2E2EFF5F5F5E2F5F5F5F5F5F5F5F5F5F5F5F5F5F5F5F5F5F5F5F5F5F5F5F5F5F5F5F5F5F5F5F5F5F5F5F5F5F5F5F5F5F5F5F5F5F5F5F5F5F5F5F5F5F5F5F5F5F5F5F5F5F5F5F5F5F5F5F5F5F5F5F5F5F5F5F5F5F5F5F5F5F5F5F5F5
310
F5F5F5F5F5F5F5F5F5F5F5F5F5F5F5F5F5F5F5F5F5F5F5F5F5F5F5F5F5F5F5F5F5F5F5F5F5F5F5F5F5F5F5F5F5F5F5F5F5F5F5F5F5F5F5F5F5F5F5F5F5F5F5F5F5F5F5F5F5F5F5F5F5F5F5F5F5F5F5F5F5F5F5F5E2F5F5F5E2E2EFF5F5F5E2F5F5F5F5F5F5F5F5F5F5F5F5F5F5F5F5F5F5F5F5F5F5F5F5F5F5F5F5F5F5F5F5
310
F5F5F5F5F5F5F5F5F5F5F5F5F5F5F5F5F5F5F5F5F5F5F5F5F5F5F5F5F5F5F5F5F5F5F5F5F5F5F5F5F5F5F5F5F5F5F5F5F5F5F5F5F5F5F5F5F5F5F5F5F5F5F5F5F5F5F5F5F5F5F5F5F5F5F5F5F5F5F5F5F5F5F5F5F5F5F5F5F5F5F5F5F5F5F5F5F5F5F5F5F5F5F5F5F5F5F5F5F5F5F5F5F5F5F5F5F5F5F5F5F5F5F5F5F5F5F5
310
F5F5F5F5F5F5F5F5F5F5E2F5F5F5E2E2EFF5F5F5E2F5F5F5F5F5F5F5F5F5F5F5F5F5F5F5F5F5F5F5F5F5F5F5F5F5F5F5F5F5F5F5F5F5F5F5F5F5F5F5F5F5F5F5F5F5F5F5F5F5F5F5F5F5F5F5F5F5F5F5F5F5F5F5F5F5F5F5F5F5F5F5F5F5F5F5F5F5F5F5F5F5F5F5F5F5F5F5F5F5F5F5F5F5F5F5F5F5F5F5F5F5F5F5F5F5F5
310
F5F5F5F5F5F5F5F5F5F5F5F5F5F5F5F5F5F5F5F5F5F5F5F5F5F5F5F5F5F5F5F5F5F5F5F5F5F5F5F5F5F5F5F5F5F5F5F5F5F5F5F5F5F5F5F5F5F5F5F5F5F5F5E2F5F5F5E2E2EFF5F5F5E2F5F5F5F5F5F5F5F5F5F5F5F5F5F5F5F5F5F5F5F5F5F5F5F5F5F5F5F5F5F5F5F5F5F5F5F5F5F5F5F5F5F5F5F5F5F5F5F5F5F5F5F5F5
310
F5F5F5F5F5F5F5F5F5F5F5F5F5F5F5F5F5F5F5F5F5F5F5F5F5F5F5F5F5F5F5F5F5F5F5F5F5F5F5F5F5F5F5F5F5F5F5F5F5F5F5F5F5F5F5F5F5F5F5F5F5F5F5F5F5F5F5F5F5F5F5F5F5F5F5F5F5F5F5F5F5F5F5F5F5F5F5F5F5F5F5F5F5F5F5F5F5F5F5F5F5F5F5F5F5F5F5F5F5F5F5F5F5F5F5F5E2F5F5F5E2E2EFF5F5F5E2
310
F5F5F5F5F5F5F5F5F5F5F5F5F5F5F5F5F5F5F5F5F5F5F5F5F5F5F5F5F5F5F5F5F5F5F5F5F5F5F5F5F5F5F5F5F5F5F5F5F5F5F5F5F5F5F5F5F5F5F5F5F5F5F5F5F5F5F5F5F5F5F5F5F5F5F5F5F5F5F5F5F5F5F5F5F5F5F5F5F5F5F5F5F5F5F5F5F5F5F5F5F5F5F5F5F5F5F5F5F5F5F5F5F5F5F5F5F5F5F5F5F5F5F5F5F5F5F5
310
F5F5F5F5F5F5F5F5F5F5F5F5F5F5F5F5F5F5F5F5F5F5F5F5F5F5F5F5F5F5F5F5F5F5F5F5F5F5F5F5F5F5E2F5F5F5E2E2EFF5F5F5E2F5F5F5F5F5F5F5F5F5F5F5F5F5F5F5F5F5F5F5F5F5F5F5F5F5F5F5F5F5F5F5F5F5F5F5F5F5F5F5F5F5F5F5F5F5F5F5F5F5F5F5F5F5F5F5F5F5F5F5F5F5F5F5F5F5F5F5F5F5F5F5F5F5F5
310
F5F5F5F5F5F5F5F5F5F5F5F5F5F5F5F5F5F5F5F5F5F5F5F5F5F5F5F5F5F5F5F5F5F5F5F5F5F5F5F5F5F5F5F5F5F5F5F5F5F5F5F5F5F5F5F5F5F5F5F5F5F5F5F5F5F5F5F5F5F5F5F5F5F5F5F5F5F5F5F5F5F5F5F5F5F5F5F5F5F5F5F5F5F5F5E2F5F5F5E2E2EFF5F5F5F5F5F5F5F5F5F5F5F5F5F5F5F5F5F5F5F5F5F5F5F5F5
310
F5F5F5F5F5F5F5F5F5F5F5F5F5F5F5F5F5F5F5F5F5F5F5F5F5F5F5F5F5F5F5F5F5F5F5F5F5F5F5F5F5F5F5F5F5F5F5F5F5F5F5F5F5F5F5F5F5F5F5F5F5F5F5F5F5F5F5F5F5F5F5F5F5F5F5F5F5F5F5F5F5F5F5F5F5F5F5F5F5F5F5F5F5F5F5F5F5F5F5F5F5F5F5F5F5F5F5F5F5F5F5F5F5F5F5F5F5F5F5F5F5F5F5F5F5F5F5
310
F5F5F5F5F5F5F5F5F5F5F5F5F5F5F5F5F5F5F5F5F5F5F5F5F5E2E2EFF5F5F5F5F5F5F5F5F5F5F5F5F5F5F5F5F5F5F5F5F5F5F5F5F5F5F5F5F5F5F5F5F5F5F5F5F5F5F5F5F5F5F5F5F5F5F5F5F5F5F5F5F5F5F5F5F5F5F5F5F5F5F5F5F5F5F5F5F5F5F5F5F5F5F5F5F5F5F5F5F5F5F5F5F5F5F5F5F5F5F5F5F5F5F5F5F5F5F5
310
F5F5F5F5F5F5F5F5F5F5F5F5F5F5F5F5F5F5F5F5F5F5F5F5F5F5F5F5F5F5F5F5F5F5F5F5F5F5F5F5F5F5F5F5F5F5F5F5F5F5F5F5F5F5F5F5F5F5F5F5F5F5F5F5F5F5F5F5F5F5F5F5F5F5F5F5F5F5E2E2EFF5F5F5F5F5F5F5F5F5F5F5F5F5F5F5F5F5F5F5F5F5F5F5F5F5F5F5F5F5F5F5F5F5F5F5F5F5F5F5F5F5F5F5F5F5F5
310
F5F5F5F5F5F5F5F5F5F5F5F5F5F5F5F5F5F5F5F5F5F5F5F5F5F5F5F5F5F5F5F5F5F5F5F5F5F5F5F5F5F5F5F5F5F5F5F5F5F5F5F5F5F5F5F5F5F5F5F5F5F5F5F5F5F5F5F5F5F5F5F5F5F5F5F5F5F5F5F5F5F5F5F5F5F5F5F5F5F5F5F5F5F5F5F5F5F5F5F5F5F5F5F5F5F5F5F5F5F5F5F5F5F5F5F5F5F5F5F5F5F5F5F5F5F5F5
310
F5F5F5F5E2E2EFF5F5F5F5F5F5F5F5F5F5F5F5F5F5F5F5F5F5F5F5F5F5F5F5F5F5F5F5F5F5F5F5F5F5F5F5F5F5F5F5F5F5F5F5F5F5F5F5F5F5F5F5F5F5F5F5F5F5F5F5F5F5F5F5F5F5F5F5F5F5F5F5F5F5F5F5F5F5F5F5F5F5F5F5F5F5F5F5F5F5F5F5F5F5F5F5F5F5F5F5F5F5F5F5F5F5F5F5F5F5F5F5F5F5F5F5F5F5F5F5
310
F5F5F5F5F5F5F5F5F5F5F5F5F5F5F5F5F5F5F5F5F5F5F5F5F5F5F5F5F5F5F5F5F5F5F5F5F5F5F5F5F5F5F5F5F5F5F5F5F5F5F5F5F5F5F5F5F5E2E2EFF5F5F5F5F5F5F5F5F5F5F5F5F5F5F5F5F5F5F5F5E2E2E2E2E2E2E2E2E2E2E2E2E2E2E2E2E2E2E2E2E2E2E2E2E2E2E2E2E2E2E2E2E2E2E2E2E2E2E2E2E2E2E2E2E2E2E2
310
E2E2E2E2E2E2E2E2E2E2E2E2E2E2E2E2E2E2E2E2E2E2E2E2E2E2E2E2E2E2E2E2E2E2E2E2E2E2E2E2E2E2E2E2E2E2E2E2E2E2E2E2E2E2E2E2E2E2E2E2E2E2E2E2E2E2E2E2E2E2E2E2E2E2E2E2E2E2E2E2E2E2E2E2E2E2E2E2E2E2F5F5F5F5F5F5F5F5F5F5F5F5F5F5F5F5F5F5F5F5E2E2EFF5F5F5F5F5F5F5F5F5F5F5F5F5F5
310
F5F5F5F5F5F5E2F5F5F5F5F5F5F5F5F5F5F5F5F5F5F5F5F5F5F5F5F5F5F5F5F5F5F5F5F5F5F5F5F5F5F5F5F5F5F5F5F5F5F5F5F5F5F5F5F5F5F5F5F5F5F5F5F5F5F5F5F5F5F5F5F5F5F5F5F5F5F5F5F5F5F5F5F5F5F5F5F5F5F5F5F5F5F5F5F5F5F5F5F5F5F5F5F5F5F5F5F5F5F5F5F5F5F5F5F5F5F5F5F5F5F5F5F5F5F5F5
310
F5F5F5F5F5F5F5F5F5F5F5F5F5F5F5E2F5F5F5F5F5F5F5F5F5F5F5F5F5F5F5F5F5F5F5F5E2E2EFF5F5F5F5F5F5F5F5F5F5F5F5F5F5F5F5F5F5F5F5E2F5F5F5F5F5F5F5F5F5F5F5F5F5F5F5F5F5F5F5F5F5F5F5F5F5F5F5F5F5F5F5F5F5F5F5F5F5F5F5F5F5F5F5F5F5F5F5F5F5F5F5F5F5F5F5F5F5F5F5F5F5F5F5F5F5F5F5
310
F5F5F5F5F5F5F5F5F5F5F5F5F5F5F5F5F5F5F5F5F5F5F5F5F5F5F5F5F5F5F5F5F5F5F5F5F5F5F5F5F5F5F5F5F5F5F5F5F5F5F5F5F5F5F5F5F5F5F5F5F5F5F5F5F5F5F5F5E2F5F5F5F5F5F5F5F5F5F5F5F5F5F5F5F5F5F5F5F5E2E2EFF5F5F5F5F5F5F5F5F5F5F5F5F5F5F5F5F5F5F5F5E2F5F5F5F5F5F5F5F5F5F5F5F5F5F5
310
F5F5F5F5F5F5F5F5F5F5F5F5F5F5F5F5F5F5F5F5F5F5F5F5F5F5F5F5F5F5F5F5F5F5F5F5F5F5F5F5F5F5F5F5F5F5F5F5F5F5F5F5F5F5F5F5F5F5F5F5F5F5F5F5F5F5F5F5F5F5F5F5F5F5F5F5F5F5F5F5F5F5F5F5F5F5F5F5F5F5F5F5F5F5F5F5F5F5F5F5F5F5F5F5F5F5F5F5F5F5F5F5F5F5F5F5F5F5F5F5F5E2F5F5F5F5F5
310
F5F5F5F5F5F5F5F5F5F5F5F5F5F5F5E2E2EFF5F5F5F5F5F5F5F5F5F5F5F5F5F5F5F5F5F5F5F5E2F5F5F5F5F5F5F5F5F5F5F5F5F5F5F5F5F5F5F5F5F5F5F5F5F5F5F5F5F5F5F5F5F5F5F5F5F5F5F5F5F5F5F5F5F5F5F5F5F5F5F5F5F5F5F5F5F5F5F5F5F5F5F5F5F5F5F5F5F5F5F5F5F5F5F5F5F5F5F5F5F5F5F5F5F5F5F5F5
310
F5F5F5F5F5F5F5F5F5F5F5F5F5F5F5F5F5F5F5F5F5F5F5F5F5F5F5F5F5F5F5F5F5F5F5F5F5F5F5F5F5F5F5F5F5F5F5E2F5F5F5F5F5F5F5F5F5F5F5F5F5F5F5F5F5F5F5F5E2E2EFF5F5F5E2F5F5F5F5F5F5F5F5F5F5F5F5F5F5F5F5E2F5F5F5F5F5F5F5F5F5F5F5F5F5F5F5F5F5F5F5F5F5F5F5F5F5F5F5F5F5F5F5F5F5F5F5
310
F5F5F5F5F5F5F5F5F5F5F5F5F5F5F5F5F5F5F5F5F5F5F5F5F5F5F5F5F5F5F5F5F5F5F5F5F5F5F5F5F5F5F5F5F5F5F5F5F5F5F5F5F5F5F5F5F5F5F5F5F5F5F5F5F5F5F5F5F5F5F5F5F5F5F5F5F5F5F5F5F5F5F5F5F5F5F5F5F5F5F5F5F5F5F5F5F5F5F5F5E2F5F5F5F5F5F5F5F5F5F5F5F5F5F5F5F5E2F5F5F5E2E2EFF5F5F5
310
E2F5F5F5F5F5F5F5F5F5F5F5F5F5F5F5F5E2F5F5F5F5F5F5F5F5F5F5F5F5F5F5F5F5F5F5F5F5F5F5F5F5F5F5F5F5F5F5F5F5F5F5F5F5F5F5F5F5F5F5F5F5F5F5F5F5F5F5F5F5F5F5F5F5F5F5F5F5F5F5F5F5F5F5F5F5F5F5F5F5F5F5F5F5F5F5F5F5F5F5F5F5F5F5F5F5F5F5F5F5F5F5F5F5F5F5F5F5F5F5F5F5F5F5F5F5F5
310
F5F5F5F5F5F5F5F5F5F5F5F5F5F5F5F5F5F5F5F5F5F5F5F5F5F5E2F5F5F5F5F5F5F5F5F5F5F5F5F5F5F5F5E2F5F5F5E2E2EFF5F5F5E2F5F5F5F5F5F5F5F5F5F5F5F5F5F5F5F5E2F5F5F5F5F5F5F5F5F5F5F5F5F5F5F5F5F5F5F5F5F5F5F5F5F5F5F5F5F5F5F5F5F5F5F5F5F5F5F5F5F5F5F5F5F5F5F5F5F5F5F5F5F5F5F5F5
310
F5F5F5F5F5F5F5F5F5F5F5F5F5F5F5F5F5F5F5F5F5F5F5F5F5F5F5F5F5F5F5F5F5F5F5F5F5F5F5F5F5F5F5F5F5F5F5F5F5F5F5F5F5F5F5F5F5F5F5F5F5F5F5F5F5F5F5F5F5F5F5F5F5F5F5F5F5F5F5E2F5F5F5F5F5F5F5F5F5F5F5F5F5F5F5F5E2F5F5F5E2E2EFF5F5F5E2F5F5F5F5F5F5F5F5F5F5F5F5F5F5F5F5E2F5F5F5
310
F5F5F5F5F5F5F5F5F5F5F5F5F5F5F5F5F5F5F5F5F5F5F5F5F5F5F5F5F5F5F5F5F5F5F5F5F5F5F5F5F5F5F5F5F5F5F5F5F5F5F5F5F5F5F5F5F5F5F5F5F5F5F5F5F5F5F5F5F5F5F5F5F5F5F5F5F5F5F5F5F5F5F5F5F5F5F5F5F5F5F5F5F5F5F5F5F5F5F5F5F5F5F5F5F5F5F5F5F5F5F5F5F5F5F5F5F5F5F5F5F5F5F5F5F5F5F5
310
F5F5F5F5F5E2F5F5F5F5F5F5F5F5F5F5F5F5F5F5F5F5E2F5F5F5E2E2EFF5F5F5E2F5F5F5F5F5F5F5F5F5F5F5F5F5F5F5F5E2F5F5F5F5F5F5F5F5F5F5F5F5F5F5F5F5F5F5F5F5F5F5F5F5F5F5F5F5F5F5F5F5F5F5F5F5F5F5F5F5F5F5F5F5F5F5F5F5F5F5F5F5F5F5F5F5F5F5F5F5F5F5F5F5F5F5F5F5F5F5F5F5F5F5F5F5F5
310
F5F5F5F5F5F5F5F5F5F5F5F5F5F5F5F5F5F5F5F5F5F5F5F5F5F5F5F5F5F5F5F5F5F5F5F5F5F5F5F5F5F5F5F5F5F5F5F5F5F5F5F5F5F5F5F5F5F5E2F5F5F5F5F5F5F5F5F5F5F5F5F5F5F5F5E2F5F5F5E2E2EFF5F5F5E2F5F5F5F5F5F5F5F5F5F5F5F5F5F5F5F5E2F5F5F5F5F5F5F5F5F5F5F5F5F5F5F5F5F5F5F5F5F5F5F5F5
310
F5F5F5F5F5F5F5F5F5F5F5F5F5F5F5F5F5F5F5F5F5F5F5F5F5F5F5F5F5F5F5F5F5F5F5F5F5F5F5F5F5F5F5F5F5F5F5F5F5F5F5F5F5F5F5F5F5F5F5F5F5F5F5F5F5F5F5F5F5F5F5F5F5F5F5F5F5F5F5F5F5F5F5F5F5F5F5F5F5F5F5F5F5F5F5F5F5F5F5F5F5F5F5F5F5F5F5F5F5F5F5E2F5F5F5F5F5F5F5F5F5F5F5F5F5F5F5
310
F5E2F5F5F5E2E2EFF5F5F5E2F5F5F5F5F5F5F5F5F5F5F5F5F5F5F5F5E2F5F5F5F5F5F5F5F5F5F5F5F5F5F5F5F5F5F5F5F5F5F5F5F5F5F5F5F5F5F5F5F5F5F5F5F5F5F5F5F5F5F5F5F5F5F5F5F5F5F5F5F5F5F5F5F5F5F5F5F5F5F5F5F5F5F5F5F5F5F5F5F5F5F5F5F5F5F5F5F5F5F5F5F5F5F5F5F5F5F5F5F5F5F5F5F5F5F5
310
F5F5F5F5F5F5F5F5F5F5F5F5F5F5F5F5F5F5F5F5F5F5F5F5F5F5F5F5F5F5F5F5F5F5F5F5F5E2F5F5F5F5F5F5F5F5F5F5F5F5F5F5F5F5E2F5F5F5E2E2EFF5F5F5E2F5F5F5F5F5F5F5F5F5F5F5F5F5F5F5F5E2F5F5F5F5F5F5F5F5F5F5F5F5F5F5F5F5F5F5F5F5F5F5F5F5F5F5F5F5F5F5F5F5F5F5F5F5F5F5F5F5F5F5F5F5F5
310
F5F5F5F5F5F5F5F5F5F5F5F5F5F5F5F5F5F5F5F5F5F5F5F5F5F5F5F5F5F5F5F5F5F5F5F5F5F5F5F5F5F5F5F5F5F5F5F5F5F5F5F5F5F5F5F5F5F5F5F5F5F5F5F5F5F5F5F5F5F5F5F5F5F5F5F5F5F5F5F5F5F5F5F5F5F5F5F5F5F5E2F5F5F5F5F5F5F5F5F5F5F5F5F5F5F5F5E2F5F5F5E2E2EFF5F5F5E2F5F5F5F5F5F5F5F5F5
310
F5F5F5F5F5F5F5E2F5F5F5F5F5F5F5F5F5F5F5F5F5F5F5F5F5F5F5F5F5F5F5F5F5F5F5F5F5F5F5F5F5F5F5F5F5F5F5F5F5F5F5F5F5F5F5F5F5F5F5F5F5F5F5F5F5F5F5F5F5F5F5F5F5F5F5F5F5F5F5F5F5F5F5F5F5F5F5F5F5F5F5F5F5F5F5F5F5F5F5F5F5F5F5F5F5F5F5F5F5F5F5F5F5F5F5F5F5F5F5F5F5F5F5F5F5F5F5
310
F5F5F5F5F5F5F5F5F5F5F5F5F5F5F5F5E2F5F5F5F5F5F5F5F5F5F5F5F5F5F5F5F5E2F5F5F5E2E2EFF5F5F5E2F5F5F5F5F5F5F5F5F5F5F5F5F5F5F5F5E2F5F5F5F5F5F5F5F5F5F5F5F5F5F5F5F5F5F5F5F5F5F5F5F5F5F5F5F5F5F5F5F5F5F5F5F5F5F5F5F5F5F5F5F5F5F5F5F5F5F5F5F5F5F5F5F5F5F5F5F5F5F5F5F5F5F5
310
F5F5F5F5F5F5F5F5F5F5F5F5F5F5F5F5F5F5F5F5F5F5F5F5F5F5F5F5F5F5F5F5F5F5F5F5F5F5F5F5F5F5F5F5F5F5F5F5F5F5F5F5F5F5F5F5F5F5F5F5F5F5F5F5F5F5F5F5F5E2F5F5F5F5F5F5F5F5F5F5F5F5F5F5F5F5E2F5F5F5E2E2EFF5F5F5E2F5F5F5F5F5F5F5F5F5F5F5F5F5F5F5F5E2F5F5F5F5F5F5F5F5F5F5F5F5F5
310
F5F5F5F5F5F5F5F5F5F5F5F5F5F5F5F5F5F5F5F5F5F5F5F5F5F5F5F5F5F5F5F5F5F5F5F5F5F5F5F5F5F5F5F5F5F5F5F5F5F5F5F5F5F5F5F5F5F5F5F5F5F5F5F5F5F5F5F5F5F5F5F5F5F5F5F5F5F5F5F5F5F5F5F5F5F5F5F5F5F5F5F5F5F5F5F5F5F5F5F5F5F5F5F5F5F5F5F5F5F5F5F5F5F5F5F5F5F5F5F5F5F5E2F5F5F5F5
310
F5F5F5F5F5F5F5F5F5F5F5F5E2F5F5F5E2E2EFF5F5F5E2F5F5F5F5F5F5F5F5F5F5F5F5F5F5F5F5E2F5F5F5F5F5F5F5F5F5F5F5F5F5F5F5F5F5F5F5F5F5F5F5F5F5F5F5F5F5F5F5F5F5F5F5F5F5F5F5F5F5F5F5F5F5F5F5F5F5F5F5F5F5F5F5F5F5F5F5F5F5F5F5F5F5F5F5F5F5F5F5F5F5F5F5F5F5F5F5F5F5F5F5F5F5F5F5
310
F5F5F5F5F5F5F5F5F5F5F5F5F5F5F5F5F5F5F5F5F5F5F5F5F5F5F5F5F5F5F5F5F5F5F5F5F5F5F5F5F5F5F5F5F5F5F5F5E2F5F5F5F5F5F5F5F5F5F5F5F5F5F5F5F5E2F5F5F5E2E2EFF5F5F5E2F5F5F5F5F5F5F5F5F5F5F5F5F5F5F5F5E2F5F5F5F5F5F5F5F5F5F5F5F5F5F5F5F5F5F5F5F5F5F5F5F5F5F5F5F5F5F5F5F5F5F5
310
F5F5F5F5F5F5F5F5F5F5F5F5F5F5F5F5F5F5F5F5F5F5F5F5F5F5F5F5F5F5F5F5F5F5F5F5F5F5F5F5F5F5F5F5F5F5F5F5F5F5F5F5F5F5F5F5F5F5F5F5F5F5F5F5F5F5F5F5F5F5F5F5F5F5F5F5F5F5F5F5F5F5F5F5F5F5F5F5F5F5F5F5F5F5F5F5F5F5F5F5F5E2F5F5F5F5F5F5F5F5F5F5F5F5F5F5F5F5E2F5F5F5E2E2EFF5F5
310
F5E2F5F5F5F5F5F5F5F5F5F5F5F5F5F5F5F5E2F5F5F5F5F5F5F5F5F5F5F5F5F5F5F5F5F5F5F5F5F5F5F5F5F5F5F5F5F5F5F5F5F5F5F5F5F5F5F5F5F5F5F5F5F5F5F5F5F5F5F5F5F5F5F5F5F5F5F5F5F5F5F5F5F5F5F5F5F5F5F5F5F5F5F5F5F5F5F5F5F5F5F5F5F5F5F5F5F5F5F5F5F5F5F5F5F5F5F5F5F5F5F5F5F5F5F5F5
310
F5F5F5F5F5F5F5F5F5F5F5F5F5F5F5F5F5F5F5F5F5F5F5F5F5F5F5E2F5F5F5F5F5F5F5F5F5F5F5F5F5F5F5F5E2F5F5F5E2E2EFF5F5F5E2F5F5F5F5F5F5F5F5F5F5F5F5F5F5F5F5E2F5F5F5F5F5F5F5F5F5F5F5F5F5F5F5F5F5F5F5F5F5F5F5F5F5F5F5F5F5F5F5F5F5F5F5F5F5F5F5F5F5F5F5F5F5F5F5F5F5F5F5F5F5F5F5
310
F5F5F5F5F5F5F5F5F5F5F5F5F5F5F5F5F5F5F5F5F5F5F5F5F5F5F5F5F5F5F5F5F5F5F5F5F5F5F5F5F5F5F5F5F5F5F5F5F5F5F5F5F5F5F5F5F5F5F5F5F5F5F5F5F5F5F5F5F5F5F5F5F5F5F5F5F5F5F5F5E2F5F5F5F5F5F5F5F5F5F5F5F5F5F5F5F5E2F5F5F5E2E2EFF5F5F5E2F5F5F5F5F5F5F5F5F5F5F5F5F5F5F5F5E2F5F5
310
F5F5F5F5F5F5F5F5F5F5F5F5F5F5F5F5F5F5F5F5F5F5F5F5F5F5F5F5F5F5F5F5F5F5F5F5F5F5F5F5F5F5F5F5F5F5F5F5F5F5F5F5F5F5F5F5F5F5F5F5F5F5F5F5F5F5F5F5F5F5F5F5F5F5F5F5F5F5F5F5F5F5F5F5F5F5F5F5F5F5F5F5F5F5F5F5F5F5F5F5F5F5F5F5F5F5F5F5F5F5F5F5F5F5F5F5F5F5F5F5F5F5F5F5F5F5F5
310
F5F5F5F5F5F5E2F5F5F5F5F5F5F5F5F5F5F5F5F5F5F5F5E2F5F5F5E2E2EFF5F5F5E2F5F5F5F5F5F5F5F5F5F5F5F5F5F5F5F5E2F5F5F5F5F5F5F5F5F5F5F5F5F5F5F5F5F5F5F5F5F5F5F5F5F5F5F5F5F5F5F5F5F5F5F5F5F5F5F5F5F5F5F5F5F5F5F5F5F5F5F5F5F5F5F5F5F5F5F5F5F5F5F5F5F5F5F5F5F5F5F5F5F5F5F5F5
310
F5F5F5F5F5F5F5F5F5F5F5F5F5F5F5F5F5F5F5F5F5F5F5F5F5F5F5F5F5F5F5F5F5F5F5F5F5F5F5F5F5F5F5F5F5F5F5F5F5F5F5F5F5F5F5F5F5F5F5E2F5F5F5F5F5F5F5F5F5F5F5F5F5F5F5F5E2F5F5F5E2E2EFF5F5F5F5F5F5F5F5F5F5F5F5F5F5F5F5F5F5F5F5E2F5F5F5F5F5F5F5F5F5F5F5F5F5F5F5F5F5F5F5F5F5F5F5
310
F5F5F5F5F5F5F5F5F5F5F5F5F5F5F5F5F5F5F5F5F5F5F5F5F5F5F5F5F5F5F5F5F5F5F5F5F5F5F5F5F5F5F5F5F5F5F5F5F5F5F5F5F5F5F5F5F5F5F5F5F5F5F5F5F5F5F5F5F5F5F5F5F5F5F5F5F5F5F5F5F5F5F5F5F5F5F5F5F5F5F5F5F5F5F5F5F5F5F5F5F5F5F5F5F5F5F5F5F5F5F5F5E2F5F5F5F5F5F5F5F5F5F5F5F5F5F5
310
F5F5F5F5F5F5E2E2EFF5F5F5F5F5F5F5F5F5F5F5F5F5F5F5F5F5F5F5F5E2F5F5F5F5F5F5F5F5F5F5F5F5F5F5F5F5F5F5F5F5F5F5F5F5F5F5F5F5F5F5F5F5F5F5F5F5F5F5F5F5F5F5F5F5F5F5F5F5F5F5F5F5F5F5F5F5F5F5F5F5F5F5F5F5F5F5F5F5F5F5F5F5F5F5F5F5F5F5F5F5F5F5F5F5F5F5F5F5F5F5F5F5F5F5F5F5F5
310
F5F5F5F5F5F5F5F5F5F5F5F5F5F5F5F5F5F5F5F5F5F5F5F5F5F5F5F5F5F5F5F5F5F5F5F5F5F5E2F5F5F5F5F5F5F5F5F5F5F5F5F5F5F5F5F5F5F5F5E2E2EFF5F5F5F5F5F5F5F5F5F5F5F5F5F5F5F5F5F5F5F5E2F5F5F5F5F5F5F5F5F5F5F5F5F5F5F5F5F5F5F5F5F5F5F5F5F5F5F5F5F5F5F5F5F5F5F5F5F5F5F5F5F5F5F5F5
310
F5F5F5F5F5F5F5F5F5F5F5F5F5F5F5F5F5F5F5F5F5F5F5F5F5F5F5F5F5F5F5F5F5F5F5F5F5F5F5F5F5F5F5F5F5F5F5F5F5F5F5F5F5F5F5F5F5F5F5F5F5F5F5F5F5F5F5F5F5F5F5F5F5F5F5F5F5F5F5F5F5F5F5F5F5F5F5F5F5F5F5E2F5F5F5F5F5F5F5F5F5F5F5F5F5F5F5F5F5F5F5F5E2E2EFF5F5F5F5F5F5F5F5F5F5F5F5
310
F5F5F5F5F5F5F5F5E2F5F5F5F5F5F5F5F5F5F5F5F5F5F5F5F5F5F5F5F5F5F5F5F5F5F5F5F5F5F5F5F5F5F5F5F5F5F5F5F5F5F5F5F5F5F5F5F5F5F5F5F5F5F5F5F5F5F5F5F5F5F5F5F5F5F5F5F5F5F5F5F5F5F5F5F5F5F5F5F5F5F5F5F5F5F5F5F5F5F5F5F5F5F5F5F5F5F5F5F5F5F5F5F5F5F5F5F5F5F5F5F5F5F5F5F5F5F5
310
F5F5F5F5F5F5F5F5F5F5F5F5F5F5F5F5F5E2F5F5F5F5F5F5F5F5F5F5F5F5F5F5F5F5F5F5F5F5E2E2EFF5F5F5F5F5F5F5F5F5F5F5F5F5F5F5F5F5F5F5F5E2F5F5F5F5F5F5F5F5F5F5F5F5F5F5F5F5F5F5F5F5F5F5F5F5F5F5F5F5F5F5F5F5F5F5F5F5F5F5F5F5F5F5F5F5F5F5F5F5F5F5F5F5F5F5F5F5F5F5F5F5F5F5F5F5F5
310
F5F5F5F5F5F5F5F5F5F5F5F5F5F5F5F5F5F5F5F5F5F5F5F5F5F5F5F5F5F5F5F5F5F5F5F5F5F5F5F5F5F5F5F5F5F5F5F5F5F5F5F5F5F5F5F5F5F5F5F5F5F5F5F5F5F5F5F5F5F5E2F5F5F5F5F5F5F5F5F5F5F5F5F5F5F5F5F5F5F5F5E2E2EFF5F5F5F5F5F5F5F5F5F5F5F5F5F5F5F5F5F5F5F5E2F5F5F5F5F5F5F5F5F5F5F5F5
310
F5F5F5F5F5F5F5F5F5F5F5F5F5F5F5F5F5F5F5F5F5F5F5F5F5F5F5F5F5F5F5F5F5F5F5F5F5F5F5F5F5F5F5F5F5F5F5F5F5F5F5F5F5F5F5F5F5F5F5F5F5F5F5F5F5F5F5F5F5F5F5F5F5F5F5F5F5F5F5F5F5F5F5F5F5F5F5F5F5F5F5F5F5F5F5F5F5F5F5F5F5F5F5F5F5F5F5F5F5F5F5F5F5F5F5F5F5F5F5F5F5F5F5E2F5F5F5
310
F5F5F5F5F5F5F5F5F5F5F5F5F5F5F5F5F5E2E2EFF5F5F5F5F5F5F5F5F5F5F5F5F5F5F5F5F5F5F5F5E2F5F5F5F5F5F5F5F5F5F5F5F5F5F5F5F5F5F5F5F5F5F5F5F5F5F5F5F5F5F5F5F5F5F5F5F5F5F5F5F5F5F5F5F5F5F5F5F5F5F5F5F5F5F5F5F5F5F5F5F5F5F5F5F5F5F5F5F5F5F5F5F5F5F5F5F5F5F5F5F5F5F5F5F5F5F5
310
F5F5F5F5F5F5F5F5F5F5F5F5F5F5F5F5F5F5F5F5F5F5F5F5F5F5F5F5F5F5F5F5F5F5F5F5F5F5F5F5F5F5F5F5F5F5F5F5F5E2F5F5F5F5F5F5F5F5F5F5F5F5F5F5F5F5F5F5F5F5E2E2EFF5F5F5F5F5F5F5F5F5F5F5F5F5F5F5F5F5F5F5F5E2F5F5F5F5F5F5F5F5F5F5F5F5F5F5F5F5F5F5F5F5F5F5F5F5F5F5F5F5F5F5F5F5F5
310
F5F5F5F5F5F5F5F5F5F5F5F5F5F5F5F5F5F5F5F5F5F5F5F5F5F5F5F5F5F5F5F5F5F5F5F5F5F5F5F5F5F5F5F5F5F5F5F5F5F5F5F5F5F5F5F5F5F5F5F5F5F5F5F5F5F5F5F5F5F5F5F5F5F5F5F5F5F5F5F5F5F5F5F5F5F5F5F5F5F5F5F5F5F5F5F5F5F5F5F5F5F5E2F5F5F5F5F5F5F5F5F5F5F5F5F5F5F5F5F5F5F5F5E2E2EFF5
310
F5F5F5F5F5F5F5F5F5F5F5F5F5F5F5F5F5F5F5E2F5F5F5F5F5F5F5F5F5F5F5F5F5F5F5F5F5F5F5F5F5F5F5F5F5F5F5F5F5F5F5F5F5F5F5F5F5F5F5F5F5F5F5F5F5F5F5F5F5F5F5F5F5F5F5F5F5F5F5F5F5F5F5F5F5F5F5F5F5F5F5F5F5F5F5F5F5F5F5F5F5F5F5F5F5F5F5F5F5F5F5F5F5F5F5F5F5F5F5F5F5F5F5F5F5F5F5
310
F5F5F5F5F5F5F5F5F5F5F5F5F5F5F5F5F5F5F5F5F5F5F5F5F5F5F5F5E2F5F5F5F5F5F5F5F5F5F5F5F5F5F5F5F5F5F5F5F5E2E2EFF5F5F5E2F5F5F5F5F5F5F5F5F5F5F5F5F5F5F5F5E2F5F5F5F5F5F5F5F5F5F5F5F5F5F5F5F5F5F5F5F5F5F5F5F5F5F5F5F5F5F5F5F5F5F5F5F5F5F5F5F5F5F5F5F5F5F5F5F5F5F5F5F5F5F5
310
F5F5F5F5F5F5F5F5F5F5F5F5F5F5F5F5F5F5F5F5F5F5F5F5F5F5F5F5F5F5F5F5F5F5F5F5F5F5F5F5F5F5F5F5F5F5F5F5F5F5F5F5F5F5F5F5F5F5F5F5F5F5F5F5F5F5F5F5F5F5F5F5F5F5F5F5F5F5F5F5F5E2F5F5F5F5F5F5F5F5F5F5F5F5F5F5F5F5E2F5F5F5E2E2EFF5F5F5E2F5F5F5F5F5F5F5F5F5F5F5F5F5F5F5F5E2F5
310
F5F5F5F5F5F5F5F5F5F5F5F5F5F5F5F5F5F5F5F5F5F5F5F5F5F5F5F5F5F5F5F5F5F5F5F5F5F5F5F5F5F5F5F5F5F5F5F5F5F5F5F5F5F5F5F5F5F5F5F5F5F5F5F5F5F5F5F5F5F5F5F5F5F5F5F5F5F5F5F5F5F5F5F5F5F5F5F5F5F5F5F5F5F5F5F5F5F5F5F5F5F5F5F5F5F5F5F5F5F5F5F5F5F5F5F5F5F5F5F5F5F5F5F5F5F5F5
310
F5F5F5F5F5F5F5E2F5F5F5F5F5F5F5F5F5F5F5F5F5F5F5F5E2F5F5F5E2E2EFF5F5F5E2F5F5F5F5F5F5F5F5F5F5F5F5F5F5F5F5E2F5F5F5F5F5F5F5F5F5F5F5F5F5F5F5F5F5F5F5F5F5F5F5F5F5F5F5F5F5F5F5F5F5F5F5F5F5F5F5F5F5F5F5F5F5F5F5F5F5F5F5F5F5F5F5F5F5F5F5F5F5F5F5F5F5F5F5F5F5F5F5F5F5F5F5
310
F5F5F5F5F5F5F5F5F5F5F5F5F5F5F5F5F5F5F5F5F5F5F5F5F5F5F5F5F5F5F5F5F5F5F5F5F5F5F5F5F5F5F5F5F5F5F5F5F5F5F5F5F5F5F5F5F5F5F5F5E2F5F5F5F5F5F5F5F5F5F5F5F5F5F5F5F5E2F5F5F5E2E2EFF5F5F5E2F5F5F5F5F5F5F5F5F5F5F5F5F5F5F5F5E2F5F5F5F5F5F5F5F5F5F5F5F5F5F5F5F5F5F5F5F5F5F5
310
F5F5F5F5F5F5F5F5F5F5F5F5F5F5F5F5F5F5F5F5F5F5F5F5F5F5F5F5F5F5F5F5F5F5F5F5F5F5F5F5F5F5F5F5F5F5F5F5F5F5F5F5F5F5F5F5F5F5F5F5F5F5F5F5F5F5F5F5F5F5F5F5F5F5F5F5F5F5F5F5F5F5F5F5F5F5F5F5F5F5F5F5F5F5F5F5F5F5F5F5F5F5F5F5F5F5F5F5F5F5F5F5F5E2F5F5F5F5F5F5F5F5F5F5F5F5F5
310
F5F5F5E2F5F5F5E2E2EFF5F5F5E2F5F5F5F5F5F5F5F5F5F5F5F5F5F5F5F5E2F5F5F5F5F5F5F5F5F5F5F5F5F5F5F5F5F5F5F5F5F5F5F5F5F5F5F5F5F5F5F5F5F5F5F5F5F5F5F5F5F5F5F5F5F5F5F5F5F5F5F5F5F5F5F5F5F5F5F5F5F5F5F5F5F5F5F5F5F5F5F5F5F5F5F5F5F5F5F5F5F5F5F5F5F5F5F5F5F5F5F5F5F5F5F5F5
310
F5F5F5F5F5F5F5F5F5F5F5F5F5F5F5F5F5F5F5F5F5F5F5F5F5F5F5F5F5F5F5F5F5F5F5F5F5F5F5E2F5F5F5F5F5F5F5F5F5F5F5F5F5F5F5F5E2F5F5F5E2E2EFF5F5F5E2F5F5F5F5F5F5F5F5F5F5F5F5F5F5F5F5E2F5F5F5F5F5F5F5F5F5F5F5F5F5F5F5F5F5F5F5F5F5F5F5F5F5F5F5F5F5F5F5F5F5F5F5F5F5F5F5F5F5F5F5
310
F5F5F5F5F5F5F5F5F5F5F5F5F5F5F5F5F5F5F5F5F5F5F5F5F5F5F5F5F5F5F5F5F5F5F5F5F5F5F5F5F5F5F5F5F5F5F5F5F5F5F5F5F5F5F5F5F5F5F5F5F5F5F5F5F5F5F5F5F5F5F5F5F5F5F5F5F5F5F5F5F5F5F5F5F5F5F5F5F5F5F5F5E2F5F5F5F5F5F5F5F5F5F5F5F5F5F5F5F5E2F5F5F5E2E2EFF5F5F5E2F5F5F5F5F5F5F5
310
F5F5F5F5F5F5F5F5F5E2F5F5F5F5F5F5F5F5F5F5F5F5F5F5F5F5F5F5F5F5F5F5F5F5F5F5F5F5F5F5F5F5F5F5F5F5F5F5F5F5F5F5F5F5F5F5F5F5F5F5F5F5F5F5F5F5F5F5F5F5F5F5F5F5F5F5F5F5F5F5F5F5F5F5F5F5F5F5F5F5F5F5F5F5F5F5F5F5F5F5F5F5F5F5F5F5F5F5F5F5F5F5F5F5F5F5F5F5F5F5F5F5F5F5F5F5F5
310
F5F5F5F5F5F5F5F5F5F5F5F5F5F5F5F5F5F5E2F5F5F5F5F5F5F5F5F5F5F5F5F5F5F5F5E2F5F5F5E2E2EFF5F5F5E2F5F5F5F5F5F5F5F5F5F5F5F5F5F5F5F5E2F5F5F5F5F5F5F5F5F5F5F5F5F5F5F5F5F5F5F5F5F5F5F5F5F5F5F5F5F5F5F5F5F5F5F5F5F5F5F5F5F5F5F5F5F5F5F5F5F5F5F5F5F5F5F5F5F5F5F5F5F5F5F5F5
310
F5F5F5F5F5F5F5F5F5F5F5F5F5F5F5F5F5F5F5F5F5F5F5F5F5F5F5F5F5F5F5F5F5F5F5F5F5F5F5F5F5F5F5F5F5F5F5F5F5F5F5F5F5F5F5F5F5F5F5F5F5F5F5F5F5F5F5F5F5F5F5E2F5F5F5F5F5F5F5F5F5F5F5F5F5F5F5F5E2F5F5F5E2E2EFF5F5F5E2F5F5F5F5F5F5F5F5F5F5F5F5F5F5F5F5E2F5F5F5F5F5F5F5F5F5F5F5
310
F5F5F5F5F5F5F5F5F5F5F5F5F5F5F5F5F5F5F5F5F5F5F5F5F5F5F5F5F5F5F5F5F5F5F5F5F5F5F5F5F5F5F5F5F5F5F5F5F5F5F5F5F5F5F5F5F5F5F5F5F5F5F5F5F5F5F5F5F5F5F5F5F5F5F5F5F5F5F5F5F5F5F5F5F5F5F5F5F5F5F5F5F5F5F5F5F5F5F5F5F5F5F5F5F5F5F5F5F5F5F5F5F5F5F5F5F5F5F5F5F5F5F5F5E2F5F5
310
F5F5F5F5F5F5F5F5F5F5F5F5F5F5E2F5F5F5E2E2EFF5F5F5E2F5F5F5F5F5F5F5F5F5F5F5F5F5F5F5F5E2F5F5F5F5F5F5F5F5F5F5F5F5F5F5F5F5F5F5F5F5F5F5F5F5F5F5F5F5F5F5F5F5F5F5F5F5F5F5F5F5F5F5F5F5F5F5F5F5F5F5F5F5F5F5F5F5F5F5F5F5F5F5F5F5F5F5F5F5F5F5F5F5F5F5F5F5F5F5F5F5F5F5F5F5F5
310
F5F5F5F5F5F5F5F5F5F5F5F5F5F5F5F5F5F5F5F5F5F5F5F5F5F5F5F5F5F5F5F5F5F5F5F5F5F5F5F5F5F5F5F5F5F5F5F5F5F5E2F5F5F5F5F5F5F5F5F5F5F5F5F5F5F5F5E2F5F5F5E2E2EFF5F5F5E2F5F5F5F5F5F5F5F5F5F5F5F5F5F5F5F5E2F5F5F5F5F5F5F5F5F5F5F5F5F5F5F5F5F5F5F5F5F5F5F5F5F5F5F5F5F5F5F5F5
310
F5F5F5F5F5F5F5F5F5F5F5F5F5F5F5F5F5F5F5F5F5F5F5F5F5F5F5F5F5F5F5F5F5F5F5F5F5F5F5F5F5F5F5F5F5F5F5F5F5F5F5F5F5F5F5F5F5F5F5F5F5F5F5F5F5F5F5F5F5F5F5F5F5F5F5F5F5F5F5F5F5F5F5F5F5F5F5F5F5F5F5F5F5F5F5F5F5F5F5F5F5F5F5E2F5F5F5F5F5F5F5F5F5F5F5F5F5F5F5F5E2F5F5F5E2E2EF
310
F5F5F5E2F5F5F5F5F5F5F5F5F5F5F5F5F5F5F5F5E2F5F5F5F5F5F5F5F5F5F5F5F5F5F5F5F5F5F5F5F5F5F5F5F5F5F5F5F5F5F5F5F5F5F5F5F5F5F5F5F5F5F5F5F5F5F5F5F5F5F5F5F5F5F5F5F5F5F5F5F5F5F5F5F5F5F5F5F5F5F5F5F5F5F5F5F5F5F5F5F5F5F5F5F5F5F5F5F5F5F5F5F5F5F5F5F5F5F5F5F5F5F5F5F5F5F5
310
F5F5F5F5F5F5F5F5F5F5F5F5F5F5F5F5F5F5F5F5F5F5F5F5F5F5F5F5F5E2F5F5F5F5F5F5F5F5F5F5F5F5F5F5F5F5E2F5F5F5E2E2EFF5F5F5E2F5F5F5F5F5F5F5F5F5F5F5F5F5F5F5F5E2F5F5F5F5F5F5F5F5F5F5F5F5F5F5F5F5F5F5F5F5F5F5F5F5F5F5F5F5F5F5F5F5F5F5F5F5F5F5F5F5F5F5F5F5F5F5F5F5F5F5F5F5F5
310
F5F5F5F5F5F5F5F5F5F5F5F5F5F5F5F5F5F5F5F5F5F5F5F5F5F5F5F5F5F5F5F5F5F5F5F5F5F5F5F5F5F5F5F5F5F5F5F5F5F5F5F5F5F5F5F5F5F5F5F5F5F5F5F5F5F5F5F5F5F5F5F5F5F5F5F5F5F5F5F5F5F5E2F5F5F5F5F5F5F5F5F5F5F5F5F5F5F5F5E2F5F5F5E2E2EFF5F5F5E2F5F5F5F5F5F5F5F5F5F5F5F5F5F5F5F5E2
310
F5F5F5F5F5F5F5F5F5F5F5F5F5F5F5F5F5F5F5F5F5F5F5F5F5F5F5F5F5F5F5F5F5F5F5F5F5F5F5F5F5F5F5F5F5F5F5F5F5F5F5F5F5F5F5F5F5F5F5F5F5F5F5F5F5F5F5F5F5F5F5F5F5F5F5F5F5F5F5F5F5F5F5F5F5F5F5F5F5F5F5F5F5F5F5F5F5F5F5F5F5F5F5F5F5F5F5F5F5F5F5F5F5F5F5F5F5F5F5F5F5F5F5F5F5F5F5
310
F5F5F5F5F5F5F5F5E2F5F5F5F5F5F5F5F5F5F5F5F5F5F5F5F5E2F5F5F5E2E2EFF5F5F5E2F5F5F5F5F5F5F5F5F5F5F5F5F5F5F5F5E2F5F5F5F5F5F5F5F5F5F5F5F5F5F5F5F5F5F5F5F5F5F5F5F5F5F5F5F5F5F5F5F5F5F5F5F5F5F5F5F5F5F5F5F5F5F5F5F5F5F5F5F5F5F5F5F5F5F5F5F5F5F5F5F5F5F5F5F5F5F5F5F5F5F5
310
F5F5F5F5F5F5F5F5F5F5F5F5F5F5F5F5F5F5F5F5F5F5F5F5F5F5F5F5F5F5F5F5F5F5F5F5F5F5F5F5F5F5F5F5F5F5F5F5F5F5F5F5F5F5F5F5F5F5F5F5F5E2F5F5F5F5F5F5F5F5F5F5F5F5F5F5F5F5E2F5F5F5E2E2EFF5F5F5E2F5F5F5F5F5F5F5F5F5F5F5F5F5F5F5F5E2F5F5F5F5F5F5F5F5F5F5F5F5F5F5F5F5F5F5F5F5F5
310
F5F5F5F5F5F5F5F5F5F5F5F5F5F5F5F5F5F5F5F5F5F5F5F5F5F5F5F5F5F5F5F5F5F5F5F5F5F5F5F5F5F5F5F5F5F5F5F5F5F5F5F5F5F5F5F5F5F5F5F5F5F5F5F5F5F5F5F5F5F5F5F5F5F5F5F5F5F5F5F5F5F5F5F5F5F5F5F5F5F5F5F5F5F5F5F5F5F5F5F5F5F5F5F5F5F5F5F5F5F5F5F5F5F5E2F5F5F5F5F5F5F5F5F5F5F5F5
310
F5F5F5F5E2F5F5F5E2E2EFF5F5F5E2F5F5F5F5F5F5F5F5F5F5F5F5F5F5F5F5E2F5F5F5F5F5F5F5F5F5F5F5F5F5F5F5F5F5F5F5F5F5F5F5F5F5F5F5F5F5F5F5F5F5F5F5F5F5F5F5F5F5F5F5F5F5F5F5F5F5F5F5F5F5F5F5F5F5F5F5F5F5F5F5F5F5F5F5F5F5F5F5F5F5F5F5F5F5F5F5F5F5F5F5F5F5F5F5F5F5F5F5F5F5F5F5
310
F5F5F5F5F5F5F5F5F5F5F5F5F5F5F5F5F5F5F5F5F5F5F5F5F5F5F5F5F5F5F5F5F5F5F5F5F5F5F5F5E2F5F5F5F5F5F5F5F5F5F5F5F5F5F5F5F5E2F5F5F5E2E2EFF5F5F5F5F5F5F5F5F5F5F5F5F5F5F5F5F5F5F5F5E2F5F5F5F5F5F5F5F5F5F5F5F5F5F5F5F5F5F5F5F5F5F5F5F5F5F5F5F5F5F5F5F5F5F5F5F5F5F5F5F5F5F5
310
F5F5F5F5F5F5F5F5F5F5F5F5F5F5F5F5F5F5F5F5F5F5F5F5F5F5F5F5F5F5F5F5F5F5F5F5F5F5F5F5F5F5F5F5F5F5F5F5F5F5F5F5F5F5F5F5F5F5F5F5F5F5F5F5F5F5F5F5F5F5F5F5F5F5F5F5F5F5F5F5F5F5F5F5F5F5F5F5F5F5F5F5F5E2F5F5F5F5F5F5F5F5F5F5F5F5F5F5F5F5F5F5F5F5E2E2EFF5F5F5F5F5F5F5F5F5F5
310
F5F5F5F5F5F5F5F5F5F5E2F5F5F5F5F5F5F5F5F5F5F5F5F5F5F5F5F5F5F5F5F5F5F5F5F5F5F5F5F5F5F5F5F5F5F5F5F5F5F5F5F5F5F5F5F5F5F5F5F5F5F5F5F5F5F5F5F5F5F5F5F5F5F5F5F5F5F5F5F5F5F5F5F5F5F5F5F5F5F5F5F5F5F5F5F5F5F5F5F5F5F5F5F5F5F5F5F5F5F5F5F5F5F5F5F5F5F5F5F5F5F5F5F5F5F5F5
310
F5F5F5F5F5F5F5F5F5F5F5F5F5F5F5F5F5F5F5E2F5F5F5F5F5F5F5F5F5F5F5F5F5F5F5F5F5F5F5F5E2E2EFF5F5F5F5F5F5F5F5F5F5F5F5F5F5F5F5F5F5F5F5E2F5F5F5F5F5F5F5F5F5F5F5F5F5F5F5F5F5F5F5F5F5F5F5F5F5F5F5F5F5F5F5F5F5F5F5F5F5F5F5F5F5F5F5F5F5F5F5F5F5F5F5F5F5F5F5F5F5F5F5F5F5F5F5
310
F5F5F5F5F5F5F5F5F5F5F5F5F5F5F5F5F5F5F5F5F5F5F5F5F5F5F5F5F5F5F5F5F5F5F5F5F5F5F5F5F5F5F5F5F5F5F5F5F5F5F5F5F5F5F5F5F5F5F5F5F5F5F5F5F5F5F5F5F5F5F5F5E2F5F5F5F5F5F5F5F5F5F5F5F5F5F5F5F5F5F5F5F5E2E2EFF5F5F5F5F5F5F5F5F5F5F5F5F5F5F5F5F5F5F5F5E2F5F5F5F5F5F5F5F5F5F5
310
F5F5F5F5F5F5F5F5F5F5F5F5F5F5F5F5F5F5F5F5F5F5F5F5F5F5F5F5F5F5F5F5F5F5F5F5F5F5F5F5F5F5F5F5F5F5F5F5F5F5F5F5F5F5F5F5F5F5F5F5F5F5F5F5F5F5F5F5F5F5F5F5F5F5F5F5F5F5F5F5F5F5F5F5F5F5F5F5F5F5F5F5F5F5F5F5F5F5F5F5F5F5F5F5F5F5F5F5F5F5F5F5F5F5F5F5F5F5F5F5F5F5F5F5F5E2F5
310
F5F5F5F5F5F5F5F5F5F5F5F5F5F5F5F5F5F5F5E2E2EFF5F5F5F5F5F5F5F5F5F5F5F5F5F5F5F5F5F5F5F5E2F5F5F5F5F5F5F5F5F5F5F5F5F5F5F5F5F5F5F5F5F5F5F5F5F5F5F5F5F5F5F5F5F5F5F5F5F5F5F5F5F5F5F5F5F5F5F5F5F5F5F5F5F5F5F5F5F5F5F5F5F5F5F5F5F5F5F5F5F5F5F5F5F5F5F5F5F5F5F5F5F5F5F5F5
310
F5F5F5F5F5F5F5F5F5F5F5F5F5F5F5F5F5F5F5F5F5F5F5F5F5F5F5F5F5F5F5F5F5F5F5F5F5F5F5F5F5F5F5F5F5F5F5F5F5F5F5E2F5F5F5F5F5F5F5F5F5F5F5F5F5F5F5F5F5F5F5F5E2E2EFF5F5F5F5F5F5F5F5F5F5F5F5F5F5F5F5F5F5F5F5E2F5F5F5F5F5F5F5F5F5F5F5F5F5F5F5F5F5F5F5F5F5F5F5F5F5F5F5F5F5F5F5
310
F5F5F5F5F5F5F5F5F5F5F5F5F5F5F5F5F5F5F5F5F5F5F5F5F5F5F5F5F5F5F5F5F5F5F5F5F5F5F5F5F5F5F5F5F5F5F5F5F5F5F5F5F5F5F5F5F5F5F5F5F5F5F5F5F5F5F5F5F5F5F5F5F5F5F5F5F5F5F5F5F5F5F5F5F5F5F5F5F5F5F5F5F5F5F5F5F5F5F5F5F5F5F5F5E2F5F5F5F5F5F5F5F5F5F5F5F5F5F5F5F5F5F5F5F5E2E2
310
EFF5F5F5F5F5F5F5F5F5F5F5F5F5F5F5F5F5F5F5F5E2F5F5F5F5F5F5F5F5F5F5F5F5F5F5F5F5F5F5F5F5F5F5F5F5F5F5F5F5F5F5F5F5F5F5F5F5F5F5F5F5F5F5F5F5F5F5F5F5F5F5F5F5F5F5F5F5F5F5F5F5F5F5F5F5F5F5F5F5F5F5F5F5F5F5F5F5F5F5F5F5F5F5F5F5F5F5F5F5F5F5F5F5F5F5F5F5F5F5F5F5F5F5F5F5F5
310
F5F5F5F5F5F5F5F5F5F5F5F5F5F5F5F5F5F5F5F5F5F5F5F5F5F5F5F5F5F5E2F5F5F5F5F5F5F5F5F5F5F5F5F5F5F5F5F5F5F5F5E2E2EFF5F5F5F5F5F5F5F5F5F5F5F5F5F5F5F5F5F5F5F5E2F5F5F5F5F5F5F5F5F5F5F5F5F5F5F5F5F5F5F5F5F5F5F5F5F5F5F5F5F5F5F5F5F5F5F5F5F5F5F5F5F5F5F5F5F5F5F5F5F5F5F5F5
310
F5F5F5F5F5F5F5F5F5F5F5F5F5F5F5F5F5F5F5F5F5F5F5F5F5F5F5F5F5F5F5F5F5F5F5F5F5F5F5F5F5F5F5F5F5F5F5F5F5F5F5F5F5F5F5F5F5F5F5F5F5F5F5F5F5F5F5F5F5F5F5F5F5F5F5F5F5F5F5F5F5F5F5E2F5F5F5F5F5F5F5F5F5F5F5F5F5F5F5F5F5F5F5F5E2E2EFF5F5F5F5F5F5F5F5F5F5F5F5F5F5F5F5F5F5F5F5
310
E2F5F5F5F5F5F5F5F5F5F5F5F5F5F5F5F5F5F5F5F5F5F5F5F5F5F5F5F5F5F5F5F5F5F5F5F5F5F5F5F5F5F5F5F5F5F5F5F5F5F5F5F5F5F5F5F5F5F5F5F5F5F5F5F5F5F5F5F5F5F5F5F5F5F5F5F5F5F5F5F5F5F5F5F5F5F5F5F5F5F5F5F5F5F5F5F5F5F5F5F5F5F5F5F5F5F5F5F5F5F5F5F5F5F5F5F5F5F5F5F5F5F5F5F5F5F5
310
F5F5F5F5F5F5F5F5F5E2F5F5F5F5F5F5F5F5F5F5F5F5F5F5F5F5F5F5F5F5E2E2EFF5F5F5E2F5F5F5F5F5F5F5F5F5F5F5F5F5F5F5F5E2F5F5F5F5F5F5F5F5F5F5F5F5F5F5F5F5F5F5F5F5F5F5F5F5F5F5F5F5F5F5F5F5F5F5F5F5F5F5F5F5F5F5F5F5F5F5F5F5F5F5F5F5F5F5F5F5F5F5F5F5F5F5F5F5F5F5F5F5F5F5F5F5F5
310
F5F5F5F5F5F5F5F5F5F5F5F5F5F5F5F5F5F5F5F5F5F5F5F5F5F5F5F5F5F5F5F5F5F5F5F5F5F5F5F5F5F5F5F5F5F5F5F5F5F5F5F5F5F5F5F5F5F5F5F5F5F5E2F5F5F5F5F5F5F5F5F5F5F5F5F5F5F5F5E2F5F5F5E2E2EFF5F5F5E2F5F5F5F5F5F5F5F5F5F5F5F5F5F5F5F5E2F5F5F5F5F5F5F5F5F5F5F5F5F5F5F5F5F5F5F5F5
310
F5F5F5F5F5F5F5F5F5F5F5F5F5F5F5F5F5F5F5F5F5F5F5F5F5F5F5F5F5F5F5F5F5F5F5F5F5F5F5F5F5F5F5F5F5F5F5F5F5F5F5F5F5F5F5F5F5F5F5F5F5F5F5F5F5F5F5F5F5F5F5F5F5F5F5F5F5F5F5F5F5F5F5F5F5F5F5F5F5F5F5F5F5F5F5F5F5F5F5F5F5F5F5F5F5F5F5F5F5F5F5F5F5F5F5E2F5F5F5F5F5F5F5F5F5F5F5
310
F5F5F5F5F5E2F5F5F5E2E2EFF5F5F5E2F5F5F5F5F5F5F5F5F5F5F5F5F5F5F5F5E2F5F5F5F5F5F5F5F5F5F5F5F5F5F5F5F5F5F5F5F5F5F5F5F5F5F5F5F5F5F5F5F5F5F5F5F5F5F5F5F5F5F5F5F5F5F5F5F5F5F5F5F5F5F5F5F5F5F5F5F5F5F5F5F5F5F5F5F5F5F5F5F5F5F5F5F5F5F5F5F5F5F5F5F5F5F5F5F5F5F5F5F5F5F5
310
F5F5F5F5F5F5F5F5F5F5F5F5F5F5F5F5F5F5F5F5F5F5F5F5F5F5F5F5F5F5F5F5F5F5F5F5F5F5F5F5F5E2F5F5F5F5F5F5F5F5F5F5F5F5F5F5F5F5E2F5F5F5E2E2EFF5F5F5E2F5F5F5F5F5F5F5F5F5F5F5F5F5F5F5F5E2F5F5F5F5F5F5F5F5F5F5F5F5F5F5F5F5F5F5F5F5F5F5F5F5F5F5F5F5F5F5F5F5F5F5F5F5F5F5F5F5F5
310
F5F5F5F5F5F5F5F5F5F5F5F5F5F5F5F5F5F5F5F5F5F5F5F5F5F5F5F5F5F5F5F5F5F5F5F5F5F5F5F5F5F5F5F5F5F5F5F5F5F5F5F5F5F5F5F5F5F5F5F5F5F5F5F5F5F5F5F5F5F5F5F5F5F5F5F5F5F5F5F5F5F5F5F5F5F5F5F5F5F5F5F5F5F5E2F5F5F5F5F5F5F5F5F5F5F5F5F5F5F5F5E2F5F5F5E2E2EFF5F5F5E2F5F5F5F5F5
310
F5F5F5F5F5F5F5F5F5F5F5E2F5F5F5F5F5F5F5F5F5F5F5F5F5F5F5F5F5F5F5F5F5F5F5F5F5F5F5F5F5F5F5F5F5F5F5F5F5F5F5F5F5F5F5F5F5F5F5F5F5F5F5F5F5F5F5F5F5F5F5F5F5F5F5F5F5F5F5F5F5F5F5F5F5F5F5F5F5F5F5F5F5F5F5F5F5F5F5F5F5F5F5F5F5F5F5F5F5F5F5F5F5F5F5F5F5F5F5F5F5F5F5F5F5F5F5
310
F5F5F5F5F5F5F5F5F5F5F5F5F5F5F5F5F5F5F5F5E2F5F5F5F5F5F5F5F5F5F5F5F5F5F5F5F5E2F5F5F5E2E2EFF5F5F5E2F5F5F5F5F5F5F5F5F5F5F5F5F5F5F5F5E2F5F5F5F5F5F5F5F5F5F5F5F5F5F5F5F5F5F5F5F5F5F5F5F5F5F5F5F5F5F5F5F5F5F5F5F5F5F5F5F5F5F5F5F5F5F5F5F5F5F5F5F5F5F5F5F5F5F5F5F5F5F5
310
F5F5F5F5F5F5F5F5F5F5F5F5F5F5F5F5F5F5F5F5F5F5F5F5F5F5F5F5F5F5F5F5F5F5F5F5F5F5F5F5F5F5F5F5F5F5F5F5F5F5F5F5F5F5F5F5F5F5F5F5F5F5F5F5F5F5F5F5F5F5F5F5F5E2F5F5F5F5F5F5F5F5F5F5F5F5F5F5F5F5E2F5F5F5E2E2EFF5F5F5E2F5F5F5F5F5F5F5F5F5F5F5F5F5F5F5F5E2F5F5F5F5F5F5F5F5F5
310
F5F5F5F5F5F5F5F5F5F5F5F5F5F5F5F5F5F5F5F5F5F5F5F5F5F5F5F5F5F5F5F5F5F5F5F5F5F5F5F5F5F5F5F5F5F5F5F5F5F5F5F5F5F5F5F5F5F5F5F5F5F5F5F5F5F5F5F5F5F5F5F5F5F5F5F5F5F5F5F5F5F5F5F5F5F5F5F5F5F5F5F5F5F5F5F5F5F5F5F5F5F5F5F5F5F5F5F5F5F5F5F5F5F5F5F5F5F5F5F5F5F5F5F5F5F5E2
310
F5F5F5F5F5F5F5F5F5F5F5F5F5F5F5F5E2F5F5F5E2E2EFF5F5F5E2F5F5F5F5F5F5F5F5F5F5F5F5F5F5F5F5E2F5F5F5F5F5F5F5F5F5F5F5F5F5F5F5F5F5F5F5F5F5F5F5F5F5F5F5F5F5F5F5F5F5F5F5F5F5F5F5F5F5F5F5F5F5F5F5F5F5F5F5F5F5F5F5F5F5F5F5F5F5F5F5F5F5F5F5F5F5F5F5F5F5F5F5F5F5F5F5F5F5F5F5
310
F5F5F5F5F5F5F5F5F5F5F5F5F5F5F5F5F5F5F5F5F5F5F5F5F5F5F5F5F5F5F5F5F5F5F5F5F5F5F5F5F5F5F5F5F5F5F5F5F5F5F5F5E2F5F5F5F5F5F5F5F5F5F5F5F5F5F5F5F5E2F5F5F5E2E2EFF5F5F5E2F5F5F5F5F5F5F5F5F5F5F5F5F5F5F5F5E2F5F5F5F5F5F5F5F5F5F5F5F5F5F5F5F5F5F5F5F5F5F5F5F5F5F5F5F5F5F5
310
F5F5F5F5F5F5F5F5F5F5F5F5F5F5F5F5F5F5F5F5F5F5F5F5F5F5F5F5F5F5F5F5F5F5F5F5F5F5F5F5F5F5F5F5F5F5F5F5F5F5F5F5F5F5F5F5F5F5F5F5F5F5F5F5F5F5F5F5F5F5F5F5F5F5F5F5F5F5F5F5F5F5F5F5F5F5F5F5F5F5F5F5F5F5F5F5F5F5F5F5F5F5F5F5F5E2F5F5F5F5F5F5F5F5F5F5F5F5F5F5F5F5E2F5F5F5E2
310
E2EFF5F5F5E2F5F5F5F5F5F5F5F5F5F5F5F5F5F5F5F5E2F5F5F5F5F5F5F5F5F5F5F5F5F5F5F5F5F5F5F5F5F5F5F5F5F5F5F5F5F5F5F5F5F5F5F5F5F5F5F5F5F5F5F5F5F5F5F5F5F5F5F5F5F5F5F5F5F5F5F5F5F5F5F5F5F5F5F5F5F5F5F5F5F5F5F5F5F5F5F5F5F5F5F5F5F5F5F5F5F5F5F5F5F5F5F5F5F5F5F5F5F5F5F5F5
310
F5F5F5F5F5F5F5F5F5F5F5F5F5F5F5F5F5F5F5F5F5F5F5F5F5F5F5F5F5F5F5E2F5F5F5F5F5F5F5F5F5F5F5F5F5F5F5F5E2F5F5F5E2E2EFF5F5F5E2F5F5F5F5F5F5F5F5F5F5F5F5F5F5F5F5E2F5F5F5F5F5F5F5F5F5F5F5F5F5F5F5F5F5F5F5F5F5F5F5F5F5F5F5F5F5F5F5F5F5F5F5F5F5F5F5F5F5F5F5F5F5F5F5F5F5F5F5
310
F5F5F5F5F5F5F5F5F5F5F5F5F5F5F5F5F5F5F5F5F5F5F5F5F5F5F5F5F5F5F5F5F5F5F5F5F5F5F5F5F5F5F5F5F5F5F5F5F5F5F5F5F5F5F5F5F5F5F5F5F5F5F5F5F5F5F5F5F5F5F5F5F5F5F5F5F5F5F5F5F5F5F5F5E2F5F5F5F5F5F5F5F5F5F5F5F5F5F5F5F5E2F5F5F5E2E2EFF5F5F5E2F5F5F5F5F5F5F5F5F5F5F5F5F5F5F5
310
F5E2F5F5F5F5F5F5F5F5F5F5F5F5F5F5F5F5F5F5F5F5F5F5F5F5F5F5F5F5F5F5F5F5F5F5F5F5F5F5F5F5F5F5F5F5F5F5F5F5F5F5F5F5F5F5F5F5F5F5F5F5F5F5F5F5F5F5F5F5F5F5F5F5F5F5F5F5F5F5F5F5F5F5F5F5F5F5F5F5F5F5F5F5F5F5F5F5F5F5F5F5F5F5F5F5F5F5F5F5F5F5F5F5F5F5F5F5F5F5F5F5F5F5F5F5F5
310
F5F5F5F5F5F5F5F5F5F5E2F5F5F5F5F5F5F5F5F5F5F5F5F5F5F5F5E2F5F5F5E2E2EFF5F5F5E2F5F5F5F5F5F5F5F5F5F5F5F5F5F5F5F5E2F5F5F5F5F5F5F5F5F5F5F5F5F5F5F5F5F5F5F5F5F5F5F5F5F5F5F5F5F5F5F5F5F5F5F5F5F5F5F5F5F5F5F5F5F5F5F5F5F5F5F5F5F5F5F5F5F5F5F5F5F5F5F5F5F5F5F5F5F5F5F5F5
310
F5F5F5F5F5F5F5F5F5F5F5F5F5F5F5F5F5F5F5F5F5F5F5F5F5F5F5F5F5F5F5F5F5F5F5F5F5F5F5F5F5F5F5F5F5F5F5F5F5F5F5F5F5F5F5F5F5F5F5F5F5F5F5E2F5F5F5F5F5F5F5F5F5F5F5F5F5F5F5F5E2F5F5F5E2E2EFF5F5F5E2F5F5F5F5F5F5F5F5F5F5F5F5F5F5F5F5E2F5F5F5F5F5F5F5F5F5F5F5F5F5F5F5F5F5F5F5
310
F5F5F5F5F5F5F5F5F5F5F5F5F5F5F5F5F5F5F5F5F5F5F5F5F5F5F5F5F5F5F5F5F5F5F5F5F5F5F5F5F5F5F5F5F5F5F5F5F5F5F5F5F5F5F5F5F5F5F5F5F5F5F5F5F5F5F5F5F5F5F5F5F5F5F5F5F5F5F5F5F5F5F5F5F5F5F5F5F5F5F5F5F5F5F5F5F5F5F5F5F5F5F5F5F5F5F5F5F5F5F5F5F5F5F5F5E2F5F5F5F5F5F5F5F5F5F5
310
F5F5F5F5F5F5E2F5F5F5E2E2EFF5F5F5E2F5F5F5F5F5F5F5F5F5F5F5F5F5F5F5F5E2F5F5F5F5F5F5F5F5F5F5F5F5F5F5F5F5F5F5F5F5F5F5F5F5F5F5F5F5F5F5F5F5F5F5F5F5F5F5F5F5F5F5F5F5F5F5F5F5F5F5F5F5F5F5F5F5F5F5F5F5F5F5F5F5F5F5F5F5F5F5F5F5F5F5F5F5F5F5F5F5F5F5F5F5F5F5F5F5F5F5F5F5F5
310
F5F5F5F5F5F5F5F5F5F5F5F5F5F5F5F5F5F5F5F5F5F5F5F5F5F5F5F5F5F5F5F5F5F5F5F5F5F5F5F5F5F5E2F5F5F5F5F5F5F5F5F5F5F5F5F5F5F5F5E2F5F5F5E2E2EFF5F5F5E2F5F5F5F5F5F5F5F5F5F5F5F5F5F5F5F5E2F5F5F5F5F5F5F5F5F5F5F5F5F5F5F5F5F5F5F5F5F5F5F5F5F5F5F5F5F5F5F5F5F5F5F5F5F5F5F5F5
310
F5F5F5F5F5F5F5F5F5F5F5F5F5F5F5F5F5F5F5F5F5F5F5F5F5F5F5F5F5F5F5F5F5F5F5F5F5F5F5F5F5F5F5F5F5F5F5F5F5F5F5F5F5F5F5F5F5F5F5F5F5F5F5F5F5F5F5F5F5F5F5F5F5F5F5F5F5F5F5F5F5F5F5F5F5F5F5F5F5F5F5F5F5F5F5E2F5F5F5F5F5F5F5F5F5F5F5F5F5F5F5F5E2F5F5F5E2E2EFF5F5F5E2F5F5F5F5
310
F5F5F5F5F5F5F5F5F5F5F5F5E2F5F5F5F5F5F5F5F5F5F5F5F5F5F5F5F5F5F5F5F5F5F5F5F5F5F5F5F5F5F5F5F5F5F5F5F5F5F5F5F5F5F5F5F5F5F5F5F5F5F5F5F5F5F5F5F5F5F5F5F5F5F5F5F5F5F5F5F5F5F5F5F5F5F5F5F5F5F5F5F5F5F5F5F5F5F5F5F5F5F5F5F5F5F5F5F5F5F5F5F5F5F5F5F5F5F5F5F5F5F5F5F5F5F5
310
F5F5F5F5F5F5F5F5F5F5F5F5F5F5F5F5F5F5F5F5F5E2F5F5F5F5F5F5F5F5F5F5F5F5F5F5F5F5E2F5F5F5E2E2EFF5F5F5F5F5F5F5F5F5F5F5F5F5F5F5F5F5F5F5F5E2F5F5F5F5F5F5F5F5F5F5F5F5F5F5F5F5F5F5F5F5F5F5F5F5F5F5F5F5F5F5F5F5F5F5F5F5F5F5F5F5F5F5F5F5F5F5F5F5F5F5F5F5F5F5F5F5F5F5F5F5F5
310
F5F5F5F5F5F5F5F5F5F5F5F5F5F5F5F5F5F5F5F5F5F5F5F5F5F5F5F5F5F5F5F5F5F5F5F5F5F5F5F5F5F5F5F5F5F5F5F5F5F5F5F5F5F5F5F5F5F5F5F5F5F5F5F5F5F5F5F5F5F5F5F5F5F5E2F5F5F5F5F5F5F5F5F5F5F5F5F5F5F5F5F5F5F5F5E2E2EFF5F5F5F5F5F5F5F5F5F5F5F5F5F5F5F5F5F5F5F5E2F5F5F5F5F5F5F5F5
310
F5F5F5F5F5F5F5F5F5F5F5F5F5F5F5F5F5F5F5F5F5F5F5F5F5F5F5F5F5F5F5F5F5F5F5F5F5F5F5F5F5F5F5F5F5F5F5F5F5F5F5F5F5F5F5F5F5F5F5F5F5F5F5F5F5F5F5F5F5F5F5F5F5F5F5F5F5F5F5F5F5F5F5F5F5F5F5F5F5F5F5F5F5F5F5F5F5F5F5F5F5F5F5F5F5F5F5F5F5F5F5F5F5F5F5F5F5F5F5F5F5F5F5F5F5F5F5
310
E2F5F5F5F5F5F5F5F5F5F5F5F5F5F5F5F5F5F5F5F5E2E2EFF5F5F5F5F5F5F5F5F5F5F5F5F5F5F5F5F5F5F5F5E2F5F5F5F5F5F5F5F5F5F5F5F5F5F5F5F5F5F5F5F5F5F5F5F5F5F5F5F5F5F5F5F5F5F5F5F5F5F5F5F5F5F5F5F5F5F5F5F5F5F5F5F5F5F5F5F5F5F5F5F5F5F5F5F5F5F5F5F5F5F5F5F5F5F5F5F5F5F5F5F5F5F5
310
F5F5F5F5F5F5F5F5F5F5F5F5F5F5F5F5F5F5F5F5F5F5F5F5F5F5F5F5F5F5F5F5F5F5F5F5F5F5F5F5F5F5F5F5F5F5F5F5F5F5F5F5F5E2F5F5F5F5F5F5F5F5F5F5F5F5F5F5F5F5F5F5F5F5E2E2EFF5F5F5F5F5F5F5F5F5F5F5F5F5F5F5F5F5F5F5F5E2F5F5F5F5F5F5F5F5F5F5F5F5F5F5F5F5F5F5F5F5F5F5F5F5F5F5F5F5F5
310
F5F5F5F5F5F5F5F5F5F5F5F5F5F5F5F5F5F5F5F5F5F5F5F5F5F5F5F5F5F5F5F5F5F5F5F5F5F5F5F5F5F5F5F5F5F5F5F5F5F5F5F5F5F5F5F5F5F5F5F5F5F5F5F5F5F5F5F5F5F5F5F5F5F5F5F5F5F5F5F5F5F5F5F5F5F5F5F5F5F5F5F5F5F5F5F5F5F5F5F5F5F5F5F5F5F5E2F5F5F5F5F5F5F5F5F5F5F5F5F5F5F5F5F5F5F5F5
310
E2E2EFF5F5F5F5F5F5F5F5F5F5F5F5F5F5F5F5F5F5F5F5E2F5F5F5F5F5F5F5F5F5F5F5F5F5F5F5F5F5F5F5F5F5F5F5F5F5F5F5F5F5F5F5F5F5F5F5F5F5F5F5F5F5F5F5F5F5F5F5F5F5F5F5F5F5F5F5F5F5F5F5F5F5F5F5F5F5F5F5F5F5F5F5F5F5F5F5F5F5F5F5F5F5F5F5F5F5F5F5F5F5F5F5F5F5F5F5F5F5F5F5F5F5F5F5
310
F5F5F5F5F5F5F5F5F5F5F5F5F5F5F5F5F5F5F5F5F5F5F5F5F5F5F5F5F5F5F5F5E2F5F5F5F5F5F5F5F5F5F5F5F5F5F5F5F5F5F5F5F5E2E2EFF5F5F5F5F5F5F5F5F5F5F5F5F5F5F5F5F5F5F5F5E2F5F5F5F5F5F5F5F5F5F5F5F5F5F5F5F5F5F5F5F5F5F5F5F5F5F5F5F5F5F5F5F5F5F5F5F5F5F5F5F5F5F5F5F5F5F5F5F5F5F5
310
F5F5F5F5F5F5F5F5F5F5F5F5F5F5F5F5F5F5F5F5F5F5F5F5F5F5F5F5F5F5F5F5F5F5F5F5F5F5F5F5F5F5F5F5F5F5F5F5F5F5F5F5F5F5F5F5F5F5F5F5F5F5F5F5F5F5F5F5F5F5F5F5F5F5F5F5F5F5F5F5F5F5F5F5F5E2F5F5F5F5F5F5F5F5F5F5F5F5F5F5F5F5F5F5F5F5E2E2EFF5F5F5F5F5F5F5F5F5F5F5F5F5F5F5F5F5F5
310
F5F5E2F5F5F5F5F5F5F5F5F5F5F5F5F5F5F5F5F5F5F5F5F5F5F5F5F5F5F5F5F5F5F5F5F5F5F5F5F5F5F5F5F5F5F5F5F5F5F5F5F5F5F5F5F5F5F5F5F5F5F5F5F5F5F5F5F5F5F5F5F5F5F5F5F5F5F5F5F5F5F5F5F5F5F5F5F5F5F5F5F5F5F5F5F5F5F5F5F5F5F5F5F5F5F5F5F5F5F5F5F5F5F5F5F5F5F5F5F5F5F5F5F5F5F5F5
310
F5F5F5F5F5F5F5F5F5F5F5E2F5F5F5F5F5F5F5F5F5F5F5F5F5F5F5F5F5F5F5F5E2E2EFF5F5F5F5F5F5F5F5F5F5F5F5F5F5F5F5F5F5F5F5E2F5F5F5F5F5F5F5F5F5F5F5F5F5F5F5F5F5F5F5F5F5F5F5F5F5F5F5F5F5F5F5F5F5F5F5F5F5F5F5F5F5F5F5F5F5F5F5F5F5F5F5F5F5F5F5F5F5F5F5F5F5F5F5F5F5F5F5F5F5F5F5
310
F5F5F5F5F5F5F5F5F5F5F5F5F5F5F5F5F5F5F5F5F5F5F5F5F5F5F5F5F5F5F5F5F5F5F5F5F5F5F5F5F5F5F5F5F5F5F5F5F5F5F5F5F5F5F5F5F5F5F5F5F5F5F5F5E2F5F5F5F5F5F5F5F5F5F5F5F5F5F5F5F5F5F5F5F5E2E2EFF5F5F5F5F5F5F5F5F5F5F5F5F5F5F5F5F5F5F5F5E2F5F5F5F5F5F5F5F5F5F5F5F5F5F5F5F5F5F5
310
F5F5F5F5F5F5F5F5F5F5F5F5F5F5F5F5F5F5F5F5F5F5F5F5F5F5F5F5F5F5F5F5F5F5F5F5F5F5F5F5F5F5F5F5F5F5F5F5F5F5F5F5F5F5F5F5F5F5F5F5F5F5F5F5F5F5F5F5F5F5F5F5F5F5F5F5F5F5F5F5F5F5F5F5F5F5F5F5F5F5F5F5F5F5F5F5F5F5F5F5F5F5F5F5F5F5F5F5F5F5F5F5F5F5F5F5F5E2F5F5F5F5F5F5F5F5F5
310
F5F5F5F5F5F5F5F5F5F5F5E2E2EFF5F5F5E2F5F5F5F5F5F5F5F5F5F5F5F5F5F5F5F5E2F5F5F5F5F5F5F5F5F5F5F5F5F5F5F5F5F5F5F5F5F5F5F5F5F5F5F5F5F5F5F5F5F5F5F5F5F5F5F5F5F5F5F5F5F5F5F5F5F5F5F5F5F5F5F5F5F5F5F5F5F5F5F5F5F5F5F5F5F5F5F5F5F5F5F5F5F5F5F5F5F5F5F5F5F5F5F5F5F5F5F5F5
310
F5F5F5F5F5F5F5F5F5F5F5F5F5F5F5F5F5F5F5F5F5F5F5F5F5F5F5F5F5F5F5F5F5F5F5F5F5F5F5F5F5F5F5E2F5F5F5F5F5F5F5F5F5F5F5F5F5F5F5F5E2F5F5F5E2E2EFF5F5F5E2F5F5F5F5F5F5F5F5F5F5F5F5F5F5F5F5E2F5F5F5F5F5F5F5F5F5F5F5F5F5F5F5F5F5F5F5F5F5F5F5F5F5F5F5F5F5F5F5F5F5F5F5F5F5F5F5
310
F5F5F5F5F5F5F5F5F5F5F5F5F5F5F5F5F5F5F5F5F5F5F5F5F5F5F5F5F5F5F5F5F5F5F5F5F5F5F5F5F5F5F5F5F5F5F5F5F5F5F5F5F5F5F5F5F5F5F5F5F5F5F5F5F5F5F5F5F5F5F5F5F5F5F5F5F5F5F5F5F5F5F5F5F5F5F5F5F5F5F5F5F5F5F5F5E2F5F5F5F5F5F5F5F5F5F5F5F5F5F5F5F5E2F5F5F5E2E2EFF5F5F5E2F5F5F5
310
F5F5F5F5F5F5F5F5F5F5F5F5F5E2F5F5F5F5F5F5F5F5F5F5F5F5F5F5F5F5F5F5F5F5F5F5F5F5F5F5F5F5F5F5F5F5F5F5F5F5F5F5F5F5F5F5F5F5F5F5F5F5F5F5F5F5F5F5F5F5F5F5F5F5F5F5F5F5F5F5F5F5F5F5F5F5F5F5F5F5F5F5F5F5F5F5F5F5F5F5F5F5F5F5F5F5F5F5F5F5F5F5F5F5F5F5F5F5F5F5F5F5F5F5F5F5F5
310
F5F5F5F5F5F5F5F5F5F5F5F5F5F5F5F5F5F5F5F5F5F5E2F5F5F5F5F5F5F5F5F5F5F5F5F5F5F5F5E2F5F5F5E2E2EFF5F5F5E2F5F5F5F5F5F5F5F5F5F5F5F5F5F5F5F5E2F5F5F5F5F5F5F5F5F5F5F5F5F5F5F5F5F5F5F5F5F5F5F5F5F5F5F5F5F5F5F5F5F5F5F5F5F5F5F5F5F5F5F5F5F5F5F5F5F5F5F5F5F5F5F5F5F5F5F5F5
310
F5F5F5F5F5F5F5F5F5F5F5F5F5F5F5F5F5F5F5F5F5F5F5F5F5F5F5F5F5F5F5F5F5F5F5F5F5F5F5F5F5F5F5F5F5F5F5F5F5F5F5F5F5F5F5F5F5F5F5F5F5F5F5F5F5F5F5F5F5F5F5F5F5F5F5E2F5F5F5F5F5F5F5F5F5F5F5F5F5F5F5F5E2F5F5F5E2E2EFF5F5F5E2F5F5F5F5F5F5F5F5F5F5F5F5F5F5F5F5E2F5F5F5F5F5F5F5
310
F5F5F5F5F5F5F5F5F5F5F5F5F5F5F5F5F5F5F5F5F5F5F5F5F5F5F5F5F5F5F5F5F5F5F5F5F5F5F5F5F5F5F5F5F5F5F5F5F5F5F5F5F5F5F5F5F5F5F5F5F5F5F5F5F5F5F5F5F5F5F5F5F5F5F5F5F5F5F5F5F5F5F5F5F5F5F5F5F5F5F5F5F5F5F5F5F5F5F5F5F5F5F5F5F5F5F5F5F5F5F5F5F5F5F5F5F5F5F5F5F5F5F5F5F5F5F5
310
F5E2F5F5F5F5F5F5F5F5F5F5F5F5F5F5F5F5E2F5F5F5E2E2EFF5F5F5E2F5F5F5F5F5F5F5F5F5F5F5F5F5F5F5F5E2F5F5F5F5F5F5F5F5F5F5F5F5F5F5F5F5F5F5F5F5F5F5F5F5F5F5F5F5F5F5F5F5F5F5F5F5F5F5F5F5F5F5F5F5F5F5F5F5F5F5F5F5F5F5F5F5F5F5F5F5F5F5F5F5F5F5F5F5F5F5F5F5F5F5F5F5F5F5F5F5F5
310
F5F5F5F5F5F5F5F5F5F5F5F5F5F5F5F5F5F5F5F5F5F5F5F5F5F5F5F5F5F5F5F5F5F5F5F5F5F5F5F5F5F5F5F5F5F5F5F5F5F5F5F5F5F5E2F5F5F5F5F5F5F5F5F5F5F5F5F5F5F5F5E2F5F5F5E2E2EFF5F5F5E2F5F5F5F5F5F5F5F5F5F5F5F5F5F5F5F5E2F5F5F5F5F5F5F5F5F5F5F5F5F5F5F5F5F5F5F5F5F5F5F5F5F5F5F5F5
310
F5F5F5F5F5F5F5F5F5F5F5F5F5F5F5F5F5F5F5F5F5F5F5F5F5F5F5F5F5F5F5F5F5F5F5F5F5F5F5F5F5F5F5F5F5F5F5F5F5F5F5F5F5F5F5F5F5F5F5F5F5F5F5F5F5F5F5F5F5F5F5F5F5F5F5F5F5F5F5F5F5F5F5F5F5F5F5F5F5F5F5F5F5F5F5F5F5F5F5F5F5F5F5F5F5F5F5E2F5F5F5F5F5F5F5F5F5F5F5F5F5F5F5F5E2F5F5
310
F5E2E2EFF5F5F5E2F5F5F5F5F5F5F5F5F5F5F5F5F5F5F5F5E2F5F5F5F5F5F5F5F5F5F5F5F5F5F5F5F5F5F5F5F5F5F5F5F5F5F5F5F5F5F5F5F5F5F5F5F5F5F5F5F5F5F5F5F5F5F5F5F5F5F5F5F5F5F5F5F5F5F5F5F5F5F5F5F5F5F5F5F5F5F5F5F5F5F5F5F5F5F5F5F5F5F5F5F5F5F5F5F5F5F5F5F5F5F5F5F5F5F5F5F5F5F5
310
F5F5F5F5F5F5F5F5F5F5F5F5F5F5F5F5F5F5F5F5F5F5F5F5F5F5F5F5F5F5F5F5F5E2F5F5F5F5F5F5F5F5F5F5F5F5F5F5F5F5E2F5F5F5E2E2EFF5F5F5E2F5F5F5F5F5F5F5F5F5F5F5F5F5F5F5F5E2F5F5F5F5F5F5F5F5F5F5F5F5F5F5F5F5F5F5F5F5F5F5F5F5F5F5F5F5F5F5F5F5F5F5F5F5F5F5F5F5F5F5F5F5F5F5F5F5F5
310
F5F5F5F5F5F5F5F5F5F5F5F5F5F5F5F5F5F5F5F5F5F5F5F5F5F5F5F5F5F5F5F5F5F5F5F5F5F5F5F5F5F5F5F5F5F5F5F5F5F5F5F5F5F5F5F5F5F5F5F5F5F5F5F5F5F5F5F5F5F5F5F5F5F5F5F5F5F5F5F5F5F5F5F5F5F5E2F5F5F5F5F5F5F5F5F5F5F5F5F5F5F5F5E2F5F5F5E2E2EFF5F5F5E2F5F5F5F5F5F5F5F5F5F5F5F5F5
310
F5F5F5E2F5F5F5F5F5F5F5F5F5F5F5F5F5F5F5F5F5F5F5F5F5F5F5F5F5F5F5F5F5F5F5F5F5F5F5F5F5F5F5F5F5F5F5F5F5F5F5F5F5F5F5F5F5F5F5F5F5F5F5F5F5F5F5F5F5F5F5F5F5F5F5F5F5F5F5F5F5F5F5F5F5F5F5F5F5F5F5F5F5F5F5F5F5F5F5F5F5F5F5F5F5F5F5F5F5F5F5F5F5F5F5F5F5F5F5F5F5F5F5F5F5F5F5
310
F5F5F5F5F5F5F5F5F5F5F5F5E2F5F5F5F5F5F5F5F5F5F5F5F5F5F5F5F5E2F5F5F5E2E2EFF5F5F5E2F5F5F5F5F5F5F5F5F5F5F5F5F5F5F5F5E2F5F5F5F5F5F5F5F5F5F5F5F5F5F5F5F5F5F5F5F5F5F5F5F5F5F5F5F5F5F5F5F5F5F5F5F5F5F5F5F5F5F5F5F5F5F5F5F5F5F5F5F5F5F5F5F5F5F5F5F5F5F5F5F5F5F5F5F5F5F5
310
F5F5F5F5F5F5F5F5F5F5F5F5F5F5F5F5F5F5F5F5F5F5F5F5F5F5F5F5F5F5F5F5F5F5F5F5F5F5F5F5F5F5F5F5F5F5F5F5F5F5F5F5F5F5F5F5F5F5F5F5F5F5F5F5F5E2F5F5F5F5F5F5F5F5F5F5F5F5F5F5F5F5E2F5F5F5E2E2EFF5F5F5E2F5F5F5F5F5F5F5F5F5F5F5F5F5F5F5F5E2F5F5F5F5F5F5F5F5F5F5F5F5F5F5F5F5F5
310
F5F5F5F5F5F5F5F5F5F5F5F5F5F5F5F5F5F5F5F5F5F5F5F5F5F5F5F5F5F5F5F5F5F5F5F5F5F5F5F5F5F5F5F5F5F5F5F5F5F5F5F5F5F5F5F5F5F5F5F5F5F5F5F5F5F5F5F5F5F5F5F5F5F5F5F5F5F5F5F5F5F5F5F5F5F5F5F5F5F5F5F5F5F5F5F5F5F5F5F5F5F5F5F5F5F5F5F5F5F5F5F5F5F5F5F5F5F5E2F5F5F5F5F5F5F5F5
310
F5F5F5F5F5F5F5F5E2F5F5F5E2E2EFF5F5F5E2F5F5F5F5F5F5F5F5F5F5F5F5F5F5F5F5E2F5F5F5F5F5F5F5F5F5F5F5F5F5F5F5F5F5F5F5F5F5F5F5F5F5F5F5F5F5F5F5F5F5F5F5F5F5F5F5F5F5F5F5F5F5F5F5F5F5F5F5F5F5F5F5F5F5F5F5F5F5F5F5F5F5F5F5F5F5F5F5F5F5F5F5F5F5F5F5F5F5F5F5F5F5F5F5F5F5F5F5
310
F5F5F5F5F5F5F5F5F5F5F5F5F5F5F5F5F5F5F5F5F5F5F5F5F5F5F5F5F5F5F5F5F5F5F5F5F5F5F5F5F5F5F5F5E2F5F5F5F5F5F5F5F5F5F5F5F5F5F5F5F5E2F5F5F5E2E2EFF5F5F5E2F5F5F5F5F5F5F5F5F5F5F5F5F5F5F5F5E2F5F5F5F5F5F5F5F5F5F5F5F5F5F5F5F5F5F5F5F5F5F5F5F5F5F5F5F5F5F5F5F5F5F5F5F5F5F5
310
F5F5F5F5F5F5F5F5F5F5F5F5F5F5F5F5F5F5F5F5F5F5F5F5F5F5F5F5F5F5F5F5F5F5F5F5F5F5F5F5F5F5F5F5F5F5F5F5F5F5F5F5F5F5F5F5F5F5F5F5F5F5F5F5F5F5F5F5F5F5F5F5F5F5F5F5F5F5F5F5F5F5F5F5F5F5F5F5F5F5F5F5F5F5F5F5F5E2F5F5F5F5F5F5F5F5F5F5F5F5F5F5F5F5E2F5F5F5E2E2EFF5F5F5E2F5F5
310
F5F5F5F5F5F5F5F5F5F5F5F5F5F5E2F5F5F5F5F5F5F5F5F5F5F5F5F5F5F5F5F5F5F5F5F5F5F5F5F5F5F5F5F5F5F5F5F5F5F5F5F5F5F5F5F5F5F5F5F5F5F5F5F5F5F5F5F5F5F5F5F5F5F5F5F5F5F5F5F5F5F5F5F5F5F5F5F5F5F5F5F5F5F5F5F5F5F5F5F5F5F5F5F5F5F5F5F5F5F5F5F5F5F5F5F5F5F5F5F5F5F5F5F5F5F5F5
310
F5F5F5F5F5F5F5F5F5F5F5F5F5F5F5F5F5F5F5F5F5F5F5E2F5F5F5F5F5F5F5F5F5F5F5F5F5F5F5F5E2F5F5F5E2E2EFF5F5F5E2F5F5F5F5F5F5F5F5F5F5F5F5F5F5F5F5E2F5F5F5F5F5F5F5F5F5F5F5F5F5F5F5F5F5F5F5F5F5F5F5F5F5F5F5F5F5F5F5F5F5F5F5F5F5F5F5F5F5F5F5F5F5F5F5F5F5F5F5F5F5F5F5F5F5F5F5
310
F5F5F5F5F5F5F5F5F5F5F5F5F5F5F5F5F5F5F5F5F5F5F5F5F5F5F5F5F5F5F5F5F5F5F5F5F5F5F5F5F5F5F5F5F5F5F5F5F5F5F5F5F5F5F5F5F5F5F5F5F5F5F5F5F5F5F5F5F5F5F5F5F5F5F5F5E2F5F5F5F5F5F5F5F5F5F5F5F5F5F5F5F5E2F5F5F5E2E2EFF5F5F5E2F5F5F5F5F5F5F5F5F5F5F5F5F5F5F5F5E2F5F5F5F5F5F5
310
F5F5F5F5F5F5F5F5F5F5F5F5F5F5F5F5F5F5F5F5F5F5F5F5F5F5F5F5F5F5F5F5F5F5F5F5F5F5F5F5F5F5F5F5F5F5F5F5F5F5F5F5F5F5F5F5F5F5F5F5F5F5F5F5F5F5F5F5F5F5F5F5F5F5F5F5F5F5F5F5F5F5F5F5F5F5F5F5F5F5F5F5F5F5F5F5F5F5F5F5F5F5F5F5F5F5F5F5F5F5F5F5F5F5F5F5F5F5F5F5F5F5F5F5F5F5F5
310
F5F5E2F5F5F5F5F5F5F5F5F5F5F5F5F5F5F5F5E2F5F5F5E2E2EFF5F5F5F5F5F5F5F5F5F5F5F5F5F5F5F5F5F5F5F5E2F5F5F5F5F5F5F5F5F5F5F5F5F5F5F5F5F5F5F5F5F5F5F5F5F5F5F5F5F5F5F5F5F5F5F5F5F5F5F5F5F5F5F5F5F5F5F5F5F5F5F5F5F5F5F5F5F5F5F5F5F5F5F5F5F5F5F5F5F5F5F5F5F5F5F5F5F5F5F5F5
310
F5F5F5F5F5F5F5F5F5F5F5F5F5F5F5F5F5F5F5F5F5F5F5F5F5F5F5F5F5F5F5F5F5F5F5F5F5F5F5F5F5F5F5F5F5F5F5F5F5F5F5F5F5F5F5E2F5F5F5F5F5F5F5F5F5F5F5F5F5F5F5F5F5F5F5F5E2E2EFF5F5F5F5F5F5F5F5F5F5F5F5F5F5F5F5F5F5F5F5E2F5F5F5F5F5F5F5F5F5F5F5F5F5F5F5F5F5F5F5F5F5F5F5F5F5F5F5
310
F5F5F5F5F5F5F5F5F5F5F5F5F5F5F5F5F5F5F5F5F5F5F5F5F5F5F5F5F5F5F5F5F5F5F5F5F5F5F5F5F5F5F5F5F5F5F5F5F5F5F5F5F5F5F5F5F5F5F5F5F5F5F5F5F5F5F5F5F5F5F5F5F5F5F5F5F5F5F5F5F5F5F5F5F5F5F5F5F5F5F5F5F5F5F5F5F5F5F5F5F5F5F5F5F5F5F5F5E2F5F5F5F5F5F5F5F5F5F5F5F5F5F5F5F5F5F5
310
F5F5E2E2EFF5F5F5F5F5F5F5F5F5F5F5F5F5F5F5F5F5F5F5F5E2F5F5F5F5F5F5F5F5F5F5F5F5F5F5F5F5F5F5F5F5F5F5F5F5F5F5F5F5F5F5F5F5F5F5F5F5F5F5F5F5F5F5F5F5F5F5F5F5F5F5F5F5F5F5F5F5F5F5F5F5F5F5F5F5F5F5F5F5F5F5F5F5F5F5F5F5F5F5F5F5F5F5F5F5F5F5F5F5F5F5F5F5F5F5F5F5F5F5F5F5F5
310
F5F5F5F5F5F5F5F5F5F5F5F5F5F5F5F5F5F5F5F5F5F5F5F5F5F5F5F5F5F5F5F5F5F5E2F5F5F5F5F5F5F5F5F5F5F5F5F5F5F5F5F5F5F5F5E2E2EFF5F5F5F5F5F5F5F5F5F5F5F5F5F5F5F5F5F5F5F5E2F5F5F5F5F5F5F5F5F5F5F5F5F5F5F5F5F5F5F5F5F5F5F5F5F5F5F5F5F5F5F5F5F5F5F5F5F5F5F5F5F5F5F5F5F5F5F5F5
310
F5F5F5F5F5F5F5F5F5F5F5F5F5F5F5F5F5F5F5F5F5F5F5F5F5F5F5F5F5F5F5F5F5F5F5F5F5F5F5F5F5F5F5F5F5F5F5F5F5F5F5F5F5F5F5F5F5F5F5F5F5F5F5F5F5F5F5F5F5F5F5F5F5F5F5F5F5F5F5F5F5F5F5F5F5F5F5E2F5F5F5F5F5F5F5F5F5F5F5F5F5F5F5F5F5F5F5F5E2E2EFF5F5F5F5F5F5F5F5F5F5F5F5F5F5F5F5
310
F5F5F5F5E2E2E2E2E2E2E2E2E2E2E2E2E2E2E2E2E2E2E2E2E2E2E2E2E2E2E2E2E2E2E2E2E2E2E2E2E2E2E2E2E2E2E2E2E2E2E2E2E2E2E2E2E2E2E2E2E2E2E2E2E2E2E2E2E2E2E2E2E2E2E2E2E2E2E2E2E2E2E2E2E2E2E2E2E2E2E2E2E2E2E2E2E2E2E2E2E2E2E2E2E2E2E2E2E2E2E2E2E2E2E2E2E2E2E2E2E2E2E2E2E2E2E2
310
E2E2E2E2E2E2E2E2E2E2E2E2E2E2F5F5F5F5F5F5F5F5F5F5F5F5F5F5F5F5F5F5F5F5E2E2EFF5F5F5F5F5F5F5F5F5F5F5F5F5F5F5F5F5F5F5F5F5F5F5F5F5F5F5F5F5F5F5F5F5F5F5F5F5F5F5F5F5F5F5F5F5F5F5F5F5F5F5F5F5F5F5F5F5F5F5F5F5F5F5F5F5F5F5F5F5F5F5F5F5F5F5F5F5F5F5F5F5F5F5F5F5F5F5F5F5F5
310
F5F5F5F5F5F5F5F5F5F5F5F5F5F5F5F5F5F5F5F5F5F5F5F5F5F5F5F5F5F5F5F5F5F5F5F5F5F5F5F5F5F5F5F5F5F5F5F5F5F5F5F5F5F5F5F5F5F5F5F5F5F5F5F5F5F5F5F5F5F5F5F5F5F5F5F5F5F5F5F5F5F5F5F5F5F5F5E2E2EFF5F5F5F5F5F5F5F5F5F5F5F5F5F5F5F5F5F5F5F5F5F5F5F5F5F5F5F5F5F5F5F5F5F5F5F5F5
310
F5F5F5F5F5F5F5F5F5F5F5F5F5F5F5F5F5F5F5F5F5F5F5F5F5F5F5F5F5F5F5F5F5F5F5F5F5F5F5F5F5F5F5F5F5F5F5F5F5F5F5F5F5F5F5F5F5F5F5F5F5F5F5F5F5F5F5F5F5F5F5F5F5F5F5F5F5F5F5F5F5F5F5F5F5F5F5F5F5F5F5F5F5F5F5F5F5F5F5F5F5F5F5F5F5F5F5F5F5F5F5F5F5F5F5F5F5F5F5F5F5F5F5F5F5F5F5
310
F5F5F5F5F5F5F5F5F5F5F5F5F5E2E2EFF5F5F5F5F5F5F5F5F5F5F5F5F5F5F5F5F5F5F5F5F5F5F5F5F5F5F5F5F5F5F5F5F5F5F5F5F5F5F5F5F5F5F5F5F5F5F5F5F5F5F5F5F5F5F5F5F5F5F5F5F5F5F5F5F5F5F5F5F5F5F5F5F5F5F5F5F5F5F5F5F5F5F5F5F5F5F5F5F5F5F5F5F5F5F5F5F5F5F5F5F5F5F5F5F5F5F5F5F5F5F5
310
F5F5F5F5F5F5F5F5F5F5F5F5F5F5F5F5F5F5F5F5F5F5F5F5F5F5F5F5F5F5F5F5F5F5F5F5F5F5F5F5F5F5F5F5F5F5F5F5F5F5F5F5F5F5F5F5F5F5F5F5F5F5F5F5F5F5E2E2EFF5F5F5F5F5F5F5F5F5F5F5F5F5F5F5F5F5F5F5F5F5F5F5F5F5F5F5F5F5F5F5F5F5F5F5F5F5F5F5F5F5F5F5F5F5F5F5F5F5F5F5F5F5F5F5F5F5F5
310
F5F5F5F5F5F5F5F5F5F5F5F5F5F5F5F5F5F5F5F5F5F5F5F5F5F5F5F5F5F5F5F5F5F5F5F5F5F5F5F5F5F5F5F5F5F5F5F5F5F5F5F5F5F5F5F5F5F5F5F5F5F5F5F5F5F5F5F5F5F5F5F5F5F5F5F5F5F5F5F5F5F5F5F5F5F5F5F5F5F5F5F5F5F5F5F5F5F5F5F5F5F5F5F5F5F5F5F5F5F5F5F5F5F5F5F5F5F5F5E2E2EFF5F5F5E2F5
310
F5F5F5F5F5F5F5F5F5F5F5F5F5F5F5F5F5F5F5F5F5F5F5F5F5F5F5F5F5F5F5F5F5F5F5F5F5F5F5F5F5F5F5F5F5F5F5F5F5F5F5F5F5F5F5F5F5F5F5F5F5F5F5F5F5F5F5F5F5F5F5F5F5F5F5F5F5F5F5F5F5F5F5F5F5F5F5F5F5F5F5F5F5F5F5F5F5F5F5F5F5F5F5F5F5F5F5F5F5F5F5F5F5F5F5F5F5F5F5F5F5F5F5F5F5F5F5
310
F5F5F5F5F5F5F5F5F5F5F5F5F5F5F5F5F5F5F5F5F5F5F5F5F5F5F5F5F5F5F5F5F5F5F5F5F5F5F5F5F5E2F5F5F5E2E2EFF5F5F5E2F5F5F5F5F5F5F5F5F5F5F5F5F5F5F5F5F5F5F5F5F5F5F5F5F5F5F5F5F5F5F5F5F5F5F5F5F5F5F5F5F5F5F5F5F5F5F5F5F5F5F5F5F5F5F5F5F5F5F5F5F5F5F5F5F5F5F5F5F5F5F5F5F5F5F5
310
F5F5F5F5F5F5F5F5F5F5F5F5F5F5F5F5F5F5F5F5F5F5F5F5F5F5F5F5F5F5F5F5F5F5F5F5F5F5F5F5F5F5F5F5F5F5F5F5F5F5F5F5F5F5F5F5F5F5F5F5F5F5F5F5F5F5F5F5F5F5F5F5F5F5F5F5F5F5F5F5F5F5F5F5F5F5F5F5F5F5F5F5F5F5E2F5F5F5E2E2EFF5F5F5E2F5F5F5F5F5F5F5F5F5F5F5F5F5F5F5F5F5F5F5F5F5F5
310
F5F5F5F5F5F5F5F5F5F5F5F5F5F5F5F5F5F5F5F5F5F5F5F5F5F5F5F5F5F5F5F5F5F5F5F5F5F5F5F5F5F5F5F5F5F5F5F5F5F5F5F5F5F5F5F5F5F5F5F5F5F5F5F5F5F5F5F5F5F5F5F5F5F5F5F5F5F5F5F5F5F5F5F5F5F5F5F5F5F5F5F5F5F5F5F5F5F5F5F5F5F5F5F5F5F5F5F5F5F5F5F5F5F5F5F5F5F5F5F5F5F5F5F5F5F5F5
310
F5F5F5F5F5F5F5F5F5F5F5F5F5F5F5F5F5F5F5F5E2F5F5F5E2E2EFF5F5F5E2F5F5F5F5F5F5F5F5F5F5F5F5F5F5F5F5F5F5F5F5F5F5F5F5F5F5F5F5F5F5F5F5F5F5F5F5F5F5F5F5F5F5F5F5F5F5F5F5F5F5F5F5F5F5F5F5F5F5F5F5F5F5F5F5F5F5F5F5F5F5F5F5F5F5F5F5F5F5F5F5F5F5F5F5F5F5F5F5F5F5F5F5F5F5F5F5
310
F5F5F5F5F5F5F5F5F5F5F5F5F5F5F5F5F5F5F5F5F5F5F5F5F5F5F5F5F5F5F5F5F5F5F5F5F5F5F5F5F5F5F5F5F5F5F5F5F5F5F5F5F5F5F5F5F5F5F5F5F5F5F5F5F5F5F5F5F5F5F5F5F5E2F5F5F5E2E2EFF5F5F5E2F5F5F5F5F5F5F5F5F5F5F5F5F5F5F5F5F5F5F5F5F5F5F5F5F5F5F5F5F5F5F5F5F5F5F5F5F5F5F5F5F5F5F5
310
F5F5F5F5F5F5F5F5F5F5F5F5F5F5F5F5F5F5F5F5F5F5F5F5F5F5F5F5F5F5F5F5F5F5F5F5F5F5F5F5F5F5F5F5F5F5F5F5F5F5F5F5F5F5F5F5F5F5F5F5F5F5F5F5F5F5F5F5F5F5F5F5F5F5F5F5F5F5F5F5F5F5F5F5F5F5F5F5F5F5F5F5F5F5F5F5F5F5F5F5F5F5F5F5F5F5F5F5F5F5F5F5F5F5F5F5F5F5F5F5F5F5F5F5F5F5E2
310
F5F5F5E2E2EFF5F5F5E2F5F5F5F5F5F5F5F5F5F5F5F5F5F5F5F5F5F5F5F5F5F5F5F5F5F5F5F5F5F5F5F5F5F5F5F5F5F5F5F5F5F5F5F5F5F5F5F5F5F5F5F5F5F5F5F5F5F5F5F5F5F5F5F5F5F5F5F5F5F5F5F5F5F5F5F5F5F5F5F5F5F5F5F5F5F5F5F5F5F5F5F5F5F5F5F5F5F5F5F5F5F5F5F5F5F5F5F5F5F5F5F5F5F5F5F5F5
310
F5F5F5F5F5F5F5F5F5F5F5F5F5F5F5F5F5F5F5F5F5F5F5F5F5F5F5F5F5F5F5F5F5F5F5F5F5F5F5F5F5F5F5F5F5F5F5F5F5F5F5F5E2F5F5F5E2E2EFF5F5F5E2F5F5F5F5F5F5F5F5F5F5F5F5F5F5F5F5F5F5F5F5F5F5F5F5F5F5F5F5F5F5F5F5F5F5F5F5F5F5F5F5F5F5F5F5F5F5F5F5F5F5F5F5F5F5F5F5F5F5F5F5F5F5F5F5
310
F5F5F5F5F5F5F5F5F5F5F5F5F5F5F5F5F5F5F5F5F5F5F5F5F5F5F5F5F5F5F5F5F5F5F5F5F5F5F5F5F5F5F5F5F5F5F5F5F5F5F5F5F5F5F5F5F5F5F5F5F5F5F5F5F5F5F5F5F5F5F5F5F5F5F5F5F5F5F5F5F5F5F5F5F5F5F5F5F5F5F5F5F5F5F5F5F5F5F5F5F5F5F5F5F5E2F5F5F5E2E2EFF5F5F5E2F5F5F5F5F5F5F5F5F5F5F5
310
F5F5F5F5F5F5F5F5F5F5F5F5F5F5F5F5F5F5F5F5F5F5F5F5F5F5F5F5F5F5F5F5F5F5F5F5F5F5F5F5F5F5F5F5F5F5F5F5F5F5F5F5F5F5F5F5F5F5F5F5F5F5F5F5F5F5F5F5F5F5F5F5F5F5F5F5F5F5F5F5F5F5F5F5F5F5F5F5F5F5F5F5F5F5F5F5F5F5F5F5F5F5F5F5F5F5F5F5F5F5F5F5F5F5F5F5F5F5F5F5F5F5F5F5F5F5F5
310
F5F5F5F5F5F5F5F5F5F5F5F5F5F5F5F5F5F5F5F5F5F5F5F5F5F5F5F5F5F5F5E2F5F5F5E2E2EFF5F5F5E2E2E2E2E2E2E2E2F5F5F5F5F5F5F5F5F5E2E2E2E2E2E2E2E2E2E2E2E2E2E2E2E2F5F5F5F5F5F5F5F5E2E2E2E2E2E2E2E2E2E2E2E2E2E2E2E2F5F5F5F5F5F5F5F5F5E2E2E2E2E2E2E2E2E2E2E2E2E2E2E2F5F5F5F5F5
310
F5F5F5F5E2E2E2E2E2E2E2E2E2E2E2E2E2E2E2F5F5F5F5F5F5F5F5F5E2E2E2E2E2E2E2E2E2E2E2E2E2E2E2E2F5F5F5F5F5F5F5F5E2E2E2E2E2E2E2E2E2E2E2E2E2E2E2E2F5F5F5F5F5F5F5F5F5E2E2E2E2E2E2E2E2F5F5F5E2E2EFF5F5F5F5F5F5F5F5F5F5F5F5F5F5F5F5F5F5F5F5F5F5F5F5F5F5F5F5F5F5F5F5F5F5F5F5
310
F5F5F5F5F5F5F5F5F5F5F5F5F5F5F5F5F5F5F5F5F5F5F5F5F5F5F5F5F5F5F5F5F5F5F5F5F5F5F5F5F5F5F5F5F5F5F5F5F5F5F5F5F5F5F5F5F5F5F5F5F5F5F5F5F5F5F5F5F5F5F5F5F5F5F5F5F5F5F5F5F5F5F5F5F5F5F5F5F5F5F5F5F5F5F5F5F5F5F5F5F5F5F5F5F5F5F5F5F5F5F5F5F5F5F5F5F5F5F5F5F5F5F5F5F5F5F5
310
F5F5F5F5F5F5F5F5F5F5F5F5F5F5E2E2EFF5F5F5F5F5F5F5F5F5F5F5F5F5F5F5F5F5F5F5F5F5F5F5F5F5F5F5F5F5F5F5F5F5F5F5F5F5F5F5F5F5F5F5F5F5F5F5F5F5F5F5F5F5F5F5F5F5F5F5F5F5F5F5F5F5F5F5F5F5F5F5F5F5F5F5F5F5F5F5F5F5F5F5F5F5F5F5F5F5F5F5F5F5F5F5F5F5F5F5F5F5F5F5F5F5F5F5F5F5F5
310
F5F5F5F5F5F5F5F5F5F5F5F5F5F5F5F5F5F5F5F5F5F5F5F5F5F5F5F5F5F5F5F5F5F5F5F5F5F5F5F5F5F5F5F5F5F5F5F5F5F5F5F5F5F5F5F5F5F5F5F5F5F5F5F5F5F5F5E2EFEFF5F5F5F5F5F5F5F5F5F5F5F5F5F5F5F5F5F5F5F5F5F5F5F5F5F5F5F5F5F5F5F5F5F5F5F5F5F5F5F5F5F5F5F5F5F5F5F5F5F5F5F5F5F5F5F5F5
310
F5F5F5F5F5F5F5F5F5F5F5F5F5F5F5F5F5F5F5F5F5F5F5F5F5F5F5F5F5F5F5F5F5F5F5F5F5F5F5F5F5F5F5F5F5F5F5F5F5F5F5F5F5F5F5F5F5F5F5F5F5F5F5F5F5F5F5F5F5F5F5F5F5F5F5F5F5F5F5F5F5F5F5F5F5F5F5F5F5F5F5F5F5F5F5F5F5F5F5F5F5F5F5F5F5F5F5F5F5F5F5F5F5F5F5F5F5F5F5F5E2EFEFE2E2E2E2
310
E2E2E2E2E2E2E2E2E2E2E2E2E2E2E2E2E2E2E2E2E2E2E2E2E2E2E2E2E2E2E2E2E2E2E2E2E2E2E2E2E2E2E2E2E2E2E2E2E2E2E2E2E2E2E2E2E2E2E2E2E2E2E2E2E2E2E2E2E2E2E2E2E2E2E2E2E2E2E2E2E2E2E2E2E2E2E2E2E2E2E2E2E2E2E2E2E2E2E2E2E2E2E2E2E2E2E2E2E2E2E2E2E2E2E2E2E2E2E2E2E2E2E2E2E2E2E2
310
E2E2E2E2E2E2E2E2E2E2E2E2E2E2E2E2E2E2E2E2E2E2E2E2E2E2E2E2E2E2E2E2E2E2E2E2E2E2E2E2E2E2E2E2E2E2E2EFEF
  0
ENDSEC
  0
EOF
