  0
SECTION
  2
HEADER
  9
$ACADVER
  1
AC1018
  9
$ACADMAINTVER
 70
     0
  9
$DWGCODEPAGE
  3
ANSI_1252
  9
$AUTHOR
  1
g6edxjah
  9
$LASTSAVEDBY
  1
g6edxjah
  9
$INSBASE
 10
0.0
 20
0.0
 30
0.0
  9
$EXTMIN
 10
203.8093
 20
-255.8295
 30
0.0
  9
$EXTMAX
 10
226.7793
 20
-242.9895
 30
0.0
  9
$LIMMIN
 10
162.664024
 20
-302.039776
  9
$LIMMAX
 10
267.924576
 20
-196.779224
  9
$ORTHOMODE
 70
     0
  9
$REGENMODE
 70
     1
  9
$FILLMODE
 70
     1
  9
$QTEXTMODE
 70
     0
  9
$MIRRTEXT
 70
     0
  9
$LTSCALE
 40
1.0
  9
$ATTMODE
 70
     1
  9
$TEXTSIZE
 40
0.06
  9
$TRACEWID
 40
0.05
  9
$TEXTSTYLE
  7
Standard
  9
$CLAYER
  8
Level 46
  9
$CELTYPE
  6
Continuous
  9
$CECOLOR
 62
     7
  9
$CELTSCALE
 40
1.0
  9
$DISPSILH
 70
     0
  9
$DIMSCALE
 40
1.0
  9
$DIMASZ
 40
0.06
  9
$DIMEXO
 40
0.03
  9
$DIMDLI
 40
0.0
  9
$DIMRND
 40
0.0
  9
$DIMDLE
 40
0.0
  9
$DIMEXE
 40
0.03
  9
$DIMTP
 40
0.0
  9
$DIMTM
 40
0.0
  9
$DIMTXT
 40
0.06
  9
$DIMCEN
 40
0.09
  9
$DIMTSZ
 40
0.0
  9
$DIMTOL
 70
     0
  9
$DIMLIM
 70
     0
  9
$DIMTIH
 70
     1
  9
$DIMTOH
 70
     1
  9
$DIMSE1
 70
     0
  9
$DIMSE2
 70
     0
  9
$DIMTAD
 70
     0
  9
$DIMZIN
 70
    11
  9
$DIMBLK
  1
TerminatorOpen_0.5
  9
$DIMASO
 70
     1
  9
$DIMSHO
 70
     1
  9
$DIMPOST
  1

  9
$DIMAPOST
  1

  9
$DIMALT
 70
     0
  9
$DIMALTD
 70
     2
  9
$DIMALTF
 40
0.03937
  9
$DIMLFAC
 40
1.0
  9
$DIMTOFL
 70
     0
  9
$DIMTVP
 40
0.0
  9
$DIMTIX
 70
     0
  9
$DIMSOXD
 70
     0
  9
$DIMSAH
 70
     0
  9
$DIMBLK1
  1

  9
$DIMBLK2
  1

  9
$DIMSTYLE
  2
Standard
  9
$DIMCLRD
 70
     0
  9
$DIMCLRE
 70
     0
  9
$DIMCLRT
 70
     0
  9
$DIMTFAC
 40
1.0
  9
$DIMGAP
 40
0.03
  9
$DIMJUST
 70
     0
  9
$DIMSD1
 70
     0
  9
$DIMSD2
 70
     0
  9
$DIMTOLJ
 70
     0
  9
$DIMTZIN
 70
    11
  9
$DIMALTZ
 70
    15
  9
$DIMALTTZ
 70
    15
  9
$DIMUPT
 70
     1
  9
$DIMDEC
 70
     3
  9
$DIMTDEC
 70
     3
  9
$DIMALTU
 70
     2
  9
$DIMALTTD
 70
     2
  9
$DIMTXSTY
  7
Style-Arial
  9
$DIMAUNIT
 70
     0
  9
$DIMADEC
 70
     4
  9
$DIMALTRND
 40
0.0
  9
$DIMAZIN
 70
     3
  9
$DIMDSEP
 70
    46
  9
$DIMATFIT
 70
     1
  9
$DIMFRAC
 70
     0
  9
$DIMLDRBLK
  1
TerminatorOpen_0.5
  9
$DIMLUNIT
 70
     2
  9
$DIMLWD
 70
    -2
  9
$DIMLWE
 70
    -2
  9
$DIMTMOVE
 70
     0
  9
$LUNITS
 70
     2
  9
$LUPREC
 70
     3
  9
$SKETCHINC
 40
0.1
  9
$FILLETRAD
 40
0.0
  9
$AUNITS
 70
     0
  9
$AUPREC
 70
     4
  9
$MENU
  1
.
  9
$ELEVATION
 40
0.0
  9
$PELEVATION
 40
0.0
  9
$THICKNESS
 40
0.0
  9
$LIMCHECK
 70
     0
  9
$CHAMFERA
 40
0.0
  9
$CHAMFERB
 40
0.0
  9
$CHAMFERC
 40
0.0
  9
$CHAMFERD
 40
0.0
  9
$SKPOLY
 70
     0
  9
$TDCREATE
 40
2455398.401465023
  9
$TDUCREATE
 40
2455398.609798356
  9
$TDUPDATE
 40
2455398.401465023
  9
$TDUUPDATE
 40
2455398.609798356
  9
$TDINDWG
 40
0.0
  9
$TDUSRTIMER
 40
0.0006630093
  9
$USRTIMER
 70
     1
  9
$ANGBASE
 50
0.0
  9
$ANGDIR
 70
     0
  9
$PDMODE
 70
     0
  9
$PDSIZE
 40
0.0
  9
$PLINEWID
 40
0.0
  9
$SPLFRAME
 70
     0
  9
$SPLINETYPE
 70
     6
  9
$SPLINESEGS
 70
     8
  9
$HANDSEED
  5
403
  9
$SURFTAB1
 70
     6
  9
$SURFTAB2
 70
     6
  9
$SURFTYPE
 70
     6
  9
$SURFU
 70
     6
  9
$SURFV
 70
     6
  9
$UCSBASE
  2

  9
$UCSNAME
  2

  9
$UCSORG
 10
0.0
 20
0.0
 30
0.0
  9
$UCSXDIR
 10
1.0
 20
0.0
 30
0.0
  9
$UCSYDIR
 10
0.0
 20
1.0
 30
0.0
  9
$UCSORTHOREF
  2

  9
$UCSORTHOVIEW
 70
     0
  9
$UCSORGTOP
 10
0.0
 20
0.0
 30
0.0
  9
$UCSORGBOTTOM
 10
0.0
 20
0.0
 30
0.0
  9
$UCSORGLEFT
 10
0.0
 20
0.0
 30
0.0
  9
$UCSORGRIGHT
 10
0.0
 20
0.0
 30
0.0
  9
$UCSORGFRONT
 10
0.0
 20
0.0
 30
0.0
  9
$UCSORGBACK
 10
0.0
 20
0.0
 30
0.0
  9
$PUCSBASE
  2

  9
$PUCSNAME
  2

  9
$PUCSORG
 10
0.0
 20
0.0
 30
0.0
  9
$PUCSXDIR
 10
1.0
 20
0.0
 30
0.0
  9
$PUCSYDIR
 10
0.0
 20
1.0
 30
0.0
  9
$PUCSORTHOREF
  2

  9
$PUCSORTHOVIEW
 70
     0
  9
$PUCSORGTOP
 10
0.0
 20
0.0
 30
0.0
  9
$PUCSORGBOTTOM
 10
0.0
 20
0.0
 30
0.0
  9
$PUCSORGLEFT
 10
0.0
 20
0.0
 30
0.0
  9
$PUCSORGRIGHT
 10
0.0
 20
0.0
 30
0.0
  9
$PUCSORGFRONT
 10
0.0
 20
0.0
 30
0.0
  9
$PUCSORGBACK
 10
0.0
 20
0.0
 30
0.0
  9
$USERI1
 70
     0
  9
$USERI2
 70
     0
  9
$USERI3
 70
     0
  9
$USERI4
 70
     0
  9
$USERI5
 70
     0
  9
$USERR1
 40
0.0
  9
$USERR2
 40
0.0
  9
$USERR3
 40
0.0
  9
$USERR4
 40
0.0
  9
$USERR5
 40
0.0
  9
$WORLDVIEW
 70
     1
  9
$SHADEDGE
 70
     3
  9
$SHADEDIF
 70
    70
  9
$TILEMODE
 70
     1
  9
$MAXACTVP
 70
    64
  9
$PINSBASE
 10
0.0
 20
0.0
 30
0.0
  9
$PLIMCHECK
 70
     0
  9
$PEXTMIN
 10
1.049744
 20
0.799667
 30
-0.001526
  9
$PEXTMAX
 10
9.450623
 20
7.200577
 30
0.0
  9
$PLIMMIN
 10
-0.25
 20
-0.25
  9
$PLIMMAX
 10
10.75
 20
8.25
  9
$UNITMODE
 70
     0
  9
$VISRETAIN
 70
     1
  9
$PLINEGEN
 70
     0
  9
$PSLTSCALE
 70
     0
  9
$TREEDEPTH
 70
  3020
  9
$CMLSTYLE
  2
Standard
  9
$CMLJUST
 70
     0
  9
$CMLSCALE
 40
1.0
  9
$PROXYGRAPHICS
 70
     1
  9
$MEASUREMENT
 70
     0
  9
$CELWEIGHT
370
     0
  9
$ENDCAPS
280
     0
  9
$JOINSTYLE
280
     0
  9
$LWDISPLAY
290
     1
  9
$INSUNITS
 70
     6
  9
$HYPERLINKBASE
  1

  9
$STYLESHEET
  1

  9
$XEDIT
290
     1
  9
$CEPSNTYPE
380
     0
  9
$PSTYLEMODE
290
     1
  9
$FINGERPRINTGUID
  2
{02C0BBB5-38A7-4FBF-829E-00875EC88963}
  9
$VERSIONGUID
  2
{82C521FC-BF81-46B3-825E-420B6BD93A99}
  9
$EXTNAMES
290
     1
  9
$PSVPSCALE
 40
0.0
  9
$OLESTARTUP
290
     0
  9
$SORTENTS
280
   127
  9
$INDEXCTL
280
     0
  9
$HIDETEXT
280
     1
  9
$XCLIPFRAME
290
     0
  9
$HALOGAP
280
     0
  9
$OBSCOLOR
 70
   257
  9
$OBSLTYPE
280
     0
  9
$INTERSECTIONDISPLAY
280
     0
  9
$INTERSECTIONCOLOR
 70
   257
  9
$DIMASSOC
280
     1
  9
$PROJECTNAME
  1

  0
ENDSEC
  0
SECTION
  2
CLASSES
  0
CLASS
  1
ACDBDICTIONARYWDFLT
  2
AcDbDictionaryWithDefault
  3
ObjectDBX Classes
 90
        0
 91
        3
280
     0
281
     0
  0
CLASS
  1
SORTENTSTABLE
  2
AcDbSortentsTable
  3
ObjectDBX Classes
 90
        0
 91
        3
280
     0
281
     0
  0
ENDSEC
  0
SECTION
  2
TABLES
  0
TABLE
  2
VPORT
  5
3D7
330
0
100
AcDbSymbolTable
 70
     4
  0
VPORT
  5
49
330
3D7
100
AcDbSymbolTableRecord
100
AcDbViewportTableRecord
  2
*ACTIVE
 70
     0
 10
0.0
 20
0.0
 11
1.0
 21
1.0
 12
215.294476
 22
-249.409501
 13
0.0
 23
0.0
 14
0.8
 24
0.8
 15
0.8
 25
0.8
 16
0.0
 26
0.0
 36
1.0
 17
0.0
 27
0.0
 37
0.0
 40
13.353602
 41
1.884937
 42
50.0
 43
0.0
 44
0.0
 50
0.0
 51
0.0
 71
     0
 72
   100
 73
     1
 74
     2
 75
     0
 76
     0
 77
     0
 78
     1
281
     0
 65
     1
110
0.0
120
0.0
130
0.0
111
1.0
121
0.0
131
0.0
112
0.0
122
1.0
132
0.0
 79
     0
146
0.0
  0
ENDTAB
  0
TABLE
  2
LTYPE
  5
3BE
330
0
100
AcDbSymbolTable
 70
     3
  0
LTYPE
  5
3BF
330
3BE
100
AcDbSymbolTableRecord
100
AcDbLinetypeTableRecord
  2
ByBlock
 70
     0
  3

 72
    65
 73
     0
 40
0.0
  0
LTYPE
  5
3C0
330
3BE
100
AcDbSymbolTableRecord
100
AcDbLinetypeTableRecord
  2
ByLayer
 70
     0
  3

 72
    65
 73
     0
 40
0.0
  0
LTYPE
  5
3BD
330
3BE
100
AcDbSymbolTableRecord
100
AcDbLinetypeTableRecord
  2
Continuous
 70
     0
  3
Solid line
 72
    65
 73
     0
 40
0.0
  0
LTYPE
  5
3F6
330
3BE
100
AcDbSymbolTableRecord
100
AcDbLinetypeTableRecord
  2
DGN Style 1
 70
     0
  3
Dgn Style 1
 72
    65
 73
     2
 40
0.151276
 49
0.000252
 74
     0
 49
-0.151024
 74
     0
  0
LTYPE
  5
3FA
330
3BE
100
AcDbSymbolTableRecord
100
AcDbLinetypeTableRecord
  2
DGN Style 3
 70
     0
  3
Dgn Style 3
 72
    65
 73
     2
 40
0.35239
 49
0.251707
 74
     0
 49
-0.100683
 74
     0
  0
ENDTAB
  0
TABLE
  2
LAYER
  5
3B7
102
{ACAD_XDICTIONARY
360
3B8
102
}
330
0
100
AcDbSymbolTable
 70
    64
  0
LAYER
  5
3B6
330
3B7
100
AcDbSymbolTableRecord
100
AcDbLayerTableRecord
  2
0
 70
     0
 62
     7
  6
Continuous
370
    -3
390
3BA
  0
LAYER
  5
7
330
3B7
100
AcDbSymbolTableRecord
100
AcDbLayerTableRecord
  2
Level 1
 70
     0
 62
     7
  6
Continuous
370
     0
390
3BA
  0
LAYER
  5
8
330
3B7
100
AcDbSymbolTableRecord
100
AcDbLayerTableRecord
  2
Level 2
 70
     0
 62
     7
  6
Continuous
370
     0
390
3BA
  0
LAYER
  5
9
330
3B7
100
AcDbSymbolTableRecord
100
AcDbLayerTableRecord
  2
Level 3
 70
     0
 62
     7
  6
Continuous
370
     0
390
3BA
  0
LAYER
  5
A
330
3B7
100
AcDbSymbolTableRecord
100
AcDbLayerTableRecord
  2
Level 4
 70
     0
 62
     7
  6
Continuous
370
     0
390
3BA
  0
LAYER
  5
B
330
3B7
100
AcDbSymbolTableRecord
100
AcDbLayerTableRecord
  2
Level 5
 70
     0
 62
     7
  6
Continuous
370
     0
390
3BA
  0
LAYER
  5
C
330
3B7
100
AcDbSymbolTableRecord
100
AcDbLayerTableRecord
  2
Level 6
 70
     0
 62
     7
  6
Continuous
370
     0
390
3BA
  0
LAYER
  5
D
330
3B7
100
AcDbSymbolTableRecord
100
AcDbLayerTableRecord
  2
Level 7
 70
     0
 62
     7
  6
Continuous
370
     0
390
3BA
  0
LAYER
  5
E
330
3B7
100
AcDbSymbolTableRecord
100
AcDbLayerTableRecord
  2
Level 8
 70
     0
 62
     7
  6
Continuous
370
     0
390
3BA
  0
LAYER
  5
F
330
3B7
100
AcDbSymbolTableRecord
100
AcDbLayerTableRecord
  2
Level 9
 70
     0
 62
     7
  6
Continuous
370
     0
390
3BA
  0
LAYER
  5
10
330
3B7
100
AcDbSymbolTableRecord
100
AcDbLayerTableRecord
  2
Level 10
 70
     0
 62
     7
  6
Continuous
370
     0
390
3BA
  0
LAYER
  5
11
330
3B7
100
AcDbSymbolTableRecord
100
AcDbLayerTableRecord
  2
Level 11
 70
     0
 62
     7
  6
Continuous
370
     0
390
3BA
  0
LAYER
  5
12
330
3B7
100
AcDbSymbolTableRecord
100
AcDbLayerTableRecord
  2
Level 12
 70
     0
 62
     7
  6
Continuous
370
     0
390
3BA
  0
LAYER
  5
13
330
3B7
100
AcDbSymbolTableRecord
100
AcDbLayerTableRecord
  2
Level 13
 70
     0
 62
     7
  6
Continuous
370
     0
390
3BA
  0
LAYER
  5
14
330
3B7
100
AcDbSymbolTableRecord
100
AcDbLayerTableRecord
  2
Level 14
 70
     0
 62
     7
  6
Continuous
370
     0
390
3BA
  0
LAYER
  5
15
330
3B7
100
AcDbSymbolTableRecord
100
AcDbLayerTableRecord
  2
Level 15
 70
     0
 62
     7
  6
Continuous
370
     0
390
3BA
  0
LAYER
  5
16
330
3B7
100
AcDbSymbolTableRecord
100
AcDbLayerTableRecord
  2
Level 16
 70
     0
 62
     7
  6
Continuous
370
     0
390
3BA
  0
LAYER
  5
17
330
3B7
100
AcDbSymbolTableRecord
100
AcDbLayerTableRecord
  2
Level 17
 70
     0
 62
     7
  6
Continuous
370
     0
390
3BA
  0
LAYER
  5
18
330
3B7
100
AcDbSymbolTableRecord
100
AcDbLayerTableRecord
  2
Level 18
 70
     0
 62
     7
  6
Continuous
370
     0
390
3BA
  0
LAYER
  5
19
330
3B7
100
AcDbSymbolTableRecord
100
AcDbLayerTableRecord
  2
Level 19
 70
     0
 62
     7
  6
Continuous
370
     0
390
3BA
  0
LAYER
  5
1A
330
3B7
100
AcDbSymbolTableRecord
100
AcDbLayerTableRecord
  2
Level 20
 70
     0
 62
     7
  6
Continuous
370
     0
390
3BA
  0
LAYER
  5
1B
330
3B7
100
AcDbSymbolTableRecord
100
AcDbLayerTableRecord
  2
Level 21
 70
     0
 62
     7
  6
Continuous
370
     0
390
3BA
  0
LAYER
  5
1C
330
3B7
100
AcDbSymbolTableRecord
100
AcDbLayerTableRecord
  2
Level 22
 70
     0
 62
     7
  6
Continuous
370
     0
390
3BA
  0
LAYER
  5
1D
330
3B7
100
AcDbSymbolTableRecord
100
AcDbLayerTableRecord
  2
Level 23
 70
     0
 62
     7
  6
Continuous
370
     0
390
3BA
  0
LAYER
  5
1E
330
3B7
100
AcDbSymbolTableRecord
100
AcDbLayerTableRecord
  2
Level 24
 70
     0
 62
     7
  6
Continuous
370
     0
390
3BA
  0
LAYER
  5
1F
330
3B7
100
AcDbSymbolTableRecord
100
AcDbLayerTableRecord
  2
Level 25
 70
     0
 62
     7
  6
Continuous
370
     0
390
3BA
  0
LAYER
  5
20
330
3B7
100
AcDbSymbolTableRecord
100
AcDbLayerTableRecord
  2
Level 26
 70
     0
 62
     7
  6
Continuous
370
     0
390
3BA
  0
LAYER
  5
21
330
3B7
100
AcDbSymbolTableRecord
100
AcDbLayerTableRecord
  2
Level 27
 70
     0
 62
     7
  6
Continuous
370
     0
390
3BA
  0
LAYER
  5
22
330
3B7
100
AcDbSymbolTableRecord
100
AcDbLayerTableRecord
  2
Level 28
 70
     0
 62
     7
  6
Continuous
370
     0
390
3BA
  0
LAYER
  5
23
330
3B7
100
AcDbSymbolTableRecord
100
AcDbLayerTableRecord
  2
Level 29
 70
     0
 62
     7
  6
Continuous
370
     0
390
3BA
  0
LAYER
  5
24
330
3B7
100
AcDbSymbolTableRecord
100
AcDbLayerTableRecord
  2
Level 30
 70
     0
 62
     7
  6
Continuous
370
     0
390
3BA
  0
LAYER
  5
25
330
3B7
100
AcDbSymbolTableRecord
100
AcDbLayerTableRecord
  2
Level 31
 70
     0
 62
     7
  6
Continuous
370
     0
390
3BA
  0
LAYER
  5
26
330
3B7
100
AcDbSymbolTableRecord
100
AcDbLayerTableRecord
  2
Level 32
 70
     0
 62
     7
  6
Continuous
370
     0
390
3BA
  0
LAYER
  5
27
330
3B7
100
AcDbSymbolTableRecord
100
AcDbLayerTableRecord
  2
Level 33
 70
     0
 62
     7
  6
Continuous
370
     0
390
3BA
  0
LAYER
  5
28
330
3B7
100
AcDbSymbolTableRecord
100
AcDbLayerTableRecord
  2
Level 34
 70
     0
 62
     7
  6
Continuous
370
     0
390
3BA
  0
LAYER
  5
29
330
3B7
100
AcDbSymbolTableRecord
100
AcDbLayerTableRecord
  2
Level 35
 70
     0
 62
     7
  6
Continuous
370
     0
390
3BA
  0
LAYER
  5
2A
330
3B7
100
AcDbSymbolTableRecord
100
AcDbLayerTableRecord
  2
Level 36
 70
     0
 62
     7
  6
Continuous
370
     0
390
3BA
  0
LAYER
  5
2B
330
3B7
100
AcDbSymbolTableRecord
100
AcDbLayerTableRecord
  2
Level 37
 70
     0
 62
     7
  6
Continuous
370
     0
390
3BA
  0
LAYER
  5
2C
330
3B7
100
AcDbSymbolTableRecord
100
AcDbLayerTableRecord
  2
Level 38
 70
     0
 62
     7
  6
Continuous
370
     0
390
3BA
  0
LAYER
  5
2D
330
3B7
100
AcDbSymbolTableRecord
100
AcDbLayerTableRecord
  2
Level 39
 70
     0
 62
     7
  6
Continuous
370
     0
390
3BA
  0
LAYER
  5
2E
330
3B7
100
AcDbSymbolTableRecord
100
AcDbLayerTableRecord
  2
Level 40
 70
     0
 62
     7
  6
Continuous
370
     0
390
3BA
  0
LAYER
  5
2F
330
3B7
100
AcDbSymbolTableRecord
100
AcDbLayerTableRecord
  2
Level 41
 70
     0
 62
     7
  6
Continuous
370
     0
390
3BA
  0
LAYER
  5
30
330
3B7
100
AcDbSymbolTableRecord
100
AcDbLayerTableRecord
  2
Level 42
 70
     0
 62
     7
  6
Continuous
370
     0
390
3BA
  0
LAYER
  5
31
330
3B7
100
AcDbSymbolTableRecord
100
AcDbLayerTableRecord
  2
Level 43
 70
     0
 62
     7
  6
Continuous
370
     0
390
3BA
  0
LAYER
  5
32
330
3B7
100
AcDbSymbolTableRecord
100
AcDbLayerTableRecord
  2
Level 44
 70
     0
 62
     7
  6
Continuous
370
     0
390
3BA
  0
LAYER
  5
33
330
3B7
100
AcDbSymbolTableRecord
100
AcDbLayerTableRecord
  2
Level 45
 70
     0
 62
     7
  6
Continuous
370
     0
390
3BA
  0
LAYER
  5
34
330
3B7
100
AcDbSymbolTableRecord
100
AcDbLayerTableRecord
  2
Level 46
 70
     0
 62
     7
  6
Continuous
370
     0
390
3BA
  0
LAYER
  5
35
330
3B7
100
AcDbSymbolTableRecord
100
AcDbLayerTableRecord
  2
Level 47
 70
     0
 62
     7
  6
Continuous
370
     0
390
3BA
  0
LAYER
  5
36
330
3B7
100
AcDbSymbolTableRecord
100
AcDbLayerTableRecord
  2
Level 48
 70
     0
 62
     7
  6
Continuous
370
     0
390
3BA
  0
LAYER
  5
37
330
3B7
100
AcDbSymbolTableRecord
100
AcDbLayerTableRecord
  2
Level 49
 70
     0
 62
     7
  6
Continuous
370
     0
390
3BA
  0
LAYER
  5
38
330
3B7
100
AcDbSymbolTableRecord
100
AcDbLayerTableRecord
  2
Level 50
 70
     0
 62
     7
  6
Continuous
370
     0
390
3BA
  0
LAYER
  5
39
330
3B7
100
AcDbSymbolTableRecord
100
AcDbLayerTableRecord
  2
Level 51
 70
     0
 62
     7
  6
Continuous
370
     0
390
3BA
  0
LAYER
  5
3A
330
3B7
100
AcDbSymbolTableRecord
100
AcDbLayerTableRecord
  2
Level 52
 70
     0
 62
     7
  6
Continuous
370
     0
390
3BA
  0
LAYER
  5
3B
330
3B7
100
AcDbSymbolTableRecord
100
AcDbLayerTableRecord
  2
Level 53
 70
     0
 62
     7
  6
Continuous
370
     0
390
3BA
  0
LAYER
  5
3C
330
3B7
100
AcDbSymbolTableRecord
100
AcDbLayerTableRecord
  2
Level 54
 70
     0
 62
     7
  6
Continuous
370
     0
390
3BA
  0
LAYER
  5
3D
330
3B7
100
AcDbSymbolTableRecord
100
AcDbLayerTableRecord
  2
Level 55
 70
     0
 62
     7
  6
Continuous
370
     0
390
3BA
  0
LAYER
  5
3E
330
3B7
100
AcDbSymbolTableRecord
100
AcDbLayerTableRecord
  2
Level 56
 70
     0
 62
     7
  6
Continuous
370
     0
390
3BA
  0
LAYER
  5
3F
330
3B7
100
AcDbSymbolTableRecord
100
AcDbLayerTableRecord
  2
Level 57
 70
     0
 62
     7
  6
Continuous
370
     0
390
3BA
  0
LAYER
  5
40
330
3B7
100
AcDbSymbolTableRecord
100
AcDbLayerTableRecord
  2
Level 58
 70
     0
 62
     7
  6
Continuous
370
     0
390
3BA
  0
LAYER
  5
41
330
3B7
100
AcDbSymbolTableRecord
100
AcDbLayerTableRecord
  2
Level 59
 70
     0
 62
     7
  6
Continuous
370
     0
390
3BA
  0
LAYER
  5
42
330
3B7
100
AcDbSymbolTableRecord
100
AcDbLayerTableRecord
  2
Level 60
 70
     0
 62
     7
  6
Continuous
370
     0
390
3BA
  0
LAYER
  5
43
330
3B7
100
AcDbSymbolTableRecord
100
AcDbLayerTableRecord
  2
Level 61
 70
     0
 62
     7
  6
Continuous
370
     0
390
3BA
  0
LAYER
  5
44
330
3B7
100
AcDbSymbolTableRecord
100
AcDbLayerTableRecord
  2
Level 62
 70
     0
 62
     7
  6
Continuous
370
     0
390
3BA
  0
LAYER
  5
45
330
3B7
100
AcDbSymbolTableRecord
100
AcDbLayerTableRecord
  2
Level 63
 70
     0
 62
     7
  6
Continuous
370
     0
390
3BA
  0
ENDTAB
  0
TABLE
  2
STYLE
  5
3C2
330
0
100
AcDbSymbolTable
 70
     8
  0
STYLE
  5
3C1
330
3C2
100
AcDbSymbolTableRecord
100
AcDbTextStyleTableRecord
  2
Standard
 70
     0
 40
0.0
 41
1.0
 50
0.0
 71
     0
 42
0.06
  3
txt
  4

  0
STYLE
  5
3E0
330
3C2
100
AcDbSymbolTableRecord
100
AcDbTextStyleTableRecord
  2
Style-Arial
 70
     0
 40
0.0
 41
1.0
 50
0.0
 71
     0
 42
0.2
  3

  4

1001
ACAD
1000
Arial
1071
       39
  0
STYLE
  5
3F0
330
3C2
100
AcDbSymbolTableRecord
100
AcDbTextStyleTableRecord
  2
Style-CHAR_FAST_FONT
 70
     0
 40
0.0
 41
1.0
 50
0.0
 71
     0
 42
0.2
  3
CHAR_FAST_FONT.shx
  4

  0
STYLE
  5
3F1
330
3C2
100
AcDbSymbolTableRecord
100
AcDbTextStyleTableRecord
  2
Style-ENGINEERING
 70
     0
 40
0.0
 41
1.0
 50
0.0
 71
     0
 42
0.2
  3
ENGINEERING.shx
  4

  0
STYLE
  5
3F2
330
3C2
100
AcDbSymbolTableRecord
100
AcDbTextStyleTableRecord
  2
Style-COMPRESSED
 70
     0
 40
0.0
 41
1.0
 50
0.0
 71
     0
 42
0.2
  3
COMPRESSED.shx
  4

  0
STYLE
  5
3F3
330
3C2
100
AcDbSymbolTableRecord
100
AcDbTextStyleTableRecord
  2
Style-ITALICS
 70
     0
 40
0.0
 41
1.0
 50
0.0
 71
     0
 42
0.2
  3
ITALICS.shx
  4

  0
STYLE
  5
3F4
330
3C2
100
AcDbSymbolTableRecord
100
AcDbTextStyleTableRecord
  2
Style-WORKING
 70
     0
 40
0.0
 41
1.0
 50
0.0
 71
     0
 42
0.2
  3
WORKING.shx
  4

  0
STYLE
  5
3F5
330
3C2
100
AcDbSymbolTableRecord
100
AcDbTextStyleTableRecord
  2
Style-FANCY
 70
     0
 40
0.0
 41
1.0
 50
0.0
 71
     0
 42
0.2
  3
FANCY.shx
  4

  0
ENDTAB
  0
TABLE
  2
VIEW
  5
3D5
330
0
100
AcDbSymbolTable
 70
     0
  0
ENDTAB
  0
TABLE
  2
UCS
  5
3D6
330
0
100
AcDbSymbolTable
 70
     0
  0
ENDTAB
  0
TABLE
  2
APPID
  5
3D4
330
0
100
AcDbSymbolTable
 70
     2
  0
APPID
  5
3DC
330
3D4
100
AcDbSymbolTableRecord
100
AcDbRegAppTableRecord
  2
ACAD
 70
     0
  0
APPID
  5
3D3
330
3D4
100
AcDbSymbolTableRecord
100
AcDbRegAppTableRecord
  2
ACAD_PSEXT
 70
     0
  0
ENDTAB
  0
TABLE
  2
DIMSTYLE
  5
3C4
330
0
100
AcDbSymbolTable
 70
     1
100
AcDbDimStyleTable
  0
DIMSTYLE
105
3C3
330
3C4
100
AcDbSymbolTableRecord
100
AcDbDimStyleTableRecord
  2
Standard
 70
     0
340
3C1
  0
ENDTAB
  0
TABLE
  2
BLOCK_RECORD
  5
3C7
330
0
100
AcDbSymbolTable
 70
     5
  0
BLOCK_RECORD
  5
3C8
102
{ACAD_XDICTIONARY
360
3FE
102
}
330
3C7
100
AcDbSymbolTableRecord
100
AcDbBlockTableRecord
  2
*Model_Space
340
3CB
  0
BLOCK_RECORD
  5
3CD
330
3C7
100
AcDbSymbolTableRecord
100
AcDbBlockTableRecord
  2
*Paper_Space
340
3D0
  0
BLOCK_RECORD
  5
3E1
330
3C7
100
AcDbSymbolTableRecord
100
AcDbBlockTableRecord
  2
TerminatorOpen_0.5
340
0
  0
BLOCK_RECORD
  5
3EA
330
3C7
100
AcDbSymbolTableRecord
100
AcDbBlockTableRecord
  2
LARROW
340
0
102
{BLKREFS
331
CB
331
2CE
102
}
  0
BLOCK_RECORD
  5
3ED
330
3C7
100
AcDbSymbolTableRecord
100
AcDbBlockTableRecord
  2
LARROW_1
340
0
102
{BLKREFS
331
D7
331
2DA
102
}
  0
BLOCK_RECORD
  5
3F7
330
3C7
100
AcDbSymbolTableRecord
100
AcDbBlockTableRecord
  2
LARROW_2
340
0
102
{BLKREFS
331
21B
331
21D
331
223
331
225
331
227
331
229
331
22E
331
230
331
23A
331
23C
331
23E
331
240
331
242
331
244
331
246
331
248
331
24A
331
24E
331
250
331
253
331
256
331
30D
331
30F
331
314
331
316
331
318
331
31A
331
31D
331
31F
331
329
331
32B
331
32D
331
32F
331
331
331
333
331
335
331
337
331
339
331
33D
331
33F
331
342
331
345
102
}
  0
BLOCK_RECORD
  5
3FB
330
3C7
100
AcDbSymbolTableRecord
100
AcDbBlockTableRecord
  2
SQUIG
340
0
102
{BLKREFS
331
232
331
234
331
236
331
321
331
323
331
325
331
353
102
}
  0
ENDTAB
  0
ENDSEC
  0
SECTION
  2
BLOCKS
  0
BLOCK
  5
3C9
330
3C8
100
AcDbEntity
  8
0
100
AcDbBlockBegin
  2
*Model_Space
 70
     0
 71
     0
 10
0.0
 20
0.0
 30
0.0
  3
*Model_Space
  1

  0
ENDBLK
  5
3CA
330
3C8
100
AcDbEntity
  8
0
100
AcDbBlockEnd
  0
BLOCK
  5
3CE
330
3CD
100
AcDbEntity
 67
     1
  8
0
100
AcDbBlockBegin
  2
*Paper_Space
 70
     0
 71
     0
 10
0.0
 20
0.0
 30
0.0
  3
*Paper_Space
  1

  0
ENDBLK
  5
3CF
330
3CD
100
AcDbEntity
 67
     1
  8
0
100
AcDbBlockEnd
  0
BLOCK
  5
3E5
330
3E1
100
AcDbEntity
  8
0
100
AcDbBlockBegin
  2
TerminatorOpen_0.5
 70
     0
 71
     0
 10
0.0
 20
0.0
 30
0.0
  3
TerminatorOpen_0.5
  1

  0
LINE
  5
3E2
330
3E1
100
AcDbEntity
  8
0
  6
ByBlock
 62
     0
370
    -2
100
AcDbLine
 10
0.0
 20
0.0
 30
0.0
 11
-1.0
 21
0.0
 31
0.0
  0
LINE
  5
3E3
330
3E1
100
AcDbEntity
  8
0
  6
ByBlock
 62
     0
370
    -2
100
AcDbLine
 10
0.0
 20
0.0
 30
0.0
 11
-1.0
 21
0.25
 31
0.0
  0
LINE
  5
3E4
330
3E1
100
AcDbEntity
  8
0
  6
ByBlock
 62
     0
370
    -2
100
AcDbLine
 10
0.0
 20
0.0
 30
0.0
 11
-1.0
 21
-0.25
 31
0.0
  0
ENDBLK
  5
3E6
330
3E1
100
AcDbEntity
  8
0
100
AcDbBlockEnd
  0
BLOCK
  5
3EB
330
3EA
100
AcDbEntity
  8
0
100
AcDbBlockBegin
  2
LARROW
 70
     0
 71
     0
 10
0.0
 20
0.0
 30
0.0
  3
LARROW
  1

  0
LINE
  5
CC
330
3EA
100
AcDbEntity
  8
Level 46
  6
Continuous
 62
     7
370
     0
100
AcDbLine
 10
0.0
 20
0.0
 30
0.0
 11
-0.125187
 21
0.018238
 31
0.0
  0
LINE
  5
CD
330
3EA
100
AcDbEntity
  8
Level 46
  6
Continuous
 62
     7
370
     0
100
AcDbLine
 10
0.0
 20
0.0
 30
0.0
 11
-0.124908
 21
-0.018009
 31
0.0
  0
LWPOLYLINE
  5
CE
330
3EA
100
AcDbEntity
  8
Level 46
  6
Continuous
 62
     7
370
     0
100
AcDbPolyline
 90
        9
 70
   128
 43
0.0
 10
-0.125187
 20
0.018238
 10
-0.117674
 20
0.012474
 10
-0.114136
 20
0.007862
 10
-0.112442
 20
0.003549
 10
-0.112202
 20
-0.0004
 10
-0.112771
 20
-0.004281
 10
-0.114863
 20
-0.008607
 10
-0.118346
 20
-0.012959
 10
-0.124908
 20
-0.018009
  0
LINE
  5
CF
330
3EA
100
AcDbEntity
  8
Level 46
  6
Continuous
 62
     7
370
     0
100
AcDbLine
 10
0.0
 20
0.0
 30
0.0
 11
-0.117674
 21
0.012474
 31
0.0
  0
LINE
  5
D0
330
3EA
100
AcDbEntity
  8
Level 46
  6
Continuous
 62
     7
370
     0
100
AcDbLine
 10
0.0
 20
0.0
 30
0.0
 11
-0.114136
 21
0.007862
 31
0.0
  0
LINE
  5
D1
330
3EA
100
AcDbEntity
  8
Level 46
  6
Continuous
 62
     7
370
     0
100
AcDbLine
 10
0.0
 20
0.0
 30
0.0
 11
-0.112442
 21
0.003549
 31
0.0
  0
LINE
  5
D2
330
3EA
100
AcDbEntity
  8
Level 46
  6
Continuous
 62
     7
370
     0
100
AcDbLine
 10
0.0
 20
0.0
 30
0.0
 11
-0.112771
 21
-0.004281
 31
0.0
  0
LINE
  5
D3
330
3EA
100
AcDbEntity
  8
Level 46
  6
Continuous
 62
     7
370
     0
100
AcDbLine
 10
0.0
 20
0.0
 30
0.0
 11
-0.114863
 21
-0.008607
 31
0.0
  0
LINE
  5
D4
330
3EA
100
AcDbEntity
  8
Level 46
  6
Continuous
 62
     7
370
     0
100
AcDbLine
 10
0.0
 20
0.0
 30
0.0
 11
-0.118346
 21
-0.012959
 31
0.0
  0
LINE
  5
D5
330
3EA
100
AcDbEntity
  8
Level 46
  6
Continuous
 62
     7
370
     0
100
AcDbLine
 10
0.0
 20
0.0
 30
0.0
 11
-0.11207
 21
0.00002
 31
0.0
  0
ENDBLK
  5
3EC
330
3EA
100
AcDbEntity
  8
0
100
AcDbBlockEnd
  0
BLOCK
  5
3EE
330
3ED
100
AcDbEntity
  8
0
100
AcDbBlockBegin
  2
LARROW_1
 70
     0
 71
     0
 10
0.0
 20
0.0
 30
0.0
  3
LARROW_1
  1

  0
LINE
  5
D8
330
3ED
100
AcDbEntity
  8
Level 46
  6
Continuous
 62
     7
370
     0
100
AcDbLine
 10
0.0
 20
0.0
 30
0.0
 11
-0.1251
 21
0.018055
 31
0.0
  0
LINE
  5
D9
330
3ED
100
AcDbEntity
  8
Level 46
  6
Continuous
 62
     7
370
     0
100
AcDbLine
 10
0.0
 20
0.0
 30
0.0
 11
-0.124963
 21
-0.01806
 31
0.0
  0
LWPOLYLINE
  5
DA
330
3ED
100
AcDbEntity
  8
Level 46
  6
Continuous
 62
     7
370
     0
100
AcDbPolyline
 90
        9
 70
   128
 43
0.0
 10
-0.1251
 20
0.018055
 10
-0.11763
 20
0.012459
 10
-0.11421
 20
0.007718
 10
-0.112507
 20
0.003454
 10
-0.112165
 20
-0.00059
 10
-0.112794
 20
-0.004476
 10
-0.114846
 20
-0.008531
 10
-0.118353
 20
-0.012949
 10
-0.124963
 20
-0.01806
  0
LINE
  5
DB
330
3ED
100
AcDbEntity
  8
Level 46
  6
Continuous
 62
     7
370
     0
100
AcDbLine
 10
0.0
 20
0.0
 30
0.0
 11
-0.11763
 21
0.012459
 31
0.0
  0
LINE
  5
DC
330
3ED
100
AcDbEntity
  8
Level 46
  6
Continuous
 62
     7
370
     0
100
AcDbLine
 10
0.0
 20
0.0
 30
0.0
 11
-0.11421
 21
0.007718
 31
0.0
  0
LINE
  5
DD
330
3ED
100
AcDbEntity
  8
Level 46
  6
Continuous
 62
     7
370
     0
100
AcDbLine
 10
0.0
 20
0.0
 30
0.0
 11
-0.112507
 21
0.003454
 31
0.0
  0
LINE
  5
DE
330
3ED
100
AcDbEntity
  8
Level 46
  6
Continuous
 62
     7
370
     0
100
AcDbLine
 10
0.0
 20
0.0
 30
0.0
 11
-0.112794
 21
-0.004476
 31
0.0
  0
LINE
  5
DF
330
3ED
100
AcDbEntity
  8
Level 46
  6
Continuous
 62
     7
370
     0
100
AcDbLine
 10
0.0
 20
0.0
 30
0.0
 11
-0.114846
 21
-0.008531
 31
0.0
  0
LINE
  5
E0
330
3ED
100
AcDbEntity
  8
Level 46
  6
Continuous
 62
     7
370
     0
100
AcDbLine
 10
0.0
 20
0.0
 30
0.0
 11
-0.118353
 21
-0.012949
 31
0.0
  0
LINE
  5
E1
330
3ED
100
AcDbEntity
  8
Level 46
  6
Continuous
 62
     7
370
     0
100
AcDbLine
 10
0.0
 20
0.0
 30
0.0
 11
-0.11207
 21
-0.000007
 31
0.0
  0
ENDBLK
  5
3EF
330
3ED
100
AcDbEntity
  8
0
100
AcDbBlockEnd
  0
BLOCK
  5
3F8
330
3F7
100
AcDbEntity
  8
0
100
AcDbBlockBegin
  2
LARROW_2
 70
     0
 71
     0
 10
0.0
 20
0.0
 30
0.0
  3
LARROW_2
  1

  0
LWPOLYLINE
  5
21C
330
3F7
100
AcDbEntity
  8
Level 46
  6
Continuous
 62
     7
370
     0
100
AcDbPolyline
 90
       31
 70
   128
 43
0.0
 10
-0.004
 20
0.0006
 10
-0.0038
 20
0.0005
 10
-0.0035
 20
0.0002
 10
-0.0035
 20
-0.0002
 10
-0.0038
 20
-0.0005
 10
-0.004
 20
-0.0006
 10
0.0
 20
0.0
 10
-0.004
 20
0.0006
 10
-0.0003
 20
0.0
 10
-0.0037
 20
-0.0005
 10
-0.0034
 20
-0.0002
 10
-0.0034
 20
0.0002
 10
-0.0037
 20
0.0005
 10
-0.0006
 20
0.0
 10
-0.0035
 20
-0.0004
 10
-0.0033
 20
-0.0002
 10
-0.0033
 20
0.0002
 10
-0.0035
 20
0.0004
 10
-0.0009
 20
0.0
 10
-0.0033
 20
-0.0003
 10
-0.0032
 20
-0.0002
 10
-0.0032
 20
0.0002
 10
-0.0033
 20
0.0003
 10
-0.0012
 20
0.0
 10
-0.0031
 20
-0.0002
 10
-0.0031
 20
0.0002
 10
-0.0016
 20
0.0
 10
-0.003
 20
-0.0001
 10
-0.003
 20
0.0001
 10
-0.002
 20
0.0
 10
-0.0029
 20
0.0
  0
ENDBLK
  5
3F9
330
3F7
100
AcDbEntity
  8
0
100
AcDbBlockEnd
  0
BLOCK
  5
3FC
330
3FB
100
AcDbEntity
  8
0
100
AcDbBlockBegin
  2
SQUIG
 70
     0
 71
     0
 10
0.0
 20
0.0
 30
0.0
  3
SQUIG
  1

  0
SPLINE
  5
233
330
3FB
100
AcDbEntity
  8
Level 46
  6
Continuous
 62
     7
370
     0
100
AcDbSpline
210
0.0
220
0.0
230
1.0
 70
     8
 71
     3
 72
    44
 73
    40
 74
     0
 42
0.0000000001
 43
0.00000001
 40
0.0
 40
0.0
 40
0.0
 40
0.0
 40
0.0524632697566489
 40
0.0524632697566489
 40
0.0524632697566489
 40
0.1139805729029032
 40
0.1139805729029032
 40
0.1139805729029032
 40
0.1797412624936193
 40
0.1797412624936193
 40
0.1797412624936193
 40
0.2422204462041844
 40
0.2422204462041844
 40
0.2422204462041844
 40
0.3204633651068327
 40
0.3204633651068327
 40
0.3204633651068327
 40
0.3938647949985941
 40
0.3938647949985941
 40
0.3938647949985941
 40
0.4894626793014076
 40
0.4894626793014076
 40
0.4894626793014076
 40
0.5864665475866425
 40
0.5864665475866425
 40
0.5864665475866425
 40
0.6447031411449713
 40
0.6447031411449713
 40
0.6447031411449713
 40
0.7364788134401108
 40
0.7364788134401108
 40
0.7364788134401108
 40
0.810823319315436
 40
0.810823319315436
 40
0.810823319315436
 40
0.8928023031219342
 40
0.8928023031219342
 40
0.8928023031219342
 40
1.0
 40
1.0
 40
1.0
 40
1.0
 10
0.0
 20
0.0
 30
0.0
 10
0.0001978419132698
 20
0.0000529214685354
 30
0.0
 10
0.0003935776714457
 20
0.0000914153444853
 30
0.0
 10
0.0005970075557045
 20
0.0001025035752118
 30
0.0
 10
0.0008355450680817
 20
0.0001155053963764
 30
0.0
 10
0.0010704209632699
 20
0.0000555343407225
 30
0.0
 10
0.0012996240124394
 20
-0.0000015642916544
 30
0.0
 10
0.0015446372005794
 20
-0.0000626015161043
 30
0.0
 10
0.0017795581644062
 20
-0.0001392748539075
 30
0.0
 10
0.0019986618607142
 20
-0.000297952708685
 30
0.0
 10
0.0022068321244166
 20
-0.0004487124239692
 30
0.0
 10
0.0023086836393116
 20
-0.0006564370145306
 30
0.0
 10
0.0024003647266699
 20
-0.0008971478470734
 30
0.0
 10
0.002515177300344
 20
-0.0011985909362942
 30
0.0
 10
0.002521742097974
 20
-0.0015374365225593
 30
0.0
 10
0.0023978538697254
 20
-0.0018005407325923
 30
0.0
 10
0.0022816315555865
 20
-0.0020473646688401
 30
0.0
 10
0.0020925097542754
 20
-0.0022780918983791
 30
0.0
 10
0.0017991320139839
 20
-0.0024003591620083
 30
0.0
 10
0.0014170373965552
 20
-0.0025595998163102
 30
0.0
 10
0.0010663974644487
 20
-0.0025335909846476
 30
0.0
 10
0.0006998861518763
 20
-0.0025002768760878
 30
0.0
 10
0.0003279844581439
 20
-0.0024664728079085
 30
0.0
 10
-0.000045105081826
 20
-0.002411032172196
 30
0.0
 10
-0.0004020955797461
 20
-0.0023001237383298
 30
0.0
 10
-0.0006164160073663
 20
-0.0022335394927797
 30
0.0
 10
-0.0008159439355744
 20
-0.0021408301279582
 30
0.0
 10
-0.0010041015918425
 20
-0.0020006011733269
 30
0.0
 10
-0.0013006212600875
 20
-0.0017796128599699
 30
0.0
 10
-0.0015648635741599
 20
-0.00153176981099
 30
0.0
 10
-0.0017005535789831
 20
-0.0012019744498968
 30
0.0
 10
-0.0018104716663014
 20
-0.0009348178870798
 30
0.0
 10
-0.0019065534199143
 20
-0.0006682314260011
 30
0.0
 10
-0.0019999028781097
 20
-0.0003974777089759
 30
0.0
 10
-0.0021028384431752
 20
-0.0000989201448061
 30
0.0
 10
-0.002203721846584
 20
0.0001956416373901
 30
0.0
 10
-0.0023032578862985
 20
0.0004991274159227
 30
0.0
 10
-0.0024334136130317
 20
0.0008959727411924
 30
0.0
 10
-0.0025482849129776
 20
0.00130449603963
 30
0.0
 10
-0.0026035537507134
 20
0.0016998552837624
 30
0.0
  0
ENDBLK
  5
3FD
330
3FB
100
AcDbEntity
  8
0
100
AcDbBlockEnd
  0
ENDSEC
  0
SECTION
  2
ENTITIES
  0
LINE
  5
5B
330
3C8
100
AcDbEntity
  8
Level 46
  6
Continuous
 62
     7
370
     0
100
AcDbLine
 10
210.2122
 20
-244.9434
 30
0.0
 11
210.2122
 21
-245.2402
 31
0.0
  0
LINE
  5
5C
330
3C8
100
AcDbEntity
  8
Level 10
  6
Continuous
 62
     7
370
    13
100
AcDbLine
 10
210.1432
 20
-245.2609
 30
0.0
 11
210.2122
 21
-245.2609
 31
0.0
  0
LINE
  5
5D
330
3C8
100
AcDbEntity
  8
Level 10
  6
Continuous
 62
     7
370
    13
100
AcDbLine
 10
210.2112
 20
-245.2907
 30
0.0
 11
210.1978
 21
-245.296
 31
0.0
  0
LINE
  5
5E
330
3C8
100
AcDbEntity
  8
Level 10
  6
Continuous
 62
     7
370
    13
100
AcDbLine
 10
210.1442
 20
-245.2907
 30
0.0
 11
210.1576
 21
-245.296
 31
0.0
  0
LINE
  5
5F
330
3C8
100
AcDbEntity
  8
Level 10
  6
Continuous
 62
     7
370
    13
100
AcDbLine
 10
210.1698
 20
-245.3137
 30
0.0
 11
210.1698
 21
-245.3869
 31
0.0
  0
LINE
  5
60
330
3C8
100
AcDbEntity
  8
Level 10
  6
Continuous
 62
     7
370
    13
100
AcDbLine
 10
210.1856
 20
-245.3137
 30
0.0
 11
210.1856
 21
-245.3869
 31
0.0
  0
LINE
  5
61
330
3C8
100
AcDbEntity
  8
Level 10
  6
Continuous
 62
     7
370
    13
100
AcDbLine
 10
210.1432
 20
-245.2609
 30
0.0
 11
210.1432
 21
-245.2892
 31
0.0
  0
LINE
  5
62
330
3C8
100
AcDbEntity
  8
Level 10
  6
Continuous
 62
     7
370
    13
100
AcDbLine
 10
210.2122
 20
-245.2609
 30
0.0
 11
210.2122
 21
-245.2892
 31
0.0
  0
LINE
  5
63
330
3C8
100
AcDbEntity
  8
Level 10
  6
Continuous
 62
     7
370
    13
100
AcDbLine
 10
210.2476
 20
-245.4168
 30
0.0
 11
210.2476
 21
-245.4292
 31
0.0
  0
LINE
  5
64
330
3C8
100
AcDbEntity
  8
Level 10
  6
Continuous
 62
     7
370
    13
100
AcDbLine
 10
210.1079
 20
-245.4292
 30
0.0
 11
210.1079
 21
-245.4168
 31
0.0
  0
LINE
  5
65
330
3C8
100
AcDbEntity
  8
Level 10
  6
Continuous
 62
     7
370
    13
100
AcDbLine
 10
210.1091
 20
-245.4152
 30
0.0
 11
210.1547
 21
-245.4055
 31
0.0
  0
LINE
  5
66
330
3C8
100
AcDbEntity
  8
Level 10
  6
Continuous
 62
     7
370
    13
100
AcDbLine
 10
210.2463
 20
-245.4152
 30
0.0
 11
210.2007
 21
-245.4055
 31
0.0
  0
ARC
  5
67
330
3C8
100
AcDbEntity
  8
Level 10
  6
Continuous
 62
     7
370
    13
100
AcDbCircle
 10
-210.109435
 20
-245.416778
 30
0.0
 40
0.0015875000000011
210
0.0
220
0.0
230
-1.0
100
AcDbArc
 50
0.0
 51
77.991153
  0
ARC
  5
68
330
3C8
100
AcDbEntity
  8
Level 10
  6
Continuous
 62
     7
370
    13
100
AcDbCircle
 10
210.109435
 20
-245.427621
 30
0.0
 40
0.0015875000000011
100
AcDbArc
 50
180.0
 51
270.0
  0
ARC
  5
69
330
3C8
100
AcDbEntity
  8
Level 10
  6
Continuous
 62
     7
370
    13
100
AcDbCircle
 10
-210.24596
 20
-245.416778
 30
0.0
 40
0.0015875000000024
210
0.0
220
0.0
230
-1.0
100
AcDbArc
 50
102.008847
 51
180.0
  0
ARC
  5
6A
330
3C8
100
AcDbEntity
  8
Level 10
  6
Continuous
 62
     7
370
    13
100
AcDbCircle
 10
210.24596
 20
-245.427621
 30
0.0
 40
0.0015875000000011
100
AcDbArc
 50
270.0
 51
0.0
  0
ARC
  5
6B
330
3C8
100
AcDbEntity
  8
Level 10
  6
Continuous
 62
     7
370
    13
100
AcDbCircle
 10
210.15071
 20
-245.386899
 30
0.0
 40
0.0190500001856248
100
AcDbArc
 50
282.009525
 51
0.0
  0
ARC
  5
6C
330
3C8
100
AcDbEntity
  8
Level 10
  6
Continuous
 62
     7
370
    13
100
AcDbCircle
 10
-210.204685
 20
-245.386899
 30
0.0
 40
0.0190500001856248
210
0.0
220
0.0
230
-1.0
100
AcDbArc
 50
282.009525
 51
0.0
  0
ARC
  5
6D
330
3C8
100
AcDbEntity
  8
Level 10
  6
Continuous
 62
     7
370
    13
100
AcDbCircle
 10
-210.152697
 20
-245.270459
 30
0.0
 40
0.0095250000000381
210
0.0
220
0.0
230
-1.0
100
AcDbArc
 50
0.0
 51
90.0
  0
ARC
  5
6E
330
3C8
100
AcDbEntity
  8
Level 10
  6
Continuous
 62
     7
370
    13
100
AcDbCircle
 10
-210.202697
 20
-245.270459
 30
0.0
 40
0.0095250000000381
210
0.0
220
0.0
230
-1.0
100
AcDbArc
 50
90.0
 51
180.0
  0
ARC
  5
6F
330
3C8
100
AcDbEntity
  8
Level 10
  6
Continuous
 62
     7
370
    13
100
AcDbCircle
 10
210.15071
 20
-245.313702
 30
0.0
 40
0.0190500001855766
100
AcDbArc
 50
0.0
 51
68.651825
  0
ARC
  5
70
330
3C8
100
AcDbEntity
  8
Level 10
  6
Continuous
 62
     7
370
    13
100
AcDbCircle
 10
-210.204685
 20
-245.313702
 30
0.0
 40
0.0190500001855766
210
0.0
220
0.0
230
-1.0
100
AcDbArc
 50
0.0
 51
68.651825
  0
ARC
  5
71
330
3C8
100
AcDbEntity
  8
Level 10
  6
Continuous
 62
     7
370
    13
100
AcDbCircle
 10
210.14476
 20
-245.289218
 30
0.0
 40
0.0015875000000011
100
AcDbArc
 50
180.0
 51
248.646442
  0
ARC
  5
72
330
3C8
100
AcDbEntity
  8
Level 10
  6
Continuous
 62
     7
370
    13
100
AcDbCircle
 10
210.210635
 20
-245.289218
 30
0.0
 40
0.0015874999999969
100
AcDbArc
 50
291.353558
 51
0.0
  0
LINE
  5
73
330
3C8
100
AcDbEntity
  8
Level 10
  6
Continuous
 62
     7
370
    13
100
AcDbLine
 10
210.1079
 20
-245.4292
 30
0.0
 11
210.2476
 21
-245.4292
 31
0.0
  0
LINE
  5
74
330
3C8
100
AcDbEntity
  8
Level 10
  6
Continuous
 62
     7
370
    13
100
AcDbLine
 10
209.9888
 20
-245.4514
 30
0.0
 11
210.3444
 21
-245.4514
 31
0.0
  0
LINE
  5
75
330
3C8
100
AcDbEntity
  8
Level 10
  6
Continuous
 62
     7
370
    13
100
AcDbLine
 10
210.1063
 20
-245.4292
 30
0.0
 11
210.1063
 21
-245.4181
 31
0.0
  0
LINE
  5
76
330
3C8
100
AcDbEntity
  8
Level 10
  6
Continuous
 62
     7
370
    13
100
AcDbLine
 10
210.2491
 20
-245.4181
 30
0.0
 11
210.2491
 21
-245.4292
 31
0.0
  0
LINE
  5
77
330
3C8
100
AcDbEntity
  8
Level 10
  6
Continuous
 62
     7
370
    13
100
AcDbLine
 10
209.9888
 20
-245.4514
 30
0.0
 11
209.9888
 21
-245.4403
 31
0.0
  0
LINE
  5
78
330
3C8
100
AcDbEntity
  8
Level 10
  6
Continuous
 62
     7
370
    13
100
AcDbLine
 10
210.3444
 20
-245.4403
 30
0.0
 11
210.3444
 21
-245.4514
 31
0.0
  0
LINE
  5
79
330
3C8
100
AcDbEntity
  8
Level 10
  6
Continuous
 62
     7
370
    13
100
AcDbLine
 10
210.2752
 20
-245.4323
 30
0.0
 11
210.3444
 21
-245.4403
 31
0.0
  0
LINE
  5
7A
330
3C8
100
AcDbEntity
  8
Level 10
  6
Continuous
 62
     7
370
    13
100
AcDbLine
 10
210.2476
 20
-245.4292
 30
0.0
 11
210.2491
 21
-245.4292
 31
0.0
  0
LINE
  5
7B
330
3C8
100
AcDbEntity
  8
Level 10
  6
Continuous
 62
     7
370
    13
100
AcDbLine
 10
210.0776
 20
-245.4319
 30
0.0
 11
209.9888
 21
-245.4403
 31
0.0
  0
LINE
  5
7C
330
3C8
100
AcDbEntity
  8
Level 10
  6
Continuous
 62
     7
370
    13
100
AcDbLine
 10
210.1079
 20
-245.4292
 30
0.0
 11
210.1063
 21
-245.4292
 31
0.0
  0
ARC
  5
7D
330
3C8
100
AcDbEntity
  8
Level 10
  6
Continuous
 62
     7
370
    13
100
AcDbCircle
 10
210.249135
 20
-245.429209
 30
0.0
 40
0.0111124998767475
100
AcDbArc
 50
37.424786
 51
90.0
  0
ARC
  5
7E
330
3C8
100
AcDbEntity
  8
Level 10
  6
Continuous
 62
     7
370
    13
100
AcDbCircle
 10
-210.278131
 20
-245.407019
 30
0.0
 40
0.025400000000018
210
0.0
220
0.0
230
-1.0
100
AcDbArc
 50
276.654425
 51
322.575214
  0
ARC
  5
7F
330
3C8
100
AcDbEntity
  8
Level 10
  6
Continuous
 62
     7
370
    13
100
AcDbCircle
 10
210.10626
 20
-245.429209
 30
0.0
 40
0.0111125
100
AcDbArc
 50
90.0
 51
137.609239
  0
ARC
  5
80
330
3C8
100
AcDbEntity
  8
Level 10
  6
Continuous
 62
     7
370
    13
100
AcDbCircle
 10
210.074603
 20
-245.400311
 30
0.0
 40
0.0317500000066917
100
AcDbArc
 50
275.403792
 51
317.609239
  0
LINE
  5
81
330
3C8
100
AcDbEntity
  8
Level 10
  6
Continuous
 62
     7
370
    13
100
AcDbLine
 10
211.7164
 20
-245.2609
 30
0.0
 11
211.6473
 21
-245.2609
 31
0.0
  0
LINE
  5
82
330
3C8
100
AcDbEntity
  8
Level 10
  6
Continuous
 62
     7
370
    13
100
AcDbLine
 10
211.6483
 20
-245.2907
 30
0.0
 11
211.6618
 21
-245.296
 31
0.0
  0
LINE
  5
83
330
3C8
100
AcDbEntity
  8
Level 10
  6
Continuous
 62
     7
370
    13
100
AcDbLine
 10
211.7154
 20
-245.2907
 30
0.0
 11
211.7019
 21
-245.296
 31
0.0
  0
LINE
  5
84
330
3C8
100
AcDbEntity
  8
Level 10
  6
Continuous
 62
     7
370
    13
100
AcDbLine
 10
211.6898
 20
-245.3137
 30
0.0
 11
211.6898
 21
-245.3869
 31
0.0
  0
LINE
  5
85
330
3C8
100
AcDbEntity
  8
Level 10
  6
Continuous
 62
     7
370
    13
100
AcDbLine
 10
211.6739
 20
-245.3137
 30
0.0
 11
211.6739
 21
-245.3869
 31
0.0
  0
LINE
  5
86
330
3C8
100
AcDbEntity
  8
Level 10
  6
Continuous
 62
     7
370
    13
100
AcDbLine
 10
211.7164
 20
-245.2609
 30
0.0
 11
211.7164
 21
-245.2892
 31
0.0
  0
LINE
  5
87
330
3C8
100
AcDbEntity
  8
Level 10
  6
Continuous
 62
     7
370
    13
100
AcDbLine
 10
211.6473
 20
-245.2609
 30
0.0
 11
211.6473
 21
-245.2892
 31
0.0
  0
LINE
  5
88
330
3C8
100
AcDbEntity
  8
Level 10
  6
Continuous
 62
     7
370
    13
100
AcDbLine
 10
211.612
 20
-245.4168
 30
0.0
 11
211.612
 21
-245.4292
 31
0.0
  0
LINE
  5
89
330
3C8
100
AcDbEntity
  8
Level 10
  6
Continuous
 62
     7
370
    13
100
AcDbLine
 10
211.7517
 20
-245.4292
 30
0.0
 11
211.7517
 21
-245.4168
 31
0.0
  0
LINE
  5
8A
330
3C8
100
AcDbEntity
  8
Level 10
  6
Continuous
 62
     7
370
    13
100
AcDbLine
 10
211.7504
 20
-245.4152
 30
0.0
 11
211.7049
 21
-245.4055
 31
0.0
  0
LINE
  5
8B
330
3C8
100
AcDbEntity
  8
Level 10
  6
Continuous
 62
     7
370
    13
100
AcDbLine
 10
211.6133
 20
-245.4152
 30
0.0
 11
211.6588
 21
-245.4055
 31
0.0
  0
ARC
  5
8C
330
3C8
100
AcDbEntity
  8
Level 10
  6
Continuous
 62
     7
370
    13
100
AcDbCircle
 10
211.75011
 20
-245.416778
 30
0.0
 40
0.0015875000000022
100
AcDbArc
 50
0.0
 51
77.991153
  0
ARC
  5
8D
330
3C8
100
AcDbEntity
  8
Level 10
  6
Continuous
 62
     7
370
    13
100
AcDbCircle
 10
-211.75011
 20
-245.427621
 30
0.0
 40
0.0015875000000022
210
0.0
220
0.0
230
-1.0
100
AcDbArc
 50
180.0
 51
270.0
  0
ARC
  5
8E
330
3C8
100
AcDbEntity
  8
Level 10
  6
Continuous
 62
     7
370
    13
100
AcDbCircle
 10
211.613585
 20
-245.416778
 30
0.0
 40
0.0015875000000035
100
AcDbArc
 50
102.008847
 51
180.0
  0
ARC
  5
8F
330
3C8
100
AcDbEntity
  8
Level 10
  6
Continuous
 62
     7
370
    13
100
AcDbCircle
 10
-211.613585
 20
-245.427621
 30
0.0
 40
0.0015875000000022
210
0.0
220
0.0
230
-1.0
100
AcDbArc
 50
270.0
 51
0.0
  0
ARC
  5
90
330
3C8
100
AcDbEntity
  8
Level 10
  6
Continuous
 62
     7
370
    13
100
AcDbCircle
 10
-211.708835
 20
-245.386899
 30
0.0
 40
0.0190500003712014
210
0.0
220
0.0
230
-1.0
100
AcDbArc
 50
282.009525
 51
0.0
  0
ARC
  5
91
330
3C8
100
AcDbEntity
  8
Level 10
  6
Continuous
 62
     7
370
    13
100
AcDbCircle
 10
211.65486
 20
-245.386899
 30
0.0
 40
0.0190500003712014
100
AcDbArc
 50
282.009525
 51
0.0
  0
ARC
  5
92
330
3C8
100
AcDbEntity
  8
Level 10
  6
Continuous
 62
     7
370
    13
100
AcDbCircle
 10
211.706847
 20
-245.270459
 30
0.0
 40
0.0095250000000762
100
AcDbArc
 50
0.0
 51
90.0
  0
ARC
  5
93
330
3C8
100
AcDbEntity
  8
Level 10
  6
Continuous
 62
     7
370
    13
100
AcDbCircle
 10
211.656847
 20
-245.270459
 30
0.0
 40
0.0095250000000762
100
AcDbArc
 50
90.0
 51
180.0
  0
ARC
  5
94
330
3C8
100
AcDbEntity
  8
Level 10
  6
Continuous
 62
     7
370
    13
100
AcDbCircle
 10
-211.708835
 20
-245.313702
 30
0.0
 40
0.0190500003711533
210
0.0
220
0.0
230
-1.0
100
AcDbArc
 50
0.0
 51
68.651825
  0
ARC
  5
95
330
3C8
100
AcDbEntity
  8
Level 10
  6
Continuous
 62
     7
370
    13
100
AcDbCircle
 10
211.65486
 20
-245.313702
 30
0.0
 40
0.0190500003711533
100
AcDbArc
 50
0.0
 51
68.651825
  0
ARC
  5
96
330
3C8
100
AcDbEntity
  8
Level 10
  6
Continuous
 62
     7
370
    13
100
AcDbCircle
 10
-211.714785
 20
-245.289218
 30
0.0
 40
0.0015875000000022
210
0.0
220
0.0
230
-1.0
100
AcDbArc
 50
180.0
 51
248.646442
  0
ARC
  5
97
330
3C8
100
AcDbEntity
  8
Level 10
  6
Continuous
 62
     7
370
    13
100
AcDbCircle
 10
-211.64891
 20
-245.289218
 30
0.0
 40
0.001587499999998
210
0.0
220
0.0
230
-1.0
100
AcDbArc
 50
291.353558
 51
360.0
  0
LINE
  5
98
330
3C8
100
AcDbEntity
  8
Level 10
  6
Continuous
 62
     7
370
    13
100
AcDbLine
 10
211.7517
 20
-245.4292
 30
0.0
 11
211.612
 21
-245.4292
 31
0.0
  0
LINE
  5
99
330
3C8
100
AcDbEntity
  8
Level 10
  6
Continuous
 62
     7
370
    13
100
AcDbLine
 10
211.8708
 20
-245.4514
 30
0.0
 11
211.5152
 21
-245.4514
 31
0.0
  0
LINE
  5
9A
330
3C8
100
AcDbEntity
  8
Level 10
  6
Continuous
 62
     7
370
    13
100
AcDbLine
 10
211.7533
 20
-245.4292
 30
0.0
 11
211.7533
 21
-245.4181
 31
0.0
  0
LINE
  5
9B
330
3C8
100
AcDbEntity
  8
Level 10
  6
Continuous
 62
     7
370
    13
100
AcDbLine
 10
211.6104
 20
-245.4181
 30
0.0
 11
211.6104
 21
-245.4292
 31
0.0
  0
LINE
  5
9C
330
3C8
100
AcDbEntity
  8
Level 10
  6
Continuous
 62
     7
370
    13
100
AcDbLine
 10
211.8708
 20
-245.4514
 30
0.0
 11
211.8708
 21
-245.4403
 31
0.0
  0
LINE
  5
9D
330
3C8
100
AcDbEntity
  8
Level 10
  6
Continuous
 62
     7
370
    13
100
AcDbLine
 10
211.5152
 20
-245.4403
 30
0.0
 11
211.5152
 21
-245.4514
 31
0.0
  0
LINE
  5
9E
330
3C8
100
AcDbEntity
  8
Level 10
  6
Continuous
 62
     7
370
    13
100
AcDbLine
 10
211.5844
 20
-245.4323
 30
0.0
 11
211.5152
 21
-245.4403
 31
0.0
  0
LINE
  5
9F
330
3C8
100
AcDbEntity
  8
Level 10
  6
Continuous
 62
     7
370
    13
100
AcDbLine
 10
211.612
 20
-245.4292
 30
0.0
 11
211.6104
 21
-245.4292
 31
0.0
  0
LINE
  5
A0
330
3C8
100
AcDbEntity
  8
Level 10
  6
Continuous
 62
     7
370
    13
100
AcDbLine
 10
211.782
 20
-245.4319
 30
0.0
 11
211.8708
 21
-245.4403
 31
0.0
  0
LINE
  5
A1
330
3C8
100
AcDbEntity
  8
Level 10
  6
Continuous
 62
     7
370
    13
100
AcDbLine
 10
211.7517
 20
-245.4292
 30
0.0
 11
211.7533
 21
-245.4292
 31
0.0
  0
ARC
  5
A2
330
3C8
100
AcDbEntity
  8
Level 10
  6
Continuous
 62
     7
370
    13
100
AcDbCircle
 10
-211.61041
 20
-245.429209
 30
0.0
 40
0.0111124998767475
210
0.0
220
0.0
230
-1.0
100
AcDbArc
 50
37.424786
 51
90.0
  0
ARC
  5
A3
330
3C8
100
AcDbEntity
  8
Level 10
  6
Continuous
 62
     7
370
    13
100
AcDbCircle
 10
211.581413
 20
-245.407019
 30
0.0
 40
0.025400000000036
100
AcDbArc
 50
276.654425
 51
322.575214
  0
ARC
  5
A4
330
3C8
100
AcDbEntity
  8
Level 10
  6
Continuous
 62
     7
370
    13
100
AcDbCircle
 10
-211.753285
 20
-245.429209
 30
0.0
 40
0.0111125
210
0.0
220
0.0
230
-1.0
100
AcDbArc
 50
90.0
 51
137.609239
  0
ARC
  5
A5
330
3C8
100
AcDbEntity
  8
Level 10
  6
Continuous
 62
     7
370
    13
100
AcDbCircle
 10
-211.784942
 20
-245.400311
 30
0.0
 40
0.0317500000133834
210
0.0
220
0.0
230
-1.0
100
AcDbArc
 50
275.403792
 51
317.609239
  0
LINE
  5
A6
330
3C8
100
AcDbEntity
  8
Level 10
  6
Continuous
 62
     7
370
    13
100
AcDbLine
 10
209.6344
 20
-245.4514
 30
0.0
 11
212.2252
 21
-245.4514
 31
0.0
  0
LINE
  5
A7
330
3C8
100
AcDbEntity
  8
Level 10
  6
Continuous
 62
     7
370
    13
100
AcDbLine
 10
212.2252
 20
-245.4514
 30
0.0
 11
212.3752
 21
-245.4514
 31
0.0
  0
LINE
  5
A8
330
3C8
100
AcDbEntity
  8
Level 10
  6
Continuous
 62
     7
370
    13
100
AcDbLine
 10
209.4844
 20
-245.4514
 30
0.0
 11
209.6344
 21
-245.4514
 31
0.0
  0
LINE
  5
A9
330
3C8
100
AcDbEntity
  8
Level 10
  6
Continuous
 62
     7
370
    13
100
AcDbLine
 10
212.3752
 20
-245.4514
 30
0.0
 11
213.4134
 21
-245.9706
 31
0.0
  0
LINE
  5
AA
330
3C8
100
AcDbEntity
  8
Level 10
  6
Continuous
 62
     7
370
    13
100
AcDbLine
 10
209.4844
 20
-245.4514
 30
0.0
 11
208.4462
 21
-245.9706
 31
0.0
  0
LINE
  5
AB
330
3C8
100
AcDbEntity
  8
Level 46
  6
Continuous
 62
     7
370
     0
100
AcDbLine
 10
210.9298
 20
-244.8672
 30
0.0
 11
210.9298
 21
-244.4862
 31
0.0
  0
LINE
  5
AC
330
3C8
100
AcDbEntity
  8
Level 10
  6
Continuous
 62
     7
370
    13
100
AcDbLine
 10
207.8798
 20
-245.98
 30
0.0
 11
206.0989
 21
-246.5736
 31
0.0
  0
LINE
  5
AD
330
3C8
100
AcDbEntity
  8
Level 10
  6
Continuous
 62
     7
370
    13
100
AcDbLine
 10
213.9798
 20
-245.98
 30
0.0
 11
215.1609
 21
-246.3737
 31
0.0
  0
LINE
  5
B0
330
3C8
100
AcDbEntity
  8
Level 46
  6
Continuous
 62
     7
370
     0
100
AcDbLine
 10
211.6473
 20
-244.9434
 30
0.0
 11
211.6473
 21
-245.2402
 31
0.0
  0
LINE
  5
B1
330
3C8
100
AcDbEntity
  8
Level 46
  6
Continuous
 62
     7
370
     0
100
AcDbLine
 10
210.2122
 20
-244.9942
 30
0.0
 11
211.6473
 21
-244.9942
 31
0.0
  0
LINE
  5
B2
330
3C8
100
AcDbEntity
  8
Level 46
  6
Continuous
 62
     7
370
     0
100
AcDbLine
 10
212.3752
 20
-244.791
 30
0.0
 11
212.8145
 21
-244.791
 31
0.0
  0
LINE
  5
B3
330
3C8
100
AcDbEntity
  8
Level 46
  6
Continuous
 62
     7
370
     0
100
AcDbLine
 10
210.9298
 20
-244.791
 30
0.0
 11
212.2252
 21
-244.791
 31
0.0
  0
LINE
  5
B4
330
3C8
100
AcDbEntity
  8
Level 46
  6
Continuous
 62
     7
370
     0
100
AcDbLine
 10
209.0374
 20
-244.791
 30
0.0
 11
209.4844
 21
-244.791
 31
0.0
  0
LINE
  5
B5
330
3C8
100
AcDbEntity
  8
Level 46
  6
Continuous
 62
     7
370
     0
100
AcDbLine
 10
209.6344
 20
-244.791
 30
0.0
 11
210.9298
 21
-244.791
 31
0.0
  0
LINE
  5
B6
330
3C8
100
AcDbEntity
  8
Level 46
  6
Continuous
 62
     7
370
     0
100
AcDbLine
 10
210.9298
 20
-245.9292
 30
0.0
 11
210.9298
 21
-246.2292
 31
0.0
  0
LINE
  5
B7
330
3C8
100
AcDbEntity
  8
Level 46
  6
Continuous
 62
     7
370
     0
100
AcDbLine
 10
210.9298
 20
-245.4514
 30
0.0
 11
210.9298
 21
-245.6292
 31
0.0
  0
LINE
  5
B8
330
3C8
100
AcDbEntity
  8
Level 46
  6
Continuous
 62
     7
370
     0
100
AcDbLine
 10
210.9298
 20
-245.6292
 30
0.0
 11
210.9298
 21
-245.9292
 31
0.0
  0
ARC
  5
B9
330
3C8
100
AcDbEntity
  8
Level 46
  6
Continuous
 62
     7
370
     0
100
AcDbCircle
 10
-211.082293
 20
-246.860434
 30
0.0
 40
0.7719436089877916
210
0.0
220
0.0
230
-1.0
100
AcDbArc
 50
79.961361
 51
88.882475
  0
ARC
  5
BA
330
3C8
100
AcDbEntity
  8
Level 46
  6
Continuous
 62
     7
370
     0
100
AcDbCircle
 10
-211.025581
 20
-246.033609
 30
0.0
 40
0.266132346704872
210
0.0
220
0.0
230
-1.0
100
AcDbArc
 50
71.792231
 51
96.842094
  0
ARC
  5
BB
330
3C8
100
AcDbEntity
  8
Level 46
  6
Continuous
 62
     7
370
     0
100
AcDbCircle
 10
210.903547
 20
-245.007201
 30
0.0
 40
0.547926573277074
100
AcDbArc
 50
274.08015
 51
285.885317
  0
LINE
  5
C1
330
3C8
100
AcDbEntity
  8
Level 46
  6
Continuous
 62
     7
370
     0
100
AcDbLine
 10
212.8169
 20
-245.6274
 30
0.0
 11
213.0709
 21
-245.6274
 31
0.0
  0
LINE
  5
C3
330
3C8
100
AcDbEntity
  8
Level 46
  6
Continuous
 62
     7
370
     0
100
AcDbLine
 10
213.0709
 20
-245.6274
 30
0.0
 11
213.0709
 21
-245.7544
 31
0.0
  0
LINE
  5
C4
330
3C8
100
AcDbEntity
  8
Level 46
  6
Continuous
 62
     7
370
     0
100
AcDbLine
 10
209.073
 20
-245.6139
 30
0.0
 11
208.819
 21
-245.6139
 31
0.0
  0
LINE
  5
C6
330
3C8
100
AcDbEntity
  8
Level 46
  6
Continuous
 62
     7
370
     0
100
AcDbLine
 10
208.819
 20
-245.6139
 30
0.0
 11
208.819
 21
-245.7409
 31
0.0
  0
LINE
  5
C7
330
3C8
100
AcDbEntity
  8
Level 46
  6
Continuous
 62
     7
370
     0
100
AcDbLine
 10
207.8798
 20
-244.5878
 30
0.0
 11
210.9298
 21
-244.5878
 31
0.0
  0
ARC
  5
C8
330
3C8
100
AcDbEntity
  8
Level 46
  6
Continuous
 62
     7
370
     0
100
AcDbCircle
 10
-209.907221
 20
-245.417421
 30
0.0
 40
0.3019214535652781
210
0.0
220
0.0
230
-1.0
100
AcDbArc
 50
90.827033
 51
152.545344
  0
LINE
  5
CA
330
3C8
100
AcDbEntity
  8
Level 46
  6
Continuous
 62
     7
370
     0
100
AcDbLine
 10
212.5289
 20
-245.9093
 30
0.0
 11
212.8336
 21
-245.9144
 31
0.0
  0
INSERT
  5
CB
330
3C8
100
AcDbEntity
  8
Level 46
  6
Continuous
 62
     7
370
     0
100
AcDbBlockReference
  2
LARROW
 10
212.8336
 20
-245.9144
 30
0.0
 41
0.508002
 42
0.508002
 43
0.508002
 50
350.812681
  0
LINE
  5
D6
330
3C8
100
AcDbEntity
  8
Level 46
  6
Continuous
 62
     7
370
     0
100
AcDbLine
 10
209.3386
 20
-245.9165
 30
0.0
 11
209.0338
 21
-245.9216
 31
0.0
  0
INSERT
  5
D7
330
3C8
100
AcDbEntity
  8
Level 46
  6
Continuous
 62
     7
370
     0
100
AcDbBlockReference
  2
LARROW_1
 10
209.0338
 20
-245.9216
 30
0.0
 41
0.508003
 42
0.508003
 43
0.508003
 50
189.194227
  0
LINE
  5
E4
330
3C8
100
AcDbEntity
  8
Level 46
  6
Continuous
 62
     7
370
     0
100
AcDbLine
 10
214.3863
 20
-246.0853
 30
0.0
 11
214.7673
 21
-246.0853
 31
0.0
  0
LINE
  5
E5
330
3C8
100
AcDbEntity
  8
Level 46
  6
Continuous
 62
     7
370
     0
100
AcDbLine
 10
214.7673
 20
-246.0853
 30
0.0
 11
214.7673
 21
-246.2123
 31
0.0
  0
LINE
  5
E8
330
3C8
100
AcDbEntity
  8
Level 46
  6
Continuous
 62
     7
370
     0
100
AcDbLine
 10
207.0958
 20
-246.0838
 30
0.0
 11
207.4768
 21
-246.0838
 31
0.0
  0
LINE
  5
E9
330
3C8
100
AcDbEntity
  8
Level 46
  6
Continuous
 62
     7
370
     0
100
AcDbLine
 10
207.0958
 20
-246.0838
 30
0.0
 11
207.0958
 21
-246.2108
 31
0.0
  0
LINE
  5
EC
330
3C8
100
AcDbEntity
  8
Level 10
  6
Continuous
 62
     7
370
     0
100
AcDbLine
 10
209.6567
 20
-245.4514
 30
0.0
 11
209.9051
 21
-245.4877
 31
0.0
  0
LINE
  5
ED
330
3C8
100
AcDbEntity
  8
Level 10
  6
Continuous
 62
     7
370
     0
100
AcDbLine
 10
209.9051
 20
-245.4877
 30
0.0
 11
210.1474
 21
-245.5043
 31
0.0
  0
LINE
  5
EE
330
3C8
100
AcDbEntity
  8
Level 10
  6
Continuous
 62
     7
370
     0
100
AcDbLine
 10
210.1474
 20
-245.5043
 30
0.0
 11
210.3145
 21
-245.5254
 31
0.0
  0
LINE
  5
EF
330
3C8
100
AcDbEntity
  8
Level 10
  6
Continuous
 62
     7
370
     0
100
AcDbLine
 10
210.3145
 20
-245.5254
 30
0.0
 11
210.5387
 21
-245.5389
 31
0.0
  0
LINE
  5
F0
330
3C8
100
AcDbEntity
  8
Level 10
  6
Continuous
 62
     7
370
     0
100
AcDbLine
 10
210.5387
 20
-245.5389
 30
0.0
 11
210.7133
 21
-245.5299
 31
0.0
  0
LINE
  5
F1
330
3C8
100
AcDbEntity
  8
Level 10
  6
Continuous
 62
     7
370
     0
100
AcDbLine
 10
210.7133
 20
-245.5299
 30
0.0
 11
210.8623
 21
-245.5525
 31
0.0
  0
LINE
  5
F2
330
3C8
100
AcDbEntity
  8
Level 10
  6
Continuous
 62
     7
370
     0
100
AcDbLine
 10
209.8223
 20
-245.5359
 30
0.0
 11
210.0857
 21
-245.56
 31
0.0
  0
LINE
  5
F3
330
3C8
100
AcDbEntity
  8
Level 10
  6
Continuous
 62
     7
370
     0
100
AcDbLine
 10
210.0857
 20
-245.56
 30
0.0
 11
210.3506
 21
-245.5826
 31
0.0
  0
LINE
  5
F4
330
3C8
100
AcDbEntity
  8
Level 10
  6
Continuous
 62
     7
370
     0
100
AcDbLine
 10
209.7741
 20
-245.572
 30
0.0
 11
210.0074
 21
-245.5946
 31
0.0
  0
LINE
  5
F5
330
3C8
100
AcDbEntity
  8
Level 10
  6
Continuous
 62
     7
370
     0
100
AcDbLine
 10
210.2016
 20
-245.4514
 30
0.0
 11
210.4981
 21
-245.4922
 31
0.0
  0
LINE
  5
F6
330
3C8
100
AcDbEntity
  8
Level 10
  6
Continuous
 62
     7
370
     0
100
AcDbLine
 10
210.4981
 20
-245.4922
 30
0.0
 11
210.6245
 21
-245.4832
 31
0.0
  0
LINE
  5
F7
330
3C8
100
AcDbEntity
  8
Level 10
  6
Continuous
 62
     7
370
     0
100
AcDbLine
 10
210.6245
 20
-245.4832
 30
0.0
 11
210.7675
 21
-245.4817
 31
0.0
  0
LINE
  5
F8
330
3C8
100
AcDbEntity
  8
Level 10
  6
Continuous
 62
     7
370
     0
100
AcDbLine
 10
210.7675
 20
-245.4817
 30
0.0
 11
210.897
 21
-245.4983
 31
0.0
  0
LINE
  5
F9
330
3C8
100
AcDbEntity
  8
Level 46
  6
Continuous
 62
     7
370
    53
100
AcDbLine
 10
208.672925
 20
-246.7958
 30
0.0
 11
213.236503
 21
-246.7958
 31
0.0
  0
LINE
  5
FA
330
3C8
100
AcDbEntity
  8
Level 46
  6
Continuous
 62
     7
370
     0
100
AcDbLine
 10
209.6344
 20
-244.7402
 30
0.0
 11
209.6344
 21
-245.4006
 31
0.0
  0
LINE
  5
FB
330
3C8
100
AcDbEntity
  8
Level 46
  6
Continuous
 62
     7
370
     0
100
AcDbLine
 10
212.2252
 20
-244.7402
 30
0.0
 11
212.2252
 21
-245.4006
 31
0.0
  0
LINE
  5
FC
330
3C8
100
AcDbEntity
  8
Level 10
  6
Continuous
 62
     7
370
    13
100
AcDbLine
 10
212.2252
 20
-245.4514
 30
0.0
 11
212.2252
 21
-245.6292
 31
0.0
  0
LINE
  5
FD
330
3C8
100
AcDbEntity
  8
Level 10
  6
Continuous
 62
     7
370
    13
100
AcDbLine
 10
209.6344
 20
-245.4514
 30
0.0
 11
209.6344
 21
-245.6292
 31
0.0
  0
LINE
  5
FE
330
3C8
100
AcDbEntity
  8
Level 10
  6
Continuous
 62
     7
370
     0
100
AcDbLine
 10
209.6387
 20
-245.5056
 30
0.0
 11
209.8223
 21
-245.5359
 31
0.0
  0
LINE
  5
FF
330
3C8
100
AcDbEntity
  8
Level 10
  6
Continuous
 62
     7
370
     0
100
AcDbLine
 10
209.6366
 20
-245.5672
 30
0.0
 11
209.7741
 21
-245.572
 31
0.0
  0
LINE
  5
100
330
3C8
100
AcDbEntity
  8
Level 10
  6
Continuous
 62
     7
370
    13
100
AcDbLine
 10
210.9298
 20
-245.9292
 30
0.0
 11
213.9798
 21
-245.98
 31
0.0
  0
LINE
  5
101
330
3C8
100
AcDbEntity
  8
Level 10
  6
Continuous
 62
     7
370
    13
100
AcDbLine
 10
210.9298
 20
-245.9292
 30
0.0
 11
207.8798
 21
-245.98
 31
0.0
  0
LINE
  5
102
330
3C8
100
AcDbEntity
  8
Level 10
  6
Continuous
 62
     7
370
    13
100
AcDbLine
 10
215.1609
 20
-246.3737
 30
0.0
 11
216.9609
 21
-246.3737
 31
0.0
  0
LINE
  5
103
330
3C8
100
AcDbEntity
  8
Level 46
  6
Continuous
 62
     7
370
     0
100
AcDbLine
 10
215.1609
 20
-246.3229
 30
0.0
 11
215.1609
 21
-244.4941
 31
0.0
  0
LINE
  5
104
330
3C8
100
AcDbEntity
  8
Level 10
  6
Continuous
 62
     7
370
    13
100
AcDbLine
 10
217.7304
 20
-246.1172
 30
0.0
 11
216.9609
 21
-246.3737
 31
0.0
  0
LINE
  5
105
330
3C8
100
AcDbEntity
  8
Level 46
  6
Continuous
 62
     7
370
     0
100
AcDbLine
 10
217.0858
 20
-246.1497
 30
0.0
 11
217.4668
 21
-246.1497
 31
0.0
  0
LINE
  5
106
330
3C8
100
AcDbEntity
  8
Level 46
  6
Continuous
 62
     7
370
     0
100
AcDbLine
 10
217.0858
 20
-246.1497
 30
0.0
 11
217.0858
 21
-246.2767
 31
0.0
  0
LINE
  5
109
330
3C8
100
AcDbEntity
  8
Level 46
  6
Continuous
 62
     7
370
     0
100
AcDbLine
 10
210.9298
 20
-244.5878
 30
0.0
 11
213.9798
 21
-244.5878
 31
0.0
  0
LINE
  5
10A
330
3C8
100
AcDbEntity
  8
Level 46
  6
Continuous
 62
     7
370
     0
100
AcDbLine
 10
215.1609
 20
-244.5957
 30
0.0
 11
216.9609
 21
-244.5957
 31
0.0
  0
TEXT
  5
10C
330
3C8
100
AcDbEntity
  8
Level 1
  6
Continuous
 62
     7
370
     0
100
AcDbText
 10
205.2493
 20
-243.2035
 30
0.0
 40
0.086004
  1
A
  7
Style-CHAR_FAST_FONT
 72
     1
 11
205.277742
 21
-243.160498
 31
0.0
100
AcDbText
 73
     2
  0
LINE
  5
10D
330
3C8
100
AcDbEntity
  8
Level 1
  6
Continuous
 62
     7
370
   106
100
AcDbLine
 10
220.3893
 20
-243.1095
 30
0.0
 11
220.3893
 21
-243.2295
 31
0.0
  0
LINE
  5
10E
330
3C8
100
AcDbEntity
  8
Level 1
  6
Continuous
 62
     7
370
   106
100
AcDbLine
 10
220.3893
 20
-243.2295
 30
0.0
 11
220.3893
 21
-254.6295
 31
0.0
  0
LINE
  5
10F
330
3C8
100
AcDbEntity
  8
Level 1
  6
Continuous
 62
     7
370
   106
100
AcDbLine
 10
220.3893
 20
-254.6295
 30
0.0
 11
220.3893
 21
-254.7495
 31
0.0
  0
LINE
  5
110
330
3C8
100
AcDbEntity
  8
Level 1
  6
Continuous
 62
     7
370
   106
100
AcDbLine
 10
204.3493
 20
-254.6295
 30
0.0
 11
204.3493
 21
-243.2295
 31
0.0
  0
LINE
  5
111
330
3C8
100
AcDbEntity
  8
Level 1
  6
Continuous
 62
     7
370
   106
100
AcDbLine
 10
220.3893
 20
-254.6295
 30
0.0
 11
219.3093
 21
-254.6295
 31
0.0
  0
LINE
  5
112
330
3C8
100
AcDbEntity
  8
Level 1
  6
Continuous
 62
     7
370
   106
100
AcDbLine
 10
220.3893
 20
-254.6295
 30
0.0
 11
204.3493
 21
-254.6295
 31
0.0
  0
LINE
  5
113
330
3C8
100
AcDbEntity
  8
Level 1
  6
Continuous
 62
     7
370
   106
100
AcDbLine
 10
220.5093
 20
-243.2295
 30
0.0
 11
220.3893
 21
-243.2295
 31
0.0
  0
LINE
  5
114
330
3C8
100
AcDbEntity
  8
Level 1
  6
Continuous
 62
     7
370
   106
100
AcDbLine
 10
219.3093
 20
-243.1095
 30
0.0
 11
219.3093
 21
-243.2295
 31
0.0
  0
LINE
  5
115
330
3C8
100
AcDbEntity
  8
Level 1
  6
Continuous
 62
     7
370
   106
100
AcDbLine
 10
204.3493
 20
-243.2295
 30
0.0
 11
220.3893
 21
-243.2295
 31
0.0
  0
LINE
  5
116
330
3C8
100
AcDbEntity
  8
Level 1
  6
Continuous
 62
     7
370
   106
100
AcDbLine
 10
219.3093
 20
-243.2295
 30
0.0
 11
220.3893
 21
-243.2295
 31
0.0
  0
LINE
  5
117
330
3C8
100
AcDbEntity
  8
Level 1
  6
Continuous
 62
     7
370
   106
100
AcDbLine
 10
215.5693
 20
-243.1095
 30
0.0
 11
215.5693
 21
-243.2295
 31
0.0
  0
LINE
  5
118
330
3C8
100
AcDbEntity
  8
Level 1
  6
Continuous
 62
     7
370
   106
100
AcDbLine
 10
211.8293
 20
-243.1095
 30
0.0
 11
211.8293
 21
-243.2295
 31
0.0
  0
LINE
  5
119
330
3C8
100
AcDbEntity
  8
Level 1
  6
Continuous
 62
     7
370
   106
100
AcDbLine
 10
208.0893
 20
-243.1095
 30
0.0
 11
208.0893
 21
-243.2295
 31
0.0
  0
LINE
  5
11A
330
3C8
100
AcDbEntity
  8
Level 1
  6
Continuous
 62
     7
370
   106
100
AcDbLine
 10
204.3493
 20
-243.1095
 30
0.0
 11
204.3493
 21
-243.2295
 31
0.0
  0
LINE
  5
11B
330
3C8
100
AcDbEntity
  8
Level 1
  6
Continuous
 62
     7
370
   106
100
AcDbLine
 10
204.3493
 20
-243.2295
 30
0.0
 11
204.2293
 21
-243.2295
 31
0.0
  0
LINE
  5
11C
330
3C8
100
AcDbEntity
  8
Level 1
  6
Continuous
 62
     7
370
   106
100
AcDbLine
 10
220.5093
 20
-254.6295
 30
0.0
 11
220.3893
 21
-254.6295
 31
0.0
  0
LINE
  5
11D
330
3C8
100
AcDbEntity
  8
Level 1
  6
Continuous
 62
     7
370
   106
100
AcDbLine
 10
219.3093
 20
-254.6295
 30
0.0
 11
219.3093
 21
-254.7495
 31
0.0
  0
LINE
  5
11E
330
3C8
100
AcDbEntity
  8
Level 1
  6
Continuous
 62
     7
370
   106
100
AcDbLine
 10
215.5693
 20
-254.6295
 30
0.0
 11
215.5693
 21
-254.7495
 31
0.0
  0
LINE
  5
11F
330
3C8
100
AcDbEntity
  8
Level 1
  6
Continuous
 62
     7
370
   106
100
AcDbLine
 10
211.8293
 20
-254.6295
 30
0.0
 11
211.8293
 21
-254.7495
 31
0.0
  0
LINE
  5
120
330
3C8
100
AcDbEntity
  8
Level 1
  6
Continuous
 62
     7
370
   106
100
AcDbLine
 10
208.0893
 20
-254.6295
 30
0.0
 11
208.0893
 21
-254.7495
 31
0.0
  0
LINE
  5
121
330
3C8
100
AcDbEntity
  8
Level 1
  6
Continuous
 62
     7
370
   106
100
AcDbLine
 10
204.3493
 20
-254.6295
 30
0.0
 11
204.3493
 21
-254.7495
 31
0.0
  0
LINE
  5
122
330
3C8
100
AcDbEntity
  8
Level 1
  6
Continuous
 62
     7
370
   106
100
AcDbLine
 10
204.3493
 20
-254.6295
 30
0.0
 11
204.2293
 21
-254.6295
 31
0.0
  0
LINE
  5
123
330
3C8
100
AcDbEntity
  8
Level 1
  6
Continuous
 62
     7
370
   106
100
AcDbLine
 10
204.3493
 20
-247.0295
 30
0.0
 11
204.2293
 21
-247.0295
 31
0.0
  0
LINE
  5
124
330
3C8
100
AcDbEntity
  8
Level 1
  6
Continuous
 62
     7
370
   106
100
AcDbLine
 10
204.3493
 20
-250.8295
 30
0.0
 11
204.2293
 21
-250.8295
 31
0.0
  0
LINE
  5
125
330
3C8
100
AcDbEntity
  8
Level 1
  6
Continuous
 62
     7
370
   106
100
AcDbLine
 10
220.5093
 20
-250.8295
 30
0.0
 11
220.3893
 21
-250.8295
 31
0.0
  0
LINE
  5
126
330
3C8
100
AcDbEntity
  8
Level 1
  6
Continuous
 62
     7
370
   106
100
AcDbLine
 10
220.5093
 20
-247.0295
 30
0.0
 11
220.3893
 21
-247.0295
 31
0.0
  0
LINE
  5
127
330
3C8
100
AcDbEntity
  8
Level 1
  6
Continuous
 62
     7
370
   106
100
AcDbLine
 10
206.2193
 20
-243.1095
 30
0.0
 11
206.2193
 21
-243.2295
 31
0.0
  0
LINE
  5
128
330
3C8
100
AcDbEntity
  8
Level 1
  6
Continuous
 62
     7
370
   106
100
AcDbLine
 10
209.9593
 20
-243.1095
 30
0.0
 11
209.9593
 21
-243.2295
 31
0.0
  0
TEXT
  5
129
330
3C8
100
AcDbEntity
  8
Level 1
  6
Continuous
 62
     7
370
     0
100
AcDbText
 10
207.1213
 20
-243.2035
 30
0.0
 40
0.086004
  1
B
  7
Style-CHAR_FAST_FONT
 72
     1
 11
207.149742
 21
-243.160498
 31
0.0
100
AcDbText
 73
     2
  0
TEXT
  5
12A
330
3C8
100
AcDbEntity
  8
Level 1
  6
Continuous
 62
     7
370
     0
100
AcDbText
 10
208.9893
 20
-243.2035
 30
0.0
 40
0.086004
  1
C
  7
Style-CHAR_FAST_FONT
 72
     1
 11
209.017742
 21
-243.160498
 31
0.0
100
AcDbText
 73
     2
  0
TEXT
  5
12B
330
3C8
100
AcDbEntity
  8
Level 1
  6
Continuous
 62
     7
370
     0
100
AcDbText
 10
210.8593
 20
-243.2035
 30
0.0
 40
0.086004
  1
D
  7
Style-CHAR_FAST_FONT
 72
     1
 11
210.887742
 21
-243.160498
 31
0.0
100
AcDbText
 73
     2
  0
LINE
  5
12C
330
3C8
100
AcDbEntity
  8
Level 1
  6
Continuous
 62
     7
370
   106
100
AcDbLine
 10
204.3493
 20
-245.1295
 30
0.0
 11
204.2293
 21
-245.1295
 31
0.0
  0
TEXT
  5
12D
330
3C8
100
AcDbEntity
  8
Level 1
  6
Continuous
 62
     7
370
     0
100
AcDbText
 10
204.2613
 20
-246.1235
 30
0.0
 40
0.086004
  1
5
  7
Style-CHAR_FAST_FONT
 72
     1
 11
204.289742
 21
-246.080498
 31
0.0
100
AcDbText
 73
     2
  0
TEXT
  5
12E
330
3C8
100
AcDbEntity
  8
Level 1
  6
Continuous
 62
     7
370
     0
100
AcDbText
 10
204.2593
 20
-248.0235
 30
0.0
 40
0.086004
  1
4
  7
Style-CHAR_FAST_FONT
 72
     1
 11
204.287742
 21
-247.980498
 31
0.0
100
AcDbText
 73
     2
  0
TEXT
  5
12F
330
3C8
100
AcDbEntity
  8
Level 1
  6
Continuous
 62
     7
370
     0
100
AcDbText
 10
204.2613
 20
-249.9235
 30
0.0
 40
0.086004
  1
3
  7
Style-CHAR_FAST_FONT
 72
     1
 11
204.289742
 21
-249.880498
 31
0.0
100
AcDbText
 73
     2
  0
TEXT
  5
130
330
3C8
100
AcDbEntity
  8
Level 1
  6
Continuous
 62
     7
370
     0
100
AcDbText
 10
204.2613
 20
-251.8235
 30
0.0
 40
0.086004
  1
2
  7
Style-CHAR_FAST_FONT
 72
     1
 11
204.289742
 21
-251.780498
 31
0.0
100
AcDbText
 73
     2
  0
TEXT
  5
131
330
3C8
100
AcDbEntity
  8
Level 1
  6
Continuous
 62
     7
370
     0
100
AcDbText
 10
204.2753
 20
-253.7235
 30
0.0
 40
0.086004
  1
1
  7
Style-CHAR_FAST_FONT
 72
     1
 11
204.303742
 21
-253.680498
 31
0.0
100
AcDbText
 73
     2
  0
LINE
  5
132
330
3C8
100
AcDbEntity
  8
Level 1
  6
Continuous
 62
     7
370
   106
100
AcDbLine
 10
204.3493
 20
-248.9295
 30
0.0
 11
204.2293
 21
-248.9295
 31
0.0
  0
LINE
  5
133
330
3C8
100
AcDbEntity
  8
Level 1
  6
Continuous
 62
     7
370
   106
100
AcDbLine
 10
204.3493
 20
-252.7295
 30
0.0
 11
204.2293
 21
-252.7295
 31
0.0
  0
LINE
  5
134
330
3C8
100
AcDbEntity
  8
Level 1
  6
Continuous
 62
     7
370
   106
100
AcDbLine
 10
213.6993
 20
-243.1095
 30
0.0
 11
213.6993
 21
-243.2295
 31
0.0
  0
LINE
  5
135
330
3C8
100
AcDbEntity
  8
Level 1
  6
Continuous
 62
     7
370
   106
100
AcDbLine
 10
217.4393
 20
-243.1095
 30
0.0
 11
217.4393
 21
-243.2295
 31
0.0
  0
TEXT
  5
136
330
3C8
100
AcDbEntity
  8
Level 1
  6
Continuous
 62
     7
370
     0
100
AcDbText
 10
212.7373
 20
-243.2035
 30
0.0
 40
0.086004
  1
E
  7
Style-CHAR_FAST_FONT
 72
     1
 11
212.765742
 21
-243.160498
 31
0.0
100
AcDbText
 73
     2
  0
TEXT
  5
137
330
3C8
100
AcDbEntity
  8
Level 1
  6
Continuous
 62
     7
370
     0
100
AcDbText
 10
214.6073
 20
-243.2035
 30
0.0
 40
0.086004
  1
F
  7
Style-CHAR_FAST_FONT
 72
     1
 11
214.635742
 21
-243.160498
 31
0.0
100
AcDbText
 73
     2
  0
TEXT
  5
138
330
3C8
100
AcDbEntity
  8
Level 1
  6
Continuous
 62
     7
370
     0
100
AcDbText
 10
216.4673
 20
-243.2035
 30
0.0
 40
0.086004
  1
G
  7
Style-CHAR_FAST_FONT
 72
     1
 11
216.495742
 21
-243.160498
 31
0.0
100
AcDbText
 73
     2
  0
TEXT
  5
139
330
3C8
100
AcDbEntity
  8
Level 1
  6
Continuous
 62
     7
370
     0
100
AcDbText
 10
218.3413
 20
-243.2035
 30
0.0
 40
0.086004
  1
H
  7
Style-CHAR_FAST_FONT
 72
     1
 11
218.369742
 21
-243.160498
 31
0.0
100
AcDbText
 73
     2
  0
LINE
  5
13A
330
3C8
100
AcDbEntity
  8
Level 1
  6
Continuous
 62
     7
370
   106
100
AcDbLine
 10
220.5093
 20
-245.1295
 30
0.0
 11
220.3893
 21
-245.1295
 31
0.0
  0
LINE
  5
13B
330
3C8
100
AcDbEntity
  8
Level 1
  6
Continuous
 62
     7
370
   106
100
AcDbLine
 10
220.5093
 20
-248.9295
 30
0.0
 11
220.3893
 21
-248.9295
 31
0.0
  0
LINE
  5
13C
330
3C8
100
AcDbEntity
  8
Level 1
  6
Continuous
 62
     7
370
   106
100
AcDbLine
 10
220.5093
 20
-252.7295
 30
0.0
 11
220.3893
 21
-252.7295
 31
0.0
  0
LINE
  5
13D
330
3C8
100
AcDbEntity
  8
Level 1
  6
Continuous
 62
     7
370
   106
100
AcDbLine
 10
217.4393
 20
-254.6295
 30
0.0
 11
217.4393
 21
-254.7495
 31
0.0
  0
LINE
  5
13E
330
3C8
100
AcDbEntity
  8
Level 1
  6
Continuous
 62
     7
370
   106
100
AcDbLine
 10
213.6993
 20
-254.6295
 30
0.0
 11
213.6993
 21
-254.7495
 31
0.0
  0
LINE
  5
13F
330
3C8
100
AcDbEntity
  8
Level 1
  6
Continuous
 62
     7
370
   106
100
AcDbLine
 10
209.9593
 20
-254.6295
 30
0.0
 11
209.9593
 21
-254.7495
 31
0.0
  0
LINE
  5
140
330
3C8
100
AcDbEntity
  8
Level 1
  6
Continuous
 62
     7
370
   106
100
AcDbLine
 10
206.2193
 20
-254.6295
 30
0.0
 11
206.2193
 21
-254.7495
 31
0.0
  0
LINE
  5
141
330
3C8
100
AcDbEntity
  8
Level 1
  6
Continuous
 62
     7
370
    40
100
AcDbLine
 10
219.601418
 20
-250.1415
 30
0.0
 11
219.791418
 21
-250.1415
 31
0.0
  0
LINE
  5
146
330
3C8
100
AcDbEntity
  8
Level 1
  6
Continuous
 62
     7
370
    40
100
AcDbLine
 10
220.2693
 20
-249.7315
 30
0.0
 11
219.4293
 21
-249.7315
 31
0.0
  0
LINE
  5
147
330
3C8
100
AcDbEntity
  8
Level 1
  6
Continuous
 62
     7
370
    40
100
AcDbLine
 10
219.6193
 20
-248.1335
 30
0.0
 11
219.6193
 21
-250.5515
 31
0.0
  0
LWPOLYLINE
  5
149
330
3C8
100
AcDbEntity
  8
Level 1
  6
Continuous
 62
     7
370
   100
100
AcDbPolyline
 90
        2
 70
   128
 43
0.0
 10
219.4293
 20
-243.9875
 10
219.4293
 20
-243.3875
  0
LWPOLYLINE
  5
14A
330
3C8
100
AcDbEntity
  8
Level 1
  6
Continuous
 62
     7
370
   100
100
AcDbPolyline
 90
        2
 70
   128
 43
0.0
 10
219.4893
 20
-243.3275
 10
220.2093
 20
-243.3275
  0
LWPOLYLINE
  5
14B
330
3C8
100
AcDbEntity
  8
Level 1
  6
Continuous
 62
     7
370
   100
100
AcDbPolyline
 90
        2
 70
   128
 43
0.0
 10
220.2693
 20
-243.3875
 10
220.2693
 20
-243.9875
  0
LWPOLYLINE
  5
14C
330
3C8
100
AcDbEntity
  8
Level 1
  6
Continuous
 62
     7
370
   100
100
AcDbPolyline
 90
        2
 70
   128
 43
0.0
 10
220.2093
 20
-244.0475
 10
219.4893
 20
-244.0475
  0
LWPOLYLINE
  5
14D
330
3C8
100
AcDbEntity
  8
Level 1
  6
Continuous
 62
     7
370
   100
100
AcDbPolyline
 90
        2
 70
   128
 43
0.0
 10
220.2693
 20
-248.9115
 10
219.4293
 20
-248.9115
  0
LWPOLYLINE
  5
14E
330
3C8
100
AcDbEntity
  8
Level 1
  6
Continuous
 62
     7
370
   100
100
AcDbPolyline
 90
        2
 70
   128
 43
0.0
 10
219.4293
 20
-250.7295
 10
219.4293
 20
-253.6095
  0
LWPOLYLINE
  5
14F
330
3C8
100
AcDbEntity
  8
Level 1
  6
Continuous
 62
     7
370
   100
100
AcDbPolyline
 90
        2
 70
   128
 43
0.0
 10
220.2693
 20
-253.6095
 10
220.2693
 20
-250.7295
  0
LWPOLYLINE
  5
150
330
3C8
100
AcDbEntity
  8
Level 1
  6
Continuous
 62
     7
370
   100
100
AcDbPolyline
 90
        2
 70
   128
 43
0.0
 10
219.4893
 20
-253.6695
 10
220.2093
 20
-253.6695
  0
LWPOLYLINE
  5
151
330
3C8
100
AcDbEntity
  8
Level 1
  6
Continuous
 62
     7
370
   100
100
AcDbPolyline
 90
        2
 70
   128
 43
0.0
 10
219.4893
 20
-253.7895
 10
220.2093
 20
-253.7895
  0
LWPOLYLINE
  5
152
330
3C8
100
AcDbEntity
  8
Level 1
  6
Continuous
 62
     7
370
   100
100
AcDbPolyline
 90
        2
 70
   128
 43
0.0
 10
219.4293
 20
-254.4495
 10
219.4293
 20
-253.8495
  0
LWPOLYLINE
  5
153
330
3C8
100
AcDbEntity
  8
Level 1
  6
Continuous
 62
     7
370
   100
100
AcDbPolyline
 90
        2
 70
   128
 43
0.0
 10
220.2693
 20
-253.8495
 10
220.2693
 20
-254.4495
  0
ARC
  5
156
330
3C8
100
AcDbEntity
  8
Level 1
  6
Continuous
 62
     7
370
   100
100
AcDbCircle
 10
-219.48936
 20
-243.38842
 30
0.0
 40
0.06
210
0.0
220
0.0
230
-1.0
100
AcDbArc
 50
0.0
 51
90.0
  0
ARC
  5
157
330
3C8
100
AcDbEntity
  8
Level 1
  6
Continuous
 62
     7
370
   100
100
AcDbCircle
 10
-220.20936
 20
-243.38842
 30
0.0
 40
0.0599999999112014
210
0.0
220
0.0
230
-1.0
100
AcDbArc
 50
90.0
 51
180.0
  0
ARC
  5
158
330
3C8
100
AcDbEntity
  8
Level 1
  6
Continuous
 62
     7
370
   100
100
AcDbCircle
 10
-220.20936
 20
-243.98842
 30
0.0
 40
0.06
210
0.0
220
0.0
230
-1.0
100
AcDbArc
 50
180.0
 51
270.0
  0
ARC
  5
159
330
3C8
100
AcDbEntity
  8
Level 1
  6
Continuous
 62
     7
370
   100
100
AcDbCircle
 10
219.48936
 20
-243.98842
 30
0.0
 40
0.06
100
AcDbArc
 50
180.0
 51
270.0
  0
ARC
  5
15A
330
3C8
100
AcDbEntity
  8
Level 1
  6
Continuous
 62
     7
370
   100
100
AcDbCircle
 10
-220.20936
 20
-248.19412
 30
0.0
 40
0.0599999999112014
210
0.0
220
0.0
230
-1.0
100
AcDbArc
 50
90.0
 51
180.0
  0
ARC
  5
15B
330
3C8
100
AcDbEntity
  8
Level 1
  6
Continuous
 62
     7
370
   100
100
AcDbCircle
 10
219.48938
 20
-248.19412
 30
0.0
 40
0.0599999999112014
100
AcDbArc
 50
90.0
 51
180.0
  0
ARC
  5
15C
330
3C8
100
AcDbEntity
  8
Level 1
  6
Continuous
 62
     7
370
   100
100
AcDbCircle
 10
219.4893
 20
-250.48892
 30
0.0
 40
0.06
100
AcDbArc
 50
180.0
 51
270.0
  0
ARC
  5
15D
330
3C8
100
AcDbEntity
  8
Level 1
  6
Continuous
 62
     7
370
   100
100
AcDbCircle
 10
220.2093
 20
-250.48892
 30
0.0
 40
0.0599999999112014
100
AcDbArc
 50
270.0
 51
0.0
  0
ARC
  5
15E
330
3C8
100
AcDbEntity
  8
Level 1
  6
Continuous
 62
     7
370
   100
100
AcDbCircle
 10
220.2093
 20
-250.72892
 30
0.0
 40
0.06
100
AcDbArc
 50
0.0
 51
90.0
  0
ARC
  5
15F
330
3C8
100
AcDbEntity
  8
Level 1
  6
Continuous
 62
     7
370
   100
100
AcDbCircle
 10
219.4893
 20
-250.72892
 30
0.0
 40
0.0599999999112014
100
AcDbArc
 50
90.0
 51
180.0
  0
ARC
  5
160
330
3C8
100
AcDbEntity
  8
Level 1
  6
Continuous
 62
     7
370
   100
100
AcDbCircle
 10
219.4893
 20
-253.60932
 30
0.0
 40
0.06
100
AcDbArc
 50
180.0
 51
270.0
  0
ARC
  5
161
330
3C8
100
AcDbEntity
  8
Level 1
  6
Continuous
 62
     7
370
   100
100
AcDbCircle
 10
220.2093
 20
-253.60932
 30
0.0
 40
0.0599999999112014
100
AcDbArc
 50
270.0
 51
0.0
  0
ARC
  5
162
330
3C8
100
AcDbEntity
  8
Level 1
  6
Continuous
 62
     7
370
   100
100
AcDbCircle
 10
220.20936
 20
-253.84932
 30
0.0
 40
0.06
100
AcDbArc
 50
0.0
 51
90.0
  0
ARC
  5
163
330
3C8
100
AcDbEntity
  8
Level 1
  6
Continuous
 62
     7
370
   100
100
AcDbCircle
 10
219.48936
 20
-253.84932
 30
0.0
 40
0.0599999999112014
100
AcDbArc
 50
90.0
 51
180.0
  0
ARC
  5
164
330
3C8
100
AcDbEntity
  8
Level 1
  6
Continuous
 62
     7
370
   100
100
AcDbCircle
 10
219.48936
 20
-254.44932
 30
0.0
 40
0.06
100
AcDbArc
 50
180.0
 51
270.0
  0
ARC
  5
165
330
3C8
100
AcDbEntity
  8
Level 1
  6
Continuous
 62
     7
370
   100
100
AcDbCircle
 10
220.20936
 20
-254.44932
 30
0.0
 40
0.0599999999112014
100
AcDbArc
 50
270.0
 51
0.0
  0
LWPOLYLINE
  5
166
330
3C8
100
AcDbEntity
  8
Level 1
  6
Continuous
 62
     7
370
   100
100
AcDbPolyline
 90
        2
 70
   128
 43
0.0
 10
220.2093
 20
-254.5095
 10
219.4893
 20
-254.5095
  0
LWPOLYLINE
  5
169
330
3C8
100
AcDbEntity
  8
Level 1
  6
Continuous
 62
     7
370
   100
100
AcDbPolyline
 90
        2
 70
   128
 43
0.0
 10
220.2093
 20
-245.5535
 10
219.4893
 20
-245.5535
  0
LWPOLYLINE
  5
16A
330
3C8
100
AcDbEntity
  8
Level 1
  6
Continuous
 62
     7
370
   100
100
AcDbPolyline
 90
        2
 70
   128
 43
0.0
 10
219.4893
 20
-248.0135
 10
220.2093
 20
-248.0135
  0
ARC
  5
16B
330
3C8
100
AcDbEntity
  8
Level 1
  6
Continuous
 62
     7
370
   100
100
AcDbCircle
 10
-219.48938
 20
-245.61412
 30
0.0
 40
0.0599999999556007
210
0.0
220
0.0
230
-1.0
100
AcDbArc
 50
0.0
 51
90.0
  0
ARC
  5
16C
330
3C8
100
AcDbEntity
  8
Level 1
  6
Continuous
 62
     7
370
   100
100
AcDbCircle
 10
-220.20936
 20
-245.61412
 30
0.0
 40
0.0599999998668022
210
0.0
220
0.0
230
-1.0
100
AcDbArc
 50
90.0
 51
180.0
  0
ARC
  5
16D
330
3C8
100
AcDbEntity
  8
Level 1
  6
Continuous
 62
     7
370
   100
100
AcDbCircle
 10
219.48938
 20
-247.95412
 30
0.0
 40
0.0599999999556007
100
AcDbArc
 50
180.0
 51
270.0
  0
ARC
  5
16E
330
3C8
100
AcDbEntity
  8
Level 1
  6
Continuous
 62
     7
370
   100
100
AcDbCircle
 10
220.20936
 20
-247.95412
 30
0.0
 40
0.0599999998668022
100
AcDbArc
 50
270.0
 51
0.0
  0
LINE
  5
171
330
3C8
100
AcDbEntity
  8
Level 1
  6
Continuous
 62
     7
370
    13
100
AcDbLine
 10
219.4293
 20
-247.7255
 30
0.0
 11
220.2693
 21
-247.7255
 31
0.0
  0
LINE
  5
172
330
3C8
100
AcDbEntity
  8
Level 1
  6
Continuous
 62
     7
370
    13
100
AcDbLine
 10
219.5253
 20
-245.5535
 30
0.0
 11
219.5253
 21
-248.0135
 31
0.0
  0
LWPOLYLINE
  5
173
330
3C8
100
AcDbEntity
  8
Level 1
  6
Continuous
 62
     7
370
   100
100
AcDbPolyline
 90
        2
 70
   128
 43
0.0
 10
219.4293
 20
-245.6135
 10
219.4293
 20
-247.9535
  0
LWPOLYLINE
  5
174
330
3C8
100
AcDbEntity
  8
Level 1
  6
Continuous
 62
     7
370
   100
100
AcDbPolyline
 90
        2
 70
   128
 43
0.0
 10
220.2693
 20
-247.9535
 10
220.2693
 20
-245.6135
  0
LINE
  5
175
330
3C8
100
AcDbEntity
  8
Level 1
  6
Continuous
 62
     7
370
    13
100
AcDbLine
 10
219.6193
 20
-245.5535
 30
0.0
 11
219.6193
 21
-248.0135
 31
0.0
  0
LINE
  5
176
330
3C8
100
AcDbEntity
  8
Level 1
  6
Continuous
 62
     7
370
    13
100
AcDbLine
 10
219.7133
 20
-245.5535
 30
0.0
 11
219.7133
 21
-248.0135
 31
0.0
  0
LINE
  5
177
330
3C8
100
AcDbEntity
  8
Level 1
  6
Continuous
 62
     7
370
    13
100
AcDbLine
 10
219.8073
 20
-245.5535
 30
0.0
 11
219.8073
 21
-248.0135
 31
0.0
  0
LINE
  5
178
330
3C8
100
AcDbEntity
  8
Level 1
  6
Continuous
 62
     7
370
    13
100
AcDbLine
 10
219.9013
 20
-245.5535
 30
0.0
 11
219.9013
 21
-248.0135
 31
0.0
  0
LINE
  5
179
330
3C8
100
AcDbEntity
  8
Level 1
  6
Continuous
 62
     7
370
    13
100
AcDbLine
 10
219.9973
 20
-245.5535
 30
0.0
 11
219.9973
 21
-248.0135
 31
0.0
  0
LINE
  5
17A
330
3C8
100
AcDbEntity
  8
Level 1
  6
Continuous
 62
     7
370
    13
100
AcDbLine
 10
220.0913
 20
-245.5535
 30
0.0
 11
220.0913
 21
-248.0135
 31
0.0
  0
LINE
  5
17B
330
3C8
100
AcDbEntity
  8
Level 1
  6
Continuous
 62
     7
370
    13
100
AcDbLine
 10
220.1853
 20
-245.5535
 30
0.0
 11
220.1853
 21
-248.0135
 31
0.0
  0
LINE
  5
17C
330
3C8
100
AcDbEntity
  8
Level 1
  6
Continuous
 62
     7
370
    13
100
AcDbLine
 10
219.4293
 20
-245.9875
 30
0.0
 11
220.2693
 21
-245.9875
 31
0.0
  0
LINE
  5
17D
330
3C8
100
AcDbEntity
  8
Level 1
  6
Continuous
 62
     7
370
    13
100
AcDbLine
 10
219.4293
 20
-246.2315
 30
0.0
 11
220.2693
 21
-246.2315
 31
0.0
  0
LWPOLYLINE
  5
17E
330
3C8
100
AcDbEntity
  8
Level 1
  6
Continuous
 62
     7
370
   100
100
AcDbPolyline
 90
        2
 70
   128
 43
0.0
 10
220.2093
 20
-245.5535
 10
219.4893
 20
-245.5535
  0
LWPOLYLINE
  5
17F
330
3C8
100
AcDbEntity
  8
Level 1
  6
Continuous
 62
     7
370
   100
100
AcDbPolyline
 90
        2
 70
   128
 43
0.0
 10
219.4893
 20
-248.1335
 10
220.2093
 20
-248.1335
  0
LINE
  5
182
330
3C8
100
AcDbEntity
  8
Level 1
  6
Continuous
 62
     7
370
    40
100
AcDbLine
 10
219.8093
 20
-248.9115
 30
0.0
 11
219.8093
 21
-250.5515
 31
0.0
  0
LINE
  5
185
330
3C8
100
AcDbEntity
  8
Level 1
  6
Continuous
 62
     7
370
    40
100
AcDbLine
 10
219.9993
 20
-248.9115
 30
0.0
 11
219.9993
 21
-250.5515
 31
0.0
  0
LINE
  5
186
330
3C8
100
AcDbEntity
  8
Level 1
  6
Continuous
 62
     7
370
    40
100
AcDbLine
 10
219.9413
 20
-248.1335
 30
0.0
 11
219.9413
 21
-248.9115
 31
0.0
  0
LWPOLYLINE
  5
187
330
3C8
100
AcDbEntity
  8
Level 1
  6
Continuous
 62
     7
370
   100
100
AcDbPolyline
 90
        2
 70
   128
 43
0.0
 10
220.2093
 20
-250.6695
 10
219.4893
 20
-250.6695
  0
LWPOLYLINE
  5
188
330
3C8
100
AcDbEntity
  8
Level 1
  6
Continuous
 62
     7
370
   100
100
AcDbPolyline
 90
        2
 70
   128
 43
0.0
 10
220.2093
 20
-250.5495
 10
219.4893
 20
-250.5495
  0
LWPOLYLINE
  5
189
330
3C8
100
AcDbEntity
  8
Level 1
  6
Continuous
 62
     7
370
   100
100
AcDbPolyline
 90
        2
 70
   128
 43
0.0
 10
219.4893
 20
-248.1335
 10
220.2093
 20
-248.1335
  0
LWPOLYLINE
  5
18A
330
3C8
100
AcDbEntity
  8
Level 1
  6
Continuous
 62
     7
370
   100
100
AcDbPolyline
 90
        2
 70
   128
 43
0.0
 10
220.2693
 20
-250.4895
 10
220.2693
 20
-248.1935
  0
LWPOLYLINE
  5
18B
330
3C8
100
AcDbEntity
  8
Level 1
  6
Continuous
 62
     7
370
   100
100
AcDbPolyline
 90
        2
 70
   128
 43
0.0
 10
219.4293
 20
-248.1935
 10
219.4293
 20
-250.4895
  0
LWPOLYLINE
  5
18C
330
3C8
100
AcDbEntity
  8
Level 1
  6
Continuous
 62
     7
370
   100
100
AcDbPolyline
 90
        2
 70
   128
 43
0.0
 10
219.4893
 20
-248.0135
 10
220.2093
 20
-248.0135
  0
LWPOLYLINE
  5
18D
330
3C8
100
AcDbEntity
  8
Level 1
  6
Continuous
 62
     7
370
   100
100
AcDbPolyline
 90
        2
 70
   128
 43
0.0
 10
220.2093
 20
-245.4335
 10
219.4893
 20
-245.4335
  0
ARC
  5
18E
330
3C8
100
AcDbEntity
  8
Level 1
  6
Continuous
 62
     7
370
   100
100
AcDbCircle
 10
219.48938
 20
-245.37412
 30
0.0
 40
0.06
100
AcDbArc
 50
180.0
 51
270.0
  0
ARC
  5
18F
330
3C8
100
AcDbEntity
  8
Level 1
  6
Continuous
 62
     7
370
   100
100
AcDbCircle
 10
-219.48936
 20
-244.22842
 30
0.0
 40
0.06
210
0.0
220
0.0
230
-1.0
100
AcDbArc
 50
0.0
 51
90.0
  0
ARC
  5
190
330
3C8
100
AcDbEntity
  8
Level 1
  6
Continuous
 62
     7
370
   100
100
AcDbCircle
 10
-220.20936
 20
-244.22842
 30
0.0
 40
0.0599999999112014
210
0.0
220
0.0
230
-1.0
100
AcDbArc
 50
90.0
 51
180.0
  0
ARC
  5
191
330
3C8
100
AcDbEntity
  8
Level 1
  6
Continuous
 62
     7
370
   100
100
AcDbCircle
 10
-220.20936
 20
-245.37412
 30
0.0
 40
0.06
210
0.0
220
0.0
230
-1.0
100
AcDbArc
 50
180.0
 51
270.0
  0
LINE
  5
192
330
3C8
100
AcDbEntity
  8
Level 1
  6
Continuous
 62
     7
370
   100
100
AcDbLine
 10
219.4293
 20
-245.3735
 30
0.0
 11
219.4293
 21
-244.2275
 31
0.0
  0
LINE
  5
193
330
3C8
100
AcDbEntity
  8
Level 1
  6
Continuous
 62
     7
370
   100
100
AcDbLine
 10
220.2693
 20
-245.3735
 30
0.0
 11
220.2693
 21
-244.2275
 31
0.0
  0
LWPOLYLINE
  5
194
330
3C8
100
AcDbEntity
  8
Level 1
  6
Continuous
 62
     7
370
   100
100
AcDbPolyline
 90
        2
 70
   128
 43
0.0
 10
220.2093
 20
-244.1675
 10
219.4893
 20
-244.1675
  0
HATCH
  5
1A7
330
3C8
100
AcDbEntity
  8
Level 1
  6
Continuous
 62
     7
370
     0
100
AcDbHatch
 10
0.0
 20
0.0
 30
0.0
210
0.0
220
0.0
230
1.0
  2
SOLID
 70
     1
 71
     0
 91
        1
 92
        3
 72
     0
 73
     1
 93
       24
 10
219.5253
 20
-243.4415
 10
219.5253
 20
-243.4355
 10
219.5273
 20
-243.4295
 10
219.5293
 20
-243.4235
 10
219.5333
 20
-243.4175
 10
219.5373
 20
-243.4115
 10
219.5413
 20
-243.4055
 10
219.5473
 20
-243.4015
 10
219.5533
 20
-243.3975
 10
219.5613
 20
-243.3955
 10
219.5673
 20
-243.3955
 10
219.5733
 20
-243.3935
 10
219.5733
 20
-243.4095
 10
219.5693
 20
-243.4095
 10
219.5653
 20
-243.4095
 10
219.5613
 20
-243.4115
 10
219.5553
 20
-243.4135
 10
219.5533
 20
-243.4155
 10
219.5493
 20
-243.4195
 10
219.5453
 20
-243.4235
 10
219.5433
 20
-243.4255
 10
219.5413
 20
-243.4315
 10
219.5413
 20
-243.4355
 10
219.5393
 20
-243.4415
 97
        0
 75
     0
 76
     1
 98
        0
  0
HATCH
  5
1A8
330
3C8
100
AcDbEntity
  8
Level 1
  6
Continuous
 62
     7
370
     0
100
AcDbHatch
 10
0.0
 20
0.0
 30
0.0
210
0.0
220
0.0
230
1.0
  2
SOLID
 70
     1
 71
     0
 91
        1
 92
        3
 72
     0
 73
     1
 93
       24
 10
219.8753
 20
-243.4415
 10
219.8753
 20
-243.4355
 10
219.8733
 20
-243.4315
 10
219.8713
 20
-243.4255
 10
219.8693
 20
-243.4235
 10
219.8673
 20
-243.4195
 10
219.8633
 20
-243.4155
 10
219.8593
 20
-243.4135
 10
219.8553
 20
-243.4115
 10
219.8493
 20
-243.4095
 10
219.8453
 20
-243.4095
 10
219.8433
 20
-243.4095
 10
219.8433
 20
-243.3935
 10
219.8493
 20
-243.3955
 10
219.8533
 20
-243.3955
 10
219.8613
 20
-243.3975
 10
219.8673
 20
-243.4015
 10
219.8733
 20
-243.4055
 10
219.8793
 20
-243.4115
 10
219.8833
 20
-243.4175
 10
219.8873
 20
-243.4235
 10
219.8893
 20
-243.4295
 10
219.8893
 20
-243.4355
 10
219.8893
 20
-243.4415
 97
        0
 75
     0
 76
     1
 98
        0
  0
SOLID
  5
1A9
330
3C8
100
AcDbEntity
  8
Level 1
  6
Continuous
 62
     7
370
     0
100
AcDbTrace
 10
219.5733
 20
-243.4095
 30
0.0
 11
219.8433
 21
-243.4095
 31
0.0
 12
219.5733
 22
-243.3935
 32
0.0
 13
219.8433
 23
-243.3935
 33
0.0
  0
HATCH
  5
1AA
330
3C8
100
AcDbEntity
  8
Level 1
  6
Continuous
 62
     7
370
     0
100
AcDbHatch
 10
0.0
 20
0.0
 30
0.0
210
0.0
220
0.0
230
1.0
  2
SOLID
 70
     1
 71
     0
 91
        1
 92
        3
 72
     0
 73
     1
 93
       24
 10
219.5613
 20
-243.6715
 10
219.5533
 20
-243.6675
 10
219.5473
 20
-243.6655
 10
219.5413
 20
-243.6595
 10
219.5373
 20
-243.6555
 10
219.5333
 20
-243.6495
 10
219.5293
 20
-243.6435
 10
219.5273
 20
-243.6375
 10
219.5253
 20
-243.6295
 10
219.5253
 20
-243.6255
 10
219.5393
 20
-243.6255
 10
219.5413
 20
-243.6315
 10
219.5413
 20
-243.6355
 10
219.5433
 20
-243.6395
 10
219.5453
 20
-243.6435
 10
219.5493
 20
-243.6475
 10
219.5533
 20
-243.6515
 10
219.5553
 20
-243.6535
 10
219.5613
 20
-243.6555
 10
219.5653
 20
-243.6575
 10
219.5693
 20
-243.6575
 10
219.5733
 20
-243.6575
 10
219.5733
 20
-243.6715
 10
219.5673
 20
-243.6715
 97
        0
 75
     0
 76
     1
 98
        0
  0
HATCH
  5
1AB
330
3C8
100
AcDbEntity
  8
Level 1
  6
Continuous
 62
     7
370
     0
100
AcDbHatch
 10
0.0
 20
0.0
 30
0.0
210
0.0
220
0.0
230
1.0
  2
SOLID
 70
     1
 71
     0
 91
        1
 92
        3
 72
     0
 73
     1
 93
       24
 10
219.8433
 20
-243.6715
 10
219.8433
 20
-243.6575
 10
219.8453
 20
-243.6575
 10
219.8493
 20
-243.6575
 10
219.8553
 20
-243.6555
 10
219.8593
 20
-243.6535
 10
219.8633
 20
-243.6515
 10
219.8673
 20
-243.6475
 10
219.8693
 20
-243.6435
 10
219.8713
 20
-243.6395
 10
219.8733
 20
-243.6355
 10
219.8753
 20
-243.6315
 10
219.8753
 20
-243.6255
 10
219.8893
 20
-243.6255
 10
219.8893
 20
-243.6295
 10
219.8893
 20
-243.6375
 10
219.8873
 20
-243.6435
 10
219.8833
 20
-243.6495
 10
219.8793
 20
-243.6555
 10
219.8733
 20
-243.6595
 10
219.8673
 20
-243.6655
 10
219.8613
 20
-243.6675
 10
219.8533
 20
-243.6715
 10
219.8493
 20
-243.6715
 97
        0
 75
     0
 76
     1
 98
        0
  0
SOLID
  5
1AC
330
3C8
100
AcDbEntity
  8
Level 1
  6
Continuous
 62
     7
370
     0
100
AcDbTrace
 10
-219.5733
 20
-243.6575
 30
0.0
 11
-219.8433
 21
-243.6575
 31
0.0
 12
-219.5733
 22
-243.6715
 32
0.0
 13
-219.8433
 23
-243.6715
 33
0.0
210
0.0
220
0.0
230
-1.0
  0
SOLID
  5
1AD
330
3C8
100
AcDbEntity
  8
Level 1
  6
Continuous
 62
     7
370
     0
100
AcDbTrace
 10
-219.5253
 20
-243.6255
 30
0.0
 11
-219.5393
 21
-243.6255
 31
0.0
 12
-219.5253
 22
-243.4415
 32
0.0
 13
-219.5393
 23
-243.4415
 33
0.0
210
0.0
220
0.0
230
-1.0
  0
SOLID
  5
1AE
330
3C8
100
AcDbEntity
  8
Level 1
  6
Continuous
 62
     7
370
     0
100
AcDbTrace
 10
219.8893
 20
-243.6255
 30
0.0
 11
219.8753
 21
-243.6255
 31
0.0
 12
219.8893
 22
-243.4415
 32
0.0
 13
219.8753
 23
-243.4415
 33
0.0
  0
HATCH
  5
1AF
330
3C8
100
AcDbEntity
  8
Level 1
  6
Continuous
 62
     7
370
     0
100
AcDbHatch
 10
0.0
 20
0.0
 30
0.0
210
0.0
220
0.0
230
1.0
  2
SOLID
 70
     1
 71
     0
 91
        1
 92
        3
 72
     0
 73
     1
 93
       10
 10
219.6893
 20
-243.5935
 10
219.6893
 20
-243.5615
 10
219.6913
 20
-243.5595
 10
219.6913
 20
-243.5555
 10
219.6933
 20
-243.5515
 10
219.6973
 20
-243.5475
 10
219.6993
 20
-243.5455
 10
219.7033
 20
-243.5435
 10
219.7073
 20
-243.5415
 10
219.7073
 20
-243.5935
 97
        0
 75
     0
 76
     1
 98
        0
  0
HATCH
  5
1B0
330
3C8
100
AcDbEntity
  8
Level 1
  6
Continuous
 62
     7
370
     0
100
AcDbHatch
 10
0.0
 20
0.0
 30
0.0
210
0.0
220
0.0
230
1.0
  2
SOLID
 70
     1
 71
     0
 91
        1
 92
        3
 72
     0
 73
     1
 93
       10
 10
219.7073
 20
-243.5935
 10
219.7073
 20
-243.5415
 10
219.7113
 20
-243.5435
 10
219.7153
 20
-243.5455
 10
219.7193
 20
-243.5475
 10
219.7213
 20
-243.5515
 10
219.7233
 20
-243.5555
 10
219.7253
 20
-243.5595
 10
219.7253
 20
-243.5615
 10
219.7253
 20
-243.5935
 97
        0
 75
     0
 76
     1
 98
        0
  0
SOLID
  5
1B1
330
3C8
100
AcDbEntity
  8
Level 1
  6
Continuous
 62
     7
370
     0
100
AcDbTrace
 10
-219.6213
 20
-243.5195
 30
0.0
 11
-219.6233
 21
-243.5195
 31
0.0
 12
-219.6213
 22
-243.4935
 32
0.0
 13
-219.6233
 23
-243.4935
 33
0.0
210
0.0
220
0.0
230
-1.0
  0
SOLID
  5
1B2
330
3C8
100
AcDbEntity
  8
Level 1
  6
Continuous
 62
     7
370
     0
100
AcDbTrace
 10
-219.6213
 20
-243.5775
 30
0.0
 11
-219.6233
 21
-243.5775
 31
0.0
 12
-219.6213
 22
-243.5535
 32
0.0
 13
-219.6233
 23
-243.5535
 33
0.0
210
0.0
220
0.0
230
-1.0
  0
SOLID
  5
1B3
330
3C8
100
AcDbEntity
  8
Level 1
  6
Continuous
 62
     7
370
     0
100
AcDbTrace
 10
-219.6613
 20
-243.5695
 30
0.0
 11
-219.6633
 21
-243.5695
 31
0.0
 12
-219.6613
 22
-243.5535
 32
0.0
 13
-219.6633
 23
-243.5535
 33
0.0
210
0.0
220
0.0
230
-1.0
  0
SOLID
  5
1B4
330
3C8
100
AcDbEntity
  8
Level 1
  6
Continuous
 62
     7
370
     0
100
AcDbTrace
 10
219.7953
 20
-243.5195
 30
0.0
 11
219.7913
 21
-243.5195
 31
0.0
 12
219.7953
 22
-243.4935
 32
0.0
 13
219.7913
 23
-243.4935
 33
0.0
  0
SOLID
  5
1B5
330
3C8
100
AcDbEntity
  8
Level 1
  6
Continuous
 62
     7
370
     0
100
AcDbTrace
 10
219.7953
 20
-243.5775
 30
0.0
 11
219.7913
 21
-243.5775
 31
0.0
 12
219.7953
 22
-243.5535
 32
0.0
 13
219.7913
 23
-243.5535
 33
0.0
  0
SOLID
  5
1B6
330
3C8
100
AcDbEntity
  8
Level 1
  6
Continuous
 62
     7
370
     0
100
AcDbTrace
 10
219.7533
 20
-243.5695
 30
0.0
 11
219.7513
 21
-243.5695
 31
0.0
 12
219.7533
 22
-243.5535
 32
0.0
 13
219.7513
 23
-243.5535
 33
0.0
  0
HATCH
  5
1B7
330
3C8
100
AcDbEntity
  8
Level 1
  6
Continuous
 62
     7
370
     0
100
AcDbHatch
 10
0.0
 20
0.0
 30
0.0
210
0.0
220
0.0
230
1.0
  2
SOLID
 70
     1
 71
     0
 91
        1
 92
        3
 72
     0
 73
     1
 93
       42
 10
219.5733
 20
-243.6415
 10
219.5653
 20
-243.6395
 10
219.5633
 20
-243.6375
 10
219.5593
 20
-243.6355
 10
219.5573
 20
-243.6295
 10
219.5553
 20
-243.6235
 10
219.5553
 20
-243.4415
 10
219.5553
 20
-243.4375
 10
219.5593
 20
-243.4315
 10
219.5633
 20
-243.4275
 10
219.5693
 20
-243.4255
 10
219.5733
 20
-243.4235
 10
219.7073
 20
-243.4235
 10
219.7073
 20
-243.4735
 10
219.6953
 20
-243.4735
 10
219.6953
 20
-243.4875
 10
219.6933
 20
-243.4875
 10
219.6933
 20
-243.4735
 10
219.6713
 20
-243.4735
 10
219.6713
 20
-243.5035
 10
219.6793
 20
-243.5115
 10
219.6793
 20
-243.5195
 10
219.6513
 20
-243.5195
 10
219.6513
 20
-243.4835
 10
219.6593
 20
-243.4755
 10
219.6593
 20
-243.4455
 10
219.6373
 20
-243.4455
 10
219.6373
 20
-243.4595
 10
219.6353
 20
-243.4595
 10
219.6353
 20
-243.4455
 10
219.6113
 20
-243.4455
 10
219.6113
 20
-243.4595
 10
219.6093
 20
-243.4595
 10
219.6093
 20
-243.4455
 10
219.5853
 20
-243.4455
 10
219.5853
 20
-243.4755
 10
219.5933
 20
-243.4835
 10
219.5933
 20
-243.5715
 10
219.5853
 20
-243.5795
 10
219.5853
 20
-243.6115
 10
219.7073
 20
-243.6115
 10
219.7073
 20
-243.6415
 97
        0
 75
     0
 76
     1
 98
        0
  0
HATCH
  5
1B8
330
3C8
100
AcDbEntity
  8
Level 1
  6
Continuous
 62
     7
370
     0
100
AcDbHatch
 10
0.0
 20
0.0
 30
0.0
210
0.0
220
0.0
230
1.0
  2
SOLID
 70
     1
 71
     0
 91
        1
 92
        3
 72
     0
 73
     1
 93
       42
 10
219.7073
 20
-243.6415
 10
219.7073
 20
-243.6115
 10
219.8313
 20
-243.6115
 10
219.8313
 20
-243.5795
 10
219.8233
 20
-243.5715
 10
219.8233
 20
-243.4835
 10
219.8313
 20
-243.4755
 10
219.8313
 20
-243.4455
 10
219.8073
 20
-243.4455
 10
219.8073
 20
-243.4595
 10
219.8053
 20
-243.4595
 10
219.8053
 20
-243.4455
 10
219.7813
 20
-243.4455
 10
219.7813
 20
-243.4595
 10
219.7793
 20
-243.4595
 10
219.7793
 20
-243.4455
 10
219.7553
 20
-243.4455
 10
219.7553
 20
-243.4755
 10
219.7633
 20
-243.4835
 10
219.7633
 20
-243.5195
 10
219.7373
 20
-243.5195
 10
219.7373
 20
-243.5115
 10
219.7453
 20
-243.5035
 10
219.7453
 20
-243.4735
 10
219.7213
 20
-243.4735
 10
219.7213
 20
-243.4875
 10
219.7193
 20
-243.4875
 10
219.7193
 20
-243.4735
 10
219.7073
 20
-243.4735
 10
219.7073
 20
-243.4235
 10
219.8433
 20
-243.4235
 10
219.8473
 20
-243.4255
 10
219.8533
 20
-243.4275
 10
219.8573
 20
-243.4315
 10
219.8593
 20
-243.4375
 10
219.8613
 20
-243.4415
 10
219.8613
 20
-243.6235
 10
219.8593
 20
-243.6295
 10
219.8573
 20
-243.6355
 10
219.8533
 20
-243.6375
 10
219.8493
 20
-243.6395
 10
219.8433
 20
-243.6415
 97
        0
 75
     0
 76
     1
 98
        0
  0
TEXT
  5
1B9
330
3C8
100
AcDbEntity
  8
Level 1
  6
Continuous
 62
     7
370
     0
100
AcDbText
 10
204.2553
 20
-244.2195
 30
0.0
 40
0.088992
  1
6
  7
Style-CHAR_FAST_FONT
 72
     1
 11
204.28473
 21
-244.175004
 31
0.0
100
AcDbText
 73
     2
  0
LINE
  5
1BA
330
3C8
100
AcDbEntity
  8
Level 1
  6
Continuous
 62
     7
370
     0
100
AcDbLine
 10
203.8093
 20
-254.8695
 30
0.0
 11
220.6293
 21
-254.8695
 31
0.0
  0
LINE
  5
1BB
330
3C8
100
AcDbEntity
  8
Level 1
  6
Continuous
 62
     7
370
     0
100
AcDbLine
 10
203.8093
 20
-242.9895
 30
0.0
 11
203.8093
 21
-254.8695
 31
0.0
  0
LINE
  5
1BC
330
3C8
100
AcDbEntity
  8
Level 1
  6
Continuous
 62
     7
370
     0
100
AcDbLine
 10
220.6293
 20
-254.8695
 30
0.0
 11
220.6293
 21
-242.9895
 31
0.0
  0
LINE
  5
1BD
330
3C8
100
AcDbEntity
  8
Level 1
  6
Continuous
 62
     7
370
     0
100
AcDbLine
 10
220.6293
 20
-242.9895
 30
0.0
 11
203.8093
 21
-242.9895
 31
0.0
  0
TEXT
  5
1BE
330
3C8
100
AcDbEntity
  8
Level 4
  6
Continuous
 62
    52
370
     0
100
AcDbText
 10
221.0553
 20
-255.7295
 30
0.0
 40
0.200004
  1
841 x 594 mm
  7
Style-ENGINEERING
 11
221.0553
 21
-255.629498
 31
0.0
100
AcDbText
 73
     2
  0
LINE
  5
1BF
330
3C8
100
AcDbEntity
  8
Level 63
  6
Continuous
 62
     7
370
    53
100
AcDbLine
 10
226.4233
 20
-254.5135
 30
0.0
 11
226.4233
 21
-254.2815
 31
0.0
  0
LINE
  5
1C0
330
3C8
100
AcDbEntity
  8
Level 63
  6
Continuous
 62
     4
370
    53
100
AcDbLine
 10
226.4233
 20
-254.7455
 30
0.0
 11
226.4233
 21
-254.5135
 31
0.0
  0
LINE
  5
1C1
330
3C8
100
AcDbEntity
  8
Level 63
  6
Continuous
 62
     6
370
    13
100
AcDbLine
 10
226.4233
 20
-254.5135
 30
0.0
 11
226.3733
 21
-254.2875
 31
0.0
  0
LINE
  5
1C2
330
3C8
100
AcDbEntity
  8
Level 63
  6
Continuous
 62
     2
370
    13
100
AcDbLine
 10
226.4233
 20
-254.5135
 30
0.0
 11
226.3253
 21
-254.3035
 31
0.0
  0
LINE
  5
1C3
330
3C8
100
AcDbEntity
  8
Level 63
  6
Continuous
 62
     1
370
    13
100
AcDbLine
 10
226.4233
 20
-254.5135
 30
0.0
 11
226.2833
 21
-254.3295
 31
0.0
  0
LINE
  5
1C4
330
3C8
100
AcDbEntity
  8
Level 63
  6
Continuous
 62
     3
370
    13
100
AcDbLine
 10
226.4233
 20
-254.5135
 30
0.0
 11
226.2473
 21
-254.3635
 31
0.0
  0
LINE
  5
1C5
330
3C8
100
AcDbEntity
  8
Level 63
  6
Continuous
 62
     5
370
    53
100
AcDbLine
 10
226.4233
 20
-254.5135
 30
0.0
 11
226.2193
 21
-254.4055
 31
0.0
  0
LINE
  5
1C6
330
3C8
100
AcDbEntity
  8
Level 63
  6
Continuous
 62
   254
370
    13
100
AcDbLine
 10
226.4233
 20
-254.5135
 30
0.0
 11
226.1993
 21
-254.4515
 31
0.0
  0
LINE
  5
1C7
330
3C8
100
AcDbEntity
  8
Level 63
  6
Continuous
 62
     4
370
    13
100
AcDbLine
 10
226.4233
 20
-254.5135
 30
0.0
 11
226.1913
 21
-254.5015
 31
0.0
  0
LINE
  5
1C8
330
3C8
100
AcDbEntity
  8
Level 63
  6
Continuous
 62
    30
370
    13
100
AcDbLine
 10
226.4233
 20
-254.5135
 30
0.0
 11
226.1953
 21
-254.5515
 31
0.0
  0
LINE
  5
1C9
330
3C8
100
AcDbEntity
  8
Level 63
  6
Continuous
 62
     6
370
    13
100
AcDbLine
 10
226.4233
 20
-254.5135
 30
0.0
 11
226.2073
 21
-254.5995
 31
0.0
  0
LINE
  5
1CA
330
3C8
100
AcDbEntity
  8
Level 63
  6
Continuous
 62
     2
370
    53
100
AcDbLine
 10
226.4233
 20
-254.5135
 30
0.0
 11
226.2313
 21
-254.6435
 31
0.0
  0
LINE
  5
1CB
330
3C8
100
AcDbEntity
  8
Level 63
  6
Continuous
 62
     1
370
    13
100
AcDbLine
 10
226.4233
 20
-254.5135
 30
0.0
 11
226.2633
 21
-254.6815
 31
0.0
  0
LINE
  5
1CC
330
3C8
100
AcDbEntity
  8
Level 63
  6
Continuous
 62
     3
370
    13
100
AcDbLine
 10
226.4233
 20
-254.5135
 30
0.0
 11
226.3033
 21
-254.7135
 31
0.0
  0
LINE
  5
1CD
330
3C8
100
AcDbEntity
  8
Level 63
  6
Continuous
 62
     5
370
    13
100
AcDbLine
 10
226.4233
 20
-254.5135
 30
0.0
 11
226.3493
 21
-254.7335
 31
0.0
  0
LINE
  5
1CE
330
3C8
100
AcDbEntity
  8
Level 63
  6
Continuous
 62
   254
370
    13
100
AcDbLine
 10
226.4233
 20
-254.5135
 30
0.0
 11
226.3973
 21
-254.7455
 31
0.0
  0
LINE
  5
1CF
330
3C8
100
AcDbEntity
  8
Level 63
  6
Continuous
 62
   253
370
    13
100
AcDbLine
 10
226.4233
 20
-254.5135
 30
0.0
 11
226.4493
 21
-254.7455
 31
0.0
  0
LINE
  5
1D0
330
3C8
100
AcDbEntity
  8
Level 63
  6
Continuous
 62
   204
370
    13
100
AcDbLine
 10
226.4233
 20
-254.5135
 30
0.0
 11
226.4973
 21
-254.7335
 31
0.0
  0
LINE
  5
1D1
330
3C8
100
AcDbEntity
  8
Level 63
  6
Continuous
 62
   120
370
    13
100
AcDbLine
 10
226.4233
 20
-254.5135
 30
0.0
 11
226.5433
 21
-254.7135
 31
0.0
  0
LINE
  5
1D2
330
3C8
100
AcDbEntity
  8
Level 63
  6
Continuous
 62
    62
370
    13
100
AcDbLine
 10
226.4233
 20
-254.5135
 30
0.0
 11
226.5833
 21
-254.6835
 31
0.0
  0
LINE
  5
1D3
330
3C8
100
AcDbEntity
  8
Level 63
  6
Continuous
 62
   230
370
    53
100
AcDbLine
 10
226.4233
 20
-254.5135
 30
0.0
 11
226.6153
 21
-254.6455
 31
0.0
  0
LINE
  5
1D4
330
3C8
100
AcDbEntity
  8
Level 63
  6
Continuous
 62
     9
370
    13
100
AcDbLine
 10
226.4233
 20
-254.5135
 30
0.0
 11
226.6393
 21
-254.5995
 31
0.0
  0
LINE
  5
1D5
330
3C8
100
AcDbEntity
  8
Level 63
  6
Continuous
 62
   250
370
    13
100
AcDbLine
 10
226.4233
 20
-254.5135
 30
0.0
 11
226.6533
 21
-254.5515
 31
0.0
  0
LINE
  5
1D6
330
3C8
100
AcDbEntity
  8
Level 63
  6
Continuous
 62
     4
370
    13
100
AcDbLine
 10
226.4233
 20
-254.5135
 30
0.0
 11
226.6553
 21
-254.5015
 31
0.0
  0
LINE
  5
1D7
330
3C8
100
AcDbEntity
  8
Level 63
  6
Continuous
 62
    30
370
    13
100
AcDbLine
 10
226.4233
 20
-254.5135
 30
0.0
 11
226.6473
 21
-254.4515
 31
0.0
  0
LINE
  5
1D8
330
3C8
100
AcDbEntity
  8
Level 63
  6
Continuous
 62
     6
370
    53
100
AcDbLine
 10
226.4233
 20
-254.5135
 30
0.0
 11
226.6293
 21
-254.4055
 31
0.0
  0
LINE
  5
1D9
330
3C8
100
AcDbEntity
  8
Level 63
  6
Continuous
 62
     2
370
    13
100
AcDbLine
 10
226.4233
 20
-254.5135
 30
0.0
 11
226.6013
 21
-254.3635
 31
0.0
  0
LINE
  5
1DA
330
3C8
100
AcDbEntity
  8
Level 63
  6
Continuous
 62
     1
370
    13
100
AcDbLine
 10
226.4233
 20
-254.5135
 30
0.0
 11
226.5633
 21
-254.3295
 31
0.0
  0
LINE
  5
1DB
330
3C8
100
AcDbEntity
  8
Level 63
  6
Continuous
 62
     3
370
    13
100
AcDbLine
 10
226.4233
 20
-254.5135
 30
0.0
 11
226.5213
 21
-254.3035
 31
0.0
  0
LINE
  5
1DC
330
3C8
100
AcDbEntity
  8
Level 63
  6
Continuous
 62
     5
370
    13
100
AcDbLine
 10
226.4233
 20
-254.5135
 30
0.0
 11
226.4733
 21
-254.2875
 31
0.0
  0
TEXT
  5
1DD
330
3C8
100
AcDbEntity
  8
Level 63
  6
Continuous
 62
     1
370
    13
100
AcDbText
 10
226.4173
 20
-254.2635
 30
0.0
 40
0.033444
  1
0
 41
0.759598
  7
Style-ENGINEERING
 72
     1
 11
226.425719
 21
-254.246778
 31
0.0
100
AcDbText
 73
     2
  0
TEXT
  5
1DE
330
3C8
100
AcDbEntity
  8
Level 63
  6
Continuous
 62
     1
370
    13
100
AcDbText
 10
226.6513
 20
-254.4115
 30
0.0
 40
0.033384
  1
5
 50
27.839281
 41
0.758447
  7
Style-ENGINEERING
 72
     1
 11
226.657859
 21
-254.408036
 31
0.0
100
AcDbText
  0
TEXT
  5
1DF
330
3C8
100
AcDbEntity
  8
Level 63
  6
Continuous
 62
     1
370
    13
100
AcDbText
 10
226.6173
 20
-254.6655
 30
0.0
 40
0.033372
  1
10
 50
325.788931
 41
0.75872
  7
Style-ENGINEERING
 72
     1
 11
226.634709
 21
-254.677336
 31
0.0
100
AcDbText
  0
TEXT
  5
1E0
330
3C8
100
AcDbEntity
  8
Level 63
  6
Continuous
 62
     1
370
    13
100
AcDbText
 10
226.4033
 20
-254.7975
 30
0.0
 40
0.033384
  1
15
 41
0.758447
  7
Style-ENGINEERING
 72
     1
 11
226.423378
 21
-254.780808
 31
0.0
100
AcDbText
 73
     2
  0
TEXT
  5
1E1
330
3C8
100
AcDbEntity
  8
Level 63
  6
Continuous
 62
     1
370
    13
100
AcDbText
 10
226.1933
 20
-254.6895
 30
0.0
 40
0.033384
  1
20
 50
34.0999
 41
0.758447
  7
Style-ENGINEERING
 72
     1
 11
226.210732
 21
-254.677698
 31
0.0
100
AcDbText
  0
TEXT
  5
1E2
330
3C8
100
AcDbEntity
  8
Level 63
  6
Continuous
 62
     1
370
    13
100
AcDbText
 10
226.4753
 20
-254.2775
 30
0.0
 40
0.033384
  1
1
 41
0.758447
  7
Style-ENGINEERING
 72
     1
 11
226.479521
 21
-254.260808
 31
0.0
100
AcDbText
 73
     2
  0
TEXT
  5
1E3
330
3C8
100
AcDbEntity
  8
Level 63
  6
Continuous
 62
     1
370
     0
100
AcDbText
 10
226.0493
 20
-254.9255
 30
0.0
 40
0.072276
  1
COLOR WHEEL (STD.TBL)
 41
0.758924
  7
Style-COMPRESSED
 72
     1
 11
226.414476
 21
-254.853224
 31
0.0
100
AcDbText
 73
     3
  0
TEXT
  5
1E4
330
3C8
100
AcDbEntity
  8
Level 63
  6
Continuous
 62
     1
370
    13
100
AcDbText
 10
226.1653
 20
-254.3915
 30
0.0
 40
0.033384
  1
25
 50
332.053069
 41
0.758447
  7
Style-ENGINEERING
 72
     1
 11
226.183037
 21
-254.40091
 31
0.0
100
AcDbText
  0
TEXT
  5
1E5
330
3C8
100
AcDbEntity
  8
Level 63
  6
Continuous
 62
     1
370
    13
100
AcDbText
 10
226.3493
 20
-254.2735
 30
0.0
 40
0.033396
  1
29
 41
0.754222
  7
Style-ENGINEERING
 72
     1
 11
226.369241
 21
-254.2735
 31
0.0
100
AcDbText
  0
TEXT
  5
1ED
330
3C8
100
AcDbEntity
  8
Level 47
  6
Continuous
 62
     7
370
     0
100
AcDbText
 10
221.0993
 20
-254.1615
 30
0.0
 40
0.068904
  1
LABELS, AND SECT. REFERENCES
  7
Style-CHAR_FAST_FONT
 11
221.0993
 21
-254.127048
 31
0.0
100
AcDbText
 73
     2
  0
TEXT
  5
1EE
330
3C8
100
AcDbEntity
  8
Level 47
  6
Continuous
 62
     7
370
     0
100
AcDbText
 10
221.1093
 20
-254.4295
 30
0.0
 40
0.09732
  1
SUBTITLES
  7
Style-CHAR_FAST_FONT
 11
221.1093
 21
-254.38084
 31
0.0
100
AcDbText
 73
     2
  0
TEXT
  5
1EF
330
3C8
100
AcDbEntity
  8
Level 47
  6
Continuous
 62
     7
370
     0
100
AcDbText
 10
221.1093
 20
-254.6115
 30
0.0
 40
0.110604
  1
MAIN TITLES
  7
Style-CHAR_FAST_FONT
 11
221.1093
 21
-254.556198
 31
0.0
100
AcDbText
 73
     2
  0
TEXT
  5
1F0
330
3C8
100
AcDbEntity
  8
Level 47
  6
Continuous
 62
     7
370
     0
100
AcDbText
 10
221.1053
 20
-254.2895
 30
0.0
 40
0.079176
  1
DETAIL AND NOTE REFERENCES
  7
Style-CHAR_FAST_FONT
 11
221.1053
 21
-254.249912
 31
0.0
100
AcDbText
 73
     2
  0
TEXT
  5
1F1
330
3C8
100
AcDbEntity
  8
Level 46
  6
Continuous
 62
     7
370
    13
100
AcDbText
 10
221.1173
 20
-254.9295
 30
0.0
 40
0.078612
  1
Freehand style
  7
Style-ITALICS
 11
221.1173
 21
-254.890194
 31
0.0
100
AcDbText
 73
     2
  0
LINE
  5
1F2
330
3C8
100
AcDbEntity
  8
Level 47
  6
Continuous
 62
     7
370
    40
100
AcDbLine
 10
221.1193
 20
-254.6415
 30
0.0
 11
222.0593
 21
-254.6415
 31
0.0
  0
LINE
  5
1F3
330
3C8
100
AcDbEntity
  8
Level 47
  6
Continuous
 62
     7
370
    40
100
AcDbLine
 10
221.1173
 20
-254.4495
 30
0.0
 11
221.7793
 21
-254.4495
 31
0.0
  0
ARC
  5
1F4
330
3C8
100
AcDbEntity
  8
Level 46
  6
Continuous
 62
     7
370
     0
100
AcDbCircle
 10
-222.030897
 20
-255.385591
 30
0.0
 40
0.4945054020163926
210
0.0
220
0.0
230
-1.0
100
AcDbArc
 50
76.962117
 51
104.245044
  0
HATCH
  5
1F5
330
3C8
100
AcDbEntity
  8
Level 46
  6
Continuous
 62
     7
370
    13
100
AcDbHatch
 10
0.0
 20
0.0
 30
0.0
210
0.0
220
0.0
230
1.0
  2
SOLID
 70
     1
 71
     0
 91
        1
 92
        3
 72
     0
 73
     1
 93
        9
 10
222.1513
 20
-254.9075
 10
222.0713
 20
-254.9015
 10
222.0773
 20
-254.8995
 10
222.0793
 20
-254.8975
 10
222.0813
 20
-254.8935
 10
222.0813
 20
-254.8915
 10
222.0813
 20
-254.8895
 10
222.0793
 20
-254.8835
 10
222.0773
 20
-254.8795
 97
        0
 75
     0
 76
     1
 98
        0
  0
CIRCLE
  5
1F6
330
3C8
100
AcDbEntity
  8
Level 46
  6
Continuous
 62
     7
370
     0
100
AcDbCircle
 10
222.110367
 20
-254.897407
 30
0.0
 40
0.0633101016155107
  0
LINE
  5
1F7
330
3C8
100
AcDbEntity
  8
Level 46
  6
Continuous
 62
     7
370
    40
100
AcDbLine
 10
222.3013
 20
-254.9075
 30
0.0
 11
222.5193
 21
-254.9075
 31
0.0
  0
SOLID
  5
1F8
330
3C8
100
AcDbEntity
  8
Level 46
  6
Continuous
 62
     7
370
    13
100
AcDbTrace
 10
-222.2653
 20
-254.9075
 30
0.0
 11
-222.3493
 21
-254.8835
 31
0.0
 12
-222.3493
 22
-254.9295
 32
0.0
 13
-222.3493
 23
-254.9295
 33
0.0
210
0.0
220
0.0
230
-1.0
  0
MTEXT
  5
1F9
330
3C8
100
AcDbEntity
  8
Level 46
  6
Continuous
 62
     7
370
     0
100
AcDbMText
 10
222.2213
 20
-255.11506
 30
0.0
 40
0.04536
 41
0.0
 71
     4
 72
     1
  1
Arrow\Psizes\P
  7
Style-WORKING
 73
     2
 44
1.000829
  0
ARC
  5
1FC
330
3C8
100
AcDbEntity
  8
Level 46
  6
Continuous
 62
     7
370
     0
100
AcDbCircle
 10
-222.334289
 20
-254.871146
 30
0.0
 40
0.2306090157229863
210
0.0
220
0.0
230
-1.0
100
AcDbArc
 50
304.574164
 51
337.396683
  0
CIRCLE
  5
1FD
330
3C8
100
AcDbEntity
  8
Level 46
  6
Continuous
 62
     7
370
     0
100
AcDbCircle
 10
222.31261
 20
-254.907802
 30
0.0
 40
0.0633101016155107
  0
ARC
  5
1FE
330
3C8
100
AcDbEntity
  8
Level 46
  6
Continuous
 62
     7
370
     0
100
AcDbCircle
 10
-222.349121
 20
-255.060286
 30
0.0
 40
0.1456986246784501
210
0.0
220
0.0
230
-1.0
100
AcDbArc
 50
359.708039
 51
52.726975
  0
TEXT
  5
1FF
330
3C8
100
AcDbEntity
  8
Level 46
  6
Continuous
 62
     7
370
     0
100
AcDbText
 10
221.1053
 20
-254.0635
 30
0.0
 40
0.045
  1
SMALL LABELS (USE SPARINGLY)
  7
Style-WORKING
 11
221.1053
 21
-254.041
 31
0.0
100
AcDbText
 73
     2
  0
TEXT
  5
200
330
3C8
100
AcDbEntity
  8
Level 46
  6
Continuous
 62
     1
370
    13
100
AcDbText
 10
223.7793
 20
-254.5575
 30
0.0
 40
0.05952
  1
ARCH. FREEHAND
  7
Style-FANCY
 11
223.7793
 21
-254.52774
 31
0.0
100
AcDbText
 73
     2
  0
TEXT
  5
201
330
3C8
100
AcDbEntity
  8
Level 46
  6
Continuous
 62
     1
370
    13
100
AcDbText
 10
223.0693
 20
-254.5575
 30
0.0
 40
0.074424
  1
Freehand
  7
Style-ITALICS
 11
223.0693
 21
-254.520288
 31
0.0
100
AcDbText
 73
     2
  0
TEXT
  5
202
330
3C8
100
AcDbEntity
  8
Level 47
  6
Continuous
 62
    30
370
    53
100
AcDbText
 10
223.0753
 20
-254.4175
 30
0.0
 40
0.095604
  1
200---MAIN TITLES
  7
Style-FANCY
 11
223.0753
 21
-254.369698
 31
0.0
100
AcDbText
 73
     2
  0
TEXT
  5
203
330
3C8
100
AcDbEntity
  8
Level 47
  6
Continuous
 62
    30
370
    40
100
AcDbText
 10
223.0553
 20
-254.2795
 30
0.0
 40
0.083556
  1
175---SUB TITLES
  7
Style-FANCY
 11
223.0553
 21
-254.237722
 31
0.0
100
AcDbText
 73
     2
  0
TEXT
  5
204
330
3C8
100
AcDbEntity
  8
Level 46
  6
Continuous
 62
     1
370
    40
100
AcDbText
 10
224.2953
 20
-254.1595
 30
0.0
 40
0.066972
  1
140
  7
Style-FANCY
 11
224.2953
 21
-254.126014
 31
0.0
100
AcDbText
 73
     2
  0
TEXT
  5
205
330
3C8
100
AcDbEntity
  8
Level 48
  6
Continuous
 62
     1
370
    13
100
AcDbText
 10
223.9613
 20
-254.1515
 30
0.0
 40
0.057252
  1
120
  7
Style-FANCY
 11
223.9613
 21
-254.122874
 31
0.0
100
AcDbText
 73
     2
  0
TEXT
  5
206
330
3C8
100
AcDbEntity
  8
Level 46
  6
Continuous
 62
     1
370
    40
100
AcDbText
 10
223.0593
 20
-254.0315
 30
0.0
 40
0.083556
  1
CORPS TEXT STANDARDS
  7
Style-FANCY
 11
223.0593
 21
-253.989722
 31
0.0
100
AcDbText
 73
     2
  0
TEXT
  5
207
330
3C8
100
AcDbEntity
  8
Level 46
  6
Continuous
 62
     1
370
     0
100
AcDbText
 10
223.0773
 20
-254.1515
 30
0.0
 40
0.042936
  1
90--(RARELY USED)
  7
Style-FANCY
 11
223.0773
 21
-254.130032
 31
0.0
100
AcDbText
 73
     2
  0
TEXT
  5
208
330
3C8
100
AcDbEntity
  8
Level 46
  6
Continuous
 62
     1
370
     0
100
AcDbText
 10
223.0793
 20
-254.6535
 30
0.0
 40
0.042936
  1
N0.'S ARE WRICO EQUIVALENTS
  7
Style-FANCY
 11
223.0793
 21
-254.632032
 31
0.0
100
AcDbText
 73
     2
  0
TEXT
  5
209
330
3C8
100
AcDbEntity
  8
Level 46
  6
Continuous
 62
     1
370
     0
100
AcDbText
 10
223.0773
 20
-254.7215
 30
0.0
 40
0.042936
  1
FOR DRAFTING'S REFERENCE
  7
Style-FANCY
 11
223.0773
 21
-254.700032
 31
0.0
100
AcDbText
 73
     2
  0
LINE
  5
20A
330
3C8
100
AcDbEntity
  8
Level 46
  6
Continuous
 62
     1
370
    40
100
AcDbLine
 10
223.0613
 20
-254.0615
 30
0.0
 11
224.6293
 21
-254.0615
 31
0.0
  0
MTEXT
  5
20B
330
3C8
100
AcDbEntity
  8
Level 46
  6
DGN Style 1
 62
     1
370
    13
100
AcDbMText
 10
223.0793
 20
-254.7895
 30
0.0
 40
0.074424
 41
0.0
 71
     1
 72
     1
  1
Freehand \Ptext LV=46\P
  7
Style-ITALICS
 73
     2
 44
0.877616
  0
MTEXT
  5
20E
330
3C8
100
AcDbEntity
  8
Level 47
  6
DGN Style 1
 62
    30
370
    53
100
AcDbMText
 10
223.630388
 20
-255.197434
 30
0.0
 40
0.095604
 41
0.0
 71
     5
 72
     1
  1
200 MAIN TITLE\PLEVEL = 47\P
  7
Style-FANCY
 73
     2
 44
0.89226
  0
MTEXT
  5
211
330
3C8
100
AcDbEntity
  8
Level 41
  6
Continuous
 62
     6
370
    40
100
AcDbMText
 10
224.4913
 20
-255.1275
 30
0.0
 40
0.066972
 41
0.0
 71
     1
 72
     1
  1
MATCHLINE AREA X\PSEE SHEET SX\P
  7
Style-FANCY
 73
     2
 44
0.890248
  0
MTEXT
  5
214
330
3C8
100
AcDbEntity
  8
Level 46
  6
Continuous
 62
     1
370
    13
100
AcDbMText
 10
223.7233
 20
-254.8095
 30
0.0
 40
0.06
 41
0.0
 71
     1
 72
     1
  1
ARCH FREEHAND\PLEVEL=46\P
  7
Style-FANCY
 73
     2
 44
1.004016
  0
TEXT
  5
217
330
3C8
100
AcDbEntity
  8
Level 46
  6
Continuous
 62
     7
370
    13
100
AcDbText
 10
221.1153
 20
-254.7815
 30
0.0
 40
0.062004
  1
2.5MM ENGR. FONT 3 (EQUAL TILE)
 41
0.870912
  7
Style-ENGINEERING
 11
221.1153
 21
-254.750498
 31
0.0
100
AcDbText
 73
     2
  0
TEXT
  5
218
330
3C8
100
AcDbEntity
  8
Level 46
  6
Continuous
 62
     7
370
    13
100
AcDbText
 10
221.1113
 20
-255.0715
 30
0.0
 40
0.062004
  1
ARCHITECTURAL FT=2
  7
Style-FANCY
 11
221.1113
 21
-255.040498
 31
0.0
100
AcDbText
 73
     2
  0
INSERT
  5
21B
330
3C8
100
AcDbEntity
  8
Level 46
  6
Continuous
 62
     7
370
     0
100
AcDbBlockReference
  2
LARROW_2
 10
216.9609
 20
-244.5957
 30
0.0
 41
20.0
 42
20.0
 43
20.0
  0
INSERT
  5
21D
330
3C8
100
AcDbEntity
  8
Level 46
  6
Continuous
 62
     7
370
     0
100
AcDbBlockReference
  2
LARROW_2
 10
215.1609
 20
-244.5957
 30
0.0
 41
20.0
 42
20.0
 43
20.0
 50
180.0
  0
LINE
  5
220
330
3C8
100
AcDbEntity
  8
Level 10
  6
Continuous
 62
     7
370
    13
100
AcDbLine
 10
209.6344
 20
-245.6292
 30
0.0
 11
212.2252
 21
-245.6292
 31
0.0
  0
INSERT
  5
223
330
3C8
100
AcDbEntity
  8
Level 46
  6
Continuous
 62
     7
370
     0
100
AcDbBlockReference
  2
LARROW_2
 10
210.9298
 20
-245.4514
 30
0.0
 41
20.0
 42
20.0
 43
20.0
 50
90.0
  0
INSERT
  5
225
330
3C8
100
AcDbEntity
  8
Level 46
  6
Continuous
 62
     7
370
     0
100
AcDbBlockReference
  2
LARROW_2
 10
210.9298
 20
-245.6292
 30
0.0
 41
20.0
 42
20.0
 43
20.0
 50
270.0
  0
INSERT
  5
227
330
3C8
100
AcDbEntity
  8
Level 46
  6
Continuous
 62
     7
370
     0
100
AcDbBlockReference
  2
LARROW_2
 10
210.9298
 20
-245.6292
 30
0.0
 41
20.0
 42
20.0
 43
20.0
 50
90.0
  0
INSERT
  5
229
330
3C8
100
AcDbEntity
  8
Level 46
  6
Continuous
 62
     7
370
     0
100
AcDbBlockReference
  2
LARROW_2
 10
210.9298
 20
-245.9292
 30
0.0
 41
20.0
 42
20.0
 43
20.0
 50
270.0
  0
LINE
  5
22C
330
3C8
100
AcDbEntity
  8
Level 10
  6
DGN Style 3
 62
     7
370
    13
100
AcDbLine
 10
210.9298
 20
-246.2292
 30
0.0
 11
214.9272
 21
-246.2958
 31
0.0
  0
LINE
  5
22D
330
3C8
100
AcDbEntity
  8
Level 10
  6
DGN Style 3
 62
     7
370
    13
100
AcDbLine
 10
210.9298
 20
-246.2292
 30
0.0
 11
206.9323
 21
-246.2958
 31
0.0
  0
INSERT
  5
22E
330
3C8
100
AcDbEntity
  8
Level 46
  6
Continuous
 62
     7
370
     0
100
AcDbBlockReference
  2
LARROW_2
 10
210.9298
 20
-245.9292
 30
0.0
 41
20.0
 42
20.0
 43
20.0
 50
90.0
  0
INSERT
  5
230
330
3C8
100
AcDbEntity
  8
Level 46
  6
Continuous
 62
     7
370
     0
100
AcDbBlockReference
  2
LARROW_2
 10
210.9298
 20
-246.2292
 30
0.0
 41
20.0
 42
20.0
 43
20.0
 50
270.0
  0
INSERT
  5
232
330
3C8
100
AcDbEntity
  8
Level 46
  6
Continuous
 62
     7
370
     0
100
AcDbBlockReference
  2
SQUIG
 10
210.9477
 20
-246.1003
 30
0.0
 41
20.0
 42
20.0
 43
20.0
 50
190.038636
  0
INSERT
  5
234
330
3C8
100
AcDbEntity
  8
Level 46
  6
Continuous
 62
     7
370
     0
100
AcDbBlockReference
  2
SQUIG
 10
210.9424
 20
-245.7808
 30
0.0
 41
20.0
 42
20.0
 43
20.0
 50
198.207766
  0
INSERT
  5
236
330
3C8
100
AcDbEntity
  8
Level 46
  6
Continuous
 62
     7
370
     0
100
AcDbBlockReference
  2
SQUIG
 10
210.9425
 20
-245.5537
 30
0.0
 41
19.999998
 42
19.999998
 43
19.999998
 50
184.080144
  0
INSERT
  5
23A
330
3C8
100
AcDbEntity
  8
Level 46
  6
Continuous
 62
     7
370
     0
100
AcDbBlockReference
  2
LARROW_2
 10
211.6473
 20
-244.9942
 30
0.0
 41
20.0
 42
20.0
 43
20.0
  0
INSERT
  5
23C
330
3C8
100
AcDbEntity
  8
Level 46
  6
Continuous
 62
     7
370
     0
100
AcDbBlockReference
  2
LARROW_2
 10
210.2122
 20
-244.9942
 30
0.0
 41
20.0
 42
20.0
 43
20.0
 50
180.0
  0
INSERT
  5
23E
330
3C8
100
AcDbEntity
  8
Level 46
  6
Continuous
 62
     7
370
     0
100
AcDbBlockReference
  2
LARROW_2
 10
209.4844
 20
-244.791
 30
0.0
 41
20.0
 42
20.0
 43
20.0
  0
INSERT
  5
240
330
3C8
100
AcDbEntity
  8
Level 46
  6
Continuous
 62
     7
370
     0
100
AcDbBlockReference
  2
LARROW_2
 10
209.6344
 20
-244.791
 30
0.0
 41
20.0
 42
20.0
 43
20.0
 50
180.0
  0
INSERT
  5
242
330
3C8
100
AcDbEntity
  8
Level 46
  6
Continuous
 62
     7
370
     0
100
AcDbBlockReference
  2
LARROW_2
 10
210.9298
 20
-244.791
 30
0.0
 41
20.0
 42
20.0
 43
20.0
  0
INSERT
  5
244
330
3C8
100
AcDbEntity
  8
Level 46
  6
Continuous
 62
     7
370
     0
100
AcDbBlockReference
  2
LARROW_2
 10
210.9298
 20
-244.791
 30
0.0
 41
20.0
 42
20.0
 43
20.0
 50
180.0
  0
INSERT
  5
246
330
3C8
100
AcDbEntity
  8
Level 46
  6
Continuous
 62
     7
370
     0
100
AcDbBlockReference
  2
LARROW_2
 10
210.1751
 20
-245.2782
 30
0.0
 41
20.000002
 42
20.000002
 43
20.000002
 50
303.252844
  0
INSERT
  5
248
330
3C8
100
AcDbEntity
  8
Level 46
  6
Continuous
 62
     7
370
     0
100
AcDbBlockReference
  2
LARROW_2
 10
212.2252
 20
-244.791
 30
0.0
 41
20.0
 42
20.0
 43
20.0
  0
INSERT
  5
24A
330
3C8
100
AcDbEntity
  8
Level 46
  6
Continuous
 62
     7
370
     0
100
AcDbBlockReference
  2
LARROW_2
 10
212.3752
 20
-244.791
 30
0.0
 41
20.0
 42
20.0
 43
20.0
 50
180.0
  0
INSERT
  5
24E
330
3C8
100
AcDbEntity
  8
Level 46
  6
Continuous
 62
     7
370
     0
100
AcDbBlockReference
  2
LARROW_2
 10
210.9298
 20
-244.5878
 30
0.0
 41
20.0
 42
20.0
 43
20.0
 50
180.0
  0
INSERT
  5
250
330
3C8
100
AcDbEntity
  8
Level 46
  6
Continuous
 62
     7
370
     0
100
AcDbBlockReference
  2
LARROW_2
 10
210.9298
 20
-244.5878
 30
0.0
 41
20.0
 42
20.0
 43
20.0
  0
LINE
  5
252
330
3C8
100
AcDbEntity
  8
Level 46
  6
Continuous
 62
     7
370
     0
100
AcDbLine
 10
207.8798
 20
-245.9086
 30
0.0
 11
207.8798
 21
-244.4862
 31
0.0
  0
INSERT
  5
253
330
3C8
100
AcDbEntity
  8
Level 46
  6
Continuous
 62
     7
370
     0
100
AcDbBlockReference
  2
LARROW_2
 10
207.8798
 20
-244.5878
 30
0.0
 41
20.0
 42
20.0
 43
20.0
 50
180.0
  0
LINE
  5
255
330
3C8
100
AcDbEntity
  8
Level 46
  6
Continuous
 62
     7
370
     0
100
AcDbLine
 10
213.9798
 20
-245.934
 30
0.0
 11
213.9798
 21
-244.4862
 31
0.0
  0
INSERT
  5
256
330
3C8
100
AcDbEntity
  8
Level 46
  6
Continuous
 62
     7
370
     0
100
AcDbBlockReference
  2
LARROW_2
 10
213.9798
 20
-244.5878
 30
0.0
 41
20.0
 42
20.0
 43
20.0
  0
LINE
  5
258
330
3C8
100
AcDbEntity
  8
Level 46
  6
Continuous
 62
     7
370
     0
100
AcDbLine
 10
212.3752
 20
-244.7402
 30
0.0
 11
212.3752
 21
-245.4006
 31
0.0
  0
LINE
  5
25B
330
3C8
100
AcDbEntity
  8
Level 46
  6
Continuous
 62
     7
370
     0
100
AcDbLine
 10
209.4844
 20
-244.7402
 30
0.0
 11
209.4844
 21
-245.4006
 31
0.0
  0
LINE
  5
25E
330
3C8
100
AcDbEntity
  8
Level 46
  6
Continuous
 62
     7
370
     0
100
AcDbLine
 10
210.2122
 20
-248.7026
 30
0.0
 11
210.2122
 21
-248.9994
 31
0.0
  0
LINE
  5
25F
330
3C8
100
AcDbEntity
  8
Level 10
  6
Continuous
 62
     7
370
    13
100
AcDbLine
 10
210.1432
 20
-249.0201
 30
0.0
 11
210.2122
 21
-249.0201
 31
0.0
  0
LINE
  5
260
330
3C8
100
AcDbEntity
  8
Level 10
  6
Continuous
 62
     7
370
    13
100
AcDbLine
 10
210.2112
 20
-249.0499
 30
0.0
 11
210.1978
 21
-249.0552
 31
0.0
  0
LINE
  5
261
330
3C8
100
AcDbEntity
  8
Level 10
  6
Continuous
 62
     7
370
    13
100
AcDbLine
 10
210.1442
 20
-249.0499
 30
0.0
 11
210.1576
 21
-249.0552
 31
0.0
  0
LINE
  5
262
330
3C8
100
AcDbEntity
  8
Level 10
  6
Continuous
 62
     7
370
    13
100
AcDbLine
 10
210.1698
 20
-249.0729
 30
0.0
 11
210.1698
 21
-249.1461
 31
0.0
  0
LINE
  5
263
330
3C8
100
AcDbEntity
  8
Level 10
  6
Continuous
 62
     7
370
    13
100
AcDbLine
 10
210.1856
 20
-249.0729
 30
0.0
 11
210.1856
 21
-249.1461
 31
0.0
  0
LINE
  5
264
330
3C8
100
AcDbEntity
  8
Level 10
  6
Continuous
 62
     7
370
    13
100
AcDbLine
 10
210.1432
 20
-249.0201
 30
0.0
 11
210.1432
 21
-249.0484
 31
0.0
  0
LINE
  5
265
330
3C8
100
AcDbEntity
  8
Level 10
  6
Continuous
 62
     7
370
    13
100
AcDbLine
 10
210.2122
 20
-249.0201
 30
0.0
 11
210.2122
 21
-249.0484
 31
0.0
  0
LINE
  5
266
330
3C8
100
AcDbEntity
  8
Level 10
  6
Continuous
 62
     7
370
    13
100
AcDbLine
 10
210.2476
 20
-249.176
 30
0.0
 11
210.2476
 21
-249.1884
 31
0.0
  0
LINE
  5
267
330
3C8
100
AcDbEntity
  8
Level 10
  6
Continuous
 62
     7
370
    13
100
AcDbLine
 10
210.1079
 20
-249.1884
 30
0.0
 11
210.1079
 21
-249.176
 31
0.0
  0
LINE
  5
268
330
3C8
100
AcDbEntity
  8
Level 10
  6
Continuous
 62
     7
370
    13
100
AcDbLine
 10
210.1091
 20
-249.1744
 30
0.0
 11
210.1547
 21
-249.1647
 31
0.0
  0
LINE
  5
269
330
3C8
100
AcDbEntity
  8
Level 10
  6
Continuous
 62
     7
370
    13
100
AcDbLine
 10
210.2463
 20
-249.1744
 30
0.0
 11
210.2007
 21
-249.1647
 31
0.0
  0
ARC
  5
26A
330
3C8
100
AcDbEntity
  8
Level 10
  6
Continuous
 62
     7
370
    13
100
AcDbCircle
 10
-210.109435
 20
-249.175978
 30
0.0
 40
0.0015875000000011
210
0.0
220
0.0
230
-1.0
100
AcDbArc
 50
0.0
 51
77.991153
  0
ARC
  5
26B
330
3C8
100
AcDbEntity
  8
Level 10
  6
Continuous
 62
     7
370
    13
100
AcDbCircle
 10
210.109435
 20
-249.186821
 30
0.0
 40
0.0015875000000011
100
AcDbArc
 50
180.0
 51
270.0
  0
ARC
  5
26C
330
3C8
100
AcDbEntity
  8
Level 10
  6
Continuous
 62
     7
370
    13
100
AcDbCircle
 10
-210.24596
 20
-249.175978
 30
0.0
 40
0.0015875000000024
210
0.0
220
0.0
230
-1.0
100
AcDbArc
 50
102.008847
 51
180.0
  0
ARC
  5
26D
330
3C8
100
AcDbEntity
  8
Level 10
  6
Continuous
 62
     7
370
    13
100
AcDbCircle
 10
210.24596
 20
-249.186821
 30
0.0
 40
0.0015875000000011
100
AcDbArc
 50
270.0
 51
0.0
  0
ARC
  5
26E
330
3C8
100
AcDbEntity
  8
Level 10
  6
Continuous
 62
     7
370
    13
100
AcDbCircle
 10
210.15071
 20
-249.146099
 30
0.0
 40
0.0190500001856248
100
AcDbArc
 50
282.009525
 51
0.0
  0
ARC
  5
26F
330
3C8
100
AcDbEntity
  8
Level 10
  6
Continuous
 62
     7
370
    13
100
AcDbCircle
 10
-210.204685
 20
-249.146099
 30
0.0
 40
0.0190500001856248
210
0.0
220
0.0
230
-1.0
100
AcDbArc
 50
282.009525
 51
0.0
  0
ARC
  5
270
330
3C8
100
AcDbEntity
  8
Level 10
  6
Continuous
 62
     7
370
    13
100
AcDbCircle
 10
-210.152697
 20
-249.029659
 30
0.0
 40
0.0095250000000381
210
0.0
220
0.0
230
-1.0
100
AcDbArc
 50
0.0
 51
90.0
  0
ARC
  5
271
330
3C8
100
AcDbEntity
  8
Level 10
  6
Continuous
 62
     7
370
    13
100
AcDbCircle
 10
-210.202697
 20
-249.029659
 30
0.0
 40
0.0095250000000381
210
0.0
220
0.0
230
-1.0
100
AcDbArc
 50
90.0
 51
180.0
  0
ARC
  5
272
330
3C8
100
AcDbEntity
  8
Level 10
  6
Continuous
 62
     7
370
    13
100
AcDbCircle
 10
210.15071
 20
-249.072902
 30
0.0
 40
0.0190500001855766
100
AcDbArc
 50
0.0
 51
68.651825
  0
ARC
  5
273
330
3C8
100
AcDbEntity
  8
Level 10
  6
Continuous
 62
     7
370
    13
100
AcDbCircle
 10
-210.204685
 20
-249.072902
 30
0.0
 40
0.0190500001855766
210
0.0
220
0.0
230
-1.0
100
AcDbArc
 50
0.0
 51
68.651825
  0
ARC
  5
274
330
3C8
100
AcDbEntity
  8
Level 10
  6
Continuous
 62
     7
370
    13
100
AcDbCircle
 10
210.14476
 20
-249.048418
 30
0.0
 40
0.0015875000000011
100
AcDbArc
 50
180.0
 51
248.646442
  0
ARC
  5
275
330
3C8
100
AcDbEntity
  8
Level 10
  6
Continuous
 62
     7
370
    13
100
AcDbCircle
 10
210.210635
 20
-249.048418
 30
0.0
 40
0.0015874999999969
100
AcDbArc
 50
291.353558
 51
0.0
  0
LINE
  5
276
330
3C8
100
AcDbEntity
  8
Level 10
  6
Continuous
 62
     7
370
    13
100
AcDbLine
 10
210.1079
 20
-249.1884
 30
0.0
 11
210.2476
 21
-249.1884
 31
0.0
  0
LINE
  5
277
330
3C8
100
AcDbEntity
  8
Level 10
  6
Continuous
 62
     7
370
    13
100
AcDbLine
 10
209.9888
 20
-249.2106
 30
0.0
 11
210.3444
 21
-249.2106
 31
0.0
  0
LINE
  5
278
330
3C8
100
AcDbEntity
  8
Level 10
  6
Continuous
 62
     7
370
    13
100
AcDbLine
 10
210.1063
 20
-249.1884
 30
0.0
 11
210.1063
 21
-249.1773
 31
0.0
  0
LINE
  5
279
330
3C8
100
AcDbEntity
  8
Level 10
  6
Continuous
 62
     7
370
    13
100
AcDbLine
 10
210.2491
 20
-249.1773
 30
0.0
 11
210.2491
 21
-249.1884
 31
0.0
  0
LINE
  5
27A
330
3C8
100
AcDbEntity
  8
Level 10
  6
Continuous
 62
     7
370
    13
100
AcDbLine
 10
209.9888
 20
-249.2106
 30
0.0
 11
209.9888
 21
-249.1995
 31
0.0
  0
LINE
  5
27B
330
3C8
100
AcDbEntity
  8
Level 10
  6
Continuous
 62
     7
370
    13
100
AcDbLine
 10
210.3444
 20
-249.1995
 30
0.0
 11
210.3444
 21
-249.2106
 31
0.0
  0
LINE
  5
27C
330
3C8
100
AcDbEntity
  8
Level 10
  6
Continuous
 62
     7
370
    13
100
AcDbLine
 10
210.2752
 20
-249.1915
 30
0.0
 11
210.3444
 21
-249.1995
 31
0.0
  0
LINE
  5
27D
330
3C8
100
AcDbEntity
  8
Level 10
  6
Continuous
 62
     7
370
    13
100
AcDbLine
 10
210.2476
 20
-249.1884
 30
0.0
 11
210.2491
 21
-249.1884
 31
0.0
  0
LINE
  5
27E
330
3C8
100
AcDbEntity
  8
Level 10
  6
Continuous
 62
     7
370
    13
100
AcDbLine
 10
210.0776
 20
-249.1911
 30
0.0
 11
209.9888
 21
-249.1995
 31
0.0
  0
LINE
  5
27F
330
3C8
100
AcDbEntity
  8
Level 10
  6
Continuous
 62
     7
370
    13
100
AcDbLine
 10
210.1079
 20
-249.1884
 30
0.0
 11
210.1063
 21
-249.1884
 31
0.0
  0
ARC
  5
280
330
3C8
100
AcDbEntity
  8
Level 10
  6
Continuous
 62
     7
370
    13
100
AcDbCircle
 10
210.249135
 20
-249.188409
 30
0.0
 40
0.0111124998767475
100
AcDbArc
 50
37.424786
 51
90.0
  0
ARC
  5
281
330
3C8
100
AcDbEntity
  8
Level 10
  6
Continuous
 62
     7
370
    13
100
AcDbCircle
 10
-210.278131
 20
-249.166219
 30
0.0
 40
0.025400000000018
210
0.0
220
0.0
230
-1.0
100
AcDbArc
 50
276.654425
 51
322.575214
  0
ARC
  5
282
330
3C8
100
AcDbEntity
  8
Level 10
  6
Continuous
 62
     7
370
    13
100
AcDbCircle
 10
210.10626
 20
-249.188409
 30
0.0
 40
0.0111125
100
AcDbArc
 50
90.0
 51
137.609239
  0
ARC
  5
283
330
3C8
100
AcDbEntity
  8
Level 10
  6
Continuous
 62
     7
370
    13
100
AcDbCircle
 10
210.074603
 20
-249.159511
 30
0.0
 40
0.0317500000066917
100
AcDbArc
 50
275.403792
 51
317.609239
  0
LINE
  5
284
330
3C8
100
AcDbEntity
  8
Level 10
  6
Continuous
 62
     7
370
    13
100
AcDbLine
 10
211.7164
 20
-249.0201
 30
0.0
 11
211.6473
 21
-249.0201
 31
0.0
  0
LINE
  5
285
330
3C8
100
AcDbEntity
  8
Level 10
  6
Continuous
 62
     7
370
    13
100
AcDbLine
 10
211.6483
 20
-249.0499
 30
0.0
 11
211.6618
 21
-249.0552
 31
0.0
  0
LINE
  5
286
330
3C8
100
AcDbEntity
  8
Level 10
  6
Continuous
 62
     7
370
    13
100
AcDbLine
 10
211.7154
 20
-249.0499
 30
0.0
 11
211.7019
 21
-249.0552
 31
0.0
  0
LINE
  5
287
330
3C8
100
AcDbEntity
  8
Level 10
  6
Continuous
 62
     7
370
    13
100
AcDbLine
 10
211.6898
 20
-249.0729
 30
0.0
 11
211.6898
 21
-249.1461
 31
0.0
  0
LINE
  5
288
330
3C8
100
AcDbEntity
  8
Level 10
  6
Continuous
 62
     7
370
    13
100
AcDbLine
 10
211.6739
 20
-249.0729
 30
0.0
 11
211.6739
 21
-249.1461
 31
0.0
  0
LINE
  5
289
330
3C8
100
AcDbEntity
  8
Level 10
  6
Continuous
 62
     7
370
    13
100
AcDbLine
 10
211.7164
 20
-249.0201
 30
0.0
 11
211.7164
 21
-249.0484
 31
0.0
  0
LINE
  5
28A
330
3C8
100
AcDbEntity
  8
Level 10
  6
Continuous
 62
     7
370
    13
100
AcDbLine
 10
211.6473
 20
-249.0201
 30
0.0
 11
211.6473
 21
-249.0484
 31
0.0
  0
LINE
  5
28B
330
3C8
100
AcDbEntity
  8
Level 10
  6
Continuous
 62
     7
370
    13
100
AcDbLine
 10
211.612
 20
-249.176
 30
0.0
 11
211.612
 21
-249.1884
 31
0.0
  0
LINE
  5
28C
330
3C8
100
AcDbEntity
  8
Level 10
  6
Continuous
 62
     7
370
    13
100
AcDbLine
 10
211.7517
 20
-249.1884
 30
0.0
 11
211.7517
 21
-249.176
 31
0.0
  0
LINE
  5
28D
330
3C8
100
AcDbEntity
  8
Level 10
  6
Continuous
 62
     7
370
    13
100
AcDbLine
 10
211.7504
 20
-249.1744
 30
0.0
 11
211.7049
 21
-249.1647
 31
0.0
  0
LINE
  5
28E
330
3C8
100
AcDbEntity
  8
Level 10
  6
Continuous
 62
     7
370
    13
100
AcDbLine
 10
211.6133
 20
-249.1744
 30
0.0
 11
211.6588
 21
-249.1647
 31
0.0
  0
ARC
  5
28F
330
3C8
100
AcDbEntity
  8
Level 10
  6
Continuous
 62
     7
370
    13
100
AcDbCircle
 10
211.75011
 20
-249.175978
 30
0.0
 40
0.0015875000000022
100
AcDbArc
 50
0.0
 51
77.991153
  0
ARC
  5
290
330
3C8
100
AcDbEntity
  8
Level 10
  6
Continuous
 62
     7
370
    13
100
AcDbCircle
 10
-211.75011
 20
-249.186821
 30
0.0
 40
0.0015875000000022
210
0.0
220
0.0
230
-1.0
100
AcDbArc
 50
180.0
 51
270.0
  0
ARC
  5
291
330
3C8
100
AcDbEntity
  8
Level 10
  6
Continuous
 62
     7
370
    13
100
AcDbCircle
 10
211.613585
 20
-249.175978
 30
0.0
 40
0.0015875000000035
100
AcDbArc
 50
102.008847
 51
180.0
  0
ARC
  5
292
330
3C8
100
AcDbEntity
  8
Level 10
  6
Continuous
 62
     7
370
    13
100
AcDbCircle
 10
-211.613585
 20
-249.186821
 30
0.0
 40
0.0015875000000022
210
0.0
220
0.0
230
-1.0
100
AcDbArc
 50
270.0
 51
0.0
  0
ARC
  5
293
330
3C8
100
AcDbEntity
  8
Level 10
  6
Continuous
 62
     7
370
    13
100
AcDbCircle
 10
-211.708835
 20
-249.146099
 30
0.0
 40
0.0190500003712014
210
0.0
220
0.0
230
-1.0
100
AcDbArc
 50
282.009525
 51
0.0
  0
ARC
  5
294
330
3C8
100
AcDbEntity
  8
Level 10
  6
Continuous
 62
     7
370
    13
100
AcDbCircle
 10
211.65486
 20
-249.146099
 30
0.0
 40
0.0190500003712014
100
AcDbArc
 50
282.009525
 51
0.0
  0
ARC
  5
295
330
3C8
100
AcDbEntity
  8
Level 10
  6
Continuous
 62
     7
370
    13
100
AcDbCircle
 10
211.706847
 20
-249.029659
 30
0.0
 40
0.0095250000000762
100
AcDbArc
 50
0.0
 51
90.0
  0
ARC
  5
296
330
3C8
100
AcDbEntity
  8
Level 10
  6
Continuous
 62
     7
370
    13
100
AcDbCircle
 10
211.656847
 20
-249.029659
 30
0.0
 40
0.0095250000000762
100
AcDbArc
 50
90.0
 51
180.0
  0
ARC
  5
297
330
3C8
100
AcDbEntity
  8
Level 10
  6
Continuous
 62
     7
370
    13
100
AcDbCircle
 10
-211.708835
 20
-249.072902
 30
0.0
 40
0.0190500003711533
210
0.0
220
0.0
230
-1.0
100
AcDbArc
 50
0.0
 51
68.651825
  0
ARC
  5
298
330
3C8
100
AcDbEntity
  8
Level 10
  6
Continuous
 62
     7
370
    13
100
AcDbCircle
 10
211.65486
 20
-249.072902
 30
0.0
 40
0.0190500003711533
100
AcDbArc
 50
0.0
 51
68.651825
  0
ARC
  5
299
330
3C8
100
AcDbEntity
  8
Level 10
  6
Continuous
 62
     7
370
    13
100
AcDbCircle
 10
-211.714785
 20
-249.048418
 30
0.0
 40
0.0015875000000022
210
0.0
220
0.0
230
-1.0
100
AcDbArc
 50
180.0
 51
248.646442
  0
ARC
  5
29A
330
3C8
100
AcDbEntity
  8
Level 10
  6
Continuous
 62
     7
370
    13
100
AcDbCircle
 10
-211.64891
 20
-249.048418
 30
0.0
 40
0.001587499999998
210
0.0
220
0.0
230
-1.0
100
AcDbArc
 50
291.353558
 51
360.0
  0
LINE
  5
29B
330
3C8
100
AcDbEntity
  8
Level 10
  6
Continuous
 62
     7
370
    13
100
AcDbLine
 10
211.7517
 20
-249.1884
 30
0.0
 11
211.612
 21
-249.1884
 31
0.0
  0
LINE
  5
29C
330
3C8
100
AcDbEntity
  8
Level 10
  6
Continuous
 62
     7
370
    13
100
AcDbLine
 10
211.8708
 20
-249.2106
 30
0.0
 11
211.5152
 21
-249.2106
 31
0.0
  0
LINE
  5
29D
330
3C8
100
AcDbEntity
  8
Level 10
  6
Continuous
 62
     7
370
    13
100
AcDbLine
 10
211.7533
 20
-249.1884
 30
0.0
 11
211.7533
 21
-249.1773
 31
0.0
  0
LINE
  5
29E
330
3C8
100
AcDbEntity
  8
Level 10
  6
Continuous
 62
     7
370
    13
100
AcDbLine
 10
211.6104
 20
-249.1773
 30
0.0
 11
211.6104
 21
-249.1884
 31
0.0
  0
LINE
  5
29F
330
3C8
100
AcDbEntity
  8
Level 10
  6
Continuous
 62
     7
370
    13
100
AcDbLine
 10
211.8708
 20
-249.2106
 30
0.0
 11
211.8708
 21
-249.1995
 31
0.0
  0
LINE
  5
2A0
330
3C8
100
AcDbEntity
  8
Level 10
  6
Continuous
 62
     7
370
    13
100
AcDbLine
 10
211.5152
 20
-249.1995
 30
0.0
 11
211.5152
 21
-249.2106
 31
0.0
  0
LINE
  5
2A1
330
3C8
100
AcDbEntity
  8
Level 10
  6
Continuous
 62
     7
370
    13
100
AcDbLine
 10
211.5844
 20
-249.1915
 30
0.0
 11
211.5152
 21
-249.1995
 31
0.0
  0
LINE
  5
2A2
330
3C8
100
AcDbEntity
  8
Level 10
  6
Continuous
 62
     7
370
    13
100
AcDbLine
 10
211.612
 20
-249.1884
 30
0.0
 11
211.6104
 21
-249.1884
 31
0.0
  0
LINE
  5
2A3
330
3C8
100
AcDbEntity
  8
Level 10
  6
Continuous
 62
     7
370
    13
100
AcDbLine
 10
211.782
 20
-249.1911
 30
0.0
 11
211.8708
 21
-249.1995
 31
0.0
  0
LINE
  5
2A4
330
3C8
100
AcDbEntity
  8
Level 10
  6
Continuous
 62
     7
370
    13
100
AcDbLine
 10
211.7517
 20
-249.1884
 30
0.0
 11
211.7533
 21
-249.1884
 31
0.0
  0
ARC
  5
2A5
330
3C8
100
AcDbEntity
  8
Level 10
  6
Continuous
 62
     7
370
    13
100
AcDbCircle
 10
-211.61041
 20
-249.188409
 30
0.0
 40
0.0111124998767475
210
0.0
220
0.0
230
-1.0
100
AcDbArc
 50
37.424786
 51
90.0
  0
ARC
  5
2A6
330
3C8
100
AcDbEntity
  8
Level 10
  6
Continuous
 62
     7
370
    13
100
AcDbCircle
 10
211.581413
 20
-249.166219
 30
0.0
 40
0.025400000000036
100
AcDbArc
 50
276.654425
 51
322.575214
  0
ARC
  5
2A7
330
3C8
100
AcDbEntity
  8
Level 10
  6
Continuous
 62
     7
370
    13
100
AcDbCircle
 10
-211.753285
 20
-249.188409
 30
0.0
 40
0.0111125
210
0.0
220
0.0
230
-1.0
100
AcDbArc
 50
90.0
 51
137.609239
  0
ARC
  5
2A8
330
3C8
100
AcDbEntity
  8
Level 10
  6
Continuous
 62
     7
370
    13
100
AcDbCircle
 10
-211.784942
 20
-249.159511
 30
0.0
 40
0.0317500000133834
210
0.0
220
0.0
230
-1.0
100
AcDbArc
 50
275.403792
 51
317.609239
  0
LINE
  5
2A9
330
3C8
100
AcDbEntity
  8
Level 10
  6
Continuous
 62
     7
370
    13
100
AcDbLine
 10
209.6344
 20
-249.2106
 30
0.0
 11
212.2252
 21
-249.2106
 31
0.0
  0
LINE
  5
2AA
330
3C8
100
AcDbEntity
  8
Level 10
  6
Continuous
 62
     7
370
    13
100
AcDbLine
 10
212.2252
 20
-249.2106
 30
0.0
 11
212.3752
 21
-249.2106
 31
0.0
  0
LINE
  5
2AB
330
3C8
100
AcDbEntity
  8
Level 10
  6
Continuous
 62
     7
370
    13
100
AcDbLine
 10
209.4844
 20
-249.2106
 30
0.0
 11
209.6344
 21
-249.2106
 31
0.0
  0
LINE
  5
2AC
330
3C8
100
AcDbEntity
  8
Level 10
  6
Continuous
 62
     7
370
    13
100
AcDbLine
 10
212.3752
 20
-249.2106
 30
0.0
 11
213.2065
 21
-249.6263
 31
0.0
  0
LINE
  5
2AD
330
3C8
100
AcDbEntity
  8
Level 10
  6
Continuous
 62
     7
370
    13
100
AcDbLine
 10
209.4844
 20
-249.2106
 30
0.0
 11
208.6531
 21
-249.6263
 31
0.0
  0
LINE
  5
2AE
330
3C8
100
AcDbEntity
  8
Level 46
  6
Continuous
 62
     7
370
     0
100
AcDbLine
 10
210.9298
 20
-248.6264
 30
0.0
 11
210.9298
 21
-248.2454
 31
0.0
  0
LINE
  5
2AF
330
3C8
100
AcDbEntity
  8
Level 10
  6
Continuous
 62
     7
370
    13
100
AcDbLine
 10
207.8798
 20
-249.6392
 30
0.0
 11
206.0989
 21
-250.2328
 31
0.0
  0
LINE
  5
2B0
330
3C8
100
AcDbEntity
  8
Level 10
  6
Continuous
 62
     7
370
    13
100
AcDbLine
 10
213.9798
 20
-249.6392
 30
0.0
 11
215.518
 21
-250.1519
 31
0.0
  0
LINE
  5
2B3
330
3C8
100
AcDbEntity
  8
Level 46
  6
Continuous
 62
     7
370
     0
100
AcDbLine
 10
211.6473
 20
-248.7026
 30
0.0
 11
211.6473
 21
-248.9994
 31
0.0
  0
LINE
  5
2B4
330
3C8
100
AcDbEntity
  8
Level 46
  6
Continuous
 62
     7
370
     0
100
AcDbLine
 10
210.2122
 20
-248.7534
 30
0.0
 11
211.6473
 21
-248.7534
 31
0.0
  0
LINE
  5
2B5
330
3C8
100
AcDbEntity
  8
Level 46
  6
Continuous
 62
     7
370
     0
100
AcDbLine
 10
212.3752
 20
-248.5502
 30
0.0
 11
212.8145
 21
-248.5502
 31
0.0
  0
LINE
  5
2B6
330
3C8
100
AcDbEntity
  8
Level 46
  6
Continuous
 62
     7
370
     0
100
AcDbLine
 10
210.9298
 20
-248.5502
 30
0.0
 11
212.2252
 21
-248.5502
 31
0.0
  0
LINE
  5
2B7
330
3C8
100
AcDbEntity
  8
Level 46
  6
Continuous
 62
     7
370
     0
100
AcDbLine
 10
209.0374
 20
-248.5502
 30
0.0
 11
209.4844
 21
-248.5502
 31
0.0
  0
LINE
  5
2B8
330
3C8
100
AcDbEntity
  8
Level 46
  6
Continuous
 62
     7
370
     0
100
AcDbLine
 10
209.6344
 20
-248.5502
 30
0.0
 11
210.9298
 21
-248.5502
 31
0.0
  0
LINE
  5
2B9
330
3C8
100
AcDbEntity
  8
Level 46
  6
Continuous
 62
     7
370
     0
100
AcDbLine
 10
210.9298
 20
-249.7383
 30
0.0
 11
210.9298
 21
-250.0383
 31
0.0
  0
LINE
  5
2BA
330
3C8
100
AcDbEntity
  8
Level 46
  6
Continuous
 62
     7
370
     0
100
AcDbLine
 10
210.9298
 20
-249.2106
 30
0.0
 11
210.9298
 21
-249.3884
 31
0.0
  0
LINE
  5
2BB
330
3C8
100
AcDbEntity
  8
Level 46
  6
Continuous
 62
     7
370
     0
100
AcDbLine
 10
210.9298
 20
-249.3884
 30
0.0
 11
210.9298
 21
-249.5884
 31
0.0
  0
ARC
  5
2BC
330
3C8
100
AcDbEntity
  8
Level 46
  6
Continuous
 62
     7
370
     0
100
AcDbCircle
 10
-211.082293
 20
-250.669534
 30
0.0
 40
0.7719436089877916
210
0.0
220
0.0
230
-1.0
100
AcDbArc
 50
79.961361
 51
88.882475
  0
ARC
  5
2BD
330
3C8
100
AcDbEntity
  8
Level 46
  6
Continuous
 62
     7
370
     0
100
AcDbCircle
 10
-211.032681
 20
-249.762209
 30
0.0
 40
0.266132346704872
210
0.0
220
0.0
230
-1.0
100
AcDbArc
 50
71.792231
 51
96.842094
  0
ARC
  5
2BE
330
3C8
100
AcDbEntity
  8
Level 46
  6
Continuous
 62
     7
370
     0
100
AcDbCircle
 10
210.903547
 20
-248.766401
 30
0.0
 40
0.547926573277074
100
AcDbArc
 50
274.08015
 51
285.885317
  0
LINE
  5
2C4
330
3C8
100
AcDbEntity
  8
Level 46
  6
Continuous
 62
     7
370
     0
100
AcDbLine
 10
212.8169
 20
-249.3866
 30
0.0
 11
213.0709
 21
-249.3866
 31
0.0
  0
LINE
  5
2C6
330
3C8
100
AcDbEntity
  8
Level 46
  6
Continuous
 62
     7
370
     0
100
AcDbLine
 10
213.0709
 20
-249.3866
 30
0.0
 11
213.0709
 21
-249.5136
 31
0.0
  0
LINE
  5
2C7
330
3C8
100
AcDbEntity
  8
Level 46
  6
Continuous
 62
     7
370
     0
100
AcDbLine
 10
209.073
 20
-249.3731
 30
0.0
 11
208.819
 21
-249.3731
 31
0.0
  0
LINE
  5
2C9
330
3C8
100
AcDbEntity
  8
Level 46
  6
Continuous
 62
     7
370
     0
100
AcDbLine
 10
208.819
 20
-249.3731
 30
0.0
 11
208.819
 21
-249.5001
 31
0.0
  0
LINE
  5
2CA
330
3C8
100
AcDbEntity
  8
Level 46
  6
Continuous
 62
     7
370
     0
100
AcDbLine
 10
207.8798
 20
-248.347
 30
0.0
 11
210.9298
 21
-248.347
 31
0.0
  0
ARC
  5
2CB
330
3C8
100
AcDbEntity
  8
Level 46
  6
Continuous
 62
     7
370
     0
100
AcDbCircle
 10
-209.907221
 20
-249.176621
 30
0.0
 40
0.3019214535652781
210
0.0
220
0.0
230
-1.0
100
AcDbArc
 50
90.827033
 51
152.545344
  0
LINE
  5
2CD
330
3C8
100
AcDbEntity
  8
Level 46
  6
Continuous
 62
     7
370
     0
100
AcDbLine
 10
212.4066
 20
-249.5791
 30
0.0
 11
212.7113
 21
-249.5842
 31
0.0
  0
INSERT
  5
2CE
330
3C8
100
AcDbEntity
  8
Level 46
  6
Continuous
 62
     7
370
     0
100
AcDbBlockReference
  2
LARROW
 10
212.7113
 20
-249.5842
 30
0.0
 41
0.508002
 42
0.508002
 43
0.508002
 50
350.812681
  0
LINE
  5
2D9
330
3C8
100
AcDbEntity
  8
Level 46
  6
Continuous
 62
     7
370
     0
100
AcDbLine
 10
209.8276
 20
-249.5722
 30
0.0
 11
209.5228
 21
-249.5773
 31
0.0
  0
INSERT
  5
2DA
330
3C8
100
AcDbEntity
  8
Level 46
  6
Continuous
 62
     7
370
     0
100
AcDbBlockReference
  2
LARROW_1
 10
209.5228
 20
-249.5773
 30
0.0
 41
0.508003
 42
0.508003
 43
0.508003
 50
189.194227
  0
LINE
  5
2E7
330
3C8
100
AcDbEntity
  8
Level 46
  6
Continuous
 62
     7
370
     0
100
AcDbLine
 10
214.3863
 20
-249.7445
 30
0.0
 11
214.7673
 21
-249.7445
 31
0.0
  0
LINE
  5
2E8
330
3C8
100
AcDbEntity
  8
Level 46
  6
Continuous
 62
     7
370
     0
100
AcDbLine
 10
214.7673
 20
-249.7445
 30
0.0
 11
214.7673
 21
-249.8715
 31
0.0
  0
LINE
  5
2EB
330
3C8
100
AcDbEntity
  8
Level 46
  6
Continuous
 62
     7
370
     0
100
AcDbLine
 10
207.0958
 20
-249.743
 30
0.0
 11
207.4768
 21
-249.743
 31
0.0
  0
LINE
  5
2EC
330
3C8
100
AcDbEntity
  8
Level 46
  6
Continuous
 62
     7
370
     0
100
AcDbLine
 10
207.0958
 20
-249.743
 30
0.0
 11
207.0958
 21
-249.87
 31
0.0
  0
LINE
  5
2EF
330
3C8
100
AcDbEntity
  8
Level 10
  6
Continuous
 62
     7
370
     0
100
AcDbLine
 10
209.6567
 20
-249.2106
 30
0.0
 11
209.9051
 21
-249.2469
 31
0.0
  0
LINE
  5
2F0
330
3C8
100
AcDbEntity
  8
Level 10
  6
Continuous
 62
     7
370
     0
100
AcDbLine
 10
209.9051
 20
-249.2469
 30
0.0
 11
210.1474
 21
-249.2635
 31
0.0
  0
LINE
  5
2F1
330
3C8
100
AcDbEntity
  8
Level 10
  6
Continuous
 62
     7
370
     0
100
AcDbLine
 10
210.1474
 20
-249.2635
 30
0.0
 11
210.3145
 21
-249.2846
 31
0.0
  0
LINE
  5
2F2
330
3C8
100
AcDbEntity
  8
Level 10
  6
Continuous
 62
     7
370
     0
100
AcDbLine
 10
210.3145
 20
-249.2846
 30
0.0
 11
210.5387
 21
-249.2981
 31
0.0
  0
LINE
  5
2F3
330
3C8
100
AcDbEntity
  8
Level 10
  6
Continuous
 62
     7
370
     0
100
AcDbLine
 10
210.5387
 20
-249.2981
 30
0.0
 11
210.7133
 21
-249.2891
 31
0.0
  0
LINE
  5
2F4
330
3C8
100
AcDbEntity
  8
Level 10
  6
Continuous
 62
     7
370
     0
100
AcDbLine
 10
210.7133
 20
-249.2891
 30
0.0
 11
210.8623
 21
-249.3117
 31
0.0
  0
LINE
  5
2F5
330
3C8
100
AcDbEntity
  8
Level 10
  6
Continuous
 62
     7
370
     0
100
AcDbLine
 10
209.8223
 20
-249.2951
 30
0.0
 11
210.0857
 21
-249.3192
 31
0.0
  0
LINE
  5
2F6
330
3C8
100
AcDbEntity
  8
Level 10
  6
Continuous
 62
     7
370
     0
100
AcDbLine
 10
210.0857
 20
-249.3192
 30
0.0
 11
210.3506
 21
-249.3418
 31
0.0
  0
LINE
  5
2F7
330
3C8
100
AcDbEntity
  8
Level 10
  6
Continuous
 62
     7
370
     0
100
AcDbLine
 10
209.7741
 20
-249.3312
 30
0.0
 11
210.0074
 21
-249.3538
 31
0.0
  0
LINE
  5
2F8
330
3C8
100
AcDbEntity
  8
Level 10
  6
Continuous
 62
     7
370
     0
100
AcDbLine
 10
210.2016
 20
-249.2106
 30
0.0
 11
210.4981
 21
-249.2514
 31
0.0
  0
LINE
  5
2F9
330
3C8
100
AcDbEntity
  8
Level 10
  6
Continuous
 62
     7
370
     0
100
AcDbLine
 10
210.4981
 20
-249.2514
 30
0.0
 11
210.6245
 21
-249.2424
 31
0.0
  0
LINE
  5
2FA
330
3C8
100
AcDbEntity
  8
Level 10
  6
Continuous
 62
     7
370
     0
100
AcDbLine
 10
210.6245
 20
-249.2424
 30
0.0
 11
210.7675
 21
-249.2409
 31
0.0
  0
LINE
  5
2FB
330
3C8
100
AcDbEntity
  8
Level 10
  6
Continuous
 62
     7
370
     0
100
AcDbLine
 10
210.7675
 20
-249.2409
 30
0.0
 11
210.897
 21
-249.2575
 31
0.0
  0
LINE
  5
2FC
330
3C8
100
AcDbEntity
  8
Level 46
  6
Continuous
 62
     7
370
    53
100
AcDbLine
 10
208.764196
 20
-250.555
 30
0.0
 11
213.163486
 21
-250.555
 31
0.0
  0
LINE
  5
2FD
330
3C8
100
AcDbEntity
  8
Level 46
  6
Continuous
 62
     7
370
     0
100
AcDbLine
 10
209.6344
 20
-248.4994
 30
0.0
 11
209.6344
 21
-249.1598
 31
0.0
  0
LINE
  5
2FE
330
3C8
100
AcDbEntity
  8
Level 46
  6
Continuous
 62
     7
370
     0
100
AcDbLine
 10
212.2252
 20
-248.4994
 30
0.0
 11
212.2252
 21
-249.1598
 31
0.0
  0
LINE
  5
2FF
330
3C8
100
AcDbEntity
  8
Level 10
  6
Continuous
 62
     7
370
    13
100
AcDbLine
 10
212.2252
 20
-249.2106
 30
0.0
 11
212.2252
 21
-249.3884
 31
0.0
  0
LINE
  5
300
330
3C8
100
AcDbEntity
  8
Level 10
  6
Continuous
 62
     7
370
    13
100
AcDbLine
 10
209.6344
 20
-249.2106
 30
0.0
 11
209.6344
 21
-249.3884
 31
0.0
  0
LINE
  5
301
330
3C8
100
AcDbEntity
  8
Level 10
  6
Continuous
 62
     7
370
     0
100
AcDbLine
 10
209.6387
 20
-249.2648
 30
0.0
 11
209.8223
 21
-249.2951
 31
0.0
  0
LINE
  5
302
330
3C8
100
AcDbEntity
  8
Level 10
  6
Continuous
 62
     7
370
     0
100
AcDbLine
 10
209.6366
 20
-249.3264
 30
0.0
 11
209.7741
 21
-249.3312
 31
0.0
  0
LINE
  5
303
330
3C8
100
AcDbEntity
  8
Level 10
  6
Continuous
 62
     7
370
     0
100
AcDbLine
 10
210.3506
 20
-249.3418
 30
0.0
 11
210.4927
 21
-249.363
 31
0.0
  0
LINE
  5
304
330
3C8
100
AcDbEntity
  8
Level 10
  6
Continuous
 62
     7
370
     0
100
AcDbLine
 10
210.0074
 20
-249.3538
 30
0.0
 11
210.0704
 21
-249.363
 31
0.0
  0
LINE
  5
305
330
3C8
100
AcDbEntity
  8
Level 10
  6
Continuous
 62
     7
370
    13
100
AcDbLine
 10
218.0875
 20
-249.8954
 30
0.0
 11
217.318
 21
-250.1519
 31
0.0
  0
LINE
  5
306
330
3C8
100
AcDbEntity
  8
Level 46
  6
Continuous
 62
     7
370
     0
100
AcDbLine
 10
217.4429
 20
-249.9279
 30
0.0
 11
217.8239
 21
-249.9279
 31
0.0
  0
LINE
  5
307
330
3C8
100
AcDbEntity
  8
Level 46
  6
Continuous
 62
     7
370
     0
100
AcDbLine
 10
217.4429
 20
-249.9279
 30
0.0
 11
217.4429
 21
-250.0549
 31
0.0
  0
LINE
  5
30A
330
3C8
100
AcDbEntity
  8
Level 46
  6
Continuous
 62
     7
370
     0
100
AcDbLine
 10
210.9298
 20
-248.347
 30
0.0
 11
213.9798
 21
-248.347
 31
0.0
  0
LINE
  5
30B
330
3C8
100
AcDbEntity
  8
Level 46
  6
Continuous
 62
     7
370
     0
100
AcDbLine
 10
215.518
 20
-248.2549
 30
0.0
 11
217.318
 21
-248.2549
 31
0.0
  0
INSERT
  5
30D
330
3C8
100
AcDbEntity
  8
Level 46
  6
Continuous
 62
     7
370
     0
100
AcDbBlockReference
  2
LARROW_2
 10
217.318
 20
-248.2549
 30
0.0
 41
20.0
 42
20.0
 43
20.0
  0
INSERT
  5
30F
330
3C8
100
AcDbEntity
  8
Level 46
  6
Continuous
 62
     7
370
     0
100
AcDbBlockReference
  2
LARROW_2
 10
215.518
 20
-248.2549
 30
0.0
 41
20.0
 42
20.0
 43
20.0
 50
180.0
  0
LINE
  5
311
330
3C8
100
AcDbEntity
  8
Level 10
  6
Continuous
 62
     7
370
    13
100
AcDbLine
 10
209.6344
 20
-249.3884
 30
0.0
 11
212.2252
 21
-249.3884
 31
0.0
  0
INSERT
  5
314
330
3C8
100
AcDbEntity
  8
Level 46
  6
Continuous
 62
     7
370
     0
100
AcDbBlockReference
  2
LARROW_2
 10
210.9298
 20
-249.2106
 30
0.0
 41
20.0
 42
20.0
 43
20.0
 50
90.0
  0
INSERT
  5
316
330
3C8
100
AcDbEntity
  8
Level 46
  6
Continuous
 62
     7
370
     0
100
AcDbBlockReference
  2
LARROW_2
 10
210.9298
 20
-249.3884
 30
0.0
 41
20.0
 42
20.0
 43
20.0
 50
270.0
  0
INSERT
  5
318
330
3C8
100
AcDbEntity
  8
Level 46
  6
Continuous
 62
     7
370
     0
100
AcDbBlockReference
  2
LARROW_2
 10
210.9298
 20
-249.3884
 30
0.0
 41
20.0
 42
20.0
 43
20.0
 50
90.0
  0
INSERT
  5
31A
330
3C8
100
AcDbEntity
  8
Level 46
  6
Continuous
 62
     7
370
     0
100
AcDbBlockReference
  2
LARROW_2
 10
210.9298
 20
-249.5884
 30
0.0
 41
20.0
 42
20.0
 43
20.0
 50
270.0
  0
INSERT
  5
31D
330
3C8
100
AcDbEntity
  8
Level 46
  6
Continuous
 62
     7
370
     0
100
AcDbBlockReference
  2
LARROW_2
 10
210.9298
 20
-249.7383
 30
0.0
 41
20.0
 42
20.0
 43
20.0
 50
90.0
  0
INSERT
  5
31F
330
3C8
100
AcDbEntity
  8
Level 46
  6
Continuous
 62
     7
370
     0
100
AcDbBlockReference
  2
LARROW_2
 10
210.9298
 20
-250.0383
 30
0.0
 41
20.0
 42
20.0
 43
20.0
 50
270.0
  0
INSERT
  5
321
330
3C8
100
AcDbEntity
  8
Level 46
  6
Continuous
 62
     7
370
     0
100
AcDbBlockReference
  2
SQUIG
 10
210.9477
 20
-249.9094
 30
0.0
 41
20.0
 42
20.0
 43
20.0
 50
190.038636
  0
INSERT
  5
323
330
3C8
100
AcDbEntity
  8
Level 46
  6
Continuous
 62
     7
370
     0
100
AcDbBlockReference
  2
SQUIG
 10
210.9495
 20
-249.5094
 30
0.0
 41
20.0
 42
20.0
 43
20.0
 50
198.207766
  0
INSERT
  5
325
330
3C8
100
AcDbEntity
  8
Level 46
  6
Continuous
 62
     7
370
     0
100
AcDbBlockReference
  2
SQUIG
 10
210.9425
 20
-249.3129
 30
0.0
 41
19.999998
 42
19.999998
 43
19.999998
 50
184.080144
  0
INSERT
  5
329
330
3C8
100
AcDbEntity
  8
Level 46
  6
Continuous
 62
     7
370
     0
100
AcDbBlockReference
  2
LARROW_2
 10
211.6473
 20
-248.7534
 30
0.0
 41
20.0
 42
20.0
 43
20.0
  0
INSERT
  5
32B
330
3C8
100
AcDbEntity
  8
Level 46
  6
Continuous
 62
     7
370
     0
100
AcDbBlockReference
  2
LARROW_2
 10
210.2122
 20
-248.7534
 30
0.0
 41
20.0
 42
20.0
 43
20.0
 50
180.0
  0
INSERT
  5
32D
330
3C8
100
AcDbEntity
  8
Level 46
  6
Continuous
 62
     7
370
     0
100
AcDbBlockReference
  2
LARROW_2
 10
209.4844
 20
-248.5502
 30
0.0
 41
20.0
 42
20.0
 43
20.0
  0
INSERT
  5
32F
330
3C8
100
AcDbEntity
  8
Level 46
  6
Continuous
 62
     7
370
     0
100
AcDbBlockReference
  2
LARROW_2
 10
209.6344
 20
-248.5502
 30
0.0
 41
20.0
 42
20.0
 43
20.0
 50
180.0
  0
INSERT
  5
331
330
3C8
100
AcDbEntity
  8
Level 46
  6
Continuous
 62
     7
370
     0
100
AcDbBlockReference
  2
LARROW_2
 10
210.9298
 20
-248.5502
 30
0.0
 41
20.0
 42
20.0
 43
20.0
  0
INSERT
  5
333
330
3C8
100
AcDbEntity
  8
Level 46
  6
Continuous
 62
     7
370
     0
100
AcDbBlockReference
  2
LARROW_2
 10
210.9298
 20
-248.5502
 30
0.0
 41
20.0
 42
20.0
 43
20.0
 50
180.0
  0
INSERT
  5
335
330
3C8
100
AcDbEntity
  8
Level 46
  6
Continuous
 62
     7
370
     0
100
AcDbBlockReference
  2
LARROW_2
 10
210.1751
 20
-249.0374
 30
0.0
 41
20.000002
 42
20.000002
 43
20.000002
 50
303.252844
  0
INSERT
  5
337
330
3C8
100
AcDbEntity
  8
Level 46
  6
Continuous
 62
     7
370
     0
100
AcDbBlockReference
  2
LARROW_2
 10
212.2252
 20
-248.5502
 30
0.0
 41
20.0
 42
20.0
 43
20.0
  0
INSERT
  5
339
330
3C8
100
AcDbEntity
  8
Level 46
  6
Continuous
 62
     7
370
     0
100
AcDbBlockReference
  2
LARROW_2
 10
212.3752
 20
-248.5502
 30
0.0
 41
20.0
 42
20.0
 43
20.0
 50
180.0
  0
INSERT
  5
33D
330
3C8
100
AcDbEntity
  8
Level 46
  6
Continuous
 62
     7
370
     0
100
AcDbBlockReference
  2
LARROW_2
 10
210.9298
 20
-248.347
 30
0.0
 41
20.0
 42
20.0
 43
20.0
 50
180.0
  0
INSERT
  5
33F
330
3C8
100
AcDbEntity
  8
Level 46
  6
Continuous
 62
     7
370
     0
100
AcDbBlockReference
  2
LARROW_2
 10
210.9298
 20
-248.347
 30
0.0
 41
20.0
 42
20.0
 43
20.0
  0
LINE
  5
341
330
3C8
100
AcDbEntity
  8
Level 46
  6
Continuous
 62
     7
370
     0
100
AcDbLine
 10
207.8798
 20
-249.5892
 30
0.0
 11
207.8798
 21
-248.2454
 31
0.0
  0
INSERT
  5
342
330
3C8
100
AcDbEntity
  8
Level 46
  6
Continuous
 62
     7
370
     0
100
AcDbBlockReference
  2
LARROW_2
 10
207.8798
 20
-248.347
 30
0.0
 41
20.0
 42
20.0
 43
20.0
 50
180.0
  0
LINE
  5
344
330
3C8
100
AcDbEntity
  8
Level 46
  6
Continuous
 62
     7
370
     0
100
AcDbLine
 10
213.9798
 20
-249.5892
 30
0.0
 11
213.9798
 21
-248.2454
 31
0.0
  0
INSERT
  5
345
330
3C8
100
AcDbEntity
  8
Level 46
  6
Continuous
 62
     7
370
     0
100
AcDbBlockReference
  2
LARROW_2
 10
213.9798
 20
-248.347
 30
0.0
 41
20.0
 42
20.0
 43
20.0
  0
LINE
  5
347
330
3C8
100
AcDbEntity
  8
Level 46
  6
Continuous
 62
     7
370
     0
100
AcDbLine
 10
212.3752
 20
-248.4994
 30
0.0
 11
212.3752
 21
-249.1598
 31
0.0
  0
LINE
  5
34A
330
3C8
100
AcDbEntity
  8
Level 46
  6
Continuous
 62
     7
370
     0
100
AcDbLine
 10
209.4844
 20
-248.4994
 30
0.0
 11
209.4844
 21
-249.1598
 31
0.0
  0
LINE
  5
34D
330
3C8
100
AcDbEntity
  8
Level 10
  6
Continuous
 62
     7
370
    13
100
AcDbLine
 10
210.9298
 20
-249.5884
 30
0.0
 11
207.8798
 21
-249.6392
 31
0.0
  0
LINE
  5
34E
330
3C8
100
AcDbEntity
  8
Level 10
  6
Continuous
 62
     7
370
    13
100
AcDbLine
 10
210.9298
 20
-249.5884
 30
0.0
 11
213.9798
 21
-249.6392
 31
0.0
  0
LINE
  5
34F
330
3C8
100
AcDbEntity
  8
Level 10
  6
DGN Style 3
 62
     7
370
    13
100
AcDbLine
 10
210.9297
 20
-250.0382
 30
0.0
 11
206.4595
 21
-250.1126
 31
0.0
  0
LINE
  5
350
330
3C8
100
AcDbEntity
  8
Level 10
  6
DGN Style 3
 62
     7
370
    13
100
AcDbLine
 10
210.9297
 20
-250.0382
 30
0.0
 11
215.4002
 21
-250.1126
 31
0.0
  0
LINE
  5
352
330
3C8
100
AcDbEntity
  8
Level 46
  6
Continuous
 62
     7
370
     0
100
AcDbLine
 10
210.9298
 20
-249.5884
 30
0.0
 11
210.9298
 21
-249.7383
 31
0.0
  0
INSERT
  5
353
330
3C8
100
AcDbEntity
  8
Level 46
  6
Continuous
 62
     7
370
     0
100
AcDbBlockReference
  2
SQUIG
 10
210.9467
 20
-249.6754
 30
0.0
 41
20.0
 42
20.0
 43
20.0
 50
198.207766
  0
ARC
  5
355
330
3C8
100
AcDbEntity
  8
Level 46
  6
Continuous
 62
     7
370
     0
100
AcDbCircle
 10
-211.029881
 20
-249.928209
 30
0.0
 40
0.266132346704872
210
0.0
220
0.0
230
-1.0
100
AcDbArc
 50
71.792231
 51
96.842094
  0
LWPOLYLINE
  5
356
330
3C8
100
AcDbEntity
  8
Level 10
  6
Continuous
 62
     7
370
     0
100
AcDbPolyline
 90
        3
 70
   128
 43
0.0
 10
210.3506
 20
-245.5826
 10
210.5297
 20
-245.5984
 10
210.7428
 20
-245.6292
  0
LWPOLYLINE
  5
357
330
3C8
100
AcDbEntity
  8
Level 10
  6
Continuous
 62
     7
370
     0
100
AcDbPolyline
 90
        3
 70
   128
 43
0.0
 10
210.0074
 20
-245.5946
 10
210.1387
 20
-245.6089
 10
210.2664
 20
-245.6292
  0
LINE
  5
358
330
3C8
100
AcDbEntity
  8
Level 46
  6
Continuous
 62
     7
370
     0
100
AcDbLine
 10
216.9609
 20
-246.3229
 30
0.0
 11
216.9609
 21
-244.4941
 31
0.0
  0
LINE
  5
359
330
3C8
100
AcDbEntity
  8
Level 10
  6
Continuous
 62
     7
370
    13
100
AcDbLine
 10
215.518
 20
-250.1519
 30
0.0
 11
217.318
 21
-250.1519
 31
0.0
  0
LINE
  5
35A
330
3C8
100
AcDbEntity
  8
Level 46
  6
Continuous
 62
     7
370
     0
100
AcDbLine
 10
215.518
 20
-250.1019
 30
0.0
 11
215.518
 21
-248.1533
 31
0.0
  0
LINE
  5
35B
330
3C8
100
AcDbEntity
  8
Level 46
  6
Continuous
 62
     7
370
     0
100
AcDbLine
 10
217.318
 20
-250.1019
 30
0.0
 11
217.318
 21
-248.1533
 31
0.0
  0
LINE
  5
35D
330
3C8
100
AcDbEntity
  8
Level 10
  6
Continuous
 62
     7
370
    13
100
AcDbLine
 10
210.9298
 20
-249.7383
 30
0.0
 11
207.4063
 21
-249.797
 31
0.0
  0
LINE
  5
35E
330
3C8
100
AcDbEntity
  8
Level 10
  6
Continuous
 62
     7
370
    13
100
AcDbLine
 10
210.9298
 20
-249.7383
 30
0.0
 11
214.4533
 21
-249.797
 31
0.0
  0
TEXT
  5
AE
330
3C8
100
AcDbEntity
  8
Level 46
  6
Continuous
 62
     7
370
    13
100
AcDbText
 10
210.917
 20
-244.4925
 30
0.0
 40
0.06
  1
L
  7
Style-Arial
 11
210.917
 21
-244.4325
 31
0.0
100
AcDbText
 73
     3
  0
TEXT
  5
AF
330
3C8
100
AcDbEntity
  8
Level 46
  6
Continuous
 62
     7
370
    13
100
AcDbText
 10
210.901
 20
-244.4718
 30
0.0
 40
0.06
  1
C
  7
Style-Arial
 11
210.901
 21
-244.4118
 31
0.0
100
AcDbText
 73
     3
  0
TEXT
  5
BC
330
3C8
100
AcDbEntity
  8
Level 46
  6
Continuous
 62
     7
370
    13
100
AcDbText
 10
209.711518
 20
-245.139901
 30
0.0
 40
0.06
  1
RAIL
  7
Style-Arial
 11
209.711518
 21
-245.079901
 31
0.0
100
AcDbText
 73
     3
  0
TEXT
  5
BD
330
3C8
100
AcDbEntity
  8
Level 46
  6
Continuous
 62
     7
370
    13
100
AcDbText
 10
213.1017
 20
-245.7485
 30
0.0
 40
0.06
  1
1
  7
Style-Arial
 11
213.1017
 21
-245.6885
 31
0.0
100
AcDbText
 73
     3
  0
TEXT
  5
BE
330
3C8
100
AcDbEntity
  8
Level 46
  6
Continuous
 62
     7
370
    13
100
AcDbText
 10
208.7714
 20
-245.7314
 30
0.0
 40
0.06
  1
1
  7
Style-Arial
 11
208.7714
 21
-245.6714
 31
0.0
100
AcDbText
 73
     3
  0
TEXT
  5
BF
330
3C8
100
AcDbEntity
  8
Level 46
  6
Continuous
 62
     7
370
    13
100
AcDbText
 10
212.9472
 20
-245.607911
 30
0.0
 40
0.06
  1
2
  7
Style-Arial
 11
212.9472
 21
-245.547911
 31
0.0
100
AcDbText
 73
     3
  0
TEXT
  5
C0
330
3C8
100
AcDbEntity
  8
Level 46
  6
Continuous
 62
     7
370
    13
100
AcDbText
 10
208.9294
 20
-245.602098
 30
0.0
 40
0.06
  1
2
  7
Style-Arial
 11
208.9294
 21
-245.542098
 31
0.0
100
AcDbText
 73
     3
  0
TEXT
  5
C9
330
3C8
100
AcDbEntity
  8
Level 46
  6
Continuous
 62
     7
370
    13
100
AcDbText
 10
210.836649
 20
-246.942341
 30
0.0
 40
0.06
  1
NO SCALE
  7
Style-Arial
 11
210.836649
 21
-246.882341
 31
0.0
100
AcDbText
 73
     3
  0
TEXT
  5
E2
330
3C8
100
AcDbEntity
  8
Level 46
  6
Continuous
 62
     7
370
    13
100
AcDbText
 10
209.1432
 20
-245.904678
 30
0.0
 40
0.06
  1
2%
 50
0.954375
  7
Style-Arial
 11
209.1422
 21
-245.844687
 31
0.0
100
AcDbText
 73
     3
  0
TEXT
  5
E3
330
3C8
100
AcDbEntity
  8
Level 46
  6
Continuous
 62
     7
370
    13
100
AcDbText
 10
212.611601
 20
-245.894496
 30
0.0
 40
0.06
  1
2%
 50
359.046214
  7
Style-Arial
 11
212.612599
 21
-245.834505
 31
0.0
100
AcDbText
 73
     3
  0
TEXT
  5
E6
330
3C8
100
AcDbEntity
  8
Level 46
  6
Continuous
 62
     7
370
    13
100
AcDbText
 10
214.7946
 20
-246.2105
 30
0.0
 40
0.06
  1
1
  7
Style-Arial
 11
214.7946
 21
-246.1505
 31
0.0
100
AcDbText
 73
     3
  0
TEXT
  5
E7
330
3C8
100
AcDbEntity
  8
Level 46
  6
Continuous
 62
     7
370
    13
100
AcDbText
 10
214.5573
 20
-246.069758
 30
0.0
 40
0.06
  1
3
  7
Style-Arial
 11
214.5573
 21
-246.009758
 31
0.0
100
AcDbText
 73
     3
  0
TEXT
  5
EA
330
3C8
100
AcDbEntity
  8
Level 46
  6
Continuous
 62
     7
370
    13
100
AcDbText
 10
207.2744
 20
-246.068846
 30
0.0
 40
0.06
  1
3
  7
Style-Arial
 11
207.2744
 21
-246.008846
 31
0.0
100
AcDbText
 73
     3
  0
TEXT
  5
EB
330
3C8
100
AcDbEntity
  8
Level 46
  6
Continuous
 62
     7
370
    13
100
AcDbText
 10
207.0526
 20
-246.2017
 30
0.0
 40
0.06
  1
1
  7
Style-Arial
 11
207.0526
 21
-246.1417
 31
0.0
100
AcDbText
 73
     3
  0
TEXT
  5
107
330
3C8
100
AcDbEntity
  8
Level 46
  6
Continuous
 62
     7
370
    13
100
AcDbText
 10
217.2644
 20
-246.132419
 30
0.0
 40
0.06
  1
3
  7
Style-Arial
 11
217.2644
 21
-246.072419
 31
0.0
100
AcDbText
 73
     3
  0
TEXT
  5
108
330
3C8
100
AcDbEntity
  8
Level 46
  6
Continuous
 62
     7
370
    13
100
AcDbText
 10
217.0426
 20
-246.2675
 30
0.0
 40
0.06
  1
1
  7
Style-Arial
 11
217.0426
 21
-246.2075
 31
0.0
100
AcDbText
 73
     3
  0
TEXT
  5
10B
330
3C8
100
AcDbEntity
  8
Level 46
  6
Continuous
 62
     7
370
    13
100
AcDbText
 10
210.497878
 20
-244.984428
 30
0.0
 40
0.06
  1
1435 mm RAIL GAUGE
  7
Style-Arial
 11
210.497878
 21
-244.924428
 31
0.0
100
AcDbText
 73
     3
  0
TEXT
  5
21F
330
3C8
100
AcDbEntity
  8
Level 46
  6
Continuous
 62
     7
370
    13
100
AcDbText
 10
215.959734
 20
-244.579146
 30
0.0
 40
0.06
  1
1800
  7
Style-Arial
 11
215.959734
 21
-244.519146
 31
0.0
100
AcDbText
 73
     3
  0
TEXT
  5
221
330
3C8
100
AcDbEntity
  8
Level 46
  6
Continuous
 62
     7
370
    13
100
AcDbText
 10
211.0509
 20
-245.560956
 30
0.0
 40
0.06
  1
178 mm THICK WOOD TIE
  7
Style-Arial
 11
211.0509
 21
-245.500956
 31
0.0
100
AcDbText
 73
     3
  0
TEXT
  5
222
330
3C8
100
AcDbEntity
  8
Level 46
  6
Continuous
 62
     7
370
    13
100
AcDbText
 10
211.0748
 20
-245.801401
 30
0.0
 40
0.06
  1
300 mm (MIN.) BALLAST
  7
Style-Arial
 11
211.0748
 21
-245.741401
 31
0.0
100
AcDbText
 73
     3
  0
TEXT
  5
22B
330
3C8
100
AcDbEntity
  8
Level 46
  6
Continuous
 62
     7
370
    13
100
AcDbText
 10
211.0842
 20
-246.114073
 30
0.0
 40
0.06
  1
300 mm COMPACTED SUBGRADE (95%)
  7
Style-Arial
 11
211.0842
 21
-246.054073
 31
0.0
100
AcDbText
 73
     3
  0
TEXT
  5
238
330
3C8
100
AcDbEntity
  8
Level 46
  6
Continuous
 62
     7
370
    13
100
AcDbText
 10
211.520947
 20
-244.773018
 30
0.0
 40
0.06
  1
1295
  7
Style-Arial
 11
211.520947
 21
-244.713018
 31
0.0
100
AcDbText
 73
     3
  0
TEXT
  5
239
330
3C8
100
AcDbEntity
  8
Level 46
  6
Continuous
 62
     7
370
    13
100
AcDbText
 10
210.184154
 20
-244.777637
 30
0.0
 40
0.06
  1
1295
  7
Style-Arial
 11
210.184154
 21
-244.717637
 31
0.0
100
AcDbText
 73
     3
  0
TEXT
  5
24C
330
3C8
100
AcDbEntity
  8
Level 46
  6
Continuous
 62
     7
370
    13
100
AcDbText
 10
209.3063
 20
-244.544793
 30
0.0
 40
0.06
  1
3050
  7
Style-Arial
 11
209.3063
 21
-244.484793
 31
0.0
100
AcDbText
 73
     3
  0
TEXT
  5
24D
330
3C8
100
AcDbEntity
  8
Level 46
  6
Continuous
 62
     7
370
    13
100
AcDbText
 10
212.3571
 20
-244.535662
 30
0.0
 40
0.06
  1
3050
  7
Style-Arial
 11
212.3571
 21
-244.475662
 31
0.0
100
AcDbText
 73
     3
  0
TEXT
  5
259
330
3C8
100
AcDbEntity
  8
Level 46
  6
Continuous
 62
     7
370
    13
100
AcDbText
 10
212.556
 20
-244.8968
 30
0.0
 40
0.06
  1
MIN.
  7
Style-Arial
 11
212.556
 21
-244.8368
 31
0.0
100
AcDbText
 73
     3
  0
TEXT
  5
25A
330
3C8
100
AcDbEntity
  8
Level 46
  6
Continuous
 62
     7
370
    13
100
AcDbText
 10
212.4559
 20
-244.770409
 30
0.0
 40
0.06
  1
150 mm
  7
Style-Arial
 11
212.4559
 21
-244.710409
 31
0.0
100
AcDbText
 73
     3
  0
TEXT
  5
25C
330
3C8
100
AcDbEntity
  8
Level 46
  6
Continuous
 62
     7
370
    13
100
AcDbText
 10
209.0369
 20
-244.777264
 30
0.0
 40
0.06
  1
150 mm
  7
Style-Arial
 11
209.0369
 21
-244.717264
 31
0.0
100
AcDbText
 73
     3
  0
TEXT
  5
25D
330
3C8
100
AcDbEntity
  8
Level 46
  6
Continuous
 62
     7
370
    13
100
AcDbText
 10
209.114204
 20
-244.878019
 30
0.0
 40
0.06
  1
MIN.
  7
Style-Arial
 11
209.114204
 21
-244.818019
 31
0.0
100
AcDbText
 73
     3
  0
TEXT
  5
2B1
330
3C8
100
AcDbEntity
  8
Level 46
  6
Continuous
 62
     7
370
    13
100
AcDbText
 10
210.917
 20
-248.2517
 30
0.0
 40
0.06
  1
L
  7
Style-Arial
 11
210.917
 21
-248.1917
 31
0.0
100
AcDbText
 73
     3
  0
TEXT
  5
2B2
330
3C8
100
AcDbEntity
  8
Level 46
  6
Continuous
 62
     7
370
    13
100
AcDbText
 10
210.8946
 20
-248.234
 30
0.0
 40
0.06
  1
C
  7
Style-Arial
 11
210.8946
 21
-248.174
 31
0.0
100
AcDbText
 73
     3
  0
TEXT
  5
2BF
330
3C8
100
AcDbEntity
  8
Level 46
  6
Continuous
 62
     7
370
    13
100
AcDbText
 10
209.7294
 20
-248.903201
 30
0.0
 40
0.06
  1
RAIL
  7
Style-Arial
 11
209.7294
 21
-248.843201
 31
0.0
100
AcDbText
 73
     3
  0
TEXT
  5
2C0
330
3C8
100
AcDbEntity
  8
Level 46
  6
Continuous
 62
     7
370
    13
100
AcDbText
 10
213.1017
 20
-249.5077
 30
0.0
 40
0.06
  1
1
  7
Style-Arial
 11
213.1017
 21
-249.4477
 31
0.0
100
AcDbText
 73
     3
  0
TEXT
  5
2C1
330
3C8
100
AcDbEntity
  8
Level 46
  6
Continuous
 62
     7
370
    13
100
AcDbText
 10
208.7714
 20
-249.4906
 30
0.0
 40
0.06
  1
1
  7
Style-Arial
 11
208.7714
 21
-249.4306
 31
0.0
100
AcDbText
 73
     3
  0
TEXT
  5
2C2
330
3C8
100
AcDbEntity
  8
Level 46
  6
Continuous
 62
     7
370
    13
100
AcDbText
 10
212.9472
 20
-249.358955
 30
0.0
 40
0.06
  1
2
  7
Style-Arial
 11
212.9472
 21
-249.298955
 31
0.0
100
AcDbText
 73
     3
  0
TEXT
  5
2C3
330
3C8
100
AcDbEntity
  8
Level 46
  6
Continuous
 62
     7
370
    13
100
AcDbText
 10
208.9294
 20
-249.345164
 30
0.0
 40
0.06
  1
2
  7
Style-Arial
 11
208.9294
 21
-249.285164
 31
0.0
100
AcDbText
 73
     3
  0
TEXT
  5
2CC
330
3C8
100
AcDbEntity
  8
Level 46
  6
Continuous
 62
     7
370
    13
100
AcDbText
 10
210.79216
 20
-250.641541
 30
0.0
 40
0.06
  1
NO SCALE
  7
Style-Arial
 11
210.79216
 21
-250.581541
 31
0.0
100
AcDbText
 73
     3
  0
TEXT
  5
2E5
330
3C8
100
AcDbEntity
  8
Level 46
  6
Continuous
 62
     7
370
    13
100
AcDbText
 10
209.6322
 20
-249.553669
 30
0.0
 40
0.06
  1
2%
 50
0.954375
  7
Style-Arial
 11
209.6312
 21
-249.493678
 31
0.0
100
AcDbText
 73
     3
  0
TEXT
  5
2E6
330
3C8
100
AcDbEntity
  8
Level 46
  6
Continuous
 62
     7
370
    13
100
AcDbText
 10
212.489301
 20
-249.561687
 30
0.0
 40
0.06
  1
2%
 50
359.046214
  7
Style-Arial
 11
212.490299
 21
-249.501696
 31
0.0
100
AcDbText
 73
     3
  0
TEXT
  5
2E9
330
3C8
100
AcDbEntity
  8
Level 46
  6
Continuous
 62
     7
370
    13
100
AcDbText
 10
214.7946
 20
-249.8697
 30
0.0
 40
0.06
  1
1
  7
Style-Arial
 11
214.7946
 21
-249.8097
 31
0.0
100
AcDbText
 73
     3
  0
TEXT
  5
2EA
330
3C8
100
AcDbEntity
  8
Level 46
  6
Continuous
 62
     7
370
    13
100
AcDbText
 10
214.5573
 20
-249.712908
 30
0.0
 40
0.06
  1
3
  7
Style-Arial
 11
214.5573
 21
-249.652908
 31
0.0
100
AcDbText
 73
     3
  0
TEXT
  5
2ED
330
3C8
100
AcDbEntity
  8
Level 46
  6
Continuous
 62
     7
370
    13
100
AcDbText
 10
207.2744
 20
-249.717474
 30
0.0
 40
0.06
  1
3
  7
Style-Arial
 11
207.2744
 21
-249.657474
 31
0.0
100
AcDbText
 73
     3
  0
TEXT
  5
2EE
330
3C8
100
AcDbEntity
  8
Level 46
  6
Continuous
 62
     7
370
    13
100
AcDbText
 10
207.0526
 20
-249.8609
 30
0.0
 40
0.06
  1
1
  7
Style-Arial
 11
207.0526
 21
-249.8009
 31
0.0
100
AcDbText
 73
     3
  0
TEXT
  5
308
330
3C8
100
AcDbEntity
  8
Level 46
  6
Continuous
 62
     7
370
    13
100
AcDbText
 10
217.6215
 20
-249.90391
 30
0.0
 40
0.06
  1
3
  7
Style-Arial
 11
217.6215
 21
-249.84391
 31
0.0
100
AcDbText
 73
     3
  0
TEXT
  5
309
330
3C8
100
AcDbEntity
  8
Level 46
  6
Continuous
 62
     7
370
    13
100
AcDbText
 10
217.3997
 20
-250.0457
 30
0.0
 40
0.06
  1
1
  7
Style-Arial
 11
217.3997
 21
-249.9857
 31
0.0
100
AcDbText
 73
     3
  0
TEXT
  5
30C
330
3C8
100
AcDbEntity
  8
Level 46
  6
Continuous
 62
     7
370
    13
100
AcDbText
 10
210.490055
 20
-248.728648
 30
0.0
 40
0.06
  1
1435 mm RAIL GAUGE
  7
Style-Arial
 11
210.490055
 21
-248.668648
 31
0.0
100
AcDbText
 73
     3
  0
TEXT
  5
312
330
3C8
100
AcDbEntity
  8
Level 46
  6
Continuous
 62
     7
370
    13
100
AcDbText
 10
211.0509
 20
-249.316182
 30
0.0
 40
0.06
  1
178 mm THICK WOOD TIE
  7
Style-Arial
 11
211.0509
 21
-249.256182
 31
0.0
100
AcDbText
 73
     3
  0
TEXT
  5
313
330
3C8
100
AcDbEntity
  8
Level 46
  6
Continuous
 62
     7
370
    13
100
AcDbText
 10
211.0783
 20
-249.528382
 30
0.0
 40
0.06
  1
200 mm (MIN.) BALLAST
  7
Style-Arial
 11
211.0783
 21
-249.468382
 31
0.0
100
AcDbText
 73
     3
  0
TEXT
  5
31C
330
3C8
100
AcDbEntity
  8
Level 46
  6
Continuous
 62
     7
370
    13
100
AcDbText
 10
211.0842
 20
-249.919031
 30
0.0
 40
0.06
  1
300 mm COMPACTED SUBGRADE (95%)
  7
Style-Arial
 11
211.0842
 21
-249.859031
 31
0.0
100
AcDbText
 73
     3
  0
TEXT
  5
327
330
3C8
100
AcDbEntity
  8
Level 46
  6
Continuous
 62
     7
370
    13
100
AcDbText
 10
211.528771
 20
-248.53297
 30
0.0
 40
0.06
  1
1295
  7
Style-Arial
 11
211.528771
 21
-248.47297
 31
0.0
100
AcDbText
 73
     3
  0
TEXT
  5
328
330
3C8
100
AcDbEntity
  8
Level 46
  6
Continuous
 62
     7
370
    13
100
AcDbText
 10
210.206878
 20
-248.527752
 30
0.0
 40
0.06
  1
1295
  7
Style-Arial
 11
210.206878
 21
-248.467752
 31
0.0
100
AcDbText
 73
     3
  0
TEXT
  5
33B
330
3C8
100
AcDbEntity
  8
Level 46
  6
Continuous
 62
     7
370
    13
100
AcDbText
 10
209.402787
 20
-248.326855
 30
0.0
 40
0.06
  1
3050
  7
Style-Arial
 11
209.402787
 21
-248.266855
 31
0.0
100
AcDbText
 73
     3
  0
TEXT
  5
33C
330
3C8
100
AcDbEntity
  8
Level 46
  6
Continuous
 62
     7
370
    13
100
AcDbText
 10
212.424902
 20
-248.324899
 30
0.0
 40
0.06
  1
3050
  7
Style-Arial
 11
212.424902
 21
-248.264899
 31
0.0
100
AcDbText
 73
     3
  0
TEXT
  5
348
330
3C8
100
AcDbEntity
  8
Level 46
  6
Continuous
 62
     7
370
    13
100
AcDbText
 10
212.556
 20
-248.627301
 30
0.0
 40
0.06
  1
MIN.
  7
Style-Arial
 11
212.556
 21
-248.567301
 31
0.0
100
AcDbText
 73
     3
  0
TEXT
  5
349
330
3C8
100
AcDbEntity
  8
Level 46
  6
Continuous
 62
     7
370
    13
100
AcDbText
 10
212.481978
 20
-248.526364
 30
0.0
 40
0.06
  1
150 mm
  7
Style-Arial
 11
212.481978
 21
-248.466364
 31
0.0
100
AcDbText
 73
     3
  0
TEXT
  5
34B
330
3C8
100
AcDbEntity
  8
Level 46
  6
Continuous
 62
     7
370
    13
100
AcDbText
 10
209.0369
 20
-248.530361
 30
0.0
 40
0.06
  1
150 mm
  7
Style-Arial
 11
209.0369
 21
-248.470361
 31
0.0
100
AcDbText
 73
     3
  0
TEXT
  5
34C
330
3C8
100
AcDbEntity
  8
Level 46
  6
Continuous
 62
     7
370
    13
100
AcDbText
 10
209.136184
 20
-248.629512
 30
0.0
 40
0.06
  1
MIN.
  7
Style-Arial
 11
209.136184
 21
-248.569512
 31
0.0
100
AcDbText
 73
     3
  0
TEXT
  5
351
330
3C8
100
AcDbEntity
  8
Level 46
  6
Continuous
 62
     7
370
    13
100
AcDbText
 10
211.0626
 20
-249.692564
 30
0.0
 40
0.06
  1
150 mm SUBBALLAST
  7
Style-Arial
 11
211.0626
 21
-249.632564
 31
0.0
100
AcDbText
 73
     3
  0
TEXT
  5
35C
330
3C8
100
AcDbEntity
  8
Level 46
  6
Continuous
 62
     7
370
    13
100
AcDbText
 10
216.365025
 20
-248.230973
 30
0.0
 40
0.06
  1
1800
  7
Style-Arial
 11
216.365025
 21
-248.170973
 31
0.0
100
AcDbText
 73
     3
  0
TEXT
  5
361
330
3C8
100
AcDbEntity
  8
Level 46
  6
Continuous
 62
     7
370
    53
100
AcDbText
 10
208.684562
 20
-246.749682
 30
0.0
 40
0.12
  1
TYPICAL RAILROAD TRACK SECTION W/O SUBBALLAST
  7
Style-Arial
 11
208.684562
 21
-246.629682
 31
0.0
100
AcDbText
 73
     3
  0
TEXT
  5
362
330
3C8
100
AcDbEntity
  8
Level 46
  6
Continuous
 62
     7
370
    53
100
AcDbText
 10
208.779978
 20
-250.486815
 30
0.0
 40
0.12
  1
TYPICAL RAILROAD TRACK SECTION W/SUBBALLAST
  7
Style-Arial
 11
208.779978
 21
-250.366815
 31
0.0
100
AcDbText
 73
     3
  0
TEXT
  5
360
330
3C8
100
AcDbEntity
  8
Level 47
  6
Continuous
 62
     7
370
     0
100
AcDbText
 10
216.164971
 20
-254.4274
 30
0.0
 40
0.06
  1
ALL DIMENSIONS SHOWN IN MILLIMETRES UNLESS OTHERWISE NOTED
  7
Style-Arial
 11
216.164971
 21
-254.3674
 31
0.0
100
AcDbText
 73
     3
  0
MTEXT
  5
19D
330
3C8
100
AcDbEntity
  8
Level 1
  6
Continuous
 62
     7
370
     0
100
AcDbMText
 10
219.710662
 20
-253.823724
 30
0.0
 40
0.06
 41
0.0
 71
     1
 72
     1
  1
Sheet\Preference\Pnumber:\P
  7
Style-Arial
 73
     2
 44
0.779643
  0
TEXT
  5
219
330
3C8
100
AcDbEntity
  8
Level 2
  6
Continuous
 62
     7
370
     0
100
AcDbText
 10
220.0453
 20
-252.980098
 30
0.0
 40
0.06
  1
TYPICAL RAILROAD TRACK SECTIONS
 50
90.0
  7
Style-Arial
 11
219.9853
 21
-252.980098
 31
0.0
100
AcDbText
 73
     3
  0
MTEXT
  5
1E9
330
3C8
100
AcDbEntity
  8
Level 1
  6
Continuous
 62
     7
370
     0
100
AcDbMText
 10
219.7713
 20
-252.173134
 30
0.0
 40
0.06
 41
0.0
 71
     1
 72
     1
  1
X\P \P \P
  7
Style-Arial
 11
6.123031769111886E-17
 21
1.0
 31
0.0
 73
     2
 44
0.779643
  0
MTEXT
  5
1E6
330
3C8
100
AcDbEntity
  8
Level 1
  6
Continuous
 62
     7
370
     0
100
AcDbMText
 10
219.4693
 20
-252.171857
 30
0.0
 40
0.06
 41
0.0
 71
     1
 72
     1
  1
 X\P X\P
  7
Style-Arial
 11
6.123031769111886E-17
 21
1.0
 31
0.0
 73
     2
 44
0.779643
  0
TEXT
  5
142
330
3C8
100
AcDbEntity
  8
Level 1
  6
Continuous
 62
     7
370
     0
100
AcDbText
 10
219.702416
 20
-250.5195
 30
0.0
 40
0.06
  1
Dwn by:
 50
90.0
  7
Style-Arial
 11
219.642416
 21
-250.5195
 31
0.0
100
AcDbText
 73
     3
  0
TEXT
  5
143
330
3C8
100
AcDbEntity
  8
Level 1
  6
Continuous
 62
     7
370
     0
100
AcDbText
 10
219.892416
 20
-250.5215
 30
0.0
 40
0.06
  1
Reviewed by:
 50
90.0
  7
Style-Arial
 11
219.832416
 21
-250.5215
 31
0.0
100
AcDbText
 73
     3
  0
TEXT
  5
144
330
3C8
100
AcDbEntity
  8
Level 1
  6
Continuous
 62
     7
370
     0
100
AcDbText
 10
219.512534
 20
-249.6955
 30
0.0
 40
0.06
  1
Date:
 50
90.0
  7
Style-Arial
 11
219.452534
 21
-249.6955
 31
0.0
100
AcDbText
 73
     3
  0
TEXT
  5
145
330
3C8
100
AcDbEntity
  8
Level 1
  6
Continuous
 62
     7
370
     0
100
AcDbText
 10
219.527296
 20
-248.8755
 30
0.0
 40
0.06
  1
Rev.
 50
90.0
  7
Style-Arial
 11
219.467296
 21
-248.8755
 31
0.0
100
AcDbText
 73
     3
  0
TEXT
  5
148
330
3C8
100
AcDbEntity
  8
Level 1
  6
Continuous
 62
     7
370
     0
100
AcDbText
 10
219.698416
 20
-250.1195
 30
0.0
 40
0.06
  1
Ckd by:
 50
90.0
  7
Style-Arial
 11
219.638416
 21
-250.1195
 31
0.0
100
AcDbText
 73
     3
  0
TEXT
  5
154
330
3C8
100
AcDbEntity
  8
Level 1
  6
Continuous
 62
     7
370
     0
100
AcDbText
 10
219.605328
 20
-248.8695
 30
0.0
 40
0.06
  1
__
 50
90.0
  7
Style-Arial
 11
219.545328
 21
-248.8695
 31
0.0
100
AcDbText
 73
     3
  0
TEXT
  5
155
330
3C8
100
AcDbEntity
  8
Level 1
  6
Continuous
 62
     7
370
     0
100
AcDbText
 10
219.680534
 20
-249.6895
 30
0.0
 40
0.06
  1
Design file no.   
 50
90.0
  7
Style-Arial
 11
219.620534
 21
-249.6895
 31
0.0
100
AcDbText
 73
     3
  0
TEXT
  5
180
330
3C8
100
AcDbEntity
  8
Level 1
  6
Continuous
 62
     7
370
     0
100
AcDbText
 10
220.076534
 20
-249.6915
 30
0.0
 40
0.06
  1
Drawing code:     
 50
90.0
  7
Style-Arial
 11
220.016534
 21
-249.6915
 31
0.0
100
AcDbText
 73
     3
  0
TEXT
  5
181
330
3C8
100
AcDbEntity
  8
Level 1
  6
Continuous
 62
     7
370
     0
100
AcDbText
 10
219.874534
 20
-249.6895
 30
0.0
 40
0.06
  1
Plot Scale Ratio:     
 50
90.0
  7
Style-Arial
 11
219.814534
 21
-249.6895
 31
0.0
100
AcDbText
 73
     3
  0
TEXT
  5
183
330
3C8
100
AcDbEntity
  8
Level 1
  6
Continuous
 62
     7
370
    13
100
AcDbText
 10
219.925328
 20
-248.8675
 30
0.0
 40
0.06
  1
DACA 45          
 50
90.0
  7
Style-Arial
 11
219.865328
 21
-248.8675
 31
0.0
100
AcDbText
 73
     3
  0
TEXT
  5
184
330
3C8
100
AcDbEntity
  8
Level 1
  6
Continuous
 62
     7
370
    13
100
AcDbText
 10
220.253328
 20
-248.8715
 30
0.0
 40
0.06
  1
DACA 45          
 50
90.0
  7
Style-Arial
 11
220.193328
 21
-248.8715
 31
0.0
100
AcDbText
 73
     3
  0
TEXT
  5
196
330
3C8
100
AcDbEntity
  8
Level 1
  6
Continuous
 62
     7
370
     0
100
AcDbText
 10
219.735296
 20
-248.8795
 30
0.0
 40
0.06
  1
Spec. No.   
 50
90.0
  7
Style-Arial
 11
219.675296
 21
-248.8795
 31
0.0
100
AcDbText
 73
     3
  0
TEXT
  5
197
330
3C8
100
AcDbEntity
  8
Level 2
  6
Continuous
 62
     7
370
     0
100
AcDbText
 10
219.607416
 20
-250.5095
 30
0.0
 40
0.06
  1
X
 50
90.0
  7
Style-Arial
 11
219.547416
 21
-250.5095
 31
0.0
100
AcDbText
 73
     3
  0
TEXT
  5
198
330
3C8
100
AcDbEntity
  8
Level 2
  6
Continuous
 62
     7
370
     0
100
AcDbText
 10
219.785416
 20
-250.1135
 30
0.0
 40
0.06
  1
X
 50
90.0
  7
Style-Arial
 11
219.725416
 21
-250.1135
 31
0.0
100
AcDbText
 73
     3
  0
TEXT
  5
199
330
3C8
100
AcDbEntity
  8
Level 2
  6
Continuous
 62
     7
370
     0
100
AcDbText
 10
219.979416
 20
-250.5095
 30
0.0
 40
0.06
  1
X
 50
90.0
  7
Style-Arial
 11
219.919416
 21
-250.5095
 31
0.0
100
AcDbText
 73
     3
  0
TEXT
  5
19A
330
3C8
100
AcDbEntity
  8
Level 2
  6
Continuous
 62
     7
370
     0
100
AcDbText
 10
220.095416
 20
-249.9575
 30
0.0
 40
0.06
  1
X
 50
90.0
  7
Style-Arial
 11
220.035416
 21
-249.9575
 31
0.0
100
AcDbText
 73
     3
  0
TEXT
  5
19B
330
3C8
100
AcDbEntity
  8
Level 1
  6
Continuous
 62
     7
370
     0
100
AcDbText
 10
220.090416
 20
-250.5235
 30
0.0
 40
0.06
  1
Submitted by:
 50
90.0
  7
Style-Arial
 11
220.030416
 21
-250.5235
 31
0.0
100
AcDbText
 73
     3
  0
TEXT
  5
19C
330
3C8
100
AcDbEntity
  8
Level 1
  6
Continuous
 62
     7
370
     0
100
AcDbText
 10
220.178416
 20
-250.5235
 30
0.0
 40
0.06
  1
Chief:
 50
90.0
  7
Style-Arial
 11
220.118416
 21
-250.5235
 31
0.0
100
AcDbText
 73
     3
  0
TEXT
  5
1A1
330
3C8
100
AcDbEntity
  8
Level 1
  6
Continuous
 62
     7
370
     0
100
AcDbText
 10
219.530416
 20
-250.5195
 30
0.0
 40
0.06
  1
Designed by:
 50
90.0
  7
Style-Arial
 11
219.470416
 21
-250.5195
 31
0.0
100
AcDbText
 73
     3
  0
TEXT
  5
1A2
330
3C8
100
AcDbEntity
  8
Level 2
  6
Continuous
 62
     7
370
    13
100
AcDbText
 10
219.961537
 20
-249.6835
 30
0.0
 40
0.06
  1
20 : 1
 50
90.0
  7
Style-Arial
 11
219.901537
 21
-249.6835
 31
0.0
100
AcDbText
 73
     3
  0
TEXT
  5
1A3
330
3C8
100
AcDbEntity
  8
Level 1
  6
Continuous
 62
     7
370
     0
100
AcDbText
 10
220.195538
 20
-249.6815
 30
0.0
 40
0.06
  1
X
 50
90.0
  7
Style-Arial
 11
220.135538
 21
-249.6815
 31
0.0
100
AcDbText
 73
     3
  0
TEXT
  5
35F
330
3C8
100
AcDbEntity
  8
Level 1
  6
Continuous
 62
     7
370
     0
100
AcDbText
 10
219.587537
 20
-249.6855
 30
0.0
 40
0.06
  1
DECEMBER 1997
 50
90.0
  7
Style-Arial
 11
219.527537
 21
-249.6855
 31
0.0
100
AcDbText
 73
     3
  0
TEXT
  5
363
330
3C8
100
AcDbEntity
  8
Level 2
  6
Continuous
 62
     7
370
     0
100
AcDbText
 10
219.789418
 20
-250.5135
 30
0.0
 40
0.06
  1
X
 50
90.0
  7
Style-Arial
 11
219.729418
 21
-250.5135
 31
0.0
100
AcDbText
 73
     3
  0
TEXT
  5
364
330
3C8
100
AcDbEntity
  8
Level 2
  6
Continuous
 62
     7
370
     0
100
AcDbText
 10
220.246418
 20
-250.5155
 30
0.0
 40
0.06
  1
X
 50
90.0
  7
Style-Arial
 11
220.186418
 21
-250.5155
 31
0.0
100
AcDbText
 73
     3
  0
TEXT
  5
365
330
3C8
100
AcDbEntity
  8
Level 2
  6
Continuous
 62
     7
370
    13
100
AcDbText
 10
219.765537
 20
-249.6855
 30
0.0
 40
0.06
  1
C201.DGN
 50
90.0
  7
Style-Arial
 11
219.705537
 21
-249.6855
 31
0.0
100
AcDbText
 73
     3
  0
TEXT
  5
195
330
3C8
100
AcDbEntity
  8
Level 1
  6
Continuous
 62
     7
370
     0
100
AcDbText
 10
220.045296
 20
-248.8815
 30
0.0
 40
0.06
  1
Contract No.     
 50
90.0
  7
Style-Arial
 11
219.985296
 21
-248.8815
 31
0.0
100
AcDbText
 73
     3
  0
TEXT
  5
170
330
3C8
100
AcDbEntity
  8
Level 1
  6
Continuous
 62
     7
370
     0
100
AcDbText
 10
220.244807
 20
-248.001891
 30
0.0
 40
0.06
  1
Symbol
 50
90.0
  7
Style-Arial
 11
220.184807
 21
-248.001891
 31
0.0
100
AcDbText
 73
     3
  0
TEXT
  5
167
330
3C8
100
AcDbEntity
  8
Level 1
  6
Continuous
 62
     7
370
     0
100
AcDbText
 10
220.250023
 20
-247.108839
 30
0.0
 40
0.06
  1
Description
 50
90.0
  7
Style-Arial
 11
220.190023
 21
-247.108839
 31
0.0
100
AcDbText
 73
     3
  0
TEXT
  5
168
330
3C8
100
AcDbEntity
  8
Level 1
  6
Continuous
 62
     7
370
     0
100
AcDbText
 10
220.247415
 20
-246.198432
 30
0.0
 40
0.06
  1
Date
 50
90.0
  7
Style-Arial
 11
220.187415
 21
-246.198432
 31
0.0
100
AcDbText
 73
     3
  0
TEXT
  5
16F
330
3C8
100
AcDbEntity
  8
Level 1
  6
Continuous
 62
     7
370
     0
100
AcDbText
 10
220.252609
 20
-245.957133
 30
0.0
 40
0.06
  1
Approved
 50
90.0
  7
Style-Arial
 11
220.192609
 21
-245.957133
 31
0.0
100
AcDbText
 73
     3
  0
TEXT
  5
1A5
330
3C8
100
AcDbEntity
  8
Level 1
  6
Continuous
 62
     7
370
     0
100
AcDbText
 10
219.5213
 20
-243.763109
 30
0.0
 40
0.06
  1
US Army Corps
  7
Style-Arial
 11
219.5213
 21
-243.703109
 31
0.0
100
AcDbText
 73
     3
  0
TEXT
  5
1A6
330
3C8
100
AcDbEntity
  8
Level 1
  6
Continuous
 62
     7
370
     0
100
AcDbText
 10
219.5193
 20
-243.854425
 30
0.0
 40
0.06
  1
of Engineers
  7
Style-Arial
 11
219.5193
 21
-243.794425
 31
0.0
100
AcDbText
 73
     3
  0
TEXT
  5
1A4
330
3C8
100
AcDbEntity
  8
Level 1
  6
Continuous
 62
     7
370
     0
100
AcDbText
 10
219.5213
 20
-243.956178
 30
0.0
 40
0.06
  1
Omaha District
  7
Style-Arial
 11
219.5213
 21
-243.896178
 31
0.0
100
AcDbText
 73
     3
  0
TEXT
  5
21A
330
3C8
100
AcDbEntity
  8
Level 2
  6
Continuous
 62
     7
370
     0
100
AcDbText
 10
219.540971
 20
-254.338579
 30
0.0
 40
0.18
  1
C2.01
  7
Style-Arial
 11
219.540971
 21
-254.158579
 31
0.0
100
AcDbText
 73
     3
  0
ENDSEC
  0
SECTION
  2
OBJECTS
  0
DICTIONARY
  5
3BC
330
0
100
AcDbDictionary
281
     1
  3
ACAD_COLOR
350
3DB
  3
ACAD_GROUP
350
3D8
  3
ACAD_LAYOUT
350
3CC
  3
ACAD_MATERIAL
350
3DA
  3
ACAD_MLINESTYLE
350
3C6
  3
ACAD_PLOTSETTINGS
350
3D9
  3
ACAD_PLOTSTYLENAME
350
3BB
  3
ACAD_TABLESTYLE
350
402
  3
AcadDim
350
3E7
  3
MicroStation
350
3DF
  0
DICTIONARY
  5
3B8
330
3B7
100
AcDbDictionary
280
     1
281
     1
  3
ACAD_LAYERFILTERS
360
3DE
  3
ACAD_LAYERSTATES
360
3B9
  0
DICTIONARY
  5
3FE
330
3C8
100
AcDbDictionary
280
     1
281
     1
  3
ACAD_SORTENTS
360
3FF
  0
DICTIONARY
  5
3DB
102
{ACAD_REACTORS
330
3BC
102
}
330
3BC
100
AcDbDictionary
281
     1
  0
DICTIONARY
  5
3D8
102
{ACAD_REACTORS
330
3BC
102
}
330
3BC
100
AcDbDictionary
281
     1
  0
DICTIONARY
  5
3CC
102
{ACAD_REACTORS
330
3BC
102
}
330
3BC
100
AcDbDictionary
281
     1
  3
Layout1
350
3D0
  3
Model
350
3CB
  0
DICTIONARY
  5
3DA
102
{ACAD_REACTORS
330
3BC
102
}
330
3BC
100
AcDbDictionary
281
     1
  0
DICTIONARY
  5
3C6
102
{ACAD_REACTORS
330
3BC
102
}
330
3BC
100
AcDbDictionary
281
     1
  3
Standard
350
3C5
  0
DICTIONARY
  5
3D9
102
{ACAD_REACTORS
330
3BC
102
}
330
3BC
100
AcDbDictionary
281
     1
  0
ACDBDICTIONARYWDFLT
  5
3BB
102
{ACAD_REACTORS
330
3BC
102
}
330
3BC
100
AcDbDictionary
281
     1
  3
Normal
350
3BA
100
AcDbDictionaryWithDefault
340
3BA
  0
DICTIONARY
  5
402
102
{ACAD_REACTORS
330
3BC
102
}
330
3BC
100
AcDbDictionary
281
     1
  0
XRECORD
  5
3E7
102
{ACAD_REACTORS
330
3BC
102
}
330
3BC
100
AcDbXrecord
280
     1
 90
   990106
  3
 
 60
     0
 61
     0
 62
     1
 63
     1
 64
     0
 65
     0
 66
     0
 67
     3
 68
     1
 69
     1
 70
     0
 71
     0
 72
     0
 40
0.0
170
     0
  0
DICTIONARY
  5
3DF
102
{ACAD_REACTORS
330
3BC
102
}
330
3BC
100
AcDbDictionary
281
     1
  3
ApplicationElement 948
350
3B4
  3
ModelApplicationElement 0 947
350
3B3
  0
DICTIONARY
  5
3DE
102
{ACAD_REACTORS
330
3B8
102
}
330
3B8
100
AcDbDictionary
281
     1
  0
DICTIONARY
  5
3B9
102
{ACAD_REACTORS
330
3B8
102
}
330
3B8
100
AcDbDictionary
281
     1
  0
SORTENTSTABLE
  5
3FF
102
{ACAD_REACTORS
330
3FE
102
}
330
3FE
100
AcDbSortentsTable
330
3C8
331
AE
  5
2E9
331
AF
  5
2EA
331
B0
  5
AE
331
B1
  5
AF
331
B2
  5
B0
331
B3
  5
B1
331
B4
  5
B2
331
B5
  5
B3
331
B6
  5
B4
331
B7
  5
B5
331
B8
  5
B6
331
B9
  5
B7
331
BA
  5
B8
331
BB
  5
B9
331
BC
  5
2EB
331
BD
  5
2EC
331
BE
  5
2ED
331
BF
  5
2EE
331
C0
  5
2EF
331
C1
  5
BA
331
C3
  5
BB
331
C4
  5
BC
331
C6
  5
BD
331
C7
  5
BE
331
C8
  5
BF
331
C9
  5
2F0
331
CA
  5
C0
331
CB
  5
C1
331
D6
  5
C3
331
D7
  5
C4
331
E2
  5
2F1
331
E3
  5
2F2
331
E4
  5
C6
331
E5
  5
C7
331
E6
  5
2F3
331
E7
  5
2F4
331
E8
  5
C8
331
E9
  5
C9
331
EA
  5
2F5
331
EB
  5
2F6
331
EC
  5
CA
331
ED
  5
CB
331
EE
  5
D6
331
EF
  5
D7
331
F0
  5
E2
331
F1
  5
E3
331
F2
  5
E4
331
F3
  5
E5
331
F4
  5
E6
331
F5
  5
E7
331
F6
  5
E8
331
F7
  5
E9
331
F8
  5
EA
331
F9
  5
EB
331
FA
  5
EC
331
FB
  5
ED
331
FC
  5
EE
331
FD
  5
EF
331
FE
  5
F0
331
FF
  5
F1
331
100
  5
F2
331
101
  5
F3
331
102
  5
F4
331
103
  5
F5
331
104
  5
F6
331
105
  5
F7
331
106
  5
F8
331
107
  5
2F7
331
108
  5
2F8
331
109
  5
F9
331
10A
  5
FA
331
10B
  5
2F9
331
10C
  5
FB
331
10D
  5
FC
331
10E
  5
FD
331
10F
  5
FE
331
110
  5
FF
331
111
  5
100
331
112
  5
101
331
113
  5
102
331
114
  5
103
331
115
  5
104
331
116
  5
105
331
117
  5
106
331
118
  5
107
331
119
  5
108
331
11A
  5
109
331
11B
  5
10A
331
11C
  5
10B
331
11D
  5
10C
331
11E
  5
10D
331
11F
  5
10E
331
120
  5
10F
331
121
  5
110
331
122
  5
111
331
123
  5
112
331
124
  5
113
331
125
  5
114
331
126
  5
115
331
127
  5
116
331
128
  5
117
331
129
  5
118
331
12A
  5
119
331
12B
  5
11A
331
12C
  5
11B
331
12D
  5
11C
331
12E
  5
11D
331
12F
  5
11E
331
130
  5
11F
331
131
  5
120
331
132
  5
121
331
133
  5
122
331
134
  5
123
331
135
  5
124
331
136
  5
125
331
137
  5
126
331
138
  5
127
331
139
  5
128
331
13A
  5
129
331
13B
  5
12A
331
13C
  5
12B
331
13D
  5
12C
331
13E
  5
12D
331
13F
  5
12E
331
140
  5
12F
331
141
  5
130
331
142
  5
341
331
143
  5
342
331
144
  5
344
331
145
  5
345
331
146
  5
131
331
147
  5
132
331
148
  5
347
331
149
  5
133
331
14A
  5
134
331
14B
  5
135
331
14C
  5
136
331
14D
  5
137
331
14E
  5
138
331
14F
  5
139
331
150
  5
13A
331
151
  5
13B
331
152
  5
13C
331
153
  5
13D
331
154
  5
348
331
155
  5
349
331
156
  5
13E
331
157
  5
13F
331
158
  5
140
331
159
  5
141
331
15A
  5
142
331
15B
  5
143
331
15C
  5
144
331
15D
  5
145
331
15E
  5
146
331
15F
  5
147
331
160
  5
148
331
161
  5
149
331
162
  5
14A
331
163
  5
14B
331
164
  5
14C
331
165
  5
14D
331
166
  5
14E
331
167
  5
35F
331
168
  5
360
331
169
  5
14F
331
16A
  5
150
331
16B
  5
151
331
16C
  5
152
331
16D
  5
153
331
16E
  5
154
331
16F
  5
361
331
170
  5
35E
331
171
  5
155
331
172
  5
156
331
173
  5
157
331
174
  5
158
331
175
  5
159
331
176
  5
15A
331
177
  5
15B
331
178
  5
15C
331
179
  5
15D
331
17A
  5
15E
331
17B
  5
15F
331
17C
  5
160
331
17D
  5
161
331
17E
  5
162
331
17F
  5
163
331
180
  5
34A
331
181
  5
34B
331
182
  5
164
331
183
  5
34C
331
184
  5
34D
331
185
  5
165
331
186
  5
166
331
187
  5
167
331
188
  5
168
331
189
  5
169
331
18A
  5
16A
331
18B
  5
16B
331
18C
  5
16C
331
18D
  5
16D
331
18E
  5
16E
331
18F
  5
16F
331
190
  5
170
331
191
  5
171
331
192
  5
172
331
193
  5
173
331
194
  5
174
331
195
  5
35D
331
196
  5
34E
331
197
  5
34F
331
198
  5
350
331
199
  5
351
331
19A
  5
352
331
19B
  5
353
331
19C
  5
355
331
19D
  5
33B
331
1A1
  5
356
331
1A2
  5
357
331
1A3
  5
358
331
1A4
  5
364
331
1A5
  5
362
331
1A6
  5
363
331
1A7
  5
175
331
1A8
  5
176
331
1A9
  5
177
331
1AA
  5
178
331
1AB
  5
179
331
1AC
  5
17A
331
1AD
  5
17B
331
1AE
  5
17C
331
1AF
  5
17D
331
1B0
  5
17E
331
1B1
  5
17F
331
1B2
  5
180
331
1B3
  5
181
331
1B4
  5
182
331
1B5
  5
183
331
1B6
  5
184
331
1B7
  5
185
331
1B8
  5
186
331
1B9
  5
187
331
1BA
  5
188
331
1BB
  5
189
331
1BC
  5
18A
331
1BD
  5
18B
331
1BE
  5
18C
331
1BF
  5
18D
331
1C0
  5
18E
331
1C1
  5
18F
331
1C2
  5
190
331
1C3
  5
191
331
1C4
  5
192
331
1C5
  5
193
331
1C6
  5
194
331
1C7
  5
195
331
1C8
  5
196
331
1C9
  5
197
331
1CA
  5
198
331
1CB
  5
199
331
1CC
  5
19A
331
1CD
  5
19B
331
1CE
  5
19C
331
1CF
  5
19D
331
1D0
  5
1A1
331
1D1
  5
1A2
331
1D2
  5
1A3
331
1D3
  5
1A4
331
1D4
  5
1A5
331
1D5
  5
1A6
331
1D6
  5
1A7
331
1D7
  5
1A8
331
1D8
  5
1A9
331
1D9
  5
1AA
331
1DA
  5
1AB
331
1DB
  5
1AC
331
1DC
  5
1AD
331
1DD
  5
1AE
331
1DE
  5
1AF
331
1DF
  5
1B0
331
1E0
  5
1B1
331
1E1
  5
1B2
331
1E2
  5
1B3
331
1E3
  5
1B4
331
1E4
  5
1B5
331
1E5
  5
1B6
331
1E6
  5
33F
331
1E9
  5
33D
331
1ED
  5
1B7
331
1EE
  5
1B8
331
1EF
  5
1B9
331
1F0
  5
1BA
331
1F1
  5
1BB
331
1F2
  5
1BC
331
1F3
  5
1BD
331
1F4
  5
1BE
331
1F5
  5
1BF
331
1F6
  5
1C0
331
1F7
  5
1C1
331
1F8
  5
1C2
331
1F9
  5
1C3
331
1FC
  5
1C4
331
1FD
  5
1C5
331
1FE
  5
1C6
331
1FF
  5
1C7
331
200
  5
1C8
331
201
  5
1C9
331
202
  5
1CA
331
203
  5
1CB
331
204
  5
1CC
331
205
  5
1CD
331
206
  5
1CE
331
207
  5
1CF
331
208
  5
1D0
331
209
  5
1D1
331
20A
  5
1D2
331
20B
  5
1D3
331
20E
  5
1D4
331
211
  5
1D5
331
214
  5
1D6
331
217
  5
1D7
331
218
  5
1D8
331
219
  5
33C
331
21A
  5
365
331
21B
  5
1D9
331
21D
  5
1DA
331
21F
  5
2FA
331
220
  5
1DB
331
221
  5
2FB
331
222
  5
2FC
331
223
  5
1DC
331
225
  5
1DD
331
227
  5
1DE
331
229
  5
1DF
331
22B
  5
2FD
331
22C
  5
1E0
331
22D
  5
1E1
331
22E
  5
1E2
331
230
  5
1E3
331
232
  5
1E4
331
234
  5
1E5
331
236
  5
1E6
331
238
  5
2FE
331
239
  5
2FF
331
23A
  5
1E9
331
23C
  5
1ED
331
23E
  5
1EE
331
240
  5
1EF
331
242
  5
1F0
331
244
  5
1F1
331
246
  5
1F2
331
248
  5
1F3
331
24A
  5
1F4
331
24C
  5
300
331
24D
  5
301
331
24E
  5
1F5
331
250
  5
1F6
331
252
  5
1F7
331
253
  5
1F8
331
255
  5
1F9
331
256
  5
1FC
331
258
  5
1FD
331
259
  5
302
331
25A
  5
303
331
25B
  5
1FE
331
25C
  5
304
331
25D
  5
305
331
25E
  5
1FF
331
25F
  5
200
331
260
  5
201
331
261
  5
202
331
262
  5
203
331
263
  5
204
331
264
  5
205
331
265
  5
206
331
266
  5
207
331
267
  5
208
331
268
  5
209
331
269
  5
20A
331
26A
  5
20B
331
26B
  5
20E
331
26C
  5
211
331
26D
  5
214
331
26E
  5
217
331
26F
  5
218
331
270
  5
219
331
271
  5
21A
331
272
  5
21B
331
273
  5
21D
331
274
  5
21F
331
275
  5
220
331
276
  5
221
331
277
  5
222
331
278
  5
223
331
279
  5
225
331
27A
  5
227
331
27B
  5
229
331
27C
  5
22B
331
27D
  5
22C
331
27E
  5
22D
331
27F
  5
22E
331
280
  5
230
331
281
  5
232
331
282
  5
234
331
283
  5
236
331
284
  5
238
331
285
  5
239
331
286
  5
23A
331
287
  5
23C
331
288
  5
23E
331
289
  5
240
331
28A
  5
242
331
28B
  5
244
331
28C
  5
246
331
28D
  5
248
331
28E
  5
24A
331
28F
  5
24C
331
290
  5
24D
331
291
  5
24E
331
292
  5
250
331
293
  5
252
331
294
  5
253
331
295
  5
255
331
296
  5
256
331
297
  5
258
331
298
  5
259
331
299
  5
25A
331
29A
  5
25B
331
29B
  5
25C
331
29C
  5
25D
331
29D
  5
25E
331
29E
  5
25F
331
29F
  5
260
331
2A0
  5
261
331
2A1
  5
262
331
2A2
  5
263
331
2A3
  5
264
331
2A4
  5
265
331
2A5
  5
266
331
2A6
  5
267
331
2A7
  5
268
331
2A8
  5
269
331
2A9
  5
26A
331
2AA
  5
26B
331
2AB
  5
26C
331
2AC
  5
26D
331
2AD
  5
26E
331
2AE
  5
26F
331
2AF
  5
270
331
2B0
  5
271
331
2B1
  5
306
331
2B2
  5
307
331
2B3
  5
272
331
2B4
  5
273
331
2B5
  5
274
331
2B6
  5
275
331
2B7
  5
276
331
2B8
  5
277
331
2B9
  5
278
331
2BA
  5
279
331
2BB
  5
27A
331
2BC
  5
27B
331
2BD
  5
27C
331
2BE
  5
27D
331
2BF
  5
308
331
2C0
  5
309
331
2C1
  5
30A
331
2C2
  5
30B
331
2C3
  5
30C
331
2C4
  5
27E
331
2C6
  5
27F
331
2C7
  5
280
331
2C9
  5
281
331
2CA
  5
282
331
2CB
  5
283
331
2CC
  5
30D
331
2CD
  5
284
331
2CE
  5
285
331
2D9
  5
286
331
2DA
  5
287
331
2E5
  5
30F
331
2E6
  5
311
331
2E7
  5
288
331
2E8
  5
289
331
2E9
  5
312
331
2EA
  5
313
331
2EB
  5
28A
331
2EC
  5
28B
331
2ED
  5
314
331
2EE
  5
316
331
2EF
  5
28C
331
2F0
  5
28D
331
2F1
  5
28E
331
2F2
  5
28F
331
2F3
  5
290
331
2F4
  5
291
331
2F5
  5
292
331
2F6
  5
293
331
2F7
  5
294
331
2F8
  5
295
331
2F9
  5
296
331
2FA
  5
297
331
2FB
  5
298
331
2FC
  5
299
331
2FD
  5
29A
331
2FE
  5
29B
331
2FF
  5
29C
331
300
  5
29D
331
301
  5
29E
331
302
  5
29F
331
303
  5
2A0
331
304
  5
2A1
331
305
  5
2A2
331
306
  5
2A3
331
307
  5
2A4
331
308
  5
318
331
309
  5
31A
331
30A
  5
2A5
331
30B
  5
2A6
331
30C
  5
31C
331
30D
  5
2A7
331
30F
  5
2A8
331
311
  5
2A9
331
312
  5
31D
331
313
  5
31F
331
314
  5
2AA
331
316
  5
2AB
331
318
  5
2AC
331
31A
  5
2AD
331
31C
  5
321
331
31D
  5
2AE
331
31F
  5
2AF
331
321
  5
2B0
331
323
  5
2B1
331
325
  5
2B2
331
327
  5
323
331
328
  5
325
331
329
  5
2B3
331
32B
  5
2B4
331
32D
  5
2B5
331
32F
  5
2B6
331
331
  5
2B7
331
333
  5
2B8
331
335
  5
2B9
331
337
  5
2BA
331
339
  5
2BB
331
33B
  5
327
331
33C
  5
328
331
33D
  5
2BC
331
33F
  5
2BD
331
341
  5
2BE
331
342
  5
2BF
331
344
  5
2C0
331
345
  5
2C1
331
347
  5
2C2
331
348
  5
329
331
349
  5
32B
331
34A
  5
2C3
331
34B
  5
32D
331
34C
  5
32F
331
34D
  5
2C4
331
34E
  5
2C6
331
34F
  5
2C7
331
350
  5
2C9
331
351
  5
331
331
352
  5
2CA
331
353
  5
2CB
331
355
  5
2CC
331
356
  5
2CD
331
357
  5
2CE
331
358
  5
2D9
331
359
  5
2DA
331
35A
  5
2E5
331
35B
  5
2E6
331
35C
  5
333
331
35D
  5
2E7
331
35E
  5
2E8
331
35F
  5
359
331
360
  5
339
331
361
  5
335
331
362
  5
337
331
363
  5
35A
331
364
  5
35B
331
365
  5
35C
  0
LAYOUT
  5
3D0
102
{ACAD_REACTORS
330
3CC
330
3CC
102
}
102
{ACAD_XDICTIONARY
360
3D1
102
}
330
3CC
100
AcDbPlotSettings
  1

  2
none_device
  4
Letter_(8.50_x_11.00_Inches)
  6

 40
6.35
 41
6.35
 42
6.350006
 43
6.350006
 44
215.899994
 45
279.399994
 46
0.0
 47
0.0
 48
0.0
 49
0.0
140
0.0
141
0.0
142
1.0
143
1.0
 70
   688
 72
     0
 73
     1
 74
     5
  7

 75
    16
 76
     0
 77
     2
 78
   300
147
1.0
148
0.0
149
0.0
100
AcDbLayout
  1
Layout1
 70
     1
 71
     1
 10
-0.25
 20
-0.25
 11
10.75
 21
8.25
 12
0.0
 22
0.0
 32
0.0
 14
1.049744
 24
0.799667
 34
-0.001526
 15
9.450623
 25
7.200577
 35
0.0
146
0.0
 13
0.0
 23
0.0
 33
0.0
 16
1.0
 26
0.0
 36
0.0
 17
0.0
 27
1.0
 37
0.0
 76
     0
330
3CD
1001
ACAD_PSEXT
1000
None
1000
None
1000
Not applicable
1000
The layout will not be plotted unless a new plotter configuration name is selected.
1070
     0
  0
LAYOUT
  5
3CB
102
{ACAD_REACTORS
330
3CC
330
3CC
102
}
330
3CC
100
AcDbPlotSettings
  1

  2
none_device
  4
ANSI_A_(8.50_x_11.00_Inches)
  6

 40
6.35
 41
19.049999
 42
6.350006
 43
19.049988
 44
215.899994
 45
279.399994
 46
0.0
 47
0.0
 48
0.0
 49
0.0
140
0.0
141
0.0
142
1.0
143
2.584895
 70
 11952
 72
     0
 73
     1
 74
     0
  7

 75
     0
 76
     0
 77
     2
 78
   300
147
0.386863
148
0.0
149
0.0
100
AcDbLayout
  1
Model
 70
     1
 71
     0
 10
0.0
 20
0.0
 11
12.0
 21
9.0
 12
0.0
 22
0.0
 32
0.0
 14
0.0
 24
0.0
 34
0.0
 15
0.0
 25
0.0
 35
0.0
146
0.0
 13
0.0
 23
0.0
 33
0.0
 16
1.0
 26
0.0
 36
0.0
 17
0.0
 27
1.0
 37
0.0
 76
     0
330
3C8
331
49
  0
MLINESTYLE
  5
3C5
102
{ACAD_REACTORS
330
3C6
102
}
330
3C6
100
AcDbMlineStyle
  2
STANDARD
 70
     0
  3

 62
   256
 51
90.0
 52
90.0
 71
     2
 49
0.5
 62
   256
  6
BYLAYER
 49
-0.5
 62
   256
  6
BYLAYER
  0
ACDBPLACEHOLDER
  5
3BA
102
{ACAD_REACTORS
330
3BB
102
}
330
3BB
  0
XRECORD
  5
3B4
102
{ACAD_REACTORS
330
3DF
102
}
330
3DF
100
AcDbXrecord
280
     1
310
3E4F020000004D6F64656C6572000000000000000000000000000000000000000000000000000000000000000000000000000000000000000000000000000000000000000000000000000000000000000000000000000000000000000000000000000000000000000000000000000000000000000000000000000000000000
310
00000000000000000000000000000000000000000000000000000000000000000000000000000000000000000000000000000000000000000000000000000000000000000000000000000000000000000000000000000000000000000000000000000000000000000000000000000000000000000000000000000000000000
310
00
310
00000000000000000000000000000000000000000000000000000000000000000000000000000000000000000000000000000000000000000000000000000000000000000000000000000000000000000000000000000000000000000000000000000000000000000000000000000000000000000000000000000000000000
310
00000000000000000000000000000000000000000000000000000000000000000000000000000000000000000000000000000000000000000000000000000000000000000000000000000000000000000000000000000000000000000000000000000000000000000000000000000000000000000000000000000000000000
310
00
310
00000000000000000000000000000000000000000000000000000000000000000000000000000000000000000000000000000000000000000000000000000000000000000000000000000000000000000000000000000000000000000000000000000000000000000000000000000000000000000000000000000000000000
310
00000000000000000000000000000000000000000000000000000000000000000000000000000000000000000000000000000000000000000000000000000000000000000000000000000000000000000000000000000000000000000000000000000000000000000000000000000000000000000000000000000000000000
310
00
310
00000000000000000000000000000000000000000000000000000000000000000000000000000000000000000000000000000000000000000000000000000000000000000000000000000000000000000000000000000000000000000000000000000000000000000000000000000000000000000000000000000000000000
310
00000000000000000000000000000000000000000000000000000000000000000000000000000000000000000000000000000000000000000000000000000000000000000000000000000000000000000000000000000000000000000000000000000000000000000000000000000000000000000000000000000000000000
310
00
310
00000000000000000000000000000000000000000000000000000000000000000000000000000000000000000000000000000000000000000000000000000000000000000000000000000000000000000000000000000000000000000000000000000000000000000000000000000000000000000000000000000000000000
310
00000000000000000000000000000000000000000000000000000000000000000000000000000000000000000000000000000000000000000000000000000000000000000000000000000000000000000000000000000000000000000000000000000000000000000000000000000000000000000000000000000000000000
310
00
310
00000000000000000000000000000000000000000000000000000000000000000000000000000000000000000000000000000000000000000000000000000000000000000000000000000000000000000000000000000000000000000000000000000000000000000000000000000000000000000000000000000000000000
310
00000000000000000000000000000000000000000000000000000000000000000000000000000000000000000000000000000000000000000000000000000000000000000000000000000000000000000000000000000000000000000000000000000000000000000000000000000000000000000000000000000000000000
310
00
310
00000000000000000000000000000000000000000000000000000000000000000000000000000000000000000000000000000000000000000000000000000000000000000000000000000000000000000000000000000000000000000000000000000000000000000000000000000000000000000000000000000000000000
310
00000000000000000000000000000000000000000000000000000000000000000000000000000000000000000000000000000000000000000000000000000000000000000000000000000000000000000000000000000000000000000000000000000000000000000000000000000000000000000000000000000000000000
310
00
310
00000000000000000000000000000000000000000000000000000000000000000000000000000000000000000000000000000000000000000000000000000000000000000000000000000000000000000000000000000000000000000000000000000000000000000000000000000000000000000000000000000000000000
310
00000000000000000000000000000000000000000000000000000000000000000000000000000000000000000000000000000000000000000000000000000000000000000000000000000000000000000000000000000000000000000000000000000000000000000000000000000000000000000000000000000000000000
310
00
310
00000000000000000000000000000000000000000000000000000000000000000000000000000000000000000000000000000000000000000000000000000000000000000000000000000000000000000000000000000000000000000000000000000000000000000000000000000000000000000000000000000000000000
310
00000000000000000000000000000000000000000000000000000000000000000000000000000000000000000000000000000000000000000000000000000000000000000000000000000000000000000000000000000000000000000000000000000000000000000000000000000000000000000000000000000000000000
310
00
310
00000000000000000000000000000000000000000000000000000000000000000000000000000000000000000000000000000000000000000000000000000000000000000000000000000000000000000000000000000000000000000000000000000000000000000000000000000000000000000000000000000000000000
310
00000000000000000000000000000000000000000000000000000000000000000000000000000000000000000000000000000000000000000000000000000000000000000000000000000000000000000000000000000000000000000000000000000000000000000000000000000000000000000000000000000000000000
310
00
310
00000000000000000000000000000000000000000000000000000000000000000000000000000000000000000000000000000000000000000000000000000000000000000000000000000000000000000000000000000000000000000000000000000000000000000000000000000000000000000000000000000000000000
310
00000000000000000000000000000000000000000000000000000000000000000000000000000000000000000000000000000000000000000000000000000000000000000000000000000000000000000000000000000000000000000000000000000000000000000000000000000000000000000000000000000000000000
310
00
310
00000000000000000000000000000000000000000000000000000000000000000000000000000000000000000000000000000000000000000000000000000000000000000000000000000000000000000000000000000000000000000000000000000000000000000000000000000000000000000000000000000000000000
310
00000000000000000000000000000000000000000000000000000000000000000000000000000000000000000000000000000000000000000000000000000000000000000000000000000000000000000000000000000000000000000000000000000000000000000000000000000000000000000000000000000000000000
310
00
310
00000000000000000000000000000000000000000000000000000000000000000000000000000000000000000000000000000000000000000000000000000000000000000000000000000000000000000000000000000000000000000000000000000000000000000000000000000000000000000000000000000000000000
310
00000000000000000000000000000000000000000000000000000000000000000000000000000000000000000000000000000000000000000000000000000000000000000000000000000000000000000000000000000000000000000000000000000000000000000000000000000000000000000000000000000000000000
310
00
310
00000000000000000000000000000000000000000000000000000000000000000000000000000000000000000000000000000000000000000000000000000000000000000000000000000000000000000000000000000000000000000000000000000000000000000000000000000000000000
  0
XRECORD
  5
3B3
102
{ACAD_REACTORS
330
3DF
102
}
330
3DF
100
AcDbXrecord
280
     1
310
DF56060034040701D0009A9999999999B93F000000000000000000000000000000000400000009000000000000000200000064000000640000000100000001000000190000007B14AE47E17A843F00000000004060409A9999999999B93F00000000006AF840000000000088C34000000000004CED40000000000000000000
310
0000000000000000000000000000000AD482040000000000000000000000000000F03F000000000000000000000000000030402D431CEBE2362A3F00000000000008400000000000000000009807C000000000000000007C1A61B9A711364020000000050000000A000000200000002000000020000000000000000000F03F
310
00
310
0000000000F03F000000000000F03F333333333333D33F333333333333D33F333333333333D33F000000000000F43F000000000000F43F000000000000F03F0200000064000000000000000000000000000840000000000000F83F00000000000000000000000000000000008056409A9999999999B93F0000000000000000
310
00000000000000000000000000000000000000000000000000000000000000000000000000000000000000000000000000000000000000000000000000000000000000000000000000000000000000000000000000000000000000000000000000000000000000000000000000000000000000000000000000000000000000
310
00
310
0000000000000000000000000000000000000000000000000000000000000000000000000000000000000000000000000000000000000000000000000000000000000000000000000000000000000000000000000000000000000000000000000000000000000000000000000000000000000000000000009A9999999999A9
310
3F910000000000000000000000000000000000000000404540000000000000F03F000000000000F03F666666666666164000000000104068F200000000000000000000000000000000000000000000000000000000000000000000000000000000000000000000000000000000000000000000000000000000000000000000
310
00
310
00000000000000000000000000000000000000000000000000000000000000000000000000000000000000000000000000000000000000000000000000000000000000000000000000000000000000000000000000000000000000000000000000000000000000000000000000000000000000000000000000000000000000
310
000000000000000000000000000000000000000000000000000000000000000000000000000000000000000000000000000000000000000000000000FF000000000000000000000000000000000000000000000000000000000000000000000000000000000000000000000000000000000000000000000000000000000000
310
00
310
0000000000000000000000000000000000000000000000000000000000000000000000000000000000000000000000000000000000000000000000000000000000000000
  0
DICTIONARY
  5
3D1
330
3D0
100
AcDbDictionary
280
     1
281
     1
  3
ADSK_XREC_LAYOUTTHUMBNAIL
360
3D2
  0
XRECORD
  5
3D2
102
{ACAD_REACTORS
330
3D1
102
}
330
3D1
100
AcDbXrecord
280
     1
310
28000000B40000008B0000000100080000000000BC61000000000000000000000001000000000000FFFFFF0000000000FFFFFF000000000000000000000000000000000000000000000000000000000000000000330000006600000099000000CC000000FF00000000330000333300006633000099330000CC330000FF3300
310
0000660000336600006666000099660000CC660000FF66000000990000339900006699000099990000CC990000FF99000000CC000033CC000066CC000099CC0000CCCC0000FFCC000000FF000033FF000066FF000099FF0000CCFF0000FFFF000000003300330033006600330099003300CC003300FF003300003333003333
310
33006633330099333300CC333300FF33330000663300336633006666330099663300CC663300FF66330000993300339933006699330099993300CC993300FF99330000CC330033CC330066CC330099CC3300CCCC3300FFCC330000FF330033FF330066FF330099FF3300CCFF3300FFFF330000006600330066006600660099
310
006600CC006600FF00660000336600333366006633660099336600CC336600FF33660000666600336666006666660099666600CC666600FF66660000996600339966006699660099996600CC996600FF99660000CC660033CC660066CC660099CC6600CCCC6600FFCC660000FF660033FF660066FF660099FF6600CCFF6600
310
FFFF660000009900330099006600990099009900CC009900FF00990000339900333399006633990099339900CC339900FF33990000669900336699006666990099669900CC669900FF66990000999900339999006699990099999900CC999900FF99990000CC990033CC990066CC990099CC9900CCCC9900FFCC990000FF99
310
0033FF990066FF990099FF9900CCFF9900FFFF99000000CC003300CC006600CC009900CC00CC00CC00FF00CC000033CC003333CC006633CC009933CC00CC33CC00FF33CC000066CC003366CC006666CC009966CC00CC66CC00FF66CC000099CC003399CC006699CC009999CC00CC99CC00FF99CC0000CCCC0033CCCC0066CC
310
CC0099CCCC00CCCCCC00FFCCCC0000FFCC0033FFCC0066FFCC0099FFCC00CCFFCC00FFFFCC000000FF003300FF006600FF009900FF00CC00FF00FF00FF000033FF003333FF006633FF009933FF00CC33FF00FF33FF000066FF003366FF006666FF009966FF00CC66FF00FF66FF000099FF003399FF006699FF009999FF00CC
310
99FF00FF99FF0000CCFF0033CCFF0066CCFF0099CCFF00CCCCFF00FFCCFF0000FFFF0033FFFF0066FFFF0099FFFF00CCFFFF00FFFFFF00000000000D0D0D001A1A1A00282828003535350043434300505050005D5D5D006B6B6B00787878008686860093939300A1A1A100AEAEAE00BBBBBB00C9C9C900D6D6D600E4E4E400
310
F1F1F100FFFFFF0000000000000000000000000000000000000000000000000000000000000000000000000000000000E2E2E2E2E2E2E2E2E2E2E2E2E2E2E2E2E2E2E2E2E2E2E2E2E2E2E2E2E2E2E2E2E2E2E2E2E2E2E2E2E2E2E2E2E2E2E2E2E2E2E2E2E2E2E2E2E2E2E2E2E2E2E2E2E2E2E2E2E2E2E2E2E2E2E2E2E2E2E2
310
E2E2E2E2E2E2E2E2E2E2E2E2E2E2E2E2E2E2E2E2E2E2E2E2E2E2E2E2E2E2E2E2E2E2E2E2E2E2E2E2E2E2E2E2E2E2E2E2E2E2E2E2E2E2E2E2E2E2E2E2E2E2E2E2E2E2E2E2E2E2E2E2E2E2E2E2E2E2E2E2E2E2E2E2E2E2E2E2E2E2E2E2E2E2E2E2E2E2E2E2EFF5F5F5F5F5F5F5F5F5F5F5F5F5F5F5F5F5F5F5F5F5F5F5F5F5F5
310
F5F5F5F5F5F5F5F5F5F5F5F5F5F5F5F5F5F5F5F5F5F5F5F5F5F5F5F5F5F5F5F5F5F5F5F5F5F5F5F5F5F5F5F5F5F5F5F5F5F5F5F5F5F5F5F5F5F5F5F5F5F5F5F5F5F5F5F5F5F5F5F5F5F5F5F5F5F5F5F5F5F5F5F5F5F5F5F5F5F5F5F5F5F5F5F5F5F5F5F5F5F5F5F5F5F5F5F5F5F5F5F5F5F5F5F5F5F5F5F5F5F5F5F5F5F5F5
310
F5F5F5F5F5F5F5F5F5F5F5F5F5F5F5F5F5F5F5F5F5F5F5F5E2E2EFF5F5F5F5F5F5F5F5F5F5F5F5F5F5F5F5F5F5F5F5F5F5F5F5F5F5F5F5F5F5F5F5F5F5F5F5F5F5F5F5F5F5F5F5F5F5F5F5F5F5F5F5F5F5F5F5F5F5F5F5F5F5F5F5F5F5F5F5F5F5F5F5F5F5F5F5F5F5F5F5F5F5F5F5F5F5F5F5F5F5F5F5F5F5F5F5F5F5F5F5
310
F5F5F5F5F5F5F5F5F5F5F5F5F5F5F5F5F5F5F5F5F5F5F5F5F5F5F5F5F5F5F5F5F5F5F5F5F5F5F5F5F5F5F5F5F5F5F5F5F5F5F5F5F5F5F5F5F5F5F5F5F5F5F5F5F5F5F5F5F5F5F5F5F5F5F5F5F5E2E2EFF5F5F5F5F5F5F5F5F5F5F5F5F5F5F5F5F5F5F5F5F5F5F5F5F5F5F5F5F5F5F5F5F5F5F5F5F5F5F5F5F5F5F5F5F5F5F5
310
F5F5F5F5F5F5F5F5F5F5F5F5F5F5F5F5F5F5F5F5F5F5F5F5F5F5F5F5F5F5F5F5F5F5F5F5F5F5F5F5F5F5F5F5F5F5F5F5F5F5F5F5F5F5F5F5F5F5F5F5F5F5F5F5F5F5F5F5F5F5F5F5F5F5F5F5F5F5F5F5F5F5F5F5F5F5F5F5F5F5F5F5F5F5F5F5F5F5F5F5F5F5F5F5F5F5F5F5F5F5F5F5F5F5F5F5F5F5F5F5F5F5F5F5F5F5F5
310
F5F5F5E2E2EFF5F5F5E2E2E2E2E2E2E2E2F5F5F5F5F5F5F5F5F5E2E2E2E2E2E2E2E2E2E2E2E2E2E2E2E2F5F5F5F5F5F5F5F5E2E2E2E2E2E2E2E2E2E2E2E2E2E2E2E2F5F5F5F5F5F5F5F5F5E2E2E2E2E2E2E2E2E2E2E2E2E2E2E2F5F5F5F5F5F5F5F5F5E2E2E2E2E2E2E2E2E2E2E2E2E2E2E2F5F5F5F5F5F5F5F5F5E2E2E2E2
310
E2E2E2E2E2E2E2E2E2E2E2E2F5F5F5F5F5F5F5F5E2E2E2E2E2E2E2E2E2E2E2E2E2E2E2E2F5F5F5F5F5F5F5F5F5E2E2E2E2E2E2E2E2F5F5F5E2E2EFF5F5F5E2F5F5F5F5F5F5F5F5F5F5F5F5F5F5F5F5F5F5F5F5F5F5F5F5F5F5F5F5F5F5F5F5F5F5F5F5F5F5F5F5F5F5F5F5F5F5F5F5F5F5F5F5F5F5F5F5F5F5F5F5F5F5F5F5
310
F5F5F5F5F5F5F5F5F5F5F5F5F5F5F5F5F5F5F5F5F5F5F5F5F5F5F5F5F5F5F5F5F5F5F5F5F5F5F5F5F5F5F5F5F5F5F5F5F5F5F5F5F5F5F5F5F5F5F5F5F5F5F5F5F5F5F5F5F5F5F5F5F5F5F5F5F5F5F5F5F5F5F5F5F5F5F5F5F5F5F5F5F5F5F5F5F5F5F5F5F5F5F5F5F5E2F5F5F5E2E2EFF5F5F5E2F5F5F5F5F5F5F5F5F5F5F5
310
F5F5F5F5F5F5F5F5F5F5F5F5F5F5F5F5F5F5F5F5F5F5F5F5F5F5F5F5F5F5F5F5F5F5F5F5F5F5F5F5F5F5F5F5F5F5F5F5F5F5F5F5F5F5F5F5F5F5F5F5F5F5F5F5F5F5F5F5F5F5F5F5F5F5F5F5F5F5F5F5F5F5F5F5F5F5F5F5F5F5F5F5F5F5F5F5F5F5F5F5F5F5F5F5F5F5F5F5F5F5F5F5F5F5F5F5F5F5F5F5F5F5F5F5F5F5F5
310
F5F5F5F5F5F5F5F5F5F5F5F5F5F5F5F5F5F5F5F5F5F5F5F5F5F5F5F5F5F5F5E2F5F5F5E2E2EFF5F5F5E2F5F5F5F5F5F5F5F5F5F5F5F5F5F5F5F5F5F5F5F5F5F5F5F5F5F5F5F5F5F5F5F5F5F5F5F5F5F5F5F5F5F5F5F5F5F5F5F5F5F5F5F5F5F5F5F5F5F5F5F5F5F5F5F5F5F5F5F5F5F5F5F5F5F5F5F5F5F5F5F5F5F5F5F5F5
310
F5F5F5F5F5F5F5F5F5F5F5F5F5F5F5F5F5F5F5F5F5F5F5F5F5F5F5F5F5F5F5F5F5F5F5F5F5F5F5F5F5F5F5F5F5F5F5F5F5F5F5F5F5F5F5F5F5F5F5F5F5F5F5F5F5F5F5F5F5F5F5F5F5F5F5F5F5F5F5F5F5F5F5F5E2F5F5F5E2E2EFF5F5F5E2F5F5F5F5F5F5F5F5F5F5F5F5F5F5F5F5F5F5F5F5F5F5F5F5F5F5F5F5F5F5F5F5
310
F5F5F5F5F5F5F5F5F5F5F5F5F5F5F5F5F5F5F5F5F5F5F5F5F5F5F5F5F5F5F5F5F5F5F5F5F5F5F5F5F5F5F5F5F5F5F5F5F5F5F5F5F5F5F5F5F5F5F5F5F5F5F5F5F5F5F5F5F5F5F5F5F5F5F5F5F5F5F5F5F5F5F5F5F5F5F5F5F5F5F5F5F5F5F5F5F5F5F5F5F5F5F5F5F5F5F5F5F5F5F5F5F5F5F5F5F5F5F5F5F5F5F5F5F5F5F5
310
F5F5F5F5F5F5F5F5F5F5E2F5F5F5E2E2EFF5F5F5E2F5F5F5F5F5F5F5F5F5F5F5F5F5F5F5F5F5F5F5F5F5F5F5F5F5F5F5F5F5F5F5F5F5F5F5F5F5F5F5F5F5F5F5F5F5F5F5F5F5F5F5F5F5F5F5F5F5F5F5F5F5F5F5F5F5F5F5F5F5F5F5F5F5F5F5F5F5F5F5F5F5F5F5F5F5F5F5F5F5F5F5F5F5F5F5F5F5F5F5F5F5F5F5F5F5F5
310
F5F5F5F5F5F5F5F5F5F5F5F5F5F5F5F5F5F5F5F5F5F5F5F5F5F5F5F5F5F5F5F5F5F5F5F5F5F5F5F5F5F5F5F5F5F5F5F5F5F5F5F5F5F5F5F5F5F5F5F5F5F5F5E2F5F5F5E2E2EFF5F5F5E2F5F5F5F5F5F5F5F5F5F5F5F5F5F5F5F5F5F5F5F5F5F5F5F5F5F5F5F5F5F5F5F5F5F5F5F5F5F5F5F5F5F5F5F5F5F5F5F5F5F5F5F5F5
310
F5F5F5F5F5F5F5F5F5F5F5F5F5F5F5F5F5F5F5F5F5F5F5F5F5F5F5F5F5F5F5F5F5F5F5F5F5F5F5F5F5F5F5F5F5F5F5F5F5F5F5F5F5F5F5F5F5F5F5F5F5F5F5F5F5F5F5F5F5F5F5F5F5F5F5F5F5F5F5F5F5F5F5F5F5F5F5F5F5F5F5F5F5F5F5F5F5F5F5F5F5F5F5F5F5F5F5F5F5F5F5F5F5F5F5F5E2F5F5F5E2E2EFF5F5F5E2
310
F5F5F5F5F5F5F5F5F5F5F5F5F5F5F5F5F5F5F5F5F5F5F5F5F5F5F5F5F5F5F5F5F5F5F5F5F5F5F5F5F5F5F5F5F5F5F5F5F5F5F5F5F5F5F5F5F5F5F5F5F5F5F5F5F5F5F5F5F5F5F5F5F5F5F5F5F5F5F5F5F5F5F5F5F5F5F5F5F5F5F5F5F5F5F5F5F5F5F5F5F5F5F5F5F5F5F5F5F5F5F5F5F5F5F5F5F5F5F5F5F5F5F5F5F5F5F5
310
F5F5F5F5F5F5F5F5F5F5F5F5F5F5F5F5F5F5F5F5F5F5F5F5F5F5F5F5F5F5F5F5F5F5F5F5F5F5F5F5F5F5E2F5F5F5E2E2EFF5F5F5E2F5F5F5F5F5F5F5F5F5F5F5F5F5F5F5F5F5F5F5F5F5F5F5F5F5F5F5F5F5F5F5F5F5F5F5F5F5F5F5F5F5F5F5F5F5F5F5F5F5F5F5F5F5F5F5F5F5F5F5F5F5F5F5F5F5F5F5F5F5F5F5F5F5F5
310
F5F5F5F5F5F5F5F5F5F5F5F5F5F5F5F5F5F5F5F5F5F5F5F5F5F5F5F5F5F5F5F5F5F5F5F5F5F5F5F5F5F5F5F5F5F5F5F5F5F5F5F5F5F5F5F5F5F5F5F5F5F5F5F5F5F5F5F5F5F5F5F5F5F5F5F5F5F5F5F5F5F5F5F5F5F5F5F5F5F5F5F5F5F5F5E2F5F5F5E2E2EFF5F5F5F5F5F5F5F5F5F5F5F5F5F5F5F5F5F5F5F5F5F5F5F5F5
310
F5F5F5F5F5F5F5F5F5F5F5F5F5F5F5F5F5F5F5F5F5F5F5F5F5F5F5F5F5F5F5F5F5F5F5F5F5F5F5F5F5F5F5F5F5F5F5F5F5F5F5F5F5F5F5F5F5F5F5F5F5F5F5F5F5F5F5F5F5F5F5F5F5F5F5F5F5F5F5F5F5F5F5F5F5F5F5F5F5F5F5F5F5F5F5F5F5F5F5F5F5F5F5F5F5F5F5F5F5F5F5F5F5F5F5F5F5F5F5F5F5F5F5F5F5F5F5
310
F5F5F5F5F5F5F5F5F5F5F5F5F5F5F5F5F5F5F5F5F5F5F5F5F5E2E2EFF5F5F5F5F5F5F5F5F5F5F5F5F5F5F5F5F5F5F5F5F5F5F5F5F5F5F5F5F5F5F5F5F5F5F5F5F5F5F5F5F5F5F5F5F5F5F5F5F5F5F5F5F5F5F5F5F5F5F5F5F5F5F5F5F5F5F5F5F5F5F5F5F5F5F5F5F5F5F5F5F5F5F5F5F5F5F5F5F5F5F5F5F5F5F5F5F5F5F5
310
F5F5F5F5F5F5F5F5F5F5F5F5F5F5F5F5F5F5F5F5F5F5F5F5F5F5F5F5F5F5F5F5F5F5F5F5F5F5F5F5F5F5F5F5F5F5F5F5F5F5F5F5F5F5F5F5F5F5F5F5F5F5F5F5F5F5F5F5F5F5F5F5F5F5F5F5F5F5E2E2EFF5F5F5F5F5F5F5F5F5F5F5F5F5F5F5F5F5F5F5F5F5F5F5F5F5F5F5F5F5F5F5F5F5F5F5F5F5F5F5F5F5F5F5F5F5F5
310
F5F5F5F5F5F5F5F5F5F5F5F5F5F5F5F5F5F5F5F5F5F5F5F5F5F5F5F5F5F5F5F5F5F5F5F5F5F5F5F5F5F5F5F5F5F5F5F5F5F5F5F5F5F5F5F5F5F5F5F5F5F5F5F5F5F5F5F5F5F5F5F5F5F5F5F5F5F5F5F5F5F5F5F5F5F5F5F5F5F5F5F5F5F5F5F5F5F5F5F5F5F5F5F5F5F5F5F5F5F5F5F5F5F5F5F5F5F5F5F5F5F5F5F5F5F5F5
310
F5F5F5F5E2E2EFF5F5F5F5F5F5F5F5F5F5F5F5F5F5F5F5F5F5F5F5F5F5F5F5F5F5F5F5F5F5F5F5F5F5F5F5F5F5F5F5F5F5F5F5F5F5F5F5F5F5F5F5F5F5F5F5F5F5F5F5F5F5F5F5F5F5F5F5F5F5F5F5F5F5F5F5F5F5F5F5F5F5F5F5F5F5F5F5F5F5F5F5F5F5F5F5F5F5F5F5F5F5F5F5F5F5F5F5F5F5F5F5F5F5F5F5F5F5F5F5
310
F5F5F5F5F5F5F5F5F5F5F5F5F5F5F5F5F5F5F5F5F5F5F5F5F5F5F5F5F5F5F5F5F5F5F5F5F5F5F5F5F5F5F5F5F5F5F5F5F5F5F5F5F5F5F5F5F5E2E2EFF5F5F5F5F5F5F5F5F5F5F5F5F5F5F5F5F5F5F5F5E2E2E2E2E2E2E2E2E2E2E2E2E2E2E2E2E2E2E2E2E2E2E2E2E2E2E2E2E2E2E2E2E2E2E2E2E2E2E2E2E2E2E2E2E2E2E2
310
E2E2E2E2E2E2E2E2E2E2E2E2E2E2E2E2E2E2E2E2E2E2E2E2E2E2E2E2E2E2E2E2E2E2E2E2E2E2E2E2E2E2E2E2E2E2E2E2E2E2E2E2E2E2E2E2E2E2E2E2E2E2E2E2E2E2E2E2E2E2E2E2E2E2E2E2E2E2E2E2E2E2E2E2E2E2E2E2E2E2F5F5F5F5F5F5F5F5F5F5F5F5F5F5F5F5F5F5F5F5E2E2EFF5F5F5F5F5F5F5F5F5F5F5F5F5F5
310
F5F5F5F5F5F5E2F5F5F5F5F5F5F5F5F5F5F5F5F5F5F5F5F5F5F5F5F5F5F5F5F5F5F5F5F5F5F5F5F5F5F5F5F5F5F5F5F5F5F5F5F5F5F5F5F5F5F5F5F5F5F5F5F5F5F5F5F5F5F5F5F5F5F5F5F5F5F5F5F5F5F5F5F5F5F5F5F5F5F5F5F5F5F5F5F5F5F5F5F5F5F5F5F5F5F5F5F5F5F5F5F5F5F5F5F5F5F5F5F5F5F5F5F5F5F5F5
310
F5F5F5F5F5F5F5F5F5F5F5F5F5F5F5E2F5F5F5F5F5F5F5F5F5F5F5F5F5F5F5F5F5F5F5F5E2E2EFF5F5F5F5F5F5F5F5F5F5F5F5F5F5F5F5F5F5F5F5E2F5F5F5F5F5F5F5F5F5F5F5F5F5F5F5F5F5F5F5F5F5F5F5F5F5F5F5F5F5F5F5F5F5F5F5F5F5F5F5F5F5F5F5F5F5F5F5F5F5F5F5F5F5F5F5F5F5F5F5F5F5F5F5F5F5F5F5
310
F5F5F5F5F5F5F5F5F5F5F5F5F5F5F5F5F5F5F5F5F5F5F5F5F5F5F5F5F5F5F5F5F5F5F5F5F5F5F5F5F5F5F5F5F5F5F5F5F5F5F5F5F5F5F5F5F5F5F5F5F5F5F5F5F5F5F5F5E2F5F5F5F5F5F5F5F5F5F5F5F5F5F5F5F5F5F5F5F5E2E2EFF5F5F5F5F5F5F5F5F5F5F5F5F5F5F5F5F5F5F5F5E2F5F5F5F5F5F5F5F5F5F5F5F5F5F5
310
F5F5F5F5F5F5F5F5F5F5F5F5F5F5F5F5F5F5F5F5F5F5F5F5F5F5F5F5F5F5F5F5F5F5F5F5F5F5F5F5F5F5F5F5F5F5F5F5F5F5F5F5F5F5F5F5F5F5F5F5F5F5F5F5F5F5F5F5F5F5F5F5F5F5F5F5F5F5F5F5F5F5F5F5F5F5F5F5F5F5F5F5F5F5F5F5F5F5F5F5F5F5F5F5F5F5F5F5F5F5F5F5F5F5F5F5F5F5F5F5F5E2F5F5F5F5F5
310
F5F5F5F5F5F5F5F5F5F5F5F5F5F5F5E2E2EFF5F5F5F5F5F5F5F5F5F5F5F5F5F5F5F5F5F5F5F5E2F5F5F5F5F5F5F5F5F5F5F5F5F5F5F5F5F5F5F5F5F5F5F5F5F5F5F5F5F5F5F5F5F5F5F5F5F5F5F5F5F5F5F5F5F5F5F5F5F5F5F5F5F5F5F5F5F5F5F5F5F5F5F5F5F5F5F5F5F5F5F5F5F5F5F5F5F5F5F5F5F5F5F5F5F5F5F5F5
310
F5F5F5F5F5F5F5F5F5F5F5F5F5F5F5F5F5F5F5F5F5F5F5F5F5F5F5F5F5F5F5F5F5F5F5F5F5F5F5F5F5F5F5F5F5F5F5E2F5F5F5F5F5F5F5F5F5F5F5F5F5F5F5F5F5F5F5F5E2E2EFF5F5F5E2F5F5F5F5F5F5F5F5F5F5F5F5F5F5F5F5E2F5F5F5F5F5F5F5F5F5F5F5F5F5F5F5F5F5F5F5F5F5F5F5F5F5F5F5F5F5F5F5F5F5F5F5
310
F5F5F5F5F5F5F5F5F5F5F5F5F5F5F5F5F5F5F5F5F5F5F5F5F5F5F5F5F5F5F5F5F5F5F5F5F5F5F5F5F5F5F5F5F5F5F5F5F5F5F5F5F5F5F5F5F5F5F5F5F5F5F5F5F5F5F5F5F5F5F5F5F5F5F5F5F5F5F5F5F5F5F5F5F5F5F5F5F5F5F5F5F5F5F5F5F5F5F5F5E2F5F5F5F5F5F5F5F5F5F5F5F5F5F5F5F5E2F5F5F5E2E2EFF5F5F5
310
E2F5F5F5F5F5F5F5F5F5F5F5F5F5F5F5F5E2F5F5F5F5F5F5F5F5F5F5F5F5F5F5F5F5F5F5F5F5F5F5F5F5F5F5F5F5F5F5F5F5F5F5F5F5F5F5F5F5F5F5F5F5F5F5F5F5F5F5F5F5F5F5F5F5F5F5F5F5F5F5F5F5F5F5F5F5F5F5F5F5F5F5F5F5F5F5F5F5F5F5F5F5F5F5F5F5F5F5F5F5F5F5F5F5F5F5F5F5F5F5F5F5F5F5F5F5F5
310
F5F5F5F5F5F5F5F5F5F5F5F5F5F5F5F5F5F5F5F5F5F5F5F5F5F5E2F5F5F5F5F5F5F5F5F5F5F5F5F5F5F5F5E2F5F5F5E2E2EFF5F5F5E2F5F5F5F5F5F5F5F5F5F5F5F5F5F5F5F5E2F5F5F5F5F5F5F5F5F5F5F5F5F5F5F5F5F5F5F5F5F5F5F5F5F5F5F5F5F5F5F5F5F5F5F5F5F5F5F5F5F5F5F5F5F5F5F5F5F5F5F5F5F5F5F5F5
310
F5F5F5F5F5F5F5F5F5F5F5F5F5F5F5F5F5F5F5F5F5F5F5F5F5F5F5F5F5F5F5F5F5F5F5F5F5F5F5F5F5F5F5F5F5F5F5F5F5F5F5F5F5F5F5F5F5F5F5F5F5F5F5F5F5F5F5F5F5F5F5F5F5F5F5F5F5F5F5E2F5F5F5F5F5F5F5F5F5F5F5F5F5F5F5F5E2F5F5F5E2E2EFF5F5F5E2F5F5F5F5F5F5F5F5F5F5F5F5F5F5F5F5E2F5F5F5
310
F5F5F5F5F5F5F5F5F5F5F5F5F5F5F5F5F5F5F5F5F5F5F5F5F5F5F5F5F5F5F5F5F5F5F5F5F5F5F5F5F5F5F5F5F5F5F5F5F5F5F5F5F5F5F5F5F5F5F5F5F5F5F5F5F5F5F5F5F5F5F5F5F5F5F5F5F5F5F5F5F5F5F5F5F5F5F5F5F5F5F5F5F5F5F5F5F5F5F5F5F5F5F5F5F5F5F5F5F5F5F5F5F5F5F5F5F5F5F5F5F5F5F5F5F5F5F5
310
F5F5F5F5F5E2F5F5F5F5F5F5F5F5F5F5F5F5F5F5F5F5E2F5F5F5E2E2EFF5F5F5E2F5F5F5F5F5F5F5F5F5F5F5F5F5F5F5F5E2F5F5F5F5F5F5F5F5F5F5F5F5F5F5F5F5F5F5F5F5F5F5F5F5F5F5F5F5F5F5F5F5F5F5F5F5F5F5F5F5F5F5F5F5F5F5F5F5F5F5F5F5F5F5F5F5F5F5F5F5F5F5F5F5F5F5F5F5F5F5F5F5F5F5F5F5F5
310
F5F5F5F5F5F5F5F5F5F5F5F5F5F5F5F5F5F5F5F5F5F5F5F5F5F5F5F5F5F5F5F5F5F5F5F5F5F5F5F5F5F5F5F5F5F5F5F5F5F5F5F5F5F5F5F5F5F5E2F5F5F5F5F5F5F5F5F5F5F5F5F5F5F5F5E2F5F5F5E2E2EFF5F5F5E2F5F5F5F5F5F5F5F5F5F5F5F5F5F5F5F5E2F5F5F5F5F5F5F5F5F5F5F5F5F5F5F5F5F5F5F5F5F5F5F5F5
310
F5F5F5F5F5F5F5F5F5F5F5F5F5F5F5F5F5F5F5F5F5F5F5F5F5F5F5F5F5F5F5F5F5F5F5F5F5F5F5F5F5F5F5F5F5F5F5F5F5F5F5F5F5F5F5F5F5F5F5F5F5F5F5F5F5F5F5F5F5F5F5F5F5F5F5F5F5F5F5F5F5F5F5F5F5F5F5F5F5F5F5F5F5F5F5F5F5F5F5F5F5F5F5F5F5F5F5F5F5F5F5E2F5F5F5F5F5F5F5F5F5F5F5F5F5F5F5
310
F5E2F5F5F5E2E2EFF5F5F5E2F5F5F5F5F5F5F5F5F5F5F5F5F5F5F5F5E2F5F5F5F5F5F5F5F5F5F5F5F5F5F5F5F5F5F5F5F5F5F5F5F5F5F5F5F5F5F5F5F5F5F5F5F5F5F5F5F5F5F5F5F5F5F5F5F5F5F5F5F5F5F5F5F5F5F5F5F5F5F5F5F5F5F5F5F5F5F5F5F5F5F5F5F5F5F5F5F5F5F5F5F5F5F5F5F5F5F5F5F5F5F5F5F5F5F5
310
F5F5F5F5F5F5F5F5F5F5F5F5F5F5F5F5F5F5F5F5F5F5F5F5F5F5F5F5F5F5F5F5F5F5F5F5F5E2F5F5F5F5F5F5F5F5F5F5F5F5F5F5F5F5E2F5F5F5E2E2EFF5F5F5E2F5F5F5F5F5F5F5F5F5F5F5F5F5F5F5F5E2F5F5F5F5F5F5F5F5F5F5F5F5F5F5F5F5F5F5F5F5F5F5F5F5F5F5F5F5F5F5F5F5F5F5F5F5F5F5F5F5F5F5F5F5F5
310
F5F5F5F5F5F5F5F5F5F5F5F5F5F5F5F5F5F5F5F5F5F5F5F5F5F5F5F5F5F5F5F5F5F5F5F5F5F5F5F5F5F5F5F5F5F5F5F5F5F5F5F5F5F5F5F5F5F5F5F5F5F5F5F5F5F5F5F5F5F5F5F5F5F5F5F5F5F5F5F5F5F5F5F5F5F5F5F5F5F5E2F5F5F5F5F5F5F5F5F5F5F5F5F5F5F5F5E2F5F5F5E2E2EFF5F5F5E2F5F5F5F5F5F5F5F5F5
310
F5F5F5F5F5F5F5E2F5F5F5F5F5F5F5F5F5F5F5F5F5F5F5F5F5F5F5F5F5F5F5F5F5F5F5F5F5F5F5F5F5F5F5F5F5F5F5F5F5F5F5F5F5F5F5F5F5F5F5F5F5F5F5F5F5F5F5F5F5F5F5F5F5F5F5F5F5F5F5F5F5F5F5F5F5F5F5F5F5F5F5F5F5F5F5F5F5F5F5F5F5F5F5F5F5F5F5F5F5F5F5F5F5F5F5F5F5F5F5F5F5F5F5F5F5F5F5
310
F5F5F5F5F5F5F5F5F5F5F5F5F5F5F5F5E2F5F5F5F5F5F5F5F5F5F5F5F5F5F5F5F5E2F5F5F5E2E2EFF5F5F5E2F5F5F5F5F5F5F5F5F5F5F5F5F5F5F5F5E2F5F5F5F5F5F5F5F5F5F5F5F5F5F5F5F5F5F5F5F5F5F5F5F5F5F5F5F5F5F5F5F5F5F5F5F5F5F5F5F5F5F5F5F5F5F5F5F5F5F5F5F5F5F5F5F5F5F5F5F5F5F5F5F5F5F5
310
F5F5F5F5F5F5F5F5F5F5F5F5F5F5F5F5F5F5F5F5F5F5F5F5F5F5F5F5F5F5F5F5F5F5F5F5F5F5F5F5F5F5F5F5F5F5F5F5F5F5F5F5F5F5F5F5F5F5F5F5F5F5F5F5F5F5F5F5F5E2F5F5F5F5F5F5F5F5F5F5F5F5F5F5F5F5E2F5F5F5E2E2EFF5F5F5E2F5F5F5F5F5F5F5F5F5F5F5F5F5F5F5F5E2F5F5F5F5F5F5F5F5F5F5F5F5F5
310
F5F5F5F5F5F5F5F5F5F5F5F5F5F5F5F5F5F5F5F5F5F5F5F5F5F5F5F5F5F5F5F5F5F5F5F5F5F5F5F5F5F5F5F5F5F5F5F5F5F5F5F5F5F5F5F5F5F5F5F5F5F5F5F5F5F5F5F5F5F5F5F5F5F5F5F5F5F5F5F5F5F5F5F5F5F5F5F5F5F5F5F5F5F5F5F5F5F5F5F5F5F5F5F5F5F5F5F5F5F5F5F5F5F5F5F5F5F5F5F5F5F5E2F5F5F5F5
310
F5F5F5F5F5F5F5F5F5F5F5F5E2F5F5F5E2E2EFF5F5F5E2F5F5F5F5F5F5F5F5F5F5F5F5F5F5F5F5E2F5F5F5F5F5F5F5F5F5F5F5F5F5F5F5F5F5F5F5F5F5F5F5F5F5F5F5F5F5F5F5F5F5F5F5F5F5F5F5F5F5F5F5F5F5F5F5F5F5F5F5F5F5F5F5F5F5F5F5F5F5F5F5F5F5F5F5F5F5F5F5F5F5F5F5F5F5F5F5F5F5F5F5F5F5F5F5
310
F5F5F5F5F5F5F5F5F5F5F5F5F5F5F5F5F5F5F5F5F5F5F5F5F5F5F5F5F5F5F5F5F5F5F5F5F5F5F5F5F5F5F5F5F5F5F5F5E2F5F5F5F5F5F5F5F5F5F5F5F5F5F5F5F5E2F5F5F5E2E2EFF5F5F5E2F5F5F5F5F5F5F5F5F5F5F5F5F5F5F5F5E2F5F5F5F5F5F5F5F5F5F5F5F5F5F5F5F5F5F5F5F5F5F5F5F5F5F5F5F5F5F5F5F5F5F5
310
F5F5F5F5F5F5F5F5F5F5F5F5F5F5F5F5F5F5F5F5F5F5F5F5F5F5F5F5F5F5F5F5F5F5F5F5F5F5F5F5F5F5F5F5F5F5F5F5F5F5F5F5F5F5F5F5F5F5F5F5F5F5F5F5F5F5F5F5F5F5F5F5F5F5F5F5F5F5F5F5F5F5F5F5F5F5F5F5F5F5F5F5F5F5F5F5F5F5F5F5F5E2F5F5F5F5F5F5F5F5F5F5F5F5F5F5F5F5E2F5F5F5E2E2EFF5F5
310
F5E2F5F5F5F5F5F5F5F5F5F5F5F5F5F5F5F5E2F5F5F5F5F5F5F5F5F5F5F5F5F5F5F5F5F5F5F5F5F5F5F5F5F5F5F5F5F5F5F5F5F5F5F5F5F5F5F5F5F5F5F5F5F5F5F5F5F5F5F5F5F5F5F5F5F5F5F5F5F5F5F5F5F5F5F5F5F5F5F5F5F5F5F5F5F5F5F5F5F5F5F5F5F5F5F5F5F5F5F5F5F5F5F5F5F5F5F5F5F5F5F5F5F5F5F5F5
310
F5F5F5F5F5F5F5F5F5F5F5F5F5F5F5F5F5F5F5F5F5F5F5F5F5F5F5E2F5F5F5F5F5F5F5F5F5F5F5F5F5F5F5F5E2F5F5F5E2E2EFF5F5F5E2F5F5F5F5F5F5F5F5F5F5F5F5F5F5F5F5E2F5F5F5F5F5F5F5F5F5F5F5F5F5F5F5F5F5F5F5F5F5F5F5F5F5F5F5F5F5F5F5F5F5F5F5F5F5F5F5F5F5F5F5F5F5F5F5F5F5F5F5F5F5F5F5
310
F5F5F5F5F5F5F5F5F5F5F5F5F5F5F5F5F5F5F5F5F5F5F5F5F5F5F5F5F5F5F5F5F5F5F5F5F5F5F5F5F5F5F5F5F5F5F5F5F5F5F5F5F5F5F5F5F5F5F5F5F5F5F5F5F5F5F5F5F5F5F5F5F5F5F5F5F5F5F5F5E2F5F5F5F5F5F5F5F5F5F5F5F5F5F5F5F5E2F5F5F5E2E2EFF5F5F5E2F5F5F5F5F5F5F5F5F5F5F5F5F5F5F5F5E2F5F5
310
F5F5F5F5F5F5F5F5F5F5F5F5F5F5F5F5F5F5F5F5F5F5F5F5F5F5F5F5F5F5F5F5F5F5F5F5F5F5F5F5F5F5F5F5F5F5F5F5F5F5F5F5F5F5F5F5F5F5F5F5F5F5F5F5F5F5F5F5F5F5F5F5F5F5F5F5F5F5F5F5F5F5F5F5F5F5F5F5F5F5F5F5F5F5F5F5F5F5F5F5F5F5F5F5F5F5F5F5F5F5F5F5F5F5F5F5F5F5F5F5F5F5F5F5F5F5F5
310
F5F5F5F5F5F5E2F5F5F5F5F5F5F5F5F5F5F5F5F5F5F5F5E2F5F5F5E2E2EFF5F5F5E2F5F5F5F5F5F5F5F5F5F5F5F5F5F5F5F5E2F5F5F5F5F5F5F5F5F5F5F5F5F5F5F5F5F5F5F5F5F5F5F5F5F5F5F5F5F5F5F5F5F5F5F5F5F5F5F5F5F5F5F5F5F5F5F5F5F5F5F5F5F5F5F5F5F5F5F5F5F5F5F5F5F5F5F5F5F5F5F5F5F5F5F5F5
310
F5F5F5F5F5F5F5F5F5F5F5F5F5F5F5F5F5F5F5F5F5F5F5F5F5F5F5F5F5F5F5F5F5F5F5F5F5F5F5F5F5F5F5F5F5F5F5F5F5F5F5F5F5F5F5F5F5F5F5E2F5F5F5F5F5F5F5F5F5F5F5F5F5F5F5F5E2F5F5F5E2E2EFF5F5F5F5F5F5F5F5F5F5F5F5F5F5F5F5F5F5F5F5E2F5F5F5F5F5F5F5F5F5F5F5F5F5F5F5F5F5F5F5F5F5F5F5
310
F5F5F5F5F5F5F5F5F5F5F5F5F5F5F5F5F5F5F5F5F5F5F5F5F5F5F5F5F5F5F5F5F5F5F5F5F5F5F5F5F5F5F5F5F5F5F5F5F5F5F5F5F5F5F5F5F5F5F5F5F5F5F5F5F5F5F5F5F5F5F5F5F5F5F5F5F5F5F5F5F5F5F5F5F5F5F5F5F5F5F5F5F5F5F5F5F5F5F5F5F5F5F5F5F5F5F5F5F5F5F5F5E2F5F5F5F5F5F5F5F5F5F5F5F5F5F5
310
F5F5F5F5F5F5E2E2EFF5F5F5F5F5F5F5F5F5F5F5F5F5F5F5F5F5F5F5F5E2F5F5F5F5F5F5F5F5F5F5F5F5F5F5F5F5F5F5F5F5F5F5F5F5F5F5F5F5F5F5F5F5F5F5F5F5F5F5F5F5F5F5F5F5F5F5F5F5F5F5F5F5F5F5F5F5F5F5F5F5F5F5F5F5F5F5F5F5F5F5F5F5F5F5F5F5F5F5F5F5F5F5F5F5F5F5F5F5F5F5F5F5F5F5F5F5F5
310
F5F5F5F5F5F5F5F5F5F5F5F5F5F5F5F5F5F5F5F5F5F5F5F5F5F5F5F5F5F5F5F5F5F5F5F5F5F5E2F5F5F5F5F5F5F5F5F5F5F5F5F5F5F5F5F5F5F5F5E2E2EFF5F5F5F5F5F5F5F5F5F5F5F5F5F5F5F5F5F5F5F5E2F5F5F5F5F5F5F5F5F5F5F5F5F5F5F5F5F5F5F5F5F5F5F5F5F5F5F5F5F5F5F5F5F5F5F5F5F5F5F5F5F5F5F5F5
310
F5F5F5F5F5F5F5F5F5F5F5F5F5F5F5F5F5F5F5F5F5F5F5F5F5F5F5F5F5F5F5F5F5F5F5F5F5F5F5F5F5F5F5F5F5F5F5F5F5F5F5F5F5F5F5F5F5F5F5F5F5F5F5F5F5F5F5F5F5F5F5F5F5F5F5F5F5F5F5F5F5F5F5F5F5F5F5F5F5F5F5E2F5F5F5F5F5F5F5F5F5F5F5F5F5F5F5F5F5F5F5F5E2E2EFF5F5F5F5F5F5F5F5F5F5F5F5
310
F5F5F5F5F5F5F5F5E2F5F5F5F5F5F5F5F5F5F5F5F5F5F5F5F5F5F5F5F5F5F5F5F5F5F5F5F5F5F5F5F5F5F5F5F5F5F5F5F5F5F5F5F5F5F5F5F5F5F5F5F5F5F5F5F5F5F5F5F5F5F5F5F5F5F5F5F5F5F5F5F5F5F5F5F5F5F5F5F5F5F5F5F5F5F5F5F5F5F5F5F5F5F5F5F5F5F5F5F5F5F5F5F5F5F5F5F5F5F5F5F5F5F5F5F5F5F5
310
F5F5F5F5F5F5F5F5F5F5F5F5F5F5F5F5F5E2F5F5F5F5F5F5F5F5F5F5F5F5F5F5F5F5F5F5F5F5E2E2EFF5F5F5F5F5F5F5F5F5F5F5F5F5F5F5F5F5F5F5F5E2F5F5F5F5F5F5F5F5F5F5F5F5F5F5F5F5F5F5F5F5F5F5F5F5F5F5F5F5F5F5F5F5F5F5F5F5F5F5F5F5F5F5F5F5F5F5F5F5F5F5F5F5F5F5F5F5F5F5F5F5F5F5F5F5F5
310
F5F5F5F5F5F5F5F5F5F5F5F5F5F5F5F5F5F5F5F5F5F5F5F5F5F5F5F5F5F5F5F5F5F5F5F5F5F5F5F5F5F5F5F5F5F5F5F5F5F5F5F5F5F5F5F5F5F5F5F5F5F5F5F5F5F5F5F5F5F5E2F5F5F5F5F5F5F5F5F5F5F5F5F5F5F5F5F5F5F5F5E2E2EFF5F5F5F5F5F5F5F5F5F5F5F5F5F5F5F5F5F5F5F5E2F5F5F5F5F5F5F5F5F5F5F5F5
310
F5F5F5F5F5F5F5F5F5F5F5F5F5F5F5F5F5F5F5F5F5F5F5F5F5F5F5F5F5F5F5F5F5F5F5F5F5F5F5F5F5F5F5F5F5F5F5F5F5F5F5F5F5F5F5F5F5F5F5F5F5F5F5F5F5F5F5F5F5F5F5F5F5F5F5F5F5F5F5F5F5F5F5F5F5F5F5F5F5F5F5F5F5F5F5F5F5F5F5F5F5F5F5F5F5F5F5F5F5F5F5F5F5F5F5F5F5F5F5F5F5F5F5E2F5F5F5
310
F5F5F5F5F5F5F5F5F5F5F5F5F5F5F5F5F5E2E2EFF5F5F5F5F5F5F5F5F5F5F5F5F5F5F5F5F5F5F5F5E2F5F5F5F5F5F5F5F5F5F5F5F5F5F5F5F5F5F5F5F5F5F5F5F5F5F5F5F5F5F5F5F5F5F5F5F5F5F5F5F5F5F5F5F5F5F5F5F5F5F5F5F5F5F5F5F5F5F5F5F5F5F5F5F5F5F5F5F5F5F5F5F5F5F5F5F5F5F5F5F5F5F5F5F5F5F5
310
F5F5F5F5F5F5F5F5F5F5F5F5F5F5F5F5F5F5F5F5F5F5F5F5F5F5F5F5F5F5F5F5F5F5F5F5F5F5F5F5F5F5F5F5F5F5F5F5F5E2F5F5F5F5F5F5F5F5F5F5F5F5F5F5F5F5F5F5F5F5E2E2EFF5F5F5F5F5F5F5F5F5F5F5F5F5F5F5F5F5F5F5F5E2F5F5F5F5F5F5F5F5F5F5F5F5F5F5F5F5F5F5F5F5F5F5F5F5F5F5F5F5F5F5F5F5F5
310
F5F5F5F5F5F5F5F5F5F5F5F5F5F5F5F5F5F5F5F5F5F5F5F5F5F5F5F5F5F5F5F5F5F5F5F5F5F5F5F5F5F5F5F5F5F5F5F5F5F5F5F5F5F5F5F5F5F5F5F5F5F5F5F5F5F5F5F5F5F5F5F5F5F5F5F5F5F5F5F5F5F5F5F5F5F5F5F5F5F5F5F5F5F5F5F5F5F5F5F5F5F5E2F5F5F5F5F5F5F5F5F5F5F5F5F5F5F5F5F5F5F5F5E2E2EFF5
310
F5F5F5F5F5F5F5F5F5F5F5F5F5F5F5F5F5F5F5E2F5F5F5F5F5F5F5F5F5F5F5F5F5F5F5F5F5F5F5F5F5F5F5F5F5F5F5F5F5F5F5F5F5F5F5F5F5F5F5F5F5F5F5F5F5F5F5F5F5F5F5F5F5F5F5F5F5F5F5F5F5F5F5F5F5F5F5F5F5F5F5F5F5F5F5F5F5F5F5F5F5F5F5F5F5F5F5F5F5F5F5F5F5F5F5F5F5F5F5F5F5F5F5F5F5F5F5
310
F5F5F5F5F5F5F5F5F5F5F5F5F5F5F5F5F5F5F5F5F5F5F5F5F5F5F5F5E2F5F5F5F5F5F5F5F5F5F5F5F5F5F5F5F5F5F5F5F5E2E2EFF5F5F5E2F5F5F5F5F5F5F5F5F5F5F5F5F5F5F5F5E2F5F5F5F5F5F5F5F5F5F5F5F5F5F5F5F5F5F5F5F5F5F5F5F5F5F5F5F5F5F5F5F5F5F5F5F5F5F5F5F5F5F5F5F5F5F5F5F5F5F5F5F5F5F5
310
F5F5F5F5F5F5F5F5F5F5F5F5F5F5F5F5F5F5F5F5F5F5F5F5F5F5F5F5F5F5F5F5F5F5F5F5F5F5F5F5F5F5F5F5F5F5F5F5F5F5F5F5F5F5F5F5F5F5F5F5F5F5F5F5F5F5F5F5F5F5F5F5F5F5F5F5F5F5F5F5F5E2F5F5F5F5F5F5F5F5F5F5F5F5F5F5F5F5E2F5F5F5E2E2EFF5F5F5E2F5F5F5F5F5F5F5F5F5F5F5F5F5F5F5F5E2F5
310
F5F5F5F5F5F5F5F5F5F5F5F5F5F5F5F5F5F5F5F5F5F5F5F5F5F5F5F5F5F5F5F5F5F5F5F5F5F5F5F5F5F5F5F5F5F5F5F5F5F5F5F5F5F5F5F5F5F5F5F5F5F5F5F5F5F5F5F5F5F5F5F5F5F5F5F5F5F5F5F5F5F5F5F5F5F5F5F5F5F5F5F5F5F5F5F5F5F5F5F5F5F5F5F5F5F5F5F5F5F5F5F5F5F5F5F5F5F5F5F5F5F5F5F5F5F5F5
310
F5F5F5F5F5F5F5E2F5F5F5F5F5F5F5F5F5F5F5F5F5F5F5F5E2F5F5F5E2E2EFF5F5F5E2F5F5F5F5F5F5F5F5F5F5F5F5F5F5F5F5E2F5F5F5F5F5F5F5F5F5F5F5F5F5F5F5F5F5F5F5F5F5F5F5F5F5F5F5F5F5F5F5F5F5F5F5F5F5F5F5F5F5F5F5F5F5F5F5F5F5F5F5F5F5F5F5F5F5F5F5F5F5F5F5F5F5F5F5F5F5F5F5F5F5F5F5
310
F5F5F5F5F5F5F5F5F5F5F5F5F5F5F5F5F5F5F5F5F5F5F5F5F5F5F5F5F5F5F5F5F5F5F5F5F5F5F5F5F5F5F5F5F5F5F5F5F5F5F5F5F5F5F5F5F5F5F5F5E2F5F5F5F5F5F5F5F5F5F5F5F5F5F5F5F5E2F5F5F5E2E2EFF5F5F5E2F5F5F5F5F5F5F5F5F5F5F5F5F5F5F5F5E2F5F5F5F5F5F5F5F5F5F5F5F5F5F5F5F5F5F5F5F5F5F5
310
F5F5F5F5F5F5F5F5F5F5F5F5F5F5F5F5F5F5F5F5F5F5F5F5F5F5F5F5F5F5F5F5F5F5F5F5F5F5F5F5F5F5F5F5F5F5F5F5F5F5F5F5F5F5F5F5F5F5F5F5F5F5F5F5F5F5F5F5F5F5F5F5F5F5F5F5F5F5F5F5F5F5F5F5F5F5F5F5F5F5F5F5F5F5F5F5F5F5F5F5F5F5F5F5F5F5F5F5F5F5F5F5F5E2F5F5F5F5F5F5F5F5F5F5F5F5F5
310
F5F5F5E2F5F5F5E2E2EFF5F5F5E2F5F5F5F5F5F5F5F5F5F5F5F5F5F5F5F5E2F5F5F5F5F5F5F5F5F5F5F5F5F5F5F5F5F5F5F5F5F5F5F5F5F5F5F5F5F5F5F5F5F5F5F5F5F5F5F5F5F5F5F5F5F5F5F5F5F5F5F5F5F5F5F5F5F5F5F5F5F5F5F5F5F5F5F5F5F5F5F5F5F5F5F5F5F5F5F5F5F5F5F5F5F5F5F5F5F5F5F5F5F5F5F5F5
310
F5F5F5F5F5F5F5F5F5F5F5F5F5F5F5F5F5F5F5F5F5F5F5F5F5F5F5F5F5F5F5F5F5F5F5F5F5F5F5E2F5F5F5F5F5F5F5F5F5F5F5F5F5F5F5F5E2F5F5F5E2E2EFF5F5F5E2F5F5F5F5F5F5F5F5F5F5F5F5F5F5F5F5E2F5F5F5F5F5F5F5F5F5F5F5F5F5F5F5F5F5F5F5F5F5F5F5F5F5F5F5F5F5F5F5F5F5F5F5F5F5F5F5F5F5F5F5
310
F5F5F5F5F5F5F5F5F5F5F5F5F5F5F5F5F5F5F5F5F5F5F5F5F5F5F5F5F5F5F5F5F5F5F5F5F5F5F5F5F5F5F5F5F5F5F5F5F5F5F5F5F5F5F5F5F5F5F5F5F5F5F5F5F5F5F5F5F5F5F5F5F5F5F5F5F5F5F5F5F5F5F5F5F5F5F5F5F5F5F5F5E2F5F5F5F5F5F5F5F5F5F5F5F5F5F5F5F5E2F5F5F5E2E2EFF5F5F5E2F5F5F5F5F5F5F5
310
F5F5F5F5F5F5F5F5F5E2F5F5F5F5F5F5F5F5F5F5F5F5F5F5F5F5F5F5F5F5F5F5F5F5F5F5F5F5F5F5F5F5F5F5F5F5F5F5F5F5F5F5F5F5F5F5F5F5F5F5F5F5F5F5F5F5F5F5F5F5F5F5F5F5F5F5F5F5F5F5F5F5F5F5F5F5F5F5F5F5F5F5F5F5F5F5F5F5F5F5F5F5F5F5F5F5F5F5F5F5F5F5F5F5F5F5F5F5F5F5F5F5F5F5F5F5F5
310
F5F5F5F5F5F5F5F5F5F5F5F5F5F5F5F5F5F5E2F5F5F5F5F5F5F5F5F5F5F5F5F5F5F5F5E2F5F5F5E2E2EFF5F5F5E2F5F5F5F5F5F5F5F5F5F5F5F5F5F5F5F5E2F5F5F5F5F5F5F5F5F5F5F5F5F5F5F5F5F5F5F5F5F5F5F5F5F5F5F5F5F5F5F5F5F5F5F5F5F5F5F5F5F5F5F5F5F5F5F5F5F5F5F5F5F5F5F5F5F5F5F5F5F5F5F5F5
310
F5F5F5F5F5F5F5F5F5F5F5F5F5F5F5F5F5F5F5F5F5F5F5F5F5F5F5F5F5F5F5F5F5F5F5F5F5F5F5F5F5F5F5F5F5F5F5F5F5F5F5F5F5F5F5F5F5F5F5F5F5F5F5F5F5F5F5F5F5F5F5E2F5F5F5F5F5F5F5F5F5F5F5F5F5F5F5F5E2F5F5F5E2E2EFF5F5F5E2F5F5F5F5F5F5F5F5F5F5F5F5F5F5F5F5E2F5F5F5F5F5F5F5F5F5F5F5
310
F5F5F5F5F5F5F5F5F5F5F5F5F5F5F5F5F5F5F5F5F5F5F5F5F5F5F5F5F5F5F5F5F5F5F5F5F5F5F5F5F5F5F5F5F5F5F5F5F5F5F5F5F5F5F5F5F5F5F5F5F5F5F5F5F5F5F5F5F5F5F5F5F5F5F5F5F5F5F5F5F5F5F5F5F5F5F5F5F5F5F5F5F5F5F5F5F5F5F5F5F5F5F5F5F5F5F5F5F5F5F5F5F5F5F5F5F5F5F5F5F5F5F5F5E2F5F5
310
F5F5F5F5F5F5F5F5F5F5F5F5F5F5E2F5F5F5E2E2EFF5F5F5E2F5F5F5F5F5F5F5F5F5F5F5F5F5F5F5F5E2F5F5F5F5F5F5F5F5F5F5F5F5F5F5F5F5F5F5F5F5F5F5F5F5F5F5F5F5F5F5F5F5F5F5F5F5F5F5F5F5F5F5F5F5F5F5F5F5F5F5F5F5F5F5F5F5F5F5F5F5F5F5F5F5F5F5F5F5F5F5F5F5F5F5F5F5F5F5F5F5F5F5F5F5F5
310
F5F5F5F5F5F5F5F5F5F5F5F5F5F5F5F5F5F5F5F5F5F5F5F5F5F5F5F5F5F5F5F5F5F5F5F5F5F5F5F5F5F5F5F5F5F5F5F5F5F5E2F5F5F5F5F5F5F5F5F5F5F5F5F5F5F5F5E2F5F5F5E2E2EFF5F5F5E2F5F5F5F5F5F5F5F5F5F5F5F5F5F5F5F5E2F5F5F5F5F5F5F5F5F5F5F5F5F5F5F5F5F5F5F5F5F5F5F5F5F5F5F5F5F5F5F5F5
310
F5F5F5F5F5F5F5F5F5F5F5F5F5F5F5F5F5F5F5F5F5F5F5F5F5F5F5F5F5F5F5F5F5F5F5F5F5F5F5F5F5F5F5F5F5F5F5F5F5F5F5F5F5F5F5F5F5F5F5F5F5F5F5F5F5F5F5F5F5F5F5F5F5F5F5F5F5F5F5F5F5F5F5F5F5F5F5F5F5F5F5F5F5F5F5F5F5F5F5F5F5F5F5E2F5F5F5F5F5F5F5F5F5F5F5F5F5F5F5F5E2F5F5F5E2E2EF
310
F5F5F5E2F5F5F5F5F5F5F5F5F5F5F5F5F5F5F5F5E2F5F5F5F5F5F5F5F5F5F5F5F5F5F5F5F5F5F5F5F5F5F5F5F5F5F5F5F5F5F5F5F5F5F5F5F5F5F5F5F5F5F5F5F5F5F5F5F5F5F5F5F5F5F5F5F5F5F5F5F5F5F5F5F5F5F5F5F5F5F5F5F5F5F5F5F5F5F5F5F5F5F5F5F5F5F5F5F5F5F5F5F5F5F5F5F5F5F5F5F5F5F5F5F5F5F5
310
F5F5F5F5F5F5F5F5F5F5F5F5F5F5F5F5F5F5F5F5F5F5F5F5F5F5F5F5F5E2F5F5F5F5F5F5F5F5F5F5F5F5F5F5F5F5E2F5F5F5E2E2EFF5F5F5E2F5F5F5F5F5F5F5F5F5F5F5F5F5F5F5F5E2F5F5F5F5F5F5F5F5F5F5F5F5F5F5F5F5F5F5F5F5F5F5F5F5F5F5F5F5F5F5F5F5F5F5F5F5F5F5F5F5F5F5F5F5F5F5F5F5F5F5F5F5F5
310
F5F5F5F5F5F5F5F5F5F5F5F5F5F5F5F5F5F5F5F5F5F5F5F5F5F5F5F5F5F5F5F5F5F5F5F5F5F5F5F5F5F5F5F5F5F5F5F5F5F5F5F5F5F5F5F5F5F5F5F5F5F5F5F5F5F5F5F5F5F5F5F5F5F5F5F5F5F5F5F5F5F5E2F5F5F5F5F5F5F5F5F5F5F5F5F5F5F5F5E2F5F5F5E2E2EFF5F5F5E2F5F5F5F5F5F5F5F5F5F5F5F5F5F5F5F5E2
310
F5F5F5F5F5F5F5F5F5F5F5F5F5F5F5F5F5F5F5F5F5F5F5F5F5F5F5F5F5F5F5F5F5F5F5F5F5F5F5F5F5F5F5F5F5F5F5F5F5F5F5F5F5F5F5F5F5F5F5F5F5F5F5F5F5F5F5F5F5F5F5F5F5F5F5F5F5F5F5F5F5F5F5F5F5F5F5F5F5F5F5F5F5F5F5F5F5F5F5F5F5F5F5F5F5F5F5F5F5F5F5F5F5F5F5F5F5F5F5F5F5F5F5F5F5F5F5
310
F5F5F5F5F5F5F5F5E2F5F5F5F5F5F5F5F5F5F5F5F5F5F5F5F5E2F5F5F5E2E2EFF5F5F5E2F5F5F5F5F5F5F5F5F5F5F5F5F5F5F5F5E2F5F5F5F5F5F5F5F5F5F5F5F5F5F5F5F5F5F5F5F5F5F5F5F5F5F5F5F5F5F5F5F5F5F5F5F5F5F5F5F5F5F5F5F5F5F5F5F5F5F5F5F5F5F5F5F5F5F5F5F5F5F5F5F5F5F5F5F5F5F5F5F5F5F5
310
F5F5F5F5F5F5F5F5F5F5F5F5F5F5F5F5F5F5F5F5F5F5F5F5F5F5F5F5F5F5F5F5F5F5F5F5F5F5F5F5F5F5F5F5F5F5F5F5F5F5F5F5F5F5F5F5F5F5F5F5F5E2F5F5F5F5F5F5F5F5F5F5F5F5F5F5F5F5E2F5F5F5E2E2EFF5F5F5E2F5F5F5F5F5F5F5F5F5F5F5F5F5F5F5F5E2F5F5F5F5F5F5F5F5F5F5F5F5F5F5F5F5F5F5F5F5F5
310
F5F5F5F5F5F5F5F5F5F5F5F5F5F5F5F5F5F5F5F5F5F5F5F5F5F5F5F5F5F5F5F5F5F5F5F5F5F5F5F5F5F5F5F5F5F5F5F5F5F5F5F5F5F5F5F5F5F5F5F5F5F5F5F5F5F5F5F5F5F5F5F5F5F5F5F5F5F5F5F5F5F5F5F5F5F5F5F5F5F5F5F5F5F5F5F5F5F5F5F5F5F5F5F5F5F5F5F5F5F5F5F5F5F5E2F5F5F5F5F5F5F5F5F5F5F5F5
310
F5F5F5F5E2F5F5F5E2E2EFF5F5F5E2F5F5F5F5F5F5F5F5F5F5F5F5F5F5F5F5E2F5F5F5F5F5F5F5F5F5F5F5F5F5F5F5F5F5F5F5F5F5F5F5F5F5F5F5F5F5F5F5F5F5F5F5F5F5F5F5F5F5F5F5F5F5F5F5F5F5F5F5F5F5F5F5F5F5F5F5F5F5F5F5F5F5F5F5F5F5F5F5F5F5F5F5F5F5F5F5F5F5F5F5F5F5F5F5F5F5F5F5F5F5F5F5
310
F5F5F5F5F5F5F5F5F5F5F5F5F5F5F5F5F5F5F5F5F5F5F5F5F5F5F5F5F5F5F5F5F5F5F5F5F5F5F5F5E2F5F5F5F5F5F5F5F5F5F5F5F5F5F5F5F5E2F5F5F5E2E2EFF5F5F5F5F5F5F5F5F5F5F5F5F5F5F5F5F5F5F5F5E2F5F5F5F5F5F5F5F5F5F5F5F5F5F5F5F5F5F5F5F5F5F5F5F5F5F5F5F5F5F5F5F5F5F5F5F5F5F5F5F5F5F5
310
F5F5F5F5F5F5F5F5F5F5F5F5F5F5F5F5F5F5F5F5F5F5F5F5F5F5F5F5F5F5F5F5F5F5F5F5F5F5F5F5F5F5F5F5F5F5F5F5F5F5F5F5F5F5F5F5F5F5F5F5F5F5F5F5F5F5F5F5F5F5F5F5F5F5F5F5F5F5F5F5F5F5F5F5F5F5F5F5F5F5F5F5F5E2F5F5F5F5F5F5F5F5F5F5F5F5F5F5F5F5F5F5F5F5E2E2EFF5F5F5F5F5F5F5F5F5F5
310
F5F5F5F5F5F5F5F5F5F5E2F5F5F5F5F5F5F5F5F5F5F5F5F5F5F5F5F5F5F5F5F5F5F5F5F5F5F5F5F5F5F5F5F5F5F5F5F5F5F5F5F5F5F5F5F5F5F5F5F5F5F5F5F5F5F5F5F5F5F5F5F5F5F5F5F5F5F5F5F5F5F5F5F5F5F5F5F5F5F5F5F5F5F5F5F5F5F5F5F5F5F5F5F5F5F5F5F5F5F5F5F5F5F5F5F5F5F5F5F5F5F5F5F5F5F5F5
310
F5F5F5F5F5F5F5F5F5F5F5F5F5F5F5F5F5F5F5E2F5F5F5F5F5F5F5F5F5F5F5F5F5F5F5F5F5F5F5F5E2E2EFF5F5F5F5F5F5F5F5F5F5F5F5F5F5F5F5F5F5F5F5E2F5F5F5F5F5F5F5F5F5F5F5F5F5F5F5F5F5F5F5F5F5F5F5F5F5F5F5F5F5F5F5F5F5F5F5F5F5F5F5F5F5F5F5F5F5F5F5F5F5F5F5F5F5F5F5F5F5F5F5F5F5F5F5
310
F5F5F5F5F5F5F5F5F5F5F5F5F5F5F5F5F5F5F5F5F5F5F5F5F5F5F5F5F5F5F5F5F5F5F5F5F5F5F5F5F5F5F5F5F5F5F5F5F5F5F5F5F5F5F5F5F5F5F5F5F5F5F5F5F5F5F5F5F5F5F5F5E2F5F5F5F5F5F5F5F5F5F5F5F5F5F5F5F5F5F5F5F5E2E2EFF5F5F5F5F5F5F5F5F5F5F5F5F5F5F5F5F5F5F5F5E2F5F5F5F5F5F5F5F5F5F5
310
F5F5F5F5F5F5F5F5F5F5F5F5F5F5F5F5F5F5F5F5F5F5F5F5F5F5F5F5F5F5F5F5F5F5F5F5F5F5F5F5F5F5F5F5F5F5F5F5F5F5F5F5F5F5F5F5F5F5F5F5F5F5F5F5F5F5F5F5F5F5F5F5F5F5F5F5F5F5F5F5F5F5F5F5F5F5F5F5F5F5F5F5F5F5F5F5F5F5F5F5F5F5F5F5F5F5F5F5F5F5F5F5F5F5F5F5F5F5F5F5F5F5F5F5F5E2F5
310
F5F5F5F5F5F5F5F5F5F5F5F5F5F5F5F5F5F5F5E2E2EFF5F5F5F5F5F5F5F5F5F5F5F5F5F5F5F5F5F5F5F5E2F5F5F5F5F5F5F5F5F5F5F5F5F5F5F5F5F5F5F5F5F5F5F5F5F5F5F5F5F5F5F5F5F5F5F5F5F5F5F5F5F5F5F5F5F5F5F5F5F5F5F5F5F5F5F5F5F5F5F5F5F5F5F5F5F5F5F5F5F5F5F5F5F5F5F5F5F5F5F5F5F5F5F5F5
310
F5F5F5F5F5F5F5F5F5F5F5F5F5F5F5F5F5F5F5F5F5F5F5F5F5F5F5F5F5F5F5F5F5F5F5F5F5F5F5F5F5F5F5F5F5F5F5F5F5F5F5E2F5F5F5F5F5F5F5F5F5F5F5F5F5F5F5F5F5F5F5F5E2E2EFF5F5F5F5F5F5F5F5F5F5F5F5F5F5F5F5F5F5F5F5E2F5F5F5F5F5F5F5F5F5F5F5F5F5F5F5F5F5F5F5F5F5F5F5F5F5F5F5F5F5F5F5
310
F5F5F5F5F5F5F5F5F5F5F5F5F5F5F5F5F5F5F5F5F5F5F5F5F5F5F5F5F5F5F5F5F5F5F5F5F5F5F5F5F5F5F5F5F5F5F5F5F5F5F5F5F5F5F5F5F5F5F5F5F5F5F5F5F5F5F5F5F5F5F5F5F5F5F5F5F5F5F5F5F5F5F5F5F5F5F5F5F5F5F5F5F5F5F5F5F5F5F5F5F5F5F5F5E2F5F5F5F5F5F5F5F5F5F5F5F5F5F5F5F5F5F5F5F5E2E2
310
EFF5F5F5F5F5F5F5F5F5F5F5F5F5F5F5F5F5F5F5F5E2F5F5F5F5F5F5F5F5F5F5F5F5F5F5F5F5F5F5F5F5F5F5F5F5F5F5F5F5F5F5F5F5F5F5F5F5F5F5F5F5F5F5F5F5F5F5F5F5F5F5F5F5F5F5F5F5F5F5F5F5F5F5F5F5F5F5F5F5F5F5F5F5F5F5F5F5F5F5F5F5F5F5F5F5F5F5F5F5F5F5F5F5F5F5F5F5F5F5F5F5F5F5F5F5F5
310
F5F5F5F5F5F5F5F5F5F5F5F5F5F5F5F5F5F5F5F5F5F5F5F5F5F5F5F5F5F5E2F5F5F5F5F5F5F5F5F5F5F5F5F5F5F5F5F5F5F5F5E2E2EFF5F5F5F5F5F5F5F5F5F5F5F5F5F5F5F5F5F5F5F5E2F5F5F5F5F5F5F5F5F5F5F5F5F5F5F5F5F5F5F5F5F5F5F5F5F5F5F5F5F5F5F5F5F5F5F5F5F5F5F5F5F5F5F5F5F5F5F5F5F5F5F5F5
310
F5F5F5F5F5F5F5F5F5F5F5F5F5F5F5F5F5F5F5F5F5F5F5F5F5F5F5F5F5F5F5F5F5F5F5F5F5F5F5F5F5F5F5F5F5F5F5F5F5F5F5F5F5F5F5F5F5F5F5F5F5F5F5F5F5F5F5F5F5F5F5F5F5F5F5F5F5F5F5F5F5F5F5E2F5F5F5F5F5F5F5F5F5F5F5F5F5F5F5F5F5F5F5F5E2E2EFF5F5F5F5F5F5F5F5F5F5F5F5F5F5F5F5F5F5F5F5
310
E2F5F5F5F5F5F5F5F5F5F5F5F5F5F5F5F5F5F5F5F5F5F5F5F5F5F5F5F5F5F5F5F5F5F5F5F5F5F5F5F5F5F5F5F5F5F5F5F5F5F5F5F5F5F5F5F5F5F5F5F5F5F5F5F5F5F5F5F5F5F5F5F5F5F5F5F5F5F5F5F5F5F5F5F5F5F5F5F5F5F5F5F5F5F5F5F5F5F5F5F5F5F5F5F5F5F5F5F5F5F5F5F5F5F5F5F5F5F5F5F5F5F5F5F5F5F5
310
F5F5F5F5F5F5F5F5F5E2F5F5F5F5F5F5F5F5F5F5F5F5F5F5F5F5F5F5F5F5E2E2EFF5F5F5E2F5F5F5F5F5F5F5F5F5F5F5F5F5F5F5F5E2F5F5F5F5F5F5F5F5F5F5F5F5F5F5F5F5F5F5F5F5F5F5F5F5F5F5F5F5F5F5F5F5F5F5F5F5F5F5F5F5F5F5F5F5F5F5F5F5F5F5F5F5F5F5F5F5F5F5F5F5F5F5F5F5F5F5F5F5F5F5F5F5F5
310
F5F5F5F5F5F5F5F5F5F5F5F5F5F5F5F5F5F5F5F5F5F5F5F5F5F5F5F5F5F5F5F5F5F5F5F5F5F5F5F5F5F5F5F5F5F5F5F5F5F5F5F5F5F5F5F5F5F5F5F5F5F5E2F5F5F5F5F5F5F5F5F5F5F5F5F5F5F5F5E2F5F5F5E2E2EFF5F5F5E2F5F5F5F5F5F5F5F5F5F5F5F5F5F5F5F5E2F5F5F5F5F5F5F5F5F5F5F5F5F5F5F5F5F5F5F5F5
310
F5F5F5F5F5F5F5F5F5F5F5F5F5F5F5F5F5F5F5F5F5F5F5F5F5F5F5F5F5F5F5F5F5F5F5F5F5F5F5F5F5F5F5F5F5F5F5F5F5F5F5F5F5F5F5F5F5F5F5F5F5F5F5F5F5F5F5F5F5F5F5F5F5F5F5F5F5F5F5F5F5F5F5F5F5F5F5F5F5F5F5F5F5F5F5F5F5F5F5F5F5F5F5F5F5F5F5F5F5F5F5F5F5F5F5E2F5F5F5F5F5F5F5F5F5F5F5
310
F5F5F5F5F5E2F5F5F5E2E2EFF5F5F5E2F5F5F5F5F5F5F5F5F5F5F5F5F5F5F5F5E2F5F5F5F5F5F5F5F5F5F5F5F5F5F5F5F5F5F5F5F5F5F5F5F5F5F5F5F5F5F5F5F5F5F5F5F5F5F5F5F5F5F5F5F5F5F5F5F5F5F5F5F5F5F5F5F5F5F5F5F5F5F5F5F5F5F5F5F5F5F5F5F5F5F5F5F5F5F5F5F5F5F5F5F5F5F5F5F5F5F5F5F5F5F5
310
F5F5F5F5F5F5F5F5F5F5F5F5F5F5F5F5F5F5F5F5F5F5F5F5F5F5F5F5F5F5F5F5F5F5F5F5F5F5F5F5F5E2F5F5F5F5F5F5F5F5F5F5F5F5F5F5F5F5E2F5F5F5E2E2EFF5F5F5E2F5F5F5F5F5F5F5F5F5F5F5F5F5F5F5F5E2F5F5F5F5F5F5F5F5F5F5F5F5F5F5F5F5F5F5F5F5F5F5F5F5F5F5F5F5F5F5F5F5F5F5F5F5F5F5F5F5F5
310
F5F5F5F5F5F5F5F5F5F5F5F5F5F5F5F5F5F5F5F5F5F5F5F5F5F5F5F5F5F5F5F5F5F5F5F5F5F5F5F5F5F5F5F5F5F5F5F5F5F5F5F5F5F5F5F5F5F5F5F5F5F5F5F5F5F5F5F5F5F5F5F5F5F5F5F5F5F5F5F5F5F5F5F5F5F5F5F5F5F5F5F5F5F5E2F5F5F5F5F5F5F5F5F5F5F5F5F5F5F5F5E2F5F5F5E2E2EFF5F5F5E2F5F5F5F5F5
310
F5F5F5F5F5F5F5F5F5F5F5E2F5F5F5F5F5F5F5F5F5F5F5F5F5F5F5F5F5F5F5F5F5F5F5F5F5F5F5F5F5F5F5F5F5F5F5F5F5F5F5F5F5F5F5F5F5F5F5F5F5F5F5F5F5F5F5F5F5F5F5F5F5F5F5F5F5F5F5F5F5F5F5F5F5F5F5F5F5F5F5F5F5F5F5F5F5F5F5F5F5F5F5F5F5F5F5F5F5F5F5F5F5F5F5F5F5F5F5F5F5F5F5F5F5F5F5
310
F5F5F5F5F5F5F5F5F5F5F5F5F5F5F5F5F5F5F5F5E2F5F5F5F5F5F5F5F5F5F5F5F5F5F5F5F5E2F5F5F5E2E2EFF5F5F5E2F5F5F5F5F5F5F5F5F5F5F5F5F5F5F5F5E2F5F5F5F5F5F5F5F5F5F5F5F5F5F5F5F5F5F5F5F5F5F5F5F5F5F5F5F5F5F5F5F5F5F5F5F5F5F5F5F5F5F5F5F5F5F5F5F5F5F5F5F5F5F5F5F5F5F5F5F5F5F5
310
F5F5F5F5F5F5F5F5F5F5F5F5F5F5F5F5F5F5F5F5F5F5F5F5F5F5F5F5F5F5F5F5F5F5F5F5F5F5F5F5F5F5F5F5F5F5F5F5F5F5F5F5F5F5F5F5F5F5F5F5F5F5F5F5F5F5F5F5F5F5F5F5F5E2F5F5F5F5F5F5F5F5F5F5F5F5F5F5F5F5E2F5F5F5E2E2EFF5F5F5E2F5F5F5F5F5F5F5F5F5F5F5F5F5F5F5F5E2F5F5F5F5F5F5F5F5F5
310
F5F5F5F5F5F5F5F5F5F5F5F5F5F5F5F5F5F5F5F5F5F5F5F5F5F5F5F5F5F5F5F5F5F5F5F5F5F5F5F5F5F5F5F5F5F5F5F5F5F5F5F5F5F5F5F5F5F5F5F5F5F5F5F5F5F5F5F5F5F5F5F5F5F5F5F5F5F5F5F5F5F5F5F5F5F5F5F5F5F5F5F5F5F5F5F5F5F5F5F5F5F5F5F5F5F5F5F5F5F5F5F5F5F5F5F5F5F5F5F5F5F5F5F5F5F5E2
310
F5F5F5F5F5F5F5F5F5F5F5F5F5F5F5F5E2F5F5F5E2E2EFF5F5F5E2F5F5F5F5F5F5F5F5F5F5F5F5F5F5F5F5E2F5F5F5F5F5F5F5F5F5F5F5F5F5F5F5F5F5F5F5F5F5F5F5F5F5F5F5F5F5F5F5F5F5F5F5F5F5F5F5F5F5F5F5F5F5F5F5F5F5F5F5F5F5F5F5F5F5F5F5F5F5F5F5F5F5F5F5F5F5F5F5F5F5F5F5F5F5F5F5F5F5F5F5
310
F5F5F5F5F5F5F5F5F5F5F5F5F5F5F5F5F5F5F5F5F5F5F5F5F5F5F5F5F5F5F5F5F5F5F5F5F5F5F5F5F5F5F5F5F5F5F5F5F5F5F5F5E2F5F5F5F5F5F5F5F5F5F5F5F5F5F5F5F5E2F5F5F5E2E2EFF5F5F5E2F5F5F5F5F5F5F5F5F5F5F5F5F5F5F5F5E2F5F5F5F5F5F5F5F5F5F5F5F5F5F5F5F5F5F5F5F5F5F5F5F5F5F5F5F5F5F5
310
F5F5F5F5F5F5F5F5F5F5F5F5F5F5F5F5F5F5F5F5F5F5F5F5F5F5F5F5F5F5F5F5F5F5F5F5F5F5F5F5F5F5F5F5F5F5F5F5F5F5F5F5F5F5F5F5F5F5F5F5F5F5F5F5F5F5F5F5F5F5F5F5F5F5F5F5F5F5F5F5F5F5F5F5F5F5F5F5F5F5F5F5F5F5F5F5F5F5F5F5F5F5F5F5F5E2F5F5F5F5F5F5F5F5F5F5F5F5F5F5F5F5E2F5F5F5E2
310
E2EFF5F5F5E2F5F5F5F5F5F5F5F5F5F5F5F5F5F5F5F5E2F5F5F5F5F5F5F5F5F5F5F5F5F5F5F5F5F5F5F5F5F5F5F5F5F5F5F5F5F5F5F5F5F5F5F5F5F5F5F5F5F5F5F5F5F5F5F5F5F5F5F5F5F5F5F5F5F5F5F5F5F5F5F5F5F5F5F5F5F5F5F5F5F5F5F5F5F5F5F5F5F5F5F5F5F5F5F5F5F5F5F5F5F5F5F5F5F5F5F5F5F5F5F5F5
310
F5F5F5F5F5F5F5F5F5F5F5F5F5F5F5F5F5F5F5F5F5F5F5F5F5F5F5F5F5F5F5E2F5F5F5F5F5F5F5F5F5F5F5F5F5F5F5F5E2F5F5F5E2E2EFF5F5F5E2F5F5F5F5F5F5F5F5F5F5F5F5F5F5F5F5E2F5F5F5F5F5F5F5F5F5F5F5F5F5F5F5F5F5F5F5F5F5F5F5F5F5F5F5F5F5F5F5F5F5F5F5F5F5F5F5F5F5F5F5F5F5F5F5F5F5F5F5
310
F5F5F5F5F5F5F5F5F5F5F5F5F5F5F5F5F5F5F5F5F5F5F5F5F5F5F5F5F5F5F5F5F5F5F5F5F5F5F5F5F5F5F5F5F5F5F5F5F5F5F5F5F5F5F5F5F5F5F5F5F5F5F5F5F5F5F5F5F5F5F5F5F5F5F5F5F5F5F5F5F5F5F5F5E2F5F5F5F5F5F5F5F5F5F5F5F5F5F5F5F5E2F5F5F5E2E2EFF5F5F5E2F5F5F5F5F5F5F5F5F5F5F5F5F5F5F5
310
F5E2F5F5F5F5F5F5F5F5F5F5F5F5F5F5F5F5F5F5F5F5F5F5F5F5F5F5F5F5F5F5F5F5F5F5F5F5F5F5F5F5F5F5F5F5F5F5F5F5F5F5F5F5F5F5F5F5F5F5F5F5F5F5F5F5F5F5F5F5F5F5F5F5F5F5F5F5F5F5F5F5F5F5F5F5F5F5F5F5F5F5F5F5F5F5F5F5F5F5F5F5F5F5F5F5F5F5F5F5F5F5F5F5F5F5F5F5F5F5F5F5F5F5F5F5F5
310
F5F5F5F5F5F5F5F5F5F5E2F5F5F5F5F5F5F5F5F5F5F5F5F5F5F5F5E2F5F5F5E2E2EFF5F5F5E2F5F5F5F5F5F5F5F5F5F5F5F5F5F5F5F5E2F5F5F5F5F5F5F5F5F5F5F5F5F5F5F5F5F5F5F5F5F5F5F5F5F5F5F5F5F5F5F5F5F5F5F5F5F5F5F5F5F5F5F5F5F5F5F5F5F5F5F5F5F5F5F5F5F5F5F5F5F5F5F5F5F5F5F5F5F5F5F5F5
310
F5F5F5F5F5F5F5F5F5F5F5F5F5F5F5F5F5F5F5F5F5F5F5F5F5F5F5F5F5F5F5F5F5F5F5F5F5F5F5F5F5F5F5F5F5F5F5F5F5F5F5F5F5F5F5F5F5F5F5F5F5F5F5E2F5F5F5F5F5F5F5F5F5F5F5F5F5F5F5F5E2F5F5F5E2E2EFF5F5F5E2F5F5F5F5F5F5F5F5F5F5F5F5F5F5F5F5E2F5F5F5F5F5F5F5F5F5F5F5F5F5F5F5F5F5F5F5
310
F5F5F5F5F5F5F5F5F5F5F5F5F5F5F5F5F5F5F5F5F5F5F5F5F5F5F5F5F5F5F5F5F5F5F5F5F5F5F5F5F5F5F5F5F5F5F5F5F5F5F5F5F5F5F5F5F5F5F5F5F5F5F5F5F5F5F5F5F5F5F5F5F5F5F5F5F5F5F5F5F5F5F5F5F5F5F5F5F5F5F5F5F5F5F5F5F5F5F5F5F5F5F5F5F5F5F5F5F5F5F5F5F5F5F5F5E2F5F5F5F5F5F5F5F5F5F5
310
F5F5F5F5F5F5E2F5F5F5E2E2EFF5F5F5E2F5F5F5F5F5F5F5F5F5F5F5F5F5F5F5F5E2F5F5F5F5F5F5F5F5F5F5F5F5F5F5F5F5F5F5F5F5F5F5F5F5F5F5F5F5F5F5F5F5F5F5F5F5F5F5F5F5F5F5F5F5F5F5F5F5F5F5F5F5F5F5F5F5F5F5F5F5F5F5F5F5F5F5F5F5F5F5F5F5F5F5F5F5F5F5F5F5F5F5F5F5F5F5F5F5F5F5F5F5F5
310
F5F5F5F5F5F5F5F5F5F5F5F5F5F5F5F5F5F5F5F5F5F5F5F5F5F5F5F5F5F5F5F5F5F5F5F5F5F5F5F5F5F5E2F5F5F5F5F5F5F5F5F5F5F5F5F5F5F5F5E2F5F5F5E2E2EFF5F5F5E2F5F5F5F5F5F5F5F5F5F5F5F5F5F5F5F5E2F5F5F5F5F5F5F5F5F5F5F5F5F5F5F5F5F5F5F5F5F5F5F5F5F5F5F5F5F5F5F5F5F5F5F5F5F5F5F5F5
310
F5F5F5F5F5F5F5F5F5F5F5F5F5F5F5F5F5F5F5F5F5F5F5F5F5F5F5F5F5F5F5F5F5F5F5F5F5F5F5F5F5F5F5F5F5F5F5F5F5F5F5F5F5F5F5F5F5F5F5F5F5F5F5F5F5F5F5F5F5F5F5F5F5F5F5F5F5F5F5F5F5F5F5F5F5F5F5F5F5F5F5F5F5F5F5E2F5F5F5F5F5F5F5F5F5F5F5F5F5F5F5F5E2F5F5F5E2E2EFF5F5F5E2F5F5F5F5
310
F5F5F5F5F5F5F5F5F5F5F5F5E2F5F5F5F5F5F5F5F5F5F5F5F5F5F5F5F5F5F5F5F5F5F5F5F5F5F5F5F5F5F5F5F5F5F5F5F5F5F5F5F5F5F5F5F5F5F5F5F5F5F5F5F5F5F5F5F5F5F5F5F5F5F5F5F5F5F5F5F5F5F5F5F5F5F5F5F5F5F5F5F5F5F5F5F5F5F5F5F5F5F5F5F5F5F5F5F5F5F5F5F5F5F5F5F5F5F5F5F5F5F5F5F5F5F5
310
F5F5F5F5F5F5F5F5F5F5F5F5F5F5F5F5F5F5F5F5F5E2F5F5F5F5F5F5F5F5F5F5F5F5F5F5F5F5E2F5F5F5E2E2EFF5F5F5F5F5F5F5F5F5F5F5F5F5F5F5F5F5F5F5F5E2F5F5F5F5F5F5F5F5F5F5F5F5F5F5F5F5F5F5F5F5F5F5F5F5F5F5F5F5F5F5F5F5F5F5F5F5F5F5F5F5F5F5F5F5F5F5F5F5F5F5F5F5F5F5F5F5F5F5F5F5F5
310
F5F5F5F5F5F5F5F5F5F5F5F5F5F5F5F5F5F5F5F5F5F5F5F5F5F5F5F5F5F5F5F5F5F5F5F5F5F5F5F5F5F5F5F5F5F5F5F5F5F5F5F5F5F5F5F5F5F5F5F5F5F5F5F5F5F5F5F5F5F5F5F5F5F5E2F5F5F5F5F5F5F5F5F5F5F5F5F5F5F5F5F5F5F5F5E2E2EFF5F5F5F5F5F5F5F5F5F5F5F5F5F5F5F5F5F5F5F5E2F5F5F5F5F5F5F5F5
310
F5F5F5F5F5F5F5F5F5F5F5F5F5F5F5F5F5F5F5F5F5F5F5F5F5F5F5F5F5F5F5F5F5F5F5F5F5F5F5F5F5F5F5F5F5F5F5F5F5F5F5F5F5F5F5F5F5F5F5F5F5F5F5F5F5F5F5F5F5F5F5F5F5F5F5F5F5F5F5F5F5F5F5F5F5F5F5F5F5F5F5F5F5F5F5F5F5F5F5F5F5F5F5F5F5F5F5F5F5F5F5F5F5F5F5F5F5F5F5F5F5F5F5F5F5F5F5
310
E2F5F5F5F5F5F5F5F5F5F5F5F5F5F5F5F5F5F5F5F5E2E2EFF5F5F5F5F5F5F5F5F5F5F5F5F5F5F5F5F5F5F5F5E2F5F5F5F5F5F5F5F5F5F5F5F5F5F5F5F5F5F5F5F5F5F5F5F5F5F5F5F5F5F5F5F5F5F5F5F5F5F5F5F5F5F5F5F5F5F5F5F5F5F5F5F5F5F5F5F5F5F5F5F5F5F5F5F5F5F5F5F5F5F5F5F5F5F5F5F5F5F5F5F5F5F5
310
F5F5F5F5F5F5F5F5F5F5F5F5F5F5F5F5F5F5F5F5F5F5F5F5F5F5F5F5F5F5F5F5F5F5F5F5F5F5F5F5F5F5F5F5F5F5F5F5F5F5F5F5F5E2F5F5F5F5F5F5F5F5F5F5F5F5F5F5F5F5F5F5F5F5E2E2EFF5F5F5F5F5F5F5F5F5F5F5F5F5F5F5F5F5F5F5F5E2F5F5F5F5F5F5F5F5F5F5F5F5F5F5F5F5F5F5F5F5F5F5F5F5F5F5F5F5F5
310
F5F5F5F5F5F5F5F5F5F5F5F5F5F5F5F5F5F5F5F5F5F5F5F5F5F5F5F5F5F5F5F5F5F5F5F5F5F5F5F5F5F5F5F5F5F5F5F5F5F5F5F5F5F5F5F5F5F5F5F5F5F5F5F5F5F5F5F5F5F5F5F5F5F5F5F5F5F5F5F5F5F5F5F5F5F5F5F5F5F5F5F5F5F5F5F5F5F5F5F5F5F5F5F5F5F5E2F5F5F5F5F5F5F5F5F5F5F5F5F5F5F5F5F5F5F5F5
310
E2E2EFF5F5F5F5F5F5F5F5F5F5F5F5F5F5F5F5F5F5F5F5E2F5F5F5F5F5F5F5F5F5F5F5F5F5F5F5F5F5F5F5F5F5F5F5F5F5F5F5F5F5F5F5F5F5F5F5F5F5F5F5F5F5F5F5F5F5F5F5F5F5F5F5F5F5F5F5F5F5F5F5F5F5F5F5F5F5F5F5F5F5F5F5F5F5F5F5F5F5F5F5F5F5F5F5F5F5F5F5F5F5F5F5F5F5F5F5F5F5F5F5F5F5F5F5
310
F5F5F5F5F5F5F5F5F5F5F5F5F5F5F5F5F5F5F5F5F5F5F5F5F5F5F5F5F5F5F5F5E2F5F5F5F5F5F5F5F5F5F5F5F5F5F5F5F5F5F5F5F5E2E2EFF5F5F5F5F5F5F5F5F5F5F5F5F5F5F5F5F5F5F5F5E2F5F5F5F5F5F5F5F5F5F5F5F5F5F5F5F5F5F5F5F5F5F5F5F5F5F5F5F5F5F5F5F5F5F5F5F5F5F5F5F5F5F5F5F5F5F5F5F5F5F5
310
F5F5F5F5F5F5F5F5F5F5F5F5F5F5F5F5F5F5F5F5F5F5F5F5F5F5F5F5F5F5F5F5F5F5F5F5F5F5F5F5F5F5F5F5F5F5F5F5F5F5F5F5F5F5F5F5F5F5F5F5F5F5F5F5F5F5F5F5F5F5F5F5F5F5F5F5F5F5F5F5F5F5F5F5F5E2F5F5F5F5F5F5F5F5F5F5F5F5F5F5F5F5F5F5F5F5E2E2EFF5F5F5F5F5F5F5F5F5F5F5F5F5F5F5F5F5F5
310
F5F5E2F5F5F5F5F5F5F5F5F5F5F5F5F5F5F5F5F5F5F5F5F5F5F5F5F5F5F5F5F5F5F5F5F5F5F5F5F5F5F5F5F5F5F5F5F5F5F5F5F5F5F5F5F5F5F5F5F5F5F5F5F5F5F5F5F5F5F5F5F5F5F5F5F5F5F5F5F5F5F5F5F5F5F5F5F5F5F5F5F5F5F5F5F5F5F5F5F5F5F5F5F5F5F5F5F5F5F5F5F5F5F5F5F5F5F5F5F5F5F5F5F5F5F5F5
310
F5F5F5F5F5F5F5F5F5F5F5E2F5F5F5F5F5F5F5F5F5F5F5F5F5F5F5F5F5F5F5F5E2E2EFF5F5F5F5F5F5F5F5F5F5F5F5F5F5F5F5F5F5F5F5E2F5F5F5F5F5F5F5F5F5F5F5F5F5F5F5F5F5F5F5F5F5F5F5F5F5F5F5F5F5F5F5F5F5F5F5F5F5F5F5F5F5F5F5F5F5F5F5F5F5F5F5F5F5F5F5F5F5F5F5F5F5F5F5F5F5F5F5F5F5F5F5
310
F5F5F5F5F5F5F5F5F5F5F5F5F5F5F5F5F5F5F5F5F5F5F5F5F5F5F5F5F5F5F5F5F5F5F5F5F5F5F5F5F5F5F5F5F5F5F5F5F5F5F5F5F5F5F5F5F5F5F5F5F5F5F5F5E2F5F5F5F5F5F5F5F5F5F5F5F5F5F5F5F5F5F5F5F5E2E2EFF5F5F5F5F5F5F5F5F5F5F5F5F5F5F5F5F5F5F5F5E2F5F5F5F5F5F5F5F5F5F5F5F5F5F5F5F5F5F5
310
F5F5F5F5F5F5F5F5F5F5F5F5F5F5F5F5F5F5F5F5F5F5F5F5F5F5F5F5F5F5F5F5F5F5F5F5F5F5F5F5F5F5F5F5F5F5F5F5F5F5F5F5F5F5F5F5F5F5F5F5F5F5F5F5F5F5F5F5F5F5F5F5F5F5F5F5F5F5F5F5F5F5F5F5F5F5F5F5F5F5F5F5F5F5F5F5F5F5F5F5F5F5F5F5F5F5F5F5F5F5F5F5F5F5F5F5F5E2F5F5F5F5F5F5F5F5F5
310
F5F5F5F5F5F5F5F5F5F5F5E2E2EFF5F5F5E2F5F5F5F5F5F5F5F5F5F5F5F5F5F5F5F5E2F5F5F5F5F5F5F5F5F5F5F5F5F5F5F5F5F5F5F5F5F5F5F5F5F5F5F5F5F5F5F5F5F5F5F5F5F5F5F5F5F5F5F5F5F5F5F5F5F5F5F5F5F5F5F5F5F5F5F5F5F5F5F5F5F5F5F5F5F5F5F5F5F5F5F5F5F5F5F5F5F5F5F5F5F5F5F5F5F5F5F5F5
310
F5F5F5F5F5F5F5F5F5F5F5F5F5F5F5F5F5F5F5F5F5F5F5F5F5F5F5F5F5F5F5F5F5F5F5F5F5F5F5F5F5F5F5E2F5F5F5F5F5F5F5F5F5F5F5F5F5F5F5F5E2F5F5F5E2E2EFF5F5F5E2F5F5F5F5F5F5F5F5F5F5F5F5F5F5F5F5E2F5F5F5F5F5F5F5F5F5F5F5F5F5F5F5F5F5F5F5F5F5F5F5F5F5F5F5F5F5F5F5F5F5F5F5F5F5F5F5
310
F5F5F5F5F5F5F5F5F5F5F5F5F5F5F5F5F5F5F5F5F5F5F5F5F5F5F5F5F5F5F5F5F5F5F5F5F5F5F5F5F5F5F5F5F5F5F5F5F5F5F5F5F5F5F5F5F5F5F5F5F5F5F5F5F5F5F5F5F5F5F5F5F5F5F5F5F5F5F5F5F5F5F5F5F5F5F5F5F5F5F5F5F5F5F5F5E2F5F5F5F5F5F5F5F5F5F5F5F5F5F5F5F5E2F5F5F5E2E2EFF5F5F5E2F5F5F5
310
F5F5F5F5F5F5F5F5F5F5F5F5F5E2F5F5F5F5F5F5F5F5F5F5F5F5F5F5F5F5F5F5F5F5F5F5F5F5F5F5F5F5F5F5F5F5F5F5F5F5F5F5F5F5F5F5F5F5F5F5F5F5F5F5F5F5F5F5F5F5F5F5F5F5F5F5F5F5F5F5F5F5F5F5F5F5F5F5F5F5F5F5F5F5F5F5F5F5F5F5F5F5F5F5F5F5F5F5F5F5F5F5F5F5F5F5F5F5F5F5F5F5F5F5F5F5F5
310
F5F5F5F5F5F5F5F5F5F5F5F5F5F5F5F5F5F5F5F5F5F5E2F5F5F5F5F5F5F5F5F5F5F5F5F5F5F5F5E2F5F5F5E2E2EFF5F5F5E2F5F5F5F5F5F5F5F5F5F5F5F5F5F5F5F5E2F5F5F5F5F5F5F5F5F5F5F5F5F5F5F5F5F5F5F5F5F5F5F5F5F5F5F5F5F5F5F5F5F5F5F5F5F5F5F5F5F5F5F5F5F5F5F5F5F5F5F5F5F5F5F5F5F5F5F5F5
310
F5F5F5F5F5F5F5F5F5F5F5F5F5F5F5F5F5F5F5F5F5F5F5F5F5F5F5F5F5F5F5F5F5F5F5F5F5F5F5F5F5F5F5F5F5F5F5F5F5F5F5F5F5F5F5F5F5F5F5F5F5F5F5F5F5F5F5F5F5F5F5F5F5F5F5E2F5F5F5F5F5F5F5F5F5F5F5F5F5F5F5F5E2F5F5F5E2E2EFF5F5F5E2F5F5F5F5F5F5F5F5F5F5F5F5F5F5F5F5E2F5F5F5F5F5F5F5
310
F5F5F5F5F5F5F5F5F5F5F5F5F5F5F5F5F5F5F5F5F5F5F5F5F5F5F5F5F5F5F5F5F5F5F5F5F5F5F5F5F5F5F5F5F5F5F5F5F5F5F5F5F5F5F5F5F5F5F5F5F5F5F5F5F5F5F5F5F5F5F5F5F5F5F5F5F5F5F5F5F5F5F5F5F5F5F5F5F5F5F5F5F5F5F5F5F5F5F5F5F5F5F5F5F5F5F5F5F5F5F5F5F5F5F5F5F5F5F5F5F5F5F5F5F5F5F5
310
F5E2F5F5F5F5F5F5F5F5F5F5F5F5F5F5F5F5E2F5F5F5E2E2EFF5F5F5E2F5F5F5F5F5F5F5F5F5F5F5F5F5F5F5F5E2F5F5F5F5F5F5F5F5F5F5F5F5F5F5F5F5F5F5F5F5F5F5F5F5F5F5F5F5F5F5F5F5F5F5F5F5F5F5F5F5F5F5F5F5F5F5F5F5F5F5F5F5F5F5F5F5F5F5F5F5F5F5F5F5F5F5F5F5F5F5F5F5F5F5F5F5F5F5F5F5F5
310
F5F5F5F5F5F5F5F5F5F5F5F5F5F5F5F5F5F5F5F5F5F5F5F5F5F5F5F5F5F5F5F5F5F5F5F5F5F5F5F5F5F5F5F5F5F5F5F5F5F5F5F5F5F5E2F5F5F5F5F5F5F5F5F5F5F5F5F5F5F5F5E2F5F5F5E2E2EFF5F5F5E2F5F5F5F5F5F5F5F5F5F5F5F5F5F5F5F5E2F5F5F5F5F5F5F5F5F5F5F5F5F5F5F5F5F5F5F5F5F5F5F5F5F5F5F5F5
310
F5F5F5F5F5F5F5F5F5F5F5F5F5F5F5F5F5F5F5F5F5F5F5F5F5F5F5F5F5F5F5F5F5F5F5F5F5F5F5F5F5F5F5F5F5F5F5F5F5F5F5F5F5F5F5F5F5F5F5F5F5F5F5F5F5F5F5F5F5F5F5F5F5F5F5F5F5F5F5F5F5F5F5F5F5F5F5F5F5F5F5F5F5F5F5F5F5F5F5F5F5F5F5F5F5F5F5E2F5F5F5F5F5F5F5F5F5F5F5F5F5F5F5F5E2F5F5
310
F5E2E2EFF5F5F5E2F5F5F5F5F5F5F5F5F5F5F5F5F5F5F5F5E2F5F5F5F5F5F5F5F5F5F5F5F5F5F5F5F5F5F5F5F5F5F5F5F5F5F5F5F5F5F5F5F5F5F5F5F5F5F5F5F5F5F5F5F5F5F5F5F5F5F5F5F5F5F5F5F5F5F5F5F5F5F5F5F5F5F5F5F5F5F5F5F5F5F5F5F5F5F5F5F5F5F5F5F5F5F5F5F5F5F5F5F5F5F5F5F5F5F5F5F5F5F5
310
F5F5F5F5F5F5F5F5F5F5F5F5F5F5F5F5F5F5F5F5F5F5F5F5F5F5F5F5F5F5F5F5F5E2F5F5F5F5F5F5F5F5F5F5F5F5F5F5F5F5E2F5F5F5E2E2EFF5F5F5E2F5F5F5F5F5F5F5F5F5F5F5F5F5F5F5F5E2F5F5F5F5F5F5F5F5F5F5F5F5F5F5F5F5F5F5F5F5F5F5F5F5F5F5F5F5F5F5F5F5F5F5F5F5F5F5F5F5F5F5F5F5F5F5F5F5F5
310
F5F5F5F5F5F5F5F5F5F5F5F5F5F5F5F5F5F5F5F5F5F5F5F5F5F5F5F5F5F5F5F5F5F5F5F5F5F5F5F5F5F5F5F5F5F5F5F5F5F5F5F5F5F5F5F5F5F5F5F5F5F5F5F5F5F5F5F5F5F5F5F5F5F5F5F5F5F5F5F5F5F5F5F5F5F5E2F5F5F5F5F5F5F5F5F5F5F5F5F5F5F5F5E2F5F5F5E2E2EFF5F5F5E2F5F5F5F5F5F5F5F5F5F5F5F5F5
310
F5F5F5E2F5F5F5F5F5F5F5F5F5F5F5F5F5F5F5F5F5F5F5F5F5F5F5F5F5F5F5F5F5F5F5F5F5F5F5F5F5F5F5F5F5F5F5F5F5F5F5F5F5F5F5F5F5F5F5F5F5F5F5F5F5F5F5F5F5F5F5F5F5F5F5F5F5F5F5F5F5F5F5F5F5F5F5F5F5F5F5F5F5F5F5F5F5F5F5F5F5F5F5F5F5F5F5F5F5F5F5F5F5F5F5F5F5F5F5F5F5F5F5F5F5F5F5
310
F5F5F5F5F5F5F5F5F5F5F5F5E2F5F5F5F5F5F5F5F5F5F5F5F5F5F5F5F5E2F5F5F5E2E2EFF5F5F5E2F5F5F5F5F5F5F5F5F5F5F5F5F5F5F5F5E2F5F5F5F5F5F5F5F5F5F5F5F5F5F5F5F5F5F5F5F5F5F5F5F5F5F5F5F5F5F5F5F5F5F5F5F5F5F5F5F5F5F5F5F5F5F5F5F5F5F5F5F5F5F5F5F5F5F5F5F5F5F5F5F5F5F5F5F5F5F5
310
F5F5F5F5F5F5F5F5F5F5F5F5F5F5F5F5F5F5F5F5F5F5F5F5F5F5F5F5F5F5F5F5F5F5F5F5F5F5F5F5F5F5F5F5F5F5F5F5F5F5F5F5F5F5F5F5F5F5F5F5F5F5F5F5F5E2F5F5F5F5F5F5F5F5F5F5F5F5F5F5F5F5E2F5F5F5E2E2EFF5F5F5E2F5F5F5F5F5F5F5F5F5F5F5F5F5F5F5F5E2F5F5F5F5F5F5F5F5F5F5F5F5F5F5F5F5F5
310
F5F5F5F5F5F5F5F5F5F5F5F5F5F5F5F5F5F5F5F5F5F5F5F5F5F5F5F5F5F5F5F5F5F5F5F5F5F5F5F5F5F5F5F5F5F5F5F5F5F5F5F5F5F5F5F5F5F5F5F5F5F5F5F5F5F5F5F5F5F5F5F5F5F5F5F5F5F5F5F5F5F5F5F5F5F5F5F5F5F5F5F5F5F5F5F5F5F5F5F5F5F5F5F5F5F5F5F5F5F5F5F5F5F5F5F5F5F5E2F5F5F5F5F5F5F5F5
310
F5F5F5F5F5F5F5F5E2F5F5F5E2E2EFF5F5F5E2F5F5F5F5F5F5F5F5F5F5F5F5F5F5F5F5E2F5F5F5F5F5F5F5F5F5F5F5F5F5F5F5F5F5F5F5F5F5F5F5F5F5F5F5F5F5F5F5F5F5F5F5F5F5F5F5F5F5F5F5F5F5F5F5F5F5F5F5F5F5F5F5F5F5F5F5F5F5F5F5F5F5F5F5F5F5F5F5F5F5F5F5F5F5F5F5F5F5F5F5F5F5F5F5F5F5F5F5
310
F5F5F5F5F5F5F5F5F5F5F5F5F5F5F5F5F5F5F5F5F5F5F5F5F5F5F5F5F5F5F5F5F5F5F5F5F5F5F5F5F5F5F5F5E2F5F5F5F5F5F5F5F5F5F5F5F5F5F5F5F5E2F5F5F5E2E2EFF5F5F5E2F5F5F5F5F5F5F5F5F5F5F5F5F5F5F5F5E2F5F5F5F5F5F5F5F5F5F5F5F5F5F5F5F5F5F5F5F5F5F5F5F5F5F5F5F5F5F5F5F5F5F5F5F5F5F5
310
F5F5F5F5F5F5F5F5F5F5F5F5F5F5F5F5F5F5F5F5F5F5F5F5F5F5F5F5F5F5F5F5F5F5F5F5F5F5F5F5F5F5F5F5F5F5F5F5F5F5F5F5F5F5F5F5F5F5F5F5F5F5F5F5F5F5F5F5F5F5F5F5F5F5F5F5F5F5F5F5F5F5F5F5F5F5F5F5F5F5F5F5F5F5F5F5F5E2F5F5F5F5F5F5F5F5F5F5F5F5F5F5F5F5E2F5F5F5E2E2EFF5F5F5E2F5F5
310
F5F5F5F5F5F5F5F5F5F5F5F5F5F5E2F5F5F5F5F5F5F5F5F5F5F5F5F5F5F5F5F5F5F5F5F5F5F5F5F5F5F5F5F5F5F5F5F5F5F5F5F5F5F5F5F5F5F5F5F5F5F5F5F5F5F5F5F5F5F5F5F5F5F5F5F5F5F5F5F5F5F5F5F5F5F5F5F5F5F5F5F5F5F5F5F5F5F5F5F5F5F5F5F5F5F5F5F5F5F5F5F5F5F5F5F5F5F5F5F5F5F5F5F5F5F5F5
310
F5F5F5F5F5F5F5F5F5F5F5F5F5F5F5F5F5F5F5F5F5F5F5E2F5F5F5F5F5F5F5F5F5F5F5F5F5F5F5F5E2F5F5F5E2E2EFF5F5F5E2F5F5F5F5F5F5F5F5F5F5F5F5F5F5F5F5E2F5F5F5F5F5F5F5F5F5F5F5F5F5F5F5F5F5F5F5F5F5F5F5F5F5F5F5F5F5F5F5F5F5F5F5F5F5F5F5F5F5F5F5F5F5F5F5F5F5F5F5F5F5F5F5F5F5F5F5
310
F5F5F5F5F5F5F5F5F5F5F5F5F5F5F5F5F5F5F5F5F5F5F5F5F5F5F5F5F5F5F5F5F5F5F5F5F5F5F5F5F5F5F5F5F5F5F5F5F5F5F5F5F5F5F5F5F5F5F5F5F5F5F5F5F5F5F5F5F5F5F5F5F5F5F5F5E2F5F5F5F5F5F5F5F5F5F5F5F5F5F5F5F5E2F5F5F5E2E2EFF5F5F5E2F5F5F5F5F5F5F5F5F5F5F5F5F5F5F5F5E2F5F5F5F5F5F5
310
F5F5F5F5F5F5F5F5F5F5F5F5F5F5F5F5F5F5F5F5F5F5F5F5F5F5F5F5F5F5F5F5F5F5F5F5F5F5F5F5F5F5F5F5F5F5F5F5F5F5F5F5F5F5F5F5F5F5F5F5F5F5F5F5F5F5F5F5F5F5F5F5F5F5F5F5F5F5F5F5F5F5F5F5F5F5F5F5F5F5F5F5F5F5F5F5F5F5F5F5F5F5F5F5F5F5F5F5F5F5F5F5F5F5F5F5F5F5F5F5F5F5F5F5F5F5F5
310
F5F5E2F5F5F5F5F5F5F5F5F5F5F5F5F5F5F5F5E2F5F5F5E2E2EFF5F5F5F5F5F5F5F5F5F5F5F5F5F5F5F5F5F5F5F5E2F5F5F5F5F5F5F5F5F5F5F5F5F5F5F5F5F5F5F5F5F5F5F5F5F5F5F5F5F5F5F5F5F5F5F5F5F5F5F5F5F5F5F5F5F5F5F5F5F5F5F5F5F5F5F5F5F5F5F5F5F5F5F5F5F5F5F5F5F5F5F5F5F5F5F5F5F5F5F5F5
310
F5F5F5F5F5F5F5F5F5F5F5F5F5F5F5F5F5F5F5F5F5F5F5F5F5F5F5F5F5F5F5F5F5F5F5F5F5F5F5F5F5F5F5F5F5F5F5F5F5F5F5F5F5F5F5E2F5F5F5F5F5F5F5F5F5F5F5F5F5F5F5F5F5F5F5F5E2E2EFF5F5F5F5F5F5F5F5F5F5F5F5F5F5F5F5F5F5F5F5E2F5F5F5F5F5F5F5F5F5F5F5F5F5F5F5F5F5F5F5F5F5F5F5F5F5F5F5
310
F5F5F5F5F5F5F5F5F5F5F5F5F5F5F5F5F5F5F5F5F5F5F5F5F5F5F5F5F5F5F5F5F5F5F5F5F5F5F5F5F5F5F5F5F5F5F5F5F5F5F5F5F5F5F5F5F5F5F5F5F5F5F5F5F5F5F5F5F5F5F5F5F5F5F5F5F5F5F5F5F5F5F5F5F5F5F5F5F5F5F5F5F5F5F5F5F5F5F5F5F5F5F5F5F5F5F5F5E2F5F5F5F5F5F5F5F5F5F5F5F5F5F5F5F5F5F5
310
F5F5E2E2EFF5F5F5F5F5F5F5F5F5F5F5F5F5F5F5F5F5F5F5F5E2F5F5F5F5F5F5F5F5F5F5F5F5F5F5F5F5F5F5F5F5F5F5F5F5F5F5F5F5F5F5F5F5F5F5F5F5F5F5F5F5F5F5F5F5F5F5F5F5F5F5F5F5F5F5F5F5F5F5F5F5F5F5F5F5F5F5F5F5F5F5F5F5F5F5F5F5F5F5F5F5F5F5F5F5F5F5F5F5F5F5F5F5F5F5F5F5F5F5F5F5F5
310
F5F5F5F5F5F5F5F5F5F5F5F5F5F5F5F5F5F5F5F5F5F5F5F5F5F5F5F5F5F5F5F5F5F5E2F5F5F5F5F5F5F5F5F5F5F5F5F5F5F5F5F5F5F5F5E2E2EFF5F5F5F5F5F5F5F5F5F5F5F5F5F5F5F5F5F5F5F5E2F5F5F5F5F5F5F5F5F5F5F5F5F5F5F5F5F5F5F5F5F5F5F5F5F5F5F5F5F5F5F5F5F5F5F5F5F5F5F5F5F5F5F5F5F5F5F5F5
310
F5F5F5F5F5F5F5F5F5F5F5F5F5F5F5F5F5F5F5F5F5F5F5F5F5F5F5F5F5F5F5F5F5F5F5F5F5F5F5F5F5F5F5F5F5F5F5F5F5F5F5F5F5F5F5F5F5F5F5F5F5F5F5F5F5F5F5F5F5F5F5F5F5F5F5F5F5F5F5F5F5F5F5F5F5F5F5E2F5F5F5F5F5F5F5F5F5F5F5F5F5F5F5F5F5F5F5F5E2E2EFF5F5F5F5F5F5F5F5F5F5F5F5F5F5F5F5
310
F5F5F5F5E2E2E2E2E2E2E2E2E2E2E2E2E2E2E2E2E2E2E2E2E2E2E2E2E2E2E2E2E2E2E2E2E2E2E2E2E2E2E2E2E2E2E2E2E2E2E2E2E2E2E2E2E2E2E2E2E2E2E2E2E2E2E2E2E2E2E2E2E2E2E2E2E2E2E2E2E2E2E2E2E2E2E2E2E2E2E2E2E2E2E2E2E2E2E2E2E2E2E2E2E2E2E2E2E2E2E2E2E2E2E2E2E2E2E2E2E2E2E2E2E2E2E2
310
E2E2E2E2E2E2E2E2E2E2E2E2E2E2F5F5F5F5F5F5F5F5F5F5F5F5F5F5F5F5F5F5F5F5E2E2EFF5F5F5F5F5F5F5F5F5F5F5F5F5F5F5F5F5F5F5F5F5F5F5F5F5F5F5F5F5F5F5F5F5F5F5F5F5F5F5F5F5F5F5F5F5F5F5F5F5F5F5F5F5F5F5F5F5F5F5F5F5F5F5F5F5F5F5F5F5F5F5F5F5F5F5F5F5F5F5F5F5F5F5F5F5F5F5F5F5F5
310
F5F5F5F5F5F5F5F5F5F5F5F5F5F5F5F5F5F5F5F5F5F5F5F5F5F5F5F5F5F5F5F5F5F5F5F5F5F5F5F5F5F5F5F5F5F5F5F5F5F5F5F5F5F5F5F5F5F5F5F5F5F5F5F5F5F5F5F5F5F5F5F5F5F5F5F5F5F5F5F5F5F5F5F5F5F5F5E2E2EFF5F5F5F5F5F5F5F5F5F5F5F5F5F5F5F5F5F5F5F5F5F5F5F5F5F5F5F5F5F5F5F5F5F5F5F5F5
310
F5F5F5F5F5F5F5F5F5F5F5F5F5F5F5F5F5F5F5F5F5F5F5F5F5F5F5F5F5F5F5F5F5F5F5F5F5F5F5F5F5F5F5F5F5F5F5F5F5F5F5F5F5F5F5F5F5F5F5F5F5F5F5F5F5F5F5F5F5F5F5F5F5F5F5F5F5F5F5F5F5F5F5F5F5F5F5F5F5F5F5F5F5F5F5F5F5F5F5F5F5F5F5F5F5F5F5F5F5F5F5F5F5F5F5F5F5F5F5F5F5F5F5F5F5F5F5
310
F5F5F5F5F5F5F5F5F5F5F5F5F5E2E2EFF5F5F5F5F5F5F5F5F5F5F5F5F5F5F5F5F5F5F5F5F5F5F5F5F5F5F5F5F5F5F5F5F5F5F5F5F5F5F5F5F5F5F5F5F5F5F5F5F5F5F5F5F5F5F5F5F5F5F5F5F5F5F5F5F5F5F5F5F5F5F5F5F5F5F5F5F5F5F5F5F5F5F5F5F5F5F5F5F5F5F5F5F5F5F5F5F5F5F5F5F5F5F5F5F5F5F5F5F5F5F5
310
F5F5F5F5F5F5F5F5F5F5F5F5F5F5F5F5F5F5F5F5F5F5F5F5F5F5F5F5F5F5F5F5F5F5F5F5F5F5F5F5F5F5F5F5F5F5F5F5F5F5F5F5F5F5F5F5F5F5F5F5F5F5F5F5F5F5E2E2EFF5F5F5F5F5F5F5F5F5F5F5F5F5F5F5F5F5F5F5F5F5F5F5F5F5F5F5F5F5F5F5F5F5F5F5F5F5F5F5F5F5F5F5F5F5F5F5F5F5F5F5F5F5F5F5F5F5F5
310
F5F5F5F5F5F5F5F5F5F5F5F5F5F5F5F5F5F5F5F5F5F5F5F5F5F5F5F5F5F5F5F5F5F5F5F5F5F5F5F5F5F5F5F5F5F5F5F5F5F5F5F5F5F5F5F5F5F5F5F5F5F5F5F5F5F5F5F5F5F5F5F5F5F5F5F5F5F5F5F5F5F5F5F5F5F5F5F5F5F5F5F5F5F5F5F5F5F5F5F5F5F5F5F5F5F5F5F5F5F5F5F5F5F5F5F5F5F5F5E2E2EFF5F5F5E2F5
310
F5F5F5F5F5F5F5F5F5F5F5F5F5F5F5F5F5F5F5F5F5F5F5F5F5F5F5F5F5F5F5F5F5F5F5F5F5F5F5F5F5F5F5F5F5F5F5F5F5F5F5F5F5F5F5F5F5F5F5F5F5F5F5F5F5F5F5F5F5F5F5F5F5F5F5F5F5F5F5F5F5F5F5F5F5F5F5F5F5F5F5F5F5F5F5F5F5F5F5F5F5F5F5F5F5F5F5F5F5F5F5F5F5F5F5F5F5F5F5F5F5F5F5F5F5F5F5
310
F5F5F5F5F5F5F5F5F5F5F5F5F5F5F5F5F5F5F5F5F5F5F5F5F5F5F5F5F5F5F5F5F5F5F5F5F5F5F5F5F5E2F5F5F5E2E2EFF5F5F5E2F5F5F5F5F5F5F5F5F5F5F5F5F5F5F5F5F5F5F5F5F5F5F5F5F5F5F5F5F5F5F5F5F5F5F5F5F5F5F5F5F5F5F5F5F5F5F5F5F5F5F5F5F5F5F5F5F5F5F5F5F5F5F5F5F5F5F5F5F5F5F5F5F5F5F5
310
F5F5F5F5F5F5F5F5F5F5F5F5F5F5F5F5F5F5F5F5F5F5F5F5F5F5F5F5F5F5F5F5F5F5F5F5F5F5F5F5F5F5F5F5F5F5F5F5F5F5F5F5F5F5F5F5F5F5F5F5F5F5F5F5F5F5F5F5F5F5F5F5F5F5F5F5F5F5F5F5F5F5F5F5F5F5F5F5F5F5F5F5F5F5E2F5F5F5E2E2EFF5F5F5E2F5F5F5F5F5F5F5F5F5F5F5F5F5F5F5F5F5F5F5F5F5F5
310
F5F5F5F5F5F5F5F5F5F5F5F5F5F5F5F5F5F5F5F5F5F5F5F5F5F5F5F5F5F5F5F5F5F5F5F5F5F5F5F5F5F5F5F5F5F5F5F5F5F5F5F5F5F5F5F5F5F5F5F5F5F5F5F5F5F5F5F5F5F5F5F5F5F5F5F5F5F5F5F5F5F5F5F5F5F5F5F5F5F5F5F5F5F5F5F5F5F5F5F5F5F5F5F5F5F5F5F5F5F5F5F5F5F5F5F5F5F5F5F5F5F5F5F5F5F5F5
310
F5F5F5F5F5F5F5F5F5F5F5F5F5F5F5F5F5F5F5F5E2F5F5F5E2E2EFF5F5F5E2F5F5F5F5F5F5F5F5F5F5F5F5F5F5F5F5F5F5F5F5F5F5F5F5F5F5F5F5F5F5F5F5F5F5F5F5F5F5F5F5F5F5F5F5F5F5F5F5F5F5F5F5F5F5F5F5F5F5F5F5F5F5F5F5F5F5F5F5F5F5F5F5F5F5F5F5F5F5F5F5F5F5F5F5F5F5F5F5F5F5F5F5F5F5F5F5
310
F5F5F5F5F5F5F5F5F5F5F5F5F5F5F5F5F5F5F5F5F5F5F5F5F5F5F5F5F5F5F5F5F5F5F5F5F5F5F5F5F5F5F5F5F5F5F5F5F5F5F5F5F5F5F5F5F5F5F5F5F5F5F5F5F5F5F5F5F5F5F5F5F5E2F5F5F5E2E2EFF5F5F5E2F5F5F5F5F5F5F5F5F5F5F5F5F5F5F5F5F5F5F5F5F5F5F5F5F5F5F5F5F5F5F5F5F5F5F5F5F5F5F5F5F5F5F5
310
F5F5F5F5F5F5F5F5F5F5F5F5F5F5F5F5F5F5F5F5F5F5F5F5F5F5F5F5F5F5F5F5F5F5F5F5F5F5F5F5F5F5F5F5F5F5F5F5F5F5F5F5F5F5F5F5F5F5F5F5F5F5F5F5F5F5F5F5F5F5F5F5F5F5F5F5F5F5F5F5F5F5F5F5F5F5F5F5F5F5F5F5F5F5F5F5F5F5F5F5F5F5F5F5F5F5F5F5F5F5F5F5F5F5F5F5F5F5F5F5F5F5F5F5F5F5E2
310
F5F5F5E2E2EFF5F5F5E2F5F5F5F5F5F5F5F5F5F5F5F5F5F5F5F5F5F5F5F5F5F5F5F5F5F5F5F5F5F5F5F5F5F5F5F5F5F5F5F5F5F5F5F5F5F5F5F5F5F5F5F5F5F5F5F5F5F5F5F5F5F5F5F5F5F5F5F5F5F5F5F5F5F5F5F5F5F5F5F5F5F5F5F5F5F5F5F5F5F5F5F5F5F5F5F5F5F5F5F5F5F5F5F5F5F5F5F5F5F5F5F5F5F5F5F5F5
310
F5F5F5F5F5F5F5F5F5F5F5F5F5F5F5F5F5F5F5F5F5F5F5F5F5F5F5F5F5F5F5F5F5F5F5F5F5F5F5F5F5F5F5F5F5F5F5F5F5F5F5F5E2F5F5F5E2E2EFF5F5F5E2F5F5F5F5F5F5F5F5F5F5F5F5F5F5F5F5F5F5F5F5F5F5F5F5F5F5F5F5F5F5F5F5F5F5F5F5F5F5F5F5F5F5F5F5F5F5F5F5F5F5F5F5F5F5F5F5F5F5F5F5F5F5F5F5
310
F5F5F5F5F5F5F5F5F5F5F5F5F5F5F5F5F5F5F5F5F5F5F5F5F5F5F5F5F5F5F5F5F5F5F5F5F5F5F5F5F5F5F5F5F5F5F5F5F5F5F5F5F5F5F5F5F5F5F5F5F5F5F5F5F5F5F5F5F5F5F5F5F5F5F5F5F5F5F5F5F5F5F5F5F5F5F5F5F5F5F5F5F5F5F5F5F5F5F5F5F5F5F5F5F5E2F5F5F5E2E2EFF5F5F5E2F5F5F5F5F5F5F5F5F5F5F5
310
F5F5F5F5F5F5F5F5F5F5F5F5F5F5F5F5F5F5F5F5F5F5F5F5F5F5F5F5F5F5F5F5F5F5F5F5F5F5F5F5F5F5F5F5F5F5F5F5F5F5F5F5F5F5F5F5F5F5F5F5F5F5F5F5F5F5F5F5F5F5F5F5F5F5F5F5F5F5F5F5F5F5F5F5F5F5F5F5F5F5F5F5F5F5F5F5F5F5F5F5F5F5F5F5F5F5F5F5F5F5F5F5F5F5F5F5F5F5F5F5F5F5F5F5F5F5F5
310
F5F5F5F5F5F5F5F5F5F5F5F5F5F5F5F5F5F5F5F5F5F5F5F5F5F5F5F5F5F5F5E2F5F5F5E2E2EFF5F5F5E2E2E2E2E2E2E2E2F5F5F5F5F5F5F5F5F5E2E2E2E2E2E2E2E2E2E2E2E2E2E2E2E2F5F5F5F5F5F5F5F5E2E2E2E2E2E2E2E2E2E2E2E2E2E2E2E2F5F5F5F5F5F5F5F5F5E2E2E2E2E2E2E2E2E2E2E2E2E2E2E2F5F5F5F5F5
310
F5F5F5F5E2E2E2E2E2E2E2E2E2E2E2E2E2E2E2F5F5F5F5F5F5F5F5F5E2E2E2E2E2E2E2E2E2E2E2E2E2E2E2E2F5F5F5F5F5F5F5F5E2E2E2E2E2E2E2E2E2E2E2E2E2E2E2E2F5F5F5F5F5F5F5F5F5E2E2E2E2E2E2E2E2F5F5F5E2E2EFF5F5F5F5F5F5F5F5F5F5F5F5F5F5F5F5F5F5F5F5F5F5F5F5F5F5F5F5F5F5F5F5F5F5F5F5
310
F5F5F5F5F5F5F5F5F5F5F5F5F5F5F5F5F5F5F5F5F5F5F5F5F5F5F5F5F5F5F5F5F5F5F5F5F5F5F5F5F5F5F5F5F5F5F5F5F5F5F5F5F5F5F5F5F5F5F5F5F5F5F5F5F5F5F5F5F5F5F5F5F5F5F5F5F5F5F5F5F5F5F5F5F5F5F5F5F5F5F5F5F5F5F5F5F5F5F5F5F5F5F5F5F5F5F5F5F5F5F5F5F5F5F5F5F5F5F5F5F5F5F5F5F5F5F5
310
F5F5F5F5F5F5F5F5F5F5F5F5F5F5E2E2EFF5F5F5F5F5F5F5F5F5F5F5F5F5F5F5F5F5F5F5F5F5F5F5F5F5F5F5F5F5F5F5F5F5F5F5F5F5F5F5F5F5F5F5F5F5F5F5F5F5F5F5F5F5F5F5F5F5F5F5F5F5F5F5F5F5F5F5F5F5F5F5F5F5F5F5F5F5F5F5F5F5F5F5F5F5F5F5F5F5F5F5F5F5F5F5F5F5F5F5F5F5F5F5F5F5F5F5F5F5F5
310
F5F5F5F5F5F5F5F5F5F5F5F5F5F5F5F5F5F5F5F5F5F5F5F5F5F5F5F5F5F5F5F5F5F5F5F5F5F5F5F5F5F5F5F5F5F5F5F5F5F5F5F5F5F5F5F5F5F5F5F5F5F5F5F5F5F5F5E2EFEFF5F5F5F5F5F5F5F5F5F5F5F5F5F5F5F5F5F5F5F5F5F5F5F5F5F5F5F5F5F5F5F5F5F5F5F5F5F5F5F5F5F5F5F5F5F5F5F5F5F5F5F5F5F5F5F5F5
310
F5F5F5F5F5F5F5F5F5F5F5F5F5F5F5F5F5F5F5F5F5F5F5F5F5F5F5F5F5F5F5F5F5F5F5F5F5F5F5F5F5F5F5F5F5F5F5F5F5F5F5F5F5F5F5F5F5F5F5F5F5F5F5F5F5F5F5F5F5F5F5F5F5F5F5F5F5F5F5F5F5F5F5F5F5F5F5F5F5F5F5F5F5F5F5F5F5F5F5F5F5F5F5F5F5F5F5F5F5F5F5F5F5F5F5F5F5F5F5F5E2EFEFE2E2E2E2
310
E2E2E2E2E2E2E2E2E2E2E2E2E2E2E2E2E2E2E2E2E2E2E2E2E2E2E2E2E2E2E2E2E2E2E2E2E2E2E2E2E2E2E2E2E2E2E2E2E2E2E2E2E2E2E2E2E2E2E2E2E2E2E2E2E2E2E2E2E2E2E2E2E2E2E2E2E2E2E2E2E2E2E2E2E2E2E2E2E2E2E2E2E2E2E2E2E2E2E2E2E2E2E2E2E2E2E2E2E2E2E2E2E2E2E2E2E2E2E2E2E2E2E2E2E2E2E2
310
E2E2E2E2E2E2E2E2E2E2E2E2E2E2E2E2E2E2E2E2E2E2E2E2E2E2E2E2E2E2E2E2E2E2E2E2E2E2E2E2E2E2E2E2E2E2E2EFEF
  0
ENDSEC
  0
EOF
