  0
SECTION
  2
HEADER
  9
$ACADVER
  1
AC1018
  9
$ACADMAINTVER
 70
     0
  9
$DWGCODEPAGE
  3
ANSI_1252
  9
$AUTHOR
  1
g6edxjah
  9
$LASTSAVEDBY
  1
g6edxjah
  9
$INSBASE
 10
0.0
 20
0.0
 30
0.0
  9
$EXTMIN
 10
29.208333
 20
-13.94376
 30
0.0
  9
$EXTMAX
 10
32.621167
 20
-11.372687
 30
0.0
  9
$LIMMIN
 10
22.36891
 20
-21.204064
  9
$LIMMAX
 10
39.46059
 20
-4.112383
  9
$ORTHOMODE
 70
     0
  9
$REGENMODE
 70
     1
  9
$FILLMODE
 70
     1
  9
$QTEXTMODE
 70
     0
  9
$MIRRTEXT
 70
     0
  9
$LTSCALE
 40
1.0
  9
$ATTMODE
 70
     1
  9
$TEXTSIZE
 40
0.010396
  9
$TRACEWID
 40
0.05
  9
$TEXTSTYLE
  7
Standard
  9
$CLAYER
  8
Level 46
  9
$CELTYPE
  6
Continuous
  9
$CECOLOR
 62
     6
  9
$CELTSCALE
 40
1.0
  9
$DISPSILH
 70
     0
  9
$DIMSCALE
 40
1.0
  9
$DIMASZ
 40
0.010396
  9
$DIMEXO
 40
0.005198
  9
$DIMDLI
 40
0.0
  9
$DIMRND
 40
0.0
  9
$DIMDLE
 40
0.0
  9
$DIMEXE
 40
0.005198
  9
$DIMTP
 40
0.0
  9
$DIMTM
 40
0.0
  9
$DIMTXT
 40
0.010396
  9
$DIMCEN
 40
0.09
  9
$DIMTSZ
 40
0.0
  9
$DIMTOL
 70
     0
  9
$DIMLIM
 70
     0
  9
$DIMTIH
 70
     0
  9
$DIMTOH
 70
     0
  9
$DIMSE1
 70
     0
  9
$DIMSE2
 70
     0
  9
$DIMTAD
 70
     1
  9
$DIMZIN
 70
    11
  9
$DIMBLK
  1
TerminatorOpen_0.5
  9
$DIMASO
 70
     1
  9
$DIMSHO
 70
     1
  9
$DIMPOST
  1

  9
$DIMAPOST
  1

  9
$DIMALT
 70
     0
  9
$DIMALTD
 70
     2
  9
$DIMALTF
 40
25.4
  9
$DIMLFAC
 40
12.0
  9
$DIMTOFL
 70
     0
  9
$DIMTVP
 40
0.0
  9
$DIMTIX
 70
     0
  9
$DIMSOXD
 70
     0
  9
$DIMSAH
 70
     0
  9
$DIMBLK1
  1

  9
$DIMBLK2
  1

  9
$DIMSTYLE
  2
Standard
  9
$DIMCLRD
 70
     0
  9
$DIMCLRE
 70
     0
  9
$DIMCLRT
 70
     0
  9
$DIMTFAC
 40
1.0
  9
$DIMGAP
 40
0.005198
  9
$DIMJUST
 70
     0
  9
$DIMSD1
 70
     0
  9
$DIMSD2
 70
     0
  9
$DIMTOLJ
 70
     0
  9
$DIMTZIN
 70
    11
  9
$DIMALTZ
 70
    15
  9
$DIMALTTZ
 70
    15
  9
$DIMUPT
 70
     1
  9
$DIMDEC
 70
     6
  9
$DIMTDEC
 70
     6
  9
$DIMALTU
 70
     2
  9
$DIMALTTD
 70
     2
  9
$DIMTXSTY
  7
Style-FANCY
  9
$DIMAUNIT
 70
     0
  9
$DIMADEC
 70
     2
  9
$DIMALTRND
 40
0.0
  9
$DIMAZIN
 70
     3
  9
$DIMDSEP
 70
    46
  9
$DIMATFIT
 70
     1
  9
$DIMFRAC
 70
     0
  9
$DIMLDRBLK
  1
TerminatorOpen_0.5
  9
$DIMLUNIT
 70
     4
  9
$DIMLWD
 70
    -2
  9
$DIMLWE
 70
    -2
  9
$DIMTMOVE
 70
     0
  9
$LUNITS
 70
     2
  9
$LUPREC
 70
     4
  9
$SKETCHINC
 40
0.1
  9
$FILLETRAD
 40
0.0
  9
$AUNITS
 70
     0
  9
$AUPREC
 70
     2
  9
$MENU
  1
.
  9
$ELEVATION
 40
0.0
  9
$PELEVATION
 40
0.0
  9
$THICKNESS
 40
0.0
  9
$LIMCHECK
 70
     0
  9
$CHAMFERA
 40
0.0
  9
$CHAMFERB
 40
0.0
  9
$CHAMFERC
 40
0.0
  9
$CHAMFERD
 40
0.0
  9
$SKPOLY
 70
     0
  9
$TDCREATE
 40
2455398.462624745
  9
$TDUCREATE
 40
2455398.670958079
  9
$TDUPDATE
 40
2455398.462624931
  9
$TDUUPDATE
 40
2455398.670958264
  9
$TDINDWG
 40
0.0
  9
$TDUSRTIMER
 40
0.0006630093
  9
$USRTIMER
 70
     1
  9
$ANGBASE
 50
0.0
  9
$ANGDIR
 70
     0
  9
$PDMODE
 70
     0
  9
$PDSIZE
 40
0.0
  9
$PLINEWID
 40
0.0
  9
$SPLFRAME
 70
     0
  9
$SPLINETYPE
 70
     6
  9
$SPLINESEGS
 70
     8
  9
$HANDSEED
  5
72E
  9
$SURFTAB1
 70
     6
  9
$SURFTAB2
 70
     6
  9
$SURFTYPE
 70
     6
  9
$SURFU
 70
     6
  9
$SURFV
 70
     6
  9
$UCSBASE
  2

  9
$UCSNAME
  2

  9
$UCSORG
 10
0.0
 20
0.0
 30
0.0
  9
$UCSXDIR
 10
1.0
 20
0.0
 30
0.0
  9
$UCSYDIR
 10
0.0
 20
1.0
 30
0.0
  9
$UCSORTHOREF
  2

  9
$UCSORTHOVIEW
 70
     0
  9
$UCSORGTOP
 10
0.0
 20
0.0
 30
0.0
  9
$UCSORGBOTTOM
 10
0.0
 20
0.0
 30
0.0
  9
$UCSORGLEFT
 10
0.0
 20
0.0
 30
0.0
  9
$UCSORGRIGHT
 10
0.0
 20
0.0
 30
0.0
  9
$UCSORGFRONT
 10
0.0
 20
0.0
 30
0.0
  9
$UCSORGBACK
 10
0.0
 20
0.0
 30
0.0
  9
$PUCSBASE
  2

  9
$PUCSNAME
  2

  9
$PUCSORG
 10
0.0
 20
0.0
 30
0.0
  9
$PUCSXDIR
 10
1.0
 20
0.0
 30
0.0
  9
$PUCSYDIR
 10
0.0
 20
1.0
 30
0.0
  9
$PUCSORTHOREF
  2

  9
$PUCSORTHOVIEW
 70
     0
  9
$PUCSORGTOP
 10
0.0
 20
0.0
 30
0.0
  9
$PUCSORGBOTTOM
 10
0.0
 20
0.0
 30
0.0
  9
$PUCSORGLEFT
 10
0.0
 20
0.0
 30
0.0
  9
$PUCSORGRIGHT
 10
0.0
 20
0.0
 30
0.0
  9
$PUCSORGFRONT
 10
0.0
 20
0.0
 30
0.0
  9
$PUCSORGBACK
 10
0.0
 20
0.0
 30
0.0
  9
$USERI1
 70
     0
  9
$USERI2
 70
     0
  9
$USERI3
 70
     0
  9
$USERI4
 70
     0
  9
$USERI5
 70
     0
  9
$USERR1
 40
0.0
  9
$USERR2
 40
0.0
  9
$USERR3
 40
0.0
  9
$USERR4
 40
0.0
  9
$USERR5
 40
0.0
  9
$WORLDVIEW
 70
     1
  9
$SHADEDGE
 70
     3
  9
$SHADEDIF
 70
    70
  9
$TILEMODE
 70
     1
  9
$MAXACTVP
 70
    64
  9
$PINSBASE
 10
0.0
 20
0.0
 30
0.0
  9
$PLIMCHECK
 70
     0
  9
$PEXTMIN
 10
1.049744
 20
0.799667
 30
-0.001526
  9
$PEXTMAX
 10
9.450623
 20
7.200577
 30
0.0
  9
$PLIMMIN
 10
-0.25
 20
-0.25
  9
$PLIMMAX
 10
10.75
 20
8.25
  9
$UNITMODE
 70
     0
  9
$VISRETAIN
 70
     1
  9
$PLINEGEN
 70
     0
  9
$PSLTSCALE
 70
     0
  9
$TREEDEPTH
 70
  3020
  9
$CMLSTYLE
  2
Standard
  9
$CMLJUST
 70
     0
  9
$CMLSCALE
 40
1.0
  9
$PROXYGRAPHICS
 70
     1
  9
$MEASUREMENT
 70
     0
  9
$CELWEIGHT
370
     0
  9
$ENDCAPS
280
     0
  9
$JOINSTYLE
280
     0
  9
$LWDISPLAY
290
     1
  9
$INSUNITS
 70
     2
  9
$HYPERLINKBASE
  1

  9
$STYLESHEET
  1

  9
$XEDIT
290
     1
  9
$CEPSNTYPE
380
     0
  9
$PSTYLEMODE
290
     1
  9
$FINGERPRINTGUID
  2
{02C0BBB5-38A7-4FBF-829E-00875EC88963}
  9
$VERSIONGUID
  2
{82C521FC-BF81-46B3-825E-420B6BD93A99}
  9
$EXTNAMES
290
     1
  9
$PSVPSCALE
 40
0.0
  9
$OLESTARTUP
290
     0
  9
$SORTENTS
280
   127
  9
$INDEXCTL
280
     0
  9
$HIDETEXT
280
     1
  9
$XCLIPFRAME
290
     0
  9
$HALOGAP
280
     0
  9
$OBSCOLOR
 70
   257
  9
$OBSLTYPE
280
     0
  9
$INTERSECTIONDISPLAY
280
     0
  9
$INTERSECTIONCOLOR
 70
   257
  9
$DIMASSOC
280
     1
  9
$PROJECTNAME
  1

  0
ENDSEC
  0
SECTION
  2
CLASSES
  0
CLASS
  1
ACDBDICTIONARYWDFLT
  2
AcDbDictionaryWithDefault
  3
ObjectDBX Classes
 90
        0
 91
        3
280
     0
281
     0
  0
CLASS
  1
SORTENTSTABLE
  2
AcDbSortentsTable
  3
ObjectDBX Classes
 90
        0
 91
        3
280
     0
281
     0
  0
ENDSEC
  0
SECTION
  2
TABLES
  0
TABLE
  2
VPORT
  5
70C
330
0
100
AcDbSymbolTable
 70
     4
  0
VPORT
  5
49
330
70C
100
AcDbSymbolTableRecord
100
AcDbViewportTableRecord
  2
*ACTIVE
 70
     0
 10
0.0
 20
0.0
 11
1.0
 21
1.0
 12
30.920205
 22
-12.658224
 13
0.0
 23
0.0
 14
0.083333
 24
0.083333
 15
0.083333
 25
0.083333
 16
0.0
 26
0.0
 36
1.0
 17
0.0
 27
0.0
 37
0.0
 40
2.673916
 41
1.884937
 42
50.0
 43
0.0
 44
0.0
 50
0.0
 51
0.0
 71
     0
 72
   100
 73
     1
 74
     2
 75
     0
 76
     0
 77
     0
 78
     1
281
     0
 65
     1
110
0.0
120
0.0
130
0.0
111
1.0
121
0.0
131
0.0
112
0.0
122
1.0
132
0.0
 79
     0
146
0.0
  0
ENDTAB
  0
TABLE
  2
LTYPE
  5
6F3
330
0
100
AcDbSymbolTable
 70
     2
  0
LTYPE
  5
6F4
330
6F3
100
AcDbSymbolTableRecord
100
AcDbLinetypeTableRecord
  2
ByBlock
 70
     0
  3

 72
    65
 73
     0
 40
0.0
  0
LTYPE
  5
6F5
330
6F3
100
AcDbSymbolTableRecord
100
AcDbLinetypeTableRecord
  2
ByLayer
 70
     0
  3

 72
    65
 73
     0
 40
0.0
  0
LTYPE
  5
6F2
330
6F3
100
AcDbSymbolTableRecord
100
AcDbLinetypeTableRecord
  2
Continuous
 70
     0
  3
Solid line
 72
    65
 73
     0
 40
0.0
  0
LTYPE
  5
722
330
6F3
100
AcDbSymbolTableRecord
100
AcDbLinetypeTableRecord
  2
DGN Style 7
 70
     0
  3
Dgn Style 7
 72
    65
 73
     4
 40
0.100803
 49
0.045361
 74
     0
 49
-0.020161
 74
     0
 49
0.01512
 74
     0
 49
-0.020161
 74
     0
  0
ENDTAB
  0
TABLE
  2
LAYER
  5
6EC
102
{ACAD_XDICTIONARY
360
6ED
102
}
330
0
100
AcDbSymbolTable
 70
    64
  0
LAYER
  5
6EB
330
6EC
100
AcDbSymbolTableRecord
100
AcDbLayerTableRecord
  2
0
 70
     0
 62
     7
  6
Continuous
370
    -3
390
6EF
  0
LAYER
  5
7
330
6EC
100
AcDbSymbolTableRecord
100
AcDbLayerTableRecord
  2
Level 1
 70
     0
 62
     7
  6
Continuous
370
     0
390
6EF
  0
LAYER
  5
8
330
6EC
100
AcDbSymbolTableRecord
100
AcDbLayerTableRecord
  2
Level 2
 70
     0
 62
     7
  6
Continuous
370
     0
390
6EF
  0
LAYER
  5
9
330
6EC
100
AcDbSymbolTableRecord
100
AcDbLayerTableRecord
  2
Level 3
 70
     0
 62
     7
  6
Continuous
370
     0
390
6EF
  0
LAYER
  5
A
330
6EC
100
AcDbSymbolTableRecord
100
AcDbLayerTableRecord
  2
Level 4
 70
     0
 62
     7
  6
Continuous
370
     0
390
6EF
  0
LAYER
  5
B
330
6EC
100
AcDbSymbolTableRecord
100
AcDbLayerTableRecord
  2
Level 5
 70
     0
 62
     7
  6
Continuous
370
     0
390
6EF
  0
LAYER
  5
C
330
6EC
100
AcDbSymbolTableRecord
100
AcDbLayerTableRecord
  2
Level 6
 70
     0
 62
     7
  6
Continuous
370
     0
390
6EF
  0
LAYER
  5
D
330
6EC
100
AcDbSymbolTableRecord
100
AcDbLayerTableRecord
  2
Level 7
 70
     0
 62
     7
  6
Continuous
370
     0
390
6EF
  0
LAYER
  5
E
330
6EC
100
AcDbSymbolTableRecord
100
AcDbLayerTableRecord
  2
Level 8
 70
     0
 62
     7
  6
Continuous
370
     0
390
6EF
  0
LAYER
  5
F
330
6EC
100
AcDbSymbolTableRecord
100
AcDbLayerTableRecord
  2
Level 9
 70
     0
 62
     7
  6
Continuous
370
     0
390
6EF
  0
LAYER
  5
10
330
6EC
100
AcDbSymbolTableRecord
100
AcDbLayerTableRecord
  2
Level 10
 70
     0
 62
     7
  6
Continuous
370
     0
390
6EF
  0
LAYER
  5
11
330
6EC
100
AcDbSymbolTableRecord
100
AcDbLayerTableRecord
  2
Level 11
 70
     0
 62
     7
  6
Continuous
370
     0
390
6EF
  0
LAYER
  5
12
330
6EC
100
AcDbSymbolTableRecord
100
AcDbLayerTableRecord
  2
Level 12
 70
     0
 62
     7
  6
Continuous
370
     0
390
6EF
  0
LAYER
  5
13
330
6EC
100
AcDbSymbolTableRecord
100
AcDbLayerTableRecord
  2
Level 13
 70
     0
 62
     7
  6
Continuous
370
     0
390
6EF
  0
LAYER
  5
14
330
6EC
100
AcDbSymbolTableRecord
100
AcDbLayerTableRecord
  2
Level 14
 70
     0
 62
     7
  6
Continuous
370
     0
390
6EF
  0
LAYER
  5
15
330
6EC
100
AcDbSymbolTableRecord
100
AcDbLayerTableRecord
  2
Level 15
 70
     0
 62
     7
  6
Continuous
370
     0
390
6EF
  0
LAYER
  5
16
330
6EC
100
AcDbSymbolTableRecord
100
AcDbLayerTableRecord
  2
Level 16
 70
     0
 62
     7
  6
Continuous
370
     0
390
6EF
  0
LAYER
  5
17
330
6EC
100
AcDbSymbolTableRecord
100
AcDbLayerTableRecord
  2
Level 17
 70
     0
 62
     7
  6
Continuous
370
     0
390
6EF
  0
LAYER
  5
18
330
6EC
100
AcDbSymbolTableRecord
100
AcDbLayerTableRecord
  2
Level 18
 70
     0
 62
     7
  6
Continuous
370
     0
390
6EF
  0
LAYER
  5
19
330
6EC
100
AcDbSymbolTableRecord
100
AcDbLayerTableRecord
  2
Level 19
 70
     0
 62
     7
  6
Continuous
370
     0
390
6EF
  0
LAYER
  5
1A
330
6EC
100
AcDbSymbolTableRecord
100
AcDbLayerTableRecord
  2
Level 20
 70
     0
 62
     7
  6
Continuous
370
     0
390
6EF
  0
LAYER
  5
1B
330
6EC
100
AcDbSymbolTableRecord
100
AcDbLayerTableRecord
  2
Level 21
 70
     0
 62
     7
  6
Continuous
370
     0
390
6EF
  0
LAYER
  5
1C
330
6EC
100
AcDbSymbolTableRecord
100
AcDbLayerTableRecord
  2
Level 22
 70
     0
 62
     7
  6
Continuous
370
     0
390
6EF
  0
LAYER
  5
1D
330
6EC
100
AcDbSymbolTableRecord
100
AcDbLayerTableRecord
  2
Level 23
 70
     0
 62
     7
  6
Continuous
370
     0
390
6EF
  0
LAYER
  5
1E
330
6EC
100
AcDbSymbolTableRecord
100
AcDbLayerTableRecord
  2
Level 24
 70
     0
 62
     7
  6
Continuous
370
     0
390
6EF
  0
LAYER
  5
1F
330
6EC
100
AcDbSymbolTableRecord
100
AcDbLayerTableRecord
  2
Level 25
 70
     0
 62
     7
  6
Continuous
370
     0
390
6EF
  0
LAYER
  5
20
330
6EC
100
AcDbSymbolTableRecord
100
AcDbLayerTableRecord
  2
Level 26
 70
     0
 62
     7
  6
Continuous
370
     0
390
6EF
  0
LAYER
  5
21
330
6EC
100
AcDbSymbolTableRecord
100
AcDbLayerTableRecord
  2
Level 27
 70
     0
 62
     7
  6
Continuous
370
     0
390
6EF
  0
LAYER
  5
22
330
6EC
100
AcDbSymbolTableRecord
100
AcDbLayerTableRecord
  2
Level 28
 70
     0
 62
     7
  6
Continuous
370
     0
390
6EF
  0
LAYER
  5
23
330
6EC
100
AcDbSymbolTableRecord
100
AcDbLayerTableRecord
  2
Level 29
 70
     0
 62
     7
  6
Continuous
370
     0
390
6EF
  0
LAYER
  5
24
330
6EC
100
AcDbSymbolTableRecord
100
AcDbLayerTableRecord
  2
Level 30
 70
     0
 62
     7
  6
Continuous
370
     0
390
6EF
  0
LAYER
  5
25
330
6EC
100
AcDbSymbolTableRecord
100
AcDbLayerTableRecord
  2
Level 31
 70
     0
 62
     7
  6
Continuous
370
     0
390
6EF
  0
LAYER
  5
26
330
6EC
100
AcDbSymbolTableRecord
100
AcDbLayerTableRecord
  2
Level 32
 70
     0
 62
     7
  6
Continuous
370
     0
390
6EF
  0
LAYER
  5
27
330
6EC
100
AcDbSymbolTableRecord
100
AcDbLayerTableRecord
  2
Level 33
 70
     0
 62
     7
  6
Continuous
370
     0
390
6EF
  0
LAYER
  5
28
330
6EC
100
AcDbSymbolTableRecord
100
AcDbLayerTableRecord
  2
Level 34
 70
     0
 62
     7
  6
Continuous
370
     0
390
6EF
  0
LAYER
  5
29
330
6EC
100
AcDbSymbolTableRecord
100
AcDbLayerTableRecord
  2
Level 35
 70
     0
 62
     7
  6
Continuous
370
     0
390
6EF
  0
LAYER
  5
2A
330
6EC
100
AcDbSymbolTableRecord
100
AcDbLayerTableRecord
  2
Level 36
 70
     0
 62
     7
  6
Continuous
370
     0
390
6EF
  0
LAYER
  5
2B
330
6EC
100
AcDbSymbolTableRecord
100
AcDbLayerTableRecord
  2
Level 37
 70
     0
 62
     7
  6
Continuous
370
     0
390
6EF
  0
LAYER
  5
2C
330
6EC
100
AcDbSymbolTableRecord
100
AcDbLayerTableRecord
  2
Level 38
 70
     0
 62
     7
  6
Continuous
370
     0
390
6EF
  0
LAYER
  5
2D
330
6EC
100
AcDbSymbolTableRecord
100
AcDbLayerTableRecord
  2
Level 39
 70
     0
 62
     7
  6
Continuous
370
     0
390
6EF
  0
LAYER
  5
2E
330
6EC
100
AcDbSymbolTableRecord
100
AcDbLayerTableRecord
  2
Level 40
 70
     0
 62
     7
  6
Continuous
370
     0
390
6EF
  0
LAYER
  5
2F
330
6EC
100
AcDbSymbolTableRecord
100
AcDbLayerTableRecord
  2
Level 41
 70
     0
 62
     7
  6
Continuous
370
     0
390
6EF
  0
LAYER
  5
30
330
6EC
100
AcDbSymbolTableRecord
100
AcDbLayerTableRecord
  2
Level 42
 70
     0
 62
     7
  6
Continuous
370
     0
390
6EF
  0
LAYER
  5
31
330
6EC
100
AcDbSymbolTableRecord
100
AcDbLayerTableRecord
  2
Level 43
 70
     0
 62
     7
  6
Continuous
370
     0
390
6EF
  0
LAYER
  5
32
330
6EC
100
AcDbSymbolTableRecord
100
AcDbLayerTableRecord
  2
Level 44
 70
     0
 62
     7
  6
Continuous
370
     0
390
6EF
  0
LAYER
  5
33
330
6EC
100
AcDbSymbolTableRecord
100
AcDbLayerTableRecord
  2
Level 45
 70
     0
 62
     7
  6
Continuous
370
     0
390
6EF
  0
LAYER
  5
34
330
6EC
100
AcDbSymbolTableRecord
100
AcDbLayerTableRecord
  2
Level 46
 70
     0
 62
     7
  6
Continuous
370
     0
390
6EF
  0
LAYER
  5
35
330
6EC
100
AcDbSymbolTableRecord
100
AcDbLayerTableRecord
  2
Level 47
 70
     0
 62
     7
  6
Continuous
370
     0
390
6EF
  0
LAYER
  5
36
330
6EC
100
AcDbSymbolTableRecord
100
AcDbLayerTableRecord
  2
Level 48
 70
     0
 62
     7
  6
Continuous
370
     0
390
6EF
  0
LAYER
  5
37
330
6EC
100
AcDbSymbolTableRecord
100
AcDbLayerTableRecord
  2
Level 49
 70
     0
 62
     7
  6
Continuous
370
     0
390
6EF
  0
LAYER
  5
38
330
6EC
100
AcDbSymbolTableRecord
100
AcDbLayerTableRecord
  2
Level 50
 70
     0
 62
     7
  6
Continuous
370
     0
390
6EF
  0
LAYER
  5
39
330
6EC
100
AcDbSymbolTableRecord
100
AcDbLayerTableRecord
  2
Level 51
 70
     0
 62
     7
  6
Continuous
370
     0
390
6EF
  0
LAYER
  5
3A
330
6EC
100
AcDbSymbolTableRecord
100
AcDbLayerTableRecord
  2
Level 52
 70
     0
 62
     7
  6
Continuous
370
     0
390
6EF
  0
LAYER
  5
3B
330
6EC
100
AcDbSymbolTableRecord
100
AcDbLayerTableRecord
  2
Level 53
 70
     0
 62
     7
  6
Continuous
370
     0
390
6EF
  0
LAYER
  5
3C
330
6EC
100
AcDbSymbolTableRecord
100
AcDbLayerTableRecord
  2
Level 54
 70
     0
 62
     7
  6
Continuous
370
     0
390
6EF
  0
LAYER
  5
3D
330
6EC
100
AcDbSymbolTableRecord
100
AcDbLayerTableRecord
  2
Level 55
 70
     0
 62
     7
  6
Continuous
370
     0
390
6EF
  0
LAYER
  5
3E
330
6EC
100
AcDbSymbolTableRecord
100
AcDbLayerTableRecord
  2
Level 56
 70
     0
 62
     7
  6
Continuous
370
     0
390
6EF
  0
LAYER
  5
3F
330
6EC
100
AcDbSymbolTableRecord
100
AcDbLayerTableRecord
  2
Level 57
 70
     0
 62
     7
  6
Continuous
370
     0
390
6EF
  0
LAYER
  5
40
330
6EC
100
AcDbSymbolTableRecord
100
AcDbLayerTableRecord
  2
Level 58
 70
     0
 62
     7
  6
Continuous
370
     0
390
6EF
  0
LAYER
  5
41
330
6EC
100
AcDbSymbolTableRecord
100
AcDbLayerTableRecord
  2
Level 59
 70
     0
 62
     7
  6
Continuous
370
     0
390
6EF
  0
LAYER
  5
42
330
6EC
100
AcDbSymbolTableRecord
100
AcDbLayerTableRecord
  2
Level 60
 70
     0
 62
     7
  6
Continuous
370
     0
390
6EF
  0
LAYER
  5
43
330
6EC
100
AcDbSymbolTableRecord
100
AcDbLayerTableRecord
  2
Level 61
 70
     0
 62
     7
  6
Continuous
370
     0
390
6EF
  0
LAYER
  5
44
330
6EC
100
AcDbSymbolTableRecord
100
AcDbLayerTableRecord
  2
Level 62
 70
     0
 62
     7
  6
Continuous
370
     0
390
6EF
  0
LAYER
  5
45
330
6EC
100
AcDbSymbolTableRecord
100
AcDbLayerTableRecord
  2
Level 63
 70
     0
 62
     7
  6
Continuous
370
     0
390
6EF
  0
ENDTAB
  0
TABLE
  2
STYLE
  5
6F7
330
0
100
AcDbSymbolTable
 70
     5
  0
STYLE
  5
6F6
330
6F7
100
AcDbSymbolTableRecord
100
AcDbTextStyleTableRecord
  2
Standard
 70
     0
 40
0.0
 41
1.0
 50
0.0
 71
     0
 42
0.010396
  3
txt
  4

  0
STYLE
  5
715
330
6F7
100
AcDbSymbolTableRecord
100
AcDbTextStyleTableRecord
  2
Style-FANCY
 70
     0
 40
0.0
 41
1.0
 50
0.0
 71
     0
 42
0.2
  3
FANCY.shx
  4

  0
STYLE
  5
726
330
6F7
100
AcDbSymbolTableRecord
100
AcDbTextStyleTableRecord
  2
Style-ITALICS
 70
     0
 40
0.0
 41
1.0
 50
0.0
 71
     0
 42
0.2
  3
ITALICS.shx
  4

  0
STYLE
  5
727
330
6F7
100
AcDbSymbolTableRecord
100
AcDbTextStyleTableRecord
  2
Style-ENGINEERING
 70
     0
 40
0.0
 41
1.0
 50
0.0
 71
     0
 42
0.2
  3
ENGINEERING.shx
  4

  0
STYLE
  5
728
330
6F7
100
AcDbSymbolTableRecord
100
AcDbTextStyleTableRecord
  2
Style-Arial
 70
     0
 40
0.0
 41
1.0
 50
0.0
 71
     0
 42
0.2
  3

  4

1001
ACAD
1000
Arial
1071
       39
  0
ENDTAB
  0
TABLE
  2
VIEW
  5
70A
330
0
100
AcDbSymbolTable
 70
     0
  0
ENDTAB
  0
TABLE
  2
UCS
  5
70B
330
0
100
AcDbSymbolTable
 70
     0
  0
ENDTAB
  0
TABLE
  2
APPID
  5
709
330
0
100
AcDbSymbolTable
 70
     2
  0
APPID
  5
711
330
709
100
AcDbSymbolTableRecord
100
AcDbRegAppTableRecord
  2
ACAD
 70
     0
  0
APPID
  5
708
330
709
100
AcDbSymbolTableRecord
100
AcDbRegAppTableRecord
  2
ACAD_PSEXT
 70
     0
  0
ENDTAB
  0
TABLE
  2
DIMSTYLE
  5
6F9
330
0
100
AcDbSymbolTable
 70
     1
100
AcDbDimStyleTable
  0
DIMSTYLE
105
6F8
330
6F9
100
AcDbSymbolTableRecord
100
AcDbDimStyleTableRecord
  2
Standard
 70
     0
340
6F6
  0
ENDTAB
  0
TABLE
  2
BLOCK_RECORD
  5
6FC
330
0
100
AcDbSymbolTable
 70
     3
  0
BLOCK_RECORD
  5
6FD
102
{ACAD_XDICTIONARY
360
729
102
}
330
6FC
100
AcDbSymbolTableRecord
100
AcDbBlockTableRecord
  2
*Model_Space
340
700
  0
BLOCK_RECORD
  5
702
330
6FC
100
AcDbSymbolTableRecord
100
AcDbBlockTableRecord
  2
*Paper_Space
340
705
  0
BLOCK_RECORD
  5
716
330
6FC
100
AcDbSymbolTableRecord
100
AcDbBlockTableRecord
  2
TerminatorOpen_0.5
340
0
  0
BLOCK_RECORD
  5
71F
330
6FC
100
AcDbSymbolTableRecord
100
AcDbBlockTableRecord
  2
LARROW
340
0
102
{BLKREFS
331
9C
331
9E
331
A0
331
A2
331
A5
331
A7
331
AE
331
B0
331
B2
331
B4
331
B6
331
B8
331
BE
331
C0
331
C2
331
C4
331
C7
331
C9
331
CD
331
CF
331
D7
331
D9
331
DB
331
DD
331
EB
331
ED
331
F2
331
F4
331
F9
331
FB
331
100
331
102
331
118
331
11A
331
11E
331
120
331
122
331
124
331
126
331
137
331
139
331
13B
331
13D
331
13F
331
141
331
143
331
231
331
233
331
235
331
237
331
239
331
23B
331
240
331
242
331
244
331
246
331
248
331
24A
331
24F
331
251
331
253
331
255
331
257
331
259
331
25D
331
25F
331
267
331
269
331
26B
331
26D
331
276
331
278
331
27B
331
27D
331
280
331
282
331
285
331
287
331
2C7
331
2C9
331
2CC
331
2CE
331
2D0
331
2D2
331
2D4
331
2E2
331
2E4
331
2E6
331
2E8
331
2EA
331
2EC
331
2EE
331
339
331
33B
331
345
331
348
331
34D
331
34F
331
354
331
356
331
361
331
363
331
365
331
36C
331
36E
331
383
331
385
331
38A
331
38C
331
390
331
392
331
39B
331
3A4
331
3A6
331
3A8
331
3B1
331
3B3
331
3BA
331
3BC
331
3BE
331
3C0
331
3CA
331
3CC
331
3DF
331
3E1
331
3E4
331
3E6
331
3E8
331
3EA
331
3EC
331
3F9
331
3FB
331
3FD
331
3FF
331
401
331
403
331
405
331
432
331
435
331
43C
331
43E
331
447
331
449
331
459
331
45C
331
464
331
46C
331
46E
331
484
331
486
331
48A
331
48C
331
490
331
496
331
498
331
49B
331
49D
331
49F
331
4A1
331
4A3
331
4B0
331
4B2
331
4B4
331
4B6
331
4B8
331
4BA
331
4BC
331
4C6
331
4C8
331
4E6
331
4E9
331
4EE
331
4F0
331
4F3
331
4F5
331
507
331
50A
331
524
331
528
331
52A
331
536
331
539
331
53C
331
542
331
544
102
}
  0
BLOCK_RECORD
  5
723
330
6FC
100
AcDbSymbolTableRecord
100
AcDbBlockTableRecord
  2
LARROW_1
340
0
102
{BLKREFS
331
12A
331
12C
331
12E
331
14D
331
14F
331
2D8
331
2DA
331
2DC
331
2F8
331
2FA
331
3F0
331
3F2
331
3F4
331
40F
331
411
331
4A7
331
4A9
331
4AB
102
}
  0
ENDTAB
  0
ENDSEC
  0
SECTION
  2
BLOCKS
  0
BLOCK
  5
6FE
330
6FD
100
AcDbEntity
  8
0
100
AcDbBlockBegin
  2
*Model_Space
 70
     0
 71
     0
 10
0.0
 20
0.0
 30
0.0
  3
*Model_Space
  1

  0
ENDBLK
  5
6FF
330
6FD
100
AcDbEntity
  8
0
100
AcDbBlockEnd
  0
BLOCK
  5
703
330
702
100
AcDbEntity
 67
     1
  8
0
100
AcDbBlockBegin
  2
*Paper_Space
 70
     0
 71
     0
 10
0.0
 20
0.0
 30
0.0
  3
*Paper_Space
  1

  0
ENDBLK
  5
704
330
702
100
AcDbEntity
 67
     1
  8
0
100
AcDbBlockEnd
  0
BLOCK
  5
71A
330
716
100
AcDbEntity
  8
0
100
AcDbBlockBegin
  2
TerminatorOpen_0.5
 70
     0
 71
     0
 10
0.0
 20
0.0
 30
0.0
  3
TerminatorOpen_0.5
  1

  0
LINE
  5
717
330
716
100
AcDbEntity
  8
0
  6
ByBlock
 62
     0
370
    -2
100
AcDbLine
 10
0.0
 20
0.0
 30
0.0
 11
-1.0
 21
0.0
 31
0.0
  0
LINE
  5
718
330
716
100
AcDbEntity
  8
0
  6
ByBlock
 62
     0
370
    -2
100
AcDbLine
 10
0.0
 20
0.0
 30
0.0
 11
-1.0
 21
0.25
 31
0.0
  0
LINE
  5
719
330
716
100
AcDbEntity
  8
0
  6
ByBlock
 62
     0
370
    -2
100
AcDbLine
 10
0.0
 20
0.0
 30
0.0
 11
-1.0
 21
-0.25
 31
0.0
  0
ENDBLK
  5
71B
330
716
100
AcDbEntity
  8
0
100
AcDbBlockEnd
  0
BLOCK
  5
720
330
71F
100
AcDbEntity
  8
0
100
AcDbBlockBegin
  2
LARROW
 70
     0
 71
     0
 10
0.0
 20
0.0
 30
0.0
  3
LARROW
  1

  0
LWPOLYLINE
  5
9D
330
71F
100
AcDbEntity
  8
Level 46
  6
Continuous
 62
     7
370
     0
100
AcDbPolyline
 90
       63
 70
   128
 43
0.0
 10
-0.013031
 20
0.001885
 10
0.0
 20
0.0
 10
-0.013021
 20
-0.001885
 10
-0.012615
 20
-0.001573
 10
-0.012042
 20
-0.00101
 10
-0.01176
 20
-0.00049
 10
-0.011687
 20
0.0
 10
-0.011792
 20
0.000552
 10
-0.012094
 20
0.001094
 10
-0.012677
 20
0.001625
 10
-0.013031
 20
0.001885
 10
-0.000385
 20
0.000021
 10
-0.012604
 20
-0.00176
 10
-0.012229
 20
-0.001479
 10
-0.011625
 20
-0.000906
 10
-0.011427
 20
-0.000167
 10
-0.011563
 20
0.000573
 10
-0.011917
 20
0.001083
 10
-0.012344
 20
0.0015
 10
-0.012635
 20
0.001729
 10
-0.001073
 20
0.000021
 10
-0.012052
 20
-0.001552
 10
-0.011667
 20
-0.001302
 10
-0.011469
 20
-0.000979
 10
-0.01125
 20
-0.000563
 10
-0.011135
 20
0.000021
 10
-0.011198
 20
0.0005
 10
-0.011427
 20
0.000875
 10
-0.011896
 20
0.001177
 10
-0.012208
 20
0.001542
 10
-0.001875
 20
0.000021
 10
-0.011448
 20
-0.001323
 10
-0.011021
 20
-0.000792
 10
-0.010896
 20
-0.000146
 10
-0.010958
 20
0.000573
 10
-0.011781
 20
0.001354
 10
-0.002771
 20
0.000062
 10
-0.010896
 20
-0.001073
 10
-0.010781
 20
-0.000698
 10
-0.010531
 20
-0.000094
 10
-0.010687
 20
0.000552
 10
-0.011333
 20
0.001125
 10
-0.003594
 20
0.000062
 10
-0.010604
 20
-0.000833
 10
-0.010375
 20
-0.000375
 10
-0.010271
 20
0.000115
 10
-0.01076
 20
0.000875
 10
-0.004573
 20
0.000062
 10
-0.010177
 20
-0.000625
 10
-0.010021
 20
-0.000281
 10
-0.009979
 20
0.000115
 10
-0.010375
 20
0.000667
 10
-0.00574
 20
0.000062
 10
-0.009823
 20
-0.000396
 10
-0.009708
 20
0.000135
 10
-0.010083
 20
0.000458
 10
-0.006698
 20
0.000062
 10
-0.009552
 20
-0.00024
 10
-0.009615
 20
0.000271
 10
-0.007677
 20
0.000062
 10
-0.009438
 20
-0.000073
 10
-0.00949
 20
0.000083
 10
-0.008885
 20
0.000083
  0
ENDBLK
  5
721
330
71F
100
AcDbEntity
  8
0
100
AcDbBlockEnd
  0
BLOCK
  5
724
330
723
100
AcDbEntity
  8
0
100
AcDbBlockBegin
  2
LARROW_1
 70
     0
 71
     0
 10
0.0
 20
0.0
 30
0.0
  3
LARROW_1
  1

  0
LWPOLYLINE
  5
12B
330
723
100
AcDbEntity
  8
Level 46
  6
Continuous
 62
     7
370
    13
100
AcDbPolyline
 90
       63
 70
   128
 43
0.0
 10
-0.013031
 20
0.001885
 10
0.0
 20
0.0
 10
-0.013021
 20
-0.001885
 10
-0.012615
 20
-0.001573
 10
-0.012042
 20
-0.00101
 10
-0.01176
 20
-0.00049
 10
-0.011688
 20
0.0
 10
-0.011792
 20
0.000552
 10
-0.012094
 20
0.001094
 10
-0.012677
 20
0.001625
 10
-0.013031
 20
0.001885
 10
-0.000385
 20
0.000021
 10
-0.012604
 20
-0.00176
 10
-0.012229
 20
-0.001479
 10
-0.011625
 20
-0.000906
 10
-0.011427
 20
-0.000167
 10
-0.011563
 20
0.000573
 10
-0.011917
 20
0.001083
 10
-0.012344
 20
0.0015
 10
-0.012635
 20
0.001729
 10
-0.001073
 20
0.000021
 10
-0.012052
 20
-0.001552
 10
-0.011667
 20
-0.001302
 10
-0.011469
 20
-0.000979
 10
-0.01125
 20
-0.000562
 10
-0.011135
 20
0.000021
 10
-0.011198
 20
0.0005
 10
-0.011427
 20
0.000875
 10
-0.011896
 20
0.001177
 10
-0.012208
 20
0.001542
 10
-0.001875
 20
0.000021
 10
-0.011448
 20
-0.001323
 10
-0.011021
 20
-0.000792
 10
-0.010896
 20
-0.000146
 10
-0.010958
 20
0.000573
 10
-0.011781
 20
0.001354
 10
-0.002771
 20
0.000063
 10
-0.010896
 20
-0.001073
 10
-0.010781
 20
-0.000698
 10
-0.010531
 20
-0.000094
 10
-0.010688
 20
0.000552
 10
-0.011333
 20
0.001125
 10
-0.003594
 20
0.000063
 10
-0.010604
 20
-0.000833
 10
-0.010375
 20
-0.000375
 10
-0.010271
 20
0.000115
 10
-0.01076
 20
0.000875
 10
-0.004573
 20
0.000063
 10
-0.010177
 20
-0.000625
 10
-0.010021
 20
-0.000281
 10
-0.009979
 20
0.000115
 10
-0.010375
 20
0.000667
 10
-0.00574
 20
0.000063
 10
-0.009823
 20
-0.000396
 10
-0.009708
 20
0.000135
 10
-0.010083
 20
0.000458
 10
-0.006698
 20
0.000063
 10
-0.009552
 20
-0.00024
 10
-0.009615
 20
0.000271
 10
-0.007677
 20
0.000063
 10
-0.009438
 20
-0.000073
 10
-0.00949
 20
0.000083
 10
-0.008885
 20
0.000083
  0
ENDBLK
  5
725
330
723
100
AcDbEntity
  8
0
100
AcDbBlockEnd
  0
ENDSEC
  0
SECTION
  2
ENTITIES
  0
LINE
  5
5B
330
6FD
100
AcDbEntity
  8
Level 10
  6
Continuous
 62
     7
370
    13
100
AcDbLine
 10
29.72049
 20
-13.364885
 30
0.0
 11
29.72049
 21
-12.975156
 31
0.0
  0
LINE
  5
5C
330
6FD
100
AcDbEntity
  8
Level 10
  6
Continuous
 62
     7
370
    13
100
AcDbLine
 10
29.772573
 20
-13.364885
 30
0.0
 11
29.772573
 21
-12.93325
 31
0.0
  0
LINE
  5
5D
330
6FD
100
AcDbEntity
  8
Level 10
  6
Continuous
 62
     7
370
    13
100
AcDbLine
 10
29.746531
 20
-13.469052
 30
0.0
 11
29.72049
 21
-13.364885
 31
0.0
  0
LINE
  5
5E
330
6FD
100
AcDbEntity
  8
Level 10
  6
Continuous
 62
     7
370
    13
100
AcDbLine
 10
29.772573
 20
-13.364885
 30
0.0
 11
29.746531
 21
-13.469052
 31
0.0
  0
LINE
  5
5F
330
6FD
100
AcDbEntity
  8
Level 10
  6
Continuous
 62
     7
370
    13
100
AcDbLine
 10
29.78299
 20
-12.916969
 30
0.0
 11
29.78299
 21
-12.924781
 31
0.0
  0
ARC
  5
60
330
6FD
100
AcDbEntity
  8
Level 10
  6
Continuous
 62
     7
370
    13
100
AcDbCircle
 10
-29.712677
 20
-12.975152
 30
0.0
 40
0.007812499999884
210
0.0
220
0.0
230
-1.0
100
AcDbArc
 50
104.036244
 51
180.0
  0
LINE
  5
61
330
6FD
100
AcDbEntity
  8
Level 10
  6
Continuous
 62
     7
370
    13
100
AcDbLine
 10
29.78299
 20
-12.924781
 30
0.0
 11
29.778885
 21
-12.925583
 31
0.0
  0
ARC
  5
62
330
6FD
100
AcDbEntity
  8
Level 10
  6
Continuous
 62
     7
370
    13
100
AcDbCircle
 10
-29.780385
 20
-12.933252
 30
0.0
 40
0.0078125000000312
210
0.0
220
0.0
230
-1.0
100
AcDbArc
 50
0.0
 51
78.915381
  0
LINE
  5
63
330
6FD
100
AcDbEntity
  8
Level 10
  6
Continuous
 62
     7
370
    13
100
AcDbLine
 10
29.78299
 20
-12.718927
 30
0.0
 11
29.78299
 21
-12.781427
 31
0.0
  0
LINE
  5
64
330
6FD
100
AcDbEntity
  8
Level 10
  6
Continuous
 62
     7
370
    13
100
AcDbLine
 10
29.652781
 20
-12.724135
 30
0.0
 11
29.652781
 21
-12.776219
 31
0.0
  0
ARC
  5
65
330
6FD
100
AcDbEntity
  8
Level 10
  6
Continuous
 62
     7
370
    13
100
AcDbCircle
 10
29.720625
 20
-12.790021
 30
0.0
 40
0.0945709392118043
100
AcDbArc
 50
48.742239
 51
135.838981
  0
ARC
  5
66
330
6FD
100
AcDbEntity
  8
Level 10
  6
Continuous
 62
     7
370
    13
100
AcDbCircle
 10
-29.720625
 20
-12.710333
 30
0.0
 40
0.0945709392118043
210
0.0
220
0.0
230
-1.0
100
AcDbArc
 50
228.742239
 51
315.838981
  0
LINE
  5
67
330
6FD
100
AcDbEntity
  8
Level 10
  6
Continuous
 62
     7
370
    13
100
AcDbLine
 10
29.936635
 20
-13.469052
 30
0.0
 11
29.936635
 21
-13.010719
 31
0.0
  0
LINE
  5
68
330
6FD
100
AcDbEntity
  8
Level 10
  6
Continuous
 62
     7
370
    13
100
AcDbLine
 10
29.556427
 20
-13.469052
 30
0.0
 11
29.556427
 21
-12.967573
 31
0.0
  0
LINE
  5
69
330
6FD
100
AcDbEntity
  8
Level 10
  6
Continuous
 62
     7
370
    13
100
AcDbLine
 10
29.988719
 20
-13.469052
 30
0.0
 11
29.988719
 21
-13.010719
 31
0.0
  0
LINE
  5
6A
330
6FD
100
AcDbEntity
  8
Level 10
  6
Continuous
 62
     7
370
    13
100
AcDbLine
 10
29.504344
 20
-13.469052
 30
0.0
 11
29.504344
 21
-12.967573
 31
0.0
  0
LINE
  5
6B
330
6FD
100
AcDbEntity
  8
Level 10
  6
Continuous
 62
     7
370
    13
100
AcDbLine
 10
29.504344
 20
-13.364885
 30
0.0
 11
29.556427
 21
-13.364885
 31
0.0
  0
LINE
  5
6C
330
6FD
100
AcDbEntity
  8
Level 10
  6
Continuous
 62
     7
370
    13
100
AcDbLine
 10
29.936635
 20
-13.364885
 30
0.0
 11
29.988719
 21
-13.364885
 31
0.0
  0
LINE
  5
6D
330
6FD
100
AcDbEntity
  8
Level 10
  6
Continuous
 62
     7
370
    13
100
AcDbLine
 10
29.504344
 20
-13.469052
 30
0.0
 11
29.556427
 21
-13.469052
 31
0.0
  0
LINE
  5
6E
330
6FD
100
AcDbEntity
  8
Level 10
  6
Continuous
 62
     7
370
    13
100
AcDbLine
 10
29.936635
 20
-13.469052
 30
0.0
 11
29.988719
 21
-13.469052
 31
0.0
  0
LINE
  5
6F
330
6FD
100
AcDbEntity
  8
Level 10
  6
Continuous
 62
     7
370
    13
100
AcDbLine
 10
29.934031
 20
-12.969052
 30
0.0
 11
29.936635
 21
-13.010719
 31
0.0
  0
LINE
  5
70
330
6FD
100
AcDbEntity
  8
Level 10
  6
Continuous
 62
     7
370
    13
100
AcDbLine
 10
29.991323
 20
-12.969052
 30
0.0
 11
29.988719
 21
-13.010719
 31
0.0
  0
LINE
  5
71
330
6FD
100
AcDbEntity
  8
Level 10
  6
Continuous
 62
     7
370
    13
100
AcDbLine
 10
29.90799
 20
-12.93349
 30
0.0
 11
29.90799
 21
-12.925688
 31
0.0
  0
LINE
  5
72
330
6FD
100
AcDbEntity
  8
Level 10
  6
Continuous
 62
     7
370
    13
100
AcDbLine
 10
30.017365
 20
-12.93349
 30
0.0
 11
30.017365
 21
-12.925688
 31
0.0
  0
LINE
  5
73
330
6FD
100
AcDbEntity
  8
Level 10
  6
Continuous
 62
     7
370
    13
100
AcDbLine
 10
29.475698
 20
-12.93349
 30
0.0
 11
29.475698
 21
-12.925688
 31
0.0
  0
LINE
  5
74
330
6FD
100
AcDbEntity
  8
Level 10
  6
Continuous
 62
     7
370
    13
100
AcDbLine
 10
29.585073
 20
-12.93349
 30
0.0
 11
29.585073
 21
-12.925688
 31
0.0
  0
LINE
  5
75
330
6FD
100
AcDbEntity
  8
Level 10
  6
Continuous
 62
     7
370
    13
100
AcDbLine
 10
29.778885
 20
-12.925583
 30
0.0
 11
29.78299
 21
-12.924781
 31
0.0
  0
ARC
  5
76
330
6FD
100
AcDbEntity
  8
Level 10
  6
Continuous
 62
     7
370
    13
100
AcDbCircle
 10
-29.741188
 20
-12.946767
 30
0.0
 40
0.0142397218714287
210
0.0
220
0.0
230
-1.0
100
AcDbArc
 50
78.307139
 51
168.580981
  0
ARC
  5
77
330
6FD
100
AcDbEntity
  8
Level 10
  6
Continuous
 62
     7
370
    13
100
AcDbCircle
 10
29.962677
 20
-13.026095
 30
0.0
 40
0.1143342877399652
100
AcDbArc
 50
61.424764
 51
118.575236
  0
ARC
  5
78
330
6FD
100
AcDbEntity
  8
Level 10
  6
Continuous
 62
     7
370
    13
100
AcDbCircle
 10
29.962677
 20
-13.033982
 30
0.0
 40
0.1183156967315369
100
AcDbArc
 50
75.9886
 51
104.011397
  0
LINE
  5
79
330
6FD
100
AcDbEntity
  8
Level 10
  6
Continuous
 62
     7
370
    13
100
AcDbLine
 10
29.991323
 20
-12.923219
 30
0.0
 11
29.991323
 21
-12.919187
 31
0.0
  0
LINE
  5
7A
330
6FD
100
AcDbEntity
  8
Level 10
  6
Continuous
 62
     7
370
    13
100
AcDbLine
 10
29.934031
 20
-12.923219
 30
0.0
 11
29.934031
 21
-12.919187
 31
0.0
  0
LINE
  5
7B
330
6FD
100
AcDbEntity
  8
Level 10
  6
Continuous
 62
     7
370
    13
100
AcDbLine
 10
29.934031
 20
-12.923219
 30
0.0
 11
29.991323
 21
-12.923219
 31
0.0
  0
ARC
  5
7C
330
6FD
100
AcDbEntity
  8
Level 10
  6
Continuous
 62
     7
370
    13
100
AcDbCircle
 10
29.856957
 20
-12.97367
 30
0.0
 40
0.0772123792938332
100
AcDbArc
 50
3.428817
 51
36.155578
  0
ARC
  5
7D
330
6FD
100
AcDbEntity
  8
Level 10
  6
Continuous
 62
     7
370
    13
100
AcDbCircle
 10
29.796083
 20
-12.974428
 30
0.0
 40
0.1380532392134264
100
AcDbArc
 50
2.231514
 51
20.605206
  0
ARC
  5
7E
330
6FD
100
AcDbEntity
  8
Level 10
  6
Continuous
 62
     7
370
    13
100
AcDbCircle
 10
29.962677
 20
-13.033982
 30
0.0
 40
0.1144094467315369
100
AcDbArc
 50
104.5002
 51
109.066233
  0
ARC
  5
7F
330
6FD
100
AcDbEntity
  8
Level 10
  6
Continuous
 62
     7
370
    13
100
AcDbCircle
 10
29.962677
 20
-13.033982
 30
0.0
 40
0.1144094467315369
100
AcDbArc
 50
112.279361
 51
118.554736
  0
ARC
  5
80
330
6FD
100
AcDbEntity
  8
Level 10
  6
Continuous
 62
     7
370
    13
100
AcDbCircle
 10
-29.962677
 20
-12.833082
 30
0.0
 40
0.1143342877399654
210
0.0
220
0.0
230
-1.0
100
AcDbArc
 50
288.031628
 51
298.575233
  0
ARC
  5
81
330
6FD
100
AcDbEntity
  8
Level 10
  6
Continuous
 62
     7
370
    13
100
AcDbCircle
 10
-30.068397
 20
-12.97367
 30
0.0
 40
0.0772123792951691
210
0.0
220
0.0
230
-1.0
100
AcDbArc
 50
3.428817
 51
36.155578
  0
ARC
  5
82
330
6FD
100
AcDbEntity
  8
Level 10
  6
Continuous
 62
     7
370
    13
100
AcDbCircle
 10
-30.129271
 20
-12.974428
 30
0.0
 40
0.1380532392134262
210
0.0
220
0.0
230
-1.0
100
AcDbArc
 50
2.231514
 51
20.605206
  0
ARC
  5
83
330
6FD
100
AcDbEntity
  8
Level 10
  6
Continuous
 62
     7
370
    13
100
AcDbCircle
 10
-29.962677
 20
-13.033982
 30
0.0
 40
0.1144094467315368
210
0.0
220
0.0
230
-1.0
100
AcDbArc
 50
104.5002
 51
109.066233
  0
ARC
  5
84
330
6FD
100
AcDbEntity
  8
Level 10
  6
Continuous
 62
     7
370
    13
100
AcDbCircle
 10
-29.962677
 20
-13.033982
 30
0.0
 40
0.1144094467315368
210
0.0
220
0.0
230
-1.0
100
AcDbArc
 50
112.279361
 51
118.554736
  0
ARC
  5
85
330
6FD
100
AcDbEntity
  8
Level 10
  6
Continuous
 62
     7
370
    13
100
AcDbCircle
 10
-29.962677
 20
-12.833082
 30
0.0
 40
0.1143342877399654
210
0.0
220
0.0
230
-1.0
100
AcDbArc
 50
241.424764
 51
251.968369
  0
ARC
  5
86
330
6FD
100
AcDbEntity
  8
Level 10
  6
Continuous
 62
     7
370
    13
100
AcDbCircle
 10
29.530385
 20
-13.026095
 30
0.0
 40
0.1143342877399652
100
AcDbArc
 50
61.424764
 51
118.575236
  0
LINE
  5
87
330
6FD
100
AcDbEntity
  8
Level 10
  6
Continuous
 62
     7
370
    13
100
AcDbLine
 10
29.559031
 20
-12.969052
 30
0.0
 11
29.556427
 21
-13.010719
 31
0.0
  0
LINE
  5
88
330
6FD
100
AcDbEntity
  8
Level 10
  6
Continuous
 62
     7
370
    13
100
AcDbLine
 10
29.50174
 20
-12.969052
 30
0.0
 11
29.504344
 21
-13.010719
 31
0.0
  0
LINE
  5
89
330
6FD
100
AcDbEntity
  8
Level 10
  6
Continuous
 62
     7
370
    13
100
AcDbLine
 10
29.506948
 20
-12.948219
 30
0.0
 11
29.553823
 21
-12.948219
 31
0.0
  0
LINE
  5
8A
330
6FD
100
AcDbEntity
  8
Level 10
  6
Continuous
 62
     7
370
    13
100
AcDbLine
 10
29.517365
 20
-12.958635
 30
0.0
 11
29.543406
 21
-12.958635
 31
0.0
  0
LINE
  5
8B
330
6FD
100
AcDbEntity
  8
Level 10
  6
Continuous
 62
     7
370
    13
100
AcDbLine
 10
29.504344
 20
-12.967573
 30
0.0
 11
29.556427
 21
-12.967573
 31
0.0
  0
LINE
  5
8C
330
6FD
100
AcDbEntity
  8
Level 10
  6
Continuous
 62
     7
370
    13
100
AcDbLine
 10
29.506948
 20
-12.948219
 30
0.0
 11
29.506948
 21
-12.940406
 31
0.0
  0
LINE
  5
8D
330
6FD
100
AcDbEntity
  8
Level 10
  6
Continuous
 62
     7
370
    13
100
AcDbLine
 10
29.553823
 20
-12.948219
 30
0.0
 11
29.553823
 21
-12.940406
 31
0.0
  0
ARC
  5
8E
330
6FD
100
AcDbEntity
  8
Level 10
  6
Continuous
 62
     7
370
    13
100
AcDbCircle
 10
-29.539368
 20
-12.869184
 30
0.0
 40
0.072674217877589
210
0.0
220
0.0
230
-1.0
100
AcDbArc
 50
231.031386
 51
258.527744
  0
ARC
  5
8F
330
6FD
100
AcDbEntity
  8
Level 10
  6
Continuous
 62
     7
370
    13
100
AcDbCircle
 10
-29.543128
 20
-12.885013
 30
0.0
 40
0.0641040577626305
210
0.0
220
0.0
230
-1.0
100
AcDbArc
 50
229.131675
 51
260.396197
  0
ARC
  5
90
330
6FD
100
AcDbEntity
  8
Level 10
  6
Continuous
 62
     7
370
    13
100
AcDbCircle
 10
29.521402
 20
-12.869184
 30
0.0
 40
0.0726742178880735
100
AcDbArc
 50
231.031386
 51
258.527744
  0
ARC
  5
91
330
6FD
100
AcDbEntity
  8
Level 10
  6
Continuous
 62
     7
370
    13
100
AcDbCircle
 10
29.517643
 20
-12.885013
 30
0.0
 40
0.0641040580973621
100
AcDbArc
 50
229.131675
 51
260.396197
  0
LINE
  5
92
330
6FD
100
AcDbEntity
  8
Level 10
  6
Continuous
 62
     7
370
    13
100
AcDbLine
 10
29.504344
 20
-12.967573
 30
0.0
 11
29.517365
 21
-12.958635
 31
0.0
  0
LINE
  5
93
330
6FD
100
AcDbEntity
  8
Level 10
  6
Continuous
 62
     7
370
    13
100
AcDbLine
 10
29.543406
 20
-12.958635
 30
0.0
 11
29.556427
 21
-12.967573
 31
0.0
  0
LINE
  5
94
330
6FD
100
AcDbEntity
  8
Level 10
  6
Continuous
 62
     7
370
    13
100
AcDbLine
 10
29.517365
 20
-12.958635
 30
0.0
 11
29.511906
 21
-12.948219
 31
0.0
  0
LINE
  5
95
330
6FD
100
AcDbEntity
  8
Level 10
  6
Continuous
 62
     7
370
    13
100
AcDbLine
 10
29.543406
 20
-12.958635
 30
0.0
 11
29.548865
 21
-12.948219
 31
0.0
  0
ARC
  5
96
330
6FD
100
AcDbEntity
  8
Level 10
  6
Continuous
 62
     7
370
    13
100
AcDbCircle
 10
29.603424
 20
-12.974244
 30
0.0
 40
0.044695685894261
100
AcDbArc
 50
133.854606
 51
173.329272
  0
ARC
  5
97
330
6FD
100
AcDbEntity
  8
Level 10
  6
Continuous
 62
     7
370
    13
100
AcDbCircle
 10
-29.457346
 20
-12.974244
 30
0.0
 40
0.0446956858947988
210
0.0
220
0.0
230
-1.0
100
AcDbArc
 50
133.854606
 51
173.329272
  0
ARC
  5
98
330
6FD
100
AcDbEntity
  8
Level 10
  6
Continuous
 62
     7
370
    13
100
AcDbCircle
 10
29.530385
 20
-13.083536
 30
0.0
 40
0.1450361168032788
100
AcDbArc
 50
80.700356
 51
99.299642
  0
LINE
  5
99
330
6FD
100
AcDbEntity
  8
Level 46
  6
Continuous
 62
     7
370
     0
100
AcDbLine
 10
29.56476
 20
-13.469052
 30
0.0
 11
29.928302
 21
-13.469052
 31
0.0
  0
LINE
  5
9A
330
6FD
100
AcDbEntity
  8
Level 46
  6
Continuous
 62
     7
370
     0
100
AcDbLine
 10
29.780906
 20
-13.010719
 30
0.0
 11
29.928302
 21
-13.010719
 31
0.0
  0
INSERT
  5
9C
330
6FD
100
AcDbEntity
  8
Level 46
  6
Continuous
 62
     7
370
     0
100
AcDbBlockReference
  2
LARROW
 10
29.632031
 20
-13.469052
 30
0.0
 50
270.0
  0
INSERT
  5
9E
330
6FD
100
AcDbEntity
  8
Level 46
  6
Continuous
 62
     7
370
     0
100
AcDbBlockReference
  2
LARROW
 10
29.632031
 20
-12.967573
 30
0.0
 50
90.0
  0
INSERT
  5
A0
330
6FD
100
AcDbEntity
  8
Level 46
  6
Continuous
 62
     7
370
     0
100
AcDbBlockReference
  2
LARROW
 10
29.632031
 20
-12.967573
 30
0.0
 50
270.0
  0
INSERT
  5
A2
330
6FD
100
AcDbEntity
  8
Level 46
  6
Continuous
 62
     7
370
     0
100
AcDbBlockReference
  2
LARROW
 10
29.632031
 20
-12.91176
 30
0.0
 50
90.0
  0
LINE
  5
A4
330
6FD
100
AcDbEntity
  8
Level 46
  6
Continuous
 62
     7
370
     0
100
AcDbLine
 10
29.780906
 20
-13.364885
 30
0.0
 11
29.928302
 21
-13.364885
 31
0.0
  0
INSERT
  5
A5
330
6FD
100
AcDbEntity
  8
Level 46
  6
Continuous
 62
     7
370
     0
100
AcDbBlockReference
  2
LARROW
 10
29.670604
 20
-13.364885
 30
0.0
 50
90.0
  0
INSERT
  5
A7
330
6FD
100
AcDbEntity
  8
Level 46
  6
Continuous
 62
     7
370
     0
100
AcDbBlockReference
  2
LARROW
 10
29.670604
 20
-13.469052
 30
0.0
 50
270.0
  0
LINE
  5
A9
330
6FD
100
AcDbEntity
  8
Level 46
  6
Continuous
 62
     7
370
     0
100
AcDbLine
 10
29.56476
 20
-13.364885
 30
0.0
 11
29.565198
 21
-13.364885
 31
0.0
  0
LINE
  5
AA
330
6FD
100
AcDbEntity
  8
Level 46
  6
Continuous
 62
     7
370
     0
100
AcDbLine
 10
29.652906
 20
-13.364885
 30
0.0
 11
29.712156
 21
-13.364885
 31
0.0
  0
LINE
  5
AB
330
6FD
100
AcDbEntity
  8
Level 46
  6
Continuous
 62
     7
370
     0
100
AcDbLine
 10
29.504344
 20
-13.293927
 30
0.0
 11
29.556427
 21
-13.293927
 31
0.0
  0
LINE
  5
AC
330
6FD
100
AcDbEntity
  8
Level 46
  6
Continuous
 62
     7
370
     0
100
AcDbLine
 10
29.72049
 20
-13.293927
 30
0.0
 11
29.772573
 21
-13.293927
 31
0.0
  0
LINE
  5
AD
330
6FD
100
AcDbEntity
  8
Level 46
  6
Continuous
 62
     7
370
     0
100
AcDbLine
 10
29.936635
 20
-13.293927
 30
0.0
 11
29.988719
 21
-13.293927
 31
0.0
  0
INSERT
  5
AE
330
6FD
100
AcDbEntity
  8
Level 46
  6
Continuous
 62
     7
370
     0
100
AcDbBlockReference
  2
LARROW
 10
29.504344
 20
-13.293927
 30
0.0
 50
180.0
  0
INSERT
  5
B0
330
6FD
100
AcDbEntity
  8
Level 46
  6
Continuous
 62
     7
370
     0
100
AcDbBlockReference
  2
LARROW
 10
29.556427
 20
-13.293927
 30
0.0
  0
INSERT
  5
B2
330
6FD
100
AcDbEntity
  8
Level 46
  6
Continuous
 62
     7
370
     0
100
AcDbBlockReference
  2
LARROW
 10
29.72049
 20
-13.293927
 30
0.0
 50
180.0
  0
INSERT
  5
B4
330
6FD
100
AcDbEntity
  8
Level 46
  6
Continuous
 62
     7
370
     0
100
AcDbBlockReference
  2
LARROW
 10
29.772573
 20
-13.293927
 30
0.0
  0
INSERT
  5
B6
330
6FD
100
AcDbEntity
  8
Level 46
  6
Continuous
 62
     7
370
     0
100
AcDbBlockReference
  2
LARROW
 10
29.936635
 20
-13.293927
 30
0.0
 50
180.0
  0
INSERT
  5
B8
330
6FD
100
AcDbEntity
  8
Level 46
  6
Continuous
 62
     7
370
     0
100
AcDbBlockReference
  2
LARROW
 10
29.988719
 20
-13.293927
 30
0.0
  0
LINE
  5
BA
330
6FD
100
AcDbEntity
  8
Level 46
  6
DGN Style 7
 62
     7
370
     0
100
AcDbLine
 10
29.746531
 20
-13.469052
 30
0.0
 11
29.746531
 21
-13.307823
 31
0.0
  0
LINE
  5
BB
330
6FD
100
AcDbEntity
  8
Level 46
  6
DGN Style 7
 62
     7
370
     0
100
AcDbLine
 10
29.746531
 20
-13.262427
 30
0.0
 11
29.746531
 21
-12.703021
 31
0.0
  0
LINE
  5
BC
330
6FD
100
AcDbEntity
  8
Level 46
  6
Continuous
 62
     7
370
     0
100
AcDbLine
 10
29.504344
 20
-13.010719
 30
0.0
 11
29.556427
 21
-13.010719
 31
0.0
  0
LINE
  5
BD
330
6FD
100
AcDbEntity
  8
Level 46
  6
Continuous
 62
     7
370
     0
100
AcDbLine
 10
29.936635
 20
-13.010719
 30
0.0
 11
29.988719
 21
-13.010719
 31
0.0
  0
INSERT
  5
BE
330
6FD
100
AcDbEntity
  8
Level 46
  6
Continuous
 62
     7
370
     0
100
AcDbBlockReference
  2
LARROW
 10
29.988719
 20
-13.010719
 30
0.0
  0
INSERT
  5
C0
330
6FD
100
AcDbEntity
  8
Level 46
  6
Continuous
 62
     7
370
     0
100
AcDbBlockReference
  2
LARROW
 10
29.936635
 20
-13.010719
 30
0.0
 50
180.0
  0
INSERT
  5
C2
330
6FD
100
AcDbEntity
  8
Level 46
  6
Continuous
 62
     7
370
     0
100
AcDbBlockReference
  2
LARROW
 10
29.556427
 20
-13.010719
 30
0.0
  0
INSERT
  5
C4
330
6FD
100
AcDbEntity
  8
Level 46
  6
Continuous
 62
     7
370
     0
100
AcDbBlockReference
  2
LARROW
 10
29.504344
 20
-13.010719
 30
0.0
 50
180.0
  0
LINE
  5
C6
330
6FD
100
AcDbEntity
  8
Level 46
  6
Continuous
 62
     7
370
     0
100
AcDbLine
 10
29.934031
 20
-12.969052
 30
0.0
 11
29.991323
 21
-12.969052
 31
0.0
  0
INSERT
  5
C7
330
6FD
100
AcDbEntity
  8
Level 46
  6
Continuous
 62
     7
370
     0
100
AcDbBlockReference
  2
LARROW
 10
29.934031
 20
-12.969052
 30
0.0
 50
180.0
  0
INSERT
  5
C9
330
6FD
100
AcDbEntity
  8
Level 46
  6
Continuous
 62
     7
370
     0
100
AcDbBlockReference
  2
LARROW
 10
29.991323
 20
-12.969052
 30
0.0
  0
LINE
  5
CB
330
6FD
100
AcDbEntity
  8
Level 46
  6
Continuous
 62
     7
370
     0
100
AcDbLine
 10
30.017365
 20
-12.917354
 30
0.0
 11
30.017365
 21
-12.853917
 31
0.0
  0
LINE
  5
CC
330
6FD
100
AcDbEntity
  8
Level 46
  6
Continuous
 62
     7
370
     0
100
AcDbLine
 10
29.90799
 20
-12.871625
 30
0.0
 11
30.017365
 21
-12.871625
 31
0.0
  0
INSERT
  5
CD
330
6FD
100
AcDbEntity
  8
Level 46
  6
Continuous
 62
     7
370
     0
100
AcDbBlockReference
  2
LARROW
 10
29.90799
 20
-12.871625
 30
0.0
 50
180.0
  0
INSERT
  5
CF
330
6FD
100
AcDbEntity
  8
Level 46
  6
Continuous
 62
     7
370
     0
100
AcDbBlockReference
  2
LARROW
 10
30.017365
 20
-12.871625
 30
0.0
  0
LINE
  5
D1
330
6FD
100
AcDbEntity
  8
Level 46
  6
Continuous
 62
     7
370
     0
100
AcDbLine
 10
29.475698
 20
-12.871625
 30
0.0
 11
29.585073
 21
-12.871625
 31
0.0
  0
LINE
  5
D2
330
6FD
100
AcDbEntity
  8
Level 46
  6
Continuous
 62
     7
370
     0
100
AcDbLine
 10
29.652781
 20
-12.871625
 30
0.0
 11
29.78299
 21
-12.871625
 31
0.0
  0
LINE
  5
D3
330
6FD
100
AcDbEntity
  8
Level 46
  6
Continuous
 62
     7
370
     0
100
AcDbLine
 10
29.90799
 20
-12.917354
 30
0.0
 11
29.90799
 21
-12.853917
 31
0.0
  0
LINE
  5
D4
330
6FD
100
AcDbEntity
  8
Level 46
  6
Continuous
 62
     7
370
     0
100
AcDbLine
 10
29.78299
 20
-12.908635
 30
0.0
 11
29.78299
 21
-12.78976
 31
0.0
  0
LINE
  5
D5
330
6FD
100
AcDbEntity
  8
Level 46
  6
Continuous
 62
     7
370
     0
100
AcDbLine
 10
29.585073
 20
-12.917354
 30
0.0
 11
29.585073
 21
-12.853917
 31
0.0
  0
LINE
  5
D6
330
6FD
100
AcDbEntity
  8
Level 46
  6
Continuous
 62
     7
370
     0
100
AcDbLine
 10
29.475698
 20
-12.917354
 30
0.0
 11
29.475698
 21
-12.853917
 31
0.0
  0
INSERT
  5
D7
330
6FD
100
AcDbEntity
  8
Level 46
  6
Continuous
 62
     7
370
     0
100
AcDbBlockReference
  2
LARROW
 10
29.475698
 20
-12.871625
 30
0.0
 50
180.0
  0
INSERT
  5
D9
330
6FD
100
AcDbEntity
  8
Level 46
  6
Continuous
 62
     7
370
     0
100
AcDbBlockReference
  2
LARROW
 10
29.585073
 20
-12.871625
 30
0.0
  0
INSERT
  5
DB
330
6FD
100
AcDbEntity
  8
Level 46
  6
Continuous
 62
     7
370
     0
100
AcDbBlockReference
  2
LARROW
 10
29.652781
 20
-12.871625
 30
0.0
 50
180.0
  0
INSERT
  5
DD
330
6FD
100
AcDbEntity
  8
Level 46
  6
Continuous
 62
     7
370
     0
100
AcDbBlockReference
  2
LARROW
 10
29.78299
 20
-12.871625
 30
0.0
  0
LINE
  5
DF
330
6FD
100
AcDbEntity
  8
Level 46
  6
Continuous
 62
     7
370
     0
100
AcDbLine
 10
29.652781
 20
-12.940406
 30
0.0
 11
29.652781
 21
-12.784552
 31
0.0
  0
LINE
  5
E0
330
6FD
100
AcDbEntity
  8
Level 10
  6
Continuous
 62
     7
370
    13
100
AcDbLine
 10
29.652781
 20
-12.940406
 30
0.0
 11
29.652781
 21
-12.948219
 31
0.0
  0
ARC
  5
E1
330
6FD
100
AcDbEntity
  8
Level 10
  6
Continuous
 62
     7
370
    13
100
AcDbCircle
 10
29.742879
 20
-13.067538
 30
0.0
 40
0.1558203824821935
100
AcDbArc
 50
75.083047
 51
125.324897
  0
LINE
  5
E2
330
6FD
100
AcDbEntity
  8
Level 10
  6
Continuous
 62
     7
370
    13
100
AcDbLine
 10
29.78299
 20
-12.916969
 30
0.0
 11
29.652781
 21
-12.940406
 31
0.0
  0
LINE
  5
E3
330
6FD
100
AcDbEntity
  8
Level 10
  6
Continuous
 62
     7
370
    13
100
AcDbLine
 10
29.738302
 20
-12.932823
 30
0.0
 11
29.652781
 21
-12.948219
 31
0.0
  0
LINE
  5
E4
330
6FD
100
AcDbEntity
  8
Level 10
  6
Continuous
 62
     7
370
    13
100
AcDbLine
 10
29.663198
 20
-12.958635
 30
0.0
 11
29.714573
 21
-12.967573
 31
0.0
  0
LINE
  5
E5
330
6FD
100
AcDbEntity
  8
Level 10
  6
Continuous
 62
     7
370
    13
100
AcDbLine
 10
29.663198
 20
-12.958635
 30
0.0
 11
29.654823
 21
-12.947854
 31
0.0
  0
LINE
  5
E6
330
6FD
100
AcDbEntity
  8
Level 46
  6
Continuous
 62
     7
370
     0
100
AcDbLine
 10
29.56476
 20
-12.967573
 30
0.0
 11
29.702437
 21
-12.967573
 31
0.0
  0
LINE
  5
E7
330
6FD
100
AcDbEntity
  8
Level 46
  6
Continuous
 62
     7
370
     0
100
AcDbLine
 10
29.780906
 20
-12.967573
 30
0.0
 11
29.928302
 21
-12.967573
 31
0.0
  0
LINE
  5
E8
330
6FD
100
AcDbEntity
  8
Level 46
  6
Continuous
 62
     7
370
     0
100
AcDbLine
 10
29.56476
 20
-12.91176
 30
0.0
 11
29.696167
 21
-12.91176
 31
0.0
  0
LINE
  5
E9
330
6FD
100
AcDbEntity
  8
Level 46
  6
Continuous
 62
     7
370
     0
100
AcDbLine
 10
29.791146
 20
-12.91176
 30
0.0
 11
29.928302
 21
-12.91176
 31
0.0
  0
LINE
  5
EA
330
6FD
100
AcDbEntity
  8
Level 46
  6
Continuous
 62
     7
370
     0
100
AcDbLine
 10
29.836833
 20
-12.967573
 30
0.0
 11
29.836833
 21
-13.010719
 31
0.0
  0
INSERT
  5
EB
330
6FD
100
AcDbEntity
  8
Level 46
  6
Continuous
 62
     7
370
     0
100
AcDbBlockReference
  2
LARROW
 10
29.836833
 20
-13.010719
 30
0.0
 50
270.0
  0
INSERT
  5
ED
330
6FD
100
AcDbEntity
  8
Level 46
  6
Continuous
 62
     7
370
     0
100
AcDbBlockReference
  2
LARROW
 10
29.836833
 20
-12.967573
 30
0.0
 50
90.0
  0
LINE
  5
EF
330
6FD
100
AcDbEntity
  8
Level 46
  6
Continuous
 62
     7
370
     0
100
AcDbLine
 10
29.791323
 20
-12.781427
 30
0.0
 11
29.867313
 21
-12.781427
 31
0.0
  0
LINE
  5
F0
330
6FD
100
AcDbEntity
  8
Level 46
  6
Continuous
 62
     7
370
     0
100
AcDbLine
 10
29.791323
 20
-12.718927
 30
0.0
 11
29.867313
 21
-12.718927
 31
0.0
  0
LINE
  5
F1
330
6FD
100
AcDbEntity
  8
Level 46
  6
Continuous
 62
     7
370
     0
100
AcDbLine
 10
29.852531
 20
-12.718927
 30
0.0
 11
29.852531
 21
-12.781427
 31
0.0
  0
INSERT
  5
F2
330
6FD
100
AcDbEntity
  8
Level 46
  6
Continuous
 62
     7
370
     0
100
AcDbBlockReference
  2
LARROW
 10
29.852531
 20
-12.781427
 30
0.0
 50
270.0
  0
INSERT
  5
F4
330
6FD
100
AcDbEntity
  8
Level 46
  6
Continuous
 62
     7
370
     0
100
AcDbBlockReference
  2
LARROW
 10
29.852531
 20
-12.718927
 30
0.0
 50
90.0
  0
LINE
  5
F6
330
6FD
100
AcDbEntity
  8
Level 46
  6
Continuous
 62
     7
370
     0
100
AcDbLine
 10
29.74501
 20
-12.69549
 30
0.0
 11
29.906292
 21
-12.69549
 31
0.0
  0
LINE
  5
F7
330
6FD
100
AcDbEntity
  8
Level 46
  6
Continuous
 62
     7
370
     0
100
AcDbLine
 10
29.74501
 20
-12.804865
 30
0.0
 11
29.906292
 21
-12.804865
 31
0.0
  0
LINE
  5
F8
330
6FD
100
AcDbEntity
  8
Level 46
  6
Continuous
 62
     7
370
     0
100
AcDbLine
 10
29.887469
 20
-12.69549
 30
0.0
 11
29.887469
 21
-12.804865
 31
0.0
  0
INSERT
  5
F9
330
6FD
100
AcDbEntity
  8
Level 46
  6
Continuous
 62
     7
370
     0
100
AcDbBlockReference
  2
LARROW
 10
29.887469
 20
-12.69549
 30
0.0
 50
90.0
  0
INSERT
  5
FB
330
6FD
100
AcDbEntity
  8
Level 46
  6
Continuous
 62
     7
370
     0
100
AcDbBlockReference
  2
LARROW
 10
29.887469
 20
-12.804865
 30
0.0
 50
270.0
  0
LINE
  5
FD
330
6FD
100
AcDbEntity
  8
Level 46
  6
Continuous
 62
     7
370
     0
100
AcDbLine
 10
29.588219
 20
-12.724135
 30
0.0
 11
29.644448
 21
-12.724135
 31
0.0
  0
LINE
  5
FE
330
6FD
100
AcDbEntity
  8
Level 46
  6
Continuous
 62
     7
370
     0
100
AcDbLine
 10
29.588219
 20
-12.776219
 30
0.0
 11
29.644448
 21
-12.776219
 31
0.0
  0
LINE
  5
FF
330
6FD
100
AcDbEntity
  8
Level 46
  6
Continuous
 62
     7
370
     0
100
AcDbLine
 10
29.607927
 20
-12.724135
 30
0.0
 11
29.607927
 21
-12.776219
 31
0.0
  0
INSERT
  5
100
330
6FD
100
AcDbEntity
  8
Level 46
  6
Continuous
 62
     7
370
     0
100
AcDbBlockReference
  2
LARROW
 10
29.607927
 20
-12.724135
 30
0.0
 50
90.0
  0
INSERT
  5
102
330
6FD
100
AcDbEntity
  8
Level 46
  6
Continuous
 62
     7
370
     0
100
AcDbBlockReference
  2
LARROW
 10
29.607927
 20
-12.776219
 30
0.0
 50
270.0
  0
LINE
  5
104
330
6FD
100
AcDbEntity
  8
Level 46
  6
DGN Style 7
 62
     7
370
     0
100
AcDbLine
 10
29.802354
 20
-12.750177
 30
0.0
 11
29.632573
 21
-12.750177
 31
0.0
  0
LINE
  5
106
330
6FD
100
AcDbEntity
  8
Level 46
  6
Continuous
 62
     7
370
    53
100
AcDbLine
 10
29.44055
 20
-13.552875
 30
0.0
 11
30.062853
 21
-13.552875
 31
0.0
  0
LINE
  5
107
330
6FD
100
AcDbEntity
  8
Level 46
  6
DGN Style 7
 62
     7
370
     0
100
AcDbLine
 10
29.444937
 20
-11.922625
 30
0.0
 11
29.784812
 21
-11.922625
 31
0.0
  0
LINE
  5
108
330
6FD
100
AcDbEntity
  8
Level 46
  6
Continuous
 62
     7
370
     0
100
AcDbLine
 10
29.403271
 20
-11.611375
 30
0.0
 11
30.059521
 21
-11.611375
 31
0.0
  0
LINE
  5
109
330
6FD
100
AcDbEntity
  8
Level 46
  6
Continuous
 62
     7
370
     0
100
AcDbLine
 10
29.968375
 20
-12.163458
 30
0.0
 11
30.059521
 21
-12.163458
 31
0.0
  0
LINE
  5
10A
330
6FD
100
AcDbEntity
  8
Level 46
  6
Continuous
 62
     7
370
     0
100
AcDbLine
 10
29.494417
 20
-12.163458
 30
0.0
 11
29.403271
 21
-12.163458
 31
0.0
  0
LINE
  5
10B
330
6FD
100
AcDbEntity
  8
Level 46
  6
Continuous
 62
     7
370
     0
100
AcDbLine
 10
29.731396
 20
-11.752
 30
0.0
 11
29.403271
 21
-11.752
 31
0.0
  0
ARC
  5
10C
330
6FD
100
AcDbEntity
  8
Level 10
  6
Continuous
 62
     7
370
    13
100
AcDbCircle
 10
29.507437
 20
-12.15825
 30
0.0
 40
0.0052083333333333
100
AcDbArc
 50
180.0
 51
270.0
  0
LINE
  5
10D
330
6FD
100
AcDbEntity
  8
Level 10
  6
Continuous
 62
     7
370
    13
100
AcDbLine
 10
29.502229
 20
-12.15825
 30
0.0
 11
29.502229
 21
-12.131208
 31
0.0
  0
ARC
  5
10E
330
6FD
100
AcDbEntity
  8
Level 10
  6
Continuous
 62
     7
370
    13
100
AcDbCircle
 10
29.507437
 20
-12.131208
 30
0.0
 40
0.005208333333337
100
AcDbArc
 50
108.290081
 51
180.0
  0
LINE
  5
10F
330
6FD
100
AcDbEntity
  8
Level 10
  6
Continuous
 62
     7
370
    13
100
AcDbLine
 10
29.505792
 20
-12.126229
 30
0.0
 11
29.649469
 21
-12.090323
 31
0.0
  0
LINE
  5
110
330
6FD
100
AcDbEntity
  8
Level 10
  6
Continuous
 62
     7
370
    13
100
AcDbLine
 10
29.652427
 20
-11.73226
 30
0.0
 11
29.622167
 21
-11.724698
 31
0.0
  0
ARC
  5
111
330
6FD
100
AcDbEntity
  8
Level 10
  6
Continuous
 62
     7
370
    13
100
AcDbCircle
 10
-29.955354
 20
-12.15825
 30
0.0
 40
0.005208333333337
210
0.0
220
0.0
230
-1.0
100
AcDbArc
 50
180.0
 51
270.0
  0
LINE
  5
112
330
6FD
100
AcDbEntity
  8
Level 10
  6
Continuous
 62
     7
370
    13
100
AcDbLine
 10
29.960562
 20
-12.15825
 30
0.0
 11
29.960562
 21
-12.131208
 31
0.0
  0
ARC
  5
113
330
6FD
100
AcDbEntity
  8
Level 10
  6
Continuous
 62
     7
370
    13
100
AcDbCircle
 10
-29.955354
 20
-12.131208
 30
0.0
 40
0.0052083333333407
210
0.0
220
0.0
230
-1.0
100
AcDbArc
 50
108.290081
 51
180.0
  0
ARC
  5
114
330
6FD
100
AcDbEntity
  8
Level 10
  6
Continuous
 62
     7
370
    13
100
AcDbCircle
 10
29.731396
 20
-12.444708
 30
0.0
 40
0.8333333333333333
100
AcDbArc
 50
86.416678
 51
93.583322
  0
LINE
  5
115
330
6FD
100
AcDbEntity
  8
Level 10
  6
Continuous
 62
     7
370
    13
100
AcDbLine
 10
29.507437
 20
-12.163458
 30
0.0
 11
29.955354
 21
-12.163458
 31
0.0
  0
LINE
  5
116
330
6FD
100
AcDbEntity
  8
Level 10
  6
Continuous
 62
     7
370
    13
100
AcDbLine
 10
29.957
 20
-12.126229
 30
0.0
 11
29.813323
 21
-12.090333
 31
0.0
  0
LINE
  5
117
330
6FD
100
AcDbEntity
  8
Level 10
  6
Continuous
 62
     7
370
    13
100
AcDbLine
 10
29.810365
 20
-11.73226
 30
0.0
 11
29.840625
 21
-11.724698
 31
0.0
  0
INSERT
  5
118
330
6FD
100
AcDbEntity
  8
Level 46
  6
Continuous
 62
     7
370
     0
100
AcDbBlockReference
  2
LARROW
 10
29.502229
 20
-12.205125
 30
0.0
 50
180.0
  0
INSERT
  5
11A
330
6FD
100
AcDbEntity
  8
Level 46
  6
Continuous
 62
     7
370
     0
100
AcDbBlockReference
  2
LARROW
 10
29.960562
 20
-12.205125
 30
0.0
  0
LINE
  5
11D
330
6FD
100
AcDbEntity
  8
Level 46
  6
DGN Style 7
 62
     7
370
     0
100
AcDbLine
 10
29.67299
 20
-12.084417
 30
0.0
 11
29.731396
 21
-12.069708
 31
0.0
  0
INSERT
  5
11E
330
6FD
100
AcDbEntity
  8
Level 46
  6
Continuous
 62
     7
370
     0
100
AcDbBlockReference
  2
LARROW
 10
29.460562
 20
-12.163458
 30
0.0
 50
270.0
  0
INSERT
  5
120
330
6FD
100
AcDbEntity
  8
Level 46
  6
Continuous
 62
     7
370
     0
100
AcDbBlockReference
  2
LARROW
 10
29.418896
 20
-12.163458
 30
0.0
 50
270.0
  0
INSERT
  5
122
330
6FD
100
AcDbEntity
  8
Level 46
  6
Continuous
 62
     7
370
     0
100
AcDbBlockReference
  2
LARROW
 10
29.418896
 20
-12.069708
 30
0.0
 50
90.0
  0
INSERT
  5
124
330
6FD
100
AcDbEntity
  8
Level 46
  6
Continuous
 62
     7
370
     0
100
AcDbBlockReference
  2
LARROW
 10
29.418896
 20
-12.069708
 30
0.0
 50
270.0
  0
INSERT
  5
126
330
6FD
100
AcDbEntity
  8
Level 46
  6
Continuous
 62
     7
370
     0
100
AcDbBlockReference
  2
LARROW
 10
29.460562
 20
-11.922625
 30
0.0
 50
90.0
  0
INSERT
  5
12A
330
6FD
100
AcDbEntity
  8
Level 46
  6
Continuous
 62
     7
370
    13
100
AcDbBlockReference
  2
LARROW_1
 10
29.418896
 20
-11.752
 30
0.0
 50
90.0
  0
INSERT
  5
12C
330
6FD
100
AcDbEntity
  8
Level 46
  6
Continuous
 62
     7
370
    13
100
AcDbBlockReference
  2
LARROW_1
 10
29.418896
 20
-11.752
 30
0.0
 50
270.0
  0
INSERT
  5
12E
330
6FD
100
AcDbEntity
  8
Level 46
  6
Continuous
 62
     7
370
    13
100
AcDbBlockReference
  2
LARROW_1
 10
29.418896
 20
-11.611375
 30
0.0
 50
90.0
  0
LINE
  5
133
330
6FD
100
AcDbEntity
  8
Level 46
  6
DGN Style 7
 62
     7
370
     0
100
AcDbLine
 10
29.670937
 20
-11.736885
 30
0.0
 11
29.731396
 21
-11.752
 31
0.0
  0
LINE
  5
134
330
6FD
100
AcDbEntity
  8
Level 46
  6
DGN Style 7
 62
     7
370
     0
100
AcDbLine
 10
29.731396
 20
-11.752
 30
0.0
 11
29.788844
 21
-11.737635
 31
0.0
  0
LINE
  5
135
330
6FD
100
AcDbEntity
  8
Level 46
  6
Continuous
 62
     7
370
     0
100
AcDbLine
 10
29.705354
 20
-11.892625
 30
0.0
 11
29.757437
 21
-11.892625
 31
0.0
  0
LINE
  5
136
330
6FD
100
AcDbEntity
  8
Level 46
  6
Continuous
 62
     7
370
     0
100
AcDbLine
 10
29.757437
 20
-11.892625
 30
0.0
 11
30.017854
 21
-11.892625
 31
0.0
  0
INSERT
  5
137
330
6FD
100
AcDbEntity
  8
Level 46
  6
Continuous
 62
     7
370
     0
100
AcDbBlockReference
  2
LARROW
 10
30.002229
 20
-12.163458
 30
0.0
 50
270.0
  0
INSERT
  5
139
330
6FD
100
AcDbEntity
  8
Level 46
  6
Continuous
 62
     7
370
     0
100
AcDbBlockReference
  2
LARROW
 10
30.043896
 20
-12.163458
 30
0.0
 50
270.0
  0
INSERT
  5
13B
330
6FD
100
AcDbEntity
  8
Level 46
  6
Continuous
 62
     7
370
     0
100
AcDbBlockReference
  2
LARROW
 10
30.002229
 20
-11.892625
 30
0.0
 50
90.0
  0
INSERT
  5
13D
330
6FD
100
AcDbEntity
  8
Level 46
  6
Continuous
 62
     7
370
     0
100
AcDbBlockReference
  2
LARROW
 10
30.043896
 20
-11.611375
 30
0.0
 50
90.0
  0
INSERT
  5
13F
330
6FD
100
AcDbEntity
  8
Level 46
  6
Continuous
 62
     7
370
     0
100
AcDbBlockReference
  2
LARROW
 10
29.705354
 20
-11.892625
 30
0.0
 50
180.0
  0
INSERT
  5
141
330
6FD
100
AcDbEntity
  8
Level 46
  6
Continuous
 62
     7
370
     0
100
AcDbBlockReference
  2
LARROW
 10
29.757437
 20
-11.892625
 30
0.0
  0
INSERT
  5
143
330
6FD
100
AcDbEntity
  8
Level 46
  6
Continuous
 62
     7
370
     0
100
AcDbBlockReference
  2
LARROW
 10
29.757437
 20
-11.892625
 30
0.0
 50
180.0
  0
LINE
  5
146
330
6FD
100
AcDbEntity
  8
Level 46
  6
DGN Style 7
 62
     7
370
     0
100
AcDbLine
 10
29.731396
 20
-11.594896
 30
0.0
 11
29.731396
 21
-11.634867
 31
0.0
  0
LINE
  5
147
330
6FD
100
AcDbEntity
  8
Level 46
  6
DGN Style 7
 62
     7
370
     0
100
AcDbLine
 10
29.731396
 20
-11.899687
 30
0.0
 11
29.731396
 21
-12.163458
 31
0.0
  0
INSERT
  5
14D
330
6FD
100
AcDbEntity
  8
Level 46
  6
Continuous
 62
     7
370
    13
100
AcDbBlockReference
  2
LARROW_1
 10
29.618115
 20
-11.550302
 30
0.0
 50
180.0
  0
INSERT
  5
14F
330
6FD
100
AcDbEntity
  8
Level 46
  6
Continuous
 62
     7
370
    13
100
AcDbBlockReference
  2
LARROW_1
 10
29.844677
 20
-11.550302
 30
0.0
  0
LINE
  5
153
330
6FD
100
AcDbEntity
  8
Level 46
  6
Continuous
 62
     7
370
    53
100
AcDbLine
 10
29.55406
 20
-12.272573
 30
0.0
 11
29.916842
 21
-12.272573
 31
0.0
  0
LINE
  5
155
330
6FD
100
AcDbEntity
  8
Level 1
  6
Continuous
 62
     7
370
    13
100
AcDbLine
 10
29.208333
 20
-11.372687
 30
0.0
 11
29.208333
 21
-13.706021
 31
0.0
  0
LINE
  5
156
330
6FD
100
AcDbEntity
  8
Level 1
  6
Continuous
 62
     7
370
    13
100
AcDbLine
 10
29.208333
 20
-13.125875
 30
0.0
 11
29.333333
 21
-13.125875
 31
0.0
  0
LINE
  5
157
330
6FD
100
AcDbEntity
  8
Level 1
  6
Continuous
 62
     7
370
    13
100
AcDbLine
 10
29.208333
 20
-12.543656
 30
0.0
 11
29.333333
 21
-12.543656
 31
0.0
  0
LINE
  5
158
330
6FD
100
AcDbEntity
  8
Level 1
  6
Continuous
 62
     7
370
    13
100
AcDbLine
 10
29.208333
 20
-11.960354
 30
0.0
 11
29.333333
 21
-11.960354
 31
0.0
  0
LINE
  5
159
330
6FD
100
AcDbEntity
  8
Level 1
  6
Continuous
 62
     7
370
   140
100
AcDbLine
 10
29.333333
 20
-11.414875
 30
0.0
 11
29.333333
 21
-13.664771
 31
0.0
  0
LINE
  5
15A
330
6FD
100
AcDbEntity
  8
Level 1
  6
Continuous
 62
     7
370
    13
100
AcDbLine
 10
29.208333
 20
-13.706021
 30
0.0
 11
32.541667
 21
-13.706021
 31
0.0
  0
LINE
  5
15B
330
6FD
100
AcDbEntity
  8
Level 1
  6
Continuous
 62
     7
370
   140
100
AcDbLine
 10
29.333333
 20
-13.664771
 30
0.0
 11
32.499844
 21
-13.664771
 31
0.0
  0
LINE
  5
15C
330
6FD
100
AcDbEntity
  8
Level 1
  6
Continuous
 62
     7
370
    13
100
AcDbLine
 10
29.869135
 20
-13.706021
 30
0.0
 11
29.869135
 21
-13.664771
 31
0.0
  0
LINE
  5
15D
330
6FD
100
AcDbEntity
  8
Level 1
  6
Continuous
 62
     7
370
    13
100
AcDbLine
 10
30.535781
 20
-13.706021
 30
0.0
 11
30.535781
 21
-13.664771
 31
0.0
  0
LINE
  5
15E
330
6FD
100
AcDbEntity
  8
Level 1
  6
Continuous
 62
     7
370
    13
100
AcDbLine
 10
31.21074
 20
-13.706021
 30
0.0
 11
31.21074
 21
-13.664771
 31
0.0
  0
LINE
  5
15F
330
6FD
100
AcDbEntity
  8
Level 1
  6
Continuous
 62
     7
370
    13
100
AcDbLine
 10
31.869323
 20
-13.664771
 30
0.0
 11
31.869323
 21
-13.705937
 31
0.0
  0
LINE
  5
160
330
6FD
100
AcDbEntity
  8
Level 1
  6
Continuous
 62
     7
370
    40
100
AcDbLine
 10
32.018177
 20
-13.560604
 30
0.0
 11
32.499844
 21
-13.560604
 31
0.0
  0
LINE
  5
161
330
6FD
100
AcDbEntity
  8
Level 1
  6
Continuous
 62
     7
370
   140
100
AcDbLine
 10
32.499844
 20
-11.414875
 30
0.0
 11
32.499844
 21
-13.664771
 31
0.0
  0
LINE
  5
162
330
6FD
100
AcDbEntity
  8
Level 1
  6
Continuous
 62
     7
370
    13
100
AcDbLine
 10
32.541667
 20
-11.372687
 30
0.0
 11
32.541667
 21
-13.706021
 31
0.0
  0
LINE
  5
163
330
6FD
100
AcDbEntity
  8
Level 1
  6
Continuous
 62
     7
370
    13
100
AcDbLine
 10
32.541667
 20
-11.952021
 30
0.0
 11
32.500062
 21
-11.952021
 31
0.0
  0
LINE
  5
164
330
6FD
100
AcDbEntity
  8
Level 1
  6
Continuous
 62
     7
370
    13
100
AcDbLine
 10
32.541667
 20
-12.543656
 30
0.0
 11
32.500437
 21
-12.543656
 31
0.0
  0
LINE
  5
165
330
6FD
100
AcDbEntity
  8
Level 1
  6
Continuous
 62
     7
370
    13
100
AcDbLine
 10
32.541667
 20
-13.126958
 30
0.0
 11
32.500062
 21
-13.126958
 31
0.0
  0
LINE
  5
166
330
6FD
100
AcDbEntity
  8
Level 1
  6
Continuous
 62
     7
370
   140
100
AcDbLine
 10
29.333333
 20
-11.414875
 30
0.0
 11
32.499844
 21
-11.414875
 31
0.0
  0
LINE
  5
167
330
6FD
100
AcDbEntity
  8
Level 1
  6
Continuous
 62
     7
370
    13
100
AcDbLine
 10
29.208333
 20
-11.372687
 30
0.0
 11
32.541667
 21
-11.372687
 31
0.0
  0
LINE
  5
168
330
6FD
100
AcDbEntity
  8
Level 1
  6
Continuous
 62
     7
370
    13
100
AcDbLine
 10
31.869042
 20
-11.372687
 30
0.0
 11
31.869042
 21
-11.414875
 31
0.0
  0
LINE
  5
169
330
6FD
100
AcDbEntity
  8
Level 1
  6
Continuous
 62
     7
370
    13
100
AcDbLine
 10
31.202417
 20
-11.372687
 30
0.0
 11
31.202417
 21
-11.414875
 31
0.0
  0
LINE
  5
16A
330
6FD
100
AcDbEntity
  8
Level 1
  6
Continuous
 62
     7
370
    13
100
AcDbLine
 10
30.535781
 20
-11.372687
 30
0.0
 11
30.535781
 21
-11.414875
 31
0.0
  0
LINE
  5
16B
330
6FD
100
AcDbEntity
  8
Level 1
  6
Continuous
 62
     7
370
    13
100
AcDbLine
 10
29.869312
 20
-11.414875
 30
0.0
 11
29.869312
 21
-11.37275
 31
0.0
  0
LINE
  5
16C
330
6FD
100
AcDbEntity
  8
Level 1
  6
Continuous
 62
     7
370
    80
100
AcDbLine
 10
31.833198
 20
-13.664771
 30
0.0
 11
31.833198
 21
-13.125042
 31
0.0
  0
LINE
  5
16D
330
6FD
100
AcDbEntity
  8
Level 1
  6
Continuous
 62
     7
370
    40
100
AcDbLine
 10
31.916635
 20
-13.321031
 30
0.0
 11
31.916635
 21
-13.196052
 31
0.0
  0
LINE
  5
16E
330
6FD
100
AcDbEntity
  8
Level 1
  6
Continuous
 62
     7
370
    40
100
AcDbLine
 10
31.833198
 20
-13.216875
 30
0.0
 11
32.499844
 21
-13.216875
 31
0.0
  0
LINE
  5
16F
330
6FD
100
AcDbEntity
  8
Level 1
  6
Continuous
 62
     7
370
    40
100
AcDbLine
 10
31.833198
 20
-13.237708
 30
0.0
 11
32.499844
 21
-13.237708
 31
0.0
  0
LINE
  5
170
330
6FD
100
AcDbEntity
  8
Level 1
  6
Continuous
 62
     7
370
    40
100
AcDbLine
 10
31.833198
 20
-13.258542
 30
0.0
 11
32.499844
 21
-13.258542
 31
0.0
  0
LINE
  5
171
330
6FD
100
AcDbEntity
  8
Level 1
  6
Continuous
 62
     7
370
    40
100
AcDbLine
 10
31.83299
 20
-13.279365
 30
0.0
 11
32.499844
 21
-13.279365
 31
0.0
  0
LINE
  5
172
330
6FD
100
AcDbEntity
  8
Level 1
  6
Continuous
 62
     7
370
    40
100
AcDbLine
 10
31.83299
 20
-13.300198
 30
0.0
 11
32.499844
 21
-13.300198
 31
0.0
  0
LINE
  5
173
330
6FD
100
AcDbEntity
  8
Level 1
  6
Continuous
 62
     7
370
    40
100
AcDbLine
 10
31.83299
 20
-13.321031
 30
0.0
 11
32.499844
 21
-13.321031
 31
0.0
  0
LINE
  5
174
330
6FD
100
AcDbEntity
  8
Level 1
  6
Continuous
 62
     7
370
    40
100
AcDbLine
 10
32.35325
 20
-13.321031
 30
0.0
 11
32.35325
 21
-13.196042
 31
0.0
  0
LINE
  5
175
330
6FD
100
AcDbEntity
  8
Level 1
  6
Continuous
 62
     7
370
    40
100
AcDbLine
 10
32.41651
 20
-13.321031
 30
0.0
 11
32.41651
 21
-13.196042
 31
0.0
  0
LINE
  5
176
330
6FD
100
AcDbEntity
  8
Level 1
  6
Continuous
 62
     7
370
    40
100
AcDbLine
 10
31.833312
 20
-13.404365
 30
0.0
 11
32.499844
 21
-13.404365
 31
0.0
  0
LINE
  5
177
330
6FD
100
AcDbEntity
  8
Level 1
  6
Continuous
 62
     7
370
    40
100
AcDbLine
 10
32.019156
 20
-13.404365
 30
0.0
 11
32.019156
 21
-13.664438
 31
0.0
  0
LINE
  5
178
330
6FD
100
AcDbEntity
  8
Level 1
  6
Continuous
 62
     7
370
    40
100
AcDbLine
 10
31.833104
 20
-13.456427
 30
0.0
 11
32.019156
 21
-13.456427
 31
0.0
  0
LINE
  5
179
330
6FD
100
AcDbEntity
  8
Level 1
  6
Continuous
 62
     7
370
    40
100
AcDbLine
 10
31.833104
 20
-13.5085
 30
0.0
 11
32.019156
 21
-13.5085
 31
0.0
  0
LINE
  5
17A
330
6FD
100
AcDbEntity
  8
Level 1
  6
Continuous
 62
     7
370
    40
100
AcDbLine
 10
31.832437
 20
-13.560594
 30
0.0
 11
32.019156
 21
-13.560594
 31
0.0
  0
LINE
  5
17B
330
6FD
100
AcDbEntity
  8
Level 1
  6
Continuous
 62
     7
370
    40
100
AcDbLine
 10
31.833312
 20
-13.612677
 30
0.0
 11
32.019156
 21
-13.612677
 31
0.0
  0
LINE
  5
17C
330
6FD
100
AcDbEntity
  8
Level 1
  6
Continuous
 62
     7
370
    40
100
AcDbLine
 10
32.01974
 20
-13.584148
 30
0.0
 11
32.27599
 21
-13.584148
 31
0.0
  0
LINE
  5
17D
330
6FD
100
AcDbEntity
  8
Level 1
  6
Continuous
 62
     7
370
    40
100
AcDbLine
 10
32.275823
 20
-13.597052
 30
0.0
 11
32.275823
 21
-13.560604
 31
0.0
  0
LINE
  5
17E
330
6FD
100
AcDbEntity
  8
Level 1
  6
Continuous
 62
     7
370
    40
100
AcDbLine
 10
32.218604
 20
-13.664771
 30
0.0
 11
32.218604
 21
-13.597052
 31
0.0
  0
LINE
  5
17F
330
6FD
100
AcDbEntity
  8
Level 1
  6
Continuous
 62
     7
370
    40
100
AcDbLine
 10
32.019208
 20
-13.637377
 30
0.0
 11
32.218542
 21
-13.637377
 31
0.0
  0
LINE
  5
180
330
6FD
100
AcDbEntity
  8
Level 1
  6
Continuous
 62
     7
370
     0
100
AcDbLine
 10
31.733479
 20
-13.558781
 30
0.0
 11
31.808385
 21
-13.558781
 31
0.0
  0
LINE
  5
181
330
6FD
100
AcDbEntity
  8
Level 1
  6
Continuous
 62
     7
370
     0
100
AcDbLine
 10
31.728104
 20
-13.639031
 30
0.0
 11
31.728104
 21
-13.564604
 31
0.0
  0
LINE
  5
182
330
6FD
100
AcDbEntity
  8
Level 1
  6
Continuous
 62
     7
370
     0
100
AcDbLine
 10
31.808385
 20
-13.644854
 30
0.0
 11
31.733479
 21
-13.644854
 31
0.0
  0
LINE
  5
183
330
6FD
100
AcDbEntity
  8
Level 1
  6
Continuous
 62
     7
370
     0
100
AcDbLine
 10
31.813771
 20
-13.564604
 30
0.0
 11
31.813771
 21
-13.639031
 31
0.0
  0
ELLIPSE
  5
184
330
6FD
100
AcDbEntity
  8
Level 1
  6
Continuous
 62
     7
370
     0
100
AcDbEllipse
 10
31.733492
 20
-13.639047
 30
0.0
 11
0.0
 21
0.005801346114300225
 31
0.0
210
0.0
220
0.0
230
1.0
 40
0.927549
 41
1.570796326794897
 42
3.141592653589793
  0
ELLIPSE
  5
185
330
6FD
100
AcDbEntity
  8
Level 1
  6
Continuous
 62
     7
370
     0
100
AcDbEllipse
 10
31.733492
 20
-13.564596
 30
0.0
 11
0.0
 21
0.005801346114300225
 31
0.0
210
0.0
220
0.0
230
-1.0
 40
0.927549
 41
4.71238898038469
 42
6.283185307179586
  0
ELLIPSE
  5
186
330
6FD
100
AcDbEntity
  8
Level 1
  6
Continuous
 62
     7
370
     0
100
AcDbEllipse
 10
31.808378
 20
-13.564596
 30
0.0
 11
0.0
 21
0.005801346114300225
 31
0.0
210
0.0
220
0.0
230
-1.0
 40
0.927549
 41
0.0
 42
1.570796326794897
  0
ELLIPSE
  5
187
330
6FD
100
AcDbEntity
  8
Level 1
  6
Continuous
 62
     7
370
     0
100
AcDbEllipse
 10
31.808378
 20
-13.639047
 30
0.0
 11
0.0
 21
0.005801346114300301
 31
0.0
210
0.0
220
0.0
230
-1.0
 40
0.927549
 41
1.570796326794897
 42
3.141592653589793
  0
LINE
  5
188
330
6FD
100
AcDbEntity
  8
Level 1
  6
Continuous
 62
     7
370
    30
100
AcDbLine
 10
31.724521
 20
-13.639031
 30
0.0
 11
31.724521
 21
-13.564604
 31
0.0
  0
LINE
  5
189
330
6FD
100
AcDbEntity
  8
Level 1
  6
Continuous
 62
     7
370
    30
100
AcDbLine
 10
31.733479
 20
-13.554927
 30
0.0
 11
31.808385
 21
-13.554927
 31
0.0
  0
LINE
  5
18A
330
6FD
100
AcDbEntity
  8
Level 1
  6
Continuous
 62
     7
370
    30
100
AcDbLine
 10
31.817354
 20
-13.564604
 30
0.0
 11
31.817354
 21
-13.639031
 31
0.0
  0
LINE
  5
18B
330
6FD
100
AcDbEntity
  8
Level 1
  6
Continuous
 62
     7
370
    30
100
AcDbLine
 10
31.808385
 20
-13.648698
 30
0.0
 11
31.733479
 21
-13.648698
 31
0.0
  0
ELLIPSE
  5
18C
330
6FD
100
AcDbEntity
  8
Level 1
  6
Continuous
 62
     7
370
    30
100
AcDbEllipse
 10
31.808378
 20
-13.639047
 30
0.0
 11
0.0
 21
0.009668905678324383
 31
0.0
210
0.0
220
0.0
230
-1.0
 40
0.927549
 41
1.570796326794897
 42
3.141592653589793
  0
ELLIPSE
  5
18D
330
6FD
100
AcDbEntity
  8
Level 1
  6
Continuous
 62
     7
370
    30
100
AcDbEllipse
 10
31.733492
 20
-13.639047
 30
0.0
 11
0.0
 21
-0.00966890567832431
 31
0.0
210
0.0
220
0.0
230
1.0
 40
0.927549
 41
4.71238898038469
 42
6.283185307179586
  0
ELLIPSE
  5
18E
330
6FD
100
AcDbEntity
  8
Level 1
  6
Continuous
 62
     7
370
    30
100
AcDbEllipse
 10
31.733492
 20
-13.564596
 30
0.0
 11
0.0
 21
-0.009668905678324383
 31
0.0
210
0.0
220
0.0
230
-1.0
 40
0.927549
 41
1.570796326794897
 42
3.141592653589793
  0
ELLIPSE
  5
18F
330
6FD
100
AcDbEntity
  8
Level 1
  6
Continuous
 62
     7
370
    30
100
AcDbEllipse
 10
31.808378
 20
-13.564596
 30
0.0
 11
0.0
 21
0.00966890567832431
 31
0.0
210
0.0
220
0.0
230
-1.0
 40
0.927549
 41
0.0
 42
1.570796326794897
  0
TEXT
  5
198
330
6FD
100
AcDbEntity
  8
Level 46
  6
Continuous
 62
     6
370
    40
100
AcDbText
 10
32.27201
 20
-13.768854
 30
0.0
 40
0.014594
  1
CORPS TEXT STANDARDS
  7
Style-FANCY
 11
32.27201
 21
-13.761557
 31
0.0
100
AcDbText
 73
     2
  0
TEXT
  5
199
330
6FD
100
AcDbEntity
  8
Level 46
  6
Continuous
 62
     6
370
     0
100
AcDbText
 10
32.275469
 20
-13.92825
 30
0.0
 40
0.0075
  1
N0.'S ARE WRICO EQUIVALENTS
  7
Style-FANCY
 11
32.275469
 21
-13.9245
 31
0.0
100
AcDbText
 73
     2
  0
TEXT
  5
19A
330
6FD
100
AcDbEntity
  8
Level 46
  6
Continuous
 62
     6
370
     0
100
AcDbText
 10
32.275031
 20
-13.94001
 30
0.0
 40
0.0075
  1
FOR DRAFTING'S REFERENCE
  7
Style-FANCY
 11
32.275031
 21
-13.93626
 31
0.0
100
AcDbText
 73
     2
  0
LINE
  5
19B
330
6FD
100
AcDbEntity
  8
Level 46
  6
Continuous
 62
     6
370
    40
100
AcDbLine
 10
32.272479
 20
-13.774177
 30
0.0
 11
32.546229
 21
-13.774177
 31
0.0
  0
LINE
  5
1AE
330
6FD
100
AcDbEntity
  8
Level 1
  6
Continuous
 62
     7
370
    40
100
AcDbLine
 10
31.833198
 20
-13.175042
 30
0.0
 11
32.499844
 21
-13.175042
 31
0.0
  0
LINE
  5
1AF
330
6FD
100
AcDbEntity
  8
Level 1
  6
Continuous
 62
     7
370
    80
100
AcDbLine
 10
31.833198
 20
-13.125042
 30
0.0
 11
32.499844
 21
-13.125042
 31
0.0
  0
LINE
  5
1B5
330
6FD
100
AcDbEntity
  8
Level 1
  6
Continuous
 62
     7
370
    40
100
AcDbLine
 10
31.833198
 20
-13.196042
 30
0.0
 11
31.916635
 21
-13.196042
 31
0.0
  0
LINE
  5
1B6
330
6FD
100
AcDbEntity
  8
Level 1
  6
Continuous
 62
     7
370
    40
100
AcDbLine
 10
31.916635
 20
-13.196042
 30
0.0
 11
32.35325
 21
-13.196042
 31
0.0
  0
LINE
  5
1B7
330
6FD
100
AcDbEntity
  8
Level 1
  6
Continuous
 62
     7
370
    40
100
AcDbLine
 10
32.35325
 20
-13.196042
 30
0.0
 11
32.499844
 21
-13.196042
 31
0.0
  0
LINE
  5
1D5
330
6FD
100
AcDbEntity
  8
Level 1
  6
Continuous
 62
     7
370
    40
100
AcDbLine
 10
32.499844
 20
-13.664771
 30
0.0
 11
32.499844
 21
-13.597052
 31
0.0
  0
LINE
  5
1D6
330
6FD
100
AcDbEntity
  8
Level 1
  6
Continuous
 62
     7
370
    40
100
AcDbLine
 10
32.41651
 20
-13.664771
 30
0.0
 11
32.41651
 21
-13.560604
 31
0.0
  0
LINE
  5
1D7
330
6FD
100
AcDbEntity
  8
Level 1
  6
Continuous
 62
     7
370
    40
100
AcDbLine
 10
32.019208
 20
-13.597052
 30
0.0
 11
32.41651
 21
-13.597052
 31
0.0
  0
LINE
  5
1D8
330
6FD
100
AcDbEntity
  8
Level 1
  6
Continuous
 62
     7
370
    40
100
AcDbLine
 10
32.41651
 20
-13.664771
 30
0.0
 11
32.499844
 21
-13.664771
 31
0.0
  0
MTEXT
  5
1D9
330
6FD
100
AcDbEntity
  8
Level 46
  6
Continuous
 62
     6
370
    13
100
AcDbMText
 10
32.27375
 20
-13.890104
 30
0.0
 40
0.013
 41
0.0
 71
     4
 72
     1
  1
Freehand\PObject Notes\P
  7
Style-ITALICS
 73
     2
 44
0.904097
  0
MTEXT
  5
1DC
330
6FD
100
AcDbEntity
  8
Level 46
  6
Continuous
 62
     6
370
    13
100
AcDbMText
 10
32.38924
 20
-13.893649
 30
0.0
 40
0.010396
 41
0.0
 71
     4
 72
     1
  1
ARCH. FREEHAND\PGENERAL NOTES\P
  7
Style-FANCY
 73
     2
 44
0.904219
  0
MTEXT
  5
1DF
330
6FD
100
AcDbEntity
  8
Level 46
  6
Continuous
 62
     6
370
    13
100
AcDbMText
 10
32.534323
 20
-13.893316
 30
0.0
 40
0.010396
 41
0.0
 71
     4
 72
     1
  1
\H1.000000x;\W0.874751;EQUAL TILE\PNOTES\P
  7
Style-ENGINEERING
 73
     2
 44
0.904219
  0
MTEXT
  5
1E2
330
6FD
100
AcDbEntity
  8
Level 46
  6
Continuous
 62
     6
370
     0
100
AcDbMText
 10
32.275021
 20
-13.801771
 30
0.0
 40
0.0075
 41
0.0
 71
     4
 72
     1
  1
90-\P-(RARELY USED)\P
  7
Style-FANCY
 73
     2
 44
0.916165
  0
MTEXT
  5
1E5
330
6FD
100
AcDbEntity
  8
Level 46
  6
Continuous
 62
     6
370
    30
100
AcDbMText
 10
32.392938
 20
-13.799531
 30
0.0
 40
0.01
 41
0.0
 71
     4
 72
     1
  1
120\P.\P
  7
Style-FANCY
 73
     2
 44
0.916165
  0
MTEXT
  5
1E8
330
6FD
100
AcDbEntity
  8
Level 40
  6
Continuous
 62
     6
370
    40
100
AcDbMText
 10
32.440208
 20
-13.797189
 30
0.0
 40
0.011698
 41
0.0
 71
     4
 72
     1
  1
140\PMATCH LINES\P
  7
Style-FANCY
 73
     2
 44
0.904419
  0
MTEXT
  5
1EB
330
6FD
100
AcDbEntity
  8
Level 47
  6
Continuous
 62
     6
370
    40
100
AcDbMText
 10
32.271062
 20
-13.845849
 30
0.0
 40
0.014594
 41
0.0
 71
     4
 72
     1
  1
175--\P-SUB TITLES\P
  7
Style-FANCY
 73
     2
 44
0.89824
  0
MTEXT
  5
1EE
330
6FD
100
AcDbEntity
  8
Level 47
  6
Continuous
 62
     6
370
    53
100
AcDbMText
 10
32.432896
 20
-13.844106
 30
0.0
 40
0.016698
 41
0.0
 71
     4
 72
     1
  1
200--\P-MAIN TITLES\P
  7
Style-FANCY
 73
     2
 44
0.907936
  0
LINE
  5
205
330
6FD
100
AcDbEntity
  8
Level 10
  6
Continuous
 62
     7
370
    13
100
AcDbLine
 10
30.435208
 20
-13.420875
 30
0.0
 11
30.411771
 21
-13.327125
 31
0.0
  0
LINE
  5
206
330
6FD
100
AcDbEntity
  8
Level 10
  6
Continuous
 62
     7
370
    13
100
AcDbLine
 10
30.458646
 20
-13.327125
 30
0.0
 11
30.435208
 21
-13.420875
 31
0.0
  0
LINE
  5
207
330
6FD
100
AcDbEntity
  8
Level 10
  6
Continuous
 62
     7
370
    13
100
AcDbLine
 10
30.471667
 20
-12.915667
 30
0.0
 11
30.471667
 21
-12.923479
 31
0.0
  0
LINE
  5
208
330
6FD
100
AcDbEntity
  8
Level 10
  6
Continuous
 62
     7
370
    13
100
AcDbLine
 10
30.471667
 20
-12.923479
 30
0.0
 11
30.467562
 21
-12.924281
 31
0.0
  0
ARC
  5
209
330
6FD
100
AcDbEntity
  8
Level 10
  6
Continuous
 62
     7
370
    13
100
AcDbCircle
 10
-30.469062
 20
-12.93195
 30
0.0
 40
0.0078125000000312
210
0.0
220
0.0
230
-1.0
100
AcDbArc
 50
0.0
 51
78.915381
  0
LINE
  5
20A
330
6FD
100
AcDbEntity
  8
Level 10
  6
Continuous
 62
     7
370
    13
100
AcDbLine
 10
30.471667
 20
-12.7165
 30
0.0
 11
30.471667
 21
-12.773792
 31
0.0
  0
LINE
  5
20B
330
6FD
100
AcDbEntity
  8
Level 10
  6
Continuous
 62
     7
370
    13
100
AcDbLine
 10
30.622708
 20
-12.962542
 30
0.0
 11
30.625312
 21
-12.999
 31
0.0
  0
LINE
  5
20C
330
6FD
100
AcDbEntity
  8
Level 10
  6
Continuous
 62
     7
370
    13
100
AcDbLine
 10
30.674792
 20
-12.962542
 30
0.0
 11
30.672187
 21
-12.999
 31
0.0
  0
LINE
  5
20D
330
6FD
100
AcDbEntity
  8
Level 10
  6
Continuous
 62
     7
370
    13
100
AcDbLine
 10
30.596667
 20
-12.932187
 30
0.0
 11
30.596667
 21
-12.924385
 31
0.0
  0
LINE
  5
20E
330
6FD
100
AcDbEntity
  8
Level 10
  6
Continuous
 62
     7
370
    13
100
AcDbLine
 10
30.700833
 20
-12.932187
 30
0.0
 11
30.700833
 21
-12.924385
 31
0.0
  0
LINE
  5
20F
330
6FD
100
AcDbEntity
  8
Level 10
  6
Continuous
 62
     7
370
    13
100
AcDbLine
 10
30.169583
 20
-12.928458
 30
0.0
 11
30.169583
 21
-12.920656
 31
0.0
  0
LINE
  5
210
330
6FD
100
AcDbEntity
  8
Level 10
  6
Continuous
 62
     7
370
    13
100
AcDbLine
 10
30.27375
 20
-12.928458
 30
0.0
 11
30.27375
 21
-12.920656
 31
0.0
  0
LINE
  5
211
330
6FD
100
AcDbEntity
  8
Level 10
  6
Continuous
 62
     7
370
    13
100
AcDbLine
 10
30.467562
 20
-12.924281
 30
0.0
 11
30.471667
 21
-12.923479
 31
0.0
  0
ARC
  5
212
330
6FD
100
AcDbEntity
  8
Level 10
  6
Continuous
 62
     7
370
    13
100
AcDbCircle
 10
-30.429865
 20
-12.945465
 30
0.0
 40
0.0142397218714287
210
0.0
220
0.0
230
-1.0
100
AcDbArc
 50
78.307139
 51
168.580981
  0
ARC
  5
213
330
6FD
100
AcDbEntity
  8
Level 10
  6
Continuous
 62
     7
370
    13
100
AcDbCircle
 10
30.64875
 20
-13.026168
 30
0.0
 40
0.1143342877399652
100
AcDbArc
 50
62.900603
 51
117.099397
  0
ARC
  5
214
330
6FD
100
AcDbEntity
  8
Level 10
  6
Continuous
 62
     7
370
    13
100
AcDbCircle
 10
30.64875
 20
-13.033295
 30
0.0
 40
0.1183156967315369
100
AcDbArc
 50
77.284903
 51
102.715097
  0
LINE
  5
215
330
6FD
100
AcDbEntity
  8
Level 10
  6
Continuous
 62
     7
370
    13
100
AcDbLine
 10
30.674792
 20
-12.921917
 30
0.0
 11
30.674792
 21
-12.917885
 31
0.0
  0
LINE
  5
216
330
6FD
100
AcDbEntity
  8
Level 10
  6
Continuous
 62
     7
370
    13
100
AcDbLine
 10
30.622708
 20
-12.921917
 30
0.0
 11
30.622708
 21
-12.917885
 31
0.0
  0
LINE
  5
217
330
6FD
100
AcDbEntity
  8
Level 10
  6
Continuous
 62
     7
370
    13
100
AcDbLine
 10
30.622708
 20
-12.921917
 30
0.0
 11
30.674792
 21
-12.921917
 31
0.0
  0
ARC
  5
218
330
6FD
100
AcDbEntity
  8
Level 10
  6
Continuous
 62
     7
370
    13
100
AcDbCircle
 10
30.651354
 20
-13.03268
 30
0.0
 40
0.1144094467315369
100
AcDbArc
 50
104.5002
 51
109.066233
  0
ARC
  5
219
330
6FD
100
AcDbEntity
  8
Level 10
  6
Continuous
 62
     7
370
    13
100
AcDbCircle
 10
30.651354
 20
-13.03268
 30
0.0
 40
0.1144094467315369
100
AcDbArc
 50
112.279361
 51
118.554736
  0
ARC
  5
21A
330
6FD
100
AcDbEntity
  8
Level 10
  6
Continuous
 62
     7
370
    13
100
AcDbCircle
 10
-30.651354
 20
-12.83178
 30
0.0
 40
0.1143342877399654
210
0.0
220
0.0
230
-1.0
100
AcDbArc
 50
288.031628
 51
298.575233
  0
ARC
  5
21B
330
6FD
100
AcDbEntity
  8
Level 10
  6
Continuous
 62
     7
370
    13
100
AcDbCircle
 10
-30.646146
 20
-13.03268
 30
0.0
 40
0.1144094467315368
210
0.0
220
0.0
230
-1.0
100
AcDbArc
 50
104.5002
 51
109.066056
  0
ARC
  5
21C
330
6FD
100
AcDbEntity
  8
Level 10
  6
Continuous
 62
     7
370
    13
100
AcDbCircle
 10
-30.646146
 20
-13.03268
 30
0.0
 40
0.1144094467315368
210
0.0
220
0.0
230
-1.0
100
AcDbArc
 50
112.279436
 51
118.554736
  0
ARC
  5
21D
330
6FD
100
AcDbEntity
  8
Level 10
  6
Continuous
 62
     7
370
    13
100
AcDbCircle
 10
-30.646146
 20
-12.83178
 30
0.0
 40
0.1143342877399654
210
0.0
220
0.0
230
-1.0
100
AcDbArc
 50
241.424764
 51
251.968369
  0
LINE
  5
21E
330
6FD
100
AcDbEntity
  8
Level 10
  6
Continuous
 62
     7
370
    13
100
AcDbLine
 10
30.247708
 20
-12.964021
 30
0.0
 11
30.245104
 21
-13.005687
 31
0.0
  0
LINE
  5
21F
330
6FD
100
AcDbEntity
  8
Level 10
  6
Continuous
 62
     7
370
    13
100
AcDbLine
 10
30.195625
 20
-12.964021
 30
0.0
 11
30.198229
 21
-13.005687
 31
0.0
  0
LINE
  5
220
330
6FD
100
AcDbEntity
  8
Level 10
  6
Continuous
 62
     7
370
    13
100
AcDbLine
 10
30.200833
 20
-12.943187
 30
0.0
 11
30.2425
 21
-12.943187
 31
0.0
  0
LINE
  5
221
330
6FD
100
AcDbEntity
  8
Level 10
  6
Continuous
 62
     7
370
    13
100
AcDbLine
 10
30.21125
 20
-12.953604
 30
0.0
 11
30.232083
 21
-12.953604
 31
0.0
  0
LINE
  5
222
330
6FD
100
AcDbEntity
  8
Level 10
  6
Continuous
 62
     7
370
    13
100
AcDbLine
 10
30.195625
 20
-12.962542
 30
0.0
 11
30.247708
 21
-12.962542
 31
0.0
  0
LINE
  5
223
330
6FD
100
AcDbEntity
  8
Level 10
  6
Continuous
 62
     7
370
    13
100
AcDbLine
 10
30.200833
 20
-12.943187
 30
0.0
 11
30.200833
 21
-12.935375
 31
0.0
  0
LINE
  5
224
330
6FD
100
AcDbEntity
  8
Level 10
  6
Continuous
 62
     7
370
    13
100
AcDbLine
 10
30.2425
 20
-12.943187
 30
0.0
 11
30.2425
 21
-12.935375
 31
0.0
  0
ARC
  5
225
330
6FD
100
AcDbEntity
  8
Level 10
  6
Continuous
 62
     7
370
    13
100
AcDbCircle
 10
-30.228046
 20
-12.864153
 30
0.0
 40
0.072674217877589
210
0.0
220
0.0
230
-1.0
100
AcDbArc
 50
231.031386
 51
258.527744
  0
ARC
  5
226
330
6FD
100
AcDbEntity
  8
Level 10
  6
Continuous
 62
     7
370
    13
100
AcDbCircle
 10
-30.231805
 20
-12.879982
 30
0.0
 40
0.0641040577626305
210
0.0
220
0.0
230
-1.0
100
AcDbArc
 50
229.131675
 51
260.396197
  0
ARC
  5
227
330
6FD
100
AcDbEntity
  8
Level 10
  6
Continuous
 62
     7
370
    13
100
AcDbCircle
 10
30.215288
 20
-12.864153
 30
0.0
 40
0.0726742178880735
100
AcDbArc
 50
231.031386
 51
258.527744
  0
ARC
  5
228
330
6FD
100
AcDbEntity
  8
Level 10
  6
Continuous
 62
     7
370
    13
100
AcDbCircle
 10
30.211528
 20
-12.879982
 30
0.0
 40
0.0641040580973621
100
AcDbArc
 50
229.131675
 51
260.396197
  0
LINE
  5
229
330
6FD
100
AcDbEntity
  8
Level 10
  6
Continuous
 62
     7
370
    13
100
AcDbLine
 10
30.198229
 20
-12.962542
 30
0.0
 11
30.21125
 21
-12.953604
 31
0.0
  0
LINE
  5
22A
330
6FD
100
AcDbEntity
  8
Level 10
  6
Continuous
 62
     7
370
    13
100
AcDbLine
 10
30.232083
 20
-12.953604
 30
0.0
 11
30.245104
 21
-12.962542
 31
0.0
  0
LINE
  5
22B
330
6FD
100
AcDbEntity
  8
Level 10
  6
Continuous
 62
     7
370
    13
100
AcDbLine
 10
30.21125
 20
-12.953604
 30
0.0
 11
30.205792
 21
-12.943187
 31
0.0
  0
LINE
  5
22C
330
6FD
100
AcDbEntity
  8
Level 10
  6
Continuous
 62
     7
370
    13
100
AcDbLine
 10
30.232083
 20
-12.953604
 30
0.0
 11
30.237542
 21
-12.943187
 31
0.0
  0
ARC
  5
22D
330
6FD
100
AcDbEntity
  8
Level 10
  6
Continuous
 62
     7
370
    13
100
AcDbCircle
 10
30.292101
 20
-12.969213
 30
0.0
 40
0.044695685894261
100
AcDbArc
 50
133.854606
 51
173.329272
  0
ARC
  5
22E
330
6FD
100
AcDbEntity
  8
Level 10
  6
Continuous
 62
     7
370
    13
100
AcDbCircle
 10
-30.151232
 20
-12.969213
 30
0.0
 40
0.0446956858947988
210
0.0
220
0.0
230
-1.0
100
AcDbArc
 50
133.854606
 51
173.329272
  0
ARC
  5
22F
330
6FD
100
AcDbEntity
  8
Level 10
  6
Continuous
 62
     7
370
    13
100
AcDbCircle
 10
30.221667
 20
-13.078911
 30
0.0
 40
0.1450361168032788
100
AcDbArc
 50
81.741331
 51
98.258669
  0
INSERT
  5
231
330
6FD
100
AcDbEntity
  8
Level 46
  6
Continuous
 62
     7
370
     0
100
AcDbBlockReference
  2
LARROW
 10
30.320708
 20
-13.420875
 30
0.0
 50
270.0
  0
INSERT
  5
233
330
6FD
100
AcDbEntity
  8
Level 46
  6
Continuous
 62
     7
370
     0
100
AcDbBlockReference
  2
LARROW
 10
30.320708
 20
-12.962542
 30
0.0
 50
90.0
  0
INSERT
  5
235
330
6FD
100
AcDbEntity
  8
Level 46
  6
Continuous
 62
     7
370
     0
100
AcDbBlockReference
  2
LARROW
 10
30.320708
 20
-12.962542
 30
0.0
 50
270.0
  0
INSERT
  5
237
330
6FD
100
AcDbEntity
  8
Level 46
  6
Continuous
 62
     7
370
     0
100
AcDbBlockReference
  2
LARROW
 10
30.320708
 20
-12.910458
 30
0.0
 50
90.0
  0
INSERT
  5
239
330
6FD
100
AcDbEntity
  8
Level 46
  6
Continuous
 62
     7
370
     0
100
AcDbBlockReference
  2
LARROW
 10
30.359281
 20
-13.327125
 30
0.0
 50
90.0
  0
INSERT
  5
23B
330
6FD
100
AcDbEntity
  8
Level 46
  6
Continuous
 62
     7
370
     0
100
AcDbBlockReference
  2
LARROW
 10
30.359281
 20
-13.420875
 30
0.0
 50
270.0
  0
LINE
  5
23D
330
6FD
100
AcDbEntity
  8
Level 46
  6
Continuous
 62
     7
370
     0
100
AcDbLine
 10
30.198229
 20
-13.288896
 30
0.0
 11
30.245104
 21
-13.288896
 31
0.0
  0
LINE
  5
23E
330
6FD
100
AcDbEntity
  8
Level 46
  6
Continuous
 62
     7
370
     0
100
AcDbLine
 10
30.411771
 20
-13.288896
 30
0.0
 11
30.458646
 21
-13.288896
 31
0.0
  0
LINE
  5
23F
330
6FD
100
AcDbEntity
  8
Level 46
  6
Continuous
 62
     7
370
     0
100
AcDbLine
 10
30.625312
 20
-13.288896
 30
0.0
 11
30.672187
 21
-13.288896
 31
0.0
  0
INSERT
  5
240
330
6FD
100
AcDbEntity
  8
Level 46
  6
Continuous
 62
     7
370
     0
100
AcDbBlockReference
  2
LARROW
 10
30.198229
 20
-13.288896
 30
0.0
 50
180.0
  0
INSERT
  5
242
330
6FD
100
AcDbEntity
  8
Level 46
  6
Continuous
 62
     7
370
     0
100
AcDbBlockReference
  2
LARROW
 10
30.245104
 20
-13.288896
 30
0.0
  0
INSERT
  5
244
330
6FD
100
AcDbEntity
  8
Level 46
  6
Continuous
 62
     7
370
     0
100
AcDbBlockReference
  2
LARROW
 10
30.411771
 20
-13.288896
 30
0.0
 50
180.0
  0
INSERT
  5
246
330
6FD
100
AcDbEntity
  8
Level 46
  6
Continuous
 62
     7
370
     0
100
AcDbBlockReference
  2
LARROW
 10
30.458646
 20
-13.288896
 30
0.0
  0
INSERT
  5
248
330
6FD
100
AcDbEntity
  8
Level 46
  6
Continuous
 62
     7
370
     0
100
AcDbBlockReference
  2
LARROW
 10
30.625312
 20
-13.288896
 30
0.0
 50
180.0
  0
INSERT
  5
24A
330
6FD
100
AcDbEntity
  8
Level 46
  6
Continuous
 62
     7
370
     0
100
AcDbBlockReference
  2
LARROW
 10
30.672187
 20
-13.288896
 30
0.0
  0
LINE
  5
24C
330
6FD
100
AcDbEntity
  8
Level 46
  6
DGN Style 7
 62
     7
370
     0
100
AcDbLine
 10
30.435208
 20
-13.420875
 30
0.0
 11
30.435208
 21
-13.302792
 31
0.0
  0
LINE
  5
24D
330
6FD
100
AcDbEntity
  8
Level 46
  6
DGN Style 7
 62
     7
370
     0
100
AcDbLine
 10
30.435208
 20
-13.257396
 30
0.0
 11
30.435208
 21
-12.69799
 31
0.0
  0
LINE
  5
24E
330
6FD
100
AcDbEntity
  8
Level 46
  6
Continuous
 62
     7
370
     0
100
AcDbLine
 10
30.198229
 20
-13.005687
 30
0.0
 11
30.245104
 21
-13.005687
 31
0.0
  0
INSERT
  5
24F
330
6FD
100
AcDbEntity
  8
Level 46
  6
Continuous
 62
     7
370
     0
100
AcDbBlockReference
  2
LARROW
 10
30.672187
 20
-12.999
 30
0.0
  0
INSERT
  5
251
330
6FD
100
AcDbEntity
  8
Level 46
  6
Continuous
 62
     7
370
     0
100
AcDbBlockReference
  2
LARROW
 10
30.625312
 20
-12.999
 30
0.0
 50
180.0
  0
INSERT
  5
253
330
6FD
100
AcDbEntity
  8
Level 46
  6
Continuous
 62
     7
370
     0
100
AcDbBlockReference
  2
LARROW
 10
30.245104
 20
-13.005687
 30
0.0
  0
INSERT
  5
255
330
6FD
100
AcDbEntity
  8
Level 46
  6
Continuous
 62
     7
370
     0
100
AcDbBlockReference
  2
LARROW
 10
30.198229
 20
-13.005687
 30
0.0
 50
180.0
  0
INSERT
  5
257
330
6FD
100
AcDbEntity
  8
Level 46
  6
Continuous
 62
     7
370
     0
100
AcDbBlockReference
  2
LARROW
 10
30.622708
 20
-12.962542
 30
0.0
 50
180.0
  0
INSERT
  5
259
330
6FD
100
AcDbEntity
  8
Level 46
  6
Continuous
 62
     7
370
     0
100
AcDbBlockReference
  2
LARROW
 10
30.674792
 20
-12.962542
 30
0.0
  0
LINE
  5
25B
330
6FD
100
AcDbEntity
  8
Level 46
  6
Continuous
 62
     7
370
     0
100
AcDbLine
 10
30.700833
 20
-12.912323
 30
0.0
 11
30.700833
 21
-12.848885
 31
0.0
  0
LINE
  5
25C
330
6FD
100
AcDbEntity
  8
Level 46
  6
Continuous
 62
     7
370
     0
100
AcDbLine
 10
30.596667
 20
-12.866594
 30
0.0
 11
30.700833
 21
-12.866594
 31
0.0
  0
INSERT
  5
25D
330
6FD
100
AcDbEntity
  8
Level 46
  6
Continuous
 62
     7
370
     0
100
AcDbBlockReference
  2
LARROW
 10
30.596667
 20
-12.866594
 30
0.0
 50
180.0
  0
INSERT
  5
25F
330
6FD
100
AcDbEntity
  8
Level 46
  6
Continuous
 62
     7
370
     0
100
AcDbBlockReference
  2
LARROW
 10
30.700833
 20
-12.866594
 30
0.0
  0
LINE
  5
261
330
6FD
100
AcDbEntity
  8
Level 46
  6
Continuous
 62
     7
370
     0
100
AcDbLine
 10
30.169583
 20
-12.866594
 30
0.0
 11
30.27375
 21
-12.866594
 31
0.0
  0
LINE
  5
262
330
6FD
100
AcDbEntity
  8
Level 46
  6
Continuous
 62
     7
370
     0
100
AcDbLine
 10
30.346667
 20
-12.866594
 30
0.0
 11
30.471667
 21
-12.866594
 31
0.0
  0
LINE
  5
263
330
6FD
100
AcDbEntity
  8
Level 46
  6
Continuous
 62
     7
370
     0
100
AcDbLine
 10
30.596667
 20
-12.912323
 30
0.0
 11
30.596667
 21
-12.848885
 31
0.0
  0
LINE
  5
264
330
6FD
100
AcDbEntity
  8
Level 46
  6
Continuous
 62
     7
370
     0
100
AcDbLine
 10
30.471667
 20
-12.903604
 30
0.0
 11
30.471667
 21
-12.784729
 31
0.0
  0
LINE
  5
265
330
6FD
100
AcDbEntity
  8
Level 46
  6
Continuous
 62
     7
370
     0
100
AcDbLine
 10
30.27375
 20
-12.912323
 30
0.0
 11
30.27375
 21
-12.848885
 31
0.0
  0
LINE
  5
266
330
6FD
100
AcDbEntity
  8
Level 46
  6
Continuous
 62
     7
370
     0
100
AcDbLine
 10
30.169583
 20
-12.912323
 30
0.0
 11
30.169583
 21
-12.848885
 31
0.0
  0
INSERT
  5
267
330
6FD
100
AcDbEntity
  8
Level 46
  6
Continuous
 62
     7
370
     0
100
AcDbBlockReference
  2
LARROW
 10
30.169583
 20
-12.866594
 30
0.0
 50
180.0
  0
INSERT
  5
269
330
6FD
100
AcDbEntity
  8
Level 46
  6
Continuous
 62
     7
370
     0
100
AcDbBlockReference
  2
LARROW
 10
30.27375
 20
-12.866594
 30
0.0
  0
INSERT
  5
26B
330
6FD
100
AcDbEntity
  8
Level 46
  6
Continuous
 62
     7
370
     0
100
AcDbBlockReference
  2
LARROW
 10
30.346667
 20
-12.866594
 30
0.0
 50
180.0
  0
INSERT
  5
26D
330
6FD
100
AcDbEntity
  8
Level 46
  6
Continuous
 62
     7
370
     0
100
AcDbBlockReference
  2
LARROW
 10
30.471667
 20
-12.866594
 30
0.0
  0
LINE
  5
26F
330
6FD
100
AcDbEntity
  8
Level 10
  6
Continuous
 62
     7
370
    13
100
AcDbLine
 10
30.471667
 20
-12.915667
 30
0.0
 11
30.346667
 21
-12.939104
 31
0.0
  0
LINE
  5
270
330
6FD
100
AcDbEntity
  8
Level 10
  6
Continuous
 62
     7
370
    13
100
AcDbLine
 10
30.426979
 20
-12.931521
 30
0.0
 11
30.346667
 21
-12.946917
 31
0.0
  0
LINE
  5
271
330
6FD
100
AcDbEntity
  8
Level 10
  6
Continuous
 62
     7
370
    13
100
AcDbLine
 10
30.357458
 20
-12.954729
 30
0.0
 11
30.405062
 21
-12.961583
 31
0.0
  0
LINE
  5
272
330
6FD
100
AcDbEntity
  8
Level 10
  6
Continuous
 62
     7
370
    13
100
AcDbLine
 10
30.357458
 20
-12.954729
 30
0.0
 11
30.350781
 21
-12.946125
 31
0.0
  0
LINE
  5
273
330
6FD
100
AcDbEntity
  8
Level 46
  6
Continuous
 62
     7
370
     0
100
AcDbLine
 10
30.255406
 20
-12.962542
 30
0.0
 11
30.391115
 21
-12.962542
 31
0.0
  0
LINE
  5
274
330
6FD
100
AcDbEntity
  8
Level 46
  6
Continuous
 62
     7
370
     0
100
AcDbLine
 10
30.469583
 20
-12.962542
 30
0.0
 11
30.615208
 21
-12.962542
 31
0.0
  0
LINE
  5
275
330
6FD
100
AcDbEntity
  8
Level 46
  6
Continuous
 62
     7
370
     0
100
AcDbLine
 10
30.52551
 20
-12.962542
 30
0.0
 11
30.52551
 21
-12.999
 31
0.0
  0
INSERT
  5
276
330
6FD
100
AcDbEntity
  8
Level 46
  6
Continuous
 62
     7
370
     0
100
AcDbBlockReference
  2
LARROW
 10
30.52551
 20
-12.999
 30
0.0
 50
270.0
  0
INSERT
  5
278
330
6FD
100
AcDbEntity
  8
Level 46
  6
Continuous
 62
     7
370
     0
100
AcDbBlockReference
  2
LARROW
 10
30.52551
 20
-12.962542
 30
0.0
 50
90.0
  0
LINE
  5
27A
330
6FD
100
AcDbEntity
  8
Level 46
  6
Continuous
 62
     7
370
     0
100
AcDbLine
 10
30.541208
 20
-12.7165
 30
0.0
 11
30.541208
 21
-12.773792
 31
0.0
  0
INSERT
  5
27B
330
6FD
100
AcDbEntity
  8
Level 46
  6
Continuous
 62
     7
370
     0
100
AcDbBlockReference
  2
LARROW
 10
30.541208
 20
-12.773792
 30
0.0
 50
270.0
  0
INSERT
  5
27D
330
6FD
100
AcDbEntity
  8
Level 46
  6
Continuous
 62
     7
370
     0
100
AcDbBlockReference
  2
LARROW
 10
30.541208
 20
-12.7165
 30
0.0
 50
90.0
  0
LINE
  5
27F
330
6FD
100
AcDbEntity
  8
Level 46
  6
Continuous
 62
     7
370
     0
100
AcDbLine
 10
30.576146
 20
-12.693062
 30
0.0
 11
30.576146
 21
-12.797229
 31
0.0
  0
INSERT
  5
280
330
6FD
100
AcDbEntity
  8
Level 46
  6
Continuous
 62
     7
370
     0
100
AcDbBlockReference
  2
LARROW
 10
30.576146
 20
-12.693062
 30
0.0
 50
90.0
  0
INSERT
  5
282
330
6FD
100
AcDbEntity
  8
Level 46
  6
Continuous
 62
     7
370
     0
100
AcDbBlockReference
  2
LARROW
 10
30.576146
 20
-12.797229
 30
0.0
 50
270.0
  0
LINE
  5
284
330
6FD
100
AcDbEntity
  8
Level 46
  6
Continuous
 62
     7
370
     0
100
AcDbLine
 10
30.296604
 20
-12.721708
 30
0.0
 11
30.296604
 21
-12.768583
 31
0.0
  0
INSERT
  5
285
330
6FD
100
AcDbEntity
  8
Level 46
  6
Continuous
 62
     7
370
     0
100
AcDbBlockReference
  2
LARROW
 10
30.296604
 20
-12.721708
 30
0.0
 50
90.0
  0
INSERT
  5
287
330
6FD
100
AcDbEntity
  8
Level 46
  6
Continuous
 62
     7
370
     0
100
AcDbBlockReference
  2
LARROW
 10
30.296604
 20
-12.768583
 30
0.0
 50
270.0
  0
LINE
  5
289
330
6FD
100
AcDbEntity
  8
Level 46
  6
DGN Style 7
 62
     7
370
     0
100
AcDbLine
 10
30.491031
 20
-12.745146
 30
0.0
 11
30.32125
 21
-12.745146
 31
0.0
  0
LINE
  5
28B
330
6FD
100
AcDbEntity
  8
Level 46
  6
Continuous
 62
     7
370
    53
100
AcDbLine
 10
30.119509
 20
-13.55245
 30
0.0
 11
30.792072
 21
-13.55245
 31
0.0
  0
LINE
  5
29C
330
6FD
100
AcDbEntity
  8
Level 10
  6
Continuous
 62
     7
370
    13
100
AcDbLine
 10
30.198229
 20
-13.420875
 30
0.0
 11
30.245104
 21
-13.420875
 31
0.0
  0
LINE
  5
29D
330
6FD
100
AcDbEntity
  8
Level 10
  6
Continuous
 62
     7
370
    13
100
AcDbLine
 10
30.625312
 20
-13.420875
 30
0.0
 11
30.672187
 21
-13.420875
 31
0.0
  0
LINE
  5
29E
330
6FD
100
AcDbEntity
  8
Level 10
  6
Continuous
 62
     7
370
    13
100
AcDbLine
 10
30.198229
 20
-13.327125
 30
0.0
 11
30.245104
 21
-13.327125
 31
0.0
  0
LINE
  5
29F
330
6FD
100
AcDbEntity
  8
Level 10
  6
Continuous
 62
     7
370
    13
100
AcDbLine
 10
30.625312
 20
-13.327125
 30
0.0
 11
30.672187
 21
-13.327125
 31
0.0
  0
LINE
  5
2A0
330
6FD
100
AcDbEntity
  8
Level 46
  6
Continuous
 62
     7
370
     0
100
AcDbLine
 10
30.469583
 20
-13.327125
 30
0.0
 11
30.617812
 21
-13.327125
 31
0.0
  0
LINE
  5
2A1
330
6FD
100
AcDbEntity
  8
Level 46
  6
Continuous
 62
     7
370
     0
100
AcDbLine
 10
30.341583
 20
-13.327125
 30
0.0
 11
30.404271
 21
-13.327125
 31
0.0
  0
LINE
  5
2A2
330
6FD
100
AcDbEntity
  8
Level 46
  6
Continuous
 62
     7
370
     0
100
AcDbLine
 10
30.252604
 20
-13.420875
 30
0.0
 11
30.617812
 21
-13.420875
 31
0.0
  0
LINE
  5
2A3
330
6FD
100
AcDbEntity
  8
Level 10
  6
Continuous
 62
     7
370
    13
100
AcDbLine
 10
30.198229
 20
-13.420875
 30
0.0
 11
30.198229
 21
-12.962542
 31
0.0
  0
LINE
  5
2A4
330
6FD
100
AcDbEntity
  8
Level 10
  6
Continuous
 62
     7
370
    13
100
AcDbLine
 10
30.245104
 20
-13.420875
 30
0.0
 11
30.245104
 21
-12.962542
 31
0.0
  0
LINE
  5
2A5
330
6FD
100
AcDbEntity
  8
Level 10
  6
Continuous
 62
     7
370
    13
100
AcDbLine
 10
30.625312
 20
-13.420875
 30
0.0
 11
30.625312
 21
-12.999
 31
0.0
  0
LINE
  5
2A6
330
6FD
100
AcDbEntity
  8
Level 10
  6
Continuous
 62
     7
370
    13
100
AcDbLine
 10
30.672187
 20
-13.420875
 30
0.0
 11
30.672187
 21
-12.999
 31
0.0
  0
LINE
  5
2A7
330
6FD
100
AcDbEntity
  8
Level 10
  6
Continuous
 62
     7
370
    13
100
AcDbLine
 10
30.458646
 20
-13.327125
 30
0.0
 11
30.458646
 21
-12.999
 31
0.0
  0
LINE
  5
2A8
330
6FD
100
AcDbEntity
  8
Level 10
  6
Continuous
 62
     7
370
    13
100
AcDbLine
 10
30.411771
 20
-13.327125
 30
0.0
 11
30.411771
 21
-12.969312
 31
0.0
  0
LINE
  5
2A9
330
6FD
100
AcDbEntity
  8
Level 46
  6
Continuous
 62
     7
370
     0
100
AcDbLine
 10
30.26125
 20
-12.910458
 30
0.0
 11
30.384844
 21
-12.910458
 31
0.0
  0
LINE
  5
2AA
330
6FD
100
AcDbEntity
  8
Level 46
  6
Continuous
 62
     7
370
     0
100
AcDbLine
 10
30.479823
 20
-12.910458
 30
0.0
 11
30.609167
 21
-12.910458
 31
0.0
  0
ARC
  5
2AB
330
6FD
100
AcDbEntity
  8
Level 10
  6
Continuous
 62
     7
370
    13
100
AcDbCircle
 10
-30.221667
 20
-13.048559
 30
0.0
 40
0.1381003202672778
210
0.0
220
0.0
230
-1.0
100
AcDbArc
 50
67.843281
 51
112.156719
  0
LINE
  5
2AC
330
6FD
100
AcDbEntity
  8
Level 46
  6
Continuous
 62
     7
370
     0
100
AcDbLine
 10
30.469583
 20
-12.999
 30
0.0
 11
30.617812
 21
-12.999
 31
0.0
  0
LINE
  5
2AD
330
6FD
100
AcDbEntity
  8
Level 46
  6
Continuous
 62
     7
370
     0
100
AcDbLine
 10
30.625312
 20
-12.999
 30
0.0
 11
30.672187
 21
-12.999
 31
0.0
  0
LINE
  5
2AE
330
6FD
100
AcDbEntity
  8
Level 46
  6
Continuous
 62
     7
370
     0
100
AcDbLine
 10
30.622708
 20
-12.962542
 30
0.0
 11
30.674792
 21
-12.962542
 31
0.0
  0
ARC
  5
2AF
330
6FD
100
AcDbEntity
  8
Level 10
  6
Continuous
 62
     7
370
    13
100
AcDbCircle
 10
-30.507194
 20
-12.969075
 30
0.0
 40
0.1156993961934522
210
0.0
220
0.0
230
-1.0
100
AcDbArc
 50
157.362378
 51
176.763122
  0
ARC
  5
2B0
330
6FD
100
AcDbEntity
  8
Level 10
  6
Continuous
 62
     7
370
    13
100
AcDbCircle
 10
-30.539259
 20
-12.976043
 30
0.0
 40
0.0845345991114107
210
0.0
220
0.0
230
-1.0
100
AcDbArc
 50
144.382767
 51
170.809925
  0
ARC
  5
2B1
330
6FD
100
AcDbEntity
  8
Level 10
  6
Continuous
 62
     7
370
    13
100
AcDbCircle
 10
30.790306
 20
-12.969075
 30
0.0
 40
0.1156993961934521
100
AcDbArc
 50
157.365258
 51
176.763122
  0
ARC
  5
2B2
330
6FD
100
AcDbEntity
  8
Level 10
  6
Continuous
 62
     7
370
    13
100
AcDbCircle
 10
30.758241
 20
-12.976043
 30
0.0
 40
0.0845345991114107
100
AcDbArc
 50
144.382328
 51
170.809925
  0
LINE
  5
2B3
330
6FD
100
AcDbEntity
  8
Level 46
  6
Continuous
 62
     7
370
     0
100
AcDbLine
 10
30.433687
 20
-12.797229
 30
0.0
 11
30.594969
 21
-12.797229
 31
0.0
  0
LINE
  5
2B4
330
6FD
100
AcDbEntity
  8
Level 46
  6
Continuous
 62
     7
370
     0
100
AcDbLine
 10
30.433687
 20
-12.693062
 30
0.0
 11
30.594969
 21
-12.693062
 31
0.0
  0
LINE
  5
2B5
330
6FD
100
AcDbEntity
  8
Level 46
  6
Continuous
 62
     7
370
     0
100
AcDbLine
 10
30.48
 20
-12.7165
 30
0.0
 11
30.55599
 21
-12.7165
 31
0.0
  0
LINE
  5
2B6
330
6FD
100
AcDbEntity
  8
Level 46
  6
Continuous
 62
     7
370
     0
100
AcDbLine
 10
30.48
 20
-12.773792
 30
0.0
 11
30.55599
 21
-12.773792
 31
0.0
  0
LINE
  5
2B7
330
6FD
100
AcDbEntity
  8
Level 46
  6
Continuous
 62
     7
370
     0
100
AcDbLine
 10
30.276896
 20
-12.721708
 30
0.0
 11
30.336427
 21
-12.721708
 31
0.0
  0
LINE
  5
2B8
330
6FD
100
AcDbEntity
  8
Level 46
  6
Continuous
 62
     7
370
     0
100
AcDbLine
 10
30.276896
 20
-12.768583
 30
0.0
 11
30.336427
 21
-12.768583
 31
0.0
  0
LINE
  5
2B9
330
6FD
100
AcDbEntity
  8
Level 10
  6
Continuous
 62
     7
370
    13
100
AcDbLine
 10
30.458646
 20
-12.999
 30
0.0
 11
30.46125
 21
-12.931948
 31
0.0
  0
LINE
  5
2BA
330
6FD
100
AcDbEntity
  8
Level 46
  6
Continuous
 62
     7
370
     0
100
AcDbLine
 10
30.346667
 20
-12.930594
 30
0.0
 11
30.346667
 21
-12.779521
 31
0.0
  0
LINE
  5
2BB
330
6FD
100
AcDbEntity
  8
Level 10
  6
Continuous
 62
     7
370
    13
100
AcDbLine
 10
30.346667
 20
-12.721708
 30
0.0
 11
30.346667
 21
-12.768583
 31
0.0
  0
LINE
  5
2BC
330
6FD
100
AcDbEntity
  8
Level 10
  6
Continuous
 62
     7
370
    13
100
AcDbLine
 10
30.346667
 20
-12.939104
 30
0.0
 11
30.346667
 21
-12.946917
 31
0.0
  0
ARC
  5
2BD
330
6FD
100
AcDbEntity
  8
Level 10
  6
Continuous
 62
     7
370
    13
100
AcDbCircle
 10
-30.41176
 20
-12.781333
 30
0.0
 40
0.0882735140697617
210
0.0
220
0.0
230
-1.0
100
AcDbArc
 50
42.489606
 51
132.738506
  0
ARC
  5
2BE
330
6FD
100
AcDbEntity
  8
Level 10
  6
Continuous
 62
     7
370
    13
100
AcDbCircle
 10
30.41176
 20
-12.708958
 30
0.0
 40
0.0882735140697617
100
AcDbArc
 50
222.489606
 51
312.738506
  0
ARC
  5
2BF
330
6FD
100
AcDbEntity
  8
Level 10
  6
Continuous
 62
     7
370
    13
100
AcDbCircle
 10
-30.433434
 20
-13.05681
 30
0.0
 40
0.1462301188620664
210
0.0
220
0.0
230
-1.0
100
AcDbArc
 50
53.604169
 51
105.156517
  0
ARC
  5
2C0
330
6FD
100
AcDbEntity
  8
Level 10
  6
Continuous
 62
     7
370
    13
100
AcDbCircle
 10
-30.403958
 20
-12.969317
 30
0.0
 40
0.0078125
210
0.0
220
0.0
230
-1.0
100
AcDbArc
 50
98.130103
 51
180.0
  0
LINE
  5
2C1
330
6FD
100
AcDbEntity
  8
Level 46
  6
Continuous
 62
     7
370
     0
100
AcDbLine
 10
30.753042
 20
-12.163458
 30
0.0
 11
30.844188
 21
-12.163458
 31
0.0
  0
LINE
  5
2C2
330
6FD
100
AcDbEntity
  8
Level 46
  6
Continuous
 62
     7
370
     0
100
AcDbLine
 10
30.237417
 20
-12.163458
 30
0.0
 11
30.146271
 21
-12.163458
 31
0.0
  0
ARC
  5
2C3
330
6FD
100
AcDbEntity
  8
Level 10
  6
Continuous
 62
     7
370
    13
100
AcDbCircle
 10
30.495229
 20
-12.403042
 30
0.0
 40
0.8333333333333333
100
AcDbArc
 50
85.698778
 51
94.301222
  0
LINE
  5
2C4
330
6FD
100
AcDbEntity
  8
Level 10
  6
Continuous
 62
     7
370
    13
100
AcDbLine
 10
30.250438
 20
-12.163458
 30
0.0
 11
30.740021
 21
-12.163458
 31
0.0
  0
LINE
  5
2C5
330
6FD
100
AcDbEntity
  8
Level 10
  6
Continuous
 62
     7
370
    13
100
AcDbLine
 10
30.737333
 20
-12.125
 30
0.0
 11
30.590302
 21
-12.08826
 31
0.0
  0
LINE
  5
2C6
330
6FD
100
AcDbEntity
  8
Level 10
  6
Continuous
 62
     7
370
    13
100
AcDbLine
 10
30.563448
 20
-11.69849
 30
0.0
 11
30.616177
 21
-11.685313
 31
0.0
  0
INSERT
  5
2C7
330
6FD
100
AcDbEntity
  8
Level 46
  6
Continuous
 62
     7
370
     0
100
AcDbBlockReference
  2
LARROW
 10
30.245229
 20
-12.205125
 30
0.0
 50
180.0
  0
INSERT
  5
2C9
330
6FD
100
AcDbEntity
  8
Level 46
  6
Continuous
 62
     7
370
     0
100
AcDbBlockReference
  2
LARROW
 10
30.745229
 20
-12.205125
 30
0.0
  0
LINE
  5
2CB
330
6FD
100
AcDbEntity
  8
Level 46
  6
DGN Style 7
 62
     7
370
     0
100
AcDbLine
 10
30.416948
 20
-12.084219
 30
0.0
 11
30.495229
 21
-12.0645
 31
0.0
  0
INSERT
  5
2CC
330
6FD
100
AcDbEntity
  8
Level 46
  6
Continuous
 62
     7
370
     0
100
AcDbBlockReference
  2
LARROW
 10
30.203563
 20
-12.163458
 30
0.0
 50
270.0
  0
INSERT
  5
2CE
330
6FD
100
AcDbEntity
  8
Level 46
  6
Continuous
 62
     7
370
     0
100
AcDbBlockReference
  2
LARROW
 10
30.161896
 20
-12.163458
 30
0.0
 50
270.0
  0
INSERT
  5
2D0
330
6FD
100
AcDbEntity
  8
Level 46
  6
Continuous
 62
     7
370
     0
100
AcDbBlockReference
  2
LARROW
 10
30.161896
 20
-12.0645
 30
0.0
 50
90.0
  0
INSERT
  5
2D2
330
6FD
100
AcDbEntity
  8
Level 46
  6
Continuous
 62
     7
370
     0
100
AcDbBlockReference
  2
LARROW
 10
30.161896
 20
-12.0645
 30
0.0
 50
270.0
  0
INSERT
  5
2D4
330
6FD
100
AcDbEntity
  8
Level 46
  6
Continuous
 62
     7
370
     0
100
AcDbBlockReference
  2
LARROW
 10
30.203563
 20
-11.896792
 30
0.0
 50
90.0
  0
INSERT
  5
2D8
330
6FD
100
AcDbEntity
  8
Level 46
  6
Continuous
 62
     7
370
    13
100
AcDbBlockReference
  2
LARROW_1
 10
30.161896
 20
-11.715542
 30
0.0
 50
90.0
  0
INSERT
  5
2DA
330
6FD
100
AcDbEntity
  8
Level 46
  6
Continuous
 62
     7
370
    13
100
AcDbBlockReference
  2
LARROW_1
 10
30.161896
 20
-11.715542
 30
0.0
 50
270.0
  0
INSERT
  5
2DC
330
6FD
100
AcDbEntity
  8
Level 46
  6
Continuous
 62
     7
370
    13
100
AcDbBlockReference
  2
LARROW_1
 10
30.161896
 20
-11.569708
 30
0.0
 50
90.0
  0
LINE
  5
2E1
330
6FD
100
AcDbEntity
  8
Level 46
  6
DGN Style 7
 62
     7
370
     0
100
AcDbLine
 10
30.555687
 20
-11.700427
 30
0.0
 11
30.495229
 21
-11.715542
 31
0.0
  0
INSERT
  5
2E2
330
6FD
100
AcDbEntity
  8
Level 46
  6
Continuous
 62
     7
370
     0
100
AcDbBlockReference
  2
LARROW
 10
30.786896
 20
-12.163458
 30
0.0
 50
270.0
  0
INSERT
  5
2E4
330
6FD
100
AcDbEntity
  8
Level 46
  6
Continuous
 62
     7
370
     0
100
AcDbBlockReference
  2
LARROW
 10
30.828563
 20
-12.163458
 30
0.0
 50
270.0
  0
INSERT
  5
2E6
330
6FD
100
AcDbEntity
  8
Level 46
  6
Continuous
 62
     7
370
     0
100
AcDbBlockReference
  2
LARROW
 10
30.786896
 20
-11.840542
 30
0.0
 50
90.0
  0
INSERT
  5
2E8
330
6FD
100
AcDbEntity
  8
Level 46
  6
Continuous
 62
     7
370
     0
100
AcDbBlockReference
  2
LARROW
 10
30.828563
 20
-11.569708
 30
0.0
 50
90.0
  0
INSERT
  5
2EA
330
6FD
100
AcDbEntity
  8
Level 46
  6
Continuous
 62
     7
370
     0
100
AcDbBlockReference
  2
LARROW
 10
30.467885
 20
-11.840542
 30
0.0
 50
180.0
  0
INSERT
  5
2EC
330
6FD
100
AcDbEntity
  8
Level 46
  6
Continuous
 62
     7
370
     0
100
AcDbBlockReference
  2
LARROW
 10
30.522573
 20
-11.840542
 30
0.0
  0
INSERT
  5
2EE
330
6FD
100
AcDbEntity
  8
Level 46
  6
Continuous
 62
     7
370
     0
100
AcDbBlockReference
  2
LARROW
 10
30.522573
 20
-11.840542
 30
0.0
 50
180.0
  0
LINE
  5
2F1
330
6FD
100
AcDbEntity
  8
Level 46
  6
DGN Style 7
 62
     7
370
     0
100
AcDbLine
 10
30.495229
 20
-11.554042
 30
0.0
 11
30.495229
 21
-11.618541
 31
0.0
  0
LINE
  5
2F2
330
6FD
100
AcDbEntity
  8
Level 46
  6
DGN Style 7
 62
     7
370
     0
100
AcDbLine
 10
30.495229
 20
-11.899687
 30
0.0
 11
30.495229
 21
-12.163458
 31
0.0
  0
INSERT
  5
2F8
330
6FD
100
AcDbEntity
  8
Level 46
  6
Continuous
 62
     7
370
    13
100
AcDbBlockReference
  2
LARROW_1
 10
30.370229
 20
-11.509708
 30
0.0
 50
180.0
  0
INSERT
  5
2FA
330
6FD
100
AcDbEntity
  8
Level 46
  6
Continuous
 62
     7
370
    13
100
AcDbBlockReference
  2
LARROW_1
 10
30.620229
 20
-11.509708
 30
0.0
  0
LINE
  5
2FD
330
6FD
100
AcDbEntity
  8
Level 46
  6
Continuous
 62
     7
370
    53
100
AcDbLine
 10
30.304296
 20
-12.258302
 30
0.0
 11
30.668905
 21
-12.258302
 31
0.0
  0
LINE
  5
2FF
330
6FD
100
AcDbEntity
  8
Level 10
  6
Continuous
 62
     7
370
    13
100
AcDbLine
 10
30.245229
 20
-12.15825
 30
0.0
 11
30.245229
 21
-12.135104
 31
0.0
  0
LINE
  5
300
330
6FD
100
AcDbEntity
  8
Level 10
  6
Continuous
 62
     7
370
    13
100
AcDbLine
 10
30.745229
 20
-12.15825
 30
0.0
 11
30.745229
 21
-12.135104
 31
0.0
  0
LINE
  5
301
330
6FD
100
AcDbEntity
  8
Level 46
  6
Continuous
 62
     7
370
     0
100
AcDbLine
 10
30.245229
 20
-12.171271
 30
0.0
 11
30.245229
 21
-12.22075
 31
0.0
  0
LINE
  5
302
330
6FD
100
AcDbEntity
  8
Level 46
  6
Continuous
 62
     7
370
     0
100
AcDbLine
 10
30.745229
 20
-12.171271
 30
0.0
 11
30.745229
 21
-12.22075
 31
0.0
  0
ARC
  5
304
330
6FD
100
AcDbEntity
  8
Level 10
  6
Continuous
 62
     7
370
    13
100
AcDbCircle
 10
30.250438
 20
-12.15825
 30
0.0
 40
0.0052083333333333
100
AcDbArc
 50
180.0
 51
270.0
  0
LINE
  5
305
330
6FD
100
AcDbEntity
  8
Level 46
  6
DGN Style 7
 62
     7
370
     0
100
AcDbLine
 10
30.187938
 20
-11.896792
 30
0.0
 11
30.548646
 21
-11.896792
 31
0.0
  0
LINE
  5
306
330
6FD
100
AcDbEntity
  8
Level 46
  6
Continuous
 62
     7
370
     0
100
AcDbLine
 10
30.495229
 20
-11.715542
 30
0.0
 11
30.146271
 21
-11.715542
 31
0.0
  0
LINE
  5
307
330
6FD
100
AcDbEntity
  8
Level 46
  6
Continuous
 62
     7
370
     0
100
AcDbLine
 10
30.495229
 20
-11.569708
 30
0.0
 11
30.146271
 21
-11.569708
 31
0.0
  0
LINE
  5
308
330
6FD
100
AcDbEntity
  8
Level 10
  6
Continuous
 62
     7
370
    13
100
AcDbLine
 10
30.370333
 20
-11.680125
 30
0.0
 11
30.372021
 21
-11.612479
 31
0.0
  0
ARC
  5
309
330
6FD
100
AcDbEntity
  8
Level 10
  6
Continuous
 62
     7
370
    13
100
AcDbCircle
 10
30.440531
 20
-11.675917
 30
0.0
 40
0.1041579897427794
100
AcDbArc
 50
94.301581
 51
120.743889
  0
ARC
  5
30A
330
6FD
100
AcDbEntity
  8
Level 10
  6
Continuous
 62
     7
370
    13
100
AcDbCircle
 10
30.403261
 20
-11.613255
 30
0.0
 40
0.03125
100
AcDbArc
 50
120.743889
 51
178.571511
  0
LINE
  5
30B
330
6FD
100
AcDbEntity
  8
Level 10
  6
Continuous
 62
     7
370
    13
100
AcDbLine
 10
30.620125
 20
-11.680125
 30
0.0
 11
30.618437
 21
-11.612479
 31
0.0
  0
ARC
  5
30C
330
6FD
100
AcDbEntity
  8
Level 10
  6
Continuous
 62
     7
370
    13
100
AcDbCircle
 10
-30.587198
 20
-11.613255
 30
0.0
 40
0.03125
210
0.0
220
0.0
230
-1.0
100
AcDbArc
 50
120.743889
 51
178.571511
  0
ARC
  5
30D
330
6FD
100
AcDbEntity
  8
Level 10
  6
Continuous
 62
     7
370
    13
100
AcDbCircle
 10
-30.549927
 20
-11.675917
 30
0.0
 40
0.1041579897427794
210
0.0
220
0.0
230
-1.0
100
AcDbArc
 50
94.301581
 51
120.743889
  0
ARC
  5
30E
330
6FD
100
AcDbEntity
  8
Level 10
  6
Continuous
 62
     7
370
    13
100
AcDbCircle
 10
30.61492
 20
-11.680257
 30
0.0
 40
0.0052083333333333
100
AcDbArc
 50
283.987914
 51
1.404028
  0
LINE
  5
310
330
6FD
100
AcDbEntity
  8
Level 46
  6
Continuous
 62
     7
370
     0
100
AcDbLine
 10
30.802521
 20
-11.840542
 30
0.0
 11
30.522573
 21
-11.840542
 31
0.0
  0
ARC
  5
311
330
6FD
100
AcDbEntity
  8
Level 10
  6
Continuous
 62
     7
370
    13
100
AcDbCircle
 10
31.855906
 20
-11.840542
 30
0.0
 40
1.333333333333333
100
AcDbArc
 50
180.0
 51
188.071442
  0
ARC
  5
312
330
6FD
100
AcDbEntity
  8
Level 10
  6
Continuous
 62
     7
370
    13
100
AcDbCircle
 10
31.18924
 20
-11.840542
 30
0.0
 40
0.6666666666666666
100
AcDbArc
 50
171.674519
 51
180.0
  0
ARC
  5
313
330
6FD
100
AcDbEntity
  8
Level 10
  6
Continuous
 62
     7
370
    13
100
AcDbCircle
 10
30.607976
 20
-12.017514
 30
0.0
 40
0.0729166666666667
100
AcDbArc
 50
188.071442
 51
255.970497
  0
ARC
  5
314
330
6FD
100
AcDbEntity
  8
Level 10
  6
Continuous
 62
     7
370
    13
100
AcDbCircle
 10
30.591427
 20
-11.753063
 30
0.0
 40
0.0624924101294287
100
AcDbArc
 50
126.477133
 51
171.671353
  0
ARC
  5
315
330
6FD
100
AcDbEntity
  8
Level 10
  6
Continuous
 62
     7
370
    13
100
AcDbCircle
 10
-30.569757
 20
-11.723753
 30
0.0
 40
0.0260416666666667
210
0.0
220
0.0
230
-1.0
100
AcDbArc
 50
53.522867
 51
75.971914
  0
LINE
  5
316
330
6FD
100
AcDbEntity
  8
Level 10
  6
Continuous
 62
     7
370
    13
100
AcDbLine
 10
30.253115
 20
-12.125
 30
0.0
 11
30.400156
 21
-12.08826
 31
0.0
  0
LINE
  5
317
330
6FD
100
AcDbEntity
  8
Level 10
  6
Continuous
 62
     7
370
    13
100
AcDbLine
 10
30.42701
 20
-11.69849
 30
0.0
 11
30.374281
 21
-11.685313
 31
0.0
  0
ARC
  5
318
330
6FD
100
AcDbEntity
  8
Level 10
  6
Continuous
 62
     7
370
    13
100
AcDbCircle
 10
-30.375538
 20
-11.680257
 30
0.0
 40
0.0052083333333333
210
0.0
220
0.0
230
-1.0
100
AcDbArc
 50
283.987914
 51
1.404028
  0
ARC
  5
319
330
6FD
100
AcDbEntity
  8
Level 10
  6
Continuous
 62
     7
370
    13
100
AcDbCircle
 10
-29.134552
 20
-11.840542
 30
0.0
 40
1.333333333333333
210
0.0
220
0.0
230
-1.0
100
AcDbArc
 50
180.0
 51
188.071442
  0
ARC
  5
31A
330
6FD
100
AcDbEntity
  8
Level 10
  6
Continuous
 62
     7
370
    13
100
AcDbCircle
 10
-29.801219
 20
-11.840542
 30
0.0
 40
0.6666666666666666
210
0.0
220
0.0
230
-1.0
100
AcDbArc
 50
171.674519
 51
180.0
  0
ARC
  5
31B
330
6FD
100
AcDbEntity
  8
Level 10
  6
Continuous
 62
     7
370
    13
100
AcDbCircle
 10
-30.382483
 20
-12.017514
 30
0.0
 40
0.0729166666666667
210
0.0
220
0.0
230
-1.0
100
AcDbArc
 50
188.071442
 51
255.970497
  0
ARC
  5
31C
330
6FD
100
AcDbEntity
  8
Level 10
  6
Continuous
 62
     7
370
    13
100
AcDbCircle
 10
-30.399031
 20
-11.753063
 30
0.0
 40
0.0624924101294287
210
0.0
220
0.0
230
-1.0
100
AcDbArc
 50
126.477133
 51
171.671353
  0
ARC
  5
31D
330
6FD
100
AcDbEntity
  8
Level 10
  6
Continuous
 62
     7
370
    13
100
AcDbCircle
 10
30.420701
 20
-11.723753
 30
0.0
 40
0.0260416666666667
100
AcDbArc
 50
53.522867
 51
75.971914
  0
ARC
  5
31E
330
6FD
100
AcDbEntity
  8
Level 10
  6
Continuous
 62
     7
370
    13
100
AcDbCircle
 10
30.255646
 20
-12.135102
 30
0.0
 40
0.0104166666666667
100
AcDbArc
 50
104.036244
 51
180.0
  0
ARC
  5
31F
330
6FD
100
AcDbEntity
  8
Level 10
  6
Continuous
 62
     7
370
    13
100
AcDbCircle
 10
-30.734813
 20
-12.135104
 30
0.0
 40
0.0104166666666667
210
0.0
220
0.0
230
-1.0
100
AcDbArc
 50
104.020692
 51
180.0
  0
LINE
  5
322
330
6FD
100
AcDbEntity
  8
Level 46
  6
Continuous
 62
     7
370
     0
100
AcDbLine
 10
30.467885
 20
-11.840542
 30
0.0
 11
30.522573
 21
-11.840542
 31
0.0
  0
LINE
  5
323
330
6FD
100
AcDbEntity
  8
Level 46
  6
Continuous
 62
     7
370
     0
100
AcDbLine
 10
30.844188
 20
-11.569708
 30
0.0
 11
30.495229
 21
-11.569708
 31
0.0
  0
LINE
  5
324
330
6FD
100
AcDbEntity
  8
Level 46
  6
Continuous
 62
     7
370
     0
100
AcDbLine
 10
29.502229
 20
-12.205125
 30
0.0
 11
29.960562
 21
-12.205125
 31
0.0
  0
LINE
  5
325
330
6FD
100
AcDbEntity
  8
Level 46
  6
Continuous
 62
     7
370
     0
100
AcDbLine
 10
29.960562
 20
-12.171271
 30
0.0
 11
29.960562
 21
-12.22075
 31
0.0
  0
LINE
  5
326
330
6FD
100
AcDbEntity
  8
Level 46
  6
Continuous
 62
     7
370
     0
100
AcDbLine
 10
29.502229
 20
-12.171271
 30
0.0
 11
29.502229
 21
-12.22075
 31
0.0
  0
LINE
  5
327
330
6FD
100
AcDbEntity
  8
Level 46
  6
Continuous
 62
     7
370
     0
100
AcDbLine
 10
30.245229
 20
-12.205125
 30
0.0
 11
30.745229
 21
-12.205125
 31
0.0
  0
LINE
  5
328
330
6FD
100
AcDbEntity
  8
Level 46
  6
Continuous
 62
     7
370
     0
100
AcDbLine
 10
30.002229
 20
-11.892625
 30
0.0
 11
30.002229
 21
-12.163458
 31
0.0
  0
LINE
  5
329
330
6FD
100
AcDbEntity
  8
Level 46
  6
Continuous
 62
     7
370
     0
100
AcDbLine
 10
30.786896
 20
-11.840542
 30
0.0
 11
30.786896
 21
-12.163458
 31
0.0
  0
LINE
  5
32A
330
6FD
100
AcDbEntity
  8
Level 46
  6
Continuous
 62
     7
370
     0
100
AcDbLine
 10
30.043896
 20
-11.611375
 30
0.0
 11
30.043896
 21
-12.163458
 31
0.0
  0
LINE
  5
32B
330
6FD
100
AcDbEntity
  8
Level 46
  6
Continuous
 62
     7
370
     0
100
AcDbLine
 10
30.828563
 20
-11.569708
 30
0.0
 11
30.828563
 21
-12.163458
 31
0.0
  0
LINE
  5
32C
330
6FD
100
AcDbEntity
  8
Level 46
  6
Continuous
 62
     7
370
     0
100
AcDbLine
 10
30.203563
 20
-11.896792
 30
0.0
 11
30.203563
 21
-12.163458
 31
0.0
  0
LINE
  5
32D
330
6FD
100
AcDbEntity
  8
Level 46
  6
Continuous
 62
     7
370
     0
100
AcDbLine
 10
30.161896
 20
-12.0645
 30
0.0
 11
30.161896
 21
-12.163458
 31
0.0
  0
LINE
  5
32E
330
6FD
100
AcDbEntity
  8
Level 46
  6
Continuous
 62
     7
370
     0
100
AcDbLine
 10
30.161896
 20
-11.569708
 30
0.0
 11
30.161896
 21
-11.715542
 31
0.0
  0
LINE
  5
32F
330
6FD
100
AcDbEntity
  8
Level 46
  6
Continuous
 62
     7
370
     0
100
AcDbLine
 10
30.161896
 20
-11.715542
 30
0.0
 11
30.161896
 21
-12.0645
 31
0.0
  0
LINE
  5
330
330
6FD
100
AcDbEntity
  8
Level 46
  6
Continuous
 62
     7
370
     0
100
AcDbLine
 10
30.495229
 20
-12.0645
 30
0.0
 11
30.21425
 21
-12.0645
 31
0.0
  0
LINE
  5
331
330
6FD
100
AcDbEntity
  8
Level 46
  6
Continuous
 62
     7
370
     0
100
AcDbLine
 10
30.195344
 20
-12.0645
 30
0.0
 11
30.146271
 21
-12.0645
 31
0.0
  0
LINE
  5
332
330
6FD
100
AcDbEntity
  8
Level 46
  6
Continuous
 62
     7
370
     0
100
AcDbLine
 10
29.418896
 20
-11.611375
 30
0.0
 11
29.418896
 21
-11.752
 31
0.0
  0
LINE
  5
333
330
6FD
100
AcDbEntity
  8
Level 46
  6
Continuous
 62
     7
370
     0
100
AcDbLine
 10
29.418896
 20
-11.752
 30
0.0
 11
29.418896
 21
-12.069708
 31
0.0
  0
LINE
  5
334
330
6FD
100
AcDbEntity
  8
Level 46
  6
Continuous
 62
     7
370
     0
100
AcDbLine
 10
29.418896
 20
-12.069708
 30
0.0
 11
29.418896
 21
-12.163458
 31
0.0
  0
LINE
  5
335
330
6FD
100
AcDbEntity
  8
Level 46
  6
Continuous
 62
     7
370
     0
100
AcDbLine
 10
29.731396
 20
-12.069708
 30
0.0
 11
29.473344
 21
-12.069708
 31
0.0
  0
LINE
  5
336
330
6FD
100
AcDbEntity
  8
Level 46
  6
Continuous
 62
     7
370
     0
100
AcDbLine
 10
29.447625
 20
-12.069708
 30
0.0
 11
29.403271
 21
-12.069708
 31
0.0
  0
LINE
  5
337
330
6FD
100
AcDbEntity
  8
Level 46
  6
Continuous
 62
     7
370
     0
100
AcDbLine
 10
30.535781
 20
-12.02775
 30
0.0
 11
30.720417
 21
-12.001563
 31
0.0
  0
LINE
  5
338
330
6FD
100
AcDbEntity
  8
Level 46
  6
Continuous
 62
     7
370
     0
100
AcDbLine
 10
30.590302
 20
-12.08826
 30
0.0
 11
30.607979
 21
-12.01751
 31
0.0
  0
INSERT
  5
339
330
6FD
100
AcDbEntity
  8
Level 46
  6
Continuous
 62
     7
370
     0
100
AcDbBlockReference
  2
LARROW
 10
30.535781
 20
-12.02775
 30
0.0
 41
1.0
 42
1.0
 43
1.0
 50
188.072712
  0
INSERT
  5
33B
330
6FD
100
AcDbEntity
  8
Level 46
  6
Continuous
 62
     7
370
     0
100
AcDbBlockReference
  2
LARROW
 10
30.590302
 20
-12.08826
 30
0.0
 41
0.999998
 42
0.999998
 43
0.999998
 50
255.971716
  0
ARC
  5
343
330
6FD
100
AcDbEntity
  8
Level 10
  6
Continuous
 62
     7
370
    13
100
AcDbCircle
 10
30.740021
 20
-12.15825
 30
0.0
 40
0.0052083333333333
100
AcDbArc
 50
270.0
 51
0.0
  0
LWPOLYLINE
  5
344
330
6FD
100
AcDbEntity
  8
Level 46
  6
Continuous
 62
     7
370
     0
100
AcDbPolyline
 90
        3
 70
   128
 43
0.0
 10
30.710396
 20
-12.142927
 10
30.726833
 20
-12.142927
 10
30.743417
 20
-12.162198
  0
INSERT
  5
345
330
6FD
100
AcDbEntity
  8
Level 46
  6
Continuous
 62
     7
370
     0
100
AcDbBlockReference
  2
LARROW
 10
30.743417
 20
-12.162198
 30
0.0
 41
1.0
 42
1.0
 43
1.0
 50
310.713433
  0
LWPOLYLINE
  5
347
330
6FD
100
AcDbEntity
  8
Level 46
  6
Continuous
 62
     7
370
     0
100
AcDbPolyline
 90
        3
 70
   128
 43
0.0
 10
30.281198
 20
-12.146875
 10
30.26476
 20
-12.146875
 10
30.248281
 20
-12.127729
  0
INSERT
  5
348
330
6FD
100
AcDbEntity
  8
Level 46
  6
Continuous
 62
     7
370
     0
100
AcDbBlockReference
  2
LARROW
 10
30.248281
 20
-12.127729
 30
0.0
 41
0.999999
 42
0.999999
 43
0.999999
 50
130.719106
  0
LINE
  5
34B
330
6FD
100
AcDbEntity
  8
Level 46
  6
Continuous
 62
     7
370
     0
100
AcDbLine
 10
29.959948
 20
-12.12875
 30
0.0
 11
29.935479
 21
-12.141875
 31
0.0
  0
LINE
  5
34C
330
6FD
100
AcDbEntity
  8
Level 46
  6
Continuous
 62
     7
370
     0
100
AcDbLine
 10
29.959375
 20
-12.161562
 30
0.0
 11
29.935479
 21
-12.141875
 31
0.0
  0
INSERT
  5
34D
330
6FD
100
AcDbEntity
  8
Level 46
  6
Continuous
 62
     7
370
     0
100
AcDbBlockReference
  2
LARROW
 10
29.959948
 20
-12.12875
 30
0.0
 41
0.999999
 42
0.999999
 43
0.999999
 50
28.209013
  0
INSERT
  5
34F
330
6FD
100
AcDbEntity
  8
Level 46
  6
Continuous
 62
     7
370
     0
100
AcDbBlockReference
  2
LARROW
 10
29.959375
 20
-12.161562
 30
0.0
 41
0.999998
 42
0.999998
 43
0.999998
 50
320.515304
  0
LINE
  5
351
330
6FD
100
AcDbEntity
  8
Level 46
  6
Continuous
 62
     7
370
     0
100
AcDbLine
 10
29.731396
 20
-11.809292
 30
0.0
 11
29.444937
 21
-11.809292
 31
0.0
  0
LINE
  5
352
330
6FD
100
AcDbEntity
  8
Level 46
  6
Continuous
 62
     7
370
     0
100
AcDbLine
 10
29.460562
 20
-11.752
 30
0.0
 11
29.460562
 21
-11.809292
 31
0.0
  0
LINE
  5
353
330
6FD
100
AcDbEntity
  8
Level 46
  6
Continuous
 62
     7
370
     0
100
AcDbLine
 10
29.460562
 20
-11.922625
 30
0.0
 11
29.460562
 21
-12.163458
 31
0.0
  0
INSERT
  5
354
330
6FD
100
AcDbEntity
  8
Level 46
  6
Continuous
 62
     7
370
     0
100
AcDbBlockReference
  2
LARROW
 10
29.460562
 20
-11.752
 30
0.0
 50
90.0
  0
INSERT
  5
356
330
6FD
100
AcDbEntity
  8
Level 46
  6
Continuous
 62
     7
370
     0
100
AcDbBlockReference
  2
LARROW
 10
29.460562
 20
-11.809292
 30
0.0
 50
270.0
  0
LINE
  5
359
330
6FD
100
AcDbEntity
  8
Level 46
  6
DGN Style 7
 62
     7
370
     0
100
AcDbLine
 10
29.760354
 20
-11.810135
 30
0.0
 11
29.731396
 21
-11.809292
 31
0.0
  0
ARC
  5
35A
330
6FD
100
AcDbEntity
  8
Level 10
  6
Continuous
 62
     7
370
    13
100
AcDbCircle
 10
30.924104
 20
-11.892625
 30
0.0
 40
1.166666666666667
100
AcDbArc
 50
175.945625
 51
187.131
  0
ARC
  5
35B
330
6FD
100
AcDbEntity
  8
Level 10
  6
Continuous
 62
     7
370
    13
100
AcDbCircle
 10
29.828478
 20
-12.029694
 30
0.0
 40
0.0625
100
AcDbArc
 50
187.131
 51
255.970978
  0
ARC
  5
35C
330
6FD
100
AcDbEntity
  8
Level 10
  6
Continuous
 62
     7
370
    13
100
AcDbCircle
 10
30.009719
 20
-11.827802
 30
0.0
 40
0.2499896128484503
100
AcDbArc
 50
169.270617
 51
175.947553
  0
ARC
  5
35D
330
6FD
100
AcDbEntity
  8
Level 10
  6
Continuous
 62
     7
370
    13
100
AcDbCircle
 10
-29.825507
 20
-11.792897
 30
0.0
 40
0.0625
210
0.0
220
0.0
230
-1.0
100
AcDbArc
 50
10.729383
 51
75.975367
  0
LINE
  5
35E
330
6FD
100
AcDbEntity
  8
Level 46
  6
Continuous
 62
     7
370
     0
100
AcDbLine
 10
29.760354
 20
-11.810135
 30
0.0
 11
29.934948
 21
-11.8225
 31
0.0
  0
LINE
  5
35F
330
6FD
100
AcDbEntity
  8
Level 46
  6
Continuous
 62
     7
370
     0
100
AcDbLine
 10
29.764104
 20
-11.78126
 30
0.0
 11
29.935021
 21
-11.813646
 31
0.0
  0
LINE
  5
360
330
6FD
100
AcDbEntity
  8
Level 46
  6
Continuous
 62
     7
370
     0
100
AcDbLine
 10
29.810365
 20
-11.73226
 30
0.0
 11
29.82551
 21
-11.792896
 31
0.0
  0
INSERT
  5
361
330
6FD
100
AcDbEntity
  8
Level 46
  6
Continuous
 62
     7
370
     0
100
AcDbBlockReference
  2
LARROW
 10
29.810365
 20
-11.73226
 30
0.0
 41
1.000002
 42
1.000002
 43
1.000002
 50
104.02466
  0
INSERT
  5
363
330
6FD
100
AcDbEntity
  8
Level 46
  6
Continuous
 62
     7
370
     0
100
AcDbBlockReference
  2
LARROW
 10
29.764104
 20
-11.78126
 30
0.0
 41
1.000001
 42
1.000001
 43
1.000001
 50
169.270829
  0
INSERT
  5
365
330
6FD
100
AcDbEntity
  8
Level 46
  6
Continuous
 62
     7
370
     0
100
AcDbBlockReference
  2
LARROW
 10
29.760354
 20
-11.810135
 30
0.0
 41
0.999998
 42
0.999998
 43
0.999998
 50
175.949189
  0
LINE
  5
36A
330
6FD
100
AcDbEntity
  8
Level 46
  6
Continuous
 62
     7
370
     0
100
AcDbLine
 10
29.766458
 20
-12.037448
 30
0.0
 11
29.94151
 21
-12.015552
 31
0.0
  0
LINE
  5
36B
330
6FD
100
AcDbEntity
  8
Level 46
  6
Continuous
 62
     7
370
     0
100
AcDbLine
 10
29.813323
 20
-12.090333
 30
0.0
 11
29.828479
 21
-12.029687
 31
0.0
  0
INSERT
  5
36C
330
6FD
100
AcDbEntity
  8
Level 46
  6
Continuous
 62
     7
370
     0
100
AcDbBlockReference
  2
LARROW
 10
29.813323
 20
-12.090333
 30
0.0
 41
0.999998
 42
0.999998
 43
0.999998
 50
255.968416
  0
INSERT
  5
36E
330
6FD
100
AcDbEntity
  8
Level 46
  6
Continuous
 62
     7
370
     0
100
AcDbBlockReference
  2
LARROW
 10
29.766458
 20
-12.037448
 30
0.0
 41
1.000002
 42
1.000002
 43
1.000002
 50
187.129517
  0
ARC
  5
372
330
6FD
100
AcDbEntity
  8
Level 10
  6
Continuous
 62
     7
370
    13
100
AcDbCircle
 10
-28.538687
 20
-11.892625
 30
0.0
 40
1.166666666666667
210
0.0
220
0.0
230
-1.0
100
AcDbArc
 50
175.945625
 51
187.130481
  0
ARC
  5
373
330
6FD
100
AcDbEntity
  8
Level 10
  6
Continuous
 62
     7
370
    13
100
AcDbCircle
 10
-29.634315
 20
-12.029685
 30
0.0
 40
0.0625
210
0.0
220
0.0
230
-1.0
100
AcDbArc
 50
187.130481
 51
255.967367
  0
ARC
  5
374
330
6FD
100
AcDbEntity
  8
Level 10
  6
Continuous
 62
     7
370
    13
100
AcDbCircle
 10
-29.453073
 20
-11.827802
 30
0.0
 40
0.2499896128484503
210
0.0
220
0.0
230
-1.0
100
AcDbArc
 50
169.270617
 51
175.947553
  0
ARC
  5
375
330
6FD
100
AcDbEntity
  8
Level 10
  6
Continuous
 62
     7
370
    13
100
AcDbCircle
 10
29.637285
 20
-11.792897
 30
0.0
 40
0.0625
100
AcDbArc
 50
10.729383
 51
75.975367
  0
ARC
  5
376
330
6FD
100
AcDbEntity
  8
Level 10
  6
Continuous
 62
     7
370
    13
100
AcDbCircle
 10
29.775667
 20
-11.73775
 30
0.0
 40
0.124994390499134
100
AcDbArc
 50
67.459142
 51
86.416517
  0
ARC
  5
377
330
6FD
100
AcDbEntity
  8
Level 10
  6
Continuous
 62
     7
370
    13
100
AcDbCircle
 10
29.687115
 20
-11.73775
 30
0.0
 40
0.1249937398606037
100
AcDbArc
 50
93.578717
 51
112.533608
  0
LINE
  5
378
330
6FD
100
AcDbEntity
  8
Level 10
  6
Continuous
 62
     7
370
    13
100
AcDbLine
 10
29.619948
 20
-11.650385
 30
0.0
 11
29.618219
 21
-11.71951
 31
0.0
  0
LINE
  5
379
330
6FD
100
AcDbEntity
  8
Level 10
  6
Continuous
 62
     7
370
    13
100
AcDbLine
 10
29.842844
 20
-11.650385
 30
0.0
 11
29.844573
 21
-11.719521
 31
0.0
  0
ARC
  5
37A
330
6FD
100
AcDbEntity
  8
Level 10
  6
Continuous
 62
     7
370
    13
100
AcDbCircle
 10
29.65119
 20
-11.651163
 30
0.0
 40
0.03125
100
AcDbArc
 50
112.533608
 51
178.566222
  0
ARC
  5
37B
330
6FD
100
AcDbEntity
  8
Level 10
  6
Continuous
 62
     7
370
    13
100
AcDbCircle
 10
-29.811603
 20
-11.651167
 30
0.0
 40
0.03125
210
0.0
220
0.0
230
-1.0
100
AcDbArc
 50
112.540858
 51
178.566761
  0
ARC
  5
37C
330
6FD
100
AcDbEntity
  8
Level 10
  6
Continuous
 62
     7
370
    13
100
AcDbCircle
 10
29.623426
 20
-11.719646
 30
0.0
 40
0.0052083333333333
100
AcDbArc
 50
178.559906
 51
255.977669
  0
ARC
  5
37D
330
6FD
100
AcDbEntity
  8
Level 10
  6
Continuous
 62
     7
370
    13
100
AcDbCircle
 10
29.839366
 20
-11.719647
 30
0.0
 40
0.0052083333333333
100
AcDbArc
 50
284.036244
 51
1.432097
  0
LINE
  5
37E
330
6FD
100
AcDbEntity
  8
Level 46
  6
Continuous
 62
     7
370
     0
100
AcDbLine
 10
29.783479
 20
-11.6055
 30
0.0
 11
29.783479
 21
-11.565302
 31
0.0
  0
LINE
  5
37F
330
6FD
100
AcDbEntity
  8
Level 46
  6
Continuous
 62
     7
370
     0
100
AcDbLine
 10
29.679312
 20
-11.6055
 30
0.0
 11
29.679312
 21
-11.565302
 31
0.0
  0
LINE
  5
380
330
6FD
100
AcDbEntity
  8
Level 46
  6
Continuous
 62
     7
370
     0
100
AcDbLine
 10
29.783479
 20
-11.613
 30
0.0
 11
29.778958
 21
-11.68525
 31
0.0
  0
LINE
  5
381
330
6FD
100
AcDbEntity
  8
Level 46
  6
Continuous
 62
     7
370
     0
100
AcDbLine
 10
29.679312
 20
-11.613
 30
0.0
 11
29.687115
 21
-11.73774
 31
0.0
  0
LINE
  5
382
330
6FD
100
AcDbEntity
  8
Level 46
  6
Continuous
 62
     7
370
     0
100
AcDbLine
 10
29.679312
 20
-11.580302
 30
0.0
 11
29.783479
 21
-11.580302
 31
0.0
  0
INSERT
  5
383
330
6FD
100
AcDbEntity
  8
Level 46
  6
Continuous
 62
     7
370
     0
100
AcDbBlockReference
  2
LARROW
 10
29.783479
 20
-11.580302
 30
0.0
  0
INSERT
  5
385
330
6FD
100
AcDbEntity
  8
Level 46
  6
Continuous
 62
     7
370
     0
100
AcDbBlockReference
  2
LARROW
 10
29.679312
 20
-11.580302
 30
0.0
 50
180.0
  0
LINE
  5
387
330
6FD
100
AcDbEntity
  8
Level 46
  6
Continuous
 62
     7
370
     0
100
AcDbLine
 10
29.618115
 20
-11.550302
 30
0.0
 11
29.844677
 21
-11.550302
 31
0.0
  0
INSERT
  5
38A
330
6FD
100
AcDbEntity
  8
Level 46
  6
Continuous
 62
     7
370
     0
100
AcDbBlockReference
  2
LARROW
 10
29.783479
 20
-11.613
 30
0.0
 41
0.999999
 42
0.999999
 43
0.999999
 50
86.416609
  0
INSERT
  5
38C
330
6FD
100
AcDbEntity
  8
Level 46
  6
Continuous
 62
     7
370
     0
100
AcDbBlockReference
  2
LARROW
 10
29.679312
 20
-11.613
 30
0.0
 41
0.999999
 42
0.999999
 43
0.999999
 50
93.578847
  0
LINE
  5
38E
330
6FD
100
AcDbEntity
  8
Level 46
  6
Continuous
 62
     7
370
     0
100
AcDbLine
 10
29.639219
 20
-11.622302
 30
0.0
 11
29.687115
 21
-11.73774
 31
0.0
  0
LINE
  5
38F
330
6FD
100
AcDbEntity
  8
Level 46
  6
Continuous
 62
     7
370
     0
100
AcDbLine
 10
29.619948
 20
-11.650385
 30
0.0
 11
29.651198
 21
-11.651167
 31
0.0
  0
INSERT
  5
390
330
6FD
100
AcDbEntity
  8
Level 46
  6
Continuous
 62
     7
370
     0
100
AcDbBlockReference
  2
LARROW
 10
29.639219
 20
-11.622302
 30
0.0
 41
1.000002
 42
1.000002
 43
1.000002
 50
112.533892
  0
INSERT
  5
392
330
6FD
100
AcDbEntity
  8
Level 46
  6
Continuous
 62
     7
370
     0
100
AcDbBlockReference
  2
LARROW
 10
29.619948
 20
-11.650385
 30
0.0
 41
1.0
 42
1.0
 43
1.0
 50
178.56791
  0
LWPOLYLINE
  5
39A
330
6FD
100
AcDbEntity
  8
Level 46
  6
Continuous
 62
     7
370
     0
100
AcDbPolyline
 90
        3
 70
   128
 43
0.0
 10
29.589312
 20
-11.740125
 10
29.60575
 20
-11.740125
 10
29.62
 20
-11.723562
  0
INSERT
  5
39B
330
6FD
100
AcDbEntity
  8
Level 46
  6
Continuous
 62
     7
370
     0
100
AcDbBlockReference
  2
LARROW
 10
29.62
 20
-11.723562
 30
0.0
 41
0.999997
 42
0.999997
 43
0.999997
 50
49.292065
  0
LINE
  5
39D
330
6FD
100
AcDbEntity
  8
Level 46
  6
Continuous
 62
     7
370
     0
100
AcDbLine
 10
29.844677
 20
-11.688979
 30
0.0
 11
29.844677
 21
-11.616802
 31
0.0
  0
LINE
  5
39E
330
6FD
100
AcDbEntity
  8
Level 46
  6
Continuous
 62
     7
370
     0
100
AcDbLine
 10
29.844677
 20
-11.606958
 30
0.0
 11
29.844677
 21
-11.535302
 31
0.0
  0
LINE
  5
39F
330
6FD
100
AcDbEntity
  8
Level 46
  6
Continuous
 62
     7
370
     0
100
AcDbLine
 10
29.618115
 20
-11.688979
 30
0.0
 11
29.618115
 21
-11.617552
 31
0.0
  0
LINE
  5
3A0
330
6FD
100
AcDbEntity
  8
Level 46
  6
Continuous
 62
     7
370
     0
100
AcDbLine
 10
29.618115
 20
-11.607333
 30
0.0
 11
29.618115
 21
-11.535302
 31
0.0
  0
LINE
  5
3A1
330
6FD
100
AcDbEntity
  8
Level 46
  6
Continuous
 62
     7
370
     0
100
AcDbLine
 10
30.529594
 20
-11.74401
 30
0.0
 11
30.663552
 21
-11.763615
 31
0.0
  0
LINE
  5
3A2
330
6FD
100
AcDbEntity
  8
Level 46
  6
Continuous
 62
     7
370
     0
100
AcDbLine
 10
30.554271
 20
-11.702813
 30
0.0
 11
30.591427
 21
-11.753052
 31
0.0
  0
LINE
  5
3A3
330
6FD
100
AcDbEntity
  8
Level 46
  6
Continuous
 62
     7
370
     0
100
AcDbLine
 10
30.563448
 20
-11.69849
 30
0.0
 11
30.56976
 21
-11.72375
 31
0.0
  0
INSERT
  5
3A4
330
6FD
100
AcDbEntity
  8
Level 46
  6
Continuous
 62
     7
370
     0
100
AcDbBlockReference
  2
LARROW
 10
30.529594
 20
-11.74401
 30
0.0
 41
1.000001
 42
1.000001
 43
1.000001
 50
171.676069
  0
INSERT
  5
3A6
330
6FD
100
AcDbEntity
  8
Level 46
  6
Continuous
 62
     7
370
     0
100
AcDbBlockReference
  2
LARROW
 10
30.554271
 20
-11.702813
 30
0.0
 41
1.000001
 42
1.000001
 43
1.000001
 50
126.486017
  0
INSERT
  5
3A8
330
6FD
100
AcDbEntity
  8
Level 46
  6
Continuous
 62
     7
370
     0
100
AcDbBlockReference
  2
LARROW
 10
30.563448
 20
-11.69849
 30
0.0
 41
0.999999
 42
0.999999
 43
0.999999
 50
104.030743
  0
LINE
  5
3AD
330
6FD
100
AcDbEntity
  8
Level 46
  6
Continuous
 62
     7
370
     0
100
AcDbLine
 10
30.495229
 20
-11.738979
 30
0.0
 11
30.187938
 21
-11.738979
 31
0.0
  0
LINE
  5
3AE
330
6FD
100
AcDbEntity
  8
Level 46
  6
DGN Style 7
 62
     7
370
     0
100
AcDbLine
 10
30.529594
 20
-11.74401
 30
0.0
 11
30.495229
 21
-11.738979
 31
0.0
  0
LINE
  5
3AF
330
6FD
100
AcDbEntity
  8
Level 46
  6
Continuous
 62
     7
370
     0
100
AcDbLine
 10
30.203563
 20
-11.672104
 30
0.0
 11
30.203563
 21
-11.715542
 31
0.0
  0
LINE
  5
3B0
330
6FD
100
AcDbEntity
  8
Level 46
  6
Continuous
 62
     7
370
     0
100
AcDbLine
 10
30.203563
 20
-11.738979
 30
0.0
 11
30.203563
 21
-11.772417
 31
0.0
  0
INSERT
  5
3B1
330
6FD
100
AcDbEntity
  8
Level 46
  6
Continuous
 62
     7
370
     0
100
AcDbBlockReference
  2
LARROW
 10
30.203563
 20
-11.715542
 30
0.0
 50
270.0
  0
INSERT
  5
3B3
330
6FD
100
AcDbEntity
  8
Level 46
  6
Continuous
 62
     7
370
     0
100
AcDbBlockReference
  2
LARROW
 10
30.203563
 20
-11.738979
 30
0.0
 50
90.0
  0
LINE
  5
3B6
330
6FD
100
AcDbEntity
  8
Level 46
  6
Continuous
 62
     7
370
     0
100
AcDbLine
 10
30.603177
 20
-11.586396
 30
0.0
 11
30.560115
 21
-11.658792
 31
0.0
  0
LINE
  5
3B7
330
6FD
100
AcDbEntity
  8
Level 46
  6
Continuous
 62
     7
370
     0
100
AcDbLine
 10
30.618437
 20
-11.612479
 30
0.0
 11
30.587198
 21
-11.61326
 31
0.0
  0
LINE
  5
3B8
330
6FD
100
AcDbEntity
  8
Level 46
  6
Continuous
 62
     7
370
     0
100
AcDbLine
 10
30.55774
 20
-11.572052
 30
0.0
 11
30.550365
 21
-11.670156
 31
0.0
  0
LINE
  5
3B9
330
6FD
100
AcDbEntity
  8
Level 46
  6
Continuous
 62
     7
370
     0
100
AcDbLine
 10
30.432719
 20
-11.572052
 30
0.0
 11
30.440219
 21
-11.671781
 31
0.0
  0
INSERT
  5
3BA
330
6FD
100
AcDbEntity
  8
Level 46
  6
Continuous
 62
     7
370
     0
100
AcDbBlockReference
  2
LARROW
 10
30.618437
 20
-11.612479
 30
0.0
 41
1.000001
 42
1.000001
 43
1.000001
 50
1.432623
  0
INSERT
  5
3BC
330
6FD
100
AcDbEntity
  8
Level 46
  6
Continuous
 62
     7
370
     0
100
AcDbBlockReference
  2
LARROW
 10
30.603177
 20
-11.586396
 30
0.0
 41
0.999998
 42
0.999998
 43
0.999998
 50
59.254961
  0
INSERT
  5
3BE
330
6FD
100
AcDbEntity
  8
Level 46
  6
Continuous
 62
     7
370
     0
100
AcDbBlockReference
  2
LARROW
 10
30.55774
 20
-11.572052
 30
0.0
 41
0.999998
 42
0.999998
 43
0.999998
 50
85.695854
  0
INSERT
  5
3C0
330
6FD
100
AcDbEntity
  8
Level 46
  6
Continuous
 62
     7
370
     0
100
AcDbBlockReference
  2
LARROW
 10
30.432719
 20
-11.572052
 30
0.0
 41
1.000002
 42
1.000002
 43
1.000002
 50
94.299583
  0
LINE
  5
3C2
330
6FD
100
AcDbEntity
  8
Level 46
  6
Continuous
 62
     7
370
     0
100
AcDbLine
 10
30.557729
 20
-11.564552
 30
0.0
 11
30.557729
 21
-11.524708
 31
0.0
  0
LINE
  5
3C3
330
6FD
100
AcDbEntity
  8
Level 46
  6
Continuous
 62
     7
370
     0
100
AcDbLine
 10
30.432729
 20
-11.564552
 30
0.0
 11
30.432729
 21
-11.524708
 31
0.0
  0
LINE
  5
3C4
330
6FD
100
AcDbEntity
  8
Level 46
  6
Continuous
 62
     7
370
     0
100
AcDbLine
 10
30.557729
 20
-11.539708
 30
0.0
 11
30.432729
 21
-11.539708
 31
0.0
  0
LINE
  5
3C5
330
6FD
100
AcDbEntity
  8
Level 46
  6
Continuous
 62
     7
370
     0
100
AcDbLine
 10
30.620229
 20
-11.597875
 30
0.0
 11
30.620229
 21
-11.575823
 31
0.0
  0
LINE
  5
3C6
330
6FD
100
AcDbEntity
  8
Level 46
  6
Continuous
 62
     7
370
     0
100
AcDbLine
 10
30.620229
 20
-11.564458
 30
0.0
 11
30.620229
 21
-11.494708
 31
0.0
  0
LINE
  5
3C7
330
6FD
100
AcDbEntity
  8
Level 46
  6
Continuous
 62
     7
370
     0
100
AcDbLine
 10
30.370229
 20
-11.597875
 30
0.0
 11
30.370229
 21
-11.576958
 31
0.0
  0
LINE
  5
3C8
330
6FD
100
AcDbEntity
  8
Level 46
  6
Continuous
 62
     7
370
     0
100
AcDbLine
 10
30.370229
 20
-11.564083
 30
0.0
 11
30.370229
 21
-11.494708
 31
0.0
  0
LINE
  5
3C9
330
6FD
100
AcDbEntity
  8
Level 46
  6
Continuous
 62
     7
370
     0
100
AcDbLine
 10
30.620229
 20
-11.509708
 30
0.0
 11
30.370229
 21
-11.509708
 31
0.0
  0
INSERT
  5
3CA
330
6FD
100
AcDbEntity
  8
Level 46
  6
Continuous
 62
     7
370
     0
100
AcDbBlockReference
  2
LARROW
 10
30.557729
 20
-11.539708
 30
0.0
  0
INSERT
  5
3CC
330
6FD
100
AcDbEntity
  8
Level 46
  6
Continuous
 62
     7
370
     0
100
AcDbBlockReference
  2
LARROW
 10
30.432729
 20
-11.539708
 30
0.0
 50
180.0
  0
LINE
  5
3D5
330
6FD
100
AcDbEntity
  8
Level 46
  6
Continuous
 62
     7
370
     0
100
AcDbLine
 10
29.632031
 20
-12.91176
 30
0.0
 11
29.632031
 21
-12.967573
 31
0.0
  0
LINE
  5
3D6
330
6FD
100
AcDbEntity
  8
Level 46
  6
Continuous
 62
     7
370
     0
100
AcDbLine
 10
30.320708
 20
-12.962542
 30
0.0
 11
30.320708
 21
-13.420875
 31
0.0
  0
LINE
  5
3D7
330
6FD
100
AcDbEntity
  8
Level 46
  6
Continuous
 62
     7
370
     0
100
AcDbLine
 10
30.320708
 20
-12.910458
 30
0.0
 11
30.320708
 21
-12.962542
 31
0.0
  0
LINE
  5
3D8
330
6FD
100
AcDbEntity
  8
Level 46
  6
Continuous
 62
     7
370
     0
100
AcDbLine
 10
30.359281
 20
-13.327125
 30
0.0
 11
30.359281
 21
-13.420875
 31
0.0
  0
LINE
  5
3D9
330
6FD
100
AcDbEntity
  8
Level 46
  6
Continuous
 62
     7
370
     0
100
AcDbLine
 10
29.632031
 20
-12.967573
 30
0.0
 11
29.632031
 21
-13.469052
 31
0.0
  0
LINE
  5
3DA
330
6FD
100
AcDbEntity
  8
Level 46
  6
Continuous
 62
     7
370
     0
100
AcDbLine
 10
29.670604
 20
-13.364885
 30
0.0
 11
29.670604
 21
-13.469052
 31
0.0
  0
LINE
  5
3DB
330
6FD
100
AcDbEntity
  8
Level 46
  6
Continuous
 62
     7
370
     0
100
AcDbLine
 10
31.537708
 20
-12.163458
 30
0.0
 11
31.628854
 21
-12.163458
 31
0.0
  0
LINE
  5
3DC
330
6FD
100
AcDbEntity
  8
Level 46
  6
Continuous
 62
     7
370
     0
100
AcDbLine
 10
31.022083
 20
-12.163458
 30
0.0
 11
30.930937
 21
-12.163458
 31
0.0
  0
LINE
  5
3DD
330
6FD
100
AcDbEntity
  8
Level 10
  6
Continuous
 62
     7
370
    13
100
AcDbLine
 10
31.035104
 20
-12.163458
 30
0.0
 11
31.524687
 21
-12.163458
 31
0.0
  0
LINE
  5
3DE
330
6FD
100
AcDbEntity
  8
Level 10
  6
Continuous
 62
     7
370
    13
100
AcDbLine
 10
31.522
 20
-12.125
 30
0.0
 11
31.36799
 21
-12.086521
 31
0.0
  0
INSERT
  5
3DF
330
6FD
100
AcDbEntity
  8
Level 46
  6
Continuous
 62
     7
370
     0
100
AcDbBlockReference
  2
LARROW
 10
31.029896
 20
-12.205125
 30
0.0
 50
180.0
  0
INSERT
  5
3E1
330
6FD
100
AcDbEntity
  8
Level 46
  6
Continuous
 62
     7
370
     0
100
AcDbBlockReference
  2
LARROW
 10
31.529896
 20
-12.205125
 30
0.0
  0
LINE
  5
3E3
330
6FD
100
AcDbEntity
  8
Level 46
  6
DGN Style 7
 62
     7
370
     0
100
AcDbLine
 10
31.201615
 20
-12.084219
 30
0.0
 11
31.279896
 21
-12.0645
 31
0.0
  0
INSERT
  5
3E4
330
6FD
100
AcDbEntity
  8
Level 46
  6
Continuous
 62
     7
370
     0
100
AcDbBlockReference
  2
LARROW
 10
30.988229
 20
-12.163458
 30
0.0
 50
270.0
  0
INSERT
  5
3E6
330
6FD
100
AcDbEntity
  8
Level 46
  6
Continuous
 62
     7
370
     0
100
AcDbBlockReference
  2
LARROW
 10
30.946562
 20
-12.163458
 30
0.0
 50
270.0
  0
INSERT
  5
3E8
330
6FD
100
AcDbEntity
  8
Level 46
  6
Continuous
 62
     7
370
     0
100
AcDbBlockReference
  2
LARROW
 10
30.946562
 20
-12.0645
 30
0.0
 50
90.0
  0
INSERT
  5
3EA
330
6FD
100
AcDbEntity
  8
Level 46
  6
Continuous
 62
     7
370
     0
100
AcDbBlockReference
  2
LARROW
 10
30.946562
 20
-12.0645
 30
0.0
 50
270.0
  0
INSERT
  5
3EC
330
6FD
100
AcDbEntity
  8
Level 46
  6
Continuous
 62
     7
370
     0
100
AcDbBlockReference
  2
LARROW
 10
30.988229
 20
-11.896792
 30
0.0
 50
90.0
  0
INSERT
  5
3F0
330
6FD
100
AcDbEntity
  8
Level 46
  6
Continuous
 62
     7
370
    13
100
AcDbBlockReference
  2
LARROW_1
 10
30.946562
 20
-11.736375
 30
0.0
 50
90.0
  0
INSERT
  5
3F2
330
6FD
100
AcDbEntity
  8
Level 46
  6
Continuous
 62
     7
370
    13
100
AcDbBlockReference
  2
LARROW_1
 10
30.946562
 20
-11.736375
 30
0.0
 50
270.0
  0
INSERT
  5
3F4
330
6FD
100
AcDbEntity
  8
Level 46
  6
Continuous
 62
     7
370
    13
100
AcDbBlockReference
  2
LARROW_1
 10
30.946562
 20
-11.574917
 30
0.0
 50
90.0
  0
INSERT
  5
3F9
330
6FD
100
AcDbEntity
  8
Level 46
  6
Continuous
 62
     7
370
     0
100
AcDbBlockReference
  2
LARROW
 10
31.571562
 20
-12.163458
 30
0.0
 50
270.0
  0
INSERT
  5
3FB
330
6FD
100
AcDbEntity
  8
Level 46
  6
Continuous
 62
     7
370
     0
100
AcDbBlockReference
  2
LARROW
 10
31.613229
 20
-12.163458
 30
0.0
 50
270.0
  0
INSERT
  5
3FD
330
6FD
100
AcDbEntity
  8
Level 46
  6
Continuous
 62
     7
370
     0
100
AcDbBlockReference
  2
LARROW
 10
31.571562
 20
-11.850958
 30
0.0
 50
90.0
  0
INSERT
  5
3FF
330
6FD
100
AcDbEntity
  8
Level 46
  6
Continuous
 62
     7
370
     0
100
AcDbBlockReference
  2
LARROW
 10
31.613229
 20
-11.574917
 30
0.0
 50
90.0
  0
INSERT
  5
401
330
6FD
100
AcDbEntity
  8
Level 46
  6
Continuous
 62
     7
370
     0
100
AcDbBlockReference
  2
LARROW
 10
31.25125
 20
-11.850958
 30
0.0
 50
180.0
  0
INSERT
  5
403
330
6FD
100
AcDbEntity
  8
Level 46
  6
Continuous
 62
     7
370
     0
100
AcDbBlockReference
  2
LARROW
 10
31.308542
 20
-11.850958
 30
0.0
  0
INSERT
  5
405
330
6FD
100
AcDbEntity
  8
Level 46
  6
Continuous
 62
     7
370
     0
100
AcDbBlockReference
  2
LARROW
 10
31.308542
 20
-11.850958
 30
0.0
 50
180.0
  0
LINE
  5
408
330
6FD
100
AcDbEntity
  8
Level 46
  6
DGN Style 7
 62
     7
370
     0
100
AcDbLine
 10
31.279896
 20
-11.557906
 30
0.0
 11
31.279896
 21
-11.622371
 31
0.0
  0
LINE
  5
409
330
6FD
100
AcDbEntity
  8
Level 46
  6
DGN Style 7
 62
     7
370
     0
100
AcDbLine
 10
31.279896
 20
-11.863573
 30
0.0
 11
31.279896
 21
-12.163458
 31
0.0
  0
INSERT
  5
40F
330
6FD
100
AcDbEntity
  8
Level 46
  6
Continuous
 62
     7
370
    13
100
AcDbBlockReference
  2
LARROW_1
 10
31.154896
 20
-11.509708
 30
0.0
 50
180.0
  0
INSERT
  5
411
330
6FD
100
AcDbEntity
  8
Level 46
  6
Continuous
 62
     7
370
    13
100
AcDbBlockReference
  2
LARROW_1
 10
31.404896
 20
-11.509708
 30
0.0
  0
LINE
  5
414
330
6FD
100
AcDbEntity
  8
Level 46
  6
Continuous
 62
     7
370
    53
100
AcDbLine
 10
31.10576
 20
-12.258302
 30
0.0
 11
31.457969
 21
-12.258302
 31
0.0
  0
LINE
  5
416
330
6FD
100
AcDbEntity
  8
Level 10
  6
Continuous
 62
     7
370
    13
100
AcDbLine
 10
31.029896
 20
-12.15825
 30
0.0
 11
31.029896
 21
-12.135104
 31
0.0
  0
LINE
  5
417
330
6FD
100
AcDbEntity
  8
Level 10
  6
Continuous
 62
     7
370
    13
100
AcDbLine
 10
31.529896
 20
-12.15825
 30
0.0
 11
31.529896
 21
-12.135104
 31
0.0
  0
LINE
  5
418
330
6FD
100
AcDbEntity
  8
Level 46
  6
Continuous
 62
     7
370
     0
100
AcDbLine
 10
31.029896
 20
-12.171271
 30
0.0
 11
31.029896
 21
-12.22075
 31
0.0
  0
LINE
  5
419
330
6FD
100
AcDbEntity
  8
Level 46
  6
Continuous
 62
     7
370
     0
100
AcDbLine
 10
31.529896
 20
-12.171271
 30
0.0
 11
31.529896
 21
-12.22075
 31
0.0
  0
ARC
  5
41B
330
6FD
100
AcDbEntity
  8
Level 10
  6
Continuous
 62
     7
370
    13
100
AcDbCircle
 10
31.035104
 20
-12.15825
 30
0.0
 40
0.0052083333333333
100
AcDbArc
 50
180.0
 51
270.0
  0
LINE
  5
41C
330
6FD
100
AcDbEntity
  8
Level 46
  6
DGN Style 7
 62
     7
370
     0
100
AcDbLine
 10
30.972604
 20
-11.896792
 30
0.0
 11
31.333312
 21
-11.896792
 31
0.0
  0
LINE
  5
41E
330
6FD
100
AcDbEntity
  8
Level 10
  6
Continuous
 62
     7
370
    13
100
AcDbLine
 10
31.037781
 20
-12.125
 30
0.0
 11
31.191802
 21
-12.086521
 31
0.0
  0
ARC
  5
41F
330
6FD
100
AcDbEntity
  8
Level 10
  6
Continuous
 62
     7
370
    13
100
AcDbCircle
 10
31.040312
 20
-12.135102
 30
0.0
 40
0.0104166666666667
100
AcDbArc
 50
104.036244
 51
180.0
  0
ARC
  5
420
330
6FD
100
AcDbEntity
  8
Level 10
  6
Continuous
 62
     7
370
    13
100
AcDbCircle
 10
-31.519479
 20
-12.135104
 30
0.0
 40
0.0104166666666667
210
0.0
220
0.0
230
-1.0
100
AcDbArc
 50
104.020692
 51
180.0
  0
LINE
  5
423
330
6FD
100
AcDbEntity
  8
Level 46
  6
Continuous
 62
     7
370
     0
100
AcDbLine
 10
31.029896
 20
-12.205125
 30
0.0
 11
31.529896
 21
-12.205125
 31
0.0
  0
LINE
  5
424
330
6FD
100
AcDbEntity
  8
Level 46
  6
Continuous
 62
     7
370
     0
100
AcDbLine
 10
31.571562
 20
-11.850958
 30
0.0
 11
31.571562
 21
-12.163458
 31
0.0
  0
LINE
  5
425
330
6FD
100
AcDbEntity
  8
Level 46
  6
Continuous
 62
     7
370
     0
100
AcDbLine
 10
31.613229
 20
-11.574917
 30
0.0
 11
31.613229
 21
-12.163458
 31
0.0
  0
LINE
  5
426
330
6FD
100
AcDbEntity
  8
Level 46
  6
Continuous
 62
     7
370
     0
100
AcDbLine
 10
30.988229
 20
-11.896792
 30
0.0
 11
30.988229
 21
-12.163458
 31
0.0
  0
LINE
  5
427
330
6FD
100
AcDbEntity
  8
Level 46
  6
Continuous
 62
     7
370
     0
100
AcDbLine
 10
30.946562
 20
-12.0645
 30
0.0
 11
30.946562
 21
-12.163458
 31
0.0
  0
LINE
  5
428
330
6FD
100
AcDbEntity
  8
Level 46
  6
Continuous
 62
     7
370
     0
100
AcDbLine
 10
30.946562
 20
-11.574917
 30
0.0
 11
30.946562
 21
-11.736375
 31
0.0
  0
LINE
  5
429
330
6FD
100
AcDbEntity
  8
Level 46
  6
Continuous
 62
     7
370
     0
100
AcDbLine
 10
30.946562
 20
-11.736375
 30
0.0
 11
30.946562
 21
-12.0645
 31
0.0
  0
LINE
  5
42A
330
6FD
100
AcDbEntity
  8
Level 46
  6
Continuous
 62
     7
370
     0
100
AcDbLine
 10
31.279896
 20
-12.0645
 30
0.0
 11
30.998917
 21
-12.0645
 31
0.0
  0
LINE
  5
42B
330
6FD
100
AcDbEntity
  8
Level 46
  6
Continuous
 62
     7
370
     0
100
AcDbLine
 10
30.98001
 20
-12.0645
 30
0.0
 11
30.930937
 21
-12.0645
 31
0.0
  0
ARC
  5
430
330
6FD
100
AcDbEntity
  8
Level 10
  6
Continuous
 62
     7
370
    13
100
AcDbCircle
 10
31.524687
 20
-12.15825
 30
0.0
 40
0.0052083333333333
100
AcDbArc
 50
270.0
 51
0.0
  0
LWPOLYLINE
  5
431
330
6FD
100
AcDbEntity
  8
Level 46
  6
Continuous
 62
     7
370
     0
100
AcDbPolyline
 90
        3
 70
   128
 43
0.0
 10
31.495062
 20
-12.142927
 10
31.5115
 20
-12.142927
 10
31.528083
 20
-12.162198
  0
INSERT
  5
432
330
6FD
100
AcDbEntity
  8
Level 46
  6
Continuous
 62
     7
370
     0
100
AcDbBlockReference
  2
LARROW
 10
31.528083
 20
-12.162198
 30
0.0
 41
1.0
 42
1.0
 43
1.0
 50
310.713433
  0
LWPOLYLINE
  5
434
330
6FD
100
AcDbEntity
  8
Level 46
  6
Continuous
 62
     7
370
     0
100
AcDbPolyline
 90
        3
 70
   128
 43
0.0
 10
31.065865
 20
-12.146875
 10
31.049427
 20
-12.146875
 10
31.032948
 20
-12.127729
  0
INSERT
  5
435
330
6FD
100
AcDbEntity
  8
Level 46
  6
Continuous
 62
     7
370
     0
100
AcDbBlockReference
  2
LARROW
 10
31.032948
 20
-12.127729
 30
0.0
 41
0.999999
 42
0.999999
 43
0.999999
 50
130.719106
  0
LINE
  5
43A
330
6FD
100
AcDbEntity
  8
Level 46
  6
Continuous
 62
     7
370
     0
100
AcDbLine
 10
30.988229
 20
-11.692937
 30
0.0
 11
30.988229
 21
-11.736375
 31
0.0
  0
LINE
  5
43B
330
6FD
100
AcDbEntity
  8
Level 46
  6
Continuous
 62
     7
370
     0
100
AcDbLine
 10
30.988229
 20
-11.754604
 30
0.0
 11
30.988229
 21
-11.788042
 31
0.0
  0
INSERT
  5
43C
330
6FD
100
AcDbEntity
  8
Level 46
  6
Continuous
 62
     7
370
     0
100
AcDbBlockReference
  2
LARROW
 10
30.988229
 20
-11.736375
 30
0.0
 50
270.0
  0
INSERT
  5
43E
330
6FD
100
AcDbEntity
  8
Level 46
  6
Continuous
 62
     7
370
     0
100
AcDbBlockReference
  2
LARROW
 10
30.988229
 20
-11.754604
 30
0.0
 50
90.0
  0
LINE
  5
441
330
6FD
100
AcDbEntity
  8
Level 46
  6
Continuous
 62
     7
370
     0
100
AcDbLine
 10
31.338229
 20
-11.539708
 30
0.0
 11
31.221562
 21
-11.539708
 31
0.0
  0
LINE
  5
442
330
6FD
100
AcDbEntity
  8
Level 46
  6
Continuous
 62
     7
370
     0
100
AcDbLine
 10
31.404896
 20
-11.661917
 30
0.0
 11
31.404896
 21
-11.578375
 31
0.0
  0
LINE
  5
443
330
6FD
100
AcDbEntity
  8
Level 46
  6
Continuous
 62
     7
370
     0
100
AcDbLine
 10
31.404896
 20
-11.571521
 30
0.0
 11
31.404896
 21
-11.494708
 31
0.0
  0
LINE
  5
444
330
6FD
100
AcDbEntity
  8
Level 46
  6
Continuous
 62
     7
370
     0
100
AcDbLine
 10
31.154896
 20
-11.661917
 30
0.0
 11
31.154896
 21
-11.578375
 31
0.0
  0
LINE
  5
445
330
6FD
100
AcDbEntity
  8
Level 46
  6
Continuous
 62
     7
370
     0
100
AcDbLine
 10
31.154896
 20
-11.571521
 30
0.0
 11
31.154896
 21
-11.494708
 31
0.0
  0
LINE
  5
446
330
6FD
100
AcDbEntity
  8
Level 46
  6
Continuous
 62
     7
370
     0
100
AcDbLine
 10
31.404896
 20
-11.509708
 30
0.0
 11
31.154896
 21
-11.509708
 31
0.0
  0
INSERT
  5
447
330
6FD
100
AcDbEntity
  8
Level 46
  6
Continuous
 62
     7
370
     0
100
AcDbBlockReference
  2
LARROW
 10
31.338229
 20
-11.539708
 30
0.0
  0
INSERT
  5
449
330
6FD
100
AcDbEntity
  8
Level 46
  6
Continuous
 62
     7
370
     0
100
AcDbBlockReference
  2
LARROW
 10
31.221562
 20
-11.539708
 30
0.0
 50
180.0
  0
ARC
  5
450
330
6FD
100
AcDbEntity
  8
Level 10
  6
Continuous
 62
     7
370
    13
100
AcDbCircle
 10
32.641875
 20
-11.850958
 30
0.0
 40
1.333333333333333
100
AcDbArc
 50
180.0
 51
187.911494
  0
ARC
  5
451
330
6FD
100
AcDbEntity
  8
Level 10
  6
Continuous
 62
     7
370
    13
100
AcDbCircle
 10
31.975208
 20
-11.850958
 30
0.0
 40
0.6666666666666666
100
AcDbArc
 50
172.110325
 51
180.0
  0
ARC
  5
452
330
6FD
100
AcDbEntity
  8
Level 10
  6
Continuous
 62
     7
370
    13
100
AcDbCircle
 10
31.383138
 20
-12.02588
 30
0.0
 40
0.0625
100
AcDbArc
 50
187.911494
 51
255.970442
  0
ARC
  5
453
330
6FD
100
AcDbEntity
  8
Level 10
  6
Continuous
 62
     7
370
    13
100
AcDbCircle
 10
-29.917917
 20
-11.850958
 30
0.0
 40
1.333333333333333
210
0.0
220
0.0
230
-1.0
100
AcDbArc
 50
180.0
 51
187.911494
  0
ARC
  5
454
330
6FD
100
AcDbEntity
  8
Level 10
  6
Continuous
 62
     7
370
    13
100
AcDbCircle
 10
-31.176654
 20
-12.02588
 30
0.0
 40
0.0625
210
0.0
220
0.0
230
-1.0
100
AcDbArc
 50
187.911494
 51
255.970442
  0
LINE
  5
455
330
6FD
100
AcDbEntity
  8
Level 46
  6
Continuous
 62
     7
370
     0
100
AcDbLine
 10
31.587187
 20
-11.850958
 30
0.0
 11
31.308542
 21
-11.850958
 31
0.0
  0
ARC
  5
456
330
6FD
100
AcDbEntity
  8
Level 10
  6
Continuous
 62
     7
370
    13
100
AcDbCircle
 10
-30.584583
 20
-11.850958
 30
0.0
 40
0.6666666666666666
210
0.0
220
0.0
230
-1.0
100
AcDbArc
 50
172.110325
 51
180.0
  0
LINE
  5
457
330
6FD
100
AcDbEntity
  8
Level 46
  6
Continuous
 62
     7
370
     0
100
AcDbLine
 10
31.25125
 20
-11.850958
 30
0.0
 11
31.308542
 21
-11.850958
 31
0.0
  0
LINE
  5
458
330
6FD
100
AcDbEntity
  8
Level 46
  6
Continuous
 62
     7
370
     0
100
AcDbLine
 10
31.321229
 20
-12.034479
 30
0.0
 11
31.506073
 21
-12.008792
 31
0.0
  0
INSERT
  5
459
330
6FD
100
AcDbEntity
  8
Level 46
  6
Continuous
 62
     7
370
     0
100
AcDbBlockReference
  2
LARROW
 10
31.321229
 20
-12.034479
 30
0.0
 41
1.0
 42
1.0
 43
1.0
 50
187.911597
  0
LINE
  5
45B
330
6FD
100
AcDbEntity
  8
Level 46
  6
Continuous
 62
     7
370
     0
100
AcDbLine
 10
31.36799
 20
-12.086521
 30
0.0
 11
31.383135
 21
-12.025875
 31
0.0
  0
INSERT
  5
45C
330
6FD
100
AcDbEntity
  8
Level 46
  6
Continuous
 62
     7
370
     0
100
AcDbBlockReference
  2
LARROW
 10
31.36799
 20
-12.086521
 30
0.0
 41
1.000002
 42
1.000002
 43
1.000002
 50
255.97754
  0
LINE
  5
45E
330
6FD
100
AcDbEntity
  8
Level 46
  6
Continuous
 62
     7
370
     0
100
AcDbLine
 10
31.279896
 20
-11.736375
 30
0.0
 11
30.930937
 21
-11.736375
 31
0.0
  0
LINE
  5
45F
330
6FD
100
AcDbEntity
  8
Level 46
  6
Continuous
 62
     7
370
     0
100
AcDbLine
 10
31.279896
 20
-11.754604
 30
0.0
 11
30.972604
 21
-11.754604
 31
0.0
  0
LINE
  5
460
330
6FD
100
AcDbEntity
  8
Level 10
  6
Continuous
 62
     7
370
    13
100
AcDbLine
 10
31.401062
 20
-11.69599
 30
0.0
 11
31.348427
 21
-11.713542
 31
0.0
  0
LINE
  5
461
330
6FD
100
AcDbEntity
  8
Level 10
  6
Continuous
 62
     7
370
    13
100
AcDbLine
 10
31.158729
 20
-11.696
 30
0.0
 11
31.211344
 21
-11.713531
 31
0.0
  0
LINE
  5
462
330
6FD
100
AcDbEntity
  8
Level 46
  6
DGN Style 7
 62
     7
370
     0
100
AcDbLine
 10
31.314854
 20
-11.759448
 30
0.0
 11
31.279896
 21
-11.754604
 31
0.0
  0
LINE
  5
463
330
6FD
100
AcDbEntity
  8
Level 46
  6
Continuous
 62
     7
370
     0
100
AcDbLine
 10
31.314854
 20
-11.759448
 30
0.0
 11
31.447073
 21
-11.777771
 31
0.0
  0
INSERT
  5
464
330
6FD
100
AcDbEntity
  8
Level 46
  6
Continuous
 62
     7
370
     0
100
AcDbBlockReference
  2
LARROW
 10
31.314854
 20
-11.759448
 30
0.0
 41
0.999999
 42
0.999999
 43
0.999999
 50
172.110213
  0
ARC
  5
466
330
6FD
100
AcDbEntity
  8
Level 10
  6
Continuous
 62
     7
370
    13
100
AcDbCircle
 10
31.37676
 20
-11.768021
 30
0.0
 40
0.0624970294432952
100
AcDbArc
 50
130.181081
 51
172.115697
  0
ARC
  5
467
330
6FD
100
AcDbEntity
  8
Level 10
  6
Continuous
 62
     7
370
    13
100
AcDbCircle
 10
-31.35996
 20
-11.748127
 30
0.0
 40
0.0364583333333333
210
0.0
220
0.0
230
-1.0
100
AcDbArc
 50
49.818919
 51
71.563019
  0
ARC
  5
468
330
6FD
100
AcDbEntity
  8
Level 10
  6
Continuous
 62
     7
370
    13
100
AcDbCircle
 10
-31.183031
 20
-11.768021
 30
0.0
 40
0.0624970294432952
210
0.0
220
0.0
230
-1.0
100
AcDbArc
 50
130.163697
 51
172.115697
  0
ARC
  5
469
330
6FD
100
AcDbEntity
  8
Level 10
  6
Continuous
 62
     7
370
    13
100
AcDbCircle
 10
31.199799
 20
-11.748154
 30
0.0
 40
0.0365
100
AcDbArc
 50
49.836303
 51
71.567653
  0
LINE
  5
46A
330
6FD
100
AcDbEntity
  8
Level 46
  6
Continuous
 62
     7
370
     0
100
AcDbLine
 10
31.336437
 20
-11.720271
 30
0.0
 11
31.37676
 21
-11.768031
 31
0.0
  0
LINE
  5
46B
330
6FD
100
AcDbEntity
  8
Level 46
  6
Continuous
 62
     7
370
     0
100
AcDbLine
 10
31.348427
 20
-11.713542
 30
0.0
 11
31.359958
 21
-11.748135
 31
0.0
  0
INSERT
  5
46C
330
6FD
100
AcDbEntity
  8
Level 46
  6
Continuous
 62
     7
370
     0
100
AcDbBlockReference
  2
LARROW
 10
31.336437
 20
-11.720271
 30
0.0
 41
1.000001
 42
1.000001
 43
1.000001
 50
130.173485
  0
INSERT
  5
46E
330
6FD
100
AcDbEntity
  8
Level 46
  6
Continuous
 62
     7
370
     0
100
AcDbBlockReference
  2
LARROW
 10
31.348427
 20
-11.713542
 30
0.0
 41
1.0
 42
1.0
 43
1.0
 50
108.434864
  0
LINE
  5
470
330
6FD
100
AcDbEntity
  8
Level 46
  6
Continuous
 62
     7
370
     0
100
AcDbLine
 10
31.628854
 20
-11.574917
 30
0.0
 11
31.338208
 21
-11.574917
 31
0.0
  0
LINE
  5
471
330
6FD
100
AcDbEntity
  8
Level 46
  6
DGN Style 7
 62
     7
370
     0
100
AcDbLine
 10
31.348427
 20
-11.713542
 30
0.0
 11
31.279896
 21
-11.736375
 31
0.0
  0
LINE
  5
472
330
6FD
100
AcDbEntity
  8
Level 10
  6
Continuous
 62
     7
370
    13
100
AcDbLine
 10
31.399396
 20
-11.616021
 30
0.0
 11
31.404615
 21
-11.690687
 31
0.0
  0
LINE
  5
473
330
6FD
100
AcDbEntity
  8
Level 10
  6
Continuous
 62
     7
370
    13
100
AcDbLine
 10
31.160396
 20
-11.616021
 30
0.0
 11
31.155177
 21
-11.690687
 31
0.0
  0
ARC
  5
474
330
6FD
100
AcDbEntity
  8
Level 10
  6
Continuous
 62
     7
370
    13
100
AcDbCircle
 10
31.160373
 20
-11.691054
 30
0.0
 40
0.0052083333333333
100
AcDbArc
 50
176.0041
 51
251.576506
  0
ARC
  5
475
330
6FD
100
AcDbEntity
  8
Level 10
  6
Continuous
 62
     7
370
    13
100
AcDbCircle
 10
31.399423
 20
-11.691056
 30
0.0
 40
0.0052
100
AcDbArc
 50
288.355703
 51
4.056739
  0
LINE
  5
477
330
6FD
100
AcDbEntity
  8
Level 46
  6
DGN Style 7
 62
     7
370
     0
100
AcDbLine
 10
31.211344
 20
-11.713531
 30
0.0
 11
31.279896
 21
-11.736375
 31
0.0
  0
LINE
  5
479
330
6FD
100
AcDbEntity
  8
Level 46
  6
Continuous
 62
     7
370
     0
100
AcDbLine
 10
31.220906
 20
-11.574917
 30
0.0
 11
30.930937
 21
-11.574917
 31
0.0
  0
ARC
  5
47A
330
6FD
100
AcDbEntity
  8
Level 10
  6
Continuous
 62
     7
370
    13
100
AcDbCircle
 10
31.279896
 20
-12.40825
 30
0.0
 40
0.8333333333333333
100
AcDbArc
 50
85.986014
 51
94.013986
  0
LINE
  5
47B
330
6FD
100
AcDbEntity
  8
Level 46
  6
Continuous
 62
     7
370
     0
100
AcDbLine
 10
31.221562
 20
-11.564552
 30
0.0
 11
31.221562
 21
-11.524708
 31
0.0
  0
LINE
  5
47C
330
6FD
100
AcDbEntity
  8
Level 46
  6
Continuous
 62
     7
370
     0
100
AcDbLine
 10
31.338229
 20
-11.564552
 30
0.0
 11
31.338229
 21
-11.524708
 31
0.0
  0
LINE
  5
47E
330
6FD
100
AcDbEntity
  8
Level 46
  6
Continuous
 62
     7
370
     0
100
AcDbLine
 10
31.330937
 20
-11.680865
 30
0.0
 11
31.338229
 21
-11.576958
 31
0.0
  0
LINE
  5
47F
330
6FD
100
AcDbEntity
  8
Level 46
  6
Continuous
 62
     7
370
     0
100
AcDbLine
 10
31.221562
 20
-11.576958
 30
0.0
 11
31.227844
 21
-11.6665
 31
0.0
  0
ARC
  5
480
330
6FD
100
AcDbEntity
  8
Level 10
  6
Continuous
 62
     7
370
    13
100
AcDbCircle
 10
31.330937
 20
-11.680865
 30
0.0
 40
0.1041617837397204
100
AcDbArc
 50
59.2499
 51
85.985825
  0
ARC
  5
481
330
6FD
100
AcDbEntity
  8
Level 10
  6
Continuous
 62
     7
370
    13
100
AcDbCircle
 10
-31.228854
 20
-11.680865
 30
0.0
 40
0.1041617837397204
210
0.0
220
0.0
230
-1.0
100
AcDbArc
 50
59.2473
 51
85.985825
  0
ARC
  5
482
330
6FD
100
AcDbEntity
  8
Level 10
  6
Continuous
 62
     7
370
    13
100
AcDbCircle
 10
-31.368217
 20
-11.618204
 30
0.0
 40
0.03125
210
0.0
220
0.0
230
-1.0
100
AcDbArc
 50
120.7501
 51
175.997847
  0
ARC
  5
483
330
6FD
100
AcDbEntity
  8
Level 10
  6
Continuous
 62
     7
370
    13
100
AcDbCircle
 10
31.191572
 20
-11.618205
 30
0.0
 40
0.03125
100
AcDbArc
 50
120.7527
 51
175.999928
  0
INSERT
  5
484
330
6FD
100
AcDbEntity
  8
Level 46
  6
Continuous
 62
     7
370
     0
100
AcDbBlockReference
  2
LARROW
 10
31.338229
 20
-11.576958
 30
0.0
 41
0.999999
 42
0.999999
 43
0.999999
 50
85.986104
  0
INSERT
  5
486
330
6FD
100
AcDbEntity
  8
Level 46
  6
Continuous
 62
     7
370
     0
100
AcDbBlockReference
  2
LARROW
 10
31.221562
 20
-11.576958
 30
0.0
 41
1.000002
 42
1.000002
 43
1.000002
 50
94.012546
  0
LINE
  5
488
330
6FD
100
AcDbEntity
  8
Level 46
  6
Continuous
 62
     7
370
     0
100
AcDbLine
 10
31.384198
 20
-11.591344
 30
0.0
 11
31.330937
 21
-11.680865
 31
0.0
  0
LINE
  5
489
330
6FD
100
AcDbEntity
  8
Level 46
  6
Continuous
 62
     7
370
     0
100
AcDbLine
 10
31.399385
 20
-11.616021
 30
0.0
 11
31.368219
 21
-11.618198
 31
0.0
  0
INSERT
  5
48A
330
6FD
100
AcDbEntity
  8
Level 46
  6
Continuous
 62
     7
370
     0
100
AcDbBlockReference
  2
LARROW
 10
31.384198
 20
-11.591344
 30
0.0
 41
0.999997
 42
0.999997
 43
0.999997
 50
59.250889
  0
INSERT
  5
48C
330
6FD
100
AcDbEntity
  8
Level 46
  6
Continuous
 62
     7
370
     0
100
AcDbBlockReference
  2
LARROW
 10
31.399385
 20
-11.616021
 30
0.0
 41
1.0
 42
1.0
 43
1.0
 50
3.995704
  0
LWPOLYLINE
  5
48F
330
6FD
100
AcDbEntity
  8
Level 46
  6
Continuous
 62
     7
370
     0
100
AcDbPolyline
 90
        3
 70
   128
 43
0.0
 10
31.155771
 20
-11.6935
 10
31.183937
 20
-11.67849
 10
31.19499
 20
-11.67849
  0
INSERT
  5
490
330
6FD
100
AcDbEntity
  8
Level 46
  6
Continuous
 62
     7
370
     0
100
AcDbBlockReference
  2
LARROW
 10
31.155771
 20
-11.6935
 30
0.0
 41
1.000002
 42
1.000002
 43
1.000002
 50
208.053716
  0
LINE
  5
492
330
6FD
100
AcDbEntity
  8
Level 46
  6
Continuous
 62
     7
370
     0
100
AcDbLine
 10
32.322375
 20
-12.163458
 30
0.0
 11
32.413521
 21
-12.163458
 31
0.0
  0
LINE
  5
493
330
6FD
100
AcDbEntity
  8
Level 46
  6
Continuous
 62
     7
370
     0
100
AcDbLine
 10
31.80675
 20
-12.163458
 30
0.0
 11
31.715604
 21
-12.163458
 31
0.0
  0
LINE
  5
494
330
6FD
100
AcDbEntity
  8
Level 10
  6
Continuous
 62
     7
370
    13
100
AcDbLine
 10
31.819771
 20
-12.163458
 30
0.0
 11
32.309354
 21
-12.163458
 31
0.0
  0
LINE
  5
495
330
6FD
100
AcDbEntity
  8
Level 10
  6
Continuous
 62
     7
370
    13
100
AcDbLine
 10
32.306667
 20
-12.125
 30
0.0
 11
32.15126
 21
-12.086177
 31
0.0
  0
INSERT
  5
496
330
6FD
100
AcDbEntity
  8
Level 46
  6
Continuous
 62
     7
370
     0
100
AcDbBlockReference
  2
LARROW
 10
31.814562
 20
-12.205125
 30
0.0
 50
180.0
  0
INSERT
  5
498
330
6FD
100
AcDbEntity
  8
Level 46
  6
Continuous
 62
     7
370
     0
100
AcDbBlockReference
  2
LARROW
 10
32.314563
 20
-12.205125
 30
0.0
  0
LINE
  5
49A
330
6FD
100
AcDbEntity
  8
Level 46
  6
DGN Style 7
 62
     7
370
     0
100
AcDbLine
 10
31.986281
 20
-12.084219
 30
0.0
 11
32.064563
 21
-12.0645
 31
0.0
  0
INSERT
  5
49B
330
6FD
100
AcDbEntity
  8
Level 46
  6
Continuous
 62
     7
370
     0
100
AcDbBlockReference
  2
LARROW
 10
31.772896
 20
-12.163458
 30
0.0
 50
270.0
  0
INSERT
  5
49D
330
6FD
100
AcDbEntity
  8
Level 46
  6
Continuous
 62
     7
370
     0
100
AcDbBlockReference
  2
LARROW
 10
31.731229
 20
-12.163458
 30
0.0
 50
270.0
  0
INSERT
  5
49F
330
6FD
100
AcDbEntity
  8
Level 46
  6
Continuous
 62
     7
370
     0
100
AcDbBlockReference
  2
LARROW
 10
31.731229
 20
-12.0645
 30
0.0
 50
90.0
  0
INSERT
  5
4A1
330
6FD
100
AcDbEntity
  8
Level 46
  6
Continuous
 62
     7
370
     0
100
AcDbBlockReference
  2
LARROW
 10
31.731229
 20
-12.0645
 30
0.0
 50
270.0
  0
INSERT
  5
4A3
330
6FD
100
AcDbEntity
  8
Level 46
  6
Continuous
 62
     7
370
     0
100
AcDbBlockReference
  2
LARROW
 10
31.772896
 20
-11.884542
 30
0.0
 50
90.0
  0
INSERT
  5
4A7
330
6FD
100
AcDbEntity
  8
Level 46
  6
Continuous
 62
     7
370
    13
100
AcDbBlockReference
  2
LARROW_1
 10
31.731229
 20
-11.715542
 30
0.0
 50
90.0
  0
INSERT
  5
4A9
330
6FD
100
AcDbEntity
  8
Level 46
  6
Continuous
 62
     7
370
    13
100
AcDbBlockReference
  2
LARROW_1
 10
31.731229
 20
-11.715542
 30
0.0
 50
270.0
  0
INSERT
  5
4AB
330
6FD
100
AcDbEntity
  8
Level 46
  6
Continuous
 62
     7
370
    13
100
AcDbBlockReference
  2
LARROW_1
 10
31.731229
 20
-11.554083
 30
0.0
 50
90.0
  0
INSERT
  5
4B0
330
6FD
100
AcDbEntity
  8
Level 46
  6
Continuous
 62
     7
370
     0
100
AcDbBlockReference
  2
LARROW
 10
32.356229
 20
-12.163458
 30
0.0
 50
270.0
  0
INSERT
  5
4B2
330
6FD
100
AcDbEntity
  8
Level 46
  6
Continuous
 62
     7
370
     0
100
AcDbBlockReference
  2
LARROW
 10
32.397896
 20
-12.163458
 30
0.0
 50
270.0
  0
INSERT
  5
4B4
330
6FD
100
AcDbEntity
  8
Level 46
  6
Continuous
 62
     7
370
     0
100
AcDbBlockReference
  2
LARROW
 10
32.356229
 20
-11.840542
 30
0.0
 50
90.0
  0
INSERT
  5
4B6
330
6FD
100
AcDbEntity
  8
Level 46
  6
Continuous
 62
     7
370
     0
100
AcDbBlockReference
  2
LARROW
 10
32.397896
 20
-11.554083
 30
0.0
 50
90.0
  0
INSERT
  5
4B8
330
6FD
100
AcDbEntity
  8
Level 46
  6
Continuous
 62
     7
370
     0
100
AcDbBlockReference
  2
LARROW
 10
32.035917
 20
-11.840542
 30
0.0
 50
180.0
  0
INSERT
  5
4BA
330
6FD
100
AcDbEntity
  8
Level 46
  6
Continuous
 62
     7
370
     0
100
AcDbBlockReference
  2
LARROW
 10
32.093208
 20
-11.840542
 30
0.0
  0
INSERT
  5
4BC
330
6FD
100
AcDbEntity
  8
Level 46
  6
Continuous
 62
     7
370
     0
100
AcDbBlockReference
  2
LARROW
 10
32.093208
 20
-11.840542
 30
0.0
 50
180.0
  0
LINE
  5
4BF
330
6FD
100
AcDbEntity
  8
Level 46
  6
DGN Style 7
 62
     7
370
     0
100
AcDbLine
 10
32.064563
 20
-11.537344
 30
0.0
 11
32.064563
 21
-11.61918
 31
0.0
  0
LINE
  5
4C0
330
6FD
100
AcDbEntity
  8
Level 46
  6
DGN Style 7
 62
     7
370
     0
100
AcDbLine
 10
32.064563
 20
-11.846687
 30
0.0
 11
32.064563
 21
-12.163458
 31
0.0
  0
INSERT
  5
4C6
330
6FD
100
AcDbEntity
  8
Level 46
  6
Continuous
 62
     7
370
     0
100
AcDbBlockReference
  2
LARROW
 10
31.942167
 20
-11.488875
 30
0.0
 50
180.0
  0
INSERT
  5
4C8
330
6FD
100
AcDbEntity
  8
Level 46
  6
Continuous
 62
     7
370
     0
100
AcDbBlockReference
  2
LARROW
 10
32.186958
 20
-11.488875
 30
0.0
  0
LINE
  5
4CB
330
6FD
100
AcDbEntity
  8
Level 46
  6
Continuous
 62
     7
370
    53
100
AcDbLine
 10
31.879251
 20
-12.258302
 30
0.0
 11
32.241102
 21
-12.258302
 31
0.0
  0
LINE
  5
4CD
330
6FD
100
AcDbEntity
  8
Level 10
  6
Continuous
 62
     7
370
    13
100
AcDbLine
 10
31.814562
 20
-12.15825
 30
0.0
 11
31.814562
 21
-12.135104
 31
0.0
  0
LINE
  5
4CE
330
6FD
100
AcDbEntity
  8
Level 10
  6
Continuous
 62
     7
370
    13
100
AcDbLine
 10
32.314563
 20
-12.15825
 30
0.0
 11
32.314563
 21
-12.135104
 31
0.0
  0
LINE
  5
4CF
330
6FD
100
AcDbEntity
  8
Level 46
  6
Continuous
 62
     7
370
     0
100
AcDbLine
 10
31.814562
 20
-12.171271
 30
0.0
 11
31.814562
 21
-12.22075
 31
0.0
  0
LINE
  5
4D0
330
6FD
100
AcDbEntity
  8
Level 46
  6
Continuous
 62
     7
370
     0
100
AcDbLine
 10
32.314563
 20
-12.171271
 30
0.0
 11
32.314563
 21
-12.22075
 31
0.0
  0
ARC
  5
4D2
330
6FD
100
AcDbEntity
  8
Level 10
  6
Continuous
 62
     7
370
    13
100
AcDbCircle
 10
31.819771
 20
-12.15825
 30
0.0
 40
0.0052083333333333
100
AcDbArc
 50
180.0
 51
270.0
  0
LINE
  5
4D3
330
6FD
100
AcDbEntity
  8
Level 10
  6
Continuous
 62
     7
370
    13
100
AcDbLine
 10
31.822448
 20
-12.125
 30
0.0
 11
31.977865
 21
-12.086177
 31
0.0
  0
ARC
  5
4D4
330
6FD
100
AcDbEntity
  8
Level 10
  6
Continuous
 62
     7
370
    13
100
AcDbCircle
 10
31.824979
 20
-12.135102
 30
0.0
 40
0.0104166666666667
100
AcDbArc
 50
104.036244
 51
180.0
  0
ARC
  5
4D5
330
6FD
100
AcDbEntity
  8
Level 10
  6
Continuous
 62
     7
370
    13
100
AcDbCircle
 10
-32.304146
 20
-12.135104
 30
0.0
 40
0.0104166666666667
210
0.0
220
0.0
230
-1.0
100
AcDbArc
 50
104.020692
 51
180.0
  0
LINE
  5
4D8
330
6FD
100
AcDbEntity
  8
Level 46
  6
Continuous
 62
     7
370
     0
100
AcDbLine
 10
31.814562
 20
-12.205125
 30
0.0
 11
32.314563
 21
-12.205125
 31
0.0
  0
LINE
  5
4D9
330
6FD
100
AcDbEntity
  8
Level 46
  6
Continuous
 62
     7
370
     0
100
AcDbLine
 10
32.356229
 20
-11.840542
 30
0.0
 11
32.356229
 21
-12.163458
 31
0.0
  0
LINE
  5
4DA
330
6FD
100
AcDbEntity
  8
Level 46
  6
Continuous
 62
     7
370
     0
100
AcDbLine
 10
32.397896
 20
-11.554083
 30
0.0
 11
32.397896
 21
-12.163458
 31
0.0
  0
LINE
  5
4DB
330
6FD
100
AcDbEntity
  8
Level 46
  6
Continuous
 62
     7
370
     0
100
AcDbLine
 10
31.772896
 20
-11.884542
 30
0.0
 11
31.772896
 21
-12.163458
 31
0.0
  0
LINE
  5
4DC
330
6FD
100
AcDbEntity
  8
Level 46
  6
Continuous
 62
     7
370
     0
100
AcDbLine
 10
31.731229
 20
-12.0645
 30
0.0
 11
31.731229
 21
-12.163458
 31
0.0
  0
LINE
  5
4DD
330
6FD
100
AcDbEntity
  8
Level 46
  6
Continuous
 62
     7
370
     0
100
AcDbLine
 10
31.731229
 20
-11.554083
 30
0.0
 11
31.731229
 21
-11.715542
 31
0.0
  0
LINE
  5
4DE
330
6FD
100
AcDbEntity
  8
Level 46
  6
Continuous
 62
     7
370
     0
100
AcDbLine
 10
31.731229
 20
-11.715542
 30
0.0
 11
31.731229
 21
-12.0645
 31
0.0
  0
LINE
  5
4DF
330
6FD
100
AcDbEntity
  8
Level 46
  6
Continuous
 62
     7
370
     0
100
AcDbLine
 10
32.064563
 20
-12.0645
 30
0.0
 11
31.783583
 21
-12.0645
 31
0.0
  0
LINE
  5
4E0
330
6FD
100
AcDbEntity
  8
Level 46
  6
Continuous
 62
     7
370
     0
100
AcDbLine
 10
31.764677
 20
-12.0645
 30
0.0
 11
31.715604
 21
-12.0645
 31
0.0
  0
ARC
  5
4E4
330
6FD
100
AcDbEntity
  8
Level 10
  6
Continuous
 62
     7
370
    13
100
AcDbCircle
 10
32.309354
 20
-12.15825
 30
0.0
 40
0.0052083333333333
100
AcDbArc
 50
270.0
 51
0.0
  0
LWPOLYLINE
  5
4E5
330
6FD
100
AcDbEntity
  8
Level 46
  6
Continuous
 62
     7
370
     0
100
AcDbPolyline
 90
        3
 70
   128
 43
0.0
 10
32.279729
 20
-12.142927
 10
32.296167
 20
-12.142927
 10
32.31275
 20
-12.162198
  0
INSERT
  5
4E6
330
6FD
100
AcDbEntity
  8
Level 46
  6
Continuous
 62
     7
370
     0
100
AcDbBlockReference
  2
LARROW
 10
32.31275
 20
-12.162198
 30
0.0
 41
1.0
 42
1.0
 43
1.0
 50
310.713433
  0
LWPOLYLINE
  5
4E8
330
6FD
100
AcDbEntity
  8
Level 46
  6
Continuous
 62
     7
370
     0
100
AcDbPolyline
 90
        3
 70
   128
 43
0.0
 10
31.850531
 20
-12.146875
 10
31.834094
 20
-12.146875
 10
31.817615
 20
-12.127729
  0
INSERT
  5
4E9
330
6FD
100
AcDbEntity
  8
Level 46
  6
Continuous
 62
     7
370
     0
100
AcDbBlockReference
  2
LARROW
 10
31.817615
 20
-12.127729
 30
0.0
 41
0.999999
 42
0.999999
 43
0.999999
 50
130.719106
  0
LINE
  5
4EC
330
6FD
100
AcDbEntity
  8
Level 46
  6
Continuous
 62
     7
370
     0
100
AcDbLine
 10
31.772896
 20
-11.672104
 30
0.0
 11
31.772896
 21
-11.715542
 31
0.0
  0
LINE
  5
4ED
330
6FD
100
AcDbEntity
  8
Level 46
  6
Continuous
 62
     7
370
     0
100
AcDbLine
 10
31.772896
 20
-11.738979
 30
0.0
 11
31.772896
 21
-11.772417
 31
0.0
  0
INSERT
  5
4EE
330
6FD
100
AcDbEntity
  8
Level 46
  6
Continuous
 62
     7
370
     0
100
AcDbBlockReference
  2
LARROW
 10
31.772896
 20
-11.715542
 30
0.0
 50
270.0
  0
INSERT
  5
4F0
330
6FD
100
AcDbEntity
  8
Level 46
  6
Continuous
 62
     7
370
     0
100
AcDbBlockReference
  2
LARROW
 10
31.772896
 20
-11.738979
 30
0.0
 50
90.0
  0
INSERT
  5
4F3
330
6FD
100
AcDbEntity
  8
Level 46
  6
Continuous
 62
     7
370
     0
100
AcDbBlockReference
  2
LARROW
 10
32.116646
 20
-11.518875
 30
0.0
  0
INSERT
  5
4F5
330
6FD
100
AcDbEntity
  8
Level 46
  6
Continuous
 62
     7
370
     0
100
AcDbBlockReference
  2
LARROW
 10
32.012479
 20
-11.518875
 30
0.0
 50
180.0
  0
LINE
  5
4F9
330
6FD
100
AcDbEntity
  8
Level 46
  6
Continuous
 62
     7
370
     0
100
AcDbLine
 10
32.064563
 20
-11.715542
 30
0.0
 11
31.715604
 21
-11.715542
 31
0.0
  0
LINE
  5
4FA
330
6FD
100
AcDbEntity
  8
Level 46
  6
Continuous
 62
     7
370
     0
100
AcDbLine
 10
32.005573
 20
-11.554083
 30
0.0
 11
31.715604
 21
-11.554083
 31
0.0
  0
ARC
  5
4FB
330
6FD
100
AcDbEntity
  8
Level 10
  6
Continuous
 62
     7
370
    13
100
AcDbCircle
 10
32.064563
 20
-12.387417
 30
0.0
 40
0.8333333333333333
100
AcDbArc
 50
86.416678
 51
93.583322
  0
LWPOLYLINE
  5
4FE
330
6FD
100
AcDbEntity
  8
Level 46
  6
Continuous
 62
     7
370
     0
100
AcDbPolyline
 90
        3
 70
   128
 43
0.0
 10
31.950115
 20
-11.682958
 10
31.963323
 20
-11.670042
 10
31.974375
 20
-11.670042
  0
LINE
  5
500
330
6FD
100
AcDbEntity
  8
Level 46
  6
Continuous
 62
     7
370
     0
100
AcDbLine
 10
32.371854
 20
-11.840542
 30
0.0
 11
32.093208
 21
-11.840542
 31
0.0
  0
LINE
  5
501
330
6FD
100
AcDbEntity
  8
Level 46
  6
Continuous
 62
     7
370
     0
100
AcDbLine
 10
32.035917
 20
-11.840542
 30
0.0
 11
32.093208
 21
-11.840542
 31
0.0
  0
ARC
  5
502
330
6FD
100
AcDbEntity
  8
Level 10
  6
Continuous
 62
     7
370
    13
100
AcDbCircle
 10
33.759875
 20
-11.840542
 30
0.0
 40
1.666666666666667
100
AcDbArc
 50
180.0
 51
186.622156
  0
ARC
  5
503
330
6FD
100
AcDbEntity
  8
Level 10
  6
Continuous
 62
     7
370
    13
100
AcDbCircle
 10
32.166411
 20
-12.025536
 30
0.0
 40
0.0625
100
AcDbArc
 50
186.622156
 51
255.971964
  0
ARC
  5
504
330
6FD
100
AcDbEntity
  8
Level 10
  6
Continuous
 62
     7
370
    13
100
AcDbCircle
 10
-30.36925
 20
-11.840542
 30
0.0
 40
1.666666666666667
210
0.0
220
0.0
230
-1.0
100
AcDbArc
 50
180.0
 51
186.622156
  0
ARC
  5
505
330
6FD
100
AcDbEntity
  8
Level 10
  6
Continuous
 62
     7
370
    13
100
AcDbCircle
 10
-31.962714
 20
-12.025536
 30
0.0
 40
0.0625
210
0.0
220
0.0
230
-1.0
100
AcDbArc
 50
186.622156
 51
255.971964
  0
LINE
  5
506
330
6FD
100
AcDbEntity
  8
Level 46
  6
Continuous
 62
     7
370
     0
100
AcDbLine
 10
32.104323
 20
-12.03274
 30
0.0
 11
32.290427
 21
-12.011135
 31
0.0
  0
INSERT
  5
507
330
6FD
100
AcDbEntity
  8
Level 46
  6
Continuous
 62
     7
370
     0
100
AcDbBlockReference
  2
LARROW
 10
32.104323
 20
-12.03274
 30
0.0
 41
0.999998
 42
0.999998
 43
0.999998
 50
186.62163
  0
LINE
  5
509
330
6FD
100
AcDbEntity
  8
Level 46
  6
Continuous
 62
     7
370
     0
100
AcDbLine
 10
32.15126
 20
-12.086177
 30
0.0
 11
32.166406
 21
-12.025531
 31
0.0
  0
INSERT
  5
50A
330
6FD
100
AcDbEntity
  8
Level 46
  6
Continuous
 62
     7
370
     0
100
AcDbBlockReference
  2
LARROW
 10
32.15126
 20
-12.086177
 30
0.0
 41
1.000002
 42
1.000002
 43
1.000002
 50
255.97754
  0
ARC
  5
50D
330
6FD
100
AcDbEntity
  8
Level 10
  6
Continuous
 62
     7
370
    13
100
AcDbCircle
 10
32.759875
 20
-11.840542
 30
0.0
 40
0.6666666666666666
100
AcDbArc
 50
171.689861
 51
180.0
  0
ARC
  5
50E
330
6FD
100
AcDbEntity
  8
Level 10
  6
Continuous
 62
     7
370
    13
100
AcDbCircle
 10
-31.36925
 20
-11.840542
 30
0.0
 40
0.6666666666666666
210
0.0
220
0.0
230
-1.0
100
AcDbArc
 50
171.689861
 51
180.0
  0
LINE
  5
50F
330
6FD
100
AcDbEntity
  8
Level 46
  6
Continuous
 62
     7
370
     0
100
AcDbLine
 10
32.413521
 20
-11.554083
 30
0.0
 11
32.122875
 21
-11.554083
 31
0.0
  0
LINE
  5
510
330
6FD
100
AcDbEntity
  8
Level 46
  6
Continuous
 62
     7
370
     0
100
AcDbLine
 10
32.064563
 20
-11.738979
 30
0.0
 11
31.757271
 21
-11.738979
 31
0.0
  0
LINE
  5
511
330
6FD
100
AcDbEntity
  8
Level 46
  6
DGN Style 7
 62
     7
370
     0
100
AcDbLine
 10
31.757271
 20
-11.884542
 30
0.0
 11
32.117979
 21
-11.884542
 31
0.0
  0
LINE
  5
512
330
6FD
100
AcDbEntity
  8
Level 10
  6
Continuous
 62
     7
370
    13
100
AcDbLine
 10
31.994052
 20
-11.697917
 30
0.0
 11
31.962406
 21
-11.69001
 31
0.0
  0
LINE
  5
513
330
6FD
100
AcDbEntity
  8
Level 10
  6
Continuous
 62
     7
370
    13
100
AcDbLine
 10
32.135083
 20
-11.697917
 30
0.0
 11
32.166708
 21
-11.69
 31
0.0
  0
LINE
  5
515
330
6FD
100
AcDbEntity
  8
Level 46
  6
DGN Style 7
 62
     7
370
     0
100
AcDbLine
 10
32.125021
 20
-11.700427
 30
0.0
 11
32.064563
 21
-11.715542
 31
0.0
  0
LINE
  5
516
330
6FD
100
AcDbEntity
  8
Level 46
  6
DGN Style 7
 62
     7
370
     0
100
AcDbLine
 10
32.100208
 20
-11.744187
 30
0.0
 11
32.064563
 21
-11.738979
 31
0.0
  0
LINE
  5
517
330
6FD
100
AcDbEntity
  8
Level 46
  6
Continuous
 62
     7
370
     0
100
AcDbLine
 10
32.186958
 20
-11.605948
 30
0.0
 11
32.186958
 21
-11.473875
 31
0.0
  0
LINE
  5
518
330
6FD
100
AcDbEntity
  8
Level 46
  6
Continuous
 62
     7
370
     0
100
AcDbLine
 10
31.942167
 20
-11.605948
 30
0.0
 11
31.942167
 21
-11.473875
 31
0.0
  0
LINE
  5
51A
330
6FD
100
AcDbEntity
  8
Level 10
  6
Continuous
 62
     7
370
    13
100
AcDbLine
 10
31.942698
 20
-11.664083
 30
0.0
 11
31.944073
 21
-11.608552
 31
0.0
  0
LINE
  5
51C
330
6FD
100
AcDbEntity
  8
Level 10
  6
Continuous
 62
     7
370
    13
100
AcDbLine
 10
32.186437
 20
-11.664083
 30
0.0
 11
32.185052
 21
-11.608552
 31
0.0
  0
ARC
  5
51D
330
6FD
100
AcDbEntity
  8
Level 10
  6
Continuous
 62
     7
370
    13
100
AcDbCircle
 10
32.162042
 20
-11.753219
 30
0.0
 40
0.0624893958017967
100
AcDbArc
 50
124.500228
 51
171.690253
  0
ARC
  5
51E
330
6FD
100
AcDbEntity
  8
Level 10
  6
Continuous
 62
     7
370
    13
100
AcDbCircle
 10
-31.967083
 20
-11.753219
 30
0.0
 40
0.0624893958017967
210
0.0
220
0.0
230
-1.0
100
AcDbArc
 50
124.507739
 51
171.690253
  0
ARC
  5
51F
330
6FD
100
AcDbEntity
  8
Level 10
  6
Continuous
 62
     7
370
    13
100
AcDbCircle
 10
-32.141397
 20
-11.723181
 30
0.0
 40
0.0260416666666667
210
0.0
220
0.0
230
-1.0
100
AcDbArc
 50
55.499772
 51
75.963756
  0
ARC
  5
520
330
6FD
100
AcDbEntity
  8
Level 10
  6
Continuous
 62
     7
370
    13
100
AcDbCircle
 10
31.987732
 20
-11.723184
 30
0.0
 40
0.0260416666666667
100
AcDbArc
 50
55.492261
 51
75.961967
  0
ARC
  5
521
330
6FD
100
AcDbEntity
  8
Level 10
  6
Continuous
 62
     7
370
    13
100
AcDbCircle
 10
31.968726
 20
-11.664745
 30
0.0
 40
0.0260416666666667
100
AcDbArc
 50
178.554525
 51
255.963756
  0
ARC
  5
522
330
6FD
100
AcDbEntity
  8
Level 10
  6
Continuous
 62
     7
370
    13
100
AcDbCircle
 10
32.160407
 20
-11.664727
 30
0.0
 40
0.0260416666666667
100
AcDbArc
 50
283.993975
 51
1.420611
  0
LINE
  5
523
330
6FD
100
AcDbEntity
  8
Level 46
  6
Continuous
 62
     7
370
     0
100
AcDbLine
 10
32.100208
 20
-11.744187
 30
0.0
 11
32.231198
 21
-11.763323
 31
0.0
  0
INSERT
  5
524
330
6FD
100
AcDbEntity
  8
Level 46
  6
Continuous
 62
     7
370
     0
100
AcDbBlockReference
  2
LARROW
 10
32.100208
 20
-11.744187
 30
0.0
 41
1.000002
 42
1.000002
 43
1.000002
 50
171.688747
  0
LINE
  5
526
330
6FD
100
AcDbEntity
  8
Level 46
  6
Continuous
 62
     7
370
     0
100
AcDbLine
 10
32.126646
 20
-11.701719
 30
0.0
 11
32.162042
 21
-11.753219
 31
0.0
  0
LINE
  5
527
330
6FD
100
AcDbEntity
  8
Level 46
  6
Continuous
 62
     7
370
     0
100
AcDbLine
 10
32.135083
 20
-11.697917
 30
0.0
 11
32.141396
 21
-11.723177
 31
0.0
  0
INSERT
  5
528
330
6FD
100
AcDbEntity
  8
Level 46
  6
Continuous
 62
     7
370
     0
100
AcDbBlockReference
  2
LARROW
 10
32.126646
 20
-11.701719
 30
0.0
 41
1.000001
 42
1.000001
 43
1.000001
 50
124.500746
  0
INSERT
  5
52A
330
6FD
100
AcDbEntity
  8
Level 46
  6
Continuous
 62
     7
370
     0
100
AcDbBlockReference
  2
LARROW
 10
32.135083
 20
-11.697917
 30
0.0
 41
0.999999
 42
0.999999
 43
0.999999
 50
104.030743
  0
LINE
  5
52E
330
6FD
100
AcDbEntity
  8
Level 46
  6
DGN Style 7
 62
     7
370
     0
100
AcDbLine
 10
32.004104
 20
-11.700427
 30
0.0
 11
32.064563
 21
-11.715542
 31
0.0
  0
LINE
  5
52F
330
6FD
100
AcDbEntity
  8
Level 46
  6
Continuous
 62
     7
370
     0
100
AcDbLine
 10
32.012479
 20
-11.550104
 30
0.0
 11
32.012479
 21
-11.503875
 31
0.0
  0
LINE
  5
530
330
6FD
100
AcDbEntity
  8
Level 46
  6
Continuous
 62
     7
370
     0
100
AcDbLine
 10
32.116646
 20
-11.550104
 30
0.0
 11
32.116646
 21
-11.503875
 31
0.0
  0
LINE
  5
531
330
6FD
100
AcDbEntity
  8
Level 46
  6
Continuous
 62
     7
370
     0
100
AcDbLine
 10
32.110135
 20
-11.659688
 30
0.0
 11
32.116646
 21
-11.555708
 31
0.0
  0
ARC
  5
532
330
6FD
100
AcDbEntity
  8
Level 10
  6
Continuous
 62
     7
370
    13
100
AcDbCircle
 10
32.110135
 20
-11.659667
 30
0.0
 40
0.1041619920826117
100
AcDbArc
 50
60.678736
 51
86.416517
  0
ARC
  5
533
330
6FD
100
AcDbEntity
  8
Level 10
  6
Continuous
 62
     7
370
    13
100
AcDbCircle
 10
-32.138189
 20
-11.609719
 30
0.0
 40
0.046875
210
0.0
220
0.0
230
-1.0
100
AcDbArc
 50
119.321264
 51
178.568381
  0
ARC
  5
534
330
6FD
100
AcDbEntity
  8
Level 10
  6
Continuous
 62
     7
370
    13
100
AcDbCircle
 10
-32.01899
 20
-11.659667
 30
0.0
 40
0.1041619920826117
210
0.0
220
0.0
230
-1.0
100
AcDbArc
 50
60.678736
 51
86.416517
  0
ARC
  5
535
330
6FD
100
AcDbEntity
  8
Level 10
  6
Continuous
 62
     7
370
    13
100
AcDbCircle
 10
31.990936
 20
-11.609719
 30
0.0
 40
0.046875
100
AcDbArc
 50
119.321264
 51
178.568381
  0
INSERT
  5
536
330
6FD
100
AcDbEntity
  8
Level 46
  6
Continuous
 62
     7
370
     0
100
AcDbBlockReference
  2
LARROW
 10
32.116646
 20
-11.555708
 30
0.0
 41
0.999999
 42
0.999999
 43
0.999999
 50
86.416609
  0
LINE
  5
538
330
6FD
100
AcDbEntity
  8
Level 46
  6
Continuous
 62
     7
370
     0
100
AcDbLine
 10
32.012479
 20
-11.555708
 30
0.0
 11
32.019073
 21
-11.660927
 31
0.0
  0
INSERT
  5
539
330
6FD
100
AcDbEntity
  8
Level 46
  6
Continuous
 62
     7
370
     0
100
AcDbBlockReference
  2
LARROW
 10
32.012479
 20
-11.555708
 30
0.0
 41
1.000002
 42
1.000002
 43
1.000002
 50
93.585787
  0
LINE
  5
53B
330
6FD
100
AcDbEntity
  8
Level 46
  6
Continuous
 62
     7
370
     0
100
AcDbLine
 10
31.950115
 20
-11.682958
 30
0.0
 11
31.963323
 21
-11.670042
 31
0.0
  0
INSERT
  5
53C
330
6FD
100
AcDbEntity
  8
Level 46
  6
Continuous
 62
     7
370
     0
100
AcDbBlockReference
  2
LARROW
 10
31.950115
 20
-11.682958
 30
0.0
 41
0.999998
 42
0.999998
 43
0.999998
 50
224.36043
  0
LINE
  5
540
330
6FD
100
AcDbEntity
  8
Level 46
  6
Continuous
 62
     7
370
     0
100
AcDbLine
 10
32.161146
 20
-11.568854
 30
0.0
 11
32.110135
 21
-11.659688
 31
0.0
  0
LINE
  5
541
330
6FD
100
AcDbEntity
  8
Level 46
  6
Continuous
 62
     7
370
     0
100
AcDbLine
 10
32.185052
 20
-11.608552
 30
0.0
 11
32.138198
 21
-11.609729
 31
0.0
  0
INSERT
  5
542
330
6FD
100
AcDbEntity
  8
Level 46
  6
Continuous
 62
     7
370
     0
100
AcDbBlockReference
  2
LARROW
 10
32.185052
 20
-11.608552
 30
0.0
 41
0.999999
 42
0.999999
 43
0.999999
 50
1.439031
  0
INSERT
  5
544
330
6FD
100
AcDbEntity
  8
Level 46
  6
Continuous
 62
     7
370
     0
100
AcDbBlockReference
  2
LARROW
 10
32.161146
 20
-11.568854
 30
0.0
 41
0.999998
 42
0.999998
 43
0.999998
 50
60.682156
  0
LINE
  5
546
330
6FD
100
AcDbEntity
  8
Level 46
  6
Continuous
 62
     7
370
     0
100
AcDbLine
 10
32.186958
 20
-11.488875
 30
0.0
 11
31.942167
 21
-11.488875
 31
0.0
  0
LINE
  5
547
330
6FD
100
AcDbEntity
  8
Level 46
  6
Continuous
 62
     7
370
     0
100
AcDbLine
 10
32.116646
 20
-11.518875
 30
0.0
 11
32.012479
 21
-11.518875
 31
0.0
  0
TEXT
  5
9B
330
6FD
100
AcDbEntity
  8
Level 46
  6
Continuous
 62
     7
370
    13
100
AcDbText
 10
29.620578
 20
-13.253562
 30
0.0
 40
0.010396
  1
6" UNDER HEAD
 50
90.0
  7
Style-Arial
100
AcDbText
  0
TEXT
  5
105
330
6FD
100
AcDbEntity
  8
Level 46
  6
DGN Style 7
 62
     7
370
    13
100
AcDbText
 10
29.713208
 20
-13.56849
 30
0.0
 40
0.010396
  1
NO SCALE
  7
Style-Arial
100
AcDbText
  0
MTEXT
  5
11C
330
6FD
100
AcDbEntity
  8
Level 46
  6
Continuous
 62
     7
370
    13
100
AcDbMText
 10
29.719373
 20
-12.205744
 30
0.0
 40
0.010396
 41
0.0
 71
     7
 72
     1
  1
5{\A0;\S1#2;}"
  7
Style-Arial
 73
     2
 44
1.382053
  0
TEXT
  5
128
330
6FD
100
AcDbEntity
  8
Level 46
  6
Continuous
 62
     7
370
    13
100
AcDbText
 10
29.449943
 20
-12.038271
 30
0.0
 40
0.010396
  1
2.98"
 50
90.0
  7
Style-Arial
100
AcDbText
  0
MTEXT
  5
129
330
6FD
100
AcDbEntity
  8
Level 46
  6
Continuous
 62
     7
370
    13
100
AcDbMText
 10
29.415008
 20
-12.126517
 30
0.0
 40
0.010396
 41
0.0
 71
     7
 72
     1
  1
1{\A0;\S1#8;}"
  7
Style-Arial
 11
6.123031769111886E-17
 21
1.0
 31
0.0
 73
     2
 44
1.382053
  0
MTEXT
  5
130
330
6FD
100
AcDbEntity
  8
Level 46
  6
Continuous
 62
     7
370
    13
100
AcDbMText
 10
29.414445
 20
-11.927661
 30
0.0
 40
0.010396
 41
0.0
 71
     7
 72
     1
  1
3{\A0;\S13#16;}"
  7
Style-Arial
 11
6.123031769111886E-17
 21
1.0
 31
0.0
 73
     2
 44
1.382053
  0
MTEXT
  5
131
330
6FD
100
AcDbEntity
  8
Level 46
  6
Continuous
 62
     7
370
    13
100
AcDbMText
 10
29.416425
 20
-11.691319
 30
0.0
 40
0.010396
 41
0.0
 71
     7
 72
     1
  1
1{\A0;\S11#16;}"
  7
Style-Arial
 11
6.123031769111886E-17
 21
1.0
 31
0.0
 73
     2
 44
1.382053
  0
TEXT
  5
132
330
6FD
100
AcDbEntity
  8
Level 46
  6
Continuous
 62
     7
370
    13
100
AcDbText
 10
29.481677
 20
-11.910297
 30
0.0
 40
0.010396
  1
NEUTRAL AXIS
  7
Style-Arial
100
AcDbText
  0
MTEXT
  5
145
330
6FD
100
AcDbEntity
  8
Level 46
  6
Continuous
 62
     7
370
    13
100
AcDbMText
 10
29.725133
 20
-11.893619
 30
0.0
 40
0.010396
 41
0.0
 71
     7
 72
     1
  1
{\A0;\S5#8;}"
  7
Style-Arial
 73
     2
 44
1.382053
  0
TEXT
  5
148
330
6FD
100
AcDbEntity
  8
Level 46
  6
Continuous
 62
     7
370
    13
100
AcDbText
 10
29.870146
 20
-11.88137
 30
0.0
 40
0.010396
  1
L  14" R
  7
Style-Arial
100
AcDbText
  0
TEXT
  5
149
330
6FD
100
AcDbEntity
  8
Level 46
  6
Continuous
 62
     7
370
    13
100
AcDbText
 10
29.866865
 20
-11.877609
 30
0.0
 40
0.010396
  1
C
  7
Style-Arial
100
AcDbText
  0
MTEXT
  5
14A
330
6FD
100
AcDbEntity
  8
Level 46
  6
Continuous
 62
     7
370
    13
100
AcDbMText
 10
29.99907
 20
-12.03939
 30
0.0
 40
0.010396
 41
0.0
 71
     7
 72
     1
  1
3{\A0;\S1#4;}"
  7
Style-Arial
 11
6.123031769111886E-17
 21
1.0
 31
0.0
 73
     2
 44
1.382053
  0
MTEXT
  5
14B
330
6FD
100
AcDbEntity
  8
Level 46
  6
Continuous
 62
     7
370
    13
100
AcDbMText
 10
30.038404
 20
-11.871401
 30
0.0
 40
0.010396
 41
0.0
 71
     7
 72
     1
  1
6{\A0;\S5#8;}"
  7
Style-Arial
 11
6.123031769111886E-17
 21
1.0
 31
0.0
 73
     2
 44
1.382053
  0
TEXT
  5
14C
330
6FD
100
AcDbEntity
  8
Level 46
  6
Continuous
 62
     7
370
    13
100
AcDbText
 10
29.699646
 20
-11.650745
 30
0.0
 40
0.010396
  1
115 RE
  7
Style-Arial
100
AcDbText
  0
MTEXT
  5
151
330
6FD
100
AcDbEntity
  8
Level 46
  6
Continuous
 62
     7
370
    13
100
AcDbMText
 10
29.71016
 20
-11.553025
 30
0.0
 40
0.010396
 41
0.0
 71
     7
 72
     1
  1
2{\A0;\S23#32;}"
  7
Style-Arial
 73
     2
 44
1.382053
  0
TEXT
  5
152
330
6FD
100
AcDbEntity
  8
Level 46
  6
DGN Style 7
 62
     7
370
    13
100
AcDbText
 10
29.707392
 20
-12.290911
 30
0.0
 40
0.010396
  1
NO SCALE
  7
Style-Arial
100
AcDbText
  0
TEXT
  5
190
330
6FD
100
AcDbEntity
  8
Level 1
  6
Continuous
 62
     7
370
    40
100
AcDbText
 10
31.736629
 20
-13.573542
 30
0.0
 40
0.010396
  1
C
  7
Style-Arial
100
AcDbText
  0
TEXT
  5
191
330
6FD
100
AcDbEntity
  8
Level 1
  6
Continuous
 62
     7
370
     0
100
AcDbText
 10
31.742188
 20
-13.579885
 30
0.0
 40
0.010396
  1
OMPUTER
  7
Style-Arial
100
AcDbText
  0
TEXT
  5
192
330
6FD
100
AcDbEntity
  8
Level 1
  6
Continuous
 62
     7
370
     0
100
AcDbText
 10
31.750812
 20
-13.599281
 30
0.0
 40
0.010396
  1
IDED
  7
Style-Arial
100
AcDbText
  0
TEXT
  5
193
330
6FD
100
AcDbEntity
  8
Level 1
  6
Continuous
 62
     7
370
    40
100
AcDbText
 10
31.744362
 20
-13.592578
 30
0.0
 40
0.010396
  1
A
  7
Style-Arial
100
AcDbText
  0
TEXT
  5
194
330
6FD
100
AcDbEntity
  8
Level 1
  6
Continuous
 62
     7
370
    40
100
AcDbText
 10
31.752468
 20
-13.61125
 30
0.0
 40
0.010396
  1
D
  7
Style-Arial
100
AcDbText
  0
TEXT
  5
195
330
6FD
100
AcDbEntity
  8
Level 1
  6
Continuous
 62
     7
370
     0
100
AcDbText
 10
31.759208
 20
-13.617771
 30
0.0
 40
0.010396
  1
ESIGN &
  7
Style-Arial
100
AcDbText
  0
TEXT
  5
196
330
6FD
100
AcDbEntity
  8
Level 1
  6
Continuous
 62
     7
370
     0
100
AcDbText
 10
31.768156
 20
-13.638271
 30
0.0
 40
0.010396
  1
RAFTING
  7
Style-Arial
100
AcDbText
  0
TEXT
  5
197
330
6FD
100
AcDbEntity
  8
Level 1
  6
Continuous
 62
     7
370
    40
100
AcDbText
 10
31.761
 20
-13.631063
 30
0.0
 40
0.010396
  1
D
  7
Style-Arial
100
AcDbText
  0
TEXT
  5
19C
330
6FD
100
AcDbEntity
  8
Level 1
  6
Continuous
 62
     7
370
    30
100
AcDbText
 10
31.841802
 20
-13.418052
 30
0.0
 40
0.010396
  1
Designed by:
  7
Style-Arial
100
AcDbText
  0
TEXT
  5
19D
330
6FD
100
AcDbEntity
  8
Level 1
  6
Continuous
 62
     7
370
    30
100
AcDbText
 10
31.843177
 20
-13.472907
 30
0.0
 40
0.010396
  1
Drawn by:
  7
Style-Arial
100
AcDbText
  0
TEXT
  5
19E
330
6FD
100
AcDbEntity
  8
Level 1
  6
Continuous
 62
     7
370
    30
100
AcDbText
 10
31.843719
 20
-13.52515
 30
0.0
 40
0.010396
  1
Checked by:
  7
Style-Arial
100
AcDbText
  0
TEXT
  5
19F
330
6FD
100
AcDbEntity
  8
Level 1
  6
Continuous
 62
     7
370
    30
100
AcDbText
 10
31.843719
 20
-13.577393
 30
0.0
 40
0.010396
  1
Reviewed by:
  7
Style-Arial
100
AcDbText
  0
TEXT
  5
1A0
330
6FD
100
AcDbEntity
  8
Level 1
  6
Continuous
 62
     7
370
    30
100
AcDbText
 10
31.844271
 20
-13.628069
 30
0.0
 40
0.010396
  1
Submitted by:
  7
Style-Arial
100
AcDbText
  0
TEXT
  5
1A1
330
6FD
100
AcDbEntity
  8
Level 1
  6
Continuous
 62
     7
370
    30
100
AcDbText
 10
31.842625
 20
-13.654667
 30
0.0
 40
0.010396
  1
Chief:
  7
Style-Arial
100
AcDbText
  0
TEXT
  5
1A2
330
6FD
100
AcDbEntity
  8
Level 1
  6
Continuous
 62
     7
370
    30
100
AcDbText
 10
31.968969
 20
-13.654385
 30
0.0
 40
0.010396
  1
Section
  7
Style-Arial
100
AcDbText
  0
TEXT
  5
1A3
330
6FD
100
AcDbEntity
  8
Level 1
  6
Continuous
 62
     7
370
    30
100
AcDbText
 10
32.026688
 20
-13.609577
 30
0.0
 40
0.010396
  1
Spec. No.:
  7
Style-Arial
100
AcDbText
  0
TEXT
  5
1A4
330
6FD
100
AcDbEntity
  8
Level 1
  6
Continuous
 62
     7
370
    30
100
AcDbText
 10
32.026094
 20
-13.649356
 30
0.0
 40
0.010396
  1
Contract No.:
  7
Style-Arial
100
AcDbText
  0
TEXT
  5
1A5
330
6FD
100
AcDbEntity
  8
Level 1
  6
Continuous
 62
     7
370
    30
100
AcDbText
 10
32.025687
 20
-13.575377
 30
0.0
 40
0.010396
  1
Plot Scale Ratio:
  7
Style-Arial
100
AcDbText
  0
TEXT
  5
1A6
330
6FD
100
AcDbEntity
  8
Level 1
  6
Continuous
 62
     7
370
    30
100
AcDbText
 10
32.026031
 20
-13.595507
 30
0.0
 40
0.010396
  1
Design File:
  7
Style-Arial
100
AcDbText
  0
TEXT
  5
1A7
330
6FD
100
AcDbEntity
  8
Level 1
  6
Continuous
 62
     7
370
    30
100
AcDbText
 10
32.421542
 20
-13.575992
 30
0.0
 40
0.010396
  1
Sheet
  7
Style-Arial
100
AcDbText
  0
TEXT
  5
1A8
330
6FD
100
AcDbEntity
  8
Level 1
  6
Continuous
 62
     7
370
    30
100
AcDbText
 10
32.42126
 20
-13.58695
 30
0.0
 40
0.010396
  1
reference
  7
Style-Arial
100
AcDbText
  0
TEXT
  5
1A9
330
6FD
100
AcDbEntity
  8
Level 1
  6
Continuous
 62
     7
370
    30
100
AcDbText
 10
32.42099
 20
-13.597377
 30
0.0
 40
0.010396
  1
number:
  7
Style-Arial
100
AcDbText
  0
TEXT
  5
1AA
330
6FD
100
AcDbEntity
  8
Level 1
  6
Continuous
 62
     7
370
    30
100
AcDbText
 10
32.279688
 20
-13.575617
 30
0.0
 40
0.010396
  1
Date:
  7
Style-Arial
100
AcDbText
  0
TEXT
  5
1AB
330
6FD
100
AcDbEntity
  8
Level 1
  6
Continuous
 62
     7
370
    30
100
AcDbText
 10
32.22749
 20
-13.613429
 30
0.0
 40
0.010396
  1
Drawing Code:
  7
Style-Arial
100
AcDbText
  0
TEXT
  5
1AC
330
6FD
100
AcDbEntity
  8
Level 2
  6
Continuous
 62
     7
370
    30
100
AcDbText
 10
31.945651
 20
-13.436687
 30
0.0
 40
0.010396
  1
X
  7
Style-Arial
100
AcDbText
  0
TEXT
  5
1AD
330
6FD
100
AcDbEntity
  8
Level 2
  6
Continuous
 62
     7
370
    30
100
AcDbText
 10
31.945922
 20
-13.541104
 30
0.0
 40
0.010396
  1
X
  7
Style-Arial
100
AcDbText
  0
TEXT
  5
1B0
330
6FD
100
AcDbEntity
  8
Level 1
  6
Continuous
 62
     7
370
    30
100
AcDbText
 10
31.851948
 20
-13.211387
 30
0.0
 40
0.010396
  1
Symbol
  7
Style-Arial
100
AcDbText
  0
TEXT
  5
1B1
330
6FD
100
AcDbEntity
  8
Level 1
  6
Continuous
 62
     7
370
    30
100
AcDbText
 10
32.370265
 20
-13.211932
 30
0.0
 40
0.010396
  1
Date
  7
Style-Arial
100
AcDbText
  0
TEXT
  5
1B2
330
6FD
100
AcDbEntity
  8
Level 1
  6
Continuous
 62
     7
370
    30
100
AcDbText
 10
32.427899
 20
-13.211725
 30
0.0
 40
0.010396
  1
Approved
  7
Style-Arial
100
AcDbText
  0
TEXT
  5
1B3
330
6FD
100
AcDbEntity
  8
Level 1
  6
Continuous
 62
     7
370
    30
100
AcDbText
 10
32.135522
 20
-13.190306
 30
0.0
 40
0.010396
  1
Revisions
  7
Style-Arial
100
AcDbText
  0
TEXT
  5
1B4
330
6FD
100
AcDbEntity
  8
Level 1
  6
Continuous
 62
     7
370
    30
100
AcDbText
 10
32.127187
 20
-13.210997
 30
0.0
 40
0.010396
  1
Descriptions
  7
Style-Arial
100
AcDbText
  0
TEXT
  5
1B9
330
6FD
100
AcDbEntity
  8
Level 1
  6
Continuous
 62
     7
370
    30
100
AcDbText
 10
32.079332
 20
-13.343479
 30
0.0
 40
0.010396
  1
U.S. ARMY ENGINEER DISTRICT
  7
Style-Arial
100
AcDbText
  0
TEXT
  5
1BA
330
6FD
100
AcDbEntity
  8
Level 1
  6
Continuous
 62
     7
370
    30
100
AcDbText
 10
32.109601
 20
-13.361797
 30
0.0
 40
0.010396
  1
CORPS OF ENGINEERS
  7
Style-Arial
100
AcDbText
  0
TEXT
  5
1BB
330
6FD
100
AcDbEntity
  8
Level 1
  6
Continuous
 62
     7
370
    30
100
AcDbText
 10
32.123588
 20
-13.379463
 30
0.0
 40
0.010396
  1
OMAHA, NEBRASKA
  7
Style-Arial
100
AcDbText
  0
TEXT
  5
1BC
330
6FD
100
AcDbEntity
  8
Level 1
  6
Continuous
 62
     7
370
    30
100
AcDbText
 10
32.025156
 20
-13.421106
 30
0.0
 40
0.010396
  1
X
  7
Style-Arial
100
AcDbText
  0
TEXT
  5
1BD
330
6FD
100
AcDbEntity
  8
Level 1
  6
Continuous
 62
     7
370
    30
100
AcDbText
 10
32.481252
 20
-13.421519
 30
0.0
 40
0.010396
  1
X
  7
Style-Arial
100
AcDbText
  0
TEXT
  5
1BE
330
6FD
100
AcDbEntity
  8
Level 1
  6
Continuous
 62
     7
370
    40
100
AcDbText
 10
32.311462
 20
-13.645788
 30
0.0
 40
0.010396
  1
X
  7
Style-Arial
100
AcDbText
  0
TEXT
  5
1BF
330
6FD
100
AcDbEntity
  8
Level 3
  6
Continuous
 62
     7
370
    40
100
AcDbText
 10
32.257545
 20
-13.467932
 30
0.0
 40
0.010396
  1
X
  7
Style-Arial
100
AcDbText
  0
TEXT
  5
1C0
330
6FD
100
AcDbEntity
  8
Level 1
  6
Continuous
 62
     7
370
    53
100
AcDbText
 10
32.257764
 20
-13.442068
 30
0.0
 40
0.010396
  1
X
  7
Style-Arial
100
AcDbText
  0
TEXT
  5
1C1
330
6FD
100
AcDbEntity
  8
Level 1
  6
Continuous
 62
     7
370
    40
100
AcDbText
 10
32.518449
 20
-13.418109
 30
0.0
 40
0.010396
  1
A
  7
Style-Arial
100
AcDbText
  0
TEXT
  5
1C2
330
6FD
100
AcDbEntity
  8
Level 1
  6
Continuous
 62
     7
370
    40
100
AcDbText
 10
32.523147
 20
-12.832432
 30
0.0
 40
0.010396
  1
B
  7
Style-Arial
100
AcDbText
  0
TEXT
  5
1C3
330
6FD
100
AcDbEntity
  8
Level 1
  6
Continuous
 62
     7
370
    40
100
AcDbText
 10
32.521887
 20
-12.25087
 30
0.0
 40
0.010396
  1
C
  7
Style-Arial
100
AcDbText
  0
TEXT
  5
1C4
330
6FD
100
AcDbEntity
  8
Level 1
  6
Continuous
 62
     7
370
    40
100
AcDbText
 10
32.520616
 20
-11.666661
 30
0.0
 40
0.010396
  1
D
  7
Style-Arial
100
AcDbText
  0
TEXT
  5
1C5
330
6FD
100
AcDbEntity
  8
Level 1
  6
Continuous
 62
     7
370
    40
100
AcDbText
 10
32.20246
 20
-11.392505
 30
0.0
 40
0.010396
  1
1
  7
Style-Arial
100
AcDbText
  0
TEXT
  5
1C6
330
6FD
100
AcDbEntity
  8
Level 1
  6
Continuous
 62
     7
370
    40
100
AcDbText
 10
31.534918
 20
-11.39163
 30
0.0
 40
0.010396
  1
2
  7
Style-Arial
100
AcDbText
  0
TEXT
  5
1C7
330
6FD
100
AcDbEntity
  8
Level 1
  6
Continuous
 62
     7
370
    40
100
AcDbText
 10
30.86772
 20
-11.390661
 30
0.0
 40
0.010396
  1
3
  7
Style-Arial
100
AcDbText
  0
TEXT
  5
1C8
330
6FD
100
AcDbEntity
  8
Level 1
  6
Continuous
 62
     7
370
    40
100
AcDbText
 10
30.202012
 20
-11.391411
 30
0.0
 40
0.010396
  1
4
  7
Style-Arial
100
AcDbText
  0
TEXT
  5
1C9
330
6FD
100
AcDbEntity
  8
Level 1
  6
Continuous
 62
     7
370
    40
100
AcDbText
 10
29.53646
 20
-11.390672
 30
0.0
 40
0.010396
  1
5
  7
Style-Arial
100
AcDbText
  0
TEXT
  5
1CA
330
6FD
100
AcDbEntity
  8
Level 1
  6
Continuous
 62
     7
370
    40
100
AcDbText
 10
29.300022
 20
-11.666391
 30
0.0
 40
0.010396
  1
D
  7
Style-Arial
100
AcDbText
  0
TEXT
  5
1CB
330
6FD
100
AcDbEntity
  8
Level 1
  6
Continuous
 62
     7
370
    40
100
AcDbText
 10
29.300178
 20
-12.250339
 30
0.0
 40
0.010396
  1
C
  7
Style-Arial
100
AcDbText
  0
TEXT
  5
1CC
330
6FD
100
AcDbEntity
  8
Level 1
  6
Continuous
 62
     7
370
    40
100
AcDbText
 10
29.296095
 20
-12.829839
 30
0.0
 40
0.010396
  1
B
  7
Style-Arial
100
AcDbText
  0
TEXT
  5
1CD
330
6FD
100
AcDbEntity
  8
Level 1
  6
Continuous
 62
     7
370
    40
100
AcDbText
 10
29.299168
 20
-13.42087
 30
0.0
 40
0.010396
  1
A
  7
Style-Arial
100
AcDbText
  0
TEXT
  5
1CE
330
6FD
100
AcDbEntity
  8
Level 1
  6
Continuous
 62
     7
370
    40
100
AcDbText
 10
29.53623
 20
-13.687578
 30
0.0
 40
0.010396
  1
5
  7
Style-Arial
100
AcDbText
  0
TEXT
  5
1CF
330
6FD
100
AcDbEntity
  8
Level 1
  6
Continuous
 62
     7
370
    40
100
AcDbText
 10
30.20171
 20
-13.68862
 30
0.0
 40
0.010396
  1
4
  7
Style-Arial
100
AcDbText
  0
TEXT
  5
1D0
330
6FD
100
AcDbEntity
  8
Level 1
  6
Continuous
 62
     7
370
    40
100
AcDbText
 10
30.866178
 20
-13.686526
 30
0.0
 40
0.010396
  1
3
  7
Style-Arial
100
AcDbText
  0
TEXT
  5
1D1
330
6FD
100
AcDbEntity
  8
Level 1
  6
Continuous
 62
     7
370
    40
100
AcDbText
 10
31.533095
 20
-13.687568
 30
0.0
 40
0.010396
  1
2
  7
Style-Arial
100
AcDbText
  0
TEXT
  5
1D2
330
6FD
100
AcDbEntity
  8
Level 1
  6
Continuous
 62
     7
370
    40
100
AcDbText
 10
32.203147
 20
-13.688599
 30
0.0
 40
0.010396
  1
1
  7
Style-Arial
100
AcDbText
  0
TEXT
  5
1D3
330
6FD
100
AcDbEntity
  8
Level 1
  6
Continuous
 62
     7
370
    30
100
AcDbText
 10
32.026927
 20
-13.627564
 30
0.0
 40
0.010396
  1
DACA 45
  7
Style-Arial
100
AcDbText
  0
TEXT
  5
1D4
330
6FD
100
AcDbEntity
  8
Level 1
  6
Continuous
 62
     7
370
    30
100
AcDbText
 10
32.026323
 20
-13.662605
 30
0.0
 40
0.010396
  1
DACA 45
  7
Style-Arial
100
AcDbText
  0
TEXT
  5
1F3
330
6FD
100
AcDbEntity
  8
Level 2
  6
Continuous
 62
     7
370
    30
100
AcDbText
 10
32.201534
 20
-13.575367
 30
0.0
 40
0.010396
  1
12:1
  7
Style-Arial
100
AcDbText
  0
TEXT
  5
1F4
330
6FD
100
AcDbEntity
  8
Level 2
  6
Continuous
 62
     7
370
    30
100
AcDbText
 10
31.945922
 20
-13.593198
 30
0.0
 40
0.010396
  1
X
  7
Style-Arial
100
AcDbText
  0
MTEXT
  5
1F5
330
6FD
100
AcDbEntity
  8
Level 46
  6
Continuous
 62
     7
370
    13
100
AcDbMText
 10
29.669518
 20
-13.428434
 30
0.0
 40
0.010396
 41
0.0
 71
     7
 72
     1
  1
1{\A0;\S1#4;}"
  7
Style-Arial
 11
6.123031769111886E-17
 21
1.0
 31
0.0
 73
     2
 44
1.382053
  0
MTEXT
  5
1F6
330
6FD
100
AcDbEntity
  8
Level 46
  6
Continuous
 62
     7
370
    13
100
AcDbMText
 10
29.700275
 20
-12.871983
 30
0.0
 40
0.010396
 41
0.0
 71
     7
 72
     1
  1
1{\A0;\S9#16;}"
  7
Style-Arial
 73
     2
 44
1.382053
  0
MTEXT
  5
1F7
330
6FD
100
AcDbEntity
  8
Level 46
  6
Continuous
 62
     7
370
    13
100
AcDbMText
 10
29.631977
 20
-12.951954
 30
0.0
 40
0.010396
 41
0.0
 71
     7
 72
     1
  1
{\A0;\S11#16;}"
  7
Style-Arial
 11
6.123031769111886E-17
 21
1.0
 31
0.0
 73
     2
 44
1.382053
  0
MTEXT
  5
1F8
330
6FD
100
AcDbEntity
  8
Level 46
  6
Continuous
 62
     7
370
    13
100
AcDbMText
 10
29.523363
 20
-13.294764
 30
0.0
 40
0.010396
 41
0.0
 71
     7
 72
     1
  1
{\A0;\S5#8;}"
  7
Style-Arial
 73
     2
 44
1.382053
  0
MTEXT
  5
1F9
330
6FD
100
AcDbEntity
  8
Level 46
  6
Continuous
 62
     7
370
    13
100
AcDbMText
 10
29.737717
 20
-13.294671
 30
0.0
 40
0.010396
 41
0.0
 71
     7
 72
     1
  1
{\A0;\S5#8;}"
  7
Style-Arial
 73
     2
 44
1.382053
  0
MTEXT
  5
1FA
330
6FD
100
AcDbEntity
  8
Level 46
  6
Continuous
 62
     7
370
    13
100
AcDbMText
 10
29.952915
 20
-13.295535
 30
0.0
 40
0.010396
 41
0.0
 71
     7
 72
     1
  1
{\A0;\S5#8;}"
  7
Style-Arial
 73
     2
 44
1.382053
  0
MTEXT
  5
1FB
330
6FD
100
AcDbEntity
  8
Level 46
  6
Continuous
 62
     7
370
    13
100
AcDbMText
 10
29.516546
 20
-12.87215
 30
0.0
 40
0.010396
 41
0.0
 71
     7
 72
     1
  1
1{\A0;\S5#16;}"
  7
Style-Arial
 73
     2
 44
1.382053
  0
MTEXT
  5
1FC
330
6FD
100
AcDbEntity
  8
Level 46
  6
Continuous
 62
     7
370
    13
100
AcDbMText
 10
29.605966
 20
-12.757835
 30
0.0
 40
0.010396
 41
0.0
 71
     7
 72
     1
  1
{\A0;\S5#8;}"
  7
Style-Arial
 11
6.123031769111886E-17
 21
1.0
 31
0.0
 73
     2
 44
1.382053
  0
MTEXT
  5
1FD
330
6FD
100
AcDbEntity
  8
Level 46
  6
Continuous
 62
     7
370
    13
100
AcDbMText
 10
29.851768
 20
-12.759307
 30
0.0
 40
0.010396
 41
0.0
 71
     7
 72
     1
  1
{\A0;\S3#4;}"
  7
Style-Arial
 11
6.123031769111886E-17
 21
1.0
 31
0.0
 73
     2
 44
1.382053
  0
MTEXT
  5
1FE
330
6FD
100
AcDbEntity
  8
Level 46
  6
Continuous
 62
     7
370
    13
100
AcDbMText
 10
29.88382
 20
-12.767163
 30
0.0
 40
0.010396
 41
0.0
 71
     7
 72
     1
  1
1{\A0;\S5#16;}"
  7
Style-Arial
 11
6.123031769111886E-17
 21
1.0
 31
0.0
 73
     2
 44
1.382053
  0
MTEXT
  5
1FF
330
6FD
100
AcDbEntity
  8
Level 46
  6
Continuous
 62
     7
370
    13
100
AcDbMText
 10
29.949546
 20
-12.874098
 30
0.0
 40
0.010396
 41
0.0
 71
     7
 72
     1
  1
1{\A0;\S5#16;}"
  7
Style-Arial
 73
     2
 44
1.382053
  0
MTEXT
  5
200
330
6FD
100
AcDbEntity
  8
Level 46
  6
Continuous
 62
     7
370
    13
100
AcDbMText
 10
29.946418
 20
-12.969317
 30
0.0
 40
0.010396
 41
0.0
 71
     7
 72
     1
  1
{\A0;\S11#16;}"
  7
Style-Arial
 73
     2
 44
1.382053
  0
MTEXT
  5
201
330
6FD
100
AcDbEntity
  8
Level 46
  6
Continuous
 62
     7
370
    13
100
AcDbMText
 10
29.953811
 20
-13.010733
 30
0.0
 40
0.010396
 41
0.0
 71
     7
 72
     1
  1
{\A0;\S5#8;}"
  7
Style-Arial
 73
     2
 44
1.382053
  0
MTEXT
  5
202
330
6FD
100
AcDbEntity
  8
Level 46
  6
Continuous
 62
     7
370
    13
100
AcDbMText
 10
29.835675
 20
-12.998048
 30
0.0
 40
0.010396
 41
0.0
 71
     7
 72
     1
  1
{\A0;\S1#2;}"
  7
Style-Arial
 11
6.123031769111886E-17
 21
1.0
 31
0.0
 73
     2
 44
1.382053
  0
MTEXT
  5
203
330
6FD
100
AcDbEntity
  8
Level 46
  6
Continuous
 62
     7
370
    13
100
AcDbMText
 10
29.522613
 20
-13.009962
 30
0.0
 40
0.010396
 41
0.0
 71
     7
 72
     1
  1
{\A0;\S5#8;}"
  7
Style-Arial
 73
     2
 44
1.382053
  0
MTEXT
  5
230
330
6FD
100
AcDbEntity
  8
Level 46
  6
Continuous
 62
     7
370
    13
100
AcDbMText
 10
30.31882
 20
-13.207679
 30
0.0
 40
0.010396
 41
0.0
 71
     7
 72
     1
  1
5{\A0;\S1#2;}" UNDER HEAD
  7
Style-Arial
 11
6.123031769111886E-17
 21
1.0
 31
0.0
 73
     2
 44
1.382053
  0
TEXT
  5
28A
330
6FD
100
AcDbEntity
  8
Level 46
  6
DGN Style 7
 62
     7
370
    13
100
AcDbText
 10
30.427472
 20
-13.568064
 30
0.0
 40
0.010396
  1
NO SCALE
  7
Style-Arial
100
AcDbText
  0
MTEXT
  5
28C
330
6FD
100
AcDbEntity
  8
Level 46
  6
Continuous
 62
     7
370
    13
100
AcDbMText
 10
30.356352
 20
-13.384329
 30
0.0
 40
0.010396
 41
0.0
 71
     7
 72
     1
  1
1{\A0;\S1#8;}"
  7
Style-Arial
 11
6.123031769111886E-17
 21
1.0
 31
0.0
 73
     2
 44
1.382053
  0
MTEXT
  5
28D
330
6FD
100
AcDbEntity
  8
Level 46
  6
Continuous
 62
     7
370
    13
100
AcDbMText
 10
30.398337
 20
-12.867442
 30
0.0
 40
0.010396
 41
0.0
 71
     7
 72
     1
  1
1{\A0;\S1#2;}"
  7
Style-Arial
 73
     2
 44
1.382053
  0
MTEXT
  5
28E
330
6FD
100
AcDbEntity
  8
Level 46
  6
Continuous
 62
     7
370
    13
100
AcDbMText
 10
30.320862
 20
-12.943846
 30
0.0
 40
0.010396
 41
0.0
 71
     7
 72
     1
  1
{\A0;\S5#8;}"
  7
Style-Arial
 11
6.123031769111886E-17
 21
1.0
 31
0.0
 73
     2
 44
1.382053
  0
MTEXT
  5
28F
330
6FD
100
AcDbEntity
  8
Level 46
  6
Continuous
 62
     7
370
    13
100
AcDbMText
 10
30.214644
 20
-13.289733
 30
0.0
 40
0.010396
 41
0.0
 71
     7
 72
     1
  1
{\A0;\S9#16;}"
  7
Style-Arial
 73
     2
 44
1.382053
  0
MTEXT
  5
290
330
6FD
100
AcDbEntity
  8
Level 46
  6
Continuous
 62
     7
370
    13
100
AcDbMText
 10
30.426394
 20
-13.289639
 30
0.0
 40
0.010396
 41
0.0
 71
     7
 72
     1
  1
{\A0;\S9#16;}"
  7
Style-Arial
 73
     2
 44
1.382053
  0
MTEXT
  5
291
330
6FD
100
AcDbEntity
  8
Level 46
  6
Continuous
 62
     7
370
    13
100
AcDbMText
 10
30.638988
 20
-13.290504
 30
0.0
 40
0.010396
 41
0.0
 71
     7
 72
     1
  1
{\A0;\S9#16;}"
  7
Style-Arial
 73
     2
 44
1.382053
  0
MTEXT
  5
292
330
6FD
100
AcDbEntity
  8
Level 46
  6
Continuous
 62
     7
370
    13
100
AcDbMText
 10
30.207827
 20
-12.867119
 30
0.0
 40
0.010396
 41
0.0
 71
     7
 72
     1
  1
1{\A0;\S1#4;}"
  7
Style-Arial
 73
     2
 44
1.382053
  0
MTEXT
  5
293
330
6FD
100
AcDbEntity
  8
Level 46
  6
Continuous
 62
     7
370
    13
100
AcDbMText
 10
30.294643
 20
-12.752804
 30
0.0
 40
0.010396
 41
0.0
 71
     7
 72
     1
  1
{\A0;\S9#16;}"
  7
Style-Arial
 11
6.123031769111886E-17
 21
1.0
 31
0.0
 73
     2
 44
1.382053
  0
MTEXT
  5
294
330
6FD
100
AcDbEntity
  8
Level 46
  6
Continuous
 62
     7
370
    13
100
AcDbMText
 10
30.539956
 20
-12.751829
 30
0.0
 40
0.010396
 41
0.0
 71
     7
 72
     1
  1
{\A0;\S11#16;}"
  7
Style-Arial
 11
6.123031769111886E-17
 21
1.0
 31
0.0
 73
     2
 44
1.382053
  0
MTEXT
  5
295
330
6FD
100
AcDbEntity
  8
Level 46
  6
Continuous
 62
     7
370
    13
100
AcDbMText
 10
30.574966
 20
-12.758673
 30
0.0
 40
0.010396
 41
0.0
 71
     7
 72
     1
  1
1{\A0;\S1#4;}"
  7
Style-Arial
 11
6.123031769111886E-17
 21
1.0
 31
0.0
 73
     2
 44
1.382053
  0
MTEXT
  5
296
330
6FD
100
AcDbEntity
  8
Level 46
  6
Continuous
 62
     7
370
    13
100
AcDbMText
 10
30.635618
 20
-12.869067
 30
0.0
 40
0.010396
 41
0.0
 71
     7
 72
     1
  1
1{\A0;\S1#4;}"
  7
Style-Arial
 73
     2
 44
1.382053
  0
MTEXT
  5
297
330
6FD
100
AcDbEntity
  8
Level 46
  6
Continuous
 62
     7
370
    13
100
AcDbMText
 10
30.640498
 20
-12.965442
 30
0.0
 40
0.010396
 41
0.0
 71
     7
 72
     1
  1
{\A0;\S5#8;}"
  7
Style-Arial
 73
     2
 44
1.382053
  0
MTEXT
  5
298
330
6FD
100
AcDbEntity
  8
Level 46
  6
Continuous
 62
     7
370
    13
100
AcDbMText
 10
30.640133
 20
-13.002244
 30
0.0
 40
0.010396
 41
0.0
 71
     7
 72
     1
  1
{\A0;\S9#16;}"
  7
Style-Arial
 73
     2
 44
1.382053
  0
MTEXT
  5
299
330
6FD
100
AcDbEntity
  8
Level 46
  6
Continuous
 62
     7
370
    13
100
AcDbMText
 10
30.523435
 20
-12.989915
 30
0.0
 40
0.010396
 41
0.0
 71
     7
 72
     1
  1
{\A0;\S7#16;}"
  7
Style-Arial
 11
6.123031769111886E-17
 21
1.0
 31
0.0
 73
     2
 44
1.382053
  0
MTEXT
  5
29A
330
6FD
100
AcDbEntity
  8
Level 46
  6
Continuous
 62
     7
370
    13
100
AcDbMText
 10
30.213894
 20
-13.004931
 30
0.0
 40
0.010396
 41
0.0
 71
     7
 72
     1
  1
{\A0;\S9#16;}"
  7
Style-Arial
 73
     2
 44
1.382053
  0
TEXT
  5
2D6
330
6FD
100
AcDbEntity
  8
Level 46
  6
Continuous
 62
     7
370
    13
100
AcDbText
 10
30.191839
 20
-12.028437
 30
0.0
 40
0.010396
  1
3.20"
 50
90.0
  7
Style-Arial
100
AcDbText
  0
MTEXT
  5
2D7
330
6FD
100
AcDbEntity
  8
Level 46
  6
Continuous
 62
     7
370
    13
100
AcDbMText
 10
30.157893
 20
-12.126517
 30
0.0
 40
0.010396
 41
0.0
 71
     7
 72
     1
  1
1{\A0;\S3#16;}"
  7
Style-Arial
 11
6.123031769111886E-17
 21
1.0
 31
0.0
 73
     2
 44
1.382053
  0
MTEXT
  5
2DE
330
6FD
100
AcDbEntity
  8
Level 46
  6
Continuous
 62
     7
370
    13
100
AcDbMText
 10
30.159612
 20
-11.892516
 30
0.0
 40
0.010396
 41
0.0
 71
     7
 72
     1
  1
4{\A0;\S3#16;}"
  7
Style-Arial
 11
6.123031769111886E-17
 21
1.0
 31
0.0
 73
     2
 44
1.382053
  0
MTEXT
  5
2DF
330
6FD
100
AcDbEntity
  8
Level 46
  6
Continuous
 62
     7
370
    13
100
AcDbMText
 10
30.159779
 20
-11.656746
 30
0.0
 40
0.010396
 41
0.0
 71
     7
 72
     1
  1
1{\A0;\S3#4;}"
  7
Style-Arial
 11
6.123031769111886E-17
 21
1.0
 31
0.0
 73
     2
 44
1.382053
  0
TEXT
  5
2E0
330
6FD
100
AcDbEntity
  8
Level 46
  6
Continuous
 62
     7
370
    13
100
AcDbText
 10
30.244531
 20
-11.887568
 30
0.0
 40
0.010396
  1
NEUTRAL AXIS
  7
Style-Arial
100
AcDbText
  0
MTEXT
  5
2F0
330
6FD
100
AcDbEntity
  8
Level 46
  6
Continuous
 62
     7
370
    13
100
AcDbMText
 10
30.476941
 20
-11.841223
 30
0.0
 40
0.010396
 41
0.0
 71
     7
 72
     1
  1
{\A0;\S21#32;}"
  7
Style-Arial
 73
     2
 44
1.382053
  0
TEXT
  5
2F3
330
6FD
100
AcDbEntity
  8
Level 46
  6
Continuous
 62
     7
370
    13
100
AcDbText
 10
30.63101
 20
-11.854682
 30
0.0
 40
0.010396
  1
L  16" R
  7
Style-Arial
100
AcDbText
  0
TEXT
  5
2F4
330
6FD
100
AcDbEntity
  8
Level 46
  6
Continuous
 62
     7
370
    13
100
AcDbText
 10
30.627729
 20
-11.850922
 30
0.0
 40
0.010396
  1
C
  7
Style-Arial
100
AcDbText
  0
MTEXT
  5
2F5
330
6FD
100
AcDbEntity
  8
Level 46
  6
Continuous
 62
     7
370
    13
100
AcDbMText
 10
30.782904
 20
-12.011109
 30
0.0
 40
0.010396
 41
0.0
 71
     7
 72
     1
  1
3{\A0;\S7#8;}"
  7
Style-Arial
 11
6.123031769111886E-17
 21
1.0
 31
0.0
 73
     2
 44
1.382053
  0
MTEXT
  5
2F6
330
6FD
100
AcDbEntity
  8
Level 46
  6
Continuous
 62
     7
370
    13
100
AcDbMText
 10
30.825737
 20
-11.820269
 30
0.0
 40
0.010396
 41
0.0
 71
     7
 72
     1
  1
7{\A0;\S1#8;}"
  7
Style-Arial
 11
6.123031769111886E-17
 21
1.0
 31
0.0
 73
     2
 44
1.382053
  0
TEXT
  5
2F7
330
6FD
100
AcDbEntity
  8
Level 46
  6
Continuous
 62
     7
370
    13
100
AcDbText
 10
30.463479
 20
-11.634932
 30
0.0
 40
0.010396
  1
132 RE
  7
Style-Arial
100
AcDbText
  0
TEXT
  5
2FC
330
6FD
100
AcDbEntity
  8
Level 46
  6
DGN Style 7
 62
     7
370
    13
100
AcDbText
 10
30.468028
 20
-12.276806
 30
0.0
 40
0.010396
  1
NO SCALE
  7
Style-Arial
100
AcDbText
  0
TEXT
  5
303
330
6FD
100
AcDbEntity
  8
Level 46
  6
Continuous
 62
     7
370
    13
100
AcDbText
 10
30.486677
 20
-12.194651
 30
0.0
 40
0.010396
  1
6"
  7
Style-Arial
100
AcDbText
  0
TEXT
  5
30F
330
6FD
100
AcDbEntity
  8
Level 46
  6
Continuous
 62
     7
370
    13
100
AcDbText
 10
30.488969
 20
-11.501526
 30
0.0
 40
0.010396
  1
3"
  7
Style-Arial
100
AcDbText
  0
TEXT
  5
320
330
6FD
100
AcDbEntity
  8
Level 46
  6
Continuous
 62
     7
370
    13
100
AcDbText
 10
30.630021
 20
-11.828995
 30
0.0
 40
0.010396
  1
L  8" R
  7
Style-Arial
100
AcDbText
  0
TEXT
  5
321
330
6FD
100
AcDbEntity
  8
Level 46
  6
Continuous
 62
     7
370
    13
100
AcDbText
 10
30.62674
 20
-11.825234
 30
0.0
 40
0.010396
  1
C
  7
Style-Arial
100
AcDbText
  0
TEXT
  5
33D
330
6FD
100
AcDbEntity
  8
Level 46
  6
Continuous
 62
     7
370
    13
100
AcDbText
 10
29.589083
 20
-12.100052
 30
0.0
 40
0.010396
  1
1:4
 50
14.032633
  7
Style-Arial
100
AcDbText
  0
TEXT
  5
33E
330
6FD
100
AcDbEntity
  8
Level 46
  6
Continuous
 62
     7
370
    13
100
AcDbText
 10
30.623938
 20
-12.01
 30
0.0
 40
0.010396
  1
16" R
 50
8.072619
  7
Style-Arial
100
AcDbText
  0
MTEXT
  5
33F
330
6FD
100
AcDbEntity
  8
Level 46
  6
Continuous
 62
     7
370
    13
100
AcDbMText
 10
30.600005
 20
-12.066289
 30
0.0
 40
0.010396
 41
0.0
 71
     7
 72
     1
  1
{\A0;\S7#8;}" R
  7
Style-Arial
 11
0.2424011695059091
 21
0.97017610412861
 31
0.0
 73
     2
 44
1.382053
  0
TEXT
  5
340
330
6FD
100
AcDbEntity
  8
Level 46
  6
Continuous
 62
     7
370
    13
100
AcDbText
 10
30.325094
 20
-12.101656
 30
0.0
 40
0.010396
  1
1:4
 50
14.028603
  7
Style-Arial
100
AcDbText
  0
MTEXT
  5
341
330
6FD
100
AcDbEntity
  8
Level 46
  6
Continuous
 62
     7
370
    13
100
AcDbMText
 10
30.287556
 20
-12.160884
 30
0.0
 40
0.010396
 41
0.0
 71
     7
 72
     1
  1
{\A0;\S1#8;}" R
  7
Style-Arial
 73
     2
 44
1.382053
  0
MTEXT
  5
342
330
6FD
100
AcDbEntity
  8
Level 46
  6
Continuous
 62
     7
370
    13
100
AcDbMText
 10
30.669108
 20
-12.156915
 30
0.0
 40
0.010396
 41
0.0
 71
     7
 72
     1
  1
{\A0;\S1#16;}" R
  7
Style-Arial
 73
     2
 44
1.382053
  0
MTEXT
  5
34A
330
6FD
100
AcDbEntity
  8
Level 46
  6
Continuous
 62
     7
370
    13
100
AcDbMText
 10
29.893316
 20
-12.15502
 30
0.0
 40
0.010396
 41
0.0
 71
     7
 72
     1
  1
{\A0;\S1#16;}" R
  7
Style-Arial
 73
     2
 44
1.382053
  0
MTEXT
  5
358
330
6FD
100
AcDbEntity
  8
Level 46
  6
Continuous
 62
     7
370
    13
100
AcDbMText
 10
29.459175
 20
-11.798288
 30
0.0
 40
0.010396
 41
0.0
 71
     7
 72
     1
  1
{\A0;\S11#16;}"
  7
Style-Arial
 11
6.123031769111886E-17
 21
1.0
 31
0.0
 73
     2
 44
1.382053
  0
TEXT
  5
367
330
6FD
100
AcDbEntity
  8
Level 46
  6
Continuous
 62
     7
370
    13
100
AcDbText
 10
29.866958
 20
-11.79674
 30
0.0
 40
0.010396
  1
3" R
 50
349.27075
  7
Style-Arial
100
AcDbText
  0
TEXT
  5
368
330
6FD
100
AcDbEntity
  8
Level 46
  6
Continuous
 62
     7
370
    13
100
AcDbText
 10
29.831281
 20
-11.829406
 30
0.0
 40
0.010396
  1
14" R
 50
355.949125
  7
Style-Arial
100
AcDbText
  0
MTEXT
  5
369
330
6FD
100
AcDbEntity
  8
Level 46
  6
Continuous
 62
     7
370
    13
100
AcDbMText
 10
29.81083
 20
-11.752469
 30
0.0
 40
0.010396
 41
0.0
 71
     7
 72
     1
  1
{\A0;\S3#4;}" R
  7
Style-Arial
 11
0.2423395525581401
 21
-0.9701914972137823
 31
0.0
 73
     2
 44
1.382053
  0
MTEXT
  5
370
330
6FD
100
AcDbEntity
  8
Level 46
  6
Continuous
 62
     7
370
    13
100
AcDbMText
 10
29.822579
 20
-12.075429
 30
0.0
 40
0.010396
 41
0.0
 71
     7
 72
     1
  1
{\A0;\S3#4;}" R
  7
Style-Arial
 11
0.2424571883404085
 21
0.9701621059503734
 31
0.0
 73
     2
 44
1.382053
  0
TEXT
  5
371
330
6FD
100
AcDbEntity
  8
Level 46
  6
Continuous
 62
     7
370
    13
100
AcDbText
 10
29.839198
 20
-12.023115
 30
0.0
 40
0.010396
  1
14" R
 50
7.129633
  7
Style-Arial
100
AcDbText
  0
MTEXT
  5
388
330
6FD
100
AcDbEntity
  8
Level 46
  6
Continuous
 62
     7
370
    13
100
AcDbMText
 10
29.716243
 20
-11.582952
 30
0.0
 40
0.010396
 41
0.0
 71
     7
 72
     1
  1
1{\A0;\S1#4;}"
  7
Style-Arial
 73
     2
 44
1.382053
  0
TEXT
  5
389
330
6FD
100
AcDbEntity
  8
Level 46
  6
Continuous
 62
     7
370
    13
100
AcDbText
 10
29.840854
 20
-11.700115
 30
0.0
 40
0.010396
  1
1:40
 50
91.432744
  7
Style-Arial
100
AcDbText
  0
TEXT
  5
394
330
6FD
100
AcDbEntity
  8
Level 46
  6
Continuous
 62
     7
370
    13
100
AcDbText
 10
29.775385
 20
-11.682583
 30
0.0
 40
0.010396
  1
10" R
 50
86.416517
  7
Style-Arial
100
AcDbText
  0
TEXT
  5
395
330
6FD
100
AcDbEntity
  8
Level 46
  6
Continuous
 62
     7
370
    13
100
AcDbText
 10
29.698198
 20
-11.696854
 30
0.0
 40
0.010396
  1
10" R
 50
93.579014
  7
Style-Arial
100
AcDbText
  0
MTEXT
  5
396
330
6FD
100
AcDbEntity
  8
Level 46
  6
Continuous
 62
     7
370
    13
100
AcDbMText
 10
29.645967
 20
-11.636038
 30
0.0
 40
0.010396
 41
0.0
 71
     7
 72
     1
  1
1{\A0;\S1#2;}" R
  7
Style-Arial
 11
0.3832301283671798
 21
-0.9236528940633895
 31
0.0
 73
     2
 44
1.382053
  0
MTEXT
  5
397
330
6FD
100
AcDbEntity
  8
Level 46
  6
Continuous
 62
     7
370
    13
100
AcDbMText
 10
29.622214
 20
-11.689455
 30
0.0
 40
0.010396
 41
0.0
 71
     7
 72
     1
  1
{\A0;\S3#8;}" R
  7
Style-Arial
 73
     2
 44
1.382053
  0
MTEXT
  5
398
330
6FD
100
AcDbEntity
  8
Level 46
  6
Continuous
 62
     7
370
    13
100
AcDbMText
 10
29.542274
 20
-11.752332
 30
0.0
 40
0.010396
 41
0.0
 71
     7
 72
     1
  1
{\A0;\S1#16;}" R
  7
Style-Arial
 73
     2
 44
1.382053
  0
TEXT
  5
399
330
6FD
100
AcDbEntity
  8
Level 46
  6
Continuous
 62
     7
370
    13
100
AcDbText
 10
29.62701
 20
-11.721358
 30
0.0
 40
0.010396
  1
1:4
 50
345.968397
  7
Style-Arial
100
AcDbText
  0
TEXT
  5
3AA
330
6FD
100
AcDbEntity
  8
Level 46
  6
Continuous
 62
     7
370
    13
100
AcDbText
 10
30.616802
 20
-11.753281
 30
0.0
 40
0.010396
  1
8" R
 50
351.674136
  7
Style-Arial
100
AcDbText
  0
MTEXT
  5
3AB
330
6FD
100
AcDbEntity
  8
Level 46
  6
Continuous
 62
     7
370
    13
100
AcDbMText
 10
30.532613
 20
-11.726041
 30
0.0
 40
0.010396
 41
0.0
 71
     7
 72
     1
  1
{\A0;\S3#4;}" R
  7
Style-Arial
 11
0.5946254142118723
 21
-0.8040028711225845
 31
0.0
 73
     2
 44
1.382053
  0
MTEXT
  5
3AC
330
6FD
100
AcDbEntity
  8
Level 46
  6
Continuous
 62
     7
370
    13
100
AcDbMText
 10
30.576335
 20
-11.729532
 30
0.0
 40
0.010396
 41
0.0
 71
     7
 72
     1
  1
{\A0;\S5#16;}" R
  7
Style-Arial
 73
     2
 44
1.382053
  0
MTEXT
  5
3B5
330
6FD
100
AcDbEntity
  8
Level 46
  6
Continuous
 62
     7
370
    13
100
AcDbMText
 10
30.20331
 20
-11.702783
 30
0.0
 40
0.010396
 41
0.0
 71
     7
 72
     1
  1
{\A0;\S9#32;}"
  7
Style-Arial
 11
6.123031769111886E-17
 21
1.0
 31
0.0
 73
     2
 44
1.382053
  0
MTEXT
  5
3CE
330
6FD
100
AcDbEntity
  8
Level 46
  6
Continuous
 62
     7
370
    13
100
AcDbMText
 10
30.481848
 20
-11.543348
 30
0.0
 40
0.010396
 41
0.0
 71
     7
 72
     1
  1
1{\A0;\S1#2;}"
  7
Style-Arial
 73
     2
 44
1.382053
  0
TEXT
  5
3CF
330
6FD
100
AcDbEntity
  8
Level 46
  6
Continuous
 62
     7
370
    13
100
AcDbText
 10
30.38521
 20
-11.652053
 30
0.0
 40
0.010396
  1
1:40
 50
88.570989
  7
Style-Arial
100
AcDbText
  0
TEXT
  5
3D0
330
6FD
100
AcDbEntity
  8
Level 46
  6
Continuous
 62
     7
370
    13
100
AcDbText
 10
30.435146
 20
-11.641646
 30
0.0
 40
0.010396
  1
10" R
 50
94.299539
  7
Style-Arial
100
AcDbText
  0
TEXT
  5
3D1
330
6FD
100
AcDbEntity
  8
Level 46
  6
Continuous
 62
     7
370
    13
100
AcDbText
 10
30.549563
 20
-11.638615
 30
0.0
 40
0.010396
  1
10" R
 50
85.695756
  7
Style-Arial
100
AcDbText
  0
TEXT
  5
3D2
330
6FD
100
AcDbEntity
  8
Level 46
  6
Continuous
 62
     7
370
    13
100
AcDbText
 10
30.385958
 20
-11.683172
 30
0.0
 40
0.010396
  1
1:4
 50
345.969083
  7
Style-Arial
100
AcDbText
  0
MTEXT
  5
3D3
330
6FD
100
AcDbEntity
  8
Level 46
  6
Continuous
 62
     7
370
    13
100
AcDbMText
 10
30.576984
 20
-11.64111
 30
0.0
 40
0.010396
 41
0.0
 71
     7
 72
     1
  1
1{\A0;\S1#4;}" R
  7
Style-Arial
 11
0.511218586781073
 21
0.8594507295532202
 31
0.0
 73
     2
 44
1.382053
  0
MTEXT
  5
3D4
330
6FD
100
AcDbEntity
  8
Level 46
  6
Continuous
 62
     7
370
    13
100
AcDbMText
 10
30.584121
 20
-11.649942
 30
0.0
 40
0.010396
 41
0.0
 71
     7
 72
     1
  1
{\A0;\S3#8;}" R
  7
Style-Arial
 73
     2
 44
1.382053
  0
TEXT
  5
3EE
330
6FD
100
AcDbEntity
  8
Level 46
  6
Continuous
 62
     7
370
    13
100
AcDbText
 10
30.976505
 20
-12.028437
 30
0.0
 40
0.010396
  1
3.20"
 50
90.0
  7
Style-Arial
100
AcDbText
  0
MTEXT
  5
3EF
330
6FD
100
AcDbEntity
  8
Level 46
  6
Continuous
 62
     7
370
    13
100
AcDbMText
 10
30.94256
 20
-12.126517
 30
0.0
 40
0.010396
 41
0.0
 71
     7
 72
     1
  1
1{\A0;\S3#16;}"
  7
Style-Arial
 11
6.123031769111886E-17
 21
1.0
 31
0.0
 73
     2
 44
1.382053
  0
MTEXT
  5
3F6
330
6FD
100
AcDbEntity
  8
Level 46
  6
Continuous
 62
     7
370
    13
100
AcDbMText
 10
30.944279
 20
-11.904432
 30
0.0
 40
0.010396
 41
0.0
 71
     7
 72
     1
  1
3{\A0;\S15#16;}"
  7
Style-Arial
 11
6.123031769111886E-17
 21
1.0
 31
0.0
 73
     2
 44
1.382053
  0
MTEXT
  5
3F7
330
6FD
100
AcDbEntity
  8
Level 46
  6
Continuous
 62
     7
370
    13
100
AcDbMText
 10
30.944445
 20
-11.675913
 30
0.0
 40
0.010396
 41
0.0
 71
     7
 72
     1
  1
1{\A0;\S15#16;}"
  7
Style-Arial
 11
6.123031769111886E-17
 21
1.0
 31
0.0
 73
     2
 44
1.382053
  0
TEXT
  5
3F8
330
6FD
100
AcDbEntity
  8
Level 46
  6
Continuous
 62
     7
370
    13
100
AcDbText
 10
31.029198
 20
-11.887568
 30
0.0
 40
0.010396
  1
NEUTRAL AXIS
  7
Style-Arial
100
AcDbText
  0
MTEXT
  5
407
330
6FD
100
AcDbEntity
  8
Level 46
  6
Continuous
 62
     7
370
    13
100
AcDbMText
 10
31.267733
 20
-11.852358
 30
0.0
 40
0.010396
 41
0.0
 71
     7
 72
     1
  1
{\A0;\S11#16;}"
  7
Style-Arial
 73
     2
 44
1.382053
  0
TEXT
  5
40A
330
6FD
100
AcDbEntity
  8
Level 46
  6
Continuous
 62
     7
370
    13
100
AcDbText
 10
31.415
 20
-11.864964
 30
0.0
 40
0.010396
  1
L  16" R
  7
Style-Arial
100
AcDbText
  0
TEXT
  5
40B
330
6FD
100
AcDbEntity
  8
Level 46
  6
Continuous
 62
     7
370
    13
100
AcDbText
 10
31.411719
 20
-11.861203
 30
0.0
 40
0.010396
  1
C
  7
Style-Arial
100
AcDbText
  0
MTEXT
  5
40C
330
6FD
100
AcDbEntity
  8
Level 46
  6
Continuous
 62
     7
370
    13
100
AcDbMText
 10
31.56757
 20
-12.011109
 30
0.0
 40
0.010396
 41
0.0
 71
     7
 72
     1
  1
3{\A0;\S3#4;}"
  7
Style-Arial
 11
6.123031769111886E-17
 21
1.0
 31
0.0
 73
     2
 44
1.382053
  0
MTEXT
  5
40D
330
6FD
100
AcDbEntity
  8
Level 46
  6
Continuous
 62
     7
370
    13
100
AcDbMText
 10
31.610404
 20
-11.887842
 30
0.0
 40
0.010396
 41
0.0
 71
     7
 72
     1
  1
7{\A0;\S1#16;}"
  7
Style-Arial
 11
6.123031769111886E-17
 21
1.0
 31
0.0
 73
     2
 44
1.382053
  0
TEXT
  5
40E
330
6FD
100
AcDbEntity
  8
Level 46
  6
Continuous
 62
     7
370
    13
100
AcDbText
 10
31.248146
 20
-11.634932
 30
0.0
 40
0.010396
  1
133 RE
  7
Style-Arial
100
AcDbText
  0
TEXT
  5
413
330
6FD
100
AcDbEntity
  8
Level 46
  6
DGN Style 7
 62
     7
370
    13
100
AcDbText
 10
31.24819
 20
-12.275617
 30
0.0
 40
0.010396
  1
NO SCALE
  7
Style-Arial
100
AcDbText
  0
TEXT
  5
41A
330
6FD
100
AcDbEntity
  8
Level 46
  6
Continuous
 62
     7
370
    13
100
AcDbText
 10
31.271344
 20
-12.194651
 30
0.0
 40
0.010396
  1
6"
  7
Style-Arial
100
AcDbText
  0
TEXT
  5
41D
330
6FD
100
AcDbEntity
  8
Level 46
  6
Continuous
 62
     7
370
    13
100
AcDbText
 10
31.273635
 20
-11.501526
 30
0.0
 40
0.010396
  1
3"
  7
Style-Arial
100
AcDbText
  0
TEXT
  5
421
330
6FD
100
AcDbEntity
  8
Level 46
  6
Continuous
 62
     7
370
    13
100
AcDbText
 10
31.41401
 20
-11.839276
 30
0.0
 40
0.010396
  1
L  8" R
  7
Style-Arial
100
AcDbText
  0
TEXT
  5
422
330
6FD
100
AcDbEntity
  8
Level 46
  6
Continuous
 62
     7
370
    13
100
AcDbText
 10
31.410729
 20
-11.835516
 30
0.0
 40
0.010396
  1
C
  7
Style-Arial
100
AcDbText
  0
TEXT
  5
42C
330
6FD
100
AcDbEntity
  8
Level 46
  6
Continuous
 62
     7
370
    13
100
AcDbText
 10
31.411687
 20
-12.017885
 30
0.0
 40
0.010396
  1
16" R
 50
8.072619
  7
Style-Arial
100
AcDbText
  0
MTEXT
  5
42D
330
6FD
100
AcDbEntity
  8
Level 46
  6
Continuous
 62
     7
370
    13
100
AcDbMText
 10
31.378486
 20
-12.071501
 30
0.0
 40
0.010396
 41
0.0
 71
     7
 72
     1
  1
{\A0;\S3#4;}" R
  7
Style-Arial
 11
0.2424011695059091
 21
0.97017610412861
 31
0.0
 73
     2
 44
1.382053
  0
MTEXT
  5
42E
330
6FD
100
AcDbEntity
  8
Level 46
  6
Continuous
 62
     7
370
    13
100
AcDbMText
 10
31.072223
 20
-12.160884
 30
0.0
 40
0.010396
 41
0.0
 71
     7
 72
     1
  1
{\A0;\S1#8;}" R
  7
Style-Arial
 73
     2
 44
1.382053
  0
MTEXT
  5
42F
330
6FD
100
AcDbEntity
  8
Level 46
  6
Continuous
 62
     7
370
    13
100
AcDbMText
 10
31.453775
 20
-12.156915
 30
0.0
 40
0.010396
 41
0.0
 71
     7
 72
     1
  1
{\A0;\S1#16;}" R
  7
Style-Arial
 73
     2
 44
1.382053
  0
TEXT
  5
437
330
6FD
100
AcDbEntity
  8
Level 46
  6
Continuous
 62
     7
370
    13
100
AcDbText
 10
31.401927
 20
-11.767896
 30
0.0
 40
0.010396
  1
8" R
 50
351.674136
  7
Style-Arial
100
AcDbText
  0
MTEXT
  5
438
330
6FD
100
AcDbEntity
  8
Level 46
  6
Continuous
 62
     7
370
    13
100
AcDbMText
 10
31.313714
 20
-11.741647
 30
0.0
 40
0.010396
 41
0.0
 71
     7
 72
     1
  1
{\A0;\S3#4;}" R
  7
Style-Arial
 11
0.5946254142118723
 21
-0.8040028711225845
 31
0.0
 73
     2
 44
1.382053
  0
MTEXT
  5
439
330
6FD
100
AcDbEntity
  8
Level 46
  6
Continuous
 62
     7
370
    13
100
AcDbMText
 10
31.361255
 20
-11.747339
 30
0.0
 40
0.010396
 41
0.0
 71
     7
 72
     1
  1
{\A0;\S7#16;}" R
  7
Style-Arial
 73
     2
 44
1.382053
  0
MTEXT
  5
440
330
6FD
100
AcDbEntity
  8
Level 46
  6
Continuous
 62
     7
370
    13
100
AcDbMText
 10
30.987977
 20
-11.723529
 30
0.0
 40
0.010396
 41
0.0
 71
     7
 72
     1
  1
{\A0;\S7#32;}"
  7
Style-Arial
 11
6.123031769111886E-17
 21
1.0
 31
0.0
 73
     2
 44
1.382053
  0
TEXT
  5
44B
330
6FD
100
AcDbEntity
  8
Level 46
  6
Continuous
 62
     7
370
    13
100
AcDbText
 10
31.22301
 20
-11.643927
 30
0.0
 40
0.010396
  1
10" R
 50
94.299539
  7
Style-Arial
100
AcDbText
  0
TEXT
  5
44C
330
6FD
100
AcDbEntity
  8
Level 46
  6
Continuous
 62
     7
370
    13
100
AcDbText
 10
31.330583
 20
-11.643177
 30
0.0
 40
0.010396
  1
10" R
 50
85.695756
  7
Style-Arial
100
AcDbText
  0
MTEXT
  5
44D
330
6FD
100
AcDbEntity
  8
Level 46
  6
Continuous
 62
     7
370
    13
100
AcDbMText
 10
31.354148
 20
-11.650901
 30
0.0
 40
0.010396
 41
0.0
 71
     7
 72
     1
  1
1{\A0;\S1#4;}" R
  7
Style-Arial
 11
0.511218586781073
 21
0.8594507295532202
 31
0.0
 73
     2
 44
1.382053
  0
MTEXT
  5
44E
330
6FD
100
AcDbEntity
  8
Level 46
  6
Continuous
 62
     7
370
    13
100
AcDbMText
 10
31.365131
 20
-11.653969
 30
0.0
 40
0.010396
 41
0.0
 71
     7
 72
     1
  1
{\A0;\S3#8;}" R
  7
Style-Arial
 73
     2
 44
1.382053
  0
TEXT
  5
44F
330
6FD
100
AcDbEntity
  8
Level 46
  6
Continuous
 62
     7
370
    13
100
AcDbText
 10
31.085771
 20
-12.107135
 30
0.0
 40
0.010396
  1
1:4.011
 50
14.028603
  7
Style-Arial
100
AcDbText
  0
TEXT
  5
476
330
6FD
100
AcDbEntity
  8
Level 46
  6
Continuous
 62
     7
370
    13
100
AcDbText
 10
31.174838
 20
-11.698372
 30
0.0
 40
0.010396
  1
1:3
 50
341.571858
  7
Style-Arial
100
AcDbText
  0
TEXT
  5
478
330
6FD
100
AcDbEntity
  8
Level 46
  6
Continuous
 62
     7
370
    13
100
AcDbText
 10
31.170475
 20
-11.678483
 30
0.0
 40
0.010396
  1
1:14.3
 50
85.999731
  7
Style-Arial
100
AcDbText
  0
TEXT
  5
47D
330
6FD
100
AcDbEntity
  8
Level 46
  6
Continuous
 62
     7
370
    13
100
AcDbText
 10
31.259458
 20
-11.530464
 30
0.0
 40
0.010396
  1
1.40"
  7
Style-Arial
100
AcDbText
  0
MTEXT
  5
48E
330
6FD
100
AcDbEntity
  8
Level 46
  6
Continuous
 62
     7
370
    13
100
AcDbMText
 10
31.200639
 20
-11.694103
 30
0.0
 40
0.010396
 41
0.0
 71
     7
 72
     1
  1
{\A0;\S1#16;}" R
  7
Style-Arial
 73
     2
 44
1.382053
  0
TEXT
  5
4A5
330
6FD
100
AcDbEntity
  8
Level 46
  6
Continuous
 62
     7
370
    13
100
AcDbText
 10
31.761172
 20
-12.028437
 30
0.0
 40
0.010396
  1
3.347"
 50
90.0
  7
Style-Arial
100
AcDbText
  0
MTEXT
  5
4A6
330
6FD
100
AcDbEntity
  8
Level 46
  6
Continuous
 62
     7
370
    13
100
AcDbMText
 10
31.727227
 20
-12.126517
 30
0.0
 40
0.010396
 41
0.0
 71
     7
 72
     1
  1
1{\A0;\S3#16;}"
  7
Style-Arial
 11
6.123031769111886E-17
 21
1.0
 31
0.0
 73
     2
 44
1.382053
  0
MTEXT
  5
4AD
330
6FD
100
AcDbEntity
  8
Level 46
  6
Continuous
 62
     7
370
    13
100
AcDbMText
 10
31.728945
 20
-11.904859
 30
0.0
 40
0.010396
 41
0.0
 71
     7
 72
     1
  1
4{\A0;\S3#16;}"
  7
Style-Arial
 11
6.123031769111886E-17
 21
1.0
 31
0.0
 73
     2
 44
1.382053
  0
MTEXT
  5
4AE
330
6FD
100
AcDbEntity
  8
Level 46
  6
Continuous
 62
     7
370
    13
100
AcDbMText
 10
31.729112
 20
-11.655079
 30
0.0
 40
0.010396
 41
0.0
 71
     7
 72
     1
  1
1{\A0;\S15#16;}"
  7
Style-Arial
 11
6.123031769111886E-17
 21
1.0
 31
0.0
 73
     2
 44
1.382053
  0
TEXT
  5
4AF
330
6FD
100
AcDbEntity
  8
Level 46
  6
Continuous
 62
     7
370
    13
100
AcDbText
 10
31.814781
 20
-11.872068
 30
0.0
 40
0.010396
  1
NEUTRAL AXIS
  7
Style-Arial
100
AcDbText
  0
MTEXT
  5
4BE
330
6FD
100
AcDbEntity
  8
Level 46
  6
Continuous
 62
     7
370
    13
100
AcDbMText
 10
32.054223
 20
-11.842317
 30
0.0
 40
0.010396
 41
0.0
 71
     7
 72
     1
  1
{\A0;\S11#16;}"
  7
Style-Arial
 73
     2
 44
1.382053
  0
TEXT
  5
4C1
330
6FD
100
AcDbEntity
  8
Level 46
  6
Continuous
 62
     7
370
    13
100
AcDbText
 10
32.19876
 20
-11.854016
 30
0.0
 40
0.010396
  1
L  20" R
  7
Style-Arial
100
AcDbText
  0
TEXT
  5
4C2
330
6FD
100
AcDbEntity
  8
Level 46
  6
Continuous
 62
     7
370
    13
100
AcDbText
 10
32.195479
 20
-11.850255
 30
0.0
 40
0.010396
  1
C
  7
Style-Arial
100
AcDbText
  0
MTEXT
  5
4C3
330
6FD
100
AcDbEntity
  8
Level 46
  6
Continuous
 62
     7
370
    13
100
AcDbMText
 10
32.352237
 20
-12.011109
 30
0.0
 40
0.010396
 41
0.0
 71
     7
 72
     1
  1
3{\A0;\S7#8;}"
  7
Style-Arial
 11
6.123031769111886E-17
 21
1.0
 31
0.0
 73
     2
 44
1.382053
  0
MTEXT
  5
4C4
330
6FD
100
AcDbEntity
  8
Level 46
  6
Continuous
 62
     7
370
    13
100
AcDbMText
 10
32.39507
 20
-11.835081
 30
0.0
 40
0.010396
 41
0.0
 71
     7
 72
     1
  1
7{\A0;\S5#16;}"
  7
Style-Arial
 11
6.123031769111886E-17
 21
1.0
 31
0.0
 73
     2
 44
1.382053
  0
TEXT
  5
4C5
330
6FD
100
AcDbEntity
  8
Level 46
  6
Continuous
 62
     7
370
    13
100
AcDbText
 10
32.032812
 20
-11.634932
 30
0.0
 40
0.010396
  1
136 RE
  7
Style-Arial
100
AcDbText
  0
TEXT
  5
4CA
330
6FD
100
AcDbEntity
  8
Level 46
  6
DGN Style 7
 62
     7
370
    13
100
AcDbText
 10
32.031021
 20
-12.275132
 30
0.0
 40
0.010396
  1
NO SCALE
  7
Style-Arial
100
AcDbText
  0
TEXT
  5
4D1
330
6FD
100
AcDbEntity
  8
Level 46
  6
Continuous
 62
     7
370
    13
100
AcDbText
 10
32.05601
 20
-12.194651
 30
0.0
 40
0.010396
  1
6"
  7
Style-Arial
100
AcDbText
  0
TEXT
  5
4D6
330
6FD
100
AcDbEntity
  8
Level 46
  6
Continuous
 62
     7
370
    13
100
AcDbText
 10
32.197771
 20
-11.828328
 30
0.0
 40
0.010396
  1
L  8" R
  7
Style-Arial
100
AcDbText
  0
TEXT
  5
4D7
330
6FD
100
AcDbEntity
  8
Level 46
  6
Continuous
 62
     7
370
    13
100
AcDbText
 10
32.19449
 20
-11.824568
 30
0.0
 40
0.010396
  1
C
  7
Style-Arial
100
AcDbText
  0
MTEXT
  5
4E1
330
6FD
100
AcDbEntity
  8
Level 46
  6
Continuous
 62
     7
370
    13
100
AcDbMText
 10
32.161329
 20
-12.069678
 30
0.0
 40
0.010396
 41
0.0
 71
     7
 72
     1
  1
{\A0;\S3#4;}" R
  7
Style-Arial
 11
0.2424011695059091
 21
0.97017610412861
 31
0.0
 73
     2
 44
1.382053
  0
MTEXT
  5
4E2
330
6FD
100
AcDbEntity
  8
Level 46
  6
Continuous
 62
     7
370
    13
100
AcDbMText
 10
31.856889
 20
-12.160884
 30
0.0
 40
0.010396
 41
0.0
 71
     7
 72
     1
  1
{\A0;\S1#8;}" R
  7
Style-Arial
 73
     2
 44
1.382053
  0
MTEXT
  5
4E3
330
6FD
100
AcDbEntity
  8
Level 46
  6
Continuous
 62
     7
370
    13
100
AcDbMText
 10
32.238441
 20
-12.156915
 30
0.0
 40
0.010396
 41
0.0
 71
     7
 72
     1
  1
{\A0;\S1#16;}" R
  7
Style-Arial
 73
     2
 44
1.382053
  0
MTEXT
  5
4EB
330
6FD
100
AcDbEntity
  8
Level 46
  6
Continuous
 62
     7
370
    13
100
AcDbMText
 10
32.149305
 20
-11.729271
 30
0.0
 40
0.010396
 41
0.0
 71
     7
 72
     1
  1
{\A0;\S5#16;}" R
  7
Style-Arial
 73
     2
 44
1.382053
  0
MTEXT
  5
4F2
330
6FD
100
AcDbEntity
  8
Level 46
  6
Continuous
 62
     7
370
    13
100
AcDbMText
 10
31.772643
 20
-11.702783
 30
0.0
 40
0.010396
 41
0.0
 71
     7
 72
     1
  1
{\A0;\S9#32;}"
  7
Style-Arial
 11
6.123031769111886E-17
 21
1.0
 31
0.0
 73
     2
 44
1.382053
  0
MTEXT
  5
4F7
330
6FD
100
AcDbEntity
  8
Level 46
  6
Continuous
 62
     7
370
    13
100
AcDbMText
 10
32.133765
 20
-11.627672
 30
0.0
 40
0.010396
 41
0.0
 71
     7
 72
     1
  1
1{\A0;\S1#4;}" R
  7
Style-Arial
 11
0.511218586781073
 21
0.8594507295532202
 31
0.0
 73
     2
 44
1.382053
  0
MTEXT
  5
4F8
330
6FD
100
AcDbEntity
  8
Level 46
  6
Continuous
 62
     7
370
    13
100
AcDbMText
 10
32.142498
 20
-11.642406
 30
0.0
 40
0.010396
 41
0.0
 71
     7
 72
     1
  1
{\A0;\S9#16;}" R
  7
Style-Arial
 73
     2
 44
1.382053
  0
TEXT
  5
4FC
330
6FD
100
AcDbEntity
  8
Level 46
  6
Continuous
 62
     7
370
    13
100
AcDbText
 10
32.044125
 20
-11.509495
 30
0.0
 40
0.010396
  1
1.25"
  7
Style-Arial
100
AcDbText
  0
MTEXT
  5
4FD
330
6FD
100
AcDbEntity
  8
Level 46
  6
Continuous
 62
     7
370
    13
100
AcDbMText
 10
31.979769
 20
-11.684072
 30
0.0
 40
0.010396
 41
0.0
 71
     7
 72
     1
  1
{\A0;\S5#16;}" R
  7
Style-Arial
 73
     2
 44
1.382053
  0
TEXT
  5
4FF
330
6FD
100
AcDbEntity
  8
Level 46
  6
Continuous
 62
     7
370
    13
100
AcDbText
 10
31.884135
 20
-12.102573
 30
0.0
 40
0.010396
  1
1:4
 50
14.028603
  7
Style-Arial
100
AcDbText
  0
TEXT
  5
50C
330
6FD
100
AcDbEntity
  8
Level 46
  6
Continuous
 62
     7
370
    13
100
AcDbText
 10
32.191729
 20
-12.018792
 30
0.0
 40
0.010396
  1
20" R
 50
6.621625
  7
Style-Arial
100
AcDbText
  0
TEXT
  5
514
330
6FD
100
AcDbEntity
  8
Level 46
  6
Continuous
 62
     7
370
    13
100
AcDbText
 10
31.965406
 20
-11.695029
 30
0.0
 40
0.010396
  1
1:4
 50
345.969083
  7
Style-Arial
100
AcDbText
  0
MTEXT
  5
519
330
6FD
100
AcDbEntity
  8
Level 46
  6
Continuous
 62
     7
370
    13
100
AcDbMText
 10
32.049826
 20
-11.492546
 30
0.0
 40
0.010396
 41
0.0
 71
     7
 72
     1
  1
2{\A0;\S15#16;}"
  7
Style-Arial
 73
     2
 44
1.382053
  0
TEXT
  5
51B
330
6FD
100
AcDbEntity
  8
Level 46
  6
Continuous
 62
     7
370
    13
100
AcDbText
 10
31.956637
 20
-11.651595
 30
0.0
 40
0.010396
  1
1:40
 50
88.570989
  7
Style-Arial
100
AcDbText
  0
MTEXT
  5
52C
330
6FD
100
AcDbEntity
  8
Level 46
  6
Continuous
 62
     7
370
    13
100
AcDbMText
 10
32.101895
 20
-11.720972
 30
0.0
 40
0.010396
 41
0.0
 71
     7
 72
     1
  1
{\A0;\S3#4;}" R
  7
Style-Arial
 11
0.5664156262578754
 21
-0.8241197354334495
 31
0.0
 73
     2
 44
1.382053
  0
TEXT
  5
52D
330
6FD
100
AcDbEntity
  8
Level 46
  6
Continuous
 62
     7
370
    13
100
AcDbText
 10
32.181875
 20
-11.753781
 30
0.0
 40
0.010396
  1
8" R
 50
351.688819
  7
Style-Arial
100
AcDbText
  0
TEXT
  5
53E
330
6FD
100
AcDbEntity
  8
Level 46
  6
Continuous
 62
     7
370
    13
100
AcDbText
 10
32.013323
 20
-11.631427
 30
0.0
 40
0.010396
  1
10" R
 50
93.585869
  7
Style-Arial
100
AcDbText
  0
TEXT
  5
53F
330
6FD
100
AcDbEntity
  8
Level 46
  6
Continuous
 62
     7
370
    13
100
AcDbText
 10
32.108646
 20
-11.629344
 30
0.0
 40
0.010396
  1
10" R
 50
86.416517
  7
Style-Arial
100
AcDbText
  0
TEXT
  5
548
330
6FD
100
AcDbEntity
  8
Level 1
  6
Continuous
 62
     7
370
    30
100
AcDbText
 10
32.280068
 20
-13.591755
 30
0.0
 40
0.010396
  1
DECEMBER 1997
  7
Style-Arial
100
AcDbText
  0
TEXT
  5
549
330
6FD
100
AcDbEntity
  8
Level 2
  6
Continuous
 62
     7
370
    30
100
AcDbText
 10
32.109198
 20
-13.595678
 30
0.0
 40
0.010396
  1
C103.DGN
  7
Style-Arial
100
AcDbText
  0
TEXT
  5
54A
330
6FD
100
AcDbEntity
  8
Level 2
  6
Continuous
 62
     7
370
    30
100
AcDbText
 10
31.945922
 20
-13.489031
 30
0.0
 40
0.010396
  1
X
  7
Style-Arial
100
AcDbText
  0
TEXT
  5
54B
330
6FD
100
AcDbEntity
  8
Level 2
  6
Continuous
 62
     7
370
    13
100
AcDbText
 10
31.921772
 20
-13.655729
 30
0.0
 40
0.010396
  1
X
  7
Style-Arial
100
AcDbText
  0
LINE
  5
6E5
330
6FD
100
AcDbEntity
  8
Level 46
  6
DGN Style 7
 62
     7
370
     0
100
AcDbLine
 10
30.495229
 20
-11.834305
 30
0.0
 11
30.495229
 21
-11.866031
 31
0.0
  0
LINE
  5
6E6
330
6FD
100
AcDbEntity
  8
Level 46
  6
DGN Style 7
 62
     7
370
     0
100
AcDbLine
 10
30.495229
 20
-11.638393
 30
0.0
 11
30.495229
 21
-11.807661
 31
0.0
  0
LINE
  5
6E7
330
6FD
100
AcDbEntity
  8
Level 46
  6
DGN Style 7
 62
     7
370
     0
100
AcDbLine
 10
29.731396
 20
-11.653152
 30
0.0
 11
29.731396
 21
-11.858337
 31
0.0
  0
LINE
  5
6E8
330
6FD
100
AcDbEntity
  8
Level 46
  6
DGN Style 7
 62
     7
370
     0
100
AcDbLine
 10
31.279896
 20
-11.638044
 30
0.0
 11
31.279896
 21
-11.817238
 31
0.0
  0
LINE
  5
6E9
330
6FD
100
AcDbEntity
  8
Level 46
  6
DGN Style 7
 62
     7
370
     0
100
AcDbLine
 10
32.064563
 20
-11.63851
 30
0.0
 11
32.064563
 21
-11.806211
 31
0.0
  0
TEXT
  5
154
330
6FD
100
AcDbEntity
  8
Level 46
  6
Continuous
 62
     7
370
    53
100
AcDbText
 10
29.558114
 20
-12.259337
 30
0.0
 40
0.020792
  1
115 LB RE RAIL SECTION
  7
Style-Arial
100
AcDbText
  0
TEXT
  5
2FE
330
6FD
100
AcDbEntity
  8
Level 46
  6
Continuous
 62
     7
370
    53
100
AcDbText
 10
30.31026
 20
-12.247809
 30
0.0
 40
0.020792
  1
132 LB RE RAIL SECTION
  7
Style-Arial
100
AcDbText
  0
TEXT
  5
415
330
6FD
100
AcDbEntity
  8
Level 46
  6
Continuous
 62
     7
370
    53
100
AcDbText
 10
31.101813
 20
-12.248984
 30
0.0
 40
0.020792
  1
133 LB RE RAIL SECTION
  7
Style-Arial
100
AcDbText
  0
TEXT
  5
4CC
330
6FD
100
AcDbEntity
  8
Level 46
  6
Continuous
 62
     7
370
    53
100
AcDbText
 10
31.879251
 20
-12.252417
 30
0.0
 40
0.020792
  1
136 LB RE RAIL SECTION
  7
Style-Arial
100
AcDbText
  0
MTEXT
  5
29B
330
6FD
100
AcDbEntity
  8
Level 46
  6
Continuous
 62
     7
370
    53
100
AcDbMText
 10
30.126019
 20
-13.561818
 30
0.0
 40
0.020792
 41
0.0
 71
     7
 72
     1
  1
TYPICAL 5{\A0;\S1#2;}" X{\A0;\S9#16;}" CUT TRACK SPIKE DETAIL
  7
Style-Arial
 73
     2
 44
1.382053
  0
MTEXT
  5
204
330
6FD
100
AcDbEntity
  8
Level 46
  6
Continuous
 62
     7
370
    53
100
AcDbMText
 10
29.452707
 20
-13.564918
 30
0.0
 40
0.020792
 41
0.0
 71
     7
 72
     1
  1
TYPICAL 6" X{\A0;\S5#8;}" CUT TRACK SPIKE DETAIL
  7
Style-Arial
 73
     2
 44
1.382053
  0
TEXT
  5
1B8
330
6FD
100
AcDbEntity
  8
Level 1
  6
Continuous
 62
     7
370
    40
100
AcDbText
 10
31.992737
 20
-13.158006
 30
0.0
 40
0.015594
  1
$$ - THINK VALUE ENGINEERING - $$
  7
Style-Arial
100
AcDbText
  0
TEXT
  5
1F2
330
6FD
100
AcDbEntity
  8
Level 2
  6
Continuous
 62
     7
370
    40
100
AcDbText
 10
32.427061
 20
-13.639818
 30
0.0
 40
0.015594
  1
C1.03
  7
Style-Arial
100
AcDbText
  0
TEXT
  5
1F1
330
6FD
100
AcDbEntity
  8
Level 2
  6
Continuous
 62
     7
370
    53
100
AcDbText
 10
32.127941
 20
-13.52782
 30
0.0
 40
0.015594
  1
RAIL AND SPIKE DETAILS
  7
Style-Arial
100
AcDbText
  0
ENDSEC
  0
SECTION
  2
OBJECTS
  0
DICTIONARY
  5
6F1
330
0
100
AcDbDictionary
281
     1
  3
ACAD_COLOR
350
710
  3
ACAD_GROUP
350
70D
  3
ACAD_LAYOUT
350
701
  3
ACAD_MATERIAL
350
70F
  3
ACAD_MLINESTYLE
350
6FB
  3
ACAD_PLOTSETTINGS
350
70E
  3
ACAD_PLOTSTYLENAME
350
6F0
  3
ACAD_TABLESTYLE
350
72D
  3
AcadDim
350
71C
  3
MicroStation
350
714
  0
DICTIONARY
  5
6ED
330
6EC
100
AcDbDictionary
280
     1
281
     1
  3
ACAD_LAYERFILTERS
360
713
  3
ACAD_LAYERSTATES
360
6EE
  0
DICTIONARY
  5
729
330
6FD
100
AcDbDictionary
280
     1
281
     1
  3
ACAD_SORTENTS
360
72A
  0
DICTIONARY
  5
710
102
{ACAD_REACTORS
330
6F1
102
}
330
6F1
100
AcDbDictionary
281
     1
  0
DICTIONARY
  5
70D
102
{ACAD_REACTORS
330
6F1
102
}
330
6F1
100
AcDbDictionary
281
     1
  0
DICTIONARY
  5
701
102
{ACAD_REACTORS
330
6F1
102
}
330
6F1
100
AcDbDictionary
281
     1
  3
Layout1
350
705
  3
Model
350
700
  0
DICTIONARY
  5
70F
102
{ACAD_REACTORS
330
6F1
102
}
330
6F1
100
AcDbDictionary
281
     1
  0
DICTIONARY
  5
6FB
102
{ACAD_REACTORS
330
6F1
102
}
330
6F1
100
AcDbDictionary
281
     1
  3
Standard
350
6FA
  0
DICTIONARY
  5
70E
102
{ACAD_REACTORS
330
6F1
102
}
330
6F1
100
AcDbDictionary
281
     1
  0
ACDBDICTIONARYWDFLT
  5
6F0
102
{ACAD_REACTORS
330
6F1
102
}
330
6F1
100
AcDbDictionary
281
     1
  3
Normal
350
6EF
100
AcDbDictionaryWithDefault
340
6EF
  0
DICTIONARY
  5
72D
102
{ACAD_REACTORS
330
6F1
102
}
330
6F1
100
AcDbDictionary
281
     1
  0
XRECORD
  5
71C
102
{ACAD_REACTORS
330
6F1
102
}
330
6F1
100
AcDbXrecord
280
     1
 90
   990106
  3
 
 60
     0
 61
     0
 62
     1
 63
     1
 64
     0
 65
     0
 66
     0
 67
     3
 68
     1
 69
     1
 70
     0
 71
     0
 72
     0
 40
0.0
170
     0
  0
DICTIONARY
  5
714
102
{ACAD_REACTORS
330
6F1
102
}
330
6F1
100
AcDbDictionary
281
     1
  3
ApplicationElement 1430
350
596
  3
ModelApplicationElement 0 1429
350
595
  0
DICTIONARY
  5
713
102
{ACAD_REACTORS
330
6ED
102
}
330
6ED
100
AcDbDictionary
281
     1
  0
DICTIONARY
  5
6EE
102
{ACAD_REACTORS
330
6ED
102
}
330
6ED
100
AcDbDictionary
281
     1
  0
SORTENTSTABLE
  5
72A
102
{ACAD_REACTORS
330
729
102
}
330
729
100
AcDbSortentsTable
330
6FD
331
9B
  5
42D
331
9C
  5
9B
331
9E
  5
9C
331
A0
  5
9E
331
A2
  5
A0
331
A4
  5
A2
331
A5
  5
A4
331
A7
  5
A5
331
A9
  5
A7
331
AA
  5
A9
331
AB
  5
AA
331
AC
  5
AB
331
AD
  5
AC
331
AE
  5
AD
331
B0
  5
AE
331
B2
  5
B0
331
B4
  5
B2
331
B6
  5
B4
331
B8
  5
B6
331
BA
  5
B8
331
BB
  5
BA
331
BC
  5
BB
331
BD
  5
BC
331
BE
  5
BD
331
C0
  5
BE
331
C2
  5
C0
331
C4
  5
C2
331
C6
  5
C4
331
C7
  5
C6
331
C9
  5
C7
331
CB
  5
C9
331
CC
  5
CB
331
CD
  5
CC
331
CF
  5
CD
331
D1
  5
CF
331
D2
  5
D1
331
D3
  5
D2
331
D4
  5
D3
331
D5
  5
D4
331
D6
  5
D5
331
D7
  5
D6
331
D9
  5
D7
331
DB
  5
D9
331
DD
  5
DB
331
DF
  5
DD
331
E0
  5
DF
331
E1
  5
E0
331
E2
  5
E1
331
E3
  5
E2
331
E4
  5
E3
331
E5
  5
E4
331
E6
  5
E5
331
E7
  5
E6
331
E8
  5
E7
331
E9
  5
E8
331
EA
  5
E9
331
EB
  5
EA
331
ED
  5
EB
331
EF
  5
ED
331
F0
  5
EF
331
F1
  5
F0
331
F2
  5
F1
331
F4
  5
F2
331
F6
  5
F4
331
F7
  5
F6
331
F8
  5
F7
331
F9
  5
F8
331
FB
  5
F9
331
FD
  5
FB
331
FE
  5
FD
331
FF
  5
FE
331
100
  5
FF
331
102
  5
100
331
104
  5
102
331
105
  5
42E
331
106
  5
104
331
107
  5
105
331
108
  5
106
331
109
  5
107
331
10A
  5
108
331
10B
  5
109
331
10C
  5
10A
331
10D
  5
10B
331
10E
  5
10C
331
10F
  5
10D
331
110
  5
10E
331
111
  5
10F
331
112
  5
110
331
113
  5
111
331
114
  5
112
331
115
  5
113
331
116
  5
114
331
117
  5
115
331
118
  5
116
331
11A
  5
117
331
11C
  5
42F
331
11D
  5
118
331
11E
  5
11A
331
120
  5
11C
331
122
  5
11D
331
124
  5
11E
331
126
  5
120
331
128
  5
430
331
129
  5
431
331
12A
  5
122
331
12C
  5
124
331
12E
  5
126
331
130
  5
432
331
131
  5
434
331
132
  5
435
331
133
  5
128
331
134
  5
129
331
135
  5
12A
331
136
  5
12C
331
137
  5
12E
331
139
  5
130
331
13B
  5
131
331
13D
  5
132
331
13F
  5
133
331
141
  5
134
331
143
  5
135
331
145
  5
437
331
146
  5
136
331
147
  5
137
331
148
  5
438
331
149
  5
439
331
14A
  5
43A
331
14B
  5
43B
331
14C
  5
43C
331
14D
  5
139
331
14F
  5
13B
331
151
  5
43E
331
152
  5
440
331
153
  5
13D
331
154
  5
548
331
155
  5
13F
331
156
  5
141
331
157
  5
143
331
158
  5
145
331
159
  5
146
331
15A
  5
147
331
15B
  5
148
331
15C
  5
149
331
15D
  5
14A
331
15E
  5
14B
331
15F
  5
14C
331
160
  5
14D
331
161
  5
14F
331
162
  5
151
331
163
  5
152
331
164
  5
153
331
165
  5
154
331
166
  5
155
331
167
  5
156
331
168
  5
157
331
169
  5
158
331
16A
  5
159
331
16B
  5
15A
331
16C
  5
15B
331
16D
  5
15C
331
16E
  5
15D
331
16F
  5
15E
331
170
  5
15F
331
171
  5
160
331
172
  5
161
331
173
  5
162
331
174
  5
163
331
175
  5
164
331
176
  5
165
331
177
  5
166
331
178
  5
167
331
179
  5
168
331
17A
  5
169
331
17B
  5
16A
331
17C
  5
16B
331
17D
  5
16C
331
17E
  5
16D
331
17F
  5
16E
331
180
  5
16F
331
181
  5
170
331
182
  5
171
331
183
  5
172
331
184
  5
173
331
185
  5
174
331
186
  5
175
331
187
  5
176
331
188
  5
177
331
189
  5
178
331
18A
  5
179
331
18B
  5
17A
331
18C
  5
17B
331
18D
  5
17C
331
18E
  5
17D
331
18F
  5
17E
331
190
  5
441
331
191
  5
442
331
192
  5
443
331
193
  5
444
331
194
  5
445
331
195
  5
446
331
196
  5
447
331
197
  5
449
331
198
  5
17F
331
199
  5
180
331
19A
  5
181
331
19B
  5
182
331
19C
  5
44B
331
19D
  5
44C
331
19E
  5
44D
331
19F
  5
44E
331
1A0
  5
44F
331
1A1
  5
450
331
1A2
  5
451
331
1A3
  5
452
331
1A4
  5
453
331
1A5
  5
454
331
1A6
  5
455
331
1A7
  5
456
331
1A8
  5
457
331
1A9
  5
458
331
1AA
  5
459
331
1AB
  5
45B
331
1AC
  5
45C
331
1AD
  5
45E
331
1AE
  5
183
331
1AF
  5
184
331
1B0
  5
45F
331
1B1
  5
460
331
1B2
  5
461
331
1B3
  5
462
331
1B4
  5
463
331
1B5
  5
185
331
1B6
  5
186
331
1B7
  5
187
331
1B8
  5
6E7
331
1B9
  5
464
331
1BA
  5
466
331
1BB
  5
467
331
1BC
  5
468
331
1BD
  5
469
331
1BE
  5
46A
331
1BF
  5
46B
331
1C0
  5
46C
331
1C1
  5
46E
331
1C2
  5
470
331
1C3
  5
471
331
1C4
  5
472
331
1C5
  5
473
331
1C6
  5
474
331
1C7
  5
475
331
1C8
  5
476
331
1C9
  5
477
331
1CA
  5
478
331
1CB
  5
479
331
1CC
  5
47A
331
1CD
  5
47B
331
1CE
  5
47C
331
1CF
  5
47D
331
1D0
  5
47E
331
1D1
  5
47F
331
1D2
  5
480
331
1D3
  5
481
331
1D4
  5
482
331
1D5
  5
188
331
1D6
  5
189
331
1D7
  5
18A
331
1D8
  5
18B
331
1D9
  5
18C
331
1DC
  5
18D
331
1DF
  5
18E
331
1E2
  5
18F
331
1E5
  5
190
331
1E8
  5
191
331
1EB
  5
192
331
1EE
  5
193
331
1F1
  5
6E9
331
1F2
  5
6E8
331
1F3
  5
483
331
1F4
  5
484
331
1F5
  5
486
331
1F6
  5
488
331
1F7
  5
489
331
1F8
  5
48A
331
1F9
  5
48C
331
1FA
  5
48E
331
1FB
  5
48F
331
1FC
  5
490
331
1FD
  5
492
331
1FE
  5
493
331
1FF
  5
494
331
200
  5
495
331
201
  5
496
331
202
  5
498
331
203
  5
49A
331
204
  5
6E6
331
205
  5
194
331
206
  5
195
331
207
  5
196
331
208
  5
197
331
209
  5
198
331
20A
  5
199
331
20B
  5
19A
331
20C
  5
19B
331
20D
  5
19C
331
20E
  5
19D
331
20F
  5
19E
331
210
  5
19F
331
211
  5
1A0
331
212
  5
1A1
331
213
  5
1A2
331
214
  5
1A3
331
215
  5
1A4
331
216
  5
1A5
331
217
  5
1A6
331
218
  5
1A7
331
219
  5
1A8
331
21A
  5
1A9
331
21B
  5
1AA
331
21C
  5
1AB
331
21D
  5
1AC
331
21E
  5
1AD
331
21F
  5
1AE
331
220
  5
1AF
331
221
  5
1B0
331
222
  5
1B1
331
223
  5
1B2
331
224
  5
1B3
331
225
  5
1B4
331
226
  5
1B5
331
227
  5
1B6
331
228
  5
1B7
331
229
  5
1B8
331
22A
  5
1B9
331
22B
  5
1BA
331
22C
  5
1BB
331
22D
  5
1BC
331
22E
  5
1BD
331
22F
  5
1BE
331
230
  5
49B
331
231
  5
1BF
331
233
  5
1C0
331
235
  5
1C1
331
237
  5
1C2
331
239
  5
1C3
331
23B
  5
1C4
331
23D
  5
1C5
331
23E
  5
1C6
331
23F
  5
1C7
331
240
  5
1C8
331
242
  5
1C9
331
244
  5
1CA
331
246
  5
1CB
331
248
  5
1CC
331
24A
  5
1CD
331
24C
  5
1CE
331
24D
  5
1CF
331
24E
  5
1D0
331
24F
  5
1D1
331
251
  5
1D2
331
253
  5
1D3
331
255
  5
1D4
331
257
  5
1D5
331
259
  5
1D6
331
25B
  5
1D7
331
25C
  5
1D8
331
25D
  5
1D9
331
25F
  5
1DC
331
261
  5
1DF
331
262
  5
1E2
331
263
  5
1E5
331
264
  5
1E8
331
265
  5
1EB
331
266
  5
1EE
331
267
  5
1F1
331
269
  5
1F2
331
26B
  5
1F3
331
26D
  5
1F4
331
26F
  5
1F5
331
270
  5
1F6
331
271
  5
1F7
331
272
  5
1F8
331
273
  5
1F9
331
274
  5
1FA
331
275
  5
1FB
331
276
  5
1FC
331
278
  5
1FD
331
27A
  5
1FE
331
27B
  5
1FF
331
27D
  5
200
331
27F
  5
201
331
280
  5
202
331
282
  5
203
331
284
  5
204
331
285
  5
205
331
287
  5
206
331
289
  5
207
331
28A
  5
49D
331
28B
  5
208
331
28C
  5
49F
331
28D
  5
4A1
331
28E
  5
4A3
331
28F
  5
4A5
331
290
  5
4A6
331
291
  5
4A7
331
292
  5
4A9
331
293
  5
4AB
331
294
  5
4AD
331
295
  5
4AE
331
296
  5
4AF
331
297
  5
4B0
331
298
  5
4B2
331
299
  5
4B4
331
29A
  5
4B6
331
29B
  5
6E5
331
29C
  5
209
331
29D
  5
20A
331
29E
  5
20B
331
29F
  5
20C
331
2A0
  5
20D
331
2A1
  5
20E
331
2A2
  5
20F
331
2A3
  5
210
331
2A4
  5
211
331
2A5
  5
212
331
2A6
  5
213
331
2A7
  5
214
331
2A8
  5
215
331
2A9
  5
216
331
2AA
  5
217
331
2AB
  5
218
331
2AC
  5
219
331
2AD
  5
21A
331
2AE
  5
21B
331
2AF
  5
21C
331
2B0
  5
21D
331
2B1
  5
21E
331
2B2
  5
21F
331
2B3
  5
220
331
2B4
  5
221
331
2B5
  5
222
331
2B6
  5
223
331
2B7
  5
224
331
2B8
  5
225
331
2B9
  5
226
331
2BA
  5
227
331
2BB
  5
228
331
2BC
  5
229
331
2BD
  5
22A
331
2BE
  5
22B
331
2BF
  5
22C
331
2C0
  5
22D
331
2C1
  5
22E
331
2C2
  5
22F
331
2C3
  5
230
331
2C4
  5
231
331
2C5
  5
233
331
2C6
  5
235
331
2C7
  5
237
331
2C9
  5
239
331
2CB
  5
23B
331
2CC
  5
23D
331
2CE
  5
23E
331
2D0
  5
23F
331
2D2
  5
240
331
2D4
  5
242
331
2D6
  5
4B8
331
2D7
  5
4BA
331
2D8
  5
244
331
2DA
  5
246
331
2DC
  5
248
331
2DE
  5
4BC
331
2DF
  5
4BE
331
2E0
  5
4BF
331
2E1
  5
24A
331
2E2
  5
24C
331
2E4
  5
24D
331
2E6
  5
24E
331
2E8
  5
24F
331
2EA
  5
251
331
2EC
  5
253
331
2EE
  5
255
331
2F0
  5
4C0
331
2F1
  5
257
331
2F2
  5
259
331
2F3
  5
4C1
331
2F4
  5
4C2
331
2F5
  5
4C3
331
2F6
  5
4C4
331
2F7
  5
4C5
331
2F8
  5
25B
331
2FA
  5
25C
331
2FC
  5
4C6
331
2FD
  5
25D
331
2FE
  5
549
331
2FF
  5
25F
331
300
  5
261
331
301
  5
262
331
302
  5
263
331
303
  5
4C8
331
304
  5
264
331
305
  5
265
331
306
  5
266
331
307
  5
267
331
308
  5
269
331
309
  5
26B
331
30A
  5
26D
331
30B
  5
26F
331
30C
  5
270
331
30D
  5
271
331
30E
  5
272
331
30F
  5
4CA
331
310
  5
273
331
311
  5
274
331
312
  5
275
331
313
  5
276
331
314
  5
278
331
315
  5
27A
331
316
  5
27B
331
317
  5
27D
331
318
  5
27F
331
319
  5
280
331
31A
  5
282
331
31B
  5
284
331
31C
  5
285
331
31D
  5
287
331
31E
  5
289
331
31F
  5
28A
331
320
  5
4CB
331
321
  5
4CC
331
322
  5
28B
331
323
  5
28C
331
324
  5
28D
331
325
  5
28E
331
326
  5
28F
331
327
  5
290
331
328
  5
291
331
329
  5
292
331
32A
  5
293
331
32B
  5
294
331
32C
  5
295
331
32D
  5
296
331
32E
  5
297
331
32F
  5
298
331
330
  5
299
331
331
  5
29A
331
332
  5
29B
331
333
  5
29C
331
334
  5
29D
331
335
  5
29E
331
336
  5
29F
331
337
  5
2A0
331
338
  5
2A1
331
339
  5
2A2
331
33B
  5
2A3
331
33D
  5
4CD
331
33E
  5
4CE
331
33F
  5
4CF
331
340
  5
4D0
331
341
  5
4D1
331
342
  5
4D2
331
343
  5
2A4
331
344
  5
2A5
331
345
  5
2A6
331
347
  5
2A7
331
348
  5
2A8
331
34A
  5
4D3
331
34B
  5
2A9
331
34C
  5
2AA
331
34D
  5
2AB
331
34F
  5
2AC
331
351
  5
2AD
331
352
  5
2AE
331
353
  5
2AF
331
354
  5
2B0
331
356
  5
2B1
331
358
  5
4D4
331
359
  5
2B2
331
35A
  5
2B3
331
35B
  5
2B4
331
35C
  5
2B5
331
35D
  5
2B6
331
35E
  5
2B7
331
35F
  5
2B8
331
360
  5
2B9
331
361
  5
2BA
331
363
  5
2BB
331
365
  5
2BC
331
367
  5
4D5
331
368
  5
4D6
331
369
  5
4D7
331
36A
  5
2BD
331
36B
  5
2BE
331
36C
  5
2BF
331
36E
  5
2C0
331
370
  5
4D8
331
371
  5
4D9
331
372
  5
2C1
331
373
  5
2C2
331
374
  5
2C3
331
375
  5
2C4
331
376
  5
2C5
331
377
  5
2C6
331
378
  5
2C7
331
379
  5
2C9
331
37A
  5
2CB
331
37B
  5
2CC
331
37C
  5
2CE
331
37D
  5
2D0
331
37E
  5
2D2
331
37F
  5
2D4
331
380
  5
2D6
331
381
  5
2D7
331
382
  5
2D8
331
383
  5
2DA
331
385
  5
2DC
331
387
  5
2DE
331
388
  5
4DA
331
389
  5
4DB
331
38A
  5
2DF
331
38C
  5
2E0
331
38E
  5
2E1
331
38F
  5
2E2
331
390
  5
2E4
331
392
  5
2E6
331
394
  5
4DC
331
395
  5
4DD
331
396
  5
4DE
331
397
  5
4DF
331
398
  5
4E0
331
399
  5
4E1
331
39A
  5
2E8
331
39B
  5
2EA
331
39D
  5
2EC
331
39E
  5
2EE
331
39F
  5
2F0
331
3A0
  5
2F1
331
3A1
  5
2F2
331
3A2
  5
2F3
331
3A3
  5
2F4
331
3A4
  5
2F5
331
3A6
  5
2F6
331
3A8
  5
2F7
331
3AA
  5
4E2
331
3AB
  5
4E3
331
3AC
  5
4E4
331
3AD
  5
2F8
331
3AE
  5
2FA
331
3AF
  5
2FC
331
3B0
  5
2FD
331
3B1
  5
2FE
331
3B3
  5
2FF
331
3B5
  5
4E5
331
3B6
  5
300
331
3B7
  5
301
331
3B8
  5
302
331
3B9
  5
303
331
3BA
  5
304
331
3BC
  5
305
331
3BE
  5
306
331
3C0
  5
307
331
3C2
  5
308
331
3C3
  5
309
331
3C4
  5
30A
331
3C5
  5
30B
331
3C6
  5
30C
331
3C7
  5
30D
331
3C8
  5
30E
331
3C9
  5
30F
331
3CA
  5
310
331
3CC
  5
311
331
3CE
  5
4E6
331
3CF
  5
4E8
331
3D0
  5
4E9
331
3D1
  5
4EB
331
3D2
  5
4EC
331
3D3
  5
4ED
331
3D4
  5
4EE
331
3D5
  5
312
331
3D6
  5
313
331
3D7
  5
314
331
3D8
  5
315
331
3D9
  5
316
331
3DA
  5
317
331
3DB
  5
318
331
3DC
  5
319
331
3DD
  5
31A
331
3DE
  5
31B
331
3DF
  5
31C
331
3E1
  5
31D
331
3E3
  5
31E
331
3E4
  5
31F
331
3E6
  5
320
331
3E8
  5
321
331
3EA
  5
322
331
3EC
  5
323
331
3EE
  5
4F0
331
3EF
  5
4F2
331
3F0
  5
324
331
3F2
  5
325
331
3F4
  5
326
331
3F6
  5
4F3
331
3F7
  5
4F5
331
3F8
  5
4F7
331
3F9
  5
327
331
3FB
  5
328
331
3FD
  5
329
331
3FF
  5
32A
331
401
  5
32B
331
403
  5
32C
331
405
  5
32D
331
407
  5
4F8
331
408
  5
32E
331
409
  5
32F
331
40A
  5
4F9
331
40B
  5
4FA
331
40C
  5
4FB
331
40D
  5
4FC
331
40E
  5
4FD
331
40F
  5
330
331
411
  5
331
331
413
  5
4FE
331
414
  5
332
331
415
  5
54A
331
416
  5
333
331
417
  5
334
331
418
  5
335
331
419
  5
336
331
41A
  5
4FF
331
41B
  5
337
331
41C
  5
338
331
41D
  5
500
331
41E
  5
339
331
41F
  5
33B
331
420
  5
33D
331
421
  5
501
331
422
  5
502
331
423
  5
33E
331
424
  5
33F
331
425
  5
340
331
426
  5
341
331
427
  5
342
331
428
  5
343
331
429
  5
344
331
42A
  5
345
331
42B
  5
347
331
42C
  5
503
331
42D
  5
504
331
42E
  5
505
331
42F
  5
506
331
430
  5
348
331
431
  5
34A
331
432
  5
34B
331
434
  5
34C
331
435
  5
34D
331
437
  5
507
331
438
  5
509
331
439
  5
50A
331
43A
  5
34F
331
43B
  5
351
331
43C
  5
352
331
43E
  5
353
331
440
  5
50C
331
441
  5
354
331
442
  5
356
331
443
  5
358
331
444
  5
359
331
445
  5
35A
331
446
  5
35B
331
447
  5
35C
331
449
  5
35D
331
44B
  5
50D
331
44C
  5
50E
331
44D
  5
50F
331
44E
  5
510
331
44F
  5
511
331
450
  5
35E
331
451
  5
35F
331
452
  5
360
331
453
  5
361
331
454
  5
363
331
455
  5
365
331
456
  5
367
331
457
  5
368
331
458
  5
369
331
459
  5
36A
331
45B
  5
36B
331
45C
  5
36C
331
45E
  5
36E
331
45F
  5
370
331
460
  5
371
331
461
  5
372
331
462
  5
373
331
463
  5
374
331
464
  5
375
331
466
  5
376
331
467
  5
377
331
468
  5
378
331
469
  5
379
331
46A
  5
37A
331
46B
  5
37B
331
46C
  5
37C
331
46E
  5
37D
331
470
  5
37E
331
471
  5
37F
331
472
  5
380
331
473
  5
381
331
474
  5
382
331
475
  5
383
331
476
  5
512
331
477
  5
385
331
478
  5
513
331
479
  5
387
331
47A
  5
388
331
47B
  5
389
331
47C
  5
38A
331
47D
  5
514
331
47E
  5
38C
331
47F
  5
38E
331
480
  5
38F
331
481
  5
390
331
482
  5
392
331
483
  5
394
331
484
  5
395
331
486
  5
396
331
488
  5
397
331
489
  5
398
331
48A
  5
399
331
48C
  5
39A
331
48E
  5
515
331
48F
  5
39B
331
490
  5
39D
331
492
  5
39E
331
493
  5
39F
331
494
  5
3A0
331
495
  5
3A1
331
496
  5
3A2
331
498
  5
3A3
331
49A
  5
3A4
331
49B
  5
3A6
331
49D
  5
3A8
331
49F
  5
3AA
331
4A1
  5
3AB
331
4A3
  5
3AC
331
4A5
  5
516
331
4A6
  5
517
331
4A7
  5
3AD
331
4A9
  5
3AE
331
4AB
  5
3AF
331
4AD
  5
518
331
4AE
  5
519
331
4AF
  5
51A
331
4B0
  5
3B0
331
4B2
  5
3B1
331
4B4
  5
3B3
331
4B6
  5
3B5
331
4B8
  5
3B6
331
4BA
  5
3B7
331
4BC
  5
3B8
331
4BE
  5
51B
331
4BF
  5
3B9
331
4C0
  5
3BA
331
4C1
  5
51C
331
4C2
  5
51D
331
4C3
  5
51E
331
4C4
  5
51F
331
4C5
  5
520
331
4C6
  5
3BC
331
4C8
  5
3BE
331
4CA
  5
521
331
4CB
  5
3C0
331
4CC
  5
54B
331
4CD
  5
3C2
331
4CE
  5
3C3
331
4CF
  5
3C4
331
4D0
  5
3C5
331
4D1
  5
522
331
4D2
  5
3C6
331
4D3
  5
3C7
331
4D4
  5
3C8
331
4D5
  5
3C9
331
4D6
  5
523
331
4D7
  5
524
331
4D8
  5
3CA
331
4D9
  5
3CC
331
4DA
  5
3CE
331
4DB
  5
3CF
331
4DC
  5
3D0
331
4DD
  5
3D1
331
4DE
  5
3D2
331
4DF
  5
3D3
331
4E0
  5
3D4
331
4E1
  5
526
331
4E2
  5
527
331
4E3
  5
528
331
4E4
  5
3D5
331
4E5
  5
3D6
331
4E6
  5
3D7
331
4E8
  5
3D8
331
4E9
  5
3D9
331
4EB
  5
52A
331
4EC
  5
3DA
331
4ED
  5
3DB
331
4EE
  5
3DC
331
4F0
  5
3DD
331
4F2
  5
52C
331
4F3
  5
3DE
331
4F5
  5
3DF
331
4F7
  5
52D
331
4F8
  5
52E
331
4F9
  5
3E1
331
4FA
  5
3E3
331
4FB
  5
3E4
331
4FC
  5
52F
331
4FD
  5
530
331
4FE
  5
3E6
331
4FF
  5
531
331
500
  5
3E8
331
501
  5
3EA
331
502
  5
3EC
331
503
  5
3EE
331
504
  5
3EF
331
505
  5
3F0
331
506
  5
3F2
331
507
  5
3F4
331
509
  5
3F6
331
50A
  5
3F7
331
50C
  5
532
331
50D
  5
3F8
331
50E
  5
3F9
331
50F
  5
3FB
331
510
  5
3FD
331
511
  5
3FF
331
512
  5
401
331
513
  5
403
331
514
  5
533
331
515
  5
405
331
516
  5
407
331
517
  5
408
331
518
  5
409
331
519
  5
534
331
51A
  5
40A
331
51B
  5
535
331
51C
  5
40B
331
51D
  5
40C
331
51E
  5
40D
331
51F
  5
40E
331
520
  5
40F
331
521
  5
411
331
522
  5
413
331
523
  5
414
331
524
  5
415
331
526
  5
416
331
527
  5
417
331
528
  5
418
331
52A
  5
419
331
52C
  5
536
331
52D
  5
538
331
52E
  5
41A
331
52F
  5
41B
331
530
  5
41C
331
531
  5
41D
331
532
  5
41E
331
533
  5
41F
331
534
  5
420
331
535
  5
421
331
536
  5
422
331
538
  5
423
331
539
  5
424
331
53B
  5
425
331
53C
  5
426
331
53E
  5
539
331
53F
  5
53B
331
540
  5
427
331
541
  5
428
331
542
  5
429
331
544
  5
42A
331
546
  5
42B
331
547
  5
42C
331
548
  5
53C
331
549
  5
53E
331
54A
  5
53F
331
54B
  5
540
331
6E5
  5
541
331
6E6
  5
542
331
6E7
  5
544
331
6E8
  5
546
331
6E9
  5
547
  0
LAYOUT
  5
705
102
{ACAD_REACTORS
330
701
330
701
102
}
102
{ACAD_XDICTIONARY
360
706
102
}
330
701
100
AcDbPlotSettings
  1

  2
none_device
  4
Letter_(8.50_x_11.00_Inches)
  6

 40
6.35
 41
6.35
 42
6.350006
 43
6.350006
 44
215.899994
 45
279.399994
 46
0.0
 47
0.0
 48
0.0
 49
0.0
140
0.0
141
0.0
142
1.0
143
1.0
 70
   688
 72
     0
 73
     1
 74
     5
  7

 75
    16
 76
     0
 77
     2
 78
   300
147
1.0
148
0.0
149
0.0
100
AcDbLayout
  1
Layout1
 70
     1
 71
     1
 10
-0.25
 20
-0.25
 11
10.75
 21
8.25
 12
0.0
 22
0.0
 32
0.0
 14
1.049744
 24
0.799667
 34
-0.001526
 15
9.450623
 25
7.200577
 35
0.0
146
0.0
 13
0.0
 23
0.0
 33
0.0
 16
1.0
 26
0.0
 36
0.0
 17
0.0
 27
1.0
 37
0.0
 76
     0
330
702
1001
ACAD_PSEXT
1000
None
1000
None
1000
Not applicable
1000
The layout will not be plotted unless a new plotter configuration name is selected.
1070
     0
  0
LAYOUT
  5
700
102
{ACAD_REACTORS
330
701
330
701
102
}
330
701
100
AcDbPlotSettings
  1

  2
none_device
  4
ANSI_A_(8.50_x_11.00_Inches)
  6

 40
6.35
 41
19.049999
 42
6.350006
 43
19.049988
 44
215.899994
 45
279.399994
 46
0.0
 47
0.0
 48
0.0
 49
0.0
140
0.0
141
0.0
142
1.0
143
2.584895
 70
 11952
 72
     0
 73
     1
 74
     0
  7

 75
     0
 76
     0
 77
     2
 78
   300
147
0.386863
148
0.0
149
0.0
100
AcDbLayout
  1
Model
 70
     1
 71
     0
 10
0.0
 20
0.0
 11
12.0
 21
9.0
 12
0.0
 22
0.0
 32
0.0
 14
0.0
 24
0.0
 34
0.0
 15
0.0
 25
0.0
 35
0.0
146
0.0
 13
0.0
 23
0.0
 33
0.0
 16
1.0
 26
0.0
 36
0.0
 17
0.0
 27
1.0
 37
0.0
 76
     0
330
6FD
331
49
  0
MLINESTYLE
  5
6FA
102
{ACAD_REACTORS
330
6FB
102
}
330
6FB
100
AcDbMlineStyle
  2
STANDARD
 70
     0
  3

 62
   256
 51
90.0
 52
90.0
 71
     2
 49
0.5
 62
   256
  6
BYLAYER
 49
-0.5
 62
   256
  6
BYLAYER
  0
ACDBPLACEHOLDER
  5
6EF
102
{ACAD_REACTORS
330
6F0
102
}
330
6F0
  0
XRECORD
  5
596
102
{ACAD_REACTORS
330
714
102
}
330
714
100
AcDbXrecord
280
     1
310
3E4F020000004D6F64656C6572000000000000000000000000000000000000000000000000000000000000000000000000000000000000000000000000000000000000000000000000000000000000000000000000000000000000000000000000000000000000000000000000000000000000000000000000000000000000
310
00000000000000000000000000000000000000000000000000000000000000000000000000000000000000000000000000000000000000000000000000000000000000000000000000000000000000000000000000000000000000000000000000000000000000000000000000000000000000000000000000000000000000
310
00
310
00000000000000000000000000000000000000000000000000000000000000000000000000000000000000000000000000000000000000000000000000000000000000000000000000000000000000000000000000000000000000000000000000000000000000000000000000000000000000000000000000000000000000
310
00000000000000000000000000000000000000000000000000000000000000000000000000000000000000000000000000000000000000000000000000000000000000000000000000000000000000000000000000000000000000000000000000000000000000000000000000000000000000000000000000000000000000
310
00
310
00000000000000000000000000000000000000000000000000000000000000000000000000000000000000000000000000000000000000000000000000000000000000000000000000000000000000000000000000000000000000000000000000000000000000000000000000000000000000000000000000000000000000
310
00000000000000000000000000000000000000000000000000000000000000000000000000000000000000000000000000000000000000000000000000000000000000000000000000000000000000000000000000000000000000000000000000000000000000000000000000000000000000000000000000000000000000
310
00
310
00000000000000000000000000000000000000000000000000000000000000000000000000000000000000000000000000000000000000000000000000000000000000000000000000000000000000000000000000000000000000000000000000000000000000000000000000000000000000000000000000000000000000
310
00000000000000000000000000000000000000000000000000000000000000000000000000000000000000000000000000000000000000000000000000000000000000000000000000000000000000000000000000000000000000000000000000000000000000000000000000000000000000000000000000000000000000
310
00
310
00000000000000000000000000000000000000000000000000000000000000000000000000000000000000000000000000000000000000000000000000000000000000000000000000000000000000000000000000000000000000000000000000000000000000000000000000000000000000000000000000000000000000
310
00000000000000000000000000000000000000000000000000000000000000000000000000000000000000000000000000000000000000000000000000000000000000000000000000000000000000000000000000000000000000000000000000000000000000000000000000000000000000000000000000000000000000
310
00
310
00000000000000000000000000000000000000000000000000000000000000000000000000000000000000000000000000000000000000000000000000000000000000000000000000000000000000000000000000000000000000000000000000000000000000000000000000000000000000000000000000000000000000
310
00000000000000000000000000000000000000000000000000000000000000000000000000000000000000000000000000000000000000000000000000000000000000000000000000000000000000000000000000000000000000000000000000000000000000000000000000000000000000000000000000000000000000
310
00
310
00000000000000000000000000000000000000000000000000000000000000000000000000000000000000000000000000000000000000000000000000000000000000000000000000000000000000000000000000000000000000000000000000000000000000000000000000000000000000000000000000000000000000
310
00000000000000000000000000000000000000000000000000000000000000000000000000000000000000000000000000000000000000000000000000000000000000000000000000000000000000000000000000000000000000000000000000000000000000000000000000000000000000000000000000000000000000
310
00
310
00000000000000000000000000000000000000000000000000000000000000000000000000000000000000000000000000000000000000000000000000000000000000000000000000000000000000000000000000000000000000000000000000000000000000000000000000000000000000000000000000000000000000
310
00000000000000000000000000000000000000000000000000000000000000000000000000000000000000000000000000000000000000000000000000000000000000000000000000000000000000000000000000000000000000000000000000000000000000000000000000000000000000000000000000000000000000
310
00
310
00000000000000000000000000000000000000000000000000000000000000000000000000000000000000000000000000000000000000000000000000000000000000000000000000000000000000000000000000000000000000000000000000000000000000000000000000000000000000000000000000000000000000
310
00000000000000000000000000000000000000000000000000000000000000000000000000000000000000000000000000000000000000000000000000000000000000000000000000000000000000000000000000000000000000000000000000000000000000000000000000000000000000000000000000000000000000
310
00
310
00000000000000000000000000000000000000000000000000000000000000000000000000000000000000000000000000000000000000000000000000000000000000000000000000000000000000000000000000000000000000000000000000000000000000000000000000000000000000000000000000000000000000
310
00000000000000000000000000000000000000000000000000000000000000000000000000000000000000000000000000000000000000000000000000000000000000000000000000000000000000000000000000000000000000000000000000000000000000000000000000000000000000000000000000000000000000
310
00
310
00000000000000000000000000000000000000000000000000000000000000000000000000000000000000000000000000000000000000000000000000000000000000000000000000000000000000000000000000000000000000000000000000000000000000000000000000000000000000000000000000000000000000
310
00000000000000000000000000000000000000000000000000000000000000000000000000000000000000000000000000000000000000000000000000000000000000000000000000000000000000000000000000000000000000000000000000000000000000000000000000000000000000000000000000000000000000
310
00
310
00000000000000000000000000000000000000000000000000000000000000000000000000000000000000000000000000000000000000000000000000000000000000000000000000000000000000000000000000000000000000000000000000000000000000000000000000000000000000000000000000000000000000
310
00000000000000000000000000000000000000000000000000000000000000000000000000000000000000000000000000000000000000000000000000000000000000000000000000000000000000000000000000000000000000000000000000000000000000000000000000000000000000000000000000000000000000
310
00
310
00000000000000000000000000000000000000000000000000000000000000000000000000000000000000000000000000000000000000000000000000000000000000000000000000000000000000000000000000000000000000000000000000000000000000000000000000000000000000000000000000000000000000
310
00000000000000000000000000000000000000000000000000000000000000000000000000000000000000000000000000000000000000000000000000000000000000000000000000000000000000000000000000000000000000000000000000000000000000000000000000000000000000000000000000000000000000
310
00
310
00000000000000000000000000000000000000000000000000000000000000000000000000000000000000000000000000000000000000000000000000000000000000000000000000000000000000000000000000000000000000000000000000000000000000000000000000000000000000
  0
XRECORD
  5
595
102
{ACAD_REACTORS
330
714
102
}
330
714
100
AcDbXrecord
280
     1
310
DF56060034040701D0009A9999999999B93F000000000000000000000000000000000400000009000000000000000200000064000000640000000100000001000000190000007B14AE47E17A843F00000000004060409A9999999999B93F00000000004C2D41000000000070F7400000000000942141000000000000000000
310
0000000000000000000000000000000AD482040000000000000000000000000000F03F000000000000000000000000000030402D431CEBE2362A3F00000000000008400000000000000000009807C000000000000000007C1A61B9A711364020000000050000000A000000200000002000000020000000000000000000F03F
310
00
310
0000000000F03F000000000000F03F333333333333D33F333333333333D33F333333333333D33F000000000000F43F000000000000F43F000000000000F03F0200000064000000000000000000000000000840000000000000F83F00000000000000000000000000000000008056409A9999999999B93F0000000000000000
310
00000000000000000000000000000000000000000000000000000000000000000000000000000000000000000000000000000000000000000000000000000000000000000000000000000000000000000000000000000000000000000000000000000000000000000000000000000000000000000000000000000000000000
310
00
310
0000000000000000000000000000000000000000000000000000000000000000000000000000000000000000000000000000000000000000000000000000000000000000000000000000000000000000000000000000000000000000000000000000000000000000000000000000000000000000000000009A9999999999A9
310
3F9100000000000000000000000000000035A781D547960F40000000000000F03F000000000000F03F666666666666164000000000104068F200000000000000000000000000000000000000000000000000000000000000000000000000000000000000000000000000000000000000000000000000000000000000000000
310
00
310
00000000000000000000000000000000000000000000000000000000000000000000000000000000000000000000000000000000000000000000000000000000000000000000000000000000000000000000000000000000000000000000000000000000000000000000000000000000000000000000000000000000000000
310
000000000000000000000000000000000000000000000000000000000000000000000000000000000000000000000000000000000000000000000000FF000000000000000000000000000000000000000000000000000000000000000000000000000000000000000000000000000000000000000000000000000000000000
310
00
310
0000000000000000000000000000000000000000000000000000000000000000000000000000000000000000000000000000000000000000000000000000000000000000
  0
DICTIONARY
  5
706
330
705
100
AcDbDictionary
280
     1
281
     1
  3
ADSK_XREC_LAYOUTTHUMBNAIL
360
707
  0
XRECORD
  5
707
102
{ACAD_REACTORS
330
706
102
}
330
706
100
AcDbXrecord
280
     1
310
28000000B40000008B0000000100080000000000BC61000000000000000000000001000000000000FFFFFF0000000000FFFFFF000000000000000000000000000000000000000000000000000000000000000000330000006600000099000000CC000000FF00000000330000333300006633000099330000CC330000FF3300
310
0000660000336600006666000099660000CC660000FF66000000990000339900006699000099990000CC990000FF99000000CC000033CC000066CC000099CC0000CCCC0000FFCC000000FF000033FF000066FF000099FF0000CCFF0000FFFF000000003300330033006600330099003300CC003300FF003300003333003333
310
33006633330099333300CC333300FF33330000663300336633006666330099663300CC663300FF66330000993300339933006699330099993300CC993300FF99330000CC330033CC330066CC330099CC3300CCCC3300FFCC330000FF330033FF330066FF330099FF3300CCFF3300FFFF330000006600330066006600660099
310
006600CC006600FF00660000336600333366006633660099336600CC336600FF33660000666600336666006666660099666600CC666600FF66660000996600339966006699660099996600CC996600FF99660000CC660033CC660066CC660099CC6600CCCC6600FFCC660000FF660033FF660066FF660099FF6600CCFF6600
310
FFFF660000009900330099006600990099009900CC009900FF00990000339900333399006633990099339900CC339900FF33990000669900336699006666990099669900CC669900FF66990000999900339999006699990099999900CC999900FF99990000CC990033CC990066CC990099CC9900CCCC9900FFCC990000FF99
310
0033FF990066FF990099FF9900CCFF9900FFFF99000000CC003300CC006600CC009900CC00CC00CC00FF00CC000033CC003333CC006633CC009933CC00CC33CC00FF33CC000066CC003366CC006666CC009966CC00CC66CC00FF66CC000099CC003399CC006699CC009999CC00CC99CC00FF99CC0000CCCC0033CCCC0066CC
310
CC0099CCCC00CCCCCC00FFCCCC0000FFCC0033FFCC0066FFCC0099FFCC00CCFFCC00FFFFCC000000FF003300FF006600FF009900FF00CC00FF00FF00FF000033FF003333FF006633FF009933FF00CC33FF00FF33FF000066FF003366FF006666FF009966FF00CC66FF00FF66FF000099FF003399FF006699FF009999FF00CC
310
99FF00FF99FF0000CCFF0033CCFF0066CCFF0099CCFF00CCCCFF00FFCCFF0000FFFF0033FFFF0066FFFF0099FFFF00CCFFFF00FFFFFF00000000000D0D0D001A1A1A00282828003535350043434300505050005D5D5D006B6B6B00787878008686860093939300A1A1A100AEAEAE00BBBBBB00C9C9C900D6D6D600E4E4E400
310
F1F1F100FFFFFF0000000000000000000000000000000000000000000000000000000000000000000000000000000000E2E2E2E2E2E2E2E2E2E2E2E2E2E2E2E2E2E2E2E2E2E2E2E2E2E2E2E2E2E2E2E2E2E2E2E2E2E2E2E2E2E2E2E2E2E2E2E2E2E2E2E2E2E2E2E2E2E2E2E2E2E2E2E2E2E2E2E2E2E2E2E2E2E2E2E2E2E2E2
310
E2E2E2E2E2E2E2E2E2E2E2E2E2E2E2E2E2E2E2E2E2E2E2E2E2E2E2E2E2E2E2E2E2E2E2E2E2E2E2E2E2E2E2E2E2E2E2E2E2E2E2E2E2E2E2E2E2E2E2E2E2E2E2E2E2E2E2E2E2E2E2E2E2E2E2E2E2E2E2E2E2E2E2E2E2E2E2E2E2E2E2E2E2E2E2E2E2E2E2E2EFF5F5F5F5F5F5F5F5F5F5F5F5F5F5F5F5F5F5F5F5F5F5F5F5F5F5
310
F5F5F5F5F5F5F5F5F5F5F5F5F5F5F5F5F5F5F5F5F5F5F5F5F5F5F5F5F5F5F5F5F5F5F5F5F5F5F5F5F5F5F5F5F5F5F5F5F5F5F5F5F5F5F5F5F5F5F5F5F5F5F5F5F5F5F5F5F5F5F5F5F5F5F5F5F5F5F5F5F5F5F5F5F5F5F5F5F5F5F5F5F5F5F5F5F5F5F5F5F5F5F5F5F5F5F5F5F5F5F5F5F5F5F5F5F5F5F5F5F5F5F5F5F5F5F5
310
F5F5F5F5F5F5F5F5F5F5F5F5F5F5F5F5F5F5F5F5F5F5F5F5E2E2EFF5F5F5F5F5F5F5F5F5F5F5F5F5F5F5F5F5F5F5F5F5F5F5F5F5F5F5F5F5F5F5F5F5F5F5F5F5F5F5F5F5F5F5F5F5F5F5F5F5F5F5F5F5F5F5F5F5F5F5F5F5F5F5F5F5F5F5F5F5F5F5F5F5F5F5F5F5F5F5F5F5F5F5F5F5F5F5F5F5F5F5F5F5F5F5F5F5F5F5F5
310
F5F5F5F5F5F5F5F5F5F5F5F5F5F5F5F5F5F5F5F5F5F5F5F5F5F5F5F5F5F5F5F5F5F5F5F5F5F5F5F5F5F5F5F5F5F5F5F5F5F5F5F5F5F5F5F5F5F5F5F5F5F5F5F5F5F5F5F5F5F5F5F5F5F5F5F5F5E2E2EFF5F5F5F5F5F5F5F5F5F5F5F5F5F5F5F5F5F5F5F5F5F5F5F5F5F5F5F5F5F5F5F5F5F5F5F5F5F5F5F5F5F5F5F5F5F5F5
310
F5F5F5F5F5F5F5F5F5F5F5F5F5F5F5F5F5F5F5F5F5F5F5F5F5F5F5F5F5F5F5F5F5F5F5F5F5F5F5F5F5F5F5F5F5F5F5F5F5F5F5F5F5F5F5F5F5F5F5F5F5F5F5F5F5F5F5F5F5F5F5F5F5F5F5F5F5F5F5F5F5F5F5F5F5F5F5F5F5F5F5F5F5F5F5F5F5F5F5F5F5F5F5F5F5F5F5F5F5F5F5F5F5F5F5F5F5F5F5F5F5F5F5F5F5F5F5
310
F5F5F5E2E2EFF5F5F5E2E2E2E2E2E2E2E2F5F5F5F5F5F5F5F5F5E2E2E2E2E2E2E2E2E2E2E2E2E2E2E2E2F5F5F5F5F5F5F5F5E2E2E2E2E2E2E2E2E2E2E2E2E2E2E2E2F5F5F5F5F5F5F5F5F5E2E2E2E2E2E2E2E2E2E2E2E2E2E2E2F5F5F5F5F5F5F5F5F5E2E2E2E2E2E2E2E2E2E2E2E2E2E2E2F5F5F5F5F5F5F5F5F5E2E2E2E2
310
E2E2E2E2E2E2E2E2E2E2E2E2F5F5F5F5F5F5F5F5E2E2E2E2E2E2E2E2E2E2E2E2E2E2E2E2F5F5F5F5F5F5F5F5F5E2E2E2E2E2E2E2E2F5F5F5E2E2EFF5F5F5E2F5F5F5F5F5F5F5F5F5F5F5F5F5F5F5F5F5F5F5F5F5F5F5F5F5F5F5F5F5F5F5F5F5F5F5F5F5F5F5F5F5F5F5F5F5F5F5F5F5F5F5F5F5F5F5F5F5F5F5F5F5F5F5F5
310
F5F5F5F5F5F5F5F5F5F5F5F5F5F5F5F5F5F5F5F5F5F5F5F5F5F5F5F5F5F5F5F5F5F5F5F5F5F5F5F5F5F5F5F5F5F5F5F5F5F5F5F5F5F5F5F5F5F5F5F5F5F5F5F5F5F5F5F5F5F5F5F5F5F5F5F5F5F5F5F5F5F5F5F5F5F5F5F5F5F5F5F5F5F5F5F5F5F5F5F5F5F5F5F5F5E2F5F5F5E2E2EFF5F5F5E2F5F5F5F5F5F5F5F5F5F5F5
310
F5F5F5F5F5F5F5F5F5F5F5F5F5F5F5F5F5F5F5F5F5F5F5F5F5F5F5F5F5F5F5F5F5F5F5F5F5F5F5F5F5F5F5F5F5F5F5F5F5F5F5F5F5F5F5F5F5F5F5F5F5F5F5F5F5F5F5F5F5F5F5F5F5F5F5F5F5F5F5F5F5F5F5F5F5F5F5F5F5F5F5F5F5F5F5F5F5F5F5F5F5F5F5F5F5F5F5F5F5F5F5F5F5F5F5F5F5F5F5F5F5F5F5F5F5F5F5
310
F5F5F5F5F5F5F5F5F5F5F5F5F5F5F5F5F5F5F5F5F5F5F5F5F5F5F5F5F5F5F5E2F5F5F5E2E2EFF5F5F5E2F5F5F5F5F5F5F5F5F5F5F5F5F5F5F5F5F5F5F5F5F5F5F5F5F5F5F5F5F5F5F5F5F5F5F5F5F5F5F5F5F5F5F5F5F5F5F5F5F5F5F5F5F5F5F5F5F5F5F5F5F5F5F5F5F5F5F5F5F5F5F5F5F5F5F5F5F5F5F5F5F5F5F5F5F5
310
F5F5F5F5F5F5F5F5F5F5F5F5F5F5F5F5F5F5F5F5F5F5F5F5F5F5F5F5F5F5F5F5F5F5F5F5F5F5F5F5F5F5F5F5F5F5F5F5F5F5F5F5F5F5F5F5F5F5F5F5F5F5F5F5F5F5F5F5F5F5F5F5F5F5F5F5F5F5F5F5F5F5F5F5E2F5F5F5E2E2EFF5F5F5E2F5F5F5F5F5F5F5F5F5F5F5F5F5F5F5F5F5F5F5F5F5F5F5F5F5F5F5F5F5F5F5F5
310
F5F5F5F5F5F5F5F5F5F5F5F5F5F5F5F5F5F5F5F5F5F5F5F5F5F5F5F5F5F5F5F5F5F5F5F5F5F5F5F5F5F5F5F5F5F5F5F5F5F5F5F5F5F5F5F5F5F5F5F5F5F5F5F5F5F5F5F5F5F5F5F5F5F5F5F5F5F5F5F5F5F5F5F5F5F5F5F5F5F5F5F5F5F5F5F5F5F5F5F5F5F5F5F5F5F5F5F5F5F5F5F5F5F5F5F5F5F5F5F5F5F5F5F5F5F5F5
310
F5F5F5F5F5F5F5F5F5F5E2F5F5F5E2E2EFF5F5F5E2F5F5F5F5F5F5F5F5F5F5F5F5F5F5F5F5F5F5F5F5F5F5F5F5F5F5F5F5F5F5F5F5F5F5F5F5F5F5F5F5F5F5F5F5F5F5F5F5F5F5F5F5F5F5F5F5F5F5F5F5F5F5F5F5F5F5F5F5F5F5F5F5F5F5F5F5F5F5F5F5F5F5F5F5F5F5F5F5F5F5F5F5F5F5F5F5F5F5F5F5F5F5F5F5F5F5
310
F5F5F5F5F5F5F5F5F5F5F5F5F5F5F5F5F5F5F5F5F5F5F5F5F5F5F5F5F5F5F5F5F5F5F5F5F5F5F5F5F5F5F5F5F5F5F5F5F5F5F5F5F5F5F5F5F5F5F5F5F5F5F5E2F5F5F5E2E2EFF5F5F5E2F5F5F5F5F5F5F5F5F5F5F5F5F5F5F5F5F5F5F5F5F5F5F5F5F5F5F5F5F5F5F5F5F5F5F5F5F5F5F5F5F5F5F5F5F5F5F5F5F5F5F5F5F5
310
F5F5F5F5F5F5F5F5F5F5F5F5F5F5F5F5F5F5F5F5F5F5F5F5F5F5F5F5F5F5F5F5F5F5F5F5F5F5F5F5F5F5F5F5F5F5F5F5F5F5F5F5F5F5F5F5F5F5F5F5F5F5F5F5F5F5F5F5F5F5F5F5F5F5F5F5F5F5F5F5F5F5F5F5F5F5F5F5F5F5F5F5F5F5F5F5F5F5F5F5F5F5F5F5F5F5F5F5F5F5F5F5F5F5F5F5E2F5F5F5E2E2EFF5F5F5E2
310
F5F5F5F5F5F5F5F5F5F5F5F5F5F5F5F5F5F5F5F5F5F5F5F5F5F5F5F5F5F5F5F5F5F5F5F5F5F5F5F5F5F5F5F5F5F5F5F5F5F5F5F5F5F5F5F5F5F5F5F5F5F5F5F5F5F5F5F5F5F5F5F5F5F5F5F5F5F5F5F5F5F5F5F5F5F5F5F5F5F5F5F5F5F5F5F5F5F5F5F5F5F5F5F5F5F5F5F5F5F5F5F5F5F5F5F5F5F5F5F5F5F5F5F5F5F5F5
310
F5F5F5F5F5F5F5F5F5F5F5F5F5F5F5F5F5F5F5F5F5F5F5F5F5F5F5F5F5F5F5F5F5F5F5F5F5F5F5F5F5F5E2F5F5F5E2E2EFF5F5F5E2F5F5F5F5F5F5F5F5F5F5F5F5F5F5F5F5F5F5F5F5F5F5F5F5F5F5F5F5F5F5F5F5F5F5F5F5F5F5F5F5F5F5F5F5F5F5F5F5F5F5F5F5F5F5F5F5F5F5F5F5F5F5F5F5F5F5F5F5F5F5F5F5F5F5
310
F5F5F5F5F5F5F5F5F5F5F5F5F5F5F5F5F5F5F5F5F5F5F5F5F5F5F5F5F5F5F5F5F5F5F5F5F5F5F5F5F5F5F5F5F5F5F5F5F5F5F5F5F5F5F5F5F5F5F5F5F5F5F5F5F5F5F5F5F5F5F5F5F5F5F5F5F5F5F5F5F5F5F5F5F5F5F5F5F5F5F5F5F5F5F5E2F5F5F5E2E2EFF5F5F5F5F5F5F5F5F5F5F5F5F5F5F5F5F5F5F5F5F5F5F5F5F5
310
F5F5F5F5F5F5F5F5F5F5F5F5F5F5F5F5F5F5F5F5F5F5F5F5F5F5F5F5F5F5F5F5F5F5F5F5F5F5F5F5F5F5F5F5F5F5F5F5F5F5F5F5F5F5F5F5F5F5F5F5F5F5F5F5F5F5F5F5F5F5F5F5F5F5F5F5F5F5F5F5F5F5F5F5F5F5F5F5F5F5F5F5F5F5F5F5F5F5F5F5F5F5F5F5F5F5F5F5F5F5F5F5F5F5F5F5F5F5F5F5F5F5F5F5F5F5F5
310
F5F5F5F5F5F5F5F5F5F5F5F5F5F5F5F5F5F5F5F5F5F5F5F5F5E2E2EFF5F5F5F5F5F5F5F5F5F5F5F5F5F5F5F5F5F5F5F5F5F5F5F5F5F5F5F5F5F5F5F5F5F5F5F5F5F5F5F5F5F5F5F5F5F5F5F5F5F5F5F5F5F5F5F5F5F5F5F5F5F5F5F5F5F5F5F5F5F5F5F5F5F5F5F5F5F5F5F5F5F5F5F5F5F5F5F5F5F5F5F5F5F5F5F5F5F5F5
310
F5F5F5F5F5F5F5F5F5F5F5F5F5F5F5F5F5F5F5F5F5F5F5F5F5F5F5F5F5F5F5F5F5F5F5F5F5F5F5F5F5F5F5F5F5F5F5F5F5F5F5F5F5F5F5F5F5F5F5F5F5F5F5F5F5F5F5F5F5F5F5F5F5F5F5F5F5F5E2E2EFF5F5F5F5F5F5F5F5F5F5F5F5F5F5F5F5F5F5F5F5F5F5F5F5F5F5F5F5F5F5F5F5F5F5F5F5F5F5F5F5F5F5F5F5F5F5
310
F5F5F5F5F5F5F5F5F5F5F5F5F5F5F5F5F5F5F5F5F5F5F5F5F5F5F5F5F5F5F5F5F5F5F5F5F5F5F5F5F5F5F5F5F5F5F5F5F5F5F5F5F5F5F5F5F5F5F5F5F5F5F5F5F5F5F5F5F5F5F5F5F5F5F5F5F5F5F5F5F5F5F5F5F5F5F5F5F5F5F5F5F5F5F5F5F5F5F5F5F5F5F5F5F5F5F5F5F5F5F5F5F5F5F5F5F5F5F5F5F5F5F5F5F5F5F5
310
F5F5F5F5E2E2EFF5F5F5F5F5F5F5F5F5F5F5F5F5F5F5F5F5F5F5F5F5F5F5F5F5F5F5F5F5F5F5F5F5F5F5F5F5F5F5F5F5F5F5F5F5F5F5F5F5F5F5F5F5F5F5F5F5F5F5F5F5F5F5F5F5F5F5F5F5F5F5F5F5F5F5F5F5F5F5F5F5F5F5F5F5F5F5F5F5F5F5F5F5F5F5F5F5F5F5F5F5F5F5F5F5F5F5F5F5F5F5F5F5F5F5F5F5F5F5F5
310
F5F5F5F5F5F5F5F5F5F5F5F5F5F5F5F5F5F5F5F5F5F5F5F5F5F5F5F5F5F5F5F5F5F5F5F5F5F5F5F5F5F5F5F5F5F5F5F5F5F5F5F5F5F5F5F5F5E2E2EFF5F5F5F5F5F5F5F5F5F5F5F5F5F5F5F5F5F5F5F5E2E2E2E2E2E2E2E2E2E2E2E2E2E2E2E2E2E2E2E2E2E2E2E2E2E2E2E2E2E2E2E2E2E2E2E2E2E2E2E2E2E2E2E2E2E2E2
310
E2E2E2E2E2E2E2E2E2E2E2E2E2E2E2E2E2E2E2E2E2E2E2E2E2E2E2E2E2E2E2E2E2E2E2E2E2E2E2E2E2E2E2E2E2E2E2E2E2E2E2E2E2E2E2E2E2E2E2E2E2E2E2E2E2E2E2E2E2E2E2E2E2E2E2E2E2E2E2E2E2E2E2E2E2E2E2E2E2E2F5F5F5F5F5F5F5F5F5F5F5F5F5F5F5F5F5F5F5F5E2E2EFF5F5F5F5F5F5F5F5F5F5F5F5F5F5
310
F5F5F5F5F5F5E2F5F5F5F5F5F5F5F5F5F5F5F5F5F5F5F5F5F5F5F5F5F5F5F5F5F5F5F5F5F5F5F5F5F5F5F5F5F5F5F5F5F5F5F5F5F5F5F5F5F5F5F5F5F5F5F5F5F5F5F5F5F5F5F5F5F5F5F5F5F5F5F5F5F5F5F5F5F5F5F5F5F5F5F5F5F5F5F5F5F5F5F5F5F5F5F5F5F5F5F5F5F5F5F5F5F5F5F5F5F5F5F5F5F5F5F5F5F5F5F5
310
F5F5F5F5F5F5F5F5F5F5F5F5F5F5F5E2F5F5F5F5F5F5F5F5F5F5F5F5F5F5F5F5F5F5F5F5E2E2EFF5F5F5F5F5F5F5F5F5F5F5F5F5F5F5F5F5F5F5F5E2F5F5F5F5F5F5F5F5F5F5F5F5F5F5F5F5F5F5F5F5F5F5F5F5F5F5F5F5F5F5F5F5F5F5F5F5F5F5F5F5F5F5F5F5F5F5F5F5F5F5F5F5F5F5F5F5F5F5F5F5F5F5F5F5F5F5F5
310
F5F5F5F5F5F5F5F5F5F5F5F5F5F5F5F5F5F5F5F5F5F5F5F5F5F5F5F5F5F5F5F5F5F5F5F5F5F5F5F5F5F5F5F5F5F5F5F5F5F5F5F5F5F5F5F5F5F5F5F5F5F5F5F5F5F5F5F5E2F5F5F5F5F5F5F5F5F5F5F5F5F5F5F5F5F5F5F5F5E2E2EFF5F5F5F5F5F5F5F5F5F5F5F5F5F5F5F5F5F5F5F5E2F5F5F5F5F5F5F5F5F5F5F5F5F5F5
310
F5F5F5F5F5F5F5F5F5F5F5F5F5F5F5F5F5F5F5F5F5F5F5F5F5F5F5F5F5F5F5F5F5F5F5F5F5F5F5F5F5F5F5F5F5F5F5F5F5F5F5F5F5F5F5F5F5F5F5F5F5F5F5F5F5F5F5F5F5F5F5F5F5F5F5F5F5F5F5F5F5F5F5F5F5F5F5F5F5F5F5F5F5F5F5F5F5F5F5F5F5F5F5F5F5F5F5F5F5F5F5F5F5F5F5F5F5F5F5F5F5E2F5F5F5F5F5
310
F5F5F5F5F5F5F5F5F5F5F5F5F5F5F5E2E2EFF5F5F5F5F5F5F5F5F5F5F5F5F5F5F5F5F5F5F5F5E2F5F5F5F5F5F5F5F5F5F5F5F5F5F5F5F5F5F5F5F5F5F5F5F5F5F5F5F5F5F5F5F5F5F5F5F5F5F5F5F5F5F5F5F5F5F5F5F5F5F5F5F5F5F5F5F5F5F5F5F5F5F5F5F5F5F5F5F5F5F5F5F5F5F5F5F5F5F5F5F5F5F5F5F5F5F5F5F5
310
F5F5F5F5F5F5F5F5F5F5F5F5F5F5F5F5F5F5F5F5F5F5F5F5F5F5F5F5F5F5F5F5F5F5F5F5F5F5F5F5F5F5F5F5F5F5F5E2F5F5F5F5F5F5F5F5F5F5F5F5F5F5F5F5F5F5F5F5E2E2EFF5F5F5E2F5F5F5F5F5F5F5F5F5F5F5F5F5F5F5F5E2F5F5F5F5F5F5F5F5F5F5F5F5F5F5F5F5F5F5F5F5F5F5F5F5F5F5F5F5F5F5F5F5F5F5F5
310
F5F5F5F5F5F5F5F5F5F5F5F5F5F5F5F5F5F5F5F5F5F5F5F5F5F5F5F5F5F5F5F5F5F5F5F5F5F5F5F5F5F5F5F5F5F5F5F5F5F5F5F5F5F5F5F5F5F5F5F5F5F5F5F5F5F5F5F5F5F5F5F5F5F5F5F5F5F5F5F5F5F5F5F5F5F5F5F5F5F5F5F5F5F5F5F5F5F5F5F5E2F5F5F5F5F5F5F5F5F5F5F5F5F5F5F5F5E2F5F5F5E2E2EFF5F5F5
310
E2F5F5F5F5F5F5F5F5F5F5F5F5F5F5F5F5E2F5F5F5F5F5F5F5F5F5F5F5F5F5F5F5F5F5F5F5F5F5F5F5F5F5F5F5F5F5F5F5F5F5F5F5F5F5F5F5F5F5F5F5F5F5F5F5F5F5F5F5F5F5F5F5F5F5F5F5F5F5F5F5F5F5F5F5F5F5F5F5F5F5F5F5F5F5F5F5F5F5F5F5F5F5F5F5F5F5F5F5F5F5F5F5F5F5F5F5F5F5F5F5F5F5F5F5F5F5
310
F5F5F5F5F5F5F5F5F5F5F5F5F5F5F5F5F5F5F5F5F5F5F5F5F5F5E2F5F5F5F5F5F5F5F5F5F5F5F5F5F5F5F5E2F5F5F5E2E2EFF5F5F5E2F5F5F5F5F5F5F5F5F5F5F5F5F5F5F5F5E2F5F5F5F5F5F5F5F5F5F5F5F5F5F5F5F5F5F5F5F5F5F5F5F5F5F5F5F5F5F5F5F5F5F5F5F5F5F5F5F5F5F5F5F5F5F5F5F5F5F5F5F5F5F5F5F5
310
F5F5F5F5F5F5F5F5F5F5F5F5F5F5F5F5F5F5F5F5F5F5F5F5F5F5F5F5F5F5F5F5F5F5F5F5F5F5F5F5F5F5F5F5F5F5F5F5F5F5F5F5F5F5F5F5F5F5F5F5F5F5F5F5F5F5F5F5F5F5F5F5F5F5F5F5F5F5F5E2F5F5F5F5F5F5F5F5F5F5F5F5F5F5F5F5E2F5F5F5E2E2EFF5F5F5E2F5F5F5F5F5F5F5F5F5F5F5F5F5F5F5F5E2F5F5F5
310
F5F5F5F5F5F5F5F5F5F5F5F5F5F5F5F5F5F5F5F5F5F5F5F5F5F5F5F5F5F5F5F5F5F5F5F5F5F5F5F5F5F5F5F5F5F5F5F5F5F5F5F5F5F5F5F5F5F5F5F5F5F5F5F5F5F5F5F5F5F5F5F5F5F5F5F5F5F5F5F5F5F5F5F5F5F5F5F5F5F5F5F5F5F5F5F5F5F5F5F5F5F5F5F5F5F5F5F5F5F5F5F5F5F5F5F5F5F5F5F5F5F5F5F5F5F5F5
310
F5F5F5F5F5E2F5F5F5F5F5F5F5F5F5F5F5F5F5F5F5F5E2F5F5F5E2E2EFF5F5F5E2F5F5F5F5F5F5F5F5F5F5F5F5F5F5F5F5E2F5F5F5F5F5F5F5F5F5F5F5F5F5F5F5F5F5F5F5F5F5F5F5F5F5F5F5F5F5F5F5F5F5F5F5F5F5F5F5F5F5F5F5F5F5F5F5F5F5F5F5F5F5F5F5F5F5F5F5F5F5F5F5F5F5F5F5F5F5F5F5F5F5F5F5F5F5
310
F5F5F5F5F5F5F5F5F5F5F5F5F5F5F5F5F5F5F5F5F5F5F5F5F5F5F5F5F5F5F5F5F5F5F5F5F5F5F5F5F5F5F5F5F5F5F5F5F5F5F5F5F5F5F5F5F5F5E2F5F5F5F5F5F5F5F5F5F5F5F5F5F5F5F5E2F5F5F5E2E2EFF5F5F5E2F5F5F5F5F5F5F5F5F5F5F5F5F5F5F5F5E2F5F5F5F5F5F5F5F5F5F5F5F5F5F5F5F5F5F5F5F5F5F5F5F5
310
F5F5F5F5F5F5F5F5F5F5F5F5F5F5F5F5F5F5F5F5F5F5F5F5F5F5F5F5F5F5F5F5F5F5F5F5F5F5F5F5F5F5F5F5F5F5F5F5F5F5F5F5F5F5F5F5F5F5F5F5F5F5F5F5F5F5F5F5F5F5F5F5F5F5F5F5F5F5F5F5F5F5F5F5F5F5F5F5F5F5F5F5F5F5F5F5F5F5F5F5F5F5F5F5F5F5F5F5F5F5F5E2F5F5F5F5F5F5F5F5F5F5F5F5F5F5F5
310
F5E2F5F5F5E2E2EFF5F5F5E2F5F5F5F5F5F5F5F5F5F5F5F5F5F5F5F5E2F5F5F5F5F5F5F5F5F5F5F5F5F5F5F5F5F5F5F5F5F5F5F5F5F5F5F5F5F5F5F5F5F5F5F5F5F5F5F5F5F5F5F5F5F5F5F5F5F5F5F5F5F5F5F5F5F5F5F5F5F5F5F5F5F5F5F5F5F5F5F5F5F5F5F5F5F5F5F5F5F5F5F5F5F5F5F5F5F5F5F5F5F5F5F5F5F5F5
310
F5F5F5F5F5F5F5F5F5F5F5F5F5F5F5F5F5F5F5F5F5F5F5F5F5F5F5F5F5F5F5F5F5F5F5F5F5E2F5F5F5F5F5F5F5F5F5F5F5F5F5F5F5F5E2F5F5F5E2E2EFF5F5F5E2F5F5F5F5F5F5F5F5F5F5F5F5F5F5F5F5E2F5F5F5F5F5F5F5F5F5F5F5F5F5F5F5F5F5F5F5F5F5F5F5F5F5F5F5F5F5F5F5F5F5F5F5F5F5F5F5F5F5F5F5F5F5
310
F5F5F5F5F5F5F5F5F5F5F5F5F5F5F5F5F5F5F5F5F5F5F5F5F5F5F5F5F5F5F5F5F5F5F5F5F5F5F5F5F5F5F5F5F5F5F5F5F5F5F5F5F5F5F5F5F5F5F5F5F5F5F5F5F5F5F5F5F5F5F5F5F5F5F5F5F5F5F5F5F5F5F5F5F5F5F5F5F5F5E2F5F5F5F5F5F5F5F5F5F5F5F5F5F5F5F5E2F5F5F5E2E2EFF5F5F5E2F5F5F5F5F5F5F5F5F5
310
F5F5F5F5F5F5F5E2F5F5F5F5F5F5F5F5F5F5F5F5F5F5F5F5F5F5F5F5F5F5F5F5F5F5F5F5F5F5F5F5F5F5F5F5F5F5F5F5F5F5F5F5F5F5F5F5F5F5F5F5F5F5F5F5F5F5F5F5F5F5F5F5F5F5F5F5F5F5F5F5F5F5F5F5F5F5F5F5F5F5F5F5F5F5F5F5F5F5F5F5F5F5F5F5F5F5F5F5F5F5F5F5F5F5F5F5F5F5F5F5F5F5F5F5F5F5F5
310
F5F5F5F5F5F5F5F5F5F5F5F5F5F5F5F5E2F5F5F5F5F5F5F5F5F5F5F5F5F5F5F5F5E2F5F5F5E2E2EFF5F5F5E2F5F5F5F5F5F5F5F5F5F5F5F5F5F5F5F5E2F5F5F5F5F5F5F5F5F5F5F5F5F5F5F5F5F5F5F5F5F5F5F5F5F5F5F5F5F5F5F5F5F5F5F5F5F5F5F5F5F5F5F5F5F5F5F5F5F5F5F5F5F5F5F5F5F5F5F5F5F5F5F5F5F5F5
310
F5F5F5F5F5F5F5F5F5F5F5F5F5F5F5F5F5F5F5F5F5F5F5F5F5F5F5F5F5F5F5F5F5F5F5F5F5F5F5F5F5F5F5F5F5F5F5F5F5F5F5F5F5F5F5F5F5F5F5F5F5F5F5F5F5F5F5F5F5E2F5F5F5F5F5F5F5F5F5F5F5F5F5F5F5F5E2F5F5F5E2E2EFF5F5F5E2F5F5F5F5F5F5F5F5F5F5F5F5F5F5F5F5E2F5F5F5F5F5F5F5F5F5F5F5F5F5
310
F5F5F5F5F5F5F5F5F5F5F5F5F5F5F5F5F5F5F5F5F5F5F5F5F5F5F5F5F5F5F5F5F5F5F5F5F5F5F5F5F5F5F5F5F5F5F5F5F5F5F5F5F5F5F5F5F5F5F5F5F5F5F5F5F5F5F5F5F5F5F5F5F5F5F5F5F5F5F5F5F5F5F5F5F5F5F5F5F5F5F5F5F5F5F5F5F5F5F5F5F5F5F5F5F5F5F5F5F5F5F5F5F5F5F5F5F5F5F5F5F5F5E2F5F5F5F5
310
F5F5F5F5F5F5F5F5F5F5F5F5E2F5F5F5E2E2EFF5F5F5E2F5F5F5F5F5F5F5F5F5F5F5F5F5F5F5F5E2F5F5F5F5F5F5F5F5F5F5F5F5F5F5F5F5F5F5F5F5F5F5F5F5F5F5F5F5F5F5F5F5F5F5F5F5F5F5F5F5F5F5F5F5F5F5F5F5F5F5F5F5F5F5F5F5F5F5F5F5F5F5F5F5F5F5F5F5F5F5F5F5F5F5F5F5F5F5F5F5F5F5F5F5F5F5F5
310
F5F5F5F5F5F5F5F5F5F5F5F5F5F5F5F5F5F5F5F5F5F5F5F5F5F5F5F5F5F5F5F5F5F5F5F5F5F5F5F5F5F5F5F5F5F5F5F5E2F5F5F5F5F5F5F5F5F5F5F5F5F5F5F5F5E2F5F5F5E2E2EFF5F5F5E2F5F5F5F5F5F5F5F5F5F5F5F5F5F5F5F5E2F5F5F5F5F5F5F5F5F5F5F5F5F5F5F5F5F5F5F5F5F5F5F5F5F5F5F5F5F5F5F5F5F5F5
310
F5F5F5F5F5F5F5F5F5F5F5F5F5F5F5F5F5F5F5F5F5F5F5F5F5F5F5F5F5F5F5F5F5F5F5F5F5F5F5F5F5F5F5F5F5F5F5F5F5F5F5F5F5F5F5F5F5F5F5F5F5F5F5F5F5F5F5F5F5F5F5F5F5F5F5F5F5F5F5F5F5F5F5F5F5F5F5F5F5F5F5F5F5F5F5F5F5F5F5F5F5E2F5F5F5F5F5F5F5F5F5F5F5F5F5F5F5F5E2F5F5F5E2E2EFF5F5
310
F5E2F5F5F5F5F5F5F5F5F5F5F5F5F5F5F5F5E2F5F5F5F5F5F5F5F5F5F5F5F5F5F5F5F5F5F5F5F5F5F5F5F5F5F5F5F5F5F5F5F5F5F5F5F5F5F5F5F5F5F5F5F5F5F5F5F5F5F5F5F5F5F5F5F5F5F5F5F5F5F5F5F5F5F5F5F5F5F5F5F5F5F5F5F5F5F5F5F5F5F5F5F5F5F5F5F5F5F5F5F5F5F5F5F5F5F5F5F5F5F5F5F5F5F5F5F5
310
F5F5F5F5F5F5F5F5F5F5F5F5F5F5F5F5F5F5F5F5F5F5F5F5F5F5F5E2F5F5F5F5F5F5F5F5F5F5F5F5F5F5F5F5E2F5F5F5E2E2EFF5F5F5E2F5F5F5F5F5F5F5F5F5F5F5F5F5F5F5F5E2F5F5F5F5F5F5F5F5F5F5F5F5F5F5F5F5F5F5F5F5F5F5F5F5F5F5F5F5F5F5F5F5F5F5F5F5F5F5F5F5F5F5F5F5F5F5F5F5F5F5F5F5F5F5F5
310
F5F5F5F5F5F5F5F5F5F5F5F5F5F5F5F5F5F5F5F5F5F5F5F5F5F5F5F5F5F5F5F5F5F5F5F5F5F5F5F5F5F5F5F5F5F5F5F5F5F5F5F5F5F5F5F5F5F5F5F5F5F5F5F5F5F5F5F5F5F5F5F5F5F5F5F5F5F5F5F5E2F5F5F5F5F5F5F5F5F5F5F5F5F5F5F5F5E2F5F5F5E2E2EFF5F5F5E2F5F5F5F5F5F5F5F5F5F5F5F5F5F5F5F5E2F5F5
310
F5F5F5F5F5F5F5F5F5F5F5F5F5F5F5F5F5F5F5F5F5F5F5F5F5F5F5F5F5F5F5F5F5F5F5F5F5F5F5F5F5F5F5F5F5F5F5F5F5F5F5F5F5F5F5F5F5F5F5F5F5F5F5F5F5F5F5F5F5F5F5F5F5F5F5F5F5F5F5F5F5F5F5F5F5F5F5F5F5F5F5F5F5F5F5F5F5F5F5F5F5F5F5F5F5F5F5F5F5F5F5F5F5F5F5F5F5F5F5F5F5F5F5F5F5F5F5
310
F5F5F5F5F5F5E2F5F5F5F5F5F5F5F5F5F5F5F5F5F5F5F5E2F5F5F5E2E2EFF5F5F5E2F5F5F5F5F5F5F5F5F5F5F5F5F5F5F5F5E2F5F5F5F5F5F5F5F5F5F5F5F5F5F5F5F5F5F5F5F5F5F5F5F5F5F5F5F5F5F5F5F5F5F5F5F5F5F5F5F5F5F5F5F5F5F5F5F5F5F5F5F5F5F5F5F5F5F5F5F5F5F5F5F5F5F5F5F5F5F5F5F5F5F5F5F5
310
F5F5F5F5F5F5F5F5F5F5F5F5F5F5F5F5F5F5F5F5F5F5F5F5F5F5F5F5F5F5F5F5F5F5F5F5F5F5F5F5F5F5F5F5F5F5F5F5F5F5F5F5F5F5F5F5F5F5F5E2F5F5F5F5F5F5F5F5F5F5F5F5F5F5F5F5E2F5F5F5E2E2EFF5F5F5F5F5F5F5F5F5F5F5F5F5F5F5F5F5F5F5F5E2F5F5F5F5F5F5F5F5F5F5F5F5F5F5F5F5F5F5F5F5F5F5F5
310
F5F5F5F5F5F5F5F5F5F5F5F5F5F5F5F5F5F5F5F5F5F5F5F5F5F5F5F5F5F5F5F5F5F5F5F5F5F5F5F5F5F5F5F5F5F5F5F5F5F5F5F5F5F5F5F5F5F5F5F5F5F5F5F5F5F5F5F5F5F5F5F5F5F5F5F5F5F5F5F5F5F5F5F5F5F5F5F5F5F5F5F5F5F5F5F5F5F5F5F5F5F5F5F5F5F5F5F5F5F5F5F5E2F5F5F5F5F5F5F5F5F5F5F5F5F5F5
310
F5F5F5F5F5F5E2E2EFF5F5F5F5F5F5F5F5F5F5F5F5F5F5F5F5F5F5F5F5E2F5F5F5F5F5F5F5F5F5F5F5F5F5F5F5F5F5F5F5F5F5F5F5F5F5F5F5F5F5F5F5F5F5F5F5F5F5F5F5F5F5F5F5F5F5F5F5F5F5F5F5F5F5F5F5F5F5F5F5F5F5F5F5F5F5F5F5F5F5F5F5F5F5F5F5F5F5F5F5F5F5F5F5F5F5F5F5F5F5F5F5F5F5F5F5F5F5
310
F5F5F5F5F5F5F5F5F5F5F5F5F5F5F5F5F5F5F5F5F5F5F5F5F5F5F5F5F5F5F5F5F5F5F5F5F5F5E2F5F5F5F5F5F5F5F5F5F5F5F5F5F5F5F5F5F5F5F5E2E2EFF5F5F5F5F5F5F5F5F5F5F5F5F5F5F5F5F5F5F5F5E2F5F5F5F5F5F5F5F5F5F5F5F5F5F5F5F5F5F5F5F5F5F5F5F5F5F5F5F5F5F5F5F5F5F5F5F5F5F5F5F5F5F5F5F5
310
F5F5F5F5F5F5F5F5F5F5F5F5F5F5F5F5F5F5F5F5F5F5F5F5F5F5F5F5F5F5F5F5F5F5F5F5F5F5F5F5F5F5F5F5F5F5F5F5F5F5F5F5F5F5F5F5F5F5F5F5F5F5F5F5F5F5F5F5F5F5F5F5F5F5F5F5F5F5F5F5F5F5F5F5F5F5F5F5F5F5F5E2F5F5F5F5F5F5F5F5F5F5F5F5F5F5F5F5F5F5F5F5E2E2EFF5F5F5F5F5F5F5F5F5F5F5F5
310
F5F5F5F5F5F5F5F5E2F5F5F5F5F5F5F5F5F5F5F5F5F5F5F5F5F5F5F5F5F5F5F5F5F5F5F5F5F5F5F5F5F5F5F5F5F5F5F5F5F5F5F5F5F5F5F5F5F5F5F5F5F5F5F5F5F5F5F5F5F5F5F5F5F5F5F5F5F5F5F5F5F5F5F5F5F5F5F5F5F5F5F5F5F5F5F5F5F5F5F5F5F5F5F5F5F5F5F5F5F5F5F5F5F5F5F5F5F5F5F5F5F5F5F5F5F5F5
310
F5F5F5F5F5F5F5F5F5F5F5F5F5F5F5F5F5E2F5F5F5F5F5F5F5F5F5F5F5F5F5F5F5F5F5F5F5F5E2E2EFF5F5F5F5F5F5F5F5F5F5F5F5F5F5F5F5F5F5F5F5E2F5F5F5F5F5F5F5F5F5F5F5F5F5F5F5F5F5F5F5F5F5F5F5F5F5F5F5F5F5F5F5F5F5F5F5F5F5F5F5F5F5F5F5F5F5F5F5F5F5F5F5F5F5F5F5F5F5F5F5F5F5F5F5F5F5
310
F5F5F5F5F5F5F5F5F5F5F5F5F5F5F5F5F5F5F5F5F5F5F5F5F5F5F5F5F5F5F5F5F5F5F5F5F5F5F5F5F5F5F5F5F5F5F5F5F5F5F5F5F5F5F5F5F5F5F5F5F5F5F5F5F5F5F5F5F5F5E2F5F5F5F5F5F5F5F5F5F5F5F5F5F5F5F5F5F5F5F5E2E2EFF5F5F5F5F5F5F5F5F5F5F5F5F5F5F5F5F5F5F5F5E2F5F5F5F5F5F5F5F5F5F5F5F5
310
F5F5F5F5F5F5F5F5F5F5F5F5F5F5F5F5F5F5F5F5F5F5F5F5F5F5F5F5F5F5F5F5F5F5F5F5F5F5F5F5F5F5F5F5F5F5F5F5F5F5F5F5F5F5F5F5F5F5F5F5F5F5F5F5F5F5F5F5F5F5F5F5F5F5F5F5F5F5F5F5F5F5F5F5F5F5F5F5F5F5F5F5F5F5F5F5F5F5F5F5F5F5F5F5F5F5F5F5F5F5F5F5F5F5F5F5F5F5F5F5F5F5F5E2F5F5F5
310
F5F5F5F5F5F5F5F5F5F5F5F5F5F5F5F5F5E2E2EFF5F5F5F5F5F5F5F5F5F5F5F5F5F5F5F5F5F5F5F5E2F5F5F5F5F5F5F5F5F5F5F5F5F5F5F5F5F5F5F5F5F5F5F5F5F5F5F5F5F5F5F5F5F5F5F5F5F5F5F5F5F5F5F5F5F5F5F5F5F5F5F5F5F5F5F5F5F5F5F5F5F5F5F5F5F5F5F5F5F5F5F5F5F5F5F5F5F5F5F5F5F5F5F5F5F5F5
310
F5F5F5F5F5F5F5F5F5F5F5F5F5F5F5F5F5F5F5F5F5F5F5F5F5F5F5F5F5F5F5F5F5F5F5F5F5F5F5F5F5F5F5F5F5F5F5F5F5E2F5F5F5F5F5F5F5F5F5F5F5F5F5F5F5F5F5F5F5F5E2E2EFF5F5F5F5F5F5F5F5F5F5F5F5F5F5F5F5F5F5F5F5E2F5F5F5F5F5F5F5F5F5F5F5F5F5F5F5F5F5F5F5F5F5F5F5F5F5F5F5F5F5F5F5F5F5
310
F5F5F5F5F5F5F5F5F5F5F5F5F5F5F5F5F5F5F5F5F5F5F5F5F5F5F5F5F5F5F5F5F5F5F5F5F5F5F5F5F5F5F5F5F5F5F5F5F5F5F5F5F5F5F5F5F5F5F5F5F5F5F5F5F5F5F5F5F5F5F5F5F5F5F5F5F5F5F5F5F5F5F5F5F5F5F5F5F5F5F5F5F5F5F5F5F5F5F5F5F5F5E2F5F5F5F5F5F5F5F5F5F5F5F5F5F5F5F5F5F5F5F5E2E2EFF5
310
F5F5F5F5F5F5F5F5F5F5F5F5F5F5F5F5F5F5F5E2F5F5F5F5F5F5F5F5F5F5F5F5F5F5F5F5F5F5F5F5F5F5F5F5F5F5F5F5F5F5F5F5F5F5F5F5F5F5F5F5F5F5F5F5F5F5F5F5F5F5F5F5F5F5F5F5F5F5F5F5F5F5F5F5F5F5F5F5F5F5F5F5F5F5F5F5F5F5F5F5F5F5F5F5F5F5F5F5F5F5F5F5F5F5F5F5F5F5F5F5F5F5F5F5F5F5F5
310
F5F5F5F5F5F5F5F5F5F5F5F5F5F5F5F5F5F5F5F5F5F5F5F5F5F5F5F5E2F5F5F5F5F5F5F5F5F5F5F5F5F5F5F5F5F5F5F5F5E2E2EFF5F5F5E2F5F5F5F5F5F5F5F5F5F5F5F5F5F5F5F5E2F5F5F5F5F5F5F5F5F5F5F5F5F5F5F5F5F5F5F5F5F5F5F5F5F5F5F5F5F5F5F5F5F5F5F5F5F5F5F5F5F5F5F5F5F5F5F5F5F5F5F5F5F5F5
310
F5F5F5F5F5F5F5F5F5F5F5F5F5F5F5F5F5F5F5F5F5F5F5F5F5F5F5F5F5F5F5F5F5F5F5F5F5F5F5F5F5F5F5F5F5F5F5F5F5F5F5F5F5F5F5F5F5F5F5F5F5F5F5F5F5F5F5F5F5F5F5F5F5F5F5F5F5F5F5F5F5E2F5F5F5F5F5F5F5F5F5F5F5F5F5F5F5F5E2F5F5F5E2E2EFF5F5F5E2F5F5F5F5F5F5F5F5F5F5F5F5F5F5F5F5E2F5
310
F5F5F5F5F5F5F5F5F5F5F5F5F5F5F5F5F5F5F5F5F5F5F5F5F5F5F5F5F5F5F5F5F5F5F5F5F5F5F5F5F5F5F5F5F5F5F5F5F5F5F5F5F5F5F5F5F5F5F5F5F5F5F5F5F5F5F5F5F5F5F5F5F5F5F5F5F5F5F5F5F5F5F5F5F5F5F5F5F5F5F5F5F5F5F5F5F5F5F5F5F5F5F5F5F5F5F5F5F5F5F5F5F5F5F5F5F5F5F5F5F5F5F5F5F5F5F5
310
F5F5F5F5F5F5F5E2F5F5F5F5F5F5F5F5F5F5F5F5F5F5F5F5E2F5F5F5E2E2EFF5F5F5E2F5F5F5F5F5F5F5F5F5F5F5F5F5F5F5F5E2F5F5F5F5F5F5F5F5F5F5F5F5F5F5F5F5F5F5F5F5F5F5F5F5F5F5F5F5F5F5F5F5F5F5F5F5F5F5F5F5F5F5F5F5F5F5F5F5F5F5F5F5F5F5F5F5F5F5F5F5F5F5F5F5F5F5F5F5F5F5F5F5F5F5F5
310
F5F5F5F5F5F5F5F5F5F5F5F5F5F5F5F5F5F5F5F5F5F5F5F5F5F5F5F5F5F5F5F5F5F5F5F5F5F5F5F5F5F5F5F5F5F5F5F5F5F5F5F5F5F5F5F5F5F5F5F5E2F5F5F5F5F5F5F5F5F5F5F5F5F5F5F5F5E2F5F5F5E2E2EFF5F5F5E2F5F5F5F5F5F5F5F5F5F5F5F5F5F5F5F5E2F5F5F5F5F5F5F5F5F5F5F5F5F5F5F5F5F5F5F5F5F5F5
310
F5F5F5F5F5F5F5F5F5F5F5F5F5F5F5F5F5F5F5F5F5F5F5F5F5F5F5F5F5F5F5F5F5F5F5F5F5F5F5F5F5F5F5F5F5F5F5F5F5F5F5F5F5F5F5F5F5F5F5F5F5F5F5F5F5F5F5F5F5F5F5F5F5F5F5F5F5F5F5F5F5F5F5F5F5F5F5F5F5F5F5F5F5F5F5F5F5F5F5F5F5F5F5F5F5F5F5F5F5F5F5F5F5E2F5F5F5F5F5F5F5F5F5F5F5F5F5
310
F5F5F5E2F5F5F5E2E2EFF5F5F5E2F5F5F5F5F5F5F5F5F5F5F5F5F5F5F5F5E2F5F5F5F5F5F5F5F5F5F5F5F5F5F5F5F5F5F5F5F5F5F5F5F5F5F5F5F5F5F5F5F5F5F5F5F5F5F5F5F5F5F5F5F5F5F5F5F5F5F5F5F5F5F5F5F5F5F5F5F5F5F5F5F5F5F5F5F5F5F5F5F5F5F5F5F5F5F5F5F5F5F5F5F5F5F5F5F5F5F5F5F5F5F5F5F5
310
F5F5F5F5F5F5F5F5F5F5F5F5F5F5F5F5F5F5F5F5F5F5F5F5F5F5F5F5F5F5F5F5F5F5F5F5F5F5F5E2F5F5F5F5F5F5F5F5F5F5F5F5F5F5F5F5E2F5F5F5E2E2EFF5F5F5E2F5F5F5F5F5F5F5F5F5F5F5F5F5F5F5F5E2F5F5F5F5F5F5F5F5F5F5F5F5F5F5F5F5F5F5F5F5F5F5F5F5F5F5F5F5F5F5F5F5F5F5F5F5F5F5F5F5F5F5F5
310
F5F5F5F5F5F5F5F5F5F5F5F5F5F5F5F5F5F5F5F5F5F5F5F5F5F5F5F5F5F5F5F5F5F5F5F5F5F5F5F5F5F5F5F5F5F5F5F5F5F5F5F5F5F5F5F5F5F5F5F5F5F5F5F5F5F5F5F5F5F5F5F5F5F5F5F5F5F5F5F5F5F5F5F5F5F5F5F5F5F5F5F5E2F5F5F5F5F5F5F5F5F5F5F5F5F5F5F5F5E2F5F5F5E2E2EFF5F5F5E2F5F5F5F5F5F5F5
310
F5F5F5F5F5F5F5F5F5E2F5F5F5F5F5F5F5F5F5F5F5F5F5F5F5F5F5F5F5F5F5F5F5F5F5F5F5F5F5F5F5F5F5F5F5F5F5F5F5F5F5F5F5F5F5F5F5F5F5F5F5F5F5F5F5F5F5F5F5F5F5F5F5F5F5F5F5F5F5F5F5F5F5F5F5F5F5F5F5F5F5F5F5F5F5F5F5F5F5F5F5F5F5F5F5F5F5F5F5F5F5F5F5F5F5F5F5F5F5F5F5F5F5F5F5F5F5
310
F5F5F5F5F5F5F5F5F5F5F5F5F5F5F5F5F5F5E2F5F5F5F5F5F5F5F5F5F5F5F5F5F5F5F5E2F5F5F5E2E2EFF5F5F5E2F5F5F5F5F5F5F5F5F5F5F5F5F5F5F5F5E2F5F5F5F5F5F5F5F5F5F5F5F5F5F5F5F5F5F5F5F5F5F5F5F5F5F5F5F5F5F5F5F5F5F5F5F5F5F5F5F5F5F5F5F5F5F5F5F5F5F5F5F5F5F5F5F5F5F5F5F5F5F5F5F5
310
F5F5F5F5F5F5F5F5F5F5F5F5F5F5F5F5F5F5F5F5F5F5F5F5F5F5F5F5F5F5F5F5F5F5F5F5F5F5F5F5F5F5F5F5F5F5F5F5F5F5F5F5F5F5F5F5F5F5F5F5F5F5F5F5F5F5F5F5F5F5F5E2F5F5F5F5F5F5F5F5F5F5F5F5F5F5F5F5E2F5F5F5E2E2EFF5F5F5E2F5F5F5F5F5F5F5F5F5F5F5F5F5F5F5F5E2F5F5F5F5F5F5F5F5F5F5F5
310
F5F5F5F5F5F5F5F5F5F5F5F5F5F5F5F5F5F5F5F5F5F5F5F5F5F5F5F5F5F5F5F5F5F5F5F5F5F5F5F5F5F5F5F5F5F5F5F5F5F5F5F5F5F5F5F5F5F5F5F5F5F5F5F5F5F5F5F5F5F5F5F5F5F5F5F5F5F5F5F5F5F5F5F5F5F5F5F5F5F5F5F5F5F5F5F5F5F5F5F5F5F5F5F5F5F5F5F5F5F5F5F5F5F5F5F5F5F5F5F5F5F5F5F5E2F5F5
310
F5F5F5F5F5F5F5F5F5F5F5F5F5F5E2F5F5F5E2E2EFF5F5F5E2F5F5F5F5F5F5F5F5F5F5F5F5F5F5F5F5E2F5F5F5F5F5F5F5F5F5F5F5F5F5F5F5F5F5F5F5F5F5F5F5F5F5F5F5F5F5F5F5F5F5F5F5F5F5F5F5F5F5F5F5F5F5F5F5F5F5F5F5F5F5F5F5F5F5F5F5F5F5F5F5F5F5F5F5F5F5F5F5F5F5F5F5F5F5F5F5F5F5F5F5F5F5
310
F5F5F5F5F5F5F5F5F5F5F5F5F5F5F5F5F5F5F5F5F5F5F5F5F5F5F5F5F5F5F5F5F5F5F5F5F5F5F5F5F5F5F5F5F5F5F5F5F5F5E2F5F5F5F5F5F5F5F5F5F5F5F5F5F5F5F5E2F5F5F5E2E2EFF5F5F5E2F5F5F5F5F5F5F5F5F5F5F5F5F5F5F5F5E2F5F5F5F5F5F5F5F5F5F5F5F5F5F5F5F5F5F5F5F5F5F5F5F5F5F5F5F5F5F5F5F5
310
F5F5F5F5F5F5F5F5F5F5F5F5F5F5F5F5F5F5F5F5F5F5F5F5F5F5F5F5F5F5F5F5F5F5F5F5F5F5F5F5F5F5F5F5F5F5F5F5F5F5F5F5F5F5F5F5F5F5F5F5F5F5F5F5F5F5F5F5F5F5F5F5F5F5F5F5F5F5F5F5F5F5F5F5F5F5F5F5F5F5F5F5F5F5F5F5F5F5F5F5F5F5F5E2F5F5F5F5F5F5F5F5F5F5F5F5F5F5F5F5E2F5F5F5E2E2EF
310
F5F5F5E2F5F5F5F5F5F5F5F5F5F5F5F5F5F5F5F5E2F5F5F5F5F5F5F5F5F5F5F5F5F5F5F5F5F5F5F5F5F5F5F5F5F5F5F5F5F5F5F5F5F5F5F5F5F5F5F5F5F5F5F5F5F5F5F5F5F5F5F5F5F5F5F5F5F5F5F5F5F5F5F5F5F5F5F5F5F5F5F5F5F5F5F5F5F5F5F5F5F5F5F5F5F5F5F5F5F5F5F5F5F5F5F5F5F5F5F5F5F5F5F5F5F5F5
310
F5F5F5F5F5F5F5F5F5F5F5F5F5F5F5F5F5F5F5F5F5F5F5F5F5F5F5F5F5E2F5F5F5F5F5F5F5F5F5F5F5F5F5F5F5F5E2F5F5F5E2E2EFF5F5F5E2F5F5F5F5F5F5F5F5F5F5F5F5F5F5F5F5E2F5F5F5F5F5F5F5F5F5F5F5F5F5F5F5F5F5F5F5F5F5F5F5F5F5F5F5F5F5F5F5F5F5F5F5F5F5F5F5F5F5F5F5F5F5F5F5F5F5F5F5F5F5
310
F5F5F5F5F5F5F5F5F5F5F5F5F5F5F5F5F5F5F5F5F5F5F5F5F5F5F5F5F5F5F5F5F5F5F5F5F5F5F5F5F5F5F5F5F5F5F5F5F5F5F5F5F5F5F5F5F5F5F5F5F5F5F5F5F5F5F5F5F5F5F5F5F5F5F5F5F5F5F5F5F5F5E2F5F5F5F5F5F5F5F5F5F5F5F5F5F5F5F5E2F5F5F5E2E2EFF5F5F5E2F5F5F5F5F5F5F5F5F5F5F5F5F5F5F5F5E2
310
F5F5F5F5F5F5F5F5F5F5F5F5F5F5F5F5F5F5F5F5F5F5F5F5F5F5F5F5F5F5F5F5F5F5F5F5F5F5F5F5F5F5F5F5F5F5F5F5F5F5F5F5F5F5F5F5F5F5F5F5F5F5F5F5F5F5F5F5F5F5F5F5F5F5F5F5F5F5F5F5F5F5F5F5F5F5F5F5F5F5F5F5F5F5F5F5F5F5F5F5F5F5F5F5F5F5F5F5F5F5F5F5F5F5F5F5F5F5F5F5F5F5F5F5F5F5F5
310
F5F5F5F5F5F5F5F5E2F5F5F5F5F5F5F5F5F5F5F5F5F5F5F5F5E2F5F5F5E2E2EFF5F5F5E2F5F5F5F5F5F5F5F5F5F5F5F5F5F5F5F5E2F5F5F5F5F5F5F5F5F5F5F5F5F5F5F5F5F5F5F5F5F5F5F5F5F5F5F5F5F5F5F5F5F5F5F5F5F5F5F5F5F5F5F5F5F5F5F5F5F5F5F5F5F5F5F5F5F5F5F5F5F5F5F5F5F5F5F5F5F5F5F5F5F5F5
310
F5F5F5F5F5F5F5F5F5F5F5F5F5F5F5F5F5F5F5F5F5F5F5F5F5F5F5F5F5F5F5F5F5F5F5F5F5F5F5F5F5F5F5F5F5F5F5F5F5F5F5F5F5F5F5F5F5F5F5F5F5E2F5F5F5F5F5F5F5F5F5F5F5F5F5F5F5F5E2F5F5F5E2E2EFF5F5F5E2F5F5F5F5F5F5F5F5F5F5F5F5F5F5F5F5E2F5F5F5F5F5F5F5F5F5F5F5F5F5F5F5F5F5F5F5F5F5
310
F5F5F5F5F5F5F5F5F5F5F5F5F5F5F5F5F5F5F5F5F5F5F5F5F5F5F5F5F5F5F5F5F5F5F5F5F5F5F5F5F5F5F5F5F5F5F5F5F5F5F5F5F5F5F5F5F5F5F5F5F5F5F5F5F5F5F5F5F5F5F5F5F5F5F5F5F5F5F5F5F5F5F5F5F5F5F5F5F5F5F5F5F5F5F5F5F5F5F5F5F5F5F5F5F5F5F5F5F5F5F5F5F5F5E2F5F5F5F5F5F5F5F5F5F5F5F5
310
F5F5F5F5E2F5F5F5E2E2EFF5F5F5E2F5F5F5F5F5F5F5F5F5F5F5F5F5F5F5F5E2F5F5F5F5F5F5F5F5F5F5F5F5F5F5F5F5F5F5F5F5F5F5F5F5F5F5F5F5F5F5F5F5F5F5F5F5F5F5F5F5F5F5F5F5F5F5F5F5F5F5F5F5F5F5F5F5F5F5F5F5F5F5F5F5F5F5F5F5F5F5F5F5F5F5F5F5F5F5F5F5F5F5F5F5F5F5F5F5F5F5F5F5F5F5F5
310
F5F5F5F5F5F5F5F5F5F5F5F5F5F5F5F5F5F5F5F5F5F5F5F5F5F5F5F5F5F5F5F5F5F5F5F5F5F5F5F5E2F5F5F5F5F5F5F5F5F5F5F5F5F5F5F5F5E2F5F5F5E2E2EFF5F5F5F5F5F5F5F5F5F5F5F5F5F5F5F5F5F5F5F5E2F5F5F5F5F5F5F5F5F5F5F5F5F5F5F5F5F5F5F5F5F5F5F5F5F5F5F5F5F5F5F5F5F5F5F5F5F5F5F5F5F5F5
310
F5F5F5F5F5F5F5F5F5F5F5F5F5F5F5F5F5F5F5F5F5F5F5F5F5F5F5F5F5F5F5F5F5F5F5F5F5F5F5F5F5F5F5F5F5F5F5F5F5F5F5F5F5F5F5F5F5F5F5F5F5F5F5F5F5F5F5F5F5F5F5F5F5F5F5F5F5F5F5F5F5F5F5F5F5F5F5F5F5F5F5F5F5E2F5F5F5F5F5F5F5F5F5F5F5F5F5F5F5F5F5F5F5F5E2E2EFF5F5F5F5F5F5F5F5F5F5
310
F5F5F5F5F5F5F5F5F5F5E2F5F5F5F5F5F5F5F5F5F5F5F5F5F5F5F5F5F5F5F5F5F5F5F5F5F5F5F5F5F5F5F5F5F5F5F5F5F5F5F5F5F5F5F5F5F5F5F5F5F5F5F5F5F5F5F5F5F5F5F5F5F5F5F5F5F5F5F5F5F5F5F5F5F5F5F5F5F5F5F5F5F5F5F5F5F5F5F5F5F5F5F5F5F5F5F5F5F5F5F5F5F5F5F5F5F5F5F5F5F5F5F5F5F5F5F5
310
F5F5F5F5F5F5F5F5F5F5F5F5F5F5F5F5F5F5F5E2F5F5F5F5F5F5F5F5F5F5F5F5F5F5F5F5F5F5F5F5E2E2EFF5F5F5F5F5F5F5F5F5F5F5F5F5F5F5F5F5F5F5F5E2F5F5F5F5F5F5F5F5F5F5F5F5F5F5F5F5F5F5F5F5F5F5F5F5F5F5F5F5F5F5F5F5F5F5F5F5F5F5F5F5F5F5F5F5F5F5F5F5F5F5F5F5F5F5F5F5F5F5F5F5F5F5F5
310
F5F5F5F5F5F5F5F5F5F5F5F5F5F5F5F5F5F5F5F5F5F5F5F5F5F5F5F5F5F5F5F5F5F5F5F5F5F5F5F5F5F5F5F5F5F5F5F5F5F5F5F5F5F5F5F5F5F5F5F5F5F5F5F5F5F5F5F5F5F5F5F5E2F5F5F5F5F5F5F5F5F5F5F5F5F5F5F5F5F5F5F5F5E2E2EFF5F5F5F5F5F5F5F5F5F5F5F5F5F5F5F5F5F5F5F5E2F5F5F5F5F5F5F5F5F5F5
310
F5F5F5F5F5F5F5F5F5F5F5F5F5F5F5F5F5F5F5F5F5F5F5F5F5F5F5F5F5F5F5F5F5F5F5F5F5F5F5F5F5F5F5F5F5F5F5F5F5F5F5F5F5F5F5F5F5F5F5F5F5F5F5F5F5F5F5F5F5F5F5F5F5F5F5F5F5F5F5F5F5F5F5F5F5F5F5F5F5F5F5F5F5F5F5F5F5F5F5F5F5F5F5F5F5F5F5F5F5F5F5F5F5F5F5F5F5F5F5F5F5F5F5F5F5E2F5
310
F5F5F5F5F5F5F5F5F5F5F5F5F5F5F5F5F5F5F5E2E2EFF5F5F5F5F5F5F5F5F5F5F5F5F5F5F5F5F5F5F5F5E2F5F5F5F5F5F5F5F5F5F5F5F5F5F5F5F5F5F5F5F5F5F5F5F5F5F5F5F5F5F5F5F5F5F5F5F5F5F5F5F5F5F5F5F5F5F5F5F5F5F5F5F5F5F5F5F5F5F5F5F5F5F5F5F5F5F5F5F5F5F5F5F5F5F5F5F5F5F5F5F5F5F5F5F5
310
F5F5F5F5F5F5F5F5F5F5F5F5F5F5F5F5F5F5F5F5F5F5F5F5F5F5F5F5F5F5F5F5F5F5F5F5F5F5F5F5F5F5F5F5F5F5F5F5F5F5F5E2F5F5F5F5F5F5F5F5F5F5F5F5F5F5F5F5F5F5F5F5E2E2EFF5F5F5F5F5F5F5F5F5F5F5F5F5F5F5F5F5F5F5F5E2F5F5F5F5F5F5F5F5F5F5F5F5F5F5F5F5F5F5F5F5F5F5F5F5F5F5F5F5F5F5F5
310
F5F5F5F5F5F5F5F5F5F5F5F5F5F5F5F5F5F5F5F5F5F5F5F5F5F5F5F5F5F5F5F5F5F5F5F5F5F5F5F5F5F5F5F5F5F5F5F5F5F5F5F5F5F5F5F5F5F5F5F5F5F5F5F5F5F5F5F5F5F5F5F5F5F5F5F5F5F5F5F5F5F5F5F5F5F5F5F5F5F5F5F5F5F5F5F5F5F5F5F5F5F5F5F5E2F5F5F5F5F5F5F5F5F5F5F5F5F5F5F5F5F5F5F5F5E2E2
310
EFF5F5F5F5F5F5F5F5F5F5F5F5F5F5F5F5F5F5F5F5E2F5F5F5F5F5F5F5F5F5F5F5F5F5F5F5F5F5F5F5F5F5F5F5F5F5F5F5F5F5F5F5F5F5F5F5F5F5F5F5F5F5F5F5F5F5F5F5F5F5F5F5F5F5F5F5F5F5F5F5F5F5F5F5F5F5F5F5F5F5F5F5F5F5F5F5F5F5F5F5F5F5F5F5F5F5F5F5F5F5F5F5F5F5F5F5F5F5F5F5F5F5F5F5F5F5
310
F5F5F5F5F5F5F5F5F5F5F5F5F5F5F5F5F5F5F5F5F5F5F5F5F5F5F5F5F5F5E2F5F5F5F5F5F5F5F5F5F5F5F5F5F5F5F5F5F5F5F5E2E2EFF5F5F5F5F5F5F5F5F5F5F5F5F5F5F5F5F5F5F5F5E2F5F5F5F5F5F5F5F5F5F5F5F5F5F5F5F5F5F5F5F5F5F5F5F5F5F5F5F5F5F5F5F5F5F5F5F5F5F5F5F5F5F5F5F5F5F5F5F5F5F5F5F5
310
F5F5F5F5F5F5F5F5F5F5F5F5F5F5F5F5F5F5F5F5F5F5F5F5F5F5F5F5F5F5F5F5F5F5F5F5F5F5F5F5F5F5F5F5F5F5F5F5F5F5F5F5F5F5F5F5F5F5F5F5F5F5F5F5F5F5F5F5F5F5F5F5F5F5F5F5F5F5F5F5F5F5F5E2F5F5F5F5F5F5F5F5F5F5F5F5F5F5F5F5F5F5F5F5E2E2EFF5F5F5F5F5F5F5F5F5F5F5F5F5F5F5F5F5F5F5F5
310
E2F5F5F5F5F5F5F5F5F5F5F5F5F5F5F5F5F5F5F5F5F5F5F5F5F5F5F5F5F5F5F5F5F5F5F5F5F5F5F5F5F5F5F5F5F5F5F5F5F5F5F5F5F5F5F5F5F5F5F5F5F5F5F5F5F5F5F5F5F5F5F5F5F5F5F5F5F5F5F5F5F5F5F5F5F5F5F5F5F5F5F5F5F5F5F5F5F5F5F5F5F5F5F5F5F5F5F5F5F5F5F5F5F5F5F5F5F5F5F5F5F5F5F5F5F5F5
310
F5F5F5F5F5F5F5F5F5E2F5F5F5F5F5F5F5F5F5F5F5F5F5F5F5F5F5F5F5F5E2E2EFF5F5F5E2F5F5F5F5F5F5F5F5F5F5F5F5F5F5F5F5E2F5F5F5F5F5F5F5F5F5F5F5F5F5F5F5F5F5F5F5F5F5F5F5F5F5F5F5F5F5F5F5F5F5F5F5F5F5F5F5F5F5F5F5F5F5F5F5F5F5F5F5F5F5F5F5F5F5F5F5F5F5F5F5F5F5F5F5F5F5F5F5F5F5
310
F5F5F5F5F5F5F5F5F5F5F5F5F5F5F5F5F5F5F5F5F5F5F5F5F5F5F5F5F5F5F5F5F5F5F5F5F5F5F5F5F5F5F5F5F5F5F5F5F5F5F5F5F5F5F5F5F5F5F5F5F5F5E2F5F5F5F5F5F5F5F5F5F5F5F5F5F5F5F5E2F5F5F5E2E2EFF5F5F5E2F5F5F5F5F5F5F5F5F5F5F5F5F5F5F5F5E2F5F5F5F5F5F5F5F5F5F5F5F5F5F5F5F5F5F5F5F5
310
F5F5F5F5F5F5F5F5F5F5F5F5F5F5F5F5F5F5F5F5F5F5F5F5F5F5F5F5F5F5F5F5F5F5F5F5F5F5F5F5F5F5F5F5F5F5F5F5F5F5F5F5F5F5F5F5F5F5F5F5F5F5F5F5F5F5F5F5F5F5F5F5F5F5F5F5F5F5F5F5F5F5F5F5F5F5F5F5F5F5F5F5F5F5F5F5F5F5F5F5F5F5F5F5F5F5F5F5F5F5F5F5F5F5F5E2F5F5F5F5F5F5F5F5F5F5F5
310
F5F5F5F5F5E2F5F5F5E2E2EFF5F5F5E2F5F5F5F5F5F5F5F5F5F5F5F5F5F5F5F5E2F5F5F5F5F5F5F5F5F5F5F5F5F5F5F5F5F5F5F5F5F5F5F5F5F5F5F5F5F5F5F5F5F5F5F5F5F5F5F5F5F5F5F5F5F5F5F5F5F5F5F5F5F5F5F5F5F5F5F5F5F5F5F5F5F5F5F5F5F5F5F5F5F5F5F5F5F5F5F5F5F5F5F5F5F5F5F5F5F5F5F5F5F5F5
310
F5F5F5F5F5F5F5F5F5F5F5F5F5F5F5F5F5F5F5F5F5F5F5F5F5F5F5F5F5F5F5F5F5F5F5F5F5F5F5F5F5E2F5F5F5F5F5F5F5F5F5F5F5F5F5F5F5F5E2F5F5F5E2E2EFF5F5F5E2F5F5F5F5F5F5F5F5F5F5F5F5F5F5F5F5E2F5F5F5F5F5F5F5F5F5F5F5F5F5F5F5F5F5F5F5F5F5F5F5F5F5F5F5F5F5F5F5F5F5F5F5F5F5F5F5F5F5
310
F5F5F5F5F5F5F5F5F5F5F5F5F5F5F5F5F5F5F5F5F5F5F5F5F5F5F5F5F5F5F5F5F5F5F5F5F5F5F5F5F5F5F5F5F5F5F5F5F5F5F5F5F5F5F5F5F5F5F5F5F5F5F5F5F5F5F5F5F5F5F5F5F5F5F5F5F5F5F5F5F5F5F5F5F5F5F5F5F5F5F5F5F5F5E2F5F5F5F5F5F5F5F5F5F5F5F5F5F5F5F5E2F5F5F5E2E2EFF5F5F5E2F5F5F5F5F5
310
F5F5F5F5F5F5F5F5F5F5F5E2F5F5F5F5F5F5F5F5F5F5F5F5F5F5F5F5F5F5F5F5F5F5F5F5F5F5F5F5F5F5F5F5F5F5F5F5F5F5F5F5F5F5F5F5F5F5F5F5F5F5F5F5F5F5F5F5F5F5F5F5F5F5F5F5F5F5F5F5F5F5F5F5F5F5F5F5F5F5F5F5F5F5F5F5F5F5F5F5F5F5F5F5F5F5F5F5F5F5F5F5F5F5F5F5F5F5F5F5F5F5F5F5F5F5F5
310
F5F5F5F5F5F5F5F5F5F5F5F5F5F5F5F5F5F5F5F5E2F5F5F5F5F5F5F5F5F5F5F5F5F5F5F5F5E2F5F5F5E2E2EFF5F5F5E2F5F5F5F5F5F5F5F5F5F5F5F5F5F5F5F5E2F5F5F5F5F5F5F5F5F5F5F5F5F5F5F5F5F5F5F5F5F5F5F5F5F5F5F5F5F5F5F5F5F5F5F5F5F5F5F5F5F5F5F5F5F5F5F5F5F5F5F5F5F5F5F5F5F5F5F5F5F5F5
310
F5F5F5F5F5F5F5F5F5F5F5F5F5F5F5F5F5F5F5F5F5F5F5F5F5F5F5F5F5F5F5F5F5F5F5F5F5F5F5F5F5F5F5F5F5F5F5F5F5F5F5F5F5F5F5F5F5F5F5F5F5F5F5F5F5F5F5F5F5F5F5F5F5E2F5F5F5F5F5F5F5F5F5F5F5F5F5F5F5F5E2F5F5F5E2E2EFF5F5F5E2F5F5F5F5F5F5F5F5F5F5F5F5F5F5F5F5E2F5F5F5F5F5F5F5F5F5
310
F5F5F5F5F5F5F5F5F5F5F5F5F5F5F5F5F5F5F5F5F5F5F5F5F5F5F5F5F5F5F5F5F5F5F5F5F5F5F5F5F5F5F5F5F5F5F5F5F5F5F5F5F5F5F5F5F5F5F5F5F5F5F5F5F5F5F5F5F5F5F5F5F5F5F5F5F5F5F5F5F5F5F5F5F5F5F5F5F5F5F5F5F5F5F5F5F5F5F5F5F5F5F5F5F5F5F5F5F5F5F5F5F5F5F5F5F5F5F5F5F5F5F5F5F5F5E2
310
F5F5F5F5F5F5F5F5F5F5F5F5F5F5F5F5E2F5F5F5E2E2EFF5F5F5E2F5F5F5F5F5F5F5F5F5F5F5F5F5F5F5F5E2F5F5F5F5F5F5F5F5F5F5F5F5F5F5F5F5F5F5F5F5F5F5F5F5F5F5F5F5F5F5F5F5F5F5F5F5F5F5F5F5F5F5F5F5F5F5F5F5F5F5F5F5F5F5F5F5F5F5F5F5F5F5F5F5F5F5F5F5F5F5F5F5F5F5F5F5F5F5F5F5F5F5F5
310
F5F5F5F5F5F5F5F5F5F5F5F5F5F5F5F5F5F5F5F5F5F5F5F5F5F5F5F5F5F5F5F5F5F5F5F5F5F5F5F5F5F5F5F5F5F5F5F5F5F5F5F5E2F5F5F5F5F5F5F5F5F5F5F5F5F5F5F5F5E2F5F5F5E2E2EFF5F5F5E2F5F5F5F5F5F5F5F5F5F5F5F5F5F5F5F5E2F5F5F5F5F5F5F5F5F5F5F5F5F5F5F5F5F5F5F5F5F5F5F5F5F5F5F5F5F5F5
310
F5F5F5F5F5F5F5F5F5F5F5F5F5F5F5F5F5F5F5F5F5F5F5F5F5F5F5F5F5F5F5F5F5F5F5F5F5F5F5F5F5F5F5F5F5F5F5F5F5F5F5F5F5F5F5F5F5F5F5F5F5F5F5F5F5F5F5F5F5F5F5F5F5F5F5F5F5F5F5F5F5F5F5F5F5F5F5F5F5F5F5F5F5F5F5F5F5F5F5F5F5F5F5F5F5E2F5F5F5F5F5F5F5F5F5F5F5F5F5F5F5F5E2F5F5F5E2
310
E2EFF5F5F5E2F5F5F5F5F5F5F5F5F5F5F5F5F5F5F5F5E2F5F5F5F5F5F5F5F5F5F5F5F5F5F5F5F5F5F5F5F5F5F5F5F5F5F5F5F5F5F5F5F5F5F5F5F5F5F5F5F5F5F5F5F5F5F5F5F5F5F5F5F5F5F5F5F5F5F5F5F5F5F5F5F5F5F5F5F5F5F5F5F5F5F5F5F5F5F5F5F5F5F5F5F5F5F5F5F5F5F5F5F5F5F5F5F5F5F5F5F5F5F5F5F5
310
F5F5F5F5F5F5F5F5F5F5F5F5F5F5F5F5F5F5F5F5F5F5F5F5F5F5F5F5F5F5F5E2F5F5F5F5F5F5F5F5F5F5F5F5F5F5F5F5E2F5F5F5E2E2EFF5F5F5E2F5F5F5F5F5F5F5F5F5F5F5F5F5F5F5F5E2F5F5F5F5F5F5F5F5F5F5F5F5F5F5F5F5F5F5F5F5F5F5F5F5F5F5F5F5F5F5F5F5F5F5F5F5F5F5F5F5F5F5F5F5F5F5F5F5F5F5F5
310
F5F5F5F5F5F5F5F5F5F5F5F5F5F5F5F5F5F5F5F5F5F5F5F5F5F5F5F5F5F5F5F5F5F5F5F5F5F5F5F5F5F5F5F5F5F5F5F5F5F5F5F5F5F5F5F5F5F5F5F5F5F5F5F5F5F5F5F5F5F5F5F5F5F5F5F5F5F5F5F5F5F5F5F5E2F5F5F5F5F5F5F5F5F5F5F5F5F5F5F5F5E2F5F5F5E2E2EFF5F5F5E2F5F5F5F5F5F5F5F5F5F5F5F5F5F5F5
310
F5E2F5F5F5F5F5F5F5F5F5F5F5F5F5F5F5F5F5F5F5F5F5F5F5F5F5F5F5F5F5F5F5F5F5F5F5F5F5F5F5F5F5F5F5F5F5F5F5F5F5F5F5F5F5F5F5F5F5F5F5F5F5F5F5F5F5F5F5F5F5F5F5F5F5F5F5F5F5F5F5F5F5F5F5F5F5F5F5F5F5F5F5F5F5F5F5F5F5F5F5F5F5F5F5F5F5F5F5F5F5F5F5F5F5F5F5F5F5F5F5F5F5F5F5F5F5
310
F5F5F5F5F5F5F5F5F5F5E2F5F5F5F5F5F5F5F5F5F5F5F5F5F5F5F5E2F5F5F5E2E2EFF5F5F5E2F5F5F5F5F5F5F5F5F5F5F5F5F5F5F5F5E2F5F5F5F5F5F5F5F5F5F5F5F5F5F5F5F5F5F5F5F5F5F5F5F5F5F5F5F5F5F5F5F5F5F5F5F5F5F5F5F5F5F5F5F5F5F5F5F5F5F5F5F5F5F5F5F5F5F5F5F5F5F5F5F5F5F5F5F5F5F5F5F5
310
F5F5F5F5F5F5F5F5F5F5F5F5F5F5F5F5F5F5F5F5F5F5F5F5F5F5F5F5F5F5F5F5F5F5F5F5F5F5F5F5F5F5F5F5F5F5F5F5F5F5F5F5F5F5F5F5F5F5F5F5F5F5F5E2F5F5F5F5F5F5F5F5F5F5F5F5F5F5F5F5E2F5F5F5E2E2EFF5F5F5E2F5F5F5F5F5F5F5F5F5F5F5F5F5F5F5F5E2F5F5F5F5F5F5F5F5F5F5F5F5F5F5F5F5F5F5F5
310
F5F5F5F5F5F5F5F5F5F5F5F5F5F5F5F5F5F5F5F5F5F5F5F5F5F5F5F5F5F5F5F5F5F5F5F5F5F5F5F5F5F5F5F5F5F5F5F5F5F5F5F5F5F5F5F5F5F5F5F5F5F5F5F5F5F5F5F5F5F5F5F5F5F5F5F5F5F5F5F5F5F5F5F5F5F5F5F5F5F5F5F5F5F5F5F5F5F5F5F5F5F5F5F5F5F5F5F5F5F5F5F5F5F5F5F5E2F5F5F5F5F5F5F5F5F5F5
310
F5F5F5F5F5F5E2F5F5F5E2E2EFF5F5F5E2F5F5F5F5F5F5F5F5F5F5F5F5F5F5F5F5E2F5F5F5F5F5F5F5F5F5F5F5F5F5F5F5F5F5F5F5F5F5F5F5F5F5F5F5F5F5F5F5F5F5F5F5F5F5F5F5F5F5F5F5F5F5F5F5F5F5F5F5F5F5F5F5F5F5F5F5F5F5F5F5F5F5F5F5F5F5F5F5F5F5F5F5F5F5F5F5F5F5F5F5F5F5F5F5F5F5F5F5F5F5
310
F5F5F5F5F5F5F5F5F5F5F5F5F5F5F5F5F5F5F5F5F5F5F5F5F5F5F5F5F5F5F5F5F5F5F5F5F5F5F5F5F5F5E2F5F5F5F5F5F5F5F5F5F5F5F5F5F5F5F5E2F5F5F5E2E2EFF5F5F5E2F5F5F5F5F5F5F5F5F5F5F5F5F5F5F5F5E2F5F5F5F5F5F5F5F5F5F5F5F5F5F5F5F5F5F5F5F5F5F5F5F5F5F5F5F5F5F5F5F5F5F5F5F5F5F5F5F5
310
F5F5F5F5F5F5F5F5F5F5F5F5F5F5F5F5F5F5F5F5F5F5F5F5F5F5F5F5F5F5F5F5F5F5F5F5F5F5F5F5F5F5F5F5F5F5F5F5F5F5F5F5F5F5F5F5F5F5F5F5F5F5F5F5F5F5F5F5F5F5F5F5F5F5F5F5F5F5F5F5F5F5F5F5F5F5F5F5F5F5F5F5F5F5F5E2F5F5F5F5F5F5F5F5F5F5F5F5F5F5F5F5E2F5F5F5E2E2EFF5F5F5E2F5F5F5F5
310
F5F5F5F5F5F5F5F5F5F5F5F5E2F5F5F5F5F5F5F5F5F5F5F5F5F5F5F5F5F5F5F5F5F5F5F5F5F5F5F5F5F5F5F5F5F5F5F5F5F5F5F5F5F5F5F5F5F5F5F5F5F5F5F5F5F5F5F5F5F5F5F5F5F5F5F5F5F5F5F5F5F5F5F5F5F5F5F5F5F5F5F5F5F5F5F5F5F5F5F5F5F5F5F5F5F5F5F5F5F5F5F5F5F5F5F5F5F5F5F5F5F5F5F5F5F5F5
310
F5F5F5F5F5F5F5F5F5F5F5F5F5F5F5F5F5F5F5F5F5E2F5F5F5F5F5F5F5F5F5F5F5F5F5F5F5F5E2F5F5F5E2E2EFF5F5F5F5F5F5F5F5F5F5F5F5F5F5F5F5F5F5F5F5E2F5F5F5F5F5F5F5F5F5F5F5F5F5F5F5F5F5F5F5F5F5F5F5F5F5F5F5F5F5F5F5F5F5F5F5F5F5F5F5F5F5F5F5F5F5F5F5F5F5F5F5F5F5F5F5F5F5F5F5F5F5
310
F5F5F5F5F5F5F5F5F5F5F5F5F5F5F5F5F5F5F5F5F5F5F5F5F5F5F5F5F5F5F5F5F5F5F5F5F5F5F5F5F5F5F5F5F5F5F5F5F5F5F5F5F5F5F5F5F5F5F5F5F5F5F5F5F5F5F5F5F5F5F5F5F5F5E2F5F5F5F5F5F5F5F5F5F5F5F5F5F5F5F5F5F5F5F5E2E2EFF5F5F5F5F5F5F5F5F5F5F5F5F5F5F5F5F5F5F5F5E2F5F5F5F5F5F5F5F5
310
F5F5F5F5F5F5F5F5F5F5F5F5F5F5F5F5F5F5F5F5F5F5F5F5F5F5F5F5F5F5F5F5F5F5F5F5F5F5F5F5F5F5F5F5F5F5F5F5F5F5F5F5F5F5F5F5F5F5F5F5F5F5F5F5F5F5F5F5F5F5F5F5F5F5F5F5F5F5F5F5F5F5F5F5F5F5F5F5F5F5F5F5F5F5F5F5F5F5F5F5F5F5F5F5F5F5F5F5F5F5F5F5F5F5F5F5F5F5F5F5F5F5F5F5F5F5F5
310
E2F5F5F5F5F5F5F5F5F5F5F5F5F5F5F5F5F5F5F5F5E2E2EFF5F5F5F5F5F5F5F5F5F5F5F5F5F5F5F5F5F5F5F5E2F5F5F5F5F5F5F5F5F5F5F5F5F5F5F5F5F5F5F5F5F5F5F5F5F5F5F5F5F5F5F5F5F5F5F5F5F5F5F5F5F5F5F5F5F5F5F5F5F5F5F5F5F5F5F5F5F5F5F5F5F5F5F5F5F5F5F5F5F5F5F5F5F5F5F5F5F5F5F5F5F5F5
310
F5F5F5F5F5F5F5F5F5F5F5F5F5F5F5F5F5F5F5F5F5F5F5F5F5F5F5F5F5F5F5F5F5F5F5F5F5F5F5F5F5F5F5F5F5F5F5F5F5F5F5F5F5E2F5F5F5F5F5F5F5F5F5F5F5F5F5F5F5F5F5F5F5F5E2E2EFF5F5F5F5F5F5F5F5F5F5F5F5F5F5F5F5F5F5F5F5E2F5F5F5F5F5F5F5F5F5F5F5F5F5F5F5F5F5F5F5F5F5F5F5F5F5F5F5F5F5
310
F5F5F5F5F5F5F5F5F5F5F5F5F5F5F5F5F5F5F5F5F5F5F5F5F5F5F5F5F5F5F5F5F5F5F5F5F5F5F5F5F5F5F5F5F5F5F5F5F5F5F5F5F5F5F5F5F5F5F5F5F5F5F5F5F5F5F5F5F5F5F5F5F5F5F5F5F5F5F5F5F5F5F5F5F5F5F5F5F5F5F5F5F5F5F5F5F5F5F5F5F5F5F5F5F5F5E2F5F5F5F5F5F5F5F5F5F5F5F5F5F5F5F5F5F5F5F5
310
E2E2EFF5F5F5F5F5F5F5F5F5F5F5F5F5F5F5F5F5F5F5F5E2F5F5F5F5F5F5F5F5F5F5F5F5F5F5F5F5F5F5F5F5F5F5F5F5F5F5F5F5F5F5F5F5F5F5F5F5F5F5F5F5F5F5F5F5F5F5F5F5F5F5F5F5F5F5F5F5F5F5F5F5F5F5F5F5F5F5F5F5F5F5F5F5F5F5F5F5F5F5F5F5F5F5F5F5F5F5F5F5F5F5F5F5F5F5F5F5F5F5F5F5F5F5F5
310
F5F5F5F5F5F5F5F5F5F5F5F5F5F5F5F5F5F5F5F5F5F5F5F5F5F5F5F5F5F5F5F5E2F5F5F5F5F5F5F5F5F5F5F5F5F5F5F5F5F5F5F5F5E2E2EFF5F5F5F5F5F5F5F5F5F5F5F5F5F5F5F5F5F5F5F5E2F5F5F5F5F5F5F5F5F5F5F5F5F5F5F5F5F5F5F5F5F5F5F5F5F5F5F5F5F5F5F5F5F5F5F5F5F5F5F5F5F5F5F5F5F5F5F5F5F5F5
310
F5F5F5F5F5F5F5F5F5F5F5F5F5F5F5F5F5F5F5F5F5F5F5F5F5F5F5F5F5F5F5F5F5F5F5F5F5F5F5F5F5F5F5F5F5F5F5F5F5F5F5F5F5F5F5F5F5F5F5F5F5F5F5F5F5F5F5F5F5F5F5F5F5F5F5F5F5F5F5F5F5F5F5F5F5E2F5F5F5F5F5F5F5F5F5F5F5F5F5F5F5F5F5F5F5F5E2E2EFF5F5F5F5F5F5F5F5F5F5F5F5F5F5F5F5F5F5
310
F5F5E2F5F5F5F5F5F5F5F5F5F5F5F5F5F5F5F5F5F5F5F5F5F5F5F5F5F5F5F5F5F5F5F5F5F5F5F5F5F5F5F5F5F5F5F5F5F5F5F5F5F5F5F5F5F5F5F5F5F5F5F5F5F5F5F5F5F5F5F5F5F5F5F5F5F5F5F5F5F5F5F5F5F5F5F5F5F5F5F5F5F5F5F5F5F5F5F5F5F5F5F5F5F5F5F5F5F5F5F5F5F5F5F5F5F5F5F5F5F5F5F5F5F5F5F5
310
F5F5F5F5F5F5F5F5F5F5F5E2F5F5F5F5F5F5F5F5F5F5F5F5F5F5F5F5F5F5F5F5E2E2EFF5F5F5F5F5F5F5F5F5F5F5F5F5F5F5F5F5F5F5F5E2F5F5F5F5F5F5F5F5F5F5F5F5F5F5F5F5F5F5F5F5F5F5F5F5F5F5F5F5F5F5F5F5F5F5F5F5F5F5F5F5F5F5F5F5F5F5F5F5F5F5F5F5F5F5F5F5F5F5F5F5F5F5F5F5F5F5F5F5F5F5F5
310
F5F5F5F5F5F5F5F5F5F5F5F5F5F5F5F5F5F5F5F5F5F5F5F5F5F5F5F5F5F5F5F5F5F5F5F5F5F5F5F5F5F5F5F5F5F5F5F5F5F5F5F5F5F5F5F5F5F5F5F5F5F5F5F5E2F5F5F5F5F5F5F5F5F5F5F5F5F5F5F5F5F5F5F5F5E2E2EFF5F5F5F5F5F5F5F5F5F5F5F5F5F5F5F5F5F5F5F5E2F5F5F5F5F5F5F5F5F5F5F5F5F5F5F5F5F5F5
310
F5F5F5F5F5F5F5F5F5F5F5F5F5F5F5F5F5F5F5F5F5F5F5F5F5F5F5F5F5F5F5F5F5F5F5F5F5F5F5F5F5F5F5F5F5F5F5F5F5F5F5F5F5F5F5F5F5F5F5F5F5F5F5F5F5F5F5F5F5F5F5F5F5F5F5F5F5F5F5F5F5F5F5F5F5F5F5F5F5F5F5F5F5F5F5F5F5F5F5F5F5F5F5F5F5F5F5F5F5F5F5F5F5F5F5F5F5E2F5F5F5F5F5F5F5F5F5
310
F5F5F5F5F5F5F5F5F5F5F5E2E2EFF5F5F5E2F5F5F5F5F5F5F5F5F5F5F5F5F5F5F5F5E2F5F5F5F5F5F5F5F5F5F5F5F5F5F5F5F5F5F5F5F5F5F5F5F5F5F5F5F5F5F5F5F5F5F5F5F5F5F5F5F5F5F5F5F5F5F5F5F5F5F5F5F5F5F5F5F5F5F5F5F5F5F5F5F5F5F5F5F5F5F5F5F5F5F5F5F5F5F5F5F5F5F5F5F5F5F5F5F5F5F5F5F5
310
F5F5F5F5F5F5F5F5F5F5F5F5F5F5F5F5F5F5F5F5F5F5F5F5F5F5F5F5F5F5F5F5F5F5F5F5F5F5F5F5F5F5F5E2F5F5F5F5F5F5F5F5F5F5F5F5F5F5F5F5E2F5F5F5E2E2EFF5F5F5E2F5F5F5F5F5F5F5F5F5F5F5F5F5F5F5F5E2F5F5F5F5F5F5F5F5F5F5F5F5F5F5F5F5F5F5F5F5F5F5F5F5F5F5F5F5F5F5F5F5F5F5F5F5F5F5F5
310
F5F5F5F5F5F5F5F5F5F5F5F5F5F5F5F5F5F5F5F5F5F5F5F5F5F5F5F5F5F5F5F5F5F5F5F5F5F5F5F5F5F5F5F5F5F5F5F5F5F5F5F5F5F5F5F5F5F5F5F5F5F5F5F5F5F5F5F5F5F5F5F5F5F5F5F5F5F5F5F5F5F5F5F5F5F5F5F5F5F5F5F5F5F5F5F5E2F5F5F5F5F5F5F5F5F5F5F5F5F5F5F5F5E2F5F5F5E2E2EFF5F5F5E2F5F5F5
310
F5F5F5F5F5F5F5F5F5F5F5F5F5E2F5F5F5F5F5F5F5F5F5F5F5F5F5F5F5F5F5F5F5F5F5F5F5F5F5F5F5F5F5F5F5F5F5F5F5F5F5F5F5F5F5F5F5F5F5F5F5F5F5F5F5F5F5F5F5F5F5F5F5F5F5F5F5F5F5F5F5F5F5F5F5F5F5F5F5F5F5F5F5F5F5F5F5F5F5F5F5F5F5F5F5F5F5F5F5F5F5F5F5F5F5F5F5F5F5F5F5F5F5F5F5F5F5
310
F5F5F5F5F5F5F5F5F5F5F5F5F5F5F5F5F5F5F5F5F5F5E2F5F5F5F5F5F5F5F5F5F5F5F5F5F5F5F5E2F5F5F5E2E2EFF5F5F5E2F5F5F5F5F5F5F5F5F5F5F5F5F5F5F5F5E2F5F5F5F5F5F5F5F5F5F5F5F5F5F5F5F5F5F5F5F5F5F5F5F5F5F5F5F5F5F5F5F5F5F5F5F5F5F5F5F5F5F5F5F5F5F5F5F5F5F5F5F5F5F5F5F5F5F5F5F5
310
F5F5F5F5F5F5F5F5F5F5F5F5F5F5F5F5F5F5F5F5F5F5F5F5F5F5F5F5F5F5F5F5F5F5F5F5F5F5F5F5F5F5F5F5F5F5F5F5F5F5F5F5F5F5F5F5F5F5F5F5F5F5F5F5F5F5F5F5F5F5F5F5F5F5F5E2F5F5F5F5F5F5F5F5F5F5F5F5F5F5F5F5E2F5F5F5E2E2EFF5F5F5E2F5F5F5F5F5F5F5F5F5F5F5F5F5F5F5F5E2F5F5F5F5F5F5F5
310
F5F5F5F5F5F5F5F5F5F5F5F5F5F5F5F5F5F5F5F5F5F5F5F5F5F5F5F5F5F5F5F5F5F5F5F5F5F5F5F5F5F5F5F5F5F5F5F5F5F5F5F5F5F5F5F5F5F5F5F5F5F5F5F5F5F5F5F5F5F5F5F5F5F5F5F5F5F5F5F5F5F5F5F5F5F5F5F5F5F5F5F5F5F5F5F5F5F5F5F5F5F5F5F5F5F5F5F5F5F5F5F5F5F5F5F5F5F5F5F5F5F5F5F5F5F5F5
310
F5E2F5F5F5F5F5F5F5F5F5F5F5F5F5F5F5F5E2F5F5F5E2E2EFF5F5F5E2F5F5F5F5F5F5F5F5F5F5F5F5F5F5F5F5E2F5F5F5F5F5F5F5F5F5F5F5F5F5F5F5F5F5F5F5F5F5F5F5F5F5F5F5F5F5F5F5F5F5F5F5F5F5F5F5F5F5F5F5F5F5F5F5F5F5F5F5F5F5F5F5F5F5F5F5F5F5F5F5F5F5F5F5F5F5F5F5F5F5F5F5F5F5F5F5F5F5
310
F5F5F5F5F5F5F5F5F5F5F5F5F5F5F5F5F5F5F5F5F5F5F5F5F5F5F5F5F5F5F5F5F5F5F5F5F5F5F5F5F5F5F5F5F5F5F5F5F5F5F5F5F5F5E2F5F5F5F5F5F5F5F5F5F5F5F5F5F5F5F5E2F5F5F5E2E2EFF5F5F5E2F5F5F5F5F5F5F5F5F5F5F5F5F5F5F5F5E2F5F5F5F5F5F5F5F5F5F5F5F5F5F5F5F5F5F5F5F5F5F5F5F5F5F5F5F5
310
F5F5F5F5F5F5F5F5F5F5F5F5F5F5F5F5F5F5F5F5F5F5F5F5F5F5F5F5F5F5F5F5F5F5F5F5F5F5F5F5F5F5F5F5F5F5F5F5F5F5F5F5F5F5F5F5F5F5F5F5F5F5F5F5F5F5F5F5F5F5F5F5F5F5F5F5F5F5F5F5F5F5F5F5F5F5F5F5F5F5F5F5F5F5F5F5F5F5F5F5F5F5F5F5F5F5F5E2F5F5F5F5F5F5F5F5F5F5F5F5F5F5F5F5E2F5F5
310
F5E2E2EFF5F5F5E2F5F5F5F5F5F5F5F5F5F5F5F5F5F5F5F5E2F5F5F5F5F5F5F5F5F5F5F5F5F5F5F5F5F5F5F5F5F5F5F5F5F5F5F5F5F5F5F5F5F5F5F5F5F5F5F5F5F5F5F5F5F5F5F5F5F5F5F5F5F5F5F5F5F5F5F5F5F5F5F5F5F5F5F5F5F5F5F5F5F5F5F5F5F5F5F5F5F5F5F5F5F5F5F5F5F5F5F5F5F5F5F5F5F5F5F5F5F5F5
310
F5F5F5F5F5F5F5F5F5F5F5F5F5F5F5F5F5F5F5F5F5F5F5F5F5F5F5F5F5F5F5F5F5E2F5F5F5F5F5F5F5F5F5F5F5F5F5F5F5F5E2F5F5F5E2E2EFF5F5F5E2F5F5F5F5F5F5F5F5F5F5F5F5F5F5F5F5E2F5F5F5F5F5F5F5F5F5F5F5F5F5F5F5F5F5F5F5F5F5F5F5F5F5F5F5F5F5F5F5F5F5F5F5F5F5F5F5F5F5F5F5F5F5F5F5F5F5
310
F5F5F5F5F5F5F5F5F5F5F5F5F5F5F5F5F5F5F5F5F5F5F5F5F5F5F5F5F5F5F5F5F5F5F5F5F5F5F5F5F5F5F5F5F5F5F5F5F5F5F5F5F5F5F5F5F5F5F5F5F5F5F5F5F5F5F5F5F5F5F5F5F5F5F5F5F5F5F5F5F5F5F5F5F5F5E2F5F5F5F5F5F5F5F5F5F5F5F5F5F5F5F5E2F5F5F5E2E2EFF5F5F5E2F5F5F5F5F5F5F5F5F5F5F5F5F5
310
F5F5F5E2F5F5F5F5F5F5F5F5F5F5F5F5F5F5F5F5F5F5F5F5F5F5F5F5F5F5F5F5F5F5F5F5F5F5F5F5F5F5F5F5F5F5F5F5F5F5F5F5F5F5F5F5F5F5F5F5F5F5F5F5F5F5F5F5F5F5F5F5F5F5F5F5F5F5F5F5F5F5F5F5F5F5F5F5F5F5F5F5F5F5F5F5F5F5F5F5F5F5F5F5F5F5F5F5F5F5F5F5F5F5F5F5F5F5F5F5F5F5F5F5F5F5F5
310
F5F5F5F5F5F5F5F5F5F5F5F5E2F5F5F5F5F5F5F5F5F5F5F5F5F5F5F5F5E2F5F5F5E2E2EFF5F5F5E2F5F5F5F5F5F5F5F5F5F5F5F5F5F5F5F5E2F5F5F5F5F5F5F5F5F5F5F5F5F5F5F5F5F5F5F5F5F5F5F5F5F5F5F5F5F5F5F5F5F5F5F5F5F5F5F5F5F5F5F5F5F5F5F5F5F5F5F5F5F5F5F5F5F5F5F5F5F5F5F5F5F5F5F5F5F5F5
310
F5F5F5F5F5F5F5F5F5F5F5F5F5F5F5F5F5F5F5F5F5F5F5F5F5F5F5F5F5F5F5F5F5F5F5F5F5F5F5F5F5F5F5F5F5F5F5F5F5F5F5F5F5F5F5F5F5F5F5F5F5F5F5F5F5E2F5F5F5F5F5F5F5F5F5F5F5F5F5F5F5F5E2F5F5F5E2E2EFF5F5F5E2F5F5F5F5F5F5F5F5F5F5F5F5F5F5F5F5E2F5F5F5F5F5F5F5F5F5F5F5F5F5F5F5F5F5
310
F5F5F5F5F5F5F5F5F5F5F5F5F5F5F5F5F5F5F5F5F5F5F5F5F5F5F5F5F5F5F5F5F5F5F5F5F5F5F5F5F5F5F5F5F5F5F5F5F5F5F5F5F5F5F5F5F5F5F5F5F5F5F5F5F5F5F5F5F5F5F5F5F5F5F5F5F5F5F5F5F5F5F5F5F5F5F5F5F5F5F5F5F5F5F5F5F5F5F5F5F5F5F5F5F5F5F5F5F5F5F5F5F5F5F5F5F5F5E2F5F5F5F5F5F5F5F5
310
F5F5F5F5F5F5F5F5E2F5F5F5E2E2EFF5F5F5E2F5F5F5F5F5F5F5F5F5F5F5F5F5F5F5F5E2F5F5F5F5F5F5F5F5F5F5F5F5F5F5F5F5F5F5F5F5F5F5F5F5F5F5F5F5F5F5F5F5F5F5F5F5F5F5F5F5F5F5F5F5F5F5F5F5F5F5F5F5F5F5F5F5F5F5F5F5F5F5F5F5F5F5F5F5F5F5F5F5F5F5F5F5F5F5F5F5F5F5F5F5F5F5F5F5F5F5F5
310
F5F5F5F5F5F5F5F5F5F5F5F5F5F5F5F5F5F5F5F5F5F5F5F5F5F5F5F5F5F5F5F5F5F5F5F5F5F5F5F5F5F5F5F5E2F5F5F5F5F5F5F5F5F5F5F5F5F5F5F5F5E2F5F5F5E2E2EFF5F5F5E2F5F5F5F5F5F5F5F5F5F5F5F5F5F5F5F5E2F5F5F5F5F5F5F5F5F5F5F5F5F5F5F5F5F5F5F5F5F5F5F5F5F5F5F5F5F5F5F5F5F5F5F5F5F5F5
310
F5F5F5F5F5F5F5F5F5F5F5F5F5F5F5F5F5F5F5F5F5F5F5F5F5F5F5F5F5F5F5F5F5F5F5F5F5F5F5F5F5F5F5F5F5F5F5F5F5F5F5F5F5F5F5F5F5F5F5F5F5F5F5F5F5F5F5F5F5F5F5F5F5F5F5F5F5F5F5F5F5F5F5F5F5F5F5F5F5F5F5F5F5F5F5F5F5E2F5F5F5F5F5F5F5F5F5F5F5F5F5F5F5F5E2F5F5F5E2E2EFF5F5F5E2F5F5
310
F5F5F5F5F5F5F5F5F5F5F5F5F5F5E2F5F5F5F5F5F5F5F5F5F5F5F5F5F5F5F5F5F5F5F5F5F5F5F5F5F5F5F5F5F5F5F5F5F5F5F5F5F5F5F5F5F5F5F5F5F5F5F5F5F5F5F5F5F5F5F5F5F5F5F5F5F5F5F5F5F5F5F5F5F5F5F5F5F5F5F5F5F5F5F5F5F5F5F5F5F5F5F5F5F5F5F5F5F5F5F5F5F5F5F5F5F5F5F5F5F5F5F5F5F5F5F5
310
F5F5F5F5F5F5F5F5F5F5F5F5F5F5F5F5F5F5F5F5F5F5F5E2F5F5F5F5F5F5F5F5F5F5F5F5F5F5F5F5E2F5F5F5E2E2EFF5F5F5E2F5F5F5F5F5F5F5F5F5F5F5F5F5F5F5F5E2F5F5F5F5F5F5F5F5F5F5F5F5F5F5F5F5F5F5F5F5F5F5F5F5F5F5F5F5F5F5F5F5F5F5F5F5F5F5F5F5F5F5F5F5F5F5F5F5F5F5F5F5F5F5F5F5F5F5F5
310
F5F5F5F5F5F5F5F5F5F5F5F5F5F5F5F5F5F5F5F5F5F5F5F5F5F5F5F5F5F5F5F5F5F5F5F5F5F5F5F5F5F5F5F5F5F5F5F5F5F5F5F5F5F5F5F5F5F5F5F5F5F5F5F5F5F5F5F5F5F5F5F5F5F5F5F5E2F5F5F5F5F5F5F5F5F5F5F5F5F5F5F5F5E2F5F5F5E2E2EFF5F5F5E2F5F5F5F5F5F5F5F5F5F5F5F5F5F5F5F5E2F5F5F5F5F5F5
310
F5F5F5F5F5F5F5F5F5F5F5F5F5F5F5F5F5F5F5F5F5F5F5F5F5F5F5F5F5F5F5F5F5F5F5F5F5F5F5F5F5F5F5F5F5F5F5F5F5F5F5F5F5F5F5F5F5F5F5F5F5F5F5F5F5F5F5F5F5F5F5F5F5F5F5F5F5F5F5F5F5F5F5F5F5F5F5F5F5F5F5F5F5F5F5F5F5F5F5F5F5F5F5F5F5F5F5F5F5F5F5F5F5F5F5F5F5F5F5F5F5F5F5F5F5F5F5
310
F5F5E2F5F5F5F5F5F5F5F5F5F5F5F5F5F5F5F5E2F5F5F5E2E2EFF5F5F5F5F5F5F5F5F5F5F5F5F5F5F5F5F5F5F5F5E2F5F5F5F5F5F5F5F5F5F5F5F5F5F5F5F5F5F5F5F5F5F5F5F5F5F5F5F5F5F5F5F5F5F5F5F5F5F5F5F5F5F5F5F5F5F5F5F5F5F5F5F5F5F5F5F5F5F5F5F5F5F5F5F5F5F5F5F5F5F5F5F5F5F5F5F5F5F5F5F5
310
F5F5F5F5F5F5F5F5F5F5F5F5F5F5F5F5F5F5F5F5F5F5F5F5F5F5F5F5F5F5F5F5F5F5F5F5F5F5F5F5F5F5F5F5F5F5F5F5F5F5F5F5F5F5F5E2F5F5F5F5F5F5F5F5F5F5F5F5F5F5F5F5F5F5F5F5E2E2EFF5F5F5F5F5F5F5F5F5F5F5F5F5F5F5F5F5F5F5F5E2F5F5F5F5F5F5F5F5F5F5F5F5F5F5F5F5F5F5F5F5F5F5F5F5F5F5F5
310
F5F5F5F5F5F5F5F5F5F5F5F5F5F5F5F5F5F5F5F5F5F5F5F5F5F5F5F5F5F5F5F5F5F5F5F5F5F5F5F5F5F5F5F5F5F5F5F5F5F5F5F5F5F5F5F5F5F5F5F5F5F5F5F5F5F5F5F5F5F5F5F5F5F5F5F5F5F5F5F5F5F5F5F5F5F5F5F5F5F5F5F5F5F5F5F5F5F5F5F5F5F5F5F5F5F5F5F5E2F5F5F5F5F5F5F5F5F5F5F5F5F5F5F5F5F5F5
310
F5F5E2E2EFF5F5F5F5F5F5F5F5F5F5F5F5F5F5F5F5F5F5F5F5E2F5F5F5F5F5F5F5F5F5F5F5F5F5F5F5F5F5F5F5F5F5F5F5F5F5F5F5F5F5F5F5F5F5F5F5F5F5F5F5F5F5F5F5F5F5F5F5F5F5F5F5F5F5F5F5F5F5F5F5F5F5F5F5F5F5F5F5F5F5F5F5F5F5F5F5F5F5F5F5F5F5F5F5F5F5F5F5F5F5F5F5F5F5F5F5F5F5F5F5F5F5
310
F5F5F5F5F5F5F5F5F5F5F5F5F5F5F5F5F5F5F5F5F5F5F5F5F5F5F5F5F5F5F5F5F5F5E2F5F5F5F5F5F5F5F5F5F5F5F5F5F5F5F5F5F5F5F5E2E2EFF5F5F5F5F5F5F5F5F5F5F5F5F5F5F5F5F5F5F5F5E2F5F5F5F5F5F5F5F5F5F5F5F5F5F5F5F5F5F5F5F5F5F5F5F5F5F5F5F5F5F5F5F5F5F5F5F5F5F5F5F5F5F5F5F5F5F5F5F5
310
F5F5F5F5F5F5F5F5F5F5F5F5F5F5F5F5F5F5F5F5F5F5F5F5F5F5F5F5F5F5F5F5F5F5F5F5F5F5F5F5F5F5F5F5F5F5F5F5F5F5F5F5F5F5F5F5F5F5F5F5F5F5F5F5F5F5F5F5F5F5F5F5F5F5F5F5F5F5F5F5F5F5F5F5F5F5F5E2F5F5F5F5F5F5F5F5F5F5F5F5F5F5F5F5F5F5F5F5E2E2EFF5F5F5F5F5F5F5F5F5F5F5F5F5F5F5F5
310
F5F5F5F5E2E2E2E2E2E2E2E2E2E2E2E2E2E2E2E2E2E2E2E2E2E2E2E2E2E2E2E2E2E2E2E2E2E2E2E2E2E2E2E2E2E2E2E2E2E2E2E2E2E2E2E2E2E2E2E2E2E2E2E2E2E2E2E2E2E2E2E2E2E2E2E2E2E2E2E2E2E2E2E2E2E2E2E2E2E2E2E2E2E2E2E2E2E2E2E2E2E2E2E2E2E2E2E2E2E2E2E2E2E2E2E2E2E2E2E2E2E2E2E2E2E2E2
310
E2E2E2E2E2E2E2E2E2E2E2E2E2E2F5F5F5F5F5F5F5F5F5F5F5F5F5F5F5F5F5F5F5F5E2E2EFF5F5F5F5F5F5F5F5F5F5F5F5F5F5F5F5F5F5F5F5F5F5F5F5F5F5F5F5F5F5F5F5F5F5F5F5F5F5F5F5F5F5F5F5F5F5F5F5F5F5F5F5F5F5F5F5F5F5F5F5F5F5F5F5F5F5F5F5F5F5F5F5F5F5F5F5F5F5F5F5F5F5F5F5F5F5F5F5F5F5
310
F5F5F5F5F5F5F5F5F5F5F5F5F5F5F5F5F5F5F5F5F5F5F5F5F5F5F5F5F5F5F5F5F5F5F5F5F5F5F5F5F5F5F5F5F5F5F5F5F5F5F5F5F5F5F5F5F5F5F5F5F5F5F5F5F5F5F5F5F5F5F5F5F5F5F5F5F5F5F5F5F5F5F5F5F5F5F5E2E2EFF5F5F5F5F5F5F5F5F5F5F5F5F5F5F5F5F5F5F5F5F5F5F5F5F5F5F5F5F5F5F5F5F5F5F5F5F5
310
F5F5F5F5F5F5F5F5F5F5F5F5F5F5F5F5F5F5F5F5F5F5F5F5F5F5F5F5F5F5F5F5F5F5F5F5F5F5F5F5F5F5F5F5F5F5F5F5F5F5F5F5F5F5F5F5F5F5F5F5F5F5F5F5F5F5F5F5F5F5F5F5F5F5F5F5F5F5F5F5F5F5F5F5F5F5F5F5F5F5F5F5F5F5F5F5F5F5F5F5F5F5F5F5F5F5F5F5F5F5F5F5F5F5F5F5F5F5F5F5F5F5F5F5F5F5F5
310
F5F5F5F5F5F5F5F5F5F5F5F5F5E2E2EFF5F5F5F5F5F5F5F5F5F5F5F5F5F5F5F5F5F5F5F5F5F5F5F5F5F5F5F5F5F5F5F5F5F5F5F5F5F5F5F5F5F5F5F5F5F5F5F5F5F5F5F5F5F5F5F5F5F5F5F5F5F5F5F5F5F5F5F5F5F5F5F5F5F5F5F5F5F5F5F5F5F5F5F5F5F5F5F5F5F5F5F5F5F5F5F5F5F5F5F5F5F5F5F5F5F5F5F5F5F5F5
310
F5F5F5F5F5F5F5F5F5F5F5F5F5F5F5F5F5F5F5F5F5F5F5F5F5F5F5F5F5F5F5F5F5F5F5F5F5F5F5F5F5F5F5F5F5F5F5F5F5F5F5F5F5F5F5F5F5F5F5F5F5F5F5F5F5F5E2E2EFF5F5F5F5F5F5F5F5F5F5F5F5F5F5F5F5F5F5F5F5F5F5F5F5F5F5F5F5F5F5F5F5F5F5F5F5F5F5F5F5F5F5F5F5F5F5F5F5F5F5F5F5F5F5F5F5F5F5
310
F5F5F5F5F5F5F5F5F5F5F5F5F5F5F5F5F5F5F5F5F5F5F5F5F5F5F5F5F5F5F5F5F5F5F5F5F5F5F5F5F5F5F5F5F5F5F5F5F5F5F5F5F5F5F5F5F5F5F5F5F5F5F5F5F5F5F5F5F5F5F5F5F5F5F5F5F5F5F5F5F5F5F5F5F5F5F5F5F5F5F5F5F5F5F5F5F5F5F5F5F5F5F5F5F5F5F5F5F5F5F5F5F5F5F5F5F5F5F5E2E2EFF5F5F5E2F5
310
F5F5F5F5F5F5F5F5F5F5F5F5F5F5F5F5F5F5F5F5F5F5F5F5F5F5F5F5F5F5F5F5F5F5F5F5F5F5F5F5F5F5F5F5F5F5F5F5F5F5F5F5F5F5F5F5F5F5F5F5F5F5F5F5F5F5F5F5F5F5F5F5F5F5F5F5F5F5F5F5F5F5F5F5F5F5F5F5F5F5F5F5F5F5F5F5F5F5F5F5F5F5F5F5F5F5F5F5F5F5F5F5F5F5F5F5F5F5F5F5F5F5F5F5F5F5F5
310
F5F5F5F5F5F5F5F5F5F5F5F5F5F5F5F5F5F5F5F5F5F5F5F5F5F5F5F5F5F5F5F5F5F5F5F5F5F5F5F5F5E2F5F5F5E2E2EFF5F5F5E2F5F5F5F5F5F5F5F5F5F5F5F5F5F5F5F5F5F5F5F5F5F5F5F5F5F5F5F5F5F5F5F5F5F5F5F5F5F5F5F5F5F5F5F5F5F5F5F5F5F5F5F5F5F5F5F5F5F5F5F5F5F5F5F5F5F5F5F5F5F5F5F5F5F5F5
310
F5F5F5F5F5F5F5F5F5F5F5F5F5F5F5F5F5F5F5F5F5F5F5F5F5F5F5F5F5F5F5F5F5F5F5F5F5F5F5F5F5F5F5F5F5F5F5F5F5F5F5F5F5F5F5F5F5F5F5F5F5F5F5F5F5F5F5F5F5F5F5F5F5F5F5F5F5F5F5F5F5F5F5F5F5F5F5F5F5F5F5F5F5F5E2F5F5F5E2E2EFF5F5F5E2F5F5F5F5F5F5F5F5F5F5F5F5F5F5F5F5F5F5F5F5F5F5
310
F5F5F5F5F5F5F5F5F5F5F5F5F5F5F5F5F5F5F5F5F5F5F5F5F5F5F5F5F5F5F5F5F5F5F5F5F5F5F5F5F5F5F5F5F5F5F5F5F5F5F5F5F5F5F5F5F5F5F5F5F5F5F5F5F5F5F5F5F5F5F5F5F5F5F5F5F5F5F5F5F5F5F5F5F5F5F5F5F5F5F5F5F5F5F5F5F5F5F5F5F5F5F5F5F5F5F5F5F5F5F5F5F5F5F5F5F5F5F5F5F5F5F5F5F5F5F5
310
F5F5F5F5F5F5F5F5F5F5F5F5F5F5F5F5F5F5F5F5E2F5F5F5E2E2EFF5F5F5E2F5F5F5F5F5F5F5F5F5F5F5F5F5F5F5F5F5F5F5F5F5F5F5F5F5F5F5F5F5F5F5F5F5F5F5F5F5F5F5F5F5F5F5F5F5F5F5F5F5F5F5F5F5F5F5F5F5F5F5F5F5F5F5F5F5F5F5F5F5F5F5F5F5F5F5F5F5F5F5F5F5F5F5F5F5F5F5F5F5F5F5F5F5F5F5F5
310
F5F5F5F5F5F5F5F5F5F5F5F5F5F5F5F5F5F5F5F5F5F5F5F5F5F5F5F5F5F5F5F5F5F5F5F5F5F5F5F5F5F5F5F5F5F5F5F5F5F5F5F5F5F5F5F5F5F5F5F5F5F5F5F5F5F5F5F5F5F5F5F5F5E2F5F5F5E2E2EFF5F5F5E2F5F5F5F5F5F5F5F5F5F5F5F5F5F5F5F5F5F5F5F5F5F5F5F5F5F5F5F5F5F5F5F5F5F5F5F5F5F5F5F5F5F5F5
310
F5F5F5F5F5F5F5F5F5F5F5F5F5F5F5F5F5F5F5F5F5F5F5F5F5F5F5F5F5F5F5F5F5F5F5F5F5F5F5F5F5F5F5F5F5F5F5F5F5F5F5F5F5F5F5F5F5F5F5F5F5F5F5F5F5F5F5F5F5F5F5F5F5F5F5F5F5F5F5F5F5F5F5F5F5F5F5F5F5F5F5F5F5F5F5F5F5F5F5F5F5F5F5F5F5F5F5F5F5F5F5F5F5F5F5F5F5F5F5F5F5F5F5F5F5F5E2
310
F5F5F5E2E2EFF5F5F5E2F5F5F5F5F5F5F5F5F5F5F5F5F5F5F5F5F5F5F5F5F5F5F5F5F5F5F5F5F5F5F5F5F5F5F5F5F5F5F5F5F5F5F5F5F5F5F5F5F5F5F5F5F5F5F5F5F5F5F5F5F5F5F5F5F5F5F5F5F5F5F5F5F5F5F5F5F5F5F5F5F5F5F5F5F5F5F5F5F5F5F5F5F5F5F5F5F5F5F5F5F5F5F5F5F5F5F5F5F5F5F5F5F5F5F5F5F5
310
F5F5F5F5F5F5F5F5F5F5F5F5F5F5F5F5F5F5F5F5F5F5F5F5F5F5F5F5F5F5F5F5F5F5F5F5F5F5F5F5F5F5F5F5F5F5F5F5F5F5F5F5E2F5F5F5E2E2EFF5F5F5E2F5F5F5F5F5F5F5F5F5F5F5F5F5F5F5F5F5F5F5F5F5F5F5F5F5F5F5F5F5F5F5F5F5F5F5F5F5F5F5F5F5F5F5F5F5F5F5F5F5F5F5F5F5F5F5F5F5F5F5F5F5F5F5F5
310
F5F5F5F5F5F5F5F5F5F5F5F5F5F5F5F5F5F5F5F5F5F5F5F5F5F5F5F5F5F5F5F5F5F5F5F5F5F5F5F5F5F5F5F5F5F5F5F5F5F5F5F5F5F5F5F5F5F5F5F5F5F5F5F5F5F5F5F5F5F5F5F5F5F5F5F5F5F5F5F5F5F5F5F5F5F5F5F5F5F5F5F5F5F5F5F5F5F5F5F5F5F5F5F5F5E2F5F5F5E2E2EFF5F5F5E2F5F5F5F5F5F5F5F5F5F5F5
310
F5F5F5F5F5F5F5F5F5F5F5F5F5F5F5F5F5F5F5F5F5F5F5F5F5F5F5F5F5F5F5F5F5F5F5F5F5F5F5F5F5F5F5F5F5F5F5F5F5F5F5F5F5F5F5F5F5F5F5F5F5F5F5F5F5F5F5F5F5F5F5F5F5F5F5F5F5F5F5F5F5F5F5F5F5F5F5F5F5F5F5F5F5F5F5F5F5F5F5F5F5F5F5F5F5F5F5F5F5F5F5F5F5F5F5F5F5F5F5F5F5F5F5F5F5F5F5
310
F5F5F5F5F5F5F5F5F5F5F5F5F5F5F5F5F5F5F5F5F5F5F5F5F5F5F5F5F5F5F5E2F5F5F5E2E2EFF5F5F5E2E2E2E2E2E2E2E2F5F5F5F5F5F5F5F5F5E2E2E2E2E2E2E2E2E2E2E2E2E2E2E2E2F5F5F5F5F5F5F5F5E2E2E2E2E2E2E2E2E2E2E2E2E2E2E2E2F5F5F5F5F5F5F5F5F5E2E2E2E2E2E2E2E2E2E2E2E2E2E2E2F5F5F5F5F5
310
F5F5F5F5E2E2E2E2E2E2E2E2E2E2E2E2E2E2E2F5F5F5F5F5F5F5F5F5E2E2E2E2E2E2E2E2E2E2E2E2E2E2E2E2F5F5F5F5F5F5F5F5E2E2E2E2E2E2E2E2E2E2E2E2E2E2E2E2F5F5F5F5F5F5F5F5F5E2E2E2E2E2E2E2E2F5F5F5E2E2EFF5F5F5F5F5F5F5F5F5F5F5F5F5F5F5F5F5F5F5F5F5F5F5F5F5F5F5F5F5F5F5F5F5F5F5F5
310
F5F5F5F5F5F5F5F5F5F5F5F5F5F5F5F5F5F5F5F5F5F5F5F5F5F5F5F5F5F5F5F5F5F5F5F5F5F5F5F5F5F5F5F5F5F5F5F5F5F5F5F5F5F5F5F5F5F5F5F5F5F5F5F5F5F5F5F5F5F5F5F5F5F5F5F5F5F5F5F5F5F5F5F5F5F5F5F5F5F5F5F5F5F5F5F5F5F5F5F5F5F5F5F5F5F5F5F5F5F5F5F5F5F5F5F5F5F5F5F5F5F5F5F5F5F5F5
310
F5F5F5F5F5F5F5F5F5F5F5F5F5F5E2E2EFF5F5F5F5F5F5F5F5F5F5F5F5F5F5F5F5F5F5F5F5F5F5F5F5F5F5F5F5F5F5F5F5F5F5F5F5F5F5F5F5F5F5F5F5F5F5F5F5F5F5F5F5F5F5F5F5F5F5F5F5F5F5F5F5F5F5F5F5F5F5F5F5F5F5F5F5F5F5F5F5F5F5F5F5F5F5F5F5F5F5F5F5F5F5F5F5F5F5F5F5F5F5F5F5F5F5F5F5F5F5
310
F5F5F5F5F5F5F5F5F5F5F5F5F5F5F5F5F5F5F5F5F5F5F5F5F5F5F5F5F5F5F5F5F5F5F5F5F5F5F5F5F5F5F5F5F5F5F5F5F5F5F5F5F5F5F5F5F5F5F5F5F5F5F5F5F5F5F5E2EFEFF5F5F5F5F5F5F5F5F5F5F5F5F5F5F5F5F5F5F5F5F5F5F5F5F5F5F5F5F5F5F5F5F5F5F5F5F5F5F5F5F5F5F5F5F5F5F5F5F5F5F5F5F5F5F5F5F5
310
F5F5F5F5F5F5F5F5F5F5F5F5F5F5F5F5F5F5F5F5F5F5F5F5F5F5F5F5F5F5F5F5F5F5F5F5F5F5F5F5F5F5F5F5F5F5F5F5F5F5F5F5F5F5F5F5F5F5F5F5F5F5F5F5F5F5F5F5F5F5F5F5F5F5F5F5F5F5F5F5F5F5F5F5F5F5F5F5F5F5F5F5F5F5F5F5F5F5F5F5F5F5F5F5F5F5F5F5F5F5F5F5F5F5F5F5F5F5F5F5E2EFEFE2E2E2E2
310
E2E2E2E2E2E2E2E2E2E2E2E2E2E2E2E2E2E2E2E2E2E2E2E2E2E2E2E2E2E2E2E2E2E2E2E2E2E2E2E2E2E2E2E2E2E2E2E2E2E2E2E2E2E2E2E2E2E2E2E2E2E2E2E2E2E2E2E2E2E2E2E2E2E2E2E2E2E2E2E2E2E2E2E2E2E2E2E2E2E2E2E2E2E2E2E2E2E2E2E2E2E2E2E2E2E2E2E2E2E2E2E2E2E2E2E2E2E2E2E2E2E2E2E2E2E2E2
310
E2E2E2E2E2E2E2E2E2E2E2E2E2E2E2E2E2E2E2E2E2E2E2E2E2E2E2E2E2E2E2E2E2E2E2E2E2E2E2E2E2E2E2E2E2E2E2EFEF
  0
ENDSEC
  0
EOF
