  0
SECTION
  2
HEADER
  9
$ACADVER
  1
AC1018
  9
$ACADMAINTVER
 70
     0
  9
$DWGCODEPAGE
  3
ANSI_1252
  9
$AUTHOR
  1
g6edxjah
  9
$LASTSAVEDBY
  1
g6edxjah
  9
$INSBASE
 10
0.0
 20
0.0
 30
0.0
  9
$EXTMIN
 10
138.863448
 20
-13.325812
 30
0.0
  9
$EXTMAX
 10
147.86351
 20
-1.575854
 30
0.0
  9
$LIMMIN
 10
113.761949
 20
-37.052363
  9
$LIMMAX
 10
172.965009
 20
22.150697
  9
$ORTHOMODE
 70
     0
  9
$REGENMODE
 70
     1
  9
$FILLMODE
 70
     1
  9
$QTEXTMODE
 70
     0
  9
$MIRRTEXT
 70
     0
  9
$LTSCALE
 40
1.0
  9
$ATTMODE
 70
     1
  9
$TEXTSIZE
 40
0.09
  9
$TRACEWID
 40
0.05
  9
$TEXTSTYLE
  7
Standard
  9
$CLAYER
  8
TEXT
  9
$CELTYPE
  6
Continuous
  9
$CECOLOR
 62
     7
  9
$CELTSCALE
 40
1.0
  9
$DISPSILH
 70
     0
  9
$DIMSCALE
 40
1.0
  9
$DIMASZ
 40
0.09
  9
$DIMEXO
 40
0.045
  9
$DIMDLI
 40
0.0
  9
$DIMRND
 40
0.0
  9
$DIMDLE
 40
0.0
  9
$DIMEXE
 40
0.045
  9
$DIMTP
 40
0.0
  9
$DIMTM
 40
0.0
  9
$DIMTXT
 40
0.09
  9
$DIMCEN
 40
0.09
  9
$DIMTSZ
 40
0.0
  9
$DIMTOL
 70
     0
  9
$DIMLIM
 70
     0
  9
$DIMTIH
 70
     0
  9
$DIMTOH
 70
     0
  9
$DIMSE1
 70
     0
  9
$DIMSE2
 70
     0
  9
$DIMTAD
 70
     1
  9
$DIMZIN
 70
    11
  9
$DIMBLK
  1
TerminatorOpen_0.5
  9
$DIMASO
 70
     1
  9
$DIMSHO
 70
     1
  9
$DIMPOST
  1

  9
$DIMAPOST
  1

  9
$DIMALT
 70
     0
  9
$DIMALTD
 70
     4
  9
$DIMALTF
 40
25.4
  9
$DIMLFAC
 40
1.0
  9
$DIMTOFL
 70
     0
  9
$DIMTVP
 40
0.0
  9
$DIMTIX
 70
     0
  9
$DIMSOXD
 70
     0
  9
$DIMSAH
 70
     0
  9
$DIMBLK1
  1

  9
$DIMBLK2
  1

  9
$DIMSTYLE
  2
Standard
  9
$DIMCLRD
 70
     0
  9
$DIMCLRE
 70
     0
  9
$DIMCLRT
 70
     0
  9
$DIMTFAC
 40
1.0
  9
$DIMGAP
 40
0.045
  9
$DIMJUST
 70
     0
  9
$DIMSD1
 70
     0
  9
$DIMSD2
 70
     0
  9
$DIMTOLJ
 70
     0
  9
$DIMTZIN
 70
    11
  9
$DIMALTZ
 70
    15
  9
$DIMALTTZ
 70
    15
  9
$DIMUPT
 70
     0
  9
$DIMDEC
 70
     4
  9
$DIMTDEC
 70
     4
  9
$DIMALTU
 70
     2
  9
$DIMALTTD
 70
     4
  9
$DIMTXSTY
  7
Style-Arial
  9
$DIMAUNIT
 70
     0
  9
$DIMADEC
 70
     4
  9
$DIMALTRND
 40
0.0
  9
$DIMAZIN
 70
     3
  9
$DIMDSEP
 70
    46
  9
$DIMATFIT
 70
     1
  9
$DIMFRAC
 70
     0
  9
$DIMLDRBLK
  1
TerminatorOpen_0.5
  9
$DIMLUNIT
 70
     2
  9
$DIMLWD
 70
    -2
  9
$DIMLWE
 70
    -2
  9
$DIMTMOVE
 70
     0
  9
$LUNITS
 70
     2
  9
$LUPREC
 70
     4
  9
$SKETCHINC
 40
0.1
  9
$FILLETRAD
 40
0.0
  9
$AUNITS
 70
     0
  9
$AUPREC
 70
     4
  9
$MENU
  1
.
  9
$ELEVATION
 40
0.0
  9
$PELEVATION
 40
0.0
  9
$THICKNESS
 40
0.0
  9
$LIMCHECK
 70
     0
  9
$CHAMFERA
 40
0.0
  9
$CHAMFERB
 40
0.0
  9
$CHAMFERC
 40
0.0
  9
$CHAMFERD
 40
0.0
  9
$SKPOLY
 70
     0
  9
$TDCREATE
 40
2455394.601692593
  9
$TDUCREATE
 40
2455394.810025926
  9
$TDUPDATE
 40
2455394.601692593
  9
$TDUUPDATE
 40
2455394.810025926
  9
$TDINDWG
 40
0.0
  9
$TDUSRTIMER
 40
0.0006630093
  9
$USRTIMER
 70
     1
  9
$ANGBASE
 50
0.0
  9
$ANGDIR
 70
     0
  9
$PDMODE
 70
     0
  9
$PDSIZE
 40
0.0
  9
$PLINEWID
 40
0.0
  9
$SPLFRAME
 70
     0
  9
$SPLINETYPE
 70
     6
  9
$SPLINESEGS
 70
     8
  9
$HANDSEED
  5
592
  9
$SURFTAB1
 70
     6
  9
$SURFTAB2
 70
     6
  9
$SURFTYPE
 70
     6
  9
$SURFU
 70
     6
  9
$SURFV
 70
     6
  9
$UCSBASE
  2

  9
$UCSNAME
  2

  9
$UCSORG
 10
0.0
 20
0.0
 30
0.0
  9
$UCSXDIR
 10
1.0
 20
0.0
 30
0.0
  9
$UCSYDIR
 10
0.0
 20
1.0
 30
0.0
  9
$UCSORTHOREF
  2

  9
$UCSORTHOVIEW
 70
     0
  9
$UCSORGTOP
 10
0.0
 20
0.0
 30
0.0
  9
$UCSORGBOTTOM
 10
0.0
 20
0.0
 30
0.0
  9
$UCSORGLEFT
 10
0.0
 20
0.0
 30
0.0
  9
$UCSORGRIGHT
 10
0.0
 20
0.0
 30
0.0
  9
$UCSORGFRONT
 10
0.0
 20
0.0
 30
0.0
  9
$UCSORGBACK
 10
0.0
 20
0.0
 30
0.0
  9
$PUCSBASE
  2

  9
$PUCSNAME
  2

  9
$PUCSORG
 10
0.0
 20
0.0
 30
0.0
  9
$PUCSXDIR
 10
1.0
 20
0.0
 30
0.0
  9
$PUCSYDIR
 10
0.0
 20
1.0
 30
0.0
  9
$PUCSORTHOREF
  2

  9
$PUCSORTHOVIEW
 70
     0
  9
$PUCSORGTOP
 10
0.0
 20
0.0
 30
0.0
  9
$PUCSORGBOTTOM
 10
0.0
 20
0.0
 30
0.0
  9
$PUCSORGLEFT
 10
0.0
 20
0.0
 30
0.0
  9
$PUCSORGRIGHT
 10
0.0
 20
0.0
 30
0.0
  9
$PUCSORGFRONT
 10
0.0
 20
0.0
 30
0.0
  9
$PUCSORGBACK
 10
0.0
 20
0.0
 30
0.0
  9
$USERI1
 70
     0
  9
$USERI2
 70
     0
  9
$USERI3
 70
     0
  9
$USERI4
 70
     0
  9
$USERI5
 70
     0
  9
$USERR1
 40
0.0
  9
$USERR2
 40
0.0
  9
$USERR3
 40
0.0
  9
$USERR4
 40
0.0
  9
$USERR5
 40
0.0
  9
$WORLDVIEW
 70
     1
  9
$SHADEDGE
 70
     3
  9
$SHADEDIF
 70
    70
  9
$TILEMODE
 70
     1
  9
$MAXACTVP
 70
    64
  9
$PINSBASE
 10
0.0
 20
0.0
 30
0.0
  9
$PLIMCHECK
 70
     0
  9
$PEXTMIN
 10
1.049744
 20
0.799667
 30
-0.001526
  9
$PEXTMAX
 10
9.450623
 20
7.200577
 30
0.0
  9
$PLIMMIN
 10
-0.25
 20
-0.25
  9
$PLIMMAX
 10
10.75
 20
8.25
  9
$UNITMODE
 70
     0
  9
$VISRETAIN
 70
     1
  9
$PLINEGEN
 70
     0
  9
$PSLTSCALE
 70
     0
  9
$TREEDEPTH
 70
  3020
  9
$CMLSTYLE
  2
Standard
  9
$CMLJUST
 70
     0
  9
$CMLSCALE
 40
1.0
  9
$PROXYGRAPHICS
 70
     1
  9
$MEASUREMENT
 70
     0
  9
$CELWEIGHT
370
     0
  9
$ENDCAPS
280
     0
  9
$JOINSTYLE
280
     0
  9
$LWDISPLAY
290
     1
  9
$INSUNITS
 70
     2
  9
$HYPERLINKBASE
  1

  9
$STYLESHEET
  1

  9
$XEDIT
290
     1
  9
$CEPSNTYPE
380
     0
  9
$PSTYLEMODE
290
     1
  9
$FINGERPRINTGUID
  2
{02C0BBB5-38A7-4FBF-829E-00875EC88963}
  9
$VERSIONGUID
  2
{82C521FC-BF81-46B3-825E-420B6BD93A99}
  9
$EXTNAMES
290
     1
  9
$PSVPSCALE
 40
0.0
  9
$OLESTARTUP
290
     0
  9
$SORTENTS
280
   127
  9
$INDEXCTL
280
     0
  9
$HIDETEXT
280
     1
  9
$XCLIPFRAME
290
     0
  9
$HALOGAP
280
     0
  9
$OBSCOLOR
 70
   257
  9
$OBSLTYPE
280
     0
  9
$INTERSECTIONDISPLAY
280
     0
  9
$INTERSECTIONCOLOR
 70
   257
  9
$DIMASSOC
280
     1
  9
$PROJECTNAME
  1

  0
ENDSEC
  0
SECTION
  2
CLASSES
  0
CLASS
  1
ACDBDICTIONARYWDFLT
  2
AcDbDictionaryWithDefault
  3
ObjectDBX Classes
 90
        0
 91
        3
280
     0
281
     0
  0
CLASS
  1
SORTENTSTABLE
  2
AcDbSortentsTable
  3
ObjectDBX Classes
 90
        0
 91
        3
280
     0
281
     0
  0
ENDSEC
  0
SECTION
  2
TABLES
  0
TABLE
  2
VPORT
  5
573
330
0
100
AcDbSymbolTable
 70
     4
  0
VPORT
  5
49
330
573
100
AcDbSymbolTableRecord
100
AcDbViewportTableRecord
  2
*ACTIVE
 70
     0
 10
0.0
 20
0.0
 11
1.0
 21
1.0
 12
142.329796
 22
-7.450833
 13
0.0
 23
0.0
 14
0.083333
 24
0.083333
 15
0.083333
 25
0.083333
 16
0.0
 26
0.0
 36
1.0
 17
0.0
 27
0.0
 37
0.0
 40
12.219957
 41
1.884937
 42
50.0
 43
0.0
 44
0.0
 50
0.0
 51
0.0
 71
     0
 72
   100
 73
     1
 74
     2
 75
     0
 76
     0
 77
     0
 78
     1
281
     0
 65
     1
110
0.0
120
0.0
130
0.0
111
1.0
121
0.0
131
0.0
112
0.0
122
1.0
132
0.0
 79
     0
146
0.0
  0
ENDTAB
  0
TABLE
  2
LTYPE
  5
55A
330
0
100
AcDbSymbolTable
 70
     1
  0
LTYPE
  5
55B
330
55A
100
AcDbSymbolTableRecord
100
AcDbLinetypeTableRecord
  2
ByBlock
 70
     0
  3

 72
    65
 73
     0
 40
0.0
  0
LTYPE
  5
55C
330
55A
100
AcDbSymbolTableRecord
100
AcDbLinetypeTableRecord
  2
ByLayer
 70
     0
  3

 72
    65
 73
     0
 40
0.0
  0
LTYPE
  5
559
330
55A
100
AcDbSymbolTableRecord
100
AcDbLinetypeTableRecord
  2
Continuous
 70
     0
  3
Solid line
 72
    65
 73
     0
 40
0.0
  0
ENDTAB
  0
TABLE
  2
LAYER
  5
553
102
{ACAD_XDICTIONARY
360
554
102
}
330
0
100
AcDbSymbolTable
 70
    64
  0
LAYER
  5
552
330
553
100
AcDbSymbolTableRecord
100
AcDbLayerTableRecord
  2
0
 70
     0
 62
     7
  6
Continuous
370
    -3
390
556
  0
LAYER
  5
7
330
553
100
AcDbSymbolTableRecord
100
AcDbLayerTableRecord
  2
Level 1
 70
     0
 62
     7
  6
Continuous
370
     0
390
556
  0
LAYER
  5
8
330
553
100
AcDbSymbolTableRecord
100
AcDbLayerTableRecord
  2
2-4A
 70
     0
 62
     7
  6
Continuous
370
     0
390
556
1001
AcAecLayerStandard
1000

1000
2-4A
  0
LAYER
  5
9
330
553
100
AcDbSymbolTableRecord
100
AcDbLayerTableRecord
  2
BORDER
 70
     0
 62
     7
  6
Continuous
370
     0
390
556
1001
AcAecLayerStandard
1000

1000
BORDER
  0
LAYER
  5
A
330
553
100
AcDbSymbolTableRecord
100
AcDbLayerTableRecord
  2
DEFPOINTS
 70
     0
 62
     7
  6
Continuous
290
     0
370
     0
390
556
1001
AcAecLayerStandard
1000

1000
DEFPOINTS
  0
LAYER
  5
B
330
553
100
AcDbSymbolTableRecord
100
AcDbLayerTableRecord
  2
REF
 70
     0
 62
     7
  6
Continuous
370
     0
390
556
1001
AcAecLayerStandard
1000

1000
REF
  0
LAYER
  5
C
330
553
100
AcDbSymbolTableRecord
100
AcDbLayerTableRecord
  2
TEXT
 70
     0
 62
     7
  6
Continuous
370
     0
390
556
1001
AcAecLayerStandard
1000

1000
TEXT
  0
LAYER
  5
D
330
553
100
AcDbSymbolTableRecord
100
AcDbLayerTableRecord
  2
TITLE
 70
     0
 62
     7
  6
Continuous
370
     0
390
556
1001
AcAecLayerStandard
1000

1000
TITLE
  0
LAYER
  5
E
330
553
100
AcDbSymbolTableRecord
100
AcDbLayerTableRecord
  2
Level 8
 70
     0
 62
     7
  6
Continuous
370
     0
390
556
  0
LAYER
  5
F
330
553
100
AcDbSymbolTableRecord
100
AcDbLayerTableRecord
  2
Level 9
 70
     0
 62
     7
  6
Continuous
370
     0
390
556
  0
LAYER
  5
10
330
553
100
AcDbSymbolTableRecord
100
AcDbLayerTableRecord
  2
Level 10
 70
     0
 62
     7
  6
Continuous
370
     0
390
556
  0
LAYER
  5
11
330
553
100
AcDbSymbolTableRecord
100
AcDbLayerTableRecord
  2
Level 11
 70
     0
 62
     7
  6
Continuous
370
     0
390
556
  0
LAYER
  5
12
330
553
100
AcDbSymbolTableRecord
100
AcDbLayerTableRecord
  2
Level 12
 70
     0
 62
     7
  6
Continuous
370
     0
390
556
  0
LAYER
  5
13
330
553
100
AcDbSymbolTableRecord
100
AcDbLayerTableRecord
  2
Level 13
 70
     0
 62
     7
  6
Continuous
370
     0
390
556
  0
LAYER
  5
14
330
553
100
AcDbSymbolTableRecord
100
AcDbLayerTableRecord
  2
Level 14
 70
     0
 62
     7
  6
Continuous
370
     0
390
556
  0
LAYER
  5
15
330
553
100
AcDbSymbolTableRecord
100
AcDbLayerTableRecord
  2
Level 15
 70
     0
 62
     7
  6
Continuous
370
     0
390
556
  0
LAYER
  5
16
330
553
100
AcDbSymbolTableRecord
100
AcDbLayerTableRecord
  2
Level 16
 70
     0
 62
     7
  6
Continuous
370
     0
390
556
  0
LAYER
  5
17
330
553
100
AcDbSymbolTableRecord
100
AcDbLayerTableRecord
  2
Level 17
 70
     0
 62
     7
  6
Continuous
370
     0
390
556
  0
LAYER
  5
18
330
553
100
AcDbSymbolTableRecord
100
AcDbLayerTableRecord
  2
Level 18
 70
     0
 62
     7
  6
Continuous
370
     0
390
556
  0
LAYER
  5
19
330
553
100
AcDbSymbolTableRecord
100
AcDbLayerTableRecord
  2
Level 19
 70
     0
 62
     7
  6
Continuous
370
     0
390
556
  0
LAYER
  5
1A
330
553
100
AcDbSymbolTableRecord
100
AcDbLayerTableRecord
  2
Level 20
 70
     0
 62
     7
  6
Continuous
370
     0
390
556
  0
LAYER
  5
1B
330
553
100
AcDbSymbolTableRecord
100
AcDbLayerTableRecord
  2
Level 21
 70
     0
 62
     7
  6
Continuous
370
     0
390
556
  0
LAYER
  5
1C
330
553
100
AcDbSymbolTableRecord
100
AcDbLayerTableRecord
  2
Level 22
 70
     0
 62
     7
  6
Continuous
370
     0
390
556
  0
LAYER
  5
1D
330
553
100
AcDbSymbolTableRecord
100
AcDbLayerTableRecord
  2
Level 23
 70
     0
 62
     7
  6
Continuous
370
     0
390
556
  0
LAYER
  5
1E
330
553
100
AcDbSymbolTableRecord
100
AcDbLayerTableRecord
  2
Level 24
 70
     0
 62
     7
  6
Continuous
370
     0
390
556
  0
LAYER
  5
1F
330
553
100
AcDbSymbolTableRecord
100
AcDbLayerTableRecord
  2
Level 25
 70
     0
 62
     7
  6
Continuous
370
     0
390
556
  0
LAYER
  5
20
330
553
100
AcDbSymbolTableRecord
100
AcDbLayerTableRecord
  2
Level 26
 70
     0
 62
     7
  6
Continuous
370
     0
390
556
  0
LAYER
  5
21
330
553
100
AcDbSymbolTableRecord
100
AcDbLayerTableRecord
  2
Level 27
 70
     0
 62
     7
  6
Continuous
370
     0
390
556
  0
LAYER
  5
22
330
553
100
AcDbSymbolTableRecord
100
AcDbLayerTableRecord
  2
Level 28
 70
     0
 62
     7
  6
Continuous
370
     0
390
556
  0
LAYER
  5
23
330
553
100
AcDbSymbolTableRecord
100
AcDbLayerTableRecord
  2
Level 29
 70
     0
 62
     7
  6
Continuous
370
     0
390
556
  0
LAYER
  5
24
330
553
100
AcDbSymbolTableRecord
100
AcDbLayerTableRecord
  2
Level 30
 70
     0
 62
     7
  6
Continuous
370
     0
390
556
  0
LAYER
  5
25
330
553
100
AcDbSymbolTableRecord
100
AcDbLayerTableRecord
  2
Level 31
 70
     0
 62
     7
  6
Continuous
370
     0
390
556
  0
LAYER
  5
26
330
553
100
AcDbSymbolTableRecord
100
AcDbLayerTableRecord
  2
Level 32
 70
     0
 62
     7
  6
Continuous
370
     0
390
556
  0
LAYER
  5
27
330
553
100
AcDbSymbolTableRecord
100
AcDbLayerTableRecord
  2
Level 33
 70
     0
 62
     7
  6
Continuous
370
     0
390
556
  0
LAYER
  5
28
330
553
100
AcDbSymbolTableRecord
100
AcDbLayerTableRecord
  2
Level 34
 70
     0
 62
     7
  6
Continuous
370
     0
390
556
  0
LAYER
  5
29
330
553
100
AcDbSymbolTableRecord
100
AcDbLayerTableRecord
  2
Level 35
 70
     0
 62
     7
  6
Continuous
370
     0
390
556
  0
LAYER
  5
2A
330
553
100
AcDbSymbolTableRecord
100
AcDbLayerTableRecord
  2
Level 36
 70
     0
 62
     7
  6
Continuous
370
     0
390
556
  0
LAYER
  5
2B
330
553
100
AcDbSymbolTableRecord
100
AcDbLayerTableRecord
  2
Level 37
 70
     0
 62
     7
  6
Continuous
370
     0
390
556
  0
LAYER
  5
2C
330
553
100
AcDbSymbolTableRecord
100
AcDbLayerTableRecord
  2
Level 38
 70
     0
 62
     7
  6
Continuous
370
     0
390
556
  0
LAYER
  5
2D
330
553
100
AcDbSymbolTableRecord
100
AcDbLayerTableRecord
  2
Level 39
 70
     0
 62
     7
  6
Continuous
370
     0
390
556
  0
LAYER
  5
2E
330
553
100
AcDbSymbolTableRecord
100
AcDbLayerTableRecord
  2
Level 40
 70
     0
 62
     7
  6
Continuous
370
     0
390
556
  0
LAYER
  5
2F
330
553
100
AcDbSymbolTableRecord
100
AcDbLayerTableRecord
  2
Level 41
 70
     0
 62
     7
  6
Continuous
370
     0
390
556
  0
LAYER
  5
30
330
553
100
AcDbSymbolTableRecord
100
AcDbLayerTableRecord
  2
Level 42
 70
     0
 62
     7
  6
Continuous
370
     0
390
556
  0
LAYER
  5
31
330
553
100
AcDbSymbolTableRecord
100
AcDbLayerTableRecord
  2
Level 43
 70
     0
 62
     7
  6
Continuous
370
     0
390
556
  0
LAYER
  5
32
330
553
100
AcDbSymbolTableRecord
100
AcDbLayerTableRecord
  2
Level 44
 70
     0
 62
     7
  6
Continuous
370
     0
390
556
  0
LAYER
  5
33
330
553
100
AcDbSymbolTableRecord
100
AcDbLayerTableRecord
  2
Level 45
 70
     0
 62
     7
  6
Continuous
370
     0
390
556
  0
LAYER
  5
34
330
553
100
AcDbSymbolTableRecord
100
AcDbLayerTableRecord
  2
Level 46
 70
     0
 62
     7
  6
Continuous
370
     0
390
556
  0
LAYER
  5
35
330
553
100
AcDbSymbolTableRecord
100
AcDbLayerTableRecord
  2
Level 47
 70
     0
 62
     7
  6
Continuous
370
     0
390
556
  0
LAYER
  5
36
330
553
100
AcDbSymbolTableRecord
100
AcDbLayerTableRecord
  2
Level 48
 70
     0
 62
     7
  6
Continuous
370
     0
390
556
  0
LAYER
  5
37
330
553
100
AcDbSymbolTableRecord
100
AcDbLayerTableRecord
  2
Level 49
 70
     0
 62
     7
  6
Continuous
370
     0
390
556
  0
LAYER
  5
38
330
553
100
AcDbSymbolTableRecord
100
AcDbLayerTableRecord
  2
Level 50
 70
     0
 62
     7
  6
Continuous
370
     0
390
556
  0
LAYER
  5
39
330
553
100
AcDbSymbolTableRecord
100
AcDbLayerTableRecord
  2
Level 51
 70
     0
 62
     7
  6
Continuous
370
     0
390
556
  0
LAYER
  5
3A
330
553
100
AcDbSymbolTableRecord
100
AcDbLayerTableRecord
  2
Level 52
 70
     0
 62
     7
  6
Continuous
370
     0
390
556
  0
LAYER
  5
3B
330
553
100
AcDbSymbolTableRecord
100
AcDbLayerTableRecord
  2
Level 53
 70
     0
 62
     7
  6
Continuous
370
     0
390
556
  0
LAYER
  5
3C
330
553
100
AcDbSymbolTableRecord
100
AcDbLayerTableRecord
  2
Level 54
 70
     0
 62
     7
  6
Continuous
370
     0
390
556
  0
LAYER
  5
3D
330
553
100
AcDbSymbolTableRecord
100
AcDbLayerTableRecord
  2
Level 55
 70
     0
 62
     7
  6
Continuous
370
     0
390
556
  0
LAYER
  5
3E
330
553
100
AcDbSymbolTableRecord
100
AcDbLayerTableRecord
  2
Level 56
 70
     0
 62
     7
  6
Continuous
370
     0
390
556
  0
LAYER
  5
3F
330
553
100
AcDbSymbolTableRecord
100
AcDbLayerTableRecord
  2
Level 57
 70
     0
 62
     7
  6
Continuous
370
     0
390
556
  0
LAYER
  5
40
330
553
100
AcDbSymbolTableRecord
100
AcDbLayerTableRecord
  2
Level 58
 70
     0
 62
     7
  6
Continuous
370
     0
390
556
  0
LAYER
  5
41
330
553
100
AcDbSymbolTableRecord
100
AcDbLayerTableRecord
  2
Level 59
 70
     0
 62
     7
  6
Continuous
370
     0
390
556
  0
LAYER
  5
42
330
553
100
AcDbSymbolTableRecord
100
AcDbLayerTableRecord
  2
Level 60
 70
     0
 62
     7
  6
Continuous
370
     0
390
556
  0
LAYER
  5
43
330
553
100
AcDbSymbolTableRecord
100
AcDbLayerTableRecord
  2
Level 61
 70
     0
 62
     7
  6
Continuous
370
     0
390
556
  0
LAYER
  5
44
330
553
100
AcDbSymbolTableRecord
100
AcDbLayerTableRecord
  2
Level 62
 70
     0
 62
     7
  6
Continuous
370
     0
390
556
  0
LAYER
  5
45
330
553
100
AcDbSymbolTableRecord
100
AcDbLayerTableRecord
  2
_0
 70
     0
 62
     7
  6
Continuous
370
     0
390
556
1001
AcAecLayerStandard
1000

1000
0
  0
ENDTAB
  0
TABLE
  2
STYLE
  5
55E
330
0
100
AcDbSymbolTable
 70
     2
  0
STYLE
  5
55D
330
55E
100
AcDbSymbolTableRecord
100
AcDbTextStyleTableRecord
  2
Standard
 70
     0
 40
0.0
 41
1.0
 50
0.0
 71
     0
 42
0.09
  3
txt
  4

  0
STYLE
  5
57D
330
55E
100
AcDbSymbolTableRecord
100
AcDbTextStyleTableRecord
  2
Style-Arial
 70
     0
 40
0.0
 41
1.0
 50
0.0
 71
     0
 42
0.2
  3

  4

1001
ACAD
1000
Arial
1071
       39
  0
ENDTAB
  0
TABLE
  2
VIEW
  5
571
330
0
100
AcDbSymbolTable
 70
     0
  0
ENDTAB
  0
TABLE
  2
UCS
  5
572
330
0
100
AcDbSymbolTable
 70
     0
  0
ENDTAB
  0
TABLE
  2
APPID
  5
570
330
0
100
AcDbSymbolTable
 70
     3
  0
APPID
  5
578
330
570
100
AcDbSymbolTableRecord
100
AcDbRegAppTableRecord
  2
ACAD
 70
     0
  0
APPID
  5
56F
330
570
100
AcDbSymbolTableRecord
100
AcDbRegAppTableRecord
  2
ACAD_PSEXT
 70
     0
  0
APPID
  5
57A
330
570
100
AcDbSymbolTableRecord
100
AcDbRegAppTableRecord
  2
AcAecLayerStandard
 70
     0
  0
ENDTAB
  0
TABLE
  2
DIMSTYLE
  5
560
330
0
100
AcDbSymbolTable
 70
     1
100
AcDbDimStyleTable
  0
DIMSTYLE
105
55F
330
560
100
AcDbSymbolTableRecord
100
AcDbDimStyleTableRecord
  2
Standard
 70
     0
340
55D
  0
ENDTAB
  0
TABLE
  2
BLOCK_RECORD
  5
563
330
0
100
AcDbSymbolTable
 70
     3
  0
BLOCK_RECORD
  5
564
102
{ACAD_XDICTIONARY
360
58D
102
}
330
563
100
AcDbSymbolTableRecord
100
AcDbBlockTableRecord
  2
*Model_Space
340
567
  0
BLOCK_RECORD
  5
569
330
563
100
AcDbSymbolTableRecord
100
AcDbBlockTableRecord
  2
*Paper_Space
340
56C
  0
BLOCK_RECORD
  5
57E
330
563
100
AcDbSymbolTableRecord
100
AcDbBlockTableRecord
  2
TerminatorOpen_0.5
340
0
  0
BLOCK_RECORD
  5
587
330
563
100
AcDbSymbolTableRecord
100
AcDbBlockTableRecord
  2
LARROW
340
0
102
{BLKREFS
331
476
331
478
331
47A
331
47C
331
480
331
482
331
484
331
486
331
488
331
48D
331
48F
331
496
331
498
331
49A
331
49C
331
49E
331
4A0
331
4A2
331
4A4
331
4A6
331
4A8
331
4AA
331
4AC
102
}
  0
BLOCK_RECORD
  5
58A
330
563
100
AcDbSymbolTableRecord
100
AcDbBlockTableRecord
  2
LARROW_1
340
0
102
{BLKREFS
331
4AE
331
4B0
331
4B2
331
4B4
331
4BD
331
4BF
331
4C1
331
4C3
331
4C5
331
4C7
331
4C9
331
4CB
331
4CD
102
}
  0
ENDTAB
  0
ENDSEC
  0
SECTION
  2
BLOCKS
  0
BLOCK
  5
565
330
564
100
AcDbEntity
  8
0
100
AcDbBlockBegin
  2
*Model_Space
 70
     0
 71
     0
 10
0.0
 20
0.0
 30
0.0
  3
*Model_Space
  1

  0
ENDBLK
  5
566
330
564
100
AcDbEntity
  8
0
100
AcDbBlockEnd
  0
BLOCK
  5
56A
330
569
100
AcDbEntity
 67
     1
  8
0
100
AcDbBlockBegin
  2
*Paper_Space
 70
     0
 71
     0
 10
0.0
 20
0.0
 30
0.0
  3
*Paper_Space
  1

  0
ENDBLK
  5
56B
330
569
100
AcDbEntity
 67
     1
  8
0
100
AcDbBlockEnd
  0
BLOCK
  5
582
330
57E
100
AcDbEntity
  8
0
100
AcDbBlockBegin
  2
TerminatorOpen_0.5
 70
     0
 71
     0
 10
0.0
 20
0.0
 30
0.0
  3
TerminatorOpen_0.5
  1

  0
LINE
  5
57F
330
57E
100
AcDbEntity
  8
0
  6
ByBlock
 62
     0
370
    -2
100
AcDbLine
 10
0.0
 20
0.0
 30
0.0
 11
-1.0
 21
0.0
 31
0.0
  0
LINE
  5
580
330
57E
100
AcDbEntity
  8
0
  6
ByBlock
 62
     0
370
    -2
100
AcDbLine
 10
0.0
 20
0.0
 30
0.0
 11
-1.0
 21
0.25
 31
0.0
  0
LINE
  5
581
330
57E
100
AcDbEntity
  8
0
  6
ByBlock
 62
     0
370
    -2
100
AcDbLine
 10
0.0
 20
0.0
 30
0.0
 11
-1.0
 21
-0.25
 31
0.0
  0
ENDBLK
  5
583
330
57E
100
AcDbEntity
  8
0
100
AcDbBlockEnd
  0
BLOCK
  5
588
330
587
100
AcDbEntity
  8
0
100
AcDbBlockBegin
  2
LARROW
 70
     0
 71
     0
 10
0.0
 20
0.0
 30
0.0
  3
LARROW
  1

  0
LWPOLYLINE
  5
477
330
587
100
AcDbEntity
  8
Level 1
  6
Continuous
 62
     7
370
    13
100
AcDbPolyline
 90
       63
 70
   128
 43
0.0
 10
-0.013031
 20
0.001885
 10
0.0
 20
0.0
 10
-0.013021
 20
-0.001885
 10
-0.012615
 20
-0.001573
 10
-0.012042
 20
-0.00101
 10
-0.01176
 20
-0.00049
 10
-0.011688
 20
0.0
 10
-0.011792
 20
0.000552
 10
-0.012094
 20
0.001094
 10
-0.012677
 20
0.001625
 10
-0.013031
 20
0.001885
 10
-0.000385
 20
0.000021
 10
-0.012604
 20
-0.00176
 10
-0.012229
 20
-0.001479
 10
-0.011625
 20
-0.000906
 10
-0.011427
 20
-0.000167
 10
-0.011563
 20
0.000573
 10
-0.011917
 20
0.001083
 10
-0.012344
 20
0.0015
 10
-0.012635
 20
0.001729
 10
-0.001073
 20
0.000021
 10
-0.012052
 20
-0.001552
 10
-0.011667
 20
-0.001302
 10
-0.011469
 20
-0.000979
 10
-0.01125
 20
-0.000563
 10
-0.011135
 20
0.000021
 10
-0.011198
 20
0.0005
 10
-0.011427
 20
0.000875
 10
-0.011896
 20
0.001177
 10
-0.012208
 20
0.001542
 10
-0.001875
 20
0.000021
 10
-0.011448
 20
-0.001323
 10
-0.011021
 20
-0.000792
 10
-0.010896
 20
-0.000146
 10
-0.010958
 20
0.000573
 10
-0.011781
 20
0.001354
 10
-0.002771
 20
0.000063
 10
-0.010896
 20
-0.001073
 10
-0.010781
 20
-0.000698
 10
-0.010531
 20
-0.000094
 10
-0.010688
 20
0.000552
 10
-0.011333
 20
0.001125
 10
-0.003594
 20
0.000063
 10
-0.010604
 20
-0.000833
 10
-0.010375
 20
-0.000375
 10
-0.010271
 20
0.000115
 10
-0.01076
 20
0.000875
 10
-0.004573
 20
0.000063
 10
-0.010177
 20
-0.000625
 10
-0.010021
 20
-0.000281
 10
-0.009979
 20
0.000115
 10
-0.010375
 20
0.000667
 10
-0.00574
 20
0.000063
 10
-0.009823
 20
-0.000396
 10
-0.009708
 20
0.000135
 10
-0.010083
 20
0.000458
 10
-0.006698
 20
0.000063
 10
-0.009552
 20
-0.00024
 10
-0.009615
 20
0.000271
 10
-0.007677
 20
0.000063
 10
-0.009438
 20
-0.000073
 10
-0.00949
 20
0.000083
 10
-0.008885
 20
0.000083
  0
ENDBLK
  5
589
330
587
100
AcDbEntity
  8
0
100
AcDbBlockEnd
  0
BLOCK
  5
58B
330
58A
100
AcDbEntity
  8
0
100
AcDbBlockBegin
  2
LARROW_1
 70
     0
 71
     0
 10
0.0
 20
0.0
 30
0.0
  3
LARROW_1
  1

  0
LWPOLYLINE
  5
4AF
330
58A
100
AcDbEntity
  8
Level 1
  6
Continuous
 62
     7
370
    13
100
AcDbPolyline
 90
       63
 70
   128
 43
0.0
 10
-0.013031
 20
0.001888
 10
0.0
 20
0.0
 10
-0.013021
 20
-0.001886
 10
-0.012613
 20
-0.001573
 10
-0.012041
 20
-0.00101
 10
-0.01176
 20
-0.00049
 10
-0.011687
 20
0.000001
 10
-0.011794
 20
0.000551
 10
-0.012093
 20
0.001093
 10
-0.012677
 20
0.001631
 10
-0.013031
 20
0.001888
 10
-0.000388
 20
0.000019
 10
-0.012603
 20
-0.001761
 10
-0.012228
 20
-0.001479
 10
-0.011632
 20
-0.000905
 10
-0.011424
 20
-0.000167
 10
-0.011556
 20
0.000574
 10
-0.011916
 20
0.001085
 10
-0.012343
 20
0.001498
 10
-0.012636
 20
0.00173
 10
-0.001073
 20
0.000017
 10
-0.012052
 20
-0.001553
 10
-0.011673
 20
-0.001301
 10
-0.011469
 20
-0.000979
 10
-0.011249
 20
-0.000563
 10
-0.011134
 20
0.00002
 10
-0.011197
 20
0.000499
 10
-0.011434
 20
0.000877
 10
-0.011896
 20
0.001177
 10
-0.01221
 20
0.00154
 10
-0.001877
 20
0.000017
 10
-0.011453
 20
-0.001322
 10
-0.01102
 20
-0.000791
 10
-0.010895
 20
-0.000146
 10
-0.010956
 20
0.000574
 10
-0.011783
 20
0.001356
 10
-0.002771
 20
0.00006
 10
-0.010895
 20
-0.001073
 10
-0.010781
 20
-0.000698
 10
-0.010532
 20
-0.000094
 10
-0.010688
 20
0.000551
 10
-0.01133
 20
0.001129
 10
-0.003594
 20
0.000061
 10
-0.010603
 20
-0.000833
 10
-0.010375
 20
-0.000376
 10
-0.010271
 20
0.000113
 10
-0.01076
 20
0.000875
 10
-0.004574
 20
0.000062
 10
-0.010177
 20
-0.000625
 10
-0.010022
 20
-0.00028
 10
-0.00998
 20
0.000115
 10
-0.010374
 20
0.000668
 10
-0.00574
 20
0.000062
 10
-0.009823
 20
-0.000396
 10
-0.009708
 20
0.000137
 10
-0.010083
 20
0.000461
 10
-0.006697
 20
0.000064
 10
-0.009552
 20
-0.00024
 10
-0.009616
 20
0.00027
 10
-0.007676
 20
0.000063
 10
-0.009436
 20
-0.000073
 10
-0.009489
 20
0.000084
 10
-0.008884
 20
0.000084
  0
ENDBLK
  5
58C
330
58A
100
AcDbEntity
  8
0
100
AcDbBlockEnd
  0
ENDSEC
  0
SECTION
  2
ENTITIES
  0
LINE
  5
5B
330
564
100
AcDbEntity
  8
_0
  6
Continuous
 62
     7
370
    30
100
AcDbLine
 10
138.863448
 20
-2.075854
 30
0.0
 11
139.363448
 21
-2.075854
 31
0.0
  0
LINE
  5
5C
330
564
100
AcDbEntity
  8
_0
  6
Continuous
 62
     7
370
    30
100
AcDbLine
 10
139.363448
 20
-2.075854
 30
0.0
 11
139.363448
 21
-1.575854
 31
0.0
  0
LINE
  5
5D
330
564
100
AcDbEntity
  8
_0
  6
Continuous
 62
     7
370
    30
100
AcDbLine
 10
147.36351
 20
-2.075854
 30
0.0
 11
147.36351
 21
-1.575854
 31
0.0
  0
LINE
  5
5E
330
564
100
AcDbEntity
  8
_0
  6
Continuous
 62
     7
370
    30
100
AcDbLine
 10
147.36351
 20
-2.075854
 30
0.0
 11
147.86351
 21
-2.075854
 31
0.0
  0
LINE
  5
5F
330
564
100
AcDbEntity
  8
_0
  6
Continuous
 62
     7
370
    30
100
AcDbLine
 10
138.863448
 20
-12.825812
 30
0.0
 11
139.363448
 21
-12.825812
 31
0.0
  0
LINE
  5
60
330
564
100
AcDbEntity
  8
_0
  6
Continuous
 62
     7
370
    30
100
AcDbLine
 10
139.363448
 20
-13.325812
 30
0.0
 11
139.363448
 21
-12.825812
 31
0.0
  0
LINE
  5
61
330
564
100
AcDbEntity
  8
_0
  6
Continuous
 62
     7
370
    30
100
AcDbLine
 10
147.36351
 20
-13.325812
 30
0.0
 11
147.36351
 21
-12.825812
 31
0.0
  0
LINE
  5
62
330
564
100
AcDbEntity
  8
_0
  6
Continuous
 62
     7
370
    30
100
AcDbLine
 10
147.36351
 20
-12.825812
 30
0.0
 11
147.86351
 21
-12.825812
 31
0.0
  0
LWPOLYLINE
  5
67
330
564
100
AcDbEntity
  8
Level 1
  6
Continuous
 62
     7
370
    40
100
AcDbPolyline
 90
        4
 70
   129
 43
0.0
 10
139.737656
 20
-12.108365
 10
146.98601
 20
-12.108365
 10
146.98601
 20
-2.789052
 10
139.737656
 20
-2.789052
  0
LINE
  5
68
330
564
100
AcDbEntity
  8
Level 1
  6
Continuous
 62
     7
370
    40
100
AcDbLine
 10
139.737656
 20
-11.590625
 30
0.0
 11
146.98601
 21
-11.590625
 31
0.0
  0
LINE
  5
69
330
564
100
AcDbEntity
  8
Level 1
  6
Continuous
 62
     7
370
    13
100
AcDbLine
 10
146.98601
 20
-12.108365
 30
0.0
 11
146.98601
 21
-11.590625
 31
0.0
  0
LINE
  5
6A
330
564
100
AcDbEntity
  8
Level 1
  6
Continuous
 62
     7
370
    13
100
AcDbLine
 10
145.690969
 20
-12.108365
 30
0.0
 11
145.690969
 21
-11.590625
 31
0.0
  0
LINE
  5
6B
330
564
100
AcDbEntity
  8
Level 1
  6
Continuous
 62
     7
370
    40
100
AcDbLine
 10
144.65549
 20
-12.108365
 30
0.0
 11
144.65549
 21
-11.590625
 31
0.0
  0
LINE
  5
6F
330
564
100
AcDbEntity
  8
Level 1
  6
Continuous
 62
     7
370
    13
100
AcDbLine
 10
141.94599
 20
-9.303583
 30
0.0
 11
141.637417
 21
-9.300833
 31
0.0
  0
LINE
  5
70
330
564
100
AcDbEntity
  8
Level 1
  6
Continuous
 62
     7
370
    13
100
AcDbLine
 10
144.908146
 20
-9.304281
 30
0.0
 11
145.159427
 21
-9.304281
 31
0.0
  0
LINE
  5
71
330
564
100
AcDbEntity
  8
Level 1
  6
Continuous
 62
     7
370
    13
100
AcDbLine
 10
141.638104
 20
-9.082698
 30
0.0
 11
141.592552
 21
-9.082698
 31
0.0
  0
LINE
  5
72
330
564
100
AcDbEntity
  8
Level 1
  6
Continuous
 62
     7
370
    13
100
AcDbLine
 10
141.609115
 20
-9.07924
 30
0.0
 11
141.609115
 21
-9.132396
 31
0.0
  0
LINE
  5
73
330
564
100
AcDbEntity
  8
Level 1
  6
Continuous
 62
     7
370
    13
100
AcDbLine
 10
141.609115
 20
-9.300833
 30
0.0
 11
141.536635
 21
-9.300833
 31
0.0
  0
LINE
  5
74
330
564
100
AcDbEntity
  8
Level 1
  6
Continuous
 62
     7
370
    13
100
AcDbLine
 10
141.609115
 20
-9.16001
 30
0.0
 11
141.609115
 21
-9.233187
 31
0.0
  0
LINE
  5
75
330
564
100
AcDbEntity
  8
Level 1
  6
Continuous
 62
     7
370
    13
100
AcDbLine
 10
141.609115
 20
-9.267698
 30
0.0
 11
141.609115
 21
-9.300833
 31
0.0
  0
LINE
  5
76
330
564
100
AcDbEntity
  8
Level 1
  6
Continuous
 62
     7
370
    13
100
AcDbLine
 10
141.502802
 20
-9.300833
 30
0.0
 11
141.39374
 21
-9.300833
 31
0.0
  0
LINE
  5
77
330
564
100
AcDbEntity
  8
Level 1
  6
Continuous
 62
     7
370
    13
100
AcDbLine
 10
141.349552
 20
-9.300833
 30
0.0
 11
141.226677
 21
-9.300833
 31
0.0
  0
LINE
  5
78
330
564
100
AcDbEntity
  8
Level 1
  6
Continuous
 62
     7
370
    13
100
AcDbLine
 10
141.558031
 20
-9.082698
 30
0.0
 11
141.446198
 21
-9.082698
 31
0.0
  0
LINE
  5
79
330
564
100
AcDbEntity
  8
Level 1
  6
Continuous
 62
     7
370
    13
100
AcDbLine
 10
141.377167
 20
-9.082698
 30
0.0
 11
141.263958
 21
-9.082698
 31
0.0
  0
LINE
  5
7A
330
564
100
AcDbEntity
  8
Level 1
  6
Continuous
 62
     7
370
    13
100
AcDbLine
 10
141.21149
 20
-9.082698
 30
0.0
 11
141.076188
 21
-9.082698
 31
0.0
  0
LINE
  5
7B
330
564
100
AcDbEntity
  8
Level 1
  6
Continuous
 62
     7
370
    13
100
AcDbLine
 10
141.021656
 20
-9.082698
 30
0.0
 11
140.913969
 21
-9.082698
 31
0.0
  0
LINE
  5
7C
330
564
100
AcDbEntity
  8
Level 1
  6
Continuous
 62
     7
370
    13
100
AcDbLine
 10
140.837344
 20
-9.082698
 30
0.0
 11
140.742073
 21
-9.082698
 31
0.0
  0
LINE
  5
7D
330
564
100
AcDbEntity
  8
Level 1
  6
Continuous
 62
     7
370
    13
100
AcDbLine
 10
143.418437
 20
-8.995021
 30
0.0
 11
143.418437
 21
-8.843156
 31
0.0
  0
LINE
  5
7E
330
564
100
AcDbEntity
  8
Level 1
  6
Continuous
 62
     7
370
    13
100
AcDbLine
 10
141.634656
 20
-9.015729
 30
0.0
 11
141.634656
 21
-8.557365
 31
0.0
  0
LINE
  5
7F
330
564
100
AcDbEntity
  8
Level 1
  6
Continuous
 62
     7
370
    13
100
AcDbLine
 10
141.634656
 20
-8.631229
 30
0.0
 11
143.418437
 21
-8.631229
 31
0.0
  0
LINE
  5
80
330
564
100
AcDbEntity
  8
Level 1
  6
Continuous
 62
     7
370
    13
100
AcDbLine
 10
143.418437
 20
-8.698187
 30
0.0
 11
143.418437
 21
-8.531823
 31
0.0
  0
LINE
  5
81
330
564
100
AcDbEntity
  8
Level 1
  6
Continuous
 62
     7
370
    13
100
AcDbLine
 10
143.418437
 20
-8.806563
 30
0.0
 11
143.418437
 21
-8.733396
 31
0.0
  0
LINE
  5
82
330
564
100
AcDbEntity
  8
Level 1
  6
Continuous
 62
     7
370
    13
100
AcDbLine
 10
145.160115
 20
-9.077167
 30
0.0
 11
145.235365
 21
-9.077167
 31
0.0
  0
LINE
  5
83
330
564
100
AcDbEntity
  8
Level 1
  6
Continuous
 62
     7
370
    13
100
AcDbLine
 10
145.18151
 20
-9.082698
 30
0.0
 11
145.18151
 21
-9.148958
 31
0.0
  0
LINE
  5
84
330
564
100
AcDbEntity
  8
Level 1
  6
Continuous
 62
     7
370
    13
100
AcDbLine
 10
145.159427
 20
-9.304281
 30
0.0
 11
145.28299
 21
-9.304281
 31
0.0
  0
LINE
  5
85
330
564
100
AcDbEntity
  8
Level 1
  6
Continuous
 62
     7
370
    13
100
AcDbLine
 10
145.283677
 20
-9.077167
 30
0.0
 11
145.385156
 21
-9.077167
 31
0.0
  0
LINE
  5
86
330
564
100
AcDbEntity
  8
Level 1
  6
Continuous
 62
     7
370
    13
100
AcDbLine
 10
145.454885
 20
-9.077167
 30
0.0
 11
145.564646
 21
-9.077167
 31
0.0
  0
LINE
  5
87
330
564
100
AcDbEntity
  8
Level 1
  6
Continuous
 62
     7
370
    13
100
AcDbLine
 10
145.625385
 20
-9.077167
 30
0.0
 11
145.742052
 21
-9.077167
 31
0.0
  0
LINE
  5
88
330
564
100
AcDbEntity
  8
Level 1
  6
Continuous
 62
     7
370
    13
100
AcDbLine
 10
145.80625
 20
-9.077167
 30
0.0
 11
145.897375
 21
-9.077167
 31
0.0
  0
LINE
  5
89
330
564
100
AcDbEntity
  8
Level 1
  6
Continuous
 62
     7
370
    13
100
AcDbLine
 10
145.963646
 20
-9.077167
 30
0.0
 11
146.049937
 21
-9.077167
 31
0.0
  0
LINE
  5
8A
330
564
100
AcDbEntity
  8
Level 1
  6
Continuous
 62
     7
370
    13
100
AcDbLine
 10
145.342354
 20
-9.304281
 30
0.0
 11
145.433479
 21
-9.304281
 31
0.0
  0
LINE
  5
8B
330
564
100
AcDbEntity
  8
Level 1
  6
Continuous
 62
     7
370
    13
100
AcDbLine
 10
145.491469
 20
-9.304281
 30
0.0
 11
145.572927
 21
-9.304281
 31
0.0
  0
LINE
  5
8C
330
564
100
AcDbEntity
  8
Level 1
  6
Continuous
 62
     7
370
    13
100
AcDbLine
 10
145.629531
 20
-9.304281
 30
0.0
 11
145.69925
 21
-9.304281
 31
0.0
  0
LINE
  5
8D
330
564
100
AcDbEntity
  8
Level 1
  6
Continuous
 62
     7
370
    13
100
AcDbLine
 10
145.756552
 20
-9.304281
 30
0.0
 11
145.83525
 21
-9.304281
 31
0.0
  0
LINE
  5
8E
330
564
100
AcDbEntity
  8
Level 1
  6
Continuous
 62
     7
370
    13
100
AcDbLine
 10
145.897375
 20
-9.304281
 30
0.0
 11
145.978833
 21
-9.304281
 31
0.0
  0
LINE
  5
8F
330
564
100
AcDbEntity
  8
Level 1
  6
Continuous
 62
     7
370
    13
100
AcDbLine
 10
146.031302
 20
-9.304281
 30
0.0
 11
146.054073
 21
-9.304281
 31
0.0
  0
LINE
  5
90
330
564
100
AcDbEntity
  8
Level 1
  6
Continuous
 62
     7
370
    13
100
AcDbLine
 10
143.417062
 20
-9.806833
 30
0.0
 11
143.417062
 21
-9.467896
 31
0.0
  0
LINE
  5
96
330
564
100
AcDbEntity
  8
Level 1
  6
Continuous
 62
     7
370
    13
100
AcDbLine
 10
145.18151
 20
-9.204875
 30
0.0
 11
145.18151
 21
-9.300146
 31
0.0
  0
LINE
  5
97
330
564
100
AcDbEntity
  8
Level 1
  6
Continuous
 62
     7
370
    13
100
AcDbLine
 10
141.212875
 20
-3.319917
 30
0.0
 11
145.339167
 21
-3.319917
 31
0.0
  0
LINE
  5
98
330
564
100
AcDbEntity
  8
Level 1
  6
Continuous
 62
     7
370
    13
100
AcDbLine
 10
140.738625
 20
-3.86526
 30
0.0
 11
145.858031
 21
-3.86526
 31
0.0
  0
LINE
  5
99
330
564
100
AcDbEntity
  8
Level 1
  6
Continuous
 62
     7
370
    13
100
AcDbLine
 10
140.752427
 20
-3.897708
 30
0.0
 11
145.848365
 21
-3.897708
 31
0.0
  0
LINE
  5
9A
330
564
100
AcDbEntity
  8
Level 1
  6
Continuous
 62
     7
370
    13
100
AcDbLine
 10
140.755885
 20
-3.94051
 30
0.0
 11
145.858031
 21
-3.94051
 31
0.0
  0
LINE
  5
9B
330
564
100
AcDbEntity
  8
Level 1
  6
Continuous
 62
     7
370
    13
100
AcDbLine
 10
140.760708
 20
-3.970187
 30
0.0
 11
145.861479
 21
-3.970187
 31
0.0
  0
LINE
  5
9C
330
564
100
AcDbEntity
  8
Level 1
  6
Continuous
 62
     7
370
    13
100
AcDbLine
 10
140.741385
 20
-5.007052
 30
0.0
 11
145.907042
 21
-5.007052
 31
0.0
  0
LINE
  5
9D
330
564
100
AcDbEntity
  8
Level 1
  6
Continuous
 62
     7
370
    13
100
AcDbLine
 10
140.74276
 20
-5.045021
 30
0.0
 11
145.912563
 21
-5.045021
 31
0.0
  0
LINE
  5
9E
330
564
100
AcDbEntity
  8
Level 1
  6
Continuous
 62
     7
370
    13
100
AcDbLine
 10
140.750354
 20
-5.084365
 30
0.0
 11
145.929823
 21
-5.084365
 31
0.0
  0
LINE
  5
9F
330
564
100
AcDbEntity
  8
Level 1
  6
Continuous
 62
     7
370
    13
100
AcDbLine
 10
140.753813
 20
-5.125781
 30
0.0
 11
145.914635
 21
-5.125781
 31
0.0
  0
LWPOLYLINE
  5
A4
330
564
100
AcDbEntity
  8
Level 1
  6
Continuous
 62
     7
370
    13
100
AcDbPolyline
 90
        3
 70
   128
 43
0.0
 10
141.015437
 20
-5.125781
 10
141.015437
 20
-5.190677
 10
140.913969
 20
-5.190677
  0
LINE
  5
A5
330
564
100
AcDbEntity
  8
Level 1
  6
Continuous
 62
     7
370
    13
100
AcDbLine
 10
140.913969
 20
-5.190677
 30
0.0
 11
140.913969
 21
-5.125781
 31
0.0
  0
LWPOLYLINE
  5
A6
330
564
100
AcDbEntity
  8
Level 1
  6
Continuous
 62
     7
370
    13
100
AcDbPolyline
 90
        4
 70
   128
 43
0.0
 10
140.913969
 20
-5.007052
 10
140.913969
 20
-4.935948
 10
141.015437
 20
-4.935948
 10
141.015437
 20
-5.007052
  0
LINE
  5
A7
330
564
100
AcDbEntity
  8
Level 1
  6
Continuous
 62
     7
370
    13
100
AcDbLine
 10
140.899469
 20
-4.041292
 30
0.0
 11
140.899469
 21
-3.970187
 31
0.0
  0
LWPOLYLINE
  5
A8
330
564
100
AcDbEntity
  8
Level 1
  6
Continuous
 62
     7
370
    13
100
AcDbPolyline
 90
        4
 70
   128
 43
0.0
 10
140.896021
 20
-3.86526
 10
140.896021
 20
-3.791396
 10
141.013375
 20
-3.791396
 10
141.013375
 20
-3.86526
  0
LWPOLYLINE
  5
A9
330
564
100
AcDbEntity
  8
Level 1
  6
Continuous
 62
     7
370
    13
100
AcDbPolyline
 90
        3
 70
   128
 43
0.0
 10
141.016823
 20
-3.970187
 10
141.016823
 20
-4.041292
 10
140.899469
 20
-4.041292
  0
LWPOLYLINE
  5
AA
330
564
100
AcDbEntity
  8
Level 1
  6
Continuous
 62
     7
370
    13
100
AcDbPolyline
 90
        3
 70
   128
 43
0.0
 10
145.636437
 20
-3.970187
 10
145.636437
 20
-4.041292
 10
145.518385
 20
-4.041292
  0
LWPOLYLINE
  5
AB
330
564
100
AcDbEntity
  8
Level 1
  6
Continuous
 62
     7
370
    13
100
AcDbPolyline
 90
        4
 70
   128
 43
0.0
 10
145.518385
 20
-3.86526
 10
145.518385
 20
-3.791396
 10
145.636437
 20
-3.791396
 10
145.636437
 20
-3.86526
  0
LINE
  5
AC
330
564
100
AcDbEntity
  8
Level 1
  6
Continuous
 62
     7
370
    13
100
AcDbLine
 10
145.518385
 20
-4.041292
 30
0.0
 11
145.518385
 21
-3.970187
 31
0.0
  0
LWPOLYLINE
  5
AD
330
564
100
AcDbEntity
  8
Level 1
  6
Continuous
 62
     7
370
    13
100
AcDbPolyline
 90
        4
 70
   128
 43
0.0
 10
145.532885
 20
-5.007052
 10
145.532885
 20
-4.935948
 10
145.634365
 20
-4.935948
 10
145.634365
 20
-5.007052
  0
LINE
  5
AE
330
564
100
AcDbEntity
  8
Level 1
  6
Continuous
 62
     7
370
    13
100
AcDbLine
 10
145.532885
 20
-5.190677
 30
0.0
 11
145.532885
 21
-5.125781
 31
0.0
  0
LWPOLYLINE
  5
AF
330
564
100
AcDbEntity
  8
Level 1
  6
Continuous
 62
     7
370
    13
100
AcDbPolyline
 90
        3
 70
   128
 43
0.0
 10
145.634365
 20
-5.125781
 10
145.634365
 20
-5.190677
 10
145.532885
 20
-5.190677
  0
LINE
  5
B4
330
564
100
AcDbEntity
  8
Level 1
  6
Continuous
 62
     7
370
    13
100
AcDbLine
 10
141.212875
 20
-5.628333
 30
0.0
 11
145.3395
 21
-5.628333
 31
0.0
  0
LINE
  5
B5
330
564
100
AcDbEntity
  8
Level 1
  6
Continuous
 62
     7
370
    13
100
AcDbLine
 10
141.440677
 20
-3.500083
 30
0.0
 11
141.440677
 21
-3.571187
 31
0.0
  0
LINE
  5
B6
330
564
100
AcDbEntity
  8
Level 1
  6
Continuous
 62
     7
370
    13
100
AcDbLine
 10
141.440677
 20
-5.460594
 30
0.0
 11
141.3675
 21
-5.460594
 31
0.0
  0
LINE
  5
B7
330
564
100
AcDbEntity
  8
Level 1
  6
Continuous
 62
     7
370
    13
100
AcDbLine
 10
141.266031
 20
-5.460594
 30
0.0
 11
141.266031
 21
-5.399156
 31
0.0
  0
LINE
  5
B8
330
564
100
AcDbEntity
  8
Level 1
  6
Continuous
 62
     7
370
    13
100
AcDbLine
 10
141.266031
 20
-3.500083
 30
0.0
 11
141.342656
 21
-3.500083
 31
0.0
  0
LINE
  5
B9
330
564
100
AcDbEntity
  8
Level 1
  6
Continuous
 62
     7
370
    13
100
AcDbLine
 10
141.658823
 20
-3.500083
 30
0.0
 11
141.736135
 21
-3.500083
 31
0.0
  0
LINE
  5
BA
330
564
100
AcDbEntity
  8
Level 1
  6
Continuous
 62
     7
370
    13
100
AcDbLine
 10
141.658823
 20
-5.460594
 30
0.0
 11
141.658823
 21
-5.397771
 31
0.0
  0
LINE
  5
BB
330
564
100
AcDbEntity
  8
Level 1
  6
Continuous
 62
     7
370
    13
100
AcDbLine
 10
141.833469
 20
-5.460594
 30
0.0
 11
141.759604
 21
-5.460594
 31
0.0
  0
LINE
  5
BC
330
564
100
AcDbEntity
  8
Level 1
  6
Continuous
 62
     7
370
    13
100
AcDbLine
 10
141.833469
 20
-3.500083
 30
0.0
 11
141.833469
 21
-3.5705
 31
0.0
  0
LINE
  5
BD
330
564
100
AcDbEntity
  8
Level 1
  6
Continuous
 62
     7
370
    13
100
AcDbLine
 10
142.239375
 20
-3.500083
 30
0.0
 11
142.239375
 21
-3.574635
 31
0.0
  0
LINE
  5
BE
330
564
100
AcDbEntity
  8
Level 1
  6
Continuous
 62
     7
370
    13
100
AcDbLine
 10
142.239375
 20
-5.460594
 30
0.0
 11
142.172417
 21
-5.460594
 31
0.0
  0
LINE
  5
BF
330
564
100
AcDbEntity
  8
Level 1
  6
Continuous
 62
     7
370
    13
100
AcDbLine
 10
142.064729
 20
-5.460594
 30
0.0
 11
142.064729
 21
-5.399156
 31
0.0
  0
LINE
  5
C0
330
564
100
AcDbEntity
  8
Level 1
  6
Continuous
 62
     7
370
    13
100
AcDbLine
 10
142.065417
 20
-3.500083
 30
0.0
 11
142.142729
 21
-3.500083
 31
0.0
  0
LINE
  5
C1
330
564
100
AcDbEntity
  8
Level 1
  6
Continuous
 62
     7
370
    13
100
AcDbLine
 10
142.449927
 20
-3.500083
 30
0.0
 11
142.516198
 21
-3.500083
 31
0.0
  0
LINE
  5
C2
330
564
100
AcDbEntity
  8
Level 1
  6
Continuous
 62
     7
370
    13
100
AcDbLine
 10
142.449927
 20
-5.460594
 30
0.0
 11
142.449927
 21
-5.400531
 31
0.0
  0
LINE
  5
C3
330
564
100
AcDbEntity
  8
Level 1
  6
Continuous
 62
     7
370
    13
100
AcDbLine
 10
142.624573
 20
-5.460594
 30
0.0
 11
142.552094
 21
-5.460594
 31
0.0
  0
LINE
  5
C4
330
564
100
AcDbEntity
  8
Level 1
  6
Continuous
 62
     7
370
    13
100
AcDbLine
 10
142.624573
 20
-3.500083
 30
0.0
 11
142.624573
 21
-3.574635
 31
0.0
  0
LINE
  5
C5
330
564
100
AcDbEntity
  8
Level 1
  6
Continuous
 62
     7
370
    13
100
AcDbLine
 10
143.015292
 20
-3.500083
 30
0.0
 11
143.015292
 21
-3.574635
 31
0.0
  0
LINE
  5
C6
330
564
100
AcDbEntity
  8
Level 1
  6
Continuous
 62
     7
370
    13
100
AcDbLine
 10
143.015292
 20
-5.460594
 30
0.0
 11
142.94074
 21
-5.460594
 31
0.0
  0
LINE
  5
C7
330
564
100
AcDbEntity
  8
Level 1
  6
Continuous
 62
     7
370
    13
100
AcDbLine
 10
142.841333
 20
-5.460594
 30
0.0
 11
142.841333
 21
-5.398458
 31
0.0
  0
LINE
  5
C8
330
564
100
AcDbEntity
  8
Level 1
  6
Continuous
 62
     7
370
    13
100
AcDbLine
 10
142.841333
 20
-3.500083
 30
0.0
 11
142.909677
 21
-3.500083
 31
0.0
  0
LINE
  5
C9
330
564
100
AcDbEntity
  8
Level 1
  6
Continuous
 62
     7
370
    13
100
AcDbLine
 10
143.213417
 20
-3.500083
 30
0.0
 11
143.290042
 21
-3.500083
 31
0.0
  0
LINE
  5
CA
330
564
100
AcDbEntity
  8
Level 1
  6
Continuous
 62
     7
370
    13
100
AcDbLine
 10
143.212729
 20
-5.460594
 30
0.0
 11
143.212729
 21
-5.394323
 31
0.0
  0
LINE
  5
CB
330
564
100
AcDbEntity
  8
Level 1
  6
Continuous
 62
     7
370
    13
100
AcDbLine
 10
143.387375
 20
-5.460594
 30
0.0
 11
143.312823
 21
-5.460594
 31
0.0
  0
LINE
  5
CC
330
564
100
AcDbEntity
  8
Level 1
  6
Continuous
 62
     7
370
    13
100
AcDbLine
 10
143.387375
 20
-3.500083
 30
0.0
 11
143.387375
 21
-3.574635
 31
0.0
  0
LINE
  5
CD
330
564
100
AcDbEntity
  8
Level 1
  6
Continuous
 62
     7
370
    13
100
AcDbLine
 10
143.788448
 20
-3.500083
 30
0.0
 11
143.788448
 21
-3.574635
 31
0.0
  0
LINE
  5
CE
330
564
100
AcDbEntity
  8
Level 1
  6
Continuous
 62
     7
370
    13
100
AcDbLine
 10
143.788448
 20
-5.460594
 30
0.0
 11
143.709062
 21
-5.460594
 31
0.0
  0
LINE
  5
CF
330
564
100
AcDbEntity
  8
Level 1
  6
Continuous
 62
     7
370
    13
100
AcDbLine
 10
143.613802
 20
-5.460594
 30
0.0
 11
143.613802
 21
-5.402604
 31
0.0
  0
LINE
  5
D0
330
564
100
AcDbEntity
  8
Level 1
  6
Continuous
 62
     7
370
    13
100
AcDbLine
 10
143.61449
 20
-3.500083
 30
0.0
 11
143.686281
 21
-3.500083
 31
0.0
  0
LINE
  5
D1
330
564
100
AcDbEntity
  8
Level 1
  6
Continuous
 62
     7
370
    13
100
AcDbLine
 10
144.014875
 20
-3.500083
 30
0.0
 11
144.090812
 21
-3.500083
 31
0.0
  0
LINE
  5
D2
330
564
100
AcDbEntity
  8
Level 1
  6
Continuous
 62
     7
370
    13
100
AcDbLine
 10
144.014875
 20
-5.460594
 30
0.0
 11
144.014875
 21
-5.415719
 31
0.0
  0
LINE
  5
D3
330
564
100
AcDbEntity
  8
Level 1
  6
Continuous
 62
     7
370
    13
100
AcDbLine
 10
144.188833
 20
-5.460594
 30
0.0
 11
144.116354
 21
-5.460594
 31
0.0
  0
LINE
  5
D4
330
564
100
AcDbEntity
  8
Level 1
  6
Continuous
 62
     7
370
    13
100
AcDbLine
 10
144.188833
 20
-3.500083
 30
0.0
 11
144.188833
 21
-3.574635
 31
0.0
  0
LINE
  5
D5
330
564
100
AcDbEntity
  8
Level 1
  6
Continuous
 62
     7
370
    13
100
AcDbLine
 10
144.56299
 20
-3.500083
 30
0.0
 11
144.56299
 21
-3.578094
 31
0.0
  0
LINE
  5
D6
330
564
100
AcDbEntity
  8
Level 1
  6
Continuous
 62
     7
370
    13
100
AcDbLine
 10
144.56299
 20
-5.460594
 30
0.0
 11
144.484979
 21
-5.460594
 31
0.0
  0
LINE
  5
D7
330
564
100
AcDbEntity
  8
Level 1
  6
Continuous
 62
     7
370
    13
100
AcDbLine
 10
144.388344
 20
-5.460594
 30
0.0
 11
144.388344
 21
-5.410198
 31
0.0
  0
LINE
  5
D8
330
564
100
AcDbEntity
  8
Level 1
  6
Continuous
 62
     7
370
    13
100
AcDbLine
 10
144.389031
 20
-3.500083
 30
0.0
 11
144.464969
 21
-3.500083
 31
0.0
  0
LINE
  5
D9
330
564
100
AcDbEntity
  8
Level 1
  6
Continuous
 62
     7
370
    13
100
AcDbLine
 10
144.771469
 20
-3.500083
 30
0.0
 11
144.83774
 21
-3.500083
 31
0.0
  0
LINE
  5
DA
330
564
100
AcDbEntity
  8
Level 1
  6
Continuous
 62
     7
370
    13
100
AcDbLine
 10
144.771469
 20
-5.460594
 30
0.0
 11
144.771469
 21
-5.410198
 31
0.0
  0
LINE
  5
DB
330
564
100
AcDbEntity
  8
Level 1
  6
Continuous
 62
     7
370
    13
100
AcDbLine
 10
144.946115
 20
-5.460594
 30
0.0
 11
144.866042
 21
-5.460594
 31
0.0
  0
LINE
  5
DC
330
564
100
AcDbEntity
  8
Level 1
  6
Continuous
 62
     7
370
    13
100
AcDbLine
 10
144.946115
 20
-3.500083
 30
0.0
 11
144.946115
 21
-3.578094
 31
0.0
  0
LINE
  5
DD
330
564
100
AcDbEntity
  8
Level 1
  6
Continuous
 62
     7
370
    13
100
AcDbLine
 10
145.329937
 20
-3.500083
 30
0.0
 11
145.329937
 21
-3.578094
 31
0.0
  0
LINE
  5
DE
330
564
100
AcDbEntity
  8
Level 1
  6
Continuous
 62
     7
370
    13
100
AcDbLine
 10
145.329937
 20
-5.460594
 30
0.0
 11
145.249854
 21
-5.460594
 31
0.0
  0
LINE
  5
DF
330
564
100
AcDbEntity
  8
Level 1
  6
Continuous
 62
     7
370
    13
100
AcDbLine
 10
145.155281
 20
-5.460594
 30
0.0
 11
145.155281
 21
-5.417792
 31
0.0
  0
LINE
  5
E0
330
564
100
AcDbEntity
  8
Level 1
  6
Continuous
 62
     7
370
    13
100
AcDbLine
 10
145.155969
 20
-3.500083
 30
0.0
 11
145.22224
 21
-3.500083
 31
0.0
  0
LINE
  5
E1
330
564
100
AcDbEntity
  8
Level 1
  6
Continuous
 62
     7
370
    13
100
AcDbLine
 10
141.266031
 20
-3.86526
 30
0.0
 11
141.266031
 21
-3.794854
 31
0.0
  0
LINE
  5
E2
330
564
100
AcDbEntity
  8
Level 1
  6
Continuous
 62
     7
370
    13
100
AcDbLine
 10
141.440677
 20
-3.970187
 30
0.0
 11
141.440677
 21
-4.006781
 31
0.0
  0
LINE
  5
E3
330
564
100
AcDbEntity
  8
Level 1
  6
Continuous
 62
     7
370
    13
100
AcDbLine
 10
141.658823
 20
-3.863885
 30
0.0
 11
141.658823
 21
-3.794156
 31
0.0
  0
LINE
  5
E4
330
564
100
AcDbEntity
  8
Level 1
  6
Continuous
 62
     7
370
    13
100
AcDbLine
 10
141.833469
 20
-3.970187
 30
0.0
 11
141.833469
 21
-4.006781
 31
0.0
  0
LINE
  5
E5
330
564
100
AcDbEntity
  8
Level 1
  6
Continuous
 62
     7
370
    13
100
AcDbLine
 10
142.064729
 20
-3.86526
 30
0.0
 11
142.064729
 21
-3.794156
 31
0.0
  0
LINE
  5
E6
330
564
100
AcDbEntity
  8
Level 1
  6
Continuous
 62
     7
370
    13
100
AcDbLine
 10
142.239375
 20
-3.970187
 30
0.0
 11
142.239375
 21
-4.006781
 31
0.0
  0
LINE
  5
E7
330
564
100
AcDbEntity
  8
Level 1
  6
Continuous
 62
     7
370
    13
100
AcDbLine
 10
142.449927
 20
-3.86526
 30
0.0
 11
142.449927
 21
-3.797615
 31
0.0
  0
LINE
  5
E8
330
564
100
AcDbEntity
  8
Level 1
  6
Continuous
 62
     7
370
    13
100
AcDbLine
 10
142.624573
 20
-3.970187
 30
0.0
 11
142.624573
 21
-4.006781
 31
0.0
  0
LINE
  5
E9
330
564
100
AcDbEntity
  8
Level 1
  6
Continuous
 62
     7
370
    13
100
AcDbLine
 10
142.841333
 20
-3.86526
 30
0.0
 11
142.841333
 21
-3.794156
 31
0.0
  0
LINE
  5
EA
330
564
100
AcDbEntity
  8
Level 1
  6
Continuous
 62
     7
370
    13
100
AcDbLine
 10
143.015292
 20
-3.970187
 30
0.0
 11
143.015292
 21
-4.006781
 31
0.0
  0
LINE
  5
EB
330
564
100
AcDbEntity
  8
Level 1
  6
Continuous
 62
     7
370
    13
100
AcDbLine
 10
143.212729
 20
-3.86526
 30
0.0
 11
143.212729
 21
-3.797615
 31
0.0
  0
LINE
  5
EC
330
564
100
AcDbEntity
  8
Level 1
  6
Continuous
 62
     7
370
    13
100
AcDbLine
 10
143.387375
 20
-3.970187
 30
0.0
 11
143.387375
 21
-4.01851
 31
0.0
  0
LINE
  5
ED
330
564
100
AcDbEntity
  8
Level 1
  6
Continuous
 62
     7
370
    13
100
AcDbLine
 10
143.613802
 20
-3.86526
 30
0.0
 11
143.613802
 21
-3.801063
 31
0.0
  0
LINE
  5
EE
330
564
100
AcDbEntity
  8
Level 1
  6
Continuous
 62
     7
370
    13
100
AcDbLine
 10
143.788448
 20
-3.970885
 30
0.0
 11
143.788448
 21
-4.044052
 31
0.0
  0
LINE
  5
EF
330
564
100
AcDbEntity
  8
Level 1
  6
Continuous
 62
     7
370
    13
100
AcDbLine
 10
144.014875
 20
-3.86526
 30
0.0
 11
144.014875
 21
-3.797615
 31
0.0
  0
LINE
  5
F0
330
564
100
AcDbEntity
  8
Level 1
  6
Continuous
 62
     7
370
    13
100
AcDbLine
 10
144.188833
 20
-3.970187
 30
0.0
 11
144.188833
 21
-4.044052
 31
0.0
  0
LINE
  5
F1
330
564
100
AcDbEntity
  8
Level 1
  6
Continuous
 62
     7
370
    13
100
AcDbLine
 10
144.388344
 20
-3.86526
 30
0.0
 11
144.388344
 21
-3.798302
 31
0.0
  0
LINE
  5
F2
330
564
100
AcDbEntity
  8
Level 1
  6
Continuous
 62
     7
370
    13
100
AcDbLine
 10
144.56299
 20
-3.970187
 30
0.0
 11
144.56299
 21
-4.050958
 31
0.0
  0
LINE
  5
F3
330
564
100
AcDbEntity
  8
Level 1
  6
Continuous
 62
     7
370
    13
100
AcDbLine
 10
144.388344
 20
-5.007052
 30
0.0
 11
144.388344
 21
-4.94699
 31
0.0
  0
LINE
  5
F4
330
564
100
AcDbEntity
  8
Level 1
  6
Continuous
 62
     7
370
    13
100
AcDbLine
 10
144.56299
 20
-5.125781
 30
0.0
 11
144.56299
 21
-5.201031
 31
0.0
  0
LINE
  5
F5
330
564
100
AcDbEntity
  8
Level 1
  6
Continuous
 62
     7
370
    13
100
AcDbLine
 10
144.188833
 20
-5.125781
 30
0.0
 11
144.188833
 21
-5.165135
 31
0.0
  0
LINE
  5
F6
330
564
100
AcDbEntity
  8
Level 1
  6
Continuous
 62
     7
370
    13
100
AcDbLine
 10
144.014875
 20
-5.007052
 30
0.0
 11
144.014875
 21
-4.940094
 31
0.0
  0
LINE
  5
F7
330
564
100
AcDbEntity
  8
Level 1
  6
Continuous
 62
     7
370
    13
100
AcDbLine
 10
143.788448
 20
-5.125781
 30
0.0
 11
143.788448
 21
-5.165135
 31
0.0
  0
LINE
  5
F8
330
564
100
AcDbEntity
  8
Level 1
  6
Continuous
 62
     7
370
    13
100
AcDbLine
 10
143.613802
 20
-5.007052
 30
0.0
 11
143.613802
 21
-4.940094
 31
0.0
  0
LINE
  5
F9
330
564
100
AcDbEntity
  8
Level 1
  6
Continuous
 62
     7
370
    13
100
AcDbLine
 10
143.387375
 20
-5.125781
 30
0.0
 11
143.387375
 21
-5.165135
 31
0.0
  0
LINE
  5
FA
330
564
100
AcDbEntity
  8
Level 1
  6
Continuous
 62
     7
370
    13
100
AcDbLine
 10
143.212729
 20
-5.007052
 30
0.0
 11
143.212729
 21
-4.94699
 31
0.0
  0
LINE
  5
FB
330
564
100
AcDbEntity
  8
Level 1
  6
Continuous
 62
     7
370
    13
100
AcDbLine
 10
143.015292
 20
-5.125781
 30
0.0
 11
143.015292
 21
-5.169271
 31
0.0
  0
LINE
  5
FC
330
564
100
AcDbEntity
  8
Level 1
  6
Continuous
 62
     7
370
    13
100
AcDbLine
 10
142.841333
 20
-5.007052
 30
0.0
 11
142.841333
 21
-4.941469
 31
0.0
  0
LINE
  5
FD
330
564
100
AcDbEntity
  8
Level 1
  6
Continuous
 62
     7
370
    13
100
AcDbLine
 10
142.624573
 20
-5.125781
 30
0.0
 11
142.624573
 21
-5.170656
 31
0.0
  0
LINE
  5
FE
330
564
100
AcDbEntity
  8
Level 1
  6
Continuous
 62
     7
370
    13
100
AcDbLine
 10
142.449927
 20
-5.007052
 30
0.0
 11
142.449927
 21
-4.946302
 31
0.0
  0
LINE
  5
FF
330
564
100
AcDbEntity
  8
Level 1
  6
Continuous
 62
     7
370
    13
100
AcDbLine
 10
142.239375
 20
-5.125781
 30
0.0
 11
142.239375
 21
-5.16375
 31
0.0
  0
LINE
  5
100
330
564
100
AcDbEntity
  8
Level 1
  6
Continuous
 62
     7
370
    13
100
AcDbLine
 10
142.064729
 20
-5.007052
 30
0.0
 11
142.064729
 21
-4.941469
 31
0.0
  0
LINE
  5
101
330
564
100
AcDbEntity
  8
Level 1
  6
Continuous
 62
     7
370
    13
100
AcDbLine
 10
141.833469
 20
-5.125781
 30
0.0
 11
141.833469
 21
-5.164448
 31
0.0
  0
LINE
  5
102
330
564
100
AcDbEntity
  8
Level 1
  6
Continuous
 62
     7
370
    13
100
AcDbLine
 10
141.658823
 20
-5.007052
 30
0.0
 11
141.658823
 21
-4.946302
 31
0.0
  0
LINE
  5
103
330
564
100
AcDbEntity
  8
Level 1
  6
Continuous
 62
     7
370
    13
100
AcDbLine
 10
141.440677
 20
-5.125781
 30
0.0
 11
141.440677
 21
-5.153396
 31
0.0
  0
LINE
  5
104
330
564
100
AcDbEntity
  8
Level 1
  6
Continuous
 62
     7
370
    13
100
AcDbLine
 10
141.266031
 20
-5.007052
 30
0.0
 11
141.266031
 21
-4.941469
 31
0.0
  0
LWPOLYLINE
  5
105
330
564
100
AcDbEntity
  8
Level 1
  6
Continuous
 62
     7
370
    13
100
AcDbPolyline
 90
        4
 70
   128
 43
0.0
 10
141.036844
 20
-5.125781
 10
141.036844
 20
-5.459896
 10
140.895323
 20
-5.459896
 10
140.895323
 20
-5.125781
  0
LINE
  5
106
330
564
100
AcDbEntity
  8
Level 1
  6
Continuous
 62
     7
370
    13
100
AcDbLine
 10
141.036844
 20
-3.970187
 30
0.0
 11
141.036844
 21
-5.007052
 31
0.0
  0
LINE
  5
107
330
564
100
AcDbEntity
  8
Level 1
  6
Continuous
 62
     7
370
    13
100
AcDbLine
 10
140.895323
 20
-5.007052
 30
0.0
 11
140.895323
 21
-3.970187
 31
0.0
  0
LINE
  5
108
330
564
100
AcDbEntity
  8
Level 1
  6
Continuous
 62
     7
370
    13
100
AcDbLine
 10
140.891875
 20
-3.86526
 30
0.0
 11
140.891875
 21
-3.497323
 31
0.0
  0
LINE
  5
109
330
564
100
AcDbEntity
  8
Level 1
  6
Continuous
 62
     7
370
    13
100
AcDbLine
 10
141.21425
 20
-3.325438
 30
0.0
 11
141.21425
 21
-3.776906
 31
0.0
  0
LWPOLYLINE
  5
10A
330
564
100
AcDbEntity
  8
Level 1
  6
Continuous
 62
     7
370
    13
100
AcDbPolyline
 90
        3
 70
   128
 43
0.0
 10
140.892562
 20
-3.497323
 10
141.033385
 20
-3.497323
 10
141.033385
 20
-3.86526
  0
LINE
  5
10B
330
564
100
AcDbEntity
  8
Level 1
  6
Continuous
 62
     7
370
    13
100
AcDbLine
 10
141.365437
 20
-3.500083
 30
0.0
 11
141.440677
 21
-3.500083
 31
0.0
  0
LINE
  5
10C
330
564
100
AcDbEntity
  8
Level 1
  6
Continuous
 62
     7
370
    13
100
AcDbLine
 10
141.764437
 20
-3.500083
 30
0.0
 11
141.833469
 21
-3.500083
 31
0.0
  0
LINE
  5
10D
330
564
100
AcDbEntity
  8
Level 1
  6
Continuous
 62
     7
370
    13
100
AcDbLine
 10
141.266031
 20
-3.574635
 30
0.0
 11
141.266031
 21
-3.502844
 31
0.0
  0
LINE
  5
10E
330
564
100
AcDbEntity
  8
Level 1
  6
Continuous
 62
     7
370
    13
100
AcDbLine
 10
141.266031
 20
-3.657479
 30
0.0
 11
141.266031
 21
-3.596729
 31
0.0
  0
LINE
  5
10F
330
564
100
AcDbEntity
  8
Level 1
  6
Continuous
 62
     7
370
    13
100
AcDbLine
 10
141.266031
 20
-3.761719
 30
0.0
 11
141.266031
 21
-3.691302
 31
0.0
  0
LINE
  5
110
330
564
100
AcDbEntity
  8
Level 1
  6
Continuous
 62
     7
370
    13
100
AcDbLine
 10
141.440677
 20
-3.594656
 30
0.0
 11
141.440677
 21
-3.656792
 31
0.0
  0
LINE
  5
111
330
564
100
AcDbEntity
  8
Level 1
  6
Continuous
 62
     7
370
    13
100
AcDbLine
 10
141.440677
 20
-3.692687
 30
0.0
 11
141.440677
 21
-3.761021
 31
0.0
  0
LINE
  5
112
330
564
100
AcDbEntity
  8
Level 1
  6
Continuous
 62
     7
370
    13
100
AcDbLine
 10
141.440677
 20
-3.796229
 30
0.0
 11
141.440677
 21
-3.86526
 31
0.0
  0
LINE
  5
113
330
564
100
AcDbEntity
  8
Level 1
  6
Continuous
 62
     7
370
    13
100
AcDbLine
 10
141.658823
 20
-3.761021
 30
0.0
 11
141.658823
 21
-3.696135
 31
0.0
  0
LINE
  5
114
330
564
100
AcDbEntity
  8
Level 1
  6
Continuous
 62
     7
370
    13
100
AcDbLine
 10
141.658823
 20
-3.659552
 30
0.0
 11
141.658823
 21
-3.596729
 31
0.0
  0
LINE
  5
115
330
564
100
AcDbEntity
  8
Level 1
  6
Continuous
 62
     7
370
    13
100
AcDbLine
 10
141.658823
 20
-3.5705
 30
0.0
 11
141.658823
 21
-3.502844
 31
0.0
  0
LINE
  5
116
330
564
100
AcDbEntity
  8
Level 1
  6
Continuous
 62
     7
370
    13
100
AcDbLine
 10
141.833469
 20
-3.596729
 30
0.0
 11
141.833469
 21
-3.657479
 31
0.0
  0
LINE
  5
117
330
564
100
AcDbEntity
  8
Level 1
  6
Continuous
 62
     7
370
    13
100
AcDbLine
 10
141.833469
 20
-3.694062
 30
0.0
 11
141.833469
 21
-3.7555
 31
0.0
  0
LINE
  5
118
330
564
100
AcDbEntity
  8
Level 1
  6
Continuous
 62
     7
370
    13
100
AcDbLine
 10
141.833469
 20
-3.791396
 30
0.0
 11
141.833469
 21
-3.86526
 31
0.0
  0
LINE
  5
119
330
564
100
AcDbEntity
  8
Level 1
  6
Continuous
 62
     7
370
    13
100
AcDbLine
 10
141.21425
 20
-4.060625
 30
0.0
 11
141.21425
 21
-4.911094
 31
0.0
  0
LINE
  5
11A
330
564
100
AcDbEntity
  8
Level 1
  6
Continuous
 62
     7
370
    13
100
AcDbLine
 10
141.21425
 20
-5.217594
 30
0.0
 11
141.21425
 21
-5.626271
 31
0.0
  0
LINE
  5
11B
330
564
100
AcDbEntity
  8
Level 1
  6
Continuous
 62
     7
370
    13
100
AcDbLine
 10
141.337125
 20
-5.460594
 30
0.0
 11
141.266031
 21
-5.460594
 31
0.0
  0
LINE
  5
11C
330
564
100
AcDbEntity
  8
Level 1
  6
Continuous
 62
     7
370
    13
100
AcDbLine
 10
141.728542
 20
-5.460594
 30
0.0
 11
141.658823
 21
-5.460594
 31
0.0
  0
LINE
  5
11D
330
564
100
AcDbEntity
  8
Level 1
  6
Continuous
 62
     7
370
    13
100
AcDbLine
 10
142.137896
 20
-5.460594
 30
0.0
 11
142.064729
 21
-5.460594
 31
0.0
  0
LINE
  5
11E
330
564
100
AcDbEntity
  8
Level 1
  6
Continuous
 62
     7
370
    13
100
AcDbLine
 10
142.523094
 20
-5.460594
 30
0.0
 11
142.449927
 21
-5.460594
 31
0.0
  0
LINE
  5
11F
330
564
100
AcDbEntity
  8
Level 1
  6
Continuous
 62
     7
370
    13
100
AcDbLine
 10
141.266031
 20
-5.369469
 30
0.0
 11
141.266031
 21
-5.288698
 31
0.0
  0
LINE
  5
120
330
564
100
AcDbEntity
  8
Level 1
  6
Continuous
 62
     7
370
    13
100
AcDbLine
 10
141.440677
 20
-5.397771
 30
0.0
 11
141.440677
 21
-5.460594
 31
0.0
  0
LINE
  5
121
330
564
100
AcDbEntity
  8
Level 1
  6
Continuous
 62
     7
370
    13
100
AcDbLine
 10
141.658823
 20
-5.366021
 30
0.0
 11
141.658823
 21
-5.303198
 31
0.0
  0
LINE
  5
122
330
564
100
AcDbEntity
  8
Level 1
  6
Continuous
 62
     7
370
    13
100
AcDbLine
 10
142.064729
 20
-5.36326
 30
0.0
 11
142.064729
 21
-5.293531
 31
0.0
  0
LINE
  5
123
330
564
100
AcDbEntity
  8
Level 1
  6
Continuous
 62
     7
370
    13
100
AcDbLine
 10
142.239375
 20
-5.405365
 30
0.0
 11
142.239375
 21
-5.460594
 31
0.0
  0
LINE
  5
124
330
564
100
AcDbEntity
  8
Level 1
  6
Continuous
 62
     7
370
    13
100
AcDbLine
 10
142.449927
 20
-5.357042
 30
0.0
 11
142.449927
 21
-5.28249
 31
0.0
  0
LINE
  5
125
330
564
100
AcDbEntity
  8
Level 1
  6
Continuous
 62
     7
370
    13
100
AcDbLine
 10
141.266031
 20
-5.247969
 30
0.0
 11
141.266031
 21
-5.18101
 31
0.0
  0
LINE
  5
126
330
564
100
AcDbEntity
  8
Level 1
  6
Continuous
 62
     7
370
    13
100
AcDbLine
 10
141.266031
 20
-5.144427
 30
0.0
 11
141.266031
 21
-5.125781
 31
0.0
  0
LINE
  5
127
330
564
100
AcDbEntity
  8
Level 1
  6
Continuous
 62
     7
370
    13
100
AcDbLine
 10
141.440677
 20
-5.185156
 30
0.0
 11
141.440677
 21
-5.247281
 31
0.0
  0
LINE
  5
128
330
564
100
AcDbEntity
  8
Level 1
  6
Continuous
 62
     7
370
    13
100
AcDbLine
 10
141.440677
 20
-5.281802
 30
0.0
 11
141.440677
 21
-5.367396
 31
0.0
  0
LINE
  5
129
330
564
100
AcDbEntity
  8
Level 1
  6
Continuous
 62
     7
370
    13
100
AcDbLine
 10
141.658823
 20
-5.263156
 30
0.0
 11
141.658823
 21
-5.186531
 31
0.0
  0
LINE
  5
12A
330
564
100
AcDbEntity
  8
Level 1
  6
Continuous
 62
     7
370
    13
100
AcDbLine
 10
141.658823
 20
-5.158229
 30
0.0
 11
141.658823
 21
-5.125781
 31
0.0
  0
LINE
  5
12B
330
564
100
AcDbEntity
  8
Level 1
  6
Continuous
 62
     7
370
    13
100
AcDbLine
 10
141.833469
 20
-5.192052
 30
0.0
 11
141.833469
 21
-5.254187
 31
0.0
  0
LINE
  5
12C
330
564
100
AcDbEntity
  8
Level 1
  6
Continuous
 62
     7
370
    13
100
AcDbLine
 10
141.833469
 20
-5.29699
 30
0.0
 11
141.833469
 21
-5.351521
 31
0.0
  0
LINE
  5
12D
330
564
100
AcDbEntity
  8
Level 1
  6
Continuous
 62
     7
370
    13
100
AcDbLine
 10
141.833469
 20
-5.390865
 30
0.0
 11
141.833469
 21
-5.460594
 31
0.0
  0
LINE
  5
12E
330
564
100
AcDbEntity
  8
Level 1
  6
Continuous
 62
     7
370
    13
100
AcDbLine
 10
142.064729
 20
-5.258323
 30
0.0
 11
142.064729
 21
-5.192052
 31
0.0
  0
LINE
  5
12F
330
564
100
AcDbEntity
  8
Level 1
  6
Continuous
 62
     7
370
    13
100
AcDbLine
 10
142.064729
 20
-5.164448
 30
0.0
 11
142.064729
 21
-5.125781
 31
0.0
  0
LINE
  5
130
330
564
100
AcDbEntity
  8
Level 1
  6
Continuous
 62
     7
370
    13
100
AcDbLine
 10
142.239375
 20
-5.191365
 30
0.0
 11
142.239375
 21
-5.261781
 31
0.0
  0
LINE
  5
131
330
564
100
AcDbEntity
  8
Level 1
  6
Continuous
 62
     7
370
    13
100
AcDbLine
 10
142.239375
 20
-5.295604
 30
0.0
 11
142.239375
 21
-5.361875
 31
0.0
  0
LINE
  5
132
330
564
100
AcDbEntity
  8
Level 1
  6
Continuous
 62
     7
370
    13
100
AcDbLine
 10
142.449927
 20
-5.254875
 30
0.0
 11
142.449927
 21
-5.187229
 31
0.0
  0
LINE
  5
133
330
564
100
AcDbEntity
  8
Level 1
  6
Continuous
 62
     7
370
    13
100
AcDbLine
 10
142.449927
 20
-5.163062
 30
0.0
 11
142.449927
 21
-5.125781
 31
0.0
  0
LINE
  5
134
330
564
100
AcDbEntity
  8
Level 1
  6
Continuous
 62
     7
370
    13
100
AcDbLine
 10
142.624573
 20
-5.197583
 30
0.0
 11
142.624573
 21
-5.249354
 31
0.0
  0
LINE
  5
135
330
564
100
AcDbEntity
  8
Level 1
  6
Continuous
 62
     7
370
    13
100
AcDbLine
 10
142.624573
 20
-5.281104
 30
0.0
 11
142.624573
 21
-5.358427
 31
0.0
  0
LINE
  5
136
330
564
100
AcDbEntity
  8
Level 1
  6
Continuous
 62
     7
370
    13
100
AcDbLine
 10
142.624573
 20
-5.397083
 30
0.0
 11
142.624573
 21
-5.460594
 31
0.0
  0
LINE
  5
137
330
564
100
AcDbEntity
  8
Level 1
  6
Continuous
 62
     7
370
    13
100
AcDbLine
 10
142.915885
 20
-5.460594
 30
0.0
 11
142.841333
 21
-5.460594
 31
0.0
  0
LINE
  5
138
330
564
100
AcDbEntity
  8
Level 1
  6
Continuous
 62
     7
370
    13
100
AcDbLine
 10
143.280375
 20
-5.460594
 30
0.0
 11
143.212729
 21
-5.460594
 31
0.0
  0
LINE
  5
139
330
564
100
AcDbEntity
  8
Level 1
  6
Continuous
 62
     7
370
    13
100
AcDbLine
 10
143.684208
 20
-5.460594
 30
0.0
 11
143.613802
 21
-5.460594
 31
0.0
  0
LINE
  5
13A
330
564
100
AcDbEntity
  8
Level 1
  6
Continuous
 62
     7
370
    13
100
AcDbLine
 10
144.088052
 20
-5.460594
 30
0.0
 11
144.014875
 21
-5.460594
 31
0.0
  0
LINE
  5
13B
330
564
100
AcDbEntity
  8
Level 1
  6
Continuous
 62
     7
370
    13
100
AcDbLine
 10
142.841333
 20
-5.359802
 30
0.0
 11
142.841333
 21
-5.276969
 31
0.0
  0
LINE
  5
13C
330
564
100
AcDbEntity
  8
Level 1
  6
Continuous
 62
     7
370
    13
100
AcDbLine
 10
142.841333
 20
-5.251427
 30
0.0
 11
142.841333
 21
-5.190677
 31
0.0
  0
LINE
  5
13D
330
564
100
AcDbEntity
  8
Level 1
  6
Continuous
 62
     7
370
    13
100
AcDbLine
 10
142.841333
 20
-5.169271
 30
0.0
 11
142.841333
 21
-5.125781
 31
0.0
  0
LINE
  5
13E
330
564
100
AcDbEntity
  8
Level 1
  6
Continuous
 62
     7
370
    13
100
AcDbLine
 10
143.015292
 20
-5.199646
 30
0.0
 11
143.015292
 21
-5.247281
 31
0.0
  0
LINE
  5
13F
330
564
100
AcDbEntity
  8
Level 1
  6
Continuous
 62
     7
370
    13
100
AcDbLine
 10
143.015292
 20
-5.285938
 30
0.0
 11
143.015292
 21
-5.354969
 31
0.0
  0
LINE
  5
140
330
564
100
AcDbEntity
  8
Level 1
  6
Continuous
 62
     7
370
    13
100
AcDbLine
 10
143.015292
 20
-5.402604
 30
0.0
 11
143.015292
 21
-5.460594
 31
0.0
  0
LINE
  5
141
330
564
100
AcDbEntity
  8
Level 1
  6
Continuous
 62
     7
370
    13
100
AcDbLine
 10
143.212729
 20
-5.368083
 30
0.0
 11
143.212729
 21
-5.285938
 31
0.0
  0
LINE
  5
142
330
564
100
AcDbEntity
  8
Level 1
  6
Continuous
 62
     7
370
    13
100
AcDbLine
 10
143.212729
 20
-5.255562
 30
0.0
 11
143.212729
 21
-5.186531
 31
0.0
  0
LINE
  5
143
330
564
100
AcDbEntity
  8
Level 1
  6
Continuous
 62
     7
370
    13
100
AcDbLine
 10
143.212729
 20
-5.165135
 30
0.0
 11
143.212729
 21
-5.125781
 31
0.0
  0
LINE
  5
144
330
564
100
AcDbEntity
  8
Level 1
  6
Continuous
 62
     7
370
    13
100
AcDbLine
 10
143.387375
 20
-5.19551
 30
0.0
 11
143.387375
 21
-5.259708
 31
0.0
  0
LINE
  5
145
330
564
100
AcDbEntity
  8
Level 1
  6
Continuous
 62
     7
370
    13
100
AcDbLine
 10
143.387375
 20
-5.281802
 30
0.0
 11
143.387375
 21
-5.359802
 31
0.0
  0
LINE
  5
146
330
564
100
AcDbEntity
  8
Level 1
  6
Continuous
 62
     7
370
    13
100
AcDbLine
 10
143.387375
 20
-5.394323
 30
0.0
 11
143.387375
 21
-5.460594
 31
0.0
  0
LINE
  5
147
330
564
100
AcDbEntity
  8
Level 1
  6
Continuous
 62
     7
370
    13
100
AcDbLine
 10
143.613802
 20
-5.165135
 30
0.0
 11
143.613802
 21
-5.125781
 31
0.0
  0
LINE
  5
148
330
564
100
AcDbEntity
  8
Level 1
  6
Continuous
 62
     7
370
    13
100
AcDbLine
 10
143.613802
 20
-5.259708
 30
0.0
 11
143.613802
 21
-5.199646
 31
0.0
  0
LINE
  5
149
330
564
100
AcDbEntity
  8
Level 1
  6
Continuous
 62
     7
370
    13
100
AcDbLine
 10
143.613802
 20
-5.368083
 30
0.0
 11
143.613802
 21
-5.285938
 31
0.0
  0
LINE
  5
14A
330
564
100
AcDbEntity
  8
Level 1
  6
Continuous
 62
     7
370
    13
100
AcDbLine
 10
143.788448
 20
-5.411573
 30
0.0
 11
143.788448
 21
-5.460594
 31
0.0
  0
LINE
  5
14B
330
564
100
AcDbEntity
  8
Level 1
  6
Continuous
 62
     7
370
    13
100
AcDbLine
 10
143.788448
 20
-5.285938
 30
0.0
 11
143.788448
 21
-5.372229
 31
0.0
  0
LINE
  5
14C
330
564
100
AcDbEntity
  8
Level 1
  6
Continuous
 62
     7
370
    13
100
AcDbLine
 10
143.788448
 20
-5.199646
 30
0.0
 11
143.788448
 21
-5.259708
 31
0.0
  0
LINE
  5
14D
330
564
100
AcDbEntity
  8
Level 1
  6
Continuous
 62
     7
370
    13
100
AcDbLine
 10
144.014875
 20
-5.165135
 30
0.0
 11
144.014875
 21
-5.125781
 31
0.0
  0
LINE
  5
14E
330
564
100
AcDbEntity
  8
Level 1
  6
Continuous
 62
     7
370
    13
100
AcDbLine
 10
144.014875
 20
-5.259708
 30
0.0
 11
144.014875
 21
-5.199646
 31
0.0
  0
LINE
  5
14F
330
564
100
AcDbEntity
  8
Level 1
  6
Continuous
 62
     7
370
    13
100
AcDbLine
 10
144.014875
 20
-5.372229
 30
0.0
 11
144.014875
 21
-5.285938
 31
0.0
  0
LINE
  5
150
330
564
100
AcDbEntity
  8
Level 1
  6
Continuous
 62
     7
370
    13
100
AcDbLine
 10
144.188833
 20
-5.199646
 30
0.0
 11
144.188833
 21
-5.259708
 31
0.0
  0
LINE
  5
151
330
564
100
AcDbEntity
  8
Level 1
  6
Continuous
 62
     7
370
    13
100
AcDbLine
 10
144.188833
 20
-5.285938
 30
0.0
 11
144.188833
 21
-5.372229
 31
0.0
  0
LINE
  5
152
330
564
100
AcDbEntity
  8
Level 1
  6
Continuous
 62
     7
370
    13
100
AcDbLine
 10
144.188833
 20
-5.415719
 30
0.0
 11
144.188833
 21
-5.460594
 31
0.0
  0
LINE
  5
153
330
564
100
AcDbEntity
  8
Level 1
  6
Continuous
 62
     7
370
    13
100
AcDbLine
 10
144.459438
 20
-5.460594
 30
0.0
 11
144.388344
 21
-5.460594
 31
0.0
  0
LINE
  5
154
330
564
100
AcDbEntity
  8
Level 1
  6
Continuous
 62
     7
370
    13
100
AcDbLine
 10
144.83774
 20
-5.460594
 30
0.0
 11
144.771469
 21
-5.460594
 31
0.0
  0
LINE
  5
155
330
564
100
AcDbEntity
  8
Level 1
  6
Continuous
 62
     7
370
    13
100
AcDbLine
 10
145.225
 20
-5.460594
 30
0.0
 11
145.155281
 21
-5.460594
 31
0.0
  0
LINE
  5
156
330
564
100
AcDbEntity
  8
Level 1
  6
Continuous
 62
     7
370
    13
100
AcDbLine
 10
144.388344
 20
-5.383271
 30
0.0
 11
144.388344
 21
-5.305958
 31
0.0
  0
LINE
  5
157
330
564
100
AcDbEntity
  8
Level 1
  6
Continuous
 62
     7
370
    13
100
AcDbLine
 10
144.388344
 20
-5.274896
 30
0.0
 11
144.388344
 21
-5.232094
 31
0.0
  0
LINE
  5
158
330
564
100
AcDbEntity
  8
Level 1
  6
Continuous
 62
     7
370
    13
100
AcDbLine
 10
144.388344
 20
-5.205177
 30
0.0
 11
144.388344
 21
-5.125781
 31
0.0
  0
LINE
  5
159
330
564
100
AcDbEntity
  8
Level 1
  6
Continuous
 62
     7
370
    13
100
AcDbLine
 10
144.56299
 20
-5.239687
 30
0.0
 11
144.56299
 21
-5.305958
 31
0.0
  0
LINE
  5
15A
330
564
100
AcDbEntity
  8
Level 1
  6
Continuous
 62
     7
370
    13
100
AcDbLine
 10
144.56299
 20
-5.336333
 30
0.0
 11
144.56299
 21
-5.398458
 31
0.0
  0
LINE
  5
15B
330
564
100
AcDbEntity
  8
Level 1
  6
Continuous
 62
     7
370
    13
100
AcDbLine
 10
144.56299
 20
-5.421937
 30
0.0
 11
144.56299
 21
-5.460594
 31
0.0
  0
LINE
  5
15C
330
564
100
AcDbEntity
  8
Level 1
  6
Continuous
 62
     7
370
    13
100
AcDbLine
 10
144.771469
 20
-5.383271
 30
0.0
 11
144.771469
 21
-5.294219
 31
0.0
  0
LINE
  5
15D
330
564
100
AcDbEntity
  8
Level 1
  6
Continuous
 62
     7
370
    13
100
AcDbLine
 10
144.771469
 20
-5.259021
 30
0.0
 11
144.771469
 21
-5.196885
 31
0.0
  0
LINE
  5
15E
330
564
100
AcDbEntity
  8
Level 1
  6
Continuous
 62
     7
370
    13
100
AcDbLine
 10
144.771469
 20
-5.169969
 30
0.0
 11
144.771469
 21
-5.125781
 31
0.0
  0
LINE
  5
15F
330
564
100
AcDbEntity
  8
Level 1
  6
Continuous
 62
     7
370
    13
100
AcDbLine
 10
144.946115
 20
-5.414344
 30
0.0
 11
144.946115
 21
-5.460594
 31
0.0
  0
LINE
  5
160
330
564
100
AcDbEntity
  8
Level 1
  6
Continuous
 62
     7
370
    13
100
AcDbLine
 10
144.946115
 20
-5.297677
 30
0.0
 11
144.946115
 21
-5.386729
 31
0.0
  0
LINE
  5
161
330
564
100
AcDbEntity
  8
Level 1
  6
Continuous
 62
     7
370
    13
100
AcDbLine
 10
144.946115
 20
-5.196885
 30
0.0
 11
144.946115
 21
-5.263156
 31
0.0
  0
LINE
  5
162
330
564
100
AcDbEntity
  8
Level 1
  6
Continuous
 62
     7
370
    13
100
AcDbLine
 10
145.155281
 20
-5.169969
 30
0.0
 11
145.155281
 21
-5.125781
 31
0.0
  0
LINE
  5
163
330
564
100
AcDbEntity
  8
Level 1
  6
Continuous
 62
     7
370
    13
100
AcDbLine
 10
145.155281
 20
-5.267302
 30
0.0
 11
145.155281
 21
-5.196885
 31
0.0
  0
LINE
  5
164
330
564
100
AcDbEntity
  8
Level 1
  6
Continuous
 62
     7
370
    13
100
AcDbLine
 10
145.155281
 20
-5.386729
 30
0.0
 11
145.155281
 21
-5.301812
 31
0.0
  0
LINE
  5
165
330
564
100
AcDbEntity
  8
Level 1
  6
Continuous
 62
     7
370
    13
100
AcDbLine
 10
145.329937
 20
-5.421937
 30
0.0
 11
145.329937
 21
-5.460594
 31
0.0
  0
LINE
  5
166
330
564
100
AcDbEntity
  8
Level 1
  6
Continuous
 62
     7
370
    13
100
AcDbLine
 10
145.329937
 20
-5.305958
 30
0.0
 11
145.329937
 21
-5.386729
 31
0.0
  0
LINE
  5
167
330
564
100
AcDbEntity
  8
Level 1
  6
Continuous
 62
     7
370
    13
100
AcDbLine
 10
145.329937
 20
-5.201031
 30
0.0
 11
145.329937
 21
-5.267302
 31
0.0
  0
LINE
  5
168
330
564
100
AcDbEntity
  8
Level 1
  6
Continuous
 62
     7
370
    13
100
AcDbLine
 10
141.266031
 20
-4.904198
 30
0.0
 11
141.266031
 21
-4.810313
 31
0.0
  0
LINE
  5
169
330
564
100
AcDbEntity
  8
Level 1
  6
Continuous
 62
     7
370
    13
100
AcDbLine
 10
141.266031
 20
-4.76751
 30
0.0
 11
141.266031
 21
-4.664656
 31
0.0
  0
LINE
  5
16A
330
564
100
AcDbEntity
  8
Level 1
  6
Continuous
 62
     7
370
    13
100
AcDbLine
 10
141.266031
 20
-4.626688
 30
0.0
 11
141.266031
 21
-4.532802
 31
0.0
  0
LINE
  5
16B
330
564
100
AcDbEntity
  8
Level 1
  6
Continuous
 62
     7
370
    13
100
AcDbLine
 10
141.266031
 20
-4.499667
 30
0.0
 11
141.266031
 21
-4.396813
 31
0.0
  0
LINE
  5
16C
330
564
100
AcDbEntity
  8
Level 1
  6
Continuous
 62
     7
370
    13
100
AcDbLine
 10
141.266031
 20
-4.363677
 30
0.0
 11
141.266031
 21
-4.260813
 31
0.0
  0
LINE
  5
16D
330
564
100
AcDbEntity
  8
Level 1
  6
Continuous
 62
     7
370
    13
100
AcDbLine
 10
141.266031
 20
-4.23251
 30
0.0
 11
141.266031
 21
-4.133802
 31
0.0
  0
LINE
  5
16E
330
564
100
AcDbEntity
  8
Level 1
  6
Continuous
 62
     7
370
    13
100
AcDbLine
 10
141.266031
 20
-4.100667
 30
0.0
 11
141.266031
 21
-4.039917
 31
0.0
  0
LINE
  5
16F
330
564
100
AcDbEntity
  8
Level 1
  6
Continuous
 62
     7
370
    13
100
AcDbLine
 10
141.440677
 20
-4.138625
 30
0.0
 11
141.440677
 21
-4.237344
 31
0.0
  0
LINE
  5
170
330
564
100
AcDbEntity
  8
Level 1
  6
Continuous
 62
     7
370
    13
100
AcDbLine
 10
141.440677
 20
-4.264958
 30
0.0
 11
141.440677
 21
-4.36851
 31
0.0
  0
LINE
  5
171
330
564
100
AcDbEntity
  8
Level 1
  6
Continuous
 62
     7
370
    13
100
AcDbLine
 10
141.440677
 20
-4.401646
 30
0.0
 11
141.440677
 21
-4.5045
 31
0.0
  0
LINE
  5
172
330
564
100
AcDbEntity
  8
Level 1
  6
Continuous
 62
     7
370
    13
100
AcDbLine
 10
141.440677
 20
-4.537635
 30
0.0
 11
141.440677
 21
-4.631521
 31
0.0
  0
LINE
  5
173
330
564
100
AcDbEntity
  8
Level 1
  6
Continuous
 62
     7
370
    13
100
AcDbLine
 10
141.440677
 20
-4.668792
 30
0.0
 11
141.440677
 21
-4.772344
 31
0.0
  0
LINE
  5
174
330
564
100
AcDbEntity
  8
Level 1
  6
Continuous
 62
     7
370
    13
100
AcDbLine
 10
141.440677
 20
-4.810313
 30
0.0
 11
141.440677
 21
-4.908333
 31
0.0
  0
LINE
  5
175
330
564
100
AcDbEntity
  8
Level 1
  6
Continuous
 62
     7
370
    13
100
AcDbLine
 10
141.440677
 20
-4.941469
 30
0.0
 11
141.440677
 21
-5.007052
 31
0.0
  0
LINE
  5
176
330
564
100
AcDbEntity
  8
Level 1
  6
Continuous
 62
     7
370
    13
100
AcDbLine
 10
141.658823
 20
-4.10549
 30
0.0
 11
141.658823
 21
-4.035083
 31
0.0
  0
LINE
  5
177
330
564
100
AcDbEntity
  8
Level 1
  6
Continuous
 62
     7
370
    13
100
AcDbLine
 10
141.658823
 20
-4.24149
 30
0.0
 11
141.658823
 21
-4.143458
 31
0.0
  0
LINE
  5
178
330
564
100
AcDbEntity
  8
Level 1
  6
Continuous
 62
     7
370
    13
100
AcDbLine
 10
141.658823
 20
-4.373333
 30
0.0
 11
141.658823
 21
-4.269792
 31
0.0
  0
LINE
  5
179
330
564
100
AcDbEntity
  8
Level 1
  6
Continuous
 62
     7
370
    13
100
AcDbLine
 10
141.658823
 20
-4.509333
 30
0.0
 11
141.658823
 21
-4.405781
 31
0.0
  0
LINE
  5
17A
330
564
100
AcDbEntity
  8
Level 1
  6
Continuous
 62
     7
370
    13
100
AcDbLine
 10
141.658823
 20
-4.636354
 30
0.0
 11
141.658823
 21
-4.537635
 31
0.0
  0
LINE
  5
17B
330
564
100
AcDbEntity
  8
Level 1
  6
Continuous
 62
     7
370
    13
100
AcDbLine
 10
141.658823
 20
-4.78201
 30
0.0
 11
141.658823
 21
-4.678458
 31
0.0
  0
LINE
  5
17C
330
564
100
AcDbEntity
  8
Level 1
  6
Continuous
 62
     7
370
    13
100
AcDbLine
 10
141.658823
 20
-4.908333
 30
0.0
 11
141.658823
 21
-4.814448
 31
0.0
  0
LINE
  5
17D
330
564
100
AcDbEntity
  8
Level 1
  6
Continuous
 62
     7
370
    13
100
AcDbLine
 10
141.833469
 20
-4.143458
 30
0.0
 11
141.833469
 21
-4.24149
 31
0.0
  0
LINE
  5
17E
330
564
100
AcDbEntity
  8
Level 1
  6
Continuous
 62
     7
370
    13
100
AcDbLine
 10
141.833469
 20
-4.274625
 30
0.0
 11
141.833469
 21
-4.378167
 31
0.0
  0
LINE
  5
17F
330
564
100
AcDbEntity
  8
Level 1
  6
Continuous
 62
     7
370
    13
100
AcDbLine
 10
141.833469
 20
-4.405781
 30
0.0
 11
141.833469
 21
-4.509333
 31
0.0
  0
LINE
  5
180
330
564
100
AcDbEntity
  8
Level 1
  6
Continuous
 62
     7
370
    13
100
AcDbLine
 10
141.833469
 20
-4.542469
 30
0.0
 11
141.833469
 21
-4.641177
 31
0.0
  0
LINE
  5
181
330
564
100
AcDbEntity
  8
Level 1
  6
Continuous
 62
     7
370
    13
100
AcDbLine
 10
141.833469
 20
-4.678458
 30
0.0
 11
141.833469
 21
-4.78201
 31
0.0
  0
LINE
  5
182
330
564
100
AcDbEntity
  8
Level 1
  6
Continuous
 62
     7
370
    13
100
AcDbLine
 10
141.833469
 20
-4.814448
 30
0.0
 11
141.833469
 21
-4.908333
 31
0.0
  0
LINE
  5
183
330
564
100
AcDbEntity
  8
Level 1
  6
Continuous
 62
     7
370
    13
100
AcDbLine
 10
141.833469
 20
-4.946302
 30
0.0
 11
141.833469
 21
-5.007052
 31
0.0
  0
LINE
  5
184
330
564
100
AcDbEntity
  8
Level 1
  6
Continuous
 62
     7
370
    13
100
AcDbLine
 10
141.833469
 20
-4.03025
 30
0.0
 11
141.833469
 21
-4.110323
 31
0.0
  0
LINE
  5
185
330
564
100
AcDbEntity
  8
Level 1
  6
Continuous
 62
     7
370
    13
100
AcDbLine
 10
141.658823
 20
-4.006781
 30
0.0
 11
141.658823
 21
-3.970187
 31
0.0
  0
LINE
  5
186
330
564
100
AcDbEntity
  8
Level 1
  6
Continuous
 62
     7
370
    13
100
AcDbLine
 10
141.440677
 20
-4.035083
 30
0.0
 11
141.440677
 21
-4.10549
 31
0.0
  0
LINE
  5
187
330
564
100
AcDbEntity
  8
Level 1
  6
Continuous
 62
     7
370
    13
100
AcDbLine
 10
141.266031
 20
-4.006781
 30
0.0
 11
141.266031
 21
-3.970187
 31
0.0
  0
LINE
  5
188
330
564
100
AcDbEntity
  8
Level 1
  6
Continuous
 62
     7
370
    13
100
AcDbLine
 10
142.064729
 20
-4.006781
 30
0.0
 11
142.064729
 21
-3.970187
 31
0.0
  0
LINE
  5
189
330
564
100
AcDbEntity
  8
Level 1
  6
Continuous
 62
     7
370
    13
100
AcDbLine
 10
142.239375
 20
-4.039917
 30
0.0
 11
142.239375
 21
-4.110323
 31
0.0
  0
LINE
  5
18A
330
564
100
AcDbEntity
  8
Level 1
  6
Continuous
 62
     7
370
    13
100
AcDbLine
 10
142.449927
 20
-4.006781
 30
0.0
 11
142.449927
 21
-3.970187
 31
0.0
  0
LINE
  5
18B
330
564
100
AcDbEntity
  8
Level 1
  6
Continuous
 62
     7
370
    13
100
AcDbLine
 10
142.624573
 20
-4.039917
 30
0.0
 11
142.624573
 21
-4.110323
 31
0.0
  0
LINE
  5
18C
330
564
100
AcDbEntity
  8
Level 1
  6
Continuous
 62
     7
370
    13
100
AcDbLine
 10
142.841333
 20
-4.011615
 30
0.0
 11
142.841333
 21
-3.970187
 31
0.0
  0
LINE
  5
18D
330
564
100
AcDbEntity
  8
Level 1
  6
Continuous
 62
     7
370
    13
100
AcDbLine
 10
143.015292
 20
-4.039917
 30
0.0
 11
143.015292
 21
-4.110323
 31
0.0
  0
LINE
  5
18E
330
564
100
AcDbEntity
  8
Level 1
  6
Continuous
 62
     7
370
    13
100
AcDbLine
 10
142.064729
 20
-4.110323
 30
0.0
 11
142.064729
 21
-4.035083
 31
0.0
  0
LINE
  5
18F
330
564
100
AcDbEntity
  8
Level 1
  6
Continuous
 62
     7
370
    13
100
AcDbLine
 10
142.239375
 20
-4.143458
 30
0.0
 11
142.239375
 21
-4.24149
 31
0.0
  0
LINE
  5
190
330
564
100
AcDbEntity
  8
Level 1
  6
Continuous
 62
     7
370
    13
100
AcDbLine
 10
142.449927
 20
-4.110323
 30
0.0
 11
142.449927
 21
-4.039917
 31
0.0
  0
LINE
  5
191
330
564
100
AcDbEntity
  8
Level 1
  6
Continuous
 62
     7
370
    13
100
AcDbLine
 10
142.624573
 20
-4.143458
 30
0.0
 11
142.624573
 21
-4.24149
 31
0.0
  0
LINE
  5
192
330
564
100
AcDbEntity
  8
Level 1
  6
Continuous
 62
     7
370
    13
100
AcDbLine
 10
142.841333
 20
-4.110323
 30
0.0
 11
142.841333
 21
-4.039917
 31
0.0
  0
LINE
  5
193
330
564
100
AcDbEntity
  8
Level 1
  6
Continuous
 62
     7
370
    13
100
AcDbLine
 10
143.015292
 20
-4.143458
 30
0.0
 11
143.015292
 21
-4.24149
 31
0.0
  0
LINE
  5
194
330
564
100
AcDbEntity
  8
Level 1
  6
Continuous
 62
     7
370
    13
100
AcDbLine
 10
142.064729
 20
-4.24149
 30
0.0
 11
142.064729
 21
-4.143458
 31
0.0
  0
LINE
  5
195
330
564
100
AcDbEntity
  8
Level 1
  6
Continuous
 62
     7
370
    13
100
AcDbLine
 10
142.239375
 20
-4.274625
 30
0.0
 11
142.239375
 21
-4.378167
 31
0.0
  0
LINE
  5
196
330
564
100
AcDbEntity
  8
Level 1
  6
Continuous
 62
     7
370
    13
100
AcDbLine
 10
142.449927
 20
-4.24149
 30
0.0
 11
142.449927
 21
-4.143458
 31
0.0
  0
LINE
  5
197
330
564
100
AcDbEntity
  8
Level 1
  6
Continuous
 62
     7
370
    13
100
AcDbLine
 10
142.624573
 20
-4.279458
 30
0.0
 11
142.624573
 21
-4.378167
 31
0.0
  0
LINE
  5
198
330
564
100
AcDbEntity
  8
Level 1
  6
Continuous
 62
     7
370
    13
100
AcDbLine
 10
142.841333
 20
-4.24149
 30
0.0
 11
142.841333
 21
-4.143458
 31
0.0
  0
LINE
  5
199
330
564
100
AcDbEntity
  8
Level 1
  6
Continuous
 62
     7
370
    13
100
AcDbLine
 10
143.015292
 20
-4.274625
 30
0.0
 11
143.015292
 21
-4.378167
 31
0.0
  0
LINE
  5
19A
330
564
100
AcDbEntity
  8
Level 1
  6
Continuous
 62
     7
370
    13
100
AcDbLine
 10
142.064729
 20
-4.378167
 30
0.0
 11
142.064729
 21
-4.269792
 31
0.0
  0
LINE
  5
19B
330
564
100
AcDbEntity
  8
Level 1
  6
Continuous
 62
     7
370
    13
100
AcDbLine
 10
142.239375
 20
-4.405781
 30
0.0
 11
142.239375
 21
-4.519
 31
0.0
  0
LINE
  5
19C
330
564
100
AcDbEntity
  8
Level 1
  6
Continuous
 62
     7
370
    13
100
AcDbLine
 10
142.449927
 20
-4.378167
 30
0.0
 11
142.449927
 21
-4.274625
 31
0.0
  0
LINE
  5
19D
330
564
100
AcDbEntity
  8
Level 1
  6
Continuous
 62
     7
370
    13
100
AcDbLine
 10
142.624573
 20
-4.410615
 30
0.0
 11
142.624573
 21
-4.519
 31
0.0
  0
LINE
  5
19E
330
564
100
AcDbEntity
  8
Level 1
  6
Continuous
 62
     7
370
    13
100
AcDbLine
 10
142.841333
 20
-4.378167
 30
0.0
 11
142.841333
 21
-4.274625
 31
0.0
  0
LINE
  5
19F
330
564
100
AcDbEntity
  8
Level 1
  6
Continuous
 62
     7
370
    13
100
AcDbLine
 10
143.015292
 20
-4.410615
 30
0.0
 11
143.015292
 21
-4.519
 31
0.0
  0
LINE
  5
1A0
330
564
100
AcDbEntity
  8
Level 1
  6
Continuous
 62
     7
370
    13
100
AcDbLine
 10
142.064729
 20
-4.514167
 30
0.0
 11
142.064729
 21
-4.410615
 31
0.0
  0
LINE
  5
1A1
330
564
100
AcDbEntity
  8
Level 1
  6
Continuous
 62
     7
370
    13
100
AcDbLine
 10
142.239375
 20
-4.542469
 30
0.0
 11
142.239375
 21
-4.645323
 31
0.0
  0
LINE
  5
1A2
330
564
100
AcDbEntity
  8
Level 1
  6
Continuous
 62
     7
370
    13
100
AcDbLine
 10
142.449927
 20
-4.519
 30
0.0
 11
142.449927
 21
-4.405781
 31
0.0
  0
LINE
  5
1A3
330
564
100
AcDbEntity
  8
Level 1
  6
Continuous
 62
     7
370
    13
100
AcDbLine
 10
142.624573
 20
-4.551437
 30
0.0
 11
142.624573
 21
-4.645323
 31
0.0
  0
LINE
  5
1A4
330
564
100
AcDbEntity
  8
Level 1
  6
Continuous
 62
     7
370
    13
100
AcDbLine
 10
142.841333
 20
-4.519
 30
0.0
 11
142.841333
 21
-4.410615
 31
0.0
  0
LINE
  5
1A5
330
564
100
AcDbEntity
  8
Level 1
  6
Continuous
 62
     7
370
    13
100
AcDbLine
 10
143.015292
 20
-4.551437
 30
0.0
 11
143.015292
 21
-4.645323
 31
0.0
  0
LINE
  5
1A6
330
564
100
AcDbEntity
  8
Level 1
  6
Continuous
 62
     7
370
    13
100
AcDbLine
 10
142.064729
 20
-4.645323
 30
0.0
 11
142.064729
 21
-4.542469
 31
0.0
  0
LINE
  5
1A7
330
564
100
AcDbEntity
  8
Level 1
  6
Continuous
 62
     7
370
    13
100
AcDbLine
 10
142.239375
 20
-4.683292
 30
0.0
 11
142.239375
 21
-4.78201
 31
0.0
  0
LINE
  5
1A8
330
564
100
AcDbEntity
  8
Level 1
  6
Continuous
 62
     7
370
    13
100
AcDbLine
 10
142.449927
 20
-4.645323
 30
0.0
 11
142.449927
 21
-4.551437
 31
0.0
  0
LINE
  5
1A9
330
564
100
AcDbEntity
  8
Level 1
  6
Continuous
 62
     7
370
    13
100
AcDbLine
 10
142.624573
 20
-4.683292
 30
0.0
 11
142.624573
 21
-4.78201
 31
0.0
  0
LINE
  5
1AA
330
564
100
AcDbEntity
  8
Level 1
  6
Continuous
 62
     7
370
    13
100
AcDbLine
 10
142.841333
 20
-4.645323
 30
0.0
 11
142.841333
 21
-4.551437
 31
0.0
  0
LINE
  5
1AB
330
564
100
AcDbEntity
  8
Level 1
  6
Continuous
 62
     7
370
    13
100
AcDbLine
 10
143.015292
 20
-4.688125
 30
0.0
 11
143.015292
 21
-4.78201
 31
0.0
  0
LINE
  5
1AC
330
564
100
AcDbEntity
  8
Level 1
  6
Continuous
 62
     7
370
    13
100
AcDbLine
 10
142.064729
 20
-4.78201
 30
0.0
 11
142.064729
 21
-4.683292
 31
0.0
  0
LINE
  5
1AD
330
564
100
AcDbEntity
  8
Level 1
  6
Continuous
 62
     7
370
    13
100
AcDbLine
 10
142.239375
 20
-4.814448
 30
0.0
 11
142.239375
 21
-4.904198
 31
0.0
  0
LINE
  5
1AE
330
564
100
AcDbEntity
  8
Level 1
  6
Continuous
 62
     7
370
    13
100
AcDbLine
 10
142.449927
 20
-4.78201
 30
0.0
 11
142.449927
 21
-4.683292
 31
0.0
  0
LINE
  5
1AF
330
564
100
AcDbEntity
  8
Level 1
  6
Continuous
 62
     7
370
    13
100
AcDbLine
 10
142.624573
 20
-4.810313
 30
0.0
 11
142.624573
 21
-4.904198
 31
0.0
  0
LINE
  5
1B0
330
564
100
AcDbEntity
  8
Level 1
  6
Continuous
 62
     7
370
    13
100
AcDbLine
 10
142.841333
 20
-4.78201
 30
0.0
 11
142.841333
 21
-4.683292
 31
0.0
  0
LINE
  5
1B1
330
564
100
AcDbEntity
  8
Level 1
  6
Continuous
 62
     7
370
    13
100
AcDbLine
 10
143.015292
 20
-4.819281
 30
0.0
 11
143.015292
 21
-4.904198
 31
0.0
  0
LINE
  5
1B2
330
564
100
AcDbEntity
  8
Level 1
  6
Continuous
 62
     7
370
    13
100
AcDbLine
 10
142.064729
 20
-4.904198
 30
0.0
 11
142.064729
 21
-4.814448
 31
0.0
  0
LINE
  5
1B3
330
564
100
AcDbEntity
  8
Level 1
  6
Continuous
 62
     7
370
    13
100
AcDbLine
 10
142.239375
 20
-4.946302
 30
0.0
 11
142.239375
 21
-5.007052
 31
0.0
  0
LINE
  5
1B4
330
564
100
AcDbEntity
  8
Level 1
  6
Continuous
 62
     7
370
    13
100
AcDbLine
 10
142.449927
 20
-4.908333
 30
0.0
 11
142.449927
 21
-4.814448
 31
0.0
  0
LINE
  5
1B5
330
564
100
AcDbEntity
  8
Level 1
  6
Continuous
 62
     7
370
    13
100
AcDbLine
 10
142.624573
 20
-4.946302
 30
0.0
 11
142.624573
 21
-5.007052
 31
0.0
  0
LINE
  5
1B6
330
564
100
AcDbEntity
  8
Level 1
  6
Continuous
 62
     7
370
    13
100
AcDbLine
 10
142.841333
 20
-4.899365
 30
0.0
 11
142.841333
 21
-4.814448
 31
0.0
  0
LINE
  5
1B7
330
564
100
AcDbEntity
  8
Level 1
  6
Continuous
 62
     7
370
    13
100
AcDbLine
 10
143.015292
 20
-4.946302
 30
0.0
 11
143.015292
 21
-5.007052
 31
0.0
  0
LINE
  5
1B8
330
564
100
AcDbEntity
  8
Level 1
  6
Continuous
 62
     7
370
    13
100
AcDbLine
 10
143.212729
 20
-4.914552
 30
0.0
 11
143.212729
 21
-4.824115
 31
0.0
  0
LINE
  5
1B9
330
564
100
AcDbEntity
  8
Level 1
  6
Continuous
 62
     7
370
    13
100
AcDbLine
 10
143.212729
 20
-4.785458
 30
0.0
 11
143.212729
 21
-4.688813
 31
0.0
  0
LINE
  5
1BA
330
564
100
AcDbEntity
  8
Level 1
  6
Continuous
 62
     7
370
    13
100
AcDbLine
 10
143.212729
 20
-4.650156
 30
0.0
 11
143.212729
 21
-4.55351
 31
0.0
  0
LINE
  5
1BB
330
564
100
AcDbEntity
  8
Level 1
  6
Continuous
 62
     7
370
    13
100
AcDbLine
 10
143.212729
 20
-4.508646
 30
0.0
 11
143.212729
 21
-4.405094
 31
0.0
  0
LINE
  5
1BC
330
564
100
AcDbEntity
  8
Level 1
  6
Continuous
 62
     7
370
    13
100
AcDbLine
 10
143.212729
 20
-4.372646
 30
0.0
 11
143.212729
 21
-4.276
 31
0.0
  0
LINE
  5
1BD
330
564
100
AcDbEntity
  8
Level 1
  6
Continuous
 62
     7
370
    13
100
AcDbLine
 10
143.212729
 20
-4.231135
 30
0.0
 11
143.212729
 21
-4.147604
 31
0.0
  0
LINE
  5
1BE
330
564
100
AcDbEntity
  8
Level 1
  6
Continuous
 62
     7
370
    13
100
AcDbLine
 10
143.212729
 20
-4.108948
 30
0.0
 11
143.212729
 21
-4.044052
 31
0.0
  0
LINE
  5
1BF
330
564
100
AcDbEntity
  8
Level 1
  6
Continuous
 62
     7
370
    13
100
AcDbLine
 10
143.212729
 20
-4.012302
 30
0.0
 11
143.212729
 21
-3.970187
 31
0.0
  0
LINE
  5
1C0
330
564
100
AcDbEntity
  8
Level 1
  6
Continuous
 62
     7
370
    13
100
AcDbLine
 10
143.387375
 20
-4.057177
 30
0.0
 11
143.387375
 21
-4.121375
 31
0.0
  0
LINE
  5
1C1
330
564
100
AcDbEntity
  8
Level 1
  6
Continuous
 62
     7
370
    13
100
AcDbLine
 10
143.387375
 20
-4.153812
 30
0.0
 11
143.387375
 21
-4.237344
 31
0.0
  0
LINE
  5
1C2
330
564
100
AcDbEntity
  8
Level 1
  6
Continuous
 62
     7
370
    13
100
AcDbLine
 10
143.387375
 20
-4.276
 30
0.0
 11
143.387375
 21
-4.372646
 31
0.0
  0
LINE
  5
1C3
330
564
100
AcDbEntity
  8
Level 1
  6
Continuous
 62
     7
370
    13
100
AcDbLine
 10
143.387375
 20
-4.405094
 30
0.0
 11
143.387375
 21
-4.50174
 31
0.0
  0
LINE
  5
1C4
330
564
100
AcDbEntity
  8
Level 1
  6
Continuous
 62
     7
370
    13
100
AcDbLine
 10
143.387375
 20
-4.547302
 30
0.0
 11
143.387375
 21
-4.650156
 31
0.0
  0
LINE
  5
1C5
330
564
100
AcDbEntity
  8
Level 1
  6
Continuous
 62
     7
370
    13
100
AcDbLine
 10
143.387375
 20
-4.682604
 30
0.0
 11
143.387375
 21
-4.785458
 31
0.0
  0
LINE
  5
1C6
330
564
100
AcDbEntity
  8
Level 1
  6
Continuous
 62
     7
370
    13
100
AcDbLine
 10
143.387375
 20
-4.824115
 30
0.0
 11
143.387375
 21
-4.895219
 31
0.0
  0
LINE
  5
1C7
330
564
100
AcDbEntity
  8
Level 1
  6
Continuous
 62
     7
370
    13
100
AcDbLine
 10
143.387375
 20
-4.94699
 30
0.0
 11
143.387375
 21
-5.004292
 31
0.0
  0
LINE
  5
1C8
330
564
100
AcDbEntity
  8
Level 1
  6
Continuous
 62
     7
370
    13
100
AcDbLine
 10
143.613802
 20
-4.037844
 30
0.0
 11
143.613802
 21
-3.970187
 31
0.0
  0
LINE
  5
1C9
330
564
100
AcDbEntity
  8
Level 1
  6
Continuous
 62
     7
370
    13
100
AcDbLine
 10
143.613802
 20
-4.13449
 30
0.0
 11
143.613802
 21
-4.070292
 31
0.0
  0
LINE
  5
1CA
330
564
100
AcDbEntity
  8
Level 1
  6
Continuous
 62
     7
370
    13
100
AcDbLine
 10
143.613802
 20
-4.24425
 30
0.0
 11
143.613802
 21
-4.160031
 31
0.0
  0
LINE
  5
1CB
330
564
100
AcDbEntity
  8
Level 1
  6
Continuous
 62
     7
370
    13
100
AcDbLine
 10
143.613802
 20
-4.372646
 30
0.0
 11
143.613802
 21
-4.282906
 31
0.0
  0
LINE
  5
1CC
330
564
100
AcDbEntity
  8
Level 1
  6
Continuous
 62
     7
370
    13
100
AcDbLine
 10
143.613802
 20
-4.508646
 30
0.0
 11
143.613802
 21
-4.411302
 31
0.0
  0
LINE
  5
1CD
330
564
100
AcDbEntity
  8
Level 1
  6
Continuous
 62
     7
370
    13
100
AcDbLine
 10
143.613802
 20
-4.656365
 30
0.0
 11
143.613802
 21
-4.547302
 31
0.0
  0
LINE
  5
1CE
330
564
100
AcDbEntity
  8
Level 1
  6
Continuous
 62
     7
370
    13
100
AcDbLine
 10
143.613802
 20
-4.791667
 30
0.0
 11
143.613802
 21
-4.688813
 31
0.0
  0
LINE
  5
1CF
330
564
100
AcDbEntity
  8
Level 1
  6
Continuous
 62
     7
370
    13
100
AcDbLine
 10
143.613802
 20
-4.901427
 30
0.0
 11
143.613802
 21
-4.831021
 31
0.0
  0
LINE
  5
1D0
330
564
100
AcDbEntity
  8
Level 1
  6
Continuous
 62
     7
370
    13
100
AcDbLine
 10
143.788448
 20
-4.94699
 30
0.0
 11
143.788448
 21
-5.007052
 31
0.0
  0
LINE
  5
1D1
330
564
100
AcDbEntity
  8
Level 1
  6
Continuous
 62
     7
370
    13
100
AcDbLine
 10
143.788448
 20
-4.837229
 30
0.0
 11
143.788448
 21
-4.908333
 31
0.0
  0
LINE
  5
1D2
330
564
100
AcDbEntity
  8
Level 1
  6
Continuous
 62
     7
370
    13
100
AcDbLine
 10
143.788448
 20
-4.688813
 30
0.0
 11
143.788448
 21
-4.798573
 31
0.0
  0
LINE
  5
1D3
330
564
100
AcDbEntity
  8
Level 1
  6
Continuous
 62
     7
370
    13
100
AcDbLine
 10
143.788448
 20
-4.547302
 30
0.0
 11
143.788448
 21
-4.656365
 31
0.0
  0
LINE
  5
1D4
330
564
100
AcDbEntity
  8
Level 1
  6
Continuous
 62
     7
370
    13
100
AcDbLine
 10
143.788448
 20
-4.418208
 30
0.0
 11
143.788448
 21
-4.508646
 31
0.0
  0
LINE
  5
1D5
330
564
100
AcDbEntity
  8
Level 1
  6
Continuous
 62
     7
370
    13
100
AcDbLine
 10
143.788448
 20
-4.282906
 30
0.0
 11
143.788448
 21
-4.372646
 31
0.0
  0
LINE
  5
1D6
330
564
100
AcDbEntity
  8
Level 1
  6
Continuous
 62
     7
370
    13
100
AcDbLine
 10
143.788448
 20
-4.166937
 30
0.0
 11
143.788448
 21
-4.24425
 31
0.0
  0
LINE
  5
1D7
330
564
100
AcDbEntity
  8
Level 1
  6
Continuous
 62
     7
370
    13
100
AcDbLine
 10
143.788448
 20
-4.0765
 30
0.0
 11
143.788448
 21
-4.128271
 31
0.0
  0
LINE
  5
1D8
330
564
100
AcDbEntity
  8
Level 1
  6
Continuous
 62
     7
370
    13
100
AcDbLine
 10
144.014875
 20
-4.044052
 30
0.0
 11
144.014875
 21
-3.970187
 31
0.0
  0
LINE
  5
1D9
330
564
100
AcDbEntity
  8
Level 1
  6
Continuous
 62
     7
370
    13
100
AcDbLine
 10
144.188833
 20
-4.082719
 30
0.0
 11
144.188833
 21
-4.140698
 31
0.0
  0
LINE
  5
1DA
330
564
100
AcDbEntity
  8
Level 1
  6
Continuous
 62
     7
370
    13
100
AcDbLine
 10
144.388344
 20
-4.050958
 30
0.0
 11
144.388344
 21
-3.970187
 31
0.0
  0
LINE
  5
1DB
330
564
100
AcDbEntity
  8
Level 1
  6
Continuous
 62
     7
370
    13
100
AcDbLine
 10
144.56299
 20
-4.095833
 30
0.0
 11
144.56299
 21
-4.218021
 31
0.0
  0
LINE
  5
1DC
330
564
100
AcDbEntity
  8
Level 1
  6
Continuous
 62
     7
370
    13
100
AcDbLine
 10
144.771469
 20
-4.050958
 30
0.0
 11
144.771469
 21
-3.970187
 31
0.0
  0
LINE
  5
1DD
330
564
100
AcDbEntity
  8
Level 1
  6
Continuous
 62
     7
370
    13
100
AcDbLine
 10
144.946115
 20
-4.095833
 30
0.0
 11
144.946115
 21
-4.211802
 31
0.0
  0
LINE
  5
1DE
330
564
100
AcDbEntity
  8
Level 1
  6
Continuous
 62
     7
370
    13
100
AcDbLine
 10
145.155281
 20
-4.044052
 30
0.0
 11
145.155281
 21
-3.970187
 31
0.0
  0
LINE
  5
1DF
330
564
100
AcDbEntity
  8
Level 1
  6
Continuous
 62
     7
370
    13
100
AcDbLine
 10
145.329937
 20
-4.095833
 30
0.0
 11
145.329937
 21
-4.205594
 31
0.0
  0
LINE
  5
1E0
330
564
100
AcDbEntity
  8
Level 1
  6
Continuous
 62
     7
370
    13
100
AcDbLine
 10
144.014875
 20
-4.908333
 30
0.0
 11
144.014875
 21
-4.837229
 31
0.0
  0
LINE
  5
1E1
330
564
100
AcDbEntity
  8
Level 1
  6
Continuous
 62
     7
370
    13
100
AcDbLine
 10
144.188833
 20
-4.94699
 30
0.0
 11
144.188833
 21
-5.007052
 31
0.0
  0
LINE
  5
1E2
330
564
100
AcDbEntity
  8
Level 1
  6
Continuous
 62
     7
370
    13
100
AcDbLine
 10
144.388344
 20
-4.908333
 30
0.0
 11
144.388344
 21
-4.837229
 31
0.0
  0
LINE
  5
1E3
330
564
100
AcDbEntity
  8
Level 1
  6
Continuous
 62
     7
370
    13
100
AcDbLine
 10
144.56299
 20
-4.940094
 30
0.0
 11
144.56299
 21
-5.007052
 31
0.0
  0
LINE
  5
1E4
330
564
100
AcDbEntity
  8
Level 1
  6
Continuous
 62
     7
370
    13
100
AcDbLine
 10
144.771469
 20
-4.882104
 30
0.0
 11
144.771469
 21
-4.811
 31
0.0
  0
LINE
  5
1E5
330
564
100
AcDbEntity
  8
Level 1
  6
Continuous
 62
     7
370
    13
100
AcDbLine
 10
144.946115
 20
-4.94699
 30
0.0
 11
144.946115
 21
-5.007052
 31
0.0
  0
LINE
  5
1E6
330
564
100
AcDbEntity
  8
Level 1
  6
Continuous
 62
     7
370
    13
100
AcDbLine
 10
145.155281
 20
-4.882104
 30
0.0
 11
145.155281
 21
-4.817906
 31
0.0
  0
LINE
  5
1E7
330
564
100
AcDbEntity
  8
Level 1
  6
Continuous
 62
     7
370
    13
100
AcDbLine
 10
145.329937
 20
-4.94699
 30
0.0
 11
145.329937
 21
-5.007052
 31
0.0
  0
LINE
  5
1E8
330
564
100
AcDbEntity
  8
Level 1
  6
Continuous
 62
     7
370
    13
100
AcDbLine
 10
144.014875
 20
-4.798573
 30
0.0
 11
144.014875
 21
-4.688813
 31
0.0
  0
LINE
  5
1E9
330
564
100
AcDbEntity
  8
Level 1
  6
Continuous
 62
     7
370
    13
100
AcDbLine
 10
144.188833
 20
-4.837229
 30
0.0
 11
144.188833
 21
-4.914552
 31
0.0
  0
LINE
  5
1EA
330
564
100
AcDbEntity
  8
Level 1
  6
Continuous
 62
     7
370
    13
100
AcDbLine
 10
144.388344
 20
-4.798573
 30
0.0
 11
144.388344
 21
-4.688813
 31
0.0
  0
LINE
  5
1EB
330
564
100
AcDbEntity
  8
Level 1
  6
Continuous
 62
     7
370
    13
100
AcDbLine
 10
144.014875
 20
-4.663271
 30
0.0
 11
144.014875
 21
-4.547302
 31
0.0
  0
LINE
  5
1EC
330
564
100
AcDbEntity
  8
Level 1
  6
Continuous
 62
     7
370
    13
100
AcDbLine
 10
144.188833
 20
-4.688813
 30
0.0
 11
144.188833
 21
-4.791667
 31
0.0
  0
LINE
  5
1ED
330
564
100
AcDbEntity
  8
Level 1
  6
Continuous
 62
     7
370
    13
100
AcDbLine
 10
144.388344
 20
-4.656365
 30
0.0
 11
144.388344
 21
-4.55351
 31
0.0
  0
LINE
  5
1EE
330
564
100
AcDbEntity
  8
Level 1
  6
Continuous
 62
     7
370
    13
100
AcDbLine
 10
144.014875
 20
-4.508646
 30
0.0
 11
144.014875
 21
-4.418208
 31
0.0
  0
LINE
  5
1EF
330
564
100
AcDbEntity
  8
Level 1
  6
Continuous
 62
     7
370
    13
100
AcDbLine
 10
144.188833
 20
-4.55351
 30
0.0
 11
144.188833
 21
-4.656365
 31
0.0
  0
LINE
  5
1F0
330
564
100
AcDbEntity
  8
Level 1
  6
Continuous
 62
     7
370
    13
100
AcDbLine
 10
144.388344
 20
-4.508646
 30
0.0
 11
144.388344
 21
-4.418208
 31
0.0
  0
LINE
  5
1F1
330
564
100
AcDbEntity
  8
Level 1
  6
Continuous
 62
     7
370
    13
100
AcDbLine
 10
144.014875
 20
-4.372646
 30
0.0
 11
144.014875
 21
-4.276
 31
0.0
  0
LINE
  5
1F2
330
564
100
AcDbEntity
  8
Level 1
  6
Continuous
 62
     7
370
    13
100
AcDbLine
 10
144.188833
 20
-4.418208
 30
0.0
 11
144.188833
 21
-4.508646
 31
0.0
  0
LINE
  5
1F3
330
564
100
AcDbEntity
  8
Level 1
  6
Continuous
 62
     7
370
    13
100
AcDbLine
 10
144.388344
 20
-4.366437
 30
0.0
 11
144.388344
 21
-4.269792
 31
0.0
  0
LINE
  5
1F4
330
564
100
AcDbEntity
  8
Level 1
  6
Continuous
 62
     7
370
    13
100
AcDbLine
 10
144.014875
 20
-4.250458
 30
0.0
 11
144.014875
 21
-4.173146
 31
0.0
  0
LINE
  5
1F5
330
564
100
AcDbEntity
  8
Level 1
  6
Continuous
 62
     7
370
    13
100
AcDbLine
 10
144.188833
 20
-4.276
 30
0.0
 11
144.188833
 21
-4.366437
 31
0.0
  0
LINE
  5
1F6
330
564
100
AcDbEntity
  8
Level 1
  6
Continuous
 62
     7
370
    13
100
AcDbLine
 10
144.388344
 20
-4.237344
 30
0.0
 11
144.388344
 21
-4.18626
 31
0.0
  0
LINE
  5
1F7
330
564
100
AcDbEntity
  8
Level 1
  6
Continuous
 62
     7
370
    13
100
AcDbLine
 10
144.014875
 20
-4.147604
 30
0.0
 11
144.014875
 21
-4.082719
 31
0.0
  0
LINE
  5
1F8
330
564
100
AcDbEntity
  8
Level 1
  6
Continuous
 62
     7
370
    13
100
AcDbLine
 10
144.188833
 20
-4.173146
 30
0.0
 11
144.188833
 21
-4.24425
 31
0.0
  0
LINE
  5
1F9
330
564
100
AcDbEntity
  8
Level 1
  6
Continuous
 62
     7
370
    13
100
AcDbLine
 10
144.388344
 20
-4.153812
 30
0.0
 11
144.388344
 21
-4.089615
 31
0.0
  0
LINE
  5
1FA
330
564
100
AcDbEntity
  8
Level 1
  6
Continuous
 62
     7
370
    13
100
AcDbLine
 10
144.56299
 20
-4.831021
 30
0.0
 11
144.56299
 21
-4.88901
 31
0.0
  0
LINE
  5
1FB
330
564
100
AcDbEntity
  8
Level 1
  6
Continuous
 62
     7
370
    13
100
AcDbLine
 10
144.771469
 20
-4.77925
 30
0.0
 11
144.771469
 21
-4.688813
 31
0.0
  0
LINE
  5
1FC
330
564
100
AcDbEntity
  8
Level 1
  6
Continuous
 62
     7
370
    13
100
AcDbLine
 10
144.946115
 20
-4.811
 30
0.0
 11
144.946115
 21
-4.882104
 31
0.0
  0
LINE
  5
1FD
330
564
100
AcDbEntity
  8
Level 1
  6
Continuous
 62
     7
370
    13
100
AcDbLine
 10
145.155281
 20
-4.77925
 30
0.0
 11
145.155281
 21
-4.688813
 31
0.0
  0
LINE
  5
1FE
330
564
100
AcDbEntity
  8
Level 1
  6
Continuous
 62
     7
370
    13
100
AcDbLine
 10
145.329937
 20
-4.824115
 30
0.0
 11
145.329937
 21
-4.875885
 31
0.0
  0
LINE
  5
1FF
330
564
100
AcDbEntity
  8
Level 1
  6
Continuous
 62
     7
370
    13
100
AcDbLine
 10
144.56299
 20
-4.688813
 30
0.0
 11
144.56299
 21
-4.804792
 31
0.0
  0
LINE
  5
200
330
564
100
AcDbEntity
  8
Level 1
  6
Continuous
 62
     7
370
    13
100
AcDbLine
 10
144.771469
 20
-4.656365
 30
0.0
 11
144.771469
 21
-4.55351
 31
0.0
  0
LINE
  5
201
330
564
100
AcDbEntity
  8
Level 1
  6
Continuous
 62
     7
370
    13
100
AcDbLine
 10
144.946115
 20
-4.688813
 30
0.0
 11
144.946115
 21
-4.77925
 31
0.0
  0
LINE
  5
202
330
564
100
AcDbEntity
  8
Level 1
  6
Continuous
 62
     7
370
    13
100
AcDbLine
 10
145.155281
 20
-4.650156
 30
0.0
 11
145.155281
 21
-4.55351
 31
0.0
  0
LINE
  5
203
330
564
100
AcDbEntity
  8
Level 1
  6
Continuous
 62
     7
370
    13
100
AcDbLine
 10
145.329937
 20
-4.688813
 30
0.0
 11
145.329937
 21
-4.77925
 31
0.0
  0
LINE
  5
204
330
564
100
AcDbEntity
  8
Level 1
  6
Continuous
 62
     7
370
    13
100
AcDbLine
 10
144.56299
 20
-4.55351
 30
0.0
 11
144.56299
 21
-4.656365
 31
0.0
  0
LINE
  5
205
330
564
100
AcDbEntity
  8
Level 1
  6
Continuous
 62
     7
370
    13
100
AcDbLine
 10
144.771469
 20
-4.508646
 30
0.0
 11
144.771469
 21
-4.405094
 31
0.0
  0
LINE
  5
206
330
564
100
AcDbEntity
  8
Level 1
  6
Continuous
 62
     7
370
    13
100
AcDbLine
 10
144.946115
 20
-4.55351
 30
0.0
 11
144.946115
 21
-4.656365
 31
0.0
  0
LINE
  5
207
330
564
100
AcDbEntity
  8
Level 1
  6
Continuous
 62
     7
370
    13
100
AcDbLine
 10
145.155281
 20
-4.50174
 30
0.0
 11
145.155281
 21
-4.405094
 31
0.0
  0
LINE
  5
208
330
564
100
AcDbEntity
  8
Level 1
  6
Continuous
 62
     7
370
    13
100
AcDbLine
 10
145.329937
 20
-4.559729
 30
0.0
 11
145.329937
 21
-4.650156
 31
0.0
  0
LINE
  5
209
330
564
100
AcDbEntity
  8
Level 1
  6
Continuous
 62
     7
370
    13
100
AcDbLine
 10
144.56299
 20
-4.411302
 30
0.0
 11
144.56299
 21
-4.508646
 31
0.0
  0
LINE
  5
20A
330
564
100
AcDbEntity
  8
Level 1
  6
Continuous
 62
     7
370
    13
100
AcDbLine
 10
144.771469
 20
-4.366437
 30
0.0
 11
144.771469
 21
-4.250458
 31
0.0
  0
LINE
  5
20B
330
564
100
AcDbEntity
  8
Level 1
  6
Continuous
 62
     7
370
    13
100
AcDbLine
 10
144.946115
 20
-4.405094
 30
0.0
 11
144.946115
 21
-4.50174
 31
0.0
  0
LINE
  5
20C
330
564
100
AcDbEntity
  8
Level 1
  6
Continuous
 62
     7
370
    13
100
AcDbLine
 10
145.155281
 20
-4.366437
 30
0.0
 11
145.155281
 21
-4.250458
 31
0.0
  0
LINE
  5
20D
330
564
100
AcDbEntity
  8
Level 1
  6
Continuous
 62
     7
370
    13
100
AcDbLine
 10
145.329937
 20
-4.405094
 30
0.0
 11
145.329937
 21
-4.514854
 31
0.0
  0
LINE
  5
20E
330
564
100
AcDbEntity
  8
Level 1
  6
Continuous
 62
     7
370
    13
100
AcDbLine
 10
144.56299
 20
-4.263573
 30
0.0
 11
144.56299
 21
-4.372646
 31
0.0
  0
LINE
  5
20F
330
564
100
AcDbEntity
  8
Level 1
  6
Continuous
 62
     7
370
    13
100
AcDbLine
 10
144.771469
 20
-4.205594
 30
0.0
 11
144.771469
 21
-4.089615
 31
0.0
  0
LINE
  5
210
330
564
100
AcDbEntity
  8
Level 1
  6
Continuous
 62
     7
370
    13
100
AcDbLine
 10
144.946115
 20
-4.250458
 30
0.0
 11
144.946115
 21
-4.360219
 31
0.0
  0
LINE
  5
211
330
564
100
AcDbEntity
  8
Level 1
  6
Continuous
 62
     7
370
    13
100
AcDbLine
 10
145.155281
 20
-4.211802
 30
0.0
 11
145.155281
 21
-4.095833
 31
0.0
  0
LINE
  5
212
330
564
100
AcDbEntity
  8
Level 1
  6
Continuous
 62
     7
370
    13
100
AcDbLine
 10
145.329937
 20
-4.250458
 30
0.0
 11
145.329937
 21
-4.366437
 31
0.0
  0
LINE
  5
213
330
564
100
AcDbEntity
  8
Level 1
  6
Continuous
 62
     7
370
    13
100
AcDbLine
 10
144.771469
 20
-5.007052
 30
0.0
 11
144.771469
 21
-4.940094
 31
0.0
  0
LINE
  5
214
330
564
100
AcDbEntity
  8
Level 1
  6
Continuous
 62
     7
370
    13
100
AcDbLine
 10
144.946115
 20
-5.125781
 30
0.0
 11
144.946115
 21
-5.169969
 31
0.0
  0
LINE
  5
215
330
564
100
AcDbEntity
  8
Level 1
  6
Continuous
 62
     7
370
    13
100
AcDbLine
 10
145.155281
 20
-5.007052
 30
0.0
 11
145.155281
 21
-4.94699
 31
0.0
  0
LINE
  5
216
330
564
100
AcDbEntity
  8
Level 1
  6
Continuous
 62
     7
370
    13
100
AcDbLine
 10
145.329937
 20
-5.125781
 30
0.0
 11
145.329937
 21
-5.174104
 31
0.0
  0
LINE
  5
217
330
564
100
AcDbEntity
  8
Level 1
  6
Continuous
 62
     7
370
    13
100
AcDbLine
 10
142.164823
 20
-3.500083
 30
0.0
 11
142.239375
 21
-3.500083
 31
0.0
  0
LINE
  5
218
330
564
100
AcDbEntity
  8
Level 1
  6
Continuous
 62
     7
370
    13
100
AcDbLine
 10
142.546573
 20
-3.500083
 30
0.0
 11
142.624573
 21
-3.500083
 31
0.0
  0
LINE
  5
219
330
564
100
AcDbEntity
  8
Level 1
  6
Continuous
 62
     7
370
    13
100
AcDbLine
 10
142.937292
 20
-3.500083
 30
0.0
 11
143.015292
 21
-3.500083
 31
0.0
  0
LINE
  5
21A
330
564
100
AcDbEntity
  8
Level 1
  6
Continuous
 62
     7
370
    13
100
AcDbLine
 10
142.064729
 20
-3.571187
 30
0.0
 11
142.064729
 21
-3.502844
 31
0.0
  0
LINE
  5
21B
330
564
100
AcDbEntity
  8
Level 1
  6
Continuous
 62
     7
370
    13
100
AcDbLine
 10
142.064729
 20
-3.662313
 30
0.0
 11
142.064729
 21
-3.598115
 31
0.0
  0
LINE
  5
21C
330
564
100
AcDbEntity
  8
Level 1
  6
Continuous
 62
     7
370
    13
100
AcDbLine
 10
142.064729
 20
-3.756885
 30
0.0
 11
142.064729
 21
-3.696135
 31
0.0
  0
LINE
  5
21D
330
564
100
AcDbEntity
  8
Level 1
  6
Continuous
 62
     7
370
    13
100
AcDbLine
 10
142.239375
 20
-3.794156
 30
0.0
 11
142.239375
 21
-3.86526
 31
0.0
  0
LINE
  5
21E
330
564
100
AcDbEntity
  8
Level 1
  6
Continuous
 62
     7
370
    13
100
AcDbLine
 10
142.239375
 20
-3.696135
 30
0.0
 11
142.239375
 21
-3.756885
 31
0.0
  0
LINE
  5
21F
330
564
100
AcDbEntity
  8
Level 1
  6
Continuous
 62
     7
370
    13
100
AcDbLine
 10
142.239375
 20
-3.60501
 30
0.0
 11
142.239375
 21
-3.662313
 31
0.0
  0
LINE
  5
220
330
564
100
AcDbEntity
  8
Level 1
  6
Continuous
 62
     7
370
    13
100
AcDbLine
 10
142.449927
 20
-3.574635
 30
0.0
 11
142.449927
 21
-3.502844
 31
0.0
  0
LINE
  5
221
330
564
100
AcDbEntity
  8
Level 1
  6
Continuous
 62
     7
370
    13
100
AcDbLine
 10
142.449927
 20
-3.66576
 30
0.0
 11
142.449927
 21
-3.60501
 31
0.0
  0
LINE
  5
222
330
564
100
AcDbEntity
  8
Level 1
  6
Continuous
 62
     7
370
    13
100
AcDbLine
 10
142.449927
 20
-3.756885
 30
0.0
 11
142.449927
 21
-3.699583
 31
0.0
  0
LINE
  5
223
330
564
100
AcDbEntity
  8
Level 1
  6
Continuous
 62
     7
370
    13
100
AcDbLine
 10
142.624573
 20
-3.797615
 30
0.0
 11
142.624573
 21
-3.86526
 31
0.0
  0
LINE
  5
224
330
564
100
AcDbEntity
  8
Level 1
  6
Continuous
 62
     7
370
    13
100
AcDbLine
 10
142.624573
 20
-3.699583
 30
0.0
 11
142.624573
 21
-3.760333
 31
0.0
  0
LINE
  5
225
330
564
100
AcDbEntity
  8
Level 1
  6
Continuous
 62
     7
370
    13
100
AcDbLine
 10
142.624573
 20
-3.60501
 30
0.0
 11
142.624573
 21
-3.66576
 31
0.0
  0
LINE
  5
226
330
564
100
AcDbEntity
  8
Level 1
  6
Continuous
 62
     7
370
    13
100
AcDbLine
 10
142.841333
 20
-3.574635
 30
0.0
 11
142.841333
 21
-3.502844
 31
0.0
  0
LINE
  5
227
330
564
100
AcDbEntity
  8
Level 1
  6
Continuous
 62
     7
370
    13
100
AcDbLine
 10
142.841333
 20
-3.669208
 30
0.0
 11
142.841333
 21
-3.60501
 31
0.0
  0
LINE
  5
228
330
564
100
AcDbEntity
  8
Level 1
  6
Continuous
 62
     7
370
    13
100
AcDbLine
 10
142.841333
 20
-3.760333
 30
0.0
 11
142.841333
 21
-3.699583
 31
0.0
  0
LINE
  5
229
330
564
100
AcDbEntity
  8
Level 1
  6
Continuous
 62
     7
370
    13
100
AcDbLine
 10
143.015292
 20
-3.797615
 30
0.0
 11
143.015292
 21
-3.86526
 31
0.0
  0
LINE
  5
22A
330
564
100
AcDbEntity
  8
Level 1
  6
Continuous
 62
     7
370
    13
100
AcDbLine
 10
143.015292
 20
-3.699583
 30
0.0
 11
143.015292
 21
-3.763792
 31
0.0
  0
LINE
  5
22B
330
564
100
AcDbEntity
  8
Level 1
  6
Continuous
 62
     7
370
    13
100
AcDbLine
 10
143.015292
 20
-3.60501
 30
0.0
 11
143.015292
 21
-3.672667
 31
0.0
  0
LINE
  5
22C
330
564
100
AcDbEntity
  8
Level 1
  6
Continuous
 62
     7
370
    13
100
AcDbLine
 10
143.309375
 20
-3.500083
 30
0.0
 11
143.387375
 21
-3.500083
 31
0.0
  0
LINE
  5
22D
330
564
100
AcDbEntity
  8
Level 1
  6
Continuous
 62
     7
370
    13
100
AcDbLine
 10
143.716656
 20
-3.500083
 30
0.0
 11
143.788448
 21
-3.500083
 31
0.0
  0
LINE
  5
22E
330
564
100
AcDbEntity
  8
Level 1
  6
Continuous
 62
     7
370
    13
100
AcDbLine
 10
144.117729
 20
-3.500083
 30
0.0
 11
144.188833
 21
-3.500083
 31
0.0
  0
LINE
  5
22F
330
564
100
AcDbEntity
  8
Level 1
  6
Continuous
 62
     7
370
    13
100
AcDbLine
 10
143.212729
 20
-3.574635
 30
0.0
 11
143.212729
 21
-3.502844
 31
0.0
  0
LINE
  5
230
330
564
100
AcDbEntity
  8
Level 1
  6
Continuous
 62
     7
370
    13
100
AcDbLine
 10
143.387375
 20
-3.607771
 30
0.0
 11
143.387375
 21
-3.678187
 31
0.0
  0
LINE
  5
231
330
564
100
AcDbEntity
  8
Level 1
  6
Continuous
 62
     7
370
    13
100
AcDbLine
 10
143.613802
 20
-3.574635
 30
0.0
 11
143.613802
 21
-3.502844
 31
0.0
  0
LINE
  5
232
330
564
100
AcDbEntity
  8
Level 1
  6
Continuous
 62
     7
370
    13
100
AcDbLine
 10
143.788448
 20
-3.604323
 30
0.0
 11
143.788448
 21
-3.67474
 31
0.0
  0
LINE
  5
233
330
564
100
AcDbEntity
  8
Level 1
  6
Continuous
 62
     7
370
    13
100
AcDbLine
 10
144.014875
 20
-3.574635
 30
0.0
 11
144.014875
 21
-3.502844
 31
0.0
  0
LINE
  5
234
330
564
100
AcDbEntity
  8
Level 1
  6
Continuous
 62
     7
370
    13
100
AcDbLine
 10
144.188833
 20
-3.604323
 30
0.0
 11
144.188833
 21
-3.67474
 31
0.0
  0
LINE
  5
235
330
564
100
AcDbEntity
  8
Level 1
  6
Continuous
 62
     7
370
    13
100
AcDbLine
 10
143.212729
 20
-3.67474
 30
0.0
 11
143.212729
 21
-3.607771
 31
0.0
  0
LINE
  5
236
330
564
100
AcDbEntity
  8
Level 1
  6
Continuous
 62
     7
370
    13
100
AcDbLine
 10
143.212729
 20
-3.764479
 30
0.0
 11
143.212729
 21
-3.700969
 31
0.0
  0
LINE
  5
237
330
564
100
AcDbEntity
  8
Level 1
  6
Continuous
 62
     7
370
    13
100
AcDbLine
 10
143.387375
 20
-3.797615
 30
0.0
 11
143.387375
 21
-3.86526
 31
0.0
  0
LINE
  5
238
330
564
100
AcDbEntity
  8
Level 1
  6
Continuous
 62
     7
370
    13
100
AcDbLine
 10
143.387375
 20
-3.704417
 30
0.0
 11
143.387375
 21
-3.767927
 31
0.0
  0
LINE
  5
239
330
564
100
AcDbEntity
  8
Level 1
  6
Continuous
 62
     7
370
    13
100
AcDbLine
 10
143.613802
 20
-3.678187
 30
0.0
 11
143.613802
 21
-3.607771
 31
0.0
  0
LINE
  5
23A
330
564
100
AcDbEntity
  8
Level 1
  6
Continuous
 62
     7
370
    13
100
AcDbLine
 10
143.613802
 20
-3.767927
 30
0.0
 11
143.613802
 21
-3.707875
 31
0.0
  0
LINE
  5
23B
330
564
100
AcDbEntity
  8
Level 1
  6
Continuous
 62
     7
370
    13
100
AcDbLine
 10
143.788448
 20
-3.801063
 30
0.0
 11
143.788448
 21
-3.864573
 31
0.0
  0
LINE
  5
23C
330
564
100
AcDbEntity
  8
Level 1
  6
Continuous
 62
     7
370
    13
100
AcDbLine
 10
143.788448
 20
-3.707875
 30
0.0
 11
143.788448
 21
-3.767927
 31
0.0
  0
LINE
  5
23D
330
564
100
AcDbEntity
  8
Level 1
  6
Continuous
 62
     7
370
    13
100
AcDbLine
 10
144.014875
 20
-3.678187
 30
0.0
 11
144.014875
 21
-3.604323
 31
0.0
  0
LINE
  5
23E
330
564
100
AcDbEntity
  8
Level 1
  6
Continuous
 62
     7
370
    13
100
AcDbLine
 10
144.014875
 20
-3.771385
 30
0.0
 11
144.014875
 21
-3.704417
 31
0.0
  0
LINE
  5
23F
330
564
100
AcDbEntity
  8
Level 1
  6
Continuous
 62
     7
370
    13
100
AcDbLine
 10
144.188833
 20
-3.801063
 30
0.0
 11
144.188833
 21
-3.86526
 31
0.0
  0
LINE
  5
240
330
564
100
AcDbEntity
  8
Level 1
  6
Continuous
 62
     7
370
    13
100
AcDbLine
 10
144.188833
 20
-3.707875
 30
0.0
 11
144.188833
 21
-3.771385
 31
0.0
  0
LINE
  5
241
330
564
100
AcDbEntity
  8
Level 1
  6
Continuous
 62
     7
370
    13
100
AcDbLine
 10
144.485677
 20
-3.500083
 30
0.0
 11
144.56299
 21
-3.500083
 31
0.0
  0
LINE
  5
242
330
564
100
AcDbEntity
  8
Level 1
  6
Continuous
 62
     7
370
    13
100
AcDbLine
 10
144.866729
 20
-3.500083
 30
0.0
 11
144.946115
 21
-3.500083
 31
0.0
  0
LINE
  5
243
330
564
100
AcDbEntity
  8
Level 1
  6
Continuous
 62
     7
370
    13
100
AcDbLine
 10
145.254
 20
-3.500083
 30
0.0
 11
145.329937
 21
-3.500083
 31
0.0
  0
LINE
  5
244
330
564
100
AcDbEntity
  8
Level 1
  6
Continuous
 62
     7
370
    13
100
AcDbLine
 10
144.388344
 20
-3.578094
 30
0.0
 11
144.388344
 21
-3.502844
 31
0.0
  0
LINE
  5
245
330
564
100
AcDbEntity
  8
Level 1
  6
Continuous
 62
     7
370
    13
100
AcDbLine
 10
144.56299
 20
-3.606396
 30
0.0
 11
144.56299
 21
-3.680948
 31
0.0
  0
LINE
  5
246
330
564
100
AcDbEntity
  8
Level 1
  6
Continuous
 62
     7
370
    13
100
AcDbLine
 10
144.771469
 20
-3.578094
 30
0.0
 11
144.771469
 21
-3.502844
 31
0.0
  0
LINE
  5
247
330
564
100
AcDbEntity
  8
Level 1
  6
Continuous
 62
     7
370
    13
100
AcDbLine
 10
144.946115
 20
-3.606396
 30
0.0
 11
144.946115
 21
-3.687854
 31
0.0
  0
LINE
  5
248
330
564
100
AcDbEntity
  8
Level 1
  6
Continuous
 62
     7
370
    13
100
AcDbLine
 10
145.155281
 20
-3.578094
 30
0.0
 11
145.155281
 21
-3.502844
 31
0.0
  0
LINE
  5
249
330
564
100
AcDbEntity
  8
Level 1
  6
Continuous
 62
     7
370
    13
100
AcDbLine
 10
145.329937
 20
-3.606396
 30
0.0
 11
145.329937
 21
-3.687854
 31
0.0
  0
LINE
  5
24A
330
564
100
AcDbEntity
  8
Level 1
  6
Continuous
 62
     7
370
    13
100
AcDbLine
 10
144.388344
 20
-3.6775
 30
0.0
 11
144.388344
 21
-3.606396
 31
0.0
  0
LINE
  5
24B
330
564
100
AcDbEntity
  8
Level 1
  6
Continuous
 62
     7
370
    13
100
AcDbLine
 10
144.56299
 20
-3.712708
 30
0.0
 11
144.56299
 21
-3.77
 31
0.0
  0
LINE
  5
24C
330
564
100
AcDbEntity
  8
Level 1
  6
Continuous
 62
     7
370
    13
100
AcDbLine
 10
144.771469
 20
-3.684396
 30
0.0
 11
144.771469
 21
-3.606396
 31
0.0
  0
LINE
  5
24D
330
564
100
AcDbEntity
  8
Level 1
  6
Continuous
 62
     7
370
    13
100
AcDbLine
 10
144.946115
 20
-3.712708
 30
0.0
 11
144.946115
 21
-3.762406
 31
0.0
  0
LINE
  5
24E
330
564
100
AcDbEntity
  8
Level 1
  6
Continuous
 62
     7
370
    13
100
AcDbLine
 10
145.155281
 20
-3.687854
 30
0.0
 11
145.155281
 21
-3.606396
 31
0.0
  0
LINE
  5
24F
330
564
100
AcDbEntity
  8
Level 1
  6
Continuous
 62
     7
370
    13
100
AcDbLine
 10
145.329937
 20
-3.712708
 30
0.0
 11
145.329937
 21
-3.766552
 31
0.0
  0
LINE
  5
250
330
564
100
AcDbEntity
  8
Level 1
  6
Continuous
 62
     7
370
    13
100
AcDbLine
 10
144.388344
 20
-3.766552
 30
0.0
 11
144.388344
 21
-3.712708
 31
0.0
  0
LINE
  5
251
330
564
100
AcDbEntity
  8
Level 1
  6
Continuous
 62
     7
370
    13
100
AcDbLine
 10
144.56299
 20
-3.794854
 30
0.0
 11
144.56299
 21
-3.86526
 31
0.0
  0
LINE
  5
252
330
564
100
AcDbEntity
  8
Level 1
  6
Continuous
 62
     7
370
    13
100
AcDbLine
 10
144.771469
 20
-3.77
 30
0.0
 11
144.771469
 21
-3.712708
 31
0.0
  0
LINE
  5
253
330
564
100
AcDbEntity
  8
Level 1
  6
Continuous
 62
     7
370
    13
100
AcDbLine
 10
144.946115
 20
-3.80175
 30
0.0
 11
144.946115
 21
-3.86526
 31
0.0
  0
LINE
  5
254
330
564
100
AcDbEntity
  8
Level 1
  6
Continuous
 62
     7
370
    13
100
AcDbLine
 10
145.155281
 20
-3.766552
 30
0.0
 11
145.155281
 21
-3.712708
 31
0.0
  0
LINE
  5
255
330
564
100
AcDbEntity
  8
Level 1
  6
Continuous
 62
     7
370
    13
100
AcDbLine
 10
145.329937
 20
-3.805208
 30
0.0
 11
145.329937
 21
-3.86526
 31
0.0
  0
LINE
  5
256
330
564
100
AcDbEntity
  8
Level 1
  6
Continuous
 62
     7
370
    13
100
AcDbLine
 10
145.329937
 20
-3.970187
 30
0.0
 11
145.329937
 21
-4.044052
 31
0.0
  0
LINE
  5
257
330
564
100
AcDbEntity
  8
Level 1
  6
Continuous
 62
     7
370
    13
100
AcDbLine
 10
145.155281
 20
-3.86526
 30
0.0
 11
145.155281
 21
-3.805208
 31
0.0
  0
LINE
  5
258
330
564
100
AcDbEntity
  8
Level 1
  6
Continuous
 62
     7
370
    13
100
AcDbLine
 10
144.946115
 20
-3.970187
 30
0.0
 11
144.946115
 21
-4.044052
 31
0.0
  0
LINE
  5
259
330
564
100
AcDbEntity
  8
Level 1
  6
Continuous
 62
     7
370
    13
100
AcDbLine
 10
144.771469
 20
-3.86526
 30
0.0
 11
144.771469
 21
-3.798302
 31
0.0
  0
LINE
  5
25A
330
564
100
AcDbEntity
  8
Level 1
  6
Continuous
 62
     7
370
    13
100
AcDbLine
 10
144.731427
 20
-7.46251
 30
0.0
 11
145.661281
 21
-7.46251
 31
0.0
  0
LWPOLYLINE
  5
25B
330
564
100
AcDbEntity
  8
Level 1
  6
Continuous
 62
     7
370
    13
100
AcDbPolyline
 90
        4
 70
   128
 43
0.0
 10
144.731427
 20
-7.46251
 10
144.731427
 20
-7.400385
 10
145.016531
 20
-7.258177
 10
145.661281
 20
-7.258177
  0
LWPOLYLINE
  5
25C
330
564
100
AcDbEntity
  8
Level 1
  6
Continuous
 62
     7
370
    13
100
AcDbPolyline
 90
        4
 70
   128
 43
0.0
 10
145.155281
 20
-7.46251
 10
145.155281
 20
-7.697219
 10
145.473521
 20
-7.697219
 10
145.473521
 20
-7.46251
  0
LINE
  5
25D
330
564
100
AcDbEntity
  8
Level 1
  6
Continuous
 62
     7
370
    13
100
AcDbLine
 10
145.013073
 20
-7.182937
 30
0.0
 11
145.013073
 21
-7.07249
 31
0.0
  0
LINE
  5
25E
330
564
100
AcDbEntity
  8
Level 1
  6
Continuous
 62
     7
370
    13
100
AcDbLine
 10
144.728667
 20
-7.183625
 30
0.0
 11
144.728667
 21
-7.071792
 31
0.0
  0
LINE
  5
25F
330
564
100
AcDbEntity
  8
Level 1
  6
Continuous
 62
     7
370
    13
100
AcDbLine
 10
144.728667
 20
-7.106312
 30
0.0
 11
145.013073
 21
-7.106312
 31
0.0
  0
LINE
  5
260
330
564
100
AcDbEntity
  8
Level 1
  6
Continuous
 62
     7
370
    13
100
AcDbLine
 10
144.66999
 20
-7.400385
 30
0.0
 11
144.527094
 21
-7.400385
 31
0.0
  0
LINE
  5
261
330
564
100
AcDbEntity
  8
Level 1
  6
Continuous
 62
     7
370
    13
100
AcDbLine
 10
144.665844
 20
-7.45975
 30
0.0
 11
144.525708
 21
-7.45975
 31
0.0
  0
LINE
  5
262
330
564
100
AcDbEntity
  8
Level 1
  6
Continuous
 62
     7
370
    13
100
AcDbLine
 10
144.578865
 20
-7.273365
 30
0.0
 11
144.578865
 21
-7.400385
 31
0.0
  0
LINE
  5
263
330
564
100
AcDbEntity
  8
Level 1
  6
Continuous
 62
     7
370
    13
100
AcDbLine
 10
144.57749
 20
-7.45975
 30
0.0
 11
144.57749
 21
-7.582625
 31
0.0
  0
LINE
  5
264
330
564
100
AcDbEntity
  8
Level 1
  6
Continuous
 62
     7
370
    13
100
AcDbLine
 10
145.661281
 20
-7.147042
 30
0.0
 11
145.661281
 21
-7.315479
 31
0.0
  0
LWPOLYLINE
  5
265
330
564
100
AcDbEntity
  8
Level 1
  6
Continuous
 62
     7
370
    13
100
AcDbPolyline
 90
        6
 70
   128
 43
0.0
 10
145.661281
 20
-7.318927
 10
145.612271
 20
-7.341708
 10
145.747573
 20
-7.358281
 10
145.57224
 20
-7.387271
 10
145.704083
 20
-7.397625
 10
145.662667
 20
-7.412812
  0
LINE
  5
266
330
564
100
AcDbEntity
  8
Level 1
  6
Continuous
 62
     7
370
    13
100
AcDbLine
 10
145.661281
 20
-7.412812
 30
0.0
 11
145.661281
 21
-7.583323
 31
0.0
  0
LWPOLYLINE
  5
267
330
564
100
AcDbEntity
  8
Level 1
  6
Continuous
 62
     7
370
    13
100
AcDbPolyline
 90
        3
 70
   128
 43
0.0
 10
145.287135
 20
-7.258177
 10
145.287135
 20
-7.280958
 10
145.29749
 20
-7.280958
  0
LINE
  5
268
330
564
100
AcDbEntity
  8
Level 1
  6
Continuous
 62
     7
370
    13
100
AcDbLine
 10
145.380323
 20
-7.280958
 30
0.0
 11
145.380323
 21
-7.258177
 31
0.0
  0
LINE
  5
269
330
564
100
AcDbEntity
  8
Level 1
  6
Continuous
 62
     7
370
    13
100
AcDbLine
 10
145.320271
 20
-7.281656
 30
0.0
 11
145.320271
 21
-7.304427
 31
0.0
  0
LWPOLYLINE
  5
26A
330
564
100
AcDbEntity
  8
Level 1
  6
Continuous
 62
     7
370
    13
100
AcDbPolyline
 90
        3
 70
   128
 43
0.0
 10
145.320271
 20
-7.58125
 10
145.349948
 20
-7.58125
 10
145.349948
 20
-7.56951
  0
LINE
  5
26B
330
564
100
AcDbEntity
  8
Level 1
  6
Continuous
 62
     7
370
    13
100
AcDbLine
 10
145.358927
 20
-6.089469
 30
0.0
 11
145.358927
 21
-6.247552
 31
0.0
  0
LWPOLYLINE
  5
26C
330
564
100
AcDbEntity
  8
Level 1
  6
Continuous
 62
     7
370
    13
100
AcDbPolyline
 90
       10
 70
   128
 43
0.0
 10
141.081708
 20
-7.508771
 10
141.081708
 20
-7.476323
 10
141.287427
 20
-7.459062
 10
141.382688
 20
-7.412125
 10
141.383385
 20
-7.463208
 10
141.856937
 20
-7.463208
 10
141.856937
 20
-7.416958
 10
141.946677
 20
-7.469417
 10
142.153781
 20
-7.476323
 10
142.155615
 20
-7.508771
  0
LINE
  5
26D
330
564
100
AcDbEntity
  8
Level 1
  6
Continuous
 62
     7
370
    13
100
AcDbLine
 10
141.220469
 20
-6.108104
 30
0.0
 11
141.220469
 21
-6.272406
 31
0.0
  0
LINE
  5
272
330
564
100
AcDbEntity
  8
Level 1
  6
Continuous
 62
     7
370
    13
100
AcDbLine
 10
141.21425
 20
-3.40551
 30
0.0
 11
142.314625
 21
-3.40551
 31
0.0
  0
LINE
  5
273
330
564
100
AcDbEntity
  8
Level 1
  6
Continuous
 62
     7
370
    13
100
AcDbLine
 10
144.336562
 20
-3.402062
 30
0.0
 11
145.34374
 21
-3.402062
 31
0.0
  0
LINE
  5
274
330
564
100
AcDbEntity
  8
Level 1
  6
Continuous
 62
     7
370
    13
100
AcDbLine
 10
141.167313
 20
-5.631792
 30
0.0
 11
141.016135
 21
-5.631792
 31
0.0
  0
LINE
  5
275
330
564
100
AcDbEntity
  8
Level 1
  6
Continuous
 62
     7
370
    13
100
AcDbLine
 10
141.165927
 20
-6.088781
 30
0.0
 11
141.016135
 21
-6.088781
 31
0.0
  0
LINE
  5
276
330
564
100
AcDbEntity
  8
Level 1
  6
Continuous
 62
     7
370
    13
100
AcDbLine
 10
141.05824
 20
-6.088094
 30
0.0
 11
141.05824
 21
-5.630406
 31
0.0
  0
LINE
  5
278
330
564
100
AcDbEntity
  8
Level 1
  6
Continuous
 62
     7
370
    13
100
AcDbLine
 10
141.221844
 20
-3.317844
 30
0.0
 11
141.273625
 21
-3.063802
 31
0.0
  0
LINE
  5
279
330
564
100
AcDbEntity
  8
Level 1
  6
Continuous
 62
     7
370
    13
100
AcDbLine
 10
145.339167
 20
-3.319917
 30
0.0
 11
145.260208
 21
-3.062427
 31
0.0
  0
LINE
  5
27A
330
564
100
AcDbEntity
  8
Level 1
  6
Continuous
 62
     7
370
    13
100
AcDbLine
 10
143.292115
 20
-3.059667
 30
0.0
 11
143.292115
 21
-3.335792
 31
0.0
  0
LINE
  5
27B
330
564
100
AcDbEntity
  8
Level 1
  6
Continuous
 62
     7
370
    13
100
AcDbLine
 10
143.294875
 20
-4.253219
 30
0.0
 11
143.294875
 21
-4.309833
 31
0.0
  0
LINE
  5
27C
330
564
100
AcDbEntity
  8
Level 1
  6
Continuous
 62
     7
370
    13
100
AcDbLine
 10
143.296948
 20
-4.418896
 30
0.0
 11
143.296948
 21
-5.007052
 31
0.0
  0
LWPOLYLINE
  5
27E
330
564
100
AcDbEntity
  8
Level 1
  6
Continuous
 62
     7
370
    13
100
AcDbPolyline
 90
        3
 70
   128
 43
0.0
 10
145.38301
 20
-3.376458
 10
145.552906
 20
-3.174948
 10
145.640573
 20
-3.174948
  0
LWPOLYLINE
  5
27F
330
564
100
AcDbEntity
  8
Level 1
  6
Continuous
 62
     7
370
    13
100
AcDbPolyline
 90
        3
 70
   128
 43
0.0
 10
140.702448
 20
-3.284708
 10
140.970573
 20
-3.284708
 10
141.175771
 20
-3.369552
  0
LWPOLYLINE
  5
284
330
564
100
AcDbEntity
  8
Level 1
  6
Continuous
 62
     7
370
    13
100
AcDbPolyline
 90
        3
 70
   128
 43
0.0
 10
141.384073
 20
-8.651937
 10
141.456552
 20
-8.651937
 10
141.60599
 20
-9.082698
  0
LINE
  5
285
330
564
100
AcDbEntity
  8
Level 1
  6
Continuous
 62
     7
370
    13
100
AcDbLine
 10
140.261385
 20
-7.508771
 30
0.0
 11
141.078948
 21
-7.508771
 31
0.0
  0
LINE
  5
286
330
564
100
AcDbEntity
  8
Level 1
  6
Continuous
 62
     7
370
    13
100
AcDbLine
 10
141.079646
 20
-7.508771
 30
0.0
 11
142.153781
 21
-7.508771
 31
0.0
  0
LINE
  5
287
330
564
100
AcDbEntity
  8
Level 1
  6
Continuous
 62
     7
370
    13
100
AcDbLine
 10
142.153781
 20
-7.508771
 30
0.0
 11
142.590062
 21
-7.508771
 31
0.0
  0
LINE
  5
28B
330
564
100
AcDbEntity
  8
Level 1
  6
Continuous
 62
     7
370
    13
100
AcDbLine
 10
145.625385
 20
-7.660635
 30
0.0
 11
145.473521
 21
-7.660635
 31
0.0
  0
LINE
  5
28D
330
564
100
AcDbEntity
  8
Level 1
  6
Continuous
 62
     7
370
    13
100
AcDbLine
 10
145.320271
 20
-7.317552
 30
0.0
 11
145.320271
 21
-7.359656
 31
0.0
  0
LINE
  5
28E
330
564
100
AcDbEntity
  8
Level 1
  6
Continuous
 62
     7
370
    13
100
AcDbLine
 10
145.320271
 20
-7.376229
 30
0.0
 11
145.320271
 21
-7.423167
 31
0.0
  0
LINE
  5
28F
330
564
100
AcDbEntity
  8
Level 1
  6
Continuous
 62
     7
370
    13
100
AcDbLine
 10
145.320271
 20
-7.4425
 30
0.0
 11
145.320271
 21
-7.490125
 31
0.0
  0
LINE
  5
290
330
564
100
AcDbEntity
  8
Level 1
  6
Continuous
 62
     7
370
    13
100
AcDbLine
 10
145.320271
 20
-7.509458
 30
0.0
 11
145.320271
 21
-7.557083
 31
0.0
  0
LINE
  5
291
330
564
100
AcDbEntity
  8
Level 1
  6
Continuous
 62
     7
370
    13
100
AcDbLine
 10
145.320271
 20
-7.568823
 30
0.0
 11
145.320271
 21
-7.58125
 31
0.0
  0
LINE
  5
292
330
564
100
AcDbEntity
  8
Level 1
  6
Continuous
 62
     7
370
    13
100
AcDbLine
 10
145.349948
 20
-7.557083
 30
0.0
 11
145.349948
 21
-7.508771
 31
0.0
  0
LINE
  5
293
330
564
100
AcDbEntity
  8
Level 1
  6
Continuous
 62
     7
370
    13
100
AcDbLine
 10
145.349948
 20
-7.487365
 30
0.0
 11
145.349948
 21
-7.443187
 31
0.0
  0
LINE
  5
294
330
564
100
AcDbEntity
  8
Level 1
  6
Continuous
 62
     7
370
    13
100
AcDbLine
 10
145.349948
 20
-7.423854
 30
0.0
 11
145.349948
 21
-7.374156
 31
0.0
  0
LINE
  5
295
330
564
100
AcDbEntity
  8
Level 1
  6
Continuous
 62
     7
370
    13
100
AcDbLine
 10
145.349948
 20
-7.358969
 30
0.0
 11
145.349948
 21
-7.31824
 31
0.0
  0
LINE
  5
296
330
564
100
AcDbEntity
  8
Level 1
  6
Continuous
 62
     7
370
    13
100
AcDbLine
 10
145.349948
 20
-7.303052
 30
0.0
 11
145.349948
 21
-7.280958
 31
0.0
  0
LINE
  5
297
330
564
100
AcDbEntity
  8
Level 1
  6
Continuous
 62
     7
370
    13
100
AcDbLine
 10
145.340979
 20
-7.280958
 30
0.0
 11
145.362375
 21
-7.280958
 31
0.0
  0
LINE
  5
298
330
564
100
AcDbEntity
  8
Level 1
  6
Continuous
 62
     7
370
    13
100
AcDbLine
 10
145.374115
 20
-7.280958
 30
0.0
 11
145.380323
 21
-7.280958
 31
0.0
  0
LINE
  5
299
330
564
100
AcDbEntity
  8
Level 1
  6
Continuous
 62
     7
370
    13
100
AcDbLine
 10
145.307844
 20
-7.280958
 30
0.0
 11
145.330625
 21
-7.280958
 31
0.0
  0
LINE
  5
29A
330
564
100
AcDbEntity
  8
Level 1
  6
Continuous
 62
     7
370
    13
100
AcDbLine
 10
141.94599
 20
-9.283573
 30
0.0
 11
142.299437
 21
-9.283573
 31
0.0
  0
LINE
  5
29B
330
564
100
AcDbEntity
  8
Level 1
  6
Continuous
 62
     7
370
    13
100
AcDbLine
 10
142.299437
 20
-9.283573
 30
0.0
 11
142.323594
 21
-9.283573
 31
0.0
  0
LWPOLYLINE
  5
29C
330
564
100
AcDbEntity
  8
Level 1
  6
Continuous
 62
     7
370
    13
100
AcDbPolyline
 90
        5
 70
   128
 43
0.0
 10
144.480844
 20
-9.283573
 10
144.904698
 20
-9.283573
 10
144.904698
 20
-9.469271
 10
141.94599
 20
-9.469271
 10
141.94599
 20
-9.283573
  0
LINE
  5
29D
330
564
100
AcDbEntity
  8
Level 1
  6
Continuous
 62
     7
370
    13
100
AcDbLine
 10
142.323594
 20
-9.283573
 30
0.0
 11
144.480844
 21
-9.283573
 31
0.0
  0
LINE
  5
29E
330
564
100
AcDbEntity
  8
Level 1
  6
Continuous
 62
     7
370
    13
100
AcDbLine
 10
142.663521
 20
-9.083385
 30
0.0
 11
144.186698
 21
-9.083385
 31
0.0
  0
LINE
  5
29F
330
564
100
AcDbEntity
  8
Level 1
  6
Continuous
 62
     7
370
    13
100
AcDbLine
 10
144.054229
 20
-10.066396
 30
0.0
 11
144.406292
 21
-10.081583
 31
0.0
  0
LWPOLYLINE
  5
2A0
330
564
100
AcDbEntity
  8
Level 1
  6
Continuous
 62
     7
370
    13
100
AcDbPolyline
 90
        8
 70
   128
 43
0.0
 10
141.563552
 20
-7.022094
 10
141.576667
 20
-7.028302
 10
141.582885
 20
-7.034521
 10
141.589094
 20
-7.040729
 10
141.59324
 20
-7.048323
 10
141.597375
 20
-7.055917
 10
141.599448
 20
-7.066271
 10
141.602208
 20
-7.075937
  0
LWPOLYLINE
  5
2A1
330
564
100
AcDbEntity
  8
Level 1
  6
Continuous
 62
     7
370
    13
100
AcDbPolyline
 90
        9
 70
   128
 43
0.0
 10
141.718052
 20
-7.007208
 10
141.719562
 20
-6.928896
 10
141.705073
 20
-6.901281
 10
141.674698
 20
-6.886094
 10
141.548365
 20
-6.886792
 10
141.517302
 20
-6.901281
 10
141.505562
 20
-6.928208
 10
141.511781
 20
-7.006906
 10
141.565625
 20
-7.022781
  0
LWPOLYLINE
  5
2A2
330
564
100
AcDbEntity
  8
Level 1
  6
Continuous
 62
     7
370
    13
100
AcDbPolyline
 90
        5
 70
   128
 43
0.0
 10
141.602906
 20
-7.075937
 10
141.602906
 20
-7.314792
 10
141.575979
 20
-7.347229
 10
141.534562
 20
-7.37001
 10
141.402708
 20
-7.40075
  0
LINE
  5
2A3
330
564
100
AcDbEntity
  8
Level 1
  6
Continuous
 62
     7
370
    13
100
AcDbLine
 10
145.3395
 20
-5.628333
 30
0.0
 11
145.51425
 21
-5.461969
 31
0.0
  0
LWPOLYLINE
  5
2A4
330
564
100
AcDbEntity
  8
Level 1
  6
Continuous
 62
     7
370
    13
100
AcDbPolyline
 90
        3
 70
   128
 43
0.0
 10
145.336146
 20
-5.627646
 10
145.163562
 20
-6.096375
 10
145.163562
 20
-6.260667
  0
LINE
  5
2A5
330
564
100
AcDbEntity
  8
Level 1
  6
Continuous
 62
     7
370
    13
100
AcDbLine
 10
145.514938
 20
-5.461969
 30
0.0
 11
145.514938
 21
-5.125781
 31
0.0
  0
LWPOLYLINE
  5
2A6
330
564
100
AcDbEntity
  8
Level 1
  6
Continuous
 62
     7
370
    13
100
AcDbPolyline
 90
        4
 70
   128
 43
0.0
 10
145.656458
 20
-5.125781
 10
145.656458
 20
-5.459896
 10
145.51425
 20
-5.459896
 10
145.51425
 20
-5.127854
  0
LINE
  5
2A7
330
564
100
AcDbEntity
  8
Level 1
  6
Continuous
 62
     7
370
    13
100
AcDbLine
 10
145.51425
 20
-5.007052
 30
0.0
 11
145.51425
 21
-3.970187
 31
0.0
  0
LINE
  5
2A8
330
564
100
AcDbEntity
  8
Level 1
  6
Continuous
 62
     7
370
    13
100
AcDbLine
 10
145.51425
 20
-3.86526
 30
0.0
 11
145.51425
 21
-3.497323
 31
0.0
  0
LWPOLYLINE
  5
2A9
330
564
100
AcDbEntity
  8
Level 1
  6
Continuous
 62
     7
370
    13
100
AcDbPolyline
 90
        3
 70
   128
 43
0.0
 10
145.513729
 20
-3.497323
 10
145.656458
 20
-3.497323
 10
145.656458
 20
-3.86526
  0
LINE
  5
2AA
330
564
100
AcDbEntity
  8
Level 1
  6
Continuous
 62
     7
370
    13
100
AcDbLine
 10
145.656458
 20
-3.970187
 30
0.0
 11
145.656458
 21
-5.007052
 31
0.0
  0
LINE
  5
2AB
330
564
100
AcDbEntity
  8
Level 1
  6
Continuous
 62
     7
370
    13
100
AcDbLine
 10
145.339594
 20
-3.315771
 30
0.0
 11
145.343052
 21
-3.323365
 31
0.0
  0
LINE
  5
2AC
330
564
100
AcDbEntity
  8
Level 1
  6
Continuous
 62
     7
370
    13
100
AcDbLine
 10
145.34374
 20
-3.340146
 30
0.0
 11
145.513729
 21
-3.497323
 31
0.0
  0
LINE
  5
2AD
330
564
100
AcDbEntity
  8
Level 1
  6
Continuous
 62
     7
370
    13
100
AcDbLine
 10
145.514938
 20
-3.86526
 30
0.0
 11
145.514938
 21
-3.497323
 31
0.0
  0
LINE
  5
2AE
330
564
100
AcDbEntity
  8
Level 1
  6
Continuous
 62
     7
370
    13
100
AcDbLine
 10
141.038219
 20
-3.499396
 30
0.0
 11
141.038219
 21
-3.86526
 31
0.0
  0
LINE
  5
2AF
330
564
100
AcDbEntity
  8
Level 1
  6
Continuous
 62
     7
370
    13
100
AcDbLine
 10
141.215635
 20
-3.86526
 30
0.0
 11
141.215635
 21
-3.778969
 31
0.0
  0
LINE
  5
2B0
330
564
100
AcDbEntity
  8
Level 1
  6
Continuous
 62
     7
370
    13
100
AcDbLine
 10
141.214948
 20
-3.323365
 30
0.0
 11
141.210802
 21
-3.331646
 31
0.0
  0
LINE
  5
2B1
330
564
100
AcDbEntity
  8
Level 1
  6
Continuous
 62
     7
370
    13
100
AcDbLine
 10
141.212875
 20
-3.335094
 30
0.0
 11
141.038219
 21
-3.497323
 31
0.0
  0
LINE
  5
2B2
330
564
100
AcDbEntity
  8
Level 1
  6
Continuous
 62
     7
370
    13
100
AcDbLine
 10
141.034771
 20
-3.970187
 30
0.0
 11
141.034771
 21
-5.007052
 31
0.0
  0
LWPOLYLINE
  5
2B3
330
564
100
AcDbEntity
  8
Level 1
  6
Continuous
 62
     7
370
    13
100
AcDbPolyline
 90
        3
 70
   128
 43
0.0
 10
141.02925
 20
-5.125781
 10
141.02925
 20
-5.459896
 10
141.212875
 20
-5.629719
  0
LWPOLYLINE
  5
2B4
330
564
100
AcDbEntity
  8
Level 1
  6
Continuous
 62
     7
370
    13
100
AcDbPolyline
 90
        3
 70
   128
 43
0.0
 10
141.225625
 20
-5.628333
 10
141.399948
 20
-6.087396
 10
141.399948
 20
-6.271719
  0
LINE
  5
2B5
330
564
100
AcDbEntity
  8
Level 1
  6
Continuous
 62
     7
370
    13
100
AcDbLine
 10
141.212875
 20
-5.23624
 30
0.0
 11
141.212875
 21
-5.125781
 31
0.0
  0
LINE
  5
2B6
330
564
100
AcDbEntity
  8
Level 1
  6
Continuous
 62
     7
370
    13
100
AcDbLine
 10
141.21425
 20
-4.909021
 30
0.0
 11
141.21425
 21
-5.007052
 31
0.0
  0
LINE
  5
2B7
330
564
100
AcDbEntity
  8
Level 1
  6
Continuous
 62
     7
370
    13
100
AcDbLine
 10
141.215635
 20
-4.062698
 30
0.0
 11
141.215635
 21
-3.970187
 31
0.0
  0
LINE
  5
2B8
330
564
100
AcDbEntity
  8
Level 1
  6
Continuous
 62
     7
370
    13
100
AcDbLine
 10
145.34374
 20
-3.325438
 30
0.0
 11
145.34374
 21
-3.86526
 31
0.0
  0
LINE
  5
2B9
330
564
100
AcDbEntity
  8
Level 1
  6
Continuous
 62
     7
370
    13
100
AcDbLine
 10
145.34374
 20
-3.970187
 30
0.0
 11
145.34374
 21
-5.007052
 31
0.0
  0
LINE
  5
2BA
330
564
100
AcDbEntity
  8
Level 1
  6
Continuous
 62
     7
370
    13
100
AcDbLine
 10
145.34374
 20
-5.125781
 30
0.0
 11
145.34374
 21
-5.624302
 31
0.0
  0
LINE
  5
2BB
330
564
100
AcDbEntity
  8
Level 1
  6
Continuous
 62
     7
370
    13
100
AcDbLine
 10
145.343052
 20
-5.007052
 30
0.0
 11
141.212875
 21
-5.007052
 31
0.0
  0
LINE
  5
2BC
330
564
100
AcDbEntity
  8
Level 1
  6
Continuous
 62
     7
370
    13
100
AcDbLine
 10
143.292115
 20
-3.46626
 30
0.0
 11
143.292115
 21
-3.86526
 31
0.0
  0
LWPOLYLINE
  5
2BD
330
564
100
AcDbEntity
  8
Level 1
  6
Continuous
 62
     7
370
    13
100
AcDbPolyline
 90
        3
 70
   128
 43
0.0
 10
144.304812
 20
-2.914698
 10
144.192979
 20
-2.914698
 10
143.510073
 20
-3.319917
  0
LWPOLYLINE
  5
2BE
330
564
100
AcDbEntity
  8
Level 1
  6
Continuous
 62
     7
370
    13
100
AcDbPolyline
 90
        3
 70
   128
 43
0.0
 10
142.443021
 20
-5.856833
 10
142.332573
 20
-5.856833
 10
141.982573
 20
-5.629031
  0
LWPOLYLINE
  5
2ED
330
564
100
AcDbEntity
  8
Level 1
  6
Continuous
 62
     7
370
    13
100
AcDbPolyline
 90
        4
 70
   128
 43
0.0
 10
145.242854
 20
-7.46251
 10
145.188417
 20
-7.484604
 10
145.173229
 20
-7.508073
 10
145.155281
 20
-7.547969
  0
LWPOLYLINE
  5
2EE
330
564
100
AcDbEntity
  8
Level 1
  6
Continuous
 62
     7
370
    13
100
AcDbPolyline
 90
        7
 70
   128
 43
0.0
 10
145.229969
 20
-7.697219
 10
145.249854
 20
-7.624052
 10
145.278854
 20
-7.580563
 10
145.343052
 20
-7.530167
 10
145.396896
 20
-7.507385
 10
145.445219
 20
-7.501177
 10
145.473521
 20
-7.488792
  0
LWPOLYLINE
  5
2EF
330
564
100
AcDbEntity
  8
Level 1
  6
Continuous
 62
     7
370
    13
100
AcDbPolyline
 90
        6
 70
   128
 43
0.0
 10
145.311323
 20
-7.697219
 10
145.33476
 20
-7.649594
 10
145.361
 20
-7.614385
 10
145.405177
 20
-7.591604
 10
145.445906
 20
-7.579177
 10
145.473521
 20
-7.578365
  0
LWPOLYLINE
  5
2F0
330
564
100
AcDbEntity
  8
Level 1
  6
Continuous
 62
     7
370
    13
100
AcDbPolyline
 90
        4
 70
   128
 43
0.0
 10
145.401792
 20
-7.697219
 10
145.423125
 20
-7.648208
 10
145.45626
 20
-7.642
 10
145.473521
 20
-7.642
  0
LWPOLYLINE
  5
2F1
330
564
100
AcDbEntity
  8
Level 1
  6
Continuous
 62
     7
370
    13
100
AcDbPolyline
 90
        8
 70
   128
 43
0.0
 10
141.402708
 20
-7.40075
 10
141.402708
 20
-7.450094
 10
141.839677
 20
-7.450094
 10
141.839677
 20
-7.415573
 10
141.6885
 20
-7.369323
 10
141.660885
 20
-7.347917
 10
141.642937
 20
-7.314094
 10
141.640958
 20
-7.070156
  0
LINE
  5
2F4
330
564
100
AcDbEntity
  8
Level 1
  6
Continuous
 62
     7
370
    13
100
AcDbLine
 10
141.504188
 20
-6.848823
 30
0.0
 11
141.504188
 21
-6.524375
 31
0.0
  0
LINE
  5
2F5
330
564
100
AcDbEntity
  8
Level 1
  6
Continuous
 62
     7
370
    13
100
AcDbLine
 10
141.723708
 20
-6.860552
 30
0.0
 11
141.723708
 21
-6.52575
 31
0.0
  0
LWPOLYLINE
  5
2F7
330
564
100
AcDbEntity
  8
Level 1
  6
Continuous
 62
     7
370
    13
100
AcDbPolyline
 90
        3
 70
   128
 43
0.0
 10
141.250146
 20
-6.456031
 10
141.294333
 20
-6.456031
 10
141.387521
 20
-6.558885
  0
LINE
  5
2F9
330
564
100
AcDbEntity
  8
Level 1
  6
Continuous
 62
     7
370
    13
100
AcDbLine
 10
141.724396
 20
-6.558885
 30
0.0
 11
141.907333
 21
-6.558885
 31
0.0
  0
LINE
  5
2FD
330
564
100
AcDbEntity
  8
Level 1
  6
Continuous
 62
     7
370
    13
100
AcDbLine
 10
144.034896
 20
-9.283573
 30
0.0
 11
144.05975
 21
-9.283573
 31
0.0
  0
LINE
  5
2FF
330
564
100
AcDbEntity
  8
Level 1
  6
Continuous
 62
     7
370
    13
100
AcDbLine
 10
143.419135
 20
-9.806833
 30
0.0
 11
141.636042
 21
-9.924885
 31
0.0
  0
LINE
  5
300
330
564
100
AcDbEntity
  8
Level 1
  6
Continuous
 62
     7
370
    13
100
AcDbLine
 10
143.415677
 20
-9.802
 30
0.0
 11
145.155969
 21
-9.9235
 31
0.0
  0
LWPOLYLINE
  5
301
330
564
100
AcDbEntity
  8
Level 1
  6
Continuous
 62
     7
370
    13
100
AcDbPolyline
 90
        3
 70
   128
 43
0.0
 10
141.63949
 20
-9.9235
 10
141.63949
 20
-9.084073
 10
142.492927
 20
-9.084073
  0
LWPOLYLINE
  5
302
330
564
100
AcDbEntity
  8
Level 1
  6
Continuous
 62
     7
370
    13
100
AcDbPolyline
 90
        3
 70
   128
 43
0.0
 10
144.357021
 20
-9.080625
 10
145.159427
 20
-9.080625
 10
145.159427
 20
-9.926948
  0
LINE
  5
303
330
564
100
AcDbEntity
  8
Level 1
  6
Continuous
 62
     7
370
    13
100
AcDbLine
 10
141.954271
 20
-10.118167
 30
0.0
 11
142.316
 21
-10.100219
 31
0.0
  0
LINE
  5
308
330
564
100
AcDbEntity
  8
Level 1
  6
Continuous
 62
     7
370
    13
100
AcDbLine
 10
141.975677
 20
-9.921427
 30
0.0
 11
141.971531
 21
-9.917292
 31
0.0
  0
LINE
  5
309
330
564
100
AcDbEntity
  8
Level 1
  6
Continuous
 62
     7
370
    13
100
AcDbLine
 10
141.708521
 20
-9.944208
 30
0.0
 11
141.69126
 21
-9.926948
 31
0.0
  0
LINE
  5
30A
330
564
100
AcDbEntity
  8
Level 1
  6
Continuous
 62
     7
370
    13
100
AcDbLine
 10
141.830708
 20
-9.944208
 30
0.0
 11
141.809313
 21
-9.922812
 31
0.0
  0
LINE
  5
30B
330
564
100
AcDbEntity
  8
Level 1
  6
Continuous
 62
     7
370
    13
100
AcDbLine
 10
141.952896
 20
-9.944208
 30
0.0
 11
141.927354
 21
-9.919354
 31
0.0
  0
LINE
  5
30C
330
564
100
AcDbEntity
  8
Level 1
  6
Continuous
 62
     7
370
    13
100
AcDbLine
 10
141.68574
 20
-9.96699
 30
0.0
 11
141.647083
 21
-9.928333
 31
0.0
  0
LINE
  5
30D
330
564
100
AcDbEntity
  8
Level 1
  6
Continuous
 62
     7
370
    13
100
AcDbLine
 10
141.807927
 20
-9.96699
 30
0.0
 11
141.765125
 21
-9.924885
 31
0.0
  0
LINE
  5
30E
330
564
100
AcDbEntity
  8
Level 1
  6
Continuous
 62
     7
370
    13
100
AcDbLine
 10
141.930115
 20
-9.96699
 30
0.0
 11
141.883167
 21
-9.92074
 31
0.0
  0
LINE
  5
30F
330
564
100
AcDbEntity
  8
Level 1
  6
Continuous
 62
     7
370
    13
100
AcDbLine
 10
142.051615
 20
-9.96699
 30
0.0
 11
142.001219
 21
-9.916594
 31
0.0
  0
LINE
  5
310
330
564
100
AcDbEntity
  8
Level 1
  6
Continuous
 62
     7
370
    13
100
AcDbLine
 10
141.68574
 20
-9.982177
 30
0.0
 11
141.743042
 21
-9.925573
 31
0.0
  0
LINE
  5
311
330
564
100
AcDbEntity
  8
Level 1
  6
Continuous
 62
     7
370
    13
100
AcDbLine
 10
141.807927
 20
-9.982177
 30
0.0
 11
141.868677
 21
-9.921427
 31
0.0
  0
LINE
  5
312
330
564
100
AcDbEntity
  8
Level 1
  6
Continuous
 62
     7
370
    13
100
AcDbLine
 10
141.930115
 20
-9.982177
 30
0.0
 11
141.990865
 21
-9.921427
 31
0.0
  0
LINE
  5
313
330
564
100
AcDbEntity
  8
Level 1
  6
Continuous
 62
     7
370
    13
100
AcDbLine
 10
141.612562
 20
-9.979417
 30
0.0
 11
141.647771
 21
-9.944208
 31
0.0
  0
LINE
  5
314
330
564
100
AcDbEntity
  8
Level 1
  6
Continuous
 62
     7
370
    13
100
AcDbLine
 10
141.708521
 20
-10.004958
 30
0.0
 11
141.769958
 21
-9.944208
 31
0.0
  0
LINE
  5
315
330
564
100
AcDbEntity
  8
Level 1
  6
Continuous
 62
     7
370
    13
100
AcDbLine
 10
141.830708
 20
-10.004958
 30
0.0
 11
141.891458
 21
-9.944208
 31
0.0
  0
LINE
  5
316
330
564
100
AcDbEntity
  8
Level 1
  6
Continuous
 62
     7
370
    13
100
AcDbLine
 10
141.952896
 20
-10.004958
 30
0.0
 11
142.013646
 21
-9.944208
 31
0.0
  0
LINE
  5
317
330
564
100
AcDbEntity
  8
Level 1
  6
Continuous
 62
     7
370
    13
100
AcDbLine
 10
141.612562
 20
-10.024979
 30
0.0
 11
141.670552
 21
-9.96699
 31
0.0
  0
LINE
  5
318
330
564
100
AcDbEntity
  8
Level 1
  6
Continuous
 62
     7
370
    13
100
AcDbLine
 10
141.731302
 20
-10.028427
 30
0.0
 11
141.79274
 21
-9.96699
 31
0.0
  0
LINE
  5
319
330
564
100
AcDbEntity
  8
Level 1
  6
Continuous
 62
     7
370
    13
100
AcDbLine
 10
141.85349
 20
-10.028427
 30
0.0
 11
141.91424
 21
-9.96699
 31
0.0
  0
LINE
  5
31A
330
564
100
AcDbEntity
  8
Level 1
  6
Continuous
 62
     7
370
    13
100
AcDbLine
 10
141.978437
 20
-10.026354
 30
0.0
 11
142.039875
 21
-9.964917
 31
0.0
  0
LINE
  5
31B
330
564
100
AcDbEntity
  8
Level 1
  6
Continuous
 62
     7
370
    13
100
AcDbLine
 10
143.076729
 20
-9.82824
 30
0.0
 11
143.072594
 21
-9.824781
 31
0.0
  0
LINE
  5
31C
330
564
100
AcDbEntity
  8
Level 1
  6
Continuous
 62
     7
370
    13
100
AcDbLine
 10
143.198229
 20
-9.819958
 30
0.0
 11
143.189948
 21
-9.813052
 31
0.0
  0
LINE
  5
31D
330
564
100
AcDbEntity
  8
Level 1
  6
Continuous
 62
     7
370
    13
100
AcDbLine
 10
142.811646
 20
-9.868271
 30
0.0
 11
142.793698
 21
-9.852396
 31
0.0
  0
LINE
  5
31E
330
564
100
AcDbEntity
  8
Level 1
  6
Continuous
 62
     7
370
    13
100
AcDbLine
 10
142.933146
 20
-9.85999
 30
0.0
 11
142.911052
 21
-9.840667
 31
0.0
  0
LINE
  5
31F
330
564
100
AcDbEntity
  8
Level 1
  6
Continuous
 62
     7
370
    13
100
AcDbLine
 10
143.055333
 20
-9.852396
 30
0.0
 11
143.028406
 21
-9.828927
 31
0.0
  0
LINE
  5
320
330
564
100
AcDbEntity
  8
Level 1
  6
Continuous
 62
     7
370
    13
100
AcDbLine
 10
143.176833
 20
-9.844802
 30
0.0
 11
143.14576
 21
-9.817187
 31
0.0
  0
LINE
  5
321
330
564
100
AcDbEntity
  8
Level 1
  6
Continuous
 62
     7
370
    13
100
AcDbLine
 10
142.79025
 20
-9.892437
 30
0.0
 11
142.749521
 21
-9.856542
 31
0.0
  0
LINE
  5
322
330
564
100
AcDbEntity
  8
Level 1
  6
Continuous
 62
     7
370
    13
100
AcDbLine
 10
142.912437
 20
-9.884844
 30
0.0
 11
142.866875
 21
-9.844802
 31
0.0
  0
LINE
  5
323
330
564
100
AcDbEntity
  8
Level 1
  6
Continuous
 62
     7
370
    13
100
AcDbLine
 10
143.033938
 20
-9.876563
 30
0.0
 11
142.984229
 21
-9.833073
 31
0.0
  0
LINE
  5
324
330
564
100
AcDbEntity
  8
Level 1
  6
Continuous
 62
     7
370
    13
100
AcDbLine
 10
143.155427
 20
-9.868969
 30
0.0
 11
143.102271
 21
-9.821333
 31
0.0
  0
LINE
  5
325
330
564
100
AcDbEntity
  8
Level 1
  6
Continuous
 62
     7
370
    13
100
AcDbLine
 10
143.277615
 20
-9.860677
 30
0.0
 11
143.219625
 21
-9.810292
 31
0.0
  0
LINE
  5
326
330
564
100
AcDbEntity
  8
Level 1
  6
Continuous
 62
     7
370
    13
100
AcDbLine
 10
142.791635
 20
-9.907625
 30
0.0
 11
142.844781
 21
-9.846875
 31
0.0
  0
LINE
  5
327
330
564
100
AcDbEntity
  8
Level 1
  6
Continuous
 62
     7
370
    13
100
AcDbLine
 10
142.913125
 20
-9.900031
 30
0.0
 11
142.970427
 21
-9.835135
 31
0.0
  0
LINE
  5
328
330
564
100
AcDbEntity
  8
Level 1
  6
Continuous
 62
     7
370
    13
100
AcDbLine
 10
143.034625
 20
-9.89175
 30
0.0
 11
143.091917
 21
-9.826854
 31
0.0
  0
LINE
  5
329
330
564
100
AcDbEntity
  8
Level 1
  6
Continuous
 62
     7
370
    13
100
AcDbLine
 10
143.156813
 20
-9.884156
 30
0.0
 11
143.213417
 21
-9.81926
 31
0.0
  0
LINE
  5
32A
330
564
100
AcDbEntity
  8
Level 1
  6
Continuous
 62
     7
370
    13
100
AcDbLine
 10
142.718458
 20
-9.909
 30
0.0
 11
142.750906
 21
-9.872417
 31
0.0
  0
LINE
  5
32B
330
564
100
AcDbEntity
  8
Level 1
  6
Continuous
 62
     7
370
    13
100
AcDbLine
 10
142.815792
 20
-9.929021
 30
0.0
 11
142.872396
 21
-9.864135
 31
0.0
  0
LINE
  5
32C
330
564
100
AcDbEntity
  8
Level 1
  6
Continuous
 62
     7
370
    13
100
AcDbLine
 10
142.937292
 20
-9.921427
 30
0.0
 11
142.994583
 21
-9.856542
 31
0.0
  0
LINE
  5
32D
330
564
100
AcDbEntity
  8
Level 1
  6
Continuous
 62
     7
370
    13
100
AcDbLine
 10
143.059479
 20
-9.913146
 30
0.0
 11
143.116083
 21
-9.84826
 31
0.0
  0
LINE
  5
32E
330
564
100
AcDbEntity
  8
Level 1
  6
Continuous
 62
     7
370
    13
100
AcDbLine
 10
143.180969
 20
-9.905552
 30
0.0
 11
143.238271
 21
-9.840667
 31
0.0
  0
LINE
  5
32F
330
564
100
AcDbEntity
  8
Level 1
  6
Continuous
 62
     7
370
    13
100
AcDbLine
 10
142.721219
 20
-9.95526
 30
0.0
 11
142.775062
 21
-9.893125
 31
0.0
  0
LINE
  5
330
330
564
100
AcDbEntity
  8
Level 1
  6
Continuous
 62
     7
370
    13
100
AcDbLine
 10
142.839958
 20
-9.950427
 30
0.0
 11
142.89725
 21
-9.885531
 31
0.0
  0
LINE
  5
331
330
564
100
AcDbEntity
  8
Level 1
  6
Continuous
 62
     7
370
    13
100
AcDbLine
 10
142.961448
 20
-9.942833
 30
0.0
 11
143.01875
 21
-9.877937
 31
0.0
  0
LINE
  5
332
330
564
100
AcDbEntity
  8
Level 1
  6
Continuous
 62
     7
370
    13
100
AcDbLine
 10
143.083635
 20
-9.934542
 30
0.0
 11
143.14024
 21
-9.869656
 31
0.0
  0
LINE
  5
333
330
564
100
AcDbEntity
  8
Level 1
  6
Continuous
 62
     7
370
    13
100
AcDbLine
 10
143.205135
 20
-9.926948
 30
0.0
 11
143.262427
 21
-9.862063
 31
0.0
  0
LINE
  5
334
330
564
100
AcDbEntity
  8
Level 1
  6
Continuous
 62
     7
370
    13
100
AcDbLine
 10
141.408927
 20
-9.311875
 30
0.0
 11
141.418583
 21
-9.302219
 31
0.0
  0
LINE
  5
335
330
564
100
AcDbEntity
  8
Level 1
  6
Continuous
 62
     7
370
    13
100
AcDbLine
 10
141.408927
 20
-9.434062
 30
0.0
 11
141.469667
 21
-9.373312
 31
0.0
  0
LINE
  5
336
330
564
100
AcDbEntity
  8
Level 1
  6
Continuous
 62
     7
370
    13
100
AcDbLine
 10
141.531104
 20
-9.311875
 30
0.0
 11
141.544917
 21
-9.298073
 31
0.0
  0
LINE
  5
337
330
564
100
AcDbEntity
  8
Level 1
  6
Continuous
 62
     7
370
    13
100
AcDbLine
 10
141.531104
 20
-9.434062
 30
0.0
 11
141.591854
 21
-9.373312
 31
0.0
  0
LINE
  5
338
330
564
100
AcDbEntity
  8
Level 1
  6
Continuous
 62
     7
370
    13
100
AcDbLine
 10
141.386146
 20
-9.411281
 30
0.0
 11
141.446885
 21
-9.350542
 31
0.0
  0
LINE
  5
339
330
564
100
AcDbEntity
  8
Level 1
  6
Continuous
 62
     7
370
    13
100
AcDbLine
 10
141.508333
 20
-9.411281
 30
0.0
 11
141.569073
 21
-9.350542
 31
0.0
  0
LINE
  5
33A
330
564
100
AcDbEntity
  8
Level 1
  6
Continuous
 62
     7
370
    13
100
AcDbLine
 10
141.629823
 20
-9.411281
 30
0.0
 11
141.631208
 21
-9.410594
 31
0.0
  0
LINE
  5
33B
330
564
100
AcDbEntity
  8
Level 1
  6
Continuous
 62
     7
370
    13
100
AcDbLine
 10
141.363365
 20
-9.3885
 30
0.0
 11
141.424115
 21
-9.327063
 31
0.0
  0
LINE
  5
33C
330
564
100
AcDbEntity
  8
Level 1
  6
Continuous
 62
     7
370
    13
100
AcDbLine
 10
141.485552
 20
-9.3885
 30
0.0
 11
141.546292
 21
-9.327063
 31
0.0
  0
LINE
  5
33D
330
564
100
AcDbEntity
  8
Level 1
  6
Continuous
 62
     7
370
    13
100
AcDbLine
 10
141.607042
 20
-9.3885
 30
0.0
 11
141.631208
 21
-9.365031
 31
0.0
  0
LINE
  5
33E
330
564
100
AcDbEntity
  8
Level 1
  6
Continuous
 62
     7
370
    13
100
AcDbLine
 10
141.363365
 20
-9.373312
 30
0.0
 11
141.301927
 21
-9.311875
 31
0.0
  0
LINE
  5
33F
330
564
100
AcDbEntity
  8
Level 1
  6
Continuous
 62
     7
370
    13
100
AcDbLine
 10
141.485552
 20
-9.373312
 30
0.0
 11
141.424115
 21
-9.311875
 31
0.0
  0
LINE
  5
340
330
564
100
AcDbEntity
  8
Level 1
  6
Continuous
 62
     7
370
    13
100
AcDbLine
 10
141.607042
 20
-9.373312
 30
0.0
 11
141.546292
 21
-9.311875
 31
0.0
  0
LINE
  5
341
330
564
100
AcDbEntity
  8
Level 1
  6
Continuous
 62
     7
370
    13
100
AcDbLine
 10
141.386146
 20
-9.350542
 30
0.0
 11
141.341271
 21
-9.304979
 31
0.0
  0
LINE
  5
342
330
564
100
AcDbEntity
  8
Level 1
  6
Continuous
 62
     7
370
    13
100
AcDbLine
 10
141.508333
 20
-9.350542
 30
0.0
 11
141.458625
 21
-9.300833
 31
0.0
  0
LINE
  5
343
330
564
100
AcDbEntity
  8
Level 1
  6
Continuous
 62
     7
370
    13
100
AcDbLine
 10
141.629823
 20
-9.350542
 30
0.0
 11
141.577365
 21
-9.297385
 31
0.0
  0
LINE
  5
344
330
564
100
AcDbEntity
  8
Level 1
  6
Continuous
 62
     7
370
    13
100
AcDbLine
 10
141.408927
 20
-9.327063
 30
0.0
 11
141.385448
 21
-9.303594
 31
0.0
  0
LINE
  5
345
330
564
100
AcDbEntity
  8
Level 1
  6
Continuous
 62
     7
370
    13
100
AcDbLine
 10
141.631208
 20
-9.427167
 30
0.0
 11
141.591854
 21
-9.3885
 31
0.0
  0
LINE
  5
346
330
564
100
AcDbEntity
  8
Level 1
  6
Continuous
 62
     7
370
    13
100
AcDbLine
 10
141.531104
 20
-9.327063
 30
0.0
 11
141.5035
 21
-9.299448
 31
0.0
  0
LINE
  5
347
330
564
100
AcDbEntity
  8
Level 1
  6
Continuous
 62
     7
370
    13
100
AcDbLine
 10
141.631208
 20
-9.305667
 30
0.0
 11
141.621542
 21
-9.295312
 31
0.0
  0
LINE
  5
348
330
564
100
AcDbEntity
  8
Level 1
  6
Continuous
 62
     7
370
    13
100
AcDbLine
 10
144.520875
 20
-10.028427
 30
0.0
 11
144.587146
 21
-9.97251
 31
0.0
  0
LINE
  5
349
330
564
100
AcDbEntity
  8
Level 1
  6
Continuous
 62
     7
370
    13
100
AcDbLine
 10
144.653417
 20
-9.917292
 30
0.0
 11
144.654802
 21
-9.916594
 31
0.0
  0
LINE
  5
34A
330
564
100
AcDbEntity
  8
Level 1
  6
Continuous
 62
     7
370
    13
100
AcDbLine
 10
144.642375
 20
-10.038781
 30
0.0
 11
144.708646
 21
-9.983562
 31
0.0
  0
LINE
  5
34B
330
564
100
AcDbEntity
  8
Level 1
  6
Continuous
 62
     7
370
    13
100
AcDbLine
 10
144.774917
 20
-9.927646
 30
0.0
 11
144.780438
 21
-9.922812
 31
0.0
  0
LINE
  5
34C
330
564
100
AcDbEntity
  8
Level 1
  6
Continuous
 62
     7
370
    13
100
AcDbLine
 10
144.764562
 20
-10.049135
 30
0.0
 11
144.830146
 21
-9.993917
 31
0.0
  0
LINE
  5
34D
330
564
100
AcDbEntity
  8
Level 1
  6
Continuous
 62
     7
370
    13
100
AcDbLine
 10
144.896417
 20
-9.938688
 30
0.0
 11
144.906771
 21
-9.929719
 31
0.0
  0
LINE
  5
34E
330
564
100
AcDbEntity
  8
Level 1
  6
Continuous
 62
     7
370
    13
100
AcDbLine
 10
144.886063
 20
-10.060187
 30
0.0
 11
144.951635
 21
-10.004958
 31
0.0
  0
LINE
  5
34F
330
564
100
AcDbEntity
  8
Level 1
  6
Continuous
 62
     7
370
    13
100
AcDbLine
 10
145.017906
 20
-9.949042
 30
0.0
 11
145.033094
 21
-9.936615
 31
0.0
  0
LINE
  5
350
330
564
100
AcDbEntity
  8
Level 1
  6
Continuous
 62
     7
370
    13
100
AcDbLine
 10
145.007552
 20
-10.070542
 30
0.0
 11
145.073823
 21
-10.015313
 31
0.0
  0
LINE
  5
351
330
564
100
AcDbEntity
  8
Level 1
  6
Continuous
 62
     7
370
    13
100
AcDbLine
 10
144.500167
 20
-10.003573
 30
0.0
 11
144.566438
 21
-9.947667
 31
0.0
  0
LINE
  5
352
330
564
100
AcDbEntity
  8
Level 1
  6
Continuous
 62
     7
370
    13
100
AcDbLine
 10
144.621667
 20
-10.013937
 30
0.0
 11
144.687938
 21
-9.958708
 31
0.0
  0
LINE
  5
353
330
564
100
AcDbEntity
  8
Level 1
  6
Continuous
 62
     7
370
    13
100
AcDbLine
 10
144.743167
 20
-10.024979
 30
0.0
 11
144.809438
 21
-9.969062
 31
0.0
  0
LINE
  5
354
330
564
100
AcDbEntity
  8
Level 1
  6
Continuous
 62
     7
370
    13
100
AcDbLine
 10
144.865344
 20
-10.035333
 30
0.0
 11
144.930927
 21
-9.980104
 31
0.0
  0
LINE
  5
355
330
564
100
AcDbEntity
  8
Level 1
  6
Continuous
 62
     7
370
    13
100
AcDbLine
 10
144.986844
 20
-10.045687
 30
0.0
 11
145.052427
 21
-9.990458
 31
0.0
  0
LINE
  5
356
330
564
100
AcDbEntity
  8
Level 1
  6
Continuous
 62
     7
370
    13
100
AcDbLine
 10
145.108344
 20
-10.056729
 30
0.0
 11
145.109031
 21
-10.056042
 31
0.0
  0
LINE
  5
357
330
564
100
AcDbEntity
  8
Level 1
  6
Continuous
 62
     7
370
    13
100
AcDbLine
 10
144.479458
 20
-9.978729
 30
0.0
 11
144.545729
 21
-9.9235
 31
0.0
  0
LINE
  5
358
330
564
100
AcDbEntity
  8
Level 1
  6
Continuous
 62
     7
370
    13
100
AcDbLine
 10
144.600958
 20
-9.989083
 30
0.0
 11
144.667229
 21
-9.933854
 31
0.0
  0
LINE
  5
359
330
564
100
AcDbEntity
  8
Level 1
  6
Continuous
 62
     7
370
    13
100
AcDbLine
 10
144.722448
 20
-10.000125
 30
0.0
 11
144.788719
 21
-9.944208
 31
0.0
  0
LINE
  5
35A
330
564
100
AcDbEntity
  8
Level 1
  6
Continuous
 62
     7
370
    13
100
AcDbLine
 10
144.843948
 20
-10.010479
 30
0.0
 11
144.910219
 21
-9.95526
 31
0.0
  0
LINE
  5
35B
330
564
100
AcDbEntity
  8
Level 1
  6
Continuous
 62
     7
370
    13
100
AcDbLine
 10
144.966135
 20
-10.021531
 30
0.0
 11
145.031719
 21
-9.965615
 31
0.0
  0
LINE
  5
35C
330
564
100
AcDbEntity
  8
Level 1
  6
Continuous
 62
     7
370
    13
100
AcDbLine
 10
145.087635
 20
-10.031885
 30
0.0
 11
145.113177
 21
-10.010479
 31
0.0
  0
LINE
  5
35D
330
564
100
AcDbEntity
  8
Level 1
  6
Continuous
 62
     7
370
    13
100
AcDbLine
 10
144.602333
 20
-9.973896
 30
0.0
 11
144.549187
 21
-9.910385
 31
0.0
  0
LINE
  5
35E
330
564
100
AcDbEntity
  8
Level 1
  6
Continuous
 62
     7
370
    13
100
AcDbLine
 10
144.723833
 20
-9.984937
 30
0.0
 11
144.668604
 21
-9.918667
 31
0.0
  0
LINE
  5
35F
330
564
100
AcDbEntity
  8
Level 1
  6
Continuous
 62
     7
370
    13
100
AcDbLine
 10
144.845333
 20
-9.995292
 30
0.0
 11
144.790104
 21
-9.929021
 31
0.0
  0
LINE
  5
360
330
564
100
AcDbEntity
  8
Level 1
  6
Continuous
 62
     7
370
    13
100
AcDbLine
 10
144.966823
 20
-10.006344
 30
0.0
 11
144.911604
 21
-9.940073
 31
0.0
  0
LINE
  5
361
330
564
100
AcDbEntity
  8
Level 1
  6
Continuous
 62
     7
370
    13
100
AcDbLine
 10
145.08901
 20
-10.016698
 30
0.0
 11
145.033094
 21
-9.950427
 31
0.0
  0
LINE
  5
362
330
564
100
AcDbEntity
  8
Level 1
  6
Continuous
 62
     7
370
    13
100
AcDbLine
 10
144.505698
 20
-9.942833
 30
0.0
 11
144.475323
 21
-9.906937
 31
0.0
  0
LINE
  5
363
330
564
100
AcDbEntity
  8
Level 1
  6
Continuous
 62
     7
370
    13
100
AcDbLine
 10
144.627187
 20
-9.953188
 30
0.0
 11
144.593365
 21
-9.913146
 31
0.0
  0
LINE
  5
364
330
564
100
AcDbEntity
  8
Level 1
  6
Continuous
 62
     7
370
    13
100
AcDbLine
 10
144.748687
 20
-9.963542
 30
0.0
 11
144.711406
 21
-9.919354
 31
0.0
  0
LINE
  5
365
330
564
100
AcDbEntity
  8
Level 1
  6
Continuous
 62
     7
370
    13
100
AcDbLine
 10
144.870177
 20
-9.974583
 30
0.0
 11
144.829448
 21
-9.925573
 31
0.0
  0
LINE
  5
366
330
564
100
AcDbEntity
  8
Level 1
  6
Continuous
 62
     7
370
    13
100
AcDbLine
 10
144.991677
 20
-9.984937
 30
0.0
 11
144.9475
 21
-9.931781
 31
0.0
  0
LINE
  5
367
330
564
100
AcDbEntity
  8
Level 1
  6
Continuous
 62
     7
370
    13
100
AcDbLine
 10
145.113177
 20
-9.99599
 30
0.0
 11
145.064854
 21
-9.938
 31
0.0
  0
LINE
  5
368
330
564
100
AcDbEntity
  8
Level 1
  6
Continuous
 62
     7
370
    13
100
AcDbLine
 10
144.5195
 20
-10.043615
 30
0.0
 11
144.464271
 21
-9.977344
 31
0.0
  0
LINE
  5
369
330
564
100
AcDbEntity
  8
Level 1
  6
Continuous
 62
     7
370
    13
100
AcDbLine
 10
144.641687
 20
-10.053969
 30
0.0
 11
144.585771
 21
-9.987698
 31
0.0
  0
LINE
  5
36A
330
564
100
AcDbEntity
  8
Level 1
  6
Continuous
 62
     7
370
    13
100
AcDbLine
 10
144.530542
 20
-9.922125
 30
0.0
 11
144.5195
 21
-9.909
 31
0.0
  0
LINE
  5
36B
330
564
100
AcDbEntity
  8
Level 1
  6
Continuous
 62
     7
370
    13
100
AcDbLine
 10
144.763177
 20
-10.064323
 30
0.0
 11
144.707271
 21
-9.99875
 31
0.0
  0
LINE
  5
36C
330
564
100
AcDbEntity
  8
Level 1
  6
Continuous
 62
     7
370
    13
100
AcDbLine
 10
144.652042
 20
-9.932479
 30
0.0
 11
144.637542
 21
-9.915219
 31
0.0
  0
LINE
  5
36D
330
564
100
AcDbEntity
  8
Level 1
  6
Continuous
 62
     7
370
    13
100
AcDbLine
 10
144.884677
 20
-10.075375
 30
0.0
 11
144.82876
 21
-10.009104
 31
0.0
  0
LINE
  5
36E
330
564
100
AcDbEntity
  8
Level 1
  6
Continuous
 62
     7
370
    13
100
AcDbLine
 10
144.773531
 20
-9.942833
 30
0.0
 11
144.755583
 21
-9.921427
 31
0.0
  0
LINE
  5
36F
330
564
100
AcDbEntity
  8
Level 1
  6
Continuous
 62
     7
370
    13
100
AcDbLine
 10
144.895031
 20
-9.953875
 30
0.0
 11
144.873635
 21
-9.927646
 31
0.0
  0
LINE
  5
370
330
564
100
AcDbEntity
  8
Level 1
  6
Continuous
 62
     7
370
    13
100
AcDbLine
 10
145.107646
 20
-10.072615
 30
0.0
 11
145.072448
 21
-10.0305
 31
0.0
  0
LINE
  5
371
330
564
100
AcDbEntity
  8
Level 1
  6
Continuous
 62
     7
370
    13
100
AcDbLine
 10
145.016531
 20
-9.964229
 30
0.0
 11
144.991677
 21
-9.934542
 31
0.0
  0
LINE
  5
372
330
564
100
AcDbEntity
  8
Level 1
  6
Continuous
 62
     7
370
    13
100
AcDbLine
 10
145.11801
 20
-9.951115
 30
0.0
 11
145.109031
 21
-9.94076
 31
0.0
  0
LINE
  5
374
330
564
100
AcDbEntity
  8
Level 1
  6
Continuous
 62
     7
370
    13
100
AcDbLine
 10
143.123804
 20
-6.467073
 30
0.0
 11
143.587358
 21
-6.467073
 31
0.0
  0
LINE
  5
376
330
564
100
AcDbEntity
  8
Level 1
  6
Continuous
 62
     7
370
    13
100
AcDbLine
 10
144.627221
 20
-8.013011
 30
0.0
 11
146.059642
 21
-8.013011
 31
0.0
  0
LINE
  5
378
330
564
100
AcDbEntity
  8
Level 1
  6
Continuous
 62
     7
370
    13
100
AcDbLine
 10
143.12798
 20
-10.495083
 30
0.0
 11
143.850455
 21
-10.495083
 31
0.0
  0
CIRCLE
  5
379
330
564
100
AcDbEntity
  8
Level 1
  6
Continuous
 62
     7
370
    13
100
AcDbCircle
 10
143.557471
 20
-9.381038
 30
0.0
 40
0.06406158
  0
CIRCLE
  5
37C
330
564
100
AcDbEntity
  8
Level 1
  6
Continuous
 62
     7
370
    13
100
AcDbCircle
 10
146.502071
 20
-8.483947
 30
0.0
 40
0.06406158
  0
LWPOLYLINE
  5
37D
330
564
100
AcDbEntity
  8
Level 1
  6
Continuous
 62
     7
370
    13
100
AcDbPolyline
 90
        3
 70
   128
 43
0.0
 10
144.280646
 20
-8.4835
 10
144.122562
 20
-8.4835
 10
142.0835
 20
-9.084073
  0
LINE
  5
37E
330
564
100
AcDbEntity
  8
Level 1
  6
Continuous
 62
     7
370
    13
100
AcDbLine
 10
144.122562
 20
-8.4835
 30
0.0
 11
143.452062
 21
-9.083385
 31
0.0
  0
LINE
  5
37F
330
564
100
AcDbEntity
  8
Level 1
  6
Continuous
 62
     7
370
    13
100
AcDbLine
 10
144.113594
 20
-8.4835
 30
0.0
 11
144.882406
 21
-9.080625
 31
0.0
  0
CIRCLE
  5
381
330
564
100
AcDbEntity
  8
Level 1
  6
Continuous
 62
     7
370
    13
100
AcDbCircle
 10
142.945079
 20
-9.644295
 30
0.0
 40
0.063992548125
  0
LINE
  5
383
330
564
100
AcDbEntity
  8
Level 1
  6
Continuous
 62
     7
370
    13
100
AcDbLine
 10
141.907333
 20
-6.928896
 30
0.0
 11
141.719562
 21
-6.928896
 31
0.0
  0
LINE
  5
384
330
564
100
AcDbEntity
  8
Level 1
  6
Continuous
 62
     7
370
    13
100
AcDbLine
 10
141.511781
 20
-7.006906
 30
0.0
 11
141.273625
 21
-7.006906
 31
0.0
  0
LINE
  5
385
330
564
100
AcDbEntity
  8
Level 1
  6
Continuous
 62
     7
370
    13
100
AcDbLine
 10
141.273625
 20
-6.886792
 30
0.0
 11
140.261385
 21
-6.886792
 31
0.0
  0
CIRCLE
  5
387
330
564
100
AcDbEntity
  8
Level 1
  6
Continuous
 62
     7
370
    13
100
AcDbCircle
 10
141.648325
 20
-8.191215
 30
0.0
 40
0.063992548125
  0
LINE
  5
389
330
564
100
AcDbEntity
  8
Level 1
  6
Continuous
 62
     7
370
    13
100
AcDbLine
 10
140.864504
 20
-8.105198
 30
0.0
 11
142.509909
 21
-8.105198
 31
0.0
  0
LINE
  5
38A
330
564
100
AcDbEntity
  8
Level 1
  6
Continuous
 62
     7
370
    13
100
AcDbLine
 10
143.296948
 20
-5.125781
 30
0.0
 11
143.296948
 21
-5.355667
 31
0.0
  0
LINE
  5
38B
330
564
100
AcDbEntity
  8
Level 1
  6
Continuous
 62
     7
370
    13
100
AcDbLine
 10
143.292115
 20
-3.970187
 30
0.0
 11
143.292115
 21
-4.189021
 31
0.0
  0
LINE
  5
38C
330
564
100
AcDbEntity
  8
Level 1
  6
Continuous
 62
     7
370
    13
100
AcDbLine
 10
141.402021
 20
-7.450094
 30
0.0
 11
141.465531
 21
-7.385885
 31
0.0
  0
LINE
  5
38D
330
564
100
AcDbEntity
  8
Level 1
  6
Continuous
 62
     7
370
    13
100
AcDbLine
 10
141.602906
 20
-7.248521
 30
0.0
 11
141.642094
 21
-7.21001
 31
0.0
  0
LINE
  5
38E
330
564
100
AcDbEntity
  8
Level 1
  6
Continuous
 62
     7
370
    13
100
AcDbLine
 10
141.602906
 20
-7.156708
 30
0.0
 11
141.641354
 21
-7.118948
 31
0.0
  0
LINE
  5
38F
330
564
100
AcDbEntity
  8
Level 1
  6
Continuous
 62
     7
370
    13
100
AcDbLine
 10
141.602208
 20
-7.066271
 30
0.0
 11
141.718875
 21
-6.949604
 31
0.0
  0
LINE
  5
390
330
564
100
AcDbEntity
  8
Level 1
  6
Continuous
 62
     7
370
    13
100
AcDbLine
 10
141.556562
 20
-7.020115
 30
0.0
 11
141.68575
 21
-6.891615
 31
0.0
  0
LINE
  5
391
330
564
100
AcDbEntity
  8
Level 1
  6
Continuous
 62
     7
370
    13
100
AcDbLine
 10
141.509354
 20
-6.976198
 30
0.0
 11
141.599031
 21
-6.88651
 31
0.0
  0
LINE
  5
392
330
564
100
AcDbEntity
  8
Level 1
  6
Continuous
 62
     7
370
    13
100
AcDbLine
 10
141.493146
 20
-7.450094
 30
0.0
 11
141.642937
 21
-7.300292
 31
0.0
  0
LINE
  5
393
330
564
100
AcDbEntity
  8
Level 1
  6
Continuous
 62
     7
370
    13
100
AcDbLine
 10
141.58426
 20
-7.450094
 30
0.0
 11
141.675385
 21
-7.358969
 31
0.0
  0
LINE
  5
394
330
564
100
AcDbEntity
  8
Level 1
  6
Continuous
 62
     7
370
    13
100
AcDbLine
 10
141.676073
 20
-7.450094
 30
0.0
 11
141.740969
 21
-7.385198
 31
0.0
  0
LINE
  5
395
330
564
100
AcDbEntity
  8
Level 1
  6
Continuous
 62
     7
370
    13
100
AcDbLine
 10
141.767885
 20
-7.450094
 30
0.0
 11
141.811375
 21
-7.406594
 31
0.0
  0
LINE
  5
396
330
564
100
AcDbEntity
  8
Level 1
  6
Continuous
 62
     7
370
    13
100
AcDbLine
 10
141.602906
 20
-7.187771
 30
0.0
 11
141.641562
 21
-7.149115
 31
0.0
  0
LINE
  5
397
330
564
100
AcDbEntity
  8
Level 1
  6
Continuous
 62
     7
370
    13
100
AcDbLine
 10
141.602906
 20
-7.095958
 30
0.0
 11
141.647073
 21
-7.051792
 31
0.0
  0
LINE
  5
398
330
564
100
AcDbEntity
  8
Level 1
  6
Continuous
 62
     7
370
    13
100
AcDbLine
 10
141.676156
 20
-7.022708
 30
0.0
 11
141.718573
 21
-6.980292
 31
0.0
  0
LINE
  5
399
330
564
100
AcDbEntity
  8
Level 1
  6
Continuous
 62
     7
370
    13
100
AcDbLine
 10
141.577698
 20
-7.029333
 30
0.0
 11
141.705552
 21
-6.902188
 31
0.0
  0
LINE
  5
39A
330
564
100
AcDbEntity
  8
Level 1
  6
Continuous
 62
     7
370
    13
100
AcDbLine
 10
141.511583
 20
-7.004344
 30
0.0
 11
141.629573
 21
-6.886344
 31
0.0
  0
LINE
  5
39B
330
564
100
AcDbEntity
  8
Level 1
  6
Continuous
 62
     7
370
    13
100
AcDbLine
 10
141.512469
 20
-6.912333
 30
0.0
 11
141.529042
 21
-6.89576
 31
0.0
  0
LINE
  5
39C
330
564
100
AcDbEntity
  8
Level 1
  6
Continuous
 62
     7
370
    13
100
AcDbLine
 10
141.431708
 20
-7.450094
 30
0.0
 11
141.504854
 21
-7.376937
 31
0.0
  0
LINE
  5
39D
330
564
100
AcDbEntity
  8
Level 1
  6
Continuous
 62
     7
370
    13
100
AcDbLine
 10
141.602906
 20
-7.278885
 30
0.0
 11
141.642333
 21
-7.239458
 31
0.0
  0
LINE
  5
39E
330
564
100
AcDbEntity
  8
Level 1
  6
Continuous
 62
     7
370
    13
100
AcDbLine
 10
141.523521
 20
-7.450094
 30
0.0
 11
141.648687
 21
-7.324917
 31
0.0
  0
LINE
  5
39F
330
564
100
AcDbEntity
  8
Level 1
  6
Continuous
 62
     7
370
    13
100
AcDbLine
 10
141.615333
 20
-7.450094
 30
0.0
 11
141.694021
 21
-7.370698
 31
0.0
  0
LINE
  5
3A0
330
564
100
AcDbEntity
  8
Level 1
  6
Continuous
 62
     7
370
    13
100
AcDbLine
 10
141.706448
 20
-7.450094
 30
0.0
 11
141.764437
 21
-7.392104
 31
0.0
  0
LINE
  5
3A1
330
564
100
AcDbEntity
  8
Level 1
  6
Continuous
 62
     7
370
    13
100
AcDbLine
 10
141.79826
 20
-7.450094
 30
0.0
 11
141.834156
 21
-7.4135
 31
0.0
  0
LINE
  5
3A2
330
564
100
AcDbEntity
  8
Level 1
  6
Continuous
 62
     7
370
    13
100
AcDbLine
 10
141.640875
 20
-7.508771
 30
0.0
 11
141.596
 21
-7.463208
 31
0.0
  0
LINE
  5
3A3
330
564
100
AcDbEntity
  8
Level 1
  6
Continuous
 62
     7
370
    13
100
AcDbLine
 10
141.54975
 20
-7.508771
 30
0.0
 11
141.504188
 21
-7.463208
 31
0.0
  0
LINE
  5
3A4
330
564
100
AcDbEntity
  8
Level 1
  6
Continuous
 62
     7
370
    13
100
AcDbLine
 10
141.457937
 20
-7.508771
 30
0.0
 11
141.413062
 21
-7.463208
 31
0.0
  0
LINE
  5
3A5
330
564
100
AcDbEntity
  8
Level 1
  6
Continuous
 62
     7
370
    13
100
AcDbLine
 10
141.382688
 20
-7.433521
 30
0.0
 11
141.368885
 21
-7.419021
 31
0.0
  0
LINE
  5
3A6
330
564
100
AcDbEntity
  8
Level 1
  6
Continuous
 62
     7
370
    13
100
AcDbLine
 10
141.366813
 20
-7.508771
 30
0.0
 11
141.307312
 21
-7.44926
 31
0.0
  0
LINE
  5
3A7
330
564
100
AcDbEntity
  8
Level 1
  6
Continuous
 62
     7
370
    13
100
AcDbLine
 10
141.275
 20
-7.508771
 30
0.0
 11
141.230115
 21
-7.463875
 31
0.0
  0
LINE
  5
3A8
330
564
100
AcDbEntity
  8
Level 1
  6
Continuous
 62
     7
370
    13
100
AcDbLine
 10
141.183188
 20
-7.508771
 30
0.0
 11
141.146031
 21
-7.470927
 31
0.0
  0
LINE
  5
3A9
330
564
100
AcDbEntity
  8
Level 1
  6
Continuous
 62
     7
370
    13
100
AcDbLine
 10
141.092062
 20
-7.508771
 30
0.0
 11
141.081708
 21
-7.498406
 31
0.0
  0
LINE
  5
3AA
330
564
100
AcDbEntity
  8
Level 1
  6
Continuous
 62
     7
370
    13
100
AcDbLine
 10
141.732687
 20
-7.508771
 30
0.0
 11
141.687125
 21
-7.463208
 31
0.0
  0
LINE
  5
3AB
330
564
100
AcDbEntity
  8
Level 1
  6
Continuous
 62
     7
370
    13
100
AcDbLine
 10
141.823802
 20
-7.508771
 30
0.0
 11
141.778937
 21
-7.463208
 31
0.0
  0
LINE
  5
3AC
330
564
100
AcDbEntity
  8
Level 1
  6
Continuous
 62
     7
370
    13
100
AcDbLine
 10
141.915615
 20
-7.508771
 30
0.0
 11
141.856937
 21
-7.449396
 31
0.0
  0
LINE
  5
3AD
330
564
100
AcDbEntity
  8
Level 1
  6
Continuous
 62
     7
370
    13
100
AcDbLine
 10
142.007427
 20
-7.508771
 30
0.0
 11
141.968823
 21
-7.470156
 31
0.0
  0
LINE
  5
3AE
330
564
100
AcDbEntity
  8
Level 1
  6
Continuous
 62
     7
370
    13
100
AcDbLine
 10
142.098552
 20
-7.508771
 30
0.0
 11
142.063083
 21
-7.473302
 31
0.0
  0
LINE
  5
3AF
330
564
100
AcDbEntity
  8
Level 1
  6
Continuous
 62
     7
370
    13
100
AcDbLine
 10
141.580125
 20
-7.508771
 30
0.0
 11
141.534562
 21
-7.463208
 31
0.0
  0
LINE
  5
3B0
330
564
100
AcDbEntity
  8
Level 1
  6
Continuous
 62
     7
370
    13
100
AcDbLine
 10
141.488313
 20
-7.508771
 30
0.0
 11
141.443437
 21
-7.463208
 31
0.0
  0
LINE
  5
3B1
330
564
100
AcDbEntity
  8
Level 1
  6
Continuous
 62
     7
370
    13
100
AcDbLine
 10
141.397188
 20
-7.508771
 30
0.0
 11
141.327667
 21
-7.43924
 31
0.0
  0
LINE
  5
3B2
330
564
100
AcDbEntity
  8
Level 1
  6
Continuous
 62
     7
370
    13
100
AcDbLine
 10
141.305375
 20
-7.508771
 30
0.0
 11
141.258135
 21
-7.461521
 31
0.0
  0
LINE
  5
3B3
330
564
100
AcDbEntity
  8
Level 1
  6
Continuous
 62
     7
370
    13
100
AcDbLine
 10
141.21425
 20
-7.508771
 30
0.0
 11
141.174219
 21
-7.468729
 31
0.0
  0
LINE
  5
3B4
330
564
100
AcDbEntity
  8
Level 1
  6
Continuous
 62
     7
370
    13
100
AcDbLine
 10
141.122437
 20
-7.508771
 30
0.0
 11
141.089344
 21
-7.475677
 31
0.0
  0
LINE
  5
3B5
330
564
100
AcDbEntity
  8
Level 1
  6
Continuous
 62
     7
370
    13
100
AcDbLine
 10
141.671937
 20
-7.508771
 30
0.0
 11
141.626375
 21
-7.463208
 31
0.0
  0
LINE
  5
3B6
330
564
100
AcDbEntity
  8
Level 1
  6
Continuous
 62
     7
370
    13
100
AcDbLine
 10
141.763052
 20
-7.508771
 30
0.0
 11
141.718187
 21
-7.463208
 31
0.0
  0
LINE
  5
3B7
330
564
100
AcDbEntity
  8
Level 1
  6
Continuous
 62
     7
370
    13
100
AcDbLine
 10
141.854865
 20
-7.508771
 30
0.0
 11
141.809313
 21
-7.463208
 31
0.0
  0
LINE
  5
3B8
330
564
100
AcDbEntity
  8
Level 1
  6
Continuous
 62
     7
370
    13
100
AcDbLine
 10
141.94599
 20
-7.508771
 30
0.0
 11
141.856937
 21
-7.419021
 31
0.0
  0
LINE
  5
3B9
330
564
100
AcDbEntity
  8
Level 1
  6
Continuous
 62
     7
370
    13
100
AcDbLine
 10
142.037802
 20
-7.508771
 30
0.0
 11
142.000229
 21
-7.471198
 31
0.0
  0
LINE
  5
3BA
330
564
100
AcDbEntity
  8
Level 1
  6
Continuous
 62
     7
370
    13
100
AcDbLine
 10
142.128927
 20
-7.508771
 30
0.0
 11
142.095219
 21
-7.474375
 31
0.0
  0
LINE
  5
3BB
330
564
100
AcDbEntity
  8
Level 1
  6
Continuous
 62
     7
370
    13
100
AcDbLine
 10
145.244333
 20
-9.695698
 30
0.0
 11
145.246406
 21
-9.693625
 31
0.0
  0
LINE
  5
3BC
330
564
100
AcDbEntity
  8
Level 1
  6
Continuous
 62
     7
370
    13
100
AcDbLine
 10
145.579833
 20
-9.360198
 30
0.0
 11
145.636437
 21
-9.303594
 31
0.0
  0
LINE
  5
3BD
330
564
100
AcDbEntity
  8
Level 1
  6
Continuous
 62
     7
370
    13
100
AcDbLine
 10
145.213958
 20
-9.604573
 30
0.0
 11
145.246406
 21
-9.572125
 31
0.0
  0
LINE
  5
3BE
330
564
100
AcDbEntity
  8
Level 1
  6
Continuous
 62
     7
370
    13
100
AcDbLine
 10
145.457646
 20
-9.360198
 30
0.0
 11
145.51425
 21
-9.303594
 31
0.0
  0
LINE
  5
3BF
330
564
100
AcDbEntity
  8
Level 1
  6
Continuous
 62
     7
370
    13
100
AcDbLine
 10
145.213958
 20
-9.482385
 30
0.0
 11
145.246406
 21
-9.449937
 31
0.0
  0
LINE
  5
3C0
330
564
100
AcDbEntity
  8
Level 1
  6
Continuous
 62
     7
370
    13
100
AcDbLine
 10
145.335458
 20
-9.360198
 30
0.0
 11
145.392063
 21
-9.303594
 31
0.0
  0
LINE
  5
3C1
330
564
100
AcDbEntity
  8
Level 1
  6
Continuous
 62
     7
370
    13
100
AcDbLine
 10
145.213958
 20
-9.360198
 30
0.0
 11
145.270562
 21
-9.303594
 31
0.0
  0
LINE
  5
3C2
330
564
100
AcDbEntity
  8
Level 1
  6
Continuous
 62
     7
370
    13
100
AcDbLine
 10
145.70201
 20
-9.360198
 30
0.0
 11
145.758625
 21
-9.303594
 31
0.0
  0
LINE
  5
3C3
330
564
100
AcDbEntity
  8
Level 1
  6
Continuous
 62
     7
370
    13
100
AcDbLine
 10
145.824198
 20
-9.360198
 30
0.0
 11
145.835938
 21
-9.347771
 31
0.0
  0
LINE
  5
3C4
330
564
100
AcDbEntity
  8
Level 1
  6
Continuous
 62
     7
370
    13
100
AcDbLine
 10
145.198083
 20
-9.695698
 30
0.0
 11
145.246406
 21
-9.648062
 31
0.0
  0
LINE
  5
3C5
330
564
100
AcDbEntity
  8
Level 1
  6
Continuous
 62
     7
370
    13
100
AcDbLine
 10
145.494229
 20
-9.40024
 30
0.0
 11
145.495615
 21
-9.398167
 31
0.0
  0
LINE
  5
3C6
330
564
100
AcDbEntity
  8
Level 1
  6
Continuous
 62
     7
370
    13
100
AcDbLine
 10
145.557052
 20
-9.337417
 30
0.0
 11
145.590875
 21
-9.303594
 31
0.0
  0
LINE
  5
3C7
330
564
100
AcDbEntity
  8
Level 1
  6
Continuous
 62
     7
370
    13
100
AcDbLine
 10
145.191177
 20
-9.581104
 30
0.0
 11
145.246406
 21
-9.525875
 31
0.0
  0
LINE
  5
3C8
330
564
100
AcDbEntity
  8
Level 1
  6
Continuous
 62
     7
370
    13
100
AcDbLine
 10
145.372042
 20
-9.40024
 30
0.0
 11
145.374115
 21
-9.398167
 31
0.0
  0
LINE
  5
3C9
330
564
100
AcDbEntity
  8
Level 1
  6
Continuous
 62
     7
370
    13
100
AcDbLine
 10
145.434865
 20
-9.337417
 30
0.0
 11
145.468687
 21
-9.303594
 31
0.0
  0
LINE
  5
3CA
330
564
100
AcDbEntity
  8
Level 1
  6
Continuous
 62
     7
370
    13
100
AcDbLine
 10
145.191177
 20
-9.459604
 30
0.0
 11
145.246406
 21
-9.404385
 31
0.0
  0
LINE
  5
3CB
330
564
100
AcDbEntity
  8
Level 1
  6
Continuous
 62
     7
370
    13
100
AcDbLine
 10
145.249854
 20
-9.40024
 30
0.0
 11
145.251927
 21
-9.398167
 31
0.0
  0
LINE
  5
3CC
330
564
100
AcDbEntity
  8
Level 1
  6
Continuous
 62
     7
370
    13
100
AcDbLine
 10
145.312677
 20
-9.337417
 30
0.0
 11
145.3465
 21
-9.303594
 31
0.0
  0
LINE
  5
3CD
330
564
100
AcDbEntity
  8
Level 1
  6
Continuous
 62
     7
370
    13
100
AcDbLine
 10
145.191177
 20
-9.337417
 30
0.0
 11
145.224312
 21
-9.303594
 31
0.0
  0
LINE
  5
3CE
330
564
100
AcDbEntity
  8
Level 1
  6
Continuous
 62
     7
370
    13
100
AcDbLine
 10
145.615729
 20
-9.40024
 30
0.0
 11
145.617792
 21
-9.398167
 31
0.0
  0
LINE
  5
3CF
330
564
100
AcDbEntity
  8
Level 1
  6
Continuous
 62
     7
370
    13
100
AcDbLine
 10
145.67924
 20
-9.337417
 30
0.0
 11
145.712375
 21
-9.303594
 31
0.0
  0
LINE
  5
3D0
330
564
100
AcDbEntity
  8
Level 1
  6
Continuous
 62
     7
370
    13
100
AcDbLine
 10
145.737917
 20
-9.40024
 30
0.0
 11
145.739979
 21
-9.398167
 31
0.0
  0
LINE
  5
3D1
330
564
100
AcDbEntity
  8
Level 1
  6
Continuous
 62
     7
370
    13
100
AcDbLine
 10
145.800729
 20
-9.337417
 30
0.0
 11
145.834552
 21
-9.303594
 31
0.0
  0
LINE
  5
3D2
330
564
100
AcDbEntity
  8
Level 1
  6
Continuous
 62
     7
370
    13
100
AcDbLine
 10
145.570167
 20
-9.40024
 30
0.0
 11
145.595021
 21
-9.375385
 31
0.0
  0
LINE
  5
3D3
330
564
100
AcDbEntity
  8
Level 1
  6
Continuous
 62
     7
370
    13
100
AcDbLine
 10
145.65576
 20
-9.314635
 30
0.0
 11
145.666812
 21
-9.303594
 31
0.0
  0
LINE
  5
3D4
330
564
100
AcDbEntity
  8
Level 1
  6
Continuous
 62
     7
370
    13
100
AcDbLine
 10
145.167708
 20
-9.68051
 30
0.0
 11
145.229146
 21
-9.61976
 31
0.0
  0
LINE
  5
3D5
330
564
100
AcDbEntity
  8
Level 1
  6
Continuous
 62
     7
370
    13
100
AcDbLine
 10
145.447979
 20
-9.40024
 30
0.0
 11
145.472833
 21
-9.375385
 31
0.0
  0
LINE
  5
3D6
330
564
100
AcDbEntity
  8
Level 1
  6
Continuous
 62
     7
370
    13
100
AcDbLine
 10
145.534271
 20
-9.314635
 30
0.0
 11
145.544625
 21
-9.303594
 31
0.0
  0
LINE
  5
3D7
330
564
100
AcDbEntity
  8
Level 1
  6
Continuous
 62
     7
370
    13
100
AcDbLine
 10
145.167708
 20
-9.558323
 30
0.0
 11
145.229146
 21
-9.497573
 31
0.0
  0
LINE
  5
3D8
330
564
100
AcDbEntity
  8
Level 1
  6
Continuous
 62
     7
370
    13
100
AcDbLine
 10
145.326479
 20
-9.40024
 30
0.0
 11
145.351333
 21
-9.375385
 31
0.0
  0
LINE
  5
3D9
330
564
100
AcDbEntity
  8
Level 1
  6
Continuous
 62
     7
370
    13
100
AcDbLine
 10
145.412083
 20
-9.314635
 30
0.0
 11
145.422438
 21
-9.303594
 31
0.0
  0
LINE
  5
3DA
330
564
100
AcDbEntity
  8
Level 1
  6
Continuous
 62
     7
370
    13
100
AcDbLine
 10
145.167708
 20
-9.436135
 30
0.0
 11
145.229146
 21
-9.375385
 31
0.0
  0
LINE
  5
3DB
330
564
100
AcDbEntity
  8
Level 1
  6
Continuous
 62
     7
370
    13
100
AcDbLine
 10
145.289896
 20
-9.314635
 30
0.0
 11
145.300938
 21
-9.303594
 31
0.0
  0
LINE
  5
3DC
330
564
100
AcDbEntity
  8
Level 1
  6
Continuous
 62
     7
370
    13
100
AcDbLine
 10
145.167708
 20
-9.314635
 30
0.0
 11
145.17875
 21
-9.303594
 31
0.0
  0
LINE
  5
3DD
330
564
100
AcDbEntity
  8
Level 1
  6
Continuous
 62
     7
370
    13
100
AcDbLine
 10
145.692354
 20
-9.40024
 30
0.0
 11
145.717198
 21
-9.375385
 31
0.0
  0
LINE
  5
3DE
330
564
100
AcDbEntity
  8
Level 1
  6
Continuous
 62
     7
370
    13
100
AcDbLine
 10
145.777948
 20
-9.314635
 30
0.0
 11
145.789
 21
-9.303594
 31
0.0
  0
LINE
  5
3DF
330
564
100
AcDbEntity
  8
Level 1
  6
Continuous
 62
     7
370
    13
100
AcDbLine
 10
145.814542
 20
-9.40024
 30
0.0
 11
145.835938
 21
-9.378844
 31
0.0
  0
LINE
  5
3E0
330
564
100
AcDbEntity
  8
Level 1
  6
Continuous
 62
     7
370
    13
100
AcDbLine
 10
145.391375
 20
-9.40024
 30
0.0
 11
145.351333
 21
-9.360198
 31
0.0
  0
LINE
  5
3E1
330
564
100
AcDbEntity
  8
Level 1
  6
Continuous
 62
     7
370
    13
100
AcDbLine
 10
145.269187
 20
-9.40024
 30
0.0
 11
145.229146
 21
-9.360198
 31
0.0
  0
LINE
  5
3E2
330
564
100
AcDbEntity
  8
Level 1
  6
Continuous
 62
     7
370
    13
100
AcDbLine
 10
145.246406
 20
-9.499646
 30
0.0
 11
145.229146
 21
-9.482385
 31
0.0
  0
LINE
  5
3E3
330
564
100
AcDbEntity
  8
Level 1
  6
Continuous
 62
     7
370
    13
100
AcDbLine
 10
145.167708
 20
-9.420948
 30
0.0
 11
145.160115
 21
-9.413354
 31
0.0
  0
LINE
  5
3E4
330
564
100
AcDbEntity
  8
Level 1
  6
Continuous
 62
     7
370
    13
100
AcDbLine
 10
145.246406
 20
-9.621146
 30
0.0
 11
145.229146
 21
-9.604573
 31
0.0
  0
LINE
  5
3E5
330
564
100
AcDbEntity
  8
Level 1
  6
Continuous
 62
     7
370
    13
100
AcDbLine
 10
145.167708
 20
-9.543135
 30
0.0
 11
145.160115
 21
-9.535542
 31
0.0
  0
LINE
  5
3E6
330
564
100
AcDbEntity
  8
Level 1
  6
Continuous
 62
     7
370
    13
100
AcDbLine
 10
145.167708
 20
-9.665323
 30
0.0
 11
145.160115
 21
-9.657042
 31
0.0
  0
LINE
  5
3E7
330
564
100
AcDbEntity
  8
Level 1
  6
Continuous
 62
     7
370
    13
100
AcDbLine
 10
145.512865
 20
-9.40024
 30
0.0
 11
145.472833
 21
-9.360198
 31
0.0
  0
LINE
  5
3E8
330
564
100
AcDbEntity
  8
Level 1
  6
Continuous
 62
     7
370
    13
100
AcDbLine
 10
145.635052
 20
-9.40024
 30
0.0
 11
145.595021
 21
-9.360198
 31
0.0
  0
LINE
  5
3E9
330
564
100
AcDbEntity
  8
Level 1
  6
Continuous
 62
     7
370
    13
100
AcDbLine
 10
145.75724
 20
-9.40024
 30
0.0
 11
145.717198
 21
-9.360198
 31
0.0
  0
LINE
  5
3EA
330
564
100
AcDbEntity
  8
Level 1
  6
Continuous
 62
     7
370
    13
100
AcDbLine
 10
145.312677
 20
-9.398167
 30
0.0
 11
145.251927
 21
-9.337417
 31
0.0
  0
LINE
  5
3EB
330
564
100
AcDbEntity
  8
Level 1
  6
Continuous
 62
     7
370
    13
100
AcDbLine
 10
145.191177
 20
-9.398167
 30
0.0
 11
145.160115
 21
-9.367792
 31
0.0
  0
LINE
  5
3EC
330
564
100
AcDbEntity
  8
Level 1
  6
Continuous
 62
     7
370
    13
100
AcDbLine
 10
145.191177
 20
-9.520354
 30
0.0
 11
145.160115
 21
-9.489292
 31
0.0
  0
LINE
  5
3ED
330
564
100
AcDbEntity
  8
Level 1
  6
Continuous
 62
     7
370
    13
100
AcDbLine
 10
145.191177
 20
-9.642542
 30
0.0
 11
145.160115
 21
-9.611479
 31
0.0
  0
LINE
  5
3EE
330
564
100
AcDbEntity
  8
Level 1
  6
Continuous
 62
     7
370
    13
100
AcDbLine
 10
145.434865
 20
-9.398167
 30
0.0
 11
145.374115
 21
-9.337417
 31
0.0
  0
LINE
  5
3EF
330
564
100
AcDbEntity
  8
Level 1
  6
Continuous
 62
     7
370
    13
100
AcDbLine
 10
145.557052
 20
-9.398167
 30
0.0
 11
145.495615
 21
-9.337417
 31
0.0
  0
LINE
  5
3F0
330
564
100
AcDbEntity
  8
Level 1
  6
Continuous
 62
     7
370
    13
100
AcDbLine
 10
145.67924
 20
-9.398167
 30
0.0
 11
145.617792
 21
-9.337417
 31
0.0
  0
LINE
  5
3F1
330
564
100
AcDbEntity
  8
Level 1
  6
Continuous
 62
     7
370
    13
100
AcDbLine
 10
145.800729
 20
-9.398167
 30
0.0
 11
145.739979
 21
-9.337417
 31
0.0
  0
LINE
  5
3F2
330
564
100
AcDbEntity
  8
Level 1
  6
Continuous
 62
     7
370
    13
100
AcDbLine
 10
145.335458
 20
-9.375385
 30
0.0
 11
145.274708
 21
-9.314635
 31
0.0
  0
LINE
  5
3F3
330
564
100
AcDbEntity
  8
Level 1
  6
Continuous
 62
     7
370
    13
100
AcDbLine
 10
145.213958
 20
-9.375385
 30
0.0
 11
145.160115
 21
-9.321542
 31
0.0
  0
LINE
  5
3F4
330
564
100
AcDbEntity
  8
Level 1
  6
Continuous
 62
     7
370
    13
100
AcDbLine
 10
145.213958
 20
-9.497573
 30
0.0
 11
145.160115
 21
-9.443729
 31
0.0
  0
LINE
  5
3F5
330
564
100
AcDbEntity
  8
Level 1
  6
Continuous
 62
     7
370
    13
100
AcDbLine
 10
145.213958
 20
-9.61976
 30
0.0
 11
145.160115
 21
-9.565917
 31
0.0
  0
LINE
  5
3F6
330
564
100
AcDbEntity
  8
Level 1
  6
Continuous
 62
     7
370
    13
100
AcDbLine
 10
145.168396
 20
-9.695698
 30
0.0
 11
145.160115
 21
-9.688104
 31
0.0
  0
LINE
  5
3F7
330
564
100
AcDbEntity
  8
Level 1
  6
Continuous
 62
     7
370
    13
100
AcDbLine
 10
145.457646
 20
-9.375385
 30
0.0
 11
145.396896
 21
-9.314635
 31
0.0
  0
LINE
  5
3F8
330
564
100
AcDbEntity
  8
Level 1
  6
Continuous
 62
     7
370
    13
100
AcDbLine
 10
145.579833
 20
-9.375385
 30
0.0
 11
145.519083
 21
-9.314635
 31
0.0
  0
LINE
  5
3F9
330
564
100
AcDbEntity
  8
Level 1
  6
Continuous
 62
     7
370
    13
100
AcDbLine
 10
145.70201
 20
-9.375385
 30
0.0
 11
145.640573
 21
-9.314635
 31
0.0
  0
LINE
  5
3FA
330
564
100
AcDbEntity
  8
Level 1
  6
Continuous
 62
     7
370
    13
100
AcDbLine
 10
145.824198
 20
-9.375385
 30
0.0
 11
145.76276
 21
-9.314635
 31
0.0
  0
LINE
  5
3FC
330
564
100
AcDbEntity
  8
Level 1
  6
Continuous
 62
     7
370
    13
100
AcDbLine
 10
145.508729
 20
-6.944083
 30
0.0
 11
145.367896
 21
-6.944083
 31
0.0
  0
LINE
  5
3FD
330
564
100
AcDbEntity
  8
Level 1
  6
Continuous
 62
     7
370
    13
100
AcDbLine
 10
145.367896
 20
-6.944083
 30
0.0
 11
145.552042
 21
-7.258177
 31
0.0
  0
LWPOLYLINE
  5
3FE
330
564
100
AcDbEntity
  8
Level 1
  6
Continuous
 62
     7
370
    13
100
AcDbPolyline
 90
       10
 70
   128
 43
0.0
 10
142.407125
 20
-9.283573
 10
142.407125
 20
-9.271844
 10
142.463729
 20
-9.265625
 10
142.490656
 20
-9.249062
 10
142.490656
 20
-9.26701
 10
142.621813
 20
-9.26701
 10
142.621813
 20
-9.251135
 10
142.646667
 20
-9.269083
 10
142.704656
 20
-9.271844
 10
142.704656
 20
-9.283573
  0
LWPOLYLINE
  5
3FF
330
564
100
AcDbEntity
  8
Level 1
  6
Continuous
 62
     7
370
    13
100
AcDbPolyline
 90
        8
 70
   128
 43
0.0
 10
142.540354
 20
-9.115135
 10
142.5445
 20
-9.117896
 10
142.545875
 20
-9.119281
 10
142.547948
 20
-9.122042
 10
142.548635
 20
-9.124802
 10
142.550021
 20
-9.126875
 10
142.550708
 20
-9.130323
 10
142.551396
 20
-9.133781
  0
LWPOLYLINE
  5
400
330
564
100
AcDbEntity
  8
Level 1
  6
Continuous
 62
     7
370
    13
100
AcDbPolyline
 90
        9
 70
   128
 43
0.0
 10
142.583844
 20
-9.109615
 10
142.583844
 20
-9.083385
 10
142.579708
 20
-9.073719
 10
142.571417
 20
-9.068885
 10
142.536208
 20
-9.068885
 10
142.527927
 20
-9.073719
 10
142.524479
 20
-9.083385
 10
142.526552
 20
-9.109615
 10
142.541042
 20
-9.115833
  0
LWPOLYLINE
  5
401
330
564
100
AcDbEntity
  8
Level 1
  6
Continuous
 62
     7
370
    13
100
AcDbPolyline
 90
        5
 70
   128
 43
0.0
 10
142.551396
 20
-9.133781
 10
142.551396
 20
-9.215927
 10
142.543802
 20
-9.226969
 10
142.53276
 20
-9.234562
 10
142.496177
 20
-9.245396
  0
LWPOLYLINE
  5
402
330
564
100
AcDbEntity
  8
Level 1
  6
Continuous
 62
     7
370
    13
100
AcDbPolyline
 90
        8
 70
   128
 43
0.0
 10
142.496177
 20
-9.245396
 10
142.496177
 20
-9.262177
 10
142.616979
 20
-9.262177
 10
142.616979
 20
-9.250438
 10
142.575562
 20
-9.234562
 10
142.567969
 20
-9.226969
 10
142.562448
 20
-9.215927
 10
142.56175
 20
-9.128958
  0
LINE
  5
403
330
564
100
AcDbEntity
  8
Level 1
  6
Continuous
 62
     7
370
    13
100
AcDbLine
 10
142.864115
 20
-9.083385
 30
0.0
 11
142.768156
 21
-9.083385
 31
0.0
  0
LINE
  5
404
330
564
100
AcDbEntity
  8
Level 1
  6
Continuous
 62
     7
370
     0
100
AcDbLine
 10
142.496177
 20
-9.262177
 30
0.0
 11
142.513948
 21
-9.240135
 31
0.0
  0
LINE
  5
405
330
564
100
AcDbEntity
  8
Level 1
  6
Continuous
 62
     7
370
     0
100
AcDbLine
 10
142.551396
 20
-9.193146
 30
0.0
 11
142.562167
 21
-9.180375
 31
0.0
  0
LINE
  5
406
330
564
100
AcDbEntity
  8
Level 1
  6
Continuous
 62
     7
370
     0
100
AcDbLine
 10
142.551396
 20
-9.161385
 30
0.0
 11
142.561906
 21
-9.148906
 31
0.0
  0
LINE
  5
407
330
564
100
AcDbEntity
  8
Level 1
  6
Continuous
 62
     7
370
     0
100
AcDbLine
 10
142.550844
 20
-9.131
 30
0.0
 11
142.583844
 21
-9.090281
 31
0.0
  0
LINE
  5
408
330
564
100
AcDbEntity
  8
Level 1
  6
Continuous
 62
     7
370
     0
100
AcDbLine
 10
142.538677
 20
-9.114823
 30
0.0
 11
142.574531
 21
-9.070698
 31
0.0
  0
LINE
  5
409
330
564
100
AcDbEntity
  8
Level 1
  6
Continuous
 62
     7
370
     0
100
AcDbLine
 10
142.525729
 20
-9.09926
 30
0.0
 11
142.550708
 21
-9.068885
 31
0.0
  0
LINE
  5
40A
330
564
100
AcDbEntity
  8
Level 1
  6
Continuous
 62
     7
370
     0
100
AcDbLine
 10
142.521031
 20
-9.262177
 30
0.0
 11
142.562406
 21
-9.211135
 31
0.0
  0
LINE
  5
40B
330
564
100
AcDbEntity
  8
Level 1
  6
Continuous
 62
     7
370
     0
100
AcDbLine
 10
142.546573
 20
-9.262177
 30
0.0
 11
142.571729
 21
-9.230729
 31
0.0
  0
LINE
  5
40C
330
564
100
AcDbEntity
  8
Level 1
  6
Continuous
 62
     7
370
     0
100
AcDbLine
 10
142.572115
 20
-9.262177
 30
0.0
 11
142.590042
 21
-9.240115
 31
0.0
  0
LINE
  5
40D
330
564
100
AcDbEntity
  8
Level 1
  6
Continuous
 62
     7
370
     0
100
AcDbLine
 10
142.597656
 20
-9.262177
 30
0.0
 11
142.609479
 21
-9.247562
 31
0.0
  0
LINE
  5
40E
330
564
100
AcDbEntity
  8
Level 1
  6
Continuous
 62
     7
370
     0
100
AcDbLine
 10
142.551396
 20
-9.172437
 30
0.0
 11
142.56199
 21
-9.159198
 31
0.0
  0
LINE
  5
40F
330
564
100
AcDbEntity
  8
Level 1
  6
Continuous
 62
     7
370
     0
100
AcDbLine
 10
142.551396
 20
-9.140677
 30
0.0
 11
142.566937
 21
-9.12099
 31
0.0
  0
LINE
  5
410
330
564
100
AcDbEntity
  8
Level 1
  6
Continuous
 62
     7
370
     0
100
AcDbLine
 10
142.571417
 20
-9.115833
 30
0.0
 11
142.583844
 21
-9.101333
 31
0.0
  0
LINE
  5
411
330
564
100
AcDbEntity
  8
Level 1
  6
Continuous
 62
     7
370
     0
100
AcDbLine
 10
142.544885
 20
-9.118281
 30
0.0
 11
142.579708
 21
-9.073719
 31
0.0
  0
LINE
  5
412
330
564
100
AcDbEntity
  8
Level 1
  6
Continuous
 62
     7
370
     0
100
AcDbLine
 10
142.526437
 20
-9.108208
 30
0.0
 11
142.55899
 21
-9.068885
 31
0.0
  0
LINE
  5
413
330
564
100
AcDbEntity
  8
Level 1
  6
Continuous
 62
     7
370
     0
100
AcDbLine
 10
142.526781
 20
-9.076937
 30
0.0
 11
142.532906
 21
-9.070812
 31
0.0
  0
LINE
  5
414
330
564
100
AcDbEntity
  8
Level 1
  6
Continuous
 62
     7
370
     0
100
AcDbLine
 10
142.503771
 20
-9.262177
 30
0.0
 11
142.524823
 21
-9.236917
 31
0.0
  0
LINE
  5
415
330
564
100
AcDbEntity
  8
Level 1
  6
Continuous
 62
     7
370
     0
100
AcDbLine
 10
142.551396
 20
-9.204187
 30
0.0
 11
142.56225
 21
-9.190635
 31
0.0
  0
LINE
  5
416
330
564
100
AcDbEntity
  8
Level 1
  6
Continuous
 62
     7
370
     0
100
AcDbLine
 10
142.529313
 20
-9.262177
 30
0.0
 11
142.564302
 21
-9.219635
 31
0.0
  0
LINE
  5
417
330
564
100
AcDbEntity
  8
Level 1
  6
Continuous
 62
     7
370
     0
100
AcDbLine
 10
142.554854
 20
-9.262177
 30
0.0
 11
142.576615
 21
-9.234969
 31
0.0
  0
LINE
  5
418
330
564
100
AcDbEntity
  8
Level 1
  6
Continuous
 62
     7
370
     0
100
AcDbLine
 10
142.580396
 20
-9.262177
 30
0.0
 11
142.59649
 21
-9.242583
 31
0.0
  0
LINE
  5
419
330
564
100
AcDbEntity
  8
Level 1
  6
Continuous
 62
     7
370
     0
100
AcDbLine
 10
142.605937
 20
-9.262177
 30
0.0
 11
142.615938
 21
-9.250042
 31
0.0
  0
LINE
  5
41A
330
564
100
AcDbEntity
  8
Level 1
  6
Continuous
 62
     7
370
     0
100
AcDbLine
 10
142.562292
 20
-9.283573
 30
0.0
 11
142.549333
 21
-9.26701
 31
0.0
  0
LINE
  5
41B
330
564
100
AcDbEntity
  8
Level 1
  6
Continuous
 62
     7
370
     0
100
AcDbLine
 10
142.537448
 20
-9.283573
 30
0.0
 11
142.524479
 21
-9.26701
 31
0.0
  0
LINE
  5
41C
330
564
100
AcDbEntity
  8
Level 1
  6
Continuous
 62
     7
370
     0
100
AcDbLine
 10
142.511906
 20
-9.283573
 30
0.0
 11
142.498937
 21
-9.26701
 31
0.0
  0
LINE
  5
41D
330
564
100
AcDbEntity
  8
Level 1
  6
Continuous
 62
     7
370
     0
100
AcDbLine
 10
142.490656
 20
-9.257344
 30
0.0
 11
142.486406
 21
-9.251677
 31
0.0
  0
LINE
  5
41E
330
564
100
AcDbEntity
  8
Level 1
  6
Continuous
 62
     7
370
     0
100
AcDbLine
 10
142.486375
 20
-9.283573
 30
0.0
 11
142.469281
 21
-9.262208
 31
0.0
  0
LINE
  5
41F
330
564
100
AcDbEntity
  8
Level 1
  6
Continuous
 62
     7
370
     0
100
AcDbLine
 10
142.460823
 20
-9.283573
 30
0.0
 11
142.448115
 21
-9.267344
 31
0.0
  0
LINE
  5
420
330
564
100
AcDbEntity
  8
Level 1
  6
Continuous
 62
     7
370
     0
100
AcDbLine
 10
142.435969
 20
-9.283573
 30
0.0
 11
142.425146
 21
-9.269865
 31
0.0
  0
LINE
  5
421
330
564
100
AcDbEntity
  8
Level 1
  6
Continuous
 62
     7
370
     0
100
AcDbLine
 10
142.410438
 20
-9.283573
 30
0.0
 11
142.407125
 21
-9.279438
 31
0.0
  0
LINE
  5
422
330
564
100
AcDbEntity
  8
Level 1
  6
Continuous
 62
     7
370
     0
100
AcDbLine
 10
142.587844
 20
-9.283573
 30
0.0
 11
142.574875
 21
-9.26701
 31
0.0
  0
LINE
  5
423
330
564
100
AcDbEntity
  8
Level 1
  6
Continuous
 62
     7
370
     0
100
AcDbLine
 10
142.613385
 20
-9.283573
 30
0.0
 11
142.600417
 21
-9.26701
 31
0.0
  0
LINE
  5
424
330
564
100
AcDbEntity
  8
Level 1
  6
Continuous
 62
     7
370
     0
100
AcDbLine
 10
142.638937
 20
-9.283573
 30
0.0
 11
142.621813
 21
-9.262177
 31
0.0
  0
LINE
  5
425
330
564
100
AcDbEntity
  8
Level 1
  6
Continuous
 62
     7
370
     0
100
AcDbLine
 10
142.664479
 20
-9.283573
 30
0.0
 11
142.653125
 21
-9.269396
 31
0.0
  0
LINE
  5
426
330
564
100
AcDbEntity
  8
Level 1
  6
Continuous
 62
     7
370
     0
100
AcDbLine
 10
142.689302
 20
-9.283573
 30
0.0
 11
142.67924
 21
-9.270635
 31
0.0
  0
LINE
  5
427
330
564
100
AcDbEntity
  8
Level 1
  6
Continuous
 62
     7
370
     0
100
AcDbLine
 10
142.545729
 20
-9.283573
 30
0.0
 11
142.53276
 21
-9.26701
 31
0.0
  0
LINE
  5
428
330
564
100
AcDbEntity
  8
Level 1
  6
Continuous
 62
     7
370
     0
100
AcDbLine
 10
142.520187
 20
-9.283573
 30
0.0
 11
142.507219
 21
-9.26701
 31
0.0
  0
LINE
  5
429
330
564
100
AcDbEntity
  8
Level 1
  6
Continuous
 62
     7
370
     0
100
AcDbLine
 10
142.495344
 20
-9.283573
 30
0.0
 11
142.475292
 21
-9.25851
 31
0.0
  0
LINE
  5
42A
330
564
100
AcDbEntity
  8
Level 1
  6
Continuous
 62
     7
370
     0
100
AcDbLine
 10
142.469792
 20
-9.283573
 30
0.0
 11
142.45624
 21
-9.266448
 31
0.0
  0
LINE
  5
42B
330
564
100
AcDbEntity
  8
Level 1
  6
Continuous
 62
     7
370
     0
100
AcDbLine
 10
142.44426
 20
-9.283573
 30
0.0
 11
142.432635
 21
-9.269042
 31
0.0
  0
LINE
  5
42C
330
564
100
AcDbEntity
  8
Level 1
  6
Continuous
 62
     7
370
     0
100
AcDbLine
 10
142.418729
 20
-9.283573
 30
0.0
 11
142.409031
 21
-9.271635
 31
0.0
  0
LINE
  5
42D
330
564
100
AcDbEntity
  8
Level 1
  6
Continuous
 62
     7
370
     0
100
AcDbLine
 10
142.571271
 20
-9.283573
 30
0.0
 11
142.558302
 21
-9.26701
 31
0.0
  0
LINE
  5
42E
330
564
100
AcDbEntity
  8
Level 1
  6
Continuous
 62
     7
370
     0
100
AcDbLine
 10
142.596812
 20
-9.283573
 30
0.0
 11
142.583844
 21
-9.26701
 31
0.0
  0
LINE
  5
42F
330
564
100
AcDbEntity
  8
Level 1
  6
Continuous
 62
     7
370
     0
100
AcDbLine
 10
142.622385
 20
-9.283573
 30
0.0
 11
142.608698
 21
-9.26701
 31
0.0
  0
LINE
  5
430
330
564
100
AcDbEntity
  8
Level 1
  6
Continuous
 62
     7
370
     0
100
AcDbLine
 10
142.647219
 20
-9.283573
 30
0.0
 11
142.621813
 21
-9.251823
 31
0.0
  0
LINE
  5
431
330
564
100
AcDbEntity
  8
Level 1
  6
Continuous
 62
     7
370
     0
100
AcDbLine
 10
142.67275
 20
-9.283573
 30
0.0
 11
142.661885
 21
-9.269813
 31
0.0
  0
LINE
  5
432
330
564
100
AcDbEntity
  8
Level 1
  6
Continuous
 62
     7
370
     0
100
AcDbLine
 10
142.698281
 20
-9.283573
 30
0.0
 11
142.688562
 21
-9.271073
 31
0.0
  0
LWPOLYLINE
  5
433
330
564
100
AcDbEntity
  8
Level 1
  6
Continuous
 62
     7
370
    13
100
AcDbPolyline
 90
       10
 70
   128
 43
0.0
 10
144.442187
 20
-9.283573
 10
144.442187
 20
-9.271146
 10
144.385573
 20
-9.264938
 10
144.358656
 20
-9.248365
 10
144.358656
 20
-9.266312
 10
144.22749
 20
-9.266312
 10
144.22749
 20
-9.250438
 10
144.202646
 20
-9.268385
 10
144.144656
 20
-9.271146
 10
144.144656
 20
-9.283573
  0
LWPOLYLINE
  5
434
330
564
100
AcDbEntity
  8
Level 1
  6
Continuous
 62
     7
370
    13
100
AcDbPolyline
 90
        8
 70
   128
 43
0.0
 10
144.307302
 20
-9.115542
 10
144.304812
 20
-9.117208
 10
144.303427
 20
-9.118594
 10
144.301354
 20
-9.121354
 10
144.300667
 20
-9.124115
 10
144.299292
 20
-9.126188
 10
144.298594
 20
-9.129635
 10
144.297906
 20
-9.133083
  0
LWPOLYLINE
  5
435
330
564
100
AcDbEntity
  8
Level 1
  6
Continuous
 62
     7
370
    13
100
AcDbPolyline
 90
        9
 70
   128
 43
0.0
 10
144.265458
 20
-9.108927
 10
144.265458
 20
-9.082698
 10
144.269604
 20
-9.073031
 10
144.277885
 20
-9.068198
 10
144.313094
 20
-9.068198
 10
144.321375
 20
-9.073031
 10
144.324833
 20
-9.082698
 10
144.32276
 20
-9.108927
 10
144.307302
 20
-9.115542
  0
LWPOLYLINE
  5
436
330
564
100
AcDbEntity
  8
Level 1
  6
Continuous
 62
     7
370
    13
100
AcDbPolyline
 90
        5
 70
   128
 43
0.0
 10
144.297906
 20
-9.133083
 10
144.297906
 20
-9.215229
 10
144.3055
 20
-9.226281
 10
144.316542
 20
-9.233875
 10
144.353135
 20
-9.244708
  0
LWPOLYLINE
  5
437
330
564
100
AcDbEntity
  8
Level 1
  6
Continuous
 62
     7
370
    13
100
AcDbPolyline
 90
        8
 70
   128
 43
0.0
 10
144.353135
 20
-9.244708
 10
144.353135
 20
-9.26149
 10
144.232323
 20
-9.26149
 10
144.232323
 20
-9.24975
 10
144.27375
 20
-9.233875
 10
144.281344
 20
-9.226281
 10
144.286865
 20
-9.215229
 10
144.287552
 20
-9.12825
  0
LINE
  5
438
330
564
100
AcDbEntity
  8
Level 1
  6
Continuous
 62
     7
370
     0
100
AcDbLine
 10
144.353135
 20
-9.26149
 30
0.0
 11
144.335365
 21
-9.239448
 31
0.0
  0
LINE
  5
439
330
564
100
AcDbEntity
  8
Level 1
  6
Continuous
 62
     7
370
     0
100
AcDbLine
 10
144.297906
 20
-9.192458
 30
0.0
 11
144.287146
 21
-9.179667
 31
0.0
  0
LINE
  5
43A
330
564
100
AcDbEntity
  8
Level 1
  6
Continuous
 62
     7
370
     0
100
AcDbLine
 10
144.297906
 20
-9.160698
 30
0.0
 11
144.287396
 21
-9.148208
 31
0.0
  0
LINE
  5
43B
330
564
100
AcDbEntity
  8
Level 1
  6
Continuous
 62
     7
370
     0
100
AcDbLine
 10
144.298458
 20
-9.130313
 30
0.0
 11
144.265458
 21
-9.089594
 31
0.0
  0
LINE
  5
43C
330
564
100
AcDbEntity
  8
Level 1
  6
Continuous
 62
     7
370
     0
100
AcDbLine
 10
144.310625
 20
-9.114115
 30
0.0
 11
144.274792
 21
-9.07001
 31
0.0
  0
LINE
  5
43D
330
564
100
AcDbEntity
  8
Level 1
  6
Continuous
 62
     7
370
     0
100
AcDbLine
 10
144.323573
 20
-9.098583
 30
0.0
 11
144.298594
 21
-9.068198
 31
0.0
  0
LINE
  5
43E
330
564
100
AcDbEntity
  8
Level 1
  6
Continuous
 62
     7
370
     0
100
AcDbLine
 10
144.328281
 20
-9.26149
 30
0.0
 11
144.286906
 21
-9.210448
 31
0.0
  0
LINE
  5
43F
330
564
100
AcDbEntity
  8
Level 1
  6
Continuous
 62
     7
370
     0
100
AcDbLine
 10
144.30274
 20
-9.26149
 30
0.0
 11
144.277583
 21
-9.230042
 31
0.0
  0
LINE
  5
440
330
564
100
AcDbEntity
  8
Level 1
  6
Continuous
 62
     7
370
     0
100
AcDbLine
 10
144.277198
 20
-9.26149
 30
0.0
 11
144.259271
 21
-9.239427
 31
0.0
  0
LINE
  5
441
330
564
100
AcDbEntity
  8
Level 1
  6
Continuous
 62
     7
370
     0
100
AcDbLine
 10
144.251656
 20
-9.26149
 30
0.0
 11
144.239823
 21
-9.246875
 31
0.0
  0
LINE
  5
442
330
564
100
AcDbEntity
  8
Level 1
  6
Continuous
 62
     7
370
     0
100
AcDbLine
 10
144.297906
 20
-9.17174
 30
0.0
 11
144.287312
 21
-9.1585
 31
0.0
  0
LINE
  5
443
330
564
100
AcDbEntity
  8
Level 1
  6
Continuous
 62
     7
370
     0
100
AcDbLine
 10
144.297906
 20
-9.13999
 30
0.0
 11
144.282375
 21
-9.120312
 31
0.0
  0
LINE
  5
444
330
564
100
AcDbEntity
  8
Level 1
  6
Continuous
 62
     7
370
     0
100
AcDbLine
 10
144.277896
 20
-9.115156
 30
0.0
 11
144.265458
 21
-9.100646
 31
0.0
  0
LINE
  5
445
330
564
100
AcDbEntity
  8
Level 1
  6
Continuous
 62
     7
370
     0
100
AcDbLine
 10
144.304417
 20
-9.117604
 30
0.0
 11
144.269604
 21
-9.073031
 31
0.0
  0
LINE
  5
446
330
564
100
AcDbEntity
  8
Level 1
  6
Continuous
 62
     7
370
     0
100
AcDbLine
 10
144.322875
 20
-9.107542
 30
0.0
 11
144.290312
 21
-9.068198
 31
0.0
  0
LINE
  5
447
330
564
100
AcDbEntity
  8
Level 1
  6
Continuous
 62
     7
370
    13
100
AcDbLine
 10
144.322521
 20
-9.07624
 30
0.0
 11
144.316417
 21
-9.070135
 31
0.0
  0
LINE
  5
448
330
564
100
AcDbEntity
  8
Level 1
  6
Continuous
 62
     7
370
     0
100
AcDbLine
 10
144.345542
 20
-9.26149
 30
0.0
 11
144.3245
 21
-9.236229
 31
0.0
  0
LINE
  5
449
330
564
100
AcDbEntity
  8
Level 1
  6
Continuous
 62
     7
370
     0
100
AcDbLine
 10
144.297906
 20
-9.2035
 30
0.0
 11
144.287062
 21
-9.189937
 31
0.0
  0
LINE
  5
44A
330
564
100
AcDbEntity
  8
Level 1
  6
Continuous
 62
     7
370
     0
100
AcDbLine
 10
144.32
 20
-9.26149
 30
0.0
 11
144.28501
 21
-9.218948
 31
0.0
  0
LINE
  5
44B
330
564
100
AcDbEntity
  8
Level 1
  6
Continuous
 62
     7
370
     0
100
AcDbLine
 10
144.294458
 20
-9.26149
 30
0.0
 11
144.272687
 21
-9.234281
 31
0.0
  0
LINE
  5
44C
330
564
100
AcDbEntity
  8
Level 1
  6
Continuous
 62
     7
370
     0
100
AcDbLine
 10
144.268917
 20
-9.26149
 30
0.0
 11
144.252813
 21
-9.241896
 31
0.0
  0
LINE
  5
44D
330
564
100
AcDbEntity
  8
Level 1
  6
Continuous
 62
     7
370
     0
100
AcDbLine
 10
144.243375
 20
-9.26149
 30
0.0
 11
144.233375
 21
-9.249344
 31
0.0
  0
LINE
  5
44E
330
564
100
AcDbEntity
  8
Level 1
  6
Continuous
 62
     7
370
     0
100
AcDbLine
 10
144.286479
 20
-9.283573
 30
0.0
 11
144.299979
 21
-9.266312
 31
0.0
  0
LINE
  5
44F
330
564
100
AcDbEntity
  8
Level 1
  6
Continuous
 62
     7
370
     0
100
AcDbLine
 10
144.311333
 20
-9.283573
 30
0.0
 11
144.324833
 21
-9.266312
 31
0.0
  0
LINE
  5
450
330
564
100
AcDbEntity
  8
Level 1
  6
Continuous
 62
     7
370
     0
100
AcDbLine
 10
144.336875
 20
-9.283573
 30
0.0
 11
144.350375
 21
-9.266312
 31
0.0
  0
LINE
  5
451
330
564
100
AcDbEntity
  8
Level 1
  6
Continuous
 62
     7
370
     0
100
AcDbLine
 10
144.358656
 20
-9.256656
 30
0.0
 11
144.362906
 21
-9.250979
 31
0.0
  0
LINE
  5
452
330
564
100
AcDbEntity
  8
Level 1
  6
Continuous
 62
     7
370
     0
100
AcDbLine
 10
144.362385
 20
-9.283573
 30
0.0
 11
144.380021
 21
-9.261521
 31
0.0
  0
LINE
  5
453
330
564
100
AcDbEntity
  8
Level 1
  6
Continuous
 62
     7
370
     0
100
AcDbLine
 10
144.387958
 20
-9.283573
 30
0.0
 11
144.401198
 21
-9.266646
 31
0.0
  0
LINE
  5
454
330
564
100
AcDbEntity
  8
Level 1
  6
Continuous
 62
     7
370
     0
100
AcDbLine
 10
144.412802
 20
-9.283573
 30
0.0
 11
144.424167
 21
-9.269167
 31
0.0
  0
LINE
  5
455
330
564
100
AcDbEntity
  8
Level 1
  6
Continuous
 62
     7
370
     0
100
AcDbLine
 10
144.438333
 20
-9.283573
 30
0.0
 11
144.442187
 21
-9.27874
 31
0.0
  0
LINE
  5
456
330
564
100
AcDbEntity
  8
Level 1
  6
Continuous
 62
     7
370
     0
100
AcDbLine
 10
144.260937
 20
-9.283573
 30
0.0
 11
144.274438
 21
-9.266312
 31
0.0
  0
LINE
  5
457
330
564
100
AcDbEntity
  8
Level 1
  6
Continuous
 62
     7
370
     0
100
AcDbLine
 10
144.235396
 20
-9.283573
 30
0.0
 11
144.248896
 21
-9.266312
 31
0.0
  0
LINE
  5
458
330
564
100
AcDbEntity
  8
Level 1
  6
Continuous
 62
     7
370
     0
100
AcDbLine
 10
144.209823
 20
-9.283573
 30
0.0
 11
144.22749
 21
-9.26149
 31
0.0
  0
LINE
  5
459
330
564
100
AcDbEntity
  8
Level 1
  6
Continuous
 62
     7
370
     0
100
AcDbLine
 10
144.184281
 20
-9.283573
 30
0.0
 11
144.196177
 21
-9.268698
 31
0.0
  0
LINE
  5
45A
330
564
100
AcDbEntity
  8
Level 1
  6
Continuous
 62
     7
370
     0
100
AcDbLine
 10
144.159458
 20
-9.283573
 30
0.0
 11
144.170073
 21
-9.269937
 31
0.0
  0
LINE
  5
45B
330
564
100
AcDbEntity
  8
Level 1
  6
Continuous
 62
     7
370
     0
100
AcDbLine
 10
144.303042
 20
-9.283573
 30
0.0
 11
144.316542
 21
-9.266312
 31
0.0
  0
LINE
  5
45C
330
564
100
AcDbEntity
  8
Level 1
  6
Continuous
 62
     7
370
     0
100
AcDbLine
 10
144.328594
 20
-9.283573
 30
0.0
 11
144.342083
 21
-9.266312
 31
0.0
  0
LINE
  5
45D
330
564
100
AcDbEntity
  8
Level 1
  6
Continuous
 62
     7
370
     0
100
AcDbLine
 10
144.353406
 20
-9.283573
 30
0.0
 11
144.37401
 21
-9.257823
 31
0.0
  0
LINE
  5
45E
330
564
100
AcDbEntity
  8
Level 1
  6
Continuous
 62
     7
370
     0
100
AcDbLine
 10
144.378969
 20
-9.283573
 30
0.0
 11
144.393062
 21
-9.26576
 31
0.0
  0
LINE
  5
45F
330
564
100
AcDbEntity
  8
Level 1
  6
Continuous
 62
     7
370
     0
100
AcDbLine
 10
144.40449
 20
-9.283573
 30
0.0
 11
144.416677
 21
-9.268344
 31
0.0
  0
LINE
  5
460
330
564
100
AcDbEntity
  8
Level 1
  6
Continuous
 62
     7
370
     0
100
AcDbLine
 10
144.430021
 20
-9.283573
 30
0.0
 11
144.440281
 21
-9.270938
 31
0.0
  0
LINE
  5
461
330
564
100
AcDbEntity
  8
Level 1
  6
Continuous
 62
     7
370
     0
100
AcDbLine
 10
144.2775
 20
-9.283573
 30
0.0
 11
144.291
 21
-9.266312
 31
0.0
  0
LINE
  5
462
330
564
100
AcDbEntity
  8
Level 1
  6
Continuous
 62
     7
370
     0
100
AcDbLine
 10
144.251958
 20
-9.283573
 30
0.0
 11
144.265458
 21
-9.266312
 31
0.0
  0
LINE
  5
463
330
564
100
AcDbEntity
  8
Level 1
  6
Continuous
 62
     7
370
     0
100
AcDbLine
 10
144.226354
 20
-9.283573
 30
0.0
 11
144.240615
 21
-9.266312
 31
0.0
  0
LINE
  5
464
330
564
100
AcDbEntity
  8
Level 1
  6
Continuous
 62
     7
370
     0
100
AcDbLine
 10
144.201542
 20
-9.283573
 30
0.0
 11
144.22749
 21
-9.251135
 31
0.0
  0
LINE
  5
465
330
564
100
AcDbEntity
  8
Level 1
  6
Continuous
 62
     7
370
     0
100
AcDbLine
 10
144.176021
 20
-9.283573
 30
0.0
 11
144.187437
 21
-9.269115
 31
0.0
  0
LINE
  5
466
330
564
100
AcDbEntity
  8
Level 1
  6
Continuous
 62
     7
370
     0
100
AcDbLine
 10
144.15049
 20
-9.283573
 30
0.0
 11
144.16075
 21
-9.270375
 31
0.0
  0
LINE
  5
468
330
564
100
AcDbEntity
  8
Level 1
  6
Continuous
 62
     7
370
    13
100
AcDbLine
 10
141.273625
 20
-6.848823
 30
0.0
 11
141.273625
 21
-6.524375
 31
0.0
  0
LINE
  5
469
330
564
100
AcDbEntity
  8
Level 1
  6
Continuous
 62
     7
370
    13
100
AcDbLine
 10
141.273625
 20
-6.558885
 30
0.0
 11
141.501427
 21
-6.558885
 31
0.0
  0
LWPOLYLINE
  5
46A
330
564
100
AcDbEntity
  8
Level 1
  6
Continuous
 62
     7
370
    13
100
AcDbPolyline
 90
        2
 70
   128
 43
0.0
 10
141.273625
 20
-7.006906
 10
141.273625
 20
-6.886792
  0
LINE
  5
46B
330
564
100
AcDbEntity
  8
Level 1
  6
Continuous
 62
     7
370
    13
100
AcDbLine
 10
141.907333
 20
-6.860552
 30
0.0
 11
141.907333
 21
-6.52575
 31
0.0
  0
LINE
  5
46C
330
564
100
AcDbEntity
  8
Level 1
  6
Continuous
 62
     7
370
    13
100
AcDbLine
 10
142.590062
 20
-6.886094
 30
0.0
 11
141.907333
 21
-6.886094
 31
0.0
  0
LINE
  5
46D
330
564
100
AcDbEntity
  8
Level 1
  6
Continuous
 62
     7
370
    13
100
AcDbLine
 10
141.907333
 20
-6.928896
 30
0.0
 11
141.907333
 21
-6.886094
 31
0.0
  0
LINE
  5
472
330
564
100
AcDbEntity
  8
Level 1
  6
Continuous
 62
     7
370
    13
100
AcDbLine
 10
141.390281
 20
-6.886792
 30
0.0
 11
141.390281
 21
-6.698333
 31
0.0
  0
LINE
  5
473
330
564
100
AcDbEntity
  8
Level 1
  6
Continuous
 62
     7
370
    13
100
AcDbLine
 10
141.392354
 20
-7.007594
 30
0.0
 11
141.392354
 21
-7.19674
 31
0.0
  0
LINE
  5
475
330
564
100
AcDbEntity
  8
Level 1
  6
Continuous
 62
     7
370
    13
100
AcDbLine
 10
141.312969
 20
-6.886792
 30
0.0
 11
141.4745
 21
-6.886792
 31
0.0
  0
INSERT
  5
476
330
564
100
AcDbEntity
  8
Level 1
  6
Continuous
 62
     7
370
    13
100
AcDbBlockReference
  2
LARROW
 10
141.273625
 20
-6.558885
 30
0.0
 41
6.0
 42
6.0
 43
6.0
 50
180.0
  0
INSERT
  5
478
330
564
100
AcDbEntity
  8
Level 1
  6
Continuous
 62
     7
370
    13
100
AcDbBlockReference
  2
LARROW
 10
141.501427
 20
-6.558885
 30
0.0
 41
6.0
 42
6.0
 43
6.0
  0
INSERT
  5
47A
330
564
100
AcDbEntity
  8
Level 1
  6
Continuous
 62
     7
370
    13
100
AcDbBlockReference
  2
LARROW
 10
141.724396
 20
-6.558885
 30
0.0
 41
6.0
 42
6.0
 43
6.0
 50
180.0
  0
INSERT
  5
47C
330
564
100
AcDbEntity
  8
Level 1
  6
Continuous
 62
     7
370
    13
100
AcDbBlockReference
  2
LARROW
 10
141.907333
 20
-6.558885
 30
0.0
 41
6.0
 42
6.0
 43
6.0
  0
LINE
  5
47E
330
564
100
AcDbEntity
  8
Level 1
  6
Continuous
 62
     7
370
    13
100
AcDbLine
 10
141.056865
 20
-6.204063
 30
0.0
 11
141.220469
 21
-6.204063
 31
0.0
  0
LINE
  5
47F
330
564
100
AcDbEntity
  8
Level 1
  6
Continuous
 62
     7
370
    13
100
AcDbLine
 10
141.220469
 20
-6.204063
 30
0.0
 11
141.399948
 21
-6.204063
 31
0.0
  0
INSERT
  5
480
330
564
100
AcDbEntity
  8
Level 1
  6
Continuous
 62
     7
370
    13
100
AcDbBlockReference
  2
LARROW
 10
141.220469
 20
-6.204063
 30
0.0
 41
9.0
 42
9.0
 43
9.0
  0
INSERT
  5
482
330
564
100
AcDbEntity
  8
Level 1
  6
Continuous
 62
     7
370
    13
100
AcDbBlockReference
  2
LARROW
 10
141.399948
 20
-6.204063
 30
0.0
 41
9.0
 42
9.0
 43
9.0
 50
180.0
  0
INSERT
  5
484
330
564
100
AcDbEntity
  8
Level 1
  6
Continuous
 62
     7
370
    13
100
AcDbBlockReference
  2
LARROW
 10
141.05824
 20
-5.630406
 30
0.0
 41
9.0
 42
9.0
 43
9.0
 50
90.0
  0
INSERT
  5
486
330
564
100
AcDbEntity
  8
Level 1
  6
Continuous
 62
     7
370
    13
100
AcDbBlockReference
  2
LARROW
 10
141.05824
 20
-6.088094
 30
0.0
 41
9.0
 42
9.0
 43
9.0
 50
270.0
  0
INSERT
  5
488
330
564
100
AcDbEntity
  8
Level 1
  6
Continuous
 62
     7
370
    13
100
AcDbBlockReference
  2
LARROW
 10
141.982573
 20
-5.629031
 30
0.0
 41
9.000001
 42
9.000001
 43
9.000001
 50
146.941389
  0
LINE
  5
48A
330
564
100
AcDbEntity
  8
Level 1
  6
Continuous
 62
     7
370
    13
100
AcDbLine
 10
141.399948
 20
-6.204063
 30
0.0
 11
145.163562
 21
-6.204063
 31
0.0
  0
LINE
  5
48B
330
564
100
AcDbEntity
  8
Level 1
  6
Continuous
 62
     7
370
    13
100
AcDbLine
 10
145.358927
 20
-6.204063
 30
0.0
 11
145.561885
 21
-6.204063
 31
0.0
  0
LINE
  5
48C
330
564
100
AcDbEntity
  8
Level 1
  6
Continuous
 62
     7
370
    13
100
AcDbLine
 10
145.163562
 20
-6.20475
 30
0.0
 11
145.358927
 21
-6.20475
 31
0.0
  0
INSERT
  5
48D
330
564
100
AcDbEntity
  8
Level 1
  6
Continuous
 62
     7
370
    13
100
AcDbBlockReference
  2
LARROW
 10
145.163562
 20
-6.204063
 30
0.0
 41
9.0
 42
9.0
 43
9.0
  0
INSERT
  5
48F
330
564
100
AcDbEntity
  8
Level 1
  6
Continuous
 62
     7
370
    13
100
AcDbBlockReference
  2
LARROW
 10
145.358927
 20
-6.204063
 30
0.0
 41
9.0
 42
9.0
 43
9.0
 50
180.0
  0
LINE
  5
491
330
564
100
AcDbEntity
  8
Level 1
  6
Continuous
 62
     7
370
    13
100
AcDbLine
 10
141.747187
 20
-6.886094
 30
0.0
 11
141.887573
 21
-6.886094
 31
0.0
  0
LINE
  5
492
330
564
100
AcDbEntity
  8
Level 1
  6
Continuous
 62
     7
370
    13
100
AcDbLine
 10
141.82175
 20
-6.886094
 30
0.0
 11
141.82175
 21
-6.698333
 31
0.0
  0
LINE
  5
493
330
564
100
AcDbEntity
  8
Level 1
  6
Continuous
 62
     7
370
    13
100
AcDbLine
 10
141.82175
 20
-6.928896
 30
0.0
 11
141.82175
 21
-7.118042
 31
0.0
  0
INSERT
  5
496
330
564
100
AcDbEntity
  8
Level 1
  6
Continuous
 62
     7
370
    13
100
AcDbBlockReference
  2
LARROW
 10
144.882406
 20
-9.080625
 30
0.0
 41
8.999999
 42
8.999999
 43
8.999999
 50
322.164045
  0
INSERT
  5
498
330
564
100
AcDbEntity
  8
Level 1
  6
Continuous
 62
     7
370
    13
100
AcDbBlockReference
  2
LARROW
 10
142.0835
 20
-9.084073
 30
0.0
 41
8.999998
 42
8.999998
 43
8.999998
 50
196.411488
  0
INSERT
  5
49A
330
564
100
AcDbEntity
  8
Level 1
  6
Continuous
 62
     7
370
    13
100
AcDbBlockReference
  2
LARROW
 10
143.452062
 20
-9.083385
 30
0.0
 41
9.0
 42
9.0
 43
9.0
 50
221.818469
  0
INSERT
  5
49C
330
564
100
AcDbEntity
  8
Level 1
  6
Continuous
 62
     7
370
    13
100
AcDbBlockReference
  2
LARROW
 10
143.418437
 20
-8.631229
 30
0.0
 41
9.0
 42
9.0
 43
9.0
  0
INSERT
  5
49E
330
564
100
AcDbEntity
  8
Level 1
  6
Continuous
 62
     7
370
    13
100
AcDbBlockReference
  2
LARROW
 10
141.634656
 20
-8.631229
 30
0.0
 41
9.0
 42
9.0
 43
9.0
 50
180.0
  0
INSERT
  5
4A0
330
564
100
AcDbEntity
  8
Level 1
  6
Continuous
 62
     7
370
    13
100
AcDbBlockReference
  2
LARROW
 10
141.60599
 20
-9.082698
 30
0.0
 41
8.999998
 42
8.999998
 43
8.999998
 50
289.132462
  0
INSERT
  5
4A2
330
564
100
AcDbEntity
  8
Level 1
  6
Continuous
 62
     7
370
    13
100
AcDbBlockReference
  2
LARROW
 10
144.728667
 20
-7.106312
 30
0.0
 41
6.0
 42
6.0
 43
6.0
 50
180.0
  0
INSERT
  5
4A4
330
564
100
AcDbEntity
  8
Level 1
  6
Continuous
 62
     7
370
    13
100
AcDbBlockReference
  2
LARROW
 10
145.013073
 20
-7.106312
 30
0.0
 41
6.0
 42
6.0
 43
6.0
  0
INSERT
  5
4A6
330
564
100
AcDbEntity
  8
Level 1
  6
Continuous
 62
     7
370
    13
100
AcDbBlockReference
  2
LARROW
 10
144.57749
 20
-7.45975
 30
0.0
 41
6.0
 42
6.0
 43
6.0
 50
90.0
  0
INSERT
  5
4A8
330
564
100
AcDbEntity
  8
Level 1
  6
Continuous
 62
     7
370
    13
100
AcDbBlockReference
  2
LARROW
 10
144.578865
 20
-7.400385
 30
0.0
 41
6.0
 42
6.0
 43
6.0
 50
270.0
  0
INSERT
  5
4AA
330
564
100
AcDbEntity
  8
Level 1
  6
Continuous
 62
     7
370
    13
100
AcDbBlockReference
  2
LARROW
 10
145.473521
 20
-7.660635
 30
0.0
 41
6.0
 42
6.0
 43
6.0
 50
180.0
  0
INSERT
  5
4AC
330
564
100
AcDbEntity
  8
Level 1
  6
Continuous
 62
     7
370
    13
100
AcDbBlockReference
  2
LARROW
 10
145.552042
 20
-7.258177
 30
0.0
 41
5.999999
 42
5.999999
 43
5.999999
 50
300.382096
  0
INSERT
  5
4AE
330
564
100
AcDbEntity
  8
Level 1
  6
Continuous
 62
     7
370
    13
100
AcDbBlockReference
  2
LARROW_1
 10
141.954271
 20
-10.118167
 30
0.0
 41
12.0
 42
12.0
 43
12.0
 50
191.340486
  0
INSERT
  5
4B0
330
564
100
AcDbEntity
  8
Level 1
  6
Continuous
 62
     7
370
    13
100
AcDbBlockReference
  2
LARROW_1
 10
144.406292
 20
-10.081583
 30
0.0
 41
12.000005
 42
12.000005
 43
12.000005
 50
349.029905
  0
INSERT
  5
4B2
330
564
100
AcDbEntity
  8
Level 1
  6
Continuous
 62
     7
370
    13
100
AcDbBlockReference
  2
LARROW_1
 10
143.417062
 20
-9.806833
 30
0.0
 41
9.0
 42
9.0
 43
9.0
 50
270.0
  0
INSERT
  5
4B4
330
564
100
AcDbEntity
  8
Level 1
  6
Continuous
 62
     7
370
    13
100
AcDbBlockReference
  2
LARROW_1
 10
143.417062
 20
-9.467896
 30
0.0
 41
9.0
 42
9.0
 43
9.0
 50
90.0
  0
ARC
  5
4B6
330
564
100
AcDbEntity
  8
Level 1
  6
Continuous
 62
     7
370
    13
100
AcDbCircle
 10
-144.322886
 20
-9.074192
 30
0.0
 40
0.0347353777779151
210
0.0
220
0.0
230
-1.0
100
AcDbArc
 50
190.672917
 51
270.207744
  0
ARC
  5
4B7
330
564
100
AcDbEntity
  8
Level 1
  6
Continuous
 62
     7
370
    13
100
AcDbCircle
 10
144.26385
 20
-8.979677
 30
0.0
 40
0.1292580230313819
100
AcDbArc
 50
233.353953
 51
270.716667
  0
ARC
  5
4B8
330
564
100
AcDbEntity
  8
Level 1
  6
Continuous
 62
     7
370
    13
100
AcDbCircle
 10
-142.585452
 20
-8.980364
 30
0.0
 40
0.1292580230313819
210
0.0
220
0.0
230
-1.0
100
AcDbArc
 50
232.846394
 51
270.712919
  0
ARC
  5
4B9
330
564
100
AcDbEntity
  8
Level 1
  6
Continuous
 62
     7
370
    13
100
AcDbCircle
 10
142.526426
 20
-9.074879
 30
0.0
 40
0.0347353777779151
100
AcDbArc
 50
195.347467
 51
270.207744
  0
INSERT
  5
4BD
330
564
100
AcDbEntity
  8
Level 1
  6
Continuous
 62
     7
370
    13
100
AcDbBlockReference
  2
LARROW_1
 10
141.175771
 20
-3.369552
 30
0.0
 41
9.0
 42
9.0
 43
9.0
 50
337.536239
  0
INSERT
  5
4BF
330
564
100
AcDbEntity
  8
Level 1
  6
Continuous
 62
     7
370
    13
100
AcDbBlockReference
  2
LARROW_1
 10
141.21425
 20
-3.40551
 30
0.0
 41
9.0
 42
9.0
 43
9.0
 50
180.0
  0
INSERT
  5
4C1
330
564
100
AcDbEntity
  8
Level 1
  6
Continuous
 62
     7
370
    13
100
AcDbBlockReference
  2
LARROW_1
 10
143.510073
 20
-3.319917
 30
0.0
 41
8.999999
 42
8.999999
 43
8.999999
 50
210.683781
  0
INSERT
  5
4C3
330
564
100
AcDbEntity
  8
Level 1
  6
Continuous
 62
     7
370
    13
100
AcDbBlockReference
  2
LARROW_1
 10
145.34374
 20
-3.402062
 30
0.0
 41
9.0
 42
9.0
 43
9.0
  0
INSERT
  5
4C5
330
564
100
AcDbEntity
  8
Level 1
  6
Continuous
 62
     7
370
    13
100
AcDbBlockReference
  2
LARROW_1
 10
145.38301
 20
-3.376458
 30
0.0
 41
9.0
 42
9.0
 43
9.0
 50
229.865356
  0
INSERT
  5
4C7
330
564
100
AcDbEntity
  8
Level 1
  6
Continuous
 62
     7
370
    13
100
AcDbBlockReference
  2
LARROW_1
 10
141.390281
 20
-6.886792
 30
0.0
 41
6.0
 42
6.0
 43
6.0
 50
270.0
  0
INSERT
  5
4C9
330
564
100
AcDbEntity
  8
Level 1
  6
Continuous
 62
     7
370
    13
100
AcDbBlockReference
  2
LARROW_1
 10
141.82175
 20
-6.886094
 30
0.0
 41
6.0
 42
6.0
 43
6.0
 50
270.0
  0
INSERT
  5
4CB
330
564
100
AcDbEntity
  8
Level 1
  6
Continuous
 62
     7
370
    13
100
AcDbBlockReference
  2
LARROW_1
 10
141.82175
 20
-6.928896
 30
0.0
 41
6.0
 42
6.0
 43
6.0
 50
90.0
  0
INSERT
  5
4CD
330
564
100
AcDbEntity
  8
Level 1
  6
Continuous
 62
     7
370
    13
100
AcDbBlockReference
  2
LARROW_1
 10
141.392354
 20
-7.007594
 30
0.0
 41
6.0
 42
6.0
 43
6.0
 50
90.0
  0
HATCH
  5
4DC
330
564
100
AcDbEntity
  8
Level 1
  6
Continuous
 62
     7
370
    13
100
AcDbHatch
 10
0.0
 20
0.0
 30
0.0
210
0.0
220
0.0
230
1.0
  2
SOLID
 70
     1
 71
     0
 91
        1
 92
        1
 93
        1
 72
     2
 10
142.2035104166667
 20
-7.084072916666666
 40
0.005
 50
0.0
 51
360.0
 73
     1
 97
        0
 75
     0
 76
     1
 98
        0
  0
HATCH
  5
4DD
330
564
100
AcDbEntity
  8
Level 1
  6
Continuous
 62
     7
370
    13
100
AcDbHatch
 10
0.0
 20
0.0
 30
0.0
210
0.0
220
0.0
230
1.0
  2
SOLID
 70
     1
 71
     0
 91
        1
 92
        1
 93
        1
 72
     2
 10
142.2743854166667
 20
-6.969125
 40
0.005
 50
0.0
 51
360.0
 73
     1
 97
        0
 75
     0
 76
     1
 98
        0
  0
HATCH
  5
4DE
330
564
100
AcDbEntity
  8
Level 1
  6
Continuous
 62
     7
370
    13
100
AcDbHatch
 10
0.0
 20
0.0
 30
0.0
210
0.0
220
0.0
230
1.0
  2
SOLID
 70
     1
 71
     0
 91
        1
 92
        1
 93
        1
 72
     2
 10
142.3079583333333
 20
-7.040968749999999
 40
0.005
 50
0.0
 51
360.0
 73
     1
 97
        0
 75
     0
 76
     1
 98
        0
  0
HATCH
  5
4DF
330
564
100
AcDbEntity
  8
Level 1
  6
Continuous
 62
     7
370
    13
100
AcDbHatch
 10
0.0
 20
0.0
 30
0.0
210
0.0
220
0.0
230
1.0
  2
SOLID
 70
     1
 71
     0
 91
        1
 92
        1
 93
        1
 72
     2
 10
142.3489791666667
 20
-7.122395833333333
 40
0.005
 50
0.0
 51
360.0
 73
     1
 97
        0
 75
     0
 76
     1
 98
        0
  0
HATCH
  5
4E0
330
564
100
AcDbEntity
  8
Level 1
  6
Continuous
 62
     7
370
    13
100
AcDbHatch
 10
0.0
 20
0.0
 30
0.0
210
0.0
220
0.0
230
1.0
  2
SOLID
 70
     1
 71
     0
 91
        1
 92
        1
 93
        1
 72
     2
 10
142.4459583333333
 20
-6.94996875
 40
0.005
 50
0.0
 51
360.0
 73
     1
 97
        0
 75
     0
 76
     1
 98
        0
  0
HATCH
  5
4E1
330
564
100
AcDbEntity
  8
Level 1
  6
Continuous
 62
     7
370
    13
100
AcDbHatch
 10
0.0
 20
0.0
 30
0.0
210
0.0
220
0.0
230
1.0
  2
SOLID
 70
     1
 71
     0
 91
        1
 92
        1
 93
        1
 72
     2
 10
142.4198541666667
 20
-7.012229166666667
 40
0.005
 50
0.0
 51
360.0
 73
     1
 97
        0
 75
     0
 76
     1
 98
        0
  0
HATCH
  5
4E2
330
564
100
AcDbEntity
  8
Level 1
  6
Continuous
 62
     7
370
    13
100
AcDbHatch
 10
0.0
 20
0.0
 30
0.0
210
0.0
220
0.0
230
1.0
  2
SOLID
 70
     1
 71
     0
 91
        1
 92
        1
 93
        1
 72
     2
 10
142.5131041666667
 20
-7.064916666666666
 40
0.005
 50
0.0
 51
360.0
 73
     1
 97
        0
 75
     0
 76
     1
 98
        0
  0
HATCH
  5
4E3
330
564
100
AcDbEntity
  8
Level 1
  6
Continuous
 62
     7
370
    13
100
AcDbHatch
 10
0.0
 20
0.0
 30
0.0
210
0.0
220
0.0
230
1.0
  2
SOLID
 70
     1
 71
     0
 91
        1
 92
        1
 93
        1
 72
     2
 10
141.8827395833333
 20
-7.199020833333333
 40
0.005
 50
0.0
 51
360.0
 73
     1
 97
        0
 75
     0
 76
     1
 98
        0
  0
HATCH
  5
4E4
330
564
100
AcDbEntity
  8
Level 1
  6
Continuous
 62
     7
370
    13
100
AcDbHatch
 10
0.0
 20
0.0
 30
0.0
210
0.0
220
0.0
230
1.0
  2
SOLID
 70
     1
 71
     0
 91
        1
 92
        1
 93
        1
 72
     2
 10
141.8081354166667
 20
-7.251708333333333
 40
0.005
 50
0.0
 51
360.0
 73
     1
 97
        0
 75
     0
 76
     1
 98
        0
  0
HATCH
  5
4E5
330
564
100
AcDbEntity
  8
Level 1
  6
Continuous
 62
     7
370
    13
100
AcDbHatch
 10
0.0
 20
0.0
 30
0.0
210
0.0
220
0.0
230
1.0
  2
SOLID
 70
     1
 71
     0
 91
        1
 92
        1
 93
        1
 72
     2
 10
141.8603541666667
 20
-7.318760416666667
 40
0.005
 50
0.0
 51
360.0
 73
     1
 97
        0
 75
     0
 76
     1
 98
        0
  0
HATCH
  5
4E6
330
564
100
AcDbEntity
  8
Level 1
  6
Continuous
 62
     7
370
    13
100
AcDbHatch
 10
0.0
 20
0.0
 30
0.0
210
0.0
220
0.0
230
1.0
  2
SOLID
 70
     1
 71
     0
 91
        1
 92
        1
 93
        1
 72
     2
 10
141.7372708333333
 20
-7.35228125
 40
0.005
 50
0.0
 51
360.0
 73
     1
 97
        0
 75
     0
 76
     1
 98
        0
  0
HATCH
  5
4E7
330
564
100
AcDbEntity
  8
Level 1
  6
Continuous
 62
     7
370
    13
100
AcDbHatch
 10
0.0
 20
0.0
 30
0.0
210
0.0
220
0.0
230
1.0
  2
SOLID
 70
     1
 71
     0
 91
        1
 92
        1
 93
        1
 72
     2
 10
141.32696875
 20
-7.309177083333333
 40
0.005
 50
0.0
 51
360.0
 73
     1
 97
        0
 75
     0
 76
     1
 98
        0
  0
HATCH
  5
4E8
330
564
100
AcDbEntity
  8
Level 1
  6
Continuous
 62
     7
370
    13
100
AcDbHatch
 10
0.0
 20
0.0
 30
0.0
210
0.0
220
0.0
230
1.0
  2
SOLID
 70
     1
 71
     0
 91
        1
 92
        1
 93
        1
 72
     2
 10
141.3866458333333
 20
-7.31396875
 40
0.005
 50
0.0
 51
360.0
 73
     1
 97
        0
 75
     0
 76
     1
 98
        0
  0
HATCH
  5
4E9
330
564
100
AcDbEntity
  8
Level 1
  6
Continuous
 62
     7
370
    13
100
AcDbHatch
 10
0.0
 20
0.0
 30
0.0
210
0.0
220
0.0
230
1.0
  2
SOLID
 70
     1
 71
     0
 91
        1
 92
        1
 93
        1
 72
     2
 10
141.4463333333333
 20
-7.22296875
 40
0.005
 50
0.0
 51
360.0
 73
     1
 97
        0
 75
     0
 76
     1
 98
        0
  0
HATCH
  5
4EA
330
564
100
AcDbEntity
  8
Level 1
  6
Continuous
 62
     7
370
    13
100
AcDbHatch
 10
0.0
 20
0.0
 30
0.0
210
0.0
220
0.0
230
1.0
  2
SOLID
 70
     1
 71
     0
 91
        1
 92
        1
 93
        1
 72
     2
 10
141.4724375
 20
-7.323552083333333
 40
0.005
 50
0.0
 51
360.0
 73
     1
 97
        0
 75
     0
 76
     1
 98
        0
  0
HATCH
  5
4EB
330
564
100
AcDbEntity
  8
Level 1
  6
Continuous
 62
     7
370
    13
100
AcDbHatch
 10
0.0
 20
0.0
 30
0.0
210
0.0
220
0.0
230
1.0
  2
SOLID
 70
     1
 71
     0
 91
        1
 92
        1
 93
        1
 72
     2
 10
141.3344270833333
 20
-7.400177083333333
 40
0.005
 50
0.0
 51
360.0
 73
     1
 97
        0
 75
     0
 76
     1
 98
        0
  0
HATCH
  5
4EC
330
564
100
AcDbEntity
  8
Level 1
  6
Continuous
 62
     7
370
    13
100
AcDbHatch
 10
0.0
 20
0.0
 30
0.0
210
0.0
220
0.0
230
1.0
  2
SOLID
 70
     1
 71
     0
 91
        1
 92
        1
 93
        1
 72
     2
 10
141.7447291666667
 20
-7.18465625
 40
0.005
 50
0.0
 51
360.0
 73
     1
 97
        0
 75
     0
 76
     1
 98
        0
  0
LWPOLYLINE
  5
4F0
330
564
100
AcDbEntity
  8
Level 1
  6
Continuous
 62
     7
370
    13
100
AcDbPolyline
 90
        2
 70
   128
 43
0.0
 10
142.570312
 20
-9.116385
 10
142.583844
 20
-9.109615
  0
LWPOLYLINE
  5
4F1
330
564
100
AcDbEntity
  8
Level 1
  6
Continuous
 62
     7
370
    13
100
AcDbPolyline
 90
        6
 70
   128
 43
0.0
 10
142.570312
 20
-9.116385
 10
142.568656
 20
-9.118594
 10
142.567281
 20
-9.119969
 10
142.566583
 20
-9.122042
 10
142.564521
 20
-9.124802
 10
142.56175
 20
-9.128958
  0
LWPOLYLINE
  5
4F2
330
564
100
AcDbEntity
  8
Level 1
  6
Continuous
 62
     7
370
    13
100
AcDbPolyline
 90
        6
 70
   128
 43
0.0
 10
144.27899
 20
-9.115698
 10
144.280646
 20
-9.117896
 10
144.282031
 20
-9.119281
 10
144.282719
 20
-9.121354
 10
144.284792
 20
-9.124115
 10
144.287552
 20
-9.12825
  0
LWPOLYLINE
  5
4F3
330
564
100
AcDbEntity
  8
Level 1
  6
Continuous
 62
     7
370
    13
100
AcDbPolyline
 90
        2
 70
   128
 43
0.0
 10
144.27899
 20
-9.115698
 10
144.265469
 20
-9.108927
  0
LWPOLYLINE
  5
4F4
330
564
100
AcDbEntity
  8
Level 1
  6
Continuous
 62
     7
370
    13
100
AcDbPolyline
 90
        5
 70
   128
 43
0.0
 10
145.342823
 20
-7.46251
 10
145.232594
 20
-7.529479
 10
145.19601
 20
-7.580563
 10
145.173229
 20
-7.637854
 10
145.163448
 20
-7.697219
  0
LWPOLYLINE
  5
4F5
330
564
100
AcDbEntity
  8
Level 1
  6
Continuous
 62
     7
370
    13
100
AcDbPolyline
 90
        2
 70
   128
 43
0.0
 10
141.675417
 20
-7.022979
 10
141.718052
 20
-7.007208
  0
LWPOLYLINE
  5
4F6
330
564
100
AcDbEntity
  8
Level 1
  6
Continuous
 62
     7
370
    13
100
AcDbPolyline
 90
        6
 70
   128
 43
0.0
 10
141.675417
 20
-7.022979
 10
141.658823
 20
-7.035896
 10
141.656052
 20
-7.040729
 10
141.649844
 20
-7.048323
 10
141.645698
 20
-7.055917
 10
141.640958
 20
-7.070156
  0
TEXT
  5
6C
330
564
100
AcDbEntity
  8
Level 1
  6
Continuous
 62
     7
370
    13
100
AcDbText
 10
142.713533
 20
-10.910091
 30
0.0
 40
0.09
  1
1)
  7
Style-Arial
 11
142.713533
 21
-10.865091
 31
0.0
100
AcDbText
 73
     2
  0
TEXT
  5
6D
330
564
100
AcDbEntity
  8
Level 1
  6
Continuous
 62
     7
370
    13
100
AcDbText
 10
142.720031
 20
-11.156539
 30
0.0
 40
0.09
  1
2)
  7
Style-Arial
 11
142.720031
 21
-11.111539
 31
0.0
100
AcDbText
 73
     2
  0
TEXT
  5
91
330
564
100
AcDbEntity
  8
Level 1
  6
Continuous
 62
     7
370
    13
100
AcDbText
 10
140.01193
 20
-8.685488
 30
0.0
 40
0.09
  1
EXISTING PAVEMENT
  7
Style-Arial
 11
140.01193
 21
-8.640488
 31
0.0
100
AcDbText
 73
     2
  0
TEXT
  5
92
330
564
100
AcDbEntity
  8
Level 1
  6
Continuous
 62
     7
370
    13
100
AcDbText
 10
142.159523
 20
-8.590425
 30
0.0
 40
0.09
  1
5 FT TYPICAL
  7
Style-Arial
 11
142.159523
 21
-8.545425
 31
0.0
100
AcDbText
 73
     2
  0
TEXT
  5
93
330
564
100
AcDbEntity
  8
Level 1
  6
Continuous
 62
     7
370
    13
100
AcDbText
 10
143.398313
 20
-8.521594
 30
0.0
 40
0.09
  1
L
  7
Style-Arial
 11
143.398313
 21
-8.476594
 31
0.0
100
AcDbText
 73
     2
  0
TEXT
  5
94
330
564
100
AcDbEntity
  8
Level 1
  6
Continuous
 62
     7
370
    13
100
AcDbText
 10
143.368052
 20
-8.487073
 30
0.0
 40
0.09
  1
C
  7
Style-Arial
 11
143.368052
 21
-8.442073
 31
0.0
100
AcDbText
 73
     2
  0
TEXT
  5
95
330
564
100
AcDbEntity
  8
Level 1
  6
Continuous
 62
     7
370
    13
100
AcDbText
 10
143.535104
 20
-8.521594
 30
0.0
 40
0.09
  1
TRACK
  7
Style-Arial
 11
143.535104
 21
-8.476594
 31
0.0
100
AcDbText
 73
     2
  0
TEXT
  5
A0
330
564
100
AcDbEntity
  8
Level 1
  6
Continuous
 62
     7
370
    13
100
AcDbText
 10
140.903167
 20
-3.861645
 30
0.0
 40
0.09
  1
o
  7
Style-Arial
 11
140.903167
 21
-3.816645
 31
0.0
100
AcDbText
 73
     2
  0
TEXT
  5
A1
330
564
100
AcDbEntity
  8
Level 1
  6
Continuous
 62
     7
370
    13
100
AcDbText
 10
140.949678
 20
-4.037782
 30
0.0
 40
0.09
  1
o
 50
0.0022
  7
Style-Arial
 11
140.949676
 21
-3.992782
 31
0.0
100
AcDbText
 73
     2
  0
TEXT
  5
A2
330
564
100
AcDbEntity
  8
Level 1
  6
Continuous
 62
     7
370
    13
100
AcDbText
 10
140.948788
 20
-5.00147
 30
0.0
 40
0.09
  1
o
  7
Style-Arial
 11
140.948788
 21
-4.95647
 31
0.0
100
AcDbText
 73
     2
  0
TEXT
  5
A3
330
564
100
AcDbEntity
  8
Level 1
  6
Continuous
 62
     7
370
    13
100
AcDbText
 10
140.910863
 20
-5.191242
 30
0.0
 40
0.09
  1
o
  7
Style-Arial
 11
140.910863
 21
-5.146242
 31
0.0
100
AcDbText
 73
     2
  0
TEXT
  5
B0
330
564
100
AcDbEntity
  8
Level 1
  6
Continuous
 62
     7
370
    13
100
AcDbText
 10
145.530345
 20
-5.19191
 30
0.0
 40
0.09
  1
o
  7
Style-Arial
 11
145.530345
 21
-5.14691
 31
0.0
100
AcDbText
 73
     2
  0
TEXT
  5
B1
330
564
100
AcDbEntity
  8
Level 1
  6
Continuous
 62
     7
370
    13
100
AcDbText
 10
145.567786
 20
-5.002965
 30
0.0
 40
0.09
  1
o
  7
Style-Arial
 11
145.567786
 21
-4.957965
 31
0.0
100
AcDbText
 73
     2
  0
TEXT
  5
B2
330
564
100
AcDbEntity
  8
Level 1
  6
Continuous
 62
     7
370
    13
100
AcDbText
 10
145.567338
 20
-4.037511
 30
0.0
 40
0.09
  1
o
  7
Style-Arial
 11
145.567338
 21
-3.992511
 31
0.0
100
AcDbText
 73
     2
  0
TEXT
  5
B3
330
564
100
AcDbEntity
  8
Level 1
  6
Continuous
 62
     7
370
    13
100
AcDbText
 10
145.517758
 20
-3.856622
 30
0.0
 40
0.09
  1
o
  7
Style-Arial
 11
145.517758
 21
-3.811622
 31
0.0
100
AcDbText
 73
     2
  0
TEXT
  5
26E
330
564
100
AcDbEntity
  8
Level 1
  6
Continuous
 62
     7
370
    13
100
AcDbText
 10
142.623885
 20
-6.168385
 30
0.0
 40
0.09
  1
NORMAL WIDTH OF ROAD
  7
Style-Arial
 11
142.623885
 21
-6.123385
 31
0.0
100
AcDbText
 73
     2
  0
TEXT
  5
26F
330
564
100
AcDbEntity
  8
Level 1
  6
Continuous
 62
     7
370
    13
100
AcDbText
 10
145.217406
 20
-6.176864
 30
0.0
 40
0.09
  1
2'
  7
Style-Arial
 11
145.217406
 21
-6.131864
 31
0.0
100
AcDbText
 73
     2
  0
TEXT
  5
270
330
564
100
AcDbEntity
  8
Level 1
  6
Continuous
 62
     7
370
    13
100
AcDbText
 10
141.266719
 20
-6.166254
 30
0.0
 40
0.09
  1
2'
  7
Style-Arial
 11
141.266719
 21
-6.121254
 31
0.0
100
AcDbText
 73
     2
  0
TEXT
  5
271
330
564
100
AcDbEntity
  8
Level 1
  6
Continuous
 62
     7
370
    13
100
AcDbText
 10
142.379088
 20
-3.445625
 30
0.0
 40
0.09
  1
NORMAL WIDTH OF CROSSING
  7
Style-Arial
 11
142.379088
 21
-3.400625
 31
0.0
100
AcDbText
 73
     2
  0
TEXT
  5
277
330
564
100
AcDbEntity
  8
Level 1
  6
Continuous
 62
     7
370
    13
100
AcDbText
 10
140.984611
 20
-6.17223
 30
0.0
 40
0.09
  1
VARIABLE
 50
90.0
  7
Style-Arial
 11
140.939611
 21
-6.17223
 31
0.0
100
AcDbText
 73
     2
  0
TEXT
  5
27D
330
564
100
AcDbEntity
  8
Level 1
  6
Continuous
 62
     7
370
    13
100
AcDbText
 10
144.357271
 20
-2.955187
 30
0.0
 40
0.09
  1
SAW CUT EXISTING PAVEMENT
  7
Style-Arial
 11
144.357271
 21
-2.910187
 31
0.0
100
AcDbText
 73
     2
  0
TEXT
  5
280
330
564
100
AcDbEntity
  8
Level 1
  6
Continuous
 62
     7
370
    13
100
AcDbText
 10
142.499625
 20
-5.885453
 30
0.0
 40
0.09
  1
SAW CUT EXISTING PAVEMENT
  7
Style-Arial
 11
142.499625
 21
-5.840453
 31
0.0
100
AcDbText
 73
     2
  0
TEXT
  5
281
330
564
100
AcDbEntity
  8
Level 1
  6
Continuous
 62
     7
370
    13
100
AcDbText
 10
143.269427
 20
-3.026427
 30
0.0
 40
0.09
  1
L
  7
Style-Arial
 11
143.269427
 21
-2.981427
 31
0.0
100
AcDbText
 73
     2
  0
TEXT
  5
282
330
564
100
AcDbEntity
  8
Level 1
  6
Continuous
 62
     7
370
    13
100
AcDbText
 10
143.246552
 20
-2.995594
 30
0.0
 40
0.09
  1
C
  7
Style-Arial
 11
143.246552
 21
-2.950594
 31
0.0
100
AcDbText
 73
     2
  0
TEXT
  5
283
330
564
100
AcDbEntity
  8
Level 1
  6
Continuous
 62
     7
370
    13
100
AcDbText
 10
143.408781
 20
-3.026656
 30
0.0
 40
0.09
  1
ROAD
  7
Style-Arial
 11
143.408781
 21
-2.981656
 31
0.0
100
AcDbText
 73
     2
  0
TEXT
  5
288
330
564
100
AcDbEntity
  8
Level 1
  6
Continuous
 62
     7
370
    13
100
AcDbText
 10
144.826
 20
-7.057113
 30
0.0
 40
0.09
  1
8"
  7
Style-Arial
 11
144.826
 21
-7.012113
 31
0.0
100
AcDbText
 73
     2
  0
TEXT
  5
289
330
564
100
AcDbEntity
  8
Level 1
  6
Continuous
 62
     7
370
    13
100
AcDbText
 10
144.395261
 20
-7.476532
 30
0.0
 40
0.09
  1
1"
  7
Style-Arial
 11
144.395261
 21
-7.431532
 31
0.0
100
AcDbText
 73
     2
  0
TEXT
  5
28A
330
564
100
AcDbEntity
  8
Level 1
  6
Continuous
 62
     7
370
    13
100
AcDbText
 10
145.63838
 20
-7.709261
 30
0.0
 40
0.09
  1
TIE
  7
Style-Arial
 11
145.63838
 21
-7.664261
 31
0.0
100
AcDbText
 73
     2
  0
TEXT
  5
28C
330
564
100
AcDbEntity
  8
Level 1
  6
Continuous
 62
     7
370
    13
100
AcDbText
 10
144.409052
 20
-8.168984
 30
0.0
 40
0.09
  1
(SHAPE AC TO MAKE SLOPE)
  7
Style-Arial
 11
144.409052
 21
-8.123984
 31
0.0
100
AcDbText
 73
     2
  0
TEXT
  5
2BF
330
564
100
AcDbEntity
  8
Level 1
  6
Continuous
 62
     7
370
    13
100
AcDbText
 10
142.297365
 20
-9.676374
 30
0.0
 40
0.09
  1
BALLAST
  7
Style-Arial
 11
142.297365
 21
-9.631374
 31
0.0
100
AcDbText
 73
     2
  0
TEXT
  5
2C0
330
564
100
AcDbEntity
  8
Level 1
  6
Continuous
 62
     7
370
    13
100
AcDbText
 10
145.064854
 20
-9.500469
 30
0.0
 40
0.09
  1
o
  7
Style-Arial
 11
145.064854
 21
-9.455469
 31
0.0
100
AcDbText
 73
     2
  0
TEXT
  5
2C1
330
564
100
AcDbEntity
  8
Level 1
  6
Continuous
 62
     7
370
    13
100
AcDbText
 10
145.091771
 20
-9.408656
 30
0.0
 40
0.09
  1
o
  7
Style-Arial
 11
145.091771
 21
-9.363656
 31
0.0
100
AcDbText
 73
     2
  0
TEXT
  5
2C2
330
564
100
AcDbEntity
  8
Level 1
  6
Continuous
 62
     7
370
    13
100
AcDbText
 10
144.913667
 20
-9.408656
 30
0.0
 40
0.09
  1
o
  7
Style-Arial
 11
144.913667
 21
-9.363656
 31
0.0
100
AcDbText
 73
     2
  0
TEXT
  5
2C3
330
564
100
AcDbEntity
  8
Level 1
  6
Continuous
 62
     7
370
    13
100
AcDbText
 10
144.990292
 20
-9.449385
 30
0.0
 40
0.09
  1
o
  7
Style-Arial
 11
144.990292
 21
-9.404385
 31
0.0
100
AcDbText
 73
     2
  0
TEXT
  5
2C4
330
564
100
AcDbEntity
  8
Level 1
  6
Continuous
 62
     7
370
    13
100
AcDbText
 10
144.943354
 20
-9.55224
 30
0.0
 40
0.09
  1
o
  7
Style-Arial
 11
144.943354
 21
-9.50724
 31
0.0
100
AcDbText
 73
     2
  0
TEXT
  5
2C5
330
564
100
AcDbEntity
  8
Level 1
  6
Continuous
 62
     7
370
    13
100
AcDbText
 10
145.032406
 20
-9.614365
 30
0.0
 40
0.09
  1
o
  7
Style-Arial
 11
145.032406
 21
-9.569365
 31
0.0
100
AcDbText
 73
     2
  0
TEXT
  5
2C6
330
564
100
AcDbEntity
  8
Level 1
  6
Continuous
 62
     7
370
    13
100
AcDbText
 10
145.088323
 20
-9.706875
 30
0.0
 40
0.09
  1
o
  7
Style-Arial
 11
145.088323
 21
-9.661875
 31
0.0
100
AcDbText
 73
     2
  0
TEXT
  5
2C7
330
564
100
AcDbEntity
  8
Level 1
  6
Continuous
 62
     7
370
    13
100
AcDbText
 10
144.973729
 20
-9.664073
 30
0.0
 40
0.09
  1
o
  7
Style-Arial
 11
144.973729
 21
-9.619073
 31
0.0
100
AcDbText
 73
     2
  0
TEXT
  5
2C8
330
564
100
AcDbEntity
  8
Level 1
  6
Continuous
 62
     7
370
    13
100
AcDbText
 10
144.798385
 20
-9.59849
 30
0.0
 40
0.09
  1
o
  7
Style-Arial
 11
144.798385
 21
-9.55349
 31
0.0
100
AcDbText
 73
     2
  0
TEXT
  5
2C9
330
564
100
AcDbEntity
  8
Level 1
  6
Continuous
 62
     7
370
    13
100
AcDbText
 10
144.851542
 20
-9.672354
 30
0.0
 40
0.09
  1
o
  7
Style-Arial
 11
144.851542
 21
-9.627354
 31
0.0
100
AcDbText
 73
     2
  0
TEXT
  5
2CA
330
564
100
AcDbEntity
  8
Level 1
  6
Continuous
 62
     7
370
    13
100
AcDbText
 10
145.017906
 20
-9.75726
 30
0.0
 40
0.09
  1
o
  7
Style-Arial
 11
145.017906
 21
-9.71226
 31
0.0
100
AcDbText
 73
     2
  0
TEXT
  5
2CB
330
564
100
AcDbEntity
  8
Level 1
  6
Continuous
 62
     7
370
    13
100
AcDbText
 10
145.066983
 20
-9.848685
 30
0.0
 40
0.09
  1
o
  7
Style-Arial
 11
145.066983
 21
-9.803685
 31
0.0
100
AcDbText
 73
     2
  0
TEXT
  5
2CC
330
564
100
AcDbEntity
  8
Level 1
  6
Continuous
 62
     7
370
    13
100
AcDbText
 10
144.910219
 20
-9.900889
 30
0.0
 40
0.09
  1
o
  7
Style-Arial
 11
144.910219
 21
-9.855889
 31
0.0
100
AcDbText
 73
     2
  0
TEXT
  5
2CD
330
564
100
AcDbEntity
  8
Level 1
  6
Continuous
 62
     7
370
    13
100
AcDbText
 10
144.820479
 20
-9.889802
 30
0.0
 40
0.09
  1
o
  7
Style-Arial
 11
144.820479
 21
-9.844802
 31
0.0
100
AcDbText
 73
     2
  0
TEXT
  5
2CE
330
564
100
AcDbEntity
  8
Level 1
  6
Continuous
 62
     7
370
    13
100
AcDbText
 10
144.724932
 20
-9.878043
 30
0.0
 40
0.09
  1
o
  7
Style-Arial
 11
144.724932
 21
-9.833043
 31
0.0
100
AcDbText
 73
     2
  0
TEXT
  5
2CF
330
564
100
AcDbEntity
  8
Level 1
  6
Continuous
 62
     7
370
    13
100
AcDbText
 10
144.945967
 20
-9.825216
 30
0.0
 40
0.09
  1
o
  7
Style-Arial
 11
144.945967
 21
-9.780216
 31
0.0
100
AcDbText
 73
     2
  0
TEXT
  5
2D0
330
564
100
AcDbEntity
  8
Level 1
  6
Continuous
 62
     7
370
    13
100
AcDbText
 10
145.004479
 20
-9.903113
 30
0.0
 40
0.09
  1
o
  7
Style-Arial
 11
145.004479
 21
-9.858113
 31
0.0
100
AcDbText
 73
     2
  0
TEXT
  5
2D1
330
564
100
AcDbEntity
  8
Level 1
  6
Continuous
 62
     7
370
    13
100
AcDbText
 10
141.696094
 20
-9.493562
 30
0.0
 40
0.09
  1
o
  7
Style-Arial
 11
141.696094
 21
-9.448562
 31
0.0
100
AcDbText
 73
     2
  0
TEXT
  5
2D2
330
564
100
AcDbEntity
  8
Level 1
  6
Continuous
 62
     7
370
    13
100
AcDbText
 10
141.863844
 20
-9.432125
 30
0.0
 40
0.09
  1
o
  7
Style-Arial
 11
141.863844
 21
-9.387125
 31
0.0
100
AcDbText
 73
     2
  0
TEXT
  5
2D3
330
564
100
AcDbEntity
  8
Level 1
  6
Continuous
 62
     7
370
    13
100
AcDbText
 10
141.661604
 20
-9.423833
 30
0.0
 40
0.09
  1
o
  7
Style-Arial
 11
141.661604
 21
-9.378833
 31
0.0
100
AcDbText
 73
     2
  0
TEXT
  5
2D4
330
564
100
AcDbEntity
  8
Level 1
  6
Continuous
 62
     7
370
    13
100
AcDbText
 10
141.832781
 20
-9.544646
 30
0.0
 40
0.09
  1
o
  7
Style-Arial
 11
141.832781
 21
-9.499646
 31
0.0
100
AcDbText
 73
     2
  0
TEXT
  5
2D5
330
564
100
AcDbEntity
  8
Level 1
  6
Continuous
 62
     7
370
    13
100
AcDbText
 10
141.768583
 20
-9.423146
 30
0.0
 40
0.09
  1
o
  7
Style-Arial
 11
141.768583
 21
-9.378146
 31
0.0
100
AcDbText
 73
     2
  0
TEXT
  5
2D6
330
564
100
AcDbEntity
  8
Level 1
  6
Continuous
 62
     7
370
    13
100
AcDbText
 10
141.74925
 20
-9.585375
 30
0.0
 40
0.09
  1
o
  7
Style-Arial
 11
141.74925
 21
-9.540375
 31
0.0
100
AcDbText
 73
     2
  0
TEXT
  5
2D7
330
564
100
AcDbEntity
  8
Level 1
  6
Continuous
 62
     7
370
    13
100
AcDbText
 10
141.684365
 20
-9.657854
 30
0.0
 40
0.09
  1
o
  7
Style-Arial
 11
141.684365
 21
-9.612854
 31
0.0
100
AcDbText
 73
     2
  0
TEXT
  5
2D8
330
564
100
AcDbEntity
  8
Level 1
  6
Continuous
 62
     7
370
    13
100
AcDbText
 10
141.874885
 20
-9.660615
 30
0.0
 40
0.09
  1
o
  7
Style-Arial
 11
141.874885
 21
-9.615615
 31
0.0
100
AcDbText
 73
     2
  0
TEXT
  5
2D9
330
564
100
AcDbEntity
  8
Level 1
  6
Continuous
 62
     7
370
    13
100
AcDbText
 10
142.001219
 20
-9.594344
 30
0.0
 40
0.09
  1
o
  7
Style-Arial
 11
142.001219
 21
-9.549344
 31
0.0
100
AcDbText
 73
     2
  0
TEXT
  5
2DA
330
564
100
AcDbEntity
  8
Level 1
  6
Continuous
 62
     7
370
    13
100
AcDbText
 10
141.767198
 20
-9.769687
 30
0.0
 40
0.09
  1
o
  7
Style-Arial
 11
141.767198
 21
-9.724687
 31
0.0
100
AcDbText
 73
     2
  0
TEXT
  5
2DB
330
564
100
AcDbEntity
  8
Level 1
  6
Continuous
 62
     7
370
    13
100
AcDbText
 10
141.800333
 20
-9.685469
 30
0.0
 40
0.09
  1
o
  7
Style-Arial
 11
141.800333
 21
-9.640469
 31
0.0
100
AcDbText
 73
     2
  0
TEXT
  5
2DC
330
564
100
AcDbEntity
  8
Level 1
  6
Continuous
 62
     7
370
    13
100
AcDbText
 10
141.655949
 20
-9.872182
 30
0.0
 40
0.09
  1
o
  7
Style-Arial
 11
141.655949
 21
-9.827182
 31
0.0
100
AcDbText
 73
     2
  0
TEXT
  5
2DD
330
564
100
AcDbEntity
  8
Level 1
  6
Continuous
 62
     7
370
    13
100
AcDbText
 10
141.825875
 20
-9.867021
 30
0.0
 40
0.09
  1
o
  7
Style-Arial
 11
141.825875
 21
-9.822021
 31
0.0
100
AcDbText
 73
     2
  0
TEXT
  5
2DE
330
564
100
AcDbEntity
  8
Level 1
  6
Continuous
 62
     7
370
    13
100
AcDbText
 10
141.746221
 20
-9.899988
 30
0.0
 40
0.09
  1
o
  7
Style-Arial
 11
141.746221
 21
-9.854988
 31
0.0
100
AcDbText
 73
     2
  0
TEXT
  5
2DF
330
564
100
AcDbEntity
  8
Level 1
  6
Continuous
 62
     7
370
    13
100
AcDbText
 10
142.064031
 20
-9.87324
 30
0.0
 40
0.09
  1
o
  7
Style-Arial
 11
142.064031
 21
-9.82824
 31
0.0
100
AcDbText
 73
     2
  0
TEXT
  5
2E0
330
564
100
AcDbEntity
  8
Level 1
  6
Continuous
 62
     7
370
    13
100
AcDbText
 10
142.180698
 20
-9.877873
 30
0.0
 40
0.09
  1
o
  7
Style-Arial
 11
142.180698
 21
-9.832873
 31
0.0
100
AcDbText
 73
     2
  0
TEXT
  5
2E1
330
564
100
AcDbEntity
  8
Level 1
  6
Continuous
 62
     7
370
    13
100
AcDbText
 10
142.304958
 20
-9.865477
 30
0.0
 40
0.09
  1
o
  7
Style-Arial
 11
142.304958
 21
-9.820477
 31
0.0
100
AcDbText
 73
     2
  0
TEXT
  5
2E2
330
564
100
AcDbEntity
  8
Level 1
  6
Continuous
 62
     7
370
    13
100
AcDbText
 10
142.404448
 20
-9.832343
 30
0.0
 40
0.09
  1
o
  7
Style-Arial
 11
142.404448
 21
-9.787343
 31
0.0
100
AcDbText
 73
     2
  0
TEXT
  5
2E3
330
564
100
AcDbEntity
  8
Level 1
  6
Continuous
 62
     7
370
    13
100
AcDbText
 10
145.052427
 20
-7.584833
 30
0.0
 40
0.09
  1
o
  7
Style-Arial
 11
145.052427
 21
-7.539833
 31
0.0
100
AcDbText
 73
     2
  0
TEXT
  5
2E4
330
564
100
AcDbEntity
  8
Level 1
  6
Continuous
 62
     7
370
    13
100
AcDbText
 10
144.951635
 20
-7.586208
 30
0.0
 40
0.09
  1
o
  7
Style-Arial
 11
144.951635
 21
-7.541208
 31
0.0
100
AcDbText
 73
     2
  0
TEXT
  5
2E5
330
564
100
AcDbEntity
  8
Level 1
  6
Continuous
 62
     7
370
    13
100
AcDbText
 10
145.002031
 20
-7.666292
 30
0.0
 40
0.09
  1
o
  7
Style-Arial
 11
145.002031
 21
-7.621292
 31
0.0
100
AcDbText
 73
     2
  0
TEXT
  5
2E6
330
564
100
AcDbEntity
  8
Level 1
  6
Continuous
 62
     7
370
    13
100
AcDbText
 10
145.073135
 20
-7.65524
 30
0.0
 40
0.09
  1
o
  7
Style-Arial
 11
145.073135
 21
-7.61024
 31
0.0
100
AcDbText
 73
     2
  0
TEXT
  5
2E7
330
564
100
AcDbEntity
  8
Level 1
  6
Continuous
 62
     7
370
    13
100
AcDbText
 10
145.041375
 20
-7.754646
 30
0.0
 40
0.09
  1
o
  7
Style-Arial
 11
145.041375
 21
-7.709646
 31
0.0
100
AcDbText
 73
     2
  0
TEXT
  5
2E8
330
564
100
AcDbEntity
  8
Level 1
  6
Continuous
 62
     7
370
    13
100
AcDbText
 10
144.92126
 20
-7.727729
 30
0.0
 40
0.09
  1
o
  7
Style-Arial
 11
144.92126
 21
-7.682729
 31
0.0
100
AcDbText
 73
     2
  0
TEXT
  5
2E9
330
564
100
AcDbEntity
  8
Level 1
  6
Continuous
 62
     7
370
    13
100
AcDbText
 10
144.86949
 20
-7.664906
 30
0.0
 40
0.09
  1
o
  7
Style-Arial
 11
144.86949
 21
-7.619906
 31
0.0
100
AcDbText
 73
     2
  0
TEXT
  5
2EA
330
564
100
AcDbEntity
  8
Level 1
  6
Continuous
 62
     7
370
    13
100
AcDbText
 10
144.868802
 20
-7.564125
 30
0.0
 40
0.09
  1
o
  7
Style-Arial
 11
144.868802
 21
-7.519125
 31
0.0
100
AcDbText
 73
     2
  0
TEXT
  5
2EB
330
564
100
AcDbEntity
  8
Level 1
  6
Continuous
 62
     7
370
    13
100
AcDbText
 10
144.804604
 20
-7.62625
 30
0.0
 40
0.09
  1
o
  7
Style-Arial
 11
144.804604
 21
-7.58125
 31
0.0
100
AcDbText
 73
     2
  0
TEXT
  5
2EC
330
564
100
AcDbEntity
  8
Level 1
  6
Continuous
 62
     7
370
    13
100
AcDbText
 10
144.740406
 20
-7.571021
 30
0.0
 40
0.09
  1
o
  7
Style-Arial
 11
144.740406
 21
-7.526021
 31
0.0
100
AcDbText
 73
     2
  0
TEXT
  5
2F2
330
564
100
AcDbEntity
  8
Level 1
  6
Continuous
 62
     7
370
    13
100
AcDbText
 10
140.420385
 20
-7.201219
 30
0.0
 40
0.09
  1
ASPHALT
  7
Style-Arial
 11
140.420385
 21
-7.156219
 31
0.0
100
AcDbText
 73
     2
  0
TEXT
  5
2F3
330
564
100
AcDbEntity
  8
Level 1
  6
Continuous
 62
     7
370
    13
100
AcDbText
 10
140.424521
 20
-7.337896
 30
0.0
 40
0.09
  1
PAVEMENT
  7
Style-Arial
 11
140.424521
 21
-7.292896
 31
0.0
100
AcDbText
 73
     2
  0
TEXT
  5
2F6
330
564
100
AcDbEntity
  8
Level 1
  6
Continuous
 62
     7
370
    13
100
AcDbText
 10
140.989789
 20
-6.488448
 30
0.0
 40
0.09
  1
MIN.
  7
Style-Arial
 11
140.989789
 21
-6.443448
 31
0.0
100
AcDbText
 73
     2
  0
TEXT
  5
2F8
330
564
100
AcDbEntity
  8
Level 1
  6
Continuous
 62
     7
370
    13
100
AcDbText
 10
140.655094
 20
-6.617084
 30
0.0
 40
0.09
  1
GAGE
  7
Style-Arial
 11
140.655094
 21
-6.572084
 31
0.0
100
AcDbText
 73
     2
  0
TEXT
  5
2FA
330
564
100
AcDbEntity
  8
Level 1
  6
Continuous
 62
     7
370
    13
100
AcDbText
 10
140.006338
 20
-8.537283
 30
0.0
 40
0.09
  1
SAWCUT
  7
Style-Arial
 11
140.006338
 21
-8.492283
 31
0.0
100
AcDbText
 73
     2
  0
TEXT
  5
2FB
330
564
100
AcDbEntity
  8
Level 1
  6
Continuous
 62
     7
370
    13
100
AcDbText
 10
140.00289
 20
-8.820719
 30
0.0
 40
0.09
  1
JOINT TO BE SEALED
  7
Style-Arial
 11
140.00289
 21
-8.775719
 31
0.0
100
AcDbText
 73
     2
  0
TEXT
  5
2FC
330
564
100
AcDbEntity
  8
Level 1
  6
Continuous
 62
     7
370
    13
100
AcDbText
 10
140.192583
 20
-9.23854
 30
0.0
 40
0.09
  1
EXISTING PAVEMENT
  7
Style-Arial
 11
140.192583
 21
-9.19354
 31
0.0
100
AcDbText
 73
     2
  0
TEXT
  5
2FE
330
564
100
AcDbEntity
  8
Level 1
  6
Continuous
 62
     7
370
    13
100
AcDbText
 10
145.273323
 20
-9.235093
 30
0.0
 40
0.09
  1
EXISTING PAVEMENT
  7
Style-Arial
 11
145.273323
 21
-9.190093
 31
0.0
100
AcDbText
 73
     2
  0
TEXT
  5
304
330
564
100
AcDbEntity
  8
Level 1
  6
Continuous
 62
     7
370
    13
100
AcDbText
 10
143.458479
 20
-9.677445
 30
0.0
 40
0.09
  1
10" MIN.
  7
Style-Arial
 11
143.458479
 21
-9.632445
 31
0.0
100
AcDbText
 73
     2
  0
TEXT
  5
305
330
564
100
AcDbEntity
  8
Level 1
  6
Continuous
 62
     7
370
    13
100
AcDbText
 10
143.142313
 20
-10.129344
 30
0.0
 40
0.09
  1
SUBGRADE
  7
Style-Arial
 11
143.142313
 21
-10.084344
 31
0.0
100
AcDbText
 73
     2
  0
TEXT
  5
306
330
564
100
AcDbEntity
  8
Level 1
  6
Continuous
 62
     7
370
    13
100
AcDbText
 10
141.945302
 20
-10.249343
 30
0.0
 40
0.09
  1
2% TYP.
  7
Style-Arial
 11
141.945302
 21
-10.204343
 31
0.0
100
AcDbText
 73
     2
  0
TEXT
  5
307
330
564
100
AcDbEntity
  8
Level 1
  6
Continuous
 62
     7
370
    13
100
AcDbText
 10
144.027302
 20
-10.195578
 30
0.0
 40
0.09
  1
2% TYP.
  7
Style-Arial
 11
144.027302
 21
-10.150578
 31
0.0
100
AcDbText
 73
     2
  0
TEXT
  5
37A
330
564
100
AcDbEntity
  8
Level 1
  6
Continuous
 62
     7
370
    13
100
AcDbText
 10
143.199635
 20
-9.463885
 30
0.0
 40
0.09
  1
    2
  7
Style-Arial
 11
143.199635
 21
-9.418885
 31
0.0
100
AcDbText
 73
     2
  0
TEXT
  5
37B
330
564
100
AcDbEntity
  8
Level 1
  6
Continuous
 62
     7
370
    13
100
AcDbText
 10
144.360845
 20
-8.531028
 30
0.0
 40
0.09
  1
ASPHALT CONCRETE PAVEMENT  9
  7
Style-Arial
 11
144.360845
 21
-8.486028
 31
0.0
100
AcDbText
 73
     2
  0
TEXT
  5
380
330
564
100
AcDbEntity
  8
Level 1
  6
Continuous
 62
     7
370
    13
100
AcDbText
 10
142.905662
 20
-9.685004
 30
0.0
 40
0.09
  1
1
  7
Style-Arial
 11
142.905662
 21
-9.640004
 31
0.0
100
AcDbText
 73
     2
  0
TEXT
  5
382
330
564
100
AcDbEntity
  8
Level 1
  6
Continuous
 62
     7
370
    13
100
AcDbText
 10
141.542156
 20
-7.71218
 30
0.0
 40
0.09
  1
TIE
  7
Style-Arial
 11
141.542156
 21
-7.66718
 31
0.0
100
AcDbText
 73
     2
  0
TEXT
  5
386
330
564
100
AcDbEntity
  8
Level 1
  6
Continuous
 62
     7
370
    13
100
AcDbText
 10
141.611926
 20
-8.232689
 30
0.0
 40
0.09
  1
3
  7
Style-Arial
 11
141.611926
 21
-8.187689
 31
0.0
100
AcDbText
 73
     2
  0
MTEXT
  5
3FB
330
564
100
AcDbEntity
  8
Level 1
  6
Continuous
 62
     7
370
    13
100
AcDbMText
 10
140.656657
 20
-6.450564
 30
0.0
 40
0.09
 41
0.0
 71
     4
 72
     1
  1
2-{\A0;\S1#2;}"
  7
Style-Arial
 73
     2
 44
1.382053
  0
TEXT
  5
46E
330
564
100
AcDbEntity
  8
Level 1
  6
Continuous
 62
     7
370
    13
100
AcDbText
 10
141.779625
 20
-6.519318
 30
0.0
 40
0.09
  1
2"
  7
Style-Arial
 11
141.779625
 21
-6.474318
 31
0.0
100
AcDbText
 73
     2
  0
TEXT
  5
46F
330
564
100
AcDbEntity
  8
Level 1
  6
Continuous
 62
     7
370
    13
100
AcDbText
 10
140.655094
 20
-6.743557
 30
0.0
 40
0.09
  1
SIDE
  7
Style-Arial
 11
140.655094
 21
-6.698557
 31
0.0
100
AcDbText
 73
     2
  0
TEXT
  5
470
330
564
100
AcDbEntity
  8
Level 1
  6
Continuous
 62
     7
370
    13
100
AcDbText
 10
142.10476
 20
-6.835146
 30
0.0
 40
0.09
  1
SIDE
  7
Style-Arial
 11
142.10476
 21
-6.790146
 31
0.0
100
AcDbText
 73
     2
  0
TEXT
  5
471
330
564
100
AcDbEntity
  8
Level 1
  6
Continuous
 62
     7
370
    13
100
AcDbText
 10
142.10476
 20
-6.725385
 30
0.0
 40
0.09
  1
FIELD
  7
Style-Arial
 11
142.10476
 21
-6.680385
 31
0.0
100
AcDbText
 73
     2
  0
TEXT
  5
474
330
564
100
AcDbEntity
  8
Level 1
  6
Continuous
 62
     7
370
    13
100
AcDbText
 10
141.331604
 20
-6.992943
 30
0.0
 40
0.09
  1
2"
  7
Style-Arial
 11
141.331604
 21
-6.947943
 31
0.0
100
AcDbText
 73
     2
  0
MTEXT
  5
494
330
564
100
AcDbEntity
  8
Level 1
  6
Continuous
 62
     7
370
    13
100
AcDbMText
 10
141.898536
 20
-7.151016
 30
0.0
 40
0.09
 41
0.0
 71
     4
 72
     1
  1
{\A0;\S1#2;}"
  7
Style-Arial
 73
     2
 44
1.382053
  0
TEXT
  5
495
330
564
100
AcDbEntity
  8
Level 1
  6
Continuous
 62
     7
370
    13
100
AcDbText
 10
145.550531
 20
-6.972672
 30
0.0
 40
0.09
  1
TOP OF ASPHALT
  7
Style-Arial
 11
145.550531
 21
-6.927672
 31
0.0
100
AcDbText
 73
     2
  0
TEXT
  5
4BA
330
564
100
AcDbEntity
  8
Level 1
  6
Continuous
 62
     7
370
    13
100
AcDbText
 10
142.963296
 20
-10.91976
 30
0.0
 40
0.09
  1
CIRCLED NUMBERS REFER TO GENERAL NOTES, FIG. 2-36u.
  7
Style-Arial
 11
142.963296
 21
-10.87476
 31
0.0
100
AcDbText
 73
     2
  0
TEXT
  5
4CF
330
564
100
AcDbEntity
  8
Level 1
  6
Continuous
 62
     7
370
    13
100
AcDbText
 10
139.855708
 20
-3.12695
 30
0.0
 40
0.09
  1
BEVEL ASPHALT
  7
Style-Arial
 11
139.855708
 21
-3.08195
 31
0.0
100
AcDbText
 73
     2
  0
TEXT
  5
4D0
330
564
100
AcDbEntity
  8
Level 1
  6
Continuous
 62
     7
370
    13
100
AcDbText
 10
139.846042
 20
-3.289261
 30
0.0
 40
0.09
  1
(SEE DETAIL)
  7
Style-Arial
 11
139.846042
 21
-3.244261
 31
0.0
100
AcDbText
 73
     2
  0
TEXT
  5
4D1
330
564
100
AcDbEntity
  8
Level 1
  6
Continuous
 62
     7
370
    13
100
AcDbText
 10
141.358021
 20
-7.321927
 30
0.0
 40
0.09
  1
o
  7
Style-Arial
 11
141.358021
 21
-7.276927
 31
0.0
100
AcDbText
 73
     2
  0
TEXT
  5
4D2
330
564
100
AcDbEntity
  8
Level 1
  6
Continuous
 62
     7
370
    13
100
AcDbText
 10
141.447958
 20
-7.334083
 30
0.0
 40
0.09
  1
o
  7
Style-Arial
 11
141.447958
 21
-7.289083
 31
0.0
100
AcDbText
 73
     2
  0
TEXT
  5
4D3
330
564
100
AcDbEntity
  8
Level 1
  6
Continuous
 62
     7
370
    13
100
AcDbText
 10
141.272812
 20
-7.449583
 30
0.0
 40
0.09
  1
o
  7
Style-Arial
 11
141.272812
 21
-7.404583
 31
0.0
100
AcDbText
 73
     2
  0
TEXT
  5
4D4
330
564
100
AcDbEntity
  8
Level 1
  6
Continuous
 62
     7
370
    13
100
AcDbText
 10
141.679917
 20
-7.23074
 30
0.0
 40
0.09
  1
o
  7
Style-Arial
 11
141.679917
 21
-7.18574
 31
0.0
100
AcDbText
 73
     2
  0
TEXT
  5
4D5
330
564
100
AcDbEntity
  8
Level 1
  6
Continuous
 62
     7
370
    13
100
AcDbText
 10
141.698844
 20
-7.370563
 30
0.0
 40
0.09
  1
o
  7
Style-Arial
 11
141.698844
 21
-7.325563
 31
0.0
100
AcDbText
 73
     2
  0
TEXT
  5
4D6
330
564
100
AcDbEntity
  8
Level 1
  6
Continuous
 62
     7
370
    13
100
AcDbText
 10
141.831396
 20
-7.340167
 30
0.0
 40
0.09
  1
o
  7
Style-Arial
 11
141.831396
 21
-7.295167
 31
0.0
100
AcDbText
 73
     2
  0
TEXT
  5
4D7
330
564
100
AcDbEntity
  8
Level 1
  6
Continuous
 62
     7
370
    13
100
AcDbText
 10
142.205354
 20
-7.07876
 30
0.0
 40
0.09
  1
o
  7
Style-Arial
 11
142.205354
 21
-7.03376
 31
0.0
100
AcDbText
 73
     2
  0
TEXT
  5
4D8
330
564
100
AcDbEntity
  8
Level 1
  6
Continuous
 62
     7
370
    13
100
AcDbText
 10
142.328427
 20
-7.060521
 30
0.0
 40
0.09
  1
o
  7
Style-Arial
 11
142.328427
 21
-7.015521
 31
0.0
100
AcDbText
 73
     2
  0
TEXT
  5
4D9
330
564
100
AcDbEntity
  8
Level 1
  6
Continuous
 62
     7
370
    13
100
AcDbText
 10
142.503583
 20
-7.048365
 30
0.0
 40
0.09
  1
o
  7
Style-Arial
 11
142.503583
 21
-7.003365
 31
0.0
100
AcDbText
 73
     2
  0
TEXT
  5
4DA
330
564
100
AcDbEntity
  8
Level 1
  6
Continuous
 62
     7
370
    13
100
AcDbText
 10
142.413635
 20
-7.169948
 30
0.0
 40
0.09
  1
o
  7
Style-Arial
 11
142.413635
 21
-7.124948
 31
0.0
100
AcDbText
 73
     2
  0
TEXT
  5
4DB
330
564
100
AcDbEntity
  8
Level 1
  6
Continuous
 62
     7
370
    13
100
AcDbText
 10
142.271625
 20
-7.188187
 30
0.0
 40
0.09
  1
o
  7
Style-Arial
 11
142.271625
 21
-7.143187
 31
0.0
100
AcDbText
 73
     2
  0
MTEXT
  5
4ED
330
564
100
AcDbEntity
  8
Level 1
  6
Continuous
 62
     7
370
    13
100
AcDbMText
 10
145.679729
 20
-3.2366
 30
0.0
 40
0.09
 41
0.0
 71
     4
 72
     1
  1
BEVEL ASPHALT\P(SEE DETAIL)\P
  7
Style-Arial
 73
     2
 44
0.779643
  0
MTEXT
  5
4F7
330
564
100
AcDbEntity
  8
Level 1
  6
Continuous
 62
     7
370
    13
100
AcDbMText
 10
142.977384
 20
-11.287915
 30
0.0
 40
0.09
 41
0.0
 71
     4
 72
     1
  1
RECONSTRUCT SUBGRADE AND INSTALL SUBDRAINS, DITCHING,\PAND/OR GEOTEXTILES AS REQUIRED.  SEE FIGURE\P2-36s  FOR DETAILS.\P
  7
Style-Arial
 73
     2
 44
0.779643
  0
TEXT
  5
63
330
564
100
AcDbEntity
  8
Level 1
  6
Continuous
 62
     7
370
    13
100
AcDbText
 10
139.990968
 20
-10.765823
 30
0.0
 40
0.1125
  1
DRAWING NOT TO SCALE
  7
Style-Arial
 11
139.990968
 21
-10.709573
 31
0.0
100
AcDbText
 73
     2
  0
TEXT
  5
377
330
564
100
AcDbEntity
  8
Level 1
  6
Continuous
 62
     7
370
    13
100
AcDbText
 10
143.119764
 20
-10.474043
 30
0.0
 40
0.1125
  1
SECTION
  7
Style-Arial
 11
143.119764
 21
-10.417793
 31
0.0
100
AcDbText
 73
     2
  0
TEXT
  5
64
330
564
100
AcDbEntity
  8
Level 1
  6
Continuous
 62
     7
370
    13
100
AcDbText
 10
142.497863
 20
-10.772887
 30
0.0
 40
0.1125
  1
NOTES:
  7
Style-Arial
 11
142.497863
 21
-10.716637
 31
0.0
100
AcDbText
 73
     2
  0
TEXT
  5
6E
330
564
100
AcDbEntity
  8
Level 1
  6
Continuous
 62
     7
370
    13
100
AcDbText
 10
139.818218
 20
-11.816288
 30
0.0
 40
0.140625
  1
TYPE 3 - RAILROAD-HIGHWAY GRADE CROSSING
  7
Style-Arial
 11
139.818218
 21
-11.745976
 31
0.0
100
AcDbText
 73
     2
  0
TEXT
  5
4BC
330
564
100
AcDbEntity
  8
Level 1
  6
Continuous
 62
     7
370
    13
100
AcDbText
 10
141.110463
 20
-12.042906
 30
0.0
 40
0.140625
  1
FULL DEPTH ASPHALT
  7
Style-Arial
 11
141.110463
 21
-11.972594
 31
0.0
100
AcDbText
 73
     2
  0
TEXT
  5
65
330
564
100
AcDbEntity
  8
Level 1
  6
Continuous
 62
     7
370
    13
100
AcDbText
 10
144.958958
 20
-11.82626
 30
0.0
 40
0.1125
  1
DATE
  7
Style-Arial
 11
144.958958
 21
-11.77001
 31
0.0
100
AcDbText
 73
     2
  0
TEXT
  5
66
330
564
100
AcDbEntity
  8
Level 1
  6
Continuous
 62
     7
370
    13
100
AcDbText
 10
144.816845
 20
-12.022046
 30
0.0
 40
0.1125
  1
AUG 1990
  7
Style-Arial
 11
144.816845
 21
-11.965796
 31
0.0
100
AcDbText
 73
     2
  0
TEXT
  5
467
330
564
100
AcDbEntity
  8
Level 1
  6
Continuous
 62
     7
370
    13
100
AcDbText
 10
146.033314
 20
-11.820087
 30
0.0
 40
0.1125
  1
FIGURE
  7
Style-Arial
 11
146.033314
 21
-11.763837
 31
0.0
100
AcDbText
 73
     2
  0
TEXT
  5
4BB
330
564
100
AcDbEntity
  8
Level 1
  6
Continuous
 62
     7
370
    13
100
AcDbText
 10
146.11197
 20
-12.027288
 30
0.0
 40
0.1125
  1
2-36m
  7
Style-Arial
 11
146.11197
 21
-11.971038
 31
0.0
100
AcDbText
 73
     2
  0
TEXT
  5
388
330
564
100
AcDbEntity
  8
Level 1
  6
Continuous
 62
     7
370
    13
100
AcDbText
 10
140.886221
 20
-8.062837
 30
0.0
 40
0.1125
  1
FLANGEWAY DETAIL
  7
Style-Arial
 11
140.886221
 21
-8.006587
 31
0.0
100
AcDbText
 73
     2
  0
TEXT
  5
375
330
564
100
AcDbEntity
  8
Level 1
  6
Continuous
 62
     7
370
    13
100
AcDbText
 10
144.645613
 20
-7.968632
 30
0.0
 40
0.1125
  1
DETAIL OF BEVEL
  7
Style-Arial
 11
144.645613
 21
-7.912382
 31
0.0
100
AcDbText
 73
     2
  0
TEXT
  5
373
330
564
100
AcDbEntity
  8
Level 1
  6
Continuous
 62
     7
370
    13
100
AcDbText
 10
143.142383
 20
-6.4255
 30
0.0
 40
0.1125
  1
PLAN
  7
Style-Arial
 11
143.142383
 21
-6.36925
 31
0.0
100
AcDbText
 73
     2
  0
ENDSEC
  0
SECTION
  2
OBJECTS
  0
DICTIONARY
  5
558
330
0
100
AcDbDictionary
281
     1
  3
ACAD_COLOR
350
577
  3
ACAD_GROUP
350
574
  3
ACAD_LAYOUT
350
568
  3
ACAD_MATERIAL
350
576
  3
ACAD_MLINESTYLE
350
562
  3
ACAD_PLOTSETTINGS
350
575
  3
ACAD_PLOTSTYLENAME
350
557
  3
ACAD_TABLESTYLE
350
591
  3
AcadDim
350
584
  3
MicroStation
350
57C
  0
DICTIONARY
  5
554
330
553
100
AcDbDictionary
280
     1
281
     1
  3
ACAD_LAYERFILTERS
360
57B
  3
ACAD_LAYERSTATES
360
555
  0
DICTIONARY
  5
58D
330
564
100
AcDbDictionary
280
     1
281
     1
  3
ACAD_SORTENTS
360
58E
  0
DICTIONARY
  5
577
102
{ACAD_REACTORS
330
558
102
}
330
558
100
AcDbDictionary
281
     1
  0
DICTIONARY
  5
574
102
{ACAD_REACTORS
330
558
102
}
330
558
100
AcDbDictionary
281
     1
  0
DICTIONARY
  5
568
102
{ACAD_REACTORS
330
558
102
}
330
558
100
AcDbDictionary
281
     1
  3
Layout1
350
56C
  3
Model
350
567
  0
DICTIONARY
  5
576
102
{ACAD_REACTORS
330
558
102
}
330
558
100
AcDbDictionary
281
     1
  0
DICTIONARY
  5
562
102
{ACAD_REACTORS
330
558
102
}
330
558
100
AcDbDictionary
281
     1
  3
Standard
350
561
  0
DICTIONARY
  5
575
102
{ACAD_REACTORS
330
558
102
}
330
558
100
AcDbDictionary
281
     1
  0
ACDBDICTIONARYWDFLT
  5
557
102
{ACAD_REACTORS
330
558
102
}
330
558
100
AcDbDictionary
281
     1
  3
Normal
350
556
100
AcDbDictionaryWithDefault
340
556
  0
DICTIONARY
  5
591
102
{ACAD_REACTORS
330
558
102
}
330
558
100
AcDbDictionary
281
     1
  0
XRECORD
  5
584
102
{ACAD_REACTORS
330
558
102
}
330
558
100
AcDbXrecord
280
     1
 90
   990106
  3
 
 60
     0
 61
     0
 62
     1
 63
     1
 64
     0
 65
     0
 66
     0
 67
     3
 68
     1
 69
     1
 70
     0
 71
     0
 72
     0
 40
0.0
170
     0
  0
DICTIONARY
  5
57C
102
{ACAD_REACTORS
330
558
102
}
330
558
100
AcDbDictionary
281
     1
  3
ApplicationElement 1349
350
545
  3
ApplicationElement 1360
350
550
  3
ModelApplicationElement 0 1348
350
544
  0
DICTIONARY
  5
57B
102
{ACAD_REACTORS
330
554
102
}
330
554
100
AcDbDictionary
281
     1
  0
DICTIONARY
  5
555
102
{ACAD_REACTORS
330
554
102
}
330
554
100
AcDbDictionary
281
     1
  0
SORTENTSTABLE
  5
58E
102
{ACAD_REACTORS
330
58D
102
}
330
58D
100
AcDbSortentsTable
330
564
331
63
  5
4EA
331
64
  5
4EC
331
65
  5
4F1
331
66
  5
4F2
331
67
  5
63
331
68
  5
64
331
69
  5
65
331
6A
  5
66
331
6B
  5
67
331
6C
  5
452
331
6D
  5
453
331
6E
  5
4ED
331
6F
  5
68
331
70
  5
69
331
71
  5
6A
331
72
  5
6B
331
73
  5
6C
331
74
  5
6D
331
75
  5
6E
331
76
  5
6F
331
77
  5
70
331
78
  5
71
331
79
  5
72
331
7A
  5
73
331
7B
  5
74
331
7C
  5
75
331
7D
  5
76
331
7E
  5
77
331
7F
  5
78
331
80
  5
79
331
81
  5
7A
331
82
  5
7B
331
83
  5
7C
331
84
  5
7D
331
85
  5
7E
331
86
  5
7F
331
87
  5
80
331
88
  5
81
331
89
  5
82
331
8A
  5
83
331
8B
  5
84
331
8C
  5
85
331
8D
  5
86
331
8E
  5
87
331
8F
  5
88
331
90
  5
89
331
91
  5
454
331
92
  5
455
331
93
  5
456
331
94
  5
457
331
95
  5
458
331
96
  5
8A
331
97
  5
8B
331
98
  5
8C
331
99
  5
8D
331
9A
  5
8E
331
9B
  5
8F
331
9C
  5
90
331
9D
  5
91
331
9E
  5
92
331
9F
  5
93
331
A0
  5
459
331
A1
  5
45A
331
A2
  5
45B
331
A3
  5
45C
331
A4
  5
94
331
A5
  5
95
331
A6
  5
96
331
A7
  5
97
331
A8
  5
98
331
A9
  5
99
331
AA
  5
9A
331
AB
  5
9B
331
AC
  5
9C
331
AD
  5
9D
331
AE
  5
9E
331
AF
  5
9F
331
B0
  5
45D
331
B1
  5
45E
331
B2
  5
45F
331
B3
  5
460
331
B4
  5
A0
331
B5
  5
A1
331
B6
  5
A2
331
B7
  5
A3
331
B8
  5
A4
331
B9
  5
A5
331
BA
  5
A6
331
BB
  5
A7
331
BC
  5
A8
331
BD
  5
A9
331
BE
  5
AA
331
BF
  5
AB
331
C0
  5
AC
331
C1
  5
AD
331
C2
  5
AE
331
C3
  5
AF
331
C4
  5
B0
331
C5
  5
B1
331
C6
  5
B2
331
C7
  5
B3
331
C8
  5
B4
331
C9
  5
B5
331
CA
  5
B6
331
CB
  5
B7
331
CC
  5
B8
331
CD
  5
B9
331
CE
  5
BA
331
CF
  5
BB
331
D0
  5
BC
331
D1
  5
BD
331
D2
  5
BE
331
D3
  5
BF
331
D4
  5
C0
331
D5
  5
C1
331
D6
  5
C2
331
D7
  5
C3
331
D8
  5
C4
331
D9
  5
C5
331
DA
  5
C6
331
DB
  5
C7
331
DC
  5
C8
331
DD
  5
C9
331
DE
  5
CA
331
DF
  5
CB
331
E0
  5
CC
331
E1
  5
CD
331
E2
  5
CE
331
E3
  5
CF
331
E4
  5
D0
331
E5
  5
D1
331
E6
  5
D2
331
E7
  5
D3
331
E8
  5
D4
331
E9
  5
D5
331
EA
  5
D6
331
EB
  5
D7
331
EC
  5
D8
331
ED
  5
D9
331
EE
  5
DA
331
EF
  5
DB
331
F0
  5
DC
331
F1
  5
DD
331
F2
  5
DE
331
F3
  5
DF
331
F4
  5
E0
331
F5
  5
E1
331
F6
  5
E2
331
F7
  5
E3
331
F8
  5
E4
331
F9
  5
E5
331
FA
  5
E6
331
FB
  5
E7
331
FC
  5
E8
331
FD
  5
E9
331
FE
  5
EA
331
FF
  5
EB
331
100
  5
EC
331
101
  5
ED
331
102
  5
EE
331
103
  5
EF
331
104
  5
F0
331
105
  5
F1
331
106
  5
F2
331
107
  5
F3
331
108
  5
F4
331
109
  5
F5
331
10A
  5
F6
331
10B
  5
F7
331
10C
  5
F8
331
10D
  5
F9
331
10E
  5
FA
331
10F
  5
FB
331
110
  5
FC
331
111
  5
FD
331
112
  5
FE
331
113
  5
FF
331
114
  5
100
331
115
  5
101
331
116
  5
102
331
117
  5
103
331
118
  5
104
331
119
  5
105
331
11A
  5
106
331
11B
  5
107
331
11C
  5
108
331
11D
  5
109
331
11E
  5
10A
331
11F
  5
10B
331
120
  5
10C
331
121
  5
10D
331
122
  5
10E
331
123
  5
10F
331
124
  5
110
331
125
  5
111
331
126
  5
112
331
127
  5
113
331
128
  5
114
331
129
  5
115
331
12A
  5
116
331
12B
  5
117
331
12C
  5
118
331
12D
  5
119
331
12E
  5
11A
331
12F
  5
11B
331
130
  5
11C
331
131
  5
11D
331
132
  5
11E
331
133
  5
11F
331
134
  5
120
331
135
  5
121
331
136
  5
122
331
137
  5
123
331
138
  5
124
331
139
  5
125
331
13A
  5
126
331
13B
  5
127
331
13C
  5
128
331
13D
  5
129
331
13E
  5
12A
331
13F
  5
12B
331
140
  5
12C
331
141
  5
12D
331
142
  5
12E
331
143
  5
12F
331
144
  5
130
331
145
  5
131
331
146
  5
132
331
147
  5
133
331
148
  5
134
331
149
  5
135
331
14A
  5
136
331
14B
  5
137
331
14C
  5
138
331
14D
  5
139
331
14E
  5
13A
331
14F
  5
13B
331
150
  5
13C
331
151
  5
13D
331
152
  5
13E
331
153
  5
13F
331
154
  5
140
331
155
  5
141
331
156
  5
142
331
157
  5
143
331
158
  5
144
331
159
  5
145
331
15A
  5
146
331
15B
  5
147
331
15C
  5
148
331
15D
  5
149
331
15E
  5
14A
331
15F
  5
14B
331
160
  5
14C
331
161
  5
14D
331
162
  5
14E
331
163
  5
14F
331
164
  5
150
331
165
  5
151
331
166
  5
152
331
167
  5
153
331
168
  5
154
331
169
  5
155
331
16A
  5
156
331
16B
  5
157
331
16C
  5
158
331
16D
  5
159
331
16E
  5
15A
331
16F
  5
15B
331
170
  5
15C
331
171
  5
15D
331
172
  5
15E
331
173
  5
15F
331
174
  5
160
331
175
  5
161
331
176
  5
162
331
177
  5
163
331
178
  5
164
331
179
  5
165
331
17A
  5
166
331
17B
  5
167
331
17C
  5
168
331
17D
  5
169
331
17E
  5
16A
331
17F
  5
16B
331
180
  5
16C
331
181
  5
16D
331
182
  5
16E
331
183
  5
16F
331
184
  5
170
331
185
  5
171
331
186
  5
172
331
187
  5
173
331
188
  5
174
331
189
  5
175
331
18A
  5
176
331
18B
  5
177
331
18C
  5
178
331
18D
  5
179
331
18E
  5
17A
331
18F
  5
17B
331
190
  5
17C
331
191
  5
17D
331
192
  5
17E
331
193
  5
17F
331
194
  5
180
331
195
  5
181
331
196
  5
182
331
197
  5
183
331
198
  5
184
331
199
  5
185
331
19A
  5
186
331
19B
  5
187
331
19C
  5
188
331
19D
  5
189
331
19E
  5
18A
331
19F
  5
18B
331
1A0
  5
18C
331
1A1
  5
18D
331
1A2
  5
18E
331
1A3
  5
18F
331
1A4
  5
190
331
1A5
  5
191
331
1A6
  5
192
331
1A7
  5
193
331
1A8
  5
194
331
1A9
  5
195
331
1AA
  5
196
331
1AB
  5
197
331
1AC
  5
198
331
1AD
  5
199
331
1AE
  5
19A
331
1AF
  5
19B
331
1B0
  5
19C
331
1B1
  5
19D
331
1B2
  5
19E
331
1B3
  5
19F
331
1B4
  5
1A0
331
1B5
  5
1A1
331
1B6
  5
1A2
331
1B7
  5
1A3
331
1B8
  5
1A4
331
1B9
  5
1A5
331
1BA
  5
1A6
331
1BB
  5
1A7
331
1BC
  5
1A8
331
1BD
  5
1A9
331
1BE
  5
1AA
331
1BF
  5
1AB
331
1C0
  5
1AC
331
1C1
  5
1AD
331
1C2
  5
1AE
331
1C3
  5
1AF
331
1C4
  5
1B0
331
1C5
  5
1B1
331
1C6
  5
1B2
331
1C7
  5
1B3
331
1C8
  5
1B4
331
1C9
  5
1B5
331
1CA
  5
1B6
331
1CB
  5
1B7
331
1CC
  5
1B8
331
1CD
  5
1B9
331
1CE
  5
1BA
331
1CF
  5
1BB
331
1D0
  5
1BC
331
1D1
  5
1BD
331
1D2
  5
1BE
331
1D3
  5
1BF
331
1D4
  5
1C0
331
1D5
  5
1C1
331
1D6
  5
1C2
331
1D7
  5
1C3
331
1D8
  5
1C4
331
1D9
  5
1C5
331
1DA
  5
1C6
331
1DB
  5
1C7
331
1DC
  5
1C8
331
1DD
  5
1C9
331
1DE
  5
1CA
331
1DF
  5
1CB
331
1E0
  5
1CC
331
1E1
  5
1CD
331
1E2
  5
1CE
331
1E3
  5
1CF
331
1E4
  5
1D0
331
1E5
  5
1D1
331
1E6
  5
1D2
331
1E7
  5
1D3
331
1E8
  5
1D4
331
1E9
  5
1D5
331
1EA
  5
1D6
331
1EB
  5
1D7
331
1EC
  5
1D8
331
1ED
  5
1D9
331
1EE
  5
1DA
331
1EF
  5
1DB
331
1F0
  5
1DC
331
1F1
  5
1DD
331
1F2
  5
1DE
331
1F3
  5
1DF
331
1F4
  5
1E0
331
1F5
  5
1E1
331
1F6
  5
1E2
331
1F7
  5
1E3
331
1F8
  5
1E4
331
1F9
  5
1E5
331
1FA
  5
1E6
331
1FB
  5
1E7
331
1FC
  5
1E8
331
1FD
  5
1E9
331
1FE
  5
1EA
331
1FF
  5
1EB
331
200
  5
1EC
331
201
  5
1ED
331
202
  5
1EE
331
203
  5
1EF
331
204
  5
1F0
331
205
  5
1F1
331
206
  5
1F2
331
207
  5
1F3
331
208
  5
1F4
331
209
  5
1F5
331
20A
  5
1F6
331
20B
  5
1F7
331
20C
  5
1F8
331
20D
  5
1F9
331
20E
  5
1FA
331
20F
  5
1FB
331
210
  5
1FC
331
211
  5
1FD
331
212
  5
1FE
331
213
  5
1FF
331
214
  5
200
331
215
  5
201
331
216
  5
202
331
217
  5
203
331
218
  5
204
331
219
  5
205
331
21A
  5
206
331
21B
  5
207
331
21C
  5
208
331
21D
  5
209
331
21E
  5
20A
331
21F
  5
20B
331
220
  5
20C
331
221
  5
20D
331
222
  5
20E
331
223
  5
20F
331
224
  5
210
331
225
  5
211
331
226
  5
212
331
227
  5
213
331
228
  5
214
331
229
  5
215
331
22A
  5
216
331
22B
  5
217
331
22C
  5
218
331
22D
  5
219
331
22E
  5
21A
331
22F
  5
21B
331
230
  5
21C
331
231
  5
21D
331
232
  5
21E
331
233
  5
21F
331
234
  5
220
331
235
  5
221
331
236
  5
222
331
237
  5
223
331
238
  5
224
331
239
  5
225
331
23A
  5
226
331
23B
  5
227
331
23C
  5
228
331
23D
  5
229
331
23E
  5
22A
331
23F
  5
22B
331
240
  5
22C
331
241
  5
22D
331
242
  5
22E
331
243
  5
22F
331
244
  5
230
331
245
  5
231
331
246
  5
232
331
247
  5
233
331
248
  5
234
331
249
  5
235
331
24A
  5
236
331
24B
  5
237
331
24C
  5
238
331
24D
  5
239
331
24E
  5
23A
331
24F
  5
23B
331
250
  5
23C
331
251
  5
23D
331
252
  5
23E
331
253
  5
23F
331
254
  5
240
331
255
  5
241
331
256
  5
242
331
257
  5
243
331
258
  5
244
331
259
  5
245
331
25A
  5
246
331
25B
  5
247
331
25C
  5
248
331
25D
  5
249
331
25E
  5
24A
331
25F
  5
24B
331
260
  5
24C
331
261
  5
24D
331
262
  5
24E
331
263
  5
24F
331
264
  5
250
331
265
  5
251
331
266
  5
252
331
267
  5
253
331
268
  5
254
331
269
  5
255
331
26A
  5
256
331
26B
  5
257
331
26C
  5
258
331
26D
  5
259
331
26E
  5
461
331
26F
  5
462
331
270
  5
463
331
271
  5
464
331
272
  5
25A
331
273
  5
25B
331
274
  5
25C
331
275
  5
25D
331
276
  5
25E
331
277
  5
465
331
278
  5
25F
331
279
  5
260
331
27A
  5
261
331
27B
  5
262
331
27C
  5
263
331
27D
  5
466
331
27E
  5
264
331
27F
  5
265
331
280
  5
467
331
281
  5
468
331
282
  5
469
331
283
  5
46A
331
284
  5
266
331
285
  5
267
331
286
  5
268
331
287
  5
269
331
288
  5
46B
331
289
  5
46C
331
28A
  5
46D
331
28B
  5
26A
331
28C
  5
46E
331
28D
  5
26B
331
28E
  5
26C
331
28F
  5
26D
331
290
  5
26E
331
291
  5
26F
331
292
  5
270
331
293
  5
271
331
294
  5
272
331
295
  5
273
331
296
  5
274
331
297
  5
275
331
298
  5
276
331
299
  5
277
331
29A
  5
278
331
29B
  5
279
331
29C
  5
27A
331
29D
  5
27B
331
29E
  5
27C
331
29F
  5
27D
331
2A0
  5
27E
331
2A1
  5
27F
331
2A2
  5
280
331
2A3
  5
281
331
2A4
  5
282
331
2A5
  5
283
331
2A6
  5
284
331
2A7
  5
285
331
2A8
  5
286
331
2A9
  5
287
331
2AA
  5
288
331
2AB
  5
289
331
2AC
  5
28A
331
2AD
  5
28B
331
2AE
  5
28C
331
2AF
  5
28D
331
2B0
  5
28E
331
2B1
  5
28F
331
2B2
  5
290
331
2B3
  5
291
331
2B4
  5
292
331
2B5
  5
293
331
2B6
  5
294
331
2B7
  5
295
331
2B8
  5
296
331
2B9
  5
297
331
2BA
  5
298
331
2BB
  5
299
331
2BC
  5
29A
331
2BD
  5
29B
331
2BE
  5
29C
331
2BF
  5
46F
331
2C0
  5
470
331
2C1
  5
471
331
2C2
  5
472
331
2C3
  5
473
331
2C4
  5
474
331
2C5
  5
475
331
2C6
  5
476
331
2C7
  5
478
331
2C8
  5
47A
331
2C9
  5
47C
331
2CA
  5
47E
331
2CB
  5
47F
331
2CC
  5
480
331
2CD
  5
482
331
2CE
  5
484
331
2CF
  5
486
331
2D0
  5
488
331
2D1
  5
48A
331
2D2
  5
48B
331
2D3
  5
48C
331
2D4
  5
48D
331
2D5
  5
48F
331
2D6
  5
491
331
2D7
  5
492
331
2D8
  5
493
331
2D9
  5
494
331
2DA
  5
495
331
2DB
  5
496
331
2DC
  5
498
331
2DD
  5
49A
331
2DE
  5
49C
331
2DF
  5
49E
331
2E0
  5
4A0
331
2E1
  5
4A2
331
2E2
  5
4A4
331
2E3
  5
4A6
331
2E4
  5
4A8
331
2E5
  5
4AA
331
2E6
  5
4AC
331
2E7
  5
4AE
331
2E8
  5
4B0
331
2E9
  5
4B2
331
2EA
  5
4B4
331
2EB
  5
4B6
331
2EC
  5
4B7
331
2ED
  5
29D
331
2EE
  5
29E
331
2EF
  5
29F
331
2F0
  5
2A0
331
2F1
  5
2A1
331
2F2
  5
4B8
331
2F3
  5
4B9
331
2F4
  5
2A2
331
2F5
  5
2A3
331
2F6
  5
4BA
331
2F7
  5
2A4
331
2F8
  5
4BB
331
2F9
  5
2A5
331
2FA
  5
4BC
331
2FB
  5
4BD
331
2FC
  5
4BF
331
2FD
  5
2A6
331
2FE
  5
4C1
331
2FF
  5
2A7
331
300
  5
2A8
331
301
  5
2A9
331
302
  5
2AA
331
303
  5
2AB
331
304
  5
4C3
331
305
  5
4C5
331
306
  5
4C7
331
307
  5
4C9
331
308
  5
2AC
331
309
  5
2AD
331
30A
  5
2AE
331
30B
  5
2AF
331
30C
  5
2B0
331
30D
  5
2B1
331
30E
  5
2B2
331
30F
  5
2B3
331
310
  5
2B4
331
311
  5
2B5
331
312
  5
2B6
331
313
  5
2B7
331
314
  5
2B8
331
315
  5
2B9
331
316
  5
2BA
331
317
  5
2BB
331
318
  5
2BC
331
319
  5
2BD
331
31A
  5
2BE
331
31B
  5
2BF
331
31C
  5
2C0
331
31D
  5
2C1
331
31E
  5
2C2
331
31F
  5
2C3
331
320
  5
2C4
331
321
  5
2C5
331
322
  5
2C6
331
323
  5
2C7
331
324
  5
2C8
331
325
  5
2C9
331
326
  5
2CA
331
327
  5
2CB
331
328
  5
2CC
331
329
  5
2CD
331
32A
  5
2CE
331
32B
  5
2CF
331
32C
  5
2D0
331
32D
  5
2D1
331
32E
  5
2D2
331
32F
  5
2D3
331
330
  5
2D4
331
331
  5
2D5
331
332
  5
2D6
331
333
  5
2D7
331
334
  5
2D8
331
335
  5
2D9
331
336
  5
2DA
331
337
  5
2DB
331
338
  5
2DC
331
339
  5
2DD
331
33A
  5
2DE
331
33B
  5
2DF
331
33C
  5
2E0
331
33D
  5
2E1
331
33E
  5
2E2
331
33F
  5
2E3
331
340
  5
2E4
331
341
  5
2E5
331
342
  5
2E6
331
343
  5
2E7
331
344
  5
2E8
331
345
  5
2E9
331
346
  5
2EA
331
347
  5
2EB
331
348
  5
2EC
331
349
  5
2ED
331
34A
  5
2EE
331
34B
  5
2EF
331
34C
  5
2F0
331
34D
  5
2F1
331
34E
  5
2F2
331
34F
  5
2F3
331
350
  5
2F4
331
351
  5
2F5
331
352
  5
2F6
331
353
  5
2F7
331
354
  5
2F8
331
355
  5
2F9
331
356
  5
2FA
331
357
  5
2FB
331
358
  5
2FC
331
359
  5
2FD
331
35A
  5
2FE
331
35B
  5
2FF
331
35C
  5
300
331
35D
  5
301
331
35E
  5
302
331
35F
  5
303
331
360
  5
304
331
361
  5
305
331
362
  5
306
331
363
  5
307
331
364
  5
308
331
365
  5
309
331
366
  5
30A
331
367
  5
30B
331
368
  5
30C
331
369
  5
30D
331
36A
  5
30E
331
36B
  5
30F
331
36C
  5
310
331
36D
  5
311
331
36E
  5
312
331
36F
  5
313
331
370
  5
314
331
371
  5
315
331
372
  5
316
331
373
  5
4F7
331
374
  5
317
331
375
  5
4F6
331
376
  5
318
331
377
  5
4EB
331
378
  5
319
331
379
  5
31A
331
37A
  5
4CB
331
37B
  5
4CD
331
37C
  5
31B
331
37D
  5
31C
331
37E
  5
31D
331
37F
  5
31E
331
380
  5
4CF
331
381
  5
31F
331
382
  5
4D0
331
383
  5
320
331
384
  5
321
331
385
  5
322
331
386
  5
4D1
331
387
  5
323
331
388
  5
4F5
331
389
  5
324
331
38A
  5
325
331
38B
  5
326
331
38C
  5
327
331
38D
  5
328
331
38E
  5
329
331
38F
  5
32A
331
390
  5
32B
331
391
  5
32C
331
392
  5
32D
331
393
  5
32E
331
394
  5
32F
331
395
  5
330
331
396
  5
331
331
397
  5
332
331
398
  5
333
331
399
  5
334
331
39A
  5
335
331
39B
  5
336
331
39C
  5
337
331
39D
  5
338
331
39E
  5
339
331
39F
  5
33A
331
3A0
  5
33B
331
3A1
  5
33C
331
3A2
  5
33D
331
3A3
  5
33E
331
3A4
  5
33F
331
3A5
  5
340
331
3A6
  5
341
331
3A7
  5
342
331
3A8
  5
343
331
3A9
  5
344
331
3AA
  5
345
331
3AB
  5
346
331
3AC
  5
347
331
3AD
  5
348
331
3AE
  5
349
331
3AF
  5
34A
331
3B0
  5
34B
331
3B1
  5
34C
331
3B2
  5
34D
331
3B3
  5
34E
331
3B4
  5
34F
331
3B5
  5
350
331
3B6
  5
351
331
3B7
  5
352
331
3B8
  5
353
331
3B9
  5
354
331
3BA
  5
355
331
3BB
  5
356
331
3BC
  5
357
331
3BD
  5
358
331
3BE
  5
359
331
3BF
  5
35A
331
3C0
  5
35B
331
3C1
  5
35C
331
3C2
  5
35D
331
3C3
  5
35E
331
3C4
  5
35F
331
3C5
  5
360
331
3C6
  5
361
331
3C7
  5
362
331
3C8
  5
363
331
3C9
  5
364
331
3CA
  5
365
331
3CB
  5
366
331
3CC
  5
367
331
3CD
  5
368
331
3CE
  5
369
331
3CF
  5
36A
331
3D0
  5
36B
331
3D1
  5
36C
331
3D2
  5
36D
331
3D3
  5
36E
331
3D4
  5
36F
331
3D5
  5
370
331
3D6
  5
371
331
3D7
  5
372
331
3D8
  5
373
331
3D9
  5
374
331
3DA
  5
375
331
3DB
  5
376
331
3DC
  5
377
331
3DD
  5
378
331
3DE
  5
379
331
3DF
  5
37A
331
3E0
  5
37B
331
3E1
  5
37C
331
3E2
  5
37D
331
3E3
  5
37E
331
3E4
  5
37F
331
3E5
  5
380
331
3E6
  5
381
331
3E7
  5
382
331
3E8
  5
383
331
3E9
  5
384
331
3EA
  5
385
331
3EB
  5
386
331
3EC
  5
387
331
3ED
  5
388
331
3EE
  5
389
331
3EF
  5
38A
331
3F0
  5
38B
331
3F1
  5
38C
331
3F2
  5
38D
331
3F3
  5
38E
331
3F4
  5
38F
331
3F5
  5
390
331
3F6
  5
391
331
3F7
  5
392
331
3F8
  5
393
331
3F9
  5
394
331
3FA
  5
395
331
3FB
  5
4D2
331
3FC
  5
396
331
3FD
  5
397
331
3FE
  5
398
331
3FF
  5
399
331
400
  5
39A
331
401
  5
39B
331
402
  5
39C
331
403
  5
39D
331
404
  5
39E
331
405
  5
39F
331
406
  5
3A0
331
407
  5
3A1
331
408
  5
3A2
331
409
  5
3A3
331
40A
  5
3A4
331
40B
  5
3A5
331
40C
  5
3A6
331
40D
  5
3A7
331
40E
  5
3A8
331
40F
  5
3A9
331
410
  5
3AA
331
411
  5
3AB
331
412
  5
3AC
331
413
  5
3AD
331
414
  5
3AE
331
415
  5
3AF
331
416
  5
3B0
331
417
  5
3B1
331
418
  5
3B2
331
419
  5
3B3
331
41A
  5
3B4
331
41B
  5
3B5
331
41C
  5
3B6
331
41D
  5
3B7
331
41E
  5
3B8
331
41F
  5
3B9
331
420
  5
3BA
331
421
  5
3BB
331
422
  5
3BC
331
423
  5
3BD
331
424
  5
3BE
331
425
  5
3BF
331
426
  5
3C0
331
427
  5
3C1
331
428
  5
3C2
331
429
  5
3C3
331
42A
  5
3C4
331
42B
  5
3C5
331
42C
  5
3C6
331
42D
  5
3C7
331
42E
  5
3C8
331
42F
  5
3C9
331
430
  5
3CA
331
431
  5
3CB
331
432
  5
3CC
331
433
  5
3CD
331
434
  5
3CE
331
435
  5
3CF
331
436
  5
3D0
331
437
  5
3D1
331
438
  5
3D2
331
439
  5
3D3
331
43A
  5
3D4
331
43B
  5
3D5
331
43C
  5
3D6
331
43D
  5
3D7
331
43E
  5
3D8
331
43F
  5
3D9
331
440
  5
3DA
331
441
  5
3DB
331
442
  5
3DC
331
443
  5
3DD
331
444
  5
3DE
331
445
  5
3DF
331
446
  5
3E0
331
447
  5
3E1
331
448
  5
3E2
331
449
  5
3E3
331
44A
  5
3E4
331
44B
  5
3E5
331
44C
  5
3E6
331
44D
  5
3E7
331
44E
  5
3E8
331
44F
  5
3E9
331
450
  5
3EA
331
451
  5
3EB
331
452
  5
3EC
331
453
  5
3ED
331
454
  5
3EE
331
455
  5
3EF
331
456
  5
3F0
331
457
  5
3F1
331
458
  5
3F2
331
459
  5
3F3
331
45A
  5
3F4
331
45B
  5
3F5
331
45C
  5
3F6
331
45D
  5
3F7
331
45E
  5
3F8
331
45F
  5
3F9
331
460
  5
3FA
331
461
  5
3FB
331
462
  5
3FC
331
463
  5
3FD
331
464
  5
3FE
331
465
  5
3FF
331
466
  5
400
331
467
  5
4F3
331
468
  5
401
331
469
  5
402
331
46A
  5
403
331
46B
  5
404
331
46C
  5
405
331
46D
  5
406
331
46E
  5
4D3
331
46F
  5
4D4
331
470
  5
4D5
331
471
  5
4D6
331
472
  5
407
331
473
  5
408
331
474
  5
4D7
331
475
  5
409
331
476
  5
40A
331
478
  5
40B
331
47A
  5
40C
331
47C
  5
40D
331
47E
  5
40E
331
47F
  5
40F
331
480
  5
410
331
482
  5
411
331
484
  5
412
331
486
  5
413
331
488
  5
414
331
48A
  5
415
331
48B
  5
416
331
48C
  5
417
331
48D
  5
418
331
48F
  5
419
331
491
  5
41A
331
492
  5
41B
331
493
  5
41C
331
494
  5
4D8
331
495
  5
4D9
331
496
  5
41D
331
498
  5
41E
331
49A
  5
41F
331
49C
  5
420
331
49E
  5
421
331
4A0
  5
422
331
4A2
  5
423
331
4A4
  5
424
331
4A6
  5
425
331
4A8
  5
426
331
4AA
  5
427
331
4AC
  5
428
331
4AE
  5
429
331
4B0
  5
42A
331
4B2
  5
42B
331
4B4
  5
42C
331
4B6
  5
42D
331
4B7
  5
42E
331
4B8
  5
42F
331
4B9
  5
430
331
4BA
  5
4DA
331
4BB
  5
4F4
331
4BC
  5
4F0
331
4BD
  5
431
331
4BF
  5
432
331
4C1
  5
433
331
4C3
  5
434
331
4C5
  5
435
331
4C7
  5
436
331
4C9
  5
437
331
4CB
  5
438
331
4CD
  5
439
331
4CF
  5
4DB
331
4D0
  5
4DC
331
4D1
  5
4DD
331
4D2
  5
4DE
331
4D3
  5
4DF
331
4D4
  5
4E0
331
4D5
  5
4E1
331
4D6
  5
4E2
331
4D7
  5
4E3
331
4D8
  5
4E4
331
4D9
  5
4E5
331
4DA
  5
4E6
331
4DB
  5
4E7
331
4DC
  5
43A
331
4DD
  5
43B
331
4DE
  5
43C
331
4DF
  5
43D
331
4E0
  5
43E
331
4E1
  5
43F
331
4E2
  5
440
331
4E3
  5
441
331
4E4
  5
442
331
4E5
  5
443
331
4E6
  5
444
331
4E7
  5
445
331
4E8
  5
446
331
4E9
  5
447
331
4EA
  5
448
331
4EB
  5
449
331
4EC
  5
44A
331
4ED
  5
4E8
331
4F0
  5
44B
331
4F1
  5
44C
331
4F2
  5
44D
331
4F3
  5
44E
331
4F4
  5
44F
331
4F5
  5
450
331
4F6
  5
451
331
4F7
  5
4E9
  0
LAYOUT
  5
56C
102
{ACAD_REACTORS
330
568
330
568
102
}
102
{ACAD_XDICTIONARY
360
56D
102
}
330
568
100
AcDbPlotSettings
  1

  2
none_device
  4
Letter_(8.50_x_11.00_Inches)
  6

 40
6.35
 41
6.35
 42
6.350006
 43
6.350006
 44
215.899994
 45
279.399994
 46
0.0
 47
0.0
 48
0.0
 49
0.0
140
0.0
141
0.0
142
1.0
143
1.0
 70
   688
 72
     0
 73
     1
 74
     5
  7

 75
    16
 76
     0
 77
     2
 78
   300
147
1.0
148
0.0
149
0.0
100
AcDbLayout
  1
Layout1
 70
     1
 71
     1
 10
-0.25
 20
-0.25
 11
10.75
 21
8.25
 12
0.0
 22
0.0
 32
0.0
 14
1.049744
 24
0.799667
 34
-0.001526
 15
9.450623
 25
7.200577
 35
0.0
146
0.0
 13
0.0
 23
0.0
 33
0.0
 16
1.0
 26
0.0
 36
0.0
 17
0.0
 27
1.0
 37
0.0
 76
     0
330
569
1001
ACAD_PSEXT
1000
None
1000
None
1000
Not applicable
1000
The layout will not be plotted unless a new plotter configuration name is selected.
1070
     0
  0
LAYOUT
  5
567
102
{ACAD_REACTORS
330
568
330
568
102
}
330
568
100
AcDbPlotSettings
  1

  2
none_device
  4
ANSI_A_(8.50_x_11.00_Inches)
  6

 40
6.35
 41
19.049999
 42
6.350006
 43
19.049988
 44
215.899994
 45
279.399994
 46
0.0
 47
0.0
 48
0.0
 49
0.0
140
0.0
141
0.0
142
1.0
143
2.584895
 70
 11952
 72
     0
 73
     1
 74
     0
  7

 75
     0
 76
     0
 77
     2
 78
   300
147
0.386863
148
0.0
149
0.0
100
AcDbLayout
  1
Model
 70
     1
 71
     0
 10
0.0
 20
0.0
 11
12.0
 21
9.0
 12
0.0
 22
0.0
 32
0.0
 14
0.0
 24
0.0
 34
0.0
 15
0.0
 25
0.0
 35
0.0
146
0.0
 13
0.0
 23
0.0
 33
0.0
 16
1.0
 26
0.0
 36
0.0
 17
0.0
 27
1.0
 37
0.0
 76
     0
330
564
331
49
  0
MLINESTYLE
  5
561
102
{ACAD_REACTORS
330
562
102
}
330
562
100
AcDbMlineStyle
  2
STANDARD
 70
     0
  3

 62
   256
 51
90.0
 52
90.0
 71
     2
 49
0.5
 62
   256
  6
BYLAYER
 49
-0.5
 62
   256
  6
BYLAYER
  0
ACDBPLACEHOLDER
  5
556
102
{ACAD_REACTORS
330
557
102
}
330
557
  0
XRECORD
  5
545
102
{ACAD_REACTORS
330
57C
102
}
330
57C
100
AcDbXrecord
280
     1
310
3E4F020000004D6F64656C6572000000000000000000000000000000000000000000000000000000000000000000000000000000000000000000000000000000000000000000000000000000000000000000000000000000000000000000000000000000000000000000000000000000000000000000000000000000000000
310
00000000000000000000000000000000000000000000000000000000000000000000000000000000000000000000000000000000000000000000000000000000000000000000000000000000000000000000000000000000000000000000000000000000000000000000000000000000000000000000000000000000000000
310
00
310
00000000000000000000000000000000000000000000000000000000000000000000000000000000000000000000000000000000000000000000000000000000000000000000000000000000000000000000000000000000000000000000000000000000000000000000000000000000000000000000000000000000000000
310
00000000000000000000000000000000000000000000000000000000000000000000000000000000000000000000000000000000000000000000000000000000000000000000000000000000000000000000000000000000000000000000000000000000000000000000000000000000000000000000000000000000000000
310
00
310
00000000000000000000000000000000000000000000000000000000000000000000000000000000000000000000000000000000000000000000000000000000000000000000000000000000000000000000000000000000000000000000000000000000000000000000000000000000000000000000000000000000000000
310
00000000000000000000000000000000000000000000000000000000000000000000000000000000000000000000000000000000000000000000000000000000000000000000000000000000000000000000000000000000000000000000000000000000000000000000000000000000000000000000000000000000000000
310
00
310
00000000000000000000000000000000000000000000000000000000000000000000000000000000000000000000000000000000000000000000000000000000000000000000000000000000000000000000000000000000000000000000000000000000000000000000000000000000000000000000000000000000000000
310
00000000000000000000000000000000000000000000000000000000000000000000000000000000000000000000000000000000000000000000000000000000000000000000000000000000000000000000000000000000000000000000000000000000000000000000000000000000000000000000000000000000000000
310
00
310
00000000000000000000000000000000000000000000000000000000000000000000000000000000000000000000000000000000000000000000000000000000000000000000000000000000000000000000000000000000000000000000000000000000000000000000000000000000000000000000000000000000000000
310
00000000000000000000000000000000000000000000000000000000000000000000000000000000000000000000000000000000000000000000000000000000000000000000000000000000000000000000000000000000000000000000000000000000000000000000000000000000000000000000000000000000000000
310
00
310
00000000000000000000000000000000000000000000000000000000000000000000000000000000000000000000000000000000000000000000000000000000000000000000000000000000000000000000000000000000000000000000000000000000000000000000000000000000000000000000000000000000000000
310
00000000000000000000000000000000000000000000000000000000000000000000000000000000000000000000000000000000000000000000000000000000000000000000000000000000000000000000000000000000000000000000000000000000000000000000000000000000000000000000000000000000000000
310
00
310
00000000000000000000000000000000000000000000000000000000000000000000000000000000000000000000000000000000000000000000000000000000000000000000000000000000000000000000000000000000000000000000000000000000000000000000000000000000000000000000000000000000000000
310
00000000000000000000000000000000000000000000000000000000000000000000000000000000000000000000000000000000000000000000000000000000000000000000000000000000000000000000000000000000000000000000000000000000000000000000000000000000000000000000000000000000000000
310
00
310
00000000000000000000000000000000000000000000000000000000000000000000000000000000000000000000000000000000000000000000000000000000000000000000000000000000000000000000000000000000000000000000000000000000000000000000000000000000000000000000000000000000000000
310
00000000000000000000000000000000000000000000000000000000000000000000000000000000000000000000000000000000000000000000000000000000000000000000000000000000000000000000000000000000000000000000000000000000000000000000000000000000000000000000000000000000000000
310
00
310
00000000000000000000000000000000000000000000000000000000000000000000000000000000000000000000000000000000000000000000000000000000000000000000000000000000000000000000000000000000000000000000000000000000000000000000000000000000000000000000000000000000000000
310
00000000000000000000000000000000000000000000000000000000000000000000000000000000000000000000000000000000000000000000000000000000000000000000000000000000000000000000000000000000000000000000000000000000000000000000000000000000000000000000000000000000000000
310
00
310
00000000000000000000000000000000000000000000000000000000000000000000000000000000000000000000000000000000000000000000000000000000000000000000000000000000000000000000000000000000000000000000000000000000000000000000000000000000000000000000000000000000000000
310
00000000000000000000000000000000000000000000000000000000000000000000000000000000000000000000000000000000000000000000000000000000000000000000000000000000000000000000000000000000000000000000000000000000000000000000000000000000000000000000000000000000000000
310
00
310
00000000000000000000000000000000000000000000000000000000000000000000000000000000000000000000000000000000000000000000000000000000000000000000000000000000000000000000000000000000000000000000000000000000000000000000000000000000000000000000000000000000000000
310
00000000000000000000000000000000000000000000000000000000000000000000000000000000000000000000000000000000000000000000000000000000000000000000000000000000000000000000000000000000000000000000000000000000000000000000000000000000000000000000000000000000000000
310
00
310
00000000000000000000000000000000000000000000000000000000000000000000000000000000000000000000000000000000000000000000000000000000000000000000000000000000000000000000000000000000000000000000000000000000000000000000000000000000000000000000000000000000000000
310
00000000000000000000000000000000000000000000000000000000000000000000000000000000000000000000000000000000000000000000000000000000000000000000000000000000000000000000000000000000000000000000000000000000000000000000000000000000000000000000000000000000000000
310
00
310
00000000000000000000000000000000000000000000000000000000000000000000000000000000000000000000000000000000000000000000000000000000000000000000000000000000000000000000000000000000000000000000000000000000000000000000000000000000000000000000000000000000000000
310
00000000000000000000000000000000000000000000000000000000000000000000000000000000000000000000000000000000000000000000000000000000000000000000000000000000000000000000000000000000000000000000000000000000000000000000000000000000000000000000000000000000000000
310
00
310
00000000000000000000000000000000000000000000000000000000000000000000000000000000000000000000000000000000000000000000000000000000000000000000000000000000000000000000000000000000000000000000000000000000000000000000000000000000000000
  0
XRECORD
  5
550
102
{ACAD_REACTORS
330
57C
102
}
330
57C
100
AcDbXrecord
280
     1
310
3E4F020000004D6F64656C6572000000000000000000000000000000000000000000000000000000000000000000000000000000000000000000000000000000000000000000000000000000000000000000000000000000000000000000000000000000000000000000000000000000000000000000000000000000000000
310
00000000000000000000000000000000000000000000000000000000000000000000000000000000000000000000000000000000000000000000000000000000000000000000000000000000000000000000000000000000000000000000000000000000000000000000000000000000000000000000000000000000000000
310
00
310
00000000000000000000000000000000000000000000000000000000000000000000000000000000000000000000000000000000000000000000000000000000000000000000000000000000000000000000000000000000000000000000000000000000000000000000000000000000000000000000000000000000000000
310
00000000000000000000000000000000000000000000000000000000000000000000000000000000000000000000000000000000000000000000000000000000000000000000000000000000000000000000000000000000000000000000000000000000000000000000000000000000000000000000000000000000000000
310
00
310
00000000000000000000000000000000000000000000000000000000000000000000000000000000000000000000000000000000000000000000000000000000000000000000000000000000000000000000000000000000000000000000000000000000000000000000000000000000000000000000000000000000000000
310
00000000000000000000000000000000000000000000000000000000000000000000000000000000000000000000000000000000000000000000000000000000000000000000000000000000000000000000000000000000000000000000000000000000000000000000000000000000000000000000000000000000000000
310
00
310
00000000000000000000000000000000000000000000000000000000000000000000000000000000000000000000000000000000000000000000000000000000000000000000000000000000000000000000000000000000000000000000000000000000000000000000000000000000000000000000000000000000000000
310
00000000000000000000000000000000000000000000000000000000000000000000000000000000000000000000000000000000000000000000000000000000000000000000000000000000000000000000000000000000000000000000000000000000000000000000000000000000000000000000000000000000000000
310
00
310
00000000000000000000000000000000000000000000000000000000000000000000000000000000000000000000000000000000000000000000000000000000000000000000000000000000000000000000000000000000000000000000000000000000000000000000000000000000000000000000000000000000000000
310
00000000000000000000000000000000000000000000000000000000000000000000000000000000000000000000000000000000000000000000000000000000000000000000000000000000000000000000000000000000000000000000000000000000000000000000000000000000000000000000000000000000000000
310
00
310
00000000000000000000000000000000000000000000000000000000000000000000000000000000000000000000000000000000000000000000000000000000000000000000000000000000000000000000000000000000000000000000000000000000000000000000000000000000000000000000000000000000000000
310
00000000000000000000000000000000000000000000000000000000000000000000000000000000000000000000000000000000000000000000000000000000000000000000000000000000000000000000000000000000000000000000000000000000000000000000000000000000000000000000000000000000000000
310
00
310
00000000000000000000000000000000000000000000000000000000000000000000000000000000000000000000000000000000000000000000000000000000000000000000000000000000000000000000000000000000000000000000000000000000000000000000000000000000000000000000000000000000000000
310
00000000000000000000000000000000000000000000000000000000000000000000000000000000000000000000000000000000000000000000000000000000000000000000000000000000000000000000000000000000000000000000000000000000000000000000000000000000000000000000000000000000000000
310
00
310
00000000000000000000000000000000000000000000000000000000000000000000000000000000000000000000000000000000000000000000000000000000000000000000000000000000000000000000000000000000000000000000000000000000000000000000000000000000000000000000000000000000000000
310
00000000000000000000000000000000000000000000000000000000000000000000000000000000000000000000000000000000000000000000000000000000000000000000000000000000000000000000000000000000000000000000000000000000000000000000000000000000000000000000000000000000000000
310
00
310
00000000000000000000000000000000000000000000000000000000000000000000000000000000000000000000000000000000000000000000000000000000000000000000000000000000000000000000000000000000000000000000000000000000000000000000000000000000000000000000000000000000000000
310
00000000000000000000000000000000000000000000000000000000000000000000000000000000000000000000000000000000000000000000000000000000000000000000000000000000000000000000000000000000000000000000000000000000000000000000000000000000000000000000000000000000000000
310
00
310
00000000000000000000000000000000000000000000000000000000000000000000000000000000000000000000000000000000000000000000000000000000000000000000000000000000000000000000000000000000000000000000000000000000000000000000000000000000000000000000000000000000000000
310
00000000000000000000000000000000000000000000000000000000000000000000000000000000000000000000000000000000000000000000000000000000000000000000000000000000000000000000000000000000000000000000000000000000000000000000000000000000000000000000000000000000000000
310
00
310
00000000000000000000000000000000000000000000000000000000000000000000000000000000000000000000000000000000000000000000000000000000000000000000000000000000000000000000000000000000000000000000000000000000000000000000000000000000000000000000000000000000000000
310
00000000000000000000000000000000000000000000000000000000000000000000000000000000000000000000000000000000000000000000000000000000000000000000000000000000000000000000000000000000000000000000000000000000000000000000000000000000000000000000000000000000000000
310
00
310
00000000000000000000000000000000000000000000000000000000000000000000000000000000000000000000000000000000000000000000000000000000000000000000000000000000000000000000000000000000000000000000000000000000000000000000000000000000000000000000000000000000000000
310
00000000000000000000000000000000000000000000000000000000000000000000000000000000000000000000000000000000000000000000000000000000000000000000000000000000000000000000000000000000000000000000000000000000000000000000000000000000000000000000000000000000000000
310
00
310
00000000000000000000000000000000000000000000000000000000000000000000000000000000000000000000000000000000000000000000000000000000000000000000000000000000000000000000000000000000000000000000000000000000000000000000000000000000000000000000000000000000000000
310
00000000000000000000000000000000000000000000000000000000000000000000000000000000000000000000000000000000000000000000000000000000000000000000000000000000000000000000000000000000000000000000000000000000000000000000000000000000000000000000000000000000000000
310
00
310
00000000000000000000000000000000000000000000000000000000000000000000000000000000000000000000000000000000000000000000000000000000000000000000000000000000000000000000000000000000000000000000000000000000000000000000000000000000000000
  0
XRECORD
  5
544
102
{ACAD_REACTORS
330
57C
102
}
330
57C
100
AcDbXrecord
280
     1
310
DF56060034040701D0009A9999999999B93F000000000000000000000000000000000400000009000000000000000200000064000000640000000100000001000000190000007B14AE47E17A843F00000000004060409A9999999999B93F00000000004C2D41000000000070F7400000000000942141000000000000000000
310
0000000000000000000000000000000AD482040000000000000000000000000000F03F000000000000000000000000000030402D431CEBE2362A3F00000000000008400000000000000000009807C000000000000000007C1A61B9A711364020000000050000000A000000200000002000000020000000000000000000F03F
310
00
310
0000000000F03F000000000000F03F333333333333D33F333333333333D33F333333333333D33F000000000000F43F000000000000F43F000000000000F03F0200000064000000000000000000000000000840000000000000F83F00000000000000000000000000000000008056409A9999999999B93F0000000000000000
310
00000000000000000000000000000000000000000000000000000000000000000000000000000000000000000000000000000000000000000000000000000000000000000000000000000000000000000000000000000000000000000000000000000000000000000000000000000000000000000000000000000000000000
310
00
310
0000000000000000000000000000000000000000000000000000000000000000000000000000000000000000000000000000000000000000000000000000000000000000000000000000000000000000000000000000000000000000000000000000000000000000000000000000000000000000000000009A9999999999A9
310
3F9100000000000000000000000000000035A781D547960F40000000000000F03F000000000000F03F666666666666164000000000104068F200000000000000000000000000000000000000000000000000000000000000000000000000000000000000000000000000000000000000000000000000000000000000000000
310
00
310
00000000000000000000000000000000000000000000000000000000000000000000000000000000000000000000000000000000000000000000000000000000000000000000000000000000000000000000000000000000000000000000000000000000000000000000000000000000000000000000000000000000000000
310
000000000000000000000000000000000000000000000000000000000000000000000000000000000000000000000000000000000000000000000000FF000000000000000000000000000000000000000000000000000000000000000000000000000000000000000000000000000000000000000000000000000000000000
310
00
310
0000000000000000000000000000000000000000000000000000000000000000000000000000000000000000000000000000000000000000000000000000000000000000
  0
DICTIONARY
  5
56D
330
56C
100
AcDbDictionary
280
     1
281
     1
  3
ADSK_XREC_LAYOUTTHUMBNAIL
360
56E
  0
XRECORD
  5
56E
102
{ACAD_REACTORS
330
56D
102
}
330
56D
100
AcDbXrecord
280
     1
310
28000000B40000008B0000000100080000000000BC61000000000000000000000001000000000000FFFFFF0000000000FFFFFF000000000000000000000000000000000000000000000000000000000000000000330000006600000099000000CC000000FF00000000330000333300006633000099330000CC330000FF3300
310
0000660000336600006666000099660000CC660000FF66000000990000339900006699000099990000CC990000FF99000000CC000033CC000066CC000099CC0000CCCC0000FFCC000000FF000033FF000066FF000099FF0000CCFF0000FFFF000000003300330033006600330099003300CC003300FF003300003333003333
310
33006633330099333300CC333300FF33330000663300336633006666330099663300CC663300FF66330000993300339933006699330099993300CC993300FF99330000CC330033CC330066CC330099CC3300CCCC3300FFCC330000FF330033FF330066FF330099FF3300CCFF3300FFFF330000006600330066006600660099
310
006600CC006600FF00660000336600333366006633660099336600CC336600FF33660000666600336666006666660099666600CC666600FF66660000996600339966006699660099996600CC996600FF99660000CC660033CC660066CC660099CC6600CCCC6600FFCC660000FF660033FF660066FF660099FF6600CCFF6600
310
FFFF660000009900330099006600990099009900CC009900FF00990000339900333399006633990099339900CC339900FF33990000669900336699006666990099669900CC669900FF66990000999900339999006699990099999900CC999900FF99990000CC990033CC990066CC990099CC9900CCCC9900FFCC990000FF99
310
0033FF990066FF990099FF9900CCFF9900FFFF99000000CC003300CC006600CC009900CC00CC00CC00FF00CC000033CC003333CC006633CC009933CC00CC33CC00FF33CC000066CC003366CC006666CC009966CC00CC66CC00FF66CC000099CC003399CC006699CC009999CC00CC99CC00FF99CC0000CCCC0033CCCC0066CC
310
CC0099CCCC00CCCCCC00FFCCCC0000FFCC0033FFCC0066FFCC0099FFCC00CCFFCC00FFFFCC000000FF003300FF006600FF009900FF00CC00FF00FF00FF000033FF003333FF006633FF009933FF00CC33FF00FF33FF000066FF003366FF006666FF009966FF00CC66FF00FF66FF000099FF003399FF006699FF009999FF00CC
310
99FF00FF99FF0000CCFF0033CCFF0066CCFF0099CCFF00CCCCFF00FFCCFF0000FFFF0033FFFF0066FFFF0099FFFF00CCFFFF00FFFFFF00000000000D0D0D001A1A1A00282828003535350043434300505050005D5D5D006B6B6B00787878008686860093939300A1A1A100AEAEAE00BBBBBB00C9C9C900D6D6D600E4E4E400
310
F1F1F100FFFFFF0000000000000000000000000000000000000000000000000000000000000000000000000000000000E2E2E2E2E2E2E2E2E2E2E2E2E2E2E2E2E2E2E2E2E2E2E2E2E2E2E2E2E2E2E2E2E2E2E2E2E2E2E2E2E2E2E2E2E2E2E2E2E2E2E2E2E2E2E2E2E2E2E2E2E2E2E2E2E2E2E2E2E2E2E2E2E2E2E2E2E2E2E2
310
E2E2E2E2E2E2E2E2E2E2E2E2E2E2E2E2E2E2E2E2E2E2E2E2E2E2E2E2E2E2E2E2E2E2E2E2E2E2E2E2E2E2E2E2E2E2E2E2E2E2E2E2E2E2E2E2E2E2E2E2E2E2E2E2E2E2E2E2E2E2E2E2E2E2E2E2E2E2E2E2E2E2E2E2E2E2E2E2E2E2E2E2E2E2E2E2E2E2E2E2EFF5F5F5F5F5F5F5F5F5F5F5F5F5F5F5F5F5F5F5F5F5F5F5F5F5F5
310
F5F5F5F5F5F5F5F5F5F5F5F5F5F5F5F5F5F5F5F5F5F5F5F5F5F5F5F5F5F5F5F5F5F5F5F5F5F5F5F5F5F5F5F5F5F5F5F5F5F5F5F5F5F5F5F5F5F5F5F5F5F5F5F5F5F5F5F5F5F5F5F5F5F5F5F5F5F5F5F5F5F5F5F5F5F5F5F5F5F5F5F5F5F5F5F5F5F5F5F5F5F5F5F5F5F5F5F5F5F5F5F5F5F5F5F5F5F5F5F5F5F5F5F5F5F5F5
310
F5F5F5F5F5F5F5F5F5F5F5F5F5F5F5F5F5F5F5F5F5F5F5F5E2E2EFF5F5F5F5F5F5F5F5F5F5F5F5F5F5F5F5F5F5F5F5F5F5F5F5F5F5F5F5F5F5F5F5F5F5F5F5F5F5F5F5F5F5F5F5F5F5F5F5F5F5F5F5F5F5F5F5F5F5F5F5F5F5F5F5F5F5F5F5F5F5F5F5F5F5F5F5F5F5F5F5F5F5F5F5F5F5F5F5F5F5F5F5F5F5F5F5F5F5F5F5
310
F5F5F5F5F5F5F5F5F5F5F5F5F5F5F5F5F5F5F5F5F5F5F5F5F5F5F5F5F5F5F5F5F5F5F5F5F5F5F5F5F5F5F5F5F5F5F5F5F5F5F5F5F5F5F5F5F5F5F5F5F5F5F5F5F5F5F5F5F5F5F5F5F5F5F5F5F5E2E2EFF5F5F5F5F5F5F5F5F5F5F5F5F5F5F5F5F5F5F5F5F5F5F5F5F5F5F5F5F5F5F5F5F5F5F5F5F5F5F5F5F5F5F5F5F5F5F5
310
F5F5F5F5F5F5F5F5F5F5F5F5F5F5F5F5F5F5F5F5F5F5F5F5F5F5F5F5F5F5F5F5F5F5F5F5F5F5F5F5F5F5F5F5F5F5F5F5F5F5F5F5F5F5F5F5F5F5F5F5F5F5F5F5F5F5F5F5F5F5F5F5F5F5F5F5F5F5F5F5F5F5F5F5F5F5F5F5F5F5F5F5F5F5F5F5F5F5F5F5F5F5F5F5F5F5F5F5F5F5F5F5F5F5F5F5F5F5F5F5F5F5F5F5F5F5F5
310
F5F5F5E2E2EFF5F5F5E2E2E2E2E2E2E2E2F5F5F5F5F5F5F5F5F5E2E2E2E2E2E2E2E2E2E2E2E2E2E2E2E2F5F5F5F5F5F5F5F5E2E2E2E2E2E2E2E2E2E2E2E2E2E2E2E2F5F5F5F5F5F5F5F5F5E2E2E2E2E2E2E2E2E2E2E2E2E2E2E2F5F5F5F5F5F5F5F5F5E2E2E2E2E2E2E2E2E2E2E2E2E2E2E2F5F5F5F5F5F5F5F5F5E2E2E2E2
310
E2E2E2E2E2E2E2E2E2E2E2E2F5F5F5F5F5F5F5F5E2E2E2E2E2E2E2E2E2E2E2E2E2E2E2E2F5F5F5F5F5F5F5F5F5E2E2E2E2E2E2E2E2F5F5F5E2E2EFF5F5F5E2F5F5F5F5F5F5F5F5F5F5F5F5F5F5F5F5F5F5F5F5F5F5F5F5F5F5F5F5F5F5F5F5F5F5F5F5F5F5F5F5F5F5F5F5F5F5F5F5F5F5F5F5F5F5F5F5F5F5F5F5F5F5F5F5
310
F5F5F5F5F5F5F5F5F5F5F5F5F5F5F5F5F5F5F5F5F5F5F5F5F5F5F5F5F5F5F5F5F5F5F5F5F5F5F5F5F5F5F5F5F5F5F5F5F5F5F5F5F5F5F5F5F5F5F5F5F5F5F5F5F5F5F5F5F5F5F5F5F5F5F5F5F5F5F5F5F5F5F5F5F5F5F5F5F5F5F5F5F5F5F5F5F5F5F5F5F5F5F5F5F5E2F5F5F5E2E2EFF5F5F5E2F5F5F5F5F5F5F5F5F5F5F5
310
F5F5F5F5F5F5F5F5F5F5F5F5F5F5F5F5F5F5F5F5F5F5F5F5F5F5F5F5F5F5F5F5F5F5F5F5F5F5F5F5F5F5F5F5F5F5F5F5F5F5F5F5F5F5F5F5F5F5F5F5F5F5F5F5F5F5F5F5F5F5F5F5F5F5F5F5F5F5F5F5F5F5F5F5F5F5F5F5F5F5F5F5F5F5F5F5F5F5F5F5F5F5F5F5F5F5F5F5F5F5F5F5F5F5F5F5F5F5F5F5F5F5F5F5F5F5F5
310
F5F5F5F5F5F5F5F5F5F5F5F5F5F5F5F5F5F5F5F5F5F5F5F5F5F5F5F5F5F5F5E2F5F5F5E2E2EFF5F5F5E2F5F5F5F5F5F5F5F5F5F5F5F5F5F5F5F5F5F5F5F5F5F5F5F5F5F5F5F5F5F5F5F5F5F5F5F5F5F5F5F5F5F5F5F5F5F5F5F5F5F5F5F5F5F5F5F5F5F5F5F5F5F5F5F5F5F5F5F5F5F5F5F5F5F5F5F5F5F5F5F5F5F5F5F5F5
310
F5F5F5F5F5F5F5F5F5F5F5F5F5F5F5F5F5F5F5F5F5F5F5F5F5F5F5F5F5F5F5F5F5F5F5F5F5F5F5F5F5F5F5F5F5F5F5F5F5F5F5F5F5F5F5F5F5F5F5F5F5F5F5F5F5F5F5F5F5F5F5F5F5F5F5F5F5F5F5F5F5F5F5F5E2F5F5F5E2E2EFF5F5F5E2F5F5F5F5F5F5F5F5F5F5F5F5F5F5F5F5F5F5F5F5F5F5F5F5F5F5F5F5F5F5F5F5
310
F5F5F5F5F5F5F5F5F5F5F5F5F5F5F5F5F5F5F5F5F5F5F5F5F5F5F5F5F5F5F5F5F5F5F5F5F5F5F5F5F5F5F5F5F5F5F5F5F5F5F5F5F5F5F5F5F5F5F5F5F5F5F5F5F5F5F5F5F5F5F5F5F5F5F5F5F5F5F5F5F5F5F5F5F5F5F5F5F5F5F5F5F5F5F5F5F5F5F5F5F5F5F5F5F5F5F5F5F5F5F5F5F5F5F5F5F5F5F5F5F5F5F5F5F5F5F5
310
F5F5F5F5F5F5F5F5F5F5E2F5F5F5E2E2EFF5F5F5E2F5F5F5F5F5F5F5F5F5F5F5F5F5F5F5F5F5F5F5F5F5F5F5F5F5F5F5F5F5F5F5F5F5F5F5F5F5F5F5F5F5F5F5F5F5F5F5F5F5F5F5F5F5F5F5F5F5F5F5F5F5F5F5F5F5F5F5F5F5F5F5F5F5F5F5F5F5F5F5F5F5F5F5F5F5F5F5F5F5F5F5F5F5F5F5F5F5F5F5F5F5F5F5F5F5F5
310
F5F5F5F5F5F5F5F5F5F5F5F5F5F5F5F5F5F5F5F5F5F5F5F5F5F5F5F5F5F5F5F5F5F5F5F5F5F5F5F5F5F5F5F5F5F5F5F5F5F5F5F5F5F5F5F5F5F5F5F5F5F5F5E2F5F5F5E2E2EFF5F5F5E2F5F5F5F5F5F5F5F5F5F5F5F5F5F5F5F5F5F5F5F5F5F5F5F5F5F5F5F5F5F5F5F5F5F5F5F5F5F5F5F5F5F5F5F5F5F5F5F5F5F5F5F5F5
310
F5F5F5F5F5F5F5F5F5F5F5F5F5F5F5F5F5F5F5F5F5F5F5F5F5F5F5F5F5F5F5F5F5F5F5F5F5F5F5F5F5F5F5F5F5F5F5F5F5F5F5F5F5F5F5F5F5F5F5F5F5F5F5F5F5F5F5F5F5F5F5F5F5F5F5F5F5F5F5F5F5F5F5F5F5F5F5F5F5F5F5F5F5F5F5F5F5F5F5F5F5F5F5F5F5F5F5F5F5F5F5F5F5F5F5F5E2F5F5F5E2E2EFF5F5F5E2
310
F5F5F5F5F5F5F5F5F5F5F5F5F5F5F5F5F5F5F5F5F5F5F5F5F5F5F5F5F5F5F5F5F5F5F5F5F5F5F5F5F5F5F5F5F5F5F5F5F5F5F5F5F5F5F5F5F5F5F5F5F5F5F5F5F5F5F5F5F5F5F5F5F5F5F5F5F5F5F5F5F5F5F5F5F5F5F5F5F5F5F5F5F5F5F5F5F5F5F5F5F5F5F5F5F5F5F5F5F5F5F5F5F5F5F5F5F5F5F5F5F5F5F5F5F5F5F5
310
F5F5F5F5F5F5F5F5F5F5F5F5F5F5F5F5F5F5F5F5F5F5F5F5F5F5F5F5F5F5F5F5F5F5F5F5F5F5F5F5F5F5E2F5F5F5E2E2EFF5F5F5E2F5F5F5F5F5F5F5F5F5F5F5F5F5F5F5F5F5F5F5F5F5F5F5F5F5F5F5F5F5F5F5F5F5F5F5F5F5F5F5F5F5F5F5F5F5F5F5F5F5F5F5F5F5F5F5F5F5F5F5F5F5F5F5F5F5F5F5F5F5F5F5F5F5F5
310
F5F5F5F5F5F5F5F5F5F5F5F5F5F5F5F5F5F5F5F5F5F5F5F5F5F5F5F5F5F5F5F5F5F5F5F5F5F5F5F5F5F5F5F5F5F5F5F5F5F5F5F5F5F5F5F5F5F5F5F5F5F5F5F5F5F5F5F5F5F5F5F5F5F5F5F5F5F5F5F5F5F5F5F5F5F5F5F5F5F5F5F5F5F5F5E2F5F5F5E2E2EFF5F5F5F5F5F5F5F5F5F5F5F5F5F5F5F5F5F5F5F5F5F5F5F5F5
310
F5F5F5F5F5F5F5F5F5F5F5F5F5F5F5F5F5F5F5F5F5F5F5F5F5F5F5F5F5F5F5F5F5F5F5F5F5F5F5F5F5F5F5F5F5F5F5F5F5F5F5F5F5F5F5F5F5F5F5F5F5F5F5F5F5F5F5F5F5F5F5F5F5F5F5F5F5F5F5F5F5F5F5F5F5F5F5F5F5F5F5F5F5F5F5F5F5F5F5F5F5F5F5F5F5F5F5F5F5F5F5F5F5F5F5F5F5F5F5F5F5F5F5F5F5F5F5
310
F5F5F5F5F5F5F5F5F5F5F5F5F5F5F5F5F5F5F5F5F5F5F5F5F5E2E2EFF5F5F5F5F5F5F5F5F5F5F5F5F5F5F5F5F5F5F5F5F5F5F5F5F5F5F5F5F5F5F5F5F5F5F5F5F5F5F5F5F5F5F5F5F5F5F5F5F5F5F5F5F5F5F5F5F5F5F5F5F5F5F5F5F5F5F5F5F5F5F5F5F5F5F5F5F5F5F5F5F5F5F5F5F5F5F5F5F5F5F5F5F5F5F5F5F5F5F5
310
F5F5F5F5F5F5F5F5F5F5F5F5F5F5F5F5F5F5F5F5F5F5F5F5F5F5F5F5F5F5F5F5F5F5F5F5F5F5F5F5F5F5F5F5F5F5F5F5F5F5F5F5F5F5F5F5F5F5F5F5F5F5F5F5F5F5F5F5F5F5F5F5F5F5F5F5F5F5E2E2EFF5F5F5F5F5F5F5F5F5F5F5F5F5F5F5F5F5F5F5F5F5F5F5F5F5F5F5F5F5F5F5F5F5F5F5F5F5F5F5F5F5F5F5F5F5F5
310
F5F5F5F5F5F5F5F5F5F5F5F5F5F5F5F5F5F5F5F5F5F5F5F5F5F5F5F5F5F5F5F5F5F5F5F5F5F5F5F5F5F5F5F5F5F5F5F5F5F5F5F5F5F5F5F5F5F5F5F5F5F5F5F5F5F5F5F5F5F5F5F5F5F5F5F5F5F5F5F5F5F5F5F5F5F5F5F5F5F5F5F5F5F5F5F5F5F5F5F5F5F5F5F5F5F5F5F5F5F5F5F5F5F5F5F5F5F5F5F5F5F5F5F5F5F5F5
310
F5F5F5F5E2E2EFF5F5F5F5F5F5F5F5F5F5F5F5F5F5F5F5F5F5F5F5F5F5F5F5F5F5F5F5F5F5F5F5F5F5F5F5F5F5F5F5F5F5F5F5F5F5F5F5F5F5F5F5F5F5F5F5F5F5F5F5F5F5F5F5F5F5F5F5F5F5F5F5F5F5F5F5F5F5F5F5F5F5F5F5F5F5F5F5F5F5F5F5F5F5F5F5F5F5F5F5F5F5F5F5F5F5F5F5F5F5F5F5F5F5F5F5F5F5F5F5
310
F5F5F5F5F5F5F5F5F5F5F5F5F5F5F5F5F5F5F5F5F5F5F5F5F5F5F5F5F5F5F5F5F5F5F5F5F5F5F5F5F5F5F5F5F5F5F5F5F5F5F5F5F5F5F5F5F5E2E2EFF5F5F5F5F5F5F5F5F5F5F5F5F5F5F5F5F5F5F5F5E2E2E2E2E2E2E2E2E2E2E2E2E2E2E2E2E2E2E2E2E2E2E2E2E2E2E2E2E2E2E2E2E2E2E2E2E2E2E2E2E2E2E2E2E2E2E2
310
E2E2E2E2E2E2E2E2E2E2E2E2E2E2E2E2E2E2E2E2E2E2E2E2E2E2E2E2E2E2E2E2E2E2E2E2E2E2E2E2E2E2E2E2E2E2E2E2E2E2E2E2E2E2E2E2E2E2E2E2E2E2E2E2E2E2E2E2E2E2E2E2E2E2E2E2E2E2E2E2E2E2E2E2E2E2E2E2E2E2F5F5F5F5F5F5F5F5F5F5F5F5F5F5F5F5F5F5F5F5E2E2EFF5F5F5F5F5F5F5F5F5F5F5F5F5F5
310
F5F5F5F5F5F5E2F5F5F5F5F5F5F5F5F5F5F5F5F5F5F5F5F5F5F5F5F5F5F5F5F5F5F5F5F5F5F5F5F5F5F5F5F5F5F5F5F5F5F5F5F5F5F5F5F5F5F5F5F5F5F5F5F5F5F5F5F5F5F5F5F5F5F5F5F5F5F5F5F5F5F5F5F5F5F5F5F5F5F5F5F5F5F5F5F5F5F5F5F5F5F5F5F5F5F5F5F5F5F5F5F5F5F5F5F5F5F5F5F5F5F5F5F5F5F5F5
310
F5F5F5F5F5F5F5F5F5F5F5F5F5F5F5E2F5F5F5F5F5F5F5F5F5F5F5F5F5F5F5F5F5F5F5F5E2E2EFF5F5F5F5F5F5F5F5F5F5F5F5F5F5F5F5F5F5F5F5E2F5F5F5F5F5F5F5F5F5F5F5F5F5F5F5F5F5F5F5F5F5F5F5F5F5F5F5F5F5F5F5F5F5F5F5F5F5F5F5F5F5F5F5F5F5F5F5F5F5F5F5F5F5F5F5F5F5F5F5F5F5F5F5F5F5F5F5
310
F5F5F5F5F5F5F5F5F5F5F5F5F5F5F5F5F5F5F5F5F5F5F5F5F5F5F5F5F5F5F5F5F5F5F5F5F5F5F5F5F5F5F5F5F5F5F5F5F5F5F5F5F5F5F5F5F5F5F5F5F5F5F5F5F5F5F5F5E2F5F5F5F5F5F5F5F5F5F5F5F5F5F5F5F5F5F5F5F5E2E2EFF5F5F5F5F5F5F5F5F5F5F5F5F5F5F5F5F5F5F5F5E2F5F5F5F5F5F5F5F5F5F5F5F5F5F5
310
F5F5F5F5F5F5F5F5F5F5F5F5F5F5F5F5F5F5F5F5F5F5F5F5F5F5F5F5F5F5F5F5F5F5F5F5F5F5F5F5F5F5F5F5F5F5F5F5F5F5F5F5F5F5F5F5F5F5F5F5F5F5F5F5F5F5F5F5F5F5F5F5F5F5F5F5F5F5F5F5F5F5F5F5F5F5F5F5F5F5F5F5F5F5F5F5F5F5F5F5F5F5F5F5F5F5F5F5F5F5F5F5F5F5F5F5F5F5F5F5F5E2F5F5F5F5F5
310
F5F5F5F5F5F5F5F5F5F5F5F5F5F5F5E2E2EFF5F5F5F5F5F5F5F5F5F5F5F5F5F5F5F5F5F5F5F5E2F5F5F5F5F5F5F5F5F5F5F5F5F5F5F5F5F5F5F5F5F5F5F5F5F5F5F5F5F5F5F5F5F5F5F5F5F5F5F5F5F5F5F5F5F5F5F5F5F5F5F5F5F5F5F5F5F5F5F5F5F5F5F5F5F5F5F5F5F5F5F5F5F5F5F5F5F5F5F5F5F5F5F5F5F5F5F5F5
310
F5F5F5F5F5F5F5F5F5F5F5F5F5F5F5F5F5F5F5F5F5F5F5F5F5F5F5F5F5F5F5F5F5F5F5F5F5F5F5F5F5F5F5F5F5F5F5E2F5F5F5F5F5F5F5F5F5F5F5F5F5F5F5F5F5F5F5F5E2E2EFF5F5F5E2F5F5F5F5F5F5F5F5F5F5F5F5F5F5F5F5E2F5F5F5F5F5F5F5F5F5F5F5F5F5F5F5F5F5F5F5F5F5F5F5F5F5F5F5F5F5F5F5F5F5F5F5
310
F5F5F5F5F5F5F5F5F5F5F5F5F5F5F5F5F5F5F5F5F5F5F5F5F5F5F5F5F5F5F5F5F5F5F5F5F5F5F5F5F5F5F5F5F5F5F5F5F5F5F5F5F5F5F5F5F5F5F5F5F5F5F5F5F5F5F5F5F5F5F5F5F5F5F5F5F5F5F5F5F5F5F5F5F5F5F5F5F5F5F5F5F5F5F5F5F5F5F5F5E2F5F5F5F5F5F5F5F5F5F5F5F5F5F5F5F5E2F5F5F5E2E2EFF5F5F5
310
E2F5F5F5F5F5F5F5F5F5F5F5F5F5F5F5F5E2F5F5F5F5F5F5F5F5F5F5F5F5F5F5F5F5F5F5F5F5F5F5F5F5F5F5F5F5F5F5F5F5F5F5F5F5F5F5F5F5F5F5F5F5F5F5F5F5F5F5F5F5F5F5F5F5F5F5F5F5F5F5F5F5F5F5F5F5F5F5F5F5F5F5F5F5F5F5F5F5F5F5F5F5F5F5F5F5F5F5F5F5F5F5F5F5F5F5F5F5F5F5F5F5F5F5F5F5F5
310
F5F5F5F5F5F5F5F5F5F5F5F5F5F5F5F5F5F5F5F5F5F5F5F5F5F5E2F5F5F5F5F5F5F5F5F5F5F5F5F5F5F5F5E2F5F5F5E2E2EFF5F5F5E2F5F5F5F5F5F5F5F5F5F5F5F5F5F5F5F5E2F5F5F5F5F5F5F5F5F5F5F5F5F5F5F5F5F5F5F5F5F5F5F5F5F5F5F5F5F5F5F5F5F5F5F5F5F5F5F5F5F5F5F5F5F5F5F5F5F5F5F5F5F5F5F5F5
310
F5F5F5F5F5F5F5F5F5F5F5F5F5F5F5F5F5F5F5F5F5F5F5F5F5F5F5F5F5F5F5F5F5F5F5F5F5F5F5F5F5F5F5F5F5F5F5F5F5F5F5F5F5F5F5F5F5F5F5F5F5F5F5F5F5F5F5F5F5F5F5F5F5F5F5F5F5F5F5E2F5F5F5F5F5F5F5F5F5F5F5F5F5F5F5F5E2F5F5F5E2E2EFF5F5F5E2F5F5F5F5F5F5F5F5F5F5F5F5F5F5F5F5E2F5F5F5
310
F5F5F5F5F5F5F5F5F5F5F5F5F5F5F5F5F5F5F5F5F5F5F5F5F5F5F5F5F5F5F5F5F5F5F5F5F5F5F5F5F5F5F5F5F5F5F5F5F5F5F5F5F5F5F5F5F5F5F5F5F5F5F5F5F5F5F5F5F5F5F5F5F5F5F5F5F5F5F5F5F5F5F5F5F5F5F5F5F5F5F5F5F5F5F5F5F5F5F5F5F5F5F5F5F5F5F5F5F5F5F5F5F5F5F5F5F5F5F5F5F5F5F5F5F5F5F5
310
F5F5F5F5F5E2F5F5F5F5F5F5F5F5F5F5F5F5F5F5F5F5E2F5F5F5E2E2EFF5F5F5E2F5F5F5F5F5F5F5F5F5F5F5F5F5F5F5F5E2F5F5F5F5F5F5F5F5F5F5F5F5F5F5F5F5F5F5F5F5F5F5F5F5F5F5F5F5F5F5F5F5F5F5F5F5F5F5F5F5F5F5F5F5F5F5F5F5F5F5F5F5F5F5F5F5F5F5F5F5F5F5F5F5F5F5F5F5F5F5F5F5F5F5F5F5F5
310
F5F5F5F5F5F5F5F5F5F5F5F5F5F5F5F5F5F5F5F5F5F5F5F5F5F5F5F5F5F5F5F5F5F5F5F5F5F5F5F5F5F5F5F5F5F5F5F5F5F5F5F5F5F5F5F5F5F5E2F5F5F5F5F5F5F5F5F5F5F5F5F5F5F5F5E2F5F5F5E2E2EFF5F5F5E2F5F5F5F5F5F5F5F5F5F5F5F5F5F5F5F5E2F5F5F5F5F5F5F5F5F5F5F5F5F5F5F5F5F5F5F5F5F5F5F5F5
310
F5F5F5F5F5F5F5F5F5F5F5F5F5F5F5F5F5F5F5F5F5F5F5F5F5F5F5F5F5F5F5F5F5F5F5F5F5F5F5F5F5F5F5F5F5F5F5F5F5F5F5F5F5F5F5F5F5F5F5F5F5F5F5F5F5F5F5F5F5F5F5F5F5F5F5F5F5F5F5F5F5F5F5F5F5F5F5F5F5F5F5F5F5F5F5F5F5F5F5F5F5F5F5F5F5F5F5F5F5F5F5E2F5F5F5F5F5F5F5F5F5F5F5F5F5F5F5
310
F5E2F5F5F5E2E2EFF5F5F5E2F5F5F5F5F5F5F5F5F5F5F5F5F5F5F5F5E2F5F5F5F5F5F5F5F5F5F5F5F5F5F5F5F5F5F5F5F5F5F5F5F5F5F5F5F5F5F5F5F5F5F5F5F5F5F5F5F5F5F5F5F5F5F5F5F5F5F5F5F5F5F5F5F5F5F5F5F5F5F5F5F5F5F5F5F5F5F5F5F5F5F5F5F5F5F5F5F5F5F5F5F5F5F5F5F5F5F5F5F5F5F5F5F5F5F5
310
F5F5F5F5F5F5F5F5F5F5F5F5F5F5F5F5F5F5F5F5F5F5F5F5F5F5F5F5F5F5F5F5F5F5F5F5F5E2F5F5F5F5F5F5F5F5F5F5F5F5F5F5F5F5E2F5F5F5E2E2EFF5F5F5E2F5F5F5F5F5F5F5F5F5F5F5F5F5F5F5F5E2F5F5F5F5F5F5F5F5F5F5F5F5F5F5F5F5F5F5F5F5F5F5F5F5F5F5F5F5F5F5F5F5F5F5F5F5F5F5F5F5F5F5F5F5F5
310
F5F5F5F5F5F5F5F5F5F5F5F5F5F5F5F5F5F5F5F5F5F5F5F5F5F5F5F5F5F5F5F5F5F5F5F5F5F5F5F5F5F5F5F5F5F5F5F5F5F5F5F5F5F5F5F5F5F5F5F5F5F5F5F5F5F5F5F5F5F5F5F5F5F5F5F5F5F5F5F5F5F5F5F5F5F5F5F5F5F5E2F5F5F5F5F5F5F5F5F5F5F5F5F5F5F5F5E2F5F5F5E2E2EFF5F5F5E2F5F5F5F5F5F5F5F5F5
310
F5F5F5F5F5F5F5E2F5F5F5F5F5F5F5F5F5F5F5F5F5F5F5F5F5F5F5F5F5F5F5F5F5F5F5F5F5F5F5F5F5F5F5F5F5F5F5F5F5F5F5F5F5F5F5F5F5F5F5F5F5F5F5F5F5F5F5F5F5F5F5F5F5F5F5F5F5F5F5F5F5F5F5F5F5F5F5F5F5F5F5F5F5F5F5F5F5F5F5F5F5F5F5F5F5F5F5F5F5F5F5F5F5F5F5F5F5F5F5F5F5F5F5F5F5F5F5
310
F5F5F5F5F5F5F5F5F5F5F5F5F5F5F5F5E2F5F5F5F5F5F5F5F5F5F5F5F5F5F5F5F5E2F5F5F5E2E2EFF5F5F5E2F5F5F5F5F5F5F5F5F5F5F5F5F5F5F5F5E2F5F5F5F5F5F5F5F5F5F5F5F5F5F5F5F5F5F5F5F5F5F5F5F5F5F5F5F5F5F5F5F5F5F5F5F5F5F5F5F5F5F5F5F5F5F5F5F5F5F5F5F5F5F5F5F5F5F5F5F5F5F5F5F5F5F5
310
F5F5F5F5F5F5F5F5F5F5F5F5F5F5F5F5F5F5F5F5F5F5F5F5F5F5F5F5F5F5F5F5F5F5F5F5F5F5F5F5F5F5F5F5F5F5F5F5F5F5F5F5F5F5F5F5F5F5F5F5F5F5F5F5F5F5F5F5F5E2F5F5F5F5F5F5F5F5F5F5F5F5F5F5F5F5E2F5F5F5E2E2EFF5F5F5E2F5F5F5F5F5F5F5F5F5F5F5F5F5F5F5F5E2F5F5F5F5F5F5F5F5F5F5F5F5F5
310
F5F5F5F5F5F5F5F5F5F5F5F5F5F5F5F5F5F5F5F5F5F5F5F5F5F5F5F5F5F5F5F5F5F5F5F5F5F5F5F5F5F5F5F5F5F5F5F5F5F5F5F5F5F5F5F5F5F5F5F5F5F5F5F5F5F5F5F5F5F5F5F5F5F5F5F5F5F5F5F5F5F5F5F5F5F5F5F5F5F5F5F5F5F5F5F5F5F5F5F5F5F5F5F5F5F5F5F5F5F5F5F5F5F5F5F5F5F5F5F5F5F5E2F5F5F5F5
310
F5F5F5F5F5F5F5F5F5F5F5F5E2F5F5F5E2E2EFF5F5F5E2F5F5F5F5F5F5F5F5F5F5F5F5F5F5F5F5E2F5F5F5F5F5F5F5F5F5F5F5F5F5F5F5F5F5F5F5F5F5F5F5F5F5F5F5F5F5F5F5F5F5F5F5F5F5F5F5F5F5F5F5F5F5F5F5F5F5F5F5F5F5F5F5F5F5F5F5F5F5F5F5F5F5F5F5F5F5F5F5F5F5F5F5F5F5F5F5F5F5F5F5F5F5F5F5
310
F5F5F5F5F5F5F5F5F5F5F5F5F5F5F5F5F5F5F5F5F5F5F5F5F5F5F5F5F5F5F5F5F5F5F5F5F5F5F5F5F5F5F5F5F5F5F5F5E2F5F5F5F5F5F5F5F5F5F5F5F5F5F5F5F5E2F5F5F5E2E2EFF5F5F5E2F5F5F5F5F5F5F5F5F5F5F5F5F5F5F5F5E2F5F5F5F5F5F5F5F5F5F5F5F5F5F5F5F5F5F5F5F5F5F5F5F5F5F5F5F5F5F5F5F5F5F5
310
F5F5F5F5F5F5F5F5F5F5F5F5F5F5F5F5F5F5F5F5F5F5F5F5F5F5F5F5F5F5F5F5F5F5F5F5F5F5F5F5F5F5F5F5F5F5F5F5F5F5F5F5F5F5F5F5F5F5F5F5F5F5F5F5F5F5F5F5F5F5F5F5F5F5F5F5F5F5F5F5F5F5F5F5F5F5F5F5F5F5F5F5F5F5F5F5F5F5F5F5F5E2F5F5F5F5F5F5F5F5F5F5F5F5F5F5F5F5E2F5F5F5E2E2EFF5F5
310
F5E2F5F5F5F5F5F5F5F5F5F5F5F5F5F5F5F5E2F5F5F5F5F5F5F5F5F5F5F5F5F5F5F5F5F5F5F5F5F5F5F5F5F5F5F5F5F5F5F5F5F5F5F5F5F5F5F5F5F5F5F5F5F5F5F5F5F5F5F5F5F5F5F5F5F5F5F5F5F5F5F5F5F5F5F5F5F5F5F5F5F5F5F5F5F5F5F5F5F5F5F5F5F5F5F5F5F5F5F5F5F5F5F5F5F5F5F5F5F5F5F5F5F5F5F5F5
310
F5F5F5F5F5F5F5F5F5F5F5F5F5F5F5F5F5F5F5F5F5F5F5F5F5F5F5E2F5F5F5F5F5F5F5F5F5F5F5F5F5F5F5F5E2F5F5F5E2E2EFF5F5F5E2F5F5F5F5F5F5F5F5F5F5F5F5F5F5F5F5E2F5F5F5F5F5F5F5F5F5F5F5F5F5F5F5F5F5F5F5F5F5F5F5F5F5F5F5F5F5F5F5F5F5F5F5F5F5F5F5F5F5F5F5F5F5F5F5F5F5F5F5F5F5F5F5
310
F5F5F5F5F5F5F5F5F5F5F5F5F5F5F5F5F5F5F5F5F5F5F5F5F5F5F5F5F5F5F5F5F5F5F5F5F5F5F5F5F5F5F5F5F5F5F5F5F5F5F5F5F5F5F5F5F5F5F5F5F5F5F5F5F5F5F5F5F5F5F5F5F5F5F5F5F5F5F5F5E2F5F5F5F5F5F5F5F5F5F5F5F5F5F5F5F5E2F5F5F5E2E2EFF5F5F5E2F5F5F5F5F5F5F5F5F5F5F5F5F5F5F5F5E2F5F5
310
F5F5F5F5F5F5F5F5F5F5F5F5F5F5F5F5F5F5F5F5F5F5F5F5F5F5F5F5F5F5F5F5F5F5F5F5F5F5F5F5F5F5F5F5F5F5F5F5F5F5F5F5F5F5F5F5F5F5F5F5F5F5F5F5F5F5F5F5F5F5F5F5F5F5F5F5F5F5F5F5F5F5F5F5F5F5F5F5F5F5F5F5F5F5F5F5F5F5F5F5F5F5F5F5F5F5F5F5F5F5F5F5F5F5F5F5F5F5F5F5F5F5F5F5F5F5F5
310
F5F5F5F5F5F5E2F5F5F5F5F5F5F5F5F5F5F5F5F5F5F5F5E2F5F5F5E2E2EFF5F5F5E2F5F5F5F5F5F5F5F5F5F5F5F5F5F5F5F5E2F5F5F5F5F5F5F5F5F5F5F5F5F5F5F5F5F5F5F5F5F5F5F5F5F5F5F5F5F5F5F5F5F5F5F5F5F5F5F5F5F5F5F5F5F5F5F5F5F5F5F5F5F5F5F5F5F5F5F5F5F5F5F5F5F5F5F5F5F5F5F5F5F5F5F5F5
310
F5F5F5F5F5F5F5F5F5F5F5F5F5F5F5F5F5F5F5F5F5F5F5F5F5F5F5F5F5F5F5F5F5F5F5F5F5F5F5F5F5F5F5F5F5F5F5F5F5F5F5F5F5F5F5F5F5F5F5E2F5F5F5F5F5F5F5F5F5F5F5F5F5F5F5F5E2F5F5F5E2E2EFF5F5F5F5F5F5F5F5F5F5F5F5F5F5F5F5F5F5F5F5E2F5F5F5F5F5F5F5F5F5F5F5F5F5F5F5F5F5F5F5F5F5F5F5
310
F5F5F5F5F5F5F5F5F5F5F5F5F5F5F5F5F5F5F5F5F5F5F5F5F5F5F5F5F5F5F5F5F5F5F5F5F5F5F5F5F5F5F5F5F5F5F5F5F5F5F5F5F5F5F5F5F5F5F5F5F5F5F5F5F5F5F5F5F5F5F5F5F5F5F5F5F5F5F5F5F5F5F5F5F5F5F5F5F5F5F5F5F5F5F5F5F5F5F5F5F5F5F5F5F5F5F5F5F5F5F5F5E2F5F5F5F5F5F5F5F5F5F5F5F5F5F5
310
F5F5F5F5F5F5E2E2EFF5F5F5F5F5F5F5F5F5F5F5F5F5F5F5F5F5F5F5F5E2F5F5F5F5F5F5F5F5F5F5F5F5F5F5F5F5F5F5F5F5F5F5F5F5F5F5F5F5F5F5F5F5F5F5F5F5F5F5F5F5F5F5F5F5F5F5F5F5F5F5F5F5F5F5F5F5F5F5F5F5F5F5F5F5F5F5F5F5F5F5F5F5F5F5F5F5F5F5F5F5F5F5F5F5F5F5F5F5F5F5F5F5F5F5F5F5F5
310
F5F5F5F5F5F5F5F5F5F5F5F5F5F5F5F5F5F5F5F5F5F5F5F5F5F5F5F5F5F5F5F5F5F5F5F5F5F5E2F5F5F5F5F5F5F5F5F5F5F5F5F5F5F5F5F5F5F5F5E2E2EFF5F5F5F5F5F5F5F5F5F5F5F5F5F5F5F5F5F5F5F5E2F5F5F5F5F5F5F5F5F5F5F5F5F5F5F5F5F5F5F5F5F5F5F5F5F5F5F5F5F5F5F5F5F5F5F5F5F5F5F5F5F5F5F5F5
310
F5F5F5F5F5F5F5F5F5F5F5F5F5F5F5F5F5F5F5F5F5F5F5F5F5F5F5F5F5F5F5F5F5F5F5F5F5F5F5F5F5F5F5F5F5F5F5F5F5F5F5F5F5F5F5F5F5F5F5F5F5F5F5F5F5F5F5F5F5F5F5F5F5F5F5F5F5F5F5F5F5F5F5F5F5F5F5F5F5F5F5E2F5F5F5F5F5F5F5F5F5F5F5F5F5F5F5F5F5F5F5F5E2E2EFF5F5F5F5F5F5F5F5F5F5F5F5
310
F5F5F5F5F5F5F5F5E2F5F5F5F5F5F5F5F5F5F5F5F5F5F5F5F5F5F5F5F5F5F5F5F5F5F5F5F5F5F5F5F5F5F5F5F5F5F5F5F5F5F5F5F5F5F5F5F5F5F5F5F5F5F5F5F5F5F5F5F5F5F5F5F5F5F5F5F5F5F5F5F5F5F5F5F5F5F5F5F5F5F5F5F5F5F5F5F5F5F5F5F5F5F5F5F5F5F5F5F5F5F5F5F5F5F5F5F5F5F5F5F5F5F5F5F5F5F5
310
F5F5F5F5F5F5F5F5F5F5F5F5F5F5F5F5F5E2F5F5F5F5F5F5F5F5F5F5F5F5F5F5F5F5F5F5F5F5E2E2EFF5F5F5F5F5F5F5F5F5F5F5F5F5F5F5F5F5F5F5F5E2F5F5F5F5F5F5F5F5F5F5F5F5F5F5F5F5F5F5F5F5F5F5F5F5F5F5F5F5F5F5F5F5F5F5F5F5F5F5F5F5F5F5F5F5F5F5F5F5F5F5F5F5F5F5F5F5F5F5F5F5F5F5F5F5F5
310
F5F5F5F5F5F5F5F5F5F5F5F5F5F5F5F5F5F5F5F5F5F5F5F5F5F5F5F5F5F5F5F5F5F5F5F5F5F5F5F5F5F5F5F5F5F5F5F5F5F5F5F5F5F5F5F5F5F5F5F5F5F5F5F5F5F5F5F5F5F5E2F5F5F5F5F5F5F5F5F5F5F5F5F5F5F5F5F5F5F5F5E2E2EFF5F5F5F5F5F5F5F5F5F5F5F5F5F5F5F5F5F5F5F5E2F5F5F5F5F5F5F5F5F5F5F5F5
310
F5F5F5F5F5F5F5F5F5F5F5F5F5F5F5F5F5F5F5F5F5F5F5F5F5F5F5F5F5F5F5F5F5F5F5F5F5F5F5F5F5F5F5F5F5F5F5F5F5F5F5F5F5F5F5F5F5F5F5F5F5F5F5F5F5F5F5F5F5F5F5F5F5F5F5F5F5F5F5F5F5F5F5F5F5F5F5F5F5F5F5F5F5F5F5F5F5F5F5F5F5F5F5F5F5F5F5F5F5F5F5F5F5F5F5F5F5F5F5F5F5F5F5E2F5F5F5
310
F5F5F5F5F5F5F5F5F5F5F5F5F5F5F5F5F5E2E2EFF5F5F5F5F5F5F5F5F5F5F5F5F5F5F5F5F5F5F5F5E2F5F5F5F5F5F5F5F5F5F5F5F5F5F5F5F5F5F5F5F5F5F5F5F5F5F5F5F5F5F5F5F5F5F5F5F5F5F5F5F5F5F5F5F5F5F5F5F5F5F5F5F5F5F5F5F5F5F5F5F5F5F5F5F5F5F5F5F5F5F5F5F5F5F5F5F5F5F5F5F5F5F5F5F5F5F5
310
F5F5F5F5F5F5F5F5F5F5F5F5F5F5F5F5F5F5F5F5F5F5F5F5F5F5F5F5F5F5F5F5F5F5F5F5F5F5F5F5F5F5F5F5F5F5F5F5F5E2F5F5F5F5F5F5F5F5F5F5F5F5F5F5F5F5F5F5F5F5E2E2EFF5F5F5F5F5F5F5F5F5F5F5F5F5F5F5F5F5F5F5F5E2F5F5F5F5F5F5F5F5F5F5F5F5F5F5F5F5F5F5F5F5F5F5F5F5F5F5F5F5F5F5F5F5F5
310
F5F5F5F5F5F5F5F5F5F5F5F5F5F5F5F5F5F5F5F5F5F5F5F5F5F5F5F5F5F5F5F5F5F5F5F5F5F5F5F5F5F5F5F5F5F5F5F5F5F5F5F5F5F5F5F5F5F5F5F5F5F5F5F5F5F5F5F5F5F5F5F5F5F5F5F5F5F5F5F5F5F5F5F5F5F5F5F5F5F5F5F5F5F5F5F5F5F5F5F5F5F5E2F5F5F5F5F5F5F5F5F5F5F5F5F5F5F5F5F5F5F5F5E2E2EFF5
310
F5F5F5F5F5F5F5F5F5F5F5F5F5F5F5F5F5F5F5E2F5F5F5F5F5F5F5F5F5F5F5F5F5F5F5F5F5F5F5F5F5F5F5F5F5F5F5F5F5F5F5F5F5F5F5F5F5F5F5F5F5F5F5F5F5F5F5F5F5F5F5F5F5F5F5F5F5F5F5F5F5F5F5F5F5F5F5F5F5F5F5F5F5F5F5F5F5F5F5F5F5F5F5F5F5F5F5F5F5F5F5F5F5F5F5F5F5F5F5F5F5F5F5F5F5F5F5
310
F5F5F5F5F5F5F5F5F5F5F5F5F5F5F5F5F5F5F5F5F5F5F5F5F5F5F5F5E2F5F5F5F5F5F5F5F5F5F5F5F5F5F5F5F5F5F5F5F5E2E2EFF5F5F5E2F5F5F5F5F5F5F5F5F5F5F5F5F5F5F5F5E2F5F5F5F5F5F5F5F5F5F5F5F5F5F5F5F5F5F5F5F5F5F5F5F5F5F5F5F5F5F5F5F5F5F5F5F5F5F5F5F5F5F5F5F5F5F5F5F5F5F5F5F5F5F5
310
F5F5F5F5F5F5F5F5F5F5F5F5F5F5F5F5F5F5F5F5F5F5F5F5F5F5F5F5F5F5F5F5F5F5F5F5F5F5F5F5F5F5F5F5F5F5F5F5F5F5F5F5F5F5F5F5F5F5F5F5F5F5F5F5F5F5F5F5F5F5F5F5F5F5F5F5F5F5F5F5F5E2F5F5F5F5F5F5F5F5F5F5F5F5F5F5F5F5E2F5F5F5E2E2EFF5F5F5E2F5F5F5F5F5F5F5F5F5F5F5F5F5F5F5F5E2F5
310
F5F5F5F5F5F5F5F5F5F5F5F5F5F5F5F5F5F5F5F5F5F5F5F5F5F5F5F5F5F5F5F5F5F5F5F5F5F5F5F5F5F5F5F5F5F5F5F5F5F5F5F5F5F5F5F5F5F5F5F5F5F5F5F5F5F5F5F5F5F5F5F5F5F5F5F5F5F5F5F5F5F5F5F5F5F5F5F5F5F5F5F5F5F5F5F5F5F5F5F5F5F5F5F5F5F5F5F5F5F5F5F5F5F5F5F5F5F5F5F5F5F5F5F5F5F5F5
310
F5F5F5F5F5F5F5E2F5F5F5F5F5F5F5F5F5F5F5F5F5F5F5F5E2F5F5F5E2E2EFF5F5F5E2F5F5F5F5F5F5F5F5F5F5F5F5F5F5F5F5E2F5F5F5F5F5F5F5F5F5F5F5F5F5F5F5F5F5F5F5F5F5F5F5F5F5F5F5F5F5F5F5F5F5F5F5F5F5F5F5F5F5F5F5F5F5F5F5F5F5F5F5F5F5F5F5F5F5F5F5F5F5F5F5F5F5F5F5F5F5F5F5F5F5F5F5
310
F5F5F5F5F5F5F5F5F5F5F5F5F5F5F5F5F5F5F5F5F5F5F5F5F5F5F5F5F5F5F5F5F5F5F5F5F5F5F5F5F5F5F5F5F5F5F5F5F5F5F5F5F5F5F5F5F5F5F5F5E2F5F5F5F5F5F5F5F5F5F5F5F5F5F5F5F5E2F5F5F5E2E2EFF5F5F5E2F5F5F5F5F5F5F5F5F5F5F5F5F5F5F5F5E2F5F5F5F5F5F5F5F5F5F5F5F5F5F5F5F5F5F5F5F5F5F5
310
F5F5F5F5F5F5F5F5F5F5F5F5F5F5F5F5F5F5F5F5F5F5F5F5F5F5F5F5F5F5F5F5F5F5F5F5F5F5F5F5F5F5F5F5F5F5F5F5F5F5F5F5F5F5F5F5F5F5F5F5F5F5F5F5F5F5F5F5F5F5F5F5F5F5F5F5F5F5F5F5F5F5F5F5F5F5F5F5F5F5F5F5F5F5F5F5F5F5F5F5F5F5F5F5F5F5F5F5F5F5F5F5F5E2F5F5F5F5F5F5F5F5F5F5F5F5F5
310
F5F5F5E2F5F5F5E2E2EFF5F5F5E2F5F5F5F5F5F5F5F5F5F5F5F5F5F5F5F5E2F5F5F5F5F5F5F5F5F5F5F5F5F5F5F5F5F5F5F5F5F5F5F5F5F5F5F5F5F5F5F5F5F5F5F5F5F5F5F5F5F5F5F5F5F5F5F5F5F5F5F5F5F5F5F5F5F5F5F5F5F5F5F5F5F5F5F5F5F5F5F5F5F5F5F5F5F5F5F5F5F5F5F5F5F5F5F5F5F5F5F5F5F5F5F5F5
310
F5F5F5F5F5F5F5F5F5F5F5F5F5F5F5F5F5F5F5F5F5F5F5F5F5F5F5F5F5F5F5F5F5F5F5F5F5F5F5E2F5F5F5F5F5F5F5F5F5F5F5F5F5F5F5F5E2F5F5F5E2E2EFF5F5F5E2F5F5F5F5F5F5F5F5F5F5F5F5F5F5F5F5E2F5F5F5F5F5F5F5F5F5F5F5F5F5F5F5F5F5F5F5F5F5F5F5F5F5F5F5F5F5F5F5F5F5F5F5F5F5F5F5F5F5F5F5
310
F5F5F5F5F5F5F5F5F5F5F5F5F5F5F5F5F5F5F5F5F5F5F5F5F5F5F5F5F5F5F5F5F5F5F5F5F5F5F5F5F5F5F5F5F5F5F5F5F5F5F5F5F5F5F5F5F5F5F5F5F5F5F5F5F5F5F5F5F5F5F5F5F5F5F5F5F5F5F5F5F5F5F5F5F5F5F5F5F5F5F5F5E2F5F5F5F5F5F5F5F5F5F5F5F5F5F5F5F5E2F5F5F5E2E2EFF5F5F5E2F5F5F5F5F5F5F5
310
F5F5F5F5F5F5F5F5F5E2F5F5F5F5F5F5F5F5F5F5F5F5F5F5F5F5F5F5F5F5F5F5F5F5F5F5F5F5F5F5F5F5F5F5F5F5F5F5F5F5F5F5F5F5F5F5F5F5F5F5F5F5F5F5F5F5F5F5F5F5F5F5F5F5F5F5F5F5F5F5F5F5F5F5F5F5F5F5F5F5F5F5F5F5F5F5F5F5F5F5F5F5F5F5F5F5F5F5F5F5F5F5F5F5F5F5F5F5F5F5F5F5F5F5F5F5F5
310
F5F5F5F5F5F5F5F5F5F5F5F5F5F5F5F5F5F5E2F5F5F5F5F5F5F5F5F5F5F5F5F5F5F5F5E2F5F5F5E2E2EFF5F5F5E2F5F5F5F5F5F5F5F5F5F5F5F5F5F5F5F5E2F5F5F5F5F5F5F5F5F5F5F5F5F5F5F5F5F5F5F5F5F5F5F5F5F5F5F5F5F5F5F5F5F5F5F5F5F5F5F5F5F5F5F5F5F5F5F5F5F5F5F5F5F5F5F5F5F5F5F5F5F5F5F5F5
310
F5F5F5F5F5F5F5F5F5F5F5F5F5F5F5F5F5F5F5F5F5F5F5F5F5F5F5F5F5F5F5F5F5F5F5F5F5F5F5F5F5F5F5F5F5F5F5F5F5F5F5F5F5F5F5F5F5F5F5F5F5F5F5F5F5F5F5F5F5F5F5E2F5F5F5F5F5F5F5F5F5F5F5F5F5F5F5F5E2F5F5F5E2E2EFF5F5F5E2F5F5F5F5F5F5F5F5F5F5F5F5F5F5F5F5E2F5F5F5F5F5F5F5F5F5F5F5
310
F5F5F5F5F5F5F5F5F5F5F5F5F5F5F5F5F5F5F5F5F5F5F5F5F5F5F5F5F5F5F5F5F5F5F5F5F5F5F5F5F5F5F5F5F5F5F5F5F5F5F5F5F5F5F5F5F5F5F5F5F5F5F5F5F5F5F5F5F5F5F5F5F5F5F5F5F5F5F5F5F5F5F5F5F5F5F5F5F5F5F5F5F5F5F5F5F5F5F5F5F5F5F5F5F5F5F5F5F5F5F5F5F5F5F5F5F5F5F5F5F5F5F5F5E2F5F5
310
F5F5F5F5F5F5F5F5F5F5F5F5F5F5E2F5F5F5E2E2EFF5F5F5E2F5F5F5F5F5F5F5F5F5F5F5F5F5F5F5F5E2F5F5F5F5F5F5F5F5F5F5F5F5F5F5F5F5F5F5F5F5F5F5F5F5F5F5F5F5F5F5F5F5F5F5F5F5F5F5F5F5F5F5F5F5F5F5F5F5F5F5F5F5F5F5F5F5F5F5F5F5F5F5F5F5F5F5F5F5F5F5F5F5F5F5F5F5F5F5F5F5F5F5F5F5F5
310
F5F5F5F5F5F5F5F5F5F5F5F5F5F5F5F5F5F5F5F5F5F5F5F5F5F5F5F5F5F5F5F5F5F5F5F5F5F5F5F5F5F5F5F5F5F5F5F5F5F5E2F5F5F5F5F5F5F5F5F5F5F5F5F5F5F5F5E2F5F5F5E2E2EFF5F5F5E2F5F5F5F5F5F5F5F5F5F5F5F5F5F5F5F5E2F5F5F5F5F5F5F5F5F5F5F5F5F5F5F5F5F5F5F5F5F5F5F5F5F5F5F5F5F5F5F5F5
310
F5F5F5F5F5F5F5F5F5F5F5F5F5F5F5F5F5F5F5F5F5F5F5F5F5F5F5F5F5F5F5F5F5F5F5F5F5F5F5F5F5F5F5F5F5F5F5F5F5F5F5F5F5F5F5F5F5F5F5F5F5F5F5F5F5F5F5F5F5F5F5F5F5F5F5F5F5F5F5F5F5F5F5F5F5F5F5F5F5F5F5F5F5F5F5F5F5F5F5F5F5F5F5E2F5F5F5F5F5F5F5F5F5F5F5F5F5F5F5F5E2F5F5F5E2E2EF
310
F5F5F5E2F5F5F5F5F5F5F5F5F5F5F5F5F5F5F5F5E2F5F5F5F5F5F5F5F5F5F5F5F5F5F5F5F5F5F5F5F5F5F5F5F5F5F5F5F5F5F5F5F5F5F5F5F5F5F5F5F5F5F5F5F5F5F5F5F5F5F5F5F5F5F5F5F5F5F5F5F5F5F5F5F5F5F5F5F5F5F5F5F5F5F5F5F5F5F5F5F5F5F5F5F5F5F5F5F5F5F5F5F5F5F5F5F5F5F5F5F5F5F5F5F5F5F5
310
F5F5F5F5F5F5F5F5F5F5F5F5F5F5F5F5F5F5F5F5F5F5F5F5F5F5F5F5F5E2F5F5F5F5F5F5F5F5F5F5F5F5F5F5F5F5E2F5F5F5E2E2EFF5F5F5E2F5F5F5F5F5F5F5F5F5F5F5F5F5F5F5F5E2F5F5F5F5F5F5F5F5F5F5F5F5F5F5F5F5F5F5F5F5F5F5F5F5F5F5F5F5F5F5F5F5F5F5F5F5F5F5F5F5F5F5F5F5F5F5F5F5F5F5F5F5F5
310
F5F5F5F5F5F5F5F5F5F5F5F5F5F5F5F5F5F5F5F5F5F5F5F5F5F5F5F5F5F5F5F5F5F5F5F5F5F5F5F5F5F5F5F5F5F5F5F5F5F5F5F5F5F5F5F5F5F5F5F5F5F5F5F5F5F5F5F5F5F5F5F5F5F5F5F5F5F5F5F5F5F5E2F5F5F5F5F5F5F5F5F5F5F5F5F5F5F5F5E2F5F5F5E2E2EFF5F5F5E2F5F5F5F5F5F5F5F5F5F5F5F5F5F5F5F5E2
310
F5F5F5F5F5F5F5F5F5F5F5F5F5F5F5F5F5F5F5F5F5F5F5F5F5F5F5F5F5F5F5F5F5F5F5F5F5F5F5F5F5F5F5F5F5F5F5F5F5F5F5F5F5F5F5F5F5F5F5F5F5F5F5F5F5F5F5F5F5F5F5F5F5F5F5F5F5F5F5F5F5F5F5F5F5F5F5F5F5F5F5F5F5F5F5F5F5F5F5F5F5F5F5F5F5F5F5F5F5F5F5F5F5F5F5F5F5F5F5F5F5F5F5F5F5F5F5
310
F5F5F5F5F5F5F5F5E2F5F5F5F5F5F5F5F5F5F5F5F5F5F5F5F5E2F5F5F5E2E2EFF5F5F5E2F5F5F5F5F5F5F5F5F5F5F5F5F5F5F5F5E2F5F5F5F5F5F5F5F5F5F5F5F5F5F5F5F5F5F5F5F5F5F5F5F5F5F5F5F5F5F5F5F5F5F5F5F5F5F5F5F5F5F5F5F5F5F5F5F5F5F5F5F5F5F5F5F5F5F5F5F5F5F5F5F5F5F5F5F5F5F5F5F5F5F5
310
F5F5F5F5F5F5F5F5F5F5F5F5F5F5F5F5F5F5F5F5F5F5F5F5F5F5F5F5F5F5F5F5F5F5F5F5F5F5F5F5F5F5F5F5F5F5F5F5F5F5F5F5F5F5F5F5F5F5F5F5F5E2F5F5F5F5F5F5F5F5F5F5F5F5F5F5F5F5E2F5F5F5E2E2EFF5F5F5E2F5F5F5F5F5F5F5F5F5F5F5F5F5F5F5F5E2F5F5F5F5F5F5F5F5F5F5F5F5F5F5F5F5F5F5F5F5F5
310
F5F5F5F5F5F5F5F5F5F5F5F5F5F5F5F5F5F5F5F5F5F5F5F5F5F5F5F5F5F5F5F5F5F5F5F5F5F5F5F5F5F5F5F5F5F5F5F5F5F5F5F5F5F5F5F5F5F5F5F5F5F5F5F5F5F5F5F5F5F5F5F5F5F5F5F5F5F5F5F5F5F5F5F5F5F5F5F5F5F5F5F5F5F5F5F5F5F5F5F5F5F5F5F5F5F5F5F5F5F5F5F5F5F5E2F5F5F5F5F5F5F5F5F5F5F5F5
310
F5F5F5F5E2F5F5F5E2E2EFF5F5F5E2F5F5F5F5F5F5F5F5F5F5F5F5F5F5F5F5E2F5F5F5F5F5F5F5F5F5F5F5F5F5F5F5F5F5F5F5F5F5F5F5F5F5F5F5F5F5F5F5F5F5F5F5F5F5F5F5F5F5F5F5F5F5F5F5F5F5F5F5F5F5F5F5F5F5F5F5F5F5F5F5F5F5F5F5F5F5F5F5F5F5F5F5F5F5F5F5F5F5F5F5F5F5F5F5F5F5F5F5F5F5F5F5
310
F5F5F5F5F5F5F5F5F5F5F5F5F5F5F5F5F5F5F5F5F5F5F5F5F5F5F5F5F5F5F5F5F5F5F5F5F5F5F5F5E2F5F5F5F5F5F5F5F5F5F5F5F5F5F5F5F5E2F5F5F5E2E2EFF5F5F5F5F5F5F5F5F5F5F5F5F5F5F5F5F5F5F5F5E2F5F5F5F5F5F5F5F5F5F5F5F5F5F5F5F5F5F5F5F5F5F5F5F5F5F5F5F5F5F5F5F5F5F5F5F5F5F5F5F5F5F5
310
F5F5F5F5F5F5F5F5F5F5F5F5F5F5F5F5F5F5F5F5F5F5F5F5F5F5F5F5F5F5F5F5F5F5F5F5F5F5F5F5F5F5F5F5F5F5F5F5F5F5F5F5F5F5F5F5F5F5F5F5F5F5F5F5F5F5F5F5F5F5F5F5F5F5F5F5F5F5F5F5F5F5F5F5F5F5F5F5F5F5F5F5F5E2F5F5F5F5F5F5F5F5F5F5F5F5F5F5F5F5F5F5F5F5E2E2EFF5F5F5F5F5F5F5F5F5F5
310
F5F5F5F5F5F5F5F5F5F5E2F5F5F5F5F5F5F5F5F5F5F5F5F5F5F5F5F5F5F5F5F5F5F5F5F5F5F5F5F5F5F5F5F5F5F5F5F5F5F5F5F5F5F5F5F5F5F5F5F5F5F5F5F5F5F5F5F5F5F5F5F5F5F5F5F5F5F5F5F5F5F5F5F5F5F5F5F5F5F5F5F5F5F5F5F5F5F5F5F5F5F5F5F5F5F5F5F5F5F5F5F5F5F5F5F5F5F5F5F5F5F5F5F5F5F5F5
310
F5F5F5F5F5F5F5F5F5F5F5F5F5F5F5F5F5F5F5E2F5F5F5F5F5F5F5F5F5F5F5F5F5F5F5F5F5F5F5F5E2E2EFF5F5F5F5F5F5F5F5F5F5F5F5F5F5F5F5F5F5F5F5E2F5F5F5F5F5F5F5F5F5F5F5F5F5F5F5F5F5F5F5F5F5F5F5F5F5F5F5F5F5F5F5F5F5F5F5F5F5F5F5F5F5F5F5F5F5F5F5F5F5F5F5F5F5F5F5F5F5F5F5F5F5F5F5
310
F5F5F5F5F5F5F5F5F5F5F5F5F5F5F5F5F5F5F5F5F5F5F5F5F5F5F5F5F5F5F5F5F5F5F5F5F5F5F5F5F5F5F5F5F5F5F5F5F5F5F5F5F5F5F5F5F5F5F5F5F5F5F5F5F5F5F5F5F5F5F5F5E2F5F5F5F5F5F5F5F5F5F5F5F5F5F5F5F5F5F5F5F5E2E2EFF5F5F5F5F5F5F5F5F5F5F5F5F5F5F5F5F5F5F5F5E2F5F5F5F5F5F5F5F5F5F5
310
F5F5F5F5F5F5F5F5F5F5F5F5F5F5F5F5F5F5F5F5F5F5F5F5F5F5F5F5F5F5F5F5F5F5F5F5F5F5F5F5F5F5F5F5F5F5F5F5F5F5F5F5F5F5F5F5F5F5F5F5F5F5F5F5F5F5F5F5F5F5F5F5F5F5F5F5F5F5F5F5F5F5F5F5F5F5F5F5F5F5F5F5F5F5F5F5F5F5F5F5F5F5F5F5F5F5F5F5F5F5F5F5F5F5F5F5F5F5F5F5F5F5F5F5F5E2F5
310
F5F5F5F5F5F5F5F5F5F5F5F5F5F5F5F5F5F5F5E2E2EFF5F5F5F5F5F5F5F5F5F5F5F5F5F5F5F5F5F5F5F5E2F5F5F5F5F5F5F5F5F5F5F5F5F5F5F5F5F5F5F5F5F5F5F5F5F5F5F5F5F5F5F5F5F5F5F5F5F5F5F5F5F5F5F5F5F5F5F5F5F5F5F5F5F5F5F5F5F5F5F5F5F5F5F5F5F5F5F5F5F5F5F5F5F5F5F5F5F5F5F5F5F5F5F5F5
310
F5F5F5F5F5F5F5F5F5F5F5F5F5F5F5F5F5F5F5F5F5F5F5F5F5F5F5F5F5F5F5F5F5F5F5F5F5F5F5F5F5F5F5F5F5F5F5F5F5F5F5E2F5F5F5F5F5F5F5F5F5F5F5F5F5F5F5F5F5F5F5F5E2E2EFF5F5F5F5F5F5F5F5F5F5F5F5F5F5F5F5F5F5F5F5E2F5F5F5F5F5F5F5F5F5F5F5F5F5F5F5F5F5F5F5F5F5F5F5F5F5F5F5F5F5F5F5
310
F5F5F5F5F5F5F5F5F5F5F5F5F5F5F5F5F5F5F5F5F5F5F5F5F5F5F5F5F5F5F5F5F5F5F5F5F5F5F5F5F5F5F5F5F5F5F5F5F5F5F5F5F5F5F5F5F5F5F5F5F5F5F5F5F5F5F5F5F5F5F5F5F5F5F5F5F5F5F5F5F5F5F5F5F5F5F5F5F5F5F5F5F5F5F5F5F5F5F5F5F5F5F5F5E2F5F5F5F5F5F5F5F5F5F5F5F5F5F5F5F5F5F5F5F5E2E2
310
EFF5F5F5F5F5F5F5F5F5F5F5F5F5F5F5F5F5F5F5F5E2F5F5F5F5F5F5F5F5F5F5F5F5F5F5F5F5F5F5F5F5F5F5F5F5F5F5F5F5F5F5F5F5F5F5F5F5F5F5F5F5F5F5F5F5F5F5F5F5F5F5F5F5F5F5F5F5F5F5F5F5F5F5F5F5F5F5F5F5F5F5F5F5F5F5F5F5F5F5F5F5F5F5F5F5F5F5F5F5F5F5F5F5F5F5F5F5F5F5F5F5F5F5F5F5F5
310
F5F5F5F5F5F5F5F5F5F5F5F5F5F5F5F5F5F5F5F5F5F5F5F5F5F5F5F5F5F5E2F5F5F5F5F5F5F5F5F5F5F5F5F5F5F5F5F5F5F5F5E2E2EFF5F5F5F5F5F5F5F5F5F5F5F5F5F5F5F5F5F5F5F5E2F5F5F5F5F5F5F5F5F5F5F5F5F5F5F5F5F5F5F5F5F5F5F5F5F5F5F5F5F5F5F5F5F5F5F5F5F5F5F5F5F5F5F5F5F5F5F5F5F5F5F5F5
310
F5F5F5F5F5F5F5F5F5F5F5F5F5F5F5F5F5F5F5F5F5F5F5F5F5F5F5F5F5F5F5F5F5F5F5F5F5F5F5F5F5F5F5F5F5F5F5F5F5F5F5F5F5F5F5F5F5F5F5F5F5F5F5F5F5F5F5F5F5F5F5F5F5F5F5F5F5F5F5F5F5F5F5E2F5F5F5F5F5F5F5F5F5F5F5F5F5F5F5F5F5F5F5F5E2E2EFF5F5F5F5F5F5F5F5F5F5F5F5F5F5F5F5F5F5F5F5
310
E2F5F5F5F5F5F5F5F5F5F5F5F5F5F5F5F5F5F5F5F5F5F5F5F5F5F5F5F5F5F5F5F5F5F5F5F5F5F5F5F5F5F5F5F5F5F5F5F5F5F5F5F5F5F5F5F5F5F5F5F5F5F5F5F5F5F5F5F5F5F5F5F5F5F5F5F5F5F5F5F5F5F5F5F5F5F5F5F5F5F5F5F5F5F5F5F5F5F5F5F5F5F5F5F5F5F5F5F5F5F5F5F5F5F5F5F5F5F5F5F5F5F5F5F5F5F5
310
F5F5F5F5F5F5F5F5F5E2F5F5F5F5F5F5F5F5F5F5F5F5F5F5F5F5F5F5F5F5E2E2EFF5F5F5E2F5F5F5F5F5F5F5F5F5F5F5F5F5F5F5F5E2F5F5F5F5F5F5F5F5F5F5F5F5F5F5F5F5F5F5F5F5F5F5F5F5F5F5F5F5F5F5F5F5F5F5F5F5F5F5F5F5F5F5F5F5F5F5F5F5F5F5F5F5F5F5F5F5F5F5F5F5F5F5F5F5F5F5F5F5F5F5F5F5F5
310
F5F5F5F5F5F5F5F5F5F5F5F5F5F5F5F5F5F5F5F5F5F5F5F5F5F5F5F5F5F5F5F5F5F5F5F5F5F5F5F5F5F5F5F5F5F5F5F5F5F5F5F5F5F5F5F5F5F5F5F5F5F5E2F5F5F5F5F5F5F5F5F5F5F5F5F5F5F5F5E2F5F5F5E2E2EFF5F5F5E2F5F5F5F5F5F5F5F5F5F5F5F5F5F5F5F5E2F5F5F5F5F5F5F5F5F5F5F5F5F5F5F5F5F5F5F5F5
310
F5F5F5F5F5F5F5F5F5F5F5F5F5F5F5F5F5F5F5F5F5F5F5F5F5F5F5F5F5F5F5F5F5F5F5F5F5F5F5F5F5F5F5F5F5F5F5F5F5F5F5F5F5F5F5F5F5F5F5F5F5F5F5F5F5F5F5F5F5F5F5F5F5F5F5F5F5F5F5F5F5F5F5F5F5F5F5F5F5F5F5F5F5F5F5F5F5F5F5F5F5F5F5F5F5F5F5F5F5F5F5F5F5F5F5E2F5F5F5F5F5F5F5F5F5F5F5
310
F5F5F5F5F5E2F5F5F5E2E2EFF5F5F5E2F5F5F5F5F5F5F5F5F5F5F5F5F5F5F5F5E2F5F5F5F5F5F5F5F5F5F5F5F5F5F5F5F5F5F5F5F5F5F5F5F5F5F5F5F5F5F5F5F5F5F5F5F5F5F5F5F5F5F5F5F5F5F5F5F5F5F5F5F5F5F5F5F5F5F5F5F5F5F5F5F5F5F5F5F5F5F5F5F5F5F5F5F5F5F5F5F5F5F5F5F5F5F5F5F5F5F5F5F5F5F5
310
F5F5F5F5F5F5F5F5F5F5F5F5F5F5F5F5F5F5F5F5F5F5F5F5F5F5F5F5F5F5F5F5F5F5F5F5F5F5F5F5F5E2F5F5F5F5F5F5F5F5F5F5F5F5F5F5F5F5E2F5F5F5E2E2EFF5F5F5E2F5F5F5F5F5F5F5F5F5F5F5F5F5F5F5F5E2F5F5F5F5F5F5F5F5F5F5F5F5F5F5F5F5F5F5F5F5F5F5F5F5F5F5F5F5F5F5F5F5F5F5F5F5F5F5F5F5F5
310
F5F5F5F5F5F5F5F5F5F5F5F5F5F5F5F5F5F5F5F5F5F5F5F5F5F5F5F5F5F5F5F5F5F5F5F5F5F5F5F5F5F5F5F5F5F5F5F5F5F5F5F5F5F5F5F5F5F5F5F5F5F5F5F5F5F5F5F5F5F5F5F5F5F5F5F5F5F5F5F5F5F5F5F5F5F5F5F5F5F5F5F5F5F5E2F5F5F5F5F5F5F5F5F5F5F5F5F5F5F5F5E2F5F5F5E2E2EFF5F5F5E2F5F5F5F5F5
310
F5F5F5F5F5F5F5F5F5F5F5E2F5F5F5F5F5F5F5F5F5F5F5F5F5F5F5F5F5F5F5F5F5F5F5F5F5F5F5F5F5F5F5F5F5F5F5F5F5F5F5F5F5F5F5F5F5F5F5F5F5F5F5F5F5F5F5F5F5F5F5F5F5F5F5F5F5F5F5F5F5F5F5F5F5F5F5F5F5F5F5F5F5F5F5F5F5F5F5F5F5F5F5F5F5F5F5F5F5F5F5F5F5F5F5F5F5F5F5F5F5F5F5F5F5F5F5
310
F5F5F5F5F5F5F5F5F5F5F5F5F5F5F5F5F5F5F5F5E2F5F5F5F5F5F5F5F5F5F5F5F5F5F5F5F5E2F5F5F5E2E2EFF5F5F5E2F5F5F5F5F5F5F5F5F5F5F5F5F5F5F5F5E2F5F5F5F5F5F5F5F5F5F5F5F5F5F5F5F5F5F5F5F5F5F5F5F5F5F5F5F5F5F5F5F5F5F5F5F5F5F5F5F5F5F5F5F5F5F5F5F5F5F5F5F5F5F5F5F5F5F5F5F5F5F5
310
F5F5F5F5F5F5F5F5F5F5F5F5F5F5F5F5F5F5F5F5F5F5F5F5F5F5F5F5F5F5F5F5F5F5F5F5F5F5F5F5F5F5F5F5F5F5F5F5F5F5F5F5F5F5F5F5F5F5F5F5F5F5F5F5F5F5F5F5F5F5F5F5F5E2F5F5F5F5F5F5F5F5F5F5F5F5F5F5F5F5E2F5F5F5E2E2EFF5F5F5E2F5F5F5F5F5F5F5F5F5F5F5F5F5F5F5F5E2F5F5F5F5F5F5F5F5F5
310
F5F5F5F5F5F5F5F5F5F5F5F5F5F5F5F5F5F5F5F5F5F5F5F5F5F5F5F5F5F5F5F5F5F5F5F5F5F5F5F5F5F5F5F5F5F5F5F5F5F5F5F5F5F5F5F5F5F5F5F5F5F5F5F5F5F5F5F5F5F5F5F5F5F5F5F5F5F5F5F5F5F5F5F5F5F5F5F5F5F5F5F5F5F5F5F5F5F5F5F5F5F5F5F5F5F5F5F5F5F5F5F5F5F5F5F5F5F5F5F5F5F5F5F5F5F5E2
310
F5F5F5F5F5F5F5F5F5F5F5F5F5F5F5F5E2F5F5F5E2E2EFF5F5F5E2F5F5F5F5F5F5F5F5F5F5F5F5F5F5F5F5E2F5F5F5F5F5F5F5F5F5F5F5F5F5F5F5F5F5F5F5F5F5F5F5F5F5F5F5F5F5F5F5F5F5F5F5F5F5F5F5F5F5F5F5F5F5F5F5F5F5F5F5F5F5F5F5F5F5F5F5F5F5F5F5F5F5F5F5F5F5F5F5F5F5F5F5F5F5F5F5F5F5F5F5
310
F5F5F5F5F5F5F5F5F5F5F5F5F5F5F5F5F5F5F5F5F5F5F5F5F5F5F5F5F5F5F5F5F5F5F5F5F5F5F5F5F5F5F5F5F5F5F5F5F5F5F5F5E2F5F5F5F5F5F5F5F5F5F5F5F5F5F5F5F5E2F5F5F5E2E2EFF5F5F5E2F5F5F5F5F5F5F5F5F5F5F5F5F5F5F5F5E2F5F5F5F5F5F5F5F5F5F5F5F5F5F5F5F5F5F5F5F5F5F5F5F5F5F5F5F5F5F5
310
F5F5F5F5F5F5F5F5F5F5F5F5F5F5F5F5F5F5F5F5F5F5F5F5F5F5F5F5F5F5F5F5F5F5F5F5F5F5F5F5F5F5F5F5F5F5F5F5F5F5F5F5F5F5F5F5F5F5F5F5F5F5F5F5F5F5F5F5F5F5F5F5F5F5F5F5F5F5F5F5F5F5F5F5F5F5F5F5F5F5F5F5F5F5F5F5F5F5F5F5F5F5F5F5F5E2F5F5F5F5F5F5F5F5F5F5F5F5F5F5F5F5E2F5F5F5E2
310
E2EFF5F5F5E2F5F5F5F5F5F5F5F5F5F5F5F5F5F5F5F5E2F5F5F5F5F5F5F5F5F5F5F5F5F5F5F5F5F5F5F5F5F5F5F5F5F5F5F5F5F5F5F5F5F5F5F5F5F5F5F5F5F5F5F5F5F5F5F5F5F5F5F5F5F5F5F5F5F5F5F5F5F5F5F5F5F5F5F5F5F5F5F5F5F5F5F5F5F5F5F5F5F5F5F5F5F5F5F5F5F5F5F5F5F5F5F5F5F5F5F5F5F5F5F5F5
310
F5F5F5F5F5F5F5F5F5F5F5F5F5F5F5F5F5F5F5F5F5F5F5F5F5F5F5F5F5F5F5E2F5F5F5F5F5F5F5F5F5F5F5F5F5F5F5F5E2F5F5F5E2E2EFF5F5F5E2F5F5F5F5F5F5F5F5F5F5F5F5F5F5F5F5E2F5F5F5F5F5F5F5F5F5F5F5F5F5F5F5F5F5F5F5F5F5F5F5F5F5F5F5F5F5F5F5F5F5F5F5F5F5F5F5F5F5F5F5F5F5F5F5F5F5F5F5
310
F5F5F5F5F5F5F5F5F5F5F5F5F5F5F5F5F5F5F5F5F5F5F5F5F5F5F5F5F5F5F5F5F5F5F5F5F5F5F5F5F5F5F5F5F5F5F5F5F5F5F5F5F5F5F5F5F5F5F5F5F5F5F5F5F5F5F5F5F5F5F5F5F5F5F5F5F5F5F5F5F5F5F5F5E2F5F5F5F5F5F5F5F5F5F5F5F5F5F5F5F5E2F5F5F5E2E2EFF5F5F5E2F5F5F5F5F5F5F5F5F5F5F5F5F5F5F5
310
F5E2F5F5F5F5F5F5F5F5F5F5F5F5F5F5F5F5F5F5F5F5F5F5F5F5F5F5F5F5F5F5F5F5F5F5F5F5F5F5F5F5F5F5F5F5F5F5F5F5F5F5F5F5F5F5F5F5F5F5F5F5F5F5F5F5F5F5F5F5F5F5F5F5F5F5F5F5F5F5F5F5F5F5F5F5F5F5F5F5F5F5F5F5F5F5F5F5F5F5F5F5F5F5F5F5F5F5F5F5F5F5F5F5F5F5F5F5F5F5F5F5F5F5F5F5F5
310
F5F5F5F5F5F5F5F5F5F5E2F5F5F5F5F5F5F5F5F5F5F5F5F5F5F5F5E2F5F5F5E2E2EFF5F5F5E2F5F5F5F5F5F5F5F5F5F5F5F5F5F5F5F5E2F5F5F5F5F5F5F5F5F5F5F5F5F5F5F5F5F5F5F5F5F5F5F5F5F5F5F5F5F5F5F5F5F5F5F5F5F5F5F5F5F5F5F5F5F5F5F5F5F5F5F5F5F5F5F5F5F5F5F5F5F5F5F5F5F5F5F5F5F5F5F5F5
310
F5F5F5F5F5F5F5F5F5F5F5F5F5F5F5F5F5F5F5F5F5F5F5F5F5F5F5F5F5F5F5F5F5F5F5F5F5F5F5F5F5F5F5F5F5F5F5F5F5F5F5F5F5F5F5F5F5F5F5F5F5F5F5E2F5F5F5F5F5F5F5F5F5F5F5F5F5F5F5F5E2F5F5F5E2E2EFF5F5F5E2F5F5F5F5F5F5F5F5F5F5F5F5F5F5F5F5E2F5F5F5F5F5F5F5F5F5F5F5F5F5F5F5F5F5F5F5
310
F5F5F5F5F5F5F5F5F5F5F5F5F5F5F5F5F5F5F5F5F5F5F5F5F5F5F5F5F5F5F5F5F5F5F5F5F5F5F5F5F5F5F5F5F5F5F5F5F5F5F5F5F5F5F5F5F5F5F5F5F5F5F5F5F5F5F5F5F5F5F5F5F5F5F5F5F5F5F5F5F5F5F5F5F5F5F5F5F5F5F5F5F5F5F5F5F5F5F5F5F5F5F5F5F5F5F5F5F5F5F5F5F5F5F5F5E2F5F5F5F5F5F5F5F5F5F5
310
F5F5F5F5F5F5E2F5F5F5E2E2EFF5F5F5E2F5F5F5F5F5F5F5F5F5F5F5F5F5F5F5F5E2F5F5F5F5F5F5F5F5F5F5F5F5F5F5F5F5F5F5F5F5F5F5F5F5F5F5F5F5F5F5F5F5F5F5F5F5F5F5F5F5F5F5F5F5F5F5F5F5F5F5F5F5F5F5F5F5F5F5F5F5F5F5F5F5F5F5F5F5F5F5F5F5F5F5F5F5F5F5F5F5F5F5F5F5F5F5F5F5F5F5F5F5F5
310
F5F5F5F5F5F5F5F5F5F5F5F5F5F5F5F5F5F5F5F5F5F5F5F5F5F5F5F5F5F5F5F5F5F5F5F5F5F5F5F5F5F5E2F5F5F5F5F5F5F5F5F5F5F5F5F5F5F5F5E2F5F5F5E2E2EFF5F5F5E2F5F5F5F5F5F5F5F5F5F5F5F5F5F5F5F5E2F5F5F5F5F5F5F5F5F5F5F5F5F5F5F5F5F5F5F5F5F5F5F5F5F5F5F5F5F5F5F5F5F5F5F5F5F5F5F5F5
310
F5F5F5F5F5F5F5F5F5F5F5F5F5F5F5F5F5F5F5F5F5F5F5F5F5F5F5F5F5F5F5F5F5F5F5F5F5F5F5F5F5F5F5F5F5F5F5F5F5F5F5F5F5F5F5F5F5F5F5F5F5F5F5F5F5F5F5F5F5F5F5F5F5F5F5F5F5F5F5F5F5F5F5F5F5F5F5F5F5F5F5F5F5F5F5E2F5F5F5F5F5F5F5F5F5F5F5F5F5F5F5F5E2F5F5F5E2E2EFF5F5F5E2F5F5F5F5
310
F5F5F5F5F5F5F5F5F5F5F5F5E2F5F5F5F5F5F5F5F5F5F5F5F5F5F5F5F5F5F5F5F5F5F5F5F5F5F5F5F5F5F5F5F5F5F5F5F5F5F5F5F5F5F5F5F5F5F5F5F5F5F5F5F5F5F5F5F5F5F5F5F5F5F5F5F5F5F5F5F5F5F5F5F5F5F5F5F5F5F5F5F5F5F5F5F5F5F5F5F5F5F5F5F5F5F5F5F5F5F5F5F5F5F5F5F5F5F5F5F5F5F5F5F5F5F5
310
F5F5F5F5F5F5F5F5F5F5F5F5F5F5F5F5F5F5F5F5F5E2F5F5F5F5F5F5F5F5F5F5F5F5F5F5F5F5E2F5F5F5E2E2EFF5F5F5F5F5F5F5F5F5F5F5F5F5F5F5F5F5F5F5F5E2F5F5F5F5F5F5F5F5F5F5F5F5F5F5F5F5F5F5F5F5F5F5F5F5F5F5F5F5F5F5F5F5F5F5F5F5F5F5F5F5F5F5F5F5F5F5F5F5F5F5F5F5F5F5F5F5F5F5F5F5F5
310
F5F5F5F5F5F5F5F5F5F5F5F5F5F5F5F5F5F5F5F5F5F5F5F5F5F5F5F5F5F5F5F5F5F5F5F5F5F5F5F5F5F5F5F5F5F5F5F5F5F5F5F5F5F5F5F5F5F5F5F5F5F5F5F5F5F5F5F5F5F5F5F5F5F5E2F5F5F5F5F5F5F5F5F5F5F5F5F5F5F5F5F5F5F5F5E2E2EFF5F5F5F5F5F5F5F5F5F5F5F5F5F5F5F5F5F5F5F5E2F5F5F5F5F5F5F5F5
310
F5F5F5F5F5F5F5F5F5F5F5F5F5F5F5F5F5F5F5F5F5F5F5F5F5F5F5F5F5F5F5F5F5F5F5F5F5F5F5F5F5F5F5F5F5F5F5F5F5F5F5F5F5F5F5F5F5F5F5F5F5F5F5F5F5F5F5F5F5F5F5F5F5F5F5F5F5F5F5F5F5F5F5F5F5F5F5F5F5F5F5F5F5F5F5F5F5F5F5F5F5F5F5F5F5F5F5F5F5F5F5F5F5F5F5F5F5F5F5F5F5F5F5F5F5F5F5
310
E2F5F5F5F5F5F5F5F5F5F5F5F5F5F5F5F5F5F5F5F5E2E2EFF5F5F5F5F5F5F5F5F5F5F5F5F5F5F5F5F5F5F5F5E2F5F5F5F5F5F5F5F5F5F5F5F5F5F5F5F5F5F5F5F5F5F5F5F5F5F5F5F5F5F5F5F5F5F5F5F5F5F5F5F5F5F5F5F5F5F5F5F5F5F5F5F5F5F5F5F5F5F5F5F5F5F5F5F5F5F5F5F5F5F5F5F5F5F5F5F5F5F5F5F5F5F5
310
F5F5F5F5F5F5F5F5F5F5F5F5F5F5F5F5F5F5F5F5F5F5F5F5F5F5F5F5F5F5F5F5F5F5F5F5F5F5F5F5F5F5F5F5F5F5F5F5F5F5F5F5F5E2F5F5F5F5F5F5F5F5F5F5F5F5F5F5F5F5F5F5F5F5E2E2EFF5F5F5F5F5F5F5F5F5F5F5F5F5F5F5F5F5F5F5F5E2F5F5F5F5F5F5F5F5F5F5F5F5F5F5F5F5F5F5F5F5F5F5F5F5F5F5F5F5F5
310
F5F5F5F5F5F5F5F5F5F5F5F5F5F5F5F5F5F5F5F5F5F5F5F5F5F5F5F5F5F5F5F5F5F5F5F5F5F5F5F5F5F5F5F5F5F5F5F5F5F5F5F5F5F5F5F5F5F5F5F5F5F5F5F5F5F5F5F5F5F5F5F5F5F5F5F5F5F5F5F5F5F5F5F5F5F5F5F5F5F5F5F5F5F5F5F5F5F5F5F5F5F5F5F5F5F5E2F5F5F5F5F5F5F5F5F5F5F5F5F5F5F5F5F5F5F5F5
310
E2E2EFF5F5F5F5F5F5F5F5F5F5F5F5F5F5F5F5F5F5F5F5E2F5F5F5F5F5F5F5F5F5F5F5F5F5F5F5F5F5F5F5F5F5F5F5F5F5F5F5F5F5F5F5F5F5F5F5F5F5F5F5F5F5F5F5F5F5F5F5F5F5F5F5F5F5F5F5F5F5F5F5F5F5F5F5F5F5F5F5F5F5F5F5F5F5F5F5F5F5F5F5F5F5F5F5F5F5F5F5F5F5F5F5F5F5F5F5F5F5F5F5F5F5F5F5
310
F5F5F5F5F5F5F5F5F5F5F5F5F5F5F5F5F5F5F5F5F5F5F5F5F5F5F5F5F5F5F5F5E2F5F5F5F5F5F5F5F5F5F5F5F5F5F5F5F5F5F5F5F5E2E2EFF5F5F5F5F5F5F5F5F5F5F5F5F5F5F5F5F5F5F5F5E2F5F5F5F5F5F5F5F5F5F5F5F5F5F5F5F5F5F5F5F5F5F5F5F5F5F5F5F5F5F5F5F5F5F5F5F5F5F5F5F5F5F5F5F5F5F5F5F5F5F5
310
F5F5F5F5F5F5F5F5F5F5F5F5F5F5F5F5F5F5F5F5F5F5F5F5F5F5F5F5F5F5F5F5F5F5F5F5F5F5F5F5F5F5F5F5F5F5F5F5F5F5F5F5F5F5F5F5F5F5F5F5F5F5F5F5F5F5F5F5F5F5F5F5F5F5F5F5F5F5F5F5F5F5F5F5F5E2F5F5F5F5F5F5F5F5F5F5F5F5F5F5F5F5F5F5F5F5E2E2EFF5F5F5F5F5F5F5F5F5F5F5F5F5F5F5F5F5F5
310
F5F5E2F5F5F5F5F5F5F5F5F5F5F5F5F5F5F5F5F5F5F5F5F5F5F5F5F5F5F5F5F5F5F5F5F5F5F5F5F5F5F5F5F5F5F5F5F5F5F5F5F5F5F5F5F5F5F5F5F5F5F5F5F5F5F5F5F5F5F5F5F5F5F5F5F5F5F5F5F5F5F5F5F5F5F5F5F5F5F5F5F5F5F5F5F5F5F5F5F5F5F5F5F5F5F5F5F5F5F5F5F5F5F5F5F5F5F5F5F5F5F5F5F5F5F5F5
310
F5F5F5F5F5F5F5F5F5F5F5E2F5F5F5F5F5F5F5F5F5F5F5F5F5F5F5F5F5F5F5F5E2E2EFF5F5F5F5F5F5F5F5F5F5F5F5F5F5F5F5F5F5F5F5E2F5F5F5F5F5F5F5F5F5F5F5F5F5F5F5F5F5F5F5F5F5F5F5F5F5F5F5F5F5F5F5F5F5F5F5F5F5F5F5F5F5F5F5F5F5F5F5F5F5F5F5F5F5F5F5F5F5F5F5F5F5F5F5F5F5F5F5F5F5F5F5
310
F5F5F5F5F5F5F5F5F5F5F5F5F5F5F5F5F5F5F5F5F5F5F5F5F5F5F5F5F5F5F5F5F5F5F5F5F5F5F5F5F5F5F5F5F5F5F5F5F5F5F5F5F5F5F5F5F5F5F5F5F5F5F5F5E2F5F5F5F5F5F5F5F5F5F5F5F5F5F5F5F5F5F5F5F5E2E2EFF5F5F5F5F5F5F5F5F5F5F5F5F5F5F5F5F5F5F5F5E2F5F5F5F5F5F5F5F5F5F5F5F5F5F5F5F5F5F5
310
F5F5F5F5F5F5F5F5F5F5F5F5F5F5F5F5F5F5F5F5F5F5F5F5F5F5F5F5F5F5F5F5F5F5F5F5F5F5F5F5F5F5F5F5F5F5F5F5F5F5F5F5F5F5F5F5F5F5F5F5F5F5F5F5F5F5F5F5F5F5F5F5F5F5F5F5F5F5F5F5F5F5F5F5F5F5F5F5F5F5F5F5F5F5F5F5F5F5F5F5F5F5F5F5F5F5F5F5F5F5F5F5F5F5F5F5F5E2F5F5F5F5F5F5F5F5F5
310
F5F5F5F5F5F5F5F5F5F5F5E2E2EFF5F5F5E2F5F5F5F5F5F5F5F5F5F5F5F5F5F5F5F5E2F5F5F5F5F5F5F5F5F5F5F5F5F5F5F5F5F5F5F5F5F5F5F5F5F5F5F5F5F5F5F5F5F5F5F5F5F5F5F5F5F5F5F5F5F5F5F5F5F5F5F5F5F5F5F5F5F5F5F5F5F5F5F5F5F5F5F5F5F5F5F5F5F5F5F5F5F5F5F5F5F5F5F5F5F5F5F5F5F5F5F5F5
310
F5F5F5F5F5F5F5F5F5F5F5F5F5F5F5F5F5F5F5F5F5F5F5F5F5F5F5F5F5F5F5F5F5F5F5F5F5F5F5F5F5F5F5E2F5F5F5F5F5F5F5F5F5F5F5F5F5F5F5F5E2F5F5F5E2E2EFF5F5F5E2F5F5F5F5F5F5F5F5F5F5F5F5F5F5F5F5E2F5F5F5F5F5F5F5F5F5F5F5F5F5F5F5F5F5F5F5F5F5F5F5F5F5F5F5F5F5F5F5F5F5F5F5F5F5F5F5
310
F5F5F5F5F5F5F5F5F5F5F5F5F5F5F5F5F5F5F5F5F5F5F5F5F5F5F5F5F5F5F5F5F5F5F5F5F5F5F5F5F5F5F5F5F5F5F5F5F5F5F5F5F5F5F5F5F5F5F5F5F5F5F5F5F5F5F5F5F5F5F5F5F5F5F5F5F5F5F5F5F5F5F5F5F5F5F5F5F5F5F5F5F5F5F5F5E2F5F5F5F5F5F5F5F5F5F5F5F5F5F5F5F5E2F5F5F5E2E2EFF5F5F5E2F5F5F5
310
F5F5F5F5F5F5F5F5F5F5F5F5F5E2F5F5F5F5F5F5F5F5F5F5F5F5F5F5F5F5F5F5F5F5F5F5F5F5F5F5F5F5F5F5F5F5F5F5F5F5F5F5F5F5F5F5F5F5F5F5F5F5F5F5F5F5F5F5F5F5F5F5F5F5F5F5F5F5F5F5F5F5F5F5F5F5F5F5F5F5F5F5F5F5F5F5F5F5F5F5F5F5F5F5F5F5F5F5F5F5F5F5F5F5F5F5F5F5F5F5F5F5F5F5F5F5F5
310
F5F5F5F5F5F5F5F5F5F5F5F5F5F5F5F5F5F5F5F5F5F5E2F5F5F5F5F5F5F5F5F5F5F5F5F5F5F5F5E2F5F5F5E2E2EFF5F5F5E2F5F5F5F5F5F5F5F5F5F5F5F5F5F5F5F5E2F5F5F5F5F5F5F5F5F5F5F5F5F5F5F5F5F5F5F5F5F5F5F5F5F5F5F5F5F5F5F5F5F5F5F5F5F5F5F5F5F5F5F5F5F5F5F5F5F5F5F5F5F5F5F5F5F5F5F5F5
310
F5F5F5F5F5F5F5F5F5F5F5F5F5F5F5F5F5F5F5F5F5F5F5F5F5F5F5F5F5F5F5F5F5F5F5F5F5F5F5F5F5F5F5F5F5F5F5F5F5F5F5F5F5F5F5F5F5F5F5F5F5F5F5F5F5F5F5F5F5F5F5F5F5F5F5E2F5F5F5F5F5F5F5F5F5F5F5F5F5F5F5F5E2F5F5F5E2E2EFF5F5F5E2F5F5F5F5F5F5F5F5F5F5F5F5F5F5F5F5E2F5F5F5F5F5F5F5
310
F5F5F5F5F5F5F5F5F5F5F5F5F5F5F5F5F5F5F5F5F5F5F5F5F5F5F5F5F5F5F5F5F5F5F5F5F5F5F5F5F5F5F5F5F5F5F5F5F5F5F5F5F5F5F5F5F5F5F5F5F5F5F5F5F5F5F5F5F5F5F5F5F5F5F5F5F5F5F5F5F5F5F5F5F5F5F5F5F5F5F5F5F5F5F5F5F5F5F5F5F5F5F5F5F5F5F5F5F5F5F5F5F5F5F5F5F5F5F5F5F5F5F5F5F5F5F5
310
F5E2F5F5F5F5F5F5F5F5F5F5F5F5F5F5F5F5E2F5F5F5E2E2EFF5F5F5E2F5F5F5F5F5F5F5F5F5F5F5F5F5F5F5F5E2F5F5F5F5F5F5F5F5F5F5F5F5F5F5F5F5F5F5F5F5F5F5F5F5F5F5F5F5F5F5F5F5F5F5F5F5F5F5F5F5F5F5F5F5F5F5F5F5F5F5F5F5F5F5F5F5F5F5F5F5F5F5F5F5F5F5F5F5F5F5F5F5F5F5F5F5F5F5F5F5F5
310
F5F5F5F5F5F5F5F5F5F5F5F5F5F5F5F5F5F5F5F5F5F5F5F5F5F5F5F5F5F5F5F5F5F5F5F5F5F5F5F5F5F5F5F5F5F5F5F5F5F5F5F5F5F5E2F5F5F5F5F5F5F5F5F5F5F5F5F5F5F5F5E2F5F5F5E2E2EFF5F5F5E2F5F5F5F5F5F5F5F5F5F5F5F5F5F5F5F5E2F5F5F5F5F5F5F5F5F5F5F5F5F5F5F5F5F5F5F5F5F5F5F5F5F5F5F5F5
310
F5F5F5F5F5F5F5F5F5F5F5F5F5F5F5F5F5F5F5F5F5F5F5F5F5F5F5F5F5F5F5F5F5F5F5F5F5F5F5F5F5F5F5F5F5F5F5F5F5F5F5F5F5F5F5F5F5F5F5F5F5F5F5F5F5F5F5F5F5F5F5F5F5F5F5F5F5F5F5F5F5F5F5F5F5F5F5F5F5F5F5F5F5F5F5F5F5F5F5F5F5F5F5F5F5F5F5E2F5F5F5F5F5F5F5F5F5F5F5F5F5F5F5F5E2F5F5
310
F5E2E2EFF5F5F5E2F5F5F5F5F5F5F5F5F5F5F5F5F5F5F5F5E2F5F5F5F5F5F5F5F5F5F5F5F5F5F5F5F5F5F5F5F5F5F5F5F5F5F5F5F5F5F5F5F5F5F5F5F5F5F5F5F5F5F5F5F5F5F5F5F5F5F5F5F5F5F5F5F5F5F5F5F5F5F5F5F5F5F5F5F5F5F5F5F5F5F5F5F5F5F5F5F5F5F5F5F5F5F5F5F5F5F5F5F5F5F5F5F5F5F5F5F5F5F5
310
F5F5F5F5F5F5F5F5F5F5F5F5F5F5F5F5F5F5F5F5F5F5F5F5F5F5F5F5F5F5F5F5F5E2F5F5F5F5F5F5F5F5F5F5F5F5F5F5F5F5E2F5F5F5E2E2EFF5F5F5E2F5F5F5F5F5F5F5F5F5F5F5F5F5F5F5F5E2F5F5F5F5F5F5F5F5F5F5F5F5F5F5F5F5F5F5F5F5F5F5F5F5F5F5F5F5F5F5F5F5F5F5F5F5F5F5F5F5F5F5F5F5F5F5F5F5F5
310
F5F5F5F5F5F5F5F5F5F5F5F5F5F5F5F5F5F5F5F5F5F5F5F5F5F5F5F5F5F5F5F5F5F5F5F5F5F5F5F5F5F5F5F5F5F5F5F5F5F5F5F5F5F5F5F5F5F5F5F5F5F5F5F5F5F5F5F5F5F5F5F5F5F5F5F5F5F5F5F5F5F5F5F5F5F5E2F5F5F5F5F5F5F5F5F5F5F5F5F5F5F5F5E2F5F5F5E2E2EFF5F5F5E2F5F5F5F5F5F5F5F5F5F5F5F5F5
310
F5F5F5E2F5F5F5F5F5F5F5F5F5F5F5F5F5F5F5F5F5F5F5F5F5F5F5F5F5F5F5F5F5F5F5F5F5F5F5F5F5F5F5F5F5F5F5F5F5F5F5F5F5F5F5F5F5F5F5F5F5F5F5F5F5F5F5F5F5F5F5F5F5F5F5F5F5F5F5F5F5F5F5F5F5F5F5F5F5F5F5F5F5F5F5F5F5F5F5F5F5F5F5F5F5F5F5F5F5F5F5F5F5F5F5F5F5F5F5F5F5F5F5F5F5F5F5
310
F5F5F5F5F5F5F5F5F5F5F5F5E2F5F5F5F5F5F5F5F5F5F5F5F5F5F5F5F5E2F5F5F5E2E2EFF5F5F5E2F5F5F5F5F5F5F5F5F5F5F5F5F5F5F5F5E2F5F5F5F5F5F5F5F5F5F5F5F5F5F5F5F5F5F5F5F5F5F5F5F5F5F5F5F5F5F5F5F5F5F5F5F5F5F5F5F5F5F5F5F5F5F5F5F5F5F5F5F5F5F5F5F5F5F5F5F5F5F5F5F5F5F5F5F5F5F5
310
F5F5F5F5F5F5F5F5F5F5F5F5F5F5F5F5F5F5F5F5F5F5F5F5F5F5F5F5F5F5F5F5F5F5F5F5F5F5F5F5F5F5F5F5F5F5F5F5F5F5F5F5F5F5F5F5F5F5F5F5F5F5F5F5F5E2F5F5F5F5F5F5F5F5F5F5F5F5F5F5F5F5E2F5F5F5E2E2EFF5F5F5E2F5F5F5F5F5F5F5F5F5F5F5F5F5F5F5F5E2F5F5F5F5F5F5F5F5F5F5F5F5F5F5F5F5F5
310
F5F5F5F5F5F5F5F5F5F5F5F5F5F5F5F5F5F5F5F5F5F5F5F5F5F5F5F5F5F5F5F5F5F5F5F5F5F5F5F5F5F5F5F5F5F5F5F5F5F5F5F5F5F5F5F5F5F5F5F5F5F5F5F5F5F5F5F5F5F5F5F5F5F5F5F5F5F5F5F5F5F5F5F5F5F5F5F5F5F5F5F5F5F5F5F5F5F5F5F5F5F5F5F5F5F5F5F5F5F5F5F5F5F5F5F5F5F5E2F5F5F5F5F5F5F5F5
310
F5F5F5F5F5F5F5F5E2F5F5F5E2E2EFF5F5F5E2F5F5F5F5F5F5F5F5F5F5F5F5F5F5F5F5E2F5F5F5F5F5F5F5F5F5F5F5F5F5F5F5F5F5F5F5F5F5F5F5F5F5F5F5F5F5F5F5F5F5F5F5F5F5F5F5F5F5F5F5F5F5F5F5F5F5F5F5F5F5F5F5F5F5F5F5F5F5F5F5F5F5F5F5F5F5F5F5F5F5F5F5F5F5F5F5F5F5F5F5F5F5F5F5F5F5F5F5
310
F5F5F5F5F5F5F5F5F5F5F5F5F5F5F5F5F5F5F5F5F5F5F5F5F5F5F5F5F5F5F5F5F5F5F5F5F5F5F5F5F5F5F5F5E2F5F5F5F5F5F5F5F5F5F5F5F5F5F5F5F5E2F5F5F5E2E2EFF5F5F5E2F5F5F5F5F5F5F5F5F5F5F5F5F5F5F5F5E2F5F5F5F5F5F5F5F5F5F5F5F5F5F5F5F5F5F5F5F5F5F5F5F5F5F5F5F5F5F5F5F5F5F5F5F5F5F5
310
F5F5F5F5F5F5F5F5F5F5F5F5F5F5F5F5F5F5F5F5F5F5F5F5F5F5F5F5F5F5F5F5F5F5F5F5F5F5F5F5F5F5F5F5F5F5F5F5F5F5F5F5F5F5F5F5F5F5F5F5F5F5F5F5F5F5F5F5F5F5F5F5F5F5F5F5F5F5F5F5F5F5F5F5F5F5F5F5F5F5F5F5F5F5F5F5F5E2F5F5F5F5F5F5F5F5F5F5F5F5F5F5F5F5E2F5F5F5E2E2EFF5F5F5E2F5F5
310
F5F5F5F5F5F5F5F5F5F5F5F5F5F5E2F5F5F5F5F5F5F5F5F5F5F5F5F5F5F5F5F5F5F5F5F5F5F5F5F5F5F5F5F5F5F5F5F5F5F5F5F5F5F5F5F5F5F5F5F5F5F5F5F5F5F5F5F5F5F5F5F5F5F5F5F5F5F5F5F5F5F5F5F5F5F5F5F5F5F5F5F5F5F5F5F5F5F5F5F5F5F5F5F5F5F5F5F5F5F5F5F5F5F5F5F5F5F5F5F5F5F5F5F5F5F5F5
310
F5F5F5F5F5F5F5F5F5F5F5F5F5F5F5F5F5F5F5F5F5F5F5E2F5F5F5F5F5F5F5F5F5F5F5F5F5F5F5F5E2F5F5F5E2E2EFF5F5F5E2F5F5F5F5F5F5F5F5F5F5F5F5F5F5F5F5E2F5F5F5F5F5F5F5F5F5F5F5F5F5F5F5F5F5F5F5F5F5F5F5F5F5F5F5F5F5F5F5F5F5F5F5F5F5F5F5F5F5F5F5F5F5F5F5F5F5F5F5F5F5F5F5F5F5F5F5
310
F5F5F5F5F5F5F5F5F5F5F5F5F5F5F5F5F5F5F5F5F5F5F5F5F5F5F5F5F5F5F5F5F5F5F5F5F5F5F5F5F5F5F5F5F5F5F5F5F5F5F5F5F5F5F5F5F5F5F5F5F5F5F5F5F5F5F5F5F5F5F5F5F5F5F5F5E2F5F5F5F5F5F5F5F5F5F5F5F5F5F5F5F5E2F5F5F5E2E2EFF5F5F5E2F5F5F5F5F5F5F5F5F5F5F5F5F5F5F5F5E2F5F5F5F5F5F5
310
F5F5F5F5F5F5F5F5F5F5F5F5F5F5F5F5F5F5F5F5F5F5F5F5F5F5F5F5F5F5F5F5F5F5F5F5F5F5F5F5F5F5F5F5F5F5F5F5F5F5F5F5F5F5F5F5F5F5F5F5F5F5F5F5F5F5F5F5F5F5F5F5F5F5F5F5F5F5F5F5F5F5F5F5F5F5F5F5F5F5F5F5F5F5F5F5F5F5F5F5F5F5F5F5F5F5F5F5F5F5F5F5F5F5F5F5F5F5F5F5F5F5F5F5F5F5F5
310
F5F5E2F5F5F5F5F5F5F5F5F5F5F5F5F5F5F5F5E2F5F5F5E2E2EFF5F5F5F5F5F5F5F5F5F5F5F5F5F5F5F5F5F5F5F5E2F5F5F5F5F5F5F5F5F5F5F5F5F5F5F5F5F5F5F5F5F5F5F5F5F5F5F5F5F5F5F5F5F5F5F5F5F5F5F5F5F5F5F5F5F5F5F5F5F5F5F5F5F5F5F5F5F5F5F5F5F5F5F5F5F5F5F5F5F5F5F5F5F5F5F5F5F5F5F5F5
310
F5F5F5F5F5F5F5F5F5F5F5F5F5F5F5F5F5F5F5F5F5F5F5F5F5F5F5F5F5F5F5F5F5F5F5F5F5F5F5F5F5F5F5F5F5F5F5F5F5F5F5F5F5F5F5E2F5F5F5F5F5F5F5F5F5F5F5F5F5F5F5F5F5F5F5F5E2E2EFF5F5F5F5F5F5F5F5F5F5F5F5F5F5F5F5F5F5F5F5E2F5F5F5F5F5F5F5F5F5F5F5F5F5F5F5F5F5F5F5F5F5F5F5F5F5F5F5
310
F5F5F5F5F5F5F5F5F5F5F5F5F5F5F5F5F5F5F5F5F5F5F5F5F5F5F5F5F5F5F5F5F5F5F5F5F5F5F5F5F5F5F5F5F5F5F5F5F5F5F5F5F5F5F5F5F5F5F5F5F5F5F5F5F5F5F5F5F5F5F5F5F5F5F5F5F5F5F5F5F5F5F5F5F5F5F5F5F5F5F5F5F5F5F5F5F5F5F5F5F5F5F5F5F5F5F5F5E2F5F5F5F5F5F5F5F5F5F5F5F5F5F5F5F5F5F5
310
F5F5E2E2EFF5F5F5F5F5F5F5F5F5F5F5F5F5F5F5F5F5F5F5F5E2F5F5F5F5F5F5F5F5F5F5F5F5F5F5F5F5F5F5F5F5F5F5F5F5F5F5F5F5F5F5F5F5F5F5F5F5F5F5F5F5F5F5F5F5F5F5F5F5F5F5F5F5F5F5F5F5F5F5F5F5F5F5F5F5F5F5F5F5F5F5F5F5F5F5F5F5F5F5F5F5F5F5F5F5F5F5F5F5F5F5F5F5F5F5F5F5F5F5F5F5F5
310
F5F5F5F5F5F5F5F5F5F5F5F5F5F5F5F5F5F5F5F5F5F5F5F5F5F5F5F5F5F5F5F5F5F5E2F5F5F5F5F5F5F5F5F5F5F5F5F5F5F5F5F5F5F5F5E2E2EFF5F5F5F5F5F5F5F5F5F5F5F5F5F5F5F5F5F5F5F5E2F5F5F5F5F5F5F5F5F5F5F5F5F5F5F5F5F5F5F5F5F5F5F5F5F5F5F5F5F5F5F5F5F5F5F5F5F5F5F5F5F5F5F5F5F5F5F5F5
310
F5F5F5F5F5F5F5F5F5F5F5F5F5F5F5F5F5F5F5F5F5F5F5F5F5F5F5F5F5F5F5F5F5F5F5F5F5F5F5F5F5F5F5F5F5F5F5F5F5F5F5F5F5F5F5F5F5F5F5F5F5F5F5F5F5F5F5F5F5F5F5F5F5F5F5F5F5F5F5F5F5F5F5F5F5F5F5E2F5F5F5F5F5F5F5F5F5F5F5F5F5F5F5F5F5F5F5F5E2E2EFF5F5F5F5F5F5F5F5F5F5F5F5F5F5F5F5
310
F5F5F5F5E2E2E2E2E2E2E2E2E2E2E2E2E2E2E2E2E2E2E2E2E2E2E2E2E2E2E2E2E2E2E2E2E2E2E2E2E2E2E2E2E2E2E2E2E2E2E2E2E2E2E2E2E2E2E2E2E2E2E2E2E2E2E2E2E2E2E2E2E2E2E2E2E2E2E2E2E2E2E2E2E2E2E2E2E2E2E2E2E2E2E2E2E2E2E2E2E2E2E2E2E2E2E2E2E2E2E2E2E2E2E2E2E2E2E2E2E2E2E2E2E2E2E2
310
E2E2E2E2E2E2E2E2E2E2E2E2E2E2F5F5F5F5F5F5F5F5F5F5F5F5F5F5F5F5F5F5F5F5E2E2EFF5F5F5F5F5F5F5F5F5F5F5F5F5F5F5F5F5F5F5F5F5F5F5F5F5F5F5F5F5F5F5F5F5F5F5F5F5F5F5F5F5F5F5F5F5F5F5F5F5F5F5F5F5F5F5F5F5F5F5F5F5F5F5F5F5F5F5F5F5F5F5F5F5F5F5F5F5F5F5F5F5F5F5F5F5F5F5F5F5F5
310
F5F5F5F5F5F5F5F5F5F5F5F5F5F5F5F5F5F5F5F5F5F5F5F5F5F5F5F5F5F5F5F5F5F5F5F5F5F5F5F5F5F5F5F5F5F5F5F5F5F5F5F5F5F5F5F5F5F5F5F5F5F5F5F5F5F5F5F5F5F5F5F5F5F5F5F5F5F5F5F5F5F5F5F5F5F5F5E2E2EFF5F5F5F5F5F5F5F5F5F5F5F5F5F5F5F5F5F5F5F5F5F5F5F5F5F5F5F5F5F5F5F5F5F5F5F5F5
310
F5F5F5F5F5F5F5F5F5F5F5F5F5F5F5F5F5F5F5F5F5F5F5F5F5F5F5F5F5F5F5F5F5F5F5F5F5F5F5F5F5F5F5F5F5F5F5F5F5F5F5F5F5F5F5F5F5F5F5F5F5F5F5F5F5F5F5F5F5F5F5F5F5F5F5F5F5F5F5F5F5F5F5F5F5F5F5F5F5F5F5F5F5F5F5F5F5F5F5F5F5F5F5F5F5F5F5F5F5F5F5F5F5F5F5F5F5F5F5F5F5F5F5F5F5F5F5
310
F5F5F5F5F5F5F5F5F5F5F5F5F5E2E2EFF5F5F5F5F5F5F5F5F5F5F5F5F5F5F5F5F5F5F5F5F5F5F5F5F5F5F5F5F5F5F5F5F5F5F5F5F5F5F5F5F5F5F5F5F5F5F5F5F5F5F5F5F5F5F5F5F5F5F5F5F5F5F5F5F5F5F5F5F5F5F5F5F5F5F5F5F5F5F5F5F5F5F5F5F5F5F5F5F5F5F5F5F5F5F5F5F5F5F5F5F5F5F5F5F5F5F5F5F5F5F5
310
F5F5F5F5F5F5F5F5F5F5F5F5F5F5F5F5F5F5F5F5F5F5F5F5F5F5F5F5F5F5F5F5F5F5F5F5F5F5F5F5F5F5F5F5F5F5F5F5F5F5F5F5F5F5F5F5F5F5F5F5F5F5F5F5F5F5E2E2EFF5F5F5F5F5F5F5F5F5F5F5F5F5F5F5F5F5F5F5F5F5F5F5F5F5F5F5F5F5F5F5F5F5F5F5F5F5F5F5F5F5F5F5F5F5F5F5F5F5F5F5F5F5F5F5F5F5F5
310
F5F5F5F5F5F5F5F5F5F5F5F5F5F5F5F5F5F5F5F5F5F5F5F5F5F5F5F5F5F5F5F5F5F5F5F5F5F5F5F5F5F5F5F5F5F5F5F5F5F5F5F5F5F5F5F5F5F5F5F5F5F5F5F5F5F5F5F5F5F5F5F5F5F5F5F5F5F5F5F5F5F5F5F5F5F5F5F5F5F5F5F5F5F5F5F5F5F5F5F5F5F5F5F5F5F5F5F5F5F5F5F5F5F5F5F5F5F5F5E2E2EFF5F5F5E2F5
310
F5F5F5F5F5F5F5F5F5F5F5F5F5F5F5F5F5F5F5F5F5F5F5F5F5F5F5F5F5F5F5F5F5F5F5F5F5F5F5F5F5F5F5F5F5F5F5F5F5F5F5F5F5F5F5F5F5F5F5F5F5F5F5F5F5F5F5F5F5F5F5F5F5F5F5F5F5F5F5F5F5F5F5F5F5F5F5F5F5F5F5F5F5F5F5F5F5F5F5F5F5F5F5F5F5F5F5F5F5F5F5F5F5F5F5F5F5F5F5F5F5F5F5F5F5F5F5
310
F5F5F5F5F5F5F5F5F5F5F5F5F5F5F5F5F5F5F5F5F5F5F5F5F5F5F5F5F5F5F5F5F5F5F5F5F5F5F5F5F5E2F5F5F5E2E2EFF5F5F5E2F5F5F5F5F5F5F5F5F5F5F5F5F5F5F5F5F5F5F5F5F5F5F5F5F5F5F5F5F5F5F5F5F5F5F5F5F5F5F5F5F5F5F5F5F5F5F5F5F5F5F5F5F5F5F5F5F5F5F5F5F5F5F5F5F5F5F5F5F5F5F5F5F5F5F5
310
F5F5F5F5F5F5F5F5F5F5F5F5F5F5F5F5F5F5F5F5F5F5F5F5F5F5F5F5F5F5F5F5F5F5F5F5F5F5F5F5F5F5F5F5F5F5F5F5F5F5F5F5F5F5F5F5F5F5F5F5F5F5F5F5F5F5F5F5F5F5F5F5F5F5F5F5F5F5F5F5F5F5F5F5F5F5F5F5F5F5F5F5F5F5E2F5F5F5E2E2EFF5F5F5E2F5F5F5F5F5F5F5F5F5F5F5F5F5F5F5F5F5F5F5F5F5F5
310
F5F5F5F5F5F5F5F5F5F5F5F5F5F5F5F5F5F5F5F5F5F5F5F5F5F5F5F5F5F5F5F5F5F5F5F5F5F5F5F5F5F5F5F5F5F5F5F5F5F5F5F5F5F5F5F5F5F5F5F5F5F5F5F5F5F5F5F5F5F5F5F5F5F5F5F5F5F5F5F5F5F5F5F5F5F5F5F5F5F5F5F5F5F5F5F5F5F5F5F5F5F5F5F5F5F5F5F5F5F5F5F5F5F5F5F5F5F5F5F5F5F5F5F5F5F5F5
310
F5F5F5F5F5F5F5F5F5F5F5F5F5F5F5F5F5F5F5F5E2F5F5F5E2E2EFF5F5F5E2F5F5F5F5F5F5F5F5F5F5F5F5F5F5F5F5F5F5F5F5F5F5F5F5F5F5F5F5F5F5F5F5F5F5F5F5F5F5F5F5F5F5F5F5F5F5F5F5F5F5F5F5F5F5F5F5F5F5F5F5F5F5F5F5F5F5F5F5F5F5F5F5F5F5F5F5F5F5F5F5F5F5F5F5F5F5F5F5F5F5F5F5F5F5F5F5
310
F5F5F5F5F5F5F5F5F5F5F5F5F5F5F5F5F5F5F5F5F5F5F5F5F5F5F5F5F5F5F5F5F5F5F5F5F5F5F5F5F5F5F5F5F5F5F5F5F5F5F5F5F5F5F5F5F5F5F5F5F5F5F5F5F5F5F5F5F5F5F5F5F5E2F5F5F5E2E2EFF5F5F5E2F5F5F5F5F5F5F5F5F5F5F5F5F5F5F5F5F5F5F5F5F5F5F5F5F5F5F5F5F5F5F5F5F5F5F5F5F5F5F5F5F5F5F5
310
F5F5F5F5F5F5F5F5F5F5F5F5F5F5F5F5F5F5F5F5F5F5F5F5F5F5F5F5F5F5F5F5F5F5F5F5F5F5F5F5F5F5F5F5F5F5F5F5F5F5F5F5F5F5F5F5F5F5F5F5F5F5F5F5F5F5F5F5F5F5F5F5F5F5F5F5F5F5F5F5F5F5F5F5F5F5F5F5F5F5F5F5F5F5F5F5F5F5F5F5F5F5F5F5F5F5F5F5F5F5F5F5F5F5F5F5F5F5F5F5F5F5F5F5F5F5E2
310
F5F5F5E2E2EFF5F5F5E2F5F5F5F5F5F5F5F5F5F5F5F5F5F5F5F5F5F5F5F5F5F5F5F5F5F5F5F5F5F5F5F5F5F5F5F5F5F5F5F5F5F5F5F5F5F5F5F5F5F5F5F5F5F5F5F5F5F5F5F5F5F5F5F5F5F5F5F5F5F5F5F5F5F5F5F5F5F5F5F5F5F5F5F5F5F5F5F5F5F5F5F5F5F5F5F5F5F5F5F5F5F5F5F5F5F5F5F5F5F5F5F5F5F5F5F5F5
310
F5F5F5F5F5F5F5F5F5F5F5F5F5F5F5F5F5F5F5F5F5F5F5F5F5F5F5F5F5F5F5F5F5F5F5F5F5F5F5F5F5F5F5F5F5F5F5F5F5F5F5F5E2F5F5F5E2E2EFF5F5F5E2F5F5F5F5F5F5F5F5F5F5F5F5F5F5F5F5F5F5F5F5F5F5F5F5F5F5F5F5F5F5F5F5F5F5F5F5F5F5F5F5F5F5F5F5F5F5F5F5F5F5F5F5F5F5F5F5F5F5F5F5F5F5F5F5
310
F5F5F5F5F5F5F5F5F5F5F5F5F5F5F5F5F5F5F5F5F5F5F5F5F5F5F5F5F5F5F5F5F5F5F5F5F5F5F5F5F5F5F5F5F5F5F5F5F5F5F5F5F5F5F5F5F5F5F5F5F5F5F5F5F5F5F5F5F5F5F5F5F5F5F5F5F5F5F5F5F5F5F5F5F5F5F5F5F5F5F5F5F5F5F5F5F5F5F5F5F5F5F5F5F5E2F5F5F5E2E2EFF5F5F5E2F5F5F5F5F5F5F5F5F5F5F5
310
F5F5F5F5F5F5F5F5F5F5F5F5F5F5F5F5F5F5F5F5F5F5F5F5F5F5F5F5F5F5F5F5F5F5F5F5F5F5F5F5F5F5F5F5F5F5F5F5F5F5F5F5F5F5F5F5F5F5F5F5F5F5F5F5F5F5F5F5F5F5F5F5F5F5F5F5F5F5F5F5F5F5F5F5F5F5F5F5F5F5F5F5F5F5F5F5F5F5F5F5F5F5F5F5F5F5F5F5F5F5F5F5F5F5F5F5F5F5F5F5F5F5F5F5F5F5F5
310
F5F5F5F5F5F5F5F5F5F5F5F5F5F5F5F5F5F5F5F5F5F5F5F5F5F5F5F5F5F5F5E2F5F5F5E2E2EFF5F5F5E2E2E2E2E2E2E2E2F5F5F5F5F5F5F5F5F5E2E2E2E2E2E2E2E2E2E2E2E2E2E2E2E2F5F5F5F5F5F5F5F5E2E2E2E2E2E2E2E2E2E2E2E2E2E2E2E2F5F5F5F5F5F5F5F5F5E2E2E2E2E2E2E2E2E2E2E2E2E2E2E2F5F5F5F5F5
310
F5F5F5F5E2E2E2E2E2E2E2E2E2E2E2E2E2E2E2F5F5F5F5F5F5F5F5F5E2E2E2E2E2E2E2E2E2E2E2E2E2E2E2E2F5F5F5F5F5F5F5F5E2E2E2E2E2E2E2E2E2E2E2E2E2E2E2E2F5F5F5F5F5F5F5F5F5E2E2E2E2E2E2E2E2F5F5F5E2E2EFF5F5F5F5F5F5F5F5F5F5F5F5F5F5F5F5F5F5F5F5F5F5F5F5F5F5F5F5F5F5F5F5F5F5F5F5
310
F5F5F5F5F5F5F5F5F5F5F5F5F5F5F5F5F5F5F5F5F5F5F5F5F5F5F5F5F5F5F5F5F5F5F5F5F5F5F5F5F5F5F5F5F5F5F5F5F5F5F5F5F5F5F5F5F5F5F5F5F5F5F5F5F5F5F5F5F5F5F5F5F5F5F5F5F5F5F5F5F5F5F5F5F5F5F5F5F5F5F5F5F5F5F5F5F5F5F5F5F5F5F5F5F5F5F5F5F5F5F5F5F5F5F5F5F5F5F5F5F5F5F5F5F5F5F5
310
F5F5F5F5F5F5F5F5F5F5F5F5F5F5E2E2EFF5F5F5F5F5F5F5F5F5F5F5F5F5F5F5F5F5F5F5F5F5F5F5F5F5F5F5F5F5F5F5F5F5F5F5F5F5F5F5F5F5F5F5F5F5F5F5F5F5F5F5F5F5F5F5F5F5F5F5F5F5F5F5F5F5F5F5F5F5F5F5F5F5F5F5F5F5F5F5F5F5F5F5F5F5F5F5F5F5F5F5F5F5F5F5F5F5F5F5F5F5F5F5F5F5F5F5F5F5F5
310
F5F5F5F5F5F5F5F5F5F5F5F5F5F5F5F5F5F5F5F5F5F5F5F5F5F5F5F5F5F5F5F5F5F5F5F5F5F5F5F5F5F5F5F5F5F5F5F5F5F5F5F5F5F5F5F5F5F5F5F5F5F5F5F5F5F5F5E2EFEFF5F5F5F5F5F5F5F5F5F5F5F5F5F5F5F5F5F5F5F5F5F5F5F5F5F5F5F5F5F5F5F5F5F5F5F5F5F5F5F5F5F5F5F5F5F5F5F5F5F5F5F5F5F5F5F5F5
310
F5F5F5F5F5F5F5F5F5F5F5F5F5F5F5F5F5F5F5F5F5F5F5F5F5F5F5F5F5F5F5F5F5F5F5F5F5F5F5F5F5F5F5F5F5F5F5F5F5F5F5F5F5F5F5F5F5F5F5F5F5F5F5F5F5F5F5F5F5F5F5F5F5F5F5F5F5F5F5F5F5F5F5F5F5F5F5F5F5F5F5F5F5F5F5F5F5F5F5F5F5F5F5F5F5F5F5F5F5F5F5F5F5F5F5F5F5F5F5F5E2EFEFE2E2E2E2
310
E2E2E2E2E2E2E2E2E2E2E2E2E2E2E2E2E2E2E2E2E2E2E2E2E2E2E2E2E2E2E2E2E2E2E2E2E2E2E2E2E2E2E2E2E2E2E2E2E2E2E2E2E2E2E2E2E2E2E2E2E2E2E2E2E2E2E2E2E2E2E2E2E2E2E2E2E2E2E2E2E2E2E2E2E2E2E2E2E2E2E2E2E2E2E2E2E2E2E2E2E2E2E2E2E2E2E2E2E2E2E2E2E2E2E2E2E2E2E2E2E2E2E2E2E2E2E2
310
E2E2E2E2E2E2E2E2E2E2E2E2E2E2E2E2E2E2E2E2E2E2E2E2E2E2E2E2E2E2E2E2E2E2E2E2E2E2E2E2E2E2E2E2E2E2E2EFEF
  0
ENDSEC
  0
EOF
