  0
SECTION
  2
HEADER
  9
$ACADVER
  1
AC1018
  9
$ACADMAINTVER
 70
     0
  9
$DWGCODEPAGE
  3
ANSI_1252
  9
$AUTHOR
  1
g6edxjah
  9
$LASTSAVEDBY
  1
g6edxjah
  9
$INSBASE
 10
0.0
 20
0.0
 30
0.0
  9
$EXTMIN
 10
38.91951
 20
-13.332292
 30
0.0
  9
$EXTMAX
 10
47.418969
 20
-2.333
 30
0.0
  9
$LIMMIN
 10
15.368145
 20
-35.63374
  9
$LIMMAX
 10
70.970334
 20
19.968448
  9
$ORTHOMODE
 70
     0
  9
$REGENMODE
 70
     1
  9
$FILLMODE
 70
     1
  9
$QTEXTMODE
 70
     0
  9
$MIRRTEXT
 70
     0
  9
$LTSCALE
 40
1.0
  9
$ATTMODE
 70
     1
  9
$TEXTSIZE
 40
0.062496
  9
$TRACEWID
 40
0.05
  9
$TEXTSTYLE
  7
Standard
  9
$CLAYER
  8
TEXT
  9
$CELTYPE
  6
Continuous
  9
$CECOLOR
 62
     7
  9
$CELTSCALE
 40
1.0
  9
$DISPSILH
 70
     0
  9
$DIMSCALE
 40
1.0
  9
$DIMASZ
 40
0.062496
  9
$DIMEXO
 40
0.031248
  9
$DIMDLI
 40
0.0
  9
$DIMRND
 40
0.0
  9
$DIMDLE
 40
0.0
  9
$DIMEXE
 40
0.031248
  9
$DIMTP
 40
0.0
  9
$DIMTM
 40
0.0
  9
$DIMTXT
 40
0.062496
  9
$DIMCEN
 40
0.09
  9
$DIMTSZ
 40
0.0
  9
$DIMTOL
 70
     0
  9
$DIMLIM
 70
     0
  9
$DIMTIH
 70
     0
  9
$DIMTOH
 70
     0
  9
$DIMSE1
 70
     0
  9
$DIMSE2
 70
     0
  9
$DIMTAD
 70
     1
  9
$DIMZIN
 70
    11
  9
$DIMBLK
  1
TerminatorOpen_0.5
  9
$DIMASO
 70
     1
  9
$DIMSHO
 70
     1
  9
$DIMPOST
  1

  9
$DIMAPOST
  1

  9
$DIMALT
 70
     0
  9
$DIMALTD
 70
     4
  9
$DIMALTF
 40
25.4
  9
$DIMLFAC
 40
1.0
  9
$DIMTOFL
 70
     0
  9
$DIMTVP
 40
0.0
  9
$DIMTIX
 70
     0
  9
$DIMSOXD
 70
     0
  9
$DIMSAH
 70
     0
  9
$DIMBLK1
  1

  9
$DIMBLK2
  1

  9
$DIMSTYLE
  2
Standard
  9
$DIMCLRD
 70
     0
  9
$DIMCLRE
 70
     0
  9
$DIMCLRT
 70
     0
  9
$DIMTFAC
 40
1.0
  9
$DIMGAP
 40
0.031248
  9
$DIMJUST
 70
     0
  9
$DIMSD1
 70
     0
  9
$DIMSD2
 70
     0
  9
$DIMTOLJ
 70
     0
  9
$DIMTZIN
 70
    11
  9
$DIMALTZ
 70
    15
  9
$DIMALTTZ
 70
    15
  9
$DIMUPT
 70
     0
  9
$DIMDEC
 70
     4
  9
$DIMTDEC
 70
     4
  9
$DIMALTU
 70
     2
  9
$DIMALTTD
 70
     4
  9
$DIMTXSTY
  7
Style-Arial
  9
$DIMAUNIT
 70
     0
  9
$DIMADEC
 70
     4
  9
$DIMALTRND
 40
0.0
  9
$DIMAZIN
 70
     3
  9
$DIMDSEP
 70
    46
  9
$DIMATFIT
 70
     1
  9
$DIMFRAC
 70
     0
  9
$DIMLDRBLK
  1
TerminatorOpen_0.5
  9
$DIMLUNIT
 70
     2
  9
$DIMLWD
 70
    -2
  9
$DIMLWE
 70
    -2
  9
$DIMTMOVE
 70
     0
  9
$LUNITS
 70
     2
  9
$LUPREC
 70
     4
  9
$SKETCHINC
 40
0.1
  9
$FILLETRAD
 40
0.0
  9
$AUNITS
 70
     0
  9
$AUPREC
 70
     4
  9
$MENU
  1
.
  9
$ELEVATION
 40
0.0
  9
$PELEVATION
 40
0.0
  9
$THICKNESS
 40
0.0
  9
$LIMCHECK
 70
     0
  9
$CHAMFERA
 40
0.0
  9
$CHAMFERB
 40
0.0
  9
$CHAMFERC
 40
0.0
  9
$CHAMFERD
 40
0.0
  9
$SKPOLY
 70
     0
  9
$TDCREATE
 40
2455394.316226343
  9
$TDUCREATE
 40
2455394.524559676
  9
$TDUPDATE
 40
2455394.316226343
  9
$TDUUPDATE
 40
2455394.524559676
  9
$TDINDWG
 40
0.0
  9
$TDUSRTIMER
 40
0.0006630093
  9
$USRTIMER
 70
     1
  9
$ANGBASE
 50
0.0
  9
$ANGDIR
 70
     0
  9
$PDMODE
 70
     0
  9
$PDSIZE
 40
0.0
  9
$PLINEWID
 40
0.0
  9
$SPLFRAME
 70
     0
  9
$SPLINETYPE
 70
     6
  9
$SPLINESEGS
 70
     8
  9
$HANDSEED
  5
473
  9
$SURFTAB1
 70
     6
  9
$SURFTAB2
 70
     6
  9
$SURFTYPE
 70
     6
  9
$SURFU
 70
     6
  9
$SURFV
 70
     6
  9
$UCSBASE
  2

  9
$UCSNAME
  2

  9
$UCSORG
 10
0.0
 20
0.0
 30
0.0
  9
$UCSXDIR
 10
1.0
 20
0.0
 30
0.0
  9
$UCSYDIR
 10
0.0
 20
1.0
 30
0.0
  9
$UCSORTHOREF
  2

  9
$UCSORTHOVIEW
 70
     0
  9
$UCSORGTOP
 10
0.0
 20
0.0
 30
0.0
  9
$UCSORGBOTTOM
 10
0.0
 20
0.0
 30
0.0
  9
$UCSORGLEFT
 10
0.0
 20
0.0
 30
0.0
  9
$UCSORGRIGHT
 10
0.0
 20
0.0
 30
0.0
  9
$UCSORGFRONT
 10
0.0
 20
0.0
 30
0.0
  9
$UCSORGBACK
 10
0.0
 20
0.0
 30
0.0
  9
$PUCSBASE
  2

  9
$PUCSNAME
  2

  9
$PUCSORG
 10
0.0
 20
0.0
 30
0.0
  9
$PUCSXDIR
 10
1.0
 20
0.0
 30
0.0
  9
$PUCSYDIR
 10
0.0
 20
1.0
 30
0.0
  9
$PUCSORTHOREF
  2

  9
$PUCSORTHOVIEW
 70
     0
  9
$PUCSORGTOP
 10
0.0
 20
0.0
 30
0.0
  9
$PUCSORGBOTTOM
 10
0.0
 20
0.0
 30
0.0
  9
$PUCSORGLEFT
 10
0.0
 20
0.0
 30
0.0
  9
$PUCSORGRIGHT
 10
0.0
 20
0.0
 30
0.0
  9
$PUCSORGFRONT
 10
0.0
 20
0.0
 30
0.0
  9
$PUCSORGBACK
 10
0.0
 20
0.0
 30
0.0
  9
$USERI1
 70
     0
  9
$USERI2
 70
     0
  9
$USERI3
 70
     0
  9
$USERI4
 70
     0
  9
$USERI5
 70
     0
  9
$USERR1
 40
0.0
  9
$USERR2
 40
0.0
  9
$USERR3
 40
0.0
  9
$USERR4
 40
0.0
  9
$USERR5
 40
0.0
  9
$WORLDVIEW
 70
     1
  9
$SHADEDGE
 70
     3
  9
$SHADEDIF
 70
    70
  9
$TILEMODE
 70
     1
  9
$MAXACTVP
 70
    64
  9
$PINSBASE
 10
0.0
 20
0.0
 30
0.0
  9
$PLIMCHECK
 70
     0
  9
$PEXTMIN
 10
1.049744
 20
0.799667
 30
-0.001526
  9
$PEXTMAX
 10
9.450623
 20
7.200577
 30
0.0
  9
$PLIMMIN
 10
-0.25
 20
-0.25
  9
$PLIMMAX
 10
10.75
 20
8.25
  9
$UNITMODE
 70
     0
  9
$VISRETAIN
 70
     1
  9
$PLINEGEN
 70
     0
  9
$PSLTSCALE
 70
     0
  9
$TREEDEPTH
 70
  3020
  9
$CMLSTYLE
  2
Standard
  9
$CMLJUST
 70
     0
  9
$CMLSCALE
 40
1.0
  9
$PROXYGRAPHICS
 70
     1
  9
$MEASUREMENT
 70
     0
  9
$CELWEIGHT
370
    53
  9
$ENDCAPS
280
     0
  9
$JOINSTYLE
280
     0
  9
$LWDISPLAY
290
     1
  9
$INSUNITS
 70
     2
  9
$HYPERLINKBASE
  1

  9
$STYLESHEET
  1

  9
$XEDIT
290
     1
  9
$CEPSNTYPE
380
     0
  9
$PSTYLEMODE
290
     1
  9
$FINGERPRINTGUID
  2
{02C0BBB5-38A7-4FBF-829E-00875EC88963}
  9
$VERSIONGUID
  2
{82C521FC-BF81-46B3-825E-420B6BD93A99}
  9
$EXTNAMES
290
     1
  9
$PSVPSCALE
 40
0.0
  9
$OLESTARTUP
290
     0
  9
$SORTENTS
280
   127
  9
$INDEXCTL
280
     0
  9
$HIDETEXT
280
     1
  9
$XCLIPFRAME
290
     0
  9
$HALOGAP
280
     0
  9
$OBSCOLOR
 70
   257
  9
$OBSLTYPE
280
     0
  9
$INTERSECTIONDISPLAY
280
     0
  9
$INTERSECTIONCOLOR
 70
   257
  9
$DIMASSOC
280
     1
  9
$PROJECTNAME
  1

  0
ENDSEC
  0
SECTION
  2
CLASSES
  0
CLASS
  1
ACDBDICTIONARYWDFLT
  2
AcDbDictionaryWithDefault
  3
ObjectDBX Classes
 90
        0
 91
        3
280
     0
281
     0
  0
CLASS
  1
SORTENTSTABLE
  2
AcDbSortentsTable
  3
ObjectDBX Classes
 90
        0
 91
        3
280
     0
281
     0
  0
ENDSEC
  0
SECTION
  2
TABLES
  0
TABLE
  2
VPORT
  5
459
330
0
100
AcDbSymbolTable
 70
     4
  0
VPORT
  5
49
330
459
100
AcDbSymbolTableRecord
100
AcDbViewportTableRecord
  2
*ACTIVE
 70
     0
 10
0.0
 20
0.0
 11
1.0
 21
1.0
 12
43.16924
 22
-7.832646
 13
0.0
 23
0.0
 14
0.083333
 24
0.083333
 15
0.083333
 25
0.083333
 16
0.0
 26
0.0
 36
1.0
 17
0.0
 27
0.0
 37
0.0
 40
11.439263
 41
1.884937
 42
50.0
 43
0.0
 44
0.0
 50
0.0
 51
0.0
 71
     0
 72
   100
 73
     1
 74
     2
 75
     0
 76
     0
 77
     0
 78
     1
281
     0
 65
     1
110
0.0
120
0.0
130
0.0
111
1.0
121
0.0
131
0.0
112
0.0
122
1.0
132
0.0
 79
     0
146
0.0
  0
ENDTAB
  0
TABLE
  2
LTYPE
  5
440
330
0
100
AcDbSymbolTable
 70
     2
  0
LTYPE
  5
441
330
440
100
AcDbSymbolTableRecord
100
AcDbLinetypeTableRecord
  2
ByBlock
 70
     0
  3

 72
    65
 73
     0
 40
0.0
  0
LTYPE
  5
442
330
440
100
AcDbSymbolTableRecord
100
AcDbLinetypeTableRecord
  2
ByLayer
 70
     0
  3

 72
    65
 73
     0
 40
0.0
  0
LTYPE
  5
43F
330
440
100
AcDbSymbolTableRecord
100
AcDbLinetypeTableRecord
  2
Continuous
 70
     0
  3
Solid line
 72
    65
 73
     0
 40
0.0
  0
LTYPE
  5
46D
330
440
100
AcDbSymbolTableRecord
100
AcDbLinetypeTableRecord
  2
DGN Style 2
 70
     0
  3
Dgn Style 2
 72
    65
 73
     2
 40
0.215623
 49
0.129374
 74
     0
 49
-0.086249
 74
     0
  0
ENDTAB
  0
TABLE
  2
LAYER
  5
439
102
{ACAD_XDICTIONARY
360
43A
102
}
330
0
100
AcDbSymbolTable
 70
    64
  0
LAYER
  5
438
330
439
100
AcDbSymbolTableRecord
100
AcDbLayerTableRecord
  2
0
 70
     0
 62
     7
  6
Continuous
370
    -3
390
43C
  0
LAYER
  5
7
330
439
100
AcDbSymbolTableRecord
100
AcDbLayerTableRecord
  2
Level 1
 70
     0
 62
     7
  6
Continuous
370
     0
390
43C
  0
LAYER
  5
8
330
439
100
AcDbSymbolTableRecord
100
AcDbLayerTableRecord
  2
2-36G
 70
     0
 62
     7
  6
Continuous
370
     0
390
43C
1001
AcAecLayerStandard
1000

1000
2-36G
  0
LAYER
  5
9
330
439
100
AcDbSymbolTableRecord
100
AcDbLayerTableRecord
  2
BORDER
 70
     0
 62
     7
  6
Continuous
370
     0
390
43C
1001
AcAecLayerStandard
1000

1000
BORDER
  0
LAYER
  5
A
330
439
100
AcDbSymbolTableRecord
100
AcDbLayerTableRecord
  2
DEFPOINTS
 70
     0
 62
     7
  6
Continuous
290
     0
370
     0
390
43C
1001
AcAecLayerStandard
1000

1000
DEFPOINTS
  0
LAYER
  5
B
330
439
100
AcDbSymbolTableRecord
100
AcDbLayerTableRecord
  2
DIM
 70
     0
 62
     7
  6
Continuous
370
     0
390
43C
1001
AcAecLayerStandard
1000

1000
DIM
  0
LAYER
  5
C
330
439
100
AcDbSymbolTableRecord
100
AcDbLayerTableRecord
  2
HATCH
 70
     0
 62
     7
  6
Continuous
370
     0
390
43C
1001
AcAecLayerStandard
1000

1000
HATCH
  0
LAYER
  5
D
330
439
100
AcDbSymbolTableRecord
100
AcDbLayerTableRecord
  2
NOTES
 70
     0
 62
     7
  6
Continuous
370
     0
390
43C
1001
AcAecLayerStandard
1000

1000
NOTES
  0
LAYER
  5
E
330
439
100
AcDbSymbolTableRecord
100
AcDbLayerTableRecord
  2
REF
 70
     0
 62
     7
  6
Continuous
370
     0
390
43C
1001
AcAecLayerStandard
1000

1000
REF
  0
LAYER
  5
F
330
439
100
AcDbSymbolTableRecord
100
AcDbLayerTableRecord
  2
TEXT
 70
     0
 62
     7
  6
Continuous
370
     0
390
43C
1001
AcAecLayerStandard
1000

1000
TEXT
  0
LAYER
  5
10
330
439
100
AcDbSymbolTableRecord
100
AcDbLayerTableRecord
  2
TITLE
 70
     0
 62
     7
  6
Continuous
370
     0
390
43C
1001
AcAecLayerStandard
1000

1000
TITLE
  0
LAYER
  5
11
330
439
100
AcDbSymbolTableRecord
100
AcDbLayerTableRecord
  2
Level 11
 70
     0
 62
     7
  6
Continuous
370
     0
390
43C
  0
LAYER
  5
12
330
439
100
AcDbSymbolTableRecord
100
AcDbLayerTableRecord
  2
Level 12
 70
     0
 62
     7
  6
Continuous
370
     0
390
43C
  0
LAYER
  5
13
330
439
100
AcDbSymbolTableRecord
100
AcDbLayerTableRecord
  2
Level 13
 70
     0
 62
     7
  6
Continuous
370
     0
390
43C
  0
LAYER
  5
14
330
439
100
AcDbSymbolTableRecord
100
AcDbLayerTableRecord
  2
Level 14
 70
     0
 62
     7
  6
Continuous
370
     0
390
43C
  0
LAYER
  5
15
330
439
100
AcDbSymbolTableRecord
100
AcDbLayerTableRecord
  2
Level 15
 70
     0
 62
     7
  6
Continuous
370
     0
390
43C
  0
LAYER
  5
16
330
439
100
AcDbSymbolTableRecord
100
AcDbLayerTableRecord
  2
Level 16
 70
     0
 62
     7
  6
Continuous
370
     0
390
43C
  0
LAYER
  5
17
330
439
100
AcDbSymbolTableRecord
100
AcDbLayerTableRecord
  2
Level 17
 70
     0
 62
     7
  6
Continuous
370
     0
390
43C
  0
LAYER
  5
18
330
439
100
AcDbSymbolTableRecord
100
AcDbLayerTableRecord
  2
Level 18
 70
     0
 62
     7
  6
Continuous
370
     0
390
43C
  0
LAYER
  5
19
330
439
100
AcDbSymbolTableRecord
100
AcDbLayerTableRecord
  2
Level 19
 70
     0
 62
     7
  6
Continuous
370
     0
390
43C
  0
LAYER
  5
1A
330
439
100
AcDbSymbolTableRecord
100
AcDbLayerTableRecord
  2
Level 20
 70
     0
 62
     7
  6
Continuous
370
     0
390
43C
  0
LAYER
  5
1B
330
439
100
AcDbSymbolTableRecord
100
AcDbLayerTableRecord
  2
Level 21
 70
     0
 62
     7
  6
Continuous
370
     0
390
43C
  0
LAYER
  5
1C
330
439
100
AcDbSymbolTableRecord
100
AcDbLayerTableRecord
  2
Level 22
 70
     0
 62
     7
  6
Continuous
370
     0
390
43C
  0
LAYER
  5
1D
330
439
100
AcDbSymbolTableRecord
100
AcDbLayerTableRecord
  2
Level 23
 70
     0
 62
     7
  6
Continuous
370
     0
390
43C
  0
LAYER
  5
1E
330
439
100
AcDbSymbolTableRecord
100
AcDbLayerTableRecord
  2
Level 24
 70
     0
 62
     7
  6
Continuous
370
     0
390
43C
  0
LAYER
  5
1F
330
439
100
AcDbSymbolTableRecord
100
AcDbLayerTableRecord
  2
Level 25
 70
     0
 62
     7
  6
Continuous
370
     0
390
43C
  0
LAYER
  5
20
330
439
100
AcDbSymbolTableRecord
100
AcDbLayerTableRecord
  2
Level 26
 70
     0
 62
     7
  6
Continuous
370
     0
390
43C
  0
LAYER
  5
21
330
439
100
AcDbSymbolTableRecord
100
AcDbLayerTableRecord
  2
Level 27
 70
     0
 62
     7
  6
Continuous
370
     0
390
43C
  0
LAYER
  5
22
330
439
100
AcDbSymbolTableRecord
100
AcDbLayerTableRecord
  2
Level 28
 70
     0
 62
     7
  6
Continuous
370
     0
390
43C
  0
LAYER
  5
23
330
439
100
AcDbSymbolTableRecord
100
AcDbLayerTableRecord
  2
Level 29
 70
     0
 62
     7
  6
Continuous
370
     0
390
43C
  0
LAYER
  5
24
330
439
100
AcDbSymbolTableRecord
100
AcDbLayerTableRecord
  2
Level 30
 70
     0
 62
     7
  6
Continuous
370
     0
390
43C
  0
LAYER
  5
25
330
439
100
AcDbSymbolTableRecord
100
AcDbLayerTableRecord
  2
Level 31
 70
     0
 62
     7
  6
Continuous
370
     0
390
43C
  0
LAYER
  5
26
330
439
100
AcDbSymbolTableRecord
100
AcDbLayerTableRecord
  2
Level 32
 70
     0
 62
     7
  6
Continuous
370
     0
390
43C
  0
LAYER
  5
27
330
439
100
AcDbSymbolTableRecord
100
AcDbLayerTableRecord
  2
Level 33
 70
     0
 62
     7
  6
Continuous
370
     0
390
43C
  0
LAYER
  5
28
330
439
100
AcDbSymbolTableRecord
100
AcDbLayerTableRecord
  2
Level 34
 70
     0
 62
     7
  6
Continuous
370
     0
390
43C
  0
LAYER
  5
29
330
439
100
AcDbSymbolTableRecord
100
AcDbLayerTableRecord
  2
Level 35
 70
     0
 62
     7
  6
Continuous
370
     0
390
43C
  0
LAYER
  5
2A
330
439
100
AcDbSymbolTableRecord
100
AcDbLayerTableRecord
  2
Level 36
 70
     0
 62
     7
  6
Continuous
370
     0
390
43C
  0
LAYER
  5
2B
330
439
100
AcDbSymbolTableRecord
100
AcDbLayerTableRecord
  2
Level 37
 70
     0
 62
     7
  6
Continuous
370
     0
390
43C
  0
LAYER
  5
2C
330
439
100
AcDbSymbolTableRecord
100
AcDbLayerTableRecord
  2
Level 38
 70
     0
 62
     7
  6
Continuous
370
     0
390
43C
  0
LAYER
  5
2D
330
439
100
AcDbSymbolTableRecord
100
AcDbLayerTableRecord
  2
Level 39
 70
     0
 62
     7
  6
Continuous
370
     0
390
43C
  0
LAYER
  5
2E
330
439
100
AcDbSymbolTableRecord
100
AcDbLayerTableRecord
  2
Level 40
 70
     0
 62
     7
  6
Continuous
370
     0
390
43C
  0
LAYER
  5
2F
330
439
100
AcDbSymbolTableRecord
100
AcDbLayerTableRecord
  2
Level 41
 70
     0
 62
     7
  6
Continuous
370
     0
390
43C
  0
LAYER
  5
30
330
439
100
AcDbSymbolTableRecord
100
AcDbLayerTableRecord
  2
Level 42
 70
     0
 62
     7
  6
Continuous
370
     0
390
43C
  0
LAYER
  5
31
330
439
100
AcDbSymbolTableRecord
100
AcDbLayerTableRecord
  2
Level 43
 70
     0
 62
     7
  6
Continuous
370
     0
390
43C
  0
LAYER
  5
32
330
439
100
AcDbSymbolTableRecord
100
AcDbLayerTableRecord
  2
Level 44
 70
     0
 62
     7
  6
Continuous
370
     0
390
43C
  0
LAYER
  5
33
330
439
100
AcDbSymbolTableRecord
100
AcDbLayerTableRecord
  2
Level 45
 70
     0
 62
     7
  6
Continuous
370
     0
390
43C
  0
LAYER
  5
34
330
439
100
AcDbSymbolTableRecord
100
AcDbLayerTableRecord
  2
Level 46
 70
     0
 62
     7
  6
Continuous
370
     0
390
43C
  0
LAYER
  5
35
330
439
100
AcDbSymbolTableRecord
100
AcDbLayerTableRecord
  2
Level 47
 70
     0
 62
     7
  6
Continuous
370
     0
390
43C
  0
LAYER
  5
36
330
439
100
AcDbSymbolTableRecord
100
AcDbLayerTableRecord
  2
Level 48
 70
     0
 62
     7
  6
Continuous
370
     0
390
43C
  0
LAYER
  5
37
330
439
100
AcDbSymbolTableRecord
100
AcDbLayerTableRecord
  2
Level 49
 70
     0
 62
     7
  6
Continuous
370
     0
390
43C
  0
LAYER
  5
38
330
439
100
AcDbSymbolTableRecord
100
AcDbLayerTableRecord
  2
Level 50
 70
     0
 62
     7
  6
Continuous
370
     0
390
43C
  0
LAYER
  5
39
330
439
100
AcDbSymbolTableRecord
100
AcDbLayerTableRecord
  2
Level 51
 70
     0
 62
     7
  6
Continuous
370
     0
390
43C
  0
LAYER
  5
3A
330
439
100
AcDbSymbolTableRecord
100
AcDbLayerTableRecord
  2
Level 52
 70
     0
 62
     7
  6
Continuous
370
     0
390
43C
  0
LAYER
  5
3B
330
439
100
AcDbSymbolTableRecord
100
AcDbLayerTableRecord
  2
Level 53
 70
     0
 62
     7
  6
Continuous
370
     0
390
43C
  0
LAYER
  5
3C
330
439
100
AcDbSymbolTableRecord
100
AcDbLayerTableRecord
  2
Level 54
 70
     0
 62
     7
  6
Continuous
370
     0
390
43C
  0
LAYER
  5
3D
330
439
100
AcDbSymbolTableRecord
100
AcDbLayerTableRecord
  2
Level 55
 70
     0
 62
     7
  6
Continuous
370
     0
390
43C
  0
LAYER
  5
3E
330
439
100
AcDbSymbolTableRecord
100
AcDbLayerTableRecord
  2
Level 56
 70
     0
 62
     7
  6
Continuous
370
     0
390
43C
  0
LAYER
  5
3F
330
439
100
AcDbSymbolTableRecord
100
AcDbLayerTableRecord
  2
Level 57
 70
     0
 62
     7
  6
Continuous
370
     0
390
43C
  0
LAYER
  5
40
330
439
100
AcDbSymbolTableRecord
100
AcDbLayerTableRecord
  2
Level 58
 70
     0
 62
     7
  6
Continuous
370
     0
390
43C
  0
LAYER
  5
41
330
439
100
AcDbSymbolTableRecord
100
AcDbLayerTableRecord
  2
Level 59
 70
     0
 62
     7
  6
Continuous
370
     0
390
43C
  0
LAYER
  5
42
330
439
100
AcDbSymbolTableRecord
100
AcDbLayerTableRecord
  2
Level 60
 70
     0
 62
     7
  6
Continuous
370
     0
390
43C
  0
LAYER
  5
43
330
439
100
AcDbSymbolTableRecord
100
AcDbLayerTableRecord
  2
Level 61
 70
     0
 62
     7
  6
Continuous
370
     0
390
43C
  0
LAYER
  5
44
330
439
100
AcDbSymbolTableRecord
100
AcDbLayerTableRecord
  2
Level 62
 70
     0
 62
     7
  6
Continuous
370
     0
390
43C
  0
LAYER
  5
45
330
439
100
AcDbSymbolTableRecord
100
AcDbLayerTableRecord
  2
_0
 70
     0
 62
     7
  6
Continuous
370
     0
390
43C
1001
AcAecLayerStandard
1000

1000
0
  0
ENDTAB
  0
TABLE
  2
STYLE
  5
444
330
0
100
AcDbSymbolTable
 70
     2
  0
STYLE
  5
443
330
444
100
AcDbSymbolTableRecord
100
AcDbTextStyleTableRecord
  2
Standard
 70
     0
 40
0.0
 41
1.0
 50
0.0
 71
     0
 42
0.062496
  3
txt
  4

  0
STYLE
  5
463
330
444
100
AcDbSymbolTableRecord
100
AcDbTextStyleTableRecord
  2
Style-Arial
 70
     0
 40
0.0
 41
1.0
 50
0.0
 71
     0
 42
0.2
  3

  4

1001
ACAD
1000
Arial
1071
       39
  0
ENDTAB
  0
TABLE
  2
VIEW
  5
457
330
0
100
AcDbSymbolTable
 70
     0
  0
ENDTAB
  0
TABLE
  2
UCS
  5
458
330
0
100
AcDbSymbolTable
 70
     0
  0
ENDTAB
  0
TABLE
  2
APPID
  5
456
330
0
100
AcDbSymbolTable
 70
     3
  0
APPID
  5
45E
330
456
100
AcDbSymbolTableRecord
100
AcDbRegAppTableRecord
  2
ACAD
 70
     0
  0
APPID
  5
455
330
456
100
AcDbSymbolTableRecord
100
AcDbRegAppTableRecord
  2
ACAD_PSEXT
 70
     0
  0
APPID
  5
460
330
456
100
AcDbSymbolTableRecord
100
AcDbRegAppTableRecord
  2
AcAecLayerStandard
 70
     0
  0
ENDTAB
  0
TABLE
  2
DIMSTYLE
  5
446
330
0
100
AcDbSymbolTable
 70
     1
100
AcDbDimStyleTable
  0
DIMSTYLE
105
445
330
446
100
AcDbSymbolTableRecord
100
AcDbDimStyleTableRecord
  2
Standard
 70
     0
340
443
  0
ENDTAB
  0
TABLE
  2
BLOCK_RECORD
  5
449
330
0
100
AcDbSymbolTable
 70
     1
  0
BLOCK_RECORD
  5
44A
102
{ACAD_XDICTIONARY
360
46E
102
}
330
449
100
AcDbSymbolTableRecord
100
AcDbBlockTableRecord
  2
*Model_Space
340
44D
  0
BLOCK_RECORD
  5
44F
330
449
100
AcDbSymbolTableRecord
100
AcDbBlockTableRecord
  2
*Paper_Space
340
452
  0
BLOCK_RECORD
  5
464
330
449
100
AcDbSymbolTableRecord
100
AcDbBlockTableRecord
  2
TerminatorOpen_0.5
340
0
  0
ENDTAB
  0
ENDSEC
  0
SECTION
  2
BLOCKS
  0
BLOCK
  5
44B
330
44A
100
AcDbEntity
  8
0
100
AcDbBlockBegin
  2
*Model_Space
 70
     0
 71
     0
 10
0.0
 20
0.0
 30
0.0
  3
*Model_Space
  1

  0
ENDBLK
  5
44C
330
44A
100
AcDbEntity
  8
0
100
AcDbBlockEnd
  0
BLOCK
  5
450
330
44F
100
AcDbEntity
 67
     1
  8
0
100
AcDbBlockBegin
  2
*Paper_Space
 70
     0
 71
     0
 10
0.0
 20
0.0
 30
0.0
  3
*Paper_Space
  1

  0
ENDBLK
  5
451
330
44F
100
AcDbEntity
 67
     1
  8
0
100
AcDbBlockEnd
  0
BLOCK
  5
468
330
464
100
AcDbEntity
  8
0
100
AcDbBlockBegin
  2
TerminatorOpen_0.5
 70
     0
 71
     0
 10
0.0
 20
0.0
 30
0.0
  3
TerminatorOpen_0.5
  1

  0
LINE
  5
465
330
464
100
AcDbEntity
  8
0
  6
ByBlock
 62
     0
370
    -2
100
AcDbLine
 10
0.0
 20
0.0
 30
0.0
 11
-1.0
 21
0.0
 31
0.0
  0
LINE
  5
466
330
464
100
AcDbEntity
  8
0
  6
ByBlock
 62
     0
370
    -2
100
AcDbLine
 10
0.0
 20
0.0
 30
0.0
 11
-1.0
 21
0.25
 31
0.0
  0
LINE
  5
467
330
464
100
AcDbEntity
  8
0
  6
ByBlock
 62
     0
370
    -2
100
AcDbLine
 10
0.0
 20
0.0
 30
0.0
 11
-1.0
 21
-0.25
 31
0.0
  0
ENDBLK
  5
469
330
464
100
AcDbEntity
  8
0
100
AcDbBlockEnd
  0
ENDSEC
  0
SECTION
  2
ENTITIES
  0
LINE
  5
5B
330
44A
100
AcDbEntity
  8
_0
  6
Continuous
 62
     7
370
    13
100
AcDbLine
 10
47.418969
 20
-2.333
 30
0.0
 11
47.418969
 21
-2.539531
 31
0.0
  0
POINT
  5
5C
330
44A
100
AcDbEntity
  8
_0
  6
Continuous
 62
     7
370
    13
100
AcDbPoint
 10
39.544469
 20
-12.345448
 30
0.0
  0
LINE
  5
5D
330
44A
100
AcDbEntity
  8
_0
  6
Continuous
 62
     7
370
    13
100
AcDbLine
 10
38.91951
 20
-2.333
 30
0.0
 11
38.91951
 21
-2.539531
 31
0.0
  0
LINE
  5
5E
330
44A
100
AcDbEntity
  8
_0
  6
Continuous
 62
     7
370
    13
100
AcDbLine
 10
47.418969
 20
-2.333
 30
0.0
 11
47.212438
 21
-2.333
 31
0.0
  0
LINE
  5
5F
330
44A
100
AcDbEntity
  8
_0
  6
Continuous
 62
     7
370
    13
100
AcDbLine
 10
47.418969
 20
-13.332292
 30
0.0
 11
47.212438
 21
-13.332292
 31
0.0
  0
LINE
  5
60
330
44A
100
AcDbEntity
  8
_0
  6
Continuous
 62
     7
370
    13
100
AcDbLine
 10
39.126042
 20
-2.333
 30
0.0
 11
38.91951
 21
-2.333
 31
0.0
  0
LINE
  5
61
330
44A
100
AcDbEntity
  8
_0
  6
Continuous
 62
     7
370
    13
100
AcDbLine
 10
47.418969
 20
-13.12576
 30
0.0
 11
47.418969
 21
-13.332292
 31
0.0
  0
LINE
  5
62
330
44A
100
AcDbEntity
  8
_0
  6
Continuous
 62
     7
370
    13
100
AcDbLine
 10
38.91951
 20
-13.12576
 30
0.0
 11
38.91951
 21
-13.332292
 31
0.0
  0
LINE
  5
63
330
44A
100
AcDbEntity
  8
_0
  6
Continuous
 62
     7
370
    13
100
AcDbLine
 10
39.126042
 20
-13.332292
 30
0.0
 11
38.91951
 21
-13.332292
 31
0.0
  0
LINE
  5
65
330
44A
100
AcDbEntity
  8
2-36G
  6
Continuous
 62
     7
370
    13
100
AcDbLine
 10
40.907781
 20
-6.034312
 30
0.0
 11
41.097073
 21
-6.034312
 31
0.0
  0
SOLID
  5
66
330
44A
100
AcDbEntity
  8
2-36G
  6
Continuous
 62
     7
370
    13
100
AcDbTrace
 10
40.907781
 20
-6.042646
 30
0.0
 11
40.907781
 21
-6.02599
 31
0.0
 12
40.857792
 22
-6.034312
 32
0.0
 13
40.857792
 23
-6.034312
 33
0.0
  0
SOLID
  5
68
330
44A
100
AcDbEntity
  8
2-36G
  6
Continuous
 62
     7
370
    13
100
AcDbTrace
 10
45.227604
 20
-6.234083
 30
0.0
 11
45.227604
 21
-6.217427
 31
0.0
 12
45.277604
 22
-6.22575
 32
0.0
 13
45.277604
 23
-6.22575
 33
0.0
  0
SOLID
  5
69
330
44A
100
AcDbEntity
  8
2-36G
  6
Continuous
 62
     7
370
    13
100
AcDbTrace
 10
40.907781
 20
-6.234083
 30
0.0
 11
40.907781
 21
-6.217427
 31
0.0
 12
40.857792
 22
-6.22575
 32
0.0
 13
40.857792
 23
-6.22575
 33
0.0
  0
LINE
  5
6A
330
44A
100
AcDbEntity
  8
2-36G
  6
Continuous
 62
     7
370
    13
100
AcDbLine
 10
40.907781
 20
-6.22575
 30
0.0
 11
45.227604
 21
-6.22575
 31
0.0
  0
LINE
  5
6B
330
44A
100
AcDbEntity
  8
2-36G
  6
Continuous
 62
     7
370
    13
100
AcDbLine
 10
45.277604
 20
-5.519271
 30
0.0
 11
45.277604
 21
-6.27575
 31
0.0
  0
LINE
  5
6C
330
44A
100
AcDbEntity
  8
2-36G
  6
Continuous
 62
     7
370
    13
100
AcDbLine
 10
40.857792
 20
-5.575958
 30
0.0
 11
40.857792
 21
-6.27575
 31
0.0
  0
SOLID
  5
6E
330
44A
100
AcDbEntity
  8
2-36G
  6
Continuous
 62
     7
370
    13
100
AcDbTrace
 10
42.107937
 20
-5.851208
 30
0.0
 11
42.107937
 21
-5.834552
 31
0.0
 12
42.157927
 22
-5.842885
 32
0.0
 13
42.157927
 23
-5.842885
 33
0.0
  0
SOLID
  5
6F
330
44A
100
AcDbEntity
  8
2-36G
  6
Continuous
 62
     7
370
    13
100
AcDbTrace
 10
40.907781
 20
-5.851208
 30
0.0
 11
40.907781
 21
-5.834552
 31
0.0
 12
40.857792
 22
-5.842885
 32
0.0
 13
40.857792
 23
-5.842885
 33
0.0
  0
LINE
  5
70
330
44A
100
AcDbEntity
  8
2-36G
  6
Continuous
 62
     7
370
    13
100
AcDbLine
 10
40.907781
 20
-5.842885
 30
0.0
 11
42.107937
 21
-5.842885
 31
0.0
  0
LINE
  5
71
330
44A
100
AcDbEntity
  8
2-36G
  6
Continuous
 62
     7
370
    13
100
AcDbLine
 10
42.157927
 20
-5.525958
 30
0.0
 11
42.157927
 21
-5.892875
 31
0.0
  0
LINE
  5
73
330
44A
100
AcDbEntity
  8
2-36G
  6
Continuous
 62
     7
370
    13
100
AcDbLine
 10
40.794312
 20
-3.963604
 30
0.0
 11
40.686677
 21
-3.963604
 31
0.0
  0
SOLID
  5
74
330
44A
100
AcDbEntity
  8
2-36G
  6
Continuous
 62
     7
370
    13
100
AcDbTrace
 10
-40.794312
 20
-3.955271
 30
0.0
 11
-40.794312
 21
-3.971937
 31
0.0
 12
-40.844302
 22
-3.963604
 32
0.0
 13
-40.844302
 23
-3.963604
 33
0.0
210
0.0
220
0.0
230
-1.0
  0
LINE
  5
76
330
44A
100
AcDbEntity
  8
2-36G
  6
Continuous
 62
     7
370
    13
100
AcDbLine
 10
40.946865
 20
-4.16699
 30
0.0
 11
40.895156
 21
-4.16699
 31
0.0
  0
SOLID
  5
77
330
44A
100
AcDbEntity
  8
2-36G
  6
Continuous
 62
     7
370
    13
100
AcDbTrace
 10
-40.946865
 20
-4.158667
 30
0.0
 11
-40.946865
 21
-4.175323
 31
0.0
 12
-40.996854
 22
-4.16699
 32
0.0
 13
-40.996854
 23
-4.16699
 33
0.0
210
0.0
220
0.0
230
-1.0
  0
LINE
  5
79
330
44A
100
AcDbEntity
  8
2-36G
  6
Continuous
 62
     7
370
    13
100
AcDbLine
 10
40.982458
 20
-4.370385
 30
0.0
 11
40.90024
 21
-4.370385
 31
0.0
  0
SOLID
  5
7A
330
44A
100
AcDbEntity
  8
2-36G
  6
Continuous
 62
     7
370
    13
100
AcDbTrace
 10
-40.982458
 20
-4.362052
 30
0.0
 11
-40.982458
 21
-4.378719
 31
0.0
 12
-41.032448
 22
-4.370385
 32
0.0
 13
-41.032448
 23
-4.370385
 33
0.0
210
0.0
220
0.0
230
-1.0
  0
SOLID
  5
7C
330
44A
100
AcDbEntity
  8
2-36G
  6
Continuous
 62
     7
370
    13
100
AcDbTrace
 10
40.120406
 20
-4.74176
 30
0.0
 11
40.10374
 21
-4.74176
 31
0.0
 12
40.112073
 22
-4.691771
 32
0.0
 13
40.112073
 23
-4.691771
 33
0.0
  0
SOLID
  5
7D
330
44A
100
AcDbEntity
  8
2-36G
  6
Continuous
 62
     7
370
    13
100
AcDbTrace
 10
40.120406
 20
-5.36325
 30
0.0
 11
40.10374
 21
-5.36325
 31
0.0
 12
40.112073
 22
-5.41325
 32
0.0
 13
40.112073
 23
-5.41325
 33
0.0
  0
LINE
  5
7E
330
44A
100
AcDbEntity
  8
2-36G
  6
Continuous
 62
     7
370
    13
100
AcDbLine
 10
40.112073
 20
-5.36325
 30
0.0
 11
40.112073
 21
-4.74176
 31
0.0
  0
LINE
  5
7F
330
44A
100
AcDbEntity
  8
2-36G
  6
Continuous
 62
     7
370
    13
100
AcDbLine
 10
40.486302
 20
-4.691771
 30
0.0
 11
40.062083
 21
-4.691771
 31
0.0
  0
LINE
  5
80
330
44A
100
AcDbEntity
  8
2-36G
  6
Continuous
 62
     7
370
    13
100
AcDbLine
 10
40.486302
 20
-5.41325
 30
0.0
 11
40.062083
 21
-5.41325
 31
0.0
  0
LINE
  5
83
330
44A
100
AcDbEntity
  8
2-36G
  6
Continuous
 62
     7
370
    13
100
AcDbLine
 10
40.982458
 20
-4.934792
 30
0.0
 11
40.859562
 21
-4.934792
 31
0.0
  0
SOLID
  5
84
330
44A
100
AcDbEntity
  8
2-36G
  6
Continuous
 62
     7
370
    13
100
AcDbTrace
 10
-40.982458
 20
-4.926458
 30
0.0
 11
-40.982458
 21
-4.943125
 31
0.0
 12
-41.032448
 22
-4.934792
 32
0.0
 13
-41.032448
 23
-4.934792
 33
0.0
210
0.0
220
0.0
230
-1.0
  0
LINE
  5
86
330
44A
100
AcDbEntity
  8
2-36G
  6
Continuous
 62
     7
370
    13
100
AcDbLine
 10
41.474187
 20
-4.931812
 30
0.0
 11
41.612604
 21
-4.931812
 31
0.0
  0
SOLID
  5
87
330
44A
100
AcDbEntity
  8
2-36G
  6
Continuous
 62
     7
370
    13
100
AcDbTrace
 10
41.474187
 20
-4.940146
 30
0.0
 11
41.474187
 21
-4.923479
 31
0.0
 12
41.424188
 22
-4.931812
 32
0.0
 13
41.424188
 23
-4.931812
 33
0.0
  0
LINE
  5
89
330
44A
100
AcDbEntity
  8
2-36G
  6
Continuous
 62
     7
370
    13
100
AcDbLine
 10
42.255063
 20
-5.126385
 30
0.0
 11
42.305062
 21
-5.126385
 31
0.0
  0
LINE
  5
8A
330
44A
100
AcDbEntity
  8
2-36G
  6
Continuous
 62
     7
370
    13
100
AcDbLine
 10
42.202917
 20
-5.232833
 30
0.0
 11
42.255063
 21
-5.126385
 31
0.0
  0
SOLID
  5
8B
330
44A
100
AcDbEntity
  8
2-36G
  6
Continuous
 62
     7
370
    13
100
AcDbTrace
 10
-42.210406
 20
-5.2365
 30
0.0
 11
-42.195437
 21
-5.229156
 31
0.0
 12
-42.180927
 22
-5.277729
 32
0.0
 13
-42.180927
 23
-5.277729
 33
0.0
210
0.0
220
0.0
230
-1.0
  0
LWPOLYLINE
  5
8C
330
44A
100
AcDbEntity
  8
2-36G
  6
Continuous
 62
     7
370
     0
100
AcDbPolyline
 90
      244
 70
   128
 43
0.0
 10
42.202417
 20
-5.330969
 10
42.203885
 20
-5.330885
 10
42.213229
 20
-5.330354
 10
42.222573
 20
-5.329823
 10
42.231896
 20
-5.329271
 10
42.241219
 20
-5.328719
 10
42.250531
 20
-5.328146
 10
42.259833
 20
-5.327573
 10
42.269125
 20
-5.327
 10
42.278406
 20
-5.326406
 10
42.287687
 20
-5.325802
 10
42.296958
 20
-5.325198
 10
42.306229
 20
-5.324573
 10
42.3155
 20
-5.323948
 10
42.32476
 20
-5.323313
 10
42.33401
 20
-5.322667
 10
42.34326
 20
-5.32201
 10
42.35251
 20
-5.321344
 10
42.36176
 20
-5.320667
 10
42.37101
 20
-5.31999
 10
42.38025
 20
-5.319302
 10
42.3895
 20
-5.318594
 10
42.39875
 20
-5.317885
 10
42.408
 20
-5.317156
 10
42.41725
 20
-5.316427
 10
42.42651
 20
-5.315688
 10
42.435771
 20
-5.314927
 10
42.445031
 20
-5.314167
 10
42.454302
 20
-5.313396
 10
42.463573
 20
-5.312615
 10
42.472844
 20
-5.311823
 10
42.482135
 20
-5.311021
 10
42.491427
 20
-5.310198
 10
42.500729
 20
-5.309375
 10
42.510042
 20
-5.308542
 10
42.519365
 20
-5.307698
 10
42.528687
 20
-5.306833
 10
42.538031
 20
-5.305969
 10
42.547385
 20
-5.305094
 10
42.55675
 20
-5.304198
 10
42.566125
 20
-5.303302
 10
42.57551
 20
-5.302385
 10
42.584927
 20
-5.301458
 10
42.594344
 20
-5.300531
 10
42.603771
 20
-5.299573
 10
42.613229
 20
-5.298625
 10
42.622687
 20
-5.297656
 10
42.632177
 20
-5.296667
 10
42.641677
 20
-5.295677
 10
42.651198
 20
-5.294677
 10
42.66074
 20
-5.293656
 10
42.670292
 20
-5.292625
 10
42.679875
 20
-5.291583
 10
42.689469
 20
-5.290531
 10
42.699094
 20
-5.289469
 10
42.70874
 20
-5.288385
 10
42.718406
 20
-5.287302
 10
42.728094
 20
-5.286198
 10
42.737812
 20
-5.285083
 10
42.747563
 20
-5.283958
 10
42.757323
 20
-5.282812
 10
42.767115
 20
-5.281656
 10
42.776927
 20
-5.28049
 10
42.786771
 20
-5.279312
 10
42.796646
 20
-5.278125
 10
42.806542
 20
-5.276917
 10
42.816469
 20
-5.275698
 10
42.826427
 20
-5.274469
 10
42.836406
 20
-5.273229
 10
42.846417
 20
-5.271969
 10
42.856448
 20
-5.270698
 10
42.86651
 20
-5.269417
 10
42.876604
 20
-5.268115
 10
42.886719
 20
-5.266802
 10
42.896865
 20
-5.265479
 10
42.907042
 20
-5.264146
 10
42.91724
 20
-5.262792
 10
42.927469
 20
-5.261427
 10
42.937729
 20
-5.260052
 10
42.94801
 20
-5.258656
 10
42.958323
 20
-5.25725
 10
42.968656
 20
-5.255833
 10
42.979031
 20
-5.254396
 10
42.989417
 20
-5.252948
 10
42.999844
 20
-5.25149
 10
43.010292
 20
-5.25001
 10
43.020771
 20
-5.248521
 10
43.031271
 20
-5.247021
 10
43.041802
 20
-5.2455
 10
43.052354
 20
-5.243969
 10
43.062937
 20
-5.242427
 10
43.073552
 20
-5.240865
 10
43.084187
 20
-5.239292
 10
43.094854
 20
-5.237698
 10
43.105552
 20
-5.236094
 10
43.116271
 20
-5.234479
 10
43.12701
 20
-5.232844
 10
43.137792
 20
-5.231198
 10
43.148594
 20
-5.229531
 10
43.159417
 20
-5.227854
 10
43.170271
 20
-5.226167
 10
43.181156
 20
-5.224458
 10
43.192062
 20
-5.22274
 10
43.203
 20
-5.221
 10
43.213958
 20
-5.21925
 10
43.224948
 20
-5.217479
 10
43.235958
 20
-5.215698
 10
43.24701
 20
-5.213906
 10
43.258073
 20
-5.212094
 10
43.269167
 20
-5.21026
 10
43.280292
 20
-5.208417
 10
43.291438
 20
-5.206562
 10
43.302615
 20
-5.204687
 10
43.313812
 20
-5.202802
 10
43.325042
 20
-5.200896
 10
43.336292
 20
-5.198979
 10
43.347583
 20
-5.197042
 10
43.358885
 20
-5.195094
 10
43.370219
 20
-5.193125
 10
43.381573
 20
-5.191146
 10
43.392969
 20
-5.189146
 10
43.404375
 20
-5.187135
 10
43.415813
 20
-5.185104
 10
43.427281
 20
-5.183063
 10
43.438771
 20
-5.181
 10
43.450281
 20
-5.178927
 10
43.461833
 20
-5.176833
 10
43.473396
 20
-5.174719
 10
43.48499
 20
-5.172604
 10
43.496604
 20
-5.170458
 10
43.50825
 20
-5.168302
 10
43.519917
 20
-5.166135
 10
43.531604
 20
-5.163937
 10
43.543323
 20
-5.16174
 10
43.555062
 20
-5.159521
 10
43.566823
 20
-5.157292
 10
43.578615
 20
-5.155042
 10
43.590427
 20
-5.152781
 10
43.60226
 20
-5.1505
 10
43.614115
 20
-5.148208
 10
43.626
 20
-5.145896
 10
43.637896
 20
-5.143573
 10
43.649812
 20
-5.14124
 10
43.66176
 20
-5.138885
 10
43.673729
 20
-5.136521
 10
43.685719
 20
-5.134146
 10
43.697729
 20
-5.13174
 10
43.70976
 20
-5.129333
 10
43.721802
 20
-5.126906
 10
43.733875
 20
-5.124479
 10
43.745969
 20
-5.122021
 10
43.758083
 20
-5.119552
 10
43.770208
 20
-5.117073
 10
43.782365
 20
-5.114583
 10
43.794531
 20
-5.112083
 10
43.806719
 20
-5.109552
 10
43.818917
 20
-5.107021
 10
43.831146
 20
-5.104479
 10
43.843385
 20
-5.101917
 10
43.855646
 20
-5.099344
 10
43.867927
 20
-5.09676
 10
43.880219
 20
-5.094156
 10
43.892531
 20
-5.091542
 10
43.904865
 20
-5.088917
 10
43.917208
 20
-5.086281
 10
43.929573
 20
-5.083625
 10
43.941948
 20
-5.080969
 10
43.954344
 20
-5.078292
 10
43.96676
 20
-5.075604
 10
43.979177
 20
-5.072906
 10
43.991615
 20
-5.070187
 10
44.004073
 20
-5.067469
 10
44.016552
 20
-5.06474
 10
44.029031
 20
-5.061979
 10
44.041531
 20
-5.059219
 10
44.054042
 20
-5.056458
 10
44.066573
 20
-5.053677
 10
44.079104
 20
-5.050875
 10
44.091667
 20
-5.048073
 10
44.104229
 20
-5.04525
 10
44.116802
 20
-5.042417
 10
44.129396
 20
-5.039583
 10
44.142
 20
-5.036729
 10
44.154615
 20
-5.033875
 10
44.16724
 20
-5.031
 10
44.179885
 20
-5.028115
 10
44.192531
 20
-5.025219
 10
44.205188
 20
-5.022312
 10
44.217865
 20
-5.019406
 10
44.230542
 20
-5.016469
 10
44.243229
 20
-5.013542
 10
44.255927
 20
-5.010594
 10
44.268635
 20
-5.007635
 10
44.281344
 20
-5.004677
 10
44.294073
 20
-5.001698
 10
44.306792
 20
-4.998719
 10
44.319521
 20
-4.995719
 10
44.33225
 20
-4.992719
 10
44.34499
 20
-4.989708
 10
44.357729
 20
-4.986698
 10
44.370479
 20
-4.983667
 10
44.383208
 20
-4.980635
 10
44.395948
 20
-4.977594
 10
44.408687
 20
-4.974552
 10
44.421417
 20
-4.9715
 10
44.434146
 20
-4.968437
 10
44.446875
 20
-4.965365
 10
44.459594
 20
-4.962292
 10
44.472302
 20
-4.959208
 10
44.48501
 20
-4.956125
 10
44.497698
 20
-4.953042
 10
44.510385
 20
-4.949937
 10
44.523063
 20
-4.946844
 10
44.535719
 20
-4.94374
 10
44.548365
 20
-4.940625
 10
44.561
 20
-4.93751
 10
44.573615
 20
-4.934396
 10
44.586219
 20
-4.931281
 10
44.598802
 20
-4.928156
 10
44.611375
 20
-4.925031
 10
44.623917
 20
-4.921896
 10
44.636448
 20
-4.918771
 10
44.648958
 20
-4.915635
 10
44.661448
 20
-4.9125
 10
44.673906
 20
-4.909365
 10
44.686344
 20
-4.906219
 10
44.69875
 20
-4.903083
 10
44.711146
 20
-4.899938
 10
44.7235
 20
-4.896802
 10
44.735833
 20
-4.893656
 10
44.748135
 20
-4.890521
 10
44.760406
 20
-4.887375
 10
44.772646
 20
-4.884229
 10
44.784854
 20
-4.881094
 10
44.797031
 20
-4.877958
 10
44.809177
 20
-4.874812
 10
44.821271
 20
-4.871677
 10
44.833344
 20
-4.868542
 10
44.845375
 20
-4.865417
 10
44.857375
 20
-4.862281
 10
44.869333
 20
-4.859156
 10
44.88124
 20
-4.856031
 10
44.893115
 20
-4.852906
 10
44.898146
 20
-4.851583
  0
LWPOLYLINE
  5
90
330
44A
100
AcDbEntity
  8
2-36G
  6
Continuous
 62
     7
370
     0
100
AcDbPolyline
 90
      104
 70
   128
 43
0.0
 10
40.859281
 20
-5.29949
 10
40.905885
 20
-5.308
 10
40.94999
 20
-5.315052
 10
40.991677
 20
-5.320812
 10
41.031104
 20
-5.325437
 10
41.068365
 20
-5.329083
 10
41.103604
 20
-5.331906
 10
41.136938
 20
-5.334073
 10
41.168479
 20
-5.335729
 10
41.198354
 20
-5.33701
 10
41.226615
 20
-5.33801
 10
41.253323
 20
-5.33875
 10
41.278531
 20
-5.339302
 10
41.302292
 20
-5.339698
 10
41.324667
 20
-5.34
 10
41.345687
 20
-5.34025
 10
41.365427
 20
-5.3405
 10
41.383938
 20
-5.340792
 10
41.401292
 20
-5.341125
 10
41.417552
 20
-5.34149
 10
41.432812
 20
-5.341875
 10
41.447135
 20
-5.342281
 10
41.460583
 20
-5.342688
 10
41.47325
 20
-5.343104
 10
41.485208
 20
-5.3435
 10
41.49651
 20
-5.343885
 10
41.507177
 20
-5.34425
 10
41.51724
 20
-5.344594
 10
41.526698
 20
-5.344896
 10
41.535573
 20
-5.345156
 10
41.543875
 20
-5.345365
 10
41.551615
 20
-5.345542
 10
41.558813
 20
-5.345646
 10
41.5655
 20
-5.345698
 10
41.571781
 20
-5.345698
 10
41.57776
 20
-5.345667
 10
41.583594
 20
-5.345615
 10
41.589365
 20
-5.345562
 10
41.595229
 20
-5.345531
 10
41.601292
 20
-5.34551
 10
41.607677
 20
-5.345542
 10
41.614469
 20
-5.345615
 10
41.621667
 20
-5.345729
 10
41.629208
 20
-5.345875
 10
41.637042
 20
-5.346031
 10
41.645115
 20
-5.346188
 10
41.653385
 20
-5.346323
 10
41.661802
 20
-5.346427
 10
41.670302
 20
-5.34649
 10
41.678865
 20
-5.34649
 10
41.687469
 20
-5.346437
 10
41.696115
 20
-5.346333
 10
41.704792
 20
-5.346198
 10
41.71351
 20
-5.346031
 10
41.722281
 20
-5.345833
 10
41.731073
 20
-5.345615
 10
41.739917
 20
-5.345396
 10
41.748781
 20
-5.345167
 10
41.757687
 20
-5.344937
 10
41.766625
 20
-5.344698
 10
41.775604
 20
-5.344458
 10
41.784604
 20
-5.344219
 10
41.793635
 20
-5.343969
 10
41.802698
 20
-5.343719
 10
41.811781
 20
-5.343458
 10
41.820896
 20
-5.343198
 10
41.830021
 20
-5.342948
 10
41.839125
 20
-5.342698
 10
41.848177
 20
-5.342469
 10
41.857177
 20
-5.34226
 10
41.866083
 20
-5.342094
 10
41.874885
 20
-5.341958
 10
41.883552
 20
-5.341865
 10
41.892073
 20
-5.341823
 10
41.900479
 20
-5.341823
 10
41.908823
 20
-5.341844
 10
41.917135
 20
-5.341885
 10
41.925469
 20
-5.341906
 10
41.933854
 20
-5.341917
 10
41.942344
 20
-5.341885
 10
41.950969
 20
-5.341812
 10
41.959771
 20
-5.341677
 10
41.96874
 20
-5.341479
 10
41.977833
 20
-5.34124
 10
41.987063
 20
-5.340958
 10
41.996375
 20
-5.340635
 10
42.00576
 20
-5.340292
 10
42.015198
 20
-5.339917
 10
42.024656
 20
-5.339531
 10
42.034115
 20
-5.339146
 10
42.043594
 20
-5.33875
 10
42.053052
 20
-5.338344
 10
42.062521
 20
-5.337927
 10
42.07199
 20
-5.33751
 10
42.081458
 20
-5.337083
 10
42.090917
 20
-5.336656
 10
42.100375
 20
-5.336219
 10
42.109823
 20
-5.335771
 10
42.119271
 20
-5.335312
 10
42.128708
 20
-5.334854
 10
42.138146
 20
-5.334385
 10
42.147562
 20
-5.333917
 10
42.156979
 20
-5.333427
 10
42.165417
 20
-5.33299
  0
LWPOLYLINE
  5
93
330
44A
100
AcDbEntity
  8
2-36G
  6
Continuous
 62
     7
370
     0
100
AcDbPolyline
 90
      243
 70
   128
 43
0.0
 10
42.202417
 20
-5.274854
 10
42.210021
 20
-5.274417
 10
42.219302
 20
-5.273885
 10
42.228573
 20
-5.273344
 10
42.237844
 20
-5.272792
 10
42.247104
 20
-5.272229
 10
42.256344
 20
-5.271656
 10
42.265583
 20
-5.271073
 10
42.274823
 20
-5.27049
 10
42.284042
 20
-5.269896
 10
42.29326
 20
-5.269281
 10
42.302469
 20
-5.268667
 10
42.311677
 20
-5.268052
 10
42.320885
 20
-5.267417
 10
42.330073
 20
-5.266771
 10
42.339271
 20
-5.266125
 10
42.348469
 20
-5.265469
 10
42.357656
 20
-5.264792
 10
42.366844
 20
-5.264115
 10
42.376042
 20
-5.263427
 10
42.385229
 20
-5.262729
 10
42.394417
 20
-5.262021
 10
42.403604
 20
-5.261302
 10
42.412802
 20
-5.260573
 10
42.422
 20
-5.259844
 10
42.431198
 20
-5.259094
 10
42.440406
 20
-5.258333
 10
42.449615
 20
-5.257562
 10
42.458833
 20
-5.256781
 10
42.468042
 20
-5.256
 10
42.477271
 20
-5.255198
 10
42.48651
 20
-5.254396
 10
42.49575
 20
-5.253573
 10
42.50501
 20
-5.25274
 10
42.514271
 20
-5.251896
 10
42.523542
 20
-5.251042
 10
42.532823
 20
-5.250188
 10
42.542115
 20
-5.249312
 10
42.551427
 20
-5.248427
 10
42.56074
 20
-5.247531
 10
42.570073
 20
-5.246625
 10
42.579417
 20
-5.245708
 10
42.588781
 20
-5.244771
 10
42.598156
 20
-5.243833
 10
42.607542
 20
-5.242885
 10
42.616958
 20
-5.241917
 10
42.626375
 20
-5.240948
 10
42.635823
 20
-5.239958
 10
42.645281
 20
-5.238958
 10
42.654771
 20
-5.237948
 10
42.664271
 20
-5.236927
 10
42.673792
 20
-5.235885
 10
42.683344
 20
-5.234844
 10
42.692906
 20
-5.233781
 10
42.7025
 20
-5.232708
 10
42.712115
 20
-5.231625
 10
42.72175
 20
-5.230531
 10
42.731406
 20
-5.229417
 10
42.741094
 20
-5.228302
 10
42.750802
 20
-5.227167
 10
42.760542
 20
-5.226021
 10
42.770302
 20
-5.224854
 10
42.780094
 20
-5.223687
 10
42.789906
 20
-5.2225
 10
42.79975
 20
-5.221302
 10
42.809625
 20
-5.220094
 10
42.819531
 20
-5.218865
 10
42.829458
 20
-5.217635
 10
42.839406
 20
-5.216375
 10
42.849385
 20
-5.215115
 10
42.859396
 20
-5.213844
 10
42.869437
 20
-5.212552
 10
42.8795
 20
-5.21125
 10
42.889594
 20
-5.209927
 10
42.899708
 20
-5.208604
 10
42.909865
 20
-5.20725
 10
42.920031
 20
-5.205896
 10
42.93024
 20
-5.204521
 10
42.940469
 20
-5.203146
 10
42.950729
 20
-5.20174
 10
42.961021
 20
-5.200323
 10
42.971333
 20
-5.198906
 10
42.981667
 20
-5.197458
 10
42.992031
 20
-5.19601
 10
43.002427
 20
-5.194542
 10
43.012854
 20
-5.193062
 10
43.023302
 20
-5.191562
 10
43.033781
 20
-5.190052
 10
43.044281
 20
-5.188531
 10
43.054812
 20
-5.18699
 10
43.065375
 20
-5.185437
 10
43.075958
 20
-5.183865
 10
43.086573
 20
-5.182292
 10
43.097208
 20
-5.180687
 10
43.107875
 20
-5.179083
 10
43.118573
 20
-5.177458
 10
43.129292
 20
-5.175813
 10
43.140042
 20
-5.174167
 10
43.150813
 20
-5.17249
 10
43.161615
 20
-5.170813
 10
43.172448
 20
-5.169115
 10
43.183302
 20
-5.167396
 10
43.194177
 20
-5.165667
 10
43.205094
 20
-5.163927
 10
43.216031
 20
-5.162167
 10
43.22699
 20
-5.160396
 10
43.237979
 20
-5.158604
 10
43.249
 20
-5.156802
 10
43.260042
 20
-5.15499
 10
43.271104
 20
-5.153156
 10
43.282198
 20
-5.151302
 10
43.293333
 20
-5.149437
 10
43.304479
 20
-5.147563
 10
43.315656
 20
-5.145667
 10
43.326854
 20
-5.14375
 10
43.338083
 20
-5.141833
 10
43.349333
 20
-5.139885
 10
43.360615
 20
-5.137927
 10
43.371927
 20
-5.135958
 10
43.38326
 20
-5.133969
 10
43.394615
 20
-5.131958
 10
43.40601
 20
-5.129948
 10
43.417417
 20
-5.127906
 10
43.428854
 20
-5.125854
 10
43.440323
 20
-5.123781
 10
43.451812
 20
-5.121698
 10
43.463323
 20
-5.119604
 10
43.474875
 20
-5.11749
 10
43.486438
 20
-5.115365
 10
43.498031
 20
-5.113208
 10
43.509646
 20
-5.111052
 10
43.521292
 20
-5.108875
 10
43.532958
 20
-5.106677
 10
43.544646
 20
-5.104469
 10
43.556365
 20
-5.10225
 10
43.568104
 20
-5.10001
 10
43.579865
 20
-5.09776
 10
43.591646
 20
-5.09549
 10
43.603458
 20
-5.093208
 10
43.615292
 20
-5.090906
 10
43.627146
 20
-5.088583
 10
43.639021
 20
-5.08626
 10
43.650927
 20
-5.083917
 10
43.662844
 20
-5.081562
 10
43.674792
 20
-5.079187
 10
43.68675
 20
-5.076802
 10
43.69874
 20
-5.074406
 10
43.71075
 20
-5.07199
 10
43.722771
 20
-5.069562
 10
43.734812
 20
-5.067115
 10
43.746885
 20
-5.064656
 10
43.758969
 20
-5.062187
 10
43.771083
 20
-5.059698
 10
43.783208
 20
-5.057208
 10
43.795354
 20
-5.054698
 10
43.807521
 20
-5.052167
 10
43.819698
 20
-5.049635
 10
43.831906
 20
-5.047073
 10
43.844125
 20
-5.04451
 10
43.856365
 20
-5.041937
 10
43.868615
 20
-5.039344
 10
43.880885
 20
-5.03674
 10
43.893177
 20
-5.034125
 10
43.90549
 20
-5.0315
 10
43.917812
 20
-5.028854
 10
43.930146
 20
-5.026198
 10
43.94251
 20
-5.023531
 10
43.954885
 20
-5.020854
 10
43.967271
 20
-5.018156
 10
43.979677
 20
-5.015458
 10
43.992094
 20
-5.01274
 10
44.004521
 20
-5.01001
 10
44.016969
 20
-5.007271
 10
44.029438
 20
-5.004521
 10
44.041917
 20
-5.00176
 10
44.054406
 20
-4.998979
 10
44.066906
 20
-4.996198
 10
44.079427
 20
-4.993396
 10
44.091958
 20
-4.990583
 10
44.1045
 20
-4.98776
 10
44.117052
 20
-4.984938
 10
44.129625
 20
-4.982094
 10
44.142208
 20
-4.97924
 10
44.154802
 20
-4.976375
 10
44.167406
 20
-4.97349
 10
44.180021
 20
-4.970604
 10
44.192646
 20
-4.967708
 10
44.205292
 20
-4.964802
 10
44.217937
 20
-4.961885
 10
44.230594
 20
-4.958958
 10
44.24325
 20
-4.956021
 10
44.255927
 20
-4.953073
 10
44.268604
 20
-4.950115
 10
44.281302
 20
-4.947146
 10
44.29399
 20
-4.944167
 10
44.306687
 20
-4.941187
 10
44.319396
 20
-4.938187
 10
44.332094
 20
-4.935187
 10
44.344802
 20
-4.932177
 10
44.35751
 20
-4.929167
 10
44.370219
 20
-4.926135
 10
44.382927
 20
-4.923104
 10
44.395625
 20
-4.920063
 10
44.408333
 20
-4.917021
 10
44.421031
 20
-4.913958
 10
44.433729
 20
-4.910906
 10
44.446417
 20
-4.907833
 10
44.459094
 20
-4.90476
 10
44.471771
 20
-4.901687
 10
44.484427
 20
-4.898604
 10
44.497083
 20
-4.89551
 10
44.509729
 20
-4.892417
 10
44.522354
 20
-4.889323
 10
44.534979
 20
-4.886229
 10
44.547583
 20
-4.883115
 10
44.560167
 20
-4.88001
 10
44.57274
 20
-4.876896
 10
44.585292
 20
-4.873781
 10
44.597833
 20
-4.870656
 10
44.610354
 20
-4.867542
 10
44.622844
 20
-4.864417
 10
44.635323
 20
-4.861292
 10
44.647781
 20
-4.858156
 10
44.660208
 20
-4.855031
 10
44.672615
 20
-4.851896
 10
44.685
 20
-4.848771
 10
44.697354
 20
-4.845635
 10
44.709688
 20
-4.8425
 10
44.721979
 20
-4.839365
 10
44.73425
 20
-4.83624
 10
44.74649
 20
-4.833104
 10
44.758708
 20
-4.829969
 10
44.770875
 20
-4.826833
 10
44.783021
 20
-4.823708
 10
44.795135
 20
-4.820573
 10
44.807198
 20
-4.817448
 10
44.81924
 20
-4.814323
 10
44.83124
 20
-4.811198
 10
44.843208
 20
-4.808073
 10
44.855125
 20
-4.804948
 10
44.86701
 20
-4.801844
 10
44.878854
 20
-4.798729
 10
44.883333
 20
-4.797542
  0
LWPOLYLINE
  5
97
330
44A
100
AcDbEntity
  8
2-36G
  6
Continuous
 62
     7
370
     0
100
AcDbPolyline
 90
      121
 70
   128
 43
0.0
 10
40.859281
 20
-5.29949
 10
40.909635
 20
-5.299542
 10
40.953
 20
-5.299552
 10
40.990177
 20
-5.299542
 10
41.022
 20
-5.29951
 10
41.049302
 20
-5.299458
 10
41.072875
 20
-5.299417
 10
41.093573
 20
-5.299375
 10
41.112198
 20
-5.299354
 10
41.129458
 20
-5.299365
 10
41.145604
 20
-5.299385
 10
41.16076
 20
-5.299427
 10
41.175031
 20
-5.29949
 10
41.188573
 20
-5.299552
 10
41.2015
 20
-5.299625
 10
41.213948
 20
-5.299688
 10
41.226021
 20
-5.29976
 10
41.237844
 20
-5.299812
 10
41.249427
 20
-5.299865
 10
41.260802
 20
-5.299896
 10
41.271948
 20
-5.299917
 10
41.282896
 20
-5.299937
 10
41.293646
 20
-5.299948
 10
41.304198
 20
-5.299948
 10
41.314563
 20
-5.299937
 10
41.32475
 20
-5.299927
 10
41.334771
 20
-5.299896
 10
41.344625
 20
-5.299865
 10
41.354312
 20
-5.299823
 10
41.363854
 20
-5.299771
 10
41.37326
 20
-5.299719
 10
41.382521
 20
-5.299656
 10
41.391656
 20
-5.299583
 10
41.400677
 20
-5.29951
 10
41.409583
 20
-5.299427
 10
41.418375
 20
-5.299344
 10
41.427073
 20
-5.29924
 10
41.435677
 20
-5.299135
 10
41.444187
 20
-5.299031
 10
41.452635
 20
-5.298917
 10
41.461
 20
-5.298802
 10
41.469302
 20
-5.298677
 10
41.477552
 20
-5.298542
 10
41.48575
 20
-5.298417
 10
41.493906
 20
-5.298271
 10
41.502031
 20
-5.298135
 10
41.510125
 20
-5.29799
 10
41.518198
 20
-5.297833
 10
41.52625
 20
-5.297687
 10
41.534312
 20
-5.297531
 10
41.542365
 20
-5.297365
 10
41.550427
 20
-5.297198
 10
41.55849
 20
-5.297031
 10
41.566583
 20
-5.296865
 10
41.574687
 20
-5.296687
 10
41.582823
 20
-5.29651
 10
41.591
 20
-5.296323
 10
41.599208
 20
-5.296146
 10
41.607458
 20
-5.295969
 10
41.61576
 20
-5.295781
 10
41.624094
 20
-5.295594
 10
41.632469
 20
-5.295396
 10
41.640885
 20
-5.295198
 10
41.649344
 20
-5.295
 10
41.657854
 20
-5.294802
 10
41.666396
 20
-5.294604
 10
41.674979
 20
-5.294396
 10
41.683615
 20
-5.294187
 10
41.692281
 20
-5.293979
 10
41.70099
 20
-5.29376
 10
41.70974
 20
-5.293542
 10
41.718521
 20
-5.293323
 10
41.727333
 20
-5.293104
 10
41.736187
 20
-5.292865
 10
41.745083
 20
-5.292635
 10
41.754
 20
-5.292396
 10
41.762958
 20
-5.292156
 10
41.771937
 20
-5.291917
 10
41.780948
 20
-5.291677
 10
41.78999
 20
-5.291417
 10
41.799062
 20
-5.291167
 10
41.808156
 20
-5.290906
 10
41.817281
 20
-5.290646
 10
41.826427
 20
-5.290375
 10
41.835594
 20
-5.290104
 10
41.844781
 20
-5.289823
 10
41.854
 20
-5.289542
 10
41.86324
 20
-5.28925
 10
41.87249
 20
-5.288958
 10
41.88176
 20
-5.288667
 10
41.891052
 20
-5.288365
 10
41.900354
 20
-5.288052
 10
41.909677
 20
-5.28775
 10
41.91901
 20
-5.287427
 10
41.928365
 20
-5.287104
 10
41.937719
 20
-5.286771
 10
41.947094
 20
-5.286437
 10
41.956469
 20
-5.286104
 10
41.965875
 20
-5.28575
 10
41.975271
 20
-5.285406
 10
41.984677
 20
-5.285042
 10
41.994083
 20
-5.284677
 10
42.00351
 20
-5.284312
 10
42.012927
 20
-5.283927
 10
42.022354
 20
-5.283552
 10
42.031781
 20
-5.283156
 10
42.041208
 20
-5.28276
 10
42.050635
 20
-5.282365
 10
42.060063
 20
-5.281958
 10
42.06949
 20
-5.281542
 10
42.078906
 20
-5.281115
 10
42.088333
 20
-5.280687
 10
42.09775
 20
-5.28025
 10
42.107156
 20
-5.279813
 10
42.116552
 20
-5.279354
 10
42.125948
 20
-5.278896
 10
42.135323
 20
-5.278427
 10
42.144698
 20
-5.277958
 10
42.154063
 20
-5.277479
 10
42.163417
 20
-5.27699
 10
42.165417
 20
-5.276875
  0
LINE
  5
9A
330
44A
100
AcDbEntity
  8
2-36G
  6
Continuous
 62
     7
370
    13
100
AcDbLine
 10
42.165417
 20
-5.33299
 30
0.0
 11
42.165417
 21
-5.276875
 31
0.0
  0
LINE
  5
9B
330
44A
100
AcDbEntity
  8
2-36G
  6
Continuous
 62
     7
370
    13
100
AcDbLine
 10
42.202417
 20
-5.274469
 30
0.0
 11
42.202417
 21
-5.330969
 31
0.0
  0
SOLID
  5
9C
330
44A
100
AcDbEntity
  8
2-36G
  6
Continuous
 62
     7
370
    13
100
AcDbTrace
 10
42.446917
 20
-4.486417
 30
0.0
 11
42.433906
 21
-4.496823
 31
0.0
 12
42.471635
 22
-4.530656
 32
0.0
 13
42.471635
 23
-4.530656
 33
0.0
  0
LINE
  5
9D
330
44A
100
AcDbEntity
  8
2-36G
  6
Continuous
 62
     7
370
    13
100
AcDbLine
 10
42.440406
 20
-4.491615
 30
0.0
 11
42.328427
 21
-4.351625
 31
0.0
  0
LINE
  5
9E
330
44A
100
AcDbEntity
  8
2-36G
  6
Continuous
 62
     7
370
    13
100
AcDbLine
 10
42.328427
 20
-4.351625
 30
0.0
 11
42.278427
 21
-4.351625
 31
0.0
  0
LINE
  5
A0
330
44A
100
AcDbEntity
  8
2-36G
  6
Continuous
 62
     7
370
    13
100
AcDbLine
 10
43.658896
 20
-4.217625
 30
0.0
 11
43.608896
 21
-4.217625
 31
0.0
  0
LINE
  5
A1
330
44A
100
AcDbEntity
  8
2-36G
  6
Continuous
 62
     7
370
    13
100
AcDbLine
 10
43.946813
 20
-4.588625
 30
0.0
 11
43.658896
 21
-4.217625
 31
0.0
  0
SOLID
  5
A2
330
44A
100
AcDbEntity
  8
2-36G
  6
Continuous
 62
     7
370
    13
100
AcDbTrace
 10
43.953396
 20
-4.58351
 30
0.0
 11
43.940229
 21
-4.593729
 31
0.0
 12
43.977469
 22
-4.628115
 32
0.0
 13
43.977469
 23
-4.628115
 33
0.0
  0
LINE
  5
A4
330
44A
100
AcDbEntity
  8
2-36G
  6
Continuous
 62
     7
370
    13
100
AcDbLine
 10
45.109521
 20
-4.971927
 30
0.0
 11
45.059521
 21
-4.971927
 31
0.0
  0
LINE
  5
A5
330
44A
100
AcDbEntity
  8
2-36G
  6
Continuous
 62
     7
370
    13
100
AcDbLine
 10
45.163771
 20
-4.86024
 30
0.0
 11
45.109521
 21
-4.971927
 31
0.0
  0
SOLID
  5
A6
330
44A
100
AcDbEntity
  8
2-36G
  6
Continuous
 62
     7
370
    13
100
AcDbTrace
 10
45.156271
 20
-4.856604
 30
0.0
 11
45.17126
 21
-4.863885
 31
0.0
 12
45.185604
 22
-4.815271
 32
0.0
 13
45.185604
 23
-4.815271
 33
0.0
  0
LINE
  5
A8
330
44A
100
AcDbEntity
  8
2-36G
  6
Continuous
 62
     7
370
    13
100
AcDbLine
 10
45.552583
 20
-5.18676
 30
0.0
 11
45.602583
 21
-5.18676
 31
0.0
  0
LINE
  5
A9
330
44A
100
AcDbEntity
  8
2-36G
  6
Continuous
 62
     7
370
    13
100
AcDbLine
 10
45.453677
 20
-5.285687
 30
0.0
 11
45.552583
 21
-5.18676
 31
0.0
  0
SOLID
  5
AA
330
44A
100
AcDbEntity
  8
2-36G
  6
Continuous
 62
     7
370
    13
100
AcDbTrace
 10
-45.459573
 20
-5.291583
 30
0.0
 11
-45.447792
 21
-5.279792
 31
0.0
 12
-45.418333
 22
-5.321042
 32
0.0
 13
-45.418333
 23
-5.321042
 33
0.0
210
0.0
220
0.0
230
-1.0
  0
LINE
  5
AC
330
44A
100
AcDbEntity
  8
2-36G
  6
Continuous
 62
     7
370
    13
100
AcDbLine
 10
44.362135
 20
-4.815271
 30
0.0
 11
44.312135
 21
-4.815271
 31
0.0
  0
LINE
  5
AD
330
44A
100
AcDbEntity
  8
2-36G
  6
Continuous
 62
     7
370
    13
100
AcDbLine
 10
44.401542
 20
-4.862062
 30
0.0
 11
44.362135
 21
-4.815271
 31
0.0
  0
SOLID
  5
AE
330
44A
100
AcDbEntity
  8
2-36G
  6
Continuous
 62
     7
370
    13
100
AcDbTrace
 10
44.407917
 20
-4.856698
 30
0.0
 11
44.395167
 21
-4.867437
 31
0.0
 12
44.43374
 22
-4.900313
 32
0.0
 13
44.43374
 23
-4.900313
 33
0.0
  0
LINE
  5
B0
330
44A
100
AcDbEntity
  8
2-36G
  6
Continuous
 62
     7
370
    13
100
AcDbLine
 10
45.325115
 20
-4.91374
 30
0.0
 11
45.378052
 21
-4.91374
 31
0.0
  0
SOLID
  5
B1
330
44A
100
AcDbEntity
  8
2-36G
  6
Continuous
 62
     7
370
    13
100
AcDbTrace
 10
45.325115
 20
-4.922073
 30
0.0
 11
45.325115
 21
-4.905406
 31
0.0
 12
45.275115
 22
-4.91374
 32
0.0
 13
45.275115
 23
-4.91374
 33
0.0
  0
LINE
  5
B2
330
44A
100
AcDbEntity
  8
2-36G
  6
Continuous
 62
     7
370
    13
100
AcDbLine
 10
45.277604
 20
-4.812292
 30
0.0
 11
45.277604
 21
-5.070844
 31
0.0
  0
SOLID
  5
B4
330
44A
100
AcDbEntity
  8
2-36G
  6
Continuous
 62
     7
370
    13
100
AcDbTrace
 10
-45.593167
 20
-4.295958
 30
0.0
 11
-45.588021
 21
-4.280115
 31
0.0
 12
-45.638146
 22
-4.272583
 32
0.0
 13
-45.638146
 23
-4.272583
 33
0.0
210
0.0
220
0.0
230
-1.0
  0
SOLID
  5
B5
330
44A
100
AcDbEntity
  8
2-36G
  6
Continuous
 62
     7
370
    13
100
AcDbTrace
 10
45.227042
 20
-4.414927
 30
0.0
 11
45.221885
 21
-4.399073
 31
0.0
 12
45.176906
 22
-4.422448
 32
0.0
 13
45.176906
 23
-4.422448
 33
0.0
  0
LINE
  5
B6
330
44A
100
AcDbEntity
  8
2-36G
  6
Continuous
 62
     7
370
    13
100
AcDbLine
 10
45.224458
 20
-4.407
 30
0.0
 11
45.590594
 21
-4.288042
 31
0.0
  0
SOLID
  5
B8
330
44A
100
AcDbEntity
  8
2-36G
  6
Continuous
 62
     7
370
    13
100
AcDbTrace
 10
-45.131937
 20
-4.445823
 30
0.0
 11
-45.126792
 21
-4.429979
 31
0.0
 12
-45.176906
 22
-4.422448
 32
0.0
 13
-45.176906
 23
-4.422448
 33
0.0
210
0.0
220
0.0
230
-1.0
  0
SOLID
  5
B9
330
44A
100
AcDbEntity
  8
2-36G
  6
Continuous
 62
     7
370
    13
100
AcDbTrace
 10
44.871031
 20
-4.530604
 30
0.0
 11
44.865875
 21
-4.51475
 31
0.0
 12
44.820906
 22
-4.538125
 32
0.0
 13
44.820906
 23
-4.538125
 33
0.0
  0
LINE
  5
BA
330
44A
100
AcDbEntity
  8
2-36G
  6
Continuous
 62
     7
370
    13
100
AcDbLine
 10
44.868458
 20
-4.522677
 30
0.0
 11
45.129365
 21
-4.437906
 31
0.0
  0
LINE
  5
BB
330
44A
100
AcDbEntity
  8
2-36G
  6
Continuous
 62
     7
370
    13
100
AcDbLine
 10
45.236208
 20
-4.604958
 30
0.0
 11
45.161458
 21
-4.374906
 31
0.0
  0
SOLID
  5
BD
330
44A
100
AcDbEntity
  8
2-36G
  6
Continuous
 62
     7
370
    13
100
AcDbTrace
 10
44.831531
 20
-4.411031
 30
0.0
 11
44.826323
 21
-4.395198
 31
0.0
 12
44.781427
 22
-4.418729
 32
0.0
 13
44.781427
 23
-4.418729
 33
0.0
  0
SOLID
  5
BE
330
44A
100
AcDbEntity
  8
2-36G
  6
Continuous
 62
     7
370
    13
100
AcDbTrace
 10
-45.552052
 20
-4.174104
 30
0.0
 11
-45.546844
 21
-4.158271
 31
0.0
 12
-45.596937
 22
-4.150573
 32
0.0
 13
-45.596937
 23
-4.150573
 33
0.0
210
0.0
220
0.0
230
-1.0
  0
LINE
  5
BF
330
44A
100
AcDbEntity
  8
2-36G
  6
Continuous
 62
     7
370
    13
100
AcDbLine
 10
45.549448
 20
-4.166177
 30
0.0
 11
44.828927
 21
-4.403115
 31
0.0
  0
LINE
  5
C0
330
44A
100
AcDbEntity
  8
2-36G
  6
Continuous
 62
     7
370
    13
100
AcDbLine
 10
44.838812
 20
-4.593219
 30
0.0
 11
44.765812
 21
-4.37124
 31
0.0
  0
LINE
  5
C1
330
44A
100
AcDbEntity
  8
2-36G
  6
Continuous
 62
     7
370
    13
100
AcDbLine
 10
45.712094
 20
-4.50076
 30
0.0
 11
45.581323
 21
-4.103073
 31
0.0
  0
LINE
  5
C3
330
44A
100
AcDbEntity
  8
2-36G
  6
Continuous
 62
     7
370
    13
100
AcDbLine
 10
45.736542
 20
-3.851927
 30
0.0
 11
45.928521
 21
-3.830594
 31
0.0
  0
SOLID
  5
C4
330
44A
100
AcDbEntity
  8
2-36G
  6
Continuous
 62
     7
370
    13
100
AcDbTrace
 10
45.737458
 20
-3.860208
 30
0.0
 11
45.735625
 21
-3.843646
 31
0.0
 12
45.686854
 22
-3.857448
 32
0.0
 13
45.686854
 23
-3.857448
 33
0.0
  0
LINE
  5
C6
330
44A
100
AcDbEntity
  8
2-36G
  6
Continuous
 62
     7
370
    13
100
AcDbLine
 10
44.648562
 20
-3.960385
 30
0.0
 11
44.598562
 21
-3.960385
 31
0.0
  0
LINE
  5
C7
330
44A
100
AcDbEntity
  8
2-36G
  6
Continuous
 62
     7
370
    13
100
AcDbLine
 10
44.788198
 20
-4.103625
 30
0.0
 11
44.648562
 21
-3.960385
 31
0.0
  0
SOLID
  5
C8
330
44A
100
AcDbEntity
  8
2-36G
  6
Continuous
 62
     7
370
    13
100
AcDbTrace
 10
44.794167
 20
-4.097812
 30
0.0
 11
44.782229
 21
-4.109438
 31
0.0
 12
44.823094
 22
-4.139427
 32
0.0
 13
44.823094
 23
-4.139427
 33
0.0
  0
LINE
  5
C9
330
44A
100
AcDbEntity
  8
2-36G
  6
Continuous
 62
     7
370
    13
100
AcDbLine
 10
42.739094
 20
-5.469281
 30
0.0
 11
46.20525
 21
-5.469281
 31
0.0
  0
LINE
  5
CA
330
44A
100
AcDbEntity
  8
2-36G
  6
Continuous
 62
     7
370
    13
100
AcDbLine
 10
42.739094
 20
-5.41325
 30
0.0
 11
46.20525
 21
-5.41325
 31
0.0
  0
LINE
  5
CB
330
44A
100
AcDbEntity
  8
2-36G
  6
Continuous
 62
     7
370
    13
100
AcDbLine
 10
42.699094
 20
-5.469281
 30
0.0
 11
42.699094
 21
-5.41325
 31
0.0
  0
LINE
  5
CC
330
44A
100
AcDbEntity
  8
2-36G
  6
Continuous
 62
     7
370
    13
100
AcDbLine
 10
42.739094
 20
-5.469281
 30
0.0
 11
42.739094
 21
-5.41325
 31
0.0
  0
LINE
  5
CE
330
44A
100
AcDbEntity
  8
2-36G
  6
Continuous
 62
     7
370
    13
100
AcDbLine
 10
40.784021
 20
-7.775115
 30
0.0
 11
40.964635
 21
-7.775115
 31
0.0
  0
SOLID
  5
CF
330
44A
100
AcDbEntity
  8
2-36G
  6
Continuous
 62
     7
370
    13
100
AcDbTrace
 10
40.784021
 20
-7.783448
 30
0.0
 11
40.784021
 21
-7.766781
 31
0.0
 12
40.734031
 22
-7.775115
 32
0.0
 13
40.734031
 23
-7.775115
 33
0.0
  0
SOLID
  5
D1
330
44A
100
AcDbEntity
  8
2-36G
  6
Continuous
 62
     7
370
    13
100
AcDbTrace
 10
44.209656
 20
-7.625312
 30
0.0
 11
44.209656
 21
-7.608646
 31
0.0
 12
44.259656
 22
-7.616979
 32
0.0
 13
44.259656
 23
-7.616979
 33
0.0
  0
SOLID
  5
D2
330
44A
100
AcDbEntity
  8
2-36G
  6
Continuous
 62
     7
370
    13
100
AcDbTrace
 10
40.77701
 20
-7.625312
 30
0.0
 11
40.77701
 21
-7.608646
 31
0.0
 12
40.727021
 22
-7.616979
 32
0.0
 13
40.727021
 23
-7.616979
 33
0.0
  0
LINE
  5
D3
330
44A
100
AcDbEntity
  8
2-36G
  6
Continuous
 62
     7
370
    13
100
AcDbLine
 10
40.77701
 20
-7.616979
 30
0.0
 11
44.209656
 21
-7.616979
 31
0.0
  0
LINE
  5
D4
330
44A
100
AcDbEntity
  8
2-36G
  6
Continuous
 62
     7
370
    13
100
AcDbLine
 10
44.259656
 20
-8.331062
 30
0.0
 11
44.259656
 21
-7.566979
 31
0.0
  0
LINE
  5
D5
330
44A
100
AcDbEntity
  8
2-36G
  6
Continuous
 62
     7
370
    13
100
AcDbLine
 10
40.727021
 20
-8.156948
 30
0.0
 11
40.727021
 21
-7.566979
 31
0.0
  0
LINE
  5
D7
330
44A
100
AcDbEntity
  8
2-36G
  6
Continuous
 62
     7
370
    13
100
AcDbLine
 10
41.167104
 20
-8.015323
 30
0.0
 11
41.403281
 21
-8.015323
 31
0.0
  0
SOLID
  5
D8
330
44A
100
AcDbEntity
  8
2-36G
  6
Continuous
 62
     7
370
    13
100
AcDbTrace
 10
41.167104
 20
-8.023656
 30
0.0
 11
41.167104
 21
-8.00699
 31
0.0
 12
41.117104
 22
-8.015323
 32
0.0
 13
41.117104
 23
-8.015323
 33
0.0
  0
LINE
  5
D9
330
44A
100
AcDbEntity
  8
2-36G
  6
Continuous
 62
     7
370
    13
100
AcDbLine
 10
44.271271
 20
-8.499844
 30
0.0
 11
45.93299
 21
-8.499844
 31
0.0
  0
LINE
  5
DA
330
44A
100
AcDbEntity
  8
2-36G
  6
Continuous
 62
     7
370
    13
100
AcDbLine
 10
44.271271
 20
-8.535354
 30
0.0
 11
45.93299
 21
-8.535354
 31
0.0
  0
LINE
  5
DB
330
44A
100
AcDbEntity
  8
2-36G
  6
Continuous
 62
     7
370
    13
100
AcDbLine
 10
44.271271
 20
-8.407427
 30
0.0
 11
45.93299
 21
-8.407427
 31
0.0
  0
LINE
  5
DC
330
44A
100
AcDbEntity
  8
2-36G
  6
Continuous
 62
     7
370
    13
100
AcDbLine
 10
44.247583
 20
-8.407427
 30
0.0
 11
44.247583
 21
-8.535354
 31
0.0
  0
LINE
  5
DD
330
44A
100
AcDbEntity
  8
2-36G
  6
Continuous
 62
     7
370
    13
100
AcDbLine
 10
44.271271
 20
-8.535354
 30
0.0
 11
44.271271
 21
-8.407427
 31
0.0
  0
LINE
  5
DF
330
44A
100
AcDbEntity
  8
2-36G
  6
Continuous
 62
     7
370
    13
100
AcDbLine
 10
44.867333
 20
-7.8525
 30
0.0
 11
44.808115
 21
-7.8525
 31
0.0
  0
LINE
  5
E0
330
44A
100
AcDbEntity
  8
2-36G
  6
Continuous
 62
     7
370
    13
100
AcDbLine
 10
44.864438
 20
-8.107635
 30
0.0
 11
44.808115
 21
-7.8525
 31
0.0
  0
SOLID
  5
E1
330
44A
100
AcDbEntity
  8
2-36G
  6
Continuous
 62
     7
370
    13
100
AcDbTrace
 10
44.872583
 20
-8.105833
 30
0.0
 11
44.856302
 21
-8.109427
 31
0.0
 12
44.875219
 22
-8.156448
 32
0.0
 13
44.875219
 23
-8.156448
 33
0.0
  0
LINE
  5
E3
330
44A
100
AcDbEntity
  8
2-36G
  6
Continuous
 62
     7
370
    13
100
AcDbLine
 10
44.887875
 20
-8.811365
 30
0.0
 11
44.937875
 21
-8.811365
 31
0.0
  0
LINE
  5
E4
330
44A
100
AcDbEntity
  8
2-36G
  6
Continuous
 62
     7
370
    13
100
AcDbLine
 10
44.7845
 20
-8.598552
 30
0.0
 11
44.887875
 21
-8.811365
 31
0.0
  0
SOLID
  5
E5
330
44A
100
AcDbEntity
  8
2-36G
  6
Continuous
 62
     7
370
    13
100
AcDbTrace
 10
-44.777
 20
-8.602187
 30
0.0
 11
-44.79199
 21
-8.594906
 31
0.0
 12
-44.762656
 22
-8.553573
 32
0.0
 13
-44.762656
 23
-8.553573
 33
0.0
210
0.0
220
0.0
230
-1.0
  0
LINE
  5
E7
330
44A
100
AcDbEntity
  8
2-36G
  6
Continuous
 62
     7
370
    13
100
AcDbLine
 10
42.260302
 20
-9.023115
 30
0.0
 11
42.421844
 21
-9.023115
 31
0.0
  0
SOLID
  5
E8
330
44A
100
AcDbEntity
  8
2-36G
  6
Continuous
 62
     7
370
    13
100
AcDbTrace
 10
42.260302
 20
-9.031448
 30
0.0
 11
42.260302
 21
-9.014781
 31
0.0
 12
42.210302
 22
-9.023115
 32
0.0
 13
42.210302
 23
-9.023115
 33
0.0
  0
LINE
  5
EA
330
44A
100
AcDbEntity
  8
2-36G
  6
Continuous
 62
     7
370
    13
100
AcDbLine
 10
42.274792
 20
-8.803812
 30
0.0
 11
42.324792
 21
-8.803812
 31
0.0
  0
LINE
  5
EB
330
44A
100
AcDbEntity
  8
2-36G
  6
Continuous
 62
     7
370
    13
100
AcDbLine
 10
42.233354
 20
-8.695698
 30
0.0
 11
42.274792
 21
-8.803812
 31
0.0
  0
SOLID
  5
EC
330
44A
100
AcDbEntity
  8
2-36G
  6
Continuous
 62
     7
370
    13
100
AcDbTrace
 10
-42.225573
 20
-8.698677
 30
0.0
 11
-42.241135
 21
-8.692719
 31
0.0
 12
-42.215458
 22
-8.64901
 32
0.0
 13
-42.215458
 23
-8.64901
 33
0.0
210
0.0
220
0.0
230
-1.0
  0
LINE
  5
ED
330
44A
100
AcDbEntity
  8
2-36G
  6
Continuous
 62
     7
370
    13
100
AcDbLine
 10
42.132625
 20
-8.535354
 30
0.0
 11
42.158094
 21
-8.535354
 31
0.0
  0
LINE
  5
EE
330
44A
100
AcDbEntity
  8
2-36G
  6
Continuous
 62
     7
370
    13
100
AcDbLine
 10
42.179812
 20
-8.535354
 30
0.0
 11
44.247583
 21
-8.535354
 31
0.0
  0
LINE
  5
EF
330
44A
100
AcDbEntity
  8
2-36G
  6
Continuous
 62
     7
370
    13
100
AcDbLine
 10
42.132625
 20
-8.56075
 30
0.0
 11
42.110917
 21
-8.56075
 31
0.0
  0
LINE
  5
F0
330
44A
100
AcDbEntity
  8
2-36G
  6
Continuous
 62
     7
370
    13
100
AcDbLine
 10
42.132625
 20
-8.56075
 30
0.0
 11
42.132625
 21
-8.505385
 31
0.0
  0
LINE
  5
F1
330
44A
100
AcDbEntity
  8
2-36G
  6
Continuous
 62
     7
370
    13
100
AcDbLine
 10
42.110917
 20
-8.56075
 30
0.0
 11
42.110917
 21
-8.505385
 31
0.0
  0
LINE
  5
F2
330
44A
100
AcDbEntity
  8
2-36G
  6
Continuous
 62
     7
370
    13
100
AcDbLine
 10
42.110917
 20
-8.505385
 30
0.0
 11
42.132625
 21
-8.505385
 31
0.0
  0
LINE
  5
F3
330
44A
100
AcDbEntity
  8
2-36G
  6
Continuous
 62
     7
370
    13
100
AcDbLine
 10
42.179812
 20
-8.56075
 30
0.0
 11
42.158094
 21
-8.56075
 31
0.0
  0
LINE
  5
F4
330
44A
100
AcDbEntity
  8
2-36G
  6
Continuous
 62
     7
370
    13
100
AcDbLine
 10
42.158094
 20
-8.56075
 30
0.0
 11
42.158094
 21
-8.505385
 31
0.0
  0
LINE
  5
F5
330
44A
100
AcDbEntity
  8
2-36G
  6
Continuous
 62
     7
370
    13
100
AcDbLine
 10
42.158094
 20
-8.505385
 30
0.0
 11
42.179812
 21
-8.505385
 31
0.0
  0
LINE
  5
F6
330
44A
100
AcDbEntity
  8
2-36G
  6
Continuous
 62
     7
370
    13
100
AcDbLine
 10
42.179812
 20
-8.56075
 30
0.0
 11
42.179812
 21
-8.505385
 31
0.0
  0
LINE
  5
F8
330
44A
100
AcDbEntity
  8
2-36G
  6
Continuous
 62
     7
370
    13
100
AcDbLine
 10
42.346865
 20
-9.364
 30
0.0
 11
42.396854
 21
-9.364
 31
0.0
  0
LINE
  5
F9
330
44A
100
AcDbEntity
  8
2-36G
  6
Continuous
 62
     7
370
    13
100
AcDbLine
 10
42.204573
 20
-9.576208
 30
0.0
 11
42.346865
 21
-9.364
 31
0.0
  0
SOLID
  5
FA
330
44A
100
AcDbEntity
  8
2-36G
  6
Continuous
 62
     7
370
    13
100
AcDbTrace
 10
-42.21149
 20
-9.580844
 30
0.0
 11
-42.197646
 21
-9.571562
 31
0.0
 12
-42.176719
 22
-9.617729
 32
0.0
 13
-42.176719
 23
-9.617729
 33
0.0
210
0.0
220
0.0
230
-1.0
  0
LINE
  5
FB
330
44A
100
AcDbEntity
  8
2-36G
  6
Continuous
 62
     7
370
    13
100
AcDbLine
 10
41.087729
 20
-9.684427
 30
0.0
 11
41.087729
 21
-9.657146
 31
0.0
  0
LINE
  5
FC
330
44A
100
AcDbEntity
  8
2-36G
  6
Continuous
 62
     7
370
    13
100
AcDbLine
 10
41.087729
 20
-9.657146
 30
0.0
 11
41.109448
 21
-9.657146
 31
0.0
  0
LINE
  5
FD
330
44A
100
AcDbEntity
  8
2-36G
  6
Continuous
 62
     7
370
    13
100
AcDbLine
 10
41.109448
 20
-9.683781
 30
0.0
 11
41.109448
 21
-9.657146
 31
0.0
  0
LINE
  5
FE
330
44A
100
AcDbEntity
  8
2-36G
  6
Continuous
 62
     7
370
    13
100
AcDbLine
 10
41.06226
 20
-9.685198
 30
0.0
 11
41.06226
 21
-9.657146
 31
0.0
  0
LINE
  5
FF
330
44A
100
AcDbEntity
  8
2-36G
  6
Continuous
 62
     7
370
    13
100
AcDbLine
 10
41.040542
 20
-9.685854
 30
0.0
 11
41.040542
 21
-9.657146
 31
0.0
  0
LINE
  5
100
330
44A
100
AcDbEntity
  8
2-36G
  6
Continuous
 62
     7
370
    13
100
AcDbLine
 10
41.040542
 20
-9.657146
 30
0.0
 11
41.06226
 21
-9.657146
 31
0.0
  0
LWPOLYLINE
  5
101
330
44A
100
AcDbEntity
  8
2-36G
  6
Continuous
 62
     7
370
     0
100
AcDbPolyline
 90
        2
 70
   128
 43
0.0
 10
42.171167
 20
-9.653354
 10
42.196635
 20
-9.652656
  0
LWPOLYLINE
  5
102
330
44A
100
AcDbEntity
  8
2-36G
  6
Continuous
 62
     7
370
     0
100
AcDbPolyline
 90
        4
 70
   128
 43
0.0
 10
40.775271
 20
-9.693812
 10
41.265667
 20
-9.679094
 10
41.723594
 20
-9.665865
 10
42.149448
 20
-9.653948
  0
LWPOLYLINE
  5
103
330
44A
100
AcDbEntity
  8
2-36G
  6
Continuous
 62
     7
370
     0
100
AcDbPolyline
 90
       14
 70
   128
 43
0.0
 10
42.218354
 20
-9.652062
 10
42.548562
 20
-9.643031
 10
42.918896
 20
-9.63301
 10
43.263323
 20
-9.623625
 10
43.583469
 20
-9.614688
 10
43.881
 20
-9.605969
 10
44.158115
 20
-9.59725
 10
44.419344
 20
-9.588271
 10
44.669771
 20
-9.578781
 10
44.914469
 20
-9.56849
 10
45.158552
 20
-9.557146
 10
45.407094
 20
-9.544469
 10
45.665177
 20
-9.530208
 10
45.93299
 20
-9.514365
  0
LINE
  5
104
330
44A
100
AcDbEntity
  8
2-36G
  6
Continuous
 62
     7
370
    13
100
AcDbLine
 10
42.149448
 20
-9.620344
 30
0.0
 11
42.171167
 21
-9.620344
 31
0.0
  0
LINE
  5
105
330
44A
100
AcDbEntity
  8
2-36G
  6
Continuous
 62
     7
370
    13
100
AcDbLine
 10
42.149448
 20
-9.675698
 30
0.0
 11
42.149448
 21
-9.620344
 31
0.0
  0
LINE
  5
106
330
44A
100
AcDbEntity
  8
2-36G
  6
Continuous
 62
     7
370
    13
100
AcDbLine
 10
42.171167
 20
-9.675698
 30
0.0
 11
42.171167
 21
-9.620344
 31
0.0
  0
LINE
  5
107
330
44A
100
AcDbEntity
  8
2-36G
  6
Continuous
 62
     7
370
    13
100
AcDbLine
 10
42.171167
 20
-9.675698
 30
0.0
 11
42.149448
 21
-9.675698
 31
0.0
  0
LINE
  5
108
330
44A
100
AcDbEntity
  8
2-36G
  6
Continuous
 62
     7
370
    13
100
AcDbLine
 10
42.218354
 20
-9.675698
 30
0.0
 11
42.218354
 21
-9.620344
 31
0.0
  0
LINE
  5
109
330
44A
100
AcDbEntity
  8
2-36G
  6
Continuous
 62
     7
370
    13
100
AcDbLine
 10
42.196635
 20
-9.620344
 30
0.0
 11
42.218354
 21
-9.620344
 31
0.0
  0
LINE
  5
10A
330
44A
100
AcDbEntity
  8
2-36G
  6
Continuous
 62
     7
370
    13
100
AcDbLine
 10
42.196635
 20
-9.675698
 30
0.0
 11
42.196635
 21
-9.620344
 31
0.0
  0
LINE
  5
10B
330
44A
100
AcDbEntity
  8
2-36G
  6
Continuous
 62
     7
370
    13
100
AcDbLine
 10
42.218354
 20
-9.675698
 30
0.0
 11
42.196635
 21
-9.675698
 31
0.0
  0
LINE
  5
10D
330
44A
100
AcDbEntity
  8
2-36G
  6
Continuous
 62
     7
370
    13
100
AcDbLine
 10
44.292698
 20
-9.366875
 30
0.0
 11
44.231208
 21
-9.366875
 31
0.0
  0
LINE
  5
10E
330
44A
100
AcDbEntity
  8
2-36G
  6
Continuous
 62
     7
370
    13
100
AcDbLine
 10
44.20674
 20
-9.633948
 30
0.0
 11
44.292698
 21
-9.366875
 31
0.0
  0
SOLID
  5
10F
330
44A
100
AcDbEntity
  8
2-36G
  6
Continuous
 62
     7
370
    13
100
AcDbTrace
 10
-44.214677
 20
-9.6365
 30
0.0
 11
-44.198812
 21
-9.631396
 31
0.0
 12
-44.191427
 22
-9.681542
 32
0.0
 13
-44.191427
 23
-9.681542
 33
0.0
210
0.0
220
0.0
230
-1.0
  0
LINE
  5
111
330
44A
100
AcDbEntity
  8
2-36G
  6
Continuous
 62
     7
370
    13
100
AcDbLine
 10
45.224187
 20
-9.293375
 30
0.0
 11
45.304135
 21
-9.293375
 31
0.0
  0
LINE
  5
112
330
44A
100
AcDbEntity
  8
2-36G
  6
Continuous
 62
     7
370
    13
100
AcDbLine
 10
45.313281
 20
-9.487771
 30
0.0
 11
45.224187
 21
-9.293375
 31
0.0
  0
SOLID
  5
113
330
44A
100
AcDbEntity
  8
2-36G
  6
Continuous
 62
     7
370
    13
100
AcDbTrace
 10
45.320854
 20
-9.484302
 30
0.0
 11
45.305708
 21
-9.49124
 31
0.0
 12
45.334115
 22
-9.533219
 32
0.0
 13
45.334115
 23
-9.533219
 33
0.0
  0
LINE
  5
115
330
44A
100
AcDbEntity
  8
2-36G
  6
Continuous
 62
     7
370
    13
100
AcDbLine
 10
44.358052
 20
-10.25851
 30
0.0
 11
44.408052
 21
-10.25851
 31
0.0
  0
LINE
  5
116
330
44A
100
AcDbEntity
  8
2-36G
  6
Continuous
 62
     7
370
    13
100
AcDbLine
 10
44.22251
 20
-9.885771
 30
0.0
 11
44.358052
 21
-10.25851
 31
0.0
  0
SOLID
  5
117
330
44A
100
AcDbEntity
  8
2-36G
  6
Continuous
 62
     7
370
    13
100
AcDbTrace
 10
-44.214677
 20
-9.888625
 30
0.0
 11
-44.230344
 21
-9.882927
 31
0.0
 12
-44.205427
 22
-9.838792
 32
0.0
 13
-44.205427
 23
-9.838792
 33
0.0
210
0.0
220
0.0
230
-1.0
  0
LINE
  5
119
330
44A
100
AcDbEntity
  8
2-36G
  6
Continuous
 62
     7
370
    13
100
AcDbLine
 10
43.99175
 20
-10.472188
 30
0.0
 11
44.04175
 21
-10.472188
 31
0.0
  0
LINE
  5
11A
330
44A
100
AcDbEntity
  8
2-36G
  6
Continuous
 62
     7
370
    13
100
AcDbLine
 10
43.762104
 20
-10.001885
 30
0.0
 11
43.99175
 21
-10.472188
 31
0.0
  0
SOLID
  5
11B
330
44A
100
AcDbEntity
  8
2-36G
  6
Continuous
 62
     7
370
    13
100
AcDbTrace
 10
-43.754635
 20
-10.005583
 30
0.0
 11
-43.769573
 21
-9.998177
 31
0.0
 12
-43.739927
 22
-9.957073
 32
0.0
 13
-43.739927
 23
-9.957073
 33
0.0
210
0.0
220
0.0
230
-1.0
  0
LINE
  5
11D
330
44A
100
AcDbEntity
  8
2-36G
  6
Continuous
 62
     7
370
    13
100
AcDbLine
 10
42.755073
 20
-10.348562
 30
0.0
 11
42.705073
 21
-10.348562
 31
0.0
  0
LINE
  5
11E
330
44A
100
AcDbEntity
  8
2-36G
  6
Continuous
 62
     7
370
    13
100
AcDbLine
 10
42.864021
 20
-10.14724
 30
0.0
 11
42.755073
 21
-10.348562
 31
0.0
  0
SOLID
  5
11F
330
44A
100
AcDbEntity
  8
2-36G
  6
Continuous
 62
     7
370
    13
100
AcDbTrace
 10
42.856698
 20
-10.143271
 30
0.0
 11
42.871354
 21
-10.151208
 31
0.0
 12
42.887812
 22
-10.103271
 32
0.0
 13
42.887812
 23
-10.103271
 33
0.0
  0
LINE
  5
120
330
44A
100
AcDbEntity
  8
2-36G
  6
Continuous
 62
     7
370
    13
100
AcDbLine
 10
41.802427
 20
-8.155458
 30
0.0
 11
42.006844
 21
-8.155458
 31
0.0
  0
LINE
  5
121
330
44A
100
AcDbEntity
  8
2-36G
  6
Continuous
 62
     7
370
    13
100
AcDbLine
 10
42.305615
 20
-8.162219
 30
0.0
 11
42.510021
 21
-8.162219
 31
0.0
  0
LINE
  5
122
330
44A
100
AcDbEntity
  8
2-36G
  6
Continuous
 62
     7
370
    13
100
AcDbLine
 10
42.854552
 20
-8.148438
 30
0.0
 11
43.058969
 21
-8.148438
 31
0.0
  0
LINE
  5
123
330
44A
100
AcDbEntity
  8
2-36G
  6
Continuous
 62
     7
370
    13
100
AcDbLine
 10
41.28275
 20
-8.155458
 30
0.0
 11
41.487156
 21
-8.155458
 31
0.0
  0
LINE
  5
124
330
44A
100
AcDbEntity
  8
2-36G
  6
Continuous
 62
     7
370
    13
100
AcDbLine
 10
40.727021
 20
-8.206948
 30
0.0
 11
40.931427
 21
-8.206948
 31
0.0
  0
LINE
  5
125
330
44A
100
AcDbEntity
  8
2-36G
  6
Continuous
 62
     7
370
    13
100
AcDbLine
 10
40.804906
 20
-8.692531
 30
0.0
 11
40.845677
 21
-8.692531
 31
0.0
  0
LINE
  5
126
330
44A
100
AcDbEntity
  8
2-36G
  6
Continuous
 62
     7
370
    13
100
AcDbLine
 10
40.845677
 20
-8.692531
 30
0.0
 11
40.845677
 21
-8.657937
 31
0.0
  0
LINE
  5
127
330
44A
100
AcDbEntity
  8
2-36G
  6
Continuous
 62
     7
370
    13
100
AcDbLine
 10
40.845677
 20
-8.657937
 30
0.0
 11
40.804906
 21
-8.657937
 31
0.0
  0
LINE
  5
128
330
44A
100
AcDbEntity
  8
2-36G
  6
Continuous
 62
     7
370
    13
100
AcDbLine
 10
40.804906
 20
-8.692531
 30
0.0
 11
40.804906
 21
-8.657937
 31
0.0
  0
LINE
  5
129
330
44A
100
AcDbEntity
  8
2-36G
  6
Continuous
 62
     7
370
    13
100
AcDbLine
 10
40.807792
 20
-8.273375
 30
0.0
 11
40.807792
 21
-8.238781
 31
0.0
  0
LINE
  5
12A
330
44A
100
AcDbEntity
  8
2-36G
  6
Continuous
 62
     7
370
    13
100
AcDbLine
 10
40.848562
 20
-8.238781
 30
0.0
 11
40.807792
 21
-8.238781
 31
0.0
  0
LINE
  5
12B
330
44A
100
AcDbEntity
  8
2-36G
  6
Continuous
 62
     7
370
    13
100
AcDbLine
 10
40.848562
 20
-8.273375
 30
0.0
 11
40.848562
 21
-8.238781
 31
0.0
  0
LINE
  5
12C
330
44A
100
AcDbEntity
  8
2-36G
  6
Continuous
 62
     7
370
    13
100
AcDbLine
 10
40.807792
 20
-8.273375
 30
0.0
 11
40.848562
 21
-8.273375
 31
0.0
  0
LINE
  5
12D
330
44A
100
AcDbEntity
  8
2-36G
  6
Continuous
 62
     7
370
    13
100
AcDbLine
 10
41.361312
 20
-8.223875
 30
0.0
 11
41.361312
 21
-8.189281
 31
0.0
  0
LINE
  5
12E
330
44A
100
AcDbEntity
  8
2-36G
  6
Continuous
 62
     7
370
    13
100
AcDbLine
 10
41.402083
 20
-8.189281
 30
0.0
 11
41.361312
 21
-8.189281
 31
0.0
  0
LINE
  5
12F
330
44A
100
AcDbEntity
  8
2-36G
  6
Continuous
 62
     7
370
    13
100
AcDbLine
 10
41.402083
 20
-8.223875
 30
0.0
 11
41.402083
 21
-8.189281
 31
0.0
  0
LINE
  5
130
330
44A
100
AcDbEntity
  8
2-36G
  6
Continuous
 62
     7
370
    13
100
AcDbLine
 10
41.361312
 20
-8.223875
 30
0.0
 11
41.402083
 21
-8.223875
 31
0.0
  0
LINE
  5
131
330
44A
100
AcDbEntity
  8
2-36G
  6
Continuous
 62
     7
370
    13
100
AcDbLine
 10
41.364375
 20
-8.65399
 30
0.0
 11
41.364375
 21
-8.619396
 31
0.0
  0
LINE
  5
132
330
44A
100
AcDbEntity
  8
2-36G
  6
Continuous
 62
     7
370
    13
100
AcDbLine
 10
41.405146
 20
-8.619396
 30
0.0
 11
41.364375
 21
-8.619396
 31
0.0
  0
LINE
  5
133
330
44A
100
AcDbEntity
  8
2-36G
  6
Continuous
 62
     7
370
    13
100
AcDbLine
 10
41.405146
 20
-8.65399
 30
0.0
 11
41.405146
 21
-8.619396
 31
0.0
  0
LINE
  5
134
330
44A
100
AcDbEntity
  8
2-36G
  6
Continuous
 62
     7
370
    13
100
AcDbLine
 10
41.364375
 20
-8.65399
 30
0.0
 11
41.405146
 21
-8.65399
 31
0.0
  0
LINE
  5
135
330
44A
100
AcDbEntity
  8
2-36G
  6
Continuous
 62
     7
370
    13
100
AcDbLine
 10
41.884792
 20
-8.220812
 30
0.0
 11
41.884792
 21
-8.186229
 31
0.0
  0
LINE
  5
136
330
44A
100
AcDbEntity
  8
2-36G
  6
Continuous
 62
     7
370
    13
100
AcDbLine
 10
41.925573
 20
-8.186229
 30
0.0
 11
41.884792
 21
-8.186229
 31
0.0
  0
LINE
  5
137
330
44A
100
AcDbEntity
  8
2-36G
  6
Continuous
 62
     7
370
    13
100
AcDbLine
 10
41.925573
 20
-8.220812
 30
0.0
 11
41.925573
 21
-8.186229
 31
0.0
  0
LINE
  5
138
330
44A
100
AcDbEntity
  8
2-36G
  6
Continuous
 62
     7
370
    13
100
AcDbLine
 10
41.884792
 20
-8.220812
 30
0.0
 11
41.925573
 21
-8.220812
 31
0.0
  0
LINE
  5
139
330
44A
100
AcDbEntity
  8
2-36G
  6
Continuous
 62
     7
370
    13
100
AcDbLine
 10
41.88326
 20
-8.655521
 30
0.0
 11
41.924031
 21
-8.655521
 31
0.0
  0
LINE
  5
13A
330
44A
100
AcDbEntity
  8
2-36G
  6
Continuous
 62
     7
370
    13
100
AcDbLine
 10
41.924031
 20
-8.655521
 30
0.0
 11
41.924031
 21
-8.620927
 31
0.0
  0
LINE
  5
13B
330
44A
100
AcDbEntity
  8
2-36G
  6
Continuous
 62
     7
370
    13
100
AcDbLine
 10
41.924031
 20
-8.620927
 30
0.0
 11
41.88326
 21
-8.620927
 31
0.0
  0
LINE
  5
13C
330
44A
100
AcDbEntity
  8
2-36G
  6
Continuous
 62
     7
370
    13
100
AcDbLine
 10
41.88326
 20
-8.655521
 30
0.0
 11
41.88326
 21
-8.620927
 31
0.0
  0
LINE
  5
13D
330
44A
100
AcDbEntity
  8
2-36G
  6
Continuous
 62
     7
370
    13
100
AcDbLine
 10
42.390479
 20
-8.226375
 30
0.0
 11
42.43125
 21
-8.226375
 31
0.0
  0
LINE
  5
13E
330
44A
100
AcDbEntity
  8
2-36G
  6
Continuous
 62
     7
370
    13
100
AcDbLine
 10
42.43125
 20
-8.226375
 30
0.0
 11
42.43125
 21
-8.191781
 31
0.0
  0
LINE
  5
13F
330
44A
100
AcDbEntity
  8
2-36G
  6
Continuous
 62
     7
370
    13
100
AcDbLine
 10
42.43125
 20
-8.191781
 30
0.0
 11
42.390479
 21
-8.191781
 31
0.0
  0
LINE
  5
140
330
44A
100
AcDbEntity
  8
2-36G
  6
Continuous
 62
     7
370
    13
100
AcDbLine
 10
42.390479
 20
-8.226375
 30
0.0
 11
42.390479
 21
-8.191781
 31
0.0
  0
LINE
  5
141
330
44A
100
AcDbEntity
  8
2-36G
  6
Continuous
 62
     7
370
    13
100
AcDbLine
 10
42.936094
 20
-8.211427
 30
0.0
 11
42.976865
 21
-8.211427
 31
0.0
  0
LINE
  5
142
330
44A
100
AcDbEntity
  8
2-36G
  6
Continuous
 62
     7
370
    13
100
AcDbLine
 10
42.976865
 20
-8.211427
 30
0.0
 11
42.976865
 21
-8.176844
 31
0.0
  0
LINE
  5
143
330
44A
100
AcDbEntity
  8
2-36G
  6
Continuous
 62
     7
370
    13
100
AcDbLine
 10
42.976865
 20
-8.176844
 30
0.0
 11
42.936094
 21
-8.176844
 31
0.0
  0
LINE
  5
144
330
44A
100
AcDbEntity
  8
2-36G
  6
Continuous
 62
     7
370
    13
100
AcDbLine
 10
42.936094
 20
-8.211427
 30
0.0
 11
42.936094
 21
-8.176844
 31
0.0
  0
LINE
  5
145
330
44A
100
AcDbEntity
  8
2-36G
  6
Continuous
 62
     7
370
    13
100
AcDbLine
 10
43.47424
 20
-8.176552
 30
0.0
 11
43.51501
 21
-8.176552
 31
0.0
  0
LINE
  5
146
330
44A
100
AcDbEntity
  8
2-36G
  6
Continuous
 62
     7
370
    13
100
AcDbLine
 10
43.51501
 20
-8.176552
 30
0.0
 11
43.51501
 21
-8.141958
 31
0.0
  0
LINE
  5
147
330
44A
100
AcDbEntity
  8
2-36G
  6
Continuous
 62
     7
370
    13
100
AcDbLine
 10
43.51501
 20
-8.141958
 30
0.0
 11
43.47424
 21
-8.141958
 31
0.0
  0
LINE
  5
148
330
44A
100
AcDbEntity
  8
2-36G
  6
Continuous
 62
     7
370
    13
100
AcDbLine
 10
43.47424
 20
-8.176552
 30
0.0
 11
43.47424
 21
-8.141958
 31
0.0
  0
LINE
  5
149
330
44A
100
AcDbEntity
  8
2-36G
  6
Continuous
 62
     7
370
    13
100
AcDbLine
 10
42.936094
 20
-8.654844
 30
0.0
 11
42.976865
 21
-8.654844
 31
0.0
  0
LINE
  5
14A
330
44A
100
AcDbEntity
  8
2-36G
  6
Continuous
 62
     7
370
    13
100
AcDbLine
 10
42.976865
 20
-8.654844
 30
0.0
 11
42.976865
 21
-8.62025
 31
0.0
  0
LINE
  5
14B
330
44A
100
AcDbEntity
  8
2-36G
  6
Continuous
 62
     7
370
    13
100
AcDbLine
 10
42.976865
 20
-8.62025
 30
0.0
 11
42.936094
 21
-8.62025
 31
0.0
  0
LINE
  5
14C
330
44A
100
AcDbEntity
  8
2-36G
  6
Continuous
 62
     7
370
    13
100
AcDbLine
 10
42.936094
 20
-8.654844
 30
0.0
 11
42.936094
 21
-8.62025
 31
0.0
  0
LINE
  5
14D
330
44A
100
AcDbEntity
  8
2-36G
  6
Continuous
 62
     7
370
    13
100
AcDbLine
 10
42.38549
 20
-8.657333
 30
0.0
 11
42.426271
 21
-8.657333
 31
0.0
  0
LINE
  5
14E
330
44A
100
AcDbEntity
  8
2-36G
  6
Continuous
 62
     7
370
    13
100
AcDbLine
 10
42.426271
 20
-8.657333
 30
0.0
 11
42.426271
 21
-8.62274
 31
0.0
  0
LINE
  5
14F
330
44A
100
AcDbEntity
  8
2-36G
  6
Continuous
 62
     7
370
    13
100
AcDbLine
 10
42.426271
 20
-8.62274
 30
0.0
 11
42.38549
 21
-8.62274
 31
0.0
  0
LINE
  5
150
330
44A
100
AcDbEntity
  8
2-36G
  6
Continuous
 62
     7
370
    13
100
AcDbLine
 10
42.38549
 20
-8.657333
 30
0.0
 11
42.38549
 21
-8.62274
 31
0.0
  0
LINE
  5
151
330
44A
100
AcDbEntity
  8
2-36G
  6
Continuous
 62
     7
370
    13
100
AcDbLine
 10
43.482833
 20
-8.630937
 30
0.0
 11
43.523604
 21
-8.630937
 31
0.0
  0
LINE
  5
152
330
44A
100
AcDbEntity
  8
2-36G
  6
Continuous
 62
     7
370
    13
100
AcDbLine
 10
43.523604
 20
-8.630937
 30
0.0
 11
43.523604
 21
-8.596344
 31
0.0
  0
LINE
  5
153
330
44A
100
AcDbEntity
  8
2-36G
  6
Continuous
 62
     7
370
    13
100
AcDbLine
 10
43.523604
 20
-8.596344
 30
0.0
 11
43.484687
 21
-8.596344
 31
0.0
  0
LINE
  5
154
330
44A
100
AcDbEntity
  8
2-36G
  6
Continuous
 62
     7
370
    13
100
AcDbLine
 10
43.484687
 20
-8.596344
 30
0.0
 11
43.482833
 21
-8.630937
 31
0.0
  0
LINE
  5
155
330
44A
100
AcDbEntity
  8
2-36G
  6
Continuous
 62
     7
370
    13
100
AcDbLine
 10
45.082479
 20
-8.110146
 30
0.0
 11
45.184677
 21
-8.110146
 31
0.0
  0
LINE
  5
156
330
44A
100
AcDbEntity
  8
2-36G
  6
Continuous
 62
     7
370
    13
100
AcDbLine
 10
45.184677
 20
-8.110146
 30
0.0
 11
45.184677
 21
-8.154937
 31
0.0
  0
LINE
  5
157
330
44A
100
AcDbEntity
  8
2-36G
  6
Continuous
 62
     7
370
    13
100
AcDbLine
 10
44.505365
 20
-8.587479
 30
0.0
 11
44.505667
 21
-8.622063
 31
0.0
  0
LINE
  5
158
330
44A
100
AcDbEntity
  8
2-36G
  6
Continuous
 62
     7
370
    13
100
AcDbLine
 10
44.546437
 20
-8.587479
 30
0.0
 11
44.505365
 21
-8.587479
 31
0.0
  0
LINE
  5
159
330
44A
100
AcDbEntity
  8
2-36G
  6
Continuous
 62
     7
370
    13
100
AcDbLine
 10
44.546437
 20
-8.622063
 30
0.0
 11
44.546437
 21
-8.587479
 31
0.0
  0
LINE
  5
15A
330
44A
100
AcDbEntity
  8
2-36G
  6
Continuous
 62
     7
370
    13
100
AcDbLine
 10
44.505667
 20
-8.622063
 30
0.0
 11
44.546437
 21
-8.622063
 31
0.0
  0
LINE
  5
15B
330
44A
100
AcDbEntity
  8
2-36G
  6
Continuous
 62
     7
370
    13
100
AcDbLine
 10
44.512906
 20
-8.102729
 30
0.0
 11
44.511052
 21
-8.137323
 31
0.0
  0
LINE
  5
15C
330
44A
100
AcDbEntity
  8
2-36G
  6
Continuous
 62
     7
370
    13
100
AcDbLine
 10
44.551823
 20
-8.102729
 30
0.0
 11
44.512906
 21
-8.102729
 31
0.0
  0
LINE
  5
15D
330
44A
100
AcDbEntity
  8
2-36G
  6
Continuous
 62
     7
370
    13
100
AcDbLine
 10
44.551823
 20
-8.137323
 30
0.0
 11
44.551823
 21
-8.102729
 31
0.0
  0
LINE
  5
15E
330
44A
100
AcDbEntity
  8
2-36G
  6
Continuous
 62
     7
370
    13
100
AcDbLine
 10
44.511052
 20
-8.137323
 30
0.0
 11
44.551823
 21
-8.137323
 31
0.0
  0
LINE
  5
15F
330
44A
100
AcDbEntity
  8
2-36G
  6
Continuous
 62
     7
370
    13
100
AcDbLine
 10
45.116573
 20
-8.132354
 30
0.0
 11
45.117302
 21
-8.158917
 31
0.0
  0
LINE
  5
160
330
44A
100
AcDbEntity
  8
2-36G
  6
Continuous
 62
     7
370
    13
100
AcDbLine
 10
45.157646
 20
-8.132354
 30
0.0
 11
45.116573
 21
-8.132354
 31
0.0
  0
LINE
  5
161
330
44A
100
AcDbEntity
  8
2-36G
  6
Continuous
 62
     7
370
    13
100
AcDbLine
 10
45.157646
 20
-8.156531
 30
0.0
 11
45.157646
 21
-8.132354
 31
0.0
  0
LINE
  5
162
330
44A
100
AcDbEntity
  8
2-36G
  6
Continuous
 62
     7
370
    13
100
AcDbLine
 10
45.013719
 20
-8.557844
 30
0.0
 11
45.011865
 21
-8.592448
 31
0.0
  0
LINE
  5
163
330
44A
100
AcDbEntity
  8
2-36G
  6
Continuous
 62
     7
370
    13
100
AcDbLine
 10
45.052635
 20
-8.557844
 30
0.0
 11
45.013719
 21
-8.557844
 31
0.0
  0
LINE
  5
164
330
44A
100
AcDbEntity
  8
2-36G
  6
Continuous
 62
     7
370
    13
100
AcDbLine
 10
45.052635
 20
-8.592448
 30
0.0
 11
45.052635
 21
-8.557844
 31
0.0
  0
LINE
  5
165
330
44A
100
AcDbEntity
  8
2-36G
  6
Continuous
 62
     7
370
    13
100
AcDbLine
 10
45.011865
 20
-8.592448
 30
0.0
 11
45.052635
 21
-8.592448
 31
0.0
  0
LINE
  5
166
330
44A
100
AcDbEntity
  8
2-36G
  6
Continuous
 62
     7
370
    13
100
AcDbLine
 10
45.01425
 20
-8.073104
 30
0.0
 11
45.014562
 21
-8.107698
 31
0.0
  0
LINE
  5
167
330
44A
100
AcDbEntity
  8
2-36G
  6
Continuous
 62
     7
370
    13
100
AcDbLine
 10
45.055333
 20
-8.073104
 30
0.0
 11
45.01425
 21
-8.073104
 31
0.0
  0
LINE
  5
168
330
44A
100
AcDbEntity
  8
2-36G
  6
Continuous
 62
     7
370
    13
100
AcDbLine
 10
45.055333
 20
-8.107698
 30
0.0
 11
45.055333
 21
-8.073104
 31
0.0
  0
LINE
  5
169
330
44A
100
AcDbEntity
  8
2-36G
  6
Continuous
 62
     7
370
    13
100
AcDbLine
 10
45.014562
 20
-8.107698
 30
0.0
 11
45.055333
 21
-8.107698
 31
0.0
  0
LINE
  5
16A
330
44A
100
AcDbEntity
  8
2-36G
  6
Continuous
 62
     7
370
    13
100
AcDbLine
 10
45.113875
 20
-8.614406
 30
0.0
 11
45.114177
 21
-8.64899
 31
0.0
  0
LINE
  5
16B
330
44A
100
AcDbEntity
  8
2-36G
  6
Continuous
 62
     7
370
    13
100
AcDbLine
 10
45.154958
 20
-8.614406
 30
0.0
 11
45.113875
 21
-8.614406
 31
0.0
  0
LINE
  5
16C
330
44A
100
AcDbEntity
  8
2-36G
  6
Continuous
 62
     7
370
    13
100
AcDbLine
 10
45.154958
 20
-8.64899
 30
0.0
 11
45.154958
 21
-8.614406
 31
0.0
  0
LINE
  5
16D
330
44A
100
AcDbEntity
  8
2-36G
  6
Continuous
 62
     7
370
    13
100
AcDbLine
 10
45.114177
 20
-8.64899
 30
0.0
 11
45.154958
 21
-8.64899
 31
0.0
  0
LINE
  5
16E
330
44A
100
AcDbEntity
  8
2-36G
  6
Continuous
 62
     7
370
    13
100
AcDbLine
 10
45.581854
 20
-8.051562
 30
0.0
 11
45.57999
 21
-8.086146
 31
0.0
  0
LINE
  5
16F
330
44A
100
AcDbEntity
  8
2-36G
  6
Continuous
 62
     7
370
    13
100
AcDbLine
 10
45.62076
 20
-8.051562
 30
0.0
 11
45.581854
 21
-8.051562
 31
0.0
  0
LINE
  5
170
330
44A
100
AcDbEntity
  8
2-36G
  6
Continuous
 62
     7
370
    13
100
AcDbLine
 10
45.62076
 20
-8.086146
 30
0.0
 11
45.62076
 21
-8.051562
 31
0.0
  0
LINE
  5
171
330
44A
100
AcDbEntity
  8
2-36G
  6
Continuous
 62
     7
370
    13
100
AcDbLine
 10
45.57999
 20
-8.086146
 30
0.0
 11
45.62076
 21
-8.086146
 31
0.0
  0
LINE
  5
172
330
44A
100
AcDbEntity
  8
2-36G
  6
Continuous
 62
     7
370
    13
100
AcDbLine
 10
45.686854
 20
-8.100031
 30
0.0
 11
45.685531
 21
-8.124792
 31
0.0
  0
LINE
  5
173
330
44A
100
AcDbEntity
  8
2-36G
  6
Continuous
 62
     7
370
    13
100
AcDbLine
 10
45.725771
 20
-8.100031
 30
0.0
 11
45.686854
 21
-8.100031
 31
0.0
  0
LINE
  5
174
330
44A
100
AcDbEntity
  8
2-36G
  6
Continuous
 62
     7
370
    13
100
AcDbLine
 10
45.725771
 20
-8.122365
 30
0.0
 11
45.725771
 21
-8.100031
 31
0.0
  0
LINE
  5
175
330
44A
100
AcDbEntity
  8
2-36G
  6
Continuous
 62
     7
370
    13
100
AcDbLine
 10
45.581635
 20
-8.547083
 30
0.0
 11
45.582687
 21
-8.581667
 31
0.0
  0
LINE
  5
176
330
44A
100
AcDbEntity
  8
2-36G
  6
Continuous
 62
     7
370
    13
100
AcDbLine
 10
45.623458
 20
-8.547083
 30
0.0
 11
45.581635
 21
-8.547083
 31
0.0
  0
LINE
  5
177
330
44A
100
AcDbEntity
  8
2-36G
  6
Continuous
 62
     7
370
    13
100
AcDbLine
 10
45.623458
 20
-8.581667
 30
0.0
 11
45.623458
 21
-8.547083
 31
0.0
  0
LINE
  5
178
330
44A
100
AcDbEntity
  8
2-36G
  6
Continuous
 62
     7
370
    13
100
AcDbLine
 10
45.582687
 20
-8.581667
 30
0.0
 11
45.623458
 21
-8.581667
 31
0.0
  0
LINE
  5
179
330
44A
100
AcDbEntity
  8
2-36G
  6
Continuous
 62
     7
370
    13
100
AcDbLine
 10
45.679615
 20
-8.630146
 30
0.0
 11
45.720385
 21
-8.630146
 31
0.0
  0
LINE
  5
17A
330
44A
100
AcDbEntity
  8
2-36G
  6
Continuous
 62
     7
370
    13
100
AcDbLine
 10
45.720385
 20
-8.630146
 30
0.0
 11
45.720385
 21
-8.595552
 31
0.0
  0
LINE
  5
17B
330
44A
100
AcDbEntity
  8
2-36G
  6
Continuous
 62
     7
370
    13
100
AcDbLine
 10
45.720385
 20
-8.595552
 30
0.0
 11
45.680125
 21
-8.595552
 31
0.0
  0
LINE
  5
17C
330
44A
100
AcDbEntity
  8
2-36G
  6
Continuous
 62
     7
370
    13
100
AcDbLine
 10
45.680125
 20
-8.595552
 30
0.0
 11
45.679615
 21
-8.630146
 31
0.0
  0
LINE
  5
17D
330
44A
100
AcDbEntity
  8
2-36G
  6
Continuous
 62
     7
370
    13
100
AcDbLine
 10
45.687062
 20
-10.042833
 30
0.0
 11
45.727833
 21
-10.042833
 31
0.0
  0
LINE
  5
17E
330
44A
100
AcDbEntity
  8
2-36G
  6
Continuous
 62
     7
370
    13
100
AcDbLine
 10
45.727833
 20
-10.042833
 30
0.0
 11
45.727833
 21
-10.008229
 31
0.0
  0
LINE
  5
17F
330
44A
100
AcDbEntity
  8
2-36G
  6
Continuous
 62
     7
370
    13
100
AcDbLine
 10
45.727833
 20
-10.008229
 30
0.0
 11
45.688917
 21
-10.008229
 31
0.0
  0
LINE
  5
180
330
44A
100
AcDbEntity
  8
2-36G
  6
Continuous
 62
     7
370
    13
100
AcDbLine
 10
45.688917
 20
-10.008229
 30
0.0
 11
45.687062
 21
-10.042833
 31
0.0
  0
LINE
  5
181
330
44A
100
AcDbEntity
  8
2-36G
  6
Continuous
 62
     7
370
    13
100
AcDbLine
 10
45.582948
 20
-9.493771
 30
0.0
 11
45.623719
 21
-9.493771
 31
0.0
  0
LINE
  5
182
330
44A
100
AcDbEntity
  8
2-36G
  6
Continuous
 62
     7
370
    13
100
AcDbLine
 10
45.623719
 20
-9.493771
 30
0.0
 11
45.623719
 21
-9.459188
 31
0.0
  0
LINE
  5
183
330
44A
100
AcDbEntity
  8
2-36G
  6
Continuous
 62
     7
370
    13
100
AcDbLine
 10
45.623719
 20
-9.459188
 30
0.0
 11
45.582812
 21
-9.459188
 31
0.0
  0
LINE
  5
184
330
44A
100
AcDbEntity
  8
2-36G
  6
Continuous
 62
     7
370
    13
100
AcDbLine
 10
45.582812
 20
-9.459188
 30
0.0
 11
45.582948
 21
-9.493771
 31
0.0
  0
LINE
  5
185
330
44A
100
AcDbEntity
  8
2-36G
  6
Continuous
 62
     7
370
    13
100
AcDbLine
 10
45.582948
 20
-9.986031
 30
0.0
 11
45.623719
 21
-9.986031
 31
0.0
  0
LINE
  5
186
330
44A
100
AcDbEntity
  8
2-36G
  6
Continuous
 62
     7
370
    13
100
AcDbLine
 10
45.623719
 20
-9.986031
 30
0.0
 11
45.623719
 21
-9.951437
 31
0.0
  0
LINE
  5
187
330
44A
100
AcDbEntity
  8
2-36G
  6
Continuous
 62
     7
370
    13
100
AcDbLine
 10
45.623719
 20
-9.951437
 30
0.0
 11
45.584802
 21
-9.951437
 31
0.0
  0
LINE
  5
188
330
44A
100
AcDbEntity
  8
2-36G
  6
Continuous
 62
     7
370
    13
100
AcDbLine
 10
45.584802
 20
-9.951437
 30
0.0
 11
45.582948
 21
-9.986031
 31
0.0
  0
LINE
  5
189
330
44A
100
AcDbEntity
  8
2-36G
  6
Continuous
 62
     7
370
    13
100
AcDbLine
 10
45.011885
 20
-10.004958
 30
0.0
 11
45.052667
 21
-10.004958
 31
0.0
  0
LINE
  5
18A
330
44A
100
AcDbEntity
  8
2-36G
  6
Continuous
 62
     7
370
    13
100
AcDbLine
 10
45.052667
 20
-10.004958
 30
0.0
 11
45.052667
 21
-9.970365
 31
0.0
  0
LINE
  5
18B
330
44A
100
AcDbEntity
  8
2-36G
  6
Continuous
 62
     7
370
    13
100
AcDbLine
 10
45.052667
 20
-9.970365
 30
0.0
 11
45.01374
 21
-9.970365
 31
0.0
  0
LINE
  5
18C
330
44A
100
AcDbEntity
  8
2-36G
  6
Continuous
 62
     7
370
    13
100
AcDbLine
 10
45.01374
 20
-9.970365
 30
0.0
 11
45.011885
 21
-10.004958
 31
0.0
  0
LINE
  5
18D
330
44A
100
AcDbEntity
  8
2-36G
  6
Continuous
 62
     7
370
    13
100
AcDbLine
 10
45.116
 20
-10.058604
 30
0.0
 11
45.156781
 21
-10.058604
 31
0.0
  0
LINE
  5
18E
330
44A
100
AcDbEntity
  8
2-36G
  6
Continuous
 62
     7
370
    13
100
AcDbLine
 10
45.156781
 20
-10.058604
 30
0.0
 11
45.156781
 21
-10.02401
 31
0.0
  0
LINE
  5
18F
330
44A
100
AcDbEntity
  8
2-36G
  6
Continuous
 62
     7
370
    13
100
AcDbLine
 10
45.156781
 20
-10.02401
 30
0.0
 11
45.115812
 21
-10.02401
 31
0.0
  0
LINE
  5
190
330
44A
100
AcDbEntity
  8
2-36G
  6
Continuous
 62
     7
370
    13
100
AcDbLine
 10
45.115812
 20
-10.02401
 30
0.0
 11
45.116
 21
-10.058604
 31
0.0
  0
LINE
  5
191
330
44A
100
AcDbEntity
  8
2-36G
  6
Continuous
 62
     7
370
    13
100
AcDbLine
 10
45.119167
 20
-9.556885
 30
0.0
 11
45.159927
 21
-9.556885
 31
0.0
  0
LINE
  5
192
330
44A
100
AcDbEntity
  8
2-36G
  6
Continuous
 62
     7
370
    13
100
AcDbLine
 10
45.159927
 20
-9.556885
 30
0.0
 11
45.159927
 21
-9.522292
 31
0.0
  0
LINE
  5
193
330
44A
100
AcDbEntity
  8
2-36G
  6
Continuous
 62
     7
370
    13
100
AcDbLine
 10
45.159927
 20
-9.522292
 30
0.0
 11
45.118958
 21
-9.522292
 31
0.0
  0
LINE
  5
194
330
44A
100
AcDbEntity
  8
2-36G
  6
Continuous
 62
     7
370
    13
100
AcDbLine
 10
45.118958
 20
-9.522292
 30
0.0
 11
45.119167
 21
-9.556885
 31
0.0
  0
LINE
  5
195
330
44A
100
AcDbEntity
  8
2-36G
  6
Continuous
 62
     7
370
    13
100
AcDbLine
 10
45.011885
 20
-9.515865
 30
0.0
 11
45.052667
 21
-9.515865
 31
0.0
  0
LINE
  5
196
330
44A
100
AcDbEntity
  8
2-36G
  6
Continuous
 62
     7
370
    13
100
AcDbLine
 10
45.052667
 20
-9.515865
 30
0.0
 11
45.052667
 21
-9.481271
 31
0.0
  0
LINE
  5
197
330
44A
100
AcDbEntity
  8
2-36G
  6
Continuous
 62
     7
370
    13
100
AcDbLine
 10
45.052667
 20
-9.481271
 30
0.0
 11
45.01374
 21
-9.481271
 31
0.0
  0
LINE
  5
198
330
44A
100
AcDbEntity
  8
2-36G
  6
Continuous
 62
     7
370
    13
100
AcDbLine
 10
45.01374
 20
-9.481271
 30
0.0
 11
45.011885
 21
-9.515865
 31
0.0
  0
LINE
  5
199
330
44A
100
AcDbEntity
  8
2-36G
  6
Continuous
 62
     7
370
    13
100
AcDbLine
 10
44.505031
 20
-9.537948
 30
0.0
 11
44.547854
 21
-9.537948
 31
0.0
  0
LINE
  5
19A
330
44A
100
AcDbEntity
  8
2-36G
  6
Continuous
 62
     7
370
    13
100
AcDbLine
 10
44.547854
 20
-9.537948
 30
0.0
 11
44.547854
 21
-9.503365
 31
0.0
  0
LINE
  5
19B
330
44A
100
AcDbEntity
  8
2-36G
  6
Continuous
 62
     7
370
    13
100
AcDbLine
 10
44.547854
 20
-9.503365
 30
0.0
 11
44.506885
 21
-9.503365
 31
0.0
  0
LINE
  5
19C
330
44A
100
AcDbEntity
  8
2-36G
  6
Continuous
 62
     7
370
    13
100
AcDbLine
 10
44.506885
 20
-9.503365
 30
0.0
 11
44.505031
 21
-9.537948
 31
0.0
  0
LINE
  5
19D
330
44A
100
AcDbEntity
  8
2-36G
  6
Continuous
 62
     7
370
    13
100
AcDbLine
 10
44.513396
 20
-10.03651
 30
0.0
 11
44.554167
 21
-10.03651
 31
0.0
  0
LINE
  5
19E
330
44A
100
AcDbEntity
  8
2-36G
  6
Continuous
 62
     7
370
    13
100
AcDbLine
 10
44.554167
 20
-10.03651
 30
0.0
 11
44.554167
 21
-10.001927
 31
0.0
  0
LINE
  5
19F
330
44A
100
AcDbEntity
  8
2-36G
  6
Continuous
 62
     7
370
    13
100
AcDbLine
 10
44.554167
 20
-10.001927
 30
0.0
 11
44.513198
 21
-10.001927
 31
0.0
  0
LINE
  5
1A0
330
44A
100
AcDbEntity
  8
2-36G
  6
Continuous
 62
     7
370
    13
100
AcDbLine
 10
44.513198
 20
-10.001927
 30
0.0
 11
44.513396
 21
-10.03651
 31
0.0
  0
LINE
  5
1A1
330
44A
100
AcDbEntity
  8
2-36G
  6
Continuous
 62
     7
370
    13
100
AcDbLine
 10
43.475479
 20
-9.548073
 30
0.0
 11
43.475479
 21
-9.513479
 31
0.0
  0
LINE
  5
1A2
330
44A
100
AcDbEntity
  8
2-36G
  6
Continuous
 62
     7
370
    13
100
AcDbLine
 10
43.51625
 20
-9.513479
 30
0.0
 11
43.475479
 21
-9.513479
 31
0.0
  0
LINE
  5
1A3
330
44A
100
AcDbEntity
  8
2-36G
  6
Continuous
 62
     7
370
    13
100
AcDbLine
 10
43.51625
 20
-9.548073
 30
0.0
 11
43.51625
 21
-9.513479
 31
0.0
  0
LINE
  5
1A4
330
44A
100
AcDbEntity
  8
2-36G
  6
Continuous
 62
     7
370
    13
100
AcDbLine
 10
43.475479
 20
-9.548073
 30
0.0
 11
43.51625
 21
-9.548073
 31
0.0
  0
LINE
  5
1A5
330
44A
100
AcDbEntity
  8
2-36G
  6
Continuous
 62
     7
370
    13
100
AcDbLine
 10
43.51625
 20
-10.037062
 30
0.0
 11
43.51625
 21
-10.002469
 31
0.0
  0
LINE
  5
1A6
330
44A
100
AcDbEntity
  8
2-36G
  6
Continuous
 62
     7
370
    13
100
AcDbLine
 10
43.51625
 20
-10.002469
 30
0.0
 11
43.475479
 21
-10.002469
 31
0.0
  0
LINE
  5
1A7
330
44A
100
AcDbEntity
  8
2-36G
  6
Continuous
 62
     7
370
    13
100
AcDbLine
 10
43.475479
 20
-10.037062
 30
0.0
 11
43.51625
 21
-10.037062
 31
0.0
  0
LINE
  5
1A8
330
44A
100
AcDbEntity
  8
2-36G
  6
Continuous
 62
     7
370
    13
100
AcDbLine
 10
43.475479
 20
-10.037062
 30
0.0
 11
43.475479
 21
-10.002469
 31
0.0
  0
LINE
  5
1A9
330
44A
100
AcDbEntity
  8
2-36G
  6
Continuous
 62
     7
370
    13
100
AcDbLine
 10
42.424594
 20
-9.569594
 30
0.0
 11
42.424594
 21
-9.535
 31
0.0
  0
LINE
  5
1AA
330
44A
100
AcDbEntity
  8
2-36G
  6
Continuous
 62
     7
370
    13
100
AcDbLine
 10
42.424594
 20
-9.535
 30
0.0
 11
42.383823
 21
-9.535
 31
0.0
  0
LINE
  5
1AB
330
44A
100
AcDbEntity
  8
2-36G
  6
Continuous
 62
     7
370
    13
100
AcDbLine
 10
42.383823
 20
-9.569594
 30
0.0
 11
42.424594
 21
-9.569594
 31
0.0
  0
LINE
  5
1AC
330
44A
100
AcDbEntity
  8
2-36G
  6
Continuous
 62
     7
370
    13
100
AcDbLine
 10
42.383823
 20
-9.569594
 30
0.0
 11
42.383823
 21
-9.535
 31
0.0
  0
LINE
  5
1AD
330
44A
100
AcDbEntity
  8
2-36G
  6
Continuous
 62
     7
370
    13
100
AcDbLine
 10
42.973531
 20
-9.573521
 30
0.0
 11
42.973531
 21
-9.538927
 31
0.0
  0
LINE
  5
1AE
330
44A
100
AcDbEntity
  8
2-36G
  6
Continuous
 62
     7
370
    13
100
AcDbLine
 10
42.973531
 20
-9.538927
 30
0.0
 11
42.93276
 21
-9.538927
 31
0.0
  0
LINE
  5
1AF
330
44A
100
AcDbEntity
  8
2-36G
  6
Continuous
 62
     7
370
    13
100
AcDbLine
 10
42.93276
 20
-9.573521
 30
0.0
 11
42.973531
 21
-9.573521
 31
0.0
  0
LINE
  5
1B0
330
44A
100
AcDbEntity
  8
2-36G
  6
Continuous
 62
     7
370
    13
100
AcDbLine
 10
42.93276
 20
-9.573521
 30
0.0
 11
42.93276
 21
-9.538927
 31
0.0
  0
LINE
  5
1B1
330
44A
100
AcDbEntity
  8
2-36G
  6
Continuous
 62
     7
370
    13
100
AcDbLine
 10
42.93276
 20
-10.065219
 30
0.0
 11
42.93276
 21
-10.030635
 31
0.0
  0
LINE
  5
1B2
330
44A
100
AcDbEntity
  8
2-36G
  6
Continuous
 62
     7
370
    13
100
AcDbLine
 10
42.93276
 20
-10.065219
 30
0.0
 11
42.973531
 21
-10.065219
 31
0.0
  0
LINE
  5
1B3
330
44A
100
AcDbEntity
  8
2-36G
  6
Continuous
 62
     7
370
    13
100
AcDbLine
 10
42.973531
 20
-10.030635
 30
0.0
 11
42.93276
 21
-10.030635
 31
0.0
  0
LINE
  5
1B4
330
44A
100
AcDbEntity
  8
2-36G
  6
Continuous
 62
     7
370
    13
100
AcDbLine
 10
42.973531
 20
-10.065219
 30
0.0
 11
42.973531
 21
-10.030635
 31
0.0
  0
LINE
  5
1B5
330
44A
100
AcDbEntity
  8
2-36G
  6
Continuous
 62
     7
370
    13
100
AcDbLine
 10
42.424594
 20
-10.030635
 30
0.0
 11
42.383823
 21
-10.030635
 31
0.0
  0
LINE
  5
1B6
330
44A
100
AcDbEntity
  8
2-36G
  6
Continuous
 62
     7
370
    13
100
AcDbLine
 10
42.424594
 20
-10.065219
 30
0.0
 11
42.424594
 21
-10.030635
 31
0.0
  0
LINE
  5
1B7
330
44A
100
AcDbEntity
  8
2-36G
  6
Continuous
 62
     7
370
    13
100
AcDbLine
 10
42.383823
 20
-10.065219
 30
0.0
 11
42.424594
 21
-10.065219
 31
0.0
  0
LINE
  5
1B8
330
44A
100
AcDbEntity
  8
2-36G
  6
Continuous
 62
     7
370
    13
100
AcDbLine
 10
42.383823
 20
-10.065219
 30
0.0
 11
42.383823
 21
-10.030635
 31
0.0
  0
LINE
  5
1B9
330
44A
100
AcDbEntity
  8
2-36G
  6
Continuous
 62
     7
370
    13
100
AcDbLine
 10
42.305615
 20
-9.507229
 30
0.0
 11
42.510021
 21
-9.507229
 31
0.0
  0
LINE
  5
1BA
330
44A
100
AcDbEntity
  8
2-36G
  6
Continuous
 62
     7
370
    13
100
AcDbLine
 10
42.854552
 20
-9.507229
 30
0.0
 11
43.058969
 21
-9.507229
 31
0.0
  0
LINE
  5
1BB
330
44A
100
AcDbEntity
  8
2-36G
  6
Continuous
 62
     7
370
    13
100
AcDbLine
 10
42.854552
 20
-10.093635
 30
0.0
 11
43.058969
 21
-10.093635
 31
0.0
  0
LINE
  5
1BC
330
44A
100
AcDbEntity
  8
2-36G
  6
Continuous
 62
     7
370
    13
100
AcDbLine
 10
42.305615
 20
-10.093635
 30
0.0
 11
42.510021
 21
-10.093635
 31
0.0
  0
LINE
  5
1BD
330
44A
100
AcDbEntity
  8
2-36G
  6
Continuous
 62
     7
370
    13
100
AcDbLine
 10
41.28275
 20
-10.093635
 30
0.0
 11
41.487156
 21
-10.093635
 31
0.0
  0
LINE
  5
1BE
330
44A
100
AcDbEntity
  8
2-36G
  6
Continuous
 62
     7
370
    13
100
AcDbLine
 10
41.802427
 20
-10.093635
 30
0.0
 11
42.006844
 21
-10.093635
 31
0.0
  0
LINE
  5
1BF
330
44A
100
AcDbEntity
  8
2-36G
  6
Continuous
 62
     7
370
    13
100
AcDbLine
 10
41.802427
 20
-9.507229
 30
0.0
 11
42.006844
 21
-9.507229
 31
0.0
  0
LINE
  5
1C0
330
44A
100
AcDbEntity
  8
2-36G
  6
Continuous
 62
     7
370
    13
100
AcDbLine
 10
41.28275
 20
-9.507229
 30
0.0
 11
41.487156
 21
-9.507229
 31
0.0
  0
LINE
  5
1C1
330
44A
100
AcDbEntity
  8
2-36G
  6
Continuous
 62
     7
370
    13
100
AcDbLine
 10
40.727021
 20
-9.507229
 30
0.0
 11
40.931427
 21
-9.507229
 31
0.0
  0
LINE
  5
1C2
330
44A
100
AcDbEntity
  8
2-36G
  6
Continuous
 62
     7
370
    13
100
AcDbLine
 10
40.727021
 20
-10.093635
 30
0.0
 11
40.931427
 21
-10.093635
 31
0.0
  0
LINE
  5
1C3
330
44A
100
AcDbEntity
  8
2-36G
  6
Continuous
 62
     7
370
    13
100
AcDbLine
 10
41.360958
 20
-9.535635
 30
0.0
 11
41.360958
 21
-9.57024
 31
0.0
  0
LINE
  5
1C4
330
44A
100
AcDbEntity
  8
2-36G
  6
Continuous
 62
     7
370
    13
100
AcDbLine
 10
41.880635
 20
-9.535635
 30
0.0
 11
41.880635
 21
-9.57024
 31
0.0
  0
LINE
  5
1C5
330
44A
100
AcDbEntity
  8
2-36G
  6
Continuous
 62
     7
370
    13
100
AcDbLine
 10
41.880635
 20
-10.065219
 30
0.0
 11
41.880635
 21
-10.030635
 31
0.0
  0
LINE
  5
1C6
330
44A
100
AcDbEntity
  8
2-36G
  6
Continuous
 62
     7
370
    13
100
AcDbLine
 10
41.360958
 20
-10.065219
 30
0.0
 11
41.360958
 21
-10.030635
 31
0.0
  0
LINE
  5
1CA
330
44A
100
AcDbEntity
  8
2-36G
  6
Continuous
 62
     7
370
    13
100
AcDbLine
 10
40.828427
 20
-10.240292
 30
0.0
 11
40.778437
 21
-10.240292
 31
0.0
  0
LINE
  5
1CB
330
44A
100
AcDbEntity
  8
2-36G
  6
Continuous
 62
     7
370
    13
100
AcDbLine
 10
41.021417
 20
-9.808229
 30
0.0
 11
40.828427
 21
-10.240292
 31
0.0
  0
SOLID
  5
1CC
330
44A
100
AcDbEntity
  8
2-36G
  6
Continuous
 62
     7
370
    13
100
AcDbTrace
 10
41.013802
 20
-9.804833
 30
0.0
 11
41.029021
 21
-9.811625
 31
0.0
 12
41.041802
 22
-9.762573
 32
0.0
 13
41.041802
 23
-9.762573
 33
0.0
  0
LINE
  5
1CE
330
44A
100
AcDbEntity
  8
2-36G
  6
Continuous
 62
     7
370
    13
100
AcDbLine
 10
40.977896
 20
-9.048323
 30
0.0
 11
40.744937
 21
-9.048323
 31
0.0
  0
SOLID
  5
1CF
330
44A
100
AcDbEntity
  8
2-36G
  6
Continuous
 62
     7
370
    13
100
AcDbTrace
 10
-40.977896
 20
-9.03999
 30
0.0
 11
-40.977896
 21
-9.056656
 31
0.0
 12
-41.027885
 22
-9.048323
 32
0.0
 13
-41.027885
 23
-9.048323
 33
0.0
210
0.0
220
0.0
230
-1.0
  0
LINE
  5
1D1
330
44A
100
AcDbEntity
  8
2-36G
  6
Continuous
 62
     7
370
    13
100
AcDbLine
 10
40.754219
 20
-9.270948
 30
0.0
 11
40.704219
 21
-9.270948
 31
0.0
  0
LINE
  5
1D2
330
44A
100
AcDbEntity
  8
2-36G
  6
Continuous
 62
     7
370
    13
100
AcDbLine
 10
40.995667
 20
-9.49226
 30
0.0
 11
40.754219
 21
-9.270948
 31
0.0
  0
SOLID
  5
1D3
330
44A
100
AcDbEntity
  8
2-36G
  6
Continuous
 62
     7
370
    13
100
AcDbTrace
 10
41.001302
 20
-9.486115
 30
0.0
 11
40.990042
 21
-9.498396
 31
0.0
 12
41.032521
 22
-9.526042
 32
0.0
 13
41.032521
 23
-9.526042
 33
0.0
  0
LINE
  5
1D5
330
44A
100
AcDbEntity
  8
2-36G
  6
Continuous
 62
     7
370
    13
100
AcDbLine
 10
40.605792
 20
-9.410094
 30
0.0
 11
40.555792
 21
-9.410094
 31
0.0
  0
LINE
  5
1D6
330
44A
100
AcDbEntity
  8
2-36G
  6
Continuous
 62
     7
370
    13
100
AcDbLine
 10
40.675552
 20
-9.473771
 30
0.0
 11
40.605792
 21
-9.410094
 31
0.0
  0
SOLID
  5
1D7
330
44A
100
AcDbEntity
  8
2-36G
  6
Continuous
 62
     7
370
    13
100
AcDbTrace
 10
40.681167
 20
-9.467625
 30
0.0
 11
40.669927
 21
-9.479927
 31
0.0
 12
40.712469
 22
-9.507479
 32
0.0
 13
40.712469
 23
-9.507479
 33
0.0
  0
LINE
  5
1D8
330
44A
100
AcDbEntity
  8
2-36G
  6
Continuous
 62
     7
370
    13
100
AcDbLine
 10
41.042719
 20
-9.56251
 30
0.0
 11
41.042719
 21
-8.666906
 31
0.0
  0
LINE
  5
1D9
330
44A
100
AcDbEntity
  8
2-36G
  6
Continuous
 62
     7
370
    13
100
AcDbLine
 10
41.101396
 20
-8.66951
 30
0.0
 11
41.101396
 21
-9.563406
 31
0.0
  0
LINE
  5
1DA
330
44A
100
AcDbEntity
  8
2-36G
  6
Continuous
 62
     7
370
    13
100
AcDbLine
 10
43.970156
 20
-9.741302
 30
0.0
 11
43.970156
 21
-9.783188
 31
0.0
  0
LINE
  5
1DB
330
44A
100
AcDbEntity
  8
2-36G
  6
Continuous
 62
     7
370
    13
100
AcDbLine
 10
43.927156
 20
-9.783188
 30
0.0
 11
43.927156
 21
-9.741177
 31
0.0
  0
LINE
  5
1DC
330
44A
100
AcDbEntity
  8
2-36G
  6
Continuous
 62
     7
370
    13
100
AcDbLine
 10
43.396062
 20
-9.783188
 30
0.0
 11
43.396062
 21
-9.741177
 31
0.0
  0
LINE
  5
1DD
330
44A
100
AcDbEntity
  8
2-36G
  6
Continuous
 62
     7
370
    13
100
AcDbLine
 10
43.439062
 20
-9.741302
 30
0.0
 11
43.439062
 21
-9.783188
 31
0.0
  0
LINE
  5
1DE
330
44A
100
AcDbEntity
  8
2-36G
  6
Continuous
 62
     7
370
    13
100
AcDbLine
 10
43.559521
 20
-9.74126
 30
0.0
 11
43.559521
 21
-9.783188
 31
0.0
  0
LINE
  5
1DF
330
44A
100
AcDbEntity
  8
2-36G
  6
Continuous
 62
     7
370
    13
100
AcDbLine
 10
43.600469
 20
-9.741146
 30
0.0
 11
43.600469
 21
-9.783188
 31
0.0
  0
LINE
  5
1E0
330
44A
100
AcDbEntity
  8
2-36G
  6
Continuous
 62
     7
370
    13
100
AcDbLine
 10
43.058969
 20
-9.738458
 30
0.0
 11
43.058969
 21
-9.783188
 31
0.0
  0
LINE
  5
1E1
330
44A
100
AcDbEntity
  8
2-36G
  6
Continuous
 62
     7
370
    13
100
AcDbLine
 10
43.01801
 20
-9.738021
 30
0.0
 11
43.01801
 21
-9.783188
 31
0.0
  0
LINE
  5
1E2
330
44A
100
AcDbEntity
  8
2-36G
  6
Continuous
 62
     7
370
    13
100
AcDbLine
 10
42.897552
 20
-9.736656
 30
0.0
 11
42.897552
 21
-9.783188
 31
0.0
  0
LINE
  5
1E3
330
44A
100
AcDbEntity
  8
2-36G
  6
Continuous
 62
     7
370
    13
100
AcDbLine
 10
42.854552
 20
-9.783188
 30
0.0
 11
42.854552
 21
-9.736146
 31
0.0
  0
LINE
  5
1E4
330
44A
100
AcDbEntity
  8
2-36G
  6
DGN Style 2
 62
     7
370
    13
100
AcDbLine
 10
41.101396
 20
-10.048469
 30
0.0
 11
41.042719
 21
-10.048469
 31
0.0
  0
LINE
  5
1E5
330
44A
100
AcDbEntity
  8
2-36G
  6
Continuous
 62
     7
370
    13
100
AcDbLine
 10
41.101396
 20
-9.783188
 30
0.0
 11
41.101396
 21
-9.702531
 31
0.0
  0
LINE
  5
1E6
330
44A
100
AcDbEntity
  8
2-36G
  6
Continuous
 62
     7
370
    13
100
AcDbLine
 10
41.042719
 20
-9.783188
 30
0.0
 11
41.042719
 21
-9.700979
 31
0.0
  0
LINE
  5
1E9
330
44A
100
AcDbEntity
  8
2-36G
  6
Continuous
 62
     7
370
    13
100
AcDbLine
 10
41.233344
 20
-9.283094
 30
0.0
 11
41.158677
 21
-9.283094
 31
0.0
  0
LINE
  5
1EA
330
44A
100
AcDbEntity
  8
2-36G
  6
Continuous
 62
     7
370
    13
100
AcDbLine
 10
41.248531
 20
-9.622063
 30
0.0
 11
41.158677
 21
-9.283094
 31
0.0
  0
SOLID
  5
1EB
330
44A
100
AcDbEntity
  8
2-36G
  6
Continuous
 62
     7
370
    13
100
AcDbTrace
 10
41.256583
 20
-9.619927
 30
0.0
 11
41.240479
 21
-9.624187
 31
0.0
 12
41.261344
 22
-9.670385
 32
0.0
 13
41.261344
 23
-9.670385
 33
0.0
  0
LINE
  5
1EE
330
44A
100
AcDbEntity
  8
2-36G
  6
Continuous
 62
     7
370
    13
100
AcDbLine
 10
41.205344
 20
-8.825802
 30
0.0
 11
41.130677
 21
-8.825802
 31
0.0
  0
LINE
  5
1EF
330
44A
100
AcDbEntity
  8
2-36G
  6
Continuous
 62
     7
370
    13
100
AcDbLine
 10
41.20424
 20
-8.59349
 30
0.0
 11
41.130677
 21
-8.825802
 31
0.0
  0
SOLID
  5
1F0
330
44A
100
AcDbEntity
  8
2-36G
  6
Continuous
 62
     7
370
    13
100
AcDbTrace
 10
41.196302
 20
-8.590969
 30
0.0
 11
41.212187
 21
-8.596
 31
0.0
 12
41.219344
 22
-8.545823
 32
0.0
 13
41.219344
 23
-8.545823
 33
0.0
  0
LWPOLYLINE
  5
1F1
330
44A
100
AcDbEntity
  8
2-36G
  6
Continuous
 62
     7
370
     0
100
AcDbPolyline
 90
       25
 70
   128
 43
0.0
 10
45.93299
 20
-8.109865
 10
45.241698
 20
-8.151562
 10
44.6645
 20
-8.18574
 10
44.197219
 20
-8.212771
 10
43.822917
 20
-8.233802
 10
43.524646
 20
-8.249948
 10
43.285448
 20
-8.262365
 10
43.088406
 20
-8.272177
 10
42.916573
 20
-8.280521
 10
42.75574
 20
-8.288344
 10
42.602729
 20
-8.295802
 10
42.457073
 20
-8.302844
 10
42.318344
 20
-8.309448
 10
42.186062
 20
-8.315563
 10
42.059802
 20
-8.321156
 10
41.939104
 20
-8.326198
 10
41.823531
 20
-8.330635
 10
41.712
 20
-8.3345
 10
41.60099
 20
-8.338104
 10
41.486375
 20
-8.341802
 10
41.36401
 20
-8.345979
 10
41.229771
 20
-8.35099
 10
41.0795
 20
-8.357208
 10
40.909073
 20
-8.36501
 10
40.714344
 20
-8.37475
  0
LWPOLYLINE
  5
1F2
330
44A
100
AcDbEntity
  8
2-36G
  6
Continuous
 62
     7
370
     0
100
AcDbPolyline
 90
       25
 70
   128
 43
0.0
 10
45.93299
 20
-8.139531
 10
45.243469
 20
-8.181115
 10
44.666229
 20
-8.215292
 10
44.198906
 20
-8.242323
 10
43.824542
 20
-8.263354
 10
43.526208
 20
-8.27951
 10
43.286958
 20
-8.291927
 10
43.089865
 20
-8.30175
 10
42.91801
 20
-8.310094
 10
42.757188
 20
-8.317917
 10
42.604156
 20
-8.325365
 10
42.4585
 20
-8.332417
 10
42.319729
 20
-8.339021
 10
42.187406
 20
-8.345135
 10
42.061083
 20
-8.35074
 10
41.940292
 20
-8.355781
 10
41.824604
 20
-8.360219
 10
41.71299
 20
-8.364094
 10
41.601948
 20
-8.367687
 10
41.487354
 20
-8.371396
 10
41.365073
 20
-8.375562
 10
41.230937
 20
-8.380573
 10
41.080792
 20
-8.386781
 10
40.91049
 20
-8.394573
 10
40.653771
 20
-8.407427
  0
LINE
  5
1F3
330
44A
100
AcDbEntity
  8
2-36G
  6
Continuous
 62
     7
370
    13
100
AcDbLine
 10
45.93299
 20
-9.51474
 30
0.0
 11
45.93299
 21
-9.675344
 31
0.0
  0
LINE
  5
1F4
330
44A
100
AcDbEntity
  8
2-36G
  6
Continuous
 62
     7
370
    13
100
AcDbLine
 10
40.345104
 20
-9.783188
 30
0.0
 11
40.345104
 21
-9.943792
 31
0.0
  0
LINE
  5
1F5
330
44A
100
AcDbEntity
  8
2-36G
  6
Continuous
 62
     7
370
    13
100
AcDbLine
 10
45.93299
 20
-9.783188
 30
0.0
 11
45.93299
 21
-9.943792
 31
0.0
  0
LINE
  5
1F6
330
44A
100
AcDbEntity
  8
2-36G
  6
Continuous
 62
     7
370
    13
100
AcDbLine
 10
45.93299
 20
-8.37475
 30
0.0
 11
45.93299
 21
-8.535354
 31
0.0
  0
LINE
  5
1F7
330
44A
100
AcDbEntity
  8
2-36G
  6
Continuous
 62
     7
370
    13
100
AcDbLine
 10
41.101396
 20
-8.356302
 30
0.0
 11
41.101396
 21
-7.968312
 31
0.0
  0
LINE
  5
1F8
330
44A
100
AcDbEntity
  8
2-36G
  6
Continuous
 62
     7
370
    13
100
AcDbLine
 10
41.042719
 20
-8.358885
 30
0.0
 11
41.042719
 21
-7.968312
 31
0.0
  0
CIRCLE
  5
1F9
330
44A
100
AcDbEntity
  8
2-36G
  6
Continuous
 62
     7
370
    13
100
AcDbCircle
 10
41.071559
 20
-8.286642
 30
0.0
 40
0.0195551540257391
  0
LINE
  5
1FA
330
44A
100
AcDbEntity
  8
2-36G
  6
Continuous
 62
     7
370
    13
100
AcDbLine
 10
42.042656
 20
-9.656937
 30
0.0
 11
42.042656
 21
-9.546802
 31
0.0
  0
LINE
  5
1FB
330
44A
100
AcDbEntity
  8
2-36G
  6
Continuous
 62
     7
370
    13
100
AcDbLine
 10
42.042656
 20
-9.546802
 30
0.0
 11
42.13749
 21
-9.546802
 31
0.0
  0
LINE
  5
1FC
330
44A
100
AcDbEntity
  8
2-36G
  6
Continuous
 62
     7
370
    13
100
AcDbLine
 10
42.13749
 20
-9.546802
 30
0.0
 11
42.13749
 21
-8.651187
 31
0.0
  0
LINE
  5
1FD
330
44A
100
AcDbEntity
  8
2-36G
  6
Continuous
 62
     7
370
    13
100
AcDbLine
 10
42.13749
 20
-8.651187
 30
0.0
 11
42.03999
 21
-8.651187
 31
0.0
  0
LINE
  5
1FE
330
44A
100
AcDbEntity
  8
2-36G
  6
Continuous
 62
     7
370
    13
100
AcDbLine
 10
42.03999
 20
-8.651187
 30
0.0
 11
42.03999
 21
-8.535354
 31
0.0
  0
LINE
  5
1FF
330
44A
100
AcDbEntity
  8
2-36G
  6
Continuous
 62
     7
370
    13
100
AcDbLine
 10
42.196167
 20
-9.547688
 30
0.0
 11
42.196167
 21
-8.653792
 31
0.0
  0
LINE
  5
200
330
44A
100
AcDbEntity
  8
2-36G
  6
Continuous
 62
     7
370
    13
100
AcDbLine
 10
42.196167
 20
-8.653792
 30
0.0
 11
42.238271
 21
-8.653792
 31
0.0
  0
LINE
  5
201
330
44A
100
AcDbEntity
  8
2-36G
  6
Continuous
 62
     7
370
    13
100
AcDbLine
 10
42.238271
 20
-8.653792
 30
0.0
 11
42.238271
 21
-8.535354
 31
0.0
  0
LINE
  5
202
330
44A
100
AcDbEntity
  8
2-36G
  6
Continuous
 62
     7
370
    13
100
AcDbLine
 10
42.275125
 20
-9.65051
 30
0.0
 11
42.275125
 21
-9.547688
 31
0.0
  0
LINE
  5
203
330
44A
100
AcDbEntity
  8
2-36G
  6
Continuous
 62
     7
370
    13
100
AcDbLine
 10
42.275125
 20
-9.547688
 30
0.0
 11
42.196167
 21
-9.547688
 31
0.0
  0
CIRCLE
  5
204
330
44A
100
AcDbEntity
  8
2-36G
  6
Continuous
 62
     7
370
    13
100
AcDbCircle
 10
42.085347
 20
-9.58861
 30
0.0
 40
0.0195551540257391
  0
CIRCLE
  5
205
330
44A
100
AcDbEntity
  8
2-36G
  6
Continuous
 62
     7
370
    13
100
AcDbCircle
 10
42.23221
 20
-9.58861
 30
0.0
 40
0.0195551540257391
  0
CIRCLE
  5
206
330
44A
100
AcDbEntity
  8
2-36G
  6
Continuous
 62
     7
370
    13
100
AcDbCircle
 10
42.085347
 20
-8.614427
 30
0.0
 40
0.0195551540257391
  0
CIRCLE
  5
207
330
44A
100
AcDbEntity
  8
2-36G
  6
Continuous
 62
     7
370
    13
100
AcDbCircle
 10
42.199354
 20
-8.614524
 30
0.0
 40
0.0195551540257391
  0
CIRCLE
  5
208
330
44A
100
AcDbEntity
  8
2-36G
  6
Continuous
 62
     7
370
    13
100
AcDbCircle
 10
42.16633
 20
-9.525764
 30
0.0
 40
0.0195551540257391
  0
CIRCLE
  5
209
330
44A
100
AcDbEntity
  8
2-36G
  6
Continuous
 62
     7
370
    13
100
AcDbCircle
 10
42.163151
 20
-8.669736
 30
0.0
 40
0.0195551540257391
  0
CIRCLE
  5
20A
330
44A
100
AcDbEntity
  8
2-36G
  6
Continuous
 62
     7
370
    13
100
AcDbCircle
 10
41.06838
 20
-8.685454
 30
0.0
 40
0.0195551540257391
  0
CIRCLE
  5
20B
330
44A
100
AcDbEntity
  8
2-36G
  6
Continuous
 62
     7
370
    13
100
AcDbCircle
 10
41.071559
 20
-9.541482
 30
0.0
 40
0.0195551540257391
  0
CIRCLE
  5
20C
330
44A
100
AcDbEntity
  8
2-36G
  6
Continuous
 62
     7
370
    13
100
AcDbCircle
 10
41.104583
 20
-8.630242
 30
0.0
 40
0.0195551540257391
  0
CIRCLE
  5
20D
330
44A
100
AcDbEntity
  8
2-36G
  6
Continuous
 62
     7
370
    13
100
AcDbCircle
 10
40.990576
 20
-8.630145
 30
0.0
 40
0.0195551540257391
  0
CIRCLE
  5
20E
330
44A
100
AcDbEntity
  8
2-36G
  6
Continuous
 62
     7
370
    13
100
AcDbCircle
 10
41.137438
 20
-9.604329
 30
0.0
 40
0.0195551540257391
  0
CIRCLE
  5
20F
330
44A
100
AcDbEntity
  8
2-36G
  6
Continuous
 62
     7
370
    13
100
AcDbCircle
 10
40.990576
 20
-9.604329
 30
0.0
 40
0.0195551540257391
  0
LINE
  5
210
330
44A
100
AcDbEntity
  8
2-36G
  6
Continuous
 62
     7
370
    13
100
AcDbLine
 10
41.180354
 20
-9.563406
 30
0.0
 11
41.101396
 21
-9.563406
 31
0.0
  0
LINE
  5
211
330
44A
100
AcDbEntity
  8
2-36G
  6
Continuous
 62
     7
370
    13
100
AcDbLine
 10
41.180354
 20
-9.681656
 30
0.0
 11
41.180354
 21
-9.563406
 31
0.0
  0
LINE
  5
212
330
44A
100
AcDbEntity
  8
2-36G
  6
Continuous
 62
     7
370
    13
100
AcDbLine
 10
41.1435
 20
-8.66951
 30
0.0
 11
41.1435
 21
-8.535354
 31
0.0
  0
LINE
  5
213
330
44A
100
AcDbEntity
  8
2-36G
  6
Continuous
 62
     7
370
    13
100
AcDbLine
 10
41.101396
 20
-8.66951
 30
0.0
 11
41.1435
 21
-8.66951
 31
0.0
  0
LINE
  5
214
330
44A
100
AcDbEntity
  8
2-36G
  6
DGN Style 2
 62
     7
370
    13
100
AcDbLine
 10
41.101396
 20
-10.048469
 30
0.0
 11
41.101396
 21
-9.943792
 31
0.0
  0
LINE
  5
215
330
44A
100
AcDbEntity
  8
2-36G
  6
Continuous
 62
     7
370
    13
100
AcDbLine
 10
40.945219
 20
-8.666906
 30
0.0
 11
40.945219
 21
-8.535354
 31
0.0
  0
LINE
  5
216
330
44A
100
AcDbEntity
  8
2-36G
  6
Continuous
 62
     7
370
    13
100
AcDbLine
 10
41.042719
 20
-8.666906
 30
0.0
 11
40.945219
 21
-8.666906
 31
0.0
  0
LINE
  5
217
330
44A
100
AcDbEntity
  8
2-36G
  6
DGN Style 2
 62
     7
370
    13
100
AcDbLine
 10
41.042719
 20
-10.048469
 30
0.0
 11
41.042719
 21
-9.943792
 31
0.0
  0
LINE
  5
218
330
44A
100
AcDbEntity
  8
2-36G
  6
Continuous
 62
     7
370
    13
100
AcDbLine
 10
40.947885
 20
-9.56251
 30
0.0
 11
41.042719
 21
-9.56251
 31
0.0
  0
LINE
  5
219
330
44A
100
AcDbEntity
  8
2-36G
  6
Continuous
 62
     7
370
    13
100
AcDbLine
 10
40.947885
 20
-9.688625
 30
0.0
 11
40.947885
 21
-9.56251
 31
0.0
  0
LINE
  5
21A
330
44A
100
AcDbEntity
  8
2-36G
  6
Continuous
 62
     7
370
    13
100
AcDbLine
 10
40.727021
 20
-8.535354
 30
0.0
 11
40.727021
 21
-8.713594
 31
0.0
  0
LINE
  5
21B
330
44A
100
AcDbEntity
  8
2-36G
  6
Continuous
 62
     7
370
    13
100
AcDbLine
 10
40.77001
 20
-8.535354
 30
0.0
 11
40.77001
 21
-8.647052
 31
0.0
  0
LINE
  5
21C
330
44A
100
AcDbEntity
  8
2-36G
  6
Continuous
 62
     7
370
    13
100
AcDbLine
 10
45.753927
 20
-8.535354
 30
0.0
 11
45.753927
 21
-8.650656
 31
0.0
  0
LINE
  5
21D
330
44A
100
AcDbEntity
  8
2-36G
  6
Continuous
 62
     7
370
    13
100
AcDbLine
 10
45.753927
 20
-8.277417
 30
0.0
 11
45.753927
 21
-8.37475
 31
0.0
  0
LINE
  5
21E
330
44A
100
AcDbEntity
  8
2-36G
  6
Continuous
 62
     7
370
    13
100
AcDbLine
 10
45.184677
 20
-8.311677
 30
0.0
 11
45.184677
 21
-8.37475
 31
0.0
  0
LINE
  5
21F
330
44A
100
AcDbEntity
  8
2-36G
  6
Continuous
 62
     7
370
    13
100
AcDbLine
 10
45.184677
 20
-8.535354
 30
0.0
 11
45.184677
 21
-8.611344
 31
0.0
  0
LINE
  5
220
330
44A
100
AcDbEntity
  8
2-36G
  6
Continuous
 62
     7
370
    13
100
AcDbLine
 10
40.727021
 20
-8.206948
 30
0.0
 11
40.727021
 21
-8.374115
 31
0.0
  0
LINE
  5
221
330
44A
100
AcDbEntity
  8
2-36G
  6
Continuous
 62
     7
370
    13
100
AcDbLine
 10
40.727021
 20
-8.713594
 30
0.0
 11
40.931427
 21
-8.713594
 31
0.0
  0
LINE
  5
222
330
44A
100
AcDbEntity
  8
2-36G
  6
Continuous
 62
     7
370
    13
100
AcDbLine
 10
40.931427
 20
-8.713594
 30
0.0
 11
40.931427
 21
-8.535354
 31
0.0
  0
LINE
  5
223
330
44A
100
AcDbEntity
  8
2-36G
  6
Continuous
 62
     7
370
    13
100
AcDbLine
 10
40.890469
 20
-8.286625
 30
0.0
 11
40.77001
 21
-8.286625
 31
0.0
  0
LINE
  5
224
330
44A
100
AcDbEntity
  8
2-36G
  6
Continuous
 62
     7
370
    13
100
AcDbLine
 10
40.77001
 20
-8.286625
 30
0.0
 11
40.77001
 21
-8.371958
 31
0.0
  0
LINE
  5
225
330
44A
100
AcDbEntity
  8
2-36G
  6
Continuous
 62
     7
370
    13
100
AcDbLine
 10
40.890469
 20
-8.286625
 30
0.0
 11
40.890469
 21
-8.365937
 31
0.0
  0
LINE
  5
226
330
44A
100
AcDbEntity
  8
2-36G
  6
Continuous
 62
     7
370
    13
100
AcDbLine
 10
40.890469
 20
-8.647052
 30
0.0
 11
40.890469
 21
-8.596802
 31
0.0
  0
LINE
  5
227
330
44A
100
AcDbEntity
  8
2-36G
  6
Continuous
 62
     7
370
    13
100
AcDbLine
 10
40.890469
 20
-8.647052
 30
0.0
 11
40.77001
 21
-8.647052
 31
0.0
  0
LINE
  5
228
330
44A
100
AcDbEntity
  8
2-36G
  6
Continuous
 62
     7
370
    13
100
AcDbLine
 10
40.77001
 20
-8.596802
 30
0.0
 11
40.931427
 21
-8.596802
 31
0.0
  0
LINE
  5
229
330
44A
100
AcDbEntity
  8
2-36G
  6
Continuous
 62
     7
370
    13
100
AcDbLine
 10
41.28275
 20
-8.672052
 30
0.0
 11
41.28275
 21
-8.535354
 31
0.0
  0
LINE
  5
22A
330
44A
100
AcDbEntity
  8
2-36G
  6
Continuous
 62
     7
370
    13
100
AcDbLine
 10
41.32575
 20
-8.605521
 30
0.0
 11
41.32575
 21
-8.535354
 31
0.0
  0
LINE
  5
22B
330
44A
100
AcDbEntity
  8
2-36G
  6
Continuous
 62
     7
370
    13
100
AcDbLine
 10
41.446208
 20
-8.605521
 30
0.0
 11
41.32575
 21
-8.605521
 31
0.0
  0
LINE
  5
22C
330
44A
100
AcDbEntity
  8
2-36G
  6
Continuous
 62
     7
370
    13
100
AcDbLine
 10
41.28275
 20
-8.672052
 30
0.0
 11
41.487156
 21
-8.672052
 31
0.0
  0
LINE
  5
22D
330
44A
100
AcDbEntity
  8
2-36G
  6
Continuous
 62
     7
370
    13
100
AcDbLine
 10
41.487156
 20
-8.155458
 30
0.0
 11
41.487156
 21
-8.341781
 31
0.0
  0
LINE
  5
22E
330
44A
100
AcDbEntity
  8
2-36G
  6
Continuous
 62
     7
370
    13
100
AcDbLine
 10
41.446208
 20
-8.605521
 30
0.0
 11
41.446208
 21
-8.535354
 31
0.0
  0
LINE
  5
22F
330
44A
100
AcDbEntity
  8
2-36G
  6
Continuous
 62
     7
370
    13
100
AcDbLine
 10
41.446208
 20
-8.235135
 30
0.0
 11
41.446208
 21
-8.343177
 31
0.0
  0
LINE
  5
230
330
44A
100
AcDbEntity
  8
2-36G
  6
Continuous
 62
     7
370
    13
100
AcDbLine
 10
41.446208
 20
-8.235135
 30
0.0
 11
41.32575
 21
-8.235135
 31
0.0
  0
LINE
  5
231
330
44A
100
AcDbEntity
  8
2-36G
  6
Continuous
 62
     7
370
    13
100
AcDbLine
 10
41.32575
 20
-8.235135
 30
0.0
 11
41.32575
 21
-8.347406
 31
0.0
  0
LINE
  5
232
330
44A
100
AcDbEntity
  8
2-36G
  6
Continuous
 62
     7
370
    13
100
AcDbLine
 10
41.845427
 20
-8.235135
 30
0.0
 11
41.845427
 21
-8.329792
 31
0.0
  0
LINE
  5
233
330
44A
100
AcDbEntity
  8
2-36G
  6
Continuous
 62
     7
370
    13
100
AcDbLine
 10
41.965885
 20
-8.235135
 30
0.0
 11
41.845427
 21
-8.235135
 31
0.0
  0
LINE
  5
234
330
44A
100
AcDbEntity
  8
2-36G
  6
Continuous
 62
     7
370
    13
100
AcDbLine
 10
41.965885
 20
-8.235135
 30
0.0
 11
41.965885
 21
-8.325083
 31
0.0
  0
LINE
  5
235
330
44A
100
AcDbEntity
  8
2-36G
  6
Continuous
 62
     7
370
    13
100
AcDbLine
 10
41.965885
 20
-8.605521
 30
0.0
 11
41.965885
 21
-8.535354
 31
0.0
  0
LINE
  5
236
330
44A
100
AcDbEntity
  8
2-36G
  6
Continuous
 62
     7
370
    13
100
AcDbLine
 10
42.006844
 20
-8.155458
 30
0.0
 11
42.006844
 21
-8.323365
 31
0.0
  0
LINE
  5
237
330
44A
100
AcDbEntity
  8
2-36G
  6
Continuous
 62
     7
370
    13
100
AcDbLine
 10
41.802427
 20
-8.672052
 30
0.0
 11
42.006844
 21
-8.672052
 31
0.0
  0
LINE
  5
238
330
44A
100
AcDbEntity
  8
2-36G
  6
Continuous
 62
     7
370
    13
100
AcDbLine
 10
41.965885
 20
-8.605521
 30
0.0
 11
41.845427
 21
-8.605521
 31
0.0
  0
LINE
  5
239
330
44A
100
AcDbEntity
  8
2-36G
  6
Continuous
 62
     7
370
    13
100
AcDbLine
 10
41.845427
 20
-8.605521
 30
0.0
 11
41.845427
 21
-8.535354
 31
0.0
  0
LINE
  5
23A
330
44A
100
AcDbEntity
  8
2-36G
  6
Continuous
 62
     7
370
    13
100
AcDbLine
 10
41.802427
 20
-8.672052
 30
0.0
 11
41.802427
 21
-8.535354
 31
0.0
  0
LINE
  5
23B
330
44A
100
AcDbEntity
  8
2-36G
  6
Continuous
 62
     7
370
    13
100
AcDbLine
 10
42.348604
 20
-8.241906
 30
0.0
 11
42.348604
 21
-8.30349
 31
0.0
  0
LINE
  5
23C
330
44A
100
AcDbEntity
  8
2-36G
  6
Continuous
 62
     7
370
    13
100
AcDbLine
 10
42.469073
 20
-8.241906
 30
0.0
 11
42.348604
 21
-8.241906
 31
0.0
  0
LINE
  5
23D
330
44A
100
AcDbEntity
  8
2-36G
  6
Continuous
 62
     7
370
    13
100
AcDbLine
 10
42.469073
 20
-8.241906
 30
0.0
 11
42.469073
 21
-8.302271
 31
0.0
  0
LINE
  5
23E
330
44A
100
AcDbEntity
  8
2-36G
  6
Continuous
 62
     7
370
    13
100
AcDbLine
 10
42.469073
 20
-8.605521
 30
0.0
 11
42.469073
 21
-8.535354
 31
0.0
  0
LINE
  5
23F
330
44A
100
AcDbEntity
  8
2-36G
  6
Continuous
 62
     7
370
    13
100
AcDbLine
 10
42.510021
 20
-8.162219
 30
0.0
 11
42.510021
 21
-8.300281
 31
0.0
  0
LINE
  5
240
330
44A
100
AcDbEntity
  8
2-36G
  6
Continuous
 62
     7
370
    13
100
AcDbLine
 10
42.305615
 20
-8.672052
 30
0.0
 11
42.510021
 21
-8.672052
 31
0.0
  0
LINE
  5
241
330
44A
100
AcDbEntity
  8
2-36G
  6
Continuous
 62
     7
370
    13
100
AcDbLine
 10
42.469073
 20
-8.605521
 30
0.0
 11
42.348604
 21
-8.605521
 31
0.0
  0
LINE
  5
242
330
44A
100
AcDbEntity
  8
2-36G
  6
Continuous
 62
     7
370
    13
100
AcDbLine
 10
42.348604
 20
-8.605521
 30
0.0
 11
42.348604
 21
-8.535354
 31
0.0
  0
LINE
  5
243
330
44A
100
AcDbEntity
  8
2-36G
  6
Continuous
 62
     7
370
    13
100
AcDbLine
 10
42.305615
 20
-8.672052
 30
0.0
 11
42.305615
 21
-8.535354
 31
0.0
  0
LINE
  5
244
330
44A
100
AcDbEntity
  8
2-36G
  6
Continuous
 62
     7
370
    13
100
AcDbLine
 10
42.897552
 20
-8.228115
 30
0.0
 11
42.897552
 21
-8.281448
 31
0.0
  0
LINE
  5
245
330
44A
100
AcDbEntity
  8
2-36G
  6
Continuous
 62
     7
370
    13
100
AcDbLine
 10
43.01801
 20
-8.228115
 30
0.0
 11
42.897552
 21
-8.228115
 31
0.0
  0
LINE
  5
246
330
44A
100
AcDbEntity
  8
2-36G
  6
Continuous
 62
     7
370
    13
100
AcDbLine
 10
43.01801
 20
-8.228115
 30
0.0
 11
43.01801
 21
-8.275594
 31
0.0
  0
LINE
  5
247
330
44A
100
AcDbEntity
  8
2-36G
  6
Continuous
 62
     7
370
    13
100
AcDbLine
 10
43.01801
 20
-8.605521
 30
0.0
 11
43.01801
 21
-8.535354
 31
0.0
  0
LINE
  5
248
330
44A
100
AcDbEntity
  8
2-36G
  6
Continuous
 62
     7
370
    13
100
AcDbLine
 10
43.058969
 20
-8.148438
 30
0.0
 11
43.058969
 21
-8.273604
 31
0.0
  0
LINE
  5
249
330
44A
100
AcDbEntity
  8
2-36G
  6
Continuous
 62
     7
370
    13
100
AcDbLine
 10
42.854552
 20
-8.672052
 30
0.0
 11
43.058969
 21
-8.672052
 31
0.0
  0
LINE
  5
24A
330
44A
100
AcDbEntity
  8
2-36G
  6
Continuous
 62
     7
370
    13
100
AcDbLine
 10
43.01801
 20
-8.605521
 30
0.0
 11
42.897552
 21
-8.605521
 31
0.0
  0
LINE
  5
24B
330
44A
100
AcDbEntity
  8
2-36G
  6
Continuous
 62
     7
370
    13
100
AcDbLine
 10
42.897552
 20
-8.605521
 30
0.0
 11
42.897552
 21
-8.535354
 31
0.0
  0
LINE
  5
24C
330
44A
100
AcDbEntity
  8
2-36G
  6
Continuous
 62
     7
370
    13
100
AcDbLine
 10
42.854552
 20
-8.672052
 30
0.0
 11
42.854552
 21
-8.535354
 31
0.0
  0
LINE
  5
24D
330
44A
100
AcDbEntity
  8
2-36G
  6
Continuous
 62
     7
370
    13
100
AcDbLine
 10
43.44001
 20
-8.193146
 30
0.0
 11
43.44001
 21
-8.254344
 31
0.0
  0
LINE
  5
24E
330
44A
100
AcDbEntity
  8
2-36G
  6
Continuous
 62
     7
370
    13
100
AcDbLine
 10
43.560458
 20
-8.193146
 30
0.0
 11
43.44001
 21
-8.193146
 31
0.0
  0
LINE
  5
24F
330
44A
100
AcDbEntity
  8
2-36G
  6
Continuous
 62
     7
370
    13
100
AcDbLine
 10
43.560458
 20
-8.193146
 30
0.0
 11
43.560458
 21
-8.24801
 31
0.0
  0
LINE
  5
250
330
44A
100
AcDbEntity
  8
2-36G
  6
Continuous
 62
     7
370
    13
100
AcDbLine
 10
43.560458
 20
-8.581573
 30
0.0
 11
43.560458
 21
-8.535354
 31
0.0
  0
LINE
  5
251
330
44A
100
AcDbEntity
  8
2-36G
  6
Continuous
 62
     7
370
    13
100
AcDbLine
 10
43.39701
 20
-8.126604
 30
0.0
 11
43.601417
 21
-8.126604
 31
0.0
  0
LINE
  5
252
330
44A
100
AcDbEntity
  8
2-36G
  6
Continuous
 62
     7
370
    13
100
AcDbLine
 10
43.601417
 20
-8.126604
 30
0.0
 11
43.601417
 21
-8.245792
 31
0.0
  0
LINE
  5
253
330
44A
100
AcDbEntity
  8
2-36G
  6
Continuous
 62
     7
370
    13
100
AcDbLine
 10
43.39701
 20
-8.648115
 30
0.0
 11
43.601417
 21
-8.648115
 31
0.0
  0
LINE
  5
254
330
44A
100
AcDbEntity
  8
2-36G
  6
Continuous
 62
     7
370
    13
100
AcDbLine
 10
43.560458
 20
-8.581573
 30
0.0
 11
43.44001
 21
-8.581573
 31
0.0
  0
LINE
  5
255
330
44A
100
AcDbEntity
  8
2-36G
  6
Continuous
 62
     7
370
    13
100
AcDbLine
 10
43.44001
 20
-8.581573
 30
0.0
 11
43.44001
 21
-8.535354
 31
0.0
  0
LINE
  5
256
330
44A
100
AcDbEntity
  8
2-36G
  6
Continuous
 62
     7
370
    13
100
AcDbLine
 10
43.39701
 20
-8.648115
 30
0.0
 11
43.39701
 21
-8.535354
 31
0.0
  0
LINE
  5
257
330
44A
100
AcDbEntity
  8
2-36G
  6
Continuous
 62
     7
370
    13
100
AcDbLine
 10
43.970219
 20
-8.170917
 30
0.0
 11
43.970219
 21
-8.225521
 31
0.0
  0
LINE
  5
258
330
44A
100
AcDbEntity
  8
2-36G
  6
Continuous
 62
     7
370
    13
100
AcDbLine
 10
44.090688
 20
-8.170917
 30
0.0
 11
43.970219
 21
-8.170917
 31
0.0
  0
LINE
  5
259
330
44A
100
AcDbEntity
  8
2-36G
  6
Continuous
 62
     7
370
    13
100
AcDbLine
 10
44.005135
 20
-8.15425
 30
0.0
 11
44.005437
 21
-8.119646
 31
0.0
  0
LINE
  5
25A
330
44A
100
AcDbEntity
  8
2-36G
  6
Continuous
 62
     7
370
    13
100
AcDbLine
 10
44.046208
 20
-8.15425
 30
0.0
 11
44.005135
 21
-8.15425
 31
0.0
  0
LINE
  5
25B
330
44A
100
AcDbEntity
  8
2-36G
  6
Continuous
 62
     7
370
    13
100
AcDbLine
 10
44.046208
 20
-8.119646
 30
0.0
 11
44.046208
 21
-8.15425
 31
0.0
  0
LINE
  5
25C
330
44A
100
AcDbEntity
  8
2-36G
  6
Continuous
 62
     7
370
    13
100
AcDbLine
 10
44.005437
 20
-8.119646
 30
0.0
 11
44.046208
 21
-8.119646
 31
0.0
  0
LINE
  5
25D
330
44A
100
AcDbEntity
  8
2-36G
  6
Continuous
 62
     7
370
    13
100
AcDbLine
 10
44.090688
 20
-8.170917
 30
0.0
 11
44.090688
 21
-8.21875
 31
0.0
  0
LINE
  5
25E
330
44A
100
AcDbEntity
  8
2-36G
  6
Continuous
 62
     7
370
    13
100
AcDbLine
 10
44.090688
 20
-8.576812
 30
0.0
 11
44.090688
 21
-8.535354
 31
0.0
  0
LINE
  5
25F
330
44A
100
AcDbEntity
  8
2-36G
  6
Continuous
 62
     7
370
    13
100
AcDbLine
 10
43.927229
 20
-8.104385
 30
0.0
 11
44.131635
 21
-8.104385
 31
0.0
  0
LINE
  5
260
330
44A
100
AcDbEntity
  8
2-36G
  6
Continuous
 62
     7
370
    13
100
AcDbLine
 10
44.131635
 20
-8.104385
 30
0.0
 11
44.131635
 21
-8.216458
 31
0.0
  0
LINE
  5
261
330
44A
100
AcDbEntity
  8
2-36G
  6
Continuous
 62
     7
370
    13
100
AcDbLine
 10
43.927229
 20
-8.643344
 30
0.0
 11
44.131635
 21
-8.643344
 31
0.0
  0
LINE
  5
262
330
44A
100
AcDbEntity
  8
2-36G
  6
Continuous
 62
     7
370
    13
100
AcDbLine
 10
44.005437
 20
-8.628073
 30
0.0
 11
44.046208
 21
-8.628073
 31
0.0
  0
LINE
  5
263
330
44A
100
AcDbEntity
  8
2-36G
  6
Continuous
 62
     7
370
    13
100
AcDbLine
 10
44.046208
 20
-8.628073
 30
0.0
 11
44.046208
 21
-8.59349
 31
0.0
  0
LINE
  5
264
330
44A
100
AcDbEntity
  8
2-36G
  6
Continuous
 62
     7
370
    13
100
AcDbLine
 10
44.046208
 20
-8.59349
 30
0.0
 11
44.005135
 21
-8.59349
 31
0.0
  0
LINE
  5
265
330
44A
100
AcDbEntity
  8
2-36G
  6
Continuous
 62
     7
370
    13
100
AcDbLine
 10
44.005135
 20
-8.59349
 30
0.0
 11
44.005437
 21
-8.628073
 31
0.0
  0
LINE
  5
266
330
44A
100
AcDbEntity
  8
2-36G
  6
Continuous
 62
     7
370
    13
100
AcDbLine
 10
44.090688
 20
-8.576812
 30
0.0
 11
43.970219
 21
-8.576812
 31
0.0
  0
LINE
  5
267
330
44A
100
AcDbEntity
  8
2-36G
  6
Continuous
 62
     7
370
    13
100
AcDbLine
 10
43.970219
 20
-8.576812
 30
0.0
 11
43.970219
 21
-8.535354
 31
0.0
  0
LINE
  5
268
330
44A
100
AcDbEntity
  8
2-36G
  6
Continuous
 62
     7
370
    13
100
AcDbLine
 10
43.927229
 20
-8.643344
 30
0.0
 11
43.927229
 21
-8.535354
 31
0.0
  0
LINE
  5
269
330
44A
100
AcDbEntity
  8
2-36G
  6
Continuous
 62
     7
370
    13
100
AcDbLine
 10
44.469635
 20
-8.15324
 30
0.0
 11
44.469635
 21
-8.19701
 31
0.0
  0
LINE
  5
26A
330
44A
100
AcDbEntity
  8
2-36G
  6
Continuous
 62
     7
370
    13
100
AcDbLine
 10
44.590104
 20
-8.15324
 30
0.0
 11
44.469635
 21
-8.15324
 31
0.0
  0
LINE
  5
26B
330
44A
100
AcDbEntity
  8
2-36G
  6
Continuous
 62
     7
370
    13
100
AcDbLine
 10
44.590104
 20
-8.15324
 30
0.0
 11
44.590104
 21
-8.190042
 31
0.0
  0
LINE
  5
26C
330
44A
100
AcDbEntity
  8
2-36G
  6
Continuous
 62
     7
370
    13
100
AcDbLine
 10
44.590104
 20
-8.571219
 30
0.0
 11
44.590104
 21
-8.535354
 31
0.0
  0
LINE
  5
26D
330
44A
100
AcDbEntity
  8
2-36G
  6
Continuous
 62
     7
370
    13
100
AcDbLine
 10
44.426646
 20
-8.086708
 30
0.0
 11
44.631052
 21
-8.086708
 31
0.0
  0
LINE
  5
26E
330
44A
100
AcDbEntity
  8
2-36G
  6
Continuous
 62
     7
370
    13
100
AcDbLine
 10
44.631052
 20
-8.086708
 30
0.0
 11
44.631052
 21
-8.187677
 31
0.0
  0
LINE
  5
26F
330
44A
100
AcDbEntity
  8
2-36G
  6
Continuous
 62
     7
370
    13
100
AcDbLine
 10
44.426646
 20
-8.63775
 30
0.0
 11
44.631052
 21
-8.63775
 31
0.0
  0
LINE
  5
270
330
44A
100
AcDbEntity
  8
2-36G
  6
Continuous
 62
     7
370
    13
100
AcDbLine
 10
44.590104
 20
-8.571219
 30
0.0
 11
44.469635
 21
-8.571219
 31
0.0
  0
LINE
  5
271
330
44A
100
AcDbEntity
  8
2-36G
  6
Continuous
 62
     7
370
    13
100
AcDbLine
 10
44.469635
 20
-8.571219
 30
0.0
 11
44.469635
 21
-8.535354
 31
0.0
  0
LINE
  5
272
330
44A
100
AcDbEntity
  8
2-36G
  6
Continuous
 62
     7
370
    13
100
AcDbLine
 10
44.426646
 20
-8.63775
 30
0.0
 11
44.426646
 21
-8.535354
 31
0.0
  0
LINE
  5
273
330
44A
100
AcDbEntity
  8
2-36G
  6
Continuous
 62
     7
370
    13
100
AcDbLine
 10
44.631052
 20
-8.311677
 30
0.0
 11
44.631052
 21
-8.37475
 31
0.0
  0
LINE
  5
274
330
44A
100
AcDbEntity
  8
2-36G
  6
Continuous
 62
     7
370
    13
100
AcDbLine
 10
44.631052
 20
-8.535354
 30
0.0
 11
44.631052
 21
-8.63775
 31
0.0
  0
LINE
  5
275
330
44A
100
AcDbEntity
  8
2-36G
  6
Continuous
 62
     7
370
    13
100
AcDbLine
 10
44.426646
 20
-8.1995
 30
0.0
 11
44.426646
 21
-8.086708
 31
0.0
  0
LINE
  5
276
330
44A
100
AcDbEntity
  8
2-36G
  6
Continuous
 62
     7
370
    13
100
AcDbLine
 10
43.927229
 20
-8.227937
 30
0.0
 11
43.927229
 21
-8.104385
 31
0.0
  0
LINE
  5
277
330
44A
100
AcDbEntity
  8
2-36G
  6
Continuous
 62
     7
370
    13
100
AcDbLine
 10
44.131635
 20
-8.535354
 30
0.0
 11
44.131635
 21
-8.643344
 31
0.0
  0
LINE
  5
278
330
44A
100
AcDbEntity
  8
2-36G
  6
Continuous
 62
     7
370
    13
100
AcDbLine
 10
43.601417
 20
-8.535354
 30
0.0
 11
43.601417
 21
-8.648115
 31
0.0
  0
LINE
  5
279
330
44A
100
AcDbEntity
  8
2-36G
  6
Continuous
 62
     7
370
    13
100
AcDbLine
 10
43.39701
 20
-8.256573
 30
0.0
 11
43.39701
 21
-8.126604
 31
0.0
  0
LINE
  5
27A
330
44A
100
AcDbEntity
  8
2-36G
  6
Continuous
 62
     7
370
    13
100
AcDbLine
 10
42.854552
 20
-8.283542
 30
0.0
 11
42.854552
 21
-8.148438
 31
0.0
  0
LINE
  5
27B
330
44A
100
AcDbEntity
  8
2-36G
  6
Continuous
 62
     7
370
    13
100
AcDbLine
 10
43.058969
 20
-8.535354
 30
0.0
 11
43.058969
 21
-8.672052
 31
0.0
  0
LINE
  5
27C
330
44A
100
AcDbEntity
  8
2-36G
  6
Continuous
 62
     7
370
    13
100
AcDbLine
 10
42.305615
 20
-8.310031
 30
0.0
 11
42.305615
 21
-8.162219
 31
0.0
  0
LINE
  5
27D
330
44A
100
AcDbEntity
  8
2-36G
  6
Continuous
 62
     7
370
    13
100
AcDbLine
 10
42.510021
 20
-8.535354
 30
0.0
 11
42.510021
 21
-8.672052
 31
0.0
  0
LINE
  5
27E
330
44A
100
AcDbEntity
  8
2-36G
  6
Continuous
 62
     7
370
    13
100
AcDbLine
 10
42.006844
 20
-8.535354
 30
0.0
 11
42.006844
 21
-8.672052
 31
0.0
  0
LINE
  5
27F
330
44A
100
AcDbEntity
  8
2-36G
  6
Continuous
 62
     7
370
    13
100
AcDbLine
 10
41.28275
 20
-8.34901
 30
0.0
 11
41.28275
 21
-8.155458
 31
0.0
  0
LINE
  5
280
330
44A
100
AcDbEntity
  8
2-36G
  6
Continuous
 62
     7
370
    13
100
AcDbLine
 10
41.487156
 20
-8.535354
 30
0.0
 11
41.487156
 21
-8.672052
 31
0.0
  0
LINE
  5
281
330
44A
100
AcDbEntity
  8
2-36G
  6
Continuous
 62
     7
370
    13
100
AcDbLine
 10
40.931427
 20
-8.363979
 30
0.0
 11
40.931427
 21
-8.206948
 31
0.0
  0
LINE
  5
282
330
44A
100
AcDbEntity
  8
2-36G
  6
Continuous
 62
     7
370
    13
100
AcDbLine
 10
41.802427
 20
-8.331365
 30
0.0
 11
41.802427
 21
-8.155458
 31
0.0
  0
LINE
  5
283
330
44A
100
AcDbEntity
  8
2-36G
  6
Continuous
 62
     7
370
    13
100
AcDbLine
 10
44.980271
 20
-8.611344
 30
0.0
 11
44.980271
 21
-8.535354
 31
0.0
  0
LINE
  5
284
330
44A
100
AcDbEntity
  8
2-36G
  6
Continuous
 62
     7
370
    13
100
AcDbLine
 10
44.980271
 20
-8.611344
 30
0.0
 11
45.082479
 21
-8.611344
 31
0.0
  0
LINE
  5
285
330
44A
100
AcDbEntity
  8
2-36G
  6
Continuous
 62
     7
370
    13
100
AcDbLine
 10
44.980271
 20
-8.051229
 30
0.0
 11
45.082479
 21
-8.051229
 31
0.0
  0
LINE
  5
286
330
44A
100
AcDbEntity
  8
2-36G
  6
Continuous
 62
     7
370
    13
100
AcDbLine
 10
45.082479
 20
-8.051229
 30
0.0
 11
45.082479
 21
-8.16099
 31
0.0
  0
LINE
  5
287
330
44A
100
AcDbEntity
  8
2-36G
  6
Continuous
 62
     7
370
    13
100
AcDbLine
 10
45.082479
 20
-8.67026
 30
0.0
 11
45.184677
 21
-8.67026
 31
0.0
  0
LINE
  5
288
330
44A
100
AcDbEntity
  8
2-36G
  6
Continuous
 62
     7
370
    13
100
AcDbLine
 10
45.651719
 20
-8.650656
 30
0.0
 11
45.753927
 21
-8.650656
 31
0.0
  0
LINE
  5
289
330
44A
100
AcDbEntity
  8
2-36G
  6
Continuous
 62
     7
370
    13
100
AcDbLine
 10
45.753927
 20
-8.090542
 30
0.0
 11
45.753927
 21
-8.120667
 31
0.0
  0
LINE
  5
28A
330
44A
100
AcDbEntity
  8
2-36G
  6
Continuous
 62
     7
370
    13
100
AcDbLine
 10
45.651719
 20
-8.090542
 30
0.0
 11
45.753927
 21
-8.090542
 31
0.0
  0
LINE
  5
28B
330
44A
100
AcDbEntity
  8
2-36G
  6
Continuous
 62
     7
370
    13
100
AcDbLine
 10
45.651719
 20
-8.031615
 30
0.0
 11
45.651719
 21
-8.12251
 31
0.0
  0
LINE
  5
28C
330
44A
100
AcDbEntity
  8
2-36G
  6
Continuous
 62
     7
370
    13
100
AcDbLine
 10
45.549521
 20
-8.031615
 30
0.0
 11
45.651719
 21
-8.031615
 31
0.0
  0
LINE
  5
28D
330
44A
100
AcDbEntity
  8
2-36G
  6
Continuous
 62
     7
370
    13
100
AcDbLine
 10
45.549521
 20
-8.59174
 30
0.0
 11
45.651719
 21
-8.59174
 31
0.0
  0
LINE
  5
28E
330
44A
100
AcDbEntity
  8
2-36G
  6
Continuous
 62
     7
370
    13
100
AcDbLine
 10
45.549521
 20
-8.59174
 30
0.0
 11
45.549521
 21
-8.535354
 31
0.0
  0
LINE
  5
28F
330
44A
100
AcDbEntity
  8
2-36G
  6
Continuous
 62
     7
370
    13
100
AcDbLine
 10
45.753927
 20
-8.090542
 30
0.0
 11
45.753927
 21
-8.116521
 31
0.0
  0
LINE
  5
290
330
44A
100
AcDbEntity
  8
2-36G
  6
Continuous
 62
     7
370
    13
100
AcDbLine
 10
45.184677
 20
-8.293302
 30
0.0
 11
45.184677
 21
-8.37475
 31
0.0
  0
LINE
  5
291
330
44A
100
AcDbEntity
  8
2-36G
  6
Continuous
 62
     7
370
    13
100
AcDbLine
 10
45.082479
 20
-8.317719
 30
0.0
 11
45.082479
 21
-8.37475
 31
0.0
  0
LINE
  5
292
330
44A
100
AcDbEntity
  8
2-36G
  6
Continuous
 62
     7
370
    13
100
AcDbLine
 10
44.980271
 20
-8.167042
 30
0.0
 11
44.980271
 21
-8.051229
 31
0.0
  0
LINE
  5
293
330
44A
100
AcDbEntity
  8
2-36G
  6
Continuous
 62
     7
370
    13
100
AcDbLine
 10
44.980271
 20
-8.37475
 30
0.0
 11
44.980271
 21
-8.323781
 31
0.0
  0
LINE
  5
294
330
44A
100
AcDbEntity
  8
2-36G
  6
Continuous
 62
     7
370
    13
100
AcDbLine
 10
45.082479
 20
-8.535354
 30
0.0
 11
45.082479
 21
-8.67026
 31
0.0
  0
LINE
  5
295
330
44A
100
AcDbEntity
  8
2-36G
  6
Continuous
 62
     7
370
    13
100
AcDbLine
 10
45.184677
 20
-8.535354
 30
0.0
 11
45.184677
 21
-8.67026
 31
0.0
  0
LINE
  5
296
330
44A
100
AcDbEntity
  8
2-36G
  6
Continuous
 62
     7
370
    13
100
AcDbLine
 10
45.549521
 20
-8.37475
 30
0.0
 11
45.549521
 21
-8.28974
 31
0.0
  0
LINE
  5
297
330
44A
100
AcDbEntity
  8
2-36G
  6
Continuous
 62
     7
370
    13
100
AcDbLine
 10
45.651719
 20
-8.535354
 30
0.0
 11
45.651719
 21
-8.650656
 31
0.0
  0
LINE
  5
298
330
44A
100
AcDbEntity
  8
2-36G
  6
Continuous
 62
     7
370
    13
100
AcDbLine
 10
45.753927
 20
-8.535354
 30
0.0
 11
45.753927
 21
-8.59174
 31
0.0
  0
LINE
  5
299
330
44A
100
AcDbEntity
  8
2-36G
  6
Continuous
 62
     7
370
    13
100
AcDbLine
 10
45.753927
 20
-8.272802
 30
0.0
 11
45.753927
 21
-8.37475
 31
0.0
  0
LINE
  5
29A
330
44A
100
AcDbEntity
  8
2-36G
  6
Continuous
 62
     7
370
    13
100
AcDbLine
 10
45.651719
 20
-8.283573
 30
0.0
 11
45.651719
 21
-8.37475
 31
0.0
  0
LINE
  5
29B
330
44A
100
AcDbEntity
  8
2-36G
  6
Continuous
 62
     7
370
    13
100
AcDbLine
 10
45.549521
 20
-8.128167
 30
0.0
 11
45.549521
 21
-8.031615
 31
0.0
  0
LINE
  5
29C
330
44A
100
AcDbEntity
  8
2-36G
  6
Continuous
 62
     7
370
    13
100
AcDbLine
 10
45.549521
 20
-9.536604
 30
0.0
 11
45.549521
 21
-9.425167
 31
0.0
  0
LINE
  5
29D
330
44A
100
AcDbEntity
  8
2-36G
  6
Continuous
 62
     7
370
    13
100
AcDbLine
 10
45.651719
 20
-9.68499
 30
0.0
 11
45.651719
 21
-9.783188
 31
0.0
  0
LINE
  5
29E
330
44A
100
AcDbEntity
  8
2-36G
  6
Continuous
 62
     7
370
    13
100
AcDbLine
 10
45.753927
 20
-9.68124
 30
0.0
 11
45.753927
 21
-9.783188
 31
0.0
  0
LINE
  5
29F
330
44A
100
AcDbEntity
  8
2-36G
  6
Continuous
 62
     7
370
    13
100
AcDbLine
 10
45.753927
 20
-9.943792
 30
0.0
 11
45.753927
 21
-10.059094
 31
0.0
  0
LINE
  5
2A0
330
44A
100
AcDbEntity
  8
2-36G
  6
Continuous
 62
     7
370
    13
100
AcDbLine
 10
45.651719
 20
-9.943792
 30
0.0
 11
45.651719
 21
-10.059094
 31
0.0
  0
LINE
  5
2A1
330
44A
100
AcDbEntity
  8
2-36G
  6
Continuous
 62
     7
370
    13
100
AcDbLine
 10
45.549521
 20
-9.783188
 30
0.0
 11
45.549521
 21
-9.68875
 31
0.0
  0
LINE
  5
2A2
330
44A
100
AcDbEntity
  8
2-36G
  6
Continuous
 62
     7
370
    13
100
AcDbLine
 10
45.184677
 20
-9.943792
 30
0.0
 11
45.184677
 21
-10.078708
 31
0.0
  0
LINE
  5
2A3
330
44A
100
AcDbEntity
  8
2-36G
  6
Continuous
 62
     7
370
    13
100
AcDbLine
 10
45.082479
 20
-9.943792
 30
0.0
 11
45.082479
 21
-10.078708
 31
0.0
  0
LINE
  5
2A4
330
44A
100
AcDbEntity
  8
2-36G
  6
Continuous
 62
     7
370
    13
100
AcDbLine
 10
44.980271
 20
-9.783188
 30
0.0
 11
44.980271
 21
-9.708719
 31
0.0
  0
LINE
  5
2A5
330
44A
100
AcDbEntity
  8
2-36G
  6
Continuous
 62
     7
370
    13
100
AcDbLine
 10
44.980271
 20
-9.565437
 30
0.0
 11
44.980271
 21
-9.459667
 31
0.0
  0
LINE
  5
2A6
330
44A
100
AcDbEntity
  8
2-36G
  6
Continuous
 62
     7
370
    13
100
AcDbLine
 10
45.082479
 20
-9.70526
 30
0.0
 11
45.082479
 21
-9.783188
 31
0.0
  0
LINE
  5
2A7
330
44A
100
AcDbEntity
  8
2-36G
  6
Continuous
 62
     7
370
    13
100
AcDbLine
 10
45.184677
 20
-9.70174
 30
0.0
 11
45.184677
 21
-9.783188
 31
0.0
  0
LINE
  5
2A8
330
44A
100
AcDbEntity
  8
2-36G
  6
Continuous
 62
     7
370
    13
100
AcDbLine
 10
45.753927
 20
-9.470187
 30
0.0
 11
45.753927
 21
-9.524958
 31
0.0
  0
LINE
  5
2A9
330
44A
100
AcDbEntity
  8
2-36G
  6
Continuous
 62
     7
370
    13
100
AcDbLine
 10
45.549521
 20
-10.000177
 30
0.0
 11
45.549521
 21
-9.943792
 31
0.0
  0
LINE
  5
2AA
330
44A
100
AcDbEntity
  8
2-36G
  6
Continuous
 62
     7
370
    13
100
AcDbLine
 10
45.549521
 20
-10.000177
 30
0.0
 11
45.651719
 21
-10.000177
 31
0.0
  0
LINE
  5
2AB
330
44A
100
AcDbEntity
  8
2-36G
  6
Continuous
 62
     7
370
    13
100
AcDbLine
 10
45.549521
 20
-9.425167
 30
0.0
 11
45.651719
 21
-9.425167
 31
0.0
  0
LINE
  5
2AC
330
44A
100
AcDbEntity
  8
2-36G
  6
Continuous
 62
     7
370
    13
100
AcDbLine
 10
45.651719
 20
-9.425167
 30
0.0
 11
45.651719
 21
-9.530948
 31
0.0
  0
LINE
  5
2AD
330
44A
100
AcDbEntity
  8
2-36G
  6
Continuous
 62
     7
370
    13
100
AcDbLine
 10
45.651719
 20
-9.470187
 30
0.0
 11
45.753927
 21
-9.470187
 31
0.0
  0
LINE
  5
2AE
330
44A
100
AcDbEntity
  8
2-36G
  6
Continuous
 62
     7
370
    13
100
AcDbLine
 10
45.651719
 20
-10.059094
 30
0.0
 11
45.753927
 21
-10.059094
 31
0.0
  0
LINE
  5
2AF
330
44A
100
AcDbEntity
  8
2-36G
  6
Continuous
 62
     7
370
    13
100
AcDbLine
 10
45.116479
 20
-9.557521
 30
0.0
 11
45.15725
 21
-9.557521
 31
0.0
  0
LINE
  5
2B0
330
44A
100
AcDbEntity
  8
2-36G
  6
Continuous
 62
     7
370
    13
100
AcDbLine
 10
45.082479
 20
-10.078708
 30
0.0
 11
45.184677
 21
-10.078708
 31
0.0
  0
LINE
  5
2B1
330
44A
100
AcDbEntity
  8
2-36G
  6
Continuous
 62
     7
370
    13
100
AcDbLine
 10
45.184677
 20
-9.49601
 30
0.0
 11
45.184677
 21
-9.555813
 31
0.0
  0
LINE
  5
2B2
330
44A
100
AcDbEntity
  8
2-36G
  6
Continuous
 62
     7
370
    13
100
AcDbLine
 10
45.082479
 20
-9.49601
 30
0.0
 11
45.184677
 21
-9.49601
 31
0.0
  0
LINE
  5
2B3
330
44A
100
AcDbEntity
  8
2-36G
  6
Continuous
 62
     7
370
    13
100
AcDbLine
 10
45.082479
 20
-9.459667
 30
0.0
 11
45.082479
 21
-9.560677
 31
0.0
  0
LINE
  5
2B4
330
44A
100
AcDbEntity
  8
2-36G
  6
Continuous
 62
     7
370
    13
100
AcDbLine
 10
44.980271
 20
-9.459667
 30
0.0
 11
45.082479
 21
-9.459667
 31
0.0
  0
LINE
  5
2B5
330
44A
100
AcDbEntity
  8
2-36G
  6
Continuous
 62
     7
370
    13
100
AcDbLine
 10
44.980271
 20
-10.019781
 30
0.0
 11
45.082479
 21
-10.019781
 31
0.0
  0
LINE
  5
2B6
330
44A
100
AcDbEntity
  8
2-36G
  6
Continuous
 62
     7
370
    13
100
AcDbLine
 10
44.980271
 20
-10.019781
 30
0.0
 11
44.980271
 21
-9.943792
 31
0.0
  0
LINE
  5
2B7
330
44A
100
AcDbEntity
  8
2-36G
  6
Continuous
 62
     7
370
    13
100
AcDbLine
 10
44.590104
 20
-9.770375
 30
0.0
 11
44.590104
 21
-9.73451
 31
0.0
  0
LINE
  5
2B8
330
44A
100
AcDbEntity
  8
2-36G
  6
Continuous
 62
     7
370
    13
100
AcDbLine
 10
42.305615
 20
-9.783188
 30
0.0
 11
42.305615
 21
-9.728375
 31
0.0
  0
LINE
  5
2B9
330
44A
100
AcDbEntity
  8
2-36G
  6
Continuous
 62
     7
370
    13
100
AcDbLine
 10
42.348604
 20
-9.737552
 30
0.0
 11
42.348604
 21
-9.778281
 31
0.0
  0
LINE
  5
2BA
330
44A
100
AcDbEntity
  8
2-36G
  6
Continuous
 62
     7
370
    13
100
AcDbLine
 10
42.469073
 20
-9.737552
 30
0.0
 11
42.469073
 21
-9.778281
 31
0.0
  0
LINE
  5
2BB
330
44A
100
AcDbEntity
  8
2-36G
  6
Continuous
 62
     7
370
    13
100
AcDbLine
 10
42.510021
 20
-9.731552
 30
0.0
 11
42.510021
 21
-9.783188
 31
0.0
  0
LINE
  5
2BC
330
44A
100
AcDbEntity
  8
2-36G
  6
Continuous
 62
     7
370
    13
100
AcDbLine
 10
42.006844
 20
-9.723115
 30
0.0
 11
42.006844
 21
-9.783188
 31
0.0
  0
LINE
  5
2BD
330
44A
100
AcDbEntity
  8
2-36G
  6
Continuous
 62
     7
370
    13
100
AcDbLine
 10
41.802427
 20
-9.663656
 30
0.0
 11
41.802427
 21
-9.507229
 31
0.0
  0
LINE
  5
2BE
330
44A
100
AcDbEntity
  8
2-36G
  6
Continuous
 62
     7
370
    13
100
AcDbLine
 10
40.727021
 20
-9.783188
 30
0.0
 11
40.727021
 21
-9.507229
 31
0.0
  0
LINE
  5
2BF
330
44A
100
AcDbEntity
  8
2-36G
  6
Continuous
 62
     7
370
    13
100
AcDbLine
 10
40.931427
 20
-9.943792
 30
0.0
 11
40.931427
 21
-10.093635
 31
0.0
  0
LINE
  5
2C0
330
44A
100
AcDbEntity
  8
2-36G
  6
Continuous
 62
     7
370
    13
100
AcDbLine
 10
41.28275
 20
-9.783188
 30
0.0
 11
41.28275
 21
-9.707177
 31
0.0
  0
LINE
  5
2C1
330
44A
100
AcDbEntity
  8
2-36G
  6
Continuous
 62
     7
370
    13
100
AcDbLine
 10
41.487156
 20
-9.943792
 30
0.0
 11
41.487156
 21
-10.093635
 31
0.0
  0
LINE
  5
2C2
330
44A
100
AcDbEntity
  8
2-36G
  6
Continuous
 62
     7
370
    13
100
AcDbLine
 10
41.28275
 20
-9.678604
 30
0.0
 11
41.28275
 21
-9.507229
 31
0.0
  0
LINE
  5
2C3
330
44A
100
AcDbEntity
  8
2-36G
  6
Continuous
 62
     7
370
    13
100
AcDbLine
 10
41.32575
 20
-9.70824
 30
0.0
 11
41.32575
 21
-9.783188
 31
0.0
  0
LINE
  5
2C4
330
44A
100
AcDbEntity
  8
2-36G
  6
Continuous
 62
     7
370
    13
100
AcDbLine
 10
41.845427
 20
-9.719938
 30
0.0
 11
41.845427
 21
-9.783188
 31
0.0
  0
LINE
  5
2C5
330
44A
100
AcDbEntity
  8
2-36G
  6
Continuous
 62
     7
370
    13
100
AcDbLine
 10
41.965885
 20
-9.722333
 30
0.0
 11
41.965885
 21
-9.783188
 31
0.0
  0
LINE
  5
2C6
330
44A
100
AcDbEntity
  8
2-36G
  6
Continuous
 62
     7
370
    13
100
AcDbLine
 10
41.446208
 20
-9.711167
 30
0.0
 11
41.446208
 21
-9.783188
 31
0.0
  0
LINE
  5
2C7
330
44A
100
AcDbEntity
  8
2-36G
  6
Continuous
 62
     7
370
    13
100
AcDbLine
 10
41.802427
 20
-9.783188
 30
0.0
 11
41.802427
 21
-9.719062
 31
0.0
  0
LINE
  5
2C8
330
44A
100
AcDbEntity
  8
2-36G
  6
Continuous
 62
     7
370
    13
100
AcDbLine
 10
42.006844
 20
-9.943792
 30
0.0
 11
42.006844
 21
-10.093635
 31
0.0
  0
LINE
  5
2C9
330
44A
100
AcDbEntity
  8
2-36G
  6
Continuous
 62
     7
370
    13
100
AcDbLine
 10
42.510021
 20
-9.943792
 30
0.0
 11
42.510021
 21
-10.093635
 31
0.0
  0
LINE
  5
2CA
330
44A
100
AcDbEntity
  8
2-36G
  6
Continuous
 62
     7
370
    13
100
AcDbLine
 10
42.305615
 20
-9.649677
 30
0.0
 11
42.305615
 21
-9.507229
 31
0.0
  0
LINE
  5
2CB
330
44A
100
AcDbEntity
  8
2-36G
  6
Continuous
 62
     7
370
    13
100
AcDbLine
 10
43.058969
 20
-9.943792
 30
0.0
 11
43.058969
 21
-10.093635
 31
0.0
  0
LINE
  5
2CC
330
44A
100
AcDbEntity
  8
2-36G
  6
Continuous
 62
     7
370
    13
100
AcDbLine
 10
42.854552
 20
-9.63475
 30
0.0
 11
42.854552
 21
-9.507229
 31
0.0
  0
LINE
  5
2CD
330
44A
100
AcDbEntity
  8
2-36G
  6
Continuous
 62
     7
370
    13
100
AcDbLine
 10
43.39701
 20
-9.619896
 30
0.0
 11
43.39701
 21
-9.496437
 31
0.0
  0
LINE
  5
2CE
330
44A
100
AcDbEntity
  8
2-36G
  6
Continuous
 62
     7
370
    13
100
AcDbLine
 10
43.601417
 20
-9.943792
 30
0.0
 11
43.601417
 21
-10.056552
 31
0.0
  0
LINE
  5
2CF
330
44A
100
AcDbEntity
  8
2-36G
  6
Continuous
 62
     7
370
    13
100
AcDbLine
 10
44.131635
 20
-9.943792
 30
0.0
 11
44.131635
 21
-10.051781
 31
0.0
  0
LINE
  5
2D0
330
44A
100
AcDbEntity
  8
2-36G
  6
Continuous
 62
     7
370
    13
100
AcDbLine
 10
43.927229
 20
-9.60451
 30
0.0
 11
43.927229
 21
-9.491667
 31
0.0
  0
LINE
  5
2D1
330
44A
100
AcDbEntity
  8
2-36G
  6
Continuous
 62
     7
370
    13
100
AcDbLine
 10
44.426646
 20
-9.588
 30
0.0
 11
44.426646
 21
-9.486073
 31
0.0
  0
LINE
  5
2D2
330
44A
100
AcDbEntity
  8
2-36G
  6
Continuous
 62
     7
370
    13
100
AcDbLine
 10
44.631052
 20
-9.943792
 30
0.0
 11
44.631052
 21
-10.046188
 31
0.0
  0
LINE
  5
2D3
330
44A
100
AcDbEntity
  8
2-36G
  6
Continuous
 62
     7
370
    13
100
AcDbLine
 10
44.631052
 20
-9.720115
 30
0.0
 11
44.631052
 21
-9.783188
 31
0.0
  0
LINE
  5
2D4
330
44A
100
AcDbEntity
  8
2-36G
  6
Continuous
 62
     7
370
    13
100
AcDbLine
 10
44.426646
 20
-10.046188
 30
0.0
 11
44.426646
 21
-9.943792
 31
0.0
  0
LINE
  5
2D5
330
44A
100
AcDbEntity
  8
2-36G
  6
Continuous
 62
     7
370
    13
100
AcDbLine
 10
44.469635
 20
-9.979656
 30
0.0
 11
44.469635
 21
-9.943792
 31
0.0
  0
LINE
  5
2D6
330
44A
100
AcDbEntity
  8
2-36G
  6
Continuous
 62
     7
370
    13
100
AcDbLine
 10
44.590104
 20
-9.979656
 30
0.0
 11
44.469635
 21
-9.979656
 31
0.0
  0
LINE
  5
2D7
330
44A
100
AcDbEntity
  8
2-36G
  6
Continuous
 62
     7
370
    13
100
AcDbLine
 10
44.426646
 20
-10.046188
 30
0.0
 11
44.631052
 21
-10.046188
 31
0.0
  0
LINE
  5
2D8
330
44A
100
AcDbEntity
  8
2-36G
  6
Continuous
 62
     7
370
    13
100
AcDbLine
 10
44.631052
 20
-9.486073
 30
0.0
 11
44.631052
 21
-9.58024
 31
0.0
  0
LINE
  5
2D9
330
44A
100
AcDbEntity
  8
2-36G
  6
Continuous
 62
     7
370
    13
100
AcDbLine
 10
44.426646
 20
-9.486073
 30
0.0
 11
44.631052
 21
-9.486073
 31
0.0
  0
LINE
  5
2DA
330
44A
100
AcDbEntity
  8
2-36G
  6
Continuous
 62
     7
370
    13
100
AcDbLine
 10
44.590104
 20
-9.979656
 30
0.0
 11
44.590104
 21
-9.943792
 31
0.0
  0
LINE
  5
2DB
330
44A
100
AcDbEntity
  8
2-36G
  6
Continuous
 62
     7
370
    13
100
AcDbLine
 10
44.590104
 20
-9.552615
 30
0.0
 11
44.590104
 21
-9.581802
 31
0.0
  0
LINE
  5
2DC
330
44A
100
AcDbEntity
  8
2-36G
  6
Continuous
 62
     7
370
    13
100
AcDbLine
 10
44.590104
 20
-9.552615
 30
0.0
 11
44.469635
 21
-9.552615
 31
0.0
  0
LINE
  5
2DD
330
44A
100
AcDbEntity
  8
2-36G
  6
Continuous
 62
     7
370
    13
100
AcDbLine
 10
44.469635
 20
-9.552615
 30
0.0
 11
44.469635
 21
-9.586365
 31
0.0
  0
LINE
  5
2DE
330
44A
100
AcDbEntity
  8
2-36G
  6
Continuous
 62
     7
370
    13
100
AcDbLine
 10
43.927229
 20
-10.051781
 30
0.0
 11
43.927229
 21
-9.943792
 31
0.0
  0
LINE
  5
2DF
330
44A
100
AcDbEntity
  8
2-36G
  6
Continuous
 62
     7
370
    13
100
AcDbLine
 10
43.970219
 20
-9.98525
 30
0.0
 11
43.970219
 21
-9.943792
 31
0.0
  0
LINE
  5
2E0
330
44A
100
AcDbEntity
  8
2-36G
  6
Continuous
 62
     7
370
    13
100
AcDbLine
 10
44.090688
 20
-9.98525
 30
0.0
 11
43.970219
 21
-9.98525
 31
0.0
  0
LINE
  5
2E1
330
44A
100
AcDbEntity
  8
2-36G
  6
Continuous
 62
     7
370
    13
100
AcDbLine
 10
44.00524
 20
-10.001927
 30
0.0
 11
44.005437
 21
-10.03651
 31
0.0
  0
LINE
  5
2E2
330
44A
100
AcDbEntity
  8
2-36G
  6
Continuous
 62
     7
370
    13
100
AcDbLine
 10
44.046208
 20
-10.001927
 30
0.0
 11
44.00524
 21
-10.001927
 31
0.0
  0
LINE
  5
2E3
330
44A
100
AcDbEntity
  8
2-36G
  6
Continuous
 62
     7
370
    13
100
AcDbLine
 10
44.046208
 20
-10.03651
 30
0.0
 11
44.046208
 21
-10.001927
 31
0.0
  0
LINE
  5
2E4
330
44A
100
AcDbEntity
  8
2-36G
  6
Continuous
 62
     7
370
    13
100
AcDbLine
 10
44.005437
 20
-10.03651
 30
0.0
 11
44.046208
 21
-10.03651
 31
0.0
  0
LINE
  5
2E5
330
44A
100
AcDbEntity
  8
2-36G
  6
Continuous
 62
     7
370
    13
100
AcDbLine
 10
43.927229
 20
-10.051781
 30
0.0
 11
44.131635
 21
-10.051781
 31
0.0
  0
LINE
  5
2E6
330
44A
100
AcDbEntity
  8
2-36G
  6
Continuous
 62
     7
370
    13
100
AcDbLine
 10
44.131635
 20
-9.491667
 30
0.0
 11
44.131635
 21
-9.598083
 31
0.0
  0
LINE
  5
2E7
330
44A
100
AcDbEntity
  8
2-36G
  6
Continuous
 62
     7
370
    13
100
AcDbLine
 10
43.927229
 20
-9.491667
 30
0.0
 11
44.131635
 21
-9.491667
 31
0.0
  0
LINE
  5
2E8
330
44A
100
AcDbEntity
  8
2-36G
  6
Continuous
 62
     7
370
    13
100
AcDbLine
 10
44.090688
 20
-9.98525
 30
0.0
 11
44.090688
 21
-9.943792
 31
0.0
  0
LINE
  5
2E9
330
44A
100
AcDbEntity
  8
2-36G
  6
Continuous
 62
     7
370
    13
100
AcDbLine
 10
44.090688
 20
-9.558198
 30
0.0
 11
44.090688
 21
-9.599365
 31
0.0
  0
LINE
  5
2EA
330
44A
100
AcDbEntity
  8
2-36G
  6
Continuous
 62
     7
370
    13
100
AcDbLine
 10
44.005437
 20
-9.506927
 30
0.0
 11
44.046208
 21
-9.506927
 31
0.0
  0
LINE
  5
2EB
330
44A
100
AcDbEntity
  8
2-36G
  6
Continuous
 62
     7
370
    13
100
AcDbLine
 10
44.046208
 20
-9.506927
 30
0.0
 11
44.046208
 21
-9.541521
 31
0.0
  0
LINE
  5
2EC
330
44A
100
AcDbEntity
  8
2-36G
  6
Continuous
 62
     7
370
    13
100
AcDbLine
 10
44.046208
 20
-9.541521
 30
0.0
 11
44.00524
 21
-9.541521
 31
0.0
  0
LINE
  5
2ED
330
44A
100
AcDbEntity
  8
2-36G
  6
Continuous
 62
     7
370
    13
100
AcDbLine
 10
44.00524
 20
-9.541521
 30
0.0
 11
44.005437
 21
-9.506927
 31
0.0
  0
LINE
  5
2EE
330
44A
100
AcDbEntity
  8
2-36G
  6
Continuous
 62
     7
370
    13
100
AcDbLine
 10
44.090688
 20
-9.558198
 30
0.0
 11
43.970219
 21
-9.558198
 31
0.0
  0
LINE
  5
2EF
330
44A
100
AcDbEntity
  8
2-36G
  6
Continuous
 62
     7
370
    13
100
AcDbLine
 10
43.970219
 20
-9.558198
 30
0.0
 11
43.970219
 21
-9.603156
 31
0.0
  0
LINE
  5
2F0
330
44A
100
AcDbEntity
  8
2-36G
  6
Continuous
 62
     7
370
    13
100
AcDbLine
 10
43.39701
 20
-10.056552
 30
0.0
 11
43.39701
 21
-9.943792
 31
0.0
  0
LINE
  5
2F1
330
44A
100
AcDbEntity
  8
2-36G
  6
Continuous
 62
     7
370
    13
100
AcDbLine
 10
43.44001
 20
-9.990021
 30
0.0
 11
43.44001
 21
-9.943792
 31
0.0
  0
LINE
  5
2F2
330
44A
100
AcDbEntity
  8
2-36G
  6
Continuous
 62
     7
370
    13
100
AcDbLine
 10
43.560458
 20
-9.990021
 30
0.0
 11
43.44001
 21
-9.990021
 31
0.0
  0
LINE
  5
2F3
330
44A
100
AcDbEntity
  8
2-36G
  6
Continuous
 62
     7
370
    13
100
AcDbLine
 10
43.39701
 20
-10.056552
 30
0.0
 11
43.601417
 21
-10.056552
 31
0.0
  0
LINE
  5
2F4
330
44A
100
AcDbEntity
  8
2-36G
  6
Continuous
 62
     7
370
    13
100
AcDbLine
 10
43.601417
 20
-9.496437
 30
0.0
 11
43.601417
 21
-9.614156
 31
0.0
  0
LINE
  5
2F5
330
44A
100
AcDbEntity
  8
2-36G
  6
Continuous
 62
     7
370
    13
100
AcDbLine
 10
43.39701
 20
-9.496437
 30
0.0
 11
43.601417
 21
-9.496437
 31
0.0
  0
LINE
  5
2F6
330
44A
100
AcDbEntity
  8
2-36G
  6
Continuous
 62
     7
370
    13
100
AcDbLine
 10
43.560458
 20
-9.990021
 30
0.0
 11
43.560458
 21
-9.943792
 31
0.0
  0
LINE
  5
2F7
330
44A
100
AcDbEntity
  8
2-36G
  6
Continuous
 62
     7
370
    13
100
AcDbLine
 10
43.560458
 20
-9.562969
 30
0.0
 11
43.560458
 21
-9.615323
 31
0.0
  0
LINE
  5
2F8
330
44A
100
AcDbEntity
  8
2-36G
  6
Continuous
 62
     7
370
    13
100
AcDbLine
 10
43.560458
 20
-9.562969
 30
0.0
 11
43.44001
 21
-9.562969
 31
0.0
  0
LINE
  5
2F9
330
44A
100
AcDbEntity
  8
2-36G
  6
Continuous
 62
     7
370
    13
100
AcDbLine
 10
43.44001
 20
-9.562969
 30
0.0
 11
43.44001
 21
-9.618688
 31
0.0
  0
LINE
  5
2FA
330
44A
100
AcDbEntity
  8
2-36G
  6
Continuous
 62
     7
370
    13
100
AcDbLine
 10
42.854552
 20
-10.093635
 30
0.0
 11
42.854552
 21
-9.943792
 31
0.0
  0
LINE
  5
2FB
330
44A
100
AcDbEntity
  8
2-36G
  6
Continuous
 62
     7
370
    13
100
AcDbLine
 10
42.897552
 20
-10.013958
 30
0.0
 11
42.897552
 21
-9.943792
 31
0.0
  0
LINE
  5
2FC
330
44A
100
AcDbEntity
  8
2-36G
  6
Continuous
 62
     7
370
    13
100
AcDbLine
 10
43.01801
 20
-10.013958
 30
0.0
 11
42.897552
 21
-10.013958
 31
0.0
  0
LINE
  5
2FD
330
44A
100
AcDbEntity
  8
2-36G
  6
Continuous
 62
     7
370
    13
100
AcDbLine
 10
43.058969
 20
-9.507229
 30
0.0
 11
43.058969
 21
-9.629198
 31
0.0
  0
LINE
  5
2FE
330
44A
100
AcDbEntity
  8
2-36G
  6
Continuous
 62
     7
370
    13
100
AcDbLine
 10
43.01801
 20
-10.013958
 30
0.0
 11
43.01801
 21
-9.943792
 31
0.0
  0
LINE
  5
2FF
330
44A
100
AcDbEntity
  8
2-36G
  6
Continuous
 62
     7
370
    13
100
AcDbLine
 10
43.01801
 20
-9.586906
 30
0.0
 11
43.01801
 21
-9.630302
 31
0.0
  0
LINE
  5
300
330
44A
100
AcDbEntity
  8
2-36G
  6
Continuous
 62
     7
370
    13
100
AcDbLine
 10
43.01801
 20
-9.586906
 30
0.0
 11
42.897552
 21
-9.586906
 31
0.0
  0
LINE
  5
301
330
44A
100
AcDbEntity
  8
2-36G
  6
Continuous
 62
     7
370
    13
100
AcDbLine
 10
42.897552
 20
-9.586906
 30
0.0
 11
42.897552
 21
-9.633583
 31
0.0
  0
LINE
  5
302
330
44A
100
AcDbEntity
  8
2-36G
  6
Continuous
 62
     7
370
    13
100
AcDbLine
 10
42.305615
 20
-10.093635
 30
0.0
 11
42.305615
 21
-9.943792
 31
0.0
  0
LINE
  5
303
330
44A
100
AcDbEntity
  8
2-36G
  6
Continuous
 62
     7
370
    13
100
AcDbLine
 10
42.348604
 20
-10.013958
 30
0.0
 11
42.348604
 21
-9.943792
 31
0.0
  0
LINE
  5
304
330
44A
100
AcDbEntity
  8
2-36G
  6
Continuous
 62
     7
370
    13
100
AcDbLine
 10
42.469073
 20
-10.013958
 30
0.0
 11
42.348604
 21
-10.013958
 31
0.0
  0
LINE
  5
305
330
44A
100
AcDbEntity
  8
2-36G
  6
Continuous
 62
     7
370
    13
100
AcDbLine
 10
42.510021
 20
-9.507229
 30
0.0
 11
42.510021
 21
-9.644083
 31
0.0
  0
LINE
  5
306
330
44A
100
AcDbEntity
  8
2-36G
  6
Continuous
 62
     7
370
    13
100
AcDbLine
 10
42.469073
 20
-10.013958
 30
0.0
 11
42.469073
 21
-9.943792
 31
0.0
  0
LINE
  5
307
330
44A
100
AcDbEntity
  8
2-36G
  6
Continuous
 62
     7
370
    13
100
AcDbLine
 10
42.469073
 20
-9.586906
 30
0.0
 11
42.469073
 21
-9.645198
 31
0.0
  0
LINE
  5
308
330
44A
100
AcDbEntity
  8
2-36G
  6
Continuous
 62
     7
370
    13
100
AcDbLine
 10
42.469073
 20
-9.586906
 30
0.0
 11
42.348604
 21
-9.586906
 31
0.0
  0
LINE
  5
309
330
44A
100
AcDbEntity
  8
2-36G
  6
Continuous
 62
     7
370
    13
100
AcDbLine
 10
42.348604
 20
-9.586906
 30
0.0
 11
42.348604
 21
-9.6485
 31
0.0
  0
LINE
  5
30A
330
44A
100
AcDbEntity
  8
2-36G
  6
Continuous
 62
     7
370
    13
100
AcDbLine
 10
41.802427
 20
-10.093635
 30
0.0
 11
41.802427
 21
-9.943792
 31
0.0
  0
LINE
  5
30B
330
44A
100
AcDbEntity
  8
2-36G
  6
Continuous
 62
     7
370
    13
100
AcDbLine
 10
41.845427
 20
-10.013958
 30
0.0
 11
41.845427
 21
-9.943792
 31
0.0
  0
LINE
  5
30C
330
44A
100
AcDbEntity
  8
2-36G
  6
Continuous
 62
     7
370
    13
100
AcDbLine
 10
41.965885
 20
-10.013958
 30
0.0
 11
41.845427
 21
-10.013958
 31
0.0
  0
LINE
  5
30D
330
44A
100
AcDbEntity
  8
2-36G
  6
Continuous
 62
     7
370
    13
100
AcDbLine
 10
41.921406
 20
-10.030635
 30
0.0
 11
41.880635
 21
-10.030635
 31
0.0
  0
LINE
  5
30E
330
44A
100
AcDbEntity
  8
2-36G
  6
Continuous
 62
     7
370
    13
100
AcDbLine
 10
41.921406
 20
-10.065219
 30
0.0
 11
41.921406
 21
-10.030635
 31
0.0
  0
LINE
  5
30F
330
44A
100
AcDbEntity
  8
2-36G
  6
Continuous
 62
     7
370
    13
100
AcDbLine
 10
41.880635
 20
-10.065219
 30
0.0
 11
41.921406
 21
-10.065219
 31
0.0
  0
LINE
  5
310
330
44A
100
AcDbEntity
  8
2-36G
  6
Continuous
 62
     7
370
    13
100
AcDbLine
 10
42.006844
 20
-9.507229
 30
0.0
 11
42.006844
 21
-9.657937
 31
0.0
  0
LINE
  5
311
330
44A
100
AcDbEntity
  8
2-36G
  6
Continuous
 62
     7
370
    13
100
AcDbLine
 10
41.965885
 20
-10.013958
 30
0.0
 11
41.965885
 21
-9.943792
 31
0.0
  0
LINE
  5
312
330
44A
100
AcDbEntity
  8
2-36G
  6
Continuous
 62
     7
370
    13
100
AcDbLine
 10
41.965885
 20
-9.586906
 30
0.0
 11
41.965885
 21
-9.659083
 31
0.0
  0
LINE
  5
313
330
44A
100
AcDbEntity
  8
2-36G
  6
Continuous
 62
     7
370
    13
100
AcDbLine
 10
41.880635
 20
-9.535635
 30
0.0
 11
41.921406
 21
-9.535635
 31
0.0
  0
LINE
  5
314
330
44A
100
AcDbEntity
  8
2-36G
  6
Continuous
 62
     7
370
    13
100
AcDbLine
 10
41.921406
 20
-9.535635
 30
0.0
 11
41.921406
 21
-9.57024
 31
0.0
  0
LINE
  5
315
330
44A
100
AcDbEntity
  8
2-36G
  6
Continuous
 62
     7
370
    13
100
AcDbLine
 10
41.921406
 20
-9.57024
 30
0.0
 11
41.880635
 21
-9.57024
 31
0.0
  0
LINE
  5
316
330
44A
100
AcDbEntity
  8
2-36G
  6
Continuous
 62
     7
370
    13
100
AcDbLine
 10
41.965885
 20
-9.586906
 30
0.0
 11
41.845427
 21
-9.586906
 31
0.0
  0
LINE
  5
317
330
44A
100
AcDbEntity
  8
2-36G
  6
Continuous
 62
     7
370
    13
100
AcDbLine
 10
41.845427
 20
-9.586906
 30
0.0
 11
41.845427
 21
-9.662458
 31
0.0
  0
LINE
  5
318
330
44A
100
AcDbEntity
  8
2-36G
  6
Continuous
 62
     7
370
    13
100
AcDbLine
 10
41.32575
 20
-9.586906
 30
0.0
 11
41.32575
 21
-9.677354
 31
0.0
  0
LINE
  5
319
330
44A
100
AcDbEntity
  8
2-36G
  6
Continuous
 62
     7
370
    13
100
AcDbLine
 10
41.446208
 20
-9.586906
 30
0.0
 11
41.32575
 21
-9.586906
 31
0.0
  0
LINE
  5
31A
330
44A
100
AcDbEntity
  8
2-36G
  6
Continuous
 62
     7
370
    13
100
AcDbLine
 10
41.401729
 20
-9.57024
 30
0.0
 11
41.360958
 21
-9.57024
 31
0.0
  0
LINE
  5
31B
330
44A
100
AcDbEntity
  8
2-36G
  6
Continuous
 62
     7
370
    13
100
AcDbLine
 10
41.401729
 20
-9.535635
 30
0.0
 11
41.401729
 21
-9.57024
 31
0.0
  0
LINE
  5
31C
330
44A
100
AcDbEntity
  8
2-36G
  6
Continuous
 62
     7
370
    13
100
AcDbLine
 10
41.360958
 20
-9.535635
 30
0.0
 11
41.401729
 21
-9.535635
 31
0.0
  0
LINE
  5
31D
330
44A
100
AcDbEntity
  8
2-36G
  6
Continuous
 62
     7
370
    13
100
AcDbLine
 10
41.446208
 20
-9.586906
 30
0.0
 11
41.446208
 21
-9.673875
 31
0.0
  0
LINE
  5
31E
330
44A
100
AcDbEntity
  8
2-36G
  6
Continuous
 62
     7
370
    13
100
AcDbLine
 10
41.446208
 20
-10.013958
 30
0.0
 11
41.446208
 21
-9.943792
 31
0.0
  0
LINE
  5
31F
330
44A
100
AcDbEntity
  8
2-36G
  6
Continuous
 62
     7
370
    13
100
AcDbLine
 10
41.487156
 20
-9.507229
 30
0.0
 11
41.487156
 21
-9.783188
 31
0.0
  0
LINE
  5
320
330
44A
100
AcDbEntity
  8
2-36G
  6
Continuous
 62
     7
370
    13
100
AcDbLine
 10
41.360958
 20
-10.065219
 30
0.0
 11
41.401729
 21
-10.065219
 31
0.0
  0
LINE
  5
321
330
44A
100
AcDbEntity
  8
2-36G
  6
Continuous
 62
     7
370
    13
100
AcDbLine
 10
41.401729
 20
-10.065219
 30
0.0
 11
41.401729
 21
-10.030635
 31
0.0
  0
LINE
  5
322
330
44A
100
AcDbEntity
  8
2-36G
  6
Continuous
 62
     7
370
    13
100
AcDbLine
 10
41.401729
 20
-10.030635
 30
0.0
 11
41.360958
 21
-10.030635
 31
0.0
  0
LINE
  5
323
330
44A
100
AcDbEntity
  8
2-36G
  6
Continuous
 62
     7
370
    13
100
AcDbLine
 10
41.446208
 20
-10.013958
 30
0.0
 11
41.32575
 21
-10.013958
 31
0.0
  0
LINE
  5
324
330
44A
100
AcDbEntity
  8
2-36G
  6
Continuous
 62
     7
370
    13
100
AcDbLine
 10
41.32575
 20
-10.013958
 30
0.0
 11
41.32575
 21
-9.943792
 31
0.0
  0
LINE
  5
325
330
44A
100
AcDbEntity
  8
2-36G
  6
Continuous
 62
     7
370
    13
100
AcDbLine
 10
41.28275
 20
-10.093635
 30
0.0
 11
41.28275
 21
-9.943792
 31
0.0
  0
LINE
  5
326
330
44A
100
AcDbEntity
  8
2-36G
  6
Continuous
 62
     7
370
    13
100
AcDbLine
 10
40.77001
 20
-9.783188
 30
0.0
 11
40.77001
 21
-9.586906
 31
0.0
  0
LINE
  5
327
330
44A
100
AcDbEntity
  8
2-36G
  6
Continuous
 62
     7
370
    13
100
AcDbLine
 10
40.890469
 20
-9.783188
 30
0.0
 11
40.890469
 21
-9.702885
 31
0.0
  0
LINE
  5
328
330
44A
100
AcDbEntity
  8
2-36G
  6
Continuous
 62
     7
370
    13
100
AcDbLine
 10
40.77001
 20
-9.637156
 30
0.0
 11
40.931427
 21
-9.637156
 31
0.0
  0
LINE
  5
329
330
44A
100
AcDbEntity
  8
2-36G
  6
Continuous
 62
     7
370
    13
100
AcDbLine
 10
40.804646
 20
-9.572667
 30
0.0
 11
40.805219
 21
-9.535635
 31
0.0
  0
LINE
  5
32A
330
44A
100
AcDbEntity
  8
2-36G
  6
Continuous
 62
     7
370
    13
100
AcDbLine
 10
40.805219
 20
-9.535635
 30
0.0
 11
40.84599
 21
-9.535635
 31
0.0
  0
LINE
  5
32B
330
44A
100
AcDbEntity
  8
2-36G
  6
Continuous
 62
     7
370
    13
100
AcDbLine
 10
40.84599
 20
-9.535635
 30
0.0
 11
40.84599
 21
-9.57024
 31
0.0
  0
LINE
  5
32C
330
44A
100
AcDbEntity
  8
2-36G
  6
Continuous
 62
     7
370
    13
100
AcDbLine
 10
40.84599
 20
-9.57024
 30
0.0
 11
40.804646
 21
-9.572667
 31
0.0
  0
LINE
  5
32D
330
44A
100
AcDbEntity
  8
2-36G
  6
Continuous
 62
     7
370
    13
100
AcDbLine
 10
40.890469
 20
-9.586906
 30
0.0
 11
40.77001
 21
-9.586906
 31
0.0
  0
LINE
  5
32E
330
44A
100
AcDbEntity
  8
2-36G
  6
Continuous
 62
     7
370
    13
100
AcDbLine
 10
40.890469
 20
-9.586906
 30
0.0
 11
40.890469
 21
-9.637156
 31
0.0
  0
LINE
  5
32F
330
44A
100
AcDbEntity
  8
2-36G
  6
Continuous
 62
     7
370
    13
100
AcDbLine
 10
40.890469
 20
-10.013958
 30
0.0
 11
40.890469
 21
-9.943792
 31
0.0
  0
LINE
  5
330
330
44A
100
AcDbEntity
  8
2-36G
  6
Continuous
 62
     7
370
    13
100
AcDbLine
 10
40.77001
 20
-10.013958
 30
0.0
 11
40.77001
 21
-9.943792
 31
0.0
  0
LINE
  5
331
330
44A
100
AcDbEntity
  8
2-36G
  6
Continuous
 62
     7
370
    13
100
AcDbLine
 10
40.890469
 20
-10.013958
 30
0.0
 11
40.77001
 21
-10.013958
 31
0.0
  0
LINE
  5
332
330
44A
100
AcDbEntity
  8
2-36G
  6
Continuous
 62
     7
370
    13
100
AcDbLine
 10
40.804646
 20
-10.030635
 30
0.0
 11
40.805219
 21
-10.065219
 31
0.0
  0
LINE
  5
333
330
44A
100
AcDbEntity
  8
2-36G
  6
Continuous
 62
     7
370
    13
100
AcDbLine
 10
40.84599
 20
-10.030635
 30
0.0
 11
40.804646
 21
-10.030635
 31
0.0
  0
LINE
  5
334
330
44A
100
AcDbEntity
  8
2-36G
  6
Continuous
 62
     7
370
    13
100
AcDbLine
 10
40.84599
 20
-10.065219
 30
0.0
 11
40.84599
 21
-10.030635
 31
0.0
  0
LINE
  5
335
330
44A
100
AcDbEntity
  8
2-36G
  6
Continuous
 62
     7
370
    13
100
AcDbLine
 10
40.805219
 20
-10.065219
 30
0.0
 11
40.84599
 21
-10.065219
 31
0.0
  0
LINE
  5
336
330
44A
100
AcDbEntity
  8
2-36G
  6
Continuous
 62
     7
370
    13
100
AcDbLine
 10
40.931427
 20
-9.507229
 30
0.0
 11
40.931427
 21
-9.783188
 31
0.0
  0
LINE
  5
337
330
44A
100
AcDbEntity
  8
2-36G
  6
Continuous
 62
     7
370
    13
100
AcDbLine
 10
40.727021
 20
-10.093635
 30
0.0
 11
40.727021
 21
-9.943792
 31
0.0
  0
LWPOLYLINE
  5
338
330
44A
100
AcDbEntity
  8
2-36G
  6
Continuous
 62
     7
370
     0
100
AcDbPolyline
 90
       22
 70
   128
 43
0.0
 10
43.998198
 20
-8.380667
 10
43.831531
 20
-8.390021
 10
43.532927
 20
-8.406198
 10
43.293396
 20
-8.418625
 10
43.096094
 20
-8.428448
 10
42.924177
 20
-8.436802
 10
42.763354
 20
-8.444625
 10
42.610302
 20
-8.452073
 10
42.464583
 20
-8.459125
 10
42.325677
 20
-8.46574
 10
42.193146
 20
-8.471865
 10
42.066531
 20
-8.477479
 10
41.945365
 20
-8.482542
 10
41.82924
 20
-8.48699
 10
41.71724
 20
-8.490875
 10
41.606042
 20
-8.49449
 10
41.491573
 20
-8.498188
 10
41.369594
 20
-8.502344
 10
41.235927
 20
-8.507333
 10
41.086312
 20
-8.513521
 10
40.916552
 20
-8.521292
 10
40.635573
 20
-8.535354
  0
LWPOLYLINE
  5
339
330
44A
100
AcDbEntity
  8
2-36G
  6
Continuous
 62
     7
370
     0
100
AcDbPolyline
 90
        4
 70
   128
 43
0.0
 10
45.93299
 20
-8.266615
 10
45.251042
 20
-8.30775
 10
44.673646
 20
-8.341938
 10
44.530437
 20
-8.350219
  0
LINE
  5
33A
330
44A
100
AcDbEntity
  8
2-36G
  6
Continuous
 62
     7
370
    13
100
AcDbLine
 10
44.530437
 20
-8.407427
 30
0.0
 11
44.530437
 21
-8.312417
 31
0.0
  0
LINE
  5
33B
330
44A
100
AcDbEntity
  8
2-36G
  6
Continuous
 62
     7
370
    13
100
AcDbLine
 10
43.998198
 20
-8.407427
 30
0.0
 11
43.998198
 21
-8.342865
 31
0.0
  0
LINE
  5
33C
330
44A
100
AcDbEntity
  8
2-36G
  6
DGN Style 2
 62
     7
370
    13
100
AcDbLine
 10
44.072896
 20
-8.407427
 30
0.0
 11
44.072896
 21
-8.338667
 31
0.0
  0
LINE
  5
33D
330
44A
100
AcDbEntity
  8
2-36G
  6
DGN Style 2
 62
     7
370
    13
100
AcDbLine
 10
44.19049
 20
-8.407427
 30
0.0
 11
44.19049
 21
-8.332062
 31
0.0
  0
LINE
  5
33E
330
44A
100
AcDbEntity
  8
2-36G
  6
DGN Style 2
 62
     7
370
    13
100
AcDbLine
 10
44.311771
 20
-8.407427
 30
0.0
 11
44.311771
 21
-8.325062
 31
0.0
  0
LINE
  5
33F
330
44A
100
AcDbEntity
  8
2-36G
  6
DGN Style 2
 62
     7
370
    13
100
AcDbLine
 10
44.435948
 20
-8.407427
 30
0.0
 11
44.435948
 21
-8.317885
 31
0.0
  0
LINE
  5
340
330
44A
100
AcDbEntity
  8
2-36G
  6
DGN Style 2
 62
     7
370
    13
100
AcDbLine
 10
44.435948
 20
-9.815865
 30
0.0
 11
44.435948
 21
-9.692844
 31
0.0
  0
LINE
  5
341
330
44A
100
AcDbEntity
  8
2-36G
  6
DGN Style 2
 62
     7
370
    13
100
AcDbLine
 10
44.311771
 20
-9.815865
 30
0.0
 11
44.311771
 21
-9.69576
 31
0.0
  0
LINE
  5
342
330
44A
100
AcDbEntity
  8
2-36G
  6
DGN Style 2
 62
     7
370
    13
100
AcDbLine
 10
44.19049
 20
-9.815865
 30
0.0
 11
44.19049
 21
-9.698187
 31
0.0
  0
LINE
  5
343
330
44A
100
AcDbEntity
  8
2-36G
  6
DGN Style 2
 62
     7
370
    13
100
AcDbLine
 10
44.072896
 20
-9.815865
 30
0.0
 11
44.072896
 21
-9.700031
 31
0.0
  0
LWPOLYLINE
  5
344
330
44A
100
AcDbEntity
  8
2-36G
  6
Continuous
 62
     7
370
     0
100
AcDbPolyline
 90
        6
 70
   128
 43
0.0
 10
44.530437
 20
-9.723167
 10
44.605479
 20
-9.720937
 10
44.846323
 20
-9.71324
 10
45.142823
 20
-9.703219
 10
45.502531
 20
-9.690479
 10
45.93299
 20
-9.674646
  0
LWPOLYLINE
  5
345
330
44A
100
AcDbEntity
  8
2-36G
  6
Continuous
 62
     7
370
     0
100
AcDbPolyline
 90
       57
 70
   128
 43
0.0
 10
40.775271
 20
-9.693812
 10
40.958052
 20
-9.69875
 10
41.11801
 20
-9.702969
 10
41.25776
 20
-9.706552
 10
41.379958
 20
-9.709583
 10
41.48725
 20
-9.712146
 10
41.582281
 20
-9.714333
 10
41.667698
 20
-9.716219
 10
41.746156
 20
-9.717896
 10
41.819917
 20
-9.719427
 10
41.889844
 20
-9.720833
 10
41.956396
 20
-9.722156
 10
42.020052
 20
-9.723375
 10
42.081292
 20
-9.72451
 10
42.140583
 20
-9.725573
 10
42.198417
 20
-9.726583
 10
42.25525
 20
-9.727552
 10
42.31149
 20
-9.728479
 10
42.367208
 20
-9.729375
 10
42.422396
 20
-9.730229
 10
42.477031
 20
-9.731063
 10
42.531125
 20
-9.731854
 10
42.584656
 20
-9.732625
 10
42.637615
 20
-9.733354
 10
42.69
 20
-9.734063
 10
42.741781
 20
-9.73474
 10
42.792979
 20
-9.735396
 10
42.843573
 20
-9.736021
 10
42.893542
 20
-9.736615
 10
42.942885
 20
-9.737187
 10
42.991594
 20
-9.737729
 10
43.039667
 20
-9.73825
 10
43.087083
 20
-9.73875
 10
43.133833
 20
-9.739219
 10
43.179917
 20
-9.739667
 10
43.225333
 20
-9.740083
 10
43.270063
 20
-9.740448
 10
43.314125
 20
-9.74075
 10
43.35749
 20
-9.74101
 10
43.400156
 20
-9.741198
 10
43.442125
 20
-9.741312
 10
43.483344
 20
-9.741354
 10
43.523521
 20
-9.741333
 10
43.562344
 20
-9.74125
 10
43.599458
 20
-9.741146
 10
43.634563
 20
-9.74101
 10
43.667323
 20
-9.740875
 10
43.697396
 20
-9.74075
 10
43.724458
 20
-9.740646
 10
43.748677
 20
-9.740573
 10
43.772219
 20
-9.740469
 10
43.797708
 20
-9.740271
 10
43.827823
 20
-9.739937
 10
43.865219
 20
-9.739385
 10
43.912521
 20
-9.738552
 10
43.972396
 20
-9.737375
 10
43.998198
 20
-9.736844
  0
LINE
  5
346
330
44A
100
AcDbEntity
  8
2-36G
  6
Continuous
 62
     7
370
    13
100
AcDbLine
 10
44.530437
 20
-9.783188
 30
0.0
 11
45.93299
 21
-9.783188
 31
0.0
  0
LINE
  5
347
330
44A
100
AcDbEntity
  8
2-36G
  6
Continuous
 62
     7
370
    13
100
AcDbLine
 10
43.998198
 20
-9.815865
 30
0.0
 11
43.998198
 21
-9.701469
 31
0.0
  0
LINE
  5
348
330
44A
100
AcDbEntity
  8
2-36G
  6
Continuous
 62
     7
370
    13
100
AcDbLine
 10
44.530437
 20
-9.815865
 30
0.0
 11
44.530437
 21
-9.690396
 31
0.0
  0
SPLINE
  5
349
330
44A
100
AcDbEntity
  8
2-36G
  6
Continuous
 62
     7
370
     0
100
AcDbSpline
210
0.0
220
0.0
230
1.0
 70
     8
 71
     3
 72
    13
 73
     9
 74
     0
 42
0.0000000001
 43
0.00000001
 40
0.0
 40
0.0
 40
0.0
 40
0.0
 40
0.1666666666666667
 40
0.3333333333333333
 40
0.5
 40
0.6666666666666666
 40
0.8333333333333333
 40
1.0
 40
1.0
 40
1.0
 40
1.0
 10
41.36717708333333
 20
-9.692697916666667
 30
0.0
 10
41.96005208333333
 20
-9.698604166666666
 30
0.0
 10
42.4795625
 20
-9.702802083333333
 30
0.0
 10
42.93090625
 20
-9.705541666666667
 30
0.0
 10
43.31933333333333
 20
-9.707072916666666
 30
0.0
 10
43.65207291666667
 20
-9.703604166666667
 30
0.0
 10
43.85682291666667
 20
-9.703479166666666
 30
0.0
 10
44.63163541666667
 20
-9.6925625
 30
0.0
 10
45.93298958333333
 20
-9.641989583333332
 30
0.0
  0
LWPOLYLINE
  5
34B
330
44A
100
AcDbEntity
  8
2-36G
  6
Continuous
 62
     7
370
     0
100
AcDbPolyline
 90
       16
 70
   128
 43
0.0
 10
40.77001
 20
-9.693802
 10
41.266792
 20
-9.694781
 10
41.724677
 20
-9.685302
 10
42.273823
 20
-9.681208
 10
42.919937
 20
-9.671219
 10
43.264375
 20
-9.661844
 10
43.584562
 20
-9.652906
 10
43.882156
 20
-9.644177
 10
44.159375
 20
-9.635458
 10
44.420729
 20
-9.626479
 10
44.671292
 20
-9.616979
 10
44.916167
 20
-9.606687
 10
45.160406
 20
-9.595333
 10
45.409115
 20
-9.582646
 10
45.667365
 20
-9.568375
 10
45.93299
 20
-9.552667
  0
LWPOLYLINE
  5
34C
330
44A
100
AcDbEntity
  8
2-36G
  6
Continuous
 62
     7
370
     0
100
AcDbPolyline
 90
       25
 70
   128
 43
0.0
 10
45.93299
 20
-8.228802
 10
45.248792
 20
-8.270073
 10
44.671437
 20
-8.30426
 10
44.203979
 20
-8.331302
 10
43.829458
 20
-8.352344
 10
43.530927
 20
-8.36851
 10
43.291479
 20
-8.380937
 10
43.09424
 20
-8.39076
 10
42.922344
 20
-8.399104
 10
42.761521
 20
-8.406927
 10
42.608479
 20
-8.414385
 10
42.462771
 20
-8.421427
 10
42.323906
 20
-8.428042
 10
42.191437
 20
-8.434167
 10
42.064906
 20
-8.439781
 10
41.943865
 20
-8.444833
 10
41.827865
 20
-8.449281
 10
41.715979
 20
-8.453167
 10
41.604823
 20
-8.45676
 10
41.490313
 20
-8.460469
 10
41.36825
 20
-8.464625
 10
41.234437
 20
-8.469625
 10
41.084667
 20
-8.475823
 10
40.91475
 20
-8.483594
 10
40.590125
 20
-8.499844
  0
LINE
  5
34D
330
44A
100
AcDbEntity
  8
2-36G
  6
Continuous
 62
     7
370
    13
100
AcDbLine
 10
41.442948
 20
-8.499844
 30
0.0
 11
44.247583
 21
-8.499844
 31
0.0
  0
LINE
  5
34E
330
44A
100
AcDbEntity
  8
2-36G
  6
Continuous
 62
     7
370
    13
100
AcDbLine
 10
44.530437
 20
-8.37475
 30
0.0
 11
45.93299
 21
-8.37475
 31
0.0
  0
LINE
  5
34F
330
44A
100
AcDbEntity
  8
2-36G
  6
Continuous
 62
     7
370
    13
100
AcDbLine
 10
43.509229
 20
-8.407427
 30
0.0
 11
44.247583
 21
-8.407427
 31
0.0
  0
LINE
  5
350
330
44A
100
AcDbEntity
  8
2-36G
  6
Continuous
 62
     7
370
    13
100
AcDbLine
 10
40.345104
 20
-8.535354
 30
0.0
 11
42.110917
 21
-8.535354
 31
0.0
  0
LINE
  5
351
330
44A
100
AcDbEntity
  8
2-36G
  6
Continuous
 62
     7
370
    13
100
AcDbLine
 10
40.345104
 20
-8.499844
 30
0.0
 11
40.590125
 21
-8.499844
 31
0.0
  0
LINE
  5
352
330
44A
100
AcDbEntity
  8
2-36G
  6
Continuous
 62
     7
370
    13
100
AcDbLine
 10
40.345104
 20
-8.407427
 30
0.0
 11
40.653771
 21
-8.407427
 31
0.0
  0
LINE
  5
353
330
44A
100
AcDbEntity
  8
2-36G
  6
Continuous
 62
     7
370
    13
100
AcDbLine
 10
40.345104
 20
-8.37475
 30
0.0
 11
40.714344
 21
-8.37475
 31
0.0
  0
LINE
  5
354
330
44A
100
AcDbEntity
  8
2-36G
  6
Continuous
 62
     7
370
    13
100
AcDbLine
 10
40.345104
 20
-9.783188
 30
0.0
 11
43.998198
 21
-9.783188
 31
0.0
  0
LINE
  5
355
330
44A
100
AcDbEntity
  8
2-36G
  6
Continuous
 62
     7
370
    13
100
AcDbLine
 10
40.345104
 20
-9.815865
 30
0.0
 11
45.93299
 21
-9.815865
 31
0.0
  0
LINE
  5
356
330
44A
100
AcDbEntity
  8
2-36G
  6
Continuous
 62
     7
370
    13
100
AcDbLine
 10
40.345104
 20
-9.908281
 30
0.0
 11
45.93299
 21
-9.908281
 31
0.0
  0
LINE
  5
357
330
44A
100
AcDbEntity
  8
2-36G
  6
Continuous
 62
     7
370
    13
100
AcDbLine
 10
40.345104
 20
-9.943792
 30
0.0
 11
45.93299
 21
-9.943792
 31
0.0
  0
LINE
  5
358
330
44A
100
AcDbEntity
  8
2-36G
  6
Continuous
 62
     7
370
    13
100
AcDbLine
 10
45.93299
 20
-8.109865
 30
0.0
 11
45.93299
 21
-8.266615
 31
0.0
  0
LINE
  5
359
330
44A
100
AcDbEntity
  8
2-36G
  6
Continuous
 62
     7
370
    13
100
AcDbLine
 10
40.345104
 20
-8.37475
 30
0.0
 11
40.345104
 21
-8.535354
 31
0.0
  0
LINE
  5
35A
330
44A
100
AcDbEntity
  8
2-36G
  6
Continuous
 62
     7
370
    13
100
AcDbLine
 10
45.764385
 20
-4.691771
 30
0.0
 11
46.20525
 21
-4.691771
 31
0.0
  0
LINE
  5
35B
330
44A
100
AcDbEntity
  8
2-36G
  6
Continuous
 62
     7
370
    13
100
AcDbLine
 10
45.764385
 20
-4.63574
 30
0.0
 11
46.20525
 21
-4.63574
 31
0.0
  0
LWPOLYLINE
  5
35C
330
44A
100
AcDbEntity
  8
2-36G
  6
Continuous
 62
     7
370
     0
100
AcDbPolyline
 90
        7
 70
   128
 43
0.0
 10
45.637115
 20
-4.63574
 10
45.645719
 20
-4.633021
 10
45.66825
 20
-4.625896
 10
45.692115
 20
-4.618354
 10
45.71751
 20
-4.610292
 10
45.744667
 20
-4.601656
 10
45.752219
 20
-4.59925
  0
LWPOLYLINE
  5
35D
330
44A
100
AcDbEntity
  8
2-36G
  6
Continuous
 62
     7
370
     0
100
AcDbPolyline
 90
        9
 70
   128
 43
0.0
 10
45.789125
 20
-4.5875
 10
45.805312
 20
-4.582333
 10
45.840469
 20
-4.571104
 10
45.880698
 20
-4.55824
 10
45.927448
 20
-4.54325
 10
45.982167
 20
-4.525677
 10
46.046292
 20
-4.505052
 10
46.121281
 20
-4.480917
 10
46.208562
 20
-4.452781
  0
LWPOLYLINE
  5
35E
330
44A
100
AcDbEntity
  8
2-36G
  6
Continuous
 62
     7
370
     0
100
AcDbPolyline
 90
        9
 70
   128
 43
0.0
 10
45.771635
 20
-4.534271
 10
45.788312
 20
-4.528948
 10
45.823427
 20
-4.517729
 10
45.863635
 20
-4.504865
 10
45.910354
 20
-4.489896
 10
45.965052
 20
-4.472323
 10
46.029156
 20
-4.451719
 10
46.104115
 20
-4.427583
 10
46.191375
 20
-4.399458
  0
LWPOLYLINE
  5
35F
330
44A
100
AcDbEntity
  8
2-36G
  6
Continuous
 62
     7
370
     0
100
AcDbPolyline
 90
       29
 70
   128
 43
0.0
 10
45.264167
 20
-4.691771
 10
45.264396
 20
-4.691698
 10
45.277604
 20
-4.687792
 10
45.291042
 20
-4.683792
 10
45.304708
 20
-4.679708
 10
45.318646
 20
-4.675531
 10
45.332854
 20
-4.67126
 10
45.347333
 20
-4.666896
 10
45.362115
 20
-4.662406
 10
45.377198
 20
-4.657823
 10
45.392604
 20
-4.653125
 10
45.408344
 20
-4.648312
 10
45.424437
 20
-4.643365
 10
45.440885
 20
-4.638312
 10
45.457708
 20
-4.633115
 10
45.474906
 20
-4.627792
 10
45.49251
 20
-4.622323
 10
45.510531
 20
-4.616719
 10
45.528958
 20
-4.610969
 10
45.547844
 20
-4.605073
 10
45.567167
 20
-4.59901
 10
45.58699
 20
-4.592792
 10
45.60749
 20
-4.586333
 10
45.628885
 20
-4.579583
 10
45.651385
 20
-4.572479
 10
45.675219
 20
-4.564927
 10
45.700583
 20
-4.556875
 10
45.727719
 20
-4.54825
 10
45.735229
 20
-4.545865
  0
LINE
  5
360
330
44A
100
AcDbEntity
  8
2-36G
  6
Continuous
 62
     7
370
    13
100
AcDbLine
 10
45.789135
 20
-4.5875
 30
0.0
 11
45.771635
 21
-4.534271
 31
0.0
  0
LINE
  5
361
330
44A
100
AcDbEntity
  8
2-36G
  6
Continuous
 62
     7
370
    13
100
AcDbLine
 10
45.764385
 20
-4.691771
 30
0.0
 11
45.764385
 21
-4.63574
 31
0.0
  0
LINE
  5
362
330
44A
100
AcDbEntity
  8
2-36G
  6
Continuous
 62
     7
370
    13
100
AcDbLine
 10
45.752219
 20
-4.59925
 30
0.0
 11
45.735229
 21
-4.545865
 31
0.0
  0
LINE
  5
363
330
44A
100
AcDbEntity
  8
2-36G
  6
Continuous
 62
     7
370
    13
100
AcDbLine
 10
45.725646
 20
-4.691771
 30
0.0
 11
45.725646
 21
-4.63574
 31
0.0
  0
LINE
  5
364
330
44A
100
AcDbEntity
  8
2-36G
  6
Continuous
 62
     7
370
    13
100
AcDbLine
 10
44.776927
 20
-5.333229
 30
0.0
 11
44.806719
 21
-5.285823
 31
0.0
  0
LINE
  5
365
330
44A
100
AcDbEntity
  8
2-36G
  6
Continuous
 62
     7
370
    13
100
AcDbLine
 10
44.873812
 20
-5.330437
 30
0.0
 11
44.806719
 21
-5.285823
 31
0.0
  0
LINE
  5
366
330
44A
100
AcDbEntity
  8
2-36G
  6
Continuous
 62
     7
370
    13
100
AcDbLine
 10
44.861604
 20
-5.386427
 30
0.0
 11
44.776927
 21
-5.333229
 31
0.0
  0
LINE
  5
367
330
44A
100
AcDbEntity
  8
2-36G
  6
Continuous
 62
     7
370
    13
100
AcDbLine
 10
44.861604
 20
-5.386427
 30
0.0
 11
45.661542
 21
-5.386323
 31
0.0
  0
LINE
  5
368
330
44A
100
AcDbEntity
  8
2-36G
  6
Continuous
 62
     7
370
    13
100
AcDbLine
 10
44.873812
 20
-5.330437
 30
0.0
 11
45.64876
 21
-5.330448
 31
0.0
  0
LINE
  5
369
330
44A
100
AcDbEntity
  8
2-36G
  6
Continuous
 62
     7
370
    13
100
AcDbLine
 10
45.661542
 20
-5.386323
 30
0.0
 11
45.745677
 21
-5.332281
 31
0.0
  0
LINE
  5
36A
330
44A
100
AcDbEntity
  8
2-36G
  6
Continuous
 62
     7
370
    13
100
AcDbLine
 10
45.745677
 20
-5.332281
 30
0.0
 11
45.715406
 21
-5.285167
 31
0.0
  0
LINE
  5
36B
330
44A
100
AcDbEntity
  8
2-36G
  6
Continuous
 62
     7
370
    13
100
AcDbLine
 10
45.64876
 20
-5.330448
 30
0.0
 11
45.715406
 21
-5.285167
 31
0.0
  0
CIRCLE
  5
36C
330
44A
100
AcDbEntity
  8
2-36G
  6
Continuous
 62
     7
370
    13
100
AcDbCircle
 10
40.907994
 20
-3.931846
 30
0.0
 40
0.0158557835145692
  0
CIRCLE
  5
36D
330
44A
100
AcDbEntity
  8
2-36G
  6
Continuous
 62
     7
370
    13
100
AcDbCircle
 10
40.986034
 20
-3.931846
 30
0.0
 40
0.0158557835145692
  0
CIRCLE
  5
36E
330
44A
100
AcDbEntity
  8
2-36G
  6
Continuous
 62
     7
370
    13
100
AcDbCircle
 10
40.907994
 20
-4.037768
 30
0.0
 40
0.0158557835145692
  0
CIRCLE
  5
36F
330
44A
100
AcDbEntity
  8
2-36G
  6
Continuous
 62
     7
370
    13
100
AcDbCircle
 10
40.986034
 20
-4.037768
 30
0.0
 40
0.0158557835145692
  0
CIRCLE
  5
370
330
44A
100
AcDbEntity
  8
2-36G
  6
Continuous
 62
     7
370
    13
100
AcDbCircle
 10
41.345578
 20
-4.037768
 30
0.0
 40
0.0158557835145692
  0
CIRCLE
  5
371
330
44A
100
AcDbEntity
  8
2-36G
  6
Continuous
 62
     7
370
    13
100
AcDbCircle
 10
41.234092
 20
-4.037768
 30
0.0
 40
0.0158557835145692
  0
LINE
  5
372
330
44A
100
AcDbEntity
  8
2-36G
  6
Continuous
 62
     7
370
    13
100
AcDbLine
 10
41.01626
 20
-4.145469
 30
0.0
 11
41.072906
 21
-4.145469
 31
0.0
  0
LINE
  5
373
330
44A
100
AcDbEntity
  8
2-36G
  6
Continuous
 62
     7
370
    13
100
AcDbLine
 10
41.072906
 20
-4.066083
 30
0.0
 11
41.072906
 21
-4.145469
 31
0.0
  0
LINE
  5
374
330
44A
100
AcDbEntity
  8
2-36G
  6
Continuous
 62
     7
370
    13
100
AcDbLine
 10
41.044562
 20
-4.031937
 30
0.0
 11
41.072906
 21
-4.066083
 31
0.0
  0
LINE
  5
375
330
44A
100
AcDbEntity
  8
2-36G
  6
Continuous
 62
     7
370
    13
100
AcDbLine
 10
41.017167
 20
-4.068875
 30
0.0
 11
41.044562
 21
-4.031937
 31
0.0
  0
LINE
  5
376
330
44A
100
AcDbEntity
  8
2-36G
  6
Continuous
 62
     7
370
    13
100
AcDbLine
 10
40.874177
 20
-4.068875
 30
0.0
 11
41.017167
 21
-4.068875
 31
0.0
  0
LINE
  5
377
330
44A
100
AcDbEntity
  8
2-36G
  6
Continuous
 62
     7
370
    13
100
AcDbLine
 10
40.874177
 20
-3.894771
 30
0.0
 11
40.874177
 21
-4.068875
 31
0.0
  0
LINE
  5
378
330
44A
100
AcDbEntity
  8
2-36G
  6
Continuous
 62
     7
370
    13
100
AcDbLine
 10
41.018156
 20
-3.894771
 30
0.0
 11
40.874177
 21
-3.894771
 31
0.0
  0
LINE
  5
379
330
44A
100
AcDbEntity
  8
2-36G
  6
Continuous
 62
     7
370
    13
100
AcDbLine
 10
41.018156
 20
-3.960156
 30
0.0
 11
41.018156
 21
-3.894771
 31
0.0
  0
LINE
  5
37A
330
44A
100
AcDbEntity
  8
2-36G
  6
Continuous
 62
     7
370
    13
100
AcDbLine
 10
41.087104
 20
-3.923323
 30
0.0
 11
41.018156
 21
-3.960156
 31
0.0
  0
LINE
  5
37B
330
44A
100
AcDbEntity
  8
2-36G
  6
Continuous
 62
     7
370
    13
100
AcDbLine
 10
41.381729
 20
-3.923323
 30
0.0
 11
41.087104
 21
-3.923323
 31
0.0
  0
LINE
  5
37C
330
44A
100
AcDbEntity
  8
2-36G
  6
Continuous
 62
     7
370
    13
100
AcDbLine
 10
41.381729
 20
-4.06776
 30
0.0
 11
41.381729
 21
-3.860021
 31
0.0
  0
LINE
  5
37D
330
44A
100
AcDbEntity
  8
2-36G
  6
Continuous
 62
     7
370
    13
100
AcDbLine
 10
41.205094
 20
-4.06776
 30
0.0
 11
41.381729
 21
-4.06776
 31
0.0
  0
LINE
  5
37E
330
44A
100
AcDbEntity
  8
2-36G
  6
Continuous
 62
     7
370
    13
100
AcDbLine
 10
41.205094
 20
-4.02201
 30
0.0
 11
41.205094
 21
-4.06776
 31
0.0
  0
LINE
  5
37F
330
44A
100
AcDbEntity
  8
2-36G
  6
Continuous
 62
     7
370
    13
100
AcDbLine
 10
41.118875
 20
-4.065042
 30
0.0
 11
41.205094
 21
-4.02201
 31
0.0
  0
LINE
  5
380
330
44A
100
AcDbEntity
  8
2-36G
  6
Continuous
 62
     7
370
    13
100
AcDbLine
 10
41.090156
 20
-4.197312
 30
0.0
 11
41.090156
 21
-4.63574
 31
0.0
  0
LINE
  5
381
330
44A
100
AcDbEntity
  8
2-36G
  6
Continuous
 62
     7
370
    13
100
AcDbLine
 10
41.044979
 20
-4.197312
 30
0.0
 11
41.044979
 21
-4.63574
 31
0.0
  0
LINE
  5
382
330
44A
100
AcDbEntity
  8
2-36G
  6
Continuous
 62
     7
370
    13
100
AcDbLine
 10
41.01626
 20
-4.145469
 30
0.0
 11
41.01626
 21
-4.197312
 31
0.0
  0
LINE
  5
383
330
44A
100
AcDbEntity
  8
2-36G
  6
Continuous
 62
     7
370
    13
100
AcDbLine
 10
41.01626
 20
-4.197312
 30
0.0
 11
41.044979
 21
-4.197312
 31
0.0
  0
LINE
  5
384
330
44A
100
AcDbEntity
  8
2-36G
  6
Continuous
 62
     7
370
    13
100
AcDbLine
 10
41.118875
 20
-4.197312
 30
0.0
 11
41.090156
 21
-4.197312
 31
0.0
  0
LINE
  5
385
330
44A
100
AcDbEntity
  8
2-36G
  6
Continuous
 62
     7
370
    13
100
AcDbLine
 10
41.118875
 20
-4.065042
 30
0.0
 11
41.118875
 21
-4.197312
 31
0.0
  0
ARC
  5
386
330
44A
100
AcDbEntity
  8
2-36G
  6
Continuous
 62
     7
370
    13
100
AcDbCircle
 10
41.067568
 20
-5.561764
 30
0.0
 40
0.0225867152647215
100
AcDbArc
 50
180.0
 51
0.0
  0
LINE
  5
387
330
44A
100
AcDbEntity
  8
2-36G
  6
Continuous
 62
     7
370
    13
100
AcDbLine
 10
41.044979
 20
-5.469281
 30
0.0
 11
41.044979
 21
-5.56176
 31
0.0
  0
LINE
  5
388
330
44A
100
AcDbEntity
  8
2-36G
  6
Continuous
 62
     7
370
    13
100
AcDbLine
 10
41.090156
 20
-5.469281
 30
0.0
 11
41.090156
 21
-5.56176
 31
0.0
  0
LINE
  5
389
330
44A
100
AcDbEntity
  8
2-36G
  6
Continuous
 62
     7
370
    13
100
AcDbLine
 10
41.044979
 20
-5.326792
 30
0.0
 11
41.044979
 21
-5.41325
 31
0.0
  0
LINE
  5
38A
330
44A
100
AcDbEntity
  8
2-36G
  6
Continuous
 62
     7
370
    13
100
AcDbLine
 10
41.090156
 20
-5.330833
 30
0.0
 11
41.090156
 21
-5.41325
 31
0.0
  0
LINE
  5
38B
330
44A
100
AcDbEntity
  8
2-36G
  6
Continuous
 62
     7
370
    13
100
AcDbLine
 10
41.118875
 20
-4.691771
 30
0.0
 11
41.118875
 21
-4.743604
 31
0.0
  0
LINE
  5
38C
330
44A
100
AcDbEntity
  8
2-36G
  6
Continuous
 62
     7
370
    13
100
AcDbLine
 10
41.118875
 20
-4.743604
 30
0.0
 11
41.090156
 21
-4.743604
 31
0.0
  0
LINE
  5
38D
330
44A
100
AcDbEntity
  8
2-36G
  6
Continuous
 62
     7
370
    13
100
AcDbLine
 10
41.090156
 20
-4.743604
 30
0.0
 11
41.090156
 21
-5.247198
 31
0.0
  0
LINE
  5
38E
330
44A
100
AcDbEntity
  8
2-36G
  6
Continuous
 62
     7
370
    13
100
AcDbLine
 10
41.123979
 20
-5.299031
 30
0.0
 11
41.123979
 21
-5.247198
 31
0.0
  0
LINE
  5
38F
330
44A
100
AcDbEntity
  8
2-36G
  6
Continuous
 62
     7
370
    13
100
AcDbLine
 10
41.123979
 20
-5.247198
 30
0.0
 11
41.090156
 21
-5.247198
 31
0.0
  0
LINE
  5
390
330
44A
100
AcDbEntity
  8
2-36G
  6
Continuous
 62
     7
370
    13
100
AcDbLine
 10
41.011167
 20
-5.247198
 30
0.0
 11
41.044979
 21
-5.247198
 31
0.0
  0
LINE
  5
391
330
44A
100
AcDbEntity
  8
2-36G
  6
Continuous
 62
     7
370
    13
100
AcDbLine
 10
41.011167
 20
-5.299031
 30
0.0
 11
41.011167
 21
-5.247198
 31
0.0
  0
LINE
  5
392
330
44A
100
AcDbEntity
  8
2-36G
  6
Continuous
 62
     7
370
    13
100
AcDbLine
 10
41.044979
 20
-4.743604
 30
0.0
 11
41.044979
 21
-5.247198
 31
0.0
  0
LINE
  5
393
330
44A
100
AcDbEntity
  8
2-36G
  6
Continuous
 62
     7
370
    13
100
AcDbLine
 10
41.01626
 20
-4.691771
 30
0.0
 11
41.01626
 21
-4.743604
 31
0.0
  0
LINE
  5
394
330
44A
100
AcDbEntity
  8
2-36G
  6
Continuous
 62
     7
370
    13
100
AcDbLine
 10
41.01626
 20
-4.743604
 30
0.0
 11
41.044979
 21
-4.743604
 31
0.0
  0
LINE
  5
395
330
44A
100
AcDbEntity
  8
2-36G
  6
Continuous
 62
     7
370
    13
100
AcDbLine
 10
41.336479
 20
-4.743604
 30
0.0
 11
41.365198
 21
-4.743604
 31
0.0
  0
LINE
  5
396
330
44A
100
AcDbEntity
  8
2-36G
  6
Continuous
 62
     7
370
    13
100
AcDbLine
 10
41.336479
 20
-4.691771
 30
0.0
 11
41.336479
 21
-4.743604
 31
0.0
  0
LINE
  5
397
330
44A
100
AcDbEntity
  8
2-36G
  6
Continuous
 62
     7
370
    13
100
AcDbLine
 10
41.365198
 20
-4.743604
 30
0.0
 11
41.365198
 21
-5.247198
 31
0.0
  0
LINE
  5
398
330
44A
100
AcDbEntity
  8
2-36G
  6
Continuous
 62
     7
370
    13
100
AcDbLine
 10
41.331375
 20
-5.299031
 30
0.0
 11
41.331375
 21
-5.247198
 31
0.0
  0
LINE
  5
399
330
44A
100
AcDbEntity
  8
2-36G
  6
Continuous
 62
     7
370
    13
100
AcDbLine
 10
41.331375
 20
-5.247198
 30
0.0
 11
41.365198
 21
-5.247198
 31
0.0
  0
LINE
  5
39A
330
44A
100
AcDbEntity
  8
2-36G
  6
Continuous
 62
     7
370
    13
100
AcDbLine
 10
41.444187
 20
-5.247198
 30
0.0
 11
41.410375
 21
-5.247198
 31
0.0
  0
LINE
  5
39B
330
44A
100
AcDbEntity
  8
2-36G
  6
Continuous
 62
     7
370
    13
100
AcDbLine
 10
41.444187
 20
-5.299031
 30
0.0
 11
41.444187
 21
-5.247198
 31
0.0
  0
LINE
  5
39C
330
44A
100
AcDbEntity
  8
2-36G
  6
Continuous
 62
     7
370
    13
100
AcDbLine
 10
41.410375
 20
-4.743604
 30
0.0
 11
41.410375
 21
-5.247198
 31
0.0
  0
LINE
  5
39D
330
44A
100
AcDbEntity
  8
2-36G
  6
Continuous
 62
     7
370
    13
100
AcDbLine
 10
41.439094
 20
-4.743604
 30
0.0
 11
41.410375
 21
-4.743604
 31
0.0
  0
LINE
  5
39E
330
44A
100
AcDbEntity
  8
2-36G
  6
Continuous
 62
     7
370
    13
100
AcDbLine
 10
41.439094
 20
-4.691771
 30
0.0
 11
41.439094
 21
-4.743604
 31
0.0
  0
LINE
  5
39F
330
44A
100
AcDbEntity
  8
2-36G
  6
Continuous
 62
     7
370
    13
100
AcDbLine
 10
42.165417
 20
-4.677781
 30
0.0
 11
42.165417
 21
-4.653125
 31
0.0
  0
LINE
  5
3A0
330
44A
100
AcDbEntity
  8
2-36G
  6
Continuous
 62
     7
370
    13
100
AcDbLine
 10
42.202417
 20
-4.677781
 30
0.0
 11
42.165417
 21
-4.677781
 31
0.0
  0
LINE
  5
3A1
330
44A
100
AcDbEntity
  8
2-36G
  6
Continuous
 62
     7
370
    13
100
AcDbLine
 10
42.202417
 20
-4.653125
 30
0.0
 11
42.202417
 21
-4.677781
 31
0.0
  0
LINE
  5
3A2
330
44A
100
AcDbEntity
  8
2-36G
  6
Continuous
 62
     7
370
    13
100
AcDbLine
 10
42.165417
 20
-4.653125
 30
0.0
 11
42.202417
 21
-4.653125
 31
0.0
  0
LWPOLYLINE
  5
3A3
330
44A
100
AcDbEntity
  8
2-36G
  6
Continuous
 62
     7
370
     0
100
AcDbPolyline
 90
       11
 70
   128
 43
0.0
 10
42.581385
 20
-4.584854
 10
42.552448
 20
-4.589167
 10
42.457917
 20
-4.602354
 10
42.357885
 20
-4.615302
 10
42.247885
 20
-4.627948
 10
42.122875
 20
-4.640208
 10
41.977802
 20
-4.651948
 10
41.807615
 20
-4.663083
 10
41.607281
 20
-4.6735
 10
41.37174
 20
-4.683094
 10
41.095958
 20
-4.69175
  0
LWPOLYLINE
  5
3A4
330
44A
100
AcDbEntity
  8
2-36G
  6
Continuous
 62
     7
370
     0
100
AcDbPolyline
 90
       24
 70
   128
 43
0.0
 10
46.250625
 20
-3.658396
 10
45.99324
 20
-3.73924
 10
45.739229
 20
-3.817406
 10
45.490146
 20
-3.892479
 10
45.247563
 20
-3.964052
 10
45.013042
 20
-4.031698
 10
44.788156
 20
-4.095021
 10
44.574458
 20
-4.153604
 10
44.373521
 20
-4.207021
 10
44.1865
 20
-4.255031
 10
44.012948
 20
-4.297927
 10
43.85201
 20
-4.336198
 10
43.702813
 20
-4.370292
 10
43.56451
 20
-4.400698
 10
43.43625
 20
-4.427865
 10
43.317167
 20
-4.452271
 10
43.206385
 20
-4.474385
 10
43.102969
 20
-4.494625
 10
43.005458
 20
-4.51324
 10
42.912312
 20
-4.530437
 10
42.821979
 20
-4.546427
 10
42.732937
 20
-4.561406
 10
42.643604
 20
-4.575583
 10
42.638062
 20
-4.576406
  0
LWPOLYLINE
  5
3A5
330
44A
100
AcDbEntity
  8
2-36G
  6
Continuous
 62
     7
370
     0
100
AcDbPolyline
 90
       11
 70
   128
 43
0.0
 10
42.573125
 20
-4.529448
 10
42.544594
 20
-4.533698
 10
42.450604
 20
-4.546823
 10
42.351156
 20
-4.559698
 10
42.241802
 20
-4.572271
 10
42.117469
 20
-4.584458
 10
41.973125
 20
-4.596125
 10
41.803698
 20
-4.607198
 10
41.604135
 20
-4.617563
 10
41.369396
 20
-4.627115
 10
41.094417
 20
-4.63574
  0
LWPOLYLINE
  5
3A6
330
44A
100
AcDbEntity
  8
2-36G
  6
Continuous
 62
     7
370
     0
100
AcDbPolyline
 90
       24
 70
   128
 43
0.0
 10
46.233677
 20
-3.60499
 10
45.976573
 20
-3.68575
 10
45.722896
 20
-3.763812
 10
45.474198
 20
-3.838781
 10
45.232021
 20
-3.910229
 10
44.997948
 20
-3.97775
 10
44.77351
 20
-4.040948
 10
44.560271
 20
-4.099406
 10
44.359781
 20
-4.152719
 10
44.173187
 20
-4.200604
 10
44.000052
 20
-4.243406
 10
43.83951
 20
-4.281583
 10
43.690698
 20
-4.315594
 10
43.552771
 20
-4.345917
 10
43.424865
 20
-4.37301
 10
43.306135
 20
-4.397344
 10
43.195719
 20
-4.419385
 10
43.092646
 20
-4.439563
 10
42.9955
 20
-4.458115
 10
42.902719
 20
-4.47525
 10
42.812781
 20
-4.491167
 10
42.724146
 20
-4.506083
 10
42.63526
 20
-4.520198
 10
42.629281
 20
-4.521083
  0
LINE
  5
3A7
330
44A
100
AcDbEntity
  8
2-36G
  6
Continuous
 62
     7
370
    13
100
AcDbLine
 10
42.629281
 20
-4.521083
 30
0.0
 11
42.638073
 21
-4.576458
 31
0.0
  0
LINE
  5
3A8
330
44A
100
AcDbEntity
  8
2-36G
  6
Continuous
 62
     7
370
    13
100
AcDbLine
 10
42.573125
 20
-4.529448
 30
0.0
 11
42.581385
 21
-4.584854
 31
0.0
  0
LWPOLYLINE
  5
3A9
330
44A
100
AcDbEntity
  8
2-36G
  6
Continuous
 62
     7
370
     0
100
AcDbPolyline
 90
        2
 70
   128
 43
0.0
 10
45.169365
 20
-4.775792
 10
45.421167
 20
-4.798208
  0
LWPOLYLINE
  5
3AA
330
44A
100
AcDbEntity
  8
2-36G
  6
Continuous
 62
     7
370
     0
100
AcDbPolyline
 90
        2
 70
   128
 43
0.0
 10
45.177573
 20
-4.715198
 10
45.426583
 20
-4.737365
  0
LINE
  5
3AB
330
44A
100
AcDbEntity
  8
2-36G
  6
Continuous
 62
     7
370
    13
100
AcDbLine
 10
45.421167
 20
-4.798208
 30
0.0
 11
45.426583
 21
-4.737365
 31
0.0
  0
LWPOLYLINE
  5
3AC
330
44A
100
AcDbEntity
  8
2-36G
  6
Continuous
 62
     7
370
     0
100
AcDbPolyline
 90
       25
 70
   128
 43
0.0
 10
44.922
 20
-4.787312
 10
44.925781
 20
-4.786302
 10
44.937396
 20
-4.783219
 10
44.948969
 20
-4.780125
 10
44.9605
 20
-4.777031
 10
44.97199
 20
-4.773958
 10
44.983438
 20
-4.770875
 10
44.994833
 20
-4.767792
 10
45.006208
 20
-4.764719
 10
45.017531
 20
-4.761635
 10
45.028833
 20
-4.758563
 10
45.040104
 20
-4.755479
 10
45.051365
 20
-4.752396
 10
45.062615
 20
-4.749302
 10
45.073865
 20
-4.746198
 10
45.085146
 20
-4.743073
 10
45.096448
 20
-4.739927
 10
45.107792
 20
-4.736771
 10
45.119177
 20
-4.733573
 10
45.130635
 20
-4.730344
 10
45.142156
 20
-4.727094
 10
45.153781
 20
-4.723792
 10
45.16549
 20
-4.720458
 10
45.177323
 20
-4.717073
 10
45.182344
 20
-4.715625
  0
LWPOLYLINE
  5
3AD
330
44A
100
AcDbEntity
  8
2-36G
  6
Continuous
 62
     7
370
     0
100
AcDbPolyline
 90
       23
 70
   128
 43
0.0
 10
44.936813
 20
-4.841354
 10
44.940188
 20
-4.840448
 10
44.951844
 20
-4.837344
 10
44.963448
 20
-4.83425
 10
44.975021
 20
-4.831146
 10
44.986542
 20
-4.828062
 10
44.998031
 20
-4.824969
 10
45.009479
 20
-4.821875
 10
45.020885
 20
-4.818792
 10
45.03225
 20
-4.815698
 10
45.043594
 20
-4.812615
 10
45.054906
 20
-4.809521
 10
45.066219
 20
-4.806427
 10
45.07751
 20
-4.803312
 10
45.088823
 20
-4.800198
 10
45.100146
 20
-4.797063
 10
45.1115
 20
-4.793906
 10
45.122896
 20
-4.790719
 10
45.134344
 20
-4.78751
 10
45.145844
 20
-4.784271
 10
45.157427
 20
-4.781
 10
45.169104
 20
-4.777687
 10
45.174219
 20
-4.776229
  0
LINE
  5
3AE
330
44A
100
AcDbEntity
  8
2-36G
  6
Continuous
 62
     7
370
    13
100
AcDbLine
 10
44.898146
 20
-4.851583
 30
0.0
 11
44.883333
 21
-4.797542
 31
0.0
  0
LINE
  5
3AF
330
44A
100
AcDbEntity
  8
2-36G
  6
Continuous
 62
     7
370
    13
100
AcDbLine
 10
44.936813
 20
-4.841354
 30
0.0
 11
44.922
 21
-4.787312
 31
0.0
  0
LINE
  5
3B0
330
44A
100
AcDbEntity
  8
2-36G
  6
Continuous
 62
     7
370
    13
100
AcDbLine
 10
44.905323
 20
-4.153167
 30
0.0
 11
44.85374
 21
-4.215063
 31
0.0
  0
LINE
  5
3B1
330
44A
100
AcDbEntity
  8
2-36G
  6
Continuous
 62
     7
370
    13
100
AcDbLine
 10
44.811667
 20
-4.178125
 30
0.0
 11
44.85374
 21
-4.215063
 31
0.0
  0
LINE
  5
3B2
330
44A
100
AcDbEntity
  8
2-36G
  6
Continuous
 62
     7
370
    13
100
AcDbLine
 10
44.877646
 20
-4.10299
 30
0.0
 11
44.811667
 21
-4.178125
 31
0.0
  0
LINE
  5
3B3
330
44A
100
AcDbEntity
  8
2-36G
  6
Continuous
 62
     7
370
    13
100
AcDbLine
 10
45.649187
 20
-3.935854
 30
0.0
 11
44.905323
 21
-4.153167
 31
0.0
  0
LINE
  5
3B4
330
44A
100
AcDbEntity
  8
2-36G
  6
Continuous
 62
     7
370
    13
100
AcDbLine
 10
45.6455
 20
-3.878667
 30
0.0
 11
44.877646
 21
-4.10299
 31
0.0
  0
LINE
  5
3B5
330
44A
100
AcDbEntity
  8
2-36G
  6
Continuous
 62
     7
370
    13
100
AcDbLine
 10
45.6455
 20
-3.878667
 30
0.0
 11
45.741542
 21
-3.906469
 31
0.0
  0
LINE
  5
3B6
330
44A
100
AcDbEntity
  8
2-36G
  6
Continuous
 62
     7
370
    13
100
AcDbLine
 10
45.649187
 20
-3.935854
 30
0.0
 11
45.725979
 21
-3.96025
 31
0.0
  0
LINE
  5
3B7
330
44A
100
AcDbEntity
  8
2-36G
  6
Continuous
 62
     7
370
    13
100
AcDbLine
 10
45.741542
 20
-3.906469
 30
0.0
 11
45.725979
 21
-3.96025
 31
0.0
  0
LINE
  5
3B8
330
44A
100
AcDbEntity
  8
2-36G
  6
Continuous
 62
     7
370
    13
100
AcDbLine
 10
44.899531
 20
-4.691771
 30
0.0
 11
44.899531
 21
-4.63574
 31
0.0
  0
LINE
  5
3B9
330
44A
100
AcDbEntity
  8
2-36G
  6
Continuous
 62
     7
370
    13
100
AcDbLine
 10
44.899531
 20
-4.691771
 30
0.0
 11
45.148417
 21
-4.691771
 31
0.0
  0
LINE
  5
3BA
330
44A
100
AcDbEntity
  8
2-36G
  6
Continuous
 62
     7
370
    13
100
AcDbLine
 10
44.899531
 20
-4.63574
 30
0.0
 11
45.139812
 21
-4.63574
 31
0.0
  0
LINE
  5
3BB
330
44A
100
AcDbEntity
  8
2-36G
  6
Continuous
 62
     7
370
    13
100
AcDbLine
 10
44.859542
 20
-4.691771
 30
0.0
 11
44.859542
 21
-4.63574
 31
0.0
  0
LWPOLYLINE
  5
3BC
330
44A
100
AcDbEntity
  8
2-36G
  6
Continuous
 62
     7
370
     0
100
AcDbPolyline
 90
        5
 70
   128
 43
0.0
 10
45.139812
 20
-4.63574
 10
45.159823
 20
-4.629375
 10
45.209083
 20
-4.613635
 10
45.24925
 20
-4.600781
 10
45.321188
 20
-4.577719
  0
LINE
  5
3BD
330
44A
100
AcDbEntity
  8
2-36G
  6
Continuous
 62
     7
370
    13
100
AcDbLine
 10
45.321188
 20
-4.577719
 30
0.0
 11
45.371365
 21
-4.514687
 31
0.0
  0
LINE
  5
3BE
330
44A
100
AcDbEntity
  8
2-36G
  6
Continuous
 62
     7
370
    13
100
AcDbLine
 10
45.41426
 20
-4.550677
 30
0.0
 11
45.371365
 21
-4.514687
 31
0.0
  0
LINE
  5
3BF
330
44A
100
AcDbEntity
  8
2-36G
  6
Continuous
 62
     7
370
    13
100
AcDbLine
 10
45.34999
 20
-4.627271
 30
0.0
 11
45.41426
 21
-4.550677
 31
0.0
  0
LWPOLYLINE
  5
3C0
330
44A
100
AcDbEntity
  8
2-36G
  6
Continuous
 62
     7
370
     0
100
AcDbPolyline
 90
        7
 70
   128
 43
0.0
 10
45.148417
 20
-4.691771
 10
45.159521
 20
-4.688229
 10
45.19101
 20
-4.678187
 10
45.226135
 20
-4.666969
 10
45.266333
 20
-4.654115
 10
45.313063
 20
-4.639135
 10
45.34999
 20
-4.627271
  0
LINE
  5
3C1
330
44A
100
AcDbEntity
  8
2-36G
  6
Continuous
 62
     7
370
    13
100
AcDbLine
 10
45.264167
 20
-4.691771
 30
0.0
 11
45.725646
 21
-4.691771
 31
0.0
  0
LINE
  5
3C2
330
44A
100
AcDbEntity
  8
2-36G
  6
Continuous
 62
     7
370
    13
100
AcDbLine
 10
45.637115
 20
-4.63574
 30
0.0
 11
45.725646
 21
-4.63574
 31
0.0
  0
LINE
  5
3C3
330
44A
100
AcDbEntity
  8
2-36G
  6
Continuous
 62
     7
370
    13
100
AcDbLine
 10
42.168427
 20
-4.63574
 30
0.0
 11
44.859542
 21
-4.63574
 31
0.0
  0
POINT
  5
3C4
330
44A
100
AcDbEntity
  8
2-36G
  6
Continuous
 62
     7
370
    13
100
AcDbPoint
 10
40.987042
 20
-5.32426
 30
0.0
  0
LINE
  5
3C5
330
44A
100
AcDbEntity
  8
2-36G
  6
Continuous
 62
     7
370
    13
100
AcDbLine
 10
40.536292
 20
-5.469281
 30
0.0
 11
42.699094
 21
-5.469281
 31
0.0
  0
LINE
  5
3C6
330
44A
100
AcDbEntity
  8
2-36G
  6
Continuous
 62
     7
370
    13
100
AcDbLine
 10
40.536292
 20
-5.41325
 30
0.0
 11
42.699094
 21
-5.41325
 31
0.0
  0
LINE
  5
3C7
330
44A
100
AcDbEntity
  8
2-36G
  6
Continuous
 62
     7
370
    13
100
AcDbLine
 10
40.536292
 20
-4.691771
 30
0.0
 11
44.859542
 21
-4.691771
 31
0.0
  0
LINE
  5
3C8
330
44A
100
AcDbEntity
  8
2-36G
  6
Continuous
 62
     7
370
    13
100
AcDbLine
 10
40.536292
 20
-4.63574
 30
0.0
 11
41.094417
 21
-4.63574
 31
0.0
  0
LINE
  5
3CE
330
44A
100
AcDbEntity
  8
2-36G
  6
Continuous
 62
     7
370
    13
100
AcDbLine
 10
44.594146
 20
-12.345458
 30
0.0
 11
44.594146
 21
-11.84549
 31
0.0
  0
LINE
  5
3CF
330
44A
100
AcDbEntity
  8
2-36G
  6
Continuous
 62
     7
370
    13
100
AcDbLine
 10
45.694073
 20
-12.345458
 30
0.0
 11
45.694073
 21
-11.84549
 31
0.0
  0
LINE
  5
3D0
330
44A
100
AcDbEntity
  8
2-36G
  6
Continuous
 62
     7
370
    13
100
AcDbLine
 10
39.544469
 20
-12.345458
 30
0.0
 11
46.79401
 21
-12.345458
 31
0.0
  0
LINE
  5
3D1
330
44A
100
AcDbEntity
  8
2-36G
  6
Continuous
 62
     7
370
    13
100
AcDbLine
 10
39.544469
 20
-11.84549
 30
0.0
 11
46.79401
 21
-11.84549
 31
0.0
  0
LINE
  5
3D2
330
44A
100
AcDbEntity
  8
2-36G
  6
Continuous
 62
     7
370
    13
100
AcDbLine
 10
39.544469
 20
-12.345458
 30
0.0
 11
39.544469
 21
-3.246031
 31
0.0
  0
LINE
  5
3D3
330
44A
100
AcDbEntity
  8
2-36G
  6
Continuous
 62
     7
370
    13
100
AcDbLine
 10
39.544469
 20
-3.246031
 30
0.0
 11
46.79401
 21
-3.246031
 31
0.0
  0
LINE
  5
3D4
330
44A
100
AcDbEntity
  8
2-36G
  6
Continuous
 62
     7
370
    13
100
AcDbLine
 10
46.79401
 20
-12.345458
 30
0.0
 11
46.79401
 21
-3.246031
 31
0.0
  0
LINE
  5
3D5
330
44A
100
AcDbEntity
  8
2-36G
  6
Continuous
 62
     7
370
    13
100
AcDbLine
 10
41.381729
 20
-3.860021
 30
0.0
 11
41.301146
 21
-3.860021
 31
0.0
  0
LINE
  5
3D6
330
44A
100
AcDbEntity
  8
2-36G
  6
Continuous
 62
     7
370
    13
100
AcDbLine
 10
41.301146
 20
-3.860021
 30
0.0
 11
41.301146
 21
-3.923323
 31
0.0
  0
LINE
  5
3D7
330
44A
100
AcDbEntity
  8
2-36G
  6
Continuous
 62
     7
370
    13
100
AcDbLine
 10
40.960792
 20
-7.968312
 30
0.0
 11
41.048927
 21
-7.968312
 31
0.0
  0
LINE
  5
3D8
330
44A
100
AcDbEntity
  8
2-36G
  6
Continuous
 62
     7
370
    13
100
AcDbLine
 10
41.048927
 20
-7.968312
 30
0.0
 11
41.061667
 21
-7.951604
 31
0.0
  0
LINE
  5
3D9
330
44A
100
AcDbEntity
  8
2-36G
  6
Continuous
 62
     7
370
    13
100
AcDbLine
 10
41.061667
 20
-7.951604
 30
0.0
 11
41.054792
 21
-7.996792
 31
0.0
  0
LINE
  5
3DA
330
44A
100
AcDbEntity
  8
2-36G
  6
Continuous
 62
     7
370
    13
100
AcDbLine
 10
41.054792
 20
-7.996792
 30
0.0
 11
41.085677
 21
-7.937344
 31
0.0
  0
LINE
  5
3DB
330
44A
100
AcDbEntity
  8
2-36G
  6
Continuous
 62
     7
370
    13
100
AcDbLine
 10
41.085677
 20
-7.937344
 30
0.0
 11
41.085615
 21
-7.9825
 31
0.0
  0
LINE
  5
3DC
330
44A
100
AcDbEntity
  8
2-36G
  6
Continuous
 62
     7
370
    13
100
AcDbLine
 10
41.085615
 20
-7.9825
 30
0.0
 11
41.09299
 21
-7.968312
 31
0.0
  0
LINE
  5
3DD
330
44A
100
AcDbEntity
  8
2-36G
  6
Continuous
 62
     7
370
    13
100
AcDbLine
 10
41.09299
 20
-7.968312
 30
0.0
 11
41.200698
 21
-7.968312
 31
0.0
  0
LINE
  5
3DE
330
44A
100
AcDbEntity
  8
2-36G
  6
Continuous
 62
     7
370
    13
100
AcDbLine
 10
45.725979
 20
-9.495917
 30
0.0
 11
45.685073
 21
-9.495917
 31
0.0
  0
LINE
  5
3DF
330
44A
100
AcDbEntity
  8
2-36G
  6
Continuous
 62
     7
370
    13
100
AcDbLine
 10
45.685073
 20
-9.495917
 30
0.0
 11
45.685198
 21
-9.529021
 31
0.0
  0
LINE
  5
3E0
330
44A
100
AcDbEntity
  8
2-36G
  6
Continuous
 62
     7
370
    13
100
AcDbLine
 10
45.725979
 20
-9.526604
 30
0.0
 11
45.725979
 21
-9.495917
 31
0.0
  0
LINE
  5
3E3
330
44A
100
AcDbEntity
  8
2-36G
  6
Continuous
 62
     7
370
    13
100
AcDbLine
 10
42.344948
 20
-5.518
 30
0.0
 11
42.397083
 21
-5.624437
 31
0.0
  0
SOLID
  5
3E4
330
44A
100
AcDbEntity
  8
2-36G
  6
Continuous
 62
     7
370
    13
100
AcDbTrace
 10
-42.352438
 20
-5.514333
 30
0.0
 11
-42.337469
 21
-5.521667
 31
0.0
 12
-42.322958
 22
-5.473094
 32
0.0
 13
-42.322958
 23
-5.473094
 33
0.0
210
0.0
220
0.0
230
-1.0
  0
LINE
  5
3E5
330
44A
100
AcDbEntity
  8
2-36G
  6
Continuous
 62
     7
370
    13
100
AcDbLine
 10
42.397083
 20
-5.624437
 30
0.0
 11
42.447083
 21
-5.624437
 31
0.0
  0
TEXT
  5
64
330
44A
100
AcDbEntity
  8
2-36G
  6
Continuous
 62
     7
370
    13
100
AcDbText
 10
41.1225
 20
-6.065562
 30
0.0
 40
0.062496
  1
POINT OF SWITCH
 41
0.833333
  7
Style-Arial
100
AcDbText
  0
TEXT
  5
67
330
44A
100
AcDbEntity
  8
2-36G
  6
Continuous
 62
     7
370
    13
100
AcDbText
 10
42.976625
 20
-6.19451
 30
0.0
 40
0.062496
  1
LEAD
 41
0.833333
  7
Style-Arial
100
AcDbText
  0
TEXT
  5
6D
330
44A
100
AcDbEntity
  8
2-36G
  6
Continuous
 62
     7
370
    13
100
AcDbText
 10
41.155071
 20
-5.811635
 30
0.0
 40
0.062496
  1
POINT RAIL LENGTH
 41
0.833333
  7
Style-Arial
100
AcDbText
  0
TEXT
  5
72
330
44A
100
AcDbEntity
  8
2-36G
  6
Continuous
 62
     7
370
    13
100
AcDbText
 10
40.075506
 20
-3.994854
 30
0.0
 40
0.062496
  1
SWITCH STAND
 41
0.833333
  7
Style-Arial
100
AcDbText
  0
TEXT
  5
75
330
44A
100
AcDbEntity
  8
2-36G
  6
Continuous
 62
     7
370
    13
100
AcDbText
 10
40.530409
 20
-4.19824
 30
0.0
 40
0.062496
  1
JAM NUT
 41
0.833333
  7
Style-Arial
100
AcDbText
  0
TEXT
  5
78
330
44A
100
AcDbEntity
  8
2-36G
  6
Continuous
 62
     7
370
    13
100
AcDbText
 10
40.186426
 20
-4.401635
 30
0.0
 40
0.062496
  1
CONNECTING ROD
 41
0.833333
  7
Style-Arial
100
AcDbText
  0
TEXT
  5
7B
330
44A
100
AcDbEntity
  8
2-36G
  6
Continuous
 62
     7
370
    13
100
AcDbText
 10
40.080833
 20
-5.181073
 30
0.0
 40
0.062496
  1
GAUGE
 50
90.0
 41
0.833333
  7
Style-Arial
100
AcDbText
  0
TEXT
  5
81
330
44A
100
AcDbEntity
  8
2-36G
  6
Continuous
 62
     7
370
    13
100
AcDbText
 10
40.494197
 20
-5.067229
 30
0.0
 40
0.062496
  1
ROD
 41
0.833333
  7
Style-Arial
100
AcDbText
  0
TEXT
  5
82
330
44A
100
AcDbEntity
  8
2-36G
  6
Continuous
 62
     7
370
    13
100
AcDbText
 10
40.335589
 20
-4.966042
 30
0.0
 40
0.062496
  1
NO. 1 SWITCH
 41
0.833333
  7
Style-Arial
100
AcDbText
  0
TEXT
  5
85
330
44A
100
AcDbEntity
  8
2-36G
  6
Continuous
 62
     7
370
    13
100
AcDbText
 10
41.662594
 20
-4.963062
 30
0.0
 40
0.062496
  1
NO. 2 SWITCH ROD
 41
0.833333
  7
Style-Arial
100
AcDbText
  0
TEXT
  5
88
330
44A
100
AcDbEntity
  8
2-36G
  6
Continuous
 62
     7
370
    13
100
AcDbText
 10
42.3285
 20
-5.157635
 30
0.0
 40
0.062496
  1
HEEL OF SWITCH
 41
0.833333
  7
Style-Arial
100
AcDbText
  0
TEXT
  5
9F
330
44A
100
AcDbEntity
  8
2-36G
  6
Continuous
 62
     7
370
    13
100
AcDbText
 10
42.714432
 20
-4.248875
 30
0.0
 40
0.062496
  1
STAIGHT CLOSURE RAIL
 41
0.833333
  7
Style-Arial
100
AcDbText
  0
TEXT
  5
A3
330
44A
100
AcDbEntity
  8
2-36G
  6
Continuous
 62
     7
370
    13
100
AcDbText
 10
44.793823
 20
-5.003177
 30
0.0
 40
0.062496
  1
FROG
 41
0.833333
  7
Style-Arial
100
AcDbText
  0
TEXT
  5
A7
330
44A
100
AcDbEntity
  8
2-36G
  6
Continuous
 62
     7
370
    13
100
AcDbText
 10
45.619075
 20
-5.21801
 30
0.0
 40
0.062496
  1
GUARD RAIL
 41
0.833333
  7
Style-Arial
100
AcDbText
  0
TEXT
  5
AB
330
44A
100
AcDbEntity
  8
2-36G
  6
Continuous
 62
     7
370
    13
100
AcDbText
 10
43.522034
 20
-4.846521
 30
0.0
 40
0.062496
  1
CURVED STOCK RAIL
 41
0.833333
  7
Style-Arial
100
AcDbText
  0
TEXT
  5
AF
330
44A
100
AcDbEntity
  8
2-36G
  6
Continuous
 62
     7
370
    13
100
AcDbText
 10
45.403469
 20
-4.94499
 30
0.0
 40
0.062496
  1
POINT OF FROG
 41
0.833333
  7
Style-Arial
100
AcDbText
  0
TEXT
  5
B3
330
44A
100
AcDbEntity
  8
2-36G
  6
Continuous
 62
     7
370
    13
100
AcDbText
 10
45.306177
 20
-4.347594
 30
0.0
 40
0.062496
  1
HEEL
 50
18.0
 41
0.833333
  7
Style-Arial
100
AcDbText
  0
TEXT
  5
B7
330
44A
100
AcDbEntity
  8
2-36G
  6
Continuous
 62
     7
370
    13
100
AcDbText
 10
44.926667
 20
-4.47874
 30
0.0
 40
0.062496
  1
TOE
 50
18.0
 41
0.833333
  7
Style-Arial
100
AcDbText
  0
TEXT
  5
BC
330
44A
100
AcDbEntity
  8
2-36G
  6
Continuous
 62
     7
370
    13
100
AcDbText
 10
44.920695
 20
-4.341938
 30
0.0
 40
0.062496
  1
FROG LENGTH
 50
18.20255
 41
0.833333
  7
Style-Arial
100
AcDbText
  0
TEXT
  5
C2
330
44A
100
AcDbEntity
  8
2-36G
  6
Continuous
 62
     7
370
    13
100
AcDbText
 10
45.953948
 20
-3.861833
 30
0.0
 40
0.062496
  1
FLANGEWAY
 41
0.833333
  7
Style-Arial
100
AcDbText
  0
TEXT
  5
C5
330
44A
100
AcDbEntity
  8
2-36G
  6
Continuous
 62
     7
370
    13
100
AcDbText
 10
44.118755
 20
-3.991635
 30
0.0
 40
0.062496
  1
GUARD RAIL
 41
0.833333
  7
Style-Arial
100
AcDbText
  0
TEXT
  5
CD
330
44A
100
AcDbEntity
  8
2-36G
  6
Continuous
 62
     7
370
    13
100
AcDbText
 10
41.014635
 20
-7.806365
 30
0.0
 40
0.062496
  1
POINT OF SWITCH
 41
0.833333
  7
Style-Arial
100
AcDbText
  0
TEXT
  5
D0
330
44A
100
AcDbEntity
  8
2-36G
  6
Continuous
 62
     7
370
    13
100
AcDbText
 10
42.152678
 20
-7.585729
 30
0.0
 40
0.062496
  1
POINT RAIL LENGTH
 41
0.833333
  7
Style-Arial
100
AcDbText
  0
TEXT
  5
D6
330
44A
100
AcDbEntity
  8
2-36G
  6
Continuous
 62
     7
370
    13
100
AcDbText
 10
41.453281
 20
-8.046573
 30
0.0
 40
0.062496
  1
CONNECTING ROD
 41
0.833333
  7
Style-Arial
100
AcDbText
  0
TEXT
  5
DE
330
44A
100
AcDbEntity
  8
2-36G
  6
Continuous
 62
     7
370
    13
100
AcDbText
 10
44.903865
 20
-7.88374
 30
0.0
 40
0.062496
  1
CURVED STOCK RAL
 41
0.833333
  7
Style-Arial
100
AcDbText
  0
TEXT
  5
E2
330
44A
100
AcDbEntity
  8
2-36G
  6
Continuous
 62
     7
370
    13
100
AcDbText
 10
44.959791
 20
-8.842615
 30
0.0
 40
0.062496
  1
STAIGHT CLOSURE RAIL
 41
0.833333
  7
Style-Arial
100
AcDbText
  0
TEXT
  5
E6
330
44A
100
AcDbEntity
  8
2-36G
  6
Continuous
 62
     7
370
    13
100
AcDbText
 10
42.452696
 20
-9.054365
 30
0.0
 40
0.062496
  1
NO. 2 SWITCH ROD
 41
0.833333
  7
Style-Arial
100
AcDbText
  0
TEXT
  5
E9
330
44A
100
AcDbEntity
  8
2-36G
  6
Continuous
 62
     7
370
    13
100
AcDbText
 10
42.350538
 20
-8.835062
 30
0.0
 40
0.062496
  1
SWITCH CLIP
 41
0.833333
  7
Style-Arial
100
AcDbText
  0
TEXT
  5
F7
330
44A
100
AcDbEntity
  8
2-36G
  6
Continuous
 62
     7
370
    13
100
AcDbText
 10
42.427706
 20
-9.39525
 30
0.0
 40
0.062496
  1
CLIP BLOTS
 41
0.833333
  7
Style-Arial
100
AcDbText
  0
TEXT
  5
10C
330
44A
100
AcDbEntity
  8
2-36G
  6
Continuous
 62
     7
370
    13
100
AcDbText
 10
43.751592
 20
-9.398125
 30
0.0
 40
0.062496
  1
HEEL BOLTS
 41
0.833333
  7
Style-Arial
100
AcDbText
  0
TEXT
  5
110
330
44A
100
AcDbEntity
  8
2-36G
  6
Continuous
 62
     7
370
    13
100
AcDbText
 10
45.327318
 20
-9.324615
 30
0.0
 40
0.062496
  1
CURVED CLOSURE RAIL
 41
0.833333
  7
Style-Arial
100
AcDbText
  0
TEXT
  5
114
330
44A
100
AcDbEntity
  8
2-36G
  6
Continuous
 62
     7
370
    13
100
AcDbText
 10
44.433469
 20
-10.28976
 30
0.0
 40
0.062496
  1
HEEL FILLER (HEEL BLOCK)
 41
0.833333
  7
Style-Arial
100
AcDbText
  0
TEXT
  5
118
330
44A
100
AcDbEntity
  8
2-36G
  6
Continuous
 62
     7
370
    13
100
AcDbText
 10
44.060475
 20
-10.503438
 30
0.0
 40
0.062496
  1
STAIGHT STOCK RAIL
 41
0.833333
  7
Style-Arial
100
AcDbText
  0
TEXT
  5
11C
330
44A
100
AcDbEntity
  8
2-36G
  6
Continuous
 62
     7
370
    13
100
AcDbText
 10
41.959641
 20
-10.379812
 30
0.0
 40
0.062496
  1
STOCK RAIL BRACE
 41
0.833333
  7
Style-Arial
100
AcDbText
  0
TEXT
  5
1C7
330
44A
100
AcDbEntity
  8
2-36G
  6
Continuous
 62
     7
370
    13
100
AcDbText
 10
40.16053
 20
-10.473906
 30
0.0
 40
0.062496
  1
NO.1 ROD)
 41
0.833333
  7
Style-Arial
100
AcDbText
  0
TEXT
  5
1C8
330
44A
100
AcDbEntity
  8
2-36G
  6
Continuous
 62
     7
370
    13
100
AcDbText
 10
40.150558
 20
-10.372719
 30
0.0
 40
0.062496
  1
(MEASURED AT
 41
0.833333
  7
Style-Arial
100
AcDbText
  0
TEXT
  5
1C9
330
44A
100
AcDbEntity
  8
2-36G
  6
Continuous
 62
     7
370
    13
100
AcDbText
 10
40.148802
 20
-10.271531
 30
0.0
 40
0.062496
  1
SWITCH THROW
 41
0.833333
  7
Style-Arial
100
AcDbText
  0
TEXT
  5
1CD
330
44A
100
AcDbEntity
  8
2-36G
  6
Continuous
 62
     7
370
    13
100
AcDbText
 10
40.008245
 20
-9.079573
 30
0.0
 40
0.062496
  1
NO. 1 SWITCH ROD
 41
0.833333
  7
Style-Arial
100
AcDbText
  0
TEXT
  5
1D0
330
44A
100
AcDbEntity
  8
2-36G
  6
Continuous
 62
     7
370
    13
100
AcDbText
 10
39.979105
 20
-9.302198
 30
0.0
 40
0.062496
  1
SWITCH ROD BOLT
 41
0.833333
  7
Style-Arial
100
AcDbText
  0
TEXT
  5
1D4
330
44A
100
AcDbEntity
  8
2-36G
  6
Continuous
 62
     7
370
    13
100
AcDbText
 10
40.035749
 20
-9.441333
 30
0.0
 40
0.062496
  1
SLIDE PLATE
 41
0.833333
  7
Style-Arial
100
AcDbText
  0
TEXT
  5
1E7
330
44A
100
AcDbEntity
  8
2-36G
  6
Continuous
 62
     7
370
    13
100
AcDbText
 10
41.263167
 20
-9.415521
 30
0.0
 40
0.062496
  1
SWITCH POINT
 41
0.833333
  7
Style-Arial
100
AcDbText
  0
TEXT
  5
1E8
330
44A
100
AcDbEntity
  8
2-36G
  6
Continuous
 62
     7
370
    13
100
AcDbText
 10
41.263167
 20
-9.314333
 30
0.0
 40
0.062496
  1
RIGHT HAND
 41
0.833333
  7
Style-Arial
100
AcDbText
  0
TEXT
  5
1EC
330
44A
100
AcDbEntity
  8
2-36G
  6
Continuous
 62
     7
370
    13
100
AcDbText
 10
41.22675
 20
-8.958229
 30
0.0
 40
0.062496
  1
SWITCH POINT
 41
0.833333
  7
Style-Arial
100
AcDbText
  0
TEXT
  5
1ED
330
44A
100
AcDbEntity
  8
2-36G
  6
Continuous
 62
     7
370
    13
100
AcDbText
 10
41.22675
 20
-8.857052
 30
0.0
 40
0.062496
  1
LEFT HAND
 41
0.833333
  7
Style-Arial
100
AcDbText
  0
TEXT
  5
3E1
330
44A
100
AcDbEntity
  8
2-36G
  6
Continuous
 62
     7
370
    13
100
AcDbText
 10
41.590914
 20
-4.377156
 30
0.0
 40
0.062496
  1
BENT STOCK RAIL
 41
0.833333
  7
Style-Arial
100
AcDbText
  0
TEXT
  5
3E2
330
44A
100
AcDbEntity
  8
2-36G
  6
Continuous
 62
     7
370
    13
100
AcDbText
 10
42.480333
 20
-5.651094
 30
0.0
 40
0.062496
  1
STRAIGHT STOCK RAIL
 41
0.833333
  7
Style-Arial
100
AcDbText
  0
TEXT
  5
3E6
330
44A
100
AcDbEntity
  8
2-36G
  6
Continuous
 62
     7
370
    13
100
AcDbText
 10
40.262642
 20
-11.580646
 30
0.0
 40
0.062496
  1
REFERENCE: TM 5-628/AFR91-44 RAILROAD TRACK STANDARDS.
 41
0.833333
  7
Style-Arial
100
AcDbText
  0
TEXT
  5
3CD
330
44A
100
AcDbEntity
  8
2-36G
  6
Continuous
 62
     7
370
    13
100
AcDbText
 10
40.672295
 20
-12.130616
 30
0.0
 40
0.09765
  1
STANDARD TURNOUT PARTS AND NOMENCLATURE
 41
0.833333
  7
Style-Arial
100
AcDbText
  0
TEXT
  5
3CB
330
44A
100
AcDbEntity
  8
2-36G
  6
Continuous
 62
     7
370
    13
100
AcDbText
 10
45.000708
 20
-12.027761
 30
0.0
 40
0.07812
  1
DATE
 41
0.833333
  7
Style-Arial
100
AcDbText
  0
TEXT
  5
3CC
330
44A
100
AcDbEntity
  8
2-36G
  6
Continuous
 62
     7
370
    13
100
AcDbText
 10
44.920319
 20
-12.194418
 30
0.0
 40
0.07812
  1
AUG 1992
 41
0.833333
  7
Style-Arial
100
AcDbText
  0
TEXT
  5
3C9
330
44A
100
AcDbEntity
  8
2-36G
  6
Continuous
 62
     7
370
    13
100
AcDbText
 10
46.060618
 20
-12.027761
 30
0.0
 40
0.07812
  1
FIGURE
 41
0.833333
  7
Style-Arial
100
AcDbText
  0
TEXT
  5
3CA
330
44A
100
AcDbEntity
  8
2-36G
  6
Continuous
 62
     7
370
    13
100
AcDbText
 10
46.146105
 20
-12.194418
 30
0.0
 40
0.07812
  1
2-36h
 41
0.833333
  7
Style-Arial
100
AcDbText
  0
ENDSEC
  0
SECTION
  2
OBJECTS
  0
DICTIONARY
  5
43E
330
0
100
AcDbDictionary
281
     1
  3
ACAD_COLOR
350
45D
  3
ACAD_GROUP
350
45A
  3
ACAD_LAYOUT
350
44E
  3
ACAD_MATERIAL
350
45C
  3
ACAD_MLINESTYLE
350
448
  3
ACAD_PLOTSETTINGS
350
45B
  3
ACAD_PLOTSTYLENAME
350
43D
  3
ACAD_TABLESTYLE
350
472
  3
AcadDim
350
46A
  3
MicroStation
350
462
  0
DICTIONARY
  5
43A
330
439
100
AcDbDictionary
280
     1
281
     1
  3
ACAD_LAYERFILTERS
360
461
  3
ACAD_LAYERSTATES
360
43B
  0
DICTIONARY
  5
46E
330
44A
100
AcDbDictionary
280
     1
281
     1
  3
ACAD_SORTENTS
360
46F
  0
DICTIONARY
  5
45D
102
{ACAD_REACTORS
330
43E
102
}
330
43E
100
AcDbDictionary
281
     1
  0
DICTIONARY
  5
45A
102
{ACAD_REACTORS
330
43E
102
}
330
43E
100
AcDbDictionary
281
     1
  0
DICTIONARY
  5
44E
102
{ACAD_REACTORS
330
43E
102
}
330
43E
100
AcDbDictionary
281
     1
  3
Layout1
350
452
  3
Model
350
44D
  0
DICTIONARY
  5
45C
102
{ACAD_REACTORS
330
43E
102
}
330
43E
100
AcDbDictionary
281
     1
  0
DICTIONARY
  5
448
102
{ACAD_REACTORS
330
43E
102
}
330
43E
100
AcDbDictionary
281
     1
  3
Standard
350
447
  0
DICTIONARY
  5
45B
102
{ACAD_REACTORS
330
43E
102
}
330
43E
100
AcDbDictionary
281
     1
  0
ACDBDICTIONARYWDFLT
  5
43D
102
{ACAD_REACTORS
330
43E
102
}
330
43E
100
AcDbDictionary
281
     1
  3
Normal
350
43C
100
AcDbDictionaryWithDefault
340
43C
  0
DICTIONARY
  5
472
102
{ACAD_REACTORS
330
43E
102
}
330
43E
100
AcDbDictionary
281
     1
  0
XRECORD
  5
46A
102
{ACAD_REACTORS
330
43E
102
}
330
43E
100
AcDbXrecord
280
     1
 90
   990106
  3
 
 60
     0
 61
     0
 62
     1
 63
     1
 64
     0
 65
     0
 66
     0
 67
     3
 68
     1
 69
     1
 70
     0
 71
     0
 72
     0
 40
0.0
170
     0
  0
DICTIONARY
  5
462
102
{ACAD_REACTORS
330
43E
102
}
330
43E
100
AcDbDictionary
281
     1
  3
ApplicationElement 1073
350
431
  3
ApplicationElement 1078
350
436
  3
ModelApplicationElement 0 1072
350
430
  0
DICTIONARY
  5
461
102
{ACAD_REACTORS
330
43A
102
}
330
43A
100
AcDbDictionary
281
     1
  0
DICTIONARY
  5
43B
102
{ACAD_REACTORS
330
43A
102
}
330
43A
100
AcDbDictionary
281
     1
  0
SORTENTSTABLE
  5
46F
102
{ACAD_REACTORS
330
46E
102
}
330
46E
100
AcDbSortentsTable
330
44A
331
64
  5
3B3
331
65
  5
64
331
66
  5
65
331
67
  5
3B4
331
68
  5
66
331
69
  5
67
331
6A
  5
68
331
6B
  5
69
331
6C
  5
6A
331
6D
  5
3B5
331
6E
  5
6B
331
6F
  5
6C
331
70
  5
6D
331
71
  5
6E
331
72
  5
3B6
331
73
  5
6F
331
74
  5
70
331
75
  5
3B7
331
76
  5
71
331
77
  5
72
331
78
  5
3B8
331
79
  5
73
331
7A
  5
74
331
7B
  5
3B9
331
7C
  5
75
331
7D
  5
76
331
7E
  5
77
331
7F
  5
78
331
80
  5
79
331
81
  5
3BA
331
82
  5
3BB
331
83
  5
7A
331
84
  5
7B
331
85
  5
3BC
331
86
  5
7C
331
87
  5
7D
331
88
  5
3BD
331
89
  5
7E
331
8A
  5
7F
331
8B
  5
80
331
8C
  5
81
331
90
  5
82
331
93
  5
83
331
97
  5
84
331
9A
  5
85
331
9B
  5
86
331
9C
  5
87
331
9D
  5
88
331
9E
  5
89
331
9F
  5
3BE
331
A0
  5
8A
331
A1
  5
8B
331
A2
  5
8C
331
A3
  5
3BF
331
A4
  5
90
331
A5
  5
93
331
A6
  5
97
331
A7
  5
3C0
331
A8
  5
9A
331
A9
  5
9B
331
AA
  5
9C
331
AB
  5
3C1
331
AC
  5
9D
331
AD
  5
9E
331
AE
  5
9F
331
AF
  5
3C2
331
B0
  5
A0
331
B1
  5
A1
331
B2
  5
A2
331
B3
  5
3C3
331
B4
  5
A3
331
B5
  5
A4
331
B6
  5
A5
331
B7
  5
3C4
331
B8
  5
A6
331
B9
  5
A7
331
BA
  5
A8
331
BB
  5
A9
331
BC
  5
3C5
331
BD
  5
AA
331
BE
  5
AB
331
BF
  5
AC
331
C0
  5
AD
331
C1
  5
AE
331
C2
  5
3C6
331
C3
  5
AF
331
C4
  5
B0
331
C5
  5
3C7
331
C6
  5
B1
331
C7
  5
B2
331
C8
  5
B3
331
C9
  5
B4
331
CA
  5
B5
331
CB
  5
B6
331
CC
  5
B7
331
CD
  5
3C8
331
CE
  5
B8
331
CF
  5
B9
331
D0
  5
3C9
331
D1
  5
BA
331
D2
  5
BB
331
D3
  5
BC
331
D4
  5
BD
331
D5
  5
BE
331
D6
  5
3CA
331
D7
  5
BF
331
D8
  5
C0
331
D9
  5
C1
331
DA
  5
C2
331
DB
  5
C3
331
DC
  5
C4
331
DD
  5
C5
331
DE
  5
3CB
331
DF
  5
C6
331
E0
  5
C7
331
E1
  5
C8
331
E2
  5
3CC
331
E3
  5
C9
331
E4
  5
CA
331
E5
  5
CB
331
E6
  5
3CD
331
E7
  5
CC
331
E8
  5
CD
331
E9
  5
3CE
331
EA
  5
CE
331
EB
  5
CF
331
EC
  5
D0
331
ED
  5
D1
331
EE
  5
D2
331
EF
  5
D3
331
F0
  5
D4
331
F1
  5
D5
331
F2
  5
D6
331
F3
  5
D7
331
F4
  5
D8
331
F5
  5
D9
331
F6
  5
DA
331
F7
  5
3CF
331
F8
  5
DB
331
F9
  5
DC
331
FA
  5
DD
331
FB
  5
DE
331
FC
  5
DF
331
FD
  5
E0
331
FE
  5
E1
331
FF
  5
E2
331
100
  5
E3
331
101
  5
E4
331
102
  5
E5
331
103
  5
E6
331
104
  5
E7
331
105
  5
E8
331
106
  5
E9
331
107
  5
EA
331
108
  5
EB
331
109
  5
EC
331
10A
  5
ED
331
10B
  5
EE
331
10C
  5
3D0
331
10D
  5
EF
331
10E
  5
F0
331
10F
  5
F1
331
110
  5
3D1
331
111
  5
F2
331
112
  5
F3
331
113
  5
F4
331
114
  5
3D2
331
115
  5
F5
331
116
  5
F6
331
117
  5
F7
331
118
  5
3D3
331
119
  5
F8
331
11A
  5
F9
331
11B
  5
FA
331
11C
  5
3D4
331
11D
  5
FB
331
11E
  5
FC
331
11F
  5
FD
331
120
  5
FE
331
121
  5
FF
331
122
  5
100
331
123
  5
101
331
124
  5
102
331
125
  5
103
331
126
  5
104
331
127
  5
105
331
128
  5
106
331
129
  5
107
331
12A
  5
108
331
12B
  5
109
331
12C
  5
10A
331
12D
  5
10B
331
12E
  5
10C
331
12F
  5
10D
331
130
  5
10E
331
131
  5
10F
331
132
  5
110
331
133
  5
111
331
134
  5
112
331
135
  5
113
331
136
  5
114
331
137
  5
115
331
138
  5
116
331
139
  5
117
331
13A
  5
118
331
13B
  5
119
331
13C
  5
11A
331
13D
  5
11B
331
13E
  5
11C
331
13F
  5
11D
331
140
  5
11E
331
141
  5
11F
331
142
  5
120
331
143
  5
121
331
144
  5
122
331
145
  5
123
331
146
  5
124
331
147
  5
125
331
148
  5
126
331
149
  5
127
331
14A
  5
128
331
14B
  5
129
331
14C
  5
12A
331
14D
  5
12B
331
14E
  5
12C
331
14F
  5
12D
331
150
  5
12E
331
151
  5
12F
331
152
  5
130
331
153
  5
131
331
154
  5
132
331
155
  5
133
331
156
  5
134
331
157
  5
135
331
158
  5
136
331
159
  5
137
331
15A
  5
138
331
15B
  5
139
331
15C
  5
13A
331
15D
  5
13B
331
15E
  5
13C
331
15F
  5
13D
331
160
  5
13E
331
161
  5
13F
331
162
  5
140
331
163
  5
141
331
164
  5
142
331
165
  5
143
331
166
  5
144
331
167
  5
145
331
168
  5
146
331
169
  5
147
331
16A
  5
148
331
16B
  5
149
331
16C
  5
14A
331
16D
  5
14B
331
16E
  5
14C
331
16F
  5
14D
331
170
  5
14E
331
171
  5
14F
331
172
  5
150
331
173
  5
151
331
174
  5
152
331
175
  5
153
331
176
  5
154
331
177
  5
155
331
178
  5
156
331
179
  5
157
331
17A
  5
158
331
17B
  5
159
331
17C
  5
15A
331
17D
  5
15B
331
17E
  5
15C
331
17F
  5
15D
331
180
  5
15E
331
181
  5
15F
331
182
  5
160
331
183
  5
161
331
184
  5
162
331
185
  5
163
331
186
  5
164
331
187
  5
165
331
188
  5
166
331
189
  5
167
331
18A
  5
168
331
18B
  5
169
331
18C
  5
16A
331
18D
  5
16B
331
18E
  5
16C
331
18F
  5
16D
331
190
  5
16E
331
191
  5
16F
331
192
  5
170
331
193
  5
171
331
194
  5
172
331
195
  5
173
331
196
  5
174
331
197
  5
175
331
198
  5
176
331
199
  5
177
331
19A
  5
178
331
19B
  5
179
331
19C
  5
17A
331
19D
  5
17B
331
19E
  5
17C
331
19F
  5
17D
331
1A0
  5
17E
331
1A1
  5
17F
331
1A2
  5
180
331
1A3
  5
181
331
1A4
  5
182
331
1A5
  5
183
331
1A6
  5
184
331
1A7
  5
185
331
1A8
  5
186
331
1A9
  5
187
331
1AA
  5
188
331
1AB
  5
189
331
1AC
  5
18A
331
1AD
  5
18B
331
1AE
  5
18C
331
1AF
  5
18D
331
1B0
  5
18E
331
1B1
  5
18F
331
1B2
  5
190
331
1B3
  5
191
331
1B4
  5
192
331
1B5
  5
193
331
1B6
  5
194
331
1B7
  5
195
331
1B8
  5
196
331
1B9
  5
197
331
1BA
  5
198
331
1BB
  5
199
331
1BC
  5
19A
331
1BD
  5
19B
331
1BE
  5
19C
331
1BF
  5
19D
331
1C0
  5
19E
331
1C1
  5
19F
331
1C2
  5
1A0
331
1C3
  5
1A1
331
1C4
  5
1A2
331
1C5
  5
1A3
331
1C6
  5
1A4
331
1C7
  5
3D5
331
1C8
  5
3D6
331
1C9
  5
3D7
331
1CA
  5
1A5
331
1CB
  5
1A6
331
1CC
  5
1A7
331
1CD
  5
3D8
331
1CE
  5
1A8
331
1CF
  5
1A9
331
1D0
  5
3D9
331
1D1
  5
1AA
331
1D2
  5
1AB
331
1D3
  5
1AC
331
1D4
  5
3DA
331
1D5
  5
1AD
331
1D6
  5
1AE
331
1D7
  5
1AF
331
1D8
  5
1B0
331
1D9
  5
1B1
331
1DA
  5
1B2
331
1DB
  5
1B3
331
1DC
  5
1B4
331
1DD
  5
1B5
331
1DE
  5
1B6
331
1DF
  5
1B7
331
1E0
  5
1B8
331
1E1
  5
1B9
331
1E2
  5
1BA
331
1E3
  5
1BB
331
1E4
  5
1BC
331
1E5
  5
1BD
331
1E6
  5
1BE
331
1E7
  5
3DB
331
1E8
  5
3DC
331
1E9
  5
1BF
331
1EA
  5
1C0
331
1EB
  5
1C1
331
1EC
  5
3DD
331
1ED
  5
3DE
331
1EE
  5
1C2
331
1EF
  5
1C3
331
1F0
  5
1C4
331
1F1
  5
1C5
331
1F2
  5
1C6
331
1F3
  5
1C7
331
1F4
  5
1C8
331
1F5
  5
1C9
331
1F6
  5
1CA
331
1F7
  5
1CB
331
1F8
  5
1CC
331
1F9
  5
1CD
331
1FA
  5
1CE
331
1FB
  5
1CF
331
1FC
  5
1D0
331
1FD
  5
1D1
331
1FE
  5
1D2
331
1FF
  5
1D3
331
200
  5
1D4
331
201
  5
1D5
331
202
  5
1D6
331
203
  5
1D7
331
204
  5
1D8
331
205
  5
1D9
331
206
  5
1DA
331
207
  5
1DB
331
208
  5
1DC
331
209
  5
1DD
331
20A
  5
1DE
331
20B
  5
1DF
331
20C
  5
1E0
331
20D
  5
1E1
331
20E
  5
1E2
331
20F
  5
1E3
331
210
  5
1E4
331
211
  5
1E5
331
212
  5
1E6
331
213
  5
1E7
331
214
  5
1E8
331
215
  5
1E9
331
216
  5
1EA
331
217
  5
1EB
331
218
  5
1EC
331
219
  5
1ED
331
21A
  5
1EE
331
21B
  5
1EF
331
21C
  5
1F0
331
21D
  5
1F1
331
21E
  5
1F2
331
21F
  5
1F3
331
220
  5
1F4
331
221
  5
1F5
331
222
  5
1F6
331
223
  5
1F7
331
224
  5
1F8
331
225
  5
1F9
331
226
  5
1FA
331
227
  5
1FB
331
228
  5
1FC
331
229
  5
1FD
331
22A
  5
1FE
331
22B
  5
1FF
331
22C
  5
200
331
22D
  5
201
331
22E
  5
202
331
22F
  5
203
331
230
  5
204
331
231
  5
205
331
232
  5
206
331
233
  5
207
331
234
  5
208
331
235
  5
209
331
236
  5
20A
331
237
  5
20B
331
238
  5
20C
331
239
  5
20D
331
23A
  5
20E
331
23B
  5
20F
331
23C
  5
210
331
23D
  5
211
331
23E
  5
212
331
23F
  5
213
331
240
  5
214
331
241
  5
215
331
242
  5
216
331
243
  5
217
331
244
  5
218
331
245
  5
219
331
246
  5
21A
331
247
  5
21B
331
248
  5
21C
331
249
  5
21D
331
24A
  5
21E
331
24B
  5
21F
331
24C
  5
220
331
24D
  5
221
331
24E
  5
222
331
24F
  5
223
331
250
  5
224
331
251
  5
225
331
252
  5
226
331
253
  5
227
331
254
  5
228
331
255
  5
229
331
256
  5
22A
331
257
  5
22B
331
258
  5
22C
331
259
  5
22D
331
25A
  5
22E
331
25B
  5
22F
331
25C
  5
230
331
25D
  5
231
331
25E
  5
232
331
25F
  5
233
331
260
  5
234
331
261
  5
235
331
262
  5
236
331
263
  5
237
331
264
  5
238
331
265
  5
239
331
266
  5
23A
331
267
  5
23B
331
268
  5
23C
331
269
  5
23D
331
26A
  5
23E
331
26B
  5
23F
331
26C
  5
240
331
26D
  5
241
331
26E
  5
242
331
26F
  5
243
331
270
  5
244
331
271
  5
245
331
272
  5
246
331
273
  5
247
331
274
  5
248
331
275
  5
249
331
276
  5
24A
331
277
  5
24B
331
278
  5
24C
331
279
  5
24D
331
27A
  5
24E
331
27B
  5
24F
331
27C
  5
250
331
27D
  5
251
331
27E
  5
252
331
27F
  5
253
331
280
  5
254
331
281
  5
255
331
282
  5
256
331
283
  5
257
331
284
  5
258
331
285
  5
259
331
286
  5
25A
331
287
  5
25B
331
288
  5
25C
331
289
  5
25D
331
28A
  5
25E
331
28B
  5
25F
331
28C
  5
260
331
28D
  5
261
331
28E
  5
262
331
28F
  5
263
331
290
  5
264
331
291
  5
265
331
292
  5
266
331
293
  5
267
331
294
  5
268
331
295
  5
269
331
296
  5
26A
331
297
  5
26B
331
298
  5
26C
331
299
  5
26D
331
29A
  5
26E
331
29B
  5
26F
331
29C
  5
270
331
29D
  5
271
331
29E
  5
272
331
29F
  5
273
331
2A0
  5
274
331
2A1
  5
275
331
2A2
  5
276
331
2A3
  5
277
331
2A4
  5
278
331
2A5
  5
279
331
2A6
  5
27A
331
2A7
  5
27B
331
2A8
  5
27C
331
2A9
  5
27D
331
2AA
  5
27E
331
2AB
  5
27F
331
2AC
  5
280
331
2AD
  5
281
331
2AE
  5
282
331
2AF
  5
283
331
2B0
  5
284
331
2B1
  5
285
331
2B2
  5
286
331
2B3
  5
287
331
2B4
  5
288
331
2B5
  5
289
331
2B6
  5
28A
331
2B7
  5
28B
331
2B8
  5
28C
331
2B9
  5
28D
331
2BA
  5
28E
331
2BB
  5
28F
331
2BC
  5
290
331
2BD
  5
291
331
2BE
  5
292
331
2BF
  5
293
331
2C0
  5
294
331
2C1
  5
295
331
2C2
  5
296
331
2C3
  5
297
331
2C4
  5
298
331
2C5
  5
299
331
2C6
  5
29A
331
2C7
  5
29B
331
2C8
  5
29C
331
2C9
  5
29D
331
2CA
  5
29E
331
2CB
  5
29F
331
2CC
  5
2A0
331
2CD
  5
2A1
331
2CE
  5
2A2
331
2CF
  5
2A3
331
2D0
  5
2A4
331
2D1
  5
2A5
331
2D2
  5
2A6
331
2D3
  5
2A7
331
2D4
  5
2A8
331
2D5
  5
2A9
331
2D6
  5
2AA
331
2D7
  5
2AB
331
2D8
  5
2AC
331
2D9
  5
2AD
331
2DA
  5
2AE
331
2DB
  5
2AF
331
2DC
  5
2B0
331
2DD
  5
2B1
331
2DE
  5
2B2
331
2DF
  5
2B3
331
2E0
  5
2B4
331
2E1
  5
2B5
331
2E2
  5
2B6
331
2E3
  5
2B7
331
2E4
  5
2B8
331
2E5
  5
2B9
331
2E6
  5
2BA
331
2E7
  5
2BB
331
2E8
  5
2BC
331
2E9
  5
2BD
331
2EA
  5
2BE
331
2EB
  5
2BF
331
2EC
  5
2C0
331
2ED
  5
2C1
331
2EE
  5
2C2
331
2EF
  5
2C3
331
2F0
  5
2C4
331
2F1
  5
2C5
331
2F2
  5
2C6
331
2F3
  5
2C7
331
2F4
  5
2C8
331
2F5
  5
2C9
331
2F6
  5
2CA
331
2F7
  5
2CB
331
2F8
  5
2CC
331
2F9
  5
2CD
331
2FA
  5
2CE
331
2FB
  5
2CF
331
2FC
  5
2D0
331
2FD
  5
2D1
331
2FE
  5
2D2
331
2FF
  5
2D3
331
300
  5
2D4
331
301
  5
2D5
331
302
  5
2D6
331
303
  5
2D7
331
304
  5
2D8
331
305
  5
2D9
331
306
  5
2DA
331
307
  5
2DB
331
308
  5
2DC
331
309
  5
2DD
331
30A
  5
2DE
331
30B
  5
2DF
331
30C
  5
2E0
331
30D
  5
2E1
331
30E
  5
2E2
331
30F
  5
2E3
331
310
  5
2E4
331
311
  5
2E5
331
312
  5
2E6
331
313
  5
2E7
331
314
  5
2E8
331
315
  5
2E9
331
316
  5
2EA
331
317
  5
2EB
331
318
  5
2EC
331
319
  5
2ED
331
31A
  5
2EE
331
31B
  5
2EF
331
31C
  5
2F0
331
31D
  5
2F1
331
31E
  5
2F2
331
31F
  5
2F3
331
320
  5
2F4
331
321
  5
2F5
331
322
  5
2F6
331
323
  5
2F7
331
324
  5
2F8
331
325
  5
2F9
331
326
  5
2FA
331
327
  5
2FB
331
328
  5
2FC
331
329
  5
2FD
331
32A
  5
2FE
331
32B
  5
2FF
331
32C
  5
300
331
32D
  5
301
331
32E
  5
302
331
32F
  5
303
331
330
  5
304
331
331
  5
305
331
332
  5
306
331
333
  5
307
331
334
  5
308
331
335
  5
309
331
336
  5
30A
331
337
  5
30B
331
338
  5
30C
331
339
  5
30D
331
33A
  5
30E
331
33B
  5
30F
331
33C
  5
310
331
33D
  5
311
331
33E
  5
312
331
33F
  5
313
331
340
  5
314
331
341
  5
315
331
342
  5
316
331
343
  5
317
331
344
  5
318
331
345
  5
319
331
346
  5
31A
331
347
  5
31B
331
348
  5
31C
331
349
  5
31D
331
34B
  5
31E
331
34C
  5
31F
331
34D
  5
320
331
34E
  5
321
331
34F
  5
322
331
350
  5
323
331
351
  5
324
331
352
  5
325
331
353
  5
326
331
354
  5
327
331
355
  5
328
331
356
  5
329
331
357
  5
32A
331
358
  5
32B
331
359
  5
32C
331
35A
  5
32D
331
35B
  5
32E
331
35C
  5
32F
331
35D
  5
330
331
35E
  5
331
331
35F
  5
332
331
360
  5
333
331
361
  5
334
331
362
  5
335
331
363
  5
336
331
364
  5
337
331
365
  5
338
331
366
  5
339
331
367
  5
33A
331
368
  5
33B
331
369
  5
33C
331
36A
  5
33D
331
36B
  5
33E
331
36C
  5
33F
331
36D
  5
340
331
36E
  5
341
331
36F
  5
342
331
370
  5
343
331
371
  5
344
331
372
  5
345
331
373
  5
346
331
374
  5
347
331
375
  5
348
331
376
  5
349
331
377
  5
34B
331
378
  5
34C
331
379
  5
34D
331
37A
  5
34E
331
37B
  5
34F
331
37C
  5
350
331
37D
  5
351
331
37E
  5
352
331
37F
  5
353
331
380
  5
354
331
381
  5
355
331
382
  5
356
331
383
  5
357
331
384
  5
358
331
385
  5
359
331
386
  5
35A
331
387
  5
35B
331
388
  5
35C
331
389
  5
35D
331
38A
  5
35E
331
38B
  5
35F
331
38C
  5
360
331
38D
  5
361
331
38E
  5
362
331
38F
  5
363
331
390
  5
364
331
391
  5
365
331
392
  5
366
331
393
  5
367
331
394
  5
368
331
395
  5
369
331
396
  5
36A
331
397
  5
36B
331
398
  5
36C
331
399
  5
36D
331
39A
  5
36E
331
39B
  5
36F
331
39C
  5
370
331
39D
  5
371
331
39E
  5
372
331
39F
  5
373
331
3A0
  5
374
331
3A1
  5
375
331
3A2
  5
376
331
3A3
  5
377
331
3A4
  5
378
331
3A5
  5
379
331
3A6
  5
37A
331
3A7
  5
37B
331
3A8
  5
37C
331
3A9
  5
37D
331
3AA
  5
37E
331
3AB
  5
37F
331
3AC
  5
380
331
3AD
  5
381
331
3AE
  5
382
331
3AF
  5
383
331
3B0
  5
384
331
3B1
  5
385
331
3B2
  5
386
331
3B3
  5
387
331
3B4
  5
388
331
3B5
  5
389
331
3B6
  5
38A
331
3B7
  5
38B
331
3B8
  5
38C
331
3B9
  5
38D
331
3BA
  5
38E
331
3BB
  5
38F
331
3BC
  5
390
331
3BD
  5
391
331
3BE
  5
392
331
3BF
  5
393
331
3C0
  5
394
331
3C1
  5
395
331
3C2
  5
396
331
3C3
  5
397
331
3C4
  5
398
331
3C5
  5
399
331
3C6
  5
39A
331
3C7
  5
39B
331
3C8
  5
39C
331
3C9
  5
3E5
331
3CA
  5
3E6
331
3CB
  5
3E3
331
3CC
  5
3E4
331
3CD
  5
3E2
331
3CE
  5
39D
331
3CF
  5
39E
331
3D0
  5
39F
331
3D1
  5
3A0
331
3D2
  5
3A1
331
3D3
  5
3A2
331
3D4
  5
3A3
331
3D5
  5
3A4
331
3D6
  5
3A5
331
3D7
  5
3A6
331
3D8
  5
3A7
331
3D9
  5
3A8
331
3DA
  5
3A9
331
3DB
  5
3AA
331
3DC
  5
3AB
331
3DD
  5
3AC
331
3DE
  5
3AD
331
3DF
  5
3AE
331
3E0
  5
3AF
331
3E1
  5
3DF
331
3E2
  5
3E0
331
3E3
  5
3B0
331
3E4
  5
3B1
331
3E5
  5
3B2
331
3E6
  5
3E1
  0
LAYOUT
  5
452
102
{ACAD_REACTORS
330
44E
330
44E
102
}
102
{ACAD_XDICTIONARY
360
453
102
}
330
44E
100
AcDbPlotSettings
  1

  2
none_device
  4
Letter_(8.50_x_11.00_Inches)
  6

 40
6.35
 41
6.35
 42
6.350006
 43
6.350006
 44
215.899994
 45
279.399994
 46
0.0
 47
0.0
 48
0.0
 49
0.0
140
0.0
141
0.0
142
1.0
143
1.0
 70
   688
 72
     0
 73
     1
 74
     5
  7

 75
    16
 76
     0
 77
     2
 78
   300
147
1.0
148
0.0
149
0.0
100
AcDbLayout
  1
Layout1
 70
     1
 71
     1
 10
-0.25
 20
-0.25
 11
10.75
 21
8.25
 12
0.0
 22
0.0
 32
0.0
 14
1.049744
 24
0.799667
 34
-0.001526
 15
9.450623
 25
7.200577
 35
0.0
146
0.0
 13
0.0
 23
0.0
 33
0.0
 16
1.0
 26
0.0
 36
0.0
 17
0.0
 27
1.0
 37
0.0
 76
     0
330
44F
1001
ACAD_PSEXT
1000
None
1000
None
1000
Not applicable
1000
The layout will not be plotted unless a new plotter configuration name is selected.
1070
     0
  0
LAYOUT
  5
44D
102
{ACAD_REACTORS
330
44E
330
44E
102
}
330
44E
100
AcDbPlotSettings
  1

  2
none_device
  4
ANSI_A_(8.50_x_11.00_Inches)
  6

 40
6.35
 41
19.049999
 42
6.350006
 43
19.049988
 44
215.899994
 45
279.399994
 46
0.0
 47
0.0
 48
0.0
 49
0.0
140
0.0
141
0.0
142
1.0
143
2.584895
 70
 11952
 72
     0
 73
     1
 74
     0
  7

 75
     0
 76
     0
 77
     2
 78
   300
147
0.386863
148
0.0
149
0.0
100
AcDbLayout
  1
Model
 70
     1
 71
     0
 10
0.0
 20
0.0
 11
12.0
 21
9.0
 12
0.0
 22
0.0
 32
0.0
 14
0.0
 24
0.0
 34
0.0
 15
0.0
 25
0.0
 35
0.0
146
0.0
 13
0.0
 23
0.0
 33
0.0
 16
1.0
 26
0.0
 36
0.0
 17
0.0
 27
1.0
 37
0.0
 76
     0
330
44A
331
49
  0
MLINESTYLE
  5
447
102
{ACAD_REACTORS
330
448
102
}
330
448
100
AcDbMlineStyle
  2
STANDARD
 70
     0
  3

 62
   256
 51
90.0
 52
90.0
 71
     2
 49
0.5
 62
   256
  6
BYLAYER
 49
-0.5
 62
   256
  6
BYLAYER
  0
ACDBPLACEHOLDER
  5
43C
102
{ACAD_REACTORS
330
43D
102
}
330
43D
  0
XRECORD
  5
431
102
{ACAD_REACTORS
330
462
102
}
330
462
100
AcDbXrecord
280
     1
310
3E4F020000004D6F64656C6572000000000000000000000000000000000000000000000000000000000000000000000000000000000000000000000000000000000000000000000000000000000000000000000000000000000000000000000000000000000000000000000000000000000000000000000000000000000000
310
00000000000000000000000000000000000000000000000000000000000000000000000000000000000000000000000000000000000000000000000000000000000000000000000000000000000000000000000000000000000000000000000000000000000000000000000000000000000000000000000000000000000000
310
00
310
00000000000000000000000000000000000000000000000000000000000000000000000000000000000000000000000000000000000000000000000000000000000000000000000000000000000000000000000000000000000000000000000000000000000000000000000000000000000000000000000000000000000000
310
00000000000000000000000000000000000000000000000000000000000000000000000000000000000000000000000000000000000000000000000000000000000000000000000000000000000000000000000000000000000000000000000000000000000000000000000000000000000000000000000000000000000000
310
00
310
00000000000000000000000000000000000000000000000000000000000000000000000000000000000000000000000000000000000000000000000000000000000000000000000000000000000000000000000000000000000000000000000000000000000000000000000000000000000000000000000000000000000000
310
00000000000000000000000000000000000000000000000000000000000000000000000000000000000000000000000000000000000000000000000000000000000000000000000000000000000000000000000000000000000000000000000000000000000000000000000000000000000000000000000000000000000000
310
00
310
00000000000000000000000000000000000000000000000000000000000000000000000000000000000000000000000000000000000000000000000000000000000000000000000000000000000000000000000000000000000000000000000000000000000000000000000000000000000000000000000000000000000000
310
00000000000000000000000000000000000000000000000000000000000000000000000000000000000000000000000000000000000000000000000000000000000000000000000000000000000000000000000000000000000000000000000000000000000000000000000000000000000000000000000000000000000000
310
00
310
00000000000000000000000000000000000000000000000000000000000000000000000000000000000000000000000000000000000000000000000000000000000000000000000000000000000000000000000000000000000000000000000000000000000000000000000000000000000000000000000000000000000000
310
00000000000000000000000000000000000000000000000000000000000000000000000000000000000000000000000000000000000000000000000000000000000000000000000000000000000000000000000000000000000000000000000000000000000000000000000000000000000000000000000000000000000000
310
00
310
00000000000000000000000000000000000000000000000000000000000000000000000000000000000000000000000000000000000000000000000000000000000000000000000000000000000000000000000000000000000000000000000000000000000000000000000000000000000000000000000000000000000000
310
00000000000000000000000000000000000000000000000000000000000000000000000000000000000000000000000000000000000000000000000000000000000000000000000000000000000000000000000000000000000000000000000000000000000000000000000000000000000000000000000000000000000000
310
00
310
00000000000000000000000000000000000000000000000000000000000000000000000000000000000000000000000000000000000000000000000000000000000000000000000000000000000000000000000000000000000000000000000000000000000000000000000000000000000000000000000000000000000000
310
00000000000000000000000000000000000000000000000000000000000000000000000000000000000000000000000000000000000000000000000000000000000000000000000000000000000000000000000000000000000000000000000000000000000000000000000000000000000000000000000000000000000000
310
00
310
00000000000000000000000000000000000000000000000000000000000000000000000000000000000000000000000000000000000000000000000000000000000000000000000000000000000000000000000000000000000000000000000000000000000000000000000000000000000000000000000000000000000000
310
00000000000000000000000000000000000000000000000000000000000000000000000000000000000000000000000000000000000000000000000000000000000000000000000000000000000000000000000000000000000000000000000000000000000000000000000000000000000000000000000000000000000000
310
00
310
00000000000000000000000000000000000000000000000000000000000000000000000000000000000000000000000000000000000000000000000000000000000000000000000000000000000000000000000000000000000000000000000000000000000000000000000000000000000000000000000000000000000000
310
00000000000000000000000000000000000000000000000000000000000000000000000000000000000000000000000000000000000000000000000000000000000000000000000000000000000000000000000000000000000000000000000000000000000000000000000000000000000000000000000000000000000000
310
00
310
00000000000000000000000000000000000000000000000000000000000000000000000000000000000000000000000000000000000000000000000000000000000000000000000000000000000000000000000000000000000000000000000000000000000000000000000000000000000000000000000000000000000000
310
00000000000000000000000000000000000000000000000000000000000000000000000000000000000000000000000000000000000000000000000000000000000000000000000000000000000000000000000000000000000000000000000000000000000000000000000000000000000000000000000000000000000000
310
00
310
00000000000000000000000000000000000000000000000000000000000000000000000000000000000000000000000000000000000000000000000000000000000000000000000000000000000000000000000000000000000000000000000000000000000000000000000000000000000000000000000000000000000000
310
00000000000000000000000000000000000000000000000000000000000000000000000000000000000000000000000000000000000000000000000000000000000000000000000000000000000000000000000000000000000000000000000000000000000000000000000000000000000000000000000000000000000000
310
00
310
00000000000000000000000000000000000000000000000000000000000000000000000000000000000000000000000000000000000000000000000000000000000000000000000000000000000000000000000000000000000000000000000000000000000000000000000000000000000000000000000000000000000000
310
00000000000000000000000000000000000000000000000000000000000000000000000000000000000000000000000000000000000000000000000000000000000000000000000000000000000000000000000000000000000000000000000000000000000000000000000000000000000000000000000000000000000000
310
00
310
00000000000000000000000000000000000000000000000000000000000000000000000000000000000000000000000000000000000000000000000000000000000000000000000000000000000000000000000000000000000000000000000000000000000000000000000000000000000000000000000000000000000000
310
00000000000000000000000000000000000000000000000000000000000000000000000000000000000000000000000000000000000000000000000000000000000000000000000000000000000000000000000000000000000000000000000000000000000000000000000000000000000000000000000000000000000000
310
00
310
00000000000000000000000000000000000000000000000000000000000000000000000000000000000000000000000000000000000000000000000000000000000000000000000000000000000000000000000000000000000000000000000000000000000000000000000000000000000000
  0
XRECORD
  5
436
102
{ACAD_REACTORS
330
462
102
}
330
462
100
AcDbXrecord
280
     1
310
3E4F020000004D6F64656C6572000000000000000000000000000000000000000000000000000000000000000000000000000000000000000000000000000000000000000000000000000000000000000000000000000000000000000000000000000000000000000000000000000000000000000000000000000000000000
310
00000000000000000000000000000000000000000000000000000000000000000000000000000000000000000000000000000000000000000000000000000000000000000000000000000000000000000000000000000000000000000000000000000000000000000000000000000000000000000000000000000000000000
310
00
310
00000000000000000000000000000000000000000000000000000000000000000000000000000000000000000000000000000000000000000000000000000000000000000000000000000000000000000000000000000000000000000000000000000000000000000000000000000000000000000000000000000000000000
310
00000000000000000000000000000000000000000000000000000000000000000000000000000000000000000000000000000000000000000000000000000000000000000000000000000000000000000000000000000000000000000000000000000000000000000000000000000000000000000000000000000000000000
310
00
310
00000000000000000000000000000000000000000000000000000000000000000000000000000000000000000000000000000000000000000000000000000000000000000000000000000000000000000000000000000000000000000000000000000000000000000000000000000000000000000000000000000000000000
310
00000000000000000000000000000000000000000000000000000000000000000000000000000000000000000000000000000000000000000000000000000000000000000000000000000000000000000000000000000000000000000000000000000000000000000000000000000000000000000000000000000000000000
310
00
310
00000000000000000000000000000000000000000000000000000000000000000000000000000000000000000000000000000000000000000000000000000000000000000000000000000000000000000000000000000000000000000000000000000000000000000000000000000000000000000000000000000000000000
310
00000000000000000000000000000000000000000000000000000000000000000000000000000000000000000000000000000000000000000000000000000000000000000000000000000000000000000000000000000000000000000000000000000000000000000000000000000000000000000000000000000000000000
310
00
310
00000000000000000000000000000000000000000000000000000000000000000000000000000000000000000000000000000000000000000000000000000000000000000000000000000000000000000000000000000000000000000000000000000000000000000000000000000000000000000000000000000000000000
310
00000000000000000000000000000000000000000000000000000000000000000000000000000000000000000000000000000000000000000000000000000000000000000000000000000000000000000000000000000000000000000000000000000000000000000000000000000000000000000000000000000000000000
310
00
310
00000000000000000000000000000000000000000000000000000000000000000000000000000000000000000000000000000000000000000000000000000000000000000000000000000000000000000000000000000000000000000000000000000000000000000000000000000000000000000000000000000000000000
310
00000000000000000000000000000000000000000000000000000000000000000000000000000000000000000000000000000000000000000000000000000000000000000000000000000000000000000000000000000000000000000000000000000000000000000000000000000000000000000000000000000000000000
310
00
310
00000000000000000000000000000000000000000000000000000000000000000000000000000000000000000000000000000000000000000000000000000000000000000000000000000000000000000000000000000000000000000000000000000000000000000000000000000000000000000000000000000000000000
310
00000000000000000000000000000000000000000000000000000000000000000000000000000000000000000000000000000000000000000000000000000000000000000000000000000000000000000000000000000000000000000000000000000000000000000000000000000000000000000000000000000000000000
310
00
310
00000000000000000000000000000000000000000000000000000000000000000000000000000000000000000000000000000000000000000000000000000000000000000000000000000000000000000000000000000000000000000000000000000000000000000000000000000000000000000000000000000000000000
310
00000000000000000000000000000000000000000000000000000000000000000000000000000000000000000000000000000000000000000000000000000000000000000000000000000000000000000000000000000000000000000000000000000000000000000000000000000000000000000000000000000000000000
310
00
310
00000000000000000000000000000000000000000000000000000000000000000000000000000000000000000000000000000000000000000000000000000000000000000000000000000000000000000000000000000000000000000000000000000000000000000000000000000000000000000000000000000000000000
310
00000000000000000000000000000000000000000000000000000000000000000000000000000000000000000000000000000000000000000000000000000000000000000000000000000000000000000000000000000000000000000000000000000000000000000000000000000000000000000000000000000000000000
310
00
310
00000000000000000000000000000000000000000000000000000000000000000000000000000000000000000000000000000000000000000000000000000000000000000000000000000000000000000000000000000000000000000000000000000000000000000000000000000000000000000000000000000000000000
310
00000000000000000000000000000000000000000000000000000000000000000000000000000000000000000000000000000000000000000000000000000000000000000000000000000000000000000000000000000000000000000000000000000000000000000000000000000000000000000000000000000000000000
310
00
310
00000000000000000000000000000000000000000000000000000000000000000000000000000000000000000000000000000000000000000000000000000000000000000000000000000000000000000000000000000000000000000000000000000000000000000000000000000000000000000000000000000000000000
310
00000000000000000000000000000000000000000000000000000000000000000000000000000000000000000000000000000000000000000000000000000000000000000000000000000000000000000000000000000000000000000000000000000000000000000000000000000000000000000000000000000000000000
310
00
310
00000000000000000000000000000000000000000000000000000000000000000000000000000000000000000000000000000000000000000000000000000000000000000000000000000000000000000000000000000000000000000000000000000000000000000000000000000000000000000000000000000000000000
310
00000000000000000000000000000000000000000000000000000000000000000000000000000000000000000000000000000000000000000000000000000000000000000000000000000000000000000000000000000000000000000000000000000000000000000000000000000000000000000000000000000000000000
310
00
310
00000000000000000000000000000000000000000000000000000000000000000000000000000000000000000000000000000000000000000000000000000000000000000000000000000000000000000000000000000000000000000000000000000000000000000000000000000000000000000000000000000000000000
310
00000000000000000000000000000000000000000000000000000000000000000000000000000000000000000000000000000000000000000000000000000000000000000000000000000000000000000000000000000000000000000000000000000000000000000000000000000000000000000000000000000000000000
310
00
310
00000000000000000000000000000000000000000000000000000000000000000000000000000000000000000000000000000000000000000000000000000000000000000000000000000000000000000000000000000000000000000000000000000000000000000000000000000000000000
  0
XRECORD
  5
430
102
{ACAD_REACTORS
330
462
102
}
330
462
100
AcDbXrecord
280
     1
310
DF56060034040701D0009A9999999999B93F000000000000000000000000000000000400000009000000000000000200000064000000640000000100000001000000190000007B14AE47E17A843F00000000004060409A9999999999B93F00000000004C2D41000000000070F7400000000000942141000000000000000000
310
0000000000000000000000000000000AD482040000000000000000000000000000F03F000000000000000000000000000030402D431CEBE2362A3F00000000000008400000000000000000009807C000000000000000007C1A61B9A711364020000000050000000A000000200000002000000020000000000000000000F03F
310
00
310
0000000000F03F000000000000F03F333333333333D33F333333333333D33F333333333333D33F000000000000F43F000000000000F43F000000000000F03F0200000064000000000000000000000000000840000000000000F83F00000000000000000000000000000000008056409A9999999999B93F0000000000000000
310
00000000000000000000000000000000000000000000000000000000000000000000000000000000000000000000000000000000000000000000000000000000000000000000000000000000000000000000000000000000000000000000000000000000000000000000000000000000000000000000000000000000000000
310
00
310
0000000000000000000000000000000000000000000000000000000000000000000000000000000000000000000000000000000000000000000000000000000000000000000000000000000000000000000000000000000000000000000000000000000000000000000000000000000000000000000000009A9999999999A9
310
3F9100000000000000000000000000000035A781D547960F40000000000000F03F000000000000F03F666666666666164000000000104068F200000000000000000000000000000000000000000000000000000000000000000000000000000000000000000000000000000000000000000000000000000000000000000000
310
00
310
00000000000000000000000000000000000000000000000000000000000000000000000000000000000000000000000000000000000000000000000000000000000000000000000000000000000000000000000000000000000000000000000000000000000000000000000000000000000000000000000000000000000000
310
000000000000000000000000000000000000000000000000000000000000000000000000000000000000000000000000000000000000000000000000FF000000000000000000000000000000000000000000000000000000000000000000000000000000000000000000000000000000000000000000000000000000000000
310
00
310
0000000000000000000000000000000000000000000000000000000000000000000000000000000000000000000000000000000000000000000000000000000000000000
  0
DICTIONARY
  5
453
330
452
100
AcDbDictionary
280
     1
281
     1
  3
ADSK_XREC_LAYOUTTHUMBNAIL
360
454
  0
XRECORD
  5
454
102
{ACAD_REACTORS
330
453
102
}
330
453
100
AcDbXrecord
280
     1
310
28000000B40000008B0000000100080000000000BC61000000000000000000000001000000000000FFFFFF0000000000FFFFFF000000000000000000000000000000000000000000000000000000000000000000330000006600000099000000CC000000FF00000000330000333300006633000099330000CC330000FF3300
310
0000660000336600006666000099660000CC660000FF66000000990000339900006699000099990000CC990000FF99000000CC000033CC000066CC000099CC0000CCCC0000FFCC000000FF000033FF000066FF000099FF0000CCFF0000FFFF000000003300330033006600330099003300CC003300FF003300003333003333
310
33006633330099333300CC333300FF33330000663300336633006666330099663300CC663300FF66330000993300339933006699330099993300CC993300FF99330000CC330033CC330066CC330099CC3300CCCC3300FFCC330000FF330033FF330066FF330099FF3300CCFF3300FFFF330000006600330066006600660099
310
006600CC006600FF00660000336600333366006633660099336600CC336600FF33660000666600336666006666660099666600CC666600FF66660000996600339966006699660099996600CC996600FF99660000CC660033CC660066CC660099CC6600CCCC6600FFCC660000FF660033FF660066FF660099FF6600CCFF6600
310
FFFF660000009900330099006600990099009900CC009900FF00990000339900333399006633990099339900CC339900FF33990000669900336699006666990099669900CC669900FF66990000999900339999006699990099999900CC999900FF99990000CC990033CC990066CC990099CC9900CCCC9900FFCC990000FF99
310
0033FF990066FF990099FF9900CCFF9900FFFF99000000CC003300CC006600CC009900CC00CC00CC00FF00CC000033CC003333CC006633CC009933CC00CC33CC00FF33CC000066CC003366CC006666CC009966CC00CC66CC00FF66CC000099CC003399CC006699CC009999CC00CC99CC00FF99CC0000CCCC0033CCCC0066CC
310
CC0099CCCC00CCCCCC00FFCCCC0000FFCC0033FFCC0066FFCC0099FFCC00CCFFCC00FFFFCC000000FF003300FF006600FF009900FF00CC00FF00FF00FF000033FF003333FF006633FF009933FF00CC33FF00FF33FF000066FF003366FF006666FF009966FF00CC66FF00FF66FF000099FF003399FF006699FF009999FF00CC
310
99FF00FF99FF0000CCFF0033CCFF0066CCFF0099CCFF00CCCCFF00FFCCFF0000FFFF0033FFFF0066FFFF0099FFFF00CCFFFF00FFFFFF00000000000D0D0D001A1A1A00282828003535350043434300505050005D5D5D006B6B6B00787878008686860093939300A1A1A100AEAEAE00BBBBBB00C9C9C900D6D6D600E4E4E400
310
F1F1F100FFFFFF0000000000000000000000000000000000000000000000000000000000000000000000000000000000E2E2E2E2E2E2E2E2E2E2E2E2E2E2E2E2E2E2E2E2E2E2E2E2E2E2E2E2E2E2E2E2E2E2E2E2E2E2E2E2E2E2E2E2E2E2E2E2E2E2E2E2E2E2E2E2E2E2E2E2E2E2E2E2E2E2E2E2E2E2E2E2E2E2E2E2E2E2E2
310
E2E2E2E2E2E2E2E2E2E2E2E2E2E2E2E2E2E2E2E2E2E2E2E2E2E2E2E2E2E2E2E2E2E2E2E2E2E2E2E2E2E2E2E2E2E2E2E2E2E2E2E2E2E2E2E2E2E2E2E2E2E2E2E2E2E2E2E2E2E2E2E2E2E2E2E2E2E2E2E2E2E2E2E2E2E2E2E2E2E2E2E2E2E2E2E2E2E2E2E2EFF5F5F5F5F5F5F5F5F5F5F5F5F5F5F5F5F5F5F5F5F5F5F5F5F5F5
310
F5F5F5F5F5F5F5F5F5F5F5F5F5F5F5F5F5F5F5F5F5F5F5F5F5F5F5F5F5F5F5F5F5F5F5F5F5F5F5F5F5F5F5F5F5F5F5F5F5F5F5F5F5F5F5F5F5F5F5F5F5F5F5F5F5F5F5F5F5F5F5F5F5F5F5F5F5F5F5F5F5F5F5F5F5F5F5F5F5F5F5F5F5F5F5F5F5F5F5F5F5F5F5F5F5F5F5F5F5F5F5F5F5F5F5F5F5F5F5F5F5F5F5F5F5F5F5
310
F5F5F5F5F5F5F5F5F5F5F5F5F5F5F5F5F5F5F5F5F5F5F5F5E2E2EFF5F5F5F5F5F5F5F5F5F5F5F5F5F5F5F5F5F5F5F5F5F5F5F5F5F5F5F5F5F5F5F5F5F5F5F5F5F5F5F5F5F5F5F5F5F5F5F5F5F5F5F5F5F5F5F5F5F5F5F5F5F5F5F5F5F5F5F5F5F5F5F5F5F5F5F5F5F5F5F5F5F5F5F5F5F5F5F5F5F5F5F5F5F5F5F5F5F5F5F5
310
F5F5F5F5F5F5F5F5F5F5F5F5F5F5F5F5F5F5F5F5F5F5F5F5F5F5F5F5F5F5F5F5F5F5F5F5F5F5F5F5F5F5F5F5F5F5F5F5F5F5F5F5F5F5F5F5F5F5F5F5F5F5F5F5F5F5F5F5F5F5F5F5F5F5F5F5F5E2E2EFF5F5F5F5F5F5F5F5F5F5F5F5F5F5F5F5F5F5F5F5F5F5F5F5F5F5F5F5F5F5F5F5F5F5F5F5F5F5F5F5F5F5F5F5F5F5F5
310
F5F5F5F5F5F5F5F5F5F5F5F5F5F5F5F5F5F5F5F5F5F5F5F5F5F5F5F5F5F5F5F5F5F5F5F5F5F5F5F5F5F5F5F5F5F5F5F5F5F5F5F5F5F5F5F5F5F5F5F5F5F5F5F5F5F5F5F5F5F5F5F5F5F5F5F5F5F5F5F5F5F5F5F5F5F5F5F5F5F5F5F5F5F5F5F5F5F5F5F5F5F5F5F5F5F5F5F5F5F5F5F5F5F5F5F5F5F5F5F5F5F5F5F5F5F5F5
310
F5F5F5E2E2EFF5F5F5E2E2E2E2E2E2E2E2F5F5F5F5F5F5F5F5F5E2E2E2E2E2E2E2E2E2E2E2E2E2E2E2E2F5F5F5F5F5F5F5F5E2E2E2E2E2E2E2E2E2E2E2E2E2E2E2E2F5F5F5F5F5F5F5F5F5E2E2E2E2E2E2E2E2E2E2E2E2E2E2E2F5F5F5F5F5F5F5F5F5E2E2E2E2E2E2E2E2E2E2E2E2E2E2E2F5F5F5F5F5F5F5F5F5E2E2E2E2
310
E2E2E2E2E2E2E2E2E2E2E2E2F5F5F5F5F5F5F5F5E2E2E2E2E2E2E2E2E2E2E2E2E2E2E2E2F5F5F5F5F5F5F5F5F5E2E2E2E2E2E2E2E2F5F5F5E2E2EFF5F5F5E2F5F5F5F5F5F5F5F5F5F5F5F5F5F5F5F5F5F5F5F5F5F5F5F5F5F5F5F5F5F5F5F5F5F5F5F5F5F5F5F5F5F5F5F5F5F5F5F5F5F5F5F5F5F5F5F5F5F5F5F5F5F5F5F5
310
F5F5F5F5F5F5F5F5F5F5F5F5F5F5F5F5F5F5F5F5F5F5F5F5F5F5F5F5F5F5F5F5F5F5F5F5F5F5F5F5F5F5F5F5F5F5F5F5F5F5F5F5F5F5F5F5F5F5F5F5F5F5F5F5F5F5F5F5F5F5F5F5F5F5F5F5F5F5F5F5F5F5F5F5F5F5F5F5F5F5F5F5F5F5F5F5F5F5F5F5F5F5F5F5F5E2F5F5F5E2E2EFF5F5F5E2F5F5F5F5F5F5F5F5F5F5F5
310
F5F5F5F5F5F5F5F5F5F5F5F5F5F5F5F5F5F5F5F5F5F5F5F5F5F5F5F5F5F5F5F5F5F5F5F5F5F5F5F5F5F5F5F5F5F5F5F5F5F5F5F5F5F5F5F5F5F5F5F5F5F5F5F5F5F5F5F5F5F5F5F5F5F5F5F5F5F5F5F5F5F5F5F5F5F5F5F5F5F5F5F5F5F5F5F5F5F5F5F5F5F5F5F5F5F5F5F5F5F5F5F5F5F5F5F5F5F5F5F5F5F5F5F5F5F5F5
310
F5F5F5F5F5F5F5F5F5F5F5F5F5F5F5F5F5F5F5F5F5F5F5F5F5F5F5F5F5F5F5E2F5F5F5E2E2EFF5F5F5E2F5F5F5F5F5F5F5F5F5F5F5F5F5F5F5F5F5F5F5F5F5F5F5F5F5F5F5F5F5F5F5F5F5F5F5F5F5F5F5F5F5F5F5F5F5F5F5F5F5F5F5F5F5F5F5F5F5F5F5F5F5F5F5F5F5F5F5F5F5F5F5F5F5F5F5F5F5F5F5F5F5F5F5F5F5
310
F5F5F5F5F5F5F5F5F5F5F5F5F5F5F5F5F5F5F5F5F5F5F5F5F5F5F5F5F5F5F5F5F5F5F5F5F5F5F5F5F5F5F5F5F5F5F5F5F5F5F5F5F5F5F5F5F5F5F5F5F5F5F5F5F5F5F5F5F5F5F5F5F5F5F5F5F5F5F5F5F5F5F5F5E2F5F5F5E2E2EFF5F5F5E2F5F5F5F5F5F5F5F5F5F5F5F5F5F5F5F5F5F5F5F5F5F5F5F5F5F5F5F5F5F5F5F5
310
F5F5F5F5F5F5F5F5F5F5F5F5F5F5F5F5F5F5F5F5F5F5F5F5F5F5F5F5F5F5F5F5F5F5F5F5F5F5F5F5F5F5F5F5F5F5F5F5F5F5F5F5F5F5F5F5F5F5F5F5F5F5F5F5F5F5F5F5F5F5F5F5F5F5F5F5F5F5F5F5F5F5F5F5F5F5F5F5F5F5F5F5F5F5F5F5F5F5F5F5F5F5F5F5F5F5F5F5F5F5F5F5F5F5F5F5F5F5F5F5F5F5F5F5F5F5F5
310
F5F5F5F5F5F5F5F5F5F5E2F5F5F5E2E2EFF5F5F5E2F5F5F5F5F5F5F5F5F5F5F5F5F5F5F5F5F5F5F5F5F5F5F5F5F5F5F5F5F5F5F5F5F5F5F5F5F5F5F5F5F5F5F5F5F5F5F5F5F5F5F5F5F5F5F5F5F5F5F5F5F5F5F5F5F5F5F5F5F5F5F5F5F5F5F5F5F5F5F5F5F5F5F5F5F5F5F5F5F5F5F5F5F5F5F5F5F5F5F5F5F5F5F5F5F5F5
310
F5F5F5F5F5F5F5F5F5F5F5F5F5F5F5F5F5F5F5F5F5F5F5F5F5F5F5F5F5F5F5F5F5F5F5F5F5F5F5F5F5F5F5F5F5F5F5F5F5F5F5F5F5F5F5F5F5F5F5F5F5F5F5E2F5F5F5E2E2EFF5F5F5E2F5F5F5F5F5F5F5F5F5F5F5F5F5F5F5F5F5F5F5F5F5F5F5F5F5F5F5F5F5F5F5F5F5F5F5F5F5F5F5F5F5F5F5F5F5F5F5F5F5F5F5F5F5
310
F5F5F5F5F5F5F5F5F5F5F5F5F5F5F5F5F5F5F5F5F5F5F5F5F5F5F5F5F5F5F5F5F5F5F5F5F5F5F5F5F5F5F5F5F5F5F5F5F5F5F5F5F5F5F5F5F5F5F5F5F5F5F5F5F5F5F5F5F5F5F5F5F5F5F5F5F5F5F5F5F5F5F5F5F5F5F5F5F5F5F5F5F5F5F5F5F5F5F5F5F5F5F5F5F5F5F5F5F5F5F5F5F5F5F5F5E2F5F5F5E2E2EFF5F5F5E2
310
F5F5F5F5F5F5F5F5F5F5F5F5F5F5F5F5F5F5F5F5F5F5F5F5F5F5F5F5F5F5F5F5F5F5F5F5F5F5F5F5F5F5F5F5F5F5F5F5F5F5F5F5F5F5F5F5F5F5F5F5F5F5F5F5F5F5F5F5F5F5F5F5F5F5F5F5F5F5F5F5F5F5F5F5F5F5F5F5F5F5F5F5F5F5F5F5F5F5F5F5F5F5F5F5F5F5F5F5F5F5F5F5F5F5F5F5F5F5F5F5F5F5F5F5F5F5F5
310
F5F5F5F5F5F5F5F5F5F5F5F5F5F5F5F5F5F5F5F5F5F5F5F5F5F5F5F5F5F5F5F5F5F5F5F5F5F5F5F5F5F5E2F5F5F5E2E2EFF5F5F5E2F5F5F5F5F5F5F5F5F5F5F5F5F5F5F5F5F5F5F5F5F5F5F5F5F5F5F5F5F5F5F5F5F5F5F5F5F5F5F5F5F5F5F5F5F5F5F5F5F5F5F5F5F5F5F5F5F5F5F5F5F5F5F5F5F5F5F5F5F5F5F5F5F5F5
310
F5F5F5F5F5F5F5F5F5F5F5F5F5F5F5F5F5F5F5F5F5F5F5F5F5F5F5F5F5F5F5F5F5F5F5F5F5F5F5F5F5F5F5F5F5F5F5F5F5F5F5F5F5F5F5F5F5F5F5F5F5F5F5F5F5F5F5F5F5F5F5F5F5F5F5F5F5F5F5F5F5F5F5F5F5F5F5F5F5F5F5F5F5F5F5E2F5F5F5E2E2EFF5F5F5F5F5F5F5F5F5F5F5F5F5F5F5F5F5F5F5F5F5F5F5F5F5
310
F5F5F5F5F5F5F5F5F5F5F5F5F5F5F5F5F5F5F5F5F5F5F5F5F5F5F5F5F5F5F5F5F5F5F5F5F5F5F5F5F5F5F5F5F5F5F5F5F5F5F5F5F5F5F5F5F5F5F5F5F5F5F5F5F5F5F5F5F5F5F5F5F5F5F5F5F5F5F5F5F5F5F5F5F5F5F5F5F5F5F5F5F5F5F5F5F5F5F5F5F5F5F5F5F5F5F5F5F5F5F5F5F5F5F5F5F5F5F5F5F5F5F5F5F5F5F5
310
F5F5F5F5F5F5F5F5F5F5F5F5F5F5F5F5F5F5F5F5F5F5F5F5F5E2E2EFF5F5F5F5F5F5F5F5F5F5F5F5F5F5F5F5F5F5F5F5F5F5F5F5F5F5F5F5F5F5F5F5F5F5F5F5F5F5F5F5F5F5F5F5F5F5F5F5F5F5F5F5F5F5F5F5F5F5F5F5F5F5F5F5F5F5F5F5F5F5F5F5F5F5F5F5F5F5F5F5F5F5F5F5F5F5F5F5F5F5F5F5F5F5F5F5F5F5F5
310
F5F5F5F5F5F5F5F5F5F5F5F5F5F5F5F5F5F5F5F5F5F5F5F5F5F5F5F5F5F5F5F5F5F5F5F5F5F5F5F5F5F5F5F5F5F5F5F5F5F5F5F5F5F5F5F5F5F5F5F5F5F5F5F5F5F5F5F5F5F5F5F5F5F5F5F5F5F5E2E2EFF5F5F5F5F5F5F5F5F5F5F5F5F5F5F5F5F5F5F5F5F5F5F5F5F5F5F5F5F5F5F5F5F5F5F5F5F5F5F5F5F5F5F5F5F5F5
310
F5F5F5F5F5F5F5F5F5F5F5F5F5F5F5F5F5F5F5F5F5F5F5F5F5F5F5F5F5F5F5F5F5F5F5F5F5F5F5F5F5F5F5F5F5F5F5F5F5F5F5F5F5F5F5F5F5F5F5F5F5F5F5F5F5F5F5F5F5F5F5F5F5F5F5F5F5F5F5F5F5F5F5F5F5F5F5F5F5F5F5F5F5F5F5F5F5F5F5F5F5F5F5F5F5F5F5F5F5F5F5F5F5F5F5F5F5F5F5F5F5F5F5F5F5F5F5
310
F5F5F5F5E2E2EFF5F5F5F5F5F5F5F5F5F5F5F5F5F5F5F5F5F5F5F5F5F5F5F5F5F5F5F5F5F5F5F5F5F5F5F5F5F5F5F5F5F5F5F5F5F5F5F5F5F5F5F5F5F5F5F5F5F5F5F5F5F5F5F5F5F5F5F5F5F5F5F5F5F5F5F5F5F5F5F5F5F5F5F5F5F5F5F5F5F5F5F5F5F5F5F5F5F5F5F5F5F5F5F5F5F5F5F5F5F5F5F5F5F5F5F5F5F5F5F5
310
F5F5F5F5F5F5F5F5F5F5F5F5F5F5F5F5F5F5F5F5F5F5F5F5F5F5F5F5F5F5F5F5F5F5F5F5F5F5F5F5F5F5F5F5F5F5F5F5F5F5F5F5F5F5F5F5F5E2E2EFF5F5F5F5F5F5F5F5F5F5F5F5F5F5F5F5F5F5F5F5E2E2E2E2E2E2E2E2E2E2E2E2E2E2E2E2E2E2E2E2E2E2E2E2E2E2E2E2E2E2E2E2E2E2E2E2E2E2E2E2E2E2E2E2E2E2E2
310
E2E2E2E2E2E2E2E2E2E2E2E2E2E2E2E2E2E2E2E2E2E2E2E2E2E2E2E2E2E2E2E2E2E2E2E2E2E2E2E2E2E2E2E2E2E2E2E2E2E2E2E2E2E2E2E2E2E2E2E2E2E2E2E2E2E2E2E2E2E2E2E2E2E2E2E2E2E2E2E2E2E2E2E2E2E2E2E2E2E2F5F5F5F5F5F5F5F5F5F5F5F5F5F5F5F5F5F5F5F5E2E2EFF5F5F5F5F5F5F5F5F5F5F5F5F5F5
310
F5F5F5F5F5F5E2F5F5F5F5F5F5F5F5F5F5F5F5F5F5F5F5F5F5F5F5F5F5F5F5F5F5F5F5F5F5F5F5F5F5F5F5F5F5F5F5F5F5F5F5F5F5F5F5F5F5F5F5F5F5F5F5F5F5F5F5F5F5F5F5F5F5F5F5F5F5F5F5F5F5F5F5F5F5F5F5F5F5F5F5F5F5F5F5F5F5F5F5F5F5F5F5F5F5F5F5F5F5F5F5F5F5F5F5F5F5F5F5F5F5F5F5F5F5F5F5
310
F5F5F5F5F5F5F5F5F5F5F5F5F5F5F5E2F5F5F5F5F5F5F5F5F5F5F5F5F5F5F5F5F5F5F5F5E2E2EFF5F5F5F5F5F5F5F5F5F5F5F5F5F5F5F5F5F5F5F5E2F5F5F5F5F5F5F5F5F5F5F5F5F5F5F5F5F5F5F5F5F5F5F5F5F5F5F5F5F5F5F5F5F5F5F5F5F5F5F5F5F5F5F5F5F5F5F5F5F5F5F5F5F5F5F5F5F5F5F5F5F5F5F5F5F5F5F5
310
F5F5F5F5F5F5F5F5F5F5F5F5F5F5F5F5F5F5F5F5F5F5F5F5F5F5F5F5F5F5F5F5F5F5F5F5F5F5F5F5F5F5F5F5F5F5F5F5F5F5F5F5F5F5F5F5F5F5F5F5F5F5F5F5F5F5F5F5E2F5F5F5F5F5F5F5F5F5F5F5F5F5F5F5F5F5F5F5F5E2E2EFF5F5F5F5F5F5F5F5F5F5F5F5F5F5F5F5F5F5F5F5E2F5F5F5F5F5F5F5F5F5F5F5F5F5F5
310
F5F5F5F5F5F5F5F5F5F5F5F5F5F5F5F5F5F5F5F5F5F5F5F5F5F5F5F5F5F5F5F5F5F5F5F5F5F5F5F5F5F5F5F5F5F5F5F5F5F5F5F5F5F5F5F5F5F5F5F5F5F5F5F5F5F5F5F5F5F5F5F5F5F5F5F5F5F5F5F5F5F5F5F5F5F5F5F5F5F5F5F5F5F5F5F5F5F5F5F5F5F5F5F5F5F5F5F5F5F5F5F5F5F5F5F5F5F5F5F5F5E2F5F5F5F5F5
310
F5F5F5F5F5F5F5F5F5F5F5F5F5F5F5E2E2EFF5F5F5F5F5F5F5F5F5F5F5F5F5F5F5F5F5F5F5F5E2F5F5F5F5F5F5F5F5F5F5F5F5F5F5F5F5F5F5F5F5F5F5F5F5F5F5F5F5F5F5F5F5F5F5F5F5F5F5F5F5F5F5F5F5F5F5F5F5F5F5F5F5F5F5F5F5F5F5F5F5F5F5F5F5F5F5F5F5F5F5F5F5F5F5F5F5F5F5F5F5F5F5F5F5F5F5F5F5
310
F5F5F5F5F5F5F5F5F5F5F5F5F5F5F5F5F5F5F5F5F5F5F5F5F5F5F5F5F5F5F5F5F5F5F5F5F5F5F5F5F5F5F5F5F5F5F5E2F5F5F5F5F5F5F5F5F5F5F5F5F5F5F5F5F5F5F5F5E2E2EFF5F5F5E2F5F5F5F5F5F5F5F5F5F5F5F5F5F5F5F5E2F5F5F5F5F5F5F5F5F5F5F5F5F5F5F5F5F5F5F5F5F5F5F5F5F5F5F5F5F5F5F5F5F5F5F5
310
F5F5F5F5F5F5F5F5F5F5F5F5F5F5F5F5F5F5F5F5F5F5F5F5F5F5F5F5F5F5F5F5F5F5F5F5F5F5F5F5F5F5F5F5F5F5F5F5F5F5F5F5F5F5F5F5F5F5F5F5F5F5F5F5F5F5F5F5F5F5F5F5F5F5F5F5F5F5F5F5F5F5F5F5F5F5F5F5F5F5F5F5F5F5F5F5F5F5F5F5E2F5F5F5F5F5F5F5F5F5F5F5F5F5F5F5F5E2F5F5F5E2E2EFF5F5F5
310
E2F5F5F5F5F5F5F5F5F5F5F5F5F5F5F5F5E2F5F5F5F5F5F5F5F5F5F5F5F5F5F5F5F5F5F5F5F5F5F5F5F5F5F5F5F5F5F5F5F5F5F5F5F5F5F5F5F5F5F5F5F5F5F5F5F5F5F5F5F5F5F5F5F5F5F5F5F5F5F5F5F5F5F5F5F5F5F5F5F5F5F5F5F5F5F5F5F5F5F5F5F5F5F5F5F5F5F5F5F5F5F5F5F5F5F5F5F5F5F5F5F5F5F5F5F5F5
310
F5F5F5F5F5F5F5F5F5F5F5F5F5F5F5F5F5F5F5F5F5F5F5F5F5F5E2F5F5F5F5F5F5F5F5F5F5F5F5F5F5F5F5E2F5F5F5E2E2EFF5F5F5E2F5F5F5F5F5F5F5F5F5F5F5F5F5F5F5F5E2F5F5F5F5F5F5F5F5F5F5F5F5F5F5F5F5F5F5F5F5F5F5F5F5F5F5F5F5F5F5F5F5F5F5F5F5F5F5F5F5F5F5F5F5F5F5F5F5F5F5F5F5F5F5F5F5
310
F5F5F5F5F5F5F5F5F5F5F5F5F5F5F5F5F5F5F5F5F5F5F5F5F5F5F5F5F5F5F5F5F5F5F5F5F5F5F5F5F5F5F5F5F5F5F5F5F5F5F5F5F5F5F5F5F5F5F5F5F5F5F5F5F5F5F5F5F5F5F5F5F5F5F5F5F5F5F5E2F5F5F5F5F5F5F5F5F5F5F5F5F5F5F5F5E2F5F5F5E2E2EFF5F5F5E2F5F5F5F5F5F5F5F5F5F5F5F5F5F5F5F5E2F5F5F5
310
F5F5F5F5F5F5F5F5F5F5F5F5F5F5F5F5F5F5F5F5F5F5F5F5F5F5F5F5F5F5F5F5F5F5F5F5F5F5F5F5F5F5F5F5F5F5F5F5F5F5F5F5F5F5F5F5F5F5F5F5F5F5F5F5F5F5F5F5F5F5F5F5F5F5F5F5F5F5F5F5F5F5F5F5F5F5F5F5F5F5F5F5F5F5F5F5F5F5F5F5F5F5F5F5F5F5F5F5F5F5F5F5F5F5F5F5F5F5F5F5F5F5F5F5F5F5F5
310
F5F5F5F5F5E2F5F5F5F5F5F5F5F5F5F5F5F5F5F5F5F5E2F5F5F5E2E2EFF5F5F5E2F5F5F5F5F5F5F5F5F5F5F5F5F5F5F5F5E2F5F5F5F5F5F5F5F5F5F5F5F5F5F5F5F5F5F5F5F5F5F5F5F5F5F5F5F5F5F5F5F5F5F5F5F5F5F5F5F5F5F5F5F5F5F5F5F5F5F5F5F5F5F5F5F5F5F5F5F5F5F5F5F5F5F5F5F5F5F5F5F5F5F5F5F5F5
310
F5F5F5F5F5F5F5F5F5F5F5F5F5F5F5F5F5F5F5F5F5F5F5F5F5F5F5F5F5F5F5F5F5F5F5F5F5F5F5F5F5F5F5F5F5F5F5F5F5F5F5F5F5F5F5F5F5F5E2F5F5F5F5F5F5F5F5F5F5F5F5F5F5F5F5E2F5F5F5E2E2EFF5F5F5E2F5F5F5F5F5F5F5F5F5F5F5F5F5F5F5F5E2F5F5F5F5F5F5F5F5F5F5F5F5F5F5F5F5F5F5F5F5F5F5F5F5
310
F5F5F5F5F5F5F5F5F5F5F5F5F5F5F5F5F5F5F5F5F5F5F5F5F5F5F5F5F5F5F5F5F5F5F5F5F5F5F5F5F5F5F5F5F5F5F5F5F5F5F5F5F5F5F5F5F5F5F5F5F5F5F5F5F5F5F5F5F5F5F5F5F5F5F5F5F5F5F5F5F5F5F5F5F5F5F5F5F5F5F5F5F5F5F5F5F5F5F5F5F5F5F5F5F5F5F5F5F5F5F5E2F5F5F5F5F5F5F5F5F5F5F5F5F5F5F5
310
F5E2F5F5F5E2E2EFF5F5F5E2F5F5F5F5F5F5F5F5F5F5F5F5F5F5F5F5E2F5F5F5F5F5F5F5F5F5F5F5F5F5F5F5F5F5F5F5F5F5F5F5F5F5F5F5F5F5F5F5F5F5F5F5F5F5F5F5F5F5F5F5F5F5F5F5F5F5F5F5F5F5F5F5F5F5F5F5F5F5F5F5F5F5F5F5F5F5F5F5F5F5F5F5F5F5F5F5F5F5F5F5F5F5F5F5F5F5F5F5F5F5F5F5F5F5F5
310
F5F5F5F5F5F5F5F5F5F5F5F5F5F5F5F5F5F5F5F5F5F5F5F5F5F5F5F5F5F5F5F5F5F5F5F5F5E2F5F5F5F5F5F5F5F5F5F5F5F5F5F5F5F5E2F5F5F5E2E2EFF5F5F5E2F5F5F5F5F5F5F5F5F5F5F5F5F5F5F5F5E2F5F5F5F5F5F5F5F5F5F5F5F5F5F5F5F5F5F5F5F5F5F5F5F5F5F5F5F5F5F5F5F5F5F5F5F5F5F5F5F5F5F5F5F5F5
310
F5F5F5F5F5F5F5F5F5F5F5F5F5F5F5F5F5F5F5F5F5F5F5F5F5F5F5F5F5F5F5F5F5F5F5F5F5F5F5F5F5F5F5F5F5F5F5F5F5F5F5F5F5F5F5F5F5F5F5F5F5F5F5F5F5F5F5F5F5F5F5F5F5F5F5F5F5F5F5F5F5F5F5F5F5F5F5F5F5F5E2F5F5F5F5F5F5F5F5F5F5F5F5F5F5F5F5E2F5F5F5E2E2EFF5F5F5E2F5F5F5F5F5F5F5F5F5
310
F5F5F5F5F5F5F5E2F5F5F5F5F5F5F5F5F5F5F5F5F5F5F5F5F5F5F5F5F5F5F5F5F5F5F5F5F5F5F5F5F5F5F5F5F5F5F5F5F5F5F5F5F5F5F5F5F5F5F5F5F5F5F5F5F5F5F5F5F5F5F5F5F5F5F5F5F5F5F5F5F5F5F5F5F5F5F5F5F5F5F5F5F5F5F5F5F5F5F5F5F5F5F5F5F5F5F5F5F5F5F5F5F5F5F5F5F5F5F5F5F5F5F5F5F5F5F5
310
F5F5F5F5F5F5F5F5F5F5F5F5F5F5F5F5E2F5F5F5F5F5F5F5F5F5F5F5F5F5F5F5F5E2F5F5F5E2E2EFF5F5F5E2F5F5F5F5F5F5F5F5F5F5F5F5F5F5F5F5E2F5F5F5F5F5F5F5F5F5F5F5F5F5F5F5F5F5F5F5F5F5F5F5F5F5F5F5F5F5F5F5F5F5F5F5F5F5F5F5F5F5F5F5F5F5F5F5F5F5F5F5F5F5F5F5F5F5F5F5F5F5F5F5F5F5F5
310
F5F5F5F5F5F5F5F5F5F5F5F5F5F5F5F5F5F5F5F5F5F5F5F5F5F5F5F5F5F5F5F5F5F5F5F5F5F5F5F5F5F5F5F5F5F5F5F5F5F5F5F5F5F5F5F5F5F5F5F5F5F5F5F5F5F5F5F5F5E2F5F5F5F5F5F5F5F5F5F5F5F5F5F5F5F5E2F5F5F5E2E2EFF5F5F5E2F5F5F5F5F5F5F5F5F5F5F5F5F5F5F5F5E2F5F5F5F5F5F5F5F5F5F5F5F5F5
310
F5F5F5F5F5F5F5F5F5F5F5F5F5F5F5F5F5F5F5F5F5F5F5F5F5F5F5F5F5F5F5F5F5F5F5F5F5F5F5F5F5F5F5F5F5F5F5F5F5F5F5F5F5F5F5F5F5F5F5F5F5F5F5F5F5F5F5F5F5F5F5F5F5F5F5F5F5F5F5F5F5F5F5F5F5F5F5F5F5F5F5F5F5F5F5F5F5F5F5F5F5F5F5F5F5F5F5F5F5F5F5F5F5F5F5F5F5F5F5F5F5F5E2F5F5F5F5
310
F5F5F5F5F5F5F5F5F5F5F5F5E2F5F5F5E2E2EFF5F5F5E2F5F5F5F5F5F5F5F5F5F5F5F5F5F5F5F5E2F5F5F5F5F5F5F5F5F5F5F5F5F5F5F5F5F5F5F5F5F5F5F5F5F5F5F5F5F5F5F5F5F5F5F5F5F5F5F5F5F5F5F5F5F5F5F5F5F5F5F5F5F5F5F5F5F5F5F5F5F5F5F5F5F5F5F5F5F5F5F5F5F5F5F5F5F5F5F5F5F5F5F5F5F5F5F5
310
F5F5F5F5F5F5F5F5F5F5F5F5F5F5F5F5F5F5F5F5F5F5F5F5F5F5F5F5F5F5F5F5F5F5F5F5F5F5F5F5F5F5F5F5F5F5F5F5E2F5F5F5F5F5F5F5F5F5F5F5F5F5F5F5F5E2F5F5F5E2E2EFF5F5F5E2F5F5F5F5F5F5F5F5F5F5F5F5F5F5F5F5E2F5F5F5F5F5F5F5F5F5F5F5F5F5F5F5F5F5F5F5F5F5F5F5F5F5F5F5F5F5F5F5F5F5F5
310
F5F5F5F5F5F5F5F5F5F5F5F5F5F5F5F5F5F5F5F5F5F5F5F5F5F5F5F5F5F5F5F5F5F5F5F5F5F5F5F5F5F5F5F5F5F5F5F5F5F5F5F5F5F5F5F5F5F5F5F5F5F5F5F5F5F5F5F5F5F5F5F5F5F5F5F5F5F5F5F5F5F5F5F5F5F5F5F5F5F5F5F5F5F5F5F5F5F5F5F5F5E2F5F5F5F5F5F5F5F5F5F5F5F5F5F5F5F5E2F5F5F5E2E2EFF5F5
310
F5E2F5F5F5F5F5F5F5F5F5F5F5F5F5F5F5F5E2F5F5F5F5F5F5F5F5F5F5F5F5F5F5F5F5F5F5F5F5F5F5F5F5F5F5F5F5F5F5F5F5F5F5F5F5F5F5F5F5F5F5F5F5F5F5F5F5F5F5F5F5F5F5F5F5F5F5F5F5F5F5F5F5F5F5F5F5F5F5F5F5F5F5F5F5F5F5F5F5F5F5F5F5F5F5F5F5F5F5F5F5F5F5F5F5F5F5F5F5F5F5F5F5F5F5F5F5
310
F5F5F5F5F5F5F5F5F5F5F5F5F5F5F5F5F5F5F5F5F5F5F5F5F5F5F5E2F5F5F5F5F5F5F5F5F5F5F5F5F5F5F5F5E2F5F5F5E2E2EFF5F5F5E2F5F5F5F5F5F5F5F5F5F5F5F5F5F5F5F5E2F5F5F5F5F5F5F5F5F5F5F5F5F5F5F5F5F5F5F5F5F5F5F5F5F5F5F5F5F5F5F5F5F5F5F5F5F5F5F5F5F5F5F5F5F5F5F5F5F5F5F5F5F5F5F5
310
F5F5F5F5F5F5F5F5F5F5F5F5F5F5F5F5F5F5F5F5F5F5F5F5F5F5F5F5F5F5F5F5F5F5F5F5F5F5F5F5F5F5F5F5F5F5F5F5F5F5F5F5F5F5F5F5F5F5F5F5F5F5F5F5F5F5F5F5F5F5F5F5F5F5F5F5F5F5F5F5E2F5F5F5F5F5F5F5F5F5F5F5F5F5F5F5F5E2F5F5F5E2E2EFF5F5F5E2F5F5F5F5F5F5F5F5F5F5F5F5F5F5F5F5E2F5F5
310
F5F5F5F5F5F5F5F5F5F5F5F5F5F5F5F5F5F5F5F5F5F5F5F5F5F5F5F5F5F5F5F5F5F5F5F5F5F5F5F5F5F5F5F5F5F5F5F5F5F5F5F5F5F5F5F5F5F5F5F5F5F5F5F5F5F5F5F5F5F5F5F5F5F5F5F5F5F5F5F5F5F5F5F5F5F5F5F5F5F5F5F5F5F5F5F5F5F5F5F5F5F5F5F5F5F5F5F5F5F5F5F5F5F5F5F5F5F5F5F5F5F5F5F5F5F5F5
310
F5F5F5F5F5F5E2F5F5F5F5F5F5F5F5F5F5F5F5F5F5F5F5E2F5F5F5E2E2EFF5F5F5E2F5F5F5F5F5F5F5F5F5F5F5F5F5F5F5F5E2F5F5F5F5F5F5F5F5F5F5F5F5F5F5F5F5F5F5F5F5F5F5F5F5F5F5F5F5F5F5F5F5F5F5F5F5F5F5F5F5F5F5F5F5F5F5F5F5F5F5F5F5F5F5F5F5F5F5F5F5F5F5F5F5F5F5F5F5F5F5F5F5F5F5F5F5
310
F5F5F5F5F5F5F5F5F5F5F5F5F5F5F5F5F5F5F5F5F5F5F5F5F5F5F5F5F5F5F5F5F5F5F5F5F5F5F5F5F5F5F5F5F5F5F5F5F5F5F5F5F5F5F5F5F5F5F5E2F5F5F5F5F5F5F5F5F5F5F5F5F5F5F5F5E2F5F5F5E2E2EFF5F5F5F5F5F5F5F5F5F5F5F5F5F5F5F5F5F5F5F5E2F5F5F5F5F5F5F5F5F5F5F5F5F5F5F5F5F5F5F5F5F5F5F5
310
F5F5F5F5F5F5F5F5F5F5F5F5F5F5F5F5F5F5F5F5F5F5F5F5F5F5F5F5F5F5F5F5F5F5F5F5F5F5F5F5F5F5F5F5F5F5F5F5F5F5F5F5F5F5F5F5F5F5F5F5F5F5F5F5F5F5F5F5F5F5F5F5F5F5F5F5F5F5F5F5F5F5F5F5F5F5F5F5F5F5F5F5F5F5F5F5F5F5F5F5F5F5F5F5F5F5F5F5F5F5F5F5E2F5F5F5F5F5F5F5F5F5F5F5F5F5F5
310
F5F5F5F5F5F5E2E2EFF5F5F5F5F5F5F5F5F5F5F5F5F5F5F5F5F5F5F5F5E2F5F5F5F5F5F5F5F5F5F5F5F5F5F5F5F5F5F5F5F5F5F5F5F5F5F5F5F5F5F5F5F5F5F5F5F5F5F5F5F5F5F5F5F5F5F5F5F5F5F5F5F5F5F5F5F5F5F5F5F5F5F5F5F5F5F5F5F5F5F5F5F5F5F5F5F5F5F5F5F5F5F5F5F5F5F5F5F5F5F5F5F5F5F5F5F5F5
310
F5F5F5F5F5F5F5F5F5F5F5F5F5F5F5F5F5F5F5F5F5F5F5F5F5F5F5F5F5F5F5F5F5F5F5F5F5F5E2F5F5F5F5F5F5F5F5F5F5F5F5F5F5F5F5F5F5F5F5E2E2EFF5F5F5F5F5F5F5F5F5F5F5F5F5F5F5F5F5F5F5F5E2F5F5F5F5F5F5F5F5F5F5F5F5F5F5F5F5F5F5F5F5F5F5F5F5F5F5F5F5F5F5F5F5F5F5F5F5F5F5F5F5F5F5F5F5
310
F5F5F5F5F5F5F5F5F5F5F5F5F5F5F5F5F5F5F5F5F5F5F5F5F5F5F5F5F5F5F5F5F5F5F5F5F5F5F5F5F5F5F5F5F5F5F5F5F5F5F5F5F5F5F5F5F5F5F5F5F5F5F5F5F5F5F5F5F5F5F5F5F5F5F5F5F5F5F5F5F5F5F5F5F5F5F5F5F5F5F5E2F5F5F5F5F5F5F5F5F5F5F5F5F5F5F5F5F5F5F5F5E2E2EFF5F5F5F5F5F5F5F5F5F5F5F5
310
F5F5F5F5F5F5F5F5E2F5F5F5F5F5F5F5F5F5F5F5F5F5F5F5F5F5F5F5F5F5F5F5F5F5F5F5F5F5F5F5F5F5F5F5F5F5F5F5F5F5F5F5F5F5F5F5F5F5F5F5F5F5F5F5F5F5F5F5F5F5F5F5F5F5F5F5F5F5F5F5F5F5F5F5F5F5F5F5F5F5F5F5F5F5F5F5F5F5F5F5F5F5F5F5F5F5F5F5F5F5F5F5F5F5F5F5F5F5F5F5F5F5F5F5F5F5F5
310
F5F5F5F5F5F5F5F5F5F5F5F5F5F5F5F5F5E2F5F5F5F5F5F5F5F5F5F5F5F5F5F5F5F5F5F5F5F5E2E2EFF5F5F5F5F5F5F5F5F5F5F5F5F5F5F5F5F5F5F5F5E2F5F5F5F5F5F5F5F5F5F5F5F5F5F5F5F5F5F5F5F5F5F5F5F5F5F5F5F5F5F5F5F5F5F5F5F5F5F5F5F5F5F5F5F5F5F5F5F5F5F5F5F5F5F5F5F5F5F5F5F5F5F5F5F5F5
310
F5F5F5F5F5F5F5F5F5F5F5F5F5F5F5F5F5F5F5F5F5F5F5F5F5F5F5F5F5F5F5F5F5F5F5F5F5F5F5F5F5F5F5F5F5F5F5F5F5F5F5F5F5F5F5F5F5F5F5F5F5F5F5F5F5F5F5F5F5F5E2F5F5F5F5F5F5F5F5F5F5F5F5F5F5F5F5F5F5F5F5E2E2EFF5F5F5F5F5F5F5F5F5F5F5F5F5F5F5F5F5F5F5F5E2F5F5F5F5F5F5F5F5F5F5F5F5
310
F5F5F5F5F5F5F5F5F5F5F5F5F5F5F5F5F5F5F5F5F5F5F5F5F5F5F5F5F5F5F5F5F5F5F5F5F5F5F5F5F5F5F5F5F5F5F5F5F5F5F5F5F5F5F5F5F5F5F5F5F5F5F5F5F5F5F5F5F5F5F5F5F5F5F5F5F5F5F5F5F5F5F5F5F5F5F5F5F5F5F5F5F5F5F5F5F5F5F5F5F5F5F5F5F5F5F5F5F5F5F5F5F5F5F5F5F5F5F5F5F5F5F5E2F5F5F5
310
F5F5F5F5F5F5F5F5F5F5F5F5F5F5F5F5F5E2E2EFF5F5F5F5F5F5F5F5F5F5F5F5F5F5F5F5F5F5F5F5E2F5F5F5F5F5F5F5F5F5F5F5F5F5F5F5F5F5F5F5F5F5F5F5F5F5F5F5F5F5F5F5F5F5F5F5F5F5F5F5F5F5F5F5F5F5F5F5F5F5F5F5F5F5F5F5F5F5F5F5F5F5F5F5F5F5F5F5F5F5F5F5F5F5F5F5F5F5F5F5F5F5F5F5F5F5F5
310
F5F5F5F5F5F5F5F5F5F5F5F5F5F5F5F5F5F5F5F5F5F5F5F5F5F5F5F5F5F5F5F5F5F5F5F5F5F5F5F5F5F5F5F5F5F5F5F5F5E2F5F5F5F5F5F5F5F5F5F5F5F5F5F5F5F5F5F5F5F5E2E2EFF5F5F5F5F5F5F5F5F5F5F5F5F5F5F5F5F5F5F5F5E2F5F5F5F5F5F5F5F5F5F5F5F5F5F5F5F5F5F5F5F5F5F5F5F5F5F5F5F5F5F5F5F5F5
310
F5F5F5F5F5F5F5F5F5F5F5F5F5F5F5F5F5F5F5F5F5F5F5F5F5F5F5F5F5F5F5F5F5F5F5F5F5F5F5F5F5F5F5F5F5F5F5F5F5F5F5F5F5F5F5F5F5F5F5F5F5F5F5F5F5F5F5F5F5F5F5F5F5F5F5F5F5F5F5F5F5F5F5F5F5F5F5F5F5F5F5F5F5F5F5F5F5F5F5F5F5F5E2F5F5F5F5F5F5F5F5F5F5F5F5F5F5F5F5F5F5F5F5E2E2EFF5
310
F5F5F5F5F5F5F5F5F5F5F5F5F5F5F5F5F5F5F5E2F5F5F5F5F5F5F5F5F5F5F5F5F5F5F5F5F5F5F5F5F5F5F5F5F5F5F5F5F5F5F5F5F5F5F5F5F5F5F5F5F5F5F5F5F5F5F5F5F5F5F5F5F5F5F5F5F5F5F5F5F5F5F5F5F5F5F5F5F5F5F5F5F5F5F5F5F5F5F5F5F5F5F5F5F5F5F5F5F5F5F5F5F5F5F5F5F5F5F5F5F5F5F5F5F5F5F5
310
F5F5F5F5F5F5F5F5F5F5F5F5F5F5F5F5F5F5F5F5F5F5F5F5F5F5F5F5E2F5F5F5F5F5F5F5F5F5F5F5F5F5F5F5F5F5F5F5F5E2E2EFF5F5F5E2F5F5F5F5F5F5F5F5F5F5F5F5F5F5F5F5E2F5F5F5F5F5F5F5F5F5F5F5F5F5F5F5F5F5F5F5F5F5F5F5F5F5F5F5F5F5F5F5F5F5F5F5F5F5F5F5F5F5F5F5F5F5F5F5F5F5F5F5F5F5F5
310
F5F5F5F5F5F5F5F5F5F5F5F5F5F5F5F5F5F5F5F5F5F5F5F5F5F5F5F5F5F5F5F5F5F5F5F5F5F5F5F5F5F5F5F5F5F5F5F5F5F5F5F5F5F5F5F5F5F5F5F5F5F5F5F5F5F5F5F5F5F5F5F5F5F5F5F5F5F5F5F5F5E2F5F5F5F5F5F5F5F5F5F5F5F5F5F5F5F5E2F5F5F5E2E2EFF5F5F5E2F5F5F5F5F5F5F5F5F5F5F5F5F5F5F5F5E2F5
310
F5F5F5F5F5F5F5F5F5F5F5F5F5F5F5F5F5F5F5F5F5F5F5F5F5F5F5F5F5F5F5F5F5F5F5F5F5F5F5F5F5F5F5F5F5F5F5F5F5F5F5F5F5F5F5F5F5F5F5F5F5F5F5F5F5F5F5F5F5F5F5F5F5F5F5F5F5F5F5F5F5F5F5F5F5F5F5F5F5F5F5F5F5F5F5F5F5F5F5F5F5F5F5F5F5F5F5F5F5F5F5F5F5F5F5F5F5F5F5F5F5F5F5F5F5F5F5
310
F5F5F5F5F5F5F5E2F5F5F5F5F5F5F5F5F5F5F5F5F5F5F5F5E2F5F5F5E2E2EFF5F5F5E2F5F5F5F5F5F5F5F5F5F5F5F5F5F5F5F5E2F5F5F5F5F5F5F5F5F5F5F5F5F5F5F5F5F5F5F5F5F5F5F5F5F5F5F5F5F5F5F5F5F5F5F5F5F5F5F5F5F5F5F5F5F5F5F5F5F5F5F5F5F5F5F5F5F5F5F5F5F5F5F5F5F5F5F5F5F5F5F5F5F5F5F5
310
F5F5F5F5F5F5F5F5F5F5F5F5F5F5F5F5F5F5F5F5F5F5F5F5F5F5F5F5F5F5F5F5F5F5F5F5F5F5F5F5F5F5F5F5F5F5F5F5F5F5F5F5F5F5F5F5F5F5F5F5E2F5F5F5F5F5F5F5F5F5F5F5F5F5F5F5F5E2F5F5F5E2E2EFF5F5F5E2F5F5F5F5F5F5F5F5F5F5F5F5F5F5F5F5E2F5F5F5F5F5F5F5F5F5F5F5F5F5F5F5F5F5F5F5F5F5F5
310
F5F5F5F5F5F5F5F5F5F5F5F5F5F5F5F5F5F5F5F5F5F5F5F5F5F5F5F5F5F5F5F5F5F5F5F5F5F5F5F5F5F5F5F5F5F5F5F5F5F5F5F5F5F5F5F5F5F5F5F5F5F5F5F5F5F5F5F5F5F5F5F5F5F5F5F5F5F5F5F5F5F5F5F5F5F5F5F5F5F5F5F5F5F5F5F5F5F5F5F5F5F5F5F5F5F5F5F5F5F5F5F5F5E2F5F5F5F5F5F5F5F5F5F5F5F5F5
310
F5F5F5E2F5F5F5E2E2EFF5F5F5E2F5F5F5F5F5F5F5F5F5F5F5F5F5F5F5F5E2F5F5F5F5F5F5F5F5F5F5F5F5F5F5F5F5F5F5F5F5F5F5F5F5F5F5F5F5F5F5F5F5F5F5F5F5F5F5F5F5F5F5F5F5F5F5F5F5F5F5F5F5F5F5F5F5F5F5F5F5F5F5F5F5F5F5F5F5F5F5F5F5F5F5F5F5F5F5F5F5F5F5F5F5F5F5F5F5F5F5F5F5F5F5F5F5
310
F5F5F5F5F5F5F5F5F5F5F5F5F5F5F5F5F5F5F5F5F5F5F5F5F5F5F5F5F5F5F5F5F5F5F5F5F5F5F5E2F5F5F5F5F5F5F5F5F5F5F5F5F5F5F5F5E2F5F5F5E2E2EFF5F5F5E2F5F5F5F5F5F5F5F5F5F5F5F5F5F5F5F5E2F5F5F5F5F5F5F5F5F5F5F5F5F5F5F5F5F5F5F5F5F5F5F5F5F5F5F5F5F5F5F5F5F5F5F5F5F5F5F5F5F5F5F5
310
F5F5F5F5F5F5F5F5F5F5F5F5F5F5F5F5F5F5F5F5F5F5F5F5F5F5F5F5F5F5F5F5F5F5F5F5F5F5F5F5F5F5F5F5F5F5F5F5F5F5F5F5F5F5F5F5F5F5F5F5F5F5F5F5F5F5F5F5F5F5F5F5F5F5F5F5F5F5F5F5F5F5F5F5F5F5F5F5F5F5F5F5E2F5F5F5F5F5F5F5F5F5F5F5F5F5F5F5F5E2F5F5F5E2E2EFF5F5F5E2F5F5F5F5F5F5F5
310
F5F5F5F5F5F5F5F5F5E2F5F5F5F5F5F5F5F5F5F5F5F5F5F5F5F5F5F5F5F5F5F5F5F5F5F5F5F5F5F5F5F5F5F5F5F5F5F5F5F5F5F5F5F5F5F5F5F5F5F5F5F5F5F5F5F5F5F5F5F5F5F5F5F5F5F5F5F5F5F5F5F5F5F5F5F5F5F5F5F5F5F5F5F5F5F5F5F5F5F5F5F5F5F5F5F5F5F5F5F5F5F5F5F5F5F5F5F5F5F5F5F5F5F5F5F5F5
310
F5F5F5F5F5F5F5F5F5F5F5F5F5F5F5F5F5F5E2F5F5F5F5F5F5F5F5F5F5F5F5F5F5F5F5E2F5F5F5E2E2EFF5F5F5E2F5F5F5F5F5F5F5F5F5F5F5F5F5F5F5F5E2F5F5F5F5F5F5F5F5F5F5F5F5F5F5F5F5F5F5F5F5F5F5F5F5F5F5F5F5F5F5F5F5F5F5F5F5F5F5F5F5F5F5F5F5F5F5F5F5F5F5F5F5F5F5F5F5F5F5F5F5F5F5F5F5
310
F5F5F5F5F5F5F5F5F5F5F5F5F5F5F5F5F5F5F5F5F5F5F5F5F5F5F5F5F5F5F5F5F5F5F5F5F5F5F5F5F5F5F5F5F5F5F5F5F5F5F5F5F5F5F5F5F5F5F5F5F5F5F5F5F5F5F5F5F5F5F5E2F5F5F5F5F5F5F5F5F5F5F5F5F5F5F5F5E2F5F5F5E2E2EFF5F5F5E2F5F5F5F5F5F5F5F5F5F5F5F5F5F5F5F5E2F5F5F5F5F5F5F5F5F5F5F5
310
F5F5F5F5F5F5F5F5F5F5F5F5F5F5F5F5F5F5F5F5F5F5F5F5F5F5F5F5F5F5F5F5F5F5F5F5F5F5F5F5F5F5F5F5F5F5F5F5F5F5F5F5F5F5F5F5F5F5F5F5F5F5F5F5F5F5F5F5F5F5F5F5F5F5F5F5F5F5F5F5F5F5F5F5F5F5F5F5F5F5F5F5F5F5F5F5F5F5F5F5F5F5F5F5F5F5F5F5F5F5F5F5F5F5F5F5F5F5F5F5F5F5F5F5E2F5F5
310
F5F5F5F5F5F5F5F5F5F5F5F5F5F5E2F5F5F5E2E2EFF5F5F5E2F5F5F5F5F5F5F5F5F5F5F5F5F5F5F5F5E2F5F5F5F5F5F5F5F5F5F5F5F5F5F5F5F5F5F5F5F5F5F5F5F5F5F5F5F5F5F5F5F5F5F5F5F5F5F5F5F5F5F5F5F5F5F5F5F5F5F5F5F5F5F5F5F5F5F5F5F5F5F5F5F5F5F5F5F5F5F5F5F5F5F5F5F5F5F5F5F5F5F5F5F5F5
310
F5F5F5F5F5F5F5F5F5F5F5F5F5F5F5F5F5F5F5F5F5F5F5F5F5F5F5F5F5F5F5F5F5F5F5F5F5F5F5F5F5F5F5F5F5F5F5F5F5F5E2F5F5F5F5F5F5F5F5F5F5F5F5F5F5F5F5E2F5F5F5E2E2EFF5F5F5E2F5F5F5F5F5F5F5F5F5F5F5F5F5F5F5F5E2F5F5F5F5F5F5F5F5F5F5F5F5F5F5F5F5F5F5F5F5F5F5F5F5F5F5F5F5F5F5F5F5
310
F5F5F5F5F5F5F5F5F5F5F5F5F5F5F5F5F5F5F5F5F5F5F5F5F5F5F5F5F5F5F5F5F5F5F5F5F5F5F5F5F5F5F5F5F5F5F5F5F5F5F5F5F5F5F5F5F5F5F5F5F5F5F5F5F5F5F5F5F5F5F5F5F5F5F5F5F5F5F5F5F5F5F5F5F5F5F5F5F5F5F5F5F5F5F5F5F5F5F5F5F5F5F5E2F5F5F5F5F5F5F5F5F5F5F5F5F5F5F5F5E2F5F5F5E2E2EF
310
F5F5F5E2F5F5F5F5F5F5F5F5F5F5F5F5F5F5F5F5E2F5F5F5F5F5F5F5F5F5F5F5F5F5F5F5F5F5F5F5F5F5F5F5F5F5F5F5F5F5F5F5F5F5F5F5F5F5F5F5F5F5F5F5F5F5F5F5F5F5F5F5F5F5F5F5F5F5F5F5F5F5F5F5F5F5F5F5F5F5F5F5F5F5F5F5F5F5F5F5F5F5F5F5F5F5F5F5F5F5F5F5F5F5F5F5F5F5F5F5F5F5F5F5F5F5F5
310
F5F5F5F5F5F5F5F5F5F5F5F5F5F5F5F5F5F5F5F5F5F5F5F5F5F5F5F5F5E2F5F5F5F5F5F5F5F5F5F5F5F5F5F5F5F5E2F5F5F5E2E2EFF5F5F5E2F5F5F5F5F5F5F5F5F5F5F5F5F5F5F5F5E2F5F5F5F5F5F5F5F5F5F5F5F5F5F5F5F5F5F5F5F5F5F5F5F5F5F5F5F5F5F5F5F5F5F5F5F5F5F5F5F5F5F5F5F5F5F5F5F5F5F5F5F5F5
310
F5F5F5F5F5F5F5F5F5F5F5F5F5F5F5F5F5F5F5F5F5F5F5F5F5F5F5F5F5F5F5F5F5F5F5F5F5F5F5F5F5F5F5F5F5F5F5F5F5F5F5F5F5F5F5F5F5F5F5F5F5F5F5F5F5F5F5F5F5F5F5F5F5F5F5F5F5F5F5F5F5F5E2F5F5F5F5F5F5F5F5F5F5F5F5F5F5F5F5E2F5F5F5E2E2EFF5F5F5E2F5F5F5F5F5F5F5F5F5F5F5F5F5F5F5F5E2
310
F5F5F5F5F5F5F5F5F5F5F5F5F5F5F5F5F5F5F5F5F5F5F5F5F5F5F5F5F5F5F5F5F5F5F5F5F5F5F5F5F5F5F5F5F5F5F5F5F5F5F5F5F5F5F5F5F5F5F5F5F5F5F5F5F5F5F5F5F5F5F5F5F5F5F5F5F5F5F5F5F5F5F5F5F5F5F5F5F5F5F5F5F5F5F5F5F5F5F5F5F5F5F5F5F5F5F5F5F5F5F5F5F5F5F5F5F5F5F5F5F5F5F5F5F5F5F5
310
F5F5F5F5F5F5F5F5E2F5F5F5F5F5F5F5F5F5F5F5F5F5F5F5F5E2F5F5F5E2E2EFF5F5F5E2F5F5F5F5F5F5F5F5F5F5F5F5F5F5F5F5E2F5F5F5F5F5F5F5F5F5F5F5F5F5F5F5F5F5F5F5F5F5F5F5F5F5F5F5F5F5F5F5F5F5F5F5F5F5F5F5F5F5F5F5F5F5F5F5F5F5F5F5F5F5F5F5F5F5F5F5F5F5F5F5F5F5F5F5F5F5F5F5F5F5F5
310
F5F5F5F5F5F5F5F5F5F5F5F5F5F5F5F5F5F5F5F5F5F5F5F5F5F5F5F5F5F5F5F5F5F5F5F5F5F5F5F5F5F5F5F5F5F5F5F5F5F5F5F5F5F5F5F5F5F5F5F5F5E2F5F5F5F5F5F5F5F5F5F5F5F5F5F5F5F5E2F5F5F5E2E2EFF5F5F5E2F5F5F5F5F5F5F5F5F5F5F5F5F5F5F5F5E2F5F5F5F5F5F5F5F5F5F5F5F5F5F5F5F5F5F5F5F5F5
310
F5F5F5F5F5F5F5F5F5F5F5F5F5F5F5F5F5F5F5F5F5F5F5F5F5F5F5F5F5F5F5F5F5F5F5F5F5F5F5F5F5F5F5F5F5F5F5F5F5F5F5F5F5F5F5F5F5F5F5F5F5F5F5F5F5F5F5F5F5F5F5F5F5F5F5F5F5F5F5F5F5F5F5F5F5F5F5F5F5F5F5F5F5F5F5F5F5F5F5F5F5F5F5F5F5F5F5F5F5F5F5F5F5F5E2F5F5F5F5F5F5F5F5F5F5F5F5
310
F5F5F5F5E2F5F5F5E2E2EFF5F5F5E2F5F5F5F5F5F5F5F5F5F5F5F5F5F5F5F5E2F5F5F5F5F5F5F5F5F5F5F5F5F5F5F5F5F5F5F5F5F5F5F5F5F5F5F5F5F5F5F5F5F5F5F5F5F5F5F5F5F5F5F5F5F5F5F5F5F5F5F5F5F5F5F5F5F5F5F5F5F5F5F5F5F5F5F5F5F5F5F5F5F5F5F5F5F5F5F5F5F5F5F5F5F5F5F5F5F5F5F5F5F5F5F5
310
F5F5F5F5F5F5F5F5F5F5F5F5F5F5F5F5F5F5F5F5F5F5F5F5F5F5F5F5F5F5F5F5F5F5F5F5F5F5F5F5E2F5F5F5F5F5F5F5F5F5F5F5F5F5F5F5F5E2F5F5F5E2E2EFF5F5F5F5F5F5F5F5F5F5F5F5F5F5F5F5F5F5F5F5E2F5F5F5F5F5F5F5F5F5F5F5F5F5F5F5F5F5F5F5F5F5F5F5F5F5F5F5F5F5F5F5F5F5F5F5F5F5F5F5F5F5F5
310
F5F5F5F5F5F5F5F5F5F5F5F5F5F5F5F5F5F5F5F5F5F5F5F5F5F5F5F5F5F5F5F5F5F5F5F5F5F5F5F5F5F5F5F5F5F5F5F5F5F5F5F5F5F5F5F5F5F5F5F5F5F5F5F5F5F5F5F5F5F5F5F5F5F5F5F5F5F5F5F5F5F5F5F5F5F5F5F5F5F5F5F5F5E2F5F5F5F5F5F5F5F5F5F5F5F5F5F5F5F5F5F5F5F5E2E2EFF5F5F5F5F5F5F5F5F5F5
310
F5F5F5F5F5F5F5F5F5F5E2F5F5F5F5F5F5F5F5F5F5F5F5F5F5F5F5F5F5F5F5F5F5F5F5F5F5F5F5F5F5F5F5F5F5F5F5F5F5F5F5F5F5F5F5F5F5F5F5F5F5F5F5F5F5F5F5F5F5F5F5F5F5F5F5F5F5F5F5F5F5F5F5F5F5F5F5F5F5F5F5F5F5F5F5F5F5F5F5F5F5F5F5F5F5F5F5F5F5F5F5F5F5F5F5F5F5F5F5F5F5F5F5F5F5F5F5
310
F5F5F5F5F5F5F5F5F5F5F5F5F5F5F5F5F5F5F5E2F5F5F5F5F5F5F5F5F5F5F5F5F5F5F5F5F5F5F5F5E2E2EFF5F5F5F5F5F5F5F5F5F5F5F5F5F5F5F5F5F5F5F5E2F5F5F5F5F5F5F5F5F5F5F5F5F5F5F5F5F5F5F5F5F5F5F5F5F5F5F5F5F5F5F5F5F5F5F5F5F5F5F5F5F5F5F5F5F5F5F5F5F5F5F5F5F5F5F5F5F5F5F5F5F5F5F5
310
F5F5F5F5F5F5F5F5F5F5F5F5F5F5F5F5F5F5F5F5F5F5F5F5F5F5F5F5F5F5F5F5F5F5F5F5F5F5F5F5F5F5F5F5F5F5F5F5F5F5F5F5F5F5F5F5F5F5F5F5F5F5F5F5F5F5F5F5F5F5F5F5E2F5F5F5F5F5F5F5F5F5F5F5F5F5F5F5F5F5F5F5F5E2E2EFF5F5F5F5F5F5F5F5F5F5F5F5F5F5F5F5F5F5F5F5E2F5F5F5F5F5F5F5F5F5F5
310
F5F5F5F5F5F5F5F5F5F5F5F5F5F5F5F5F5F5F5F5F5F5F5F5F5F5F5F5F5F5F5F5F5F5F5F5F5F5F5F5F5F5F5F5F5F5F5F5F5F5F5F5F5F5F5F5F5F5F5F5F5F5F5F5F5F5F5F5F5F5F5F5F5F5F5F5F5F5F5F5F5F5F5F5F5F5F5F5F5F5F5F5F5F5F5F5F5F5F5F5F5F5F5F5F5F5F5F5F5F5F5F5F5F5F5F5F5F5F5F5F5F5F5F5F5E2F5
310
F5F5F5F5F5F5F5F5F5F5F5F5F5F5F5F5F5F5F5E2E2EFF5F5F5F5F5F5F5F5F5F5F5F5F5F5F5F5F5F5F5F5E2F5F5F5F5F5F5F5F5F5F5F5F5F5F5F5F5F5F5F5F5F5F5F5F5F5F5F5F5F5F5F5F5F5F5F5F5F5F5F5F5F5F5F5F5F5F5F5F5F5F5F5F5F5F5F5F5F5F5F5F5F5F5F5F5F5F5F5F5F5F5F5F5F5F5F5F5F5F5F5F5F5F5F5F5
310
F5F5F5F5F5F5F5F5F5F5F5F5F5F5F5F5F5F5F5F5F5F5F5F5F5F5F5F5F5F5F5F5F5F5F5F5F5F5F5F5F5F5F5F5F5F5F5F5F5F5F5E2F5F5F5F5F5F5F5F5F5F5F5F5F5F5F5F5F5F5F5F5E2E2EFF5F5F5F5F5F5F5F5F5F5F5F5F5F5F5F5F5F5F5F5E2F5F5F5F5F5F5F5F5F5F5F5F5F5F5F5F5F5F5F5F5F5F5F5F5F5F5F5F5F5F5F5
310
F5F5F5F5F5F5F5F5F5F5F5F5F5F5F5F5F5F5F5F5F5F5F5F5F5F5F5F5F5F5F5F5F5F5F5F5F5F5F5F5F5F5F5F5F5F5F5F5F5F5F5F5F5F5F5F5F5F5F5F5F5F5F5F5F5F5F5F5F5F5F5F5F5F5F5F5F5F5F5F5F5F5F5F5F5F5F5F5F5F5F5F5F5F5F5F5F5F5F5F5F5F5F5F5E2F5F5F5F5F5F5F5F5F5F5F5F5F5F5F5F5F5F5F5F5E2E2
310
EFF5F5F5F5F5F5F5F5F5F5F5F5F5F5F5F5F5F5F5F5E2F5F5F5F5F5F5F5F5F5F5F5F5F5F5F5F5F5F5F5F5F5F5F5F5F5F5F5F5F5F5F5F5F5F5F5F5F5F5F5F5F5F5F5F5F5F5F5F5F5F5F5F5F5F5F5F5F5F5F5F5F5F5F5F5F5F5F5F5F5F5F5F5F5F5F5F5F5F5F5F5F5F5F5F5F5F5F5F5F5F5F5F5F5F5F5F5F5F5F5F5F5F5F5F5F5
310
F5F5F5F5F5F5F5F5F5F5F5F5F5F5F5F5F5F5F5F5F5F5F5F5F5F5F5F5F5F5E2F5F5F5F5F5F5F5F5F5F5F5F5F5F5F5F5F5F5F5F5E2E2EFF5F5F5F5F5F5F5F5F5F5F5F5F5F5F5F5F5F5F5F5E2F5F5F5F5F5F5F5F5F5F5F5F5F5F5F5F5F5F5F5F5F5F5F5F5F5F5F5F5F5F5F5F5F5F5F5F5F5F5F5F5F5F5F5F5F5F5F5F5F5F5F5F5
310
F5F5F5F5F5F5F5F5F5F5F5F5F5F5F5F5F5F5F5F5F5F5F5F5F5F5F5F5F5F5F5F5F5F5F5F5F5F5F5F5F5F5F5F5F5F5F5F5F5F5F5F5F5F5F5F5F5F5F5F5F5F5F5F5F5F5F5F5F5F5F5F5F5F5F5F5F5F5F5F5F5F5F5E2F5F5F5F5F5F5F5F5F5F5F5F5F5F5F5F5F5F5F5F5E2E2EFF5F5F5F5F5F5F5F5F5F5F5F5F5F5F5F5F5F5F5F5
310
E2F5F5F5F5F5F5F5F5F5F5F5F5F5F5F5F5F5F5F5F5F5F5F5F5F5F5F5F5F5F5F5F5F5F5F5F5F5F5F5F5F5F5F5F5F5F5F5F5F5F5F5F5F5F5F5F5F5F5F5F5F5F5F5F5F5F5F5F5F5F5F5F5F5F5F5F5F5F5F5F5F5F5F5F5F5F5F5F5F5F5F5F5F5F5F5F5F5F5F5F5F5F5F5F5F5F5F5F5F5F5F5F5F5F5F5F5F5F5F5F5F5F5F5F5F5F5
310
F5F5F5F5F5F5F5F5F5E2F5F5F5F5F5F5F5F5F5F5F5F5F5F5F5F5F5F5F5F5E2E2EFF5F5F5E2F5F5F5F5F5F5F5F5F5F5F5F5F5F5F5F5E2F5F5F5F5F5F5F5F5F5F5F5F5F5F5F5F5F5F5F5F5F5F5F5F5F5F5F5F5F5F5F5F5F5F5F5F5F5F5F5F5F5F5F5F5F5F5F5F5F5F5F5F5F5F5F5F5F5F5F5F5F5F5F5F5F5F5F5F5F5F5F5F5F5
310
F5F5F5F5F5F5F5F5F5F5F5F5F5F5F5F5F5F5F5F5F5F5F5F5F5F5F5F5F5F5F5F5F5F5F5F5F5F5F5F5F5F5F5F5F5F5F5F5F5F5F5F5F5F5F5F5F5F5F5F5F5F5E2F5F5F5F5F5F5F5F5F5F5F5F5F5F5F5F5E2F5F5F5E2E2EFF5F5F5E2F5F5F5F5F5F5F5F5F5F5F5F5F5F5F5F5E2F5F5F5F5F5F5F5F5F5F5F5F5F5F5F5F5F5F5F5F5
310
F5F5F5F5F5F5F5F5F5F5F5F5F5F5F5F5F5F5F5F5F5F5F5F5F5F5F5F5F5F5F5F5F5F5F5F5F5F5F5F5F5F5F5F5F5F5F5F5F5F5F5F5F5F5F5F5F5F5F5F5F5F5F5F5F5F5F5F5F5F5F5F5F5F5F5F5F5F5F5F5F5F5F5F5F5F5F5F5F5F5F5F5F5F5F5F5F5F5F5F5F5F5F5F5F5F5F5F5F5F5F5F5F5F5F5E2F5F5F5F5F5F5F5F5F5F5F5
310
F5F5F5F5F5E2F5F5F5E2E2EFF5F5F5E2F5F5F5F5F5F5F5F5F5F5F5F5F5F5F5F5E2F5F5F5F5F5F5F5F5F5F5F5F5F5F5F5F5F5F5F5F5F5F5F5F5F5F5F5F5F5F5F5F5F5F5F5F5F5F5F5F5F5F5F5F5F5F5F5F5F5F5F5F5F5F5F5F5F5F5F5F5F5F5F5F5F5F5F5F5F5F5F5F5F5F5F5F5F5F5F5F5F5F5F5F5F5F5F5F5F5F5F5F5F5F5
310
F5F5F5F5F5F5F5F5F5F5F5F5F5F5F5F5F5F5F5F5F5F5F5F5F5F5F5F5F5F5F5F5F5F5F5F5F5F5F5F5F5E2F5F5F5F5F5F5F5F5F5F5F5F5F5F5F5F5E2F5F5F5E2E2EFF5F5F5E2F5F5F5F5F5F5F5F5F5F5F5F5F5F5F5F5E2F5F5F5F5F5F5F5F5F5F5F5F5F5F5F5F5F5F5F5F5F5F5F5F5F5F5F5F5F5F5F5F5F5F5F5F5F5F5F5F5F5
310
F5F5F5F5F5F5F5F5F5F5F5F5F5F5F5F5F5F5F5F5F5F5F5F5F5F5F5F5F5F5F5F5F5F5F5F5F5F5F5F5F5F5F5F5F5F5F5F5F5F5F5F5F5F5F5F5F5F5F5F5F5F5F5F5F5F5F5F5F5F5F5F5F5F5F5F5F5F5F5F5F5F5F5F5F5F5F5F5F5F5F5F5F5F5E2F5F5F5F5F5F5F5F5F5F5F5F5F5F5F5F5E2F5F5F5E2E2EFF5F5F5E2F5F5F5F5F5
310
F5F5F5F5F5F5F5F5F5F5F5E2F5F5F5F5F5F5F5F5F5F5F5F5F5F5F5F5F5F5F5F5F5F5F5F5F5F5F5F5F5F5F5F5F5F5F5F5F5F5F5F5F5F5F5F5F5F5F5F5F5F5F5F5F5F5F5F5F5F5F5F5F5F5F5F5F5F5F5F5F5F5F5F5F5F5F5F5F5F5F5F5F5F5F5F5F5F5F5F5F5F5F5F5F5F5F5F5F5F5F5F5F5F5F5F5F5F5F5F5F5F5F5F5F5F5F5
310
F5F5F5F5F5F5F5F5F5F5F5F5F5F5F5F5F5F5F5F5E2F5F5F5F5F5F5F5F5F5F5F5F5F5F5F5F5E2F5F5F5E2E2EFF5F5F5E2F5F5F5F5F5F5F5F5F5F5F5F5F5F5F5F5E2F5F5F5F5F5F5F5F5F5F5F5F5F5F5F5F5F5F5F5F5F5F5F5F5F5F5F5F5F5F5F5F5F5F5F5F5F5F5F5F5F5F5F5F5F5F5F5F5F5F5F5F5F5F5F5F5F5F5F5F5F5F5
310
F5F5F5F5F5F5F5F5F5F5F5F5F5F5F5F5F5F5F5F5F5F5F5F5F5F5F5F5F5F5F5F5F5F5F5F5F5F5F5F5F5F5F5F5F5F5F5F5F5F5F5F5F5F5F5F5F5F5F5F5F5F5F5F5F5F5F5F5F5F5F5F5F5E2F5F5F5F5F5F5F5F5F5F5F5F5F5F5F5F5E2F5F5F5E2E2EFF5F5F5E2F5F5F5F5F5F5F5F5F5F5F5F5F5F5F5F5E2F5F5F5F5F5F5F5F5F5
310
F5F5F5F5F5F5F5F5F5F5F5F5F5F5F5F5F5F5F5F5F5F5F5F5F5F5F5F5F5F5F5F5F5F5F5F5F5F5F5F5F5F5F5F5F5F5F5F5F5F5F5F5F5F5F5F5F5F5F5F5F5F5F5F5F5F5F5F5F5F5F5F5F5F5F5F5F5F5F5F5F5F5F5F5F5F5F5F5F5F5F5F5F5F5F5F5F5F5F5F5F5F5F5F5F5F5F5F5F5F5F5F5F5F5F5F5F5F5F5F5F5F5F5F5F5F5E2
310
F5F5F5F5F5F5F5F5F5F5F5F5F5F5F5F5E2F5F5F5E2E2EFF5F5F5E2F5F5F5F5F5F5F5F5F5F5F5F5F5F5F5F5E2F5F5F5F5F5F5F5F5F5F5F5F5F5F5F5F5F5F5F5F5F5F5F5F5F5F5F5F5F5F5F5F5F5F5F5F5F5F5F5F5F5F5F5F5F5F5F5F5F5F5F5F5F5F5F5F5F5F5F5F5F5F5F5F5F5F5F5F5F5F5F5F5F5F5F5F5F5F5F5F5F5F5F5
310
F5F5F5F5F5F5F5F5F5F5F5F5F5F5F5F5F5F5F5F5F5F5F5F5F5F5F5F5F5F5F5F5F5F5F5F5F5F5F5F5F5F5F5F5F5F5F5F5F5F5F5F5E2F5F5F5F5F5F5F5F5F5F5F5F5F5F5F5F5E2F5F5F5E2E2EFF5F5F5E2F5F5F5F5F5F5F5F5F5F5F5F5F5F5F5F5E2F5F5F5F5F5F5F5F5F5F5F5F5F5F5F5F5F5F5F5F5F5F5F5F5F5F5F5F5F5F5
310
F5F5F5F5F5F5F5F5F5F5F5F5F5F5F5F5F5F5F5F5F5F5F5F5F5F5F5F5F5F5F5F5F5F5F5F5F5F5F5F5F5F5F5F5F5F5F5F5F5F5F5F5F5F5F5F5F5F5F5F5F5F5F5F5F5F5F5F5F5F5F5F5F5F5F5F5F5F5F5F5F5F5F5F5F5F5F5F5F5F5F5F5F5F5F5F5F5F5F5F5F5F5F5F5F5E2F5F5F5F5F5F5F5F5F5F5F5F5F5F5F5F5E2F5F5F5E2
310
E2EFF5F5F5E2F5F5F5F5F5F5F5F5F5F5F5F5F5F5F5F5E2F5F5F5F5F5F5F5F5F5F5F5F5F5F5F5F5F5F5F5F5F5F5F5F5F5F5F5F5F5F5F5F5F5F5F5F5F5F5F5F5F5F5F5F5F5F5F5F5F5F5F5F5F5F5F5F5F5F5F5F5F5F5F5F5F5F5F5F5F5F5F5F5F5F5F5F5F5F5F5F5F5F5F5F5F5F5F5F5F5F5F5F5F5F5F5F5F5F5F5F5F5F5F5F5
310
F5F5F5F5F5F5F5F5F5F5F5F5F5F5F5F5F5F5F5F5F5F5F5F5F5F5F5F5F5F5F5E2F5F5F5F5F5F5F5F5F5F5F5F5F5F5F5F5E2F5F5F5E2E2EFF5F5F5E2F5F5F5F5F5F5F5F5F5F5F5F5F5F5F5F5E2F5F5F5F5F5F5F5F5F5F5F5F5F5F5F5F5F5F5F5F5F5F5F5F5F5F5F5F5F5F5F5F5F5F5F5F5F5F5F5F5F5F5F5F5F5F5F5F5F5F5F5
310
F5F5F5F5F5F5F5F5F5F5F5F5F5F5F5F5F5F5F5F5F5F5F5F5F5F5F5F5F5F5F5F5F5F5F5F5F5F5F5F5F5F5F5F5F5F5F5F5F5F5F5F5F5F5F5F5F5F5F5F5F5F5F5F5F5F5F5F5F5F5F5F5F5F5F5F5F5F5F5F5F5F5F5F5E2F5F5F5F5F5F5F5F5F5F5F5F5F5F5F5F5E2F5F5F5E2E2EFF5F5F5E2F5F5F5F5F5F5F5F5F5F5F5F5F5F5F5
310
F5E2F5F5F5F5F5F5F5F5F5F5F5F5F5F5F5F5F5F5F5F5F5F5F5F5F5F5F5F5F5F5F5F5F5F5F5F5F5F5F5F5F5F5F5F5F5F5F5F5F5F5F5F5F5F5F5F5F5F5F5F5F5F5F5F5F5F5F5F5F5F5F5F5F5F5F5F5F5F5F5F5F5F5F5F5F5F5F5F5F5F5F5F5F5F5F5F5F5F5F5F5F5F5F5F5F5F5F5F5F5F5F5F5F5F5F5F5F5F5F5F5F5F5F5F5F5
310
F5F5F5F5F5F5F5F5F5F5E2F5F5F5F5F5F5F5F5F5F5F5F5F5F5F5F5E2F5F5F5E2E2EFF5F5F5E2F5F5F5F5F5F5F5F5F5F5F5F5F5F5F5F5E2F5F5F5F5F5F5F5F5F5F5F5F5F5F5F5F5F5F5F5F5F5F5F5F5F5F5F5F5F5F5F5F5F5F5F5F5F5F5F5F5F5F5F5F5F5F5F5F5F5F5F5F5F5F5F5F5F5F5F5F5F5F5F5F5F5F5F5F5F5F5F5F5
310
F5F5F5F5F5F5F5F5F5F5F5F5F5F5F5F5F5F5F5F5F5F5F5F5F5F5F5F5F5F5F5F5F5F5F5F5F5F5F5F5F5F5F5F5F5F5F5F5F5F5F5F5F5F5F5F5F5F5F5F5F5F5F5E2F5F5F5F5F5F5F5F5F5F5F5F5F5F5F5F5E2F5F5F5E2E2EFF5F5F5E2F5F5F5F5F5F5F5F5F5F5F5F5F5F5F5F5E2F5F5F5F5F5F5F5F5F5F5F5F5F5F5F5F5F5F5F5
310
F5F5F5F5F5F5F5F5F5F5F5F5F5F5F5F5F5F5F5F5F5F5F5F5F5F5F5F5F5F5F5F5F5F5F5F5F5F5F5F5F5F5F5F5F5F5F5F5F5F5F5F5F5F5F5F5F5F5F5F5F5F5F5F5F5F5F5F5F5F5F5F5F5F5F5F5F5F5F5F5F5F5F5F5F5F5F5F5F5F5F5F5F5F5F5F5F5F5F5F5F5F5F5F5F5F5F5F5F5F5F5F5F5F5F5F5E2F5F5F5F5F5F5F5F5F5F5
310
F5F5F5F5F5F5E2F5F5F5E2E2EFF5F5F5E2F5F5F5F5F5F5F5F5F5F5F5F5F5F5F5F5E2F5F5F5F5F5F5F5F5F5F5F5F5F5F5F5F5F5F5F5F5F5F5F5F5F5F5F5F5F5F5F5F5F5F5F5F5F5F5F5F5F5F5F5F5F5F5F5F5F5F5F5F5F5F5F5F5F5F5F5F5F5F5F5F5F5F5F5F5F5F5F5F5F5F5F5F5F5F5F5F5F5F5F5F5F5F5F5F5F5F5F5F5F5
310
F5F5F5F5F5F5F5F5F5F5F5F5F5F5F5F5F5F5F5F5F5F5F5F5F5F5F5F5F5F5F5F5F5F5F5F5F5F5F5F5F5F5E2F5F5F5F5F5F5F5F5F5F5F5F5F5F5F5F5E2F5F5F5E2E2EFF5F5F5E2F5F5F5F5F5F5F5F5F5F5F5F5F5F5F5F5E2F5F5F5F5F5F5F5F5F5F5F5F5F5F5F5F5F5F5F5F5F5F5F5F5F5F5F5F5F5F5F5F5F5F5F5F5F5F5F5F5
310
F5F5F5F5F5F5F5F5F5F5F5F5F5F5F5F5F5F5F5F5F5F5F5F5F5F5F5F5F5F5F5F5F5F5F5F5F5F5F5F5F5F5F5F5F5F5F5F5F5F5F5F5F5F5F5F5F5F5F5F5F5F5F5F5F5F5F5F5F5F5F5F5F5F5F5F5F5F5F5F5F5F5F5F5F5F5F5F5F5F5F5F5F5F5F5E2F5F5F5F5F5F5F5F5F5F5F5F5F5F5F5F5E2F5F5F5E2E2EFF5F5F5E2F5F5F5F5
310
F5F5F5F5F5F5F5F5F5F5F5F5E2F5F5F5F5F5F5F5F5F5F5F5F5F5F5F5F5F5F5F5F5F5F5F5F5F5F5F5F5F5F5F5F5F5F5F5F5F5F5F5F5F5F5F5F5F5F5F5F5F5F5F5F5F5F5F5F5F5F5F5F5F5F5F5F5F5F5F5F5F5F5F5F5F5F5F5F5F5F5F5F5F5F5F5F5F5F5F5F5F5F5F5F5F5F5F5F5F5F5F5F5F5F5F5F5F5F5F5F5F5F5F5F5F5F5
310
F5F5F5F5F5F5F5F5F5F5F5F5F5F5F5F5F5F5F5F5F5E2F5F5F5F5F5F5F5F5F5F5F5F5F5F5F5F5E2F5F5F5E2E2EFF5F5F5F5F5F5F5F5F5F5F5F5F5F5F5F5F5F5F5F5E2F5F5F5F5F5F5F5F5F5F5F5F5F5F5F5F5F5F5F5F5F5F5F5F5F5F5F5F5F5F5F5F5F5F5F5F5F5F5F5F5F5F5F5F5F5F5F5F5F5F5F5F5F5F5F5F5F5F5F5F5F5
310
F5F5F5F5F5F5F5F5F5F5F5F5F5F5F5F5F5F5F5F5F5F5F5F5F5F5F5F5F5F5F5F5F5F5F5F5F5F5F5F5F5F5F5F5F5F5F5F5F5F5F5F5F5F5F5F5F5F5F5F5F5F5F5F5F5F5F5F5F5F5F5F5F5F5E2F5F5F5F5F5F5F5F5F5F5F5F5F5F5F5F5F5F5F5F5E2E2EFF5F5F5F5F5F5F5F5F5F5F5F5F5F5F5F5F5F5F5F5E2F5F5F5F5F5F5F5F5
310
F5F5F5F5F5F5F5F5F5F5F5F5F5F5F5F5F5F5F5F5F5F5F5F5F5F5F5F5F5F5F5F5F5F5F5F5F5F5F5F5F5F5F5F5F5F5F5F5F5F5F5F5F5F5F5F5F5F5F5F5F5F5F5F5F5F5F5F5F5F5F5F5F5F5F5F5F5F5F5F5F5F5F5F5F5F5F5F5F5F5F5F5F5F5F5F5F5F5F5F5F5F5F5F5F5F5F5F5F5F5F5F5F5F5F5F5F5F5F5F5F5F5F5F5F5F5F5
310
E2F5F5F5F5F5F5F5F5F5F5F5F5F5F5F5F5F5F5F5F5E2E2EFF5F5F5F5F5F5F5F5F5F5F5F5F5F5F5F5F5F5F5F5E2F5F5F5F5F5F5F5F5F5F5F5F5F5F5F5F5F5F5F5F5F5F5F5F5F5F5F5F5F5F5F5F5F5F5F5F5F5F5F5F5F5F5F5F5F5F5F5F5F5F5F5F5F5F5F5F5F5F5F5F5F5F5F5F5F5F5F5F5F5F5F5F5F5F5F5F5F5F5F5F5F5F5
310
F5F5F5F5F5F5F5F5F5F5F5F5F5F5F5F5F5F5F5F5F5F5F5F5F5F5F5F5F5F5F5F5F5F5F5F5F5F5F5F5F5F5F5F5F5F5F5F5F5F5F5F5F5E2F5F5F5F5F5F5F5F5F5F5F5F5F5F5F5F5F5F5F5F5E2E2EFF5F5F5F5F5F5F5F5F5F5F5F5F5F5F5F5F5F5F5F5E2F5F5F5F5F5F5F5F5F5F5F5F5F5F5F5F5F5F5F5F5F5F5F5F5F5F5F5F5F5
310
F5F5F5F5F5F5F5F5F5F5F5F5F5F5F5F5F5F5F5F5F5F5F5F5F5F5F5F5F5F5F5F5F5F5F5F5F5F5F5F5F5F5F5F5F5F5F5F5F5F5F5F5F5F5F5F5F5F5F5F5F5F5F5F5F5F5F5F5F5F5F5F5F5F5F5F5F5F5F5F5F5F5F5F5F5F5F5F5F5F5F5F5F5F5F5F5F5F5F5F5F5F5F5F5F5F5E2F5F5F5F5F5F5F5F5F5F5F5F5F5F5F5F5F5F5F5F5
310
E2E2EFF5F5F5F5F5F5F5F5F5F5F5F5F5F5F5F5F5F5F5F5E2F5F5F5F5F5F5F5F5F5F5F5F5F5F5F5F5F5F5F5F5F5F5F5F5F5F5F5F5F5F5F5F5F5F5F5F5F5F5F5F5F5F5F5F5F5F5F5F5F5F5F5F5F5F5F5F5F5F5F5F5F5F5F5F5F5F5F5F5F5F5F5F5F5F5F5F5F5F5F5F5F5F5F5F5F5F5F5F5F5F5F5F5F5F5F5F5F5F5F5F5F5F5F5
310
F5F5F5F5F5F5F5F5F5F5F5F5F5F5F5F5F5F5F5F5F5F5F5F5F5F5F5F5F5F5F5F5E2F5F5F5F5F5F5F5F5F5F5F5F5F5F5F5F5F5F5F5F5E2E2EFF5F5F5F5F5F5F5F5F5F5F5F5F5F5F5F5F5F5F5F5E2F5F5F5F5F5F5F5F5F5F5F5F5F5F5F5F5F5F5F5F5F5F5F5F5F5F5F5F5F5F5F5F5F5F5F5F5F5F5F5F5F5F5F5F5F5F5F5F5F5F5
310
F5F5F5F5F5F5F5F5F5F5F5F5F5F5F5F5F5F5F5F5F5F5F5F5F5F5F5F5F5F5F5F5F5F5F5F5F5F5F5F5F5F5F5F5F5F5F5F5F5F5F5F5F5F5F5F5F5F5F5F5F5F5F5F5F5F5F5F5F5F5F5F5F5F5F5F5F5F5F5F5F5F5F5F5F5E2F5F5F5F5F5F5F5F5F5F5F5F5F5F5F5F5F5F5F5F5E2E2EFF5F5F5F5F5F5F5F5F5F5F5F5F5F5F5F5F5F5
310
F5F5E2F5F5F5F5F5F5F5F5F5F5F5F5F5F5F5F5F5F5F5F5F5F5F5F5F5F5F5F5F5F5F5F5F5F5F5F5F5F5F5F5F5F5F5F5F5F5F5F5F5F5F5F5F5F5F5F5F5F5F5F5F5F5F5F5F5F5F5F5F5F5F5F5F5F5F5F5F5F5F5F5F5F5F5F5F5F5F5F5F5F5F5F5F5F5F5F5F5F5F5F5F5F5F5F5F5F5F5F5F5F5F5F5F5F5F5F5F5F5F5F5F5F5F5F5
310
F5F5F5F5F5F5F5F5F5F5F5E2F5F5F5F5F5F5F5F5F5F5F5F5F5F5F5F5F5F5F5F5E2E2EFF5F5F5F5F5F5F5F5F5F5F5F5F5F5F5F5F5F5F5F5E2F5F5F5F5F5F5F5F5F5F5F5F5F5F5F5F5F5F5F5F5F5F5F5F5F5F5F5F5F5F5F5F5F5F5F5F5F5F5F5F5F5F5F5F5F5F5F5F5F5F5F5F5F5F5F5F5F5F5F5F5F5F5F5F5F5F5F5F5F5F5F5
310
F5F5F5F5F5F5F5F5F5F5F5F5F5F5F5F5F5F5F5F5F5F5F5F5F5F5F5F5F5F5F5F5F5F5F5F5F5F5F5F5F5F5F5F5F5F5F5F5F5F5F5F5F5F5F5F5F5F5F5F5F5F5F5F5E2F5F5F5F5F5F5F5F5F5F5F5F5F5F5F5F5F5F5F5F5E2E2EFF5F5F5F5F5F5F5F5F5F5F5F5F5F5F5F5F5F5F5F5E2F5F5F5F5F5F5F5F5F5F5F5F5F5F5F5F5F5F5
310
F5F5F5F5F5F5F5F5F5F5F5F5F5F5F5F5F5F5F5F5F5F5F5F5F5F5F5F5F5F5F5F5F5F5F5F5F5F5F5F5F5F5F5F5F5F5F5F5F5F5F5F5F5F5F5F5F5F5F5F5F5F5F5F5F5F5F5F5F5F5F5F5F5F5F5F5F5F5F5F5F5F5F5F5F5F5F5F5F5F5F5F5F5F5F5F5F5F5F5F5F5F5F5F5F5F5F5F5F5F5F5F5F5F5F5F5F5E2F5F5F5F5F5F5F5F5F5
310
F5F5F5F5F5F5F5F5F5F5F5E2E2EFF5F5F5E2F5F5F5F5F5F5F5F5F5F5F5F5F5F5F5F5E2F5F5F5F5F5F5F5F5F5F5F5F5F5F5F5F5F5F5F5F5F5F5F5F5F5F5F5F5F5F5F5F5F5F5F5F5F5F5F5F5F5F5F5F5F5F5F5F5F5F5F5F5F5F5F5F5F5F5F5F5F5F5F5F5F5F5F5F5F5F5F5F5F5F5F5F5F5F5F5F5F5F5F5F5F5F5F5F5F5F5F5F5
310
F5F5F5F5F5F5F5F5F5F5F5F5F5F5F5F5F5F5F5F5F5F5F5F5F5F5F5F5F5F5F5F5F5F5F5F5F5F5F5F5F5F5F5E2F5F5F5F5F5F5F5F5F5F5F5F5F5F5F5F5E2F5F5F5E2E2EFF5F5F5E2F5F5F5F5F5F5F5F5F5F5F5F5F5F5F5F5E2F5F5F5F5F5F5F5F5F5F5F5F5F5F5F5F5F5F5F5F5F5F5F5F5F5F5F5F5F5F5F5F5F5F5F5F5F5F5F5
310
F5F5F5F5F5F5F5F5F5F5F5F5F5F5F5F5F5F5F5F5F5F5F5F5F5F5F5F5F5F5F5F5F5F5F5F5F5F5F5F5F5F5F5F5F5F5F5F5F5F5F5F5F5F5F5F5F5F5F5F5F5F5F5F5F5F5F5F5F5F5F5F5F5F5F5F5F5F5F5F5F5F5F5F5F5F5F5F5F5F5F5F5F5F5F5F5E2F5F5F5F5F5F5F5F5F5F5F5F5F5F5F5F5E2F5F5F5E2E2EFF5F5F5E2F5F5F5
310
F5F5F5F5F5F5F5F5F5F5F5F5F5E2F5F5F5F5F5F5F5F5F5F5F5F5F5F5F5F5F5F5F5F5F5F5F5F5F5F5F5F5F5F5F5F5F5F5F5F5F5F5F5F5F5F5F5F5F5F5F5F5F5F5F5F5F5F5F5F5F5F5F5F5F5F5F5F5F5F5F5F5F5F5F5F5F5F5F5F5F5F5F5F5F5F5F5F5F5F5F5F5F5F5F5F5F5F5F5F5F5F5F5F5F5F5F5F5F5F5F5F5F5F5F5F5F5
310
F5F5F5F5F5F5F5F5F5F5F5F5F5F5F5F5F5F5F5F5F5F5E2F5F5F5F5F5F5F5F5F5F5F5F5F5F5F5F5E2F5F5F5E2E2EFF5F5F5E2F5F5F5F5F5F5F5F5F5F5F5F5F5F5F5F5E2F5F5F5F5F5F5F5F5F5F5F5F5F5F5F5F5F5F5F5F5F5F5F5F5F5F5F5F5F5F5F5F5F5F5F5F5F5F5F5F5F5F5F5F5F5F5F5F5F5F5F5F5F5F5F5F5F5F5F5F5
310
F5F5F5F5F5F5F5F5F5F5F5F5F5F5F5F5F5F5F5F5F5F5F5F5F5F5F5F5F5F5F5F5F5F5F5F5F5F5F5F5F5F5F5F5F5F5F5F5F5F5F5F5F5F5F5F5F5F5F5F5F5F5F5F5F5F5F5F5F5F5F5F5F5F5F5E2F5F5F5F5F5F5F5F5F5F5F5F5F5F5F5F5E2F5F5F5E2E2EFF5F5F5E2F5F5F5F5F5F5F5F5F5F5F5F5F5F5F5F5E2F5F5F5F5F5F5F5
310
F5F5F5F5F5F5F5F5F5F5F5F5F5F5F5F5F5F5F5F5F5F5F5F5F5F5F5F5F5F5F5F5F5F5F5F5F5F5F5F5F5F5F5F5F5F5F5F5F5F5F5F5F5F5F5F5F5F5F5F5F5F5F5F5F5F5F5F5F5F5F5F5F5F5F5F5F5F5F5F5F5F5F5F5F5F5F5F5F5F5F5F5F5F5F5F5F5F5F5F5F5F5F5F5F5F5F5F5F5F5F5F5F5F5F5F5F5F5F5F5F5F5F5F5F5F5F5
310
F5E2F5F5F5F5F5F5F5F5F5F5F5F5F5F5F5F5E2F5F5F5E2E2EFF5F5F5E2F5F5F5F5F5F5F5F5F5F5F5F5F5F5F5F5E2F5F5F5F5F5F5F5F5F5F5F5F5F5F5F5F5F5F5F5F5F5F5F5F5F5F5F5F5F5F5F5F5F5F5F5F5F5F5F5F5F5F5F5F5F5F5F5F5F5F5F5F5F5F5F5F5F5F5F5F5F5F5F5F5F5F5F5F5F5F5F5F5F5F5F5F5F5F5F5F5F5
310
F5F5F5F5F5F5F5F5F5F5F5F5F5F5F5F5F5F5F5F5F5F5F5F5F5F5F5F5F5F5F5F5F5F5F5F5F5F5F5F5F5F5F5F5F5F5F5F5F5F5F5F5F5F5E2F5F5F5F5F5F5F5F5F5F5F5F5F5F5F5F5E2F5F5F5E2E2EFF5F5F5E2F5F5F5F5F5F5F5F5F5F5F5F5F5F5F5F5E2F5F5F5F5F5F5F5F5F5F5F5F5F5F5F5F5F5F5F5F5F5F5F5F5F5F5F5F5
310
F5F5F5F5F5F5F5F5F5F5F5F5F5F5F5F5F5F5F5F5F5F5F5F5F5F5F5F5F5F5F5F5F5F5F5F5F5F5F5F5F5F5F5F5F5F5F5F5F5F5F5F5F5F5F5F5F5F5F5F5F5F5F5F5F5F5F5F5F5F5F5F5F5F5F5F5F5F5F5F5F5F5F5F5F5F5F5F5F5F5F5F5F5F5F5F5F5F5F5F5F5F5F5F5F5F5F5E2F5F5F5F5F5F5F5F5F5F5F5F5F5F5F5F5E2F5F5
310
F5E2E2EFF5F5F5E2F5F5F5F5F5F5F5F5F5F5F5F5F5F5F5F5E2F5F5F5F5F5F5F5F5F5F5F5F5F5F5F5F5F5F5F5F5F5F5F5F5F5F5F5F5F5F5F5F5F5F5F5F5F5F5F5F5F5F5F5F5F5F5F5F5F5F5F5F5F5F5F5F5F5F5F5F5F5F5F5F5F5F5F5F5F5F5F5F5F5F5F5F5F5F5F5F5F5F5F5F5F5F5F5F5F5F5F5F5F5F5F5F5F5F5F5F5F5F5
310
F5F5F5F5F5F5F5F5F5F5F5F5F5F5F5F5F5F5F5F5F5F5F5F5F5F5F5F5F5F5F5F5F5E2F5F5F5F5F5F5F5F5F5F5F5F5F5F5F5F5E2F5F5F5E2E2EFF5F5F5E2F5F5F5F5F5F5F5F5F5F5F5F5F5F5F5F5E2F5F5F5F5F5F5F5F5F5F5F5F5F5F5F5F5F5F5F5F5F5F5F5F5F5F5F5F5F5F5F5F5F5F5F5F5F5F5F5F5F5F5F5F5F5F5F5F5F5
310
F5F5F5F5F5F5F5F5F5F5F5F5F5F5F5F5F5F5F5F5F5F5F5F5F5F5F5F5F5F5F5F5F5F5F5F5F5F5F5F5F5F5F5F5F5F5F5F5F5F5F5F5F5F5F5F5F5F5F5F5F5F5F5F5F5F5F5F5F5F5F5F5F5F5F5F5F5F5F5F5F5F5F5F5F5F5E2F5F5F5F5F5F5F5F5F5F5F5F5F5F5F5F5E2F5F5F5E2E2EFF5F5F5E2F5F5F5F5F5F5F5F5F5F5F5F5F5
310
F5F5F5E2F5F5F5F5F5F5F5F5F5F5F5F5F5F5F5F5F5F5F5F5F5F5F5F5F5F5F5F5F5F5F5F5F5F5F5F5F5F5F5F5F5F5F5F5F5F5F5F5F5F5F5F5F5F5F5F5F5F5F5F5F5F5F5F5F5F5F5F5F5F5F5F5F5F5F5F5F5F5F5F5F5F5F5F5F5F5F5F5F5F5F5F5F5F5F5F5F5F5F5F5F5F5F5F5F5F5F5F5F5F5F5F5F5F5F5F5F5F5F5F5F5F5F5
310
F5F5F5F5F5F5F5F5F5F5F5F5E2F5F5F5F5F5F5F5F5F5F5F5F5F5F5F5F5E2F5F5F5E2E2EFF5F5F5E2F5F5F5F5F5F5F5F5F5F5F5F5F5F5F5F5E2F5F5F5F5F5F5F5F5F5F5F5F5F5F5F5F5F5F5F5F5F5F5F5F5F5F5F5F5F5F5F5F5F5F5F5F5F5F5F5F5F5F5F5F5F5F5F5F5F5F5F5F5F5F5F5F5F5F5F5F5F5F5F5F5F5F5F5F5F5F5
310
F5F5F5F5F5F5F5F5F5F5F5F5F5F5F5F5F5F5F5F5F5F5F5F5F5F5F5F5F5F5F5F5F5F5F5F5F5F5F5F5F5F5F5F5F5F5F5F5F5F5F5F5F5F5F5F5F5F5F5F5F5F5F5F5F5E2F5F5F5F5F5F5F5F5F5F5F5F5F5F5F5F5E2F5F5F5E2E2EFF5F5F5E2F5F5F5F5F5F5F5F5F5F5F5F5F5F5F5F5E2F5F5F5F5F5F5F5F5F5F5F5F5F5F5F5F5F5
310
F5F5F5F5F5F5F5F5F5F5F5F5F5F5F5F5F5F5F5F5F5F5F5F5F5F5F5F5F5F5F5F5F5F5F5F5F5F5F5F5F5F5F5F5F5F5F5F5F5F5F5F5F5F5F5F5F5F5F5F5F5F5F5F5F5F5F5F5F5F5F5F5F5F5F5F5F5F5F5F5F5F5F5F5F5F5F5F5F5F5F5F5F5F5F5F5F5F5F5F5F5F5F5F5F5F5F5F5F5F5F5F5F5F5F5F5F5F5E2F5F5F5F5F5F5F5F5
310
F5F5F5F5F5F5F5F5E2F5F5F5E2E2EFF5F5F5E2F5F5F5F5F5F5F5F5F5F5F5F5F5F5F5F5E2F5F5F5F5F5F5F5F5F5F5F5F5F5F5F5F5F5F5F5F5F5F5F5F5F5F5F5F5F5F5F5F5F5F5F5F5F5F5F5F5F5F5F5F5F5F5F5F5F5F5F5F5F5F5F5F5F5F5F5F5F5F5F5F5F5F5F5F5F5F5F5F5F5F5F5F5F5F5F5F5F5F5F5F5F5F5F5F5F5F5F5
310
F5F5F5F5F5F5F5F5F5F5F5F5F5F5F5F5F5F5F5F5F5F5F5F5F5F5F5F5F5F5F5F5F5F5F5F5F5F5F5F5F5F5F5F5E2F5F5F5F5F5F5F5F5F5F5F5F5F5F5F5F5E2F5F5F5E2E2EFF5F5F5E2F5F5F5F5F5F5F5F5F5F5F5F5F5F5F5F5E2F5F5F5F5F5F5F5F5F5F5F5F5F5F5F5F5F5F5F5F5F5F5F5F5F5F5F5F5F5F5F5F5F5F5F5F5F5F5
310
F5F5F5F5F5F5F5F5F5F5F5F5F5F5F5F5F5F5F5F5F5F5F5F5F5F5F5F5F5F5F5F5F5F5F5F5F5F5F5F5F5F5F5F5F5F5F5F5F5F5F5F5F5F5F5F5F5F5F5F5F5F5F5F5F5F5F5F5F5F5F5F5F5F5F5F5F5F5F5F5F5F5F5F5F5F5F5F5F5F5F5F5F5F5F5F5F5E2F5F5F5F5F5F5F5F5F5F5F5F5F5F5F5F5E2F5F5F5E2E2EFF5F5F5E2F5F5
310
F5F5F5F5F5F5F5F5F5F5F5F5F5F5E2F5F5F5F5F5F5F5F5F5F5F5F5F5F5F5F5F5F5F5F5F5F5F5F5F5F5F5F5F5F5F5F5F5F5F5F5F5F5F5F5F5F5F5F5F5F5F5F5F5F5F5F5F5F5F5F5F5F5F5F5F5F5F5F5F5F5F5F5F5F5F5F5F5F5F5F5F5F5F5F5F5F5F5F5F5F5F5F5F5F5F5F5F5F5F5F5F5F5F5F5F5F5F5F5F5F5F5F5F5F5F5F5
310
F5F5F5F5F5F5F5F5F5F5F5F5F5F5F5F5F5F5F5F5F5F5F5E2F5F5F5F5F5F5F5F5F5F5F5F5F5F5F5F5E2F5F5F5E2E2EFF5F5F5E2F5F5F5F5F5F5F5F5F5F5F5F5F5F5F5F5E2F5F5F5F5F5F5F5F5F5F5F5F5F5F5F5F5F5F5F5F5F5F5F5F5F5F5F5F5F5F5F5F5F5F5F5F5F5F5F5F5F5F5F5F5F5F5F5F5F5F5F5F5F5F5F5F5F5F5F5
310
F5F5F5F5F5F5F5F5F5F5F5F5F5F5F5F5F5F5F5F5F5F5F5F5F5F5F5F5F5F5F5F5F5F5F5F5F5F5F5F5F5F5F5F5F5F5F5F5F5F5F5F5F5F5F5F5F5F5F5F5F5F5F5F5F5F5F5F5F5F5F5F5F5F5F5F5E2F5F5F5F5F5F5F5F5F5F5F5F5F5F5F5F5E2F5F5F5E2E2EFF5F5F5E2F5F5F5F5F5F5F5F5F5F5F5F5F5F5F5F5E2F5F5F5F5F5F5
310
F5F5F5F5F5F5F5F5F5F5F5F5F5F5F5F5F5F5F5F5F5F5F5F5F5F5F5F5F5F5F5F5F5F5F5F5F5F5F5F5F5F5F5F5F5F5F5F5F5F5F5F5F5F5F5F5F5F5F5F5F5F5F5F5F5F5F5F5F5F5F5F5F5F5F5F5F5F5F5F5F5F5F5F5F5F5F5F5F5F5F5F5F5F5F5F5F5F5F5F5F5F5F5F5F5F5F5F5F5F5F5F5F5F5F5F5F5F5F5F5F5F5F5F5F5F5F5
310
F5F5E2F5F5F5F5F5F5F5F5F5F5F5F5F5F5F5F5E2F5F5F5E2E2EFF5F5F5F5F5F5F5F5F5F5F5F5F5F5F5F5F5F5F5F5E2F5F5F5F5F5F5F5F5F5F5F5F5F5F5F5F5F5F5F5F5F5F5F5F5F5F5F5F5F5F5F5F5F5F5F5F5F5F5F5F5F5F5F5F5F5F5F5F5F5F5F5F5F5F5F5F5F5F5F5F5F5F5F5F5F5F5F5F5F5F5F5F5F5F5F5F5F5F5F5F5
310
F5F5F5F5F5F5F5F5F5F5F5F5F5F5F5F5F5F5F5F5F5F5F5F5F5F5F5F5F5F5F5F5F5F5F5F5F5F5F5F5F5F5F5F5F5F5F5F5F5F5F5F5F5F5F5E2F5F5F5F5F5F5F5F5F5F5F5F5F5F5F5F5F5F5F5F5E2E2EFF5F5F5F5F5F5F5F5F5F5F5F5F5F5F5F5F5F5F5F5E2F5F5F5F5F5F5F5F5F5F5F5F5F5F5F5F5F5F5F5F5F5F5F5F5F5F5F5
310
F5F5F5F5F5F5F5F5F5F5F5F5F5F5F5F5F5F5F5F5F5F5F5F5F5F5F5F5F5F5F5F5F5F5F5F5F5F5F5F5F5F5F5F5F5F5F5F5F5F5F5F5F5F5F5F5F5F5F5F5F5F5F5F5F5F5F5F5F5F5F5F5F5F5F5F5F5F5F5F5F5F5F5F5F5F5F5F5F5F5F5F5F5F5F5F5F5F5F5F5F5F5F5F5F5F5F5F5E2F5F5F5F5F5F5F5F5F5F5F5F5F5F5F5F5F5F5
310
F5F5E2E2EFF5F5F5F5F5F5F5F5F5F5F5F5F5F5F5F5F5F5F5F5E2F5F5F5F5F5F5F5F5F5F5F5F5F5F5F5F5F5F5F5F5F5F5F5F5F5F5F5F5F5F5F5F5F5F5F5F5F5F5F5F5F5F5F5F5F5F5F5F5F5F5F5F5F5F5F5F5F5F5F5F5F5F5F5F5F5F5F5F5F5F5F5F5F5F5F5F5F5F5F5F5F5F5F5F5F5F5F5F5F5F5F5F5F5F5F5F5F5F5F5F5F5
310
F5F5F5F5F5F5F5F5F5F5F5F5F5F5F5F5F5F5F5F5F5F5F5F5F5F5F5F5F5F5F5F5F5F5E2F5F5F5F5F5F5F5F5F5F5F5F5F5F5F5F5F5F5F5F5E2E2EFF5F5F5F5F5F5F5F5F5F5F5F5F5F5F5F5F5F5F5F5E2F5F5F5F5F5F5F5F5F5F5F5F5F5F5F5F5F5F5F5F5F5F5F5F5F5F5F5F5F5F5F5F5F5F5F5F5F5F5F5F5F5F5F5F5F5F5F5F5
310
F5F5F5F5F5F5F5F5F5F5F5F5F5F5F5F5F5F5F5F5F5F5F5F5F5F5F5F5F5F5F5F5F5F5F5F5F5F5F5F5F5F5F5F5F5F5F5F5F5F5F5F5F5F5F5F5F5F5F5F5F5F5F5F5F5F5F5F5F5F5F5F5F5F5F5F5F5F5F5F5F5F5F5F5F5F5F5E2F5F5F5F5F5F5F5F5F5F5F5F5F5F5F5F5F5F5F5F5E2E2EFF5F5F5F5F5F5F5F5F5F5F5F5F5F5F5F5
310
F5F5F5F5E2E2E2E2E2E2E2E2E2E2E2E2E2E2E2E2E2E2E2E2E2E2E2E2E2E2E2E2E2E2E2E2E2E2E2E2E2E2E2E2E2E2E2E2E2E2E2E2E2E2E2E2E2E2E2E2E2E2E2E2E2E2E2E2E2E2E2E2E2E2E2E2E2E2E2E2E2E2E2E2E2E2E2E2E2E2E2E2E2E2E2E2E2E2E2E2E2E2E2E2E2E2E2E2E2E2E2E2E2E2E2E2E2E2E2E2E2E2E2E2E2E2E2
310
E2E2E2E2E2E2E2E2E2E2E2E2E2E2F5F5F5F5F5F5F5F5F5F5F5F5F5F5F5F5F5F5F5F5E2E2EFF5F5F5F5F5F5F5F5F5F5F5F5F5F5F5F5F5F5F5F5F5F5F5F5F5F5F5F5F5F5F5F5F5F5F5F5F5F5F5F5F5F5F5F5F5F5F5F5F5F5F5F5F5F5F5F5F5F5F5F5F5F5F5F5F5F5F5F5F5F5F5F5F5F5F5F5F5F5F5F5F5F5F5F5F5F5F5F5F5F5
310
F5F5F5F5F5F5F5F5F5F5F5F5F5F5F5F5F5F5F5F5F5F5F5F5F5F5F5F5F5F5F5F5F5F5F5F5F5F5F5F5F5F5F5F5F5F5F5F5F5F5F5F5F5F5F5F5F5F5F5F5F5F5F5F5F5F5F5F5F5F5F5F5F5F5F5F5F5F5F5F5F5F5F5F5F5F5F5E2E2EFF5F5F5F5F5F5F5F5F5F5F5F5F5F5F5F5F5F5F5F5F5F5F5F5F5F5F5F5F5F5F5F5F5F5F5F5F5
310
F5F5F5F5F5F5F5F5F5F5F5F5F5F5F5F5F5F5F5F5F5F5F5F5F5F5F5F5F5F5F5F5F5F5F5F5F5F5F5F5F5F5F5F5F5F5F5F5F5F5F5F5F5F5F5F5F5F5F5F5F5F5F5F5F5F5F5F5F5F5F5F5F5F5F5F5F5F5F5F5F5F5F5F5F5F5F5F5F5F5F5F5F5F5F5F5F5F5F5F5F5F5F5F5F5F5F5F5F5F5F5F5F5F5F5F5F5F5F5F5F5F5F5F5F5F5F5
310
F5F5F5F5F5F5F5F5F5F5F5F5F5E2E2EFF5F5F5F5F5F5F5F5F5F5F5F5F5F5F5F5F5F5F5F5F5F5F5F5F5F5F5F5F5F5F5F5F5F5F5F5F5F5F5F5F5F5F5F5F5F5F5F5F5F5F5F5F5F5F5F5F5F5F5F5F5F5F5F5F5F5F5F5F5F5F5F5F5F5F5F5F5F5F5F5F5F5F5F5F5F5F5F5F5F5F5F5F5F5F5F5F5F5F5F5F5F5F5F5F5F5F5F5F5F5F5
310
F5F5F5F5F5F5F5F5F5F5F5F5F5F5F5F5F5F5F5F5F5F5F5F5F5F5F5F5F5F5F5F5F5F5F5F5F5F5F5F5F5F5F5F5F5F5F5F5F5F5F5F5F5F5F5F5F5F5F5F5F5F5F5F5F5F5E2E2EFF5F5F5F5F5F5F5F5F5F5F5F5F5F5F5F5F5F5F5F5F5F5F5F5F5F5F5F5F5F5F5F5F5F5F5F5F5F5F5F5F5F5F5F5F5F5F5F5F5F5F5F5F5F5F5F5F5F5
310
F5F5F5F5F5F5F5F5F5F5F5F5F5F5F5F5F5F5F5F5F5F5F5F5F5F5F5F5F5F5F5F5F5F5F5F5F5F5F5F5F5F5F5F5F5F5F5F5F5F5F5F5F5F5F5F5F5F5F5F5F5F5F5F5F5F5F5F5F5F5F5F5F5F5F5F5F5F5F5F5F5F5F5F5F5F5F5F5F5F5F5F5F5F5F5F5F5F5F5F5F5F5F5F5F5F5F5F5F5F5F5F5F5F5F5F5F5F5F5E2E2EFF5F5F5E2F5
310
F5F5F5F5F5F5F5F5F5F5F5F5F5F5F5F5F5F5F5F5F5F5F5F5F5F5F5F5F5F5F5F5F5F5F5F5F5F5F5F5F5F5F5F5F5F5F5F5F5F5F5F5F5F5F5F5F5F5F5F5F5F5F5F5F5F5F5F5F5F5F5F5F5F5F5F5F5F5F5F5F5F5F5F5F5F5F5F5F5F5F5F5F5F5F5F5F5F5F5F5F5F5F5F5F5F5F5F5F5F5F5F5F5F5F5F5F5F5F5F5F5F5F5F5F5F5F5
310
F5F5F5F5F5F5F5F5F5F5F5F5F5F5F5F5F5F5F5F5F5F5F5F5F5F5F5F5F5F5F5F5F5F5F5F5F5F5F5F5F5E2F5F5F5E2E2EFF5F5F5E2F5F5F5F5F5F5F5F5F5F5F5F5F5F5F5F5F5F5F5F5F5F5F5F5F5F5F5F5F5F5F5F5F5F5F5F5F5F5F5F5F5F5F5F5F5F5F5F5F5F5F5F5F5F5F5F5F5F5F5F5F5F5F5F5F5F5F5F5F5F5F5F5F5F5F5
310
F5F5F5F5F5F5F5F5F5F5F5F5F5F5F5F5F5F5F5F5F5F5F5F5F5F5F5F5F5F5F5F5F5F5F5F5F5F5F5F5F5F5F5F5F5F5F5F5F5F5F5F5F5F5F5F5F5F5F5F5F5F5F5F5F5F5F5F5F5F5F5F5F5F5F5F5F5F5F5F5F5F5F5F5F5F5F5F5F5F5F5F5F5F5E2F5F5F5E2E2EFF5F5F5E2F5F5F5F5F5F5F5F5F5F5F5F5F5F5F5F5F5F5F5F5F5F5
310
F5F5F5F5F5F5F5F5F5F5F5F5F5F5F5F5F5F5F5F5F5F5F5F5F5F5F5F5F5F5F5F5F5F5F5F5F5F5F5F5F5F5F5F5F5F5F5F5F5F5F5F5F5F5F5F5F5F5F5F5F5F5F5F5F5F5F5F5F5F5F5F5F5F5F5F5F5F5F5F5F5F5F5F5F5F5F5F5F5F5F5F5F5F5F5F5F5F5F5F5F5F5F5F5F5F5F5F5F5F5F5F5F5F5F5F5F5F5F5F5F5F5F5F5F5F5F5
310
F5F5F5F5F5F5F5F5F5F5F5F5F5F5F5F5F5F5F5F5E2F5F5F5E2E2EFF5F5F5E2F5F5F5F5F5F5F5F5F5F5F5F5F5F5F5F5F5F5F5F5F5F5F5F5F5F5F5F5F5F5F5F5F5F5F5F5F5F5F5F5F5F5F5F5F5F5F5F5F5F5F5F5F5F5F5F5F5F5F5F5F5F5F5F5F5F5F5F5F5F5F5F5F5F5F5F5F5F5F5F5F5F5F5F5F5F5F5F5F5F5F5F5F5F5F5F5
310
F5F5F5F5F5F5F5F5F5F5F5F5F5F5F5F5F5F5F5F5F5F5F5F5F5F5F5F5F5F5F5F5F5F5F5F5F5F5F5F5F5F5F5F5F5F5F5F5F5F5F5F5F5F5F5F5F5F5F5F5F5F5F5F5F5F5F5F5F5F5F5F5F5E2F5F5F5E2E2EFF5F5F5E2F5F5F5F5F5F5F5F5F5F5F5F5F5F5F5F5F5F5F5F5F5F5F5F5F5F5F5F5F5F5F5F5F5F5F5F5F5F5F5F5F5F5F5
310
F5F5F5F5F5F5F5F5F5F5F5F5F5F5F5F5F5F5F5F5F5F5F5F5F5F5F5F5F5F5F5F5F5F5F5F5F5F5F5F5F5F5F5F5F5F5F5F5F5F5F5F5F5F5F5F5F5F5F5F5F5F5F5F5F5F5F5F5F5F5F5F5F5F5F5F5F5F5F5F5F5F5F5F5F5F5F5F5F5F5F5F5F5F5F5F5F5F5F5F5F5F5F5F5F5F5F5F5F5F5F5F5F5F5F5F5F5F5F5F5F5F5F5F5F5F5E2
310
F5F5F5E2E2EFF5F5F5E2F5F5F5F5F5F5F5F5F5F5F5F5F5F5F5F5F5F5F5F5F5F5F5F5F5F5F5F5F5F5F5F5F5F5F5F5F5F5F5F5F5F5F5F5F5F5F5F5F5F5F5F5F5F5F5F5F5F5F5F5F5F5F5F5F5F5F5F5F5F5F5F5F5F5F5F5F5F5F5F5F5F5F5F5F5F5F5F5F5F5F5F5F5F5F5F5F5F5F5F5F5F5F5F5F5F5F5F5F5F5F5F5F5F5F5F5F5
310
F5F5F5F5F5F5F5F5F5F5F5F5F5F5F5F5F5F5F5F5F5F5F5F5F5F5F5F5F5F5F5F5F5F5F5F5F5F5F5F5F5F5F5F5F5F5F5F5F5F5F5F5E2F5F5F5E2E2EFF5F5F5E2F5F5F5F5F5F5F5F5F5F5F5F5F5F5F5F5F5F5F5F5F5F5F5F5F5F5F5F5F5F5F5F5F5F5F5F5F5F5F5F5F5F5F5F5F5F5F5F5F5F5F5F5F5F5F5F5F5F5F5F5F5F5F5F5
310
F5F5F5F5F5F5F5F5F5F5F5F5F5F5F5F5F5F5F5F5F5F5F5F5F5F5F5F5F5F5F5F5F5F5F5F5F5F5F5F5F5F5F5F5F5F5F5F5F5F5F5F5F5F5F5F5F5F5F5F5F5F5F5F5F5F5F5F5F5F5F5F5F5F5F5F5F5F5F5F5F5F5F5F5F5F5F5F5F5F5F5F5F5F5F5F5F5F5F5F5F5F5F5F5F5E2F5F5F5E2E2EFF5F5F5E2F5F5F5F5F5F5F5F5F5F5F5
310
F5F5F5F5F5F5F5F5F5F5F5F5F5F5F5F5F5F5F5F5F5F5F5F5F5F5F5F5F5F5F5F5F5F5F5F5F5F5F5F5F5F5F5F5F5F5F5F5F5F5F5F5F5F5F5F5F5F5F5F5F5F5F5F5F5F5F5F5F5F5F5F5F5F5F5F5F5F5F5F5F5F5F5F5F5F5F5F5F5F5F5F5F5F5F5F5F5F5F5F5F5F5F5F5F5F5F5F5F5F5F5F5F5F5F5F5F5F5F5F5F5F5F5F5F5F5F5
310
F5F5F5F5F5F5F5F5F5F5F5F5F5F5F5F5F5F5F5F5F5F5F5F5F5F5F5F5F5F5F5E2F5F5F5E2E2EFF5F5F5E2E2E2E2E2E2E2E2F5F5F5F5F5F5F5F5F5E2E2E2E2E2E2E2E2E2E2E2E2E2E2E2E2F5F5F5F5F5F5F5F5E2E2E2E2E2E2E2E2E2E2E2E2E2E2E2E2F5F5F5F5F5F5F5F5F5E2E2E2E2E2E2E2E2E2E2E2E2E2E2E2F5F5F5F5F5
310
F5F5F5F5E2E2E2E2E2E2E2E2E2E2E2E2E2E2E2F5F5F5F5F5F5F5F5F5E2E2E2E2E2E2E2E2E2E2E2E2E2E2E2E2F5F5F5F5F5F5F5F5E2E2E2E2E2E2E2E2E2E2E2E2E2E2E2E2F5F5F5F5F5F5F5F5F5E2E2E2E2E2E2E2E2F5F5F5E2E2EFF5F5F5F5F5F5F5F5F5F5F5F5F5F5F5F5F5F5F5F5F5F5F5F5F5F5F5F5F5F5F5F5F5F5F5F5
310
F5F5F5F5F5F5F5F5F5F5F5F5F5F5F5F5F5F5F5F5F5F5F5F5F5F5F5F5F5F5F5F5F5F5F5F5F5F5F5F5F5F5F5F5F5F5F5F5F5F5F5F5F5F5F5F5F5F5F5F5F5F5F5F5F5F5F5F5F5F5F5F5F5F5F5F5F5F5F5F5F5F5F5F5F5F5F5F5F5F5F5F5F5F5F5F5F5F5F5F5F5F5F5F5F5F5F5F5F5F5F5F5F5F5F5F5F5F5F5F5F5F5F5F5F5F5F5
310
F5F5F5F5F5F5F5F5F5F5F5F5F5F5E2E2EFF5F5F5F5F5F5F5F5F5F5F5F5F5F5F5F5F5F5F5F5F5F5F5F5F5F5F5F5F5F5F5F5F5F5F5F5F5F5F5F5F5F5F5F5F5F5F5F5F5F5F5F5F5F5F5F5F5F5F5F5F5F5F5F5F5F5F5F5F5F5F5F5F5F5F5F5F5F5F5F5F5F5F5F5F5F5F5F5F5F5F5F5F5F5F5F5F5F5F5F5F5F5F5F5F5F5F5F5F5F5
310
F5F5F5F5F5F5F5F5F5F5F5F5F5F5F5F5F5F5F5F5F5F5F5F5F5F5F5F5F5F5F5F5F5F5F5F5F5F5F5F5F5F5F5F5F5F5F5F5F5F5F5F5F5F5F5F5F5F5F5F5F5F5F5F5F5F5F5E2EFEFF5F5F5F5F5F5F5F5F5F5F5F5F5F5F5F5F5F5F5F5F5F5F5F5F5F5F5F5F5F5F5F5F5F5F5F5F5F5F5F5F5F5F5F5F5F5F5F5F5F5F5F5F5F5F5F5F5
310
F5F5F5F5F5F5F5F5F5F5F5F5F5F5F5F5F5F5F5F5F5F5F5F5F5F5F5F5F5F5F5F5F5F5F5F5F5F5F5F5F5F5F5F5F5F5F5F5F5F5F5F5F5F5F5F5F5F5F5F5F5F5F5F5F5F5F5F5F5F5F5F5F5F5F5F5F5F5F5F5F5F5F5F5F5F5F5F5F5F5F5F5F5F5F5F5F5F5F5F5F5F5F5F5F5F5F5F5F5F5F5F5F5F5F5F5F5F5F5F5E2EFEFE2E2E2E2
310
E2E2E2E2E2E2E2E2E2E2E2E2E2E2E2E2E2E2E2E2E2E2E2E2E2E2E2E2E2E2E2E2E2E2E2E2E2E2E2E2E2E2E2E2E2E2E2E2E2E2E2E2E2E2E2E2E2E2E2E2E2E2E2E2E2E2E2E2E2E2E2E2E2E2E2E2E2E2E2E2E2E2E2E2E2E2E2E2E2E2E2E2E2E2E2E2E2E2E2E2E2E2E2E2E2E2E2E2E2E2E2E2E2E2E2E2E2E2E2E2E2E2E2E2E2E2E2
310
E2E2E2E2E2E2E2E2E2E2E2E2E2E2E2E2E2E2E2E2E2E2E2E2E2E2E2E2E2E2E2E2E2E2E2E2E2E2E2E2E2E2E2E2E2E2E2EFEF
  0
ENDSEC
  0
EOF
