  0
SECTION
  2
HEADER
  9
$ACADVER
  1
AC1018
  9
$ACADMAINTVER
 70
     0
  9
$DWGCODEPAGE
  3
ANSI_1252
  9
$AUTHOR
  1
g6edxjah
  9
$LASTSAVEDBY
  1
g6edxjah
  9
$INSBASE
 10
0.0
 20
0.0
 30
0.0
  9
$EXTMIN
 10
13.295073
 20
-12.141333
 30
0.0
  9
$EXTMAX
 10
24.458156
 20
-3.72825
 30
0.0
  9
$LIMMIN
 10
-9.080095
 20
-35.891501
  9
$LIMMAX
 10
46.833324
 20
20.021918
  9
$ORTHOMODE
 70
     0
  9
$REGENMODE
 70
     1
  9
$FILLMODE
 70
     1
  9
$QTEXTMODE
 70
     0
  9
$MIRRTEXT
 70
     0
  9
$LTSCALE
 40
1.0
  9
$ATTMODE
 70
     1
  9
$TEXTSIZE
 40
0.12
  9
$TRACEWID
 40
0.05
  9
$TEXTSTYLE
  7
Standard
  9
$CLAYER
  8
TEXT
  9
$CELTYPE
  6
Continuous
  9
$CECOLOR
 62
     7
  9
$CELTSCALE
 40
1.0
  9
$DISPSILH
 70
     0
  9
$DIMSCALE
 40
1.0
  9
$DIMASZ
 40
0.12
  9
$DIMEXO
 40
0.06
  9
$DIMDLI
 40
0.0
  9
$DIMRND
 40
0.0
  9
$DIMDLE
 40
0.0
  9
$DIMEXE
 40
0.06
  9
$DIMTP
 40
0.0
  9
$DIMTM
 40
0.0
  9
$DIMTXT
 40
0.12
  9
$DIMCEN
 40
0.09
  9
$DIMTSZ
 40
0.0
  9
$DIMTOL
 70
     0
  9
$DIMLIM
 70
     0
  9
$DIMTIH
 70
     0
  9
$DIMTOH
 70
     0
  9
$DIMSE1
 70
     0
  9
$DIMSE2
 70
     0
  9
$DIMTAD
 70
     1
  9
$DIMZIN
 70
    11
  9
$DIMBLK
  1
TerminatorOpen_0.5
  9
$DIMASO
 70
     1
  9
$DIMSHO
 70
     1
  9
$DIMPOST
  1

  9
$DIMAPOST
  1

  9
$DIMALT
 70
     0
  9
$DIMALTD
 70
     4
  9
$DIMALTF
 40
25.4
  9
$DIMLFAC
 40
1.0
  9
$DIMTOFL
 70
     0
  9
$DIMTVP
 40
0.0
  9
$DIMTIX
 70
     0
  9
$DIMSOXD
 70
     0
  9
$DIMSAH
 70
     0
  9
$DIMBLK1
  1

  9
$DIMBLK2
  1

  9
$DIMSTYLE
  2
Standard
  9
$DIMCLRD
 70
     0
  9
$DIMCLRE
 70
     0
  9
$DIMCLRT
 70
     0
  9
$DIMTFAC
 40
1.0
  9
$DIMGAP
 40
0.06
  9
$DIMJUST
 70
     0
  9
$DIMSD1
 70
     0
  9
$DIMSD2
 70
     0
  9
$DIMTOLJ
 70
     0
  9
$DIMTZIN
 70
    11
  9
$DIMALTZ
 70
    15
  9
$DIMALTTZ
 70
    15
  9
$DIMUPT
 70
     0
  9
$DIMDEC
 70
     4
  9
$DIMTDEC
 70
     4
  9
$DIMALTU
 70
     2
  9
$DIMALTTD
 70
     4
  9
$DIMTXSTY
  7
Style-FANCY
  9
$DIMAUNIT
 70
     0
  9
$DIMADEC
 70
     4
  9
$DIMALTRND
 40
0.0
  9
$DIMAZIN
 70
     3
  9
$DIMDSEP
 70
    46
  9
$DIMATFIT
 70
     1
  9
$DIMFRAC
 70
     0
  9
$DIMLDRBLK
  1
TerminatorOpen_0.5
  9
$DIMLUNIT
 70
     2
  9
$DIMLWD
 70
    -2
  9
$DIMLWE
 70
    -2
  9
$DIMTMOVE
 70
     0
  9
$LUNITS
 70
     2
  9
$LUPREC
 70
     4
  9
$SKETCHINC
 40
0.1
  9
$FILLETRAD
 40
0.0
  9
$AUNITS
 70
     0
  9
$AUPREC
 70
     4
  9
$MENU
  1
.
  9
$ELEVATION
 40
0.0
  9
$PELEVATION
 40
0.0
  9
$THICKNESS
 40
0.0
  9
$LIMCHECK
 70
     0
  9
$CHAMFERA
 40
0.0
  9
$CHAMFERB
 40
0.0
  9
$CHAMFERC
 40
0.0
  9
$CHAMFERD
 40
0.0
  9
$SKPOLY
 70
     0
  9
$TDCREATE
 40
2455393.464440173
  9
$TDUCREATE
 40
2455393.672773507
  9
$TDUPDATE
 40
2455393.464440173
  9
$TDUUPDATE
 40
2455393.672773507
  9
$TDINDWG
 40
0.0
  9
$TDUSRTIMER
 40
0.0006630093
  9
$USRTIMER
 70
     1
  9
$ANGBASE
 50
0.0
  9
$ANGDIR
 70
     0
  9
$PDMODE
 70
     0
  9
$PDSIZE
 40
0.0
  9
$PLINEWID
 40
0.0
  9
$SPLFRAME
 70
     0
  9
$SPLINETYPE
 70
     6
  9
$SPLINESEGS
 70
     8
  9
$HANDSEED
  5
4BB
  9
$SURFTAB1
 70
     6
  9
$SURFTAB2
 70
     6
  9
$SURFTYPE
 70
     6
  9
$SURFU
 70
     6
  9
$SURFV
 70
     6
  9
$UCSBASE
  2

  9
$UCSNAME
  2

  9
$UCSORG
 10
0.0
 20
0.0
 30
0.0
  9
$UCSXDIR
 10
1.0
 20
0.0
 30
0.0
  9
$UCSYDIR
 10
0.0
 20
1.0
 30
0.0
  9
$UCSORTHOREF
  2

  9
$UCSORTHOVIEW
 70
     0
  9
$UCSORGTOP
 10
0.0
 20
0.0
 30
0.0
  9
$UCSORGBOTTOM
 10
0.0
 20
0.0
 30
0.0
  9
$UCSORGLEFT
 10
0.0
 20
0.0
 30
0.0
  9
$UCSORGRIGHT
 10
0.0
 20
0.0
 30
0.0
  9
$UCSORGFRONT
 10
0.0
 20
0.0
 30
0.0
  9
$UCSORGBACK
 10
0.0
 20
0.0
 30
0.0
  9
$PUCSBASE
  2

  9
$PUCSNAME
  2

  9
$PUCSORG
 10
0.0
 20
0.0
 30
0.0
  9
$PUCSXDIR
 10
1.0
 20
0.0
 30
0.0
  9
$PUCSYDIR
 10
0.0
 20
1.0
 30
0.0
  9
$PUCSORTHOREF
  2

  9
$PUCSORTHOVIEW
 70
     0
  9
$PUCSORGTOP
 10
0.0
 20
0.0
 30
0.0
  9
$PUCSORGBOTTOM
 10
0.0
 20
0.0
 30
0.0
  9
$PUCSORGLEFT
 10
0.0
 20
0.0
 30
0.0
  9
$PUCSORGRIGHT
 10
0.0
 20
0.0
 30
0.0
  9
$PUCSORGFRONT
 10
0.0
 20
0.0
 30
0.0
  9
$PUCSORGBACK
 10
0.0
 20
0.0
 30
0.0
  9
$USERI1
 70
     0
  9
$USERI2
 70
     0
  9
$USERI3
 70
     0
  9
$USERI4
 70
     0
  9
$USERI5
 70
     0
  9
$USERR1
 40
0.0
  9
$USERR2
 40
0.0
  9
$USERR3
 40
0.0
  9
$USERR4
 40
0.0
  9
$USERR5
 40
0.0
  9
$WORLDVIEW
 70
     1
  9
$SHADEDGE
 70
     3
  9
$SHADEDIF
 70
    70
  9
$TILEMODE
 70
     1
  9
$MAXACTVP
 70
    64
  9
$PINSBASE
 10
0.0
 20
0.0
 30
0.0
  9
$PLIMCHECK
 70
     0
  9
$PEXTMIN
 10
1.049744
 20
0.799667
 30
-0.001526
  9
$PEXTMAX
 10
9.450623
 20
7.200577
 30
0.0
  9
$PLIMMIN
 10
-0.25
 20
-0.25
  9
$PLIMMAX
 10
10.75
 20
8.25
  9
$UNITMODE
 70
     0
  9
$VISRETAIN
 70
     1
  9
$PLINEGEN
 70
     0
  9
$PSLTSCALE
 70
     0
  9
$TREEDEPTH
 70
  3020
  9
$CMLSTYLE
  2
Standard
  9
$CMLJUST
 70
     0
  9
$CMLSCALE
 40
1.0
  9
$PROXYGRAPHICS
 70
     1
  9
$MEASUREMENT
 70
     0
  9
$CELWEIGHT
370
    53
  9
$ENDCAPS
280
     0
  9
$JOINSTYLE
280
     0
  9
$LWDISPLAY
290
     1
  9
$INSUNITS
 70
     2
  9
$HYPERLINKBASE
  1

  9
$STYLESHEET
  1

  9
$XEDIT
290
     1
  9
$CEPSNTYPE
380
     0
  9
$PSTYLEMODE
290
     1
  9
$FINGERPRINTGUID
  2
{02C0BBB5-38A7-4FBF-829E-00875EC88963}
  9
$VERSIONGUID
  2
{82C521FC-BF81-46B3-825E-420B6BD93A99}
  9
$EXTNAMES
290
     1
  9
$PSVPSCALE
 40
0.0
  9
$OLESTARTUP
290
     0
  9
$SORTENTS
280
   127
  9
$INDEXCTL
280
     0
  9
$HIDETEXT
280
     1
  9
$XCLIPFRAME
290
     0
  9
$HALOGAP
280
     0
  9
$OBSCOLOR
 70
   257
  9
$OBSLTYPE
280
     0
  9
$INTERSECTIONDISPLAY
280
     0
  9
$INTERSECTIONCOLOR
 70
   257
  9
$DIMASSOC
280
     1
  9
$PROJECTNAME
  1

  0
ENDSEC
  0
SECTION
  2
CLASSES
  0
CLASS
  1
ACDBDICTIONARYWDFLT
  2
AcDbDictionaryWithDefault
  3
ObjectDBX Classes
 90
        0
 91
        3
280
     0
281
     0
  0
CLASS
  1
SORTENTSTABLE
  2
AcDbSortentsTable
  3
ObjectDBX Classes
 90
        0
 91
        3
280
     0
281
     0
  0
ENDSEC
  0
SECTION
  2
TABLES
  0
TABLE
  2
VPORT
  5
49B
330
0
100
AcDbSymbolTable
 70
     4
  0
VPORT
  5
49
330
49B
100
AcDbSymbolTableRecord
100
AcDbViewportTableRecord
  2
*ACTIVE
 70
     0
 10
0.0
 20
0.0
 11
1.0
 21
1.0
 12
18.876615
 22
-7.934792
 13
0.0
 23
0.0
 14
0.083333
 24
0.083333
 15
0.083333
 25
0.083333
 16
0.0
 26
0.0
 36
1.0
 17
0.0
 27
0.0
 37
0.0
 40
8.749607
 41
1.884937
 42
50.0
 43
0.0
 44
0.0
 50
0.0
 51
0.0
 71
     0
 72
   100
 73
     1
 74
     2
 75
     0
 76
     0
 77
     0
 78
     1
281
     0
 65
     1
110
0.0
120
0.0
130
0.0
111
1.0
121
0.0
131
0.0
112
0.0
122
1.0
132
0.0
 79
     0
146
0.0
  0
ENDTAB
  0
TABLE
  2
LTYPE
  5
482
330
0
100
AcDbSymbolTable
 70
     1
  0
LTYPE
  5
483
330
482
100
AcDbSymbolTableRecord
100
AcDbLinetypeTableRecord
  2
ByBlock
 70
     0
  3

 72
    65
 73
     0
 40
0.0
  0
LTYPE
  5
484
330
482
100
AcDbSymbolTableRecord
100
AcDbLinetypeTableRecord
  2
ByLayer
 70
     0
  3

 72
    65
 73
     0
 40
0.0
  0
LTYPE
  5
481
330
482
100
AcDbSymbolTableRecord
100
AcDbLinetypeTableRecord
  2
Continuous
 70
     0
  3
Solid line
 72
    65
 73
     0
 40
0.0
  0
ENDTAB
  0
TABLE
  2
LAYER
  5
47B
102
{ACAD_XDICTIONARY
360
47C
102
}
330
0
100
AcDbSymbolTable
 70
    64
  0
LAYER
  5
47A
330
47B
100
AcDbSymbolTableRecord
100
AcDbLayerTableRecord
  2
0
 70
     0
 62
     7
  6
Continuous
370
    -3
390
47E
  0
LAYER
  5
7
330
47B
100
AcDbSymbolTableRecord
100
AcDbLayerTableRecord
  2
Level 1
 70
     0
 62
     7
  6
Continuous
370
     0
390
47E
  0
LAYER
  5
8
330
47B
100
AcDbSymbolTableRecord
100
AcDbLayerTableRecord
  2
2-36G
 70
     0
 62
     7
  6
Continuous
370
     0
390
47E
1001
AcAecLayerStandard
1000

1000
2-36G
  0
LAYER
  5
9
330
47B
100
AcDbSymbolTableRecord
100
AcDbLayerTableRecord
  2
BORDER
 70
     0
 62
     7
  6
Continuous
370
     0
390
47E
1001
AcAecLayerStandard
1000

1000
BORDER
  0
LAYER
  5
A
330
47B
100
AcDbSymbolTableRecord
100
AcDbLayerTableRecord
  2
DEFPOINTS
 70
     0
 62
     7
  6
Continuous
290
     0
370
     0
390
47E
1001
AcAecLayerStandard
1000

1000
DEFPOINTS
  0
LAYER
  5
B
330
47B
100
AcDbSymbolTableRecord
100
AcDbLayerTableRecord
  2
DIM
 70
     0
 62
     7
  6
Continuous
370
     0
390
47E
1001
AcAecLayerStandard
1000

1000
DIM
  0
LAYER
  5
C
330
47B
100
AcDbSymbolTableRecord
100
AcDbLayerTableRecord
  2
HATCH
 70
     0
 62
     7
  6
Continuous
370
     0
390
47E
1001
AcAecLayerStandard
1000

1000
HATCH
  0
LAYER
  5
D
330
47B
100
AcDbSymbolTableRecord
100
AcDbLayerTableRecord
  2
NOTES
 70
     0
 62
     7
  6
Continuous
370
     0
390
47E
1001
AcAecLayerStandard
1000

1000
NOTES
  0
LAYER
  5
E
330
47B
100
AcDbSymbolTableRecord
100
AcDbLayerTableRecord
  2
REF
 70
     0
 62
     7
  6
Continuous
370
     0
390
47E
1001
AcAecLayerStandard
1000

1000
REF
  0
LAYER
  5
F
330
47B
100
AcDbSymbolTableRecord
100
AcDbLayerTableRecord
  2
TEXT
 70
     0
 62
     7
  6
Continuous
370
     0
390
47E
1001
AcAecLayerStandard
1000

1000
TEXT
  0
LAYER
  5
10
330
47B
100
AcDbSymbolTableRecord
100
AcDbLayerTableRecord
  2
TITLE
 70
     0
 62
     7
  6
Continuous
370
     0
390
47E
1001
AcAecLayerStandard
1000

1000
TITLE
  0
LAYER
  5
11
330
47B
100
AcDbSymbolTableRecord
100
AcDbLayerTableRecord
  2
Level 11
 70
     0
 62
     7
  6
Continuous
370
     0
390
47E
  0
LAYER
  5
12
330
47B
100
AcDbSymbolTableRecord
100
AcDbLayerTableRecord
  2
Level 12
 70
     0
 62
     7
  6
Continuous
370
     0
390
47E
  0
LAYER
  5
13
330
47B
100
AcDbSymbolTableRecord
100
AcDbLayerTableRecord
  2
Level 13
 70
     0
 62
     7
  6
Continuous
370
     0
390
47E
  0
LAYER
  5
14
330
47B
100
AcDbSymbolTableRecord
100
AcDbLayerTableRecord
  2
Level 14
 70
     0
 62
     7
  6
Continuous
370
     0
390
47E
  0
LAYER
  5
15
330
47B
100
AcDbSymbolTableRecord
100
AcDbLayerTableRecord
  2
Level 15
 70
     0
 62
     7
  6
Continuous
370
     0
390
47E
  0
LAYER
  5
16
330
47B
100
AcDbSymbolTableRecord
100
AcDbLayerTableRecord
  2
Level 16
 70
     0
 62
     7
  6
Continuous
370
     0
390
47E
  0
LAYER
  5
17
330
47B
100
AcDbSymbolTableRecord
100
AcDbLayerTableRecord
  2
Level 17
 70
     0
 62
     7
  6
Continuous
370
     0
390
47E
  0
LAYER
  5
18
330
47B
100
AcDbSymbolTableRecord
100
AcDbLayerTableRecord
  2
Level 18
 70
     0
 62
     7
  6
Continuous
370
     0
390
47E
  0
LAYER
  5
19
330
47B
100
AcDbSymbolTableRecord
100
AcDbLayerTableRecord
  2
Level 19
 70
     0
 62
     7
  6
Continuous
370
     0
390
47E
  0
LAYER
  5
1A
330
47B
100
AcDbSymbolTableRecord
100
AcDbLayerTableRecord
  2
Level 20
 70
     0
 62
     7
  6
Continuous
370
     0
390
47E
  0
LAYER
  5
1B
330
47B
100
AcDbSymbolTableRecord
100
AcDbLayerTableRecord
  2
Level 21
 70
     0
 62
     7
  6
Continuous
370
     0
390
47E
  0
LAYER
  5
1C
330
47B
100
AcDbSymbolTableRecord
100
AcDbLayerTableRecord
  2
Level 22
 70
     0
 62
     7
  6
Continuous
370
     0
390
47E
  0
LAYER
  5
1D
330
47B
100
AcDbSymbolTableRecord
100
AcDbLayerTableRecord
  2
Level 23
 70
     0
 62
     7
  6
Continuous
370
     0
390
47E
  0
LAYER
  5
1E
330
47B
100
AcDbSymbolTableRecord
100
AcDbLayerTableRecord
  2
Level 24
 70
     0
 62
     7
  6
Continuous
370
     0
390
47E
  0
LAYER
  5
1F
330
47B
100
AcDbSymbolTableRecord
100
AcDbLayerTableRecord
  2
Level 25
 70
     0
 62
     7
  6
Continuous
370
     0
390
47E
  0
LAYER
  5
20
330
47B
100
AcDbSymbolTableRecord
100
AcDbLayerTableRecord
  2
Level 26
 70
     0
 62
     7
  6
Continuous
370
     0
390
47E
  0
LAYER
  5
21
330
47B
100
AcDbSymbolTableRecord
100
AcDbLayerTableRecord
  2
Level 27
 70
     0
 62
     7
  6
Continuous
370
     0
390
47E
  0
LAYER
  5
22
330
47B
100
AcDbSymbolTableRecord
100
AcDbLayerTableRecord
  2
Level 28
 70
     0
 62
     7
  6
Continuous
370
     0
390
47E
  0
LAYER
  5
23
330
47B
100
AcDbSymbolTableRecord
100
AcDbLayerTableRecord
  2
Level 29
 70
     0
 62
     7
  6
Continuous
370
     0
390
47E
  0
LAYER
  5
24
330
47B
100
AcDbSymbolTableRecord
100
AcDbLayerTableRecord
  2
Level 30
 70
     0
 62
     7
  6
Continuous
370
     0
390
47E
  0
LAYER
  5
25
330
47B
100
AcDbSymbolTableRecord
100
AcDbLayerTableRecord
  2
Level 31
 70
     0
 62
     7
  6
Continuous
370
     0
390
47E
  0
LAYER
  5
26
330
47B
100
AcDbSymbolTableRecord
100
AcDbLayerTableRecord
  2
Level 32
 70
     0
 62
     7
  6
Continuous
370
     0
390
47E
  0
LAYER
  5
27
330
47B
100
AcDbSymbolTableRecord
100
AcDbLayerTableRecord
  2
Level 33
 70
     0
 62
     7
  6
Continuous
370
     0
390
47E
  0
LAYER
  5
28
330
47B
100
AcDbSymbolTableRecord
100
AcDbLayerTableRecord
  2
Level 34
 70
     0
 62
     7
  6
Continuous
370
     0
390
47E
  0
LAYER
  5
29
330
47B
100
AcDbSymbolTableRecord
100
AcDbLayerTableRecord
  2
Level 35
 70
     0
 62
     7
  6
Continuous
370
     0
390
47E
  0
LAYER
  5
2A
330
47B
100
AcDbSymbolTableRecord
100
AcDbLayerTableRecord
  2
Level 36
 70
     0
 62
     7
  6
Continuous
370
     0
390
47E
  0
LAYER
  5
2B
330
47B
100
AcDbSymbolTableRecord
100
AcDbLayerTableRecord
  2
Level 37
 70
     0
 62
     7
  6
Continuous
370
     0
390
47E
  0
LAYER
  5
2C
330
47B
100
AcDbSymbolTableRecord
100
AcDbLayerTableRecord
  2
Level 38
 70
     0
 62
     7
  6
Continuous
370
     0
390
47E
  0
LAYER
  5
2D
330
47B
100
AcDbSymbolTableRecord
100
AcDbLayerTableRecord
  2
Level 39
 70
     0
 62
     7
  6
Continuous
370
     0
390
47E
  0
LAYER
  5
2E
330
47B
100
AcDbSymbolTableRecord
100
AcDbLayerTableRecord
  2
Level 40
 70
     0
 62
     7
  6
Continuous
370
     0
390
47E
  0
LAYER
  5
2F
330
47B
100
AcDbSymbolTableRecord
100
AcDbLayerTableRecord
  2
Level 41
 70
     0
 62
     7
  6
Continuous
370
     0
390
47E
  0
LAYER
  5
30
330
47B
100
AcDbSymbolTableRecord
100
AcDbLayerTableRecord
  2
Level 42
 70
     0
 62
     7
  6
Continuous
370
     0
390
47E
  0
LAYER
  5
31
330
47B
100
AcDbSymbolTableRecord
100
AcDbLayerTableRecord
  2
Level 43
 70
     0
 62
     7
  6
Continuous
370
     0
390
47E
  0
LAYER
  5
32
330
47B
100
AcDbSymbolTableRecord
100
AcDbLayerTableRecord
  2
Level 44
 70
     0
 62
     7
  6
Continuous
370
     0
390
47E
  0
LAYER
  5
33
330
47B
100
AcDbSymbolTableRecord
100
AcDbLayerTableRecord
  2
Level 45
 70
     0
 62
     7
  6
Continuous
370
     0
390
47E
  0
LAYER
  5
34
330
47B
100
AcDbSymbolTableRecord
100
AcDbLayerTableRecord
  2
Level 46
 70
     0
 62
     7
  6
Continuous
370
     0
390
47E
  0
LAYER
  5
35
330
47B
100
AcDbSymbolTableRecord
100
AcDbLayerTableRecord
  2
Level 47
 70
     0
 62
     7
  6
Continuous
370
     0
390
47E
  0
LAYER
  5
36
330
47B
100
AcDbSymbolTableRecord
100
AcDbLayerTableRecord
  2
Level 48
 70
     0
 62
     7
  6
Continuous
370
     0
390
47E
  0
LAYER
  5
37
330
47B
100
AcDbSymbolTableRecord
100
AcDbLayerTableRecord
  2
Level 49
 70
     0
 62
     7
  6
Continuous
370
     0
390
47E
  0
LAYER
  5
38
330
47B
100
AcDbSymbolTableRecord
100
AcDbLayerTableRecord
  2
Level 50
 70
     0
 62
     7
  6
Continuous
370
     0
390
47E
  0
LAYER
  5
39
330
47B
100
AcDbSymbolTableRecord
100
AcDbLayerTableRecord
  2
Level 51
 70
     0
 62
     7
  6
Continuous
370
     0
390
47E
  0
LAYER
  5
3A
330
47B
100
AcDbSymbolTableRecord
100
AcDbLayerTableRecord
  2
Level 52
 70
     0
 62
     7
  6
Continuous
370
     0
390
47E
  0
LAYER
  5
3B
330
47B
100
AcDbSymbolTableRecord
100
AcDbLayerTableRecord
  2
Level 53
 70
     0
 62
     7
  6
Continuous
370
     0
390
47E
  0
LAYER
  5
3C
330
47B
100
AcDbSymbolTableRecord
100
AcDbLayerTableRecord
  2
Level 54
 70
     0
 62
     7
  6
Continuous
370
     0
390
47E
  0
LAYER
  5
3D
330
47B
100
AcDbSymbolTableRecord
100
AcDbLayerTableRecord
  2
Level 55
 70
     0
 62
     7
  6
Continuous
370
     0
390
47E
  0
LAYER
  5
3E
330
47B
100
AcDbSymbolTableRecord
100
AcDbLayerTableRecord
  2
Level 56
 70
     0
 62
     7
  6
Continuous
370
     0
390
47E
  0
LAYER
  5
3F
330
47B
100
AcDbSymbolTableRecord
100
AcDbLayerTableRecord
  2
Level 57
 70
     0
 62
     7
  6
Continuous
370
     0
390
47E
  0
LAYER
  5
40
330
47B
100
AcDbSymbolTableRecord
100
AcDbLayerTableRecord
  2
Level 58
 70
     0
 62
     7
  6
Continuous
370
     0
390
47E
  0
LAYER
  5
41
330
47B
100
AcDbSymbolTableRecord
100
AcDbLayerTableRecord
  2
Level 59
 70
     0
 62
     7
  6
Continuous
370
     0
390
47E
  0
LAYER
  5
42
330
47B
100
AcDbSymbolTableRecord
100
AcDbLayerTableRecord
  2
Level 60
 70
     0
 62
     7
  6
Continuous
370
     0
390
47E
  0
LAYER
  5
43
330
47B
100
AcDbSymbolTableRecord
100
AcDbLayerTableRecord
  2
Level 61
 70
     0
 62
     7
  6
Continuous
370
     0
390
47E
  0
LAYER
  5
44
330
47B
100
AcDbSymbolTableRecord
100
AcDbLayerTableRecord
  2
Level 62
 70
     0
 62
     7
  6
Continuous
370
     0
390
47E
  0
LAYER
  5
45
330
47B
100
AcDbSymbolTableRecord
100
AcDbLayerTableRecord
  2
_0
 70
     0
 62
     7
  6
Continuous
370
     0
390
47E
1001
AcAecLayerStandard
1000

1000
0
  0
ENDTAB
  0
TABLE
  2
STYLE
  5
486
330
0
100
AcDbSymbolTable
 70
     3
  0
STYLE
  5
485
330
486
100
AcDbSymbolTableRecord
100
AcDbTextStyleTableRecord
  2
Standard
 70
     0
 40
0.0
 41
1.0
 50
0.0
 71
     0
 42
0.12
  3
txt
  4

  0
STYLE
  5
4A5
330
486
100
AcDbSymbolTableRecord
100
AcDbTextStyleTableRecord
  2
Style-FANCY
 70
     0
 40
0.0
 41
1.0
 50
0.0
 71
     0
 42
0.2
  3
FANCY.shx
  4

  0
STYLE
  5
4B5
330
486
100
AcDbSymbolTableRecord
100
AcDbTextStyleTableRecord
  2
Style-Arial
 70
     0
 40
0.0
 41
1.0
 50
0.0
 71
     0
 42
0.2
  3

  4

1001
ACAD
1000
Arial
1071
       39
  0
ENDTAB
  0
TABLE
  2
VIEW
  5
499
330
0
100
AcDbSymbolTable
 70
     0
  0
ENDTAB
  0
TABLE
  2
UCS
  5
49A
330
0
100
AcDbSymbolTable
 70
     0
  0
ENDTAB
  0
TABLE
  2
APPID
  5
498
330
0
100
AcDbSymbolTable
 70
     3
  0
APPID
  5
4A0
330
498
100
AcDbSymbolTableRecord
100
AcDbRegAppTableRecord
  2
ACAD
 70
     0
  0
APPID
  5
497
330
498
100
AcDbSymbolTableRecord
100
AcDbRegAppTableRecord
  2
ACAD_PSEXT
 70
     0
  0
APPID
  5
4A2
330
498
100
AcDbSymbolTableRecord
100
AcDbRegAppTableRecord
  2
AcAecLayerStandard
 70
     0
  0
ENDTAB
  0
TABLE
  2
DIMSTYLE
  5
488
330
0
100
AcDbSymbolTable
 70
     1
100
AcDbDimStyleTable
  0
DIMSTYLE
105
487
330
488
100
AcDbSymbolTableRecord
100
AcDbDimStyleTableRecord
  2
Standard
 70
     0
340
485
  0
ENDTAB
  0
TABLE
  2
BLOCK_RECORD
  5
48B
330
0
100
AcDbSymbolTable
 70
     3
  0
BLOCK_RECORD
  5
48C
102
{ACAD_XDICTIONARY
360
4B6
102
}
330
48B
100
AcDbSymbolTableRecord
100
AcDbBlockTableRecord
  2
*Model_Space
340
48F
  0
BLOCK_RECORD
  5
491
330
48B
100
AcDbSymbolTableRecord
100
AcDbBlockTableRecord
  2
*Paper_Space
340
494
  0
BLOCK_RECORD
  5
4A6
330
48B
100
AcDbSymbolTableRecord
100
AcDbBlockTableRecord
  2
TerminatorOpen_0.5
340
0
  0
BLOCK_RECORD
  5
4AF
330
48B
100
AcDbSymbolTableRecord
100
AcDbBlockTableRecord
  2
LARROW
340
0
102
{BLKREFS
331
3D9
331
3DB
331
3DD
331
3DF
331
3E1
331
3E3
331
3E5
331
3E7
331
3E9
331
3EB
331
3ED
331
3EF
102
}
  0
BLOCK_RECORD
  5
4B2
330
48B
100
AcDbSymbolTableRecord
100
AcDbBlockTableRecord
  2
LARROW_1
340
0
102
{BLKREFS
331
3FC
331
407
331
412
331
41D
102
}
  0
ENDTAB
  0
ENDSEC
  0
SECTION
  2
BLOCKS
  0
BLOCK
  5
48D
330
48C
100
AcDbEntity
  8
0
100
AcDbBlockBegin
  2
*Model_Space
 70
     0
 71
     0
 10
0.0
 20
0.0
 30
0.0
  3
*Model_Space
  1

  0
ENDBLK
  5
48E
330
48C
100
AcDbEntity
  8
0
100
AcDbBlockEnd
  0
BLOCK
  5
492
330
491
100
AcDbEntity
 67
     1
  8
0
100
AcDbBlockBegin
  2
*Paper_Space
 70
     0
 71
     0
 10
0.0
 20
0.0
 30
0.0
  3
*Paper_Space
  1

  0
ENDBLK
  5
493
330
491
100
AcDbEntity
 67
     1
  8
0
100
AcDbBlockEnd
  0
BLOCK
  5
4AA
330
4A6
100
AcDbEntity
  8
0
100
AcDbBlockBegin
  2
TerminatorOpen_0.5
 70
     0
 71
     0
 10
0.0
 20
0.0
 30
0.0
  3
TerminatorOpen_0.5
  1

  0
LINE
  5
4A7
330
4A6
100
AcDbEntity
  8
0
  6
ByBlock
 62
     0
370
    -2
100
AcDbLine
 10
0.0
 20
0.0
 30
0.0
 11
-1.0
 21
0.0
 31
0.0
  0
LINE
  5
4A8
330
4A6
100
AcDbEntity
  8
0
  6
ByBlock
 62
     0
370
    -2
100
AcDbLine
 10
0.0
 20
0.0
 30
0.0
 11
-1.0
 21
0.25
 31
0.0
  0
LINE
  5
4A9
330
4A6
100
AcDbEntity
  8
0
  6
ByBlock
 62
     0
370
    -2
100
AcDbLine
 10
0.0
 20
0.0
 30
0.0
 11
-1.0
 21
-0.25
 31
0.0
  0
ENDBLK
  5
4AB
330
4A6
100
AcDbEntity
  8
0
100
AcDbBlockEnd
  0
BLOCK
  5
4B0
330
4AF
100
AcDbEntity
  8
0
100
AcDbBlockBegin
  2
LARROW
 70
     0
 71
     0
 10
0.0
 20
0.0
 30
0.0
  3
LARROW
  1

  0
LWPOLYLINE
  5
3DA
330
4AF
100
AcDbEntity
  8
DIM
  6
Continuous
 62
     7
370
    13
100
AcDbPolyline
 90
       63
 70
   128
 43
0.0
 10
-0.013031
 20
0.001885
 10
0.0
 20
0.0
 10
-0.013021
 20
-0.001885
 10
-0.012615
 20
-0.001573
 10
-0.012042
 20
-0.00101
 10
-0.01176
 20
-0.00049
 10
-0.011687
 20
0.0
 10
-0.011792
 20
0.000552
 10
-0.012094
 20
0.001094
 10
-0.012677
 20
0.001625
 10
-0.013031
 20
0.001885
 10
-0.000385
 20
0.000021
 10
-0.012604
 20
-0.00176
 10
-0.012229
 20
-0.001479
 10
-0.011625
 20
-0.000906
 10
-0.011427
 20
-0.000167
 10
-0.011562
 20
0.000573
 10
-0.011917
 20
0.001083
 10
-0.012344
 20
0.0015
 10
-0.012635
 20
0.001729
 10
-0.001073
 20
0.000021
 10
-0.012052
 20
-0.001552
 10
-0.011667
 20
-0.001302
 10
-0.011469
 20
-0.000979
 10
-0.01125
 20
-0.000563
 10
-0.011135
 20
0.000021
 10
-0.011198
 20
0.0005
 10
-0.011427
 20
0.000875
 10
-0.011896
 20
0.001177
 10
-0.012208
 20
0.001542
 10
-0.001875
 20
0.000021
 10
-0.011448
 20
-0.001323
 10
-0.011021
 20
-0.000792
 10
-0.010896
 20
-0.000146
 10
-0.010958
 20
0.000573
 10
-0.011781
 20
0.001354
 10
-0.002771
 20
0.000062
 10
-0.010896
 20
-0.001073
 10
-0.010781
 20
-0.000698
 10
-0.010531
 20
-0.000094
 10
-0.010687
 20
0.000552
 10
-0.011333
 20
0.001125
 10
-0.003594
 20
0.000062
 10
-0.010604
 20
-0.000833
 10
-0.010375
 20
-0.000375
 10
-0.010271
 20
0.000115
 10
-0.01076
 20
0.000875
 10
-0.004573
 20
0.000062
 10
-0.010177
 20
-0.000625
 10
-0.010021
 20
-0.000281
 10
-0.009979
 20
0.000115
 10
-0.010375
 20
0.000667
 10
-0.00574
 20
0.000062
 10
-0.009823
 20
-0.000396
 10
-0.009708
 20
0.000135
 10
-0.010083
 20
0.000458
 10
-0.006698
 20
0.000062
 10
-0.009552
 20
-0.00024
 10
-0.009615
 20
0.000271
 10
-0.007677
 20
0.000062
 10
-0.009437
 20
-0.000073
 10
-0.00949
 20
0.000083
 10
-0.008885
 20
0.000083
  0
ENDBLK
  5
4B1
330
4AF
100
AcDbEntity
  8
0
100
AcDbBlockEnd
  0
BLOCK
  5
4B3
330
4B2
100
AcDbEntity
  8
0
100
AcDbBlockBegin
  2
LARROW_1
 70
     0
 71
     0
 10
0.0
 20
0.0
 30
0.0
  3
LARROW_1
  1

  0
LINE
  5
3FD
330
4B2
100
AcDbEntity
  8
TEXT
  6
Continuous
 62
     7
370
    13
100
AcDbLine
 10
0.0
 20
0.0
 30
0.0
 11
-0.013031
 21
0.001885
 31
0.0
  0
LINE
  5
3FE
330
4B2
100
AcDbEntity
  8
TEXT
  6
Continuous
 62
     7
370
    13
100
AcDbLine
 10
0.0
 20
0.0
 30
0.0
 11
-0.013021
 21
-0.001885
 31
0.0
  0
LWPOLYLINE
  5
3FF
330
4B2
100
AcDbEntity
  8
TEXT
  6
Continuous
 62
     7
370
    13
100
AcDbPolyline
 90
        9
 70
   128
 43
0.0
 10
-0.013031
 20
0.001885
 10
-0.01225
 20
0.001292
 10
-0.011896
 20
0.000812
 10
-0.011719
 20
0.000365
 10
-0.011687
 20
-0.000052
 10
-0.01175
 20
-0.000458
 10
-0.011958
 20
-0.000896
 10
-0.012323
 20
-0.001354
 10
-0.013021
 20
-0.001885
  0
LINE
  5
400
330
4B2
100
AcDbEntity
  8
TEXT
  6
Continuous
 62
     7
370
    13
100
AcDbLine
 10
0.0
 20
0.0
 30
0.0
 11
-0.01225
 21
0.001292
 31
0.0
  0
LINE
  5
401
330
4B2
100
AcDbEntity
  8
TEXT
  6
Continuous
 62
     7
370
    13
100
AcDbLine
 10
0.0
 20
0.0
 30
0.0
 11
-0.011896
 21
0.000812
 31
0.0
  0
LINE
  5
402
330
4B2
100
AcDbEntity
  8
TEXT
  6
Continuous
 62
     7
370
    13
100
AcDbLine
 10
0.0
 20
0.0
 30
0.0
 11
-0.011719
 21
0.000365
 31
0.0
  0
LINE
  5
403
330
4B2
100
AcDbEntity
  8
TEXT
  6
Continuous
 62
     7
370
    13
100
AcDbLine
 10
0.0
 20
0.0
 30
0.0
 11
-0.01175
 21
-0.000458
 31
0.0
  0
LINE
  5
404
330
4B2
100
AcDbEntity
  8
TEXT
  6
Continuous
 62
     7
370
    13
100
AcDbLine
 10
0.0
 20
0.0
 30
0.0
 11
-0.011958
 21
-0.000896
 31
0.0
  0
LINE
  5
405
330
4B2
100
AcDbEntity
  8
TEXT
  6
Continuous
 62
     7
370
    13
100
AcDbLine
 10
0.0
 20
0.0
 30
0.0
 11
-0.012323
 21
-0.001354
 31
0.0
  0
LINE
  5
406
330
4B2
100
AcDbEntity
  8
TEXT
  6
Continuous
 62
     7
370
    13
100
AcDbLine
 10
0.0
 20
0.0
 30
0.0
 11
-0.011677
 21
0.0
 31
0.0
  0
ENDBLK
  5
4B4
330
4B2
100
AcDbEntity
  8
0
100
AcDbBlockEnd
  0
ENDSEC
  0
SECTION
  2
ENTITIES
  0
POINT
  5
5B
330
48C
100
AcDbEntity
  8
_0
  6
Continuous
 62
     7
370
    30
100
AcDbPoint
 10
14.363521
 20
-4.309792
 30
0.0
  0
LINE
  5
5C
330
48C
100
AcDbEntity
  8
BORDER
  6
Continuous
 62
     7
370
    30
100
AcDbLine
 10
14.363521
 20
-11.559792
 30
0.0
 11
14.363521
 21
-4.309792
 31
0.0
  0
LWPOLYLINE
  5
5D
330
48C
100
AcDbEntity
  8
_0
  6
Continuous
 62
     7
370
    30
100
AcDbPolyline
 90
       15
 70
   128
 43
0.0
 10
19.725615
 20
-6.056354
 10
19.674479
 20
-6.056354
 10
19.674479
 20
-6.119271
 10
19.710667
 20
-6.119271
 10
19.710667
 20
-6.207365
 10
19.66425
 20
-6.207365
 10
19.525844
 20
-6.257125
 10
19.725615
 20
-6.257125
 10
19.925385
 20
-6.257125
 10
19.786979
 20
-6.207365
 10
19.740562
 20
-6.207365
 10
19.740562
 20
-6.119271
 10
19.77675
 20
-6.119271
 10
19.77675
 20
-6.056354
 10
19.725615
 20
-6.056354
  0
LINE
  5
5E
330
48C
100
AcDbEntity
  8
_0
  6
Continuous
 62
     7
370
    30
100
AcDbLine
 10
19.77675
 20
-6.103635
 30
0.0
 11
19.761115
 21
-6.119271
 31
0.0
  0
LINE
  5
5F
330
48C
100
AcDbEntity
  8
_0
  6
Continuous
 62
     7
370
    30
100
AcDbLine
 10
19.673021
 20
-6.207365
 30
0.0
 11
19.62326
 21
-6.257125
 31
0.0
  0
LINE
  5
60
330
48C
100
AcDbEntity
  8
_0
  6
Continuous
 62
     7
370
    30
100
AcDbLine
 10
19.740562
 20
-6.139823
 30
0.0
 11
19.710656
 21
-6.169719
 31
0.0
  0
LINE
  5
61
330
48C
100
AcDbEntity
  8
_0
  6
Continuous
 62
     7
370
    30
100
AcDbLine
 10
19.77675
 20
-6.107167
 30
0.0
 11
19.764646
 21
-6.119271
 31
0.0
  0
LINE
  5
62
330
48C
100
AcDbEntity
  8
_0
  6
Continuous
 62
     7
370
    30
100
AcDbLine
 10
19.676562
 20
-6.207365
 30
0.0
 11
19.626802
 21
-6.257125
 31
0.0
  0
LINE
  5
63
330
48C
100
AcDbEntity
  8
_0
  6
Continuous
 62
     7
370
    30
100
AcDbLine
 10
19.740562
 20
-6.143365
 30
0.0
 11
19.710656
 21
-6.17326
 31
0.0
  0
LINE
  5
64
330
48C
100
AcDbEntity
  8
_0
  6
Continuous
 62
     7
370
    30
100
AcDbLine
 10
19.77675
 20
-6.110708
 30
0.0
 11
19.768177
 21
-6.119271
 31
0.0
  0
LINE
  5
65
330
48C
100
AcDbEntity
  8
_0
  6
Continuous
 62
     7
370
    30
100
AcDbLine
 10
19.680094
 20
-6.207365
 30
0.0
 11
19.630333
 21
-6.257125
 31
0.0
  0
LINE
  5
66
330
48C
100
AcDbEntity
  8
_0
  6
Continuous
 62
     7
370
    30
100
AcDbLine
 10
19.740562
 20
-6.146896
 30
0.0
 11
19.710656
 21
-6.176792
 31
0.0
  0
LINE
  5
67
330
48C
100
AcDbEntity
  8
_0
  6
Continuous
 62
     7
370
    30
100
AcDbLine
 10
19.77675
 20
-6.11424
 30
0.0
 11
19.771719
 21
-6.119271
 31
0.0
  0
LINE
  5
68
330
48C
100
AcDbEntity
  8
_0
  6
Continuous
 62
     7
370
    30
100
AcDbLine
 10
19.683625
 20
-6.207365
 30
0.0
 11
19.633865
 21
-6.257125
 31
0.0
  0
LINE
  5
69
330
48C
100
AcDbEntity
  8
_0
  6
Continuous
 62
     7
370
    30
100
AcDbLine
 10
19.740562
 20
-6.150437
 30
0.0
 11
19.710656
 21
-6.180333
 31
0.0
  0
LINE
  5
6A
330
48C
100
AcDbEntity
  8
_0
  6
Continuous
 62
     7
370
    30
100
AcDbLine
 10
19.77675
 20
-6.117781
 30
0.0
 11
19.77525
 21
-6.119271
 31
0.0
  0
LINE
  5
6B
330
48C
100
AcDbEntity
  8
_0
  6
Continuous
 62
     7
370
    30
100
AcDbLine
 10
19.687167
 20
-6.207365
 30
0.0
 11
19.637406
 21
-6.257125
 31
0.0
  0
LINE
  5
6C
330
48C
100
AcDbEntity
  8
_0
  6
Continuous
 62
     7
370
    30
100
AcDbLine
 10
19.740562
 20
-6.153969
 30
0.0
 11
19.710656
 21
-6.183865
 31
0.0
  0
LINE
  5
6D
330
48C
100
AcDbEntity
  8
_0
  6
Continuous
 62
     7
370
    30
100
AcDbLine
 10
19.740562
 20
-6.1575
 30
0.0
 11
19.710656
 21
-6.187396
 31
0.0
  0
LINE
  5
6E
330
48C
100
AcDbEntity
  8
_0
  6
Continuous
 62
     7
370
    30
100
AcDbLine
 10
19.690698
 20
-6.207365
 30
0.0
 11
19.640937
 21
-6.257125
 31
0.0
  0
LINE
  5
6F
330
48C
100
AcDbEntity
  8
_0
  6
Continuous
 62
     7
370
    30
100
AcDbLine
 10
19.740562
 20
-6.161042
 30
0.0
 11
19.710656
 21
-6.190937
 31
0.0
  0
LINE
  5
70
330
48C
100
AcDbEntity
  8
_0
  6
Continuous
 62
     7
370
    30
100
AcDbLine
 10
19.69424
 20
-6.207365
 30
0.0
 11
19.644479
 21
-6.257125
 31
0.0
  0
LINE
  5
71
330
48C
100
AcDbEntity
  8
_0
  6
Continuous
 62
     7
370
    30
100
AcDbLine
 10
19.740562
 20
-6.164573
 30
0.0
 11
19.710656
 21
-6.194469
 31
0.0
  0
LINE
  5
72
330
48C
100
AcDbEntity
  8
_0
  6
Continuous
 62
     7
370
    30
100
AcDbLine
 10
19.697771
 20
-6.207365
 30
0.0
 11
19.64801
 21
-6.257125
 31
0.0
  0
LINE
  5
73
330
48C
100
AcDbEntity
  8
_0
  6
Continuous
 62
     7
370
    30
100
AcDbLine
 10
19.740562
 20
-6.168115
 30
0.0
 11
19.710656
 21
-6.19801
 31
0.0
  0
LINE
  5
74
330
48C
100
AcDbEntity
  8
_0
  6
Continuous
 62
     7
370
    30
100
AcDbLine
 10
19.701313
 20
-6.207365
 30
0.0
 11
19.651552
 21
-6.257125
 31
0.0
  0
LINE
  5
75
330
48C
100
AcDbEntity
  8
_0
  6
Continuous
 62
     7
370
    30
100
AcDbLine
 10
19.740562
 20
-6.171646
 30
0.0
 11
19.710656
 21
-6.201542
 31
0.0
  0
LINE
  5
76
330
48C
100
AcDbEntity
  8
_0
  6
Continuous
 62
     7
370
    30
100
AcDbLine
 10
19.704844
 20
-6.207365
 30
0.0
 11
19.655083
 21
-6.257125
 31
0.0
  0
LINE
  5
77
330
48C
100
AcDbEntity
  8
_0
  6
Continuous
 62
     7
370
    30
100
AcDbLine
 10
19.740562
 20
-6.175177
 30
0.0
 11
19.710656
 21
-6.205073
 31
0.0
  0
LINE
  5
78
330
48C
100
AcDbEntity
  8
_0
  6
Continuous
 62
     7
370
    30
100
AcDbLine
 10
19.708375
 20
-6.207365
 30
0.0
 11
19.658615
 21
-6.257125
 31
0.0
  0
LINE
  5
79
330
48C
100
AcDbEntity
  8
_0
  6
Continuous
 62
     7
370
    30
100
AcDbLine
 10
19.740562
 20
-6.178719
 30
0.0
 11
19.662156
 21
-6.257125
 31
0.0
  0
LINE
  5
7A
330
48C
100
AcDbEntity
  8
_0
  6
Continuous
 62
     7
370
    30
100
AcDbLine
 10
19.740562
 20
-6.18225
 30
0.0
 11
19.665688
 21
-6.257125
 31
0.0
  0
LINE
  5
7B
330
48C
100
AcDbEntity
  8
_0
  6
Continuous
 62
     7
370
    30
100
AcDbLine
 10
19.740562
 20
-6.185792
 30
0.0
 11
19.669229
 21
-6.257125
 31
0.0
  0
LINE
  5
7C
330
48C
100
AcDbEntity
  8
_0
  6
Continuous
 62
     7
370
    30
100
AcDbLine
 10
19.740562
 20
-6.189323
 30
0.0
 11
19.67276
 21
-6.257125
 31
0.0
  0
LINE
  5
7D
330
48C
100
AcDbEntity
  8
_0
  6
Continuous
 62
     7
370
    30
100
AcDbLine
 10
19.740562
 20
-6.192854
 30
0.0
 11
19.676292
 21
-6.257125
 31
0.0
  0
LINE
  5
7E
330
48C
100
AcDbEntity
  8
_0
  6
Continuous
 62
     7
370
    30
100
AcDbLine
 10
19.740562
 20
-6.196396
 30
0.0
 11
19.679833
 21
-6.257125
 31
0.0
  0
LINE
  5
7F
330
48C
100
AcDbEntity
  8
_0
  6
Continuous
 62
     7
370
    30
100
AcDbLine
 10
19.740562
 20
-6.199927
 30
0.0
 11
19.683365
 21
-6.257125
 31
0.0
  0
LINE
  5
80
330
48C
100
AcDbEntity
  8
_0
  6
Continuous
 62
     7
370
    30
100
AcDbLine
 10
19.740562
 20
-6.203469
 30
0.0
 11
19.686906
 21
-6.257125
 31
0.0
  0
LINE
  5
81
330
48C
100
AcDbEntity
  8
_0
  6
Continuous
 62
     7
370
    30
100
AcDbLine
 10
19.740562
 20
-6.207
 30
0.0
 11
19.690437
 21
-6.257125
 31
0.0
  0
LINE
  5
82
330
48C
100
AcDbEntity
  8
_0
  6
Continuous
 62
     7
370
    30
100
AcDbLine
 10
19.743729
 20
-6.207365
 30
0.0
 11
19.693969
 21
-6.257125
 31
0.0
  0
LINE
  5
83
330
48C
100
AcDbEntity
  8
_0
  6
Continuous
 62
     7
370
    30
100
AcDbLine
 10
19.747271
 20
-6.207365
 30
0.0
 11
19.69751
 21
-6.257125
 31
0.0
  0
LINE
  5
84
330
48C
100
AcDbEntity
  8
_0
  6
Continuous
 62
     7
370
    30
100
AcDbLine
 10
19.750802
 20
-6.207365
 30
0.0
 11
19.701042
 21
-6.257125
 31
0.0
  0
LINE
  5
85
330
48C
100
AcDbEntity
  8
_0
  6
Continuous
 62
     7
370
    30
100
AcDbLine
 10
19.754344
 20
-6.207365
 30
0.0
 11
19.704583
 21
-6.257125
 31
0.0
  0
LINE
  5
86
330
48C
100
AcDbEntity
  8
_0
  6
Continuous
 62
     7
370
    30
100
AcDbLine
 10
19.757875
 20
-6.207365
 30
0.0
 11
19.708115
 21
-6.257125
 31
0.0
  0
LINE
  5
87
330
48C
100
AcDbEntity
  8
_0
  6
Continuous
 62
     7
370
    30
100
AcDbLine
 10
19.761417
 20
-6.207365
 30
0.0
 11
19.711656
 21
-6.257125
 31
0.0
  0
LINE
  5
88
330
48C
100
AcDbEntity
  8
_0
  6
Continuous
 62
     7
370
    30
100
AcDbLine
 10
19.764948
 20
-6.207365
 30
0.0
 11
19.715187
 21
-6.257125
 31
0.0
  0
LINE
  5
89
330
48C
100
AcDbEntity
  8
_0
  6
Continuous
 62
     7
370
    30
100
AcDbLine
 10
19.768479
 20
-6.207365
 30
0.0
 11
19.718719
 21
-6.257125
 31
0.0
  0
LINE
  5
8A
330
48C
100
AcDbEntity
  8
_0
  6
Continuous
 62
     7
370
    30
100
AcDbLine
 10
19.772021
 20
-6.207365
 30
0.0
 11
19.72226
 21
-6.257125
 31
0.0
  0
LINE
  5
8B
330
48C
100
AcDbEntity
  8
_0
  6
Continuous
 62
     7
370
    30
100
AcDbLine
 10
19.775552
 20
-6.207365
 30
0.0
 11
19.725792
 21
-6.257125
 31
0.0
  0
LINE
  5
8C
330
48C
100
AcDbEntity
  8
_0
  6
Continuous
 62
     7
370
    30
100
AcDbLine
 10
19.779094
 20
-6.207365
 30
0.0
 11
19.729333
 21
-6.257125
 31
0.0
  0
LINE
  5
8D
330
48C
100
AcDbEntity
  8
_0
  6
Continuous
 62
     7
370
    30
100
AcDbLine
 10
19.782625
 20
-6.207365
 30
0.0
 11
19.732865
 21
-6.257125
 31
0.0
  0
LINE
  5
8E
330
48C
100
AcDbEntity
  8
_0
  6
Continuous
 62
     7
370
    30
100
AcDbLine
 10
19.786156
 20
-6.207365
 30
0.0
 11
19.736396
 21
-6.257125
 31
0.0
  0
LINE
  5
8F
330
48C
100
AcDbEntity
  8
_0
  6
Continuous
 62
     7
370
    30
100
AcDbLine
 10
19.788979
 20
-6.208083
 30
0.0
 11
19.739937
 21
-6.257125
 31
0.0
  0
LINE
  5
90
330
48C
100
AcDbEntity
  8
_0
  6
Continuous
 62
     7
370
    30
100
AcDbLine
 10
19.791573
 20
-6.20901
 30
0.0
 11
19.743469
 21
-6.257125
 31
0.0
  0
LINE
  5
91
330
48C
100
AcDbEntity
  8
_0
  6
Continuous
 62
     7
370
    30
100
AcDbLine
 10
19.794177
 20
-6.209948
 30
0.0
 11
19.74701
 21
-6.257125
 31
0.0
  0
LINE
  5
92
330
48C
100
AcDbEntity
  8
_0
  6
Continuous
 62
     7
370
    30
100
AcDbLine
 10
19.796781
 20
-6.210885
 30
0.0
 11
19.750542
 21
-6.257125
 31
0.0
  0
LINE
  5
93
330
48C
100
AcDbEntity
  8
_0
  6
Continuous
 62
     7
370
    30
100
AcDbLine
 10
19.799375
 20
-6.211823
 30
0.0
 11
19.754073
 21
-6.257125
 31
0.0
  0
LINE
  5
94
330
48C
100
AcDbEntity
  8
_0
  6
Continuous
 62
     7
370
    30
100
AcDbLine
 10
19.801979
 20
-6.21275
 30
0.0
 11
19.757615
 21
-6.257125
 31
0.0
  0
LINE
  5
95
330
48C
100
AcDbEntity
  8
_0
  6
Continuous
 62
     7
370
    30
100
AcDbLine
 10
19.804583
 20
-6.213687
 30
0.0
 11
19.761146
 21
-6.257125
 31
0.0
  0
LINE
  5
96
330
48C
100
AcDbEntity
  8
_0
  6
Continuous
 62
     7
370
    30
100
AcDbLine
 10
19.807177
 20
-6.214625
 30
0.0
 11
19.764688
 21
-6.257125
 31
0.0
  0
LINE
  5
97
330
48C
100
AcDbEntity
  8
_0
  6
Continuous
 62
     7
370
    30
100
AcDbLine
 10
19.809781
 20
-6.215562
 30
0.0
 11
19.768219
 21
-6.257125
 31
0.0
  0
LINE
  5
98
330
48C
100
AcDbEntity
  8
_0
  6
Continuous
 62
     7
370
    30
100
AcDbLine
 10
19.812385
 20
-6.21649
 30
0.0
 11
19.77176
 21
-6.257125
 31
0.0
  0
LINE
  5
99
330
48C
100
AcDbEntity
  8
_0
  6
Continuous
 62
     7
370
    30
100
AcDbLine
 10
19.814979
 20
-6.217427
 30
0.0
 11
19.775292
 21
-6.257125
 31
0.0
  0
LINE
  5
9A
330
48C
100
AcDbEntity
  8
_0
  6
Continuous
 62
     7
370
    30
100
AcDbLine
 10
19.817583
 20
-6.218365
 30
0.0
 11
19.778823
 21
-6.257125
 31
0.0
  0
LINE
  5
9B
330
48C
100
AcDbEntity
  8
_0
  6
Continuous
 62
     7
370
    30
100
AcDbLine
 10
19.820187
 20
-6.219302
 30
0.0
 11
19.782365
 21
-6.257125
 31
0.0
  0
LINE
  5
9C
330
48C
100
AcDbEntity
  8
_0
  6
Continuous
 62
     7
370
    30
100
AcDbLine
 10
19.822781
 20
-6.220229
 30
0.0
 11
19.785896
 21
-6.257125
 31
0.0
  0
LINE
  5
9D
330
48C
100
AcDbEntity
  8
_0
  6
Continuous
 62
     7
370
    30
100
AcDbLine
 10
19.825385
 20
-6.221167
 30
0.0
 11
19.789437
 21
-6.257125
 31
0.0
  0
LINE
  5
9E
330
48C
100
AcDbEntity
  8
_0
  6
Continuous
 62
     7
370
    30
100
AcDbLine
 10
19.82799
 20
-6.222104
 30
0.0
 11
19.792969
 21
-6.257125
 31
0.0
  0
LINE
  5
9F
330
48C
100
AcDbEntity
  8
_0
  6
Continuous
 62
     7
370
    30
100
AcDbLine
 10
19.830583
 20
-6.223042
 30
0.0
 11
19.7965
 21
-6.257125
 31
0.0
  0
LINE
  5
A0
330
48C
100
AcDbEntity
  8
_0
  6
Continuous
 62
     7
370
    30
100
AcDbLine
 10
19.833188
 20
-6.223969
 30
0.0
 11
19.800042
 21
-6.257125
 31
0.0
  0
LINE
  5
A1
330
48C
100
AcDbEntity
  8
_0
  6
Continuous
 62
     7
370
    30
100
AcDbLine
 10
19.835792
 20
-6.224906
 30
0.0
 11
19.803573
 21
-6.257125
 31
0.0
  0
LINE
  5
A2
330
48C
100
AcDbEntity
  8
_0
  6
Continuous
 62
     7
370
    30
100
AcDbLine
 10
19.838385
 20
-6.225844
 30
0.0
 11
19.807115
 21
-6.257125
 31
0.0
  0
LINE
  5
A3
330
48C
100
AcDbEntity
  8
_0
  6
Continuous
 62
     7
370
    30
100
AcDbLine
 10
19.84099
 20
-6.226781
 30
0.0
 11
19.810646
 21
-6.257125
 31
0.0
  0
LINE
  5
A4
330
48C
100
AcDbEntity
  8
_0
  6
Continuous
 62
     7
370
    30
100
AcDbLine
 10
19.843594
 20
-6.227719
 30
0.0
 11
19.814177
 21
-6.257125
 31
0.0
  0
LINE
  5
A5
330
48C
100
AcDbEntity
  8
_0
  6
Continuous
 62
     7
370
    30
100
AcDbLine
 10
19.846187
 20
-6.228646
 30
0.0
 11
19.817719
 21
-6.257125
 31
0.0
  0
LINE
  5
A6
330
48C
100
AcDbEntity
  8
_0
  6
Continuous
 62
     7
370
    30
100
AcDbLine
 10
19.848792
 20
-6.229583
 30
0.0
 11
19.82125
 21
-6.257125
 31
0.0
  0
LINE
  5
A7
330
48C
100
AcDbEntity
  8
_0
  6
Continuous
 62
     7
370
    30
100
AcDbLine
 10
19.851385
 20
-6.230521
 30
0.0
 11
19.824792
 21
-6.257125
 31
0.0
  0
LINE
  5
A8
330
48C
100
AcDbEntity
  8
_0
  6
Continuous
 62
     7
370
    30
100
AcDbLine
 10
19.85399
 20
-6.231458
 30
0.0
 11
19.828323
 21
-6.257125
 31
0.0
  0
LINE
  5
A9
330
48C
100
AcDbEntity
  8
_0
  6
Continuous
 62
     7
370
    30
100
AcDbLine
 10
19.856594
 20
-6.232385
 30
0.0
 11
19.831865
 21
-6.257125
 31
0.0
  0
LINE
  5
AA
330
48C
100
AcDbEntity
  8
_0
  6
Continuous
 62
     7
370
    30
100
AcDbLine
 10
19.859188
 20
-6.233323
 30
0.0
 11
19.835396
 21
-6.257125
 31
0.0
  0
LINE
  5
AB
330
48C
100
AcDbEntity
  8
_0
  6
Continuous
 62
     7
370
    30
100
AcDbLine
 10
19.861792
 20
-6.23426
 30
0.0
 11
19.838927
 21
-6.257125
 31
0.0
  0
LINE
  5
AC
330
48C
100
AcDbEntity
  8
_0
  6
Continuous
 62
     7
370
    30
100
AcDbLine
 10
19.864396
 20
-6.235198
 30
0.0
 11
19.842469
 21
-6.257125
 31
0.0
  0
LINE
  5
AD
330
48C
100
AcDbEntity
  8
_0
  6
Continuous
 62
     7
370
    30
100
AcDbLine
 10
19.86699
 20
-6.236125
 30
0.0
 11
19.846
 21
-6.257125
 31
0.0
  0
LINE
  5
AE
330
48C
100
AcDbEntity
  8
_0
  6
Continuous
 62
     7
370
    30
100
AcDbLine
 10
19.869594
 20
-6.237062
 30
0.0
 11
19.849542
 21
-6.257125
 31
0.0
  0
LINE
  5
AF
330
48C
100
AcDbEntity
  8
_0
  6
Continuous
 62
     7
370
    30
100
AcDbLine
 10
19.872198
 20
-6.238
 30
0.0
 11
19.853073
 21
-6.257125
 31
0.0
  0
LINE
  5
B0
330
48C
100
AcDbEntity
  8
_0
  6
Continuous
 62
     7
370
    30
100
AcDbLine
 10
19.874792
 20
-6.238937
 30
0.0
 11
19.856604
 21
-6.257125
 31
0.0
  0
LINE
  5
B1
330
48C
100
AcDbEntity
  8
_0
  6
Continuous
 62
     7
370
    30
100
AcDbLine
 10
19.877396
 20
-6.239865
 30
0.0
 11
19.860146
 21
-6.257125
 31
0.0
  0
LINE
  5
B2
330
48C
100
AcDbEntity
  8
_0
  6
Continuous
 62
     7
370
    30
100
AcDbLine
 10
19.88
 20
-6.240802
 30
0.0
 11
19.863677
 21
-6.257125
 31
0.0
  0
LINE
  5
B3
330
48C
100
AcDbEntity
  8
_0
  6
Continuous
 62
     7
370
    30
100
AcDbLine
 10
19.882594
 20
-6.24174
 30
0.0
 11
19.867219
 21
-6.257125
 31
0.0
  0
LINE
  5
B4
330
48C
100
AcDbEntity
  8
_0
  6
Continuous
 62
     7
370
    30
100
AcDbLine
 10
19.885198
 20
-6.242677
 30
0.0
 11
19.87075
 21
-6.257125
 31
0.0
  0
LINE
  5
B5
330
48C
100
AcDbEntity
  8
_0
  6
Continuous
 62
     7
370
    30
100
AcDbLine
 10
19.887802
 20
-6.243604
 30
0.0
 11
19.874281
 21
-6.257125
 31
0.0
  0
LINE
  5
B6
330
48C
100
AcDbEntity
  8
_0
  6
Continuous
 62
     7
370
    30
100
AcDbLine
 10
19.890396
 20
-6.244542
 30
0.0
 11
19.877823
 21
-6.257125
 31
0.0
  0
LINE
  5
B7
330
48C
100
AcDbEntity
  8
_0
  6
Continuous
 62
     7
370
    30
100
AcDbLine
 10
19.893
 20
-6.245479
 30
0.0
 11
19.881354
 21
-6.257125
 31
0.0
  0
LINE
  5
B8
330
48C
100
AcDbEntity
  8
_0
  6
Continuous
 62
     7
370
    30
100
AcDbLine
 10
19.895604
 20
-6.246417
 30
0.0
 11
19.884896
 21
-6.257125
 31
0.0
  0
LINE
  5
B9
330
48C
100
AcDbEntity
  8
_0
  6
Continuous
 62
     7
370
    30
100
AcDbLine
 10
19.898198
 20
-6.247344
 30
0.0
 11
19.888427
 21
-6.257125
 31
0.0
  0
LINE
  5
BA
330
48C
100
AcDbEntity
  8
_0
  6
Continuous
 62
     7
370
    30
100
AcDbLine
 10
19.900802
 20
-6.248281
 30
0.0
 11
19.891969
 21
-6.257125
 31
0.0
  0
LINE
  5
BB
330
48C
100
AcDbEntity
  8
_0
  6
Continuous
 62
     7
370
    30
100
AcDbLine
 10
19.903406
 20
-6.249219
 30
0.0
 11
19.8955
 21
-6.257125
 31
0.0
  0
LINE
  5
BC
330
48C
100
AcDbEntity
  8
_0
  6
Continuous
 62
     7
370
    30
100
AcDbLine
 10
19.906
 20
-6.250156
 30
0.0
 11
19.899031
 21
-6.257125
 31
0.0
  0
LINE
  5
BD
330
48C
100
AcDbEntity
  8
_0
  6
Continuous
 62
     7
370
    30
100
AcDbLine
 10
19.908604
 20
-6.251083
 30
0.0
 11
19.902573
 21
-6.257125
 31
0.0
  0
LINE
  5
BE
330
48C
100
AcDbEntity
  8
_0
  6
Continuous
 62
     7
370
    30
100
AcDbLine
 10
19.911208
 20
-6.252021
 30
0.0
 11
19.906104
 21
-6.257125
 31
0.0
  0
LINE
  5
BF
330
48C
100
AcDbEntity
  8
_0
  6
Continuous
 62
     7
370
    30
100
AcDbLine
 10
19.913802
 20
-6.252958
 30
0.0
 11
19.909646
 21
-6.257125
 31
0.0
  0
LINE
  5
C0
330
48C
100
AcDbEntity
  8
_0
  6
Continuous
 62
     7
370
    30
100
AcDbLine
 10
19.916406
 20
-6.253896
 30
0.0
 11
19.913177
 21
-6.257125
 31
0.0
  0
LINE
  5
C1
330
48C
100
AcDbEntity
  8
_0
  6
Continuous
 62
     7
370
    30
100
AcDbLine
 10
19.91901
 20
-6.254823
 30
0.0
 11
19.916708
 21
-6.257125
 31
0.0
  0
LINE
  5
C2
330
48C
100
AcDbEntity
  8
_0
  6
Continuous
 62
     7
370
    30
100
AcDbLine
 10
19.921604
 20
-6.25576
 30
0.0
 11
19.92025
 21
-6.257125
 31
0.0
  0
LINE
  5
C3
330
48C
100
AcDbEntity
  8
_0
  6
Continuous
 62
     7
370
    30
100
AcDbLine
 10
19.924208
 20
-6.256698
 30
0.0
 11
19.923781
 21
-6.257125
 31
0.0
  0
LINE
  5
C4
330
48C
100
AcDbEntity
  8
_0
  6
Continuous
 62
     7
370
    30
100
AcDbLine
 10
19.77675
 20
-6.100104
 30
0.0
 11
19.757573
 21
-6.119271
 31
0.0
  0
LINE
  5
C5
330
48C
100
AcDbEntity
  8
_0
  6
Continuous
 62
     7
370
    30
100
AcDbLine
 10
19.66949
 20
-6.207365
 30
0.0
 11
19.619729
 21
-6.257125
 31
0.0
  0
LINE
  5
C6
330
48C
100
AcDbEntity
  8
_0
  6
Continuous
 62
     7
370
    30
100
AcDbLine
 10
19.740562
 20
-6.136292
 30
0.0
 11
19.710656
 21
-6.166187
 31
0.0
  0
LINE
  5
C7
330
48C
100
AcDbEntity
  8
_0
  6
Continuous
 62
     7
370
    30
100
AcDbLine
 10
19.77675
 20
-6.096563
 30
0.0
 11
19.754042
 21
-6.119271
 31
0.0
  0
LINE
  5
C8
330
48C
100
AcDbEntity
  8
_0
  6
Continuous
 62
     7
370
    30
100
AcDbLine
 10
19.665948
 20
-6.207365
 30
0.0
 11
19.616187
 21
-6.257125
 31
0.0
  0
LINE
  5
C9
330
48C
100
AcDbEntity
  8
_0
  6
Continuous
 62
     7
370
    30
100
AcDbLine
 10
19.740562
 20
-6.13275
 30
0.0
 11
19.710656
 21
-6.162646
 31
0.0
  0
LINE
  5
CA
330
48C
100
AcDbEntity
  8
_0
  6
Continuous
 62
     7
370
    30
100
AcDbLine
 10
19.77675
 20
-6.093031
 30
0.0
 11
19.7505
 21
-6.119271
 31
0.0
  0
LINE
  5
CB
330
48C
100
AcDbEntity
  8
_0
  6
Continuous
 62
     7
370
    30
100
AcDbLine
 10
19.661396
 20
-6.208385
 30
0.0
 11
19.612656
 21
-6.257125
 31
0.0
  0
LINE
  5
CC
330
48C
100
AcDbEntity
  8
_0
  6
Continuous
 62
     7
370
    30
100
AcDbLine
 10
19.740562
 20
-6.129219
 30
0.0
 11
19.710656
 21
-6.159115
 31
0.0
  0
LINE
  5
CD
330
48C
100
AcDbEntity
  8
_0
  6
Continuous
 62
     7
370
    30
100
AcDbLine
 10
19.77675
 20
-6.08949
 30
0.0
 11
19.746969
 21
-6.119271
 31
0.0
  0
LINE
  5
CE
330
48C
100
AcDbEntity
  8
_0
  6
Continuous
 62
     7
370
    30
100
AcDbLine
 10
19.655875
 20
-6.210375
 30
0.0
 11
19.609125
 21
-6.257125
 31
0.0
  0
LINE
  5
CF
330
48C
100
AcDbEntity
  8
_0
  6
Continuous
 62
     7
370
    30
100
AcDbLine
 10
19.740562
 20
-6.125687
 30
0.0
 11
19.710656
 21
-6.155583
 31
0.0
  0
LINE
  5
D0
330
48C
100
AcDbEntity
  8
_0
  6
Continuous
 62
     7
370
    30
100
AcDbLine
 10
19.77675
 20
-6.085958
 30
0.0
 11
19.743437
 21
-6.119271
 31
0.0
  0
LINE
  5
D1
330
48C
100
AcDbEntity
  8
_0
  6
Continuous
 62
     7
370
    30
100
AcDbLine
 10
19.650354
 20
-6.212354
 30
0.0
 11
19.605583
 21
-6.257125
 31
0.0
  0
LINE
  5
D2
330
48C
100
AcDbEntity
  8
_0
  6
Continuous
 62
     7
370
    30
100
AcDbLine
 10
19.740562
 20
-6.122146
 30
0.0
 11
19.710656
 21
-6.152042
 31
0.0
  0
LINE
  5
D3
330
48C
100
AcDbEntity
  8
_0
  6
Continuous
 62
     7
370
    30
100
AcDbLine
 10
19.77675
 20
-6.082427
 30
0.0
 11
19.710656
 21
-6.14851
 31
0.0
  0
LINE
  5
D4
330
48C
100
AcDbEntity
  8
_0
  6
Continuous
 62
     7
370
    30
100
AcDbLine
 10
19.644833
 20
-6.214344
 30
0.0
 11
19.602052
 21
-6.257125
 31
0.0
  0
LINE
  5
D5
330
48C
100
AcDbEntity
  8
_0
  6
Continuous
 62
     7
370
    30
100
AcDbLine
 10
19.77675
 20
-6.078885
 30
0.0
 11
19.710656
 21
-6.144969
 31
0.0
  0
LINE
  5
D6
330
48C
100
AcDbEntity
  8
_0
  6
Continuous
 62
     7
370
    30
100
AcDbLine
 10
19.639312
 20
-6.216323
 30
0.0
 11
19.59851
 21
-6.257125
 31
0.0
  0
LINE
  5
D7
330
48C
100
AcDbEntity
  8
_0
  6
Continuous
 62
     7
370
    30
100
AcDbLine
 10
19.77675
 20
-6.075354
 30
0.0
 11
19.710656
 21
-6.141437
 31
0.0
  0
LINE
  5
D8
330
48C
100
AcDbEntity
  8
_0
  6
Continuous
 62
     7
370
    30
100
AcDbLine
 10
19.633792
 20
-6.218312
 30
0.0
 11
19.594979
 21
-6.257125
 31
0.0
  0
LINE
  5
D9
330
48C
100
AcDbEntity
  8
_0
  6
Continuous
 62
     7
370
    30
100
AcDbLine
 10
19.77675
 20
-6.071813
 30
0.0
 11
19.710656
 21
-6.137906
 31
0.0
  0
LINE
  5
DA
330
48C
100
AcDbEntity
  8
_0
  6
Continuous
 62
     7
370
    30
100
AcDbLine
 10
19.628271
 20
-6.220292
 30
0.0
 11
19.591448
 21
-6.257125
 31
0.0
  0
LINE
  5
DB
330
48C
100
AcDbEntity
  8
_0
  6
Continuous
 62
     7
370
    30
100
AcDbLine
 10
19.77675
 20
-6.068281
 30
0.0
 11
19.710656
 21
-6.134365
 31
0.0
  0
LINE
  5
DC
330
48C
100
AcDbEntity
  8
_0
  6
Continuous
 62
     7
370
    30
100
AcDbLine
 10
19.62275
 20
-6.222281
 30
0.0
 11
19.587906
 21
-6.257125
 31
0.0
  0
LINE
  5
DD
330
48C
100
AcDbEntity
  8
_0
  6
Continuous
 62
     7
370
    30
100
AcDbLine
 10
19.77675
 20
-6.06475
 30
0.0
 11
19.710656
 21
-6.130833
 31
0.0
  0
LINE
  5
DE
330
48C
100
AcDbEntity
  8
_0
  6
Continuous
 62
     7
370
    30
100
AcDbLine
 10
19.617229
 20
-6.22426
 30
0.0
 11
19.584375
 21
-6.257125
 31
0.0
  0
LINE
  5
DF
330
48C
100
AcDbEntity
  8
_0
  6
Continuous
 62
     7
370
    30
100
AcDbLine
 10
19.77675
 20
-6.061208
 30
0.0
 11
19.710656
 21
-6.127292
 31
0.0
  0
LINE
  5
E0
330
48C
100
AcDbEntity
  8
_0
  6
Continuous
 62
     7
370
    30
100
AcDbLine
 10
19.611708
 20
-6.22625
 30
0.0
 11
19.580833
 21
-6.257125
 31
0.0
  0
LINE
  5
E1
330
48C
100
AcDbEntity
  8
_0
  6
Continuous
 62
     7
370
    30
100
AcDbLine
 10
19.77675
 20
-6.057677
 30
0.0
 11
19.710656
 21
-6.12376
 31
0.0
  0
LINE
  5
E2
330
48C
100
AcDbEntity
  8
_0
  6
Continuous
 62
     7
370
    30
100
AcDbLine
 10
19.606188
 20
-6.228229
 30
0.0
 11
19.577302
 21
-6.257125
 31
0.0
  0
LINE
  5
E3
330
48C
100
AcDbEntity
  8
_0
  6
Continuous
 62
     7
370
    30
100
AcDbLine
 10
19.774531
 20
-6.056354
 30
0.0
 11
19.710656
 21
-6.120229
 31
0.0
  0
LINE
  5
E4
330
48C
100
AcDbEntity
  8
_0
  6
Continuous
 62
     7
370
    30
100
AcDbLine
 10
19.600667
 20
-6.230219
 30
0.0
 11
19.57376
 21
-6.257125
 31
0.0
  0
LINE
  5
E5
330
48C
100
AcDbEntity
  8
_0
  6
Continuous
 62
     7
370
    30
100
AcDbLine
 10
19.771
 20
-6.056354
 30
0.0
 11
19.708073
 21
-6.119271
 31
0.0
  0
LINE
  5
E6
330
48C
100
AcDbEntity
  8
_0
  6
Continuous
 62
     7
370
    30
100
AcDbLine
 10
19.595146
 20
-6.232198
 30
0.0
 11
19.570229
 21
-6.257125
 31
0.0
  0
LINE
  5
E7
330
48C
100
AcDbEntity
  8
_0
  6
Continuous
 62
     7
370
    30
100
AcDbLine
 10
19.767458
 20
-6.056354
 30
0.0
 11
19.704542
 21
-6.119271
 31
0.0
  0
LINE
  5
E8
330
48C
100
AcDbEntity
  8
_0
  6
Continuous
 62
     7
370
    30
100
AcDbLine
 10
19.589625
 20
-6.234187
 30
0.0
 11
19.566698
 21
-6.257125
 31
0.0
  0
LINE
  5
E9
330
48C
100
AcDbEntity
  8
_0
  6
Continuous
 62
     7
370
    30
100
AcDbLine
 10
19.763927
 20
-6.056354
 30
0.0
 11
19.70101
 21
-6.119271
 31
0.0
  0
LINE
  5
EA
330
48C
100
AcDbEntity
  8
_0
  6
Continuous
 62
     7
370
    30
100
AcDbLine
 10
19.584115
 20
-6.236167
 30
0.0
 11
19.563156
 21
-6.257125
 31
0.0
  0
LINE
  5
EB
330
48C
100
AcDbEntity
  8
_0
  6
Continuous
 62
     7
370
    30
100
AcDbLine
 10
19.760385
 20
-6.056354
 30
0.0
 11
19.697469
 21
-6.119271
 31
0.0
  0
LINE
  5
EC
330
48C
100
AcDbEntity
  8
_0
  6
Continuous
 62
     7
370
    30
100
AcDbLine
 10
19.578594
 20
-6.238156
 30
0.0
 11
19.559625
 21
-6.257125
 31
0.0
  0
LINE
  5
ED
330
48C
100
AcDbEntity
  8
_0
  6
Continuous
 62
     7
370
    30
100
AcDbLine
 10
19.756854
 20
-6.056354
 30
0.0
 11
19.693938
 21
-6.119271
 31
0.0
  0
LINE
  5
EE
330
48C
100
AcDbEntity
  8
_0
  6
Continuous
 62
     7
370
    30
100
AcDbLine
 10
19.573073
 20
-6.240135
 30
0.0
 11
19.556083
 21
-6.257125
 31
0.0
  0
LINE
  5
EF
330
48C
100
AcDbEntity
  8
_0
  6
Continuous
 62
     7
370
    30
100
AcDbLine
 10
19.753323
 20
-6.056354
 30
0.0
 11
19.690396
 21
-6.119271
 31
0.0
  0
LINE
  5
F0
330
48C
100
AcDbEntity
  8
_0
  6
Continuous
 62
     7
370
    30
100
AcDbLine
 10
19.567552
 20
-6.242125
 30
0.0
 11
19.552552
 21
-6.257125
 31
0.0
  0
LINE
  5
F1
330
48C
100
AcDbEntity
  8
_0
  6
Continuous
 62
     7
370
    30
100
AcDbLine
 10
19.749781
 20
-6.056354
 30
0.0
 11
19.686865
 21
-6.119271
 31
0.0
  0
LINE
  5
F2
330
48C
100
AcDbEntity
  8
_0
  6
Continuous
 62
     7
370
    30
100
AcDbLine
 10
19.562031
 20
-6.244104
 30
0.0
 11
19.549021
 21
-6.257125
 31
0.0
  0
LINE
  5
F3
330
48C
100
AcDbEntity
  8
_0
  6
Continuous
 62
     7
370
    30
100
AcDbLine
 10
19.74625
 20
-6.056354
 30
0.0
 11
19.683333
 21
-6.119271
 31
0.0
  0
LINE
  5
F4
330
48C
100
AcDbEntity
  8
_0
  6
Continuous
 62
     7
370
    30
100
AcDbLine
 10
19.55651
 20
-6.246094
 30
0.0
 11
19.545479
 21
-6.257125
 31
0.0
  0
LINE
  5
F5
330
48C
100
AcDbEntity
  8
_0
  6
Continuous
 62
     7
370
    30
100
AcDbLine
 10
19.742708
 20
-6.056354
 30
0.0
 11
19.679792
 21
-6.119271
 31
0.0
  0
LINE
  5
F6
330
48C
100
AcDbEntity
  8
_0
  6
Continuous
 62
     7
370
    30
100
AcDbLine
 10
19.55099
 20
-6.248073
 30
0.0
 11
19.541948
 21
-6.257125
 31
0.0
  0
LINE
  5
F7
330
48C
100
AcDbEntity
  8
_0
  6
Continuous
 62
     7
370
    30
100
AcDbLine
 10
19.739177
 20
-6.056354
 30
0.0
 11
19.67626
 21
-6.119271
 31
0.0
  0
LINE
  5
F8
330
48C
100
AcDbEntity
  8
_0
  6
Continuous
 62
     7
370
    30
100
AcDbLine
 10
19.545469
 20
-6.250062
 30
0.0
 11
19.538406
 21
-6.257125
 31
0.0
  0
LINE
  5
F9
330
48C
100
AcDbEntity
  8
_0
  6
Continuous
 62
     7
370
    30
100
AcDbLine
 10
19.735646
 20
-6.056354
 30
0.0
 11
19.674469
 21
-6.117521
 31
0.0
  0
LINE
  5
FA
330
48C
100
AcDbEntity
  8
_0
  6
Continuous
 62
     7
370
    30
100
AcDbLine
 10
19.539948
 20
-6.252042
 30
0.0
 11
19.534875
 21
-6.257125
 31
0.0
  0
LINE
  5
FB
330
48C
100
AcDbEntity
  8
_0
  6
Continuous
 62
     7
370
    30
100
AcDbLine
 10
19.732104
 20
-6.056354
 30
0.0
 11
19.674469
 21
-6.11399
 31
0.0
  0
LINE
  5
FC
330
48C
100
AcDbEntity
  8
_0
  6
Continuous
 62
     7
370
    30
100
AcDbLine
 10
19.534427
 20
-6.254031
 30
0.0
 11
19.531344
 21
-6.257125
 31
0.0
  0
LINE
  5
FD
330
48C
100
AcDbEntity
  8
_0
  6
Continuous
 62
     7
370
    30
100
AcDbLine
 10
19.728573
 20
-6.056354
 30
0.0
 11
19.674469
 21
-6.110448
 31
0.0
  0
LINE
  5
FE
330
48C
100
AcDbEntity
  8
_0
  6
Continuous
 62
     7
370
    30
100
AcDbLine
 10
19.528906
 20
-6.25601
 30
0.0
 11
19.527802
 21
-6.257125
 31
0.0
  0
LINE
  5
FF
330
48C
100
AcDbEntity
  8
_0
  6
Continuous
 62
     7
370
    30
100
AcDbLine
 10
19.725031
 20
-6.056354
 30
0.0
 11
19.674469
 21
-6.106917
 31
0.0
  0
LINE
  5
100
330
48C
100
AcDbEntity
  8
_0
  6
Continuous
 62
     7
370
    30
100
AcDbLine
 10
19.7215
 20
-6.056354
 30
0.0
 11
19.674469
 21
-6.103385
 31
0.0
  0
LINE
  5
101
330
48C
100
AcDbEntity
  8
_0
  6
Continuous
 62
     7
370
    30
100
AcDbLine
 10
19.717958
 20
-6.056354
 30
0.0
 11
19.674469
 21
-6.099844
 31
0.0
  0
LINE
  5
102
330
48C
100
AcDbEntity
  8
_0
  6
Continuous
 62
     7
370
    30
100
AcDbLine
 10
19.714427
 20
-6.056354
 30
0.0
 11
19.674469
 21
-6.096312
 31
0.0
  0
LINE
  5
103
330
48C
100
AcDbEntity
  8
_0
  6
Continuous
 62
     7
370
    30
100
AcDbLine
 10
19.710896
 20
-6.056354
 30
0.0
 11
19.674469
 21
-6.092771
 31
0.0
  0
LINE
  5
104
330
48C
100
AcDbEntity
  8
_0
  6
Continuous
 62
     7
370
    30
100
AcDbLine
 10
19.707354
 20
-6.056354
 30
0.0
 11
19.674469
 21
-6.08924
 31
0.0
  0
LINE
  5
105
330
48C
100
AcDbEntity
  8
_0
  6
Continuous
 62
     7
370
    30
100
AcDbLine
 10
19.703823
 20
-6.056354
 30
0.0
 11
19.674469
 21
-6.085708
 31
0.0
  0
LINE
  5
106
330
48C
100
AcDbEntity
  8
_0
  6
Continuous
 62
     7
370
    30
100
AcDbLine
 10
19.700281
 20
-6.056354
 30
0.0
 11
19.674469
 21
-6.082167
 31
0.0
  0
LINE
  5
107
330
48C
100
AcDbEntity
  8
_0
  6
Continuous
 62
     7
370
    30
100
AcDbLine
 10
19.69675
 20
-6.056354
 30
0.0
 11
19.674469
 21
-6.078635
 31
0.0
  0
LINE
  5
108
330
48C
100
AcDbEntity
  8
_0
  6
Continuous
 62
     7
370
    30
100
AcDbLine
 10
19.693219
 20
-6.056354
 30
0.0
 11
19.674469
 21
-6.075094
 31
0.0
  0
LINE
  5
109
330
48C
100
AcDbEntity
  8
_0
  6
Continuous
 62
     7
370
    30
100
AcDbLine
 10
19.689677
 20
-6.056354
 30
0.0
 11
19.674469
 21
-6.071562
 31
0.0
  0
LINE
  5
10A
330
48C
100
AcDbEntity
  8
_0
  6
Continuous
 62
     7
370
    30
100
AcDbLine
 10
19.686146
 20
-6.056354
 30
0.0
 11
19.674469
 21
-6.068031
 31
0.0
  0
LINE
  5
10B
330
48C
100
AcDbEntity
  8
_0
  6
Continuous
 62
     7
370
    30
100
AcDbLine
 10
19.682604
 20
-6.056354
 30
0.0
 11
19.674469
 21
-6.06449
 31
0.0
  0
LINE
  5
10C
330
48C
100
AcDbEntity
  8
_0
  6
Continuous
 62
     7
370
    30
100
AcDbLine
 10
19.679073
 20
-6.056354
 30
0.0
 11
19.674469
 21
-6.060958
 31
0.0
  0
LINE
  5
10D
330
48C
100
AcDbEntity
  8
_0
  6
Continuous
 62
     7
370
    30
100
AcDbLine
 10
19.675542
 20
-6.056354
 30
0.0
 11
19.674469
 21
-6.057417
 31
0.0
  0
LINE
  5
10E
330
48C
100
AcDbEntity
  8
_0
  6
Continuous
 62
     7
370
    30
100
AcDbLine
 10
18.152385
 20
-6.103635
 30
0.0
 11
18.13675
 21
-6.119271
 31
0.0
  0
LINE
  5
10F
330
48C
100
AcDbEntity
  8
_0
  6
Continuous
 62
     7
370
    30
100
AcDbLine
 10
18.048656
 20
-6.207365
 30
0.0
 11
17.998896
 21
-6.257125
 31
0.0
  0
LINE
  5
110
330
48C
100
AcDbEntity
  8
_0
  6
Continuous
 62
     7
370
    30
100
AcDbLine
 10
18.116198
 20
-6.139823
 30
0.0
 11
18.086292
 21
-6.169719
 31
0.0
  0
LINE
  5
111
330
48C
100
AcDbEntity
  8
_0
  6
Continuous
 62
     7
370
    30
100
AcDbLine
 10
18.152385
 20
-6.107167
 30
0.0
 11
18.140281
 21
-6.119271
 31
0.0
  0
LINE
  5
112
330
48C
100
AcDbEntity
  8
_0
  6
Continuous
 62
     7
370
    30
100
AcDbLine
 10
18.052198
 20
-6.207365
 30
0.0
 11
18.002437
 21
-6.257125
 31
0.0
  0
LINE
  5
113
330
48C
100
AcDbEntity
  8
_0
  6
Continuous
 62
     7
370
    30
100
AcDbLine
 10
18.116198
 20
-6.143365
 30
0.0
 11
18.086292
 21
-6.17326
 31
0.0
  0
LINE
  5
114
330
48C
100
AcDbEntity
  8
_0
  6
Continuous
 62
     7
370
    30
100
AcDbLine
 10
18.152385
 20
-6.110708
 30
0.0
 11
18.143812
 21
-6.119271
 31
0.0
  0
LINE
  5
115
330
48C
100
AcDbEntity
  8
_0
  6
Continuous
 62
     7
370
    30
100
AcDbLine
 10
18.055729
 20
-6.207365
 30
0.0
 11
18.005969
 21
-6.257125
 31
0.0
  0
LINE
  5
116
330
48C
100
AcDbEntity
  8
_0
  6
Continuous
 62
     7
370
    30
100
AcDbLine
 10
18.116198
 20
-6.146896
 30
0.0
 11
18.086292
 21
-6.176792
 31
0.0
  0
LINE
  5
117
330
48C
100
AcDbEntity
  8
_0
  6
Continuous
 62
     7
370
    30
100
AcDbLine
 10
18.152385
 20
-6.11424
 30
0.0
 11
18.147354
 21
-6.119271
 31
0.0
  0
LINE
  5
118
330
48C
100
AcDbEntity
  8
_0
  6
Continuous
 62
     7
370
    30
100
AcDbLine
 10
18.05926
 20
-6.207365
 30
0.0
 11
18.0095
 21
-6.257125
 31
0.0
  0
LINE
  5
119
330
48C
100
AcDbEntity
  8
_0
  6
Continuous
 62
     7
370
    30
100
AcDbLine
 10
18.116198
 20
-6.150437
 30
0.0
 11
18.086292
 21
-6.180333
 31
0.0
  0
LINE
  5
11A
330
48C
100
AcDbEntity
  8
_0
  6
Continuous
 62
     7
370
    30
100
AcDbLine
 10
18.152385
 20
-6.117781
 30
0.0
 11
18.150885
 21
-6.119271
 31
0.0
  0
LINE
  5
11B
330
48C
100
AcDbEntity
  8
_0
  6
Continuous
 62
     7
370
    30
100
AcDbLine
 10
18.062802
 20
-6.207365
 30
0.0
 11
18.013042
 21
-6.257125
 31
0.0
  0
LINE
  5
11C
330
48C
100
AcDbEntity
  8
_0
  6
Continuous
 62
     7
370
    30
100
AcDbLine
 10
18.116198
 20
-6.153969
 30
0.0
 11
18.086292
 21
-6.183865
 31
0.0
  0
LINE
  5
11D
330
48C
100
AcDbEntity
  8
_0
  6
Continuous
 62
     7
370
    30
100
AcDbLine
 10
18.116198
 20
-6.1575
 30
0.0
 11
18.086292
 21
-6.187396
 31
0.0
  0
LINE
  5
11E
330
48C
100
AcDbEntity
  8
_0
  6
Continuous
 62
     7
370
    30
100
AcDbLine
 10
18.066333
 20
-6.207365
 30
0.0
 11
18.016573
 21
-6.257125
 31
0.0
  0
LINE
  5
11F
330
48C
100
AcDbEntity
  8
_0
  6
Continuous
 62
     7
370
    30
100
AcDbLine
 10
18.116198
 20
-6.161042
 30
0.0
 11
18.086292
 21
-6.190937
 31
0.0
  0
LINE
  5
120
330
48C
100
AcDbEntity
  8
_0
  6
Continuous
 62
     7
370
    30
100
AcDbLine
 10
18.069875
 20
-6.207365
 30
0.0
 11
18.020115
 21
-6.257125
 31
0.0
  0
LINE
  5
121
330
48C
100
AcDbEntity
  8
_0
  6
Continuous
 62
     7
370
    30
100
AcDbLine
 10
18.116198
 20
-6.164573
 30
0.0
 11
18.086292
 21
-6.194469
 31
0.0
  0
LINE
  5
122
330
48C
100
AcDbEntity
  8
_0
  6
Continuous
 62
     7
370
    30
100
AcDbLine
 10
18.073406
 20
-6.207365
 30
0.0
 11
18.023646
 21
-6.257125
 31
0.0
  0
LINE
  5
123
330
48C
100
AcDbEntity
  8
_0
  6
Continuous
 62
     7
370
    30
100
AcDbLine
 10
18.116198
 20
-6.168115
 30
0.0
 11
18.086292
 21
-6.19801
 31
0.0
  0
LINE
  5
124
330
48C
100
AcDbEntity
  8
_0
  6
Continuous
 62
     7
370
    30
100
AcDbLine
 10
18.076948
 20
-6.207365
 30
0.0
 11
18.027188
 21
-6.257125
 31
0.0
  0
LINE
  5
125
330
48C
100
AcDbEntity
  8
_0
  6
Continuous
 62
     7
370
    30
100
AcDbLine
 10
18.116198
 20
-6.171646
 30
0.0
 11
18.086292
 21
-6.201542
 31
0.0
  0
LINE
  5
126
330
48C
100
AcDbEntity
  8
_0
  6
Continuous
 62
     7
370
    30
100
AcDbLine
 10
18.080479
 20
-6.207365
 30
0.0
 11
18.030719
 21
-6.257125
 31
0.0
  0
LINE
  5
127
330
48C
100
AcDbEntity
  8
_0
  6
Continuous
 62
     7
370
    30
100
AcDbLine
 10
18.116198
 20
-6.175177
 30
0.0
 11
18.086292
 21
-6.205073
 31
0.0
  0
LINE
  5
128
330
48C
100
AcDbEntity
  8
_0
  6
Continuous
 62
     7
370
    30
100
AcDbLine
 10
18.08401
 20
-6.207365
 30
0.0
 11
18.03425
 21
-6.257125
 31
0.0
  0
LINE
  5
129
330
48C
100
AcDbEntity
  8
_0
  6
Continuous
 62
     7
370
    30
100
AcDbLine
 10
18.116198
 20
-6.178719
 30
0.0
 11
18.037792
 21
-6.257125
 31
0.0
  0
LINE
  5
12A
330
48C
100
AcDbEntity
  8
_0
  6
Continuous
 62
     7
370
    30
100
AcDbLine
 10
18.116198
 20
-6.18225
 30
0.0
 11
18.041323
 21
-6.257125
 31
0.0
  0
LINE
  5
12B
330
48C
100
AcDbEntity
  8
_0
  6
Continuous
 62
     7
370
    30
100
AcDbLine
 10
18.116198
 20
-6.185792
 30
0.0
 11
18.044865
 21
-6.257125
 31
0.0
  0
LINE
  5
12C
330
48C
100
AcDbEntity
  8
_0
  6
Continuous
 62
     7
370
    30
100
AcDbLine
 10
18.116198
 20
-6.189323
 30
0.0
 11
18.048396
 21
-6.257125
 31
0.0
  0
LINE
  5
12D
330
48C
100
AcDbEntity
  8
_0
  6
Continuous
 62
     7
370
    30
100
AcDbLine
 10
18.116198
 20
-6.192854
 30
0.0
 11
18.051927
 21
-6.257125
 31
0.0
  0
LINE
  5
12E
330
48C
100
AcDbEntity
  8
_0
  6
Continuous
 62
     7
370
    30
100
AcDbLine
 10
18.116198
 20
-6.196396
 30
0.0
 11
18.055469
 21
-6.257125
 31
0.0
  0
LINE
  5
12F
330
48C
100
AcDbEntity
  8
_0
  6
Continuous
 62
     7
370
    30
100
AcDbLine
 10
18.116198
 20
-6.199927
 30
0.0
 11
18.059
 21
-6.257125
 31
0.0
  0
LINE
  5
130
330
48C
100
AcDbEntity
  8
_0
  6
Continuous
 62
     7
370
    30
100
AcDbLine
 10
18.116198
 20
-6.203469
 30
0.0
 11
18.062542
 21
-6.257125
 31
0.0
  0
LINE
  5
131
330
48C
100
AcDbEntity
  8
_0
  6
Continuous
 62
     7
370
    30
100
AcDbLine
 10
18.116198
 20
-6.207
 30
0.0
 11
18.066073
 21
-6.257125
 31
0.0
  0
LINE
  5
132
330
48C
100
AcDbEntity
  8
_0
  6
Continuous
 62
     7
370
    30
100
AcDbLine
 10
18.119365
 20
-6.207365
 30
0.0
 11
18.069604
 21
-6.257125
 31
0.0
  0
LINE
  5
133
330
48C
100
AcDbEntity
  8
_0
  6
Continuous
 62
     7
370
    30
100
AcDbLine
 10
18.122906
 20
-6.207365
 30
0.0
 11
18.073146
 21
-6.257125
 31
0.0
  0
LINE
  5
134
330
48C
100
AcDbEntity
  8
_0
  6
Continuous
 62
     7
370
    30
100
AcDbLine
 10
18.126437
 20
-6.207365
 30
0.0
 11
18.076677
 21
-6.257125
 31
0.0
  0
LINE
  5
135
330
48C
100
AcDbEntity
  8
_0
  6
Continuous
 62
     7
370
    30
100
AcDbLine
 10
18.129979
 20
-6.207365
 30
0.0
 11
18.080219
 21
-6.257125
 31
0.0
  0
LINE
  5
136
330
48C
100
AcDbEntity
  8
_0
  6
Continuous
 62
     7
370
    30
100
AcDbLine
 10
18.13351
 20
-6.207365
 30
0.0
 11
18.08375
 21
-6.257125
 31
0.0
  0
LINE
  5
137
330
48C
100
AcDbEntity
  8
_0
  6
Continuous
 62
     7
370
    30
100
AcDbLine
 10
18.137052
 20
-6.207365
 30
0.0
 11
18.087292
 21
-6.257125
 31
0.0
  0
LINE
  5
138
330
48C
100
AcDbEntity
  8
_0
  6
Continuous
 62
     7
370
    30
100
AcDbLine
 10
18.140583
 20
-6.207365
 30
0.0
 11
18.090823
 21
-6.257125
 31
0.0
  0
LINE
  5
139
330
48C
100
AcDbEntity
  8
_0
  6
Continuous
 62
     7
370
    30
100
AcDbLine
 10
18.144115
 20
-6.207365
 30
0.0
 11
18.094354
 21
-6.257125
 31
0.0
  0
LINE
  5
13A
330
48C
100
AcDbEntity
  8
_0
  6
Continuous
 62
     7
370
    30
100
AcDbLine
 10
18.147656
 20
-6.207365
 30
0.0
 11
18.097896
 21
-6.257125
 31
0.0
  0
LINE
  5
13B
330
48C
100
AcDbEntity
  8
_0
  6
Continuous
 62
     7
370
    30
100
AcDbLine
 10
18.151187
 20
-6.207365
 30
0.0
 11
18.101427
 21
-6.257125
 31
0.0
  0
LINE
  5
13C
330
48C
100
AcDbEntity
  8
_0
  6
Continuous
 62
     7
370
    30
100
AcDbLine
 10
18.154729
 20
-6.207365
 30
0.0
 11
18.104969
 21
-6.257125
 31
0.0
  0
LINE
  5
13D
330
48C
100
AcDbEntity
  8
_0
  6
Continuous
 62
     7
370
    30
100
AcDbLine
 10
18.15826
 20
-6.207365
 30
0.0
 11
18.1085
 21
-6.257125
 31
0.0
  0
LINE
  5
13E
330
48C
100
AcDbEntity
  8
_0
  6
Continuous
 62
     7
370
    30
100
AcDbLine
 10
18.161792
 20
-6.207365
 30
0.0
 11
18.112031
 21
-6.257125
 31
0.0
  0
LINE
  5
13F
330
48C
100
AcDbEntity
  8
_0
  6
Continuous
 62
     7
370
    30
100
AcDbLine
 10
18.164615
 20
-6.208083
 30
0.0
 11
18.115573
 21
-6.257125
 31
0.0
  0
LINE
  5
140
330
48C
100
AcDbEntity
  8
_0
  6
Continuous
 62
     7
370
    30
100
AcDbLine
 10
18.167208
 20
-6.20901
 30
0.0
 11
18.119104
 21
-6.257125
 31
0.0
  0
LINE
  5
141
330
48C
100
AcDbEntity
  8
_0
  6
Continuous
 62
     7
370
    30
100
AcDbLine
 10
18.169812
 20
-6.209948
 30
0.0
 11
18.122646
 21
-6.257125
 31
0.0
  0
LINE
  5
142
330
48C
100
AcDbEntity
  8
_0
  6
Continuous
 62
     7
370
    30
100
AcDbLine
 10
18.172417
 20
-6.210885
 30
0.0
 11
18.126177
 21
-6.257125
 31
0.0
  0
LINE
  5
143
330
48C
100
AcDbEntity
  8
_0
  6
Continuous
 62
     7
370
    30
100
AcDbLine
 10
18.17501
 20
-6.211823
 30
0.0
 11
18.129708
 21
-6.257125
 31
0.0
  0
LINE
  5
144
330
48C
100
AcDbEntity
  8
_0
  6
Continuous
 62
     7
370
    30
100
AcDbLine
 10
18.177615
 20
-6.21275
 30
0.0
 11
18.13325
 21
-6.257125
 31
0.0
  0
LINE
  5
145
330
48C
100
AcDbEntity
  8
_0
  6
Continuous
 62
     7
370
    30
100
AcDbLine
 10
18.180219
 20
-6.213687
 30
0.0
 11
18.136781
 21
-6.257125
 31
0.0
  0
LINE
  5
146
330
48C
100
AcDbEntity
  8
_0
  6
Continuous
 62
     7
370
    30
100
AcDbLine
 10
18.182813
 20
-6.214625
 30
0.0
 11
18.140323
 21
-6.257125
 31
0.0
  0
LINE
  5
147
330
48C
100
AcDbEntity
  8
_0
  6
Continuous
 62
     7
370
    30
100
AcDbLine
 10
18.185417
 20
-6.215562
 30
0.0
 11
18.143854
 21
-6.257125
 31
0.0
  0
LINE
  5
148
330
48C
100
AcDbEntity
  8
_0
  6
Continuous
 62
     7
370
    30
100
AcDbLine
 10
18.188021
 20
-6.21649
 30
0.0
 11
18.147396
 21
-6.257125
 31
0.0
  0
LINE
  5
149
330
48C
100
AcDbEntity
  8
_0
  6
Continuous
 62
     7
370
    30
100
AcDbLine
 10
18.190615
 20
-6.217427
 30
0.0
 11
18.150927
 21
-6.257125
 31
0.0
  0
LINE
  5
14A
330
48C
100
AcDbEntity
  8
_0
  6
Continuous
 62
     7
370
    30
100
AcDbLine
 10
18.193219
 20
-6.218365
 30
0.0
 11
18.154458
 21
-6.257125
 31
0.0
  0
LINE
  5
14B
330
48C
100
AcDbEntity
  8
_0
  6
Continuous
 62
     7
370
    30
100
AcDbLine
 10
18.195823
 20
-6.219302
 30
0.0
 11
18.158
 21
-6.257125
 31
0.0
  0
LINE
  5
14C
330
48C
100
AcDbEntity
  8
_0
  6
Continuous
 62
     7
370
    30
100
AcDbLine
 10
18.198417
 20
-6.220229
 30
0.0
 11
18.161531
 21
-6.257125
 31
0.0
  0
LINE
  5
14D
330
48C
100
AcDbEntity
  8
_0
  6
Continuous
 62
     7
370
    30
100
AcDbLine
 10
18.201021
 20
-6.221167
 30
0.0
 11
18.165073
 21
-6.257125
 31
0.0
  0
LINE
  5
14E
330
48C
100
AcDbEntity
  8
_0
  6
Continuous
 62
     7
370
    30
100
AcDbLine
 10
18.203625
 20
-6.222104
 30
0.0
 11
18.168604
 21
-6.257125
 31
0.0
  0
LINE
  5
14F
330
48C
100
AcDbEntity
  8
_0
  6
Continuous
 62
     7
370
    30
100
AcDbLine
 10
18.206219
 20
-6.223042
 30
0.0
 11
18.172135
 21
-6.257125
 31
0.0
  0
LINE
  5
150
330
48C
100
AcDbEntity
  8
_0
  6
Continuous
 62
     7
370
    30
100
AcDbLine
 10
18.208823
 20
-6.223969
 30
0.0
 11
18.175677
 21
-6.257125
 31
0.0
  0
LINE
  5
151
330
48C
100
AcDbEntity
  8
_0
  6
Continuous
 62
     7
370
    30
100
AcDbLine
 10
18.211427
 20
-6.224906
 30
0.0
 11
18.179208
 21
-6.257125
 31
0.0
  0
LINE
  5
152
330
48C
100
AcDbEntity
  8
_0
  6
Continuous
 62
     7
370
    30
100
AcDbLine
 10
18.214021
 20
-6.225844
 30
0.0
 11
18.18275
 21
-6.257125
 31
0.0
  0
LINE
  5
153
330
48C
100
AcDbEntity
  8
_0
  6
Continuous
 62
     7
370
    30
100
AcDbLine
 10
18.216625
 20
-6.226781
 30
0.0
 11
18.186281
 21
-6.257125
 31
0.0
  0
LINE
  5
154
330
48C
100
AcDbEntity
  8
_0
  6
Continuous
 62
     7
370
    30
100
AcDbLine
 10
18.219229
 20
-6.227719
 30
0.0
 11
18.189812
 21
-6.257125
 31
0.0
  0
LINE
  5
155
330
48C
100
AcDbEntity
  8
_0
  6
Continuous
 62
     7
370
    30
100
AcDbLine
 10
18.221823
 20
-6.228646
 30
0.0
 11
18.193354
 21
-6.257125
 31
0.0
  0
LINE
  5
156
330
48C
100
AcDbEntity
  8
_0
  6
Continuous
 62
     7
370
    30
100
AcDbLine
 10
18.224427
 20
-6.229583
 30
0.0
 11
18.196885
 21
-6.257125
 31
0.0
  0
LINE
  5
157
330
48C
100
AcDbEntity
  8
_0
  6
Continuous
 62
     7
370
    30
100
AcDbLine
 10
18.227021
 20
-6.230521
 30
0.0
 11
18.200427
 21
-6.257125
 31
0.0
  0
LINE
  5
158
330
48C
100
AcDbEntity
  8
_0
  6
Continuous
 62
     7
370
    30
100
AcDbLine
 10
18.229625
 20
-6.231458
 30
0.0
 11
18.203958
 21
-6.257125
 31
0.0
  0
LINE
  5
159
330
48C
100
AcDbEntity
  8
_0
  6
Continuous
 62
     7
370
    30
100
AcDbLine
 10
18.232229
 20
-6.232385
 30
0.0
 11
18.2075
 21
-6.257125
 31
0.0
  0
LINE
  5
15A
330
48C
100
AcDbEntity
  8
_0
  6
Continuous
 62
     7
370
    30
100
AcDbLine
 10
18.234823
 20
-6.233323
 30
0.0
 11
18.211031
 21
-6.257125
 31
0.0
  0
LINE
  5
15B
330
48C
100
AcDbEntity
  8
_0
  6
Continuous
 62
     7
370
    30
100
AcDbLine
 10
18.237427
 20
-6.23426
 30
0.0
 11
18.214562
 21
-6.257125
 31
0.0
  0
LINE
  5
15C
330
48C
100
AcDbEntity
  8
_0
  6
Continuous
 62
     7
370
    30
100
AcDbLine
 10
18.240031
 20
-6.235198
 30
0.0
 11
18.218104
 21
-6.257125
 31
0.0
  0
LINE
  5
15D
330
48C
100
AcDbEntity
  8
_0
  6
Continuous
 62
     7
370
    30
100
AcDbLine
 10
18.242625
 20
-6.236125
 30
0.0
 11
18.221635
 21
-6.257125
 31
0.0
  0
LINE
  5
15E
330
48C
100
AcDbEntity
  8
_0
  6
Continuous
 62
     7
370
    30
100
AcDbLine
 10
18.245229
 20
-6.237062
 30
0.0
 11
18.225177
 21
-6.257125
 31
0.0
  0
LINE
  5
15F
330
48C
100
AcDbEntity
  8
_0
  6
Continuous
 62
     7
370
    30
100
AcDbLine
 10
18.247833
 20
-6.238
 30
0.0
 11
18.228708
 21
-6.257125
 31
0.0
  0
LINE
  5
160
330
48C
100
AcDbEntity
  8
_0
  6
Continuous
 62
     7
370
    30
100
AcDbLine
 10
18.250427
 20
-6.238937
 30
0.0
 11
18.23224
 21
-6.257125
 31
0.0
  0
LINE
  5
161
330
48C
100
AcDbEntity
  8
_0
  6
Continuous
 62
     7
370
    30
100
AcDbLine
 10
18.253031
 20
-6.239865
 30
0.0
 11
18.235781
 21
-6.257125
 31
0.0
  0
LINE
  5
162
330
48C
100
AcDbEntity
  8
_0
  6
Continuous
 62
     7
370
    30
100
AcDbLine
 10
18.255635
 20
-6.240802
 30
0.0
 11
18.239313
 21
-6.257125
 31
0.0
  0
LINE
  5
163
330
48C
100
AcDbEntity
  8
_0
  6
Continuous
 62
     7
370
    30
100
AcDbLine
 10
18.258229
 20
-6.24174
 30
0.0
 11
18.242854
 21
-6.257125
 31
0.0
  0
LINE
  5
164
330
48C
100
AcDbEntity
  8
_0
  6
Continuous
 62
     7
370
    30
100
AcDbLine
 10
18.260833
 20
-6.242677
 30
0.0
 11
18.246385
 21
-6.257125
 31
0.0
  0
LINE
  5
165
330
48C
100
AcDbEntity
  8
_0
  6
Continuous
 62
     7
370
    30
100
AcDbLine
 10
18.263437
 20
-6.243604
 30
0.0
 11
18.249917
 21
-6.257125
 31
0.0
  0
LINE
  5
166
330
48C
100
AcDbEntity
  8
_0
  6
Continuous
 62
     7
370
    30
100
AcDbLine
 10
18.266031
 20
-6.244542
 30
0.0
 11
18.253458
 21
-6.257125
 31
0.0
  0
LINE
  5
167
330
48C
100
AcDbEntity
  8
_0
  6
Continuous
 62
     7
370
    30
100
AcDbLine
 10
18.268635
 20
-6.245479
 30
0.0
 11
18.25699
 21
-6.257125
 31
0.0
  0
LINE
  5
168
330
48C
100
AcDbEntity
  8
_0
  6
Continuous
 62
     7
370
    30
100
AcDbLine
 10
18.27124
 20
-6.246417
 30
0.0
 11
18.260531
 21
-6.257125
 31
0.0
  0
LINE
  5
169
330
48C
100
AcDbEntity
  8
_0
  6
Continuous
 62
     7
370
    30
100
AcDbLine
 10
18.273833
 20
-6.247344
 30
0.0
 11
18.264062
 21
-6.257125
 31
0.0
  0
LINE
  5
16A
330
48C
100
AcDbEntity
  8
_0
  6
Continuous
 62
     7
370
    30
100
AcDbLine
 10
18.276438
 20
-6.248281
 30
0.0
 11
18.267604
 21
-6.257125
 31
0.0
  0
LINE
  5
16B
330
48C
100
AcDbEntity
  8
_0
  6
Continuous
 62
     7
370
    30
100
AcDbLine
 10
18.279042
 20
-6.249219
 30
0.0
 11
18.271135
 21
-6.257125
 31
0.0
  0
LINE
  5
16C
330
48C
100
AcDbEntity
  8
_0
  6
Continuous
 62
     7
370
    30
100
AcDbLine
 10
18.281635
 20
-6.250156
 30
0.0
 11
18.274667
 21
-6.257125
 31
0.0
  0
LINE
  5
16D
330
48C
100
AcDbEntity
  8
_0
  6
Continuous
 62
     7
370
    30
100
AcDbLine
 10
18.28424
 20
-6.251083
 30
0.0
 11
18.278208
 21
-6.257125
 31
0.0
  0
LINE
  5
16E
330
48C
100
AcDbEntity
  8
_0
  6
Continuous
 62
     7
370
    30
100
AcDbLine
 10
18.286844
 20
-6.252021
 30
0.0
 11
18.28174
 21
-6.257125
 31
0.0
  0
LINE
  5
16F
330
48C
100
AcDbEntity
  8
_0
  6
Continuous
 62
     7
370
    30
100
AcDbLine
 10
18.289437
 20
-6.252958
 30
0.0
 11
18.285281
 21
-6.257125
 31
0.0
  0
LINE
  5
170
330
48C
100
AcDbEntity
  8
_0
  6
Continuous
 62
     7
370
    30
100
AcDbLine
 10
18.292042
 20
-6.253896
 30
0.0
 11
18.288812
 21
-6.257125
 31
0.0
  0
LINE
  5
171
330
48C
100
AcDbEntity
  8
_0
  6
Continuous
 62
     7
370
    30
100
AcDbLine
 10
18.294646
 20
-6.254823
 30
0.0
 11
18.292344
 21
-6.257125
 31
0.0
  0
LINE
  5
172
330
48C
100
AcDbEntity
  8
_0
  6
Continuous
 62
     7
370
    30
100
AcDbLine
 10
18.29724
 20
-6.25576
 30
0.0
 11
18.295885
 21
-6.257125
 31
0.0
  0
LINE
  5
173
330
48C
100
AcDbEntity
  8
_0
  6
Continuous
 62
     7
370
    30
100
AcDbLine
 10
18.299844
 20
-6.256698
 30
0.0
 11
18.299417
 21
-6.257125
 31
0.0
  0
LINE
  5
174
330
48C
100
AcDbEntity
  8
_0
  6
Continuous
 62
     7
370
    30
100
AcDbLine
 10
18.152385
 20
-6.100104
 30
0.0
 11
18.133208
 21
-6.119271
 31
0.0
  0
LINE
  5
175
330
48C
100
AcDbEntity
  8
_0
  6
Continuous
 62
     7
370
    30
100
AcDbLine
 10
18.045125
 20
-6.207365
 30
0.0
 11
17.995365
 21
-6.257125
 31
0.0
  0
LINE
  5
176
330
48C
100
AcDbEntity
  8
_0
  6
Continuous
 62
     7
370
    30
100
AcDbLine
 10
18.116198
 20
-6.136292
 30
0.0
 11
18.086292
 21
-6.166187
 31
0.0
  0
LINE
  5
177
330
48C
100
AcDbEntity
  8
_0
  6
Continuous
 62
     7
370
    30
100
AcDbLine
 10
18.152385
 20
-6.096563
 30
0.0
 11
18.129677
 21
-6.119271
 31
0.0
  0
LINE
  5
178
330
48C
100
AcDbEntity
  8
_0
  6
Continuous
 62
     7
370
    30
100
AcDbLine
 10
18.041583
 20
-6.207365
 30
0.0
 11
17.991823
 21
-6.257125
 31
0.0
  0
LINE
  5
179
330
48C
100
AcDbEntity
  8
_0
  6
Continuous
 62
     7
370
    30
100
AcDbLine
 10
18.116198
 20
-6.13275
 30
0.0
 11
18.086292
 21
-6.162646
 31
0.0
  0
LINE
  5
17A
330
48C
100
AcDbEntity
  8
_0
  6
Continuous
 62
     7
370
    30
100
AcDbLine
 10
18.152385
 20
-6.093031
 30
0.0
 11
18.126135
 21
-6.119271
 31
0.0
  0
LINE
  5
17B
330
48C
100
AcDbEntity
  8
_0
  6
Continuous
 62
     7
370
    30
100
AcDbLine
 10
18.037031
 20
-6.208385
 30
0.0
 11
17.988292
 21
-6.257125
 31
0.0
  0
LINE
  5
17C
330
48C
100
AcDbEntity
  8
_0
  6
Continuous
 62
     7
370
    30
100
AcDbLine
 10
18.116198
 20
-6.129219
 30
0.0
 11
18.086292
 21
-6.159115
 31
0.0
  0
LINE
  5
17D
330
48C
100
AcDbEntity
  8
_0
  6
Continuous
 62
     7
370
    30
100
AcDbLine
 10
18.152385
 20
-6.08949
 30
0.0
 11
18.122604
 21
-6.119271
 31
0.0
  0
LINE
  5
17E
330
48C
100
AcDbEntity
  8
_0
  6
Continuous
 62
     7
370
    30
100
AcDbLine
 10
18.03151
 20
-6.210375
 30
0.0
 11
17.98476
 21
-6.257125
 31
0.0
  0
LINE
  5
17F
330
48C
100
AcDbEntity
  8
_0
  6
Continuous
 62
     7
370
    30
100
AcDbLine
 10
18.116198
 20
-6.125687
 30
0.0
 11
18.086292
 21
-6.155583
 31
0.0
  0
LINE
  5
180
330
48C
100
AcDbEntity
  8
_0
  6
Continuous
 62
     7
370
    30
100
AcDbLine
 10
18.152385
 20
-6.085958
 30
0.0
 11
18.119073
 21
-6.119271
 31
0.0
  0
LINE
  5
181
330
48C
100
AcDbEntity
  8
_0
  6
Continuous
 62
     7
370
    30
100
AcDbLine
 10
18.02599
 20
-6.212354
 30
0.0
 11
17.981219
 21
-6.257125
 31
0.0
  0
LINE
  5
182
330
48C
100
AcDbEntity
  8
_0
  6
Continuous
 62
     7
370
    30
100
AcDbLine
 10
18.116198
 20
-6.122146
 30
0.0
 11
18.086292
 21
-6.152042
 31
0.0
  0
LINE
  5
183
330
48C
100
AcDbEntity
  8
_0
  6
Continuous
 62
     7
370
    30
100
AcDbLine
 10
18.152385
 20
-6.082427
 30
0.0
 11
18.086292
 21
-6.14851
 31
0.0
  0
LINE
  5
184
330
48C
100
AcDbEntity
  8
_0
  6
Continuous
 62
     7
370
    30
100
AcDbLine
 10
18.020469
 20
-6.214344
 30
0.0
 11
17.977687
 21
-6.257125
 31
0.0
  0
LINE
  5
185
330
48C
100
AcDbEntity
  8
_0
  6
Continuous
 62
     7
370
    30
100
AcDbLine
 10
18.152385
 20
-6.078885
 30
0.0
 11
18.086292
 21
-6.144969
 31
0.0
  0
LINE
  5
186
330
48C
100
AcDbEntity
  8
_0
  6
Continuous
 62
     7
370
    30
100
AcDbLine
 10
18.014948
 20
-6.216323
 30
0.0
 11
17.974146
 21
-6.257125
 31
0.0
  0
LINE
  5
187
330
48C
100
AcDbEntity
  8
_0
  6
Continuous
 62
     7
370
    30
100
AcDbLine
 10
18.152385
 20
-6.075354
 30
0.0
 11
18.086292
 21
-6.141437
 31
0.0
  0
LINE
  5
188
330
48C
100
AcDbEntity
  8
_0
  6
Continuous
 62
     7
370
    30
100
AcDbLine
 10
18.009427
 20
-6.218312
 30
0.0
 11
17.970615
 21
-6.257125
 31
0.0
  0
LINE
  5
189
330
48C
100
AcDbEntity
  8
_0
  6
Continuous
 62
     7
370
    30
100
AcDbLine
 10
18.152385
 20
-6.071813
 30
0.0
 11
18.086292
 21
-6.137906
 31
0.0
  0
LINE
  5
18A
330
48C
100
AcDbEntity
  8
_0
  6
Continuous
 62
     7
370
    30
100
AcDbLine
 10
18.003906
 20
-6.220292
 30
0.0
 11
17.967083
 21
-6.257125
 31
0.0
  0
LINE
  5
18B
330
48C
100
AcDbEntity
  8
_0
  6
Continuous
 62
     7
370
    30
100
AcDbLine
 10
18.152385
 20
-6.068281
 30
0.0
 11
18.086292
 21
-6.134365
 31
0.0
  0
LINE
  5
18C
330
48C
100
AcDbEntity
  8
_0
  6
Continuous
 62
     7
370
    30
100
AcDbLine
 10
17.998385
 20
-6.222281
 30
0.0
 11
17.963542
 21
-6.257125
 31
0.0
  0
LINE
  5
18D
330
48C
100
AcDbEntity
  8
_0
  6
Continuous
 62
     7
370
    30
100
AcDbLine
 10
18.152385
 20
-6.06475
 30
0.0
 11
18.086292
 21
-6.130833
 31
0.0
  0
LINE
  5
18E
330
48C
100
AcDbEntity
  8
_0
  6
Continuous
 62
     7
370
    30
100
AcDbLine
 10
17.992865
 20
-6.22426
 30
0.0
 11
17.96001
 21
-6.257125
 31
0.0
  0
LINE
  5
18F
330
48C
100
AcDbEntity
  8
_0
  6
Continuous
 62
     7
370
    30
100
AcDbLine
 10
18.152385
 20
-6.061208
 30
0.0
 11
18.086292
 21
-6.127292
 31
0.0
  0
LINE
  5
190
330
48C
100
AcDbEntity
  8
_0
  6
Continuous
 62
     7
370
    30
100
AcDbLine
 10
17.987344
 20
-6.22625
 30
0.0
 11
17.956469
 21
-6.257125
 31
0.0
  0
LINE
  5
191
330
48C
100
AcDbEntity
  8
_0
  6
Continuous
 62
     7
370
    30
100
AcDbLine
 10
18.152385
 20
-6.057677
 30
0.0
 11
18.086292
 21
-6.12376
 31
0.0
  0
LINE
  5
192
330
48C
100
AcDbEntity
  8
_0
  6
Continuous
 62
     7
370
    30
100
AcDbLine
 10
17.981823
 20
-6.228229
 30
0.0
 11
17.952938
 21
-6.257125
 31
0.0
  0
LINE
  5
193
330
48C
100
AcDbEntity
  8
_0
  6
Continuous
 62
     7
370
    30
100
AcDbLine
 10
18.150167
 20
-6.056354
 30
0.0
 11
18.086292
 21
-6.120229
 31
0.0
  0
LINE
  5
194
330
48C
100
AcDbEntity
  8
_0
  6
Continuous
 62
     7
370
    30
100
AcDbLine
 10
17.976302
 20
-6.230219
 30
0.0
 11
17.949396
 21
-6.257125
 31
0.0
  0
LINE
  5
195
330
48C
100
AcDbEntity
  8
_0
  6
Continuous
 62
     7
370
    30
100
AcDbLine
 10
18.146635
 20
-6.056354
 30
0.0
 11
18.083708
 21
-6.119271
 31
0.0
  0
LINE
  5
196
330
48C
100
AcDbEntity
  8
_0
  6
Continuous
 62
     7
370
    30
100
AcDbLine
 10
17.970781
 20
-6.232198
 30
0.0
 11
17.945865
 21
-6.257125
 31
0.0
  0
LINE
  5
197
330
48C
100
AcDbEntity
  8
_0
  6
Continuous
 62
     7
370
    30
100
AcDbLine
 10
18.143094
 20
-6.056354
 30
0.0
 11
18.080177
 21
-6.119271
 31
0.0
  0
LINE
  5
198
330
48C
100
AcDbEntity
  8
_0
  6
Continuous
 62
     7
370
    30
100
AcDbLine
 10
17.96526
 20
-6.234187
 30
0.0
 11
17.942333
 21
-6.257125
 31
0.0
  0
LINE
  5
199
330
48C
100
AcDbEntity
  8
_0
  6
Continuous
 62
     7
370
    30
100
AcDbLine
 10
18.139563
 20
-6.056354
 30
0.0
 11
18.076646
 21
-6.119271
 31
0.0
  0
LINE
  5
19A
330
48C
100
AcDbEntity
  8
_0
  6
Continuous
 62
     7
370
    30
100
AcDbLine
 10
17.95975
 20
-6.236167
 30
0.0
 11
17.938792
 21
-6.257125
 31
0.0
  0
LINE
  5
19B
330
48C
100
AcDbEntity
  8
_0
  6
Continuous
 62
     7
370
    30
100
AcDbLine
 10
18.136021
 20
-6.056354
 30
0.0
 11
18.073104
 21
-6.119271
 31
0.0
  0
LINE
  5
19C
330
48C
100
AcDbEntity
  8
_0
  6
Continuous
 62
     7
370
    30
100
AcDbLine
 10
17.954229
 20
-6.238156
 30
0.0
 11
17.93526
 21
-6.257125
 31
0.0
  0
LINE
  5
19D
330
48C
100
AcDbEntity
  8
_0
  6
Continuous
 62
     7
370
    30
100
AcDbLine
 10
18.13249
 20
-6.056354
 30
0.0
 11
18.069573
 21
-6.119271
 31
0.0
  0
LINE
  5
19E
330
48C
100
AcDbEntity
  8
_0
  6
Continuous
 62
     7
370
    30
100
AcDbLine
 10
17.948708
 20
-6.240135
 30
0.0
 11
17.931719
 21
-6.257125
 31
0.0
  0
LINE
  5
19F
330
48C
100
AcDbEntity
  8
_0
  6
Continuous
 62
     7
370
    30
100
AcDbLine
 10
18.128958
 20
-6.056354
 30
0.0
 11
18.066031
 21
-6.119271
 31
0.0
  0
LINE
  5
1A0
330
48C
100
AcDbEntity
  8
_0
  6
Continuous
 62
     7
370
    30
100
AcDbLine
 10
17.943188
 20
-6.242125
 30
0.0
 11
17.928187
 21
-6.257125
 31
0.0
  0
LINE
  5
1A1
330
48C
100
AcDbEntity
  8
_0
  6
Continuous
 62
     7
370
    30
100
AcDbLine
 10
18.125417
 20
-6.056354
 30
0.0
 11
18.0625
 21
-6.119271
 31
0.0
  0
LINE
  5
1A2
330
48C
100
AcDbEntity
  8
_0
  6
Continuous
 62
     7
370
    30
100
AcDbLine
 10
17.937667
 20
-6.244104
 30
0.0
 11
17.924656
 21
-6.257125
 31
0.0
  0
LINE
  5
1A3
330
48C
100
AcDbEntity
  8
_0
  6
Continuous
 62
     7
370
    30
100
AcDbLine
 10
18.121885
 20
-6.056354
 30
0.0
 11
18.058969
 21
-6.119271
 31
0.0
  0
LINE
  5
1A4
330
48C
100
AcDbEntity
  8
_0
  6
Continuous
 62
     7
370
    30
100
AcDbLine
 10
17.932146
 20
-6.246094
 30
0.0
 11
17.921115
 21
-6.257125
 31
0.0
  0
LINE
  5
1A5
330
48C
100
AcDbEntity
  8
_0
  6
Continuous
 62
     7
370
    30
100
AcDbLine
 10
18.118344
 20
-6.056354
 30
0.0
 11
18.055427
 21
-6.119271
 31
0.0
  0
LINE
  5
1A6
330
48C
100
AcDbEntity
  8
_0
  6
Continuous
 62
     7
370
    30
100
AcDbLine
 10
17.926625
 20
-6.248073
 30
0.0
 11
17.917583
 21
-6.257125
 31
0.0
  0
LINE
  5
1A7
330
48C
100
AcDbEntity
  8
_0
  6
Continuous
 62
     7
370
    30
100
AcDbLine
 10
18.114812
 20
-6.056354
 30
0.0
 11
18.051896
 21
-6.119271
 31
0.0
  0
LINE
  5
1A8
330
48C
100
AcDbEntity
  8
_0
  6
Continuous
 62
     7
370
    30
100
AcDbLine
 10
17.921104
 20
-6.250062
 30
0.0
 11
17.914042
 21
-6.257125
 31
0.0
  0
LINE
  5
1A9
330
48C
100
AcDbEntity
  8
_0
  6
Continuous
 62
     7
370
    30
100
AcDbLine
 10
18.111281
 20
-6.056354
 30
0.0
 11
18.050104
 21
-6.117521
 31
0.0
  0
LINE
  5
1AA
330
48C
100
AcDbEntity
  8
_0
  6
Continuous
 62
     7
370
    30
100
AcDbLine
 10
17.915583
 20
-6.252042
 30
0.0
 11
17.91051
 21
-6.257125
 31
0.0
  0
LINE
  5
1AB
330
48C
100
AcDbEntity
  8
_0
  6
Continuous
 62
     7
370
    30
100
AcDbLine
 10
18.10774
 20
-6.056354
 30
0.0
 11
18.050104
 21
-6.11399
 31
0.0
  0
LINE
  5
1AC
330
48C
100
AcDbEntity
  8
_0
  6
Continuous
 62
     7
370
    30
100
AcDbLine
 10
17.910062
 20
-6.254031
 30
0.0
 11
17.906979
 21
-6.257125
 31
0.0
  0
LINE
  5
1AD
330
48C
100
AcDbEntity
  8
_0
  6
Continuous
 62
     7
370
    30
100
AcDbLine
 10
18.104208
 20
-6.056354
 30
0.0
 11
18.050104
 21
-6.110448
 31
0.0
  0
LINE
  5
1AE
330
48C
100
AcDbEntity
  8
_0
  6
Continuous
 62
     7
370
    30
100
AcDbLine
 10
17.904542
 20
-6.25601
 30
0.0
 11
17.903437
 21
-6.257125
 31
0.0
  0
LINE
  5
1AF
330
48C
100
AcDbEntity
  8
_0
  6
Continuous
 62
     7
370
    30
100
AcDbLine
 10
18.100667
 20
-6.056354
 30
0.0
 11
18.050104
 21
-6.106917
 31
0.0
  0
LINE
  5
1B0
330
48C
100
AcDbEntity
  8
_0
  6
Continuous
 62
     7
370
    30
100
AcDbLine
 10
18.097135
 20
-6.056354
 30
0.0
 11
18.050104
 21
-6.103385
 31
0.0
  0
LINE
  5
1B1
330
48C
100
AcDbEntity
  8
_0
  6
Continuous
 62
     7
370
    30
100
AcDbLine
 10
18.093594
 20
-6.056354
 30
0.0
 11
18.050104
 21
-6.099844
 31
0.0
  0
LINE
  5
1B2
330
48C
100
AcDbEntity
  8
_0
  6
Continuous
 62
     7
370
    30
100
AcDbLine
 10
18.090062
 20
-6.056354
 30
0.0
 11
18.050104
 21
-6.096312
 31
0.0
  0
LINE
  5
1B3
330
48C
100
AcDbEntity
  8
_0
  6
Continuous
 62
     7
370
    30
100
AcDbLine
 10
18.086531
 20
-6.056354
 30
0.0
 11
18.050104
 21
-6.092771
 31
0.0
  0
LINE
  5
1B4
330
48C
100
AcDbEntity
  8
_0
  6
Continuous
 62
     7
370
    30
100
AcDbLine
 10
18.08299
 20
-6.056354
 30
0.0
 11
18.050104
 21
-6.08924
 31
0.0
  0
LINE
  5
1B5
330
48C
100
AcDbEntity
  8
_0
  6
Continuous
 62
     7
370
    30
100
AcDbLine
 10
18.079458
 20
-6.056354
 30
0.0
 11
18.050104
 21
-6.085708
 31
0.0
  0
LINE
  5
1B6
330
48C
100
AcDbEntity
  8
_0
  6
Continuous
 62
     7
370
    30
100
AcDbLine
 10
18.075917
 20
-6.056354
 30
0.0
 11
18.050104
 21
-6.082167
 31
0.0
  0
LINE
  5
1B7
330
48C
100
AcDbEntity
  8
_0
  6
Continuous
 62
     7
370
    30
100
AcDbLine
 10
18.072385
 20
-6.056354
 30
0.0
 11
18.050104
 21
-6.078635
 31
0.0
  0
LINE
  5
1B8
330
48C
100
AcDbEntity
  8
_0
  6
Continuous
 62
     7
370
    30
100
AcDbLine
 10
18.068854
 20
-6.056354
 30
0.0
 11
18.050104
 21
-6.075094
 31
0.0
  0
LINE
  5
1B9
330
48C
100
AcDbEntity
  8
_0
  6
Continuous
 62
     7
370
    30
100
AcDbLine
 10
18.065313
 20
-6.056354
 30
0.0
 11
18.050104
 21
-6.071562
 31
0.0
  0
LINE
  5
1BA
330
48C
100
AcDbEntity
  8
_0
  6
Continuous
 62
     7
370
    30
100
AcDbLine
 10
18.061781
 20
-6.056354
 30
0.0
 11
18.050104
 21
-6.068031
 31
0.0
  0
LINE
  5
1BB
330
48C
100
AcDbEntity
  8
_0
  6
Continuous
 62
     7
370
    30
100
AcDbLine
 10
18.05824
 20
-6.056354
 30
0.0
 11
18.050104
 21
-6.06449
 31
0.0
  0
LINE
  5
1BC
330
48C
100
AcDbEntity
  8
_0
  6
Continuous
 62
     7
370
    30
100
AcDbLine
 10
18.054708
 20
-6.056354
 30
0.0
 11
18.050104
 21
-6.060958
 31
0.0
  0
LINE
  5
1BD
330
48C
100
AcDbEntity
  8
_0
  6
Continuous
 62
     7
370
    30
100
AcDbLine
 10
18.051177
 20
-6.056354
 30
0.0
 11
18.050104
 21
-6.057417
 31
0.0
  0
LWPOLYLINE
  5
1BE
330
48C
100
AcDbEntity
  8
_0
  6
Continuous
 62
     7
370
    30
100
AcDbPolyline
 90
       15
 70
   128
 43
0.0
 10
18.10124
 20
-6.056354
 10
18.050104
 20
-6.056354
 10
18.050104
 20
-6.119271
 10
18.086292
 20
-6.119271
 10
18.086292
 20
-6.207365
 10
18.039875
 20
-6.207365
 10
17.901469
 20
-6.257125
 10
18.10124
 20
-6.257125
 10
18.301021
 20
-6.257125
 10
18.162615
 20
-6.207365
 10
18.116198
 20
-6.207365
 10
18.116198
 20
-6.119271
 10
18.152385
 20
-6.119271
 10
18.152385
 20
-6.056354
 10
18.10124
 20
-6.056354
  0
LINE
  5
1BF
330
48C
100
AcDbEntity
  8
HATCH
  6
Continuous
 62
     7
370
    30
100
AcDbLine
 10
21.015354
 20
-6.616042
 30
0.0
 11
20.966646
 21
-6.644167
 31
0.0
  0
LINE
  5
1C0
330
48C
100
AcDbEntity
  8
HATCH
  6
Continuous
 62
     7
370
    30
100
AcDbLine
 10
20.917927
 20
-6.672292
 30
0.0
 11
20.869219
 21
-6.700417
 31
0.0
  0
LINE
  5
1C1
330
48C
100
AcDbEntity
  8
HATCH
  6
Continuous
 62
     7
370
    30
100
AcDbLine
 10
20.8205
 20
-6.728542
 30
0.0
 11
20.771781
 21
-6.756667
 31
0.0
  0
LINE
  5
1C2
330
48C
100
AcDbEntity
  8
HATCH
  6
Continuous
 62
     7
370
    30
100
AcDbLine
 10
20.917927
 20
-6.559792
 30
0.0
 11
20.869219
 21
-6.587917
 31
0.0
  0
LINE
  5
1C3
330
48C
100
AcDbEntity
  8
HATCH
  6
Continuous
 62
     7
370
    30
100
AcDbLine
 10
20.8205
 20
-6.616042
 30
0.0
 11
20.771781
 21
-6.644167
 31
0.0
  0
LINE
  5
1C4
330
48C
100
AcDbEntity
  8
HATCH
  6
Continuous
 62
     7
370
    30
100
AcDbLine
 10
20.723073
 20
-6.672292
 30
0.0
 11
20.674354
 21
-6.700417
 31
0.0
  0
LINE
  5
1C5
330
48C
100
AcDbEntity
  8
HATCH
  6
Continuous
 62
     7
370
    30
100
AcDbLine
 10
20.8205
 20
-6.503542
 30
0.0
 11
20.771781
 21
-6.531667
 31
0.0
  0
LINE
  5
1C6
330
48C
100
AcDbEntity
  8
HATCH
  6
Continuous
 62
     7
370
    30
100
AcDbLine
 10
20.723073
 20
-6.559792
 30
0.0
 11
20.674354
 21
-6.587917
 31
0.0
  0
LINE
  5
1C7
330
48C
100
AcDbEntity
  8
HATCH
  6
Continuous
 62
     7
370
    30
100
AcDbLine
 10
20.625646
 20
-6.616042
 30
0.0
 11
20.576927
 21
-6.644167
 31
0.0
  0
LINE
  5
1C8
330
48C
100
AcDbEntity
  8
HATCH
  6
Continuous
 62
     7
370
    30
100
AcDbLine
 10
20.723073
 20
-6.447292
 30
0.0
 11
20.674354
 21
-6.475417
 31
0.0
  0
LINE
  5
1C9
330
48C
100
AcDbEntity
  8
HATCH
  6
Continuous
 62
     7
370
    30
100
AcDbLine
 10
20.625646
 20
-6.503542
 30
0.0
 11
20.576927
 21
-6.531667
 31
0.0
  0
LINE
  5
1CA
330
48C
100
AcDbEntity
  8
HATCH
  6
Continuous
 62
     7
370
    30
100
AcDbLine
 10
20.528219
 20
-6.559792
 30
0.0
 11
20.4795
 21
-6.587917
 31
0.0
  0
LINE
  5
1CB
330
48C
100
AcDbEntity
  8
HATCH
  6
Continuous
 62
     7
370
    30
100
AcDbLine
 10
20.625646
 20
-6.391042
 30
0.0
 11
20.576927
 21
-6.419167
 31
0.0
  0
LINE
  5
1CC
330
48C
100
AcDbEntity
  8
HATCH
  6
Continuous
 62
     7
370
    30
100
AcDbLine
 10
20.528219
 20
-6.447292
 30
0.0
 11
20.4795
 21
-6.475417
 31
0.0
  0
LINE
  5
1CD
330
48C
100
AcDbEntity
  8
HATCH
  6
Continuous
 62
     7
370
    30
100
AcDbLine
 10
20.430792
 20
-6.503542
 30
0.0
 11
20.391521
 21
-6.526208
 31
0.0
  0
LINE
  5
1CE
330
48C
100
AcDbEntity
  8
HATCH
  6
Continuous
 62
     7
370
    30
100
AcDbLine
 10
20.528219
 20
-6.334792
 30
0.0
 11
20.4795
 21
-6.362917
 31
0.0
  0
LINE
  5
1CF
330
48C
100
AcDbEntity
  8
HATCH
  6
Continuous
 62
     7
370
    30
100
AcDbLine
 10
20.430792
 20
-6.391042
 30
0.0
 11
20.382073
 21
-6.419167
 31
0.0
  0
LINE
  5
1D0
330
48C
100
AcDbEntity
  8
HATCH
  6
Continuous
 62
     7
370
    30
100
AcDbLine
 10
20.430792
 20
-6.278542
 30
0.0
 11
20.390187
 21
-6.30199
 31
0.0
  0
LINE
  5
1D1
330
48C
100
AcDbEntity
  8
HATCH
  6
Continuous
 62
     7
370
    30
100
AcDbLine
 10
21.167833
 20
-6.64051
 30
0.0
 11
21.1615
 21
-6.644167
 31
0.0
  0
LINE
  5
1D2
330
48C
100
AcDbEntity
  8
HATCH
  6
Continuous
 62
     7
370
    30
100
AcDbLine
 10
21.112781
 20
-6.672292
 30
0.0
 11
21.064073
 21
-6.700417
 31
0.0
  0
LINE
  5
1D3
330
48C
100
AcDbEntity
  8
HATCH
  6
Continuous
 62
     7
370
    30
100
AcDbLine
 10
21.015354
 20
-6.728542
 30
0.0
 11
20.966646
 21
-6.756667
 31
0.0
  0
LINE
  5
1D4
330
48C
100
AcDbEntity
  8
HATCH
  6
Continuous
 62
     7
370
    30
100
AcDbLine
 10
21.27225
 20
-6.692719
 30
0.0
 11
21.258927
 21
-6.700417
 31
0.0
  0
LINE
  5
1D5
330
48C
100
AcDbEntity
  8
HATCH
  6
Continuous
 62
     7
370
    30
100
AcDbLine
 10
21.210208
 20
-6.728542
 30
0.0
 11
21.1615
 21
-6.756667
 31
0.0
  0
LINE
  5
1D6
330
48C
100
AcDbEntity
  8
HATCH
  6
Continuous
 62
     7
370
    30
100
AcDbLine
 10
21.376677
 20
-6.744937
 30
0.0
 11
21.356354
 21
-6.756667
 31
0.0
  0
LINE
  5
1D7
330
48C
100
AcDbEntity
  8
HATCH
  6
Continuous
 62
     7
370
    30
100
AcDbLine
 10
21.307635
 20
-6.784792
 30
0.0
 11
21.258927
 21
-6.812917
 31
0.0
  0
LINE
  5
1D8
330
48C
100
AcDbEntity
  8
HATCH
  6
Continuous
 62
     7
370
    30
100
AcDbLine
 10
21.481104
 20
-6.797146
 30
0.0
 11
21.453781
 21
-6.812917
 31
0.0
  0
LINE
  5
1D9
330
48C
100
AcDbEntity
  8
HATCH
  6
Continuous
 62
     7
370
    30
100
AcDbLine
 10
21.405062
 20
-6.841042
 30
0.0
 11
21.356354
 21
-6.869167
 31
0.0
  0
LINE
  5
1DA
330
48C
100
AcDbEntity
  8
HATCH
  6
Continuous
 62
     7
370
    30
100
AcDbLine
 10
21.585521
 20
-6.849354
 30
0.0
 11
21.551208
 21
-6.869167
 31
0.0
  0
LINE
  5
1DB
330
48C
100
AcDbEntity
  8
HATCH
  6
Continuous
 62
     7
370
    30
100
AcDbLine
 10
21.5025
 20
-6.897292
 30
0.0
 11
21.453781
 21
-6.925417
 31
0.0
  0
LINE
  5
1DC
330
48C
100
AcDbEntity
  8
HATCH
  6
Continuous
 62
     7
370
    30
100
AcDbLine
 10
21.689948
 20
-6.901562
 30
0.0
 11
21.648635
 21
-6.925417
 31
0.0
  0
LINE
  5
1DD
330
48C
100
AcDbEntity
  8
HATCH
  6
Continuous
 62
     7
370
    30
100
AcDbLine
 10
21.599927
 20
-6.953542
 30
0.0
 11
21.551208
 21
-6.981667
 31
0.0
  0
LINE
  5
1DE
330
48C
100
AcDbEntity
  8
HATCH
  6
Continuous
 62
     7
370
    30
100
AcDbLine
 10
21.794365
 20
-6.953781
 30
0.0
 11
21.746063
 21
-6.981667
 31
0.0
  0
LINE
  5
1DF
330
48C
100
AcDbEntity
  8
HATCH
  6
Continuous
 62
     7
370
    30
100
AcDbLine
 10
21.86325
 20
-6.993073
 30
0.0
 11
21.84349
 21
-6.981667
 31
0.0
  0
LINE
  5
1E0
330
48C
100
AcDbEntity
  8
HATCH
  6
Continuous
 62
     7
370
    30
100
AcDbLine
 10
21.661104
 20
-6.988865
 30
0.0
 11
21.648635
 21
-6.981667
 31
0.0
  0
LINE
  5
1E1
330
48C
100
AcDbEntity
  8
HATCH
  6
Continuous
 62
     7
370
    30
100
AcDbLine
 10
21.599927
 20
-6.953542
 30
0.0
 11
21.551208
 21
-6.925417
 31
0.0
  0
LINE
  5
1E2
330
48C
100
AcDbEntity
  8
HATCH
  6
Continuous
 62
     7
370
    30
100
AcDbLine
 10
21.5025
 20
-6.897292
 30
0.0
 11
21.453781
 21
-6.869167
 31
0.0
  0
LINE
  5
1E3
330
48C
100
AcDbEntity
  8
HATCH
  6
Continuous
 62
     7
370
    30
100
AcDbLine
 10
21.405062
 20
-6.841042
 30
0.0
 11
21.356354
 21
-6.812917
 31
0.0
  0
LINE
  5
1E4
330
48C
100
AcDbEntity
  8
HATCH
  6
Continuous
 62
     7
370
    30
100
AcDbLine
 10
21.307635
 20
-6.784792
 30
0.0
 11
21.258927
 21
-6.756667
 31
0.0
  0
LINE
  5
1E5
330
48C
100
AcDbEntity
  8
HATCH
  6
Continuous
 62
     7
370
    30
100
AcDbLine
 10
21.210208
 20
-6.728542
 30
0.0
 11
21.1615
 21
-6.700417
 31
0.0
  0
LINE
  5
1E6
330
48C
100
AcDbEntity
  8
HATCH
  6
Continuous
 62
     7
370
    30
100
AcDbLine
 10
21.112781
 20
-6.672292
 30
0.0
 11
21.064073
 21
-6.644167
 31
0.0
  0
LINE
  5
1E7
330
48C
100
AcDbEntity
  8
HATCH
  6
Continuous
 62
     7
370
    30
100
AcDbLine
 10
21.015354
 20
-6.616042
 30
0.0
 11
20.966646
 21
-6.587917
 31
0.0
  0
LINE
  5
1E8
330
48C
100
AcDbEntity
  8
HATCH
  6
Continuous
 62
     7
370
    30
100
AcDbLine
 10
20.917927
 20
-6.559792
 30
0.0
 11
20.869219
 21
-6.531667
 31
0.0
  0
LINE
  5
1E9
330
48C
100
AcDbEntity
  8
HATCH
  6
Continuous
 62
     7
370
    30
100
AcDbLine
 10
20.8205
 20
-6.503542
 30
0.0
 11
20.771781
 21
-6.475417
 31
0.0
  0
LINE
  5
1EA
330
48C
100
AcDbEntity
  8
HATCH
  6
Continuous
 62
     7
370
    30
100
AcDbLine
 10
20.723073
 20
-6.447292
 30
0.0
 11
20.674354
 21
-6.419167
 31
0.0
  0
LINE
  5
1EB
330
48C
100
AcDbEntity
  8
HATCH
  6
Continuous
 62
     7
370
    30
100
AcDbLine
 10
20.625646
 20
-6.391042
 30
0.0
 11
20.576927
 21
-6.362917
 31
0.0
  0
LINE
  5
1EC
330
48C
100
AcDbEntity
  8
HATCH
  6
Continuous
 62
     7
370
    30
100
AcDbLine
 10
20.528219
 20
-6.334792
 30
0.0
 11
20.4795
 21
-6.306667
 31
0.0
  0
LINE
  5
1ED
330
48C
100
AcDbEntity
  8
HATCH
  6
Continuous
 62
     7
370
    30
100
AcDbLine
 10
20.430792
 20
-6.278542
 30
0.0
 11
20.400146
 21
-6.260854
 31
0.0
  0
LINE
  5
1EE
330
48C
100
AcDbEntity
  8
HATCH
  6
Continuous
 62
     7
370
    30
100
AcDbLine
 10
21.458948
 20
-6.984646
 30
0.0
 11
21.453781
 21
-6.981667
 31
0.0
  0
LINE
  5
1EF
330
48C
100
AcDbEntity
  8
HATCH
  6
Continuous
 62
     7
370
    30
100
AcDbLine
 10
21.10201
 20
-6.778573
 30
0.0
 11
21.064073
 21
-6.756667
 31
0.0
  0
LINE
  5
1F0
330
48C
100
AcDbEntity
  8
HATCH
  6
Continuous
 62
     7
370
    30
100
AcDbLine
 10
21.015354
 20
-6.728542
 30
0.0
 11
20.966646
 21
-6.700417
 31
0.0
  0
LINE
  5
1F1
330
48C
100
AcDbEntity
  8
HATCH
  6
Continuous
 62
     7
370
    30
100
AcDbLine
 10
20.917927
 20
-6.672292
 30
0.0
 11
20.869219
 21
-6.644167
 31
0.0
  0
LINE
  5
1F2
330
48C
100
AcDbEntity
  8
HATCH
  6
Continuous
 62
     7
370
    30
100
AcDbLine
 10
20.8205
 20
-6.616042
 30
0.0
 11
20.771781
 21
-6.587917
 31
0.0
  0
LINE
  5
1F3
330
48C
100
AcDbEntity
  8
HATCH
  6
Continuous
 62
     7
370
    30
100
AcDbLine
 10
20.723073
 20
-6.559792
 30
0.0
 11
20.674354
 21
-6.531667
 31
0.0
  0
LINE
  5
1F4
330
48C
100
AcDbEntity
  8
HATCH
  6
Continuous
 62
     7
370
    30
100
AcDbLine
 10
20.625646
 20
-6.503542
 30
0.0
 11
20.576927
 21
-6.475417
 31
0.0
  0
LINE
  5
1F5
330
48C
100
AcDbEntity
  8
HATCH
  6
Continuous
 62
     7
370
    30
100
AcDbLine
 10
20.528219
 20
-6.447292
 30
0.0
 11
20.4795
 21
-6.419167
 31
0.0
  0
LINE
  5
1F6
330
48C
100
AcDbEntity
  8
HATCH
  6
Continuous
 62
     7
370
    30
100
AcDbLine
 10
20.430792
 20
-6.391042
 30
0.0
 11
20.382073
 21
-6.362917
 31
0.0
  0
LINE
  5
1F7
330
48C
100
AcDbEntity
  8
HATCH
  6
Continuous
 62
     7
370
    30
100
AcDbLine
 10
20.888031
 20
-6.767531
 30
0.0
 11
20.869219
 21
-6.756667
 31
0.0
  0
LINE
  5
1F8
330
48C
100
AcDbEntity
  8
HATCH
  6
Continuous
 62
     7
370
    30
100
AcDbLine
 10
20.8205
 20
-6.728542
 30
0.0
 11
20.771781
 21
-6.700417
 31
0.0
  0
LINE
  5
1F9
330
48C
100
AcDbEntity
  8
HATCH
  6
Continuous
 62
     7
370
    30
100
AcDbLine
 10
20.723073
 20
-6.672292
 30
0.0
 11
20.674354
 21
-6.644167
 31
0.0
  0
LINE
  5
1FA
330
48C
100
AcDbEntity
  8
HATCH
  6
Continuous
 62
     7
370
    30
100
AcDbLine
 10
20.625646
 20
-6.616042
 30
0.0
 11
20.576927
 21
-6.587917
 31
0.0
  0
LINE
  5
1FB
330
48C
100
AcDbEntity
  8
HATCH
  6
Continuous
 62
     7
370
    30
100
AcDbLine
 10
20.528219
 20
-6.559792
 30
0.0
 11
20.4795
 21
-6.531667
 31
0.0
  0
LINE
  5
1FC
330
48C
100
AcDbEntity
  8
HATCH
  6
Continuous
 62
     7
370
    30
100
AcDbLine
 10
20.430792
 20
-6.503542
 30
0.0
 11
20.382073
 21
-6.475417
 31
0.0
  0
LINE
  5
1FD
330
48C
100
AcDbEntity
  8
HATCH
  6
Continuous
 62
     7
370
    30
100
AcDbLine
 10
21.1615
 20
-6.637344
 30
0.0
 11
21.1615
 21
-6.644167
 31
0.0
  0
LINE
  5
1FE
330
48C
100
AcDbEntity
  8
HATCH
  6
Continuous
 62
     7
370
    30
100
AcDbLine
 10
21.1615
 20
-6.700417
 30
0.0
 11
21.1615
 21
-6.756667
 31
0.0
  0
LINE
  5
1FF
330
48C
100
AcDbEntity
  8
HATCH
  6
Continuous
 62
     7
370
    30
100
AcDbLine
 10
21.064073
 20
-6.644167
 30
0.0
 11
21.064073
 21
-6.700417
 31
0.0
  0
LINE
  5
200
330
48C
100
AcDbEntity
  8
HATCH
  6
Continuous
 62
     7
370
    30
100
AcDbLine
 10
21.064073
 20
-6.756667
 30
0.0
 11
21.064073
 21
-6.77624
 31
0.0
  0
LINE
  5
201
330
48C
100
AcDbEntity
  8
HATCH
  6
Continuous
 62
     7
370
    30
100
AcDbLine
 10
20.966646
 20
-6.587917
 30
0.0
 11
20.966646
 21
-6.644167
 31
0.0
  0
LINE
  5
202
330
48C
100
AcDbEntity
  8
HATCH
  6
Continuous
 62
     7
370
    30
100
AcDbLine
 10
20.966646
 20
-6.700417
 30
0.0
 11
20.966646
 21
-6.756667
 31
0.0
  0
LINE
  5
203
330
48C
100
AcDbEntity
  8
HATCH
  6
Continuous
 62
     7
370
    30
100
AcDbLine
 10
20.869219
 20
-6.531667
 30
0.0
 11
20.869219
 21
-6.587917
 31
0.0
  0
LINE
  5
204
330
48C
100
AcDbEntity
  8
HATCH
  6
Continuous
 62
     7
370
    30
100
AcDbLine
 10
20.869219
 20
-6.644167
 30
0.0
 11
20.869219
 21
-6.700417
 31
0.0
  0
LINE
  5
205
330
48C
100
AcDbEntity
  8
HATCH
  6
Continuous
 62
     7
370
    30
100
AcDbLine
 10
20.869219
 20
-6.756667
 30
0.0
 11
20.869219
 21
-6.767531
 31
0.0
  0
LINE
  5
206
330
48C
100
AcDbEntity
  8
HATCH
  6
Continuous
 62
     7
370
    30
100
AcDbLine
 10
20.771781
 20
-6.475417
 30
0.0
 11
20.771781
 21
-6.531667
 31
0.0
  0
LINE
  5
207
330
48C
100
AcDbEntity
  8
HATCH
  6
Continuous
 62
     7
370
    30
100
AcDbLine
 10
20.771781
 20
-6.587917
 30
0.0
 11
20.771781
 21
-6.644167
 31
0.0
  0
LINE
  5
208
330
48C
100
AcDbEntity
  8
HATCH
  6
Continuous
 62
     7
370
    30
100
AcDbLine
 10
20.771781
 20
-6.700417
 30
0.0
 11
20.771781
 21
-6.756667
 31
0.0
  0
LINE
  5
209
330
48C
100
AcDbEntity
  8
HATCH
  6
Continuous
 62
     7
370
    30
100
AcDbLine
 10
20.674354
 20
-6.419167
 30
0.0
 11
20.674354
 21
-6.475417
 31
0.0
  0
LINE
  5
20A
330
48C
100
AcDbEntity
  8
HATCH
  6
Continuous
 62
     7
370
    30
100
AcDbLine
 10
20.674354
 20
-6.531667
 30
0.0
 11
20.674354
 21
-6.587917
 31
0.0
  0
LINE
  5
20B
330
48C
100
AcDbEntity
  8
HATCH
  6
Continuous
 62
     7
370
    30
100
AcDbLine
 10
20.674354
 20
-6.644167
 30
0.0
 11
20.674354
 21
-6.700417
 31
0.0
  0
LINE
  5
20C
330
48C
100
AcDbEntity
  8
HATCH
  6
Continuous
 62
     7
370
    30
100
AcDbLine
 10
20.576927
 20
-6.362917
 30
0.0
 11
20.576927
 21
-6.419167
 31
0.0
  0
LINE
  5
20D
330
48C
100
AcDbEntity
  8
HATCH
  6
Continuous
 62
     7
370
    30
100
AcDbLine
 10
20.576927
 20
-6.475417
 30
0.0
 11
20.576927
 21
-6.531667
 31
0.0
  0
LINE
  5
20E
330
48C
100
AcDbEntity
  8
HATCH
  6
Continuous
 62
     7
370
    30
100
AcDbLine
 10
20.576927
 20
-6.587917
 30
0.0
 11
20.576927
 21
-6.644167
 31
0.0
  0
LINE
  5
20F
330
48C
100
AcDbEntity
  8
HATCH
  6
Continuous
 62
     7
370
    30
100
AcDbLine
 10
20.4795
 20
-6.306667
 30
0.0
 11
20.4795
 21
-6.362917
 31
0.0
  0
LINE
  5
210
330
48C
100
AcDbEntity
  8
HATCH
  6
Continuous
 62
     7
370
    30
100
AcDbLine
 10
20.4795
 20
-6.419167
 30
0.0
 11
20.4795
 21
-6.475417
 31
0.0
  0
LINE
  5
211
330
48C
100
AcDbEntity
  8
HATCH
  6
Continuous
 62
     7
370
    30
100
AcDbLine
 10
20.4795
 20
-6.531667
 30
0.0
 11
20.4795
 21
-6.587917
 31
0.0
  0
LINE
  5
212
330
48C
100
AcDbEntity
  8
HATCH
  6
Continuous
 62
     7
370
    30
100
AcDbLine
 10
20.382073
 20
-6.362917
 30
0.0
 11
20.382073
 21
-6.419167
 31
0.0
  0
LINE
  5
213
330
48C
100
AcDbEntity
  8
HATCH
  6
Continuous
 62
     7
370
    30
100
AcDbLine
 10
20.382073
 20
-6.475417
 30
0.0
 11
20.382073
 21
-6.497135
 31
0.0
  0
LINE
  5
214
330
48C
100
AcDbEntity
  8
HATCH
  6
Continuous
 62
     7
370
    30
100
AcDbLine
 10
21.258927
 20
-6.686052
 30
0.0
 11
21.258927
 21
-6.700417
 31
0.0
  0
LINE
  5
215
330
48C
100
AcDbEntity
  8
HATCH
  6
Continuous
 62
     7
370
    30
100
AcDbLine
 10
21.258927
 20
-6.756667
 30
0.0
 11
21.258927
 21
-6.812917
 31
0.0
  0
LINE
  5
216
330
48C
100
AcDbEntity
  8
HATCH
  6
Continuous
 62
     7
370
    30
100
AcDbLine
 10
21.356354
 20
-6.734771
 30
0.0
 11
21.356354
 21
-6.756667
 31
0.0
  0
LINE
  5
217
330
48C
100
AcDbEntity
  8
HATCH
  6
Continuous
 62
     7
370
    30
100
AcDbLine
 10
21.356354
 20
-6.812917
 30
0.0
 11
21.356354
 21
-6.869167
 31
0.0
  0
LINE
  5
218
330
48C
100
AcDbEntity
  8
HATCH
  6
Continuous
 62
     7
370
    30
100
AcDbLine
 10
21.453781
 20
-6.78349
 30
0.0
 11
21.453781
 21
-6.812917
 31
0.0
  0
LINE
  5
219
330
48C
100
AcDbEntity
  8
HATCH
  6
Continuous
 62
     7
370
    30
100
AcDbLine
 10
21.453781
 20
-6.869167
 30
0.0
 11
21.453781
 21
-6.925417
 31
0.0
  0
LINE
  5
21A
330
48C
100
AcDbEntity
  8
HATCH
  6
Continuous
 62
     7
370
    30
100
AcDbLine
 10
21.453781
 20
-6.981667
 30
0.0
 11
21.453781
 21
-6.984542
 31
0.0
  0
LINE
  5
21B
330
48C
100
AcDbEntity
  8
HATCH
  6
Continuous
 62
     7
370
    30
100
AcDbLine
 10
21.551208
 20
-6.832198
 30
0.0
 11
21.551208
 21
-6.869167
 31
0.0
  0
LINE
  5
21C
330
48C
100
AcDbEntity
  8
HATCH
  6
Continuous
 62
     7
370
    30
100
AcDbLine
 10
21.551208
 20
-6.925417
 30
0.0
 11
21.551208
 21
-6.981667
 31
0.0
  0
LINE
  5
21D
330
48C
100
AcDbEntity
  8
HATCH
  6
Continuous
 62
     7
370
    30
100
AcDbLine
 10
21.648635
 20
-6.880917
 30
0.0
 11
21.648635
 21
-6.925417
 31
0.0
  0
LINE
  5
21E
330
48C
100
AcDbEntity
  8
HATCH
  6
Continuous
 62
     7
370
    30
100
AcDbLine
 10
21.648635
 20
-6.981667
 30
0.0
 11
21.648635
 21
-6.988604
 31
0.0
  0
LINE
  5
21F
330
48C
100
AcDbEntity
  8
HATCH
  6
Continuous
 62
     7
370
    30
100
AcDbLine
 10
21.746063
 20
-6.929625
 30
0.0
 11
21.746063
 21
-6.981667
 31
0.0
  0
LINE
  5
220
330
48C
100
AcDbEntity
  8
HATCH
  6
Continuous
 62
     7
370
    30
100
AcDbLine
 10
21.84349
 20
-6.981667
 30
0.0
 11
21.84349
 21
-6.992667
 31
0.0
  0
LINE
  5
221
330
48C
100
AcDbEntity
  8
HATCH
  6
Continuous
 62
     7
370
    30
100
AcDbLine
 10
22.602521
 20
-7.138219
 30
0.0
 11
22.531813
 21
-7.208927
 31
0.0
  0
LINE
  5
222
330
48C
100
AcDbEntity
  8
HATCH
  6
Continuous
 62
     7
370
    30
100
AcDbLine
 10
22.461104
 20
-7.138219
 30
0.0
 11
22.390396
 21
-7.208927
 31
0.0
  0
LINE
  5
223
330
48C
100
AcDbEntity
  8
HATCH
  6
Continuous
 62
     7
370
    30
100
AcDbLine
 10
22.422906
 20
-7.035
 30
0.0
 11
22.390396
 21
-7.06751
 31
0.0
  0
LINE
  5
224
330
48C
100
AcDbEntity
  8
HATCH
  6
Continuous
 62
     7
370
    30
100
AcDbLine
 10
22.319677
 20
-7.138219
 30
0.0
 11
22.248969
 21
-7.208927
 31
0.0
  0
LINE
  5
225
330
48C
100
AcDbEntity
  8
HATCH
  6
Continuous
 62
     7
370
    30
100
AcDbLine
 10
22.31401
 20
-7.002469
 30
0.0
 11
22.248969
 21
-7.06751
 31
0.0
  0
LINE
  5
226
330
48C
100
AcDbEntity
  8
HATCH
  6
Continuous
 62
     7
370
    30
100
AcDbLine
 10
22.17826
 20
-7.138219
 30
0.0
 11
22.107552
 21
-7.208927
 31
0.0
  0
LINE
  5
227
330
48C
100
AcDbEntity
  8
HATCH
  6
Continuous
 62
     7
370
    30
100
AcDbLine
 10
22.175479
 20
-6.999583
 30
0.0
 11
22.107552
 21
-7.06751
 31
0.0
  0
LINE
  5
228
330
48C
100
AcDbEntity
  8
HATCH
  6
Continuous
 62
     7
370
    30
100
AcDbLine
 10
22.036833
 20
-7.138219
 30
0.0
 11
21.966125
 21
-7.208927
 31
0.0
  0
LINE
  5
229
330
48C
100
AcDbEntity
  8
HATCH
  6
Continuous
 62
     7
370
    30
100
AcDbLine
 10
22.036833
 20
-6.996802
 30
0.0
 11
21.966125
 21
-7.06751
 31
0.0
  0
LINE
  5
22A
330
48C
100
AcDbEntity
  8
HATCH
  6
Continuous
 62
     7
370
    30
100
AcDbLine
 10
21.895417
 20
-7.138219
 30
0.0
 11
21.881052
 21
-7.152583
 31
0.0
  0
LINE
  5
22B
330
48C
100
AcDbEntity
  8
HATCH
  6
Continuous
 62
     7
370
    30
100
AcDbLine
 10
21.895417
 20
-6.996802
 30
0.0
 11
21.866854
 21
-7.025365
 31
0.0
  0
LINE
  5
22C
330
48C
100
AcDbEntity
  8
HATCH
  6
Continuous
 62
     7
370
    30
100
AcDbLine
 10
22.741104
 20
-7.141062
 30
0.0
 11
22.67324
 21
-7.208927
 31
0.0
  0
LINE
  5
22D
330
48C
100
AcDbEntity
  8
HATCH
  6
Continuous
 62
     7
370
    30
100
AcDbLine
 10
22.602521
 20
-7.279635
 30
0.0
 11
22.579083
 21
-7.303083
 31
0.0
  0
LINE
  5
22E
330
48C
100
AcDbEntity
  8
HATCH
  6
Continuous
 62
     7
370
    30
100
AcDbLine
 10
22.847167
 20
-7.176417
 30
0.0
 11
22.814656
 21
-7.208927
 31
0.0
  0
LINE
  5
22F
330
48C
100
AcDbEntity
  8
HATCH
  6
Continuous
 62
     7
370
    30
100
AcDbLine
 10
22.743948
 20
-7.279635
 30
0.0
 11
22.683292
 21
-7.340292
 31
0.0
  0
LINE
  5
230
330
48C
100
AcDbEntity
  8
HATCH
  6
Continuous
 62
     7
370
    30
100
AcDbLine
 10
22.885365
 20
-7.279635
 30
0.0
 11
22.814656
 21
-7.350354
 31
0.0
  0
LINE
  5
231
330
48C
100
AcDbEntity
  8
HATCH
  6
Continuous
 62
     7
370
    30
100
AcDbLine
 10
23.026792
 20
-7.279635
 30
0.0
 11
22.956073
 21
-7.350354
 31
0.0
  0
LINE
  5
232
330
48C
100
AcDbEntity
  8
HATCH
  6
Continuous
 62
     7
370
    30
100
AcDbLine
 10
23.165365
 20
-7.28249
 30
0.0
 11
23.0975
 21
-7.350354
 31
0.0
  0
LINE
  5
233
330
48C
100
AcDbEntity
  8
HATCH
  6
Continuous
 62
     7
370
    30
100
AcDbLine
 10
23.026792
 20
-7.421062
 30
0.0
 11
22.995917
 21
-7.451927
 31
0.0
  0
LINE
  5
234
330
48C
100
AcDbEntity
  8
HATCH
  6
Continuous
 62
     7
370
    30
100
AcDbLine
 10
23.168208
 20
-7.421062
 30
0.0
 11
23.100125
 21
-7.489146
 31
0.0
  0
LINE
  5
235
330
48C
100
AcDbEntity
  8
HATCH
  6
Continuous
 62
     7
370
    30
100
AcDbLine
 10
22.57601
 20
-7.111698
 30
0.0
 11
22.505292
 21
-7.182417
 31
0.0
  0
LINE
  5
236
330
48C
100
AcDbEntity
  8
HATCH
  6
Continuous
 62
     7
370
    30
100
AcDbLine
 10
22.434583
 20
-7.111698
 30
0.0
 11
22.363875
 21
-7.182417
 31
0.0
  0
LINE
  5
237
330
48C
100
AcDbEntity
  8
HATCH
  6
Continuous
 62
     7
370
    30
100
AcDbLine
 10
22.383125
 20
-7.02174
 30
0.0
 11
22.363875
 21
-7.04099
 31
0.0
  0
LINE
  5
238
330
48C
100
AcDbEntity
  8
HATCH
  6
Continuous
 62
     7
370
    30
100
AcDbLine
 10
22.293167
 20
-7.111698
 30
0.0
 11
22.222458
 21
-7.182417
 31
0.0
  0
LINE
  5
239
330
48C
100
AcDbEntity
  8
HATCH
  6
Continuous
 62
     7
370
    30
100
AcDbLine
 10
22.262062
 20
-7.001385
 30
0.0
 11
22.222458
 21
-7.04099
 31
0.0
  0
LINE
  5
23A
330
48C
100
AcDbEntity
  8
HATCH
  6
Continuous
 62
     7
370
    30
100
AcDbLine
 10
22.15174
 20
-7.111698
 30
0.0
 11
22.081031
 21
-7.182417
 31
0.0
  0
LINE
  5
23B
330
48C
100
AcDbEntity
  8
HATCH
  6
Continuous
 62
     7
370
    30
100
AcDbLine
 10
22.123531
 20
-6.9985
 30
0.0
 11
22.081031
 21
-7.04099
 31
0.0
  0
LINE
  5
23C
330
48C
100
AcDbEntity
  8
HATCH
  6
Continuous
 62
     7
370
    30
100
AcDbLine
 10
22.010323
 20
-7.111698
 30
0.0
 11
21.939615
 21
-7.182417
 31
0.0
  0
LINE
  5
23D
330
48C
100
AcDbEntity
  8
HATCH
  6
Continuous
 62
     7
370
    30
100
AcDbLine
 10
21.98499
 20
-6.995615
 30
0.0
 11
21.939615
 21
-7.04099
 31
0.0
  0
LINE
  5
23E
330
48C
100
AcDbEntity
  8
HATCH
  6
Continuous
 62
     7
370
    30
100
AcDbLine
 10
22.701323
 20
-7.127802
 30
0.0
 11
22.646719
 21
-7.182417
 31
0.0
  0
LINE
  5
23F
330
48C
100
AcDbEntity
  8
HATCH
  6
Continuous
 62
     7
370
    30
100
AcDbLine
 10
22.57601
 20
-7.253125
 30
0.0
 11
22.54
 21
-7.289125
 31
0.0
  0
LINE
  5
240
330
48C
100
AcDbEntity
  8
HATCH
  6
Continuous
 62
     7
370
    30
100
AcDbLine
 10
22.807396
 20
-7.163167
 30
0.0
 11
22.788135
 21
-7.182417
 31
0.0
  0
LINE
  5
241
330
48C
100
AcDbEntity
  8
HATCH
  6
Continuous
 62
     7
370
    30
100
AcDbLine
 10
22.717427
 20
-7.253125
 30
0.0
 11
22.646719
 21
-7.323833
 31
0.0
  0
LINE
  5
242
330
48C
100
AcDbEntity
  8
HATCH
  6
Continuous
 62
     7
370
    30
100
AcDbLine
 10
22.858854
 20
-7.253125
 30
0.0
 11
22.788135
 21
-7.323833
 31
0.0
  0
LINE
  5
243
330
48C
100
AcDbEntity
  8
HATCH
  6
Continuous
 62
     7
370
    30
100
AcDbLine
 10
23.000271
 20
-7.253125
 30
0.0
 11
22.929562
 21
-7.323833
 31
0.0
  0
LINE
  5
244
330
48C
100
AcDbEntity
  8
HATCH
  6
Continuous
 62
     7
370
    30
100
AcDbLine
 10
22.858854
 20
-7.394542
 30
0.0
 11
22.852635
 21
-7.40076
 31
0.0
  0
LINE
  5
245
330
48C
100
AcDbEntity
  8
HATCH
  6
Continuous
 62
     7
370
    30
100
AcDbLine
 10
23.125594
 20
-7.269229
 30
0.0
 11
23.070979
 21
-7.323833
 31
0.0
  0
LINE
  5
246
330
48C
100
AcDbEntity
  8
HATCH
  6
Continuous
 62
     7
370
    30
100
AcDbLine
 10
23.000271
 20
-7.394542
 30
0.0
 11
22.956844
 21
-7.437979
 31
0.0
  0
LINE
  5
247
330
48C
100
AcDbEntity
  8
HATCH
  6
Continuous
 62
     7
370
    30
100
AcDbLine
 10
23.223021
 20
-7.313219
 30
0.0
 11
23.212406
 21
-7.323833
 31
0.0
  0
LINE
  5
248
330
48C
100
AcDbEntity
  8
HATCH
  6
Continuous
 62
     7
370
    30
100
AcDbLine
 10
23.141698
 20
-7.394542
 30
0.0
 11
23.070979
 21
-7.46526
 31
0.0
  0
LINE
  5
249
330
48C
100
AcDbEntity
  8
HATCH
  6
Continuous
 62
     7
370
    30
100
AcDbLine
 10
22.661552
 20
-7.114552
 30
0.0
 11
22.620198
 21
-7.155896
 31
0.0
  0
LINE
  5
24A
330
48C
100
AcDbEntity
  8
HATCH
  6
Continuous
 62
     7
370
    30
100
AcDbLine
 10
22.54949
 20
-7.226604
 30
0.0
 11
22.500927
 21
-7.275167
 31
0.0
  0
LINE
  5
24B
330
48C
100
AcDbEntity
  8
HATCH
  6
Continuous
 62
     7
370
    30
100
AcDbLine
 10
22.54949
 20
-7.085187
 30
0.0
 11
22.478781
 21
-7.155896
 31
0.0
  0
LINE
  5
24C
330
48C
100
AcDbEntity
  8
HATCH
  6
Continuous
 62
     7
370
    30
100
AcDbLine
 10
22.408073
 20
-7.226604
 30
0.0
 11
22.396719
 21
-7.237958
 31
0.0
  0
LINE
  5
24D
330
48C
100
AcDbEntity
  8
HATCH
  6
Continuous
 62
     7
370
    30
100
AcDbLine
 10
22.408073
 20
-7.085187
 30
0.0
 11
22.337354
 21
-7.155896
 31
0.0
  0
LINE
  5
24E
330
48C
100
AcDbEntity
  8
HATCH
  6
Continuous
 62
     7
370
    30
100
AcDbLine
 10
22.266646
 20
-7.226604
 30
0.0
 11
22.262177
 21
-7.231073
 31
0.0
  0
LINE
  5
24F
330
48C
100
AcDbEntity
  8
HATCH
  6
Continuous
 62
     7
370
    30
100
AcDbLine
 10
22.343354
 20
-7.008479
 30
0.0
 11
22.337354
 21
-7.014479
 31
0.0
  0
LINE
  5
250
330
48C
100
AcDbEntity
  8
HATCH
  6
Continuous
 62
     7
370
    30
100
AcDbLine
 10
22.266646
 20
-7.085187
 30
0.0
 11
22.195937
 21
-7.155896
 31
0.0
  0
LINE
  5
251
330
48C
100
AcDbEntity
  8
HATCH
  6
Continuous
 62
     7
370
    30
100
AcDbLine
 10
22.125229
 20
-7.226604
 30
0.0
 11
22.123177
 21
-7.228656
 31
0.0
  0
LINE
  5
252
330
48C
100
AcDbEntity
  8
HATCH
  6
Continuous
 62
     7
370
    30
100
AcDbLine
 10
22.210115
 20
-7.000302
 30
0.0
 11
22.195937
 21
-7.014479
 31
0.0
  0
LINE
  5
253
330
48C
100
AcDbEntity
  8
HATCH
  6
Continuous
 62
     7
370
    30
100
AcDbLine
 10
22.125229
 20
-7.085187
 30
0.0
 11
22.054521
 21
-7.155896
 31
0.0
  0
LINE
  5
254
330
48C
100
AcDbEntity
  8
HATCH
  6
Continuous
 62
     7
370
    30
100
AcDbLine
 10
22.071573
 20
-6.997417
 30
0.0
 11
22.054521
 21
-7.014479
 31
0.0
  0
LINE
  5
255
330
48C
100
AcDbEntity
  8
HATCH
  6
Continuous
 62
     7
370
    30
100
AcDbLine
 10
21.983802
 20
-7.085187
 30
0.0
 11
21.913094
 21
-7.155896
 31
0.0
  0
LINE
  5
256
330
48C
100
AcDbEntity
  8
HATCH
  6
Continuous
 62
     7
370
    30
100
AcDbLine
 10
21.933042
 20
-6.994531
 30
0.0
 11
21.913094
 21
-7.014479
 31
0.0
  0
LINE
  5
257
330
48C
100
AcDbEntity
  8
HATCH
  6
Continuous
 62
     7
370
    30
100
AcDbLine
 10
22.767615
 20
-7.149906
 30
0.0
 11
22.761625
 21
-7.155896
 31
0.0
  0
LINE
  5
258
330
48C
100
AcDbEntity
  8
HATCH
  6
Continuous
 62
     7
370
    30
100
AcDbLine
 10
22.690917
 20
-7.226604
 30
0.0
 11
22.620198
 21
-7.297323
 31
0.0
  0
LINE
  5
259
330
48C
100
AcDbEntity
  8
HATCH
  6
Continuous
 62
     7
370
    30
100
AcDbLine
 10
22.832333
 20
-7.226604
 30
0.0
 11
22.761625
 21
-7.297323
 31
0.0
  0
LINE
  5
25A
330
48C
100
AcDbEntity
  8
HATCH
  6
Continuous
 62
     7
370
    30
100
AcDbLine
 10
22.97375
 20
-7.226604
 30
0.0
 11
22.903042
 21
-7.297323
 31
0.0
  0
LINE
  5
25B
330
48C
100
AcDbEntity
  8
HATCH
  6
Continuous
 62
     7
370
    30
100
AcDbLine
 10
22.832333
 20
-7.368031
 30
0.0
 11
22.813552
 21
-7.386812
 31
0.0
  0
LINE
  5
25C
330
48C
100
AcDbEntity
  8
HATCH
  6
Continuous
 62
     7
370
    30
100
AcDbLine
 10
23.085812
 20
-7.255969
 30
0.0
 11
23.044469
 21
-7.297323
 31
0.0
  0
LINE
  5
25D
330
48C
100
AcDbEntity
  8
HATCH
  6
Continuous
 62
     7
370
    30
100
AcDbLine
 10
22.97375
 20
-7.368031
 30
0.0
 11
22.91776
 21
-7.424021
 31
0.0
  0
LINE
  5
25E
330
48C
100
AcDbEntity
  8
HATCH
  6
Continuous
 62
     7
370
    30
100
AcDbLine
 10
23.191875
 20
-7.291323
 30
0.0
 11
23.185885
 21
-7.297323
 31
0.0
  0
LINE
  5
25F
330
48C
100
AcDbEntity
  8
HATCH
  6
Continuous
 62
     7
370
    30
100
AcDbLine
 10
23.115177
 20
-7.368031
 30
0.0
 11
23.044469
 21
-7.43874
 31
0.0
  0
LINE
  5
260
330
48C
100
AcDbEntity
  8
HATCH
  6
Continuous
 62
     7
370
    30
100
AcDbLine
 10
23.187188
 20
-7.437437
 30
0.0
 11
23.185885
 21
-7.43874
 31
0.0
  0
LINE
  5
261
330
48C
100
AcDbEntity
  8
HATCH
  6
Continuous
 62
     7
370
    30
100
AcDbLine
 10
22.62451
 20
-7.319302
 30
0.0
 11
22.602521
 21
-7.297323
 31
0.0
  0
LINE
  5
262
330
48C
100
AcDbEntity
  8
HATCH
  6
Continuous
 62
     7
370
    30
100
AcDbLine
 10
22.531813
 20
-7.226604
 30
0.0
 11
22.461104
 21
-7.155896
 31
0.0
  0
LINE
  5
263
330
48C
100
AcDbEntity
  8
HATCH
  6
Continuous
 62
     7
370
    30
100
AcDbLine
 10
22.390396
 20
-7.085187
 30
0.0
 11
22.319677
 21
-7.014479
 31
0.0
  0
LINE
  5
264
330
48C
100
AcDbEntity
  8
HATCH
  6
Continuous
 62
     7
370
    30
100
AcDbLine
 10
22.814656
 20
-7.368031
 30
0.0
 11
22.743948
 21
-7.297323
 31
0.0
  0
LINE
  5
265
330
48C
100
AcDbEntity
  8
HATCH
  6
Continuous
 62
     7
370
    30
100
AcDbLine
 10
22.67324
 20
-7.226604
 30
0.0
 11
22.602521
 21
-7.155896
 31
0.0
  0
LINE
  5
266
330
48C
100
AcDbEntity
  8
HATCH
  6
Continuous
 62
     7
370
    30
100
AcDbLine
 10
22.531813
 20
-7.085187
 30
0.0
 11
22.51099
 21
-7.064365
 31
0.0
  0
LINE
  5
267
330
48C
100
AcDbEntity
  8
HATCH
  6
Continuous
 62
     7
370
    30
100
AcDbLine
 10
23.064458
 20
-7.476406
 30
0.0
 11
23.026792
 21
-7.43874
 31
0.0
  0
LINE
  5
268
330
48C
100
AcDbEntity
  8
HATCH
  6
Continuous
 62
     7
370
    30
100
AcDbLine
 10
22.956073
 20
-7.368031
 30
0.0
 11
22.885365
 21
-7.297323
 31
0.0
  0
LINE
  5
269
330
48C
100
AcDbEntity
  8
HATCH
  6
Continuous
 62
     7
370
    30
100
AcDbLine
 10
22.814656
 20
-7.226604
 30
0.0
 11
22.743948
 21
-7.155896
 31
0.0
  0
LINE
  5
26A
330
48C
100
AcDbEntity
  8
HATCH
  6
Continuous
 62
     7
370
    30
100
AcDbLine
 10
23.182646
 20
-7.453177
 30
0.0
 11
23.168208
 21
-7.43874
 31
0.0
  0
LINE
  5
26B
330
48C
100
AcDbEntity
  8
HATCH
  6
Continuous
 62
     7
370
    30
100
AcDbLine
 10
23.0975
 20
-7.368031
 30
0.0
 11
23.026792
 21
-7.297323
 31
0.0
  0
LINE
  5
26C
330
48C
100
AcDbEntity
  8
HATCH
  6
Continuous
 62
     7
370
    30
100
AcDbLine
 10
22.956073
 20
-7.226604
 30
0.0
 11
22.93525
 21
-7.205781
 31
0.0
  0
LINE
  5
26D
330
48C
100
AcDbEntity
  8
HATCH
  6
Continuous
 62
     7
370
    30
100
AcDbLine
 10
23.214312
 20
-7.343417
 30
0.0
 11
23.168208
 21
-7.297323
 31
0.0
  0
LINE
  5
26E
330
48C
100
AcDbEntity
  8
HATCH
  6
Continuous
 62
     7
370
    30
100
AcDbLine
 10
22.390396
 20
-7.226604
 30
0.0
 11
22.319677
 21
-7.155896
 31
0.0
  0
LINE
  5
26F
330
48C
100
AcDbEntity
  8
HATCH
  6
Continuous
 62
     7
370
    30
100
AcDbLine
 10
22.248969
 20
-7.085187
 30
0.0
 11
22.17826
 21
-7.014479
 31
0.0
  0
LINE
  5
270
330
48C
100
AcDbEntity
  8
HATCH
  6
Continuous
 62
     7
370
    30
100
AcDbLine
 10
22.248969
 20
-7.226604
 30
0.0
 11
22.17826
 21
-7.155896
 31
0.0
  0
LINE
  5
271
330
48C
100
AcDbEntity
  8
HATCH
  6
Continuous
 62
     7
370
    30
100
AcDbLine
 10
22.107552
 20
-7.085187
 30
0.0
 11
22.036833
 21
-7.014479
 31
0.0
  0
LINE
  5
272
330
48C
100
AcDbEntity
  8
HATCH
  6
Continuous
 62
     7
370
    30
100
AcDbLine
 10
22.107552
 20
-7.226604
 30
0.0
 11
22.036833
 21
-7.155896
 31
0.0
  0
LINE
  5
273
330
48C
100
AcDbEntity
  8
HATCH
  6
Continuous
 62
     7
370
    30
100
AcDbLine
 10
21.966125
 20
-7.085187
 30
0.0
 11
21.895417
 21
-7.014479
 31
0.0
  0
LINE
  5
274
330
48C
100
AcDbEntity
  8
HATCH
  6
Continuous
 62
     7
370
    30
100
AcDbLine
 10
21.965438
 20
-7.225917
 30
0.0
 11
21.895417
 21
-7.155896
 31
0.0
  0
LINE
  5
275
330
48C
100
AcDbEntity
  8
HATCH
  6
Continuous
 62
     7
370
    30
100
AcDbLine
 10
22.76199
 20
-7.368396
 30
0.0
 11
22.717427
 21
-7.323833
 31
0.0
  0
LINE
  5
276
330
48C
100
AcDbEntity
  8
HATCH
  6
Continuous
 62
     7
370
    30
100
AcDbLine
 10
22.646719
 20
-7.253125
 30
0.0
 11
22.57601
 21
-7.182417
 31
0.0
  0
LINE
  5
277
330
48C
100
AcDbEntity
  8
HATCH
  6
Continuous
 62
     7
370
    30
100
AcDbLine
 10
22.505292
 20
-7.111698
 30
0.0
 11
22.434583
 21
-7.04099
 31
0.0
  0
LINE
  5
278
330
48C
100
AcDbEntity
  8
HATCH
  6
Continuous
 62
     7
370
    30
100
AcDbLine
 10
22.929562
 20
-7.394542
 30
0.0
 11
22.858854
 21
-7.323833
 31
0.0
  0
LINE
  5
279
330
48C
100
AcDbEntity
  8
HATCH
  6
Continuous
 62
     7
370
    30
100
AcDbLine
 10
22.788135
 20
-7.253125
 30
0.0
 11
22.717427
 21
-7.182417
 31
0.0
  0
LINE
  5
27A
330
48C
100
AcDbEntity
  8
HATCH
  6
Continuous
 62
     7
370
    30
100
AcDbLine
 10
22.646719
 20
-7.111698
 30
0.0
 11
22.643573
 21
-7.108552
 31
0.0
  0
LINE
  5
27B
330
48C
100
AcDbEntity
  8
HATCH
  6
Continuous
 62
     7
370
    30
100
AcDbLine
 10
23.170771
 20
-7.494333
 30
0.0
 11
23.141698
 21
-7.46526
 31
0.0
  0
LINE
  5
27C
330
48C
100
AcDbEntity
  8
HATCH
  6
Continuous
 62
     7
370
    30
100
AcDbLine
 10
23.070979
 20
-7.394542
 30
0.0
 11
23.000271
 21
-7.323833
 31
0.0
  0
LINE
  5
27D
330
48C
100
AcDbEntity
  8
HATCH
  6
Continuous
 62
     7
370
    30
100
AcDbLine
 10
22.929562
 20
-7.253125
 30
0.0
 11
22.858854
 21
-7.182417
 31
0.0
  0
LINE
  5
27E
330
48C
100
AcDbEntity
  8
HATCH
  6
Continuous
 62
     7
370
    30
100
AcDbLine
 10
23.202437
 20
-7.384583
 30
0.0
 11
23.141698
 21
-7.323833
 31
0.0
  0
LINE
  5
27F
330
48C
100
AcDbEntity
  8
HATCH
  6
Continuous
 62
     7
370
    30
100
AcDbLine
 10
23.070979
 20
-7.253125
 30
0.0
 11
23.067833
 21
-7.249979
 31
0.0
  0
LINE
  5
280
330
48C
100
AcDbEntity
  8
HATCH
  6
Continuous
 62
     7
370
    30
100
AcDbLine
 10
22.505292
 20
-7.253125
 30
0.0
 11
22.434583
 21
-7.182417
 31
0.0
  0
LINE
  5
281
330
48C
100
AcDbEntity
  8
HATCH
  6
Continuous
 62
     7
370
    30
100
AcDbLine
 10
22.363875
 20
-7.111698
 30
0.0
 11
22.293167
 21
-7.04099
 31
0.0
  0
LINE
  5
282
330
48C
100
AcDbEntity
  8
HATCH
  6
Continuous
 62
     7
370
    30
100
AcDbLine
 10
22.34324
 20
-7.232479
 30
0.0
 11
22.293167
 21
-7.182417
 31
0.0
  0
LINE
  5
283
330
48C
100
AcDbEntity
  8
HATCH
  6
Continuous
 62
     7
370
    30
100
AcDbLine
 10
22.222458
 20
-7.111698
 30
0.0
 11
22.15174
 21
-7.04099
 31
0.0
  0
LINE
  5
284
330
48C
100
AcDbEntity
  8
HATCH
  6
Continuous
 62
     7
370
    30
100
AcDbLine
 10
22.199312
 20
-7.229979
 30
0.0
 11
22.15174
 21
-7.182417
 31
0.0
  0
LINE
  5
285
330
48C
100
AcDbEntity
  8
HATCH
  6
Continuous
 62
     7
370
    30
100
AcDbLine
 10
22.081031
 20
-7.111698
 30
0.0
 11
22.010323
 21
-7.04099
 31
0.0
  0
LINE
  5
286
330
48C
100
AcDbEntity
  8
HATCH
  6
Continuous
 62
     7
370
    30
100
AcDbLine
 10
22.055385
 20
-7.227479
 30
0.0
 11
22.010323
 21
-7.182417
 31
0.0
  0
LINE
  5
287
330
48C
100
AcDbEntity
  8
HATCH
  6
Continuous
 62
     7
370
    30
100
AcDbLine
 10
21.939615
 20
-7.111698
 30
0.0
 11
21.868896
 21
-7.04099
 31
0.0
  0
LINE
  5
288
330
48C
100
AcDbEntity
  8
HATCH
  6
Continuous
 62
     7
370
    30
100
AcDbLine
 10
21.911458
 20
-7.224979
 30
0.0
 11
21.886333
 21
-7.199844
 31
0.0
  0
LINE
  5
289
330
48C
100
AcDbEntity
  8
HATCH
  6
Continuous
 62
     7
370
    30
100
AcDbLine
 10
22.620198
 20
-7.279635
 30
0.0
 11
22.54949
 21
-7.208927
 31
0.0
  0
LINE
  5
28A
330
48C
100
AcDbEntity
  8
HATCH
  6
Continuous
 62
     7
370
    30
100
AcDbLine
 10
22.478781
 20
-7.138219
 30
0.0
 11
22.408073
 21
-7.06751
 31
0.0
  0
LINE
  5
28B
330
48C
100
AcDbEntity
  8
HATCH
  6
Continuous
 62
     7
370
    30
100
AcDbLine
 10
22.899479
 20
-7.41749
 30
0.0
 11
22.832333
 21
-7.350354
 31
0.0
  0
LINE
  5
28C
330
48C
100
AcDbEntity
  8
HATCH
  6
Continuous
 62
     7
370
    30
100
AcDbLine
 10
22.761625
 20
-7.279635
 30
0.0
 11
22.690917
 21
-7.208927
 31
0.0
  0
LINE
  5
28D
330
48C
100
AcDbEntity
  8
HATCH
  6
Continuous
 62
     7
370
    30
100
AcDbLine
 10
22.620198
 20
-7.138219
 30
0.0
 11
22.564021
 21
-7.082042
 31
0.0
  0
LINE
  5
28E
330
48C
100
AcDbEntity
  8
HATCH
  6
Continuous
 62
     7
370
    30
100
AcDbLine
 10
23.119448
 20
-7.496042
 30
0.0
 11
23.115177
 21
-7.491771
 31
0.0
  0
LINE
  5
28F
330
48C
100
AcDbEntity
  8
HATCH
  6
Continuous
 62
     7
370
    30
100
AcDbLine
 10
23.044469
 20
-7.421062
 30
0.0
 11
22.97375
 21
-7.350354
 31
0.0
  0
LINE
  5
290
330
48C
100
AcDbEntity
  8
HATCH
  6
Continuous
 62
     7
370
    30
100
AcDbLine
 10
22.903042
 20
-7.279635
 30
0.0
 11
22.832333
 21
-7.208927
 31
0.0
  0
LINE
  5
291
330
48C
100
AcDbEntity
  8
HATCH
  6
Continuous
 62
     7
370
    30
100
AcDbLine
 10
23.185885
 20
-7.421062
 30
0.0
 11
23.115177
 21
-7.350354
 31
0.0
  0
LINE
  5
292
330
48C
100
AcDbEntity
  8
HATCH
  6
Continuous
 62
     7
370
    30
100
AcDbLine
 10
23.044469
 20
-7.279635
 30
0.0
 11
22.988281
 21
-7.223458
 31
0.0
  0
LINE
  5
293
330
48C
100
AcDbEntity
  8
HATCH
  6
Continuous
 62
     7
370
    30
100
AcDbLine
 10
22.459531
 20
-7.260385
 30
0.0
 11
22.408073
 21
-7.208927
 31
0.0
  0
LINE
  5
294
330
48C
100
AcDbEntity
  8
HATCH
  6
Continuous
 62
     7
370
    30
100
AcDbLine
 10
22.337354
 20
-7.138219
 30
0.0
 11
22.266646
 21
-7.06751
 31
0.0
  0
LINE
  5
295
330
48C
100
AcDbEntity
  8
HATCH
  6
Continuous
 62
     7
370
    30
100
AcDbLine
 10
22.28926
 20
-7.231542
 30
0.0
 11
22.266646
 21
-7.208927
 31
0.0
  0
LINE
  5
296
330
48C
100
AcDbEntity
  8
HATCH
  6
Continuous
 62
     7
370
    30
100
AcDbLine
 10
22.195937
 20
-7.138219
 30
0.0
 11
22.125229
 21
-7.06751
 31
0.0
  0
LINE
  5
297
330
48C
100
AcDbEntity
  8
HATCH
  6
Continuous
 62
     7
370
    30
100
AcDbLine
 10
22.145344
 20
-7.229042
 30
0.0
 11
22.125229
 21
-7.208927
 31
0.0
  0
LINE
  5
298
330
48C
100
AcDbEntity
  8
HATCH
  6
Continuous
 62
     7
370
    30
100
AcDbLine
 10
22.054521
 20
-7.138219
 30
0.0
 11
21.983802
 21
-7.06751
 31
0.0
  0
LINE
  5
299
330
48C
100
AcDbEntity
  8
HATCH
  6
Continuous
 62
     7
370
    30
100
AcDbLine
 10
21.913094
 20
-6.996802
 30
0.0
 11
21.910354
 21
-6.994052
 31
0.0
  0
LINE
  5
29A
330
48C
100
AcDbEntity
  8
HATCH
  6
Continuous
 62
     7
370
    30
100
AcDbLine
 10
22.001417
 20
-7.226542
 30
0.0
 11
21.983802
 21
-7.208927
 31
0.0
  0
LINE
  5
29B
330
48C
100
AcDbEntity
  8
HATCH
  6
Continuous
 62
     7
370
    30
100
AcDbLine
 10
21.913094
 20
-7.138219
 30
0.0
 11
21.875229
 21
-7.100354
 31
0.0
  0
LINE
  5
29C
330
48C
100
AcDbEntity
  8
HATCH
  6
Continuous
 62
     7
370
    30
100
AcDbLine
 10
15.212052
 20
-7.138219
 30
0.0
 11
15.28276
 21
-7.208927
 31
0.0
  0
LINE
  5
29D
330
48C
100
AcDbEntity
  8
HATCH
  6
Continuous
 62
     7
370
    30
100
AcDbLine
 10
15.353469
 20
-7.138219
 30
0.0
 11
15.424177
 21
-7.208927
 31
0.0
  0
LINE
  5
29E
330
48C
100
AcDbEntity
  8
HATCH
  6
Continuous
 62
     7
370
    30
100
AcDbLine
 10
15.391667
 20
-7.035
 30
0.0
 11
15.424177
 21
-7.06751
 31
0.0
  0
LINE
  5
29F
330
48C
100
AcDbEntity
  8
HATCH
  6
Continuous
 62
     7
370
    30
100
AcDbLine
 10
15.494896
 20
-7.138219
 30
0.0
 11
15.565604
 21
-7.208927
 31
0.0
  0
LINE
  5
2A0
330
48C
100
AcDbEntity
  8
HATCH
  6
Continuous
 62
     7
370
    30
100
AcDbLine
 10
15.500562
 20
-7.002469
 30
0.0
 11
15.565604
 21
-7.06751
 31
0.0
  0
LINE
  5
2A1
330
48C
100
AcDbEntity
  8
HATCH
  6
Continuous
 62
     7
370
    30
100
AcDbLine
 10
15.636312
 20
-7.138219
 30
0.0
 11
15.707021
 21
-7.208927
 31
0.0
  0
LINE
  5
2A2
330
48C
100
AcDbEntity
  8
HATCH
  6
Continuous
 62
     7
370
    30
100
AcDbLine
 10
15.639094
 20
-6.999583
 30
0.0
 11
15.707021
 21
-7.06751
 31
0.0
  0
LINE
  5
2A3
330
48C
100
AcDbEntity
  8
HATCH
  6
Continuous
 62
     7
370
    30
100
AcDbLine
 10
15.77774
 20
-7.138219
 30
0.0
 11
15.848448
 21
-7.208927
 31
0.0
  0
LINE
  5
2A4
330
48C
100
AcDbEntity
  8
HATCH
  6
Continuous
 62
     7
370
    30
100
AcDbLine
 10
15.77774
 20
-6.996802
 30
0.0
 11
15.848448
 21
-7.06751
 31
0.0
  0
LINE
  5
2A5
330
48C
100
AcDbEntity
  8
HATCH
  6
Continuous
 62
     7
370
    30
100
AcDbLine
 10
15.919156
 20
-7.138219
 30
0.0
 11
15.933521
 21
-7.152583
 31
0.0
  0
LINE
  5
2A6
330
48C
100
AcDbEntity
  8
HATCH
  6
Continuous
 62
     7
370
    30
100
AcDbLine
 10
15.919156
 20
-6.996802
 30
0.0
 11
15.947719
 21
-7.025365
 31
0.0
  0
LINE
  5
2A7
330
48C
100
AcDbEntity
  8
HATCH
  6
Continuous
 62
     7
370
    30
100
AcDbLine
 10
15.073469
 20
-7.141062
 30
0.0
 11
15.141333
 21
-7.208927
 31
0.0
  0
LINE
  5
2A8
330
48C
100
AcDbEntity
  8
HATCH
  6
Continuous
 62
     7
370
    30
100
AcDbLine
 10
15.212052
 20
-7.279635
 30
0.0
 11
15.23549
 21
-7.303083
 31
0.0
  0
LINE
  5
2A9
330
48C
100
AcDbEntity
  8
HATCH
  6
Continuous
 62
     7
370
    30
100
AcDbLine
 10
14.967406
 20
-7.176417
 30
0.0
 11
14.999917
 21
-7.208927
 31
0.0
  0
LINE
  5
2AA
330
48C
100
AcDbEntity
  8
HATCH
  6
Continuous
 62
     7
370
    30
100
AcDbLine
 10
15.070625
 20
-7.279635
 30
0.0
 11
15.131281
 21
-7.340292
 31
0.0
  0
LINE
  5
2AB
330
48C
100
AcDbEntity
  8
HATCH
  6
Continuous
 62
     7
370
    30
100
AcDbLine
 10
14.929208
 20
-7.279635
 30
0.0
 11
14.999917
 21
-7.350354
 31
0.0
  0
LINE
  5
2AC
330
48C
100
AcDbEntity
  8
HATCH
  6
Continuous
 62
     7
370
    30
100
AcDbLine
 10
14.787781
 20
-7.279635
 30
0.0
 11
14.8585
 21
-7.350354
 31
0.0
  0
LINE
  5
2AD
330
48C
100
AcDbEntity
  8
HATCH
  6
Continuous
 62
     7
370
    30
100
AcDbLine
 10
14.649208
 20
-7.28249
 30
0.0
 11
14.717073
 21
-7.350354
 31
0.0
  0
LINE
  5
2AE
330
48C
100
AcDbEntity
  8
HATCH
  6
Continuous
 62
     7
370
    30
100
AcDbLine
 10
14.787781
 20
-7.421062
 30
0.0
 11
14.818656
 21
-7.451927
 31
0.0
  0
LINE
  5
2AF
330
48C
100
AcDbEntity
  8
HATCH
  6
Continuous
 62
     7
370
    30
100
AcDbLine
 10
14.646365
 20
-7.421062
 30
0.0
 11
14.714448
 21
-7.489146
 31
0.0
  0
LINE
  5
2B0
330
48C
100
AcDbEntity
  8
HATCH
  6
Continuous
 62
     7
370
    30
100
AcDbLine
 10
15.238562
 20
-7.111698
 30
0.0
 11
15.309281
 21
-7.182417
 31
0.0
  0
LINE
  5
2B1
330
48C
100
AcDbEntity
  8
HATCH
  6
Continuous
 62
     7
370
    30
100
AcDbLine
 10
15.37999
 20
-7.111698
 30
0.0
 11
15.450698
 21
-7.182417
 31
0.0
  0
LINE
  5
2B2
330
48C
100
AcDbEntity
  8
HATCH
  6
Continuous
 62
     7
370
    30
100
AcDbLine
 10
15.431448
 20
-7.02174
 30
0.0
 11
15.450698
 21
-7.04099
 31
0.0
  0
LINE
  5
2B3
330
48C
100
AcDbEntity
  8
HATCH
  6
Continuous
 62
     7
370
    30
100
AcDbLine
 10
15.521406
 20
-7.111698
 30
0.0
 11
15.592115
 21
-7.182417
 31
0.0
  0
LINE
  5
2B4
330
48C
100
AcDbEntity
  8
HATCH
  6
Continuous
 62
     7
370
    30
100
AcDbLine
 10
15.55251
 20
-7.001385
 30
0.0
 11
15.592115
 21
-7.04099
 31
0.0
  0
LINE
  5
2B5
330
48C
100
AcDbEntity
  8
HATCH
  6
Continuous
 62
     7
370
    30
100
AcDbLine
 10
15.662833
 20
-7.111698
 30
0.0
 11
15.733542
 21
-7.182417
 31
0.0
  0
LINE
  5
2B6
330
48C
100
AcDbEntity
  8
HATCH
  6
Continuous
 62
     7
370
    30
100
AcDbLine
 10
15.691042
 20
-6.9985
 30
0.0
 11
15.733542
 21
-7.04099
 31
0.0
  0
LINE
  5
2B7
330
48C
100
AcDbEntity
  8
HATCH
  6
Continuous
 62
     7
370
    30
100
AcDbLine
 10
15.80425
 20
-7.111698
 30
0.0
 11
15.874958
 21
-7.182417
 31
0.0
  0
LINE
  5
2B8
330
48C
100
AcDbEntity
  8
HATCH
  6
Continuous
 62
     7
370
    30
100
AcDbLine
 10
15.829583
 20
-6.995615
 30
0.0
 11
15.874958
 21
-7.04099
 31
0.0
  0
LINE
  5
2B9
330
48C
100
AcDbEntity
  8
HATCH
  6
Continuous
 62
     7
370
    30
100
AcDbLine
 10
15.11325
 20
-7.127802
 30
0.0
 11
15.167854
 21
-7.182417
 31
0.0
  0
LINE
  5
2BA
330
48C
100
AcDbEntity
  8
HATCH
  6
Continuous
 62
     7
370
    30
100
AcDbLine
 10
15.238562
 20
-7.253125
 30
0.0
 11
15.274573
 21
-7.289125
 31
0.0
  0
LINE
  5
2BB
330
48C
100
AcDbEntity
  8
HATCH
  6
Continuous
 62
     7
370
    30
100
AcDbLine
 10
15.007177
 20
-7.163167
 30
0.0
 11
15.026438
 21
-7.182417
 31
0.0
  0
LINE
  5
2BC
330
48C
100
AcDbEntity
  8
HATCH
  6
Continuous
 62
     7
370
    30
100
AcDbLine
 10
15.097146
 20
-7.253125
 30
0.0
 11
15.167854
 21
-7.323833
 31
0.0
  0
LINE
  5
2BD
330
48C
100
AcDbEntity
  8
HATCH
  6
Continuous
 62
     7
370
    30
100
AcDbLine
 10
14.955719
 20
-7.253125
 30
0.0
 11
15.026438
 21
-7.323833
 31
0.0
  0
LINE
  5
2BE
330
48C
100
AcDbEntity
  8
HATCH
  6
Continuous
 62
     7
370
    30
100
AcDbLine
 10
14.814302
 20
-7.253125
 30
0.0
 11
14.88501
 21
-7.323833
 31
0.0
  0
LINE
  5
2BF
330
48C
100
AcDbEntity
  8
HATCH
  6
Continuous
 62
     7
370
    30
100
AcDbLine
 10
14.955719
 20
-7.394542
 30
0.0
 11
14.961937
 21
-7.40076
 31
0.0
  0
LINE
  5
2C0
330
48C
100
AcDbEntity
  8
HATCH
  6
Continuous
 62
     7
370
    30
100
AcDbLine
 10
14.688979
 20
-7.269229
 30
0.0
 11
14.743594
 21
-7.323833
 31
0.0
  0
LINE
  5
2C1
330
48C
100
AcDbEntity
  8
HATCH
  6
Continuous
 62
     7
370
    30
100
AcDbLine
 10
14.814302
 20
-7.394542
 30
0.0
 11
14.857729
 21
-7.437979
 31
0.0
  0
LINE
  5
2C2
330
48C
100
AcDbEntity
  8
HATCH
  6
Continuous
 62
     7
370
    30
100
AcDbLine
 10
14.591552
 20
-7.313219
 30
0.0
 11
14.602167
 21
-7.323833
 31
0.0
  0
LINE
  5
2C3
330
48C
100
AcDbEntity
  8
HATCH
  6
Continuous
 62
     7
370
    30
100
AcDbLine
 10
14.672875
 20
-7.394542
 30
0.0
 11
14.743594
 21
-7.46526
 31
0.0
  0
LINE
  5
2C4
330
48C
100
AcDbEntity
  8
HATCH
  6
Continuous
 62
     7
370
    30
100
AcDbLine
 10
15.153021
 20
-7.114552
 30
0.0
 11
15.194375
 21
-7.155896
 31
0.0
  0
LINE
  5
2C5
330
48C
100
AcDbEntity
  8
HATCH
  6
Continuous
 62
     7
370
    30
100
AcDbLine
 10
15.265083
 20
-7.226604
 30
0.0
 11
15.313646
 21
-7.275167
 31
0.0
  0
LINE
  5
2C6
330
48C
100
AcDbEntity
  8
HATCH
  6
Continuous
 62
     7
370
    30
100
AcDbLine
 10
15.265083
 20
-7.085187
 30
0.0
 11
15.335792
 21
-7.155896
 31
0.0
  0
LINE
  5
2C7
330
48C
100
AcDbEntity
  8
HATCH
  6
Continuous
 62
     7
370
    30
100
AcDbLine
 10
15.4065
 20
-7.226604
 30
0.0
 11
15.417854
 21
-7.237958
 31
0.0
  0
LINE
  5
2C8
330
48C
100
AcDbEntity
  8
HATCH
  6
Continuous
 62
     7
370
    30
100
AcDbLine
 10
15.4065
 20
-7.085187
 30
0.0
 11
15.477219
 21
-7.155896
 31
0.0
  0
LINE
  5
2C9
330
48C
100
AcDbEntity
  8
HATCH
  6
Continuous
 62
     7
370
    30
100
AcDbLine
 10
15.547927
 20
-7.226604
 30
0.0
 11
15.552396
 21
-7.231073
 31
0.0
  0
LINE
  5
2CA
330
48C
100
AcDbEntity
  8
HATCH
  6
Continuous
 62
     7
370
    30
100
AcDbLine
 10
15.471219
 20
-7.008479
 30
0.0
 11
15.477219
 21
-7.014479
 31
0.0
  0
LINE
  5
2CB
330
48C
100
AcDbEntity
  8
HATCH
  6
Continuous
 62
     7
370
    30
100
AcDbLine
 10
15.547927
 20
-7.085187
 30
0.0
 11
15.618635
 21
-7.155896
 31
0.0
  0
LINE
  5
2CC
330
48C
100
AcDbEntity
  8
HATCH
  6
Continuous
 62
     7
370
    30
100
AcDbLine
 10
15.689344
 20
-7.226604
 30
0.0
 11
15.691396
 21
-7.228656
 31
0.0
  0
LINE
  5
2CD
330
48C
100
AcDbEntity
  8
HATCH
  6
Continuous
 62
     7
370
    30
100
AcDbLine
 10
15.604458
 20
-7.000302
 30
0.0
 11
15.618635
 21
-7.014479
 31
0.0
  0
LINE
  5
2CE
330
48C
100
AcDbEntity
  8
HATCH
  6
Continuous
 62
     7
370
    30
100
AcDbLine
 10
15.689344
 20
-7.085187
 30
0.0
 11
15.760052
 21
-7.155896
 31
0.0
  0
LINE
  5
2CF
330
48C
100
AcDbEntity
  8
HATCH
  6
Continuous
 62
     7
370
    30
100
AcDbLine
 10
15.743
 20
-6.997417
 30
0.0
 11
15.760052
 21
-7.014479
 31
0.0
  0
LINE
  5
2D0
330
48C
100
AcDbEntity
  8
HATCH
  6
Continuous
 62
     7
370
    30
100
AcDbLine
 10
15.830771
 20
-7.085187
 30
0.0
 11
15.901479
 21
-7.155896
 31
0.0
  0
LINE
  5
2D1
330
48C
100
AcDbEntity
  8
HATCH
  6
Continuous
 62
     7
370
    30
100
AcDbLine
 10
15.881531
 20
-6.994531
 30
0.0
 11
15.901479
 21
-7.014479
 31
0.0
  0
LINE
  5
2D2
330
48C
100
AcDbEntity
  8
HATCH
  6
Continuous
 62
     7
370
    30
100
AcDbLine
 10
15.046958
 20
-7.149906
 30
0.0
 11
15.052948
 21
-7.155896
 31
0.0
  0
LINE
  5
2D3
330
48C
100
AcDbEntity
  8
HATCH
  6
Continuous
 62
     7
370
    30
100
AcDbLine
 10
15.123656
 20
-7.226604
 30
0.0
 11
15.194375
 21
-7.297323
 31
0.0
  0
LINE
  5
2D4
330
48C
100
AcDbEntity
  8
HATCH
  6
Continuous
 62
     7
370
    30
100
AcDbLine
 10
14.98224
 20
-7.226604
 30
0.0
 11
15.052948
 21
-7.297323
 31
0.0
  0
LINE
  5
2D5
330
48C
100
AcDbEntity
  8
HATCH
  6
Continuous
 62
     7
370
    30
100
AcDbLine
 10
14.840823
 20
-7.226604
 30
0.0
 11
14.911531
 21
-7.297323
 31
0.0
  0
LINE
  5
2D6
330
48C
100
AcDbEntity
  8
HATCH
  6
Continuous
 62
     7
370
    30
100
AcDbLine
 10
14.98224
 20
-7.368031
 30
0.0
 11
15.001021
 21
-7.386812
 31
0.0
  0
LINE
  5
2D7
330
48C
100
AcDbEntity
  8
HATCH
  6
Continuous
 62
     7
370
    30
100
AcDbLine
 10
14.72876
 20
-7.255969
 30
0.0
 11
14.770104
 21
-7.297323
 31
0.0
  0
LINE
  5
2D8
330
48C
100
AcDbEntity
  8
HATCH
  6
Continuous
 62
     7
370
    30
100
AcDbLine
 10
14.840823
 20
-7.368031
 30
0.0
 11
14.896812
 21
-7.424021
 31
0.0
  0
LINE
  5
2D9
330
48C
100
AcDbEntity
  8
HATCH
  6
Continuous
 62
     7
370
    30
100
AcDbLine
 10
14.622698
 20
-7.291323
 30
0.0
 11
14.628687
 21
-7.297323
 31
0.0
  0
LINE
  5
2DA
330
48C
100
AcDbEntity
  8
HATCH
  6
Continuous
 62
     7
370
    30
100
AcDbLine
 10
14.699396
 20
-7.368031
 30
0.0
 11
14.770104
 21
-7.43874
 31
0.0
  0
LINE
  5
2DB
330
48C
100
AcDbEntity
  8
HATCH
  6
Continuous
 62
     7
370
    30
100
AcDbLine
 10
14.627385
 20
-7.437437
 30
0.0
 11
14.628687
 21
-7.43874
 31
0.0
  0
LINE
  5
2DC
330
48C
100
AcDbEntity
  8
HATCH
  6
Continuous
 62
     7
370
    30
100
AcDbLine
 10
15.190062
 20
-7.319302
 30
0.0
 11
15.212052
 21
-7.297323
 31
0.0
  0
LINE
  5
2DD
330
48C
100
AcDbEntity
  8
HATCH
  6
Continuous
 62
     7
370
    30
100
AcDbLine
 10
15.28276
 20
-7.226604
 30
0.0
 11
15.353469
 21
-7.155896
 31
0.0
  0
LINE
  5
2DE
330
48C
100
AcDbEntity
  8
HATCH
  6
Continuous
 62
     7
370
    30
100
AcDbLine
 10
15.424177
 20
-7.085187
 30
0.0
 11
15.494896
 21
-7.014479
 31
0.0
  0
LINE
  5
2DF
330
48C
100
AcDbEntity
  8
HATCH
  6
Continuous
 62
     7
370
    30
100
AcDbLine
 10
14.999917
 20
-7.368031
 30
0.0
 11
15.070625
 21
-7.297323
 31
0.0
  0
LINE
  5
2E0
330
48C
100
AcDbEntity
  8
HATCH
  6
Continuous
 62
     7
370
    30
100
AcDbLine
 10
15.141333
 20
-7.226604
 30
0.0
 11
15.212052
 21
-7.155896
 31
0.0
  0
LINE
  5
2E1
330
48C
100
AcDbEntity
  8
HATCH
  6
Continuous
 62
     7
370
    30
100
AcDbLine
 10
15.28276
 20
-7.085187
 30
0.0
 11
15.303583
 21
-7.064365
 31
0.0
  0
LINE
  5
2E2
330
48C
100
AcDbEntity
  8
HATCH
  6
Continuous
 62
     7
370
    30
100
AcDbLine
 10
14.750115
 20
-7.476406
 30
0.0
 11
14.787781
 21
-7.43874
 31
0.0
  0
LINE
  5
2E3
330
48C
100
AcDbEntity
  8
HATCH
  6
Continuous
 62
     7
370
    30
100
AcDbLine
 10
14.8585
 20
-7.368031
 30
0.0
 11
14.929208
 21
-7.297323
 31
0.0
  0
LINE
  5
2E4
330
48C
100
AcDbEntity
  8
HATCH
  6
Continuous
 62
     7
370
    30
100
AcDbLine
 10
14.999917
 20
-7.226604
 30
0.0
 11
15.070625
 21
-7.155896
 31
0.0
  0
LINE
  5
2E5
330
48C
100
AcDbEntity
  8
HATCH
  6
Continuous
 62
     7
370
    30
100
AcDbLine
 10
14.631927
 20
-7.453177
 30
0.0
 11
14.646365
 21
-7.43874
 31
0.0
  0
LINE
  5
2E6
330
48C
100
AcDbEntity
  8
HATCH
  6
Continuous
 62
     7
370
    30
100
AcDbLine
 10
14.717073
 20
-7.368031
 30
0.0
 11
14.787781
 21
-7.297323
 31
0.0
  0
LINE
  5
2E7
330
48C
100
AcDbEntity
  8
HATCH
  6
Continuous
 62
     7
370
    30
100
AcDbLine
 10
14.8585
 20
-7.226604
 30
0.0
 11
14.879323
 21
-7.205781
 31
0.0
  0
LINE
  5
2E8
330
48C
100
AcDbEntity
  8
HATCH
  6
Continuous
 62
     7
370
    30
100
AcDbLine
 10
14.60026
 20
-7.343417
 30
0.0
 11
14.646365
 21
-7.297323
 31
0.0
  0
LINE
  5
2E9
330
48C
100
AcDbEntity
  8
HATCH
  6
Continuous
 62
     7
370
    30
100
AcDbLine
 10
15.424177
 20
-7.226604
 30
0.0
 11
15.494896
 21
-7.155896
 31
0.0
  0
LINE
  5
2EA
330
48C
100
AcDbEntity
  8
HATCH
  6
Continuous
 62
     7
370
    30
100
AcDbLine
 10
15.565604
 20
-7.085187
 30
0.0
 11
15.636312
 21
-7.014479
 31
0.0
  0
LINE
  5
2EB
330
48C
100
AcDbEntity
  8
HATCH
  6
Continuous
 62
     7
370
    30
100
AcDbLine
 10
15.565604
 20
-7.226604
 30
0.0
 11
15.636312
 21
-7.155896
 31
0.0
  0
LINE
  5
2EC
330
48C
100
AcDbEntity
  8
HATCH
  6
Continuous
 62
     7
370
    30
100
AcDbLine
 10
15.707021
 20
-7.085187
 30
0.0
 11
15.77774
 21
-7.014479
 31
0.0
  0
LINE
  5
2ED
330
48C
100
AcDbEntity
  8
HATCH
  6
Continuous
 62
     7
370
    30
100
AcDbLine
 10
15.707021
 20
-7.226604
 30
0.0
 11
15.77774
 21
-7.155896
 31
0.0
  0
LINE
  5
2EE
330
48C
100
AcDbEntity
  8
HATCH
  6
Continuous
 62
     7
370
    30
100
AcDbLine
 10
15.848448
 20
-7.085187
 30
0.0
 11
15.919156
 21
-7.014479
 31
0.0
  0
LINE
  5
2EF
330
48C
100
AcDbEntity
  8
HATCH
  6
Continuous
 62
     7
370
    30
100
AcDbLine
 10
15.849135
 20
-7.225917
 30
0.0
 11
15.919156
 21
-7.155896
 31
0.0
  0
LINE
  5
2F0
330
48C
100
AcDbEntity
  8
HATCH
  6
Continuous
 62
     7
370
    30
100
AcDbLine
 10
15.052583
 20
-7.368396
 30
0.0
 11
15.097146
 21
-7.323833
 31
0.0
  0
LINE
  5
2F1
330
48C
100
AcDbEntity
  8
HATCH
  6
Continuous
 62
     7
370
    30
100
AcDbLine
 10
15.167854
 20
-7.253125
 30
0.0
 11
15.238562
 21
-7.182417
 31
0.0
  0
LINE
  5
2F2
330
48C
100
AcDbEntity
  8
HATCH
  6
Continuous
 62
     7
370
    30
100
AcDbLine
 10
15.309281
 20
-7.111698
 30
0.0
 11
15.37999
 21
-7.04099
 31
0.0
  0
LINE
  5
2F3
330
48C
100
AcDbEntity
  8
HATCH
  6
Continuous
 62
     7
370
    30
100
AcDbLine
 10
14.88501
 20
-7.394542
 30
0.0
 11
14.955719
 21
-7.323833
 31
0.0
  0
LINE
  5
2F4
330
48C
100
AcDbEntity
  8
HATCH
  6
Continuous
 62
     7
370
    30
100
AcDbLine
 10
15.026438
 20
-7.253125
 30
0.0
 11
15.097146
 21
-7.182417
 31
0.0
  0
LINE
  5
2F5
330
48C
100
AcDbEntity
  8
HATCH
  6
Continuous
 62
     7
370
    30
100
AcDbLine
 10
15.167854
 20
-7.111698
 30
0.0
 11
15.171
 21
-7.108552
 31
0.0
  0
LINE
  5
2F6
330
48C
100
AcDbEntity
  8
HATCH
  6
Continuous
 62
     7
370
    30
100
AcDbLine
 10
14.643802
 20
-7.494333
 30
0.0
 11
14.672875
 21
-7.46526
 31
0.0
  0
LINE
  5
2F7
330
48C
100
AcDbEntity
  8
HATCH
  6
Continuous
 62
     7
370
    30
100
AcDbLine
 10
14.743594
 20
-7.394542
 30
0.0
 11
14.814302
 21
-7.323833
 31
0.0
  0
LINE
  5
2F8
330
48C
100
AcDbEntity
  8
HATCH
  6
Continuous
 62
     7
370
    30
100
AcDbLine
 10
14.88501
 20
-7.253125
 30
0.0
 11
14.955719
 21
-7.182417
 31
0.0
  0
LINE
  5
2F9
330
48C
100
AcDbEntity
  8
HATCH
  6
Continuous
 62
     7
370
    30
100
AcDbLine
 10
14.612135
 20
-7.384583
 30
0.0
 11
14.672875
 21
-7.323833
 31
0.0
  0
LINE
  5
2FA
330
48C
100
AcDbEntity
  8
HATCH
  6
Continuous
 62
     7
370
    30
100
AcDbLine
 10
14.743594
 20
-7.253125
 30
0.0
 11
14.74674
 21
-7.249979
 31
0.0
  0
LINE
  5
2FB
330
48C
100
AcDbEntity
  8
HATCH
  6
Continuous
 62
     7
370
    30
100
AcDbLine
 10
15.309281
 20
-7.253125
 30
0.0
 11
15.37999
 21
-7.182417
 31
0.0
  0
LINE
  5
2FC
330
48C
100
AcDbEntity
  8
HATCH
  6
Continuous
 62
     7
370
    30
100
AcDbLine
 10
15.450698
 20
-7.111698
 30
0.0
 11
15.521406
 21
-7.04099
 31
0.0
  0
LINE
  5
2FD
330
48C
100
AcDbEntity
  8
HATCH
  6
Continuous
 62
     7
370
    30
100
AcDbLine
 10
15.471333
 20
-7.232479
 30
0.0
 11
15.521406
 21
-7.182417
 31
0.0
  0
LINE
  5
2FE
330
48C
100
AcDbEntity
  8
HATCH
  6
Continuous
 62
     7
370
    30
100
AcDbLine
 10
15.592115
 20
-7.111698
 30
0.0
 11
15.662833
 21
-7.04099
 31
0.0
  0
LINE
  5
2FF
330
48C
100
AcDbEntity
  8
HATCH
  6
Continuous
 62
     7
370
    30
100
AcDbLine
 10
15.61526
 20
-7.229979
 30
0.0
 11
15.662833
 21
-7.182417
 31
0.0
  0
LINE
  5
300
330
48C
100
AcDbEntity
  8
HATCH
  6
Continuous
 62
     7
370
    30
100
AcDbLine
 10
15.733542
 20
-7.111698
 30
0.0
 11
15.80425
 21
-7.04099
 31
0.0
  0
LINE
  5
301
330
48C
100
AcDbEntity
  8
HATCH
  6
Continuous
 62
     7
370
    30
100
AcDbLine
 10
15.759187
 20
-7.227479
 30
0.0
 11
15.80425
 21
-7.182417
 31
0.0
  0
LINE
  5
302
330
48C
100
AcDbEntity
  8
HATCH
  6
Continuous
 62
     7
370
    30
100
AcDbLine
 10
15.874958
 20
-7.111698
 30
0.0
 11
15.945677
 21
-7.04099
 31
0.0
  0
LINE
  5
303
330
48C
100
AcDbEntity
  8
HATCH
  6
Continuous
 62
     7
370
    30
100
AcDbLine
 10
15.903115
 20
-7.224979
 30
0.0
 11
15.92824
 21
-7.199844
 31
0.0
  0
LINE
  5
304
330
48C
100
AcDbEntity
  8
HATCH
  6
Continuous
 62
     7
370
    30
100
AcDbLine
 10
15.194375
 20
-7.279635
 30
0.0
 11
15.265083
 21
-7.208927
 31
0.0
  0
LINE
  5
305
330
48C
100
AcDbEntity
  8
HATCH
  6
Continuous
 62
     7
370
    30
100
AcDbLine
 10
15.335792
 20
-7.138219
 30
0.0
 11
15.4065
 21
-7.06751
 31
0.0
  0
LINE
  5
306
330
48C
100
AcDbEntity
  8
HATCH
  6
Continuous
 62
     7
370
    30
100
AcDbLine
 10
14.915094
 20
-7.41749
 30
0.0
 11
14.98224
 21
-7.350354
 31
0.0
  0
LINE
  5
307
330
48C
100
AcDbEntity
  8
HATCH
  6
Continuous
 62
     7
370
    30
100
AcDbLine
 10
15.052948
 20
-7.279635
 30
0.0
 11
15.123656
 21
-7.208927
 31
0.0
  0
LINE
  5
308
330
48C
100
AcDbEntity
  8
HATCH
  6
Continuous
 62
     7
370
    30
100
AcDbLine
 10
15.194375
 20
-7.138219
 30
0.0
 11
15.250552
 21
-7.082042
 31
0.0
  0
LINE
  5
309
330
48C
100
AcDbEntity
  8
HATCH
  6
Continuous
 62
     7
370
    30
100
AcDbLine
 10
14.695125
 20
-7.496042
 30
0.0
 11
14.699396
 21
-7.491771
 31
0.0
  0
LINE
  5
30A
330
48C
100
AcDbEntity
  8
HATCH
  6
Continuous
 62
     7
370
    30
100
AcDbLine
 10
14.770104
 20
-7.421062
 30
0.0
 11
14.840823
 21
-7.350354
 31
0.0
  0
LINE
  5
30B
330
48C
100
AcDbEntity
  8
HATCH
  6
Continuous
 62
     7
370
    30
100
AcDbLine
 10
14.911531
 20
-7.279635
 30
0.0
 11
14.98224
 21
-7.208927
 31
0.0
  0
LINE
  5
30C
330
48C
100
AcDbEntity
  8
HATCH
  6
Continuous
 62
     7
370
    30
100
AcDbLine
 10
14.628687
 20
-7.421062
 30
0.0
 11
14.699396
 21
-7.350354
 31
0.0
  0
LINE
  5
30D
330
48C
100
AcDbEntity
  8
HATCH
  6
Continuous
 62
     7
370
    30
100
AcDbLine
 10
14.770104
 20
-7.279635
 30
0.0
 11
14.826292
 21
-7.223458
 31
0.0
  0
LINE
  5
30E
330
48C
100
AcDbEntity
  8
HATCH
  6
Continuous
 62
     7
370
    30
100
AcDbLine
 10
15.355042
 20
-7.260385
 30
0.0
 11
15.4065
 21
-7.208927
 31
0.0
  0
LINE
  5
30F
330
48C
100
AcDbEntity
  8
HATCH
  6
Continuous
 62
     7
370
    30
100
AcDbLine
 10
15.477219
 20
-7.138219
 30
0.0
 11
15.547927
 21
-7.06751
 31
0.0
  0
LINE
  5
310
330
48C
100
AcDbEntity
  8
HATCH
  6
Continuous
 62
     7
370
    30
100
AcDbLine
 10
15.525313
 20
-7.231542
 30
0.0
 11
15.547927
 21
-7.208927
 31
0.0
  0
LINE
  5
311
330
48C
100
AcDbEntity
  8
HATCH
  6
Continuous
 62
     7
370
    30
100
AcDbLine
 10
15.618635
 20
-7.138219
 30
0.0
 11
15.689344
 21
-7.06751
 31
0.0
  0
LINE
  5
312
330
48C
100
AcDbEntity
  8
HATCH
  6
Continuous
 62
     7
370
    30
100
AcDbLine
 10
15.669229
 20
-7.229042
 30
0.0
 11
15.689344
 21
-7.208927
 31
0.0
  0
LINE
  5
313
330
48C
100
AcDbEntity
  8
HATCH
  6
Continuous
 62
     7
370
    30
100
AcDbLine
 10
15.760052
 20
-7.138219
 30
0.0
 11
15.830771
 21
-7.06751
 31
0.0
  0
LINE
  5
314
330
48C
100
AcDbEntity
  8
HATCH
  6
Continuous
 62
     7
370
    30
100
AcDbLine
 10
15.901479
 20
-6.996802
 30
0.0
 11
15.904219
 21
-6.994052
 31
0.0
  0
LINE
  5
315
330
48C
100
AcDbEntity
  8
HATCH
  6
Continuous
 62
     7
370
    30
100
AcDbLine
 10
15.813156
 20
-7.226542
 30
0.0
 11
15.830771
 21
-7.208927
 31
0.0
  0
LINE
  5
316
330
48C
100
AcDbEntity
  8
HATCH
  6
Continuous
 62
     7
370
    30
100
AcDbLine
 10
15.901479
 20
-7.138219
 30
0.0
 11
15.939344
 21
-7.100354
 31
0.0
  0
LINE
  5
317
330
48C
100
AcDbEntity
  8
HATCH
  6
Continuous
 62
     7
370
    30
100
AcDbLine
 10
16.799219
 20
-6.616042
 30
0.0
 11
16.847927
 21
-6.644167
 31
0.0
  0
LINE
  5
318
330
48C
100
AcDbEntity
  8
HATCH
  6
Continuous
 62
     7
370
    30
100
AcDbLine
 10
16.896646
 20
-6.672292
 30
0.0
 11
16.945354
 21
-6.700417
 31
0.0
  0
LINE
  5
319
330
48C
100
AcDbEntity
  8
HATCH
  6
Continuous
 62
     7
370
    30
100
AcDbLine
 10
16.994073
 20
-6.728542
 30
0.0
 11
17.042792
 21
-6.756667
 31
0.0
  0
LINE
  5
31A
330
48C
100
AcDbEntity
  8
HATCH
  6
Continuous
 62
     7
370
    30
100
AcDbLine
 10
16.896646
 20
-6.559792
 30
0.0
 11
16.945354
 21
-6.587917
 31
0.0
  0
LINE
  5
31B
330
48C
100
AcDbEntity
  8
HATCH
  6
Continuous
 62
     7
370
    30
100
AcDbLine
 10
16.994073
 20
-6.616042
 30
0.0
 11
17.042792
 21
-6.644167
 31
0.0
  0
LINE
  5
31C
330
48C
100
AcDbEntity
  8
HATCH
  6
Continuous
 62
     7
370
    30
100
AcDbLine
 10
17.0915
 20
-6.672292
 30
0.0
 11
17.140219
 21
-6.700417
 31
0.0
  0
LINE
  5
31D
330
48C
100
AcDbEntity
  8
HATCH
  6
Continuous
 62
     7
370
    30
100
AcDbLine
 10
17.188927
 20
-6.728542
 30
0.0
 11
17.237646
 21
-6.756667
 31
0.0
  0
LINE
  5
31E
330
48C
100
AcDbEntity
  8
HATCH
  6
Continuous
 62
     7
370
    30
100
AcDbLine
 10
16.994073
 20
-6.503542
 30
0.0
 11
17.042792
 21
-6.531667
 31
0.0
  0
LINE
  5
31F
330
48C
100
AcDbEntity
  8
HATCH
  6
Continuous
 62
     7
370
    30
100
AcDbLine
 10
17.0915
 20
-6.559792
 30
0.0
 11
17.140219
 21
-6.587917
 31
0.0
  0
LINE
  5
320
330
48C
100
AcDbEntity
  8
HATCH
  6
Continuous
 62
     7
370
    30
100
AcDbLine
 10
17.188927
 20
-6.616042
 30
0.0
 11
17.237646
 21
-6.644167
 31
0.0
  0
LINE
  5
321
330
48C
100
AcDbEntity
  8
HATCH
  6
Continuous
 62
     7
370
    30
100
AcDbLine
 10
17.286354
 20
-6.672292
 30
0.0
 11
17.335073
 21
-6.700417
 31
0.0
  0
LINE
  5
322
330
48C
100
AcDbEntity
  8
HATCH
  6
Continuous
 62
     7
370
    30
100
AcDbLine
 10
17.0915
 20
-6.447292
 30
0.0
 11
17.140219
 21
-6.475417
 31
0.0
  0
LINE
  5
323
330
48C
100
AcDbEntity
  8
HATCH
  6
Continuous
 62
     7
370
    30
100
AcDbLine
 10
17.188927
 20
-6.503542
 30
0.0
 11
17.237646
 21
-6.531667
 31
0.0
  0
LINE
  5
324
330
48C
100
AcDbEntity
  8
HATCH
  6
Continuous
 62
     7
370
    30
100
AcDbLine
 10
17.286354
 20
-6.559792
 30
0.0
 11
17.335073
 21
-6.587917
 31
0.0
  0
LINE
  5
325
330
48C
100
AcDbEntity
  8
HATCH
  6
Continuous
 62
     7
370
    30
100
AcDbLine
 10
17.383781
 20
-6.616042
 30
0.0
 11
17.388479
 21
-6.61875
 31
0.0
  0
LINE
  5
326
330
48C
100
AcDbEntity
  8
HATCH
  6
Continuous
 62
     7
370
    30
100
AcDbLine
 10
17.188927
 20
-6.391042
 30
0.0
 11
17.237646
 21
-6.419167
 31
0.0
  0
LINE
  5
327
330
48C
100
AcDbEntity
  8
HATCH
  6
Continuous
 62
     7
370
    30
100
AcDbLine
 10
17.286354
 20
-6.447292
 30
0.0
 11
17.335073
 21
-6.475417
 31
0.0
  0
LINE
  5
328
330
48C
100
AcDbEntity
  8
HATCH
  6
Continuous
 62
     7
370
    30
100
AcDbLine
 10
17.383781
 20
-6.503542
 30
0.0
 11
17.423052
 21
-6.526208
 31
0.0
  0
LINE
  5
329
330
48C
100
AcDbEntity
  8
HATCH
  6
Continuous
 62
     7
370
    30
100
AcDbLine
 10
17.286354
 20
-6.334792
 30
0.0
 11
17.335073
 21
-6.362917
 31
0.0
  0
LINE
  5
32A
330
48C
100
AcDbEntity
  8
HATCH
  6
Continuous
 62
     7
370
    30
100
AcDbLine
 10
17.383781
 20
-6.391042
 30
0.0
 11
17.4325
 21
-6.419167
 31
0.0
  0
LINE
  5
32B
330
48C
100
AcDbEntity
  8
HATCH
  6
Continuous
 62
     7
370
    30
100
AcDbLine
 10
17.383781
 20
-6.278542
 30
0.0
 11
17.424385
 21
-6.30199
 31
0.0
  0
LINE
  5
32C
330
48C
100
AcDbEntity
  8
HATCH
  6
Continuous
 62
     7
370
    30
100
AcDbLine
 10
16.64674
 20
-6.64051
 30
0.0
 11
16.653073
 21
-6.644167
 31
0.0
  0
LINE
  5
32D
330
48C
100
AcDbEntity
  8
HATCH
  6
Continuous
 62
     7
370
    30
100
AcDbLine
 10
16.701792
 20
-6.672292
 30
0.0
 11
16.7505
 21
-6.700417
 31
0.0
  0
LINE
  5
32E
330
48C
100
AcDbEntity
  8
HATCH
  6
Continuous
 62
     7
370
    30
100
AcDbLine
 10
16.799219
 20
-6.728542
 30
0.0
 11
16.847927
 21
-6.756667
 31
0.0
  0
LINE
  5
32F
330
48C
100
AcDbEntity
  8
HATCH
  6
Continuous
 62
     7
370
    30
100
AcDbLine
 10
16.542323
 20
-6.692719
 30
0.0
 11
16.555646
 21
-6.700417
 31
0.0
  0
LINE
  5
330
330
48C
100
AcDbEntity
  8
HATCH
  6
Continuous
 62
     7
370
    30
100
AcDbLine
 10
16.604365
 20
-6.728542
 30
0.0
 11
16.653073
 21
-6.756667
 31
0.0
  0
LINE
  5
331
330
48C
100
AcDbEntity
  8
HATCH
  6
Continuous
 62
     7
370
    30
100
AcDbLine
 10
16.437896
 20
-6.744937
 30
0.0
 11
16.458219
 21
-6.756667
 31
0.0
  0
LINE
  5
332
330
48C
100
AcDbEntity
  8
HATCH
  6
Continuous
 62
     7
370
    30
100
AcDbLine
 10
16.506937
 20
-6.784792
 30
0.0
 11
16.555646
 21
-6.812917
 31
0.0
  0
LINE
  5
333
330
48C
100
AcDbEntity
  8
HATCH
  6
Continuous
 62
     7
370
    30
100
AcDbLine
 10
16.333469
 20
-6.797146
 30
0.0
 11
16.360792
 21
-6.812917
 31
0.0
  0
LINE
  5
334
330
48C
100
AcDbEntity
  8
HATCH
  6
Continuous
 62
     7
370
    30
100
AcDbLine
 10
16.40951
 20
-6.841042
 30
0.0
 11
16.458219
 21
-6.869167
 31
0.0
  0
LINE
  5
335
330
48C
100
AcDbEntity
  8
HATCH
  6
Continuous
 62
     7
370
    30
100
AcDbLine
 10
16.229052
 20
-6.849354
 30
0.0
 11
16.263365
 21
-6.869167
 31
0.0
  0
LINE
  5
336
330
48C
100
AcDbEntity
  8
HATCH
  6
Continuous
 62
     7
370
    30
100
AcDbLine
 10
16.312073
 20
-6.897292
 30
0.0
 11
16.360792
 21
-6.925417
 31
0.0
  0
LINE
  5
337
330
48C
100
AcDbEntity
  8
HATCH
  6
Continuous
 62
     7
370
    30
100
AcDbLine
 10
16.40951
 20
-6.953542
 30
0.0
 11
16.411437
 21
-6.954656
 31
0.0
  0
LINE
  5
338
330
48C
100
AcDbEntity
  8
HATCH
  6
Continuous
 62
     7
370
    30
100
AcDbLine
 10
16.124625
 20
-6.901562
 30
0.0
 11
16.165937
 21
-6.925417
 31
0.0
  0
LINE
  5
339
330
48C
100
AcDbEntity
  8
HATCH
  6
Continuous
 62
     7
370
    30
100
AcDbLine
 10
16.214646
 20
-6.953542
 30
0.0
 11
16.263365
 21
-6.981667
 31
0.0
  0
LINE
  5
33A
330
48C
100
AcDbEntity
  8
HATCH
  6
Continuous
 62
     7
370
    30
100
AcDbLine
 10
16.020208
 20
-6.953781
 30
0.0
 11
16.06851
 21
-6.981667
 31
0.0
  0
LINE
  5
33B
330
48C
100
AcDbEntity
  8
HATCH
  6
Continuous
 62
     7
370
    30
100
AcDbLine
 10
15.951323
 20
-6.993073
 30
0.0
 11
15.971083
 21
-6.981667
 31
0.0
  0
LINE
  5
33C
330
48C
100
AcDbEntity
  8
HATCH
  6
Continuous
 62
     7
370
    30
100
AcDbLine
 10
16.153469
 20
-6.988865
 30
0.0
 11
16.165937
 21
-6.981667
 31
0.0
  0
LINE
  5
33D
330
48C
100
AcDbEntity
  8
HATCH
  6
Continuous
 62
     7
370
    30
100
AcDbLine
 10
16.214646
 20
-6.953542
 30
0.0
 11
16.263365
 21
-6.925417
 31
0.0
  0
LINE
  5
33E
330
48C
100
AcDbEntity
  8
HATCH
  6
Continuous
 62
     7
370
    30
100
AcDbLine
 10
16.312073
 20
-6.897292
 30
0.0
 11
16.360792
 21
-6.869167
 31
0.0
  0
LINE
  5
33F
330
48C
100
AcDbEntity
  8
HATCH
  6
Continuous
 62
     7
370
    30
100
AcDbLine
 10
16.40951
 20
-6.841042
 30
0.0
 11
16.458219
 21
-6.812917
 31
0.0
  0
LINE
  5
340
330
48C
100
AcDbEntity
  8
HATCH
  6
Continuous
 62
     7
370
    30
100
AcDbLine
 10
16.506937
 20
-6.784792
 30
0.0
 11
16.555646
 21
-6.756667
 31
0.0
  0
LINE
  5
341
330
48C
100
AcDbEntity
  8
HATCH
  6
Continuous
 62
     7
370
    30
100
AcDbLine
 10
16.604365
 20
-6.728542
 30
0.0
 11
16.653073
 21
-6.700417
 31
0.0
  0
LINE
  5
342
330
48C
100
AcDbEntity
  8
HATCH
  6
Continuous
 62
     7
370
    30
100
AcDbLine
 10
16.701792
 20
-6.672292
 30
0.0
 11
16.7505
 21
-6.644167
 31
0.0
  0
LINE
  5
343
330
48C
100
AcDbEntity
  8
HATCH
  6
Continuous
 62
     7
370
    30
100
AcDbLine
 10
16.799219
 20
-6.616042
 30
0.0
 11
16.847927
 21
-6.587917
 31
0.0
  0
LINE
  5
344
330
48C
100
AcDbEntity
  8
HATCH
  6
Continuous
 62
     7
370
    30
100
AcDbLine
 10
16.896646
 20
-6.559792
 30
0.0
 11
16.945354
 21
-6.531667
 31
0.0
  0
LINE
  5
345
330
48C
100
AcDbEntity
  8
HATCH
  6
Continuous
 62
     7
370
    30
100
AcDbLine
 10
16.994073
 20
-6.503542
 30
0.0
 11
17.042792
 21
-6.475417
 31
0.0
  0
LINE
  5
346
330
48C
100
AcDbEntity
  8
HATCH
  6
Continuous
 62
     7
370
    30
100
AcDbLine
 10
17.0915
 20
-6.447292
 30
0.0
 11
17.140219
 21
-6.419167
 31
0.0
  0
LINE
  5
347
330
48C
100
AcDbEntity
  8
HATCH
  6
Continuous
 62
     7
370
    30
100
AcDbLine
 10
17.188927
 20
-6.391042
 30
0.0
 11
17.237646
 21
-6.362917
 31
0.0
  0
LINE
  5
348
330
48C
100
AcDbEntity
  8
HATCH
  6
Continuous
 62
     7
370
    30
100
AcDbLine
 10
17.286354
 20
-6.334792
 30
0.0
 11
17.335073
 21
-6.306667
 31
0.0
  0
LINE
  5
349
330
48C
100
AcDbEntity
  8
HATCH
  6
Continuous
 62
     7
370
    30
100
AcDbLine
 10
17.383781
 20
-6.278542
 30
0.0
 11
17.414427
 21
-6.260854
 31
0.0
  0
LINE
  5
34A
330
48C
100
AcDbEntity
  8
HATCH
  6
Continuous
 62
     7
370
    30
100
AcDbLine
 10
16.355625
 20
-6.984646
 30
0.0
 11
16.360792
 21
-6.981667
 31
0.0
  0
LINE
  5
34B
330
48C
100
AcDbEntity
  8
HATCH
  6
Continuous
 62
     7
370
    30
100
AcDbLine
 10
16.40951
 20
-6.953542
 30
0.0
 11
16.419771
 21
-6.947615
 31
0.0
  0
LINE
  5
34C
330
48C
100
AcDbEntity
  8
HATCH
  6
Continuous
 62
     7
370
    30
100
AcDbLine
 10
16.712563
 20
-6.778573
 30
0.0
 11
16.7505
 21
-6.756667
 31
0.0
  0
LINE
  5
34D
330
48C
100
AcDbEntity
  8
HATCH
  6
Continuous
 62
     7
370
    30
100
AcDbLine
 10
16.799219
 20
-6.728542
 30
0.0
 11
16.847927
 21
-6.700417
 31
0.0
  0
LINE
  5
34E
330
48C
100
AcDbEntity
  8
HATCH
  6
Continuous
 62
     7
370
    30
100
AcDbLine
 10
16.896646
 20
-6.672292
 30
0.0
 11
16.945354
 21
-6.644167
 31
0.0
  0
LINE
  5
34F
330
48C
100
AcDbEntity
  8
HATCH
  6
Continuous
 62
     7
370
    30
100
AcDbLine
 10
16.994073
 20
-6.616042
 30
0.0
 11
17.042792
 21
-6.587917
 31
0.0
  0
LINE
  5
350
330
48C
100
AcDbEntity
  8
HATCH
  6
Continuous
 62
     7
370
    30
100
AcDbLine
 10
17.0915
 20
-6.559792
 30
0.0
 11
17.140219
 21
-6.531667
 31
0.0
  0
LINE
  5
351
330
48C
100
AcDbEntity
  8
HATCH
  6
Continuous
 62
     7
370
    30
100
AcDbLine
 10
17.188927
 20
-6.503542
 30
0.0
 11
17.237646
 21
-6.475417
 31
0.0
  0
LINE
  5
352
330
48C
100
AcDbEntity
  8
HATCH
  6
Continuous
 62
     7
370
    30
100
AcDbLine
 10
17.286354
 20
-6.447292
 30
0.0
 11
17.335073
 21
-6.419167
 31
0.0
  0
LINE
  5
353
330
48C
100
AcDbEntity
  8
HATCH
  6
Continuous
 62
     7
370
    30
100
AcDbLine
 10
17.383781
 20
-6.391042
 30
0.0
 11
17.4325
 21
-6.362917
 31
0.0
  0
LINE
  5
354
330
48C
100
AcDbEntity
  8
HATCH
  6
Continuous
 62
     7
370
    30
100
AcDbLine
 10
16.926542
 20
-6.767531
 30
0.0
 11
16.945354
 21
-6.756667
 31
0.0
  0
LINE
  5
355
330
48C
100
AcDbEntity
  8
HATCH
  6
Continuous
 62
     7
370
    30
100
AcDbLine
 10
16.994073
 20
-6.728542
 30
0.0
 11
17.042792
 21
-6.700417
 31
0.0
  0
LINE
  5
356
330
48C
100
AcDbEntity
  8
HATCH
  6
Continuous
 62
     7
370
    30
100
AcDbLine
 10
17.0915
 20
-6.672292
 30
0.0
 11
17.140219
 21
-6.644167
 31
0.0
  0
LINE
  5
357
330
48C
100
AcDbEntity
  8
HATCH
  6
Continuous
 62
     7
370
    30
100
AcDbLine
 10
17.188927
 20
-6.616042
 30
0.0
 11
17.237646
 21
-6.587917
 31
0.0
  0
LINE
  5
358
330
48C
100
AcDbEntity
  8
HATCH
  6
Continuous
 62
     7
370
    30
100
AcDbLine
 10
17.286354
 20
-6.559792
 30
0.0
 11
17.335073
 21
-6.531667
 31
0.0
  0
LINE
  5
359
330
48C
100
AcDbEntity
  8
HATCH
  6
Continuous
 62
     7
370
    30
100
AcDbLine
 10
17.383781
 20
-6.503542
 30
0.0
 11
17.4325
 21
-6.475417
 31
0.0
  0
LINE
  5
35A
330
48C
100
AcDbEntity
  8
HATCH
  6
Continuous
 62
     7
370
    30
100
AcDbLine
 10
17.121396
 20
-6.767531
 30
0.0
 11
17.140219
 21
-6.756667
 31
0.0
  0
LINE
  5
35B
330
48C
100
AcDbEntity
  8
HATCH
  6
Continuous
 62
     7
370
    30
100
AcDbLine
 10
17.188927
 20
-6.728542
 30
0.0
 11
17.237646
 21
-6.700417
 31
0.0
  0
LINE
  5
35C
330
48C
100
AcDbEntity
  8
HATCH
  6
Continuous
 62
     7
370
    30
100
AcDbLine
 10
17.286354
 20
-6.672292
 30
0.0
 11
17.335073
 21
-6.644167
 31
0.0
  0
LINE
  5
35D
330
48C
100
AcDbEntity
  8
HATCH
  6
Continuous
 62
     7
370
    30
100
AcDbLine
 10
17.383781
 20
-6.616042
 30
0.0
 11
17.39301
 21
-6.610719
 31
0.0
  0
LINE
  5
35E
330
48C
100
AcDbEntity
  8
HATCH
  6
Continuous
 62
     7
370
    30
100
AcDbLine
 10
16.653073
 20
-6.637344
 30
0.0
 11
16.653073
 21
-6.644167
 31
0.0
  0
LINE
  5
35F
330
48C
100
AcDbEntity
  8
HATCH
  6
Continuous
 62
     7
370
    30
100
AcDbLine
 10
16.653073
 20
-6.700417
 30
0.0
 11
16.653073
 21
-6.756667
 31
0.0
  0
LINE
  5
360
330
48C
100
AcDbEntity
  8
HATCH
  6
Continuous
 62
     7
370
    30
100
AcDbLine
 10
16.7505
 20
-6.644167
 30
0.0
 11
16.7505
 21
-6.700417
 31
0.0
  0
LINE
  5
361
330
48C
100
AcDbEntity
  8
HATCH
  6
Continuous
 62
     7
370
    30
100
AcDbLine
 10
16.7505
 20
-6.756667
 30
0.0
 11
16.7505
 21
-6.77624
 31
0.0
  0
LINE
  5
362
330
48C
100
AcDbEntity
  8
HATCH
  6
Continuous
 62
     7
370
    30
100
AcDbLine
 10
16.847927
 20
-6.587917
 30
0.0
 11
16.847927
 21
-6.644167
 31
0.0
  0
LINE
  5
363
330
48C
100
AcDbEntity
  8
HATCH
  6
Continuous
 62
     7
370
    30
100
AcDbLine
 10
16.847927
 20
-6.700417
 30
0.0
 11
16.847927
 21
-6.756667
 31
0.0
  0
LINE
  5
364
330
48C
100
AcDbEntity
  8
HATCH
  6
Continuous
 62
     7
370
    30
100
AcDbLine
 10
16.945354
 20
-6.531667
 30
0.0
 11
16.945354
 21
-6.587917
 31
0.0
  0
LINE
  5
365
330
48C
100
AcDbEntity
  8
HATCH
  6
Continuous
 62
     7
370
    30
100
AcDbLine
 10
16.945354
 20
-6.644167
 30
0.0
 11
16.945354
 21
-6.700417
 31
0.0
  0
LINE
  5
366
330
48C
100
AcDbEntity
  8
HATCH
  6
Continuous
 62
     7
370
    30
100
AcDbLine
 10
16.945354
 20
-6.756667
 30
0.0
 11
16.945354
 21
-6.767531
 31
0.0
  0
LINE
  5
367
330
48C
100
AcDbEntity
  8
HATCH
  6
Continuous
 62
     7
370
    30
100
AcDbLine
 10
17.042792
 20
-6.475417
 30
0.0
 11
17.042792
 21
-6.531667
 31
0.0
  0
LINE
  5
368
330
48C
100
AcDbEntity
  8
HATCH
  6
Continuous
 62
     7
370
    30
100
AcDbLine
 10
17.042792
 20
-6.587917
 30
0.0
 11
17.042792
 21
-6.644167
 31
0.0
  0
LINE
  5
369
330
48C
100
AcDbEntity
  8
HATCH
  6
Continuous
 62
     7
370
    30
100
AcDbLine
 10
17.042792
 20
-6.700417
 30
0.0
 11
17.042792
 21
-6.756667
 31
0.0
  0
LINE
  5
36A
330
48C
100
AcDbEntity
  8
HATCH
  6
Continuous
 62
     7
370
    30
100
AcDbLine
 10
17.140219
 20
-6.419167
 30
0.0
 11
17.140219
 21
-6.475417
 31
0.0
  0
LINE
  5
36B
330
48C
100
AcDbEntity
  8
HATCH
  6
Continuous
 62
     7
370
    30
100
AcDbLine
 10
17.140219
 20
-6.531667
 30
0.0
 11
17.140219
 21
-6.587917
 31
0.0
  0
LINE
  5
36C
330
48C
100
AcDbEntity
  8
HATCH
  6
Continuous
 62
     7
370
    30
100
AcDbLine
 10
17.140219
 20
-6.644167
 30
0.0
 11
17.140219
 21
-6.700417
 31
0.0
  0
LINE
  5
36D
330
48C
100
AcDbEntity
  8
HATCH
  6
Continuous
 62
     7
370
    30
100
AcDbLine
 10
17.140219
 20
-6.756667
 30
0.0
 11
17.140219
 21
-6.767531
 31
0.0
  0
LINE
  5
36E
330
48C
100
AcDbEntity
  8
HATCH
  6
Continuous
 62
     7
370
    30
100
AcDbLine
 10
17.237646
 20
-6.362917
 30
0.0
 11
17.237646
 21
-6.419167
 31
0.0
  0
LINE
  5
36F
330
48C
100
AcDbEntity
  8
HATCH
  6
Continuous
 62
     7
370
    30
100
AcDbLine
 10
17.237646
 20
-6.475417
 30
0.0
 11
17.237646
 21
-6.531667
 31
0.0
  0
LINE
  5
370
330
48C
100
AcDbEntity
  8
HATCH
  6
Continuous
 62
     7
370
    30
100
AcDbLine
 10
17.237646
 20
-6.587917
 30
0.0
 11
17.237646
 21
-6.644167
 31
0.0
  0
LINE
  5
371
330
48C
100
AcDbEntity
  8
HATCH
  6
Continuous
 62
     7
370
    30
100
AcDbLine
 10
17.237646
 20
-6.700417
 30
0.0
 11
17.237646
 21
-6.756667
 31
0.0
  0
LINE
  5
372
330
48C
100
AcDbEntity
  8
HATCH
  6
Continuous
 62
     7
370
    30
100
AcDbLine
 10
17.335073
 20
-6.306667
 30
0.0
 11
17.335073
 21
-6.362917
 31
0.0
  0
LINE
  5
373
330
48C
100
AcDbEntity
  8
HATCH
  6
Continuous
 62
     7
370
    30
100
AcDbLine
 10
17.335073
 20
-6.419167
 30
0.0
 11
17.335073
 21
-6.475417
 31
0.0
  0
LINE
  5
374
330
48C
100
AcDbEntity
  8
HATCH
  6
Continuous
 62
     7
370
    30
100
AcDbLine
 10
17.335073
 20
-6.531667
 30
0.0
 11
17.335073
 21
-6.587917
 31
0.0
  0
LINE
  5
375
330
48C
100
AcDbEntity
  8
HATCH
  6
Continuous
 62
     7
370
    30
100
AcDbLine
 10
17.335073
 20
-6.644167
 30
0.0
 11
17.335073
 21
-6.700417
 31
0.0
  0
LINE
  5
376
330
48C
100
AcDbEntity
  8
HATCH
  6
Continuous
 62
     7
370
    30
100
AcDbLine
 10
17.4325
 20
-6.362917
 30
0.0
 11
17.4325
 21
-6.419167
 31
0.0
  0
LINE
  5
377
330
48C
100
AcDbEntity
  8
HATCH
  6
Continuous
 62
     7
370
    30
100
AcDbLine
 10
17.4325
 20
-6.475417
 30
0.0
 11
17.4325
 21
-6.497135
 31
0.0
  0
LINE
  5
378
330
48C
100
AcDbEntity
  8
HATCH
  6
Continuous
 62
     7
370
    30
100
AcDbLine
 10
16.555646
 20
-6.686052
 30
0.0
 11
16.555646
 21
-6.700417
 31
0.0
  0
LINE
  5
379
330
48C
100
AcDbEntity
  8
HATCH
  6
Continuous
 62
     7
370
    30
100
AcDbLine
 10
16.555646
 20
-6.756667
 30
0.0
 11
16.555646
 21
-6.812917
 31
0.0
  0
LINE
  5
37A
330
48C
100
AcDbEntity
  8
HATCH
  6
Continuous
 62
     7
370
    30
100
AcDbLine
 10
16.458219
 20
-6.734771
 30
0.0
 11
16.458219
 21
-6.756667
 31
0.0
  0
LINE
  5
37B
330
48C
100
AcDbEntity
  8
HATCH
  6
Continuous
 62
     7
370
    30
100
AcDbLine
 10
16.458219
 20
-6.812917
 30
0.0
 11
16.458219
 21
-6.869167
 31
0.0
  0
LINE
  5
37C
330
48C
100
AcDbEntity
  8
HATCH
  6
Continuous
 62
     7
370
    30
100
AcDbLine
 10
16.360792
 20
-6.78349
 30
0.0
 11
16.360792
 21
-6.812917
 31
0.0
  0
LINE
  5
37D
330
48C
100
AcDbEntity
  8
HATCH
  6
Continuous
 62
     7
370
    30
100
AcDbLine
 10
16.360792
 20
-6.869167
 30
0.0
 11
16.360792
 21
-6.925417
 31
0.0
  0
LINE
  5
37E
330
48C
100
AcDbEntity
  8
HATCH
  6
Continuous
 62
     7
370
    30
100
AcDbLine
 10
16.360792
 20
-6.981667
 30
0.0
 11
16.360792
 21
-6.984542
 31
0.0
  0
LINE
  5
37F
330
48C
100
AcDbEntity
  8
HATCH
  6
Continuous
 62
     7
370
    30
100
AcDbLine
 10
16.263365
 20
-6.832198
 30
0.0
 11
16.263365
 21
-6.869167
 31
0.0
  0
LINE
  5
380
330
48C
100
AcDbEntity
  8
HATCH
  6
Continuous
 62
     7
370
    30
100
AcDbLine
 10
16.263365
 20
-6.925417
 30
0.0
 11
16.263365
 21
-6.981667
 31
0.0
  0
LINE
  5
381
330
48C
100
AcDbEntity
  8
HATCH
  6
Continuous
 62
     7
370
    30
100
AcDbLine
 10
16.165937
 20
-6.880917
 30
0.0
 11
16.165937
 21
-6.925417
 31
0.0
  0
LINE
  5
382
330
48C
100
AcDbEntity
  8
HATCH
  6
Continuous
 62
     7
370
    30
100
AcDbLine
 10
16.165937
 20
-6.981667
 30
0.0
 11
16.165937
 21
-6.988604
 31
0.0
  0
LINE
  5
383
330
48C
100
AcDbEntity
  8
HATCH
  6
Continuous
 62
     7
370
    30
100
AcDbLine
 10
16.06851
 20
-6.929625
 30
0.0
 11
16.06851
 21
-6.981667
 31
0.0
  0
LINE
  5
384
330
48C
100
AcDbEntity
  8
HATCH
  6
Continuous
 62
     7
370
    30
100
AcDbLine
 10
15.971083
 20
-6.981667
 30
0.0
 11
15.971083
 21
-6.992667
 31
0.0
  0
LINE
  5
386
330
48C
100
AcDbEntity
  8
_0
  6
Continuous
 62
     7
370
    30
100
AcDbLine
 10
21.885844
 20
-6.993281
 30
0.0
 11
22.338521
 21
-7.002719
 31
0.0
  0
LINE
  5
387
330
48C
100
AcDbEntity
  8
_0
  6
Continuous
 62
     7
370
    30
100
AcDbLine
 10
15.941187
 20
-6.993281
 30
0.0
 11
15.488521
 21
-7.002719
 31
0.0
  0
LWPOLYLINE
  5
388
330
48C
100
AcDbEntity
  8
_0
  6
Continuous
 62
     7
370
    30
100
AcDbPolyline
 90
        2
 70
   128
 43
0.0
 10
15.941187
 20
-6.993281
 10
17.570948
 20
-6.959333
  0
LWPOLYLINE
  5
389
330
48C
100
AcDbEntity
  8
_0
  6
Continuous
 62
     7
370
    30
100
AcDbPolyline
 90
        3
 70
   128
 43
0.0
 10
17.570948
 20
-6.959073
 10
20.243625
 20
-6.959073
 10
21.885844
 20
-6.993281
  0
LINE
  5
38D
330
48C
100
AcDbEntity
  8
DIM
  6
Continuous
 62
     7
370
    13
100
AcDbLine
 10
15.488521
 20
-6.952719
 30
0.0
 11
15.488521
 21
-6.369521
 31
0.0
  0
LINE
  5
38E
330
48C
100
AcDbEntity
  8
DIM
  6
Continuous
 62
     7
370
    13
100
AcDbLine
 10
15.941187
 20
-6.943281
 30
0.0
 11
15.941187
 21
-6.369521
 31
0.0
  0
LINE
  5
393
330
48C
100
AcDbEntity
  8
BORDER
  6
Continuous
 62
     7
370
    30
100
AcDbLine
 10
14.363521
 20
-4.309792
 30
0.0
 11
23.463521
 21
-4.309792
 31
0.0
  0
LINE
  5
394
330
48C
100
AcDbEntity
  8
BORDER
  6
Continuous
 62
     7
370
    30
100
AcDbLine
 10
23.463521
 20
-11.559792
 30
0.0
 11
23.463521
 21
-4.309792
 31
0.0
  0
LINE
  5
395
330
48C
100
AcDbEntity
  8
BORDER
  6
Continuous
 62
     7
370
    30
100
AcDbLine
 10
14.363521
 20
-11.059792
 30
0.0
 11
23.463521
 21
-11.059792
 31
0.0
  0
LINE
  5
396
330
48C
100
AcDbEntity
  8
BORDER
  6
Continuous
 62
     7
370
    30
100
AcDbLine
 10
14.363521
 20
-11.559792
 30
0.0
 11
23.463521
 21
-11.559792
 31
0.0
  0
LINE
  5
397
330
48C
100
AcDbEntity
  8
BORDER
  6
Continuous
 62
     7
370
    30
100
AcDbLine
 10
21.263521
 20
-11.559792
 30
0.0
 11
21.263521
 21
-11.059792
 31
0.0
  0
LINE
  5
399
330
48C
100
AcDbEntity
  8
BORDER
  6
Continuous
 62
     7
370
    30
100
AcDbLine
 10
22.363521
 20
-11.559792
 30
0.0
 11
22.363521
 21
-11.059792
 31
0.0
  0
LINE
  5
39C
330
48C
100
AcDbEntity
  8
_0
  6
Continuous
 62
     7
370
    30
100
AcDbLine
 10
17.413521
 20
-6.257125
 30
0.0
 11
20.413521
 21
-6.257125
 31
0.0
  0
LINE
  5
39D
330
48C
100
AcDbEntity
  8
_0
  6
Continuous
 62
     7
370
    13
100
AcDbLine
 10
18.913521
 20
-5.516375
 30
0.0
 11
18.913521
 21
-6.712052
 31
0.0
  0
LINE
  5
39E
330
48C
100
AcDbEntity
  8
_0
  6
Continuous
 62
     7
370
    30
100
AcDbLine
 10
17.581823
 20
-6.457125
 30
0.0
 11
20.245219
 21
-6.457125
 31
0.0
  0
LINE
  5
39F
330
48C
100
AcDbEntity
  8
_0
  6
Continuous
 62
     7
370
    30
100
AcDbLine
 10
23.238521
 20
-7.302719
 30
0.0
 11
22.338521
 21
-7.002719
 31
0.0
  0
LINE
  5
3A0
330
48C
100
AcDbEntity
  8
_0
  6
Continuous
 62
     7
370
    30
100
AcDbLine
 10
20.413521
 20
-6.257125
 30
0.0
 11
21.885844
 21
-6.993281
 31
0.0
  0
LINE
  5
3A1
330
48C
100
AcDbEntity
  8
_0
  6
Continuous
 62
     7
370
    30
100
AcDbLine
 10
20.245219
 20
-6.257125
 30
0.0
 11
20.245219
 21
-6.457125
 31
0.0
  0
LINE
  5
3A2
330
48C
100
AcDbEntity
  8
_0
  6
Continuous
 62
     7
370
    30
100
AcDbLine
 10
17.413521
 20
-6.257125
 30
0.0
 11
15.941187
 21
-6.993281
 31
0.0
  0
LINE
  5
3A3
330
48C
100
AcDbEntity
  8
_0
  6
Continuous
 62
     7
370
    30
100
AcDbLine
 10
14.588521
 20
-7.302719
 30
0.0
 11
15.488521
 21
-7.002719
 31
0.0
  0
LINE
  5
3A6
330
48C
100
AcDbEntity
  8
_0
  6
Continuous
 62
     7
370
    30
100
AcDbLine
 10
23.040604
 20
-7.173667
 30
0.0
 11
23.040604
 21
-7.031333
 31
0.0
  0
LINE
  5
3A7
330
48C
100
AcDbEntity
  8
_0
  6
Continuous
 62
     7
370
    30
100
AcDbLine
 10
22.613625
 20
-7.031333
 30
0.0
 11
23.040604
 21
-7.031333
 31
0.0
  0
LINE
  5
3A9
330
48C
100
AcDbEntity
  8
_0
  6
Continuous
 62
     7
370
    30
100
AcDbLine
 10
17.581823
 20
-6.257125
 30
0.0
 11
17.581823
 21
-6.457125
 31
0.0
  0
LINE
  5
3AA
330
48C
100
AcDbEntity
  8
DIM
  6
Continuous
 62
     7
370
    13
100
AcDbLine
 10
18.151021
 20
-6.007125
 30
0.0
 11
18.151021
 21
-5.757677
 31
0.0
  0
LINE
  5
3AC
330
48C
100
AcDbEntity
  8
DIM
  6
Continuous
 62
     7
370
    13
100
AcDbLine
 10
19.676021
 20
-6.007125
 30
0.0
 11
19.676021
 21
-5.757677
 31
0.0
  0
LINE
  5
3B0
330
48C
100
AcDbEntity
  8
DIM
  6
Continuous
 62
     7
370
    13
100
AcDbLine
 10
17.413521
 20
-6.207125
 30
0.0
 11
17.413521
 21
-5.208469
 31
0.0
  0
LINE
  5
3B1
330
48C
100
AcDbEntity
  8
DIM
  6
Continuous
 62
     7
370
    13
100
AcDbLine
 10
17.581823
 20
-6.207125
 30
0.0
 11
17.581823
 21
-5.208469
 31
0.0
  0
LINE
  5
3B3
330
48C
100
AcDbEntity
  8
DIM
  6
Continuous
 62
     7
370
    13
100
AcDbLine
 10
20.413521
 20
-6.207125
 30
0.0
 11
20.413521
 21
-5.208469
 31
0.0
  0
LINE
  5
3B4
330
48C
100
AcDbEntity
  8
DIM
  6
Continuous
 62
     7
370
    13
100
AcDbLine
 10
20.245219
 20
-6.207125
 30
0.0
 11
20.245219
 21
-5.208469
 31
0.0
  0
LINE
  5
3B6
330
48C
100
AcDbEntity
  8
_0
  6
Continuous
 62
     7
370
    30
100
AcDbLine
 10
15.213417
 20
-7.031333
 30
0.0
 11
14.786427
 21
-7.031333
 31
0.0
  0
LINE
  5
3B7
330
48C
100
AcDbEntity
  8
_0
  6
Continuous
 62
     7
370
    30
100
AcDbLine
 10
14.786427
 20
-7.173667
 30
0.0
 11
14.786427
 21
-7.031333
 31
0.0
  0
LINE
  5
3BD
330
48C
100
AcDbEntity
  8
DIM
  6
Continuous
 62
     7
370
    13
100
AcDbLine
 10
15.488521
 20
-6.503115
 30
0.0
 11
15.088521
 21
-6.503115
 31
0.0
  0
LINE
  5
3BE
330
48C
100
AcDbEntity
  8
DIM
  6
Continuous
 62
     7
370
    13
100
AcDbLine
 10
15.941187
 20
-6.503115
 30
0.0
 11
16.341188
 21
-6.503115
 31
0.0
  0
LINE
  5
3BF
330
48C
100
AcDbEntity
  8
TEXT
  6
Continuous
 62
     7
370
    13
100
AcDbLine
 10
16.509833
 20
-6.90776
 30
0.0
 11
16.933302
 21
-6.89401
 31
0.0
  0
LINE
  5
3C1
330
48C
100
AcDbEntity
  8
TEXT
  6
Continuous
 62
     7
370
    13
100
AcDbLine
 10
21.336792
 20
-6.908552
 30
0.0
 11
20.888781
 21
-6.89401
 31
0.0
  0
LINE
  5
3C3
330
48C
100
AcDbEntity
  8
DIM
  6
Continuous
 62
     7
370
    13
100
AcDbLine
 10
18.251271
 20
-6.457125
 30
0.0
 11
18.251271
 21
-6.959073
 31
0.0
  0
LINE
  5
3C4
330
48C
100
AcDbEntity
  8
TEXT
  6
Continuous
 62
     7
370
    13
100
AcDbLine
 10
19.649615
 20
-6.959073
 30
0.0
 11
19.649615
 21
-7.459677
 31
0.0
  0
LINE
  5
3C5
330
48C
100
AcDbEntity
  8
TEXT
  6
Continuous
 62
     7
370
    13
100
AcDbLine
 10
19.649615
 20
-7.459677
 30
0.0
 11
19.790375
 21
-7.459677
 31
0.0
  0
LINE
  5
3C6
330
48C
100
AcDbEntity
  8
TEXT
  6
Continuous
 62
     7
370
    13
100
AcDbLine
 10
20.129021
 20
-6.257125
 30
0.0
 11
20.77501
 21
-5.929646
 31
0.0
  0
LINE
  5
3C7
330
48C
100
AcDbEntity
  8
TEXT
  6
Continuous
 62
     7
370
    13
100
AcDbLine
 10
20.77501
 20
-5.929646
 30
0.0
 11
20.880677
 21
-5.929646
 31
0.0
  0
LINE
  5
3C9
330
48C
100
AcDbEntity
  8
DIM
  6
Continuous
 62
     7
370
    13
100
AcDbLine
 10
17.413521
 20
-5.34025
 30
0.0
 11
17.013521
 21
-5.34025
 31
0.0
  0
LINE
  5
3CA
330
48C
100
AcDbEntity
  8
DIM
  6
Continuous
 62
     7
370
    13
100
AcDbLine
 10
17.581823
 20
-5.34025
 30
0.0
 11
17.981823
 21
-5.34025
 31
0.0
  0
LINE
  5
3CB
330
48C
100
AcDbEntity
  8
DIM
  6
Continuous
 62
     7
370
    13
100
AcDbLine
 10
20.245219
 20
-5.34025
 30
0.0
 11
19.845219
 21
-5.34025
 31
0.0
  0
LINE
  5
3CC
330
48C
100
AcDbEntity
  8
DIM
  6
Continuous
 62
     7
370
    13
100
AcDbLine
 10
20.413521
 20
-5.34025
 30
0.0
 11
20.813521
 21
-5.34025
 31
0.0
  0
LINE
  5
3CD
330
48C
100
AcDbEntity
  8
DIM
  6
Continuous
 62
     7
370
    13
100
AcDbLine
 10
18.151021
 20
-5.85026
 30
0.0
 11
18.913521
 21
-5.85026
 31
0.0
  0
LINE
  5
3CE
330
48C
100
AcDbEntity
  8
DIM
  6
Continuous
 62
     7
370
    13
100
AcDbLine
 10
18.913521
 20
-5.85026
 30
0.0
 11
19.676021
 21
-5.85026
 31
0.0
  0
LINE
  5
3CF
330
48C
100
AcDbEntity
  8
_0
  6
Continuous
 62
     7
370
    13
100
AcDbLine
 10
24.458156
 20
-11.934792
 30
0.0
 11
24.251615
 21
-11.934792
 31
0.0
  0
LINE
  5
3D0
330
48C
100
AcDbEntity
  8
_0
  6
Continuous
 62
     7
370
    13
100
AcDbLine
 10
24.458156
 20
-3.934792
 30
0.0
 11
24.251615
 21
-3.934792
 31
0.0
  0
LINE
  5
3D1
330
48C
100
AcDbEntity
  8
_0
  6
Continuous
 62
     7
370
    13
100
AcDbLine
 10
24.251615
 20
-12.141333
 30
0.0
 11
24.251615
 21
-11.934792
 31
0.0
  0
LINE
  5
3D2
330
48C
100
AcDbEntity
  8
_0
  6
Continuous
 62
     7
370
    13
100
AcDbLine
 10
13.501615
 20
-12.141333
 30
0.0
 11
13.501615
 21
-11.934792
 31
0.0
  0
LINE
  5
3D3
330
48C
100
AcDbEntity
  8
_0
  6
Continuous
 62
     7
370
    13
100
AcDbLine
 10
24.251615
 20
-3.934792
 30
0.0
 11
24.251615
 21
-3.72825
 31
0.0
  0
LINE
  5
3D4
330
48C
100
AcDbEntity
  8
_0
  6
Continuous
 62
     7
370
    13
100
AcDbLine
 10
13.501615
 20
-11.934792
 30
0.0
 11
13.295073
 21
-11.934792
 31
0.0
  0
LINE
  5
3D5
330
48C
100
AcDbEntity
  8
_0
  6
Continuous
 62
     7
370
    13
100
AcDbLine
 10
13.501615
 20
-3.934792
 30
0.0
 11
13.295073
 21
-3.934792
 31
0.0
  0
LINE
  5
3D6
330
48C
100
AcDbEntity
  8
_0
  6
Continuous
 62
     7
370
    13
100
AcDbLine
 10
13.501615
 20
-3.934792
 30
0.0
 11
13.501615
 21
-3.72825
 31
0.0
  0
LINE
  5
3D8
330
48C
100
AcDbEntity
  8
DIM
  6
Continuous
 62
     7
370
    30
100
AcDbLine
 10
18.214279
 20
-8.20876
 30
0.0
 11
19.480615
 21
-8.20876
 31
0.0
  0
INSERT
  5
3D9
330
48C
100
AcDbEntity
  8
DIM
  6
Continuous
 62
     7
370
    13
100
AcDbBlockReference
  2
LARROW
 10
15.488521
 20
-6.503115
 30
0.0
 41
12.0
 42
12.0
 43
12.0
  0
INSERT
  5
3DB
330
48C
100
AcDbEntity
  8
DIM
  6
Continuous
 62
     7
370
    13
100
AcDbBlockReference
  2
LARROW
 10
15.941187
 20
-6.503115
 30
0.0
 41
12.0
 42
12.0
 43
12.0
 50
180.0
  0
INSERT
  5
3DD
330
48C
100
AcDbEntity
  8
DIM
  6
Continuous
 62
     7
370
    13
100
AcDbBlockReference
  2
LARROW
 10
17.413521
 20
-5.34025
 30
0.0
 41
12.0
 42
12.0
 43
12.0
  0
INSERT
  5
3DF
330
48C
100
AcDbEntity
  8
DIM
  6
Continuous
 62
     7
370
    13
100
AcDbBlockReference
  2
LARROW
 10
17.581823
 20
-5.34025
 30
0.0
 41
12.0
 42
12.0
 43
12.0
 50
180.0
  0
INSERT
  5
3E1
330
48C
100
AcDbEntity
  8
DIM
  6
Continuous
 62
     7
370
    13
100
AcDbBlockReference
  2
LARROW
 10
20.245219
 20
-5.34025
 30
0.0
 41
12.0
 42
12.0
 43
12.0
  0
INSERT
  5
3E3
330
48C
100
AcDbEntity
  8
DIM
  6
Continuous
 62
     7
370
    13
100
AcDbBlockReference
  2
LARROW
 10
20.413521
 20
-5.34025
 30
0.0
 41
12.0
 42
12.0
 43
12.0
 50
180.0
  0
INSERT
  5
3E5
330
48C
100
AcDbEntity
  8
DIM
  6
Continuous
 62
     7
370
    13
100
AcDbBlockReference
  2
LARROW
 10
20.129021
 20
-6.257125
 30
0.0
 41
11.999998
 42
11.999998
 43
11.999998
 50
206.88252
  0
INSERT
  5
3E7
330
48C
100
AcDbEntity
  8
DIM
  6
Continuous
 62
     7
370
    13
100
AcDbBlockReference
  2
LARROW
 10
21.336792
 20
-6.908552
 30
0.0
 41
12.000002
 42
12.000002
 43
12.000002
 50
358.140935
  0
INSERT
  5
3E9
330
48C
100
AcDbEntity
  8
DIM
  6
Continuous
 62
     7
370
    13
100
AcDbBlockReference
  2
LARROW
 10
19.649615
 20
-6.959073
 30
0.0
 41
12.0
 42
12.0
 43
12.0
 50
90.0
  0
INSERT
  5
3EB
330
48C
100
AcDbEntity
  8
DIM
  6
Continuous
 62
     7
370
    13
100
AcDbBlockReference
  2
LARROW
 10
18.251271
 20
-6.959073
 30
0.0
 41
12.0
 42
12.0
 43
12.0
 50
270.0
  0
INSERT
  5
3ED
330
48C
100
AcDbEntity
  8
DIM
  6
Continuous
 62
     7
370
    13
100
AcDbBlockReference
  2
LARROW
 10
18.251271
 20
-6.457125
 30
0.0
 41
12.0
 42
12.0
 43
12.0
 50
90.0
  0
INSERT
  5
3EF
330
48C
100
AcDbEntity
  8
DIM
  6
Continuous
 62
     7
370
    13
100
AcDbBlockReference
  2
LARROW
 10
16.509833
 20
-6.90776
 30
0.0
 41
12.000002
 42
12.000002
 43
12.000002
 50
181.859733
  0
INSERT
  5
3FC
330
48C
100
AcDbEntity
  8
TEXT
  6
Continuous
 62
     7
370
    13
100
AcDbBlockReference
  2
LARROW_1
 10
18.151021
 20
-5.85026
 30
0.0
 41
12.0
 42
12.0
 43
12.0
 50
180.0
  0
INSERT
  5
407
330
48C
100
AcDbEntity
  8
TEXT
  6
Continuous
 62
     7
370
    13
100
AcDbBlockReference
  2
LARROW_1
 10
18.913521
 20
-5.85026
 30
0.0
 41
12.0
 42
12.0
 43
12.0
 50
180.0
  0
INSERT
  5
412
330
48C
100
AcDbEntity
  8
TEXT
  6
Continuous
 62
     7
370
    13
100
AcDbBlockReference
  2
LARROW_1
 10
19.676021
 20
-5.85026
 30
0.0
 41
12.0
 42
12.0
 43
12.0
  0
INSERT
  5
41D
330
48C
100
AcDbEntity
  8
TEXT
  6
Continuous
 62
     7
370
    13
100
AcDbBlockReference
  2
LARROW_1
 10
18.913521
 20
-5.85026
 30
0.0
 41
12.0
 42
12.0
 43
12.0
  0
TEXT
  5
385
330
48C
100
AcDbEntity
  8
TEXT
  6
Continuous
 62
     7
370
    30
100
AcDbText
 10
19.86699
 20
-7.53076
 30
0.0
 40
0.12
  1
GEOTEXTILE
 41
0.833333
  7
Style-Arial
100
AcDbText
  0
TEXT
  5
38A
330
48C
100
AcDbEntity
  8
TEXT
  6
Continuous
 62
     7
370
    30
100
AcDbText
 10
20.922365
 20
-5.975229
 30
0.0
 40
0.12
  1
TOP OF TIE
 41
0.833333
  7
Style-Arial
100
AcDbText
  0
TEXT
  5
38B
330
48C
100
AcDbEntity
  8
TITLE
  6
Continuous
 62
     7
370
    30
100
AcDbText
 10
16.185602
 20
-11.365433
 30
0.0
 40
0.12
  1
TYPICAL BALLAST SECTION WITH GEOTEXTILE
 41
0.833333
  7
Style-Arial
100
AcDbText
  0
TEXT
  5
38C
330
48C
100
AcDbEntity
  8
DIM
  6
Continuous
 62
     7
370
    30
100
AcDbText
 10
18.176406
 20
-6.78579
 30
0.0
 40
0.12
  1
10"
 50
90.0
 41
0.833333
  7
Style-Arial
100
AcDbText
  0
TEXT
  5
38F
330
48C
100
AcDbEntity
  8
DIM
  6
Continuous
 62
     7
370
    30
100
AcDbText
 10
15.610461
 20
-6.475437
 30
0.0
 40
0.12
  1
18"
 41
0.833333
  7
Style-Arial
100
AcDbText
  0
TEXT
  5
390
330
48C
100
AcDbEntity
  8
REF
  6
Continuous
 62
     7
370
    30
100
AcDbText
 10
14.973043
 20
-10.563706
 30
0.0
 40
0.12
  1
REFERENCE: TM 5-850-2/AFM 88-7, CHAPTER 2, RAILROAD DESIGN AND
 41
0.833333
  7
Style-Arial
100
AcDbText
  0
TEXT
  5
391
330
48C
100
AcDbEntity
  8
REF
  6
Continuous
 62
     7
370
    30
100
AcDbText
 10
15.908291
 20
-10.741448
 30
0.0
 40
0.12
  1
CONSTRUCTION OF ARMY AND AIRFORCE INSTALLATIONS.
 41
0.833333
  7
Style-Arial
100
AcDbText
  0
TEXT
  5
392
330
48C
100
AcDbEntity
  8
BORDER
  6
Continuous
 62
     7
370
    30
100
AcDbText
 10
21.499667
 20
-11.436863
 30
0.0
 40
0.12
  1
AUG 1992
 41
0.833333
  7
Style-Arial
100
AcDbText
  0
TEXT
  5
398
330
48C
100
AcDbEntity
  8
BORDER
  6
Continuous
 62
     7
370
    30
100
AcDbText
 10
21.64484
 20
-11.226458
 30
0.0
 40
0.12
  1
DATE
 41
0.833333
  7
Style-Arial
100
AcDbText
  0
TEXT
  5
39A
330
48C
100
AcDbEntity
  8
BORDER
  6
Continuous
 62
     7
370
    30
100
AcDbText
 10
22.668334
 20
-11.229877
 30
0.0
 40
0.12
  1
FIGURE
 41
0.833333
  7
Style-Arial
100
AcDbText
  0
TEXT
  5
39B
330
48C
100
AcDbEntity
  8
BORDER
  6
Continuous
 62
     7
370
    30
100
AcDbText
 10
22.772759
 20
-11.432444
 30
0.0
 40
0.12
  1
2-36f
 41
0.833333
  7
Style-Arial
100
AcDbText
  0
TEXT
  5
3A4
330
48C
100
AcDbEntity
  8
_0
  6
Continuous
 62
     7
370
    30
100
AcDbText
 10
23.084385
 20
-7.145625
 30
0.0
 40
0.12
  1
1
 41
0.833333
  7
Style-Arial
100
AcDbText
  0
TEXT
  5
3A5
330
48C
100
AcDbEntity
  8
_0
  6
Continuous
 62
     7
370
    30
100
AcDbText
 10
22.843333
 20
-7.003125
 30
0.0
 40
0.12
  1
3
 41
0.833333
  7
Style-Arial
100
AcDbText
  0
TEXT
  5
3A8
330
48C
100
AcDbEntity
  8
TEXT
  6
Continuous
 62
     7
370
    30
100
AcDbText
 10
20.797073
 20
-6.3945
 30
0.0
 40
0.12
  1
SLOPE 2:1
 50
333.43495
 41
0.833333
  7
Style-Arial
100
AcDbText
  0
TEXT
  5
3AB
330
48C
100
AcDbEntity
  8
DIM
  6
Continuous
 62
     7
370
    30
100
AcDbText
 10
18.296985
 20
-5.77482
 30
0.0
 40
0.12
  1
2'-4-1/4"
 41
0.833333
  7
Style-Arial
100
AcDbText
  0
TEXT
  5
3AD
330
48C
100
AcDbEntity
  8
DIM
  6
Continuous
 62
     7
370
    30
100
AcDbText
 10
19.040909
 20
-5.765845
 30
0.0
 40
0.12
  1
2'-4-1/4"
 41
0.833333
  7
Style-Arial
100
AcDbText
  0
TEXT
  5
3AE
330
48C
100
AcDbEntity
  8
_0
  6
Continuous
 62
     7
370
    30
100
AcDbText
 10
18.835227
 20
-5.345156
 30
0.0
 40
0.12
  1
C
 41
0.833333
  7
Style-Arial
100
AcDbText
  0
TEXT
  5
3AF
330
48C
100
AcDbEntity
  8
_0
  6
Continuous
 62
     7
370
    30
100
AcDbText
 10
18.863403
 20
-5.401896
 30
0.0
 40
0.12
  1
L
 41
0.833333
  7
Style-Arial
100
AcDbText
  0
TEXT
  5
3B2
330
48C
100
AcDbEntity
  8
DIM
  6
Continuous
 62
     7
370
    30
100
AcDbText
 10
16.54685
 20
-5.398958
 30
0.0
 40
0.12
  1
6" MIN
 41
0.833333
  7
Style-Arial
100
AcDbText
  0
TEXT
  5
3B5
330
48C
100
AcDbEntity
  8
TEXT
  6
Continuous
 62
     7
370
    30
100
AcDbText
 10
16.271146
 20
-6.744802
 30
0.0
 40
0.12
  1
SLOPE 2:1
 50
26.56505
 41
0.833333
  7
Style-Arial
100
AcDbText
  0
TEXT
  5
3B8
330
48C
100
AcDbEntity
  8
_0
  6
Continuous
 62
     7
370
    30
100
AcDbText
 10
14.979604
 20
-7.003125
 30
0.0
 40
0.12
  1
3
 41
0.833333
  7
Style-Arial
100
AcDbText
  0
TEXT
  5
3B9
330
48C
100
AcDbEntity
  8
_0
  6
Continuous
 62
     7
370
    30
100
AcDbText
 10
14.643448
 20
-7.168979
 30
0.0
 40
0.12
  1
1
 41
0.833333
  7
Style-Arial
100
AcDbText
  0
TEXT
  5
3BA
330
48C
100
AcDbEntity
  8
TEXT
  6
Continuous
 62
     7
370
    30
100
AcDbText
 10
19.022373
 20
-6.886865
 30
0.0
 40
0.12
  1
BALLAST
 41
0.833333
  7
Style-Arial
100
AcDbText
  0
TEXT
  5
3BB
330
48C
100
AcDbEntity
  8
TEXT
  6
Continuous
 62
     7
370
    30
100
AcDbText
 10
18.392822
 20
-7.220343
 30
0.0
 40
0.12
  1
COMPACTED
 41
0.833333
  7
Style-Arial
100
AcDbText
  0
TEXT
  5
3BC
330
48C
100
AcDbEntity
  8
DIM
  6
Continuous
 62
     7
370
    30
100
AcDbText
 10
15.575719
 20
-6.65749
 30
0.0
 40
0.12
  1
MIN
 41
0.833333
  7
Style-Arial
100
AcDbText
  0
TEXT
  5
3C0
330
48C
100
AcDbEntity
  8
TEXT
  6
Continuous
 62
     7
370
    30
100
AcDbText
 10
18.437408
 20
-7.402104
 30
0.0
 40
0.12
  1
SUBGRADE
 41
0.833333
  7
Style-Arial
100
AcDbText
  0
TEXT
  5
3C2
330
48C
100
AcDbEntity
  8
DIM
  6
Continuous
 62
     7
370
    30
100
AcDbText
 10
18.433448
 20
-6.826729
 30
0.0
 40
0.12
  1
MIN
 50
90.0
 41
0.833333
  7
Style-Arial
100
AcDbText
  0
TEXT
  5
3C8
330
48C
100
AcDbEntity
  8
DIM
  6
Continuous
 62
     7
370
    30
100
AcDbText
 10
20.888823
 20
-5.402938
 30
0.0
 40
0.12
  1
6" MIN
 41
0.833333
  7
Style-Arial
100
AcDbText
  0
TEXT
  5
3D7
330
48C
100
AcDbEntity
  8
TITLE
  6
Continuous
 62
     7
370
    30
100
AcDbText
 10
18.214823
 20
-8.142083
 30
0.0
 40
0.12
  1
TYPICAL SECTION
 41
0.833333
  7
Style-Arial
100
AcDbText
  0
TEXT
  5
3F1
330
48C
100
AcDbEntity
  8
TEXT
  6
Continuous
 62
     7
370
    30
100
AcDbText
 10
16.989115
 20
-6.933792
 30
0.0
 40
0.12
  1
SLOPE 2%
 50
1.169172
 41
0.833333
  7
Style-Arial
100
AcDbText
  0
TEXT
  5
3F2
330
48C
100
AcDbEntity
  8
TEXT
  6
Continuous
 62
     7
370
    30
100
AcDbText
 10
16.991875
 20
-7.132479
 30
0.0
 40
0.12
  1
(TYPICAL)
 50
1.169172
 41
0.833333
  7
Style-Arial
100
AcDbText
  0
TEXT
  5
3F3
330
48C
100
AcDbEntity
  8
TEXT
  6
Continuous
 62
     7
370
    30
100
AcDbText
 10
20.133881
 20
-6.914084
 30
0.0
 40
0.12
  1
SLOPE 2%
 50
358.806511
 41
0.833333
  7
Style-Arial
100
AcDbText
  0
TEXT
  5
3F4
330
48C
100
AcDbEntity
  8
TEXT
  6
Continuous
 62
     7
370
    30
100
AcDbText
 10
20.142502
 20
-7.1177
 30
0.0
 40
0.12
  1
(TYPICAL)
 50
358.806511
 41
0.833333
  7
Style-Arial
100
AcDbText
  0
TEXT
  5
3F5
330
48C
100
AcDbEntity
  8
REF
  6
Continuous
 62
     7
370
    30
100
AcDbText
 10
15.908416
 20
-10.915938
 30
0.0
 40
0.12
  1
CEGS-02274 GEOTEXTILES IN RAILROADS.
 41
0.833333
  7
Style-Arial
100
AcDbText
  0
TEXT
  5
3F6
330
48C
100
AcDbEntity
  8
NOTES
  6
Continuous
 62
     7
370
    30
100
AcDbText
 10
15.732816
 20
-9.554844
 30
0.0
 40
0.12
  1
OF TIE AT THE LOW (INSIDE) RAIL OF THE CURVE.
 41
0.833333
  7
Style-Arial
100
AcDbText
  0
TEXT
  5
3F7
330
48C
100
AcDbEntity
  8
NOTES
  6
Continuous
 62
     7
370
    30
100
AcDbText
 10
14.975639
 20
-8.959802
 30
0.0
 40
0.12
  1
NOTES: 1.  DEPTH OF BALLAST SECTION WILL DEPEND ON SUBGRADE STRENGTH, TRAFFIC
 41
0.833333
  7
Style-Arial
100
AcDbText
  0
TEXT
  5
3F8
330
48C
100
AcDbEntity
  8
NOTES
  6
Continuous
 62
     7
370
    30
100
AcDbText
 10
15.534719
 20
-9.372531
 30
0.0
 40
0.12
  1
2.  MINIMUM DEPTH OF BALLAST/SUBBALLAST IS 10 INCHES  BELOW THE BOTTOM
 41
0.833333
  7
Style-Arial
100
AcDbText
  0
TEXT
  5
3F9
330
48C
100
AcDbEntity
  8
NOTES
  6
Continuous
 62
     7
370
    30
100
AcDbText
 10
15.534499
 20
-9.797448
 30
0.0
 40
0.12
  1
3.  GEOTEXTILE TO MEET THE REQUIREMENTS OF CEGS 02274.
 41
0.833333
  7
Style-Arial
100
AcDbText
  0
TEXT
  5
3FA
330
48C
100
AcDbEntity
  8
NOTES
  6
Continuous
 62
     7
370
    30
100
AcDbText
 10
15.534863
 20
-10.063604
 30
0.0
 40
0.12
  1
4.  GEOTEXTILE INSTALLATION ON CURVES WILL BE SIMILAR.
 41
0.833333
  7
Style-Arial
100
AcDbText
  0
TEXT
  5
3FB
330
48C
100
AcDbEntity
  8
TEXT
  6
Continuous
 62
     7
370
    30
100
AcDbText
 10
18.386198
 20
-8.389121
 30
0.0
 40
0.12
  1
NO TO SCALE
 41
0.833333
  7
Style-Arial
100
AcDbText
  0
TEXT
  5
428
330
48C
100
AcDbEntity
  8
NOTES
  6
Continuous
 62
     7
370
    30
100
AcDbText
 10
15.728663
 20
-9.14151
 30
0.0
 40
0.12
  1
DENSITY, AND WHEEL LOADS.
 41
0.833333
  7
Style-Arial
100
AcDbText
  0
ENDSEC
  0
SECTION
  2
OBJECTS
  0
DICTIONARY
  5
480
330
0
100
AcDbDictionary
281
     1
  3
ACAD_COLOR
350
49F
  3
ACAD_GROUP
350
49C
  3
ACAD_LAYOUT
350
490
  3
ACAD_MATERIAL
350
49E
  3
ACAD_MLINESTYLE
350
48A
  3
ACAD_PLOTSETTINGS
350
49D
  3
ACAD_PLOTSTYLENAME
350
47F
  3
ACAD_TABLESTYLE
350
4BA
  3
AcadDim
350
4AC
  3
MicroStation
350
4A4
  0
DICTIONARY
  5
47C
330
47B
100
AcDbDictionary
280
     1
281
     1
  3
ACAD_LAYERFILTERS
360
4A3
  3
ACAD_LAYERSTATES
360
47D
  0
DICTIONARY
  5
4B6
330
48C
100
AcDbDictionary
280
     1
281
     1
  3
ACAD_SORTENTS
360
4B7
  0
DICTIONARY
  5
49F
102
{ACAD_REACTORS
330
480
102
}
330
480
100
AcDbDictionary
281
     1
  0
DICTIONARY
  5
49C
102
{ACAD_REACTORS
330
480
102
}
330
480
100
AcDbDictionary
281
     1
  0
DICTIONARY
  5
490
102
{ACAD_REACTORS
330
480
102
}
330
480
100
AcDbDictionary
281
     1
  3
Layout1
350
494
  3
Model
350
48F
  0
DICTIONARY
  5
49E
102
{ACAD_REACTORS
330
480
102
}
330
480
100
AcDbDictionary
281
     1
  0
DICTIONARY
  5
48A
102
{ACAD_REACTORS
330
480
102
}
330
480
100
AcDbDictionary
281
     1
  3
Standard
350
489
  0
DICTIONARY
  5
49D
102
{ACAD_REACTORS
330
480
102
}
330
480
100
AcDbDictionary
281
     1
  0
ACDBDICTIONARYWDFLT
  5
47F
102
{ACAD_REACTORS
330
480
102
}
330
480
100
AcDbDictionary
281
     1
  3
Normal
350
47E
100
AcDbDictionaryWithDefault
340
47E
  0
DICTIONARY
  5
4BA
102
{ACAD_REACTORS
330
480
102
}
330
480
100
AcDbDictionary
281
     1
  0
XRECORD
  5
4AC
102
{ACAD_REACTORS
330
480
102
}
330
480
100
AcDbXrecord
280
     1
 90
   990106
  3
 
 60
     0
 61
     0
 62
     1
 63
     1
 64
     0
 65
     0
 66
     0
 67
     3
 68
     1
 69
     1
 70
     0
 71
     0
 72
     0
 40
0.0
170
     0
  0
DICTIONARY
  5
4A4
102
{ACAD_REACTORS
330
480
102
}
330
480
100
AcDbDictionary
281
     1
  3
ApplicationElement 1139
350
473
  3
ModelApplicationElement 0 1138
350
472
  0
DICTIONARY
  5
4A3
102
{ACAD_REACTORS
330
47C
102
}
330
47C
100
AcDbDictionary
281
     1
  0
DICTIONARY
  5
47D
102
{ACAD_REACTORS
330
47C
102
}
330
47C
100
AcDbDictionary
281
     1
  0
SORTENTSTABLE
  5
4B7
102
{ACAD_REACTORS
330
4B6
102
}
330
4B6
100
AcDbSortentsTable
330
48C
331
385
  5
3CC
331
386
  5
385
331
387
  5
386
331
388
  5
387
331
389
  5
388
331
38A
  5
3CD
331
38B
  5
3CE
331
38C
  5
3CF
331
38D
  5
389
331
38E
  5
38A
331
38F
  5
3D0
331
390
  5
3D1
331
391
  5
3D2
331
392
  5
3D3
331
393
  5
38B
331
394
  5
38C
331
395
  5
38D
331
396
  5
38E
331
397
  5
38F
331
398
  5
3D4
331
399
  5
390
331
39A
  5
3D5
331
39B
  5
3D6
331
39C
  5
391
331
39D
  5
392
331
39E
  5
393
331
39F
  5
394
331
3A0
  5
395
331
3A1
  5
396
331
3A2
  5
397
331
3A3
  5
398
331
3A4
  5
3D7
331
3A5
  5
3D8
331
3A6
  5
399
331
3A7
  5
39A
331
3A8
  5
3D9
331
3A9
  5
39B
331
3AA
  5
39C
331
3AB
  5
3DB
331
3AC
  5
39D
331
3AD
  5
3DD
331
3AE
  5
3DF
331
3AF
  5
3E1
331
3B0
  5
39E
331
3B1
  5
39F
331
3B2
  5
3E3
331
3B3
  5
3A0
331
3B4
  5
3A1
331
3B5
  5
3E5
331
3B6
  5
3A2
331
3B7
  5
3A3
331
3B8
  5
3E7
331
3B9
  5
3E9
331
3BA
  5
3EB
331
3BB
  5
3ED
331
3BC
  5
3EF
331
3BD
  5
3A4
331
3BE
  5
3A5
331
3BF
  5
3A6
331
3C0
  5
3F1
331
3C1
  5
3A7
331
3C2
  5
3F2
331
3C3
  5
3A8
331
3C4
  5
3A9
331
3C5
  5
3AA
331
3C6
  5
3AB
331
3C7
  5
3AC
331
3C8
  5
3F3
331
3C9
  5
3AD
331
3CA
  5
3AE
331
3CB
  5
3AF
331
3CC
  5
3B0
331
3CD
  5
3B1
331
3CE
  5
3B2
331
3CF
  5
3B3
331
3D0
  5
3B4
331
3D1
  5
3B5
331
3D2
  5
3B6
331
3D3
  5
3B7
331
3D4
  5
3B8
331
3D5
  5
3B9
331
3D6
  5
3BA
331
3D7
  5
3F4
331
3D8
  5
3BB
331
3D9
  5
3BC
331
3DB
  5
3BD
331
3DD
  5
3BE
331
3DF
  5
3BF
331
3E1
  5
3C0
331
3E3
  5
3C1
331
3E5
  5
3C2
331
3E7
  5
3C3
331
3E9
  5
3C4
331
3EB
  5
3C5
331
3ED
  5
3C6
331
3EF
  5
3C7
331
3F1
  5
3F5
331
3F2
  5
3F6
331
3F3
  5
3F7
331
3F4
  5
3F8
331
3F5
  5
3F9
331
3F6
  5
3FA
331
3F7
  5
3FB
331
3F8
  5
3FC
331
3F9
  5
407
331
3FA
  5
412
331
3FB
  5
41D
331
3FC
  5
3C8
331
407
  5
3C9
331
412
  5
3CA
331
41D
  5
3CB
  0
LAYOUT
  5
494
102
{ACAD_REACTORS
330
490
330
490
102
}
102
{ACAD_XDICTIONARY
360
495
102
}
330
490
100
AcDbPlotSettings
  1

  2
none_device
  4
Letter_(8.50_x_11.00_Inches)
  6

 40
6.35
 41
6.35
 42
6.350006
 43
6.350006
 44
215.899994
 45
279.399994
 46
0.0
 47
0.0
 48
0.0
 49
0.0
140
0.0
141
0.0
142
1.0
143
1.0
 70
   688
 72
     0
 73
     1
 74
     5
  7

 75
    16
 76
     0
 77
     2
 78
   300
147
1.0
148
0.0
149
0.0
100
AcDbLayout
  1
Layout1
 70
     1
 71
     1
 10
-0.25
 20
-0.25
 11
10.75
 21
8.25
 12
0.0
 22
0.0
 32
0.0
 14
1.049744
 24
0.799667
 34
-0.001526
 15
9.450623
 25
7.200577
 35
0.0
146
0.0
 13
0.0
 23
0.0
 33
0.0
 16
1.0
 26
0.0
 36
0.0
 17
0.0
 27
1.0
 37
0.0
 76
     0
330
491
1001
ACAD_PSEXT
1000
None
1000
None
1000
Not applicable
1000
The layout will not be plotted unless a new plotter configuration name is selected.
1070
     0
  0
LAYOUT
  5
48F
102
{ACAD_REACTORS
330
490
330
490
102
}
330
490
100
AcDbPlotSettings
  1

  2
none_device
  4
ANSI_A_(8.50_x_11.00_Inches)
  6

 40
6.35
 41
19.049999
 42
6.350006
 43
19.049988
 44
215.899994
 45
279.399994
 46
0.0
 47
0.0
 48
0.0
 49
0.0
140
0.0
141
0.0
142
1.0
143
2.584895
 70
 11952
 72
     0
 73
     1
 74
     0
  7

 75
     0
 76
     0
 77
     2
 78
   300
147
0.386863
148
0.0
149
0.0
100
AcDbLayout
  1
Model
 70
     1
 71
     0
 10
0.0
 20
0.0
 11
12.0
 21
9.0
 12
0.0
 22
0.0
 32
0.0
 14
0.0
 24
0.0
 34
0.0
 15
0.0
 25
0.0
 35
0.0
146
0.0
 13
0.0
 23
0.0
 33
0.0
 16
1.0
 26
0.0
 36
0.0
 17
0.0
 27
1.0
 37
0.0
 76
     0
330
48C
331
49
  0
MLINESTYLE
  5
489
102
{ACAD_REACTORS
330
48A
102
}
330
48A
100
AcDbMlineStyle
  2
STANDARD
 70
     0
  3

 62
   256
 51
90.0
 52
90.0
 71
     2
 49
0.5
 62
   256
  6
BYLAYER
 49
-0.5
 62
   256
  6
BYLAYER
  0
ACDBPLACEHOLDER
  5
47E
102
{ACAD_REACTORS
330
47F
102
}
330
47F
  0
XRECORD
  5
473
102
{ACAD_REACTORS
330
4A4
102
}
330
4A4
100
AcDbXrecord
280
     1
310
3E4F020000004D6F64656C6572000000000000000000000000000000000000000000000000000000000000000000000000000000000000000000000000000000000000000000000000000000000000000000000000000000000000000000000000000000000000000000000000000000000000000000000000000000000000
310
00000000000000000000000000000000000000000000000000000000000000000000000000000000000000000000000000000000000000000000000000000000000000000000000000000000000000000000000000000000000000000000000000000000000000000000000000000000000000000000000000000000000000
310
00
310
00000000000000000000000000000000000000000000000000000000000000000000000000000000000000000000000000000000000000000000000000000000000000000000000000000000000000000000000000000000000000000000000000000000000000000000000000000000000000000000000000000000000000
310
00000000000000000000000000000000000000000000000000000000000000000000000000000000000000000000000000000000000000000000000000000000000000000000000000000000000000000000000000000000000000000000000000000000000000000000000000000000000000000000000000000000000000
310
00
310
00000000000000000000000000000000000000000000000000000000000000000000000000000000000000000000000000000000000000000000000000000000000000000000000000000000000000000000000000000000000000000000000000000000000000000000000000000000000000000000000000000000000000
310
00000000000000000000000000000000000000000000000000000000000000000000000000000000000000000000000000000000000000000000000000000000000000000000000000000000000000000000000000000000000000000000000000000000000000000000000000000000000000000000000000000000000000
310
00
310
00000000000000000000000000000000000000000000000000000000000000000000000000000000000000000000000000000000000000000000000000000000000000000000000000000000000000000000000000000000000000000000000000000000000000000000000000000000000000000000000000000000000000
310
00000000000000000000000000000000000000000000000000000000000000000000000000000000000000000000000000000000000000000000000000000000000000000000000000000000000000000000000000000000000000000000000000000000000000000000000000000000000000000000000000000000000000
310
00
310
00000000000000000000000000000000000000000000000000000000000000000000000000000000000000000000000000000000000000000000000000000000000000000000000000000000000000000000000000000000000000000000000000000000000000000000000000000000000000000000000000000000000000
310
00000000000000000000000000000000000000000000000000000000000000000000000000000000000000000000000000000000000000000000000000000000000000000000000000000000000000000000000000000000000000000000000000000000000000000000000000000000000000000000000000000000000000
310
00
310
00000000000000000000000000000000000000000000000000000000000000000000000000000000000000000000000000000000000000000000000000000000000000000000000000000000000000000000000000000000000000000000000000000000000000000000000000000000000000000000000000000000000000
310
00000000000000000000000000000000000000000000000000000000000000000000000000000000000000000000000000000000000000000000000000000000000000000000000000000000000000000000000000000000000000000000000000000000000000000000000000000000000000000000000000000000000000
310
00
310
00000000000000000000000000000000000000000000000000000000000000000000000000000000000000000000000000000000000000000000000000000000000000000000000000000000000000000000000000000000000000000000000000000000000000000000000000000000000000000000000000000000000000
310
00000000000000000000000000000000000000000000000000000000000000000000000000000000000000000000000000000000000000000000000000000000000000000000000000000000000000000000000000000000000000000000000000000000000000000000000000000000000000000000000000000000000000
310
00
310
00000000000000000000000000000000000000000000000000000000000000000000000000000000000000000000000000000000000000000000000000000000000000000000000000000000000000000000000000000000000000000000000000000000000000000000000000000000000000000000000000000000000000
310
00000000000000000000000000000000000000000000000000000000000000000000000000000000000000000000000000000000000000000000000000000000000000000000000000000000000000000000000000000000000000000000000000000000000000000000000000000000000000000000000000000000000000
310
00
310
00000000000000000000000000000000000000000000000000000000000000000000000000000000000000000000000000000000000000000000000000000000000000000000000000000000000000000000000000000000000000000000000000000000000000000000000000000000000000000000000000000000000000
310
00000000000000000000000000000000000000000000000000000000000000000000000000000000000000000000000000000000000000000000000000000000000000000000000000000000000000000000000000000000000000000000000000000000000000000000000000000000000000000000000000000000000000
310
00
310
00000000000000000000000000000000000000000000000000000000000000000000000000000000000000000000000000000000000000000000000000000000000000000000000000000000000000000000000000000000000000000000000000000000000000000000000000000000000000000000000000000000000000
310
00000000000000000000000000000000000000000000000000000000000000000000000000000000000000000000000000000000000000000000000000000000000000000000000000000000000000000000000000000000000000000000000000000000000000000000000000000000000000000000000000000000000000
310
00
310
00000000000000000000000000000000000000000000000000000000000000000000000000000000000000000000000000000000000000000000000000000000000000000000000000000000000000000000000000000000000000000000000000000000000000000000000000000000000000000000000000000000000000
310
00000000000000000000000000000000000000000000000000000000000000000000000000000000000000000000000000000000000000000000000000000000000000000000000000000000000000000000000000000000000000000000000000000000000000000000000000000000000000000000000000000000000000
310
00
310
00000000000000000000000000000000000000000000000000000000000000000000000000000000000000000000000000000000000000000000000000000000000000000000000000000000000000000000000000000000000000000000000000000000000000000000000000000000000000000000000000000000000000
310
00000000000000000000000000000000000000000000000000000000000000000000000000000000000000000000000000000000000000000000000000000000000000000000000000000000000000000000000000000000000000000000000000000000000000000000000000000000000000000000000000000000000000
310
00
310
00000000000000000000000000000000000000000000000000000000000000000000000000000000000000000000000000000000000000000000000000000000000000000000000000000000000000000000000000000000000000000000000000000000000000000000000000000000000000000000000000000000000000
310
00000000000000000000000000000000000000000000000000000000000000000000000000000000000000000000000000000000000000000000000000000000000000000000000000000000000000000000000000000000000000000000000000000000000000000000000000000000000000000000000000000000000000
310
00
310
00000000000000000000000000000000000000000000000000000000000000000000000000000000000000000000000000000000000000000000000000000000000000000000000000000000000000000000000000000000000000000000000000000000000000000000000000000000000000
  0
XRECORD
  5
472
102
{ACAD_REACTORS
330
4A4
102
}
330
4A4
100
AcDbXrecord
280
     1
310
DF56060034040701D0009A9999999999B93F000000000000000000000000000000000400000009000000000000000200000064000000640000000100000001000000190000007B14AE47E17A843F00000000004060409A9999999999B93F00000000004C2D41000000000070F7400000000000942141000000000000000000
310
0000000000000000000000000000000AD482040000000000000000000000000000F03F000000000000000000000000000030402D431CEBE2362A3F00000000000008400000000000000000009807C000000000000000007C1A61B9A711364020000000050000000A000000200000002000000020000000000000000000F03F
310
00
310
0000000000F03F000000000000F03F333333333333D33F333333333333D33F333333333333D33F000000000000F43F000000000000F43F000000000000F03F0200000064000000000000000000000000000840000000000000F83F00000000000000000000000000000000008056409A9999999999B93F0000000000000000
310
00000000000000000000000000000000000000000000000000000000000000000000000000000000000000000000000000000000000000000000000000000000000000000000000000000000000000000000000000000000000000000000000000000000000000000000000000000000000000000000000000000000000000
310
00
310
0000000000000000000000000000000000000000000000000000000000000000000000000000000000000000000000000000000000000000000000000000000000000000000000000000000000000000000000000000000000000000000000000000000000000000000000000000000000000000000000009A9999999999A9
310
3F9100000000000000000000000000000035A781D547960F40000000000000F03F000000000000F03F666666666666164000000000104068F200000000000000000000000000000000000000000000000000000000000000000000000000000000000000000000000000000000000000000000000000000000000000000000
310
00
310
00000000000000000000000000000000000000000000000000000000000000000000000000000000000000000000000000000000000000000000000000000000000000000000000000000000000000000000000000000000000000000000000000000000000000000000000000000000000000000000000000000000000000
310
000000000000000000000000000000000000000000000000000000000000000000000000000000000000000000000000000000000000000000000000FF000000000000000000000000000000000000000000000000000000000000000000000000000000000000000000000000000000000000000000000000000000000000
310
00
310
0000000000000000000000000000000000000000000000000000000000000000000000000000000000000000000000000000000000000000000000000000000000000000
  0
DICTIONARY
  5
495
330
494
100
AcDbDictionary
280
     1
281
     1
  3
ADSK_XREC_LAYOUTTHUMBNAIL
360
496
  0
XRECORD
  5
496
102
{ACAD_REACTORS
330
495
102
}
330
495
100
AcDbXrecord
280
     1
310
28000000B40000008B0000000100080000000000BC61000000000000000000000001000000000000FFFFFF0000000000FFFFFF000000000000000000000000000000000000000000000000000000000000000000330000006600000099000000CC000000FF00000000330000333300006633000099330000CC330000FF3300
310
0000660000336600006666000099660000CC660000FF66000000990000339900006699000099990000CC990000FF99000000CC000033CC000066CC000099CC0000CCCC0000FFCC000000FF000033FF000066FF000099FF0000CCFF0000FFFF000000003300330033006600330099003300CC003300FF003300003333003333
310
33006633330099333300CC333300FF33330000663300336633006666330099663300CC663300FF66330000993300339933006699330099993300CC993300FF99330000CC330033CC330066CC330099CC3300CCCC3300FFCC330000FF330033FF330066FF330099FF3300CCFF3300FFFF330000006600330066006600660099
310
006600CC006600FF00660000336600333366006633660099336600CC336600FF33660000666600336666006666660099666600CC666600FF66660000996600339966006699660099996600CC996600FF99660000CC660033CC660066CC660099CC6600CCCC6600FFCC660000FF660033FF660066FF660099FF6600CCFF6600
310
FFFF660000009900330099006600990099009900CC009900FF00990000339900333399006633990099339900CC339900FF33990000669900336699006666990099669900CC669900FF66990000999900339999006699990099999900CC999900FF99990000CC990033CC990066CC990099CC9900CCCC9900FFCC990000FF99
310
0033FF990066FF990099FF9900CCFF9900FFFF99000000CC003300CC006600CC009900CC00CC00CC00FF00CC000033CC003333CC006633CC009933CC00CC33CC00FF33CC000066CC003366CC006666CC009966CC00CC66CC00FF66CC000099CC003399CC006699CC009999CC00CC99CC00FF99CC0000CCCC0033CCCC0066CC
310
CC0099CCCC00CCCCCC00FFCCCC0000FFCC0033FFCC0066FFCC0099FFCC00CCFFCC00FFFFCC000000FF003300FF006600FF009900FF00CC00FF00FF00FF000033FF003333FF006633FF009933FF00CC33FF00FF33FF000066FF003366FF006666FF009966FF00CC66FF00FF66FF000099FF003399FF006699FF009999FF00CC
310
99FF00FF99FF0000CCFF0033CCFF0066CCFF0099CCFF00CCCCFF00FFCCFF0000FFFF0033FFFF0066FFFF0099FFFF00CCFFFF00FFFFFF00000000000D0D0D001A1A1A00282828003535350043434300505050005D5D5D006B6B6B00787878008686860093939300A1A1A100AEAEAE00BBBBBB00C9C9C900D6D6D600E4E4E400
310
F1F1F100FFFFFF0000000000000000000000000000000000000000000000000000000000000000000000000000000000E2E2E2E2E2E2E2E2E2E2E2E2E2E2E2E2E2E2E2E2E2E2E2E2E2E2E2E2E2E2E2E2E2E2E2E2E2E2E2E2E2E2E2E2E2E2E2E2E2E2E2E2E2E2E2E2E2E2E2E2E2E2E2E2E2E2E2E2E2E2E2E2E2E2E2E2E2E2E2
310
E2E2E2E2E2E2E2E2E2E2E2E2E2E2E2E2E2E2E2E2E2E2E2E2E2E2E2E2E2E2E2E2E2E2E2E2E2E2E2E2E2E2E2E2E2E2E2E2E2E2E2E2E2E2E2E2E2E2E2E2E2E2E2E2E2E2E2E2E2E2E2E2E2E2E2E2E2E2E2E2E2E2E2E2E2E2E2E2E2E2E2E2E2E2E2E2E2E2E2E2EFF5F5F5F5F5F5F5F5F5F5F5F5F5F5F5F5F5F5F5F5F5F5F5F5F5F5
310
F5F5F5F5F5F5F5F5F5F5F5F5F5F5F5F5F5F5F5F5F5F5F5F5F5F5F5F5F5F5F5F5F5F5F5F5F5F5F5F5F5F5F5F5F5F5F5F5F5F5F5F5F5F5F5F5F5F5F5F5F5F5F5F5F5F5F5F5F5F5F5F5F5F5F5F5F5F5F5F5F5F5F5F5F5F5F5F5F5F5F5F5F5F5F5F5F5F5F5F5F5F5F5F5F5F5F5F5F5F5F5F5F5F5F5F5F5F5F5F5F5F5F5F5F5F5F5
310
F5F5F5F5F5F5F5F5F5F5F5F5F5F5F5F5F5F5F5F5F5F5F5F5E2E2EFF5F5F5F5F5F5F5F5F5F5F5F5F5F5F5F5F5F5F5F5F5F5F5F5F5F5F5F5F5F5F5F5F5F5F5F5F5F5F5F5F5F5F5F5F5F5F5F5F5F5F5F5F5F5F5F5F5F5F5F5F5F5F5F5F5F5F5F5F5F5F5F5F5F5F5F5F5F5F5F5F5F5F5F5F5F5F5F5F5F5F5F5F5F5F5F5F5F5F5F5
310
F5F5F5F5F5F5F5F5F5F5F5F5F5F5F5F5F5F5F5F5F5F5F5F5F5F5F5F5F5F5F5F5F5F5F5F5F5F5F5F5F5F5F5F5F5F5F5F5F5F5F5F5F5F5F5F5F5F5F5F5F5F5F5F5F5F5F5F5F5F5F5F5F5F5F5F5F5E2E2EFF5F5F5F5F5F5F5F5F5F5F5F5F5F5F5F5F5F5F5F5F5F5F5F5F5F5F5F5F5F5F5F5F5F5F5F5F5F5F5F5F5F5F5F5F5F5F5
310
F5F5F5F5F5F5F5F5F5F5F5F5F5F5F5F5F5F5F5F5F5F5F5F5F5F5F5F5F5F5F5F5F5F5F5F5F5F5F5F5F5F5F5F5F5F5F5F5F5F5F5F5F5F5F5F5F5F5F5F5F5F5F5F5F5F5F5F5F5F5F5F5F5F5F5F5F5F5F5F5F5F5F5F5F5F5F5F5F5F5F5F5F5F5F5F5F5F5F5F5F5F5F5F5F5F5F5F5F5F5F5F5F5F5F5F5F5F5F5F5F5F5F5F5F5F5F5
310
F5F5F5E2E2EFF5F5F5E2E2E2E2E2E2E2E2F5F5F5F5F5F5F5F5F5E2E2E2E2E2E2E2E2E2E2E2E2E2E2E2E2F5F5F5F5F5F5F5F5E2E2E2E2E2E2E2E2E2E2E2E2E2E2E2E2F5F5F5F5F5F5F5F5F5E2E2E2E2E2E2E2E2E2E2E2E2E2E2E2F5F5F5F5F5F5F5F5F5E2E2E2E2E2E2E2E2E2E2E2E2E2E2E2F5F5F5F5F5F5F5F5F5E2E2E2E2
310
E2E2E2E2E2E2E2E2E2E2E2E2F5F5F5F5F5F5F5F5E2E2E2E2E2E2E2E2E2E2E2E2E2E2E2E2F5F5F5F5F5F5F5F5F5E2E2E2E2E2E2E2E2F5F5F5E2E2EFF5F5F5E2F5F5F5F5F5F5F5F5F5F5F5F5F5F5F5F5F5F5F5F5F5F5F5F5F5F5F5F5F5F5F5F5F5F5F5F5F5F5F5F5F5F5F5F5F5F5F5F5F5F5F5F5F5F5F5F5F5F5F5F5F5F5F5F5
310
F5F5F5F5F5F5F5F5F5F5F5F5F5F5F5F5F5F5F5F5F5F5F5F5F5F5F5F5F5F5F5F5F5F5F5F5F5F5F5F5F5F5F5F5F5F5F5F5F5F5F5F5F5F5F5F5F5F5F5F5F5F5F5F5F5F5F5F5F5F5F5F5F5F5F5F5F5F5F5F5F5F5F5F5F5F5F5F5F5F5F5F5F5F5F5F5F5F5F5F5F5F5F5F5F5E2F5F5F5E2E2EFF5F5F5E2F5F5F5F5F5F5F5F5F5F5F5
310
F5F5F5F5F5F5F5F5F5F5F5F5F5F5F5F5F5F5F5F5F5F5F5F5F5F5F5F5F5F5F5F5F5F5F5F5F5F5F5F5F5F5F5F5F5F5F5F5F5F5F5F5F5F5F5F5F5F5F5F5F5F5F5F5F5F5F5F5F5F5F5F5F5F5F5F5F5F5F5F5F5F5F5F5F5F5F5F5F5F5F5F5F5F5F5F5F5F5F5F5F5F5F5F5F5F5F5F5F5F5F5F5F5F5F5F5F5F5F5F5F5F5F5F5F5F5F5
310
F5F5F5F5F5F5F5F5F5F5F5F5F5F5F5F5F5F5F5F5F5F5F5F5F5F5F5F5F5F5F5E2F5F5F5E2E2EFF5F5F5E2F5F5F5F5F5F5F5F5F5F5F5F5F5F5F5F5F5F5F5F5F5F5F5F5F5F5F5F5F5F5F5F5F5F5F5F5F5F5F5F5F5F5F5F5F5F5F5F5F5F5F5F5F5F5F5F5F5F5F5F5F5F5F5F5F5F5F5F5F5F5F5F5F5F5F5F5F5F5F5F5F5F5F5F5F5
310
F5F5F5F5F5F5F5F5F5F5F5F5F5F5F5F5F5F5F5F5F5F5F5F5F5F5F5F5F5F5F5F5F5F5F5F5F5F5F5F5F5F5F5F5F5F5F5F5F5F5F5F5F5F5F5F5F5F5F5F5F5F5F5F5F5F5F5F5F5F5F5F5F5F5F5F5F5F5F5F5F5F5F5F5E2F5F5F5E2E2EFF5F5F5E2F5F5F5F5F5F5F5F5F5F5F5F5F5F5F5F5F5F5F5F5F5F5F5F5F5F5F5F5F5F5F5F5
310
F5F5F5F5F5F5F5F5F5F5F5F5F5F5F5F5F5F5F5F5F5F5F5F5F5F5F5F5F5F5F5F5F5F5F5F5F5F5F5F5F5F5F5F5F5F5F5F5F5F5F5F5F5F5F5F5F5F5F5F5F5F5F5F5F5F5F5F5F5F5F5F5F5F5F5F5F5F5F5F5F5F5F5F5F5F5F5F5F5F5F5F5F5F5F5F5F5F5F5F5F5F5F5F5F5F5F5F5F5F5F5F5F5F5F5F5F5F5F5F5F5F5F5F5F5F5F5
310
F5F5F5F5F5F5F5F5F5F5E2F5F5F5E2E2EFF5F5F5E2F5F5F5F5F5F5F5F5F5F5F5F5F5F5F5F5F5F5F5F5F5F5F5F5F5F5F5F5F5F5F5F5F5F5F5F5F5F5F5F5F5F5F5F5F5F5F5F5F5F5F5F5F5F5F5F5F5F5F5F5F5F5F5F5F5F5F5F5F5F5F5F5F5F5F5F5F5F5F5F5F5F5F5F5F5F5F5F5F5F5F5F5F5F5F5F5F5F5F5F5F5F5F5F5F5F5
310
F5F5F5F5F5F5F5F5F5F5F5F5F5F5F5F5F5F5F5F5F5F5F5F5F5F5F5F5F5F5F5F5F5F5F5F5F5F5F5F5F5F5F5F5F5F5F5F5F5F5F5F5F5F5F5F5F5F5F5F5F5F5F5E2F5F5F5E2E2EFF5F5F5E2F5F5F5F5F5F5F5F5F5F5F5F5F5F5F5F5F5F5F5F5F5F5F5F5F5F5F5F5F5F5F5F5F5F5F5F5F5F5F5F5F5F5F5F5F5F5F5F5F5F5F5F5F5
310
F5F5F5F5F5F5F5F5F5F5F5F5F5F5F5F5F5F5F5F5F5F5F5F5F5F5F5F5F5F5F5F5F5F5F5F5F5F5F5F5F5F5F5F5F5F5F5F5F5F5F5F5F5F5F5F5F5F5F5F5F5F5F5F5F5F5F5F5F5F5F5F5F5F5F5F5F5F5F5F5F5F5F5F5F5F5F5F5F5F5F5F5F5F5F5F5F5F5F5F5F5F5F5F5F5F5F5F5F5F5F5F5F5F5F5F5E2F5F5F5E2E2EFF5F5F5E2
310
F5F5F5F5F5F5F5F5F5F5F5F5F5F5F5F5F5F5F5F5F5F5F5F5F5F5F5F5F5F5F5F5F5F5F5F5F5F5F5F5F5F5F5F5F5F5F5F5F5F5F5F5F5F5F5F5F5F5F5F5F5F5F5F5F5F5F5F5F5F5F5F5F5F5F5F5F5F5F5F5F5F5F5F5F5F5F5F5F5F5F5F5F5F5F5F5F5F5F5F5F5F5F5F5F5F5F5F5F5F5F5F5F5F5F5F5F5F5F5F5F5F5F5F5F5F5F5
310
F5F5F5F5F5F5F5F5F5F5F5F5F5F5F5F5F5F5F5F5F5F5F5F5F5F5F5F5F5F5F5F5F5F5F5F5F5F5F5F5F5F5E2F5F5F5E2E2EFF5F5F5E2F5F5F5F5F5F5F5F5F5F5F5F5F5F5F5F5F5F5F5F5F5F5F5F5F5F5F5F5F5F5F5F5F5F5F5F5F5F5F5F5F5F5F5F5F5F5F5F5F5F5F5F5F5F5F5F5F5F5F5F5F5F5F5F5F5F5F5F5F5F5F5F5F5F5
310
F5F5F5F5F5F5F5F5F5F5F5F5F5F5F5F5F5F5F5F5F5F5F5F5F5F5F5F5F5F5F5F5F5F5F5F5F5F5F5F5F5F5F5F5F5F5F5F5F5F5F5F5F5F5F5F5F5F5F5F5F5F5F5F5F5F5F5F5F5F5F5F5F5F5F5F5F5F5F5F5F5F5F5F5F5F5F5F5F5F5F5F5F5F5F5E2F5F5F5E2E2EFF5F5F5F5F5F5F5F5F5F5F5F5F5F5F5F5F5F5F5F5F5F5F5F5F5
310
F5F5F5F5F5F5F5F5F5F5F5F5F5F5F5F5F5F5F5F5F5F5F5F5F5F5F5F5F5F5F5F5F5F5F5F5F5F5F5F5F5F5F5F5F5F5F5F5F5F5F5F5F5F5F5F5F5F5F5F5F5F5F5F5F5F5F5F5F5F5F5F5F5F5F5F5F5F5F5F5F5F5F5F5F5F5F5F5F5F5F5F5F5F5F5F5F5F5F5F5F5F5F5F5F5F5F5F5F5F5F5F5F5F5F5F5F5F5F5F5F5F5F5F5F5F5F5
310
F5F5F5F5F5F5F5F5F5F5F5F5F5F5F5F5F5F5F5F5F5F5F5F5F5E2E2EFF5F5F5F5F5F5F5F5F5F5F5F5F5F5F5F5F5F5F5F5F5F5F5F5F5F5F5F5F5F5F5F5F5F5F5F5F5F5F5F5F5F5F5F5F5F5F5F5F5F5F5F5F5F5F5F5F5F5F5F5F5F5F5F5F5F5F5F5F5F5F5F5F5F5F5F5F5F5F5F5F5F5F5F5F5F5F5F5F5F5F5F5F5F5F5F5F5F5F5
310
F5F5F5F5F5F5F5F5F5F5F5F5F5F5F5F5F5F5F5F5F5F5F5F5F5F5F5F5F5F5F5F5F5F5F5F5F5F5F5F5F5F5F5F5F5F5F5F5F5F5F5F5F5F5F5F5F5F5F5F5F5F5F5F5F5F5F5F5F5F5F5F5F5F5F5F5F5F5E2E2EFF5F5F5F5F5F5F5F5F5F5F5F5F5F5F5F5F5F5F5F5F5F5F5F5F5F5F5F5F5F5F5F5F5F5F5F5F5F5F5F5F5F5F5F5F5F5
310
F5F5F5F5F5F5F5F5F5F5F5F5F5F5F5F5F5F5F5F5F5F5F5F5F5F5F5F5F5F5F5F5F5F5F5F5F5F5F5F5F5F5F5F5F5F5F5F5F5F5F5F5F5F5F5F5F5F5F5F5F5F5F5F5F5F5F5F5F5F5F5F5F5F5F5F5F5F5F5F5F5F5F5F5F5F5F5F5F5F5F5F5F5F5F5F5F5F5F5F5F5F5F5F5F5F5F5F5F5F5F5F5F5F5F5F5F5F5F5F5F5F5F5F5F5F5F5
310
F5F5F5F5E2E2EFF5F5F5F5F5F5F5F5F5F5F5F5F5F5F5F5F5F5F5F5F5F5F5F5F5F5F5F5F5F5F5F5F5F5F5F5F5F5F5F5F5F5F5F5F5F5F5F5F5F5F5F5F5F5F5F5F5F5F5F5F5F5F5F5F5F5F5F5F5F5F5F5F5F5F5F5F5F5F5F5F5F5F5F5F5F5F5F5F5F5F5F5F5F5F5F5F5F5F5F5F5F5F5F5F5F5F5F5F5F5F5F5F5F5F5F5F5F5F5F5
310
F5F5F5F5F5F5F5F5F5F5F5F5F5F5F5F5F5F5F5F5F5F5F5F5F5F5F5F5F5F5F5F5F5F5F5F5F5F5F5F5F5F5F5F5F5F5F5F5F5F5F5F5F5F5F5F5F5E2E2EFF5F5F5F5F5F5F5F5F5F5F5F5F5F5F5F5F5F5F5F5E2E2E2E2E2E2E2E2E2E2E2E2E2E2E2E2E2E2E2E2E2E2E2E2E2E2E2E2E2E2E2E2E2E2E2E2E2E2E2E2E2E2E2E2E2E2E2
310
E2E2E2E2E2E2E2E2E2E2E2E2E2E2E2E2E2E2E2E2E2E2E2E2E2E2E2E2E2E2E2E2E2E2E2E2E2E2E2E2E2E2E2E2E2E2E2E2E2E2E2E2E2E2E2E2E2E2E2E2E2E2E2E2E2E2E2E2E2E2E2E2E2E2E2E2E2E2E2E2E2E2E2E2E2E2E2E2E2E2F5F5F5F5F5F5F5F5F5F5F5F5F5F5F5F5F5F5F5F5E2E2EFF5F5F5F5F5F5F5F5F5F5F5F5F5F5
310
F5F5F5F5F5F5E2F5F5F5F5F5F5F5F5F5F5F5F5F5F5F5F5F5F5F5F5F5F5F5F5F5F5F5F5F5F5F5F5F5F5F5F5F5F5F5F5F5F5F5F5F5F5F5F5F5F5F5F5F5F5F5F5F5F5F5F5F5F5F5F5F5F5F5F5F5F5F5F5F5F5F5F5F5F5F5F5F5F5F5F5F5F5F5F5F5F5F5F5F5F5F5F5F5F5F5F5F5F5F5F5F5F5F5F5F5F5F5F5F5F5F5F5F5F5F5F5
310
F5F5F5F5F5F5F5F5F5F5F5F5F5F5F5E2F5F5F5F5F5F5F5F5F5F5F5F5F5F5F5F5F5F5F5F5E2E2EFF5F5F5F5F5F5F5F5F5F5F5F5F5F5F5F5F5F5F5F5E2F5F5F5F5F5F5F5F5F5F5F5F5F5F5F5F5F5F5F5F5F5F5F5F5F5F5F5F5F5F5F5F5F5F5F5F5F5F5F5F5F5F5F5F5F5F5F5F5F5F5F5F5F5F5F5F5F5F5F5F5F5F5F5F5F5F5F5
310
F5F5F5F5F5F5F5F5F5F5F5F5F5F5F5F5F5F5F5F5F5F5F5F5F5F5F5F5F5F5F5F5F5F5F5F5F5F5F5F5F5F5F5F5F5F5F5F5F5F5F5F5F5F5F5F5F5F5F5F5F5F5F5F5F5F5F5F5E2F5F5F5F5F5F5F5F5F5F5F5F5F5F5F5F5F5F5F5F5E2E2EFF5F5F5F5F5F5F5F5F5F5F5F5F5F5F5F5F5F5F5F5E2F5F5F5F5F5F5F5F5F5F5F5F5F5F5
310
F5F5F5F5F5F5F5F5F5F5F5F5F5F5F5F5F5F5F5F5F5F5F5F5F5F5F5F5F5F5F5F5F5F5F5F5F5F5F5F5F5F5F5F5F5F5F5F5F5F5F5F5F5F5F5F5F5F5F5F5F5F5F5F5F5F5F5F5F5F5F5F5F5F5F5F5F5F5F5F5F5F5F5F5F5F5F5F5F5F5F5F5F5F5F5F5F5F5F5F5F5F5F5F5F5F5F5F5F5F5F5F5F5F5F5F5F5F5F5F5F5E2F5F5F5F5F5
310
F5F5F5F5F5F5F5F5F5F5F5F5F5F5F5E2E2EFF5F5F5F5F5F5F5F5F5F5F5F5F5F5F5F5F5F5F5F5E2F5F5F5F5F5F5F5F5F5F5F5F5F5F5F5F5F5F5F5F5F5F5F5F5F5F5F5F5F5F5F5F5F5F5F5F5F5F5F5F5F5F5F5F5F5F5F5F5F5F5F5F5F5F5F5F5F5F5F5F5F5F5F5F5F5F5F5F5F5F5F5F5F5F5F5F5F5F5F5F5F5F5F5F5F5F5F5F5
310
F5F5F5F5F5F5F5F5F5F5F5F5F5F5F5F5F5F5F5F5F5F5F5F5F5F5F5F5F5F5F5F5F5F5F5F5F5F5F5F5F5F5F5F5F5F5F5E2F5F5F5F5F5F5F5F5F5F5F5F5F5F5F5F5F5F5F5F5E2E2EFF5F5F5E2F5F5F5F5F5F5F5F5F5F5F5F5F5F5F5F5E2F5F5F5F5F5F5F5F5F5F5F5F5F5F5F5F5F5F5F5F5F5F5F5F5F5F5F5F5F5F5F5F5F5F5F5
310
F5F5F5F5F5F5F5F5F5F5F5F5F5F5F5F5F5F5F5F5F5F5F5F5F5F5F5F5F5F5F5F5F5F5F5F5F5F5F5F5F5F5F5F5F5F5F5F5F5F5F5F5F5F5F5F5F5F5F5F5F5F5F5F5F5F5F5F5F5F5F5F5F5F5F5F5F5F5F5F5F5F5F5F5F5F5F5F5F5F5F5F5F5F5F5F5F5F5F5F5E2F5F5F5F5F5F5F5F5F5F5F5F5F5F5F5F5E2F5F5F5E2E2EFF5F5F5
310
E2F5F5F5F5F5F5F5F5F5F5F5F5F5F5F5F5E2F5F5F5F5F5F5F5F5F5F5F5F5F5F5F5F5F5F5F5F5F5F5F5F5F5F5F5F5F5F5F5F5F5F5F5F5F5F5F5F5F5F5F5F5F5F5F5F5F5F5F5F5F5F5F5F5F5F5F5F5F5F5F5F5F5F5F5F5F5F5F5F5F5F5F5F5F5F5F5F5F5F5F5F5F5F5F5F5F5F5F5F5F5F5F5F5F5F5F5F5F5F5F5F5F5F5F5F5F5
310
F5F5F5F5F5F5F5F5F5F5F5F5F5F5F5F5F5F5F5F5F5F5F5F5F5F5E2F5F5F5F5F5F5F5F5F5F5F5F5F5F5F5F5E2F5F5F5E2E2EFF5F5F5E2F5F5F5F5F5F5F5F5F5F5F5F5F5F5F5F5E2F5F5F5F5F5F5F5F5F5F5F5F5F5F5F5F5F5F5F5F5F5F5F5F5F5F5F5F5F5F5F5F5F5F5F5F5F5F5F5F5F5F5F5F5F5F5F5F5F5F5F5F5F5F5F5F5
310
F5F5F5F5F5F5F5F5F5F5F5F5F5F5F5F5F5F5F5F5F5F5F5F5F5F5F5F5F5F5F5F5F5F5F5F5F5F5F5F5F5F5F5F5F5F5F5F5F5F5F5F5F5F5F5F5F5F5F5F5F5F5F5F5F5F5F5F5F5F5F5F5F5F5F5F5F5F5F5E2F5F5F5F5F5F5F5F5F5F5F5F5F5F5F5F5E2F5F5F5E2E2EFF5F5F5E2F5F5F5F5F5F5F5F5F5F5F5F5F5F5F5F5E2F5F5F5
310
F5F5F5F5F5F5F5F5F5F5F5F5F5F5F5F5F5F5F5F5F5F5F5F5F5F5F5F5F5F5F5F5F5F5F5F5F5F5F5F5F5F5F5F5F5F5F5F5F5F5F5F5F5F5F5F5F5F5F5F5F5F5F5F5F5F5F5F5F5F5F5F5F5F5F5F5F5F5F5F5F5F5F5F5F5F5F5F5F5F5F5F5F5F5F5F5F5F5F5F5F5F5F5F5F5F5F5F5F5F5F5F5F5F5F5F5F5F5F5F5F5F5F5F5F5F5F5
310
F5F5F5F5F5E2F5F5F5F5F5F5F5F5F5F5F5F5F5F5F5F5E2F5F5F5E2E2EFF5F5F5E2F5F5F5F5F5F5F5F5F5F5F5F5F5F5F5F5E2F5F5F5F5F5F5F5F5F5F5F5F5F5F5F5F5F5F5F5F5F5F5F5F5F5F5F5F5F5F5F5F5F5F5F5F5F5F5F5F5F5F5F5F5F5F5F5F5F5F5F5F5F5F5F5F5F5F5F5F5F5F5F5F5F5F5F5F5F5F5F5F5F5F5F5F5F5
310
F5F5F5F5F5F5F5F5F5F5F5F5F5F5F5F5F5F5F5F5F5F5F5F5F5F5F5F5F5F5F5F5F5F5F5F5F5F5F5F5F5F5F5F5F5F5F5F5F5F5F5F5F5F5F5F5F5F5E2F5F5F5F5F5F5F5F5F5F5F5F5F5F5F5F5E2F5F5F5E2E2EFF5F5F5E2F5F5F5F5F5F5F5F5F5F5F5F5F5F5F5F5E2F5F5F5F5F5F5F5F5F5F5F5F5F5F5F5F5F5F5F5F5F5F5F5F5
310
F5F5F5F5F5F5F5F5F5F5F5F5F5F5F5F5F5F5F5F5F5F5F5F5F5F5F5F5F5F5F5F5F5F5F5F5F5F5F5F5F5F5F5F5F5F5F5F5F5F5F5F5F5F5F5F5F5F5F5F5F5F5F5F5F5F5F5F5F5F5F5F5F5F5F5F5F5F5F5F5F5F5F5F5F5F5F5F5F5F5F5F5F5F5F5F5F5F5F5F5F5F5F5F5F5F5F5F5F5F5F5E2F5F5F5F5F5F5F5F5F5F5F5F5F5F5F5
310
F5E2F5F5F5E2E2EFF5F5F5E2F5F5F5F5F5F5F5F5F5F5F5F5F5F5F5F5E2F5F5F5F5F5F5F5F5F5F5F5F5F5F5F5F5F5F5F5F5F5F5F5F5F5F5F5F5F5F5F5F5F5F5F5F5F5F5F5F5F5F5F5F5F5F5F5F5F5F5F5F5F5F5F5F5F5F5F5F5F5F5F5F5F5F5F5F5F5F5F5F5F5F5F5F5F5F5F5F5F5F5F5F5F5F5F5F5F5F5F5F5F5F5F5F5F5F5
310
F5F5F5F5F5F5F5F5F5F5F5F5F5F5F5F5F5F5F5F5F5F5F5F5F5F5F5F5F5F5F5F5F5F5F5F5F5E2F5F5F5F5F5F5F5F5F5F5F5F5F5F5F5F5E2F5F5F5E2E2EFF5F5F5E2F5F5F5F5F5F5F5F5F5F5F5F5F5F5F5F5E2F5F5F5F5F5F5F5F5F5F5F5F5F5F5F5F5F5F5F5F5F5F5F5F5F5F5F5F5F5F5F5F5F5F5F5F5F5F5F5F5F5F5F5F5F5
310
F5F5F5F5F5F5F5F5F5F5F5F5F5F5F5F5F5F5F5F5F5F5F5F5F5F5F5F5F5F5F5F5F5F5F5F5F5F5F5F5F5F5F5F5F5F5F5F5F5F5F5F5F5F5F5F5F5F5F5F5F5F5F5F5F5F5F5F5F5F5F5F5F5F5F5F5F5F5F5F5F5F5F5F5F5F5F5F5F5F5E2F5F5F5F5F5F5F5F5F5F5F5F5F5F5F5F5E2F5F5F5E2E2EFF5F5F5E2F5F5F5F5F5F5F5F5F5
310
F5F5F5F5F5F5F5E2F5F5F5F5F5F5F5F5F5F5F5F5F5F5F5F5F5F5F5F5F5F5F5F5F5F5F5F5F5F5F5F5F5F5F5F5F5F5F5F5F5F5F5F5F5F5F5F5F5F5F5F5F5F5F5F5F5F5F5F5F5F5F5F5F5F5F5F5F5F5F5F5F5F5F5F5F5F5F5F5F5F5F5F5F5F5F5F5F5F5F5F5F5F5F5F5F5F5F5F5F5F5F5F5F5F5F5F5F5F5F5F5F5F5F5F5F5F5F5
310
F5F5F5F5F5F5F5F5F5F5F5F5F5F5F5F5E2F5F5F5F5F5F5F5F5F5F5F5F5F5F5F5F5E2F5F5F5E2E2EFF5F5F5E2F5F5F5F5F5F5F5F5F5F5F5F5F5F5F5F5E2F5F5F5F5F5F5F5F5F5F5F5F5F5F5F5F5F5F5F5F5F5F5F5F5F5F5F5F5F5F5F5F5F5F5F5F5F5F5F5F5F5F5F5F5F5F5F5F5F5F5F5F5F5F5F5F5F5F5F5F5F5F5F5F5F5F5
310
F5F5F5F5F5F5F5F5F5F5F5F5F5F5F5F5F5F5F5F5F5F5F5F5F5F5F5F5F5F5F5F5F5F5F5F5F5F5F5F5F5F5F5F5F5F5F5F5F5F5F5F5F5F5F5F5F5F5F5F5F5F5F5F5F5F5F5F5F5E2F5F5F5F5F5F5F5F5F5F5F5F5F5F5F5F5E2F5F5F5E2E2EFF5F5F5E2F5F5F5F5F5F5F5F5F5F5F5F5F5F5F5F5E2F5F5F5F5F5F5F5F5F5F5F5F5F5
310
F5F5F5F5F5F5F5F5F5F5F5F5F5F5F5F5F5F5F5F5F5F5F5F5F5F5F5F5F5F5F5F5F5F5F5F5F5F5F5F5F5F5F5F5F5F5F5F5F5F5F5F5F5F5F5F5F5F5F5F5F5F5F5F5F5F5F5F5F5F5F5F5F5F5F5F5F5F5F5F5F5F5F5F5F5F5F5F5F5F5F5F5F5F5F5F5F5F5F5F5F5F5F5F5F5F5F5F5F5F5F5F5F5F5F5F5F5F5F5F5F5F5E2F5F5F5F5
310
F5F5F5F5F5F5F5F5F5F5F5F5E2F5F5F5E2E2EFF5F5F5E2F5F5F5F5F5F5F5F5F5F5F5F5F5F5F5F5E2F5F5F5F5F5F5F5F5F5F5F5F5F5F5F5F5F5F5F5F5F5F5F5F5F5F5F5F5F5F5F5F5F5F5F5F5F5F5F5F5F5F5F5F5F5F5F5F5F5F5F5F5F5F5F5F5F5F5F5F5F5F5F5F5F5F5F5F5F5F5F5F5F5F5F5F5F5F5F5F5F5F5F5F5F5F5F5
310
F5F5F5F5F5F5F5F5F5F5F5F5F5F5F5F5F5F5F5F5F5F5F5F5F5F5F5F5F5F5F5F5F5F5F5F5F5F5F5F5F5F5F5F5F5F5F5F5E2F5F5F5F5F5F5F5F5F5F5F5F5F5F5F5F5E2F5F5F5E2E2EFF5F5F5E2F5F5F5F5F5F5F5F5F5F5F5F5F5F5F5F5E2F5F5F5F5F5F5F5F5F5F5F5F5F5F5F5F5F5F5F5F5F5F5F5F5F5F5F5F5F5F5F5F5F5F5
310
F5F5F5F5F5F5F5F5F5F5F5F5F5F5F5F5F5F5F5F5F5F5F5F5F5F5F5F5F5F5F5F5F5F5F5F5F5F5F5F5F5F5F5F5F5F5F5F5F5F5F5F5F5F5F5F5F5F5F5F5F5F5F5F5F5F5F5F5F5F5F5F5F5F5F5F5F5F5F5F5F5F5F5F5F5F5F5F5F5F5F5F5F5F5F5F5F5F5F5F5F5E2F5F5F5F5F5F5F5F5F5F5F5F5F5F5F5F5E2F5F5F5E2E2EFF5F5
310
F5E2F5F5F5F5F5F5F5F5F5F5F5F5F5F5F5F5E2F5F5F5F5F5F5F5F5F5F5F5F5F5F5F5F5F5F5F5F5F5F5F5F5F5F5F5F5F5F5F5F5F5F5F5F5F5F5F5F5F5F5F5F5F5F5F5F5F5F5F5F5F5F5F5F5F5F5F5F5F5F5F5F5F5F5F5F5F5F5F5F5F5F5F5F5F5F5F5F5F5F5F5F5F5F5F5F5F5F5F5F5F5F5F5F5F5F5F5F5F5F5F5F5F5F5F5F5
310
F5F5F5F5F5F5F5F5F5F5F5F5F5F5F5F5F5F5F5F5F5F5F5F5F5F5F5E2F5F5F5F5F5F5F5F5F5F5F5F5F5F5F5F5E2F5F5F5E2E2EFF5F5F5E2F5F5F5F5F5F5F5F5F5F5F5F5F5F5F5F5E2F5F5F5F5F5F5F5F5F5F5F5F5F5F5F5F5F5F5F5F5F5F5F5F5F5F5F5F5F5F5F5F5F5F5F5F5F5F5F5F5F5F5F5F5F5F5F5F5F5F5F5F5F5F5F5
310
F5F5F5F5F5F5F5F5F5F5F5F5F5F5F5F5F5F5F5F5F5F5F5F5F5F5F5F5F5F5F5F5F5F5F5F5F5F5F5F5F5F5F5F5F5F5F5F5F5F5F5F5F5F5F5F5F5F5F5F5F5F5F5F5F5F5F5F5F5F5F5F5F5F5F5F5F5F5F5F5E2F5F5F5F5F5F5F5F5F5F5F5F5F5F5F5F5E2F5F5F5E2E2EFF5F5F5E2F5F5F5F5F5F5F5F5F5F5F5F5F5F5F5F5E2F5F5
310
F5F5F5F5F5F5F5F5F5F5F5F5F5F5F5F5F5F5F5F5F5F5F5F5F5F5F5F5F5F5F5F5F5F5F5F5F5F5F5F5F5F5F5F5F5F5F5F5F5F5F5F5F5F5F5F5F5F5F5F5F5F5F5F5F5F5F5F5F5F5F5F5F5F5F5F5F5F5F5F5F5F5F5F5F5F5F5F5F5F5F5F5F5F5F5F5F5F5F5F5F5F5F5F5F5F5F5F5F5F5F5F5F5F5F5F5F5F5F5F5F5F5F5F5F5F5F5
310
F5F5F5F5F5F5E2F5F5F5F5F5F5F5F5F5F5F5F5F5F5F5F5E2F5F5F5E2E2EFF5F5F5E2F5F5F5F5F5F5F5F5F5F5F5F5F5F5F5F5E2F5F5F5F5F5F5F5F5F5F5F5F5F5F5F5F5F5F5F5F5F5F5F5F5F5F5F5F5F5F5F5F5F5F5F5F5F5F5F5F5F5F5F5F5F5F5F5F5F5F5F5F5F5F5F5F5F5F5F5F5F5F5F5F5F5F5F5F5F5F5F5F5F5F5F5F5
310
F5F5F5F5F5F5F5F5F5F5F5F5F5F5F5F5F5F5F5F5F5F5F5F5F5F5F5F5F5F5F5F5F5F5F5F5F5F5F5F5F5F5F5F5F5F5F5F5F5F5F5F5F5F5F5F5F5F5F5E2F5F5F5F5F5F5F5F5F5F5F5F5F5F5F5F5E2F5F5F5E2E2EFF5F5F5F5F5F5F5F5F5F5F5F5F5F5F5F5F5F5F5F5E2F5F5F5F5F5F5F5F5F5F5F5F5F5F5F5F5F5F5F5F5F5F5F5
310
F5F5F5F5F5F5F5F5F5F5F5F5F5F5F5F5F5F5F5F5F5F5F5F5F5F5F5F5F5F5F5F5F5F5F5F5F5F5F5F5F5F5F5F5F5F5F5F5F5F5F5F5F5F5F5F5F5F5F5F5F5F5F5F5F5F5F5F5F5F5F5F5F5F5F5F5F5F5F5F5F5F5F5F5F5F5F5F5F5F5F5F5F5F5F5F5F5F5F5F5F5F5F5F5F5F5F5F5F5F5F5F5E2F5F5F5F5F5F5F5F5F5F5F5F5F5F5
310
F5F5F5F5F5F5E2E2EFF5F5F5F5F5F5F5F5F5F5F5F5F5F5F5F5F5F5F5F5E2F5F5F5F5F5F5F5F5F5F5F5F5F5F5F5F5F5F5F5F5F5F5F5F5F5F5F5F5F5F5F5F5F5F5F5F5F5F5F5F5F5F5F5F5F5F5F5F5F5F5F5F5F5F5F5F5F5F5F5F5F5F5F5F5F5F5F5F5F5F5F5F5F5F5F5F5F5F5F5F5F5F5F5F5F5F5F5F5F5F5F5F5F5F5F5F5F5
310
F5F5F5F5F5F5F5F5F5F5F5F5F5F5F5F5F5F5F5F5F5F5F5F5F5F5F5F5F5F5F5F5F5F5F5F5F5F5E2F5F5F5F5F5F5F5F5F5F5F5F5F5F5F5F5F5F5F5F5E2E2EFF5F5F5F5F5F5F5F5F5F5F5F5F5F5F5F5F5F5F5F5E2F5F5F5F5F5F5F5F5F5F5F5F5F5F5F5F5F5F5F5F5F5F5F5F5F5F5F5F5F5F5F5F5F5F5F5F5F5F5F5F5F5F5F5F5
310
F5F5F5F5F5F5F5F5F5F5F5F5F5F5F5F5F5F5F5F5F5F5F5F5F5F5F5F5F5F5F5F5F5F5F5F5F5F5F5F5F5F5F5F5F5F5F5F5F5F5F5F5F5F5F5F5F5F5F5F5F5F5F5F5F5F5F5F5F5F5F5F5F5F5F5F5F5F5F5F5F5F5F5F5F5F5F5F5F5F5F5E2F5F5F5F5F5F5F5F5F5F5F5F5F5F5F5F5F5F5F5F5E2E2EFF5F5F5F5F5F5F5F5F5F5F5F5
310
F5F5F5F5F5F5F5F5E2F5F5F5F5F5F5F5F5F5F5F5F5F5F5F5F5F5F5F5F5F5F5F5F5F5F5F5F5F5F5F5F5F5F5F5F5F5F5F5F5F5F5F5F5F5F5F5F5F5F5F5F5F5F5F5F5F5F5F5F5F5F5F5F5F5F5F5F5F5F5F5F5F5F5F5F5F5F5F5F5F5F5F5F5F5F5F5F5F5F5F5F5F5F5F5F5F5F5F5F5F5F5F5F5F5F5F5F5F5F5F5F5F5F5F5F5F5F5
310
F5F5F5F5F5F5F5F5F5F5F5F5F5F5F5F5F5E2F5F5F5F5F5F5F5F5F5F5F5F5F5F5F5F5F5F5F5F5E2E2EFF5F5F5F5F5F5F5F5F5F5F5F5F5F5F5F5F5F5F5F5E2F5F5F5F5F5F5F5F5F5F5F5F5F5F5F5F5F5F5F5F5F5F5F5F5F5F5F5F5F5F5F5F5F5F5F5F5F5F5F5F5F5F5F5F5F5F5F5F5F5F5F5F5F5F5F5F5F5F5F5F5F5F5F5F5F5
310
F5F5F5F5F5F5F5F5F5F5F5F5F5F5F5F5F5F5F5F5F5F5F5F5F5F5F5F5F5F5F5F5F5F5F5F5F5F5F5F5F5F5F5F5F5F5F5F5F5F5F5F5F5F5F5F5F5F5F5F5F5F5F5F5F5F5F5F5F5F5E2F5F5F5F5F5F5F5F5F5F5F5F5F5F5F5F5F5F5F5F5E2E2EFF5F5F5F5F5F5F5F5F5F5F5F5F5F5F5F5F5F5F5F5E2F5F5F5F5F5F5F5F5F5F5F5F5
310
F5F5F5F5F5F5F5F5F5F5F5F5F5F5F5F5F5F5F5F5F5F5F5F5F5F5F5F5F5F5F5F5F5F5F5F5F5F5F5F5F5F5F5F5F5F5F5F5F5F5F5F5F5F5F5F5F5F5F5F5F5F5F5F5F5F5F5F5F5F5F5F5F5F5F5F5F5F5F5F5F5F5F5F5F5F5F5F5F5F5F5F5F5F5F5F5F5F5F5F5F5F5F5F5F5F5F5F5F5F5F5F5F5F5F5F5F5F5F5F5F5F5F5E2F5F5F5
310
F5F5F5F5F5F5F5F5F5F5F5F5F5F5F5F5F5E2E2EFF5F5F5F5F5F5F5F5F5F5F5F5F5F5F5F5F5F5F5F5E2F5F5F5F5F5F5F5F5F5F5F5F5F5F5F5F5F5F5F5F5F5F5F5F5F5F5F5F5F5F5F5F5F5F5F5F5F5F5F5F5F5F5F5F5F5F5F5F5F5F5F5F5F5F5F5F5F5F5F5F5F5F5F5F5F5F5F5F5F5F5F5F5F5F5F5F5F5F5F5F5F5F5F5F5F5F5
310
F5F5F5F5F5F5F5F5F5F5F5F5F5F5F5F5F5F5F5F5F5F5F5F5F5F5F5F5F5F5F5F5F5F5F5F5F5F5F5F5F5F5F5F5F5F5F5F5F5E2F5F5F5F5F5F5F5F5F5F5F5F5F5F5F5F5F5F5F5F5E2E2EFF5F5F5F5F5F5F5F5F5F5F5F5F5F5F5F5F5F5F5F5E2F5F5F5F5F5F5F5F5F5F5F5F5F5F5F5F5F5F5F5F5F5F5F5F5F5F5F5F5F5F5F5F5F5
310
F5F5F5F5F5F5F5F5F5F5F5F5F5F5F5F5F5F5F5F5F5F5F5F5F5F5F5F5F5F5F5F5F5F5F5F5F5F5F5F5F5F5F5F5F5F5F5F5F5F5F5F5F5F5F5F5F5F5F5F5F5F5F5F5F5F5F5F5F5F5F5F5F5F5F5F5F5F5F5F5F5F5F5F5F5F5F5F5F5F5F5F5F5F5F5F5F5F5F5F5F5F5E2F5F5F5F5F5F5F5F5F5F5F5F5F5F5F5F5F5F5F5F5E2E2EFF5
310
F5F5F5F5F5F5F5F5F5F5F5F5F5F5F5F5F5F5F5E2F5F5F5F5F5F5F5F5F5F5F5F5F5F5F5F5F5F5F5F5F5F5F5F5F5F5F5F5F5F5F5F5F5F5F5F5F5F5F5F5F5F5F5F5F5F5F5F5F5F5F5F5F5F5F5F5F5F5F5F5F5F5F5F5F5F5F5F5F5F5F5F5F5F5F5F5F5F5F5F5F5F5F5F5F5F5F5F5F5F5F5F5F5F5F5F5F5F5F5F5F5F5F5F5F5F5F5
310
F5F5F5F5F5F5F5F5F5F5F5F5F5F5F5F5F5F5F5F5F5F5F5F5F5F5F5F5E2F5F5F5F5F5F5F5F5F5F5F5F5F5F5F5F5F5F5F5F5E2E2EFF5F5F5E2F5F5F5F5F5F5F5F5F5F5F5F5F5F5F5F5E2F5F5F5F5F5F5F5F5F5F5F5F5F5F5F5F5F5F5F5F5F5F5F5F5F5F5F5F5F5F5F5F5F5F5F5F5F5F5F5F5F5F5F5F5F5F5F5F5F5F5F5F5F5F5
310
F5F5F5F5F5F5F5F5F5F5F5F5F5F5F5F5F5F5F5F5F5F5F5F5F5F5F5F5F5F5F5F5F5F5F5F5F5F5F5F5F5F5F5F5F5F5F5F5F5F5F5F5F5F5F5F5F5F5F5F5F5F5F5F5F5F5F5F5F5F5F5F5F5F5F5F5F5F5F5F5F5E2F5F5F5F5F5F5F5F5F5F5F5F5F5F5F5F5E2F5F5F5E2E2EFF5F5F5E2F5F5F5F5F5F5F5F5F5F5F5F5F5F5F5F5E2F5
310
F5F5F5F5F5F5F5F5F5F5F5F5F5F5F5F5F5F5F5F5F5F5F5F5F5F5F5F5F5F5F5F5F5F5F5F5F5F5F5F5F5F5F5F5F5F5F5F5F5F5F5F5F5F5F5F5F5F5F5F5F5F5F5F5F5F5F5F5F5F5F5F5F5F5F5F5F5F5F5F5F5F5F5F5F5F5F5F5F5F5F5F5F5F5F5F5F5F5F5F5F5F5F5F5F5F5F5F5F5F5F5F5F5F5F5F5F5F5F5F5F5F5F5F5F5F5F5
310
F5F5F5F5F5F5F5E2F5F5F5F5F5F5F5F5F5F5F5F5F5F5F5F5E2F5F5F5E2E2EFF5F5F5E2F5F5F5F5F5F5F5F5F5F5F5F5F5F5F5F5E2F5F5F5F5F5F5F5F5F5F5F5F5F5F5F5F5F5F5F5F5F5F5F5F5F5F5F5F5F5F5F5F5F5F5F5F5F5F5F5F5F5F5F5F5F5F5F5F5F5F5F5F5F5F5F5F5F5F5F5F5F5F5F5F5F5F5F5F5F5F5F5F5F5F5F5
310
F5F5F5F5F5F5F5F5F5F5F5F5F5F5F5F5F5F5F5F5F5F5F5F5F5F5F5F5F5F5F5F5F5F5F5F5F5F5F5F5F5F5F5F5F5F5F5F5F5F5F5F5F5F5F5F5F5F5F5F5E2F5F5F5F5F5F5F5F5F5F5F5F5F5F5F5F5E2F5F5F5E2E2EFF5F5F5E2F5F5F5F5F5F5F5F5F5F5F5F5F5F5F5F5E2F5F5F5F5F5F5F5F5F5F5F5F5F5F5F5F5F5F5F5F5F5F5
310
F5F5F5F5F5F5F5F5F5F5F5F5F5F5F5F5F5F5F5F5F5F5F5F5F5F5F5F5F5F5F5F5F5F5F5F5F5F5F5F5F5F5F5F5F5F5F5F5F5F5F5F5F5F5F5F5F5F5F5F5F5F5F5F5F5F5F5F5F5F5F5F5F5F5F5F5F5F5F5F5F5F5F5F5F5F5F5F5F5F5F5F5F5F5F5F5F5F5F5F5F5F5F5F5F5F5F5F5F5F5F5F5F5E2F5F5F5F5F5F5F5F5F5F5F5F5F5
310
F5F5F5E2F5F5F5E2E2EFF5F5F5E2F5F5F5F5F5F5F5F5F5F5F5F5F5F5F5F5E2F5F5F5F5F5F5F5F5F5F5F5F5F5F5F5F5F5F5F5F5F5F5F5F5F5F5F5F5F5F5F5F5F5F5F5F5F5F5F5F5F5F5F5F5F5F5F5F5F5F5F5F5F5F5F5F5F5F5F5F5F5F5F5F5F5F5F5F5F5F5F5F5F5F5F5F5F5F5F5F5F5F5F5F5F5F5F5F5F5F5F5F5F5F5F5F5
310
F5F5F5F5F5F5F5F5F5F5F5F5F5F5F5F5F5F5F5F5F5F5F5F5F5F5F5F5F5F5F5F5F5F5F5F5F5F5F5E2F5F5F5F5F5F5F5F5F5F5F5F5F5F5F5F5E2F5F5F5E2E2EFF5F5F5E2F5F5F5F5F5F5F5F5F5F5F5F5F5F5F5F5E2F5F5F5F5F5F5F5F5F5F5F5F5F5F5F5F5F5F5F5F5F5F5F5F5F5F5F5F5F5F5F5F5F5F5F5F5F5F5F5F5F5F5F5
310
F5F5F5F5F5F5F5F5F5F5F5F5F5F5F5F5F5F5F5F5F5F5F5F5F5F5F5F5F5F5F5F5F5F5F5F5F5F5F5F5F5F5F5F5F5F5F5F5F5F5F5F5F5F5F5F5F5F5F5F5F5F5F5F5F5F5F5F5F5F5F5F5F5F5F5F5F5F5F5F5F5F5F5F5F5F5F5F5F5F5F5F5E2F5F5F5F5F5F5F5F5F5F5F5F5F5F5F5F5E2F5F5F5E2E2EFF5F5F5E2F5F5F5F5F5F5F5
310
F5F5F5F5F5F5F5F5F5E2F5F5F5F5F5F5F5F5F5F5F5F5F5F5F5F5F5F5F5F5F5F5F5F5F5F5F5F5F5F5F5F5F5F5F5F5F5F5F5F5F5F5F5F5F5F5F5F5F5F5F5F5F5F5F5F5F5F5F5F5F5F5F5F5F5F5F5F5F5F5F5F5F5F5F5F5F5F5F5F5F5F5F5F5F5F5F5F5F5F5F5F5F5F5F5F5F5F5F5F5F5F5F5F5F5F5F5F5F5F5F5F5F5F5F5F5F5
310
F5F5F5F5F5F5F5F5F5F5F5F5F5F5F5F5F5F5E2F5F5F5F5F5F5F5F5F5F5F5F5F5F5F5F5E2F5F5F5E2E2EFF5F5F5E2F5F5F5F5F5F5F5F5F5F5F5F5F5F5F5F5E2F5F5F5F5F5F5F5F5F5F5F5F5F5F5F5F5F5F5F5F5F5F5F5F5F5F5F5F5F5F5F5F5F5F5F5F5F5F5F5F5F5F5F5F5F5F5F5F5F5F5F5F5F5F5F5F5F5F5F5F5F5F5F5F5
310
F5F5F5F5F5F5F5F5F5F5F5F5F5F5F5F5F5F5F5F5F5F5F5F5F5F5F5F5F5F5F5F5F5F5F5F5F5F5F5F5F5F5F5F5F5F5F5F5F5F5F5F5F5F5F5F5F5F5F5F5F5F5F5F5F5F5F5F5F5F5F5E2F5F5F5F5F5F5F5F5F5F5F5F5F5F5F5F5E2F5F5F5E2E2EFF5F5F5E2F5F5F5F5F5F5F5F5F5F5F5F5F5F5F5F5E2F5F5F5F5F5F5F5F5F5F5F5
310
F5F5F5F5F5F5F5F5F5F5F5F5F5F5F5F5F5F5F5F5F5F5F5F5F5F5F5F5F5F5F5F5F5F5F5F5F5F5F5F5F5F5F5F5F5F5F5F5F5F5F5F5F5F5F5F5F5F5F5F5F5F5F5F5F5F5F5F5F5F5F5F5F5F5F5F5F5F5F5F5F5F5F5F5F5F5F5F5F5F5F5F5F5F5F5F5F5F5F5F5F5F5F5F5F5F5F5F5F5F5F5F5F5F5F5F5F5F5F5F5F5F5F5F5E2F5F5
310
F5F5F5F5F5F5F5F5F5F5F5F5F5F5E2F5F5F5E2E2EFF5F5F5E2F5F5F5F5F5F5F5F5F5F5F5F5F5F5F5F5E2F5F5F5F5F5F5F5F5F5F5F5F5F5F5F5F5F5F5F5F5F5F5F5F5F5F5F5F5F5F5F5F5F5F5F5F5F5F5F5F5F5F5F5F5F5F5F5F5F5F5F5F5F5F5F5F5F5F5F5F5F5F5F5F5F5F5F5F5F5F5F5F5F5F5F5F5F5F5F5F5F5F5F5F5F5
310
F5F5F5F5F5F5F5F5F5F5F5F5F5F5F5F5F5F5F5F5F5F5F5F5F5F5F5F5F5F5F5F5F5F5F5F5F5F5F5F5F5F5F5F5F5F5F5F5F5F5E2F5F5F5F5F5F5F5F5F5F5F5F5F5F5F5F5E2F5F5F5E2E2EFF5F5F5E2F5F5F5F5F5F5F5F5F5F5F5F5F5F5F5F5E2F5F5F5F5F5F5F5F5F5F5F5F5F5F5F5F5F5F5F5F5F5F5F5F5F5F5F5F5F5F5F5F5
310
F5F5F5F5F5F5F5F5F5F5F5F5F5F5F5F5F5F5F5F5F5F5F5F5F5F5F5F5F5F5F5F5F5F5F5F5F5F5F5F5F5F5F5F5F5F5F5F5F5F5F5F5F5F5F5F5F5F5F5F5F5F5F5F5F5F5F5F5F5F5F5F5F5F5F5F5F5F5F5F5F5F5F5F5F5F5F5F5F5F5F5F5F5F5F5F5F5F5F5F5F5F5F5E2F5F5F5F5F5F5F5F5F5F5F5F5F5F5F5F5E2F5F5F5E2E2EF
310
F5F5F5E2F5F5F5F5F5F5F5F5F5F5F5F5F5F5F5F5E2F5F5F5F5F5F5F5F5F5F5F5F5F5F5F5F5F5F5F5F5F5F5F5F5F5F5F5F5F5F5F5F5F5F5F5F5F5F5F5F5F5F5F5F5F5F5F5F5F5F5F5F5F5F5F5F5F5F5F5F5F5F5F5F5F5F5F5F5F5F5F5F5F5F5F5F5F5F5F5F5F5F5F5F5F5F5F5F5F5F5F5F5F5F5F5F5F5F5F5F5F5F5F5F5F5F5
310
F5F5F5F5F5F5F5F5F5F5F5F5F5F5F5F5F5F5F5F5F5F5F5F5F5F5F5F5F5E2F5F5F5F5F5F5F5F5F5F5F5F5F5F5F5F5E2F5F5F5E2E2EFF5F5F5E2F5F5F5F5F5F5F5F5F5F5F5F5F5F5F5F5E2F5F5F5F5F5F5F5F5F5F5F5F5F5F5F5F5F5F5F5F5F5F5F5F5F5F5F5F5F5F5F5F5F5F5F5F5F5F5F5F5F5F5F5F5F5F5F5F5F5F5F5F5F5
310
F5F5F5F5F5F5F5F5F5F5F5F5F5F5F5F5F5F5F5F5F5F5F5F5F5F5F5F5F5F5F5F5F5F5F5F5F5F5F5F5F5F5F5F5F5F5F5F5F5F5F5F5F5F5F5F5F5F5F5F5F5F5F5F5F5F5F5F5F5F5F5F5F5F5F5F5F5F5F5F5F5F5E2F5F5F5F5F5F5F5F5F5F5F5F5F5F5F5F5E2F5F5F5E2E2EFF5F5F5E2F5F5F5F5F5F5F5F5F5F5F5F5F5F5F5F5E2
310
F5F5F5F5F5F5F5F5F5F5F5F5F5F5F5F5F5F5F5F5F5F5F5F5F5F5F5F5F5F5F5F5F5F5F5F5F5F5F5F5F5F5F5F5F5F5F5F5F5F5F5F5F5F5F5F5F5F5F5F5F5F5F5F5F5F5F5F5F5F5F5F5F5F5F5F5F5F5F5F5F5F5F5F5F5F5F5F5F5F5F5F5F5F5F5F5F5F5F5F5F5F5F5F5F5F5F5F5F5F5F5F5F5F5F5F5F5F5F5F5F5F5F5F5F5F5F5
310
F5F5F5F5F5F5F5F5E2F5F5F5F5F5F5F5F5F5F5F5F5F5F5F5F5E2F5F5F5E2E2EFF5F5F5E2F5F5F5F5F5F5F5F5F5F5F5F5F5F5F5F5E2F5F5F5F5F5F5F5F5F5F5F5F5F5F5F5F5F5F5F5F5F5F5F5F5F5F5F5F5F5F5F5F5F5F5F5F5F5F5F5F5F5F5F5F5F5F5F5F5F5F5F5F5F5F5F5F5F5F5F5F5F5F5F5F5F5F5F5F5F5F5F5F5F5F5
310
F5F5F5F5F5F5F5F5F5F5F5F5F5F5F5F5F5F5F5F5F5F5F5F5F5F5F5F5F5F5F5F5F5F5F5F5F5F5F5F5F5F5F5F5F5F5F5F5F5F5F5F5F5F5F5F5F5F5F5F5F5E2F5F5F5F5F5F5F5F5F5F5F5F5F5F5F5F5E2F5F5F5E2E2EFF5F5F5E2F5F5F5F5F5F5F5F5F5F5F5F5F5F5F5F5E2F5F5F5F5F5F5F5F5F5F5F5F5F5F5F5F5F5F5F5F5F5
310
F5F5F5F5F5F5F5F5F5F5F5F5F5F5F5F5F5F5F5F5F5F5F5F5F5F5F5F5F5F5F5F5F5F5F5F5F5F5F5F5F5F5F5F5F5F5F5F5F5F5F5F5F5F5F5F5F5F5F5F5F5F5F5F5F5F5F5F5F5F5F5F5F5F5F5F5F5F5F5F5F5F5F5F5F5F5F5F5F5F5F5F5F5F5F5F5F5F5F5F5F5F5F5F5F5F5F5F5F5F5F5F5F5F5E2F5F5F5F5F5F5F5F5F5F5F5F5
310
F5F5F5F5E2F5F5F5E2E2EFF5F5F5E2F5F5F5F5F5F5F5F5F5F5F5F5F5F5F5F5E2F5F5F5F5F5F5F5F5F5F5F5F5F5F5F5F5F5F5F5F5F5F5F5F5F5F5F5F5F5F5F5F5F5F5F5F5F5F5F5F5F5F5F5F5F5F5F5F5F5F5F5F5F5F5F5F5F5F5F5F5F5F5F5F5F5F5F5F5F5F5F5F5F5F5F5F5F5F5F5F5F5F5F5F5F5F5F5F5F5F5F5F5F5F5F5
310
F5F5F5F5F5F5F5F5F5F5F5F5F5F5F5F5F5F5F5F5F5F5F5F5F5F5F5F5F5F5F5F5F5F5F5F5F5F5F5F5E2F5F5F5F5F5F5F5F5F5F5F5F5F5F5F5F5E2F5F5F5E2E2EFF5F5F5F5F5F5F5F5F5F5F5F5F5F5F5F5F5F5F5F5E2F5F5F5F5F5F5F5F5F5F5F5F5F5F5F5F5F5F5F5F5F5F5F5F5F5F5F5F5F5F5F5F5F5F5F5F5F5F5F5F5F5F5
310
F5F5F5F5F5F5F5F5F5F5F5F5F5F5F5F5F5F5F5F5F5F5F5F5F5F5F5F5F5F5F5F5F5F5F5F5F5F5F5F5F5F5F5F5F5F5F5F5F5F5F5F5F5F5F5F5F5F5F5F5F5F5F5F5F5F5F5F5F5F5F5F5F5F5F5F5F5F5F5F5F5F5F5F5F5F5F5F5F5F5F5F5F5E2F5F5F5F5F5F5F5F5F5F5F5F5F5F5F5F5F5F5F5F5E2E2EFF5F5F5F5F5F5F5F5F5F5
310
F5F5F5F5F5F5F5F5F5F5E2F5F5F5F5F5F5F5F5F5F5F5F5F5F5F5F5F5F5F5F5F5F5F5F5F5F5F5F5F5F5F5F5F5F5F5F5F5F5F5F5F5F5F5F5F5F5F5F5F5F5F5F5F5F5F5F5F5F5F5F5F5F5F5F5F5F5F5F5F5F5F5F5F5F5F5F5F5F5F5F5F5F5F5F5F5F5F5F5F5F5F5F5F5F5F5F5F5F5F5F5F5F5F5F5F5F5F5F5F5F5F5F5F5F5F5F5
310
F5F5F5F5F5F5F5F5F5F5F5F5F5F5F5F5F5F5F5E2F5F5F5F5F5F5F5F5F5F5F5F5F5F5F5F5F5F5F5F5E2E2EFF5F5F5F5F5F5F5F5F5F5F5F5F5F5F5F5F5F5F5F5E2F5F5F5F5F5F5F5F5F5F5F5F5F5F5F5F5F5F5F5F5F5F5F5F5F5F5F5F5F5F5F5F5F5F5F5F5F5F5F5F5F5F5F5F5F5F5F5F5F5F5F5F5F5F5F5F5F5F5F5F5F5F5F5
310
F5F5F5F5F5F5F5F5F5F5F5F5F5F5F5F5F5F5F5F5F5F5F5F5F5F5F5F5F5F5F5F5F5F5F5F5F5F5F5F5F5F5F5F5F5F5F5F5F5F5F5F5F5F5F5F5F5F5F5F5F5F5F5F5F5F5F5F5F5F5F5F5E2F5F5F5F5F5F5F5F5F5F5F5F5F5F5F5F5F5F5F5F5E2E2EFF5F5F5F5F5F5F5F5F5F5F5F5F5F5F5F5F5F5F5F5E2F5F5F5F5F5F5F5F5F5F5
310
F5F5F5F5F5F5F5F5F5F5F5F5F5F5F5F5F5F5F5F5F5F5F5F5F5F5F5F5F5F5F5F5F5F5F5F5F5F5F5F5F5F5F5F5F5F5F5F5F5F5F5F5F5F5F5F5F5F5F5F5F5F5F5F5F5F5F5F5F5F5F5F5F5F5F5F5F5F5F5F5F5F5F5F5F5F5F5F5F5F5F5F5F5F5F5F5F5F5F5F5F5F5F5F5F5F5F5F5F5F5F5F5F5F5F5F5F5F5F5F5F5F5F5F5F5E2F5
310
F5F5F5F5F5F5F5F5F5F5F5F5F5F5F5F5F5F5F5E2E2EFF5F5F5F5F5F5F5F5F5F5F5F5F5F5F5F5F5F5F5F5E2F5F5F5F5F5F5F5F5F5F5F5F5F5F5F5F5F5F5F5F5F5F5F5F5F5F5F5F5F5F5F5F5F5F5F5F5F5F5F5F5F5F5F5F5F5F5F5F5F5F5F5F5F5F5F5F5F5F5F5F5F5F5F5F5F5F5F5F5F5F5F5F5F5F5F5F5F5F5F5F5F5F5F5F5
310
F5F5F5F5F5F5F5F5F5F5F5F5F5F5F5F5F5F5F5F5F5F5F5F5F5F5F5F5F5F5F5F5F5F5F5F5F5F5F5F5F5F5F5F5F5F5F5F5F5F5F5E2F5F5F5F5F5F5F5F5F5F5F5F5F5F5F5F5F5F5F5F5E2E2EFF5F5F5F5F5F5F5F5F5F5F5F5F5F5F5F5F5F5F5F5E2F5F5F5F5F5F5F5F5F5F5F5F5F5F5F5F5F5F5F5F5F5F5F5F5F5F5F5F5F5F5F5
310
F5F5F5F5F5F5F5F5F5F5F5F5F5F5F5F5F5F5F5F5F5F5F5F5F5F5F5F5F5F5F5F5F5F5F5F5F5F5F5F5F5F5F5F5F5F5F5F5F5F5F5F5F5F5F5F5F5F5F5F5F5F5F5F5F5F5F5F5F5F5F5F5F5F5F5F5F5F5F5F5F5F5F5F5F5F5F5F5F5F5F5F5F5F5F5F5F5F5F5F5F5F5F5F5E2F5F5F5F5F5F5F5F5F5F5F5F5F5F5F5F5F5F5F5F5E2E2
310
EFF5F5F5F5F5F5F5F5F5F5F5F5F5F5F5F5F5F5F5F5E2F5F5F5F5F5F5F5F5F5F5F5F5F5F5F5F5F5F5F5F5F5F5F5F5F5F5F5F5F5F5F5F5F5F5F5F5F5F5F5F5F5F5F5F5F5F5F5F5F5F5F5F5F5F5F5F5F5F5F5F5F5F5F5F5F5F5F5F5F5F5F5F5F5F5F5F5F5F5F5F5F5F5F5F5F5F5F5F5F5F5F5F5F5F5F5F5F5F5F5F5F5F5F5F5F5
310
F5F5F5F5F5F5F5F5F5F5F5F5F5F5F5F5F5F5F5F5F5F5F5F5F5F5F5F5F5F5E2F5F5F5F5F5F5F5F5F5F5F5F5F5F5F5F5F5F5F5F5E2E2EFF5F5F5F5F5F5F5F5F5F5F5F5F5F5F5F5F5F5F5F5E2F5F5F5F5F5F5F5F5F5F5F5F5F5F5F5F5F5F5F5F5F5F5F5F5F5F5F5F5F5F5F5F5F5F5F5F5F5F5F5F5F5F5F5F5F5F5F5F5F5F5F5F5
310
F5F5F5F5F5F5F5F5F5F5F5F5F5F5F5F5F5F5F5F5F5F5F5F5F5F5F5F5F5F5F5F5F5F5F5F5F5F5F5F5F5F5F5F5F5F5F5F5F5F5F5F5F5F5F5F5F5F5F5F5F5F5F5F5F5F5F5F5F5F5F5F5F5F5F5F5F5F5F5F5F5F5F5E2F5F5F5F5F5F5F5F5F5F5F5F5F5F5F5F5F5F5F5F5E2E2EFF5F5F5F5F5F5F5F5F5F5F5F5F5F5F5F5F5F5F5F5
310
E2F5F5F5F5F5F5F5F5F5F5F5F5F5F5F5F5F5F5F5F5F5F5F5F5F5F5F5F5F5F5F5F5F5F5F5F5F5F5F5F5F5F5F5F5F5F5F5F5F5F5F5F5F5F5F5F5F5F5F5F5F5F5F5F5F5F5F5F5F5F5F5F5F5F5F5F5F5F5F5F5F5F5F5F5F5F5F5F5F5F5F5F5F5F5F5F5F5F5F5F5F5F5F5F5F5F5F5F5F5F5F5F5F5F5F5F5F5F5F5F5F5F5F5F5F5F5
310
F5F5F5F5F5F5F5F5F5E2F5F5F5F5F5F5F5F5F5F5F5F5F5F5F5F5F5F5F5F5E2E2EFF5F5F5E2F5F5F5F5F5F5F5F5F5F5F5F5F5F5F5F5E2F5F5F5F5F5F5F5F5F5F5F5F5F5F5F5F5F5F5F5F5F5F5F5F5F5F5F5F5F5F5F5F5F5F5F5F5F5F5F5F5F5F5F5F5F5F5F5F5F5F5F5F5F5F5F5F5F5F5F5F5F5F5F5F5F5F5F5F5F5F5F5F5F5
310
F5F5F5F5F5F5F5F5F5F5F5F5F5F5F5F5F5F5F5F5F5F5F5F5F5F5F5F5F5F5F5F5F5F5F5F5F5F5F5F5F5F5F5F5F5F5F5F5F5F5F5F5F5F5F5F5F5F5F5F5F5F5E2F5F5F5F5F5F5F5F5F5F5F5F5F5F5F5F5E2F5F5F5E2E2EFF5F5F5E2F5F5F5F5F5F5F5F5F5F5F5F5F5F5F5F5E2F5F5F5F5F5F5F5F5F5F5F5F5F5F5F5F5F5F5F5F5
310
F5F5F5F5F5F5F5F5F5F5F5F5F5F5F5F5F5F5F5F5F5F5F5F5F5F5F5F5F5F5F5F5F5F5F5F5F5F5F5F5F5F5F5F5F5F5F5F5F5F5F5F5F5F5F5F5F5F5F5F5F5F5F5F5F5F5F5F5F5F5F5F5F5F5F5F5F5F5F5F5F5F5F5F5F5F5F5F5F5F5F5F5F5F5F5F5F5F5F5F5F5F5F5F5F5F5F5F5F5F5F5F5F5F5F5E2F5F5F5F5F5F5F5F5F5F5F5
310
F5F5F5F5F5E2F5F5F5E2E2EFF5F5F5E2F5F5F5F5F5F5F5F5F5F5F5F5F5F5F5F5E2F5F5F5F5F5F5F5F5F5F5F5F5F5F5F5F5F5F5F5F5F5F5F5F5F5F5F5F5F5F5F5F5F5F5F5F5F5F5F5F5F5F5F5F5F5F5F5F5F5F5F5F5F5F5F5F5F5F5F5F5F5F5F5F5F5F5F5F5F5F5F5F5F5F5F5F5F5F5F5F5F5F5F5F5F5F5F5F5F5F5F5F5F5F5
310
F5F5F5F5F5F5F5F5F5F5F5F5F5F5F5F5F5F5F5F5F5F5F5F5F5F5F5F5F5F5F5F5F5F5F5F5F5F5F5F5F5E2F5F5F5F5F5F5F5F5F5F5F5F5F5F5F5F5E2F5F5F5E2E2EFF5F5F5E2F5F5F5F5F5F5F5F5F5F5F5F5F5F5F5F5E2F5F5F5F5F5F5F5F5F5F5F5F5F5F5F5F5F5F5F5F5F5F5F5F5F5F5F5F5F5F5F5F5F5F5F5F5F5F5F5F5F5
310
F5F5F5F5F5F5F5F5F5F5F5F5F5F5F5F5F5F5F5F5F5F5F5F5F5F5F5F5F5F5F5F5F5F5F5F5F5F5F5F5F5F5F5F5F5F5F5F5F5F5F5F5F5F5F5F5F5F5F5F5F5F5F5F5F5F5F5F5F5F5F5F5F5F5F5F5F5F5F5F5F5F5F5F5F5F5F5F5F5F5F5F5F5F5E2F5F5F5F5F5F5F5F5F5F5F5F5F5F5F5F5E2F5F5F5E2E2EFF5F5F5E2F5F5F5F5F5
310
F5F5F5F5F5F5F5F5F5F5F5E2F5F5F5F5F5F5F5F5F5F5F5F5F5F5F5F5F5F5F5F5F5F5F5F5F5F5F5F5F5F5F5F5F5F5F5F5F5F5F5F5F5F5F5F5F5F5F5F5F5F5F5F5F5F5F5F5F5F5F5F5F5F5F5F5F5F5F5F5F5F5F5F5F5F5F5F5F5F5F5F5F5F5F5F5F5F5F5F5F5F5F5F5F5F5F5F5F5F5F5F5F5F5F5F5F5F5F5F5F5F5F5F5F5F5F5
310
F5F5F5F5F5F5F5F5F5F5F5F5F5F5F5F5F5F5F5F5E2F5F5F5F5F5F5F5F5F5F5F5F5F5F5F5F5E2F5F5F5E2E2EFF5F5F5E2F5F5F5F5F5F5F5F5F5F5F5F5F5F5F5F5E2F5F5F5F5F5F5F5F5F5F5F5F5F5F5F5F5F5F5F5F5F5F5F5F5F5F5F5F5F5F5F5F5F5F5F5F5F5F5F5F5F5F5F5F5F5F5F5F5F5F5F5F5F5F5F5F5F5F5F5F5F5F5
310
F5F5F5F5F5F5F5F5F5F5F5F5F5F5F5F5F5F5F5F5F5F5F5F5F5F5F5F5F5F5F5F5F5F5F5F5F5F5F5F5F5F5F5F5F5F5F5F5F5F5F5F5F5F5F5F5F5F5F5F5F5F5F5F5F5F5F5F5F5F5F5F5F5E2F5F5F5F5F5F5F5F5F5F5F5F5F5F5F5F5E2F5F5F5E2E2EFF5F5F5E2F5F5F5F5F5F5F5F5F5F5F5F5F5F5F5F5E2F5F5F5F5F5F5F5F5F5
310
F5F5F5F5F5F5F5F5F5F5F5F5F5F5F5F5F5F5F5F5F5F5F5F5F5F5F5F5F5F5F5F5F5F5F5F5F5F5F5F5F5F5F5F5F5F5F5F5F5F5F5F5F5F5F5F5F5F5F5F5F5F5F5F5F5F5F5F5F5F5F5F5F5F5F5F5F5F5F5F5F5F5F5F5F5F5F5F5F5F5F5F5F5F5F5F5F5F5F5F5F5F5F5F5F5F5F5F5F5F5F5F5F5F5F5F5F5F5F5F5F5F5F5F5F5F5E2
310
F5F5F5F5F5F5F5F5F5F5F5F5F5F5F5F5E2F5F5F5E2E2EFF5F5F5E2F5F5F5F5F5F5F5F5F5F5F5F5F5F5F5F5E2F5F5F5F5F5F5F5F5F5F5F5F5F5F5F5F5F5F5F5F5F5F5F5F5F5F5F5F5F5F5F5F5F5F5F5F5F5F5F5F5F5F5F5F5F5F5F5F5F5F5F5F5F5F5F5F5F5F5F5F5F5F5F5F5F5F5F5F5F5F5F5F5F5F5F5F5F5F5F5F5F5F5F5
310
F5F5F5F5F5F5F5F5F5F5F5F5F5F5F5F5F5F5F5F5F5F5F5F5F5F5F5F5F5F5F5F5F5F5F5F5F5F5F5F5F5F5F5F5F5F5F5F5F5F5F5F5E2F5F5F5F5F5F5F5F5F5F5F5F5F5F5F5F5E2F5F5F5E2E2EFF5F5F5E2F5F5F5F5F5F5F5F5F5F5F5F5F5F5F5F5E2F5F5F5F5F5F5F5F5F5F5F5F5F5F5F5F5F5F5F5F5F5F5F5F5F5F5F5F5F5F5
310
F5F5F5F5F5F5F5F5F5F5F5F5F5F5F5F5F5F5F5F5F5F5F5F5F5F5F5F5F5F5F5F5F5F5F5F5F5F5F5F5F5F5F5F5F5F5F5F5F5F5F5F5F5F5F5F5F5F5F5F5F5F5F5F5F5F5F5F5F5F5F5F5F5F5F5F5F5F5F5F5F5F5F5F5F5F5F5F5F5F5F5F5F5F5F5F5F5F5F5F5F5F5F5F5F5E2F5F5F5F5F5F5F5F5F5F5F5F5F5F5F5F5E2F5F5F5E2
310
E2EFF5F5F5E2F5F5F5F5F5F5F5F5F5F5F5F5F5F5F5F5E2F5F5F5F5F5F5F5F5F5F5F5F5F5F5F5F5F5F5F5F5F5F5F5F5F5F5F5F5F5F5F5F5F5F5F5F5F5F5F5F5F5F5F5F5F5F5F5F5F5F5F5F5F5F5F5F5F5F5F5F5F5F5F5F5F5F5F5F5F5F5F5F5F5F5F5F5F5F5F5F5F5F5F5F5F5F5F5F5F5F5F5F5F5F5F5F5F5F5F5F5F5F5F5F5
310
F5F5F5F5F5F5F5F5F5F5F5F5F5F5F5F5F5F5F5F5F5F5F5F5F5F5F5F5F5F5F5E2F5F5F5F5F5F5F5F5F5F5F5F5F5F5F5F5E2F5F5F5E2E2EFF5F5F5E2F5F5F5F5F5F5F5F5F5F5F5F5F5F5F5F5E2F5F5F5F5F5F5F5F5F5F5F5F5F5F5F5F5F5F5F5F5F5F5F5F5F5F5F5F5F5F5F5F5F5F5F5F5F5F5F5F5F5F5F5F5F5F5F5F5F5F5F5
310
F5F5F5F5F5F5F5F5F5F5F5F5F5F5F5F5F5F5F5F5F5F5F5F5F5F5F5F5F5F5F5F5F5F5F5F5F5F5F5F5F5F5F5F5F5F5F5F5F5F5F5F5F5F5F5F5F5F5F5F5F5F5F5F5F5F5F5F5F5F5F5F5F5F5F5F5F5F5F5F5F5F5F5F5E2F5F5F5F5F5F5F5F5F5F5F5F5F5F5F5F5E2F5F5F5E2E2EFF5F5F5E2F5F5F5F5F5F5F5F5F5F5F5F5F5F5F5
310
F5E2F5F5F5F5F5F5F5F5F5F5F5F5F5F5F5F5F5F5F5F5F5F5F5F5F5F5F5F5F5F5F5F5F5F5F5F5F5F5F5F5F5F5F5F5F5F5F5F5F5F5F5F5F5F5F5F5F5F5F5F5F5F5F5F5F5F5F5F5F5F5F5F5F5F5F5F5F5F5F5F5F5F5F5F5F5F5F5F5F5F5F5F5F5F5F5F5F5F5F5F5F5F5F5F5F5F5F5F5F5F5F5F5F5F5F5F5F5F5F5F5F5F5F5F5F5
310
F5F5F5F5F5F5F5F5F5F5E2F5F5F5F5F5F5F5F5F5F5F5F5F5F5F5F5E2F5F5F5E2E2EFF5F5F5E2F5F5F5F5F5F5F5F5F5F5F5F5F5F5F5F5E2F5F5F5F5F5F5F5F5F5F5F5F5F5F5F5F5F5F5F5F5F5F5F5F5F5F5F5F5F5F5F5F5F5F5F5F5F5F5F5F5F5F5F5F5F5F5F5F5F5F5F5F5F5F5F5F5F5F5F5F5F5F5F5F5F5F5F5F5F5F5F5F5
310
F5F5F5F5F5F5F5F5F5F5F5F5F5F5F5F5F5F5F5F5F5F5F5F5F5F5F5F5F5F5F5F5F5F5F5F5F5F5F5F5F5F5F5F5F5F5F5F5F5F5F5F5F5F5F5F5F5F5F5F5F5F5F5E2F5F5F5F5F5F5F5F5F5F5F5F5F5F5F5F5E2F5F5F5E2E2EFF5F5F5E2F5F5F5F5F5F5F5F5F5F5F5F5F5F5F5F5E2F5F5F5F5F5F5F5F5F5F5F5F5F5F5F5F5F5F5F5
310
F5F5F5F5F5F5F5F5F5F5F5F5F5F5F5F5F5F5F5F5F5F5F5F5F5F5F5F5F5F5F5F5F5F5F5F5F5F5F5F5F5F5F5F5F5F5F5F5F5F5F5F5F5F5F5F5F5F5F5F5F5F5F5F5F5F5F5F5F5F5F5F5F5F5F5F5F5F5F5F5F5F5F5F5F5F5F5F5F5F5F5F5F5F5F5F5F5F5F5F5F5F5F5F5F5F5F5F5F5F5F5F5F5F5F5F5E2F5F5F5F5F5F5F5F5F5F5
310
F5F5F5F5F5F5E2F5F5F5E2E2EFF5F5F5E2F5F5F5F5F5F5F5F5F5F5F5F5F5F5F5F5E2F5F5F5F5F5F5F5F5F5F5F5F5F5F5F5F5F5F5F5F5F5F5F5F5F5F5F5F5F5F5F5F5F5F5F5F5F5F5F5F5F5F5F5F5F5F5F5F5F5F5F5F5F5F5F5F5F5F5F5F5F5F5F5F5F5F5F5F5F5F5F5F5F5F5F5F5F5F5F5F5F5F5F5F5F5F5F5F5F5F5F5F5F5
310
F5F5F5F5F5F5F5F5F5F5F5F5F5F5F5F5F5F5F5F5F5F5F5F5F5F5F5F5F5F5F5F5F5F5F5F5F5F5F5F5F5F5E2F5F5F5F5F5F5F5F5F5F5F5F5F5F5F5F5E2F5F5F5E2E2EFF5F5F5E2F5F5F5F5F5F5F5F5F5F5F5F5F5F5F5F5E2F5F5F5F5F5F5F5F5F5F5F5F5F5F5F5F5F5F5F5F5F5F5F5F5F5F5F5F5F5F5F5F5F5F5F5F5F5F5F5F5
310
F5F5F5F5F5F5F5F5F5F5F5F5F5F5F5F5F5F5F5F5F5F5F5F5F5F5F5F5F5F5F5F5F5F5F5F5F5F5F5F5F5F5F5F5F5F5F5F5F5F5F5F5F5F5F5F5F5F5F5F5F5F5F5F5F5F5F5F5F5F5F5F5F5F5F5F5F5F5F5F5F5F5F5F5F5F5F5F5F5F5F5F5F5F5F5E2F5F5F5F5F5F5F5F5F5F5F5F5F5F5F5F5E2F5F5F5E2E2EFF5F5F5E2F5F5F5F5
310
F5F5F5F5F5F5F5F5F5F5F5F5E2F5F5F5F5F5F5F5F5F5F5F5F5F5F5F5F5F5F5F5F5F5F5F5F5F5F5F5F5F5F5F5F5F5F5F5F5F5F5F5F5F5F5F5F5F5F5F5F5F5F5F5F5F5F5F5F5F5F5F5F5F5F5F5F5F5F5F5F5F5F5F5F5F5F5F5F5F5F5F5F5F5F5F5F5F5F5F5F5F5F5F5F5F5F5F5F5F5F5F5F5F5F5F5F5F5F5F5F5F5F5F5F5F5F5
310
F5F5F5F5F5F5F5F5F5F5F5F5F5F5F5F5F5F5F5F5F5E2F5F5F5F5F5F5F5F5F5F5F5F5F5F5F5F5E2F5F5F5E2E2EFF5F5F5F5F5F5F5F5F5F5F5F5F5F5F5F5F5F5F5F5E2F5F5F5F5F5F5F5F5F5F5F5F5F5F5F5F5F5F5F5F5F5F5F5F5F5F5F5F5F5F5F5F5F5F5F5F5F5F5F5F5F5F5F5F5F5F5F5F5F5F5F5F5F5F5F5F5F5F5F5F5F5
310
F5F5F5F5F5F5F5F5F5F5F5F5F5F5F5F5F5F5F5F5F5F5F5F5F5F5F5F5F5F5F5F5F5F5F5F5F5F5F5F5F5F5F5F5F5F5F5F5F5F5F5F5F5F5F5F5F5F5F5F5F5F5F5F5F5F5F5F5F5F5F5F5F5F5E2F5F5F5F5F5F5F5F5F5F5F5F5F5F5F5F5F5F5F5F5E2E2EFF5F5F5F5F5F5F5F5F5F5F5F5F5F5F5F5F5F5F5F5E2F5F5F5F5F5F5F5F5
310
F5F5F5F5F5F5F5F5F5F5F5F5F5F5F5F5F5F5F5F5F5F5F5F5F5F5F5F5F5F5F5F5F5F5F5F5F5F5F5F5F5F5F5F5F5F5F5F5F5F5F5F5F5F5F5F5F5F5F5F5F5F5F5F5F5F5F5F5F5F5F5F5F5F5F5F5F5F5F5F5F5F5F5F5F5F5F5F5F5F5F5F5F5F5F5F5F5F5F5F5F5F5F5F5F5F5F5F5F5F5F5F5F5F5F5F5F5F5F5F5F5F5F5F5F5F5F5
310
E2F5F5F5F5F5F5F5F5F5F5F5F5F5F5F5F5F5F5F5F5E2E2EFF5F5F5F5F5F5F5F5F5F5F5F5F5F5F5F5F5F5F5F5E2F5F5F5F5F5F5F5F5F5F5F5F5F5F5F5F5F5F5F5F5F5F5F5F5F5F5F5F5F5F5F5F5F5F5F5F5F5F5F5F5F5F5F5F5F5F5F5F5F5F5F5F5F5F5F5F5F5F5F5F5F5F5F5F5F5F5F5F5F5F5F5F5F5F5F5F5F5F5F5F5F5F5
310
F5F5F5F5F5F5F5F5F5F5F5F5F5F5F5F5F5F5F5F5F5F5F5F5F5F5F5F5F5F5F5F5F5F5F5F5F5F5F5F5F5F5F5F5F5F5F5F5F5F5F5F5F5E2F5F5F5F5F5F5F5F5F5F5F5F5F5F5F5F5F5F5F5F5E2E2EFF5F5F5F5F5F5F5F5F5F5F5F5F5F5F5F5F5F5F5F5E2F5F5F5F5F5F5F5F5F5F5F5F5F5F5F5F5F5F5F5F5F5F5F5F5F5F5F5F5F5
310
F5F5F5F5F5F5F5F5F5F5F5F5F5F5F5F5F5F5F5F5F5F5F5F5F5F5F5F5F5F5F5F5F5F5F5F5F5F5F5F5F5F5F5F5F5F5F5F5F5F5F5F5F5F5F5F5F5F5F5F5F5F5F5F5F5F5F5F5F5F5F5F5F5F5F5F5F5F5F5F5F5F5F5F5F5F5F5F5F5F5F5F5F5F5F5F5F5F5F5F5F5F5F5F5F5F5E2F5F5F5F5F5F5F5F5F5F5F5F5F5F5F5F5F5F5F5F5
310
E2E2EFF5F5F5F5F5F5F5F5F5F5F5F5F5F5F5F5F5F5F5F5E2F5F5F5F5F5F5F5F5F5F5F5F5F5F5F5F5F5F5F5F5F5F5F5F5F5F5F5F5F5F5F5F5F5F5F5F5F5F5F5F5F5F5F5F5F5F5F5F5F5F5F5F5F5F5F5F5F5F5F5F5F5F5F5F5F5F5F5F5F5F5F5F5F5F5F5F5F5F5F5F5F5F5F5F5F5F5F5F5F5F5F5F5F5F5F5F5F5F5F5F5F5F5F5
310
F5F5F5F5F5F5F5F5F5F5F5F5F5F5F5F5F5F5F5F5F5F5F5F5F5F5F5F5F5F5F5F5E2F5F5F5F5F5F5F5F5F5F5F5F5F5F5F5F5F5F5F5F5E2E2EFF5F5F5F5F5F5F5F5F5F5F5F5F5F5F5F5F5F5F5F5E2F5F5F5F5F5F5F5F5F5F5F5F5F5F5F5F5F5F5F5F5F5F5F5F5F5F5F5F5F5F5F5F5F5F5F5F5F5F5F5F5F5F5F5F5F5F5F5F5F5F5
310
F5F5F5F5F5F5F5F5F5F5F5F5F5F5F5F5F5F5F5F5F5F5F5F5F5F5F5F5F5F5F5F5F5F5F5F5F5F5F5F5F5F5F5F5F5F5F5F5F5F5F5F5F5F5F5F5F5F5F5F5F5F5F5F5F5F5F5F5F5F5F5F5F5F5F5F5F5F5F5F5F5F5F5F5F5E2F5F5F5F5F5F5F5F5F5F5F5F5F5F5F5F5F5F5F5F5E2E2EFF5F5F5F5F5F5F5F5F5F5F5F5F5F5F5F5F5F5
310
F5F5E2F5F5F5F5F5F5F5F5F5F5F5F5F5F5F5F5F5F5F5F5F5F5F5F5F5F5F5F5F5F5F5F5F5F5F5F5F5F5F5F5F5F5F5F5F5F5F5F5F5F5F5F5F5F5F5F5F5F5F5F5F5F5F5F5F5F5F5F5F5F5F5F5F5F5F5F5F5F5F5F5F5F5F5F5F5F5F5F5F5F5F5F5F5F5F5F5F5F5F5F5F5F5F5F5F5F5F5F5F5F5F5F5F5F5F5F5F5F5F5F5F5F5F5F5
310
F5F5F5F5F5F5F5F5F5F5F5E2F5F5F5F5F5F5F5F5F5F5F5F5F5F5F5F5F5F5F5F5E2E2EFF5F5F5F5F5F5F5F5F5F5F5F5F5F5F5F5F5F5F5F5E2F5F5F5F5F5F5F5F5F5F5F5F5F5F5F5F5F5F5F5F5F5F5F5F5F5F5F5F5F5F5F5F5F5F5F5F5F5F5F5F5F5F5F5F5F5F5F5F5F5F5F5F5F5F5F5F5F5F5F5F5F5F5F5F5F5F5F5F5F5F5F5
310
F5F5F5F5F5F5F5F5F5F5F5F5F5F5F5F5F5F5F5F5F5F5F5F5F5F5F5F5F5F5F5F5F5F5F5F5F5F5F5F5F5F5F5F5F5F5F5F5F5F5F5F5F5F5F5F5F5F5F5F5F5F5F5F5E2F5F5F5F5F5F5F5F5F5F5F5F5F5F5F5F5F5F5F5F5E2E2EFF5F5F5F5F5F5F5F5F5F5F5F5F5F5F5F5F5F5F5F5E2F5F5F5F5F5F5F5F5F5F5F5F5F5F5F5F5F5F5
310
F5F5F5F5F5F5F5F5F5F5F5F5F5F5F5F5F5F5F5F5F5F5F5F5F5F5F5F5F5F5F5F5F5F5F5F5F5F5F5F5F5F5F5F5F5F5F5F5F5F5F5F5F5F5F5F5F5F5F5F5F5F5F5F5F5F5F5F5F5F5F5F5F5F5F5F5F5F5F5F5F5F5F5F5F5F5F5F5F5F5F5F5F5F5F5F5F5F5F5F5F5F5F5F5F5F5F5F5F5F5F5F5F5F5F5F5F5E2F5F5F5F5F5F5F5F5F5
310
F5F5F5F5F5F5F5F5F5F5F5E2E2EFF5F5F5E2F5F5F5F5F5F5F5F5F5F5F5F5F5F5F5F5E2F5F5F5F5F5F5F5F5F5F5F5F5F5F5F5F5F5F5F5F5F5F5F5F5F5F5F5F5F5F5F5F5F5F5F5F5F5F5F5F5F5F5F5F5F5F5F5F5F5F5F5F5F5F5F5F5F5F5F5F5F5F5F5F5F5F5F5F5F5F5F5F5F5F5F5F5F5F5F5F5F5F5F5F5F5F5F5F5F5F5F5F5
310
F5F5F5F5F5F5F5F5F5F5F5F5F5F5F5F5F5F5F5F5F5F5F5F5F5F5F5F5F5F5F5F5F5F5F5F5F5F5F5F5F5F5F5E2F5F5F5F5F5F5F5F5F5F5F5F5F5F5F5F5E2F5F5F5E2E2EFF5F5F5E2F5F5F5F5F5F5F5F5F5F5F5F5F5F5F5F5E2F5F5F5F5F5F5F5F5F5F5F5F5F5F5F5F5F5F5F5F5F5F5F5F5F5F5F5F5F5F5F5F5F5F5F5F5F5F5F5
310
F5F5F5F5F5F5F5F5F5F5F5F5F5F5F5F5F5F5F5F5F5F5F5F5F5F5F5F5F5F5F5F5F5F5F5F5F5F5F5F5F5F5F5F5F5F5F5F5F5F5F5F5F5F5F5F5F5F5F5F5F5F5F5F5F5F5F5F5F5F5F5F5F5F5F5F5F5F5F5F5F5F5F5F5F5F5F5F5F5F5F5F5F5F5F5F5E2F5F5F5F5F5F5F5F5F5F5F5F5F5F5F5F5E2F5F5F5E2E2EFF5F5F5E2F5F5F5
310
F5F5F5F5F5F5F5F5F5F5F5F5F5E2F5F5F5F5F5F5F5F5F5F5F5F5F5F5F5F5F5F5F5F5F5F5F5F5F5F5F5F5F5F5F5F5F5F5F5F5F5F5F5F5F5F5F5F5F5F5F5F5F5F5F5F5F5F5F5F5F5F5F5F5F5F5F5F5F5F5F5F5F5F5F5F5F5F5F5F5F5F5F5F5F5F5F5F5F5F5F5F5F5F5F5F5F5F5F5F5F5F5F5F5F5F5F5F5F5F5F5F5F5F5F5F5F5
310
F5F5F5F5F5F5F5F5F5F5F5F5F5F5F5F5F5F5F5F5F5F5E2F5F5F5F5F5F5F5F5F5F5F5F5F5F5F5F5E2F5F5F5E2E2EFF5F5F5E2F5F5F5F5F5F5F5F5F5F5F5F5F5F5F5F5E2F5F5F5F5F5F5F5F5F5F5F5F5F5F5F5F5F5F5F5F5F5F5F5F5F5F5F5F5F5F5F5F5F5F5F5F5F5F5F5F5F5F5F5F5F5F5F5F5F5F5F5F5F5F5F5F5F5F5F5F5
310
F5F5F5F5F5F5F5F5F5F5F5F5F5F5F5F5F5F5F5F5F5F5F5F5F5F5F5F5F5F5F5F5F5F5F5F5F5F5F5F5F5F5F5F5F5F5F5F5F5F5F5F5F5F5F5F5F5F5F5F5F5F5F5F5F5F5F5F5F5F5F5F5F5F5F5E2F5F5F5F5F5F5F5F5F5F5F5F5F5F5F5F5E2F5F5F5E2E2EFF5F5F5E2F5F5F5F5F5F5F5F5F5F5F5F5F5F5F5F5E2F5F5F5F5F5F5F5
310
F5F5F5F5F5F5F5F5F5F5F5F5F5F5F5F5F5F5F5F5F5F5F5F5F5F5F5F5F5F5F5F5F5F5F5F5F5F5F5F5F5F5F5F5F5F5F5F5F5F5F5F5F5F5F5F5F5F5F5F5F5F5F5F5F5F5F5F5F5F5F5F5F5F5F5F5F5F5F5F5F5F5F5F5F5F5F5F5F5F5F5F5F5F5F5F5F5F5F5F5F5F5F5F5F5F5F5F5F5F5F5F5F5F5F5F5F5F5F5F5F5F5F5F5F5F5F5
310
F5E2F5F5F5F5F5F5F5F5F5F5F5F5F5F5F5F5E2F5F5F5E2E2EFF5F5F5E2F5F5F5F5F5F5F5F5F5F5F5F5F5F5F5F5E2F5F5F5F5F5F5F5F5F5F5F5F5F5F5F5F5F5F5F5F5F5F5F5F5F5F5F5F5F5F5F5F5F5F5F5F5F5F5F5F5F5F5F5F5F5F5F5F5F5F5F5F5F5F5F5F5F5F5F5F5F5F5F5F5F5F5F5F5F5F5F5F5F5F5F5F5F5F5F5F5F5
310
F5F5F5F5F5F5F5F5F5F5F5F5F5F5F5F5F5F5F5F5F5F5F5F5F5F5F5F5F5F5F5F5F5F5F5F5F5F5F5F5F5F5F5F5F5F5F5F5F5F5F5F5F5F5E2F5F5F5F5F5F5F5F5F5F5F5F5F5F5F5F5E2F5F5F5E2E2EFF5F5F5E2F5F5F5F5F5F5F5F5F5F5F5F5F5F5F5F5E2F5F5F5F5F5F5F5F5F5F5F5F5F5F5F5F5F5F5F5F5F5F5F5F5F5F5F5F5
310
F5F5F5F5F5F5F5F5F5F5F5F5F5F5F5F5F5F5F5F5F5F5F5F5F5F5F5F5F5F5F5F5F5F5F5F5F5F5F5F5F5F5F5F5F5F5F5F5F5F5F5F5F5F5F5F5F5F5F5F5F5F5F5F5F5F5F5F5F5F5F5F5F5F5F5F5F5F5F5F5F5F5F5F5F5F5F5F5F5F5F5F5F5F5F5F5F5F5F5F5F5F5F5F5F5F5F5E2F5F5F5F5F5F5F5F5F5F5F5F5F5F5F5F5E2F5F5
310
F5E2E2EFF5F5F5E2F5F5F5F5F5F5F5F5F5F5F5F5F5F5F5F5E2F5F5F5F5F5F5F5F5F5F5F5F5F5F5F5F5F5F5F5F5F5F5F5F5F5F5F5F5F5F5F5F5F5F5F5F5F5F5F5F5F5F5F5F5F5F5F5F5F5F5F5F5F5F5F5F5F5F5F5F5F5F5F5F5F5F5F5F5F5F5F5F5F5F5F5F5F5F5F5F5F5F5F5F5F5F5F5F5F5F5F5F5F5F5F5F5F5F5F5F5F5F5
310
F5F5F5F5F5F5F5F5F5F5F5F5F5F5F5F5F5F5F5F5F5F5F5F5F5F5F5F5F5F5F5F5F5E2F5F5F5F5F5F5F5F5F5F5F5F5F5F5F5F5E2F5F5F5E2E2EFF5F5F5E2F5F5F5F5F5F5F5F5F5F5F5F5F5F5F5F5E2F5F5F5F5F5F5F5F5F5F5F5F5F5F5F5F5F5F5F5F5F5F5F5F5F5F5F5F5F5F5F5F5F5F5F5F5F5F5F5F5F5F5F5F5F5F5F5F5F5
310
F5F5F5F5F5F5F5F5F5F5F5F5F5F5F5F5F5F5F5F5F5F5F5F5F5F5F5F5F5F5F5F5F5F5F5F5F5F5F5F5F5F5F5F5F5F5F5F5F5F5F5F5F5F5F5F5F5F5F5F5F5F5F5F5F5F5F5F5F5F5F5F5F5F5F5F5F5F5F5F5F5F5F5F5F5F5E2F5F5F5F5F5F5F5F5F5F5F5F5F5F5F5F5E2F5F5F5E2E2EFF5F5F5E2F5F5F5F5F5F5F5F5F5F5F5F5F5
310
F5F5F5E2F5F5F5F5F5F5F5F5F5F5F5F5F5F5F5F5F5F5F5F5F5F5F5F5F5F5F5F5F5F5F5F5F5F5F5F5F5F5F5F5F5F5F5F5F5F5F5F5F5F5F5F5F5F5F5F5F5F5F5F5F5F5F5F5F5F5F5F5F5F5F5F5F5F5F5F5F5F5F5F5F5F5F5F5F5F5F5F5F5F5F5F5F5F5F5F5F5F5F5F5F5F5F5F5F5F5F5F5F5F5F5F5F5F5F5F5F5F5F5F5F5F5F5
310
F5F5F5F5F5F5F5F5F5F5F5F5E2F5F5F5F5F5F5F5F5F5F5F5F5F5F5F5F5E2F5F5F5E2E2EFF5F5F5E2F5F5F5F5F5F5F5F5F5F5F5F5F5F5F5F5E2F5F5F5F5F5F5F5F5F5F5F5F5F5F5F5F5F5F5F5F5F5F5F5F5F5F5F5F5F5F5F5F5F5F5F5F5F5F5F5F5F5F5F5F5F5F5F5F5F5F5F5F5F5F5F5F5F5F5F5F5F5F5F5F5F5F5F5F5F5F5
310
F5F5F5F5F5F5F5F5F5F5F5F5F5F5F5F5F5F5F5F5F5F5F5F5F5F5F5F5F5F5F5F5F5F5F5F5F5F5F5F5F5F5F5F5F5F5F5F5F5F5F5F5F5F5F5F5F5F5F5F5F5F5F5F5F5E2F5F5F5F5F5F5F5F5F5F5F5F5F5F5F5F5E2F5F5F5E2E2EFF5F5F5E2F5F5F5F5F5F5F5F5F5F5F5F5F5F5F5F5E2F5F5F5F5F5F5F5F5F5F5F5F5F5F5F5F5F5
310
F5F5F5F5F5F5F5F5F5F5F5F5F5F5F5F5F5F5F5F5F5F5F5F5F5F5F5F5F5F5F5F5F5F5F5F5F5F5F5F5F5F5F5F5F5F5F5F5F5F5F5F5F5F5F5F5F5F5F5F5F5F5F5F5F5F5F5F5F5F5F5F5F5F5F5F5F5F5F5F5F5F5F5F5F5F5F5F5F5F5F5F5F5F5F5F5F5F5F5F5F5F5F5F5F5F5F5F5F5F5F5F5F5F5F5F5F5F5E2F5F5F5F5F5F5F5F5
310
F5F5F5F5F5F5F5F5E2F5F5F5E2E2EFF5F5F5E2F5F5F5F5F5F5F5F5F5F5F5F5F5F5F5F5E2F5F5F5F5F5F5F5F5F5F5F5F5F5F5F5F5F5F5F5F5F5F5F5F5F5F5F5F5F5F5F5F5F5F5F5F5F5F5F5F5F5F5F5F5F5F5F5F5F5F5F5F5F5F5F5F5F5F5F5F5F5F5F5F5F5F5F5F5F5F5F5F5F5F5F5F5F5F5F5F5F5F5F5F5F5F5F5F5F5F5F5
310
F5F5F5F5F5F5F5F5F5F5F5F5F5F5F5F5F5F5F5F5F5F5F5F5F5F5F5F5F5F5F5F5F5F5F5F5F5F5F5F5F5F5F5F5E2F5F5F5F5F5F5F5F5F5F5F5F5F5F5F5F5E2F5F5F5E2E2EFF5F5F5E2F5F5F5F5F5F5F5F5F5F5F5F5F5F5F5F5E2F5F5F5F5F5F5F5F5F5F5F5F5F5F5F5F5F5F5F5F5F5F5F5F5F5F5F5F5F5F5F5F5F5F5F5F5F5F5
310
F5F5F5F5F5F5F5F5F5F5F5F5F5F5F5F5F5F5F5F5F5F5F5F5F5F5F5F5F5F5F5F5F5F5F5F5F5F5F5F5F5F5F5F5F5F5F5F5F5F5F5F5F5F5F5F5F5F5F5F5F5F5F5F5F5F5F5F5F5F5F5F5F5F5F5F5F5F5F5F5F5F5F5F5F5F5F5F5F5F5F5F5F5F5F5F5F5E2F5F5F5F5F5F5F5F5F5F5F5F5F5F5F5F5E2F5F5F5E2E2EFF5F5F5E2F5F5
310
F5F5F5F5F5F5F5F5F5F5F5F5F5F5E2F5F5F5F5F5F5F5F5F5F5F5F5F5F5F5F5F5F5F5F5F5F5F5F5F5F5F5F5F5F5F5F5F5F5F5F5F5F5F5F5F5F5F5F5F5F5F5F5F5F5F5F5F5F5F5F5F5F5F5F5F5F5F5F5F5F5F5F5F5F5F5F5F5F5F5F5F5F5F5F5F5F5F5F5F5F5F5F5F5F5F5F5F5F5F5F5F5F5F5F5F5F5F5F5F5F5F5F5F5F5F5F5
310
F5F5F5F5F5F5F5F5F5F5F5F5F5F5F5F5F5F5F5F5F5F5F5E2F5F5F5F5F5F5F5F5F5F5F5F5F5F5F5F5E2F5F5F5E2E2EFF5F5F5E2F5F5F5F5F5F5F5F5F5F5F5F5F5F5F5F5E2F5F5F5F5F5F5F5F5F5F5F5F5F5F5F5F5F5F5F5F5F5F5F5F5F5F5F5F5F5F5F5F5F5F5F5F5F5F5F5F5F5F5F5F5F5F5F5F5F5F5F5F5F5F5F5F5F5F5F5
310
F5F5F5F5F5F5F5F5F5F5F5F5F5F5F5F5F5F5F5F5F5F5F5F5F5F5F5F5F5F5F5F5F5F5F5F5F5F5F5F5F5F5F5F5F5F5F5F5F5F5F5F5F5F5F5F5F5F5F5F5F5F5F5F5F5F5F5F5F5F5F5F5F5F5F5F5E2F5F5F5F5F5F5F5F5F5F5F5F5F5F5F5F5E2F5F5F5E2E2EFF5F5F5E2F5F5F5F5F5F5F5F5F5F5F5F5F5F5F5F5E2F5F5F5F5F5F5
310
F5F5F5F5F5F5F5F5F5F5F5F5F5F5F5F5F5F5F5F5F5F5F5F5F5F5F5F5F5F5F5F5F5F5F5F5F5F5F5F5F5F5F5F5F5F5F5F5F5F5F5F5F5F5F5F5F5F5F5F5F5F5F5F5F5F5F5F5F5F5F5F5F5F5F5F5F5F5F5F5F5F5F5F5F5F5F5F5F5F5F5F5F5F5F5F5F5F5F5F5F5F5F5F5F5F5F5F5F5F5F5F5F5F5F5F5F5F5F5F5F5F5F5F5F5F5F5
310
F5F5E2F5F5F5F5F5F5F5F5F5F5F5F5F5F5F5F5E2F5F5F5E2E2EFF5F5F5F5F5F5F5F5F5F5F5F5F5F5F5F5F5F5F5F5E2F5F5F5F5F5F5F5F5F5F5F5F5F5F5F5F5F5F5F5F5F5F5F5F5F5F5F5F5F5F5F5F5F5F5F5F5F5F5F5F5F5F5F5F5F5F5F5F5F5F5F5F5F5F5F5F5F5F5F5F5F5F5F5F5F5F5F5F5F5F5F5F5F5F5F5F5F5F5F5F5
310
F5F5F5F5F5F5F5F5F5F5F5F5F5F5F5F5F5F5F5F5F5F5F5F5F5F5F5F5F5F5F5F5F5F5F5F5F5F5F5F5F5F5F5F5F5F5F5F5F5F5F5F5F5F5F5E2F5F5F5F5F5F5F5F5F5F5F5F5F5F5F5F5F5F5F5F5E2E2EFF5F5F5F5F5F5F5F5F5F5F5F5F5F5F5F5F5F5F5F5E2F5F5F5F5F5F5F5F5F5F5F5F5F5F5F5F5F5F5F5F5F5F5F5F5F5F5F5
310
F5F5F5F5F5F5F5F5F5F5F5F5F5F5F5F5F5F5F5F5F5F5F5F5F5F5F5F5F5F5F5F5F5F5F5F5F5F5F5F5F5F5F5F5F5F5F5F5F5F5F5F5F5F5F5F5F5F5F5F5F5F5F5F5F5F5F5F5F5F5F5F5F5F5F5F5F5F5F5F5F5F5F5F5F5F5F5F5F5F5F5F5F5F5F5F5F5F5F5F5F5F5F5F5F5F5F5F5E2F5F5F5F5F5F5F5F5F5F5F5F5F5F5F5F5F5F5
310
F5F5E2E2EFF5F5F5F5F5F5F5F5F5F5F5F5F5F5F5F5F5F5F5F5E2F5F5F5F5F5F5F5F5F5F5F5F5F5F5F5F5F5F5F5F5F5F5F5F5F5F5F5F5F5F5F5F5F5F5F5F5F5F5F5F5F5F5F5F5F5F5F5F5F5F5F5F5F5F5F5F5F5F5F5F5F5F5F5F5F5F5F5F5F5F5F5F5F5F5F5F5F5F5F5F5F5F5F5F5F5F5F5F5F5F5F5F5F5F5F5F5F5F5F5F5F5
310
F5F5F5F5F5F5F5F5F5F5F5F5F5F5F5F5F5F5F5F5F5F5F5F5F5F5F5F5F5F5F5F5F5F5E2F5F5F5F5F5F5F5F5F5F5F5F5F5F5F5F5F5F5F5F5E2E2EFF5F5F5F5F5F5F5F5F5F5F5F5F5F5F5F5F5F5F5F5E2F5F5F5F5F5F5F5F5F5F5F5F5F5F5F5F5F5F5F5F5F5F5F5F5F5F5F5F5F5F5F5F5F5F5F5F5F5F5F5F5F5F5F5F5F5F5F5F5
310
F5F5F5F5F5F5F5F5F5F5F5F5F5F5F5F5F5F5F5F5F5F5F5F5F5F5F5F5F5F5F5F5F5F5F5F5F5F5F5F5F5F5F5F5F5F5F5F5F5F5F5F5F5F5F5F5F5F5F5F5F5F5F5F5F5F5F5F5F5F5F5F5F5F5F5F5F5F5F5F5F5F5F5F5F5F5F5E2F5F5F5F5F5F5F5F5F5F5F5F5F5F5F5F5F5F5F5F5E2E2EFF5F5F5F5F5F5F5F5F5F5F5F5F5F5F5F5
310
F5F5F5F5E2E2E2E2E2E2E2E2E2E2E2E2E2E2E2E2E2E2E2E2E2E2E2E2E2E2E2E2E2E2E2E2E2E2E2E2E2E2E2E2E2E2E2E2E2E2E2E2E2E2E2E2E2E2E2E2E2E2E2E2E2E2E2E2E2E2E2E2E2E2E2E2E2E2E2E2E2E2E2E2E2E2E2E2E2E2E2E2E2E2E2E2E2E2E2E2E2E2E2E2E2E2E2E2E2E2E2E2E2E2E2E2E2E2E2E2E2E2E2E2E2E2E2
310
E2E2E2E2E2E2E2E2E2E2E2E2E2E2F5F5F5F5F5F5F5F5F5F5F5F5F5F5F5F5F5F5F5F5E2E2EFF5F5F5F5F5F5F5F5F5F5F5F5F5F5F5F5F5F5F5F5F5F5F5F5F5F5F5F5F5F5F5F5F5F5F5F5F5F5F5F5F5F5F5F5F5F5F5F5F5F5F5F5F5F5F5F5F5F5F5F5F5F5F5F5F5F5F5F5F5F5F5F5F5F5F5F5F5F5F5F5F5F5F5F5F5F5F5F5F5F5
310
F5F5F5F5F5F5F5F5F5F5F5F5F5F5F5F5F5F5F5F5F5F5F5F5F5F5F5F5F5F5F5F5F5F5F5F5F5F5F5F5F5F5F5F5F5F5F5F5F5F5F5F5F5F5F5F5F5F5F5F5F5F5F5F5F5F5F5F5F5F5F5F5F5F5F5F5F5F5F5F5F5F5F5F5F5F5F5E2E2EFF5F5F5F5F5F5F5F5F5F5F5F5F5F5F5F5F5F5F5F5F5F5F5F5F5F5F5F5F5F5F5F5F5F5F5F5F5
310
F5F5F5F5F5F5F5F5F5F5F5F5F5F5F5F5F5F5F5F5F5F5F5F5F5F5F5F5F5F5F5F5F5F5F5F5F5F5F5F5F5F5F5F5F5F5F5F5F5F5F5F5F5F5F5F5F5F5F5F5F5F5F5F5F5F5F5F5F5F5F5F5F5F5F5F5F5F5F5F5F5F5F5F5F5F5F5F5F5F5F5F5F5F5F5F5F5F5F5F5F5F5F5F5F5F5F5F5F5F5F5F5F5F5F5F5F5F5F5F5F5F5F5F5F5F5F5
310
F5F5F5F5F5F5F5F5F5F5F5F5F5E2E2EFF5F5F5F5F5F5F5F5F5F5F5F5F5F5F5F5F5F5F5F5F5F5F5F5F5F5F5F5F5F5F5F5F5F5F5F5F5F5F5F5F5F5F5F5F5F5F5F5F5F5F5F5F5F5F5F5F5F5F5F5F5F5F5F5F5F5F5F5F5F5F5F5F5F5F5F5F5F5F5F5F5F5F5F5F5F5F5F5F5F5F5F5F5F5F5F5F5F5F5F5F5F5F5F5F5F5F5F5F5F5F5
310
F5F5F5F5F5F5F5F5F5F5F5F5F5F5F5F5F5F5F5F5F5F5F5F5F5F5F5F5F5F5F5F5F5F5F5F5F5F5F5F5F5F5F5F5F5F5F5F5F5F5F5F5F5F5F5F5F5F5F5F5F5F5F5F5F5F5E2E2EFF5F5F5F5F5F5F5F5F5F5F5F5F5F5F5F5F5F5F5F5F5F5F5F5F5F5F5F5F5F5F5F5F5F5F5F5F5F5F5F5F5F5F5F5F5F5F5F5F5F5F5F5F5F5F5F5F5F5
310
F5F5F5F5F5F5F5F5F5F5F5F5F5F5F5F5F5F5F5F5F5F5F5F5F5F5F5F5F5F5F5F5F5F5F5F5F5F5F5F5F5F5F5F5F5F5F5F5F5F5F5F5F5F5F5F5F5F5F5F5F5F5F5F5F5F5F5F5F5F5F5F5F5F5F5F5F5F5F5F5F5F5F5F5F5F5F5F5F5F5F5F5F5F5F5F5F5F5F5F5F5F5F5F5F5F5F5F5F5F5F5F5F5F5F5F5F5F5F5E2E2EFF5F5F5E2F5
310
F5F5F5F5F5F5F5F5F5F5F5F5F5F5F5F5F5F5F5F5F5F5F5F5F5F5F5F5F5F5F5F5F5F5F5F5F5F5F5F5F5F5F5F5F5F5F5F5F5F5F5F5F5F5F5F5F5F5F5F5F5F5F5F5F5F5F5F5F5F5F5F5F5F5F5F5F5F5F5F5F5F5F5F5F5F5F5F5F5F5F5F5F5F5F5F5F5F5F5F5F5F5F5F5F5F5F5F5F5F5F5F5F5F5F5F5F5F5F5F5F5F5F5F5F5F5F5
310
F5F5F5F5F5F5F5F5F5F5F5F5F5F5F5F5F5F5F5F5F5F5F5F5F5F5F5F5F5F5F5F5F5F5F5F5F5F5F5F5F5E2F5F5F5E2E2EFF5F5F5E2F5F5F5F5F5F5F5F5F5F5F5F5F5F5F5F5F5F5F5F5F5F5F5F5F5F5F5F5F5F5F5F5F5F5F5F5F5F5F5F5F5F5F5F5F5F5F5F5F5F5F5F5F5F5F5F5F5F5F5F5F5F5F5F5F5F5F5F5F5F5F5F5F5F5F5
310
F5F5F5F5F5F5F5F5F5F5F5F5F5F5F5F5F5F5F5F5F5F5F5F5F5F5F5F5F5F5F5F5F5F5F5F5F5F5F5F5F5F5F5F5F5F5F5F5F5F5F5F5F5F5F5F5F5F5F5F5F5F5F5F5F5F5F5F5F5F5F5F5F5F5F5F5F5F5F5F5F5F5F5F5F5F5F5F5F5F5F5F5F5F5E2F5F5F5E2E2EFF5F5F5E2F5F5F5F5F5F5F5F5F5F5F5F5F5F5F5F5F5F5F5F5F5F5
310
F5F5F5F5F5F5F5F5F5F5F5F5F5F5F5F5F5F5F5F5F5F5F5F5F5F5F5F5F5F5F5F5F5F5F5F5F5F5F5F5F5F5F5F5F5F5F5F5F5F5F5F5F5F5F5F5F5F5F5F5F5F5F5F5F5F5F5F5F5F5F5F5F5F5F5F5F5F5F5F5F5F5F5F5F5F5F5F5F5F5F5F5F5F5F5F5F5F5F5F5F5F5F5F5F5F5F5F5F5F5F5F5F5F5F5F5F5F5F5F5F5F5F5F5F5F5F5
310
F5F5F5F5F5F5F5F5F5F5F5F5F5F5F5F5F5F5F5F5E2F5F5F5E2E2EFF5F5F5E2F5F5F5F5F5F5F5F5F5F5F5F5F5F5F5F5F5F5F5F5F5F5F5F5F5F5F5F5F5F5F5F5F5F5F5F5F5F5F5F5F5F5F5F5F5F5F5F5F5F5F5F5F5F5F5F5F5F5F5F5F5F5F5F5F5F5F5F5F5F5F5F5F5F5F5F5F5F5F5F5F5F5F5F5F5F5F5F5F5F5F5F5F5F5F5F5
310
F5F5F5F5F5F5F5F5F5F5F5F5F5F5F5F5F5F5F5F5F5F5F5F5F5F5F5F5F5F5F5F5F5F5F5F5F5F5F5F5F5F5F5F5F5F5F5F5F5F5F5F5F5F5F5F5F5F5F5F5F5F5F5F5F5F5F5F5F5F5F5F5F5E2F5F5F5E2E2EFF5F5F5E2F5F5F5F5F5F5F5F5F5F5F5F5F5F5F5F5F5F5F5F5F5F5F5F5F5F5F5F5F5F5F5F5F5F5F5F5F5F5F5F5F5F5F5
310
F5F5F5F5F5F5F5F5F5F5F5F5F5F5F5F5F5F5F5F5F5F5F5F5F5F5F5F5F5F5F5F5F5F5F5F5F5F5F5F5F5F5F5F5F5F5F5F5F5F5F5F5F5F5F5F5F5F5F5F5F5F5F5F5F5F5F5F5F5F5F5F5F5F5F5F5F5F5F5F5F5F5F5F5F5F5F5F5F5F5F5F5F5F5F5F5F5F5F5F5F5F5F5F5F5F5F5F5F5F5F5F5F5F5F5F5F5F5F5F5F5F5F5F5F5F5E2
310
F5F5F5E2E2EFF5F5F5E2F5F5F5F5F5F5F5F5F5F5F5F5F5F5F5F5F5F5F5F5F5F5F5F5F5F5F5F5F5F5F5F5F5F5F5F5F5F5F5F5F5F5F5F5F5F5F5F5F5F5F5F5F5F5F5F5F5F5F5F5F5F5F5F5F5F5F5F5F5F5F5F5F5F5F5F5F5F5F5F5F5F5F5F5F5F5F5F5F5F5F5F5F5F5F5F5F5F5F5F5F5F5F5F5F5F5F5F5F5F5F5F5F5F5F5F5F5
310
F5F5F5F5F5F5F5F5F5F5F5F5F5F5F5F5F5F5F5F5F5F5F5F5F5F5F5F5F5F5F5F5F5F5F5F5F5F5F5F5F5F5F5F5F5F5F5F5F5F5F5F5E2F5F5F5E2E2EFF5F5F5E2F5F5F5F5F5F5F5F5F5F5F5F5F5F5F5F5F5F5F5F5F5F5F5F5F5F5F5F5F5F5F5F5F5F5F5F5F5F5F5F5F5F5F5F5F5F5F5F5F5F5F5F5F5F5F5F5F5F5F5F5F5F5F5F5
310
F5F5F5F5F5F5F5F5F5F5F5F5F5F5F5F5F5F5F5F5F5F5F5F5F5F5F5F5F5F5F5F5F5F5F5F5F5F5F5F5F5F5F5F5F5F5F5F5F5F5F5F5F5F5F5F5F5F5F5F5F5F5F5F5F5F5F5F5F5F5F5F5F5F5F5F5F5F5F5F5F5F5F5F5F5F5F5F5F5F5F5F5F5F5F5F5F5F5F5F5F5F5F5F5F5E2F5F5F5E2E2EFF5F5F5E2F5F5F5F5F5F5F5F5F5F5F5
310
F5F5F5F5F5F5F5F5F5F5F5F5F5F5F5F5F5F5F5F5F5F5F5F5F5F5F5F5F5F5F5F5F5F5F5F5F5F5F5F5F5F5F5F5F5F5F5F5F5F5F5F5F5F5F5F5F5F5F5F5F5F5F5F5F5F5F5F5F5F5F5F5F5F5F5F5F5F5F5F5F5F5F5F5F5F5F5F5F5F5F5F5F5F5F5F5F5F5F5F5F5F5F5F5F5F5F5F5F5F5F5F5F5F5F5F5F5F5F5F5F5F5F5F5F5F5F5
310
F5F5F5F5F5F5F5F5F5F5F5F5F5F5F5F5F5F5F5F5F5F5F5F5F5F5F5F5F5F5F5E2F5F5F5E2E2EFF5F5F5E2E2E2E2E2E2E2E2F5F5F5F5F5F5F5F5F5E2E2E2E2E2E2E2E2E2E2E2E2E2E2E2E2F5F5F5F5F5F5F5F5E2E2E2E2E2E2E2E2E2E2E2E2E2E2E2E2F5F5F5F5F5F5F5F5F5E2E2E2E2E2E2E2E2E2E2E2E2E2E2E2F5F5F5F5F5
310
F5F5F5F5E2E2E2E2E2E2E2E2E2E2E2E2E2E2E2F5F5F5F5F5F5F5F5F5E2E2E2E2E2E2E2E2E2E2E2E2E2E2E2E2F5F5F5F5F5F5F5F5E2E2E2E2E2E2E2E2E2E2E2E2E2E2E2E2F5F5F5F5F5F5F5F5F5E2E2E2E2E2E2E2E2F5F5F5E2E2EFF5F5F5F5F5F5F5F5F5F5F5F5F5F5F5F5F5F5F5F5F5F5F5F5F5F5F5F5F5F5F5F5F5F5F5F5
310
F5F5F5F5F5F5F5F5F5F5F5F5F5F5F5F5F5F5F5F5F5F5F5F5F5F5F5F5F5F5F5F5F5F5F5F5F5F5F5F5F5F5F5F5F5F5F5F5F5F5F5F5F5F5F5F5F5F5F5F5F5F5F5F5F5F5F5F5F5F5F5F5F5F5F5F5F5F5F5F5F5F5F5F5F5F5F5F5F5F5F5F5F5F5F5F5F5F5F5F5F5F5F5F5F5F5F5F5F5F5F5F5F5F5F5F5F5F5F5F5F5F5F5F5F5F5F5
310
F5F5F5F5F5F5F5F5F5F5F5F5F5F5E2E2EFF5F5F5F5F5F5F5F5F5F5F5F5F5F5F5F5F5F5F5F5F5F5F5F5F5F5F5F5F5F5F5F5F5F5F5F5F5F5F5F5F5F5F5F5F5F5F5F5F5F5F5F5F5F5F5F5F5F5F5F5F5F5F5F5F5F5F5F5F5F5F5F5F5F5F5F5F5F5F5F5F5F5F5F5F5F5F5F5F5F5F5F5F5F5F5F5F5F5F5F5F5F5F5F5F5F5F5F5F5F5
310
F5F5F5F5F5F5F5F5F5F5F5F5F5F5F5F5F5F5F5F5F5F5F5F5F5F5F5F5F5F5F5F5F5F5F5F5F5F5F5F5F5F5F5F5F5F5F5F5F5F5F5F5F5F5F5F5F5F5F5F5F5F5F5F5F5F5F5E2EFEFF5F5F5F5F5F5F5F5F5F5F5F5F5F5F5F5F5F5F5F5F5F5F5F5F5F5F5F5F5F5F5F5F5F5F5F5F5F5F5F5F5F5F5F5F5F5F5F5F5F5F5F5F5F5F5F5F5
310
F5F5F5F5F5F5F5F5F5F5F5F5F5F5F5F5F5F5F5F5F5F5F5F5F5F5F5F5F5F5F5F5F5F5F5F5F5F5F5F5F5F5F5F5F5F5F5F5F5F5F5F5F5F5F5F5F5F5F5F5F5F5F5F5F5F5F5F5F5F5F5F5F5F5F5F5F5F5F5F5F5F5F5F5F5F5F5F5F5F5F5F5F5F5F5F5F5F5F5F5F5F5F5F5F5F5F5F5F5F5F5F5F5F5F5F5F5F5F5F5E2EFEFE2E2E2E2
310
E2E2E2E2E2E2E2E2E2E2E2E2E2E2E2E2E2E2E2E2E2E2E2E2E2E2E2E2E2E2E2E2E2E2E2E2E2E2E2E2E2E2E2E2E2E2E2E2E2E2E2E2E2E2E2E2E2E2E2E2E2E2E2E2E2E2E2E2E2E2E2E2E2E2E2E2E2E2E2E2E2E2E2E2E2E2E2E2E2E2E2E2E2E2E2E2E2E2E2E2E2E2E2E2E2E2E2E2E2E2E2E2E2E2E2E2E2E2E2E2E2E2E2E2E2E2E2
310
E2E2E2E2E2E2E2E2E2E2E2E2E2E2E2E2E2E2E2E2E2E2E2E2E2E2E2E2E2E2E2E2E2E2E2E2E2E2E2E2E2E2E2E2E2E2E2EFEF
  0
ENDSEC
  0
EOF
