  0
SECTION
  2
HEADER
  9
$ACADVER
  1
AC1018
  9
$ACADMAINTVER
 70
     0
  9
$DWGCODEPAGE
  3
ANSI_1252
  9
$AUTHOR
  1
g6edxjah
  9
$LASTSAVEDBY
  1
g6edxjah
  9
$INSBASE
 10
0.0
 20
0.0
 30
0.0
  9
$EXTMIN
 10
51.918458
 20
0.043458
 30
0.0
  9
$EXTMAX
 10
63.081542
 20
8.456542
 30
0.0
  9
$LIMMIN
 10
29.543291
 20
-23.706709
  9
$LIMMAX
 10
85.456709
 20
32.206709
  9
$ORTHOMODE
 70
     0
  9
$REGENMODE
 70
     1
  9
$FILLMODE
 70
     1
  9
$QTEXTMODE
 70
     0
  9
$MIRRTEXT
 70
     0
  9
$LTSCALE
 40
1.0
  9
$ATTMODE
 70
     1
  9
$TEXTSIZE
 40
0.12
  9
$TRACEWID
 40
0.05
  9
$TEXTSTYLE
  7
Standard
  9
$CLAYER
  8
TEXT
  9
$CELTYPE
  6
Continuous
  9
$CECOLOR
 62
     7
  9
$CELTSCALE
 40
1.0
  9
$DISPSILH
 70
     0
  9
$DIMSCALE
 40
1.0
  9
$DIMASZ
 40
0.12
  9
$DIMEXO
 40
0.06
  9
$DIMDLI
 40
0.0
  9
$DIMRND
 40
0.0
  9
$DIMDLE
 40
0.0
  9
$DIMEXE
 40
0.06
  9
$DIMTP
 40
0.0
  9
$DIMTM
 40
0.0
  9
$DIMTXT
 40
0.12
  9
$DIMCEN
 40
0.09
  9
$DIMTSZ
 40
0.0
  9
$DIMTOL
 70
     0
  9
$DIMLIM
 70
     0
  9
$DIMTIH
 70
     0
  9
$DIMTOH
 70
     0
  9
$DIMSE1
 70
     0
  9
$DIMSE2
 70
     0
  9
$DIMTAD
 70
     1
  9
$DIMZIN
 70
    11
  9
$DIMBLK
  1
TerminatorOpen_0.5
  9
$DIMASO
 70
     1
  9
$DIMSHO
 70
     1
  9
$DIMPOST
  1

  9
$DIMAPOST
  1

  9
$DIMALT
 70
     0
  9
$DIMALTD
 70
     4
  9
$DIMALTF
 40
25.4
  9
$DIMLFAC
 40
1.0
  9
$DIMTOFL
 70
     0
  9
$DIMTVP
 40
0.0
  9
$DIMTIX
 70
     0
  9
$DIMSOXD
 70
     0
  9
$DIMSAH
 70
     0
  9
$DIMBLK1
  1

  9
$DIMBLK2
  1

  9
$DIMSTYLE
  2
Standard
  9
$DIMCLRD
 70
     0
  9
$DIMCLRE
 70
     0
  9
$DIMCLRT
 70
     0
  9
$DIMTFAC
 40
1.0
  9
$DIMGAP
 40
0.06
  9
$DIMJUST
 70
     0
  9
$DIMSD1
 70
     0
  9
$DIMSD2
 70
     0
  9
$DIMTOLJ
 70
     0
  9
$DIMTZIN
 70
    11
  9
$DIMALTZ
 70
    15
  9
$DIMALTTZ
 70
    15
  9
$DIMUPT
 70
     0
  9
$DIMDEC
 70
     4
  9
$DIMTDEC
 70
     4
  9
$DIMALTU
 70
     2
  9
$DIMALTTD
 70
     4
  9
$DIMTXSTY
  7
Style-Arial
  9
$DIMAUNIT
 70
     0
  9
$DIMADEC
 70
     4
  9
$DIMALTRND
 40
0.0
  9
$DIMAZIN
 70
     3
  9
$DIMDSEP
 70
    46
  9
$DIMATFIT
 70
     1
  9
$DIMFRAC
 70
     0
  9
$DIMLDRBLK
  1
TerminatorOpen_0.5
  9
$DIMLUNIT
 70
     2
  9
$DIMLWD
 70
    -2
  9
$DIMLWE
 70
    -2
  9
$DIMTMOVE
 70
     0
  9
$LUNITS
 70
     2
  9
$LUPREC
 70
     4
  9
$SKETCHINC
 40
0.1
  9
$FILLETRAD
 40
0.0
  9
$AUNITS
 70
     0
  9
$AUPREC
 70
     4
  9
$MENU
  1
.
  9
$ELEVATION
 40
0.0
  9
$PELEVATION
 40
0.0
  9
$THICKNESS
 40
0.0
  9
$LIMCHECK
 70
     0
  9
$CHAMFERA
 40
0.0
  9
$CHAMFERB
 40
0.0
  9
$CHAMFERC
 40
0.0
  9
$CHAMFERD
 40
0.0
  9
$SKPOLY
 70
     0
  9
$TDCREATE
 40
2455393.415584236
  9
$TDUCREATE
 40
2455393.623917569
  9
$TDUPDATE
 40
2455393.415584236
  9
$TDUUPDATE
 40
2455393.623917569
  9
$TDINDWG
 40
0.0
  9
$TDUSRTIMER
 40
0.0006630093
  9
$USRTIMER
 70
     1
  9
$ANGBASE
 50
0.0
  9
$ANGDIR
 70
     0
  9
$PDMODE
 70
     0
  9
$PDSIZE
 40
0.0
  9
$PLINEWID
 40
0.0
  9
$SPLFRAME
 70
     0
  9
$SPLINETYPE
 70
     6
  9
$SPLINESEGS
 70
     8
  9
$HANDSEED
  5
5CA
  9
$SURFTAB1
 70
     6
  9
$SURFTAB2
 70
     6
  9
$SURFTYPE
 70
     6
  9
$SURFU
 70
     6
  9
$SURFV
 70
     6
  9
$UCSBASE
  2

  9
$UCSNAME
  2

  9
$UCSORG
 10
0.0
 20
0.0
 30
0.0
  9
$UCSXDIR
 10
1.0
 20
0.0
 30
0.0
  9
$UCSYDIR
 10
0.0
 20
1.0
 30
0.0
  9
$UCSORTHOREF
  2

  9
$UCSORTHOVIEW
 70
     0
  9
$UCSORGTOP
 10
0.0
 20
0.0
 30
0.0
  9
$UCSORGBOTTOM
 10
0.0
 20
0.0
 30
0.0
  9
$UCSORGLEFT
 10
0.0
 20
0.0
 30
0.0
  9
$UCSORGRIGHT
 10
0.0
 20
0.0
 30
0.0
  9
$UCSORGFRONT
 10
0.0
 20
0.0
 30
0.0
  9
$UCSORGBACK
 10
0.0
 20
0.0
 30
0.0
  9
$PUCSBASE
  2

  9
$PUCSNAME
  2

  9
$PUCSORG
 10
0.0
 20
0.0
 30
0.0
  9
$PUCSXDIR
 10
1.0
 20
0.0
 30
0.0
  9
$PUCSYDIR
 10
0.0
 20
1.0
 30
0.0
  9
$PUCSORTHOREF
  2

  9
$PUCSORTHOVIEW
 70
     0
  9
$PUCSORGTOP
 10
0.0
 20
0.0
 30
0.0
  9
$PUCSORGBOTTOM
 10
0.0
 20
0.0
 30
0.0
  9
$PUCSORGLEFT
 10
0.0
 20
0.0
 30
0.0
  9
$PUCSORGRIGHT
 10
0.0
 20
0.0
 30
0.0
  9
$PUCSORGFRONT
 10
0.0
 20
0.0
 30
0.0
  9
$PUCSORGBACK
 10
0.0
 20
0.0
 30
0.0
  9
$USERI1
 70
     0
  9
$USERI2
 70
     0
  9
$USERI3
 70
     0
  9
$USERI4
 70
     0
  9
$USERI5
 70
     0
  9
$USERR1
 40
0.0
  9
$USERR2
 40
0.0
  9
$USERR3
 40
0.0
  9
$USERR4
 40
0.0
  9
$USERR5
 40
0.0
  9
$WORLDVIEW
 70
     1
  9
$SHADEDGE
 70
     3
  9
$SHADEDIF
 70
    70
  9
$TILEMODE
 70
     1
  9
$MAXACTVP
 70
    64
  9
$PINSBASE
 10
0.0
 20
0.0
 30
0.0
  9
$PLIMCHECK
 70
     0
  9
$PEXTMIN
 10
1.049744
 20
0.799667
 30
-0.001526
  9
$PEXTMAX
 10
9.450623
 20
7.200577
 30
0.0
  9
$PLIMMIN
 10
-0.25
 20
-0.25
  9
$PLIMMAX
 10
10.75
 20
8.25
  9
$UNITMODE
 70
     0
  9
$VISRETAIN
 70
     1
  9
$PLINEGEN
 70
     0
  9
$PSLTSCALE
 70
     0
  9
$TREEDEPTH
 70
  3020
  9
$CMLSTYLE
  2
Standard
  9
$CMLJUST
 70
     0
  9
$CMLSCALE
 40
1.0
  9
$PROXYGRAPHICS
 70
     1
  9
$MEASUREMENT
 70
     0
  9
$CELWEIGHT
370
    13
  9
$ENDCAPS
280
     0
  9
$JOINSTYLE
280
     0
  9
$LWDISPLAY
290
     1
  9
$INSUNITS
 70
     2
  9
$HYPERLINKBASE
  1

  9
$STYLESHEET
  1

  9
$XEDIT
290
     1
  9
$CEPSNTYPE
380
     0
  9
$PSTYLEMODE
290
     1
  9
$FINGERPRINTGUID
  2
{02C0BBB5-38A7-4FBF-829E-00875EC88963}
  9
$VERSIONGUID
  2
{82C521FC-BF81-46B3-825E-420B6BD93A99}
  9
$EXTNAMES
290
     1
  9
$PSVPSCALE
 40
0.0
  9
$OLESTARTUP
290
     0
  9
$SORTENTS
280
   127
  9
$INDEXCTL
280
     0
  9
$HIDETEXT
280
     1
  9
$XCLIPFRAME
290
     0
  9
$HALOGAP
280
     0
  9
$OBSCOLOR
 70
   257
  9
$OBSLTYPE
280
     0
  9
$INTERSECTIONDISPLAY
280
     0
  9
$INTERSECTIONCOLOR
 70
   257
  9
$DIMASSOC
280
     1
  9
$PROJECTNAME
  1

  0
ENDSEC
  0
SECTION
  2
CLASSES
  0
CLASS
  1
ACDBDICTIONARYWDFLT
  2
AcDbDictionaryWithDefault
  3
ObjectDBX Classes
 90
        0
 91
        3
280
     0
281
     0
  0
CLASS
  1
SORTENTSTABLE
  2
AcDbSortentsTable
  3
ObjectDBX Classes
 90
        0
 91
        3
280
     0
281
     0
  0
ENDSEC
  0
SECTION
  2
TABLES
  0
TABLE
  2
VPORT
  5
5AB
330
0
100
AcDbSymbolTable
 70
     4
  0
VPORT
  5
49
330
5AB
100
AcDbSymbolTableRecord
100
AcDbViewportTableRecord
  2
*ACTIVE
 70
     0
 10
0.0
 20
0.0
 11
1.0
 21
1.0
 12
57.5
 22
4.25
 13
0.0
 23
0.0
 14
0.083333
 24
0.083333
 15
0.083333
 25
0.083333
 16
0.0
 26
0.0
 36
1.0
 17
0.0
 27
0.0
 37
0.0
 40
8.749607
 41
1.762795
 42
50.0
 43
0.0
 44
0.0
 50
0.0
 51
0.0
 71
     0
 72
   100
 73
     1
 74
     2
 75
     0
 76
     0
 77
     0
 78
     1
281
     0
 65
     1
110
0.0
120
0.0
130
0.0
111
1.0
121
0.0
131
0.0
112
0.0
122
1.0
132
0.0
 79
     0
146
0.0
  0
ENDTAB
  0
TABLE
  2
LTYPE
  5
592
330
0
100
AcDbSymbolTable
 70
     1
  0
LTYPE
  5
593
330
592
100
AcDbSymbolTableRecord
100
AcDbLinetypeTableRecord
  2
ByBlock
 70
     0
  3

 72
    65
 73
     0
 40
0.0
  0
LTYPE
  5
594
330
592
100
AcDbSymbolTableRecord
100
AcDbLinetypeTableRecord
  2
ByLayer
 70
     0
  3

 72
    65
 73
     0
 40
0.0
  0
LTYPE
  5
591
330
592
100
AcDbSymbolTableRecord
100
AcDbLinetypeTableRecord
  2
Continuous
 70
     0
  3
Solid line
 72
    65
 73
     0
 40
0.0
  0
ENDTAB
  0
TABLE
  2
LAYER
  5
58B
102
{ACAD_XDICTIONARY
360
58C
102
}
330
0
100
AcDbSymbolTable
 70
    64
  0
LAYER
  5
58A
330
58B
100
AcDbSymbolTableRecord
100
AcDbLayerTableRecord
  2
0
 70
     0
 62
     7
  6
Continuous
370
    -3
390
58E
  0
LAYER
  5
7
330
58B
100
AcDbSymbolTableRecord
100
AcDbLayerTableRecord
  2
Level 1
 70
     0
 62
     7
  6
Continuous
370
     0
390
58E
  0
LAYER
  5
8
330
58B
100
AcDbSymbolTableRecord
100
AcDbLayerTableRecord
  2
2-36G
 70
     0
 62
     7
  6
Continuous
370
     0
390
58E
1001
AcAecLayerStandard
1000

1000
2-36G
  0
LAYER
  5
9
330
58B
100
AcDbSymbolTableRecord
100
AcDbLayerTableRecord
  2
BORDER
 70
     0
 62
     7
  6
Continuous
370
     0
390
58E
1001
AcAecLayerStandard
1000

1000
BORDER
  0
LAYER
  5
A
330
58B
100
AcDbSymbolTableRecord
100
AcDbLayerTableRecord
  2
DEFPOINTS
 70
     0
 62
     7
  6
Continuous
290
     0
370
     0
390
58E
1001
AcAecLayerStandard
1000

1000
DEFPOINTS
  0
LAYER
  5
B
330
58B
100
AcDbSymbolTableRecord
100
AcDbLayerTableRecord
  2
DIM
 70
     0
 62
     7
  6
Continuous
370
     0
390
58E
1001
AcAecLayerStandard
1000

1000
DIM
  0
LAYER
  5
C
330
58B
100
AcDbSymbolTableRecord
100
AcDbLayerTableRecord
  2
HATCH
 70
     0
 62
     7
  6
Continuous
370
     0
390
58E
1001
AcAecLayerStandard
1000

1000
HATCH
  0
LAYER
  5
D
330
58B
100
AcDbSymbolTableRecord
100
AcDbLayerTableRecord
  2
NOTES
 70
     0
 62
     7
  6
Continuous
370
     0
390
58E
1001
AcAecLayerStandard
1000

1000
NOTES
  0
LAYER
  5
E
330
58B
100
AcDbSymbolTableRecord
100
AcDbLayerTableRecord
  2
REF
 70
     0
 62
     7
  6
Continuous
370
     0
390
58E
1001
AcAecLayerStandard
1000

1000
REF
  0
LAYER
  5
F
330
58B
100
AcDbSymbolTableRecord
100
AcDbLayerTableRecord
  2
TEXT
 70
     0
 62
     7
  6
Continuous
370
     0
390
58E
1001
AcAecLayerStandard
1000

1000
TEXT
  0
LAYER
  5
10
330
58B
100
AcDbSymbolTableRecord
100
AcDbLayerTableRecord
  2
TITLE
 70
     0
 62
     7
  6
Continuous
370
     0
390
58E
1001
AcAecLayerStandard
1000

1000
TITLE
  0
LAYER
  5
11
330
58B
100
AcDbSymbolTableRecord
100
AcDbLayerTableRecord
  2
Level 11
 70
     0
 62
     7
  6
Continuous
370
     0
390
58E
  0
LAYER
  5
12
330
58B
100
AcDbSymbolTableRecord
100
AcDbLayerTableRecord
  2
Level 12
 70
     0
 62
     7
  6
Continuous
370
     0
390
58E
  0
LAYER
  5
13
330
58B
100
AcDbSymbolTableRecord
100
AcDbLayerTableRecord
  2
Level 13
 70
     0
 62
     7
  6
Continuous
370
     0
390
58E
  0
LAYER
  5
14
330
58B
100
AcDbSymbolTableRecord
100
AcDbLayerTableRecord
  2
Level 14
 70
     0
 62
     7
  6
Continuous
370
     0
390
58E
  0
LAYER
  5
15
330
58B
100
AcDbSymbolTableRecord
100
AcDbLayerTableRecord
  2
Level 15
 70
     0
 62
     7
  6
Continuous
370
     0
390
58E
  0
LAYER
  5
16
330
58B
100
AcDbSymbolTableRecord
100
AcDbLayerTableRecord
  2
Level 16
 70
     0
 62
     7
  6
Continuous
370
     0
390
58E
  0
LAYER
  5
17
330
58B
100
AcDbSymbolTableRecord
100
AcDbLayerTableRecord
  2
Level 17
 70
     0
 62
     7
  6
Continuous
370
     0
390
58E
  0
LAYER
  5
18
330
58B
100
AcDbSymbolTableRecord
100
AcDbLayerTableRecord
  2
Level 18
 70
     0
 62
     7
  6
Continuous
370
     0
390
58E
  0
LAYER
  5
19
330
58B
100
AcDbSymbolTableRecord
100
AcDbLayerTableRecord
  2
Level 19
 70
     0
 62
     7
  6
Continuous
370
     0
390
58E
  0
LAYER
  5
1A
330
58B
100
AcDbSymbolTableRecord
100
AcDbLayerTableRecord
  2
Level 20
 70
     0
 62
     7
  6
Continuous
370
     0
390
58E
  0
LAYER
  5
1B
330
58B
100
AcDbSymbolTableRecord
100
AcDbLayerTableRecord
  2
Level 21
 70
     0
 62
     7
  6
Continuous
370
     0
390
58E
  0
LAYER
  5
1C
330
58B
100
AcDbSymbolTableRecord
100
AcDbLayerTableRecord
  2
Level 22
 70
     0
 62
     7
  6
Continuous
370
     0
390
58E
  0
LAYER
  5
1D
330
58B
100
AcDbSymbolTableRecord
100
AcDbLayerTableRecord
  2
Level 23
 70
     0
 62
     7
  6
Continuous
370
     0
390
58E
  0
LAYER
  5
1E
330
58B
100
AcDbSymbolTableRecord
100
AcDbLayerTableRecord
  2
Level 24
 70
     0
 62
     7
  6
Continuous
370
     0
390
58E
  0
LAYER
  5
1F
330
58B
100
AcDbSymbolTableRecord
100
AcDbLayerTableRecord
  2
Level 25
 70
     0
 62
     7
  6
Continuous
370
     0
390
58E
  0
LAYER
  5
20
330
58B
100
AcDbSymbolTableRecord
100
AcDbLayerTableRecord
  2
Level 26
 70
     0
 62
     7
  6
Continuous
370
     0
390
58E
  0
LAYER
  5
21
330
58B
100
AcDbSymbolTableRecord
100
AcDbLayerTableRecord
  2
Level 27
 70
     0
 62
     7
  6
Continuous
370
     0
390
58E
  0
LAYER
  5
22
330
58B
100
AcDbSymbolTableRecord
100
AcDbLayerTableRecord
  2
Level 28
 70
     0
 62
     7
  6
Continuous
370
     0
390
58E
  0
LAYER
  5
23
330
58B
100
AcDbSymbolTableRecord
100
AcDbLayerTableRecord
  2
Level 29
 70
     0
 62
     7
  6
Continuous
370
     0
390
58E
  0
LAYER
  5
24
330
58B
100
AcDbSymbolTableRecord
100
AcDbLayerTableRecord
  2
Level 30
 70
     0
 62
     7
  6
Continuous
370
     0
390
58E
  0
LAYER
  5
25
330
58B
100
AcDbSymbolTableRecord
100
AcDbLayerTableRecord
  2
Level 31
 70
     0
 62
     7
  6
Continuous
370
     0
390
58E
  0
LAYER
  5
26
330
58B
100
AcDbSymbolTableRecord
100
AcDbLayerTableRecord
  2
Level 32
 70
     0
 62
     7
  6
Continuous
370
     0
390
58E
  0
LAYER
  5
27
330
58B
100
AcDbSymbolTableRecord
100
AcDbLayerTableRecord
  2
Level 33
 70
     0
 62
     7
  6
Continuous
370
     0
390
58E
  0
LAYER
  5
28
330
58B
100
AcDbSymbolTableRecord
100
AcDbLayerTableRecord
  2
Level 34
 70
     0
 62
     7
  6
Continuous
370
     0
390
58E
  0
LAYER
  5
29
330
58B
100
AcDbSymbolTableRecord
100
AcDbLayerTableRecord
  2
Level 35
 70
     0
 62
     7
  6
Continuous
370
     0
390
58E
  0
LAYER
  5
2A
330
58B
100
AcDbSymbolTableRecord
100
AcDbLayerTableRecord
  2
Level 36
 70
     0
 62
     7
  6
Continuous
370
     0
390
58E
  0
LAYER
  5
2B
330
58B
100
AcDbSymbolTableRecord
100
AcDbLayerTableRecord
  2
Level 37
 70
     0
 62
     7
  6
Continuous
370
     0
390
58E
  0
LAYER
  5
2C
330
58B
100
AcDbSymbolTableRecord
100
AcDbLayerTableRecord
  2
Level 38
 70
     0
 62
     7
  6
Continuous
370
     0
390
58E
  0
LAYER
  5
2D
330
58B
100
AcDbSymbolTableRecord
100
AcDbLayerTableRecord
  2
Level 39
 70
     0
 62
     7
  6
Continuous
370
     0
390
58E
  0
LAYER
  5
2E
330
58B
100
AcDbSymbolTableRecord
100
AcDbLayerTableRecord
  2
Level 40
 70
     0
 62
     7
  6
Continuous
370
     0
390
58E
  0
LAYER
  5
2F
330
58B
100
AcDbSymbolTableRecord
100
AcDbLayerTableRecord
  2
Level 41
 70
     0
 62
     7
  6
Continuous
370
     0
390
58E
  0
LAYER
  5
30
330
58B
100
AcDbSymbolTableRecord
100
AcDbLayerTableRecord
  2
Level 42
 70
     0
 62
     7
  6
Continuous
370
     0
390
58E
  0
LAYER
  5
31
330
58B
100
AcDbSymbolTableRecord
100
AcDbLayerTableRecord
  2
Level 43
 70
     0
 62
     7
  6
Continuous
370
     0
390
58E
  0
LAYER
  5
32
330
58B
100
AcDbSymbolTableRecord
100
AcDbLayerTableRecord
  2
Level 44
 70
     0
 62
     7
  6
Continuous
370
     0
390
58E
  0
LAYER
  5
33
330
58B
100
AcDbSymbolTableRecord
100
AcDbLayerTableRecord
  2
Level 45
 70
     0
 62
     7
  6
Continuous
370
     0
390
58E
  0
LAYER
  5
34
330
58B
100
AcDbSymbolTableRecord
100
AcDbLayerTableRecord
  2
Level 46
 70
     0
 62
     7
  6
Continuous
370
     0
390
58E
  0
LAYER
  5
35
330
58B
100
AcDbSymbolTableRecord
100
AcDbLayerTableRecord
  2
Level 47
 70
     0
 62
     7
  6
Continuous
370
     0
390
58E
  0
LAYER
  5
36
330
58B
100
AcDbSymbolTableRecord
100
AcDbLayerTableRecord
  2
Level 48
 70
     0
 62
     7
  6
Continuous
370
     0
390
58E
  0
LAYER
  5
37
330
58B
100
AcDbSymbolTableRecord
100
AcDbLayerTableRecord
  2
Level 49
 70
     0
 62
     7
  6
Continuous
370
     0
390
58E
  0
LAYER
  5
38
330
58B
100
AcDbSymbolTableRecord
100
AcDbLayerTableRecord
  2
Level 50
 70
     0
 62
     7
  6
Continuous
370
     0
390
58E
  0
LAYER
  5
39
330
58B
100
AcDbSymbolTableRecord
100
AcDbLayerTableRecord
  2
Level 51
 70
     0
 62
     7
  6
Continuous
370
     0
390
58E
  0
LAYER
  5
3A
330
58B
100
AcDbSymbolTableRecord
100
AcDbLayerTableRecord
  2
Level 52
 70
     0
 62
     7
  6
Continuous
370
     0
390
58E
  0
LAYER
  5
3B
330
58B
100
AcDbSymbolTableRecord
100
AcDbLayerTableRecord
  2
Level 53
 70
     0
 62
     7
  6
Continuous
370
     0
390
58E
  0
LAYER
  5
3C
330
58B
100
AcDbSymbolTableRecord
100
AcDbLayerTableRecord
  2
Level 54
 70
     0
 62
     7
  6
Continuous
370
     0
390
58E
  0
LAYER
  5
3D
330
58B
100
AcDbSymbolTableRecord
100
AcDbLayerTableRecord
  2
Level 55
 70
     0
 62
     7
  6
Continuous
370
     0
390
58E
  0
LAYER
  5
3E
330
58B
100
AcDbSymbolTableRecord
100
AcDbLayerTableRecord
  2
Level 56
 70
     0
 62
     7
  6
Continuous
370
     0
390
58E
  0
LAYER
  5
3F
330
58B
100
AcDbSymbolTableRecord
100
AcDbLayerTableRecord
  2
Level 57
 70
     0
 62
     7
  6
Continuous
370
     0
390
58E
  0
LAYER
  5
40
330
58B
100
AcDbSymbolTableRecord
100
AcDbLayerTableRecord
  2
Level 58
 70
     0
 62
     7
  6
Continuous
370
     0
390
58E
  0
LAYER
  5
41
330
58B
100
AcDbSymbolTableRecord
100
AcDbLayerTableRecord
  2
Level 59
 70
     0
 62
     7
  6
Continuous
370
     0
390
58E
  0
LAYER
  5
42
330
58B
100
AcDbSymbolTableRecord
100
AcDbLayerTableRecord
  2
Level 60
 70
     0
 62
     7
  6
Continuous
370
     0
390
58E
  0
LAYER
  5
43
330
58B
100
AcDbSymbolTableRecord
100
AcDbLayerTableRecord
  2
Level 61
 70
     0
 62
     7
  6
Continuous
370
     0
390
58E
  0
LAYER
  5
44
330
58B
100
AcDbSymbolTableRecord
100
AcDbLayerTableRecord
  2
Level 62
 70
     0
 62
     7
  6
Continuous
370
     0
390
58E
  0
LAYER
  5
45
330
58B
100
AcDbSymbolTableRecord
100
AcDbLayerTableRecord
  2
_0
 70
     0
 62
     7
  6
Continuous
370
     0
390
58E
1001
AcAecLayerStandard
1000

1000
0
  0
ENDTAB
  0
TABLE
  2
STYLE
  5
596
330
0
100
AcDbSymbolTable
 70
     2
  0
STYLE
  5
595
330
596
100
AcDbSymbolTableRecord
100
AcDbTextStyleTableRecord
  2
Standard
 70
     0
 40
0.0
 41
1.0
 50
0.0
 71
     0
 42
0.12
  3
txt
  4

  0
STYLE
  5
5B5
330
596
100
AcDbSymbolTableRecord
100
AcDbTextStyleTableRecord
  2
Style-Arial
 70
     0
 40
0.0
 41
1.0
 50
0.0
 71
     0
 42
0.2
  3

  4

1001
ACAD
1000
Arial
1071
       39
  0
ENDTAB
  0
TABLE
  2
VIEW
  5
5A9
330
0
100
AcDbSymbolTable
 70
     0
  0
ENDTAB
  0
TABLE
  2
UCS
  5
5AA
330
0
100
AcDbSymbolTable
 70
     0
  0
ENDTAB
  0
TABLE
  2
APPID
  5
5A8
330
0
100
AcDbSymbolTable
 70
     3
  0
APPID
  5
5B0
330
5A8
100
AcDbSymbolTableRecord
100
AcDbRegAppTableRecord
  2
ACAD
 70
     0
  0
APPID
  5
5A7
330
5A8
100
AcDbSymbolTableRecord
100
AcDbRegAppTableRecord
  2
ACAD_PSEXT
 70
     0
  0
APPID
  5
5B2
330
5A8
100
AcDbSymbolTableRecord
100
AcDbRegAppTableRecord
  2
AcAecLayerStandard
 70
     0
  0
ENDTAB
  0
TABLE
  2
DIMSTYLE
  5
598
330
0
100
AcDbSymbolTable
 70
     1
100
AcDbDimStyleTable
  0
DIMSTYLE
105
597
330
598
100
AcDbSymbolTableRecord
100
AcDbDimStyleTableRecord
  2
Standard
 70
     0
340
595
  0
ENDTAB
  0
TABLE
  2
BLOCK_RECORD
  5
59B
330
0
100
AcDbSymbolTable
 70
     3
  0
BLOCK_RECORD
  5
59C
102
{ACAD_XDICTIONARY
360
5C5
102
}
330
59B
100
AcDbSymbolTableRecord
100
AcDbBlockTableRecord
  2
*Model_Space
340
59F
  0
BLOCK_RECORD
  5
5A1
330
59B
100
AcDbSymbolTableRecord
100
AcDbBlockTableRecord
  2
*Paper_Space
340
5A4
  0
BLOCK_RECORD
  5
5B6
330
59B
100
AcDbSymbolTableRecord
100
AcDbBlockTableRecord
  2
TerminatorOpen_0.5
340
0
  0
BLOCK_RECORD
  5
5BF
330
59B
100
AcDbSymbolTableRecord
100
AcDbBlockTableRecord
  2
LARROW
340
0
102
{BLKREFS
331
45B
331
45D
331
45F
331
461
331
463
331
465
331
467
331
4FD
331
500
102
}
  0
BLOCK_RECORD
  5
5C2
330
59B
100
AcDbSymbolTableRecord
100
AcDbBlockTableRecord
  2
LARROW_1
340
0
102
{BLKREFS
331
481
331
48C
331
4A0
331
4AB
331
4BA
331
4C5
331
4E3
331
4EF
331
505
331
510
331
520
331
52B
102
}
  0
ENDTAB
  0
ENDSEC
  0
SECTION
  2
BLOCKS
  0
BLOCK
  5
59D
330
59C
100
AcDbEntity
  8
0
100
AcDbBlockBegin
  2
*Model_Space
 70
     0
 71
     0
 10
0.0
 20
0.0
 30
0.0
  3
*Model_Space
  1

  0
ENDBLK
  5
59E
330
59C
100
AcDbEntity
  8
0
100
AcDbBlockEnd
  0
BLOCK
  5
5A2
330
5A1
100
AcDbEntity
 67
     1
  8
0
100
AcDbBlockBegin
  2
*Paper_Space
 70
     0
 71
     0
 10
0.0
 20
0.0
 30
0.0
  3
*Paper_Space
  1

  0
ENDBLK
  5
5A3
330
5A1
100
AcDbEntity
 67
     1
  8
0
100
AcDbBlockEnd
  0
BLOCK
  5
5BA
330
5B6
100
AcDbEntity
  8
0
100
AcDbBlockBegin
  2
TerminatorOpen_0.5
 70
     0
 71
     0
 10
0.0
 20
0.0
 30
0.0
  3
TerminatorOpen_0.5
  1

  0
LINE
  5
5B7
330
5B6
100
AcDbEntity
  8
0
  6
ByBlock
 62
     0
370
    -2
100
AcDbLine
 10
0.0
 20
0.0
 30
0.0
 11
-1.0
 21
0.0
 31
0.0
  0
LINE
  5
5B8
330
5B6
100
AcDbEntity
  8
0
  6
ByBlock
 62
     0
370
    -2
100
AcDbLine
 10
0.0
 20
0.0
 30
0.0
 11
-1.0
 21
0.25
 31
0.0
  0
LINE
  5
5B9
330
5B6
100
AcDbEntity
  8
0
  6
ByBlock
 62
     0
370
    -2
100
AcDbLine
 10
0.0
 20
0.0
 30
0.0
 11
-1.0
 21
-0.25
 31
0.0
  0
ENDBLK
  5
5BB
330
5B6
100
AcDbEntity
  8
0
100
AcDbBlockEnd
  0
BLOCK
  5
5C0
330
5BF
100
AcDbEntity
  8
0
100
AcDbBlockBegin
  2
LARROW
 70
     0
 71
     0
 10
0.0
 20
0.0
 30
0.0
  3
LARROW
  1

  0
LWPOLYLINE
  5
45C
330
5BF
100
AcDbEntity
  8
DIM
  6
Continuous
 62
     7
370
    13
100
AcDbPolyline
 90
       63
 70
   128
 43
0.0
 10
-0.013031
 20
0.001885
 10
0.0
 20
0.0
 10
-0.013021
 20
-0.001885
 10
-0.012615
 20
-0.001573
 10
-0.012042
 20
-0.00101
 10
-0.01176
 20
-0.00049
 10
-0.011687
 20
0.0
 10
-0.011792
 20
0.000552
 10
-0.012094
 20
0.001094
 10
-0.012677
 20
0.001625
 10
-0.013031
 20
0.001885
 10
-0.000385
 20
0.000021
 10
-0.012604
 20
-0.00176
 10
-0.012229
 20
-0.001479
 10
-0.011625
 20
-0.000906
 10
-0.011427
 20
-0.000167
 10
-0.011563
 20
0.000573
 10
-0.011917
 20
0.001083
 10
-0.012344
 20
0.0015
 10
-0.012635
 20
0.001729
 10
-0.001073
 20
0.000021
 10
-0.012052
 20
-0.001552
 10
-0.011667
 20
-0.001302
 10
-0.011469
 20
-0.000979
 10
-0.01125
 20
-0.000563
 10
-0.011135
 20
0.000021
 10
-0.011198
 20
0.0005
 10
-0.011427
 20
0.000875
 10
-0.011896
 20
0.001177
 10
-0.012208
 20
0.001542
 10
-0.001875
 20
0.000021
 10
-0.011448
 20
-0.001323
 10
-0.011021
 20
-0.000792
 10
-0.010896
 20
-0.000146
 10
-0.010958
 20
0.000573
 10
-0.011781
 20
0.001354
 10
-0.002771
 20
0.000062
 10
-0.010896
 20
-0.001073
 10
-0.010781
 20
-0.000698
 10
-0.010531
 20
-0.000094
 10
-0.010688
 20
0.000552
 10
-0.011333
 20
0.001125
 10
-0.003594
 20
0.000062
 10
-0.010604
 20
-0.000833
 10
-0.010375
 20
-0.000375
 10
-0.010271
 20
0.000115
 10
-0.01076
 20
0.000875
 10
-0.004573
 20
0.000062
 10
-0.010177
 20
-0.000625
 10
-0.010021
 20
-0.000281
 10
-0.009979
 20
0.000115
 10
-0.010375
 20
0.000667
 10
-0.00574
 20
0.000062
 10
-0.009823
 20
-0.000396
 10
-0.009708
 20
0.000135
 10
-0.010083
 20
0.000458
 10
-0.006698
 20
0.000062
 10
-0.009552
 20
-0.00024
 10
-0.009615
 20
0.000271
 10
-0.007677
 20
0.000062
 10
-0.009437
 20
-0.000073
 10
-0.00949
 20
0.000083
 10
-0.008885
 20
0.000083
  0
ENDBLK
  5
5C1
330
5BF
100
AcDbEntity
  8
0
100
AcDbBlockEnd
  0
BLOCK
  5
5C3
330
5C2
100
AcDbEntity
  8
0
100
AcDbBlockBegin
  2
LARROW_1
 70
     0
 71
     0
 10
0.0
 20
0.0
 30
0.0
  3
LARROW_1
  1

  0
LINE
  5
482
330
5C2
100
AcDbEntity
  8
TEXT
  6
Continuous
 62
     7
370
    13
100
AcDbLine
 10
0.0
 20
0.0
 30
0.0
 11
-0.013031
 21
0.001885
 31
0.0
  0
LINE
  5
483
330
5C2
100
AcDbEntity
  8
TEXT
  6
Continuous
 62
     7
370
    13
100
AcDbLine
 10
0.0
 20
0.0
 30
0.0
 11
-0.013021
 21
-0.001885
 31
0.0
  0
LWPOLYLINE
  5
484
330
5C2
100
AcDbEntity
  8
TEXT
  6
Continuous
 62
     7
370
    13
100
AcDbPolyline
 90
        9
 70
   128
 43
0.0
 10
-0.013031
 20
0.001885
 10
-0.01225
 20
0.001292
 10
-0.011896
 20
0.000812
 10
-0.011719
 20
0.000365
 10
-0.011688
 20
-0.000052
 10
-0.01175
 20
-0.000458
 10
-0.011958
 20
-0.000896
 10
-0.012323
 20
-0.001354
 10
-0.013021
 20
-0.001885
  0
LINE
  5
485
330
5C2
100
AcDbEntity
  8
TEXT
  6
Continuous
 62
     7
370
    13
100
AcDbLine
 10
0.0
 20
0.0
 30
0.0
 11
-0.01225
 21
0.001292
 31
0.0
  0
LINE
  5
486
330
5C2
100
AcDbEntity
  8
TEXT
  6
Continuous
 62
     7
370
    13
100
AcDbLine
 10
0.0
 20
0.0
 30
0.0
 11
-0.011896
 21
0.000812
 31
0.0
  0
LINE
  5
487
330
5C2
100
AcDbEntity
  8
TEXT
  6
Continuous
 62
     7
370
    13
100
AcDbLine
 10
0.0
 20
0.0
 30
0.0
 11
-0.011719
 21
0.000365
 31
0.0
  0
LINE
  5
488
330
5C2
100
AcDbEntity
  8
TEXT
  6
Continuous
 62
     7
370
    13
100
AcDbLine
 10
0.0
 20
0.0
 30
0.0
 11
-0.01175
 21
-0.000458
 31
0.0
  0
LINE
  5
489
330
5C2
100
AcDbEntity
  8
TEXT
  6
Continuous
 62
     7
370
    13
100
AcDbLine
 10
0.0
 20
0.0
 30
0.0
 11
-0.011958
 21
-0.000896
 31
0.0
  0
LINE
  5
48A
330
5C2
100
AcDbEntity
  8
TEXT
  6
Continuous
 62
     7
370
    13
100
AcDbLine
 10
0.0
 20
0.0
 30
0.0
 11
-0.012323
 21
-0.001354
 31
0.0
  0
LINE
  5
48B
330
5C2
100
AcDbEntity
  8
TEXT
  6
Continuous
 62
     7
370
    13
100
AcDbLine
 10
0.0
 20
0.0
 30
0.0
 11
-0.011677
 21
0.0
 31
0.0
  0
ENDBLK
  5
5C4
330
5C2
100
AcDbEntity
  8
0
100
AcDbBlockEnd
  0
ENDSEC
  0
SECTION
  2
ENTITIES
  0
POINT
  5
5B
330
59C
100
AcDbEntity
  8
_0
  6
Continuous
 62
     7
370
    30
100
AcDbPoint
 10
52.986906
 20
7.875
 30
0.0
  0
LINE
  5
5C
330
59C
100
AcDbEntity
  8
BORDER
  6
Continuous
 62
     7
370
    30
100
AcDbLine
 10
52.986906
 20
0.625
 30
0.0
 11
52.986906
 21
7.875
 31
0.0
  0
LINE
  5
5D
330
59C
100
AcDbEntity
  8
_0
  6
Continuous
 62
     7
370
    30
100
AcDbLine
 10
56.117906
 20
6.323302
 30
0.0
 11
56.106479
 21
6.311083
 31
0.0
  0
LINE
  5
5E
330
59C
100
AcDbEntity
  8
_0
  6
Continuous
 62
     7
370
    30
100
AcDbLine
 10
56.022417
 20
6.221083
 30
0.0
 11
55.973396
 21
6.168625
 31
0.0
  0
LINE
  5
5F
330
59C
100
AcDbEntity
  8
_0
  6
Continuous
 62
     7
370
    30
100
AcDbLine
 10
56.084937
 20
6.28801
 30
0.0
 11
56.056677
 21
6.257771
 31
0.0
  0
LINE
  5
60
330
59C
100
AcDbEntity
  8
_0
  6
Continuous
 62
     7
370
    30
100
AcDbLine
 10
56.118021
 20
6.319771
 30
0.0
 11
56.110021
 21
6.311198
 31
0.0
  0
LINE
  5
61
330
59C
100
AcDbEntity
  8
_0
  6
Continuous
 62
     7
370
    30
100
AcDbLine
 10
56.025948
 20
6.221208
 30
0.0
 11
55.976937
 21
6.16874
 31
0.0
  0
LINE
  5
62
330
59C
100
AcDbEntity
  8
_0
  6
Continuous
 62
     7
370
    30
100
AcDbLine
 10
56.085052
 20
6.284479
 30
0.0
 11
56.056802
 21
6.254229
 31
0.0
  0
LINE
  5
63
330
59C
100
AcDbEntity
  8
_0
  6
Continuous
 62
     7
370
    30
100
AcDbLine
 10
56.118146
 20
6.316229
 30
0.0
 11
56.113542
 21
6.311323
 31
0.0
  0
LINE
  5
64
330
59C
100
AcDbEntity
  8
_0
  6
Continuous
 62
     7
370
    30
100
AcDbLine
 10
56.029479
 20
6.221323
 30
0.0
 11
55.980469
 21
6.168865
 31
0.0
  0
LINE
  5
65
330
59C
100
AcDbEntity
  8
_0
  6
Continuous
 62
     7
370
    30
100
AcDbLine
 10
56.085177
 20
6.280937
 30
0.0
 11
56.056917
 21
6.250708
 31
0.0
  0
LINE
  5
66
330
59C
100
AcDbEntity
  8
_0
  6
Continuous
 62
     7
370
    30
100
AcDbLine
 10
56.11826
 20
6.312698
 30
0.0
 11
56.117083
 21
6.311437
 31
0.0
  0
LINE
  5
67
330
59C
100
AcDbEntity
  8
_0
  6
Continuous
 62
     7
370
    30
100
AcDbLine
 10
56.03301
 20
6.221448
 30
0.0
 11
55.98401
 21
6.168979
 31
0.0
  0
LINE
  5
68
330
59C
100
AcDbEntity
  8
_0
  6
Continuous
 62
     7
370
    30
100
AcDbLine
 10
56.085302
 20
6.277417
 30
0.0
 11
56.057042
 21
6.247167
 31
0.0
  0
LINE
  5
69
330
59C
100
AcDbEntity
  8
_0
  6
Continuous
 62
     7
370
    30
100
AcDbLine
 10
56.085417
 20
6.273885
 30
0.0
 11
56.057156
 21
6.243635
 31
0.0
  0
LINE
  5
6A
330
59C
100
AcDbEntity
  8
_0
  6
Continuous
 62
     7
370
    30
100
AcDbLine
 10
56.036552
 20
6.221573
 30
0.0
 11
55.987531
 21
6.169104
 31
0.0
  0
LINE
  5
6B
330
59C
100
AcDbEntity
  8
_0
  6
Continuous
 62
     7
370
    30
100
AcDbLine
 10
56.085542
 20
6.270344
 30
0.0
 11
56.057281
 21
6.240094
 31
0.0
  0
LINE
  5
6C
330
59C
100
AcDbEntity
  8
_0
  6
Continuous
 62
     7
370
    30
100
AcDbLine
 10
56.040083
 20
6.221687
 30
0.0
 11
55.991062
 21
6.169219
 31
0.0
  0
LINE
  5
6D
330
59C
100
AcDbEntity
  8
_0
  6
Continuous
 62
     7
370
    30
100
AcDbLine
 10
56.085656
 20
6.266812
 30
0.0
 11
56.057396
 21
6.236562
 31
0.0
  0
LINE
  5
6E
330
59C
100
AcDbEntity
  8
_0
  6
Continuous
 62
     7
370
    30
100
AcDbLine
 10
56.043615
 20
6.221812
 30
0.0
 11
55.994604
 21
6.169344
 31
0.0
  0
LINE
  5
6F
330
59C
100
AcDbEntity
  8
_0
  6
Continuous
 62
     7
370
    30
100
AcDbLine
 10
56.085781
 20
6.263271
 30
0.0
 11
56.057521
 21
6.233042
 31
0.0
  0
LINE
  5
70
330
59C
100
AcDbEntity
  8
_0
  6
Continuous
 62
     7
370
    30
100
AcDbLine
 10
56.047146
 20
6.221927
 30
0.0
 11
55.998135
 21
6.169458
 31
0.0
  0
LINE
  5
71
330
59C
100
AcDbEntity
  8
_0
  6
Continuous
 62
     7
370
    30
100
AcDbLine
 10
56.085896
 20
6.25975
 30
0.0
 11
56.057635
 21
6.2295
 31
0.0
  0
LINE
  5
72
330
59C
100
AcDbEntity
  8
_0
  6
Continuous
 62
     7
370
    30
100
AcDbLine
 10
56.050677
 20
6.222052
 30
0.0
 11
56.001677
 21
6.169583
 31
0.0
  0
LINE
  5
73
330
59C
100
AcDbEntity
  8
_0
  6
Continuous
 62
     7
370
    30
100
AcDbLine
 10
56.086021
 20
6.256208
 30
0.0
 11
56.05776
 21
6.225969
 31
0.0
  0
LINE
  5
74
330
59C
100
AcDbEntity
  8
_0
  6
Continuous
 62
     7
370
    30
100
AcDbLine
 10
56.054219
 20
6.222167
 30
0.0
 11
56.005208
 21
6.169698
 31
0.0
  0
LINE
  5
75
330
59C
100
AcDbEntity
  8
_0
  6
Continuous
 62
     7
370
    30
100
AcDbLine
 10
56.086135
 20
6.252677
 30
0.0
 11
56.057875
 21
6.222427
 31
0.0
  0
LINE
  5
76
330
59C
100
AcDbEntity
  8
_0
  6
Continuous
 62
     7
370
    30
100
AcDbLine
 10
56.05775
 20
6.222292
 30
0.0
 11
56.008729
 21
6.169823
 31
0.0
  0
LINE
  5
77
330
59C
100
AcDbEntity
  8
_0
  6
Continuous
 62
     7
370
    30
100
AcDbLine
 10
56.08626
 20
6.249146
 30
0.0
 11
56.012271
 21
6.169937
 31
0.0
  0
LINE
  5
78
330
59C
100
AcDbEntity
  8
_0
  6
Continuous
 62
     7
370
    30
100
AcDbLine
 10
56.086375
 20
6.245604
 30
0.0
 11
56.015802
 21
6.170063
 31
0.0
  0
LINE
  5
79
330
59C
100
AcDbEntity
  8
_0
  6
Continuous
 62
     7
370
    30
100
AcDbLine
 10
56.0865
 20
6.242083
 30
0.0
 11
56.019344
 21
6.170187
 31
0.0
  0
LINE
  5
7A
330
59C
100
AcDbEntity
  8
_0
  6
Continuous
 62
     7
370
    30
100
AcDbLine
 10
56.086615
 20
6.238542
 30
0.0
 11
56.022875
 21
6.170302
 31
0.0
  0
LINE
  5
7B
330
59C
100
AcDbEntity
  8
_0
  6
Continuous
 62
     7
370
    30
100
AcDbLine
 10
56.08674
 20
6.23501
 30
0.0
 11
56.026406
 21
6.170427
 31
0.0
  0
LINE
  5
7C
330
59C
100
AcDbEntity
  8
_0
  6
Continuous
 62
     7
370
    30
100
AcDbLine
 10
56.086854
 20
6.231479
 30
0.0
 11
56.029937
 21
6.170542
 31
0.0
  0
LINE
  5
7D
330
59C
100
AcDbEntity
  8
_0
  6
Continuous
 62
     7
370
    30
100
AcDbLine
 10
56.086979
 20
6.227937
 30
0.0
 11
56.033469
 21
6.170667
 31
0.0
  0
LINE
  5
7E
330
59C
100
AcDbEntity
  8
_0
  6
Continuous
 62
     7
370
    30
100
AcDbLine
 10
56.087104
 20
6.224417
 30
0.0
 11
56.03701
 21
6.170781
 31
0.0
  0
LINE
  5
7F
330
59C
100
AcDbEntity
  8
_0
  6
Continuous
 62
     7
370
    30
100
AcDbLine
 10
56.089552
 20
6.223375
 30
0.0
 11
56.040542
 21
6.170906
 31
0.0
  0
LINE
  5
80
330
59C
100
AcDbEntity
  8
_0
  6
Continuous
 62
     7
370
    30
100
AcDbLine
 10
56.093083
 20
6.22349
 30
0.0
 11
56.044073
 21
6.171021
 31
0.0
  0
LINE
  5
81
330
59C
100
AcDbEntity
  8
_0
  6
Continuous
 62
     7
370
    30
100
AcDbLine
 10
56.096625
 20
6.223615
 30
0.0
 11
56.047604
 21
6.171146
 31
0.0
  0
LINE
  5
82
330
59C
100
AcDbEntity
  8
_0
  6
Continuous
 62
     7
370
    30
100
AcDbLine
 10
56.100156
 20
6.223729
 30
0.0
 11
56.051135
 21
6.17126
 31
0.0
  0
LINE
  5
83
330
59C
100
AcDbEntity
  8
_0
  6
Continuous
 62
     7
370
    30
100
AcDbLine
 10
56.103677
 20
6.223854
 30
0.0
 11
56.054677
 21
6.171385
 31
0.0
  0
LINE
  5
84
330
59C
100
AcDbEntity
  8
_0
  6
Continuous
 62
     7
370
    30
100
AcDbLine
 10
56.107219
 20
6.223969
 30
0.0
 11
56.058208
 21
6.1715
 31
0.0
  0
LINE
  5
85
330
59C
100
AcDbEntity
  8
_0
  6
Continuous
 62
     7
370
    30
100
AcDbLine
 10
56.11075
 20
6.224094
 30
0.0
 11
56.06174
 21
6.171625
 31
0.0
  0
LINE
  5
86
330
59C
100
AcDbEntity
  8
_0
  6
Continuous
 62
     7
370
    30
100
AcDbLine
 10
56.114292
 20
6.224208
 30
0.0
 11
56.065271
 21
6.17174
 31
0.0
  0
LINE
  5
87
330
59C
100
AcDbEntity
  8
_0
  6
Continuous
 62
     7
370
    30
100
AcDbLine
 10
56.117823
 20
6.224333
 30
0.0
 11
56.068802
 21
6.171865
 31
0.0
  0
LINE
  5
88
330
59C
100
AcDbEntity
  8
_0
  6
Continuous
 62
     7
370
    30
100
AcDbLine
 10
56.121344
 20
6.224448
 30
0.0
 11
56.072344
 21
6.17199
 31
0.0
  0
LINE
  5
89
330
59C
100
AcDbEntity
  8
_0
  6
Continuous
 62
     7
370
    30
100
AcDbLine
 10
56.124885
 20
6.224573
 30
0.0
 11
56.075875
 21
6.172104
 31
0.0
  0
LINE
  5
8A
330
59C
100
AcDbEntity
  8
_0
  6
Continuous
 62
     7
370
    30
100
AcDbLine
 10
56.128417
 20
6.224687
 30
0.0
 11
56.079406
 21
6.172229
 31
0.0
  0
LINE
  5
8B
330
59C
100
AcDbEntity
  8
_0
  6
Continuous
 62
     7
370
    30
100
AcDbLine
 10
56.131531
 20
6.224365
 30
0.0
 11
56.082937
 21
6.172344
 31
0.0
  0
LINE
  5
8C
330
59C
100
AcDbEntity
  8
_0
  6
Continuous
 62
     7
370
    30
100
AcDbLine
 10
56.134156
 20
6.22351
 30
0.0
 11
56.086479
 21
6.172469
 31
0.0
  0
LINE
  5
8D
330
59C
100
AcDbEntity
  8
_0
  6
Continuous
 62
     7
370
    30
100
AcDbLine
 10
56.136792
 20
6.222667
 30
0.0
 11
56.09001
 21
6.172583
 31
0.0
  0
LINE
  5
8E
330
59C
100
AcDbEntity
  8
_0
  6
Continuous
 62
     7
370
    30
100
AcDbLine
 10
56.139417
 20
6.221812
 30
0.0
 11
56.093542
 21
6.172708
 31
0.0
  0
LINE
  5
8F
330
59C
100
AcDbEntity
  8
_0
  6
Continuous
 62
     7
370
    30
100
AcDbLine
 10
56.142042
 20
6.220969
 30
0.0
 11
56.097073
 21
6.172823
 31
0.0
  0
LINE
  5
90
330
59C
100
AcDbEntity
  8
_0
  6
Continuous
 62
     7
370
    30
100
AcDbLine
 10
56.144677
 20
6.220115
 30
0.0
 11
56.100604
 21
6.172948
 31
0.0
  0
LINE
  5
91
330
59C
100
AcDbEntity
  8
_0
  6
Continuous
 62
     7
370
    30
100
AcDbLine
 10
56.147302
 20
6.219271
 30
0.0
 11
56.104146
 21
6.173062
 31
0.0
  0
LINE
  5
92
330
59C
100
AcDbEntity
  8
_0
  6
Continuous
 62
     7
370
    30
100
AcDbLine
 10
56.149927
 20
6.218417
 30
0.0
 11
56.107677
 21
6.173188
 31
0.0
  0
LINE
  5
93
330
59C
100
AcDbEntity
  8
_0
  6
Continuous
 62
     7
370
    30
100
AcDbLine
 10
56.152562
 20
6.217573
 30
0.0
 11
56.111208
 21
6.173302
 31
0.0
  0
LINE
  5
94
330
59C
100
AcDbEntity
  8
_0
  6
Continuous
 62
     7
370
    30
100
AcDbLine
 10
56.155177
 20
6.216719
 30
0.0
 11
56.11474
 21
6.173427
 31
0.0
  0
LINE
  5
95
330
59C
100
AcDbEntity
  8
_0
  6
Continuous
 62
     7
370
    30
100
AcDbLine
 10
56.157802
 20
6.215875
 30
0.0
 11
56.118271
 21
6.173542
 31
0.0
  0
LINE
  5
96
330
59C
100
AcDbEntity
  8
_0
  6
Continuous
 62
     7
370
    30
100
AcDbLine
 10
56.160438
 20
6.21501
 30
0.0
 11
56.121812
 21
6.173667
 31
0.0
  0
LINE
  5
97
330
59C
100
AcDbEntity
  8
_0
  6
Continuous
 62
     7
370
    30
100
AcDbLine
 10
56.163062
 20
6.214167
 30
0.0
 11
56.125344
 21
6.173792
 31
0.0
  0
LINE
  5
98
330
59C
100
AcDbEntity
  8
_0
  6
Continuous
 62
     7
370
    30
100
AcDbLine
 10
56.165687
 20
6.213312
 30
0.0
 11
56.128875
 21
6.173906
 31
0.0
  0
LINE
  5
99
330
59C
100
AcDbEntity
  8
_0
  6
Continuous
 62
     7
370
    30
100
AcDbLine
 10
56.168323
 20
6.212469
 30
0.0
 11
56.132406
 21
6.174031
 31
0.0
  0
LINE
  5
9A
330
59C
100
AcDbEntity
  8
_0
  6
Continuous
 62
     7
370
    30
100
AcDbLine
 10
56.170948
 20
6.211615
 30
0.0
 11
56.135937
 21
6.174146
 31
0.0
  0
LINE
  5
9B
330
59C
100
AcDbEntity
  8
_0
  6
Continuous
 62
     7
370
    30
100
AcDbLine
 10
56.173573
 20
6.210771
 30
0.0
 11
56.139479
 21
6.174271
 31
0.0
  0
LINE
  5
9C
330
59C
100
AcDbEntity
  8
_0
  6
Continuous
 62
     7
370
    30
100
AcDbLine
 10
56.176208
 20
6.209917
 30
0.0
 11
56.14301
 21
6.174385
 31
0.0
  0
LINE
  5
9D
330
59C
100
AcDbEntity
  8
_0
  6
Continuous
 62
     7
370
    30
100
AcDbLine
 10
56.178833
 20
6.209073
 30
0.0
 11
56.146552
 21
6.17451
 31
0.0
  0
LINE
  5
9E
330
59C
100
AcDbEntity
  8
_0
  6
Continuous
 62
     7
370
    30
100
AcDbLine
 10
56.181458
 20
6.208229
 30
0.0
 11
56.150073
 21
6.174625
 31
0.0
  0
LINE
  5
9F
330
59C
100
AcDbEntity
  8
_0
  6
Continuous
 62
     7
370
    30
100
AcDbLine
 10
56.184094
 20
6.207375
 30
0.0
 11
56.153604
 21
6.17475
 31
0.0
  0
LINE
  5
A0
330
59C
100
AcDbEntity
  8
_0
  6
Continuous
 62
     7
370
    30
100
AcDbLine
 10
56.186708
 20
6.206531
 30
0.0
 11
56.157146
 21
6.174865
 31
0.0
  0
LINE
  5
A1
330
59C
100
AcDbEntity
  8
_0
  6
Continuous
 62
     7
370
    30
100
AcDbLine
 10
56.189333
 20
6.205677
 30
0.0
 11
56.160677
 21
6.17499
 31
0.0
  0
LINE
  5
A2
330
59C
100
AcDbEntity
  8
_0
  6
Continuous
 62
     7
370
    30
100
AcDbLine
 10
56.191969
 20
6.204823
 30
0.0
 11
56.164219
 21
6.175104
 31
0.0
  0
LINE
  5
A3
330
59C
100
AcDbEntity
  8
_0
  6
Continuous
 62
     7
370
    30
100
AcDbLine
 10
56.194594
 20
6.203969
 30
0.0
 11
56.16774
 21
6.175229
 31
0.0
  0
LINE
  5
A4
330
59C
100
AcDbEntity
  8
_0
  6
Continuous
 62
     7
370
    30
100
AcDbLine
 10
56.197219
 20
6.203125
 30
0.0
 11
56.171271
 21
6.175344
 31
0.0
  0
LINE
  5
A5
330
59C
100
AcDbEntity
  8
_0
  6
Continuous
 62
     7
370
    30
100
AcDbLine
 10
56.199854
 20
6.202271
 30
0.0
 11
56.174813
 21
6.175469
 31
0.0
  0
LINE
  5
A6
330
59C
100
AcDbEntity
  8
_0
  6
Continuous
 62
     7
370
    30
100
AcDbLine
 10
56.202479
 20
6.201427
 30
0.0
 11
56.178344
 21
6.175594
 31
0.0
  0
LINE
  5
A7
330
59C
100
AcDbEntity
  8
_0
  6
Continuous
 62
     7
370
    30
100
AcDbLine
 10
56.205104
 20
6.200573
 30
0.0
 11
56.181885
 21
6.175708
 31
0.0
  0
LINE
  5
A8
330
59C
100
AcDbEntity
  8
_0
  6
Continuous
 62
     7
370
    30
100
AcDbLine
 10
56.20774
 20
6.199729
 30
0.0
 11
56.185417
 21
6.175833
 31
0.0
  0
LINE
  5
A9
330
59C
100
AcDbEntity
  8
_0
  6
Continuous
 62
     7
370
    30
100
AcDbLine
 10
56.210365
 20
6.198875
 30
0.0
 11
56.188938
 21
6.175948
 31
0.0
  0
LINE
  5
AA
330
59C
100
AcDbEntity
  8
_0
  6
Continuous
 62
     7
370
    30
100
AcDbLine
 10
56.21299
 20
6.198031
 30
0.0
 11
56.192479
 21
6.176073
 31
0.0
  0
LINE
  5
AB
330
59C
100
AcDbEntity
  8
_0
  6
Continuous
 62
     7
370
    30
100
AcDbLine
 10
56.215625
 20
6.197177
 30
0.0
 11
56.19601
 21
6.176188
 31
0.0
  0
LINE
  5
AC
330
59C
100
AcDbEntity
  8
_0
  6
Continuous
 62
     7
370
    30
100
AcDbLine
 10
56.21824
 20
6.196333
 30
0.0
 11
56.199552
 21
6.176312
 31
0.0
  0
LINE
  5
AD
330
59C
100
AcDbEntity
  8
_0
  6
Continuous
 62
     7
370
    30
100
AcDbLine
 10
56.220865
 20
6.195479
 30
0.0
 11
56.203083
 21
6.176427
 31
0.0
  0
LINE
  5
AE
330
59C
100
AcDbEntity
  8
_0
  6
Continuous
 62
     7
370
    30
100
AcDbLine
 10
56.2235
 20
6.194635
 30
0.0
 11
56.206604
 21
6.176552
 31
0.0
  0
LINE
  5
AF
330
59C
100
AcDbEntity
  8
_0
  6
Continuous
 62
     7
370
    30
100
AcDbLine
 10
56.226125
 20
6.193771
 30
0.0
 11
56.210146
 21
6.176667
 31
0.0
  0
LINE
  5
B0
330
59C
100
AcDbEntity
  8
_0
  6
Continuous
 62
     7
370
    30
100
AcDbLine
 10
56.22875
 20
6.192927
 30
0.0
 11
56.213677
 21
6.176792
 31
0.0
  0
LINE
  5
B1
330
59C
100
AcDbEntity
  8
_0
  6
Continuous
 62
     7
370
    30
100
AcDbLine
 10
56.231385
 20
6.192083
 30
0.0
 11
56.217219
 21
6.176906
 31
0.0
  0
LINE
  5
B2
330
59C
100
AcDbEntity
  8
_0
  6
Continuous
 62
     7
370
    30
100
AcDbLine
 10
56.23401
 20
6.191229
 30
0.0
 11
56.22075
 21
6.177031
 31
0.0
  0
LINE
  5
B3
330
59C
100
AcDbEntity
  8
_0
  6
Continuous
 62
     7
370
    30
100
AcDbLine
 10
56.236635
 20
6.190385
 30
0.0
 11
56.224281
 21
6.177156
 31
0.0
  0
LINE
  5
B4
330
59C
100
AcDbEntity
  8
_0
  6
Continuous
 62
     7
370
    30
100
AcDbLine
 10
56.239271
 20
6.189531
 30
0.0
 11
56.227812
 21
6.177271
 31
0.0
  0
LINE
  5
B5
330
59C
100
AcDbEntity
  8
_0
  6
Continuous
 62
     7
370
    30
100
AcDbLine
 10
56.241896
 20
6.188687
 30
0.0
 11
56.231344
 21
6.177396
 31
0.0
  0
LINE
  5
B6
330
59C
100
AcDbEntity
  8
_0
  6
Continuous
 62
     7
370
    30
100
AcDbLine
 10
56.244521
 20
6.187833
 30
0.0
 11
56.234885
 21
6.17751
 31
0.0
  0
LINE
  5
B7
330
59C
100
AcDbEntity
  8
_0
  6
Continuous
 62
     7
370
    30
100
AcDbLine
 10
56.247156
 20
6.18699
 30
0.0
 11
56.238417
 21
6.177635
 31
0.0
  0
LINE
  5
B8
330
59C
100
AcDbEntity
  8
_0
  6
Continuous
 62
     7
370
    30
100
AcDbLine
 10
56.249771
 20
6.186135
 30
0.0
 11
56.241948
 21
6.17775
 31
0.0
  0
LINE
  5
B9
330
59C
100
AcDbEntity
  8
_0
  6
Continuous
 62
     7
370
    30
100
AcDbLine
 10
56.252396
 20
6.185292
 30
0.0
 11
56.245479
 21
6.177875
 31
0.0
  0
LINE
  5
BA
330
59C
100
AcDbEntity
  8
_0
  6
Continuous
 62
     7
370
    30
100
AcDbLine
 10
56.255031
 20
6.184437
 30
0.0
 11
56.24901
 21
6.17799
 31
0.0
  0
LINE
  5
BB
330
59C
100
AcDbEntity
  8
_0
  6
Continuous
 62
     7
370
    30
100
AcDbLine
 10
56.257656
 20
6.183583
 30
0.0
 11
56.252552
 21
6.178115
 31
0.0
  0
LINE
  5
BC
330
59C
100
AcDbEntity
  8
_0
  6
Continuous
 62
     7
370
    30
100
AcDbLine
 10
56.260281
 20
6.182729
 30
0.0
 11
56.256083
 21
6.178229
 31
0.0
  0
LINE
  5
BD
330
59C
100
AcDbEntity
  8
_0
  6
Continuous
 62
     7
370
    30
100
AcDbLine
 10
56.262906
 20
6.181885
 30
0.0
 11
56.259615
 21
6.178354
 31
0.0
  0
LINE
  5
BE
330
59C
100
AcDbEntity
  8
_0
  6
Continuous
 62
     7
370
    30
100
AcDbLine
 10
56.265542
 20
6.181031
 30
0.0
 11
56.263146
 21
6.178469
 31
0.0
  0
LINE
  5
BF
330
59C
100
AcDbEntity
  8
_0
  6
Continuous
 62
     7
370
    30
100
AcDbLine
 10
56.268167
 20
6.180187
 30
0.0
 11
56.266677
 21
6.178594
 31
0.0
  0
LINE
  5
C0
330
59C
100
AcDbEntity
  8
_0
  6
Continuous
 62
     7
370
    30
100
AcDbLine
 10
56.270792
 20
6.179333
 30
0.0
 11
56.270219
 21
6.178708
 31
0.0
  0
LINE
  5
C1
330
59C
100
AcDbEntity
  8
_0
  6
Continuous
 62
     7
370
    30
100
AcDbLine
 10
56.117781
 20
6.326833
 30
0.0
 11
56.102948
 21
6.310958
 31
0.0
  0
LINE
  5
C2
330
59C
100
AcDbEntity
  8
_0
  6
Continuous
 62
     7
370
    30
100
AcDbLine
 10
56.018885
 20
6.220969
 30
0.0
 11
55.969865
 21
6.1685
 31
0.0
  0
LINE
  5
C3
330
59C
100
AcDbEntity
  8
_0
  6
Continuous
 62
     7
370
    30
100
AcDbLine
 10
56.084812
 20
6.291552
 30
0.0
 11
56.056562
 21
6.261302
 31
0.0
  0
LINE
  5
C4
330
59C
100
AcDbEntity
  8
_0
  6
Continuous
 62
     7
370
    30
100
AcDbLine
 10
56.117667
 20
6.330365
 30
0.0
 11
56.099417
 21
6.310844
 31
0.0
  0
LINE
  5
C5
330
59C
100
AcDbEntity
  8
_0
  6
Continuous
 62
     7
370
    30
100
AcDbLine
 10
56.015344
 20
6.220844
 30
0.0
 11
55.966344
 21
6.168385
 31
0.0
  0
LINE
  5
C6
330
59C
100
AcDbEntity
  8
_0
  6
Continuous
 62
     7
370
    30
100
AcDbLine
 10
56.084698
 20
6.295083
 30
0.0
 11
56.056438
 21
6.264833
 31
0.0
  0
LINE
  5
C7
330
59C
100
AcDbEntity
  8
_0
  6
Continuous
 62
     7
370
    30
100
AcDbLine
 10
56.117542
 20
6.333896
 30
0.0
 11
56.095875
 21
6.310719
 31
0.0
  0
LINE
  5
C8
330
59C
100
AcDbEntity
  8
_0
  6
Continuous
 62
     7
370
    30
100
AcDbLine
 10
56.010229
 20
6.219031
 30
0.0
 11
55.962802
 21
6.16826
 31
0.0
  0
LINE
  5
C9
330
59C
100
AcDbEntity
  8
_0
  6
Continuous
 62
     7
370
    30
100
AcDbLine
 10
56.084573
 20
6.298604
 30
0.0
 11
56.056312
 21
6.268375
 31
0.0
  0
LINE
  5
CA
330
59C
100
AcDbEntity
  8
_0
  6
Continuous
 62
     7
370
    30
100
AcDbLine
 10
56.117427
 20
6.337438
 30
0.0
 11
56.092354
 21
6.310604
 31
0.0
  0
LINE
  5
CB
330
59C
100
AcDbEntity
  8
_0
  6
Continuous
 62
     7
370
    30
100
AcDbLine
 10
56.004771
 20
6.216854
 30
0.0
 11
55.959271
 21
6.168135
 31
0.0
  0
LINE
  5
CC
330
59C
100
AcDbEntity
  8
_0
  6
Continuous
 62
     7
370
    30
100
AcDbLine
 10
56.084458
 20
6.302146
 30
0.0
 11
56.056198
 21
6.271896
 31
0.0
  0
LINE
  5
CD
330
59C
100
AcDbEntity
  8
_0
  6
Continuous
 62
     7
370
    30
100
AcDbLine
 10
56.117302
 20
6.340969
 30
0.0
 11
56.088812
 21
6.310479
 31
0.0
  0
LINE
  5
CE
330
59C
100
AcDbEntity
  8
_0
  6
Continuous
 62
     7
370
    30
100
AcDbLine
 10
55.999312
 20
6.214667
 30
0.0
 11
55.955729
 21
6.168021
 31
0.0
  0
LINE
  5
CF
330
59C
100
AcDbEntity
  8
_0
  6
Continuous
 62
     7
370
    30
100
AcDbLine
 10
56.084333
 20
6.305677
 30
0.0
 11
56.056073
 21
6.275437
 31
0.0
  0
LINE
  5
D0
330
59C
100
AcDbEntity
  8
_0
  6
Continuous
 62
     7
370
    30
100
AcDbLine
 10
56.117177
 20
6.3445
 30
0.0
 11
56.085281
 21
6.310354
 31
0.0
  0
LINE
  5
D1
330
59C
100
AcDbEntity
  8
_0
  6
Continuous
 62
     7
370
    30
100
AcDbLine
 10
55.993833
 20
6.212479
 30
0.0
 11
55.952198
 21
6.167896
 31
0.0
  0
LINE
  5
D2
330
59C
100
AcDbEntity
  8
_0
  6
Continuous
 62
     7
370
    30
100
AcDbLine
 10
56.084219
 20
6.309219
 30
0.0
 11
56.055958
 21
6.278969
 31
0.0
  0
LINE
  5
D3
330
59C
100
AcDbEntity
  8
_0
  6
Continuous
 62
     7
370
    30
100
AcDbLine
 10
56.117062
 20
6.348031
 30
0.0
 11
56.055833
 21
6.2825
 31
0.0
  0
LINE
  5
D4
330
59C
100
AcDbEntity
  8
_0
  6
Continuous
 62
     7
370
    30
100
AcDbLine
 10
55.988375
 20
6.210292
 30
0.0
 11
55.948667
 21
6.167781
 31
0.0
  0
LINE
  5
D5
330
59C
100
AcDbEntity
  8
_0
  6
Continuous
 62
     7
370
    30
100
AcDbLine
 10
56.116937
 20
6.351562
 30
0.0
 11
56.055719
 21
6.286042
 31
0.0
  0
LINE
  5
D6
330
59C
100
AcDbEntity
  8
_0
  6
Continuous
 62
     7
370
    30
100
AcDbLine
 10
55.982906
 20
6.208104
 30
0.0
 11
55.945135
 21
6.167656
 31
0.0
  0
LINE
  5
D7
330
59C
100
AcDbEntity
  8
_0
  6
Continuous
 62
     7
370
    30
100
AcDbLine
 10
56.116823
 20
6.355104
 30
0.0
 11
56.055594
 21
6.289562
 31
0.0
  0
LINE
  5
D8
330
59C
100
AcDbEntity
  8
_0
  6
Continuous
 62
     7
370
    30
100
AcDbLine
 10
55.977448
 20
6.205917
 30
0.0
 11
55.941604
 21
6.167542
 31
0.0
  0
LINE
  5
D9
330
59C
100
AcDbEntity
  8
_0
  6
Continuous
 62
     7
370
    30
100
AcDbLine
 10
56.116698
 20
6.358635
 30
0.0
 11
56.055479
 21
6.293104
 31
0.0
  0
LINE
  5
DA
330
59C
100
AcDbEntity
  8
_0
  6
Continuous
 62
     7
370
    30
100
AcDbLine
 10
55.97199
 20
6.203729
 30
0.0
 11
55.938063
 21
6.167417
 31
0.0
  0
LINE
  5
DB
330
59C
100
AcDbEntity
  8
_0
  6
Continuous
 62
     7
370
    30
100
AcDbLine
 10
56.116583
 20
6.362167
 30
0.0
 11
56.055354
 21
6.296635
 31
0.0
  0
LINE
  5
DC
330
59C
100
AcDbEntity
  8
_0
  6
Continuous
 62
     7
370
    30
100
AcDbLine
 10
55.96651
 20
6.201542
 30
0.0
 11
55.934531
 21
6.167302
 31
0.0
  0
LINE
  5
DD
330
59C
100
AcDbEntity
  8
_0
  6
Continuous
 62
     7
370
    30
100
AcDbLine
 10
56.116458
 20
6.365698
 30
0.0
 11
56.05524
 21
6.300167
 31
0.0
  0
LINE
  5
DE
330
59C
100
AcDbEntity
  8
_0
  6
Continuous
 62
     7
370
    30
100
AcDbLine
 10
55.961052
 20
6.199354
 30
0.0
 11
55.931
 21
6.167177
 31
0.0
  0
LINE
  5
DF
330
59C
100
AcDbEntity
  8
_0
  6
Continuous
 62
     7
370
    30
100
AcDbLine
 10
56.116344
 20
6.369229
 30
0.0
 11
56.055115
 21
6.303708
 31
0.0
  0
LINE
  5
E0
330
59C
100
AcDbEntity
  8
_0
  6
Continuous
 62
     7
370
    30
100
AcDbLine
 10
55.955583
 20
6.197167
 30
0.0
 11
55.927469
 21
6.167063
 31
0.0
  0
LINE
  5
E1
330
59C
100
AcDbEntity
  8
_0
  6
Continuous
 62
     7
370
    30
100
AcDbLine
 10
56.116219
 20
6.372771
 30
0.0
 11
56.055
 21
6.307229
 31
0.0
  0
LINE
  5
E2
330
59C
100
AcDbEntity
  8
_0
  6
Continuous
 62
     7
370
    30
100
AcDbLine
 10
55.950125
 20
6.194979
 30
0.0
 11
55.923938
 21
6.166937
 31
0.0
  0
LINE
  5
E3
330
59C
100
AcDbEntity
  8
_0
  6
Continuous
 62
     7
370
    30
100
AcDbLine
 10
56.115354
 20
6.3755
 30
0.0
 11
56.053479
 21
6.309281
 31
0.0
  0
LINE
  5
E4
330
59C
100
AcDbEntity
  8
_0
  6
Continuous
 62
     7
370
    30
100
AcDbLine
 10
55.944667
 20
6.192792
 30
0.0
 11
55.920396
 21
6.166823
 31
0.0
  0
LINE
  5
E5
330
59C
100
AcDbEntity
  8
_0
  6
Continuous
 62
     7
370
    30
100
AcDbLine
 10
56.111812
 20
6.375385
 30
0.0
 11
56.049948
 21
6.309156
 31
0.0
  0
LINE
  5
E6
330
59C
100
AcDbEntity
  8
_0
  6
Continuous
 62
     7
370
    30
100
AcDbLine
 10
55.939198
 20
6.190604
 30
0.0
 11
55.916865
 21
6.166698
 31
0.0
  0
LINE
  5
E7
330
59C
100
AcDbEntity
  8
_0
  6
Continuous
 62
     7
370
    30
100
AcDbLine
 10
56.108292
 20
6.37526
 30
0.0
 11
56.046406
 21
6.309042
 31
0.0
  0
LINE
  5
E8
330
59C
100
AcDbEntity
  8
_0
  6
Continuous
 62
     7
370
    30
100
AcDbLine
 10
55.933729
 20
6.188417
 30
0.0
 11
55.913333
 21
6.166573
 31
0.0
  0
LINE
  5
E9
330
59C
100
AcDbEntity
  8
_0
  6
Continuous
 62
     7
370
    30
100
AcDbLine
 10
56.10476
 20
6.375146
 30
0.0
 11
56.042875
 21
6.308917
 31
0.0
  0
LINE
  5
EA
330
59C
100
AcDbEntity
  8
_0
  6
Continuous
 62
     7
370
    30
100
AcDbLine
 10
55.92826
 20
6.186229
 30
0.0
 11
55.909802
 21
6.166458
 31
0.0
  0
LINE
  5
EB
330
59C
100
AcDbEntity
  8
_0
  6
Continuous
 62
     7
370
    30
100
AcDbLine
 10
56.101219
 20
6.375021
 30
0.0
 11
56.039354
 21
6.308792
 31
0.0
  0
LINE
  5
EC
330
59C
100
AcDbEntity
  8
_0
  6
Continuous
 62
     7
370
    30
100
AcDbLine
 10
55.922802
 20
6.184042
 30
0.0
 11
55.906271
 21
6.166333
 31
0.0
  0
LINE
  5
ED
330
59C
100
AcDbEntity
  8
_0
  6
Continuous
 62
     7
370
    30
100
AcDbLine
 10
56.097687
 20
6.374896
 30
0.0
 11
56.035812
 21
6.308677
 31
0.0
  0
LINE
  5
EE
330
59C
100
AcDbEntity
  8
_0
  6
Continuous
 62
     7
370
    30
100
AcDbLine
 10
55.917333
 20
6.181854
 30
0.0
 11
55.902729
 21
6.166219
 31
0.0
  0
LINE
  5
EF
330
59C
100
AcDbEntity
  8
_0
  6
Continuous
 62
     7
370
    30
100
AcDbLine
 10
56.094146
 20
6.374781
 30
0.0
 11
56.032281
 21
6.308552
 31
0.0
  0
LINE
  5
F0
330
59C
100
AcDbEntity
  8
_0
  6
Continuous
 62
     7
370
    30
100
AcDbLine
 10
55.911875
 20
6.179667
 30
0.0
 11
55.899198
 21
6.166094
 31
0.0
  0
LINE
  5
F1
330
59C
100
AcDbEntity
  8
_0
  6
Continuous
 62
     7
370
    30
100
AcDbLine
 10
56.090625
 20
6.374656
 30
0.0
 11
56.02874
 21
6.308438
 31
0.0
  0
LINE
  5
F2
330
59C
100
AcDbEntity
  8
_0
  6
Continuous
 62
     7
370
    30
100
AcDbLine
 10
55.906417
 20
6.177479
 30
0.0
 11
55.895667
 21
6.165979
 31
0.0
  0
LINE
  5
F3
330
59C
100
AcDbEntity
  8
_0
  6
Continuous
 62
     7
370
    30
100
AcDbLine
 10
56.087094
 20
6.374542
 30
0.0
 11
56.025208
 21
6.308312
 31
0.0
  0
LINE
  5
F4
330
59C
100
AcDbEntity
  8
_0
  6
Continuous
 62
     7
370
    30
100
AcDbLine
 10
55.900937
 20
6.175302
 30
0.0
 11
55.892135
 21
6.165854
 31
0.0
  0
LINE
  5
F5
330
59C
100
AcDbEntity
  8
_0
  6
Continuous
 62
     7
370
    30
100
AcDbLine
 10
56.083552
 20
6.374417
 30
0.0
 11
56.021687
 21
6.308198
 31
0.0
  0
LINE
  5
F6
330
59C
100
AcDbEntity
  8
_0
  6
Continuous
 62
     7
370
    30
100
AcDbLine
 10
55.895479
 20
6.173115
 30
0.0
 11
55.888594
 21
6.16574
 31
0.0
  0
LINE
  5
F7
330
59C
100
AcDbEntity
  8
_0
  6
Continuous
 62
     7
370
    30
100
AcDbLine
 10
56.080021
 20
6.374302
 30
0.0
 11
56.020708
 21
6.310823
 31
0.0
  0
LINE
  5
F8
330
59C
100
AcDbEntity
  8
_0
  6
Continuous
 62
     7
370
    30
100
AcDbLine
 10
55.89001
 20
6.170927
 30
0.0
 11
55.885062
 21
6.165615
 31
0.0
  0
LINE
  5
F9
330
59C
100
AcDbEntity
  8
_0
  6
Continuous
 62
     7
370
    30
100
AcDbLine
 10
56.076479
 20
6.374177
 30
0.0
 11
56.020583
 21
6.314354
 31
0.0
  0
LINE
  5
FA
330
59C
100
AcDbEntity
  8
_0
  6
Continuous
 62
     7
370
    30
100
AcDbLine
 10
55.884552
 20
6.16874
 30
0.0
 11
55.881531
 21
6.1655
 31
0.0
  0
LINE
  5
FB
330
59C
100
AcDbEntity
  8
_0
  6
Continuous
 62
     7
370
    30
100
AcDbLine
 10
56.072958
 20
6.374062
 30
0.0
 11
56.020469
 21
6.317885
 31
0.0
  0
LINE
  5
FC
330
59C
100
AcDbEntity
  8
_0
  6
Continuous
 62
     7
370
    30
100
AcDbLine
 10
55.879094
 20
6.166552
 30
0.0
 11
55.878
 21
6.165375
 31
0.0
  0
LINE
  5
FD
330
59C
100
AcDbEntity
  8
_0
  6
Continuous
 62
     7
370
    30
100
AcDbLine
 10
56.069417
 20
6.373937
 30
0.0
 11
56.020344
 21
6.321417
 31
0.0
  0
LINE
  5
FE
330
59C
100
AcDbEntity
  8
_0
  6
Continuous
 62
     7
370
    30
100
AcDbLine
 10
56.065885
 20
6.373823
 30
0.0
 11
56.020229
 21
6.324958
 31
0.0
  0
LINE
  5
FF
330
59C
100
AcDbEntity
  8
_0
  6
Continuous
 62
     7
370
    30
100
AcDbLine
 10
56.062354
 20
6.373698
 30
0.0
 11
56.020104
 21
6.32849
 31
0.0
  0
LINE
  5
100
330
59C
100
AcDbEntity
  8
_0
  6
Continuous
 62
     7
370
    30
100
AcDbLine
 10
56.058812
 20
6.373583
 30
0.0
 11
56.01999
 21
6.332021
 31
0.0
  0
LINE
  5
101
330
59C
100
AcDbEntity
  8
_0
  6
Continuous
 62
     7
370
    30
100
AcDbLine
 10
56.055292
 20
6.373458
 30
0.0
 11
56.019865
 21
6.335552
 31
0.0
  0
LINE
  5
102
330
59C
100
AcDbEntity
  8
_0
  6
Continuous
 62
     7
370
    30
100
AcDbLine
 10
56.05175
 20
6.373344
 30
0.0
 11
56.01975
 21
6.339083
 31
0.0
  0
LINE
  5
103
330
59C
100
AcDbEntity
  8
_0
  6
Continuous
 62
     7
370
    30
100
AcDbLine
 10
56.048219
 20
6.373219
 30
0.0
 11
56.019625
 21
6.342625
 31
0.0
  0
LINE
  5
104
330
59C
100
AcDbEntity
  8
_0
  6
Continuous
 62
     7
370
    30
100
AcDbLine
 10
56.044687
 20
6.373094
 30
0.0
 11
56.01951
 21
6.346156
 31
0.0
  0
LINE
  5
105
330
59C
100
AcDbEntity
  8
_0
  6
Continuous
 62
     7
370
    30
100
AcDbLine
 10
56.041146
 20
6.372979
 30
0.0
 11
56.019385
 21
6.349687
 31
0.0
  0
LINE
  5
106
330
59C
100
AcDbEntity
  8
_0
  6
Continuous
 62
     7
370
    30
100
AcDbLine
 10
56.037625
 20
6.372854
 30
0.0
 11
56.019271
 21
6.353219
 31
0.0
  0
LINE
  5
107
330
59C
100
AcDbEntity
  8
_0
  6
Continuous
 62
     7
370
    30
100
AcDbLine
 10
56.034083
 20
6.37274
 30
0.0
 11
56.019146
 21
6.35675
 31
0.0
  0
LINE
  5
108
330
59C
100
AcDbEntity
  8
_0
  6
Continuous
 62
     7
370
    30
100
AcDbLine
 10
56.030552
 20
6.372615
 30
0.0
 11
56.019021
 21
6.360292
 31
0.0
  0
LINE
  5
109
330
59C
100
AcDbEntity
  8
_0
  6
Continuous
 62
     7
370
    30
100
AcDbLine
 10
56.027021
 20
6.3725
 30
0.0
 11
56.018906
 21
6.363823
 31
0.0
  0
LINE
  5
10A
330
59C
100
AcDbEntity
  8
_0
  6
Continuous
 62
     7
370
    30
100
AcDbLine
 10
56.023479
 20
6.372375
 30
0.0
 11
56.018781
 21
6.367354
 31
0.0
  0
LINE
  5
10B
330
59C
100
AcDbEntity
  8
_0
  6
Continuous
 62
     7
370
    30
100
AcDbLine
 10
56.019948
 20
6.37226
 30
0.0
 11
56.018667
 21
6.370885
 31
0.0
  0
LINE
  5
10C
330
59C
100
AcDbEntity
  8
_0
  6
Continuous
 62
     7
370
    30
100
AcDbLine
 10
57.743729
 20
6.378583
 30
0.0
 11
57.732302
 21
6.366365
 31
0.0
  0
LINE
  5
10D
330
59C
100
AcDbEntity
  8
_0
  6
Continuous
 62
     7
370
    30
100
AcDbLine
 10
57.64824
 20
6.276375
 30
0.0
 11
57.599219
 21
6.223906
 31
0.0
  0
LINE
  5
10E
330
59C
100
AcDbEntity
  8
_0
  6
Continuous
 62
     7
370
    30
100
AcDbLine
 10
57.71076
 20
6.343292
 30
0.0
 11
57.6825
 21
6.313063
 31
0.0
  0
LINE
  5
10F
330
59C
100
AcDbEntity
  8
_0
  6
Continuous
 62
     7
370
    30
100
AcDbLine
 10
57.743844
 20
6.375052
 30
0.0
 11
57.735844
 21
6.36649
 31
0.0
  0
LINE
  5
110
330
59C
100
AcDbEntity
  8
_0
  6
Continuous
 62
     7
370
    30
100
AcDbLine
 10
57.651771
 20
6.27649
 30
0.0
 11
57.60276
 21
6.224021
 31
0.0
  0
LINE
  5
111
330
59C
100
AcDbEntity
  8
_0
  6
Continuous
 62
     7
370
    30
100
AcDbLine
 10
57.710885
 20
6.339771
 30
0.0
 11
57.682625
 21
6.309521
 31
0.0
  0
LINE
  5
112
330
59C
100
AcDbEntity
  8
_0
  6
Continuous
 62
     7
370
    30
100
AcDbLine
 10
57.743969
 20
6.37151
 30
0.0
 11
57.739375
 21
6.366604
 31
0.0
  0
LINE
  5
113
330
59C
100
AcDbEntity
  8
_0
  6
Continuous
 62
     7
370
    30
100
AcDbLine
 10
57.655313
 20
6.276615
 30
0.0
 11
57.606292
 21
6.224146
 31
0.0
  0
LINE
  5
114
330
59C
100
AcDbEntity
  8
_0
  6
Continuous
 62
     7
370
    30
100
AcDbLine
 10
57.711
 20
6.336229
 30
0.0
 11
57.68274
 21
6.30599
 31
0.0
  0
LINE
  5
115
330
59C
100
AcDbEntity
  8
_0
  6
Continuous
 62
     7
370
    30
100
AcDbLine
 10
57.744083
 20
6.36799
 30
0.0
 11
57.742906
 21
6.366729
 31
0.0
  0
LINE
  5
116
330
59C
100
AcDbEntity
  8
_0
  6
Continuous
 62
     7
370
    30
100
AcDbLine
 10
57.658833
 20
6.276729
 30
0.0
 11
57.609833
 21
6.224271
 31
0.0
  0
LINE
  5
117
330
59C
100
AcDbEntity
  8
_0
  6
Continuous
 62
     7
370
    30
100
AcDbLine
 10
57.711125
 20
6.332698
 30
0.0
 11
57.682865
 21
6.302448
 31
0.0
  0
LINE
  5
118
330
59C
100
AcDbEntity
  8
_0
  6
Continuous
 62
     7
370
    30
100
AcDbLine
 10
57.71124
 20
6.329167
 30
0.0
 11
57.682979
 21
6.298917
 31
0.0
  0
LINE
  5
119
330
59C
100
AcDbEntity
  8
_0
  6
Continuous
 62
     7
370
    30
100
AcDbLine
 10
57.662375
 20
6.276854
 30
0.0
 11
57.613365
 21
6.224385
 31
0.0
  0
LINE
  5
11A
330
59C
100
AcDbEntity
  8
_0
  6
Continuous
 62
     7
370
    30
100
AcDbLine
 10
57.711365
 20
6.325625
 30
0.0
 11
57.683104
 21
6.295385
 31
0.0
  0
LINE
  5
11B
330
59C
100
AcDbEntity
  8
_0
  6
Continuous
 62
     7
370
    30
100
AcDbLine
 10
57.665906
 20
6.276969
 30
0.0
 11
57.616885
 21
6.22451
 31
0.0
  0
LINE
  5
11C
330
59C
100
AcDbEntity
  8
_0
  6
Continuous
 62
     7
370
    30
100
AcDbLine
 10
57.711479
 20
6.322104
 30
0.0
 11
57.683219
 21
6.291854
 31
0.0
  0
LINE
  5
11D
330
59C
100
AcDbEntity
  8
_0
  6
Continuous
 62
     7
370
    30
100
AcDbLine
 10
57.669438
 20
6.277094
 30
0.0
 11
57.620427
 21
6.224625
 31
0.0
  0
LINE
  5
11E
330
59C
100
AcDbEntity
  8
_0
  6
Continuous
 62
     7
370
    30
100
AcDbLine
 10
57.711604
 20
6.318562
 30
0.0
 11
57.683344
 21
6.288323
 31
0.0
  0
LINE
  5
11F
330
59C
100
AcDbEntity
  8
_0
  6
Continuous
 62
     7
370
    30
100
AcDbLine
 10
57.672979
 20
6.277208
 30
0.0
 11
57.623958
 21
6.22475
 31
0.0
  0
LINE
  5
120
330
59C
100
AcDbEntity
  8
_0
  6
Continuous
 62
     7
370
    30
100
AcDbLine
 10
57.711719
 20
6.315031
 30
0.0
 11
57.683458
 21
6.284781
 31
0.0
  0
LINE
  5
121
330
59C
100
AcDbEntity
  8
_0
  6
Continuous
 62
     7
370
    30
100
AcDbLine
 10
57.6765
 20
6.277333
 30
0.0
 11
57.6275
 21
6.224865
 31
0.0
  0
LINE
  5
122
330
59C
100
AcDbEntity
  8
_0
  6
Continuous
 62
     7
370
    30
100
AcDbLine
 10
57.711844
 20
6.31149
 30
0.0
 11
57.683583
 21
6.28125
 31
0.0
  0
LINE
  5
123
330
59C
100
AcDbEntity
  8
_0
  6
Continuous
 62
     7
370
    30
100
AcDbLine
 10
57.680042
 20
6.277458
 30
0.0
 11
57.631031
 21
6.22499
 31
0.0
  0
LINE
  5
124
330
59C
100
AcDbEntity
  8
_0
  6
Continuous
 62
     7
370
    30
100
AcDbLine
 10
57.711958
 20
6.307958
 30
0.0
 11
57.683698
 21
6.277708
 31
0.0
  0
LINE
  5
125
330
59C
100
AcDbEntity
  8
_0
  6
Continuous
 62
     7
370
    30
100
AcDbLine
 10
57.683573
 20
6.277573
 30
0.0
 11
57.634552
 21
6.225104
 31
0.0
  0
LINE
  5
126
330
59C
100
AcDbEntity
  8
_0
  6
Continuous
 62
     7
370
    30
100
AcDbLine
 10
57.712083
 20
6.304437
 30
0.0
 11
57.638094
 21
6.225229
 31
0.0
  0
LINE
  5
127
330
59C
100
AcDbEntity
  8
_0
  6
Continuous
 62
     7
370
    30
100
AcDbLine
 10
57.712198
 20
6.300896
 30
0.0
 11
57.641625
 21
6.225344
 31
0.0
  0
LINE
  5
128
330
59C
100
AcDbEntity
  8
_0
  6
Continuous
 62
     7
370
    30
100
AcDbLine
 10
57.712323
 20
6.297365
 30
0.0
 11
57.645167
 21
6.225469
 31
0.0
  0
LINE
  5
129
330
59C
100
AcDbEntity
  8
_0
  6
Continuous
 62
     7
370
    30
100
AcDbLine
 10
57.712448
 20
6.293823
 30
0.0
 11
57.648698
 21
6.225583
 31
0.0
  0
LINE
  5
12A
330
59C
100
AcDbEntity
  8
_0
  6
Continuous
 62
     7
370
    30
100
AcDbLine
 10
57.712562
 20
6.290292
 30
0.0
 11
57.652229
 21
6.225708
 31
0.0
  0
LINE
  5
12B
330
59C
100
AcDbEntity
  8
_0
  6
Continuous
 62
     7
370
    30
100
AcDbLine
 10
57.712688
 20
6.286771
 30
0.0
 11
57.65576
 21
6.225823
 31
0.0
  0
LINE
  5
12C
330
59C
100
AcDbEntity
  8
_0
  6
Continuous
 62
     7
370
    30
100
AcDbLine
 10
57.712802
 20
6.283229
 30
0.0
 11
57.659292
 21
6.225948
 31
0.0
  0
LINE
  5
12D
330
59C
100
AcDbEntity
  8
_0
  6
Continuous
 62
     7
370
    30
100
AcDbLine
 10
57.712927
 20
6.279698
 30
0.0
 11
57.662833
 21
6.226073
 31
0.0
  0
LINE
  5
12E
330
59C
100
AcDbEntity
  8
_0
  6
Continuous
 62
     7
370
    30
100
AcDbLine
 10
57.715375
 20
6.278656
 30
0.0
 11
57.666365
 21
6.226187
 31
0.0
  0
LINE
  5
12F
330
59C
100
AcDbEntity
  8
_0
  6
Continuous
 62
     7
370
    30
100
AcDbLine
 10
57.718906
 20
6.278771
 30
0.0
 11
57.669896
 21
6.226312
 31
0.0
  0
LINE
  5
130
330
59C
100
AcDbEntity
  8
_0
  6
Continuous
 62
     7
370
    30
100
AcDbLine
 10
57.722448
 20
6.278896
 30
0.0
 11
57.673427
 21
6.226427
 31
0.0
  0
LINE
  5
131
330
59C
100
AcDbEntity
  8
_0
  6
Continuous
 62
     7
370
    30
100
AcDbLine
 10
57.725979
 20
6.27901
 30
0.0
 11
57.676958
 21
6.226552
 31
0.0
  0
LINE
  5
132
330
59C
100
AcDbEntity
  8
_0
  6
Continuous
 62
     7
370
    30
100
AcDbLine
 10
57.7295
 20
6.279135
 30
0.0
 11
57.6805
 21
6.226667
 31
0.0
  0
LINE
  5
133
330
59C
100
AcDbEntity
  8
_0
  6
Continuous
 62
     7
370
    30
100
AcDbLine
 10
57.733042
 20
6.27926
 30
0.0
 11
57.684031
 21
6.226792
 31
0.0
  0
LINE
  5
134
330
59C
100
AcDbEntity
  8
_0
  6
Continuous
 62
     7
370
    30
100
AcDbLine
 10
57.736573
 20
6.279375
 30
0.0
 11
57.687562
 21
6.226906
 31
0.0
  0
LINE
  5
135
330
59C
100
AcDbEntity
  8
_0
  6
Continuous
 62
     7
370
    30
100
AcDbLine
 10
57.740115
 20
6.2795
 30
0.0
 11
57.691094
 21
6.227031
 31
0.0
  0
LINE
  5
136
330
59C
100
AcDbEntity
  8
_0
  6
Continuous
 62
     7
370
    30
100
AcDbLine
 10
57.743646
 20
6.279615
 30
0.0
 11
57.694625
 21
6.227146
 31
0.0
  0
LINE
  5
137
330
59C
100
AcDbEntity
  8
_0
  6
Continuous
 62
     7
370
    30
100
AcDbLine
 10
57.747167
 20
6.27974
 30
0.0
 11
57.698167
 21
6.227271
 31
0.0
  0
LINE
  5
138
330
59C
100
AcDbEntity
  8
_0
  6
Continuous
 62
     7
370
    30
100
AcDbLine
 10
57.750708
 20
6.279854
 30
0.0
 11
57.701698
 21
6.227385
 31
0.0
  0
LINE
  5
139
330
59C
100
AcDbEntity
  8
_0
  6
Continuous
 62
     7
370
    30
100
AcDbLine
 10
57.75424
 20
6.279979
 30
0.0
 11
57.705229
 21
6.22751
 31
0.0
  0
LINE
  5
13A
330
59C
100
AcDbEntity
  8
_0
  6
Continuous
 62
     7
370
    30
100
AcDbLine
 10
57.757354
 20
6.279646
 30
0.0
 11
57.70876
 21
6.227625
 31
0.0
  0
LINE
  5
13B
330
59C
100
AcDbEntity
  8
_0
  6
Continuous
 62
     7
370
    30
100
AcDbLine
 10
57.759979
 20
6.278792
 30
0.0
 11
57.712302
 21
6.22775
 31
0.0
  0
LINE
  5
13C
330
59C
100
AcDbEntity
  8
_0
  6
Continuous
 62
     7
370
    30
100
AcDbLine
 10
57.762615
 20
6.277948
 30
0.0
 11
57.715833
 21
6.227875
 31
0.0
  0
LINE
  5
13D
330
59C
100
AcDbEntity
  8
_0
  6
Continuous
 62
     7
370
    30
100
AcDbLine
 10
57.76524
 20
6.277094
 30
0.0
 11
57.719365
 21
6.22799
 31
0.0
  0
LINE
  5
13E
330
59C
100
AcDbEntity
  8
_0
  6
Continuous
 62
     7
370
    30
100
AcDbLine
 10
57.767865
 20
6.27625
 30
0.0
 11
57.722896
 21
6.228115
 31
0.0
  0
LINE
  5
13F
330
59C
100
AcDbEntity
  8
_0
  6
Continuous
 62
     7
370
    30
100
AcDbLine
 10
57.7705
 20
6.275406
 30
0.0
 11
57.726427
 21
6.228229
 31
0.0
  0
LINE
  5
140
330
59C
100
AcDbEntity
  8
_0
  6
Continuous
 62
     7
370
    30
100
AcDbLine
 10
57.773125
 20
6.274552
 30
0.0
 11
57.729969
 21
6.228354
 31
0.0
  0
LINE
  5
141
330
59C
100
AcDbEntity
  8
_0
  6
Continuous
 62
     7
370
    30
100
AcDbLine
 10
57.77575
 20
6.273708
 30
0.0
 11
57.7335
 21
6.228469
 31
0.0
  0
LINE
  5
142
330
59C
100
AcDbEntity
  8
_0
  6
Continuous
 62
     7
370
    30
100
AcDbLine
 10
57.778385
 20
6.272854
 30
0.0
 11
57.737031
 21
6.228594
 31
0.0
  0
LINE
  5
143
330
59C
100
AcDbEntity
  8
_0
  6
Continuous
 62
     7
370
    30
100
AcDbLine
 10
57.781
 20
6.27201
 30
0.0
 11
57.740573
 21
6.228708
 31
0.0
  0
LINE
  5
144
330
59C
100
AcDbEntity
  8
_0
  6
Continuous
 62
     7
370
    30
100
AcDbLine
 10
57.783625
 20
6.271156
 30
0.0
 11
57.744094
 21
6.228833
 31
0.0
  0
LINE
  5
145
330
59C
100
AcDbEntity
  8
_0
  6
Continuous
 62
     7
370
    30
100
AcDbLine
 10
57.78626
 20
6.270302
 30
0.0
 11
57.747635
 21
6.228948
 31
0.0
  0
LINE
  5
146
330
59C
100
AcDbEntity
  8
_0
  6
Continuous
 62
     7
370
    30
100
AcDbLine
 10
57.788885
 20
6.269448
 30
0.0
 11
57.751167
 21
6.229073
 31
0.0
  0
LINE
  5
147
330
59C
100
AcDbEntity
  8
_0
  6
Continuous
 62
     7
370
    30
100
AcDbLine
 10
57.79151
 20
6.268604
 30
0.0
 11
57.754698
 21
6.229188
 31
0.0
  0
LINE
  5
148
330
59C
100
AcDbEntity
  8
_0
  6
Continuous
 62
     7
370
    30
100
AcDbLine
 10
57.794146
 20
6.26775
 30
0.0
 11
57.75824
 21
6.229312
 31
0.0
  0
LINE
  5
149
330
59C
100
AcDbEntity
  8
_0
  6
Continuous
 62
     7
370
    30
100
AcDbLine
 10
57.796771
 20
6.266906
 30
0.0
 11
57.76176
 21
6.229427
 31
0.0
  0
LINE
  5
14A
330
59C
100
AcDbEntity
  8
_0
  6
Continuous
 62
     7
370
    30
100
AcDbLine
 10
57.799396
 20
6.266052
 30
0.0
 11
57.765302
 21
6.229552
 31
0.0
  0
LINE
  5
14B
330
59C
100
AcDbEntity
  8
_0
  6
Continuous
 62
     7
370
    30
100
AcDbLine
 10
57.802031
 20
6.265208
 30
0.0
 11
57.768833
 21
6.229677
 31
0.0
  0
LINE
  5
14C
330
59C
100
AcDbEntity
  8
_0
  6
Continuous
 62
     7
370
    30
100
AcDbLine
 10
57.804656
 20
6.264354
 30
0.0
 11
57.772375
 21
6.229792
 31
0.0
  0
LINE
  5
14D
330
59C
100
AcDbEntity
  8
_0
  6
Continuous
 62
     7
370
    30
100
AcDbLine
 10
57.807281
 20
6.26351
 30
0.0
 11
57.775906
 21
6.229917
 31
0.0
  0
LINE
  5
14E
330
59C
100
AcDbEntity
  8
_0
  6
Continuous
 62
     7
370
    30
100
AcDbLine
 10
57.809917
 20
6.262656
 30
0.0
 11
57.779427
 21
6.230031
 31
0.0
  0
LINE
  5
14F
330
59C
100
AcDbEntity
  8
_0
  6
Continuous
 62
     7
370
    30
100
AcDbLine
 10
57.812542
 20
6.261812
 30
0.0
 11
57.782969
 21
6.230156
 31
0.0
  0
LINE
  5
150
330
59C
100
AcDbEntity
  8
_0
  6
Continuous
 62
     7
370
    30
100
AcDbLine
 10
57.815156
 20
6.260958
 30
0.0
 11
57.7865
 21
6.230271
 31
0.0
  0
LINE
  5
151
330
59C
100
AcDbEntity
  8
_0
  6
Continuous
 62
     7
370
    30
100
AcDbLine
 10
57.817792
 20
6.260104
 30
0.0
 11
57.790042
 21
6.230396
 31
0.0
  0
LINE
  5
152
330
59C
100
AcDbEntity
  8
_0
  6
Continuous
 62
     7
370
    30
100
AcDbLine
 10
57.820417
 20
6.25926
 30
0.0
 11
57.793573
 21
6.23051
 31
0.0
  0
LINE
  5
153
330
59C
100
AcDbEntity
  8
_0
  6
Continuous
 62
     7
370
    30
100
AcDbLine
 10
57.823042
 20
6.258406
 30
0.0
 11
57.797094
 21
6.230635
 31
0.0
  0
LINE
  5
154
330
59C
100
AcDbEntity
  8
_0
  6
Continuous
 62
     7
370
    30
100
AcDbLine
 10
57.825677
 20
6.257562
 30
0.0
 11
57.800635
 21
6.23075
 31
0.0
  0
LINE
  5
155
330
59C
100
AcDbEntity
  8
_0
  6
Continuous
 62
     7
370
    30
100
AcDbLine
 10
57.828302
 20
6.256708
 30
0.0
 11
57.804167
 21
6.230875
 31
0.0
  0
LINE
  5
156
330
59C
100
AcDbEntity
  8
_0
  6
Continuous
 62
     7
370
    30
100
AcDbLine
 10
57.830927
 20
6.255865
 30
0.0
 11
57.807708
 21
6.23099
 31
0.0
  0
LINE
  5
157
330
59C
100
AcDbEntity
  8
_0
  6
Continuous
 62
     7
370
    30
100
AcDbLine
 10
57.833562
 20
6.25501
 30
0.0
 11
57.81124
 21
6.231115
 31
0.0
  0
LINE
  5
158
330
59C
100
AcDbEntity
  8
_0
  6
Continuous
 62
     7
370
    30
100
AcDbLine
 10
57.836188
 20
6.254167
 30
0.0
 11
57.81476
 21
6.23124
 31
0.0
  0
LINE
  5
159
330
59C
100
AcDbEntity
  8
_0
  6
Continuous
 62
     7
370
    30
100
AcDbLine
 10
57.838812
 20
6.253312
 30
0.0
 11
57.818302
 21
6.231354
 31
0.0
  0
LINE
  5
15A
330
59C
100
AcDbEntity
  8
_0
  6
Continuous
 62
     7
370
    30
100
AcDbLine
 10
57.841448
 20
6.252469
 30
0.0
 11
57.821833
 21
6.231479
 31
0.0
  0
LINE
  5
15B
330
59C
100
AcDbEntity
  8
_0
  6
Continuous
 62
     7
370
    30
100
AcDbLine
 10
57.844073
 20
6.251615
 30
0.0
 11
57.825375
 21
6.231594
 31
0.0
  0
LINE
  5
15C
330
59C
100
AcDbEntity
  8
_0
  6
Continuous
 62
     7
370
    30
100
AcDbLine
 10
57.846688
 20
6.250771
 30
0.0
 11
57.828906
 21
6.231719
 31
0.0
  0
LINE
  5
15D
330
59C
100
AcDbEntity
  8
_0
  6
Continuous
 62
     7
370
    30
100
AcDbLine
 10
57.849323
 20
6.249917
 30
0.0
 11
57.832427
 21
6.231833
 31
0.0
  0
LINE
  5
15E
330
59C
100
AcDbEntity
  8
_0
  6
Continuous
 62
     7
370
    30
100
AcDbLine
 10
57.851948
 20
6.249062
 30
0.0
 11
57.835969
 21
6.231958
 31
0.0
  0
LINE
  5
15F
330
59C
100
AcDbEntity
  8
_0
  6
Continuous
 62
     7
370
    30
100
AcDbLine
 10
57.854573
 20
6.248208
 30
0.0
 11
57.8395
 21
6.232073
 31
0.0
  0
LINE
  5
160
330
59C
100
AcDbEntity
  8
_0
  6
Continuous
 62
     7
370
    30
100
AcDbLine
 10
57.857208
 20
6.247365
 30
0.0
 11
57.843042
 21
6.232198
 31
0.0
  0
LINE
  5
161
330
59C
100
AcDbEntity
  8
_0
  6
Continuous
 62
     7
370
    30
100
AcDbLine
 10
57.859833
 20
6.24651
 30
0.0
 11
57.846573
 21
6.232312
 31
0.0
  0
LINE
  5
162
330
59C
100
AcDbEntity
  8
_0
  6
Continuous
 62
     7
370
    30
100
AcDbLine
 10
57.862458
 20
6.245667
 30
0.0
 11
57.850104
 21
6.232437
 31
0.0
  0
LINE
  5
163
330
59C
100
AcDbEntity
  8
_0
  6
Continuous
 62
     7
370
    30
100
AcDbLine
 10
57.865094
 20
6.244813
 30
0.0
 11
57.853635
 21
6.232552
 31
0.0
  0
LINE
  5
164
330
59C
100
AcDbEntity
  8
_0
  6
Continuous
 62
     7
370
    30
100
AcDbLine
 10
57.867719
 20
6.243969
 30
0.0
 11
57.857167
 21
6.232677
 31
0.0
  0
LINE
  5
165
330
59C
100
AcDbEntity
  8
_0
  6
Continuous
 62
     7
370
    30
100
AcDbLine
 10
57.870344
 20
6.243115
 30
0.0
 11
57.860708
 21
6.232792
 31
0.0
  0
LINE
  5
166
330
59C
100
AcDbEntity
  8
_0
  6
Continuous
 62
     7
370
    30
100
AcDbLine
 10
57.872979
 20
6.242271
 30
0.0
 11
57.86424
 21
6.232917
 31
0.0
  0
LINE
  5
167
330
59C
100
AcDbEntity
  8
_0
  6
Continuous
 62
     7
370
    30
100
AcDbLine
 10
57.875604
 20
6.241427
 30
0.0
 11
57.867771
 21
6.233042
 31
0.0
  0
LINE
  5
168
330
59C
100
AcDbEntity
  8
_0
  6
Continuous
 62
     7
370
    30
100
AcDbLine
 10
57.878219
 20
6.240573
 30
0.0
 11
57.871302
 21
6.233156
 31
0.0
  0
LINE
  5
169
330
59C
100
AcDbEntity
  8
_0
  6
Continuous
 62
     7
370
    30
100
AcDbLine
 10
57.880854
 20
6.239729
 30
0.0
 11
57.874833
 21
6.233281
 31
0.0
  0
LINE
  5
16A
330
59C
100
AcDbEntity
  8
_0
  6
Continuous
 62
     7
370
    30
100
AcDbLine
 10
57.883479
 20
6.238865
 30
0.0
 11
57.878375
 21
6.233396
 31
0.0
  0
LINE
  5
16B
330
59C
100
AcDbEntity
  8
_0
  6
Continuous
 62
     7
370
    30
100
AcDbLine
 10
57.886104
 20
6.238021
 30
0.0
 11
57.881906
 21
6.233521
 31
0.0
  0
LINE
  5
16C
330
59C
100
AcDbEntity
  8
_0
  6
Continuous
 62
     7
370
    30
100
AcDbLine
 10
57.888729
 20
6.237167
 30
0.0
 11
57.885437
 21
6.233635
 31
0.0
  0
LINE
  5
16D
330
59C
100
AcDbEntity
  8
_0
  6
Continuous
 62
     7
370
    30
100
AcDbLine
 10
57.891365
 20
6.236323
 30
0.0
 11
57.888969
 21
6.23376
 31
0.0
  0
LINE
  5
16E
330
59C
100
AcDbEntity
  8
_0
  6
Continuous
 62
     7
370
    30
100
AcDbLine
 10
57.89399
 20
6.235469
 30
0.0
 11
57.8925
 21
6.233875
 31
0.0
  0
LINE
  5
16F
330
59C
100
AcDbEntity
  8
_0
  6
Continuous
 62
     7
370
    30
100
AcDbLine
 10
57.896615
 20
6.234625
 30
0.0
 11
57.896042
 21
6.234
 31
0.0
  0
LINE
  5
170
330
59C
100
AcDbEntity
  8
_0
  6
Continuous
 62
     7
370
    30
100
AcDbLine
 10
57.743604
 20
6.382125
 30
0.0
 11
57.728771
 21
6.36624
 31
0.0
  0
LINE
  5
171
330
59C
100
AcDbEntity
  8
_0
  6
Continuous
 62
     7
370
    30
100
AcDbLine
 10
57.644708
 20
6.27625
 30
0.0
 11
57.595698
 21
6.223781
 31
0.0
  0
LINE
  5
172
330
59C
100
AcDbEntity
  8
_0
  6
Continuous
 62
     7
370
    30
100
AcDbLine
 10
57.710635
 20
6.346833
 30
0.0
 11
57.682385
 21
6.316583
 31
0.0
  0
LINE
  5
173
330
59C
100
AcDbEntity
  8
_0
  6
Continuous
 62
     7
370
    30
100
AcDbLine
 10
57.74349
 20
6.385656
 30
0.0
 11
57.72524
 21
6.366125
 31
0.0
  0
LINE
  5
174
330
59C
100
AcDbEntity
  8
_0
  6
Continuous
 62
     7
370
    30
100
AcDbLine
 10
57.641167
 20
6.276135
 30
0.0
 11
57.592167
 21
6.223667
 31
0.0
  0
LINE
  5
175
330
59C
100
AcDbEntity
  8
_0
  6
Continuous
 62
     7
370
    30
100
AcDbLine
 10
57.710521
 20
6.350365
 30
0.0
 11
57.68226
 21
6.320115
 31
0.0
  0
LINE
  5
176
330
59C
100
AcDbEntity
  8
_0
  6
Continuous
 62
     7
370
    30
100
AcDbLine
 10
57.743365
 20
6.389177
 30
0.0
 11
57.721708
 21
6.366
 31
0.0
  0
LINE
  5
177
330
59C
100
AcDbEntity
  8
_0
  6
Continuous
 62
     7
370
    30
100
AcDbLine
 10
57.636052
 20
6.274323
 30
0.0
 11
57.588625
 21
6.223542
 31
0.0
  0
LINE
  5
178
330
59C
100
AcDbEntity
  8
_0
  6
Continuous
 62
     7
370
    30
100
AcDbLine
 10
57.710396
 20
6.353896
 30
0.0
 11
57.682146
 21
6.323656
 31
0.0
  0
LINE
  5
179
330
59C
100
AcDbEntity
  8
_0
  6
Continuous
 62
     7
370
    30
100
AcDbLine
 10
57.74325
 20
6.392719
 30
0.0
 11
57.718177
 21
6.365885
 31
0.0
  0
LINE
  5
17A
330
59C
100
AcDbEntity
  8
_0
  6
Continuous
 62
     7
370
    30
100
AcDbLine
 10
57.630594
 20
6.272135
 30
0.0
 11
57.585094
 21
6.223427
 31
0.0
  0
LINE
  5
17B
330
59C
100
AcDbEntity
  8
_0
  6
Continuous
 62
     7
370
    30
100
AcDbLine
 10
57.710281
 20
6.357437
 30
0.0
 11
57.682021
 21
6.327187
 31
0.0
  0
LINE
  5
17C
330
59C
100
AcDbEntity
  8
_0
  6
Continuous
 62
     7
370
    30
100
AcDbLine
 10
57.743125
 20
6.39625
 30
0.0
 11
57.714635
 21
6.36576
 31
0.0
  0
LINE
  5
17D
330
59C
100
AcDbEntity
  8
_0
  6
Continuous
 62
     7
370
    30
100
AcDbLine
 10
57.625135
 20
6.269948
 30
0.0
 11
57.581552
 21
6.223302
 31
0.0
  0
LINE
  5
17E
330
59C
100
AcDbEntity
  8
_0
  6
Continuous
 62
     7
370
    30
100
AcDbLine
 10
57.710156
 20
6.360958
 30
0.0
 11
57.681896
 21
6.330729
 31
0.0
  0
LINE
  5
17F
330
59C
100
AcDbEntity
  8
_0
  6
Continuous
 62
     7
370
    30
100
AcDbLine
 10
57.743
 20
6.399792
 30
0.0
 11
57.711104
 21
6.365646
 31
0.0
  0
LINE
  5
180
330
59C
100
AcDbEntity
  8
_0
  6
Continuous
 62
     7
370
    30
100
AcDbLine
 10
57.619656
 20
6.26776
 30
0.0
 11
57.578031
 21
6.223187
 31
0.0
  0
LINE
  5
181
330
59C
100
AcDbEntity
  8
_0
  6
Continuous
 62
     7
370
    30
100
AcDbLine
 10
57.710042
 20
6.3645
 30
0.0
 11
57.681781
 21
6.33425
 31
0.0
  0
LINE
  5
182
330
59C
100
AcDbEntity
  8
_0
  6
Continuous
 62
     7
370
    30
100
AcDbLine
 10
57.742885
 20
6.403323
 30
0.0
 11
57.681656
 21
6.337781
 31
0.0
  0
LINE
  5
183
330
59C
100
AcDbEntity
  8
_0
  6
Continuous
 62
     7
370
    30
100
AcDbLine
 10
57.614198
 20
6.265573
 30
0.0
 11
57.57449
 21
6.223063
 31
0.0
  0
LINE
  5
184
330
59C
100
AcDbEntity
  8
_0
  6
Continuous
 62
     7
370
    30
100
AcDbLine
 10
57.74276
 20
6.406844
 30
0.0
 11
57.681542
 21
6.341323
 31
0.0
  0
LINE
  5
185
330
59C
100
AcDbEntity
  8
_0
  6
Continuous
 62
     7
370
    30
100
AcDbLine
 10
57.608729
 20
6.263385
 30
0.0
 11
57.570958
 21
6.222948
 31
0.0
  0
LINE
  5
186
330
59C
100
AcDbEntity
  8
_0
  6
Continuous
 62
     7
370
    30
100
AcDbLine
 10
57.742646
 20
6.410385
 30
0.0
 11
57.681417
 21
6.344854
 31
0.0
  0
LINE
  5
187
330
59C
100
AcDbEntity
  8
_0
  6
Continuous
 62
     7
370
    30
100
AcDbLine
 10
57.603271
 20
6.261198
 30
0.0
 11
57.567427
 21
6.222823
 31
0.0
  0
LINE
  5
188
330
59C
100
AcDbEntity
  8
_0
  6
Continuous
 62
     7
370
    30
100
AcDbLine
 10
57.742521
 20
6.413917
 30
0.0
 11
57.681302
 21
6.348396
 31
0.0
  0
LINE
  5
189
330
59C
100
AcDbEntity
  8
_0
  6
Continuous
 62
     7
370
    30
100
AcDbLine
 10
57.597812
 20
6.25901
 30
0.0
 11
57.563885
 21
6.222708
 31
0.0
  0
LINE
  5
18A
330
59C
100
AcDbEntity
  8
_0
  6
Continuous
 62
     7
370
    30
100
AcDbLine
 10
57.742406
 20
6.417458
 30
0.0
 11
57.681177
 21
6.351917
 31
0.0
  0
LINE
  5
18B
330
59C
100
AcDbEntity
  8
_0
  6
Continuous
 62
     7
370
    30
100
AcDbLine
 10
57.592344
 20
6.256823
 30
0.0
 11
57.560365
 21
6.222583
 31
0.0
  0
LINE
  5
18C
330
59C
100
AcDbEntity
  8
_0
  6
Continuous
 62
     7
370
    30
100
AcDbLine
 10
57.742281
 20
6.42099
 30
0.0
 11
57.681062
 21
6.355448
 31
0.0
  0
LINE
  5
18D
330
59C
100
AcDbEntity
  8
_0
  6
Continuous
 62
     7
370
    30
100
AcDbLine
 10
57.586875
 20
6.254635
 30
0.0
 11
57.556823
 21
6.222458
 31
0.0
  0
LINE
  5
18E
330
59C
100
AcDbEntity
  8
_0
  6
Continuous
 62
     7
370
    30
100
AcDbLine
 10
57.742167
 20
6.42451
 30
0.0
 11
57.680937
 21
6.35899
 31
0.0
  0
LINE
  5
18F
330
59C
100
AcDbEntity
  8
_0
  6
Continuous
 62
     7
370
    30
100
AcDbLine
 10
57.581406
 20
6.252448
 30
0.0
 11
57.553292
 21
6.222344
 31
0.0
  0
LINE
  5
190
330
59C
100
AcDbEntity
  8
_0
  6
Continuous
 62
     7
370
    30
100
AcDbLine
 10
57.742042
 20
6.428052
 30
0.0
 11
57.680823
 21
6.362521
 31
0.0
  0
LINE
  5
191
330
59C
100
AcDbEntity
  8
_0
  6
Continuous
 62
     7
370
    30
100
AcDbLine
 10
57.575948
 20
6.25026
 30
0.0
 11
57.54976
 21
6.222219
 31
0.0
  0
LINE
  5
192
330
59C
100
AcDbEntity
  8
_0
  6
Continuous
 62
     7
370
    30
100
AcDbLine
 10
57.741177
 20
6.430792
 30
0.0
 11
57.679302
 21
6.364562
 31
0.0
  0
LINE
  5
193
330
59C
100
AcDbEntity
  8
_0
  6
Continuous
 62
     7
370
    30
100
AcDbLine
 10
57.57049
 20
6.248073
 30
0.0
 11
57.546219
 21
6.222104
 31
0.0
  0
LINE
  5
194
330
59C
100
AcDbEntity
  8
_0
  6
Continuous
 62
     7
370
    30
100
AcDbLine
 10
57.737635
 20
6.430667
 30
0.0
 11
57.675771
 21
6.364438
 31
0.0
  0
LINE
  5
195
330
59C
100
AcDbEntity
  8
_0
  6
Continuous
 62
     7
370
    30
100
AcDbLine
 10
57.565021
 20
6.245896
 30
0.0
 11
57.542687
 21
6.221979
 31
0.0
  0
LINE
  5
196
330
59C
100
AcDbEntity
  8
_0
  6
Continuous
 62
     7
370
    30
100
AcDbLine
 10
57.734115
 20
6.430542
 30
0.0
 11
57.672229
 21
6.364323
 31
0.0
  0
LINE
  5
197
330
59C
100
AcDbEntity
  8
_0
  6
Continuous
 62
     7
370
    30
100
AcDbLine
 10
57.559562
 20
6.243708
 30
0.0
 11
57.539156
 21
6.221865
 31
0.0
  0
LINE
  5
198
330
59C
100
AcDbEntity
  8
_0
  6
Continuous
 62
     7
370
    30
100
AcDbLine
 10
57.730583
 20
6.430427
 30
0.0
 11
57.668698
 21
6.364198
 31
0.0
  0
LINE
  5
199
330
59C
100
AcDbEntity
  8
_0
  6
Continuous
 62
     7
370
    30
100
AcDbLine
 10
57.554083
 20
6.241521
 30
0.0
 11
57.535625
 21
6.22174
 31
0.0
  0
LINE
  5
19A
330
59C
100
AcDbEntity
  8
_0
  6
Continuous
 62
     7
370
    30
100
AcDbLine
 10
57.727042
 20
6.430302
 30
0.0
 11
57.665177
 21
6.364083
 31
0.0
  0
LINE
  5
19B
330
59C
100
AcDbEntity
  8
_0
  6
Continuous
 62
     7
370
    30
100
AcDbLine
 10
57.548625
 20
6.239333
 30
0.0
 11
57.532094
 21
6.221625
 31
0.0
  0
LINE
  5
19C
330
59C
100
AcDbEntity
  8
_0
  6
Continuous
 62
     7
370
    30
100
AcDbLine
 10
57.72351
 20
6.430187
 30
0.0
 11
57.661635
 21
6.363958
 31
0.0
  0
LINE
  5
19D
330
59C
100
AcDbEntity
  8
_0
  6
Continuous
 62
     7
370
    30
100
AcDbLine
 10
57.543156
 20
6.237146
 30
0.0
 11
57.528552
 21
6.2215
 31
0.0
  0
LINE
  5
19E
330
59C
100
AcDbEntity
  8
_0
  6
Continuous
 62
     7
370
    30
100
AcDbLine
 10
57.719969
 20
6.430063
 30
0.0
 11
57.658104
 21
6.363844
 31
0.0
  0
LINE
  5
19F
330
59C
100
AcDbEntity
  8
_0
  6
Continuous
 62
     7
370
    30
100
AcDbLine
 10
57.537698
 20
6.234958
 30
0.0
 11
57.525021
 21
6.221385
 31
0.0
  0
LINE
  5
1A0
330
59C
100
AcDbEntity
  8
_0
  6
Continuous
 62
     7
370
    30
100
AcDbLine
 10
57.716448
 20
6.429948
 30
0.0
 11
57.654562
 21
6.363719
 31
0.0
  0
LINE
  5
1A1
330
59C
100
AcDbEntity
  8
_0
  6
Continuous
 62
     7
370
    30
100
AcDbLine
 10
57.53224
 20
6.232771
 30
0.0
 11
57.52149
 21
6.22126
 31
0.0
  0
LINE
  5
1A2
330
59C
100
AcDbEntity
  8
_0
  6
Continuous
 62
     7
370
    30
100
AcDbLine
 10
57.712917
 20
6.429823
 30
0.0
 11
57.651031
 21
6.363604
 31
0.0
  0
LINE
  5
1A3
330
59C
100
AcDbEntity
  8
_0
  6
Continuous
 62
     7
370
    30
100
AcDbLine
 10
57.526771
 20
6.230583
 30
0.0
 11
57.517958
 21
6.221146
 31
0.0
  0
LINE
  5
1A4
330
59C
100
AcDbEntity
  8
_0
  6
Continuous
 62
     7
370
    30
100
AcDbLine
 10
57.709375
 20
6.429708
 30
0.0
 11
57.64751
 21
6.363479
 31
0.0
  0
LINE
  5
1A5
330
59C
100
AcDbEntity
  8
_0
  6
Continuous
 62
     7
370
    30
100
AcDbLine
 10
57.521302
 20
6.228396
 30
0.0
 11
57.514417
 21
6.221021
 31
0.0
  0
LINE
  5
1A6
330
59C
100
AcDbEntity
  8
_0
  6
Continuous
 62
     7
370
    30
100
AcDbLine
 10
57.705844
 20
6.429583
 30
0.0
 11
57.646531
 21
6.366104
 31
0.0
  0
LINE
  5
1A7
330
59C
100
AcDbEntity
  8
_0
  6
Continuous
 62
     7
370
    30
100
AcDbLine
 10
57.515833
 20
6.226208
 30
0.0
 11
57.510885
 21
6.220906
 31
0.0
  0
LINE
  5
1A8
330
59C
100
AcDbEntity
  8
_0
  6
Continuous
 62
     7
370
    30
100
AcDbLine
 10
57.702302
 20
6.429469
 30
0.0
 11
57.646417
 21
6.369635
 31
0.0
  0
LINE
  5
1A9
330
59C
100
AcDbEntity
  8
_0
  6
Continuous
 62
     7
370
    30
100
AcDbLine
 10
57.510375
 20
6.224021
 30
0.0
 11
57.507354
 21
6.220781
 31
0.0
  0
LINE
  5
1AA
330
59C
100
AcDbEntity
  8
_0
  6
Continuous
 62
     7
370
    30
100
AcDbLine
 10
57.698781
 20
6.429344
 30
0.0
 11
57.646292
 21
6.373177
 31
0.0
  0
LINE
  5
1AB
330
59C
100
AcDbEntity
  8
_0
  6
Continuous
 62
     7
370
    30
100
AcDbLine
 10
57.504917
 20
6.221833
 30
0.0
 11
57.503823
 21
6.220656
 31
0.0
  0
LINE
  5
1AC
330
59C
100
AcDbEntity
  8
_0
  6
Continuous
 62
     7
370
    30
100
AcDbLine
 10
57.69524
 20
6.429229
 30
0.0
 11
57.646167
 21
6.376708
 31
0.0
  0
LINE
  5
1AD
330
59C
100
AcDbEntity
  8
_0
  6
Continuous
 62
     7
370
    30
100
AcDbLine
 10
57.691708
 20
6.429104
 30
0.0
 11
57.646052
 21
6.38024
 31
0.0
  0
LINE
  5
1AE
330
59C
100
AcDbEntity
  8
_0
  6
Continuous
 62
     7
370
    30
100
AcDbLine
 10
57.688177
 20
6.428979
 30
0.0
 11
57.645927
 21
6.383771
 31
0.0
  0
LINE
  5
1AF
330
59C
100
AcDbEntity
  8
_0
  6
Continuous
 62
     7
370
    30
100
AcDbLine
 10
57.684635
 20
6.428865
 30
0.0
 11
57.645812
 21
6.387302
 31
0.0
  0
LINE
  5
1B0
330
59C
100
AcDbEntity
  8
_0
  6
Continuous
 62
     7
370
    30
100
AcDbLine
 10
57.681115
 20
6.42874
 30
0.0
 11
57.645688
 21
6.390844
 31
0.0
  0
LINE
  5
1B1
330
59C
100
AcDbEntity
  8
_0
  6
Continuous
 62
     7
370
    30
100
AcDbLine
 10
57.677573
 20
6.428625
 30
0.0
 11
57.645573
 21
6.394375
 31
0.0
  0
LINE
  5
1B2
330
59C
100
AcDbEntity
  8
_0
  6
Continuous
 62
     7
370
    30
100
AcDbLine
 10
57.674042
 20
6.4285
 30
0.0
 11
57.645448
 21
6.397906
 31
0.0
  0
LINE
  5
1B3
330
59C
100
AcDbEntity
  8
_0
  6
Continuous
 62
     7
370
    30
100
AcDbLine
 10
57.67051
 20
6.428385
 30
0.0
 11
57.645333
 21
6.401438
 31
0.0
  0
LINE
  5
1B4
330
59C
100
AcDbEntity
  8
_0
  6
Continuous
 62
     7
370
    30
100
AcDbLine
 10
57.666969
 20
6.42826
 30
0.0
 11
57.645208
 21
6.404969
 31
0.0
  0
LINE
  5
1B5
330
59C
100
AcDbEntity
  8
_0
  6
Continuous
 62
     7
370
    30
100
AcDbLine
 10
57.663448
 20
6.428146
 30
0.0
 11
57.645094
 21
6.40851
 31
0.0
  0
LINE
  5
1B6
330
59C
100
AcDbEntity
  8
_0
  6
Continuous
 62
     7
370
    30
100
AcDbLine
 10
57.659906
 20
6.428021
 30
0.0
 11
57.644969
 21
6.412042
 31
0.0
  0
LINE
  5
1B7
330
59C
100
AcDbEntity
  8
_0
  6
Continuous
 62
     7
370
    30
100
AcDbLine
 10
57.656375
 20
6.427906
 30
0.0
 11
57.644854
 21
6.415573
 31
0.0
  0
LINE
  5
1B8
330
59C
100
AcDbEntity
  8
_0
  6
Continuous
 62
     7
370
    30
100
AcDbLine
 10
57.652844
 20
6.427781
 30
0.0
 11
57.644729
 21
6.419104
 31
0.0
  0
LINE
  5
1B9
330
59C
100
AcDbEntity
  8
_0
  6
Continuous
 62
     7
370
    30
100
AcDbLine
 10
57.649302
 20
6.427667
 30
0.0
 11
57.644615
 21
6.422635
 31
0.0
  0
LINE
  5
1BA
330
59C
100
AcDbEntity
  8
_0
  6
Continuous
 62
     7
370
    30
100
AcDbLine
 10
57.645781
 20
6.427542
 30
0.0
 11
57.64449
 21
6.426177
 31
0.0
  0
LINE
  5
1BB
330
59C
100
AcDbEntity
  8
HATCH
  6
Continuous
 62
     7
370
    30
100
AcDbLine
 10
60.313146
 20
5.410021
 30
0.0
 11
60.275385
 21
5.372271
 31
0.0
  0
LINE
  5
1BC
330
59C
100
AcDbEntity
  8
HATCH
  6
Continuous
 62
     7
370
    30
100
AcDbLine
 10
60.187
 20
5.283885
 30
0.0
 11
60.098615
 21
5.1955
 31
0.0
  0
LINE
  5
1BD
330
59C
100
AcDbEntity
  8
HATCH
  6
Continuous
 62
     7
370
    30
100
AcDbLine
 10
60.14999
 20
5.423656
 30
0.0
 11
60.098615
 21
5.372271
 31
0.0
  0
LINE
  5
1BE
330
59C
100
AcDbEntity
  8
HATCH
  6
Continuous
 62
     7
370
    30
100
AcDbLine
 10
60.010219
 20
5.283885
 30
0.0
 11
59.924135
 21
5.197792
 31
0.0
  0
LINE
  5
1BF
330
59C
100
AcDbEntity
  8
HATCH
  6
Continuous
 62
     7
370
    30
100
AcDbLine
 10
59.976823
 20
5.42726
 30
0.0
 11
59.921833
 21
5.372271
 31
0.0
  0
LINE
  5
1C0
330
59C
100
AcDbEntity
  8
HATCH
  6
Continuous
 62
     7
370
    30
100
AcDbLine
 10
59.833448
 20
5.283885
 30
0.0
 11
59.821708
 21
5.272146
 31
0.0
  0
LINE
  5
1C1
330
59C
100
AcDbEntity
  8
HATCH
  6
Continuous
 62
     7
370
    30
100
AcDbLine
 10
59.803656
 20
5.430865
 30
0.0
 11
59.745062
 21
5.372271
 31
0.0
  0
LINE
  5
1C2
330
59C
100
AcDbEntity
  8
HATCH
  6
Continuous
 62
     7
370
    30
100
AcDbLine
 10
59.63049
 20
5.434479
 30
0.0
 11
59.616865
 21
5.420854
 31
0.0
  0
LINE
  5
1C3
330
59C
100
AcDbEntity
  8
HATCH
  6
Continuous
 62
     7
370
    30
100
AcDbLine
 10
60.363781
 20
5.283885
 30
0.0
 11
60.275385
 21
5.1955
 31
0.0
  0
LINE
  5
1C4
330
59C
100
AcDbEntity
  8
HATCH
  6
Continuous
 62
     7
370
    30
100
AcDbLine
 10
60.540552
 20
5.283885
 30
0.0
 11
60.452167
 21
5.1955
 31
0.0
  0
LINE
  5
1C5
330
59C
100
AcDbEntity
  8
HATCH
  6
Continuous
 62
     7
370
    30
100
AcDbLine
 10
60.666854
 20
5.233406
 30
0.0
 11
60.628937
 21
5.1955
 31
0.0
  0
LINE
  5
1C6
330
59C
100
AcDbEntity
  8
HATCH
  6
Continuous
 62
     7
370
    30
100
AcDbLine
 10
60.258219
 20
5.421396
 30
0.0
 11
60.24224
 21
5.405417
 31
0.0
  0
LINE
  5
1C7
330
59C
100
AcDbEntity
  8
HATCH
  6
Continuous
 62
     7
370
    30
100
AcDbLine
 10
60.153854
 20
5.317031
 30
0.0
 11
60.065469
 21
5.228646
 31
0.0
  0
LINE
  5
1C8
330
59C
100
AcDbEntity
  8
HATCH
  6
Continuous
 62
     7
370
    30
100
AcDbLine
 10
60.085052
 20
5.42501
 30
0.0
 11
60.065469
 21
5.405417
 31
0.0
  0
LINE
  5
1C9
330
59C
100
AcDbEntity
  8
HATCH
  6
Continuous
 62
     7
370
    30
100
AcDbLine
 10
59.977083
 20
5.317031
 30
0.0
 11
59.888687
 21
5.228646
 31
0.0
  0
LINE
  5
1CA
330
59C
100
AcDbEntity
  8
HATCH
  6
Continuous
 62
     7
370
    30
100
AcDbLine
 10
59.911885
 20
5.428615
 30
0.0
 11
59.888687
 21
5.405417
 31
0.0
  0
LINE
  5
1CB
330
59C
100
AcDbEntity
  8
HATCH
  6
Continuous
 62
     7
370
    30
100
AcDbLine
 10
59.800302
 20
5.317031
 30
0.0
 11
59.783302
 21
5.300031
 31
0.0
  0
LINE
  5
1CC
330
59C
100
AcDbEntity
  8
HATCH
  6
Continuous
 62
     7
370
    30
100
AcDbLine
 10
59.738719
 20
5.432219
 30
0.0
 11
59.711917
 21
5.405417
 31
0.0
  0
LINE
  5
1CD
330
59C
100
AcDbEntity
  8
HATCH
  6
Continuous
 62
     7
370
    30
100
AcDbLine
 10
60.330635
 20
5.317031
 30
0.0
 11
60.24224
 21
5.228646
 31
0.0
  0
LINE
  5
1CE
330
59C
100
AcDbEntity
  8
HATCH
  6
Continuous
 62
     7
370
    30
100
AcDbLine
 10
60.504729
 20
5.314354
 30
0.0
 11
60.419021
 21
5.228646
 31
0.0
  0
LINE
  5
1CF
330
59C
100
AcDbEntity
  8
HATCH
  6
Continuous
 62
     7
370
    30
100
AcDbLine
 10
60.622635
 20
5.255479
 30
0.0
 11
60.595792
 21
5.228646
 31
0.0
  0
LINE
  5
1D0
330
59C
100
AcDbEntity
  8
HATCH
  6
Continuous
 62
     7
370
    30
100
AcDbLine
 10
60.120708
 20
5.350177
 30
0.0
 11
60.032323
 21
5.261792
 31
0.0
  0
LINE
  5
1D1
330
59C
100
AcDbEntity
  8
HATCH
  6
Continuous
 62
     7
370
    30
100
AcDbLine
 10
59.943937
 20
5.350177
 30
0.0
 11
59.855542
 21
5.261792
 31
0.0
  0
LINE
  5
1D2
330
59C
100
AcDbEntity
  8
HATCH
  6
Continuous
 62
     7
370
    30
100
AcDbLine
 10
59.767156
 20
5.350177
 30
0.0
 11
59.744896
 21
5.327917
 31
0.0
  0
LINE
  5
1D3
330
59C
100
AcDbEntity
  8
HATCH
  6
Continuous
 62
     7
370
    30
100
AcDbLine
 10
60.29749
 20
5.350177
 30
0.0
 11
60.209094
 21
5.261792
 31
0.0
  0
LINE
  5
1D4
330
59C
100
AcDbEntity
  8
HATCH
  6
Continuous
 62
     7
370
    30
100
AcDbLine
 10
60.120708
 20
5.173396
 30
0.0
 11
60.118771
 21
5.171458
 31
0.0
  0
LINE
  5
1D5
330
59C
100
AcDbEntity
  8
HATCH
  6
Continuous
 62
     7
370
    30
100
AcDbLine
 10
60.460521
 20
5.336437
 30
0.0
 11
60.385875
 21
5.261792
 31
0.0
  0
LINE
  5
1D6
330
59C
100
AcDbEntity
  8
HATCH
  6
Continuous
 62
     7
370
    30
100
AcDbLine
 10
60.29749
 20
5.173396
 30
0.0
 11
60.291937
 21
5.167854
 31
0.0
  0
LINE
  5
1D7
330
59C
100
AcDbEntity
  8
HATCH
  6
Continuous
 62
     7
370
    30
100
AcDbLine
 10
60.578427
 20
5.277563
 30
0.0
 11
60.562656
 21
5.261792
 31
0.0
  0
LINE
  5
1D8
330
59C
100
AcDbEntity
  8
HATCH
  6
Continuous
 62
     7
370
    30
100
AcDbLine
 10
60.47426
 20
5.173396
 30
0.0
 11
60.465104
 21
5.16424
 31
0.0
  0
LINE
  5
1D9
330
59C
100
AcDbEntity
  8
HATCH
  6
Continuous
 62
     7
370
    30
100
AcDbLine
 10
60.651042
 20
5.173396
 30
0.0
 11
60.638271
 21
5.160635
 31
0.0
  0
LINE
  5
1DA
330
59C
100
AcDbEntity
  8
HATCH
  6
Continuous
 62
     7
370
    30
100
AcDbLine
 10
60.814229
 20
5.159813
 30
0.0
 11
60.811448
 21
5.157031
 31
0.0
  0
LINE
  5
1DB
330
59C
100
AcDbEntity
  8
HATCH
  6
Continuous
 62
     7
370
    30
100
AcDbLine
 10
60.452167
 20
5.173396
 30
0.0
 11
60.363781
 21
5.261792
 31
0.0
  0
LINE
  5
1DC
330
59C
100
AcDbEntity
  8
HATCH
  6
Continuous
 62
     7
370
    30
100
AcDbLine
 10
60.275385
 20
5.350177
 30
0.0
 11
60.203021
 21
5.422552
 31
0.0
  0
LINE
  5
1DD
330
59C
100
AcDbEntity
  8
HATCH
  6
Continuous
 62
     7
370
    30
100
AcDbLine
 10
60.628937
 20
5.173396
 30
0.0
 11
60.540552
 21
5.261792
 31
0.0
  0
LINE
  5
1DE
330
59C
100
AcDbEntity
  8
HATCH
  6
Continuous
 62
     7
370
    30
100
AcDbLine
 10
60.275385
 20
5.173396
 30
0.0
 11
60.187
 21
5.261792
 31
0.0
  0
LINE
  5
1DF
330
59C
100
AcDbEntity
  8
HATCH
  6
Continuous
 62
     7
370
    30
100
AcDbLine
 10
60.098615
 20
5.350177
 30
0.0
 11
60.022479
 21
5.426312
 31
0.0
  0
LINE
  5
1E0
330
59C
100
AcDbEntity
  8
HATCH
  6
Continuous
 62
     7
370
    30
100
AcDbLine
 10
60.098615
 20
5.173396
 30
0.0
 11
60.010219
 21
5.261792
 31
0.0
  0
LINE
  5
1E1
330
59C
100
AcDbEntity
  8
HATCH
  6
Continuous
 62
     7
370
    30
100
AcDbLine
 10
59.921833
 20
5.350177
 30
0.0
 11
59.841938
 21
5.430073
 31
0.0
  0
LINE
  5
1E2
330
59C
100
AcDbEntity
  8
HATCH
  6
Continuous
 62
     7
370
    30
100
AcDbLine
 10
59.745062
 20
5.350177
 30
0.0
 11
59.661406
 21
5.433833
 31
0.0
  0
LINE
  5
1E3
330
59C
100
AcDbEntity
  8
HATCH
  6
Continuous
 62
     7
370
    30
100
AcDbLine
 10
60.393542
 20
5.165729
 30
0.0
 11
60.330635
 21
5.228646
 31
0.0
  0
LINE
  5
1E4
330
59C
100
AcDbEntity
  8
HATCH
  6
Continuous
 62
     7
370
    30
100
AcDbLine
 10
60.24224
 20
5.317031
 30
0.0
 11
60.153854
 21
5.405417
 31
0.0
  0
LINE
  5
1E5
330
59C
100
AcDbEntity
  8
HATCH
  6
Continuous
 62
     7
370
    30
100
AcDbLine
 10
60.574083
 20
5.161969
 30
0.0
 11
60.507406
 21
5.228646
 31
0.0
  0
LINE
  5
1E6
330
59C
100
AcDbEntity
  8
HATCH
  6
Continuous
 62
     7
370
    30
100
AcDbLine
 10
60.419021
 20
5.317031
 30
0.0
 11
60.338875
 21
5.397177
 31
0.0
  0
LINE
  5
1E7
330
59C
100
AcDbEntity
  8
HATCH
  6
Continuous
 62
     7
370
    30
100
AcDbLine
 10
60.754615
 20
5.158208
 30
0.0
 11
60.691958
 21
5.220865
 31
0.0
  0
LINE
  5
1E8
330
59C
100
AcDbEntity
  8
HATCH
  6
Continuous
 62
     7
370
    30
100
AcDbLine
 10
60.213
 20
5.1695
 30
0.0
 11
60.153854
 21
5.228646
 31
0.0
  0
LINE
  5
1E9
330
59C
100
AcDbEntity
  8
HATCH
  6
Continuous
 62
     7
370
    30
100
AcDbLine
 10
60.065469
 20
5.317031
 30
0.0
 11
59.977083
 21
5.405417
 31
0.0
  0
LINE
  5
1EA
330
59C
100
AcDbEntity
  8
HATCH
  6
Continuous
 62
     7
370
    30
100
AcDbLine
 10
60.032469
 20
5.17326
 30
0.0
 11
59.977083
 21
5.228646
 31
0.0
  0
LINE
  5
1EB
330
59C
100
AcDbEntity
  8
HATCH
  6
Continuous
 62
     7
370
    30
100
AcDbLine
 10
59.888687
 20
5.317031
 30
0.0
 11
59.800302
 21
5.405417
 31
0.0
  0
LINE
  5
1EC
330
59C
100
AcDbEntity
  8
HATCH
  6
Continuous
 62
     7
370
    30
100
AcDbLine
 10
60.506375
 20
5.163385
 30
0.0
 11
60.47426
 21
5.1955
 31
0.0
  0
LINE
  5
1ED
330
59C
100
AcDbEntity
  8
HATCH
  6
Continuous
 62
     7
370
    30
100
AcDbLine
 10
60.385875
 20
5.283885
 30
0.0
 11
60.29749
 21
5.372271
 31
0.0
  0
LINE
  5
1EE
330
59C
100
AcDbEntity
  8
HATCH
  6
Continuous
 62
     7
370
    30
100
AcDbLine
 10
60.686917
 20
5.159625
 30
0.0
 11
60.651042
 21
5.1955
 31
0.0
  0
LINE
  5
1EF
330
59C
100
AcDbEntity
  8
HATCH
  6
Continuous
 62
     7
370
    30
100
AcDbLine
 10
60.562656
 20
5.283885
 30
0.0
 11
60.559552
 21
5.286979
 31
0.0
  0
LINE
  5
1F0
330
59C
100
AcDbEntity
  8
HATCH
  6
Continuous
 62
     7
370
    30
100
AcDbLine
 10
60.325844
 20
5.167146
 30
0.0
 11
60.29749
 21
5.1955
 31
0.0
  0
LINE
  5
1F1
330
59C
100
AcDbEntity
  8
HATCH
  6
Continuous
 62
     7
370
    30
100
AcDbLine
 10
60.209094
 20
5.283885
 30
0.0
 11
60.120708
 21
5.372271
 31
0.0
  0
LINE
  5
1F2
330
59C
100
AcDbEntity
  8
HATCH
  6
Continuous
 62
     7
370
    30
100
AcDbLine
 10
60.145302
 20
5.170906
 30
0.0
 11
60.120708
 21
5.1955
 31
0.0
  0
LINE
  5
1F3
330
59C
100
AcDbEntity
  8
HATCH
  6
Continuous
 62
     7
370
    30
100
AcDbLine
 10
60.032323
 20
5.283885
 30
0.0
 11
59.943937
 21
5.372271
 31
0.0
  0
LINE
  5
1F4
330
59C
100
AcDbEntity
  8
HATCH
  6
Continuous
 62
     7
370
    30
100
AcDbLine
 10
59.96476
 20
5.174667
 30
0.0
 11
59.943937
 21
5.1955
 31
0.0
  0
LINE
  5
1F5
330
59C
100
AcDbEntity
  8
HATCH
  6
Continuous
 62
     7
370
    30
100
AcDbLine
 10
59.855542
 20
5.283885
 30
0.0
 11
59.767156
 21
5.372271
 31
0.0
  0
LINE
  5
1F6
330
59C
100
AcDbEntity
  8
HATCH
  6
Continuous
 62
     7
370
    30
100
AcDbLine
 10
59.703208
 20
5.684656
 30
0.0
 11
59.703208
 21
5.656062
 31
0.0
  0
LINE
  5
1F7
330
59C
100
AcDbEntity
  8
HATCH
  6
Continuous
 62
     7
370
    30
100
AcDbLine
 10
59.703208
 20
5.581062
 30
0.0
 11
59.703208
 21
5.543563
 31
0.0
  0
LINE
  5
1F8
330
59C
100
AcDbEntity
  8
HATCH
  6
Continuous
 62
     7
370
    30
100
AcDbLine
 10
59.703208
 20
5.468562
 30
0.0
 11
59.703208
 21
5.431812
 31
0.0
  0
LINE
  5
1F9
330
59C
100
AcDbEntity
  8
HATCH
  6
Continuous
 62
     7
370
    30
100
AcDbLine
 10
59.67074
 20
5.637313
 30
0.0
 11
59.67074
 21
5.599812
 31
0.0
  0
LINE
  5
1FA
330
59C
100
AcDbEntity
  8
HATCH
  6
Continuous
 62
     7
370
    30
100
AcDbLine
 10
59.67074
 20
5.524812
 30
0.0
 11
59.67074
 21
5.487312
 31
0.0
  0
LINE
  5
1FB
330
59C
100
AcDbEntity
  8
HATCH
  6
Continuous
 62
     7
370
    30
100
AcDbLine
 10
59.63826
 20
5.68601
 30
0.0
 11
59.63826
 21
5.656062
 31
0.0
  0
LINE
  5
1FC
330
59C
100
AcDbEntity
  8
HATCH
  6
Continuous
 62
     7
370
    30
100
AcDbLine
 10
59.63826
 20
5.581062
 30
0.0
 11
59.63826
 21
5.543563
 31
0.0
  0
LINE
  5
1FD
330
59C
100
AcDbEntity
  8
HATCH
  6
Continuous
 62
     7
370
    30
100
AcDbLine
 10
59.63826
 20
5.468562
 30
0.0
 11
59.63826
 21
5.433167
 31
0.0
  0
LINE
  5
1FE
330
59C
100
AcDbEntity
  8
HATCH
  6
Continuous
 62
     7
370
    30
100
AcDbLine
 10
59.605781
 20
5.637313
 30
0.0
 11
59.605781
 21
5.599812
 31
0.0
  0
LINE
  5
1FF
330
59C
100
AcDbEntity
  8
HATCH
  6
Continuous
 62
     7
370
    30
100
AcDbLine
 10
59.605781
 20
5.524812
 30
0.0
 11
59.605781
 21
5.487312
 31
0.0
  0
LINE
  5
200
330
59C
100
AcDbEntity
  8
HATCH
  6
Continuous
 62
     7
370
    30
100
AcDbLine
 10
59.573313
 20
5.687365
 30
0.0
 11
59.573313
 21
5.656062
 31
0.0
  0
LINE
  5
201
330
59C
100
AcDbEntity
  8
HATCH
  6
Continuous
 62
     7
370
    30
100
AcDbLine
 10
59.573313
 20
5.581062
 30
0.0
 11
59.573313
 21
5.543563
 31
0.0
  0
LINE
  5
202
330
59C
100
AcDbEntity
  8
HATCH
  6
Continuous
 62
     7
370
    30
100
AcDbLine
 10
59.573313
 20
5.468562
 30
0.0
 11
59.573313
 21
5.434521
 31
0.0
  0
LINE
  5
203
330
59C
100
AcDbEntity
  8
HATCH
  6
Continuous
 62
     7
370
    30
100
AcDbLine
 10
59.540833
 20
5.637313
 30
0.0
 11
59.540833
 21
5.599812
 31
0.0
  0
LINE
  5
204
330
59C
100
AcDbEntity
  8
HATCH
  6
Continuous
 62
     7
370
    30
100
AcDbLine
 10
59.540833
 20
5.524812
 30
0.0
 11
59.540833
 21
5.487312
 31
0.0
  0
LINE
  5
205
330
59C
100
AcDbEntity
  8
HATCH
  6
Continuous
 62
     7
370
    30
100
AcDbLine
 10
59.508354
 20
5.688719
 30
0.0
 11
59.508354
 21
5.656062
 31
0.0
  0
LINE
  5
206
330
59C
100
AcDbEntity
  8
HATCH
  6
Continuous
 62
     7
370
    30
100
AcDbLine
 10
59.508354
 20
5.581062
 30
0.0
 11
59.508354
 21
5.543563
 31
0.0
  0
LINE
  5
207
330
59C
100
AcDbEntity
  8
HATCH
  6
Continuous
 62
     7
370
    30
100
AcDbLine
 10
59.508354
 20
5.468562
 30
0.0
 11
59.508354
 21
5.435865
 31
0.0
  0
LINE
  5
208
330
59C
100
AcDbEntity
  8
HATCH
  6
Continuous
 62
     7
370
    30
100
AcDbLine
 10
59.475885
 20
5.637313
 30
0.0
 11
59.475885
 21
5.599812
 31
0.0
  0
LINE
  5
209
330
59C
100
AcDbEntity
  8
HATCH
  6
Continuous
 62
     7
370
    30
100
AcDbLine
 10
59.475885
 20
5.524812
 30
0.0
 11
59.475885
 21
5.487312
 31
0.0
  0
LINE
  5
20A
330
59C
100
AcDbEntity
  8
HATCH
  6
Continuous
 62
     7
370
    30
100
AcDbLine
 10
59.443406
 20
5.690073
 30
0.0
 11
59.443406
 21
5.656062
 31
0.0
  0
LINE
  5
20B
330
59C
100
AcDbEntity
  8
HATCH
  6
Continuous
 62
     7
370
    30
100
AcDbLine
 10
59.443406
 20
5.581062
 30
0.0
 11
59.443406
 21
5.543563
 31
0.0
  0
LINE
  5
20C
330
59C
100
AcDbEntity
  8
HATCH
  6
Continuous
 62
     7
370
    30
100
AcDbLine
 10
59.443406
 20
5.468562
 30
0.0
 11
59.443406
 21
5.437219
 31
0.0
  0
LINE
  5
20D
330
59C
100
AcDbEntity
  8
HATCH
  6
Continuous
 62
     7
370
    30
100
AcDbLine
 10
59.410927
 20
5.637313
 30
0.0
 11
59.410927
 21
5.599812
 31
0.0
  0
LINE
  5
20E
330
59C
100
AcDbEntity
  8
HATCH
  6
Continuous
 62
     7
370
    30
100
AcDbLine
 10
59.410927
 20
5.524812
 30
0.0
 11
59.410927
 21
5.487312
 31
0.0
  0
LINE
  5
20F
330
59C
100
AcDbEntity
  8
HATCH
  6
Continuous
 62
     7
370
    30
100
AcDbLine
 10
59.378448
 20
5.691427
 30
0.0
 11
59.378448
 21
5.656062
 31
0.0
  0
LINE
  5
210
330
59C
100
AcDbEntity
  8
HATCH
  6
Continuous
 62
     7
370
    30
100
AcDbLine
 10
59.378448
 20
5.581062
 30
0.0
 11
59.378448
 21
5.543563
 31
0.0
  0
LINE
  5
211
330
59C
100
AcDbEntity
  8
HATCH
  6
Continuous
 62
     7
370
    30
100
AcDbLine
 10
59.345979
 20
5.637313
 30
0.0
 11
59.345979
 21
5.599812
 31
0.0
  0
LINE
  5
212
330
59C
100
AcDbEntity
  8
HATCH
  6
Continuous
 62
     7
370
    30
100
AcDbLine
 10
59.345979
 20
5.524812
 30
0.0
 11
59.345979
 21
5.498302
 31
0.0
  0
LINE
  5
213
330
59C
100
AcDbEntity
  8
HATCH
  6
Continuous
 62
     7
370
    30
100
AcDbLine
 10
59.3135
 20
5.692771
 30
0.0
 11
59.3135
 21
5.656062
 31
0.0
  0
LINE
  5
214
330
59C
100
AcDbEntity
  8
HATCH
  6
Continuous
 62
     7
370
    30
100
AcDbLine
 10
59.3135
 20
5.581062
 30
0.0
 11
59.3135
 21
5.543563
 31
0.0
  0
LINE
  5
215
330
59C
100
AcDbEntity
  8
HATCH
  6
Continuous
 62
     7
370
    30
100
AcDbLine
 10
59.281021
 20
5.637313
 30
0.0
 11
59.281021
 21
5.599812
 31
0.0
  0
LINE
  5
216
330
59C
100
AcDbEntity
  8
HATCH
  6
Continuous
 62
     7
370
    30
100
AcDbLine
 10
59.248552
 20
5.693562
 30
0.0
 11
59.248552
 21
5.656062
 31
0.0
  0
LINE
  5
217
330
59C
100
AcDbEntity
  8
HATCH
  6
Continuous
 62
     7
370
    30
100
AcDbLine
 10
59.248552
 20
5.581062
 30
0.0
 11
59.248552
 21
5.569031
 31
0.0
  0
LINE
  5
218
330
59C
100
AcDbEntity
  8
HATCH
  6
Continuous
 62
     7
370
    30
100
AcDbLine
 10
59.216073
 20
5.637313
 30
0.0
 11
59.216073
 21
5.599812
 31
0.0
  0
LINE
  5
219
330
59C
100
AcDbEntity
  8
HATCH
  6
Continuous
 62
     7
370
    30
100
AcDbLine
 10
59.183594
 20
5.693562
 30
0.0
 11
59.183594
 21
5.656062
 31
0.0
  0
LINE
  5
21A
330
59C
100
AcDbEntity
  8
HATCH
  6
Continuous
 62
     7
370
    30
100
AcDbLine
 10
59.118646
 20
5.693562
 30
0.0
 11
59.118646
 21
5.663333
 31
0.0
  0
LINE
  5
21B
330
59C
100
AcDbEntity
  8
HATCH
  6
Continuous
 62
     7
370
    30
100
AcDbLine
 10
59.735687
 20
5.637313
 30
0.0
 11
59.735687
 21
5.599812
 31
0.0
  0
LINE
  5
21C
330
59C
100
AcDbEntity
  8
HATCH
  6
Continuous
 62
     7
370
    30
100
AcDbLine
 10
59.735687
 20
5.524812
 30
0.0
 11
59.735687
 21
5.487312
 31
0.0
  0
LINE
  5
21D
330
59C
100
AcDbEntity
  8
HATCH
  6
Continuous
 62
     7
370
    30
100
AcDbLine
 10
59.768167
 20
5.682156
 30
0.0
 11
59.768167
 21
5.656062
 31
0.0
  0
LINE
  5
21E
330
59C
100
AcDbEntity
  8
HATCH
  6
Continuous
 62
     7
370
    30
100
AcDbLine
 10
59.768167
 20
5.581062
 30
0.0
 11
59.768167
 21
5.543563
 31
0.0
  0
LINE
  5
21F
330
59C
100
AcDbEntity
  8
HATCH
  6
Continuous
 62
     7
370
    30
100
AcDbLine
 10
59.768167
 20
5.468562
 30
0.0
 11
59.768167
 21
5.431062
 31
0.0
  0
LINE
  5
220
330
59C
100
AcDbEntity
  8
HATCH
  6
Continuous
 62
     7
370
    30
100
AcDbLine
 10
59.800635
 20
5.637313
 30
0.0
 11
59.800635
 21
5.599812
 31
0.0
  0
LINE
  5
221
330
59C
100
AcDbEntity
  8
HATCH
  6
Continuous
 62
     7
370
    30
100
AcDbLine
 10
59.800635
 20
5.524812
 30
0.0
 11
59.800635
 21
5.487312
 31
0.0
  0
LINE
  5
222
330
59C
100
AcDbEntity
  8
HATCH
  6
Continuous
 62
     7
370
    30
100
AcDbLine
 10
59.833115
 20
5.581062
 30
0.0
 11
59.833115
 21
5.543563
 31
0.0
  0
LINE
  5
223
330
59C
100
AcDbEntity
  8
HATCH
  6
Continuous
 62
     7
370
    30
100
AcDbLine
 10
59.833115
 20
5.468562
 30
0.0
 11
59.833115
 21
5.431062
 31
0.0
  0
LINE
  5
224
330
59C
100
AcDbEntity
  8
HATCH
  6
Continuous
 62
     7
370
    30
100
AcDbLine
 10
59.865594
 20
5.6335
 30
0.0
 11
59.865594
 21
5.599812
 31
0.0
  0
LINE
  5
225
330
59C
100
AcDbEntity
  8
HATCH
  6
Continuous
 62
     7
370
    30
100
AcDbLine
 10
59.865594
 20
5.524812
 30
0.0
 11
59.865594
 21
5.487312
 31
0.0
  0
LINE
  5
226
330
59C
100
AcDbEntity
  8
HATCH
  6
Continuous
 62
     7
370
    30
100
AcDbLine
 10
59.898073
 20
5.581062
 30
0.0
 11
59.898073
 21
5.543563
 31
0.0
  0
LINE
  5
227
330
59C
100
AcDbEntity
  8
HATCH
  6
Continuous
 62
     7
370
    30
100
AcDbLine
 10
59.898073
 20
5.468562
 30
0.0
 11
59.898073
 21
5.431062
 31
0.0
  0
LINE
  5
228
330
59C
100
AcDbEntity
  8
HATCH
  6
Continuous
 62
     7
370
    30
100
AcDbLine
 10
59.930542
 20
5.601073
 30
0.0
 11
59.930542
 21
5.599812
 31
0.0
  0
LINE
  5
229
330
59C
100
AcDbEntity
  8
HATCH
  6
Continuous
 62
     7
370
    30
100
AcDbLine
 10
59.930542
 20
5.524812
 30
0.0
 11
59.930542
 21
5.487312
 31
0.0
  0
LINE
  5
22A
330
59C
100
AcDbEntity
  8
HATCH
  6
Continuous
 62
     7
370
    30
100
AcDbLine
 10
59.963021
 20
5.581062
 30
0.0
 11
59.963021
 21
5.543563
 31
0.0
  0
LINE
  5
22B
330
59C
100
AcDbEntity
  8
HATCH
  6
Continuous
 62
     7
370
    30
100
AcDbLine
 10
59.963021
 20
5.468562
 30
0.0
 11
59.963021
 21
5.431062
 31
0.0
  0
LINE
  5
22C
330
59C
100
AcDbEntity
  8
HATCH
  6
Continuous
 62
     7
370
    30
100
AcDbLine
 10
59.9955
 20
5.524812
 30
0.0
 11
59.9955
 21
5.487312
 31
0.0
  0
LINE
  5
22D
330
59C
100
AcDbEntity
  8
HATCH
  6
Continuous
 62
     7
370
    30
100
AcDbLine
 10
60.027969
 20
5.552417
 30
0.0
 11
60.027969
 21
5.543563
 31
0.0
  0
LINE
  5
22E
330
59C
100
AcDbEntity
  8
HATCH
  6
Continuous
 62
     7
370
    30
100
AcDbLine
 10
60.027969
 20
5.468562
 30
0.0
 11
60.027969
 21
5.431062
 31
0.0
  0
LINE
  5
22F
330
59C
100
AcDbEntity
  8
HATCH
  6
Continuous
 62
     7
370
    30
100
AcDbLine
 10
60.060448
 20
5.524812
 30
0.0
 11
60.060448
 21
5.487312
 31
0.0
  0
LINE
  5
230
330
59C
100
AcDbEntity
  8
HATCH
  6
Continuous
 62
     7
370
    30
100
AcDbLine
 10
60.092927
 20
5.468562
 30
0.0
 11
60.092927
 21
5.431062
 31
0.0
  0
LINE
  5
231
330
59C
100
AcDbEntity
  8
HATCH
  6
Continuous
 62
     7
370
    30
100
AcDbLine
 10
60.125396
 20
5.503771
 30
0.0
 11
60.125396
 21
5.487312
 31
0.0
  0
LINE
  5
232
330
59C
100
AcDbEntity
  8
HATCH
  6
Continuous
 62
     7
370
    30
100
AcDbLine
 10
60.157875
 20
5.468562
 30
0.0
 11
60.157875
 21
5.431062
 31
0.0
  0
LINE
  5
233
330
59C
100
AcDbEntity
  8
HATCH
  6
Continuous
 62
     7
370
    30
100
AcDbLine
 10
60.222823
 20
5.455125
 30
0.0
 11
60.222823
 21
5.431062
 31
0.0
  0
LINE
  5
234
330
59C
100
AcDbEntity
  8
HATCH
  6
Continuous
 62
     7
370
    30
100
AcDbLine
 10
59.971406
 20
5.426219
 30
0.0
 11
59.963021
 21
5.431062
 31
0.0
  0
LINE
  5
235
330
59C
100
AcDbEntity
  8
HATCH
  6
Continuous
 62
     7
370
    30
100
AcDbLine
 10
59.898073
 20
5.468562
 30
0.0
 11
59.865594
 21
5.487312
 31
0.0
  0
LINE
  5
236
330
59C
100
AcDbEntity
  8
HATCH
  6
Continuous
 62
     7
370
    30
100
AcDbLine
 10
59.800635
 20
5.524812
 30
0.0
 11
59.768167
 21
5.543563
 31
0.0
  0
LINE
  5
237
330
59C
100
AcDbEntity
  8
HATCH
  6
Continuous
 62
     7
370
    30
100
AcDbLine
 10
59.703208
 20
5.581062
 30
0.0
 11
59.67074
 21
5.599812
 31
0.0
  0
LINE
  5
238
330
59C
100
AcDbEntity
  8
HATCH
  6
Continuous
 62
     7
370
    30
100
AcDbLine
 10
59.605781
 20
5.637313
 30
0.0
 11
59.573313
 21
5.656062
 31
0.0
  0
LINE
  5
239
330
59C
100
AcDbEntity
  8
HATCH
  6
Continuous
 62
     7
370
    30
100
AcDbLine
 10
60.038781
 20
5.424823
 30
0.0
 11
60.027969
 21
5.431062
 31
0.0
  0
LINE
  5
23A
330
59C
100
AcDbEntity
  8
HATCH
  6
Continuous
 62
     7
370
    30
100
AcDbLine
 10
59.963021
 20
5.468562
 30
0.0
 11
59.930542
 21
5.487312
 31
0.0
  0
LINE
  5
23B
330
59C
100
AcDbEntity
  8
HATCH
  6
Continuous
 62
     7
370
    30
100
AcDbLine
 10
59.865594
 20
5.524812
 30
0.0
 11
59.833115
 21
5.543563
 31
0.0
  0
LINE
  5
23C
330
59C
100
AcDbEntity
  8
HATCH
  6
Continuous
 62
     7
370
    30
100
AcDbLine
 10
59.768167
 20
5.581062
 30
0.0
 11
59.735687
 21
5.599812
 31
0.0
  0
LINE
  5
23D
330
59C
100
AcDbEntity
  8
HATCH
  6
Continuous
 62
     7
370
    30
100
AcDbLine
 10
59.67074
 20
5.637313
 30
0.0
 11
59.63826
 21
5.656062
 31
0.0
  0
LINE
  5
23E
330
59C
100
AcDbEntity
  8
HATCH
  6
Continuous
 62
     7
370
    30
100
AcDbLine
 10
60.106167
 20
5.423417
 30
0.0
 11
60.092927
 21
5.431062
 31
0.0
  0
LINE
  5
23F
330
59C
100
AcDbEntity
  8
HATCH
  6
Continuous
 62
     7
370
    30
100
AcDbLine
 10
60.027969
 20
5.468562
 30
0.0
 11
59.9955
 21
5.487312
 31
0.0
  0
LINE
  5
240
330
59C
100
AcDbEntity
  8
HATCH
  6
Continuous
 62
     7
370
    30
100
AcDbLine
 10
59.930542
 20
5.524812
 30
0.0
 11
59.898073
 21
5.543563
 31
0.0
  0
LINE
  5
241
330
59C
100
AcDbEntity
  8
HATCH
  6
Continuous
 62
     7
370
    30
100
AcDbLine
 10
59.833115
 20
5.581062
 30
0.0
 11
59.800635
 21
5.599812
 31
0.0
  0
LINE
  5
242
330
59C
100
AcDbEntity
  8
HATCH
  6
Continuous
 62
     7
370
    30
100
AcDbLine
 10
59.735687
 20
5.637313
 30
0.0
 11
59.703208
 21
5.656062
 31
0.0
  0
LINE
  5
243
330
59C
100
AcDbEntity
  8
HATCH
  6
Continuous
 62
     7
370
    30
100
AcDbLine
 10
60.173552
 20
5.42201
 30
0.0
 11
60.157875
 21
5.431062
 31
0.0
  0
LINE
  5
244
330
59C
100
AcDbEntity
  8
HATCH
  6
Continuous
 62
     7
370
    30
100
AcDbLine
 10
60.092927
 20
5.468562
 30
0.0
 11
60.060448
 21
5.487312
 31
0.0
  0
LINE
  5
245
330
59C
100
AcDbEntity
  8
HATCH
  6
Continuous
 62
     7
370
    30
100
AcDbLine
 10
59.9955
 20
5.524812
 30
0.0
 11
59.963021
 21
5.543563
 31
0.0
  0
LINE
  5
246
330
59C
100
AcDbEntity
  8
HATCH
  6
Continuous
 62
     7
370
    30
100
AcDbLine
 10
59.898073
 20
5.581062
 30
0.0
 11
59.865594
 21
5.599812
 31
0.0
  0
LINE
  5
247
330
59C
100
AcDbEntity
  8
HATCH
  6
Continuous
 62
     7
370
    30
100
AcDbLine
 10
59.800635
 20
5.637313
 30
0.0
 11
59.768167
 21
5.656062
 31
0.0
  0
LINE
  5
248
330
59C
100
AcDbEntity
  8
HATCH
  6
Continuous
 62
     7
370
    30
100
AcDbLine
 10
60.240938
 20
5.420604
 30
0.0
 11
60.222823
 21
5.431062
 31
0.0
  0
LINE
  5
249
330
59C
100
AcDbEntity
  8
HATCH
  6
Continuous
 62
     7
370
    30
100
AcDbLine
 10
60.157875
 20
5.468562
 30
0.0
 11
60.125396
 21
5.487312
 31
0.0
  0
LINE
  5
24A
330
59C
100
AcDbEntity
  8
HATCH
  6
Continuous
 62
     7
370
    30
100
AcDbLine
 10
60.060448
 20
5.524812
 30
0.0
 11
60.027969
 21
5.543563
 31
0.0
  0
LINE
  5
24B
330
59C
100
AcDbEntity
  8
HATCH
  6
Continuous
 62
     7
370
    30
100
AcDbLine
 10
59.963021
 20
5.581062
 30
0.0
 11
59.930542
 21
5.599812
 31
0.0
  0
LINE
  5
24C
330
59C
100
AcDbEntity
  8
HATCH
  6
Continuous
 62
     7
370
    30
100
AcDbLine
 10
59.904021
 20
5.427625
 30
0.0
 11
59.898073
 21
5.431062
 31
0.0
  0
LINE
  5
24D
330
59C
100
AcDbEntity
  8
HATCH
  6
Continuous
 62
     7
370
    30
100
AcDbLine
 10
59.833115
 20
5.468562
 30
0.0
 11
59.800635
 21
5.487312
 31
0.0
  0
LINE
  5
24E
330
59C
100
AcDbEntity
  8
HATCH
  6
Continuous
 62
     7
370
    30
100
AcDbLine
 10
59.735687
 20
5.524812
 30
0.0
 11
59.703208
 21
5.543563
 31
0.0
  0
LINE
  5
24F
330
59C
100
AcDbEntity
  8
HATCH
  6
Continuous
 62
     7
370
    30
100
AcDbLine
 10
59.63826
 20
5.581062
 30
0.0
 11
59.605781
 21
5.599812
 31
0.0
  0
LINE
  5
250
330
59C
100
AcDbEntity
  8
HATCH
  6
Continuous
 62
     7
370
    30
100
AcDbLine
 10
59.540833
 20
5.637313
 30
0.0
 11
59.508354
 21
5.656062
 31
0.0
  0
LINE
  5
251
330
59C
100
AcDbEntity
  8
HATCH
  6
Continuous
 62
     7
370
    30
100
AcDbLine
 10
59.836635
 20
5.429031
 30
0.0
 11
59.833115
 21
5.431062
 31
0.0
  0
LINE
  5
252
330
59C
100
AcDbEntity
  8
HATCH
  6
Continuous
 62
     7
370
    30
100
AcDbLine
 10
59.768167
 20
5.468562
 30
0.0
 11
59.735687
 21
5.487312
 31
0.0
  0
LINE
  5
253
330
59C
100
AcDbEntity
  8
HATCH
  6
Continuous
 62
     7
370
    30
100
AcDbLine
 10
59.67074
 20
5.524812
 30
0.0
 11
59.63826
 21
5.543563
 31
0.0
  0
LINE
  5
254
330
59C
100
AcDbEntity
  8
HATCH
  6
Continuous
 62
     7
370
    30
100
AcDbLine
 10
59.573313
 20
5.581062
 30
0.0
 11
59.540833
 21
5.599812
 31
0.0
  0
LINE
  5
255
330
59C
100
AcDbEntity
  8
HATCH
  6
Continuous
 62
     7
370
    30
100
AcDbLine
 10
59.475885
 20
5.637313
 30
0.0
 11
59.443406
 21
5.656062
 31
0.0
  0
LINE
  5
256
330
59C
100
AcDbEntity
  8
HATCH
  6
Continuous
 62
     7
370
    30
100
AcDbLine
 10
59.76925
 20
5.430438
 30
0.0
 11
59.768167
 21
5.431062
 31
0.0
  0
LINE
  5
257
330
59C
100
AcDbEntity
  8
HATCH
  6
Continuous
 62
     7
370
    30
100
AcDbLine
 10
59.703208
 20
5.468562
 30
0.0
 11
59.67074
 21
5.487312
 31
0.0
  0
LINE
  5
258
330
59C
100
AcDbEntity
  8
HATCH
  6
Continuous
 62
     7
370
    30
100
AcDbLine
 10
59.605781
 20
5.524812
 30
0.0
 11
59.573313
 21
5.543563
 31
0.0
  0
LINE
  5
259
330
59C
100
AcDbEntity
  8
HATCH
  6
Continuous
 62
     7
370
    30
100
AcDbLine
 10
59.508354
 20
5.581062
 30
0.0
 11
59.475885
 21
5.599812
 31
0.0
  0
LINE
  5
25A
330
59C
100
AcDbEntity
  8
HATCH
  6
Continuous
 62
     7
370
    30
100
AcDbLine
 10
59.410927
 20
5.637313
 30
0.0
 11
59.378448
 21
5.656062
 31
0.0
  0
LINE
  5
25B
330
59C
100
AcDbEntity
  8
HATCH
  6
Continuous
 62
     7
370
    30
100
AcDbLine
 10
59.63826
 20
5.468562
 30
0.0
 11
59.605781
 21
5.487312
 31
0.0
  0
LINE
  5
25C
330
59C
100
AcDbEntity
  8
HATCH
  6
Continuous
 62
     7
370
    30
100
AcDbLine
 10
59.540833
 20
5.524812
 30
0.0
 11
59.508354
 21
5.543563
 31
0.0
  0
LINE
  5
25D
330
59C
100
AcDbEntity
  8
HATCH
  6
Continuous
 62
     7
370
    30
100
AcDbLine
 10
59.443406
 20
5.581062
 30
0.0
 11
59.410927
 21
5.599812
 31
0.0
  0
LINE
  5
25E
330
59C
100
AcDbEntity
  8
HATCH
  6
Continuous
 62
     7
370
    30
100
AcDbLine
 10
59.345979
 20
5.637313
 30
0.0
 11
59.3135
 21
5.656062
 31
0.0
  0
LINE
  5
25F
330
59C
100
AcDbEntity
  8
HATCH
  6
Continuous
 62
     7
370
    30
100
AcDbLine
 10
59.248552
 20
5.693562
 30
0.0
 11
59.247531
 21
5.694146
 31
0.0
  0
LINE
  5
260
330
59C
100
AcDbEntity
  8
HATCH
  6
Continuous
 62
     7
370
    30
100
AcDbLine
 10
59.573313
 20
5.468562
 30
0.0
 11
59.540833
 21
5.487312
 31
0.0
  0
LINE
  5
261
330
59C
100
AcDbEntity
  8
HATCH
  6
Continuous
 62
     7
370
    30
100
AcDbLine
 10
59.475885
 20
5.524812
 30
0.0
 11
59.443406
 21
5.543563
 31
0.0
  0
LINE
  5
262
330
59C
100
AcDbEntity
  8
HATCH
  6
Continuous
 62
     7
370
    30
100
AcDbLine
 10
59.378448
 20
5.581062
 30
0.0
 11
59.345979
 21
5.599812
 31
0.0
  0
LINE
  5
263
330
59C
100
AcDbEntity
  8
HATCH
  6
Continuous
 62
     7
370
    30
100
AcDbLine
 10
59.281021
 20
5.637313
 30
0.0
 11
59.248552
 21
5.656062
 31
0.0
  0
LINE
  5
264
330
59C
100
AcDbEntity
  8
HATCH
  6
Continuous
 62
     7
370
    30
100
AcDbLine
 10
59.183594
 20
5.693562
 30
0.0
 11
59.180146
 21
5.695552
 31
0.0
  0
LINE
  5
265
330
59C
100
AcDbEntity
  8
HATCH
  6
Continuous
 62
     7
370
    30
100
AcDbLine
 10
59.508354
 20
5.468562
 30
0.0
 11
59.475885
 21
5.487312
 31
0.0
  0
LINE
  5
266
330
59C
100
AcDbEntity
  8
HATCH
  6
Continuous
 62
     7
370
    30
100
AcDbLine
 10
59.410927
 20
5.524812
 30
0.0
 11
59.378448
 21
5.543563
 31
0.0
  0
LINE
  5
267
330
59C
100
AcDbEntity
  8
HATCH
  6
Continuous
 62
     7
370
    30
100
AcDbLine
 10
59.3135
 20
5.581062
 30
0.0
 11
59.281021
 21
5.599812
 31
0.0
  0
LINE
  5
268
330
59C
100
AcDbEntity
  8
HATCH
  6
Continuous
 62
     7
370
    30
100
AcDbLine
 10
59.216073
 20
5.637313
 30
0.0
 11
59.183594
 21
5.656062
 31
0.0
  0
LINE
  5
269
330
59C
100
AcDbEntity
  8
HATCH
  6
Continuous
 62
     7
370
    30
100
AcDbLine
 10
59.118646
 20
5.693562
 30
0.0
 11
59.11276
 21
5.696958
 31
0.0
  0
LINE
  5
26A
330
59C
100
AcDbEntity
  8
HATCH
  6
Continuous
 62
     7
370
    30
100
AcDbLine
 10
59.443406
 20
5.468562
 30
0.0
 11
59.410927
 21
5.487312
 31
0.0
  0
LINE
  5
26B
330
59C
100
AcDbEntity
  8
HATCH
  6
Continuous
 62
     7
370
    30
100
AcDbLine
 10
59.345979
 20
5.524812
 30
0.0
 11
59.3135
 21
5.543563
 31
0.0
  0
LINE
  5
26C
330
59C
100
AcDbEntity
  8
HATCH
  6
Continuous
 62
     7
370
    30
100
AcDbLine
 10
59.248552
 20
5.581062
 30
0.0
 11
59.216073
 21
5.599812
 31
0.0
  0
LINE
  5
26D
330
59C
100
AcDbEntity
  8
HATCH
  6
Continuous
 62
     7
370
    30
100
AcDbLine
 10
59.827219
 20
5.652656
 30
0.0
 11
59.800635
 21
5.637313
 31
0.0
  0
LINE
  5
26E
330
59C
100
AcDbEntity
  8
HATCH
  6
Continuous
 62
     7
370
    30
100
AcDbLine
 10
59.735687
 20
5.599812
 30
0.0
 11
59.703208
 21
5.581062
 31
0.0
  0
LINE
  5
26F
330
59C
100
AcDbEntity
  8
HATCH
  6
Continuous
 62
     7
370
    30
100
AcDbLine
 10
59.63826
 20
5.543563
 30
0.0
 11
59.605781
 21
5.524812
 31
0.0
  0
LINE
  5
270
330
59C
100
AcDbEntity
  8
HATCH
  6
Continuous
 62
     7
370
    30
100
AcDbLine
 10
59.540833
 20
5.487312
 30
0.0
 11
59.508354
 21
5.468562
 31
0.0
  0
LINE
  5
271
330
59C
100
AcDbEntity
  8
HATCH
  6
Continuous
 62
     7
370
    30
100
AcDbLine
 10
59.768167
 20
5.656062
 30
0.0
 11
59.735687
 21
5.637313
 31
0.0
  0
LINE
  5
272
330
59C
100
AcDbEntity
  8
HATCH
  6
Continuous
 62
     7
370
    30
100
AcDbLine
 10
59.67074
 20
5.599812
 30
0.0
 11
59.63826
 21
5.581062
 31
0.0
  0
LINE
  5
273
330
59C
100
AcDbEntity
  8
HATCH
  6
Continuous
 62
     7
370
    30
100
AcDbLine
 10
59.573313
 20
5.543563
 30
0.0
 11
59.540833
 21
5.524812
 31
0.0
  0
LINE
  5
274
330
59C
100
AcDbEntity
  8
HATCH
  6
Continuous
 62
     7
370
    30
100
AcDbLine
 10
59.475885
 20
5.487312
 30
0.0
 11
59.443406
 21
5.468562
 31
0.0
  0
LINE
  5
275
330
59C
100
AcDbEntity
  8
HATCH
  6
Continuous
 62
     7
370
    30
100
AcDbLine
 10
59.703208
 20
5.656062
 30
0.0
 11
59.67074
 21
5.637313
 31
0.0
  0
LINE
  5
276
330
59C
100
AcDbEntity
  8
HATCH
  6
Continuous
 62
     7
370
    30
100
AcDbLine
 10
59.605781
 20
5.599812
 30
0.0
 11
59.573313
 21
5.581062
 31
0.0
  0
LINE
  5
277
330
59C
100
AcDbEntity
  8
HATCH
  6
Continuous
 62
     7
370
    30
100
AcDbLine
 10
59.508354
 20
5.543563
 30
0.0
 11
59.475885
 21
5.524812
 31
0.0
  0
LINE
  5
278
330
59C
100
AcDbEntity
  8
HATCH
  6
Continuous
 62
     7
370
    30
100
AcDbLine
 10
59.410927
 20
5.487312
 30
0.0
 11
59.383187
 21
5.471292
 31
0.0
  0
LINE
  5
279
330
59C
100
AcDbEntity
  8
HATCH
  6
Continuous
 62
     7
370
    30
100
AcDbLine
 10
59.63826
 20
5.656062
 30
0.0
 11
59.605781
 21
5.637313
 31
0.0
  0
LINE
  5
27A
330
59C
100
AcDbEntity
  8
HATCH
  6
Continuous
 62
     7
370
    30
100
AcDbLine
 10
59.540833
 20
5.599812
 30
0.0
 11
59.508354
 21
5.581062
 31
0.0
  0
LINE
  5
27B
330
59C
100
AcDbEntity
  8
HATCH
  6
Continuous
 62
     7
370
    30
100
AcDbLine
 10
59.443406
 20
5.543563
 30
0.0
 11
59.410927
 21
5.524812
 31
0.0
  0
LINE
  5
27C
330
59C
100
AcDbEntity
  8
HATCH
  6
Continuous
 62
     7
370
    30
100
AcDbLine
 10
59.573313
 20
5.656062
 30
0.0
 11
59.540833
 21
5.637313
 31
0.0
  0
LINE
  5
27D
330
59C
100
AcDbEntity
  8
HATCH
  6
Continuous
 62
     7
370
    30
100
AcDbLine
 10
59.475885
 20
5.599812
 30
0.0
 11
59.443406
 21
5.581062
 31
0.0
  0
LINE
  5
27E
330
59C
100
AcDbEntity
  8
HATCH
  6
Continuous
 62
     7
370
    30
100
AcDbLine
 10
59.378448
 20
5.543563
 30
0.0
 11
59.345979
 21
5.524812
 31
0.0
  0
LINE
  5
27F
330
59C
100
AcDbEntity
  8
HATCH
  6
Continuous
 62
     7
370
    30
100
AcDbLine
 10
59.508354
 20
5.656062
 30
0.0
 11
59.475885
 21
5.637313
 31
0.0
  0
LINE
  5
280
330
59C
100
AcDbEntity
  8
HATCH
  6
Continuous
 62
     7
370
    30
100
AcDbLine
 10
59.410927
 20
5.599812
 30
0.0
 11
59.378448
 21
5.581062
 31
0.0
  0
LINE
  5
281
330
59C
100
AcDbEntity
  8
HATCH
  6
Continuous
 62
     7
370
    30
100
AcDbLine
 10
59.3135
 20
5.543563
 30
0.0
 11
59.296865
 21
5.533958
 31
0.0
  0
LINE
  5
282
330
59C
100
AcDbEntity
  8
HATCH
  6
Continuous
 62
     7
370
    30
100
AcDbLine
 10
59.443406
 20
5.656062
 30
0.0
 11
59.410927
 21
5.637313
 31
0.0
  0
LINE
  5
283
330
59C
100
AcDbEntity
  8
HATCH
  6
Continuous
 62
     7
370
    30
100
AcDbLine
 10
59.345979
 20
5.599812
 30
0.0
 11
59.3135
 21
5.581062
 31
0.0
  0
LINE
  5
284
330
59C
100
AcDbEntity
  8
HATCH
  6
Continuous
 62
     7
370
    30
100
AcDbLine
 10
59.378448
 20
5.656062
 30
0.0
 11
59.345979
 21
5.637313
 31
0.0
  0
LINE
  5
285
330
59C
100
AcDbEntity
  8
HATCH
  6
Continuous
 62
     7
370
    30
100
AcDbLine
 10
59.281021
 20
5.599812
 30
0.0
 11
59.248552
 21
5.581062
 31
0.0
  0
LINE
  5
286
330
59C
100
AcDbEntity
  8
HATCH
  6
Continuous
 62
     7
370
    30
100
AcDbLine
 10
59.3135
 20
5.656062
 30
0.0
 11
59.281021
 21
5.637313
 31
0.0
  0
LINE
  5
287
330
59C
100
AcDbEntity
  8
HATCH
  6
Continuous
 62
     7
370
    30
100
AcDbLine
 10
59.216073
 20
5.599812
 30
0.0
 11
59.210542
 21
5.596625
 31
0.0
  0
LINE
  5
288
330
59C
100
AcDbEntity
  8
HATCH
  6
Continuous
 62
     7
370
    30
100
AcDbLine
 10
59.248552
 20
5.656062
 30
0.0
 11
59.216073
 21
5.637313
 31
0.0
  0
LINE
  5
289
330
59C
100
AcDbEntity
  8
HATCH
  6
Continuous
 62
     7
370
    30
100
AcDbLine
 10
59.24949
 20
5.694104
 30
0.0
 11
59.248552
 21
5.693562
 31
0.0
  0
LINE
  5
28A
330
59C
100
AcDbEntity
  8
HATCH
  6
Continuous
 62
     7
370
    30
100
AcDbLine
 10
59.183594
 20
5.656062
 30
0.0
 11
59.153
 21
5.638396
 31
0.0
  0
LINE
  5
28B
330
59C
100
AcDbEntity
  8
HATCH
  6
Continuous
 62
     7
370
    30
100
AcDbLine
 10
59.186802
 20
5.695417
 30
0.0
 11
59.183594
 21
5.693562
 31
0.0
  0
LINE
  5
28C
330
59C
100
AcDbEntity
  8
HATCH
  6
Continuous
 62
     7
370
    30
100
AcDbLine
 10
59.124115
 20
5.696719
 30
0.0
 11
59.118646
 21
5.693562
 31
0.0
  0
LINE
  5
28D
330
59C
100
AcDbEntity
  8
HATCH
  6
Continuous
 62
     7
370
    30
100
AcDbLine
 10
59.800635
 20
5.599812
 30
0.0
 11
59.768167
 21
5.581062
 31
0.0
  0
LINE
  5
28E
330
59C
100
AcDbEntity
  8
HATCH
  6
Continuous
 62
     7
370
    30
100
AcDbLine
 10
59.703208
 20
5.543563
 30
0.0
 11
59.67074
 21
5.524812
 31
0.0
  0
LINE
  5
28F
330
59C
100
AcDbEntity
  8
HATCH
  6
Continuous
 62
     7
370
    30
100
AcDbLine
 10
59.605781
 20
5.487312
 30
0.0
 11
59.573313
 21
5.468562
 31
0.0
  0
LINE
  5
290
330
59C
100
AcDbEntity
  8
HATCH
  6
Continuous
 62
     7
370
    30
100
AcDbLine
 10
59.865594
 20
5.599812
 30
0.0
 11
59.833115
 21
5.581062
 31
0.0
  0
LINE
  5
291
330
59C
100
AcDbEntity
  8
HATCH
  6
Continuous
 62
     7
370
    30
100
AcDbLine
 10
59.768167
 20
5.543563
 30
0.0
 11
59.735687
 21
5.524812
 31
0.0
  0
LINE
  5
292
330
59C
100
AcDbEntity
  8
HATCH
  6
Continuous
 62
     7
370
    30
100
AcDbLine
 10
59.67074
 20
5.487312
 30
0.0
 11
59.63826
 21
5.468562
 31
0.0
  0
LINE
  5
293
330
59C
100
AcDbEntity
  8
HATCH
  6
Continuous
 62
     7
370
    30
100
AcDbLine
 10
59.930542
 20
5.599812
 30
0.0
 11
59.898073
 21
5.581062
 31
0.0
  0
LINE
  5
294
330
59C
100
AcDbEntity
  8
HATCH
  6
Continuous
 62
     7
370
    30
100
AcDbLine
 10
59.833115
 20
5.543563
 30
0.0
 11
59.800635
 21
5.524812
 31
0.0
  0
LINE
  5
295
330
59C
100
AcDbEntity
  8
HATCH
  6
Continuous
 62
     7
370
    30
100
AcDbLine
 10
59.735687
 20
5.487312
 30
0.0
 11
59.703208
 21
5.468562
 31
0.0
  0
LINE
  5
296
330
59C
100
AcDbEntity
  8
HATCH
  6
Continuous
 62
     7
370
    30
100
AcDbLine
 10
59.966542
 20
5.583094
 30
0.0
 11
59.963021
 21
5.581062
 31
0.0
  0
LINE
  5
297
330
59C
100
AcDbEntity
  8
HATCH
  6
Continuous
 62
     7
370
    30
100
AcDbLine
 10
59.898073
 20
5.543563
 30
0.0
 11
59.865594
 21
5.524812
 31
0.0
  0
LINE
  5
298
330
59C
100
AcDbEntity
  8
HATCH
  6
Continuous
 62
     7
370
    30
100
AcDbLine
 10
59.800635
 20
5.487312
 30
0.0
 11
59.768167
 21
5.468562
 31
0.0
  0
LINE
  5
299
330
59C
100
AcDbEntity
  8
HATCH
  6
Continuous
 62
     7
370
    30
100
AcDbLine
 10
59.963021
 20
5.543563
 30
0.0
 11
59.930542
 21
5.524812
 31
0.0
  0
LINE
  5
29A
330
59C
100
AcDbEntity
  8
HATCH
  6
Continuous
 62
     7
370
    30
100
AcDbLine
 10
59.865594
 20
5.487312
 30
0.0
 11
59.833115
 21
5.468562
 31
0.0
  0
LINE
  5
29B
330
59C
100
AcDbEntity
  8
HATCH
  6
Continuous
 62
     7
370
    30
100
AcDbLine
 10
59.768167
 20
5.431062
 30
0.0
 11
59.767156
 21
5.430479
 31
0.0
  0
LINE
  5
29C
330
59C
100
AcDbEntity
  8
HATCH
  6
Continuous
 62
     7
370
    30
100
AcDbLine
 10
60.027969
 20
5.543563
 30
0.0
 11
59.9955
 21
5.524812
 31
0.0
  0
LINE
  5
29D
330
59C
100
AcDbEntity
  8
HATCH
  6
Continuous
 62
     7
370
    30
100
AcDbLine
 10
59.930542
 20
5.487312
 30
0.0
 11
59.898073
 21
5.468562
 31
0.0
  0
LINE
  5
29E
330
59C
100
AcDbEntity
  8
HATCH
  6
Continuous
 62
     7
370
    30
100
AcDbLine
 10
59.833115
 20
5.431062
 30
0.0
 11
59.829844
 21
5.429167
 31
0.0
  0
LINE
  5
29F
330
59C
100
AcDbEntity
  8
HATCH
  6
Continuous
 62
     7
370
    30
100
AcDbLine
 10
60.071031
 20
5.530917
 30
0.0
 11
60.060448
 21
5.524812
 31
0.0
  0
LINE
  5
2A0
330
59C
100
AcDbEntity
  8
HATCH
  6
Continuous
 62
     7
370
    30
100
AcDbLine
 10
59.9955
 20
5.487312
 30
0.0
 11
59.963021
 21
5.468562
 31
0.0
  0
LINE
  5
2A1
330
59C
100
AcDbEntity
  8
HATCH
  6
Continuous
 62
     7
370
    30
100
AcDbLine
 10
59.898073
 20
5.431062
 30
0.0
 11
59.892531
 21
5.427865
 31
0.0
  0
LINE
  5
2A2
330
59C
100
AcDbEntity
  8
HATCH
  6
Continuous
 62
     7
370
    30
100
AcDbLine
 10
60.060448
 20
5.487312
 30
0.0
 11
60.027969
 21
5.468562
 31
0.0
  0
LINE
  5
2A3
330
59C
100
AcDbEntity
  8
HATCH
  6
Continuous
 62
     7
370
    30
100
AcDbLine
 10
59.963021
 20
5.431062
 30
0.0
 11
59.955219
 21
5.426563
 31
0.0
  0
LINE
  5
2A4
330
59C
100
AcDbEntity
  8
HATCH
  6
Continuous
 62
     7
370
    30
100
AcDbLine
 10
60.125396
 20
5.487312
 30
0.0
 11
60.092927
 21
5.468562
 31
0.0
  0
LINE
  5
2A5
330
59C
100
AcDbEntity
  8
HATCH
  6
Continuous
 62
     7
370
    30
100
AcDbLine
 10
60.027969
 20
5.431062
 30
0.0
 11
60.017906
 21
5.42525
 31
0.0
  0
LINE
  5
2A6
330
59C
100
AcDbEntity
  8
HATCH
  6
Continuous
 62
     7
370
    30
100
AcDbLine
 10
60.17551
 20
5.47875
 30
0.0
 11
60.157875
 21
5.468562
 31
0.0
  0
LINE
  5
2A7
330
59C
100
AcDbEntity
  8
HATCH
  6
Continuous
 62
     7
370
    30
100
AcDbLine
 10
60.092927
 20
5.431062
 30
0.0
 11
60.080604
 21
5.423948
 31
0.0
  0
LINE
  5
2A8
330
59C
100
AcDbEntity
  8
HATCH
  6
Continuous
 62
     7
370
    30
100
AcDbLine
 10
60.157875
 20
5.431062
 30
0.0
 11
60.143292
 21
5.422646
 31
0.0
  0
LINE
  5
2A9
330
59C
100
AcDbEntity
  8
HATCH
  6
Continuous
 62
     7
370
    30
100
AcDbLine
 10
60.222823
 20
5.431062
 30
0.0
 11
60.205979
 21
5.421333
 31
0.0
  0
LINE
  5
2AA
330
59C
100
AcDbEntity
  8
HATCH
  6
Continuous
 62
     7
370
    30
100
AcDbLine
 10
60.28
 20
5.426573
 30
0.0
 11
60.268667
 21
5.420031
 31
0.0
  0
LINE
  5
2AB
330
59C
100
AcDbEntity
  8
HATCH
  6
Continuous
 62
     7
370
    30
100
AcDbLine
 10
58.902375
 20
5.974812
 30
0.0
 11
58.853656
 21
5.946687
 31
0.0
  0
LINE
  5
2AC
330
59C
100
AcDbEntity
  8
HATCH
  6
Continuous
 62
     7
370
    30
100
AcDbLine
 10
58.804948
 20
5.918563
 30
0.0
 11
58.756229
 21
5.890437
 31
0.0
  0
LINE
  5
2AD
330
59C
100
AcDbEntity
  8
HATCH
  6
Continuous
 62
     7
370
    30
100
AcDbLine
 10
58.707521
 20
5.862312
 30
0.0
 11
58.658802
 21
5.834187
 31
0.0
  0
LINE
  5
2AE
330
59C
100
AcDbEntity
  8
HATCH
  6
Continuous
 62
     7
370
    30
100
AcDbLine
 10
58.610094
 20
5.806062
 30
0.0
 11
58.582552
 21
5.790156
 31
0.0
  0
LINE
  5
2AF
330
59C
100
AcDbEntity
  8
HATCH
  6
Continuous
 62
     7
370
    30
100
AcDbLine
 10
58.804948
 20
6.031062
 30
0.0
 11
58.756229
 21
6.002937
 31
0.0
  0
LINE
  5
2B0
330
59C
100
AcDbEntity
  8
HATCH
  6
Continuous
 62
     7
370
    30
100
AcDbLine
 10
58.707521
 20
5.974812
 30
0.0
 11
58.658802
 21
5.946687
 31
0.0
  0
LINE
  5
2B1
330
59C
100
AcDbEntity
  8
HATCH
  6
Continuous
 62
     7
370
    30
100
AcDbLine
 10
58.610094
 20
5.918563
 30
0.0
 11
58.561375
 21
5.890437
 31
0.0
  0
LINE
  5
2B2
330
59C
100
AcDbEntity
  8
HATCH
  6
Continuous
 62
     7
370
    30
100
AcDbLine
 10
58.512667
 20
5.862312
 30
0.0
 11
58.501562
 21
5.855906
 31
0.0
  0
LINE
  5
2B3
330
59C
100
AcDbEntity
  8
HATCH
  6
Continuous
 62
     7
370
    30
100
AcDbLine
 10
58.707521
 20
6.087312
 30
0.0
 11
58.658802
 21
6.059188
 31
0.0
  0
LINE
  5
2B4
330
59C
100
AcDbEntity
  8
HATCH
  6
Continuous
 62
     7
370
    30
100
AcDbLine
 10
58.610094
 20
6.031062
 30
0.0
 11
58.561375
 21
6.002937
 31
0.0
  0
LINE
  5
2B5
330
59C
100
AcDbEntity
  8
HATCH
  6
Continuous
 62
     7
370
    30
100
AcDbLine
 10
58.512667
 20
5.974812
 30
0.0
 11
58.463948
 21
5.946687
 31
0.0
  0
LINE
  5
2B6
330
59C
100
AcDbEntity
  8
HATCH
  6
Continuous
 62
     7
370
    30
100
AcDbLine
 10
58.603906
 20
6.13999
 30
0.0
 11
58.561375
 21
6.115437
 31
0.0
  0
LINE
  5
2B7
330
59C
100
AcDbEntity
  8
HATCH
  6
Continuous
 62
     7
370
    30
100
AcDbLine
 10
58.512667
 20
6.087312
 30
0.0
 11
58.464052
 21
6.05925
 31
0.0
  0
LINE
  5
2B8
330
59C
100
AcDbEntity
  8
HATCH
  6
Continuous
 62
     7
370
    30
100
AcDbLine
 10
58.999802
 20
5.918563
 30
0.0
 11
58.951083
 21
5.890437
 31
0.0
  0
LINE
  5
2B9
330
59C
100
AcDbEntity
  8
HATCH
  6
Continuous
 62
     7
370
    30
100
AcDbLine
 10
58.902375
 20
5.862312
 30
0.0
 11
58.853656
 21
5.834187
 31
0.0
  0
LINE
  5
2BA
330
59C
100
AcDbEntity
  8
HATCH
  6
Continuous
 62
     7
370
    30
100
AcDbLine
 10
58.804948
 20
5.806062
 30
0.0
 11
58.756229
 21
5.777938
 31
0.0
  0
LINE
  5
2BB
330
59C
100
AcDbEntity
  8
HATCH
  6
Continuous
 62
     7
370
    30
100
AcDbLine
 10
58.707521
 20
5.749812
 30
0.0
 11
58.663542
 21
5.724417
 31
0.0
  0
LINE
  5
2BC
330
59C
100
AcDbEntity
  8
HATCH
  6
Continuous
 62
     7
370
    30
100
AcDbLine
 10
59.097229
 20
5.862312
 30
0.0
 11
59.048521
 21
5.834187
 31
0.0
  0
LINE
  5
2BD
330
59C
100
AcDbEntity
  8
HATCH
  6
Continuous
 62
     7
370
    30
100
AcDbLine
 10
58.999802
 20
5.806062
 30
0.0
 11
58.951083
 21
5.777938
 31
0.0
  0
LINE
  5
2BE
330
59C
100
AcDbEntity
  8
HATCH
  6
Continuous
 62
     7
370
    30
100
AcDbLine
 10
58.902375
 20
5.749812
 30
0.0
 11
58.853656
 21
5.721687
 31
0.0
  0
LINE
  5
2BF
330
59C
100
AcDbEntity
  8
HATCH
  6
Continuous
 62
     7
370
    30
100
AcDbLine
 10
59.194656
 20
5.806062
 30
0.0
 11
59.145948
 21
5.777938
 31
0.0
  0
LINE
  5
2C0
330
59C
100
AcDbEntity
  8
HATCH
  6
Continuous
 62
     7
370
    30
100
AcDbLine
 10
59.097229
 20
5.749812
 30
0.0
 11
59.048521
 21
5.721687
 31
0.0
  0
LINE
  5
2C1
330
59C
100
AcDbEntity
  8
HATCH
  6
Continuous
 62
     7
370
    30
100
AcDbLine
 10
59.292083
 20
5.749812
 30
0.0
 11
59.243375
 21
5.721687
 31
0.0
  0
LINE
  5
2C2
330
59C
100
AcDbEntity
  8
HATCH
  6
Continuous
 62
     7
370
    30
100
AcDbLine
 10
59.439292
 20
5.722302
 30
0.0
 11
59.438229
 21
5.721687
 31
0.0
  0
LINE
  5
2C3
330
59C
100
AcDbEntity
  8
HATCH
  6
Continuous
 62
     7
370
    30
100
AcDbLine
 10
59.386063
 20
5.695552
 30
0.0
 11
59.340802
 21
5.721687
 31
0.0
  0
LINE
  5
2C4
330
59C
100
AcDbEntity
  8
HATCH
  6
Continuous
 62
     7
370
    30
100
AcDbLine
 10
59.292083
 20
5.749812
 30
0.0
 11
59.243375
 21
5.777938
 31
0.0
  0
LINE
  5
2C5
330
59C
100
AcDbEntity
  8
HATCH
  6
Continuous
 62
     7
370
    30
100
AcDbLine
 10
59.194656
 20
5.806062
 30
0.0
 11
59.145948
 21
5.834187
 31
0.0
  0
LINE
  5
2C6
330
59C
100
AcDbEntity
  8
HATCH
  6
Continuous
 62
     7
370
    30
100
AcDbLine
 10
59.097229
 20
5.862312
 30
0.0
 11
59.048521
 21
5.890437
 31
0.0
  0
LINE
  5
2C7
330
59C
100
AcDbEntity
  8
HATCH
  6
Continuous
 62
     7
370
    30
100
AcDbLine
 10
58.999802
 20
5.918563
 30
0.0
 11
58.951083
 21
5.946687
 31
0.0
  0
LINE
  5
2C8
330
59C
100
AcDbEntity
  8
HATCH
  6
Continuous
 62
     7
370
    30
100
AcDbLine
 10
58.902375
 20
5.974812
 30
0.0
 11
58.853656
 21
6.002937
 31
0.0
  0
LINE
  5
2C9
330
59C
100
AcDbEntity
  8
HATCH
  6
Continuous
 62
     7
370
    30
100
AcDbLine
 10
58.804948
 20
6.031062
 30
0.0
 11
58.756229
 21
6.059188
 31
0.0
  0
LINE
  5
2CA
330
59C
100
AcDbEntity
  8
HATCH
  6
Continuous
 62
     7
370
    30
100
AcDbLine
 10
58.707521
 20
6.087312
 30
0.0
 11
58.696167
 21
6.093865
 31
0.0
  0
LINE
  5
2CB
330
59C
100
AcDbEntity
  8
HATCH
  6
Continuous
 62
     7
370
    30
100
AcDbLine
 10
59.183917
 20
5.69976
 30
0.0
 11
59.145948
 21
5.721687
 31
0.0
  0
LINE
  5
2CC
330
59C
100
AcDbEntity
  8
HATCH
  6
Continuous
 62
     7
370
    30
100
AcDbLine
 10
59.097229
 20
5.749812
 30
0.0
 11
59.048521
 21
5.777938
 31
0.0
  0
LINE
  5
2CD
330
59C
100
AcDbEntity
  8
HATCH
  6
Continuous
 62
     7
370
    30
100
AcDbLine
 10
58.999802
 20
5.806062
 30
0.0
 11
58.951083
 21
5.834187
 31
0.0
  0
LINE
  5
2CE
330
59C
100
AcDbEntity
  8
HATCH
  6
Continuous
 62
     7
370
    30
100
AcDbLine
 10
58.902375
 20
5.862312
 30
0.0
 11
58.853656
 21
5.890437
 31
0.0
  0
LINE
  5
2CF
330
59C
100
AcDbEntity
  8
HATCH
  6
Continuous
 62
     7
370
    30
100
AcDbLine
 10
58.804948
 20
5.918563
 30
0.0
 11
58.756229
 21
5.946687
 31
0.0
  0
LINE
  5
2D0
330
59C
100
AcDbEntity
  8
HATCH
  6
Continuous
 62
     7
370
    30
100
AcDbLine
 10
58.707521
 20
5.974812
 30
0.0
 11
58.658802
 21
6.002937
 31
0.0
  0
LINE
  5
2D1
330
59C
100
AcDbEntity
  8
HATCH
  6
Continuous
 62
     7
370
    30
100
AcDbLine
 10
58.610094
 20
6.031062
 30
0.0
 11
58.561375
 21
6.059188
 31
0.0
  0
LINE
  5
2D2
330
59C
100
AcDbEntity
  8
HATCH
  6
Continuous
 62
     7
370
    30
100
AcDbLine
 10
58.512667
 20
6.087312
 30
0.0
 11
58.466125
 21
6.114177
 31
0.0
  0
LINE
  5
2D3
330
59C
100
AcDbEntity
  8
HATCH
  6
Continuous
 62
     7
370
    30
100
AcDbLine
 10
58.98176
 20
5.703979
 30
0.0
 11
58.951083
 21
5.721687
 31
0.0
  0
LINE
  5
2D4
330
59C
100
AcDbEntity
  8
HATCH
  6
Continuous
 62
     7
370
    30
100
AcDbLine
 10
58.902375
 20
5.749812
 30
0.0
 11
58.853656
 21
5.777938
 31
0.0
  0
LINE
  5
2D5
330
59C
100
AcDbEntity
  8
HATCH
  6
Continuous
 62
     7
370
    30
100
AcDbLine
 10
58.804948
 20
5.806062
 30
0.0
 11
58.756229
 21
5.834187
 31
0.0
  0
LINE
  5
2D6
330
59C
100
AcDbEntity
  8
HATCH
  6
Continuous
 62
     7
370
    30
100
AcDbLine
 10
58.707521
 20
5.862312
 30
0.0
 11
58.658802
 21
5.890437
 31
0.0
  0
LINE
  5
2D7
330
59C
100
AcDbEntity
  8
HATCH
  6
Continuous
 62
     7
370
    30
100
AcDbLine
 10
58.610094
 20
5.918563
 30
0.0
 11
58.561375
 21
5.946687
 31
0.0
  0
LINE
  5
2D8
330
59C
100
AcDbEntity
  8
HATCH
  6
Continuous
 62
     7
370
    30
100
AcDbLine
 10
58.512667
 20
5.974812
 30
0.0
 11
58.463948
 21
6.002937
 31
0.0
  0
LINE
  5
2D9
330
59C
100
AcDbEntity
  8
HATCH
  6
Continuous
 62
     7
370
    30
100
AcDbLine
 10
58.779615
 20
5.708188
 30
0.0
 11
58.756229
 21
5.721687
 31
0.0
  0
LINE
  5
2DA
330
59C
100
AcDbEntity
  8
HATCH
  6
Continuous
 62
     7
370
    30
100
AcDbLine
 10
58.707521
 20
5.749812
 30
0.0
 11
58.658802
 21
5.777938
 31
0.0
  0
LINE
  5
2DB
330
59C
100
AcDbEntity
  8
HATCH
  6
Continuous
 62
     7
370
    30
100
AcDbLine
 10
58.610094
 20
5.806062
 30
0.0
 11
58.561375
 21
5.834187
 31
0.0
  0
LINE
  5
2DC
330
59C
100
AcDbEntity
  8
HATCH
  6
Continuous
 62
     7
370
    30
100
AcDbLine
 10
58.512667
 20
5.862312
 30
0.0
 11
58.463948
 21
5.890437
 31
0.0
  0
LINE
  5
2DD
330
59C
100
AcDbEntity
  8
HATCH
  6
Continuous
 62
     7
370
    30
100
AcDbLine
 10
59.048521
 20
5.890437
 30
0.0
 11
59.048521
 21
5.834187
 31
0.0
  0
LINE
  5
2DE
330
59C
100
AcDbEntity
  8
HATCH
  6
Continuous
 62
     7
370
    30
100
AcDbLine
 10
59.048521
 20
5.777938
 30
0.0
 11
59.048521
 21
5.721687
 31
0.0
  0
LINE
  5
2DF
330
59C
100
AcDbEntity
  8
HATCH
  6
Continuous
 62
     7
370
    30
100
AcDbLine
 10
58.951083
 20
5.946687
 30
0.0
 11
58.951083
 21
5.890437
 31
0.0
  0
LINE
  5
2E0
330
59C
100
AcDbEntity
  8
HATCH
  6
Continuous
 62
     7
370
    30
100
AcDbLine
 10
58.951083
 20
5.834187
 30
0.0
 11
58.951083
 21
5.777938
 31
0.0
  0
LINE
  5
2E1
330
59C
100
AcDbEntity
  8
HATCH
  6
Continuous
 62
     7
370
    30
100
AcDbLine
 10
58.951083
 20
5.721687
 30
0.0
 11
58.951083
 21
5.704615
 31
0.0
  0
LINE
  5
2E2
330
59C
100
AcDbEntity
  8
HATCH
  6
Continuous
 62
     7
370
    30
100
AcDbLine
 10
58.853656
 20
6.002937
 30
0.0
 11
58.853656
 21
5.946687
 31
0.0
  0
LINE
  5
2E3
330
59C
100
AcDbEntity
  8
HATCH
  6
Continuous
 62
     7
370
    30
100
AcDbLine
 10
58.853656
 20
5.890437
 30
0.0
 11
58.853656
 21
5.834187
 31
0.0
  0
LINE
  5
2E4
330
59C
100
AcDbEntity
  8
HATCH
  6
Continuous
 62
     7
370
    30
100
AcDbLine
 10
58.853656
 20
5.777938
 30
0.0
 11
58.853656
 21
5.721687
 31
0.0
  0
LINE
  5
2E5
330
59C
100
AcDbEntity
  8
HATCH
  6
Continuous
 62
     7
370
    30
100
AcDbLine
 10
58.756229
 20
6.059188
 30
0.0
 11
58.756229
 21
6.002937
 31
0.0
  0
LINE
  5
2E6
330
59C
100
AcDbEntity
  8
HATCH
  6
Continuous
 62
     7
370
    30
100
AcDbLine
 10
58.756229
 20
5.946687
 30
0.0
 11
58.756229
 21
5.890437
 31
0.0
  0
LINE
  5
2E7
330
59C
100
AcDbEntity
  8
HATCH
  6
Continuous
 62
     7
370
    30
100
AcDbLine
 10
58.756229
 20
5.834187
 30
0.0
 11
58.756229
 21
5.777938
 31
0.0
  0
LINE
  5
2E8
330
59C
100
AcDbEntity
  8
HATCH
  6
Continuous
 62
     7
370
    30
100
AcDbLine
 10
58.756229
 20
5.721687
 30
0.0
 11
58.756229
 21
5.708677
 31
0.0
  0
LINE
  5
2E9
330
59C
100
AcDbEntity
  8
HATCH
  6
Continuous
 62
     7
370
    30
100
AcDbLine
 10
58.658802
 20
6.112552
 30
0.0
 11
58.658802
 21
6.059188
 31
0.0
  0
LINE
  5
2EA
330
59C
100
AcDbEntity
  8
HATCH
  6
Continuous
 62
     7
370
    30
100
AcDbLine
 10
58.658802
 20
6.002937
 30
0.0
 11
58.658802
 21
5.946687
 31
0.0
  0
LINE
  5
2EB
330
59C
100
AcDbEntity
  8
HATCH
  6
Continuous
 62
     7
370
    30
100
AcDbLine
 10
58.658802
 20
5.890437
 30
0.0
 11
58.658802
 21
5.834187
 31
0.0
  0
LINE
  5
2EC
330
59C
100
AcDbEntity
  8
HATCH
  6
Continuous
 62
     7
370
    30
100
AcDbLine
 10
58.658802
 20
5.777938
 30
0.0
 11
58.658802
 21
5.72826
 31
0.0
  0
LINE
  5
2ED
330
59C
100
AcDbEntity
  8
HATCH
  6
Continuous
 62
     7
370
    30
100
AcDbLine
 10
58.561375
 20
6.146198
 30
0.0
 11
58.561375
 21
6.115437
 31
0.0
  0
LINE
  5
2EE
330
59C
100
AcDbEntity
  8
HATCH
  6
Continuous
 62
     7
370
    30
100
AcDbLine
 10
58.561375
 20
6.059188
 30
0.0
 11
58.561375
 21
6.002937
 31
0.0
  0
LINE
  5
2EF
330
59C
100
AcDbEntity
  8
HATCH
  6
Continuous
 62
     7
370
    30
100
AcDbLine
 10
58.561375
 20
5.946687
 30
0.0
 11
58.561375
 21
5.890437
 31
0.0
  0
LINE
  5
2F0
330
59C
100
AcDbEntity
  8
HATCH
  6
Continuous
 62
     7
370
    30
100
AcDbLine
 10
58.561375
 20
5.834187
 30
0.0
 11
58.561375
 21
5.807344
 31
0.0
  0
LINE
  5
2F1
330
59C
100
AcDbEntity
  8
HATCH
  6
Continuous
 62
     7
370
    30
100
AcDbLine
 10
58.463948
 20
6.002937
 30
0.0
 11
58.463948
 21
5.946687
 31
0.0
  0
LINE
  5
2F2
330
59C
100
AcDbEntity
  8
HATCH
  6
Continuous
 62
     7
370
    30
100
AcDbLine
 10
58.463948
 20
5.890437
 30
0.0
 11
58.463948
 21
5.886427
 31
0.0
  0
LINE
  5
2F3
330
59C
100
AcDbEntity
  8
HATCH
  6
Continuous
 62
     7
370
    30
100
AcDbLine
 10
59.145948
 20
5.834187
 30
0.0
 11
59.145948
 21
5.777938
 31
0.0
  0
LINE
  5
2F4
330
59C
100
AcDbEntity
  8
HATCH
  6
Continuous
 62
     7
370
    30
100
AcDbLine
 10
59.145948
 20
5.721687
 30
0.0
 11
59.145948
 21
5.700552
 31
0.0
  0
LINE
  5
2F5
330
59C
100
AcDbEntity
  8
HATCH
  6
Continuous
 62
     7
370
    30
100
AcDbLine
 10
59.243375
 20
5.777938
 30
0.0
 11
59.243375
 21
5.721687
 31
0.0
  0
LINE
  5
2F6
330
59C
100
AcDbEntity
  8
HATCH
  6
Continuous
 62
     7
370
    30
100
AcDbLine
 10
59.340802
 20
5.721687
 30
0.0
 11
59.340802
 21
5.6965
 31
0.0
  0
LINE
  5
2F7
330
59C
100
AcDbEntity
  8
HATCH
  6
Continuous
 62
     7
370
    30
100
AcDbLine
 10
59.438229
 20
5.722833
 30
0.0
 11
59.438229
 21
5.721687
 31
0.0
  0
LINE
  5
2F8
330
59C
100
AcDbEntity
  8
HATCH
  6
Continuous
 62
     7
370
    30
100
AcDbLine
 10
53.448198
 20
5.410021
 30
0.0
 11
53.485958
 21
5.372271
 31
0.0
  0
LINE
  5
2F9
330
59C
100
AcDbEntity
  8
HATCH
  6
Continuous
 62
     7
370
    30
100
AcDbLine
 10
53.611354
 20
5.423656
 30
0.0
 11
53.662729
 21
5.372271
 31
0.0
  0
LINE
  5
2FA
330
59C
100
AcDbEntity
  8
HATCH
  6
Continuous
 62
     7
370
    30
100
AcDbLine
 10
53.784521
 20
5.42726
 30
0.0
 11
53.83951
 21
5.372271
 31
0.0
  0
LINE
  5
2FB
330
59C
100
AcDbEntity
  8
HATCH
  6
Continuous
 62
     7
370
    30
100
AcDbLine
 10
53.927896
 20
5.283885
 30
0.0
 11
53.939635
 21
5.272146
 31
0.0
  0
LINE
  5
2FC
330
59C
100
AcDbEntity
  8
HATCH
  6
Continuous
 62
     7
370
    30
100
AcDbLine
 10
53.957687
 20
5.430865
 30
0.0
 11
54.016281
 21
5.372271
 31
0.0
  0
LINE
  5
2FD
330
59C
100
AcDbEntity
  8
HATCH
  6
Continuous
 62
     7
370
    30
100
AcDbLine
 10
54.130854
 20
5.434479
 30
0.0
 11
54.144479
 21
5.420854
 31
0.0
  0
LINE
  5
2FE
330
59C
100
AcDbEntity
  8
HATCH
  6
Continuous
 62
     7
370
    30
100
AcDbLine
 10
53.503125
 20
5.421396
 30
0.0
 11
53.519104
 21
5.405417
 31
0.0
  0
LINE
  5
2FF
330
59C
100
AcDbEntity
  8
HATCH
  6
Continuous
 62
     7
370
    30
100
AcDbLine
 10
53.676292
 20
5.42501
 30
0.0
 11
53.695875
 21
5.405417
 31
0.0
  0
LINE
  5
300
330
59C
100
AcDbEntity
  8
HATCH
  6
Continuous
 62
     7
370
    30
100
AcDbLine
 10
53.849458
 20
5.428615
 30
0.0
 11
53.872656
 21
5.405417
 31
0.0
  0
LINE
  5
301
330
59C
100
AcDbEntity
  8
HATCH
  6
Continuous
 62
     7
370
    30
100
AcDbLine
 10
53.961042
 20
5.317031
 30
0.0
 11
53.978042
 21
5.300031
 31
0.0
  0
LINE
  5
302
330
59C
100
AcDbEntity
  8
HATCH
  6
Continuous
 62
     7
370
    30
100
AcDbLine
 10
54.022625
 20
5.432219
 30
0.0
 11
54.049427
 21
5.405417
 31
0.0
  0
LINE
  5
303
330
59C
100
AcDbEntity
  8
HATCH
  6
Continuous
 62
     7
370
    30
100
AcDbLine
 10
53.640635
 20
5.350177
 30
0.0
 11
53.729021
 21
5.261792
 31
0.0
  0
LINE
  5
304
330
59C
100
AcDbEntity
  8
HATCH
  6
Continuous
 62
     7
370
    30
100
AcDbLine
 10
53.817406
 20
5.350177
 30
0.0
 11
53.905802
 21
5.261792
 31
0.0
  0
LINE
  5
305
330
59C
100
AcDbEntity
  8
HATCH
  6
Continuous
 62
     7
370
    30
100
AcDbLine
 10
53.994187
 20
5.350177
 30
0.0
 11
54.016448
 21
5.327917
 31
0.0
  0
LINE
  5
306
330
59C
100
AcDbEntity
  8
HATCH
  6
Continuous
 62
     7
370
    30
100
AcDbLine
 10
53.463854
 20
5.350177
 30
0.0
 11
53.55225
 21
5.261792
 31
0.0
  0
LINE
  5
307
330
59C
100
AcDbEntity
  8
HATCH
  6
Continuous
 62
     7
370
    30
100
AcDbLine
 10
53.300823
 20
5.336437
 30
0.0
 11
53.375469
 21
5.261792
 31
0.0
  0
LINE
  5
308
330
59C
100
AcDbEntity
  8
HATCH
  6
Continuous
 62
     7
370
    30
100
AcDbLine
 10
53.182917
 20
5.277563
 30
0.0
 11
53.198687
 21
5.261792
 31
0.0
  0
LINE
  5
309
330
59C
100
AcDbEntity
  8
HATCH
  6
Continuous
 62
     7
370
    30
100
AcDbLine
 10
53.485958
 20
5.350177
 30
0.0
 11
53.558323
 21
5.422552
 31
0.0
  0
LINE
  5
30A
330
59C
100
AcDbEntity
  8
HATCH
  6
Continuous
 62
     7
370
    30
100
AcDbLine
 10
53.662729
 20
5.350177
 30
0.0
 11
53.738865
 21
5.426312
 31
0.0
  0
LINE
  5
30B
330
59C
100
AcDbEntity
  8
HATCH
  6
Continuous
 62
     7
370
    30
100
AcDbLine
 10
53.83951
 20
5.350177
 30
0.0
 11
53.919406
 21
5.430073
 31
0.0
  0
LINE
  5
30C
330
59C
100
AcDbEntity
  8
HATCH
  6
Continuous
 62
     7
370
    30
100
AcDbLine
 10
54.016281
 20
5.350177
 30
0.0
 11
54.099937
 21
5.433833
 31
0.0
  0
LINE
  5
30D
330
59C
100
AcDbEntity
  8
HATCH
  6
Continuous
 62
     7
370
    30
100
AcDbLine
 10
53.519104
 20
5.317031
 30
0.0
 11
53.60749
 21
5.405417
 31
0.0
  0
LINE
  5
30E
330
59C
100
AcDbEntity
  8
HATCH
  6
Continuous
 62
     7
370
    30
100
AcDbLine
 10
53.342323
 20
5.317031
 30
0.0
 11
53.422469
 21
5.397177
 31
0.0
  0
LINE
  5
30F
330
59C
100
AcDbEntity
  8
HATCH
  6
Continuous
 62
     7
370
    30
100
AcDbLine
 10
53.695875
 20
5.317031
 30
0.0
 11
53.78426
 21
5.405417
 31
0.0
  0
LINE
  5
310
330
59C
100
AcDbEntity
  8
HATCH
  6
Continuous
 62
     7
370
    30
100
AcDbLine
 10
53.872656
 20
5.317031
 30
0.0
 11
53.961042
 21
5.405417
 31
0.0
  0
LINE
  5
311
330
59C
100
AcDbEntity
  8
HATCH
  6
Continuous
 62
     7
370
    30
100
AcDbLine
 10
53.375469
 20
5.283885
 30
0.0
 11
53.463854
 21
5.372271
 31
0.0
  0
LINE
  5
312
330
59C
100
AcDbEntity
  8
HATCH
  6
Continuous
 62
     7
370
    30
100
AcDbLine
 10
53.198687
 20
5.283885
 30
0.0
 11
53.201792
 21
5.286979
 31
0.0
  0
LINE
  5
313
330
59C
100
AcDbEntity
  8
HATCH
  6
Continuous
 62
     7
370
    30
100
AcDbLine
 10
53.55225
 20
5.283885
 30
0.0
 11
53.640635
 21
5.372271
 31
0.0
  0
LINE
  5
314
330
59C
100
AcDbEntity
  8
HATCH
  6
Continuous
 62
     7
370
    30
100
AcDbLine
 10
53.729021
 20
5.283885
 30
0.0
 11
53.817406
 21
5.372271
 31
0.0
  0
LINE
  5
315
330
59C
100
AcDbEntity
  8
HATCH
  6
Continuous
 62
     7
370
    30
100
AcDbLine
 10
53.905802
 20
5.283885
 30
0.0
 11
53.994187
 21
5.372271
 31
0.0
  0
LINE
  5
316
330
59C
100
AcDbEntity
  8
HATCH
  6
Continuous
 62
     7
370
    30
100
AcDbLine
 10
54.058135
 20
5.684656
 30
0.0
 11
54.058135
 21
5.656062
 31
0.0
  0
LINE
  5
317
330
59C
100
AcDbEntity
  8
HATCH
  6
Continuous
 62
     7
370
    30
100
AcDbLine
 10
54.058135
 20
5.581062
 30
0.0
 11
54.058135
 21
5.543563
 31
0.0
  0
LINE
  5
318
330
59C
100
AcDbEntity
  8
HATCH
  6
Continuous
 62
     7
370
    30
100
AcDbLine
 10
54.058135
 20
5.468562
 30
0.0
 11
54.058135
 21
5.431812
 31
0.0
  0
LINE
  5
319
330
59C
100
AcDbEntity
  8
HATCH
  6
Continuous
 62
     7
370
    30
100
AcDbLine
 10
54.090604
 20
5.637313
 30
0.0
 11
54.090604
 21
5.599812
 31
0.0
  0
LINE
  5
31A
330
59C
100
AcDbEntity
  8
HATCH
  6
Continuous
 62
     7
370
    30
100
AcDbLine
 10
54.090604
 20
5.524812
 30
0.0
 11
54.090604
 21
5.487312
 31
0.0
  0
LINE
  5
31B
330
59C
100
AcDbEntity
  8
HATCH
  6
Continuous
 62
     7
370
    30
100
AcDbLine
 10
54.123083
 20
5.68601
 30
0.0
 11
54.123083
 21
5.656062
 31
0.0
  0
LINE
  5
31C
330
59C
100
AcDbEntity
  8
HATCH
  6
Continuous
 62
     7
370
    30
100
AcDbLine
 10
54.123083
 20
5.581062
 30
0.0
 11
54.123083
 21
5.543563
 31
0.0
  0
LINE
  5
31D
330
59C
100
AcDbEntity
  8
HATCH
  6
Continuous
 62
     7
370
    30
100
AcDbLine
 10
54.123083
 20
5.468562
 30
0.0
 11
54.123083
 21
5.433167
 31
0.0
  0
LINE
  5
31E
330
59C
100
AcDbEntity
  8
HATCH
  6
Continuous
 62
     7
370
    30
100
AcDbLine
 10
54.155562
 20
5.637313
 30
0.0
 11
54.155562
 21
5.599812
 31
0.0
  0
LINE
  5
31F
330
59C
100
AcDbEntity
  8
HATCH
  6
Continuous
 62
     7
370
    30
100
AcDbLine
 10
54.155562
 20
5.524812
 30
0.0
 11
54.155562
 21
5.487312
 31
0.0
  0
LINE
  5
320
330
59C
100
AcDbEntity
  8
HATCH
  6
Continuous
 62
     7
370
    30
100
AcDbLine
 10
54.188031
 20
5.687365
 30
0.0
 11
54.188031
 21
5.656062
 31
0.0
  0
LINE
  5
321
330
59C
100
AcDbEntity
  8
HATCH
  6
Continuous
 62
     7
370
    30
100
AcDbLine
 10
54.188031
 20
5.581062
 30
0.0
 11
54.188031
 21
5.543563
 31
0.0
  0
LINE
  5
322
330
59C
100
AcDbEntity
  8
HATCH
  6
Continuous
 62
     7
370
    30
100
AcDbLine
 10
54.188031
 20
5.468562
 30
0.0
 11
54.188031
 21
5.434521
 31
0.0
  0
LINE
  5
323
330
59C
100
AcDbEntity
  8
HATCH
  6
Continuous
 62
     7
370
    30
100
AcDbLine
 10
54.22051
 20
5.637313
 30
0.0
 11
54.22051
 21
5.599812
 31
0.0
  0
LINE
  5
324
330
59C
100
AcDbEntity
  8
HATCH
  6
Continuous
 62
     7
370
    30
100
AcDbLine
 10
54.22051
 20
5.524812
 30
0.0
 11
54.22051
 21
5.487312
 31
0.0
  0
LINE
  5
325
330
59C
100
AcDbEntity
  8
HATCH
  6
Continuous
 62
     7
370
    30
100
AcDbLine
 10
54.25299
 20
5.688719
 30
0.0
 11
54.25299
 21
5.656062
 31
0.0
  0
LINE
  5
326
330
59C
100
AcDbEntity
  8
HATCH
  6
Continuous
 62
     7
370
    30
100
AcDbLine
 10
54.25299
 20
5.581062
 30
0.0
 11
54.25299
 21
5.543563
 31
0.0
  0
LINE
  5
327
330
59C
100
AcDbEntity
  8
HATCH
  6
Continuous
 62
     7
370
    30
100
AcDbLine
 10
54.25299
 20
5.468562
 30
0.0
 11
54.25299
 21
5.435865
 31
0.0
  0
LINE
  5
328
330
59C
100
AcDbEntity
  8
HATCH
  6
Continuous
 62
     7
370
    30
100
AcDbLine
 10
54.285458
 20
5.637313
 30
0.0
 11
54.285458
 21
5.599812
 31
0.0
  0
LINE
  5
329
330
59C
100
AcDbEntity
  8
HATCH
  6
Continuous
 62
     7
370
    30
100
AcDbLine
 10
54.285458
 20
5.524812
 30
0.0
 11
54.285458
 21
5.487312
 31
0.0
  0
LINE
  5
32A
330
59C
100
AcDbEntity
  8
HATCH
  6
Continuous
 62
     7
370
    30
100
AcDbLine
 10
54.317937
 20
5.690073
 30
0.0
 11
54.317937
 21
5.656062
 31
0.0
  0
LINE
  5
32B
330
59C
100
AcDbEntity
  8
HATCH
  6
Continuous
 62
     7
370
    30
100
AcDbLine
 10
54.317937
 20
5.581062
 30
0.0
 11
54.317937
 21
5.543563
 31
0.0
  0
LINE
  5
32C
330
59C
100
AcDbEntity
  8
HATCH
  6
Continuous
 62
     7
370
    30
100
AcDbLine
 10
54.317937
 20
5.468562
 30
0.0
 11
54.317937
 21
5.437219
 31
0.0
  0
LINE
  5
32D
330
59C
100
AcDbEntity
  8
HATCH
  6
Continuous
 62
     7
370
    30
100
AcDbLine
 10
54.350417
 20
5.637313
 30
0.0
 11
54.350417
 21
5.599812
 31
0.0
  0
LINE
  5
32E
330
59C
100
AcDbEntity
  8
HATCH
  6
Continuous
 62
     7
370
    30
100
AcDbLine
 10
54.350417
 20
5.524812
 30
0.0
 11
54.350417
 21
5.487312
 31
0.0
  0
LINE
  5
32F
330
59C
100
AcDbEntity
  8
HATCH
  6
Continuous
 62
     7
370
    30
100
AcDbLine
 10
54.382896
 20
5.691427
 30
0.0
 11
54.382896
 21
5.656062
 31
0.0
  0
LINE
  5
330
330
59C
100
AcDbEntity
  8
HATCH
  6
Continuous
 62
     7
370
    30
100
AcDbLine
 10
54.382896
 20
5.581062
 30
0.0
 11
54.382896
 21
5.543563
 31
0.0
  0
LINE
  5
331
330
59C
100
AcDbEntity
  8
HATCH
  6
Continuous
 62
     7
370
    30
100
AcDbLine
 10
54.415365
 20
5.637313
 30
0.0
 11
54.415365
 21
5.599812
 31
0.0
  0
LINE
  5
332
330
59C
100
AcDbEntity
  8
HATCH
  6
Continuous
 62
     7
370
    30
100
AcDbLine
 10
54.415365
 20
5.524812
 30
0.0
 11
54.415365
 21
5.498302
 31
0.0
  0
LINE
  5
333
330
59C
100
AcDbEntity
  8
HATCH
  6
Continuous
 62
     7
370
    30
100
AcDbLine
 10
54.447844
 20
5.692771
 30
0.0
 11
54.447844
 21
5.656062
 31
0.0
  0
LINE
  5
334
330
59C
100
AcDbEntity
  8
HATCH
  6
Continuous
 62
     7
370
    30
100
AcDbLine
 10
54.447844
 20
5.581062
 30
0.0
 11
54.447844
 21
5.543563
 31
0.0
  0
LINE
  5
335
330
59C
100
AcDbEntity
  8
HATCH
  6
Continuous
 62
     7
370
    30
100
AcDbLine
 10
54.480323
 20
5.637313
 30
0.0
 11
54.480323
 21
5.599812
 31
0.0
  0
LINE
  5
336
330
59C
100
AcDbEntity
  8
HATCH
  6
Continuous
 62
     7
370
    30
100
AcDbLine
 10
54.512792
 20
5.693562
 30
0.0
 11
54.512792
 21
5.656062
 31
0.0
  0
LINE
  5
337
330
59C
100
AcDbEntity
  8
HATCH
  6
Continuous
 62
     7
370
    30
100
AcDbLine
 10
54.512792
 20
5.581062
 30
0.0
 11
54.512792
 21
5.569031
 31
0.0
  0
LINE
  5
338
330
59C
100
AcDbEntity
  8
HATCH
  6
Continuous
 62
     7
370
    30
100
AcDbLine
 10
54.545271
 20
5.637313
 30
0.0
 11
54.545271
 21
5.599812
 31
0.0
  0
LINE
  5
339
330
59C
100
AcDbEntity
  8
HATCH
  6
Continuous
 62
     7
370
    30
100
AcDbLine
 10
54.57775
 20
5.693562
 30
0.0
 11
54.57775
 21
5.656062
 31
0.0
  0
LINE
  5
33A
330
59C
100
AcDbEntity
  8
HATCH
  6
Continuous
 62
     7
370
    30
100
AcDbLine
 10
54.642698
 20
5.693562
 30
0.0
 11
54.642698
 21
5.663333
 31
0.0
  0
LINE
  5
33B
330
59C
100
AcDbEntity
  8
HATCH
  6
Continuous
 62
     7
370
    30
100
AcDbLine
 10
54.025656
 20
5.637313
 30
0.0
 11
54.025656
 21
5.599812
 31
0.0
  0
LINE
  5
33C
330
59C
100
AcDbEntity
  8
HATCH
  6
Continuous
 62
     7
370
    30
100
AcDbLine
 10
54.025656
 20
5.524812
 30
0.0
 11
54.025656
 21
5.487312
 31
0.0
  0
LINE
  5
33D
330
59C
100
AcDbEntity
  8
HATCH
  6
Continuous
 62
     7
370
    30
100
AcDbLine
 10
53.993177
 20
5.682156
 30
0.0
 11
53.993177
 21
5.656062
 31
0.0
  0
LINE
  5
33E
330
59C
100
AcDbEntity
  8
HATCH
  6
Continuous
 62
     7
370
    30
100
AcDbLine
 10
53.993177
 20
5.581062
 30
0.0
 11
53.993177
 21
5.543563
 31
0.0
  0
LINE
  5
33F
330
59C
100
AcDbEntity
  8
HATCH
  6
Continuous
 62
     7
370
    30
100
AcDbLine
 10
53.993177
 20
5.468562
 30
0.0
 11
53.993177
 21
5.431062
 31
0.0
  0
LINE
  5
340
330
59C
100
AcDbEntity
  8
HATCH
  6
Continuous
 62
     7
370
    30
100
AcDbLine
 10
53.960708
 20
5.637313
 30
0.0
 11
53.960708
 21
5.599812
 31
0.0
  0
LINE
  5
341
330
59C
100
AcDbEntity
  8
HATCH
  6
Continuous
 62
     7
370
    30
100
AcDbLine
 10
53.960708
 20
5.524812
 30
0.0
 11
53.960708
 21
5.487312
 31
0.0
  0
LINE
  5
342
330
59C
100
AcDbEntity
  8
HATCH
  6
Continuous
 62
     7
370
    30
100
AcDbLine
 10
53.928229
 20
5.581062
 30
0.0
 11
53.928229
 21
5.543563
 31
0.0
  0
LINE
  5
343
330
59C
100
AcDbEntity
  8
HATCH
  6
Continuous
 62
     7
370
    30
100
AcDbLine
 10
53.928229
 20
5.468562
 30
0.0
 11
53.928229
 21
5.431062
 31
0.0
  0
LINE
  5
344
330
59C
100
AcDbEntity
  8
HATCH
  6
Continuous
 62
     7
370
    30
100
AcDbLine
 10
53.89575
 20
5.6335
 30
0.0
 11
53.89575
 21
5.599812
 31
0.0
  0
LINE
  5
345
330
59C
100
AcDbEntity
  8
HATCH
  6
Continuous
 62
     7
370
    30
100
AcDbLine
 10
53.89575
 20
5.524812
 30
0.0
 11
53.89575
 21
5.487312
 31
0.0
  0
LINE
  5
346
330
59C
100
AcDbEntity
  8
HATCH
  6
Continuous
 62
     7
370
    30
100
AcDbLine
 10
53.863271
 20
5.581062
 30
0.0
 11
53.863271
 21
5.543563
 31
0.0
  0
LINE
  5
347
330
59C
100
AcDbEntity
  8
HATCH
  6
Continuous
 62
     7
370
    30
100
AcDbLine
 10
53.863271
 20
5.468562
 30
0.0
 11
53.863271
 21
5.431062
 31
0.0
  0
LINE
  5
348
330
59C
100
AcDbEntity
  8
HATCH
  6
Continuous
 62
     7
370
    30
100
AcDbLine
 10
53.830802
 20
5.601073
 30
0.0
 11
53.830802
 21
5.599812
 31
0.0
  0
LINE
  5
349
330
59C
100
AcDbEntity
  8
HATCH
  6
Continuous
 62
     7
370
    30
100
AcDbLine
 10
53.830802
 20
5.524812
 30
0.0
 11
53.830802
 21
5.487312
 31
0.0
  0
LINE
  5
34A
330
59C
100
AcDbEntity
  8
HATCH
  6
Continuous
 62
     7
370
    30
100
AcDbLine
 10
53.798323
 20
5.581062
 30
0.0
 11
53.798323
 21
5.543563
 31
0.0
  0
LINE
  5
34B
330
59C
100
AcDbEntity
  8
HATCH
  6
Continuous
 62
     7
370
    30
100
AcDbLine
 10
53.798323
 20
5.468562
 30
0.0
 11
53.798323
 21
5.431062
 31
0.0
  0
LINE
  5
34C
330
59C
100
AcDbEntity
  8
HATCH
  6
Continuous
 62
     7
370
    30
100
AcDbLine
 10
53.765844
 20
5.524812
 30
0.0
 11
53.765844
 21
5.487312
 31
0.0
  0
LINE
  5
34D
330
59C
100
AcDbEntity
  8
HATCH
  6
Continuous
 62
     7
370
    30
100
AcDbLine
 10
53.733375
 20
5.552417
 30
0.0
 11
53.733375
 21
5.543563
 31
0.0
  0
LINE
  5
34E
330
59C
100
AcDbEntity
  8
HATCH
  6
Continuous
 62
     7
370
    30
100
AcDbLine
 10
53.733375
 20
5.468562
 30
0.0
 11
53.733375
 21
5.431062
 31
0.0
  0
LINE
  5
34F
330
59C
100
AcDbEntity
  8
HATCH
  6
Continuous
 62
     7
370
    30
100
AcDbLine
 10
53.700896
 20
5.524812
 30
0.0
 11
53.700896
 21
5.487312
 31
0.0
  0
LINE
  5
350
330
59C
100
AcDbEntity
  8
HATCH
  6
Continuous
 62
     7
370
    30
100
AcDbLine
 10
53.668417
 20
5.468562
 30
0.0
 11
53.668417
 21
5.431062
 31
0.0
  0
LINE
  5
351
330
59C
100
AcDbEntity
  8
HATCH
  6
Continuous
 62
     7
370
    30
100
AcDbLine
 10
53.635948
 20
5.503771
 30
0.0
 11
53.635948
 21
5.487312
 31
0.0
  0
LINE
  5
352
330
59C
100
AcDbEntity
  8
HATCH
  6
Continuous
 62
     7
370
    30
100
AcDbLine
 10
53.603469
 20
5.468562
 30
0.0
 11
53.603469
 21
5.431062
 31
0.0
  0
LINE
  5
353
330
59C
100
AcDbEntity
  8
HATCH
  6
Continuous
 62
     7
370
    30
100
AcDbLine
 10
53.538521
 20
5.455125
 30
0.0
 11
53.538521
 21
5.431062
 31
0.0
  0
LINE
  5
354
330
59C
100
AcDbEntity
  8
HATCH
  6
Continuous
 62
     7
370
    30
100
AcDbLine
 10
53.789938
 20
5.426219
 30
0.0
 11
53.798323
 21
5.431062
 31
0.0
  0
LINE
  5
355
330
59C
100
AcDbEntity
  8
HATCH
  6
Continuous
 62
     7
370
    30
100
AcDbLine
 10
53.863271
 20
5.468562
 30
0.0
 11
53.89575
 21
5.487312
 31
0.0
  0
LINE
  5
356
330
59C
100
AcDbEntity
  8
HATCH
  6
Continuous
 62
     7
370
    30
100
AcDbLine
 10
53.960708
 20
5.524812
 30
0.0
 11
53.993177
 21
5.543563
 31
0.0
  0
LINE
  5
357
330
59C
100
AcDbEntity
  8
HATCH
  6
Continuous
 62
     7
370
    30
100
AcDbLine
 10
54.058135
 20
5.581062
 30
0.0
 11
54.090604
 21
5.599812
 31
0.0
  0
LINE
  5
358
330
59C
100
AcDbEntity
  8
HATCH
  6
Continuous
 62
     7
370
    30
100
AcDbLine
 10
54.155562
 20
5.637313
 30
0.0
 11
54.188031
 21
5.656062
 31
0.0
  0
LINE
  5
359
330
59C
100
AcDbEntity
  8
HATCH
  6
Continuous
 62
     7
370
    30
100
AcDbLine
 10
53.722562
 20
5.424823
 30
0.0
 11
53.733375
 21
5.431062
 31
0.0
  0
LINE
  5
35A
330
59C
100
AcDbEntity
  8
HATCH
  6
Continuous
 62
     7
370
    30
100
AcDbLine
 10
53.798323
 20
5.468562
 30
0.0
 11
53.830802
 21
5.487312
 31
0.0
  0
LINE
  5
35B
330
59C
100
AcDbEntity
  8
HATCH
  6
Continuous
 62
     7
370
    30
100
AcDbLine
 10
53.89575
 20
5.524812
 30
0.0
 11
53.928229
 21
5.543563
 31
0.0
  0
LINE
  5
35C
330
59C
100
AcDbEntity
  8
HATCH
  6
Continuous
 62
     7
370
    30
100
AcDbLine
 10
53.993177
 20
5.581062
 30
0.0
 11
54.025656
 21
5.599812
 31
0.0
  0
LINE
  5
35D
330
59C
100
AcDbEntity
  8
HATCH
  6
Continuous
 62
     7
370
    30
100
AcDbLine
 10
54.090604
 20
5.637313
 30
0.0
 11
54.123083
 21
5.656062
 31
0.0
  0
LINE
  5
35E
330
59C
100
AcDbEntity
  8
HATCH
  6
Continuous
 62
     7
370
    30
100
AcDbLine
 10
53.655177
 20
5.423417
 30
0.0
 11
53.668417
 21
5.431062
 31
0.0
  0
LINE
  5
35F
330
59C
100
AcDbEntity
  8
HATCH
  6
Continuous
 62
     7
370
    30
100
AcDbLine
 10
53.733375
 20
5.468562
 30
0.0
 11
53.765844
 21
5.487312
 31
0.0
  0
LINE
  5
360
330
59C
100
AcDbEntity
  8
HATCH
  6
Continuous
 62
     7
370
    30
100
AcDbLine
 10
53.830802
 20
5.524812
 30
0.0
 11
53.863271
 21
5.543563
 31
0.0
  0
LINE
  5
361
330
59C
100
AcDbEntity
  8
HATCH
  6
Continuous
 62
     7
370
    30
100
AcDbLine
 10
53.928229
 20
5.581062
 30
0.0
 11
53.960708
 21
5.599812
 31
0.0
  0
LINE
  5
362
330
59C
100
AcDbEntity
  8
HATCH
  6
Continuous
 62
     7
370
    30
100
AcDbLine
 10
54.025656
 20
5.637313
 30
0.0
 11
54.058135
 21
5.656062
 31
0.0
  0
LINE
  5
363
330
59C
100
AcDbEntity
  8
HATCH
  6
Continuous
 62
     7
370
    30
100
AcDbLine
 10
53.587792
 20
5.42201
 30
0.0
 11
53.603469
 21
5.431062
 31
0.0
  0
LINE
  5
364
330
59C
100
AcDbEntity
  8
HATCH
  6
Continuous
 62
     7
370
    30
100
AcDbLine
 10
53.668417
 20
5.468562
 30
0.0
 11
53.700896
 21
5.487312
 31
0.0
  0
LINE
  5
365
330
59C
100
AcDbEntity
  8
HATCH
  6
Continuous
 62
     7
370
    30
100
AcDbLine
 10
53.765844
 20
5.524812
 30
0.0
 11
53.798323
 21
5.543563
 31
0.0
  0
LINE
  5
366
330
59C
100
AcDbEntity
  8
HATCH
  6
Continuous
 62
     7
370
    30
100
AcDbLine
 10
53.863271
 20
5.581062
 30
0.0
 11
53.89575
 21
5.599812
 31
0.0
  0
LINE
  5
367
330
59C
100
AcDbEntity
  8
HATCH
  6
Continuous
 62
     7
370
    30
100
AcDbLine
 10
53.960708
 20
5.637313
 30
0.0
 11
53.993177
 21
5.656062
 31
0.0
  0
LINE
  5
368
330
59C
100
AcDbEntity
  8
HATCH
  6
Continuous
 62
     7
370
    30
100
AcDbLine
 10
53.520406
 20
5.420604
 30
0.0
 11
53.538521
 21
5.431062
 31
0.0
  0
LINE
  5
369
330
59C
100
AcDbEntity
  8
HATCH
  6
Continuous
 62
     7
370
    30
100
AcDbLine
 10
53.603469
 20
5.468562
 30
0.0
 11
53.635948
 21
5.487312
 31
0.0
  0
LINE
  5
36A
330
59C
100
AcDbEntity
  8
HATCH
  6
Continuous
 62
     7
370
    30
100
AcDbLine
 10
53.700896
 20
5.524812
 30
0.0
 11
53.733375
 21
5.543563
 31
0.0
  0
LINE
  5
36B
330
59C
100
AcDbEntity
  8
HATCH
  6
Continuous
 62
     7
370
    30
100
AcDbLine
 10
53.798323
 20
5.581062
 30
0.0
 11
53.830802
 21
5.599812
 31
0.0
  0
LINE
  5
36C
330
59C
100
AcDbEntity
  8
HATCH
  6
Continuous
 62
     7
370
    30
100
AcDbLine
 10
53.857323
 20
5.427625
 30
0.0
 11
53.863271
 21
5.431062
 31
0.0
  0
LINE
  5
36D
330
59C
100
AcDbEntity
  8
HATCH
  6
Continuous
 62
     7
370
    30
100
AcDbLine
 10
53.928229
 20
5.468562
 30
0.0
 11
53.960708
 21
5.487312
 31
0.0
  0
LINE
  5
36E
330
59C
100
AcDbEntity
  8
HATCH
  6
Continuous
 62
     7
370
    30
100
AcDbLine
 10
54.025656
 20
5.524812
 30
0.0
 11
54.058135
 21
5.543563
 31
0.0
  0
LINE
  5
36F
330
59C
100
AcDbEntity
  8
HATCH
  6
Continuous
 62
     7
370
    30
100
AcDbLine
 10
54.123083
 20
5.581062
 30
0.0
 11
54.155562
 21
5.599812
 31
0.0
  0
LINE
  5
370
330
59C
100
AcDbEntity
  8
HATCH
  6
Continuous
 62
     7
370
    30
100
AcDbLine
 10
54.22051
 20
5.637313
 30
0.0
 11
54.25299
 21
5.656062
 31
0.0
  0
LINE
  5
371
330
59C
100
AcDbEntity
  8
HATCH
  6
Continuous
 62
     7
370
    30
100
AcDbLine
 10
53.924708
 20
5.429031
 30
0.0
 11
53.928229
 21
5.431062
 31
0.0
  0
LINE
  5
372
330
59C
100
AcDbEntity
  8
HATCH
  6
Continuous
 62
     7
370
    30
100
AcDbLine
 10
53.993177
 20
5.468562
 30
0.0
 11
54.025656
 21
5.487312
 31
0.0
  0
LINE
  5
373
330
59C
100
AcDbEntity
  8
HATCH
  6
Continuous
 62
     7
370
    30
100
AcDbLine
 10
54.090604
 20
5.524812
 30
0.0
 11
54.123083
 21
5.543563
 31
0.0
  0
LINE
  5
374
330
59C
100
AcDbEntity
  8
HATCH
  6
Continuous
 62
     7
370
    30
100
AcDbLine
 10
54.188031
 20
5.581062
 30
0.0
 11
54.22051
 21
5.599812
 31
0.0
  0
LINE
  5
375
330
59C
100
AcDbEntity
  8
HATCH
  6
Continuous
 62
     7
370
    30
100
AcDbLine
 10
54.285458
 20
5.637313
 30
0.0
 11
54.317937
 21
5.656062
 31
0.0
  0
LINE
  5
376
330
59C
100
AcDbEntity
  8
HATCH
  6
Continuous
 62
     7
370
    30
100
AcDbLine
 10
53.992094
 20
5.430438
 30
0.0
 11
53.993177
 21
5.431062
 31
0.0
  0
LINE
  5
377
330
59C
100
AcDbEntity
  8
HATCH
  6
Continuous
 62
     7
370
    30
100
AcDbLine
 10
54.058135
 20
5.468562
 30
0.0
 11
54.090604
 21
5.487312
 31
0.0
  0
LINE
  5
378
330
59C
100
AcDbEntity
  8
HATCH
  6
Continuous
 62
     7
370
    30
100
AcDbLine
 10
54.155562
 20
5.524812
 30
0.0
 11
54.188031
 21
5.543563
 31
0.0
  0
LINE
  5
379
330
59C
100
AcDbEntity
  8
HATCH
  6
Continuous
 62
     7
370
    30
100
AcDbLine
 10
54.25299
 20
5.581062
 30
0.0
 11
54.285458
 21
5.599812
 31
0.0
  0
LINE
  5
37A
330
59C
100
AcDbEntity
  8
HATCH
  6
Continuous
 62
     7
370
    30
100
AcDbLine
 10
54.350417
 20
5.637313
 30
0.0
 11
54.382896
 21
5.656062
 31
0.0
  0
LINE
  5
37B
330
59C
100
AcDbEntity
  8
HATCH
  6
Continuous
 62
     7
370
    30
100
AcDbLine
 10
54.123083
 20
5.468562
 30
0.0
 11
54.155562
 21
5.487312
 31
0.0
  0
LINE
  5
37C
330
59C
100
AcDbEntity
  8
HATCH
  6
Continuous
 62
     7
370
    30
100
AcDbLine
 10
54.22051
 20
5.524812
 30
0.0
 11
54.25299
 21
5.543563
 31
0.0
  0
LINE
  5
37D
330
59C
100
AcDbEntity
  8
HATCH
  6
Continuous
 62
     7
370
    30
100
AcDbLine
 10
54.317937
 20
5.581062
 30
0.0
 11
54.350417
 21
5.599812
 31
0.0
  0
LINE
  5
37E
330
59C
100
AcDbEntity
  8
HATCH
  6
Continuous
 62
     7
370
    30
100
AcDbLine
 10
54.415365
 20
5.637313
 30
0.0
 11
54.447844
 21
5.656062
 31
0.0
  0
LINE
  5
37F
330
59C
100
AcDbEntity
  8
HATCH
  6
Continuous
 62
     7
370
    30
100
AcDbLine
 10
54.512792
 20
5.693562
 30
0.0
 11
54.513813
 21
5.694146
 31
0.0
  0
LINE
  5
380
330
59C
100
AcDbEntity
  8
HATCH
  6
Continuous
 62
     7
370
    30
100
AcDbLine
 10
54.188031
 20
5.468562
 30
0.0
 11
54.22051
 21
5.487312
 31
0.0
  0
LINE
  5
381
330
59C
100
AcDbEntity
  8
HATCH
  6
Continuous
 62
     7
370
    30
100
AcDbLine
 10
54.285458
 20
5.524812
 30
0.0
 11
54.317937
 21
5.543563
 31
0.0
  0
LINE
  5
382
330
59C
100
AcDbEntity
  8
HATCH
  6
Continuous
 62
     7
370
    30
100
AcDbLine
 10
54.382896
 20
5.581062
 30
0.0
 11
54.415365
 21
5.599812
 31
0.0
  0
LINE
  5
383
330
59C
100
AcDbEntity
  8
HATCH
  6
Continuous
 62
     7
370
    30
100
AcDbLine
 10
54.480323
 20
5.637313
 30
0.0
 11
54.512792
 21
5.656062
 31
0.0
  0
LINE
  5
384
330
59C
100
AcDbEntity
  8
HATCH
  6
Continuous
 62
     7
370
    30
100
AcDbLine
 10
54.57775
 20
5.693562
 30
0.0
 11
54.581198
 21
5.695552
 31
0.0
  0
LINE
  5
385
330
59C
100
AcDbEntity
  8
HATCH
  6
Continuous
 62
     7
370
    30
100
AcDbLine
 10
54.25299
 20
5.468562
 30
0.0
 11
54.285458
 21
5.487312
 31
0.0
  0
LINE
  5
386
330
59C
100
AcDbEntity
  8
HATCH
  6
Continuous
 62
     7
370
    30
100
AcDbLine
 10
54.350417
 20
5.524812
 30
0.0
 11
54.382896
 21
5.543563
 31
0.0
  0
LINE
  5
387
330
59C
100
AcDbEntity
  8
HATCH
  6
Continuous
 62
     7
370
    30
100
AcDbLine
 10
54.447844
 20
5.581062
 30
0.0
 11
54.480323
 21
5.599812
 31
0.0
  0
LINE
  5
388
330
59C
100
AcDbEntity
  8
HATCH
  6
Continuous
 62
     7
370
    30
100
AcDbLine
 10
54.545271
 20
5.637313
 30
0.0
 11
54.57775
 21
5.656062
 31
0.0
  0
LINE
  5
389
330
59C
100
AcDbEntity
  8
HATCH
  6
Continuous
 62
     7
370
    30
100
AcDbLine
 10
54.642698
 20
5.693562
 30
0.0
 11
54.648583
 21
5.696958
 31
0.0
  0
LINE
  5
38A
330
59C
100
AcDbEntity
  8
HATCH
  6
Continuous
 62
     7
370
    30
100
AcDbLine
 10
54.317937
 20
5.468562
 30
0.0
 11
54.350417
 21
5.487312
 31
0.0
  0
LINE
  5
38B
330
59C
100
AcDbEntity
  8
HATCH
  6
Continuous
 62
     7
370
    30
100
AcDbLine
 10
54.415365
 20
5.524812
 30
0.0
 11
54.447844
 21
5.543563
 31
0.0
  0
LINE
  5
38C
330
59C
100
AcDbEntity
  8
HATCH
  6
Continuous
 62
     7
370
    30
100
AcDbLine
 10
54.512792
 20
5.581062
 30
0.0
 11
54.545271
 21
5.599812
 31
0.0
  0
LINE
  5
38D
330
59C
100
AcDbEntity
  8
HATCH
  6
Continuous
 62
     7
370
    30
100
AcDbLine
 10
53.934125
 20
5.652656
 30
0.0
 11
53.960708
 21
5.637313
 31
0.0
  0
LINE
  5
38E
330
59C
100
AcDbEntity
  8
HATCH
  6
Continuous
 62
     7
370
    30
100
AcDbLine
 10
54.025656
 20
5.599812
 30
0.0
 11
54.058135
 21
5.581062
 31
0.0
  0
LINE
  5
38F
330
59C
100
AcDbEntity
  8
HATCH
  6
Continuous
 62
     7
370
    30
100
AcDbLine
 10
54.123083
 20
5.543563
 30
0.0
 11
54.155562
 21
5.524812
 31
0.0
  0
LINE
  5
390
330
59C
100
AcDbEntity
  8
HATCH
  6
Continuous
 62
     7
370
    30
100
AcDbLine
 10
54.22051
 20
5.487312
 30
0.0
 11
54.25299
 21
5.468562
 31
0.0
  0
LINE
  5
391
330
59C
100
AcDbEntity
  8
HATCH
  6
Continuous
 62
     7
370
    30
100
AcDbLine
 10
53.993177
 20
5.656062
 30
0.0
 11
54.025656
 21
5.637313
 31
0.0
  0
LINE
  5
392
330
59C
100
AcDbEntity
  8
HATCH
  6
Continuous
 62
     7
370
    30
100
AcDbLine
 10
54.090604
 20
5.599812
 30
0.0
 11
54.123083
 21
5.581062
 31
0.0
  0
LINE
  5
393
330
59C
100
AcDbEntity
  8
HATCH
  6
Continuous
 62
     7
370
    30
100
AcDbLine
 10
54.188031
 20
5.543563
 30
0.0
 11
54.22051
 21
5.524812
 31
0.0
  0
LINE
  5
394
330
59C
100
AcDbEntity
  8
HATCH
  6
Continuous
 62
     7
370
    30
100
AcDbLine
 10
54.285458
 20
5.487312
 30
0.0
 11
54.317937
 21
5.468562
 31
0.0
  0
LINE
  5
395
330
59C
100
AcDbEntity
  8
HATCH
  6
Continuous
 62
     7
370
    30
100
AcDbLine
 10
54.058135
 20
5.656062
 30
0.0
 11
54.090604
 21
5.637313
 31
0.0
  0
LINE
  5
396
330
59C
100
AcDbEntity
  8
HATCH
  6
Continuous
 62
     7
370
    30
100
AcDbLine
 10
54.155562
 20
5.599812
 30
0.0
 11
54.188031
 21
5.581062
 31
0.0
  0
LINE
  5
397
330
59C
100
AcDbEntity
  8
HATCH
  6
Continuous
 62
     7
370
    30
100
AcDbLine
 10
54.25299
 20
5.543563
 30
0.0
 11
54.285458
 21
5.524812
 31
0.0
  0
LINE
  5
398
330
59C
100
AcDbEntity
  8
HATCH
  6
Continuous
 62
     7
370
    30
100
AcDbLine
 10
54.350417
 20
5.487312
 30
0.0
 11
54.378156
 21
5.471292
 31
0.0
  0
LINE
  5
399
330
59C
100
AcDbEntity
  8
HATCH
  6
Continuous
 62
     7
370
    30
100
AcDbLine
 10
54.123083
 20
5.656062
 30
0.0
 11
54.155562
 21
5.637313
 31
0.0
  0
LINE
  5
39A
330
59C
100
AcDbEntity
  8
HATCH
  6
Continuous
 62
     7
370
    30
100
AcDbLine
 10
54.22051
 20
5.599812
 30
0.0
 11
54.25299
 21
5.581062
 31
0.0
  0
LINE
  5
39B
330
59C
100
AcDbEntity
  8
HATCH
  6
Continuous
 62
     7
370
    30
100
AcDbLine
 10
54.317937
 20
5.543563
 30
0.0
 11
54.350417
 21
5.524812
 31
0.0
  0
LINE
  5
39C
330
59C
100
AcDbEntity
  8
HATCH
  6
Continuous
 62
     7
370
    30
100
AcDbLine
 10
54.188031
 20
5.656062
 30
0.0
 11
54.22051
 21
5.637313
 31
0.0
  0
LINE
  5
39D
330
59C
100
AcDbEntity
  8
HATCH
  6
Continuous
 62
     7
370
    30
100
AcDbLine
 10
54.285458
 20
5.599812
 30
0.0
 11
54.317937
 21
5.581062
 31
0.0
  0
LINE
  5
39E
330
59C
100
AcDbEntity
  8
HATCH
  6
Continuous
 62
     7
370
    30
100
AcDbLine
 10
54.382896
 20
5.543563
 30
0.0
 11
54.415365
 21
5.524812
 31
0.0
  0
LINE
  5
39F
330
59C
100
AcDbEntity
  8
HATCH
  6
Continuous
 62
     7
370
    30
100
AcDbLine
 10
54.25299
 20
5.656062
 30
0.0
 11
54.285458
 21
5.637313
 31
0.0
  0
LINE
  5
3A0
330
59C
100
AcDbEntity
  8
HATCH
  6
Continuous
 62
     7
370
    30
100
AcDbLine
 10
54.350417
 20
5.599812
 30
0.0
 11
54.382896
 21
5.581062
 31
0.0
  0
LINE
  5
3A1
330
59C
100
AcDbEntity
  8
HATCH
  6
Continuous
 62
     7
370
    30
100
AcDbLine
 10
54.447844
 20
5.543563
 30
0.0
 11
54.464479
 21
5.533958
 31
0.0
  0
LINE
  5
3A2
330
59C
100
AcDbEntity
  8
HATCH
  6
Continuous
 62
     7
370
    30
100
AcDbLine
 10
54.317937
 20
5.656062
 30
0.0
 11
54.350417
 21
5.637313
 31
0.0
  0
LINE
  5
3A3
330
59C
100
AcDbEntity
  8
HATCH
  6
Continuous
 62
     7
370
    30
100
AcDbLine
 10
54.415365
 20
5.599812
 30
0.0
 11
54.447844
 21
5.581062
 31
0.0
  0
LINE
  5
3A4
330
59C
100
AcDbEntity
  8
HATCH
  6
Continuous
 62
     7
370
    30
100
AcDbLine
 10
54.382896
 20
5.656062
 30
0.0
 11
54.415365
 21
5.637313
 31
0.0
  0
LINE
  5
3A5
330
59C
100
AcDbEntity
  8
HATCH
  6
Continuous
 62
     7
370
    30
100
AcDbLine
 10
54.480323
 20
5.599812
 30
0.0
 11
54.512792
 21
5.581062
 31
0.0
  0
LINE
  5
3A6
330
59C
100
AcDbEntity
  8
HATCH
  6
Continuous
 62
     7
370
    30
100
AcDbLine
 10
54.447844
 20
5.656062
 30
0.0
 11
54.480323
 21
5.637313
 31
0.0
  0
LINE
  5
3A7
330
59C
100
AcDbEntity
  8
HATCH
  6
Continuous
 62
     7
370
    30
100
AcDbLine
 10
54.545271
 20
5.599812
 30
0.0
 11
54.550802
 21
5.596625
 31
0.0
  0
LINE
  5
3A8
330
59C
100
AcDbEntity
  8
HATCH
  6
Continuous
 62
     7
370
    30
100
AcDbLine
 10
54.512792
 20
5.656062
 30
0.0
 11
54.545271
 21
5.637313
 31
0.0
  0
LINE
  5
3A9
330
59C
100
AcDbEntity
  8
HATCH
  6
Continuous
 62
     7
370
    30
100
AcDbLine
 10
54.511854
 20
5.694104
 30
0.0
 11
54.512792
 21
5.693562
 31
0.0
  0
LINE
  5
3AA
330
59C
100
AcDbEntity
  8
HATCH
  6
Continuous
 62
     7
370
    30
100
AcDbLine
 10
54.57775
 20
5.656062
 30
0.0
 11
54.608344
 21
5.638396
 31
0.0
  0
LINE
  5
3AB
330
59C
100
AcDbEntity
  8
HATCH
  6
Continuous
 62
     7
370
    30
100
AcDbLine
 10
54.574542
 20
5.695417
 30
0.0
 11
54.57775
 21
5.693562
 31
0.0
  0
LINE
  5
3AC
330
59C
100
AcDbEntity
  8
HATCH
  6
Continuous
 62
     7
370
    30
100
AcDbLine
 10
54.637229
 20
5.696719
 30
0.0
 11
54.642698
 21
5.693562
 31
0.0
  0
LINE
  5
3AD
330
59C
100
AcDbEntity
  8
HATCH
  6
Continuous
 62
     7
370
    30
100
AcDbLine
 10
53.960708
 20
5.599812
 30
0.0
 11
53.993177
 21
5.581062
 31
0.0
  0
LINE
  5
3AE
330
59C
100
AcDbEntity
  8
HATCH
  6
Continuous
 62
     7
370
    30
100
AcDbLine
 10
54.058135
 20
5.543563
 30
0.0
 11
54.090604
 21
5.524812
 31
0.0
  0
LINE
  5
3AF
330
59C
100
AcDbEntity
  8
HATCH
  6
Continuous
 62
     7
370
    30
100
AcDbLine
 10
54.155562
 20
5.487312
 30
0.0
 11
54.188031
 21
5.468562
 31
0.0
  0
LINE
  5
3B0
330
59C
100
AcDbEntity
  8
HATCH
  6
Continuous
 62
     7
370
    30
100
AcDbLine
 10
53.89575
 20
5.599812
 30
0.0
 11
53.928229
 21
5.581062
 31
0.0
  0
LINE
  5
3B1
330
59C
100
AcDbEntity
  8
HATCH
  6
Continuous
 62
     7
370
    30
100
AcDbLine
 10
53.993177
 20
5.543563
 30
0.0
 11
54.025656
 21
5.524812
 31
0.0
  0
LINE
  5
3B2
330
59C
100
AcDbEntity
  8
HATCH
  6
Continuous
 62
     7
370
    30
100
AcDbLine
 10
54.090604
 20
5.487312
 30
0.0
 11
54.123083
 21
5.468562
 31
0.0
  0
LINE
  5
3B3
330
59C
100
AcDbEntity
  8
HATCH
  6
Continuous
 62
     7
370
    30
100
AcDbLine
 10
53.830802
 20
5.599812
 30
0.0
 11
53.863271
 21
5.581062
 31
0.0
  0
LINE
  5
3B4
330
59C
100
AcDbEntity
  8
HATCH
  6
Continuous
 62
     7
370
    30
100
AcDbLine
 10
53.928229
 20
5.543563
 30
0.0
 11
53.960708
 21
5.524812
 31
0.0
  0
LINE
  5
3B5
330
59C
100
AcDbEntity
  8
HATCH
  6
Continuous
 62
     7
370
    30
100
AcDbLine
 10
54.025656
 20
5.487312
 30
0.0
 11
54.058135
 21
5.468562
 31
0.0
  0
LINE
  5
3B6
330
59C
100
AcDbEntity
  8
HATCH
  6
Continuous
 62
     7
370
    30
100
AcDbLine
 10
53.794802
 20
5.583094
 30
0.0
 11
53.798323
 21
5.581062
 31
0.0
  0
LINE
  5
3B7
330
59C
100
AcDbEntity
  8
HATCH
  6
Continuous
 62
     7
370
    30
100
AcDbLine
 10
53.863271
 20
5.543563
 30
0.0
 11
53.89575
 21
5.524812
 31
0.0
  0
LINE
  5
3B8
330
59C
100
AcDbEntity
  8
HATCH
  6
Continuous
 62
     7
370
    30
100
AcDbLine
 10
53.960708
 20
5.487312
 30
0.0
 11
53.993177
 21
5.468562
 31
0.0
  0
LINE
  5
3B9
330
59C
100
AcDbEntity
  8
HATCH
  6
Continuous
 62
     7
370
    30
100
AcDbLine
 10
53.798323
 20
5.543563
 30
0.0
 11
53.830802
 21
5.524812
 31
0.0
  0
LINE
  5
3BA
330
59C
100
AcDbEntity
  8
HATCH
  6
Continuous
 62
     7
370
    30
100
AcDbLine
 10
53.89575
 20
5.487312
 30
0.0
 11
53.928229
 21
5.468562
 31
0.0
  0
LINE
  5
3BB
330
59C
100
AcDbEntity
  8
HATCH
  6
Continuous
 62
     7
370
    30
100
AcDbLine
 10
53.993177
 20
5.431062
 30
0.0
 11
53.994187
 21
5.430479
 31
0.0
  0
LINE
  5
3BC
330
59C
100
AcDbEntity
  8
HATCH
  6
Continuous
 62
     7
370
    30
100
AcDbLine
 10
53.733375
 20
5.543563
 30
0.0
 11
53.765844
 21
5.524812
 31
0.0
  0
LINE
  5
3BD
330
59C
100
AcDbEntity
  8
HATCH
  6
Continuous
 62
     7
370
    30
100
AcDbLine
 10
53.830802
 20
5.487312
 30
0.0
 11
53.863271
 21
5.468562
 31
0.0
  0
LINE
  5
3BE
330
59C
100
AcDbEntity
  8
HATCH
  6
Continuous
 62
     7
370
    30
100
AcDbLine
 10
53.928229
 20
5.431062
 30
0.0
 11
53.9315
 21
5.429167
 31
0.0
  0
LINE
  5
3BF
330
59C
100
AcDbEntity
  8
HATCH
  6
Continuous
 62
     7
370
    30
100
AcDbLine
 10
53.690312
 20
5.530917
 30
0.0
 11
53.700896
 21
5.524812
 31
0.0
  0
LINE
  5
3C0
330
59C
100
AcDbEntity
  8
HATCH
  6
Continuous
 62
     7
370
    30
100
AcDbLine
 10
53.765844
 20
5.487312
 30
0.0
 11
53.798323
 21
5.468562
 31
0.0
  0
LINE
  5
3C1
330
59C
100
AcDbEntity
  8
HATCH
  6
Continuous
 62
     7
370
    30
100
AcDbLine
 10
53.863271
 20
5.431062
 30
0.0
 11
53.868812
 21
5.427865
 31
0.0
  0
LINE
  5
3C2
330
59C
100
AcDbEntity
  8
HATCH
  6
Continuous
 62
     7
370
    30
100
AcDbLine
 10
53.700896
 20
5.487312
 30
0.0
 11
53.733375
 21
5.468562
 31
0.0
  0
LINE
  5
3C3
330
59C
100
AcDbEntity
  8
HATCH
  6
Continuous
 62
     7
370
    30
100
AcDbLine
 10
53.798323
 20
5.431062
 30
0.0
 11
53.806125
 21
5.426563
 31
0.0
  0
LINE
  5
3C4
330
59C
100
AcDbEntity
  8
HATCH
  6
Continuous
 62
     7
370
    30
100
AcDbLine
 10
53.635948
 20
5.487312
 30
0.0
 11
53.668417
 21
5.468562
 31
0.0
  0
LINE
  5
3C5
330
59C
100
AcDbEntity
  8
HATCH
  6
Continuous
 62
     7
370
    30
100
AcDbLine
 10
53.733375
 20
5.431062
 30
0.0
 11
53.743437
 21
5.42525
 31
0.0
  0
LINE
  5
3C6
330
59C
100
AcDbEntity
  8
HATCH
  6
Continuous
 62
     7
370
    30
100
AcDbLine
 10
53.585833
 20
5.47875
 30
0.0
 11
53.603469
 21
5.468562
 31
0.0
  0
LINE
  5
3C7
330
59C
100
AcDbEntity
  8
HATCH
  6
Continuous
 62
     7
370
    30
100
AcDbLine
 10
53.668417
 20
5.431062
 30
0.0
 11
53.68074
 21
5.423948
 31
0.0
  0
LINE
  5
3C8
330
59C
100
AcDbEntity
  8
HATCH
  6
Continuous
 62
     7
370
    30
100
AcDbLine
 10
53.603469
 20
5.431062
 30
0.0
 11
53.618052
 21
5.422646
 31
0.0
  0
LINE
  5
3C9
330
59C
100
AcDbEntity
  8
HATCH
  6
Continuous
 62
     7
370
    30
100
AcDbLine
 10
53.538521
 20
5.431062
 30
0.0
 11
53.555365
 21
5.421333
 31
0.0
  0
LINE
  5
3CA
330
59C
100
AcDbEntity
  8
HATCH
  6
Continuous
 62
     7
370
    30
100
AcDbLine
 10
53.481344
 20
5.426573
 30
0.0
 11
53.492677
 21
5.420031
 31
0.0
  0
LINE
  5
3CB
330
59C
100
AcDbEntity
  8
HATCH
  6
Continuous
 62
     7
370
    30
100
AcDbLine
 10
55.064885
 20
5.974812
 30
0.0
 11
55.113604
 21
5.946687
 31
0.0
  0
LINE
  5
3CC
330
59C
100
AcDbEntity
  8
HATCH
  6
Continuous
 62
     7
370
    30
100
AcDbLine
 10
55.162312
 20
5.918563
 30
0.0
 11
55.211031
 21
5.890437
 31
0.0
  0
LINE
  5
3CD
330
59C
100
AcDbEntity
  8
HATCH
  6
Continuous
 62
     7
370
    30
100
AcDbLine
 10
55.25974
 20
5.862312
 30
0.0
 11
55.308458
 21
5.834187
 31
0.0
  0
LINE
  5
3CE
330
59C
100
AcDbEntity
  8
HATCH
  6
Continuous
 62
     7
370
    30
100
AcDbLine
 10
55.357167
 20
5.806062
 30
0.0
 11
55.384708
 21
5.790156
 31
0.0
  0
LINE
  5
3CF
330
59C
100
AcDbEntity
  8
HATCH
  6
Continuous
 62
     7
370
    30
100
AcDbLine
 10
55.162312
 20
6.031062
 30
0.0
 11
55.211031
 21
6.002937
 31
0.0
  0
LINE
  5
3D0
330
59C
100
AcDbEntity
  8
HATCH
  6
Continuous
 62
     7
370
    30
100
AcDbLine
 10
55.25974
 20
5.974812
 30
0.0
 11
55.308458
 21
5.946687
 31
0.0
  0
LINE
  5
3D1
330
59C
100
AcDbEntity
  8
HATCH
  6
Continuous
 62
     7
370
    30
100
AcDbLine
 10
55.357167
 20
5.918563
 30
0.0
 11
55.405885
 21
5.890437
 31
0.0
  0
LINE
  5
3D2
330
59C
100
AcDbEntity
  8
HATCH
  6
Continuous
 62
     7
370
    30
100
AcDbLine
 10
55.454594
 20
5.862312
 30
0.0
 11
55.465698
 21
5.855906
 31
0.0
  0
LINE
  5
3D3
330
59C
100
AcDbEntity
  8
HATCH
  6
Continuous
 62
     7
370
    30
100
AcDbLine
 10
55.25974
 20
6.087312
 30
0.0
 11
55.308458
 21
6.059188
 31
0.0
  0
LINE
  5
3D4
330
59C
100
AcDbEntity
  8
HATCH
  6
Continuous
 62
     7
370
    30
100
AcDbLine
 10
55.357167
 20
6.031062
 30
0.0
 11
55.405885
 21
6.002937
 31
0.0
  0
LINE
  5
3D5
330
59C
100
AcDbEntity
  8
HATCH
  6
Continuous
 62
     7
370
    30
100
AcDbLine
 10
55.454594
 20
5.974812
 30
0.0
 11
55.503312
 21
5.946687
 31
0.0
  0
LINE
  5
3D6
330
59C
100
AcDbEntity
  8
HATCH
  6
Continuous
 62
     7
370
    30
100
AcDbLine
 10
55.363354
 20
6.13999
 30
0.0
 11
55.405885
 21
6.115437
 31
0.0
  0
LINE
  5
3D7
330
59C
100
AcDbEntity
  8
HATCH
  6
Continuous
 62
     7
370
    30
100
AcDbLine
 10
55.454594
 20
6.087312
 30
0.0
 11
55.503208
 21
6.05925
 31
0.0
  0
LINE
  5
3D8
330
59C
100
AcDbEntity
  8
HATCH
  6
Continuous
 62
     7
370
    30
100
AcDbLine
 10
54.967458
 20
5.918563
 30
0.0
 11
55.016177
 21
5.890437
 31
0.0
  0
LINE
  5
3D9
330
59C
100
AcDbEntity
  8
HATCH
  6
Continuous
 62
     7
370
    30
100
AcDbLine
 10
55.064885
 20
5.862312
 30
0.0
 11
55.113604
 21
5.834187
 31
0.0
  0
LINE
  5
3DA
330
59C
100
AcDbEntity
  8
HATCH
  6
Continuous
 62
     7
370
    30
100
AcDbLine
 10
55.162312
 20
5.806062
 30
0.0
 11
55.211031
 21
5.777938
 31
0.0
  0
LINE
  5
3DB
330
59C
100
AcDbEntity
  8
HATCH
  6
Continuous
 62
     7
370
    30
100
AcDbLine
 10
55.25974
 20
5.749812
 30
0.0
 11
55.303719
 21
5.724417
 31
0.0
  0
LINE
  5
3DC
330
59C
100
AcDbEntity
  8
HATCH
  6
Continuous
 62
     7
370
    30
100
AcDbLine
 10
54.870031
 20
5.862312
 30
0.0
 11
54.91874
 21
5.834187
 31
0.0
  0
LINE
  5
3DD
330
59C
100
AcDbEntity
  8
HATCH
  6
Continuous
 62
     7
370
    30
100
AcDbLine
 10
54.967458
 20
5.806062
 30
0.0
 11
55.016177
 21
5.777938
 31
0.0
  0
LINE
  5
3DE
330
59C
100
AcDbEntity
  8
HATCH
  6
Continuous
 62
     7
370
    30
100
AcDbLine
 10
55.064885
 20
5.749812
 30
0.0
 11
55.113604
 21
5.721687
 31
0.0
  0
LINE
  5
3DF
330
59C
100
AcDbEntity
  8
HATCH
  6
Continuous
 62
     7
370
    30
100
AcDbLine
 10
54.772604
 20
5.806062
 30
0.0
 11
54.821312
 21
5.777938
 31
0.0
  0
LINE
  5
3E0
330
59C
100
AcDbEntity
  8
HATCH
  6
Continuous
 62
     7
370
    30
100
AcDbLine
 10
54.870031
 20
5.749812
 30
0.0
 11
54.91874
 21
5.721687
 31
0.0
  0
LINE
  5
3E1
330
59C
100
AcDbEntity
  8
HATCH
  6
Continuous
 62
     7
370
    30
100
AcDbLine
 10
54.675177
 20
5.749812
 30
0.0
 11
54.723885
 21
5.721687
 31
0.0
  0
LINE
  5
3E2
330
59C
100
AcDbEntity
  8
HATCH
  6
Continuous
 62
     7
370
    30
100
AcDbLine
 10
54.527969
 20
5.722302
 30
0.0
 11
54.529031
 21
5.721687
 31
0.0
  0
LINE
  5
3E3
330
59C
100
AcDbEntity
  8
HATCH
  6
Continuous
 62
     7
370
    30
100
AcDbLine
 10
54.581198
 20
5.695552
 30
0.0
 11
54.626458
 21
5.721687
 31
0.0
  0
LINE
  5
3E4
330
59C
100
AcDbEntity
  8
HATCH
  6
Continuous
 62
     7
370
    30
100
AcDbLine
 10
54.675177
 20
5.749812
 30
0.0
 11
54.723885
 21
5.777938
 31
0.0
  0
LINE
  5
3E5
330
59C
100
AcDbEntity
  8
HATCH
  6
Continuous
 62
     7
370
    30
100
AcDbLine
 10
54.772604
 20
5.806062
 30
0.0
 11
54.821312
 21
5.834187
 31
0.0
  0
LINE
  5
3E6
330
59C
100
AcDbEntity
  8
HATCH
  6
Continuous
 62
     7
370
    30
100
AcDbLine
 10
54.870031
 20
5.862312
 30
0.0
 11
54.91874
 21
5.890437
 31
0.0
  0
LINE
  5
3E7
330
59C
100
AcDbEntity
  8
HATCH
  6
Continuous
 62
     7
370
    30
100
AcDbLine
 10
54.967458
 20
5.918563
 30
0.0
 11
55.016177
 21
5.946687
 31
0.0
  0
LINE
  5
3E8
330
59C
100
AcDbEntity
  8
HATCH
  6
Continuous
 62
     7
370
    30
100
AcDbLine
 10
55.064885
 20
5.974812
 30
0.0
 11
55.113604
 21
6.002937
 31
0.0
  0
LINE
  5
3E9
330
59C
100
AcDbEntity
  8
HATCH
  6
Continuous
 62
     7
370
    30
100
AcDbLine
 10
55.162312
 20
6.031062
 30
0.0
 11
55.211031
 21
6.059188
 31
0.0
  0
LINE
  5
3EA
330
59C
100
AcDbEntity
  8
HATCH
  6
Continuous
 62
     7
370
    30
100
AcDbLine
 10
55.25974
 20
6.087312
 30
0.0
 11
55.271094
 21
6.093865
 31
0.0
  0
LINE
  5
3EB
330
59C
100
AcDbEntity
  8
HATCH
  6
Continuous
 62
     7
370
    30
100
AcDbLine
 10
54.783344
 20
5.69976
 30
0.0
 11
54.821312
 21
5.721687
 31
0.0
  0
LINE
  5
3EC
330
59C
100
AcDbEntity
  8
HATCH
  6
Continuous
 62
     7
370
    30
100
AcDbLine
 10
54.870031
 20
5.749812
 30
0.0
 11
54.91874
 21
5.777938
 31
0.0
  0
LINE
  5
3ED
330
59C
100
AcDbEntity
  8
HATCH
  6
Continuous
 62
     7
370
    30
100
AcDbLine
 10
54.967458
 20
5.806062
 30
0.0
 11
55.016177
 21
5.834187
 31
0.0
  0
LINE
  5
3EE
330
59C
100
AcDbEntity
  8
HATCH
  6
Continuous
 62
     7
370
    30
100
AcDbLine
 10
55.064885
 20
5.862312
 30
0.0
 11
55.113604
 21
5.890437
 31
0.0
  0
LINE
  5
3EF
330
59C
100
AcDbEntity
  8
HATCH
  6
Continuous
 62
     7
370
    30
100
AcDbLine
 10
55.162312
 20
5.918563
 30
0.0
 11
55.211031
 21
5.946687
 31
0.0
  0
LINE
  5
3F0
330
59C
100
AcDbEntity
  8
HATCH
  6
Continuous
 62
     7
370
    30
100
AcDbLine
 10
55.25974
 20
5.974812
 30
0.0
 11
55.308458
 21
6.002937
 31
0.0
  0
LINE
  5
3F1
330
59C
100
AcDbEntity
  8
HATCH
  6
Continuous
 62
     7
370
    30
100
AcDbLine
 10
55.357167
 20
6.031062
 30
0.0
 11
55.405885
 21
6.059188
 31
0.0
  0
LINE
  5
3F2
330
59C
100
AcDbEntity
  8
HATCH
  6
Continuous
 62
     7
370
    30
100
AcDbLine
 10
55.454594
 20
6.087312
 30
0.0
 11
55.501135
 21
6.114177
 31
0.0
  0
LINE
  5
3F3
330
59C
100
AcDbEntity
  8
HATCH
  6
Continuous
 62
     7
370
    30
100
AcDbLine
 10
54.9855
 20
5.703979
 30
0.0
 11
55.016177
 21
5.721687
 31
0.0
  0
LINE
  5
3F4
330
59C
100
AcDbEntity
  8
HATCH
  6
Continuous
 62
     7
370
    30
100
AcDbLine
 10
55.064885
 20
5.749812
 30
0.0
 11
55.113604
 21
5.777938
 31
0.0
  0
LINE
  5
3F5
330
59C
100
AcDbEntity
  8
HATCH
  6
Continuous
 62
     7
370
    30
100
AcDbLine
 10
55.162312
 20
5.806062
 30
0.0
 11
55.211031
 21
5.834187
 31
0.0
  0
LINE
  5
3F6
330
59C
100
AcDbEntity
  8
HATCH
  6
Continuous
 62
     7
370
    30
100
AcDbLine
 10
55.25974
 20
5.862312
 30
0.0
 11
55.308458
 21
5.890437
 31
0.0
  0
LINE
  5
3F7
330
59C
100
AcDbEntity
  8
HATCH
  6
Continuous
 62
     7
370
    30
100
AcDbLine
 10
55.357167
 20
5.918563
 30
0.0
 11
55.405885
 21
5.946687
 31
0.0
  0
LINE
  5
3F8
330
59C
100
AcDbEntity
  8
HATCH
  6
Continuous
 62
     7
370
    30
100
AcDbLine
 10
55.454594
 20
5.974812
 30
0.0
 11
55.503312
 21
6.002937
 31
0.0
  0
LINE
  5
3F9
330
59C
100
AcDbEntity
  8
HATCH
  6
Continuous
 62
     7
370
    30
100
AcDbLine
 10
55.187646
 20
5.708188
 30
0.0
 11
55.211031
 21
5.721687
 31
0.0
  0
LINE
  5
3FA
330
59C
100
AcDbEntity
  8
HATCH
  6
Continuous
 62
     7
370
    30
100
AcDbLine
 10
55.25974
 20
5.749812
 30
0.0
 11
55.308458
 21
5.777938
 31
0.0
  0
LINE
  5
3FB
330
59C
100
AcDbEntity
  8
HATCH
  6
Continuous
 62
     7
370
    30
100
AcDbLine
 10
55.357167
 20
5.806062
 30
0.0
 11
55.405885
 21
5.834187
 31
0.0
  0
LINE
  5
3FC
330
59C
100
AcDbEntity
  8
HATCH
  6
Continuous
 62
     7
370
    30
100
AcDbLine
 10
55.454594
 20
5.862312
 30
0.0
 11
55.503312
 21
5.890437
 31
0.0
  0
LINE
  5
3FD
330
59C
100
AcDbEntity
  8
HATCH
  6
Continuous
 62
     7
370
    30
100
AcDbLine
 10
54.91874
 20
5.890437
 30
0.0
 11
54.91874
 21
5.834187
 31
0.0
  0
LINE
  5
3FE
330
59C
100
AcDbEntity
  8
HATCH
  6
Continuous
 62
     7
370
    30
100
AcDbLine
 10
54.91874
 20
5.777938
 30
0.0
 11
54.91874
 21
5.721687
 31
0.0
  0
LINE
  5
3FF
330
59C
100
AcDbEntity
  8
HATCH
  6
Continuous
 62
     7
370
    30
100
AcDbLine
 10
55.016177
 20
5.946687
 30
0.0
 11
55.016177
 21
5.890437
 31
0.0
  0
LINE
  5
400
330
59C
100
AcDbEntity
  8
HATCH
  6
Continuous
 62
     7
370
    30
100
AcDbLine
 10
55.016177
 20
5.834187
 30
0.0
 11
55.016177
 21
5.777938
 31
0.0
  0
LINE
  5
401
330
59C
100
AcDbEntity
  8
HATCH
  6
Continuous
 62
     7
370
    30
100
AcDbLine
 10
55.016177
 20
5.721687
 30
0.0
 11
55.016177
 21
5.704615
 31
0.0
  0
LINE
  5
402
330
59C
100
AcDbEntity
  8
HATCH
  6
Continuous
 62
     7
370
    30
100
AcDbLine
 10
55.113604
 20
6.002937
 30
0.0
 11
55.113604
 21
5.946687
 31
0.0
  0
LINE
  5
403
330
59C
100
AcDbEntity
  8
HATCH
  6
Continuous
 62
     7
370
    30
100
AcDbLine
 10
55.113604
 20
5.890437
 30
0.0
 11
55.113604
 21
5.834187
 31
0.0
  0
LINE
  5
404
330
59C
100
AcDbEntity
  8
HATCH
  6
Continuous
 62
     7
370
    30
100
AcDbLine
 10
55.113604
 20
5.777938
 30
0.0
 11
55.113604
 21
5.721687
 31
0.0
  0
LINE
  5
405
330
59C
100
AcDbEntity
  8
HATCH
  6
Continuous
 62
     7
370
    30
100
AcDbLine
 10
55.211031
 20
6.059188
 30
0.0
 11
55.211031
 21
6.002937
 31
0.0
  0
LINE
  5
406
330
59C
100
AcDbEntity
  8
HATCH
  6
Continuous
 62
     7
370
    30
100
AcDbLine
 10
55.211031
 20
5.946687
 30
0.0
 11
55.211031
 21
5.890437
 31
0.0
  0
LINE
  5
407
330
59C
100
AcDbEntity
  8
HATCH
  6
Continuous
 62
     7
370
    30
100
AcDbLine
 10
55.211031
 20
5.834187
 30
0.0
 11
55.211031
 21
5.777938
 31
0.0
  0
LINE
  5
408
330
59C
100
AcDbEntity
  8
HATCH
  6
Continuous
 62
     7
370
    30
100
AcDbLine
 10
55.211031
 20
5.721687
 30
0.0
 11
55.211031
 21
5.708677
 31
0.0
  0
LINE
  5
409
330
59C
100
AcDbEntity
  8
HATCH
  6
Continuous
 62
     7
370
    30
100
AcDbLine
 10
55.308458
 20
6.112552
 30
0.0
 11
55.308458
 21
6.059188
 31
0.0
  0
LINE
  5
40A
330
59C
100
AcDbEntity
  8
HATCH
  6
Continuous
 62
     7
370
    30
100
AcDbLine
 10
55.308458
 20
6.002937
 30
0.0
 11
55.308458
 21
5.946687
 31
0.0
  0
LINE
  5
40B
330
59C
100
AcDbEntity
  8
HATCH
  6
Continuous
 62
     7
370
    30
100
AcDbLine
 10
55.308458
 20
5.890437
 30
0.0
 11
55.308458
 21
5.834187
 31
0.0
  0
LINE
  5
40C
330
59C
100
AcDbEntity
  8
HATCH
  6
Continuous
 62
     7
370
    30
100
AcDbLine
 10
55.308458
 20
5.777938
 30
0.0
 11
55.308458
 21
5.72826
 31
0.0
  0
LINE
  5
40D
330
59C
100
AcDbEntity
  8
HATCH
  6
Continuous
 62
     7
370
    30
100
AcDbLine
 10
55.405885
 20
6.146198
 30
0.0
 11
55.405885
 21
6.115437
 31
0.0
  0
LINE
  5
40E
330
59C
100
AcDbEntity
  8
HATCH
  6
Continuous
 62
     7
370
    30
100
AcDbLine
 10
55.405885
 20
6.059188
 30
0.0
 11
55.405885
 21
6.002937
 31
0.0
  0
LINE
  5
40F
330
59C
100
AcDbEntity
  8
HATCH
  6
Continuous
 62
     7
370
    30
100
AcDbLine
 10
55.405885
 20
5.946687
 30
0.0
 11
55.405885
 21
5.890437
 31
0.0
  0
LINE
  5
410
330
59C
100
AcDbEntity
  8
HATCH
  6
Continuous
 62
     7
370
    30
100
AcDbLine
 10
55.405885
 20
5.834187
 30
0.0
 11
55.405885
 21
5.807344
 31
0.0
  0
LINE
  5
411
330
59C
100
AcDbEntity
  8
HATCH
  6
Continuous
 62
     7
370
    30
100
AcDbLine
 10
55.503312
 20
6.002937
 30
0.0
 11
55.503312
 21
5.946687
 31
0.0
  0
LINE
  5
412
330
59C
100
AcDbEntity
  8
HATCH
  6
Continuous
 62
     7
370
    30
100
AcDbLine
 10
55.503312
 20
5.890437
 30
0.0
 11
55.503312
 21
5.886427
 31
0.0
  0
LINE
  5
413
330
59C
100
AcDbEntity
  8
HATCH
  6
Continuous
 62
     7
370
    30
100
AcDbLine
 10
54.821312
 20
5.834187
 30
0.0
 11
54.821312
 21
5.777938
 31
0.0
  0
LINE
  5
414
330
59C
100
AcDbEntity
  8
HATCH
  6
Continuous
 62
     7
370
    30
100
AcDbLine
 10
54.821312
 20
5.721687
 30
0.0
 11
54.821312
 21
5.700552
 31
0.0
  0
LINE
  5
415
330
59C
100
AcDbEntity
  8
HATCH
  6
Continuous
 62
     7
370
    30
100
AcDbLine
 10
54.723885
 20
5.777938
 30
0.0
 11
54.723885
 21
5.721687
 31
0.0
  0
LINE
  5
416
330
59C
100
AcDbEntity
  8
HATCH
  6
Continuous
 62
     7
370
    30
100
AcDbLine
 10
54.626458
 20
5.721687
 30
0.0
 11
54.626458
 21
5.6965
 31
0.0
  0
LINE
  5
417
330
59C
100
AcDbEntity
  8
HATCH
  6
Continuous
 62
     7
370
    30
100
AcDbLine
 10
54.529031
 20
5.722833
 30
0.0
 11
54.529031
 21
5.721687
 31
0.0
  0
LINE
  5
41B
330
59C
100
AcDbEntity
  8
_0
  6
Continuous
 62
     7
370
    30
100
AcDbLine
 10
60.493375
 20
5.38374
 30
0.0
 11
60.493375
 21
5.496177
 31
0.0
  0
LINE
  5
41C
330
59C
100
AcDbEntity
  8
_0
  6
Continuous
 62
     7
370
    30
100
AcDbLine
 10
60.227687
 20
5.496177
 30
0.0
 11
60.493375
 21
5.496177
 31
0.0
  0
LINE
  5
41D
330
59C
100
AcDbEntity
  8
_0
  6
Continuous
 62
     7
370
    30
100
AcDbLine
 10
60.826687
 20
5.159813
 30
0.0
 11
59.778188
 21
5.683375
 31
0.0
  0
LINE
  5
41E
330
59C
100
AcDbEntity
  8
_0
  6
Continuous
 62
     7
370
    30
100
AcDbLine
 10
55.544802
 20
5.715885
 30
0.0
 11
55.608448
 21
5.715885
 31
0.0
  0
LINE
  5
41F
330
59C
100
AcDbEntity
  8
_0
  6
Continuous
 62
     7
370
    30
100
AcDbLine
 10
53.995583
 20
5.683354
 30
0.0
 11
55.544802
 21
5.715625
 31
0.0
  0
LINE
  5
420
330
59C
100
AcDbEntity
  8
_0
  6
Continuous
 62
     7
370
    30
100
AcDbLine
 10
59.778188
 20
5.683375
 30
0.0
 11
58.217479
 21
5.715885
 31
0.0
  0
LINE
  5
422
330
59C
100
AcDbEntity
  8
_0
  6
Continuous
 62
     7
370
    30
100
AcDbLine
 10
55.544333
 20
5.463031
 30
0.0
 11
58.21701
 21
5.463031
 31
0.0
  0
LINE
  5
425
330
59C
100
AcDbEntity
  8
_0
  6
Continuous
 62
     7
370
    30
100
AcDbLine
 10
53.286698
 20
5.396781
 30
0.0
 11
53.286698
 21
5.539104
 31
0.0
  0
LINE
  5
426
330
59C
100
AcDbEntity
  8
_0
  6
Continuous
 62
     7
370
    30
100
AcDbLine
 10
53.635354
 20
5.539104
 30
0.0
 11
53.286698
 21
5.539104
 31
0.0
  0
LINE
  5
428
330
59C
100
AcDbEntity
  8
_0
  6
Continuous
 62
     7
370
    30
100
AcDbLine
 10
55.548302
 20
6.15424
 30
0.0
 11
55.555281
 21
5.954365
 31
0.0
  0
LINE
  5
42C
330
59C
100
AcDbEntity
  8
_0
  6
Continuous
 62
     7
370
    30
100
AcDbLine
 10
53.461906
 20
5.419385
 30
0.0
 11
55.544333
 21
5.462771
 31
0.0
  0
LINE
  5
42D
330
59C
100
AcDbEntity
  8
_0
  6
Continuous
 62
     7
370
    30
100
AcDbLine
 10
55.380094
 20
6.148365
 30
0.0
 11
54.469823
 21
5.693229
 31
0.0
  0
LINE
  5
42E
330
59C
100
AcDbEntity
  8
_0
  6
Continuous
 62
     7
370
    30
100
AcDbLine
 10
58.213948
 20
6.247333
 30
0.0
 11
58.217437
 21
6.047323
 31
0.0
  0
LINE
  5
42F
330
59C
100
AcDbEntity
  8
_0
  6
Continuous
 62
     7
370
    30
100
AcDbLine
 10
58.378271
 20
6.253073
 30
0.0
 11
59.506333
 21
5.689042
 31
0.0
  0
LINE
  5
430
330
59C
100
AcDbEntity
  8
_0
  6
Continuous
 62
     7
370
    30
100
AcDbLine
 10
60.306635
 20
5.4195
 30
0.0
 11
58.21701
 21
5.463031
 31
0.0
  0
LINE
  5
431
330
59C
100
AcDbEntity
  8
_0
  6
Continuous
 62
     7
370
    30
100
AcDbLine
 10
55.555281
 20
5.954365
 30
0.0
 11
58.217437
 21
6.047323
 31
0.0
  0
LINE
  5
432
330
59C
100
AcDbEntity
  8
_0
  6
Continuous
 62
     7
370
    30
100
AcDbLine
 10
55.380094
 20
6.148365
 30
0.0
 11
58.378271
 21
6.253073
 31
0.0
  0
LINE
  5
435
330
59C
100
AcDbEntity
  8
BORDER
  6
Continuous
 62
     7
370
    30
100
AcDbLine
 10
60.986906
 20
0.625
 30
0.0
 11
60.986906
 21
1.125
 31
0.0
  0
LINE
  5
437
330
59C
100
AcDbEntity
  8
BORDER
  6
Continuous
 62
     7
370
    30
100
AcDbLine
 10
59.886906
 20
0.625
 30
0.0
 11
59.886906
 21
1.125
 31
0.0
  0
LINE
  5
438
330
59C
100
AcDbEntity
  8
BORDER
  6
Continuous
 62
     7
370
    30
100
AcDbLine
 10
52.986906
 20
0.625
 30
0.0
 11
62.086906
 21
0.625
 31
0.0
  0
LINE
  5
439
330
59C
100
AcDbEntity
  8
BORDER
  6
Continuous
 62
     7
370
    30
100
AcDbLine
 10
52.986906
 20
1.125
 30
0.0
 11
62.086906
 21
1.125
 31
0.0
  0
LINE
  5
43A
330
59C
100
AcDbEntity
  8
BORDER
  6
Continuous
 62
     7
370
    30
100
AcDbLine
 10
62.086906
 20
0.625
 30
0.0
 11
62.086906
 21
7.875
 31
0.0
  0
LINE
  5
43B
330
59C
100
AcDbEntity
  8
BORDER
  6
Continuous
 62
     7
370
    30
100
AcDbLine
 10
52.986906
 20
7.875
 30
0.0
 11
62.086906
 21
7.875
 31
0.0
  0
LINE
  5
43F
330
59C
100
AcDbEntity
  8
DIM
  6
Continuous
 62
     7
370
    13
100
AcDbLine
 10
54.44225
 20
5.742656
 30
0.0
 11
54.44225
 21
6.316417
 31
0.0
  0
LINE
  5
440
330
59C
100
AcDbEntity
  8
DIM
  6
Continuous
 62
     7
370
    13
100
AcDbLine
 10
53.989583
 20
5.733229
 30
0.0
 11
53.989583
 21
6.316417
 31
0.0
  0
LINE
  5
443
330
59C
100
AcDbEntity
  8
DIM
  6
Continuous
 62
     7
370
    13
100
AcDbLine
 10
53.989583
 20
6.196573
 30
0.0
 11
53.589583
 21
6.196573
 31
0.0
  0
LINE
  5
444
330
59C
100
AcDbEntity
  8
DIM
  6
Continuous
 62
     7
370
    13
100
AcDbLine
 10
54.44225
 20
6.196573
 30
0.0
 11
54.84225
 21
6.196573
 31
0.0
  0
LINE
  5
445
330
59C
100
AcDbEntity
  8
DEFPOINTS
  6
Continuous
 62
     7
370
    30
100
AcDbLine
 10
53.989583
 20
6.316417
 30
0.0
 11
53.989583
 21
6.316417
 31
0.0
  0
LINE
  5
446
330
59C
100
AcDbEntity
  8
DEFPOINTS
  6
Continuous
 62
     7
370
    30
100
AcDbLine
 10
54.44225
 20
6.316417
 30
0.0
 11
54.44225
 21
6.316417
 31
0.0
  0
LINE
  5
447
330
59C
100
AcDbEntity
  8
DEFPOINTS
  6
Continuous
 62
     7
370
    30
100
AcDbLine
 10
54.44225
 20
6.196573
 30
0.0
 11
54.44225
 21
6.196573
 31
0.0
  0
LINE
  5
448
330
59C
100
AcDbEntity
  8
TEXT
  6
Continuous
 62
     7
370
    13
100
AcDbLine
 10
54.42649
 20
5.482344
 30
0.0
 11
54.754323
 21
5.500208
 31
0.0
  0
LINE
  5
44A
330
59C
100
AcDbEntity
  8
DIM
  6
Continuous
 62
     7
370
    13
100
AcDbLine
 10
55.847687
 20
5.960448
 30
0.0
 11
55.847687
 21
5.463083
 31
0.0
  0
LINE
  5
44B
330
59C
100
AcDbEntity
  8
_0
  6
Continuous
 62
     7
370
    30
100
AcDbLine
 10
56.123229
 20
5.715885
 30
0.0
 11
58.217479
 21
5.715885
 31
0.0
  0
LINE
  5
44C
330
59C
100
AcDbEntity
  8
DEFPOINTS
  6
Continuous
 62
     7
370
    30
100
AcDbLine
 10
56.87025
 20
6.9235
 30
0.0
 11
56.87025
 21
6.9235
 31
0.0
  0
LINE
  5
44D
330
59C
100
AcDbEntity
  8
DEFPOINTS
  6
Continuous
 62
     7
370
    30
100
AcDbLine
 10
56.87025
 20
6.9235
 30
0.0
 11
56.87025
 21
6.9235
 31
0.0
  0
LINE
  5
44E
330
59C
100
AcDbEntity
  8
TEXT
  6
Continuous
 62
     7
370
    13
100
AcDbLine
 10
58.121125
 20
6.244094
 30
0.0
 11
58.75549
 21
6.6095
 31
0.0
  0
LINE
  5
44F
330
59C
100
AcDbEntity
  8
TEXT
  6
Continuous
 62
     7
370
    13
100
AcDbLine
 10
58.75549
 20
6.6095
 30
0.0
 11
58.845354
 21
6.6095
 31
0.0
  0
LINE
  5
450
330
59C
100
AcDbEntity
  8
TEXT
  6
Continuous
 62
     7
370
    13
100
AcDbLine
 10
59.229875
 20
5.500854
 30
0.0
 11
58.807865
 21
5.51675
 31
0.0
  0
LINE
  5
451
330
59C
100
AcDbEntity
  8
_0
  6
Continuous
 62
     7
370
    13
100
AcDbLine
 10
63.081542
 20
0.25
 30
0.0
 11
62.875
 21
0.25
 31
0.0
  0
LINE
  5
452
330
59C
100
AcDbEntity
  8
_0
  6
Continuous
 62
     7
370
    13
100
AcDbLine
 10
63.081542
 20
8.25
 30
0.0
 11
62.875
 21
8.25
 31
0.0
  0
LINE
  5
453
330
59C
100
AcDbEntity
  8
_0
  6
Continuous
 62
     7
370
    13
100
AcDbLine
 10
62.875
 20
0.043458
 30
0.0
 11
62.875
 21
0.25
 31
0.0
  0
LINE
  5
454
330
59C
100
AcDbEntity
  8
_0
  6
Continuous
 62
     7
370
    13
100
AcDbLine
 10
52.125
 20
0.043458
 30
0.0
 11
52.125
 21
0.25
 31
0.0
  0
LINE
  5
455
330
59C
100
AcDbEntity
  8
_0
  6
Continuous
 62
     7
370
    13
100
AcDbLine
 10
62.875
 20
8.25
 30
0.0
 11
62.875
 21
8.456542
 31
0.0
  0
LINE
  5
456
330
59C
100
AcDbEntity
  8
_0
  6
Continuous
 62
     7
370
    13
100
AcDbLine
 10
52.125
 20
0.25
 30
0.0
 11
51.918458
 21
0.25
 31
0.0
  0
LINE
  5
457
330
59C
100
AcDbEntity
  8
_0
  6
Continuous
 62
     7
370
    13
100
AcDbLine
 10
52.125
 20
8.25
 30
0.0
 11
51.918458
 21
8.25
 31
0.0
  0
LINE
  5
458
330
59C
100
AcDbEntity
  8
_0
  6
Continuous
 62
     7
370
    13
100
AcDbLine
 10
52.125
 20
8.25
 30
0.0
 11
52.125
 21
8.456542
 31
0.0
  0
LINE
  5
45A
330
59C
100
AcDbEntity
  8
DIM
  6
Continuous
 62
     7
370
    30
100
AcDbLine
 10
56.39461
 20
4.329
 30
0.0
 11
57.689566
 21
4.329
 31
0.0
  0
INSERT
  5
45B
330
59C
100
AcDbEntity
  8
DIM
  6
Continuous
 62
     7
370
    13
100
AcDbBlockReference
  2
LARROW
 10
54.44225
 20
6.196573
 30
0.0
 41
12.0
 42
12.0
 43
12.0
 50
180.0
  0
INSERT
  5
45D
330
59C
100
AcDbEntity
  8
DIM
  6
Continuous
 62
     7
370
    13
100
AcDbBlockReference
  2
LARROW
 10
53.989583
 20
6.196573
 30
0.0
 41
12.0
 42
12.0
 43
12.0
  0
INSERT
  5
45F
330
59C
100
AcDbEntity
  8
DIM
  6
Continuous
 62
     7
370
    13
100
AcDbBlockReference
  2
LARROW
 10
54.42649
 20
5.482344
 30
0.0
 41
12.000001
 42
12.000001
 43
12.000001
 50
183.119755
  0
INSERT
  5
461
330
59C
100
AcDbEntity
  8
DIM
  6
Continuous
 62
     7
370
    13
100
AcDbBlockReference
  2
LARROW
 10
55.847687
 20
5.960448
 30
0.0
 41
12.0
 42
12.0
 43
12.0
 50
90.0
  0
INSERT
  5
463
330
59C
100
AcDbEntity
  8
DIM
  6
Continuous
 62
     7
370
    13
100
AcDbBlockReference
  2
LARROW
 10
55.847687
 20
5.463083
 30
0.0
 41
12.0
 42
12.0
 43
12.0
 50
270.0
  0
INSERT
  5
465
330
59C
100
AcDbEntity
  8
DIM
  6
Continuous
 62
     7
370
    13
100
AcDbBlockReference
  2
LARROW
 10
59.229875
 20
5.500854
 30
0.0
 41
12.000001
 42
12.000001
 43
12.000001
 50
357.842864
  0
INSERT
  5
467
330
59C
100
AcDbEntity
  8
DIM
  6
Continuous
 62
     7
370
    13
100
AcDbBlockReference
  2
LARROW
 10
58.121125
 20
6.244094
 30
0.0
 41
11.999999
 42
11.999999
 43
11.999999
 50
209.942922
  0
LINE
  5
469
330
59C
100
AcDbEntity
  8
_0
  6
Continuous
 62
     7
370
    30
100
AcDbLine
 10
53.169583
 20
5.270896
 30
0.0
 11
53.995583
 21
5.683354
 31
0.0
  0
LINE
  5
46A
330
59C
100
AcDbEntity
  8
HATCH
  6
Continuous
 62
     7
370
    30
100
AcDbLine
 10
53.574344
 20
5.283885
 30
0.0
 11
53.610417
 21
5.247813
 31
0.0
  0
LINE
  5
46B
330
59C
100
AcDbEntity
  8
HATCH
  6
Continuous
 62
     7
370
    30
100
AcDbLine
 10
53.751125
 20
5.283885
 30
0.0
 11
53.787198
 21
5.247813
 31
0.0
  0
LINE
  5
46C
330
59C
100
AcDbEntity
  8
HATCH
  6
Continuous
 62
     7
370
    30
100
AcDbLine
 10
53.397562
 20
5.283885
 30
0.0
 11
53.433635
 21
5.247813
 31
0.0
  0
LINE
  5
46D
330
59C
100
AcDbEntity
  8
HATCH
  6
Continuous
 62
     7
370
    30
100
AcDbLine
 10
53.220792
 20
5.283885
 30
0.0
 11
53.256865
 21
5.247813
 31
0.0
  0
LINE
  5
46E
330
59C
100
AcDbEntity
  8
HATCH
  6
Continuous
 62
     7
370
    30
100
AcDbLine
 10
53.60749
 20
5.317031
 30
0.0
 11
53.676708
 21
5.247813
 31
0.0
  0
LINE
  5
46F
330
59C
100
AcDbEntity
  8
HATCH
  6
Continuous
 62
     7
370
    30
100
AcDbLine
 10
53.78426
 20
5.317031
 30
0.0
 11
53.863302
 21
5.238
 31
0.0
  0
LINE
  5
470
330
59C
100
AcDbEntity
  8
HATCH
  6
Continuous
 62
     7
370
    30
100
AcDbLine
 10
53.430708
 20
5.317031
 30
0.0
 11
53.499938
 21
5.247813
 31
0.0
  0
LINE
  5
471
330
59C
100
AcDbEntity
  8
HATCH
  6
Continuous
 62
     7
370
    30
100
AcDbLine
 10
53.256615
 20
5.314354
 30
0.0
 11
53.323156
 21
5.247813
 31
0.0
  0
LINE
  5
472
330
59C
100
AcDbEntity
  8
HATCH
  6
Continuous
 62
     7
370
    30
100
AcDbLine
 10
53.383583
 20
5.247813
 30
0.0
 11
53.397562
 21
5.261792
 31
0.0
  0
LINE
  5
473
330
59C
100
AcDbEntity
  8
HATCH
  6
Continuous
 62
     7
370
    30
100
AcDbLine
 10
53.560365
 20
5.247813
 30
0.0
 11
53.574344
 21
5.261792
 31
0.0
  0
LINE
  5
474
330
59C
100
AcDbEntity
  8
HATCH
  6
Continuous
 62
     7
370
    30
100
AcDbLine
 10
53.737146
 20
5.247813
 30
0.0
 11
53.751125
 21
5.261792
 31
0.0
  0
LINE
  5
475
330
59C
100
AcDbEntity
  8
HATCH
  6
Continuous
 62
     7
370
    30
100
AcDbLine
 10
53.206812
 20
5.247813
 30
0.0
 11
53.220792
 21
5.261792
 31
0.0
  0
LINE
  5
476
330
59C
100
AcDbEntity
  8
_0
  6
Continuous
 62
     7
370
    30
100
AcDbLine
 10
60.826687
 20
5.159813
 30
0.0
 11
61.274615
 21
5.159813
 31
0.0
  0
LINE
  5
477
330
59C
100
AcDbEntity
  8
_0
  6
Continuous
 62
     7
370
    30
100
AcDbLine
 10
61.274615
 20
5.159813
 30
0.0
 11
61.984198
 21
5.514135
 31
0.0
  0
LINE
  5
478
330
59C
100
AcDbEntity
  8
_0
  6
Continuous
 62
     7
370
    30
100
AcDbLine
 10
61.595458
 20
5.38374
 30
0.0
 11
61.595458
 21
5.496177
 31
0.0
  0
LINE
  5
479
330
59C
100
AcDbEntity
  8
_0
  6
Continuous
 62
     7
370
    30
100
AcDbLine
 10
61.861146
 20
5.496177
 30
0.0
 11
61.595458
 21
5.496177
 31
0.0
  0
LINE
  5
47C
330
59C
100
AcDbEntity
  8
TEXT
  6
Continuous
 62
     7
370
    13
100
AcDbLine
 10
60.826687
 20
5.114979
 30
0.0
 11
60.826687
 21
4.763542
 31
0.0
  0
LINE
  5
47D
330
59C
100
AcDbEntity
  8
TEXT
  6
Continuous
 62
     7
370
    13
100
AcDbLine
 10
61.274615
 20
5.114979
 30
0.0
 11
61.274615
 21
4.763542
 31
0.0
  0
LINE
  5
47E
330
59C
100
AcDbEntity
  8
TEXT
  6
Continuous
 62
     7
370
    13
100
AcDbLine
 10
60.826687
 20
4.869229
 30
0.0
 11
61.274615
 21
4.869229
 31
0.0
  0
LINE
  5
47F
330
59C
100
AcDbEntity
  8
TEXT
  6
Continuous
 62
     7
370
    13
100
AcDbLine
 10
60.37876
 20
4.869229
 30
0.0
 11
60.826687
 21
4.869229
 31
0.0
  0
LINE
  5
480
330
59C
100
AcDbEntity
  8
TEXT
  6
Continuous
 62
     7
370
    13
100
AcDbLine
 10
61.274615
 20
4.869229
 30
0.0
 11
61.722542
 21
4.869229
 31
0.0
  0
INSERT
  5
481
330
59C
100
AcDbEntity
  8
TEXT
  6
Continuous
 62
     7
370
    13
100
AcDbBlockReference
  2
LARROW_1
 10
61.274615
 20
4.869229
 30
0.0
 41
12.0
 42
12.0
 43
12.0
 50
180.0
  0
INSERT
  5
48C
330
59C
100
AcDbEntity
  8
TEXT
  6
Continuous
 62
     7
370
    13
100
AcDbBlockReference
  2
LARROW_1
 10
60.826687
 20
4.869229
 30
0.0
 41
12.0
 42
12.0
 43
12.0
  0
LINE
  5
49C
330
59C
100
AcDbEntity
  8
_0
  6
Continuous
 62
     7
370
    13
100
AcDbLine
 10
57.729583
 20
5.715885
 30
0.0
 11
57.729583
 21
6.030292
 31
0.0
  0
LINE
  5
49E
330
59C
100
AcDbEntity
  8
_0
  6
Continuous
 62
     7
370
    13
100
AcDbLine
 10
57.729583
 20
5.401479
 30
0.0
 11
57.729583
 21
5.715885
 31
0.0
  0
LINE
  5
49F
330
59C
100
AcDbEntity
  8
_0
  6
Continuous
 62
     7
370
    13
100
AcDbLine
 10
57.729583
 20
6.030292
 30
0.0
 11
57.729583
 21
6.344698
 31
0.0
  0
INSERT
  5
4A0
330
59C
100
AcDbEntity
  8
TEXT
  6
Continuous
 62
     7
370
    13
100
AcDbBlockReference
  2
LARROW_1
 10
57.729583
 20
6.030292
 30
0.0
 41
12.0
 42
12.0
 43
12.0
 50
270.0
  0
INSERT
  5
4AB
330
59C
100
AcDbEntity
  8
TEXT
  6
Continuous
 62
     7
370
    13
100
AcDbBlockReference
  2
LARROW_1
 10
57.729583
 20
5.715885
 30
0.0
 41
12.0
 42
12.0
 43
12.0
 50
90.0
  0
LINE
  5
4B7
330
59C
100
AcDbEntity
  8
_0
  6
Continuous
 62
     7
370
    13
100
AcDbLine
 10
56.176729
 20
5.463031
 30
0.0
 11
56.176729
 21
5.715885
 31
0.0
  0
LINE
  5
4B8
330
59C
100
AcDbEntity
  8
_0
  6
Continuous
 62
     7
370
    13
100
AcDbLine
 10
56.176729
 20
5.148625
 30
0.0
 11
56.176729
 21
5.463031
 31
0.0
  0
LINE
  5
4B9
330
59C
100
AcDbEntity
  8
_0
  6
Continuous
 62
     7
370
    13
100
AcDbLine
 10
56.176729
 20
5.715885
 30
0.0
 11
56.176729
 21
6.030292
 31
0.0
  0
INSERT
  5
4BA
330
59C
100
AcDbEntity
  8
TEXT
  6
Continuous
 62
     7
370
    13
100
AcDbBlockReference
  2
LARROW_1
 10
56.176729
 20
5.463031
 30
0.0
 41
12.0
 42
12.0
 43
12.0
 50
90.0
  0
INSERT
  5
4C5
330
59C
100
AcDbEntity
  8
TEXT
  6
Continuous
 62
     7
370
    13
100
AcDbBlockReference
  2
LARROW_1
 10
56.176729
 20
5.715885
 30
0.0
 41
12.0
 42
12.0
 43
12.0
 50
270.0
  0
SPLINE
  5
4D1
330
59C
100
AcDbEntity
  8
TEXT
  6
Continuous
 62
     7
370
    13
100
AcDbSpline
210
0.0
220
0.0
230
1.0
 70
     8
 71
     3
 72
    32
 73
    28
 74
     0
 42
0.0000000001
 43
0.00000001
 40
0.0
 40
0.0
 40
0.0
 40
0.0
 40
0.1028740851992351
 40
0.1028740851992351
 40
0.1028740851992351
 40
0.2904411345233154
 40
0.2904411345233154
 40
0.2904411345233154
 40
0.4212945351070626
 40
0.4212945351070626
 40
0.4212945351070626
 40
0.532748308678841
 40
0.532748308678841
 40
0.532748308678841
 40
0.6139334967355992
 40
0.6139334967355992
 40
0.6139334967355992
 40
0.7504895763888781
 40
0.7504895763888781
 40
0.7504895763888781
 40
0.8616859398967075
 40
0.8616859398967075
 40
0.8616859398967075
 40
0.9260033553639454
 40
0.9260033553639454
 40
0.9260033553639454
 40
1.0
 40
1.0
 40
1.0
 40
1.0
 10
56.374125
 20
5.232458333333333
 30
0.0
 10
56.35802430555555
 20
5.233399305555555
 30
0.0
 10
56.34192361111111
 20
5.234340277777778
 30
0.0
 10
56.32582291666667
 20
5.23528125
 30
0.0
 10
56.2964670323041
 20
5.23699689474062
 30
0.0
 10
56.26728904471806
 20
5.241069091872053
 30
0.0
 10
56.23801041666667
 20
5.243729166666666
 30
0.0
 10
56.21758461128796
 20
5.245584928827113
 30
0.0
 10
56.1970227888248
 20
5.246334525652223
 30
0.0
 10
56.17653125
 20
5.246552083333333
 30
0.0
 10
56.15907767739029
 20
5.246737387073404
 30
0.0
 10
56.13904725423213
 20
5.239114051944408
 30
0.0
 10
56.12604166666667
 20
5.232458333333333
 30
0.0
 10
56.11656813303515
 20
5.227610172972527
 30
0.0
 10
56.14239962997851
 20
5.211393983286832
 30
0.0
 10
56.15458333333333
 20
5.207093749999999
 30
0.0
 10
56.17507671156669
 20
5.1998606202469
 30
0.0
 10
56.19946535449021
 20
5.203297141054922
 30
0.0
 10
56.21825
 20
5.215552083333333
 30
0.0
 10
56.23354616459242
 20
5.225531170458694
 30
0.0
 10
56.24510386653186
 20
5.238026599057596
 30
0.0
 10
56.25557291666667
 20
5.2521875
 30
0.0
 10
56.26162835072787
 20
5.260378348338659
 30
0.0
 10
56.2570120791467
 20
5.277109487652662
 30
0.0
 10
56.26655208333333
 20
5.280375
 30
0.0
 10
56.27752777777778
 20
5.284131944444445
 30
0.0
 10
56.28850347222222
 20
5.287888888888888
 30
0.0
 10
56.29947916666666
 20
5.291645833333333
 30
0.0
  0
LINE
  5
4E0
330
59C
100
AcDbEntity
  8
DIM
  6
Continuous
 62
     7
370
    13
100
AcDbLine
 10
55.380094
 20
6.203573
 30
0.0
 11
55.380094
 21
7.231125
 31
0.0
  0
LINE
  5
4E1
330
59C
100
AcDbEntity
  8
DIM
  6
Continuous
 62
     7
370
    13
100
AcDbLine
 10
55.563094
 20
6.203573
 30
0.0
 11
55.563094
 21
7.231125
 31
0.0
  0
LINE
  5
4E2
330
59C
100
AcDbEntity
  8
DIM
  6
Continuous
 62
     7
370
    13
100
AcDbLine
 10
55.563094
 20
7.126667
 30
0.0
 11
55.95099
 21
7.126667
 31
0.0
  0
INSERT
  5
4E3
330
59C
100
AcDbEntity
  8
TEXT
  6
Continuous
 62
     7
370
    13
100
AcDbBlockReference
  2
LARROW_1
 10
55.563094
 20
7.126667
 30
0.0
 41
12.0
 42
12.0
 43
12.0
 50
180.0
  0
LINE
  5
4EE
330
59C
100
AcDbEntity
  8
DIM
  6
Continuous
 62
     7
370
    13
100
AcDbLine
 10
55.380094
 20
7.126667
 30
0.0
 11
54.982719
 21
7.126667
 31
0.0
  0
INSERT
  5
4EF
330
59C
100
AcDbEntity
  8
TEXT
  6
Continuous
 62
     7
370
    13
100
AcDbBlockReference
  2
LARROW_1
 10
55.380094
 20
7.126667
 30
0.0
 41
12.0
 42
12.0
 43
12.0
  0
LINE
  5
4FB
330
59C
100
AcDbEntity
  8
DIM
  6
Continuous
 62
     7
370
    13
100
AcDbLine
 10
58.378271
 20
6.314854
 30
0.0
 11
58.378271
 21
7.279406
 31
0.0
  0
LINE
  5
4FC
330
59C
100
AcDbEntity
  8
DIM
  6
Continuous
 62
     7
370
    13
100
AcDbLine
 10
58.378271
 20
7.174948
 30
0.0
 11
58.777375
 21
7.174948
 31
0.0
  0
INSERT
  5
4FD
330
59C
100
AcDbEntity
  8
DIM
  6
Continuous
 62
     7
370
    13
100
AcDbBlockReference
  2
LARROW
 10
58.378271
 20
7.174948
 30
0.0
 41
12.0
 42
12.0
 43
12.0
 50
180.0
  0
LINE
  5
4FF
330
59C
100
AcDbEntity
  8
DIM
  6
Continuous
 62
     7
370
    13
100
AcDbLine
 10
58.213948
 20
7.174948
 30
0.0
 11
57.809104
 21
7.174948
 31
0.0
  0
INSERT
  5
500
330
59C
100
AcDbEntity
  8
DIM
  6
Continuous
 62
     7
370
    13
100
AcDbBlockReference
  2
LARROW
 10
58.220198
 20
7.174948
 30
0.0
 41
12.0
 42
12.0
 43
12.0
  0
LINE
  5
503
330
59C
100
AcDbEntity
  8
DIM
  6
Continuous
 62
     7
370
    13
100
AcDbLine
 10
56.121677
 20
6.460729
 30
0.0
 11
56.121677
 21
6.716646
 31
0.0
  0
LINE
  5
504
330
59C
100
AcDbEntity
  8
DIM
  6
Continuous
 62
     7
370
    13
100
AcDbLine
 10
56.121677
 20
6.603406
 30
0.0
 11
56.886135
 21
6.603406
 31
0.0
  0
INSERT
  5
505
330
59C
100
AcDbEntity
  8
TEXT
  6
Continuous
 62
     7
370
    13
100
AcDbBlockReference
  2
LARROW_1
 10
56.121677
 20
6.603406
 30
0.0
 41
12.0
 42
12.0
 43
12.0
 50
180.0
  0
INSERT
  5
510
330
59C
100
AcDbEntity
  8
TEXT
  6
Continuous
 62
     7
370
    13
100
AcDbBlockReference
  2
LARROW_1
 10
56.886135
 20
6.603406
 30
0.0
 41
12.0
 42
12.0
 43
12.0
  0
LINE
  5
51F
330
59C
100
AcDbEntity
  8
DIM
  6
Continuous
 62
     7
370
    13
100
AcDbLine
 10
56.886135
 20
6.603406
 30
0.0
 11
57.646406
 21
6.603406
 31
0.0
  0
INSERT
  5
520
330
59C
100
AcDbEntity
  8
TEXT
  6
Continuous
 62
     7
370
    13
100
AcDbBlockReference
  2
LARROW_1
 10
56.886135
 20
6.603406
 30
0.0
 41
12.0
 42
12.0
 43
12.0
 50
180.0
  0
INSERT
  5
52B
330
59C
100
AcDbEntity
  8
TEXT
  6
Continuous
 62
     7
370
    13
100
AcDbBlockReference
  2
LARROW_1
 10
57.646406
 20
6.603406
 30
0.0
 41
12.0
 42
12.0
 43
12.0
  0
LINE
  5
536
330
59C
100
AcDbEntity
  8
DIM
  6
Continuous
 62
     7
370
    13
100
AcDbLine
 10
57.646406
 20
6.460729
 30
0.0
 11
57.646406
 21
6.716646
 31
0.0
  0
LINE
  5
537
330
59C
100
AcDbEntity
  8
DIM
  6
Continuous
 62
     7
370
    13
100
AcDbLine
 10
56.886135
 20
5.935635
 30
0.0
 11
56.886135
 21
6.958927
 31
0.0
  0
LINE
  5
538
330
59C
100
AcDbEntity
  8
DIM
  6
Continuous
 62
     7
370
    13
100
AcDbLine
 10
58.213948
 20
6.314854
 30
0.0
 11
58.213948
 21
7.279406
 31
0.0
  0
TEXT
  5
418
330
59C
100
AcDbEntity
  8
REF
  6
Continuous
 62
     7
370
    30
100
AcDbText
 10
53.442544
 20
1.539958
 30
0.0
 40
0.12
  1
REFERENCE: TM 5-850-2/AFM 88-7, CHAPTER 2, RAILROAD DESIGN AND
 41
0.833333
  7
Style-Arial
100
AcDbText
  0
TEXT
  5
419
330
59C
100
AcDbEntity
  8
TEXT
  6
Continuous
 62
     7
370
    30
100
AcDbText
 10
58.876969
 20
6.552552
 30
0.0
 40
0.12
  1
TOP OF TIE
 50
2.0
 41
0.833333
  7
Style-Arial
100
AcDbText
  0
TEXT
  5
41A
330
59C
100
AcDbEntity
  8
TEXT
  6
Continuous
 62
     7
370
    30
100
AcDbText
 10
56.434581
 20
5.775021
 30
0.0
 40
0.12
  1
TOP BALLAST
 41
0.833333
  7
Style-Arial
100
AcDbText
  0
TEXT
  5
421
330
59C
100
AcDbEntity
  8
TEXT
  6
Continuous
 62
     7
370
    30
100
AcDbText
 10
56.470548
 20
5.518094
 30
0.0
 40
0.12
  1
SUB BALLAST
 41
0.833333
  7
Style-Arial
100
AcDbText
  0
TEXT
  5
423
330
59C
100
AcDbEntity
  8
_0
  6
Continuous
 62
     7
370
    30
100
AcDbText
 10
53.161927
 20
5.424812
 30
0.0
 40
0.12
  1
1
 41
0.833333
  7
Style-Arial
100
AcDbText
  0
TEXT
  5
424
330
59C
100
AcDbEntity
  8
_0
  6
Continuous
 62
     7
370
    30
100
AcDbText
 10
53.410794
 20
5.567312
 30
0.0
 40
0.12
  1
3
 41
0.833333
  7
Style-Arial
100
AcDbText
  0
TEXT
  5
427
330
59C
100
AcDbEntity
  8
_0
  6
Continuous
 62
     7
370
    30
100
AcDbText
 10
54.502562
 20
5.749052
 30
0.0
 40
0.12
  1
SLOPE 2:1
 50
26.56505
 41
0.833333
  7
Style-Arial
100
AcDbText
  0
TEXT
  5
429
330
59C
100
AcDbEntity
  8
TEXT
  6
Continuous
 62
     7
370
    30
100
AcDbText
 10
58.605896
 20
6.199302
 30
0.0
 40
0.12
  1
SLOPE 2:1
 50
333.43495
 41
0.833333
  7
Style-Arial
100
AcDbText
  0
TEXT
  5
42A
330
59C
100
AcDbEntity
  8
_0
  6
Continuous
 62
     7
370
    30
100
AcDbText
 10
60.355802
 20
5.535156
 30
0.0
 40
0.12
  1
3
 41
0.833333
  7
Style-Arial
100
AcDbText
  0
TEXT
  5
42B
330
59C
100
AcDbEntity
  8
_0
  6
Continuous
 62
     7
370
    30
100
AcDbText
 10
60.5405
 20
5.348448
 30
0.0
 40
0.12
  1
1
 41
0.833333
  7
Style-Arial
100
AcDbText
  0
TEXT
  5
433
330
59C
100
AcDbEntity
  8
BORDER
  6
Continuous
 62
     7
370
    30
100
AcDbText
 10
61.375255
 20
0.754672
 30
0.0
 40
0.12
  1
2-36d
 41
0.833333
  7
Style-Arial
100
AcDbText
  0
TEXT
  5
434
330
59C
100
AcDbEntity
  8
BORDER
  6
Continuous
 62
     7
370
    30
100
AcDbText
 10
61.286572
 20
0.958333
 30
0.0
 40
0.12
  1
FIGURE
 41
0.833333
  7
Style-Arial
100
AcDbText
  0
TEXT
  5
436
330
59C
100
AcDbEntity
  8
BORDER
  6
Continuous
 62
     7
370
    30
100
AcDbText
 10
60.248178
 20
0.958333
 30
0.0
 40
0.12
  1
DATE
 41
0.833333
  7
Style-Arial
100
AcDbText
  0
TEXT
  5
43C
330
59C
100
AcDbEntity
  8
BORDER
  6
Continuous
 62
     7
370
    30
100
AcDbText
 10
60.105157
 20
0.727937
 30
0.0
 40
0.12
  1
AUG 1992
 41
0.833333
  7
Style-Arial
100
AcDbText
  0
TEXT
  5
43D
330
59C
100
AcDbEntity
  8
REF
  6
Continuous
 62
     7
370
    30
100
AcDbText
 10
54.389859
 20
1.358812
 30
0.0
 40
0.12
  1
CONSTRUCTION OF ARMY AND AIRFORCE INSTALLATIONS.
 41
0.833333
  7
Style-Arial
100
AcDbText
  0
TEXT
  5
43E
330
59C
100
AcDbEntity
  8
DIM
  6
Continuous
 62
     7
370
    30
100
AcDbText
 10
54.069
 20
6.03426
 30
0.0
 40
0.12
  1
MIN
 41
0.833333
  7
Style-Arial
100
AcDbText
  0
TEXT
  5
441
330
59C
100
AcDbEntity
  8
DIM
  6
Continuous
 62
     7
370
    30
100
AcDbText
 10
56.053958
 20
5.627055
 30
0.0
 40
0.12
  1
MIN
 50
90.0
 41
0.833333
  7
Style-Arial
100
AcDbText
  0
TEXT
  5
442
330
59C
100
AcDbEntity
  8
DIM
  6
Continuous
 62
     7
370
    30
100
AcDbText
 10
54.134992
 20
6.22851
 30
0.0
 40
0.12
  1
18"
 41
0.833333
  7
Style-Arial
100
AcDbText
  0
TEXT
  5
449
330
59C
100
AcDbEntity
  8
DIM
  6
Continuous
 62
     7
370
    30
100
AcDbText
 10
55.785833
 20
5.644479
 30
0.0
 40
0.12
  1
10"
 50
90.0
 41
0.833333
  7
Style-Arial
100
AcDbText
  0
TEXT
  5
459
330
59C
100
AcDbEntity
  8
TITLE
  6
Continuous
 62
     7
370
    30
100
AcDbText
 10
56.399061
 20
4.374447
 30
0.0
 40
0.12
  1
TYPICAL SECTION
 41
0.833333
  7
Style-Arial
100
AcDbText
  0
TEXT
  5
47A
330
59C
100
AcDbEntity
  8
_0
  6
Continuous
 62
     7
370
    30
100
AcDbText
 10
61.66501
 20
5.535156
 30
0.0
 40
0.12
  1
3
 41
0.833333
  7
Style-Arial
100
AcDbText
  0
TEXT
  5
47B
330
59C
100
AcDbEntity
  8
_0
  6
Continuous
 62
     7
370
    30
100
AcDbText
 10
61.474219
 20
5.340406
 30
0.0
 40
0.12
  1
1
 41
0.833333
  7
Style-Arial
100
AcDbText
  0
TEXT
  5
497
330
59C
100
AcDbEntity
  8
_0
  6
Continuous
 62
     7
370
    30
100
AcDbText
 10
60.999107
 20
4.908562
 30
0.0
 40
0.12
  1
1'
 41
0.833333
  7
Style-Arial
100
AcDbText
  0
TEXT
  5
498
330
59C
100
AcDbEntity
  8
_0
  6
Continuous
 62
     7
370
    30
100
AcDbText
 10
59.952354
 20
4.974646
 30
0.0
 40
0.12
  1
CUT
 41
0.833333
  7
Style-Arial
100
AcDbText
  0
TEXT
  5
499
330
59C
100
AcDbEntity
  8
TEXT
  6
Continuous
 62
     7
370
    30
100
AcDbText
 10
58.06038
 20
5.500228
 30
0.0
 40
0.12
  1
SLOPE 2%
 50
358.806511
 41
0.833333
  7
Style-Arial
100
AcDbText
  0
TEXT
  5
49A
330
59C
100
AcDbEntity
  8
TEXT
  6
Continuous
 62
     7
370
    30
100
AcDbText
 10
58.078629
 20
5.280425
 30
0.0
 40
0.12
  1
(TYPICAL)
 50
358.806511
 41
0.833333
  7
Style-Arial
100
AcDbText
  0
TEXT
  5
49B
330
59C
100
AcDbEntity
  8
_0
  6
Continuous
 62
     7
370
    30
100
AcDbText
 10
57.138708
 20
6.062854
 30
0.0
 40
0.12
  1
TIE
 41
0.833333
  7
Style-Arial
100
AcDbText
  0
TEXT
  5
49D
330
59C
100
AcDbEntity
  8
TEXT
  6
Continuous
 62
     7
370
    30
100
AcDbText
 10
57.777208
 20
5.808635
 30
0.0
 40
0.12
  1
VARIES
 41
0.833333
  7
Style-Arial
100
AcDbText
  0
TEXT
  5
4B6
330
59C
100
AcDbEntity
  8
TEXT
  6
Continuous
 62
     7
370
    30
100
AcDbText
 10
56.237799
 20
4.897948
 30
0.0
 40
0.12
  1
COMPACTED SUBGRADE
 41
0.833333
  7
Style-Arial
100
AcDbText
  0
TEXT
  5
4D0
330
59C
100
AcDbEntity
  8
_0
  6
Continuous
 62
     7
370
    30
100
AcDbText
 10
56.412156
 20
5.175823
 30
0.0
 40
0.12
  1
6" MIN.
 41
0.833333
  7
Style-Arial
100
AcDbText
  0
TEXT
  5
4D2
330
59C
100
AcDbEntity
  8
_0
  6
Continuous
 62
     7
370
    30
100
AcDbText
 10
53.994792
 20
5.115823
 30
0.0
 40
0.12
  1
FILL
 41
0.833333
  7
Style-Arial
100
AcDbText
  0
TEXT
  5
4D3
330
59C
100
AcDbEntity
  8
TEXT
  6
Continuous
 62
     7
370
    30
100
AcDbText
 10
54.794083
 20
5.475552
 30
0.0
 40
0.12
  1
SLOPE 2%
 50
1.169172
 41
0.833333
  7
Style-Arial
100
AcDbText
  0
TEXT
  5
4D4
330
59C
100
AcDbEntity
  8
TEXT
  6
Continuous
 62
     7
370
    30
100
AcDbText
 10
54.79449
 20
5.275
 30
0.0
 40
0.12
  1
(TYPICAL)
 50
1.169172
 41
0.833333
  7
Style-Arial
100
AcDbText
  0
TEXT
  5
4D5
330
59C
100
AcDbEntity
  8
TITLE
  6
Continuous
 62
     7
370
    30
100
AcDbText
 10
54.747368
 20
0.817096
 30
0.0
 40
0.12
  1
TYPICAL BALLAST/SUBBALLAST SECTION - CURVES
 41
0.833333
  7
Style-Arial
100
AcDbText
  0
TEXT
  5
4D6
330
59C
100
AcDbEntity
  8
TEXT
  6
Continuous
 62
     7
370
    30
100
AcDbText
 10
56.495615
 20
4.1615
 30
0.0
 40
0.12
  1
NOT TO SCALE
 41
0.833333
  7
Style-Arial
100
AcDbText
  0
TEXT
  5
4D7
330
59C
100
AcDbEntity
  8
NOTES
  6
Continuous
 62
     7
370
    30
100
AcDbText
 10
54.19605
 20
3.512812
 30
0.0
 40
0.12
  1
DENSITY, AND WHEEL LOADS.
 41
0.833333
  7
Style-Arial
100
AcDbText
  0
TEXT
  5
4D8
330
59C
100
AcDbEntity
  8
NOTES
  6
Continuous
 62
     7
370
    30
100
AcDbText
 10
54.200746
 20
2.863417
 30
0.0
 40
0.12
  1
STRUCTURAL AND ECONOMIC DESIGN WHILE MEETING MINIMUM THICKNESS
 41
0.833333
  7
Style-Arial
100
AcDbText
  0
TEXT
  5
4D9
330
59C
100
AcDbEntity
  8
NOTES
  6
Continuous
 62
     7
370
    30
100
AcDbText
 10
54.19572
 20
2.67551
 30
0.0
 40
0.12
  1
REQUIREMENTS.
 41
0.833333
  7
Style-Arial
100
AcDbText
  0
TEXT
  5
4DA
330
59C
100
AcDbEntity
  8
NOTES
  6
Continuous
 62
     7
370
    30
100
AcDbText
 10
54.20039
 20
2.267823
 30
0.0
 40
0.12
  1
8 INCHES SHOULD BE USED.
 41
0.833333
  7
Style-Arial
100
AcDbText
  0
TEXT
  5
4DB
330
59C
100
AcDbEntity
  8
NOTES
  6
Continuous
 62
     7
370
    30
100
AcDbText
 10
53.443024
 20
3.693656
 30
0.0
 40
0.12
  1
NOTES: 1.  DEPTH OF BALLAST SECTION WILL DEPEND ON SUBGRADE STRENGTH, TRAFFIC
 41
0.833333
  7
Style-Arial
100
AcDbText
  0
TEXT
  5
4DC
330
59C
100
AcDbEntity
  8
NOTES
  6
Continuous
 62
     7
370
    30
100
AcDbText
 10
54.002125
 20
3.298375
 30
0.0
 40
0.12
  1
2.  MINIMUM DEPTH OF BALLAST/SUBBALLAST IS 10 INCHES BELOW BOTTOM OF TIE.
 41
0.833333
  7
Style-Arial
100
AcDbText
  0
TEXT
  5
4DD
330
59C
100
AcDbEntity
  8
NOTES
  6
Continuous
 62
     7
370
    30
100
AcDbText
 10
54.00207
 20
3.043417
 30
0.0
 40
0.12
  1
3.  THICKNESS OF BALLAST AND SUBBALLAST MAY BE VARIED TO OBTAIN BEST
 41
0.833333
  7
Style-Arial
100
AcDbText
  0
TEXT
  5
4DE
330
59C
100
AcDbEntity
  8
NOTES
  6
Continuous
 62
     7
370
    30
100
AcDbText
 10
54.002596
 20
2.453073
 30
0.0
 40
0.12
  1
4.  ON CURVES OF 6 DEGREES OR GREATER A BALLAST SHOULDER WIDTH OF
 41
0.833333
  7
Style-Arial
100
AcDbText
  0
TEXT
  5
4DF
330
59C
100
AcDbEntity
  8
NOTES
  6
Continuous
 62
     7
370
    30
100
AcDbText
 10
54.002571
 20
2.026115
 30
0.0
 40
0.12
  1
5.  CUT OR FILL ACCORDING TO LOCAL CONDITIONS.
 41
0.833333
  7
Style-Arial
100
AcDbText
  0
TEXT
  5
4FA
330
59C
100
AcDbEntity
  8
DIM
  6
Continuous
 62
     7
370
    30
100
AcDbText
 10
54.501181
 20
7.060312
 30
0.0
 40
0.12
  1
6" MIN
 50
1.076017
 41
0.833333
  7
Style-Arial
100
AcDbText
  0
TEXT
  5
502
330
59C
100
AcDbEntity
  8
DIM
  6
Continuous
 62
     7
370
    30
100
AcDbText
 10
58.831833
 20
7.113948
 30
0.0
 40
0.12
  1
6" MIN
 50
1.076017
 41
0.833333
  7
Style-Arial
100
AcDbText
  0
TEXT
  5
51B
330
59C
100
AcDbEntity
  8
DIM
  6
Continuous
 62
     7
370
    30
100
AcDbText
 10
56.263046
 20
6.635181
 30
0.0
 40
0.12
  1
2'-4-1/4"
 50
1.076017
 41
0.833333
  7
Style-Arial
100
AcDbText
  0
TEXT
  5
51C
330
59C
100
AcDbEntity
  8
_0
  6
Continuous
 62
     7
370
    30
100
AcDbText
 10
56.875625
 20
7.007729
 30
0.0
 40
0.12
  1
L
 50
2.076017
 41
0.833333
  7
Style-Arial
100
AcDbText
  0
TEXT
  5
51D
330
59C
100
AcDbEntity
  8
_0
  6
Continuous
 62
     7
370
    30
100
AcDbText
 10
56.832667
 20
7.060812
 30
0.0
 40
0.12
  1
C
 50
2.076017
 41
0.833333
  7
Style-Arial
100
AcDbText
  0
TEXT
  5
51E
330
59C
100
AcDbEntity
  8
DIM
  6
Continuous
 62
     7
370
    30
100
AcDbText
 10
57.013585
 20
6.649721
 30
0.0
 40
0.12
  1
2'-4-1/4"
 50
1.076017
 41
0.833333
  7
Style-Arial
100
AcDbText
  0
ENDSEC
  0
SECTION
  2
OBJECTS
  0
DICTIONARY
  5
590
330
0
100
AcDbDictionary
281
     1
  3
ACAD_COLOR
350
5AF
  3
ACAD_GROUP
350
5AC
  3
ACAD_LAYOUT
350
5A0
  3
ACAD_MATERIAL
350
5AE
  3
ACAD_MLINESTYLE
350
59A
  3
ACAD_PLOTSETTINGS
350
5AD
  3
ACAD_PLOTSTYLENAME
350
58F
  3
ACAD_TABLESTYLE
350
5C9
  3
AcadDim
350
5BC
  3
MicroStation
350
5B4
  0
DICTIONARY
  5
58C
330
58B
100
AcDbDictionary
280
     1
281
     1
  3
ACAD_LAYERFILTERS
360
5B3
  3
ACAD_LAYERSTATES
360
58D
  0
DICTIONARY
  5
5C5
330
59C
100
AcDbDictionary
280
     1
281
     1
  3
ACAD_SORTENTS
360
5C6
  0
DICTIONARY
  5
5AF
102
{ACAD_REACTORS
330
590
102
}
330
590
100
AcDbDictionary
281
     1
  0
DICTIONARY
  5
5AC
102
{ACAD_REACTORS
330
590
102
}
330
590
100
AcDbDictionary
281
     1
  0
DICTIONARY
  5
5A0
102
{ACAD_REACTORS
330
590
102
}
330
590
100
AcDbDictionary
281
     1
  3
Layout1
350
5A4
  3
Model
350
59F
  0
DICTIONARY
  5
5AE
102
{ACAD_REACTORS
330
590
102
}
330
590
100
AcDbDictionary
281
     1
  0
DICTIONARY
  5
59A
102
{ACAD_REACTORS
330
590
102
}
330
590
100
AcDbDictionary
281
     1
  3
Standard
350
599
  0
DICTIONARY
  5
5AD
102
{ACAD_REACTORS
330
590
102
}
330
590
100
AcDbDictionary
281
     1
  0
ACDBDICTIONARYWDFLT
  5
58F
102
{ACAD_REACTORS
330
590
102
}
330
590
100
AcDbDictionary
281
     1
  3
Normal
350
58E
100
AcDbDictionaryWithDefault
340
58E
  0
DICTIONARY
  5
5C9
102
{ACAD_REACTORS
330
590
102
}
330
590
100
AcDbDictionary
281
     1
  0
XRECORD
  5
5BC
102
{ACAD_REACTORS
330
590
102
}
330
590
100
AcDbXrecord
280
     1
 90
   990106
  3
 
 60
     0
 61
     0
 62
     1
 63
     1
 64
     0
 65
     0
 66
     0
 67
     3
 68
     1
 69
     1
 70
     0
 71
     0
 72
     0
 40
0.0
170
     0
  0
DICTIONARY
  5
5B4
102
{ACAD_REACTORS
330
590
102
}
330
590
100
AcDbDictionary
281
     1
  3
ApplicationElement 1411
350
583
  3
ApplicationElement 1416
350
588
  3
ModelApplicationElement 0 1410
350
582
  0
DICTIONARY
  5
5B3
102
{ACAD_REACTORS
330
58C
102
}
330
58C
100
AcDbDictionary
281
     1
  0
DICTIONARY
  5
58D
102
{ACAD_REACTORS
330
58C
102
}
330
58C
100
AcDbDictionary
281
     1
  0
SORTENTSTABLE
  5
5C6
102
{ACAD_REACTORS
330
5C5
102
}
330
5C5
100
AcDbSortentsTable
330
59C
331
418
  5
4AB
331
419
  5
4B6
331
41A
  5
4B7
331
41B
  5
418
331
41C
  5
419
331
41D
  5
41A
331
41E
  5
41B
331
41F
  5
41C
331
420
  5
41D
331
421
  5
4B8
331
422
  5
41E
331
423
  5
4B9
331
424
  5
4BA
331
425
  5
41F
331
426
  5
420
331
427
  5
4C5
331
428
  5
421
331
429
  5
4D0
331
42A
  5
4D1
331
42B
  5
4D2
331
42C
  5
422
331
42D
  5
423
331
42E
  5
424
331
42F
  5
425
331
430
  5
426
331
431
  5
427
331
432
  5
428
331
433
  5
4D3
331
434
  5
4D4
331
435
  5
429
331
436
  5
4D5
331
437
  5
42A
331
438
  5
42B
331
439
  5
42C
331
43A
  5
42D
331
43B
  5
42E
331
43C
  5
4D6
331
43D
  5
4D7
331
43E
  5
4D8
331
43F
  5
42F
331
440
  5
430
331
441
  5
4D9
331
442
  5
4DA
331
443
  5
431
331
444
  5
432
331
445
  5
433
331
446
  5
434
331
447
  5
435
331
448
  5
436
331
449
  5
4DB
331
44A
  5
437
331
44B
  5
438
331
44C
  5
439
331
44D
  5
43A
331
44E
  5
43B
331
44F
  5
43C
331
450
  5
43D
331
451
  5
43E
331
452
  5
43F
331
453
  5
440
331
454
  5
441
331
455
  5
442
331
456
  5
443
331
457
  5
444
331
458
  5
445
331
459
  5
4DC
331
45A
  5
446
331
45B
  5
447
331
45D
  5
448
331
45F
  5
449
331
461
  5
44A
331
463
  5
44B
331
465
  5
44C
331
467
  5
44D
331
469
  5
44E
331
46A
  5
44F
331
46B
  5
450
331
46C
  5
451
331
46D
  5
452
331
46E
  5
453
331
46F
  5
454
331
470
  5
455
331
471
  5
456
331
472
  5
457
331
473
  5
458
331
474
  5
459
331
475
  5
45A
331
476
  5
45B
331
477
  5
45D
331
478
  5
45F
331
479
  5
461
331
47A
  5
4DD
331
47B
  5
4DE
331
47C
  5
463
331
47D
  5
465
331
47E
  5
467
331
47F
  5
469
331
480
  5
46A
331
481
  5
46B
331
48C
  5
46C
331
497
  5
4DF
331
498
  5
4E0
331
499
  5
4E1
331
49A
  5
4E2
331
49B
  5
4E3
331
49C
  5
46D
331
49D
  5
4EE
331
49E
  5
46E
331
49F
  5
46F
331
4A0
  5
470
331
4AB
  5
471
331
4B6
  5
4EF
331
4B7
  5
472
331
4B8
  5
473
331
4B9
  5
474
331
4BA
  5
475
331
4C5
  5
476
331
4D0
  5
4FA
331
4D1
  5
477
331
4D2
  5
4FB
331
4D3
  5
4FC
331
4D4
  5
4FD
331
4D5
  5
4FF
331
4D6
  5
500
331
4D7
  5
502
331
4D8
  5
503
331
4D9
  5
504
331
4DA
  5
505
331
4DB
  5
510
331
4DC
  5
51B
331
4DD
  5
51C
331
4DE
  5
51D
331
4DF
  5
51E
331
4E0
  5
478
331
4E1
  5
479
331
4E2
  5
47A
331
4E3
  5
47B
331
4EE
  5
47C
331
4EF
  5
47D
331
4FA
  5
51F
331
4FB
  5
47E
331
4FC
  5
47F
331
4FD
  5
480
331
4FF
  5
481
331
500
  5
48C
331
502
  5
520
331
503
  5
497
331
504
  5
498
331
505
  5
499
331
510
  5
49A
331
51B
  5
52B
331
51C
  5
536
331
51D
  5
537
331
51E
  5
538
331
51F
  5
49B
331
520
  5
49C
331
52B
  5
49D
331
536
  5
49E
331
537
  5
49F
331
538
  5
4A0
  0
LAYOUT
  5
5A4
102
{ACAD_REACTORS
330
5A0
330
5A0
102
}
102
{ACAD_XDICTIONARY
360
5A5
102
}
330
5A0
100
AcDbPlotSettings
  1

  2
none_device
  4
Letter_(8.50_x_11.00_Inches)
  6

 40
6.35
 41
6.35
 42
6.350006
 43
6.350006
 44
215.899994
 45
279.399994
 46
0.0
 47
0.0
 48
0.0
 49
0.0
140
0.0
141
0.0
142
1.0
143
1.0
 70
   688
 72
     0
 73
     1
 74
     5
  7

 75
    16
 76
     0
 77
     2
 78
   300
147
1.0
148
0.0
149
0.0
100
AcDbLayout
  1
Layout1
 70
     1
 71
     1
 10
-0.25
 20
-0.25
 11
10.75
 21
8.25
 12
0.0
 22
0.0
 32
0.0
 14
1.049744
 24
0.799667
 34
-0.001526
 15
9.450623
 25
7.200577
 35
0.0
146
0.0
 13
0.0
 23
0.0
 33
0.0
 16
1.0
 26
0.0
 36
0.0
 17
0.0
 27
1.0
 37
0.0
 76
     0
330
5A1
1001
ACAD_PSEXT
1000
None
1000
None
1000
Not applicable
1000
The layout will not be plotted unless a new plotter configuration name is selected.
1070
     0
  0
LAYOUT
  5
59F
102
{ACAD_REACTORS
330
5A0
330
5A0
102
}
330
5A0
100
AcDbPlotSettings
  1

  2
none_device
  4
ANSI_A_(8.50_x_11.00_Inches)
  6

 40
6.35
 41
19.049999
 42
6.350006
 43
19.049988
 44
215.899994
 45
279.399994
 46
0.0
 47
0.0
 48
0.0
 49
0.0
140
0.0
141
0.0
142
1.0
143
2.584895
 70
 11952
 72
     0
 73
     1
 74
     0
  7

 75
     0
 76
     0
 77
     2
 78
   300
147
0.386863
148
0.0
149
0.0
100
AcDbLayout
  1
Model
 70
     1
 71
     0
 10
0.0
 20
0.0
 11
12.0
 21
9.0
 12
0.0
 22
0.0
 32
0.0
 14
0.0
 24
0.0
 34
0.0
 15
0.0
 25
0.0
 35
0.0
146
0.0
 13
0.0
 23
0.0
 33
0.0
 16
1.0
 26
0.0
 36
0.0
 17
0.0
 27
1.0
 37
0.0
 76
     0
330
59C
331
49
  0
MLINESTYLE
  5
599
102
{ACAD_REACTORS
330
59A
102
}
330
59A
100
AcDbMlineStyle
  2
STANDARD
 70
     0
  3

 62
   256
 51
90.0
 52
90.0
 71
     2
 49
0.5
 62
   256
  6
BYLAYER
 49
-0.5
 62
   256
  6
BYLAYER
  0
ACDBPLACEHOLDER
  5
58E
102
{ACAD_REACTORS
330
58F
102
}
330
58F
  0
XRECORD
  5
583
102
{ACAD_REACTORS
330
5B4
102
}
330
5B4
100
AcDbXrecord
280
     1
310
3E4F020000004D6F64656C6572000000000000000000000000000000000000000000000000000000000000000000000000000000000000000000000000000000000000000000000000000000000000000000000000000000000000000000000000000000000000000000000000000000000000000000000000000000000000
310
00000000000000000000000000000000000000000000000000000000000000000000000000000000000000000000000000000000000000000000000000000000000000000000000000000000000000000000000000000000000000000000000000000000000000000000000000000000000000000000000000000000000000
310
00
310
00000000000000000000000000000000000000000000000000000000000000000000000000000000000000000000000000000000000000000000000000000000000000000000000000000000000000000000000000000000000000000000000000000000000000000000000000000000000000000000000000000000000000
310
00000000000000000000000000000000000000000000000000000000000000000000000000000000000000000000000000000000000000000000000000000000000000000000000000000000000000000000000000000000000000000000000000000000000000000000000000000000000000000000000000000000000000
310
00
310
00000000000000000000000000000000000000000000000000000000000000000000000000000000000000000000000000000000000000000000000000000000000000000000000000000000000000000000000000000000000000000000000000000000000000000000000000000000000000000000000000000000000000
310
00000000000000000000000000000000000000000000000000000000000000000000000000000000000000000000000000000000000000000000000000000000000000000000000000000000000000000000000000000000000000000000000000000000000000000000000000000000000000000000000000000000000000
310
00
310
00000000000000000000000000000000000000000000000000000000000000000000000000000000000000000000000000000000000000000000000000000000000000000000000000000000000000000000000000000000000000000000000000000000000000000000000000000000000000000000000000000000000000
310
00000000000000000000000000000000000000000000000000000000000000000000000000000000000000000000000000000000000000000000000000000000000000000000000000000000000000000000000000000000000000000000000000000000000000000000000000000000000000000000000000000000000000
310
00
310
00000000000000000000000000000000000000000000000000000000000000000000000000000000000000000000000000000000000000000000000000000000000000000000000000000000000000000000000000000000000000000000000000000000000000000000000000000000000000000000000000000000000000
310
00000000000000000000000000000000000000000000000000000000000000000000000000000000000000000000000000000000000000000000000000000000000000000000000000000000000000000000000000000000000000000000000000000000000000000000000000000000000000000000000000000000000000
310
00
310
00000000000000000000000000000000000000000000000000000000000000000000000000000000000000000000000000000000000000000000000000000000000000000000000000000000000000000000000000000000000000000000000000000000000000000000000000000000000000000000000000000000000000
310
00000000000000000000000000000000000000000000000000000000000000000000000000000000000000000000000000000000000000000000000000000000000000000000000000000000000000000000000000000000000000000000000000000000000000000000000000000000000000000000000000000000000000
310
00
310
00000000000000000000000000000000000000000000000000000000000000000000000000000000000000000000000000000000000000000000000000000000000000000000000000000000000000000000000000000000000000000000000000000000000000000000000000000000000000000000000000000000000000
310
00000000000000000000000000000000000000000000000000000000000000000000000000000000000000000000000000000000000000000000000000000000000000000000000000000000000000000000000000000000000000000000000000000000000000000000000000000000000000000000000000000000000000
310
00
310
00000000000000000000000000000000000000000000000000000000000000000000000000000000000000000000000000000000000000000000000000000000000000000000000000000000000000000000000000000000000000000000000000000000000000000000000000000000000000000000000000000000000000
310
00000000000000000000000000000000000000000000000000000000000000000000000000000000000000000000000000000000000000000000000000000000000000000000000000000000000000000000000000000000000000000000000000000000000000000000000000000000000000000000000000000000000000
310
00
310
00000000000000000000000000000000000000000000000000000000000000000000000000000000000000000000000000000000000000000000000000000000000000000000000000000000000000000000000000000000000000000000000000000000000000000000000000000000000000000000000000000000000000
310
00000000000000000000000000000000000000000000000000000000000000000000000000000000000000000000000000000000000000000000000000000000000000000000000000000000000000000000000000000000000000000000000000000000000000000000000000000000000000000000000000000000000000
310
00
310
00000000000000000000000000000000000000000000000000000000000000000000000000000000000000000000000000000000000000000000000000000000000000000000000000000000000000000000000000000000000000000000000000000000000000000000000000000000000000000000000000000000000000
310
00000000000000000000000000000000000000000000000000000000000000000000000000000000000000000000000000000000000000000000000000000000000000000000000000000000000000000000000000000000000000000000000000000000000000000000000000000000000000000000000000000000000000
310
00
310
00000000000000000000000000000000000000000000000000000000000000000000000000000000000000000000000000000000000000000000000000000000000000000000000000000000000000000000000000000000000000000000000000000000000000000000000000000000000000000000000000000000000000
310
00000000000000000000000000000000000000000000000000000000000000000000000000000000000000000000000000000000000000000000000000000000000000000000000000000000000000000000000000000000000000000000000000000000000000000000000000000000000000000000000000000000000000
310
00
310
00000000000000000000000000000000000000000000000000000000000000000000000000000000000000000000000000000000000000000000000000000000000000000000000000000000000000000000000000000000000000000000000000000000000000000000000000000000000000000000000000000000000000
310
00000000000000000000000000000000000000000000000000000000000000000000000000000000000000000000000000000000000000000000000000000000000000000000000000000000000000000000000000000000000000000000000000000000000000000000000000000000000000000000000000000000000000
310
00
310
00000000000000000000000000000000000000000000000000000000000000000000000000000000000000000000000000000000000000000000000000000000000000000000000000000000000000000000000000000000000000000000000000000000000000000000000000000000000000000000000000000000000000
310
00000000000000000000000000000000000000000000000000000000000000000000000000000000000000000000000000000000000000000000000000000000000000000000000000000000000000000000000000000000000000000000000000000000000000000000000000000000000000000000000000000000000000
310
00
310
00000000000000000000000000000000000000000000000000000000000000000000000000000000000000000000000000000000000000000000000000000000000000000000000000000000000000000000000000000000000000000000000000000000000000000000000000000000000000
  0
XRECORD
  5
588
102
{ACAD_REACTORS
330
5B4
102
}
330
5B4
100
AcDbXrecord
280
     1
310
3E4F020000004D6F64656C6572000000000000000000000000000000000000000000000000000000000000000000000000000000000000000000000000000000000000000000000000000000000000000000000000000000000000000000000000000000000000000000000000000000000000000000000000000000000000
310
00000000000000000000000000000000000000000000000000000000000000000000000000000000000000000000000000000000000000000000000000000000000000000000000000000000000000000000000000000000000000000000000000000000000000000000000000000000000000000000000000000000000000
310
00
310
00000000000000000000000000000000000000000000000000000000000000000000000000000000000000000000000000000000000000000000000000000000000000000000000000000000000000000000000000000000000000000000000000000000000000000000000000000000000000000000000000000000000000
310
00000000000000000000000000000000000000000000000000000000000000000000000000000000000000000000000000000000000000000000000000000000000000000000000000000000000000000000000000000000000000000000000000000000000000000000000000000000000000000000000000000000000000
310
00
310
00000000000000000000000000000000000000000000000000000000000000000000000000000000000000000000000000000000000000000000000000000000000000000000000000000000000000000000000000000000000000000000000000000000000000000000000000000000000000000000000000000000000000
310
00000000000000000000000000000000000000000000000000000000000000000000000000000000000000000000000000000000000000000000000000000000000000000000000000000000000000000000000000000000000000000000000000000000000000000000000000000000000000000000000000000000000000
310
00
310
00000000000000000000000000000000000000000000000000000000000000000000000000000000000000000000000000000000000000000000000000000000000000000000000000000000000000000000000000000000000000000000000000000000000000000000000000000000000000000000000000000000000000
310
00000000000000000000000000000000000000000000000000000000000000000000000000000000000000000000000000000000000000000000000000000000000000000000000000000000000000000000000000000000000000000000000000000000000000000000000000000000000000000000000000000000000000
310
00
310
00000000000000000000000000000000000000000000000000000000000000000000000000000000000000000000000000000000000000000000000000000000000000000000000000000000000000000000000000000000000000000000000000000000000000000000000000000000000000000000000000000000000000
310
00000000000000000000000000000000000000000000000000000000000000000000000000000000000000000000000000000000000000000000000000000000000000000000000000000000000000000000000000000000000000000000000000000000000000000000000000000000000000000000000000000000000000
310
00
310
00000000000000000000000000000000000000000000000000000000000000000000000000000000000000000000000000000000000000000000000000000000000000000000000000000000000000000000000000000000000000000000000000000000000000000000000000000000000000000000000000000000000000
310
00000000000000000000000000000000000000000000000000000000000000000000000000000000000000000000000000000000000000000000000000000000000000000000000000000000000000000000000000000000000000000000000000000000000000000000000000000000000000000000000000000000000000
310
00
310
00000000000000000000000000000000000000000000000000000000000000000000000000000000000000000000000000000000000000000000000000000000000000000000000000000000000000000000000000000000000000000000000000000000000000000000000000000000000000000000000000000000000000
310
00000000000000000000000000000000000000000000000000000000000000000000000000000000000000000000000000000000000000000000000000000000000000000000000000000000000000000000000000000000000000000000000000000000000000000000000000000000000000000000000000000000000000
310
00
310
00000000000000000000000000000000000000000000000000000000000000000000000000000000000000000000000000000000000000000000000000000000000000000000000000000000000000000000000000000000000000000000000000000000000000000000000000000000000000000000000000000000000000
310
00000000000000000000000000000000000000000000000000000000000000000000000000000000000000000000000000000000000000000000000000000000000000000000000000000000000000000000000000000000000000000000000000000000000000000000000000000000000000000000000000000000000000
310
00
310
00000000000000000000000000000000000000000000000000000000000000000000000000000000000000000000000000000000000000000000000000000000000000000000000000000000000000000000000000000000000000000000000000000000000000000000000000000000000000000000000000000000000000
310
00000000000000000000000000000000000000000000000000000000000000000000000000000000000000000000000000000000000000000000000000000000000000000000000000000000000000000000000000000000000000000000000000000000000000000000000000000000000000000000000000000000000000
310
00
310
00000000000000000000000000000000000000000000000000000000000000000000000000000000000000000000000000000000000000000000000000000000000000000000000000000000000000000000000000000000000000000000000000000000000000000000000000000000000000000000000000000000000000
310
00000000000000000000000000000000000000000000000000000000000000000000000000000000000000000000000000000000000000000000000000000000000000000000000000000000000000000000000000000000000000000000000000000000000000000000000000000000000000000000000000000000000000
310
00
310
00000000000000000000000000000000000000000000000000000000000000000000000000000000000000000000000000000000000000000000000000000000000000000000000000000000000000000000000000000000000000000000000000000000000000000000000000000000000000000000000000000000000000
310
00000000000000000000000000000000000000000000000000000000000000000000000000000000000000000000000000000000000000000000000000000000000000000000000000000000000000000000000000000000000000000000000000000000000000000000000000000000000000000000000000000000000000
310
00
310
00000000000000000000000000000000000000000000000000000000000000000000000000000000000000000000000000000000000000000000000000000000000000000000000000000000000000000000000000000000000000000000000000000000000000000000000000000000000000000000000000000000000000
310
00000000000000000000000000000000000000000000000000000000000000000000000000000000000000000000000000000000000000000000000000000000000000000000000000000000000000000000000000000000000000000000000000000000000000000000000000000000000000000000000000000000000000
310
00
310
00000000000000000000000000000000000000000000000000000000000000000000000000000000000000000000000000000000000000000000000000000000000000000000000000000000000000000000000000000000000000000000000000000000000000000000000000000000000000000000000000000000000000
310
00000000000000000000000000000000000000000000000000000000000000000000000000000000000000000000000000000000000000000000000000000000000000000000000000000000000000000000000000000000000000000000000000000000000000000000000000000000000000000000000000000000000000
310
00
310
00000000000000000000000000000000000000000000000000000000000000000000000000000000000000000000000000000000000000000000000000000000000000000000000000000000000000000000000000000000000000000000000000000000000000000000000000000000000000
  0
XRECORD
  5
582
102
{ACAD_REACTORS
330
5B4
102
}
330
5B4
100
AcDbXrecord
280
     1
310
DF56060034040701D0009A9999999999B93F000000000000000000000000000000000400000009000000000000000200000064000000640000000100000001000000190000007B14AE47E17A843F00000000004060409A9999999999B93F00000000004C2D41000000000070F7400000000000942141000000000000000000
310
0000000000000000000000000000000AD482040000000000000000000000000000F03F000000000000000000000000000030402D431CEBE2362A3F00000000000008400000000000000000009807C000000000000000007C1A61B9A711364020000000050000000A000000200000002000000020000000000000000000F03F
310
00
310
0000000000F03F000000000000F03F333333333333D33F333333333333D33F333333333333D33F000000000000F43F000000000000F43F000000000000F03F0200000064000000000000000000000000000840000000000000F83F00000000000000000000000000000000008056409A9999999999B93F0000000000000000
310
00000000000000000000000000000000000000000000000000000000000000000000000000000000000000000000000000000000000000000000000000000000000000000000000000000000000000000000000000000000000000000000000000000000000000000000000000000000000000000000000000000000000000
310
00
310
0000000000000000000000000000000000000000000000000000000000000000000000000000000000000000000000000000000000000000000000000000000000000000000000000000000000000000000000000000000000000000000000000000000000000000000000000000000000000000000000009A9999999999A9
310
3F9100000000000000000000000000000035A781D547960F40000000000000F03F000000000000F03F666666666666164000000000104068F200000000000000000000000000000000000000000000000000000000000000000000000000000000000000000000000000000000000000000000000000000000000000000000
310
00
310
00000000000000000000000000000000000000000000000000000000000000000000000000000000000000000000000000000000000000000000000000000000000000000000000000000000000000000000000000000000000000000000000000000000000000000000000000000000000000000000000000000000000000
310
000000000000000000000000000000000000000000000000000000000000000000000000000000000000000000000000000000000000000000000000FF000000000000000000000000000000000000000000000000000000000000000000000000000000000000000000000000000000000000000000000000000000000000
310
00
310
0000000000000000000000000000000000000000000000000000000000000000000000000000000000000000000000000000000000000000000000000000000000000000
  0
DICTIONARY
  5
5A5
330
5A4
100
AcDbDictionary
280
     1
281
     1
  3
ADSK_XREC_LAYOUTTHUMBNAIL
360
5A6
  0
XRECORD
  5
5A6
102
{ACAD_REACTORS
330
5A5
102
}
330
5A5
100
AcDbXrecord
280
     1
310
28000000B40000008B0000000100080000000000BC61000000000000000000000001000000000000FFFFFF0000000000FFFFFF000000000000000000000000000000000000000000000000000000000000000000330000006600000099000000CC000000FF00000000330000333300006633000099330000CC330000FF3300
310
0000660000336600006666000099660000CC660000FF66000000990000339900006699000099990000CC990000FF99000000CC000033CC000066CC000099CC0000CCCC0000FFCC000000FF000033FF000066FF000099FF0000CCFF0000FFFF000000003300330033006600330099003300CC003300FF003300003333003333
310
33006633330099333300CC333300FF33330000663300336633006666330099663300CC663300FF66330000993300339933006699330099993300CC993300FF99330000CC330033CC330066CC330099CC3300CCCC3300FFCC330000FF330033FF330066FF330099FF3300CCFF3300FFFF330000006600330066006600660099
310
006600CC006600FF00660000336600333366006633660099336600CC336600FF33660000666600336666006666660099666600CC666600FF66660000996600339966006699660099996600CC996600FF99660000CC660033CC660066CC660099CC6600CCCC6600FFCC660000FF660033FF660066FF660099FF6600CCFF6600
310
FFFF660000009900330099006600990099009900CC009900FF00990000339900333399006633990099339900CC339900FF33990000669900336699006666990099669900CC669900FF66990000999900339999006699990099999900CC999900FF99990000CC990033CC990066CC990099CC9900CCCC9900FFCC990000FF99
310
0033FF990066FF990099FF9900CCFF9900FFFF99000000CC003300CC006600CC009900CC00CC00CC00FF00CC000033CC003333CC006633CC009933CC00CC33CC00FF33CC000066CC003366CC006666CC009966CC00CC66CC00FF66CC000099CC003399CC006699CC009999CC00CC99CC00FF99CC0000CCCC0033CCCC0066CC
310
CC0099CCCC00CCCCCC00FFCCCC0000FFCC0033FFCC0066FFCC0099FFCC00CCFFCC00FFFFCC000000FF003300FF006600FF009900FF00CC00FF00FF00FF000033FF003333FF006633FF009933FF00CC33FF00FF33FF000066FF003366FF006666FF009966FF00CC66FF00FF66FF000099FF003399FF006699FF009999FF00CC
310
99FF00FF99FF0000CCFF0033CCFF0066CCFF0099CCFF00CCCCFF00FFCCFF0000FFFF0033FFFF0066FFFF0099FFFF00CCFFFF00FFFFFF00000000000D0D0D001A1A1A00282828003535350043434300505050005D5D5D006B6B6B00787878008686860093939300A1A1A100AEAEAE00BBBBBB00C9C9C900D6D6D600E4E4E400
310
F1F1F100FFFFFF0000000000000000000000000000000000000000000000000000000000000000000000000000000000E2E2E2E2E2E2E2E2E2E2E2E2E2E2E2E2E2E2E2E2E2E2E2E2E2E2E2E2E2E2E2E2E2E2E2E2E2E2E2E2E2E2E2E2E2E2E2E2E2E2E2E2E2E2E2E2E2E2E2E2E2E2E2E2E2E2E2E2E2E2E2E2E2E2E2E2E2E2E2
310
E2E2E2E2E2E2E2E2E2E2E2E2E2E2E2E2E2E2E2E2E2E2E2E2E2E2E2E2E2E2E2E2E2E2E2E2E2E2E2E2E2E2E2E2E2E2E2E2E2E2E2E2E2E2E2E2E2E2E2E2E2E2E2E2E2E2E2E2E2E2E2E2E2E2E2E2E2E2E2E2E2E2E2E2E2E2E2E2E2E2E2E2E2E2E2E2E2E2E2E2EFF5F5F5F5F5F5F5F5F5F5F5F5F5F5F5F5F5F5F5F5F5F5F5F5F5F5
310
F5F5F5F5F5F5F5F5F5F5F5F5F5F5F5F5F5F5F5F5F5F5F5F5F5F5F5F5F5F5F5F5F5F5F5F5F5F5F5F5F5F5F5F5F5F5F5F5F5F5F5F5F5F5F5F5F5F5F5F5F5F5F5F5F5F5F5F5F5F5F5F5F5F5F5F5F5F5F5F5F5F5F5F5F5F5F5F5F5F5F5F5F5F5F5F5F5F5F5F5F5F5F5F5F5F5F5F5F5F5F5F5F5F5F5F5F5F5F5F5F5F5F5F5F5F5F5
310
F5F5F5F5F5F5F5F5F5F5F5F5F5F5F5F5F5F5F5F5F5F5F5F5E2E2EFF5F5F5F5F5F5F5F5F5F5F5F5F5F5F5F5F5F5F5F5F5F5F5F5F5F5F5F5F5F5F5F5F5F5F5F5F5F5F5F5F5F5F5F5F5F5F5F5F5F5F5F5F5F5F5F5F5F5F5F5F5F5F5F5F5F5F5F5F5F5F5F5F5F5F5F5F5F5F5F5F5F5F5F5F5F5F5F5F5F5F5F5F5F5F5F5F5F5F5F5
310
F5F5F5F5F5F5F5F5F5F5F5F5F5F5F5F5F5F5F5F5F5F5F5F5F5F5F5F5F5F5F5F5F5F5F5F5F5F5F5F5F5F5F5F5F5F5F5F5F5F5F5F5F5F5F5F5F5F5F5F5F5F5F5F5F5F5F5F5F5F5F5F5F5F5F5F5F5E2E2EFF5F5F5F5F5F5F5F5F5F5F5F5F5F5F5F5F5F5F5F5F5F5F5F5F5F5F5F5F5F5F5F5F5F5F5F5F5F5F5F5F5F5F5F5F5F5F5
310
F5F5F5F5F5F5F5F5F5F5F5F5F5F5F5F5F5F5F5F5F5F5F5F5F5F5F5F5F5F5F5F5F5F5F5F5F5F5F5F5F5F5F5F5F5F5F5F5F5F5F5F5F5F5F5F5F5F5F5F5F5F5F5F5F5F5F5F5F5F5F5F5F5F5F5F5F5F5F5F5F5F5F5F5F5F5F5F5F5F5F5F5F5F5F5F5F5F5F5F5F5F5F5F5F5F5F5F5F5F5F5F5F5F5F5F5F5F5F5F5F5F5F5F5F5F5F5
310
F5F5F5E2E2EFF5F5F5E2E2E2E2E2E2E2E2F5F5F5F5F5F5F5F5F5E2E2E2E2E2E2E2E2E2E2E2E2E2E2E2E2F5F5F5F5F5F5F5F5E2E2E2E2E2E2E2E2E2E2E2E2E2E2E2E2F5F5F5F5F5F5F5F5F5E2E2E2E2E2E2E2E2E2E2E2E2E2E2E2F5F5F5F5F5F5F5F5F5E2E2E2E2E2E2E2E2E2E2E2E2E2E2E2F5F5F5F5F5F5F5F5F5E2E2E2E2
310
E2E2E2E2E2E2E2E2E2E2E2E2F5F5F5F5F5F5F5F5E2E2E2E2E2E2E2E2E2E2E2E2E2E2E2E2F5F5F5F5F5F5F5F5F5E2E2E2E2E2E2E2E2F5F5F5E2E2EFF5F5F5E2F5F5F5F5F5F5F5F5F5F5F5F5F5F5F5F5F5F5F5F5F5F5F5F5F5F5F5F5F5F5F5F5F5F5F5F5F5F5F5F5F5F5F5F5F5F5F5F5F5F5F5F5F5F5F5F5F5F5F5F5F5F5F5F5
310
F5F5F5F5F5F5F5F5F5F5F5F5F5F5F5F5F5F5F5F5F5F5F5F5F5F5F5F5F5F5F5F5F5F5F5F5F5F5F5F5F5F5F5F5F5F5F5F5F5F5F5F5F5F5F5F5F5F5F5F5F5F5F5F5F5F5F5F5F5F5F5F5F5F5F5F5F5F5F5F5F5F5F5F5F5F5F5F5F5F5F5F5F5F5F5F5F5F5F5F5F5F5F5F5F5E2F5F5F5E2E2EFF5F5F5E2F5F5F5F5F5F5F5F5F5F5F5
310
F5F5F5F5F5F5F5F5F5F5F5F5F5F5F5F5F5F5F5F5F5F5F5F5F5F5F5F5F5F5F5F5F5F5F5F5F5F5F5F5F5F5F5F5F5F5F5F5F5F5F5F5F5F5F5F5F5F5F5F5F5F5F5F5F5F5F5F5F5F5F5F5F5F5F5F5F5F5F5F5F5F5F5F5F5F5F5F5F5F5F5F5F5F5F5F5F5F5F5F5F5F5F5F5F5F5F5F5F5F5F5F5F5F5F5F5F5F5F5F5F5F5F5F5F5F5F5
310
F5F5F5F5F5F5F5F5F5F5F5F5F5F5F5F5F5F5F5F5F5F5F5F5F5F5F5F5F5F5F5E2F5F5F5E2E2EFF5F5F5E2F5F5F5F5F5F5F5F5F5F5F5F5F5F5F5F5F5F5F5F5F5F5F5F5F5F5F5F5F5F5F5F5F5F5F5F5F5F5F5F5F5F5F5F5F5F5F5F5F5F5F5F5F5F5F5F5F5F5F5F5F5F5F5F5F5F5F5F5F5F5F5F5F5F5F5F5F5F5F5F5F5F5F5F5F5
310
F5F5F5F5F5F5F5F5F5F5F5F5F5F5F5F5F5F5F5F5F5F5F5F5F5F5F5F5F5F5F5F5F5F5F5F5F5F5F5F5F5F5F5F5F5F5F5F5F5F5F5F5F5F5F5F5F5F5F5F5F5F5F5F5F5F5F5F5F5F5F5F5F5F5F5F5F5F5F5F5F5F5F5F5E2F5F5F5E2E2EFF5F5F5E2F5F5F5F5F5F5F5F5F5F5F5F5F5F5F5F5F5F5F5F5F5F5F5F5F5F5F5F5F5F5F5F5
310
F5F5F5F5F5F5F5F5F5F5F5F5F5F5F5F5F5F5F5F5F5F5F5F5F5F5F5F5F5F5F5F5F5F5F5F5F5F5F5F5F5F5F5F5F5F5F5F5F5F5F5F5F5F5F5F5F5F5F5F5F5F5F5F5F5F5F5F5F5F5F5F5F5F5F5F5F5F5F5F5F5F5F5F5F5F5F5F5F5F5F5F5F5F5F5F5F5F5F5F5F5F5F5F5F5F5F5F5F5F5F5F5F5F5F5F5F5F5F5F5F5F5F5F5F5F5F5
310
F5F5F5F5F5F5F5F5F5F5E2F5F5F5E2E2EFF5F5F5E2F5F5F5F5F5F5F5F5F5F5F5F5F5F5F5F5F5F5F5F5F5F5F5F5F5F5F5F5F5F5F5F5F5F5F5F5F5F5F5F5F5F5F5F5F5F5F5F5F5F5F5F5F5F5F5F5F5F5F5F5F5F5F5F5F5F5F5F5F5F5F5F5F5F5F5F5F5F5F5F5F5F5F5F5F5F5F5F5F5F5F5F5F5F5F5F5F5F5F5F5F5F5F5F5F5F5
310
F5F5F5F5F5F5F5F5F5F5F5F5F5F5F5F5F5F5F5F5F5F5F5F5F5F5F5F5F5F5F5F5F5F5F5F5F5F5F5F5F5F5F5F5F5F5F5F5F5F5F5F5F5F5F5F5F5F5F5F5F5F5F5E2F5F5F5E2E2EFF5F5F5E2F5F5F5F5F5F5F5F5F5F5F5F5F5F5F5F5F5F5F5F5F5F5F5F5F5F5F5F5F5F5F5F5F5F5F5F5F5F5F5F5F5F5F5F5F5F5F5F5F5F5F5F5F5
310
F5F5F5F5F5F5F5F5F5F5F5F5F5F5F5F5F5F5F5F5F5F5F5F5F5F5F5F5F5F5F5F5F5F5F5F5F5F5F5F5F5F5F5F5F5F5F5F5F5F5F5F5F5F5F5F5F5F5F5F5F5F5F5F5F5F5F5F5F5F5F5F5F5F5F5F5F5F5F5F5F5F5F5F5F5F5F5F5F5F5F5F5F5F5F5F5F5F5F5F5F5F5F5F5F5F5F5F5F5F5F5F5F5F5F5F5E2F5F5F5E2E2EFF5F5F5E2
310
F5F5F5F5F5F5F5F5F5F5F5F5F5F5F5F5F5F5F5F5F5F5F5F5F5F5F5F5F5F5F5F5F5F5F5F5F5F5F5F5F5F5F5F5F5F5F5F5F5F5F5F5F5F5F5F5F5F5F5F5F5F5F5F5F5F5F5F5F5F5F5F5F5F5F5F5F5F5F5F5F5F5F5F5F5F5F5F5F5F5F5F5F5F5F5F5F5F5F5F5F5F5F5F5F5F5F5F5F5F5F5F5F5F5F5F5F5F5F5F5F5F5F5F5F5F5F5
310
F5F5F5F5F5F5F5F5F5F5F5F5F5F5F5F5F5F5F5F5F5F5F5F5F5F5F5F5F5F5F5F5F5F5F5F5F5F5F5F5F5F5E2F5F5F5E2E2EFF5F5F5E2F5F5F5F5F5F5F5F5F5F5F5F5F5F5F5F5F5F5F5F5F5F5F5F5F5F5F5F5F5F5F5F5F5F5F5F5F5F5F5F5F5F5F5F5F5F5F5F5F5F5F5F5F5F5F5F5F5F5F5F5F5F5F5F5F5F5F5F5F5F5F5F5F5F5
310
F5F5F5F5F5F5F5F5F5F5F5F5F5F5F5F5F5F5F5F5F5F5F5F5F5F5F5F5F5F5F5F5F5F5F5F5F5F5F5F5F5F5F5F5F5F5F5F5F5F5F5F5F5F5F5F5F5F5F5F5F5F5F5F5F5F5F5F5F5F5F5F5F5F5F5F5F5F5F5F5F5F5F5F5F5F5F5F5F5F5F5F5F5F5F5E2F5F5F5E2E2EFF5F5F5F5F5F5F5F5F5F5F5F5F5F5F5F5F5F5F5F5F5F5F5F5F5
310
F5F5F5F5F5F5F5F5F5F5F5F5F5F5F5F5F5F5F5F5F5F5F5F5F5F5F5F5F5F5F5F5F5F5F5F5F5F5F5F5F5F5F5F5F5F5F5F5F5F5F5F5F5F5F5F5F5F5F5F5F5F5F5F5F5F5F5F5F5F5F5F5F5F5F5F5F5F5F5F5F5F5F5F5F5F5F5F5F5F5F5F5F5F5F5F5F5F5F5F5F5F5F5F5F5F5F5F5F5F5F5F5F5F5F5F5F5F5F5F5F5F5F5F5F5F5F5
310
F5F5F5F5F5F5F5F5F5F5F5F5F5F5F5F5F5F5F5F5F5F5F5F5F5E2E2EFF5F5F5F5F5F5F5F5F5F5F5F5F5F5F5F5F5F5F5F5F5F5F5F5F5F5F5F5F5F5F5F5F5F5F5F5F5F5F5F5F5F5F5F5F5F5F5F5F5F5F5F5F5F5F5F5F5F5F5F5F5F5F5F5F5F5F5F5F5F5F5F5F5F5F5F5F5F5F5F5F5F5F5F5F5F5F5F5F5F5F5F5F5F5F5F5F5F5F5
310
F5F5F5F5F5F5F5F5F5F5F5F5F5F5F5F5F5F5F5F5F5F5F5F5F5F5F5F5F5F5F5F5F5F5F5F5F5F5F5F5F5F5F5F5F5F5F5F5F5F5F5F5F5F5F5F5F5F5F5F5F5F5F5F5F5F5F5F5F5F5F5F5F5F5F5F5F5F5E2E2EFF5F5F5F5F5F5F5F5F5F5F5F5F5F5F5F5F5F5F5F5F5F5F5F5F5F5F5F5F5F5F5F5F5F5F5F5F5F5F5F5F5F5F5F5F5F5
310
F5F5F5F5F5F5F5F5F5F5F5F5F5F5F5F5F5F5F5F5F5F5F5F5F5F5F5F5F5F5F5F5F5F5F5F5F5F5F5F5F5F5F5F5F5F5F5F5F5F5F5F5F5F5F5F5F5F5F5F5F5F5F5F5F5F5F5F5F5F5F5F5F5F5F5F5F5F5F5F5F5F5F5F5F5F5F5F5F5F5F5F5F5F5F5F5F5F5F5F5F5F5F5F5F5F5F5F5F5F5F5F5F5F5F5F5F5F5F5F5F5F5F5F5F5F5F5
310
F5F5F5F5E2E2EFF5F5F5F5F5F5F5F5F5F5F5F5F5F5F5F5F5F5F5F5F5F5F5F5F5F5F5F5F5F5F5F5F5F5F5F5F5F5F5F5F5F5F5F5F5F5F5F5F5F5F5F5F5F5F5F5F5F5F5F5F5F5F5F5F5F5F5F5F5F5F5F5F5F5F5F5F5F5F5F5F5F5F5F5F5F5F5F5F5F5F5F5F5F5F5F5F5F5F5F5F5F5F5F5F5F5F5F5F5F5F5F5F5F5F5F5F5F5F5F5
310
F5F5F5F5F5F5F5F5F5F5F5F5F5F5F5F5F5F5F5F5F5F5F5F5F5F5F5F5F5F5F5F5F5F5F5F5F5F5F5F5F5F5F5F5F5F5F5F5F5F5F5F5F5F5F5F5F5E2E2EFF5F5F5F5F5F5F5F5F5F5F5F5F5F5F5F5F5F5F5F5E2E2E2E2E2E2E2E2E2E2E2E2E2E2E2E2E2E2E2E2E2E2E2E2E2E2E2E2E2E2E2E2E2E2E2E2E2E2E2E2E2E2E2E2E2E2E2
310
E2E2E2E2E2E2E2E2E2E2E2E2E2E2E2E2E2E2E2E2E2E2E2E2E2E2E2E2E2E2E2E2E2E2E2E2E2E2E2E2E2E2E2E2E2E2E2E2E2E2E2E2E2E2E2E2E2E2E2E2E2E2E2E2E2E2E2E2E2E2E2E2E2E2E2E2E2E2E2E2E2E2E2E2E2E2E2E2E2E2F5F5F5F5F5F5F5F5F5F5F5F5F5F5F5F5F5F5F5F5E2E2EFF5F5F5F5F5F5F5F5F5F5F5F5F5F5
310
F5F5F5F5F5F5E2F5F5F5F5F5F5F5F5F5F5F5F5F5F5F5F5F5F5F5F5F5F5F5F5F5F5F5F5F5F5F5F5F5F5F5F5F5F5F5F5F5F5F5F5F5F5F5F5F5F5F5F5F5F5F5F5F5F5F5F5F5F5F5F5F5F5F5F5F5F5F5F5F5F5F5F5F5F5F5F5F5F5F5F5F5F5F5F5F5F5F5F5F5F5F5F5F5F5F5F5F5F5F5F5F5F5F5F5F5F5F5F5F5F5F5F5F5F5F5F5
310
F5F5F5F5F5F5F5F5F5F5F5F5F5F5F5E2F5F5F5F5F5F5F5F5F5F5F5F5F5F5F5F5F5F5F5F5E2E2EFF5F5F5F5F5F5F5F5F5F5F5F5F5F5F5F5F5F5F5F5E2F5F5F5F5F5F5F5F5F5F5F5F5F5F5F5F5F5F5F5F5F5F5F5F5F5F5F5F5F5F5F5F5F5F5F5F5F5F5F5F5F5F5F5F5F5F5F5F5F5F5F5F5F5F5F5F5F5F5F5F5F5F5F5F5F5F5F5
310
F5F5F5F5F5F5F5F5F5F5F5F5F5F5F5F5F5F5F5F5F5F5F5F5F5F5F5F5F5F5F5F5F5F5F5F5F5F5F5F5F5F5F5F5F5F5F5F5F5F5F5F5F5F5F5F5F5F5F5F5F5F5F5F5F5F5F5F5E2F5F5F5F5F5F5F5F5F5F5F5F5F5F5F5F5F5F5F5F5E2E2EFF5F5F5F5F5F5F5F5F5F5F5F5F5F5F5F5F5F5F5F5E2F5F5F5F5F5F5F5F5F5F5F5F5F5F5
310
F5F5F5F5F5F5F5F5F5F5F5F5F5F5F5F5F5F5F5F5F5F5F5F5F5F5F5F5F5F5F5F5F5F5F5F5F5F5F5F5F5F5F5F5F5F5F5F5F5F5F5F5F5F5F5F5F5F5F5F5F5F5F5F5F5F5F5F5F5F5F5F5F5F5F5F5F5F5F5F5F5F5F5F5F5F5F5F5F5F5F5F5F5F5F5F5F5F5F5F5F5F5F5F5F5F5F5F5F5F5F5F5F5F5F5F5F5F5F5F5F5E2F5F5F5F5F5
310
F5F5F5F5F5F5F5F5F5F5F5F5F5F5F5E2E2EFF5F5F5F5F5F5F5F5F5F5F5F5F5F5F5F5F5F5F5F5E2F5F5F5F5F5F5F5F5F5F5F5F5F5F5F5F5F5F5F5F5F5F5F5F5F5F5F5F5F5F5F5F5F5F5F5F5F5F5F5F5F5F5F5F5F5F5F5F5F5F5F5F5F5F5F5F5F5F5F5F5F5F5F5F5F5F5F5F5F5F5F5F5F5F5F5F5F5F5F5F5F5F5F5F5F5F5F5F5
310
F5F5F5F5F5F5F5F5F5F5F5F5F5F5F5F5F5F5F5F5F5F5F5F5F5F5F5F5F5F5F5F5F5F5F5F5F5F5F5F5F5F5F5F5F5F5F5E2F5F5F5F5F5F5F5F5F5F5F5F5F5F5F5F5F5F5F5F5E2E2EFF5F5F5E2F5F5F5F5F5F5F5F5F5F5F5F5F5F5F5F5E2F5F5F5F5F5F5F5F5F5F5F5F5F5F5F5F5F5F5F5F5F5F5F5F5F5F5F5F5F5F5F5F5F5F5F5
310
F5F5F5F5F5F5F5F5F5F5F5F5F5F5F5F5F5F5F5F5F5F5F5F5F5F5F5F5F5F5F5F5F5F5F5F5F5F5F5F5F5F5F5F5F5F5F5F5F5F5F5F5F5F5F5F5F5F5F5F5F5F5F5F5F5F5F5F5F5F5F5F5F5F5F5F5F5F5F5F5F5F5F5F5F5F5F5F5F5F5F5F5F5F5F5F5F5F5F5F5E2F5F5F5F5F5F5F5F5F5F5F5F5F5F5F5F5E2F5F5F5E2E2EFF5F5F5
310
E2F5F5F5F5F5F5F5F5F5F5F5F5F5F5F5F5E2F5F5F5F5F5F5F5F5F5F5F5F5F5F5F5F5F5F5F5F5F5F5F5F5F5F5F5F5F5F5F5F5F5F5F5F5F5F5F5F5F5F5F5F5F5F5F5F5F5F5F5F5F5F5F5F5F5F5F5F5F5F5F5F5F5F5F5F5F5F5F5F5F5F5F5F5F5F5F5F5F5F5F5F5F5F5F5F5F5F5F5F5F5F5F5F5F5F5F5F5F5F5F5F5F5F5F5F5F5
310
F5F5F5F5F5F5F5F5F5F5F5F5F5F5F5F5F5F5F5F5F5F5F5F5F5F5E2F5F5F5F5F5F5F5F5F5F5F5F5F5F5F5F5E2F5F5F5E2E2EFF5F5F5E2F5F5F5F5F5F5F5F5F5F5F5F5F5F5F5F5E2F5F5F5F5F5F5F5F5F5F5F5F5F5F5F5F5F5F5F5F5F5F5F5F5F5F5F5F5F5F5F5F5F5F5F5F5F5F5F5F5F5F5F5F5F5F5F5F5F5F5F5F5F5F5F5F5
310
F5F5F5F5F5F5F5F5F5F5F5F5F5F5F5F5F5F5F5F5F5F5F5F5F5F5F5F5F5F5F5F5F5F5F5F5F5F5F5F5F5F5F5F5F5F5F5F5F5F5F5F5F5F5F5F5F5F5F5F5F5F5F5F5F5F5F5F5F5F5F5F5F5F5F5F5F5F5F5E2F5F5F5F5F5F5F5F5F5F5F5F5F5F5F5F5E2F5F5F5E2E2EFF5F5F5E2F5F5F5F5F5F5F5F5F5F5F5F5F5F5F5F5E2F5F5F5
310
F5F5F5F5F5F5F5F5F5F5F5F5F5F5F5F5F5F5F5F5F5F5F5F5F5F5F5F5F5F5F5F5F5F5F5F5F5F5F5F5F5F5F5F5F5F5F5F5F5F5F5F5F5F5F5F5F5F5F5F5F5F5F5F5F5F5F5F5F5F5F5F5F5F5F5F5F5F5F5F5F5F5F5F5F5F5F5F5F5F5F5F5F5F5F5F5F5F5F5F5F5F5F5F5F5F5F5F5F5F5F5F5F5F5F5F5F5F5F5F5F5F5F5F5F5F5F5
310
F5F5F5F5F5E2F5F5F5F5F5F5F5F5F5F5F5F5F5F5F5F5E2F5F5F5E2E2EFF5F5F5E2F5F5F5F5F5F5F5F5F5F5F5F5F5F5F5F5E2F5F5F5F5F5F5F5F5F5F5F5F5F5F5F5F5F5F5F5F5F5F5F5F5F5F5F5F5F5F5F5F5F5F5F5F5F5F5F5F5F5F5F5F5F5F5F5F5F5F5F5F5F5F5F5F5F5F5F5F5F5F5F5F5F5F5F5F5F5F5F5F5F5F5F5F5F5
310
F5F5F5F5F5F5F5F5F5F5F5F5F5F5F5F5F5F5F5F5F5F5F5F5F5F5F5F5F5F5F5F5F5F5F5F5F5F5F5F5F5F5F5F5F5F5F5F5F5F5F5F5F5F5F5F5F5F5E2F5F5F5F5F5F5F5F5F5F5F5F5F5F5F5F5E2F5F5F5E2E2EFF5F5F5E2F5F5F5F5F5F5F5F5F5F5F5F5F5F5F5F5E2F5F5F5F5F5F5F5F5F5F5F5F5F5F5F5F5F5F5F5F5F5F5F5F5
310
F5F5F5F5F5F5F5F5F5F5F5F5F5F5F5F5F5F5F5F5F5F5F5F5F5F5F5F5F5F5F5F5F5F5F5F5F5F5F5F5F5F5F5F5F5F5F5F5F5F5F5F5F5F5F5F5F5F5F5F5F5F5F5F5F5F5F5F5F5F5F5F5F5F5F5F5F5F5F5F5F5F5F5F5F5F5F5F5F5F5F5F5F5F5F5F5F5F5F5F5F5F5F5F5F5F5F5F5F5F5F5E2F5F5F5F5F5F5F5F5F5F5F5F5F5F5F5
310
F5E2F5F5F5E2E2EFF5F5F5E2F5F5F5F5F5F5F5F5F5F5F5F5F5F5F5F5E2F5F5F5F5F5F5F5F5F5F5F5F5F5F5F5F5F5F5F5F5F5F5F5F5F5F5F5F5F5F5F5F5F5F5F5F5F5F5F5F5F5F5F5F5F5F5F5F5F5F5F5F5F5F5F5F5F5F5F5F5F5F5F5F5F5F5F5F5F5F5F5F5F5F5F5F5F5F5F5F5F5F5F5F5F5F5F5F5F5F5F5F5F5F5F5F5F5F5
310
F5F5F5F5F5F5F5F5F5F5F5F5F5F5F5F5F5F5F5F5F5F5F5F5F5F5F5F5F5F5F5F5F5F5F5F5F5E2F5F5F5F5F5F5F5F5F5F5F5F5F5F5F5F5E2F5F5F5E2E2EFF5F5F5E2F5F5F5F5F5F5F5F5F5F5F5F5F5F5F5F5E2F5F5F5F5F5F5F5F5F5F5F5F5F5F5F5F5F5F5F5F5F5F5F5F5F5F5F5F5F5F5F5F5F5F5F5F5F5F5F5F5F5F5F5F5F5
310
F5F5F5F5F5F5F5F5F5F5F5F5F5F5F5F5F5F5F5F5F5F5F5F5F5F5F5F5F5F5F5F5F5F5F5F5F5F5F5F5F5F5F5F5F5F5F5F5F5F5F5F5F5F5F5F5F5F5F5F5F5F5F5F5F5F5F5F5F5F5F5F5F5F5F5F5F5F5F5F5F5F5F5F5F5F5F5F5F5F5E2F5F5F5F5F5F5F5F5F5F5F5F5F5F5F5F5E2F5F5F5E2E2EFF5F5F5E2F5F5F5F5F5F5F5F5F5
310
F5F5F5F5F5F5F5E2F5F5F5F5F5F5F5F5F5F5F5F5F5F5F5F5F5F5F5F5F5F5F5F5F5F5F5F5F5F5F5F5F5F5F5F5F5F5F5F5F5F5F5F5F5F5F5F5F5F5F5F5F5F5F5F5F5F5F5F5F5F5F5F5F5F5F5F5F5F5F5F5F5F5F5F5F5F5F5F5F5F5F5F5F5F5F5F5F5F5F5F5F5F5F5F5F5F5F5F5F5F5F5F5F5F5F5F5F5F5F5F5F5F5F5F5F5F5F5
310
F5F5F5F5F5F5F5F5F5F5F5F5F5F5F5F5E2F5F5F5F5F5F5F5F5F5F5F5F5F5F5F5F5E2F5F5F5E2E2EFF5F5F5E2F5F5F5F5F5F5F5F5F5F5F5F5F5F5F5F5E2F5F5F5F5F5F5F5F5F5F5F5F5F5F5F5F5F5F5F5F5F5F5F5F5F5F5F5F5F5F5F5F5F5F5F5F5F5F5F5F5F5F5F5F5F5F5F5F5F5F5F5F5F5F5F5F5F5F5F5F5F5F5F5F5F5F5
310
F5F5F5F5F5F5F5F5F5F5F5F5F5F5F5F5F5F5F5F5F5F5F5F5F5F5F5F5F5F5F5F5F5F5F5F5F5F5F5F5F5F5F5F5F5F5F5F5F5F5F5F5F5F5F5F5F5F5F5F5F5F5F5F5F5F5F5F5F5E2F5F5F5F5F5F5F5F5F5F5F5F5F5F5F5F5E2F5F5F5E2E2EFF5F5F5E2F5F5F5F5F5F5F5F5F5F5F5F5F5F5F5F5E2F5F5F5F5F5F5F5F5F5F5F5F5F5
310
F5F5F5F5F5F5F5F5F5F5F5F5F5F5F5F5F5F5F5F5F5F5F5F5F5F5F5F5F5F5F5F5F5F5F5F5F5F5F5F5F5F5F5F5F5F5F5F5F5F5F5F5F5F5F5F5F5F5F5F5F5F5F5F5F5F5F5F5F5F5F5F5F5F5F5F5F5F5F5F5F5F5F5F5F5F5F5F5F5F5F5F5F5F5F5F5F5F5F5F5F5F5F5F5F5F5F5F5F5F5F5F5F5F5F5F5F5F5F5F5F5F5E2F5F5F5F5
310
F5F5F5F5F5F5F5F5F5F5F5F5E2F5F5F5E2E2EFF5F5F5E2F5F5F5F5F5F5F5F5F5F5F5F5F5F5F5F5E2F5F5F5F5F5F5F5F5F5F5F5F5F5F5F5F5F5F5F5F5F5F5F5F5F5F5F5F5F5F5F5F5F5F5F5F5F5F5F5F5F5F5F5F5F5F5F5F5F5F5F5F5F5F5F5F5F5F5F5F5F5F5F5F5F5F5F5F5F5F5F5F5F5F5F5F5F5F5F5F5F5F5F5F5F5F5F5
310
F5F5F5F5F5F5F5F5F5F5F5F5F5F5F5F5F5F5F5F5F5F5F5F5F5F5F5F5F5F5F5F5F5F5F5F5F5F5F5F5F5F5F5F5F5F5F5F5E2F5F5F5F5F5F5F5F5F5F5F5F5F5F5F5F5E2F5F5F5E2E2EFF5F5F5E2F5F5F5F5F5F5F5F5F5F5F5F5F5F5F5F5E2F5F5F5F5F5F5F5F5F5F5F5F5F5F5F5F5F5F5F5F5F5F5F5F5F5F5F5F5F5F5F5F5F5F5
310
F5F5F5F5F5F5F5F5F5F5F5F5F5F5F5F5F5F5F5F5F5F5F5F5F5F5F5F5F5F5F5F5F5F5F5F5F5F5F5F5F5F5F5F5F5F5F5F5F5F5F5F5F5F5F5F5F5F5F5F5F5F5F5F5F5F5F5F5F5F5F5F5F5F5F5F5F5F5F5F5F5F5F5F5F5F5F5F5F5F5F5F5F5F5F5F5F5F5F5F5F5E2F5F5F5F5F5F5F5F5F5F5F5F5F5F5F5F5E2F5F5F5E2E2EFF5F5
310
F5E2F5F5F5F5F5F5F5F5F5F5F5F5F5F5F5F5E2F5F5F5F5F5F5F5F5F5F5F5F5F5F5F5F5F5F5F5F5F5F5F5F5F5F5F5F5F5F5F5F5F5F5F5F5F5F5F5F5F5F5F5F5F5F5F5F5F5F5F5F5F5F5F5F5F5F5F5F5F5F5F5F5F5F5F5F5F5F5F5F5F5F5F5F5F5F5F5F5F5F5F5F5F5F5F5F5F5F5F5F5F5F5F5F5F5F5F5F5F5F5F5F5F5F5F5F5
310
F5F5F5F5F5F5F5F5F5F5F5F5F5F5F5F5F5F5F5F5F5F5F5F5F5F5F5E2F5F5F5F5F5F5F5F5F5F5F5F5F5F5F5F5E2F5F5F5E2E2EFF5F5F5E2F5F5F5F5F5F5F5F5F5F5F5F5F5F5F5F5E2F5F5F5F5F5F5F5F5F5F5F5F5F5F5F5F5F5F5F5F5F5F5F5F5F5F5F5F5F5F5F5F5F5F5F5F5F5F5F5F5F5F5F5F5F5F5F5F5F5F5F5F5F5F5F5
310
F5F5F5F5F5F5F5F5F5F5F5F5F5F5F5F5F5F5F5F5F5F5F5F5F5F5F5F5F5F5F5F5F5F5F5F5F5F5F5F5F5F5F5F5F5F5F5F5F5F5F5F5F5F5F5F5F5F5F5F5F5F5F5F5F5F5F5F5F5F5F5F5F5F5F5F5F5F5F5F5E2F5F5F5F5F5F5F5F5F5F5F5F5F5F5F5F5E2F5F5F5E2E2EFF5F5F5E2F5F5F5F5F5F5F5F5F5F5F5F5F5F5F5F5E2F5F5
310
F5F5F5F5F5F5F5F5F5F5F5F5F5F5F5F5F5F5F5F5F5F5F5F5F5F5F5F5F5F5F5F5F5F5F5F5F5F5F5F5F5F5F5F5F5F5F5F5F5F5F5F5F5F5F5F5F5F5F5F5F5F5F5F5F5F5F5F5F5F5F5F5F5F5F5F5F5F5F5F5F5F5F5F5F5F5F5F5F5F5F5F5F5F5F5F5F5F5F5F5F5F5F5F5F5F5F5F5F5F5F5F5F5F5F5F5F5F5F5F5F5F5F5F5F5F5F5
310
F5F5F5F5F5F5E2F5F5F5F5F5F5F5F5F5F5F5F5F5F5F5F5E2F5F5F5E2E2EFF5F5F5E2F5F5F5F5F5F5F5F5F5F5F5F5F5F5F5F5E2F5F5F5F5F5F5F5F5F5F5F5F5F5F5F5F5F5F5F5F5F5F5F5F5F5F5F5F5F5F5F5F5F5F5F5F5F5F5F5F5F5F5F5F5F5F5F5F5F5F5F5F5F5F5F5F5F5F5F5F5F5F5F5F5F5F5F5F5F5F5F5F5F5F5F5F5
310
F5F5F5F5F5F5F5F5F5F5F5F5F5F5F5F5F5F5F5F5F5F5F5F5F5F5F5F5F5F5F5F5F5F5F5F5F5F5F5F5F5F5F5F5F5F5F5F5F5F5F5F5F5F5F5F5F5F5F5E2F5F5F5F5F5F5F5F5F5F5F5F5F5F5F5F5E2F5F5F5E2E2EFF5F5F5F5F5F5F5F5F5F5F5F5F5F5F5F5F5F5F5F5E2F5F5F5F5F5F5F5F5F5F5F5F5F5F5F5F5F5F5F5F5F5F5F5
310
F5F5F5F5F5F5F5F5F5F5F5F5F5F5F5F5F5F5F5F5F5F5F5F5F5F5F5F5F5F5F5F5F5F5F5F5F5F5F5F5F5F5F5F5F5F5F5F5F5F5F5F5F5F5F5F5F5F5F5F5F5F5F5F5F5F5F5F5F5F5F5F5F5F5F5F5F5F5F5F5F5F5F5F5F5F5F5F5F5F5F5F5F5F5F5F5F5F5F5F5F5F5F5F5F5F5F5F5F5F5F5F5E2F5F5F5F5F5F5F5F5F5F5F5F5F5F5
310
F5F5F5F5F5F5E2E2EFF5F5F5F5F5F5F5F5F5F5F5F5F5F5F5F5F5F5F5F5E2F5F5F5F5F5F5F5F5F5F5F5F5F5F5F5F5F5F5F5F5F5F5F5F5F5F5F5F5F5F5F5F5F5F5F5F5F5F5F5F5F5F5F5F5F5F5F5F5F5F5F5F5F5F5F5F5F5F5F5F5F5F5F5F5F5F5F5F5F5F5F5F5F5F5F5F5F5F5F5F5F5F5F5F5F5F5F5F5F5F5F5F5F5F5F5F5F5
310
F5F5F5F5F5F5F5F5F5F5F5F5F5F5F5F5F5F5F5F5F5F5F5F5F5F5F5F5F5F5F5F5F5F5F5F5F5F5E2F5F5F5F5F5F5F5F5F5F5F5F5F5F5F5F5F5F5F5F5E2E2EFF5F5F5F5F5F5F5F5F5F5F5F5F5F5F5F5F5F5F5F5E2F5F5F5F5F5F5F5F5F5F5F5F5F5F5F5F5F5F5F5F5F5F5F5F5F5F5F5F5F5F5F5F5F5F5F5F5F5F5F5F5F5F5F5F5
310
F5F5F5F5F5F5F5F5F5F5F5F5F5F5F5F5F5F5F5F5F5F5F5F5F5F5F5F5F5F5F5F5F5F5F5F5F5F5F5F5F5F5F5F5F5F5F5F5F5F5F5F5F5F5F5F5F5F5F5F5F5F5F5F5F5F5F5F5F5F5F5F5F5F5F5F5F5F5F5F5F5F5F5F5F5F5F5F5F5F5F5E2F5F5F5F5F5F5F5F5F5F5F5F5F5F5F5F5F5F5F5F5E2E2EFF5F5F5F5F5F5F5F5F5F5F5F5
310
F5F5F5F5F5F5F5F5E2F5F5F5F5F5F5F5F5F5F5F5F5F5F5F5F5F5F5F5F5F5F5F5F5F5F5F5F5F5F5F5F5F5F5F5F5F5F5F5F5F5F5F5F5F5F5F5F5F5F5F5F5F5F5F5F5F5F5F5F5F5F5F5F5F5F5F5F5F5F5F5F5F5F5F5F5F5F5F5F5F5F5F5F5F5F5F5F5F5F5F5F5F5F5F5F5F5F5F5F5F5F5F5F5F5F5F5F5F5F5F5F5F5F5F5F5F5F5
310
F5F5F5F5F5F5F5F5F5F5F5F5F5F5F5F5F5E2F5F5F5F5F5F5F5F5F5F5F5F5F5F5F5F5F5F5F5F5E2E2EFF5F5F5F5F5F5F5F5F5F5F5F5F5F5F5F5F5F5F5F5E2F5F5F5F5F5F5F5F5F5F5F5F5F5F5F5F5F5F5F5F5F5F5F5F5F5F5F5F5F5F5F5F5F5F5F5F5F5F5F5F5F5F5F5F5F5F5F5F5F5F5F5F5F5F5F5F5F5F5F5F5F5F5F5F5F5
310
F5F5F5F5F5F5F5F5F5F5F5F5F5F5F5F5F5F5F5F5F5F5F5F5F5F5F5F5F5F5F5F5F5F5F5F5F5F5F5F5F5F5F5F5F5F5F5F5F5F5F5F5F5F5F5F5F5F5F5F5F5F5F5F5F5F5F5F5F5F5E2F5F5F5F5F5F5F5F5F5F5F5F5F5F5F5F5F5F5F5F5E2E2EFF5F5F5F5F5F5F5F5F5F5F5F5F5F5F5F5F5F5F5F5E2F5F5F5F5F5F5F5F5F5F5F5F5
310
F5F5F5F5F5F5F5F5F5F5F5F5F5F5F5F5F5F5F5F5F5F5F5F5F5F5F5F5F5F5F5F5F5F5F5F5F5F5F5F5F5F5F5F5F5F5F5F5F5F5F5F5F5F5F5F5F5F5F5F5F5F5F5F5F5F5F5F5F5F5F5F5F5F5F5F5F5F5F5F5F5F5F5F5F5F5F5F5F5F5F5F5F5F5F5F5F5F5F5F5F5F5F5F5F5F5F5F5F5F5F5F5F5F5F5F5F5F5F5F5F5F5F5E2F5F5F5
310
F5F5F5F5F5F5F5F5F5F5F5F5F5F5F5F5F5E2E2EFF5F5F5F5F5F5F5F5F5F5F5F5F5F5F5F5F5F5F5F5E2F5F5F5F5F5F5F5F5F5F5F5F5F5F5F5F5F5F5F5F5F5F5F5F5F5F5F5F5F5F5F5F5F5F5F5F5F5F5F5F5F5F5F5F5F5F5F5F5F5F5F5F5F5F5F5F5F5F5F5F5F5F5F5F5F5F5F5F5F5F5F5F5F5F5F5F5F5F5F5F5F5F5F5F5F5F5
310
F5F5F5F5F5F5F5F5F5F5F5F5F5F5F5F5F5F5F5F5F5F5F5F5F5F5F5F5F5F5F5F5F5F5F5F5F5F5F5F5F5F5F5F5F5F5F5F5F5E2F5F5F5F5F5F5F5F5F5F5F5F5F5F5F5F5F5F5F5F5E2E2EFF5F5F5F5F5F5F5F5F5F5F5F5F5F5F5F5F5F5F5F5E2F5F5F5F5F5F5F5F5F5F5F5F5F5F5F5F5F5F5F5F5F5F5F5F5F5F5F5F5F5F5F5F5F5
310
F5F5F5F5F5F5F5F5F5F5F5F5F5F5F5F5F5F5F5F5F5F5F5F5F5F5F5F5F5F5F5F5F5F5F5F5F5F5F5F5F5F5F5F5F5F5F5F5F5F5F5F5F5F5F5F5F5F5F5F5F5F5F5F5F5F5F5F5F5F5F5F5F5F5F5F5F5F5F5F5F5F5F5F5F5F5F5F5F5F5F5F5F5F5F5F5F5F5F5F5F5F5E2F5F5F5F5F5F5F5F5F5F5F5F5F5F5F5F5F5F5F5F5E2E2EFF5
310
F5F5F5F5F5F5F5F5F5F5F5F5F5F5F5F5F5F5F5E2F5F5F5F5F5F5F5F5F5F5F5F5F5F5F5F5F5F5F5F5F5F5F5F5F5F5F5F5F5F5F5F5F5F5F5F5F5F5F5F5F5F5F5F5F5F5F5F5F5F5F5F5F5F5F5F5F5F5F5F5F5F5F5F5F5F5F5F5F5F5F5F5F5F5F5F5F5F5F5F5F5F5F5F5F5F5F5F5F5F5F5F5F5F5F5F5F5F5F5F5F5F5F5F5F5F5F5
310
F5F5F5F5F5F5F5F5F5F5F5F5F5F5F5F5F5F5F5F5F5F5F5F5F5F5F5F5E2F5F5F5F5F5F5F5F5F5F5F5F5F5F5F5F5F5F5F5F5E2E2EFF5F5F5E2F5F5F5F5F5F5F5F5F5F5F5F5F5F5F5F5E2F5F5F5F5F5F5F5F5F5F5F5F5F5F5F5F5F5F5F5F5F5F5F5F5F5F5F5F5F5F5F5F5F5F5F5F5F5F5F5F5F5F5F5F5F5F5F5F5F5F5F5F5F5F5
310
F5F5F5F5F5F5F5F5F5F5F5F5F5F5F5F5F5F5F5F5F5F5F5F5F5F5F5F5F5F5F5F5F5F5F5F5F5F5F5F5F5F5F5F5F5F5F5F5F5F5F5F5F5F5F5F5F5F5F5F5F5F5F5F5F5F5F5F5F5F5F5F5F5F5F5F5F5F5F5F5F5E2F5F5F5F5F5F5F5F5F5F5F5F5F5F5F5F5E2F5F5F5E2E2EFF5F5F5E2F5F5F5F5F5F5F5F5F5F5F5F5F5F5F5F5E2F5
310
F5F5F5F5F5F5F5F5F5F5F5F5F5F5F5F5F5F5F5F5F5F5F5F5F5F5F5F5F5F5F5F5F5F5F5F5F5F5F5F5F5F5F5F5F5F5F5F5F5F5F5F5F5F5F5F5F5F5F5F5F5F5F5F5F5F5F5F5F5F5F5F5F5F5F5F5F5F5F5F5F5F5F5F5F5F5F5F5F5F5F5F5F5F5F5F5F5F5F5F5F5F5F5F5F5F5F5F5F5F5F5F5F5F5F5F5F5F5F5F5F5F5F5F5F5F5F5
310
F5F5F5F5F5F5F5E2F5F5F5F5F5F5F5F5F5F5F5F5F5F5F5F5E2F5F5F5E2E2EFF5F5F5E2F5F5F5F5F5F5F5F5F5F5F5F5F5F5F5F5E2F5F5F5F5F5F5F5F5F5F5F5F5F5F5F5F5F5F5F5F5F5F5F5F5F5F5F5F5F5F5F5F5F5F5F5F5F5F5F5F5F5F5F5F5F5F5F5F5F5F5F5F5F5F5F5F5F5F5F5F5F5F5F5F5F5F5F5F5F5F5F5F5F5F5F5
310
F5F5F5F5F5F5F5F5F5F5F5F5F5F5F5F5F5F5F5F5F5F5F5F5F5F5F5F5F5F5F5F5F5F5F5F5F5F5F5F5F5F5F5F5F5F5F5F5F5F5F5F5F5F5F5F5F5F5F5F5E2F5F5F5F5F5F5F5F5F5F5F5F5F5F5F5F5E2F5F5F5E2E2EFF5F5F5E2F5F5F5F5F5F5F5F5F5F5F5F5F5F5F5F5E2F5F5F5F5F5F5F5F5F5F5F5F5F5F5F5F5F5F5F5F5F5F5
310
F5F5F5F5F5F5F5F5F5F5F5F5F5F5F5F5F5F5F5F5F5F5F5F5F5F5F5F5F5F5F5F5F5F5F5F5F5F5F5F5F5F5F5F5F5F5F5F5F5F5F5F5F5F5F5F5F5F5F5F5F5F5F5F5F5F5F5F5F5F5F5F5F5F5F5F5F5F5F5F5F5F5F5F5F5F5F5F5F5F5F5F5F5F5F5F5F5F5F5F5F5F5F5F5F5F5F5F5F5F5F5F5F5E2F5F5F5F5F5F5F5F5F5F5F5F5F5
310
F5F5F5E2F5F5F5E2E2EFF5F5F5E2F5F5F5F5F5F5F5F5F5F5F5F5F5F5F5F5E2F5F5F5F5F5F5F5F5F5F5F5F5F5F5F5F5F5F5F5F5F5F5F5F5F5F5F5F5F5F5F5F5F5F5F5F5F5F5F5F5F5F5F5F5F5F5F5F5F5F5F5F5F5F5F5F5F5F5F5F5F5F5F5F5F5F5F5F5F5F5F5F5F5F5F5F5F5F5F5F5F5F5F5F5F5F5F5F5F5F5F5F5F5F5F5F5
310
F5F5F5F5F5F5F5F5F5F5F5F5F5F5F5F5F5F5F5F5F5F5F5F5F5F5F5F5F5F5F5F5F5F5F5F5F5F5F5E2F5F5F5F5F5F5F5F5F5F5F5F5F5F5F5F5E2F5F5F5E2E2EFF5F5F5E2F5F5F5F5F5F5F5F5F5F5F5F5F5F5F5F5E2F5F5F5F5F5F5F5F5F5F5F5F5F5F5F5F5F5F5F5F5F5F5F5F5F5F5F5F5F5F5F5F5F5F5F5F5F5F5F5F5F5F5F5
310
F5F5F5F5F5F5F5F5F5F5F5F5F5F5F5F5F5F5F5F5F5F5F5F5F5F5F5F5F5F5F5F5F5F5F5F5F5F5F5F5F5F5F5F5F5F5F5F5F5F5F5F5F5F5F5F5F5F5F5F5F5F5F5F5F5F5F5F5F5F5F5F5F5F5F5F5F5F5F5F5F5F5F5F5F5F5F5F5F5F5F5F5E2F5F5F5F5F5F5F5F5F5F5F5F5F5F5F5F5E2F5F5F5E2E2EFF5F5F5E2F5F5F5F5F5F5F5
310
F5F5F5F5F5F5F5F5F5E2F5F5F5F5F5F5F5F5F5F5F5F5F5F5F5F5F5F5F5F5F5F5F5F5F5F5F5F5F5F5F5F5F5F5F5F5F5F5F5F5F5F5F5F5F5F5F5F5F5F5F5F5F5F5F5F5F5F5F5F5F5F5F5F5F5F5F5F5F5F5F5F5F5F5F5F5F5F5F5F5F5F5F5F5F5F5F5F5F5F5F5F5F5F5F5F5F5F5F5F5F5F5F5F5F5F5F5F5F5F5F5F5F5F5F5F5F5
310
F5F5F5F5F5F5F5F5F5F5F5F5F5F5F5F5F5F5E2F5F5F5F5F5F5F5F5F5F5F5F5F5F5F5F5E2F5F5F5E2E2EFF5F5F5E2F5F5F5F5F5F5F5F5F5F5F5F5F5F5F5F5E2F5F5F5F5F5F5F5F5F5F5F5F5F5F5F5F5F5F5F5F5F5F5F5F5F5F5F5F5F5F5F5F5F5F5F5F5F5F5F5F5F5F5F5F5F5F5F5F5F5F5F5F5F5F5F5F5F5F5F5F5F5F5F5F5
310
F5F5F5F5F5F5F5F5F5F5F5F5F5F5F5F5F5F5F5F5F5F5F5F5F5F5F5F5F5F5F5F5F5F5F5F5F5F5F5F5F5F5F5F5F5F5F5F5F5F5F5F5F5F5F5F5F5F5F5F5F5F5F5F5F5F5F5F5F5F5F5E2F5F5F5F5F5F5F5F5F5F5F5F5F5F5F5F5E2F5F5F5E2E2EFF5F5F5E2F5F5F5F5F5F5F5F5F5F5F5F5F5F5F5F5E2F5F5F5F5F5F5F5F5F5F5F5
310
F5F5F5F5F5F5F5F5F5F5F5F5F5F5F5F5F5F5F5F5F5F5F5F5F5F5F5F5F5F5F5F5F5F5F5F5F5F5F5F5F5F5F5F5F5F5F5F5F5F5F5F5F5F5F5F5F5F5F5F5F5F5F5F5F5F5F5F5F5F5F5F5F5F5F5F5F5F5F5F5F5F5F5F5F5F5F5F5F5F5F5F5F5F5F5F5F5F5F5F5F5F5F5F5F5F5F5F5F5F5F5F5F5F5F5F5F5F5F5F5F5F5F5F5E2F5F5
310
F5F5F5F5F5F5F5F5F5F5F5F5F5F5E2F5F5F5E2E2EFF5F5F5E2F5F5F5F5F5F5F5F5F5F5F5F5F5F5F5F5E2F5F5F5F5F5F5F5F5F5F5F5F5F5F5F5F5F5F5F5F5F5F5F5F5F5F5F5F5F5F5F5F5F5F5F5F5F5F5F5F5F5F5F5F5F5F5F5F5F5F5F5F5F5F5F5F5F5F5F5F5F5F5F5F5F5F5F5F5F5F5F5F5F5F5F5F5F5F5F5F5F5F5F5F5F5
310
F5F5F5F5F5F5F5F5F5F5F5F5F5F5F5F5F5F5F5F5F5F5F5F5F5F5F5F5F5F5F5F5F5F5F5F5F5F5F5F5F5F5F5F5F5F5F5F5F5F5E2F5F5F5F5F5F5F5F5F5F5F5F5F5F5F5F5E2F5F5F5E2E2EFF5F5F5E2F5F5F5F5F5F5F5F5F5F5F5F5F5F5F5F5E2F5F5F5F5F5F5F5F5F5F5F5F5F5F5F5F5F5F5F5F5F5F5F5F5F5F5F5F5F5F5F5F5
310
F5F5F5F5F5F5F5F5F5F5F5F5F5F5F5F5F5F5F5F5F5F5F5F5F5F5F5F5F5F5F5F5F5F5F5F5F5F5F5F5F5F5F5F5F5F5F5F5F5F5F5F5F5F5F5F5F5F5F5F5F5F5F5F5F5F5F5F5F5F5F5F5F5F5F5F5F5F5F5F5F5F5F5F5F5F5F5F5F5F5F5F5F5F5F5F5F5F5F5F5F5F5F5E2F5F5F5F5F5F5F5F5F5F5F5F5F5F5F5F5E2F5F5F5E2E2EF
310
F5F5F5E2F5F5F5F5F5F5F5F5F5F5F5F5F5F5F5F5E2F5F5F5F5F5F5F5F5F5F5F5F5F5F5F5F5F5F5F5F5F5F5F5F5F5F5F5F5F5F5F5F5F5F5F5F5F5F5F5F5F5F5F5F5F5F5F5F5F5F5F5F5F5F5F5F5F5F5F5F5F5F5F5F5F5F5F5F5F5F5F5F5F5F5F5F5F5F5F5F5F5F5F5F5F5F5F5F5F5F5F5F5F5F5F5F5F5F5F5F5F5F5F5F5F5F5
310
F5F5F5F5F5F5F5F5F5F5F5F5F5F5F5F5F5F5F5F5F5F5F5F5F5F5F5F5F5E2F5F5F5F5F5F5F5F5F5F5F5F5F5F5F5F5E2F5F5F5E2E2EFF5F5F5E2F5F5F5F5F5F5F5F5F5F5F5F5F5F5F5F5E2F5F5F5F5F5F5F5F5F5F5F5F5F5F5F5F5F5F5F5F5F5F5F5F5F5F5F5F5F5F5F5F5F5F5F5F5F5F5F5F5F5F5F5F5F5F5F5F5F5F5F5F5F5
310
F5F5F5F5F5F5F5F5F5F5F5F5F5F5F5F5F5F5F5F5F5F5F5F5F5F5F5F5F5F5F5F5F5F5F5F5F5F5F5F5F5F5F5F5F5F5F5F5F5F5F5F5F5F5F5F5F5F5F5F5F5F5F5F5F5F5F5F5F5F5F5F5F5F5F5F5F5F5F5F5F5F5E2F5F5F5F5F5F5F5F5F5F5F5F5F5F5F5F5E2F5F5F5E2E2EFF5F5F5E2F5F5F5F5F5F5F5F5F5F5F5F5F5F5F5F5E2
310
F5F5F5F5F5F5F5F5F5F5F5F5F5F5F5F5F5F5F5F5F5F5F5F5F5F5F5F5F5F5F5F5F5F5F5F5F5F5F5F5F5F5F5F5F5F5F5F5F5F5F5F5F5F5F5F5F5F5F5F5F5F5F5F5F5F5F5F5F5F5F5F5F5F5F5F5F5F5F5F5F5F5F5F5F5F5F5F5F5F5F5F5F5F5F5F5F5F5F5F5F5F5F5F5F5F5F5F5F5F5F5F5F5F5F5F5F5F5F5F5F5F5F5F5F5F5F5
310
F5F5F5F5F5F5F5F5E2F5F5F5F5F5F5F5F5F5F5F5F5F5F5F5F5E2F5F5F5E2E2EFF5F5F5E2F5F5F5F5F5F5F5F5F5F5F5F5F5F5F5F5E2F5F5F5F5F5F5F5F5F5F5F5F5F5F5F5F5F5F5F5F5F5F5F5F5F5F5F5F5F5F5F5F5F5F5F5F5F5F5F5F5F5F5F5F5F5F5F5F5F5F5F5F5F5F5F5F5F5F5F5F5F5F5F5F5F5F5F5F5F5F5F5F5F5F5
310
F5F5F5F5F5F5F5F5F5F5F5F5F5F5F5F5F5F5F5F5F5F5F5F5F5F5F5F5F5F5F5F5F5F5F5F5F5F5F5F5F5F5F5F5F5F5F5F5F5F5F5F5F5F5F5F5F5F5F5F5F5E2F5F5F5F5F5F5F5F5F5F5F5F5F5F5F5F5E2F5F5F5E2E2EFF5F5F5E2F5F5F5F5F5F5F5F5F5F5F5F5F5F5F5F5E2F5F5F5F5F5F5F5F5F5F5F5F5F5F5F5F5F5F5F5F5F5
310
F5F5F5F5F5F5F5F5F5F5F5F5F5F5F5F5F5F5F5F5F5F5F5F5F5F5F5F5F5F5F5F5F5F5F5F5F5F5F5F5F5F5F5F5F5F5F5F5F5F5F5F5F5F5F5F5F5F5F5F5F5F5F5F5F5F5F5F5F5F5F5F5F5F5F5F5F5F5F5F5F5F5F5F5F5F5F5F5F5F5F5F5F5F5F5F5F5F5F5F5F5F5F5F5F5F5F5F5F5F5F5F5F5F5E2F5F5F5F5F5F5F5F5F5F5F5F5
310
F5F5F5F5E2F5F5F5E2E2EFF5F5F5E2F5F5F5F5F5F5F5F5F5F5F5F5F5F5F5F5E2F5F5F5F5F5F5F5F5F5F5F5F5F5F5F5F5F5F5F5F5F5F5F5F5F5F5F5F5F5F5F5F5F5F5F5F5F5F5F5F5F5F5F5F5F5F5F5F5F5F5F5F5F5F5F5F5F5F5F5F5F5F5F5F5F5F5F5F5F5F5F5F5F5F5F5F5F5F5F5F5F5F5F5F5F5F5F5F5F5F5F5F5F5F5F5
310
F5F5F5F5F5F5F5F5F5F5F5F5F5F5F5F5F5F5F5F5F5F5F5F5F5F5F5F5F5F5F5F5F5F5F5F5F5F5F5F5E2F5F5F5F5F5F5F5F5F5F5F5F5F5F5F5F5E2F5F5F5E2E2EFF5F5F5F5F5F5F5F5F5F5F5F5F5F5F5F5F5F5F5F5E2F5F5F5F5F5F5F5F5F5F5F5F5F5F5F5F5F5F5F5F5F5F5F5F5F5F5F5F5F5F5F5F5F5F5F5F5F5F5F5F5F5F5
310
F5F5F5F5F5F5F5F5F5F5F5F5F5F5F5F5F5F5F5F5F5F5F5F5F5F5F5F5F5F5F5F5F5F5F5F5F5F5F5F5F5F5F5F5F5F5F5F5F5F5F5F5F5F5F5F5F5F5F5F5F5F5F5F5F5F5F5F5F5F5F5F5F5F5F5F5F5F5F5F5F5F5F5F5F5F5F5F5F5F5F5F5F5E2F5F5F5F5F5F5F5F5F5F5F5F5F5F5F5F5F5F5F5F5E2E2EFF5F5F5F5F5F5F5F5F5F5
310
F5F5F5F5F5F5F5F5F5F5E2F5F5F5F5F5F5F5F5F5F5F5F5F5F5F5F5F5F5F5F5F5F5F5F5F5F5F5F5F5F5F5F5F5F5F5F5F5F5F5F5F5F5F5F5F5F5F5F5F5F5F5F5F5F5F5F5F5F5F5F5F5F5F5F5F5F5F5F5F5F5F5F5F5F5F5F5F5F5F5F5F5F5F5F5F5F5F5F5F5F5F5F5F5F5F5F5F5F5F5F5F5F5F5F5F5F5F5F5F5F5F5F5F5F5F5F5
310
F5F5F5F5F5F5F5F5F5F5F5F5F5F5F5F5F5F5F5E2F5F5F5F5F5F5F5F5F5F5F5F5F5F5F5F5F5F5F5F5E2E2EFF5F5F5F5F5F5F5F5F5F5F5F5F5F5F5F5F5F5F5F5E2F5F5F5F5F5F5F5F5F5F5F5F5F5F5F5F5F5F5F5F5F5F5F5F5F5F5F5F5F5F5F5F5F5F5F5F5F5F5F5F5F5F5F5F5F5F5F5F5F5F5F5F5F5F5F5F5F5F5F5F5F5F5F5
310
F5F5F5F5F5F5F5F5F5F5F5F5F5F5F5F5F5F5F5F5F5F5F5F5F5F5F5F5F5F5F5F5F5F5F5F5F5F5F5F5F5F5F5F5F5F5F5F5F5F5F5F5F5F5F5F5F5F5F5F5F5F5F5F5F5F5F5F5F5F5F5F5E2F5F5F5F5F5F5F5F5F5F5F5F5F5F5F5F5F5F5F5F5E2E2EFF5F5F5F5F5F5F5F5F5F5F5F5F5F5F5F5F5F5F5F5E2F5F5F5F5F5F5F5F5F5F5
310
F5F5F5F5F5F5F5F5F5F5F5F5F5F5F5F5F5F5F5F5F5F5F5F5F5F5F5F5F5F5F5F5F5F5F5F5F5F5F5F5F5F5F5F5F5F5F5F5F5F5F5F5F5F5F5F5F5F5F5F5F5F5F5F5F5F5F5F5F5F5F5F5F5F5F5F5F5F5F5F5F5F5F5F5F5F5F5F5F5F5F5F5F5F5F5F5F5F5F5F5F5F5F5F5F5F5F5F5F5F5F5F5F5F5F5F5F5F5F5F5F5F5F5F5F5E2F5
310
F5F5F5F5F5F5F5F5F5F5F5F5F5F5F5F5F5F5F5E2E2EFF5F5F5F5F5F5F5F5F5F5F5F5F5F5F5F5F5F5F5F5E2F5F5F5F5F5F5F5F5F5F5F5F5F5F5F5F5F5F5F5F5F5F5F5F5F5F5F5F5F5F5F5F5F5F5F5F5F5F5F5F5F5F5F5F5F5F5F5F5F5F5F5F5F5F5F5F5F5F5F5F5F5F5F5F5F5F5F5F5F5F5F5F5F5F5F5F5F5F5F5F5F5F5F5F5
310
F5F5F5F5F5F5F5F5F5F5F5F5F5F5F5F5F5F5F5F5F5F5F5F5F5F5F5F5F5F5F5F5F5F5F5F5F5F5F5F5F5F5F5F5F5F5F5F5F5F5F5E2F5F5F5F5F5F5F5F5F5F5F5F5F5F5F5F5F5F5F5F5E2E2EFF5F5F5F5F5F5F5F5F5F5F5F5F5F5F5F5F5F5F5F5E2F5F5F5F5F5F5F5F5F5F5F5F5F5F5F5F5F5F5F5F5F5F5F5F5F5F5F5F5F5F5F5
310
F5F5F5F5F5F5F5F5F5F5F5F5F5F5F5F5F5F5F5F5F5F5F5F5F5F5F5F5F5F5F5F5F5F5F5F5F5F5F5F5F5F5F5F5F5F5F5F5F5F5F5F5F5F5F5F5F5F5F5F5F5F5F5F5F5F5F5F5F5F5F5F5F5F5F5F5F5F5F5F5F5F5F5F5F5F5F5F5F5F5F5F5F5F5F5F5F5F5F5F5F5F5F5F5E2F5F5F5F5F5F5F5F5F5F5F5F5F5F5F5F5F5F5F5F5E2E2
310
EFF5F5F5F5F5F5F5F5F5F5F5F5F5F5F5F5F5F5F5F5E2F5F5F5F5F5F5F5F5F5F5F5F5F5F5F5F5F5F5F5F5F5F5F5F5F5F5F5F5F5F5F5F5F5F5F5F5F5F5F5F5F5F5F5F5F5F5F5F5F5F5F5F5F5F5F5F5F5F5F5F5F5F5F5F5F5F5F5F5F5F5F5F5F5F5F5F5F5F5F5F5F5F5F5F5F5F5F5F5F5F5F5F5F5F5F5F5F5F5F5F5F5F5F5F5F5
310
F5F5F5F5F5F5F5F5F5F5F5F5F5F5F5F5F5F5F5F5F5F5F5F5F5F5F5F5F5F5E2F5F5F5F5F5F5F5F5F5F5F5F5F5F5F5F5F5F5F5F5E2E2EFF5F5F5F5F5F5F5F5F5F5F5F5F5F5F5F5F5F5F5F5E2F5F5F5F5F5F5F5F5F5F5F5F5F5F5F5F5F5F5F5F5F5F5F5F5F5F5F5F5F5F5F5F5F5F5F5F5F5F5F5F5F5F5F5F5F5F5F5F5F5F5F5F5
310
F5F5F5F5F5F5F5F5F5F5F5F5F5F5F5F5F5F5F5F5F5F5F5F5F5F5F5F5F5F5F5F5F5F5F5F5F5F5F5F5F5F5F5F5F5F5F5F5F5F5F5F5F5F5F5F5F5F5F5F5F5F5F5F5F5F5F5F5F5F5F5F5F5F5F5F5F5F5F5F5F5F5F5E2F5F5F5F5F5F5F5F5F5F5F5F5F5F5F5F5F5F5F5F5E2E2EFF5F5F5F5F5F5F5F5F5F5F5F5F5F5F5F5F5F5F5F5
310
E2F5F5F5F5F5F5F5F5F5F5F5F5F5F5F5F5F5F5F5F5F5F5F5F5F5F5F5F5F5F5F5F5F5F5F5F5F5F5F5F5F5F5F5F5F5F5F5F5F5F5F5F5F5F5F5F5F5F5F5F5F5F5F5F5F5F5F5F5F5F5F5F5F5F5F5F5F5F5F5F5F5F5F5F5F5F5F5F5F5F5F5F5F5F5F5F5F5F5F5F5F5F5F5F5F5F5F5F5F5F5F5F5F5F5F5F5F5F5F5F5F5F5F5F5F5F5
310
F5F5F5F5F5F5F5F5F5E2F5F5F5F5F5F5F5F5F5F5F5F5F5F5F5F5F5F5F5F5E2E2EFF5F5F5E2F5F5F5F5F5F5F5F5F5F5F5F5F5F5F5F5E2F5F5F5F5F5F5F5F5F5F5F5F5F5F5F5F5F5F5F5F5F5F5F5F5F5F5F5F5F5F5F5F5F5F5F5F5F5F5F5F5F5F5F5F5F5F5F5F5F5F5F5F5F5F5F5F5F5F5F5F5F5F5F5F5F5F5F5F5F5F5F5F5F5
310
F5F5F5F5F5F5F5F5F5F5F5F5F5F5F5F5F5F5F5F5F5F5F5F5F5F5F5F5F5F5F5F5F5F5F5F5F5F5F5F5F5F5F5F5F5F5F5F5F5F5F5F5F5F5F5F5F5F5F5F5F5F5E2F5F5F5F5F5F5F5F5F5F5F5F5F5F5F5F5E2F5F5F5E2E2EFF5F5F5E2F5F5F5F5F5F5F5F5F5F5F5F5F5F5F5F5E2F5F5F5F5F5F5F5F5F5F5F5F5F5F5F5F5F5F5F5F5
310
F5F5F5F5F5F5F5F5F5F5F5F5F5F5F5F5F5F5F5F5F5F5F5F5F5F5F5F5F5F5F5F5F5F5F5F5F5F5F5F5F5F5F5F5F5F5F5F5F5F5F5F5F5F5F5F5F5F5F5F5F5F5F5F5F5F5F5F5F5F5F5F5F5F5F5F5F5F5F5F5F5F5F5F5F5F5F5F5F5F5F5F5F5F5F5F5F5F5F5F5F5F5F5F5F5F5F5F5F5F5F5F5F5F5F5E2F5F5F5F5F5F5F5F5F5F5F5
310
F5F5F5F5F5E2F5F5F5E2E2EFF5F5F5E2F5F5F5F5F5F5F5F5F5F5F5F5F5F5F5F5E2F5F5F5F5F5F5F5F5F5F5F5F5F5F5F5F5F5F5F5F5F5F5F5F5F5F5F5F5F5F5F5F5F5F5F5F5F5F5F5F5F5F5F5F5F5F5F5F5F5F5F5F5F5F5F5F5F5F5F5F5F5F5F5F5F5F5F5F5F5F5F5F5F5F5F5F5F5F5F5F5F5F5F5F5F5F5F5F5F5F5F5F5F5F5
310
F5F5F5F5F5F5F5F5F5F5F5F5F5F5F5F5F5F5F5F5F5F5F5F5F5F5F5F5F5F5F5F5F5F5F5F5F5F5F5F5F5E2F5F5F5F5F5F5F5F5F5F5F5F5F5F5F5F5E2F5F5F5E2E2EFF5F5F5E2F5F5F5F5F5F5F5F5F5F5F5F5F5F5F5F5E2F5F5F5F5F5F5F5F5F5F5F5F5F5F5F5F5F5F5F5F5F5F5F5F5F5F5F5F5F5F5F5F5F5F5F5F5F5F5F5F5F5
310
F5F5F5F5F5F5F5F5F5F5F5F5F5F5F5F5F5F5F5F5F5F5F5F5F5F5F5F5F5F5F5F5F5F5F5F5F5F5F5F5F5F5F5F5F5F5F5F5F5F5F5F5F5F5F5F5F5F5F5F5F5F5F5F5F5F5F5F5F5F5F5F5F5F5F5F5F5F5F5F5F5F5F5F5F5F5F5F5F5F5F5F5F5F5E2F5F5F5F5F5F5F5F5F5F5F5F5F5F5F5F5E2F5F5F5E2E2EFF5F5F5E2F5F5F5F5F5
310
F5F5F5F5F5F5F5F5F5F5F5E2F5F5F5F5F5F5F5F5F5F5F5F5F5F5F5F5F5F5F5F5F5F5F5F5F5F5F5F5F5F5F5F5F5F5F5F5F5F5F5F5F5F5F5F5F5F5F5F5F5F5F5F5F5F5F5F5F5F5F5F5F5F5F5F5F5F5F5F5F5F5F5F5F5F5F5F5F5F5F5F5F5F5F5F5F5F5F5F5F5F5F5F5F5F5F5F5F5F5F5F5F5F5F5F5F5F5F5F5F5F5F5F5F5F5F5
310
F5F5F5F5F5F5F5F5F5F5F5F5F5F5F5F5F5F5F5F5E2F5F5F5F5F5F5F5F5F5F5F5F5F5F5F5F5E2F5F5F5E2E2EFF5F5F5E2F5F5F5F5F5F5F5F5F5F5F5F5F5F5F5F5E2F5F5F5F5F5F5F5F5F5F5F5F5F5F5F5F5F5F5F5F5F5F5F5F5F5F5F5F5F5F5F5F5F5F5F5F5F5F5F5F5F5F5F5F5F5F5F5F5F5F5F5F5F5F5F5F5F5F5F5F5F5F5
310
F5F5F5F5F5F5F5F5F5F5F5F5F5F5F5F5F5F5F5F5F5F5F5F5F5F5F5F5F5F5F5F5F5F5F5F5F5F5F5F5F5F5F5F5F5F5F5F5F5F5F5F5F5F5F5F5F5F5F5F5F5F5F5F5F5F5F5F5F5F5F5F5F5E2F5F5F5F5F5F5F5F5F5F5F5F5F5F5F5F5E2F5F5F5E2E2EFF5F5F5E2F5F5F5F5F5F5F5F5F5F5F5F5F5F5F5F5E2F5F5F5F5F5F5F5F5F5
310
F5F5F5F5F5F5F5F5F5F5F5F5F5F5F5F5F5F5F5F5F5F5F5F5F5F5F5F5F5F5F5F5F5F5F5F5F5F5F5F5F5F5F5F5F5F5F5F5F5F5F5F5F5F5F5F5F5F5F5F5F5F5F5F5F5F5F5F5F5F5F5F5F5F5F5F5F5F5F5F5F5F5F5F5F5F5F5F5F5F5F5F5F5F5F5F5F5F5F5F5F5F5F5F5F5F5F5F5F5F5F5F5F5F5F5F5F5F5F5F5F5F5F5F5F5F5E2
310
F5F5F5F5F5F5F5F5F5F5F5F5F5F5F5F5E2F5F5F5E2E2EFF5F5F5E2F5F5F5F5F5F5F5F5F5F5F5F5F5F5F5F5E2F5F5F5F5F5F5F5F5F5F5F5F5F5F5F5F5F5F5F5F5F5F5F5F5F5F5F5F5F5F5F5F5F5F5F5F5F5F5F5F5F5F5F5F5F5F5F5F5F5F5F5F5F5F5F5F5F5F5F5F5F5F5F5F5F5F5F5F5F5F5F5F5F5F5F5F5F5F5F5F5F5F5F5
310
F5F5F5F5F5F5F5F5F5F5F5F5F5F5F5F5F5F5F5F5F5F5F5F5F5F5F5F5F5F5F5F5F5F5F5F5F5F5F5F5F5F5F5F5F5F5F5F5F5F5F5F5E2F5F5F5F5F5F5F5F5F5F5F5F5F5F5F5F5E2F5F5F5E2E2EFF5F5F5E2F5F5F5F5F5F5F5F5F5F5F5F5F5F5F5F5E2F5F5F5F5F5F5F5F5F5F5F5F5F5F5F5F5F5F5F5F5F5F5F5F5F5F5F5F5F5F5
310
F5F5F5F5F5F5F5F5F5F5F5F5F5F5F5F5F5F5F5F5F5F5F5F5F5F5F5F5F5F5F5F5F5F5F5F5F5F5F5F5F5F5F5F5F5F5F5F5F5F5F5F5F5F5F5F5F5F5F5F5F5F5F5F5F5F5F5F5F5F5F5F5F5F5F5F5F5F5F5F5F5F5F5F5F5F5F5F5F5F5F5F5F5F5F5F5F5F5F5F5F5F5F5F5F5E2F5F5F5F5F5F5F5F5F5F5F5F5F5F5F5F5E2F5F5F5E2
310
E2EFF5F5F5E2F5F5F5F5F5F5F5F5F5F5F5F5F5F5F5F5E2F5F5F5F5F5F5F5F5F5F5F5F5F5F5F5F5F5F5F5F5F5F5F5F5F5F5F5F5F5F5F5F5F5F5F5F5F5F5F5F5F5F5F5F5F5F5F5F5F5F5F5F5F5F5F5F5F5F5F5F5F5F5F5F5F5F5F5F5F5F5F5F5F5F5F5F5F5F5F5F5F5F5F5F5F5F5F5F5F5F5F5F5F5F5F5F5F5F5F5F5F5F5F5F5
310
F5F5F5F5F5F5F5F5F5F5F5F5F5F5F5F5F5F5F5F5F5F5F5F5F5F5F5F5F5F5F5E2F5F5F5F5F5F5F5F5F5F5F5F5F5F5F5F5E2F5F5F5E2E2EFF5F5F5E2F5F5F5F5F5F5F5F5F5F5F5F5F5F5F5F5E2F5F5F5F5F5F5F5F5F5F5F5F5F5F5F5F5F5F5F5F5F5F5F5F5F5F5F5F5F5F5F5F5F5F5F5F5F5F5F5F5F5F5F5F5F5F5F5F5F5F5F5
310
F5F5F5F5F5F5F5F5F5F5F5F5F5F5F5F5F5F5F5F5F5F5F5F5F5F5F5F5F5F5F5F5F5F5F5F5F5F5F5F5F5F5F5F5F5F5F5F5F5F5F5F5F5F5F5F5F5F5F5F5F5F5F5F5F5F5F5F5F5F5F5F5F5F5F5F5F5F5F5F5F5F5F5F5E2F5F5F5F5F5F5F5F5F5F5F5F5F5F5F5F5E2F5F5F5E2E2EFF5F5F5E2F5F5F5F5F5F5F5F5F5F5F5F5F5F5F5
310
F5E2F5F5F5F5F5F5F5F5F5F5F5F5F5F5F5F5F5F5F5F5F5F5F5F5F5F5F5F5F5F5F5F5F5F5F5F5F5F5F5F5F5F5F5F5F5F5F5F5F5F5F5F5F5F5F5F5F5F5F5F5F5F5F5F5F5F5F5F5F5F5F5F5F5F5F5F5F5F5F5F5F5F5F5F5F5F5F5F5F5F5F5F5F5F5F5F5F5F5F5F5F5F5F5F5F5F5F5F5F5F5F5F5F5F5F5F5F5F5F5F5F5F5F5F5F5
310
F5F5F5F5F5F5F5F5F5F5E2F5F5F5F5F5F5F5F5F5F5F5F5F5F5F5F5E2F5F5F5E2E2EFF5F5F5E2F5F5F5F5F5F5F5F5F5F5F5F5F5F5F5F5E2F5F5F5F5F5F5F5F5F5F5F5F5F5F5F5F5F5F5F5F5F5F5F5F5F5F5F5F5F5F5F5F5F5F5F5F5F5F5F5F5F5F5F5F5F5F5F5F5F5F5F5F5F5F5F5F5F5F5F5F5F5F5F5F5F5F5F5F5F5F5F5F5
310
F5F5F5F5F5F5F5F5F5F5F5F5F5F5F5F5F5F5F5F5F5F5F5F5F5F5F5F5F5F5F5F5F5F5F5F5F5F5F5F5F5F5F5F5F5F5F5F5F5F5F5F5F5F5F5F5F5F5F5F5F5F5F5E2F5F5F5F5F5F5F5F5F5F5F5F5F5F5F5F5E2F5F5F5E2E2EFF5F5F5E2F5F5F5F5F5F5F5F5F5F5F5F5F5F5F5F5E2F5F5F5F5F5F5F5F5F5F5F5F5F5F5F5F5F5F5F5
310
F5F5F5F5F5F5F5F5F5F5F5F5F5F5F5F5F5F5F5F5F5F5F5F5F5F5F5F5F5F5F5F5F5F5F5F5F5F5F5F5F5F5F5F5F5F5F5F5F5F5F5F5F5F5F5F5F5F5F5F5F5F5F5F5F5F5F5F5F5F5F5F5F5F5F5F5F5F5F5F5F5F5F5F5F5F5F5F5F5F5F5F5F5F5F5F5F5F5F5F5F5F5F5F5F5F5F5F5F5F5F5F5F5F5F5F5E2F5F5F5F5F5F5F5F5F5F5
310
F5F5F5F5F5F5E2F5F5F5E2E2EFF5F5F5E2F5F5F5F5F5F5F5F5F5F5F5F5F5F5F5F5E2F5F5F5F5F5F5F5F5F5F5F5F5F5F5F5F5F5F5F5F5F5F5F5F5F5F5F5F5F5F5F5F5F5F5F5F5F5F5F5F5F5F5F5F5F5F5F5F5F5F5F5F5F5F5F5F5F5F5F5F5F5F5F5F5F5F5F5F5F5F5F5F5F5F5F5F5F5F5F5F5F5F5F5F5F5F5F5F5F5F5F5F5F5
310
F5F5F5F5F5F5F5F5F5F5F5F5F5F5F5F5F5F5F5F5F5F5F5F5F5F5F5F5F5F5F5F5F5F5F5F5F5F5F5F5F5F5E2F5F5F5F5F5F5F5F5F5F5F5F5F5F5F5F5E2F5F5F5E2E2EFF5F5F5E2F5F5F5F5F5F5F5F5F5F5F5F5F5F5F5F5E2F5F5F5F5F5F5F5F5F5F5F5F5F5F5F5F5F5F5F5F5F5F5F5F5F5F5F5F5F5F5F5F5F5F5F5F5F5F5F5F5
310
F5F5F5F5F5F5F5F5F5F5F5F5F5F5F5F5F5F5F5F5F5F5F5F5F5F5F5F5F5F5F5F5F5F5F5F5F5F5F5F5F5F5F5F5F5F5F5F5F5F5F5F5F5F5F5F5F5F5F5F5F5F5F5F5F5F5F5F5F5F5F5F5F5F5F5F5F5F5F5F5F5F5F5F5F5F5F5F5F5F5F5F5F5F5F5E2F5F5F5F5F5F5F5F5F5F5F5F5F5F5F5F5E2F5F5F5E2E2EFF5F5F5E2F5F5F5F5
310
F5F5F5F5F5F5F5F5F5F5F5F5E2F5F5F5F5F5F5F5F5F5F5F5F5F5F5F5F5F5F5F5F5F5F5F5F5F5F5F5F5F5F5F5F5F5F5F5F5F5F5F5F5F5F5F5F5F5F5F5F5F5F5F5F5F5F5F5F5F5F5F5F5F5F5F5F5F5F5F5F5F5F5F5F5F5F5F5F5F5F5F5F5F5F5F5F5F5F5F5F5F5F5F5F5F5F5F5F5F5F5F5F5F5F5F5F5F5F5F5F5F5F5F5F5F5F5
310
F5F5F5F5F5F5F5F5F5F5F5F5F5F5F5F5F5F5F5F5F5E2F5F5F5F5F5F5F5F5F5F5F5F5F5F5F5F5E2F5F5F5E2E2EFF5F5F5F5F5F5F5F5F5F5F5F5F5F5F5F5F5F5F5F5E2F5F5F5F5F5F5F5F5F5F5F5F5F5F5F5F5F5F5F5F5F5F5F5F5F5F5F5F5F5F5F5F5F5F5F5F5F5F5F5F5F5F5F5F5F5F5F5F5F5F5F5F5F5F5F5F5F5F5F5F5F5
310
F5F5F5F5F5F5F5F5F5F5F5F5F5F5F5F5F5F5F5F5F5F5F5F5F5F5F5F5F5F5F5F5F5F5F5F5F5F5F5F5F5F5F5F5F5F5F5F5F5F5F5F5F5F5F5F5F5F5F5F5F5F5F5F5F5F5F5F5F5F5F5F5F5F5E2F5F5F5F5F5F5F5F5F5F5F5F5F5F5F5F5F5F5F5F5E2E2EFF5F5F5F5F5F5F5F5F5F5F5F5F5F5F5F5F5F5F5F5E2F5F5F5F5F5F5F5F5
310
F5F5F5F5F5F5F5F5F5F5F5F5F5F5F5F5F5F5F5F5F5F5F5F5F5F5F5F5F5F5F5F5F5F5F5F5F5F5F5F5F5F5F5F5F5F5F5F5F5F5F5F5F5F5F5F5F5F5F5F5F5F5F5F5F5F5F5F5F5F5F5F5F5F5F5F5F5F5F5F5F5F5F5F5F5F5F5F5F5F5F5F5F5F5F5F5F5F5F5F5F5F5F5F5F5F5F5F5F5F5F5F5F5F5F5F5F5F5F5F5F5F5F5F5F5F5F5
310
E2F5F5F5F5F5F5F5F5F5F5F5F5F5F5F5F5F5F5F5F5E2E2EFF5F5F5F5F5F5F5F5F5F5F5F5F5F5F5F5F5F5F5F5E2F5F5F5F5F5F5F5F5F5F5F5F5F5F5F5F5F5F5F5F5F5F5F5F5F5F5F5F5F5F5F5F5F5F5F5F5F5F5F5F5F5F5F5F5F5F5F5F5F5F5F5F5F5F5F5F5F5F5F5F5F5F5F5F5F5F5F5F5F5F5F5F5F5F5F5F5F5F5F5F5F5F5
310
F5F5F5F5F5F5F5F5F5F5F5F5F5F5F5F5F5F5F5F5F5F5F5F5F5F5F5F5F5F5F5F5F5F5F5F5F5F5F5F5F5F5F5F5F5F5F5F5F5F5F5F5F5E2F5F5F5F5F5F5F5F5F5F5F5F5F5F5F5F5F5F5F5F5E2E2EFF5F5F5F5F5F5F5F5F5F5F5F5F5F5F5F5F5F5F5F5E2F5F5F5F5F5F5F5F5F5F5F5F5F5F5F5F5F5F5F5F5F5F5F5F5F5F5F5F5F5
310
F5F5F5F5F5F5F5F5F5F5F5F5F5F5F5F5F5F5F5F5F5F5F5F5F5F5F5F5F5F5F5F5F5F5F5F5F5F5F5F5F5F5F5F5F5F5F5F5F5F5F5F5F5F5F5F5F5F5F5F5F5F5F5F5F5F5F5F5F5F5F5F5F5F5F5F5F5F5F5F5F5F5F5F5F5F5F5F5F5F5F5F5F5F5F5F5F5F5F5F5F5F5F5F5F5F5E2F5F5F5F5F5F5F5F5F5F5F5F5F5F5F5F5F5F5F5F5
310
E2E2EFF5F5F5F5F5F5F5F5F5F5F5F5F5F5F5F5F5F5F5F5E2F5F5F5F5F5F5F5F5F5F5F5F5F5F5F5F5F5F5F5F5F5F5F5F5F5F5F5F5F5F5F5F5F5F5F5F5F5F5F5F5F5F5F5F5F5F5F5F5F5F5F5F5F5F5F5F5F5F5F5F5F5F5F5F5F5F5F5F5F5F5F5F5F5F5F5F5F5F5F5F5F5F5F5F5F5F5F5F5F5F5F5F5F5F5F5F5F5F5F5F5F5F5F5
310
F5F5F5F5F5F5F5F5F5F5F5F5F5F5F5F5F5F5F5F5F5F5F5F5F5F5F5F5F5F5F5F5E2F5F5F5F5F5F5F5F5F5F5F5F5F5F5F5F5F5F5F5F5E2E2EFF5F5F5F5F5F5F5F5F5F5F5F5F5F5F5F5F5F5F5F5E2F5F5F5F5F5F5F5F5F5F5F5F5F5F5F5F5F5F5F5F5F5F5F5F5F5F5F5F5F5F5F5F5F5F5F5F5F5F5F5F5F5F5F5F5F5F5F5F5F5F5
310
F5F5F5F5F5F5F5F5F5F5F5F5F5F5F5F5F5F5F5F5F5F5F5F5F5F5F5F5F5F5F5F5F5F5F5F5F5F5F5F5F5F5F5F5F5F5F5F5F5F5F5F5F5F5F5F5F5F5F5F5F5F5F5F5F5F5F5F5F5F5F5F5F5F5F5F5F5F5F5F5F5F5F5F5F5E2F5F5F5F5F5F5F5F5F5F5F5F5F5F5F5F5F5F5F5F5E2E2EFF5F5F5F5F5F5F5F5F5F5F5F5F5F5F5F5F5F5
310
F5F5E2F5F5F5F5F5F5F5F5F5F5F5F5F5F5F5F5F5F5F5F5F5F5F5F5F5F5F5F5F5F5F5F5F5F5F5F5F5F5F5F5F5F5F5F5F5F5F5F5F5F5F5F5F5F5F5F5F5F5F5F5F5F5F5F5F5F5F5F5F5F5F5F5F5F5F5F5F5F5F5F5F5F5F5F5F5F5F5F5F5F5F5F5F5F5F5F5F5F5F5F5F5F5F5F5F5F5F5F5F5F5F5F5F5F5F5F5F5F5F5F5F5F5F5F5
310
F5F5F5F5F5F5F5F5F5F5F5E2F5F5F5F5F5F5F5F5F5F5F5F5F5F5F5F5F5F5F5F5E2E2EFF5F5F5F5F5F5F5F5F5F5F5F5F5F5F5F5F5F5F5F5E2F5F5F5F5F5F5F5F5F5F5F5F5F5F5F5F5F5F5F5F5F5F5F5F5F5F5F5F5F5F5F5F5F5F5F5F5F5F5F5F5F5F5F5F5F5F5F5F5F5F5F5F5F5F5F5F5F5F5F5F5F5F5F5F5F5F5F5F5F5F5F5
310
F5F5F5F5F5F5F5F5F5F5F5F5F5F5F5F5F5F5F5F5F5F5F5F5F5F5F5F5F5F5F5F5F5F5F5F5F5F5F5F5F5F5F5F5F5F5F5F5F5F5F5F5F5F5F5F5F5F5F5F5F5F5F5F5E2F5F5F5F5F5F5F5F5F5F5F5F5F5F5F5F5F5F5F5F5E2E2EFF5F5F5F5F5F5F5F5F5F5F5F5F5F5F5F5F5F5F5F5E2F5F5F5F5F5F5F5F5F5F5F5F5F5F5F5F5F5F5
310
F5F5F5F5F5F5F5F5F5F5F5F5F5F5F5F5F5F5F5F5F5F5F5F5F5F5F5F5F5F5F5F5F5F5F5F5F5F5F5F5F5F5F5F5F5F5F5F5F5F5F5F5F5F5F5F5F5F5F5F5F5F5F5F5F5F5F5F5F5F5F5F5F5F5F5F5F5F5F5F5F5F5F5F5F5F5F5F5F5F5F5F5F5F5F5F5F5F5F5F5F5F5F5F5F5F5F5F5F5F5F5F5F5F5F5F5F5E2F5F5F5F5F5F5F5F5F5
310
F5F5F5F5F5F5F5F5F5F5F5E2E2EFF5F5F5E2F5F5F5F5F5F5F5F5F5F5F5F5F5F5F5F5E2F5F5F5F5F5F5F5F5F5F5F5F5F5F5F5F5F5F5F5F5F5F5F5F5F5F5F5F5F5F5F5F5F5F5F5F5F5F5F5F5F5F5F5F5F5F5F5F5F5F5F5F5F5F5F5F5F5F5F5F5F5F5F5F5F5F5F5F5F5F5F5F5F5F5F5F5F5F5F5F5F5F5F5F5F5F5F5F5F5F5F5F5
310
F5F5F5F5F5F5F5F5F5F5F5F5F5F5F5F5F5F5F5F5F5F5F5F5F5F5F5F5F5F5F5F5F5F5F5F5F5F5F5F5F5F5F5E2F5F5F5F5F5F5F5F5F5F5F5F5F5F5F5F5E2F5F5F5E2E2EFF5F5F5E2F5F5F5F5F5F5F5F5F5F5F5F5F5F5F5F5E2F5F5F5F5F5F5F5F5F5F5F5F5F5F5F5F5F5F5F5F5F5F5F5F5F5F5F5F5F5F5F5F5F5F5F5F5F5F5F5
310
F5F5F5F5F5F5F5F5F5F5F5F5F5F5F5F5F5F5F5F5F5F5F5F5F5F5F5F5F5F5F5F5F5F5F5F5F5F5F5F5F5F5F5F5F5F5F5F5F5F5F5F5F5F5F5F5F5F5F5F5F5F5F5F5F5F5F5F5F5F5F5F5F5F5F5F5F5F5F5F5F5F5F5F5F5F5F5F5F5F5F5F5F5F5F5F5E2F5F5F5F5F5F5F5F5F5F5F5F5F5F5F5F5E2F5F5F5E2E2EFF5F5F5E2F5F5F5
310
F5F5F5F5F5F5F5F5F5F5F5F5F5E2F5F5F5F5F5F5F5F5F5F5F5F5F5F5F5F5F5F5F5F5F5F5F5F5F5F5F5F5F5F5F5F5F5F5F5F5F5F5F5F5F5F5F5F5F5F5F5F5F5F5F5F5F5F5F5F5F5F5F5F5F5F5F5F5F5F5F5F5F5F5F5F5F5F5F5F5F5F5F5F5F5F5F5F5F5F5F5F5F5F5F5F5F5F5F5F5F5F5F5F5F5F5F5F5F5F5F5F5F5F5F5F5F5
310
F5F5F5F5F5F5F5F5F5F5F5F5F5F5F5F5F5F5F5F5F5F5E2F5F5F5F5F5F5F5F5F5F5F5F5F5F5F5F5E2F5F5F5E2E2EFF5F5F5E2F5F5F5F5F5F5F5F5F5F5F5F5F5F5F5F5E2F5F5F5F5F5F5F5F5F5F5F5F5F5F5F5F5F5F5F5F5F5F5F5F5F5F5F5F5F5F5F5F5F5F5F5F5F5F5F5F5F5F5F5F5F5F5F5F5F5F5F5F5F5F5F5F5F5F5F5F5
310
F5F5F5F5F5F5F5F5F5F5F5F5F5F5F5F5F5F5F5F5F5F5F5F5F5F5F5F5F5F5F5F5F5F5F5F5F5F5F5F5F5F5F5F5F5F5F5F5F5F5F5F5F5F5F5F5F5F5F5F5F5F5F5F5F5F5F5F5F5F5F5F5F5F5F5E2F5F5F5F5F5F5F5F5F5F5F5F5F5F5F5F5E2F5F5F5E2E2EFF5F5F5E2F5F5F5F5F5F5F5F5F5F5F5F5F5F5F5F5E2F5F5F5F5F5F5F5
310
F5F5F5F5F5F5F5F5F5F5F5F5F5F5F5F5F5F5F5F5F5F5F5F5F5F5F5F5F5F5F5F5F5F5F5F5F5F5F5F5F5F5F5F5F5F5F5F5F5F5F5F5F5F5F5F5F5F5F5F5F5F5F5F5F5F5F5F5F5F5F5F5F5F5F5F5F5F5F5F5F5F5F5F5F5F5F5F5F5F5F5F5F5F5F5F5F5F5F5F5F5F5F5F5F5F5F5F5F5F5F5F5F5F5F5F5F5F5F5F5F5F5F5F5F5F5F5
310
F5E2F5F5F5F5F5F5F5F5F5F5F5F5F5F5F5F5E2F5F5F5E2E2EFF5F5F5E2F5F5F5F5F5F5F5F5F5F5F5F5F5F5F5F5E2F5F5F5F5F5F5F5F5F5F5F5F5F5F5F5F5F5F5F5F5F5F5F5F5F5F5F5F5F5F5F5F5F5F5F5F5F5F5F5F5F5F5F5F5F5F5F5F5F5F5F5F5F5F5F5F5F5F5F5F5F5F5F5F5F5F5F5F5F5F5F5F5F5F5F5F5F5F5F5F5F5
310
F5F5F5F5F5F5F5F5F5F5F5F5F5F5F5F5F5F5F5F5F5F5F5F5F5F5F5F5F5F5F5F5F5F5F5F5F5F5F5F5F5F5F5F5F5F5F5F5F5F5F5F5F5F5E2F5F5F5F5F5F5F5F5F5F5F5F5F5F5F5F5E2F5F5F5E2E2EFF5F5F5E2F5F5F5F5F5F5F5F5F5F5F5F5F5F5F5F5E2F5F5F5F5F5F5F5F5F5F5F5F5F5F5F5F5F5F5F5F5F5F5F5F5F5F5F5F5
310
F5F5F5F5F5F5F5F5F5F5F5F5F5F5F5F5F5F5F5F5F5F5F5F5F5F5F5F5F5F5F5F5F5F5F5F5F5F5F5F5F5F5F5F5F5F5F5F5F5F5F5F5F5F5F5F5F5F5F5F5F5F5F5F5F5F5F5F5F5F5F5F5F5F5F5F5F5F5F5F5F5F5F5F5F5F5F5F5F5F5F5F5F5F5F5F5F5F5F5F5F5F5F5F5F5F5F5E2F5F5F5F5F5F5F5F5F5F5F5F5F5F5F5F5E2F5F5
310
F5E2E2EFF5F5F5E2F5F5F5F5F5F5F5F5F5F5F5F5F5F5F5F5E2F5F5F5F5F5F5F5F5F5F5F5F5F5F5F5F5F5F5F5F5F5F5F5F5F5F5F5F5F5F5F5F5F5F5F5F5F5F5F5F5F5F5F5F5F5F5F5F5F5F5F5F5F5F5F5F5F5F5F5F5F5F5F5F5F5F5F5F5F5F5F5F5F5F5F5F5F5F5F5F5F5F5F5F5F5F5F5F5F5F5F5F5F5F5F5F5F5F5F5F5F5F5
310
F5F5F5F5F5F5F5F5F5F5F5F5F5F5F5F5F5F5F5F5F5F5F5F5F5F5F5F5F5F5F5F5F5E2F5F5F5F5F5F5F5F5F5F5F5F5F5F5F5F5E2F5F5F5E2E2EFF5F5F5E2F5F5F5F5F5F5F5F5F5F5F5F5F5F5F5F5E2F5F5F5F5F5F5F5F5F5F5F5F5F5F5F5F5F5F5F5F5F5F5F5F5F5F5F5F5F5F5F5F5F5F5F5F5F5F5F5F5F5F5F5F5F5F5F5F5F5
310
F5F5F5F5F5F5F5F5F5F5F5F5F5F5F5F5F5F5F5F5F5F5F5F5F5F5F5F5F5F5F5F5F5F5F5F5F5F5F5F5F5F5F5F5F5F5F5F5F5F5F5F5F5F5F5F5F5F5F5F5F5F5F5F5F5F5F5F5F5F5F5F5F5F5F5F5F5F5F5F5F5F5F5F5F5F5E2F5F5F5F5F5F5F5F5F5F5F5F5F5F5F5F5E2F5F5F5E2E2EFF5F5F5E2F5F5F5F5F5F5F5F5F5F5F5F5F5
310
F5F5F5E2F5F5F5F5F5F5F5F5F5F5F5F5F5F5F5F5F5F5F5F5F5F5F5F5F5F5F5F5F5F5F5F5F5F5F5F5F5F5F5F5F5F5F5F5F5F5F5F5F5F5F5F5F5F5F5F5F5F5F5F5F5F5F5F5F5F5F5F5F5F5F5F5F5F5F5F5F5F5F5F5F5F5F5F5F5F5F5F5F5F5F5F5F5F5F5F5F5F5F5F5F5F5F5F5F5F5F5F5F5F5F5F5F5F5F5F5F5F5F5F5F5F5F5
310
F5F5F5F5F5F5F5F5F5F5F5F5E2F5F5F5F5F5F5F5F5F5F5F5F5F5F5F5F5E2F5F5F5E2E2EFF5F5F5E2F5F5F5F5F5F5F5F5F5F5F5F5F5F5F5F5E2F5F5F5F5F5F5F5F5F5F5F5F5F5F5F5F5F5F5F5F5F5F5F5F5F5F5F5F5F5F5F5F5F5F5F5F5F5F5F5F5F5F5F5F5F5F5F5F5F5F5F5F5F5F5F5F5F5F5F5F5F5F5F5F5F5F5F5F5F5F5
310
F5F5F5F5F5F5F5F5F5F5F5F5F5F5F5F5F5F5F5F5F5F5F5F5F5F5F5F5F5F5F5F5F5F5F5F5F5F5F5F5F5F5F5F5F5F5F5F5F5F5F5F5F5F5F5F5F5F5F5F5F5F5F5F5F5E2F5F5F5F5F5F5F5F5F5F5F5F5F5F5F5F5E2F5F5F5E2E2EFF5F5F5E2F5F5F5F5F5F5F5F5F5F5F5F5F5F5F5F5E2F5F5F5F5F5F5F5F5F5F5F5F5F5F5F5F5F5
310
F5F5F5F5F5F5F5F5F5F5F5F5F5F5F5F5F5F5F5F5F5F5F5F5F5F5F5F5F5F5F5F5F5F5F5F5F5F5F5F5F5F5F5F5F5F5F5F5F5F5F5F5F5F5F5F5F5F5F5F5F5F5F5F5F5F5F5F5F5F5F5F5F5F5F5F5F5F5F5F5F5F5F5F5F5F5F5F5F5F5F5F5F5F5F5F5F5F5F5F5F5F5F5F5F5F5F5F5F5F5F5F5F5F5F5F5F5F5E2F5F5F5F5F5F5F5F5
310
F5F5F5F5F5F5F5F5E2F5F5F5E2E2EFF5F5F5E2F5F5F5F5F5F5F5F5F5F5F5F5F5F5F5F5E2F5F5F5F5F5F5F5F5F5F5F5F5F5F5F5F5F5F5F5F5F5F5F5F5F5F5F5F5F5F5F5F5F5F5F5F5F5F5F5F5F5F5F5F5F5F5F5F5F5F5F5F5F5F5F5F5F5F5F5F5F5F5F5F5F5F5F5F5F5F5F5F5F5F5F5F5F5F5F5F5F5F5F5F5F5F5F5F5F5F5F5
310
F5F5F5F5F5F5F5F5F5F5F5F5F5F5F5F5F5F5F5F5F5F5F5F5F5F5F5F5F5F5F5F5F5F5F5F5F5F5F5F5F5F5F5F5E2F5F5F5F5F5F5F5F5F5F5F5F5F5F5F5F5E2F5F5F5E2E2EFF5F5F5E2F5F5F5F5F5F5F5F5F5F5F5F5F5F5F5F5E2F5F5F5F5F5F5F5F5F5F5F5F5F5F5F5F5F5F5F5F5F5F5F5F5F5F5F5F5F5F5F5F5F5F5F5F5F5F5
310
F5F5F5F5F5F5F5F5F5F5F5F5F5F5F5F5F5F5F5F5F5F5F5F5F5F5F5F5F5F5F5F5F5F5F5F5F5F5F5F5F5F5F5F5F5F5F5F5F5F5F5F5F5F5F5F5F5F5F5F5F5F5F5F5F5F5F5F5F5F5F5F5F5F5F5F5F5F5F5F5F5F5F5F5F5F5F5F5F5F5F5F5F5F5F5F5F5E2F5F5F5F5F5F5F5F5F5F5F5F5F5F5F5F5E2F5F5F5E2E2EFF5F5F5E2F5F5
310
F5F5F5F5F5F5F5F5F5F5F5F5F5F5E2F5F5F5F5F5F5F5F5F5F5F5F5F5F5F5F5F5F5F5F5F5F5F5F5F5F5F5F5F5F5F5F5F5F5F5F5F5F5F5F5F5F5F5F5F5F5F5F5F5F5F5F5F5F5F5F5F5F5F5F5F5F5F5F5F5F5F5F5F5F5F5F5F5F5F5F5F5F5F5F5F5F5F5F5F5F5F5F5F5F5F5F5F5F5F5F5F5F5F5F5F5F5F5F5F5F5F5F5F5F5F5F5
310
F5F5F5F5F5F5F5F5F5F5F5F5F5F5F5F5F5F5F5F5F5F5F5E2F5F5F5F5F5F5F5F5F5F5F5F5F5F5F5F5E2F5F5F5E2E2EFF5F5F5E2F5F5F5F5F5F5F5F5F5F5F5F5F5F5F5F5E2F5F5F5F5F5F5F5F5F5F5F5F5F5F5F5F5F5F5F5F5F5F5F5F5F5F5F5F5F5F5F5F5F5F5F5F5F5F5F5F5F5F5F5F5F5F5F5F5F5F5F5F5F5F5F5F5F5F5F5
310
F5F5F5F5F5F5F5F5F5F5F5F5F5F5F5F5F5F5F5F5F5F5F5F5F5F5F5F5F5F5F5F5F5F5F5F5F5F5F5F5F5F5F5F5F5F5F5F5F5F5F5F5F5F5F5F5F5F5F5F5F5F5F5F5F5F5F5F5F5F5F5F5F5F5F5F5E2F5F5F5F5F5F5F5F5F5F5F5F5F5F5F5F5E2F5F5F5E2E2EFF5F5F5E2F5F5F5F5F5F5F5F5F5F5F5F5F5F5F5F5E2F5F5F5F5F5F5
310
F5F5F5F5F5F5F5F5F5F5F5F5F5F5F5F5F5F5F5F5F5F5F5F5F5F5F5F5F5F5F5F5F5F5F5F5F5F5F5F5F5F5F5F5F5F5F5F5F5F5F5F5F5F5F5F5F5F5F5F5F5F5F5F5F5F5F5F5F5F5F5F5F5F5F5F5F5F5F5F5F5F5F5F5F5F5F5F5F5F5F5F5F5F5F5F5F5F5F5F5F5F5F5F5F5F5F5F5F5F5F5F5F5F5F5F5F5F5F5F5F5F5F5F5F5F5F5
310
F5F5E2F5F5F5F5F5F5F5F5F5F5F5F5F5F5F5F5E2F5F5F5E2E2EFF5F5F5F5F5F5F5F5F5F5F5F5F5F5F5F5F5F5F5F5E2F5F5F5F5F5F5F5F5F5F5F5F5F5F5F5F5F5F5F5F5F5F5F5F5F5F5F5F5F5F5F5F5F5F5F5F5F5F5F5F5F5F5F5F5F5F5F5F5F5F5F5F5F5F5F5F5F5F5F5F5F5F5F5F5F5F5F5F5F5F5F5F5F5F5F5F5F5F5F5F5
310
F5F5F5F5F5F5F5F5F5F5F5F5F5F5F5F5F5F5F5F5F5F5F5F5F5F5F5F5F5F5F5F5F5F5F5F5F5F5F5F5F5F5F5F5F5F5F5F5F5F5F5F5F5F5F5E2F5F5F5F5F5F5F5F5F5F5F5F5F5F5F5F5F5F5F5F5E2E2EFF5F5F5F5F5F5F5F5F5F5F5F5F5F5F5F5F5F5F5F5E2F5F5F5F5F5F5F5F5F5F5F5F5F5F5F5F5F5F5F5F5F5F5F5F5F5F5F5
310
F5F5F5F5F5F5F5F5F5F5F5F5F5F5F5F5F5F5F5F5F5F5F5F5F5F5F5F5F5F5F5F5F5F5F5F5F5F5F5F5F5F5F5F5F5F5F5F5F5F5F5F5F5F5F5F5F5F5F5F5F5F5F5F5F5F5F5F5F5F5F5F5F5F5F5F5F5F5F5F5F5F5F5F5F5F5F5F5F5F5F5F5F5F5F5F5F5F5F5F5F5F5F5F5F5F5F5F5E2F5F5F5F5F5F5F5F5F5F5F5F5F5F5F5F5F5F5
310
F5F5E2E2EFF5F5F5F5F5F5F5F5F5F5F5F5F5F5F5F5F5F5F5F5E2F5F5F5F5F5F5F5F5F5F5F5F5F5F5F5F5F5F5F5F5F5F5F5F5F5F5F5F5F5F5F5F5F5F5F5F5F5F5F5F5F5F5F5F5F5F5F5F5F5F5F5F5F5F5F5F5F5F5F5F5F5F5F5F5F5F5F5F5F5F5F5F5F5F5F5F5F5F5F5F5F5F5F5F5F5F5F5F5F5F5F5F5F5F5F5F5F5F5F5F5F5
310
F5F5F5F5F5F5F5F5F5F5F5F5F5F5F5F5F5F5F5F5F5F5F5F5F5F5F5F5F5F5F5F5F5F5E2F5F5F5F5F5F5F5F5F5F5F5F5F5F5F5F5F5F5F5F5E2E2EFF5F5F5F5F5F5F5F5F5F5F5F5F5F5F5F5F5F5F5F5E2F5F5F5F5F5F5F5F5F5F5F5F5F5F5F5F5F5F5F5F5F5F5F5F5F5F5F5F5F5F5F5F5F5F5F5F5F5F5F5F5F5F5F5F5F5F5F5F5
310
F5F5F5F5F5F5F5F5F5F5F5F5F5F5F5F5F5F5F5F5F5F5F5F5F5F5F5F5F5F5F5F5F5F5F5F5F5F5F5F5F5F5F5F5F5F5F5F5F5F5F5F5F5F5F5F5F5F5F5F5F5F5F5F5F5F5F5F5F5F5F5F5F5F5F5F5F5F5F5F5F5F5F5F5F5F5F5E2F5F5F5F5F5F5F5F5F5F5F5F5F5F5F5F5F5F5F5F5E2E2EFF5F5F5F5F5F5F5F5F5F5F5F5F5F5F5F5
310
F5F5F5F5E2E2E2E2E2E2E2E2E2E2E2E2E2E2E2E2E2E2E2E2E2E2E2E2E2E2E2E2E2E2E2E2E2E2E2E2E2E2E2E2E2E2E2E2E2E2E2E2E2E2E2E2E2E2E2E2E2E2E2E2E2E2E2E2E2E2E2E2E2E2E2E2E2E2E2E2E2E2E2E2E2E2E2E2E2E2E2E2E2E2E2E2E2E2E2E2E2E2E2E2E2E2E2E2E2E2E2E2E2E2E2E2E2E2E2E2E2E2E2E2E2E2E2
310
E2E2E2E2E2E2E2E2E2E2E2E2E2E2F5F5F5F5F5F5F5F5F5F5F5F5F5F5F5F5F5F5F5F5E2E2EFF5F5F5F5F5F5F5F5F5F5F5F5F5F5F5F5F5F5F5F5F5F5F5F5F5F5F5F5F5F5F5F5F5F5F5F5F5F5F5F5F5F5F5F5F5F5F5F5F5F5F5F5F5F5F5F5F5F5F5F5F5F5F5F5F5F5F5F5F5F5F5F5F5F5F5F5F5F5F5F5F5F5F5F5F5F5F5F5F5F5
310
F5F5F5F5F5F5F5F5F5F5F5F5F5F5F5F5F5F5F5F5F5F5F5F5F5F5F5F5F5F5F5F5F5F5F5F5F5F5F5F5F5F5F5F5F5F5F5F5F5F5F5F5F5F5F5F5F5F5F5F5F5F5F5F5F5F5F5F5F5F5F5F5F5F5F5F5F5F5F5F5F5F5F5F5F5F5F5E2E2EFF5F5F5F5F5F5F5F5F5F5F5F5F5F5F5F5F5F5F5F5F5F5F5F5F5F5F5F5F5F5F5F5F5F5F5F5F5
310
F5F5F5F5F5F5F5F5F5F5F5F5F5F5F5F5F5F5F5F5F5F5F5F5F5F5F5F5F5F5F5F5F5F5F5F5F5F5F5F5F5F5F5F5F5F5F5F5F5F5F5F5F5F5F5F5F5F5F5F5F5F5F5F5F5F5F5F5F5F5F5F5F5F5F5F5F5F5F5F5F5F5F5F5F5F5F5F5F5F5F5F5F5F5F5F5F5F5F5F5F5F5F5F5F5F5F5F5F5F5F5F5F5F5F5F5F5F5F5F5F5F5F5F5F5F5F5
310
F5F5F5F5F5F5F5F5F5F5F5F5F5E2E2EFF5F5F5F5F5F5F5F5F5F5F5F5F5F5F5F5F5F5F5F5F5F5F5F5F5F5F5F5F5F5F5F5F5F5F5F5F5F5F5F5F5F5F5F5F5F5F5F5F5F5F5F5F5F5F5F5F5F5F5F5F5F5F5F5F5F5F5F5F5F5F5F5F5F5F5F5F5F5F5F5F5F5F5F5F5F5F5F5F5F5F5F5F5F5F5F5F5F5F5F5F5F5F5F5F5F5F5F5F5F5F5
310
F5F5F5F5F5F5F5F5F5F5F5F5F5F5F5F5F5F5F5F5F5F5F5F5F5F5F5F5F5F5F5F5F5F5F5F5F5F5F5F5F5F5F5F5F5F5F5F5F5F5F5F5F5F5F5F5F5F5F5F5F5F5F5F5F5F5E2E2EFF5F5F5F5F5F5F5F5F5F5F5F5F5F5F5F5F5F5F5F5F5F5F5F5F5F5F5F5F5F5F5F5F5F5F5F5F5F5F5F5F5F5F5F5F5F5F5F5F5F5F5F5F5F5F5F5F5F5
310
F5F5F5F5F5F5F5F5F5F5F5F5F5F5F5F5F5F5F5F5F5F5F5F5F5F5F5F5F5F5F5F5F5F5F5F5F5F5F5F5F5F5F5F5F5F5F5F5F5F5F5F5F5F5F5F5F5F5F5F5F5F5F5F5F5F5F5F5F5F5F5F5F5F5F5F5F5F5F5F5F5F5F5F5F5F5F5F5F5F5F5F5F5F5F5F5F5F5F5F5F5F5F5F5F5F5F5F5F5F5F5F5F5F5F5F5F5F5F5E2E2EFF5F5F5E2F5
310
F5F5F5F5F5F5F5F5F5F5F5F5F5F5F5F5F5F5F5F5F5F5F5F5F5F5F5F5F5F5F5F5F5F5F5F5F5F5F5F5F5F5F5F5F5F5F5F5F5F5F5F5F5F5F5F5F5F5F5F5F5F5F5F5F5F5F5F5F5F5F5F5F5F5F5F5F5F5F5F5F5F5F5F5F5F5F5F5F5F5F5F5F5F5F5F5F5F5F5F5F5F5F5F5F5F5F5F5F5F5F5F5F5F5F5F5F5F5F5F5F5F5F5F5F5F5F5
310
F5F5F5F5F5F5F5F5F5F5F5F5F5F5F5F5F5F5F5F5F5F5F5F5F5F5F5F5F5F5F5F5F5F5F5F5F5F5F5F5F5E2F5F5F5E2E2EFF5F5F5E2F5F5F5F5F5F5F5F5F5F5F5F5F5F5F5F5F5F5F5F5F5F5F5F5F5F5F5F5F5F5F5F5F5F5F5F5F5F5F5F5F5F5F5F5F5F5F5F5F5F5F5F5F5F5F5F5F5F5F5F5F5F5F5F5F5F5F5F5F5F5F5F5F5F5F5
310
F5F5F5F5F5F5F5F5F5F5F5F5F5F5F5F5F5F5F5F5F5F5F5F5F5F5F5F5F5F5F5F5F5F5F5F5F5F5F5F5F5F5F5F5F5F5F5F5F5F5F5F5F5F5F5F5F5F5F5F5F5F5F5F5F5F5F5F5F5F5F5F5F5F5F5F5F5F5F5F5F5F5F5F5F5F5F5F5F5F5F5F5F5F5E2F5F5F5E2E2EFF5F5F5E2F5F5F5F5F5F5F5F5F5F5F5F5F5F5F5F5F5F5F5F5F5F5
310
F5F5F5F5F5F5F5F5F5F5F5F5F5F5F5F5F5F5F5F5F5F5F5F5F5F5F5F5F5F5F5F5F5F5F5F5F5F5F5F5F5F5F5F5F5F5F5F5F5F5F5F5F5F5F5F5F5F5F5F5F5F5F5F5F5F5F5F5F5F5F5F5F5F5F5F5F5F5F5F5F5F5F5F5F5F5F5F5F5F5F5F5F5F5F5F5F5F5F5F5F5F5F5F5F5F5F5F5F5F5F5F5F5F5F5F5F5F5F5F5F5F5F5F5F5F5F5
310
F5F5F5F5F5F5F5F5F5F5F5F5F5F5F5F5F5F5F5F5E2F5F5F5E2E2EFF5F5F5E2F5F5F5F5F5F5F5F5F5F5F5F5F5F5F5F5F5F5F5F5F5F5F5F5F5F5F5F5F5F5F5F5F5F5F5F5F5F5F5F5F5F5F5F5F5F5F5F5F5F5F5F5F5F5F5F5F5F5F5F5F5F5F5F5F5F5F5F5F5F5F5F5F5F5F5F5F5F5F5F5F5F5F5F5F5F5F5F5F5F5F5F5F5F5F5F5
310
F5F5F5F5F5F5F5F5F5F5F5F5F5F5F5F5F5F5F5F5F5F5F5F5F5F5F5F5F5F5F5F5F5F5F5F5F5F5F5F5F5F5F5F5F5F5F5F5F5F5F5F5F5F5F5F5F5F5F5F5F5F5F5F5F5F5F5F5F5F5F5F5F5E2F5F5F5E2E2EFF5F5F5E2F5F5F5F5F5F5F5F5F5F5F5F5F5F5F5F5F5F5F5F5F5F5F5F5F5F5F5F5F5F5F5F5F5F5F5F5F5F5F5F5F5F5F5
310
F5F5F5F5F5F5F5F5F5F5F5F5F5F5F5F5F5F5F5F5F5F5F5F5F5F5F5F5F5F5F5F5F5F5F5F5F5F5F5F5F5F5F5F5F5F5F5F5F5F5F5F5F5F5F5F5F5F5F5F5F5F5F5F5F5F5F5F5F5F5F5F5F5F5F5F5F5F5F5F5F5F5F5F5F5F5F5F5F5F5F5F5F5F5F5F5F5F5F5F5F5F5F5F5F5F5F5F5F5F5F5F5F5F5F5F5F5F5F5F5F5F5F5F5F5F5E2
310
F5F5F5E2E2EFF5F5F5E2F5F5F5F5F5F5F5F5F5F5F5F5F5F5F5F5F5F5F5F5F5F5F5F5F5F5F5F5F5F5F5F5F5F5F5F5F5F5F5F5F5F5F5F5F5F5F5F5F5F5F5F5F5F5F5F5F5F5F5F5F5F5F5F5F5F5F5F5F5F5F5F5F5F5F5F5F5F5F5F5F5F5F5F5F5F5F5F5F5F5F5F5F5F5F5F5F5F5F5F5F5F5F5F5F5F5F5F5F5F5F5F5F5F5F5F5F5
310
F5F5F5F5F5F5F5F5F5F5F5F5F5F5F5F5F5F5F5F5F5F5F5F5F5F5F5F5F5F5F5F5F5F5F5F5F5F5F5F5F5F5F5F5F5F5F5F5F5F5F5F5E2F5F5F5E2E2EFF5F5F5E2F5F5F5F5F5F5F5F5F5F5F5F5F5F5F5F5F5F5F5F5F5F5F5F5F5F5F5F5F5F5F5F5F5F5F5F5F5F5F5F5F5F5F5F5F5F5F5F5F5F5F5F5F5F5F5F5F5F5F5F5F5F5F5F5
310
F5F5F5F5F5F5F5F5F5F5F5F5F5F5F5F5F5F5F5F5F5F5F5F5F5F5F5F5F5F5F5F5F5F5F5F5F5F5F5F5F5F5F5F5F5F5F5F5F5F5F5F5F5F5F5F5F5F5F5F5F5F5F5F5F5F5F5F5F5F5F5F5F5F5F5F5F5F5F5F5F5F5F5F5F5F5F5F5F5F5F5F5F5F5F5F5F5F5F5F5F5F5F5F5F5E2F5F5F5E2E2EFF5F5F5E2F5F5F5F5F5F5F5F5F5F5F5
310
F5F5F5F5F5F5F5F5F5F5F5F5F5F5F5F5F5F5F5F5F5F5F5F5F5F5F5F5F5F5F5F5F5F5F5F5F5F5F5F5F5F5F5F5F5F5F5F5F5F5F5F5F5F5F5F5F5F5F5F5F5F5F5F5F5F5F5F5F5F5F5F5F5F5F5F5F5F5F5F5F5F5F5F5F5F5F5F5F5F5F5F5F5F5F5F5F5F5F5F5F5F5F5F5F5F5F5F5F5F5F5F5F5F5F5F5F5F5F5F5F5F5F5F5F5F5F5
310
F5F5F5F5F5F5F5F5F5F5F5F5F5F5F5F5F5F5F5F5F5F5F5F5F5F5F5F5F5F5F5E2F5F5F5E2E2EFF5F5F5E2E2E2E2E2E2E2E2F5F5F5F5F5F5F5F5F5E2E2E2E2E2E2E2E2E2E2E2E2E2E2E2E2F5F5F5F5F5F5F5F5E2E2E2E2E2E2E2E2E2E2E2E2E2E2E2E2F5F5F5F5F5F5F5F5F5E2E2E2E2E2E2E2E2E2E2E2E2E2E2E2F5F5F5F5F5
310
F5F5F5F5E2E2E2E2E2E2E2E2E2E2E2E2E2E2E2F5F5F5F5F5F5F5F5F5E2E2E2E2E2E2E2E2E2E2E2E2E2E2E2E2F5F5F5F5F5F5F5F5E2E2E2E2E2E2E2E2E2E2E2E2E2E2E2E2F5F5F5F5F5F5F5F5F5E2E2E2E2E2E2E2E2F5F5F5E2E2EFF5F5F5F5F5F5F5F5F5F5F5F5F5F5F5F5F5F5F5F5F5F5F5F5F5F5F5F5F5F5F5F5F5F5F5F5
310
F5F5F5F5F5F5F5F5F5F5F5F5F5F5F5F5F5F5F5F5F5F5F5F5F5F5F5F5F5F5F5F5F5F5F5F5F5F5F5F5F5F5F5F5F5F5F5F5F5F5F5F5F5F5F5F5F5F5F5F5F5F5F5F5F5F5F5F5F5F5F5F5F5F5F5F5F5F5F5F5F5F5F5F5F5F5F5F5F5F5F5F5F5F5F5F5F5F5F5F5F5F5F5F5F5F5F5F5F5F5F5F5F5F5F5F5F5F5F5F5F5F5F5F5F5F5F5
310
F5F5F5F5F5F5F5F5F5F5F5F5F5F5E2E2EFF5F5F5F5F5F5F5F5F5F5F5F5F5F5F5F5F5F5F5F5F5F5F5F5F5F5F5F5F5F5F5F5F5F5F5F5F5F5F5F5F5F5F5F5F5F5F5F5F5F5F5F5F5F5F5F5F5F5F5F5F5F5F5F5F5F5F5F5F5F5F5F5F5F5F5F5F5F5F5F5F5F5F5F5F5F5F5F5F5F5F5F5F5F5F5F5F5F5F5F5F5F5F5F5F5F5F5F5F5F5
310
F5F5F5F5F5F5F5F5F5F5F5F5F5F5F5F5F5F5F5F5F5F5F5F5F5F5F5F5F5F5F5F5F5F5F5F5F5F5F5F5F5F5F5F5F5F5F5F5F5F5F5F5F5F5F5F5F5F5F5F5F5F5F5F5F5F5F5E2EFEFF5F5F5F5F5F5F5F5F5F5F5F5F5F5F5F5F5F5F5F5F5F5F5F5F5F5F5F5F5F5F5F5F5F5F5F5F5F5F5F5F5F5F5F5F5F5F5F5F5F5F5F5F5F5F5F5F5
310
F5F5F5F5F5F5F5F5F5F5F5F5F5F5F5F5F5F5F5F5F5F5F5F5F5F5F5F5F5F5F5F5F5F5F5F5F5F5F5F5F5F5F5F5F5F5F5F5F5F5F5F5F5F5F5F5F5F5F5F5F5F5F5F5F5F5F5F5F5F5F5F5F5F5F5F5F5F5F5F5F5F5F5F5F5F5F5F5F5F5F5F5F5F5F5F5F5F5F5F5F5F5F5F5F5F5F5F5F5F5F5F5F5F5F5F5F5F5F5F5E2EFEFE2E2E2E2
310
E2E2E2E2E2E2E2E2E2E2E2E2E2E2E2E2E2E2E2E2E2E2E2E2E2E2E2E2E2E2E2E2E2E2E2E2E2E2E2E2E2E2E2E2E2E2E2E2E2E2E2E2E2E2E2E2E2E2E2E2E2E2E2E2E2E2E2E2E2E2E2E2E2E2E2E2E2E2E2E2E2E2E2E2E2E2E2E2E2E2E2E2E2E2E2E2E2E2E2E2E2E2E2E2E2E2E2E2E2E2E2E2E2E2E2E2E2E2E2E2E2E2E2E2E2E2E2
310
E2E2E2E2E2E2E2E2E2E2E2E2E2E2E2E2E2E2E2E2E2E2E2E2E2E2E2E2E2E2E2E2E2E2E2E2E2E2E2E2E2E2E2E2E2E2E2EFEF
  0
ENDSEC
  0
EOF
