  0
SECTION
  2
HEADER
  9
$ACADVER
  1
AC1018
  9
$ACADMAINTVER
 70
     0
  9
$DWGCODEPAGE
  3
ANSI_1252
  9
$AUTHOR
  1
g6edxjah
  9
$LASTSAVEDBY
  1
g6edxjah
  9
$INSBASE
 10
0.0
 20
0.0
 30
0.0
  9
$EXTMIN
 10
38.918458
 20
0.043458
 30
0.0
  9
$EXTMAX
 10
50.081542
 20
8.456542
 30
0.0
  9
$LIMMIN
 10
16.543291
 20
-23.706709
  9
$LIMMAX
 10
72.456709
 20
32.206709
  9
$ORTHOMODE
 70
     0
  9
$REGENMODE
 70
     1
  9
$FILLMODE
 70
     1
  9
$QTEXTMODE
 70
     0
  9
$MIRRTEXT
 70
     0
  9
$LTSCALE
 40
1.0
  9
$ATTMODE
 70
     1
  9
$TEXTSIZE
 40
0.12
  9
$TRACEWID
 40
0.05
  9
$TEXTSTYLE
  7
Standard
  9
$CLAYER
  8
TEXT
  9
$CELTYPE
  6
Continuous
  9
$CECOLOR
 62
     7
  9
$CELTSCALE
 40
1.0
  9
$DISPSILH
 70
     0
  9
$DIMSCALE
 40
1.0
  9
$DIMASZ
 40
0.12
  9
$DIMEXO
 40
0.06
  9
$DIMDLI
 40
0.0
  9
$DIMRND
 40
0.0
  9
$DIMDLE
 40
0.0
  9
$DIMEXE
 40
0.06
  9
$DIMTP
 40
0.0
  9
$DIMTM
 40
0.0
  9
$DIMTXT
 40
0.12
  9
$DIMCEN
 40
0.09
  9
$DIMTSZ
 40
0.0
  9
$DIMTOL
 70
     0
  9
$DIMLIM
 70
     0
  9
$DIMTIH
 70
     0
  9
$DIMTOH
 70
     0
  9
$DIMSE1
 70
     0
  9
$DIMSE2
 70
     0
  9
$DIMTAD
 70
     1
  9
$DIMZIN
 70
    11
  9
$DIMBLK
  1
TerminatorOpen_0.5
  9
$DIMASO
 70
     1
  9
$DIMSHO
 70
     1
  9
$DIMPOST
  1

  9
$DIMAPOST
  1

  9
$DIMALT
 70
     0
  9
$DIMALTD
 70
     4
  9
$DIMALTF
 40
25.4
  9
$DIMLFAC
 40
1.0
  9
$DIMTOFL
 70
     0
  9
$DIMTVP
 40
0.0
  9
$DIMTIX
 70
     0
  9
$DIMSOXD
 70
     0
  9
$DIMSAH
 70
     0
  9
$DIMBLK1
  1

  9
$DIMBLK2
  1

  9
$DIMSTYLE
  2
Standard
  9
$DIMCLRD
 70
     0
  9
$DIMCLRE
 70
     0
  9
$DIMCLRT
 70
     0
  9
$DIMTFAC
 40
1.0
  9
$DIMGAP
 40
0.06
  9
$DIMJUST
 70
     0
  9
$DIMSD1
 70
     0
  9
$DIMSD2
 70
     0
  9
$DIMTOLJ
 70
     0
  9
$DIMTZIN
 70
    11
  9
$DIMALTZ
 70
    15
  9
$DIMALTTZ
 70
    15
  9
$DIMUPT
 70
     0
  9
$DIMDEC
 70
     4
  9
$DIMTDEC
 70
     4
  9
$DIMALTU
 70
     2
  9
$DIMALTTD
 70
     4
  9
$DIMTXSTY
  7
Style-Arial
  9
$DIMAUNIT
 70
     0
  9
$DIMADEC
 70
     4
  9
$DIMALTRND
 40
0.0
  9
$DIMAZIN
 70
     3
  9
$DIMDSEP
 70
    46
  9
$DIMATFIT
 70
     1
  9
$DIMFRAC
 70
     0
  9
$DIMLDRBLK
  1
TerminatorOpen_0.5
  9
$DIMLUNIT
 70
     2
  9
$DIMLWD
 70
    -2
  9
$DIMLWE
 70
    -2
  9
$DIMTMOVE
 70
     0
  9
$LUNITS
 70
     2
  9
$LUPREC
 70
     4
  9
$SKETCHINC
 40
0.1
  9
$FILLETRAD
 40
0.0
  9
$AUNITS
 70
     0
  9
$AUPREC
 70
     4
  9
$MENU
  1
.
  9
$ELEVATION
 40
0.0
  9
$PELEVATION
 40
0.0
  9
$THICKNESS
 40
0.0
  9
$LIMCHECK
 70
     0
  9
$CHAMFERA
 40
0.0
  9
$CHAMFERB
 40
0.0
  9
$CHAMFERC
 40
0.0
  9
$CHAMFERD
 40
0.0
  9
$SKPOLY
 70
     0
  9
$TDCREATE
 40
2455393.399092269
  9
$TDUCREATE
 40
2455393.607425602
  9
$TDUPDATE
 40
2455393.399092454
  9
$TDUUPDATE
 40
2455393.607425787
  9
$TDINDWG
 40
0.0
  9
$TDUSRTIMER
 40
0.0006630093
  9
$USRTIMER
 70
     1
  9
$ANGBASE
 50
0.0
  9
$ANGDIR
 70
     0
  9
$PDMODE
 70
     0
  9
$PDSIZE
 40
0.0
  9
$PLINEWID
 40
0.0
  9
$SPLFRAME
 70
     0
  9
$SPLINETYPE
 70
     6
  9
$SPLINESEGS
 70
     8
  9
$HANDSEED
  5
482
  9
$SURFTAB1
 70
     6
  9
$SURFTAB2
 70
     6
  9
$SURFTYPE
 70
     6
  9
$SURFU
 70
     6
  9
$SURFV
 70
     6
  9
$UCSBASE
  2

  9
$UCSNAME
  2

  9
$UCSORG
 10
0.0
 20
0.0
 30
0.0
  9
$UCSXDIR
 10
1.0
 20
0.0
 30
0.0
  9
$UCSYDIR
 10
0.0
 20
1.0
 30
0.0
  9
$UCSORTHOREF
  2

  9
$UCSORTHOVIEW
 70
     0
  9
$UCSORGTOP
 10
0.0
 20
0.0
 30
0.0
  9
$UCSORGBOTTOM
 10
0.0
 20
0.0
 30
0.0
  9
$UCSORGLEFT
 10
0.0
 20
0.0
 30
0.0
  9
$UCSORGRIGHT
 10
0.0
 20
0.0
 30
0.0
  9
$UCSORGFRONT
 10
0.0
 20
0.0
 30
0.0
  9
$UCSORGBACK
 10
0.0
 20
0.0
 30
0.0
  9
$PUCSBASE
  2

  9
$PUCSNAME
  2

  9
$PUCSORG
 10
0.0
 20
0.0
 30
0.0
  9
$PUCSXDIR
 10
1.0
 20
0.0
 30
0.0
  9
$PUCSYDIR
 10
0.0
 20
1.0
 30
0.0
  9
$PUCSORTHOREF
  2

  9
$PUCSORTHOVIEW
 70
     0
  9
$PUCSORGTOP
 10
0.0
 20
0.0
 30
0.0
  9
$PUCSORGBOTTOM
 10
0.0
 20
0.0
 30
0.0
  9
$PUCSORGLEFT
 10
0.0
 20
0.0
 30
0.0
  9
$PUCSORGRIGHT
 10
0.0
 20
0.0
 30
0.0
  9
$PUCSORGFRONT
 10
0.0
 20
0.0
 30
0.0
  9
$PUCSORGBACK
 10
0.0
 20
0.0
 30
0.0
  9
$USERI1
 70
     0
  9
$USERI2
 70
     0
  9
$USERI3
 70
     0
  9
$USERI4
 70
     0
  9
$USERI5
 70
     0
  9
$USERR1
 40
0.0
  9
$USERR2
 40
0.0
  9
$USERR3
 40
0.0
  9
$USERR4
 40
0.0
  9
$USERR5
 40
0.0
  9
$WORLDVIEW
 70
     1
  9
$SHADEDGE
 70
     3
  9
$SHADEDIF
 70
    70
  9
$TILEMODE
 70
     1
  9
$MAXACTVP
 70
    64
  9
$PINSBASE
 10
0.0
 20
0.0
 30
0.0
  9
$PLIMCHECK
 70
     0
  9
$PEXTMIN
 10
1.049744
 20
0.799667
 30
-0.001526
  9
$PEXTMAX
 10
9.450623
 20
7.200577
 30
0.0
  9
$PLIMMIN
 10
-0.25
 20
-0.25
  9
$PLIMMAX
 10
10.75
 20
8.25
  9
$UNITMODE
 70
     0
  9
$VISRETAIN
 70
     1
  9
$PLINEGEN
 70
     0
  9
$PSLTSCALE
 70
     0
  9
$TREEDEPTH
 70
  3020
  9
$CMLSTYLE
  2
Standard
  9
$CMLJUST
 70
     0
  9
$CMLSCALE
 40
1.0
  9
$PROXYGRAPHICS
 70
     1
  9
$MEASUREMENT
 70
     0
  9
$CELWEIGHT
370
    13
  9
$ENDCAPS
280
     0
  9
$JOINSTYLE
280
     0
  9
$LWDISPLAY
290
     1
  9
$INSUNITS
 70
     2
  9
$HYPERLINKBASE
  1

  9
$STYLESHEET
  1

  9
$XEDIT
290
     1
  9
$CEPSNTYPE
380
     0
  9
$PSTYLEMODE
290
     1
  9
$FINGERPRINTGUID
  2
{02C0BBB5-38A7-4FBF-829E-00875EC88963}
  9
$VERSIONGUID
  2
{82C521FC-BF81-46B3-825E-420B6BD93A99}
  9
$EXTNAMES
290
     1
  9
$PSVPSCALE
 40
0.0
  9
$OLESTARTUP
290
     0
  9
$SORTENTS
280
   127
  9
$INDEXCTL
280
     0
  9
$HIDETEXT
280
     1
  9
$XCLIPFRAME
290
     0
  9
$HALOGAP
280
     0
  9
$OBSCOLOR
 70
   257
  9
$OBSLTYPE
280
     0
  9
$INTERSECTIONDISPLAY
280
     0
  9
$INTERSECTIONCOLOR
 70
   257
  9
$DIMASSOC
280
     1
  9
$PROJECTNAME
  1

  0
ENDSEC
  0
SECTION
  2
CLASSES
  0
CLASS
  1
ACDBDICTIONARYWDFLT
  2
AcDbDictionaryWithDefault
  3
ObjectDBX Classes
 90
        0
 91
        3
280
     0
281
     0
  0
CLASS
  1
SORTENTSTABLE
  2
AcDbSortentsTable
  3
ObjectDBX Classes
 90
        0
 91
        3
280
     0
281
     0
  0
ENDSEC
  0
SECTION
  2
TABLES
  0
TABLE
  2
VPORT
  5
463
330
0
100
AcDbSymbolTable
 70
     4
  0
VPORT
  5
49
330
463
100
AcDbSymbolTableRecord
100
AcDbViewportTableRecord
  2
*ACTIVE
 70
     0
 10
0.0
 20
0.0
 11
1.0
 21
1.0
 12
44.5
 22
4.25
 13
0.0
 23
0.0
 14
0.083333
 24
0.083333
 15
0.083333
 25
0.083333
 16
0.0
 26
0.0
 36
1.0
 17
0.0
 27
0.0
 37
0.0
 40
8.749607
 41
1.884937
 42
50.0
 43
0.0
 44
0.0
 50
0.0
 51
0.0
 71
     0
 72
   100
 73
     1
 74
     2
 75
     0
 76
     0
 77
     0
 78
     1
281
     0
 65
     1
110
0.0
120
0.0
130
0.0
111
1.0
121
0.0
131
0.0
112
0.0
122
1.0
132
0.0
 79
     0
146
0.0
  0
ENDTAB
  0
TABLE
  2
LTYPE
  5
44A
330
0
100
AcDbSymbolTable
 70
     1
  0
LTYPE
  5
44B
330
44A
100
AcDbSymbolTableRecord
100
AcDbLinetypeTableRecord
  2
ByBlock
 70
     0
  3

 72
    65
 73
     0
 40
0.0
  0
LTYPE
  5
44C
330
44A
100
AcDbSymbolTableRecord
100
AcDbLinetypeTableRecord
  2
ByLayer
 70
     0
  3

 72
    65
 73
     0
 40
0.0
  0
LTYPE
  5
449
330
44A
100
AcDbSymbolTableRecord
100
AcDbLinetypeTableRecord
  2
Continuous
 70
     0
  3
Solid line
 72
    65
 73
     0
 40
0.0
  0
ENDTAB
  0
TABLE
  2
LAYER
  5
443
102
{ACAD_XDICTIONARY
360
444
102
}
330
0
100
AcDbSymbolTable
 70
    64
  0
LAYER
  5
442
330
443
100
AcDbSymbolTableRecord
100
AcDbLayerTableRecord
  2
0
 70
     0
 62
     7
  6
Continuous
370
    -3
390
446
  0
LAYER
  5
7
330
443
100
AcDbSymbolTableRecord
100
AcDbLayerTableRecord
  2
Level 1
 70
     0
 62
     7
  6
Continuous
370
     0
390
446
  0
LAYER
  5
8
330
443
100
AcDbSymbolTableRecord
100
AcDbLayerTableRecord
  2
2-36G
 70
     0
 62
     7
  6
Continuous
370
     0
390
446
1001
AcAecLayerStandard
1000

1000
2-36G
  0
LAYER
  5
9
330
443
100
AcDbSymbolTableRecord
100
AcDbLayerTableRecord
  2
BORDER
 70
     0
 62
     7
  6
Continuous
370
     0
390
446
1001
AcAecLayerStandard
1000

1000
BORDER
  0
LAYER
  5
A
330
443
100
AcDbSymbolTableRecord
100
AcDbLayerTableRecord
  2
DEFPOINTS
 70
     0
 62
     7
  6
Continuous
290
     0
370
     0
390
446
1001
AcAecLayerStandard
1000

1000
DEFPOINTS
  0
LAYER
  5
B
330
443
100
AcDbSymbolTableRecord
100
AcDbLayerTableRecord
  2
DIM
 70
     0
 62
     7
  6
Continuous
370
     0
390
446
1001
AcAecLayerStandard
1000

1000
DIM
  0
LAYER
  5
C
330
443
100
AcDbSymbolTableRecord
100
AcDbLayerTableRecord
  2
HATCH
 70
     0
 62
     7
  6
Continuous
370
     0
390
446
1001
AcAecLayerStandard
1000

1000
HATCH
  0
LAYER
  5
D
330
443
100
AcDbSymbolTableRecord
100
AcDbLayerTableRecord
  2
NOTES
 70
     0
 62
     7
  6
Continuous
370
     0
390
446
1001
AcAecLayerStandard
1000

1000
NOTES
  0
LAYER
  5
E
330
443
100
AcDbSymbolTableRecord
100
AcDbLayerTableRecord
  2
REF
 70
     0
 62
     7
  6
Continuous
370
     0
390
446
1001
AcAecLayerStandard
1000

1000
REF
  0
LAYER
  5
F
330
443
100
AcDbSymbolTableRecord
100
AcDbLayerTableRecord
  2
TEXT
 70
     0
 62
     7
  6
Continuous
370
     0
390
446
1001
AcAecLayerStandard
1000

1000
TEXT
  0
LAYER
  5
10
330
443
100
AcDbSymbolTableRecord
100
AcDbLayerTableRecord
  2
TITLE
 70
     0
 62
     7
  6
Continuous
370
     0
390
446
1001
AcAecLayerStandard
1000

1000
TITLE
  0
LAYER
  5
11
330
443
100
AcDbSymbolTableRecord
100
AcDbLayerTableRecord
  2
Level 11
 70
     0
 62
     7
  6
Continuous
370
     0
390
446
  0
LAYER
  5
12
330
443
100
AcDbSymbolTableRecord
100
AcDbLayerTableRecord
  2
Level 12
 70
     0
 62
     7
  6
Continuous
370
     0
390
446
  0
LAYER
  5
13
330
443
100
AcDbSymbolTableRecord
100
AcDbLayerTableRecord
  2
Level 13
 70
     0
 62
     7
  6
Continuous
370
     0
390
446
  0
LAYER
  5
14
330
443
100
AcDbSymbolTableRecord
100
AcDbLayerTableRecord
  2
Level 14
 70
     0
 62
     7
  6
Continuous
370
     0
390
446
  0
LAYER
  5
15
330
443
100
AcDbSymbolTableRecord
100
AcDbLayerTableRecord
  2
Level 15
 70
     0
 62
     7
  6
Continuous
370
     0
390
446
  0
LAYER
  5
16
330
443
100
AcDbSymbolTableRecord
100
AcDbLayerTableRecord
  2
Level 16
 70
     0
 62
     7
  6
Continuous
370
     0
390
446
  0
LAYER
  5
17
330
443
100
AcDbSymbolTableRecord
100
AcDbLayerTableRecord
  2
Level 17
 70
     0
 62
     7
  6
Continuous
370
     0
390
446
  0
LAYER
  5
18
330
443
100
AcDbSymbolTableRecord
100
AcDbLayerTableRecord
  2
Level 18
 70
     0
 62
     7
  6
Continuous
370
     0
390
446
  0
LAYER
  5
19
330
443
100
AcDbSymbolTableRecord
100
AcDbLayerTableRecord
  2
Level 19
 70
     0
 62
     7
  6
Continuous
370
     0
390
446
  0
LAYER
  5
1A
330
443
100
AcDbSymbolTableRecord
100
AcDbLayerTableRecord
  2
Level 20
 70
     0
 62
     7
  6
Continuous
370
     0
390
446
  0
LAYER
  5
1B
330
443
100
AcDbSymbolTableRecord
100
AcDbLayerTableRecord
  2
Level 21
 70
     0
 62
     7
  6
Continuous
370
     0
390
446
  0
LAYER
  5
1C
330
443
100
AcDbSymbolTableRecord
100
AcDbLayerTableRecord
  2
Level 22
 70
     0
 62
     7
  6
Continuous
370
     0
390
446
  0
LAYER
  5
1D
330
443
100
AcDbSymbolTableRecord
100
AcDbLayerTableRecord
  2
Level 23
 70
     0
 62
     7
  6
Continuous
370
     0
390
446
  0
LAYER
  5
1E
330
443
100
AcDbSymbolTableRecord
100
AcDbLayerTableRecord
  2
Level 24
 70
     0
 62
     7
  6
Continuous
370
     0
390
446
  0
LAYER
  5
1F
330
443
100
AcDbSymbolTableRecord
100
AcDbLayerTableRecord
  2
Level 25
 70
     0
 62
     7
  6
Continuous
370
     0
390
446
  0
LAYER
  5
20
330
443
100
AcDbSymbolTableRecord
100
AcDbLayerTableRecord
  2
Level 26
 70
     0
 62
     7
  6
Continuous
370
     0
390
446
  0
LAYER
  5
21
330
443
100
AcDbSymbolTableRecord
100
AcDbLayerTableRecord
  2
Level 27
 70
     0
 62
     7
  6
Continuous
370
     0
390
446
  0
LAYER
  5
22
330
443
100
AcDbSymbolTableRecord
100
AcDbLayerTableRecord
  2
Level 28
 70
     0
 62
     7
  6
Continuous
370
     0
390
446
  0
LAYER
  5
23
330
443
100
AcDbSymbolTableRecord
100
AcDbLayerTableRecord
  2
Level 29
 70
     0
 62
     7
  6
Continuous
370
     0
390
446
  0
LAYER
  5
24
330
443
100
AcDbSymbolTableRecord
100
AcDbLayerTableRecord
  2
Level 30
 70
     0
 62
     7
  6
Continuous
370
     0
390
446
  0
LAYER
  5
25
330
443
100
AcDbSymbolTableRecord
100
AcDbLayerTableRecord
  2
Level 31
 70
     0
 62
     7
  6
Continuous
370
     0
390
446
  0
LAYER
  5
26
330
443
100
AcDbSymbolTableRecord
100
AcDbLayerTableRecord
  2
Level 32
 70
     0
 62
     7
  6
Continuous
370
     0
390
446
  0
LAYER
  5
27
330
443
100
AcDbSymbolTableRecord
100
AcDbLayerTableRecord
  2
Level 33
 70
     0
 62
     7
  6
Continuous
370
     0
390
446
  0
LAYER
  5
28
330
443
100
AcDbSymbolTableRecord
100
AcDbLayerTableRecord
  2
Level 34
 70
     0
 62
     7
  6
Continuous
370
     0
390
446
  0
LAYER
  5
29
330
443
100
AcDbSymbolTableRecord
100
AcDbLayerTableRecord
  2
Level 35
 70
     0
 62
     7
  6
Continuous
370
     0
390
446
  0
LAYER
  5
2A
330
443
100
AcDbSymbolTableRecord
100
AcDbLayerTableRecord
  2
Level 36
 70
     0
 62
     7
  6
Continuous
370
     0
390
446
  0
LAYER
  5
2B
330
443
100
AcDbSymbolTableRecord
100
AcDbLayerTableRecord
  2
Level 37
 70
     0
 62
     7
  6
Continuous
370
     0
390
446
  0
LAYER
  5
2C
330
443
100
AcDbSymbolTableRecord
100
AcDbLayerTableRecord
  2
Level 38
 70
     0
 62
     7
  6
Continuous
370
     0
390
446
  0
LAYER
  5
2D
330
443
100
AcDbSymbolTableRecord
100
AcDbLayerTableRecord
  2
Level 39
 70
     0
 62
     7
  6
Continuous
370
     0
390
446
  0
LAYER
  5
2E
330
443
100
AcDbSymbolTableRecord
100
AcDbLayerTableRecord
  2
Level 40
 70
     0
 62
     7
  6
Continuous
370
     0
390
446
  0
LAYER
  5
2F
330
443
100
AcDbSymbolTableRecord
100
AcDbLayerTableRecord
  2
Level 41
 70
     0
 62
     7
  6
Continuous
370
     0
390
446
  0
LAYER
  5
30
330
443
100
AcDbSymbolTableRecord
100
AcDbLayerTableRecord
  2
Level 42
 70
     0
 62
     7
  6
Continuous
370
     0
390
446
  0
LAYER
  5
31
330
443
100
AcDbSymbolTableRecord
100
AcDbLayerTableRecord
  2
Level 43
 70
     0
 62
     7
  6
Continuous
370
     0
390
446
  0
LAYER
  5
32
330
443
100
AcDbSymbolTableRecord
100
AcDbLayerTableRecord
  2
Level 44
 70
     0
 62
     7
  6
Continuous
370
     0
390
446
  0
LAYER
  5
33
330
443
100
AcDbSymbolTableRecord
100
AcDbLayerTableRecord
  2
Level 45
 70
     0
 62
     7
  6
Continuous
370
     0
390
446
  0
LAYER
  5
34
330
443
100
AcDbSymbolTableRecord
100
AcDbLayerTableRecord
  2
Level 46
 70
     0
 62
     7
  6
Continuous
370
     0
390
446
  0
LAYER
  5
35
330
443
100
AcDbSymbolTableRecord
100
AcDbLayerTableRecord
  2
Level 47
 70
     0
 62
     7
  6
Continuous
370
     0
390
446
  0
LAYER
  5
36
330
443
100
AcDbSymbolTableRecord
100
AcDbLayerTableRecord
  2
Level 48
 70
     0
 62
     7
  6
Continuous
370
     0
390
446
  0
LAYER
  5
37
330
443
100
AcDbSymbolTableRecord
100
AcDbLayerTableRecord
  2
Level 49
 70
     0
 62
     7
  6
Continuous
370
     0
390
446
  0
LAYER
  5
38
330
443
100
AcDbSymbolTableRecord
100
AcDbLayerTableRecord
  2
Level 50
 70
     0
 62
     7
  6
Continuous
370
     0
390
446
  0
LAYER
  5
39
330
443
100
AcDbSymbolTableRecord
100
AcDbLayerTableRecord
  2
Level 51
 70
     0
 62
     7
  6
Continuous
370
     0
390
446
  0
LAYER
  5
3A
330
443
100
AcDbSymbolTableRecord
100
AcDbLayerTableRecord
  2
Level 52
 70
     0
 62
     7
  6
Continuous
370
     0
390
446
  0
LAYER
  5
3B
330
443
100
AcDbSymbolTableRecord
100
AcDbLayerTableRecord
  2
Level 53
 70
     0
 62
     7
  6
Continuous
370
     0
390
446
  0
LAYER
  5
3C
330
443
100
AcDbSymbolTableRecord
100
AcDbLayerTableRecord
  2
Level 54
 70
     0
 62
     7
  6
Continuous
370
     0
390
446
  0
LAYER
  5
3D
330
443
100
AcDbSymbolTableRecord
100
AcDbLayerTableRecord
  2
Level 55
 70
     0
 62
     7
  6
Continuous
370
     0
390
446
  0
LAYER
  5
3E
330
443
100
AcDbSymbolTableRecord
100
AcDbLayerTableRecord
  2
Level 56
 70
     0
 62
     7
  6
Continuous
370
     0
390
446
  0
LAYER
  5
3F
330
443
100
AcDbSymbolTableRecord
100
AcDbLayerTableRecord
  2
Level 57
 70
     0
 62
     7
  6
Continuous
370
     0
390
446
  0
LAYER
  5
40
330
443
100
AcDbSymbolTableRecord
100
AcDbLayerTableRecord
  2
Level 58
 70
     0
 62
     7
  6
Continuous
370
     0
390
446
  0
LAYER
  5
41
330
443
100
AcDbSymbolTableRecord
100
AcDbLayerTableRecord
  2
Level 59
 70
     0
 62
     7
  6
Continuous
370
     0
390
446
  0
LAYER
  5
42
330
443
100
AcDbSymbolTableRecord
100
AcDbLayerTableRecord
  2
Level 60
 70
     0
 62
     7
  6
Continuous
370
     0
390
446
  0
LAYER
  5
43
330
443
100
AcDbSymbolTableRecord
100
AcDbLayerTableRecord
  2
Level 61
 70
     0
 62
     7
  6
Continuous
370
     0
390
446
  0
LAYER
  5
44
330
443
100
AcDbSymbolTableRecord
100
AcDbLayerTableRecord
  2
Level 62
 70
     0
 62
     7
  6
Continuous
370
     0
390
446
  0
LAYER
  5
45
330
443
100
AcDbSymbolTableRecord
100
AcDbLayerTableRecord
  2
_0
 70
     0
 62
     7
  6
Continuous
370
     0
390
446
1001
AcAecLayerStandard
1000

1000
0
  0
ENDTAB
  0
TABLE
  2
STYLE
  5
44E
330
0
100
AcDbSymbolTable
 70
     2
  0
STYLE
  5
44D
330
44E
100
AcDbSymbolTableRecord
100
AcDbTextStyleTableRecord
  2
Standard
 70
     0
 40
0.0
 41
1.0
 50
0.0
 71
     0
 42
0.12
  3
txt
  4

  0
STYLE
  5
46D
330
44E
100
AcDbSymbolTableRecord
100
AcDbTextStyleTableRecord
  2
Style-Arial
 70
     0
 40
0.0
 41
1.0
 50
0.0
 71
     0
 42
0.2
  3

  4

1001
ACAD
1000
Arial
1071
       39
  0
ENDTAB
  0
TABLE
  2
VIEW
  5
461
330
0
100
AcDbSymbolTable
 70
     0
  0
ENDTAB
  0
TABLE
  2
UCS
  5
462
330
0
100
AcDbSymbolTable
 70
     0
  0
ENDTAB
  0
TABLE
  2
APPID
  5
460
330
0
100
AcDbSymbolTable
 70
     3
  0
APPID
  5
468
330
460
100
AcDbSymbolTableRecord
100
AcDbRegAppTableRecord
  2
ACAD
 70
     0
  0
APPID
  5
45F
330
460
100
AcDbSymbolTableRecord
100
AcDbRegAppTableRecord
  2
ACAD_PSEXT
 70
     0
  0
APPID
  5
46A
330
460
100
AcDbSymbolTableRecord
100
AcDbRegAppTableRecord
  2
AcAecLayerStandard
 70
     0
  0
ENDTAB
  0
TABLE
  2
DIMSTYLE
  5
450
330
0
100
AcDbSymbolTable
 70
     1
100
AcDbDimStyleTable
  0
DIMSTYLE
105
44F
330
450
100
AcDbSymbolTableRecord
100
AcDbDimStyleTableRecord
  2
Standard
 70
     0
340
44D
  0
ENDTAB
  0
TABLE
  2
BLOCK_RECORD
  5
453
330
0
100
AcDbSymbolTable
 70
     3
  0
BLOCK_RECORD
  5
454
102
{ACAD_XDICTIONARY
360
47D
102
}
330
453
100
AcDbSymbolTableRecord
100
AcDbBlockTableRecord
  2
*Model_Space
340
457
  0
BLOCK_RECORD
  5
459
330
453
100
AcDbSymbolTableRecord
100
AcDbBlockTableRecord
  2
*Paper_Space
340
45C
  0
BLOCK_RECORD
  5
46E
330
453
100
AcDbSymbolTableRecord
100
AcDbBlockTableRecord
  2
TerminatorOpen_0.5
340
0
  0
BLOCK_RECORD
  5
477
330
453
100
AcDbSymbolTableRecord
100
AcDbBlockTableRecord
  2
LARROW
340
0
102
{BLKREFS
331
323
331
325
331
327
331
329
331
32B
331
32D
331
32F
331
3B3
331
3B6
102
}
  0
BLOCK_RECORD
  5
47A
330
453
100
AcDbSymbolTableRecord
100
AcDbBlockTableRecord
  2
LARROW_1
340
0
102
{BLKREFS
331
35C
331
367
331
372
331
37D
331
399
331
3A5
331
3BC
331
3C7
331
3D7
331
3E2
102
}
  0
ENDTAB
  0
ENDSEC
  0
SECTION
  2
BLOCKS
  0
BLOCK
  5
455
330
454
100
AcDbEntity
  8
0
100
AcDbBlockBegin
  2
*Model_Space
 70
     0
 71
     0
 10
0.0
 20
0.0
 30
0.0
  3
*Model_Space
  1

  0
ENDBLK
  5
456
330
454
100
AcDbEntity
  8
0
100
AcDbBlockEnd
  0
BLOCK
  5
45A
330
459
100
AcDbEntity
 67
     1
  8
0
100
AcDbBlockBegin
  2
*Paper_Space
 70
     0
 71
     0
 10
0.0
 20
0.0
 30
0.0
  3
*Paper_Space
  1

  0
ENDBLK
  5
45B
330
459
100
AcDbEntity
 67
     1
  8
0
100
AcDbBlockEnd
  0
BLOCK
  5
472
330
46E
100
AcDbEntity
  8
0
100
AcDbBlockBegin
  2
TerminatorOpen_0.5
 70
     0
 71
     0
 10
0.0
 20
0.0
 30
0.0
  3
TerminatorOpen_0.5
  1

  0
LINE
  5
46F
330
46E
100
AcDbEntity
  8
0
  6
ByBlock
 62
     0
370
    -2
100
AcDbLine
 10
0.0
 20
0.0
 30
0.0
 11
-1.0
 21
0.0
 31
0.0
  0
LINE
  5
470
330
46E
100
AcDbEntity
  8
0
  6
ByBlock
 62
     0
370
    -2
100
AcDbLine
 10
0.0
 20
0.0
 30
0.0
 11
-1.0
 21
0.25
 31
0.0
  0
LINE
  5
471
330
46E
100
AcDbEntity
  8
0
  6
ByBlock
 62
     0
370
    -2
100
AcDbLine
 10
0.0
 20
0.0
 30
0.0
 11
-1.0
 21
-0.25
 31
0.0
  0
ENDBLK
  5
473
330
46E
100
AcDbEntity
  8
0
100
AcDbBlockEnd
  0
BLOCK
  5
478
330
477
100
AcDbEntity
  8
0
100
AcDbBlockBegin
  2
LARROW
 70
     0
 71
     0
 10
0.0
 20
0.0
 30
0.0
  3
LARROW
  1

  0
LWPOLYLINE
  5
324
330
477
100
AcDbEntity
  8
DIM
  6
Continuous
 62
     7
370
    13
100
AcDbPolyline
 90
       63
 70
   128
 43
0.0
 10
-0.013031
 20
0.001886
 10
0.0
 20
0.0
 10
-0.013021
 20
-0.001886
 10
-0.012615
 20
-0.001573
 10
-0.012041
 20
-0.00101
 10
-0.01176
 20
-0.00049
 10
-0.011688
 20
0.000001
 10
-0.011792
 20
0.000552
 10
-0.012094
 20
0.001093
 10
-0.012677
 20
0.001625
 10
-0.013031
 20
0.001886
 10
-0.000385
 20
0.000021
 10
-0.012604
 20
-0.001761
 10
-0.012229
 20
-0.001479
 10
-0.011625
 20
-0.000906
 10
-0.011427
 20
-0.000167
 10
-0.011562
 20
0.000573
 10
-0.011917
 20
0.001084
 10
-0.012344
 20
0.0015
 10
-0.012636
 20
0.001729
 10
-0.001073
 20
0.00002
 10
-0.012052
 20
-0.001552
 10
-0.011666
 20
-0.001302
 10
-0.011469
 20
-0.000979
 10
-0.01125
 20
-0.000562
 10
-0.011135
 20
0.000021
 10
-0.011198
 20
0.000499
 10
-0.011427
 20
0.000875
 10
-0.011896
 20
0.001177
 10
-0.012209
 20
0.001542
 10
-0.001875
 20
0.000021
 10
-0.011448
 20
-0.001323
 10
-0.011021
 20
-0.000792
 10
-0.010896
 20
-0.000146
 10
-0.010958
 20
0.000573
 10
-0.011782
 20
0.001354
 10
-0.002771
 20
0.000062
 10
-0.010896
 20
-0.001072
 10
-0.010781
 20
-0.000698
 10
-0.010531
 20
-0.000094
 10
-0.010687
 20
0.000552
 10
-0.011333
 20
0.001125
 10
-0.003594
 20
0.000063
 10
-0.010604
 20
-0.000833
 10
-0.010375
 20
-0.000375
 10
-0.010271
 20
0.000115
 10
-0.01076
 20
0.000875
 10
-0.004573
 20
0.000063
 10
-0.010177
 20
-0.000625
 10
-0.010021
 20
-0.000281
 10
-0.00998
 20
0.000114
 10
-0.010375
 20
0.000667
 10
-0.00574
 20
0.000062
 10
-0.009823
 20
-0.000396
 10
-0.009709
 20
0.000135
 10
-0.010084
 20
0.000458
 10
-0.006698
 20
0.000063
 10
-0.009553
 20
-0.00024
 10
-0.009615
 20
0.00027
 10
-0.007677
 20
0.000062
 10
-0.009437
 20
-0.000073
 10
-0.00949
 20
0.000083
 10
-0.008886
 20
0.000084
  0
ENDBLK
  5
479
330
477
100
AcDbEntity
  8
0
100
AcDbBlockEnd
  0
BLOCK
  5
47B
330
47A
100
AcDbEntity
  8
0
100
AcDbBlockBegin
  2
LARROW_1
 70
     0
 71
     0
 10
0.0
 20
0.0
 30
0.0
  3
LARROW_1
  1

  0
LINE
  5
35D
330
47A
100
AcDbEntity
  8
TEXT
  6
Continuous
 62
     7
370
    13
100
AcDbLine
 10
0.0
 20
0.0
 30
0.0
 11
-0.013031
 21
0.001885
 31
0.0
  0
LINE
  5
35E
330
47A
100
AcDbEntity
  8
TEXT
  6
Continuous
 62
     7
370
    13
100
AcDbLine
 10
0.0
 20
0.0
 30
0.0
 11
-0.013021
 21
-0.001885
 31
0.0
  0
LWPOLYLINE
  5
35F
330
47A
100
AcDbEntity
  8
TEXT
  6
Continuous
 62
     7
370
    13
100
AcDbPolyline
 90
        9
 70
   128
 43
0.0
 10
-0.013031
 20
0.001885
 10
-0.01225
 20
0.001292
 10
-0.011896
 20
0.000813
 10
-0.011719
 20
0.000365
 10
-0.011687
 20
-0.000052
 10
-0.01175
 20
-0.000458
 10
-0.011958
 20
-0.000896
 10
-0.012323
 20
-0.001354
 10
-0.013021
 20
-0.001885
  0
LINE
  5
360
330
47A
100
AcDbEntity
  8
TEXT
  6
Continuous
 62
     7
370
    13
100
AcDbLine
 10
0.0
 20
0.0
 30
0.0
 11
-0.01225
 21
0.001292
 31
0.0
  0
LINE
  5
361
330
47A
100
AcDbEntity
  8
TEXT
  6
Continuous
 62
     7
370
    13
100
AcDbLine
 10
0.0
 20
0.0
 30
0.0
 11
-0.011896
 21
0.000813
 31
0.0
  0
LINE
  5
362
330
47A
100
AcDbEntity
  8
TEXT
  6
Continuous
 62
     7
370
    13
100
AcDbLine
 10
0.0
 20
0.0
 30
0.0
 11
-0.011719
 21
0.000365
 31
0.0
  0
LINE
  5
363
330
47A
100
AcDbEntity
  8
TEXT
  6
Continuous
 62
     7
370
    13
100
AcDbLine
 10
0.0
 20
0.0
 30
0.0
 11
-0.01175
 21
-0.000458
 31
0.0
  0
LINE
  5
364
330
47A
100
AcDbEntity
  8
TEXT
  6
Continuous
 62
     7
370
    13
100
AcDbLine
 10
0.0
 20
0.0
 30
0.0
 11
-0.011958
 21
-0.000896
 31
0.0
  0
LINE
  5
365
330
47A
100
AcDbEntity
  8
TEXT
  6
Continuous
 62
     7
370
    13
100
AcDbLine
 10
0.0
 20
0.0
 30
0.0
 11
-0.012323
 21
-0.001354
 31
0.0
  0
LINE
  5
366
330
47A
100
AcDbEntity
  8
TEXT
  6
Continuous
 62
     7
370
    13
100
AcDbLine
 10
0.0
 20
0.0
 30
0.0
 11
-0.011677
 21
0.0
 31
0.0
  0
ENDBLK
  5
47C
330
47A
100
AcDbEntity
  8
0
100
AcDbBlockEnd
  0
ENDSEC
  0
SECTION
  2
ENTITIES
  0
POINT
  5
5B
330
454
100
AcDbEntity
  8
_0
  6
Continuous
 62
     7
370
    30
100
AcDbPoint
 10
39.986906
 20
7.875
 30
0.0
  0
LINE
  5
5C
330
454
100
AcDbEntity
  8
BORDER
  6
Continuous
 62
     7
370
    30
100
AcDbLine
 10
39.986906
 20
0.625
 30
0.0
 11
39.986906
 21
7.875
 31
0.0
  0
LINE
  5
5D
330
454
100
AcDbEntity
  8
_0
  6
Continuous
 62
     7
370
    30
100
AcDbLine
 10
43.120198
 20
6.082208
 30
0.0
 11
43.108594
 21
6.070167
 31
0.0
  0
LINE
  5
5E
330
454
100
AcDbEntity
  8
_0
  6
Continuous
 62
     7
370
    30
100
AcDbLine
 10
43.023208
 20
5.981427
 30
0.0
 11
42.973427
 21
5.929688
 31
0.0
  0
LINE
  5
5F
330
454
100
AcDbEntity
  8
_0
  6
Continuous
 62
     7
370
    30
100
AcDbLine
 10
43.086719
 20
6.047417
 30
0.0
 11
43.05801
 21
6.017594
 31
0.0
  0
LINE
  5
60
330
454
100
AcDbEntity
  8
_0
  6
Continuous
 62
     7
370
    30
100
AcDbLine
 10
43.120271
 20
6.078677
 30
0.0
 11
43.112135
 21
6.070229
 31
0.0
  0
LINE
  5
61
330
454
100
AcDbEntity
  8
_0
  6
Continuous
 62
     7
370
    30
100
AcDbLine
 10
43.02674
 20
5.98149
 30
0.0
 11
42.976969
 21
5.92975
 31
0.0
  0
LINE
  5
62
330
454
100
AcDbEntity
  8
_0
  6
Continuous
 62
     7
370
    30
100
AcDbLine
 10
43.086781
 20
6.043885
 30
0.0
 11
43.058083
 21
6.014052
 31
0.0
  0
LINE
  5
63
330
454
100
AcDbEntity
  8
_0
  6
Continuous
 62
     7
370
    30
100
AcDbLine
 10
43.120333
 20
6.075135
 30
0.0
 11
43.115667
 21
6.070302
 31
0.0
  0
LINE
  5
64
330
454
100
AcDbEntity
  8
_0
  6
Continuous
 62
     7
370
    30
100
AcDbLine
 10
43.030281
 20
5.981562
 30
0.0
 11
42.9805
 21
5.929823
 31
0.0
  0
LINE
  5
65
330
454
100
AcDbEntity
  8
_0
  6
Continuous
 62
     7
370
    30
100
AcDbLine
 10
43.086854
 20
6.040344
 30
0.0
 11
43.058146
 21
6.010531
 31
0.0
  0
LINE
  5
66
330
454
100
AcDbEntity
  8
_0
  6
Continuous
 62
     7
370
    30
100
AcDbLine
 10
43.120406
 20
6.071604
 30
0.0
 11
43.119208
 21
6.070365
 31
0.0
  0
LINE
  5
67
330
454
100
AcDbEntity
  8
_0
  6
Continuous
 62
     7
370
    30
100
AcDbLine
 10
43.033812
 20
5.981625
 30
0.0
 11
42.984042
 21
5.929885
 31
0.0
  0
LINE
  5
68
330
454
100
AcDbEntity
  8
_0
  6
Continuous
 62
     7
370
    30
100
AcDbLine
 10
43.086917
 20
6.036812
 30
0.0
 11
43.058219
 21
6.00699
 31
0.0
  0
LINE
  5
69
330
454
100
AcDbEntity
  8
_0
  6
Continuous
 62
     7
370
    30
100
AcDbLine
 10
43.08699
 20
6.033281
 30
0.0
 11
43.058281
 21
6.003458
 31
0.0
  0
LINE
  5
6A
330
454
100
AcDbEntity
  8
_0
  6
Continuous
 62
     7
370
    30
100
AcDbLine
 10
43.037354
 20
5.981698
 30
0.0
 11
42.987573
 21
5.929958
 31
0.0
  0
LINE
  5
6B
330
454
100
AcDbEntity
  8
_0
  6
Continuous
 62
     7
370
    30
100
AcDbLine
 10
43.087052
 20
6.02974
 30
0.0
 11
43.058354
 21
5.999917
 31
0.0
  0
LINE
  5
6C
330
454
100
AcDbEntity
  8
_0
  6
Continuous
 62
     7
370
    30
100
AcDbLine
 10
43.040885
 20
5.98176
 30
0.0
 11
42.991094
 21
5.930021
 31
0.0
  0
LINE
  5
6D
330
454
100
AcDbEntity
  8
_0
  6
Continuous
 62
     7
370
    30
100
AcDbLine
 10
43.087125
 20
6.026208
 30
0.0
 11
43.058417
 21
5.996385
 31
0.0
  0
LINE
  5
6E
330
454
100
AcDbEntity
  8
_0
  6
Continuous
 62
     7
370
    30
100
AcDbLine
 10
43.044417
 20
5.981833
 30
0.0
 11
42.994635
 21
5.930094
 31
0.0
  0
LINE
  5
6F
330
454
100
AcDbEntity
  8
_0
  6
Continuous
 62
     7
370
    30
100
AcDbLine
 10
43.087187
 20
6.022667
 30
0.0
 11
43.05849
 21
5.992854
 31
0.0
  0
LINE
  5
70
330
454
100
AcDbEntity
  8
_0
  6
Continuous
 62
     7
370
    30
100
AcDbLine
 10
43.047958
 20
5.981896
 30
0.0
 11
42.998167
 21
5.930156
 31
0.0
  0
LINE
  5
71
330
454
100
AcDbEntity
  8
_0
  6
Continuous
 62
     7
370
    30
100
AcDbLine
 10
43.08726
 20
6.019135
 30
0.0
 11
43.058552
 21
5.989312
 31
0.0
  0
LINE
  5
72
330
454
100
AcDbEntity
  8
_0
  6
Continuous
 62
     7
370
    30
100
AcDbLine
 10
43.05149
 20
5.981969
 30
0.0
 11
43.001708
 21
5.930229
 31
0.0
  0
LINE
  5
73
330
454
100
AcDbEntity
  8
_0
  6
Continuous
 62
     7
370
    30
100
AcDbLine
 10
43.087323
 20
6.015594
 30
0.0
 11
43.058625
 21
5.985781
 31
0.0
  0
LINE
  5
74
330
454
100
AcDbEntity
  8
_0
  6
Continuous
 62
     7
370
    30
100
AcDbLine
 10
43.055031
 20
5.982031
 30
0.0
 11
43.00524
 21
5.930302
 31
0.0
  0
LINE
  5
75
330
454
100
AcDbEntity
  8
_0
  6
Continuous
 62
     7
370
    30
100
AcDbLine
 10
43.087396
 20
6.012073
 30
0.0
 11
43.058687
 21
5.98224
 31
0.0
  0
LINE
  5
76
330
454
100
AcDbEntity
  8
_0
  6
Continuous
 62
     7
370
    30
100
AcDbLine
 10
43.058563
 20
5.982104
 30
0.0
 11
43.008771
 21
5.930365
 31
0.0
  0
LINE
  5
77
330
454
100
AcDbEntity
  8
_0
  6
Continuous
 62
     7
370
    30
100
AcDbLine
 10
43.087458
 20
6.008542
 30
0.0
 11
43.012313
 21
5.930438
 31
0.0
  0
LINE
  5
78
330
454
100
AcDbEntity
  8
_0
  6
Continuous
 62
     7
370
    30
100
AcDbLine
 10
43.087531
 20
6.005
 30
0.0
 11
43.015844
 21
5.9305
 31
0.0
  0
LINE
  5
79
330
454
100
AcDbEntity
  8
_0
  6
Continuous
 62
     7
370
    30
100
AcDbLine
 10
43.087594
 20
6.001469
 30
0.0
 11
43.019385
 21
5.930573
 31
0.0
  0
LINE
  5
7A
330
454
100
AcDbEntity
  8
_0
  6
Continuous
 62
     7
370
    30
100
AcDbLine
 10
43.087667
 20
5.997927
 30
0.0
 11
43.022917
 21
5.930635
 31
0.0
  0
LINE
  5
7B
330
454
100
AcDbEntity
  8
_0
  6
Continuous
 62
     7
370
    30
100
AcDbLine
 10
43.087729
 20
5.994396
 30
0.0
 11
43.026458
 21
5.930708
 31
0.0
  0
LINE
  5
7C
330
454
100
AcDbEntity
  8
_0
  6
Continuous
 62
     7
370
    30
100
AcDbLine
 10
43.087802
 20
5.990865
 30
0.0
 11
43.02999
 21
5.930771
 31
0.0
  0
LINE
  5
7D
330
454
100
AcDbEntity
  8
_0
  6
Continuous
 62
     7
370
    30
100
AcDbLine
 10
43.087865
 20
5.987323
 30
0.0
 11
43.033521
 21
5.930844
 31
0.0
  0
LINE
  5
7E
330
454
100
AcDbEntity
  8
_0
  6
Continuous
 62
     7
370
    30
100
AcDbLine
 10
43.087937
 20
5.983792
 30
0.0
 11
43.037062
 21
5.930906
 31
0.0
  0
LINE
  5
7F
330
454
100
AcDbEntity
  8
_0
  6
Continuous
 62
     7
370
    30
100
AcDbLine
 10
43.090375
 20
5.982708
 30
0.0
 11
43.040594
 21
5.930979
 31
0.0
  0
LINE
  5
80
330
454
100
AcDbEntity
  8
_0
  6
Continuous
 62
     7
370
    30
100
AcDbLine
 10
43.093906
 20
5.982781
 30
0.0
 11
43.044135
 21
5.931042
 31
0.0
  0
LINE
  5
81
330
454
100
AcDbEntity
  8
_0
  6
Continuous
 62
     7
370
    30
100
AcDbLine
 10
43.097448
 20
5.982854
 30
0.0
 11
43.047656
 21
5.931115
 31
0.0
  0
LINE
  5
82
330
454
100
AcDbEntity
  8
_0
  6
Continuous
 62
     7
370
    30
100
AcDbLine
 10
43.100979
 20
5.982917
 30
0.0
 11
43.051187
 21
5.931177
 31
0.0
  0
LINE
  5
83
330
454
100
AcDbEntity
  8
_0
  6
Continuous
 62
     7
370
    30
100
AcDbLine
 10
43.10451
 20
5.98299
 30
0.0
 11
43.054729
 21
5.93125
 31
0.0
  0
LINE
  5
84
330
454
100
AcDbEntity
  8
_0
  6
Continuous
 62
     7
370
    30
100
AcDbLine
 10
43.108052
 20
5.983052
 30
0.0
 11
43.05826
 21
5.931312
 31
0.0
  0
LINE
  5
85
330
454
100
AcDbEntity
  8
_0
  6
Continuous
 62
     7
370
    30
100
AcDbLine
 10
43.111583
 20
5.983125
 30
0.0
 11
43.061802
 21
5.931385
 31
0.0
  0
LINE
  5
86
330
454
100
AcDbEntity
  8
_0
  6
Continuous
 62
     7
370
    30
100
AcDbLine
 10
43.115125
 20
5.983187
 30
0.0
 11
43.065333
 21
5.931448
 31
0.0
  0
LINE
  5
87
330
454
100
AcDbEntity
  8
_0
  6
Continuous
 62
     7
370
    30
100
AcDbLine
 10
43.118656
 20
5.98326
 30
0.0
 11
43.068865
 21
5.931521
 31
0.0
  0
LINE
  5
88
330
454
100
AcDbEntity
  8
_0
  6
Continuous
 62
     7
370
    30
100
AcDbLine
 10
43.122177
 20
5.983323
 30
0.0
 11
43.072406
 21
5.931583
 31
0.0
  0
LINE
  5
89
330
454
100
AcDbEntity
  8
_0
  6
Continuous
 62
     7
370
    30
100
AcDbLine
 10
43.125719
 20
5.983396
 30
0.0
 11
43.075938
 21
5.931656
 31
0.0
  0
LINE
  5
8A
330
454
100
AcDbEntity
  8
_0
  6
Continuous
 62
     7
370
    30
100
AcDbLine
 10
43.12925
 20
5.983458
 30
0.0
 11
43.079479
 21
5.931719
 31
0.0
  0
LINE
  5
8B
330
454
100
AcDbEntity
  8
_0
  6
Continuous
 62
     7
370
    30
100
AcDbLine
 10
43.132365
 20
5.983083
 30
0.0
 11
43.08301
 21
5.931792
 31
0.0
  0
LINE
  5
8C
330
454
100
AcDbEntity
  8
_0
  6
Continuous
 62
     7
370
    30
100
AcDbLine
 10
43.134979
 20
5.982198
 30
0.0
 11
43.086552
 21
5.931865
 31
0.0
  0
LINE
  5
8D
330
454
100
AcDbEntity
  8
_0
  6
Continuous
 62
     7
370
    30
100
AcDbLine
 10
43.137594
 20
5.981312
 30
0.0
 11
43.090083
 21
5.931927
 31
0.0
  0
LINE
  5
8E
330
454
100
AcDbEntity
  8
_0
  6
Continuous
 62
     7
370
    30
100
AcDbLine
 10
43.140208
 20
5.980417
 30
0.0
 11
43.093615
 21
5.932
 31
0.0
  0
LINE
  5
8F
330
454
100
AcDbEntity
  8
_0
  6
Continuous
 62
     7
370
    30
100
AcDbLine
 10
43.142823
 20
5.979531
 30
0.0
 11
43.097156
 21
5.932062
 31
0.0
  0
LINE
  5
90
330
454
100
AcDbEntity
  8
_0
  6
Continuous
 62
     7
370
    30
100
AcDbLine
 10
43.145448
 20
5.978646
 30
0.0
 11
43.100687
 21
5.932135
 31
0.0
  0
LINE
  5
91
330
454
100
AcDbEntity
  8
_0
  6
Continuous
 62
     7
370
    30
100
AcDbLine
 10
43.148052
 20
5.97776
 30
0.0
 11
43.104219
 21
5.932198
 31
0.0
  0
LINE
  5
92
330
454
100
AcDbEntity
  8
_0
  6
Continuous
 62
     7
370
    30
100
AcDbLine
 10
43.150667
 20
5.976875
 30
0.0
 11
43.10775
 21
5.932271
 31
0.0
  0
LINE
  5
93
330
454
100
AcDbEntity
  8
_0
  6
Continuous
 62
     7
370
    30
100
AcDbLine
 10
43.153292
 20
5.975979
 30
0.0
 11
43.111281
 21
5.932333
 31
0.0
  0
LINE
  5
94
330
454
100
AcDbEntity
  8
_0
  6
Continuous
 62
     7
370
    30
100
AcDbLine
 10
43.155896
 20
5.975094
 30
0.0
 11
43.114823
 21
5.932406
 31
0.0
  0
LINE
  5
95
330
454
100
AcDbEntity
  8
_0
  6
Continuous
 62
     7
370
    30
100
AcDbLine
 10
43.15851
 20
5.974208
 30
0.0
 11
43.118354
 21
5.932469
 31
0.0
  0
LINE
  5
96
330
454
100
AcDbEntity
  8
_0
  6
Continuous
 62
     7
370
    30
100
AcDbLine
 10
43.161135
 20
5.973312
 30
0.0
 11
43.121896
 21
5.932542
 31
0.0
  0
LINE
  5
97
330
454
100
AcDbEntity
  8
_0
  6
Continuous
 62
     7
370
    30
100
AcDbLine
 10
43.16374
 20
5.972427
 30
0.0
 11
43.125427
 21
5.932604
 31
0.0
  0
LINE
  5
98
330
454
100
AcDbEntity
  8
_0
  6
Continuous
 62
     7
370
    30
100
AcDbLine
 10
43.166354
 20
5.971531
 30
0.0
 11
43.128958
 21
5.932677
 31
0.0
  0
LINE
  5
99
330
454
100
AcDbEntity
  8
_0
  6
Continuous
 62
     7
370
    30
100
AcDbLine
 10
43.168979
 20
5.970646
 30
0.0
 11
43.1325
 21
5.93274
 31
0.0
  0
LINE
  5
9A
330
454
100
AcDbEntity
  8
_0
  6
Continuous
 62
     7
370
    30
100
AcDbLine
 10
43.171583
 20
5.96976
 30
0.0
 11
43.136031
 21
5.932812
 31
0.0
  0
LINE
  5
9B
330
454
100
AcDbEntity
  8
_0
  6
Continuous
 62
     7
370
    30
100
AcDbLine
 10
43.174198
 20
5.968875
 30
0.0
 11
43.139573
 21
5.932875
 31
0.0
  0
LINE
  5
9C
330
454
100
AcDbEntity
  8
_0
  6
Continuous
 62
     7
370
    30
100
AcDbLine
 10
43.176823
 20
5.96799
 30
0.0
 11
43.143104
 21
5.932948
 31
0.0
  0
LINE
  5
9D
330
454
100
AcDbEntity
  8
_0
  6
Continuous
 62
     7
370
    30
100
AcDbLine
 10
43.179427
 20
5.967104
 30
0.0
 11
43.146646
 21
5.93301
 31
0.0
  0
LINE
  5
9E
330
454
100
AcDbEntity
  8
_0
  6
Continuous
 62
     7
370
    30
100
AcDbLine
 10
43.182042
 20
5.966208
 30
0.0
 11
43.150177
 21
5.933083
 31
0.0
  0
LINE
  5
9F
330
454
100
AcDbEntity
  8
_0
  6
Continuous
 62
     7
370
    30
100
AcDbLine
 10
43.184667
 20
5.965323
 30
0.0
 11
43.153708
 21
5.933146
 31
0.0
  0
LINE
  5
A0
330
454
100
AcDbEntity
  8
_0
  6
Continuous
 62
     7
370
    30
100
AcDbLine
 10
43.187271
 20
5.964437
 30
0.0
 11
43.15725
 21
5.933219
 31
0.0
  0
LINE
  5
A1
330
454
100
AcDbEntity
  8
_0
  6
Continuous
 62
     7
370
    30
100
AcDbLine
 10
43.189885
 20
5.963552
 30
0.0
 11
43.160771
 21
5.933281
 31
0.0
  0
LINE
  5
A2
330
454
100
AcDbEntity
  8
_0
  6
Continuous
 62
     7
370
    30
100
AcDbLine
 10
43.19251
 20
5.962656
 30
0.0
 11
43.164313
 21
5.933354
 31
0.0
  0
LINE
  5
A3
330
454
100
AcDbEntity
  8
_0
  6
Continuous
 62
     7
370
    30
100
AcDbLine
 10
43.195125
 20
5.96176
 30
0.0
 11
43.167844
 21
5.933427
 31
0.0
  0
LINE
  5
A4
330
454
100
AcDbEntity
  8
_0
  6
Continuous
 62
     7
370
    30
100
AcDbLine
 10
43.197729
 20
5.960875
 30
0.0
 11
43.171375
 21
5.93349
 31
0.0
  0
LINE
  5
A5
330
454
100
AcDbEntity
  8
_0
  6
Continuous
 62
     7
370
    30
100
AcDbLine
 10
43.200354
 20
5.95999
 30
0.0
 11
43.174917
 21
5.933562
 31
0.0
  0
LINE
  5
A6
330
454
100
AcDbEntity
  8
_0
  6
Continuous
 62
     7
370
    30
100
AcDbLine
 10
43.202969
 20
5.959104
 30
0.0
 11
43.178448
 21
5.933625
 31
0.0
  0
LINE
  5
A7
330
454
100
AcDbEntity
  8
_0
  6
Continuous
 62
     7
370
    30
100
AcDbLine
 10
43.205573
 20
5.958219
 30
0.0
 11
43.18199
 21
5.933698
 31
0.0
  0
LINE
  5
A8
330
454
100
AcDbEntity
  8
_0
  6
Continuous
 62
     7
370
    30
100
AcDbLine
 10
43.208198
 20
5.957323
 30
0.0
 11
43.185521
 21
5.93376
 31
0.0
  0
LINE
  5
A9
330
454
100
AcDbEntity
  8
_0
  6
Continuous
 62
     7
370
    30
100
AcDbLine
 10
43.210812
 20
5.956437
 30
0.0
 11
43.189052
 21
5.933833
 31
0.0
  0
LINE
  5
AA
330
454
100
AcDbEntity
  8
_0
  6
Continuous
 62
     7
370
    30
100
AcDbLine
 10
43.213417
 20
5.955552
 30
0.0
 11
43.192594
 21
5.933896
 31
0.0
  0
LINE
  5
AB
330
454
100
AcDbEntity
  8
_0
  6
Continuous
 62
     7
370
    30
100
AcDbLine
 10
43.216042
 20
5.954667
 30
0.0
 11
43.196125
 21
5.933969
 31
0.0
  0
LINE
  5
AC
330
454
100
AcDbEntity
  8
_0
  6
Continuous
 62
     7
370
    30
100
AcDbLine
 10
43.218656
 20
5.953781
 30
0.0
 11
43.199667
 21
5.934031
 31
0.0
  0
LINE
  5
AD
330
454
100
AcDbEntity
  8
_0
  6
Continuous
 62
     7
370
    30
100
AcDbLine
 10
43.22126
 20
5.952885
 30
0.0
 11
43.203198
 21
5.934104
 31
0.0
  0
LINE
  5
AE
330
454
100
AcDbEntity
  8
_0
  6
Continuous
 62
     7
370
    30
100
AcDbLine
 10
43.223885
 20
5.952
 30
0.0
 11
43.206729
 21
5.934167
 31
0.0
  0
LINE
  5
AF
330
454
100
AcDbEntity
  8
_0
  6
Continuous
 62
     7
370
    30
100
AcDbLine
 10
43.2265
 20
5.951104
 30
0.0
 11
43.210271
 21
5.93424
 31
0.0
  0
LINE
  5
B0
330
454
100
AcDbEntity
  8
_0
  6
Continuous
 62
     7
370
    30
100
AcDbLine
 10
43.229104
 20
5.950219
 30
0.0
 11
43.213802
 21
5.934302
 31
0.0
  0
LINE
  5
B1
330
454
100
AcDbEntity
  8
_0
  6
Continuous
 62
     7
370
    30
100
AcDbLine
 10
43.231729
 20
5.949333
 30
0.0
 11
43.217333
 21
5.934375
 31
0.0
  0
LINE
  5
B2
330
454
100
AcDbEntity
  8
_0
  6
Continuous
 62
     7
370
    30
100
AcDbLine
 10
43.234344
 20
5.948437
 30
0.0
 11
43.220865
 21
5.934437
 31
0.0
  0
LINE
  5
B3
330
454
100
AcDbEntity
  8
_0
  6
Continuous
 62
     7
370
    30
100
AcDbLine
 10
43.236948
 20
5.947552
 30
0.0
 11
43.224406
 21
5.93451
 31
0.0
  0
LINE
  5
B4
330
454
100
AcDbEntity
  8
_0
  6
Continuous
 62
     7
370
    30
100
AcDbLine
 10
43.239573
 20
5.946667
 30
0.0
 11
43.227937
 21
5.934573
 31
0.0
  0
LINE
  5
B5
330
454
100
AcDbEntity
  8
_0
  6
Continuous
 62
     7
370
    30
100
AcDbLine
 10
43.242188
 20
5.945781
 30
0.0
 11
43.231469
 21
5.934646
 31
0.0
  0
LINE
  5
B6
330
454
100
AcDbEntity
  8
_0
  6
Continuous
 62
     7
370
    30
100
AcDbLine
 10
43.244802
 20
5.944896
 30
0.0
 11
43.23501
 21
5.934708
 31
0.0
  0
LINE
  5
B7
330
454
100
AcDbEntity
  8
_0
  6
Continuous
 62
     7
370
    30
100
AcDbLine
 10
43.247417
 20
5.94401
 30
0.0
 11
43.238542
 21
5.934781
 31
0.0
  0
LINE
  5
B8
330
454
100
AcDbEntity
  8
_0
  6
Continuous
 62
     7
370
    30
100
AcDbLine
 10
43.250031
 20
5.943115
 30
0.0
 11
43.242083
 21
5.934854
 31
0.0
  0
LINE
  5
B9
330
454
100
AcDbEntity
  8
_0
  6
Continuous
 62
     7
370
    30
100
AcDbLine
 10
43.252646
 20
5.942229
 30
0.0
 11
43.245615
 21
5.934917
 31
0.0
  0
LINE
  5
BA
330
454
100
AcDbEntity
  8
_0
  6
Continuous
 62
     7
370
    30
100
AcDbLine
 10
43.25526
 20
5.941344
 30
0.0
 11
43.249146
 21
5.93499
 31
0.0
  0
LINE
  5
BB
330
454
100
AcDbEntity
  8
_0
  6
Continuous
 62
     7
370
    30
100
AcDbLine
 10
43.257875
 20
5.940448
 30
0.0
 11
43.252688
 21
5.935052
 31
0.0
  0
LINE
  5
BC
330
454
100
AcDbEntity
  8
_0
  6
Continuous
 62
     7
370
    30
100
AcDbLine
 10
43.26049
 20
5.939563
 30
0.0
 11
43.256219
 21
5.935125
 31
0.0
  0
LINE
  5
BD
330
454
100
AcDbEntity
  8
_0
  6
Continuous
 62
     7
370
    30
100
AcDbLine
 10
43.263094
 20
5.938667
 30
0.0
 11
43.25976
 21
5.935187
 31
0.0
  0
LINE
  5
BE
330
454
100
AcDbEntity
  8
_0
  6
Continuous
 62
     7
370
    30
100
AcDbLine
 10
43.265719
 20
5.937781
 30
0.0
 11
43.263292
 21
5.93526
 31
0.0
  0
LINE
  5
BF
330
454
100
AcDbEntity
  8
_0
  6
Continuous
 62
     7
370
    30
100
AcDbLine
 10
43.268333
 20
5.936896
 30
0.0
 11
43.266823
 21
5.935323
 31
0.0
  0
LINE
  5
C0
330
454
100
AcDbEntity
  8
_0
  6
Continuous
 62
     7
370
    30
100
AcDbLine
 10
43.270937
 20
5.93601
 30
0.0
 11
43.270365
 21
5.935396
 31
0.0
  0
LINE
  5
C1
330
454
100
AcDbEntity
  8
_0
  6
Continuous
 62
     7
370
    30
100
AcDbLine
 10
43.120125
 20
6.08575
 30
0.0
 11
43.105062
 21
6.070094
 31
0.0
  0
LINE
  5
C2
330
454
100
AcDbEntity
  8
_0
  6
Continuous
 62
     7
370
    30
100
AcDbLine
 10
43.019677
 20
5.981354
 30
0.0
 11
42.969896
 21
5.929615
 31
0.0
  0
LINE
  5
C3
330
454
100
AcDbEntity
  8
_0
  6
Continuous
 62
     7
370
    30
100
AcDbLine
 10
43.086646
 20
6.050958
 30
0.0
 11
43.057948
 21
6.021125
 31
0.0
  0
LINE
  5
C4
330
454
100
AcDbEntity
  8
_0
  6
Continuous
 62
     7
370
    30
100
AcDbLine
 10
43.120062
 20
6.089281
 30
0.0
 11
43.101531
 21
6.070031
 31
0.0
  0
LINE
  5
C5
330
454
100
AcDbEntity
  8
_0
  6
Continuous
 62
     7
370
    30
100
AcDbLine
 10
43.016135
 20
5.981292
 30
0.0
 11
42.966365
 21
5.929552
 31
0.0
  0
LINE
  5
C6
330
454
100
AcDbEntity
  8
_0
  6
Continuous
 62
     7
370
    30
100
AcDbLine
 10
43.086583
 20
6.05449
 30
0.0
 11
43.057875
 21
6.024656
 31
0.0
  0
LINE
  5
C7
330
454
100
AcDbEntity
  8
_0
  6
Continuous
 62
     7
370
    30
100
AcDbLine
 10
43.11999
 20
6.092812
 30
0.0
 11
43.09799
 21
6.069958
 31
0.0
  0
LINE
  5
C8
330
454
100
AcDbEntity
  8
_0
  6
Continuous
 62
     7
370
    30
100
AcDbLine
 10
43.01099
 20
5.979552
 30
0.0
 11
42.962823
 21
5.929479
 31
0.0
  0
LINE
  5
C9
330
454
100
AcDbEntity
  8
_0
  6
Continuous
 62
     7
370
    30
100
AcDbLine
 10
43.08651
 20
6.058021
 30
0.0
 11
43.057812
 21
6.028198
 31
0.0
  0
LINE
  5
CA
330
454
100
AcDbEntity
  8
_0
  6
Continuous
 62
     7
370
    30
100
AcDbLine
 10
43.119927
 20
6.096354
 30
0.0
 11
43.094458
 21
6.069896
 31
0.0
  0
LINE
  5
CB
330
454
100
AcDbEntity
  8
_0
  6
Continuous
 62
     7
370
    30
100
AcDbLine
 10
43.0055
 20
5.977448
 30
0.0
 11
42.959292
 21
5.929417
 31
0.0
  0
LINE
  5
CC
330
454
100
AcDbEntity
  8
_0
  6
Continuous
 62
     7
370
    30
100
AcDbLine
 10
43.086448
 20
6.061562
 30
0.0
 11
43.05774
 21
6.031729
 31
0.0
  0
LINE
  5
CD
330
454
100
AcDbEntity
  8
_0
  6
Continuous
 62
     7
370
    30
100
AcDbLine
 10
43.119854
 20
6.099885
 30
0.0
 11
43.090917
 21
6.069823
 31
0.0
  0
LINE
  5
CE
330
454
100
AcDbEntity
  8
_0
  6
Continuous
 62
     7
370
    30
100
AcDbLine
 10
43.00001
 20
5.975344
 30
0.0
 11
42.95575
 21
5.929344
 31
0.0
  0
LINE
  5
CF
330
454
100
AcDbEntity
  8
_0
  6
Continuous
 62
     7
370
    30
100
AcDbLine
 10
43.086375
 20
6.065094
 30
0.0
 11
43.057667
 21
6.035271
 31
0.0
  0
LINE
  5
D0
330
454
100
AcDbEntity
  8
_0
  6
Continuous
 62
     7
370
    30
100
AcDbLine
 10
43.119792
 20
6.103427
 30
0.0
 11
43.087385
 21
6.06976
 31
0.0
  0
LINE
  5
D1
330
454
100
AcDbEntity
  8
_0
  6
Continuous
 62
     7
370
    30
100
AcDbLine
 10
42.99451
 20
5.973229
 30
0.0
 11
42.952219
 21
5.929281
 31
0.0
  0
LINE
  5
D2
330
454
100
AcDbEntity
  8
_0
  6
Continuous
 62
     7
370
    30
100
AcDbLine
 10
43.086302
 20
6.068635
 30
0.0
 11
43.057604
 21
6.038802
 31
0.0
  0
LINE
  5
D3
330
454
100
AcDbEntity
  8
_0
  6
Continuous
 62
     7
370
    30
100
AcDbLine
 10
43.119719
 20
6.106958
 30
0.0
 11
43.057531
 21
6.042333
 31
0.0
  0
LINE
  5
D4
330
454
100
AcDbEntity
  8
_0
  6
Continuous
 62
     7
370
    30
100
AcDbLine
 10
42.989021
 20
5.971125
 30
0.0
 11
42.948677
 21
5.929208
 31
0.0
  0
LINE
  5
D5
330
454
100
AcDbEntity
  8
_0
  6
Continuous
 62
     7
370
    30
100
AcDbLine
 10
43.119656
 20
6.11049
 30
0.0
 11
43.057469
 21
6.045875
 31
0.0
  0
LINE
  5
D6
330
454
100
AcDbEntity
  8
_0
  6
Continuous
 62
     7
370
    30
100
AcDbLine
 10
42.98351
 20
5.969021
 30
0.0
 11
42.945146
 21
5.929146
 31
0.0
  0
LINE
  5
D7
330
454
100
AcDbEntity
  8
_0
  6
Continuous
 62
     7
370
    30
100
AcDbLine
 10
43.119583
 20
6.114031
 30
0.0
 11
43.057396
 21
6.049406
 31
0.0
  0
LINE
  5
D8
330
454
100
AcDbEntity
  8
_0
  6
Continuous
 62
     7
370
    30
100
AcDbLine
 10
42.978021
 20
5.966917
 30
0.0
 11
42.941615
 21
5.929073
 31
0.0
  0
LINE
  5
D9
330
454
100
AcDbEntity
  8
_0
  6
Continuous
 62
     7
370
    30
100
AcDbLine
 10
43.119521
 20
6.117563
 30
0.0
 11
43.057333
 21
6.052948
 31
0.0
  0
LINE
  5
DA
330
454
100
AcDbEntity
  8
_0
  6
Continuous
 62
     7
370
    30
100
AcDbLine
 10
42.972531
 20
5.964812
 30
0.0
 11
42.938073
 21
5.92901
 31
0.0
  0
LINE
  5
DB
330
454
100
AcDbEntity
  8
_0
  6
Continuous
 62
     7
370
    30
100
AcDbLine
 10
43.119448
 20
6.121104
 30
0.0
 11
43.05726
 21
6.056479
 31
0.0
  0
LINE
  5
DC
330
454
100
AcDbEntity
  8
_0
  6
Continuous
 62
     7
370
    30
100
AcDbLine
 10
42.967031
 20
5.962708
 30
0.0
 11
42.934542
 21
5.928937
 31
0.0
  0
LINE
  5
DD
330
454
100
AcDbEntity
  8
_0
  6
Continuous
 62
     7
370
    30
100
AcDbLine
 10
43.119385
 20
6.124635
 30
0.0
 11
43.057198
 21
6.06001
 31
0.0
  0
LINE
  5
DE
330
454
100
AcDbEntity
  8
_0
  6
Continuous
 62
     7
370
    30
100
AcDbLine
 10
42.961542
 20
5.960594
 30
0.0
 11
42.93101
 21
5.928875
 31
0.0
  0
LINE
  5
DF
330
454
100
AcDbEntity
  8
_0
  6
Continuous
 62
     7
370
    30
100
AcDbLine
 10
43.119312
 20
6.128156
 30
0.0
 11
43.057125
 21
6.063552
 31
0.0
  0
LINE
  5
E0
330
454
100
AcDbEntity
  8
_0
  6
Continuous
 62
     7
370
    30
100
AcDbLine
 10
42.956031
 20
5.95849
 30
0.0
 11
42.927479
 21
5.928802
 31
0.0
  0
LINE
  5
E1
330
454
100
AcDbEntity
  8
_0
  6
Continuous
 62
     7
370
    30
100
AcDbLine
 10
43.11925
 20
6.131698
 30
0.0
 11
43.057063
 21
6.067083
 31
0.0
  0
LINE
  5
E2
330
454
100
AcDbEntity
  8
_0
  6
Continuous
 62
     7
370
    30
100
AcDbLine
 10
42.950542
 20
5.956385
 30
0.0
 11
42.923948
 21
5.92874
 31
0.0
  0
LINE
  5
E3
330
454
100
AcDbEntity
  8
_0
  6
Continuous
 62
     7
370
    30
100
AcDbLine
 10
43.118427
 20
6.134448
 30
0.0
 11
43.055573
 21
6.069146
 31
0.0
  0
LINE
  5
E4
330
454
100
AcDbEntity
  8
_0
  6
Continuous
 62
     7
370
    30
100
AcDbLine
 10
42.945052
 20
5.954281
 30
0.0
 11
42.920406
 21
5.928667
 31
0.0
  0
LINE
  5
E5
330
454
100
AcDbEntity
  8
_0
  6
Continuous
 62
     7
370
    30
100
AcDbLine
 10
43.114885
 20
6.134375
 30
0.0
 11
43.052042
 21
6.069073
 31
0.0
  0
LINE
  5
E6
330
454
100
AcDbEntity
  8
_0
  6
Continuous
 62
     7
370
    30
100
AcDbLine
 10
42.939552
 20
5.952177
 30
0.0
 11
42.916875
 21
5.928594
 31
0.0
  0
LINE
  5
E7
330
454
100
AcDbEntity
  8
_0
  6
Continuous
 62
     7
370
    30
100
AcDbLine
 10
43.111354
 20
6.134313
 30
0.0
 11
43.0485
 21
6.06901
 31
0.0
  0
LINE
  5
E8
330
454
100
AcDbEntity
  8
_0
  6
Continuous
 62
     7
370
    30
100
AcDbLine
 10
42.934052
 20
5.950073
 30
0.0
 11
42.913333
 21
5.928531
 31
0.0
  0
LINE
  5
E9
330
454
100
AcDbEntity
  8
_0
  6
Continuous
 62
     7
370
    30
100
AcDbLine
 10
43.107823
 20
6.13424
 30
0.0
 11
43.044969
 21
6.068937
 31
0.0
  0
LINE
  5
EA
330
454
100
AcDbEntity
  8
_0
  6
Continuous
 62
     7
370
    30
100
AcDbLine
 10
42.928552
 20
5.947958
 30
0.0
 11
42.909802
 21
5.928458
 31
0.0
  0
LINE
  5
EB
330
454
100
AcDbEntity
  8
_0
  6
Continuous
 62
     7
370
    30
100
AcDbLine
 10
43.104281
 20
6.134177
 30
0.0
 11
43.041438
 21
6.068875
 31
0.0
  0
LINE
  5
EC
330
454
100
AcDbEntity
  8
_0
  6
Continuous
 62
     7
370
    30
100
AcDbLine
 10
42.923063
 20
5.945854
 30
0.0
 11
42.906271
 21
5.928396
 31
0.0
  0
LINE
  5
ED
330
454
100
AcDbEntity
  8
_0
  6
Continuous
 62
     7
370
    30
100
AcDbLine
 10
43.10075
 20
6.134104
 30
0.0
 11
43.037896
 21
6.068802
 31
0.0
  0
LINE
  5
EE
330
454
100
AcDbEntity
  8
_0
  6
Continuous
 62
     7
370
    30
100
AcDbLine
 10
42.917562
 20
5.94375
 30
0.0
 11
42.902729
 21
5.928323
 31
0.0
  0
LINE
  5
EF
330
454
100
AcDbEntity
  8
_0
  6
Continuous
 62
     7
370
    30
100
AcDbLine
 10
43.097208
 20
6.134042
 30
0.0
 11
43.034365
 21
6.06874
 31
0.0
  0
LINE
  5
F0
330
454
100
AcDbEntity
  8
_0
  6
Continuous
 62
     7
370
    30
100
AcDbLine
 10
42.912073
 20
5.941646
 30
0.0
 11
42.899198
 21
5.92826
 31
0.0
  0
LINE
  5
F1
330
454
100
AcDbEntity
  8
_0
  6
Continuous
 62
     7
370
    30
100
AcDbLine
 10
43.093677
 20
6.133969
 30
0.0
 11
43.030823
 21
6.068667
 31
0.0
  0
LINE
  5
F2
330
454
100
AcDbEntity
  8
_0
  6
Continuous
 62
     7
370
    30
100
AcDbLine
 10
42.906573
 20
5.939542
 30
0.0
 11
42.895656
 21
5.928187
 31
0.0
  0
LINE
  5
F3
330
454
100
AcDbEntity
  8
_0
  6
Continuous
 62
     7
370
    30
100
AcDbLine
 10
43.090146
 20
6.133906
 30
0.0
 11
43.027292
 21
6.068604
 31
0.0
  0
LINE
  5
F4
330
454
100
AcDbEntity
  8
_0
  6
Continuous
 62
     7
370
    30
100
AcDbLine
 10
42.901073
 20
5.937427
 30
0.0
 11
42.892125
 21
5.928125
 31
0.0
  0
LINE
  5
F5
330
454
100
AcDbEntity
  8
_0
  6
Continuous
 62
     7
370
    30
100
AcDbLine
 10
43.086604
 20
6.133833
 30
0.0
 11
43.023771
 21
6.068531
 31
0.0
  0
LINE
  5
F6
330
454
100
AcDbEntity
  8
_0
  6
Continuous
 62
     7
370
    30
100
AcDbLine
 10
42.895583
 20
5.935323
 30
0.0
 11
42.888583
 21
5.928052
 31
0.0
  0
LINE
  5
F7
330
454
100
AcDbEntity
  8
_0
  6
Continuous
 62
     7
370
    30
100
AcDbLine
 10
43.083073
 20
6.133771
 30
0.0
 11
43.022833
 21
6.071167
 31
0.0
  0
LINE
  5
F8
330
454
100
AcDbEntity
  8
_0
  6
Continuous
 62
     7
370
    30
100
AcDbLine
 10
42.890083
 20
5.933219
 30
0.0
 11
42.885052
 21
5.92799
 31
0.0
  0
LINE
  5
F9
330
454
100
AcDbEntity
  8
_0
  6
Continuous
 62
     7
370
    30
100
AcDbLine
 10
43.079531
 20
6.133698
 30
0.0
 11
43.02276
 21
6.074698
 31
0.0
  0
LINE
  5
FA
330
454
100
AcDbEntity
  8
_0
  6
Continuous
 62
     7
370
    30
100
AcDbLine
 10
42.884594
 20
5.931115
 30
0.0
 11
42.881521
 21
5.927917
 31
0.0
  0
LINE
  5
FB
330
454
100
AcDbEntity
  8
_0
  6
Continuous
 62
     7
370
    30
100
AcDbLine
 10
43.076
 20
6.133635
 30
0.0
 11
43.022698
 21
6.07824
 31
0.0
  0
LINE
  5
FC
330
454
100
AcDbEntity
  8
_0
  6
Continuous
 62
     7
370
    30
100
AcDbLine
 10
42.879094
 20
5.92901
 30
0.0
 11
42.877979
 21
5.927854
 31
0.0
  0
LINE
  5
FD
330
454
100
AcDbEntity
  8
_0
  6
Continuous
 62
     7
370
    30
100
AcDbLine
 10
43.072458
 20
6.133563
 30
0.0
 11
43.022625
 21
6.081771
 31
0.0
  0
LINE
  5
FE
330
454
100
AcDbEntity
  8
_0
  6
Continuous
 62
     7
370
    30
100
AcDbLine
 10
43.068937
 20
6.1335
 30
0.0
 11
43.022562
 21
6.085312
 31
0.0
  0
LINE
  5
FF
330
454
100
AcDbEntity
  8
_0
  6
Continuous
 62
     7
370
    30
100
AcDbLine
 10
43.065406
 20
6.133427
 30
0.0
 11
43.02249
 21
6.088844
 31
0.0
  0
LINE
  5
100
330
454
100
AcDbEntity
  8
_0
  6
Continuous
 62
     7
370
    30
100
AcDbLine
 10
43.061865
 20
6.133365
 30
0.0
 11
43.022427
 21
6.092375
 31
0.0
  0
LINE
  5
101
330
454
100
AcDbEntity
  8
_0
  6
Continuous
 62
     7
370
    30
100
AcDbLine
 10
43.058333
 20
6.133292
 30
0.0
 11
43.022354
 21
6.095917
 31
0.0
  0
LINE
  5
102
330
454
100
AcDbEntity
  8
_0
  6
Continuous
 62
     7
370
    30
100
AcDbLine
 10
43.054792
 20
6.133229
 30
0.0
 11
43.022281
 21
6.099448
 31
0.0
  0
LINE
  5
103
330
454
100
AcDbEntity
  8
_0
  6
Continuous
 62
     7
370
    30
100
AcDbLine
 10
43.05126
 20
6.133156
 30
0.0
 11
43.022219
 21
6.10299
 31
0.0
  0
LINE
  5
104
330
454
100
AcDbEntity
  8
_0
  6
Continuous
 62
     7
370
    30
100
AcDbLine
 10
43.047729
 20
6.133083
 30
0.0
 11
43.022146
 21
6.106521
 31
0.0
  0
LINE
  5
105
330
454
100
AcDbEntity
  8
_0
  6
Continuous
 62
     7
370
    30
100
AcDbLine
 10
43.044187
 20
6.133021
 30
0.0
 11
43.022083
 21
6.110052
 31
0.0
  0
LINE
  5
106
330
454
100
AcDbEntity
  8
_0
  6
Continuous
 62
     7
370
    30
100
AcDbLine
 10
43.040656
 20
6.132948
 30
0.0
 11
43.02201
 21
6.113594
 31
0.0
  0
LINE
  5
107
330
454
100
AcDbEntity
  8
_0
  6
Continuous
 62
     7
370
    30
100
AcDbLine
 10
43.037115
 20
6.132885
 30
0.0
 11
43.021948
 21
6.117125
 31
0.0
  0
LINE
  5
108
330
454
100
AcDbEntity
  8
_0
  6
Continuous
 62
     7
370
    30
100
AcDbLine
 10
43.033583
 20
6.132812
 30
0.0
 11
43.021875
 21
6.120667
 31
0.0
  0
LINE
  5
109
330
454
100
AcDbEntity
  8
_0
  6
Continuous
 62
     7
370
    30
100
AcDbLine
 10
43.030052
 20
6.13275
 30
0.0
 11
43.021812
 21
6.124198
 31
0.0
  0
LINE
  5
10A
330
454
100
AcDbEntity
  8
_0
  6
Continuous
 62
     7
370
    30
100
AcDbLine
 10
43.02651
 20
6.132677
 30
0.0
 11
43.02174
 21
6.127719
 31
0.0
  0
LINE
  5
10B
330
454
100
AcDbEntity
  8
_0
  6
Continuous
 62
     7
370
    30
100
AcDbLine
 10
43.022979
 20
6.132615
 30
0.0
 11
43.021677
 21
6.13126
 31
0.0
  0
LINE
  5
10C
330
454
100
AcDbEntity
  8
_0
  6
Continuous
 62
     7
370
    30
100
AcDbLine
 10
44.746656
 20
6.113469
 30
0.0
 11
44.735052
 21
6.101427
 31
0.0
  0
LINE
  5
10D
330
454
100
AcDbEntity
  8
_0
  6
Continuous
 62
     7
370
    30
100
AcDbLine
 10
44.649677
 20
6.012677
 30
0.0
 11
44.599885
 21
5.960948
 31
0.0
  0
LINE
  5
10E
330
454
100
AcDbEntity
  8
_0
  6
Continuous
 62
     7
370
    30
100
AcDbLine
 10
44.713177
 20
6.078677
 30
0.0
 11
44.684479
 21
6.048854
 31
0.0
  0
LINE
  5
10F
330
454
100
AcDbEntity
  8
_0
  6
Continuous
 62
     7
370
    30
100
AcDbLine
 10
44.746729
 20
6.109938
 30
0.0
 11
44.738594
 21
6.10149
 31
0.0
  0
LINE
  5
110
330
454
100
AcDbEntity
  8
_0
  6
Continuous
 62
     7
370
    30
100
AcDbLine
 10
44.653208
 20
6.01275
 30
0.0
 11
44.603427
 21
5.96101
 31
0.0
  0
LINE
  5
111
330
454
100
AcDbEntity
  8
_0
  6
Continuous
 62
     7
370
    30
100
AcDbLine
 10
44.71325
 20
6.075146
 30
0.0
 11
44.684542
 21
6.045312
 31
0.0
  0
LINE
  5
112
330
454
100
AcDbEntity
  8
_0
  6
Continuous
 62
     7
370
    30
100
AcDbLine
 10
44.746802
 20
6.106396
 30
0.0
 11
44.742125
 21
6.101562
 31
0.0
  0
LINE
  5
113
330
454
100
AcDbEntity
  8
_0
  6
Continuous
 62
     7
370
    30
100
AcDbLine
 10
44.65675
 20
6.012812
 30
0.0
 11
44.606958
 21
5.961083
 31
0.0
  0
LINE
  5
114
330
454
100
AcDbEntity
  8
_0
  6
Continuous
 62
     7
370
    30
100
AcDbLine
 10
44.713313
 20
6.071604
 30
0.0
 11
44.684615
 21
6.041781
 31
0.0
  0
LINE
  5
115
330
454
100
AcDbEntity
  8
_0
  6
Continuous
 62
     7
370
    30
100
AcDbLine
 10
44.746865
 20
6.102865
 30
0.0
 11
44.745667
 21
6.101625
 31
0.0
  0
LINE
  5
116
330
454
100
AcDbEntity
  8
_0
  6
Continuous
 62
     7
370
    30
100
AcDbLine
 10
44.660271
 20
6.012885
 30
0.0
 11
44.6105
 21
5.961146
 31
0.0
  0
LINE
  5
117
330
454
100
AcDbEntity
  8
_0
  6
Continuous
 62
     7
370
    30
100
AcDbLine
 10
44.713385
 20
6.068073
 30
0.0
 11
44.684677
 21
6.03824
 31
0.0
  0
LINE
  5
118
330
454
100
AcDbEntity
  8
_0
  6
Continuous
 62
     7
370
    30
100
AcDbLine
 10
44.713448
 20
6.064542
 30
0.0
 11
44.68475
 21
6.034719
 31
0.0
  0
LINE
  5
119
330
454
100
AcDbEntity
  8
_0
  6
Continuous
 62
     7
370
    30
100
AcDbLine
 10
44.663812
 20
6.012958
 30
0.0
 11
44.614031
 21
5.961219
 31
0.0
  0
LINE
  5
11A
330
454
100
AcDbEntity
  8
_0
  6
Continuous
 62
     7
370
    30
100
AcDbLine
 10
44.713521
 20
6.061
 30
0.0
 11
44.684812
 21
6.031177
 31
0.0
  0
LINE
  5
11B
330
454
100
AcDbEntity
  8
_0
  6
Continuous
 62
     7
370
    30
100
AcDbLine
 10
44.667344
 20
6.013021
 30
0.0
 11
44.617562
 21
5.961281
 31
0.0
  0
LINE
  5
11C
330
454
100
AcDbEntity
  8
_0
  6
Continuous
 62
     7
370
    30
100
AcDbLine
 10
44.713583
 20
6.057469
 30
0.0
 11
44.684885
 21
6.027646
 31
0.0
  0
LINE
  5
11D
330
454
100
AcDbEntity
  8
_0
  6
Continuous
 62
     7
370
    30
100
AcDbLine
 10
44.670875
 20
6.013094
 30
0.0
 11
44.621104
 21
5.961354
 31
0.0
  0
LINE
  5
11E
330
454
100
AcDbEntity
  8
_0
  6
Continuous
 62
     7
370
    30
100
AcDbLine
 10
44.713656
 20
6.053927
 30
0.0
 11
44.684948
 21
6.024115
 31
0.0
  0
LINE
  5
11F
330
454
100
AcDbEntity
  8
_0
  6
Continuous
 62
     7
370
    30
100
AcDbLine
 10
44.674417
 20
6.013156
 30
0.0
 11
44.624635
 21
5.961417
 31
0.0
  0
LINE
  5
120
330
454
100
AcDbEntity
  8
_0
  6
Continuous
 62
     7
370
    30
100
AcDbLine
 10
44.713719
 20
6.050396
 30
0.0
 11
44.685021
 21
6.020573
 31
0.0
  0
LINE
  5
121
330
454
100
AcDbEntity
  8
_0
  6
Continuous
 62
     7
370
    30
100
AcDbLine
 10
44.677948
 20
6.013229
 30
0.0
 11
44.628177
 21
5.96149
 31
0.0
  0
LINE
  5
122
330
454
100
AcDbEntity
  8
_0
  6
Continuous
 62
     7
370
    30
100
AcDbLine
 10
44.713792
 20
6.046854
 30
0.0
 11
44.685083
 21
6.017042
 31
0.0
  0
LINE
  5
123
330
454
100
AcDbEntity
  8
_0
  6
Continuous
 62
     7
370
    30
100
AcDbLine
 10
44.68149
 20
6.013292
 30
0.0
 11
44.631708
 21
5.961552
 31
0.0
  0
LINE
  5
124
330
454
100
AcDbEntity
  8
_0
  6
Continuous
 62
     7
370
    30
100
AcDbLine
 10
44.713854
 20
6.043323
 30
0.0
 11
44.685156
 21
6.0135
 31
0.0
  0
LINE
  5
125
330
454
100
AcDbEntity
  8
_0
  6
Continuous
 62
     7
370
    30
100
AcDbLine
 10
44.685021
 20
6.013365
 30
0.0
 11
44.63524
 21
5.961625
 31
0.0
  0
LINE
  5
126
330
454
100
AcDbEntity
  8
_0
  6
Continuous
 62
     7
370
    30
100
AcDbLine
 10
44.713927
 20
6.039792
 30
0.0
 11
44.638781
 21
5.961688
 31
0.0
  0
LINE
  5
127
330
454
100
AcDbEntity
  8
_0
  6
Continuous
 62
     7
370
    30
100
AcDbLine
 10
44.71399
 20
6.03626
 30
0.0
 11
44.642302
 21
5.96176
 31
0.0
  0
LINE
  5
128
330
454
100
AcDbEntity
  8
_0
  6
Continuous
 62
     7
370
    30
100
AcDbLine
 10
44.714062
 20
6.032729
 30
0.0
 11
44.645844
 21
5.961823
 31
0.0
  0
LINE
  5
129
330
454
100
AcDbEntity
  8
_0
  6
Continuous
 62
     7
370
    30
100
AcDbLine
 10
44.714125
 20
6.029187
 30
0.0
 11
44.649375
 21
5.961896
 31
0.0
  0
LINE
  5
12A
330
454
100
AcDbEntity
  8
_0
  6
Continuous
 62
     7
370
    30
100
AcDbLine
 10
44.714198
 20
6.025656
 30
0.0
 11
44.652917
 21
5.961969
 31
0.0
  0
LINE
  5
12B
330
454
100
AcDbEntity
  8
_0
  6
Continuous
 62
     7
370
    30
100
AcDbLine
 10
44.71426
 20
6.022125
 30
0.0
 11
44.656448
 21
5.962031
 31
0.0
  0
LINE
  5
12C
330
454
100
AcDbEntity
  8
_0
  6
Continuous
 62
     7
370
    30
100
AcDbLine
 10
44.714333
 20
6.018583
 30
0.0
 11
44.659979
 21
5.962104
 31
0.0
  0
LINE
  5
12D
330
454
100
AcDbEntity
  8
_0
  6
Continuous
 62
     7
370
    30
100
AcDbLine
 10
44.714396
 20
6.015052
 30
0.0
 11
44.663521
 21
5.962167
 31
0.0
  0
LINE
  5
12E
330
454
100
AcDbEntity
  8
_0
  6
Continuous
 62
     7
370
    30
100
AcDbLine
 10
44.716833
 20
6.013969
 30
0.0
 11
44.667052
 21
5.96224
 31
0.0
  0
LINE
  5
12F
330
454
100
AcDbEntity
  8
_0
  6
Continuous
 62
     7
370
    30
100
AcDbLine
 10
44.720365
 20
6.014042
 30
0.0
 11
44.670594
 21
5.962302
 31
0.0
  0
LINE
  5
130
330
454
100
AcDbEntity
  8
_0
  6
Continuous
 62
     7
370
    30
100
AcDbLine
 10
44.723906
 20
6.014104
 30
0.0
 11
44.674125
 21
5.962375
 31
0.0
  0
LINE
  5
131
330
454
100
AcDbEntity
  8
_0
  6
Continuous
 62
     7
370
    30
100
AcDbLine
 10
44.727438
 20
6.014177
 30
0.0
 11
44.677656
 21
5.962438
 31
0.0
  0
LINE
  5
132
330
454
100
AcDbEntity
  8
_0
  6
Continuous
 62
     7
370
    30
100
AcDbLine
 10
44.730969
 20
6.01424
 30
0.0
 11
44.681198
 21
5.96251
 31
0.0
  0
LINE
  5
133
330
454
100
AcDbEntity
  8
_0
  6
Continuous
 62
     7
370
    30
100
AcDbLine
 10
44.73451
 20
6.014312
 30
0.0
 11
44.684729
 21
5.962573
 31
0.0
  0
LINE
  5
134
330
454
100
AcDbEntity
  8
_0
  6
Continuous
 62
     7
370
    30
100
AcDbLine
 10
44.738042
 20
6.014375
 30
0.0
 11
44.688271
 21
5.962646
 31
0.0
  0
LINE
  5
135
330
454
100
AcDbEntity
  8
_0
  6
Continuous
 62
     7
370
    30
100
AcDbLine
 10
44.741583
 20
6.014448
 30
0.0
 11
44.691802
 21
5.962708
 31
0.0
  0
LINE
  5
136
330
454
100
AcDbEntity
  8
_0
  6
Continuous
 62
     7
370
    30
100
AcDbLine
 10
44.745115
 20
6.014521
 30
0.0
 11
44.695333
 21
5.962781
 31
0.0
  0
LINE
  5
137
330
454
100
AcDbEntity
  8
_0
  6
Continuous
 62
     7
370
    30
100
AcDbLine
 10
44.748646
 20
6.014583
 30
0.0
 11
44.698865
 21
5.962844
 31
0.0
  0
LINE
  5
138
330
454
100
AcDbEntity
  8
_0
  6
Continuous
 62
     7
370
    30
100
AcDbLine
 10
44.752187
 20
6.014656
 30
0.0
 11
44.702396
 21
5.962917
 31
0.0
  0
LINE
  5
139
330
454
100
AcDbEntity
  8
_0
  6
Continuous
 62
     7
370
    30
100
AcDbLine
 10
44.755719
 20
6.014719
 30
0.0
 11
44.705937
 21
5.962979
 31
0.0
  0
LINE
  5
13A
330
454
100
AcDbEntity
  8
_0
  6
Continuous
 62
     7
370
    30
100
AcDbLine
 10
44.758833
 20
6.014344
 30
0.0
 11
44.709469
 21
5.963052
 31
0.0
  0
LINE
  5
13B
330
454
100
AcDbEntity
  8
_0
  6
Continuous
 62
     7
370
    30
100
AcDbLine
 10
44.761437
 20
6.013458
 30
0.0
 11
44.71301
 21
5.963115
 31
0.0
  0
LINE
  5
13C
330
454
100
AcDbEntity
  8
_0
  6
Continuous
 62
     7
370
    30
100
AcDbLine
 10
44.764063
 20
6.012562
 30
0.0
 11
44.716542
 21
5.963188
 31
0.0
  0
LINE
  5
13D
330
454
100
AcDbEntity
  8
_0
  6
Continuous
 62
     7
370
    30
100
AcDbLine
 10
44.766677
 20
6.011677
 30
0.0
 11
44.720073
 21
5.96325
 31
0.0
  0
LINE
  5
13E
330
454
100
AcDbEntity
  8
_0
  6
Continuous
 62
     7
370
    30
100
AcDbLine
 10
44.769281
 20
6.010792
 30
0.0
 11
44.723615
 21
5.963323
 31
0.0
  0
LINE
  5
13F
330
454
100
AcDbEntity
  8
_0
  6
Continuous
 62
     7
370
    30
100
AcDbLine
 10
44.771906
 20
6.009906
 30
0.0
 11
44.727146
 21
5.963385
 31
0.0
  0
LINE
  5
140
330
454
100
AcDbEntity
  8
_0
  6
Continuous
 62
     7
370
    30
100
AcDbLine
 10
44.774521
 20
6.009021
 30
0.0
 11
44.730688
 21
5.963458
 31
0.0
  0
LINE
  5
141
330
454
100
AcDbEntity
  8
_0
  6
Continuous
 62
     7
370
    30
100
AcDbLine
 10
44.777125
 20
6.008125
 30
0.0
 11
44.734219
 21
5.963531
 31
0.0
  0
LINE
  5
142
330
454
100
AcDbEntity
  8
_0
  6
Continuous
 62
     7
370
    30
100
AcDbLine
 10
44.77975
 20
6.00724
 30
0.0
 11
44.73775
 21
5.963594
 31
0.0
  0
LINE
  5
143
330
454
100
AcDbEntity
  8
_0
  6
Continuous
 62
     7
370
    30
100
AcDbLine
 10
44.782365
 20
6.006354
 30
0.0
 11
44.741292
 21
5.963667
 31
0.0
  0
LINE
  5
144
330
454
100
AcDbEntity
  8
_0
  6
Continuous
 62
     7
370
    30
100
AcDbLine
 10
44.784969
 20
6.005469
 30
0.0
 11
44.744823
 21
5.963729
 31
0.0
  0
LINE
  5
145
330
454
100
AcDbEntity
  8
_0
  6
Continuous
 62
     7
370
    30
100
AcDbLine
 10
44.787594
 20
6.004573
 30
0.0
 11
44.748365
 21
5.963802
 31
0.0
  0
LINE
  5
146
330
454
100
AcDbEntity
  8
_0
  6
Continuous
 62
     7
370
    30
100
AcDbLine
 10
44.790208
 20
6.003687
 30
0.0
 11
44.751896
 21
5.963865
 31
0.0
  0
LINE
  5
147
330
454
100
AcDbEntity
  8
_0
  6
Continuous
 62
     7
370
    30
100
AcDbLine
 10
44.792812
 20
6.002792
 30
0.0
 11
44.755417
 21
5.963938
 31
0.0
  0
LINE
  5
148
330
454
100
AcDbEntity
  8
_0
  6
Continuous
 62
     7
370
    30
100
AcDbLine
 10
44.795437
 20
6.001906
 30
0.0
 11
44.758958
 21
5.964
 31
0.0
  0
LINE
  5
149
330
454
100
AcDbEntity
  8
_0
  6
Continuous
 62
     7
370
    30
100
AcDbLine
 10
44.798052
 20
6.001021
 30
0.0
 11
44.76249
 21
5.964073
 31
0.0
  0
LINE
  5
14A
330
454
100
AcDbEntity
  8
_0
  6
Continuous
 62
     7
370
    30
100
AcDbLine
 10
44.800656
 20
6.000135
 30
0.0
 11
44.766031
 21
5.964135
 31
0.0
  0
LINE
  5
14B
330
454
100
AcDbEntity
  8
_0
  6
Continuous
 62
     7
370
    30
100
AcDbLine
 10
44.803281
 20
5.99925
 30
0.0
 11
44.769562
 21
5.964208
 31
0.0
  0
LINE
  5
14C
330
454
100
AcDbEntity
  8
_0
  6
Continuous
 62
     7
370
    30
100
AcDbLine
 10
44.805896
 20
5.998354
 30
0.0
 11
44.773104
 21
5.964271
 31
0.0
  0
LINE
  5
14D
330
454
100
AcDbEntity
  8
_0
  6
Continuous
 62
     7
370
    30
100
AcDbLine
 10
44.80851
 20
5.997469
 30
0.0
 11
44.776635
 21
5.964344
 31
0.0
  0
LINE
  5
14E
330
454
100
AcDbEntity
  8
_0
  6
Continuous
 62
     7
370
    30
100
AcDbLine
 10
44.811125
 20
5.996583
 30
0.0
 11
44.780167
 21
5.964406
 31
0.0
  0
LINE
  5
14F
330
454
100
AcDbEntity
  8
_0
  6
Continuous
 62
     7
370
    30
100
AcDbLine
 10
44.81374
 20
5.995698
 30
0.0
 11
44.783708
 21
5.964479
 31
0.0
  0
LINE
  5
150
330
454
100
AcDbEntity
  8
_0
  6
Continuous
 62
     7
370
    30
100
AcDbLine
 10
44.816354
 20
5.994813
 30
0.0
 11
44.78724
 21
5.964542
 31
0.0
  0
LINE
  5
151
330
454
100
AcDbEntity
  8
_0
  6
Continuous
 62
     7
370
    30
100
AcDbLine
 10
44.818969
 20
5.993906
 30
0.0
 11
44.790781
 21
5.964615
 31
0.0
  0
LINE
  5
152
330
454
100
AcDbEntity
  8
_0
  6
Continuous
 62
     7
370
    30
100
AcDbLine
 10
44.821583
 20
5.993021
 30
0.0
 11
44.794312
 21
5.964677
 31
0.0
  0
LINE
  5
153
330
454
100
AcDbEntity
  8
_0
  6
Continuous
 62
     7
370
    30
100
AcDbLine
 10
44.824198
 20
5.992135
 30
0.0
 11
44.797844
 21
5.96475
 31
0.0
  0
LINE
  5
154
330
454
100
AcDbEntity
  8
_0
  6
Continuous
 62
     7
370
    30
100
AcDbLine
 10
44.826812
 20
5.99125
 30
0.0
 11
44.801385
 21
5.964812
 31
0.0
  0
LINE
  5
155
330
454
100
AcDbEntity
  8
_0
  6
Continuous
 62
     7
370
    30
100
AcDbLine
 10
44.829427
 20
5.990365
 30
0.0
 11
44.804917
 21
5.964885
 31
0.0
  0
LINE
  5
156
330
454
100
AcDbEntity
  8
_0
  6
Continuous
 62
     7
370
    30
100
AcDbLine
 10
44.832042
 20
5.989469
 30
0.0
 11
44.808458
 21
5.964958
 31
0.0
  0
LINE
  5
157
330
454
100
AcDbEntity
  8
_0
  6
Continuous
 62
     7
370
    30
100
AcDbLine
 10
44.834656
 20
5.988583
 30
0.0
 11
44.811979
 21
5.965021
 31
0.0
  0
LINE
  5
158
330
454
100
AcDbEntity
  8
_0
  6
Continuous
 62
     7
370
    30
100
AcDbLine
 10
44.837271
 20
5.987698
 30
0.0
 11
44.81551
 21
5.965094
 31
0.0
  0
LINE
  5
159
330
454
100
AcDbEntity
  8
_0
  6
Continuous
 62
     7
370
    30
100
AcDbLine
 10
44.839885
 20
5.986813
 30
0.0
 11
44.819052
 21
5.965156
 31
0.0
  0
LINE
  5
15A
330
454
100
AcDbEntity
  8
_0
  6
Continuous
 62
     7
370
    30
100
AcDbLine
 10
44.8425
 20
5.985927
 30
0.0
 11
44.822583
 21
5.965229
 31
0.0
  0
LINE
  5
15B
330
454
100
AcDbEntity
  8
_0
  6
Continuous
 62
     7
370
    30
100
AcDbLine
 10
44.845115
 20
5.985031
 30
0.0
 11
44.826125
 21
5.965292
 31
0.0
  0
LINE
  5
15C
330
454
100
AcDbEntity
  8
_0
  6
Continuous
 62
     7
370
    30
100
AcDbLine
 10
44.847729
 20
5.984146
 30
0.0
 11
44.829656
 21
5.965365
 31
0.0
  0
LINE
  5
15D
330
454
100
AcDbEntity
  8
_0
  6
Continuous
 62
     7
370
    30
100
AcDbLine
 10
44.850344
 20
5.98326
 30
0.0
 11
44.833188
 21
5.965427
 31
0.0
  0
LINE
  5
15E
330
454
100
AcDbEntity
  8
_0
  6
Continuous
 62
     7
370
    30
100
AcDbLine
 10
44.852958
 20
5.982365
 30
0.0
 11
44.836729
 21
5.9655
 31
0.0
  0
LINE
  5
15F
330
454
100
AcDbEntity
  8
_0
  6
Continuous
 62
     7
370
    30
100
AcDbLine
 10
44.855573
 20
5.981479
 30
0.0
 11
44.84026
 21
5.965562
 31
0.0
  0
LINE
  5
160
330
454
100
AcDbEntity
  8
_0
  6
Continuous
 62
     7
370
    30
100
AcDbLine
 10
44.858198
 20
5.980594
 30
0.0
 11
44.843802
 21
5.965635
 31
0.0
  0
LINE
  5
161
330
454
100
AcDbEntity
  8
_0
  6
Continuous
 62
     7
370
    30
100
AcDbLine
 10
44.860802
 20
5.979698
 30
0.0
 11
44.847333
 21
5.965698
 31
0.0
  0
LINE
  5
162
330
454
100
AcDbEntity
  8
_0
  6
Continuous
 62
     7
370
    30
100
AcDbLine
 10
44.863417
 20
5.978813
 30
0.0
 11
44.850875
 21
5.965771
 31
0.0
  0
LINE
  5
163
330
454
100
AcDbEntity
  8
_0
  6
Continuous
 62
     7
370
    30
100
AcDbLine
 10
44.866042
 20
5.977927
 30
0.0
 11
44.854406
 21
5.965833
 31
0.0
  0
LINE
  5
164
330
454
100
AcDbEntity
  8
_0
  6
Continuous
 62
     7
370
    30
100
AcDbLine
 10
44.868646
 20
5.977042
 30
0.0
 11
44.857937
 21
5.965906
 31
0.0
  0
LINE
  5
165
330
454
100
AcDbEntity
  8
_0
  6
Continuous
 62
     7
370
    30
100
AcDbLine
 10
44.87126
 20
5.976156
 30
0.0
 11
44.861479
 21
5.965969
 31
0.0
  0
LINE
  5
166
330
454
100
AcDbEntity
  8
_0
  6
Continuous
 62
     7
370
    30
100
AcDbLine
 10
44.873885
 20
5.97526
 30
0.0
 11
44.86501
 21
5.966042
 31
0.0
  0
LINE
  5
167
330
454
100
AcDbEntity
  8
_0
  6
Continuous
 62
     7
370
    30
100
AcDbLine
 10
44.87649
 20
5.974375
 30
0.0
 11
44.868542
 21
5.966104
 31
0.0
  0
LINE
  5
168
330
454
100
AcDbEntity
  8
_0
  6
Continuous
 62
     7
370
    30
100
AcDbLine
 10
44.879104
 20
5.97349
 30
0.0
 11
44.872073
 21
5.966177
 31
0.0
  0
LINE
  5
169
330
454
100
AcDbEntity
  8
_0
  6
Continuous
 62
     7
370
    30
100
AcDbLine
 10
44.881729
 20
5.972604
 30
0.0
 11
44.875604
 21
5.96624
 31
0.0
  0
LINE
  5
16A
330
454
100
AcDbEntity
  8
_0
  6
Continuous
 62
     7
370
    30
100
AcDbLine
 10
44.884333
 20
5.971708
 30
0.0
 11
44.879146
 21
5.966312
 31
0.0
  0
LINE
  5
16B
330
454
100
AcDbEntity
  8
_0
  6
Continuous
 62
     7
370
    30
100
AcDbLine
 10
44.886948
 20
5.970813
 30
0.0
 11
44.882677
 21
5.966375
 31
0.0
  0
LINE
  5
16C
330
454
100
AcDbEntity
  8
_0
  6
Continuous
 62
     7
370
    30
100
AcDbLine
 10
44.889562
 20
5.969927
 30
0.0
 11
44.886219
 21
5.966448
 31
0.0
  0
LINE
  5
16D
330
454
100
AcDbEntity
  8
_0
  6
Continuous
 62
     7
370
    30
100
AcDbLine
 10
44.892177
 20
5.969042
 30
0.0
 11
44.88975
 21
5.96651
 31
0.0
  0
LINE
  5
16E
330
454
100
AcDbEntity
  8
_0
  6
Continuous
 62
     7
370
    30
100
AcDbLine
 10
44.894792
 20
5.968156
 30
0.0
 11
44.893281
 21
5.966583
 31
0.0
  0
LINE
  5
16F
330
454
100
AcDbEntity
  8
_0
  6
Continuous
 62
     7
370
    30
100
AcDbLine
 10
44.897406
 20
5.967271
 30
0.0
 11
44.896823
 21
5.966656
 31
0.0
  0
LINE
  5
170
330
454
100
AcDbEntity
  8
_0
  6
Continuous
 62
     7
370
    30
100
AcDbLine
 10
44.746594
 20
6.11701
 30
0.0
 11
44.731531
 21
6.101354
 31
0.0
  0
LINE
  5
171
330
454
100
AcDbEntity
  8
_0
  6
Continuous
 62
     7
370
    30
100
AcDbLine
 10
44.646146
 20
6.012615
 30
0.0
 11
44.596354
 21
5.960875
 31
0.0
  0
LINE
  5
172
330
454
100
AcDbEntity
  8
_0
  6
Continuous
 62
     7
370
    30
100
AcDbLine
 10
44.713115
 20
6.082219
 30
0.0
 11
44.684406
 21
6.052385
 31
0.0
  0
LINE
  5
173
330
454
100
AcDbEntity
  8
_0
  6
Continuous
 62
     7
370
    30
100
AcDbLine
 10
44.746521
 20
6.120542
 30
0.0
 11
44.728
 21
6.101281
 31
0.0
  0
LINE
  5
174
330
454
100
AcDbEntity
  8
_0
  6
Continuous
 62
     7
370
    30
100
AcDbLine
 10
44.642604
 20
6.012542
 30
0.0
 11
44.592823
 21
5.960812
 31
0.0
  0
LINE
  5
175
330
454
100
AcDbEntity
  8
_0
  6
Continuous
 62
     7
370
    30
100
AcDbLine
 10
44.713042
 20
6.08575
 30
0.0
 11
44.684344
 21
6.055917
 31
0.0
  0
LINE
  5
176
330
454
100
AcDbEntity
  8
_0
  6
Continuous
 62
     7
370
    30
100
AcDbLine
 10
44.746458
 20
6.124073
 30
0.0
 11
44.724458
 21
6.101219
 31
0.0
  0
LINE
  5
177
330
454
100
AcDbEntity
  8
_0
  6
Continuous
 62
     7
370
    30
100
AcDbLine
 10
44.637458
 20
6.010813
 30
0.0
 11
44.589281
 21
5.96074
 31
0.0
  0
LINE
  5
178
330
454
100
AcDbEntity
  8
_0
  6
Continuous
 62
     7
370
    30
100
AcDbLine
 10
44.712969
 20
6.089281
 30
0.0
 11
44.684271
 21
6.059458
 31
0.0
  0
LINE
  5
179
330
454
100
AcDbEntity
  8
_0
  6
Continuous
 62
     7
370
    30
100
AcDbLine
 10
44.746385
 20
6.127615
 30
0.0
 11
44.720927
 21
6.101146
 31
0.0
  0
LINE
  5
17A
330
454
100
AcDbEntity
  8
_0
  6
Continuous
 62
     7
370
    30
100
AcDbLine
 10
44.631969
 20
6.008708
 30
0.0
 11
44.58575
 21
5.960677
 31
0.0
  0
LINE
  5
17B
330
454
100
AcDbEntity
  8
_0
  6
Continuous
 62
     7
370
    30
100
AcDbLine
 10
44.712906
 20
6.092823
 30
0.0
 11
44.684198
 21
6.06299
 31
0.0
  0
LINE
  5
17C
330
454
100
AcDbEntity
  8
_0
  6
Continuous
 62
     7
370
    30
100
AcDbLine
 10
44.746323
 20
6.131146
 30
0.0
 11
44.717385
 21
6.101083
 31
0.0
  0
LINE
  5
17D
330
454
100
AcDbEntity
  8
_0
  6
Continuous
 62
     7
370
    30
100
AcDbLine
 10
44.626469
 20
6.006604
 30
0.0
 11
44.582219
 21
5.960604
 31
0.0
  0
LINE
  5
17E
330
454
100
AcDbEntity
  8
_0
  6
Continuous
 62
     7
370
    30
100
AcDbLine
 10
44.712833
 20
6.096344
 30
0.0
 11
44.684135
 21
6.066531
 31
0.0
  0
LINE
  5
17F
330
454
100
AcDbEntity
  8
_0
  6
Continuous
 62
     7
370
    30
100
AcDbLine
 10
44.74625
 20
6.134688
 30
0.0
 11
44.713854
 21
6.10101
 31
0.0
  0
LINE
  5
180
330
454
100
AcDbEntity
  8
_0
  6
Continuous
 62
     7
370
    30
100
AcDbLine
 10
44.620969
 20
6.00449
 30
0.0
 11
44.578688
 21
5.960542
 31
0.0
  0
LINE
  5
181
330
454
100
AcDbEntity
  8
_0
  6
Continuous
 62
     7
370
    30
100
AcDbLine
 10
44.712771
 20
6.099885
 30
0.0
 11
44.684062
 21
6.070062
 31
0.0
  0
LINE
  5
182
330
454
100
AcDbEntity
  8
_0
  6
Continuous
 62
     7
370
    30
100
AcDbLine
 10
44.746187
 20
6.138219
 30
0.0
 11
44.684
 21
6.073594
 31
0.0
  0
LINE
  5
183
330
454
100
AcDbEntity
  8
_0
  6
Continuous
 62
     7
370
    30
100
AcDbLine
 10
44.615479
 20
6.002385
 30
0.0
 11
44.575146
 21
5.960469
 31
0.0
  0
LINE
  5
184
330
454
100
AcDbEntity
  8
_0
  6
Continuous
 62
     7
370
    30
100
AcDbLine
 10
44.746115
 20
6.14175
 30
0.0
 11
44.683927
 21
6.077135
 31
0.0
  0
LINE
  5
185
330
454
100
AcDbEntity
  8
_0
  6
Continuous
 62
     7
370
    30
100
AcDbLine
 10
44.609979
 20
6.000281
 30
0.0
 11
44.571615
 21
5.960406
 31
0.0
  0
LINE
  5
186
330
454
100
AcDbEntity
  8
_0
  6
Continuous
 62
     7
370
    30
100
AcDbLine
 10
44.746052
 20
6.145292
 30
0.0
 11
44.683865
 21
6.080667
 31
0.0
  0
LINE
  5
187
330
454
100
AcDbEntity
  8
_0
  6
Continuous
 62
     7
370
    30
100
AcDbLine
 10
44.60449
 20
5.998177
 30
0.0
 11
44.568083
 21
5.960333
 31
0.0
  0
LINE
  5
188
330
454
100
AcDbEntity
  8
_0
  6
Continuous
 62
     7
370
    30
100
AcDbLine
 10
44.745979
 20
6.148823
 30
0.0
 11
44.683792
 21
6.084208
 31
0.0
  0
LINE
  5
189
330
454
100
AcDbEntity
  8
_0
  6
Continuous
 62
     7
370
    30
100
AcDbLine
 10
44.59899
 20
5.996073
 30
0.0
 11
44.564542
 21
5.96026
 31
0.0
  0
LINE
  5
18A
330
454
100
AcDbEntity
  8
_0
  6
Continuous
 62
     7
370
    30
100
AcDbLine
 10
44.745917
 20
6.152354
 30
0.0
 11
44.683729
 21
6.08774
 31
0.0
  0
LINE
  5
18B
330
454
100
AcDbEntity
  8
_0
  6
Continuous
 62
     7
370
    30
100
AcDbLine
 10
44.59349
 20
5.993958
 30
0.0
 11
44.56101
 21
5.960198
 31
0.0
  0
LINE
  5
18C
330
454
100
AcDbEntity
  8
_0
  6
Continuous
 62
     7
370
    30
100
AcDbLine
 10
44.745844
 20
6.155885
 30
0.0
 11
44.683656
 21
6.091271
 31
0.0
  0
LINE
  5
18D
330
454
100
AcDbEntity
  8
_0
  6
Continuous
 62
     7
370
    30
100
AcDbLine
 10
44.588
 20
5.991854
 30
0.0
 11
44.557469
 21
5.960125
 31
0.0
  0
LINE
  5
18E
330
454
100
AcDbEntity
  8
_0
  6
Continuous
 62
     7
370
    30
100
AcDbLine
 10
44.745781
 20
6.159417
 30
0.0
 11
44.683594
 21
6.094802
 31
0.0
  0
LINE
  5
18F
330
454
100
AcDbEntity
  8
_0
  6
Continuous
 62
     7
370
    30
100
AcDbLine
 10
44.5825
 20
5.98975
 30
0.0
 11
44.553937
 21
5.960062
 31
0.0
  0
LINE
  5
190
330
454
100
AcDbEntity
  8
_0
  6
Continuous
 62
     7
370
    30
100
AcDbLine
 10
44.745708
 20
6.162958
 30
0.0
 11
44.683521
 21
6.098333
 31
0.0
  0
LINE
  5
191
330
454
100
AcDbEntity
  8
_0
  6
Continuous
 62
     7
370
    30
100
AcDbLine
 10
44.57701
 20
5.987646
 30
0.0
 11
44.550406
 21
5.95999
 31
0.0
  0
LINE
  5
192
330
454
100
AcDbEntity
  8
_0
  6
Continuous
 62
     7
370
    30
100
AcDbLine
 10
44.744885
 20
6.165708
 30
0.0
 11
44.682031
 21
6.100406
 31
0.0
  0
LINE
  5
193
330
454
100
AcDbEntity
  8
_0
  6
Continuous
 62
     7
370
    30
100
AcDbLine
 10
44.57151
 20
5.985542
 30
0.0
 11
44.546865
 21
5.959927
 31
0.0
  0
LINE
  5
194
330
454
100
AcDbEntity
  8
_0
  6
Continuous
 62
     7
370
    30
100
AcDbLine
 10
44.741344
 20
6.165635
 30
0.0
 11
44.6785
 21
6.100333
 31
0.0
  0
LINE
  5
195
330
454
100
AcDbEntity
  8
_0
  6
Continuous
 62
     7
370
    30
100
AcDbLine
 10
44.56601
 20
5.983437
 30
0.0
 11
44.543333
 21
5.959854
 31
0.0
  0
LINE
  5
196
330
454
100
AcDbEntity
  8
_0
  6
Continuous
 62
     7
370
    30
100
AcDbLine
 10
44.737812
 20
6.165573
 30
0.0
 11
44.674969
 21
6.100271
 31
0.0
  0
LINE
  5
197
330
454
100
AcDbEntity
  8
_0
  6
Continuous
 62
     7
370
    30
100
AcDbLine
 10
44.560521
 20
5.981323
 30
0.0
 11
44.539792
 21
5.959792
 31
0.0
  0
LINE
  5
198
330
454
100
AcDbEntity
  8
_0
  6
Continuous
 62
     7
370
    30
100
AcDbLine
 10
44.734281
 20
6.1655
 30
0.0
 11
44.671437
 21
6.100198
 31
0.0
  0
LINE
  5
199
330
454
100
AcDbEntity
  8
_0
  6
Continuous
 62
     7
370
    30
100
AcDbLine
 10
44.555021
 20
5.979219
 30
0.0
 11
44.53626
 21
5.959719
 31
0.0
  0
LINE
  5
19A
330
454
100
AcDbEntity
  8
_0
  6
Continuous
 62
     7
370
    30
100
AcDbLine
 10
44.73074
 20
6.165437
 30
0.0
 11
44.667906
 21
6.100135
 31
0.0
  0
LINE
  5
19B
330
454
100
AcDbEntity
  8
_0
  6
Continuous
 62
     7
370
    30
100
AcDbLine
 10
44.549521
 20
5.977115
 30
0.0
 11
44.532729
 21
5.959656
 31
0.0
  0
LINE
  5
19C
330
454
100
AcDbEntity
  8
_0
  6
Continuous
 62
     7
370
    30
100
AcDbLine
 10
44.727208
 20
6.165365
 30
0.0
 11
44.664365
 21
6.100062
 31
0.0
  0
LINE
  5
19D
330
454
100
AcDbEntity
  8
_0
  6
Continuous
 62
     7
370
    30
100
AcDbLine
 10
44.544021
 20
5.97501
 30
0.0
 11
44.529187
 21
5.959583
 31
0.0
  0
LINE
  5
19E
330
454
100
AcDbEntity
  8
_0
  6
Continuous
 62
     7
370
    30
100
AcDbLine
 10
44.723667
 20
6.165302
 30
0.0
 11
44.660833
 21
6.1
 31
0.0
  0
LINE
  5
19F
330
454
100
AcDbEntity
  8
_0
  6
Continuous
 62
     7
370
    30
100
AcDbLine
 10
44.538531
 20
5.972906
 30
0.0
 11
44.525667
 21
5.959521
 31
0.0
  0
LINE
  5
1A0
330
454
100
AcDbEntity
  8
_0
  6
Continuous
 62
     7
370
    30
100
AcDbLine
 10
44.720146
 20
6.165229
 30
0.0
 11
44.657292
 21
6.099927
 31
0.0
  0
LINE
  5
1A1
330
454
100
AcDbEntity
  8
_0
  6
Continuous
 62
     7
370
    30
100
AcDbLine
 10
44.533042
 20
5.970802
 30
0.0
 11
44.522125
 21
5.959448
 31
0.0
  0
LINE
  5
1A2
330
454
100
AcDbEntity
  8
_0
  6
Continuous
 62
     7
370
    30
100
AcDbLine
 10
44.716615
 20
6.165167
 30
0.0
 11
44.65376
 21
6.099865
 31
0.0
  0
LINE
  5
1A3
330
454
100
AcDbEntity
  8
_0
  6
Continuous
 62
     7
370
    30
100
AcDbLine
 10
44.527542
 20
5.968687
 30
0.0
 11
44.518594
 21
5.959385
 31
0.0
  0
LINE
  5
1A4
330
454
100
AcDbEntity
  8
_0
  6
Continuous
 62
     7
370
    30
100
AcDbLine
 10
44.713073
 20
6.165094
 30
0.0
 11
44.650229
 21
6.099792
 31
0.0
  0
LINE
  5
1A5
330
454
100
AcDbEntity
  8
_0
  6
Continuous
 62
     7
370
    30
100
AcDbLine
 10
44.522042
 20
5.966583
 30
0.0
 11
44.515052
 21
5.959313
 31
0.0
  0
LINE
  5
1A6
330
454
100
AcDbEntity
  8
_0
  6
Continuous
 62
     7
370
    30
100
AcDbLine
 10
44.709542
 20
6.165031
 30
0.0
 11
44.649292
 21
6.102427
 31
0.0
  0
LINE
  5
1A7
330
454
100
AcDbEntity
  8
_0
  6
Continuous
 62
     7
370
    30
100
AcDbLine
 10
44.516542
 20
5.964479
 30
0.0
 11
44.511521
 21
5.95925
 31
0.0
  0
LINE
  5
1A8
330
454
100
AcDbEntity
  8
_0
  6
Continuous
 62
     7
370
    30
100
AcDbLine
 10
44.706
 20
6.164958
 30
0.0
 11
44.649229
 21
6.105958
 31
0.0
  0
LINE
  5
1A9
330
454
100
AcDbEntity
  8
_0
  6
Continuous
 62
     7
370
    30
100
AcDbLine
 10
44.511052
 20
5.962375
 30
0.0
 11
44.50799
 21
5.959177
 31
0.0
  0
LINE
  5
1AA
330
454
100
AcDbEntity
  8
_0
  6
Continuous
 62
     7
370
    30
100
AcDbLine
 10
44.702469
 20
6.164896
 30
0.0
 11
44.649156
 21
6.1095
 31
0.0
  0
LINE
  5
1AB
330
454
100
AcDbEntity
  8
_0
  6
Continuous
 62
     7
370
    30
100
AcDbLine
 10
44.505562
 20
5.960271
 30
0.0
 11
44.504448
 21
5.959115
 31
0.0
  0
LINE
  5
1AC
330
454
100
AcDbEntity
  8
_0
  6
Continuous
 62
     7
370
    30
100
AcDbLine
 10
44.698927
 20
6.164823
 30
0.0
 11
44.649094
 21
6.113031
 31
0.0
  0
LINE
  5
1AD
330
454
100
AcDbEntity
  8
_0
  6
Continuous
 62
     7
370
    30
100
AcDbLine
 10
44.695396
 20
6.16475
 30
0.0
 11
44.649021
 21
6.116573
 31
0.0
  0
LINE
  5
1AE
330
454
100
AcDbEntity
  8
_0
  6
Continuous
 62
     7
370
    30
100
AcDbLine
 10
44.691865
 20
6.164687
 30
0.0
 11
44.648948
 21
6.120104
 31
0.0
  0
LINE
  5
1AF
330
454
100
AcDbEntity
  8
_0
  6
Continuous
 62
     7
370
    30
100
AcDbLine
 10
44.688323
 20
6.164615
 30
0.0
 11
44.648885
 21
6.123635
 31
0.0
  0
LINE
  5
1B0
330
454
100
AcDbEntity
  8
_0
  6
Continuous
 62
     7
370
    30
100
AcDbLine
 10
44.684792
 20
6.164552
 30
0.0
 11
44.648812
 21
6.127177
 31
0.0
  0
LINE
  5
1B1
330
454
100
AcDbEntity
  8
_0
  6
Continuous
 62
     7
370
    30
100
AcDbLine
 10
44.68125
 20
6.164479
 30
0.0
 11
44.64875
 21
6.130708
 31
0.0
  0
LINE
  5
1B2
330
454
100
AcDbEntity
  8
_0
  6
Continuous
 62
     7
370
    30
100
AcDbLine
 10
44.677719
 20
6.164417
 30
0.0
 11
44.648677
 21
6.13425
 31
0.0
  0
LINE
  5
1B3
330
454
100
AcDbEntity
  8
_0
  6
Continuous
 62
     7
370
    30
100
AcDbLine
 10
44.674187
 20
6.164344
 30
0.0
 11
44.648615
 21
6.137781
 31
0.0
  0
LINE
  5
1B4
330
454
100
AcDbEntity
  8
_0
  6
Continuous
 62
     7
370
    30
100
AcDbLine
 10
44.670646
 20
6.164281
 30
0.0
 11
44.648542
 21
6.141312
 31
0.0
  0
LINE
  5
1B5
330
454
100
AcDbEntity
  8
_0
  6
Continuous
 62
     7
370
    30
100
AcDbLine
 10
44.667115
 20
6.164208
 30
0.0
 11
44.648479
 21
6.144854
 31
0.0
  0
LINE
  5
1B6
330
454
100
AcDbEntity
  8
_0
  6
Continuous
 62
     7
370
    30
100
AcDbLine
 10
44.663583
 20
6.164146
 30
0.0
 11
44.648406
 21
6.148385
 31
0.0
  0
LINE
  5
1B7
330
454
100
AcDbEntity
  8
_0
  6
Continuous
 62
     7
370
    30
100
AcDbLine
 10
44.660052
 20
6.164073
 30
0.0
 11
44.648344
 21
6.151917
 31
0.0
  0
LINE
  5
1B8
330
454
100
AcDbEntity
  8
_0
  6
Continuous
 62
     7
370
    30
100
AcDbLine
 10
44.656521
 20
6.16401
 30
0.0
 11
44.648271
 21
6.155448
 31
0.0
  0
LINE
  5
1B9
330
454
100
AcDbEntity
  8
_0
  6
Continuous
 62
     7
370
    30
100
AcDbLine
 10
44.652979
 20
6.163937
 30
0.0
 11
44.648208
 21
6.158979
 31
0.0
  0
LINE
  5
1BA
330
454
100
AcDbEntity
  8
_0
  6
Continuous
 62
     7
370
    30
100
AcDbLine
 10
44.649448
 20
6.163875
 30
0.0
 11
44.648135
 21
6.162521
 31
0.0
  0
LINE
  5
1BB
330
454
100
AcDbEntity
  8
HATCH
  6
Continuous
 62
     7
370
    30
100
AcDbLine
 10
47.28849
 20
5.148062
 30
0.0
 11
47.275385
 21
5.134958
 31
0.0
  0
LINE
  5
1BC
330
454
100
AcDbEntity
  8
HATCH
  6
Continuous
 62
     7
370
    30
100
AcDbLine
 10
47.148865
 20
5.185208
 30
0.0
 11
47.098615
 21
5.134958
 31
0.0
  0
LINE
  5
1BD
330
454
100
AcDbEntity
  8
HATCH
  6
Continuous
 62
     7
370
    30
100
AcDbLine
 10
46.975698
 20
5.188823
 30
0.0
 11
46.921833
 21
5.134958
 31
0.0
  0
LINE
  5
1BE
330
454
100
AcDbEntity
  8
HATCH
  6
Continuous
 62
     7
370
    30
100
AcDbLine
 10
46.802531
 20
5.192427
 30
0.0
 11
46.745062
 21
5.134958
 31
0.0
  0
LINE
  5
1BF
330
454
100
AcDbEntity
  8
HATCH
  6
Continuous
 62
     7
370
    30
100
AcDbLine
 10
46.629354
 20
5.196031
 30
0.0
 11
46.612135
 21
5.178813
 31
0.0
  0
LINE
  5
1C0
330
454
100
AcDbEntity
  8
HATCH
  6
Continuous
 62
     7
370
    30
100
AcDbLine
 10
47.68624
 20
5.015479
 30
0.0
 11
47.628937
 21
4.958188
 31
0.0
  0
LINE
  5
1C1
330
454
100
AcDbEntity
  8
HATCH
  6
Continuous
 62
     7
370
    30
100
AcDbLine
 10
47.083927
 20
5.186562
 30
0.0
 11
47.065469
 21
5.168104
 31
0.0
  0
LINE
  5
1C2
330
454
100
AcDbEntity
  8
HATCH
  6
Continuous
 62
     7
370
    30
100
AcDbLine
 10
46.91076
 20
5.190177
 30
0.0
 11
46.888687
 21
5.168104
 31
0.0
  0
LINE
  5
1C3
330
454
100
AcDbEntity
  8
HATCH
  6
Continuous
 62
     7
370
    30
100
AcDbLine
 10
46.737583
 20
5.193781
 30
0.0
 11
46.711917
 21
5.168104
 31
0.0
  0
LINE
  5
1C4
330
454
100
AcDbEntity
  8
HATCH
  6
Continuous
 62
     7
370
    30
100
AcDbLine
 10
47.503937
 20
5.07625
 30
0.0
 11
47.419021
 21
4.991333
 31
0.0
  0
LINE
  5
1C5
330
454
100
AcDbEntity
  8
HATCH
  6
Continuous
 62
     7
370
    30
100
AcDbLine
 10
47.636521
 20
5.032052
 30
0.0
 11
47.595792
 21
4.991333
 31
0.0
  0
LINE
  5
1C6
330
454
100
AcDbEntity
  8
HATCH
  6
Continuous
 62
     7
370
    30
100
AcDbLine
 10
47.120708
 20
5.112865
 30
0.0
 11
47.032323
 21
5.024479
 31
0.0
  0
LINE
  5
1C7
330
454
100
AcDbEntity
  8
HATCH
  6
Continuous
 62
     7
370
    30
100
AcDbLine
 10
47.29749
 20
5.112865
 30
0.0
 11
47.209094
 21
5.024479
 31
0.0
  0
LINE
  5
1C8
330
454
100
AcDbEntity
  8
HATCH
  6
Continuous
 62
     7
370
    30
100
AcDbLine
 10
47.454219
 20
5.092823
 30
0.0
 11
47.385875
 21
5.024479
 31
0.0
  0
LINE
  5
1C9
330
454
100
AcDbEntity
  8
HATCH
  6
Continuous
 62
     7
370
    30
100
AcDbLine
 10
47.586802
 20
5.048625
 30
0.0
 11
47.562656
 21
5.024479
 31
0.0
  0
LINE
  5
1CA
330
454
100
AcDbEntity
  8
HATCH
  6
Continuous
 62
     7
370
    30
100
AcDbLine
 10
47.098615
 20
5.112865
 30
0.0
 11
47.023656
 21
5.187823
 31
0.0
  0
LINE
  5
1CB
330
454
100
AcDbEntity
  8
HATCH
  6
Continuous
 62
     7
370
    30
100
AcDbLine
 10
47.275385
 20
5.112865
 30
0.0
 11
47.216042
 21
5.172219
 31
0.0
  0
LINE
  5
1CC
330
454
100
AcDbEntity
  8
HATCH
  6
Continuous
 62
     7
370
    30
100
AcDbLine
 10
46.921833
 20
5.112865
 30
0.0
 11
46.843115
 21
5.191583
 31
0.0
  0
LINE
  5
1CD
330
454
100
AcDbEntity
  8
HATCH
  6
Continuous
 62
     7
370
    30
100
AcDbLine
 10
46.745062
 20
5.112865
 30
0.0
 11
46.662583
 21
5.195344
 31
0.0
  0
LINE
  5
1CE
330
454
100
AcDbEntity
  8
HATCH
  6
Continuous
 62
     7
370
    30
100
AcDbLine
 10
47.24224
 20
5.079719
 30
0.0
 11
47.153854
 21
5.168104
 31
0.0
  0
LINE
  5
1CF
330
454
100
AcDbEntity
  8
HATCH
  6
Continuous
 62
     7
370
    30
100
AcDbLine
 10
47.419021
 20
5.079719
 30
0.0
 11
47.38176
 21
5.116979
 31
0.0
  0
LINE
  5
1D0
330
454
100
AcDbEntity
  8
HATCH
  6
Continuous
 62
     7
370
    30
100
AcDbLine
 10
47.706344
 20
4.969167
 30
0.0
 11
47.684188
 21
4.991333
 31
0.0
  0
LINE
  5
1D1
330
454
100
AcDbEntity
  8
HATCH
  6
Continuous
 62
     7
370
    30
100
AcDbLine
 10
47.065469
 20
5.079719
 30
0.0
 11
46.977083
 21
5.168104
 31
0.0
  0
LINE
  5
1D2
330
454
100
AcDbEntity
  8
HATCH
  6
Continuous
 62
     7
370
    30
100
AcDbLine
 10
46.888687
 20
5.079719
 30
0.0
 11
46.800302
 21
5.168104
 31
0.0
  0
LINE
  5
1D3
330
454
100
AcDbEntity
  8
HATCH
  6
Continuous
 62
     7
370
    30
100
AcDbLine
 10
46.711917
 20
5.079719
 30
0.0
 11
46.623521
 21
5.168104
 31
0.0
  0
LINE
  5
1D4
330
454
100
AcDbEntity
  8
HATCH
  6
Continuous
 62
     7
370
    30
100
AcDbLine
 10
47.209094
 20
5.046573
 30
0.0
 11
47.120708
 21
5.134958
 31
0.0
  0
LINE
  5
1D5
330
454
100
AcDbEntity
  8
HATCH
  6
Continuous
 62
     7
370
    30
100
AcDbLine
 10
47.385875
 20
5.046573
 30
0.0
 11
47.29749
 21
5.134958
 31
0.0
  0
LINE
  5
1D6
330
454
100
AcDbEntity
  8
HATCH
  6
Continuous
 62
     7
370
    30
100
AcDbLine
 10
47.562656
 20
5.046573
 30
0.0
 11
47.54749
 21
5.061729
 31
0.0
  0
LINE
  5
1D7
330
454
100
AcDbEntity
  8
HATCH
  6
Continuous
 62
     7
370
    30
100
AcDbLine
 10
47.032323
 20
5.046573
 30
0.0
 11
46.943937
 21
5.134958
 31
0.0
  0
LINE
  5
1D8
330
454
100
AcDbEntity
  8
HATCH
  6
Continuous
 62
     7
370
    30
100
AcDbLine
 10
46.855542
 20
5.046573
 30
0.0
 11
46.767156
 21
5.134958
 31
0.0
  0
LINE
  5
1D9
330
454
100
AcDbEntity
  8
HATCH
  6
Continuous
 62
     7
370
    30
100
AcDbLine
 10
45.917938
 20
5.642542
 30
0.0
 11
45.868469
 21
5.615771
 31
0.0
  0
LINE
  5
1DA
330
454
100
AcDbEntity
  8
HATCH
  6
Continuous
 62
     7
370
    30
100
AcDbLine
 10
45.81899
 20
5.58901
 30
0.0
 11
45.76951
 21
5.56224
 31
0.0
  0
LINE
  5
1DB
330
454
100
AcDbEntity
  8
HATCH
  6
Continuous
 62
     7
370
    30
100
AcDbLine
 10
45.720042
 20
5.535479
 30
0.0
 11
45.670562
 21
5.508708
 31
0.0
  0
LINE
  5
1DC
330
454
100
AcDbEntity
  8
HATCH
  6
Continuous
 62
     7
370
    30
100
AcDbLine
 10
45.621094
 20
5.481948
 30
0.0
 11
45.571615
 21
5.455177
 31
0.0
  0
LINE
  5
1DD
330
454
100
AcDbEntity
  8
HATCH
  6
Continuous
 62
     7
370
    30
100
AcDbLine
 10
45.522146
 20
5.428417
 30
0.0
 11
45.514208
 21
5.424125
 31
0.0
  0
LINE
  5
1DE
330
454
100
AcDbEntity
  8
HATCH
  6
Continuous
 62
     7
370
    30
100
AcDbLine
 10
45.822104
 20
5.701469
 30
0.0
 11
45.772625
 21
5.674698
 31
0.0
  0
LINE
  5
1DF
330
454
100
AcDbEntity
  8
HATCH
  6
Continuous
 62
     7
370
    30
100
AcDbLine
 10
45.723156
 20
5.647937
 30
0.0
 11
45.673677
 21
5.621167
 31
0.0
  0
LINE
  5
1E0
330
454
100
AcDbEntity
  8
HATCH
  6
Continuous
 62
     7
370
    30
100
AcDbLine
 10
45.624208
 20
5.594406
 30
0.0
 11
45.574729
 21
5.567635
 31
0.0
  0
LINE
  5
1E1
330
454
100
AcDbEntity
  8
HATCH
  6
Continuous
 62
     7
370
    30
100
AcDbLine
 10
45.52526
 20
5.540875
 30
0.0
 11
45.475781
 21
5.514104
 31
0.0
  0
LINE
  5
1E2
330
454
100
AcDbEntity
  8
HATCH
  6
Continuous
 62
     7
370
    30
100
AcDbLine
 10
45.426323
 20
5.487333
 30
0.0
 11
45.391865
 21
5.468698
 31
0.0
  0
LINE
  5
1E3
330
454
100
AcDbEntity
  8
HATCH
  6
Continuous
 62
     7
370
    30
100
AcDbLine
 10
45.726271
 20
5.760385
 30
0.0
 11
45.676792
 21
5.733625
 31
0.0
  0
LINE
  5
1E4
330
454
100
AcDbEntity
  8
HATCH
  6
Continuous
 62
     7
370
    30
100
AcDbLine
 10
45.627323
 20
5.706854
 30
0.0
 11
45.577844
 21
5.680094
 31
0.0
  0
LINE
  5
1E5
330
454
100
AcDbEntity
  8
HATCH
  6
Continuous
 62
     7
370
    30
100
AcDbLine
 10
45.528375
 20
5.653323
 30
0.0
 11
45.478896
 21
5.626562
 31
0.0
  0
LINE
  5
1E6
330
454
100
AcDbEntity
  8
HATCH
  6
Continuous
 62
     7
370
    30
100
AcDbLine
 10
45.429427
 20
5.599792
 30
0.0
 11
45.379958
 21
5.573031
 31
0.0
  0
LINE
  5
1E7
330
454
100
AcDbEntity
  8
HATCH
  6
Continuous
 62
     7
370
    30
100
AcDbLine
 10
45.630437
 20
5.819312
 30
0.0
 11
45.580958
 21
5.792552
 31
0.0
  0
LINE
  5
1E8
330
454
100
AcDbEntity
  8
HATCH
  6
Continuous
 62
     7
370
    30
100
AcDbLine
 10
45.53149
 20
5.765781
 30
0.0
 11
45.48201
 21
5.739021
 31
0.0
  0
LINE
  5
1E9
330
454
100
AcDbEntity
  8
HATCH
  6
Continuous
 62
     7
370
    30
100
AcDbLine
 10
45.432542
 20
5.71225
 30
0.0
 11
45.383063
 21
5.68549
 31
0.0
  0
LINE
  5
1EA
330
454
100
AcDbEntity
  8
HATCH
  6
Continuous
 62
     7
370
    30
100
AcDbLine
 10
45.534604
 20
5.87824
 30
0.0
 11
45.485125
 21
5.851479
 31
0.0
  0
LINE
  5
1EB
330
454
100
AcDbEntity
  8
HATCH
  6
Continuous
 62
     7
370
    30
100
AcDbLine
 10
45.435656
 20
5.824708
 30
0.0
 11
45.400833
 21
5.805865
 31
0.0
  0
LINE
  5
1EC
330
454
100
AcDbEntity
  8
HATCH
  6
Continuous
 62
     7
370
    30
100
AcDbLine
 10
45.438771
 20
5.937167
 30
0.0
 11
45.423979
 21
5.929167
 31
0.0
  0
LINE
  5
1ED
330
454
100
AcDbEntity
  8
HATCH
  6
Continuous
 62
     7
370
    30
100
AcDbLine
 10
46.013771
 20
5.583615
 30
0.0
 11
45.964302
 21
5.556854
 31
0.0
  0
LINE
  5
1EE
330
454
100
AcDbEntity
  8
HATCH
  6
Continuous
 62
     7
370
    30
100
AcDbLine
 10
45.914823
 20
5.530083
 30
0.0
 11
45.865354
 21
5.503312
 31
0.0
  0
LINE
  5
1EF
330
454
100
AcDbEntity
  8
HATCH
  6
Continuous
 62
     7
370
    30
100
AcDbLine
 10
45.815875
 20
5.476552
 30
0.0
 11
45.766396
 21
5.449781
 31
0.0
  0
LINE
  5
1F0
330
454
100
AcDbEntity
  8
HATCH
  6
Continuous
 62
     7
370
    30
100
AcDbLine
 10
45.716927
 20
5.423021
 30
0.0
 11
45.670333
 21
5.397812
 31
0.0
  0
LINE
  5
1F1
330
454
100
AcDbEntity
  8
HATCH
  6
Continuous
 62
     7
370
    30
100
AcDbLine
 10
46.16551
 20
5.554937
 30
0.0
 11
46.159083
 21
5.551458
 31
0.0
  0
LINE
  5
1F2
330
454
100
AcDbEntity
  8
HATCH
  6
Continuous
 62
     7
370
    30
100
AcDbLine
 10
46.109604
 20
5.524687
 30
0.0
 11
46.060135
 21
5.497927
 31
0.0
  0
LINE
  5
1F3
330
454
100
AcDbEntity
  8
HATCH
  6
Continuous
 62
     7
370
    30
100
AcDbLine
 10
46.010656
 20
5.471156
 30
0.0
 11
45.961188
 21
5.444396
 31
0.0
  0
LINE
  5
1F4
330
454
100
AcDbEntity
  8
HATCH
  6
Continuous
 62
     7
370
    30
100
AcDbLine
 10
45.911708
 20
5.417625
 30
0.0
 11
45.868385
 21
5.394188
 31
0.0
  0
LINE
  5
1F5
330
454
100
AcDbEntity
  8
HATCH
  6
Continuous
 62
     7
370
    30
100
AcDbLine
 10
46.268448
 20
5.499854
 30
0.0
 11
46.254917
 21
5.492531
 31
0.0
  0
LINE
  5
1F6
330
454
100
AcDbEntity
  8
HATCH
  6
Continuous
 62
     7
370
    30
100
AcDbLine
 10
46.205437
 20
5.46576
 30
0.0
 11
46.155969
 21
5.439
 31
0.0
  0
LINE
  5
1F7
330
454
100
AcDbEntity
  8
HATCH
  6
Continuous
 62
     7
370
    30
100
AcDbLine
 10
46.10649
 20
5.412229
 30
0.0
 11
46.058604
 21
5.386333
 31
0.0
  0
LINE
  5
1F8
330
454
100
AcDbEntity
  8
HATCH
  6
Continuous
 62
     7
370
    30
100
AcDbLine
 10
46.371385
 20
5.444771
 30
0.0
 11
46.35075
 21
5.433604
 31
0.0
  0
LINE
  5
1F9
330
454
100
AcDbEntity
  8
HATCH
  6
Continuous
 62
     7
370
    30
100
AcDbLine
 10
46.301271
 20
5.406844
 30
0.0
 11
46.251802
 21
5.380073
 31
0.0
  0
LINE
  5
1FA
330
454
100
AcDbEntity
  8
HATCH
  6
Continuous
 62
     7
370
    30
100
AcDbLine
 10
46.474333
 20
5.389687
 30
0.0
 11
46.446583
 21
5.374677
 31
0.0
  0
LINE
  5
1FB
330
454
100
AcDbEntity
  8
HATCH
  6
Continuous
 62
     7
370
    30
100
AcDbLine
 10
46.397104
 20
5.347917
 30
0.0
 11
46.351583
 21
5.323281
 31
0.0
  0
LINE
  5
1FC
330
454
100
AcDbEntity
  8
HATCH
  6
Continuous
 62
     7
370
    30
100
AcDbLine
 10
46.446469
 20
5.317573
 30
0.0
 11
46.445021
 21
5.318448
 31
0.0
  0
LINE
  5
1FD
330
454
100
AcDbEntity
  8
HATCH
  6
Continuous
 62
     7
370
    30
100
AcDbLine
 10
46.397104
 20
5.347917
 30
0.0
 11
46.349187
 21
5.377375
 31
0.0
  0
LINE
  5
1FE
330
454
100
AcDbEntity
  8
HATCH
  6
Continuous
 62
     7
370
    30
100
AcDbLine
 10
46.301271
 20
5.406844
 30
0.0
 11
46.253354
 21
5.436302
 31
0.0
  0
LINE
  5
1FF
330
454
100
AcDbEntity
  8
HATCH
  6
Continuous
 62
     7
370
    30
100
AcDbLine
 10
46.205437
 20
5.46576
 30
0.0
 11
46.157521
 21
5.495229
 31
0.0
  0
LINE
  5
200
330
454
100
AcDbEntity
  8
HATCH
  6
Continuous
 62
     7
370
    30
100
AcDbLine
 10
46.109604
 20
5.524687
 30
0.0
 11
46.061687
 21
5.554156
 31
0.0
  0
LINE
  5
201
330
454
100
AcDbEntity
  8
HATCH
  6
Continuous
 62
     7
370
    30
100
AcDbLine
 10
46.013771
 20
5.583615
 30
0.0
 11
45.965854
 21
5.613073
 31
0.0
  0
LINE
  5
202
330
454
100
AcDbEntity
  8
HATCH
  6
Continuous
 62
     7
370
    30
100
AcDbLine
 10
45.917938
 20
5.642542
 30
0.0
 11
45.870031
 21
5.672
 31
0.0
  0
LINE
  5
203
330
454
100
AcDbEntity
  8
HATCH
  6
Continuous
 62
     7
370
    30
100
AcDbLine
 10
45.822104
 20
5.701469
 30
0.0
 11
45.774187
 21
5.730927
 31
0.0
  0
LINE
  5
204
330
454
100
AcDbEntity
  8
HATCH
  6
Continuous
 62
     7
370
    30
100
AcDbLine
 10
45.726271
 20
5.760385
 30
0.0
 11
45.678354
 21
5.789854
 31
0.0
  0
LINE
  5
205
330
454
100
AcDbEntity
  8
HATCH
  6
Continuous
 62
     7
370
    30
100
AcDbLine
 10
45.630437
 20
5.819312
 30
0.0
 11
45.582521
 21
5.848781
 31
0.0
  0
LINE
  5
206
330
454
100
AcDbEntity
  8
HATCH
  6
Continuous
 62
     7
370
    30
100
AcDbLine
 10
45.534604
 20
5.87824
 30
0.0
 11
45.486687
 21
5.907708
 31
0.0
  0
LINE
  5
207
330
454
100
AcDbEntity
  8
HATCH
  6
Continuous
 62
     7
370
    30
100
AcDbLine
 10
45.438771
 20
5.937167
 30
0.0
 11
45.426865
 21
5.94449
 31
0.0
  0
LINE
  5
208
330
454
100
AcDbEntity
  8
HATCH
  6
Continuous
 62
     7
370
    30
100
AcDbLine
 10
46.156896
 20
5.381229
 30
0.0
 11
46.154406
 21
5.382771
 31
0.0
  0
LINE
  5
209
330
454
100
AcDbEntity
  8
HATCH
  6
Continuous
 62
     7
370
    30
100
AcDbLine
 10
46.10649
 20
5.412229
 30
0.0
 11
46.058583
 21
5.441698
 31
0.0
  0
LINE
  5
20A
330
454
100
AcDbEntity
  8
HATCH
  6
Continuous
 62
     7
370
    30
100
AcDbLine
 10
46.010656
 20
5.471156
 30
0.0
 11
45.96275
 21
5.500625
 31
0.0
  0
LINE
  5
20B
330
454
100
AcDbEntity
  8
HATCH
  6
Continuous
 62
     7
370
    30
100
AcDbLine
 10
45.914823
 20
5.530083
 30
0.0
 11
45.866917
 21
5.559542
 31
0.0
  0
LINE
  5
20C
330
454
100
AcDbEntity
  8
HATCH
  6
Continuous
 62
     7
370
    30
100
AcDbLine
 10
45.81899
 20
5.58901
 30
0.0
 11
45.771073
 21
5.618469
 31
0.0
  0
LINE
  5
20D
330
454
100
AcDbEntity
  8
HATCH
  6
Continuous
 62
     7
370
    30
100
AcDbLine
 10
45.723156
 20
5.647937
 30
0.0
 11
45.67524
 21
5.677396
 31
0.0
  0
LINE
  5
20E
330
454
100
AcDbEntity
  8
HATCH
  6
Continuous
 62
     7
370
    30
100
AcDbLine
 10
45.627323
 20
5.706854
 30
0.0
 11
45.579406
 21
5.736323
 31
0.0
  0
LINE
  5
20F
330
454
100
AcDbEntity
  8
HATCH
  6
Continuous
 62
     7
370
    30
100
AcDbLine
 10
45.53149
 20
5.765781
 30
0.0
 11
45.483573
 21
5.79525
 31
0.0
  0
LINE
  5
210
330
454
100
AcDbEntity
  8
HATCH
  6
Continuous
 62
     7
370
    30
100
AcDbLine
 10
45.435656
 20
5.824708
 30
0.0
 11
45.407604
 21
5.841958
 31
0.0
  0
LINE
  5
211
330
454
100
AcDbEntity
  8
HATCH
  6
Continuous
 62
     7
370
    30
100
AcDbLine
 10
45.911708
 20
5.417625
 30
0.0
 11
45.863802
 21
5.447094
 31
0.0
  0
LINE
  5
212
330
454
100
AcDbEntity
  8
HATCH
  6
Continuous
 62
     7
370
    30
100
AcDbLine
 10
45.815875
 20
5.476552
 30
0.0
 11
45.767958
 21
5.50601
 31
0.0
  0
LINE
  5
213
330
454
100
AcDbEntity
  8
HATCH
  6
Continuous
 62
     7
370
    30
100
AcDbLine
 10
45.720042
 20
5.535479
 30
0.0
 11
45.672125
 21
5.564938
 31
0.0
  0
LINE
  5
214
330
454
100
AcDbEntity
  8
HATCH
  6
Continuous
 62
     7
370
    30
100
AcDbLine
 10
45.624208
 20
5.594406
 30
0.0
 11
45.576292
 21
5.623865
 31
0.0
  0
LINE
  5
215
330
454
100
AcDbEntity
  8
HATCH
  6
Continuous
 62
     7
370
    30
100
AcDbLine
 10
45.528375
 20
5.653323
 30
0.0
 11
45.480458
 21
5.682792
 31
0.0
  0
LINE
  5
216
330
454
100
AcDbEntity
  8
HATCH
  6
Continuous
 62
     7
370
    30
100
AcDbLine
 10
45.432542
 20
5.71225
 30
0.0
 11
45.384625
 21
5.741719
 31
0.0
  0
LINE
  5
217
330
454
100
AcDbEntity
  8
HATCH
  6
Continuous
 62
     7
370
    30
100
AcDbLine
 10
45.716927
 20
5.423021
 30
0.0
 11
45.66901
 21
5.452479
 31
0.0
  0
LINE
  5
218
330
454
100
AcDbEntity
  8
HATCH
  6
Continuous
 62
     7
370
    30
100
AcDbLine
 10
45.621094
 20
5.481948
 30
0.0
 11
45.573177
 21
5.511406
 31
0.0
  0
LINE
  5
219
330
454
100
AcDbEntity
  8
HATCH
  6
Continuous
 62
     7
370
    30
100
AcDbLine
 10
45.52526
 20
5.540875
 30
0.0
 11
45.477344
 21
5.570333
 31
0.0
  0
LINE
  5
21A
330
454
100
AcDbEntity
  8
HATCH
  6
Continuous
 62
     7
370
    30
100
AcDbLine
 10
45.429427
 20
5.599792
 30
0.0
 11
45.38151
 21
5.62926
 31
0.0
  0
LINE
  5
21B
330
454
100
AcDbEntity
  8
HATCH
  6
Continuous
 62
     7
370
    30
100
AcDbLine
 10
45.522146
 20
5.428417
 30
0.0
 11
45.474229
 21
5.457875
 31
0.0
  0
LINE
  5
21C
330
454
100
AcDbEntity
  8
HATCH
  6
Continuous
 62
     7
370
    30
100
AcDbLine
 10
45.426323
 20
5.487333
 30
0.0
 11
45.378396
 21
5.516802
 31
0.0
  0
LINE
  5
21D
330
454
100
AcDbEntity
  8
HATCH
  6
Continuous
 62
     7
370
    30
100
AcDbLine
 10
45.965854
 20
5.613073
 30
0.0
 11
45.964302
 21
5.556854
 31
0.0
  0
LINE
  5
21E
330
454
100
AcDbEntity
  8
HATCH
  6
Continuous
 62
     7
370
    30
100
AcDbLine
 10
45.96275
 20
5.500625
 30
0.0
 11
45.961188
 21
5.444396
 31
0.0
  0
LINE
  5
21F
330
454
100
AcDbEntity
  8
HATCH
  6
Continuous
 62
     7
370
    30
100
AcDbLine
 10
45.870031
 20
5.672
 30
0.0
 11
45.868469
 21
5.615771
 31
0.0
  0
LINE
  5
220
330
454
100
AcDbEntity
  8
HATCH
  6
Continuous
 62
     7
370
    30
100
AcDbLine
 10
45.866917
 20
5.559542
 30
0.0
 11
45.865354
 21
5.503312
 31
0.0
  0
LINE
  5
221
330
454
100
AcDbEntity
  8
HATCH
  6
Continuous
 62
     7
370
    30
100
AcDbLine
 10
45.863802
 20
5.447094
 30
0.0
 11
45.862333
 21
5.394292
 31
0.0
  0
LINE
  5
222
330
454
100
AcDbEntity
  8
HATCH
  6
Continuous
 62
     7
370
    30
100
AcDbLine
 10
45.774187
 20
5.730927
 30
0.0
 11
45.772625
 21
5.674698
 31
0.0
  0
LINE
  5
223
330
454
100
AcDbEntity
  8
HATCH
  6
Continuous
 62
     7
370
    30
100
AcDbLine
 10
45.771073
 20
5.618469
 30
0.0
 11
45.76951
 21
5.56224
 31
0.0
  0
LINE
  5
224
330
454
100
AcDbEntity
  8
HATCH
  6
Continuous
 62
     7
370
    30
100
AcDbLine
 10
45.767958
 20
5.50601
 30
0.0
 11
45.766396
 21
5.449781
 31
0.0
  0
LINE
  5
225
330
454
100
AcDbEntity
  8
HATCH
  6
Continuous
 62
     7
370
    30
100
AcDbLine
 10
45.678354
 20
5.789854
 30
0.0
 11
45.676792
 21
5.733625
 31
0.0
  0
LINE
  5
226
330
454
100
AcDbEntity
  8
HATCH
  6
Continuous
 62
     7
370
    30
100
AcDbLine
 10
45.67524
 20
5.677396
 30
0.0
 11
45.673677
 21
5.621167
 31
0.0
  0
LINE
  5
227
330
454
100
AcDbEntity
  8
HATCH
  6
Continuous
 62
     7
370
    30
100
AcDbLine
 10
45.672125
 20
5.564938
 30
0.0
 11
45.670562
 21
5.508708
 31
0.0
  0
LINE
  5
228
330
454
100
AcDbEntity
  8
HATCH
  6
Continuous
 62
     7
370
    30
100
AcDbLine
 10
45.66901
 20
5.452479
 30
0.0
 11
45.6675
 21
5.397854
 31
0.0
  0
LINE
  5
229
330
454
100
AcDbEntity
  8
HATCH
  6
Continuous
 62
     7
370
    30
100
AcDbLine
 10
45.582521
 20
5.848781
 30
0.0
 11
45.580958
 21
5.792552
 31
0.0
  0
LINE
  5
22A
330
454
100
AcDbEntity
  8
HATCH
  6
Continuous
 62
     7
370
    30
100
AcDbLine
 10
45.579406
 20
5.736323
 30
0.0
 11
45.577844
 21
5.680094
 31
0.0
  0
LINE
  5
22B
330
454
100
AcDbEntity
  8
HATCH
  6
Continuous
 62
     7
370
    30
100
AcDbLine
 10
45.576292
 20
5.623865
 30
0.0
 11
45.574729
 21
5.567635
 31
0.0
  0
LINE
  5
22C
330
454
100
AcDbEntity
  8
HATCH
  6
Continuous
 62
     7
370
    30
100
AcDbLine
 10
45.573177
 20
5.511406
 30
0.0
 11
45.571615
 21
5.455177
 31
0.0
  0
LINE
  5
22D
330
454
100
AcDbEntity
  8
HATCH
  6
Continuous
 62
     7
370
    30
100
AcDbLine
 10
45.486687
 20
5.907708
 30
0.0
 11
45.485125
 21
5.851479
 31
0.0
  0
LINE
  5
22E
330
454
100
AcDbEntity
  8
HATCH
  6
Continuous
 62
     7
370
    30
100
AcDbLine
 10
45.483573
 20
5.79525
 30
0.0
 11
45.48201
 21
5.739021
 31
0.0
  0
LINE
  5
22F
330
454
100
AcDbEntity
  8
HATCH
  6
Continuous
 62
     7
370
    30
100
AcDbLine
 10
45.480458
 20
5.682792
 30
0.0
 11
45.478896
 21
5.626562
 31
0.0
  0
LINE
  5
230
330
454
100
AcDbEntity
  8
HATCH
  6
Continuous
 62
     7
370
    30
100
AcDbLine
 10
45.477344
 20
5.570333
 30
0.0
 11
45.475781
 21
5.514104
 31
0.0
  0
LINE
  5
231
330
454
100
AcDbEntity
  8
HATCH
  6
Continuous
 62
     7
370
    30
100
AcDbLine
 10
45.474229
 20
5.457875
 30
0.0
 11
45.473698
 21
5.438875
 31
0.0
  0
LINE
  5
232
330
454
100
AcDbEntity
  8
HATCH
  6
Continuous
 62
     7
370
    30
100
AcDbLine
 10
45.384625
 20
5.741719
 30
0.0
 11
45.383063
 21
5.68549
 31
0.0
  0
LINE
  5
233
330
454
100
AcDbEntity
  8
HATCH
  6
Continuous
 62
     7
370
    30
100
AcDbLine
 10
45.38151
 20
5.62926
 30
0.0
 11
45.379958
 21
5.573031
 31
0.0
  0
LINE
  5
234
330
454
100
AcDbEntity
  8
HATCH
  6
Continuous
 62
     7
370
    30
100
AcDbLine
 10
45.378396
 20
5.516802
 30
0.0
 11
45.37726
 21
5.475792
 31
0.0
  0
LINE
  5
235
330
454
100
AcDbEntity
  8
HATCH
  6
Continuous
 62
     7
370
    30
100
AcDbLine
 10
46.061687
 20
5.554156
 30
0.0
 11
46.060135
 21
5.497927
 31
0.0
  0
LINE
  5
236
330
454
100
AcDbEntity
  8
HATCH
  6
Continuous
 62
     7
370
    30
100
AcDbLine
 10
46.058583
 20
5.441698
 30
0.0
 11
46.057052
 21
5.386417
 31
0.0
  0
LINE
  5
237
330
454
100
AcDbEntity
  8
HATCH
  6
Continuous
 62
     7
370
    30
100
AcDbLine
 10
46.159271
 20
5.558281
 30
0.0
 11
46.159083
 21
5.551458
 31
0.0
  0
LINE
  5
238
330
454
100
AcDbEntity
  8
HATCH
  6
Continuous
 62
     7
370
    30
100
AcDbLine
 10
46.157521
 20
5.495229
 30
0.0
 11
46.155969
 21
5.439
 31
0.0
  0
LINE
  5
239
330
454
100
AcDbEntity
  8
HATCH
  6
Continuous
 62
     7
370
    30
100
AcDbLine
 10
46.154406
 20
5.382771
 30
0.0
 11
46.154375
 21
5.381365
 31
0.0
  0
LINE
  5
23A
330
454
100
AcDbEntity
  8
HATCH
  6
Continuous
 62
     7
370
    30
100
AcDbLine
 10
46.255312
 20
5.506885
 30
0.0
 11
46.254917
 21
5.492531
 31
0.0
  0
LINE
  5
23B
330
454
100
AcDbEntity
  8
HATCH
  6
Continuous
 62
     7
370
    30
100
AcDbLine
 10
46.253354
 20
5.436302
 30
0.0
 11
46.251802
 21
5.380073
 31
0.0
  0
LINE
  5
23C
330
454
100
AcDbEntity
  8
HATCH
  6
Continuous
 62
     7
370
    30
100
AcDbLine
 10
46.351354
 20
5.45549
 30
0.0
 11
46.35075
 21
5.433604
 31
0.0
  0
LINE
  5
23D
330
454
100
AcDbEntity
  8
HATCH
  6
Continuous
 62
     7
370
    30
100
AcDbLine
 10
46.349187
 20
5.377375
 30
0.0
 11
46.347729
 21
5.324677
 31
0.0
  0
LINE
  5
23E
330
454
100
AcDbEntity
  8
HATCH
  6
Continuous
 62
     7
370
    30
100
AcDbLine
 10
46.447396
 20
5.404094
 30
0.0
 11
46.446583
 21
5.374677
 31
0.0
  0
LINE
  5
23F
330
454
100
AcDbEntity
  8
HATCH
  6
Continuous
 62
     7
370
    30
100
AcDbLine
 10
46.445021
 20
5.318448
 30
0.0
 11
46.44499
 21
5.317135
 31
0.0
  0
LINE
  5
240
330
454
100
AcDbEntity
  8
HATCH
  6
Continuous
 62
     7
370
    30
100
AcDbLine
 10
46.543437
 20
5.352708
 30
0.0
 11
46.543229
 21
5.345198
 31
0.0
  0
LINE
  5
241
330
454
100
AcDbEntity
  8
HATCH
  6
Continuous
 62
     7
370
    30
100
AcDbLine
 10
40.470854
 20
5.150062
 30
0.0
 11
40.485958
 21
5.134958
 31
0.0
  0
LINE
  5
242
330
454
100
AcDbEntity
  8
HATCH
  6
Continuous
 62
     7
370
    30
100
AcDbLine
 10
40.574344
 20
5.046573
 30
0.0
 11
40.662729
 21
4.958188
 31
0.0
  0
LINE
  5
243
330
454
100
AcDbEntity
  8
HATCH
  6
Continuous
 62
     7
370
    30
100
AcDbLine
 10
40.612479
 20
5.185208
 30
0.0
 11
40.662729
 21
5.134958
 31
0.0
  0
LINE
  5
244
330
454
100
AcDbEntity
  8
HATCH
  6
Continuous
 62
     7
370
    30
100
AcDbLine
 10
40.751125
 20
5.046573
 30
0.0
 11
40.83951
 21
4.958188
 31
0.0
  0
LINE
  5
245
330
454
100
AcDbEntity
  8
HATCH
  6
Continuous
 62
     7
370
    30
100
AcDbLine
 10
40.785646
 20
5.188823
 30
0.0
 11
40.83951
 21
5.134958
 31
0.0
  0
LINE
  5
246
330
454
100
AcDbEntity
  8
HATCH
  6
Continuous
 62
     7
370
    30
100
AcDbLine
 10
40.927896
 20
5.046573
 30
0.0
 11
41.016281
 21
4.958188
 31
0.0
  0
LINE
  5
247
330
454
100
AcDbEntity
  8
HATCH
  6
Continuous
 62
     7
370
    30
100
AcDbLine
 10
40.958813
 20
5.192427
 30
0.0
 11
41.016281
 21
5.134958
 31
0.0
  0
LINE
  5
248
330
454
100
AcDbEntity
  8
HATCH
  6
Continuous
 62
     7
370
    30
100
AcDbLine
 10
41.104677
 20
5.046573
 30
0.0
 11
41.161594
 21
4.989646
 31
0.0
  0
LINE
  5
249
330
454
100
AcDbEntity
  8
HATCH
  6
Continuous
 62
     7
370
    30
100
AcDbLine
 10
41.13199
 20
5.196031
 30
0.0
 11
41.149208
 21
5.178813
 31
0.0
  0
LINE
  5
24A
330
454
100
AcDbEntity
  8
HATCH
  6
Continuous
 62
     7
370
    30
100
AcDbLine
 10
40.397562
 20
5.046573
 30
0.0
 11
40.485958
 21
4.958188
 31
0.0
  0
LINE
  5
24B
330
454
100
AcDbEntity
  8
HATCH
  6
Continuous
 62
     7
370
    30
100
AcDbLine
 10
40.220792
 20
5.046573
 30
0.0
 11
40.309177
 21
4.958188
 31
0.0
  0
LINE
  5
24C
330
454
100
AcDbEntity
  8
HATCH
  6
Continuous
 62
     7
370
    30
100
AcDbLine
 10
40.220792
 20
4.869792
 30
0.0
 11
40.252458
 21
4.838125
 31
0.0
  0
LINE
  5
24D
330
454
100
AcDbEntity
  8
HATCH
  6
Continuous
 62
     7
370
    30
100
AcDbLine
 10
40.60749
 20
5.079719
 30
0.0
 11
40.695875
 21
4.991333
 31
0.0
  0
LINE
  5
24E
330
454
100
AcDbEntity
  8
HATCH
  6
Continuous
 62
     7
370
    30
100
AcDbLine
 10
40.677417
 20
5.186562
 30
0.0
 11
40.695875
 21
5.168104
 31
0.0
  0
LINE
  5
24F
330
454
100
AcDbEntity
  8
HATCH
  6
Continuous
 62
     7
370
    30
100
AcDbLine
 10
40.78426
 20
5.079719
 30
0.0
 11
40.872656
 21
4.991333
 31
0.0
  0
LINE
  5
250
330
454
100
AcDbEntity
  8
HATCH
  6
Continuous
 62
     7
370
    30
100
AcDbLine
 10
40.850583
 20
5.190177
 30
0.0
 11
40.872656
 21
5.168104
 31
0.0
  0
LINE
  5
251
330
454
100
AcDbEntity
  8
HATCH
  6
Continuous
 62
     7
370
    30
100
AcDbLine
 10
40.961042
 20
5.079719
 30
0.0
 11
41.049427
 21
4.991333
 31
0.0
  0
LINE
  5
252
330
454
100
AcDbEntity
  8
HATCH
  6
Continuous
 62
     7
370
    30
100
AcDbLine
 10
41.02376
 20
5.193781
 30
0.0
 11
41.049427
 21
5.168104
 31
0.0
  0
LINE
  5
253
330
454
100
AcDbEntity
  8
HATCH
  6
Continuous
 62
     7
370
    30
100
AcDbLine
 10
41.137823
 20
5.079719
 30
0.0
 11
41.156948
 21
5.060583
 31
0.0
  0
LINE
  5
254
330
454
100
AcDbEntity
  8
HATCH
  6
Continuous
 62
     7
370
    30
100
AcDbLine
 10
40.430708
 20
5.079719
 30
0.0
 11
40.519104
 21
4.991333
 31
0.0
  0
LINE
  5
255
330
454
100
AcDbEntity
  8
HATCH
  6
Continuous
 62
     7
370
    30
100
AcDbLine
 10
40.253937
 20
5.079719
 30
0.0
 11
40.342323
 21
4.991333
 31
0.0
  0
LINE
  5
256
330
454
100
AcDbEntity
  8
HATCH
  6
Continuous
 62
     7
370
    30
100
AcDbLine
 10
40.122823
 20
5.034052
 30
0.0
 11
40.165552
 21
4.991333
 31
0.0
  0
LINE
  5
257
330
454
100
AcDbEntity
  8
HATCH
  6
Continuous
 62
     7
370
    30
100
AcDbLine
 10
40.253937
 20
4.902938
 30
0.0
 11
40.298906
 21
4.857979
 31
0.0
  0
LINE
  5
258
330
454
100
AcDbEntity
  8
HATCH
  6
Continuous
 62
     7
370
    30
100
AcDbLine
 10
40.640635
 20
5.112865
 30
0.0
 11
40.729021
 21
5.024479
 31
0.0
  0
LINE
  5
259
330
454
100
AcDbEntity
  8
HATCH
  6
Continuous
 62
     7
370
    30
100
AcDbLine
 10
40.817406
 20
5.112865
 30
0.0
 11
40.905802
 21
5.024479
 31
0.0
  0
LINE
  5
25A
330
454
100
AcDbEntity
  8
HATCH
  6
Continuous
 62
     7
370
    30
100
AcDbLine
 10
40.994187
 20
5.112865
 30
0.0
 11
41.082573
 21
5.024479
 31
0.0
  0
LINE
  5
25B
330
454
100
AcDbEntity
  8
HATCH
  6
Continuous
 62
     7
370
    30
100
AcDbLine
 10
40.463854
 20
5.112865
 30
0.0
 11
40.55225
 21
5.024479
 31
0.0
  0
LINE
  5
25C
330
454
100
AcDbEntity
  8
HATCH
  6
Continuous
 62
     7
370
    30
100
AcDbLine
 10
40.305125
 20
5.094823
 30
0.0
 11
40.375469
 21
5.024479
 31
0.0
  0
LINE
  5
25D
330
454
100
AcDbEntity
  8
HATCH
  6
Continuous
 62
     7
370
    30
100
AcDbLine
 10
40.463854
 20
4.936083
 30
0.0
 11
40.469187
 21
4.93076
 31
0.0
  0
LINE
  5
25E
330
454
100
AcDbEntity
  8
HATCH
  6
Continuous
 62
     7
370
    30
100
AcDbLine
 10
40.172542
 20
5.050625
 30
0.0
 11
40.198687
 21
5.024479
 31
0.0
  0
LINE
  5
25F
330
454
100
AcDbEntity
  8
HATCH
  6
Continuous
 62
     7
370
    30
100
AcDbLine
 10
40.287083
 20
4.936083
 30
0.0
 11
40.345344
 21
4.877823
 31
0.0
  0
LINE
  5
260
330
454
100
AcDbEntity
  8
HATCH
  6
Continuous
 62
     7
370
    30
100
AcDbLine
 10
40.489177
 20
4.939312
 30
0.0
 11
40.574344
 21
5.024479
 31
0.0
  0
LINE
  5
261
330
454
100
AcDbEntity
  8
HATCH
  6
Continuous
 62
     7
370
    30
100
AcDbLine
 10
40.662729
 20
5.112865
 30
0.0
 11
40.737687
 21
5.187823
 31
0.0
  0
LINE
  5
262
330
454
100
AcDbEntity
  8
HATCH
  6
Continuous
 62
     7
370
    30
100
AcDbLine
 10
40.309177
 20
4.936083
 30
0.0
 11
40.397562
 21
5.024479
 31
0.0
  0
LINE
  5
263
330
454
100
AcDbEntity
  8
HATCH
  6
Continuous
 62
     7
370
    30
100
AcDbLine
 10
40.485958
 20
5.112865
 30
0.0
 11
40.549302
 21
5.176219
 31
0.0
  0
LINE
  5
264
330
454
100
AcDbEntity
  8
HATCH
  6
Continuous
 62
     7
370
    30
100
AcDbLine
 10
40.676823
 20
4.950177
 30
0.0
 11
40.751125
 21
5.024479
 31
0.0
  0
LINE
  5
265
330
454
100
AcDbEntity
  8
HATCH
  6
Continuous
 62
     7
370
    30
100
AcDbLine
 10
40.83951
 20
5.112865
 30
0.0
 11
40.918229
 21
5.191583
 31
0.0
  0
LINE
  5
266
330
454
100
AcDbEntity
  8
HATCH
  6
Continuous
 62
     7
370
    30
100
AcDbLine
 10
40.851833
 20
4.948406
 30
0.0
 11
40.927896
 21
5.024479
 31
0.0
  0
LINE
  5
267
330
454
100
AcDbEntity
  8
HATCH
  6
Continuous
 62
     7
370
    30
100
AcDbLine
 10
41.016281
 20
5.112865
 30
0.0
 11
41.09876
 21
5.195344
 31
0.0
  0
LINE
  5
268
330
454
100
AcDbEntity
  8
HATCH
  6
Continuous
 62
     7
370
    30
100
AcDbLine
 10
41.026844
 20
4.946646
 30
0.0
 11
41.104677
 21
5.024479
 31
0.0
  0
LINE
  5
269
330
454
100
AcDbEntity
  8
HATCH
  6
Continuous
 62
     7
370
    30
100
AcDbLine
 10
40.342323
 20
4.902938
 30
0.0
 11
40.430708
 21
4.991333
 31
0.0
  0
LINE
  5
26A
330
454
100
AcDbEntity
  8
HATCH
  6
Continuous
 62
     7
370
    30
100
AcDbLine
 10
40.519104
 20
5.079719
 30
0.0
 11
40.60749
 21
5.168104
 31
0.0
  0
LINE
  5
26B
330
454
100
AcDbEntity
  8
HATCH
  6
Continuous
 62
     7
370
    30
100
AcDbLine
 10
40.342323
 20
5.079719
 30
0.0
 11
40.383583
 21
5.120979
 31
0.0
  0
LINE
  5
26C
330
454
100
AcDbEntity
  8
HATCH
  6
Continuous
 62
     7
370
    30
100
AcDbLine
 10
40.567437
 20
4.951281
 30
0.0
 11
40.60749
 21
4.991333
 31
0.0
  0
LINE
  5
26D
330
454
100
AcDbEntity
  8
HATCH
  6
Continuous
 62
     7
370
    30
100
AcDbLine
 10
40.695875
 20
5.079719
 30
0.0
 11
40.78426
 21
5.168104
 31
0.0
  0
LINE
  5
26E
330
454
100
AcDbEntity
  8
HATCH
  6
Continuous
 62
     7
370
    30
100
AcDbLine
 10
40.742448
 20
4.94951
 30
0.0
 11
40.78426
 21
4.991333
 31
0.0
  0
LINE
  5
26F
330
454
100
AcDbEntity
  8
HATCH
  6
Continuous
 62
     7
370
    30
100
AcDbLine
 10
40.872656
 20
5.079719
 30
0.0
 11
40.961042
 21
5.168104
 31
0.0
  0
LINE
  5
270
330
454
100
AcDbEntity
  8
HATCH
  6
Continuous
 62
     7
370
    30
100
AcDbLine
 10
40.917458
 20
4.94775
 30
0.0
 11
40.961042
 21
4.991333
 31
0.0
  0
LINE
  5
271
330
454
100
AcDbEntity
  8
HATCH
  6
Continuous
 62
     7
370
    30
100
AcDbLine
 10
41.049427
 20
5.079719
 30
0.0
 11
41.137823
 21
5.168104
 31
0.0
  0
LINE
  5
272
330
454
100
AcDbEntity
  8
HATCH
  6
Continuous
 62
     7
370
    30
100
AcDbLine
 10
41.092469
 20
4.945979
 30
0.0
 11
41.137823
 21
4.991333
 31
0.0
  0
LINE
  5
273
330
454
100
AcDbEntity
  8
HATCH
  6
Continuous
 62
     7
370
    30
100
AcDbLine
 10
40.41199
 20
4.906312
 30
0.0
 11
40.463854
 21
4.958188
 31
0.0
  0
LINE
  5
274
330
454
100
AcDbEntity
  8
HATCH
  6
Continuous
 62
     7
370
    30
100
AcDbLine
 10
40.55225
 20
5.046573
 30
0.0
 11
40.640635
 21
5.134958
 31
0.0
  0
LINE
  5
275
330
454
100
AcDbEntity
  8
HATCH
  6
Continuous
 62
     7
370
    30
100
AcDbLine
 10
40.198687
 20
4.869792
 30
0.0
 11
40.287083
 21
4.958188
 31
0.0
  0
LINE
  5
276
330
454
100
AcDbEntity
  8
HATCH
  6
Continuous
 62
     7
370
    30
100
AcDbLine
 10
40.375469
 20
5.046573
 30
0.0
 11
40.463854
 21
5.134958
 31
0.0
  0
LINE
  5
277
330
454
100
AcDbEntity
  8
HATCH
  6
Continuous
 62
     7
370
    30
100
AcDbLine
 10
40.198687
 20
5.046573
 30
0.0
 11
40.217844
 21
5.065729
 31
0.0
  0
LINE
  5
278
330
454
100
AcDbEntity
  8
HATCH
  6
Continuous
 62
     7
370
    30
100
AcDbLine
 10
40.633073
 20
4.950615
 30
0.0
 11
40.640635
 21
4.958188
 31
0.0
  0
LINE
  5
279
330
454
100
AcDbEntity
  8
HATCH
  6
Continuous
 62
     7
370
    30
100
AcDbLine
 10
40.729021
 20
5.046573
 30
0.0
 11
40.817406
 21
5.134958
 31
0.0
  0
LINE
  5
27A
330
454
100
AcDbEntity
  8
HATCH
  6
Continuous
 62
     7
370
    30
100
AcDbLine
 10
40.808073
 20
4.948854
 30
0.0
 11
40.817406
 21
4.958188
 31
0.0
  0
LINE
  5
27B
330
454
100
AcDbEntity
  8
HATCH
  6
Continuous
 62
     7
370
    30
100
AcDbLine
 10
40.905802
 20
5.046573
 30
0.0
 11
40.994187
 21
5.134958
 31
0.0
  0
LINE
  5
27C
330
454
100
AcDbEntity
  8
HATCH
  6
Continuous
 62
     7
370
    30
100
AcDbLine
 10
40.983083
 20
4.947083
 30
0.0
 11
40.994187
 21
4.958188
 31
0.0
  0
LINE
  5
27D
330
454
100
AcDbEntity
  8
HATCH
  6
Continuous
 62
     7
370
    30
100
AcDbLine
 10
41.082573
 20
5.046573
 30
0.0
 11
41.15324
 21
5.11724
 31
0.0
  0
LINE
  5
27E
330
454
100
AcDbEntity
  8
HATCH
  6
Continuous
 62
     7
370
    30
100
AcDbLine
 10
41.158094
 20
4.945312
 30
0.0
 11
41.164104
 21
4.951333
 31
0.0
  0
LINE
  5
27F
330
454
100
AcDbEntity
  8
HATCH
  6
Continuous
 62
     7
370
    30
100
AcDbLine
 10
41.870031
 20
5.625
 30
0.0
 11
41.91874
 21
5.596875
 31
0.0
  0
LINE
  5
280
330
454
100
AcDbEntity
  8
HATCH
  6
Continuous
 62
     7
370
    30
100
AcDbLine
 10
41.967458
 20
5.56875
 30
0.0
 11
42.016177
 21
5.540625
 31
0.0
  0
LINE
  5
281
330
454
100
AcDbEntity
  8
HATCH
  6
Continuous
 62
     7
370
    30
100
AcDbLine
 10
42.064885
 20
5.5125
 30
0.0
 11
42.113604
 21
5.484375
 31
0.0
  0
LINE
  5
282
330
454
100
AcDbEntity
  8
HATCH
  6
Continuous
 62
     7
370
    30
100
AcDbLine
 10
42.162312
 20
5.45625
 30
0.0
 11
42.211031
 21
5.428125
 31
0.0
  0
LINE
  5
283
330
454
100
AcDbEntity
  8
HATCH
  6
Continuous
 62
     7
370
    30
100
AcDbLine
 10
42.25974
 20
5.4
 30
0.0
 11
42.267562
 21
5.39549
 31
0.0
  0
LINE
  5
284
330
454
100
AcDbEntity
  8
HATCH
  6
Continuous
 62
     7
370
    30
100
AcDbLine
 10
41.967458
 20
5.68125
 30
0.0
 11
42.016177
 21
5.653125
 31
0.0
  0
LINE
  5
285
330
454
100
AcDbEntity
  8
HATCH
  6
Continuous
 62
     7
370
    30
100
AcDbLine
 10
42.064885
 20
5.625
 30
0.0
 11
42.113604
 21
5.596875
 31
0.0
  0
LINE
  5
286
330
454
100
AcDbEntity
  8
HATCH
  6
Continuous
 62
     7
370
    30
100
AcDbLine
 10
42.162312
 20
5.56875
 30
0.0
 11
42.211031
 21
5.540625
 31
0.0
  0
LINE
  5
287
330
454
100
AcDbEntity
  8
HATCH
  6
Continuous
 62
     7
370
    30
100
AcDbLine
 10
42.25974
 20
5.5125
 30
0.0
 11
42.308458
 21
5.484375
 31
0.0
  0
LINE
  5
288
330
454
100
AcDbEntity
  8
HATCH
  6
Continuous
 62
     7
370
    30
100
AcDbLine
 10
42.357167
 20
5.45625
 30
0.0
 11
42.391094
 21
5.436667
 31
0.0
  0
LINE
  5
289
330
454
100
AcDbEntity
  8
HATCH
  6
Continuous
 62
     7
370
    30
100
AcDbLine
 10
42.064885
 20
5.7375
 30
0.0
 11
42.113604
 21
5.709375
 31
0.0
  0
LINE
  5
28A
330
454
100
AcDbEntity
  8
HATCH
  6
Continuous
 62
     7
370
    30
100
AcDbLine
 10
42.162312
 20
5.68125
 30
0.0
 11
42.211031
 21
5.653125
 31
0.0
  0
LINE
  5
28B
330
454
100
AcDbEntity
  8
HATCH
  6
Continuous
 62
     7
370
    30
100
AcDbLine
 10
42.25974
 20
5.625
 30
0.0
 11
42.308458
 21
5.596875
 31
0.0
  0
LINE
  5
28C
330
454
100
AcDbEntity
  8
HATCH
  6
Continuous
 62
     7
370
    30
100
AcDbLine
 10
42.357167
 20
5.56875
 30
0.0
 11
42.405885
 21
5.540625
 31
0.0
  0
LINE
  5
28D
330
454
100
AcDbEntity
  8
HATCH
  6
Continuous
 62
     7
370
    30
100
AcDbLine
 10
42.162312
 20
5.79375
 30
0.0
 11
42.211031
 21
5.765625
 31
0.0
  0
LINE
  5
28E
330
454
100
AcDbEntity
  8
HATCH
  6
Continuous
 62
     7
370
    30
100
AcDbLine
 10
42.25974
 20
5.7375
 30
0.0
 11
42.308458
 21
5.709375
 31
0.0
  0
LINE
  5
28F
330
454
100
AcDbEntity
  8
HATCH
  6
Continuous
 62
     7
370
    30
100
AcDbLine
 10
42.357167
 20
5.68125
 30
0.0
 11
42.405885
 21
5.653125
 31
0.0
  0
LINE
  5
290
330
454
100
AcDbEntity
  8
HATCH
  6
Continuous
 62
     7
370
    30
100
AcDbLine
 10
42.25974
 20
5.85
 30
0.0
 11
42.308458
 21
5.821875
 31
0.0
  0
LINE
  5
291
330
454
100
AcDbEntity
  8
HATCH
  6
Continuous
 62
     7
370
    30
100
AcDbLine
 10
42.357167
 20
5.79375
 30
0.0
 11
42.391458
 21
5.773948
 31
0.0
  0
LINE
  5
292
330
454
100
AcDbEntity
  8
HATCH
  6
Continuous
 62
     7
370
    30
100
AcDbLine
 10
42.357167
 20
5.90625
 30
0.0
 11
42.371729
 21
5.897844
 31
0.0
  0
LINE
  5
293
330
454
100
AcDbEntity
  8
HATCH
  6
Continuous
 62
     7
370
    30
100
AcDbLine
 10
41.772604
 20
5.56875
 30
0.0
 11
41.821312
 21
5.540625
 31
0.0
  0
LINE
  5
294
330
454
100
AcDbEntity
  8
HATCH
  6
Continuous
 62
     7
370
    30
100
AcDbLine
 10
41.870031
 20
5.5125
 30
0.0
 11
41.91874
 21
5.484375
 31
0.0
  0
LINE
  5
295
330
454
100
AcDbEntity
  8
HATCH
  6
Continuous
 62
     7
370
    30
100
AcDbLine
 10
41.967458
 20
5.45625
 30
0.0
 11
42.016177
 21
5.428125
 31
0.0
  0
LINE
  5
296
330
454
100
AcDbEntity
  8
HATCH
  6
Continuous
 62
     7
370
    30
100
AcDbLine
 10
42.064885
 20
5.4
 30
0.0
 11
42.110771
 21
5.37351
 31
0.0
  0
LINE
  5
297
330
454
100
AcDbEntity
  8
HATCH
  6
Continuous
 62
     7
370
    30
100
AcDbLine
 10
41.620125
 20
5.544281
 30
0.0
 11
41.626458
 21
5.540625
 31
0.0
  0
LINE
  5
298
330
454
100
AcDbEntity
  8
HATCH
  6
Continuous
 62
     7
370
    30
100
AcDbLine
 10
41.675177
 20
5.5125
 30
0.0
 11
41.723885
 21
5.484375
 31
0.0
  0
LINE
  5
299
330
454
100
AcDbEntity
  8
HATCH
  6
Continuous
 62
     7
370
    30
100
AcDbLine
 10
41.772604
 20
5.45625
 30
0.0
 11
41.821312
 21
5.428125
 31
0.0
  0
LINE
  5
29A
330
454
100
AcDbEntity
  8
HATCH
  6
Continuous
 62
     7
370
    30
100
AcDbLine
 10
41.870031
 20
5.4
 30
0.0
 11
41.912687
 21
5.375375
 31
0.0
  0
LINE
  5
29B
330
454
100
AcDbEntity
  8
HATCH
  6
Continuous
 62
     7
370
    30
100
AcDbLine
 10
41.515708
 20
5.492073
 30
0.0
 11
41.529031
 21
5.484375
 31
0.0
  0
LINE
  5
29C
330
454
100
AcDbEntity
  8
HATCH
  6
Continuous
 62
     7
370
    30
100
AcDbLine
 10
41.57775
 20
5.45625
 30
0.0
 11
41.626458
 21
5.428125
 31
0.0
  0
LINE
  5
29D
330
454
100
AcDbEntity
  8
HATCH
  6
Continuous
 62
     7
370
    30
100
AcDbLine
 10
41.675177
 20
5.4
 30
0.0
 11
41.722323
 21
5.372781
 31
0.0
  0
LINE
  5
29E
330
454
100
AcDbEntity
  8
HATCH
  6
Continuous
 62
     7
370
    30
100
AcDbLine
 10
41.411281
 20
5.439854
 30
0.0
 11
41.431604
 21
5.428125
 31
0.0
  0
LINE
  5
29F
330
454
100
AcDbEntity
  8
HATCH
  6
Continuous
 62
     7
370
    30
100
AcDbLine
 10
41.480323
 20
5.4
 30
0.0
 11
41.529031
 21
5.371875
 31
0.0
  0
LINE
  5
2A0
330
454
100
AcDbEntity
  8
HATCH
  6
Continuous
 62
     7
370
    30
100
AcDbLine
 10
41.306854
 20
5.387646
 30
0.0
 11
41.334177
 21
5.371875
 31
0.0
  0
LINE
  5
2A1
330
454
100
AcDbEntity
  8
HATCH
  6
Continuous
 62
     7
370
    30
100
AcDbLine
 10
41.382896
 20
5.34375
 30
0.0
 11
41.427719
 21
5.317865
 31
0.0
  0
LINE
  5
2A2
330
454
100
AcDbEntity
  8
HATCH
  6
Continuous
 62
     7
370
    30
100
AcDbLine
 10
41.332708
 20
5.314781
 30
0.0
 11
41.334177
 21
5.315625
 31
0.0
  0
LINE
  5
2A3
330
454
100
AcDbEntity
  8
HATCH
  6
Continuous
 62
     7
370
    30
100
AcDbLine
 10
41.382896
 20
5.34375
 30
0.0
 11
41.431604
 21
5.371875
 31
0.0
  0
LINE
  5
2A4
330
454
100
AcDbEntity
  8
HATCH
  6
Continuous
 62
     7
370
    30
100
AcDbLine
 10
41.480323
 20
5.4
 30
0.0
 11
41.529031
 21
5.428125
 31
0.0
  0
LINE
  5
2A5
330
454
100
AcDbEntity
  8
HATCH
  6
Continuous
 62
     7
370
    30
100
AcDbLine
 10
41.57775
 20
5.45625
 30
0.0
 11
41.626458
 21
5.484375
 31
0.0
  0
LINE
  5
2A6
330
454
100
AcDbEntity
  8
HATCH
  6
Continuous
 62
     7
370
    30
100
AcDbLine
 10
41.675177
 20
5.5125
 30
0.0
 11
41.723885
 21
5.540625
 31
0.0
  0
LINE
  5
2A7
330
454
100
AcDbEntity
  8
HATCH
  6
Continuous
 62
     7
370
    30
100
AcDbLine
 10
41.772604
 20
5.56875
 30
0.0
 11
41.821312
 21
5.596875
 31
0.0
  0
LINE
  5
2A8
330
454
100
AcDbEntity
  8
HATCH
  6
Continuous
 62
     7
370
    30
100
AcDbLine
 10
41.870031
 20
5.625
 30
0.0
 11
41.91874
 21
5.653125
 31
0.0
  0
LINE
  5
2A9
330
454
100
AcDbEntity
  8
HATCH
  6
Continuous
 62
     7
370
    30
100
AcDbLine
 10
41.967458
 20
5.68125
 30
0.0
 11
42.016177
 21
5.709375
 31
0.0
  0
LINE
  5
2AA
330
454
100
AcDbEntity
  8
HATCH
  6
Continuous
 62
     7
370
    30
100
AcDbLine
 10
42.064885
 20
5.7375
 30
0.0
 11
42.113604
 21
5.765625
 31
0.0
  0
LINE
  5
2AB
330
454
100
AcDbEntity
  8
HATCH
  6
Continuous
 62
     7
370
    30
100
AcDbLine
 10
42.162312
 20
5.79375
 30
0.0
 11
42.211031
 21
5.821875
 31
0.0
  0
LINE
  5
2AC
330
454
100
AcDbEntity
  8
HATCH
  6
Continuous
 62
     7
370
    30
100
AcDbLine
 10
42.25974
 20
5.85
 30
0.0
 11
42.308458
 21
5.878125
 31
0.0
  0
LINE
  5
2AD
330
454
100
AcDbEntity
  8
HATCH
  6
Continuous
 62
     7
370
    30
100
AcDbLine
 10
42.357167
 20
5.90625
 30
0.0
 11
42.369271
 21
5.91324
 31
0.0
  0
LINE
  5
2AE
330
454
100
AcDbEntity
  8
HATCH
  6
Continuous
 62
     7
370
    30
100
AcDbLine
 10
41.623927
 20
5.370406
 30
0.0
 11
41.626458
 21
5.371875
 31
0.0
  0
LINE
  5
2AF
330
454
100
AcDbEntity
  8
HATCH
  6
Continuous
 62
     7
370
    30
100
AcDbLine
 10
41.675177
 20
5.4
 30
0.0
 11
41.723885
 21
5.428125
 31
0.0
  0
LINE
  5
2B0
330
454
100
AcDbEntity
  8
HATCH
  6
Continuous
 62
     7
370
    30
100
AcDbLine
 10
41.772604
 20
5.45625
 30
0.0
 11
41.821312
 21
5.484375
 31
0.0
  0
LINE
  5
2B1
330
454
100
AcDbEntity
  8
HATCH
  6
Continuous
 62
     7
370
    30
100
AcDbLine
 10
41.870031
 20
5.5125
 30
0.0
 11
41.91874
 21
5.540625
 31
0.0
  0
LINE
  5
2B2
330
454
100
AcDbEntity
  8
HATCH
  6
Continuous
 62
     7
370
    30
100
AcDbLine
 10
41.967458
 20
5.56875
 30
0.0
 11
42.016177
 21
5.596875
 31
0.0
  0
LINE
  5
2B3
330
454
100
AcDbEntity
  8
HATCH
  6
Continuous
 62
     7
370
    30
100
AcDbLine
 10
42.064885
 20
5.625
 30
0.0
 11
42.113604
 21
5.653125
 31
0.0
  0
LINE
  5
2B4
330
454
100
AcDbEntity
  8
HATCH
  6
Continuous
 62
     7
370
    30
100
AcDbLine
 10
42.162312
 20
5.68125
 30
0.0
 11
42.211031
 21
5.709375
 31
0.0
  0
LINE
  5
2B5
330
454
100
AcDbEntity
  8
HATCH
  6
Continuous
 62
     7
370
    30
100
AcDbLine
 10
42.25974
 20
5.7375
 30
0.0
 11
42.308458
 21
5.765625
 31
0.0
  0
LINE
  5
2B6
330
454
100
AcDbEntity
  8
HATCH
  6
Continuous
 62
     7
370
    30
100
AcDbLine
 10
42.357167
 20
5.79375
 30
0.0
 11
42.385687
 21
5.810219
 31
0.0
  0
LINE
  5
2B7
330
454
100
AcDbEntity
  8
HATCH
  6
Continuous
 62
     7
370
    30
100
AcDbLine
 10
41.870031
 20
5.4
 30
0.0
 11
41.91874
 21
5.428125
 31
0.0
  0
LINE
  5
2B8
330
454
100
AcDbEntity
  8
HATCH
  6
Continuous
 62
     7
370
    30
100
AcDbLine
 10
41.967458
 20
5.45625
 30
0.0
 11
42.016177
 21
5.484375
 31
0.0
  0
LINE
  5
2B9
330
454
100
AcDbEntity
  8
HATCH
  6
Continuous
 62
     7
370
    30
100
AcDbLine
 10
42.064885
 20
5.5125
 30
0.0
 11
42.113604
 21
5.540625
 31
0.0
  0
LINE
  5
2BA
330
454
100
AcDbEntity
  8
HATCH
  6
Continuous
 62
     7
370
    30
100
AcDbLine
 10
42.162312
 20
5.56875
 30
0.0
 11
42.211031
 21
5.596875
 31
0.0
  0
LINE
  5
2BB
330
454
100
AcDbEntity
  8
HATCH
  6
Continuous
 62
     7
370
    30
100
AcDbLine
 10
42.25974
 20
5.625
 30
0.0
 11
42.308458
 21
5.653125
 31
0.0
  0
LINE
  5
2BC
330
454
100
AcDbEntity
  8
HATCH
  6
Continuous
 62
     7
370
    30
100
AcDbLine
 10
42.357167
 20
5.68125
 30
0.0
 11
42.405885
 21
5.709375
 31
0.0
  0
LINE
  5
2BD
330
454
100
AcDbEntity
  8
HATCH
  6
Continuous
 62
     7
370
    30
100
AcDbLine
 10
42.064885
 20
5.4
 30
0.0
 11
42.113604
 21
5.428125
 31
0.0
  0
LINE
  5
2BE
330
454
100
AcDbEntity
  8
HATCH
  6
Continuous
 62
     7
370
    30
100
AcDbLine
 10
42.162312
 20
5.45625
 30
0.0
 11
42.211031
 21
5.484375
 31
0.0
  0
LINE
  5
2BF
330
454
100
AcDbEntity
  8
HATCH
  6
Continuous
 62
     7
370
    30
100
AcDbLine
 10
42.25974
 20
5.5125
 30
0.0
 11
42.308458
 21
5.540625
 31
0.0
  0
LINE
  5
2C0
330
454
100
AcDbEntity
  8
HATCH
  6
Continuous
 62
     7
370
    30
100
AcDbLine
 10
42.357167
 20
5.56875
 30
0.0
 11
42.405885
 21
5.596875
 31
0.0
  0
LINE
  5
2C1
330
454
100
AcDbEntity
  8
HATCH
  6
Continuous
 62
     7
370
    30
100
AcDbLine
 10
42.25974
 20
5.4
 30
0.0
 11
42.308458
 21
5.428125
 31
0.0
  0
LINE
  5
2C2
330
454
100
AcDbEntity
  8
HATCH
  6
Continuous
 62
     7
370
    30
100
AcDbLine
 10
42.357167
 20
5.45625
 30
0.0
 11
42.405885
 21
5.484375
 31
0.0
  0
LINE
  5
2C3
330
454
100
AcDbEntity
  8
HATCH
  6
Continuous
 62
     7
370
    30
100
AcDbLine
 10
41.821312
 20
5.596875
 30
0.0
 11
41.821312
 21
5.540625
 31
0.0
  0
LINE
  5
2C4
330
454
100
AcDbEntity
  8
HATCH
  6
Continuous
 62
     7
370
    30
100
AcDbLine
 10
41.821312
 20
5.484375
 30
0.0
 11
41.821312
 21
5.428125
 31
0.0
  0
LINE
  5
2C5
330
454
100
AcDbEntity
  8
HATCH
  6
Continuous
 62
     7
370
    30
100
AcDbLine
 10
41.91874
 20
5.653125
 30
0.0
 11
41.91874
 21
5.596875
 31
0.0
  0
LINE
  5
2C6
330
454
100
AcDbEntity
  8
HATCH
  6
Continuous
 62
     7
370
    30
100
AcDbLine
 10
41.91874
 20
5.540625
 30
0.0
 11
41.91874
 21
5.484375
 31
0.0
  0
LINE
  5
2C7
330
454
100
AcDbEntity
  8
HATCH
  6
Continuous
 62
     7
370
    30
100
AcDbLine
 10
41.91874
 20
5.428125
 30
0.0
 11
41.91874
 21
5.375312
 31
0.0
  0
LINE
  5
2C8
330
454
100
AcDbEntity
  8
HATCH
  6
Continuous
 62
     7
370
    30
100
AcDbLine
 10
42.016177
 20
5.709375
 30
0.0
 11
42.016177
 21
5.653125
 31
0.0
  0
LINE
  5
2C9
330
454
100
AcDbEntity
  8
HATCH
  6
Continuous
 62
     7
370
    30
100
AcDbLine
 10
42.016177
 20
5.596875
 30
0.0
 11
42.016177
 21
5.540625
 31
0.0
  0
LINE
  5
2CA
330
454
100
AcDbEntity
  8
HATCH
  6
Continuous
 62
     7
370
    30
100
AcDbLine
 10
42.016177
 20
5.484375
 30
0.0
 11
42.016177
 21
5.428125
 31
0.0
  0
LINE
  5
2CB
330
454
100
AcDbEntity
  8
HATCH
  6
Continuous
 62
     7
370
    30
100
AcDbLine
 10
42.113604
 20
5.765625
 30
0.0
 11
42.113604
 21
5.709375
 31
0.0
  0
LINE
  5
2CC
330
454
100
AcDbEntity
  8
HATCH
  6
Continuous
 62
     7
370
    30
100
AcDbLine
 10
42.113604
 20
5.653125
 30
0.0
 11
42.113604
 21
5.596875
 31
0.0
  0
LINE
  5
2CD
330
454
100
AcDbEntity
  8
HATCH
  6
Continuous
 62
     7
370
    30
100
AcDbLine
 10
42.113604
 20
5.540625
 30
0.0
 11
42.113604
 21
5.484375
 31
0.0
  0
LINE
  5
2CE
330
454
100
AcDbEntity
  8
HATCH
  6
Continuous
 62
     7
370
    30
100
AcDbLine
 10
42.113604
 20
5.428125
 30
0.0
 11
42.113604
 21
5.373479
 31
0.0
  0
LINE
  5
2CF
330
454
100
AcDbEntity
  8
HATCH
  6
Continuous
 62
     7
370
    30
100
AcDbLine
 10
42.211031
 20
5.821875
 30
0.0
 11
42.211031
 21
5.765625
 31
0.0
  0
LINE
  5
2D0
330
454
100
AcDbEntity
  8
HATCH
  6
Continuous
 62
     7
370
    30
100
AcDbLine
 10
42.211031
 20
5.709375
 30
0.0
 11
42.211031
 21
5.653125
 31
0.0
  0
LINE
  5
2D1
330
454
100
AcDbEntity
  8
HATCH
  6
Continuous
 62
     7
370
    30
100
AcDbLine
 10
42.211031
 20
5.596875
 30
0.0
 11
42.211031
 21
5.540625
 31
0.0
  0
LINE
  5
2D2
330
454
100
AcDbEntity
  8
HATCH
  6
Continuous
 62
     7
370
    30
100
AcDbLine
 10
42.211031
 20
5.484375
 30
0.0
 11
42.211031
 21
5.428125
 31
0.0
  0
LINE
  5
2D3
330
454
100
AcDbEntity
  8
HATCH
  6
Continuous
 62
     7
370
    30
100
AcDbLine
 10
42.308458
 20
5.878125
 30
0.0
 11
42.308458
 21
5.821875
 31
0.0
  0
LINE
  5
2D4
330
454
100
AcDbEntity
  8
HATCH
  6
Continuous
 62
     7
370
    30
100
AcDbLine
 10
42.308458
 20
5.765625
 30
0.0
 11
42.308458
 21
5.709375
 31
0.0
  0
LINE
  5
2D5
330
454
100
AcDbEntity
  8
HATCH
  6
Continuous
 62
     7
370
    30
100
AcDbLine
 10
42.308458
 20
5.653125
 30
0.0
 11
42.308458
 21
5.596875
 31
0.0
  0
LINE
  5
2D6
330
454
100
AcDbEntity
  8
HATCH
  6
Continuous
 62
     7
370
    30
100
AcDbLine
 10
42.308458
 20
5.540625
 30
0.0
 11
42.308458
 21
5.484375
 31
0.0
  0
LINE
  5
2D7
330
454
100
AcDbEntity
  8
HATCH
  6
Continuous
 62
     7
370
    30
100
AcDbLine
 10
42.308458
 20
5.428125
 30
0.0
 11
42.308458
 21
5.409115
 31
0.0
  0
LINE
  5
2D8
330
454
100
AcDbEntity
  8
HATCH
  6
Continuous
 62
     7
370
    30
100
AcDbLine
 10
42.405885
 20
5.709375
 30
0.0
 11
42.405885
 21
5.653125
 31
0.0
  0
LINE
  5
2D9
330
454
100
AcDbEntity
  8
HATCH
  6
Continuous
 62
     7
370
    30
100
AcDbLine
 10
42.405885
 20
5.596875
 30
0.0
 11
42.405885
 21
5.540625
 31
0.0
  0
LINE
  5
2DA
330
454
100
AcDbEntity
  8
HATCH
  6
Continuous
 62
     7
370
    30
100
AcDbLine
 10
42.405885
 20
5.484375
 30
0.0
 11
42.405885
 21
5.443354
 31
0.0
  0
LINE
  5
2DB
330
454
100
AcDbEntity
  8
HATCH
  6
Continuous
 62
     7
370
    30
100
AcDbLine
 10
41.723885
 20
5.540625
 30
0.0
 11
41.723885
 21
5.484375
 31
0.0
  0
LINE
  5
2DC
330
454
100
AcDbEntity
  8
HATCH
  6
Continuous
 62
     7
370
    30
100
AcDbLine
 10
41.723885
 20
5.428125
 30
0.0
 11
41.723885
 21
5.372823
 31
0.0
  0
LINE
  5
2DD
330
454
100
AcDbEntity
  8
HATCH
  6
Continuous
 62
     7
370
    30
100
AcDbLine
 10
41.626458
 20
5.547448
 30
0.0
 11
41.626458
 21
5.540625
 31
0.0
  0
LINE
  5
2DE
330
454
100
AcDbEntity
  8
HATCH
  6
Continuous
 62
     7
370
    30
100
AcDbLine
 10
41.626458
 20
5.484375
 30
0.0
 11
41.626458
 21
5.428125
 31
0.0
  0
LINE
  5
2DF
330
454
100
AcDbEntity
  8
HATCH
  6
Continuous
 62
     7
370
    30
100
AcDbLine
 10
41.626458
 20
5.371875
 30
0.0
 11
41.626458
 21
5.370469
 31
0.0
  0
LINE
  5
2E0
330
454
100
AcDbEntity
  8
HATCH
  6
Continuous
 62
     7
370
    30
100
AcDbLine
 10
41.529031
 20
5.49874
 30
0.0
 11
41.529031
 21
5.484375
 31
0.0
  0
LINE
  5
2E1
330
454
100
AcDbEntity
  8
HATCH
  6
Continuous
 62
     7
370
    30
100
AcDbLine
 10
41.529031
 20
5.428125
 30
0.0
 11
41.529031
 21
5.371875
 31
0.0
  0
LINE
  5
2E2
330
454
100
AcDbEntity
  8
HATCH
  6
Continuous
 62
     7
370
    30
100
AcDbLine
 10
41.431604
 20
5.450021
 30
0.0
 11
41.431604
 21
5.428125
 31
0.0
  0
LINE
  5
2E3
330
454
100
AcDbEntity
  8
HATCH
  6
Continuous
 62
     7
370
    30
100
AcDbLine
 10
41.431604
 20
5.371875
 30
0.0
 11
41.431604
 21
5.319156
 31
0.0
  0
LINE
  5
2E4
330
454
100
AcDbEntity
  8
HATCH
  6
Continuous
 62
     7
370
    30
100
AcDbLine
 10
41.334177
 20
5.401302
 30
0.0
 11
41.334177
 21
5.371875
 31
0.0
  0
LINE
  5
2E5
330
454
100
AcDbEntity
  8
HATCH
  6
Continuous
 62
     7
370
    30
100
AcDbLine
 10
41.334177
 20
5.315625
 30
0.0
 11
41.334177
 21
5.314312
 31
0.0
  0
LINE
  5
2E6
330
454
100
AcDbEntity
  8
HATCH
  6
Continuous
 62
     7
370
    30
100
AcDbLine
 10
41.23675
 20
5.352594
 30
0.0
 11
41.23675
 21
5.345083
 31
0.0
  0
LINE
  5
2EA
330
454
100
AcDbEntity
  8
_0
  6
Continuous
 62
     7
370
    30
100
AcDbLine
 10
42.544333
 20
5.225719
 30
0.0
 11
45.21701
 21
5.225719
 31
0.0
  0
LINE
  5
2ED
330
454
100
AcDbEntity
  8
_0
  6
Continuous
 62
     7
370
    30
100
AcDbLine
 10
40.214885
 20
5.097875
 30
0.0
 11
40.214885
 21
5.189646
 31
0.0
  0
LINE
  5
2EE
330
454
100
AcDbEntity
  8
_0
  6
Continuous
 62
     7
370
    30
100
AcDbLine
 10
40.442219
 20
5.189646
 30
0.0
 11
40.214885
 21
5.189646
 31
0.0
  0
LINE
  5
2F0
330
454
100
AcDbEntity
  8
_0
  6
Continuous
 62
     7
370
    30
100
AcDbLine
 10
42.551448
 20
5.921875
 30
0.0
 11
42.555198
 21
5.721917
 31
0.0
  0
LINE
  5
2F2
330
454
100
AcDbEntity
  8
_0
  6
Continuous
 62
     7
370
    30
100
AcDbLine
 10
47.416531
 20
5.147552
 30
0.0
 11
47.774687
 21
5.147552
 31
0.0
  0
LINE
  5
2F3
330
454
100
AcDbEntity
  8
_0
  6
Continuous
 62
     7
370
    30
100
AcDbLine
 10
47.774687
 20
5.001729
 30
0.0
 11
47.774687
 21
5.147552
 31
0.0
  0
LINE
  5
2F6
330
454
100
AcDbEntity
  8
_0
  6
Continuous
 62
     7
370
    30
100
AcDbLine
 10
40.573875
 20
5.184406
 30
0.0
 11
42.544333
 21
5.225458
 31
0.0
  0
LINE
  5
2F7
330
454
100
AcDbEntity
  8
_0
  6
Continuous
 62
     7
370
    30
100
AcDbLine
 10
42.368448
 20
5.918437
 30
0.0
 11
40.914573
 21
5.19151
 31
0.0
  0
LINE
  5
2F8
330
454
100
AcDbEntity
  8
_0
  6
Continuous
 62
     7
370
    30
100
AcDbLine
 10
45.214365
 20
5.971896
 30
0.0
 11
45.218125
 21
5.771927
 31
0.0
  0
LINE
  5
2F9
330
454
100
AcDbEntity
  8
_0
  6
Continuous
 62
     7
370
    30
100
AcDbLine
 10
45.372437
 20
5.974865
 30
0.0
 11
46.859229
 21
5.19151
 31
0.0
  0
LINE
  5
2FA
330
454
100
AcDbEntity
  8
_0
  6
Continuous
 62
     7
370
    30
100
AcDbLine
 10
47.965323
 20
4.922458
 30
0.0
 11
47.178094
 21
5.184865
 31
0.0
  0
LINE
  5
2FB
330
454
100
AcDbEntity
  8
_0
  6
Continuous
 62
     7
370
    30
100
AcDbLine
 10
47.178094
 20
5.184865
 30
0.0
 11
45.21701
 21
5.225719
 31
0.0
  0
LINE
  5
2FC
330
454
100
AcDbEntity
  8
_0
  6
Continuous
 62
     7
370
    30
100
AcDbLine
 10
42.555198
 20
5.721917
 30
0.0
 11
45.218125
 21
5.771927
 31
0.0
  0
LINE
  5
2FD
330
454
100
AcDbEntity
  8
_0
  6
Continuous
 62
     7
370
    30
100
AcDbLine
 10
42.368448
 20
5.918437
 30
0.0
 11
45.372437
 21
5.974865
 31
0.0
  0
LINE
  5
300
330
454
100
AcDbEntity
  8
BORDER
  6
Continuous
 62
     7
370
    30
100
AcDbLine
 10
47.986906
 20
0.625
 30
0.0
 11
47.986906
 21
1.125
 31
0.0
  0
LINE
  5
302
330
454
100
AcDbEntity
  8
BORDER
  6
Continuous
 62
     7
370
    30
100
AcDbLine
 10
46.886906
 20
0.625
 30
0.0
 11
46.886906
 21
1.125
 31
0.0
  0
LINE
  5
303
330
454
100
AcDbEntity
  8
BORDER
  6
Continuous
 62
     7
370
    30
100
AcDbLine
 10
39.986906
 20
0.625
 30
0.0
 11
49.086906
 21
0.625
 31
0.0
  0
LINE
  5
304
330
454
100
AcDbEntity
  8
BORDER
  6
Continuous
 62
     7
370
    30
100
AcDbLine
 10
39.986906
 20
1.125
 30
0.0
 11
49.086906
 21
1.125
 31
0.0
  0
LINE
  5
305
330
454
100
AcDbEntity
  8
BORDER
  6
Continuous
 62
     7
370
    30
100
AcDbLine
 10
49.086906
 20
0.625
 30
0.0
 11
49.086906
 21
7.875
 31
0.0
  0
LINE
  5
306
330
454
100
AcDbEntity
  8
BORDER
  6
Continuous
 62
     7
370
    30
100
AcDbLine
 10
39.986906
 20
7.875
 30
0.0
 11
49.086906
 21
7.875
 31
0.0
  0
LINE
  5
30A
330
454
100
AcDbEntity
  8
DIM
  6
Continuous
 62
     7
370
    13
100
AcDbLine
 10
40.914573
 20
5.24151
 30
0.0
 11
40.914573
 21
5.815271
 31
0.0
  0
LINE
  5
30F
330
454
100
AcDbEntity
  8
DIM
  6
Continuous
 62
     7
370
    13
100
AcDbLine
 10
40.573875
 20
5.766156
 30
0.0
 11
40.216375
 21
5.766156
 31
0.0
  0
LINE
  5
310
330
454
100
AcDbEntity
  8
DIM
  6
Continuous
 62
     7
370
    13
100
AcDbLine
 10
40.914573
 20
5.766156
 30
0.0
 11
41.234417
 21
5.766156
 31
0.0
  0
LINE
  5
311
330
454
100
AcDbEntity
  8
DIM
  6
Continuous
 62
     7
370
    13
100
AcDbLine
 10
41.419187
 20
5.266792
 30
0.0
 11
41.835969
 21
5.283844
 31
0.0
  0
LINE
  5
313
330
454
100
AcDbEntity
  8
DIM
  6
Continuous
 62
     7
370
    13
100
AcDbLine
 10
43.276177
 20
5.735458
 30
0.0
 11
43.276177
 21
5.225719
 31
0.0
  0
LINE
  5
314
330
454
100
AcDbEntity
  8
TEXT
  6
Continuous
 62
     7
370
    13
100
AcDbLine
 10
45.097229
 20
5.969698
 30
0.0
 11
45.734063
 21
6.337698
 31
0.0
  0
LINE
  5
315
330
454
100
AcDbEntity
  8
TEXT
  6
Continuous
 62
     7
370
    13
100
AcDbLine
 10
45.734063
 20
6.337698
 30
0.0
 11
45.854875
 21
6.337698
 31
0.0
  0
LINE
  5
316
330
454
100
AcDbEntity
  8
DEFPOINTS
  6
Continuous
 62
     7
370
    30
100
AcDbLine
 10
43.874313
 20
6.325198
 30
0.0
 11
43.874313
 21
6.325198
 31
0.0
  0
LINE
  5
317
330
454
100
AcDbEntity
  8
DEFPOINTS
  6
Continuous
 62
     7
370
    30
100
AcDbLine
 10
44.635896
 20
6.325198
 30
0.0
 11
44.635896
 21
6.325198
 31
0.0
  0
LINE
  5
318
330
454
100
AcDbEntity
  8
TEXT
  6
Continuous
 62
     7
370
    13
100
AcDbLine
 10
46.367281
 20
5.259562
 30
0.0
 11
45.892969
 21
5.271344
 31
0.0
  0
LINE
  5
319
330
454
100
AcDbEntity
  8
_0
  6
Continuous
 62
     7
370
    13
100
AcDbLine
 10
50.081542
 20
0.25
 30
0.0
 11
49.875
 21
0.25
 31
0.0
  0
LINE
  5
31A
330
454
100
AcDbEntity
  8
_0
  6
Continuous
 62
     7
370
    13
100
AcDbLine
 10
50.081542
 20
8.25
 30
0.0
 11
49.875
 21
8.25
 31
0.0
  0
LINE
  5
31B
330
454
100
AcDbEntity
  8
_0
  6
Continuous
 62
     7
370
    13
100
AcDbLine
 10
49.875
 20
0.043458
 30
0.0
 11
49.875
 21
0.25
 31
0.0
  0
LINE
  5
31C
330
454
100
AcDbEntity
  8
_0
  6
Continuous
 62
     7
370
    13
100
AcDbLine
 10
39.125
 20
0.043458
 30
0.0
 11
39.125
 21
0.25
 31
0.0
  0
LINE
  5
31D
330
454
100
AcDbEntity
  8
_0
  6
Continuous
 62
     7
370
    13
100
AcDbLine
 10
49.875
 20
8.25
 30
0.0
 11
49.875
 21
8.456542
 31
0.0
  0
LINE
  5
31E
330
454
100
AcDbEntity
  8
_0
  6
Continuous
 62
     7
370
    13
100
AcDbLine
 10
39.125
 20
0.25
 30
0.0
 11
38.918458
 21
0.25
 31
0.0
  0
LINE
  5
31F
330
454
100
AcDbEntity
  8
_0
  6
Continuous
 62
     7
370
    13
100
AcDbLine
 10
39.125
 20
8.25
 30
0.0
 11
38.918458
 21
8.25
 31
0.0
  0
LINE
  5
320
330
454
100
AcDbEntity
  8
_0
  6
Continuous
 62
     7
370
    13
100
AcDbLine
 10
39.125
 20
8.25
 30
0.0
 11
39.125
 21
8.456542
 31
0.0
  0
LINE
  5
322
330
454
100
AcDbEntity
  8
DIM
  6
Continuous
 62
     7
370
    30
100
AcDbLine
 10
43.833611
 20
4.172124
 30
0.0
 11
45.157508
 21
4.172124
 31
0.0
  0
INSERT
  5
323
330
454
100
AcDbEntity
  8
DIM
  6
Continuous
 62
     7
370
    13
100
AcDbBlockReference
  2
LARROW
 10
45.097229
 20
5.969698
 30
0.0
 41
11.999998
 42
11.999998
 43
11.999998
 50
210.022062
  0
INSERT
  5
325
330
454
100
AcDbEntity
  8
DIM
  6
Continuous
 62
     7
370
    13
100
AcDbBlockReference
  2
LARROW
 10
46.367281
 20
5.259562
 30
0.0
 41
11.999998
 42
11.999998
 43
11.999998
 50
358.57714
  0
INSERT
  5
327
330
454
100
AcDbEntity
  8
DIM
  6
Continuous
 62
     7
370
    13
100
AcDbBlockReference
  2
LARROW
 10
43.276177
 20
5.735458
 30
0.0
 41
12.0
 42
12.0
 43
12.0
 50
90.0
  0
INSERT
  5
329
330
454
100
AcDbEntity
  8
DIM
  6
Continuous
 62
     7
370
    13
100
AcDbBlockReference
  2
LARROW
 10
43.276177
 20
5.225719
 30
0.0
 41
12.0
 42
12.0
 43
12.0
 50
270.0
  0
INSERT
  5
32B
330
454
100
AcDbEntity
  8
DIM
  6
Continuous
 62
     7
370
    13
100
AcDbBlockReference
  2
LARROW
 10
41.419187
 20
5.266792
 30
0.0
 41
12.000001
 42
12.000001
 43
12.000001
 50
182.342887
  0
INSERT
  5
32D
330
454
100
AcDbEntity
  8
DIM
  6
Continuous
 62
     7
370
    13
100
AcDbBlockReference
  2
LARROW
 10
40.573875
 20
5.766156
 30
0.0
 41
12.0
 42
12.0
 43
12.0
  0
INSERT
  5
32F
330
454
100
AcDbEntity
  8
DIM
  6
Continuous
 62
     7
370
    13
100
AcDbBlockReference
  2
LARROW
 10
40.914573
 20
5.766156
 30
0.0
 41
12.0
 42
12.0
 43
12.0
 50
180.0
  0
LINE
  5
331
330
454
100
AcDbEntity
  8
HATCH
  6
Continuous
 62
     7
370
    30
100
AcDbLine
 10
47.187
 20
5.046573
 30
0.0
 11
47.144719
 21
5.004292
 31
0.0
  0
LINE
  5
332
330
454
100
AcDbEntity
  8
HATCH
  6
Continuous
 62
     7
370
    30
100
AcDbLine
 10
47.010219
 20
5.046573
 30
0.0
 11
46.987083
 21
5.023438
 31
0.0
  0
LINE
  5
333
330
454
100
AcDbEntity
  8
HATCH
  6
Continuous
 62
     7
370
    30
100
AcDbLine
 10
46.833448
 20
5.046573
 30
0.0
 11
46.833208
 21
5.046333
 31
0.0
  0
LINE
  5
334
330
454
100
AcDbEntity
  8
HATCH
  6
Continuous
 62
     7
370
    30
100
AcDbLine
 10
47.363781
 20
5.046573
 30
0.0
 11
47.308365
 21
4.991167
 31
0.0
  0
LINE
  5
335
330
454
100
AcDbEntity
  8
HATCH
  6
Continuous
 62
     7
370
    30
100
AcDbLine
 10
47.540552
 20
5.046573
 30
0.0
 11
47.468698
 21
4.974719
 31
0.0
  0
LINE
  5
336
330
454
100
AcDbEntity
  8
HATCH
  6
Continuous
 62
     7
370
    30
100
AcDbLine
 10
47.153854
 20
5.079719
 30
0.0
 11
47.083354
 21
5.009219
 31
0.0
  0
LINE
  5
337
330
454
100
AcDbEntity
  8
HATCH
  6
Continuous
 62
     7
370
    30
100
AcDbLine
 10
46.977083
 20
5.079719
 30
0.0
 11
46.929385
 21
5.032021
 31
0.0
  0
LINE
  5
338
330
454
100
AcDbEntity
  8
HATCH
  6
Continuous
 62
     7
370
    30
100
AcDbLine
 10
46.800302
 20
5.079719
 30
0.0
 11
46.77551
 21
5.054927
 31
0.0
  0
LINE
  5
339
330
454
100
AcDbEntity
  8
HATCH
  6
Continuous
 62
     7
370
    30
100
AcDbLine
 10
47.330635
 20
5.079719
 30
0.0
 11
47.247
 21
4.996094
 31
0.0
  0
LINE
  5
33A
330
454
100
AcDbEntity
  8
HATCH
  6
Continuous
 62
     7
370
    30
100
AcDbLine
 10
46.943937
 20
5.112865
 30
0.0
 11
46.871677
 21
5.040615
 31
0.0
  0
LINE
  5
33B
330
454
100
AcDbEntity
  8
HATCH
  6
Continuous
 62
     7
370
    30
100
AcDbLine
 10
46.767156
 20
5.112865
 30
0.0
 11
46.717813
 21
5.063521
 31
0.0
  0
LINE
  5
33C
330
454
100
AcDbEntity
  8
HATCH
  6
Continuous
 62
     7
370
    30
100
AcDbLine
 10
47.212635
 20
4.998844
 30
0.0
 11
47.187
 21
5.024479
 31
0.0
  0
LINE
  5
33D
330
454
100
AcDbEntity
  8
HATCH
  6
Continuous
 62
     7
370
    30
100
AcDbLine
 10
47.404823
 20
4.983427
 30
0.0
 11
47.363781
 21
5.024479
 31
0.0
  0
LINE
  5
33E
330
454
100
AcDbEntity
  8
HATCH
  6
Continuous
 62
     7
370
    30
100
AcDbLine
 10
47.615417
 20
4.949604
 30
0.0
 11
47.540552
 21
5.024479
 31
0.0
  0
LINE
  5
33F
330
454
100
AcDbEntity
  8
HATCH
  6
Continuous
 62
     7
370
    30
100
AcDbLine
 10
47.01549
 20
5.019208
 30
0.0
 11
47.010219
 21
5.024479
 31
0.0
  0
LINE
  5
340
330
454
100
AcDbEntity
  8
HATCH
  6
Continuous
 62
     7
370
    30
100
AcDbLine
 10
47.33276
 20
4.989208
 30
0.0
 11
47.330635
 21
4.991333
 31
0.0
  0
LINE
  5
341
330
454
100
AcDbEntity
  8
HATCH
  6
Continuous
 62
     7
370
    30
100
AcDbLine
 10
47.535448
 20
4.963292
 30
0.0
 11
47.507406
 21
4.991333
 31
0.0
  0
LINE
  5
342
330
454
100
AcDbEntity
  8
HATCH
  6
Continuous
 62
     7
370
    30
100
AcDbLine
 10
47.66875
 20
4.940479
 30
0.0
 11
47.651042
 21
4.958188
 31
0.0
  0
LINE
  5
343
330
454
100
AcDbEntity
  8
HATCH
  6
Continuous
 62
     7
370
    30
100
AcDbLine
 10
46.639229
 20
5.086115
 30
0.0
 11
46.608104
 21
5.11724
 31
0.0
  0
LINE
  5
344
330
454
100
AcDbEntity
  8
_0
  6
Continuous
 62
     7
370
    30
100
AcDbLine
 10
47.965323
 20
4.922458
 30
0.0
 11
48.29926
 21
4.922458
 31
0.0
  0
LINE
  5
345
330
454
100
AcDbEntity
  8
_0
  6
Continuous
 62
     7
370
    30
100
AcDbLine
 10
48.29926
 20
4.922458
 30
0.0
 11
48.923
 21
5.130365
 31
0.0
  0
LINE
  5
346
330
454
100
AcDbEntity
  8
_0
  6
Continuous
 62
     7
370
    30
100
AcDbLine
 10
48.848052
 20
5.147552
 30
0.0
 11
48.489896
 21
5.147552
 31
0.0
  0
LINE
  5
347
330
454
100
AcDbEntity
  8
_0
  6
Continuous
 62
     7
370
    30
100
AcDbLine
 10
48.489896
 20
5.001729
 30
0.0
 11
48.489896
 21
5.147552
 31
0.0
  0
LINE
  5
34A
330
454
100
AcDbEntity
  8
DIM
  6
Continuous
 62
     7
370
    13
100
AcDbLine
 10
40.573875
 20
5.232073
 30
0.0
 11
40.573875
 21
5.815271
 31
0.0
  0
LINE
  5
34B
330
454
100
AcDbEntity
  8
HATCH
  6
Continuous
 62
     7
370
    30
100
AcDbLine
 10
40.212094
 20
4.839
 30
0.0
 11
40.220792
 21
4.847698
 31
0.0
  0
LINE
  5
34C
330
454
100
AcDbEntity
  8
HATCH
  6
Continuous
 62
     7
370
    30
100
AcDbLine
 10
40.15374
 20
4.957417
 30
0.0
 11
40.220792
 21
5.024479
 31
0.0
  0
LINE
  5
34D
330
454
100
AcDbEntity
  8
HATCH
  6
Continuous
 62
     7
370
    30
100
AcDbLine
 10
40.175625
 20
4.91301
 30
0.0
 11
40.253937
 21
4.991333
 31
0.0
  0
LINE
  5
34E
330
454
100
AcDbEntity
  8
_0
  6
Continuous
 62
     7
370
    30
100
AcDbLine
 10
40.116937
 20
5.032094
 30
0.0
 11
40.573875
 21
5.184406
 31
0.0
  0
LINE
  5
350
330
454
100
AcDbEntity
  8
_0
  6
Continuous
 62
     7
370
    13
100
AcDbLine
 10
46.968333
 20
4.922458
 30
0.0
 11
47.791146
 21
4.922458
 31
0.0
  0
LINE
  5
351
330
454
100
AcDbEntity
  8
_0
  6
Continuous
 62
     7
370
    13
100
AcDbLine
 10
47.058844
 20
4.9225
 30
0.0
 11
47.058844
 21
5.187344
 31
0.0
  0
LINE
  5
352
330
454
100
AcDbEntity
  8
_0
  6
Continuous
 62
     7
370
    13
100
AcDbLine
 10
47.058844
 20
5.187344
 30
0.0
 11
47.058844
 21
5.52575
 31
0.0
  0
LINE
  5
353
330
454
100
AcDbEntity
  8
_0
  6
Continuous
 62
     7
370
    13
100
AcDbLine
 10
47.058844
 20
4.56451
 30
0.0
 11
47.058844
 21
4.9225
 31
0.0
  0
LINE
  5
354
330
454
100
AcDbEntity
  8
_0
  6
Continuous
 62
     7
370
    13
100
AcDbLine
 10
47.965323
 20
4.580354
 30
0.0
 11
47.965323
 21
4.876115
 31
0.0
  0
LINE
  5
355
330
454
100
AcDbEntity
  8
_0
  6
Continuous
 62
     7
370
    13
100
AcDbLine
 10
48.29926
 20
4.580354
 30
0.0
 11
48.29926
 21
4.876115
 31
0.0
  0
LINE
  5
356
330
454
100
AcDbEntity
  8
TEXT
  6
Continuous
 62
     7
370
    13
100
AcDbLine
 10
47.965323
 20
4.657615
 30
0.0
 11
48.29926
 21
4.657615
 31
0.0
  0
LINE
  5
358
330
454
100
AcDbEntity
  8
TEXT
  6
Continuous
 62
     7
370
    13
100
AcDbLine
 10
48.29926
 20
4.657615
 30
0.0
 11
48.633198
 21
4.657615
 31
0.0
  0
LINE
  5
359
330
454
100
AcDbEntity
  8
TEXT
  6
Continuous
 62
     7
370
    13
100
AcDbLine
 10
47.631385
 20
4.657615
 30
0.0
 11
47.965323
 21
4.657615
 31
0.0
  0
LINE
  5
35A
330
454
100
AcDbEntity
  8
TEXT
  6
Continuous
 62
     7
370
    13
100
AcDbLine
 10
46.935417
 20
4.56451
 30
0.0
 11
47.058844
 21
4.56451
 31
0.0
  0
INSERT
  5
35C
330
454
100
AcDbEntity
  8
TEXT
  6
Continuous
 62
     7
370
    13
100
AcDbBlockReference
  2
LARROW_1
 10
47.058844
 20
4.9225
 30
0.0
 41
12.0
 42
12.0
 43
12.0
 50
90.0
  0
INSERT
  5
367
330
454
100
AcDbEntity
  8
TEXT
  6
Continuous
 62
     7
370
    13
100
AcDbBlockReference
  2
LARROW_1
 10
47.058844
 20
5.187344
 30
0.0
 41
12.0
 42
12.0
 43
12.0
 50
270.0
  0
INSERT
  5
372
330
454
100
AcDbEntity
  8
TEXT
  6
Continuous
 62
     7
370
    13
100
AcDbBlockReference
  2
LARROW_1
 10
47.965323
 20
4.657615
 30
0.0
 41
12.0
 42
12.0
 43
12.0
  0
INSERT
  5
37D
330
454
100
AcDbEntity
  8
TEXT
  6
Continuous
 62
     7
370
    13
100
AcDbBlockReference
  2
LARROW_1
 10
48.29926
 20
4.657615
 30
0.0
 41
12.0
 42
12.0
 43
12.0
 50
180.0
  0
LINE
  5
396
330
454
100
AcDbEntity
  8
DIM
  6
Continuous
 62
     7
370
    13
100
AcDbLine
 10
42.368448
 20
5.973646
 30
0.0
 11
42.368448
 21
7.001198
 31
0.0
  0
LINE
  5
397
330
454
100
AcDbEntity
  8
DIM
  6
Continuous
 62
     7
370
    13
100
AcDbLine
 10
42.551448
 20
5.973646
 30
0.0
 11
42.551448
 21
7.001198
 31
0.0
  0
LINE
  5
398
330
454
100
AcDbEntity
  8
DIM
  6
Continuous
 62
     7
370
    13
100
AcDbLine
 10
42.551448
 20
6.89674
 30
0.0
 11
42.939344
 21
6.89674
 31
0.0
  0
INSERT
  5
399
330
454
100
AcDbEntity
  8
TEXT
  6
Continuous
 62
     7
370
    13
100
AcDbBlockReference
  2
LARROW_1
 10
42.551448
 20
6.89674
 30
0.0
 41
12.0
 42
12.0
 43
12.0
 50
180.0
  0
LINE
  5
3A4
330
454
100
AcDbEntity
  8
DIM
  6
Continuous
 62
     7
370
    13
100
AcDbLine
 10
42.368448
 20
6.89674
 30
0.0
 11
41.971073
 21
6.89674
 31
0.0
  0
INSERT
  5
3A5
330
454
100
AcDbEntity
  8
TEXT
  6
Continuous
 62
     7
370
    13
100
AcDbBlockReference
  2
LARROW_1
 10
42.368448
 20
6.89674
 30
0.0
 41
12.0
 42
12.0
 43
12.0
  0
LINE
  5
3B1
330
454
100
AcDbEntity
  8
DIM
  6
Continuous
 62
     7
370
    13
100
AcDbLine
 10
45.372437
 20
5.973646
 30
0.0
 11
45.372437
 21
7.001198
 31
0.0
  0
LINE
  5
3B2
330
454
100
AcDbEntity
  8
DIM
  6
Continuous
 62
     7
370
    13
100
AcDbLine
 10
45.372437
 20
6.89674
 30
0.0
 11
45.771542
 21
6.89674
 31
0.0
  0
INSERT
  5
3B3
330
454
100
AcDbEntity
  8
DIM
  6
Continuous
 62
     7
370
    13
100
AcDbBlockReference
  2
LARROW
 10
45.372437
 20
6.89674
 30
0.0
 41
12.0
 42
12.0
 43
12.0
 50
180.0
  0
LINE
  5
3B5
330
454
100
AcDbEntity
  8
DIM
  6
Continuous
 62
     7
370
    13
100
AcDbLine
 10
45.214365
 20
6.89674
 30
0.0
 11
44.803271
 21
6.89674
 31
0.0
  0
INSERT
  5
3B6
330
454
100
AcDbEntity
  8
DIM
  6
Continuous
 62
     7
370
    13
100
AcDbBlockReference
  2
LARROW
 10
45.214365
 20
6.89674
 30
0.0
 41
12.0
 42
12.0
 43
12.0
  0
LINE
  5
3B8
330
454
100
AcDbEntity
  8
DIM
  6
Continuous
 62
     7
370
    13
100
AcDbLine
 10
45.214365
 20
5.973646
 30
0.0
 11
45.214365
 21
7.001198
 31
0.0
  0
LINE
  5
3BA
330
454
100
AcDbEntity
  8
DIM
  6
Continuous
 62
     7
370
    13
100
AcDbLine
 10
43.115844
 20
6.182521
 30
0.0
 11
43.115844
 21
6.438438
 31
0.0
  0
LINE
  5
3BB
330
454
100
AcDbEntity
  8
DIM
  6
Continuous
 62
     7
370
    13
100
AcDbLine
 10
43.115844
 20
6.325198
 30
0.0
 11
43.880302
 21
6.325198
 31
0.0
  0
INSERT
  5
3BC
330
454
100
AcDbEntity
  8
TEXT
  6
Continuous
 62
     7
370
    13
100
AcDbBlockReference
  2
LARROW_1
 10
43.115844
 20
6.325198
 30
0.0
 41
12.0
 42
12.0
 43
12.0
 50
180.0
  0
INSERT
  5
3C7
330
454
100
AcDbEntity
  8
TEXT
  6
Continuous
 62
     7
370
    13
100
AcDbBlockReference
  2
LARROW_1
 10
43.880302
 20
6.325198
 30
0.0
 41
12.0
 42
12.0
 43
12.0
  0
LINE
  5
3D6
330
454
100
AcDbEntity
  8
DIM
  6
Continuous
 62
     7
370
    13
100
AcDbLine
 10
43.880302
 20
6.325198
 30
0.0
 11
44.640573
 21
6.325198
 31
0.0
  0
INSERT
  5
3D7
330
454
100
AcDbEntity
  8
TEXT
  6
Continuous
 62
     7
370
    13
100
AcDbBlockReference
  2
LARROW_1
 10
43.880302
 20
6.325198
 30
0.0
 41
12.0
 42
12.0
 43
12.0
 50
180.0
  0
INSERT
  5
3E2
330
454
100
AcDbEntity
  8
TEXT
  6
Continuous
 62
     7
370
    13
100
AcDbBlockReference
  2
LARROW_1
 10
44.640573
 20
6.325198
 30
0.0
 41
12.0
 42
12.0
 43
12.0
  0
LINE
  5
3ED
330
454
100
AcDbEntity
  8
DIM
  6
Continuous
 62
     7
370
    13
100
AcDbLine
 10
44.640573
 20
6.182521
 30
0.0
 11
44.640573
 21
6.438438
 31
0.0
  0
LINE
  5
3EE
330
454
100
AcDbEntity
  8
DIM
  6
Continuous
 62
     7
370
    13
100
AcDbLine
 10
43.880302
 20
5.53774
 30
0.0
 11
43.880302
 21
6.680719
 31
0.0
  0
TEXT
  5
2E7
330
454
100
AcDbEntity
  8
REF
  6
Continuous
 62
     7
370
    30
100
AcDbText
 10
40.634605
 20
1.475333
 30
0.0
 40
0.12
  1
REFERENCE: TM 5-850-2/AFM 88-7, CHAPTER 2, RAILROAD DESIGN AND
 41
0.833333
  7
Style-Arial
100
AcDbText
  0
TEXT
  5
2E8
330
454
100
AcDbEntity
  8
TEXT
  6
Continuous
 62
     7
370
    30
100
AcDbText
 10
42.940911
 20
4.755867
 30
0.0
 40
0.12
  1
COMPACTED SUBGRADE
 41
0.833333
  7
Style-Arial
100
AcDbText
  0
TEXT
  5
2E9
330
454
100
AcDbEntity
  8
TEXT
  6
Continuous
 62
     7
370
    30
100
AcDbText
 10
43.633021
 20
5.28725
 30
0.0
 40
0.12
  1
BALLAST
 41
0.833333
  7
Style-Arial
100
AcDbText
  0
TEXT
  5
2EB
330
454
100
AcDbEntity
  8
_0
  6
Continuous
 62
     7
370
    30
100
AcDbText
 10
40.112927
 20
5.078156
 30
0.0
 40
0.12
  1
1
 41
0.833333
  7
Style-Arial
100
AcDbText
  0
TEXT
  5
2EC
330
454
100
AcDbEntity
  8
_0
  6
Continuous
 62
     7
370
    30
100
AcDbText
 10
40.293252
 20
5.221156
 30
0.0
 40
0.12
  1
3
 41
0.833333
  7
Style-Arial
100
AcDbText
  0
TEXT
  5
2EF
330
454
100
AcDbEntity
  8
TEXT
  6
Continuous
 62
     7
370
    30
100
AcDbText
 10
41.208229
 20
5.41801
 30
0.0
 40
0.12
  1
SLOPE 2:1
 50
26.56505
 41
0.833333
  7
Style-Arial
100
AcDbText
  0
TEXT
  5
2F1
330
454
100
AcDbEntity
  8
TEXT
  6
Continuous
 62
     7
370
    30
100
AcDbText
 10
45.774604
 20
5.827667
 30
0.0
 40
0.12
  1
SLOPE 2:1
 50
333.43495
 41
0.833333
  7
Style-Arial
100
AcDbText
  0
TEXT
  5
2F4
330
454
100
AcDbEntity
  8
_0
  6
Continuous
 62
     7
370
    30
100
AcDbText
 10
47.565917
 20
5.187562
 30
0.0
 40
0.12
  1
3
 41
0.833333
  7
Style-Arial
100
AcDbText
  0
TEXT
  5
2F5
330
454
100
AcDbEntity
  8
_0
  6
Continuous
 62
     7
370
    30
100
AcDbText
 10
47.806969
 20
5.00076
 30
0.0
 40
0.12
  1
1
 41
0.833333
  7
Style-Arial
100
AcDbText
  0
TEXT
  5
2FE
330
454
100
AcDbEntity
  8
BORDER
  6
Continuous
 62
     7
370
    30
100
AcDbText
 10
48.425506
 20
0.752348
 30
0.0
 40
0.12
  1
2-36c
 41
0.833333
  7
Style-Arial
100
AcDbText
  0
TEXT
  5
2FF
330
454
100
AcDbEntity
  8
BORDER
  6
Continuous
 62
     7
370
    30
100
AcDbText
 10
48.32931
 20
0.932691
 30
0.0
 40
0.12
  1
FIGURE
 41
0.833333
  7
Style-Arial
100
AcDbText
  0
TEXT
  5
301
330
454
100
AcDbEntity
  8
BORDER
  6
Continuous
 62
     7
370
    30
100
AcDbText
 10
47.23747
 20
0.937819
 30
0.0
 40
0.12
  1
DATE
 41
0.833333
  7
Style-Arial
100
AcDbText
  0
TEXT
  5
307
330
454
100
AcDbEntity
  8
BORDER
  6
Continuous
 62
     7
370
    30
100
AcDbText
 10
47.117927
 20
0.749638
 30
0.0
 40
0.12
  1
AUG 1992
 41
0.833333
  7
Style-Arial
100
AcDbText
  0
TEXT
  5
308
330
454
100
AcDbEntity
  8
REF
  6
Continuous
 62
     7
370
    30
100
AcDbText
 10
41.58121
 20
1.289667
 30
0.0
 40
0.12
  1
CONSTRUCTION OF ARMY AND AIRFORCE INSTALLATIONS.
 41
0.833333
  7
Style-Arial
100
AcDbText
  0
TEXT
  5
309
330
454
100
AcDbEntity
  8
DIM
  6
Continuous
 62
     7
370
    30
100
AcDbText
 10
40.620844
 20
5.597542
 30
0.0
 40
0.12
  1
MIN
 41
0.833333
  7
Style-Arial
100
AcDbText
  0
TEXT
  5
30B
330
454
100
AcDbEntity
  8
DIM
  6
Continuous
 62
     7
370
    30
100
AcDbText
 10
43.202365
 20
5.368781
 30
0.0
 40
0.12
  1
10"
 50
90.0
 41
0.833333
  7
Style-Arial
100
AcDbText
  0
TEXT
  5
30C
330
454
100
AcDbEntity
  8
TITLE
  6
Continuous
 62
     7
370
    30
100
AcDbText
 10
41.992794
 20
0.812964
 30
0.0
 40
0.12
  1
TYPICAL BALLAST SECTION - CURVES
 41
0.833333
  7
Style-Arial
100
AcDbText
  0
TEXT
  5
30D
330
454
100
AcDbEntity
  8
TEXT
  6
Continuous
 62
     7
370
    30
100
AcDbText
 10
45.886104
 20
6.266458
 30
0.0
 40
0.12
  1
TOP OF TIE
 50
1.076017
 41
0.833333
  7
Style-Arial
100
AcDbText
  0
TEXT
  5
30E
330
454
100
AcDbEntity
  8
DIM
  6
Continuous
 62
     7
370
    30
100
AcDbText
 10
40.662916
 20
5.792521
 30
0.0
 40
0.12
  1
18"
 41
0.833333
  7
Style-Arial
100
AcDbText
  0
TEXT
  5
312
330
454
100
AcDbEntity
  8
DIM
  6
Continuous
 62
     7
370
    30
100
AcDbText
 10
43.473083
 20
5.367302
 30
0.0
 40
0.12
  1
MIN
 50
90.0
 41
0.833333
  7
Style-Arial
100
AcDbText
  0
TEXT
  5
321
330
454
100
AcDbEntity
  8
TITLE
  6
Continuous
 62
     7
370
    30
100
AcDbText
 10
43.863059
 20
4.240248
 30
0.0
 40
0.12
  1
TYPICAL SECTION
 41
0.833333
  7
Style-Arial
100
AcDbText
  0
TEXT
  5
348
330
454
100
AcDbEntity
  8
_0
  6
Continuous
 62
     7
370
    30
100
AcDbText
 10
48.630646
 20
5.187562
 30
0.0
 40
0.12
  1
3
 41
0.833333
  7
Style-Arial
100
AcDbText
  0
TEXT
  5
349
330
454
100
AcDbEntity
  8
_0
  6
Continuous
 62
     7
370
    30
100
AcDbText
 10
48.371198
 20
4.995312
 30
0.0
 40
0.12
  1
1
 41
0.833333
  7
Style-Arial
100
AcDbText
  0
TEXT
  5
34F
330
454
100
AcDbEntity
  8
_0
  6
Continuous
 62
     7
370
    30
100
AcDbText
 10
46.548943
 20
4.843896
 30
0.0
 40
0.12
  1
CUT
 41
0.833333
  7
Style-Arial
100
AcDbText
  0
TEXT
  5
357
330
454
100
AcDbEntity
  8
_0
  6
Continuous
 62
     7
370
    30
100
AcDbText
 10
48.076062
 20
4.696375
 30
0.0
 40
0.12
  1
1'
 41
0.833333
  7
Style-Arial
100
AcDbText
  0
TEXT
  5
35B
330
454
100
AcDbEntity
  8
_0
  6
Continuous
 62
     7
370
    30
100
AcDbText
 10
46.431536
 20
4.500594
 30
0.0
 40
0.12
  1
1' TYP.
 41
0.833333
  7
Style-Arial
100
AcDbText
  0
TEXT
  5
388
330
454
100
AcDbEntity
  8
TEXT
  6
Continuous
 62
     7
370
    30
100
AcDbText
 10
44.783531
 20
5.255719
 30
0.0
 40
0.12
  1
SLOPE 2%
 50
358.806511
 41
0.833333
  7
Style-Arial
100
AcDbText
  0
TEXT
  5
389
330
454
100
AcDbEntity
  8
TEXT
  6
Continuous
 62
     7
370
    30
100
AcDbText
 10
44.779427
 20
5.076135
 30
0.0
 40
0.12
  1
(TYPICAL)
 50
358.806511
 41
0.833333
  7
Style-Arial
100
AcDbText
  0
TEXT
  5
38A
330
454
100
AcDbEntity
  8
TEXT
  6
Continuous
 62
     7
370
    30
100
AcDbText
 10
44.003281
 20
5.794281
 30
0.0
 40
0.12
  1
TIE
 41
0.833333
  7
Style-Arial
100
AcDbText
  0
TEXT
  5
38B
330
454
100
AcDbEntity
  8
TEXT
  6
Continuous
 62
     7
370
    30
100
AcDbText
 10
41.892104
 20
5.04349
 30
0.0
 40
0.12
  1
(TYPICAL)
 50
1.169172
 41
0.833333
  7
Style-Arial
100
AcDbText
  0
TEXT
  5
38C
330
454
100
AcDbEntity
  8
TEXT
  6
Continuous
 62
     7
370
    30
100
AcDbText
 10
41.904448
 20
5.244187
 30
0.0
 40
0.12
  1
SLOPE 2%
 50
1.169172
 41
0.833333
  7
Style-Arial
100
AcDbText
  0
TEXT
  5
38D
330
454
100
AcDbEntity
  8
TEXT
  6
Continuous
 62
     7
370
    30
100
AcDbText
 10
40.679104
 20
4.737958
 30
0.0
 40
0.12
  1
FILL
 41
0.833333
  7
Style-Arial
100
AcDbText
  0
TEXT
  5
38E
330
454
100
AcDbEntity
  8
TEXT
  6
Continuous
 62
     7
370
    30
100
AcDbText
 10
43.960948
 20
3.969667
 30
0.0
 40
0.12
  1
NOT TO SCALE
 41
0.833333
  7
Style-Arial
100
AcDbText
  0
TEXT
  5
38F
330
454
100
AcDbEntity
  8
NOTES
  6
Continuous
 62
     7
370
    30
100
AcDbText
 10
41.304217
 20
3.104281
 30
0.0
 40
0.12
  1
TRAFFIC DENSITY AND WHEEL LOADS.
 41
0.833333
  7
Style-Arial
100
AcDbText
  0
TEXT
  5
390
330
454
100
AcDbEntity
  8
NOTES
  6
Continuous
 62
     7
370
    30
100
AcDbText
 10
41.300286
 20
2.686979
 30
0.0
 40
0.12
  1
TIE AT THE LOW (INSIDE) RAIL OF THE CURVE.
 41
0.833333
  7
Style-Arial
100
AcDbText
  0
TEXT
  5
391
330
454
100
AcDbEntity
  8
NOTES
  6
Continuous
 62
     7
370
    30
100
AcDbText
 10
41.295014
 20
2.252229
 30
0.0
 40
0.12
  1
8 INCHES SHOULD BE USED.
 41
0.833333
  7
Style-Arial
100
AcDbText
  0
TEXT
  5
392
330
454
100
AcDbEntity
  8
NOTES
  6
Continuous
 62
     7
370
    30
100
AcDbText
 10
40.59654
 20
3.295281
 30
0.0
 40
0.12
  1
 NOTE: 1.  DEPTH OF BALLAST SECTION WILL DEPEND ON SUBGRADE STRENGTH,
 41
0.833333
  7
Style-Arial
100
AcDbText
  0
TEXT
  5
393
330
454
100
AcDbEntity
  8
NOTES
  6
Continuous
 62
     7
370
    30
100
AcDbText
 10
41.101167
 20
2.857906
 30
0.0
 40
0.12
  1
2.  MINIMUM DEPTH OF BALLAST IS 10 INCHES BELOW THE BOTTOM OF THE
 41
0.833333
  7
Style-Arial
100
AcDbText
  0
TEXT
  5
394
330
454
100
AcDbEntity
  8
NOTES
  6
Continuous
 62
     7
370
    30
100
AcDbText
 10
41.097313
 20
2.418417
 30
0.0
 40
0.12
  1
3.  ON CURVES OF 6 DEGREES OR GREATER A BALLAST SHOULDER WIDTH OF
 41
0.833333
  7
Style-Arial
100
AcDbText
  0
TEXT
  5
395
330
454
100
AcDbEntity
  8
NOTES
  6
Continuous
 62
     7
370
    30
100
AcDbText
 10
41.101281
 20
2.001187
 30
0.0
 40
0.12
  1
4.  CUT AND FILL ACCORDING TO LOCAL CONDITIONS.
 41
0.833333
  7
Style-Arial
100
AcDbText
  0
TEXT
  5
3B0
330
454
100
AcDbEntity
  8
DIM
  6
Continuous
 62
     7
370
    30
100
AcDbText
 10
41.495418
 20
6.830385
 30
0.0
 40
0.12
  1
6" MIN
 50
1.076017
 41
0.833333
  7
Style-Arial
100
AcDbText
  0
TEXT
  5
3B9
330
454
100
AcDbEntity
  8
DIM
  6
Continuous
 62
     7
370
    30
100
AcDbText
 10
45.826
 20
6.83574
 30
0.0
 40
0.12
  1
6" MIN
 50
1.076017
 41
0.833333
  7
Style-Arial
100
AcDbText
  0
TEXT
  5
3D2
330
454
100
AcDbEntity
  8
DIM
  6
Continuous
 62
     7
370
    30
100
AcDbText
 10
43.251136
 20
6.415402
 30
0.0
 40
0.12
  1
2'-4-1/4"
 50
1.076017
 41
0.833333
  7
Style-Arial
100
AcDbText
  0
TEXT
  5
3D3
330
454
100
AcDbEntity
  8
_0
  6
Continuous
 62
     7
370
    30
100
AcDbText
 10
43.869792
 20
6.729521
 30
0.0
 40
0.12
  1
L
 50
2.076017
 41
0.833333
  7
Style-Arial
100
AcDbText
  0
TEXT
  5
3D4
330
454
100
AcDbEntity
  8
_0
  6
Continuous
 62
     7
370
    30
100
AcDbText
 10
43.826833
 20
6.782604
 30
0.0
 40
0.12
  1
C
 50
2.076017
 41
0.833333
  7
Style-Arial
100
AcDbText
  0
TEXT
  5
3D5
330
454
100
AcDbEntity
  8
DIM
  6
Continuous
 62
     7
370
    30
100
AcDbText
 10
43.987448
 20
6.426884
 30
0.0
 40
0.12
  1
2'-4-1/4"
 50
1.076017
 41
0.833333
  7
Style-Arial
100
AcDbText
  0
ENDSEC
  0
SECTION
  2
OBJECTS
  0
DICTIONARY
  5
448
330
0
100
AcDbDictionary
281
     1
  3
ACAD_COLOR
350
467
  3
ACAD_GROUP
350
464
  3
ACAD_LAYOUT
350
458
  3
ACAD_MATERIAL
350
466
  3
ACAD_MLINESTYLE
350
452
  3
ACAD_PLOTSETTINGS
350
465
  3
ACAD_PLOTSTYLENAME
350
447
  3
ACAD_TABLESTYLE
350
481
  3
AcadDim
350
474
  3
MicroStation
350
46C
  0
DICTIONARY
  5
444
330
443
100
AcDbDictionary
280
     1
281
     1
  3
ACAD_LAYERFILTERS
360
46B
  3
ACAD_LAYERSTATES
360
445
  0
DICTIONARY
  5
47D
330
454
100
AcDbDictionary
280
     1
281
     1
  3
ACAD_SORTENTS
360
47E
  0
DICTIONARY
  5
467
102
{ACAD_REACTORS
330
448
102
}
330
448
100
AcDbDictionary
281
     1
  0
DICTIONARY
  5
464
102
{ACAD_REACTORS
330
448
102
}
330
448
100
AcDbDictionary
281
     1
  0
DICTIONARY
  5
458
102
{ACAD_REACTORS
330
448
102
}
330
448
100
AcDbDictionary
281
     1
  3
Layout1
350
45C
  3
Model
350
457
  0
DICTIONARY
  5
466
102
{ACAD_REACTORS
330
448
102
}
330
448
100
AcDbDictionary
281
     1
  0
DICTIONARY
  5
452
102
{ACAD_REACTORS
330
448
102
}
330
448
100
AcDbDictionary
281
     1
  3
Standard
350
451
  0
DICTIONARY
  5
465
102
{ACAD_REACTORS
330
448
102
}
330
448
100
AcDbDictionary
281
     1
  0
ACDBDICTIONARYWDFLT
  5
447
102
{ACAD_REACTORS
330
448
102
}
330
448
100
AcDbDictionary
281
     1
  3
Normal
350
446
100
AcDbDictionaryWithDefault
340
446
  0
DICTIONARY
  5
481
102
{ACAD_REACTORS
330
448
102
}
330
448
100
AcDbDictionary
281
     1
  0
XRECORD
  5
474
102
{ACAD_REACTORS
330
448
102
}
330
448
100
AcDbXrecord
280
     1
 90
   990106
  3
 
 60
     0
 61
     0
 62
     1
 63
     1
 64
     0
 65
     0
 66
     0
 67
     3
 68
     1
 69
     1
 70
     0
 71
     0
 72
     0
 40
0.0
170
     0
  0
DICTIONARY
  5
46C
102
{ACAD_REACTORS
330
448
102
}
330
448
100
AcDbDictionary
281
     1
  3
ApplicationElement 1081
350
439
  3
ApplicationElement 1087
350
43F
  3
ApplicationElement 1088
350
440
  3
ModelApplicationElement 0 1080
350
438
  0
DICTIONARY
  5
46B
102
{ACAD_REACTORS
330
444
102
}
330
444
100
AcDbDictionary
281
     1
  0
DICTIONARY
  5
445
102
{ACAD_REACTORS
330
444
102
}
330
444
100
AcDbDictionary
281
     1
  0
SORTENTSTABLE
  5
47E
102
{ACAD_REACTORS
330
47D
102
}
330
47D
100
AcDbSortentsTable
330
454
331
2E7
  5
35B
331
2E8
  5
35C
331
2E9
  5
367
331
2EA
  5
2E7
331
2EB
  5
372
331
2EC
  5
37D
331
2ED
  5
2E8
331
2EE
  5
2E9
331
2EF
  5
388
331
2F0
  5
2EA
331
2F1
  5
389
331
2F2
  5
2EB
331
2F3
  5
2EC
331
2F4
  5
38A
331
2F5
  5
38B
331
2F6
  5
2ED
331
2F7
  5
2EE
331
2F8
  5
2EF
331
2F9
  5
2F0
331
2FA
  5
2F1
331
2FB
  5
2F2
331
2FC
  5
2F3
331
2FD
  5
2F4
331
2FE
  5
38C
331
2FF
  5
38D
331
300
  5
2F5
331
301
  5
38E
331
302
  5
2F6
331
303
  5
2F7
331
304
  5
2F8
331
305
  5
2F9
331
306
  5
2FA
331
307
  5
38F
331
308
  5
390
331
309
  5
391
331
30A
  5
2FB
331
30B
  5
392
331
30C
  5
393
331
30D
  5
394
331
30E
  5
395
331
30F
  5
2FC
331
310
  5
2FD
331
311
  5
2FE
331
312
  5
396
331
313
  5
2FF
331
314
  5
300
331
315
  5
301
331
316
  5
302
331
317
  5
303
331
318
  5
304
331
319
  5
305
331
31A
  5
306
331
31B
  5
307
331
31C
  5
308
331
31D
  5
309
331
31E
  5
30A
331
31F
  5
30B
331
320
  5
30C
331
321
  5
397
331
322
  5
30D
331
323
  5
30E
331
325
  5
30F
331
327
  5
310
331
329
  5
311
331
32B
  5
312
331
32D
  5
313
331
32F
  5
314
331
331
  5
315
331
332
  5
316
331
333
  5
317
331
334
  5
318
331
335
  5
319
331
336
  5
31A
331
337
  5
31B
331
338
  5
31C
331
339
  5
31D
331
33A
  5
31E
331
33B
  5
31F
331
33C
  5
320
331
33D
  5
321
331
33E
  5
322
331
33F
  5
323
331
340
  5
325
331
341
  5
327
331
342
  5
329
331
343
  5
32B
331
344
  5
32D
331
345
  5
32F
331
346
  5
331
331
347
  5
332
331
348
  5
398
331
349
  5
399
331
34A
  5
333
331
34B
  5
334
331
34C
  5
335
331
34D
  5
336
331
34E
  5
337
331
34F
  5
3A4
331
350
  5
338
331
351
  5
339
331
352
  5
33A
331
353
  5
33B
331
354
  5
33C
331
355
  5
33D
331
356
  5
33E
331
357
  5
3A5
331
358
  5
33F
331
359
  5
340
331
35A
  5
341
331
35B
  5
3B0
331
35C
  5
342
331
367
  5
343
331
372
  5
344
331
37D
  5
345
331
388
  5
3B1
331
389
  5
3B2
331
38A
  5
3B3
331
38B
  5
3B5
331
38C
  5
3B6
331
38D
  5
3B8
331
38E
  5
3B9
331
38F
  5
3BA
331
390
  5
3BB
331
391
  5
3BC
331
392
  5
3C7
331
393
  5
3D2
331
394
  5
3D3
331
395
  5
3D4
331
396
  5
346
331
397
  5
347
331
398
  5
348
331
399
  5
349
331
3A4
  5
34A
331
3A5
  5
34B
331
3B0
  5
3D5
331
3B1
  5
34C
331
3B2
  5
34D
331
3B3
  5
34E
331
3B5
  5
34F
331
3B6
  5
350
331
3B8
  5
351
331
3B9
  5
3D6
331
3BA
  5
352
331
3BB
  5
353
331
3BC
  5
354
331
3C7
  5
355
331
3D2
  5
3D7
331
3D3
  5
3E2
331
3D4
  5
3ED
331
3D5
  5
3EE
331
3D6
  5
356
331
3D7
  5
357
331
3E2
  5
358
331
3ED
  5
359
331
3EE
  5
35A
  0
LAYOUT
  5
45C
102
{ACAD_REACTORS
330
458
330
458
102
}
102
{ACAD_XDICTIONARY
360
45D
102
}
330
458
100
AcDbPlotSettings
  1

  2
none_device
  4
Letter_(8.50_x_11.00_Inches)
  6

 40
6.35
 41
6.35
 42
6.350006
 43
6.350006
 44
215.899994
 45
279.399994
 46
0.0
 47
0.0
 48
0.0
 49
0.0
140
0.0
141
0.0
142
1.0
143
1.0
 70
   688
 72
     0
 73
     1
 74
     5
  7

 75
    16
 76
     0
 77
     2
 78
   300
147
1.0
148
0.0
149
0.0
100
AcDbLayout
  1
Layout1
 70
     1
 71
     1
 10
-0.25
 20
-0.25
 11
10.75
 21
8.25
 12
0.0
 22
0.0
 32
0.0
 14
1.049744
 24
0.799667
 34
-0.001526
 15
9.450623
 25
7.200577
 35
0.0
146
0.0
 13
0.0
 23
0.0
 33
0.0
 16
1.0
 26
0.0
 36
0.0
 17
0.0
 27
1.0
 37
0.0
 76
     0
330
459
1001
ACAD_PSEXT
1000
None
1000
None
1000
Not applicable
1000
The layout will not be plotted unless a new plotter configuration name is selected.
1070
     0
  0
LAYOUT
  5
457
102
{ACAD_REACTORS
330
458
330
458
102
}
330
458
100
AcDbPlotSettings
  1

  2
none_device
  4
ANSI_A_(8.50_x_11.00_Inches)
  6

 40
6.35
 41
19.049999
 42
6.350006
 43
19.049988
 44
215.899994
 45
279.399994
 46
0.0
 47
0.0
 48
0.0
 49
0.0
140
0.0
141
0.0
142
1.0
143
2.584895
 70
 11952
 72
     0
 73
     1
 74
     0
  7

 75
     0
 76
     0
 77
     2
 78
   300
147
0.386863
148
0.0
149
0.0
100
AcDbLayout
  1
Model
 70
     1
 71
     0
 10
0.0
 20
0.0
 11
12.0
 21
9.0
 12
0.0
 22
0.0
 32
0.0
 14
0.0
 24
0.0
 34
0.0
 15
0.0
 25
0.0
 35
0.0
146
0.0
 13
0.0
 23
0.0
 33
0.0
 16
1.0
 26
0.0
 36
0.0
 17
0.0
 27
1.0
 37
0.0
 76
     0
330
454
331
49
  0
MLINESTYLE
  5
451
102
{ACAD_REACTORS
330
452
102
}
330
452
100
AcDbMlineStyle
  2
STANDARD
 70
     0
  3

 62
   256
 51
90.0
 52
90.0
 71
     2
 49
0.5
 62
   256
  6
BYLAYER
 49
-0.5
 62
   256
  6
BYLAYER
  0
ACDBPLACEHOLDER
  5
446
102
{ACAD_REACTORS
330
447
102
}
330
447
  0
XRECORD
  5
439
102
{ACAD_REACTORS
330
46C
102
}
330
46C
100
AcDbXrecord
280
     1
310
3E4F020000004D6F64656C6572000000000000000000000000000000000000000000000000000000000000000000000000000000000000000000000000000000000000000000000000000000000000000000000000000000000000000000000000000000000000000000000000000000000000000000000000000000000000
310
00000000000000000000000000000000000000000000000000000000000000000000000000000000000000000000000000000000000000000000000000000000000000000000000000000000000000000000000000000000000000000000000000000000000000000000000000000000000000000000000000000000000000
310
00
310
00000000000000000000000000000000000000000000000000000000000000000000000000000000000000000000000000000000000000000000000000000000000000000000000000000000000000000000000000000000000000000000000000000000000000000000000000000000000000000000000000000000000000
310
00000000000000000000000000000000000000000000000000000000000000000000000000000000000000000000000000000000000000000000000000000000000000000000000000000000000000000000000000000000000000000000000000000000000000000000000000000000000000000000000000000000000000
310
00
310
00000000000000000000000000000000000000000000000000000000000000000000000000000000000000000000000000000000000000000000000000000000000000000000000000000000000000000000000000000000000000000000000000000000000000000000000000000000000000000000000000000000000000
310
00000000000000000000000000000000000000000000000000000000000000000000000000000000000000000000000000000000000000000000000000000000000000000000000000000000000000000000000000000000000000000000000000000000000000000000000000000000000000000000000000000000000000
310
00
310
00000000000000000000000000000000000000000000000000000000000000000000000000000000000000000000000000000000000000000000000000000000000000000000000000000000000000000000000000000000000000000000000000000000000000000000000000000000000000000000000000000000000000
310
00000000000000000000000000000000000000000000000000000000000000000000000000000000000000000000000000000000000000000000000000000000000000000000000000000000000000000000000000000000000000000000000000000000000000000000000000000000000000000000000000000000000000
310
00
310
00000000000000000000000000000000000000000000000000000000000000000000000000000000000000000000000000000000000000000000000000000000000000000000000000000000000000000000000000000000000000000000000000000000000000000000000000000000000000000000000000000000000000
310
00000000000000000000000000000000000000000000000000000000000000000000000000000000000000000000000000000000000000000000000000000000000000000000000000000000000000000000000000000000000000000000000000000000000000000000000000000000000000000000000000000000000000
310
00
310
00000000000000000000000000000000000000000000000000000000000000000000000000000000000000000000000000000000000000000000000000000000000000000000000000000000000000000000000000000000000000000000000000000000000000000000000000000000000000000000000000000000000000
310
00000000000000000000000000000000000000000000000000000000000000000000000000000000000000000000000000000000000000000000000000000000000000000000000000000000000000000000000000000000000000000000000000000000000000000000000000000000000000000000000000000000000000
310
00
310
00000000000000000000000000000000000000000000000000000000000000000000000000000000000000000000000000000000000000000000000000000000000000000000000000000000000000000000000000000000000000000000000000000000000000000000000000000000000000000000000000000000000000
310
00000000000000000000000000000000000000000000000000000000000000000000000000000000000000000000000000000000000000000000000000000000000000000000000000000000000000000000000000000000000000000000000000000000000000000000000000000000000000000000000000000000000000
310
00
310
00000000000000000000000000000000000000000000000000000000000000000000000000000000000000000000000000000000000000000000000000000000000000000000000000000000000000000000000000000000000000000000000000000000000000000000000000000000000000000000000000000000000000
310
00000000000000000000000000000000000000000000000000000000000000000000000000000000000000000000000000000000000000000000000000000000000000000000000000000000000000000000000000000000000000000000000000000000000000000000000000000000000000000000000000000000000000
310
00
310
00000000000000000000000000000000000000000000000000000000000000000000000000000000000000000000000000000000000000000000000000000000000000000000000000000000000000000000000000000000000000000000000000000000000000000000000000000000000000000000000000000000000000
310
00000000000000000000000000000000000000000000000000000000000000000000000000000000000000000000000000000000000000000000000000000000000000000000000000000000000000000000000000000000000000000000000000000000000000000000000000000000000000000000000000000000000000
310
00
310
00000000000000000000000000000000000000000000000000000000000000000000000000000000000000000000000000000000000000000000000000000000000000000000000000000000000000000000000000000000000000000000000000000000000000000000000000000000000000000000000000000000000000
310
00000000000000000000000000000000000000000000000000000000000000000000000000000000000000000000000000000000000000000000000000000000000000000000000000000000000000000000000000000000000000000000000000000000000000000000000000000000000000000000000000000000000000
310
00
310
00000000000000000000000000000000000000000000000000000000000000000000000000000000000000000000000000000000000000000000000000000000000000000000000000000000000000000000000000000000000000000000000000000000000000000000000000000000000000000000000000000000000000
310
00000000000000000000000000000000000000000000000000000000000000000000000000000000000000000000000000000000000000000000000000000000000000000000000000000000000000000000000000000000000000000000000000000000000000000000000000000000000000000000000000000000000000
310
00
310
00000000000000000000000000000000000000000000000000000000000000000000000000000000000000000000000000000000000000000000000000000000000000000000000000000000000000000000000000000000000000000000000000000000000000000000000000000000000000000000000000000000000000
310
00000000000000000000000000000000000000000000000000000000000000000000000000000000000000000000000000000000000000000000000000000000000000000000000000000000000000000000000000000000000000000000000000000000000000000000000000000000000000000000000000000000000000
310
00
310
00000000000000000000000000000000000000000000000000000000000000000000000000000000000000000000000000000000000000000000000000000000000000000000000000000000000000000000000000000000000000000000000000000000000000000000000000000000000000000000000000000000000000
310
00000000000000000000000000000000000000000000000000000000000000000000000000000000000000000000000000000000000000000000000000000000000000000000000000000000000000000000000000000000000000000000000000000000000000000000000000000000000000000000000000000000000000
310
00
310
00000000000000000000000000000000000000000000000000000000000000000000000000000000000000000000000000000000000000000000000000000000000000000000000000000000000000000000000000000000000000000000000000000000000000000000000000000000000000
  0
XRECORD
  5
43F
102
{ACAD_REACTORS
330
46C
102
}
330
46C
100
AcDbXrecord
280
     1
310
3E4F020000004D6F64656C6572000000000000000000000000000000000000000000000000000000000000000000000000000000000000000000000000000000000000000000000000000000000000000000000000000000000000000000000000000000000000000000000000000000000000000000000000000000000000
310
00000000000000000000000000000000000000000000000000000000000000000000000000000000000000000000000000000000000000000000000000000000000000000000000000000000000000000000000000000000000000000000000000000000000000000000000000000000000000000000000000000000000000
310
00
310
00000000000000000000000000000000000000000000000000000000000000000000000000000000000000000000000000000000000000000000000000000000000000000000000000000000000000000000000000000000000000000000000000000000000000000000000000000000000000000000000000000000000000
310
00000000000000000000000000000000000000000000000000000000000000000000000000000000000000000000000000000000000000000000000000000000000000000000000000000000000000000000000000000000000000000000000000000000000000000000000000000000000000000000000000000000000000
310
00
310
00000000000000000000000000000000000000000000000000000000000000000000000000000000000000000000000000000000000000000000000000000000000000000000000000000000000000000000000000000000000000000000000000000000000000000000000000000000000000000000000000000000000000
310
00000000000000000000000000000000000000000000000000000000000000000000000000000000000000000000000000000000000000000000000000000000000000000000000000000000000000000000000000000000000000000000000000000000000000000000000000000000000000000000000000000000000000
310
00
310
00000000000000000000000000000000000000000000000000000000000000000000000000000000000000000000000000000000000000000000000000000000000000000000000000000000000000000000000000000000000000000000000000000000000000000000000000000000000000000000000000000000000000
310
00000000000000000000000000000000000000000000000000000000000000000000000000000000000000000000000000000000000000000000000000000000000000000000000000000000000000000000000000000000000000000000000000000000000000000000000000000000000000000000000000000000000000
310
00
310
00000000000000000000000000000000000000000000000000000000000000000000000000000000000000000000000000000000000000000000000000000000000000000000000000000000000000000000000000000000000000000000000000000000000000000000000000000000000000000000000000000000000000
310
00000000000000000000000000000000000000000000000000000000000000000000000000000000000000000000000000000000000000000000000000000000000000000000000000000000000000000000000000000000000000000000000000000000000000000000000000000000000000000000000000000000000000
310
00
310
00000000000000000000000000000000000000000000000000000000000000000000000000000000000000000000000000000000000000000000000000000000000000000000000000000000000000000000000000000000000000000000000000000000000000000000000000000000000000000000000000000000000000
310
00000000000000000000000000000000000000000000000000000000000000000000000000000000000000000000000000000000000000000000000000000000000000000000000000000000000000000000000000000000000000000000000000000000000000000000000000000000000000000000000000000000000000
310
00
310
00000000000000000000000000000000000000000000000000000000000000000000000000000000000000000000000000000000000000000000000000000000000000000000000000000000000000000000000000000000000000000000000000000000000000000000000000000000000000000000000000000000000000
310
00000000000000000000000000000000000000000000000000000000000000000000000000000000000000000000000000000000000000000000000000000000000000000000000000000000000000000000000000000000000000000000000000000000000000000000000000000000000000000000000000000000000000
310
00
310
00000000000000000000000000000000000000000000000000000000000000000000000000000000000000000000000000000000000000000000000000000000000000000000000000000000000000000000000000000000000000000000000000000000000000000000000000000000000000000000000000000000000000
310
00000000000000000000000000000000000000000000000000000000000000000000000000000000000000000000000000000000000000000000000000000000000000000000000000000000000000000000000000000000000000000000000000000000000000000000000000000000000000000000000000000000000000
310
00
310
00000000000000000000000000000000000000000000000000000000000000000000000000000000000000000000000000000000000000000000000000000000000000000000000000000000000000000000000000000000000000000000000000000000000000000000000000000000000000000000000000000000000000
310
00000000000000000000000000000000000000000000000000000000000000000000000000000000000000000000000000000000000000000000000000000000000000000000000000000000000000000000000000000000000000000000000000000000000000000000000000000000000000000000000000000000000000
310
00
310
00000000000000000000000000000000000000000000000000000000000000000000000000000000000000000000000000000000000000000000000000000000000000000000000000000000000000000000000000000000000000000000000000000000000000000000000000000000000000000000000000000000000000
310
00000000000000000000000000000000000000000000000000000000000000000000000000000000000000000000000000000000000000000000000000000000000000000000000000000000000000000000000000000000000000000000000000000000000000000000000000000000000000000000000000000000000000
310
00
310
00000000000000000000000000000000000000000000000000000000000000000000000000000000000000000000000000000000000000000000000000000000000000000000000000000000000000000000000000000000000000000000000000000000000000000000000000000000000000000000000000000000000000
310
00000000000000000000000000000000000000000000000000000000000000000000000000000000000000000000000000000000000000000000000000000000000000000000000000000000000000000000000000000000000000000000000000000000000000000000000000000000000000000000000000000000000000
310
00
310
00000000000000000000000000000000000000000000000000000000000000000000000000000000000000000000000000000000000000000000000000000000000000000000000000000000000000000000000000000000000000000000000000000000000000000000000000000000000000000000000000000000000000
310
00000000000000000000000000000000000000000000000000000000000000000000000000000000000000000000000000000000000000000000000000000000000000000000000000000000000000000000000000000000000000000000000000000000000000000000000000000000000000000000000000000000000000
310
00
310
00000000000000000000000000000000000000000000000000000000000000000000000000000000000000000000000000000000000000000000000000000000000000000000000000000000000000000000000000000000000000000000000000000000000000000000000000000000000000000000000000000000000000
310
00000000000000000000000000000000000000000000000000000000000000000000000000000000000000000000000000000000000000000000000000000000000000000000000000000000000000000000000000000000000000000000000000000000000000000000000000000000000000000000000000000000000000
310
00
310
00000000000000000000000000000000000000000000000000000000000000000000000000000000000000000000000000000000000000000000000000000000000000000000000000000000000000000000000000000000000000000000000000000000000000000000000000000000000000
  0
XRECORD
  5
440
102
{ACAD_REACTORS
330
46C
102
}
330
46C
100
AcDbXrecord
280
     1
310
3E4F020000004D6F64656C6572000000000000000000000000000000000000000000000000000000000000000000000000000000000000000000000000000000000000000000000000000000000000000000000000000000000000000000000000000000000000000000000000000000000000000000000000000000000000
310
00000000000000000000000000000000000000000000000000000000000000000000000000000000000000000000000000000000000000000000000000000000000000000000000000000000000000000000000000000000000000000000000000000000000000000000000000000000000000000000000000000000000000
310
00
310
00000000000000000000000000000000000000000000000000000000000000000000000000000000000000000000000000000000000000000000000000000000000000000000000000000000000000000000000000000000000000000000000000000000000000000000000000000000000000000000000000000000000000
310
00000000000000000000000000000000000000000000000000000000000000000000000000000000000000000000000000000000000000000000000000000000000000000000000000000000000000000000000000000000000000000000000000000000000000000000000000000000000000000000000000000000000000
310
00
310
00000000000000000000000000000000000000000000000000000000000000000000000000000000000000000000000000000000000000000000000000000000000000000000000000000000000000000000000000000000000000000000000000000000000000000000000000000000000000000000000000000000000000
310
00000000000000000000000000000000000000000000000000000000000000000000000000000000000000000000000000000000000000000000000000000000000000000000000000000000000000000000000000000000000000000000000000000000000000000000000000000000000000000000000000000000000000
310
00
310
00000000000000000000000000000000000000000000000000000000000000000000000000000000000000000000000000000000000000000000000000000000000000000000000000000000000000000000000000000000000000000000000000000000000000000000000000000000000000000000000000000000000000
310
00000000000000000000000000000000000000000000000000000000000000000000000000000000000000000000000000000000000000000000000000000000000000000000000000000000000000000000000000000000000000000000000000000000000000000000000000000000000000000000000000000000000000
310
00
310
00000000000000000000000000000000000000000000000000000000000000000000000000000000000000000000000000000000000000000000000000000000000000000000000000000000000000000000000000000000000000000000000000000000000000000000000000000000000000000000000000000000000000
310
00000000000000000000000000000000000000000000000000000000000000000000000000000000000000000000000000000000000000000000000000000000000000000000000000000000000000000000000000000000000000000000000000000000000000000000000000000000000000000000000000000000000000
310
00
310
00000000000000000000000000000000000000000000000000000000000000000000000000000000000000000000000000000000000000000000000000000000000000000000000000000000000000000000000000000000000000000000000000000000000000000000000000000000000000000000000000000000000000
310
00000000000000000000000000000000000000000000000000000000000000000000000000000000000000000000000000000000000000000000000000000000000000000000000000000000000000000000000000000000000000000000000000000000000000000000000000000000000000000000000000000000000000
310
00
310
00000000000000000000000000000000000000000000000000000000000000000000000000000000000000000000000000000000000000000000000000000000000000000000000000000000000000000000000000000000000000000000000000000000000000000000000000000000000000000000000000000000000000
310
00000000000000000000000000000000000000000000000000000000000000000000000000000000000000000000000000000000000000000000000000000000000000000000000000000000000000000000000000000000000000000000000000000000000000000000000000000000000000000000000000000000000000
310
00
310
00000000000000000000000000000000000000000000000000000000000000000000000000000000000000000000000000000000000000000000000000000000000000000000000000000000000000000000000000000000000000000000000000000000000000000000000000000000000000000000000000000000000000
310
00000000000000000000000000000000000000000000000000000000000000000000000000000000000000000000000000000000000000000000000000000000000000000000000000000000000000000000000000000000000000000000000000000000000000000000000000000000000000000000000000000000000000
310
00
310
00000000000000000000000000000000000000000000000000000000000000000000000000000000000000000000000000000000000000000000000000000000000000000000000000000000000000000000000000000000000000000000000000000000000000000000000000000000000000000000000000000000000000
310
00000000000000000000000000000000000000000000000000000000000000000000000000000000000000000000000000000000000000000000000000000000000000000000000000000000000000000000000000000000000000000000000000000000000000000000000000000000000000000000000000000000000000
310
00
310
00000000000000000000000000000000000000000000000000000000000000000000000000000000000000000000000000000000000000000000000000000000000000000000000000000000000000000000000000000000000000000000000000000000000000000000000000000000000000000000000000000000000000
310
00000000000000000000000000000000000000000000000000000000000000000000000000000000000000000000000000000000000000000000000000000000000000000000000000000000000000000000000000000000000000000000000000000000000000000000000000000000000000000000000000000000000000
310
00
310
00000000000000000000000000000000000000000000000000000000000000000000000000000000000000000000000000000000000000000000000000000000000000000000000000000000000000000000000000000000000000000000000000000000000000000000000000000000000000000000000000000000000000
310
00000000000000000000000000000000000000000000000000000000000000000000000000000000000000000000000000000000000000000000000000000000000000000000000000000000000000000000000000000000000000000000000000000000000000000000000000000000000000000000000000000000000000
310
00
310
00000000000000000000000000000000000000000000000000000000000000000000000000000000000000000000000000000000000000000000000000000000000000000000000000000000000000000000000000000000000000000000000000000000000000000000000000000000000000000000000000000000000000
310
00000000000000000000000000000000000000000000000000000000000000000000000000000000000000000000000000000000000000000000000000000000000000000000000000000000000000000000000000000000000000000000000000000000000000000000000000000000000000000000000000000000000000
310
00
310
00000000000000000000000000000000000000000000000000000000000000000000000000000000000000000000000000000000000000000000000000000000000000000000000000000000000000000000000000000000000000000000000000000000000000000000000000000000000000000000000000000000000000
310
00000000000000000000000000000000000000000000000000000000000000000000000000000000000000000000000000000000000000000000000000000000000000000000000000000000000000000000000000000000000000000000000000000000000000000000000000000000000000000000000000000000000000
310
00
310
00000000000000000000000000000000000000000000000000000000000000000000000000000000000000000000000000000000000000000000000000000000000000000000000000000000000000000000000000000000000000000000000000000000000000000000000000000000000000
  0
XRECORD
  5
438
102
{ACAD_REACTORS
330
46C
102
}
330
46C
100
AcDbXrecord
280
     1
310
DF56060034040701D0009A9999999999B93F000000000000000000000000000000000400000009000000000000000200000064000000640000000100000001000000190000007B14AE47E17A843F00000000004060409A9999999999B93F00000000004C2D41000000000070F7400000000000942141000000000000000000
310
0000000000000000000000000000000AD482040000000000000000000000000000F03F000000000000000000000000000030402D431CEBE2362A3F00000000000008400000000000000000009807C000000000000000007C1A61B9A711364020000000050000000A000000200000002000000020000000000000000000F03F
310
00
310
0000000000F03F000000000000F03F333333333333D33F333333333333D33F333333333333D33F000000000000F43F000000000000F43F000000000000F03F0200000064000000000000000000000000000840000000000000F83F00000000000000000000000000000000008056409A9999999999B93F0000000000000000
310
00000000000000000000000000000000000000000000000000000000000000000000000000000000000000000000000000000000000000000000000000000000000000000000000000000000000000000000000000000000000000000000000000000000000000000000000000000000000000000000000000000000000000
310
00
310
0000000000000000000000000000000000000000000000000000000000000000000000000000000000000000000000000000000000000000000000000000000000000000000000000000000000000000000000000000000000000000000000000000000000000000000000000000000000000000000000009A9999999999A9
310
3F9100000000000000000000000000000035A781D547960F40000000000000F03F000000000000F03F666666666666164000000000104068F200000000000000000000000000000000000000000000000000000000000000000000000000000000000000000000000000000000000000000000000000000000000000000000
310
00
310
00000000000000000000000000000000000000000000000000000000000000000000000000000000000000000000000000000000000000000000000000000000000000000000000000000000000000000000000000000000000000000000000000000000000000000000000000000000000000000000000000000000000000
310
000000000000000000000000000000000000000000000000000000000000000000000000000000000000000000000000000000000000000000000000FF000000000000000000000000000000000000000000000000000000000000000000000000000000000000000000000000000000000000000000000000000000000000
310
00
310
0000000000000000000000000000000000000000000000000000000000000000000000000000000000000000000000000000000000000000000000000000000000000000
  0
DICTIONARY
  5
45D
330
45C
100
AcDbDictionary
280
     1
281
     1
  3
ADSK_XREC_LAYOUTTHUMBNAIL
360
45E
  0
XRECORD
  5
45E
102
{ACAD_REACTORS
330
45D
102
}
330
45D
100
AcDbXrecord
280
     1
310
28000000B40000008B0000000100080000000000BC61000000000000000000000001000000000000FFFFFF0000000000FFFFFF000000000000000000000000000000000000000000000000000000000000000000330000006600000099000000CC000000FF00000000330000333300006633000099330000CC330000FF3300
310
0000660000336600006666000099660000CC660000FF66000000990000339900006699000099990000CC990000FF99000000CC000033CC000066CC000099CC0000CCCC0000FFCC000000FF000033FF000066FF000099FF0000CCFF0000FFFF000000003300330033006600330099003300CC003300FF003300003333003333
310
33006633330099333300CC333300FF33330000663300336633006666330099663300CC663300FF66330000993300339933006699330099993300CC993300FF99330000CC330033CC330066CC330099CC3300CCCC3300FFCC330000FF330033FF330066FF330099FF3300CCFF3300FFFF330000006600330066006600660099
310
006600CC006600FF00660000336600333366006633660099336600CC336600FF33660000666600336666006666660099666600CC666600FF66660000996600339966006699660099996600CC996600FF99660000CC660033CC660066CC660099CC6600CCCC6600FFCC660000FF660033FF660066FF660099FF6600CCFF6600
310
FFFF660000009900330099006600990099009900CC009900FF00990000339900333399006633990099339900CC339900FF33990000669900336699006666990099669900CC669900FF66990000999900339999006699990099999900CC999900FF99990000CC990033CC990066CC990099CC9900CCCC9900FFCC990000FF99
310
0033FF990066FF990099FF9900CCFF9900FFFF99000000CC003300CC006600CC009900CC00CC00CC00FF00CC000033CC003333CC006633CC009933CC00CC33CC00FF33CC000066CC003366CC006666CC009966CC00CC66CC00FF66CC000099CC003399CC006699CC009999CC00CC99CC00FF99CC0000CCCC0033CCCC0066CC
310
CC0099CCCC00CCCCCC00FFCCCC0000FFCC0033FFCC0066FFCC0099FFCC00CCFFCC00FFFFCC000000FF003300FF006600FF009900FF00CC00FF00FF00FF000033FF003333FF006633FF009933FF00CC33FF00FF33FF000066FF003366FF006666FF009966FF00CC66FF00FF66FF000099FF003399FF006699FF009999FF00CC
310
99FF00FF99FF0000CCFF0033CCFF0066CCFF0099CCFF00CCCCFF00FFCCFF0000FFFF0033FFFF0066FFFF0099FFFF00CCFFFF00FFFFFF00000000000D0D0D001A1A1A00282828003535350043434300505050005D5D5D006B6B6B00787878008686860093939300A1A1A100AEAEAE00BBBBBB00C9C9C900D6D6D600E4E4E400
310
F1F1F100FFFFFF0000000000000000000000000000000000000000000000000000000000000000000000000000000000E2E2E2E2E2E2E2E2E2E2E2E2E2E2E2E2E2E2E2E2E2E2E2E2E2E2E2E2E2E2E2E2E2E2E2E2E2E2E2E2E2E2E2E2E2E2E2E2E2E2E2E2E2E2E2E2E2E2E2E2E2E2E2E2E2E2E2E2E2E2E2E2E2E2E2E2E2E2E2
310
E2E2E2E2E2E2E2E2E2E2E2E2E2E2E2E2E2E2E2E2E2E2E2E2E2E2E2E2E2E2E2E2E2E2E2E2E2E2E2E2E2E2E2E2E2E2E2E2E2E2E2E2E2E2E2E2E2E2E2E2E2E2E2E2E2E2E2E2E2E2E2E2E2E2E2E2E2E2E2E2E2E2E2E2E2E2E2E2E2E2E2E2E2E2E2E2E2E2E2E2EFF5F5F5F5F5F5F5F5F5F5F5F5F5F5F5F5F5F5F5F5F5F5F5F5F5F5
310
F5F5F5F5F5F5F5F5F5F5F5F5F5F5F5F5F5F5F5F5F5F5F5F5F5F5F5F5F5F5F5F5F5F5F5F5F5F5F5F5F5F5F5F5F5F5F5F5F5F5F5F5F5F5F5F5F5F5F5F5F5F5F5F5F5F5F5F5F5F5F5F5F5F5F5F5F5F5F5F5F5F5F5F5F5F5F5F5F5F5F5F5F5F5F5F5F5F5F5F5F5F5F5F5F5F5F5F5F5F5F5F5F5F5F5F5F5F5F5F5F5F5F5F5F5F5F5
310
F5F5F5F5F5F5F5F5F5F5F5F5F5F5F5F5F5F5F5F5F5F5F5F5E2E2EFF5F5F5F5F5F5F5F5F5F5F5F5F5F5F5F5F5F5F5F5F5F5F5F5F5F5F5F5F5F5F5F5F5F5F5F5F5F5F5F5F5F5F5F5F5F5F5F5F5F5F5F5F5F5F5F5F5F5F5F5F5F5F5F5F5F5F5F5F5F5F5F5F5F5F5F5F5F5F5F5F5F5F5F5F5F5F5F5F5F5F5F5F5F5F5F5F5F5F5F5
310
F5F5F5F5F5F5F5F5F5F5F5F5F5F5F5F5F5F5F5F5F5F5F5F5F5F5F5F5F5F5F5F5F5F5F5F5F5F5F5F5F5F5F5F5F5F5F5F5F5F5F5F5F5F5F5F5F5F5F5F5F5F5F5F5F5F5F5F5F5F5F5F5F5F5F5F5F5E2E2EFF5F5F5F5F5F5F5F5F5F5F5F5F5F5F5F5F5F5F5F5F5F5F5F5F5F5F5F5F5F5F5F5F5F5F5F5F5F5F5F5F5F5F5F5F5F5F5
310
F5F5F5F5F5F5F5F5F5F5F5F5F5F5F5F5F5F5F5F5F5F5F5F5F5F5F5F5F5F5F5F5F5F5F5F5F5F5F5F5F5F5F5F5F5F5F5F5F5F5F5F5F5F5F5F5F5F5F5F5F5F5F5F5F5F5F5F5F5F5F5F5F5F5F5F5F5F5F5F5F5F5F5F5F5F5F5F5F5F5F5F5F5F5F5F5F5F5F5F5F5F5F5F5F5F5F5F5F5F5F5F5F5F5F5F5F5F5F5F5F5F5F5F5F5F5F5
310
F5F5F5E2E2EFF5F5F5E2E2E2E2E2E2E2E2F5F5F5F5F5F5F5F5F5E2E2E2E2E2E2E2E2E2E2E2E2E2E2E2E2F5F5F5F5F5F5F5F5E2E2E2E2E2E2E2E2E2E2E2E2E2E2E2E2F5F5F5F5F5F5F5F5F5E2E2E2E2E2E2E2E2E2E2E2E2E2E2E2F5F5F5F5F5F5F5F5F5E2E2E2E2E2E2E2E2E2E2E2E2E2E2E2F5F5F5F5F5F5F5F5F5E2E2E2E2
310
E2E2E2E2E2E2E2E2E2E2E2E2F5F5F5F5F5F5F5F5E2E2E2E2E2E2E2E2E2E2E2E2E2E2E2E2F5F5F5F5F5F5F5F5F5E2E2E2E2E2E2E2E2F5F5F5E2E2EFF5F5F5E2F5F5F5F5F5F5F5F5F5F5F5F5F5F5F5F5F5F5F5F5F5F5F5F5F5F5F5F5F5F5F5F5F5F5F5F5F5F5F5F5F5F5F5F5F5F5F5F5F5F5F5F5F5F5F5F5F5F5F5F5F5F5F5F5
310
F5F5F5F5F5F5F5F5F5F5F5F5F5F5F5F5F5F5F5F5F5F5F5F5F5F5F5F5F5F5F5F5F5F5F5F5F5F5F5F5F5F5F5F5F5F5F5F5F5F5F5F5F5F5F5F5F5F5F5F5F5F5F5F5F5F5F5F5F5F5F5F5F5F5F5F5F5F5F5F5F5F5F5F5F5F5F5F5F5F5F5F5F5F5F5F5F5F5F5F5F5F5F5F5F5E2F5F5F5E2E2EFF5F5F5E2F5F5F5F5F5F5F5F5F5F5F5
310
F5F5F5F5F5F5F5F5F5F5F5F5F5F5F5F5F5F5F5F5F5F5F5F5F5F5F5F5F5F5F5F5F5F5F5F5F5F5F5F5F5F5F5F5F5F5F5F5F5F5F5F5F5F5F5F5F5F5F5F5F5F5F5F5F5F5F5F5F5F5F5F5F5F5F5F5F5F5F5F5F5F5F5F5F5F5F5F5F5F5F5F5F5F5F5F5F5F5F5F5F5F5F5F5F5F5F5F5F5F5F5F5F5F5F5F5F5F5F5F5F5F5F5F5F5F5F5
310
F5F5F5F5F5F5F5F5F5F5F5F5F5F5F5F5F5F5F5F5F5F5F5F5F5F5F5F5F5F5F5E2F5F5F5E2E2EFF5F5F5E2F5F5F5F5F5F5F5F5F5F5F5F5F5F5F5F5F5F5F5F5F5F5F5F5F5F5F5F5F5F5F5F5F5F5F5F5F5F5F5F5F5F5F5F5F5F5F5F5F5F5F5F5F5F5F5F5F5F5F5F5F5F5F5F5F5F5F5F5F5F5F5F5F5F5F5F5F5F5F5F5F5F5F5F5F5
310
F5F5F5F5F5F5F5F5F5F5F5F5F5F5F5F5F5F5F5F5F5F5F5F5F5F5F5F5F5F5F5F5F5F5F5F5F5F5F5F5F5F5F5F5F5F5F5F5F5F5F5F5F5F5F5F5F5F5F5F5F5F5F5F5F5F5F5F5F5F5F5F5F5F5F5F5F5F5F5F5F5F5F5F5E2F5F5F5E2E2EFF5F5F5E2F5F5F5F5F5F5F5F5F5F5F5F5F5F5F5F5F5F5F5F5F5F5F5F5F5F5F5F5F5F5F5F5
310
F5F5F5F5F5F5F5F5F5F5F5F5F5F5F5F5F5F5F5F5F5F5F5F5F5F5F5F5F5F5F5F5F5F5F5F5F5F5F5F5F5F5F5F5F5F5F5F5F5F5F5F5F5F5F5F5F5F5F5F5F5F5F5F5F5F5F5F5F5F5F5F5F5F5F5F5F5F5F5F5F5F5F5F5F5F5F5F5F5F5F5F5F5F5F5F5F5F5F5F5F5F5F5F5F5F5F5F5F5F5F5F5F5F5F5F5F5F5F5F5F5F5F5F5F5F5F5
310
F5F5F5F5F5F5F5F5F5F5E2F5F5F5E2E2EFF5F5F5E2F5F5F5F5F5F5F5F5F5F5F5F5F5F5F5F5F5F5F5F5F5F5F5F5F5F5F5F5F5F5F5F5F5F5F5F5F5F5F5F5F5F5F5F5F5F5F5F5F5F5F5F5F5F5F5F5F5F5F5F5F5F5F5F5F5F5F5F5F5F5F5F5F5F5F5F5F5F5F5F5F5F5F5F5F5F5F5F5F5F5F5F5F5F5F5F5F5F5F5F5F5F5F5F5F5F5
310
F5F5F5F5F5F5F5F5F5F5F5F5F5F5F5F5F5F5F5F5F5F5F5F5F5F5F5F5F5F5F5F5F5F5F5F5F5F5F5F5F5F5F5F5F5F5F5F5F5F5F5F5F5F5F5F5F5F5F5F5F5F5F5E2F5F5F5E2E2EFF5F5F5E2F5F5F5F5F5F5F5F5F5F5F5F5F5F5F5F5F5F5F5F5F5F5F5F5F5F5F5F5F5F5F5F5F5F5F5F5F5F5F5F5F5F5F5F5F5F5F5F5F5F5F5F5F5
310
F5F5F5F5F5F5F5F5F5F5F5F5F5F5F5F5F5F5F5F5F5F5F5F5F5F5F5F5F5F5F5F5F5F5F5F5F5F5F5F5F5F5F5F5F5F5F5F5F5F5F5F5F5F5F5F5F5F5F5F5F5F5F5F5F5F5F5F5F5F5F5F5F5F5F5F5F5F5F5F5F5F5F5F5F5F5F5F5F5F5F5F5F5F5F5F5F5F5F5F5F5F5F5F5F5F5F5F5F5F5F5F5F5F5F5F5E2F5F5F5E2E2EFF5F5F5E2
310
F5F5F5F5F5F5F5F5F5F5F5F5F5F5F5F5F5F5F5F5F5F5F5F5F5F5F5F5F5F5F5F5F5F5F5F5F5F5F5F5F5F5F5F5F5F5F5F5F5F5F5F5F5F5F5F5F5F5F5F5F5F5F5F5F5F5F5F5F5F5F5F5F5F5F5F5F5F5F5F5F5F5F5F5F5F5F5F5F5F5F5F5F5F5F5F5F5F5F5F5F5F5F5F5F5F5F5F5F5F5F5F5F5F5F5F5F5F5F5F5F5F5F5F5F5F5F5
310
F5F5F5F5F5F5F5F5F5F5F5F5F5F5F5F5F5F5F5F5F5F5F5F5F5F5F5F5F5F5F5F5F5F5F5F5F5F5F5F5F5F5E2F5F5F5E2E2EFF5F5F5E2F5F5F5F5F5F5F5F5F5F5F5F5F5F5F5F5F5F5F5F5F5F5F5F5F5F5F5F5F5F5F5F5F5F5F5F5F5F5F5F5F5F5F5F5F5F5F5F5F5F5F5F5F5F5F5F5F5F5F5F5F5F5F5F5F5F5F5F5F5F5F5F5F5F5
310
F5F5F5F5F5F5F5F5F5F5F5F5F5F5F5F5F5F5F5F5F5F5F5F5F5F5F5F5F5F5F5F5F5F5F5F5F5F5F5F5F5F5F5F5F5F5F5F5F5F5F5F5F5F5F5F5F5F5F5F5F5F5F5F5F5F5F5F5F5F5F5F5F5F5F5F5F5F5F5F5F5F5F5F5F5F5F5F5F5F5F5F5F5F5F5E2F5F5F5E2E2EFF5F5F5F5F5F5F5F5F5F5F5F5F5F5F5F5F5F5F5F5F5F5F5F5F5
310
F5F5F5F5F5F5F5F5F5F5F5F5F5F5F5F5F5F5F5F5F5F5F5F5F5F5F5F5F5F5F5F5F5F5F5F5F5F5F5F5F5F5F5F5F5F5F5F5F5F5F5F5F5F5F5F5F5F5F5F5F5F5F5F5F5F5F5F5F5F5F5F5F5F5F5F5F5F5F5F5F5F5F5F5F5F5F5F5F5F5F5F5F5F5F5F5F5F5F5F5F5F5F5F5F5F5F5F5F5F5F5F5F5F5F5F5F5F5F5F5F5F5F5F5F5F5F5
310
F5F5F5F5F5F5F5F5F5F5F5F5F5F5F5F5F5F5F5F5F5F5F5F5F5E2E2EFF5F5F5F5F5F5F5F5F5F5F5F5F5F5F5F5F5F5F5F5F5F5F5F5F5F5F5F5F5F5F5F5F5F5F5F5F5F5F5F5F5F5F5F5F5F5F5F5F5F5F5F5F5F5F5F5F5F5F5F5F5F5F5F5F5F5F5F5F5F5F5F5F5F5F5F5F5F5F5F5F5F5F5F5F5F5F5F5F5F5F5F5F5F5F5F5F5F5F5
310
F5F5F5F5F5F5F5F5F5F5F5F5F5F5F5F5F5F5F5F5F5F5F5F5F5F5F5F5F5F5F5F5F5F5F5F5F5F5F5F5F5F5F5F5F5F5F5F5F5F5F5F5F5F5F5F5F5F5F5F5F5F5F5F5F5F5F5F5F5F5F5F5F5F5F5F5F5F5E2E2EFF5F5F5F5F5F5F5F5F5F5F5F5F5F5F5F5F5F5F5F5F5F5F5F5F5F5F5F5F5F5F5F5F5F5F5F5F5F5F5F5F5F5F5F5F5F5
310
F5F5F5F5F5F5F5F5F5F5F5F5F5F5F5F5F5F5F5F5F5F5F5F5F5F5F5F5F5F5F5F5F5F5F5F5F5F5F5F5F5F5F5F5F5F5F5F5F5F5F5F5F5F5F5F5F5F5F5F5F5F5F5F5F5F5F5F5F5F5F5F5F5F5F5F5F5F5F5F5F5F5F5F5F5F5F5F5F5F5F5F5F5F5F5F5F5F5F5F5F5F5F5F5F5F5F5F5F5F5F5F5F5F5F5F5F5F5F5F5F5F5F5F5F5F5F5
310
F5F5F5F5E2E2EFF5F5F5F5F5F5F5F5F5F5F5F5F5F5F5F5F5F5F5F5F5F5F5F5F5F5F5F5F5F5F5F5F5F5F5F5F5F5F5F5F5F5F5F5F5F5F5F5F5F5F5F5F5F5F5F5F5F5F5F5F5F5F5F5F5F5F5F5F5F5F5F5F5F5F5F5F5F5F5F5F5F5F5F5F5F5F5F5F5F5F5F5F5F5F5F5F5F5F5F5F5F5F5F5F5F5F5F5F5F5F5F5F5F5F5F5F5F5F5F5
310
F5F5F5F5F5F5F5F5F5F5F5F5F5F5F5F5F5F5F5F5F5F5F5F5F5F5F5F5F5F5F5F5F5F5F5F5F5F5F5F5F5F5F5F5F5F5F5F5F5F5F5F5F5F5F5F5F5E2E2EFF5F5F5F5F5F5F5F5F5F5F5F5F5F5F5F5F5F5F5F5E2E2E2E2E2E2E2E2E2E2E2E2E2E2E2E2E2E2E2E2E2E2E2E2E2E2E2E2E2E2E2E2E2E2E2E2E2E2E2E2E2E2E2E2E2E2E2
310
E2E2E2E2E2E2E2E2E2E2E2E2E2E2E2E2E2E2E2E2E2E2E2E2E2E2E2E2E2E2E2E2E2E2E2E2E2E2E2E2E2E2E2E2E2E2E2E2E2E2E2E2E2E2E2E2E2E2E2E2E2E2E2E2E2E2E2E2E2E2E2E2E2E2E2E2E2E2E2E2E2E2E2E2E2E2E2E2E2E2F5F5F5F5F5F5F5F5F5F5F5F5F5F5F5F5F5F5F5F5E2E2EFF5F5F5F5F5F5F5F5F5F5F5F5F5F5
310
F5F5F5F5F5F5E2F5F5F5F5F5F5F5F5F5F5F5F5F5F5F5F5F5F5F5F5F5F5F5F5F5F5F5F5F5F5F5F5F5F5F5F5F5F5F5F5F5F5F5F5F5F5F5F5F5F5F5F5F5F5F5F5F5F5F5F5F5F5F5F5F5F5F5F5F5F5F5F5F5F5F5F5F5F5F5F5F5F5F5F5F5F5F5F5F5F5F5F5F5F5F5F5F5F5F5F5F5F5F5F5F5F5F5F5F5F5F5F5F5F5F5F5F5F5F5F5
310
F5F5F5F5F5F5F5F5F5F5F5F5F5F5F5E2F5F5F5F5F5F5F5F5F5F5F5F5F5F5F5F5F5F5F5F5E2E2EFF5F5F5F5F5F5F5F5F5F5F5F5F5F5F5F5F5F5F5F5E2F5F5F5F5F5F5F5F5F5F5F5F5F5F5F5F5F5F5F5F5F5F5F5F5F5F5F5F5F5F5F5F5F5F5F5F5F5F5F5F5F5F5F5F5F5F5F5F5F5F5F5F5F5F5F5F5F5F5F5F5F5F5F5F5F5F5F5
310
F5F5F5F5F5F5F5F5F5F5F5F5F5F5F5F5F5F5F5F5F5F5F5F5F5F5F5F5F5F5F5F5F5F5F5F5F5F5F5F5F5F5F5F5F5F5F5F5F5F5F5F5F5F5F5F5F5F5F5F5F5F5F5F5F5F5F5F5E2F5F5F5F5F5F5F5F5F5F5F5F5F5F5F5F5F5F5F5F5E2E2EFF5F5F5F5F5F5F5F5F5F5F5F5F5F5F5F5F5F5F5F5E2F5F5F5F5F5F5F5F5F5F5F5F5F5F5
310
F5F5F5F5F5F5F5F5F5F5F5F5F5F5F5F5F5F5F5F5F5F5F5F5F5F5F5F5F5F5F5F5F5F5F5F5F5F5F5F5F5F5F5F5F5F5F5F5F5F5F5F5F5F5F5F5F5F5F5F5F5F5F5F5F5F5F5F5F5F5F5F5F5F5F5F5F5F5F5F5F5F5F5F5F5F5F5F5F5F5F5F5F5F5F5F5F5F5F5F5F5F5F5F5F5F5F5F5F5F5F5F5F5F5F5F5F5F5F5F5F5E2F5F5F5F5F5
310
F5F5F5F5F5F5F5F5F5F5F5F5F5F5F5E2E2EFF5F5F5F5F5F5F5F5F5F5F5F5F5F5F5F5F5F5F5F5E2F5F5F5F5F5F5F5F5F5F5F5F5F5F5F5F5F5F5F5F5F5F5F5F5F5F5F5F5F5F5F5F5F5F5F5F5F5F5F5F5F5F5F5F5F5F5F5F5F5F5F5F5F5F5F5F5F5F5F5F5F5F5F5F5F5F5F5F5F5F5F5F5F5F5F5F5F5F5F5F5F5F5F5F5F5F5F5F5
310
F5F5F5F5F5F5F5F5F5F5F5F5F5F5F5F5F5F5F5F5F5F5F5F5F5F5F5F5F5F5F5F5F5F5F5F5F5F5F5F5F5F5F5F5F5F5F5E2F5F5F5F5F5F5F5F5F5F5F5F5F5F5F5F5F5F5F5F5E2E2EFF5F5F5E2F5F5F5F5F5F5F5F5F5F5F5F5F5F5F5F5E2F5F5F5F5F5F5F5F5F5F5F5F5F5F5F5F5F5F5F5F5F5F5F5F5F5F5F5F5F5F5F5F5F5F5F5
310
F5F5F5F5F5F5F5F5F5F5F5F5F5F5F5F5F5F5F5F5F5F5F5F5F5F5F5F5F5F5F5F5F5F5F5F5F5F5F5F5F5F5F5F5F5F5F5F5F5F5F5F5F5F5F5F5F5F5F5F5F5F5F5F5F5F5F5F5F5F5F5F5F5F5F5F5F5F5F5F5F5F5F5F5F5F5F5F5F5F5F5F5F5F5F5F5F5F5F5F5E2F5F5F5F5F5F5F5F5F5F5F5F5F5F5F5F5E2F5F5F5E2E2EFF5F5F5
310
E2F5F5F5F5F5F5F5F5F5F5F5F5F5F5F5F5E2F5F5F5F5F5F5F5F5F5F5F5F5F5F5F5F5F5F5F5F5F5F5F5F5F5F5F5F5F5F5F5F5F5F5F5F5F5F5F5F5F5F5F5F5F5F5F5F5F5F5F5F5F5F5F5F5F5F5F5F5F5F5F5F5F5F5F5F5F5F5F5F5F5F5F5F5F5F5F5F5F5F5F5F5F5F5F5F5F5F5F5F5F5F5F5F5F5F5F5F5F5F5F5F5F5F5F5F5F5
310
F5F5F5F5F5F5F5F5F5F5F5F5F5F5F5F5F5F5F5F5F5F5F5F5F5F5E2F5F5F5F5F5F5F5F5F5F5F5F5F5F5F5F5E2F5F5F5E2E2EFF5F5F5E2F5F5F5F5F5F5F5F5F5F5F5F5F5F5F5F5E2F5F5F5F5F5F5F5F5F5F5F5F5F5F5F5F5F5F5F5F5F5F5F5F5F5F5F5F5F5F5F5F5F5F5F5F5F5F5F5F5F5F5F5F5F5F5F5F5F5F5F5F5F5F5F5F5
310
F5F5F5F5F5F5F5F5F5F5F5F5F5F5F5F5F5F5F5F5F5F5F5F5F5F5F5F5F5F5F5F5F5F5F5F5F5F5F5F5F5F5F5F5F5F5F5F5F5F5F5F5F5F5F5F5F5F5F5F5F5F5F5F5F5F5F5F5F5F5F5F5F5F5F5F5F5F5F5E2F5F5F5F5F5F5F5F5F5F5F5F5F5F5F5F5E2F5F5F5E2E2EFF5F5F5E2F5F5F5F5F5F5F5F5F5F5F5F5F5F5F5F5E2F5F5F5
310
F5F5F5F5F5F5F5F5F5F5F5F5F5F5F5F5F5F5F5F5F5F5F5F5F5F5F5F5F5F5F5F5F5F5F5F5F5F5F5F5F5F5F5F5F5F5F5F5F5F5F5F5F5F5F5F5F5F5F5F5F5F5F5F5F5F5F5F5F5F5F5F5F5F5F5F5F5F5F5F5F5F5F5F5F5F5F5F5F5F5F5F5F5F5F5F5F5F5F5F5F5F5F5F5F5F5F5F5F5F5F5F5F5F5F5F5F5F5F5F5F5F5F5F5F5F5F5
310
F5F5F5F5F5E2F5F5F5F5F5F5F5F5F5F5F5F5F5F5F5F5E2F5F5F5E2E2EFF5F5F5E2F5F5F5F5F5F5F5F5F5F5F5F5F5F5F5F5E2F5F5F5F5F5F5F5F5F5F5F5F5F5F5F5F5F5F5F5F5F5F5F5F5F5F5F5F5F5F5F5F5F5F5F5F5F5F5F5F5F5F5F5F5F5F5F5F5F5F5F5F5F5F5F5F5F5F5F5F5F5F5F5F5F5F5F5F5F5F5F5F5F5F5F5F5F5
310
F5F5F5F5F5F5F5F5F5F5F5F5F5F5F5F5F5F5F5F5F5F5F5F5F5F5F5F5F5F5F5F5F5F5F5F5F5F5F5F5F5F5F5F5F5F5F5F5F5F5F5F5F5F5F5F5F5F5E2F5F5F5F5F5F5F5F5F5F5F5F5F5F5F5F5E2F5F5F5E2E2EFF5F5F5E2F5F5F5F5F5F5F5F5F5F5F5F5F5F5F5F5E2F5F5F5F5F5F5F5F5F5F5F5F5F5F5F5F5F5F5F5F5F5F5F5F5
310
F5F5F5F5F5F5F5F5F5F5F5F5F5F5F5F5F5F5F5F5F5F5F5F5F5F5F5F5F5F5F5F5F5F5F5F5F5F5F5F5F5F5F5F5F5F5F5F5F5F5F5F5F5F5F5F5F5F5F5F5F5F5F5F5F5F5F5F5F5F5F5F5F5F5F5F5F5F5F5F5F5F5F5F5F5F5F5F5F5F5F5F5F5F5F5F5F5F5F5F5F5F5F5F5F5F5F5F5F5F5F5E2F5F5F5F5F5F5F5F5F5F5F5F5F5F5F5
310
F5E2F5F5F5E2E2EFF5F5F5E2F5F5F5F5F5F5F5F5F5F5F5F5F5F5F5F5E2F5F5F5F5F5F5F5F5F5F5F5F5F5F5F5F5F5F5F5F5F5F5F5F5F5F5F5F5F5F5F5F5F5F5F5F5F5F5F5F5F5F5F5F5F5F5F5F5F5F5F5F5F5F5F5F5F5F5F5F5F5F5F5F5F5F5F5F5F5F5F5F5F5F5F5F5F5F5F5F5F5F5F5F5F5F5F5F5F5F5F5F5F5F5F5F5F5F5
310
F5F5F5F5F5F5F5F5F5F5F5F5F5F5F5F5F5F5F5F5F5F5F5F5F5F5F5F5F5F5F5F5F5F5F5F5F5E2F5F5F5F5F5F5F5F5F5F5F5F5F5F5F5F5E2F5F5F5E2E2EFF5F5F5E2F5F5F5F5F5F5F5F5F5F5F5F5F5F5F5F5E2F5F5F5F5F5F5F5F5F5F5F5F5F5F5F5F5F5F5F5F5F5F5F5F5F5F5F5F5F5F5F5F5F5F5F5F5F5F5F5F5F5F5F5F5F5
310
F5F5F5F5F5F5F5F5F5F5F5F5F5F5F5F5F5F5F5F5F5F5F5F5F5F5F5F5F5F5F5F5F5F5F5F5F5F5F5F5F5F5F5F5F5F5F5F5F5F5F5F5F5F5F5F5F5F5F5F5F5F5F5F5F5F5F5F5F5F5F5F5F5F5F5F5F5F5F5F5F5F5F5F5F5F5F5F5F5F5E2F5F5F5F5F5F5F5F5F5F5F5F5F5F5F5F5E2F5F5F5E2E2EFF5F5F5E2F5F5F5F5F5F5F5F5F5
310
F5F5F5F5F5F5F5E2F5F5F5F5F5F5F5F5F5F5F5F5F5F5F5F5F5F5F5F5F5F5F5F5F5F5F5F5F5F5F5F5F5F5F5F5F5F5F5F5F5F5F5F5F5F5F5F5F5F5F5F5F5F5F5F5F5F5F5F5F5F5F5F5F5F5F5F5F5F5F5F5F5F5F5F5F5F5F5F5F5F5F5F5F5F5F5F5F5F5F5F5F5F5F5F5F5F5F5F5F5F5F5F5F5F5F5F5F5F5F5F5F5F5F5F5F5F5F5
310
F5F5F5F5F5F5F5F5F5F5F5F5F5F5F5F5E2F5F5F5F5F5F5F5F5F5F5F5F5F5F5F5F5E2F5F5F5E2E2EFF5F5F5E2F5F5F5F5F5F5F5F5F5F5F5F5F5F5F5F5E2F5F5F5F5F5F5F5F5F5F5F5F5F5F5F5F5F5F5F5F5F5F5F5F5F5F5F5F5F5F5F5F5F5F5F5F5F5F5F5F5F5F5F5F5F5F5F5F5F5F5F5F5F5F5F5F5F5F5F5F5F5F5F5F5F5F5
310
F5F5F5F5F5F5F5F5F5F5F5F5F5F5F5F5F5F5F5F5F5F5F5F5F5F5F5F5F5F5F5F5F5F5F5F5F5F5F5F5F5F5F5F5F5F5F5F5F5F5F5F5F5F5F5F5F5F5F5F5F5F5F5F5F5F5F5F5F5E2F5F5F5F5F5F5F5F5F5F5F5F5F5F5F5F5E2F5F5F5E2E2EFF5F5F5E2F5F5F5F5F5F5F5F5F5F5F5F5F5F5F5F5E2F5F5F5F5F5F5F5F5F5F5F5F5F5
310
F5F5F5F5F5F5F5F5F5F5F5F5F5F5F5F5F5F5F5F5F5F5F5F5F5F5F5F5F5F5F5F5F5F5F5F5F5F5F5F5F5F5F5F5F5F5F5F5F5F5F5F5F5F5F5F5F5F5F5F5F5F5F5F5F5F5F5F5F5F5F5F5F5F5F5F5F5F5F5F5F5F5F5F5F5F5F5F5F5F5F5F5F5F5F5F5F5F5F5F5F5F5F5F5F5F5F5F5F5F5F5F5F5F5F5F5F5F5F5F5F5F5E2F5F5F5F5
310
F5F5F5F5F5F5F5F5F5F5F5F5E2F5F5F5E2E2EFF5F5F5E2F5F5F5F5F5F5F5F5F5F5F5F5F5F5F5F5E2F5F5F5F5F5F5F5F5F5F5F5F5F5F5F5F5F5F5F5F5F5F5F5F5F5F5F5F5F5F5F5F5F5F5F5F5F5F5F5F5F5F5F5F5F5F5F5F5F5F5F5F5F5F5F5F5F5F5F5F5F5F5F5F5F5F5F5F5F5F5F5F5F5F5F5F5F5F5F5F5F5F5F5F5F5F5F5
310
F5F5F5F5F5F5F5F5F5F5F5F5F5F5F5F5F5F5F5F5F5F5F5F5F5F5F5F5F5F5F5F5F5F5F5F5F5F5F5F5F5F5F5F5F5F5F5F5E2F5F5F5F5F5F5F5F5F5F5F5F5F5F5F5F5E2F5F5F5E2E2EFF5F5F5E2F5F5F5F5F5F5F5F5F5F5F5F5F5F5F5F5E2F5F5F5F5F5F5F5F5F5F5F5F5F5F5F5F5F5F5F5F5F5F5F5F5F5F5F5F5F5F5F5F5F5F5
310
F5F5F5F5F5F5F5F5F5F5F5F5F5F5F5F5F5F5F5F5F5F5F5F5F5F5F5F5F5F5F5F5F5F5F5F5F5F5F5F5F5F5F5F5F5F5F5F5F5F5F5F5F5F5F5F5F5F5F5F5F5F5F5F5F5F5F5F5F5F5F5F5F5F5F5F5F5F5F5F5F5F5F5F5F5F5F5F5F5F5F5F5F5F5F5F5F5F5F5F5F5E2F5F5F5F5F5F5F5F5F5F5F5F5F5F5F5F5E2F5F5F5E2E2EFF5F5
310
F5E2F5F5F5F5F5F5F5F5F5F5F5F5F5F5F5F5E2F5F5F5F5F5F5F5F5F5F5F5F5F5F5F5F5F5F5F5F5F5F5F5F5F5F5F5F5F5F5F5F5F5F5F5F5F5F5F5F5F5F5F5F5F5F5F5F5F5F5F5F5F5F5F5F5F5F5F5F5F5F5F5F5F5F5F5F5F5F5F5F5F5F5F5F5F5F5F5F5F5F5F5F5F5F5F5F5F5F5F5F5F5F5F5F5F5F5F5F5F5F5F5F5F5F5F5F5
310
F5F5F5F5F5F5F5F5F5F5F5F5F5F5F5F5F5F5F5F5F5F5F5F5F5F5F5E2F5F5F5F5F5F5F5F5F5F5F5F5F5F5F5F5E2F5F5F5E2E2EFF5F5F5E2F5F5F5F5F5F5F5F5F5F5F5F5F5F5F5F5E2F5F5F5F5F5F5F5F5F5F5F5F5F5F5F5F5F5F5F5F5F5F5F5F5F5F5F5F5F5F5F5F5F5F5F5F5F5F5F5F5F5F5F5F5F5F5F5F5F5F5F5F5F5F5F5
310
F5F5F5F5F5F5F5F5F5F5F5F5F5F5F5F5F5F5F5F5F5F5F5F5F5F5F5F5F5F5F5F5F5F5F5F5F5F5F5F5F5F5F5F5F5F5F5F5F5F5F5F5F5F5F5F5F5F5F5F5F5F5F5F5F5F5F5F5F5F5F5F5F5F5F5F5F5F5F5F5E2F5F5F5F5F5F5F5F5F5F5F5F5F5F5F5F5E2F5F5F5E2E2EFF5F5F5E2F5F5F5F5F5F5F5F5F5F5F5F5F5F5F5F5E2F5F5
310
F5F5F5F5F5F5F5F5F5F5F5F5F5F5F5F5F5F5F5F5F5F5F5F5F5F5F5F5F5F5F5F5F5F5F5F5F5F5F5F5F5F5F5F5F5F5F5F5F5F5F5F5F5F5F5F5F5F5F5F5F5F5F5F5F5F5F5F5F5F5F5F5F5F5F5F5F5F5F5F5F5F5F5F5F5F5F5F5F5F5F5F5F5F5F5F5F5F5F5F5F5F5F5F5F5F5F5F5F5F5F5F5F5F5F5F5F5F5F5F5F5F5F5F5F5F5F5
310
F5F5F5F5F5F5E2F5F5F5F5F5F5F5F5F5F5F5F5F5F5F5F5E2F5F5F5E2E2EFF5F5F5E2F5F5F5F5F5F5F5F5F5F5F5F5F5F5F5F5E2F5F5F5F5F5F5F5F5F5F5F5F5F5F5F5F5F5F5F5F5F5F5F5F5F5F5F5F5F5F5F5F5F5F5F5F5F5F5F5F5F5F5F5F5F5F5F5F5F5F5F5F5F5F5F5F5F5F5F5F5F5F5F5F5F5F5F5F5F5F5F5F5F5F5F5F5
310
F5F5F5F5F5F5F5F5F5F5F5F5F5F5F5F5F5F5F5F5F5F5F5F5F5F5F5F5F5F5F5F5F5F5F5F5F5F5F5F5F5F5F5F5F5F5F5F5F5F5F5F5F5F5F5F5F5F5F5E2F5F5F5F5F5F5F5F5F5F5F5F5F5F5F5F5E2F5F5F5E2E2EFF5F5F5F5F5F5F5F5F5F5F5F5F5F5F5F5F5F5F5F5E2F5F5F5F5F5F5F5F5F5F5F5F5F5F5F5F5F5F5F5F5F5F5F5
310
F5F5F5F5F5F5F5F5F5F5F5F5F5F5F5F5F5F5F5F5F5F5F5F5F5F5F5F5F5F5F5F5F5F5F5F5F5F5F5F5F5F5F5F5F5F5F5F5F5F5F5F5F5F5F5F5F5F5F5F5F5F5F5F5F5F5F5F5F5F5F5F5F5F5F5F5F5F5F5F5F5F5F5F5F5F5F5F5F5F5F5F5F5F5F5F5F5F5F5F5F5F5F5F5F5F5F5F5F5F5F5F5E2F5F5F5F5F5F5F5F5F5F5F5F5F5F5
310
F5F5F5F5F5F5E2E2EFF5F5F5F5F5F5F5F5F5F5F5F5F5F5F5F5F5F5F5F5E2F5F5F5F5F5F5F5F5F5F5F5F5F5F5F5F5F5F5F5F5F5F5F5F5F5F5F5F5F5F5F5F5F5F5F5F5F5F5F5F5F5F5F5F5F5F5F5F5F5F5F5F5F5F5F5F5F5F5F5F5F5F5F5F5F5F5F5F5F5F5F5F5F5F5F5F5F5F5F5F5F5F5F5F5F5F5F5F5F5F5F5F5F5F5F5F5F5
310
F5F5F5F5F5F5F5F5F5F5F5F5F5F5F5F5F5F5F5F5F5F5F5F5F5F5F5F5F5F5F5F5F5F5F5F5F5F5E2F5F5F5F5F5F5F5F5F5F5F5F5F5F5F5F5F5F5F5F5E2E2EFF5F5F5F5F5F5F5F5F5F5F5F5F5F5F5F5F5F5F5F5E2F5F5F5F5F5F5F5F5F5F5F5F5F5F5F5F5F5F5F5F5F5F5F5F5F5F5F5F5F5F5F5F5F5F5F5F5F5F5F5F5F5F5F5F5
310
F5F5F5F5F5F5F5F5F5F5F5F5F5F5F5F5F5F5F5F5F5F5F5F5F5F5F5F5F5F5F5F5F5F5F5F5F5F5F5F5F5F5F5F5F5F5F5F5F5F5F5F5F5F5F5F5F5F5F5F5F5F5F5F5F5F5F5F5F5F5F5F5F5F5F5F5F5F5F5F5F5F5F5F5F5F5F5F5F5F5F5E2F5F5F5F5F5F5F5F5F5F5F5F5F5F5F5F5F5F5F5F5E2E2EFF5F5F5F5F5F5F5F5F5F5F5F5
310
F5F5F5F5F5F5F5F5E2F5F5F5F5F5F5F5F5F5F5F5F5F5F5F5F5F5F5F5F5F5F5F5F5F5F5F5F5F5F5F5F5F5F5F5F5F5F5F5F5F5F5F5F5F5F5F5F5F5F5F5F5F5F5F5F5F5F5F5F5F5F5F5F5F5F5F5F5F5F5F5F5F5F5F5F5F5F5F5F5F5F5F5F5F5F5F5F5F5F5F5F5F5F5F5F5F5F5F5F5F5F5F5F5F5F5F5F5F5F5F5F5F5F5F5F5F5F5
310
F5F5F5F5F5F5F5F5F5F5F5F5F5F5F5F5F5E2F5F5F5F5F5F5F5F5F5F5F5F5F5F5F5F5F5F5F5F5E2E2EFF5F5F5F5F5F5F5F5F5F5F5F5F5F5F5F5F5F5F5F5E2F5F5F5F5F5F5F5F5F5F5F5F5F5F5F5F5F5F5F5F5F5F5F5F5F5F5F5F5F5F5F5F5F5F5F5F5F5F5F5F5F5F5F5F5F5F5F5F5F5F5F5F5F5F5F5F5F5F5F5F5F5F5F5F5F5
310
F5F5F5F5F5F5F5F5F5F5F5F5F5F5F5F5F5F5F5F5F5F5F5F5F5F5F5F5F5F5F5F5F5F5F5F5F5F5F5F5F5F5F5F5F5F5F5F5F5F5F5F5F5F5F5F5F5F5F5F5F5F5F5F5F5F5F5F5F5F5E2F5F5F5F5F5F5F5F5F5F5F5F5F5F5F5F5F5F5F5F5E2E2EFF5F5F5F5F5F5F5F5F5F5F5F5F5F5F5F5F5F5F5F5E2F5F5F5F5F5F5F5F5F5F5F5F5
310
F5F5F5F5F5F5F5F5F5F5F5F5F5F5F5F5F5F5F5F5F5F5F5F5F5F5F5F5F5F5F5F5F5F5F5F5F5F5F5F5F5F5F5F5F5F5F5F5F5F5F5F5F5F5F5F5F5F5F5F5F5F5F5F5F5F5F5F5F5F5F5F5F5F5F5F5F5F5F5F5F5F5F5F5F5F5F5F5F5F5F5F5F5F5F5F5F5F5F5F5F5F5F5F5F5F5F5F5F5F5F5F5F5F5F5F5F5F5F5F5F5F5F5E2F5F5F5
310
F5F5F5F5F5F5F5F5F5F5F5F5F5F5F5F5F5E2E2EFF5F5F5F5F5F5F5F5F5F5F5F5F5F5F5F5F5F5F5F5E2F5F5F5F5F5F5F5F5F5F5F5F5F5F5F5F5F5F5F5F5F5F5F5F5F5F5F5F5F5F5F5F5F5F5F5F5F5F5F5F5F5F5F5F5F5F5F5F5F5F5F5F5F5F5F5F5F5F5F5F5F5F5F5F5F5F5F5F5F5F5F5F5F5F5F5F5F5F5F5F5F5F5F5F5F5F5
310
F5F5F5F5F5F5F5F5F5F5F5F5F5F5F5F5F5F5F5F5F5F5F5F5F5F5F5F5F5F5F5F5F5F5F5F5F5F5F5F5F5F5F5F5F5F5F5F5F5E2F5F5F5F5F5F5F5F5F5F5F5F5F5F5F5F5F5F5F5F5E2E2EFF5F5F5F5F5F5F5F5F5F5F5F5F5F5F5F5F5F5F5F5E2F5F5F5F5F5F5F5F5F5F5F5F5F5F5F5F5F5F5F5F5F5F5F5F5F5F5F5F5F5F5F5F5F5
310
F5F5F5F5F5F5F5F5F5F5F5F5F5F5F5F5F5F5F5F5F5F5F5F5F5F5F5F5F5F5F5F5F5F5F5F5F5F5F5F5F5F5F5F5F5F5F5F5F5F5F5F5F5F5F5F5F5F5F5F5F5F5F5F5F5F5F5F5F5F5F5F5F5F5F5F5F5F5F5F5F5F5F5F5F5F5F5F5F5F5F5F5F5F5F5F5F5F5F5F5F5F5E2F5F5F5F5F5F5F5F5F5F5F5F5F5F5F5F5F5F5F5F5E2E2EFF5
310
F5F5F5F5F5F5F5F5F5F5F5F5F5F5F5F5F5F5F5E2F5F5F5F5F5F5F5F5F5F5F5F5F5F5F5F5F5F5F5F5F5F5F5F5F5F5F5F5F5F5F5F5F5F5F5F5F5F5F5F5F5F5F5F5F5F5F5F5F5F5F5F5F5F5F5F5F5F5F5F5F5F5F5F5F5F5F5F5F5F5F5F5F5F5F5F5F5F5F5F5F5F5F5F5F5F5F5F5F5F5F5F5F5F5F5F5F5F5F5F5F5F5F5F5F5F5F5
310
F5F5F5F5F5F5F5F5F5F5F5F5F5F5F5F5F5F5F5F5F5F5F5F5F5F5F5F5E2F5F5F5F5F5F5F5F5F5F5F5F5F5F5F5F5F5F5F5F5E2E2EFF5F5F5E2F5F5F5F5F5F5F5F5F5F5F5F5F5F5F5F5E2F5F5F5F5F5F5F5F5F5F5F5F5F5F5F5F5F5F5F5F5F5F5F5F5F5F5F5F5F5F5F5F5F5F5F5F5F5F5F5F5F5F5F5F5F5F5F5F5F5F5F5F5F5F5
310
F5F5F5F5F5F5F5F5F5F5F5F5F5F5F5F5F5F5F5F5F5F5F5F5F5F5F5F5F5F5F5F5F5F5F5F5F5F5F5F5F5F5F5F5F5F5F5F5F5F5F5F5F5F5F5F5F5F5F5F5F5F5F5F5F5F5F5F5F5F5F5F5F5F5F5F5F5F5F5F5F5E2F5F5F5F5F5F5F5F5F5F5F5F5F5F5F5F5E2F5F5F5E2E2EFF5F5F5E2F5F5F5F5F5F5F5F5F5F5F5F5F5F5F5F5E2F5
310
F5F5F5F5F5F5F5F5F5F5F5F5F5F5F5F5F5F5F5F5F5F5F5F5F5F5F5F5F5F5F5F5F5F5F5F5F5F5F5F5F5F5F5F5F5F5F5F5F5F5F5F5F5F5F5F5F5F5F5F5F5F5F5F5F5F5F5F5F5F5F5F5F5F5F5F5F5F5F5F5F5F5F5F5F5F5F5F5F5F5F5F5F5F5F5F5F5F5F5F5F5F5F5F5F5F5F5F5F5F5F5F5F5F5F5F5F5F5F5F5F5F5F5F5F5F5F5
310
F5F5F5F5F5F5F5E2F5F5F5F5F5F5F5F5F5F5F5F5F5F5F5F5E2F5F5F5E2E2EFF5F5F5E2F5F5F5F5F5F5F5F5F5F5F5F5F5F5F5F5E2F5F5F5F5F5F5F5F5F5F5F5F5F5F5F5F5F5F5F5F5F5F5F5F5F5F5F5F5F5F5F5F5F5F5F5F5F5F5F5F5F5F5F5F5F5F5F5F5F5F5F5F5F5F5F5F5F5F5F5F5F5F5F5F5F5F5F5F5F5F5F5F5F5F5F5
310
F5F5F5F5F5F5F5F5F5F5F5F5F5F5F5F5F5F5F5F5F5F5F5F5F5F5F5F5F5F5F5F5F5F5F5F5F5F5F5F5F5F5F5F5F5F5F5F5F5F5F5F5F5F5F5F5F5F5F5F5E2F5F5F5F5F5F5F5F5F5F5F5F5F5F5F5F5E2F5F5F5E2E2EFF5F5F5E2F5F5F5F5F5F5F5F5F5F5F5F5F5F5F5F5E2F5F5F5F5F5F5F5F5F5F5F5F5F5F5F5F5F5F5F5F5F5F5
310
F5F5F5F5F5F5F5F5F5F5F5F5F5F5F5F5F5F5F5F5F5F5F5F5F5F5F5F5F5F5F5F5F5F5F5F5F5F5F5F5F5F5F5F5F5F5F5F5F5F5F5F5F5F5F5F5F5F5F5F5F5F5F5F5F5F5F5F5F5F5F5F5F5F5F5F5F5F5F5F5F5F5F5F5F5F5F5F5F5F5F5F5F5F5F5F5F5F5F5F5F5F5F5F5F5F5F5F5F5F5F5F5F5E2F5F5F5F5F5F5F5F5F5F5F5F5F5
310
F5F5F5E2F5F5F5E2E2EFF5F5F5E2F5F5F5F5F5F5F5F5F5F5F5F5F5F5F5F5E2F5F5F5F5F5F5F5F5F5F5F5F5F5F5F5F5F5F5F5F5F5F5F5F5F5F5F5F5F5F5F5F5F5F5F5F5F5F5F5F5F5F5F5F5F5F5F5F5F5F5F5F5F5F5F5F5F5F5F5F5F5F5F5F5F5F5F5F5F5F5F5F5F5F5F5F5F5F5F5F5F5F5F5F5F5F5F5F5F5F5F5F5F5F5F5F5
310
F5F5F5F5F5F5F5F5F5F5F5F5F5F5F5F5F5F5F5F5F5F5F5F5F5F5F5F5F5F5F5F5F5F5F5F5F5F5F5E2F5F5F5F5F5F5F5F5F5F5F5F5F5F5F5F5E2F5F5F5E2E2EFF5F5F5E2F5F5F5F5F5F5F5F5F5F5F5F5F5F5F5F5E2F5F5F5F5F5F5F5F5F5F5F5F5F5F5F5F5F5F5F5F5F5F5F5F5F5F5F5F5F5F5F5F5F5F5F5F5F5F5F5F5F5F5F5
310
F5F5F5F5F5F5F5F5F5F5F5F5F5F5F5F5F5F5F5F5F5F5F5F5F5F5F5F5F5F5F5F5F5F5F5F5F5F5F5F5F5F5F5F5F5F5F5F5F5F5F5F5F5F5F5F5F5F5F5F5F5F5F5F5F5F5F5F5F5F5F5F5F5F5F5F5F5F5F5F5F5F5F5F5F5F5F5F5F5F5F5F5E2F5F5F5F5F5F5F5F5F5F5F5F5F5F5F5F5E2F5F5F5E2E2EFF5F5F5E2F5F5F5F5F5F5F5
310
F5F5F5F5F5F5F5F5F5E2F5F5F5F5F5F5F5F5F5F5F5F5F5F5F5F5F5F5F5F5F5F5F5F5F5F5F5F5F5F5F5F5F5F5F5F5F5F5F5F5F5F5F5F5F5F5F5F5F5F5F5F5F5F5F5F5F5F5F5F5F5F5F5F5F5F5F5F5F5F5F5F5F5F5F5F5F5F5F5F5F5F5F5F5F5F5F5F5F5F5F5F5F5F5F5F5F5F5F5F5F5F5F5F5F5F5F5F5F5F5F5F5F5F5F5F5F5
310
F5F5F5F5F5F5F5F5F5F5F5F5F5F5F5F5F5F5E2F5F5F5F5F5F5F5F5F5F5F5F5F5F5F5F5E2F5F5F5E2E2EFF5F5F5E2F5F5F5F5F5F5F5F5F5F5F5F5F5F5F5F5E2F5F5F5F5F5F5F5F5F5F5F5F5F5F5F5F5F5F5F5F5F5F5F5F5F5F5F5F5F5F5F5F5F5F5F5F5F5F5F5F5F5F5F5F5F5F5F5F5F5F5F5F5F5F5F5F5F5F5F5F5F5F5F5F5
310
F5F5F5F5F5F5F5F5F5F5F5F5F5F5F5F5F5F5F5F5F5F5F5F5F5F5F5F5F5F5F5F5F5F5F5F5F5F5F5F5F5F5F5F5F5F5F5F5F5F5F5F5F5F5F5F5F5F5F5F5F5F5F5F5F5F5F5F5F5F5F5E2F5F5F5F5F5F5F5F5F5F5F5F5F5F5F5F5E2F5F5F5E2E2EFF5F5F5E2F5F5F5F5F5F5F5F5F5F5F5F5F5F5F5F5E2F5F5F5F5F5F5F5F5F5F5F5
310
F5F5F5F5F5F5F5F5F5F5F5F5F5F5F5F5F5F5F5F5F5F5F5F5F5F5F5F5F5F5F5F5F5F5F5F5F5F5F5F5F5F5F5F5F5F5F5F5F5F5F5F5F5F5F5F5F5F5F5F5F5F5F5F5F5F5F5F5F5F5F5F5F5F5F5F5F5F5F5F5F5F5F5F5F5F5F5F5F5F5F5F5F5F5F5F5F5F5F5F5F5F5F5F5F5F5F5F5F5F5F5F5F5F5F5F5F5F5F5F5F5F5F5F5E2F5F5
310
F5F5F5F5F5F5F5F5F5F5F5F5F5F5E2F5F5F5E2E2EFF5F5F5E2F5F5F5F5F5F5F5F5F5F5F5F5F5F5F5F5E2F5F5F5F5F5F5F5F5F5F5F5F5F5F5F5F5F5F5F5F5F5F5F5F5F5F5F5F5F5F5F5F5F5F5F5F5F5F5F5F5F5F5F5F5F5F5F5F5F5F5F5F5F5F5F5F5F5F5F5F5F5F5F5F5F5F5F5F5F5F5F5F5F5F5F5F5F5F5F5F5F5F5F5F5F5
310
F5F5F5F5F5F5F5F5F5F5F5F5F5F5F5F5F5F5F5F5F5F5F5F5F5F5F5F5F5F5F5F5F5F5F5F5F5F5F5F5F5F5F5F5F5F5F5F5F5F5E2F5F5F5F5F5F5F5F5F5F5F5F5F5F5F5F5E2F5F5F5E2E2EFF5F5F5E2F5F5F5F5F5F5F5F5F5F5F5F5F5F5F5F5E2F5F5F5F5F5F5F5F5F5F5F5F5F5F5F5F5F5F5F5F5F5F5F5F5F5F5F5F5F5F5F5F5
310
F5F5F5F5F5F5F5F5F5F5F5F5F5F5F5F5F5F5F5F5F5F5F5F5F5F5F5F5F5F5F5F5F5F5F5F5F5F5F5F5F5F5F5F5F5F5F5F5F5F5F5F5F5F5F5F5F5F5F5F5F5F5F5F5F5F5F5F5F5F5F5F5F5F5F5F5F5F5F5F5F5F5F5F5F5F5F5F5F5F5F5F5F5F5F5F5F5F5F5F5F5F5F5E2F5F5F5F5F5F5F5F5F5F5F5F5F5F5F5F5E2F5F5F5E2E2EF
310
F5F5F5E2F5F5F5F5F5F5F5F5F5F5F5F5F5F5F5F5E2F5F5F5F5F5F5F5F5F5F5F5F5F5F5F5F5F5F5F5F5F5F5F5F5F5F5F5F5F5F5F5F5F5F5F5F5F5F5F5F5F5F5F5F5F5F5F5F5F5F5F5F5F5F5F5F5F5F5F5F5F5F5F5F5F5F5F5F5F5F5F5F5F5F5F5F5F5F5F5F5F5F5F5F5F5F5F5F5F5F5F5F5F5F5F5F5F5F5F5F5F5F5F5F5F5F5
310
F5F5F5F5F5F5F5F5F5F5F5F5F5F5F5F5F5F5F5F5F5F5F5F5F5F5F5F5F5E2F5F5F5F5F5F5F5F5F5F5F5F5F5F5F5F5E2F5F5F5E2E2EFF5F5F5E2F5F5F5F5F5F5F5F5F5F5F5F5F5F5F5F5E2F5F5F5F5F5F5F5F5F5F5F5F5F5F5F5F5F5F5F5F5F5F5F5F5F5F5F5F5F5F5F5F5F5F5F5F5F5F5F5F5F5F5F5F5F5F5F5F5F5F5F5F5F5
310
F5F5F5F5F5F5F5F5F5F5F5F5F5F5F5F5F5F5F5F5F5F5F5F5F5F5F5F5F5F5F5F5F5F5F5F5F5F5F5F5F5F5F5F5F5F5F5F5F5F5F5F5F5F5F5F5F5F5F5F5F5F5F5F5F5F5F5F5F5F5F5F5F5F5F5F5F5F5F5F5F5F5E2F5F5F5F5F5F5F5F5F5F5F5F5F5F5F5F5E2F5F5F5E2E2EFF5F5F5E2F5F5F5F5F5F5F5F5F5F5F5F5F5F5F5F5E2
310
F5F5F5F5F5F5F5F5F5F5F5F5F5F5F5F5F5F5F5F5F5F5F5F5F5F5F5F5F5F5F5F5F5F5F5F5F5F5F5F5F5F5F5F5F5F5F5F5F5F5F5F5F5F5F5F5F5F5F5F5F5F5F5F5F5F5F5F5F5F5F5F5F5F5F5F5F5F5F5F5F5F5F5F5F5F5F5F5F5F5F5F5F5F5F5F5F5F5F5F5F5F5F5F5F5F5F5F5F5F5F5F5F5F5F5F5F5F5F5F5F5F5F5F5F5F5F5
310
F5F5F5F5F5F5F5F5E2F5F5F5F5F5F5F5F5F5F5F5F5F5F5F5F5E2F5F5F5E2E2EFF5F5F5E2F5F5F5F5F5F5F5F5F5F5F5F5F5F5F5F5E2F5F5F5F5F5F5F5F5F5F5F5F5F5F5F5F5F5F5F5F5F5F5F5F5F5F5F5F5F5F5F5F5F5F5F5F5F5F5F5F5F5F5F5F5F5F5F5F5F5F5F5F5F5F5F5F5F5F5F5F5F5F5F5F5F5F5F5F5F5F5F5F5F5F5
310
F5F5F5F5F5F5F5F5F5F5F5F5F5F5F5F5F5F5F5F5F5F5F5F5F5F5F5F5F5F5F5F5F5F5F5F5F5F5F5F5F5F5F5F5F5F5F5F5F5F5F5F5F5F5F5F5F5F5F5F5F5E2F5F5F5F5F5F5F5F5F5F5F5F5F5F5F5F5E2F5F5F5E2E2EFF5F5F5E2F5F5F5F5F5F5F5F5F5F5F5F5F5F5F5F5E2F5F5F5F5F5F5F5F5F5F5F5F5F5F5F5F5F5F5F5F5F5
310
F5F5F5F5F5F5F5F5F5F5F5F5F5F5F5F5F5F5F5F5F5F5F5F5F5F5F5F5F5F5F5F5F5F5F5F5F5F5F5F5F5F5F5F5F5F5F5F5F5F5F5F5F5F5F5F5F5F5F5F5F5F5F5F5F5F5F5F5F5F5F5F5F5F5F5F5F5F5F5F5F5F5F5F5F5F5F5F5F5F5F5F5F5F5F5F5F5F5F5F5F5F5F5F5F5F5F5F5F5F5F5F5F5F5E2F5F5F5F5F5F5F5F5F5F5F5F5
310
F5F5F5F5E2F5F5F5E2E2EFF5F5F5E2F5F5F5F5F5F5F5F5F5F5F5F5F5F5F5F5E2F5F5F5F5F5F5F5F5F5F5F5F5F5F5F5F5F5F5F5F5F5F5F5F5F5F5F5F5F5F5F5F5F5F5F5F5F5F5F5F5F5F5F5F5F5F5F5F5F5F5F5F5F5F5F5F5F5F5F5F5F5F5F5F5F5F5F5F5F5F5F5F5F5F5F5F5F5F5F5F5F5F5F5F5F5F5F5F5F5F5F5F5F5F5F5
310
F5F5F5F5F5F5F5F5F5F5F5F5F5F5F5F5F5F5F5F5F5F5F5F5F5F5F5F5F5F5F5F5F5F5F5F5F5F5F5F5E2F5F5F5F5F5F5F5F5F5F5F5F5F5F5F5F5E2F5F5F5E2E2EFF5F5F5F5F5F5F5F5F5F5F5F5F5F5F5F5F5F5F5F5E2F5F5F5F5F5F5F5F5F5F5F5F5F5F5F5F5F5F5F5F5F5F5F5F5F5F5F5F5F5F5F5F5F5F5F5F5F5F5F5F5F5F5
310
F5F5F5F5F5F5F5F5F5F5F5F5F5F5F5F5F5F5F5F5F5F5F5F5F5F5F5F5F5F5F5F5F5F5F5F5F5F5F5F5F5F5F5F5F5F5F5F5F5F5F5F5F5F5F5F5F5F5F5F5F5F5F5F5F5F5F5F5F5F5F5F5F5F5F5F5F5F5F5F5F5F5F5F5F5F5F5F5F5F5F5F5F5E2F5F5F5F5F5F5F5F5F5F5F5F5F5F5F5F5F5F5F5F5E2E2EFF5F5F5F5F5F5F5F5F5F5
310
F5F5F5F5F5F5F5F5F5F5E2F5F5F5F5F5F5F5F5F5F5F5F5F5F5F5F5F5F5F5F5F5F5F5F5F5F5F5F5F5F5F5F5F5F5F5F5F5F5F5F5F5F5F5F5F5F5F5F5F5F5F5F5F5F5F5F5F5F5F5F5F5F5F5F5F5F5F5F5F5F5F5F5F5F5F5F5F5F5F5F5F5F5F5F5F5F5F5F5F5F5F5F5F5F5F5F5F5F5F5F5F5F5F5F5F5F5F5F5F5F5F5F5F5F5F5F5
310
F5F5F5F5F5F5F5F5F5F5F5F5F5F5F5F5F5F5F5E2F5F5F5F5F5F5F5F5F5F5F5F5F5F5F5F5F5F5F5F5E2E2EFF5F5F5F5F5F5F5F5F5F5F5F5F5F5F5F5F5F5F5F5E2F5F5F5F5F5F5F5F5F5F5F5F5F5F5F5F5F5F5F5F5F5F5F5F5F5F5F5F5F5F5F5F5F5F5F5F5F5F5F5F5F5F5F5F5F5F5F5F5F5F5F5F5F5F5F5F5F5F5F5F5F5F5F5
310
F5F5F5F5F5F5F5F5F5F5F5F5F5F5F5F5F5F5F5F5F5F5F5F5F5F5F5F5F5F5F5F5F5F5F5F5F5F5F5F5F5F5F5F5F5F5F5F5F5F5F5F5F5F5F5F5F5F5F5F5F5F5F5F5F5F5F5F5F5F5F5F5E2F5F5F5F5F5F5F5F5F5F5F5F5F5F5F5F5F5F5F5F5E2E2EFF5F5F5F5F5F5F5F5F5F5F5F5F5F5F5F5F5F5F5F5E2F5F5F5F5F5F5F5F5F5F5
310
F5F5F5F5F5F5F5F5F5F5F5F5F5F5F5F5F5F5F5F5F5F5F5F5F5F5F5F5F5F5F5F5F5F5F5F5F5F5F5F5F5F5F5F5F5F5F5F5F5F5F5F5F5F5F5F5F5F5F5F5F5F5F5F5F5F5F5F5F5F5F5F5F5F5F5F5F5F5F5F5F5F5F5F5F5F5F5F5F5F5F5F5F5F5F5F5F5F5F5F5F5F5F5F5F5F5F5F5F5F5F5F5F5F5F5F5F5F5F5F5F5F5F5F5F5E2F5
310
F5F5F5F5F5F5F5F5F5F5F5F5F5F5F5F5F5F5F5E2E2EFF5F5F5F5F5F5F5F5F5F5F5F5F5F5F5F5F5F5F5F5E2F5F5F5F5F5F5F5F5F5F5F5F5F5F5F5F5F5F5F5F5F5F5F5F5F5F5F5F5F5F5F5F5F5F5F5F5F5F5F5F5F5F5F5F5F5F5F5F5F5F5F5F5F5F5F5F5F5F5F5F5F5F5F5F5F5F5F5F5F5F5F5F5F5F5F5F5F5F5F5F5F5F5F5F5
310
F5F5F5F5F5F5F5F5F5F5F5F5F5F5F5F5F5F5F5F5F5F5F5F5F5F5F5F5F5F5F5F5F5F5F5F5F5F5F5F5F5F5F5F5F5F5F5F5F5F5F5E2F5F5F5F5F5F5F5F5F5F5F5F5F5F5F5F5F5F5F5F5E2E2EFF5F5F5F5F5F5F5F5F5F5F5F5F5F5F5F5F5F5F5F5E2F5F5F5F5F5F5F5F5F5F5F5F5F5F5F5F5F5F5F5F5F5F5F5F5F5F5F5F5F5F5F5
310
F5F5F5F5F5F5F5F5F5F5F5F5F5F5F5F5F5F5F5F5F5F5F5F5F5F5F5F5F5F5F5F5F5F5F5F5F5F5F5F5F5F5F5F5F5F5F5F5F5F5F5F5F5F5F5F5F5F5F5F5F5F5F5F5F5F5F5F5F5F5F5F5F5F5F5F5F5F5F5F5F5F5F5F5F5F5F5F5F5F5F5F5F5F5F5F5F5F5F5F5F5F5F5F5E2F5F5F5F5F5F5F5F5F5F5F5F5F5F5F5F5F5F5F5F5E2E2
310
EFF5F5F5F5F5F5F5F5F5F5F5F5F5F5F5F5F5F5F5F5E2F5F5F5F5F5F5F5F5F5F5F5F5F5F5F5F5F5F5F5F5F5F5F5F5F5F5F5F5F5F5F5F5F5F5F5F5F5F5F5F5F5F5F5F5F5F5F5F5F5F5F5F5F5F5F5F5F5F5F5F5F5F5F5F5F5F5F5F5F5F5F5F5F5F5F5F5F5F5F5F5F5F5F5F5F5F5F5F5F5F5F5F5F5F5F5F5F5F5F5F5F5F5F5F5F5
310
F5F5F5F5F5F5F5F5F5F5F5F5F5F5F5F5F5F5F5F5F5F5F5F5F5F5F5F5F5F5E2F5F5F5F5F5F5F5F5F5F5F5F5F5F5F5F5F5F5F5F5E2E2EFF5F5F5F5F5F5F5F5F5F5F5F5F5F5F5F5F5F5F5F5E2F5F5F5F5F5F5F5F5F5F5F5F5F5F5F5F5F5F5F5F5F5F5F5F5F5F5F5F5F5F5F5F5F5F5F5F5F5F5F5F5F5F5F5F5F5F5F5F5F5F5F5F5
310
F5F5F5F5F5F5F5F5F5F5F5F5F5F5F5F5F5F5F5F5F5F5F5F5F5F5F5F5F5F5F5F5F5F5F5F5F5F5F5F5F5F5F5F5F5F5F5F5F5F5F5F5F5F5F5F5F5F5F5F5F5F5F5F5F5F5F5F5F5F5F5F5F5F5F5F5F5F5F5F5F5F5F5E2F5F5F5F5F5F5F5F5F5F5F5F5F5F5F5F5F5F5F5F5E2E2EFF5F5F5F5F5F5F5F5F5F5F5F5F5F5F5F5F5F5F5F5
310
E2F5F5F5F5F5F5F5F5F5F5F5F5F5F5F5F5F5F5F5F5F5F5F5F5F5F5F5F5F5F5F5F5F5F5F5F5F5F5F5F5F5F5F5F5F5F5F5F5F5F5F5F5F5F5F5F5F5F5F5F5F5F5F5F5F5F5F5F5F5F5F5F5F5F5F5F5F5F5F5F5F5F5F5F5F5F5F5F5F5F5F5F5F5F5F5F5F5F5F5F5F5F5F5F5F5F5F5F5F5F5F5F5F5F5F5F5F5F5F5F5F5F5F5F5F5F5
310
F5F5F5F5F5F5F5F5F5E2F5F5F5F5F5F5F5F5F5F5F5F5F5F5F5F5F5F5F5F5E2E2EFF5F5F5E2F5F5F5F5F5F5F5F5F5F5F5F5F5F5F5F5E2F5F5F5F5F5F5F5F5F5F5F5F5F5F5F5F5F5F5F5F5F5F5F5F5F5F5F5F5F5F5F5F5F5F5F5F5F5F5F5F5F5F5F5F5F5F5F5F5F5F5F5F5F5F5F5F5F5F5F5F5F5F5F5F5F5F5F5F5F5F5F5F5F5
310
F5F5F5F5F5F5F5F5F5F5F5F5F5F5F5F5F5F5F5F5F5F5F5F5F5F5F5F5F5F5F5F5F5F5F5F5F5F5F5F5F5F5F5F5F5F5F5F5F5F5F5F5F5F5F5F5F5F5F5F5F5F5E2F5F5F5F5F5F5F5F5F5F5F5F5F5F5F5F5E2F5F5F5E2E2EFF5F5F5E2F5F5F5F5F5F5F5F5F5F5F5F5F5F5F5F5E2F5F5F5F5F5F5F5F5F5F5F5F5F5F5F5F5F5F5F5F5
310
F5F5F5F5F5F5F5F5F5F5F5F5F5F5F5F5F5F5F5F5F5F5F5F5F5F5F5F5F5F5F5F5F5F5F5F5F5F5F5F5F5F5F5F5F5F5F5F5F5F5F5F5F5F5F5F5F5F5F5F5F5F5F5F5F5F5F5F5F5F5F5F5F5F5F5F5F5F5F5F5F5F5F5F5F5F5F5F5F5F5F5F5F5F5F5F5F5F5F5F5F5F5F5F5F5F5F5F5F5F5F5F5F5F5F5E2F5F5F5F5F5F5F5F5F5F5F5
310
F5F5F5F5F5E2F5F5F5E2E2EFF5F5F5E2F5F5F5F5F5F5F5F5F5F5F5F5F5F5F5F5E2F5F5F5F5F5F5F5F5F5F5F5F5F5F5F5F5F5F5F5F5F5F5F5F5F5F5F5F5F5F5F5F5F5F5F5F5F5F5F5F5F5F5F5F5F5F5F5F5F5F5F5F5F5F5F5F5F5F5F5F5F5F5F5F5F5F5F5F5F5F5F5F5F5F5F5F5F5F5F5F5F5F5F5F5F5F5F5F5F5F5F5F5F5F5
310
F5F5F5F5F5F5F5F5F5F5F5F5F5F5F5F5F5F5F5F5F5F5F5F5F5F5F5F5F5F5F5F5F5F5F5F5F5F5F5F5F5E2F5F5F5F5F5F5F5F5F5F5F5F5F5F5F5F5E2F5F5F5E2E2EFF5F5F5E2F5F5F5F5F5F5F5F5F5F5F5F5F5F5F5F5E2F5F5F5F5F5F5F5F5F5F5F5F5F5F5F5F5F5F5F5F5F5F5F5F5F5F5F5F5F5F5F5F5F5F5F5F5F5F5F5F5F5
310
F5F5F5F5F5F5F5F5F5F5F5F5F5F5F5F5F5F5F5F5F5F5F5F5F5F5F5F5F5F5F5F5F5F5F5F5F5F5F5F5F5F5F5F5F5F5F5F5F5F5F5F5F5F5F5F5F5F5F5F5F5F5F5F5F5F5F5F5F5F5F5F5F5F5F5F5F5F5F5F5F5F5F5F5F5F5F5F5F5F5F5F5F5F5E2F5F5F5F5F5F5F5F5F5F5F5F5F5F5F5F5E2F5F5F5E2E2EFF5F5F5E2F5F5F5F5F5
310
F5F5F5F5F5F5F5F5F5F5F5E2F5F5F5F5F5F5F5F5F5F5F5F5F5F5F5F5F5F5F5F5F5F5F5F5F5F5F5F5F5F5F5F5F5F5F5F5F5F5F5F5F5F5F5F5F5F5F5F5F5F5F5F5F5F5F5F5F5F5F5F5F5F5F5F5F5F5F5F5F5F5F5F5F5F5F5F5F5F5F5F5F5F5F5F5F5F5F5F5F5F5F5F5F5F5F5F5F5F5F5F5F5F5F5F5F5F5F5F5F5F5F5F5F5F5F5
310
F5F5F5F5F5F5F5F5F5F5F5F5F5F5F5F5F5F5F5F5E2F5F5F5F5F5F5F5F5F5F5F5F5F5F5F5F5E2F5F5F5E2E2EFF5F5F5E2F5F5F5F5F5F5F5F5F5F5F5F5F5F5F5F5E2F5F5F5F5F5F5F5F5F5F5F5F5F5F5F5F5F5F5F5F5F5F5F5F5F5F5F5F5F5F5F5F5F5F5F5F5F5F5F5F5F5F5F5F5F5F5F5F5F5F5F5F5F5F5F5F5F5F5F5F5F5F5
310
F5F5F5F5F5F5F5F5F5F5F5F5F5F5F5F5F5F5F5F5F5F5F5F5F5F5F5F5F5F5F5F5F5F5F5F5F5F5F5F5F5F5F5F5F5F5F5F5F5F5F5F5F5F5F5F5F5F5F5F5F5F5F5F5F5F5F5F5F5F5F5F5F5E2F5F5F5F5F5F5F5F5F5F5F5F5F5F5F5F5E2F5F5F5E2E2EFF5F5F5E2F5F5F5F5F5F5F5F5F5F5F5F5F5F5F5F5E2F5F5F5F5F5F5F5F5F5
310
F5F5F5F5F5F5F5F5F5F5F5F5F5F5F5F5F5F5F5F5F5F5F5F5F5F5F5F5F5F5F5F5F5F5F5F5F5F5F5F5F5F5F5F5F5F5F5F5F5F5F5F5F5F5F5F5F5F5F5F5F5F5F5F5F5F5F5F5F5F5F5F5F5F5F5F5F5F5F5F5F5F5F5F5F5F5F5F5F5F5F5F5F5F5F5F5F5F5F5F5F5F5F5F5F5F5F5F5F5F5F5F5F5F5F5F5F5F5F5F5F5F5F5F5F5F5E2
310
F5F5F5F5F5F5F5F5F5F5F5F5F5F5F5F5E2F5F5F5E2E2EFF5F5F5E2F5F5F5F5F5F5F5F5F5F5F5F5F5F5F5F5E2F5F5F5F5F5F5F5F5F5F5F5F5F5F5F5F5F5F5F5F5F5F5F5F5F5F5F5F5F5F5F5F5F5F5F5F5F5F5F5F5F5F5F5F5F5F5F5F5F5F5F5F5F5F5F5F5F5F5F5F5F5F5F5F5F5F5F5F5F5F5F5F5F5F5F5F5F5F5F5F5F5F5F5
310
F5F5F5F5F5F5F5F5F5F5F5F5F5F5F5F5F5F5F5F5F5F5F5F5F5F5F5F5F5F5F5F5F5F5F5F5F5F5F5F5F5F5F5F5F5F5F5F5F5F5F5F5E2F5F5F5F5F5F5F5F5F5F5F5F5F5F5F5F5E2F5F5F5E2E2EFF5F5F5E2F5F5F5F5F5F5F5F5F5F5F5F5F5F5F5F5E2F5F5F5F5F5F5F5F5F5F5F5F5F5F5F5F5F5F5F5F5F5F5F5F5F5F5F5F5F5F5
310
F5F5F5F5F5F5F5F5F5F5F5F5F5F5F5F5F5F5F5F5F5F5F5F5F5F5F5F5F5F5F5F5F5F5F5F5F5F5F5F5F5F5F5F5F5F5F5F5F5F5F5F5F5F5F5F5F5F5F5F5F5F5F5F5F5F5F5F5F5F5F5F5F5F5F5F5F5F5F5F5F5F5F5F5F5F5F5F5F5F5F5F5F5F5F5F5F5F5F5F5F5F5F5F5F5E2F5F5F5F5F5F5F5F5F5F5F5F5F5F5F5F5E2F5F5F5E2
310
E2EFF5F5F5E2F5F5F5F5F5F5F5F5F5F5F5F5F5F5F5F5E2F5F5F5F5F5F5F5F5F5F5F5F5F5F5F5F5F5F5F5F5F5F5F5F5F5F5F5F5F5F5F5F5F5F5F5F5F5F5F5F5F5F5F5F5F5F5F5F5F5F5F5F5F5F5F5F5F5F5F5F5F5F5F5F5F5F5F5F5F5F5F5F5F5F5F5F5F5F5F5F5F5F5F5F5F5F5F5F5F5F5F5F5F5F5F5F5F5F5F5F5F5F5F5F5
310
F5F5F5F5F5F5F5F5F5F5F5F5F5F5F5F5F5F5F5F5F5F5F5F5F5F5F5F5F5F5F5E2F5F5F5F5F5F5F5F5F5F5F5F5F5F5F5F5E2F5F5F5E2E2EFF5F5F5E2F5F5F5F5F5F5F5F5F5F5F5F5F5F5F5F5E2F5F5F5F5F5F5F5F5F5F5F5F5F5F5F5F5F5F5F5F5F5F5F5F5F5F5F5F5F5F5F5F5F5F5F5F5F5F5F5F5F5F5F5F5F5F5F5F5F5F5F5
310
F5F5F5F5F5F5F5F5F5F5F5F5F5F5F5F5F5F5F5F5F5F5F5F5F5F5F5F5F5F5F5F5F5F5F5F5F5F5F5F5F5F5F5F5F5F5F5F5F5F5F5F5F5F5F5F5F5F5F5F5F5F5F5F5F5F5F5F5F5F5F5F5F5F5F5F5F5F5F5F5F5F5F5F5E2F5F5F5F5F5F5F5F5F5F5F5F5F5F5F5F5E2F5F5F5E2E2EFF5F5F5E2F5F5F5F5F5F5F5F5F5F5F5F5F5F5F5
310
F5E2F5F5F5F5F5F5F5F5F5F5F5F5F5F5F5F5F5F5F5F5F5F5F5F5F5F5F5F5F5F5F5F5F5F5F5F5F5F5F5F5F5F5F5F5F5F5F5F5F5F5F5F5F5F5F5F5F5F5F5F5F5F5F5F5F5F5F5F5F5F5F5F5F5F5F5F5F5F5F5F5F5F5F5F5F5F5F5F5F5F5F5F5F5F5F5F5F5F5F5F5F5F5F5F5F5F5F5F5F5F5F5F5F5F5F5F5F5F5F5F5F5F5F5F5F5
310
F5F5F5F5F5F5F5F5F5F5E2F5F5F5F5F5F5F5F5F5F5F5F5F5F5F5F5E2F5F5F5E2E2EFF5F5F5E2F5F5F5F5F5F5F5F5F5F5F5F5F5F5F5F5E2F5F5F5F5F5F5F5F5F5F5F5F5F5F5F5F5F5F5F5F5F5F5F5F5F5F5F5F5F5F5F5F5F5F5F5F5F5F5F5F5F5F5F5F5F5F5F5F5F5F5F5F5F5F5F5F5F5F5F5F5F5F5F5F5F5F5F5F5F5F5F5F5
310
F5F5F5F5F5F5F5F5F5F5F5F5F5F5F5F5F5F5F5F5F5F5F5F5F5F5F5F5F5F5F5F5F5F5F5F5F5F5F5F5F5F5F5F5F5F5F5F5F5F5F5F5F5F5F5F5F5F5F5F5F5F5F5E2F5F5F5F5F5F5F5F5F5F5F5F5F5F5F5F5E2F5F5F5E2E2EFF5F5F5E2F5F5F5F5F5F5F5F5F5F5F5F5F5F5F5F5E2F5F5F5F5F5F5F5F5F5F5F5F5F5F5F5F5F5F5F5
310
F5F5F5F5F5F5F5F5F5F5F5F5F5F5F5F5F5F5F5F5F5F5F5F5F5F5F5F5F5F5F5F5F5F5F5F5F5F5F5F5F5F5F5F5F5F5F5F5F5F5F5F5F5F5F5F5F5F5F5F5F5F5F5F5F5F5F5F5F5F5F5F5F5F5F5F5F5F5F5F5F5F5F5F5F5F5F5F5F5F5F5F5F5F5F5F5F5F5F5F5F5F5F5F5F5F5F5F5F5F5F5F5F5F5F5F5E2F5F5F5F5F5F5F5F5F5F5
310
F5F5F5F5F5F5E2F5F5F5E2E2EFF5F5F5E2F5F5F5F5F5F5F5F5F5F5F5F5F5F5F5F5E2F5F5F5F5F5F5F5F5F5F5F5F5F5F5F5F5F5F5F5F5F5F5F5F5F5F5F5F5F5F5F5F5F5F5F5F5F5F5F5F5F5F5F5F5F5F5F5F5F5F5F5F5F5F5F5F5F5F5F5F5F5F5F5F5F5F5F5F5F5F5F5F5F5F5F5F5F5F5F5F5F5F5F5F5F5F5F5F5F5F5F5F5F5
310
F5F5F5F5F5F5F5F5F5F5F5F5F5F5F5F5F5F5F5F5F5F5F5F5F5F5F5F5F5F5F5F5F5F5F5F5F5F5F5F5F5F5E2F5F5F5F5F5F5F5F5F5F5F5F5F5F5F5F5E2F5F5F5E2E2EFF5F5F5E2F5F5F5F5F5F5F5F5F5F5F5F5F5F5F5F5E2F5F5F5F5F5F5F5F5F5F5F5F5F5F5F5F5F5F5F5F5F5F5F5F5F5F5F5F5F5F5F5F5F5F5F5F5F5F5F5F5
310
F5F5F5F5F5F5F5F5F5F5F5F5F5F5F5F5F5F5F5F5F5F5F5F5F5F5F5F5F5F5F5F5F5F5F5F5F5F5F5F5F5F5F5F5F5F5F5F5F5F5F5F5F5F5F5F5F5F5F5F5F5F5F5F5F5F5F5F5F5F5F5F5F5F5F5F5F5F5F5F5F5F5F5F5F5F5F5F5F5F5F5F5F5F5F5E2F5F5F5F5F5F5F5F5F5F5F5F5F5F5F5F5E2F5F5F5E2E2EFF5F5F5E2F5F5F5F5
310
F5F5F5F5F5F5F5F5F5F5F5F5E2F5F5F5F5F5F5F5F5F5F5F5F5F5F5F5F5F5F5F5F5F5F5F5F5F5F5F5F5F5F5F5F5F5F5F5F5F5F5F5F5F5F5F5F5F5F5F5F5F5F5F5F5F5F5F5F5F5F5F5F5F5F5F5F5F5F5F5F5F5F5F5F5F5F5F5F5F5F5F5F5F5F5F5F5F5F5F5F5F5F5F5F5F5F5F5F5F5F5F5F5F5F5F5F5F5F5F5F5F5F5F5F5F5F5
310
F5F5F5F5F5F5F5F5F5F5F5F5F5F5F5F5F5F5F5F5F5E2F5F5F5F5F5F5F5F5F5F5F5F5F5F5F5F5E2F5F5F5E2E2EFF5F5F5F5F5F5F5F5F5F5F5F5F5F5F5F5F5F5F5F5E2F5F5F5F5F5F5F5F5F5F5F5F5F5F5F5F5F5F5F5F5F5F5F5F5F5F5F5F5F5F5F5F5F5F5F5F5F5F5F5F5F5F5F5F5F5F5F5F5F5F5F5F5F5F5F5F5F5F5F5F5F5
310
F5F5F5F5F5F5F5F5F5F5F5F5F5F5F5F5F5F5F5F5F5F5F5F5F5F5F5F5F5F5F5F5F5F5F5F5F5F5F5F5F5F5F5F5F5F5F5F5F5F5F5F5F5F5F5F5F5F5F5F5F5F5F5F5F5F5F5F5F5F5F5F5F5F5E2F5F5F5F5F5F5F5F5F5F5F5F5F5F5F5F5F5F5F5F5E2E2EFF5F5F5F5F5F5F5F5F5F5F5F5F5F5F5F5F5F5F5F5E2F5F5F5F5F5F5F5F5
310
F5F5F5F5F5F5F5F5F5F5F5F5F5F5F5F5F5F5F5F5F5F5F5F5F5F5F5F5F5F5F5F5F5F5F5F5F5F5F5F5F5F5F5F5F5F5F5F5F5F5F5F5F5F5F5F5F5F5F5F5F5F5F5F5F5F5F5F5F5F5F5F5F5F5F5F5F5F5F5F5F5F5F5F5F5F5F5F5F5F5F5F5F5F5F5F5F5F5F5F5F5F5F5F5F5F5F5F5F5F5F5F5F5F5F5F5F5F5F5F5F5F5F5F5F5F5F5
310
E2F5F5F5F5F5F5F5F5F5F5F5F5F5F5F5F5F5F5F5F5E2E2EFF5F5F5F5F5F5F5F5F5F5F5F5F5F5F5F5F5F5F5F5E2F5F5F5F5F5F5F5F5F5F5F5F5F5F5F5F5F5F5F5F5F5F5F5F5F5F5F5F5F5F5F5F5F5F5F5F5F5F5F5F5F5F5F5F5F5F5F5F5F5F5F5F5F5F5F5F5F5F5F5F5F5F5F5F5F5F5F5F5F5F5F5F5F5F5F5F5F5F5F5F5F5F5
310
F5F5F5F5F5F5F5F5F5F5F5F5F5F5F5F5F5F5F5F5F5F5F5F5F5F5F5F5F5F5F5F5F5F5F5F5F5F5F5F5F5F5F5F5F5F5F5F5F5F5F5F5F5E2F5F5F5F5F5F5F5F5F5F5F5F5F5F5F5F5F5F5F5F5E2E2EFF5F5F5F5F5F5F5F5F5F5F5F5F5F5F5F5F5F5F5F5E2F5F5F5F5F5F5F5F5F5F5F5F5F5F5F5F5F5F5F5F5F5F5F5F5F5F5F5F5F5
310
F5F5F5F5F5F5F5F5F5F5F5F5F5F5F5F5F5F5F5F5F5F5F5F5F5F5F5F5F5F5F5F5F5F5F5F5F5F5F5F5F5F5F5F5F5F5F5F5F5F5F5F5F5F5F5F5F5F5F5F5F5F5F5F5F5F5F5F5F5F5F5F5F5F5F5F5F5F5F5F5F5F5F5F5F5F5F5F5F5F5F5F5F5F5F5F5F5F5F5F5F5F5F5F5F5F5E2F5F5F5F5F5F5F5F5F5F5F5F5F5F5F5F5F5F5F5F5
310
E2E2EFF5F5F5F5F5F5F5F5F5F5F5F5F5F5F5F5F5F5F5F5E2F5F5F5F5F5F5F5F5F5F5F5F5F5F5F5F5F5F5F5F5F5F5F5F5F5F5F5F5F5F5F5F5F5F5F5F5F5F5F5F5F5F5F5F5F5F5F5F5F5F5F5F5F5F5F5F5F5F5F5F5F5F5F5F5F5F5F5F5F5F5F5F5F5F5F5F5F5F5F5F5F5F5F5F5F5F5F5F5F5F5F5F5F5F5F5F5F5F5F5F5F5F5F5
310
F5F5F5F5F5F5F5F5F5F5F5F5F5F5F5F5F5F5F5F5F5F5F5F5F5F5F5F5F5F5F5F5E2F5F5F5F5F5F5F5F5F5F5F5F5F5F5F5F5F5F5F5F5E2E2EFF5F5F5F5F5F5F5F5F5F5F5F5F5F5F5F5F5F5F5F5E2F5F5F5F5F5F5F5F5F5F5F5F5F5F5F5F5F5F5F5F5F5F5F5F5F5F5F5F5F5F5F5F5F5F5F5F5F5F5F5F5F5F5F5F5F5F5F5F5F5F5
310
F5F5F5F5F5F5F5F5F5F5F5F5F5F5F5F5F5F5F5F5F5F5F5F5F5F5F5F5F5F5F5F5F5F5F5F5F5F5F5F5F5F5F5F5F5F5F5F5F5F5F5F5F5F5F5F5F5F5F5F5F5F5F5F5F5F5F5F5F5F5F5F5F5F5F5F5F5F5F5F5F5F5F5F5F5E2F5F5F5F5F5F5F5F5F5F5F5F5F5F5F5F5F5F5F5F5E2E2EFF5F5F5F5F5F5F5F5F5F5F5F5F5F5F5F5F5F5
310
F5F5E2F5F5F5F5F5F5F5F5F5F5F5F5F5F5F5F5F5F5F5F5F5F5F5F5F5F5F5F5F5F5F5F5F5F5F5F5F5F5F5F5F5F5F5F5F5F5F5F5F5F5F5F5F5F5F5F5F5F5F5F5F5F5F5F5F5F5F5F5F5F5F5F5F5F5F5F5F5F5F5F5F5F5F5F5F5F5F5F5F5F5F5F5F5F5F5F5F5F5F5F5F5F5F5F5F5F5F5F5F5F5F5F5F5F5F5F5F5F5F5F5F5F5F5F5
310
F5F5F5F5F5F5F5F5F5F5F5E2F5F5F5F5F5F5F5F5F5F5F5F5F5F5F5F5F5F5F5F5E2E2EFF5F5F5F5F5F5F5F5F5F5F5F5F5F5F5F5F5F5F5F5E2F5F5F5F5F5F5F5F5F5F5F5F5F5F5F5F5F5F5F5F5F5F5F5F5F5F5F5F5F5F5F5F5F5F5F5F5F5F5F5F5F5F5F5F5F5F5F5F5F5F5F5F5F5F5F5F5F5F5F5F5F5F5F5F5F5F5F5F5F5F5F5
310
F5F5F5F5F5F5F5F5F5F5F5F5F5F5F5F5F5F5F5F5F5F5F5F5F5F5F5F5F5F5F5F5F5F5F5F5F5F5F5F5F5F5F5F5F5F5F5F5F5F5F5F5F5F5F5F5F5F5F5F5F5F5F5F5E2F5F5F5F5F5F5F5F5F5F5F5F5F5F5F5F5F5F5F5F5E2E2EFF5F5F5F5F5F5F5F5F5F5F5F5F5F5F5F5F5F5F5F5E2F5F5F5F5F5F5F5F5F5F5F5F5F5F5F5F5F5F5
310
F5F5F5F5F5F5F5F5F5F5F5F5F5F5F5F5F5F5F5F5F5F5F5F5F5F5F5F5F5F5F5F5F5F5F5F5F5F5F5F5F5F5F5F5F5F5F5F5F5F5F5F5F5F5F5F5F5F5F5F5F5F5F5F5F5F5F5F5F5F5F5F5F5F5F5F5F5F5F5F5F5F5F5F5F5F5F5F5F5F5F5F5F5F5F5F5F5F5F5F5F5F5F5F5F5F5F5F5F5F5F5F5F5F5F5F5F5E2F5F5F5F5F5F5F5F5F5
310
F5F5F5F5F5F5F5F5F5F5F5E2E2EFF5F5F5E2F5F5F5F5F5F5F5F5F5F5F5F5F5F5F5F5E2F5F5F5F5F5F5F5F5F5F5F5F5F5F5F5F5F5F5F5F5F5F5F5F5F5F5F5F5F5F5F5F5F5F5F5F5F5F5F5F5F5F5F5F5F5F5F5F5F5F5F5F5F5F5F5F5F5F5F5F5F5F5F5F5F5F5F5F5F5F5F5F5F5F5F5F5F5F5F5F5F5F5F5F5F5F5F5F5F5F5F5F5
310
F5F5F5F5F5F5F5F5F5F5F5F5F5F5F5F5F5F5F5F5F5F5F5F5F5F5F5F5F5F5F5F5F5F5F5F5F5F5F5F5F5F5F5E2F5F5F5F5F5F5F5F5F5F5F5F5F5F5F5F5E2F5F5F5E2E2EFF5F5F5E2F5F5F5F5F5F5F5F5F5F5F5F5F5F5F5F5E2F5F5F5F5F5F5F5F5F5F5F5F5F5F5F5F5F5F5F5F5F5F5F5F5F5F5F5F5F5F5F5F5F5F5F5F5F5F5F5
310
F5F5F5F5F5F5F5F5F5F5F5F5F5F5F5F5F5F5F5F5F5F5F5F5F5F5F5F5F5F5F5F5F5F5F5F5F5F5F5F5F5F5F5F5F5F5F5F5F5F5F5F5F5F5F5F5F5F5F5F5F5F5F5F5F5F5F5F5F5F5F5F5F5F5F5F5F5F5F5F5F5F5F5F5F5F5F5F5F5F5F5F5F5F5F5F5E2F5F5F5F5F5F5F5F5F5F5F5F5F5F5F5F5E2F5F5F5E2E2EFF5F5F5E2F5F5F5
310
F5F5F5F5F5F5F5F5F5F5F5F5F5E2F5F5F5F5F5F5F5F5F5F5F5F5F5F5F5F5F5F5F5F5F5F5F5F5F5F5F5F5F5F5F5F5F5F5F5F5F5F5F5F5F5F5F5F5F5F5F5F5F5F5F5F5F5F5F5F5F5F5F5F5F5F5F5F5F5F5F5F5F5F5F5F5F5F5F5F5F5F5F5F5F5F5F5F5F5F5F5F5F5F5F5F5F5F5F5F5F5F5F5F5F5F5F5F5F5F5F5F5F5F5F5F5F5
310
F5F5F5F5F5F5F5F5F5F5F5F5F5F5F5F5F5F5F5F5F5F5E2F5F5F5F5F5F5F5F5F5F5F5F5F5F5F5F5E2F5F5F5E2E2EFF5F5F5E2F5F5F5F5F5F5F5F5F5F5F5F5F5F5F5F5E2F5F5F5F5F5F5F5F5F5F5F5F5F5F5F5F5F5F5F5F5F5F5F5F5F5F5F5F5F5F5F5F5F5F5F5F5F5F5F5F5F5F5F5F5F5F5F5F5F5F5F5F5F5F5F5F5F5F5F5F5
310
F5F5F5F5F5F5F5F5F5F5F5F5F5F5F5F5F5F5F5F5F5F5F5F5F5F5F5F5F5F5F5F5F5F5F5F5F5F5F5F5F5F5F5F5F5F5F5F5F5F5F5F5F5F5F5F5F5F5F5F5F5F5F5F5F5F5F5F5F5F5F5F5F5F5F5E2F5F5F5F5F5F5F5F5F5F5F5F5F5F5F5F5E2F5F5F5E2E2EFF5F5F5E2F5F5F5F5F5F5F5F5F5F5F5F5F5F5F5F5E2F5F5F5F5F5F5F5
310
F5F5F5F5F5F5F5F5F5F5F5F5F5F5F5F5F5F5F5F5F5F5F5F5F5F5F5F5F5F5F5F5F5F5F5F5F5F5F5F5F5F5F5F5F5F5F5F5F5F5F5F5F5F5F5F5F5F5F5F5F5F5F5F5F5F5F5F5F5F5F5F5F5F5F5F5F5F5F5F5F5F5F5F5F5F5F5F5F5F5F5F5F5F5F5F5F5F5F5F5F5F5F5F5F5F5F5F5F5F5F5F5F5F5F5F5F5F5F5F5F5F5F5F5F5F5F5
310
F5E2F5F5F5F5F5F5F5F5F5F5F5F5F5F5F5F5E2F5F5F5E2E2EFF5F5F5E2F5F5F5F5F5F5F5F5F5F5F5F5F5F5F5F5E2F5F5F5F5F5F5F5F5F5F5F5F5F5F5F5F5F5F5F5F5F5F5F5F5F5F5F5F5F5F5F5F5F5F5F5F5F5F5F5F5F5F5F5F5F5F5F5F5F5F5F5F5F5F5F5F5F5F5F5F5F5F5F5F5F5F5F5F5F5F5F5F5F5F5F5F5F5F5F5F5F5
310
F5F5F5F5F5F5F5F5F5F5F5F5F5F5F5F5F5F5F5F5F5F5F5F5F5F5F5F5F5F5F5F5F5F5F5F5F5F5F5F5F5F5F5F5F5F5F5F5F5F5F5F5F5F5E2F5F5F5F5F5F5F5F5F5F5F5F5F5F5F5F5E2F5F5F5E2E2EFF5F5F5E2F5F5F5F5F5F5F5F5F5F5F5F5F5F5F5F5E2F5F5F5F5F5F5F5F5F5F5F5F5F5F5F5F5F5F5F5F5F5F5F5F5F5F5F5F5
310
F5F5F5F5F5F5F5F5F5F5F5F5F5F5F5F5F5F5F5F5F5F5F5F5F5F5F5F5F5F5F5F5F5F5F5F5F5F5F5F5F5F5F5F5F5F5F5F5F5F5F5F5F5F5F5F5F5F5F5F5F5F5F5F5F5F5F5F5F5F5F5F5F5F5F5F5F5F5F5F5F5F5F5F5F5F5F5F5F5F5F5F5F5F5F5F5F5F5F5F5F5F5F5F5F5F5F5E2F5F5F5F5F5F5F5F5F5F5F5F5F5F5F5F5E2F5F5
310
F5E2E2EFF5F5F5E2F5F5F5F5F5F5F5F5F5F5F5F5F5F5F5F5E2F5F5F5F5F5F5F5F5F5F5F5F5F5F5F5F5F5F5F5F5F5F5F5F5F5F5F5F5F5F5F5F5F5F5F5F5F5F5F5F5F5F5F5F5F5F5F5F5F5F5F5F5F5F5F5F5F5F5F5F5F5F5F5F5F5F5F5F5F5F5F5F5F5F5F5F5F5F5F5F5F5F5F5F5F5F5F5F5F5F5F5F5F5F5F5F5F5F5F5F5F5F5
310
F5F5F5F5F5F5F5F5F5F5F5F5F5F5F5F5F5F5F5F5F5F5F5F5F5F5F5F5F5F5F5F5F5E2F5F5F5F5F5F5F5F5F5F5F5F5F5F5F5F5E2F5F5F5E2E2EFF5F5F5E2F5F5F5F5F5F5F5F5F5F5F5F5F5F5F5F5E2F5F5F5F5F5F5F5F5F5F5F5F5F5F5F5F5F5F5F5F5F5F5F5F5F5F5F5F5F5F5F5F5F5F5F5F5F5F5F5F5F5F5F5F5F5F5F5F5F5
310
F5F5F5F5F5F5F5F5F5F5F5F5F5F5F5F5F5F5F5F5F5F5F5F5F5F5F5F5F5F5F5F5F5F5F5F5F5F5F5F5F5F5F5F5F5F5F5F5F5F5F5F5F5F5F5F5F5F5F5F5F5F5F5F5F5F5F5F5F5F5F5F5F5F5F5F5F5F5F5F5F5F5F5F5F5F5E2F5F5F5F5F5F5F5F5F5F5F5F5F5F5F5F5E2F5F5F5E2E2EFF5F5F5E2F5F5F5F5F5F5F5F5F5F5F5F5F5
310
F5F5F5E2F5F5F5F5F5F5F5F5F5F5F5F5F5F5F5F5F5F5F5F5F5F5F5F5F5F5F5F5F5F5F5F5F5F5F5F5F5F5F5F5F5F5F5F5F5F5F5F5F5F5F5F5F5F5F5F5F5F5F5F5F5F5F5F5F5F5F5F5F5F5F5F5F5F5F5F5F5F5F5F5F5F5F5F5F5F5F5F5F5F5F5F5F5F5F5F5F5F5F5F5F5F5F5F5F5F5F5F5F5F5F5F5F5F5F5F5F5F5F5F5F5F5F5
310
F5F5F5F5F5F5F5F5F5F5F5F5E2F5F5F5F5F5F5F5F5F5F5F5F5F5F5F5F5E2F5F5F5E2E2EFF5F5F5E2F5F5F5F5F5F5F5F5F5F5F5F5F5F5F5F5E2F5F5F5F5F5F5F5F5F5F5F5F5F5F5F5F5F5F5F5F5F5F5F5F5F5F5F5F5F5F5F5F5F5F5F5F5F5F5F5F5F5F5F5F5F5F5F5F5F5F5F5F5F5F5F5F5F5F5F5F5F5F5F5F5F5F5F5F5F5F5
310
F5F5F5F5F5F5F5F5F5F5F5F5F5F5F5F5F5F5F5F5F5F5F5F5F5F5F5F5F5F5F5F5F5F5F5F5F5F5F5F5F5F5F5F5F5F5F5F5F5F5F5F5F5F5F5F5F5F5F5F5F5F5F5F5F5E2F5F5F5F5F5F5F5F5F5F5F5F5F5F5F5F5E2F5F5F5E2E2EFF5F5F5E2F5F5F5F5F5F5F5F5F5F5F5F5F5F5F5F5E2F5F5F5F5F5F5F5F5F5F5F5F5F5F5F5F5F5
310
F5F5F5F5F5F5F5F5F5F5F5F5F5F5F5F5F5F5F5F5F5F5F5F5F5F5F5F5F5F5F5F5F5F5F5F5F5F5F5F5F5F5F5F5F5F5F5F5F5F5F5F5F5F5F5F5F5F5F5F5F5F5F5F5F5F5F5F5F5F5F5F5F5F5F5F5F5F5F5F5F5F5F5F5F5F5F5F5F5F5F5F5F5F5F5F5F5F5F5F5F5F5F5F5F5F5F5F5F5F5F5F5F5F5F5F5F5F5E2F5F5F5F5F5F5F5F5
310
F5F5F5F5F5F5F5F5E2F5F5F5E2E2EFF5F5F5E2F5F5F5F5F5F5F5F5F5F5F5F5F5F5F5F5E2F5F5F5F5F5F5F5F5F5F5F5F5F5F5F5F5F5F5F5F5F5F5F5F5F5F5F5F5F5F5F5F5F5F5F5F5F5F5F5F5F5F5F5F5F5F5F5F5F5F5F5F5F5F5F5F5F5F5F5F5F5F5F5F5F5F5F5F5F5F5F5F5F5F5F5F5F5F5F5F5F5F5F5F5F5F5F5F5F5F5F5
310
F5F5F5F5F5F5F5F5F5F5F5F5F5F5F5F5F5F5F5F5F5F5F5F5F5F5F5F5F5F5F5F5F5F5F5F5F5F5F5F5F5F5F5F5E2F5F5F5F5F5F5F5F5F5F5F5F5F5F5F5F5E2F5F5F5E2E2EFF5F5F5E2F5F5F5F5F5F5F5F5F5F5F5F5F5F5F5F5E2F5F5F5F5F5F5F5F5F5F5F5F5F5F5F5F5F5F5F5F5F5F5F5F5F5F5F5F5F5F5F5F5F5F5F5F5F5F5
310
F5F5F5F5F5F5F5F5F5F5F5F5F5F5F5F5F5F5F5F5F5F5F5F5F5F5F5F5F5F5F5F5F5F5F5F5F5F5F5F5F5F5F5F5F5F5F5F5F5F5F5F5F5F5F5F5F5F5F5F5F5F5F5F5F5F5F5F5F5F5F5F5F5F5F5F5F5F5F5F5F5F5F5F5F5F5F5F5F5F5F5F5F5F5F5F5F5E2F5F5F5F5F5F5F5F5F5F5F5F5F5F5F5F5E2F5F5F5E2E2EFF5F5F5E2F5F5
310
F5F5F5F5F5F5F5F5F5F5F5F5F5F5E2F5F5F5F5F5F5F5F5F5F5F5F5F5F5F5F5F5F5F5F5F5F5F5F5F5F5F5F5F5F5F5F5F5F5F5F5F5F5F5F5F5F5F5F5F5F5F5F5F5F5F5F5F5F5F5F5F5F5F5F5F5F5F5F5F5F5F5F5F5F5F5F5F5F5F5F5F5F5F5F5F5F5F5F5F5F5F5F5F5F5F5F5F5F5F5F5F5F5F5F5F5F5F5F5F5F5F5F5F5F5F5F5
310
F5F5F5F5F5F5F5F5F5F5F5F5F5F5F5F5F5F5F5F5F5F5F5E2F5F5F5F5F5F5F5F5F5F5F5F5F5F5F5F5E2F5F5F5E2E2EFF5F5F5E2F5F5F5F5F5F5F5F5F5F5F5F5F5F5F5F5E2F5F5F5F5F5F5F5F5F5F5F5F5F5F5F5F5F5F5F5F5F5F5F5F5F5F5F5F5F5F5F5F5F5F5F5F5F5F5F5F5F5F5F5F5F5F5F5F5F5F5F5F5F5F5F5F5F5F5F5
310
F5F5F5F5F5F5F5F5F5F5F5F5F5F5F5F5F5F5F5F5F5F5F5F5F5F5F5F5F5F5F5F5F5F5F5F5F5F5F5F5F5F5F5F5F5F5F5F5F5F5F5F5F5F5F5F5F5F5F5F5F5F5F5F5F5F5F5F5F5F5F5F5F5F5F5F5E2F5F5F5F5F5F5F5F5F5F5F5F5F5F5F5F5E2F5F5F5E2E2EFF5F5F5E2F5F5F5F5F5F5F5F5F5F5F5F5F5F5F5F5E2F5F5F5F5F5F5
310
F5F5F5F5F5F5F5F5F5F5F5F5F5F5F5F5F5F5F5F5F5F5F5F5F5F5F5F5F5F5F5F5F5F5F5F5F5F5F5F5F5F5F5F5F5F5F5F5F5F5F5F5F5F5F5F5F5F5F5F5F5F5F5F5F5F5F5F5F5F5F5F5F5F5F5F5F5F5F5F5F5F5F5F5F5F5F5F5F5F5F5F5F5F5F5F5F5F5F5F5F5F5F5F5F5F5F5F5F5F5F5F5F5F5F5F5F5F5F5F5F5F5F5F5F5F5F5
310
F5F5E2F5F5F5F5F5F5F5F5F5F5F5F5F5F5F5F5E2F5F5F5E2E2EFF5F5F5F5F5F5F5F5F5F5F5F5F5F5F5F5F5F5F5F5E2F5F5F5F5F5F5F5F5F5F5F5F5F5F5F5F5F5F5F5F5F5F5F5F5F5F5F5F5F5F5F5F5F5F5F5F5F5F5F5F5F5F5F5F5F5F5F5F5F5F5F5F5F5F5F5F5F5F5F5F5F5F5F5F5F5F5F5F5F5F5F5F5F5F5F5F5F5F5F5F5
310
F5F5F5F5F5F5F5F5F5F5F5F5F5F5F5F5F5F5F5F5F5F5F5F5F5F5F5F5F5F5F5F5F5F5F5F5F5F5F5F5F5F5F5F5F5F5F5F5F5F5F5F5F5F5F5E2F5F5F5F5F5F5F5F5F5F5F5F5F5F5F5F5F5F5F5F5E2E2EFF5F5F5F5F5F5F5F5F5F5F5F5F5F5F5F5F5F5F5F5E2F5F5F5F5F5F5F5F5F5F5F5F5F5F5F5F5F5F5F5F5F5F5F5F5F5F5F5
310
F5F5F5F5F5F5F5F5F5F5F5F5F5F5F5F5F5F5F5F5F5F5F5F5F5F5F5F5F5F5F5F5F5F5F5F5F5F5F5F5F5F5F5F5F5F5F5F5F5F5F5F5F5F5F5F5F5F5F5F5F5F5F5F5F5F5F5F5F5F5F5F5F5F5F5F5F5F5F5F5F5F5F5F5F5F5F5F5F5F5F5F5F5F5F5F5F5F5F5F5F5F5F5F5F5F5F5F5E2F5F5F5F5F5F5F5F5F5F5F5F5F5F5F5F5F5F5
310
F5F5E2E2EFF5F5F5F5F5F5F5F5F5F5F5F5F5F5F5F5F5F5F5F5E2F5F5F5F5F5F5F5F5F5F5F5F5F5F5F5F5F5F5F5F5F5F5F5F5F5F5F5F5F5F5F5F5F5F5F5F5F5F5F5F5F5F5F5F5F5F5F5F5F5F5F5F5F5F5F5F5F5F5F5F5F5F5F5F5F5F5F5F5F5F5F5F5F5F5F5F5F5F5F5F5F5F5F5F5F5F5F5F5F5F5F5F5F5F5F5F5F5F5F5F5F5
310
F5F5F5F5F5F5F5F5F5F5F5F5F5F5F5F5F5F5F5F5F5F5F5F5F5F5F5F5F5F5F5F5F5F5E2F5F5F5F5F5F5F5F5F5F5F5F5F5F5F5F5F5F5F5F5E2E2EFF5F5F5F5F5F5F5F5F5F5F5F5F5F5F5F5F5F5F5F5E2F5F5F5F5F5F5F5F5F5F5F5F5F5F5F5F5F5F5F5F5F5F5F5F5F5F5F5F5F5F5F5F5F5F5F5F5F5F5F5F5F5F5F5F5F5F5F5F5
310
F5F5F5F5F5F5F5F5F5F5F5F5F5F5F5F5F5F5F5F5F5F5F5F5F5F5F5F5F5F5F5F5F5F5F5F5F5F5F5F5F5F5F5F5F5F5F5F5F5F5F5F5F5F5F5F5F5F5F5F5F5F5F5F5F5F5F5F5F5F5F5F5F5F5F5F5F5F5F5F5F5F5F5F5F5F5F5E2F5F5F5F5F5F5F5F5F5F5F5F5F5F5F5F5F5F5F5F5E2E2EFF5F5F5F5F5F5F5F5F5F5F5F5F5F5F5F5
310
F5F5F5F5E2E2E2E2E2E2E2E2E2E2E2E2E2E2E2E2E2E2E2E2E2E2E2E2E2E2E2E2E2E2E2E2E2E2E2E2E2E2E2E2E2E2E2E2E2E2E2E2E2E2E2E2E2E2E2E2E2E2E2E2E2E2E2E2E2E2E2E2E2E2E2E2E2E2E2E2E2E2E2E2E2E2E2E2E2E2E2E2E2E2E2E2E2E2E2E2E2E2E2E2E2E2E2E2E2E2E2E2E2E2E2E2E2E2E2E2E2E2E2E2E2E2E2
310
E2E2E2E2E2E2E2E2E2E2E2E2E2E2F5F5F5F5F5F5F5F5F5F5F5F5F5F5F5F5F5F5F5F5E2E2EFF5F5F5F5F5F5F5F5F5F5F5F5F5F5F5F5F5F5F5F5F5F5F5F5F5F5F5F5F5F5F5F5F5F5F5F5F5F5F5F5F5F5F5F5F5F5F5F5F5F5F5F5F5F5F5F5F5F5F5F5F5F5F5F5F5F5F5F5F5F5F5F5F5F5F5F5F5F5F5F5F5F5F5F5F5F5F5F5F5F5
310
F5F5F5F5F5F5F5F5F5F5F5F5F5F5F5F5F5F5F5F5F5F5F5F5F5F5F5F5F5F5F5F5F5F5F5F5F5F5F5F5F5F5F5F5F5F5F5F5F5F5F5F5F5F5F5F5F5F5F5F5F5F5F5F5F5F5F5F5F5F5F5F5F5F5F5F5F5F5F5F5F5F5F5F5F5F5F5E2E2EFF5F5F5F5F5F5F5F5F5F5F5F5F5F5F5F5F5F5F5F5F5F5F5F5F5F5F5F5F5F5F5F5F5F5F5F5F5
310
F5F5F5F5F5F5F5F5F5F5F5F5F5F5F5F5F5F5F5F5F5F5F5F5F5F5F5F5F5F5F5F5F5F5F5F5F5F5F5F5F5F5F5F5F5F5F5F5F5F5F5F5F5F5F5F5F5F5F5F5F5F5F5F5F5F5F5F5F5F5F5F5F5F5F5F5F5F5F5F5F5F5F5F5F5F5F5F5F5F5F5F5F5F5F5F5F5F5F5F5F5F5F5F5F5F5F5F5F5F5F5F5F5F5F5F5F5F5F5F5F5F5F5F5F5F5F5
310
F5F5F5F5F5F5F5F5F5F5F5F5F5E2E2EFF5F5F5F5F5F5F5F5F5F5F5F5F5F5F5F5F5F5F5F5F5F5F5F5F5F5F5F5F5F5F5F5F5F5F5F5F5F5F5F5F5F5F5F5F5F5F5F5F5F5F5F5F5F5F5F5F5F5F5F5F5F5F5F5F5F5F5F5F5F5F5F5F5F5F5F5F5F5F5F5F5F5F5F5F5F5F5F5F5F5F5F5F5F5F5F5F5F5F5F5F5F5F5F5F5F5F5F5F5F5F5
310
F5F5F5F5F5F5F5F5F5F5F5F5F5F5F5F5F5F5F5F5F5F5F5F5F5F5F5F5F5F5F5F5F5F5F5F5F5F5F5F5F5F5F5F5F5F5F5F5F5F5F5F5F5F5F5F5F5F5F5F5F5F5F5F5F5F5E2E2EFF5F5F5F5F5F5F5F5F5F5F5F5F5F5F5F5F5F5F5F5F5F5F5F5F5F5F5F5F5F5F5F5F5F5F5F5F5F5F5F5F5F5F5F5F5F5F5F5F5F5F5F5F5F5F5F5F5F5
310
F5F5F5F5F5F5F5F5F5F5F5F5F5F5F5F5F5F5F5F5F5F5F5F5F5F5F5F5F5F5F5F5F5F5F5F5F5F5F5F5F5F5F5F5F5F5F5F5F5F5F5F5F5F5F5F5F5F5F5F5F5F5F5F5F5F5F5F5F5F5F5F5F5F5F5F5F5F5F5F5F5F5F5F5F5F5F5F5F5F5F5F5F5F5F5F5F5F5F5F5F5F5F5F5F5F5F5F5F5F5F5F5F5F5F5F5F5F5F5E2E2EFF5F5F5E2F5
310
F5F5F5F5F5F5F5F5F5F5F5F5F5F5F5F5F5F5F5F5F5F5F5F5F5F5F5F5F5F5F5F5F5F5F5F5F5F5F5F5F5F5F5F5F5F5F5F5F5F5F5F5F5F5F5F5F5F5F5F5F5F5F5F5F5F5F5F5F5F5F5F5F5F5F5F5F5F5F5F5F5F5F5F5F5F5F5F5F5F5F5F5F5F5F5F5F5F5F5F5F5F5F5F5F5F5F5F5F5F5F5F5F5F5F5F5F5F5F5F5F5F5F5F5F5F5F5
310
F5F5F5F5F5F5F5F5F5F5F5F5F5F5F5F5F5F5F5F5F5F5F5F5F5F5F5F5F5F5F5F5F5F5F5F5F5F5F5F5F5E2F5F5F5E2E2EFF5F5F5E2F5F5F5F5F5F5F5F5F5F5F5F5F5F5F5F5F5F5F5F5F5F5F5F5F5F5F5F5F5F5F5F5F5F5F5F5F5F5F5F5F5F5F5F5F5F5F5F5F5F5F5F5F5F5F5F5F5F5F5F5F5F5F5F5F5F5F5F5F5F5F5F5F5F5F5
310
F5F5F5F5F5F5F5F5F5F5F5F5F5F5F5F5F5F5F5F5F5F5F5F5F5F5F5F5F5F5F5F5F5F5F5F5F5F5F5F5F5F5F5F5F5F5F5F5F5F5F5F5F5F5F5F5F5F5F5F5F5F5F5F5F5F5F5F5F5F5F5F5F5F5F5F5F5F5F5F5F5F5F5F5F5F5F5F5F5F5F5F5F5F5E2F5F5F5E2E2EFF5F5F5E2F5F5F5F5F5F5F5F5F5F5F5F5F5F5F5F5F5F5F5F5F5F5
310
F5F5F5F5F5F5F5F5F5F5F5F5F5F5F5F5F5F5F5F5F5F5F5F5F5F5F5F5F5F5F5F5F5F5F5F5F5F5F5F5F5F5F5F5F5F5F5F5F5F5F5F5F5F5F5F5F5F5F5F5F5F5F5F5F5F5F5F5F5F5F5F5F5F5F5F5F5F5F5F5F5F5F5F5F5F5F5F5F5F5F5F5F5F5F5F5F5F5F5F5F5F5F5F5F5F5F5F5F5F5F5F5F5F5F5F5F5F5F5F5F5F5F5F5F5F5F5
310
F5F5F5F5F5F5F5F5F5F5F5F5F5F5F5F5F5F5F5F5E2F5F5F5E2E2EFF5F5F5E2F5F5F5F5F5F5F5F5F5F5F5F5F5F5F5F5F5F5F5F5F5F5F5F5F5F5F5F5F5F5F5F5F5F5F5F5F5F5F5F5F5F5F5F5F5F5F5F5F5F5F5F5F5F5F5F5F5F5F5F5F5F5F5F5F5F5F5F5F5F5F5F5F5F5F5F5F5F5F5F5F5F5F5F5F5F5F5F5F5F5F5F5F5F5F5F5
310
F5F5F5F5F5F5F5F5F5F5F5F5F5F5F5F5F5F5F5F5F5F5F5F5F5F5F5F5F5F5F5F5F5F5F5F5F5F5F5F5F5F5F5F5F5F5F5F5F5F5F5F5F5F5F5F5F5F5F5F5F5F5F5F5F5F5F5F5F5F5F5F5F5E2F5F5F5E2E2EFF5F5F5E2F5F5F5F5F5F5F5F5F5F5F5F5F5F5F5F5F5F5F5F5F5F5F5F5F5F5F5F5F5F5F5F5F5F5F5F5F5F5F5F5F5F5F5
310
F5F5F5F5F5F5F5F5F5F5F5F5F5F5F5F5F5F5F5F5F5F5F5F5F5F5F5F5F5F5F5F5F5F5F5F5F5F5F5F5F5F5F5F5F5F5F5F5F5F5F5F5F5F5F5F5F5F5F5F5F5F5F5F5F5F5F5F5F5F5F5F5F5F5F5F5F5F5F5F5F5F5F5F5F5F5F5F5F5F5F5F5F5F5F5F5F5F5F5F5F5F5F5F5F5F5F5F5F5F5F5F5F5F5F5F5F5F5F5F5F5F5F5F5F5F5E2
310
F5F5F5E2E2EFF5F5F5E2F5F5F5F5F5F5F5F5F5F5F5F5F5F5F5F5F5F5F5F5F5F5F5F5F5F5F5F5F5F5F5F5F5F5F5F5F5F5F5F5F5F5F5F5F5F5F5F5F5F5F5F5F5F5F5F5F5F5F5F5F5F5F5F5F5F5F5F5F5F5F5F5F5F5F5F5F5F5F5F5F5F5F5F5F5F5F5F5F5F5F5F5F5F5F5F5F5F5F5F5F5F5F5F5F5F5F5F5F5F5F5F5F5F5F5F5F5
310
F5F5F5F5F5F5F5F5F5F5F5F5F5F5F5F5F5F5F5F5F5F5F5F5F5F5F5F5F5F5F5F5F5F5F5F5F5F5F5F5F5F5F5F5F5F5F5F5F5F5F5F5E2F5F5F5E2E2EFF5F5F5E2F5F5F5F5F5F5F5F5F5F5F5F5F5F5F5F5F5F5F5F5F5F5F5F5F5F5F5F5F5F5F5F5F5F5F5F5F5F5F5F5F5F5F5F5F5F5F5F5F5F5F5F5F5F5F5F5F5F5F5F5F5F5F5F5
310
F5F5F5F5F5F5F5F5F5F5F5F5F5F5F5F5F5F5F5F5F5F5F5F5F5F5F5F5F5F5F5F5F5F5F5F5F5F5F5F5F5F5F5F5F5F5F5F5F5F5F5F5F5F5F5F5F5F5F5F5F5F5F5F5F5F5F5F5F5F5F5F5F5F5F5F5F5F5F5F5F5F5F5F5F5F5F5F5F5F5F5F5F5F5F5F5F5F5F5F5F5F5F5F5F5E2F5F5F5E2E2EFF5F5F5E2F5F5F5F5F5F5F5F5F5F5F5
310
F5F5F5F5F5F5F5F5F5F5F5F5F5F5F5F5F5F5F5F5F5F5F5F5F5F5F5F5F5F5F5F5F5F5F5F5F5F5F5F5F5F5F5F5F5F5F5F5F5F5F5F5F5F5F5F5F5F5F5F5F5F5F5F5F5F5F5F5F5F5F5F5F5F5F5F5F5F5F5F5F5F5F5F5F5F5F5F5F5F5F5F5F5F5F5F5F5F5F5F5F5F5F5F5F5F5F5F5F5F5F5F5F5F5F5F5F5F5F5F5F5F5F5F5F5F5F5
310
F5F5F5F5F5F5F5F5F5F5F5F5F5F5F5F5F5F5F5F5F5F5F5F5F5F5F5F5F5F5F5E2F5F5F5E2E2EFF5F5F5E2E2E2E2E2E2E2E2F5F5F5F5F5F5F5F5F5E2E2E2E2E2E2E2E2E2E2E2E2E2E2E2E2F5F5F5F5F5F5F5F5E2E2E2E2E2E2E2E2E2E2E2E2E2E2E2E2F5F5F5F5F5F5F5F5F5E2E2E2E2E2E2E2E2E2E2E2E2E2E2E2F5F5F5F5F5
310
F5F5F5F5E2E2E2E2E2E2E2E2E2E2E2E2E2E2E2F5F5F5F5F5F5F5F5F5E2E2E2E2E2E2E2E2E2E2E2E2E2E2E2E2F5F5F5F5F5F5F5F5E2E2E2E2E2E2E2E2E2E2E2E2E2E2E2E2F5F5F5F5F5F5F5F5F5E2E2E2E2E2E2E2E2F5F5F5E2E2EFF5F5F5F5F5F5F5F5F5F5F5F5F5F5F5F5F5F5F5F5F5F5F5F5F5F5F5F5F5F5F5F5F5F5F5F5
310
F5F5F5F5F5F5F5F5F5F5F5F5F5F5F5F5F5F5F5F5F5F5F5F5F5F5F5F5F5F5F5F5F5F5F5F5F5F5F5F5F5F5F5F5F5F5F5F5F5F5F5F5F5F5F5F5F5F5F5F5F5F5F5F5F5F5F5F5F5F5F5F5F5F5F5F5F5F5F5F5F5F5F5F5F5F5F5F5F5F5F5F5F5F5F5F5F5F5F5F5F5F5F5F5F5F5F5F5F5F5F5F5F5F5F5F5F5F5F5F5F5F5F5F5F5F5F5
310
F5F5F5F5F5F5F5F5F5F5F5F5F5F5E2E2EFF5F5F5F5F5F5F5F5F5F5F5F5F5F5F5F5F5F5F5F5F5F5F5F5F5F5F5F5F5F5F5F5F5F5F5F5F5F5F5F5F5F5F5F5F5F5F5F5F5F5F5F5F5F5F5F5F5F5F5F5F5F5F5F5F5F5F5F5F5F5F5F5F5F5F5F5F5F5F5F5F5F5F5F5F5F5F5F5F5F5F5F5F5F5F5F5F5F5F5F5F5F5F5F5F5F5F5F5F5F5
310
F5F5F5F5F5F5F5F5F5F5F5F5F5F5F5F5F5F5F5F5F5F5F5F5F5F5F5F5F5F5F5F5F5F5F5F5F5F5F5F5F5F5F5F5F5F5F5F5F5F5F5F5F5F5F5F5F5F5F5F5F5F5F5F5F5F5F5E2EFEFF5F5F5F5F5F5F5F5F5F5F5F5F5F5F5F5F5F5F5F5F5F5F5F5F5F5F5F5F5F5F5F5F5F5F5F5F5F5F5F5F5F5F5F5F5F5F5F5F5F5F5F5F5F5F5F5F5
310
F5F5F5F5F5F5F5F5F5F5F5F5F5F5F5F5F5F5F5F5F5F5F5F5F5F5F5F5F5F5F5F5F5F5F5F5F5F5F5F5F5F5F5F5F5F5F5F5F5F5F5F5F5F5F5F5F5F5F5F5F5F5F5F5F5F5F5F5F5F5F5F5F5F5F5F5F5F5F5F5F5F5F5F5F5F5F5F5F5F5F5F5F5F5F5F5F5F5F5F5F5F5F5F5F5F5F5F5F5F5F5F5F5F5F5F5F5F5F5F5E2EFEFE2E2E2E2
310
E2E2E2E2E2E2E2E2E2E2E2E2E2E2E2E2E2E2E2E2E2E2E2E2E2E2E2E2E2E2E2E2E2E2E2E2E2E2E2E2E2E2E2E2E2E2E2E2E2E2E2E2E2E2E2E2E2E2E2E2E2E2E2E2E2E2E2E2E2E2E2E2E2E2E2E2E2E2E2E2E2E2E2E2E2E2E2E2E2E2E2E2E2E2E2E2E2E2E2E2E2E2E2E2E2E2E2E2E2E2E2E2E2E2E2E2E2E2E2E2E2E2E2E2E2E2E2
310
E2E2E2E2E2E2E2E2E2E2E2E2E2E2E2E2E2E2E2E2E2E2E2E2E2E2E2E2E2E2E2E2E2E2E2E2E2E2E2E2E2E2E2E2E2E2E2EFEF
  0
ENDSEC
  0
EOF
