  0
SECTION
  2
HEADER
  9
$ACADVER
  1
AC1018
  9
$ACADMAINTVER
 70
     0
  9
$DWGCODEPAGE
  3
ANSI_1252
  9
$AUTHOR
  1
g6edxjah
  9
$LASTSAVEDBY
  1
g6edxjah
  9
$INSBASE
 10
0.0
 20
0.0
 30
0.0
  9
$EXTMIN
 10
25.043458
 20
-13.081542
 30
0.0
  9
$EXTMAX
 10
33.456542
 20
-1.918458
 30
0.0
  9
$LIMMIN
 10
1.293291
 20
-35.456709
  9
$LIMMAX
 10
57.206709
 20
20.456709
  9
$ORTHOMODE
 70
     0
  9
$REGENMODE
 70
     1
  9
$FILLMODE
 70
     1
  9
$QTEXTMODE
 70
     0
  9
$MIRRTEXT
 70
     0
  9
$LTSCALE
 40
1.0
  9
$ATTMODE
 70
     1
  9
$TEXTSIZE
 40
0.12
  9
$TRACEWID
 40
0.05
  9
$TEXTSTYLE
  7
Standard
  9
$CLAYER
  8
DIM
  9
$CELTYPE
  6
Continuous
  9
$CECOLOR
 62
     7
  9
$CELTSCALE
 40
1.0
  9
$DISPSILH
 70
     0
  9
$DIMSCALE
 40
1.0
  9
$DIMASZ
 40
0.12
  9
$DIMEXO
 40
0.06
  9
$DIMDLI
 40
0.0
  9
$DIMRND
 40
0.0
  9
$DIMDLE
 40
0.0
  9
$DIMEXE
 40
0.06
  9
$DIMTP
 40
0.0
  9
$DIMTM
 40
0.0
  9
$DIMTXT
 40
0.12
  9
$DIMCEN
 40
0.09
  9
$DIMTSZ
 40
0.0
  9
$DIMTOL
 70
     0
  9
$DIMLIM
 70
     0
  9
$DIMTIH
 70
     0
  9
$DIMTOH
 70
     0
  9
$DIMSE1
 70
     0
  9
$DIMSE2
 70
     0
  9
$DIMTAD
 70
     1
  9
$DIMZIN
 70
    11
  9
$DIMBLK
  1
TerminatorOpen_0.5
  9
$DIMASO
 70
     1
  9
$DIMSHO
 70
     1
  9
$DIMPOST
  1

  9
$DIMAPOST
  1

  9
$DIMALT
 70
     0
  9
$DIMALTD
 70
     4
  9
$DIMALTF
 40
25.4
  9
$DIMLFAC
 40
1.0
  9
$DIMTOFL
 70
     0
  9
$DIMTVP
 40
0.0
  9
$DIMTIX
 70
     0
  9
$DIMSOXD
 70
     0
  9
$DIMSAH
 70
     0
  9
$DIMBLK1
  1

  9
$DIMBLK2
  1

  9
$DIMSTYLE
  2
Standard
  9
$DIMCLRD
 70
     0
  9
$DIMCLRE
 70
     0
  9
$DIMCLRT
 70
     0
  9
$DIMTFAC
 40
1.0
  9
$DIMGAP
 40
0.06
  9
$DIMJUST
 70
     0
  9
$DIMSD1
 70
     0
  9
$DIMSD2
 70
     0
  9
$DIMTOLJ
 70
     0
  9
$DIMTZIN
 70
    11
  9
$DIMALTZ
 70
    15
  9
$DIMALTTZ
 70
    15
  9
$DIMUPT
 70
     0
  9
$DIMDEC
 70
     4
  9
$DIMTDEC
 70
     4
  9
$DIMALTU
 70
     2
  9
$DIMALTTD
 70
     4
  9
$DIMTXSTY
  7
Style-Arial
  9
$DIMAUNIT
 70
     0
  9
$DIMADEC
 70
     4
  9
$DIMALTRND
 40
0.0
  9
$DIMAZIN
 70
     3
  9
$DIMDSEP
 70
    46
  9
$DIMATFIT
 70
     1
  9
$DIMFRAC
 70
     0
  9
$DIMLDRBLK
  1
TerminatorOpen_0.5
  9
$DIMLUNIT
 70
     2
  9
$DIMLWD
 70
    -2
  9
$DIMLWE
 70
    -2
  9
$DIMTMOVE
 70
     0
  9
$LUNITS
 70
     2
  9
$LUPREC
 70
     4
  9
$SKETCHINC
 40
0.1
  9
$FILLETRAD
 40
0.0
  9
$AUNITS
 70
     0
  9
$AUPREC
 70
     4
  9
$MENU
  1
.
  9
$ELEVATION
 40
0.0
  9
$PELEVATION
 40
0.0
  9
$THICKNESS
 40
0.0
  9
$LIMCHECK
 70
     0
  9
$CHAMFERA
 40
0.0
  9
$CHAMFERB
 40
0.0
  9
$CHAMFERC
 40
0.0
  9
$CHAMFERD
 40
0.0
  9
$SKPOLY
 70
     0
  9
$TDCREATE
 40
2455392.346690034
  9
$TDUCREATE
 40
2455392.555023368
  9
$TDUPDATE
 40
2455392.346690034
  9
$TDUUPDATE
 40
2455392.555023368
  9
$TDINDWG
 40
0.0
  9
$TDUSRTIMER
 40
0.0006630093
  9
$USRTIMER
 70
     1
  9
$ANGBASE
 50
0.0
  9
$ANGDIR
 70
     0
  9
$PDMODE
 70
     0
  9
$PDSIZE
 40
0.0
  9
$PLINEWID
 40
0.0
  9
$SPLFRAME
 70
     0
  9
$SPLINETYPE
 70
     6
  9
$SPLINESEGS
 70
     8
  9
$HANDSEED
  5
394
  9
$SURFTAB1
 70
     6
  9
$SURFTAB2
 70
     6
  9
$SURFTYPE
 70
     6
  9
$SURFU
 70
     6
  9
$SURFV
 70
     6
  9
$UCSBASE
  2

  9
$UCSNAME
  2

  9
$UCSORG
 10
0.0
 20
0.0
 30
0.0
  9
$UCSXDIR
 10
1.0
 20
0.0
 30
0.0
  9
$UCSYDIR
 10
0.0
 20
1.0
 30
0.0
  9
$UCSORTHOREF
  2

  9
$UCSORTHOVIEW
 70
     0
  9
$UCSORGTOP
 10
0.0
 20
0.0
 30
0.0
  9
$UCSORGBOTTOM
 10
0.0
 20
0.0
 30
0.0
  9
$UCSORGLEFT
 10
0.0
 20
0.0
 30
0.0
  9
$UCSORGRIGHT
 10
0.0
 20
0.0
 30
0.0
  9
$UCSORGFRONT
 10
0.0
 20
0.0
 30
0.0
  9
$UCSORGBACK
 10
0.0
 20
0.0
 30
0.0
  9
$PUCSBASE
  2

  9
$PUCSNAME
  2

  9
$PUCSORG
 10
0.0
 20
0.0
 30
0.0
  9
$PUCSXDIR
 10
1.0
 20
0.0
 30
0.0
  9
$PUCSYDIR
 10
0.0
 20
1.0
 30
0.0
  9
$PUCSORTHOREF
  2

  9
$PUCSORTHOVIEW
 70
     0
  9
$PUCSORGTOP
 10
0.0
 20
0.0
 30
0.0
  9
$PUCSORGBOTTOM
 10
0.0
 20
0.0
 30
0.0
  9
$PUCSORGLEFT
 10
0.0
 20
0.0
 30
0.0
  9
$PUCSORGRIGHT
 10
0.0
 20
0.0
 30
0.0
  9
$PUCSORGFRONT
 10
0.0
 20
0.0
 30
0.0
  9
$PUCSORGBACK
 10
0.0
 20
0.0
 30
0.0
  9
$USERI1
 70
     0
  9
$USERI2
 70
     0
  9
$USERI3
 70
     0
  9
$USERI4
 70
     0
  9
$USERI5
 70
     0
  9
$USERR1
 40
0.0
  9
$USERR2
 40
0.0
  9
$USERR3
 40
0.0
  9
$USERR4
 40
0.0
  9
$USERR5
 40
0.0
  9
$WORLDVIEW
 70
     1
  9
$SHADEDGE
 70
     3
  9
$SHADEDIF
 70
    70
  9
$TILEMODE
 70
     1
  9
$MAXACTVP
 70
    64
  9
$PINSBASE
 10
0.0
 20
0.0
 30
0.0
  9
$PLIMCHECK
 70
     0
  9
$PEXTMIN
 10
1.049744
 20
0.799667
 30
-0.001526
  9
$PEXTMAX
 10
9.450623
 20
7.200577
 30
0.0
  9
$PLIMMIN
 10
-0.25
 20
-0.25
  9
$PLIMMAX
 10
10.75
 20
8.25
  9
$UNITMODE
 70
     0
  9
$VISRETAIN
 70
     1
  9
$PLINEGEN
 70
     0
  9
$PSLTSCALE
 70
     0
  9
$TREEDEPTH
 70
  3020
  9
$CMLSTYLE
  2
Standard
  9
$CMLJUST
 70
     0
  9
$CMLSCALE
 40
1.0
  9
$PROXYGRAPHICS
 70
     1
  9
$MEASUREMENT
 70
     0
  9
$CELWEIGHT
370
    53
  9
$ENDCAPS
280
     0
  9
$JOINSTYLE
280
     0
  9
$LWDISPLAY
290
     1
  9
$INSUNITS
 70
     2
  9
$HYPERLINKBASE
  1

  9
$STYLESHEET
  1

  9
$XEDIT
290
     1
  9
$CEPSNTYPE
380
     0
  9
$PSTYLEMODE
290
     1
  9
$FINGERPRINTGUID
  2
{02C0BBB5-38A7-4FBF-829E-00875EC88963}
  9
$VERSIONGUID
  2
{82C521FC-BF81-46B3-825E-420B6BD93A99}
  9
$EXTNAMES
290
     1
  9
$PSVPSCALE
 40
0.0
  9
$OLESTARTUP
290
     0
  9
$SORTENTS
280
   127
  9
$INDEXCTL
280
     0
  9
$HIDETEXT
280
     1
  9
$XCLIPFRAME
290
     0
  9
$HALOGAP
280
     0
  9
$OBSCOLOR
 70
   257
  9
$OBSLTYPE
280
     0
  9
$INTERSECTIONDISPLAY
280
     0
  9
$INTERSECTIONCOLOR
 70
   257
  9
$DIMASSOC
280
     1
  9
$PROJECTNAME
  1

  0
ENDSEC
  0
SECTION
  2
CLASSES
  0
CLASS
  1
ACDBDICTIONARYWDFLT
  2
AcDbDictionaryWithDefault
  3
ObjectDBX Classes
 90
        0
 91
        3
280
     0
281
     0
  0
CLASS
  1
SORTENTSTABLE
  2
AcDbSortentsTable
  3
ObjectDBX Classes
 90
        0
 91
        3
280
     0
281
     0
  0
ENDSEC
  0
SECTION
  2
TABLES
  0
TABLE
  2
VPORT
  5
372
330
0
100
AcDbSymbolTable
 70
     4
  0
VPORT
  5
49
330
372
100
AcDbSymbolTableRecord
100
AcDbViewportTableRecord
  2
*ACTIVE
 70
     0
 10
0.0
 20
0.0
 11
1.0
 21
1.0
 12
29.25
 22
-7.5
 13
0.0
 23
0.0
 14
0.083333
 24
0.083333
 15
0.083333
 25
0.083333
 16
0.0
 26
0.0
 36
1.0
 17
0.0
 27
0.0
 37
0.0
 40
11.609607
 41
1.884937
 42
50.0
 43
0.0
 44
0.0
 50
0.0
 51
0.0
 71
     0
 72
   100
 73
     1
 74
     2
 75
     0
 76
     0
 77
     0
 78
     1
281
     0
 65
     1
110
0.0
120
0.0
130
0.0
111
1.0
121
0.0
131
0.0
112
0.0
122
1.0
132
0.0
 79
     0
146
0.0
  0
ENDTAB
  0
TABLE
  2
LTYPE
  5
359
330
0
100
AcDbSymbolTable
 70
     1
  0
LTYPE
  5
35A
330
359
100
AcDbSymbolTableRecord
100
AcDbLinetypeTableRecord
  2
ByBlock
 70
     0
  3

 72
    65
 73
     0
 40
0.0
  0
LTYPE
  5
35B
330
359
100
AcDbSymbolTableRecord
100
AcDbLinetypeTableRecord
  2
ByLayer
 70
     0
  3

 72
    65
 73
     0
 40
0.0
  0
LTYPE
  5
358
330
359
100
AcDbSymbolTableRecord
100
AcDbLinetypeTableRecord
  2
Continuous
 70
     0
  3
Solid line
 72
    65
 73
     0
 40
0.0
  0
ENDTAB
  0
TABLE
  2
LAYER
  5
352
102
{ACAD_XDICTIONARY
360
353
102
}
330
0
100
AcDbSymbolTable
 70
    64
  0
LAYER
  5
351
330
352
100
AcDbSymbolTableRecord
100
AcDbLayerTableRecord
  2
0
 70
     0
 62
     7
  6
Continuous
370
    -3
390
355
  0
LAYER
  5
7
330
352
100
AcDbSymbolTableRecord
100
AcDbLayerTableRecord
  2
Level 1
 70
     0
 62
     7
  6
Continuous
370
     0
390
355
  0
LAYER
  5
8
330
352
100
AcDbSymbolTableRecord
100
AcDbLayerTableRecord
  2
2-35S
 70
     0
 62
     7
  6
Continuous
370
     0
390
355
1001
AcAecLayerStandard
1000

1000
2-35S
  0
LAYER
  5
9
330
352
100
AcDbSymbolTableRecord
100
AcDbLayerTableRecord
  2
BORDER
 70
     0
 62
     7
  6
Continuous
370
     0
390
355
1001
AcAecLayerStandard
1000

1000
BORDER
  0
LAYER
  5
A
330
352
100
AcDbSymbolTableRecord
100
AcDbLayerTableRecord
  2
DEFPOINTS
 70
     0
 62
     7
  6
Continuous
290
     0
370
     0
390
355
1001
AcAecLayerStandard
1000

1000
DEFPOINTS
  0
LAYER
  5
B
330
352
100
AcDbSymbolTableRecord
100
AcDbLayerTableRecord
  2
DIM
 70
     0
 62
     7
  6
Continuous
370
     0
390
355
1001
AcAecLayerStandard
1000

1000
DIM
  0
LAYER
  5
C
330
352
100
AcDbSymbolTableRecord
100
AcDbLayerTableRecord
  2
HATCH
 70
     0
 62
     7
  6
Continuous
370
     0
390
355
1001
AcAecLayerStandard
1000

1000
HATCH
  0
LAYER
  5
D
330
352
100
AcDbSymbolTableRecord
100
AcDbLayerTableRecord
  2
LEGEND
 70
     0
 62
     7
  6
Continuous
370
     0
390
355
1001
AcAecLayerStandard
1000

1000
LEGEND
  0
LAYER
  5
E
330
352
100
AcDbSymbolTableRecord
100
AcDbLayerTableRecord
  2
REF
 70
     0
 62
     7
  6
Continuous
370
     0
390
355
1001
AcAecLayerStandard
1000

1000
REF
  0
LAYER
  5
F
330
352
100
AcDbSymbolTableRecord
100
AcDbLayerTableRecord
  2
TEXT
 70
     0
 62
     7
  6
Continuous
370
     0
390
355
1001
AcAecLayerStandard
1000

1000
TEXT
  0
LAYER
  5
10
330
352
100
AcDbSymbolTableRecord
100
AcDbLayerTableRecord
  2
TITLE
 70
     0
 62
     7
  6
Continuous
370
     0
390
355
1001
AcAecLayerStandard
1000

1000
TITLE
  0
LAYER
  5
11
330
352
100
AcDbSymbolTableRecord
100
AcDbLayerTableRecord
  2
Level 11
 70
     0
 62
     7
  6
Continuous
370
     0
390
355
  0
LAYER
  5
12
330
352
100
AcDbSymbolTableRecord
100
AcDbLayerTableRecord
  2
Level 12
 70
     0
 62
     7
  6
Continuous
370
     0
390
355
  0
LAYER
  5
13
330
352
100
AcDbSymbolTableRecord
100
AcDbLayerTableRecord
  2
Level 13
 70
     0
 62
     7
  6
Continuous
370
     0
390
355
  0
LAYER
  5
14
330
352
100
AcDbSymbolTableRecord
100
AcDbLayerTableRecord
  2
Level 14
 70
     0
 62
     7
  6
Continuous
370
     0
390
355
  0
LAYER
  5
15
330
352
100
AcDbSymbolTableRecord
100
AcDbLayerTableRecord
  2
Level 15
 70
     0
 62
     7
  6
Continuous
370
     0
390
355
  0
LAYER
  5
16
330
352
100
AcDbSymbolTableRecord
100
AcDbLayerTableRecord
  2
Level 16
 70
     0
 62
     7
  6
Continuous
370
     0
390
355
  0
LAYER
  5
17
330
352
100
AcDbSymbolTableRecord
100
AcDbLayerTableRecord
  2
Level 17
 70
     0
 62
     7
  6
Continuous
370
     0
390
355
  0
LAYER
  5
18
330
352
100
AcDbSymbolTableRecord
100
AcDbLayerTableRecord
  2
Level 18
 70
     0
 62
     7
  6
Continuous
370
     0
390
355
  0
LAYER
  5
19
330
352
100
AcDbSymbolTableRecord
100
AcDbLayerTableRecord
  2
Level 19
 70
     0
 62
     7
  6
Continuous
370
     0
390
355
  0
LAYER
  5
1A
330
352
100
AcDbSymbolTableRecord
100
AcDbLayerTableRecord
  2
Level 20
 70
     0
 62
     7
  6
Continuous
370
     0
390
355
  0
LAYER
  5
1B
330
352
100
AcDbSymbolTableRecord
100
AcDbLayerTableRecord
  2
Level 21
 70
     0
 62
     7
  6
Continuous
370
     0
390
355
  0
LAYER
  5
1C
330
352
100
AcDbSymbolTableRecord
100
AcDbLayerTableRecord
  2
Level 22
 70
     0
 62
     7
  6
Continuous
370
     0
390
355
  0
LAYER
  5
1D
330
352
100
AcDbSymbolTableRecord
100
AcDbLayerTableRecord
  2
Level 23
 70
     0
 62
     7
  6
Continuous
370
     0
390
355
  0
LAYER
  5
1E
330
352
100
AcDbSymbolTableRecord
100
AcDbLayerTableRecord
  2
Level 24
 70
     0
 62
     7
  6
Continuous
370
     0
390
355
  0
LAYER
  5
1F
330
352
100
AcDbSymbolTableRecord
100
AcDbLayerTableRecord
  2
Level 25
 70
     0
 62
     7
  6
Continuous
370
     0
390
355
  0
LAYER
  5
20
330
352
100
AcDbSymbolTableRecord
100
AcDbLayerTableRecord
  2
Level 26
 70
     0
 62
     7
  6
Continuous
370
     0
390
355
  0
LAYER
  5
21
330
352
100
AcDbSymbolTableRecord
100
AcDbLayerTableRecord
  2
Level 27
 70
     0
 62
     7
  6
Continuous
370
     0
390
355
  0
LAYER
  5
22
330
352
100
AcDbSymbolTableRecord
100
AcDbLayerTableRecord
  2
Level 28
 70
     0
 62
     7
  6
Continuous
370
     0
390
355
  0
LAYER
  5
23
330
352
100
AcDbSymbolTableRecord
100
AcDbLayerTableRecord
  2
Level 29
 70
     0
 62
     7
  6
Continuous
370
     0
390
355
  0
LAYER
  5
24
330
352
100
AcDbSymbolTableRecord
100
AcDbLayerTableRecord
  2
Level 30
 70
     0
 62
     7
  6
Continuous
370
     0
390
355
  0
LAYER
  5
25
330
352
100
AcDbSymbolTableRecord
100
AcDbLayerTableRecord
  2
Level 31
 70
     0
 62
     7
  6
Continuous
370
     0
390
355
  0
LAYER
  5
26
330
352
100
AcDbSymbolTableRecord
100
AcDbLayerTableRecord
  2
Level 32
 70
     0
 62
     7
  6
Continuous
370
     0
390
355
  0
LAYER
  5
27
330
352
100
AcDbSymbolTableRecord
100
AcDbLayerTableRecord
  2
Level 33
 70
     0
 62
     7
  6
Continuous
370
     0
390
355
  0
LAYER
  5
28
330
352
100
AcDbSymbolTableRecord
100
AcDbLayerTableRecord
  2
Level 34
 70
     0
 62
     7
  6
Continuous
370
     0
390
355
  0
LAYER
  5
29
330
352
100
AcDbSymbolTableRecord
100
AcDbLayerTableRecord
  2
Level 35
 70
     0
 62
     7
  6
Continuous
370
     0
390
355
  0
LAYER
  5
2A
330
352
100
AcDbSymbolTableRecord
100
AcDbLayerTableRecord
  2
Level 36
 70
     0
 62
     7
  6
Continuous
370
     0
390
355
  0
LAYER
  5
2B
330
352
100
AcDbSymbolTableRecord
100
AcDbLayerTableRecord
  2
Level 37
 70
     0
 62
     7
  6
Continuous
370
     0
390
355
  0
LAYER
  5
2C
330
352
100
AcDbSymbolTableRecord
100
AcDbLayerTableRecord
  2
Level 38
 70
     0
 62
     7
  6
Continuous
370
     0
390
355
  0
LAYER
  5
2D
330
352
100
AcDbSymbolTableRecord
100
AcDbLayerTableRecord
  2
Level 39
 70
     0
 62
     7
  6
Continuous
370
     0
390
355
  0
LAYER
  5
2E
330
352
100
AcDbSymbolTableRecord
100
AcDbLayerTableRecord
  2
Level 40
 70
     0
 62
     7
  6
Continuous
370
     0
390
355
  0
LAYER
  5
2F
330
352
100
AcDbSymbolTableRecord
100
AcDbLayerTableRecord
  2
Level 41
 70
     0
 62
     7
  6
Continuous
370
     0
390
355
  0
LAYER
  5
30
330
352
100
AcDbSymbolTableRecord
100
AcDbLayerTableRecord
  2
Level 42
 70
     0
 62
     7
  6
Continuous
370
     0
390
355
  0
LAYER
  5
31
330
352
100
AcDbSymbolTableRecord
100
AcDbLayerTableRecord
  2
Level 43
 70
     0
 62
     7
  6
Continuous
370
     0
390
355
  0
LAYER
  5
32
330
352
100
AcDbSymbolTableRecord
100
AcDbLayerTableRecord
  2
Level 44
 70
     0
 62
     7
  6
Continuous
370
     0
390
355
  0
LAYER
  5
33
330
352
100
AcDbSymbolTableRecord
100
AcDbLayerTableRecord
  2
Level 45
 70
     0
 62
     7
  6
Continuous
370
     0
390
355
  0
LAYER
  5
34
330
352
100
AcDbSymbolTableRecord
100
AcDbLayerTableRecord
  2
Level 46
 70
     0
 62
     7
  6
Continuous
370
     0
390
355
  0
LAYER
  5
35
330
352
100
AcDbSymbolTableRecord
100
AcDbLayerTableRecord
  2
Level 47
 70
     0
 62
     7
  6
Continuous
370
     0
390
355
  0
LAYER
  5
36
330
352
100
AcDbSymbolTableRecord
100
AcDbLayerTableRecord
  2
Level 48
 70
     0
 62
     7
  6
Continuous
370
     0
390
355
  0
LAYER
  5
37
330
352
100
AcDbSymbolTableRecord
100
AcDbLayerTableRecord
  2
Level 49
 70
     0
 62
     7
  6
Continuous
370
     0
390
355
  0
LAYER
  5
38
330
352
100
AcDbSymbolTableRecord
100
AcDbLayerTableRecord
  2
Level 50
 70
     0
 62
     7
  6
Continuous
370
     0
390
355
  0
LAYER
  5
39
330
352
100
AcDbSymbolTableRecord
100
AcDbLayerTableRecord
  2
Level 51
 70
     0
 62
     7
  6
Continuous
370
     0
390
355
  0
LAYER
  5
3A
330
352
100
AcDbSymbolTableRecord
100
AcDbLayerTableRecord
  2
Level 52
 70
     0
 62
     7
  6
Continuous
370
     0
390
355
  0
LAYER
  5
3B
330
352
100
AcDbSymbolTableRecord
100
AcDbLayerTableRecord
  2
Level 53
 70
     0
 62
     7
  6
Continuous
370
     0
390
355
  0
LAYER
  5
3C
330
352
100
AcDbSymbolTableRecord
100
AcDbLayerTableRecord
  2
Level 54
 70
     0
 62
     7
  6
Continuous
370
     0
390
355
  0
LAYER
  5
3D
330
352
100
AcDbSymbolTableRecord
100
AcDbLayerTableRecord
  2
Level 55
 70
     0
 62
     7
  6
Continuous
370
     0
390
355
  0
LAYER
  5
3E
330
352
100
AcDbSymbolTableRecord
100
AcDbLayerTableRecord
  2
Level 56
 70
     0
 62
     7
  6
Continuous
370
     0
390
355
  0
LAYER
  5
3F
330
352
100
AcDbSymbolTableRecord
100
AcDbLayerTableRecord
  2
Level 57
 70
     0
 62
     7
  6
Continuous
370
     0
390
355
  0
LAYER
  5
40
330
352
100
AcDbSymbolTableRecord
100
AcDbLayerTableRecord
  2
Level 58
 70
     0
 62
     7
  6
Continuous
370
     0
390
355
  0
LAYER
  5
41
330
352
100
AcDbSymbolTableRecord
100
AcDbLayerTableRecord
  2
Level 59
 70
     0
 62
     7
  6
Continuous
370
     0
390
355
  0
LAYER
  5
42
330
352
100
AcDbSymbolTableRecord
100
AcDbLayerTableRecord
  2
Level 60
 70
     0
 62
     7
  6
Continuous
370
     0
390
355
  0
LAYER
  5
43
330
352
100
AcDbSymbolTableRecord
100
AcDbLayerTableRecord
  2
Level 61
 70
     0
 62
     7
  6
Continuous
370
     0
390
355
  0
LAYER
  5
44
330
352
100
AcDbSymbolTableRecord
100
AcDbLayerTableRecord
  2
Level 62
 70
     0
 62
     7
  6
Continuous
370
     0
390
355
  0
LAYER
  5
45
330
352
100
AcDbSymbolTableRecord
100
AcDbLayerTableRecord
  2
_0
 70
     0
 62
     7
  6
Continuous
370
     0
390
355
1001
AcAecLayerStandard
1000

1000
0
  0
ENDTAB
  0
TABLE
  2
STYLE
  5
35D
330
0
100
AcDbSymbolTable
 70
     2
  0
STYLE
  5
35C
330
35D
100
AcDbSymbolTableRecord
100
AcDbTextStyleTableRecord
  2
Standard
 70
     0
 40
0.0
 41
1.0
 50
0.0
 71
     0
 42
0.12
  3
txt
  4

  0
STYLE
  5
37C
330
35D
100
AcDbSymbolTableRecord
100
AcDbTextStyleTableRecord
  2
Style-Arial
 70
     0
 40
0.0
 41
1.0
 50
0.0
 71
     0
 42
0.2
  3

  4

1001
ACAD
1000
Arial
1071
       39
  0
ENDTAB
  0
TABLE
  2
VIEW
  5
370
330
0
100
AcDbSymbolTable
 70
     0
  0
ENDTAB
  0
TABLE
  2
UCS
  5
371
330
0
100
AcDbSymbolTable
 70
     0
  0
ENDTAB
  0
TABLE
  2
APPID
  5
36F
330
0
100
AcDbSymbolTable
 70
     3
  0
APPID
  5
377
330
36F
100
AcDbSymbolTableRecord
100
AcDbRegAppTableRecord
  2
ACAD
 70
     0
  0
APPID
  5
36E
330
36F
100
AcDbSymbolTableRecord
100
AcDbRegAppTableRecord
  2
ACAD_PSEXT
 70
     0
  0
APPID
  5
379
330
36F
100
AcDbSymbolTableRecord
100
AcDbRegAppTableRecord
  2
AcAecLayerStandard
 70
     0
  0
ENDTAB
  0
TABLE
  2
DIMSTYLE
  5
35F
330
0
100
AcDbSymbolTable
 70
     1
100
AcDbDimStyleTable
  0
DIMSTYLE
105
35E
330
35F
100
AcDbSymbolTableRecord
100
AcDbDimStyleTableRecord
  2
Standard
 70
     0
340
35C
  0
ENDTAB
  0
TABLE
  2
BLOCK_RECORD
  5
362
330
0
100
AcDbSymbolTable
 70
     4
  0
BLOCK_RECORD
  5
363
102
{ACAD_XDICTIONARY
360
38F
102
}
330
362
100
AcDbSymbolTableRecord
100
AcDbBlockTableRecord
  2
*Model_Space
340
366
  0
BLOCK_RECORD
  5
368
330
362
100
AcDbSymbolTableRecord
100
AcDbBlockTableRecord
  2
*Paper_Space
340
36B
  0
BLOCK_RECORD
  5
37D
330
362
100
AcDbSymbolTableRecord
100
AcDbBlockTableRecord
  2
TerminatorOpen_0.5
340
0
  0
BLOCK_RECORD
  5
386
330
362
100
AcDbSymbolTableRecord
100
AcDbBlockTableRecord
  2
LARROW
340
0
102
{BLKREFS
331
2C3
331
2C5
331
2C7
331
2C9
331
2CB
331
2CD
331
2CF
331
2D1
331
2D3
331
2D5
331
2D7
331
2D9
331
2DB
331
2E0
102
}
  0
BLOCK_RECORD
  5
389
330
362
100
AcDbSymbolTableRecord
100
AcDbBlockTableRecord
  2
LARROW_1
340
0
102
{BLKREFS
331
2E4
102
}
  0
BLOCK_RECORD
  5
38C
330
362
100
AcDbSymbolTableRecord
100
AcDbBlockTableRecord
  2
LARROW_2
340
0
102
{BLKREFS
331
2F5
102
}
  0
ENDTAB
  0
ENDSEC
  0
SECTION
  2
BLOCKS
  0
BLOCK
  5
364
330
363
100
AcDbEntity
  8
0
100
AcDbBlockBegin
  2
*Model_Space
 70
     0
 71
     0
 10
0.0
 20
0.0
 30
0.0
  3
*Model_Space
  1

  0
ENDBLK
  5
365
330
363
100
AcDbEntity
  8
0
100
AcDbBlockEnd
  0
BLOCK
  5
369
330
368
100
AcDbEntity
 67
     1
  8
0
100
AcDbBlockBegin
  2
*Paper_Space
 70
     0
 71
     0
 10
0.0
 20
0.0
 30
0.0
  3
*Paper_Space
  1

  0
ENDBLK
  5
36A
330
368
100
AcDbEntity
 67
     1
  8
0
100
AcDbBlockEnd
  0
BLOCK
  5
381
330
37D
100
AcDbEntity
  8
0
100
AcDbBlockBegin
  2
TerminatorOpen_0.5
 70
     0
 71
     0
 10
0.0
 20
0.0
 30
0.0
  3
TerminatorOpen_0.5
  1

  0
LINE
  5
37E
330
37D
100
AcDbEntity
  8
0
  6
ByBlock
 62
     0
370
    -2
100
AcDbLine
 10
0.0
 20
0.0
 30
0.0
 11
-1.0
 21
0.0
 31
0.0
  0
LINE
  5
37F
330
37D
100
AcDbEntity
  8
0
  6
ByBlock
 62
     0
370
    -2
100
AcDbLine
 10
0.0
 20
0.0
 30
0.0
 11
-1.0
 21
0.25
 31
0.0
  0
LINE
  5
380
330
37D
100
AcDbEntity
  8
0
  6
ByBlock
 62
     0
370
    -2
100
AcDbLine
 10
0.0
 20
0.0
 30
0.0
 11
-1.0
 21
-0.25
 31
0.0
  0
ENDBLK
  5
382
330
37D
100
AcDbEntity
  8
0
100
AcDbBlockEnd
  0
BLOCK
  5
387
330
386
100
AcDbEntity
  8
0
100
AcDbBlockBegin
  2
LARROW
 70
     0
 71
     0
 10
0.0
 20
0.0
 30
0.0
  3
LARROW
  1

  0
LWPOLYLINE
  5
2C4
330
386
100
AcDbEntity
  8
HATCH
  6
Continuous
 62
     7
370
    13
100
AcDbPolyline
 90
       63
 70
   128
 43
0.0
 10
-0.013031
 20
0.001885
 10
0.0
 20
0.0
 10
-0.013021
 20
-0.001885
 10
-0.012615
 20
-0.001573
 10
-0.012042
 20
-0.00101
 10
-0.01176
 20
-0.00049
 10
-0.011687
 20
0.0
 10
-0.011792
 20
0.000552
 10
-0.012094
 20
0.001094
 10
-0.012677
 20
0.001625
 10
-0.013031
 20
0.001885
 10
-0.000385
 20
0.000021
 10
-0.012604
 20
-0.00176
 10
-0.012229
 20
-0.001479
 10
-0.011625
 20
-0.000906
 10
-0.011427
 20
-0.000167
 10
-0.011562
 20
0.000573
 10
-0.011917
 20
0.001083
 10
-0.012344
 20
0.0015
 10
-0.012635
 20
0.001729
 10
-0.001073
 20
0.000021
 10
-0.012052
 20
-0.001552
 10
-0.011667
 20
-0.001302
 10
-0.011469
 20
-0.000979
 10
-0.01125
 20
-0.000562
 10
-0.011135
 20
0.000021
 10
-0.011198
 20
0.0005
 10
-0.011427
 20
0.000875
 10
-0.011896
 20
0.001177
 10
-0.012208
 20
0.001542
 10
-0.001875
 20
0.000021
 10
-0.011448
 20
-0.001323
 10
-0.011021
 20
-0.000792
 10
-0.010896
 20
-0.000146
 10
-0.010958
 20
0.000573
 10
-0.011781
 20
0.001354
 10
-0.002771
 20
0.000063
 10
-0.010896
 20
-0.001073
 10
-0.010781
 20
-0.000698
 10
-0.010531
 20
-0.000094
 10
-0.010687
 20
0.000552
 10
-0.011333
 20
0.001125
 10
-0.003594
 20
0.000063
 10
-0.010604
 20
-0.000833
 10
-0.010375
 20
-0.000375
 10
-0.010271
 20
0.000115
 10
-0.01076
 20
0.000875
 10
-0.004573
 20
0.000063
 10
-0.010177
 20
-0.000625
 10
-0.010021
 20
-0.000281
 10
-0.009979
 20
0.000115
 10
-0.010375
 20
0.000667
 10
-0.00574
 20
0.000063
 10
-0.009823
 20
-0.000396
 10
-0.009708
 20
0.000135
 10
-0.010083
 20
0.000458
 10
-0.006698
 20
0.000063
 10
-0.009552
 20
-0.00024
 10
-0.009615
 20
0.000271
 10
-0.007677
 20
0.000063
 10
-0.009437
 20
-0.000073
 10
-0.00949
 20
0.000083
 10
-0.008885
 20
0.000083
  0
ENDBLK
  5
388
330
386
100
AcDbEntity
  8
0
100
AcDbBlockEnd
  0
BLOCK
  5
38A
330
389
100
AcDbEntity
  8
0
100
AcDbBlockBegin
  2
LARROW_1
 70
     0
 71
     0
 10
0.0
 20
0.0
 30
0.0
  3
LARROW_1
  1

  0
LINE
  5
2E5
330
389
100
AcDbEntity
  8
_0
  6
Continuous
 62
     7
370
    13
100
AcDbLine
 10
0.0
 20
0.0
 30
0.0
 11
-0.013031
 21
0.001886
 31
0.0
  0
LINE
  5
2E6
330
389
100
AcDbEntity
  8
_0
  6
Continuous
 62
     7
370
    13
100
AcDbLine
 10
0.0
 20
0.0
 30
0.0
 11
-0.013021
 21
-0.001885
 31
0.0
  0
LWPOLYLINE
  5
2E7
330
389
100
AcDbEntity
  8
_0
  6
Continuous
 62
     7
370
    13
100
AcDbPolyline
 90
        9
 70
   128
 43
0.0
 10
-0.013031
 20
0.001886
 10
-0.01225
 20
0.001292
 10
-0.011895
 20
0.000812
 10
-0.011719
 20
0.000365
 10
-0.011687
 20
-0.000052
 10
-0.01175
 20
-0.000459
 10
-0.011958
 20
-0.000896
 10
-0.012323
 20
-0.001354
 10
-0.013021
 20
-0.001885
  0
LINE
  5
2E8
330
389
100
AcDbEntity
  8
_0
  6
Continuous
 62
     7
370
    13
100
AcDbLine
 10
0.0
 20
0.0
 30
0.0
 11
-0.01225
 21
0.001292
 31
0.0
  0
LINE
  5
2E9
330
389
100
AcDbEntity
  8
_0
  6
Continuous
 62
     7
370
    13
100
AcDbLine
 10
0.0
 20
0.0
 30
0.0
 11
-0.011895
 21
0.000812
 31
0.0
  0
LINE
  5
2EA
330
389
100
AcDbEntity
  8
_0
  6
Continuous
 62
     7
370
    13
100
AcDbLine
 10
0.0
 20
0.0
 30
0.0
 11
-0.011719
 21
0.000365
 31
0.0
  0
LINE
  5
2EB
330
389
100
AcDbEntity
  8
_0
  6
Continuous
 62
     7
370
    13
100
AcDbLine
 10
0.0
 20
0.0
 30
0.0
 11
-0.01175
 21
-0.000459
 31
0.0
  0
LINE
  5
2EC
330
389
100
AcDbEntity
  8
_0
  6
Continuous
 62
     7
370
    13
100
AcDbLine
 10
0.0
 20
0.0
 30
0.0
 11
-0.011958
 21
-0.000896
 31
0.0
  0
LINE
  5
2ED
330
389
100
AcDbEntity
  8
_0
  6
Continuous
 62
     7
370
    13
100
AcDbLine
 10
0.0
 20
0.0
 30
0.0
 11
-0.012323
 21
-0.001354
 31
0.0
  0
LINE
  5
2EE
330
389
100
AcDbEntity
  8
_0
  6
Continuous
 62
     7
370
    13
100
AcDbLine
 10
0.0
 20
0.0
 30
0.0
 11
-0.011677
 21
0.0
 31
0.0
  0
ENDBLK
  5
38B
330
389
100
AcDbEntity
  8
0
100
AcDbBlockEnd
  0
BLOCK
  5
38D
330
38C
100
AcDbEntity
  8
0
100
AcDbBlockBegin
  2
LARROW_2
 70
     0
 71
     0
 10
0.0
 20
0.0
 30
0.0
  3
LARROW_2
  1

  0
LINE
  5
2F6
330
38C
100
AcDbEntity
  8
DIM
  6
Continuous
 62
     7
370
    13
100
AcDbLine
 10
0.0
 20
0.0
 30
0.0
 11
-0.013031
 21
0.001885
 31
0.0
  0
LINE
  5
2F7
330
38C
100
AcDbEntity
  8
DIM
  6
Continuous
 62
     7
370
    13
100
AcDbLine
 10
0.0
 20
0.0
 30
0.0
 11
-0.013021
 21
-0.001886
 31
0.0
  0
LWPOLYLINE
  5
2F8
330
38C
100
AcDbEntity
  8
DIM
  6
Continuous
 62
     7
370
    13
100
AcDbPolyline
 90
        9
 70
   128
 43
0.0
 10
-0.013031
 20
0.001885
 10
-0.012251
 20
0.001292
 10
-0.011896
 20
0.000813
 10
-0.011719
 20
0.000364
 10
-0.011687
 20
-0.000052
 10
-0.01175
 20
-0.000458
 10
-0.011959
 20
-0.000896
 10
-0.012323
 20
-0.001354
 10
-0.013021
 20
-0.001886
  0
LINE
  5
2F9
330
38C
100
AcDbEntity
  8
DIM
  6
Continuous
 62
     7
370
    13
100
AcDbLine
 10
0.0
 20
0.0
 30
0.0
 11
-0.012251
 21
0.001292
 31
0.0
  0
LINE
  5
2FA
330
38C
100
AcDbEntity
  8
DIM
  6
Continuous
 62
     7
370
    13
100
AcDbLine
 10
0.0
 20
0.0
 30
0.0
 11
-0.011896
 21
0.000813
 31
0.0
  0
LINE
  5
2FB
330
38C
100
AcDbEntity
  8
DIM
  6
Continuous
 62
     7
370
    13
100
AcDbLine
 10
0.0
 20
0.0
 30
0.0
 11
-0.011719
 21
0.000364
 31
0.0
  0
LINE
  5
2FC
330
38C
100
AcDbEntity
  8
DIM
  6
Continuous
 62
     7
370
    13
100
AcDbLine
 10
0.0
 20
0.0
 30
0.0
 11
-0.01175
 21
-0.000458
 31
0.0
  0
LINE
  5
2FD
330
38C
100
AcDbEntity
  8
DIM
  6
Continuous
 62
     7
370
    13
100
AcDbLine
 10
0.0
 20
0.0
 30
0.0
 11
-0.011959
 21
-0.000896
 31
0.0
  0
LINE
  5
2FE
330
38C
100
AcDbEntity
  8
DIM
  6
Continuous
 62
     7
370
    13
100
AcDbLine
 10
0.0
 20
0.0
 30
0.0
 11
-0.012323
 21
-0.001354
 31
0.0
  0
LINE
  5
2FF
330
38C
100
AcDbEntity
  8
DIM
  6
Continuous
 62
     7
370
    13
100
AcDbLine
 10
0.0
 20
0.0
 30
0.0
 11
-0.011677
 21
-0.000001
 31
0.0
  0
ENDBLK
  5
38E
330
38C
100
AcDbEntity
  8
0
100
AcDbBlockEnd
  0
ENDSEC
  0
SECTION
  2
ENTITIES
  0
POINT
  5
5B
330
363
100
AcDbEntity
  8
_0
  6
Continuous
 62
     7
370
    30
100
AcDbPoint
 10
25.625
 20
-12.013094
 30
0.0
  0
LINE
  5
5C
330
363
100
AcDbEntity
  8
BORDER
  6
Continuous
 62
     7
370
    30
100
AcDbLine
 10
32.875
 20
-12.013094
 30
0.0
 11
32.875
 21
-2.913094
 31
0.0
  0
LINE
  5
5D
330
363
100
AcDbEntity
  8
BORDER
  6
Continuous
 62
     7
370
    30
100
AcDbLine
 10
25.625
 20
-2.913094
 30
0.0
 11
32.875
 21
-2.913094
 31
0.0
  0
LINE
  5
5E
330
363
100
AcDbEntity
  8
BORDER
  6
Continuous
 62
     7
370
    30
100
AcDbLine
 10
25.625
 20
-12.013094
 30
0.0
 11
25.625
 21
-2.913094
 31
0.0
  0
LINE
  5
5F
330
363
100
AcDbEntity
  8
BORDER
  6
Continuous
 62
     7
370
    30
100
AcDbLine
 10
25.625
 20
-11.513094
 30
0.0
 11
32.875
 21
-11.513094
 31
0.0
  0
LINE
  5
60
330
363
100
AcDbEntity
  8
BORDER
  6
Continuous
 62
     7
370
    30
100
AcDbLine
 10
25.625
 20
-12.013094
 30
0.0
 11
32.875
 21
-12.013094
 31
0.0
  0
LINE
  5
61
330
363
100
AcDbEntity
  8
BORDER
  6
Continuous
 62
     7
370
    30
100
AcDbLine
 10
31.775
 20
-12.013094
 30
0.0
 11
31.775
 21
-11.513094
 31
0.0
  0
LINE
  5
62
330
363
100
AcDbEntity
  8
BORDER
  6
Continuous
 62
     7
370
    30
100
AcDbLine
 10
30.675
 20
-12.013094
 30
0.0
 11
30.675
 21
-11.513094
 31
0.0
  0
LINE
  5
68
330
363
100
AcDbEntity
  8
_0
  6
Continuous
 62
     7
370
    30
100
AcDbLine
 10
32.368854
 20
-4.78724
 30
0.0
 11
32.368854
 21
-3.22474
 31
0.0
  0
LINE
  5
69
330
363
100
AcDbEntity
  8
_0
  6
Continuous
 62
     7
370
    30
100
AcDbLine
 10
29.868854
 20
-3.22474
 30
0.0
 11
32.368854
 21
-3.22474
 31
0.0
  0
LINE
  5
6A
330
363
100
AcDbEntity
  8
_0
  6
Continuous
 62
     7
370
    30
100
AcDbLine
 10
29.868854
 20
-3.53724
 30
0.0
 11
32.368854
 21
-3.53724
 31
0.0
  0
LINE
  5
6B
330
363
100
AcDbEntity
  8
_0
  6
Continuous
 62
     7
370
    30
100
AcDbLine
 10
29.868854
 20
-3.84974
 30
0.0
 11
32.368854
 21
-3.84974
 31
0.0
  0
LINE
  5
6C
330
363
100
AcDbEntity
  8
_0
  6
Continuous
 62
     7
370
    30
100
AcDbLine
 10
29.868854
 20
-4.16224
 30
0.0
 11
32.368854
 21
-4.16224
 31
0.0
  0
LINE
  5
6D
330
363
100
AcDbEntity
  8
_0
  6
Continuous
 62
     7
370
    30
100
AcDbLine
 10
29.868854
 20
-4.47474
 30
0.0
 11
32.368854
 21
-4.47474
 31
0.0
  0
LINE
  5
6E
330
363
100
AcDbEntity
  8
_0
  6
Continuous
 62
     7
370
    30
100
AcDbLine
 10
29.868854
 20
-4.78724
 30
0.0
 11
32.368854
 21
-4.78724
 31
0.0
  0
LINE
  5
6F
330
363
100
AcDbEntity
  8
_0
  6
Continuous
 62
     7
370
    30
100
AcDbLine
 10
32.056354
 20
-4.78724
 30
0.0
 11
32.056354
 21
-3.22474
 31
0.0
  0
LINE
  5
70
330
363
100
AcDbEntity
  8
_0
  6
Continuous
 62
     7
370
    30
100
AcDbLine
 10
31.743854
 20
-4.78724
 30
0.0
 11
31.743854
 21
-3.22474
 31
0.0
  0
LINE
  5
71
330
363
100
AcDbEntity
  8
_0
  6
Continuous
 62
     7
370
    30
100
AcDbLine
 10
31.431354
 20
-4.78724
 30
0.0
 11
31.431354
 21
-3.22474
 31
0.0
  0
LINE
  5
72
330
363
100
AcDbEntity
  8
_0
  6
Continuous
 62
     7
370
    30
100
AcDbLine
 10
31.118854
 20
-4.78724
 30
0.0
 11
31.118854
 21
-3.22474
 31
0.0
  0
LINE
  5
73
330
363
100
AcDbEntity
  8
_0
  6
Continuous
 62
     7
370
    30
100
AcDbLine
 10
30.806354
 20
-4.78724
 30
0.0
 11
30.806354
 21
-3.22474
 31
0.0
  0
LINE
  5
74
330
363
100
AcDbEntity
  8
_0
  6
Continuous
 62
     7
370
    30
100
AcDbLine
 10
30.493854
 20
-4.78724
 30
0.0
 11
30.493854
 21
-3.22474
 31
0.0
  0
LINE
  5
75
330
363
100
AcDbEntity
  8
_0
  6
Continuous
 62
     7
370
    30
100
AcDbLine
 10
30.181354
 20
-4.78724
 30
0.0
 11
30.181354
 21
-3.22474
 31
0.0
  0
LINE
  5
76
330
363
100
AcDbEntity
  8
_0
  6
Continuous
 62
     7
370
    30
100
AcDbLine
 10
29.868854
 20
-4.78724
 30
0.0
 11
29.868854
 21
-3.22474
 31
0.0
  0
SPLINE
  5
86
330
363
100
AcDbEntity
  8
_0
  6
Continuous
 62
     7
370
    40
100
AcDbSpline
210
0.0
220
0.0
230
1.0
 70
     8
 71
     3
 72
    12
 73
     8
 74
     0
 42
0.0000000001
 43
0.00000001
 40
0.0
 40
0.0
 40
0.0
 40
0.0
 40
0.2
 40
0.4
 40
0.6000000000000001
 40
0.8
 40
1.0
 40
1.0
 40
1.0
 40
1.0
 10
29.96885416666667
 20
-3.224739583333333
 30
0.0
 10
30.03135416666667
 20
-3.537239583333333
 30
0.0
 10
30.21135416666667
 20
-3.849739583333333
 30
0.0
 10
30.49385416666667
 20
-4.112239583333333
 30
0.0
 10
31.11885416666667
 20
-4.374739583333334
 30
0.0
 10
31.43135416666667
 20
-4.446645833333333
 30
0.0
 10
31.55635416666667
 20
-4.474739583333333
 30
0.0
 10
32.15635416666667
 20
-4.549739583333333
 30
0.0
  0
LINE
  5
97
330
363
100
AcDbEntity
  8
_0
  6
Continuous
 62
     7
370
    30
100
AcDbLine
 10
29.868854
 20
-6.630031
 30
0.0
 11
29.868854
 21
-5.067531
 31
0.0
  0
LINE
  5
98
330
363
100
AcDbEntity
  8
_0
  6
Continuous
 62
     7
370
    30
100
AcDbLine
 10
30.181354
 20
-6.630031
 30
0.0
 11
30.181354
 21
-5.067531
 31
0.0
  0
LINE
  5
99
330
363
100
AcDbEntity
  8
_0
  6
Continuous
 62
     7
370
    30
100
AcDbLine
 10
30.493854
 20
-6.630031
 30
0.0
 11
30.493854
 21
-5.067531
 31
0.0
  0
LINE
  5
9A
330
363
100
AcDbEntity
  8
_0
  6
Continuous
 62
     7
370
    30
100
AcDbLine
 10
30.806354
 20
-6.630031
 30
0.0
 11
30.806354
 21
-5.067531
 31
0.0
  0
LINE
  5
9B
330
363
100
AcDbEntity
  8
_0
  6
Continuous
 62
     7
370
    30
100
AcDbLine
 10
31.118854
 20
-6.630031
 30
0.0
 11
31.118854
 21
-5.067531
 31
0.0
  0
LINE
  5
9C
330
363
100
AcDbEntity
  8
_0
  6
Continuous
 62
     7
370
    30
100
AcDbLine
 10
31.431354
 20
-6.630031
 30
0.0
 11
31.431354
 21
-5.067531
 31
0.0
  0
LINE
  5
9D
330
363
100
AcDbEntity
  8
_0
  6
Continuous
 62
     7
370
    30
100
AcDbLine
 10
31.743854
 20
-6.630031
 30
0.0
 11
31.743854
 21
-5.067531
 31
0.0
  0
LINE
  5
9E
330
363
100
AcDbEntity
  8
_0
  6
Continuous
 62
     7
370
    30
100
AcDbLine
 10
32.056354
 20
-6.630031
 30
0.0
 11
32.056354
 21
-5.067531
 31
0.0
  0
LINE
  5
9F
330
363
100
AcDbEntity
  8
_0
  6
Continuous
 62
     7
370
    30
100
AcDbLine
 10
29.868854
 20
-6.630031
 30
0.0
 11
32.368854
 21
-6.630031
 31
0.0
  0
LINE
  5
A0
330
363
100
AcDbEntity
  8
_0
  6
Continuous
 62
     7
370
    30
100
AcDbLine
 10
29.868854
 20
-6.317531
 30
0.0
 11
32.368854
 21
-6.317531
 31
0.0
  0
LINE
  5
A1
330
363
100
AcDbEntity
  8
_0
  6
Continuous
 62
     7
370
    30
100
AcDbLine
 10
29.868854
 20
-6.005031
 30
0.0
 11
32.368854
 21
-6.005031
 31
0.0
  0
LINE
  5
A2
330
363
100
AcDbEntity
  8
_0
  6
Continuous
 62
     7
370
    30
100
AcDbLine
 10
29.868854
 20
-5.692531
 30
0.0
 11
32.368854
 21
-5.692531
 31
0.0
  0
LINE
  5
A3
330
363
100
AcDbEntity
  8
_0
  6
Continuous
 62
     7
370
    30
100
AcDbLine
 10
29.868854
 20
-5.380031
 30
0.0
 11
32.368854
 21
-5.380031
 31
0.0
  0
LINE
  5
A4
330
363
100
AcDbEntity
  8
_0
  6
Continuous
 62
     7
370
    30
100
AcDbLine
 10
29.868854
 20
-5.067531
 30
0.0
 11
32.368854
 21
-5.067531
 31
0.0
  0
LINE
  5
A5
330
363
100
AcDbEntity
  8
_0
  6
Continuous
 62
     7
370
    30
100
AcDbLine
 10
32.368854
 20
-6.630031
 30
0.0
 11
32.368854
 21
-5.067531
 31
0.0
  0
LINE
  5
A6
330
363
100
AcDbEntity
  8
_0
  6
Continuous
 62
     7
370
    40
100
AcDbLine
 10
29.948771
 20
-6.381448
 30
0.0
 11
30.633479
 21
-5.406656
 31
0.0
  0
LINE
  5
A7
330
363
100
AcDbEntity
  8
_0
  6
Continuous
 62
     7
370
    40
100
AcDbLine
 10
30.633479
 20
-5.406656
 30
0.0
 11
32.142625
 21
-5.406656
 31
0.0
  0
LINE
  5
AD
330
363
100
AcDbEntity
  8
_0
  6
Continuous
 62
     7
370
    30
100
AcDbLine
 10
29.518833
 20
-3.989896
 30
0.0
 11
29.303073
 21
-3.989896
 31
0.0
  0
LINE
  5
AF
330
363
100
AcDbEntity
  8
_0
  6
Continuous
 62
     7
370
    30
100
AcDbLine
 10
29.189417
 20
-4.110479
 30
0.0
 11
29.206229
 21
-4.1535
 31
0.0
  0
LINE
  5
B0
330
363
100
AcDbEntity
  8
_0
  6
Continuous
 62
     7
370
    30
100
AcDbLine
 10
29.206229
 20
-4.1535
 30
0.0
 11
29.262156
 21
-4.016625
 31
0.0
  0
LINE
  5
B1
330
363
100
AcDbEntity
  8
_0
  6
Continuous
 62
     7
370
    30
100
AcDbLine
 10
29.262156
 20
-4.016625
 30
0.0
 11
29.565938
 21
-4.016625
 31
0.0
  0
LINE
  5
B2
330
363
100
AcDbEntity
  8
_0
  6
Continuous
 62
     7
370
    30
100
AcDbLine
 10
29.189417
 20
-4.110479
 30
0.0
 11
29.171958
 21
-4.117156
 31
0.0
  0
LINE
  5
B5
330
363
100
AcDbEntity
  8
_0
  6
Continuous
 62
     7
370
    30
100
AcDbLine
 10
28.634865
 20
-4.563365
 30
0.0
 11
28.634865
 21
-3.750865
 31
0.0
  0
LINE
  5
B6
330
363
100
AcDbEntity
  8
_0
  6
Continuous
 62
     7
370
    30
100
AcDbLine
 10
28.634865
 20
-6.820896
 30
0.0
 11
28.634865
 21
-5.970896
 31
0.0
  0
LINE
  5
B7
330
363
100
AcDbEntity
  8
_0
  6
Continuous
 62
     7
370
    30
100
AcDbLine
 10
28.594865
 20
-6.820896
 30
0.0
 11
28.594865
 21
-6.695896
 31
0.0
  0
LINE
  5
B8
330
363
100
AcDbEntity
  8
_0
  6
Continuous
 62
     7
370
    30
100
AcDbLine
 10
28.594865
 20
-4.563365
 30
0.0
 11
28.594865
 21
-3.790865
 31
0.0
  0
LINE
  5
B9
330
363
100
AcDbEntity
  8
DIM
  6
Continuous
 62
     7
370
    30
100
AcDbLine
 10
26.29574
 20
-4.563365
 30
0.0
 11
28.719885
 21
-4.563365
 31
0.0
  0
LINE
  5
BA
330
363
100
AcDbEntity
  8
_0
  6
Continuous
 62
     7
370
    30
100
AcDbLine
 10
26.544865
 20
-6.655896
 30
0.0
 11
26.669865
 21
-6.655896
 31
0.0
  0
LINE
  5
BB
330
363
100
AcDbEntity
  8
_0
  6
Continuous
 62
     7
370
    30
100
AcDbLine
 10
26.584865
 20
-6.695896
 30
0.0
 11
28.594865
 21
-6.695896
 31
0.0
  0
LINE
  5
BC
330
363
100
AcDbEntity
  8
_0
  6
Continuous
 62
     7
370
    30
100
AcDbLine
 10
28.594865
 20
-6.820896
 30
0.0
 11
28.634865
 21
-6.820896
 31
0.0
  0
LINE
  5
BD
330
363
100
AcDbEntity
  8
_0
  6
Continuous
 62
     7
370
    30
100
AcDbLine
 10
28.594865
 20
-6.655896
 30
0.0
 11
28.594865
 21
-6.495896
 31
0.0
  0
LINE
  5
BE
330
363
100
AcDbEntity
  8
_0
  6
Continuous
 62
     7
370
    30
100
AcDbLine
 10
28.594865
 20
-6.495896
 30
0.0
 11
28.634865
 21
-6.495896
 31
0.0
  0
LINE
  5
BF
330
363
100
AcDbEntity
  8
_0
  6
Continuous
 62
     7
370
    30
100
AcDbLine
 10
26.669865
 20
-6.655896
 30
0.0
 11
26.669865
 21
-5.730896
 31
0.0
  0
LINE
  5
C0
330
363
100
AcDbEntity
  8
_0
  6
Continuous
 62
     7
370
    30
100
AcDbLine
 10
26.709865
 20
-6.655896
 30
0.0
 11
26.709865
 21
-5.730896
 31
0.0
  0
LINE
  5
C1
330
363
100
AcDbEntity
  8
_0
  6
Continuous
 62
     7
370
    30
100
AcDbLine
 10
26.669865
 20
-4.563365
 30
0.0
 11
26.669865
 21
-3.790865
 31
0.0
  0
LINE
  5
C2
330
363
100
AcDbEntity
  8
_0
  6
Continuous
 62
     7
370
    30
100
AcDbLine
 10
26.709865
 20
-4.563365
 30
0.0
 11
26.709865
 21
-3.790865
 31
0.0
  0
LINE
  5
C3
330
363
100
AcDbEntity
  8
_0
  6
Continuous
 62
     7
370
    30
100
AcDbLine
 10
26.584865
 20
-6.968396
 30
0.0
 11
26.584865
 21
-6.695896
 31
0.0
  0
LINE
  5
C4
330
363
100
AcDbEntity
  8
_0
  6
Continuous
 62
     7
370
    30
100
AcDbLine
 10
26.584865
 20
-3.666865
 30
0.0
 11
26.584865
 21
-3.363365
 31
0.0
  0
LINE
  5
C5
330
363
100
AcDbEntity
  8
_0
  6
Continuous
 62
     7
370
    30
100
AcDbLine
 10
26.544865
 20
-4.563365
 30
0.0
 11
26.544865
 21
-3.363365
 31
0.0
  0
LINE
  5
C6
330
363
100
AcDbEntity
  8
_0
  6
Continuous
 62
     7
370
    30
100
AcDbLine
 10
28.134865
 20
-5.970896
 30
0.0
 11
28.634865
 21
-5.970896
 31
0.0
  0
LINE
  5
C7
330
363
100
AcDbEntity
  8
_0
  6
Continuous
 62
     7
370
    30
100
AcDbLine
 10
26.668865
 20
-3.750865
 30
0.0
 11
28.634865
 21
-3.750865
 31
0.0
  0
ARC
  5
C8
330
363
100
AcDbEntity
  8
_0
  6
Continuous
 62
     7
370
    30
100
AcDbCircle
 10
26.66886
 20
-3.666867
 30
0.0
 40
0.124
100
AcDbArc
 50
180.0
 51
270.0
  0
LINE
  5
C9
330
363
100
AcDbEntity
  8
_0
  6
Continuous
 62
     7
370
    30
100
AcDbLine
 10
26.668865
 20
-3.790865
 30
0.0
 11
28.594865
 21
-3.790865
 31
0.0
  0
ARC
  5
CA
330
363
100
AcDbEntity
  8
_0
  6
Continuous
 62
     7
370
    30
100
AcDbCircle
 10
26.66886
 20
-3.666867
 30
0.0
 40
0.084
100
AcDbArc
 50
180.0
 51
270.0
  0
LINE
  5
CB
330
363
100
AcDbEntity
  8
_0
  6
Continuous
 62
     7
370
    30
100
AcDbLine
 10
26.544865
 20
-3.363365
 30
0.0
 11
26.584865
 21
-3.363365
 31
0.0
  0
LINE
  5
D0
330
363
100
AcDbEntity
  8
DIM
  6
Continuous
 62
     7
370
    13
100
AcDbLine
 10
26.575156
 20
-3.790865
 30
0.0
 11
26.299198
 21
-3.790865
 31
0.0
  0
LINE
  5
D3
330
363
100
AcDbEntity
  8
_0
  6
Continuous
 62
     7
370
    30
100
AcDbLine
 10
26.544865
 20
-6.968396
 30
0.0
 11
26.584865
 21
-6.968396
 31
0.0
  0
LINE
  5
D4
330
363
100
AcDbEntity
  8
_0
  6
Continuous
 62
     7
370
    30
100
AcDbLine
 10
26.709865
 20
-6.655896
 30
0.0
 11
28.594865
 21
-6.655896
 31
0.0
  0
LINE
  5
D5
330
363
100
AcDbEntity
  8
_0
  6
Continuous
 62
     7
370
    30
100
AcDbLine
 10
26.669865
 20
-5.730896
 30
0.0
 11
26.709865
 21
-5.730896
 31
0.0
  0
LINE
  5
D6
330
363
100
AcDbEntity
  8
_0
  6
Continuous
 62
     7
370
    30
100
AcDbLine
 10
26.544865
 20
-5.230896
 30
0.0
 11
26.894865
 21
-5.230896
 31
0.0
  0
LINE
  5
D7
330
363
100
AcDbEntity
  8
_0
  6
Continuous
 62
     7
370
    30
100
AcDbLine
 10
28.134865
 20
-5.970896
 30
0.0
 11
26.894865
 21
-5.230896
 31
0.0
  0
LINE
  5
D8
330
363
100
AcDbEntity
  8
_0
  6
Continuous
 62
     7
370
    30
100
AcDbLine
 10
26.669865
 20
-6.395896
 30
0.0
 11
25.766583
 21
-6.331656
 31
0.0
  0
LINE
  5
D9
330
363
100
AcDbEntity
  8
DIM
  6
Continuous
 62
     7
370
    13
100
AcDbLine
 10
26.759865
 20
-5.730896
 30
0.0
 11
27.621021
 21
-5.730896
 31
0.0
  0
LINE
  5
DB
330
363
100
AcDbEntity
  8
DIM
  6
Continuous
 62
     7
370
    13
100
AcDbLine
 10
28.544865
 20
-6.495896
 30
0.0
 11
27.521021
 21
-6.495896
 31
0.0
  0
LINE
  5
DD
330
363
100
AcDbEntity
  8
DIM
  6
Continuous
 62
     7
370
    13
100
AcDbLine
 10
28.74974
 20
-6.495896
 30
0.0
 11
28.968125
 21
-6.495896
 31
0.0
  0
LINE
  5
DE
330
363
100
AcDbEntity
  8
DIM
  6
Continuous
 62
     7
370
    13
100
AcDbLine
 10
28.684865
 20
-5.970896
 30
0.0
 11
28.968125
 21
-5.970896
 31
0.0
  0
LINE
  5
E1
330
363
100
AcDbEntity
  8
DIM
  6
Continuous
 62
     7
370
    13
100
AcDbLine
 10
26.619865
 20
-5.730896
 30
0.0
 11
26.188448
 21
-5.730896
 31
0.0
  0
LINE
  5
E2
330
363
100
AcDbEntity
  8
DIM
  6
Continuous
 62
     7
370
    13
100
AcDbLine
 10
26.494865
 20
-5.230896
 30
0.0
 11
26.188448
 21
-5.230896
 31
0.0
  0
LINE
  5
EB
330
363
100
AcDbEntity
  8
2-35S
  6
Continuous
 62
     7
370
    30
100
AcDbLine
 10
25.625
 20
-7.892854
 30
0.0
 11
32.875
 21
-7.892854
 31
0.0
  0
LINE
  5
EC
330
363
100
AcDbEntity
  8
_0
  6
Continuous
 62
     7
370
    30
100
AcDbLine
 10
26.544865
 20
-6.968396
 30
0.0
 11
26.544865
 21
-5.230896
 31
0.0
  0
POINT
  5
ED
330
363
100
AcDbEntity
  8
DIM
  6
Continuous
 62
     7
370
    30
100
AcDbPoint
 10
26.675
 20
-6.350594
 30
0.0
  0
POINT
  5
EE
330
363
100
AcDbEntity
  8
DIM
  6
Continuous
 62
     7
370
    30
100
AcDbPoint
 10
26.69375
 20
-6.350594
 30
0.0
  0
POINT
  5
EF
330
363
100
AcDbEntity
  8
DIM
  6
Continuous
 62
     7
370
    30
100
AcDbPoint
 10
26.684375
 20
-6.331844
 30
0.0
  0
POINT
  5
F0
330
363
100
AcDbEntity
  8
DIM
  6
Continuous
 62
     7
370
    30
100
AcDbPoint
 10
26.703125
 20
-6.331844
 30
0.0
  0
POINT
  5
F1
330
363
100
AcDbEntity
  8
DIM
  6
Continuous
 62
     7
370
    30
100
AcDbPoint
 10
26.675
 20
-6.313094
 30
0.0
  0
POINT
  5
F2
330
363
100
AcDbEntity
  8
DIM
  6
Continuous
 62
     7
370
    30
100
AcDbPoint
 10
26.69375
 20
-6.313094
 30
0.0
  0
POINT
  5
F3
330
363
100
AcDbEntity
  8
DIM
  6
Continuous
 62
     7
370
    30
100
AcDbPoint
 10
26.684375
 20
-6.294344
 30
0.0
  0
POINT
  5
F4
330
363
100
AcDbEntity
  8
DIM
  6
Continuous
 62
     7
370
    30
100
AcDbPoint
 10
26.703125
 20
-6.294344
 30
0.0
  0
POINT
  5
F5
330
363
100
AcDbEntity
  8
DIM
  6
Continuous
 62
     7
370
    30
100
AcDbPoint
 10
26.675
 20
-6.275594
 30
0.0
  0
POINT
  5
F6
330
363
100
AcDbEntity
  8
DIM
  6
Continuous
 62
     7
370
    30
100
AcDbPoint
 10
26.69375
 20
-6.275594
 30
0.0
  0
POINT
  5
F7
330
363
100
AcDbEntity
  8
DIM
  6
Continuous
 62
     7
370
    30
100
AcDbPoint
 10
26.684375
 20
-6.256844
 30
0.0
  0
POINT
  5
F8
330
363
100
AcDbEntity
  8
DIM
  6
Continuous
 62
     7
370
    30
100
AcDbPoint
 10
26.703125
 20
-6.256844
 30
0.0
  0
POINT
  5
F9
330
363
100
AcDbEntity
  8
DIM
  6
Continuous
 62
     7
370
    30
100
AcDbPoint
 10
26.675
 20
-6.238094
 30
0.0
  0
POINT
  5
FA
330
363
100
AcDbEntity
  8
DIM
  6
Continuous
 62
     7
370
    30
100
AcDbPoint
 10
26.69375
 20
-6.238094
 30
0.0
  0
POINT
  5
FB
330
363
100
AcDbEntity
  8
DIM
  6
Continuous
 62
     7
370
    30
100
AcDbPoint
 10
26.684375
 20
-6.219344
 30
0.0
  0
POINT
  5
FC
330
363
100
AcDbEntity
  8
DIM
  6
Continuous
 62
     7
370
    30
100
AcDbPoint
 10
26.703125
 20
-6.219344
 30
0.0
  0
POINT
  5
FD
330
363
100
AcDbEntity
  8
DIM
  6
Continuous
 62
     7
370
    30
100
AcDbPoint
 10
26.675
 20
-6.200594
 30
0.0
  0
POINT
  5
FE
330
363
100
AcDbEntity
  8
DIM
  6
Continuous
 62
     7
370
    30
100
AcDbPoint
 10
26.69375
 20
-6.200594
 30
0.0
  0
POINT
  5
FF
330
363
100
AcDbEntity
  8
DIM
  6
Continuous
 62
     7
370
    30
100
AcDbPoint
 10
26.684375
 20
-6.181844
 30
0.0
  0
POINT
  5
100
330
363
100
AcDbEntity
  8
DIM
  6
Continuous
 62
     7
370
    30
100
AcDbPoint
 10
26.703125
 20
-6.181844
 30
0.0
  0
POINT
  5
101
330
363
100
AcDbEntity
  8
DIM
  6
Continuous
 62
     7
370
    30
100
AcDbPoint
 10
26.675
 20
-6.163094
 30
0.0
  0
POINT
  5
102
330
363
100
AcDbEntity
  8
DIM
  6
Continuous
 62
     7
370
    30
100
AcDbPoint
 10
26.69375
 20
-6.163094
 30
0.0
  0
POINT
  5
103
330
363
100
AcDbEntity
  8
DIM
  6
Continuous
 62
     7
370
    30
100
AcDbPoint
 10
26.684375
 20
-6.144344
 30
0.0
  0
POINT
  5
104
330
363
100
AcDbEntity
  8
DIM
  6
Continuous
 62
     7
370
    30
100
AcDbPoint
 10
26.703125
 20
-6.144344
 30
0.0
  0
POINT
  5
105
330
363
100
AcDbEntity
  8
DIM
  6
Continuous
 62
     7
370
    30
100
AcDbPoint
 10
26.675
 20
-6.125594
 30
0.0
  0
POINT
  5
106
330
363
100
AcDbEntity
  8
DIM
  6
Continuous
 62
     7
370
    30
100
AcDbPoint
 10
26.69375
 20
-6.125594
 30
0.0
  0
POINT
  5
107
330
363
100
AcDbEntity
  8
DIM
  6
Continuous
 62
     7
370
    30
100
AcDbPoint
 10
26.684375
 20
-6.106844
 30
0.0
  0
POINT
  5
108
330
363
100
AcDbEntity
  8
DIM
  6
Continuous
 62
     7
370
    30
100
AcDbPoint
 10
26.703125
 20
-6.106844
 30
0.0
  0
POINT
  5
109
330
363
100
AcDbEntity
  8
DIM
  6
Continuous
 62
     7
370
    30
100
AcDbPoint
 10
26.675
 20
-6.088094
 30
0.0
  0
POINT
  5
10A
330
363
100
AcDbEntity
  8
DIM
  6
Continuous
 62
     7
370
    30
100
AcDbPoint
 10
26.69375
 20
-6.088094
 30
0.0
  0
POINT
  5
10B
330
363
100
AcDbEntity
  8
DIM
  6
Continuous
 62
     7
370
    30
100
AcDbPoint
 10
26.684375
 20
-6.069344
 30
0.0
  0
POINT
  5
10C
330
363
100
AcDbEntity
  8
DIM
  6
Continuous
 62
     7
370
    30
100
AcDbPoint
 10
26.703125
 20
-6.069344
 30
0.0
  0
POINT
  5
10D
330
363
100
AcDbEntity
  8
DIM
  6
Continuous
 62
     7
370
    30
100
AcDbPoint
 10
26.675
 20
-6.050594
 30
0.0
  0
POINT
  5
10E
330
363
100
AcDbEntity
  8
DIM
  6
Continuous
 62
     7
370
    30
100
AcDbPoint
 10
26.69375
 20
-6.050594
 30
0.0
  0
POINT
  5
10F
330
363
100
AcDbEntity
  8
DIM
  6
Continuous
 62
     7
370
    30
100
AcDbPoint
 10
26.684375
 20
-6.031844
 30
0.0
  0
POINT
  5
110
330
363
100
AcDbEntity
  8
DIM
  6
Continuous
 62
     7
370
    30
100
AcDbPoint
 10
26.703125
 20
-6.031844
 30
0.0
  0
POINT
  5
111
330
363
100
AcDbEntity
  8
DIM
  6
Continuous
 62
     7
370
    30
100
AcDbPoint
 10
26.675
 20
-6.013094
 30
0.0
  0
POINT
  5
112
330
363
100
AcDbEntity
  8
DIM
  6
Continuous
 62
     7
370
    30
100
AcDbPoint
 10
26.69375
 20
-6.013094
 30
0.0
  0
POINT
  5
113
330
363
100
AcDbEntity
  8
DIM
  6
Continuous
 62
     7
370
    30
100
AcDbPoint
 10
26.684375
 20
-5.994344
 30
0.0
  0
POINT
  5
114
330
363
100
AcDbEntity
  8
DIM
  6
Continuous
 62
     7
370
    30
100
AcDbPoint
 10
26.703125
 20
-5.994344
 30
0.0
  0
POINT
  5
115
330
363
100
AcDbEntity
  8
DIM
  6
Continuous
 62
     7
370
    30
100
AcDbPoint
 10
26.675
 20
-5.975594
 30
0.0
  0
POINT
  5
116
330
363
100
AcDbEntity
  8
DIM
  6
Continuous
 62
     7
370
    30
100
AcDbPoint
 10
26.69375
 20
-5.975594
 30
0.0
  0
POINT
  5
117
330
363
100
AcDbEntity
  8
DIM
  6
Continuous
 62
     7
370
    30
100
AcDbPoint
 10
26.684375
 20
-5.956844
 30
0.0
  0
POINT
  5
118
330
363
100
AcDbEntity
  8
DIM
  6
Continuous
 62
     7
370
    30
100
AcDbPoint
 10
26.703125
 20
-5.956844
 30
0.0
  0
POINT
  5
119
330
363
100
AcDbEntity
  8
DIM
  6
Continuous
 62
     7
370
    30
100
AcDbPoint
 10
26.675
 20
-5.938094
 30
0.0
  0
POINT
  5
11A
330
363
100
AcDbEntity
  8
DIM
  6
Continuous
 62
     7
370
    30
100
AcDbPoint
 10
26.69375
 20
-5.938094
 30
0.0
  0
POINT
  5
11B
330
363
100
AcDbEntity
  8
DIM
  6
Continuous
 62
     7
370
    30
100
AcDbPoint
 10
26.684375
 20
-5.919344
 30
0.0
  0
POINT
  5
11C
330
363
100
AcDbEntity
  8
DIM
  6
Continuous
 62
     7
370
    30
100
AcDbPoint
 10
26.703125
 20
-5.919344
 30
0.0
  0
POINT
  5
11D
330
363
100
AcDbEntity
  8
DIM
  6
Continuous
 62
     7
370
    30
100
AcDbPoint
 10
26.675
 20
-5.900594
 30
0.0
  0
POINT
  5
11E
330
363
100
AcDbEntity
  8
DIM
  6
Continuous
 62
     7
370
    30
100
AcDbPoint
 10
26.69375
 20
-5.900594
 30
0.0
  0
POINT
  5
11F
330
363
100
AcDbEntity
  8
DIM
  6
Continuous
 62
     7
370
    30
100
AcDbPoint
 10
26.684375
 20
-5.881844
 30
0.0
  0
POINT
  5
120
330
363
100
AcDbEntity
  8
DIM
  6
Continuous
 62
     7
370
    30
100
AcDbPoint
 10
26.703125
 20
-5.881844
 30
0.0
  0
POINT
  5
121
330
363
100
AcDbEntity
  8
DIM
  6
Continuous
 62
     7
370
    30
100
AcDbPoint
 10
26.675
 20
-5.863094
 30
0.0
  0
POINT
  5
122
330
363
100
AcDbEntity
  8
DIM
  6
Continuous
 62
     7
370
    30
100
AcDbPoint
 10
26.69375
 20
-5.863094
 30
0.0
  0
POINT
  5
123
330
363
100
AcDbEntity
  8
DIM
  6
Continuous
 62
     7
370
    30
100
AcDbPoint
 10
26.684375
 20
-5.844344
 30
0.0
  0
POINT
  5
124
330
363
100
AcDbEntity
  8
DIM
  6
Continuous
 62
     7
370
    30
100
AcDbPoint
 10
26.703125
 20
-5.844344
 30
0.0
  0
POINT
  5
125
330
363
100
AcDbEntity
  8
DIM
  6
Continuous
 62
     7
370
    30
100
AcDbPoint
 10
26.675
 20
-5.825594
 30
0.0
  0
POINT
  5
126
330
363
100
AcDbEntity
  8
DIM
  6
Continuous
 62
     7
370
    30
100
AcDbPoint
 10
26.69375
 20
-5.825594
 30
0.0
  0
POINT
  5
127
330
363
100
AcDbEntity
  8
DIM
  6
Continuous
 62
     7
370
    30
100
AcDbPoint
 10
26.684375
 20
-5.806844
 30
0.0
  0
POINT
  5
128
330
363
100
AcDbEntity
  8
DIM
  6
Continuous
 62
     7
370
    30
100
AcDbPoint
 10
26.703125
 20
-5.806844
 30
0.0
  0
POINT
  5
129
330
363
100
AcDbEntity
  8
DIM
  6
Continuous
 62
     7
370
    30
100
AcDbPoint
 10
26.675
 20
-5.788094
 30
0.0
  0
POINT
  5
12A
330
363
100
AcDbEntity
  8
DIM
  6
Continuous
 62
     7
370
    30
100
AcDbPoint
 10
26.69375
 20
-5.788094
 30
0.0
  0
POINT
  5
12B
330
363
100
AcDbEntity
  8
DIM
  6
Continuous
 62
     7
370
    30
100
AcDbPoint
 10
26.684375
 20
-5.769344
 30
0.0
  0
POINT
  5
12C
330
363
100
AcDbEntity
  8
DIM
  6
Continuous
 62
     7
370
    30
100
AcDbPoint
 10
26.703125
 20
-5.769344
 30
0.0
  0
POINT
  5
12D
330
363
100
AcDbEntity
  8
DIM
  6
Continuous
 62
     7
370
    30
100
AcDbPoint
 10
26.675
 20
-5.750594
 30
0.0
  0
POINT
  5
12E
330
363
100
AcDbEntity
  8
DIM
  6
Continuous
 62
     7
370
    30
100
AcDbPoint
 10
26.69375
 20
-5.750594
 30
0.0
  0
POINT
  5
12F
330
363
100
AcDbEntity
  8
DIM
  6
Continuous
 62
     7
370
    30
100
AcDbPoint
 10
26.684375
 20
-5.731844
 30
0.0
  0
POINT
  5
130
330
363
100
AcDbEntity
  8
DIM
  6
Continuous
 62
     7
370
    30
100
AcDbPoint
 10
26.703125
 20
-5.731844
 30
0.0
  0
POINT
  5
131
330
363
100
AcDbEntity
  8
DIM
  6
Continuous
 62
     7
370
    30
100
AcDbPoint
 10
26.684375
 20
-6.369344
 30
0.0
  0
POINT
  5
132
330
363
100
AcDbEntity
  8
DIM
  6
Continuous
 62
     7
370
    30
100
AcDbPoint
 10
26.703125
 20
-6.369344
 30
0.0
  0
POINT
  5
133
330
363
100
AcDbEntity
  8
DIM
  6
Continuous
 62
     7
370
    30
100
AcDbPoint
 10
26.675
 20
-6.388094
 30
0.0
  0
POINT
  5
134
330
363
100
AcDbEntity
  8
DIM
  6
Continuous
 62
     7
370
    30
100
AcDbPoint
 10
26.69375
 20
-6.388094
 30
0.0
  0
POINT
  5
135
330
363
100
AcDbEntity
  8
DIM
  6
Continuous
 62
     7
370
    30
100
AcDbPoint
 10
26.684375
 20
-6.406844
 30
0.0
  0
POINT
  5
136
330
363
100
AcDbEntity
  8
DIM
  6
Continuous
 62
     7
370
    30
100
AcDbPoint
 10
26.703125
 20
-6.406844
 30
0.0
  0
POINT
  5
137
330
363
100
AcDbEntity
  8
DIM
  6
Continuous
 62
     7
370
    30
100
AcDbPoint
 10
26.675
 20
-6.425594
 30
0.0
  0
POINT
  5
138
330
363
100
AcDbEntity
  8
DIM
  6
Continuous
 62
     7
370
    30
100
AcDbPoint
 10
26.69375
 20
-6.425594
 30
0.0
  0
POINT
  5
139
330
363
100
AcDbEntity
  8
DIM
  6
Continuous
 62
     7
370
    30
100
AcDbPoint
 10
26.684375
 20
-6.444344
 30
0.0
  0
POINT
  5
13A
330
363
100
AcDbEntity
  8
DIM
  6
Continuous
 62
     7
370
    30
100
AcDbPoint
 10
26.703125
 20
-6.444344
 30
0.0
  0
POINT
  5
13B
330
363
100
AcDbEntity
  8
DIM
  6
Continuous
 62
     7
370
    30
100
AcDbPoint
 10
26.675
 20
-6.463094
 30
0.0
  0
POINT
  5
13C
330
363
100
AcDbEntity
  8
DIM
  6
Continuous
 62
     7
370
    30
100
AcDbPoint
 10
26.69375
 20
-6.463094
 30
0.0
  0
POINT
  5
13D
330
363
100
AcDbEntity
  8
DIM
  6
Continuous
 62
     7
370
    30
100
AcDbPoint
 10
26.684375
 20
-6.481844
 30
0.0
  0
POINT
  5
13E
330
363
100
AcDbEntity
  8
DIM
  6
Continuous
 62
     7
370
    30
100
AcDbPoint
 10
26.703125
 20
-6.481844
 30
0.0
  0
POINT
  5
13F
330
363
100
AcDbEntity
  8
DIM
  6
Continuous
 62
     7
370
    30
100
AcDbPoint
 10
26.675
 20
-6.500594
 30
0.0
  0
POINT
  5
140
330
363
100
AcDbEntity
  8
DIM
  6
Continuous
 62
     7
370
    30
100
AcDbPoint
 10
26.69375
 20
-6.500594
 30
0.0
  0
POINT
  5
141
330
363
100
AcDbEntity
  8
DIM
  6
Continuous
 62
     7
370
    30
100
AcDbPoint
 10
28.60625
 20
-6.500594
 30
0.0
  0
POINT
  5
142
330
363
100
AcDbEntity
  8
DIM
  6
Continuous
 62
     7
370
    30
100
AcDbPoint
 10
28.625
 20
-6.500594
 30
0.0
  0
POINT
  5
143
330
363
100
AcDbEntity
  8
DIM
  6
Continuous
 62
     7
370
    30
100
AcDbPoint
 10
26.684375
 20
-6.519344
 30
0.0
  0
POINT
  5
144
330
363
100
AcDbEntity
  8
DIM
  6
Continuous
 62
     7
370
    30
100
AcDbPoint
 10
26.703125
 20
-6.519344
 30
0.0
  0
POINT
  5
145
330
363
100
AcDbEntity
  8
DIM
  6
Continuous
 62
     7
370
    30
100
AcDbPoint
 10
28.596875
 20
-6.519344
 30
0.0
  0
POINT
  5
146
330
363
100
AcDbEntity
  8
DIM
  6
Continuous
 62
     7
370
    30
100
AcDbPoint
 10
28.615625
 20
-6.519344
 30
0.0
  0
POINT
  5
147
330
363
100
AcDbEntity
  8
DIM
  6
Continuous
 62
     7
370
    30
100
AcDbPoint
 10
28.634375
 20
-6.519344
 30
0.0
  0
POINT
  5
148
330
363
100
AcDbEntity
  8
DIM
  6
Continuous
 62
     7
370
    30
100
AcDbPoint
 10
26.675
 20
-6.538094
 30
0.0
  0
POINT
  5
149
330
363
100
AcDbEntity
  8
DIM
  6
Continuous
 62
     7
370
    30
100
AcDbPoint
 10
26.69375
 20
-6.538094
 30
0.0
  0
POINT
  5
14A
330
363
100
AcDbEntity
  8
DIM
  6
Continuous
 62
     7
370
    30
100
AcDbPoint
 10
28.60625
 20
-6.538094
 30
0.0
  0
POINT
  5
14B
330
363
100
AcDbEntity
  8
DIM
  6
Continuous
 62
     7
370
    30
100
AcDbPoint
 10
28.625
 20
-6.538094
 30
0.0
  0
POINT
  5
14C
330
363
100
AcDbEntity
  8
DIM
  6
Continuous
 62
     7
370
    30
100
AcDbPoint
 10
26.684375
 20
-6.556844
 30
0.0
  0
POINT
  5
14D
330
363
100
AcDbEntity
  8
DIM
  6
Continuous
 62
     7
370
    30
100
AcDbPoint
 10
26.703125
 20
-6.556844
 30
0.0
  0
POINT
  5
14E
330
363
100
AcDbEntity
  8
DIM
  6
Continuous
 62
     7
370
    30
100
AcDbPoint
 10
28.596875
 20
-6.556844
 30
0.0
  0
POINT
  5
14F
330
363
100
AcDbEntity
  8
DIM
  6
Continuous
 62
     7
370
    30
100
AcDbPoint
 10
28.615625
 20
-6.556844
 30
0.0
  0
POINT
  5
150
330
363
100
AcDbEntity
  8
DIM
  6
Continuous
 62
     7
370
    30
100
AcDbPoint
 10
28.634375
 20
-6.556844
 30
0.0
  0
POINT
  5
151
330
363
100
AcDbEntity
  8
DIM
  6
Continuous
 62
     7
370
    30
100
AcDbPoint
 10
26.675
 20
-6.575594
 30
0.0
  0
POINT
  5
152
330
363
100
AcDbEntity
  8
DIM
  6
Continuous
 62
     7
370
    30
100
AcDbPoint
 10
26.69375
 20
-6.575594
 30
0.0
  0
POINT
  5
153
330
363
100
AcDbEntity
  8
DIM
  6
Continuous
 62
     7
370
    30
100
AcDbPoint
 10
28.60625
 20
-6.575594
 30
0.0
  0
POINT
  5
154
330
363
100
AcDbEntity
  8
DIM
  6
Continuous
 62
     7
370
    30
100
AcDbPoint
 10
28.625
 20
-6.575594
 30
0.0
  0
POINT
  5
155
330
363
100
AcDbEntity
  8
DIM
  6
Continuous
 62
     7
370
    30
100
AcDbPoint
 10
26.684375
 20
-6.594344
 30
0.0
  0
POINT
  5
156
330
363
100
AcDbEntity
  8
DIM
  6
Continuous
 62
     7
370
    30
100
AcDbPoint
 10
26.703125
 20
-6.594344
 30
0.0
  0
POINT
  5
157
330
363
100
AcDbEntity
  8
DIM
  6
Continuous
 62
     7
370
    30
100
AcDbPoint
 10
28.596875
 20
-6.594344
 30
0.0
  0
POINT
  5
158
330
363
100
AcDbEntity
  8
DIM
  6
Continuous
 62
     7
370
    30
100
AcDbPoint
 10
28.615625
 20
-6.594344
 30
0.0
  0
POINT
  5
159
330
363
100
AcDbEntity
  8
DIM
  6
Continuous
 62
     7
370
    30
100
AcDbPoint
 10
28.634375
 20
-6.594344
 30
0.0
  0
POINT
  5
15A
330
363
100
AcDbEntity
  8
DIM
  6
Continuous
 62
     7
370
    30
100
AcDbPoint
 10
26.675
 20
-6.613094
 30
0.0
  0
POINT
  5
15B
330
363
100
AcDbEntity
  8
DIM
  6
Continuous
 62
     7
370
    30
100
AcDbPoint
 10
26.69375
 20
-6.613094
 30
0.0
  0
POINT
  5
15C
330
363
100
AcDbEntity
  8
DIM
  6
Continuous
 62
     7
370
    30
100
AcDbPoint
 10
28.60625
 20
-6.613094
 30
0.0
  0
POINT
  5
15D
330
363
100
AcDbEntity
  8
DIM
  6
Continuous
 62
     7
370
    30
100
AcDbPoint
 10
28.625
 20
-6.613094
 30
0.0
  0
POINT
  5
15E
330
363
100
AcDbEntity
  8
DIM
  6
Continuous
 62
     7
370
    30
100
AcDbPoint
 10
26.684375
 20
-6.631844
 30
0.0
  0
POINT
  5
15F
330
363
100
AcDbEntity
  8
DIM
  6
Continuous
 62
     7
370
    30
100
AcDbPoint
 10
26.703125
 20
-6.631844
 30
0.0
  0
POINT
  5
160
330
363
100
AcDbEntity
  8
DIM
  6
Continuous
 62
     7
370
    30
100
AcDbPoint
 10
28.596875
 20
-6.631844
 30
0.0
  0
POINT
  5
161
330
363
100
AcDbEntity
  8
DIM
  6
Continuous
 62
     7
370
    30
100
AcDbPoint
 10
28.615625
 20
-6.631844
 30
0.0
  0
POINT
  5
162
330
363
100
AcDbEntity
  8
DIM
  6
Continuous
 62
     7
370
    30
100
AcDbPoint
 10
28.634375
 20
-6.631844
 30
0.0
  0
POINT
  5
163
330
363
100
AcDbEntity
  8
DIM
  6
Continuous
 62
     7
370
    30
100
AcDbPoint
 10
26.675
 20
-6.650594
 30
0.0
  0
POINT
  5
164
330
363
100
AcDbEntity
  8
DIM
  6
Continuous
 62
     7
370
    30
100
AcDbPoint
 10
26.69375
 20
-6.650594
 30
0.0
  0
POINT
  5
165
330
363
100
AcDbEntity
  8
DIM
  6
Continuous
 62
     7
370
    30
100
AcDbPoint
 10
28.60625
 20
-6.650594
 30
0.0
  0
POINT
  5
166
330
363
100
AcDbEntity
  8
DIM
  6
Continuous
 62
     7
370
    30
100
AcDbPoint
 10
28.625
 20
-6.650594
 30
0.0
  0
POINT
  5
167
330
363
100
AcDbEntity
  8
DIM
  6
Continuous
 62
     7
370
    30
100
AcDbPoint
 10
26.553125
 20
-6.669344
 30
0.0
  0
POINT
  5
168
330
363
100
AcDbEntity
  8
DIM
  6
Continuous
 62
     7
370
    30
100
AcDbPoint
 10
26.571875
 20
-6.669344
 30
0.0
  0
POINT
  5
169
330
363
100
AcDbEntity
  8
DIM
  6
Continuous
 62
     7
370
    30
100
AcDbPoint
 10
26.590625
 20
-6.669344
 30
0.0
  0
POINT
  5
16A
330
363
100
AcDbEntity
  8
DIM
  6
Continuous
 62
     7
370
    30
100
AcDbPoint
 10
26.609375
 20
-6.669344
 30
0.0
  0
POINT
  5
16B
330
363
100
AcDbEntity
  8
DIM
  6
Continuous
 62
     7
370
    30
100
AcDbPoint
 10
26.628125
 20
-6.669344
 30
0.0
  0
POINT
  5
16C
330
363
100
AcDbEntity
  8
DIM
  6
Continuous
 62
     7
370
    30
100
AcDbPoint
 10
26.646875
 20
-6.669344
 30
0.0
  0
POINT
  5
16D
330
363
100
AcDbEntity
  8
DIM
  6
Continuous
 62
     7
370
    30
100
AcDbPoint
 10
26.665625
 20
-6.669344
 30
0.0
  0
POINT
  5
16E
330
363
100
AcDbEntity
  8
DIM
  6
Continuous
 62
     7
370
    30
100
AcDbPoint
 10
26.684375
 20
-6.669344
 30
0.0
  0
POINT
  5
16F
330
363
100
AcDbEntity
  8
DIM
  6
Continuous
 62
     7
370
    30
100
AcDbPoint
 10
26.703125
 20
-6.669344
 30
0.0
  0
POINT
  5
170
330
363
100
AcDbEntity
  8
DIM
  6
Continuous
 62
     7
370
    30
100
AcDbPoint
 10
26.721875
 20
-6.669344
 30
0.0
  0
POINT
  5
171
330
363
100
AcDbEntity
  8
DIM
  6
Continuous
 62
     7
370
    30
100
AcDbPoint
 10
26.740625
 20
-6.669344
 30
0.0
  0
POINT
  5
172
330
363
100
AcDbEntity
  8
DIM
  6
Continuous
 62
     7
370
    30
100
AcDbPoint
 10
26.759375
 20
-6.669344
 30
0.0
  0
POINT
  5
173
330
363
100
AcDbEntity
  8
DIM
  6
Continuous
 62
     7
370
    30
100
AcDbPoint
 10
26.778125
 20
-6.669344
 30
0.0
  0
POINT
  5
174
330
363
100
AcDbEntity
  8
DIM
  6
Continuous
 62
     7
370
    30
100
AcDbPoint
 10
26.796875
 20
-6.669344
 30
0.0
  0
POINT
  5
175
330
363
100
AcDbEntity
  8
DIM
  6
Continuous
 62
     7
370
    30
100
AcDbPoint
 10
26.815625
 20
-6.669344
 30
0.0
  0
POINT
  5
176
330
363
100
AcDbEntity
  8
DIM
  6
Continuous
 62
     7
370
    30
100
AcDbPoint
 10
26.834375
 20
-6.669344
 30
0.0
  0
POINT
  5
177
330
363
100
AcDbEntity
  8
DIM
  6
Continuous
 62
     7
370
    30
100
AcDbPoint
 10
26.853125
 20
-6.669344
 30
0.0
  0
POINT
  5
178
330
363
100
AcDbEntity
  8
DIM
  6
Continuous
 62
     7
370
    30
100
AcDbPoint
 10
26.871875
 20
-6.669344
 30
0.0
  0
POINT
  5
179
330
363
100
AcDbEntity
  8
DIM
  6
Continuous
 62
     7
370
    30
100
AcDbPoint
 10
26.890625
 20
-6.669344
 30
0.0
  0
POINT
  5
17A
330
363
100
AcDbEntity
  8
DIM
  6
Continuous
 62
     7
370
    30
100
AcDbPoint
 10
26.909375
 20
-6.669344
 30
0.0
  0
POINT
  5
17B
330
363
100
AcDbEntity
  8
DIM
  6
Continuous
 62
     7
370
    30
100
AcDbPoint
 10
26.928125
 20
-6.669344
 30
0.0
  0
POINT
  5
17C
330
363
100
AcDbEntity
  8
DIM
  6
Continuous
 62
     7
370
    30
100
AcDbPoint
 10
26.946875
 20
-6.669344
 30
0.0
  0
POINT
  5
17D
330
363
100
AcDbEntity
  8
DIM
  6
Continuous
 62
     7
370
    30
100
AcDbPoint
 10
26.965625
 20
-6.669344
 30
0.0
  0
POINT
  5
17E
330
363
100
AcDbEntity
  8
DIM
  6
Continuous
 62
     7
370
    30
100
AcDbPoint
 10
26.984375
 20
-6.669344
 30
0.0
  0
POINT
  5
17F
330
363
100
AcDbEntity
  8
DIM
  6
Continuous
 62
     7
370
    30
100
AcDbPoint
 10
27.003125
 20
-6.669344
 30
0.0
  0
POINT
  5
180
330
363
100
AcDbEntity
  8
DIM
  6
Continuous
 62
     7
370
    30
100
AcDbPoint
 10
27.021875
 20
-6.669344
 30
0.0
  0
POINT
  5
181
330
363
100
AcDbEntity
  8
DIM
  6
Continuous
 62
     7
370
    30
100
AcDbPoint
 10
27.040625
 20
-6.669344
 30
0.0
  0
POINT
  5
182
330
363
100
AcDbEntity
  8
DIM
  6
Continuous
 62
     7
370
    30
100
AcDbPoint
 10
27.059375
 20
-6.669344
 30
0.0
  0
POINT
  5
183
330
363
100
AcDbEntity
  8
DIM
  6
Continuous
 62
     7
370
    30
100
AcDbPoint
 10
27.078125
 20
-6.669344
 30
0.0
  0
POINT
  5
184
330
363
100
AcDbEntity
  8
DIM
  6
Continuous
 62
     7
370
    30
100
AcDbPoint
 10
27.096875
 20
-6.669344
 30
0.0
  0
POINT
  5
185
330
363
100
AcDbEntity
  8
DIM
  6
Continuous
 62
     7
370
    30
100
AcDbPoint
 10
27.115625
 20
-6.669344
 30
0.0
  0
POINT
  5
186
330
363
100
AcDbEntity
  8
DIM
  6
Continuous
 62
     7
370
    30
100
AcDbPoint
 10
27.134375
 20
-6.669344
 30
0.0
  0
POINT
  5
187
330
363
100
AcDbEntity
  8
DIM
  6
Continuous
 62
     7
370
    30
100
AcDbPoint
 10
27.153125
 20
-6.669344
 30
0.0
  0
POINT
  5
188
330
363
100
AcDbEntity
  8
DIM
  6
Continuous
 62
     7
370
    30
100
AcDbPoint
 10
27.171875
 20
-6.669344
 30
0.0
  0
POINT
  5
189
330
363
100
AcDbEntity
  8
DIM
  6
Continuous
 62
     7
370
    30
100
AcDbPoint
 10
27.190625
 20
-6.669344
 30
0.0
  0
POINT
  5
18A
330
363
100
AcDbEntity
  8
DIM
  6
Continuous
 62
     7
370
    30
100
AcDbPoint
 10
27.209375
 20
-6.669344
 30
0.0
  0
POINT
  5
18B
330
363
100
AcDbEntity
  8
DIM
  6
Continuous
 62
     7
370
    30
100
AcDbPoint
 10
27.228125
 20
-6.669344
 30
0.0
  0
POINT
  5
18C
330
363
100
AcDbEntity
  8
DIM
  6
Continuous
 62
     7
370
    30
100
AcDbPoint
 10
27.246875
 20
-6.669344
 30
0.0
  0
POINT
  5
18D
330
363
100
AcDbEntity
  8
DIM
  6
Continuous
 62
     7
370
    30
100
AcDbPoint
 10
27.265625
 20
-6.669344
 30
0.0
  0
POINT
  5
18E
330
363
100
AcDbEntity
  8
DIM
  6
Continuous
 62
     7
370
    30
100
AcDbPoint
 10
27.284375
 20
-6.669344
 30
0.0
  0
POINT
  5
18F
330
363
100
AcDbEntity
  8
DIM
  6
Continuous
 62
     7
370
    30
100
AcDbPoint
 10
27.303125
 20
-6.669344
 30
0.0
  0
POINT
  5
190
330
363
100
AcDbEntity
  8
DIM
  6
Continuous
 62
     7
370
    30
100
AcDbPoint
 10
27.321875
 20
-6.669344
 30
0.0
  0
POINT
  5
191
330
363
100
AcDbEntity
  8
DIM
  6
Continuous
 62
     7
370
    30
100
AcDbPoint
 10
27.340625
 20
-6.669344
 30
0.0
  0
POINT
  5
192
330
363
100
AcDbEntity
  8
DIM
  6
Continuous
 62
     7
370
    30
100
AcDbPoint
 10
27.359375
 20
-6.669344
 30
0.0
  0
POINT
  5
193
330
363
100
AcDbEntity
  8
DIM
  6
Continuous
 62
     7
370
    30
100
AcDbPoint
 10
27.378125
 20
-6.669344
 30
0.0
  0
POINT
  5
194
330
363
100
AcDbEntity
  8
DIM
  6
Continuous
 62
     7
370
    30
100
AcDbPoint
 10
27.396875
 20
-6.669344
 30
0.0
  0
POINT
  5
195
330
363
100
AcDbEntity
  8
DIM
  6
Continuous
 62
     7
370
    30
100
AcDbPoint
 10
27.415625
 20
-6.669344
 30
0.0
  0
POINT
  5
196
330
363
100
AcDbEntity
  8
DIM
  6
Continuous
 62
     7
370
    30
100
AcDbPoint
 10
27.434375
 20
-6.669344
 30
0.0
  0
POINT
  5
197
330
363
100
AcDbEntity
  8
DIM
  6
Continuous
 62
     7
370
    30
100
AcDbPoint
 10
27.453125
 20
-6.669344
 30
0.0
  0
POINT
  5
198
330
363
100
AcDbEntity
  8
DIM
  6
Continuous
 62
     7
370
    30
100
AcDbPoint
 10
27.471875
 20
-6.669344
 30
0.0
  0
POINT
  5
199
330
363
100
AcDbEntity
  8
DIM
  6
Continuous
 62
     7
370
    30
100
AcDbPoint
 10
27.490625
 20
-6.669344
 30
0.0
  0
POINT
  5
19A
330
363
100
AcDbEntity
  8
DIM
  6
Continuous
 62
     7
370
    30
100
AcDbPoint
 10
27.509375
 20
-6.669344
 30
0.0
  0
POINT
  5
19B
330
363
100
AcDbEntity
  8
DIM
  6
Continuous
 62
     7
370
    30
100
AcDbPoint
 10
27.528125
 20
-6.669344
 30
0.0
  0
POINT
  5
19C
330
363
100
AcDbEntity
  8
DIM
  6
Continuous
 62
     7
370
    30
100
AcDbPoint
 10
27.546875
 20
-6.669344
 30
0.0
  0
POINT
  5
19D
330
363
100
AcDbEntity
  8
DIM
  6
Continuous
 62
     7
370
    30
100
AcDbPoint
 10
27.565625
 20
-6.669344
 30
0.0
  0
POINT
  5
19E
330
363
100
AcDbEntity
  8
DIM
  6
Continuous
 62
     7
370
    30
100
AcDbPoint
 10
27.584375
 20
-6.669344
 30
0.0
  0
POINT
  5
19F
330
363
100
AcDbEntity
  8
DIM
  6
Continuous
 62
     7
370
    30
100
AcDbPoint
 10
27.603125
 20
-6.669344
 30
0.0
  0
POINT
  5
1A0
330
363
100
AcDbEntity
  8
DIM
  6
Continuous
 62
     7
370
    30
100
AcDbPoint
 10
27.621875
 20
-6.669344
 30
0.0
  0
POINT
  5
1A1
330
363
100
AcDbEntity
  8
DIM
  6
Continuous
 62
     7
370
    30
100
AcDbPoint
 10
27.640625
 20
-6.669344
 30
0.0
  0
POINT
  5
1A2
330
363
100
AcDbEntity
  8
DIM
  6
Continuous
 62
     7
370
    30
100
AcDbPoint
 10
27.659375
 20
-6.669344
 30
0.0
  0
POINT
  5
1A3
330
363
100
AcDbEntity
  8
DIM
  6
Continuous
 62
     7
370
    30
100
AcDbPoint
 10
27.678125
 20
-6.669344
 30
0.0
  0
POINT
  5
1A4
330
363
100
AcDbEntity
  8
DIM
  6
Continuous
 62
     7
370
    30
100
AcDbPoint
 10
27.696875
 20
-6.669344
 30
0.0
  0
POINT
  5
1A5
330
363
100
AcDbEntity
  8
DIM
  6
Continuous
 62
     7
370
    30
100
AcDbPoint
 10
27.715625
 20
-6.669344
 30
0.0
  0
POINT
  5
1A6
330
363
100
AcDbEntity
  8
DIM
  6
Continuous
 62
     7
370
    30
100
AcDbPoint
 10
27.734375
 20
-6.669344
 30
0.0
  0
POINT
  5
1A7
330
363
100
AcDbEntity
  8
DIM
  6
Continuous
 62
     7
370
    30
100
AcDbPoint
 10
27.753125
 20
-6.669344
 30
0.0
  0
POINT
  5
1A8
330
363
100
AcDbEntity
  8
DIM
  6
Continuous
 62
     7
370
    30
100
AcDbPoint
 10
27.771875
 20
-6.669344
 30
0.0
  0
POINT
  5
1A9
330
363
100
AcDbEntity
  8
DIM
  6
Continuous
 62
     7
370
    30
100
AcDbPoint
 10
27.790625
 20
-6.669344
 30
0.0
  0
POINT
  5
1AA
330
363
100
AcDbEntity
  8
DIM
  6
Continuous
 62
     7
370
    30
100
AcDbPoint
 10
27.809375
 20
-6.669344
 30
0.0
  0
POINT
  5
1AB
330
363
100
AcDbEntity
  8
DIM
  6
Continuous
 62
     7
370
    30
100
AcDbPoint
 10
27.828125
 20
-6.669344
 30
0.0
  0
POINT
  5
1AC
330
363
100
AcDbEntity
  8
DIM
  6
Continuous
 62
     7
370
    30
100
AcDbPoint
 10
27.846875
 20
-6.669344
 30
0.0
  0
POINT
  5
1AD
330
363
100
AcDbEntity
  8
DIM
  6
Continuous
 62
     7
370
    30
100
AcDbPoint
 10
27.865625
 20
-6.669344
 30
0.0
  0
POINT
  5
1AE
330
363
100
AcDbEntity
  8
DIM
  6
Continuous
 62
     7
370
    30
100
AcDbPoint
 10
27.884375
 20
-6.669344
 30
0.0
  0
POINT
  5
1AF
330
363
100
AcDbEntity
  8
DIM
  6
Continuous
 62
     7
370
    30
100
AcDbPoint
 10
27.903125
 20
-6.669344
 30
0.0
  0
POINT
  5
1B0
330
363
100
AcDbEntity
  8
DIM
  6
Continuous
 62
     7
370
    30
100
AcDbPoint
 10
27.921875
 20
-6.669344
 30
0.0
  0
POINT
  5
1B1
330
363
100
AcDbEntity
  8
DIM
  6
Continuous
 62
     7
370
    30
100
AcDbPoint
 10
27.940625
 20
-6.669344
 30
0.0
  0
POINT
  5
1B2
330
363
100
AcDbEntity
  8
DIM
  6
Continuous
 62
     7
370
    30
100
AcDbPoint
 10
27.959375
 20
-6.669344
 30
0.0
  0
POINT
  5
1B3
330
363
100
AcDbEntity
  8
DIM
  6
Continuous
 62
     7
370
    30
100
AcDbPoint
 10
27.978125
 20
-6.669344
 30
0.0
  0
POINT
  5
1B4
330
363
100
AcDbEntity
  8
DIM
  6
Continuous
 62
     7
370
    30
100
AcDbPoint
 10
27.996875
 20
-6.669344
 30
0.0
  0
POINT
  5
1B5
330
363
100
AcDbEntity
  8
DIM
  6
Continuous
 62
     7
370
    30
100
AcDbPoint
 10
28.015625
 20
-6.669344
 30
0.0
  0
POINT
  5
1B6
330
363
100
AcDbEntity
  8
DIM
  6
Continuous
 62
     7
370
    30
100
AcDbPoint
 10
28.034375
 20
-6.669344
 30
0.0
  0
POINT
  5
1B7
330
363
100
AcDbEntity
  8
DIM
  6
Continuous
 62
     7
370
    30
100
AcDbPoint
 10
28.053125
 20
-6.669344
 30
0.0
  0
POINT
  5
1B8
330
363
100
AcDbEntity
  8
DIM
  6
Continuous
 62
     7
370
    30
100
AcDbPoint
 10
28.071875
 20
-6.669344
 30
0.0
  0
POINT
  5
1B9
330
363
100
AcDbEntity
  8
DIM
  6
Continuous
 62
     7
370
    30
100
AcDbPoint
 10
28.090625
 20
-6.669344
 30
0.0
  0
POINT
  5
1BA
330
363
100
AcDbEntity
  8
DIM
  6
Continuous
 62
     7
370
    30
100
AcDbPoint
 10
28.109375
 20
-6.669344
 30
0.0
  0
POINT
  5
1BB
330
363
100
AcDbEntity
  8
DIM
  6
Continuous
 62
     7
370
    30
100
AcDbPoint
 10
28.128125
 20
-6.669344
 30
0.0
  0
POINT
  5
1BC
330
363
100
AcDbEntity
  8
DIM
  6
Continuous
 62
     7
370
    30
100
AcDbPoint
 10
28.146875
 20
-6.669344
 30
0.0
  0
POINT
  5
1BD
330
363
100
AcDbEntity
  8
DIM
  6
Continuous
 62
     7
370
    30
100
AcDbPoint
 10
28.165625
 20
-6.669344
 30
0.0
  0
POINT
  5
1BE
330
363
100
AcDbEntity
  8
DIM
  6
Continuous
 62
     7
370
    30
100
AcDbPoint
 10
28.184375
 20
-6.669344
 30
0.0
  0
POINT
  5
1BF
330
363
100
AcDbEntity
  8
DIM
  6
Continuous
 62
     7
370
    30
100
AcDbPoint
 10
28.203125
 20
-6.669344
 30
0.0
  0
POINT
  5
1C0
330
363
100
AcDbEntity
  8
DIM
  6
Continuous
 62
     7
370
    30
100
AcDbPoint
 10
28.221875
 20
-6.669344
 30
0.0
  0
POINT
  5
1C1
330
363
100
AcDbEntity
  8
DIM
  6
Continuous
 62
     7
370
    30
100
AcDbPoint
 10
28.240625
 20
-6.669344
 30
0.0
  0
POINT
  5
1C2
330
363
100
AcDbEntity
  8
DIM
  6
Continuous
 62
     7
370
    30
100
AcDbPoint
 10
28.259375
 20
-6.669344
 30
0.0
  0
POINT
  5
1C3
330
363
100
AcDbEntity
  8
DIM
  6
Continuous
 62
     7
370
    30
100
AcDbPoint
 10
28.278125
 20
-6.669344
 30
0.0
  0
POINT
  5
1C4
330
363
100
AcDbEntity
  8
DIM
  6
Continuous
 62
     7
370
    30
100
AcDbPoint
 10
28.296875
 20
-6.669344
 30
0.0
  0
POINT
  5
1C5
330
363
100
AcDbEntity
  8
DIM
  6
Continuous
 62
     7
370
    30
100
AcDbPoint
 10
28.315625
 20
-6.669344
 30
0.0
  0
POINT
  5
1C6
330
363
100
AcDbEntity
  8
DIM
  6
Continuous
 62
     7
370
    30
100
AcDbPoint
 10
28.334375
 20
-6.669344
 30
0.0
  0
POINT
  5
1C7
330
363
100
AcDbEntity
  8
DIM
  6
Continuous
 62
     7
370
    30
100
AcDbPoint
 10
28.353125
 20
-6.669344
 30
0.0
  0
POINT
  5
1C8
330
363
100
AcDbEntity
  8
DIM
  6
Continuous
 62
     7
370
    30
100
AcDbPoint
 10
28.371875
 20
-6.669344
 30
0.0
  0
POINT
  5
1C9
330
363
100
AcDbEntity
  8
DIM
  6
Continuous
 62
     7
370
    30
100
AcDbPoint
 10
28.390625
 20
-6.669344
 30
0.0
  0
POINT
  5
1CA
330
363
100
AcDbEntity
  8
DIM
  6
Continuous
 62
     7
370
    30
100
AcDbPoint
 10
28.409375
 20
-6.669344
 30
0.0
  0
POINT
  5
1CB
330
363
100
AcDbEntity
  8
DIM
  6
Continuous
 62
     7
370
    30
100
AcDbPoint
 10
28.428125
 20
-6.669344
 30
0.0
  0
POINT
  5
1CC
330
363
100
AcDbEntity
  8
DIM
  6
Continuous
 62
     7
370
    30
100
AcDbPoint
 10
28.446875
 20
-6.669344
 30
0.0
  0
POINT
  5
1CD
330
363
100
AcDbEntity
  8
DIM
  6
Continuous
 62
     7
370
    30
100
AcDbPoint
 10
28.465625
 20
-6.669344
 30
0.0
  0
POINT
  5
1CE
330
363
100
AcDbEntity
  8
DIM
  6
Continuous
 62
     7
370
    30
100
AcDbPoint
 10
28.484375
 20
-6.669344
 30
0.0
  0
POINT
  5
1CF
330
363
100
AcDbEntity
  8
DIM
  6
Continuous
 62
     7
370
    30
100
AcDbPoint
 10
28.503125
 20
-6.669344
 30
0.0
  0
POINT
  5
1D0
330
363
100
AcDbEntity
  8
DIM
  6
Continuous
 62
     7
370
    30
100
AcDbPoint
 10
28.521875
 20
-6.669344
 30
0.0
  0
POINT
  5
1D1
330
363
100
AcDbEntity
  8
DIM
  6
Continuous
 62
     7
370
    30
100
AcDbPoint
 10
28.540625
 20
-6.669344
 30
0.0
  0
POINT
  5
1D2
330
363
100
AcDbEntity
  8
DIM
  6
Continuous
 62
     7
370
    30
100
AcDbPoint
 10
28.559375
 20
-6.669344
 30
0.0
  0
POINT
  5
1D3
330
363
100
AcDbEntity
  8
DIM
  6
Continuous
 62
     7
370
    30
100
AcDbPoint
 10
28.578125
 20
-6.669344
 30
0.0
  0
POINT
  5
1D4
330
363
100
AcDbEntity
  8
DIM
  6
Continuous
 62
     7
370
    30
100
AcDbPoint
 10
28.596875
 20
-6.669344
 30
0.0
  0
POINT
  5
1D5
330
363
100
AcDbEntity
  8
DIM
  6
Continuous
 62
     7
370
    30
100
AcDbPoint
 10
28.615625
 20
-6.669344
 30
0.0
  0
POINT
  5
1D6
330
363
100
AcDbEntity
  8
DIM
  6
Continuous
 62
     7
370
    30
100
AcDbPoint
 10
28.634375
 20
-6.669344
 30
0.0
  0
POINT
  5
1D7
330
363
100
AcDbEntity
  8
DIM
  6
Continuous
 62
     7
370
    30
100
AcDbPoint
 10
26.5625
 20
-6.688094
 30
0.0
  0
POINT
  5
1D8
330
363
100
AcDbEntity
  8
DIM
  6
Continuous
 62
     7
370
    30
100
AcDbPoint
 10
26.58125
 20
-6.688094
 30
0.0
  0
POINT
  5
1D9
330
363
100
AcDbEntity
  8
DIM
  6
Continuous
 62
     7
370
    30
100
AcDbPoint
 10
26.6
 20
-6.688094
 30
0.0
  0
POINT
  5
1DA
330
363
100
AcDbEntity
  8
DIM
  6
Continuous
 62
     7
370
    30
100
AcDbPoint
 10
26.61875
 20
-6.688094
 30
0.0
  0
POINT
  5
1DB
330
363
100
AcDbEntity
  8
DIM
  6
Continuous
 62
     7
370
    30
100
AcDbPoint
 10
26.6375
 20
-6.688094
 30
0.0
  0
POINT
  5
1DC
330
363
100
AcDbEntity
  8
DIM
  6
Continuous
 62
     7
370
    30
100
AcDbPoint
 10
26.65625
 20
-6.688094
 30
0.0
  0
POINT
  5
1DD
330
363
100
AcDbEntity
  8
DIM
  6
Continuous
 62
     7
370
    30
100
AcDbPoint
 10
26.675
 20
-6.688094
 30
0.0
  0
POINT
  5
1DE
330
363
100
AcDbEntity
  8
DIM
  6
Continuous
 62
     7
370
    30
100
AcDbPoint
 10
26.69375
 20
-6.688094
 30
0.0
  0
POINT
  5
1DF
330
363
100
AcDbEntity
  8
DIM
  6
Continuous
 62
     7
370
    30
100
AcDbPoint
 10
26.7125
 20
-6.688094
 30
0.0
  0
POINT
  5
1E0
330
363
100
AcDbEntity
  8
DIM
  6
Continuous
 62
     7
370
    30
100
AcDbPoint
 10
26.73125
 20
-6.688094
 30
0.0
  0
POINT
  5
1E1
330
363
100
AcDbEntity
  8
DIM
  6
Continuous
 62
     7
370
    30
100
AcDbPoint
 10
26.75
 20
-6.688094
 30
0.0
  0
POINT
  5
1E2
330
363
100
AcDbEntity
  8
DIM
  6
Continuous
 62
     7
370
    30
100
AcDbPoint
 10
26.76875
 20
-6.688094
 30
0.0
  0
POINT
  5
1E3
330
363
100
AcDbEntity
  8
DIM
  6
Continuous
 62
     7
370
    30
100
AcDbPoint
 10
26.7875
 20
-6.688094
 30
0.0
  0
POINT
  5
1E4
330
363
100
AcDbEntity
  8
DIM
  6
Continuous
 62
     7
370
    30
100
AcDbPoint
 10
26.80625
 20
-6.688094
 30
0.0
  0
POINT
  5
1E5
330
363
100
AcDbEntity
  8
DIM
  6
Continuous
 62
     7
370
    30
100
AcDbPoint
 10
26.825
 20
-6.688094
 30
0.0
  0
POINT
  5
1E6
330
363
100
AcDbEntity
  8
DIM
  6
Continuous
 62
     7
370
    30
100
AcDbPoint
 10
26.84375
 20
-6.688094
 30
0.0
  0
POINT
  5
1E7
330
363
100
AcDbEntity
  8
DIM
  6
Continuous
 62
     7
370
    30
100
AcDbPoint
 10
26.8625
 20
-6.688094
 30
0.0
  0
POINT
  5
1E8
330
363
100
AcDbEntity
  8
DIM
  6
Continuous
 62
     7
370
    30
100
AcDbPoint
 10
26.88125
 20
-6.688094
 30
0.0
  0
POINT
  5
1E9
330
363
100
AcDbEntity
  8
DIM
  6
Continuous
 62
     7
370
    30
100
AcDbPoint
 10
26.9
 20
-6.688094
 30
0.0
  0
POINT
  5
1EA
330
363
100
AcDbEntity
  8
DIM
  6
Continuous
 62
     7
370
    30
100
AcDbPoint
 10
26.91875
 20
-6.688094
 30
0.0
  0
POINT
  5
1EB
330
363
100
AcDbEntity
  8
DIM
  6
Continuous
 62
     7
370
    30
100
AcDbPoint
 10
26.9375
 20
-6.688094
 30
0.0
  0
POINT
  5
1EC
330
363
100
AcDbEntity
  8
DIM
  6
Continuous
 62
     7
370
    30
100
AcDbPoint
 10
26.95625
 20
-6.688094
 30
0.0
  0
POINT
  5
1ED
330
363
100
AcDbEntity
  8
DIM
  6
Continuous
 62
     7
370
    30
100
AcDbPoint
 10
26.975
 20
-6.688094
 30
0.0
  0
POINT
  5
1EE
330
363
100
AcDbEntity
  8
DIM
  6
Continuous
 62
     7
370
    30
100
AcDbPoint
 10
26.99375
 20
-6.688094
 30
0.0
  0
POINT
  5
1EF
330
363
100
AcDbEntity
  8
DIM
  6
Continuous
 62
     7
370
    30
100
AcDbPoint
 10
27.0125
 20
-6.688094
 30
0.0
  0
POINT
  5
1F0
330
363
100
AcDbEntity
  8
DIM
  6
Continuous
 62
     7
370
    30
100
AcDbPoint
 10
27.03125
 20
-6.688094
 30
0.0
  0
POINT
  5
1F1
330
363
100
AcDbEntity
  8
DIM
  6
Continuous
 62
     7
370
    30
100
AcDbPoint
 10
27.05
 20
-6.688094
 30
0.0
  0
POINT
  5
1F2
330
363
100
AcDbEntity
  8
DIM
  6
Continuous
 62
     7
370
    30
100
AcDbPoint
 10
27.06875
 20
-6.688094
 30
0.0
  0
POINT
  5
1F3
330
363
100
AcDbEntity
  8
DIM
  6
Continuous
 62
     7
370
    30
100
AcDbPoint
 10
27.0875
 20
-6.688094
 30
0.0
  0
POINT
  5
1F4
330
363
100
AcDbEntity
  8
DIM
  6
Continuous
 62
     7
370
    30
100
AcDbPoint
 10
27.10625
 20
-6.688094
 30
0.0
  0
POINT
  5
1F5
330
363
100
AcDbEntity
  8
DIM
  6
Continuous
 62
     7
370
    30
100
AcDbPoint
 10
27.125
 20
-6.688094
 30
0.0
  0
POINT
  5
1F6
330
363
100
AcDbEntity
  8
DIM
  6
Continuous
 62
     7
370
    30
100
AcDbPoint
 10
27.14375
 20
-6.688094
 30
0.0
  0
POINT
  5
1F7
330
363
100
AcDbEntity
  8
DIM
  6
Continuous
 62
     7
370
    30
100
AcDbPoint
 10
27.1625
 20
-6.688094
 30
0.0
  0
POINT
  5
1F8
330
363
100
AcDbEntity
  8
DIM
  6
Continuous
 62
     7
370
    30
100
AcDbPoint
 10
27.18125
 20
-6.688094
 30
0.0
  0
POINT
  5
1F9
330
363
100
AcDbEntity
  8
DIM
  6
Continuous
 62
     7
370
    30
100
AcDbPoint
 10
27.2
 20
-6.688094
 30
0.0
  0
POINT
  5
1FA
330
363
100
AcDbEntity
  8
DIM
  6
Continuous
 62
     7
370
    30
100
AcDbPoint
 10
27.21875
 20
-6.688094
 30
0.0
  0
POINT
  5
1FB
330
363
100
AcDbEntity
  8
DIM
  6
Continuous
 62
     7
370
    30
100
AcDbPoint
 10
27.2375
 20
-6.688094
 30
0.0
  0
POINT
  5
1FC
330
363
100
AcDbEntity
  8
DIM
  6
Continuous
 62
     7
370
    30
100
AcDbPoint
 10
27.25625
 20
-6.688094
 30
0.0
  0
POINT
  5
1FD
330
363
100
AcDbEntity
  8
DIM
  6
Continuous
 62
     7
370
    30
100
AcDbPoint
 10
27.275
 20
-6.688094
 30
0.0
  0
POINT
  5
1FE
330
363
100
AcDbEntity
  8
DIM
  6
Continuous
 62
     7
370
    30
100
AcDbPoint
 10
27.29375
 20
-6.688094
 30
0.0
  0
POINT
  5
1FF
330
363
100
AcDbEntity
  8
DIM
  6
Continuous
 62
     7
370
    30
100
AcDbPoint
 10
27.3125
 20
-6.688094
 30
0.0
  0
POINT
  5
200
330
363
100
AcDbEntity
  8
DIM
  6
Continuous
 62
     7
370
    30
100
AcDbPoint
 10
27.33125
 20
-6.688094
 30
0.0
  0
POINT
  5
201
330
363
100
AcDbEntity
  8
DIM
  6
Continuous
 62
     7
370
    30
100
AcDbPoint
 10
27.35
 20
-6.688094
 30
0.0
  0
POINT
  5
202
330
363
100
AcDbEntity
  8
DIM
  6
Continuous
 62
     7
370
    30
100
AcDbPoint
 10
27.36875
 20
-6.688094
 30
0.0
  0
POINT
  5
203
330
363
100
AcDbEntity
  8
DIM
  6
Continuous
 62
     7
370
    30
100
AcDbPoint
 10
27.3875
 20
-6.688094
 30
0.0
  0
POINT
  5
204
330
363
100
AcDbEntity
  8
DIM
  6
Continuous
 62
     7
370
    30
100
AcDbPoint
 10
27.40625
 20
-6.688094
 30
0.0
  0
POINT
  5
205
330
363
100
AcDbEntity
  8
DIM
  6
Continuous
 62
     7
370
    30
100
AcDbPoint
 10
27.425
 20
-6.688094
 30
0.0
  0
POINT
  5
206
330
363
100
AcDbEntity
  8
DIM
  6
Continuous
 62
     7
370
    30
100
AcDbPoint
 10
27.44375
 20
-6.688094
 30
0.0
  0
POINT
  5
207
330
363
100
AcDbEntity
  8
DIM
  6
Continuous
 62
     7
370
    30
100
AcDbPoint
 10
27.4625
 20
-6.688094
 30
0.0
  0
POINT
  5
208
330
363
100
AcDbEntity
  8
DIM
  6
Continuous
 62
     7
370
    30
100
AcDbPoint
 10
27.48125
 20
-6.688094
 30
0.0
  0
POINT
  5
209
330
363
100
AcDbEntity
  8
DIM
  6
Continuous
 62
     7
370
    30
100
AcDbPoint
 10
27.5
 20
-6.688094
 30
0.0
  0
POINT
  5
20A
330
363
100
AcDbEntity
  8
DIM
  6
Continuous
 62
     7
370
    30
100
AcDbPoint
 10
27.51875
 20
-6.688094
 30
0.0
  0
POINT
  5
20B
330
363
100
AcDbEntity
  8
DIM
  6
Continuous
 62
     7
370
    30
100
AcDbPoint
 10
27.5375
 20
-6.688094
 30
0.0
  0
POINT
  5
20C
330
363
100
AcDbEntity
  8
DIM
  6
Continuous
 62
     7
370
    30
100
AcDbPoint
 10
27.55625
 20
-6.688094
 30
0.0
  0
POINT
  5
20D
330
363
100
AcDbEntity
  8
DIM
  6
Continuous
 62
     7
370
    30
100
AcDbPoint
 10
27.575
 20
-6.688094
 30
0.0
  0
POINT
  5
20E
330
363
100
AcDbEntity
  8
DIM
  6
Continuous
 62
     7
370
    30
100
AcDbPoint
 10
27.59375
 20
-6.688094
 30
0.0
  0
POINT
  5
20F
330
363
100
AcDbEntity
  8
DIM
  6
Continuous
 62
     7
370
    30
100
AcDbPoint
 10
27.6125
 20
-6.688094
 30
0.0
  0
POINT
  5
210
330
363
100
AcDbEntity
  8
DIM
  6
Continuous
 62
     7
370
    30
100
AcDbPoint
 10
27.63125
 20
-6.688094
 30
0.0
  0
POINT
  5
211
330
363
100
AcDbEntity
  8
DIM
  6
Continuous
 62
     7
370
    30
100
AcDbPoint
 10
27.65
 20
-6.688094
 30
0.0
  0
POINT
  5
212
330
363
100
AcDbEntity
  8
DIM
  6
Continuous
 62
     7
370
    30
100
AcDbPoint
 10
27.66875
 20
-6.688094
 30
0.0
  0
POINT
  5
213
330
363
100
AcDbEntity
  8
DIM
  6
Continuous
 62
     7
370
    30
100
AcDbPoint
 10
27.6875
 20
-6.688094
 30
0.0
  0
POINT
  5
214
330
363
100
AcDbEntity
  8
DIM
  6
Continuous
 62
     7
370
    30
100
AcDbPoint
 10
27.70625
 20
-6.688094
 30
0.0
  0
POINT
  5
215
330
363
100
AcDbEntity
  8
DIM
  6
Continuous
 62
     7
370
    30
100
AcDbPoint
 10
27.725
 20
-6.688094
 30
0.0
  0
POINT
  5
216
330
363
100
AcDbEntity
  8
DIM
  6
Continuous
 62
     7
370
    30
100
AcDbPoint
 10
27.74375
 20
-6.688094
 30
0.0
  0
POINT
  5
217
330
363
100
AcDbEntity
  8
DIM
  6
Continuous
 62
     7
370
    30
100
AcDbPoint
 10
27.7625
 20
-6.688094
 30
0.0
  0
POINT
  5
218
330
363
100
AcDbEntity
  8
DIM
  6
Continuous
 62
     7
370
    30
100
AcDbPoint
 10
27.78125
 20
-6.688094
 30
0.0
  0
POINT
  5
219
330
363
100
AcDbEntity
  8
DIM
  6
Continuous
 62
     7
370
    30
100
AcDbPoint
 10
27.8
 20
-6.688094
 30
0.0
  0
POINT
  5
21A
330
363
100
AcDbEntity
  8
DIM
  6
Continuous
 62
     7
370
    30
100
AcDbPoint
 10
27.81875
 20
-6.688094
 30
0.0
  0
POINT
  5
21B
330
363
100
AcDbEntity
  8
DIM
  6
Continuous
 62
     7
370
    30
100
AcDbPoint
 10
27.8375
 20
-6.688094
 30
0.0
  0
POINT
  5
21C
330
363
100
AcDbEntity
  8
DIM
  6
Continuous
 62
     7
370
    30
100
AcDbPoint
 10
27.85625
 20
-6.688094
 30
0.0
  0
POINT
  5
21D
330
363
100
AcDbEntity
  8
DIM
  6
Continuous
 62
     7
370
    30
100
AcDbPoint
 10
27.875
 20
-6.688094
 30
0.0
  0
POINT
  5
21E
330
363
100
AcDbEntity
  8
DIM
  6
Continuous
 62
     7
370
    30
100
AcDbPoint
 10
27.89375
 20
-6.688094
 30
0.0
  0
POINT
  5
21F
330
363
100
AcDbEntity
  8
DIM
  6
Continuous
 62
     7
370
    30
100
AcDbPoint
 10
27.9125
 20
-6.688094
 30
0.0
  0
POINT
  5
220
330
363
100
AcDbEntity
  8
DIM
  6
Continuous
 62
     7
370
    30
100
AcDbPoint
 10
27.93125
 20
-6.688094
 30
0.0
  0
POINT
  5
221
330
363
100
AcDbEntity
  8
DIM
  6
Continuous
 62
     7
370
    30
100
AcDbPoint
 10
27.95
 20
-6.688094
 30
0.0
  0
POINT
  5
222
330
363
100
AcDbEntity
  8
DIM
  6
Continuous
 62
     7
370
    30
100
AcDbPoint
 10
27.96875
 20
-6.688094
 30
0.0
  0
POINT
  5
223
330
363
100
AcDbEntity
  8
DIM
  6
Continuous
 62
     7
370
    30
100
AcDbPoint
 10
27.9875
 20
-6.688094
 30
0.0
  0
POINT
  5
224
330
363
100
AcDbEntity
  8
DIM
  6
Continuous
 62
     7
370
    30
100
AcDbPoint
 10
28.00625
 20
-6.688094
 30
0.0
  0
POINT
  5
225
330
363
100
AcDbEntity
  8
DIM
  6
Continuous
 62
     7
370
    30
100
AcDbPoint
 10
28.025
 20
-6.688094
 30
0.0
  0
POINT
  5
226
330
363
100
AcDbEntity
  8
DIM
  6
Continuous
 62
     7
370
    30
100
AcDbPoint
 10
28.04375
 20
-6.688094
 30
0.0
  0
POINT
  5
227
330
363
100
AcDbEntity
  8
DIM
  6
Continuous
 62
     7
370
    30
100
AcDbPoint
 10
28.0625
 20
-6.688094
 30
0.0
  0
POINT
  5
228
330
363
100
AcDbEntity
  8
DIM
  6
Continuous
 62
     7
370
    30
100
AcDbPoint
 10
28.08125
 20
-6.688094
 30
0.0
  0
POINT
  5
229
330
363
100
AcDbEntity
  8
DIM
  6
Continuous
 62
     7
370
    30
100
AcDbPoint
 10
28.1
 20
-6.688094
 30
0.0
  0
POINT
  5
22A
330
363
100
AcDbEntity
  8
DIM
  6
Continuous
 62
     7
370
    30
100
AcDbPoint
 10
28.11875
 20
-6.688094
 30
0.0
  0
POINT
  5
22B
330
363
100
AcDbEntity
  8
DIM
  6
Continuous
 62
     7
370
    30
100
AcDbPoint
 10
28.1375
 20
-6.688094
 30
0.0
  0
POINT
  5
22C
330
363
100
AcDbEntity
  8
DIM
  6
Continuous
 62
     7
370
    30
100
AcDbPoint
 10
28.15625
 20
-6.688094
 30
0.0
  0
POINT
  5
22D
330
363
100
AcDbEntity
  8
DIM
  6
Continuous
 62
     7
370
    30
100
AcDbPoint
 10
28.175
 20
-6.688094
 30
0.0
  0
POINT
  5
22E
330
363
100
AcDbEntity
  8
DIM
  6
Continuous
 62
     7
370
    30
100
AcDbPoint
 10
28.19375
 20
-6.688094
 30
0.0
  0
POINT
  5
22F
330
363
100
AcDbEntity
  8
DIM
  6
Continuous
 62
     7
370
    30
100
AcDbPoint
 10
28.2125
 20
-6.688094
 30
0.0
  0
POINT
  5
230
330
363
100
AcDbEntity
  8
DIM
  6
Continuous
 62
     7
370
    30
100
AcDbPoint
 10
28.23125
 20
-6.688094
 30
0.0
  0
POINT
  5
231
330
363
100
AcDbEntity
  8
DIM
  6
Continuous
 62
     7
370
    30
100
AcDbPoint
 10
28.25
 20
-6.688094
 30
0.0
  0
POINT
  5
232
330
363
100
AcDbEntity
  8
DIM
  6
Continuous
 62
     7
370
    30
100
AcDbPoint
 10
28.26875
 20
-6.688094
 30
0.0
  0
POINT
  5
233
330
363
100
AcDbEntity
  8
DIM
  6
Continuous
 62
     7
370
    30
100
AcDbPoint
 10
28.2875
 20
-6.688094
 30
0.0
  0
POINT
  5
234
330
363
100
AcDbEntity
  8
DIM
  6
Continuous
 62
     7
370
    30
100
AcDbPoint
 10
28.30625
 20
-6.688094
 30
0.0
  0
POINT
  5
235
330
363
100
AcDbEntity
  8
DIM
  6
Continuous
 62
     7
370
    30
100
AcDbPoint
 10
28.325
 20
-6.688094
 30
0.0
  0
POINT
  5
236
330
363
100
AcDbEntity
  8
DIM
  6
Continuous
 62
     7
370
    30
100
AcDbPoint
 10
28.34375
 20
-6.688094
 30
0.0
  0
POINT
  5
237
330
363
100
AcDbEntity
  8
DIM
  6
Continuous
 62
     7
370
    30
100
AcDbPoint
 10
28.3625
 20
-6.688094
 30
0.0
  0
POINT
  5
238
330
363
100
AcDbEntity
  8
DIM
  6
Continuous
 62
     7
370
    30
100
AcDbPoint
 10
28.38125
 20
-6.688094
 30
0.0
  0
POINT
  5
239
330
363
100
AcDbEntity
  8
DIM
  6
Continuous
 62
     7
370
    30
100
AcDbPoint
 10
28.4
 20
-6.688094
 30
0.0
  0
POINT
  5
23A
330
363
100
AcDbEntity
  8
DIM
  6
Continuous
 62
     7
370
    30
100
AcDbPoint
 10
28.41875
 20
-6.688094
 30
0.0
  0
POINT
  5
23B
330
363
100
AcDbEntity
  8
DIM
  6
Continuous
 62
     7
370
    30
100
AcDbPoint
 10
28.4375
 20
-6.688094
 30
0.0
  0
POINT
  5
23C
330
363
100
AcDbEntity
  8
DIM
  6
Continuous
 62
     7
370
    30
100
AcDbPoint
 10
28.45625
 20
-6.688094
 30
0.0
  0
POINT
  5
23D
330
363
100
AcDbEntity
  8
DIM
  6
Continuous
 62
     7
370
    30
100
AcDbPoint
 10
28.475
 20
-6.688094
 30
0.0
  0
POINT
  5
23E
330
363
100
AcDbEntity
  8
DIM
  6
Continuous
 62
     7
370
    30
100
AcDbPoint
 10
28.49375
 20
-6.688094
 30
0.0
  0
POINT
  5
23F
330
363
100
AcDbEntity
  8
DIM
  6
Continuous
 62
     7
370
    30
100
AcDbPoint
 10
28.5125
 20
-6.688094
 30
0.0
  0
POINT
  5
240
330
363
100
AcDbEntity
  8
DIM
  6
Continuous
 62
     7
370
    30
100
AcDbPoint
 10
28.53125
 20
-6.688094
 30
0.0
  0
POINT
  5
241
330
363
100
AcDbEntity
  8
DIM
  6
Continuous
 62
     7
370
    30
100
AcDbPoint
 10
28.55
 20
-6.688094
 30
0.0
  0
POINT
  5
242
330
363
100
AcDbEntity
  8
DIM
  6
Continuous
 62
     7
370
    30
100
AcDbPoint
 10
28.56875
 20
-6.688094
 30
0.0
  0
POINT
  5
243
330
363
100
AcDbEntity
  8
DIM
  6
Continuous
 62
     7
370
    30
100
AcDbPoint
 10
28.5875
 20
-6.688094
 30
0.0
  0
POINT
  5
244
330
363
100
AcDbEntity
  8
DIM
  6
Continuous
 62
     7
370
    30
100
AcDbPoint
 10
28.60625
 20
-6.688094
 30
0.0
  0
POINT
  5
245
330
363
100
AcDbEntity
  8
DIM
  6
Continuous
 62
     7
370
    30
100
AcDbPoint
 10
28.625
 20
-6.688094
 30
0.0
  0
POINT
  5
246
330
363
100
AcDbEntity
  8
DIM
  6
Continuous
 62
     7
370
    30
100
AcDbPoint
 10
26.553125
 20
-6.706844
 30
0.0
  0
POINT
  5
247
330
363
100
AcDbEntity
  8
DIM
  6
Continuous
 62
     7
370
    30
100
AcDbPoint
 10
26.571875
 20
-6.706844
 30
0.0
  0
POINT
  5
248
330
363
100
AcDbEntity
  8
DIM
  6
Continuous
 62
     7
370
    30
100
AcDbPoint
 10
28.596875
 20
-6.706844
 30
0.0
  0
POINT
  5
249
330
363
100
AcDbEntity
  8
DIM
  6
Continuous
 62
     7
370
    30
100
AcDbPoint
 10
28.615625
 20
-6.706844
 30
0.0
  0
POINT
  5
24A
330
363
100
AcDbEntity
  8
DIM
  6
Continuous
 62
     7
370
    30
100
AcDbPoint
 10
28.634375
 20
-6.706844
 30
0.0
  0
POINT
  5
24B
330
363
100
AcDbEntity
  8
DIM
  6
Continuous
 62
     7
370
    30
100
AcDbPoint
 10
26.5625
 20
-6.725594
 30
0.0
  0
POINT
  5
24C
330
363
100
AcDbEntity
  8
DIM
  6
Continuous
 62
     7
370
    30
100
AcDbPoint
 10
26.58125
 20
-6.725594
 30
0.0
  0
POINT
  5
24D
330
363
100
AcDbEntity
  8
DIM
  6
Continuous
 62
     7
370
    30
100
AcDbPoint
 10
28.60625
 20
-6.725594
 30
0.0
  0
POINT
  5
24E
330
363
100
AcDbEntity
  8
DIM
  6
Continuous
 62
     7
370
    30
100
AcDbPoint
 10
28.625
 20
-6.725594
 30
0.0
  0
POINT
  5
24F
330
363
100
AcDbEntity
  8
DIM
  6
Continuous
 62
     7
370
    30
100
AcDbPoint
 10
26.553125
 20
-6.744344
 30
0.0
  0
POINT
  5
250
330
363
100
AcDbEntity
  8
DIM
  6
Continuous
 62
     7
370
    30
100
AcDbPoint
 10
26.571875
 20
-6.744344
 30
0.0
  0
POINT
  5
251
330
363
100
AcDbEntity
  8
DIM
  6
Continuous
 62
     7
370
    30
100
AcDbPoint
 10
28.596875
 20
-6.744344
 30
0.0
  0
POINT
  5
252
330
363
100
AcDbEntity
  8
DIM
  6
Continuous
 62
     7
370
    30
100
AcDbPoint
 10
28.615625
 20
-6.744344
 30
0.0
  0
POINT
  5
253
330
363
100
AcDbEntity
  8
DIM
  6
Continuous
 62
     7
370
    30
100
AcDbPoint
 10
28.634375
 20
-6.744344
 30
0.0
  0
POINT
  5
254
330
363
100
AcDbEntity
  8
DIM
  6
Continuous
 62
     7
370
    30
100
AcDbPoint
 10
26.5625
 20
-6.763094
 30
0.0
  0
POINT
  5
255
330
363
100
AcDbEntity
  8
DIM
  6
Continuous
 62
     7
370
    30
100
AcDbPoint
 10
26.58125
 20
-6.763094
 30
0.0
  0
POINT
  5
256
330
363
100
AcDbEntity
  8
DIM
  6
Continuous
 62
     7
370
    30
100
AcDbPoint
 10
28.60625
 20
-6.763094
 30
0.0
  0
POINT
  5
257
330
363
100
AcDbEntity
  8
DIM
  6
Continuous
 62
     7
370
    30
100
AcDbPoint
 10
28.625
 20
-6.763094
 30
0.0
  0
POINT
  5
258
330
363
100
AcDbEntity
  8
DIM
  6
Continuous
 62
     7
370
    30
100
AcDbPoint
 10
26.553125
 20
-6.781844
 30
0.0
  0
POINT
  5
259
330
363
100
AcDbEntity
  8
DIM
  6
Continuous
 62
     7
370
    30
100
AcDbPoint
 10
26.571875
 20
-6.781844
 30
0.0
  0
POINT
  5
25A
330
363
100
AcDbEntity
  8
DIM
  6
Continuous
 62
     7
370
    30
100
AcDbPoint
 10
28.596875
 20
-6.781844
 30
0.0
  0
POINT
  5
25B
330
363
100
AcDbEntity
  8
DIM
  6
Continuous
 62
     7
370
    30
100
AcDbPoint
 10
28.615625
 20
-6.781844
 30
0.0
  0
POINT
  5
25C
330
363
100
AcDbEntity
  8
DIM
  6
Continuous
 62
     7
370
    30
100
AcDbPoint
 10
28.634375
 20
-6.781844
 30
0.0
  0
POINT
  5
25D
330
363
100
AcDbEntity
  8
DIM
  6
Continuous
 62
     7
370
    30
100
AcDbPoint
 10
26.5625
 20
-6.800594
 30
0.0
  0
POINT
  5
25E
330
363
100
AcDbEntity
  8
DIM
  6
Continuous
 62
     7
370
    30
100
AcDbPoint
 10
26.58125
 20
-6.800594
 30
0.0
  0
POINT
  5
25F
330
363
100
AcDbEntity
  8
DIM
  6
Continuous
 62
     7
370
    30
100
AcDbPoint
 10
28.60625
 20
-6.800594
 30
0.0
  0
POINT
  5
260
330
363
100
AcDbEntity
  8
DIM
  6
Continuous
 62
     7
370
    30
100
AcDbPoint
 10
28.625
 20
-6.800594
 30
0.0
  0
POINT
  5
261
330
363
100
AcDbEntity
  8
DIM
  6
Continuous
 62
     7
370
    30
100
AcDbPoint
 10
26.553125
 20
-6.819344
 30
0.0
  0
POINT
  5
262
330
363
100
AcDbEntity
  8
DIM
  6
Continuous
 62
     7
370
    30
100
AcDbPoint
 10
26.571875
 20
-6.819344
 30
0.0
  0
POINT
  5
263
330
363
100
AcDbEntity
  8
DIM
  6
Continuous
 62
     7
370
    30
100
AcDbPoint
 10
28.596875
 20
-6.819344
 30
0.0
  0
POINT
  5
264
330
363
100
AcDbEntity
  8
DIM
  6
Continuous
 62
     7
370
    30
100
AcDbPoint
 10
28.615625
 20
-6.819344
 30
0.0
  0
POINT
  5
265
330
363
100
AcDbEntity
  8
DIM
  6
Continuous
 62
     7
370
    30
100
AcDbPoint
 10
28.634375
 20
-6.819344
 30
0.0
  0
POINT
  5
266
330
363
100
AcDbEntity
  8
DIM
  6
Continuous
 62
     7
370
    30
100
AcDbPoint
 10
26.5625
 20
-6.838094
 30
0.0
  0
POINT
  5
267
330
363
100
AcDbEntity
  8
DIM
  6
Continuous
 62
     7
370
    30
100
AcDbPoint
 10
26.58125
 20
-6.838094
 30
0.0
  0
POINT
  5
268
330
363
100
AcDbEntity
  8
DIM
  6
Continuous
 62
     7
370
    30
100
AcDbPoint
 10
26.553125
 20
-6.856844
 30
0.0
  0
POINT
  5
269
330
363
100
AcDbEntity
  8
DIM
  6
Continuous
 62
     7
370
    30
100
AcDbPoint
 10
26.571875
 20
-6.856844
 30
0.0
  0
POINT
  5
26A
330
363
100
AcDbEntity
  8
DIM
  6
Continuous
 62
     7
370
    30
100
AcDbPoint
 10
26.5625
 20
-6.875594
 30
0.0
  0
POINT
  5
26B
330
363
100
AcDbEntity
  8
DIM
  6
Continuous
 62
     7
370
    30
100
AcDbPoint
 10
26.58125
 20
-6.875594
 30
0.0
  0
POINT
  5
26C
330
363
100
AcDbEntity
  8
DIM
  6
Continuous
 62
     7
370
    30
100
AcDbPoint
 10
26.553125
 20
-6.894344
 30
0.0
  0
POINT
  5
26D
330
363
100
AcDbEntity
  8
DIM
  6
Continuous
 62
     7
370
    30
100
AcDbPoint
 10
26.571875
 20
-6.894344
 30
0.0
  0
POINT
  5
26E
330
363
100
AcDbEntity
  8
DIM
  6
Continuous
 62
     7
370
    30
100
AcDbPoint
 10
26.5625
 20
-6.913094
 30
0.0
  0
POINT
  5
26F
330
363
100
AcDbEntity
  8
DIM
  6
Continuous
 62
     7
370
    30
100
AcDbPoint
 10
26.58125
 20
-6.913094
 30
0.0
  0
POINT
  5
270
330
363
100
AcDbEntity
  8
DIM
  6
Continuous
 62
     7
370
    30
100
AcDbPoint
 10
26.553125
 20
-6.931844
 30
0.0
  0
POINT
  5
271
330
363
100
AcDbEntity
  8
DIM
  6
Continuous
 62
     7
370
    30
100
AcDbPoint
 10
26.571875
 20
-6.931844
 30
0.0
  0
POINT
  5
272
330
363
100
AcDbEntity
  8
DIM
  6
Continuous
 62
     7
370
    30
100
AcDbPoint
 10
26.5625
 20
-6.950594
 30
0.0
  0
POINT
  5
273
330
363
100
AcDbEntity
  8
DIM
  6
Continuous
 62
     7
370
    30
100
AcDbPoint
 10
26.58125
 20
-6.950594
 30
0.0
  0
LINE
  5
274
330
363
100
AcDbEntity
  8
_0
  6
Continuous
 62
     7
370
    30
100
AcDbLine
 10
28.634865
 20
-6.495896
 30
0.0
 11
28.92076
 21
-6.56151
 31
0.0
  0
LWPOLYLINE
  5
275
330
363
100
AcDbEntity
  8
_0
  6
Continuous
 62
     7
370
    30
100
AcDbPolyline
 90
        7
 70
   128
 43
0.0
 10
26.649458
 20
-6.405396
 10
26.61576
 20
-6.418875
 10
26.609021
 20
-6.452583
 10
26.635979
 20
-6.466062
 10
26.656198
 20
-6.459323
 10
26.662937
 20
-6.439104
 10
26.669677
 20
-6.439104
  0
LWPOLYLINE
  5
276
330
363
100
AcDbEntity
  8
_0
  6
Continuous
 62
     7
370
    30
100
AcDbPolyline
 90
        7
 70
   128
 43
0.0
 10
26.635979
 20
-6.472802
 10
26.669677
 20
-6.499771
 10
26.62924
 20
-6.526729
 10
26.602281
 20
-6.526729
 10
26.602281
 20
-6.50651
 10
26.61576
 20
-6.493021
 10
26.635979
 20
-6.479542
  0
LWPOLYLINE
  5
277
330
363
100
AcDbEntity
  8
_0
  6
Continuous
 62
     7
370
    30
100
AcDbPolyline
 90
        3
 70
   128
 43
0.0
 10
26.61576
 20
-6.499771
 10
26.588802
 20
-6.486281
 10
26.602281
 20
-6.466062
  0
LWPOLYLINE
  5
278
330
363
100
AcDbEntity
  8
_0
  6
Continuous
 62
     7
370
    30
100
AcDbPolyline
 90
        5
 70
   128
 43
0.0
 10
26.676417
 20
-6.546948
 10
26.642719
 20
-6.560437
 10
26.62924
 20
-6.546948
 10
26.635979
 20
-6.533469
 10
26.635979
 20
-6.51999
  0
LWPOLYLINE
  5
279
330
363
100
AcDbEntity
  8
_0
  6
Continuous
 62
     7
370
    30
100
AcDbPolyline
 90
        5
 70
   128
 43
0.0
 10
26.602281
 20
-6.445844
 10
26.582062
 20
-6.472802
 10
26.561833
 20
-6.432354
 10
26.588802
 20
-6.412135
 10
26.61576
 20
-6.425615
  0
LWPOLYLINE
  5
27A
330
363
100
AcDbEntity
  8
_0
  6
Continuous
 62
     7
370
    30
100
AcDbPolyline
 90
        2
 70
   128
 43
0.0
 10
26.582062
 20
-6.418875
 10
26.575323
 20
-6.391917
  0
LWPOLYLINE
  5
27B
330
363
100
AcDbEntity
  8
_0
  6
Continuous
 62
     7
370
    30
100
AcDbPolyline
 90
        4
 70
   128
 43
0.0
 10
26.588802
 20
-6.526729
 10
26.568583
 20
-6.526729
 10
26.561833
 20
-6.51325
 10
26.582062
 20
-6.486281
  0
LWPOLYLINE
  5
27C
330
363
100
AcDbEntity
  8
_0
  6
Continuous
 62
     7
370
    30
100
AcDbPolyline
 90
        4
 70
   128
 43
0.0
 10
26.6225
 20
-6.560437
 10
26.595542
 20
-6.560437
 10
26.588802
 20
-6.546948
 10
26.595542
 20
-6.526729
  0
LWPOLYLINE
  5
27D
330
363
100
AcDbEntity
  8
_0
  6
Continuous
 62
     7
370
    30
100
AcDbPolyline
 90
        3
 70
   128
 43
0.0
 10
26.582062
 20
-6.553687
 10
26.561833
 20
-6.553687
 10
26.568583
 20
-6.526729
  0
LWPOLYLINE
  5
27E
330
363
100
AcDbEntity
  8
_0
  6
Continuous
 62
     7
370
    30
100
AcDbPolyline
 90
        6
 70
   128
 43
0.0
 10
26.521396
 20
-6.385177
 10
26.514656
 20
-6.425615
 10
26.494438
 20
-6.432354
 10
26.467479
 20
-6.418875
 10
26.467479
 20
-6.405396
 10
26.494438
 20
-6.385177
  0
LWPOLYLINE
  5
27F
330
363
100
AcDbEntity
  8
_0
  6
Continuous
 62
     7
370
    30
100
AcDbPolyline
 90
        6
 70
   128
 43
0.0
 10
26.494438
 20
-6.432354
 10
26.514656
 20
-6.452583
 10
26.514656
 20
-6.472802
 10
26.487698
 20
-6.479542
 10
26.487698
 20
-6.459323
 10
26.501177
 20
-6.445844
  0
LWPOLYLINE
  5
280
330
363
100
AcDbEntity
  8
_0
  6
Continuous
 62
     7
370
    30
100
AcDbPolyline
 90
        6
 70
   128
 43
0.0
 10
26.480958
 20
-6.493021
 10
26.507917
 20
-6.499771
 10
26.514656
 20
-6.526729
 10
26.487698
 20
-6.546948
 10
26.467479
 20
-6.526729
 10
26.480958
 20
-6.50651
  0
LWPOLYLINE
  5
281
330
363
100
AcDbEntity
  8
_0
  6
Continuous
 62
     7
370
    30
100
AcDbPolyline
 90
        7
 70
   128
 43
0.0
 10
26.474219
 20
-6.486281
 10
26.454
 20
-6.51999
 10
26.413552
 20
-6.50651
 10
26.413552
 20
-6.479542
 10
26.44725
 20
-6.445844
 10
26.467479
 20
-6.445844
 10
26.474219
 20
-6.472802
  0
LWPOLYLINE
  5
282
330
363
100
AcDbEntity
  8
_0
  6
Continuous
 62
     7
370
    30
100
AcDbPolyline
 90
        2
 70
   128
 43
0.0
 10
26.454
 20
-6.452583
 10
26.46074
 20
-6.418875
  0
LWPOLYLINE
  5
283
330
363
100
AcDbEntity
  8
_0
  6
Continuous
 62
     7
370
    30
100
AcDbPolyline
 90
        5
 70
   128
 43
0.0
 10
26.433771
 20
-6.452583
 10
26.406812
 20
-6.445844
 10
26.406812
 20
-6.391917
 10
26.433771
 20
-6.385177
 10
26.454
 20
-6.405396
  0
LWPOLYLINE
  5
284
330
363
100
AcDbEntity
  8
_0
  6
Continuous
 62
     7
370
    30
100
AcDbPolyline
 90
        4
 70
   128
 43
0.0
 10
26.406812
 20
-6.486281
 10
26.379854
 20
-6.479542
 10
26.379854
 20
-6.466062
 10
26.400073
 20
-6.452583
  0
LWPOLYLINE
  5
285
330
363
100
AcDbEntity
  8
_0
  6
Continuous
 62
     7
370
    30
100
AcDbPolyline
 90
        6
 70
   128
 43
0.0
 10
26.379854
 20
-6.479542
 10
26.312448
 20
-6.466062
 10
26.319187
 20
-6.425615
 10
26.359635
 20
-6.425615
 10
26.386594
 20
-6.445844
 10
26.379854
 20
-6.479542
  0
LWPOLYLINE
  5
286
330
363
100
AcDbEntity
  8
_0
  6
Continuous
 62
     7
370
    30
100
AcDbPolyline
 90
        3
 70
   128
 43
0.0
 10
26.359635
 20
-6.425615
 10
26.379854
 20
-6.412135
 10
26.406812
 20
-6.425615
  0
LWPOLYLINE
  5
287
330
363
100
AcDbEntity
  8
_0
  6
Continuous
 62
     7
370
    30
100
AcDbPolyline
 90
        3
 70
   128
 43
0.0
 10
26.346156
 20
-6.425615
 10
26.325927
 20
-6.391917
 10
26.352896
 20
-6.378437
  0
LWPOLYLINE
  5
288
330
363
100
AcDbEntity
  8
_0
  6
Continuous
 62
     7
370
    30
100
AcDbPolyline
 90
        2
 70
   128
 43
0.0
 10
26.400073
 20
-6.412135
 10
26.379854
 20
-6.385177
  0
LWPOLYLINE
  5
289
330
363
100
AcDbEntity
  8
_0
  6
Continuous
 62
     7
370
    30
100
AcDbPolyline
 90
        4
 70
   128
 43
0.0
 10
26.312448
 20
-6.445844
 10
26.28549
 20
-6.418875
 10
26.298969
 20
-6.412135
 10
26.325927
 20
-6.425615
  0
LWPOLYLINE
  5
28A
330
363
100
AcDbEntity
  8
_0
  6
Continuous
 62
     7
370
    30
100
AcDbPolyline
 90
        3
 70
   128
 43
0.0
 10
26.305708
 20
-6.418875
 10
26.28549
 20
-6.391917
 10
26.305708
 20
-6.371688
  0
LWPOLYLINE
  5
28B
330
363
100
AcDbEntity
  8
_0
  6
Continuous
 62
     7
370
    30
100
AcDbPolyline
 90
        4
 70
   128
 43
0.0
 10
26.359635
 20
-6.533469
 10
26.332667
 20
-6.533469
 10
26.325927
 20
-6.51999
 10
26.332667
 20
-6.499771
  0
LWPOLYLINE
  5
28C
330
363
100
AcDbEntity
  8
_0
  6
Continuous
 62
     7
370
    30
100
AcDbPolyline
 90
        5
 70
   128
 43
0.0
 10
26.413552
 20
-6.51999
 10
26.379854
 20
-6.533469
 10
26.366375
 20
-6.51999
 10
26.373115
 20
-6.50651
 10
26.373115
 20
-6.493021
  0
LINE
  5
28D
330
363
100
AcDbEntity
  8
_0
  6
Continuous
 62
     7
370
    30
100
AcDbLine
 10
26.339417
 20
-6.50651
 30
0.0
 11
26.373115
 21
-6.51325
 31
0.0
  0
LINE
  5
28E
330
363
100
AcDbEntity
  8
_0
  6
Continuous
 62
     7
370
    30
100
AcDbLine
 10
26.332667
 20
-6.50651
 30
0.0
 11
26.319187
 21
-6.459323
 31
0.0
  0
LINE
  5
28F
330
363
100
AcDbEntity
  8
DIM
  6
Continuous
 62
     7
370
    13
100
AcDbLine
 10
26.37524
 20
-4.563365
 30
0.0
 11
26.37524
 21
-3.790865
 31
0.0
  0
LINE
  5
290
330
363
100
AcDbEntity
  8
DEFPOINTS
  6
Continuous
 62
     7
370
    30
100
AcDbLine
 10
26.29574
 20
-4.563365
 30
0.0
 11
26.29574
 21
-4.563365
 31
0.0
  0
LINE
  5
291
330
363
100
AcDbEntity
  8
DIM
  6
Continuous
 62
     7
370
    13
100
AcDbLine
 10
26.669865
 20
-3.414813
 30
0.0
 11
26.669865
 21
-3.028125
 31
0.0
  0
LINE
  5
292
330
363
100
AcDbEntity
  8
DIM
  6
Continuous
 62
     7
370
    13
100
AcDbLine
 10
26.584865
 20
-3.028125
 30
0.0
 11
26.584865
 21
-3.329323
 31
0.0
  0
LINE
  5
293
330
363
100
AcDbEntity
  8
DIM
  6
Continuous
 62
     7
370
    13
100
AcDbLine
 10
26.669865
 20
-3.149323
 30
0.0
 11
27.069865
 21
-3.149323
 31
0.0
  0
LINE
  5
294
330
363
100
AcDbEntity
  8
DIM
  6
Continuous
 62
     7
370
    13
100
AcDbLine
 10
26.584865
 20
-3.149323
 30
0.0
 11
26.184865
 21
-3.149323
 31
0.0
  0
LINE
  5
295
330
363
100
AcDbEntity
  8
DIM
  6
Continuous
 62
     7
370
    30
100
AcDbLine
 10
26.709865
 20
-4.239615
 30
0.0
 11
26.709865
 21
-4.419375
 31
0.0
  0
LINE
  5
296
330
363
100
AcDbEntity
  8
DIM
  6
Continuous
 62
     7
370
    30
100
AcDbLine
 10
28.594865
 20
-4.239615
 30
0.0
 11
28.594865
 21
-4.419375
 31
0.0
  0
LINE
  5
297
330
363
100
AcDbEntity
  8
DIM
  6
Continuous
 62
     7
370
    13
100
AcDbLine
 10
26.709865
 20
-4.239375
 30
0.0
 11
28.594865
 21
-4.239375
 31
0.0
  0
LINE
  5
298
330
363
100
AcDbEntity
  8
DEFPOINTS
  6
Continuous
 62
     7
370
    30
100
AcDbLine
 10
26.709865
 20
-4.177115
 30
0.0
 11
26.709865
 21
-4.177115
 31
0.0
  0
LINE
  5
299
330
363
100
AcDbEntity
  8
DEFPOINTS
  6
Continuous
 62
     7
370
    30
100
AcDbLine
 10
28.594865
 20
-4.177115
 30
0.0
 11
28.594865
 21
-4.177115
 31
0.0
  0
LINE
  5
29A
330
363
100
AcDbEntity
  8
DEFPOINTS
  6
Continuous
 62
     7
370
    30
100
AcDbLine
 10
28.594865
 20
-4.239375
 30
0.0
 11
28.594865
 21
-4.239375
 31
0.0
  0
LINE
  5
29B
330
363
100
AcDbEntity
  8
REF
  6
Continuous
 62
     7
370
    13
100
AcDbLine
 10
26.584865
 20
-6.84599
 30
0.0
 11
26.758677
 21
-7.22299
 31
0.0
  0
LINE
  5
29C
330
363
100
AcDbEntity
  8
REF
  6
Continuous
 62
     7
370
    13
100
AcDbLine
 10
26.888
 20
-7.22299
 30
0.0
 11
26.758677
 21
-7.22299
 31
0.0
  0
LINE
  5
29D
330
363
100
AcDbEntity
  8
DIM
  6
Continuous
 62
     7
370
    13
100
AcDbLine
 10
27.589219
 20
-5.730896
 30
0.0
 11
27.589219
 21
-6.495896
 31
0.0
  0
LINE
  5
29E
330
363
100
AcDbEntity
  8
DEFPOINTS
  6
Continuous
 62
     7
370
    30
100
AcDbLine
 10
27.589219
 20
-6.495896
 30
0.0
 11
27.589219
 21
-6.495896
 31
0.0
  0
LINE
  5
29F
330
363
100
AcDbEntity
  8
_0
  6
Continuous
 62
     7
370
    30
100
AcDbLine
 10
27.556844
 20
-6.658865
 30
0.0
 11
27.409219
 21
-6.658865
 31
0.0
  0
LINE
  5
2A0
330
363
100
AcDbEntity
  8
DIM
  6
Continuous
 62
     7
370
    13
100
AcDbLine
 10
27.589219
 20
-6.695896
 30
0.0
 11
27.589219
 21
-7.015552
 31
0.0
  0
LINE
  5
2A1
330
363
100
AcDbEntity
  8
DIM
  6
Continuous
 62
     7
370
    13
100
AcDbLine
 10
28.880604
 20
-6.495896
 30
0.0
 11
28.880604
 21
-5.970896
 31
0.0
  0
LINE
  5
2A2
330
363
100
AcDbEntity
  8
_0
  6
Continuous
 62
     7
370
    30
100
AcDbLine
 10
29.166135
 20
-5.581375
 30
0.0
 11
29.393729
 21
-5.581375
 31
0.0
  0
LINE
  5
2A3
330
363
100
AcDbEntity
  8
DIM
  6
Continuous
 62
     7
370
    13
100
AcDbLine
 10
26.333521
 20
-5.730896
 30
0.0
 11
26.333521
 21
-5.230896
 31
0.0
  0
LINE
  5
2A4
330
363
100
AcDbEntity
  8
_0
  6
Continuous
 62
     7
370
    30
100
AcDbLine
 10
31.142906
 20
-7.011365
 30
0.0
 11
31.37049
 21
-7.011365
 31
0.0
  0
LINE
  5
2B6
330
363
100
AcDbEntity
  8
_0
  6
Continuous
 62
     7
370
    30
100
AcDbLine
 10
33.25
 20
-1.918458
 30
0.0
 11
33.25
 21
-2.125
 31
0.0
  0
LINE
  5
2B7
330
363
100
AcDbEntity
  8
_0
  6
Continuous
 62
     7
370
    30
100
AcDbLine
 10
25.25
 20
-1.918458
 30
0.0
 11
25.25
 21
-2.125
 31
0.0
  0
LINE
  5
2B8
330
363
100
AcDbEntity
  8
_0
  6
Continuous
 62
     7
370
    30
100
AcDbLine
 10
33.456542
 20
-2.125
 30
0.0
 11
33.25
 21
-2.125
 31
0.0
  0
LINE
  5
2B9
330
363
100
AcDbEntity
  8
_0
  6
Continuous
 62
     7
370
    30
100
AcDbLine
 10
33.456542
 20
-12.875
 30
0.0
 11
33.25
 21
-12.875
 31
0.0
  0
LINE
  5
2BA
330
363
100
AcDbEntity
  8
_0
  6
Continuous
 62
     7
370
    30
100
AcDbLine
 10
25.25
 20
-2.125
 30
0.0
 11
25.043458
 21
-2.125
 31
0.0
  0
LINE
  5
2BB
330
363
100
AcDbEntity
  8
_0
  6
Continuous
 62
     7
370
    30
100
AcDbLine
 10
33.25
 20
-12.875
 30
0.0
 11
33.25
 21
-13.081542
 31
0.0
  0
LINE
  5
2BC
330
363
100
AcDbEntity
  8
_0
  6
Continuous
 62
     7
370
    30
100
AcDbLine
 10
25.25
 20
-12.875
 30
0.0
 11
25.25
 21
-13.081542
 31
0.0
  0
LINE
  5
2BD
330
363
100
AcDbEntity
  8
_0
  6
Continuous
 62
     7
370
    30
100
AcDbLine
 10
25.25
 20
-12.875
 30
0.0
 11
25.043458
 21
-12.875
 31
0.0
  0
LINE
  5
2C0
330
363
100
AcDbEntity
  8
DIM
  6
Continuous
 62
     7
370
    30
100
AcDbLine
 10
26.783238
 20
-7.701437
 30
0.0
 11
28.426431
 21
-7.701437
 31
0.0
  0
LINE
  5
2C1
330
363
100
AcDbEntity
  8
DIM
  6
Continuous
 62
     7
370
    30
100
AcDbLine
 10
30.034736
 20
-7.691208
 30
0.0
 11
32.058201
 21
-7.691208
 31
0.0
  0
LINE
  5
2C2
330
363
100
AcDbEntity
  8
DIM
  6
Continuous
 62
     7
370
    30
100
AcDbLine
 10
27.125134
 20
-4.971292
 30
0.0
 11
27.976384
 21
-4.971292
 31
0.0
  0
INSERT
  5
2C3
330
363
100
AcDbEntity
  8
HATCH
  6
Continuous
 62
     7
370
    13
100
AcDbBlockReference
  2
LARROW
 10
26.584865
 20
-3.149323
 30
0.0
 41
12.0
 42
12.0
 43
12.0
  0
INSERT
  5
2C5
330
363
100
AcDbEntity
  8
HATCH
  6
Continuous
 62
     7
370
    13
100
AcDbBlockReference
  2
LARROW
 10
26.669865
 20
-3.149323
 30
0.0
 41
12.0
 42
12.0
 43
12.0
 50
180.0
  0
INSERT
  5
2C7
330
363
100
AcDbEntity
  8
HATCH
  6
Continuous
 62
     7
370
    13
100
AcDbBlockReference
  2
LARROW
 10
26.37524
 20
-3.790865
 30
0.0
 41
12.0
 42
12.0
 43
12.0
 50
90.0
  0
INSERT
  5
2C9
330
363
100
AcDbEntity
  8
HATCH
  6
Continuous
 62
     7
370
    13
100
AcDbBlockReference
  2
LARROW
 10
26.37524
 20
-4.563365
 30
0.0
 41
12.0
 42
12.0
 43
12.0
 50
270.0
  0
INSERT
  5
2CB
330
363
100
AcDbEntity
  8
HATCH
  6
Continuous
 62
     7
370
    13
100
AcDbBlockReference
  2
LARROW
 10
26.709865
 20
-4.239375
 30
0.0
 41
12.0
 42
12.0
 43
12.0
 50
180.0
  0
INSERT
  5
2CD
330
363
100
AcDbEntity
  8
HATCH
  6
Continuous
 62
     7
370
    13
100
AcDbBlockReference
  2
LARROW
 10
28.594865
 20
-4.239375
 30
0.0
 41
12.0
 42
12.0
 43
12.0
  0
INSERT
  5
2CF
330
363
100
AcDbEntity
  8
HATCH
  6
Continuous
 62
     7
370
    13
100
AcDbBlockReference
  2
LARROW
 10
26.333521
 20
-5.230896
 30
0.0
 41
12.0
 42
12.0
 43
12.0
 50
90.0
  0
INSERT
  5
2D1
330
363
100
AcDbEntity
  8
HATCH
  6
Continuous
 62
     7
370
    13
100
AcDbBlockReference
  2
LARROW
 10
26.333521
 20
-5.730896
 30
0.0
 41
12.0
 42
12.0
 43
12.0
 50
270.0
  0
INSERT
  5
2D3
330
363
100
AcDbEntity
  8
HATCH
  6
Continuous
 62
     7
370
    13
100
AcDbBlockReference
  2
LARROW
 10
27.589219
 20
-6.695896
 30
0.0
 41
12.0
 42
12.0
 43
12.0
 50
90.0
  0
INSERT
  5
2D5
330
363
100
AcDbEntity
  8
HATCH
  6
Continuous
 62
     7
370
    13
100
AcDbBlockReference
  2
LARROW
 10
27.589219
 20
-6.495896
 30
0.0
 41
12.0
 42
12.0
 43
12.0
 50
270.0
  0
INSERT
  5
2D7
330
363
100
AcDbEntity
  8
HATCH
  6
Continuous
 62
     7
370
    13
100
AcDbBlockReference
  2
LARROW
 10
27.589219
 20
-5.730896
 30
0.0
 41
12.0
 42
12.0
 43
12.0
 50
90.0
  0
INSERT
  5
2D9
330
363
100
AcDbEntity
  8
HATCH
  6
Continuous
 62
     7
370
    13
100
AcDbBlockReference
  2
LARROW
 10
28.880604
 20
-6.495896
 30
0.0
 41
12.0
 42
12.0
 43
12.0
 50
270.0
  0
INSERT
  5
2DB
330
363
100
AcDbEntity
  8
HATCH
  6
Continuous
 62
     7
370
    13
100
AcDbBlockReference
  2
LARROW
 10
28.880604
 20
-5.970896
 30
0.0
 41
12.0
 42
12.0
 43
12.0
 50
90.0
  0
INSERT
  5
2E0
330
363
100
AcDbEntity
  8
HATCH
  6
Continuous
 62
     7
370
    13
100
AcDbBlockReference
  2
LARROW
 10
-26.584865
 20
-6.84599
 30
0.0
 41
12.000002
 42
12.000002
 43
12.000002
 50
65.248488
210
0.0
220
0.0
230
-1.0
  0
LINE
  5
2E2
330
363
100
AcDbEntity
  8
_0
  6
Continuous
 62
     7
370
    13
100
AcDbLine
 10
26.383958
 20
-6.824729
 30
0.0
 11
26.457271
 21
-6.824729
 31
0.0
  0
LINE
  5
2E3
330
363
100
AcDbEntity
  8
_0
  6
Continuous
 62
     7
370
    13
100
AcDbLine
 10
26.457271
 20
-6.824729
 30
0.0
 11
26.390073
 21
-6.452208
 31
0.0
  0
INSERT
  5
2E4
330
363
100
AcDbEntity
  8
_0
  6
Continuous
 62
     7
370
    13
100
AcDbBlockReference
  2
LARROW_1
 10
26.390073
 20
-6.452208
 30
0.0
 41
12.000003
 42
12.000003
 43
12.000003
 50
100.225456
  0
LINE
  5
2F3
330
363
100
AcDbEntity
  8
DIM
  6
Continuous
 62
     7
370
    13
100
AcDbLine
 10
26.607198
 20
-3.723906
 30
0.0
 11
26.799344
 21
-3.572094
 31
0.0
  0
LINE
  5
2F4
330
363
100
AcDbEntity
  8
DIM
  6
Continuous
 62
     7
370
    13
100
AcDbLine
 10
26.799344
 20
-3.572094
 30
0.0
 11
26.850854
 21
-3.572094
 31
0.0
  0
INSERT
  5
2F5
330
363
100
AcDbEntity
  8
DIM
  6
Continuous
 62
     7
370
    13
100
AcDbBlockReference
  2
LARROW_2
 10
26.607198
 20
-3.723906
 30
0.0
 41
8.999999
 42
8.999999
 43
8.999999
 50
218.311916
  0
TEXT
  5
63
330
363
100
AcDbEntity
  8
TEXT
  6
Continuous
 62
     7
370
    30
100
AcDbText
 10
27.575053
 20
-11.823094
 30
0.0
 40
0.12
  1
TYPICAL CHECK DAM
 41
0.833333
  7
Style-Arial
 11
27.575053
 21
-11.763094
 31
0.0
100
AcDbText
 73
     2
  0
TEXT
  5
64
330
363
100
AcDbEntity
  8
BORDER
  6
Continuous
 62
     7
370
    30
100
AcDbText
 10
30.902011
 20
-11.906427
 30
0.0
 40
0.12
  1
AUG 1992
 41
0.833333
  7
Style-Arial
 11
30.902011
 21
-11.846427
 31
0.0
100
AcDbText
 73
     2
  0
TEXT
  5
65
330
363
100
AcDbEntity
  8
BORDER
  6
Continuous
 62
     7
370
    30
100
AcDbText
 10
31.030106
 20
-11.717822
 30
0.0
 40
0.12
  1
DATE
 41
0.833333
  7
Style-Arial
 11
31.030106
 21
-11.657822
 31
0.0
100
AcDbText
 73
     2
  0
TEXT
  5
66
330
363
100
AcDbEntity
  8
BORDER
  6
Continuous
 62
     7
370
    30
100
AcDbText
 10
32.219395
 20
-11.906427
 30
0.0
 40
0.12
  1
2-35t
 41
0.833333
  7
Style-Arial
 11
32.219395
 21
-11.846427
 31
0.0
100
AcDbText
 73
     2
  0
TEXT
  5
67
330
363
100
AcDbEntity
  8
BORDER
  6
Continuous
 62
     7
370
    30
100
AcDbText
 10
32.115964
 20
-11.713833
 30
0.0
 40
0.12
  1
FIGURE
 41
0.833333
  7
Style-Arial
 11
32.115964
 21
-11.653833
 31
0.0
100
AcDbText
 73
     2
  0
TEXT
  5
77
330
363
100
AcDbEntity
  8
_0
  6
Continuous
 62
     7
370
    30
100
AcDbText
 10
29.682409
 20
-3.28474
 30
0.0
 40
0.12
  1
7
 41
0.833333
  7
Style-Arial
 11
29.682409
 21
-3.22474
 31
0.0
100
AcDbText
 73
     2
  0
TEXT
  5
78
330
363
100
AcDbEntity
  8
_0
  6
Continuous
 62
     7
370
    30
100
AcDbText
 10
29.679575
 20
-3.598802
 30
0.0
 40
0.12
  1
6
 41
0.833333
  7
Style-Arial
 11
29.679575
 21
-3.538802
 31
0.0
100
AcDbText
 73
     2
  0
TEXT
  5
79
330
363
100
AcDbEntity
  8
_0
  6
Continuous
 62
     7
370
    30
100
AcDbText
 10
29.682409
 20
-3.912865
 30
0.0
 40
0.12
  1
5
 41
0.833333
  7
Style-Arial
 11
29.682409
 21
-3.852865
 31
0.0
100
AcDbText
 73
     2
  0
TEXT
  5
7A
330
363
100
AcDbEntity
  8
_0
  6
Continuous
 62
     7
370
    30
100
AcDbText
 10
29.688078
 20
-4.223271
 30
0.0
 40
0.12
  1
4
 41
0.833333
  7
Style-Arial
 11
29.688078
 21
-4.163271
 31
0.0
100
AcDbText
 73
     2
  0
TEXT
  5
7B
330
363
100
AcDbEntity
  8
_0
  6
Continuous
 62
     7
370
    30
100
AcDbText
 10
29.682409
 20
-4.537333
 30
0.0
 40
0.12
  1
3
 41
0.833333
  7
Style-Arial
 11
29.682409
 21
-4.477333
 31
0.0
100
AcDbText
 73
     2
  0
TEXT
  5
7C
330
363
100
AcDbEntity
  8
_0
  6
Continuous
 62
     7
370
    30
100
AcDbText
 10
29.682409
 20
-4.84775
 30
0.0
 40
0.12
  1
2
 41
0.833333
  7
Style-Arial
 11
29.682409
 21
-4.78775
 31
0.0
100
AcDbText
 73
     2
  0
TEXT
  5
7D
330
363
100
AcDbEntity
  8
_0
  6
Continuous
 62
     7
370
    30
100
AcDbText
 10
29.870273
 20
-4.984156
 30
0.0
 40
0.12
  1
0
 41
0.833333
  7
Style-Arial
 11
29.870273
 21
-4.924156
 31
0.0
100
AcDbText
 73
     2
  0
TEXT
  5
7E
330
363
100
AcDbEntity
  8
_0
  6
Continuous
 62
     7
370
    30
100
AcDbText
 10
30.188635
 20
-4.984156
 30
0.0
 40
0.12
  1
1
 41
0.833333
  7
Style-Arial
 11
30.188635
 21
-4.924156
 31
0.0
100
AcDbText
 73
     2
  0
TEXT
  5
7F
330
363
100
AcDbEntity
  8
_0
  6
Continuous
 62
     7
370
    30
100
AcDbText
 10
30.499596
 20
-4.984156
 30
0.0
 40
0.12
  1
2
 41
0.833333
  7
Style-Arial
 11
30.499596
 21
-4.924156
 31
0.0
100
AcDbText
 73
     2
  0
TEXT
  5
80
330
363
100
AcDbEntity
  8
_0
  6
Continuous
 62
     7
370
    30
100
AcDbText
 10
30.813721
 20
-4.984156
 30
0.0
 40
0.12
  1
3
 41
0.833333
  7
Style-Arial
 11
30.813721
 21
-4.924156
 31
0.0
100
AcDbText
 73
     2
  0
TEXT
  5
81
330
363
100
AcDbEntity
  8
_0
  6
Continuous
 62
     7
370
    30
100
AcDbText
 10
32.377023
 20
-4.984156
 30
0.0
 40
0.12
  1
8
 41
0.833333
  7
Style-Arial
 11
32.377023
 21
-4.924156
 31
0.0
100
AcDbText
 73
     2
  0
TEXT
  5
82
330
363
100
AcDbEntity
  8
_0
  6
Continuous
 62
     7
370
    30
100
AcDbText
 10
32.062909
 20
-4.984156
 30
0.0
 40
0.12
  1
7
 41
0.833333
  7
Style-Arial
 11
32.062909
 21
-4.924156
 31
0.0
100
AcDbText
 73
     2
  0
TEXT
  5
83
330
363
100
AcDbEntity
  8
_0
  6
Continuous
 62
     7
370
    30
100
AcDbText
 10
31.749596
 20
-4.984156
 30
0.0
 40
0.12
  1
6
 41
0.833333
  7
Style-Arial
 11
31.749596
 21
-4.924156
 31
0.0
100
AcDbText
 73
     2
  0
TEXT
  5
84
330
363
100
AcDbEntity
  8
_0
  6
Continuous
 62
     7
370
    30
100
AcDbText
 10
31.438315
 20
-4.984156
 30
0.0
 40
0.12
  1
5
 41
0.833333
  7
Style-Arial
 11
31.438315
 21
-4.924156
 31
0.0
100
AcDbText
 73
     2
  0
TEXT
  5
85
330
363
100
AcDbEntity
  8
_0
  6
Continuous
 62
     7
370
    30
100
AcDbText
 10
31.133505
 20
-4.984156
 30
0.0
 40
0.12
  1
4
 41
0.833333
  7
Style-Arial
 11
31.133505
 21
-4.924156
 31
0.0
100
AcDbText
 73
     2
  0
TEXT
  5
88
330
363
100
AcDbEntity
  8
_0
  6
Continuous
 62
     7
370
    30
100
AcDbText
 10
31.133505
 20
-6.816542
 30
0.0
 40
0.12
  1
4
 41
0.833333
  7
Style-Arial
 11
31.133505
 21
-6.756542
 31
0.0
100
AcDbText
 73
     2
  0
TEXT
  5
89
330
363
100
AcDbEntity
  8
_0
  6
Continuous
 62
     7
370
    30
100
AcDbText
 10
31.438315
 20
-6.816542
 30
0.0
 40
0.12
  1
5
 41
0.833333
  7
Style-Arial
 11
31.438315
 21
-6.756542
 31
0.0
100
AcDbText
 73
     2
  0
TEXT
  5
8A
330
363
100
AcDbEntity
  8
_0
  6
Continuous
 62
     7
370
    30
100
AcDbText
 10
31.749596
 20
-6.816542
 30
0.0
 40
0.12
  1
6
 41
0.833333
  7
Style-Arial
 11
31.749596
 21
-6.756542
 31
0.0
100
AcDbText
 73
     2
  0
TEXT
  5
8B
330
363
100
AcDbEntity
  8
_0
  6
Continuous
 62
     7
370
    30
100
AcDbText
 10
32.062909
 20
-6.816542
 30
0.0
 40
0.12
  1
7
 41
0.833333
  7
Style-Arial
 11
32.062909
 21
-6.756542
 31
0.0
100
AcDbText
 73
     2
  0
TEXT
  5
8C
330
363
100
AcDbEntity
  8
_0
  6
Continuous
 62
     7
370
    30
100
AcDbText
 10
32.377023
 20
-6.816542
 30
0.0
 40
0.12
  1
8
 41
0.833333
  7
Style-Arial
 11
32.377023
 21
-6.756542
 31
0.0
100
AcDbText
 73
     2
  0
TEXT
  5
8D
330
363
100
AcDbEntity
  8
_0
  6
Continuous
 62
     7
370
    30
100
AcDbText
 10
30.813721
 20
-6.816542
 30
0.0
 40
0.12
  1
3
 41
0.833333
  7
Style-Arial
 11
30.813721
 21
-6.756542
 31
0.0
100
AcDbText
 73
     2
  0
TEXT
  5
8E
330
363
100
AcDbEntity
  8
_0
  6
Continuous
 62
     7
370
    30
100
AcDbText
 10
30.499596
 20
-6.816542
 30
0.0
 40
0.12
  1
2
 41
0.833333
  7
Style-Arial
 11
30.499596
 21
-6.756542
 31
0.0
100
AcDbText
 73
     2
  0
TEXT
  5
8F
330
363
100
AcDbEntity
  8
_0
  6
Continuous
 62
     7
370
    30
100
AcDbText
 10
30.188635
 20
-6.816542
 30
0.0
 40
0.12
  1
1
 41
0.833333
  7
Style-Arial
 11
30.188635
 21
-6.756542
 31
0.0
100
AcDbText
 73
     2
  0
TEXT
  5
90
330
363
100
AcDbEntity
  8
_0
  6
Continuous
 62
     7
370
    30
100
AcDbText
 10
29.870273
 20
-6.816542
 30
0.0
 40
0.12
  1
0
 41
0.833333
  7
Style-Arial
 11
29.870273
 21
-6.756542
 31
0.0
100
AcDbText
 73
     2
  0
TEXT
  5
91
330
363
100
AcDbEntity
  8
_0
  6
Continuous
 62
     7
370
    30
100
AcDbText
 10
29.657182
 20
-6.690542
 30
0.0
 40
0.12
  1
0.1
 41
0.833333
  7
Style-Arial
 11
29.657182
 21
-6.630542
 31
0.0
100
AcDbText
 73
     2
  0
TEXT
  5
92
330
363
100
AcDbEntity
  8
_0
  6
Continuous
 62
     7
370
    30
100
AcDbText
 10
29.657664
 20
-6.380135
 30
0.0
 40
0.12
  1
0.2
 41
0.833333
  7
Style-Arial
 11
29.657664
 21
-6.320135
 31
0.0
100
AcDbText
 73
     2
  0
TEXT
  5
93
330
363
100
AcDbEntity
  8
_0
  6
Continuous
 62
     7
370
    30
100
AcDbText
 10
29.657664
 20
-6.066073
 30
0.0
 40
0.12
  1
0.3
 41
0.833333
  7
Style-Arial
 11
29.657664
 21
-6.006073
 31
0.0
100
AcDbText
 73
     2
  0
TEXT
  5
94
330
363
100
AcDbEntity
  8
_0
  6
Continuous
 62
     7
370
    30
100
AcDbText
 10
29.663333
 20
-5.755656
 30
0.0
 40
0.12
  1
0.4
 41
0.833333
  7
Style-Arial
 11
29.663333
 21
-5.695656
 31
0.0
100
AcDbText
 73
     2
  0
TEXT
  5
95
330
363
100
AcDbEntity
  8
_0
  6
Continuous
 62
     7
370
    30
100
AcDbText
 10
29.657664
 20
-5.441594
 30
0.0
 40
0.12
  1
0.5
 41
0.833333
  7
Style-Arial
 11
29.657664
 21
-5.381594
 31
0.0
100
AcDbText
 73
     2
  0
TEXT
  5
96
330
363
100
AcDbEntity
  8
_0
  6
Continuous
 62
     7
370
    30
100
AcDbText
 10
29.654831
 20
-5.127531
 30
0.0
 40
0.12
  1
0.6
 41
0.833333
  7
Style-Arial
 11
29.654831
 21
-5.067531
 31
0.0
100
AcDbText
 73
     2
  0
TEXT
  5
A8
330
363
100
AcDbEntity
  8
_0
  6
Continuous
 62
     7
370
    30
100
AcDbText
 10
29.333305
 20
-5.749732
 30
0.0
 40
0.12
  1
c
 41
0.833333
  7
Style-Arial
 11
29.333305
 21
-5.689732
 31
0.0
100
AcDbText
 73
     2
  0
TEXT
  5
A9
330
363
100
AcDbEntity
  8
_0
  6
Continuous
 62
     7
370
    30
100
AcDbText
 10
29.238828
 20
-5.721406
 30
0.0
 40
0.12
  1
d
 41
0.833333
  7
Style-Arial
 11
29.238828
 21
-5.661406
 31
0.0
100
AcDbText
 73
     2
  0
TEXT
  5
AA
330
363
100
AcDbEntity
  8
_0
  6
Continuous
 62
     7
370
    30
100
AcDbText
 10
29.248362
 20
-5.556094
 30
0.0
 40
0.12
  1
h'
 41
0.833333
  7
Style-Arial
 11
29.248362
 21
-5.496094
 31
0.0
100
AcDbText
 73
     2
  0
TEXT
  5
AB
330
363
100
AcDbEntity
  8
_0
  6
Continuous
 62
     7
370
    30
100
AcDbText
 10
29.372551
 20
-3.964729
 30
0.0
 40
0.12
  1
L
 41
0.833333
  7
Style-Arial
 11
29.372551
 21
-3.904729
 31
0.0
100
AcDbText
 73
     2
  0
TEXT
  5
AC
330
363
100
AcDbEntity
  8
_0
  6
Continuous
 62
     7
370
    30
100
AcDbText
 10
29.33456
 20
-4.162186
 30
0.0
 40
0.12
  1
hd
 41
0.833333
  7
Style-Arial
 11
29.33456
 21
-4.102186
 31
0.0
100
AcDbText
 73
     2
  0
TEXT
  5
AE
330
363
100
AcDbEntity
  8
_0
  6
Continuous
 62
     7
370
    30
100
AcDbText
 10
29.494858
 20
-4.203208
 30
0.0
 40
0.12
  1
c
 41
0.833333
  7
Style-Arial
 11
29.494858
 21
-4.143208
 31
0.0
100
AcDbText
 73
     2
  0
TEXT
  5
B3
330
363
100
AcDbEntity
  8
_0
  6
Continuous
 62
     7
370
    30
100
AcDbText
 10
28.948533
 20
-4.039453
 30
0.0
 40
0.12
  1
C =
 41
0.833333
  7
Style-Arial
 11
28.948533
 21
-3.979453
 31
0.0
100
AcDbText
 73
     2
  0
TEXT
  5
B4
330
363
100
AcDbEntity
  8
_0
  6
Continuous
 62
     7
370
    30
100
AcDbText
 10
29.043703
 20
-4.134833
 30
0.0
 40
0.12
  1
L
 41
0.833333
  7
Style-Arial
 11
29.043703
 21
-4.074833
 31
0.0
100
AcDbText
 73
     2
  0
TEXT
  5
CC
330
363
100
AcDbEntity
  8
DIM
  6
Continuous
 62
     7
370
    30
100
AcDbText
 10
26.894187
 20
-3.630116
 30
0.0
 40
0.12
  1
R = 0.6 d
 41
0.833333
  7
Style-Arial
 11
26.894187
 21
-3.570116
 31
0.0
100
AcDbText
 73
     2
  0
TEXT
  5
CD
330
363
100
AcDbEntity
  8
DIM
  6
Continuous
 62
     7
370
    30
100
AcDbText
 10
27.491288
 20
-3.655937
 30
0.0
 40
0.12
  1
c
 41
0.833333
  7
Style-Arial
 11
27.491288
 21
-3.595937
 31
0.0
100
AcDbText
 73
     2
  0
TEXT
  5
CE
330
363
100
AcDbEntity
  8
DIM
  6
Continuous
 62
     7
370
    30
100
AcDbText
 10
27.095792
 20
-3.206406
 30
0.0
 40
0.12
  1
0.5 d
 41
0.833333
  7
Style-Arial
 11
27.095792
 21
-3.146406
 31
0.0
100
AcDbText
 73
     2
  0
TEXT
  5
CF
330
363
100
AcDbEntity
  8
DIM
  6
Continuous
 62
     7
370
    30
100
AcDbText
 10
27.436808
 20
-3.225305
 30
0.0
 40
0.12
  1
c
 41
0.833333
  7
Style-Arial
 11
27.436808
 21
-3.165305
 31
0.0
100
AcDbText
 73
     2
  0
TEXT
  5
D1
330
363
100
AcDbEntity
  8
_0
  6
Continuous
 62
     7
370
    30
100
AcDbText
 10
26.318831
 20
-4.326589
 30
0.0
 40
0.12
  1
0.5 W
 50
90.0
 41
0.833333
  7
Style-Arial
 11
26.258831
 21
-4.326589
 31
0.0
100
AcDbText
 73
     2
  0
TEXT
  5
D2
330
363
100
AcDbEntity
  8
DIM
  6
Continuous
 62
     7
370
    30
100
AcDbText
 10
27.652365
 20
-4.189824
 30
0.0
 40
0.12
  1
L
 41
0.833333
  7
Style-Arial
 11
27.652365
 21
-4.129824
 31
0.0
100
AcDbText
 73
     2
  0
TEXT
  5
DA
330
363
100
AcDbEntity
  8
DIM
  6
Continuous
 62
     7
370
    30
100
AcDbText
 10
27.527029
 20
-6.136764
 30
0.0
 40
0.12
  1
h
 50
90.0
 41
0.833333
  7
Style-Arial
 11
27.467029
 21
-6.136764
 31
0.0
100
AcDbText
 73
     2
  0
TEXT
  5
DC
330
363
100
AcDbEntity
  8
DIM
  6
Continuous
 62
     7
370
    30
100
AcDbText
 10
27.621225
 20
-6.621824
 30
0.0
 40
0.12
  1
h'
 50
90.0
 41
0.833333
  7
Style-Arial
 11
27.561225
 21
-6.621824
 31
0.0
100
AcDbText
 73
     2
  0
TEXT
  5
DF
330
363
100
AcDbEntity
  8
DIM
  6
Continuous
 62
     7
370
    30
100
AcDbText
 10
29.112927
 20
-6.459751
 30
0.0
 40
0.12
  1
1.67 d
 50
90.0
 41
0.833333
  7
Style-Arial
 11
29.052927
 21
-6.459751
 31
0.0
100
AcDbText
 73
     2
  0
TEXT
  5
E0
330
363
100
AcDbEntity
  8
DIM
  6
Continuous
 62
     7
370
    30
100
AcDbText
 10
29.154927
 20
-6.053203
 30
0.0
 40
0.12
  1
c
 50
90.0
 41
0.833333
  7
Style-Arial
 11
29.094927
 21
-6.053203
 31
0.0
100
AcDbText
 73
     2
  0
TEXT
  5
E3
330
363
100
AcDbEntity
  8
DIM
  6
Continuous
 62
     7
370
    30
100
AcDbText
 10
26.200624
 20
-5.675543
 30
0.0
 40
0.12
  1
1.5 d
 50
90.0
 41
0.833333
  7
Style-Arial
 11
26.140624
 21
-5.675543
 31
0.0
100
AcDbText
 73
     2
  0
TEXT
  5
E4
330
363
100
AcDbEntity
  8
DIM
  6
Continuous
 62
     7
370
    30
100
AcDbText
 10
26.253642
 20
-5.344413
 30
0.0
 40
0.12
  1
c
 50
90.0
 41
0.833333
  7
Style-Arial
 11
26.193642
 21
-5.344413
 31
0.0
100
AcDbText
 73
     2
  0
TEXT
  5
E5
330
363
100
AcDbEntity
  8
DIM
  6
Continuous
 62
     7
370
    30
100
AcDbText
 10
26.034859
 20
-5.905112
 30
0.0
 40
0.12
  1
FREEBOARD
 50
90.0
 41
0.833333
  7
Style-Arial
 11
25.974859
 21
-5.905112
 31
0.0
100
AcDbText
 73
     2
  0
TEXT
  5
E6
330
363
100
AcDbEntity
  8
REF
  6
Continuous
 62
     7
370
    30
100
AcDbText
 10
26.880696
 20
-5.700909
 30
0.0
 40
0.12
  1
CREST
 41
0.833333
  7
Style-Arial
 11
26.880696
 21
-5.640909
 31
0.0
100
AcDbText
 73
     2
  0
TEXT
  5
E7
330
363
100
AcDbEntity
  8
REF
  6
Continuous
 62
     7
370
    30
100
AcDbText
 10
26.933146
 20
-7.265354
 30
0.0
 40
0.12
  1
CUTOFF
 41
0.833333
  7
Style-Arial
 11
26.933146
 21
-7.205354
 31
0.0
100
AcDbText
 73
     2
  0
TEXT
  5
E8
330
363
100
AcDbEntity
  8
REF
  6
Continuous
 62
     7
370
    30
100
AcDbText
 10
27.039767
 20
-7.42471
 30
0.0
 40
0.12
  1
WALL
 41
0.833333
  7
Style-Arial
 11
27.039767
 21
-7.36471
 31
0.0
100
AcDbText
 73
     2
  0
TEXT
  5
E9
330
363
100
AcDbEntity
  8
REF
  6
Continuous
 62
     7
370
    30
100
AcDbText
 10
27.173436
 20
-4.927206
 30
0.0
 40
0.12
  1
HALF PLAN
 41
0.833333
  7
Style-Arial
 11
27.173436
 21
-4.867206
 31
0.0
100
AcDbText
 73
     2
  0
TEXT
  5
EA
330
363
100
AcDbEntity
  8
REF
  6
Continuous
 62
     7
370
    30
100
AcDbText
 10
30.332095
 20
-7.466401
 30
0.0
 40
0.12
  1
DESIGN CHART FOR
 41
0.833333
  7
Style-Arial
 11
30.332095
 21
-7.406401
 31
0.0
100
AcDbText
 73
     2
  0
TEXT
  5
2A5
330
363
100
AcDbEntity
  8
_0
  6
Continuous
 62
     7
370
    30
100
AcDbText
 10
31.203043
 20
-6.986083
 30
0.0
 40
0.12
  1
h
 41
0.833333
  7
Style-Arial
 11
31.203043
 21
-6.926083
 31
0.0
100
AcDbText
 73
     2
  0
TEXT
  5
2A6
330
363
100
AcDbEntity
  8
_0
  6
Continuous
 62
     7
370
    30
100
AcDbText
 10
31.201217
 20
-7.151396
 30
0.0
 40
0.12
  1
d
 41
0.833333
  7
Style-Arial
 11
31.201217
 21
-7.091396
 31
0.0
100
AcDbText
 73
     2
  0
TEXT
  5
2A7
330
363
100
AcDbEntity
  8
_0
  6
Continuous
 62
     7
370
    30
100
AcDbText
 10
31.291488
 20
-7.172213
 30
0.0
 40
0.12
  1
c
 41
0.833333
  7
Style-Arial
 11
31.291488
 21
-7.112213
 31
0.0
100
AcDbText
 73
     2
  0
TEXT
  5
2A8
330
363
100
AcDbEntity
  8
HATCH
  6
Continuous
 62
     7
370
    30
100
AcDbText
 10
25.715969
 20
-8.1455
 30
0.0
 40
0.12
  1
NOTE: DROP STRUCTURES AND CHECK DAMS ARE DESIGNED TO CHECK CHANNEL EROSION
 41
0.833333
  7
Style-Arial
 11
25.715969
 21
-8.0855
 31
0.0
100
AcDbText
 73
     2
  0
TEXT
  5
2A9
330
363
100
AcDbEntity
  8
HATCH
  6
Continuous
 62
     7
370
    30
100
AcDbText
 10
25.715969
 20
-8.339792
 30
0.0
 40
0.12
  1
BY CONTROLLING THE EFFECTIVE GRADIENT, AND TO PROVIDE FOR ABRUPT CHANGES IN
 41
0.833333
  7
Style-Arial
 11
25.715969
 21
-8.279792
 31
0.0
100
AcDbText
 73
     2
  0
TEXT
  5
2AA
330
363
100
AcDbEntity
  8
HATCH
  6
Continuous
 62
     7
370
    30
100
AcDbText
 10
25.715969
 20
-8.534073
 30
0.0
 40
0.12
  1
CHANNEL GRADIENT BY MEANS OF A VERTICAL DROP. THEY ALSO PROVIDE A SATISFAC-
 41
0.833333
  7
Style-Arial
 11
25.715969
 21
-8.474073
 31
0.0
100
AcDbText
 73
     2
  0
TEXT
  5
2AB
330
363
100
AcDbEntity
  8
HATCH
  6
Continuous
 62
     7
370
    30
100
AcDbText
 10
25.715969
 20
-8.728365
 30
0.0
 40
0.12
  1
TORY MEANS FOR DISCHARGING ACCUMULATED SURFACE RUNOFF OVER FILLS WITH THE
 41
0.833333
  7
Style-Arial
 11
25.715969
 21
-8.668365
 31
0.0
100
AcDbText
 73
     2
  0
TEXT
  5
2AC
330
363
100
AcDbEntity
  8
HATCH
  6
Continuous
 62
     7
370
    30
100
AcDbText
 10
25.715969
 20
-8.893344
 30
0.0
 40
0.12
  1
HEIGHTS NOT EXCEEDING ABOUT 5 FEET AND OVER EMBANKMENTS HIGHER THAN 5 FEET
 41
0.833333
  7
Style-Arial
 11
25.715969
 21
-8.833344
 31
0.0
100
AcDbText
 73
     2
  0
TEXT
  5
2AD
330
363
100
AcDbEntity
  8
HATCH
  6
Continuous
 62
     7
370
    30
100
AcDbText
 10
25.715969
 20
-9.087635
 30
0.0
 40
0.12
  1
PROVIDED THE ENDSILL OF THE DROP STRUCTURE EXTENDS BEYOND THE TOE OF THE 
 41
0.833333
  7
Style-Arial
 11
25.715969
 21
-9.027635
 31
0.0
100
AcDbText
 73
     2
  0
TEXT
  5
2AE
330
363
100
AcDbEntity
  8
HATCH
  6
Continuous
 62
     7
370
    30
100
AcDbText
 10
25.715969
 20
-9.281917
 30
0.0
 40
0.12
  1
EMBANKMENT. THE CHECK DAM IS A MODIFICATION OF THE DROP STRUCTURE USED FOR 
 41
0.833333
  7
Style-Arial
 11
25.715969
 21
-9.221917
 31
0.0
100
AcDbText
 73
     2
  0
TEXT
  5
2AF
330
363
100
AcDbEntity
  8
HATCH
  6
Continuous
 62
     7
370
    30
100
AcDbText
 10
25.715969
 20
-9.476198
 30
0.0
 40
0.12
  1
EROSION CONTROL IN SMALL CHANNELS WHERE A LESS ELABORATE STRUCTURE IS PER-
 41
0.833333
  7
Style-Arial
 11
25.715969
 21
-9.416198
 31
0.0
100
AcDbText
 73
     2
  0
TEXT
  5
2B0
330
363
100
AcDbEntity
  8
HATCH
  6
Continuous
 62
     7
370
    30
100
AcDbText
 10
25.715969
 20
-9.680802
 30
0.0
 40
0.12
  1
MISSIBLE. THE HYDRAULIC DESIGN OF THESE STRUCTURES CONSIST OF TWO PARTS:
 41
0.833333
  7
Style-Arial
 11
25.715969
 21
-9.620802
 31
0.0
100
AcDbText
 73
     2
  0
TEXT
  5
2B1
330
363
100
AcDbEntity
  8
HATCH
  6
Continuous
 62
     7
370
    30
100
AcDbText
 10
25.715969
 20
-9.862
 30
0.0
 40
0.12
  1
DESIGN OF THE NOTCH OR WEIR, AND DESIGN OF THE OVERPOUR BASIN. THE DESIGNER
 41
0.833333
  7
Style-Arial
 11
25.715969
 21
-9.802
 31
0.0
100
AcDbText
 73
     2
  0
TEXT
  5
2B2
330
363
100
AcDbEntity
  8
HATCH
  6
Continuous
 62
     7
370
    30
100
AcDbText
 10
25.715969
 20
-10.250562
 30
0.0
 40
0.12
  1
ONLY MUST THE STRUCTURE BE DESIGNED SOUNDLY, BUT ALSO THE STRUCTURE OR 
 41
0.833333
  7
Style-Arial
 11
25.715969
 21
-10.190563
 31
0.0
100
AcDbText
 73
     2
  0
TEXT
  5
2B3
330
363
100
AcDbEntity
  8
HATCH
  6
Continuous
 62
     7
370
    30
100
AcDbText
 10
25.733073
 20
-10.416604
 30
0.0
 40
0.12
  1
SERIES OF STRUCTURES MUST BE SO PLACED AS TO CAUSE THE DITCHES OR CHANNELS 
 41
0.833333
  7
Style-Arial
 11
25.733073
 21
-10.356604
 31
0.0
100
AcDbText
 73
     2
  0
TEXT
  5
2B4
330
363
100
AcDbEntity
  8
HATCH
  6
Continuous
 62
     7
370
    30
100
AcDbText
 10
25.733073
 20
-10.581927
 30
0.0
 40
0.12
  1
TO BECOME STABLE. THE QUESTION OF WHAT IS A STABLE GRADE FOR THE CHANNEL
 41
0.833333
  7
Style-Arial
 11
25.733073
 21
-10.521927
 31
0.0
100
AcDbText
 73
     2
  0
TEXT
  5
2B5
330
363
100
AcDbEntity
  8
HATCH
  6
Continuous
 62
     7
370
    30
100
AcDbText
 10
25.733073
 20
-10.776552
 30
0.0
 40
0.12
  1
MUST BE ANSWERED BEFORE THE HEIGHT & SPACING OF THE VARIOUS DROP STRUCTURES
 41
0.833333
  7
Style-Arial
 11
25.733073
 21
-10.716552
 31
0.0
100
AcDbText
 73
     2
  0
TEXT
  5
2BE
330
363
100
AcDbEntity
  8
TEXT
  6
Continuous
 62
     7
370
    30
100
AcDbText
 10
26.7966
 20
-7.669395
 30
0.0
 40
0.12
  1
CENTER-LINE SECTION
 41
0.833333
  7
Style-Arial
 11
26.7966
 21
-7.609395
 31
0.0
100
AcDbText
 73
     2
  0
TEXT
  5
2BF
330
363
100
AcDbEntity
  8
REF
  6
Continuous
 62
     7
370
    30
100
AcDbText
 10
30.083789
 20
-7.654883
 30
0.0
 40
0.12
  1
TYPICAL DROP STRUCTURE
 41
0.833333
  7
Style-Arial
 11
30.083789
 21
-7.594883
 31
0.0
100
AcDbText
 73
     2
  0
TEXT
  5
2DD
330
363
100
AcDbEntity
  8
REF
  6
Continuous
 62
     7
370
    30
100
AcDbText
 10
25.749308
 20
-6.890074
 30
0.0
 40
0.12
  1
STREAM
 41
0.833333
  7
Style-Arial
 11
25.749308
 21
-6.830074
 31
0.0
100
AcDbText
 73
     2
  0
TEXT
  5
2DE
330
363
100
AcDbEntity
  8
REF
  6
Continuous
 62
     7
370
    30
100
AcDbText
 10
25.784185
 20
-7.236083
 30
0.0
 40
0.12
  1
VARIES
 41
0.833333
  7
Style-Arial
 11
25.784185
 21
-7.176083
 31
0.0
100
AcDbText
 73
     2
  0
TEXT
  5
2DF
330
363
100
AcDbEntity
  8
REF
  6
Continuous
 62
     7
370
    30
100
AcDbText
 10
25.894931
 20
-7.0737
 30
0.0
 40
0.12
  1
BED
 41
0.833333
  7
Style-Arial
 11
25.894931
 21
-7.0137
 31
0.0
100
AcDbText
 73
     2
  0
TEXT
  5
2EF
330
363
100
AcDbEntity
  8
HATCH
  6
Continuous
 62
     7
370
    30
100
AcDbText
 10
25.715969
 20
-10.056281
 30
0.0
 40
0.12
  1
SHOULD REALIZE THAT FOR A DROP STRUCTURE OR CHECK DAM TO BE SUCCESSFUL, NOT
 41
0.833333
  7
Style-Arial
 11
25.715969
 21
-9.996281
 31
0.0
100
AcDbText
 73
     2
  0
TEXT
  5
2F0
330
363
100
AcDbEntity
  8
HATCH
  6
Continuous
 62
     7
370
    30
100
AcDbText
 10
25.733073
 20
-10.970833
 30
0.0
 40
0.12
  1
CAN BE DETERMINED. ALSO THE STRUCTURE MUST BE DESIGNED TO PRECLUDE FLANKING.
 41
0.833333
  7
Style-Arial
 11
25.733073
 21
-10.910833
 31
0.0
100
AcDbText
 73
     2
  0
TEXT
  5
2F1
330
363
100
AcDbEntity
  8
LEGEND
  6
Continuous
 62
     7
370
    30
100
AcDbText
 10
25.707396
 20
-11.254687
 30
0.0
 40
0.12
  1
REFERENCE: TM-820-3 DRAINAGE & EROSION CONTROL
 41
0.833333
  7
Style-Arial
 11
25.707396
 21
-11.194687
 31
0.0
100
AcDbText
 73
     2
  0
TEXT
  5
2F2
330
363
100
AcDbEntity
  8
LEGEND
  6
Continuous
 62
     7
370
    30
100
AcDbText
 10
26.663377
 20
-11.454635
 30
0.0
 40
0.12
  1
STRUCTURES FOR AIRFIELDS AND HELIPORTS
 41
0.833333
  7
Style-Arial
 11
26.663377
 21
-11.394635
 31
0.0
100
AcDbText
 73
     2
  0
ENDSEC
  0
SECTION
  2
OBJECTS
  0
DICTIONARY
  5
357
330
0
100
AcDbDictionary
281
     1
  3
ACAD_COLOR
350
376
  3
ACAD_GROUP
350
373
  3
ACAD_LAYOUT
350
367
  3
ACAD_MATERIAL
350
375
  3
ACAD_MLINESTYLE
350
361
  3
ACAD_PLOTSETTINGS
350
374
  3
ACAD_PLOTSTYLENAME
350
356
  3
ACAD_TABLESTYLE
350
393
  3
AcadDim
350
383
  3
MicroStation
350
37B
  0
DICTIONARY
  5
353
330
352
100
AcDbDictionary
280
     1
281
     1
  3
ACAD_LAYERFILTERS
360
37A
  3
ACAD_LAYERSTATES
360
354
  0
DICTIONARY
  5
38F
330
363
100
AcDbDictionary
280
     1
281
     1
  3
ACAD_SORTENTS
360
390
  0
DICTIONARY
  5
376
102
{ACAD_REACTORS
330
357
102
}
330
357
100
AcDbDictionary
281
     1
  0
DICTIONARY
  5
373
102
{ACAD_REACTORS
330
357
102
}
330
357
100
AcDbDictionary
281
     1
  0
DICTIONARY
  5
367
102
{ACAD_REACTORS
330
357
102
}
330
357
100
AcDbDictionary
281
     1
  3
Layout1
350
36B
  3
Model
350
366
  0
DICTIONARY
  5
375
102
{ACAD_REACTORS
330
357
102
}
330
357
100
AcDbDictionary
281
     1
  0
DICTIONARY
  5
361
102
{ACAD_REACTORS
330
357
102
}
330
357
100
AcDbDictionary
281
     1
  3
Standard
350
360
  0
DICTIONARY
  5
374
102
{ACAD_REACTORS
330
357
102
}
330
357
100
AcDbDictionary
281
     1
  0
ACDBDICTIONARYWDFLT
  5
356
102
{ACAD_REACTORS
330
357
102
}
330
357
100
AcDbDictionary
281
     1
  3
Normal
350
355
100
AcDbDictionaryWithDefault
340
355
  0
DICTIONARY
  5
393
102
{ACAD_REACTORS
330
357
102
}
330
357
100
AcDbDictionary
281
     1
  0
XRECORD
  5
383
102
{ACAD_REACTORS
330
357
102
}
330
357
100
AcDbXrecord
280
     1
 90
   990106
  3
 
 60
     0
 61
     0
 62
     1
 63
     1
 64
     0
 65
     0
 66
     0
 67
     3
 68
     1
 69
     1
 70
     0
 71
     0
 72
     0
 40
0.0
170
     0
  0
DICTIONARY
  5
37B
102
{ACAD_REACTORS
330
357
102
}
330
357
100
AcDbDictionary
281
     1
  3
ApplicationElement 846
350
34E
  3
ApplicationElement 847
350
34F
  3
ModelApplicationElement 0 845
350
34D
  0
DICTIONARY
  5
37A
102
{ACAD_REACTORS
330
353
102
}
330
353
100
AcDbDictionary
281
     1
  0
DICTIONARY
  5
354
102
{ACAD_REACTORS
330
353
102
}
330
353
100
AcDbDictionary
281
     1
  0
SORTENTSTABLE
  5
390
102
{ACAD_REACTORS
330
38F
102
}
330
38F
100
AcDbSortentsTable
330
363
331
63
  5
287
331
64
  5
288
331
65
  5
289
331
66
  5
28A
331
67
  5
28B
331
68
  5
63
331
69
  5
64
331
6A
  5
65
331
6B
  5
66
331
6C
  5
67
331
6D
  5
68
331
6E
  5
69
331
6F
  5
6A
331
70
  5
6B
331
71
  5
6C
331
72
  5
6D
331
73
  5
6E
331
74
  5
6F
331
75
  5
70
331
76
  5
71
331
77
  5
28C
331
78
  5
28D
331
79
  5
28E
331
7A
  5
28F
331
7B
  5
290
331
7C
  5
291
331
7D
  5
292
331
7E
  5
293
331
7F
  5
294
331
80
  5
295
331
81
  5
296
331
82
  5
297
331
83
  5
298
331
84
  5
299
331
85
  5
29A
331
86
  5
72
331
88
  5
29B
331
89
  5
29C
331
8A
  5
29D
331
8B
  5
29E
331
8C
  5
29F
331
8D
  5
2A0
331
8E
  5
2A1
331
8F
  5
2A2
331
90
  5
2A3
331
91
  5
2A4
331
92
  5
2A5
331
93
  5
2A6
331
94
  5
2A7
331
95
  5
2A8
331
96
  5
2A9
331
97
  5
73
331
98
  5
74
331
99
  5
75
331
9A
  5
76
331
9B
  5
77
331
9C
  5
78
331
9D
  5
79
331
9E
  5
7A
331
9F
  5
7B
331
A0
  5
7C
331
A1
  5
7D
331
A2
  5
7E
331
A3
  5
7F
331
A4
  5
80
331
A5
  5
81
331
A6
  5
82
331
A7
  5
83
331
A8
  5
2AA
331
A9
  5
2AB
331
AA
  5
2AC
331
AB
  5
2AD
331
AC
  5
2AE
331
AD
  5
84
331
AE
  5
2AF
331
AF
  5
85
331
B0
  5
86
331
B1
  5
88
331
B2
  5
89
331
B3
  5
2B0
331
B4
  5
2B1
331
B5
  5
8A
331
B6
  5
8B
331
B7
  5
8C
331
B8
  5
8D
331
B9
  5
8E
331
BA
  5
8F
331
BB
  5
90
331
BC
  5
91
331
BD
  5
92
331
BE
  5
93
331
BF
  5
94
331
C0
  5
95
331
C1
  5
96
331
C2
  5
97
331
C3
  5
98
331
C4
  5
99
331
C5
  5
9A
331
C6
  5
9B
331
C7
  5
9C
331
C8
  5
9D
331
C9
  5
9E
331
CA
  5
9F
331
CB
  5
A0
331
CC
  5
2B2
331
CD
  5
2B3
331
CE
  5
2B4
331
CF
  5
2B5
331
D0
  5
A1
331
D1
  5
2B6
331
D2
  5
2B7
331
D3
  5
A2
331
D4
  5
A3
331
D5
  5
A4
331
D6
  5
A5
331
D7
  5
A6
331
D8
  5
A7
331
D9
  5
A8
331
DA
  5
2B8
331
DB
  5
A9
331
DC
  5
2B9
331
DD
  5
AA
331
DE
  5
AB
331
DF
  5
2BA
331
E0
  5
2BB
331
E1
  5
AC
331
E2
  5
AD
331
E3
  5
2BC
331
E4
  5
2BD
331
E5
  5
2BE
331
E6
  5
2BF
331
E7
  5
2C0
331
E8
  5
2C1
331
E9
  5
2C2
331
EA
  5
2C3
331
EB
  5
AE
331
EC
  5
AF
331
ED
  5
B0
331
EE
  5
B1
331
EF
  5
B2
331
F0
  5
B3
331
F1
  5
B4
331
F2
  5
B5
331
F3
  5
B6
331
F4
  5
B7
331
F5
  5
B8
331
F6
  5
B9
331
F7
  5
BA
331
F8
  5
BB
331
F9
  5
BC
331
FA
  5
BD
331
FB
  5
BE
331
FC
  5
BF
331
FD
  5
C0
331
FE
  5
C1
331
FF
  5
C2
331
100
  5
C3
331
101
  5
C4
331
102
  5
C5
331
103
  5
C6
331
104
  5
C7
331
105
  5
C8
331
106
  5
C9
331
107
  5
CA
331
108
  5
CB
331
109
  5
CC
331
10A
  5
CD
331
10B
  5
CE
331
10C
  5
CF
331
10D
  5
D0
331
10E
  5
D1
331
10F
  5
D2
331
110
  5
D3
331
111
  5
D4
331
112
  5
D5
331
113
  5
D6
331
114
  5
D7
331
115
  5
D8
331
116
  5
D9
331
117
  5
DA
331
118
  5
DB
331
119
  5
DC
331
11A
  5
DD
331
11B
  5
DE
331
11C
  5
DF
331
11D
  5
E0
331
11E
  5
E1
331
11F
  5
E2
331
120
  5
E3
331
121
  5
E4
331
122
  5
E5
331
123
  5
E6
331
124
  5
E7
331
125
  5
E8
331
126
  5
E9
331
127
  5
EA
331
128
  5
EB
331
129
  5
EC
331
12A
  5
ED
331
12B
  5
EE
331
12C
  5
EF
331
12D
  5
F0
331
12E
  5
F1
331
12F
  5
F2
331
130
  5
F3
331
131
  5
F4
331
132
  5
F5
331
133
  5
F6
331
134
  5
F7
331
135
  5
F8
331
136
  5
F9
331
137
  5
FA
331
138
  5
FB
331
139
  5
FC
331
13A
  5
FD
331
13B
  5
FE
331
13C
  5
FF
331
13D
  5
100
331
13E
  5
101
331
13F
  5
102
331
140
  5
103
331
141
  5
104
331
142
  5
105
331
143
  5
106
331
144
  5
107
331
145
  5
108
331
146
  5
109
331
147
  5
10A
331
148
  5
10B
331
149
  5
10C
331
14A
  5
10D
331
14B
  5
10E
331
14C
  5
10F
331
14D
  5
110
331
14E
  5
111
331
14F
  5
112
331
150
  5
113
331
151
  5
114
331
152
  5
115
331
153
  5
116
331
154
  5
117
331
155
  5
118
331
156
  5
119
331
157
  5
11A
331
158
  5
11B
331
159
  5
11C
331
15A
  5
11D
331
15B
  5
11E
331
15C
  5
11F
331
15D
  5
120
331
15E
  5
121
331
15F
  5
122
331
160
  5
123
331
161
  5
124
331
162
  5
125
331
163
  5
126
331
164
  5
127
331
165
  5
128
331
166
  5
129
331
167
  5
12A
331
168
  5
12B
331
169
  5
12C
331
16A
  5
12D
331
16B
  5
12E
331
16C
  5
12F
331
16D
  5
130
331
16E
  5
131
331
16F
  5
132
331
170
  5
133
331
171
  5
134
331
172
  5
135
331
173
  5
136
331
174
  5
137
331
175
  5
138
331
176
  5
139
331
177
  5
13A
331
178
  5
13B
331
179
  5
13C
331
17A
  5
13D
331
17B
  5
13E
331
17C
  5
13F
331
17D
  5
140
331
17E
  5
141
331
17F
  5
142
331
180
  5
143
331
181
  5
144
331
182
  5
145
331
183
  5
146
331
184
  5
147
331
185
  5
148
331
186
  5
149
331
187
  5
14A
331
188
  5
14B
331
189
  5
14C
331
18A
  5
14D
331
18B
  5
14E
331
18C
  5
14F
331
18D
  5
150
331
18E
  5
151
331
18F
  5
152
331
190
  5
153
331
191
  5
154
331
192
  5
155
331
193
  5
156
331
194
  5
157
331
195
  5
158
331
196
  5
159
331
197
  5
15A
331
198
  5
15B
331
199
  5
15C
331
19A
  5
15D
331
19B
  5
15E
331
19C
  5
15F
331
19D
  5
160
331
19E
  5
161
331
19F
  5
162
331
1A0
  5
163
331
1A1
  5
164
331
1A2
  5
165
331
1A3
  5
166
331
1A4
  5
167
331
1A5
  5
168
331
1A6
  5
169
331
1A7
  5
16A
331
1A8
  5
16B
331
1A9
  5
16C
331
1AA
  5
16D
331
1AB
  5
16E
331
1AC
  5
16F
331
1AD
  5
170
331
1AE
  5
171
331
1AF
  5
172
331
1B0
  5
173
331
1B1
  5
174
331
1B2
  5
175
331
1B3
  5
176
331
1B4
  5
177
331
1B5
  5
178
331
1B6
  5
179
331
1B7
  5
17A
331
1B8
  5
17B
331
1B9
  5
17C
331
1BA
  5
17D
331
1BB
  5
17E
331
1BC
  5
17F
331
1BD
  5
180
331
1BE
  5
181
331
1BF
  5
182
331
1C0
  5
183
331
1C1
  5
184
331
1C2
  5
185
331
1C3
  5
186
331
1C4
  5
187
331
1C5
  5
188
331
1C6
  5
189
331
1C7
  5
18A
331
1C8
  5
18B
331
1C9
  5
18C
331
1CA
  5
18D
331
1CB
  5
18E
331
1CC
  5
18F
331
1CD
  5
190
331
1CE
  5
191
331
1CF
  5
192
331
1D0
  5
193
331
1D1
  5
194
331
1D2
  5
195
331
1D3
  5
196
331
1D4
  5
197
331
1D5
  5
198
331
1D6
  5
199
331
1D7
  5
19A
331
1D8
  5
19B
331
1D9
  5
19C
331
1DA
  5
19D
331
1DB
  5
19E
331
1DC
  5
19F
331
1DD
  5
1A0
331
1DE
  5
1A1
331
1DF
  5
1A2
331
1E0
  5
1A3
331
1E1
  5
1A4
331
1E2
  5
1A5
331
1E3
  5
1A6
331
1E4
  5
1A7
331
1E5
  5
1A8
331
1E6
  5
1A9
331
1E7
  5
1AA
331
1E8
  5
1AB
331
1E9
  5
1AC
331
1EA
  5
1AD
331
1EB
  5
1AE
331
1EC
  5
1AF
331
1ED
  5
1B0
331
1EE
  5
1B1
331
1EF
  5
1B2
331
1F0
  5
1B3
331
1F1
  5
1B4
331
1F2
  5
1B5
331
1F3
  5
1B6
331
1F4
  5
1B7
331
1F5
  5
1B8
331
1F6
  5
1B9
331
1F7
  5
1BA
331
1F8
  5
1BB
331
1F9
  5
1BC
331
1FA
  5
1BD
331
1FB
  5
1BE
331
1FC
  5
1BF
331
1FD
  5
1C0
331
1FE
  5
1C1
331
1FF
  5
1C2
331
200
  5
1C3
331
201
  5
1C4
331
202
  5
1C5
331
203
  5
1C6
331
204
  5
1C7
331
205
  5
1C8
331
206
  5
1C9
331
207
  5
1CA
331
208
  5
1CB
331
209
  5
1CC
331
20A
  5
1CD
331
20B
  5
1CE
331
20C
  5
1CF
331
20D
  5
1D0
331
20E
  5
1D1
331
20F
  5
1D2
331
210
  5
1D3
331
211
  5
1D4
331
212
  5
1D5
331
213
  5
1D6
331
214
  5
1D7
331
215
  5
1D8
331
216
  5
1D9
331
217
  5
1DA
331
218
  5
1DB
331
219
  5
1DC
331
21A
  5
1DD
331
21B
  5
1DE
331
21C
  5
1DF
331
21D
  5
1E0
331
21E
  5
1E1
331
21F
  5
1E2
331
220
  5
1E3
331
221
  5
1E4
331
222
  5
1E5
331
223
  5
1E6
331
224
  5
1E7
331
225
  5
1E8
331
226
  5
1E9
331
227
  5
1EA
331
228
  5
1EB
331
229
  5
1EC
331
22A
  5
1ED
331
22B
  5
1EE
331
22C
  5
1EF
331
22D
  5
1F0
331
22E
  5
1F1
331
22F
  5
1F2
331
230
  5
1F3
331
231
  5
1F4
331
232
  5
1F5
331
233
  5
1F6
331
234
  5
1F7
331
235
  5
1F8
331
236
  5
1F9
331
237
  5
1FA
331
238
  5
1FB
331
239
  5
1FC
331
23A
  5
1FD
331
23B
  5
1FE
331
23C
  5
1FF
331
23D
  5
200
331
23E
  5
201
331
23F
  5
202
331
240
  5
203
331
241
  5
204
331
242
  5
205
331
243
  5
206
331
244
  5
207
331
245
  5
208
331
246
  5
209
331
247
  5
20A
331
248
  5
20B
331
249
  5
20C
331
24A
  5
20D
331
24B
  5
20E
331
24C
  5
20F
331
24D
  5
210
331
24E
  5
211
331
24F
  5
212
331
250
  5
213
331
251
  5
214
331
252
  5
215
331
253
  5
216
331
254
  5
217
331
255
  5
218
331
256
  5
219
331
257
  5
21A
331
258
  5
21B
331
259
  5
21C
331
25A
  5
21D
331
25B
  5
21E
331
25C
  5
21F
331
25D
  5
220
331
25E
  5
221
331
25F
  5
222
331
260
  5
223
331
261
  5
224
331
262
  5
225
331
263
  5
226
331
264
  5
227
331
265
  5
228
331
266
  5
229
331
267
  5
22A
331
268
  5
22B
331
269
  5
22C
331
26A
  5
22D
331
26B
  5
22E
331
26C
  5
22F
331
26D
  5
230
331
26E
  5
231
331
26F
  5
232
331
270
  5
233
331
271
  5
234
331
272
  5
235
331
273
  5
236
331
274
  5
237
331
275
  5
238
331
276
  5
239
331
277
  5
23A
331
278
  5
23B
331
279
  5
23C
331
27A
  5
23D
331
27B
  5
23E
331
27C
  5
23F
331
27D
  5
240
331
27E
  5
241
331
27F
  5
242
331
280
  5
243
331
281
  5
244
331
282
  5
245
331
283
  5
246
331
284
  5
247
331
285
  5
248
331
286
  5
249
331
287
  5
24A
331
288
  5
24B
331
289
  5
24C
331
28A
  5
24D
331
28B
  5
24E
331
28C
  5
24F
331
28D
  5
250
331
28E
  5
251
331
28F
  5
252
331
290
  5
253
331
291
  5
254
331
292
  5
255
331
293
  5
256
331
294
  5
257
331
295
  5
258
331
296
  5
259
331
297
  5
25A
331
298
  5
25B
331
299
  5
25C
331
29A
  5
25D
331
29B
  5
25E
331
29C
  5
25F
331
29D
  5
260
331
29E
  5
261
331
29F
  5
262
331
2A0
  5
263
331
2A1
  5
264
331
2A2
  5
265
331
2A3
  5
266
331
2A4
  5
267
331
2A5
  5
2C5
331
2A6
  5
2C7
331
2A7
  5
2C9
331
2A8
  5
2CB
331
2A9
  5
2CD
331
2AA
  5
2CF
331
2AB
  5
2D1
331
2AC
  5
2D3
331
2AD
  5
2D5
331
2AE
  5
2D7
331
2AF
  5
2D9
331
2B0
  5
2DB
331
2B1
  5
2DD
331
2B2
  5
2DE
331
2B3
  5
2DF
331
2B4
  5
2E0
331
2B5
  5
2E2
331
2B6
  5
268
331
2B7
  5
269
331
2B8
  5
26A
331
2B9
  5
26B
331
2BA
  5
26C
331
2BB
  5
26D
331
2BC
  5
26E
331
2BD
  5
26F
331
2BE
  5
2E3
331
2BF
  5
2E4
331
2C0
  5
270
331
2C1
  5
271
331
2C2
  5
272
331
2C3
  5
273
331
2C5
  5
274
331
2C7
  5
275
331
2C9
  5
276
331
2CB
  5
277
331
2CD
  5
278
331
2CF
  5
279
331
2D1
  5
27A
331
2D3
  5
27B
331
2D5
  5
27C
331
2D7
  5
27D
331
2D9
  5
27E
331
2DB
  5
27F
331
2DD
  5
2EF
331
2DE
  5
2F0
331
2DF
  5
2F1
331
2E0
  5
280
331
2E2
  5
281
331
2E3
  5
282
331
2E4
  5
283
331
2EF
  5
2F2
331
2F0
  5
2F3
331
2F1
  5
2F4
331
2F2
  5
2F5
331
2F3
  5
284
331
2F4
  5
285
331
2F5
  5
286
  0
LAYOUT
  5
36B
102
{ACAD_REACTORS
330
367
330
367
102
}
102
{ACAD_XDICTIONARY
360
36C
102
}
330
367
100
AcDbPlotSettings
  1

  2
none_device
  4
Letter_(8.50_x_11.00_Inches)
  6

 40
6.35
 41
6.35
 42
6.350006
 43
6.350006
 44
215.899994
 45
279.399994
 46
0.0
 47
0.0
 48
0.0
 49
0.0
140
0.0
141
0.0
142
1.0
143
1.0
 70
   688
 72
     0
 73
     1
 74
     5
  7

 75
    16
 76
     0
 77
     2
 78
   300
147
1.0
148
0.0
149
0.0
100
AcDbLayout
  1
Layout1
 70
     1
 71
     1
 10
-0.25
 20
-0.25
 11
10.75
 21
8.25
 12
0.0
 22
0.0
 32
0.0
 14
1.049744
 24
0.799667
 34
-0.001526
 15
9.450623
 25
7.200577
 35
0.0
146
0.0
 13
0.0
 23
0.0
 33
0.0
 16
1.0
 26
0.0
 36
0.0
 17
0.0
 27
1.0
 37
0.0
 76
     0
330
368
1001
ACAD_PSEXT
1000
None
1000
None
1000
Not applicable
1000
The layout will not be plotted unless a new plotter configuration name is selected.
1070
     0
  0
LAYOUT
  5
366
102
{ACAD_REACTORS
330
367
330
367
102
}
330
367
100
AcDbPlotSettings
  1

  2
none_device
  4
ANSI_A_(8.50_x_11.00_Inches)
  6

 40
6.35
 41
19.049999
 42
6.350006
 43
19.049988
 44
215.899994
 45
279.399994
 46
0.0
 47
0.0
 48
0.0
 49
0.0
140
0.0
141
0.0
142
1.0
143
2.584895
 70
 11952
 72
     0
 73
     1
 74
     0
  7

 75
     0
 76
     0
 77
     2
 78
   300
147
0.386863
148
0.0
149
0.0
100
AcDbLayout
  1
Model
 70
     1
 71
     0
 10
0.0
 20
0.0
 11
12.0
 21
9.0
 12
0.0
 22
0.0
 32
0.0
 14
0.0
 24
0.0
 34
0.0
 15
0.0
 25
0.0
 35
0.0
146
0.0
 13
0.0
 23
0.0
 33
0.0
 16
1.0
 26
0.0
 36
0.0
 17
0.0
 27
1.0
 37
0.0
 76
     0
330
363
331
49
  0
MLINESTYLE
  5
360
102
{ACAD_REACTORS
330
361
102
}
330
361
100
AcDbMlineStyle
  2
STANDARD
 70
     0
  3

 62
   256
 51
90.0
 52
90.0
 71
     2
 49
0.5
 62
   256
  6
BYLAYER
 49
-0.5
 62
   256
  6
BYLAYER
  0
ACDBPLACEHOLDER
  5
355
102
{ACAD_REACTORS
330
356
102
}
330
356
  0
XRECORD
  5
34E
102
{ACAD_REACTORS
330
37B
102
}
330
37B
100
AcDbXrecord
280
     1
310
3E4F020000004D6F64656C6572000000000000000000000000000000000000000000000000000000000000000000000000000000000000000000000000000000000000000000000000000000000000000000000000000000000000000000000000000000000000000000000000000000000000000000000000000000000000
310
00000000000000000000000000000000000000000000000000000000000000000000000000000000000000000000000000000000000000000000000000000000000000000000000000000000000000000000000000000000000000000000000000000000000000000000000000000000000000000000000000000000000000
310
00
310
00000000000000000000000000000000000000000000000000000000000000000000000000000000000000000000000000000000000000000000000000000000000000000000000000000000000000000000000000000000000000000000000000000000000000000000000000000000000000000000000000000000000000
310
00000000000000000000000000000000000000000000000000000000000000000000000000000000000000000000000000000000000000000000000000000000000000000000000000000000000000000000000000000000000000000000000000000000000000000000000000000000000000000000000000000000000000
310
00
310
00000000000000000000000000000000000000000000000000000000000000000000000000000000000000000000000000000000000000000000000000000000000000000000000000000000000000000000000000000000000000000000000000000000000000000000000000000000000000000000000000000000000000
310
00000000000000000000000000000000000000000000000000000000000000000000000000000000000000000000000000000000000000000000000000000000000000000000000000000000000000000000000000000000000000000000000000000000000000000000000000000000000000000000000000000000000000
310
00
310
00000000000000000000000000000000000000000000000000000000000000000000000000000000000000000000000000000000000000000000000000000000000000000000000000000000000000000000000000000000000000000000000000000000000000000000000000000000000000000000000000000000000000
310
00000000000000000000000000000000000000000000000000000000000000000000000000000000000000000000000000000000000000000000000000000000000000000000000000000000000000000000000000000000000000000000000000000000000000000000000000000000000000000000000000000000000000
310
00
310
00000000000000000000000000000000000000000000000000000000000000000000000000000000000000000000000000000000000000000000000000000000000000000000000000000000000000000000000000000000000000000000000000000000000000000000000000000000000000000000000000000000000000
310
00000000000000000000000000000000000000000000000000000000000000000000000000000000000000000000000000000000000000000000000000000000000000000000000000000000000000000000000000000000000000000000000000000000000000000000000000000000000000000000000000000000000000
310
00
310
00000000000000000000000000000000000000000000000000000000000000000000000000000000000000000000000000000000000000000000000000000000000000000000000000000000000000000000000000000000000000000000000000000000000000000000000000000000000000000000000000000000000000
310
00000000000000000000000000000000000000000000000000000000000000000000000000000000000000000000000000000000000000000000000000000000000000000000000000000000000000000000000000000000000000000000000000000000000000000000000000000000000000000000000000000000000000
310
00
310
00000000000000000000000000000000000000000000000000000000000000000000000000000000000000000000000000000000000000000000000000000000000000000000000000000000000000000000000000000000000000000000000000000000000000000000000000000000000000000000000000000000000000
310
00000000000000000000000000000000000000000000000000000000000000000000000000000000000000000000000000000000000000000000000000000000000000000000000000000000000000000000000000000000000000000000000000000000000000000000000000000000000000000000000000000000000000
310
00
310
00000000000000000000000000000000000000000000000000000000000000000000000000000000000000000000000000000000000000000000000000000000000000000000000000000000000000000000000000000000000000000000000000000000000000000000000000000000000000000000000000000000000000
310
00000000000000000000000000000000000000000000000000000000000000000000000000000000000000000000000000000000000000000000000000000000000000000000000000000000000000000000000000000000000000000000000000000000000000000000000000000000000000000000000000000000000000
310
00
310
00000000000000000000000000000000000000000000000000000000000000000000000000000000000000000000000000000000000000000000000000000000000000000000000000000000000000000000000000000000000000000000000000000000000000000000000000000000000000000000000000000000000000
310
00000000000000000000000000000000000000000000000000000000000000000000000000000000000000000000000000000000000000000000000000000000000000000000000000000000000000000000000000000000000000000000000000000000000000000000000000000000000000000000000000000000000000
310
00
310
00000000000000000000000000000000000000000000000000000000000000000000000000000000000000000000000000000000000000000000000000000000000000000000000000000000000000000000000000000000000000000000000000000000000000000000000000000000000000000000000000000000000000
310
00000000000000000000000000000000000000000000000000000000000000000000000000000000000000000000000000000000000000000000000000000000000000000000000000000000000000000000000000000000000000000000000000000000000000000000000000000000000000000000000000000000000000
310
00
310
00000000000000000000000000000000000000000000000000000000000000000000000000000000000000000000000000000000000000000000000000000000000000000000000000000000000000000000000000000000000000000000000000000000000000000000000000000000000000000000000000000000000000
310
00000000000000000000000000000000000000000000000000000000000000000000000000000000000000000000000000000000000000000000000000000000000000000000000000000000000000000000000000000000000000000000000000000000000000000000000000000000000000000000000000000000000000
310
00
310
00000000000000000000000000000000000000000000000000000000000000000000000000000000000000000000000000000000000000000000000000000000000000000000000000000000000000000000000000000000000000000000000000000000000000000000000000000000000000000000000000000000000000
310
00000000000000000000000000000000000000000000000000000000000000000000000000000000000000000000000000000000000000000000000000000000000000000000000000000000000000000000000000000000000000000000000000000000000000000000000000000000000000000000000000000000000000
310
00
310
00000000000000000000000000000000000000000000000000000000000000000000000000000000000000000000000000000000000000000000000000000000000000000000000000000000000000000000000000000000000000000000000000000000000000000000000000000000000000000000000000000000000000
310
00000000000000000000000000000000000000000000000000000000000000000000000000000000000000000000000000000000000000000000000000000000000000000000000000000000000000000000000000000000000000000000000000000000000000000000000000000000000000000000000000000000000000
310
00
310
00000000000000000000000000000000000000000000000000000000000000000000000000000000000000000000000000000000000000000000000000000000000000000000000000000000000000000000000000000000000000000000000000000000000000000000000000000000000000
  0
XRECORD
  5
34F
102
{ACAD_REACTORS
330
37B
102
}
330
37B
100
AcDbXrecord
280
     1
310
3E4F020000004D6F64656C6572000000000000000000000000000000000000000000000000000000000000000000000000000000000000000000000000000000000000000000000000000000000000000000000000000000000000000000000000000000000000000000000000000000000000000000000000000000000000
310
00000000000000000000000000000000000000000000000000000000000000000000000000000000000000000000000000000000000000000000000000000000000000000000000000000000000000000000000000000000000000000000000000000000000000000000000000000000000000000000000000000000000000
310
00
310
00000000000000000000000000000000000000000000000000000000000000000000000000000000000000000000000000000000000000000000000000000000000000000000000000000000000000000000000000000000000000000000000000000000000000000000000000000000000000000000000000000000000000
310
00000000000000000000000000000000000000000000000000000000000000000000000000000000000000000000000000000000000000000000000000000000000000000000000000000000000000000000000000000000000000000000000000000000000000000000000000000000000000000000000000000000000000
310
00
310
00000000000000000000000000000000000000000000000000000000000000000000000000000000000000000000000000000000000000000000000000000000000000000000000000000000000000000000000000000000000000000000000000000000000000000000000000000000000000000000000000000000000000
310
00000000000000000000000000000000000000000000000000000000000000000000000000000000000000000000000000000000000000000000000000000000000000000000000000000000000000000000000000000000000000000000000000000000000000000000000000000000000000000000000000000000000000
310
00
310
00000000000000000000000000000000000000000000000000000000000000000000000000000000000000000000000000000000000000000000000000000000000000000000000000000000000000000000000000000000000000000000000000000000000000000000000000000000000000000000000000000000000000
310
00000000000000000000000000000000000000000000000000000000000000000000000000000000000000000000000000000000000000000000000000000000000000000000000000000000000000000000000000000000000000000000000000000000000000000000000000000000000000000000000000000000000000
310
00
310
00000000000000000000000000000000000000000000000000000000000000000000000000000000000000000000000000000000000000000000000000000000000000000000000000000000000000000000000000000000000000000000000000000000000000000000000000000000000000000000000000000000000000
310
00000000000000000000000000000000000000000000000000000000000000000000000000000000000000000000000000000000000000000000000000000000000000000000000000000000000000000000000000000000000000000000000000000000000000000000000000000000000000000000000000000000000000
310
00
310
00000000000000000000000000000000000000000000000000000000000000000000000000000000000000000000000000000000000000000000000000000000000000000000000000000000000000000000000000000000000000000000000000000000000000000000000000000000000000000000000000000000000000
310
00000000000000000000000000000000000000000000000000000000000000000000000000000000000000000000000000000000000000000000000000000000000000000000000000000000000000000000000000000000000000000000000000000000000000000000000000000000000000000000000000000000000000
310
00
310
00000000000000000000000000000000000000000000000000000000000000000000000000000000000000000000000000000000000000000000000000000000000000000000000000000000000000000000000000000000000000000000000000000000000000000000000000000000000000000000000000000000000000
310
00000000000000000000000000000000000000000000000000000000000000000000000000000000000000000000000000000000000000000000000000000000000000000000000000000000000000000000000000000000000000000000000000000000000000000000000000000000000000000000000000000000000000
310
00
310
00000000000000000000000000000000000000000000000000000000000000000000000000000000000000000000000000000000000000000000000000000000000000000000000000000000000000000000000000000000000000000000000000000000000000000000000000000000000000000000000000000000000000
310
00000000000000000000000000000000000000000000000000000000000000000000000000000000000000000000000000000000000000000000000000000000000000000000000000000000000000000000000000000000000000000000000000000000000000000000000000000000000000000000000000000000000000
310
00
310
00000000000000000000000000000000000000000000000000000000000000000000000000000000000000000000000000000000000000000000000000000000000000000000000000000000000000000000000000000000000000000000000000000000000000000000000000000000000000000000000000000000000000
310
00000000000000000000000000000000000000000000000000000000000000000000000000000000000000000000000000000000000000000000000000000000000000000000000000000000000000000000000000000000000000000000000000000000000000000000000000000000000000000000000000000000000000
310
00
310
00000000000000000000000000000000000000000000000000000000000000000000000000000000000000000000000000000000000000000000000000000000000000000000000000000000000000000000000000000000000000000000000000000000000000000000000000000000000000000000000000000000000000
310
00000000000000000000000000000000000000000000000000000000000000000000000000000000000000000000000000000000000000000000000000000000000000000000000000000000000000000000000000000000000000000000000000000000000000000000000000000000000000000000000000000000000000
310
00
310
00000000000000000000000000000000000000000000000000000000000000000000000000000000000000000000000000000000000000000000000000000000000000000000000000000000000000000000000000000000000000000000000000000000000000000000000000000000000000000000000000000000000000
310
00000000000000000000000000000000000000000000000000000000000000000000000000000000000000000000000000000000000000000000000000000000000000000000000000000000000000000000000000000000000000000000000000000000000000000000000000000000000000000000000000000000000000
310
00
310
00000000000000000000000000000000000000000000000000000000000000000000000000000000000000000000000000000000000000000000000000000000000000000000000000000000000000000000000000000000000000000000000000000000000000000000000000000000000000000000000000000000000000
310
00000000000000000000000000000000000000000000000000000000000000000000000000000000000000000000000000000000000000000000000000000000000000000000000000000000000000000000000000000000000000000000000000000000000000000000000000000000000000000000000000000000000000
310
00
310
00000000000000000000000000000000000000000000000000000000000000000000000000000000000000000000000000000000000000000000000000000000000000000000000000000000000000000000000000000000000000000000000000000000000000000000000000000000000000000000000000000000000000
310
00000000000000000000000000000000000000000000000000000000000000000000000000000000000000000000000000000000000000000000000000000000000000000000000000000000000000000000000000000000000000000000000000000000000000000000000000000000000000000000000000000000000000
310
00
310
00000000000000000000000000000000000000000000000000000000000000000000000000000000000000000000000000000000000000000000000000000000000000000000000000000000000000000000000000000000000000000000000000000000000000000000000000000000000000
  0
XRECORD
  5
34D
102
{ACAD_REACTORS
330
37B
102
}
330
37B
100
AcDbXrecord
280
     1
310
DF56060034040701D0009A9999999999B93F000000000000000000000000000000000400000009000000000000000200000064000000640000000100000001000000190000007B14AE47E17A843F00000000004060409A9999999999B93F00000000004C2D41000000000070F7400000000000942141000000000000000000
310
0000000000000000000000000000000AD482040000000000000000000000000000F03F000000000000000000000000000030402D431CEBE2362A3F00000000000008400000000000000000009807C000000000000000007C1A61B9A711364020000000050000000A000000200000002000000020000000000000000000F03F
310
00
310
0000000000F03F000000000000F03F333333333333D33F333333333333D33F333333333333D33F000000000000F43F000000000000F43F000000000000F03F0200000064000000000000000000000000000840000000000000F83F00000000000000000000000000000000008056409A9999999999B93F0000000000000000
310
00000000000000000000000000000000000000000000000000000000000000000000000000000000000000000000000000000000000000000000000000000000000000000000000000000000000000000000000000000000000000000000000000000000000000000000000000000000000000000000000000000000000000
310
00
310
0000000000000000000000000000000000000000000000000000000000000000000000000000000000000000000000000000000000000000000000000000000000000000000000000000000000000000000000000000000000000000000000000000000000000000000000000000000000000000000000009A9999999999A9
310
3F9100000000000000000000000000000035A781D547960F40000000000000F03F000000000000F03F666666666666164000000000104068F200000000000000000000000000000000000000000000000000000000000000000000000000000000000000000000000000000000000000000000000000000000000000000000
310
00
310
00000000000000000000000000000000000000000000000000000000000000000000000000000000000000000000000000000000000000000000000000000000000000000000000000000000000000000000000000000000000000000000000000000000000000000000000000000000000000000000000000000000000000
310
000000000000000000000000000000000000000000000000000000000000000000000000000000000000000000000000000000000000000000000000FF000000000000000000000000000000000000000000000000000000000000000000000000000000000000000000000000000000000000000000000000000000000000
310
00
310
0000000000000000000000000000000000000000000000000000000000000000000000000000000000000000000000000000000000000000000000000000000000000000
  0
DICTIONARY
  5
36C
330
36B
100
AcDbDictionary
280
     1
281
     1
  3
ADSK_XREC_LAYOUTTHUMBNAIL
360
36D
  0
XRECORD
  5
36D
102
{ACAD_REACTORS
330
36C
102
}
330
36C
100
AcDbXrecord
280
     1
310
28000000B40000008B0000000100080000000000BC61000000000000000000000001000000000000FFFFFF0000000000FFFFFF000000000000000000000000000000000000000000000000000000000000000000330000006600000099000000CC000000FF00000000330000333300006633000099330000CC330000FF3300
310
0000660000336600006666000099660000CC660000FF66000000990000339900006699000099990000CC990000FF99000000CC000033CC000066CC000099CC0000CCCC0000FFCC000000FF000033FF000066FF000099FF0000CCFF0000FFFF000000003300330033006600330099003300CC003300FF003300003333003333
310
33006633330099333300CC333300FF33330000663300336633006666330099663300CC663300FF66330000993300339933006699330099993300CC993300FF99330000CC330033CC330066CC330099CC3300CCCC3300FFCC330000FF330033FF330066FF330099FF3300CCFF3300FFFF330000006600330066006600660099
310
006600CC006600FF00660000336600333366006633660099336600CC336600FF33660000666600336666006666660099666600CC666600FF66660000996600339966006699660099996600CC996600FF99660000CC660033CC660066CC660099CC6600CCCC6600FFCC660000FF660033FF660066FF660099FF6600CCFF6600
310
FFFF660000009900330099006600990099009900CC009900FF00990000339900333399006633990099339900CC339900FF33990000669900336699006666990099669900CC669900FF66990000999900339999006699990099999900CC999900FF99990000CC990033CC990066CC990099CC9900CCCC9900FFCC990000FF99
310
0033FF990066FF990099FF9900CCFF9900FFFF99000000CC003300CC006600CC009900CC00CC00CC00FF00CC000033CC003333CC006633CC009933CC00CC33CC00FF33CC000066CC003366CC006666CC009966CC00CC66CC00FF66CC000099CC003399CC006699CC009999CC00CC99CC00FF99CC0000CCCC0033CCCC0066CC
310
CC0099CCCC00CCCCCC00FFCCCC0000FFCC0033FFCC0066FFCC0099FFCC00CCFFCC00FFFFCC000000FF003300FF006600FF009900FF00CC00FF00FF00FF000033FF003333FF006633FF009933FF00CC33FF00FF33FF000066FF003366FF006666FF009966FF00CC66FF00FF66FF000099FF003399FF006699FF009999FF00CC
310
99FF00FF99FF0000CCFF0033CCFF0066CCFF0099CCFF00CCCCFF00FFCCFF0000FFFF0033FFFF0066FFFF0099FFFF00CCFFFF00FFFFFF00000000000D0D0D001A1A1A00282828003535350043434300505050005D5D5D006B6B6B00787878008686860093939300A1A1A100AEAEAE00BBBBBB00C9C9C900D6D6D600E4E4E400
310
F1F1F100FFFFFF0000000000000000000000000000000000000000000000000000000000000000000000000000000000E2E2E2E2E2E2E2E2E2E2E2E2E2E2E2E2E2E2E2E2E2E2E2E2E2E2E2E2E2E2E2E2E2E2E2E2E2E2E2E2E2E2E2E2E2E2E2E2E2E2E2E2E2E2E2E2E2E2E2E2E2E2E2E2E2E2E2E2E2E2E2E2E2E2E2E2E2E2E2
310
E2E2E2E2E2E2E2E2E2E2E2E2E2E2E2E2E2E2E2E2E2E2E2E2E2E2E2E2E2E2E2E2E2E2E2E2E2E2E2E2E2E2E2E2E2E2E2E2E2E2E2E2E2E2E2E2E2E2E2E2E2E2E2E2E2E2E2E2E2E2E2E2E2E2E2E2E2E2E2E2E2E2E2E2E2E2E2E2E2E2E2E2E2E2E2E2E2E2E2E2EFF5F5F5F5F5F5F5F5F5F5F5F5F5F5F5F5F5F5F5F5F5F5F5F5F5F5
310
F5F5F5F5F5F5F5F5F5F5F5F5F5F5F5F5F5F5F5F5F5F5F5F5F5F5F5F5F5F5F5F5F5F5F5F5F5F5F5F5F5F5F5F5F5F5F5F5F5F5F5F5F5F5F5F5F5F5F5F5F5F5F5F5F5F5F5F5F5F5F5F5F5F5F5F5F5F5F5F5F5F5F5F5F5F5F5F5F5F5F5F5F5F5F5F5F5F5F5F5F5F5F5F5F5F5F5F5F5F5F5F5F5F5F5F5F5F5F5F5F5F5F5F5F5F5F5
310
F5F5F5F5F5F5F5F5F5F5F5F5F5F5F5F5F5F5F5F5F5F5F5F5E2E2EFF5F5F5F5F5F5F5F5F5F5F5F5F5F5F5F5F5F5F5F5F5F5F5F5F5F5F5F5F5F5F5F5F5F5F5F5F5F5F5F5F5F5F5F5F5F5F5F5F5F5F5F5F5F5F5F5F5F5F5F5F5F5F5F5F5F5F5F5F5F5F5F5F5F5F5F5F5F5F5F5F5F5F5F5F5F5F5F5F5F5F5F5F5F5F5F5F5F5F5F5
310
F5F5F5F5F5F5F5F5F5F5F5F5F5F5F5F5F5F5F5F5F5F5F5F5F5F5F5F5F5F5F5F5F5F5F5F5F5F5F5F5F5F5F5F5F5F5F5F5F5F5F5F5F5F5F5F5F5F5F5F5F5F5F5F5F5F5F5F5F5F5F5F5F5F5F5F5F5E2E2EFF5F5F5F5F5F5F5F5F5F5F5F5F5F5F5F5F5F5F5F5F5F5F5F5F5F5F5F5F5F5F5F5F5F5F5F5F5F5F5F5F5F5F5F5F5F5F5
310
F5F5F5F5F5F5F5F5F5F5F5F5F5F5F5F5F5F5F5F5F5F5F5F5F5F5F5F5F5F5F5F5F5F5F5F5F5F5F5F5F5F5F5F5F5F5F5F5F5F5F5F5F5F5F5F5F5F5F5F5F5F5F5F5F5F5F5F5F5F5F5F5F5F5F5F5F5F5F5F5F5F5F5F5F5F5F5F5F5F5F5F5F5F5F5F5F5F5F5F5F5F5F5F5F5F5F5F5F5F5F5F5F5F5F5F5F5F5F5F5F5F5F5F5F5F5F5
310
F5F5F5E2E2EFF5F5F5E2E2E2E2E2E2E2E2F5F5F5F5F5F5F5F5F5E2E2E2E2E2E2E2E2E2E2E2E2E2E2E2E2F5F5F5F5F5F5F5F5E2E2E2E2E2E2E2E2E2E2E2E2E2E2E2E2F5F5F5F5F5F5F5F5F5E2E2E2E2E2E2E2E2E2E2E2E2E2E2E2F5F5F5F5F5F5F5F5F5E2E2E2E2E2E2E2E2E2E2E2E2E2E2E2F5F5F5F5F5F5F5F5F5E2E2E2E2
310
E2E2E2E2E2E2E2E2E2E2E2E2F5F5F5F5F5F5F5F5E2E2E2E2E2E2E2E2E2E2E2E2E2E2E2E2F5F5F5F5F5F5F5F5F5E2E2E2E2E2E2E2E2F5F5F5E2E2EFF5F5F5E2F5F5F5F5F5F5F5F5F5F5F5F5F5F5F5F5F5F5F5F5F5F5F5F5F5F5F5F5F5F5F5F5F5F5F5F5F5F5F5F5F5F5F5F5F5F5F5F5F5F5F5F5F5F5F5F5F5F5F5F5F5F5F5F5
310
F5F5F5F5F5F5F5F5F5F5F5F5F5F5F5F5F5F5F5F5F5F5F5F5F5F5F5F5F5F5F5F5F5F5F5F5F5F5F5F5F5F5F5F5F5F5F5F5F5F5F5F5F5F5F5F5F5F5F5F5F5F5F5F5F5F5F5F5F5F5F5F5F5F5F5F5F5F5F5F5F5F5F5F5F5F5F5F5F5F5F5F5F5F5F5F5F5F5F5F5F5F5F5F5F5E2F5F5F5E2E2EFF5F5F5E2F5F5F5F5F5F5F5F5F5F5F5
310
F5F5F5F5F5F5F5F5F5F5F5F5F5F5F5F5F5F5F5F5F5F5F5F5F5F5F5F5F5F5F5F5F5F5F5F5F5F5F5F5F5F5F5F5F5F5F5F5F5F5F5F5F5F5F5F5F5F5F5F5F5F5F5F5F5F5F5F5F5F5F5F5F5F5F5F5F5F5F5F5F5F5F5F5F5F5F5F5F5F5F5F5F5F5F5F5F5F5F5F5F5F5F5F5F5F5F5F5F5F5F5F5F5F5F5F5F5F5F5F5F5F5F5F5F5F5F5
310
F5F5F5F5F5F5F5F5F5F5F5F5F5F5F5F5F5F5F5F5F5F5F5F5F5F5F5F5F5F5F5E2F5F5F5E2E2EFF5F5F5E2F5F5F5F5F5F5F5F5F5F5F5F5F5F5F5F5F5F5F5F5F5F5F5F5F5F5F5F5F5F5F5F5F5F5F5F5F5F5F5F5F5F5F5F5F5F5F5F5F5F5F5F5F5F5F5F5F5F5F5F5F5F5F5F5F5F5F5F5F5F5F5F5F5F5F5F5F5F5F5F5F5F5F5F5F5
310
F5F5F5F5F5F5F5F5F5F5F5F5F5F5F5F5F5F5F5F5F5F5F5F5F5F5F5F5F5F5F5F5F5F5F5F5F5F5F5F5F5F5F5F5F5F5F5F5F5F5F5F5F5F5F5F5F5F5F5F5F5F5F5F5F5F5F5F5F5F5F5F5F5F5F5F5F5F5F5F5F5F5F5F5E2F5F5F5E2E2EFF5F5F5E2F5F5F5F5F5F5F5F5F5F5F5F5F5F5F5F5F5F5F5F5F5F5F5F5F5F5F5F5F5F5F5F5
310
F5F5F5F5F5F5F5F5F5F5F5F5F5F5F5F5F5F5F5F5F5F5F5F5F5F5F5F5F5F5F5F5F5F5F5F5F5F5F5F5F5F5F5F5F5F5F5F5F5F5F5F5F5F5F5F5F5F5F5F5F5F5F5F5F5F5F5F5F5F5F5F5F5F5F5F5F5F5F5F5F5F5F5F5F5F5F5F5F5F5F5F5F5F5F5F5F5F5F5F5F5F5F5F5F5F5F5F5F5F5F5F5F5F5F5F5F5F5F5F5F5F5F5F5F5F5F5
310
F5F5F5F5F5F5F5F5F5F5E2F5F5F5E2E2EFF5F5F5E2F5F5F5F5F5F5F5F5F5F5F5F5F5F5F5F5F5F5F5F5F5F5F5F5F5F5F5F5F5F5F5F5F5F5F5F5F5F5F5F5F5F5F5F5F5F5F5F5F5F5F5F5F5F5F5F5F5F5F5F5F5F5F5F5F5F5F5F5F5F5F5F5F5F5F5F5F5F5F5F5F5F5F5F5F5F5F5F5F5F5F5F5F5F5F5F5F5F5F5F5F5F5F5F5F5F5
310
F5F5F5F5F5F5F5F5F5F5F5F5F5F5F5F5F5F5F5F5F5F5F5F5F5F5F5F5F5F5F5F5F5F5F5F5F5F5F5F5F5F5F5F5F5F5F5F5F5F5F5F5F5F5F5F5F5F5F5F5F5F5F5E2F5F5F5E2E2EFF5F5F5E2F5F5F5F5F5F5F5F5F5F5F5F5F5F5F5F5F5F5F5F5F5F5F5F5F5F5F5F5F5F5F5F5F5F5F5F5F5F5F5F5F5F5F5F5F5F5F5F5F5F5F5F5F5
310
F5F5F5F5F5F5F5F5F5F5F5F5F5F5F5F5F5F5F5F5F5F5F5F5F5F5F5F5F5F5F5F5F5F5F5F5F5F5F5F5F5F5F5F5F5F5F5F5F5F5F5F5F5F5F5F5F5F5F5F5F5F5F5F5F5F5F5F5F5F5F5F5F5F5F5F5F5F5F5F5F5F5F5F5F5F5F5F5F5F5F5F5F5F5F5F5F5F5F5F5F5F5F5F5F5F5F5F5F5F5F5F5F5F5F5F5E2F5F5F5E2E2EFF5F5F5E2
310
F5F5F5F5F5F5F5F5F5F5F5F5F5F5F5F5F5F5F5F5F5F5F5F5F5F5F5F5F5F5F5F5F5F5F5F5F5F5F5F5F5F5F5F5F5F5F5F5F5F5F5F5F5F5F5F5F5F5F5F5F5F5F5F5F5F5F5F5F5F5F5F5F5F5F5F5F5F5F5F5F5F5F5F5F5F5F5F5F5F5F5F5F5F5F5F5F5F5F5F5F5F5F5F5F5F5F5F5F5F5F5F5F5F5F5F5F5F5F5F5F5F5F5F5F5F5F5
310
F5F5F5F5F5F5F5F5F5F5F5F5F5F5F5F5F5F5F5F5F5F5F5F5F5F5F5F5F5F5F5F5F5F5F5F5F5F5F5F5F5F5E2F5F5F5E2E2EFF5F5F5E2F5F5F5F5F5F5F5F5F5F5F5F5F5F5F5F5F5F5F5F5F5F5F5F5F5F5F5F5F5F5F5F5F5F5F5F5F5F5F5F5F5F5F5F5F5F5F5F5F5F5F5F5F5F5F5F5F5F5F5F5F5F5F5F5F5F5F5F5F5F5F5F5F5F5
310
F5F5F5F5F5F5F5F5F5F5F5F5F5F5F5F5F5F5F5F5F5F5F5F5F5F5F5F5F5F5F5F5F5F5F5F5F5F5F5F5F5F5F5F5F5F5F5F5F5F5F5F5F5F5F5F5F5F5F5F5F5F5F5F5F5F5F5F5F5F5F5F5F5F5F5F5F5F5F5F5F5F5F5F5F5F5F5F5F5F5F5F5F5F5F5E2F5F5F5E2E2EFF5F5F5F5F5F5F5F5F5F5F5F5F5F5F5F5F5F5F5F5F5F5F5F5F5
310
F5F5F5F5F5F5F5F5F5F5F5F5F5F5F5F5F5F5F5F5F5F5F5F5F5F5F5F5F5F5F5F5F5F5F5F5F5F5F5F5F5F5F5F5F5F5F5F5F5F5F5F5F5F5F5F5F5F5F5F5F5F5F5F5F5F5F5F5F5F5F5F5F5F5F5F5F5F5F5F5F5F5F5F5F5F5F5F5F5F5F5F5F5F5F5F5F5F5F5F5F5F5F5F5F5F5F5F5F5F5F5F5F5F5F5F5F5F5F5F5F5F5F5F5F5F5F5
310
F5F5F5F5F5F5F5F5F5F5F5F5F5F5F5F5F5F5F5F5F5F5F5F5F5E2E2EFF5F5F5F5F5F5F5F5F5F5F5F5F5F5F5F5F5F5F5F5F5F5F5F5F5F5F5F5F5F5F5F5F5F5F5F5F5F5F5F5F5F5F5F5F5F5F5F5F5F5F5F5F5F5F5F5F5F5F5F5F5F5F5F5F5F5F5F5F5F5F5F5F5F5F5F5F5F5F5F5F5F5F5F5F5F5F5F5F5F5F5F5F5F5F5F5F5F5F5
310
F5F5F5F5F5F5F5F5F5F5F5F5F5F5F5F5F5F5F5F5F5F5F5F5F5F5F5F5F5F5F5F5F5F5F5F5F5F5F5F5F5F5F5F5F5F5F5F5F5F5F5F5F5F5F5F5F5F5F5F5F5F5F5F5F5F5F5F5F5F5F5F5F5F5F5F5F5F5E2E2EFF5F5F5F5F5F5F5F5F5F5F5F5F5F5F5F5F5F5F5F5F5F5F5F5F5F5F5F5F5F5F5F5F5F5F5F5F5F5F5F5F5F5F5F5F5F5
310
F5F5F5F5F5F5F5F5F5F5F5F5F5F5F5F5F5F5F5F5F5F5F5F5F5F5F5F5F5F5F5F5F5F5F5F5F5F5F5F5F5F5F5F5F5F5F5F5F5F5F5F5F5F5F5F5F5F5F5F5F5F5F5F5F5F5F5F5F5F5F5F5F5F5F5F5F5F5F5F5F5F5F5F5F5F5F5F5F5F5F5F5F5F5F5F5F5F5F5F5F5F5F5F5F5F5F5F5F5F5F5F5F5F5F5F5F5F5F5F5F5F5F5F5F5F5F5
310
F5F5F5F5E2E2EFF5F5F5F5F5F5F5F5F5F5F5F5F5F5F5F5F5F5F5F5F5F5F5F5F5F5F5F5F5F5F5F5F5F5F5F5F5F5F5F5F5F5F5F5F5F5F5F5F5F5F5F5F5F5F5F5F5F5F5F5F5F5F5F5F5F5F5F5F5F5F5F5F5F5F5F5F5F5F5F5F5F5F5F5F5F5F5F5F5F5F5F5F5F5F5F5F5F5F5F5F5F5F5F5F5F5F5F5F5F5F5F5F5F5F5F5F5F5F5F5
310
F5F5F5F5F5F5F5F5F5F5F5F5F5F5F5F5F5F5F5F5F5F5F5F5F5F5F5F5F5F5F5F5F5F5F5F5F5F5F5F5F5F5F5F5F5F5F5F5F5F5F5F5F5F5F5F5F5E2E2EFF5F5F5F5F5F5F5F5F5F5F5F5F5F5F5F5F5F5F5F5E2E2E2E2E2E2E2E2E2E2E2E2E2E2E2E2E2E2E2E2E2E2E2E2E2E2E2E2E2E2E2E2E2E2E2E2E2E2E2E2E2E2E2E2E2E2E2
310
E2E2E2E2E2E2E2E2E2E2E2E2E2E2E2E2E2E2E2E2E2E2E2E2E2E2E2E2E2E2E2E2E2E2E2E2E2E2E2E2E2E2E2E2E2E2E2E2E2E2E2E2E2E2E2E2E2E2E2E2E2E2E2E2E2E2E2E2E2E2E2E2E2E2E2E2E2E2E2E2E2E2E2E2E2E2E2E2E2E2F5F5F5F5F5F5F5F5F5F5F5F5F5F5F5F5F5F5F5F5E2E2EFF5F5F5F5F5F5F5F5F5F5F5F5F5F5
310
F5F5F5F5F5F5E2F5F5F5F5F5F5F5F5F5F5F5F5F5F5F5F5F5F5F5F5F5F5F5F5F5F5F5F5F5F5F5F5F5F5F5F5F5F5F5F5F5F5F5F5F5F5F5F5F5F5F5F5F5F5F5F5F5F5F5F5F5F5F5F5F5F5F5F5F5F5F5F5F5F5F5F5F5F5F5F5F5F5F5F5F5F5F5F5F5F5F5F5F5F5F5F5F5F5F5F5F5F5F5F5F5F5F5F5F5F5F5F5F5F5F5F5F5F5F5F5
310
F5F5F5F5F5F5F5F5F5F5F5F5F5F5F5E2F5F5F5F5F5F5F5F5F5F5F5F5F5F5F5F5F5F5F5F5E2E2EFF5F5F5F5F5F5F5F5F5F5F5F5F5F5F5F5F5F5F5F5E2F5F5F5F5F5F5F5F5F5F5F5F5F5F5F5F5F5F5F5F5F5F5F5F5F5F5F5F5F5F5F5F5F5F5F5F5F5F5F5F5F5F5F5F5F5F5F5F5F5F5F5F5F5F5F5F5F5F5F5F5F5F5F5F5F5F5F5
310
F5F5F5F5F5F5F5F5F5F5F5F5F5F5F5F5F5F5F5F5F5F5F5F5F5F5F5F5F5F5F5F5F5F5F5F5F5F5F5F5F5F5F5F5F5F5F5F5F5F5F5F5F5F5F5F5F5F5F5F5F5F5F5F5F5F5F5F5E2F5F5F5F5F5F5F5F5F5F5F5F5F5F5F5F5F5F5F5F5E2E2EFF5F5F5F5F5F5F5F5F5F5F5F5F5F5F5F5F5F5F5F5E2F5F5F5F5F5F5F5F5F5F5F5F5F5F5
310
F5F5F5F5F5F5F5F5F5F5F5F5F5F5F5F5F5F5F5F5F5F5F5F5F5F5F5F5F5F5F5F5F5F5F5F5F5F5F5F5F5F5F5F5F5F5F5F5F5F5F5F5F5F5F5F5F5F5F5F5F5F5F5F5F5F5F5F5F5F5F5F5F5F5F5F5F5F5F5F5F5F5F5F5F5F5F5F5F5F5F5F5F5F5F5F5F5F5F5F5F5F5F5F5F5F5F5F5F5F5F5F5F5F5F5F5F5F5F5F5F5E2F5F5F5F5F5
310
F5F5F5F5F5F5F5F5F5F5F5F5F5F5F5E2E2EFF5F5F5F5F5F5F5F5F5F5F5F5F5F5F5F5F5F5F5F5E2F5F5F5F5F5F5F5F5F5F5F5F5F5F5F5F5F5F5F5F5F5F5F5F5F5F5F5F5F5F5F5F5F5F5F5F5F5F5F5F5F5F5F5F5F5F5F5F5F5F5F5F5F5F5F5F5F5F5F5F5F5F5F5F5F5F5F5F5F5F5F5F5F5F5F5F5F5F5F5F5F5F5F5F5F5F5F5F5
310
F5F5F5F5F5F5F5F5F5F5F5F5F5F5F5F5F5F5F5F5F5F5F5F5F5F5F5F5F5F5F5F5F5F5F5F5F5F5F5F5F5F5F5F5F5F5F5E2F5F5F5F5F5F5F5F5F5F5F5F5F5F5F5F5F5F5F5F5E2E2EFF5F5F5E2F5F5F5F5F5F5F5F5F5F5F5F5F5F5F5F5E2F5F5F5F5F5F5F5F5F5F5F5F5F5F5F5F5F5F5F5F5F5F5F5F5F5F5F5F5F5F5F5F5F5F5F5
310
F5F5F5F5F5F5F5F5F5F5F5F5F5F5F5F5F5F5F5F5F5F5F5F5F5F5F5F5F5F5F5F5F5F5F5F5F5F5F5F5F5F5F5F5F5F5F5F5F5F5F5F5F5F5F5F5F5F5F5F5F5F5F5F5F5F5F5F5F5F5F5F5F5F5F5F5F5F5F5F5F5F5F5F5F5F5F5F5F5F5F5F5F5F5F5F5F5F5F5F5E2F5F5F5F5F5F5F5F5F5F5F5F5F5F5F5F5E2F5F5F5E2E2EFF5F5F5
310
E2F5F5F5F5F5F5F5F5F5F5F5F5F5F5F5F5E2F5F5F5F5F5F5F5F5F5F5F5F5F5F5F5F5F5F5F5F5F5F5F5F5F5F5F5F5F5F5F5F5F5F5F5F5F5F5F5F5F5F5F5F5F5F5F5F5F5F5F5F5F5F5F5F5F5F5F5F5F5F5F5F5F5F5F5F5F5F5F5F5F5F5F5F5F5F5F5F5F5F5F5F5F5F5F5F5F5F5F5F5F5F5F5F5F5F5F5F5F5F5F5F5F5F5F5F5F5
310
F5F5F5F5F5F5F5F5F5F5F5F5F5F5F5F5F5F5F5F5F5F5F5F5F5F5E2F5F5F5F5F5F5F5F5F5F5F5F5F5F5F5F5E2F5F5F5E2E2EFF5F5F5E2F5F5F5F5F5F5F5F5F5F5F5F5F5F5F5F5E2F5F5F5F5F5F5F5F5F5F5F5F5F5F5F5F5F5F5F5F5F5F5F5F5F5F5F5F5F5F5F5F5F5F5F5F5F5F5F5F5F5F5F5F5F5F5F5F5F5F5F5F5F5F5F5F5
310
F5F5F5F5F5F5F5F5F5F5F5F5F5F5F5F5F5F5F5F5F5F5F5F5F5F5F5F5F5F5F5F5F5F5F5F5F5F5F5F5F5F5F5F5F5F5F5F5F5F5F5F5F5F5F5F5F5F5F5F5F5F5F5F5F5F5F5F5F5F5F5F5F5F5F5F5F5F5F5E2F5F5F5F5F5F5F5F5F5F5F5F5F5F5F5F5E2F5F5F5E2E2EFF5F5F5E2F5F5F5F5F5F5F5F5F5F5F5F5F5F5F5F5E2F5F5F5
310
F5F5F5F5F5F5F5F5F5F5F5F5F5F5F5F5F5F5F5F5F5F5F5F5F5F5F5F5F5F5F5F5F5F5F5F5F5F5F5F5F5F5F5F5F5F5F5F5F5F5F5F5F5F5F5F5F5F5F5F5F5F5F5F5F5F5F5F5F5F5F5F5F5F5F5F5F5F5F5F5F5F5F5F5F5F5F5F5F5F5F5F5F5F5F5F5F5F5F5F5F5F5F5F5F5F5F5F5F5F5F5F5F5F5F5F5F5F5F5F5F5F5F5F5F5F5F5
310
F5F5F5F5F5E2F5F5F5F5F5F5F5F5F5F5F5F5F5F5F5F5E2F5F5F5E2E2EFF5F5F5E2F5F5F5F5F5F5F5F5F5F5F5F5F5F5F5F5E2F5F5F5F5F5F5F5F5F5F5F5F5F5F5F5F5F5F5F5F5F5F5F5F5F5F5F5F5F5F5F5F5F5F5F5F5F5F5F5F5F5F5F5F5F5F5F5F5F5F5F5F5F5F5F5F5F5F5F5F5F5F5F5F5F5F5F5F5F5F5F5F5F5F5F5F5F5
310
F5F5F5F5F5F5F5F5F5F5F5F5F5F5F5F5F5F5F5F5F5F5F5F5F5F5F5F5F5F5F5F5F5F5F5F5F5F5F5F5F5F5F5F5F5F5F5F5F5F5F5F5F5F5F5F5F5F5E2F5F5F5F5F5F5F5F5F5F5F5F5F5F5F5F5E2F5F5F5E2E2EFF5F5F5E2F5F5F5F5F5F5F5F5F5F5F5F5F5F5F5F5E2F5F5F5F5F5F5F5F5F5F5F5F5F5F5F5F5F5F5F5F5F5F5F5F5
310
F5F5F5F5F5F5F5F5F5F5F5F5F5F5F5F5F5F5F5F5F5F5F5F5F5F5F5F5F5F5F5F5F5F5F5F5F5F5F5F5F5F5F5F5F5F5F5F5F5F5F5F5F5F5F5F5F5F5F5F5F5F5F5F5F5F5F5F5F5F5F5F5F5F5F5F5F5F5F5F5F5F5F5F5F5F5F5F5F5F5F5F5F5F5F5F5F5F5F5F5F5F5F5F5F5F5F5F5F5F5F5E2F5F5F5F5F5F5F5F5F5F5F5F5F5F5F5
310
F5E2F5F5F5E2E2EFF5F5F5E2F5F5F5F5F5F5F5F5F5F5F5F5F5F5F5F5E2F5F5F5F5F5F5F5F5F5F5F5F5F5F5F5F5F5F5F5F5F5F5F5F5F5F5F5F5F5F5F5F5F5F5F5F5F5F5F5F5F5F5F5F5F5F5F5F5F5F5F5F5F5F5F5F5F5F5F5F5F5F5F5F5F5F5F5F5F5F5F5F5F5F5F5F5F5F5F5F5F5F5F5F5F5F5F5F5F5F5F5F5F5F5F5F5F5F5
310
F5F5F5F5F5F5F5F5F5F5F5F5F5F5F5F5F5F5F5F5F5F5F5F5F5F5F5F5F5F5F5F5F5F5F5F5F5E2F5F5F5F5F5F5F5F5F5F5F5F5F5F5F5F5E2F5F5F5E2E2EFF5F5F5E2F5F5F5F5F5F5F5F5F5F5F5F5F5F5F5F5E2F5F5F5F5F5F5F5F5F5F5F5F5F5F5F5F5F5F5F5F5F5F5F5F5F5F5F5F5F5F5F5F5F5F5F5F5F5F5F5F5F5F5F5F5F5
310
F5F5F5F5F5F5F5F5F5F5F5F5F5F5F5F5F5F5F5F5F5F5F5F5F5F5F5F5F5F5F5F5F5F5F5F5F5F5F5F5F5F5F5F5F5F5F5F5F5F5F5F5F5F5F5F5F5F5F5F5F5F5F5F5F5F5F5F5F5F5F5F5F5F5F5F5F5F5F5F5F5F5F5F5F5F5F5F5F5F5E2F5F5F5F5F5F5F5F5F5F5F5F5F5F5F5F5E2F5F5F5E2E2EFF5F5F5E2F5F5F5F5F5F5F5F5F5
310
F5F5F5F5F5F5F5E2F5F5F5F5F5F5F5F5F5F5F5F5F5F5F5F5F5F5F5F5F5F5F5F5F5F5F5F5F5F5F5F5F5F5F5F5F5F5F5F5F5F5F5F5F5F5F5F5F5F5F5F5F5F5F5F5F5F5F5F5F5F5F5F5F5F5F5F5F5F5F5F5F5F5F5F5F5F5F5F5F5F5F5F5F5F5F5F5F5F5F5F5F5F5F5F5F5F5F5F5F5F5F5F5F5F5F5F5F5F5F5F5F5F5F5F5F5F5F5
310
F5F5F5F5F5F5F5F5F5F5F5F5F5F5F5F5E2F5F5F5F5F5F5F5F5F5F5F5F5F5F5F5F5E2F5F5F5E2E2EFF5F5F5E2F5F5F5F5F5F5F5F5F5F5F5F5F5F5F5F5E2F5F5F5F5F5F5F5F5F5F5F5F5F5F5F5F5F5F5F5F5F5F5F5F5F5F5F5F5F5F5F5F5F5F5F5F5F5F5F5F5F5F5F5F5F5F5F5F5F5F5F5F5F5F5F5F5F5F5F5F5F5F5F5F5F5F5
310
F5F5F5F5F5F5F5F5F5F5F5F5F5F5F5F5F5F5F5F5F5F5F5F5F5F5F5F5F5F5F5F5F5F5F5F5F5F5F5F5F5F5F5F5F5F5F5F5F5F5F5F5F5F5F5F5F5F5F5F5F5F5F5F5F5F5F5F5F5E2F5F5F5F5F5F5F5F5F5F5F5F5F5F5F5F5E2F5F5F5E2E2EFF5F5F5E2F5F5F5F5F5F5F5F5F5F5F5F5F5F5F5F5E2F5F5F5F5F5F5F5F5F5F5F5F5F5
310
F5F5F5F5F5F5F5F5F5F5F5F5F5F5F5F5F5F5F5F5F5F5F5F5F5F5F5F5F5F5F5F5F5F5F5F5F5F5F5F5F5F5F5F5F5F5F5F5F5F5F5F5F5F5F5F5F5F5F5F5F5F5F5F5F5F5F5F5F5F5F5F5F5F5F5F5F5F5F5F5F5F5F5F5F5F5F5F5F5F5F5F5F5F5F5F5F5F5F5F5F5F5F5F5F5F5F5F5F5F5F5F5F5F5F5F5F5F5F5F5F5F5E2F5F5F5F5
310
F5F5F5F5F5F5F5F5F5F5F5F5E2F5F5F5E2E2EFF5F5F5E2F5F5F5F5F5F5F5F5F5F5F5F5F5F5F5F5E2F5F5F5F5F5F5F5F5F5F5F5F5F5F5F5F5F5F5F5F5F5F5F5F5F5F5F5F5F5F5F5F5F5F5F5F5F5F5F5F5F5F5F5F5F5F5F5F5F5F5F5F5F5F5F5F5F5F5F5F5F5F5F5F5F5F5F5F5F5F5F5F5F5F5F5F5F5F5F5F5F5F5F5F5F5F5F5
310
F5F5F5F5F5F5F5F5F5F5F5F5F5F5F5F5F5F5F5F5F5F5F5F5F5F5F5F5F5F5F5F5F5F5F5F5F5F5F5F5F5F5F5F5F5F5F5F5E2F5F5F5F5F5F5F5F5F5F5F5F5F5F5F5F5E2F5F5F5E2E2EFF5F5F5E2F5F5F5F5F5F5F5F5F5F5F5F5F5F5F5F5E2F5F5F5F5F5F5F5F5F5F5F5F5F5F5F5F5F5F5F5F5F5F5F5F5F5F5F5F5F5F5F5F5F5F5
310
F5F5F5F5F5F5F5F5F5F5F5F5F5F5F5F5F5F5F5F5F5F5F5F5F5F5F5F5F5F5F5F5F5F5F5F5F5F5F5F5F5F5F5F5F5F5F5F5F5F5F5F5F5F5F5F5F5F5F5F5F5F5F5F5F5F5F5F5F5F5F5F5F5F5F5F5F5F5F5F5F5F5F5F5F5F5F5F5F5F5F5F5F5F5F5F5F5F5F5F5F5E2F5F5F5F5F5F5F5F5F5F5F5F5F5F5F5F5E2F5F5F5E2E2EFF5F5
310
F5E2F5F5F5F5F5F5F5F5F5F5F5F5F5F5F5F5E2F5F5F5F5F5F5F5F5F5F5F5F5F5F5F5F5F5F5F5F5F5F5F5F5F5F5F5F5F5F5F5F5F5F5F5F5F5F5F5F5F5F5F5F5F5F5F5F5F5F5F5F5F5F5F5F5F5F5F5F5F5F5F5F5F5F5F5F5F5F5F5F5F5F5F5F5F5F5F5F5F5F5F5F5F5F5F5F5F5F5F5F5F5F5F5F5F5F5F5F5F5F5F5F5F5F5F5F5
310
F5F5F5F5F5F5F5F5F5F5F5F5F5F5F5F5F5F5F5F5F5F5F5F5F5F5F5E2F5F5F5F5F5F5F5F5F5F5F5F5F5F5F5F5E2F5F5F5E2E2EFF5F5F5E2F5F5F5F5F5F5F5F5F5F5F5F5F5F5F5F5E2F5F5F5F5F5F5F5F5F5F5F5F5F5F5F5F5F5F5F5F5F5F5F5F5F5F5F5F5F5F5F5F5F5F5F5F5F5F5F5F5F5F5F5F5F5F5F5F5F5F5F5F5F5F5F5
310
F5F5F5F5F5F5F5F5F5F5F5F5F5F5F5F5F5F5F5F5F5F5F5F5F5F5F5F5F5F5F5F5F5F5F5F5F5F5F5F5F5F5F5F5F5F5F5F5F5F5F5F5F5F5F5F5F5F5F5F5F5F5F5F5F5F5F5F5F5F5F5F5F5F5F5F5F5F5F5F5E2F5F5F5F5F5F5F5F5F5F5F5F5F5F5F5F5E2F5F5F5E2E2EFF5F5F5E2F5F5F5F5F5F5F5F5F5F5F5F5F5F5F5F5E2F5F5
310
F5F5F5F5F5F5F5F5F5F5F5F5F5F5F5F5F5F5F5F5F5F5F5F5F5F5F5F5F5F5F5F5F5F5F5F5F5F5F5F5F5F5F5F5F5F5F5F5F5F5F5F5F5F5F5F5F5F5F5F5F5F5F5F5F5F5F5F5F5F5F5F5F5F5F5F5F5F5F5F5F5F5F5F5F5F5F5F5F5F5F5F5F5F5F5F5F5F5F5F5F5F5F5F5F5F5F5F5F5F5F5F5F5F5F5F5F5F5F5F5F5F5F5F5F5F5F5
310
F5F5F5F5F5F5E2F5F5F5F5F5F5F5F5F5F5F5F5F5F5F5F5E2F5F5F5E2E2EFF5F5F5E2F5F5F5F5F5F5F5F5F5F5F5F5F5F5F5F5E2F5F5F5F5F5F5F5F5F5F5F5F5F5F5F5F5F5F5F5F5F5F5F5F5F5F5F5F5F5F5F5F5F5F5F5F5F5F5F5F5F5F5F5F5F5F5F5F5F5F5F5F5F5F5F5F5F5F5F5F5F5F5F5F5F5F5F5F5F5F5F5F5F5F5F5F5
310
F5F5F5F5F5F5F5F5F5F5F5F5F5F5F5F5F5F5F5F5F5F5F5F5F5F5F5F5F5F5F5F5F5F5F5F5F5F5F5F5F5F5F5F5F5F5F5F5F5F5F5F5F5F5F5F5F5F5F5E2F5F5F5F5F5F5F5F5F5F5F5F5F5F5F5F5E2F5F5F5E2E2EFF5F5F5F5F5F5F5F5F5F5F5F5F5F5F5F5F5F5F5F5E2F5F5F5F5F5F5F5F5F5F5F5F5F5F5F5F5F5F5F5F5F5F5F5
310
F5F5F5F5F5F5F5F5F5F5F5F5F5F5F5F5F5F5F5F5F5F5F5F5F5F5F5F5F5F5F5F5F5F5F5F5F5F5F5F5F5F5F5F5F5F5F5F5F5F5F5F5F5F5F5F5F5F5F5F5F5F5F5F5F5F5F5F5F5F5F5F5F5F5F5F5F5F5F5F5F5F5F5F5F5F5F5F5F5F5F5F5F5F5F5F5F5F5F5F5F5F5F5F5F5F5F5F5F5F5F5F5E2F5F5F5F5F5F5F5F5F5F5F5F5F5F5
310
F5F5F5F5F5F5E2E2EFF5F5F5F5F5F5F5F5F5F5F5F5F5F5F5F5F5F5F5F5E2F5F5F5F5F5F5F5F5F5F5F5F5F5F5F5F5F5F5F5F5F5F5F5F5F5F5F5F5F5F5F5F5F5F5F5F5F5F5F5F5F5F5F5F5F5F5F5F5F5F5F5F5F5F5F5F5F5F5F5F5F5F5F5F5F5F5F5F5F5F5F5F5F5F5F5F5F5F5F5F5F5F5F5F5F5F5F5F5F5F5F5F5F5F5F5F5F5
310
F5F5F5F5F5F5F5F5F5F5F5F5F5F5F5F5F5F5F5F5F5F5F5F5F5F5F5F5F5F5F5F5F5F5F5F5F5F5E2F5F5F5F5F5F5F5F5F5F5F5F5F5F5F5F5F5F5F5F5E2E2EFF5F5F5F5F5F5F5F5F5F5F5F5F5F5F5F5F5F5F5F5E2F5F5F5F5F5F5F5F5F5F5F5F5F5F5F5F5F5F5F5F5F5F5F5F5F5F5F5F5F5F5F5F5F5F5F5F5F5F5F5F5F5F5F5F5
310
F5F5F5F5F5F5F5F5F5F5F5F5F5F5F5F5F5F5F5F5F5F5F5F5F5F5F5F5F5F5F5F5F5F5F5F5F5F5F5F5F5F5F5F5F5F5F5F5F5F5F5F5F5F5F5F5F5F5F5F5F5F5F5F5F5F5F5F5F5F5F5F5F5F5F5F5F5F5F5F5F5F5F5F5F5F5F5F5F5F5F5E2F5F5F5F5F5F5F5F5F5F5F5F5F5F5F5F5F5F5F5F5E2E2EFF5F5F5F5F5F5F5F5F5F5F5F5
310
F5F5F5F5F5F5F5F5E2F5F5F5F5F5F5F5F5F5F5F5F5F5F5F5F5F5F5F5F5F5F5F5F5F5F5F5F5F5F5F5F5F5F5F5F5F5F5F5F5F5F5F5F5F5F5F5F5F5F5F5F5F5F5F5F5F5F5F5F5F5F5F5F5F5F5F5F5F5F5F5F5F5F5F5F5F5F5F5F5F5F5F5F5F5F5F5F5F5F5F5F5F5F5F5F5F5F5F5F5F5F5F5F5F5F5F5F5F5F5F5F5F5F5F5F5F5F5
310
F5F5F5F5F5F5F5F5F5F5F5F5F5F5F5F5F5E2F5F5F5F5F5F5F5F5F5F5F5F5F5F5F5F5F5F5F5F5E2E2EFF5F5F5F5F5F5F5F5F5F5F5F5F5F5F5F5F5F5F5F5E2F5F5F5F5F5F5F5F5F5F5F5F5F5F5F5F5F5F5F5F5F5F5F5F5F5F5F5F5F5F5F5F5F5F5F5F5F5F5F5F5F5F5F5F5F5F5F5F5F5F5F5F5F5F5F5F5F5F5F5F5F5F5F5F5F5
310
F5F5F5F5F5F5F5F5F5F5F5F5F5F5F5F5F5F5F5F5F5F5F5F5F5F5F5F5F5F5F5F5F5F5F5F5F5F5F5F5F5F5F5F5F5F5F5F5F5F5F5F5F5F5F5F5F5F5F5F5F5F5F5F5F5F5F5F5F5F5E2F5F5F5F5F5F5F5F5F5F5F5F5F5F5F5F5F5F5F5F5E2E2EFF5F5F5F5F5F5F5F5F5F5F5F5F5F5F5F5F5F5F5F5E2F5F5F5F5F5F5F5F5F5F5F5F5
310
F5F5F5F5F5F5F5F5F5F5F5F5F5F5F5F5F5F5F5F5F5F5F5F5F5F5F5F5F5F5F5F5F5F5F5F5F5F5F5F5F5F5F5F5F5F5F5F5F5F5F5F5F5F5F5F5F5F5F5F5F5F5F5F5F5F5F5F5F5F5F5F5F5F5F5F5F5F5F5F5F5F5F5F5F5F5F5F5F5F5F5F5F5F5F5F5F5F5F5F5F5F5F5F5F5F5F5F5F5F5F5F5F5F5F5F5F5F5F5F5F5F5F5E2F5F5F5
310
F5F5F5F5F5F5F5F5F5F5F5F5F5F5F5F5F5E2E2EFF5F5F5F5F5F5F5F5F5F5F5F5F5F5F5F5F5F5F5F5E2F5F5F5F5F5F5F5F5F5F5F5F5F5F5F5F5F5F5F5F5F5F5F5F5F5F5F5F5F5F5F5F5F5F5F5F5F5F5F5F5F5F5F5F5F5F5F5F5F5F5F5F5F5F5F5F5F5F5F5F5F5F5F5F5F5F5F5F5F5F5F5F5F5F5F5F5F5F5F5F5F5F5F5F5F5F5
310
F5F5F5F5F5F5F5F5F5F5F5F5F5F5F5F5F5F5F5F5F5F5F5F5F5F5F5F5F5F5F5F5F5F5F5F5F5F5F5F5F5F5F5F5F5F5F5F5F5E2F5F5F5F5F5F5F5F5F5F5F5F5F5F5F5F5F5F5F5F5E2E2EFF5F5F5F5F5F5F5F5F5F5F5F5F5F5F5F5F5F5F5F5E2F5F5F5F5F5F5F5F5F5F5F5F5F5F5F5F5F5F5F5F5F5F5F5F5F5F5F5F5F5F5F5F5F5
310
F5F5F5F5F5F5F5F5F5F5F5F5F5F5F5F5F5F5F5F5F5F5F5F5F5F5F5F5F5F5F5F5F5F5F5F5F5F5F5F5F5F5F5F5F5F5F5F5F5F5F5F5F5F5F5F5F5F5F5F5F5F5F5F5F5F5F5F5F5F5F5F5F5F5F5F5F5F5F5F5F5F5F5F5F5F5F5F5F5F5F5F5F5F5F5F5F5F5F5F5F5F5E2F5F5F5F5F5F5F5F5F5F5F5F5F5F5F5F5F5F5F5F5E2E2EFF5
310
F5F5F5F5F5F5F5F5F5F5F5F5F5F5F5F5F5F5F5E2F5F5F5F5F5F5F5F5F5F5F5F5F5F5F5F5F5F5F5F5F5F5F5F5F5F5F5F5F5F5F5F5F5F5F5F5F5F5F5F5F5F5F5F5F5F5F5F5F5F5F5F5F5F5F5F5F5F5F5F5F5F5F5F5F5F5F5F5F5F5F5F5F5F5F5F5F5F5F5F5F5F5F5F5F5F5F5F5F5F5F5F5F5F5F5F5F5F5F5F5F5F5F5F5F5F5F5
310
F5F5F5F5F5F5F5F5F5F5F5F5F5F5F5F5F5F5F5F5F5F5F5F5F5F5F5F5E2F5F5F5F5F5F5F5F5F5F5F5F5F5F5F5F5F5F5F5F5E2E2EFF5F5F5E2F5F5F5F5F5F5F5F5F5F5F5F5F5F5F5F5E2F5F5F5F5F5F5F5F5F5F5F5F5F5F5F5F5F5F5F5F5F5F5F5F5F5F5F5F5F5F5F5F5F5F5F5F5F5F5F5F5F5F5F5F5F5F5F5F5F5F5F5F5F5F5
310
F5F5F5F5F5F5F5F5F5F5F5F5F5F5F5F5F5F5F5F5F5F5F5F5F5F5F5F5F5F5F5F5F5F5F5F5F5F5F5F5F5F5F5F5F5F5F5F5F5F5F5F5F5F5F5F5F5F5F5F5F5F5F5F5F5F5F5F5F5F5F5F5F5F5F5F5F5F5F5F5F5E2F5F5F5F5F5F5F5F5F5F5F5F5F5F5F5F5E2F5F5F5E2E2EFF5F5F5E2F5F5F5F5F5F5F5F5F5F5F5F5F5F5F5F5E2F5
310
F5F5F5F5F5F5F5F5F5F5F5F5F5F5F5F5F5F5F5F5F5F5F5F5F5F5F5F5F5F5F5F5F5F5F5F5F5F5F5F5F5F5F5F5F5F5F5F5F5F5F5F5F5F5F5F5F5F5F5F5F5F5F5F5F5F5F5F5F5F5F5F5F5F5F5F5F5F5F5F5F5F5F5F5F5F5F5F5F5F5F5F5F5F5F5F5F5F5F5F5F5F5F5F5F5F5F5F5F5F5F5F5F5F5F5F5F5F5F5F5F5F5F5F5F5F5F5
310
F5F5F5F5F5F5F5E2F5F5F5F5F5F5F5F5F5F5F5F5F5F5F5F5E2F5F5F5E2E2EFF5F5F5E2F5F5F5F5F5F5F5F5F5F5F5F5F5F5F5F5E2F5F5F5F5F5F5F5F5F5F5F5F5F5F5F5F5F5F5F5F5F5F5F5F5F5F5F5F5F5F5F5F5F5F5F5F5F5F5F5F5F5F5F5F5F5F5F5F5F5F5F5F5F5F5F5F5F5F5F5F5F5F5F5F5F5F5F5F5F5F5F5F5F5F5F5
310
F5F5F5F5F5F5F5F5F5F5F5F5F5F5F5F5F5F5F5F5F5F5F5F5F5F5F5F5F5F5F5F5F5F5F5F5F5F5F5F5F5F5F5F5F5F5F5F5F5F5F5F5F5F5F5F5F5F5F5F5E2F5F5F5F5F5F5F5F5F5F5F5F5F5F5F5F5E2F5F5F5E2E2EFF5F5F5E2F5F5F5F5F5F5F5F5F5F5F5F5F5F5F5F5E2F5F5F5F5F5F5F5F5F5F5F5F5F5F5F5F5F5F5F5F5F5F5
310
F5F5F5F5F5F5F5F5F5F5F5F5F5F5F5F5F5F5F5F5F5F5F5F5F5F5F5F5F5F5F5F5F5F5F5F5F5F5F5F5F5F5F5F5F5F5F5F5F5F5F5F5F5F5F5F5F5F5F5F5F5F5F5F5F5F5F5F5F5F5F5F5F5F5F5F5F5F5F5F5F5F5F5F5F5F5F5F5F5F5F5F5F5F5F5F5F5F5F5F5F5F5F5F5F5F5F5F5F5F5F5F5F5E2F5F5F5F5F5F5F5F5F5F5F5F5F5
310
F5F5F5E2F5F5F5E2E2EFF5F5F5E2F5F5F5F5F5F5F5F5F5F5F5F5F5F5F5F5E2F5F5F5F5F5F5F5F5F5F5F5F5F5F5F5F5F5F5F5F5F5F5F5F5F5F5F5F5F5F5F5F5F5F5F5F5F5F5F5F5F5F5F5F5F5F5F5F5F5F5F5F5F5F5F5F5F5F5F5F5F5F5F5F5F5F5F5F5F5F5F5F5F5F5F5F5F5F5F5F5F5F5F5F5F5F5F5F5F5F5F5F5F5F5F5F5
310
F5F5F5F5F5F5F5F5F5F5F5F5F5F5F5F5F5F5F5F5F5F5F5F5F5F5F5F5F5F5F5F5F5F5F5F5F5F5F5E2F5F5F5F5F5F5F5F5F5F5F5F5F5F5F5F5E2F5F5F5E2E2EFF5F5F5E2F5F5F5F5F5F5F5F5F5F5F5F5F5F5F5F5E2F5F5F5F5F5F5F5F5F5F5F5F5F5F5F5F5F5F5F5F5F5F5F5F5F5F5F5F5F5F5F5F5F5F5F5F5F5F5F5F5F5F5F5
310
F5F5F5F5F5F5F5F5F5F5F5F5F5F5F5F5F5F5F5F5F5F5F5F5F5F5F5F5F5F5F5F5F5F5F5F5F5F5F5F5F5F5F5F5F5F5F5F5F5F5F5F5F5F5F5F5F5F5F5F5F5F5F5F5F5F5F5F5F5F5F5F5F5F5F5F5F5F5F5F5F5F5F5F5F5F5F5F5F5F5F5F5E2F5F5F5F5F5F5F5F5F5F5F5F5F5F5F5F5E2F5F5F5E2E2EFF5F5F5E2F5F5F5F5F5F5F5
310
F5F5F5F5F5F5F5F5F5E2F5F5F5F5F5F5F5F5F5F5F5F5F5F5F5F5F5F5F5F5F5F5F5F5F5F5F5F5F5F5F5F5F5F5F5F5F5F5F5F5F5F5F5F5F5F5F5F5F5F5F5F5F5F5F5F5F5F5F5F5F5F5F5F5F5F5F5F5F5F5F5F5F5F5F5F5F5F5F5F5F5F5F5F5F5F5F5F5F5F5F5F5F5F5F5F5F5F5F5F5F5F5F5F5F5F5F5F5F5F5F5F5F5F5F5F5F5
310
F5F5F5F5F5F5F5F5F5F5F5F5F5F5F5F5F5F5E2F5F5F5F5F5F5F5F5F5F5F5F5F5F5F5F5E2F5F5F5E2E2EFF5F5F5E2F5F5F5F5F5F5F5F5F5F5F5F5F5F5F5F5E2F5F5F5F5F5F5F5F5F5F5F5F5F5F5F5F5F5F5F5F5F5F5F5F5F5F5F5F5F5F5F5F5F5F5F5F5F5F5F5F5F5F5F5F5F5F5F5F5F5F5F5F5F5F5F5F5F5F5F5F5F5F5F5F5
310
F5F5F5F5F5F5F5F5F5F5F5F5F5F5F5F5F5F5F5F5F5F5F5F5F5F5F5F5F5F5F5F5F5F5F5F5F5F5F5F5F5F5F5F5F5F5F5F5F5F5F5F5F5F5F5F5F5F5F5F5F5F5F5F5F5F5F5F5F5F5F5E2F5F5F5F5F5F5F5F5F5F5F5F5F5F5F5F5E2F5F5F5E2E2EFF5F5F5E2F5F5F5F5F5F5F5F5F5F5F5F5F5F5F5F5E2F5F5F5F5F5F5F5F5F5F5F5
310
F5F5F5F5F5F5F5F5F5F5F5F5F5F5F5F5F5F5F5F5F5F5F5F5F5F5F5F5F5F5F5F5F5F5F5F5F5F5F5F5F5F5F5F5F5F5F5F5F5F5F5F5F5F5F5F5F5F5F5F5F5F5F5F5F5F5F5F5F5F5F5F5F5F5F5F5F5F5F5F5F5F5F5F5F5F5F5F5F5F5F5F5F5F5F5F5F5F5F5F5F5F5F5F5F5F5F5F5F5F5F5F5F5F5F5F5F5F5F5F5F5F5F5F5E2F5F5
310
F5F5F5F5F5F5F5F5F5F5F5F5F5F5E2F5F5F5E2E2EFF5F5F5E2F5F5F5F5F5F5F5F5F5F5F5F5F5F5F5F5E2F5F5F5F5F5F5F5F5F5F5F5F5F5F5F5F5F5F5F5F5F5F5F5F5F5F5F5F5F5F5F5F5F5F5F5F5F5F5F5F5F5F5F5F5F5F5F5F5F5F5F5F5F5F5F5F5F5F5F5F5F5F5F5F5F5F5F5F5F5F5F5F5F5F5F5F5F5F5F5F5F5F5F5F5F5
310
F5F5F5F5F5F5F5F5F5F5F5F5F5F5F5F5F5F5F5F5F5F5F5F5F5F5F5F5F5F5F5F5F5F5F5F5F5F5F5F5F5F5F5F5F5F5F5F5F5F5E2F5F5F5F5F5F5F5F5F5F5F5F5F5F5F5F5E2F5F5F5E2E2EFF5F5F5E2F5F5F5F5F5F5F5F5F5F5F5F5F5F5F5F5E2F5F5F5F5F5F5F5F5F5F5F5F5F5F5F5F5F5F5F5F5F5F5F5F5F5F5F5F5F5F5F5F5
310
F5F5F5F5F5F5F5F5F5F5F5F5F5F5F5F5F5F5F5F5F5F5F5F5F5F5F5F5F5F5F5F5F5F5F5F5F5F5F5F5F5F5F5F5F5F5F5F5F5F5F5F5F5F5F5F5F5F5F5F5F5F5F5F5F5F5F5F5F5F5F5F5F5F5F5F5F5F5F5F5F5F5F5F5F5F5F5F5F5F5F5F5F5F5F5F5F5F5F5F5F5F5F5E2F5F5F5F5F5F5F5F5F5F5F5F5F5F5F5F5E2F5F5F5E2E2EF
310
F5F5F5E2F5F5F5F5F5F5F5F5F5F5F5F5F5F5F5F5E2F5F5F5F5F5F5F5F5F5F5F5F5F5F5F5F5F5F5F5F5F5F5F5F5F5F5F5F5F5F5F5F5F5F5F5F5F5F5F5F5F5F5F5F5F5F5F5F5F5F5F5F5F5F5F5F5F5F5F5F5F5F5F5F5F5F5F5F5F5F5F5F5F5F5F5F5F5F5F5F5F5F5F5F5F5F5F5F5F5F5F5F5F5F5F5F5F5F5F5F5F5F5F5F5F5F5
310
F5F5F5F5F5F5F5F5F5F5F5F5F5F5F5F5F5F5F5F5F5F5F5F5F5F5F5F5F5E2F5F5F5F5F5F5F5F5F5F5F5F5F5F5F5F5E2F5F5F5E2E2EFF5F5F5E2F5F5F5F5F5F5F5F5F5F5F5F5F5F5F5F5E2F5F5F5F5F5F5F5F5F5F5F5F5F5F5F5F5F5F5F5F5F5F5F5F5F5F5F5F5F5F5F5F5F5F5F5F5F5F5F5F5F5F5F5F5F5F5F5F5F5F5F5F5F5
310
F5F5F5F5F5F5F5F5F5F5F5F5F5F5F5F5F5F5F5F5F5F5F5F5F5F5F5F5F5F5F5F5F5F5F5F5F5F5F5F5F5F5F5F5F5F5F5F5F5F5F5F5F5F5F5F5F5F5F5F5F5F5F5F5F5F5F5F5F5F5F5F5F5F5F5F5F5F5F5F5F5F5E2F5F5F5F5F5F5F5F5F5F5F5F5F5F5F5F5E2F5F5F5E2E2EFF5F5F5E2F5F5F5F5F5F5F5F5F5F5F5F5F5F5F5F5E2
310
F5F5F5F5F5F5F5F5F5F5F5F5F5F5F5F5F5F5F5F5F5F5F5F5F5F5F5F5F5F5F5F5F5F5F5F5F5F5F5F5F5F5F5F5F5F5F5F5F5F5F5F5F5F5F5F5F5F5F5F5F5F5F5F5F5F5F5F5F5F5F5F5F5F5F5F5F5F5F5F5F5F5F5F5F5F5F5F5F5F5F5F5F5F5F5F5F5F5F5F5F5F5F5F5F5F5F5F5F5F5F5F5F5F5F5F5F5F5F5F5F5F5F5F5F5F5F5
310
F5F5F5F5F5F5F5F5E2F5F5F5F5F5F5F5F5F5F5F5F5F5F5F5F5E2F5F5F5E2E2EFF5F5F5E2F5F5F5F5F5F5F5F5F5F5F5F5F5F5F5F5E2F5F5F5F5F5F5F5F5F5F5F5F5F5F5F5F5F5F5F5F5F5F5F5F5F5F5F5F5F5F5F5F5F5F5F5F5F5F5F5F5F5F5F5F5F5F5F5F5F5F5F5F5F5F5F5F5F5F5F5F5F5F5F5F5F5F5F5F5F5F5F5F5F5F5
310
F5F5F5F5F5F5F5F5F5F5F5F5F5F5F5F5F5F5F5F5F5F5F5F5F5F5F5F5F5F5F5F5F5F5F5F5F5F5F5F5F5F5F5F5F5F5F5F5F5F5F5F5F5F5F5F5F5F5F5F5F5E2F5F5F5F5F5F5F5F5F5F5F5F5F5F5F5F5E2F5F5F5E2E2EFF5F5F5E2F5F5F5F5F5F5F5F5F5F5F5F5F5F5F5F5E2F5F5F5F5F5F5F5F5F5F5F5F5F5F5F5F5F5F5F5F5F5
310
F5F5F5F5F5F5F5F5F5F5F5F5F5F5F5F5F5F5F5F5F5F5F5F5F5F5F5F5F5F5F5F5F5F5F5F5F5F5F5F5F5F5F5F5F5F5F5F5F5F5F5F5F5F5F5F5F5F5F5F5F5F5F5F5F5F5F5F5F5F5F5F5F5F5F5F5F5F5F5F5F5F5F5F5F5F5F5F5F5F5F5F5F5F5F5F5F5F5F5F5F5F5F5F5F5F5F5F5F5F5F5F5F5F5E2F5F5F5F5F5F5F5F5F5F5F5F5
310
F5F5F5F5E2F5F5F5E2E2EFF5F5F5E2F5F5F5F5F5F5F5F5F5F5F5F5F5F5F5F5E2F5F5F5F5F5F5F5F5F5F5F5F5F5F5F5F5F5F5F5F5F5F5F5F5F5F5F5F5F5F5F5F5F5F5F5F5F5F5F5F5F5F5F5F5F5F5F5F5F5F5F5F5F5F5F5F5F5F5F5F5F5F5F5F5F5F5F5F5F5F5F5F5F5F5F5F5F5F5F5F5F5F5F5F5F5F5F5F5F5F5F5F5F5F5F5
310
F5F5F5F5F5F5F5F5F5F5F5F5F5F5F5F5F5F5F5F5F5F5F5F5F5F5F5F5F5F5F5F5F5F5F5F5F5F5F5F5E2F5F5F5F5F5F5F5F5F5F5F5F5F5F5F5F5E2F5F5F5E2E2EFF5F5F5F5F5F5F5F5F5F5F5F5F5F5F5F5F5F5F5F5E2F5F5F5F5F5F5F5F5F5F5F5F5F5F5F5F5F5F5F5F5F5F5F5F5F5F5F5F5F5F5F5F5F5F5F5F5F5F5F5F5F5F5
310
F5F5F5F5F5F5F5F5F5F5F5F5F5F5F5F5F5F5F5F5F5F5F5F5F5F5F5F5F5F5F5F5F5F5F5F5F5F5F5F5F5F5F5F5F5F5F5F5F5F5F5F5F5F5F5F5F5F5F5F5F5F5F5F5F5F5F5F5F5F5F5F5F5F5F5F5F5F5F5F5F5F5F5F5F5F5F5F5F5F5F5F5F5E2F5F5F5F5F5F5F5F5F5F5F5F5F5F5F5F5F5F5F5F5E2E2EFF5F5F5F5F5F5F5F5F5F5
310
F5F5F5F5F5F5F5F5F5F5E2F5F5F5F5F5F5F5F5F5F5F5F5F5F5F5F5F5F5F5F5F5F5F5F5F5F5F5F5F5F5F5F5F5F5F5F5F5F5F5F5F5F5F5F5F5F5F5F5F5F5F5F5F5F5F5F5F5F5F5F5F5F5F5F5F5F5F5F5F5F5F5F5F5F5F5F5F5F5F5F5F5F5F5F5F5F5F5F5F5F5F5F5F5F5F5F5F5F5F5F5F5F5F5F5F5F5F5F5F5F5F5F5F5F5F5F5
310
F5F5F5F5F5F5F5F5F5F5F5F5F5F5F5F5F5F5F5E2F5F5F5F5F5F5F5F5F5F5F5F5F5F5F5F5F5F5F5F5E2E2EFF5F5F5F5F5F5F5F5F5F5F5F5F5F5F5F5F5F5F5F5E2F5F5F5F5F5F5F5F5F5F5F5F5F5F5F5F5F5F5F5F5F5F5F5F5F5F5F5F5F5F5F5F5F5F5F5F5F5F5F5F5F5F5F5F5F5F5F5F5F5F5F5F5F5F5F5F5F5F5F5F5F5F5F5
310
F5F5F5F5F5F5F5F5F5F5F5F5F5F5F5F5F5F5F5F5F5F5F5F5F5F5F5F5F5F5F5F5F5F5F5F5F5F5F5F5F5F5F5F5F5F5F5F5F5F5F5F5F5F5F5F5F5F5F5F5F5F5F5F5F5F5F5F5F5F5F5F5E2F5F5F5F5F5F5F5F5F5F5F5F5F5F5F5F5F5F5F5F5E2E2EFF5F5F5F5F5F5F5F5F5F5F5F5F5F5F5F5F5F5F5F5E2F5F5F5F5F5F5F5F5F5F5
310
F5F5F5F5F5F5F5F5F5F5F5F5F5F5F5F5F5F5F5F5F5F5F5F5F5F5F5F5F5F5F5F5F5F5F5F5F5F5F5F5F5F5F5F5F5F5F5F5F5F5F5F5F5F5F5F5F5F5F5F5F5F5F5F5F5F5F5F5F5F5F5F5F5F5F5F5F5F5F5F5F5F5F5F5F5F5F5F5F5F5F5F5F5F5F5F5F5F5F5F5F5F5F5F5F5F5F5F5F5F5F5F5F5F5F5F5F5F5F5F5F5F5F5F5F5E2F5
310
F5F5F5F5F5F5F5F5F5F5F5F5F5F5F5F5F5F5F5E2E2EFF5F5F5F5F5F5F5F5F5F5F5F5F5F5F5F5F5F5F5F5E2F5F5F5F5F5F5F5F5F5F5F5F5F5F5F5F5F5F5F5F5F5F5F5F5F5F5F5F5F5F5F5F5F5F5F5F5F5F5F5F5F5F5F5F5F5F5F5F5F5F5F5F5F5F5F5F5F5F5F5F5F5F5F5F5F5F5F5F5F5F5F5F5F5F5F5F5F5F5F5F5F5F5F5F5
310
F5F5F5F5F5F5F5F5F5F5F5F5F5F5F5F5F5F5F5F5F5F5F5F5F5F5F5F5F5F5F5F5F5F5F5F5F5F5F5F5F5F5F5F5F5F5F5F5F5F5F5E2F5F5F5F5F5F5F5F5F5F5F5F5F5F5F5F5F5F5F5F5E2E2EFF5F5F5F5F5F5F5F5F5F5F5F5F5F5F5F5F5F5F5F5E2F5F5F5F5F5F5F5F5F5F5F5F5F5F5F5F5F5F5F5F5F5F5F5F5F5F5F5F5F5F5F5
310
F5F5F5F5F5F5F5F5F5F5F5F5F5F5F5F5F5F5F5F5F5F5F5F5F5F5F5F5F5F5F5F5F5F5F5F5F5F5F5F5F5F5F5F5F5F5F5F5F5F5F5F5F5F5F5F5F5F5F5F5F5F5F5F5F5F5F5F5F5F5F5F5F5F5F5F5F5F5F5F5F5F5F5F5F5F5F5F5F5F5F5F5F5F5F5F5F5F5F5F5F5F5F5F5E2F5F5F5F5F5F5F5F5F5F5F5F5F5F5F5F5F5F5F5F5E2E2
310
EFF5F5F5F5F5F5F5F5F5F5F5F5F5F5F5F5F5F5F5F5E2F5F5F5F5F5F5F5F5F5F5F5F5F5F5F5F5F5F5F5F5F5F5F5F5F5F5F5F5F5F5F5F5F5F5F5F5F5F5F5F5F5F5F5F5F5F5F5F5F5F5F5F5F5F5F5F5F5F5F5F5F5F5F5F5F5F5F5F5F5F5F5F5F5F5F5F5F5F5F5F5F5F5F5F5F5F5F5F5F5F5F5F5F5F5F5F5F5F5F5F5F5F5F5F5F5
310
F5F5F5F5F5F5F5F5F5F5F5F5F5F5F5F5F5F5F5F5F5F5F5F5F5F5F5F5F5F5E2F5F5F5F5F5F5F5F5F5F5F5F5F5F5F5F5F5F5F5F5E2E2EFF5F5F5F5F5F5F5F5F5F5F5F5F5F5F5F5F5F5F5F5E2F5F5F5F5F5F5F5F5F5F5F5F5F5F5F5F5F5F5F5F5F5F5F5F5F5F5F5F5F5F5F5F5F5F5F5F5F5F5F5F5F5F5F5F5F5F5F5F5F5F5F5F5
310
F5F5F5F5F5F5F5F5F5F5F5F5F5F5F5F5F5F5F5F5F5F5F5F5F5F5F5F5F5F5F5F5F5F5F5F5F5F5F5F5F5F5F5F5F5F5F5F5F5F5F5F5F5F5F5F5F5F5F5F5F5F5F5F5F5F5F5F5F5F5F5F5F5F5F5F5F5F5F5F5F5F5F5E2F5F5F5F5F5F5F5F5F5F5F5F5F5F5F5F5F5F5F5F5E2E2EFF5F5F5F5F5F5F5F5F5F5F5F5F5F5F5F5F5F5F5F5
310
E2F5F5F5F5F5F5F5F5F5F5F5F5F5F5F5F5F5F5F5F5F5F5F5F5F5F5F5F5F5F5F5F5F5F5F5F5F5F5F5F5F5F5F5F5F5F5F5F5F5F5F5F5F5F5F5F5F5F5F5F5F5F5F5F5F5F5F5F5F5F5F5F5F5F5F5F5F5F5F5F5F5F5F5F5F5F5F5F5F5F5F5F5F5F5F5F5F5F5F5F5F5F5F5F5F5F5F5F5F5F5F5F5F5F5F5F5F5F5F5F5F5F5F5F5F5F5
310
F5F5F5F5F5F5F5F5F5E2F5F5F5F5F5F5F5F5F5F5F5F5F5F5F5F5F5F5F5F5E2E2EFF5F5F5E2F5F5F5F5F5F5F5F5F5F5F5F5F5F5F5F5E2F5F5F5F5F5F5F5F5F5F5F5F5F5F5F5F5F5F5F5F5F5F5F5F5F5F5F5F5F5F5F5F5F5F5F5F5F5F5F5F5F5F5F5F5F5F5F5F5F5F5F5F5F5F5F5F5F5F5F5F5F5F5F5F5F5F5F5F5F5F5F5F5F5
310
F5F5F5F5F5F5F5F5F5F5F5F5F5F5F5F5F5F5F5F5F5F5F5F5F5F5F5F5F5F5F5F5F5F5F5F5F5F5F5F5F5F5F5F5F5F5F5F5F5F5F5F5F5F5F5F5F5F5F5F5F5F5E2F5F5F5F5F5F5F5F5F5F5F5F5F5F5F5F5E2F5F5F5E2E2EFF5F5F5E2F5F5F5F5F5F5F5F5F5F5F5F5F5F5F5F5E2F5F5F5F5F5F5F5F5F5F5F5F5F5F5F5F5F5F5F5F5
310
F5F5F5F5F5F5F5F5F5F5F5F5F5F5F5F5F5F5F5F5F5F5F5F5F5F5F5F5F5F5F5F5F5F5F5F5F5F5F5F5F5F5F5F5F5F5F5F5F5F5F5F5F5F5F5F5F5F5F5F5F5F5F5F5F5F5F5F5F5F5F5F5F5F5F5F5F5F5F5F5F5F5F5F5F5F5F5F5F5F5F5F5F5F5F5F5F5F5F5F5F5F5F5F5F5F5F5F5F5F5F5F5F5F5F5E2F5F5F5F5F5F5F5F5F5F5F5
310
F5F5F5F5F5E2F5F5F5E2E2EFF5F5F5E2F5F5F5F5F5F5F5F5F5F5F5F5F5F5F5F5E2F5F5F5F5F5F5F5F5F5F5F5F5F5F5F5F5F5F5F5F5F5F5F5F5F5F5F5F5F5F5F5F5F5F5F5F5F5F5F5F5F5F5F5F5F5F5F5F5F5F5F5F5F5F5F5F5F5F5F5F5F5F5F5F5F5F5F5F5F5F5F5F5F5F5F5F5F5F5F5F5F5F5F5F5F5F5F5F5F5F5F5F5F5F5
310
F5F5F5F5F5F5F5F5F5F5F5F5F5F5F5F5F5F5F5F5F5F5F5F5F5F5F5F5F5F5F5F5F5F5F5F5F5F5F5F5F5E2F5F5F5F5F5F5F5F5F5F5F5F5F5F5F5F5E2F5F5F5E2E2EFF5F5F5E2F5F5F5F5F5F5F5F5F5F5F5F5F5F5F5F5E2F5F5F5F5F5F5F5F5F5F5F5F5F5F5F5F5F5F5F5F5F5F5F5F5F5F5F5F5F5F5F5F5F5F5F5F5F5F5F5F5F5
310
F5F5F5F5F5F5F5F5F5F5F5F5F5F5F5F5F5F5F5F5F5F5F5F5F5F5F5F5F5F5F5F5F5F5F5F5F5F5F5F5F5F5F5F5F5F5F5F5F5F5F5F5F5F5F5F5F5F5F5F5F5F5F5F5F5F5F5F5F5F5F5F5F5F5F5F5F5F5F5F5F5F5F5F5F5F5F5F5F5F5F5F5F5F5E2F5F5F5F5F5F5F5F5F5F5F5F5F5F5F5F5E2F5F5F5E2E2EFF5F5F5E2F5F5F5F5F5
310
F5F5F5F5F5F5F5F5F5F5F5E2F5F5F5F5F5F5F5F5F5F5F5F5F5F5F5F5F5F5F5F5F5F5F5F5F5F5F5F5F5F5F5F5F5F5F5F5F5F5F5F5F5F5F5F5F5F5F5F5F5F5F5F5F5F5F5F5F5F5F5F5F5F5F5F5F5F5F5F5F5F5F5F5F5F5F5F5F5F5F5F5F5F5F5F5F5F5F5F5F5F5F5F5F5F5F5F5F5F5F5F5F5F5F5F5F5F5F5F5F5F5F5F5F5F5F5
310
F5F5F5F5F5F5F5F5F5F5F5F5F5F5F5F5F5F5F5F5E2F5F5F5F5F5F5F5F5F5F5F5F5F5F5F5F5E2F5F5F5E2E2EFF5F5F5E2F5F5F5F5F5F5F5F5F5F5F5F5F5F5F5F5E2F5F5F5F5F5F5F5F5F5F5F5F5F5F5F5F5F5F5F5F5F5F5F5F5F5F5F5F5F5F5F5F5F5F5F5F5F5F5F5F5F5F5F5F5F5F5F5F5F5F5F5F5F5F5F5F5F5F5F5F5F5F5
310
F5F5F5F5F5F5F5F5F5F5F5F5F5F5F5F5F5F5F5F5F5F5F5F5F5F5F5F5F5F5F5F5F5F5F5F5F5F5F5F5F5F5F5F5F5F5F5F5F5F5F5F5F5F5F5F5F5F5F5F5F5F5F5F5F5F5F5F5F5F5F5F5F5E2F5F5F5F5F5F5F5F5F5F5F5F5F5F5F5F5E2F5F5F5E2E2EFF5F5F5E2F5F5F5F5F5F5F5F5F5F5F5F5F5F5F5F5E2F5F5F5F5F5F5F5F5F5
310
F5F5F5F5F5F5F5F5F5F5F5F5F5F5F5F5F5F5F5F5F5F5F5F5F5F5F5F5F5F5F5F5F5F5F5F5F5F5F5F5F5F5F5F5F5F5F5F5F5F5F5F5F5F5F5F5F5F5F5F5F5F5F5F5F5F5F5F5F5F5F5F5F5F5F5F5F5F5F5F5F5F5F5F5F5F5F5F5F5F5F5F5F5F5F5F5F5F5F5F5F5F5F5F5F5F5F5F5F5F5F5F5F5F5F5F5F5F5F5F5F5F5F5F5F5F5E2
310
F5F5F5F5F5F5F5F5F5F5F5F5F5F5F5F5E2F5F5F5E2E2EFF5F5F5E2F5F5F5F5F5F5F5F5F5F5F5F5F5F5F5F5E2F5F5F5F5F5F5F5F5F5F5F5F5F5F5F5F5F5F5F5F5F5F5F5F5F5F5F5F5F5F5F5F5F5F5F5F5F5F5F5F5F5F5F5F5F5F5F5F5F5F5F5F5F5F5F5F5F5F5F5F5F5F5F5F5F5F5F5F5F5F5F5F5F5F5F5F5F5F5F5F5F5F5F5
310
F5F5F5F5F5F5F5F5F5F5F5F5F5F5F5F5F5F5F5F5F5F5F5F5F5F5F5F5F5F5F5F5F5F5F5F5F5F5F5F5F5F5F5F5F5F5F5F5F5F5F5F5E2F5F5F5F5F5F5F5F5F5F5F5F5F5F5F5F5E2F5F5F5E2E2EFF5F5F5E2F5F5F5F5F5F5F5F5F5F5F5F5F5F5F5F5E2F5F5F5F5F5F5F5F5F5F5F5F5F5F5F5F5F5F5F5F5F5F5F5F5F5F5F5F5F5F5
310
F5F5F5F5F5F5F5F5F5F5F5F5F5F5F5F5F5F5F5F5F5F5F5F5F5F5F5F5F5F5F5F5F5F5F5F5F5F5F5F5F5F5F5F5F5F5F5F5F5F5F5F5F5F5F5F5F5F5F5F5F5F5F5F5F5F5F5F5F5F5F5F5F5F5F5F5F5F5F5F5F5F5F5F5F5F5F5F5F5F5F5F5F5F5F5F5F5F5F5F5F5F5F5F5F5E2F5F5F5F5F5F5F5F5F5F5F5F5F5F5F5F5E2F5F5F5E2
310
E2EFF5F5F5E2F5F5F5F5F5F5F5F5F5F5F5F5F5F5F5F5E2F5F5F5F5F5F5F5F5F5F5F5F5F5F5F5F5F5F5F5F5F5F5F5F5F5F5F5F5F5F5F5F5F5F5F5F5F5F5F5F5F5F5F5F5F5F5F5F5F5F5F5F5F5F5F5F5F5F5F5F5F5F5F5F5F5F5F5F5F5F5F5F5F5F5F5F5F5F5F5F5F5F5F5F5F5F5F5F5F5F5F5F5F5F5F5F5F5F5F5F5F5F5F5F5
310
F5F5F5F5F5F5F5F5F5F5F5F5F5F5F5F5F5F5F5F5F5F5F5F5F5F5F5F5F5F5F5E2F5F5F5F5F5F5F5F5F5F5F5F5F5F5F5F5E2F5F5F5E2E2EFF5F5F5E2F5F5F5F5F5F5F5F5F5F5F5F5F5F5F5F5E2F5F5F5F5F5F5F5F5F5F5F5F5F5F5F5F5F5F5F5F5F5F5F5F5F5F5F5F5F5F5F5F5F5F5F5F5F5F5F5F5F5F5F5F5F5F5F5F5F5F5F5
310
F5F5F5F5F5F5F5F5F5F5F5F5F5F5F5F5F5F5F5F5F5F5F5F5F5F5F5F5F5F5F5F5F5F5F5F5F5F5F5F5F5F5F5F5F5F5F5F5F5F5F5F5F5F5F5F5F5F5F5F5F5F5F5F5F5F5F5F5F5F5F5F5F5F5F5F5F5F5F5F5F5F5F5F5E2F5F5F5F5F5F5F5F5F5F5F5F5F5F5F5F5E2F5F5F5E2E2EFF5F5F5E2F5F5F5F5F5F5F5F5F5F5F5F5F5F5F5
310
F5E2F5F5F5F5F5F5F5F5F5F5F5F5F5F5F5F5F5F5F5F5F5F5F5F5F5F5F5F5F5F5F5F5F5F5F5F5F5F5F5F5F5F5F5F5F5F5F5F5F5F5F5F5F5F5F5F5F5F5F5F5F5F5F5F5F5F5F5F5F5F5F5F5F5F5F5F5F5F5F5F5F5F5F5F5F5F5F5F5F5F5F5F5F5F5F5F5F5F5F5F5F5F5F5F5F5F5F5F5F5F5F5F5F5F5F5F5F5F5F5F5F5F5F5F5F5
310
F5F5F5F5F5F5F5F5F5F5E2F5F5F5F5F5F5F5F5F5F5F5F5F5F5F5F5E2F5F5F5E2E2EFF5F5F5E2F5F5F5F5F5F5F5F5F5F5F5F5F5F5F5F5E2F5F5F5F5F5F5F5F5F5F5F5F5F5F5F5F5F5F5F5F5F5F5F5F5F5F5F5F5F5F5F5F5F5F5F5F5F5F5F5F5F5F5F5F5F5F5F5F5F5F5F5F5F5F5F5F5F5F5F5F5F5F5F5F5F5F5F5F5F5F5F5F5
310
F5F5F5F5F5F5F5F5F5F5F5F5F5F5F5F5F5F5F5F5F5F5F5F5F5F5F5F5F5F5F5F5F5F5F5F5F5F5F5F5F5F5F5F5F5F5F5F5F5F5F5F5F5F5F5F5F5F5F5F5F5F5F5E2F5F5F5F5F5F5F5F5F5F5F5F5F5F5F5F5E2F5F5F5E2E2EFF5F5F5E2F5F5F5F5F5F5F5F5F5F5F5F5F5F5F5F5E2F5F5F5F5F5F5F5F5F5F5F5F5F5F5F5F5F5F5F5
310
F5F5F5F5F5F5F5F5F5F5F5F5F5F5F5F5F5F5F5F5F5F5F5F5F5F5F5F5F5F5F5F5F5F5F5F5F5F5F5F5F5F5F5F5F5F5F5F5F5F5F5F5F5F5F5F5F5F5F5F5F5F5F5F5F5F5F5F5F5F5F5F5F5F5F5F5F5F5F5F5F5F5F5F5F5F5F5F5F5F5F5F5F5F5F5F5F5F5F5F5F5F5F5F5F5F5F5F5F5F5F5F5F5F5F5F5E2F5F5F5F5F5F5F5F5F5F5
310
F5F5F5F5F5F5E2F5F5F5E2E2EFF5F5F5E2F5F5F5F5F5F5F5F5F5F5F5F5F5F5F5F5E2F5F5F5F5F5F5F5F5F5F5F5F5F5F5F5F5F5F5F5F5F5F5F5F5F5F5F5F5F5F5F5F5F5F5F5F5F5F5F5F5F5F5F5F5F5F5F5F5F5F5F5F5F5F5F5F5F5F5F5F5F5F5F5F5F5F5F5F5F5F5F5F5F5F5F5F5F5F5F5F5F5F5F5F5F5F5F5F5F5F5F5F5F5
310
F5F5F5F5F5F5F5F5F5F5F5F5F5F5F5F5F5F5F5F5F5F5F5F5F5F5F5F5F5F5F5F5F5F5F5F5F5F5F5F5F5F5E2F5F5F5F5F5F5F5F5F5F5F5F5F5F5F5F5E2F5F5F5E2E2EFF5F5F5E2F5F5F5F5F5F5F5F5F5F5F5F5F5F5F5F5E2F5F5F5F5F5F5F5F5F5F5F5F5F5F5F5F5F5F5F5F5F5F5F5F5F5F5F5F5F5F5F5F5F5F5F5F5F5F5F5F5
310
F5F5F5F5F5F5F5F5F5F5F5F5F5F5F5F5F5F5F5F5F5F5F5F5F5F5F5F5F5F5F5F5F5F5F5F5F5F5F5F5F5F5F5F5F5F5F5F5F5F5F5F5F5F5F5F5F5F5F5F5F5F5F5F5F5F5F5F5F5F5F5F5F5F5F5F5F5F5F5F5F5F5F5F5F5F5F5F5F5F5F5F5F5F5F5E2F5F5F5F5F5F5F5F5F5F5F5F5F5F5F5F5E2F5F5F5E2E2EFF5F5F5E2F5F5F5F5
310
F5F5F5F5F5F5F5F5F5F5F5F5E2F5F5F5F5F5F5F5F5F5F5F5F5F5F5F5F5F5F5F5F5F5F5F5F5F5F5F5F5F5F5F5F5F5F5F5F5F5F5F5F5F5F5F5F5F5F5F5F5F5F5F5F5F5F5F5F5F5F5F5F5F5F5F5F5F5F5F5F5F5F5F5F5F5F5F5F5F5F5F5F5F5F5F5F5F5F5F5F5F5F5F5F5F5F5F5F5F5F5F5F5F5F5F5F5F5F5F5F5F5F5F5F5F5F5
310
F5F5F5F5F5F5F5F5F5F5F5F5F5F5F5F5F5F5F5F5F5E2F5F5F5F5F5F5F5F5F5F5F5F5F5F5F5F5E2F5F5F5E2E2EFF5F5F5F5F5F5F5F5F5F5F5F5F5F5F5F5F5F5F5F5E2F5F5F5F5F5F5F5F5F5F5F5F5F5F5F5F5F5F5F5F5F5F5F5F5F5F5F5F5F5F5F5F5F5F5F5F5F5F5F5F5F5F5F5F5F5F5F5F5F5F5F5F5F5F5F5F5F5F5F5F5F5
310
F5F5F5F5F5F5F5F5F5F5F5F5F5F5F5F5F5F5F5F5F5F5F5F5F5F5F5F5F5F5F5F5F5F5F5F5F5F5F5F5F5F5F5F5F5F5F5F5F5F5F5F5F5F5F5F5F5F5F5F5F5F5F5F5F5F5F5F5F5F5F5F5F5F5E2F5F5F5F5F5F5F5F5F5F5F5F5F5F5F5F5F5F5F5F5E2E2EFF5F5F5F5F5F5F5F5F5F5F5F5F5F5F5F5F5F5F5F5E2F5F5F5F5F5F5F5F5
310
F5F5F5F5F5F5F5F5F5F5F5F5F5F5F5F5F5F5F5F5F5F5F5F5F5F5F5F5F5F5F5F5F5F5F5F5F5F5F5F5F5F5F5F5F5F5F5F5F5F5F5F5F5F5F5F5F5F5F5F5F5F5F5F5F5F5F5F5F5F5F5F5F5F5F5F5F5F5F5F5F5F5F5F5F5F5F5F5F5F5F5F5F5F5F5F5F5F5F5F5F5F5F5F5F5F5F5F5F5F5F5F5F5F5F5F5F5F5F5F5F5F5F5F5F5F5F5
310
E2F5F5F5F5F5F5F5F5F5F5F5F5F5F5F5F5F5F5F5F5E2E2EFF5F5F5F5F5F5F5F5F5F5F5F5F5F5F5F5F5F5F5F5E2F5F5F5F5F5F5F5F5F5F5F5F5F5F5F5F5F5F5F5F5F5F5F5F5F5F5F5F5F5F5F5F5F5F5F5F5F5F5F5F5F5F5F5F5F5F5F5F5F5F5F5F5F5F5F5F5F5F5F5F5F5F5F5F5F5F5F5F5F5F5F5F5F5F5F5F5F5F5F5F5F5F5
310
F5F5F5F5F5F5F5F5F5F5F5F5F5F5F5F5F5F5F5F5F5F5F5F5F5F5F5F5F5F5F5F5F5F5F5F5F5F5F5F5F5F5F5F5F5F5F5F5F5F5F5F5F5E2F5F5F5F5F5F5F5F5F5F5F5F5F5F5F5F5F5F5F5F5E2E2EFF5F5F5F5F5F5F5F5F5F5F5F5F5F5F5F5F5F5F5F5E2F5F5F5F5F5F5F5F5F5F5F5F5F5F5F5F5F5F5F5F5F5F5F5F5F5F5F5F5F5
310
F5F5F5F5F5F5F5F5F5F5F5F5F5F5F5F5F5F5F5F5F5F5F5F5F5F5F5F5F5F5F5F5F5F5F5F5F5F5F5F5F5F5F5F5F5F5F5F5F5F5F5F5F5F5F5F5F5F5F5F5F5F5F5F5F5F5F5F5F5F5F5F5F5F5F5F5F5F5F5F5F5F5F5F5F5F5F5F5F5F5F5F5F5F5F5F5F5F5F5F5F5F5F5F5F5F5E2F5F5F5F5F5F5F5F5F5F5F5F5F5F5F5F5F5F5F5F5
310
E2E2EFF5F5F5F5F5F5F5F5F5F5F5F5F5F5F5F5F5F5F5F5E2F5F5F5F5F5F5F5F5F5F5F5F5F5F5F5F5F5F5F5F5F5F5F5F5F5F5F5F5F5F5F5F5F5F5F5F5F5F5F5F5F5F5F5F5F5F5F5F5F5F5F5F5F5F5F5F5F5F5F5F5F5F5F5F5F5F5F5F5F5F5F5F5F5F5F5F5F5F5F5F5F5F5F5F5F5F5F5F5F5F5F5F5F5F5F5F5F5F5F5F5F5F5F5
310
F5F5F5F5F5F5F5F5F5F5F5F5F5F5F5F5F5F5F5F5F5F5F5F5F5F5F5F5F5F5F5F5E2F5F5F5F5F5F5F5F5F5F5F5F5F5F5F5F5F5F5F5F5E2E2EFF5F5F5F5F5F5F5F5F5F5F5F5F5F5F5F5F5F5F5F5E2F5F5F5F5F5F5F5F5F5F5F5F5F5F5F5F5F5F5F5F5F5F5F5F5F5F5F5F5F5F5F5F5F5F5F5F5F5F5F5F5F5F5F5F5F5F5F5F5F5F5
310
F5F5F5F5F5F5F5F5F5F5F5F5F5F5F5F5F5F5F5F5F5F5F5F5F5F5F5F5F5F5F5F5F5F5F5F5F5F5F5F5F5F5F5F5F5F5F5F5F5F5F5F5F5F5F5F5F5F5F5F5F5F5F5F5F5F5F5F5F5F5F5F5F5F5F5F5F5F5F5F5F5F5F5F5F5E2F5F5F5F5F5F5F5F5F5F5F5F5F5F5F5F5F5F5F5F5E2E2EFF5F5F5F5F5F5F5F5F5F5F5F5F5F5F5F5F5F5
310
F5F5E2F5F5F5F5F5F5F5F5F5F5F5F5F5F5F5F5F5F5F5F5F5F5F5F5F5F5F5F5F5F5F5F5F5F5F5F5F5F5F5F5F5F5F5F5F5F5F5F5F5F5F5F5F5F5F5F5F5F5F5F5F5F5F5F5F5F5F5F5F5F5F5F5F5F5F5F5F5F5F5F5F5F5F5F5F5F5F5F5F5F5F5F5F5F5F5F5F5F5F5F5F5F5F5F5F5F5F5F5F5F5F5F5F5F5F5F5F5F5F5F5F5F5F5F5
310
F5F5F5F5F5F5F5F5F5F5F5E2F5F5F5F5F5F5F5F5F5F5F5F5F5F5F5F5F5F5F5F5E2E2EFF5F5F5F5F5F5F5F5F5F5F5F5F5F5F5F5F5F5F5F5E2F5F5F5F5F5F5F5F5F5F5F5F5F5F5F5F5F5F5F5F5F5F5F5F5F5F5F5F5F5F5F5F5F5F5F5F5F5F5F5F5F5F5F5F5F5F5F5F5F5F5F5F5F5F5F5F5F5F5F5F5F5F5F5F5F5F5F5F5F5F5F5
310
F5F5F5F5F5F5F5F5F5F5F5F5F5F5F5F5F5F5F5F5F5F5F5F5F5F5F5F5F5F5F5F5F5F5F5F5F5F5F5F5F5F5F5F5F5F5F5F5F5F5F5F5F5F5F5F5F5F5F5F5F5F5F5F5E2F5F5F5F5F5F5F5F5F5F5F5F5F5F5F5F5F5F5F5F5E2E2EFF5F5F5F5F5F5F5F5F5F5F5F5F5F5F5F5F5F5F5F5E2F5F5F5F5F5F5F5F5F5F5F5F5F5F5F5F5F5F5
310
F5F5F5F5F5F5F5F5F5F5F5F5F5F5F5F5F5F5F5F5F5F5F5F5F5F5F5F5F5F5F5F5F5F5F5F5F5F5F5F5F5F5F5F5F5F5F5F5F5F5F5F5F5F5F5F5F5F5F5F5F5F5F5F5F5F5F5F5F5F5F5F5F5F5F5F5F5F5F5F5F5F5F5F5F5F5F5F5F5F5F5F5F5F5F5F5F5F5F5F5F5F5F5F5F5F5F5F5F5F5F5F5F5F5F5F5F5E2F5F5F5F5F5F5F5F5F5
310
F5F5F5F5F5F5F5F5F5F5F5E2E2EFF5F5F5E2F5F5F5F5F5F5F5F5F5F5F5F5F5F5F5F5E2F5F5F5F5F5F5F5F5F5F5F5F5F5F5F5F5F5F5F5F5F5F5F5F5F5F5F5F5F5F5F5F5F5F5F5F5F5F5F5F5F5F5F5F5F5F5F5F5F5F5F5F5F5F5F5F5F5F5F5F5F5F5F5F5F5F5F5F5F5F5F5F5F5F5F5F5F5F5F5F5F5F5F5F5F5F5F5F5F5F5F5F5
310
F5F5F5F5F5F5F5F5F5F5F5F5F5F5F5F5F5F5F5F5F5F5F5F5F5F5F5F5F5F5F5F5F5F5F5F5F5F5F5F5F5F5F5E2F5F5F5F5F5F5F5F5F5F5F5F5F5F5F5F5E2F5F5F5E2E2EFF5F5F5E2F5F5F5F5F5F5F5F5F5F5F5F5F5F5F5F5E2F5F5F5F5F5F5F5F5F5F5F5F5F5F5F5F5F5F5F5F5F5F5F5F5F5F5F5F5F5F5F5F5F5F5F5F5F5F5F5
310
F5F5F5F5F5F5F5F5F5F5F5F5F5F5F5F5F5F5F5F5F5F5F5F5F5F5F5F5F5F5F5F5F5F5F5F5F5F5F5F5F5F5F5F5F5F5F5F5F5F5F5F5F5F5F5F5F5F5F5F5F5F5F5F5F5F5F5F5F5F5F5F5F5F5F5F5F5F5F5F5F5F5F5F5F5F5F5F5F5F5F5F5F5F5F5F5E2F5F5F5F5F5F5F5F5F5F5F5F5F5F5F5F5E2F5F5F5E2E2EFF5F5F5E2F5F5F5
310
F5F5F5F5F5F5F5F5F5F5F5F5F5E2F5F5F5F5F5F5F5F5F5F5F5F5F5F5F5F5F5F5F5F5F5F5F5F5F5F5F5F5F5F5F5F5F5F5F5F5F5F5F5F5F5F5F5F5F5F5F5F5F5F5F5F5F5F5F5F5F5F5F5F5F5F5F5F5F5F5F5F5F5F5F5F5F5F5F5F5F5F5F5F5F5F5F5F5F5F5F5F5F5F5F5F5F5F5F5F5F5F5F5F5F5F5F5F5F5F5F5F5F5F5F5F5F5
310
F5F5F5F5F5F5F5F5F5F5F5F5F5F5F5F5F5F5F5F5F5F5E2F5F5F5F5F5F5F5F5F5F5F5F5F5F5F5F5E2F5F5F5E2E2EFF5F5F5E2F5F5F5F5F5F5F5F5F5F5F5F5F5F5F5F5E2F5F5F5F5F5F5F5F5F5F5F5F5F5F5F5F5F5F5F5F5F5F5F5F5F5F5F5F5F5F5F5F5F5F5F5F5F5F5F5F5F5F5F5F5F5F5F5F5F5F5F5F5F5F5F5F5F5F5F5F5
310
F5F5F5F5F5F5F5F5F5F5F5F5F5F5F5F5F5F5F5F5F5F5F5F5F5F5F5F5F5F5F5F5F5F5F5F5F5F5F5F5F5F5F5F5F5F5F5F5F5F5F5F5F5F5F5F5F5F5F5F5F5F5F5F5F5F5F5F5F5F5F5F5F5F5F5E2F5F5F5F5F5F5F5F5F5F5F5F5F5F5F5F5E2F5F5F5E2E2EFF5F5F5E2F5F5F5F5F5F5F5F5F5F5F5F5F5F5F5F5E2F5F5F5F5F5F5F5
310
F5F5F5F5F5F5F5F5F5F5F5F5F5F5F5F5F5F5F5F5F5F5F5F5F5F5F5F5F5F5F5F5F5F5F5F5F5F5F5F5F5F5F5F5F5F5F5F5F5F5F5F5F5F5F5F5F5F5F5F5F5F5F5F5F5F5F5F5F5F5F5F5F5F5F5F5F5F5F5F5F5F5F5F5F5F5F5F5F5F5F5F5F5F5F5F5F5F5F5F5F5F5F5F5F5F5F5F5F5F5F5F5F5F5F5F5F5F5F5F5F5F5F5F5F5F5F5
310
F5E2F5F5F5F5F5F5F5F5F5F5F5F5F5F5F5F5E2F5F5F5E2E2EFF5F5F5E2F5F5F5F5F5F5F5F5F5F5F5F5F5F5F5F5E2F5F5F5F5F5F5F5F5F5F5F5F5F5F5F5F5F5F5F5F5F5F5F5F5F5F5F5F5F5F5F5F5F5F5F5F5F5F5F5F5F5F5F5F5F5F5F5F5F5F5F5F5F5F5F5F5F5F5F5F5F5F5F5F5F5F5F5F5F5F5F5F5F5F5F5F5F5F5F5F5F5
310
F5F5F5F5F5F5F5F5F5F5F5F5F5F5F5F5F5F5F5F5F5F5F5F5F5F5F5F5F5F5F5F5F5F5F5F5F5F5F5F5F5F5F5F5F5F5F5F5F5F5F5F5F5F5E2F5F5F5F5F5F5F5F5F5F5F5F5F5F5F5F5E2F5F5F5E2E2EFF5F5F5E2F5F5F5F5F5F5F5F5F5F5F5F5F5F5F5F5E2F5F5F5F5F5F5F5F5F5F5F5F5F5F5F5F5F5F5F5F5F5F5F5F5F5F5F5F5
310
F5F5F5F5F5F5F5F5F5F5F5F5F5F5F5F5F5F5F5F5F5F5F5F5F5F5F5F5F5F5F5F5F5F5F5F5F5F5F5F5F5F5F5F5F5F5F5F5F5F5F5F5F5F5F5F5F5F5F5F5F5F5F5F5F5F5F5F5F5F5F5F5F5F5F5F5F5F5F5F5F5F5F5F5F5F5F5F5F5F5F5F5F5F5F5F5F5F5F5F5F5F5F5F5F5F5F5E2F5F5F5F5F5F5F5F5F5F5F5F5F5F5F5F5E2F5F5
310
F5E2E2EFF5F5F5E2F5F5F5F5F5F5F5F5F5F5F5F5F5F5F5F5E2F5F5F5F5F5F5F5F5F5F5F5F5F5F5F5F5F5F5F5F5F5F5F5F5F5F5F5F5F5F5F5F5F5F5F5F5F5F5F5F5F5F5F5F5F5F5F5F5F5F5F5F5F5F5F5F5F5F5F5F5F5F5F5F5F5F5F5F5F5F5F5F5F5F5F5F5F5F5F5F5F5F5F5F5F5F5F5F5F5F5F5F5F5F5F5F5F5F5F5F5F5F5
310
F5F5F5F5F5F5F5F5F5F5F5F5F5F5F5F5F5F5F5F5F5F5F5F5F5F5F5F5F5F5F5F5F5E2F5F5F5F5F5F5F5F5F5F5F5F5F5F5F5F5E2F5F5F5E2E2EFF5F5F5E2F5F5F5F5F5F5F5F5F5F5F5F5F5F5F5F5E2F5F5F5F5F5F5F5F5F5F5F5F5F5F5F5F5F5F5F5F5F5F5F5F5F5F5F5F5F5F5F5F5F5F5F5F5F5F5F5F5F5F5F5F5F5F5F5F5F5
310
F5F5F5F5F5F5F5F5F5F5F5F5F5F5F5F5F5F5F5F5F5F5F5F5F5F5F5F5F5F5F5F5F5F5F5F5F5F5F5F5F5F5F5F5F5F5F5F5F5F5F5F5F5F5F5F5F5F5F5F5F5F5F5F5F5F5F5F5F5F5F5F5F5F5F5F5F5F5F5F5F5F5F5F5F5F5E2F5F5F5F5F5F5F5F5F5F5F5F5F5F5F5F5E2F5F5F5E2E2EFF5F5F5E2F5F5F5F5F5F5F5F5F5F5F5F5F5
310
F5F5F5E2F5F5F5F5F5F5F5F5F5F5F5F5F5F5F5F5F5F5F5F5F5F5F5F5F5F5F5F5F5F5F5F5F5F5F5F5F5F5F5F5F5F5F5F5F5F5F5F5F5F5F5F5F5F5F5F5F5F5F5F5F5F5F5F5F5F5F5F5F5F5F5F5F5F5F5F5F5F5F5F5F5F5F5F5F5F5F5F5F5F5F5F5F5F5F5F5F5F5F5F5F5F5F5F5F5F5F5F5F5F5F5F5F5F5F5F5F5F5F5F5F5F5F5
310
F5F5F5F5F5F5F5F5F5F5F5F5E2F5F5F5F5F5F5F5F5F5F5F5F5F5F5F5F5E2F5F5F5E2E2EFF5F5F5E2F5F5F5F5F5F5F5F5F5F5F5F5F5F5F5F5E2F5F5F5F5F5F5F5F5F5F5F5F5F5F5F5F5F5F5F5F5F5F5F5F5F5F5F5F5F5F5F5F5F5F5F5F5F5F5F5F5F5F5F5F5F5F5F5F5F5F5F5F5F5F5F5F5F5F5F5F5F5F5F5F5F5F5F5F5F5F5
310
F5F5F5F5F5F5F5F5F5F5F5F5F5F5F5F5F5F5F5F5F5F5F5F5F5F5F5F5F5F5F5F5F5F5F5F5F5F5F5F5F5F5F5F5F5F5F5F5F5F5F5F5F5F5F5F5F5F5F5F5F5F5F5F5F5E2F5F5F5F5F5F5F5F5F5F5F5F5F5F5F5F5E2F5F5F5E2E2EFF5F5F5E2F5F5F5F5F5F5F5F5F5F5F5F5F5F5F5F5E2F5F5F5F5F5F5F5F5F5F5F5F5F5F5F5F5F5
310
F5F5F5F5F5F5F5F5F5F5F5F5F5F5F5F5F5F5F5F5F5F5F5F5F5F5F5F5F5F5F5F5F5F5F5F5F5F5F5F5F5F5F5F5F5F5F5F5F5F5F5F5F5F5F5F5F5F5F5F5F5F5F5F5F5F5F5F5F5F5F5F5F5F5F5F5F5F5F5F5F5F5F5F5F5F5F5F5F5F5F5F5F5F5F5F5F5F5F5F5F5F5F5F5F5F5F5F5F5F5F5F5F5F5F5F5F5F5E2F5F5F5F5F5F5F5F5
310
F5F5F5F5F5F5F5F5E2F5F5F5E2E2EFF5F5F5E2F5F5F5F5F5F5F5F5F5F5F5F5F5F5F5F5E2F5F5F5F5F5F5F5F5F5F5F5F5F5F5F5F5F5F5F5F5F5F5F5F5F5F5F5F5F5F5F5F5F5F5F5F5F5F5F5F5F5F5F5F5F5F5F5F5F5F5F5F5F5F5F5F5F5F5F5F5F5F5F5F5F5F5F5F5F5F5F5F5F5F5F5F5F5F5F5F5F5F5F5F5F5F5F5F5F5F5F5
310
F5F5F5F5F5F5F5F5F5F5F5F5F5F5F5F5F5F5F5F5F5F5F5F5F5F5F5F5F5F5F5F5F5F5F5F5F5F5F5F5F5F5F5F5E2F5F5F5F5F5F5F5F5F5F5F5F5F5F5F5F5E2F5F5F5E2E2EFF5F5F5E2F5F5F5F5F5F5F5F5F5F5F5F5F5F5F5F5E2F5F5F5F5F5F5F5F5F5F5F5F5F5F5F5F5F5F5F5F5F5F5F5F5F5F5F5F5F5F5F5F5F5F5F5F5F5F5
310
F5F5F5F5F5F5F5F5F5F5F5F5F5F5F5F5F5F5F5F5F5F5F5F5F5F5F5F5F5F5F5F5F5F5F5F5F5F5F5F5F5F5F5F5F5F5F5F5F5F5F5F5F5F5F5F5F5F5F5F5F5F5F5F5F5F5F5F5F5F5F5F5F5F5F5F5F5F5F5F5F5F5F5F5F5F5F5F5F5F5F5F5F5F5F5F5F5E2F5F5F5F5F5F5F5F5F5F5F5F5F5F5F5F5E2F5F5F5E2E2EFF5F5F5E2F5F5
310
F5F5F5F5F5F5F5F5F5F5F5F5F5F5E2F5F5F5F5F5F5F5F5F5F5F5F5F5F5F5F5F5F5F5F5F5F5F5F5F5F5F5F5F5F5F5F5F5F5F5F5F5F5F5F5F5F5F5F5F5F5F5F5F5F5F5F5F5F5F5F5F5F5F5F5F5F5F5F5F5F5F5F5F5F5F5F5F5F5F5F5F5F5F5F5F5F5F5F5F5F5F5F5F5F5F5F5F5F5F5F5F5F5F5F5F5F5F5F5F5F5F5F5F5F5F5F5
310
F5F5F5F5F5F5F5F5F5F5F5F5F5F5F5F5F5F5F5F5F5F5F5E2F5F5F5F5F5F5F5F5F5F5F5F5F5F5F5F5E2F5F5F5E2E2EFF5F5F5E2F5F5F5F5F5F5F5F5F5F5F5F5F5F5F5F5E2F5F5F5F5F5F5F5F5F5F5F5F5F5F5F5F5F5F5F5F5F5F5F5F5F5F5F5F5F5F5F5F5F5F5F5F5F5F5F5F5F5F5F5F5F5F5F5F5F5F5F5F5F5F5F5F5F5F5F5
310
F5F5F5F5F5F5F5F5F5F5F5F5F5F5F5F5F5F5F5F5F5F5F5F5F5F5F5F5F5F5F5F5F5F5F5F5F5F5F5F5F5F5F5F5F5F5F5F5F5F5F5F5F5F5F5F5F5F5F5F5F5F5F5F5F5F5F5F5F5F5F5F5F5F5F5F5E2F5F5F5F5F5F5F5F5F5F5F5F5F5F5F5F5E2F5F5F5E2E2EFF5F5F5E2F5F5F5F5F5F5F5F5F5F5F5F5F5F5F5F5E2F5F5F5F5F5F5
310
F5F5F5F5F5F5F5F5F5F5F5F5F5F5F5F5F5F5F5F5F5F5F5F5F5F5F5F5F5F5F5F5F5F5F5F5F5F5F5F5F5F5F5F5F5F5F5F5F5F5F5F5F5F5F5F5F5F5F5F5F5F5F5F5F5F5F5F5F5F5F5F5F5F5F5F5F5F5F5F5F5F5F5F5F5F5F5F5F5F5F5F5F5F5F5F5F5F5F5F5F5F5F5F5F5F5F5F5F5F5F5F5F5F5F5F5F5F5F5F5F5F5F5F5F5F5F5
310
F5F5E2F5F5F5F5F5F5F5F5F5F5F5F5F5F5F5F5E2F5F5F5E2E2EFF5F5F5F5F5F5F5F5F5F5F5F5F5F5F5F5F5F5F5F5E2F5F5F5F5F5F5F5F5F5F5F5F5F5F5F5F5F5F5F5F5F5F5F5F5F5F5F5F5F5F5F5F5F5F5F5F5F5F5F5F5F5F5F5F5F5F5F5F5F5F5F5F5F5F5F5F5F5F5F5F5F5F5F5F5F5F5F5F5F5F5F5F5F5F5F5F5F5F5F5F5
310
F5F5F5F5F5F5F5F5F5F5F5F5F5F5F5F5F5F5F5F5F5F5F5F5F5F5F5F5F5F5F5F5F5F5F5F5F5F5F5F5F5F5F5F5F5F5F5F5F5F5F5F5F5F5F5E2F5F5F5F5F5F5F5F5F5F5F5F5F5F5F5F5F5F5F5F5E2E2EFF5F5F5F5F5F5F5F5F5F5F5F5F5F5F5F5F5F5F5F5E2F5F5F5F5F5F5F5F5F5F5F5F5F5F5F5F5F5F5F5F5F5F5F5F5F5F5F5
310
F5F5F5F5F5F5F5F5F5F5F5F5F5F5F5F5F5F5F5F5F5F5F5F5F5F5F5F5F5F5F5F5F5F5F5F5F5F5F5F5F5F5F5F5F5F5F5F5F5F5F5F5F5F5F5F5F5F5F5F5F5F5F5F5F5F5F5F5F5F5F5F5F5F5F5F5F5F5F5F5F5F5F5F5F5F5F5F5F5F5F5F5F5F5F5F5F5F5F5F5F5F5F5F5F5F5F5F5E2F5F5F5F5F5F5F5F5F5F5F5F5F5F5F5F5F5F5
310
F5F5E2E2EFF5F5F5F5F5F5F5F5F5F5F5F5F5F5F5F5F5F5F5F5E2F5F5F5F5F5F5F5F5F5F5F5F5F5F5F5F5F5F5F5F5F5F5F5F5F5F5F5F5F5F5F5F5F5F5F5F5F5F5F5F5F5F5F5F5F5F5F5F5F5F5F5F5F5F5F5F5F5F5F5F5F5F5F5F5F5F5F5F5F5F5F5F5F5F5F5F5F5F5F5F5F5F5F5F5F5F5F5F5F5F5F5F5F5F5F5F5F5F5F5F5F5
310
F5F5F5F5F5F5F5F5F5F5F5F5F5F5F5F5F5F5F5F5F5F5F5F5F5F5F5F5F5F5F5F5F5F5E2F5F5F5F5F5F5F5F5F5F5F5F5F5F5F5F5F5F5F5F5E2E2EFF5F5F5F5F5F5F5F5F5F5F5F5F5F5F5F5F5F5F5F5E2F5F5F5F5F5F5F5F5F5F5F5F5F5F5F5F5F5F5F5F5F5F5F5F5F5F5F5F5F5F5F5F5F5F5F5F5F5F5F5F5F5F5F5F5F5F5F5F5
310
F5F5F5F5F5F5F5F5F5F5F5F5F5F5F5F5F5F5F5F5F5F5F5F5F5F5F5F5F5F5F5F5F5F5F5F5F5F5F5F5F5F5F5F5F5F5F5F5F5F5F5F5F5F5F5F5F5F5F5F5F5F5F5F5F5F5F5F5F5F5F5F5F5F5F5F5F5F5F5F5F5F5F5F5F5F5F5E2F5F5F5F5F5F5F5F5F5F5F5F5F5F5F5F5F5F5F5F5E2E2EFF5F5F5F5F5F5F5F5F5F5F5F5F5F5F5F5
310
F5F5F5F5E2E2E2E2E2E2E2E2E2E2E2E2E2E2E2E2E2E2E2E2E2E2E2E2E2E2E2E2E2E2E2E2E2E2E2E2E2E2E2E2E2E2E2E2E2E2E2E2E2E2E2E2E2E2E2E2E2E2E2E2E2E2E2E2E2E2E2E2E2E2E2E2E2E2E2E2E2E2E2E2E2E2E2E2E2E2E2E2E2E2E2E2E2E2E2E2E2E2E2E2E2E2E2E2E2E2E2E2E2E2E2E2E2E2E2E2E2E2E2E2E2E2E2
310
E2E2E2E2E2E2E2E2E2E2E2E2E2E2F5F5F5F5F5F5F5F5F5F5F5F5F5F5F5F5F5F5F5F5E2E2EFF5F5F5F5F5F5F5F5F5F5F5F5F5F5F5F5F5F5F5F5F5F5F5F5F5F5F5F5F5F5F5F5F5F5F5F5F5F5F5F5F5F5F5F5F5F5F5F5F5F5F5F5F5F5F5F5F5F5F5F5F5F5F5F5F5F5F5F5F5F5F5F5F5F5F5F5F5F5F5F5F5F5F5F5F5F5F5F5F5F5
310
F5F5F5F5F5F5F5F5F5F5F5F5F5F5F5F5F5F5F5F5F5F5F5F5F5F5F5F5F5F5F5F5F5F5F5F5F5F5F5F5F5F5F5F5F5F5F5F5F5F5F5F5F5F5F5F5F5F5F5F5F5F5F5F5F5F5F5F5F5F5F5F5F5F5F5F5F5F5F5F5F5F5F5F5F5F5F5E2E2EFF5F5F5F5F5F5F5F5F5F5F5F5F5F5F5F5F5F5F5F5F5F5F5F5F5F5F5F5F5F5F5F5F5F5F5F5F5
310
F5F5F5F5F5F5F5F5F5F5F5F5F5F5F5F5F5F5F5F5F5F5F5F5F5F5F5F5F5F5F5F5F5F5F5F5F5F5F5F5F5F5F5F5F5F5F5F5F5F5F5F5F5F5F5F5F5F5F5F5F5F5F5F5F5F5F5F5F5F5F5F5F5F5F5F5F5F5F5F5F5F5F5F5F5F5F5F5F5F5F5F5F5F5F5F5F5F5F5F5F5F5F5F5F5F5F5F5F5F5F5F5F5F5F5F5F5F5F5F5F5F5F5F5F5F5F5
310
F5F5F5F5F5F5F5F5F5F5F5F5F5E2E2EFF5F5F5F5F5F5F5F5F5F5F5F5F5F5F5F5F5F5F5F5F5F5F5F5F5F5F5F5F5F5F5F5F5F5F5F5F5F5F5F5F5F5F5F5F5F5F5F5F5F5F5F5F5F5F5F5F5F5F5F5F5F5F5F5F5F5F5F5F5F5F5F5F5F5F5F5F5F5F5F5F5F5F5F5F5F5F5F5F5F5F5F5F5F5F5F5F5F5F5F5F5F5F5F5F5F5F5F5F5F5F5
310
F5F5F5F5F5F5F5F5F5F5F5F5F5F5F5F5F5F5F5F5F5F5F5F5F5F5F5F5F5F5F5F5F5F5F5F5F5F5F5F5F5F5F5F5F5F5F5F5F5F5F5F5F5F5F5F5F5F5F5F5F5F5F5F5F5F5E2E2EFF5F5F5F5F5F5F5F5F5F5F5F5F5F5F5F5F5F5F5F5F5F5F5F5F5F5F5F5F5F5F5F5F5F5F5F5F5F5F5F5F5F5F5F5F5F5F5F5F5F5F5F5F5F5F5F5F5F5
310
F5F5F5F5F5F5F5F5F5F5F5F5F5F5F5F5F5F5F5F5F5F5F5F5F5F5F5F5F5F5F5F5F5F5F5F5F5F5F5F5F5F5F5F5F5F5F5F5F5F5F5F5F5F5F5F5F5F5F5F5F5F5F5F5F5F5F5F5F5F5F5F5F5F5F5F5F5F5F5F5F5F5F5F5F5F5F5F5F5F5F5F5F5F5F5F5F5F5F5F5F5F5F5F5F5F5F5F5F5F5F5F5F5F5F5F5F5F5F5E2E2EFF5F5F5E2F5
310
F5F5F5F5F5F5F5F5F5F5F5F5F5F5F5F5F5F5F5F5F5F5F5F5F5F5F5F5F5F5F5F5F5F5F5F5F5F5F5F5F5F5F5F5F5F5F5F5F5F5F5F5F5F5F5F5F5F5F5F5F5F5F5F5F5F5F5F5F5F5F5F5F5F5F5F5F5F5F5F5F5F5F5F5F5F5F5F5F5F5F5F5F5F5F5F5F5F5F5F5F5F5F5F5F5F5F5F5F5F5F5F5F5F5F5F5F5F5F5F5F5F5F5F5F5F5F5
310
F5F5F5F5F5F5F5F5F5F5F5F5F5F5F5F5F5F5F5F5F5F5F5F5F5F5F5F5F5F5F5F5F5F5F5F5F5F5F5F5F5E2F5F5F5E2E2EFF5F5F5E2F5F5F5F5F5F5F5F5F5F5F5F5F5F5F5F5F5F5F5F5F5F5F5F5F5F5F5F5F5F5F5F5F5F5F5F5F5F5F5F5F5F5F5F5F5F5F5F5F5F5F5F5F5F5F5F5F5F5F5F5F5F5F5F5F5F5F5F5F5F5F5F5F5F5F5
310
F5F5F5F5F5F5F5F5F5F5F5F5F5F5F5F5F5F5F5F5F5F5F5F5F5F5F5F5F5F5F5F5F5F5F5F5F5F5F5F5F5F5F5F5F5F5F5F5F5F5F5F5F5F5F5F5F5F5F5F5F5F5F5F5F5F5F5F5F5F5F5F5F5F5F5F5F5F5F5F5F5F5F5F5F5F5F5F5F5F5F5F5F5F5E2F5F5F5E2E2EFF5F5F5E2F5F5F5F5F5F5F5F5F5F5F5F5F5F5F5F5F5F5F5F5F5F5
310
F5F5F5F5F5F5F5F5F5F5F5F5F5F5F5F5F5F5F5F5F5F5F5F5F5F5F5F5F5F5F5F5F5F5F5F5F5F5F5F5F5F5F5F5F5F5F5F5F5F5F5F5F5F5F5F5F5F5F5F5F5F5F5F5F5F5F5F5F5F5F5F5F5F5F5F5F5F5F5F5F5F5F5F5F5F5F5F5F5F5F5F5F5F5F5F5F5F5F5F5F5F5F5F5F5F5F5F5F5F5F5F5F5F5F5F5F5F5F5F5F5F5F5F5F5F5F5
310
F5F5F5F5F5F5F5F5F5F5F5F5F5F5F5F5F5F5F5F5E2F5F5F5E2E2EFF5F5F5E2F5F5F5F5F5F5F5F5F5F5F5F5F5F5F5F5F5F5F5F5F5F5F5F5F5F5F5F5F5F5F5F5F5F5F5F5F5F5F5F5F5F5F5F5F5F5F5F5F5F5F5F5F5F5F5F5F5F5F5F5F5F5F5F5F5F5F5F5F5F5F5F5F5F5F5F5F5F5F5F5F5F5F5F5F5F5F5F5F5F5F5F5F5F5F5F5
310
F5F5F5F5F5F5F5F5F5F5F5F5F5F5F5F5F5F5F5F5F5F5F5F5F5F5F5F5F5F5F5F5F5F5F5F5F5F5F5F5F5F5F5F5F5F5F5F5F5F5F5F5F5F5F5F5F5F5F5F5F5F5F5F5F5F5F5F5F5F5F5F5F5E2F5F5F5E2E2EFF5F5F5E2F5F5F5F5F5F5F5F5F5F5F5F5F5F5F5F5F5F5F5F5F5F5F5F5F5F5F5F5F5F5F5F5F5F5F5F5F5F5F5F5F5F5F5
310
F5F5F5F5F5F5F5F5F5F5F5F5F5F5F5F5F5F5F5F5F5F5F5F5F5F5F5F5F5F5F5F5F5F5F5F5F5F5F5F5F5F5F5F5F5F5F5F5F5F5F5F5F5F5F5F5F5F5F5F5F5F5F5F5F5F5F5F5F5F5F5F5F5F5F5F5F5F5F5F5F5F5F5F5F5F5F5F5F5F5F5F5F5F5F5F5F5F5F5F5F5F5F5F5F5F5F5F5F5F5F5F5F5F5F5F5F5F5F5F5F5F5F5F5F5F5E2
310
F5F5F5E2E2EFF5F5F5E2F5F5F5F5F5F5F5F5F5F5F5F5F5F5F5F5F5F5F5F5F5F5F5F5F5F5F5F5F5F5F5F5F5F5F5F5F5F5F5F5F5F5F5F5F5F5F5F5F5F5F5F5F5F5F5F5F5F5F5F5F5F5F5F5F5F5F5F5F5F5F5F5F5F5F5F5F5F5F5F5F5F5F5F5F5F5F5F5F5F5F5F5F5F5F5F5F5F5F5F5F5F5F5F5F5F5F5F5F5F5F5F5F5F5F5F5F5
310
F5F5F5F5F5F5F5F5F5F5F5F5F5F5F5F5F5F5F5F5F5F5F5F5F5F5F5F5F5F5F5F5F5F5F5F5F5F5F5F5F5F5F5F5F5F5F5F5F5F5F5F5E2F5F5F5E2E2EFF5F5F5E2F5F5F5F5F5F5F5F5F5F5F5F5F5F5F5F5F5F5F5F5F5F5F5F5F5F5F5F5F5F5F5F5F5F5F5F5F5F5F5F5F5F5F5F5F5F5F5F5F5F5F5F5F5F5F5F5F5F5F5F5F5F5F5F5
310
F5F5F5F5F5F5F5F5F5F5F5F5F5F5F5F5F5F5F5F5F5F5F5F5F5F5F5F5F5F5F5F5F5F5F5F5F5F5F5F5F5F5F5F5F5F5F5F5F5F5F5F5F5F5F5F5F5F5F5F5F5F5F5F5F5F5F5F5F5F5F5F5F5F5F5F5F5F5F5F5F5F5F5F5F5F5F5F5F5F5F5F5F5F5F5F5F5F5F5F5F5F5F5F5F5E2F5F5F5E2E2EFF5F5F5E2F5F5F5F5F5F5F5F5F5F5F5
310
F5F5F5F5F5F5F5F5F5F5F5F5F5F5F5F5F5F5F5F5F5F5F5F5F5F5F5F5F5F5F5F5F5F5F5F5F5F5F5F5F5F5F5F5F5F5F5F5F5F5F5F5F5F5F5F5F5F5F5F5F5F5F5F5F5F5F5F5F5F5F5F5F5F5F5F5F5F5F5F5F5F5F5F5F5F5F5F5F5F5F5F5F5F5F5F5F5F5F5F5F5F5F5F5F5F5F5F5F5F5F5F5F5F5F5F5F5F5F5F5F5F5F5F5F5F5F5
310
F5F5F5F5F5F5F5F5F5F5F5F5F5F5F5F5F5F5F5F5F5F5F5F5F5F5F5F5F5F5F5E2F5F5F5E2E2EFF5F5F5E2E2E2E2E2E2E2E2F5F5F5F5F5F5F5F5F5E2E2E2E2E2E2E2E2E2E2E2E2E2E2E2E2F5F5F5F5F5F5F5F5E2E2E2E2E2E2E2E2E2E2E2E2E2E2E2E2F5F5F5F5F5F5F5F5F5E2E2E2E2E2E2E2E2E2E2E2E2E2E2E2F5F5F5F5F5
310
F5F5F5F5E2E2E2E2E2E2E2E2E2E2E2E2E2E2E2F5F5F5F5F5F5F5F5F5E2E2E2E2E2E2E2E2E2E2E2E2E2E2E2E2F5F5F5F5F5F5F5F5E2E2E2E2E2E2E2E2E2E2E2E2E2E2E2E2F5F5F5F5F5F5F5F5F5E2E2E2E2E2E2E2E2F5F5F5E2E2EFF5F5F5F5F5F5F5F5F5F5F5F5F5F5F5F5F5F5F5F5F5F5F5F5F5F5F5F5F5F5F5F5F5F5F5F5
310
F5F5F5F5F5F5F5F5F5F5F5F5F5F5F5F5F5F5F5F5F5F5F5F5F5F5F5F5F5F5F5F5F5F5F5F5F5F5F5F5F5F5F5F5F5F5F5F5F5F5F5F5F5F5F5F5F5F5F5F5F5F5F5F5F5F5F5F5F5F5F5F5F5F5F5F5F5F5F5F5F5F5F5F5F5F5F5F5F5F5F5F5F5F5F5F5F5F5F5F5F5F5F5F5F5F5F5F5F5F5F5F5F5F5F5F5F5F5F5F5F5F5F5F5F5F5F5
310
F5F5F5F5F5F5F5F5F5F5F5F5F5F5E2E2EFF5F5F5F5F5F5F5F5F5F5F5F5F5F5F5F5F5F5F5F5F5F5F5F5F5F5F5F5F5F5F5F5F5F5F5F5F5F5F5F5F5F5F5F5F5F5F5F5F5F5F5F5F5F5F5F5F5F5F5F5F5F5F5F5F5F5F5F5F5F5F5F5F5F5F5F5F5F5F5F5F5F5F5F5F5F5F5F5F5F5F5F5F5F5F5F5F5F5F5F5F5F5F5F5F5F5F5F5F5F5
310
F5F5F5F5F5F5F5F5F5F5F5F5F5F5F5F5F5F5F5F5F5F5F5F5F5F5F5F5F5F5F5F5F5F5F5F5F5F5F5F5F5F5F5F5F5F5F5F5F5F5F5F5F5F5F5F5F5F5F5F5F5F5F5F5F5F5F5E2EFEFF5F5F5F5F5F5F5F5F5F5F5F5F5F5F5F5F5F5F5F5F5F5F5F5F5F5F5F5F5F5F5F5F5F5F5F5F5F5F5F5F5F5F5F5F5F5F5F5F5F5F5F5F5F5F5F5F5
310
F5F5F5F5F5F5F5F5F5F5F5F5F5F5F5F5F5F5F5F5F5F5F5F5F5F5F5F5F5F5F5F5F5F5F5F5F5F5F5F5F5F5F5F5F5F5F5F5F5F5F5F5F5F5F5F5F5F5F5F5F5F5F5F5F5F5F5F5F5F5F5F5F5F5F5F5F5F5F5F5F5F5F5F5F5F5F5F5F5F5F5F5F5F5F5F5F5F5F5F5F5F5F5F5F5F5F5F5F5F5F5F5F5F5F5F5F5F5F5F5E2EFEFE2E2E2E2
310
E2E2E2E2E2E2E2E2E2E2E2E2E2E2E2E2E2E2E2E2E2E2E2E2E2E2E2E2E2E2E2E2E2E2E2E2E2E2E2E2E2E2E2E2E2E2E2E2E2E2E2E2E2E2E2E2E2E2E2E2E2E2E2E2E2E2E2E2E2E2E2E2E2E2E2E2E2E2E2E2E2E2E2E2E2E2E2E2E2E2E2E2E2E2E2E2E2E2E2E2E2E2E2E2E2E2E2E2E2E2E2E2E2E2E2E2E2E2E2E2E2E2E2E2E2E2E2
310
E2E2E2E2E2E2E2E2E2E2E2E2E2E2E2E2E2E2E2E2E2E2E2E2E2E2E2E2E2E2E2E2E2E2E2E2E2E2E2E2E2E2E2E2E2E2E2EFEF
  0
ENDSEC
  0
EOF
