  0
SECTION
  2
HEADER
  9
$ACADVER
  1
AC1018
  9
$ACADMAINTVER
 70
     0
  9
$DWGCODEPAGE
  3
ANSI_1252
  9
$AUTHOR
  1
g6edxjah
  9
$LASTSAVEDBY
  1
g6edxjah
  9
$INSBASE
 10
0.0
 20
0.0
 30
0.0
  9
$EXTMIN
 10
32.779167
 20
-12.239312
 30
0.0
  9
$EXTMAX
 10
43.94225
 20
-3.826229
 30
0.0
  9
$LIMMIN
 10
10.403999
 20
-35.98948
  9
$LIMMAX
 10
66.317418
 20
19.923939
  9
$ORTHOMODE
 70
     0
  9
$REGENMODE
 70
     1
  9
$FILLMODE
 70
     1
  9
$QTEXTMODE
 70
     0
  9
$MIRRTEXT
 70
     0
  9
$LTSCALE
 40
1.0
  9
$ATTMODE
 70
     1
  9
$TEXTSIZE
 40
0.140396
  9
$TRACEWID
 40
0.05
  9
$TEXTSTYLE
  7
Standard
  9
$CLAYER
  8
TITLE
  9
$CELTYPE
  6
Continuous
  9
$CECOLOR
 62
     7
  9
$CELTSCALE
 40
1.0
  9
$DISPSILH
 70
     0
  9
$DIMSCALE
 40
1.0
  9
$DIMASZ
 40
0.140396
  9
$DIMEXO
 40
0.070198
  9
$DIMDLI
 40
0.0
  9
$DIMRND
 40
0.0
  9
$DIMDLE
 40
0.0
  9
$DIMEXE
 40
0.070198
  9
$DIMTP
 40
0.0
  9
$DIMTM
 40
0.0
  9
$DIMTXT
 40
0.140396
  9
$DIMCEN
 40
0.09
  9
$DIMTSZ
 40
0.0
  9
$DIMTOL
 70
     0
  9
$DIMLIM
 70
     0
  9
$DIMTIH
 70
     0
  9
$DIMTOH
 70
     0
  9
$DIMSE1
 70
     0
  9
$DIMSE2
 70
     0
  9
$DIMTAD
 70
     1
  9
$DIMZIN
 70
    11
  9
$DIMBLK
  1
TerminatorOpen_0.5
  9
$DIMASO
 70
     1
  9
$DIMSHO
 70
     1
  9
$DIMPOST
  1

  9
$DIMAPOST
  1

  9
$DIMALT
 70
     0
  9
$DIMALTD
 70
     4
  9
$DIMALTF
 40
25.4
  9
$DIMLFAC
 40
1.0
  9
$DIMTOFL
 70
     0
  9
$DIMTVP
 40
0.0
  9
$DIMTIX
 70
     0
  9
$DIMSOXD
 70
     0
  9
$DIMSAH
 70
     0
  9
$DIMBLK1
  1

  9
$DIMBLK2
  1

  9
$DIMSTYLE
  2
Standard
  9
$DIMCLRD
 70
     0
  9
$DIMCLRE
 70
     0
  9
$DIMCLRT
 70
     0
  9
$DIMTFAC
 40
1.0
  9
$DIMGAP
 40
0.070198
  9
$DIMJUST
 70
     0
  9
$DIMSD1
 70
     0
  9
$DIMSD2
 70
     0
  9
$DIMTOLJ
 70
     0
  9
$DIMTZIN
 70
    11
  9
$DIMALTZ
 70
    15
  9
$DIMALTTZ
 70
    15
  9
$DIMUPT
 70
     0
  9
$DIMDEC
 70
     4
  9
$DIMTDEC
 70
     4
  9
$DIMALTU
 70
     2
  9
$DIMALTTD
 70
     4
  9
$DIMTXSTY
  7
Style-Arial
  9
$DIMAUNIT
 70
     0
  9
$DIMADEC
 70
     4
  9
$DIMALTRND
 40
0.0
  9
$DIMAZIN
 70
     3
  9
$DIMDSEP
 70
    46
  9
$DIMATFIT
 70
     1
  9
$DIMFRAC
 70
     0
  9
$DIMLDRBLK
  1
TerminatorOpen_0.5
  9
$DIMLUNIT
 70
     2
  9
$DIMLWD
 70
    -2
  9
$DIMLWE
 70
    -2
  9
$DIMTMOVE
 70
     0
  9
$LUNITS
 70
     2
  9
$LUPREC
 70
     4
  9
$SKETCHINC
 40
0.1
  9
$FILLETRAD
 40
0.0
  9
$AUNITS
 70
     0
  9
$AUPREC
 70
     4
  9
$MENU
  1
.
  9
$ELEVATION
 40
0.0
  9
$PELEVATION
 40
0.0
  9
$THICKNESS
 40
0.0
  9
$LIMCHECK
 70
     0
  9
$CHAMFERA
 40
0.0
  9
$CHAMFERB
 40
0.0
  9
$CHAMFERC
 40
0.0
  9
$CHAMFERD
 40
0.0
  9
$SKPOLY
 70
     0
  9
$TDCREATE
 40
2455372.582058982
  9
$TDUCREATE
 40
2455372.790392315
  9
$TDUPDATE
 40
2455372.582058982
  9
$TDUUPDATE
 40
2455372.790392315
  9
$TDINDWG
 40
0.0
  9
$TDUSRTIMER
 40
0.0006630093
  9
$USRTIMER
 70
     1
  9
$ANGBASE
 50
0.0
  9
$ANGDIR
 70
     0
  9
$PDMODE
 70
     0
  9
$PDSIZE
 40
0.0
  9
$PLINEWID
 40
0.0
  9
$SPLFRAME
 70
     0
  9
$SPLINETYPE
 70
     6
  9
$SPLINESEGS
 70
     8
  9
$HANDSEED
  5
690
  9
$SURFTAB1
 70
     6
  9
$SURFTAB2
 70
     6
  9
$SURFTYPE
 70
     6
  9
$SURFU
 70
     6
  9
$SURFV
 70
     6
  9
$UCSBASE
  2

  9
$UCSNAME
  2

  9
$UCSORG
 10
0.0
 20
0.0
 30
0.0
  9
$UCSXDIR
 10
1.0
 20
0.0
 30
0.0
  9
$UCSYDIR
 10
0.0
 20
1.0
 30
0.0
  9
$UCSORTHOREF
  2

  9
$UCSORTHOVIEW
 70
     0
  9
$UCSORGTOP
 10
0.0
 20
0.0
 30
0.0
  9
$UCSORGBOTTOM
 10
0.0
 20
0.0
 30
0.0
  9
$UCSORGLEFT
 10
0.0
 20
0.0
 30
0.0
  9
$UCSORGRIGHT
 10
0.0
 20
0.0
 30
0.0
  9
$UCSORGFRONT
 10
0.0
 20
0.0
 30
0.0
  9
$UCSORGBACK
 10
0.0
 20
0.0
 30
0.0
  9
$PUCSBASE
  2

  9
$PUCSNAME
  2

  9
$PUCSORG
 10
0.0
 20
0.0
 30
0.0
  9
$PUCSXDIR
 10
1.0
 20
0.0
 30
0.0
  9
$PUCSYDIR
 10
0.0
 20
1.0
 30
0.0
  9
$PUCSORTHOREF
  2

  9
$PUCSORTHOVIEW
 70
     0
  9
$PUCSORGTOP
 10
0.0
 20
0.0
 30
0.0
  9
$PUCSORGBOTTOM
 10
0.0
 20
0.0
 30
0.0
  9
$PUCSORGLEFT
 10
0.0
 20
0.0
 30
0.0
  9
$PUCSORGRIGHT
 10
0.0
 20
0.0
 30
0.0
  9
$PUCSORGFRONT
 10
0.0
 20
0.0
 30
0.0
  9
$PUCSORGBACK
 10
0.0
 20
0.0
 30
0.0
  9
$USERI1
 70
     0
  9
$USERI2
 70
     0
  9
$USERI3
 70
     0
  9
$USERI4
 70
     0
  9
$USERI5
 70
     0
  9
$USERR1
 40
0.0
  9
$USERR2
 40
0.0
  9
$USERR3
 40
0.0
  9
$USERR4
 40
0.0
  9
$USERR5
 40
0.0
  9
$WORLDVIEW
 70
     1
  9
$SHADEDGE
 70
     3
  9
$SHADEDIF
 70
    70
  9
$TILEMODE
 70
     1
  9
$MAXACTVP
 70
    64
  9
$PINSBASE
 10
0.0
 20
0.0
 30
0.0
  9
$PLIMCHECK
 70
     0
  9
$PEXTMIN
 10
1.049744
 20
0.799667
 30
-0.001526
  9
$PEXTMAX
 10
9.450623
 20
7.200577
 30
0.0
  9
$PLIMMIN
 10
-0.25
 20
-0.25
  9
$PLIMMAX
 10
10.75
 20
8.25
  9
$UNITMODE
 70
     0
  9
$VISRETAIN
 70
     1
  9
$PLINEGEN
 70
     0
  9
$PSLTSCALE
 70
     0
  9
$TREEDEPTH
 70
  3020
  9
$CMLSTYLE
  2
Standard
  9
$CMLJUST
 70
     0
  9
$CMLSCALE
 40
1.0
  9
$PROXYGRAPHICS
 70
     1
  9
$MEASUREMENT
 70
     0
  9
$CELWEIGHT
370
    30
  9
$ENDCAPS
280
     0
  9
$JOINSTYLE
280
     0
  9
$LWDISPLAY
290
     1
  9
$INSUNITS
 70
     2
  9
$HYPERLINKBASE
  1

  9
$STYLESHEET
  1

  9
$XEDIT
290
     1
  9
$CEPSNTYPE
380
     0
  9
$PSTYLEMODE
290
     1
  9
$FINGERPRINTGUID
  2
{02C0BBB5-38A7-4FBF-829E-00875EC88963}
  9
$VERSIONGUID
  2
{82C521FC-BF81-46B3-825E-420B6BD93A99}
  9
$EXTNAMES
290
     1
  9
$PSVPSCALE
 40
0.0
  9
$OLESTARTUP
290
     0
  9
$SORTENTS
280
   127
  9
$INDEXCTL
280
     0
  9
$HIDETEXT
280
     1
  9
$XCLIPFRAME
290
     0
  9
$HALOGAP
280
     0
  9
$OBSCOLOR
 70
   257
  9
$OBSLTYPE
280
     0
  9
$INTERSECTIONDISPLAY
280
     0
  9
$INTERSECTIONCOLOR
 70
   257
  9
$DIMASSOC
280
     1
  9
$PROJECTNAME
  1

  0
ENDSEC
  0
SECTION
  2
CLASSES
  0
CLASS
  1
ACDBDICTIONARYWDFLT
  2
AcDbDictionaryWithDefault
  3
ObjectDBX Classes
 90
        0
 91
        3
280
     0
281
     0
  0
CLASS
  1
SORTENTSTABLE
  2
AcDbSortentsTable
  3
ObjectDBX Classes
 90
        0
 91
        3
280
     0
281
     0
  0
ENDSEC
  0
SECTION
  2
TABLES
  0
TABLE
  2
VPORT
  5
66C
330
0
100
AcDbSymbolTable
 70
     4
  0
VPORT
  5
49
330
66C
100
AcDbSymbolTableRecord
100
AcDbViewportTableRecord
  2
*ACTIVE
 70
     0
 10
0.0
 20
0.0
 11
1.0
 21
1.0
 12
38.360708
 22
-8.032771
 13
0.0
 23
0.0
 14
0.083333
 24
0.083333
 15
0.083333
 25
0.083333
 16
0.0
 26
0.0
 36
1.0
 17
0.0
 27
0.0
 37
0.0
 40
8.749607
 41
1.884937
 42
50.0
 43
0.0
 44
0.0
 50
0.0
 51
0.0
 71
     0
 72
   100
 73
     1
 74
     2
 75
     0
 76
     0
 77
     0
 78
     1
281
     0
 65
     1
110
0.0
120
0.0
130
0.0
111
1.0
121
0.0
131
0.0
112
0.0
122
1.0
132
0.0
 79
     0
146
0.0
  0
ENDTAB
  0
TABLE
  2
LTYPE
  5
653
330
0
100
AcDbSymbolTable
 70
     1
  0
LTYPE
  5
654
330
653
100
AcDbSymbolTableRecord
100
AcDbLinetypeTableRecord
  2
ByBlock
 70
     0
  3

 72
    65
 73
     0
 40
0.0
  0
LTYPE
  5
655
330
653
100
AcDbSymbolTableRecord
100
AcDbLinetypeTableRecord
  2
ByLayer
 70
     0
  3

 72
    65
 73
     0
 40
0.0
  0
LTYPE
  5
652
330
653
100
AcDbSymbolTableRecord
100
AcDbLinetypeTableRecord
  2
Continuous
 70
     0
  3
Solid line
 72
    65
 73
     0
 40
0.0
  0
ENDTAB
  0
TABLE
  2
LAYER
  5
64C
102
{ACAD_XDICTIONARY
360
64D
102
}
330
0
100
AcDbSymbolTable
 70
    64
  0
LAYER
  5
64B
330
64C
100
AcDbSymbolTableRecord
100
AcDbLayerTableRecord
  2
0
 70
     0
 62
     7
  6
Continuous
370
    -3
390
64F
  0
LAYER
  5
7
330
64C
100
AcDbSymbolTableRecord
100
AcDbLayerTableRecord
  2
Level 1
 70
     0
 62
     7
  6
Continuous
370
     0
390
64F
  0
LAYER
  5
8
330
64C
100
AcDbSymbolTableRecord
100
AcDbLayerTableRecord
  2
2-34C
 70
     0
 62
     7
  6
Continuous
370
     0
390
64F
1001
AcAecLayerStandard
1000

1000
2-34C
  0
LAYER
  5
9
330
64C
100
AcDbSymbolTableRecord
100
AcDbLayerTableRecord
  2
BORDER
 70
     0
 62
     7
  6
Continuous
370
     0
390
64F
1001
AcAecLayerStandard
1000

1000
BORDER
  0
LAYER
  5
A
330
64C
100
AcDbSymbolTableRecord
100
AcDbLayerTableRecord
  2
LEGEND
 70
     0
 62
     7
  6
Continuous
370
     0
390
64F
1001
AcAecLayerStandard
1000

1000
LEGEND
  0
LAYER
  5
B
330
64C
100
AcDbSymbolTableRecord
100
AcDbLayerTableRecord
  2
DIM
 70
     0
 62
     7
  6
Continuous
370
     0
390
64F
1001
AcAecLayerStandard
1000

1000
DIM
  0
LAYER
  5
C
330
64C
100
AcDbSymbolTableRecord
100
AcDbLayerTableRecord
  2
HATCH
 70
     0
 62
     7
  6
Continuous
370
     0
390
64F
1001
AcAecLayerStandard
1000

1000
HATCH
  0
LAYER
  5
D
330
64C
100
AcDbSymbolTableRecord
100
AcDbLayerTableRecord
  2
NOTES
 70
     0
 62
     7
  6
Continuous
370
     0
390
64F
1001
AcAecLayerStandard
1000

1000
NOTES
  0
LAYER
  5
E
330
64C
100
AcDbSymbolTableRecord
100
AcDbLayerTableRecord
  2
TEXT
 70
     0
 62
     7
  6
Continuous
370
     0
390
64F
1001
AcAecLayerStandard
1000

1000
TEXT
  0
LAYER
  5
F
330
64C
100
AcDbSymbolTableRecord
100
AcDbLayerTableRecord
  2
TITLE
 70
     0
 62
     7
  6
Continuous
370
     0
390
64F
1001
AcAecLayerStandard
1000

1000
TITLE
  0
LAYER
  5
10
330
64C
100
AcDbSymbolTableRecord
100
AcDbLayerTableRecord
  2
Level 10
 70
     0
 62
     7
  6
Continuous
370
     0
390
64F
  0
LAYER
  5
11
330
64C
100
AcDbSymbolTableRecord
100
AcDbLayerTableRecord
  2
Level 11
 70
     0
 62
     7
  6
Continuous
370
     0
390
64F
  0
LAYER
  5
12
330
64C
100
AcDbSymbolTableRecord
100
AcDbLayerTableRecord
  2
Level 12
 70
     0
 62
     7
  6
Continuous
370
     0
390
64F
  0
LAYER
  5
13
330
64C
100
AcDbSymbolTableRecord
100
AcDbLayerTableRecord
  2
Level 13
 70
     0
 62
     7
  6
Continuous
370
     0
390
64F
  0
LAYER
  5
14
330
64C
100
AcDbSymbolTableRecord
100
AcDbLayerTableRecord
  2
Level 14
 70
     0
 62
     7
  6
Continuous
370
     0
390
64F
  0
LAYER
  5
15
330
64C
100
AcDbSymbolTableRecord
100
AcDbLayerTableRecord
  2
Level 15
 70
     0
 62
     7
  6
Continuous
370
     0
390
64F
  0
LAYER
  5
16
330
64C
100
AcDbSymbolTableRecord
100
AcDbLayerTableRecord
  2
Level 16
 70
     0
 62
     7
  6
Continuous
370
     0
390
64F
  0
LAYER
  5
17
330
64C
100
AcDbSymbolTableRecord
100
AcDbLayerTableRecord
  2
Level 17
 70
     0
 62
     7
  6
Continuous
370
     0
390
64F
  0
LAYER
  5
18
330
64C
100
AcDbSymbolTableRecord
100
AcDbLayerTableRecord
  2
Level 18
 70
     0
 62
     7
  6
Continuous
370
     0
390
64F
  0
LAYER
  5
19
330
64C
100
AcDbSymbolTableRecord
100
AcDbLayerTableRecord
  2
Level 19
 70
     0
 62
     7
  6
Continuous
370
     0
390
64F
  0
LAYER
  5
1A
330
64C
100
AcDbSymbolTableRecord
100
AcDbLayerTableRecord
  2
Level 20
 70
     0
 62
     7
  6
Continuous
370
     0
390
64F
  0
LAYER
  5
1B
330
64C
100
AcDbSymbolTableRecord
100
AcDbLayerTableRecord
  2
Level 21
 70
     0
 62
     7
  6
Continuous
370
     0
390
64F
  0
LAYER
  5
1C
330
64C
100
AcDbSymbolTableRecord
100
AcDbLayerTableRecord
  2
Level 22
 70
     0
 62
     7
  6
Continuous
370
     0
390
64F
  0
LAYER
  5
1D
330
64C
100
AcDbSymbolTableRecord
100
AcDbLayerTableRecord
  2
Level 23
 70
     0
 62
     7
  6
Continuous
370
     0
390
64F
  0
LAYER
  5
1E
330
64C
100
AcDbSymbolTableRecord
100
AcDbLayerTableRecord
  2
Level 24
 70
     0
 62
     7
  6
Continuous
370
     0
390
64F
  0
LAYER
  5
1F
330
64C
100
AcDbSymbolTableRecord
100
AcDbLayerTableRecord
  2
Level 25
 70
     0
 62
     7
  6
Continuous
370
     0
390
64F
  0
LAYER
  5
20
330
64C
100
AcDbSymbolTableRecord
100
AcDbLayerTableRecord
  2
Level 26
 70
     0
 62
     7
  6
Continuous
370
     0
390
64F
  0
LAYER
  5
21
330
64C
100
AcDbSymbolTableRecord
100
AcDbLayerTableRecord
  2
Level 27
 70
     0
 62
     7
  6
Continuous
370
     0
390
64F
  0
LAYER
  5
22
330
64C
100
AcDbSymbolTableRecord
100
AcDbLayerTableRecord
  2
Level 28
 70
     0
 62
     7
  6
Continuous
370
     0
390
64F
  0
LAYER
  5
23
330
64C
100
AcDbSymbolTableRecord
100
AcDbLayerTableRecord
  2
Level 29
 70
     0
 62
     7
  6
Continuous
370
     0
390
64F
  0
LAYER
  5
24
330
64C
100
AcDbSymbolTableRecord
100
AcDbLayerTableRecord
  2
Level 30
 70
     0
 62
     7
  6
Continuous
370
     0
390
64F
  0
LAYER
  5
25
330
64C
100
AcDbSymbolTableRecord
100
AcDbLayerTableRecord
  2
Level 31
 70
     0
 62
     7
  6
Continuous
370
     0
390
64F
  0
LAYER
  5
26
330
64C
100
AcDbSymbolTableRecord
100
AcDbLayerTableRecord
  2
Level 32
 70
     0
 62
     7
  6
Continuous
370
     0
390
64F
  0
LAYER
  5
27
330
64C
100
AcDbSymbolTableRecord
100
AcDbLayerTableRecord
  2
Level 33
 70
     0
 62
     7
  6
Continuous
370
     0
390
64F
  0
LAYER
  5
28
330
64C
100
AcDbSymbolTableRecord
100
AcDbLayerTableRecord
  2
Level 34
 70
     0
 62
     7
  6
Continuous
370
     0
390
64F
  0
LAYER
  5
29
330
64C
100
AcDbSymbolTableRecord
100
AcDbLayerTableRecord
  2
Level 35
 70
     0
 62
     7
  6
Continuous
370
     0
390
64F
  0
LAYER
  5
2A
330
64C
100
AcDbSymbolTableRecord
100
AcDbLayerTableRecord
  2
Level 36
 70
     0
 62
     7
  6
Continuous
370
     0
390
64F
  0
LAYER
  5
2B
330
64C
100
AcDbSymbolTableRecord
100
AcDbLayerTableRecord
  2
Level 37
 70
     0
 62
     7
  6
Continuous
370
     0
390
64F
  0
LAYER
  5
2C
330
64C
100
AcDbSymbolTableRecord
100
AcDbLayerTableRecord
  2
Level 38
 70
     0
 62
     7
  6
Continuous
370
     0
390
64F
  0
LAYER
  5
2D
330
64C
100
AcDbSymbolTableRecord
100
AcDbLayerTableRecord
  2
Level 39
 70
     0
 62
     7
  6
Continuous
370
     0
390
64F
  0
LAYER
  5
2E
330
64C
100
AcDbSymbolTableRecord
100
AcDbLayerTableRecord
  2
Level 40
 70
     0
 62
     7
  6
Continuous
370
     0
390
64F
  0
LAYER
  5
2F
330
64C
100
AcDbSymbolTableRecord
100
AcDbLayerTableRecord
  2
Level 41
 70
     0
 62
     7
  6
Continuous
370
     0
390
64F
  0
LAYER
  5
30
330
64C
100
AcDbSymbolTableRecord
100
AcDbLayerTableRecord
  2
Level 42
 70
     0
 62
     7
  6
Continuous
370
     0
390
64F
  0
LAYER
  5
31
330
64C
100
AcDbSymbolTableRecord
100
AcDbLayerTableRecord
  2
Level 43
 70
     0
 62
     7
  6
Continuous
370
     0
390
64F
  0
LAYER
  5
32
330
64C
100
AcDbSymbolTableRecord
100
AcDbLayerTableRecord
  2
Level 44
 70
     0
 62
     7
  6
Continuous
370
     0
390
64F
  0
LAYER
  5
33
330
64C
100
AcDbSymbolTableRecord
100
AcDbLayerTableRecord
  2
Level 45
 70
     0
 62
     7
  6
Continuous
370
     0
390
64F
  0
LAYER
  5
34
330
64C
100
AcDbSymbolTableRecord
100
AcDbLayerTableRecord
  2
Level 46
 70
     0
 62
     7
  6
Continuous
370
     0
390
64F
  0
LAYER
  5
35
330
64C
100
AcDbSymbolTableRecord
100
AcDbLayerTableRecord
  2
Level 47
 70
     0
 62
     7
  6
Continuous
370
     0
390
64F
  0
LAYER
  5
36
330
64C
100
AcDbSymbolTableRecord
100
AcDbLayerTableRecord
  2
Level 48
 70
     0
 62
     7
  6
Continuous
370
     0
390
64F
  0
LAYER
  5
37
330
64C
100
AcDbSymbolTableRecord
100
AcDbLayerTableRecord
  2
Level 49
 70
     0
 62
     7
  6
Continuous
370
     0
390
64F
  0
LAYER
  5
38
330
64C
100
AcDbSymbolTableRecord
100
AcDbLayerTableRecord
  2
Level 50
 70
     0
 62
     7
  6
Continuous
370
     0
390
64F
  0
LAYER
  5
39
330
64C
100
AcDbSymbolTableRecord
100
AcDbLayerTableRecord
  2
Level 51
 70
     0
 62
     7
  6
Continuous
370
     0
390
64F
  0
LAYER
  5
3A
330
64C
100
AcDbSymbolTableRecord
100
AcDbLayerTableRecord
  2
Level 52
 70
     0
 62
     7
  6
Continuous
370
     0
390
64F
  0
LAYER
  5
3B
330
64C
100
AcDbSymbolTableRecord
100
AcDbLayerTableRecord
  2
Level 53
 70
     0
 62
     7
  6
Continuous
370
     0
390
64F
  0
LAYER
  5
3C
330
64C
100
AcDbSymbolTableRecord
100
AcDbLayerTableRecord
  2
Level 54
 70
     0
 62
     7
  6
Continuous
370
     0
390
64F
  0
LAYER
  5
3D
330
64C
100
AcDbSymbolTableRecord
100
AcDbLayerTableRecord
  2
Level 55
 70
     0
 62
     7
  6
Continuous
370
     0
390
64F
  0
LAYER
  5
3E
330
64C
100
AcDbSymbolTableRecord
100
AcDbLayerTableRecord
  2
Level 56
 70
     0
 62
     7
  6
Continuous
370
     0
390
64F
  0
LAYER
  5
3F
330
64C
100
AcDbSymbolTableRecord
100
AcDbLayerTableRecord
  2
Level 57
 70
     0
 62
     7
  6
Continuous
370
     0
390
64F
  0
LAYER
  5
40
330
64C
100
AcDbSymbolTableRecord
100
AcDbLayerTableRecord
  2
Level 58
 70
     0
 62
     7
  6
Continuous
370
     0
390
64F
  0
LAYER
  5
41
330
64C
100
AcDbSymbolTableRecord
100
AcDbLayerTableRecord
  2
Level 59
 70
     0
 62
     7
  6
Continuous
370
     0
390
64F
  0
LAYER
  5
42
330
64C
100
AcDbSymbolTableRecord
100
AcDbLayerTableRecord
  2
Level 60
 70
     0
 62
     7
  6
Continuous
370
     0
390
64F
  0
LAYER
  5
43
330
64C
100
AcDbSymbolTableRecord
100
AcDbLayerTableRecord
  2
Level 61
 70
     0
 62
     7
  6
Continuous
370
     0
390
64F
  0
LAYER
  5
44
330
64C
100
AcDbSymbolTableRecord
100
AcDbLayerTableRecord
  2
Level 62
 70
     0
 62
     7
  6
Continuous
370
     0
390
64F
  0
LAYER
  5
45
330
64C
100
AcDbSymbolTableRecord
100
AcDbLayerTableRecord
  2
_0
 70
     0
 62
     7
  6
Continuous
370
     0
390
64F
1001
AcAecLayerStandard
1000

1000
0
  0
ENDTAB
  0
TABLE
  2
STYLE
  5
657
330
0
100
AcDbSymbolTable
 70
     2
  0
STYLE
  5
656
330
657
100
AcDbSymbolTableRecord
100
AcDbTextStyleTableRecord
  2
Standard
 70
     0
 40
0.0
 41
1.0
 50
0.0
 71
     0
 42
0.140396
  3
txt
  4

  0
STYLE
  5
676
330
657
100
AcDbSymbolTableRecord
100
AcDbTextStyleTableRecord
  2
Style-Arial
 70
     0
 40
0.0
 41
1.0
 50
0.0
 71
     0
 42
0.2
  3

  4

1001
ACAD
1000
Arial
1071
       39
  0
ENDTAB
  0
TABLE
  2
VIEW
  5
66A
330
0
100
AcDbSymbolTable
 70
     0
  0
ENDTAB
  0
TABLE
  2
UCS
  5
66B
330
0
100
AcDbSymbolTable
 70
     0
  0
ENDTAB
  0
TABLE
  2
APPID
  5
669
330
0
100
AcDbSymbolTable
 70
     3
  0
APPID
  5
671
330
669
100
AcDbSymbolTableRecord
100
AcDbRegAppTableRecord
  2
ACAD
 70
     0
  0
APPID
  5
668
330
669
100
AcDbSymbolTableRecord
100
AcDbRegAppTableRecord
  2
ACAD_PSEXT
 70
     0
  0
APPID
  5
673
330
669
100
AcDbSymbolTableRecord
100
AcDbRegAppTableRecord
  2
AcAecLayerStandard
 70
     0
  0
ENDTAB
  0
TABLE
  2
DIMSTYLE
  5
659
330
0
100
AcDbSymbolTable
 70
     1
100
AcDbDimStyleTable
  0
DIMSTYLE
105
658
330
659
100
AcDbSymbolTableRecord
100
AcDbDimStyleTableRecord
  2
Standard
 70
     0
340
656
  0
ENDTAB
  0
TABLE
  2
BLOCK_RECORD
  5
65C
330
0
100
AcDbSymbolTable
 70
     4
  0
BLOCK_RECORD
  5
65D
102
{ACAD_XDICTIONARY
360
68B
102
}
330
65C
100
AcDbSymbolTableRecord
100
AcDbBlockTableRecord
  2
*Model_Space
340
660
  0
BLOCK_RECORD
  5
662
330
65C
100
AcDbSymbolTableRecord
100
AcDbBlockTableRecord
  2
*Paper_Space
340
665
  0
BLOCK_RECORD
  5
677
330
65C
100
AcDbSymbolTableRecord
100
AcDbBlockTableRecord
  2
TerminatorOpen_0.5
340
0
  0
BLOCK_RECORD
  5
682
330
65C
100
AcDbSymbolTableRecord
100
AcDbBlockTableRecord
  2
LARROW
340
0
102
{BLKREFS
331
548
331
54A
331
552
102
}
  0
BLOCK_RECORD
  5
685
330
65C
100
AcDbSymbolTableRecord
100
AcDbBlockTableRecord
  2
LARROW_1
340
0
102
{BLKREFS
331
54C
331
54E
331
550
331
554
331
556
331
558
331
55A
331
55C
331
55E
331
560
331
562
331
564
331
566
331
568
331
56A
331
56C
331
56E
331
570
102
}
  0
BLOCK_RECORD
  5
688
330
65C
100
AcDbSymbolTableRecord
100
AcDbBlockTableRecord
  2
LARROW_2
340
0
102
{BLKREFS
331
573
331
57E
331
589
331
594
331
59F
331
5AA
331
5B5
331
5C0
331
5CB
331
5D6
331
5E1
102
}
  0
ENDTAB
  0
ENDSEC
  0
SECTION
  2
BLOCKS
  0
BLOCK
  5
65E
330
65D
100
AcDbEntity
  8
0
100
AcDbBlockBegin
  2
*Model_Space
 70
     0
 71
     0
 10
0.0
 20
0.0
 30
0.0
  3
*Model_Space
  1

  0
ENDBLK
  5
65F
330
65D
100
AcDbEntity
  8
0
100
AcDbBlockEnd
  0
BLOCK
  5
663
330
662
100
AcDbEntity
 67
     1
  8
0
100
AcDbBlockBegin
  2
*Paper_Space
 70
     0
 71
     0
 10
0.0
 20
0.0
 30
0.0
  3
*Paper_Space
  1

  0
ENDBLK
  5
664
330
662
100
AcDbEntity
 67
     1
  8
0
100
AcDbBlockEnd
  0
BLOCK
  5
67B
330
677
100
AcDbEntity
  8
0
100
AcDbBlockBegin
  2
TerminatorOpen_0.5
 70
     0
 71
     0
 10
0.0
 20
0.0
 30
0.0
  3
TerminatorOpen_0.5
  1

  0
LINE
  5
678
330
677
100
AcDbEntity
  8
0
  6
ByBlock
 62
     0
370
    -2
100
AcDbLine
 10
0.0
 20
0.0
 30
0.0
 11
-1.0
 21
0.0
 31
0.0
  0
LINE
  5
679
330
677
100
AcDbEntity
  8
0
  6
ByBlock
 62
     0
370
    -2
100
AcDbLine
 10
0.0
 20
0.0
 30
0.0
 11
-1.0
 21
0.25
 31
0.0
  0
LINE
  5
67A
330
677
100
AcDbEntity
  8
0
  6
ByBlock
 62
     0
370
    -2
100
AcDbLine
 10
0.0
 20
0.0
 30
0.0
 11
-1.0
 21
-0.25
 31
0.0
  0
ENDBLK
  5
67C
330
677
100
AcDbEntity
  8
0
100
AcDbBlockEnd
  0
BLOCK
  5
683
330
682
100
AcDbEntity
  8
0
100
AcDbBlockBegin
  2
LARROW
 70
     0
 71
     0
 10
0.0
 20
0.0
 30
0.0
  3
LARROW
  1

  0
LWPOLYLINE
  5
549
330
682
100
AcDbEntity
  8
DIM
  6
Continuous
 62
     7
370
    30
100
AcDbPolyline
 90
       63
 70
   128
 43
0.0
 10
-0.013031
 20
0.001885
 10
0.0
 20
0.0
 10
-0.013021
 20
-0.001885
 10
-0.012615
 20
-0.001573
 10
-0.012042
 20
-0.00101
 10
-0.01176
 20
-0.00049
 10
-0.011687
 20
0.0
 10
-0.011792
 20
0.000552
 10
-0.012094
 20
0.001094
 10
-0.012677
 20
0.001625
 10
-0.013031
 20
0.001885
 10
-0.000385
 20
0.000021
 10
-0.012604
 20
-0.00176
 10
-0.012229
 20
-0.001479
 10
-0.011625
 20
-0.000906
 10
-0.011427
 20
-0.000167
 10
-0.011563
 20
0.000573
 10
-0.011917
 20
0.001083
 10
-0.012344
 20
0.0015
 10
-0.012635
 20
0.001729
 10
-0.001073
 20
0.000021
 10
-0.012052
 20
-0.001552
 10
-0.011667
 20
-0.001302
 10
-0.011469
 20
-0.000979
 10
-0.01125
 20
-0.000562
 10
-0.011135
 20
0.000021
 10
-0.011198
 20
0.0005
 10
-0.011427
 20
0.000875
 10
-0.011896
 20
0.001177
 10
-0.012208
 20
0.001542
 10
-0.001875
 20
0.000021
 10
-0.011448
 20
-0.001323
 10
-0.011021
 20
-0.000792
 10
-0.010896
 20
-0.000146
 10
-0.010958
 20
0.000573
 10
-0.011781
 20
0.001354
 10
-0.002771
 20
0.000063
 10
-0.010896
 20
-0.001073
 10
-0.010781
 20
-0.000698
 10
-0.010531
 20
-0.000094
 10
-0.010687
 20
0.000552
 10
-0.011333
 20
0.001125
 10
-0.003594
 20
0.000063
 10
-0.010604
 20
-0.000833
 10
-0.010375
 20
-0.000375
 10
-0.010271
 20
0.000115
 10
-0.01076
 20
0.000875
 10
-0.004573
 20
0.000063
 10
-0.010177
 20
-0.000625
 10
-0.010021
 20
-0.000281
 10
-0.009979
 20
0.000115
 10
-0.010375
 20
0.000667
 10
-0.00574
 20
0.000063
 10
-0.009823
 20
-0.000396
 10
-0.009708
 20
0.000135
 10
-0.010083
 20
0.000458
 10
-0.006698
 20
0.000063
 10
-0.009552
 20
-0.00024
 10
-0.009615
 20
0.000271
 10
-0.007677
 20
0.000063
 10
-0.009437
 20
-0.000073
 10
-0.00949
 20
0.000083
 10
-0.008885
 20
0.000083
  0
ENDBLK
  5
684
330
682
100
AcDbEntity
  8
0
100
AcDbBlockEnd
  0
BLOCK
  5
686
330
685
100
AcDbEntity
  8
0
100
AcDbBlockBegin
  2
LARROW_1
 70
     0
 71
     0
 10
0.0
 20
0.0
 30
0.0
  3
LARROW_1
  1

  0
LWPOLYLINE
  5
54D
330
685
100
AcDbEntity
  8
DIM
  6
Continuous
 62
     7
370
    13
100
AcDbPolyline
 90
       63
 70
   128
 43
0.0
 10
-0.013031
 20
0.001886
 10
0.0
 20
0.0
 10
-0.013021
 20
-0.001885
 10
-0.012615
 20
-0.001572
 10
-0.012042
 20
-0.00101
 10
-0.01176
 20
-0.00049
 10
-0.011688
 20
0.0
 10
-0.011792
 20
0.000552
 10
-0.012094
 20
0.001094
 10
-0.012677
 20
0.001625
 10
-0.013031
 20
0.001886
 10
-0.000385
 20
0.000021
 10
-0.012604
 20
-0.00176
 10
-0.012229
 20
-0.001479
 10
-0.011625
 20
-0.000906
 10
-0.011427
 20
-0.000167
 10
-0.011563
 20
0.000573
 10
-0.011917
 20
0.001083
 10
-0.012343
 20
0.0015
 10
-0.012636
 20
0.001729
 10
-0.001073
 20
0.000021
 10
-0.012052
 20
-0.001552
 10
-0.011667
 20
-0.001303
 10
-0.011469
 20
-0.00098
 10
-0.01125
 20
-0.000563
 10
-0.011135
 20
0.000021
 10
-0.011198
 20
0.0005
 10
-0.011427
 20
0.000875
 10
-0.011896
 20
0.001177
 10
-0.012208
 20
0.001542
 10
-0.001875
 20
0.000021
 10
-0.011448
 20
-0.001323
 10
-0.01102
 20
-0.000792
 10
-0.010896
 20
-0.000146
 10
-0.010958
 20
0.000573
 10
-0.011781
 20
0.001354
 10
-0.002771
 20
0.000062
 10
-0.010896
 20
-0.001073
 10
-0.010781
 20
-0.000697
 10
-0.010531
 20
-0.000093
 10
-0.010688
 20
0.000552
 10
-0.011333
 20
0.001125
 10
-0.003594
 20
0.000063
 10
-0.010604
 20
-0.000833
 10
-0.010375
 20
-0.000375
 10
-0.010271
 20
0.000115
 10
-0.01076
 20
0.000875
 10
-0.004572
 20
0.000063
 10
-0.010177
 20
-0.000625
 10
-0.010021
 20
-0.000281
 10
-0.009979
 20
0.000115
 10
-0.010375
 20
0.000667
 10
-0.005739
 20
0.000062
 10
-0.009823
 20
-0.000396
 10
-0.009709
 20
0.000136
 10
-0.010083
 20
0.000458
 10
-0.006698
 20
0.000062
 10
-0.009552
 20
-0.000239
 10
-0.009615
 20
0.000271
 10
-0.007677
 20
0.000062
 10
-0.009438
 20
-0.000073
 10
-0.00949
 20
0.000084
 10
-0.008885
 20
0.000084
  0
ENDBLK
  5
687
330
685
100
AcDbEntity
  8
0
100
AcDbBlockEnd
  0
BLOCK
  5
689
330
688
100
AcDbEntity
  8
0
100
AcDbBlockBegin
  2
LARROW_2
 70
     0
 71
     0
 10
0.0
 20
0.0
 30
0.0
  3
LARROW_2
  1

  0
LINE
  5
574
330
688
100
AcDbEntity
  8
LEGEND
  6
Continuous
 62
     7
370
    13
100
AcDbLine
 10
0.0
 20
0.0
 30
0.0
 11
-0.013031
 21
0.001885
 31
0.0
  0
LINE
  5
575
330
688
100
AcDbEntity
  8
LEGEND
  6
Continuous
 62
     7
370
    13
100
AcDbLine
 10
0.0
 20
0.0
 30
0.0
 11
-0.013021
 21
-0.001885
 31
0.0
  0
LWPOLYLINE
  5
576
330
688
100
AcDbEntity
  8
LEGEND
  6
Continuous
 62
     7
370
    13
100
AcDbPolyline
 90
        9
 70
   128
 43
0.0
 10
-0.013031
 20
0.001885
 10
-0.01225
 20
0.001292
 10
-0.011896
 20
0.000812
 10
-0.011719
 20
0.000365
 10
-0.011688
 20
-0.000052
 10
-0.01175
 20
-0.000458
 10
-0.011958
 20
-0.000896
 10
-0.012323
 20
-0.001354
 10
-0.013021
 20
-0.001885
  0
LINE
  5
577
330
688
100
AcDbEntity
  8
LEGEND
  6
Continuous
 62
     7
370
    13
100
AcDbLine
 10
0.0
 20
0.0
 30
0.0
 11
-0.01225
 21
0.001292
 31
0.0
  0
LINE
  5
578
330
688
100
AcDbEntity
  8
LEGEND
  6
Continuous
 62
     7
370
    13
100
AcDbLine
 10
0.0
 20
0.0
 30
0.0
 11
-0.011896
 21
0.000812
 31
0.0
  0
LINE
  5
579
330
688
100
AcDbEntity
  8
LEGEND
  6
Continuous
 62
     7
370
    13
100
AcDbLine
 10
0.0
 20
0.0
 30
0.0
 11
-0.011719
 21
0.000365
 31
0.0
  0
LINE
  5
57A
330
688
100
AcDbEntity
  8
LEGEND
  6
Continuous
 62
     7
370
    13
100
AcDbLine
 10
0.0
 20
0.0
 30
0.0
 11
-0.01175
 21
-0.000458
 31
0.0
  0
LINE
  5
57B
330
688
100
AcDbEntity
  8
LEGEND
  6
Continuous
 62
     7
370
    13
100
AcDbLine
 10
0.0
 20
0.0
 30
0.0
 11
-0.011958
 21
-0.000896
 31
0.0
  0
LINE
  5
57C
330
688
100
AcDbEntity
  8
LEGEND
  6
Continuous
 62
     7
370
    13
100
AcDbLine
 10
0.0
 20
0.0
 30
0.0
 11
-0.012323
 21
-0.001354
 31
0.0
  0
LINE
  5
57D
330
688
100
AcDbEntity
  8
LEGEND
  6
Continuous
 62
     7
370
    13
100
AcDbLine
 10
0.0
 20
0.0
 30
0.0
 11
-0.011677
 21
0.0
 31
0.0
  0
ENDBLK
  5
68A
330
688
100
AcDbEntity
  8
0
100
AcDbBlockEnd
  0
ENDSEC
  0
SECTION
  2
ENTITIES
  0
POINT
  5
5B
330
65D
100
AcDbEntity
  8
BORDER
  6
Continuous
 62
     7
370
    30
100
AcDbPoint
 10
33.847615
 20
-4.407771
 30
0.0
  0
LINE
  5
5C
330
65D
100
AcDbEntity
  8
BORDER
  6
Continuous
 62
     7
370
    30
100
AcDbLine
 10
33.847615
 20
-4.407771
 30
0.0
 11
42.947615
 21
-4.407771
 31
0.0
  0
LINE
  5
5D
330
65D
100
AcDbEntity
  8
BORDER
  6
Continuous
 62
     7
370
    30
100
AcDbLine
 10
42.947615
 20
-11.657771
 30
0.0
 11
42.947615
 21
-4.407771
 31
0.0
  0
LINE
  5
5E
330
65D
100
AcDbEntity
  8
BORDER
  6
Continuous
 62
     7
370
    30
100
AcDbLine
 10
33.847615
 20
-11.657771
 30
0.0
 11
33.847615
 21
-4.407771
 31
0.0
  0
LINE
  5
5F
330
65D
100
AcDbEntity
  8
BORDER
  6
Continuous
 62
     7
370
    30
100
AcDbLine
 10
33.847615
 20
-11.157771
 30
0.0
 11
42.947615
 21
-11.157771
 31
0.0
  0
LINE
  5
60
330
65D
100
AcDbEntity
  8
BORDER
  6
Continuous
 62
     7
370
    30
100
AcDbLine
 10
33.847615
 20
-11.657771
 30
0.0
 11
42.947615
 21
-11.657771
 31
0.0
  0
LINE
  5
61
330
65D
100
AcDbEntity
  8
BORDER
  6
Continuous
 62
     7
370
    30
100
AcDbLine
 10
40.747615
 20
-11.657771
 30
0.0
 11
40.747615
 21
-11.157771
 31
0.0
  0
LINE
  5
63
330
65D
100
AcDbEntity
  8
BORDER
  6
Continuous
 62
     7
370
    30
100
AcDbLine
 10
41.847615
 20
-11.657771
 30
0.0
 11
41.847615
 21
-11.157771
 31
0.0
  0
LINE
  5
69
330
65D
100
AcDbEntity
  8
_0
  6
Continuous
 62
     7
370
    13
100
AcDbLine
 10
42.572615
 20
-6.948073
 30
0.0
 11
42.572615
 21
-6.452615
 31
0.0
  0
LINE
  5
6A
330
65D
100
AcDbEntity
  8
_0
  6
Continuous
 62
     7
370
    13
100
AcDbLine
 10
34.447615
 20
-6.86126
 30
0.0
 11
34.447615
 21
-6.452615
 31
0.0
  0
LINE
  5
6B
330
65D
100
AcDbEntity
  8
_0
  6
Continuous
 62
     7
370
    13
100
AcDbLine
 10
41.772615
 20
-6.948073
 30
0.0
 11
41.772615
 21
-6.452615
 31
0.0
  0
LINE
  5
6C
330
65D
100
AcDbEntity
  8
_0
  6
Continuous
 62
     7
370
    13
100
AcDbLine
 10
41.622615
 20
-6.948073
 30
0.0
 11
41.622615
 21
-6.438677
 31
0.0
  0
LINE
  5
6D
330
65D
100
AcDbEntity
  8
_0
  6
Continuous
 62
     7
370
    13
100
AcDbLine
 10
34.847615
 20
-6.86126
 30
0.0
 11
34.847615
 21
-6.452302
 31
0.0
  0
LINE
  5
6E
330
65D
100
AcDbEntity
  8
_0
  6
Continuous
 62
     7
370
    13
100
AcDbLine
 10
35.022615
 20
-6.86126
 30
0.0
 11
35.022615
 21
-6.452302
 31
0.0
  0
LINE
  5
6F
330
65D
100
AcDbEntity
  8
_0
  6
Continuous
 62
     7
370
    30
100
AcDbLine
 10
34.447615
 20
-6.76126
 30
0.0
 11
34.847615
 21
-6.76126
 31
0.0
  0
LINE
  5
70
330
65D
100
AcDbEntity
  8
_0
  6
Continuous
 62
     7
370
    30
100
AcDbLine
 10
34.447615
 20
-6.56126
 30
0.0
 11
34.847615
 21
-6.56126
 31
0.0
  0
LINE
  5
71
330
65D
100
AcDbEntity
  8
_0
  6
Continuous
 62
     7
370
    30
100
AcDbLine
 10
34.447615
 20
-6.06126
 30
0.0
 11
34.847615
 21
-6.06126
 31
0.0
  0
LINE
  5
72
330
65D
100
AcDbEntity
  8
_0
  6
Continuous
 62
     7
370
    30
100
AcDbLine
 10
34.447615
 20
-5.66126
 30
0.0
 11
34.847615
 21
-5.66126
 31
0.0
  0
LINE
  5
73
330
65D
100
AcDbEntity
  8
_0
  6
Continuous
 62
     7
370
    30
100
AcDbLine
 10
34.447615
 20
-5.16126
 30
0.0
 11
34.847615
 21
-5.16126
 31
0.0
  0
LINE
  5
74
330
65D
100
AcDbEntity
  8
_0
  6
Continuous
 62
     7
370
    30
100
AcDbLine
 10
34.447615
 20
-5.22376
 30
0.0
 11
34.847615
 21
-5.22376
 31
0.0
  0
LINE
  5
75
330
65D
100
AcDbEntity
  8
_0
  6
Continuous
 62
     7
370
    30
100
AcDbLine
 10
35.022615
 20
-6.76126
 30
0.0
 11
41.622615
 21
-6.76126
 31
0.0
  0
LINE
  5
76
330
65D
100
AcDbEntity
  8
_0
  6
Continuous
 62
     7
370
    30
100
AcDbLine
 10
35.022615
 20
-6.56126
 30
0.0
 11
41.622615
 21
-6.56126
 31
0.0
  0
LINE
  5
77
330
65D
100
AcDbEntity
  8
_0
  6
Continuous
 62
     7
370
    30
100
AcDbLine
 10
35.022615
 20
-6.06126
 30
0.0
 11
41.622615
 21
-6.06126
 31
0.0
  0
LINE
  5
78
330
65D
100
AcDbEntity
  8
_0
  6
Continuous
 62
     7
370
    30
100
AcDbLine
 10
35.022615
 20
-5.66126
 30
0.0
 11
41.622615
 21
-5.66126
 31
0.0
  0
LINE
  5
79
330
65D
100
AcDbEntity
  8
_0
  6
Continuous
 62
     7
370
    30
100
AcDbLine
 10
35.022615
 20
-5.22376
 30
0.0
 11
35.712177
 21
-5.22376
 31
0.0
  0
LINE
  5
7A
330
65D
100
AcDbEntity
  8
_0
  6
Continuous
 62
     7
370
    30
100
AcDbLine
 10
35.022615
 20
-5.16126
 30
0.0
 11
35.712177
 21
-5.16126
 31
0.0
  0
LINE
  5
7B
330
65D
100
AcDbEntity
  8
_0
  6
Continuous
 62
     7
370
    30
100
AcDbLine
 10
41.772615
 20
-5.16126
 30
0.0
 11
42.248448
 21
-5.16126
 31
0.0
  0
LINE
  5
7C
330
65D
100
AcDbEntity
  8
_0
  6
Continuous
 62
     7
370
    30
100
AcDbLine
 10
41.772615
 20
-5.22376
 30
0.0
 11
42.248448
 21
-5.22376
 31
0.0
  0
LINE
  5
7D
330
65D
100
AcDbEntity
  8
_0
  6
Continuous
 62
     7
370
    30
100
AcDbLine
 10
41.772615
 20
-5.66126
 30
0.0
 11
42.572615
 21
-5.66126
 31
0.0
  0
LINE
  5
7E
330
65D
100
AcDbEntity
  8
_0
  6
Continuous
 62
     7
370
    30
100
AcDbLine
 10
41.772615
 20
-6.06126
 30
0.0
 11
42.572615
 21
-6.06126
 31
0.0
  0
LINE
  5
7F
330
65D
100
AcDbEntity
  8
_0
  6
Continuous
 62
     7
370
    30
100
AcDbLine
 10
41.772615
 20
-6.56126
 30
0.0
 11
42.572615
 21
-6.56126
 31
0.0
  0
LINE
  5
80
330
65D
100
AcDbEntity
  8
_0
  6
Continuous
 62
     7
370
    30
100
AcDbLine
 10
41.772615
 20
-6.76126
 30
0.0
 11
42.572615
 21
-6.76126
 31
0.0
  0
LWPOLYLINE
  5
81
330
65D
100
AcDbEntity
  8
_0
  6
Continuous
 62
     7
370
    30
100
AcDbPolyline
 90
        5
 70
   128
 43
0.0
 10
35.712177
 20
-5.13001
 10
35.837177
 20
-5.13001
 10
35.837177
 20
-5.25501
 10
35.712177
 20
-5.25501
 10
35.712177
 20
-5.13001
  0
LINE
  5
82
330
65D
100
AcDbEntity
  8
_0
  6
Continuous
 62
     7
370
    30
100
AcDbLine
 10
35.837177
 20
-5.22376
 30
0.0
 11
37.069979
 21
-5.22376
 31
0.0
  0
LINE
  5
83
330
65D
100
AcDbEntity
  8
_0
  6
Continuous
 62
     7
370
    30
100
AcDbLine
 10
35.837177
 20
-5.16126
 30
0.0
 11
37.069979
 21
-5.16126
 31
0.0
  0
LINE
  5
84
330
65D
100
AcDbEntity
  8
_0
  6
Continuous
 62
     7
370
    30
100
AcDbLine
 10
37.194979
 20
-5.22376
 30
0.0
 11
38.404854
 21
-5.22376
 31
0.0
  0
LINE
  5
85
330
65D
100
AcDbEntity
  8
_0
  6
Continuous
 62
     7
370
    30
100
AcDbLine
 10
37.194979
 20
-5.16126
 30
0.0
 11
38.404854
 21
-5.16126
 31
0.0
  0
LINE
  5
86
330
65D
100
AcDbEntity
  8
_0
  6
Continuous
 62
     7
370
    30
100
AcDbLine
 10
38.529854
 20
-5.22376
 30
0.0
 11
39.704854
 21
-5.22376
 31
0.0
  0
LINE
  5
87
330
65D
100
AcDbEntity
  8
_0
  6
Continuous
 62
     7
370
    30
100
AcDbLine
 10
38.529854
 20
-5.16126
 30
0.0
 11
39.704854
 21
-5.16126
 31
0.0
  0
LINE
  5
88
330
65D
100
AcDbEntity
  8
_0
  6
Continuous
 62
     7
370
    30
100
AcDbLine
 10
39.829854
 20
-5.22376
 30
0.0
 11
41.093396
 21
-5.22376
 31
0.0
  0
LINE
  5
89
330
65D
100
AcDbEntity
  8
_0
  6
Continuous
 62
     7
370
    30
100
AcDbLine
 10
39.829854
 20
-5.16126
 30
0.0
 11
41.093396
 21
-5.16126
 31
0.0
  0
LINE
  5
8A
330
65D
100
AcDbEntity
  8
_0
  6
Continuous
 62
     7
370
    30
100
AcDbLine
 10
41.218396
 20
-5.22376
 30
0.0
 11
41.622615
 21
-5.22376
 31
0.0
  0
LINE
  5
8B
330
65D
100
AcDbEntity
  8
_0
  6
Continuous
 62
     7
370
    30
100
AcDbLine
 10
41.218396
 20
-5.16126
 30
0.0
 11
41.622615
 21
-5.16126
 31
0.0
  0
LWPOLYLINE
  5
8C
330
65D
100
AcDbEntity
  8
_0
  6
Continuous
 62
     7
370
    30
100
AcDbPolyline
 90
        5
 70
   128
 43
0.0
 10
37.069979
 20
-5.13001
 10
37.194979
 20
-5.13001
 10
37.194979
 20
-5.25501
 10
37.069979
 20
-5.25501
 10
37.069979
 20
-5.13001
  0
LWPOLYLINE
  5
8D
330
65D
100
AcDbEntity
  8
_0
  6
Continuous
 62
     7
370
    30
100
AcDbPolyline
 90
        5
 70
   128
 43
0.0
 10
38.404854
 20
-5.13001
 10
38.529854
 20
-5.13001
 10
38.529854
 20
-5.25501
 10
38.404854
 20
-5.25501
 10
38.404854
 20
-5.13001
  0
LWPOLYLINE
  5
8E
330
65D
100
AcDbEntity
  8
_0
  6
Continuous
 62
     7
370
    30
100
AcDbPolyline
 90
        5
 70
   128
 43
0.0
 10
39.704854
 20
-5.13001
 10
39.829854
 20
-5.13001
 10
39.829854
 20
-5.25501
 10
39.704854
 20
-5.25501
 10
39.704854
 20
-5.13001
  0
LWPOLYLINE
  5
8F
330
65D
100
AcDbEntity
  8
_0
  6
Continuous
 62
     7
370
    30
100
AcDbPolyline
 90
        5
 70
   128
 43
0.0
 10
41.093396
 20
-5.13001
 10
41.218396
 20
-5.13001
 10
41.218396
 20
-5.25501
 10
41.093396
 20
-5.25501
 10
41.093396
 20
-5.13001
  0
CIRCLE
  5
90
330
65D
100
AcDbEntity
  8
_0
  6
Continuous
 62
     7
370
    30
100
AcDbCircle
 10
42.302576
 20
-5.192508
 30
0.0
 40
0.0625
  0
LINE
  5
91
330
65D
100
AcDbEntity
  8
_0
  6
Continuous
 62
     7
370
    30
100
AcDbLine
 10
42.356698
 20
-5.16126
 30
0.0
 11
42.572615
 21
-5.16126
 31
0.0
  0
LINE
  5
92
330
65D
100
AcDbEntity
  8
_0
  6
Continuous
 62
     7
370
    30
100
AcDbLine
 10
42.356698
 20
-5.22376
 30
0.0
 11
42.572615
 21
-5.22376
 31
0.0
  0
LINE
  5
93
330
65D
100
AcDbEntity
  8
_0
  6
Continuous
 62
     7
370
    30
100
AcDbLine
 10
42.333823
 20
-5.138385
 30
0.0
 11
42.333823
 21
-4.688813
 31
0.0
  0
LINE
  5
94
330
65D
100
AcDbEntity
  8
_0
  6
Continuous
 62
     7
370
    30
100
AcDbLine
 10
42.271323
 20
-5.138385
 30
0.0
 11
42.271323
 21
-4.688813
 31
0.0
  0
LINE
  5
95
330
65D
100
AcDbEntity
  8
_0
  6
Continuous
 62
     7
370
    30
100
AcDbLine
 10
42.402573
 20
-4.688813
 30
0.0
 11
42.202573
 21
-4.688813
 31
0.0
  0
LINE
  5
96
330
65D
100
AcDbEntity
  8
_0
  6
Continuous
 62
     7
370
    30
100
AcDbLine
 10
42.202573
 20
-4.688813
 30
0.0
 11
42.127573
 21
-4.588812
 31
0.0
  0
LINE
  5
97
330
65D
100
AcDbEntity
  8
_0
  6
Continuous
 62
     7
370
    30
100
AcDbLine
 10
42.402573
 20
-4.688813
 30
0.0
 11
42.477573
 21
-4.588812
 31
0.0
  0
LINE
  5
98
330
65D
100
AcDbEntity
  8
_0
  6
Continuous
 62
     7
370
    30
100
AcDbLine
 10
42.362833
 20
-6.22376
 30
0.0
 11
42.572615
 21
-6.22376
 31
0.0
  0
LINE
  5
99
330
65D
100
AcDbEntity
  8
_0
  6
Continuous
 62
     7
370
    30
100
AcDbLine
 10
42.362833
 20
-6.16126
 30
0.0
 11
42.572615
 21
-6.16126
 31
0.0
  0
LWPOLYLINE
  5
9A
330
65D
100
AcDbEntity
  8
_0
  6
Continuous
 62
     7
370
    30
100
AcDbPolyline
 90
        5
 70
   128
 43
0.0
 10
42.237833
 20
-6.13001
 10
42.362833
 20
-6.13001
 10
42.362833
 20
-6.25501
 10
42.237833
 20
-6.25501
 10
42.237833
 20
-6.13001
  0
LWPOLYLINE
  5
9B
330
65D
100
AcDbEntity
  8
_0
  6
Continuous
 62
     7
370
    30
100
AcDbPolyline
 90
        5
 70
   128
 43
0.0
 10
39.704854
 20
-6.13001
 10
39.829854
 20
-6.13001
 10
39.829854
 20
-6.25501
 10
39.704854
 20
-6.25501
 10
39.704854
 20
-6.13001
  0
LWPOLYLINE
  5
9C
330
65D
100
AcDbEntity
  8
_0
  6
Continuous
 62
     7
370
    30
100
AcDbPolyline
 90
        5
 70
   128
 43
0.0
 10
38.404854
 20
-6.13001
 10
38.529854
 20
-6.13001
 10
38.529854
 20
-6.25501
 10
38.404854
 20
-6.25501
 10
38.404854
 20
-6.13001
  0
LWPOLYLINE
  5
9D
330
65D
100
AcDbEntity
  8
_0
  6
Continuous
 62
     7
370
    30
100
AcDbPolyline
 90
        5
 70
   128
 43
0.0
 10
37.069979
 20
-6.13001
 10
37.194979
 20
-6.13001
 10
37.194979
 20
-6.25501
 10
37.069979
 20
-6.25501
 10
37.069979
 20
-6.13001
  0
LINE
  5
9E
330
65D
100
AcDbEntity
  8
_0
  6
Continuous
 62
     7
370
    30
100
AcDbLine
 10
41.21226
 20
-6.16126
 30
0.0
 11
41.622615
 21
-6.16126
 31
0.0
  0
LINE
  5
9F
330
65D
100
AcDbEntity
  8
_0
  6
Continuous
 62
     7
370
    30
100
AcDbLine
 10
41.21226
 20
-6.22376
 30
0.0
 11
41.622615
 21
-6.22376
 31
0.0
  0
LINE
  5
A0
330
65D
100
AcDbEntity
  8
_0
  6
Continuous
 62
     7
370
    30
100
AcDbLine
 10
39.829854
 20
-6.16126
 30
0.0
 11
41.10401
 21
-6.16126
 31
0.0
  0
LINE
  5
A1
330
65D
100
AcDbEntity
  8
_0
  6
Continuous
 62
     7
370
    30
100
AcDbLine
 10
39.829854
 20
-6.22376
 30
0.0
 11
41.10401
 21
-6.22376
 31
0.0
  0
LINE
  5
A2
330
65D
100
AcDbEntity
  8
_0
  6
Continuous
 62
     7
370
    30
100
AcDbLine
 10
38.529854
 20
-6.16126
 30
0.0
 11
39.704854
 21
-6.16126
 31
0.0
  0
LINE
  5
A3
330
65D
100
AcDbEntity
  8
_0
  6
Continuous
 62
     7
370
    30
100
AcDbLine
 10
38.529854
 20
-6.22376
 30
0.0
 11
39.704854
 21
-6.22376
 31
0.0
  0
LINE
  5
A4
330
65D
100
AcDbEntity
  8
_0
  6
Continuous
 62
     7
370
    30
100
AcDbLine
 10
37.194979
 20
-6.16126
 30
0.0
 11
38.404854
 21
-6.16126
 31
0.0
  0
LINE
  5
A5
330
65D
100
AcDbEntity
  8
_0
  6
Continuous
 62
     7
370
    30
100
AcDbLine
 10
37.194979
 20
-6.22376
 30
0.0
 11
38.404854
 21
-6.22376
 31
0.0
  0
LINE
  5
A6
330
65D
100
AcDbEntity
  8
_0
  6
Continuous
 62
     7
370
    30
100
AcDbLine
 10
35.837177
 20
-6.16126
 30
0.0
 11
37.069979
 21
-6.16126
 31
0.0
  0
LINE
  5
A7
330
65D
100
AcDbEntity
  8
_0
  6
Continuous
 62
     7
370
    30
100
AcDbLine
 10
35.837177
 20
-6.22376
 30
0.0
 11
37.069979
 21
-6.22376
 31
0.0
  0
LWPOLYLINE
  5
A8
330
65D
100
AcDbEntity
  8
_0
  6
Continuous
 62
     7
370
    30
100
AcDbPolyline
 90
        5
 70
   128
 43
0.0
 10
35.712177
 20
-6.13001
 10
35.837177
 20
-6.13001
 10
35.837177
 20
-6.25501
 10
35.712177
 20
-6.25501
 10
35.712177
 20
-6.13001
  0
LINE
  5
A9
330
65D
100
AcDbEntity
  8
_0
  6
Continuous
 62
     7
370
    30
100
AcDbLine
 10
41.772615
 20
-6.22376
 30
0.0
 11
42.237833
 21
-6.22376
 31
0.0
  0
LINE
  5
AA
330
65D
100
AcDbEntity
  8
_0
  6
Continuous
 62
     7
370
    30
100
AcDbLine
 10
41.772615
 20
-6.16126
 30
0.0
 11
42.237833
 21
-6.16126
 31
0.0
  0
LINE
  5
AB
330
65D
100
AcDbEntity
  8
_0
  6
Continuous
 62
     7
370
    30
100
AcDbLine
 10
35.022615
 20
-6.16126
 30
0.0
 11
35.712177
 21
-6.16126
 31
0.0
  0
LINE
  5
AC
330
65D
100
AcDbEntity
  8
_0
  6
Continuous
 62
     7
370
    30
100
AcDbLine
 10
35.022615
 20
-6.22376
 30
0.0
 11
35.712177
 21
-6.22376
 31
0.0
  0
LINE
  5
AD
330
65D
100
AcDbEntity
  8
_0
  6
Continuous
 62
     7
370
    30
100
AcDbLine
 10
34.447615
 20
-6.22376
 30
0.0
 11
34.847615
 21
-6.22376
 31
0.0
  0
LINE
  5
AE
330
65D
100
AcDbEntity
  8
_0
  6
Continuous
 62
     7
370
    30
100
AcDbLine
 10
34.447615
 20
-6.16126
 30
0.0
 11
34.847615
 21
-6.16126
 31
0.0
  0
CIRCLE
  5
AF
330
65D
100
AcDbEntity
  8
_0
  6
Continuous
 62
     7
370
    30
100
AcDbCircle
 10
41.158135
 20
-6.192508
 30
0.0
 40
0.0625
  0
LINE
  5
B0
330
65D
100
AcDbEntity
  8
_0
  6
Continuous
 62
     7
370
    30
100
AcDbLine
 10
41.126885
 20
-6.246635
 30
0.0
 11
41.126885
 21
-6.973635
 31
0.0
  0
LINE
  5
B1
330
65D
100
AcDbEntity
  8
_0
  6
Continuous
 62
     7
370
    30
100
AcDbLine
 10
41.189385
 20
-6.246635
 30
0.0
 11
41.189385
 21
-6.973635
 31
0.0
  0
LINE
  5
B2
330
65D
100
AcDbEntity
  8
_0
  6
Continuous
 62
     7
370
    30
100
AcDbLine
 10
41.058135
 20
-6.973635
 30
0.0
 11
41.258135
 21
-6.973635
 31
0.0
  0
LINE
  5
B3
330
65D
100
AcDbEntity
  8
_0
  6
Continuous
 62
     7
370
    30
100
AcDbLine
 10
41.258135
 20
-6.973635
 30
0.0
 11
41.333135
 21
-7.073635
 31
0.0
  0
LINE
  5
B4
330
65D
100
AcDbEntity
  8
_0
  6
Continuous
 62
     7
370
    30
100
AcDbLine
 10
41.058135
 20
-6.973635
 30
0.0
 11
40.983135
 21
-7.073635
 31
0.0
  0
LINE
  5
B5
330
65D
100
AcDbEntity
  8
2-34C
  6
Continuous
 62
     7
370
    30
100
AcDbLine
 10
34.305625
 20
-8.562437
 30
0.0
 11
35.743896
 21
-8.507073
 31
0.0
  0
LINE
  5
B6
330
65D
100
AcDbEntity
  8
2-34C
  6
Continuous
 62
     7
370
    30
100
AcDbLine
 10
35.743896
 20
-8.507073
 30
0.0
 11
37.578729
 21
-8.552177
 31
0.0
  0
LINE
  5
B7
330
65D
100
AcDbEntity
  8
2-34C
  6
Continuous
 62
     7
370
    30
100
AcDbLine
 10
37.578729
 20
-8.552177
 30
0.0
 11
38.1295
 21
-8.739219
 31
0.0
  0
LINE
  5
B8
330
65D
100
AcDbEntity
  8
2-34C
  6
Continuous
 62
     7
370
    30
100
AcDbLine
 10
38.1295
 20
-8.739219
 30
0.0
 11
39.370375
 21
-8.814875
 31
0.0
  0
LINE
  5
B9
330
65D
100
AcDbEntity
  8
2-34C
  6
Continuous
 62
     7
370
    30
100
AcDbLine
 10
39.370375
 20
-8.814875
 30
0.0
 11
40.065844
 21
-8.760771
 31
0.0
  0
LINE
  5
BA
330
65D
100
AcDbEntity
  8
2-34C
  6
Continuous
 62
     7
370
    30
100
AcDbLine
 10
40.178469
 20
-8.716927
 30
0.0
 11
40.457156
 21
-8.644094
 31
0.0
  0
LINE
  5
BB
330
65D
100
AcDbEntity
  8
2-34C
  6
Continuous
 62
     7
370
    30
100
AcDbLine
 10
40.457156
 20
-8.703927
 30
0.0
 11
40.457156
 21
-8.578698
 31
0.0
  0
LINE
  5
BC
330
65D
100
AcDbEntity
  8
2-34C
  6
Continuous
 62
     7
370
    30
100
AcDbLine
 10
40.457156
 20
-8.578698
 30
0.0
 11
41.169083
 21
-8.53574
 31
0.0
  0
LINE
  5
BD
330
65D
100
AcDbEntity
  8
2-34C
  6
Continuous
 62
     7
370
    30
100
AcDbLine
 10
41.169083
 20
-8.53574
 30
0.0
 11
41.881406
 21
-8.576906
 31
0.0
  0
LINE
  5
BE
330
65D
100
AcDbEntity
  8
2-34C
  6
Continuous
 62
     7
370
    30
100
AcDbLine
 10
41.881406
 20
-8.576906
 30
0.0
 11
41.881406
 21
-8.701969
 31
0.0
  0
LINE
  5
BF
330
65D
100
AcDbEntity
  8
2-34C
  6
Continuous
 62
     7
370
    30
100
AcDbLine
 10
41.881406
 20
-8.605115
 30
0.0
 11
42.238677
 21
-8.706
 31
0.0
  0
LINE
  5
C0
330
65D
100
AcDbEntity
  8
2-34C
  6
Continuous
 62
     7
370
    30
100
AcDbLine
 10
42.238677
 20
-8.706
 30
0.0
 11
42.518167
 21
-8.706
 31
0.0
  0
LINE
  5
C1
330
65D
100
AcDbEntity
  8
2-34C
  6
Continuous
 62
     7
370
    30
100
AcDbLine
 10
35.744594
 20
-8.607115
 30
0.0
 11
37.578729
 21
-8.652208
 31
0.0
  0
LINE
  5
C2
330
65D
100
AcDbEntity
  8
2-34C
  6
Continuous
 62
     7
370
    30
100
AcDbLine
 10
34.305625
 20
-8.66251
 30
0.0
 11
35.744594
 21
-8.607115
 31
0.0
  0
LINE
  5
C3
330
65D
100
AcDbEntity
  8
2-34C
  6
Continuous
 62
     7
370
    30
100
AcDbLine
 10
34.305625
 20
-8.762583
 30
0.0
 11
35.745292
 21
-8.707167
 31
0.0
  0
LINE
  5
C4
330
65D
100
AcDbEntity
  8
2-34C
  6
Continuous
 62
     7
370
    30
100
AcDbLine
 10
35.745292
 20
-8.707167
 30
0.0
 11
37.573812
 21
-8.752115
 31
0.0
  0
LINE
  5
C5
330
65D
100
AcDbEntity
  8
2-34C
  6
Continuous
 62
     7
370
    30
100
AcDbLine
 10
35.746156
 20
-8.832229
 30
0.0
 11
37.578729
 21
-8.877271
 31
0.0
  0
LINE
  5
C6
330
65D
100
AcDbEntity
  8
2-34C
  6
Continuous
 62
     7
370
    30
100
AcDbLine
 10
34.305625
 20
-8.887677
 30
0.0
 11
35.746156
 21
-8.832229
 31
0.0
  0
LINE
  5
C7
330
65D
100
AcDbEntity
  8
2-34C
  6
Continuous
 62
     7
370
    30
100
AcDbLine
 10
37.578729
 20
-8.552177
 30
0.0
 11
37.578729
 21
-8.877271
 31
0.0
  0
LINE
  5
C8
330
65D
100
AcDbEntity
  8
2-34C
  6
Continuous
 62
     7
370
    13
100
AcDbLine
 10
34.305625
 20
-8.409833
 30
0.0
 11
34.305625
 21
-8.740323
 31
0.0
  0
LINE
  5
C9
330
65D
100
AcDbEntity
  8
2-34C
  6
Continuous
 62
     7
370
    30
100
AcDbLine
 10
37.578729
 20
-8.877271
 30
0.0
 11
37.676271
 21
-8.9695
 31
0.0
  0
LINE
  5
CA
330
65D
100
AcDbEntity
  8
2-34C
  6
Continuous
 62
     7
370
    30
100
AcDbLine
 10
37.676271
 20
-8.9695
 30
0.0
 11
37.676271
 21
-9.51526
 31
0.0
  0
LINE
  5
CB
330
65D
100
AcDbEntity
  8
2-34C
  6
Continuous
 62
     7
370
    30
100
AcDbLine
 10
37.676271
 20
-9.51526
 30
0.0
 11
37.96149
 21
-9.51526
 31
0.0
  0
LINE
  5
CC
330
65D
100
AcDbEntity
  8
2-34C
  6
Continuous
 62
     7
370
    30
100
AcDbLine
 10
37.96149
 20
-9.51526
 30
0.0
 11
37.96149
 21
-8.682156
 31
0.0
  0
LINE
  5
CD
330
65D
100
AcDbEntity
  8
2-34C
  6
Continuous
 62
     7
370
    30
100
AcDbLine
 10
40.178469
 20
-9.198177
 30
0.0
 11
41.780687
 21
-9.273667
 31
0.0
  0
LINE
  5
CE
330
65D
100
AcDbEntity
  8
2-34C
  6
Continuous
 62
     7
370
    30
100
AcDbLine
 10
41.170948
 20
-8.660854
 30
0.0
 11
41.881406
 21
-8.701969
 31
0.0
  0
LINE
  5
CF
330
65D
100
AcDbEntity
  8
2-34C
  6
Continuous
 62
     7
370
    30
100
AcDbLine
 10
40.457156
 20
-8.703927
 30
0.0
 11
41.170948
 21
-8.660854
 31
0.0
  0
LINE
  5
D0
330
65D
100
AcDbEntity
  8
2-34C
  6
Continuous
 62
     7
370
    30
100
AcDbLine
 10
40.065844
 20
-9.187896
 30
0.0
 11
39.484313
 21
-9.173104
 31
0.0
  0
LINE
  5
D1
330
65D
100
AcDbEntity
  8
2-34C
  6
Continuous
 62
     7
370
    30
100
AcDbLine
 10
39.484313
 20
-9.46151
 30
0.0
 11
39.484313
 21
-9.271354
 31
0.0
  0
LINE
  5
D2
330
65D
100
AcDbEntity
  8
2-34C
  6
Continuous
 62
     7
370
    30
100
AcDbLine
 10
39.47575
 20
-8.938958
 30
0.0
 11
39.419104
 21
-8.811083
 31
0.0
  0
LINE
  5
D3
330
65D
100
AcDbEntity
  8
2-34C
  6
Continuous
 62
     7
370
    30
100
AcDbLine
 10
39.291198
 20
-8.810042
 30
0.0
 11
39.234615
 21
-8.869823
 31
0.0
  0
LINE
  5
D4
330
65D
100
AcDbEntity
  8
2-34C
  6
Continuous
 62
     7
370
    30
100
AcDbLine
 10
39.20725
 20
-8.938562
 30
0.0
 11
39.20725
 21
-9.46151
 31
0.0
  0
LINE
  5
D5
330
65D
100
AcDbEntity
  8
2-34C
  6
Continuous
 62
     7
370
    30
100
AcDbLine
 10
39.08225
 20
-9.46151
 30
0.0
 11
39.609313
 21
-9.46151
 31
0.0
  0
LINE
  5
D6
330
65D
100
AcDbEntity
  8
2-34C
  6
Continuous
 62
     7
370
    30
100
AcDbLine
 10
39.53825
 20
-8.92574
 30
0.0
 11
39.485188
 21
-8.805937
 31
0.0
  0
LINE
  5
D7
330
65D
100
AcDbEntity
  8
2-34C
  6
Continuous
 62
     7
370
    30
100
AcDbLine
 10
39.546813
 20
-9.46151
 30
0.0
 11
39.546813
 21
-9.272948
 31
0.0
  0
LINE
  5
D8
330
65D
100
AcDbEntity
  8
2-34C
  6
Continuous
 62
     7
370
    30
100
AcDbLine
 10
39.08225
 20
-9.52401
 30
0.0
 11
39.609313
 21
-9.52401
 31
0.0
  0
LINE
  5
D9
330
65D
100
AcDbEntity
  8
2-34C
  6
Continuous
 62
     7
370
    30
100
AcDbLine
 10
39.14475
 20
-8.913677
 30
0.0
 11
39.14475
 21
-9.46151
 31
0.0
  0
LINE
  5
DA
330
65D
100
AcDbEntity
  8
2-34C
  6
Continuous
 62
     7
370
    30
100
AcDbLine
 10
39.209833
 20
-8.805083
 30
0.0
 11
39.172115
 21
-8.844938
 31
0.0
  0
LINE
  5
DB
330
65D
100
AcDbEntity
  8
2-34C
  6
Continuous
 62
     7
370
    30
100
AcDbLine
 10
39.08225
 20
-9.46151
 30
0.0
 11
39.08225
 21
-9.52401
 31
0.0
  0
LINE
  5
DC
330
65D
100
AcDbEntity
  8
2-34C
  6
Continuous
 62
     7
370
    30
100
AcDbLine
 10
39.609313
 20
-9.52401
 30
0.0
 11
39.609313
 21
-9.46151
 31
0.0
  0
LINE
  5
DD
330
65D
100
AcDbEntity
  8
2-34C
  6
Continuous
 62
     7
370
    30
100
AcDbLine
 10
39.546813
 20
-9.174698
 30
0.0
 11
39.546813
 21
-8.96624
 31
0.0
  0
CIRCLE
  5
DE
330
65D
100
AcDbEntity
  8
2-34C
  6
Continuous
 62
     7
370
    30
100
AcDbCircle
 10
39.351527
 20
-9.219555
 30
0.0
 40
0.0627982150919619
  0
CIRCLE
  5
DF
330
65D
100
AcDbEntity
  8
2-34C
  6
Continuous
 62
     7
370
    30
100
AcDbCircle
 10
37.804045
 20
-9.338909
 30
0.0
 40
0.0509663785427476
  0
ARC
  5
E0
330
65D
100
AcDbEntity
  8
2-34C
  6
Continuous
 62
     7
370
    30
100
AcDbCircle
 10
39.307248
 20
-8.938562
 30
0.0
 40
0.1
100
AcDbArc
 50
136.577181
 51
180.0
  0
ARC
  5
E1
330
65D
100
AcDbEntity
  8
2-34C
  6
Continuous
 62
     7
370
    30
100
AcDbCircle
 10
39.244748
 20
-8.913676
 30
0.0
 40
0.1
100
AcDbArc
 50
136.577181
 51
180.0
  0
ARC
  5
E2
330
65D
100
AcDbEntity
  8
2-34C
  6
Continuous
 62
     7
370
    30
100
AcDbCircle
 10
39.384316
 20
-8.97946
 30
0.0
 40
0.1
100
AcDbArc
 50
0.0
 51
23.891167
  0
ARC
  5
E3
330
65D
100
AcDbEntity
  8
2-34C
  6
Continuous
 62
     7
370
    30
100
AcDbCircle
 10
39.446816
 20
-8.966237
 30
0.0
 40
0.1
100
AcDbArc
 50
0.0
 51
23.891167
  0
LINE
  5
E8
330
65D
100
AcDbEntity
  8
_0
  6
Continuous
 62
     7
370
    13
100
AcDbLine
 10
34.447615
 20
-5.427281
 30
0.0
 11
34.431042
 21
-5.447
 31
0.0
  0
LINE
  5
E9
330
65D
100
AcDbEntity
  8
_0
  6
Continuous
 62
     7
370
    13
100
AcDbLine
 10
34.431042
 20
-5.447
 30
0.0
 11
34.487552
 21
-5.427281
 31
0.0
  0
LINE
  5
EA
330
65D
100
AcDbEntity
  8
_0
  6
Continuous
 62
     7
370
    13
100
AcDbLine
 10
34.487552
 20
-5.427281
 30
0.0
 11
34.410052
 21
-5.472635
 31
0.0
  0
LINE
  5
EB
330
65D
100
AcDbEntity
  8
_0
  6
Continuous
 62
     7
370
    13
100
AcDbLine
 10
34.410052
 20
-5.472635
 30
0.0
 11
34.463333
 21
-5.46475
 31
0.0
  0
LINE
  5
EC
330
65D
100
AcDbEntity
  8
_0
  6
Continuous
 62
     7
370
    13
100
AcDbLine
 10
34.463333
 20
-5.46475
 30
0.0
 11
34.447615
 21
-5.4825
 31
0.0
  0
LINE
  5
ED
330
65D
100
AcDbEntity
  8
_0
  6
Continuous
 62
     7
370
    13
100
AcDbLine
 10
34.863333
 20
-5.460219
 30
0.0
 11
34.847615
 21
-5.477969
 31
0.0
  0
LINE
  5
EE
330
65D
100
AcDbEntity
  8
_0
  6
Continuous
 62
     7
370
    13
100
AcDbLine
 10
34.810052
 20
-5.468104
 30
0.0
 11
34.863333
 21
-5.460219
 31
0.0
  0
LINE
  5
EF
330
65D
100
AcDbEntity
  8
_0
  6
Continuous
 62
     7
370
    13
100
AcDbLine
 10
34.887552
 20
-5.42275
 30
0.0
 11
34.810052
 21
-5.468104
 31
0.0
  0
LINE
  5
F0
330
65D
100
AcDbEntity
  8
_0
  6
Continuous
 62
     7
370
    13
100
AcDbLine
 10
34.831042
 20
-5.442469
 30
0.0
 11
34.887552
 21
-5.42275
 31
0.0
  0
LINE
  5
F1
330
65D
100
AcDbEntity
  8
_0
  6
Continuous
 62
     7
370
    13
100
AcDbLine
 10
34.847615
 20
-5.42275
 30
0.0
 11
34.831042
 21
-5.442469
 31
0.0
  0
LINE
  5
F2
330
65D
100
AcDbEntity
  8
_0
  6
Continuous
 62
     7
370
    13
100
AcDbLine
 10
35.038333
 20
-5.446625
 30
0.0
 11
35.022615
 21
-5.464375
 31
0.0
  0
LINE
  5
F3
330
65D
100
AcDbEntity
  8
_0
  6
Continuous
 62
     7
370
    13
100
AcDbLine
 10
34.985052
 20
-5.454521
 30
0.0
 11
35.038333
 21
-5.446625
 31
0.0
  0
LINE
  5
F4
330
65D
100
AcDbEntity
  8
_0
  6
Continuous
 62
     7
370
    13
100
AcDbLine
 10
35.062552
 20
-5.409156
 30
0.0
 11
34.985052
 21
-5.454521
 31
0.0
  0
LINE
  5
F5
330
65D
100
AcDbEntity
  8
_0
  6
Continuous
 62
     7
370
    13
100
AcDbLine
 10
35.006042
 20
-5.428875
 30
0.0
 11
35.062552
 21
-5.409156
 31
0.0
  0
LINE
  5
F6
330
65D
100
AcDbEntity
  8
_0
  6
Continuous
 62
     7
370
    13
100
AcDbLine
 10
35.022615
 20
-5.409156
 30
0.0
 11
35.006042
 21
-5.428875
 31
0.0
  0
LINE
  5
F7
330
65D
100
AcDbEntity
  8
_0
  6
Continuous
 62
     7
370
    13
100
AcDbLine
 10
41.638333
 20
-5.459771
 30
0.0
 11
41.622615
 21
-5.477521
 31
0.0
  0
LINE
  5
F8
330
65D
100
AcDbEntity
  8
_0
  6
Continuous
 62
     7
370
    13
100
AcDbLine
 10
41.585052
 20
-5.467656
 30
0.0
 11
41.638333
 21
-5.459771
 31
0.0
  0
LINE
  5
F9
330
65D
100
AcDbEntity
  8
_0
  6
Continuous
 62
     7
370
    13
100
AcDbLine
 10
41.662552
 20
-5.422302
 30
0.0
 11
41.585052
 21
-5.467656
 31
0.0
  0
LINE
  5
FA
330
65D
100
AcDbEntity
  8
_0
  6
Continuous
 62
     7
370
    13
100
AcDbLine
 10
41.606042
 20
-5.442021
 30
0.0
 11
41.662552
 21
-5.422302
 31
0.0
  0
LINE
  5
FB
330
65D
100
AcDbEntity
  8
_0
  6
Continuous
 62
     7
370
    13
100
AcDbLine
 10
41.622615
 20
-5.422302
 30
0.0
 11
41.606042
 21
-5.442021
 31
0.0
  0
LINE
  5
FC
330
65D
100
AcDbEntity
  8
_0
  6
Continuous
 62
     7
370
    13
100
AcDbLine
 10
42.588333
 20
-5.473698
 30
0.0
 11
42.572615
 21
-5.491448
 31
0.0
  0
LINE
  5
FD
330
65D
100
AcDbEntity
  8
_0
  6
Continuous
 62
     7
370
    13
100
AcDbLine
 10
42.535052
 20
-5.481594
 30
0.0
 11
42.588333
 21
-5.473698
 31
0.0
  0
LINE
  5
FE
330
65D
100
AcDbEntity
  8
_0
  6
Continuous
 62
     7
370
    13
100
AcDbLine
 10
42.612552
 20
-5.436229
 30
0.0
 11
42.535052
 21
-5.481594
 31
0.0
  0
LINE
  5
FF
330
65D
100
AcDbEntity
  8
_0
  6
Continuous
 62
     7
370
    13
100
AcDbLine
 10
42.556042
 20
-5.455958
 30
0.0
 11
42.612552
 21
-5.436229
 31
0.0
  0
LINE
  5
100
330
65D
100
AcDbEntity
  8
_0
  6
Continuous
 62
     7
370
    13
100
AcDbLine
 10
42.572615
 20
-5.436229
 30
0.0
 11
42.556042
 21
-5.455958
 31
0.0
  0
LINE
  5
101
330
65D
100
AcDbEntity
  8
_0
  6
Continuous
 62
     7
370
    13
100
AcDbLine
 10
34.463333
 20
-6.434865
 30
0.0
 11
34.447615
 21
-6.452615
 31
0.0
  0
LINE
  5
102
330
65D
100
AcDbEntity
  8
_0
  6
Continuous
 62
     7
370
    13
100
AcDbLine
 10
34.410052
 20
-6.44275
 30
0.0
 11
34.463333
 21
-6.434865
 31
0.0
  0
LINE
  5
103
330
65D
100
AcDbEntity
  8
_0
  6
Continuous
 62
     7
370
    13
100
AcDbLine
 10
34.487552
 20
-6.397396
 30
0.0
 11
34.410052
 21
-6.44275
 31
0.0
  0
LINE
  5
104
330
65D
100
AcDbEntity
  8
_0
  6
Continuous
 62
     7
370
    13
100
AcDbLine
 10
34.431042
 20
-6.417115
 30
0.0
 11
34.487552
 21
-6.397396
 31
0.0
  0
LINE
  5
105
330
65D
100
AcDbEntity
  8
_0
  6
Continuous
 62
     7
370
    13
100
AcDbLine
 10
34.447615
 20
-6.397396
 30
0.0
 11
34.431042
 21
-6.417115
 31
0.0
  0
LINE
  5
106
330
65D
100
AcDbEntity
  8
_0
  6
Continuous
 62
     7
370
    13
100
AcDbLine
 10
34.847615
 20
-6.397083
 30
0.0
 11
34.831042
 21
-6.416812
 31
0.0
  0
LINE
  5
107
330
65D
100
AcDbEntity
  8
_0
  6
Continuous
 62
     7
370
    13
100
AcDbLine
 10
34.831042
 20
-6.416812
 30
0.0
 11
34.887552
 21
-6.397083
 31
0.0
  0
LINE
  5
108
330
65D
100
AcDbEntity
  8
_0
  6
Continuous
 62
     7
370
    13
100
AcDbLine
 10
34.887552
 20
-6.397083
 30
0.0
 11
34.810052
 21
-6.442448
 31
0.0
  0
LINE
  5
109
330
65D
100
AcDbEntity
  8
_0
  6
Continuous
 62
     7
370
    13
100
AcDbLine
 10
34.810052
 20
-6.442448
 30
0.0
 11
34.863333
 21
-6.434552
 31
0.0
  0
LINE
  5
10A
330
65D
100
AcDbEntity
  8
_0
  6
Continuous
 62
     7
370
    13
100
AcDbLine
 10
34.863333
 20
-6.434552
 30
0.0
 11
34.847615
 21
-6.452302
 31
0.0
  0
LINE
  5
10B
330
65D
100
AcDbEntity
  8
_0
  6
Continuous
 62
     7
370
    13
100
AcDbLine
 10
34.447615
 20
-5.427281
 30
0.0
 11
34.447615
 21
-5.03626
 31
0.0
  0
LINE
  5
10C
330
65D
100
AcDbEntity
  8
_0
  6
Continuous
 62
     7
370
    13
100
AcDbLine
 10
34.847615
 20
-5.42275
 30
0.0
 11
34.847615
 21
-5.03626
 31
0.0
  0
LINE
  5
10D
330
65D
100
AcDbEntity
  8
_0
  6
Continuous
 62
     7
370
    13
100
AcDbLine
 10
34.447615
 20
-6.397396
 30
0.0
 11
34.447615
 21
-5.4825
 31
0.0
  0
LINE
  5
10E
330
65D
100
AcDbEntity
  8
_0
  6
Continuous
 62
     7
370
    13
100
AcDbLine
 10
34.847615
 20
-6.397083
 30
0.0
 11
34.847615
 21
-5.477969
 31
0.0
  0
LINE
  5
10F
330
65D
100
AcDbEntity
  8
_0
  6
Continuous
 62
     7
370
    13
100
AcDbLine
 10
41.622615
 20
-5.422302
 30
0.0
 11
41.622615
 21
-4.978896
 31
0.0
  0
LINE
  5
110
330
65D
100
AcDbEntity
  8
_0
  6
Continuous
 62
     7
370
    13
100
AcDbLine
 10
35.038333
 20
-6.434552
 30
0.0
 11
35.022615
 21
-6.452302
 31
0.0
  0
LINE
  5
111
330
65D
100
AcDbEntity
  8
_0
  6
Continuous
 62
     7
370
    13
100
AcDbLine
 10
34.985052
 20
-6.442448
 30
0.0
 11
35.038333
 21
-6.434552
 31
0.0
  0
LINE
  5
112
330
65D
100
AcDbEntity
  8
_0
  6
Continuous
 62
     7
370
    13
100
AcDbLine
 10
35.062552
 20
-6.397083
 30
0.0
 11
34.985052
 21
-6.442448
 31
0.0
  0
LINE
  5
113
330
65D
100
AcDbEntity
  8
_0
  6
Continuous
 62
     7
370
    13
100
AcDbLine
 10
35.006042
 20
-6.416812
 30
0.0
 11
35.062552
 21
-6.397083
 31
0.0
  0
LINE
  5
114
330
65D
100
AcDbEntity
  8
_0
  6
Continuous
 62
     7
370
    13
100
AcDbLine
 10
35.022615
 20
-6.397083
 30
0.0
 11
35.006042
 21
-6.416812
 31
0.0
  0
LINE
  5
115
330
65D
100
AcDbEntity
  8
_0
  6
Continuous
 62
     7
370
    13
100
AcDbLine
 10
41.772615
 20
-5.436229
 30
0.0
 11
41.756042
 21
-5.455958
 31
0.0
  0
LINE
  5
116
330
65D
100
AcDbEntity
  8
_0
  6
Continuous
 62
     7
370
    13
100
AcDbLine
 10
41.756042
 20
-5.455958
 30
0.0
 11
41.812552
 21
-5.436229
 31
0.0
  0
LINE
  5
117
330
65D
100
AcDbEntity
  8
_0
  6
Continuous
 62
     7
370
    13
100
AcDbLine
 10
41.812552
 20
-5.436229
 30
0.0
 11
41.735052
 21
-5.481594
 31
0.0
  0
LINE
  5
118
330
65D
100
AcDbEntity
  8
_0
  6
Continuous
 62
     7
370
    13
100
AcDbLine
 10
41.735052
 20
-5.481594
 30
0.0
 11
41.788333
 21
-5.473698
 31
0.0
  0
LINE
  5
119
330
65D
100
AcDbEntity
  8
_0
  6
Continuous
 62
     7
370
    13
100
AcDbLine
 10
41.788333
 20
-5.473698
 30
0.0
 11
41.772615
 21
-5.491448
 31
0.0
  0
LINE
  5
11A
330
65D
100
AcDbEntity
  8
_0
  6
Continuous
 62
     7
370
    13
100
AcDbLine
 10
41.772615
 20
-5.436229
 30
0.0
 11
41.772615
 21
-4.978896
 31
0.0
  0
LINE
  5
11B
330
65D
100
AcDbEntity
  8
_0
  6
Continuous
 62
     7
370
    13
100
AcDbLine
 10
42.572615
 20
-5.436229
 30
0.0
 11
42.572615
 21
-4.978896
 31
0.0
  0
LINE
  5
11C
330
65D
100
AcDbEntity
  8
_0
  6
Continuous
 62
     7
370
    13
100
AcDbLine
 10
41.788333
 20
-6.434865
 30
0.0
 11
41.772615
 21
-6.452615
 31
0.0
  0
LINE
  5
11D
330
65D
100
AcDbEntity
  8
_0
  6
Continuous
 62
     7
370
    13
100
AcDbLine
 10
41.735052
 20
-6.44275
 30
0.0
 11
41.788333
 21
-6.434865
 31
0.0
  0
LINE
  5
11E
330
65D
100
AcDbEntity
  8
_0
  6
Continuous
 62
     7
370
    13
100
AcDbLine
 10
41.812552
 20
-6.397396
 30
0.0
 11
41.735052
 21
-6.44275
 31
0.0
  0
LINE
  5
11F
330
65D
100
AcDbEntity
  8
_0
  6
Continuous
 62
     7
370
    13
100
AcDbLine
 10
41.756042
 20
-6.417115
 30
0.0
 11
41.812552
 21
-6.397396
 31
0.0
  0
LINE
  5
120
330
65D
100
AcDbEntity
  8
_0
  6
Continuous
 62
     7
370
    13
100
AcDbLine
 10
41.772615
 20
-6.397396
 30
0.0
 11
41.756042
 21
-6.417115
 31
0.0
  0
LINE
  5
121
330
65D
100
AcDbEntity
  8
_0
  6
Continuous
 62
     7
370
    13
100
AcDbLine
 10
42.572615
 20
-6.397396
 30
0.0
 11
42.556042
 21
-6.417115
 31
0.0
  0
LINE
  5
122
330
65D
100
AcDbEntity
  8
_0
  6
Continuous
 62
     7
370
    13
100
AcDbLine
 10
42.556042
 20
-6.417115
 30
0.0
 11
42.612552
 21
-6.397396
 31
0.0
  0
LINE
  5
123
330
65D
100
AcDbEntity
  8
_0
  6
Continuous
 62
     7
370
    13
100
AcDbLine
 10
42.612552
 20
-6.397396
 30
0.0
 11
42.535052
 21
-6.44275
 31
0.0
  0
LINE
  5
124
330
65D
100
AcDbEntity
  8
_0
  6
Continuous
 62
     7
370
    13
100
AcDbLine
 10
42.535052
 20
-6.44275
 30
0.0
 11
42.588333
 21
-6.434865
 31
0.0
  0
LINE
  5
125
330
65D
100
AcDbEntity
  8
_0
  6
Continuous
 62
     7
370
    13
100
AcDbLine
 10
42.588333
 20
-6.434865
 30
0.0
 11
42.572615
 21
-6.452615
 31
0.0
  0
LINE
  5
126
330
65D
100
AcDbEntity
  8
_0
  6
Continuous
 62
     7
370
    13
100
AcDbLine
 10
41.622615
 20
-6.383458
 30
0.0
 11
41.606042
 21
-6.403187
 31
0.0
  0
LINE
  5
127
330
65D
100
AcDbEntity
  8
_0
  6
Continuous
 62
     7
370
    13
100
AcDbLine
 10
41.606042
 20
-6.403187
 30
0.0
 11
41.662552
 21
-6.383458
 31
0.0
  0
LINE
  5
128
330
65D
100
AcDbEntity
  8
_0
  6
Continuous
 62
     7
370
    13
100
AcDbLine
 10
41.662552
 20
-6.383458
 30
0.0
 11
41.585052
 21
-6.428823
 31
0.0
  0
LINE
  5
129
330
65D
100
AcDbEntity
  8
_0
  6
Continuous
 62
     7
370
    13
100
AcDbLine
 10
41.585052
 20
-6.428823
 30
0.0
 11
41.638333
 21
-6.420927
 31
0.0
  0
LINE
  5
12A
330
65D
100
AcDbEntity
  8
_0
  6
Continuous
 62
     7
370
    13
100
AcDbLine
 10
41.638333
 20
-6.420927
 30
0.0
 11
41.622615
 21
-6.438677
 31
0.0
  0
LINE
  5
12B
330
65D
100
AcDbEntity
  8
_0
  6
Continuous
 62
     7
370
    13
100
AcDbLine
 10
42.572615
 20
-6.397396
 30
0.0
 11
42.572615
 21
-5.491448
 31
0.0
  0
LINE
  5
12C
330
65D
100
AcDbEntity
  8
_0
  6
Continuous
 62
     7
370
    13
100
AcDbLine
 10
41.772615
 20
-6.397396
 30
0.0
 11
41.772615
 21
-5.491448
 31
0.0
  0
LINE
  5
12D
330
65D
100
AcDbEntity
  8
_0
  6
Continuous
 62
     7
370
    13
100
AcDbLine
 10
41.622615
 20
-6.383458
 30
0.0
 11
41.622615
 21
-5.477521
 31
0.0
  0
LINE
  5
12E
330
65D
100
AcDbEntity
  8
_0
  6
Continuous
 62
     7
370
    13
100
AcDbLine
 10
35.022615
 20
-6.397083
 30
0.0
 11
35.022615
 21
-5.03626
 31
0.0
  0
LINE
  5
12F
330
65D
100
AcDbEntity
  8
2-34C
  6
Continuous
 62
     7
370
    13
100
AcDbLine
 10
40.081135
 20
-9.007896
 30
0.0
 11
40.065417
 21
-9.025635
 31
0.0
  0
LINE
  5
130
330
65D
100
AcDbEntity
  8
2-34C
  6
Continuous
 62
     7
370
    13
100
AcDbLine
 10
40.027854
 20
-9.015781
 30
0.0
 11
40.081135
 21
-9.007896
 31
0.0
  0
LINE
  5
131
330
65D
100
AcDbEntity
  8
2-34C
  6
Continuous
 62
     7
370
    13
100
AcDbLine
 10
40.105354
 20
-8.970427
 30
0.0
 11
40.027854
 21
-9.015781
 31
0.0
  0
LINE
  5
132
330
65D
100
AcDbEntity
  8
2-34C
  6
Continuous
 62
     7
370
    13
100
AcDbLine
 10
40.048844
 20
-8.990146
 30
0.0
 11
40.105354
 21
-8.970427
 31
0.0
  0
LINE
  5
133
330
65D
100
AcDbEntity
  8
2-34C
  6
Continuous
 62
     7
370
    13
100
AcDbLine
 10
40.065844
 20
-8.969917
 30
0.0
 11
40.048844
 21
-8.990146
 31
0.0
  0
LINE
  5
134
330
65D
100
AcDbEntity
  8
2-34C
  6
Continuous
 62
     7
370
    13
100
AcDbLine
 10
40.178469
 20
-8.985979
 30
0.0
 11
40.162396
 21
-9.005115
 31
0.0
  0
LINE
  5
135
330
65D
100
AcDbEntity
  8
2-34C
  6
Continuous
 62
     7
370
    13
100
AcDbLine
 10
40.162396
 20
-9.005115
 30
0.0
 11
40.218906
 21
-8.985396
 31
0.0
  0
LINE
  5
136
330
65D
100
AcDbEntity
  8
2-34C
  6
Continuous
 62
     7
370
    13
100
AcDbLine
 10
40.218906
 20
-8.985396
 30
0.0
 11
40.141406
 21
-9.03075
 31
0.0
  0
LINE
  5
137
330
65D
100
AcDbEntity
  8
2-34C
  6
Continuous
 62
     7
370
    13
100
AcDbLine
 10
40.141406
 20
-9.03075
 30
0.0
 11
40.194688
 21
-9.022865
 31
0.0
  0
LINE
  5
138
330
65D
100
AcDbEntity
  8
2-34C
  6
Continuous
 62
     7
370
    13
100
AcDbLine
 10
40.194688
 20
-9.022865
 30
0.0
 11
40.178469
 21
-9.041167
 31
0.0
  0
LINE
  5
139
330
65D
100
AcDbEntity
  8
2-34C
  6
Continuous
 62
     7
370
    13
100
AcDbLine
 10
34.305625
 20
-8.740323
 30
0.0
 11
34.289021
 21
-8.760083
 31
0.0
  0
LINE
  5
13A
330
65D
100
AcDbEntity
  8
2-34C
  6
Continuous
 62
     7
370
    13
100
AcDbLine
 10
34.289021
 20
-8.760083
 30
0.0
 11
34.345531
 21
-8.740365
 31
0.0
  0
LINE
  5
13B
330
65D
100
AcDbEntity
  8
2-34C
  6
Continuous
 62
     7
370
    13
100
AcDbLine
 10
34.345531
 20
-8.740365
 30
0.0
 11
34.268031
 21
-8.785719
 31
0.0
  0
LINE
  5
13C
330
65D
100
AcDbEntity
  8
2-34C
  6
Continuous
 62
     7
370
    13
100
AcDbLine
 10
34.268031
 20
-8.785719
 30
0.0
 11
34.321312
 21
-8.777833
 31
0.0
  0
LINE
  5
13D
330
65D
100
AcDbEntity
  8
2-34C
  6
Continuous
 62
     7
370
    13
100
AcDbLine
 10
34.321312
 20
-8.777833
 30
0.0
 11
34.305594
 21
-8.795583
 31
0.0
  0
LINE
  5
13E
330
65D
100
AcDbEntity
  8
2-34C
  6
Continuous
 62
     7
370
    13
100
AcDbLine
 10
34.305625
 20
-8.795542
 30
0.0
 11
34.305625
 21
-9.073281
 31
0.0
  0
LINE
  5
140
330
65D
100
AcDbEntity
  8
DIM
  6
Continuous
 62
     7
370
    13
100
AcDbLine
 10
34.392708
 20
-6.066698
 30
0.0
 11
33.984344
 21
-6.066698
 31
0.0
  0
LINE
  5
157
330
65D
100
AcDbEntity
  8
2-34C
  6
Continuous
 62
     7
370
    13
100
AcDbLine
 10
41.169083
 20
-8.895625
 30
0.0
 11
41.169083
 21
-8.137875
 31
0.0
  0
LINE
  5
15D
330
65D
100
AcDbEntity
  8
2-34C
  6
Continuous
 62
     7
370
    30
100
AcDbLine
 10
40.065844
 20
-9.286146
 30
0.0
 11
39.484313
 21
-9.271354
 31
0.0
  0
LINE
  5
15E
330
65D
100
AcDbEntity
  8
2-34C
  6
Continuous
 62
     7
370
    30
100
AcDbLine
 10
40.178469
 20
-9.299906
 30
0.0
 11
41.780687
 21
-9.375385
 31
0.0
  0
LINE
  5
15F
330
65D
100
AcDbEntity
  8
HATCH
  6
Continuous
 62
     7
370
    30
100
AcDbLine
 10
41.437198
 20
-8.551229
 30
0.0
 11
41.569906
 21
-8.683937
 31
0.0
  0
LINE
  5
160
330
65D
100
AcDbEntity
  8
HATCH
  6
Continuous
 62
     7
370
    30
100
AcDbLine
 10
41.51224
 20
-8.555573
 30
0.0
 11
41.644958
 21
-8.688281
 31
0.0
  0
LINE
  5
161
330
65D
100
AcDbEntity
  8
HATCH
  6
Continuous
 62
     7
370
    30
100
AcDbLine
 10
41.587292
 20
-8.559906
 30
0.0
 11
41.72001
 21
-8.692625
 31
0.0
  0
LINE
  5
162
330
65D
100
AcDbEntity
  8
HATCH
  6
Continuous
 62
     7
370
    30
100
AcDbLine
 10
41.662344
 20
-8.56424
 30
0.0
 11
41.795063
 21
-8.696969
 31
0.0
  0
LINE
  5
163
330
65D
100
AcDbEntity
  8
HATCH
  6
Continuous
 62
     7
370
    30
100
AcDbLine
 10
41.737385
 20
-8.568583
 30
0.0
 11
41.870115
 21
-8.701313
 31
0.0
  0
LINE
  5
164
330
65D
100
AcDbEntity
  8
HATCH
  6
Continuous
 62
     7
370
    30
100
AcDbLine
 10
41.812438
 20
-8.572917
 30
0.0
 11
41.881406
 21
-8.641896
 31
0.0
  0
LINE
  5
165
330
65D
100
AcDbEntity
  8
HATCH
  6
Continuous
 62
     7
370
    30
100
AcDbLine
 10
41.362146
 20
-8.546896
 30
0.0
 11
41.494844
 21
-8.679594
 31
0.0
  0
LINE
  5
166
330
65D
100
AcDbEntity
  8
HATCH
  6
Continuous
 62
     7
370
    30
100
AcDbLine
 10
41.287104
 20
-8.542562
 30
0.0
 11
41.419792
 21
-8.67525
 31
0.0
  0
LINE
  5
167
330
65D
100
AcDbEntity
  8
HATCH
  6
Continuous
 62
     7
370
    30
100
AcDbLine
 10
41.212052
 20
-8.538219
 30
0.0
 11
41.34474
 21
-8.670906
 31
0.0
  0
LINE
  5
168
330
65D
100
AcDbEntity
  8
HATCH
  6
Continuous
 62
     7
370
    30
100
AcDbLine
 10
41.169542
 20
-8.566417
 30
0.0
 11
41.269687
 21
-8.666562
 31
0.0
  0
LINE
  5
169
330
65D
100
AcDbEntity
  8
HATCH
  6
Continuous
 62
     7
370
    30
100
AcDbLine
 10
41.170615
 20
-8.638208
 30
0.0
 11
41.194635
 21
-8.662219
 31
0.0
  0
LINE
  5
16A
330
65D
100
AcDbEntity
  8
HATCH
  6
Continuous
 62
     7
370
    30
100
AcDbLine
 10
40.685521
 20
-8.690146
 30
0.0
 11
40.818792
 21
-8.556875
 31
0.0
  0
LINE
  5
16B
330
65D
100
AcDbEntity
  8
HATCH
  6
Continuous
 62
     7
370
    30
100
AcDbLine
 10
40.610271
 20
-8.694688
 30
0.0
 11
40.743542
 21
-8.561417
 31
0.0
  0
LINE
  5
16C
330
65D
100
AcDbEntity
  8
HATCH
  6
Continuous
 62
     7
370
    30
100
AcDbLine
 10
40.535021
 20
-8.699229
 30
0.0
 11
40.668281
 21
-8.565958
 31
0.0
  0
LINE
  5
16D
330
65D
100
AcDbEntity
  8
HATCH
  6
Continuous
 62
     7
370
    30
100
AcDbLine
 10
40.45976
 20
-8.703771
 30
0.0
 11
40.593031
 21
-8.5705
 31
0.0
  0
LINE
  5
16E
330
65D
100
AcDbEntity
  8
HATCH
  6
Continuous
 62
     7
370
    30
100
AcDbLine
 10
40.457156
 20
-8.635667
 30
0.0
 11
40.517781
 21
-8.575042
 31
0.0
  0
LINE
  5
16F
330
65D
100
AcDbEntity
  8
HATCH
  6
Continuous
 62
     7
370
    30
100
AcDbLine
 10
40.760771
 20
-8.685604
 30
0.0
 11
40.894042
 21
-8.552333
 31
0.0
  0
LINE
  5
170
330
65D
100
AcDbEntity
  8
HATCH
  6
Continuous
 62
     7
370
    30
100
AcDbLine
 10
40.836021
 20
-8.681062
 30
0.0
 11
40.969292
 21
-8.547792
 31
0.0
  0
LINE
  5
171
330
65D
100
AcDbEntity
  8
HATCH
  6
Continuous
 62
     7
370
    30
100
AcDbLine
 10
40.911271
 20
-8.676521
 30
0.0
 11
41.044542
 21
-8.54325
 31
0.0
  0
LINE
  5
172
330
65D
100
AcDbEntity
  8
HATCH
  6
Continuous
 62
     7
370
    30
100
AcDbLine
 10
40.986531
 20
-8.671979
 30
0.0
 11
41.119792
 21
-8.538708
 31
0.0
  0
LINE
  5
173
330
65D
100
AcDbEntity
  8
HATCH
  6
Continuous
 62
     7
370
    30
100
AcDbLine
 10
41.061781
 20
-8.667438
 30
0.0
 11
41.169448
 21
-8.559771
 31
0.0
  0
LINE
  5
174
330
65D
100
AcDbEntity
  8
HATCH
  6
Continuous
 62
     7
370
    30
100
AcDbLine
 10
41.137031
 20
-8.662896
 30
0.0
 11
41.17049
 21
-8.629448
 31
0.0
  0
LINE
  5
175
330
65D
100
AcDbEntity
  8
HATCH
  6
Continuous
 62
     7
370
    30
100
AcDbLine
 10
34.939271
 20
-8.638115
 30
0.0
 11
35.043354
 21
-8.534031
 31
0.0
  0
LINE
  5
176
330
65D
100
AcDbEntity
  8
HATCH
  6
Continuous
 62
     7
370
    30
100
AcDbLine
 10
34.865729
 20
-8.640948
 30
0.0
 11
34.969812
 21
-8.536865
 31
0.0
  0
LINE
  5
177
330
65D
100
AcDbEntity
  8
HATCH
  6
Continuous
 62
     7
370
    30
100
AcDbLine
 10
34.792187
 20
-8.643781
 30
0.0
 11
34.896271
 21
-8.539698
 31
0.0
  0
LINE
  5
178
330
65D
100
AcDbEntity
  8
HATCH
  6
Continuous
 62
     7
370
    30
100
AcDbLine
 10
34.718646
 20
-8.646604
 30
0.0
 11
34.822729
 21
-8.542531
 31
0.0
  0
LINE
  5
179
330
65D
100
AcDbEntity
  8
HATCH
  6
Continuous
 62
     7
370
    30
100
AcDbLine
 10
34.645104
 20
-8.649437
 30
0.0
 11
34.749187
 21
-8.545354
 31
0.0
  0
LINE
  5
17A
330
65D
100
AcDbEntity
  8
HATCH
  6
Continuous
 62
     7
370
    30
100
AcDbLine
 10
34.571562
 20
-8.652271
 30
0.0
 11
34.675646
 21
-8.548187
 31
0.0
  0
LINE
  5
17B
330
65D
100
AcDbEntity
  8
HATCH
  6
Continuous
 62
     7
370
    30
100
AcDbLine
 10
34.498021
 20
-8.655104
 30
0.0
 11
34.602104
 21
-8.551021
 31
0.0
  0
LINE
  5
17C
330
65D
100
AcDbEntity
  8
HATCH
  6
Continuous
 62
     7
370
    30
100
AcDbLine
 10
34.424479
 20
-8.657927
 30
0.0
 11
34.528562
 21
-8.553854
 31
0.0
  0
LINE
  5
17D
330
65D
100
AcDbEntity
  8
HATCH
  6
Continuous
 62
     7
370
    30
100
AcDbLine
 10
34.350938
 20
-8.66076
 30
0.0
 11
34.455021
 21
-8.556677
 31
0.0
  0
LINE
  5
17E
330
65D
100
AcDbEntity
  8
HATCH
  6
Continuous
 62
     7
370
    30
100
AcDbLine
 10
34.305625
 20
-8.635365
 30
0.0
 11
34.381479
 21
-8.55951
 31
0.0
  0
LINE
  5
17F
330
65D
100
AcDbEntity
  8
HATCH
  6
Continuous
 62
     7
370
    30
100
AcDbLine
 10
34.305625
 20
-8.564656
 30
0.0
 11
34.307938
 21
-8.562344
 31
0.0
  0
LINE
  5
180
330
65D
100
AcDbEntity
  8
HATCH
  6
Continuous
 62
     7
370
    30
100
AcDbLine
 10
35.012812
 20
-8.635281
 30
0.0
 11
35.116896
 21
-8.531208
 31
0.0
  0
LINE
  5
181
330
65D
100
AcDbEntity
  8
HATCH
  6
Continuous
 62
     7
370
    30
100
AcDbLine
 10
35.086354
 20
-8.632458
 30
0.0
 11
35.190438
 21
-8.528375
 31
0.0
  0
LINE
  5
182
330
65D
100
AcDbEntity
  8
HATCH
  6
Continuous
 62
     7
370
    30
100
AcDbLine
 10
35.159896
 20
-8.629625
 30
0.0
 11
35.263979
 21
-8.525542
 31
0.0
  0
LINE
  5
183
330
65D
100
AcDbEntity
  8
HATCH
  6
Continuous
 62
     7
370
    30
100
AcDbLine
 10
35.233438
 20
-8.626792
 30
0.0
 11
35.337521
 21
-8.522708
 31
0.0
  0
LINE
  5
184
330
65D
100
AcDbEntity
  8
HATCH
  6
Continuous
 62
     7
370
    30
100
AcDbLine
 10
35.306979
 20
-8.623958
 30
0.0
 11
35.411062
 21
-8.519885
 31
0.0
  0
LINE
  5
185
330
65D
100
AcDbEntity
  8
HATCH
  6
Continuous
 62
     7
370
    30
100
AcDbLine
 10
35.380521
 20
-8.621135
 30
0.0
 11
35.484604
 21
-8.517052
 31
0.0
  0
LINE
  5
186
330
65D
100
AcDbEntity
  8
HATCH
  6
Continuous
 62
     7
370
    30
100
AcDbLine
 10
35.454062
 20
-8.618302
 30
0.0
 11
35.558146
 21
-8.514219
 31
0.0
  0
LINE
  5
187
330
65D
100
AcDbEntity
  8
HATCH
  6
Continuous
 62
     7
370
    30
100
AcDbLine
 10
35.527604
 20
-8.615469
 30
0.0
 11
35.631687
 21
-8.511385
 31
0.0
  0
LINE
  5
188
330
65D
100
AcDbEntity
  8
HATCH
  6
Continuous
 62
     7
370
    30
100
AcDbLine
 10
35.601146
 20
-8.612635
 30
0.0
 11
35.705229
 21
-8.508563
 31
0.0
  0
LINE
  5
189
330
65D
100
AcDbEntity
  8
HATCH
  6
Continuous
 62
     7
370
    30
100
AcDbLine
 10
35.674687
 20
-8.609813
 30
0.0
 11
35.744135
 21
-8.540365
 31
0.0
  0
LINE
  5
18A
330
65D
100
AcDbEntity
  8
HATCH
  6
Continuous
 62
     7
370
    30
100
AcDbLine
 10
36.678385
 20
-8.530042
 30
0.0
 11
36.780938
 21
-8.632594
 31
0.0
  0
LINE
  5
18B
330
65D
100
AcDbEntity
  8
HATCH
  6
Continuous
 62
     7
370
    30
100
AcDbLine
 10
36.750885
 20
-8.531823
 30
0.0
 11
36.853437
 21
-8.634375
 31
0.0
  0
LINE
  5
18C
330
65D
100
AcDbEntity
  8
HATCH
  6
Continuous
 62
     7
370
    30
100
AcDbLine
 10
36.823375
 20
-8.533604
 30
0.0
 11
36.925927
 21
-8.636156
 31
0.0
  0
LINE
  5
18D
330
65D
100
AcDbEntity
  8
HATCH
  6
Continuous
 62
     7
370
    30
100
AcDbLine
 10
36.895865
 20
-8.535385
 30
0.0
 11
36.998417
 21
-8.637937
 31
0.0
  0
LINE
  5
18E
330
65D
100
AcDbEntity
  8
HATCH
  6
Continuous
 62
     7
370
    30
100
AcDbLine
 10
36.968365
 20
-8.537167
 30
0.0
 11
37.070917
 21
-8.639719
 31
0.0
  0
LINE
  5
18F
330
65D
100
AcDbEntity
  8
HATCH
  6
Continuous
 62
     7
370
    30
100
AcDbLine
 10
37.040854
 20
-8.538948
 30
0.0
 11
37.143406
 21
-8.6415
 31
0.0
  0
LINE
  5
190
330
65D
100
AcDbEntity
  8
HATCH
  6
Continuous
 62
     7
370
    30
100
AcDbLine
 10
37.113344
 20
-8.540729
 30
0.0
 11
37.215896
 21
-8.643281
 31
0.0
  0
LINE
  5
191
330
65D
100
AcDbEntity
  8
HATCH
  6
Continuous
 62
     7
370
    30
100
AcDbLine
 10
37.185844
 20
-8.542521
 30
0.0
 11
37.288396
 21
-8.645062
 31
0.0
  0
LINE
  5
192
330
65D
100
AcDbEntity
  8
HATCH
  6
Continuous
 62
     7
370
    30
100
AcDbLine
 10
37.258333
 20
-8.544302
 30
0.0
 11
37.360885
 21
-8.646854
 31
0.0
  0
LINE
  5
193
330
65D
100
AcDbEntity
  8
HATCH
  6
Continuous
 62
     7
370
    30
100
AcDbLine
 10
37.330823
 20
-8.546083
 30
0.0
 11
37.433375
 21
-8.648635
 31
0.0
  0
LINE
  5
194
330
65D
100
AcDbEntity
  8
HATCH
  6
Continuous
 62
     7
370
    30
100
AcDbLine
 10
37.403323
 20
-8.547865
 30
0.0
 11
37.505865
 21
-8.650417
 31
0.0
  0
LINE
  5
195
330
65D
100
AcDbEntity
  8
HATCH
  6
Continuous
 62
     7
370
    30
100
AcDbLine
 10
37.475812
 20
-8.549646
 30
0.0
 11
37.578365
 21
-8.652198
 31
0.0
  0
LINE
  5
196
330
65D
100
AcDbEntity
  8
HATCH
  6
Continuous
 62
     7
370
    30
100
AcDbLine
 10
37.548302
 20
-8.551427
 30
0.0
 11
37.578729
 21
-8.581854
 31
0.0
  0
LINE
  5
197
330
65D
100
AcDbEntity
  8
HATCH
  6
Continuous
 62
     7
370
    30
100
AcDbLine
 10
36.605896
 20
-8.52826
 30
0.0
 11
36.708448
 21
-8.630812
 31
0.0
  0
LINE
  5
198
330
65D
100
AcDbEntity
  8
HATCH
  6
Continuous
 62
     7
370
    30
100
AcDbLine
 10
36.533406
 20
-8.526479
 30
0.0
 11
36.635958
 21
-8.629031
 31
0.0
  0
LINE
  5
199
330
65D
100
AcDbEntity
  8
HATCH
  6
Continuous
 62
     7
370
    30
100
AcDbLine
 10
36.460917
 20
-8.524698
 30
0.0
 11
36.563458
 21
-8.62725
 31
0.0
  0
LINE
  5
19A
330
65D
100
AcDbEntity
  8
HATCH
  6
Continuous
 62
     7
370
    30
100
AcDbLine
 10
36.388417
 20
-8.522917
 30
0.0
 11
36.490969
 21
-8.625469
 31
0.0
  0
LINE
  5
19B
330
65D
100
AcDbEntity
  8
HATCH
  6
Continuous
 62
     7
370
    30
100
AcDbLine
 10
36.315927
 20
-8.521135
 30
0.0
 11
36.418479
 21
-8.623687
 31
0.0
  0
LINE
  5
19C
330
65D
100
AcDbEntity
  8
HATCH
  6
Continuous
 62
     7
370
    30
100
AcDbLine
 10
36.243437
 20
-8.519354
 30
0.0
 11
36.34599
 21
-8.621896
 31
0.0
  0
LINE
  5
19D
330
65D
100
AcDbEntity
  8
HATCH
  6
Continuous
 62
     7
370
    30
100
AcDbLine
 10
36.170938
 20
-8.517563
 30
0.0
 11
36.27349
 21
-8.620115
 31
0.0
  0
LINE
  5
19E
330
65D
100
AcDbEntity
  8
HATCH
  6
Continuous
 62
     7
370
    30
100
AcDbLine
 10
36.098448
 20
-8.515781
 30
0.0
 11
36.201
 21
-8.618333
 31
0.0
  0
LINE
  5
19F
330
65D
100
AcDbEntity
  8
HATCH
  6
Continuous
 62
     7
370
    30
100
AcDbLine
 10
36.025958
 20
-8.514
 30
0.0
 11
36.12851
 21
-8.616552
 31
0.0
  0
LINE
  5
1A0
330
65D
100
AcDbEntity
  8
HATCH
  6
Continuous
 62
     7
370
    30
100
AcDbLine
 10
35.953458
 20
-8.512219
 30
0.0
 11
36.05601
 21
-8.614771
 31
0.0
  0
LINE
  5
1A1
330
65D
100
AcDbEntity
  8
HATCH
  6
Continuous
 62
     7
370
    30
100
AcDbLine
 10
35.880969
 20
-8.510438
 30
0.0
 11
35.983521
 21
-8.61299
 31
0.0
  0
LINE
  5
1A2
330
65D
100
AcDbEntity
  8
HATCH
  6
Continuous
 62
     7
370
    30
100
AcDbLine
 10
35.808479
 20
-8.508656
 30
0.0
 11
35.911031
 21
-8.611208
 31
0.0
  0
LINE
  5
1A3
330
65D
100
AcDbEntity
  8
HATCH
  6
Continuous
 62
     7
370
    30
100
AcDbLine
 10
35.743958
 20
-8.514844
 30
0.0
 11
35.838531
 21
-8.609427
 31
0.0
  0
LINE
  5
1A4
330
65D
100
AcDbEntity
  8
HATCH
  6
Continuous
 62
     7
370
    30
100
AcDbLine
 10
35.744448
 20
-8.586052
 30
0.0
 11
35.766042
 21
-8.607646
 31
0.0
  0
LINE
  5
1A5
330
65D
100
AcDbEntity
  8
2-34C
  6
Continuous
 62
     7
370
    30
100
AcDbLine
 10
39.484313
 20
-9.173104
 30
0.0
 11
39.484313
 21
-8.979458
 31
0.0
  0
LINE
  5
1A6
330
65D
100
AcDbEntity
  8
HATCH
  6
Continuous
 62
     7
370
    30
100
AcDbLine
 10
34.554719
 20
-8.88125
 30
0.0
 11
34.643115
 21
-8.969635
 31
0.0
  0
LINE
  5
1A7
330
65D
100
AcDbEntity
  8
HATCH
  6
Continuous
 62
     7
370
    30
100
AcDbLine
 10
34.7315
 20
-9.058021
 30
0.0
 11
34.742688
 21
-9.069208
 31
0.0
  0
LINE
  5
1A8
330
65D
100
AcDbEntity
  8
HATCH
  6
Continuous
 62
     7
370
    30
100
AcDbLine
 10
34.7315
 20
-8.88125
 30
0.0
 11
34.735635
 21
-8.885385
 31
0.0
  0
LINE
  5
1A9
330
65D
100
AcDbEntity
  8
HATCH
  6
Continuous
 62
     7
370
    30
100
AcDbLine
 10
34.381448
 20
-8.88475
 30
0.0
 11
34.466333
 21
-8.969635
 31
0.0
  0
LINE
  5
1AA
330
65D
100
AcDbEntity
  8
HATCH
  6
Continuous
 62
     7
370
    30
100
AcDbLine
 10
34.554719
 20
-9.058021
 30
0.0
 11
34.643115
 21
-9.146406
 31
0.0
  0
LINE
  5
1AB
330
65D
100
AcDbEntity
  8
HATCH
  6
Continuous
 62
     7
370
    30
100
AcDbLine
 10
34.40324
 20
-9.083312
 30
0.0
 11
34.466333
 21
-9.146406
 31
0.0
  0
LINE
  5
1AC
330
65D
100
AcDbEntity
  8
HATCH
  6
Continuous
 62
     7
370
    30
100
AcDbLine
 10
34.445281
 20
-8.882292
 30
0.0
 11
34.499479
 21
-8.93649
 31
0.0
  0
LINE
  5
1AD
330
65D
100
AcDbEntity
  8
HATCH
  6
Continuous
 62
     7
370
    30
100
AcDbLine
 10
34.587865
 20
-9.024875
 30
0.0
 11
34.67626
 21
-9.11326
 31
0.0
  0
LINE
  5
1AE
330
65D
100
AcDbEntity
  8
HATCH
  6
Continuous
 62
     7
370
    30
100
AcDbLine
 10
34.61551
 20
-8.87574
 30
0.0
 11
34.67626
 21
-8.93649
 31
0.0
  0
LINE
  5
1AF
330
65D
100
AcDbEntity
  8
HATCH
  6
Continuous
 62
     7
370
    30
100
AcDbLine
 10
34.764646
 20
-9.024875
 30
0.0
 11
34.775021
 21
-9.03526
 31
0.0
  0
LINE
  5
1B0
330
65D
100
AcDbEntity
  8
HATCH
  6
Continuous
 62
     7
370
    30
100
AcDbLine
 10
34.411094
 20
-9.024875
 30
0.0
 11
34.499479
 21
-9.11326
 31
0.0
  0
LINE
  5
1B1
330
65D
100
AcDbEntity
  8
HATCH
  6
Continuous
 62
     7
370
    30
100
AcDbLine
 10
34.509125
 20
-8.879844
 30
0.0
 11
34.532625
 21
-8.903344
 31
0.0
  0
LINE
  5
1B2
330
65D
100
AcDbEntity
  8
HATCH
  6
Continuous
 62
     7
370
    30
100
AcDbLine
 10
34.62101
 20
-8.991729
 30
0.0
 11
34.709396
 21
-9.080125
 31
0.0
  0
LINE
  5
1B3
330
65D
100
AcDbEntity
  8
HATCH
  6
Continuous
 62
     7
370
    30
100
AcDbLine
 10
34.679344
 20
-8.873292
 30
0.0
 11
34.709396
 21
-8.903344
 31
0.0
  0
LINE
  5
1B4
330
65D
100
AcDbEntity
  8
HATCH
  6
Continuous
 62
     7
370
    30
100
AcDbLine
 10
34.338896
 20
-8.886396
 30
0.0
 11
34.355844
 21
-8.903344
 31
0.0
  0
LINE
  5
1B5
330
65D
100
AcDbEntity
  8
HATCH
  6
Continuous
 62
     7
370
    30
100
AcDbLine
 10
34.44424
 20
-8.991729
 30
0.0
 11
34.532625
 21
-9.080125
 31
0.0
  0
LINE
  5
1B6
330
65D
100
AcDbEntity
  8
HATCH
  6
Continuous
 62
     7
370
    30
100
AcDbLine
 10
34.62101
 20
-9.16851
 30
0.0
 11
34.634885
 21
-9.182385
 31
0.0
  0
LINE
  5
1B7
330
65D
100
AcDbEntity
  8
HATCH
  6
Continuous
 62
     7
370
    30
100
AcDbLine
 10
34.44424
 20
-9.16851
 30
0.0
 11
34.461052
 21
-9.185323
 31
0.0
  0
LINE
  5
1B8
330
65D
100
AcDbEntity
  8
HATCH
  6
Continuous
 62
     7
370
    30
100
AcDbLine
 10
34.466333
 20
-8.991729
 30
0.0
 11
34.554719
 21
-8.903344
 31
0.0
  0
LINE
  5
1B9
330
65D
100
AcDbEntity
  8
HATCH
  6
Continuous
 62
     7
370
    30
100
AcDbLine
 10
34.346594
 20
-8.934698
 30
0.0
 11
34.377948
 21
-8.903344
 31
0.0
  0
LINE
  5
1BA
330
65D
100
AcDbEntity
  8
HATCH
  6
Continuous
 62
     7
370
    30
100
AcDbLine
 10
34.466333
 20
-9.16851
 30
0.0
 11
34.554719
 21
-9.080125
 31
0.0
  0
LINE
  5
1BB
330
65D
100
AcDbEntity
  8
HATCH
  6
Continuous
 62
     7
370
    30
100
AcDbLine
 10
34.643115
 20
-8.991729
 30
0.0
 11
34.7315
 21
-8.903344
 31
0.0
  0
LINE
  5
1BC
330
65D
100
AcDbEntity
  8
HATCH
  6
Continuous
 62
     7
370
    30
100
AcDbLine
 10
34.643115
 20
-9.16851
 30
0.0
 11
34.7315
 21
-9.080125
 31
0.0
  0
LINE
  5
1BD
330
65D
100
AcDbEntity
  8
HATCH
  6
Continuous
 62
     7
370
    30
100
AcDbLine
 10
34.499479
 20
-9.024875
 30
0.0
 11
34.587865
 21
-8.93649
 31
0.0
  0
LINE
  5
1BE
330
65D
100
AcDbEntity
  8
HATCH
  6
Continuous
 62
     7
370
    30
100
AcDbLine
 10
34.364885
 20
-8.982687
 30
0.0
 11
34.411094
 21
-8.93649
 31
0.0
  0
LINE
  5
1BF
330
65D
100
AcDbEntity
  8
HATCH
  6
Continuous
 62
     7
370
    30
100
AcDbLine
 10
34.515812
 20
-9.185323
 30
0.0
 11
34.587865
 21
-9.11326
 31
0.0
  0
LINE
  5
1C0
330
65D
100
AcDbEntity
  8
HATCH
  6
Continuous
 62
     7
370
    30
100
AcDbLine
 10
34.67626
 20
-9.024875
 30
0.0
 11
34.756187
 21
-8.944948
 31
0.0
  0
LINE
  5
1C1
330
65D
100
AcDbEntity
  8
HATCH
  6
Continuous
 62
     7
370
    30
100
AcDbLine
 10
34.383177
 20
-9.030687
 30
0.0
 11
34.44424
 21
-8.969635
 31
0.0
  0
LINE
  5
1C2
330
65D
100
AcDbEntity
  8
HATCH
  6
Continuous
 62
     7
370
    30
100
AcDbLine
 10
34.532625
 20
-8.88125
 30
0.0
 11
34.535031
 21
-8.878844
 31
0.0
  0
LINE
  5
1C3
330
65D
100
AcDbEntity
  8
HATCH
  6
Continuous
 62
     7
370
    30
100
AcDbLine
 10
34.431958
 20
-9.158687
 30
0.0
 11
34.44424
 21
-9.146406
 31
0.0
  0
LINE
  5
1C4
330
65D
100
AcDbEntity
  8
HATCH
  6
Continuous
 62
     7
370
    30
100
AcDbLine
 10
34.532625
 20
-9.058021
 30
0.0
 11
34.62101
 21
-8.969635
 31
0.0
  0
LINE
  5
1C5
330
65D
100
AcDbEntity
  8
HATCH
  6
Continuous
 62
     7
370
    30
100
AcDbLine
 10
34.709396
 20
-8.88125
 30
0.0
 11
34.718885
 21
-8.87176
 31
0.0
  0
LINE
  5
1C6
330
65D
100
AcDbEntity
  8
HATCH
  6
Continuous
 62
     7
370
    30
100
AcDbLine
 10
34.582104
 20
-9.185323
 30
0.0
 11
34.62101
 21
-9.146406
 31
0.0
  0
LINE
  5
1C7
330
65D
100
AcDbEntity
  8
HATCH
  6
Continuous
 62
     7
370
    30
100
AcDbLine
 10
34.709396
 20
-9.058021
 30
0.0
 11
34.773187
 21
-8.994229
 31
0.0
  0
LINE
  5
1C8
330
65D
100
AcDbEntity
  8
HATCH
  6
Continuous
 62
     7
370
    30
100
AcDbLine
 10
35.968937
 20
-8.88125
 30
0.0
 11
36.057323
 21
-8.969635
 31
0.0
  0
LINE
  5
1C9
330
65D
100
AcDbEntity
  8
HATCH
  6
Continuous
 62
     7
370
    30
100
AcDbLine
 10
36.145708
 20
-8.88125
 30
0.0
 11
36.232833
 21
-8.968365
 31
0.0
  0
LINE
  5
1CA
330
65D
100
AcDbEntity
  8
HATCH
  6
Continuous
 62
     7
370
    30
100
AcDbLine
 10
35.792156
 20
-8.88125
 30
0.0
 11
35.880542
 21
-8.969635
 31
0.0
  0
LINE
  5
1CB
330
65D
100
AcDbEntity
  8
HATCH
  6
Continuous
 62
     7
370
    30
100
AcDbLine
 10
36.002083
 20
-8.848104
 30
0.0
 11
36.090469
 21
-8.93649
 31
0.0
  0
LINE
  5
1CC
330
65D
100
AcDbEntity
  8
HATCH
  6
Continuous
 62
     7
370
    30
100
AcDbLine
 10
36.178854
 20
-9.024875
 30
0.0
 11
36.192292
 21
-9.038312
 31
0.0
  0
LINE
  5
1CD
330
65D
100
AcDbEntity
  8
HATCH
  6
Continuous
 62
     7
370
    30
100
AcDbLine
 10
36.178854
 20
-8.848104
 30
0.0
 11
36.257156
 21
-8.926406
 31
0.0
  0
LINE
  5
1CE
330
65D
100
AcDbEntity
  8
HATCH
  6
Continuous
 62
     7
370
    30
100
AcDbLine
 10
35.825302
 20
-8.848104
 30
0.0
 11
35.913688
 21
-8.93649
 31
0.0
  0
LINE
  5
1CF
330
65D
100
AcDbEntity
  8
HATCH
  6
Continuous
 62
     7
370
    30
100
AcDbLine
 10
36.060219
 20
-8.839948
 30
0.0
 11
36.123615
 21
-8.903344
 31
0.0
  0
LINE
  5
1D0
330
65D
100
AcDbEntity
  8
HATCH
  6
Continuous
 62
     7
370
    30
100
AcDbLine
 10
36.212
 20
-8.991729
 30
0.0
 11
36.216615
 21
-8.996344
 31
0.0
  0
LINE
  5
1D1
330
65D
100
AcDbEntity
  8
HATCH
  6
Continuous
 62
     7
370
    30
100
AcDbLine
 10
36.241448
 20
-8.844396
 30
0.0
 11
36.28149
 21
-8.884437
 31
0.0
  0
LINE
  5
1D2
330
65D
100
AcDbEntity
  8
HATCH
  6
Continuous
 62
     7
370
    30
100
AcDbLine
 10
35.878979
 20
-8.83549
 30
0.0
 11
35.946833
 21
-8.903344
 31
0.0
  0
LINE
  5
1D3
330
65D
100
AcDbEntity
  8
HATCH
  6
Continuous
 62
     7
370
    30
100
AcDbLine
 10
35.880542
 20
-8.991729
 30
0.0
 11
35.968937
 21
-8.903344
 31
0.0
  0
LINE
  5
1D4
330
65D
100
AcDbEntity
  8
HATCH
  6
Continuous
 62
     7
370
    30
100
AcDbLine
 10
35.780667
 20
-8.914833
 30
0.0
 11
35.792156
 21
-8.903344
 31
0.0
  0
LINE
  5
1D5
330
65D
100
AcDbEntity
  8
HATCH
  6
Continuous
 62
     7
370
    30
100
AcDbLine
 10
36.057323
 20
-8.991729
 30
0.0
 11
36.145708
 21
-8.903344
 31
0.0
  0
LINE
  5
1D6
330
65D
100
AcDbEntity
  8
HATCH
  6
Continuous
 62
     7
370
    30
100
AcDbLine
 10
35.913688
 20
-9.024875
 30
0.0
 11
36.002083
 21
-8.93649
 31
0.0
  0
LINE
  5
1D7
330
65D
100
AcDbEntity
  8
HATCH
  6
Continuous
 62
     7
370
    30
100
AcDbLine
 10
36.090469
 20
-8.848104
 30
0.0
 11
36.097708
 21
-8.840865
 31
0.0
  0
LINE
  5
1D8
330
65D
100
AcDbEntity
  8
HATCH
  6
Continuous
 62
     7
370
    30
100
AcDbLine
 10
35.791604
 20
-8.970187
 30
0.0
 11
35.825302
 21
-8.93649
 31
0.0
  0
LINE
  5
1D9
330
65D
100
AcDbEntity
  8
HATCH
  6
Continuous
 62
     7
370
    30
100
AcDbLine
 10
35.913688
 20
-8.848104
 30
0.0
 11
35.925167
 21
-8.836625
 31
0.0
  0
LINE
  5
1DA
330
65D
100
AcDbEntity
  8
HATCH
  6
Continuous
 62
     7
370
    30
100
AcDbLine
 10
36.090469
 20
-9.024875
 30
0.0
 11
36.178854
 21
-8.93649
 31
0.0
  0
LINE
  5
1DB
330
65D
100
AcDbEntity
  8
HATCH
  6
Continuous
 62
     7
370
    30
100
AcDbLine
 10
36.26725
 20
-8.848104
 30
0.0
 11
36.27024
 21
-8.845104
 31
0.0
  0
LINE
  5
1DC
330
65D
100
AcDbEntity
  8
HATCH
  6
Continuous
 62
     7
370
    30
100
AcDbLine
 10
35.946833
 20
-9.058021
 30
0.0
 11
36.035229
 21
-8.969635
 31
0.0
  0
LINE
  5
1DD
330
65D
100
AcDbEntity
  8
HATCH
  6
Continuous
 62
     7
370
    30
100
AcDbLine
 10
36.123615
 20
-8.88125
 30
0.0
 11
36.162406
 21
-8.842458
 31
0.0
  0
LINE
  5
1DE
330
65D
100
AcDbEntity
  8
HATCH
  6
Continuous
 62
     7
370
    30
100
AcDbLine
 10
35.802552
 20
-9.025531
 30
0.0
 11
35.858448
 21
-8.969635
 31
0.0
  0
LINE
  5
1DF
330
65D
100
AcDbEntity
  8
HATCH
  6
Continuous
 62
     7
370
    30
100
AcDbLine
 10
35.946833
 20
-8.88125
 30
0.0
 11
35.989875
 21
-8.838219
 31
0.0
  0
LINE
  5
1E0
330
65D
100
AcDbEntity
  8
HATCH
  6
Continuous
 62
     7
370
    30
100
AcDbLine
 10
35.773365
 20
-8.877937
 30
0.0
 11
35.817333
 21
-8.833969
 31
0.0
  0
LINE
  5
1E1
330
65D
100
AcDbEntity
  8
HATCH
  6
Continuous
 62
     7
370
    30
100
AcDbLine
 10
36.123615
 20
-9.058021
 30
0.0
 11
36.212
 21
-8.969635
 31
0.0
  0
LINE
  5
1E2
330
65D
100
AcDbEntity
  8
HATCH
  6
Continuous
 62
     7
370
    30
100
AcDbLine
 10
37.206375
 20
-8.88125
 30
0.0
 11
37.29476
 21
-8.969635
 31
0.0
  0
LINE
  5
1E3
330
65D
100
AcDbEntity
  8
HATCH
  6
Continuous
 62
     7
370
    30
100
AcDbLine
 10
37.383146
 20
-9.058021
 30
0.0
 11
37.471542
 21
-9.146406
 31
0.0
  0
LINE
  5
1E4
330
65D
100
AcDbEntity
  8
HATCH
  6
Continuous
 62
     7
370
    30
100
AcDbLine
 10
37.383146
 20
-8.88125
 30
0.0
 11
37.471542
 21
-8.969635
 31
0.0
  0
LINE
  5
1E5
330
65D
100
AcDbEntity
  8
HATCH
  6
Continuous
 62
     7
370
    30
100
AcDbLine
 10
37.559927
 20
-9.058021
 30
0.0
 11
37.648312
 21
-9.146406
 31
0.0
  0
LINE
  5
1E6
330
65D
100
AcDbEntity
  8
HATCH
  6
Continuous
 62
     7
370
    30
100
AcDbLine
 10
37.559927
 20
-8.88125
 30
0.0
 11
37.648312
 21
-8.969635
 31
0.0
  0
LINE
  5
1E7
330
65D
100
AcDbEntity
  8
HATCH
  6
Continuous
 62
     7
370
    30
100
AcDbLine
 10
37.052094
 20
-8.90375
 30
0.0
 11
37.117979
 21
-8.969635
 31
0.0
  0
LINE
  5
1E8
330
65D
100
AcDbEntity
  8
HATCH
  6
Continuous
 62
     7
370
    30
100
AcDbLine
 10
37.206375
 20
-9.058021
 30
0.0
 11
37.29476
 21
-9.146406
 31
0.0
  0
LINE
  5
1E9
330
65D
100
AcDbEntity
  8
HATCH
  6
Continuous
 62
     7
370
    30
100
AcDbLine
 10
37.260875
 20
-8.869458
 30
0.0
 11
37.327906
 21
-8.93649
 31
0.0
  0
LINE
  5
1EA
330
65D
100
AcDbEntity
  8
HATCH
  6
Continuous
 62
     7
370
    30
100
AcDbLine
 10
37.416292
 20
-9.024875
 30
0.0
 11
37.504687
 21
-9.11326
 31
0.0
  0
LINE
  5
1EB
330
65D
100
AcDbEntity
  8
HATCH
  6
Continuous
 62
     7
370
    30
100
AcDbLine
 10
37.593073
 20
-9.201656
 30
0.0
 11
37.598146
 21
-9.206729
 31
0.0
  0
LINE
  5
1EC
330
65D
100
AcDbEntity
  8
HATCH
  6
Continuous
 62
     7
370
    30
100
AcDbLine
 10
37.442104
 20
-8.873917
 30
0.0
 11
37.504687
 21
-8.93649
 31
0.0
  0
LINE
  5
1ED
330
65D
100
AcDbEntity
  8
HATCH
  6
Continuous
 62
     7
370
    30
100
AcDbLine
 10
37.593073
 20
-9.024875
 30
0.0
 11
37.676271
 21
-9.108073
 31
0.0
  0
LINE
  5
1EE
330
65D
100
AcDbEntity
  8
HATCH
  6
Continuous
 62
     7
370
    30
100
AcDbLine
 10
37.079646
 20
-8.865
 30
0.0
 11
37.151125
 21
-8.93649
 31
0.0
  0
LINE
  5
1EF
330
65D
100
AcDbEntity
  8
HATCH
  6
Continuous
 62
     7
370
    30
100
AcDbLine
 10
37.239521
 20
-9.024875
 30
0.0
 11
37.327906
 21
-9.11326
 31
0.0
  0
LINE
  5
1F0
330
65D
100
AcDbEntity
  8
HATCH
  6
Continuous
 62
     7
370
    30
100
AcDbLine
 10
37.149323
 20
-9.111458
 30
0.0
 11
37.151125
 21
-9.11326
 31
0.0
  0
LINE
  5
1F1
330
65D
100
AcDbEntity
  8
HATCH
  6
Continuous
 62
     7
370
    30
100
AcDbLine
 10
37.328833
 20
-8.871125
 30
0.0
 11
37.361052
 21
-8.903344
 31
0.0
  0
LINE
  5
1F2
330
65D
100
AcDbEntity
  8
HATCH
  6
Continuous
 62
     7
370
    30
100
AcDbLine
 10
37.449438
 20
-8.991729
 30
0.0
 11
37.537823
 21
-9.080125
 31
0.0
  0
LINE
  5
1F3
330
65D
100
AcDbEntity
  8
HATCH
  6
Continuous
 62
     7
370
    30
100
AcDbLine
 10
37.626219
 20
-9.16851
 30
0.0
 11
37.640479
 21
-9.182771
 31
0.0
  0
LINE
  5
1F4
330
65D
100
AcDbEntity
  8
HATCH
  6
Continuous
 62
     7
370
    30
100
AcDbLine
 10
37.510073
 20
-8.875583
 30
0.0
 11
37.537823
 21
-8.903344
 31
0.0
  0
LINE
  5
1F5
330
65D
100
AcDbEntity
  8
HATCH
  6
Continuous
 62
     7
370
    30
100
AcDbLine
 10
37.626219
 20
-8.991729
 30
0.0
 11
37.676271
 21
-9.041781
 31
0.0
  0
LINE
  5
1F6
330
65D
100
AcDbEntity
  8
HATCH
  6
Continuous
 62
     7
370
    30
100
AcDbLine
 10
37.147604
 20
-8.866677
 30
0.0
 11
37.184271
 21
-8.903344
 31
0.0
  0
LINE
  5
1F7
330
65D
100
AcDbEntity
  8
HATCH
  6
Continuous
 62
     7
370
    30
100
AcDbLine
 10
37.272667
 20
-8.991729
 30
0.0
 11
37.361052
 21
-9.080125
 31
0.0
  0
LINE
  5
1F8
330
65D
100
AcDbEntity
  8
HATCH
  6
Continuous
 62
     7
370
    30
100
AcDbLine
 10
37.449438
 20
-9.16851
 30
0.0
 11
37.469052
 21
-9.188125
 31
0.0
  0
LINE
  5
1F9
330
65D
100
AcDbEntity
  8
HATCH
  6
Continuous
 62
     7
370
    30
100
AcDbLine
 10
37.095885
 20
-8.991729
 30
0.0
 11
37.184271
 21
-9.080125
 31
0.0
  0
LINE
  5
1FA
330
65D
100
AcDbEntity
  8
HATCH
  6
Continuous
 62
     7
370
    30
100
AcDbLine
 10
37.157521
 20
-9.128969
 30
0.0
 11
37.206375
 21
-9.080125
 31
0.0
  0
LINE
  5
1FB
330
65D
100
AcDbEntity
  8
HATCH
  6
Continuous
 62
     7
370
    30
100
AcDbLine
 10
37.29476
 20
-8.991729
 30
0.0
 11
37.383146
 21
-8.903344
 31
0.0
  0
LINE
  5
1FC
330
65D
100
AcDbEntity
  8
HATCH
  6
Continuous
 62
     7
370
    30
100
AcDbLine
 10
37.117979
 20
-8.991729
 30
0.0
 11
37.206375
 21
-8.903344
 31
0.0
  0
LINE
  5
1FD
330
65D
100
AcDbEntity
  8
HATCH
  6
Continuous
 62
     7
370
    30
100
AcDbLine
 10
37.301583
 20
-9.161677
 30
0.0
 11
37.383146
 21
-9.080125
 31
0.0
  0
LINE
  5
1FE
330
65D
100
AcDbEntity
  8
HATCH
  6
Continuous
 62
     7
370
    30
100
AcDbLine
 10
37.471542
 20
-8.991729
 30
0.0
 11
37.559927
 21
-8.903344
 31
0.0
  0
LINE
  5
1FF
330
65D
100
AcDbEntity
  8
HATCH
  6
Continuous
 62
     7
370
    30
100
AcDbLine
 10
37.471542
 20
-9.16851
 30
0.0
 11
37.559927
 21
-9.080125
 31
0.0
  0
LINE
  5
200
330
65D
100
AcDbEntity
  8
HATCH
  6
Continuous
 62
     7
370
    30
100
AcDbLine
 10
37.648312
 20
-8.991729
 30
0.0
 11
37.673323
 21
-8.966719
 31
0.0
  0
LINE
  5
201
330
65D
100
AcDbEntity
  8
HATCH
  6
Continuous
 62
     7
370
    30
100
AcDbLine
 10
37.648312
 20
-9.16851
 30
0.0
 11
37.676271
 21
-9.140552
 31
0.0
  0
LINE
  5
202
330
65D
100
AcDbEntity
  8
HATCH
  6
Continuous
 62
     7
370
    30
100
AcDbLine
 10
37.206167
 20
-9.146615
 30
0.0
 11
37.239521
 21
-9.11326
 31
0.0
  0
LINE
  5
203
330
65D
100
AcDbEntity
  8
HATCH
  6
Continuous
 62
     7
370
    30
100
AcDbLine
 10
37.327906
 20
-9.024875
 30
0.0
 11
37.416292
 21
-8.93649
 31
0.0
  0
LINE
  5
204
330
65D
100
AcDbEntity
  8
HATCH
  6
Continuous
 62
     7
370
    30
100
AcDbLine
 10
37.151125
 20
-9.024875
 30
0.0
 11
37.239521
 21
-8.93649
 31
0.0
  0
LINE
  5
205
330
65D
100
AcDbEntity
  8
HATCH
  6
Continuous
 62
     7
370
    30
100
AcDbLine
 10
37.358844
 20
-9.170719
 30
0.0
 11
37.416292
 21
-9.11326
 31
0.0
  0
LINE
  5
206
330
65D
100
AcDbEntity
  8
HATCH
  6
Continuous
 62
     7
370
    30
100
AcDbLine
 10
37.504687
 20
-9.024875
 30
0.0
 11
37.593073
 21
-8.93649
 31
0.0
  0
LINE
  5
207
330
65D
100
AcDbEntity
  8
HATCH
  6
Continuous
 62
     7
370
    30
100
AcDbLine
 10
37.51151
 20
-9.194823
 30
0.0
 11
37.593073
 21
-9.11326
 31
0.0
  0
LINE
  5
208
330
65D
100
AcDbEntity
  8
HATCH
  6
Continuous
 62
     7
370
    30
100
AcDbLine
 10
37.184271
 20
-9.058021
 30
0.0
 11
37.272667
 21
-8.969635
 31
0.0
  0
LINE
  5
209
330
65D
100
AcDbEntity
  8
HATCH
  6
Continuous
 62
     7
370
    30
100
AcDbLine
 10
37.361052
 20
-8.88125
 30
0.0
 11
37.370156
 21
-8.872146
 31
0.0
  0
LINE
  5
20A
330
65D
100
AcDbEntity
  8
HATCH
  6
Continuous
 62
     7
370
    30
100
AcDbLine
 10
37.087063
 20
-8.978458
 30
0.0
 11
37.095885
 21
-8.969635
 31
0.0
  0
LINE
  5
20B
330
65D
100
AcDbEntity
  8
HATCH
  6
Continuous
 62
     7
370
    30
100
AcDbLine
 10
37.184271
 20
-8.88125
 30
0.0
 11
37.197615
 21
-8.867906
 31
0.0
  0
LINE
  5
20C
330
65D
100
AcDbEntity
  8
HATCH
  6
Continuous
 62
     7
370
    30
100
AcDbLine
 10
37.263417
 20
-9.155656
 30
0.0
 11
37.272667
 21
-9.146406
 31
0.0
  0
LINE
  5
20D
330
65D
100
AcDbEntity
  8
HATCH
  6
Continuous
 62
     7
370
    30
100
AcDbLine
 10
37.361052
 20
-9.058021
 30
0.0
 11
37.449438
 21
-8.969635
 31
0.0
  0
LINE
  5
20E
330
65D
100
AcDbEntity
  8
HATCH
  6
Continuous
 62
     7
370
    30
100
AcDbLine
 10
37.537823
 20
-8.88125
 30
0.0
 11
37.542687
 21
-8.876385
 31
0.0
  0
LINE
  5
20F
330
65D
100
AcDbEntity
  8
HATCH
  6
Continuous
 62
     7
370
    30
100
AcDbLine
 10
37.416094
 20
-9.17976
 30
0.0
 11
37.449438
 21
-9.146406
 31
0.0
  0
LINE
  5
210
330
65D
100
AcDbEntity
  8
HATCH
  6
Continuous
 62
     7
370
    30
100
AcDbLine
 10
37.537823
 20
-9.058021
 30
0.0
 11
37.626219
 21
-8.969635
 31
0.0
  0
LINE
  5
211
330
65D
100
AcDbEntity
  8
HATCH
  6
Continuous
 62
     7
370
    30
100
AcDbLine
 10
37.56876
 20
-9.203865
 30
0.0
 11
37.626219
 21
-9.146406
 31
0.0
  0
POINT
  5
212
330
65D
100
AcDbEntity
  8
HATCH
  6
Continuous
 62
     7
370
    30
100
AcDbPoint
 10
37.582021
 20
-8.814958
 30
0.0
  0
POINT
  5
213
330
65D
100
AcDbEntity
  8
HATCH
  6
Continuous
 62
     7
370
    30
100
AcDbPoint
 10
37.626219
 20
-8.859146
 30
0.0
  0
POINT
  5
214
330
65D
100
AcDbEntity
  8
HATCH
  6
Continuous
 62
     7
370
    30
100
AcDbPoint
 10
37.670406
 20
-8.903344
 30
0.0
  0
POINT
  5
215
330
65D
100
AcDbEntity
  8
HATCH
  6
Continuous
 62
     7
370
    30
100
AcDbPoint
 10
37.714604
 20
-8.947542
 30
0.0
  0
POINT
  5
216
330
65D
100
AcDbEntity
  8
HATCH
  6
Continuous
 62
     7
370
    30
100
AcDbPoint
 10
37.758802
 20
-8.991729
 30
0.0
  0
POINT
  5
217
330
65D
100
AcDbEntity
  8
HATCH
  6
Continuous
 62
     7
370
    30
100
AcDbPoint
 10
37.80299
 20
-9.035927
 30
0.0
  0
POINT
  5
218
330
65D
100
AcDbEntity
  8
HATCH
  6
Continuous
 62
     7
370
    30
100
AcDbPoint
 10
37.847187
 20
-9.080125
 30
0.0
  0
POINT
  5
219
330
65D
100
AcDbEntity
  8
HATCH
  6
Continuous
 62
     7
370
    30
100
AcDbPoint
 10
37.891385
 20
-9.124313
 30
0.0
  0
POINT
  5
21A
330
65D
100
AcDbEntity
  8
HATCH
  6
Continuous
 62
     7
370
    30
100
AcDbPoint
 10
37.935573
 20
-9.16851
 30
0.0
  0
POINT
  5
21B
330
65D
100
AcDbEntity
  8
HATCH
  6
Continuous
 62
     7
370
    30
100
AcDbPoint
 10
37.604115
 20
-8.748667
 30
0.0
  0
POINT
  5
21C
330
65D
100
AcDbEntity
  8
HATCH
  6
Continuous
 62
     7
370
    30
100
AcDbPoint
 10
37.648312
 20
-8.792854
 30
0.0
  0
POINT
  5
21D
330
65D
100
AcDbEntity
  8
HATCH
  6
Continuous
 62
     7
370
    30
100
AcDbPoint
 10
37.69251
 20
-8.837052
 30
0.0
  0
POINT
  5
21E
330
65D
100
AcDbEntity
  8
HATCH
  6
Continuous
 62
     7
370
    30
100
AcDbPoint
 10
37.736698
 20
-8.88125
 30
0.0
  0
POINT
  5
21F
330
65D
100
AcDbEntity
  8
HATCH
  6
Continuous
 62
     7
370
    30
100
AcDbPoint
 10
37.780896
 20
-8.925437
 30
0.0
  0
POINT
  5
220
330
65D
100
AcDbEntity
  8
HATCH
  6
Continuous
 62
     7
370
    30
100
AcDbPoint
 10
37.825094
 20
-8.969635
 30
0.0
  0
POINT
  5
221
330
65D
100
AcDbEntity
  8
HATCH
  6
Continuous
 62
     7
370
    30
100
AcDbPoint
 10
37.869281
 20
-9.013833
 30
0.0
  0
POINT
  5
222
330
65D
100
AcDbEntity
  8
HATCH
  6
Continuous
 62
     7
370
    30
100
AcDbPoint
 10
37.913479
 20
-9.058021
 30
0.0
  0
POINT
  5
223
330
65D
100
AcDbEntity
  8
HATCH
  6
Continuous
 62
     7
370
    30
100
AcDbPoint
 10
37.957677
 20
-9.102219
 30
0.0
  0
POINT
  5
224
330
65D
100
AcDbEntity
  8
HATCH
  6
Continuous
 62
     7
370
    30
100
AcDbPoint
 10
37.582021
 20
-8.638177
 30
0.0
  0
POINT
  5
225
330
65D
100
AcDbEntity
  8
HATCH
  6
Continuous
 62
     7
370
    30
100
AcDbPoint
 10
37.626219
 20
-8.682375
 30
0.0
  0
POINT
  5
226
330
65D
100
AcDbEntity
  8
HATCH
  6
Continuous
 62
     7
370
    30
100
AcDbPoint
 10
37.670406
 20
-8.726562
 30
0.0
  0
POINT
  5
227
330
65D
100
AcDbEntity
  8
HATCH
  6
Continuous
 62
     7
370
    30
100
AcDbPoint
 10
37.714604
 20
-8.77076
 30
0.0
  0
POINT
  5
228
330
65D
100
AcDbEntity
  8
HATCH
  6
Continuous
 62
     7
370
    30
100
AcDbPoint
 10
37.758802
 20
-8.814958
 30
0.0
  0
POINT
  5
229
330
65D
100
AcDbEntity
  8
HATCH
  6
Continuous
 62
     7
370
    30
100
AcDbPoint
 10
37.80299
 20
-8.859146
 30
0.0
  0
POINT
  5
22A
330
65D
100
AcDbEntity
  8
HATCH
  6
Continuous
 62
     7
370
    30
100
AcDbPoint
 10
37.847187
 20
-8.903344
 30
0.0
  0
POINT
  5
22B
330
65D
100
AcDbEntity
  8
HATCH
  6
Continuous
 62
     7
370
    30
100
AcDbPoint
 10
37.891385
 20
-8.947542
 30
0.0
  0
POINT
  5
22C
330
65D
100
AcDbEntity
  8
HATCH
  6
Continuous
 62
     7
370
    30
100
AcDbPoint
 10
37.935573
 20
-8.991729
 30
0.0
  0
POINT
  5
22D
330
65D
100
AcDbEntity
  8
HATCH
  6
Continuous
 62
     7
370
    30
100
AcDbPoint
 10
37.604115
 20
-8.571885
 30
0.0
  0
POINT
  5
22E
330
65D
100
AcDbEntity
  8
HATCH
  6
Continuous
 62
     7
370
    30
100
AcDbPoint
 10
37.648312
 20
-8.616083
 30
0.0
  0
POINT
  5
22F
330
65D
100
AcDbEntity
  8
HATCH
  6
Continuous
 62
     7
370
    30
100
AcDbPoint
 10
37.69251
 20
-8.660271
 30
0.0
  0
POINT
  5
230
330
65D
100
AcDbEntity
  8
HATCH
  6
Continuous
 62
     7
370
    30
100
AcDbPoint
 10
37.736698
 20
-8.704469
 30
0.0
  0
POINT
  5
231
330
65D
100
AcDbEntity
  8
HATCH
  6
Continuous
 62
     7
370
    30
100
AcDbPoint
 10
37.780896
 20
-8.748667
 30
0.0
  0
POINT
  5
232
330
65D
100
AcDbEntity
  8
HATCH
  6
Continuous
 62
     7
370
    30
100
AcDbPoint
 10
37.825094
 20
-8.792854
 30
0.0
  0
POINT
  5
233
330
65D
100
AcDbEntity
  8
HATCH
  6
Continuous
 62
     7
370
    30
100
AcDbPoint
 10
37.869281
 20
-8.837052
 30
0.0
  0
POINT
  5
234
330
65D
100
AcDbEntity
  8
HATCH
  6
Continuous
 62
     7
370
    30
100
AcDbPoint
 10
37.913479
 20
-8.88125
 30
0.0
  0
POINT
  5
235
330
65D
100
AcDbEntity
  8
HATCH
  6
Continuous
 62
     7
370
    30
100
AcDbPoint
 10
37.957677
 20
-8.925437
 30
0.0
  0
POINT
  5
236
330
65D
100
AcDbEntity
  8
HATCH
  6
Continuous
 62
     7
370
    30
100
AcDbPoint
 10
37.758802
 20
-8.638177
 30
0.0
  0
POINT
  5
237
330
65D
100
AcDbEntity
  8
HATCH
  6
Continuous
 62
     7
370
    30
100
AcDbPoint
 10
37.80299
 20
-8.682375
 30
0.0
  0
POINT
  5
238
330
65D
100
AcDbEntity
  8
HATCH
  6
Continuous
 62
     7
370
    30
100
AcDbPoint
 10
37.847187
 20
-8.726562
 30
0.0
  0
POINT
  5
239
330
65D
100
AcDbEntity
  8
HATCH
  6
Continuous
 62
     7
370
    30
100
AcDbPoint
 10
37.891385
 20
-8.77076
 30
0.0
  0
POINT
  5
23A
330
65D
100
AcDbEntity
  8
HATCH
  6
Continuous
 62
     7
370
    30
100
AcDbPoint
 10
37.935573
 20
-8.814958
 30
0.0
  0
POINT
  5
23B
330
65D
100
AcDbEntity
  8
HATCH
  6
Continuous
 62
     7
370
    30
100
AcDbPoint
 10
37.869281
 20
-8.660271
 30
0.0
  0
POINT
  5
23C
330
65D
100
AcDbEntity
  8
HATCH
  6
Continuous
 62
     7
370
    30
100
AcDbPoint
 10
37.913479
 20
-8.704469
 30
0.0
  0
POINT
  5
23D
330
65D
100
AcDbEntity
  8
HATCH
  6
Continuous
 62
     7
370
    30
100
AcDbPoint
 10
37.957677
 20
-8.748667
 30
0.0
  0
POINT
  5
23E
330
65D
100
AcDbEntity
  8
HATCH
  6
Continuous
 62
     7
370
    30
100
AcDbPoint
 10
37.69251
 20
-9.013833
 30
0.0
  0
POINT
  5
23F
330
65D
100
AcDbEntity
  8
HATCH
  6
Continuous
 62
     7
370
    30
100
AcDbPoint
 10
37.736698
 20
-9.058021
 30
0.0
  0
POINT
  5
240
330
65D
100
AcDbEntity
  8
HATCH
  6
Continuous
 62
     7
370
    30
100
AcDbPoint
 10
37.780896
 20
-9.102219
 30
0.0
  0
POINT
  5
241
330
65D
100
AcDbEntity
  8
HATCH
  6
Continuous
 62
     7
370
    30
100
AcDbPoint
 10
37.825094
 20
-9.146406
 30
0.0
  0
POINT
  5
242
330
65D
100
AcDbEntity
  8
HATCH
  6
Continuous
 62
     7
370
    30
100
AcDbPoint
 10
37.869281
 20
-9.190604
 30
0.0
  0
POINT
  5
243
330
65D
100
AcDbEntity
  8
HATCH
  6
Continuous
 62
     7
370
    30
100
AcDbPoint
 10
37.913479
 20
-9.234802
 30
0.0
  0
POINT
  5
244
330
65D
100
AcDbEntity
  8
HATCH
  6
Continuous
 62
     7
370
    30
100
AcDbPoint
 10
37.957677
 20
-9.27899
 30
0.0
  0
POINT
  5
245
330
65D
100
AcDbEntity
  8
HATCH
  6
Continuous
 62
     7
370
    30
100
AcDbPoint
 10
37.714604
 20
-9.124313
 30
0.0
  0
POINT
  5
246
330
65D
100
AcDbEntity
  8
HATCH
  6
Continuous
 62
     7
370
    30
100
AcDbPoint
 10
37.758802
 20
-9.16851
 30
0.0
  0
POINT
  5
247
330
65D
100
AcDbEntity
  8
HATCH
  6
Continuous
 62
     7
370
    30
100
AcDbPoint
 10
37.80299
 20
-9.212698
 30
0.0
  0
POINT
  5
248
330
65D
100
AcDbEntity
  8
HATCH
  6
Continuous
 62
     7
370
    30
100
AcDbPoint
 10
37.847187
 20
-9.256896
 30
0.0
  0
POINT
  5
249
330
65D
100
AcDbEntity
  8
HATCH
  6
Continuous
 62
     7
370
    30
100
AcDbPoint
 10
37.891385
 20
-9.301094
 30
0.0
  0
POINT
  5
24A
330
65D
100
AcDbEntity
  8
HATCH
  6
Continuous
 62
     7
370
    30
100
AcDbPoint
 10
37.935573
 20
-9.345281
 30
0.0
  0
POINT
  5
24B
330
65D
100
AcDbEntity
  8
HATCH
  6
Continuous
 62
     7
370
    30
100
AcDbPoint
 10
37.69251
 20
-9.190604
 30
0.0
  0
POINT
  5
24C
330
65D
100
AcDbEntity
  8
HATCH
  6
Continuous
 62
     7
370
    30
100
AcDbPoint
 10
37.736698
 20
-9.234802
 30
0.0
  0
POINT
  5
24D
330
65D
100
AcDbEntity
  8
HATCH
  6
Continuous
 62
     7
370
    30
100
AcDbPoint
 10
37.780896
 20
-9.27899
 30
0.0
  0
POINT
  5
24E
330
65D
100
AcDbEntity
  8
HATCH
  6
Continuous
 62
     7
370
    30
100
AcDbPoint
 10
37.869281
 20
-9.367385
 30
0.0
  0
POINT
  5
24F
330
65D
100
AcDbEntity
  8
HATCH
  6
Continuous
 62
     7
370
    30
100
AcDbPoint
 10
37.913479
 20
-9.411573
 30
0.0
  0
POINT
  5
250
330
65D
100
AcDbEntity
  8
HATCH
  6
Continuous
 62
     7
370
    30
100
AcDbPoint
 10
37.957677
 20
-9.455771
 30
0.0
  0
POINT
  5
251
330
65D
100
AcDbEntity
  8
HATCH
  6
Continuous
 62
     7
370
    30
100
AcDbPoint
 10
37.714604
 20
-9.301094
 30
0.0
  0
POINT
  5
252
330
65D
100
AcDbEntity
  8
HATCH
  6
Continuous
 62
     7
370
    30
100
AcDbPoint
 10
37.847187
 20
-9.433677
 30
0.0
  0
POINT
  5
253
330
65D
100
AcDbEntity
  8
HATCH
  6
Continuous
 62
     7
370
    30
100
AcDbPoint
 10
37.891385
 20
-9.477865
 30
0.0
  0
POINT
  5
254
330
65D
100
AcDbEntity
  8
HATCH
  6
Continuous
 62
     7
370
    30
100
AcDbPoint
 10
37.69251
 20
-9.367385
 30
0.0
  0
POINT
  5
255
330
65D
100
AcDbEntity
  8
HATCH
  6
Continuous
 62
     7
370
    30
100
AcDbPoint
 10
37.736698
 20
-9.411573
 30
0.0
  0
POINT
  5
256
330
65D
100
AcDbEntity
  8
HATCH
  6
Continuous
 62
     7
370
    30
100
AcDbPoint
 10
37.780896
 20
-9.455771
 30
0.0
  0
POINT
  5
257
330
65D
100
AcDbEntity
  8
HATCH
  6
Continuous
 62
     7
370
    30
100
AcDbPoint
 10
37.825094
 20
-9.499969
 30
0.0
  0
POINT
  5
258
330
65D
100
AcDbEntity
  8
HATCH
  6
Continuous
 62
     7
370
    30
100
AcDbPoint
 10
37.714604
 20
-9.477865
 30
0.0
  0
LINE
  5
259
330
65D
100
AcDbEntity
  8
HATCH
  6
Continuous
 62
     7
370
    30
100
AcDbLine
 10
37.96149
 20
-8.752479
 30
0.0
 11
38.001865
 21
-8.792854
 31
0.0
  0
LINE
  5
25A
330
65D
100
AcDbEntity
  8
HATCH
  6
Continuous
 62
     7
370
    30
100
AcDbLine
 10
38.09026
 20
-8.88125
 30
0.0
 11
38.178646
 21
-8.969635
 31
0.0
  0
LINE
  5
25B
330
65D
100
AcDbEntity
  8
HATCH
  6
Continuous
 62
     7
370
    30
100
AcDbLine
 10
38.267031
 20
-9.058021
 30
0.0
 11
38.355417
 21
-9.146406
 31
0.0
  0
LINE
  5
25C
330
65D
100
AcDbEntity
  8
HATCH
  6
Continuous
 62
     7
370
    30
100
AcDbLine
 10
38.122687
 20
-8.736896
 30
0.0
 11
38.178646
 21
-8.792854
 31
0.0
  0
LINE
  5
25D
330
65D
100
AcDbEntity
  8
HATCH
  6
Continuous
 62
     7
370
    30
100
AcDbLine
 10
38.267031
 20
-8.88125
 30
0.0
 11
38.355417
 21
-8.969635
 31
0.0
  0
LINE
  5
25E
330
65D
100
AcDbEntity
  8
HATCH
  6
Continuous
 62
     7
370
    30
100
AcDbLine
 10
38.443812
 20
-9.058021
 30
0.0
 11
38.487063
 21
-9.101271
 31
0.0
  0
LINE
  5
25F
330
65D
100
AcDbEntity
  8
HATCH
  6
Continuous
 62
     7
370
    30
100
AcDbLine
 10
38.312958
 20
-8.750396
 30
0.0
 11
38.355417
 21
-8.792854
 31
0.0
  0
LINE
  5
260
330
65D
100
AcDbEntity
  8
HATCH
  6
Continuous
 62
     7
370
    30
100
AcDbLine
 10
38.443812
 20
-8.88125
 30
0.0
 11
38.532198
 21
-8.969635
 31
0.0
  0
LINE
  5
261
330
65D
100
AcDbEntity
  8
HATCH
  6
Continuous
 62
     7
370
    30
100
AcDbLine
 10
38.620583
 20
-9.058021
 30
0.0
 11
38.647219
 21
-9.084656
 31
0.0
  0
LINE
  5
262
330
65D
100
AcDbEntity
  8
HATCH
  6
Continuous
 62
     7
370
    30
100
AcDbLine
 10
38.501219
 20
-8.761875
 30
0.0
 11
38.532198
 21
-8.792854
 31
0.0
  0
LINE
  5
263
330
65D
100
AcDbEntity
  8
HATCH
  6
Continuous
 62
     7
370
    30
100
AcDbLine
 10
38.620583
 20
-8.88125
 30
0.0
 11
38.708969
 21
-8.969635
 31
0.0
  0
LINE
  5
264
330
65D
100
AcDbEntity
  8
HATCH
  6
Continuous
 62
     7
370
    30
100
AcDbLine
 10
38.797365
 20
-9.058021
 30
0.0
 11
38.807375
 21
-9.068031
 31
0.0
  0
LINE
  5
265
330
65D
100
AcDbEntity
  8
HATCH
  6
Continuous
 62
     7
370
    30
100
AcDbLine
 10
38.689469
 20
-8.773354
 30
0.0
 11
38.708969
 21
-8.792854
 31
0.0
  0
LINE
  5
266
330
65D
100
AcDbEntity
  8
HATCH
  6
Continuous
 62
     7
370
    30
100
AcDbLine
 10
38.797365
 20
-8.88125
 30
0.0
 11
38.88575
 21
-8.969635
 31
0.0
  0
LINE
  5
267
330
65D
100
AcDbEntity
  8
HATCH
  6
Continuous
 62
     7
370
    30
100
AcDbLine
 10
38.877729
 20
-8.784833
 30
0.0
 11
38.88575
 21
-8.792854
 31
0.0
  0
LINE
  5
268
330
65D
100
AcDbEntity
  8
HATCH
  6
Continuous
 62
     7
370
    30
100
AcDbLine
 10
38.974135
 20
-8.88125
 30
0.0
 11
38.98849
 21
-8.895604
 31
0.0
  0
LINE
  5
269
330
65D
100
AcDbEntity
  8
HATCH
  6
Continuous
 62
     7
370
    30
100
AcDbLine
 10
37.96149
 20
-8.92926
 30
0.0
 11
38.001865
 21
-8.969635
 31
0.0
  0
LINE
  5
26A
330
65D
100
AcDbEntity
  8
HATCH
  6
Continuous
 62
     7
370
    30
100
AcDbLine
 10
38.09026
 20
-9.058021
 30
0.0
 11
38.178646
 21
-9.146406
 31
0.0
  0
LINE
  5
26B
330
65D
100
AcDbEntity
  8
HATCH
  6
Continuous
 62
     7
370
    30
100
AcDbLine
 10
38.267031
 20
-9.234802
 30
0.0
 11
38.300667
 21
-9.268437
 31
0.0
  0
LINE
  5
26C
330
65D
100
AcDbEntity
  8
HATCH
  6
Continuous
 62
     7
370
    30
100
AcDbLine
 10
37.96149
 20
-9.106031
 30
0.0
 11
38.001865
 21
-9.146406
 31
0.0
  0
LINE
  5
26D
330
65D
100
AcDbEntity
  8
HATCH
  6
Continuous
 62
     7
370
    30
100
AcDbLine
 10
38.09026
 20
-9.234802
 30
0.0
 11
38.178646
 21
-9.323187
 31
0.0
  0
LINE
  5
26E
330
65D
100
AcDbEntity
  8
HATCH
  6
Continuous
 62
     7
370
    30
100
AcDbLine
 10
37.96149
 20
-9.282813
 30
0.0
 11
38.001865
 21
-9.323187
 31
0.0
  0
LINE
  5
26F
330
65D
100
AcDbEntity
  8
HATCH
  6
Continuous
 62
     7
370
    30
100
AcDbLine
 10
38.09026
 20
-9.411573
 30
0.0
 11
38.178646
 21
-9.499969
 31
0.0
  0
LINE
  5
270
330
65D
100
AcDbEntity
  8
HATCH
  6
Continuous
 62
     7
370
    30
100
AcDbLine
 10
37.96149
 20
-9.459583
 30
0.0
 11
38.001865
 21
-9.499969
 31
0.0
  0
LINE
  5
271
330
65D
100
AcDbEntity
  8
HATCH
  6
Continuous
 62
     7
370
    30
100
AcDbLine
 10
38.09026
 20
-9.588354
 30
0.0
 11
38.125656
 21
-9.62376
 31
0.0
  0
LINE
  5
272
330
65D
100
AcDbEntity
  8
HATCH
  6
Continuous
 62
     7
370
    30
100
AcDbLine
 10
37.913479
 20
-9.588354
 30
0.0
 11
38.001865
 21
-9.67674
 31
0.0
  0
LINE
  5
273
330
65D
100
AcDbEntity
  8
HATCH
  6
Continuous
 62
     7
370
    30
100
AcDbLine
 10
37.599688
 20
-9.451333
 30
0.0
 11
37.648312
 21
-9.499969
 31
0.0
  0
LINE
  5
274
330
65D
100
AcDbEntity
  8
HATCH
  6
Continuous
 62
     7
370
    30
100
AcDbLine
 10
37.736698
 20
-9.588354
 30
0.0
 11
37.825094
 21
-9.67674
 31
0.0
  0
LINE
  5
275
330
65D
100
AcDbEntity
  8
HATCH
  6
Continuous
 62
     7
370
    30
100
AcDbLine
 10
37.579948
 20
-9.608375
 30
0.0
 11
37.648312
 21
-9.67674
 31
0.0
  0
LINE
  5
276
330
65D
100
AcDbEntity
  8
HATCH
  6
Continuous
 62
     7
370
    30
100
AcDbLine
 10
37.96149
 20
-8.862969
 30
0.0
 11
38.03501
 21
-8.93649
 31
0.0
  0
LINE
  5
277
330
65D
100
AcDbEntity
  8
HATCH
  6
Continuous
 62
     7
370
    30
100
AcDbLine
 10
38.123396
 20
-9.024875
 30
0.0
 11
38.211792
 21
-9.11326
 31
0.0
  0
LINE
  5
278
330
65D
100
AcDbEntity
  8
HATCH
  6
Continuous
 62
     7
370
    30
100
AcDbLine
 10
38.300177
 20
-9.201656
 30
0.0
 11
38.322542
 21
-9.224021
 31
0.0
  0
LINE
  5
279
330
65D
100
AcDbEntity
  8
HATCH
  6
Continuous
 62
     7
370
    30
100
AcDbLine
 10
37.96149
 20
-8.686187
 30
0.0
 11
38.03501
 21
-8.759708
 31
0.0
  0
LINE
  5
27A
330
65D
100
AcDbEntity
  8
HATCH
  6
Continuous
 62
     7
370
    30
100
AcDbLine
 10
38.123396
 20
-8.848104
 30
0.0
 11
38.211792
 21
-8.93649
 31
0.0
  0
LINE
  5
27B
330
65D
100
AcDbEntity
  8
HATCH
  6
Continuous
 62
     7
370
    30
100
AcDbLine
 10
38.300177
 20
-9.024875
 30
0.0
 11
38.386958
 21
-9.111667
 31
0.0
  0
LINE
  5
27C
330
65D
100
AcDbEntity
  8
HATCH
  6
Continuous
 62
     7
370
    30
100
AcDbLine
 10
38.195302
 20
-8.743229
 30
0.0
 11
38.211792
 21
-8.759708
 31
0.0
  0
LINE
  5
27D
330
65D
100
AcDbEntity
  8
HATCH
  6
Continuous
 62
     7
370
    30
100
AcDbLine
 10
38.300177
 20
-8.848104
 30
0.0
 11
38.388562
 21
-8.93649
 31
0.0
  0
LINE
  5
27E
330
65D
100
AcDbEntity
  8
HATCH
  6
Continuous
 62
     7
370
    30
100
AcDbLine
 10
38.476958
 20
-9.024875
 30
0.0
 11
38.547115
 21
-9.095042
 31
0.0
  0
LINE
  5
27F
330
65D
100
AcDbEntity
  8
HATCH
  6
Continuous
 62
     7
370
    30
100
AcDbLine
 10
38.383552
 20
-8.754698
 30
0.0
 11
38.388562
 21
-8.759708
 31
0.0
  0
LINE
  5
280
330
65D
100
AcDbEntity
  8
HATCH
  6
Continuous
 62
     7
370
    30
100
AcDbLine
 10
38.476958
 20
-8.848104
 30
0.0
 11
38.565344
 21
-8.93649
 31
0.0
  0
LINE
  5
281
330
65D
100
AcDbEntity
  8
HATCH
  6
Continuous
 62
     7
370
    30
100
AcDbLine
 10
38.653729
 20
-9.024875
 30
0.0
 11
38.707271
 21
-9.078427
 31
0.0
  0
LINE
  5
282
330
65D
100
AcDbEntity
  8
HATCH
  6
Continuous
 62
     7
370
    30
100
AcDbLine
 10
38.653729
 20
-8.848104
 30
0.0
 11
38.742115
 21
-8.93649
 31
0.0
  0
LINE
  5
283
330
65D
100
AcDbEntity
  8
HATCH
  6
Continuous
 62
     7
370
    30
100
AcDbLine
 10
38.83051
 20
-9.024875
 30
0.0
 11
38.867438
 21
-9.061802
 31
0.0
  0
LINE
  5
284
330
65D
100
AcDbEntity
  8
HATCH
  6
Continuous
 62
     7
370
    30
100
AcDbLine
 10
38.83051
 20
-8.848104
 30
0.0
 11
38.918896
 21
-8.93649
 31
0.0
  0
LINE
  5
285
330
65D
100
AcDbEntity
  8
HATCH
  6
Continuous
 62
     7
370
    30
100
AcDbLine
 10
39.007281
 20
-8.848104
 30
0.0
 11
39.013438
 21
-8.85425
 31
0.0
  0
LINE
  5
286
330
65D
100
AcDbEntity
  8
HATCH
  6
Continuous
 62
     7
370
    30
100
AcDbLine
 10
37.96149
 20
-9.03974
 30
0.0
 11
38.03501
 21
-9.11326
 31
0.0
  0
LINE
  5
287
330
65D
100
AcDbEntity
  8
HATCH
  6
Continuous
 62
     7
370
    30
100
AcDbLine
 10
38.123396
 20
-9.201656
 30
0.0
 11
38.211792
 21
-9.290042
 31
0.0
  0
LINE
  5
288
330
65D
100
AcDbEntity
  8
HATCH
  6
Continuous
 62
     7
370
    30
100
AcDbLine
 10
37.96149
 20
-9.216521
 30
0.0
 11
38.03501
 21
-9.290042
 31
0.0
  0
LINE
  5
289
330
65D
100
AcDbEntity
  8
HATCH
  6
Continuous
 62
     7
370
    30
100
AcDbLine
 10
38.123396
 20
-9.378427
 30
0.0
 11
38.205875
 21
-9.460896
 31
0.0
  0
LINE
  5
28A
330
65D
100
AcDbEntity
  8
HATCH
  6
Continuous
 62
     7
370
    30
100
AcDbLine
 10
37.96149
 20
-9.393292
 30
0.0
 11
38.03501
 21
-9.466823
 31
0.0
  0
LINE
  5
28B
330
65D
100
AcDbEntity
  8
HATCH
  6
Continuous
 62
     7
370
    30
100
AcDbLine
 10
38.123396
 20
-9.555208
 30
0.0
 11
38.147531
 21
-9.579344
 31
0.0
  0
LINE
  5
28C
330
65D
100
AcDbEntity
  8
HATCH
  6
Continuous
 62
     7
370
    30
100
AcDbLine
 10
37.946625
 20
-9.555208
 30
0.0
 11
38.03501
 21
-9.643594
 31
0.0
  0
LINE
  5
28D
330
65D
100
AcDbEntity
  8
HATCH
  6
Continuous
 62
     7
370
    30
100
AcDbLine
 10
37.62976
 20
-9.415115
 30
0.0
 11
37.676271
 21
-9.461635
 31
0.0
  0
LINE
  5
28E
330
65D
100
AcDbEntity
  8
HATCH
  6
Continuous
 62
     7
370
    30
100
AcDbLine
 10
37.769844
 20
-9.555208
 30
0.0
 11
37.85824
 21
-9.643594
 31
0.0
  0
LINE
  5
28F
330
65D
100
AcDbEntity
  8
HATCH
  6
Continuous
 62
     7
370
    30
100
AcDbLine
 10
37.946625
 20
-9.731979
 30
0.0
 11
37.973927
 21
-9.759281
 31
0.0
  0
LINE
  5
290
330
65D
100
AcDbEntity
  8
HATCH
  6
Continuous
 62
     7
370
    30
100
AcDbLine
 10
37.593073
 20
-9.555208
 30
0.0
 11
37.681458
 21
-9.643594
 31
0.0
  0
LINE
  5
291
330
65D
100
AcDbEntity
  8
HATCH
  6
Continuous
 62
     7
370
    30
100
AcDbLine
 10
37.769844
 20
-9.731979
 30
0.0
 11
37.795208
 21
-9.757344
 31
0.0
  0
LINE
  5
292
330
65D
100
AcDbEntity
  8
HATCH
  6
Continuous
 62
     7
370
    30
100
AcDbLine
 10
37.613094
 20
-9.75201
 30
0.0
 11
37.61649
 21
-9.755396
 31
0.0
  0
LINE
  5
293
330
65D
100
AcDbEntity
  8
HATCH
  6
Continuous
 62
     7
370
    30
100
AcDbLine
 10
37.979771
 20
-8.814958
 30
0.0
 11
38.068156
 21
-8.903344
 31
0.0
  0
LINE
  5
294
330
65D
100
AcDbEntity
  8
HATCH
  6
Continuous
 62
     7
370
    30
100
AcDbLine
 10
38.156542
 20
-8.991729
 30
0.0
 11
38.244937
 21
-9.080125
 31
0.0
  0
LINE
  5
295
330
65D
100
AcDbEntity
  8
HATCH
  6
Continuous
 62
     7
370
    30
100
AcDbLine
 10
38.333323
 20
-9.16851
 30
0.0
 11
38.344417
 21
-9.179604
 31
0.0
  0
LINE
  5
296
330
65D
100
AcDbEntity
  8
HATCH
  6
Continuous
 62
     7
370
    30
100
AcDbLine
 10
38.05576
 20
-8.714167
 30
0.0
 11
38.068156
 21
-8.726562
 31
0.0
  0
LINE
  5
297
330
65D
100
AcDbEntity
  8
HATCH
  6
Continuous
 62
     7
370
    30
100
AcDbLine
 10
38.156542
 20
-8.814958
 30
0.0
 11
38.244937
 21
-8.903344
 31
0.0
  0
LINE
  5
298
330
65D
100
AcDbEntity
  8
HATCH
  6
Continuous
 62
     7
370
    30
100
AcDbLine
 10
38.333323
 20
-8.991729
 30
0.0
 11
38.421708
 21
-9.080125
 31
0.0
  0
LINE
  5
299
330
65D
100
AcDbEntity
  8
HATCH
  6
Continuous
 62
     7
370
    30
100
AcDbLine
 10
38.333323
 20
-8.814958
 30
0.0
 11
38.421708
 21
-8.903344
 31
0.0
  0
LINE
  5
29A
330
65D
100
AcDbEntity
  8
HATCH
  6
Continuous
 62
     7
370
    30
100
AcDbLine
 10
38.510104
 20
-8.991729
 30
0.0
 11
38.59849
 21
-9.080125
 31
0.0
  0
LINE
  5
29B
330
65D
100
AcDbEntity
  8
HATCH
  6
Continuous
 62
     7
370
    30
100
AcDbLine
 10
38.510104
 20
-8.814958
 30
0.0
 11
38.59849
 21
-8.903344
 31
0.0
  0
LINE
  5
29C
330
65D
100
AcDbEntity
  8
HATCH
  6
Continuous
 62
     7
370
    30
100
AcDbLine
 10
38.686875
 20
-8.991729
 30
0.0
 11
38.767333
 21
-9.072188
 31
0.0
  0
LINE
  5
29D
330
65D
100
AcDbEntity
  8
HATCH
  6
Continuous
 62
     7
370
    30
100
AcDbLine
 10
38.686875
 20
-8.814958
 30
0.0
 11
38.77526
 21
-8.903344
 31
0.0
  0
LINE
  5
29E
330
65D
100
AcDbEntity
  8
HATCH
  6
Continuous
 62
     7
370
    30
100
AcDbLine
 10
38.863656
 20
-8.991729
 30
0.0
 11
38.905354
 21
-9.033427
 31
0.0
  0
LINE
  5
29F
330
65D
100
AcDbEntity
  8
HATCH
  6
Continuous
 62
     7
370
    30
100
AcDbLine
 10
38.863656
 20
-8.814958
 30
0.0
 11
38.952042
 21
-8.903344
 31
0.0
  0
LINE
  5
2A0
330
65D
100
AcDbEntity
  8
HATCH
  6
Continuous
 62
     7
370
    30
100
AcDbLine
 10
37.979771
 20
-8.991729
 30
0.0
 11
38.068156
 21
-9.080125
 31
0.0
  0
LINE
  5
2A1
330
65D
100
AcDbEntity
  8
HATCH
  6
Continuous
 62
     7
370
    30
100
AcDbLine
 10
38.156542
 20
-9.16851
 30
0.0
 11
38.244937
 21
-9.256896
 31
0.0
  0
LINE
  5
2A2
330
65D
100
AcDbEntity
  8
HATCH
  6
Continuous
 62
     7
370
    30
100
AcDbLine
 10
37.979771
 20
-9.16851
 30
0.0
 11
38.068156
 21
-9.256896
 31
0.0
  0
LINE
  5
2A3
330
65D
100
AcDbEntity
  8
HATCH
  6
Continuous
 62
     7
370
    30
100
AcDbLine
 10
38.156542
 20
-9.345281
 30
0.0
 11
38.22775
 21
-9.41649
 31
0.0
  0
LINE
  5
2A4
330
65D
100
AcDbEntity
  8
HATCH
  6
Continuous
 62
     7
370
    30
100
AcDbLine
 10
37.979771
 20
-9.345281
 30
0.0
 11
38.068156
 21
-9.433677
 31
0.0
  0
LINE
  5
2A5
330
65D
100
AcDbEntity
  8
HATCH
  6
Continuous
 62
     7
370
    30
100
AcDbLine
 10
38.156542
 20
-9.522063
 30
0.0
 11
38.169406
 21
-9.534927
 31
0.0
  0
LINE
  5
2A6
330
65D
100
AcDbEntity
  8
HATCH
  6
Continuous
 62
     7
370
    30
100
AcDbLine
 10
37.979771
 20
-9.522063
 30
0.0
 11
38.068156
 21
-9.610448
 31
0.0
  0
LINE
  5
2A7
330
65D
100
AcDbEntity
  8
HATCH
  6
Continuous
 62
     7
370
    30
100
AcDbLine
 10
37.659833
 20
-9.378906
 30
0.0
 11
37.676271
 21
-9.395344
 31
0.0
  0
LINE
  5
2A8
330
65D
100
AcDbEntity
  8
HATCH
  6
Continuous
 62
     7
370
    30
100
AcDbLine
 10
37.80299
 20
-9.522063
 30
0.0
 11
37.891385
 21
-9.610448
 31
0.0
  0
LINE
  5
2A9
330
65D
100
AcDbEntity
  8
HATCH
  6
Continuous
 62
     7
370
    30
100
AcDbLine
 10
37.979771
 20
-9.698833
 30
0.0
 11
38.040948
 21
-9.76001
 31
0.0
  0
LINE
  5
2AA
330
65D
100
AcDbEntity
  8
HATCH
  6
Continuous
 62
     7
370
    30
100
AcDbLine
 10
37.626219
 20
-9.522063
 30
0.0
 11
37.714604
 21
-9.610448
 31
0.0
  0
LINE
  5
2AB
330
65D
100
AcDbEntity
  8
HATCH
  6
Continuous
 62
     7
370
    30
100
AcDbLine
 10
37.80299
 20
-9.698833
 30
0.0
 11
37.862229
 21
-9.758073
 31
0.0
  0
LINE
  5
2AC
330
65D
100
AcDbEntity
  8
HATCH
  6
Continuous
 62
     7
370
    30
100
AcDbLine
 10
37.626219
 20
-9.698833
 30
0.0
 11
37.68351
 21
-9.756125
 31
0.0
  0
LINE
  5
2AD
330
65D
100
AcDbEntity
  8
HATCH
  6
Continuous
 62
     7
370
    30
100
AcDbLine
 10
37.648312
 20
-9.698833
 30
0.0
 11
37.736698
 21
-9.610448
 31
0.0
  0
LINE
  5
2AE
330
65D
100
AcDbEntity
  8
HATCH
  6
Continuous
 62
     7
370
    30
100
AcDbLine
 10
37.825094
 20
-9.522063
 30
0.0
 11
37.831896
 21
-9.51525
 31
0.0
  0
LINE
  5
2AF
330
65D
100
AcDbEntity
  8
HATCH
  6
Continuous
 62
     7
370
    30
100
AcDbLine
 10
38.001865
 20
-9.345281
 30
0.0
 11
38.09026
 21
-9.256896
 31
0.0
  0
LINE
  5
2B0
330
65D
100
AcDbEntity
  8
HATCH
  6
Continuous
 62
     7
370
    30
100
AcDbLine
 10
38.178646
 20
-9.16851
 30
0.0
 11
38.267031
 21
-9.080125
 31
0.0
  0
LINE
  5
2B1
330
65D
100
AcDbEntity
  8
HATCH
  6
Continuous
 62
     7
370
    30
100
AcDbLine
 10
38.355417
 20
-8.991729
 30
0.0
 11
38.443812
 21
-8.903344
 31
0.0
  0
LINE
  5
2B2
330
65D
100
AcDbEntity
  8
HATCH
  6
Continuous
 62
     7
370
    30
100
AcDbLine
 10
38.532198
 20
-8.814958
 30
0.0
 11
38.580448
 21
-8.766708
 31
0.0
  0
LINE
  5
2B3
330
65D
100
AcDbEntity
  8
HATCH
  6
Continuous
 62
     7
370
    30
100
AcDbLine
 10
37.648312
 20
-9.522063
 30
0.0
 11
37.676271
 21
-9.494104
 31
0.0
  0
LINE
  5
2B4
330
65D
100
AcDbEntity
  8
HATCH
  6
Continuous
 62
     7
370
    30
100
AcDbLine
 10
38.001865
 20
-9.16851
 30
0.0
 11
38.09026
 21
-9.080125
 31
0.0
  0
LINE
  5
2B5
330
65D
100
AcDbEntity
  8
HATCH
  6
Continuous
 62
     7
370
    30
100
AcDbLine
 10
38.178646
 20
-8.991729
 30
0.0
 11
38.267031
 21
-8.903344
 31
0.0
  0
LINE
  5
2B6
330
65D
100
AcDbEntity
  8
HATCH
  6
Continuous
 62
     7
370
    30
100
AcDbLine
 10
38.355417
 20
-8.814958
 30
0.0
 11
38.413823
 21
-8.756552
 31
0.0
  0
LINE
  5
2B7
330
65D
100
AcDbEntity
  8
HATCH
  6
Continuous
 62
     7
370
    30
100
AcDbLine
 10
38.001865
 20
-8.991729
 30
0.0
 11
38.09026
 21
-8.903344
 31
0.0
  0
LINE
  5
2B8
330
65D
100
AcDbEntity
  8
HATCH
  6
Continuous
 62
     7
370
    30
100
AcDbLine
 10
38.178646
 20
-8.814958
 30
0.0
 11
38.247208
 21
-8.746385
 31
0.0
  0
LINE
  5
2B9
330
65D
100
AcDbEntity
  8
HATCH
  6
Continuous
 62
     7
370
    30
100
AcDbLine
 10
38.001865
 20
-8.814958
 30
0.0
 11
38.09026
 21
-8.726562
 31
0.0
  0
LINE
  5
2BA
330
65D
100
AcDbEntity
  8
HATCH
  6
Continuous
 62
     7
370
    30
100
AcDbLine
 10
37.825094
 20
-9.698833
 30
0.0
 11
37.913479
 21
-9.610448
 31
0.0
  0
LINE
  5
2BB
330
65D
100
AcDbEntity
  8
HATCH
  6
Continuous
 62
     7
370
    30
100
AcDbLine
 10
38.001865
 20
-9.522063
 30
0.0
 11
38.09026
 21
-9.433677
 31
0.0
  0
LINE
  5
2BC
330
65D
100
AcDbEntity
  8
HATCH
  6
Continuous
 62
     7
370
    30
100
AcDbLine
 10
38.178646
 20
-9.345281
 30
0.0
 11
38.267031
 21
-9.256896
 31
0.0
  0
LINE
  5
2BD
330
65D
100
AcDbEntity
  8
HATCH
  6
Continuous
 62
     7
370
    30
100
AcDbLine
 10
38.415198
 20
-9.108729
 30
0.0
 11
38.443812
 21
-9.080125
 31
0.0
  0
LINE
  5
2BE
330
65D
100
AcDbEntity
  8
HATCH
  6
Continuous
 62
     7
370
    30
100
AcDbLine
 10
38.532198
 20
-8.991729
 30
0.0
 11
38.620583
 21
-8.903344
 31
0.0
  0
LINE
  5
2BF
330
65D
100
AcDbEntity
  8
HATCH
  6
Continuous
 62
     7
370
    30
100
AcDbLine
 10
38.708969
 20
-8.814958
 30
0.0
 11
38.747062
 21
-8.776865
 31
0.0
  0
LINE
  5
2C0
330
65D
100
AcDbEntity
  8
HATCH
  6
Continuous
 62
     7
370
    30
100
AcDbLine
 10
38.001865
 20
-9.698833
 30
0.0
 11
38.09026
 21
-9.610448
 31
0.0
  0
LINE
  5
2C1
330
65D
100
AcDbEntity
  8
HATCH
  6
Continuous
 62
     7
370
    30
100
AcDbLine
 10
38.612437
 20
-9.08826
 30
0.0
 11
38.620583
 21
-9.080125
 31
0.0
  0
LINE
  5
2C2
330
65D
100
AcDbEntity
  8
HATCH
  6
Continuous
 62
     7
370
    30
100
AcDbLine
 10
38.708969
 20
-8.991729
 30
0.0
 11
38.797365
 21
-8.903344
 31
0.0
  0
LINE
  5
2C3
330
65D
100
AcDbEntity
  8
HATCH
  6
Continuous
 62
     7
370
    30
100
AcDbLine
 10
38.88575
 20
-8.814958
 30
0.0
 11
38.913677
 21
-8.787021
 31
0.0
  0
LINE
  5
2C4
330
65D
100
AcDbEntity
  8
HATCH
  6
Continuous
 62
     7
370
    30
100
AcDbLine
 10
38.88575
 20
-8.991729
 30
0.0
 11
38.974135
 21
-8.903344
 31
0.0
  0
LINE
  5
2C5
330
65D
100
AcDbEntity
  8
HATCH
  6
Continuous
 62
     7
370
    30
100
AcDbLine
 10
37.681458
 20
-9.731979
 30
0.0
 11
37.769844
 21
-9.643594
 31
0.0
  0
LINE
  5
2C6
330
65D
100
AcDbEntity
  8
HATCH
  6
Continuous
 62
     7
370
    30
100
AcDbLine
 10
37.85824
 20
-9.555208
 30
0.0
 11
37.898187
 21
-9.51525
 31
0.0
  0
LINE
  5
2C7
330
65D
100
AcDbEntity
  8
HATCH
  6
Continuous
 62
     7
370
    30
100
AcDbLine
 10
38.03501
 20
-9.378427
 30
0.0
 11
38.123396
 21
-9.290042
 31
0.0
  0
LINE
  5
2C8
330
65D
100
AcDbEntity
  8
HATCH
  6
Continuous
 62
     7
370
    30
100
AcDbLine
 10
38.211792
 20
-9.201656
 30
0.0
 11
38.300177
 21
-9.11326
 31
0.0
  0
LINE
  5
2C9
330
65D
100
AcDbEntity
  8
HATCH
  6
Continuous
 62
     7
370
    30
100
AcDbLine
 10
38.388562
 20
-9.024875
 30
0.0
 11
38.476958
 21
-8.93649
 31
0.0
  0
LINE
  5
2CA
330
65D
100
AcDbEntity
  8
HATCH
  6
Continuous
 62
     7
370
    30
100
AcDbLine
 10
38.565344
 20
-8.848104
 30
0.0
 11
38.642927
 21
-8.770521
 31
0.0
  0
LINE
  5
2CB
330
65D
100
AcDbEntity
  8
HATCH
  6
Continuous
 62
     7
370
    30
100
AcDbLine
 10
37.58901
 20
-9.647656
 30
0.0
 11
37.593073
 21
-9.643594
 31
0.0
  0
LINE
  5
2CC
330
65D
100
AcDbEntity
  8
HATCH
  6
Continuous
 62
     7
370
    30
100
AcDbLine
 10
37.681458
 20
-9.555208
 30
0.0
 11
37.721417
 21
-9.51525
 31
0.0
  0
LINE
  5
2CD
330
65D
100
AcDbEntity
  8
HATCH
  6
Continuous
 62
     7
370
    30
100
AcDbLine
 10
38.03501
 20
-9.201656
 30
0.0
 11
38.123396
 21
-9.11326
 31
0.0
  0
LINE
  5
2CE
330
65D
100
AcDbEntity
  8
HATCH
  6
Continuous
 62
     7
370
    30
100
AcDbLine
 10
38.211792
 20
-9.024875
 30
0.0
 11
38.300177
 21
-8.93649
 31
0.0
  0
LINE
  5
2CF
330
65D
100
AcDbEntity
  8
HATCH
  6
Continuous
 62
     7
370
    30
100
AcDbLine
 10
38.388562
 20
-8.848104
 30
0.0
 11
38.476312
 21
-8.760354
 31
0.0
  0
LINE
  5
2D0
330
65D
100
AcDbEntity
  8
HATCH
  6
Continuous
 62
     7
370
    30
100
AcDbLine
 10
37.55626
 20
-9.503635
 30
0.0
 11
37.593073
 21
-9.466823
 31
0.0
  0
LINE
  5
2D1
330
65D
100
AcDbEntity
  8
HATCH
  6
Continuous
 62
     7
370
    30
100
AcDbLine
 10
38.03501
 20
-9.024875
 30
0.0
 11
38.123396
 21
-8.93649
 31
0.0
  0
LINE
  5
2D2
330
65D
100
AcDbEntity
  8
HATCH
  6
Continuous
 62
     7
370
    30
100
AcDbLine
 10
38.211792
 20
-8.848104
 30
0.0
 11
38.300177
 21
-8.759708
 31
0.0
  0
LINE
  5
2D3
330
65D
100
AcDbEntity
  8
HATCH
  6
Continuous
 62
     7
370
    30
100
AcDbLine
 10
38.03501
 20
-8.848104
 30
0.0
 11
38.123396
 21
-8.759708
 31
0.0
  0
LINE
  5
2D4
330
65D
100
AcDbEntity
  8
HATCH
  6
Continuous
 62
     7
370
    30
100
AcDbLine
 10
37.85824
 20
-9.731979
 30
0.0
 11
37.946625
 21
-9.643594
 31
0.0
  0
LINE
  5
2D5
330
65D
100
AcDbEntity
  8
HATCH
  6
Continuous
 62
     7
370
    30
100
AcDbLine
 10
38.03501
 20
-9.555208
 30
0.0
 11
38.123396
 21
-9.466823
 31
0.0
  0
LINE
  5
2D6
330
65D
100
AcDbEntity
  8
HATCH
  6
Continuous
 62
     7
370
    30
100
AcDbLine
 10
38.211792
 20
-9.378427
 30
0.0
 11
38.280167
 21
-9.310052
 31
0.0
  0
LINE
  5
2D7
330
65D
100
AcDbEntity
  8
HATCH
  6
Continuous
 62
     7
370
    30
100
AcDbLine
 10
38.565344
 20
-9.024875
 30
0.0
 11
38.653729
 21
-8.93649
 31
0.0
  0
LINE
  5
2D8
330
65D
100
AcDbEntity
  8
HATCH
  6
Continuous
 62
     7
370
    30
100
AcDbLine
 10
38.742115
 20
-8.848104
 30
0.0
 11
38.809542
 21
-8.780677
 31
0.0
  0
LINE
  5
2D9
330
65D
100
AcDbEntity
  8
HATCH
  6
Continuous
 62
     7
370
    30
100
AcDbLine
 10
38.03501
 20
-9.731979
 30
0.0
 11
38.108594
 21
-9.658406
 31
0.0
  0
LINE
  5
2DA
330
65D
100
AcDbEntity
  8
HATCH
  6
Continuous
 62
     7
370
    30
100
AcDbLine
 10
38.742115
 20
-9.024875
 30
0.0
 11
38.83051
 21
-8.93649
 31
0.0
  0
LINE
  5
2DB
330
65D
100
AcDbEntity
  8
HATCH
  6
Continuous
 62
     7
370
    30
100
AcDbLine
 10
38.918896
 20
-8.848104
 30
0.0
 11
38.976156
 21
-8.790833
 31
0.0
  0
LINE
  5
2DC
330
65D
100
AcDbEntity
  8
HATCH
  6
Continuous
 62
     7
370
    30
100
AcDbLine
 10
37.723177
 20
-9.756562
 30
0.0
 11
37.80299
 21
-9.67674
 31
0.0
  0
LINE
  5
2DD
330
65D
100
AcDbEntity
  8
HATCH
  6
Continuous
 62
     7
370
    30
100
AcDbLine
 10
37.891385
 20
-9.588354
 30
0.0
 11
37.979771
 21
-9.499969
 31
0.0
  0
LINE
  5
2DE
330
65D
100
AcDbEntity
  8
HATCH
  6
Continuous
 62
     7
370
    30
100
AcDbLine
 10
38.068156
 20
-9.411573
 30
0.0
 11
38.156542
 21
-9.323187
 31
0.0
  0
LINE
  5
2DF
330
65D
100
AcDbEntity
  8
HATCH
  6
Continuous
 62
     7
370
    30
100
AcDbLine
 10
38.244937
 20
-9.234802
 30
0.0
 11
38.333323
 21
-9.146406
 31
0.0
  0
LINE
  5
2E0
330
65D
100
AcDbEntity
  8
HATCH
  6
Continuous
 62
     7
370
    30
100
AcDbLine
 10
38.421708
 20
-9.058021
 30
0.0
 11
38.510104
 21
-8.969635
 31
0.0
  0
LINE
  5
2E1
330
65D
100
AcDbEntity
  8
HATCH
  6
Continuous
 62
     7
370
    30
100
AcDbLine
 10
38.59849
 20
-8.88125
 30
0.0
 11
38.686875
 21
-8.792854
 31
0.0
  0
LINE
  5
2E2
330
65D
100
AcDbEntity
  8
HATCH
  6
Continuous
 62
     7
370
    30
100
AcDbLine
 10
37.601448
 20
-9.70151
 30
0.0
 11
37.626219
 21
-9.67674
 31
0.0
  0
LINE
  5
2E3
330
65D
100
AcDbEntity
  8
HATCH
  6
Continuous
 62
     7
370
    30
100
AcDbLine
 10
37.714604
 20
-9.588354
 30
0.0
 11
37.787698
 21
-9.51525
 31
0.0
  0
LINE
  5
2E4
330
65D
100
AcDbEntity
  8
HATCH
  6
Continuous
 62
     7
370
    30
100
AcDbLine
 10
37.96149
 20
-9.341469
 30
0.0
 11
37.979771
 21
-9.323187
 31
0.0
  0
LINE
  5
2E5
330
65D
100
AcDbEntity
  8
HATCH
  6
Continuous
 62
     7
370
    30
100
AcDbLine
 10
38.068156
 20
-9.234802
 30
0.0
 11
38.156542
 21
-9.146406
 31
0.0
  0
LINE
  5
2E6
330
65D
100
AcDbEntity
  8
HATCH
  6
Continuous
 62
     7
370
    30
100
AcDbLine
 10
38.244937
 20
-9.058021
 30
0.0
 11
38.333323
 21
-8.969635
 31
0.0
  0
LINE
  5
2E7
330
65D
100
AcDbEntity
  8
HATCH
  6
Continuous
 62
     7
370
    30
100
AcDbLine
 10
38.421708
 20
-8.88125
 30
0.0
 11
38.510104
 21
-8.792854
 31
0.0
  0
LINE
  5
2E8
330
65D
100
AcDbEntity
  8
HATCH
  6
Continuous
 62
     7
370
    30
100
AcDbLine
 10
37.568302
 20
-9.557885
 30
0.0
 11
37.626219
 21
-9.499969
 31
0.0
  0
LINE
  5
2E9
330
65D
100
AcDbEntity
  8
HATCH
  6
Continuous
 62
     7
370
    30
100
AcDbLine
 10
37.96149
 20
-9.164687
 30
0.0
 11
37.979771
 21
-9.146406
 31
0.0
  0
LINE
  5
2EA
330
65D
100
AcDbEntity
  8
HATCH
  6
Continuous
 62
     7
370
    30
100
AcDbLine
 10
38.068156
 20
-9.058021
 30
0.0
 11
38.156542
 21
-8.969635
 31
0.0
  0
LINE
  5
2EB
330
65D
100
AcDbEntity
  8
HATCH
  6
Continuous
 62
     7
370
    30
100
AcDbLine
 10
38.244937
 20
-8.88125
 30
0.0
 11
38.333323
 21
-8.792854
 31
0.0
  0
LINE
  5
2EC
330
65D
100
AcDbEntity
  8
HATCH
  6
Continuous
 62
     7
370
    30
100
AcDbLine
 10
37.96149
 20
-8.987917
 30
0.0
 11
37.979771
 21
-8.969635
 31
0.0
  0
LINE
  5
2ED
330
65D
100
AcDbEntity
  8
HATCH
  6
Continuous
 62
     7
370
    30
100
AcDbLine
 10
38.068156
 20
-8.88125
 30
0.0
 11
38.156542
 21
-8.792854
 31
0.0
  0
LINE
  5
2EE
330
65D
100
AcDbEntity
  8
HATCH
  6
Continuous
 62
     7
370
    30
100
AcDbLine
 10
37.96149
 20
-8.811135
 30
0.0
 11
37.979771
 21
-8.792854
 31
0.0
  0
LINE
  5
2EF
330
65D
100
AcDbEntity
  8
HATCH
  6
Continuous
 62
     7
370
    30
100
AcDbLine
 10
37.898052
 20
-9.758458
 30
0.0
 11
37.979771
 21
-9.67674
 31
0.0
  0
LINE
  5
2F0
330
65D
100
AcDbEntity
  8
HATCH
  6
Continuous
 62
     7
370
    30
100
AcDbLine
 10
38.068156
 20
-9.588354
 30
0.0
 11
38.156542
 21
-9.499969
 31
0.0
  0
LINE
  5
2F1
330
65D
100
AcDbEntity
  8
HATCH
  6
Continuous
 62
     7
370
    30
100
AcDbLine
 10
38.59849
 20
-9.058021
 30
0.0
 11
38.686875
 21
-8.969635
 31
0.0
  0
LINE
  5
2F2
330
65D
100
AcDbEntity
  8
HATCH
  6
Continuous
 62
     7
370
    30
100
AcDbLine
 10
38.77526
 20
-8.88125
 30
0.0
 11
38.863656
 21
-8.792854
 31
0.0
  0
LINE
  5
2F3
330
65D
100
AcDbEntity
  8
HATCH
  6
Continuous
 62
     7
370
    30
100
AcDbLine
 10
38.77526
 20
-9.058021
 30
0.0
 11
38.863656
 21
-8.969635
 31
0.0
  0
LINE
  5
2F4
330
65D
100
AcDbEntity
  8
HATCH
  6
Continuous
 62
     7
370
    30
100
AcDbLine
 10
38.952042
 20
-8.88125
 30
0.0
 11
39.038646
 21
-8.794646
 31
0.0
  0
LINE
  5
2F5
330
65D
100
AcDbEntity
  8
2-34C
  6
Continuous
 62
     7
370
    30
100
AcDbLine
 10
39.486448
 20
-9.005333
 30
0.0
 11
39.490875
 21
-9.00975
 31
0.0
  0
LINE
  5
2F6
330
65D
100
AcDbEntity
  8
2-34C
  6
Continuous
 62
     7
370
    30
100
AcDbLine
 10
39.521802
 20
-9.040687
 30
0.0
 11
39.526229
 21
-9.045104
 31
0.0
  0
LINE
  5
2F7
330
65D
100
AcDbEntity
  8
2-34C
  6
Continuous
 62
     7
370
    30
100
AcDbLine
 10
39.466781
 20
-8.924417
 30
0.0
 11
39.468458
 21
-8.926094
 31
0.0
  0
LINE
  5
2F8
330
65D
100
AcDbEntity
  8
2-34C
  6
Continuous
 62
     7
370
    30
100
AcDbLine
 10
39.499396
 20
-8.957031
 30
0.0
 11
39.503813
 21
-8.961448
 31
0.0
  0
LINE
  5
2F9
330
65D
100
AcDbEntity
  8
2-34C
  6
Continuous
 62
     7
370
    30
100
AcDbLine
 10
39.53475
 20
-8.992385
 30
0.0
 11
39.539167
 21
-8.996812
 31
0.0
  0
LINE
  5
2FA
330
65D
100
AcDbEntity
  8
2-34C
  6
Continuous
 62
     7
370
    30
100
AcDbLine
 10
39.441625
 20
-8.838031
 30
0.0
 11
39.446042
 21
-8.842448
 31
0.0
  0
LINE
  5
2FB
330
65D
100
AcDbEntity
  8
2-34C
  6
Continuous
 62
     7
370
    30
100
AcDbLine
 10
39.476979
 20
-8.873385
 30
0.0
 11
39.481396
 21
-8.877802
 31
0.0
  0
LINE
  5
2FC
330
65D
100
AcDbEntity
  8
2-34C
  6
Continuous
 62
     7
370
    30
100
AcDbLine
 10
39.512333
 20
-8.90874
 30
0.0
 11
39.51675
 21
-8.913156
 31
0.0
  0
LINE
  5
2FD
330
65D
100
AcDbEntity
  8
2-34C
  6
Continuous
 62
     7
370
    30
100
AcDbLine
 10
39.489917
 20
-8.825083
 30
0.0
 11
39.494187
 21
-8.829354
 31
0.0
  0
LINE
  5
2FE
330
65D
100
AcDbEntity
  8
2-34C
  6
Continuous
 62
     7
370
    30
100
AcDbLine
 10
39.508865
 20
-9.088979
 30
0.0
 11
39.513281
 21
-9.093396
 31
0.0
  0
LINE
  5
2FF
330
65D
100
AcDbEntity
  8
2-34C
  6
Continuous
 62
     7
370
    30
100
AcDbLine
 10
39.544219
 20
-9.124333
 30
0.0
 11
39.546813
 21
-9.126938
 31
0.0
  0
LINE
  5
300
330
65D
100
AcDbEntity
  8
2-34C
  6
Continuous
 62
     7
370
    30
100
AcDbLine
 10
39.495927
 20
-9.137281
 30
0.0
 11
39.500344
 21
-9.141698
 31
0.0
  0
LINE
  5
301
330
65D
100
AcDbEntity
  8
2-34C
  6
Continuous
 62
     7
370
    30
100
AcDbLine
 10
39.531281
 20
-9.172635
 30
0.0
 11
39.53299
 21
-9.174344
 31
0.0
  0
LINE
  5
302
330
65D
100
AcDbEntity
  8
2-34C
  6
Continuous
 62
     7
370
    30
100
AcDbLine
 10
39.501604
 20
-8.95924
 30
0.0
 11
39.503813
 21
-8.957031
 31
0.0
  0
LINE
  5
303
330
65D
100
AcDbEntity
  8
2-34C
  6
Continuous
 62
     7
370
    30
100
AcDbLine
 10
39.514542
 20
-8.910948
 30
0.0
 11
39.51675
 21
-8.90874
 31
0.0
  0
LINE
  5
304
330
65D
100
AcDbEntity
  8
2-34C
  6
Continuous
 62
     7
370
    30
100
AcDbLine
 10
39.466469
 20
-8.923667
 30
0.0
 11
39.468458
 21
-8.921677
 31
0.0
  0
LINE
  5
305
330
65D
100
AcDbEntity
  8
2-34C
  6
Continuous
 62
     7
370
    30
100
AcDbLine
 10
39.479188
 20
-8.875594
 30
0.0
 11
39.481396
 21
-8.873385
 31
0.0
  0
LINE
  5
306
330
65D
100
AcDbEntity
  8
2-34C
  6
Continuous
 62
     7
370
    30
100
AcDbLine
 10
39.492125
 20
-8.827292
 30
0.0
 11
39.493042
 21
-8.826375
 31
0.0
  0
LINE
  5
307
330
65D
100
AcDbEntity
  8
2-34C
  6
Continuous
 62
     7
370
    30
100
AcDbLine
 10
39.443833
 20
-8.84024
 30
0.0
 11
39.446042
 21
-8.838031
 31
0.0
  0
LINE
  5
308
330
65D
100
AcDbEntity
  8
2-34C
  6
Continuous
 62
     7
370
    30
100
AcDbLine
 10
39.488656
 20
-9.007542
 30
0.0
 11
39.490875
 21
-9.005333
 31
0.0
  0
LINE
  5
309
330
65D
100
AcDbEntity
  8
2-34C
  6
Continuous
 62
     7
370
    30
100
AcDbLine
 10
39.536958
 20
-8.994594
 30
0.0
 11
39.539167
 21
-8.992385
 31
0.0
  0
LINE
  5
30A
330
65D
100
AcDbEntity
  8
2-34C
  6
Continuous
 62
     7
370
    30
100
AcDbLine
 10
39.524021
 20
-9.042896
 30
0.0
 11
39.526229
 21
-9.040687
 31
0.0
  0
LINE
  5
30B
330
65D
100
AcDbEntity
  8
2-34C
  6
Continuous
 62
     7
370
    30
100
AcDbLine
 10
39.511073
 20
-9.091188
 30
0.0
 11
39.513281
 21
-9.088979
 31
0.0
  0
LINE
  5
30C
330
65D
100
AcDbEntity
  8
2-34C
  6
Continuous
 62
     7
370
    30
100
AcDbLine
 10
39.498135
 20
-9.13949
 30
0.0
 11
39.500344
 21
-9.137281
 31
0.0
  0
LINE
  5
30D
330
65D
100
AcDbEntity
  8
2-34C
  6
Continuous
 62
     7
370
    30
100
AcDbLine
 10
39.546427
 20
-9.126542
 30
0.0
 11
39.546813
 21
-9.126156
 31
0.0
  0
LINE
  5
30E
330
65D
100
AcDbEntity
  8
2-34C
  6
Continuous
 62
     7
370
    30
100
AcDbLine
 10
39.533969
 20
-9.174365
 30
0.0
 11
39.535698
 21
-9.172635
 31
0.0
  0
LINE
  5
30F
330
65D
100
AcDbEntity
  8
2-34C
  6
Continuous
 62
     7
370
    30
100
AcDbLine
 10
39.502156
 20
-8.959792
 30
0.0
 11
39.503927
 21
-8.958031
 31
0.0
  0
LINE
  5
310
330
65D
100
AcDbEntity
  8
2-34C
  6
Continuous
 62
     7
370
    30
100
AcDbLine
 10
39.515094
 20
-8.9115
 30
0.0
 11
39.516865
 21
-8.909729
 31
0.0
  0
LINE
  5
311
330
65D
100
AcDbEntity
  8
2-34C
  6
Continuous
 62
     7
370
    30
100
AcDbLine
 10
39.466802
 20
-8.924437
 30
0.0
 11
39.468562
 21
-8.922677
 31
0.0
  0
LINE
  5
312
330
65D
100
AcDbEntity
  8
2-34C
  6
Continuous
 62
     7
370
    30
100
AcDbLine
 10
39.47974
 20
-8.876146
 30
0.0
 11
39.48151
 21
-8.874375
 31
0.0
  0
LINE
  5
313
330
65D
100
AcDbEntity
  8
2-34C
  6
Continuous
 62
     7
370
    30
100
AcDbLine
 10
39.492677
 20
-8.827844
 30
0.0
 11
39.493354
 21
-8.827177
 31
0.0
  0
LINE
  5
314
330
65D
100
AcDbEntity
  8
2-34C
  6
Continuous
 62
     7
370
    30
100
AcDbLine
 10
39.444385
 20
-8.840792
 30
0.0
 11
39.446156
 21
-8.839021
 31
0.0
  0
LINE
  5
315
330
65D
100
AcDbEntity
  8
2-34C
  6
Continuous
 62
     7
370
    30
100
AcDbLine
 10
39.489208
 20
-9.008094
 30
0.0
 11
39.490979
 21
-9.006323
 31
0.0
  0
LINE
  5
316
330
65D
100
AcDbEntity
  8
2-34C
  6
Continuous
 62
     7
370
    30
100
AcDbLine
 10
39.53751
 20
-8.995156
 30
0.0
 11
39.539281
 21
-8.993385
 31
0.0
  0
LINE
  5
317
330
65D
100
AcDbEntity
  8
2-34C
  6
Continuous
 62
     7
370
    30
100
AcDbLine
 10
39.524573
 20
-9.043448
 30
0.0
 11
39.526333
 21
-9.041677
 31
0.0
  0
LINE
  5
318
330
65D
100
AcDbEntity
  8
2-34C
  6
Continuous
 62
     7
370
    30
100
AcDbLine
 10
39.511625
 20
-9.09174
 30
0.0
 11
39.513396
 21
-9.089979
 31
0.0
  0
LINE
  5
319
330
65D
100
AcDbEntity
  8
2-34C
  6
Continuous
 62
     7
370
    30
100
AcDbLine
 10
39.498687
 20
-9.140042
 30
0.0
 11
39.500458
 21
-9.138271
 31
0.0
  0
LINE
  5
31A
330
65D
100
AcDbEntity
  8
2-34C
  6
Continuous
 62
     7
370
    30
100
AcDbLine
 10
39.535042
 20
-9.174396
 30
0.0
 11
39.535812
 21
-9.173625
 31
0.0
  0
LINE
  5
31B
330
65D
100
AcDbEntity
  8
2-34C
  6
Continuous
 62
     7
370
    30
100
AcDbLine
 10
39.501052
 20
-8.958687
 30
0.0
 11
39.502812
 21
-8.956927
 31
0.0
  0
LINE
  5
31C
330
65D
100
AcDbEntity
  8
2-34C
  6
Continuous
 62
     7
370
    30
100
AcDbLine
 10
39.51399
 20
-8.910396
 30
0.0
 11
39.51576
 21
-8.908625
 31
0.0
  0
LINE
  5
31D
330
65D
100
AcDbEntity
  8
2-34C
  6
Continuous
 62
     7
370
    30
100
AcDbLine
 10
39.466135
 20
-8.922896
 30
0.0
 11
39.467458
 21
-8.921573
 31
0.0
  0
LINE
  5
31E
330
65D
100
AcDbEntity
  8
2-34C
  6
Continuous
 62
     7
370
    30
100
AcDbLine
 10
39.478635
 20
-8.875042
 30
0.0
 11
39.480406
 21
-8.873271
 31
0.0
  0
LINE
  5
31F
330
65D
100
AcDbEntity
  8
2-34C
  6
Continuous
 62
     7
370
    30
100
AcDbLine
 10
39.491573
 20
-8.82674
 30
0.0
 11
39.49274
 21
-8.825583
 31
0.0
  0
LINE
  5
320
330
65D
100
AcDbEntity
  8
2-34C
  6
Continuous
 62
     7
370
    30
100
AcDbLine
 10
39.443281
 20
-8.839688
 30
0.0
 11
39.445052
 21
-8.837917
 31
0.0
  0
LINE
  5
321
330
65D
100
AcDbEntity
  8
2-34C
  6
Continuous
 62
     7
370
    30
100
AcDbLine
 10
39.488104
 20
-9.00699
 30
0.0
 11
39.489875
 21
-9.005219
 31
0.0
  0
LINE
  5
322
330
65D
100
AcDbEntity
  8
2-34C
  6
Continuous
 62
     7
370
    30
100
AcDbLine
 10
39.536406
 20
-8.994042
 30
0.0
 11
39.538177
 21
-8.992281
 31
0.0
  0
LINE
  5
323
330
65D
100
AcDbEntity
  8
2-34C
  6
Continuous
 62
     7
370
    30
100
AcDbLine
 10
39.523469
 20
-9.042344
 30
0.0
 11
39.525229
 21
-9.040573
 31
0.0
  0
LINE
  5
324
330
65D
100
AcDbEntity
  8
2-34C
  6
Continuous
 62
     7
370
    30
100
AcDbLine
 10
39.510521
 20
-9.090635
 30
0.0
 11
39.512292
 21
-9.088875
 31
0.0
  0
LINE
  5
325
330
65D
100
AcDbEntity
  8
2-34C
  6
Continuous
 62
     7
370
    30
100
AcDbLine
 10
39.497583
 20
-9.138937
 30
0.0
 11
39.499354
 21
-9.137167
 31
0.0
  0
LINE
  5
326
330
65D
100
AcDbEntity
  8
2-34C
  6
Continuous
 62
     7
370
    30
100
AcDbLine
 10
39.545875
 20
-9.12599
 30
0.0
 11
39.546813
 21
-9.125052
 31
0.0
  0
LINE
  5
327
330
65D
100
AcDbEntity
  8
2-34C
  6
Continuous
 62
     7
370
    30
100
AcDbLine
 10
39.532937
 20
-9.174292
 30
0.0
 11
39.534708
 21
-9.172521
 31
0.0
  0
LINE
  5
328
330
65D
100
AcDbEntity
  8
2-34C
  6
Continuous
 62
     7
370
    30
100
AcDbLine
 10
39.502708
 20
-8.960344
 30
0.0
 11
39.504635
 21
-8.959833
 31
0.0
  0
LINE
  5
329
330
65D
100
AcDbEntity
  8
2-34C
  6
Continuous
 62
     7
370
    30
100
AcDbLine
 10
39.467354
 20
-8.92499
 30
0.0
 11
39.469281
 21
-8.924479
 31
0.0
  0
LINE
  5
32A
330
65D
100
AcDbEntity
  8
2-34C
  6
Continuous
 62
     7
370
    30
100
AcDbLine
 10
39.515646
 20
-8.912052
 30
0.0
 11
39.517583
 21
-8.911531
 31
0.0
  0
LINE
  5
32B
330
65D
100
AcDbEntity
  8
2-34C
  6
Continuous
 62
     7
370
    30
100
AcDbLine
 10
39.480292
 20
-8.876698
 30
0.0
 11
39.482229
 21
-8.876177
 31
0.0
  0
LINE
  5
32C
330
65D
100
AcDbEntity
  8
2-34C
  6
Continuous
 62
     7
370
    30
100
AcDbLine
 10
39.444938
 20
-8.841344
 30
0.0
 11
39.446865
 21
-8.840823
 31
0.0
  0
LINE
  5
32D
330
65D
100
AcDbEntity
  8
2-34C
  6
Continuous
 62
     7
370
    30
100
AcDbLine
 10
39.493229
 20
-8.828396
 30
0.0
 11
39.49376
 21
-8.82826
 31
0.0
  0
LINE
  5
32E
330
65D
100
AcDbEntity
  8
2-34C
  6
Continuous
 62
     7
370
    30
100
AcDbLine
 10
39.489771
 20
-9.008646
 30
0.0
 11
39.491698
 21
-9.008125
 31
0.0
  0
LINE
  5
32F
330
65D
100
AcDbEntity
  8
2-34C
  6
Continuous
 62
     7
370
    30
100
AcDbLine
 10
39.538062
 20
-8.995708
 30
0.0
 11
39.53999
 21
-8.995188
 31
0.0
  0
LINE
  5
330
330
65D
100
AcDbEntity
  8
2-34C
  6
Continuous
 62
     7
370
    30
100
AcDbLine
 10
39.525125
 20
-9.044
 30
0.0
 11
39.527052
 21
-9.043479
 31
0.0
  0
LINE
  5
331
330
65D
100
AcDbEntity
  8
2-34C
  6
Continuous
 62
     7
370
    30
100
AcDbLine
 10
39.512177
 20
-9.092292
 30
0.0
 11
39.514115
 21
-9.091781
 31
0.0
  0
LINE
  5
332
330
65D
100
AcDbEntity
  8
2-34C
  6
Continuous
 62
     7
370
    30
100
AcDbLine
 10
39.49924
 20
-9.140594
 30
0.0
 11
39.501167
 21
-9.140073
 31
0.0
  0
LINE
  5
333
330
65D
100
AcDbEntity
  8
2-34C
  6
Continuous
 62
     7
370
    30
100
AcDbLine
 10
39.46551
 20
-8.921406
 30
0.0
 11
39.465656
 21
-8.920854
 31
0.0
  0
LINE
  5
334
330
65D
100
AcDbEntity
  8
2-34C
  6
Continuous
 62
     7
370
    30
100
AcDbLine
 10
39.478083
 20
-8.87449
 30
0.0
 11
39.478604
 21
-8.872552
 31
0.0
  0
LINE
  5
335
330
65D
100
AcDbEntity
  8
2-34C
  6
Continuous
 62
     7
370
    30
100
AcDbLine
 10
39.491021
 20
-8.826187
 30
0.0
 11
39.491542
 21
-8.82426
 31
0.0
  0
LINE
  5
336
330
65D
100
AcDbEntity
  8
2-34C
  6
Continuous
 62
     7
370
    30
100
AcDbLine
 10
39.442729
 20
-8.839135
 30
0.0
 11
39.44325
 21
-8.837198
 31
0.0
  0
LINE
  5
337
330
65D
100
AcDbEntity
  8
2-34C
  6
Continuous
 62
     7
370
    30
100
AcDbLine
 10
39.487552
 20
-9.006438
 30
0.0
 11
39.488073
 21
-9.0045
 31
0.0
  0
LINE
  5
338
330
65D
100
AcDbEntity
  8
2-34C
  6
Continuous
 62
     7
370
    30
100
AcDbLine
 10
39.5005
 20
-8.958135
 30
0.0
 11
39.50101
 21
-8.956208
 31
0.0
  0
LINE
  5
339
330
65D
100
AcDbEntity
  8
2-34C
  6
Continuous
 62
     7
370
    30
100
AcDbLine
 10
39.513438
 20
-8.909844
 30
0.0
 11
39.513958
 21
-8.907906
 31
0.0
  0
LINE
  5
33A
330
65D
100
AcDbEntity
  8
2-34C
  6
Continuous
 62
     7
370
    30
100
AcDbLine
 10
39.497031
 20
-9.138385
 30
0.0
 11
39.497552
 21
-9.136448
 31
0.0
  0
LINE
  5
33B
330
65D
100
AcDbEntity
  8
2-34C
  6
Continuous
 62
     7
370
    30
100
AcDbLine
 10
39.509969
 20
-9.090083
 30
0.0
 11
39.51049
 21
-9.088156
 31
0.0
  0
LINE
  5
33C
330
65D
100
AcDbEntity
  8
2-34C
  6
Continuous
 62
     7
370
    30
100
AcDbLine
 10
39.522906
 20
-9.041792
 30
0.0
 11
39.523427
 21
-9.039854
 31
0.0
  0
LINE
  5
33D
330
65D
100
AcDbEntity
  8
2-34C
  6
Continuous
 62
     7
370
    30
100
AcDbLine
 10
39.535854
 20
-8.99349
 30
0.0
 11
39.536375
 21
-8.991563
 31
0.0
  0
LINE
  5
33E
330
65D
100
AcDbEntity
  8
2-34C
  6
Continuous
 62
     7
370
    30
100
AcDbLine
 10
39.532385
 20
-9.17374
 30
0.0
 11
39.532906
 21
-9.171802
 31
0.0
  0
LINE
  5
33F
330
65D
100
AcDbEntity
  8
2-34C
  6
Continuous
 62
     7
370
    30
100
AcDbLine
 10
39.545323
 20
-9.125438
 30
0.0
 11
39.545844
 21
-9.12351
 31
0.0
  0
LINE
  5
340
330
65D
100
AcDbEntity
  8
HATCH
  6
Continuous
 62
     7
370
    30
100
AcDbLine
 10
39.17426
 20
-8.999323
 30
0.0
 11
39.178677
 21
-9.00374
 31
0.0
  0
LINE
  5
341
330
65D
100
AcDbEntity
  8
HATCH
  6
Continuous
 62
     7
370
    30
100
AcDbLine
 10
39.492458
 20
-9.317521
 30
0.0
 11
39.496875
 21
-9.321937
 31
0.0
  0
LINE
  5
342
330
65D
100
AcDbEntity
  8
HATCH
  6
Continuous
 62
     7
370
    30
100
AcDbLine
 10
39.527812
 20
-9.352875
 30
0.0
 11
39.532229
 21
-9.357292
 31
0.0
  0
LINE
  5
343
330
65D
100
AcDbEntity
  8
HATCH
  6
Continuous
 62
     7
370
    30
100
AcDbLine
 10
39.151844
 20
-8.915677
 30
0.0
 11
39.15626
 21
-8.920094
 31
0.0
  0
LINE
  5
344
330
65D
100
AcDbEntity
  8
HATCH
  6
Continuous
 62
     7
370
    30
100
AcDbLine
 10
39.187198
 20
-8.951031
 30
0.0
 11
39.191615
 21
-8.955448
 31
0.0
  0
LINE
  5
345
330
65D
100
AcDbEntity
  8
HATCH
  6
Continuous
 62
     7
370
    30
100
AcDbLine
 10
39.508135
 20
-9.271958
 30
0.0
 11
39.509812
 21
-9.273646
 31
0.0
  0
LINE
  5
346
330
65D
100
AcDbEntity
  8
HATCH
  6
Continuous
 62
     7
370
    30
100
AcDbLine
 10
39.54075
 20
-9.304583
 30
0.0
 11
39.545177
 21
-9.309
 31
0.0
  0
LINE
  5
347
330
65D
100
AcDbEntity
  8
HATCH
  6
Continuous
 62
     7
370
    30
100
AcDbLine
 10
39.164781
 20
-8.867375
 30
0.0
 11
39.169208
 21
-8.871792
 31
0.0
  0
LINE
  5
348
330
65D
100
AcDbEntity
  8
HATCH
  6
Continuous
 62
     7
370
    30
100
AcDbLine
 10
39.200146
 20
-8.902729
 30
0.0
 11
39.204563
 21
-8.907146
 31
0.0
  0
LINE
  5
349
330
65D
100
AcDbEntity
  8
HATCH
  6
Continuous
 62
     7
370
    30
100
AcDbLine
 10
39.213083
 20
-8.854437
 30
0.0
 11
39.2175
 21
-8.858854
 31
0.0
  0
LINE
  5
34A
330
65D
100
AcDbEntity
  8
HATCH
  6
Continuous
 62
     7
370
    30
100
AcDbLine
 10
39.226021
 20
-8.806135
 30
0.0
 11
39.230438
 21
-8.810562
 31
0.0
  0
LINE
  5
34B
330
65D
100
AcDbEntity
  8
HATCH
  6
Continuous
 62
     7
370
    30
100
AcDbLine
 10
39.161323
 20
-9.047625
 30
0.0
 11
39.16574
 21
-9.052042
 31
0.0
  0
LINE
  5
34C
330
65D
100
AcDbEntity
  8
HATCH
  6
Continuous
 62
     7
370
    30
100
AcDbLine
 10
39.196677
 20
-9.082979
 30
0.0
 11
39.201094
 21
-9.087396
 31
0.0
  0
LINE
  5
34D
330
65D
100
AcDbEntity
  8
HATCH
  6
Continuous
 62
     7
370
    30
100
AcDbLine
 10
39.585583
 20
-9.471885
 30
0.0
 11
39.59
 21
-9.476302
 31
0.0
  0
LINE
  5
34E
330
65D
100
AcDbEntity
  8
HATCH
  6
Continuous
 62
     7
370
    30
100
AcDbLine
 10
39.514875
 20
-9.401177
 30
0.0
 11
39.519292
 21
-9.405594
 31
0.0
  0
LINE
  5
34F
330
65D
100
AcDbEntity
  8
HATCH
  6
Continuous
 62
     7
370
    30
100
AcDbLine
 10
39.148375
 20
-9.095917
 30
0.0
 11
39.152792
 21
-9.100333
 31
0.0
  0
LINE
  5
350
330
65D
100
AcDbEntity
  8
HATCH
  6
Continuous
 62
     7
370
    30
100
AcDbLine
 10
39.183729
 20
-9.131271
 30
0.0
 11
39.188156
 21
-9.135687
 31
0.0
  0
LINE
  5
351
330
65D
100
AcDbEntity
  8
HATCH
  6
Continuous
 62
     7
370
    30
100
AcDbLine
 10
39.501927
 20
-9.449469
 30
0.0
 11
39.506354
 21
-9.453885
 31
0.0
  0
LINE
  5
352
330
65D
100
AcDbEntity
  8
HATCH
  6
Continuous
 62
     7
370
    30
100
AcDbLine
 10
39.537281
 20
-9.484823
 30
0.0
 11
39.541708
 21
-9.48924
 31
0.0
  0
LINE
  5
353
330
65D
100
AcDbEntity
  8
HATCH
  6
Continuous
 62
     7
370
    30
100
AcDbLine
 10
39.572646
 20
-9.520177
 30
0.0
 11
39.576469
 21
-9.524
 31
0.0
  0
LINE
  5
354
330
65D
100
AcDbEntity
  8
HATCH
  6
Continuous
 62
     7
370
    30
100
AcDbLine
 10
39.170792
 20
-9.179573
 30
0.0
 11
39.175208
 21
-9.18399
 31
0.0
  0
LINE
  5
355
330
65D
100
AcDbEntity
  8
HATCH
  6
Continuous
 62
     7
370
    30
100
AcDbLine
 10
39.206146
 20
-9.214927
 30
0.0
 11
39.20725
 21
-9.216031
 31
0.0
  0
LINE
  5
356
330
65D
100
AcDbEntity
  8
HATCH
  6
Continuous
 62
     7
370
    30
100
AcDbLine
 10
39.453635
 20
-9.462406
 30
0.0
 11
39.458052
 21
-9.466833
 31
0.0
  0
LINE
  5
357
330
65D
100
AcDbEntity
  8
HATCH
  6
Continuous
 62
     7
370
    30
100
AcDbLine
 10
39.48899
 20
-9.497771
 30
0.0
 11
39.493406
 21
-9.502187
 31
0.0
  0
LINE
  5
358
330
65D
100
AcDbEntity
  8
HATCH
  6
Continuous
 62
     7
370
    30
100
AcDbLine
 10
39.157854
 20
-9.227865
 30
0.0
 11
39.162271
 21
-9.232281
 31
0.0
  0
LINE
  5
359
330
65D
100
AcDbEntity
  8
HATCH
  6
Continuous
 62
     7
370
    30
100
AcDbLine
 10
39.193208
 20
-9.263219
 30
0.0
 11
39.197625
 21
-9.267635
 31
0.0
  0
LINE
  5
35A
330
65D
100
AcDbEntity
  8
HATCH
  6
Continuous
 62
     7
370
    30
100
AcDbLine
 10
39.405333
 20
-9.475354
 30
0.0
 11
39.40976
 21
-9.479771
 31
0.0
  0
LINE
  5
35B
330
65D
100
AcDbEntity
  8
HATCH
  6
Continuous
 62
     7
370
    30
100
AcDbLine
 10
39.440698
 20
-9.510708
 30
0.0
 11
39.445115
 21
-9.515125
 31
0.0
  0
LINE
  5
35C
330
65D
100
AcDbEntity
  8
HATCH
  6
Continuous
 62
     7
370
    30
100
AcDbLine
 10
39.144906
 20
-9.276156
 30
0.0
 11
39.149333
 21
-9.280583
 31
0.0
  0
LINE
  5
35D
330
65D
100
AcDbEntity
  8
HATCH
  6
Continuous
 62
     7
370
    30
100
AcDbLine
 10
39.18026
 20
-9.311521
 30
0.0
 11
39.184687
 21
-9.315938
 31
0.0
  0
LINE
  5
35E
330
65D
100
AcDbEntity
  8
HATCH
  6
Continuous
 62
     7
370
    30
100
AcDbLine
 10
39.357042
 20
-9.488292
 30
0.0
 11
39.361458
 21
-9.492708
 31
0.0
  0
LINE
  5
35F
330
65D
100
AcDbEntity
  8
HATCH
  6
Continuous
 62
     7
370
    30
100
AcDbLine
 10
39.392396
 20
-9.523646
 30
0.0
 11
39.39275
 21
-9.524
 31
0.0
  0
LINE
  5
360
330
65D
100
AcDbEntity
  8
HATCH
  6
Continuous
 62
     7
370
    30
100
AcDbLine
 10
39.167323
 20
-9.359813
 30
0.0
 11
39.17174
 21
-9.364229
 31
0.0
  0
LINE
  5
361
330
65D
100
AcDbEntity
  8
HATCH
  6
Continuous
 62
     7
370
    30
100
AcDbLine
 10
39.202677
 20
-9.395167
 30
0.0
 11
39.207094
 21
-9.399583
 31
0.0
  0
LINE
  5
362
330
65D
100
AcDbEntity
  8
HATCH
  6
Continuous
 62
     7
370
    30
100
AcDbLine
 10
39.273385
 20
-9.465875
 30
0.0
 11
39.277812
 21
-9.470302
 31
0.0
  0
LINE
  5
363
330
65D
100
AcDbEntity
  8
HATCH
  6
Continuous
 62
     7
370
    30
100
AcDbLine
 10
39.30875
 20
-9.501229
 30
0.0
 11
39.313167
 21
-9.505656
 31
0.0
  0
LINE
  5
364
330
65D
100
AcDbEntity
  8
HATCH
  6
Continuous
 62
     7
370
    30
100
AcDbLine
 10
39.154385
 20
-9.408104
 30
0.0
 11
39.158802
 21
-9.412531
 31
0.0
  0
LINE
  5
365
330
65D
100
AcDbEntity
  8
HATCH
  6
Continuous
 62
     7
370
    30
100
AcDbLine
 10
39.18974
 20
-9.443469
 30
0.0
 11
39.194156
 21
-9.447885
 31
0.0
  0
LINE
  5
366
330
65D
100
AcDbEntity
  8
HATCH
  6
Continuous
 62
     7
370
    30
100
AcDbLine
 10
39.225094
 20
-9.478823
 30
0.0
 11
39.22951
 21
-9.48324
 31
0.0
  0
LINE
  5
367
330
65D
100
AcDbEntity
  8
HATCH
  6
Continuous
 62
     7
370
    30
100
AcDbLine
 10
39.260448
 20
-9.514177
 30
0.0
 11
39.264865
 21
-9.518594
 31
0.0
  0
LINE
  5
368
330
65D
100
AcDbEntity
  8
HATCH
  6
Continuous
 62
     7
370
    30
100
AcDbLine
 10
39.14475
 20
-9.459708
 30
0.0
 11
39.145865
 21
-9.460823
 31
0.0
  0
LINE
  5
369
330
65D
100
AcDbEntity
  8
HATCH
  6
Continuous
 62
     7
370
    30
100
AcDbLine
 10
39.176802
 20
-9.49176
 30
0.0
 11
39.181219
 21
-9.496177
 31
0.0
  0
LINE
  5
36A
330
65D
100
AcDbEntity
  8
HATCH
  6
Continuous
 62
     7
370
    30
100
AcDbLine
 10
39.093146
 20
-9.469344
 30
0.0
 11
39.097563
 21
-9.47376
 31
0.0
  0
LINE
  5
36B
330
65D
100
AcDbEntity
  8
HATCH
  6
Continuous
 62
     7
370
    30
100
AcDbLine
 10
39.1285
 20
-9.504698
 30
0.0
 11
39.132917
 21
-9.509125
 31
0.0
  0
LINE
  5
36C
330
65D
100
AcDbEntity
  8
HATCH
  6
Continuous
 62
     7
370
    30
100
AcDbLine
 10
39.08225
 20
-9.519687
 30
0.0
 11
39.084625
 21
-9.522063
 31
0.0
  0
LINE
  5
36D
330
65D
100
AcDbEntity
  8
HATCH
  6
Continuous
 62
     7
370
    30
100
AcDbLine
 10
39.182479
 20
-9.313729
 30
0.0
 11
39.184687
 21
-9.311521
 31
0.0
  0
LINE
  5
36E
330
65D
100
AcDbEntity
  8
HATCH
  6
Continuous
 62
     7
370
    30
100
AcDbLine
 10
39.195417
 20
-9.265427
 30
0.0
 11
39.197625
 21
-9.263219
 31
0.0
  0
LINE
  5
36F
330
65D
100
AcDbEntity
  8
HATCH
  6
Continuous
 62
     7
370
    30
100
AcDbLine
 10
39.147115
 20
-9.278375
 30
0.0
 11
39.149333
 21
-9.276156
 31
0.0
  0
LINE
  5
370
330
65D
100
AcDbEntity
  8
HATCH
  6
Continuous
 62
     7
370
    30
100
AcDbLine
 10
39.160063
 20
-9.230073
 30
0.0
 11
39.162271
 21
-9.227865
 31
0.0
  0
LINE
  5
371
330
65D
100
AcDbEntity
  8
HATCH
  6
Continuous
 62
     7
370
    30
100
AcDbLine
 10
39.173
 20
-9.181781
 30
0.0
 11
39.175208
 21
-9.179573
 31
0.0
  0
LINE
  5
372
330
65D
100
AcDbEntity
  8
HATCH
  6
Continuous
 62
     7
370
    30
100
AcDbLine
 10
39.185938
 20
-9.133479
 30
0.0
 11
39.188156
 21
-9.131271
 31
0.0
  0
LINE
  5
373
330
65D
100
AcDbEntity
  8
HATCH
  6
Continuous
 62
     7
370
    30
100
AcDbLine
 10
39.198885
 20
-9.085187
 30
0.0
 11
39.201094
 21
-9.082979
 31
0.0
  0
LINE
  5
374
330
65D
100
AcDbEntity
  8
HATCH
  6
Continuous
 62
     7
370
    30
100
AcDbLine
 10
39.150583
 20
-9.098125
 30
0.0
 11
39.152792
 21
-9.095917
 31
0.0
  0
LINE
  5
375
330
65D
100
AcDbEntity
  8
HATCH
  6
Continuous
 62
     7
370
    30
100
AcDbLine
 10
39.163531
 20
-9.049833
 30
0.0
 11
39.16574
 21
-9.047625
 31
0.0
  0
LINE
  5
376
330
65D
100
AcDbEntity
  8
HATCH
  6
Continuous
 62
     7
370
    30
100
AcDbLine
 10
39.176469
 20
-9.001531
 30
0.0
 11
39.178677
 21
-8.999323
 31
0.0
  0
LINE
  5
377
330
65D
100
AcDbEntity
  8
HATCH
  6
Continuous
 62
     7
370
    30
100
AcDbLine
 10
39.189406
 20
-8.95324
 30
0.0
 11
39.191615
 21
-8.951031
 31
0.0
  0
LINE
  5
378
330
65D
100
AcDbEntity
  8
HATCH
  6
Continuous
 62
     7
370
    30
100
AcDbLine
 10
39.202354
 20
-8.904937
 30
0.0
 11
39.204563
 21
-8.902729
 31
0.0
  0
LINE
  5
379
330
65D
100
AcDbEntity
  8
HATCH
  6
Continuous
 62
     7
370
    30
100
AcDbLine
 10
39.154052
 20
-8.917885
 30
0.0
 11
39.15626
 21
-8.915677
 31
0.0
  0
LINE
  5
37A
330
65D
100
AcDbEntity
  8
HATCH
  6
Continuous
 62
     7
370
    30
100
AcDbLine
 10
39.215292
 20
-8.856646
 30
0.0
 11
39.2175
 21
-8.854437
 31
0.0
  0
LINE
  5
37B
330
65D
100
AcDbEntity
  8
HATCH
  6
Continuous
 62
     7
370
    30
100
AcDbLine
 10
39.167
 20
-8.869583
 30
0.0
 11
39.169208
 21
-8.867375
 31
0.0
  0
LINE
  5
37C
330
65D
100
AcDbEntity
  8
HATCH
  6
Continuous
 62
     7
370
    30
100
AcDbLine
 10
39.228229
 20
-8.808344
 30
0.0
 11
39.23025
 21
-8.806323
 31
0.0
  0
LINE
  5
37D
330
65D
100
AcDbEntity
  8
HATCH
  6
Continuous
 62
     7
370
    30
100
AcDbLine
 10
39.169531
 20
-9.362021
 30
0.0
 11
39.17174
 21
-9.359813
 31
0.0
  0
LINE
  5
37E
330
65D
100
AcDbEntity
  8
HATCH
  6
Continuous
 62
     7
370
    30
100
AcDbLine
 10
39.095354
 20
-9.471552
 30
0.0
 11
39.097563
 21
-9.469344
 31
0.0
  0
LINE
  5
37F
330
65D
100
AcDbEntity
  8
HATCH
  6
Continuous
 62
     7
370
    30
100
AcDbLine
 10
39.156594
 20
-9.410323
 30
0.0
 11
39.158802
 21
-9.408104
 31
0.0
  0
LINE
  5
380
330
65D
100
AcDbEntity
  8
HATCH
  6
Continuous
 62
     7
370
    30
100
AcDbLine
 10
39.082417
 20
-9.519854
 30
0.0
 11
39.084625
 21
-9.517646
 31
0.0
  0
LINE
  5
381
330
65D
100
AcDbEntity
  8
HATCH
  6
Continuous
 62
     7
370
    30
100
AcDbLine
 10
39.14475
 20
-9.457521
 30
0.0
 11
39.145865
 21
-9.456406
 31
0.0
  0
LINE
  5
382
330
65D
100
AcDbEntity
  8
HATCH
  6
Continuous
 62
     7
370
    30
100
AcDbLine
 10
39.204885
 20
-9.397375
 30
0.0
 11
39.207094
 21
-9.395167
 31
0.0
  0
LINE
  5
383
330
65D
100
AcDbEntity
  8
HATCH
  6
Continuous
 62
     7
370
    30
100
AcDbLine
 10
39.130708
 20
-9.506906
 30
0.0
 11
39.132917
 21
-9.504698
 31
0.0
  0
LINE
  5
384
330
65D
100
AcDbEntity
  8
HATCH
  6
Continuous
 62
     7
370
    30
100
AcDbLine
 10
39.191948
 20
-9.445677
 30
0.0
 11
39.194156
 21
-9.443469
 31
0.0
  0
LINE
  5
385
330
65D
100
AcDbEntity
  8
HATCH
  6
Continuous
 62
     7
370
    30
100
AcDbLine
 10
39.17901
 20
-9.493969
 30
0.0
 11
39.181219
 21
-9.49176
 31
0.0
  0
LINE
  5
386
330
65D
100
AcDbEntity
  8
HATCH
  6
Continuous
 62
     7
370
    30
100
AcDbLine
 10
39.227302
 20
-9.481031
 30
0.0
 11
39.22951
 21
-9.478823
 31
0.0
  0
LINE
  5
387
330
65D
100
AcDbEntity
  8
HATCH
  6
Continuous
 62
     7
370
    30
100
AcDbLine
 10
39.275604
 20
-9.468083
 30
0.0
 11
39.277812
 21
-9.465875
 31
0.0
  0
LINE
  5
388
330
65D
100
AcDbEntity
  8
HATCH
  6
Continuous
 62
     7
370
    30
100
AcDbLine
 10
39.262656
 20
-9.516385
 30
0.0
 11
39.264865
 21
-9.514177
 31
0.0
  0
LINE
  5
389
330
65D
100
AcDbEntity
  8
HATCH
  6
Continuous
 62
     7
370
    30
100
AcDbLine
 10
39.310958
 20
-9.503448
 30
0.0
 11
39.313167
 21
-9.501229
 31
0.0
  0
LINE
  5
38A
330
65D
100
AcDbEntity
  8
HATCH
  6
Continuous
 62
     7
370
    30
100
AcDbLine
 10
39.35925
 20
-9.4905
 30
0.0
 11
39.361458
 21
-9.488292
 31
0.0
  0
LINE
  5
38B
330
65D
100
AcDbEntity
  8
HATCH
  6
Continuous
 62
     7
370
    30
100
AcDbLine
 10
39.542958
 20
-9.306792
 30
0.0
 11
39.545177
 21
-9.304583
 31
0.0
  0
LINE
  5
38C
330
65D
100
AcDbEntity
  8
HATCH
  6
Continuous
 62
     7
370
    30
100
AcDbLine
 10
39.407552
 20
-9.477562
 30
0.0
 11
39.40976
 21
-9.475354
 31
0.0
  0
LINE
  5
38D
330
65D
100
AcDbEntity
  8
HATCH
  6
Continuous
 62
     7
370
    30
100
AcDbLine
 10
39.530021
 20
-9.355083
 30
0.0
 11
39.532229
 21
-9.352875
 31
0.0
  0
LINE
  5
38E
330
65D
100
AcDbEntity
  8
HATCH
  6
Continuous
 62
     7
370
    30
100
AcDbLine
 10
39.396458
 20
-9.524
 30
0.0
 11
39.396812
 21
-9.523646
 31
0.0
  0
LINE
  5
38F
330
65D
100
AcDbEntity
  8
HATCH
  6
Continuous
 62
     7
370
    30
100
AcDbLine
 10
39.455844
 20
-9.464625
 30
0.0
 11
39.458052
 21
-9.462406
 31
0.0
  0
LINE
  5
390
330
65D
100
AcDbEntity
  8
HATCH
  6
Continuous
 62
     7
370
    30
100
AcDbLine
 10
39.517083
 20
-9.403385
 30
0.0
 11
39.519292
 21
-9.401177
 31
0.0
  0
LINE
  5
391
330
65D
100
AcDbEntity
  8
HATCH
  6
Continuous
 62
     7
370
    30
100
AcDbLine
 10
39.442906
 20
-9.512917
 30
0.0
 11
39.445115
 21
-9.510708
 31
0.0
  0
LINE
  5
392
330
65D
100
AcDbEntity
  8
HATCH
  6
Continuous
 62
     7
370
    30
100
AcDbLine
 10
39.504135
 20
-9.451677
 30
0.0
 11
39.506354
 21
-9.449469
 31
0.0
  0
LINE
  5
393
330
65D
100
AcDbEntity
  8
HATCH
  6
Continuous
 62
     7
370
    30
100
AcDbLine
 10
39.491198
 20
-9.499979
 30
0.0
 11
39.493406
 21
-9.497771
 31
0.0
  0
LINE
  5
394
330
65D
100
AcDbEntity
  8
HATCH
  6
Continuous
 62
     7
370
    30
100
AcDbLine
 10
39.5395
 20
-9.487031
 30
0.0
 11
39.541708
 21
-9.484823
 31
0.0
  0
LINE
  5
395
330
65D
100
AcDbEntity
  8
HATCH
  6
Continuous
 62
     7
370
    30
100
AcDbLine
 10
39.587792
 20
-9.474094
 30
0.0
 11
39.59
 21
-9.471885
 31
0.0
  0
LINE
  5
396
330
65D
100
AcDbEntity
  8
HATCH
  6
Continuous
 62
     7
370
    30
100
AcDbLine
 10
39.574854
 20
-9.522385
 30
0.0
 11
39.577062
 21
-9.520177
 31
0.0
  0
LINE
  5
397
330
65D
100
AcDbEntity
  8
HATCH
  6
Continuous
 62
     7
370
    30
100
AcDbLine
 10
39.183031
 20
-9.314281
 30
0.0
 11
39.184792
 21
-9.31251
 31
0.0
  0
LINE
  5
398
330
65D
100
AcDbEntity
  8
HATCH
  6
Continuous
 62
     7
370
    30
100
AcDbLine
 10
39.195969
 20
-9.265979
 30
0.0
 11
39.19774
 21
-9.264219
 31
0.0
  0
LINE
  5
399
330
65D
100
AcDbEntity
  8
HATCH
  6
Continuous
 62
     7
370
    30
100
AcDbLine
 10
39.147667
 20
-9.278927
 30
0.0
 11
39.149437
 21
-9.277156
 31
0.0
  0
LINE
  5
39A
330
65D
100
AcDbEntity
  8
HATCH
  6
Continuous
 62
     7
370
    30
100
AcDbLine
 10
39.160615
 20
-9.230625
 30
0.0
 11
39.162385
 21
-9.228854
 31
0.0
  0
LINE
  5
39B
330
65D
100
AcDbEntity
  8
HATCH
  6
Continuous
 62
     7
370
    30
100
AcDbLine
 10
39.173552
 20
-9.182333
 30
0.0
 11
39.175323
 21
-9.180562
 31
0.0
  0
LINE
  5
39C
330
65D
100
AcDbEntity
  8
HATCH
  6
Continuous
 62
     7
370
    30
100
AcDbLine
 10
39.18649
 20
-9.134031
 30
0.0
 11
39.18826
 21
-9.132271
 31
0.0
  0
LINE
  5
39D
330
65D
100
AcDbEntity
  8
HATCH
  6
Continuous
 62
     7
370
    30
100
AcDbLine
 10
39.199438
 20
-9.08574
 30
0.0
 11
39.201208
 21
-9.083969
 31
0.0
  0
LINE
  5
39E
330
65D
100
AcDbEntity
  8
HATCH
  6
Continuous
 62
     7
370
    30
100
AcDbLine
 10
39.151135
 20
-9.098677
 30
0.0
 11
39.152906
 21
-9.096906
 31
0.0
  0
LINE
  5
39F
330
65D
100
AcDbEntity
  8
HATCH
  6
Continuous
 62
     7
370
    30
100
AcDbLine
 10
39.164083
 20
-9.050385
 30
0.0
 11
39.165844
 21
-9.048615
 31
0.0
  0
LINE
  5
3A0
330
65D
100
AcDbEntity
  8
HATCH
  6
Continuous
 62
     7
370
    30
100
AcDbLine
 10
39.177021
 20
-9.002083
 30
0.0
 11
39.178792
 21
-9.000323
 31
0.0
  0
LINE
  5
3A1
330
65D
100
AcDbEntity
  8
HATCH
  6
Continuous
 62
     7
370
    30
100
AcDbLine
 10
39.189958
 20
-8.953792
 30
0.0
 11
39.191729
 21
-8.952021
 31
0.0
  0
LINE
  5
3A2
330
65D
100
AcDbEntity
  8
HATCH
  6
Continuous
 62
     7
370
    30
100
AcDbLine
 10
39.202906
 20
-8.90549
 30
0.0
 11
39.204667
 21
-8.903729
 31
0.0
  0
LINE
  5
3A3
330
65D
100
AcDbEntity
  8
HATCH
  6
Continuous
 62
     7
370
    30
100
AcDbLine
 10
39.154604
 20
-8.918437
 30
0.0
 11
39.156375
 21
-8.916667
 31
0.0
  0
LINE
  5
3A4
330
65D
100
AcDbEntity
  8
HATCH
  6
Continuous
 62
     7
370
    30
100
AcDbLine
 10
39.215844
 20
-8.857198
 30
0.0
 11
39.217615
 21
-8.855427
 31
0.0
  0
LINE
  5
3A5
330
65D
100
AcDbEntity
  8
HATCH
  6
Continuous
 62
     7
370
    30
100
AcDbLine
 10
39.167552
 20
-8.870135
 30
0.0
 11
39.169312
 21
-8.868375
 31
0.0
  0
LINE
  5
3A6
330
65D
100
AcDbEntity
  8
HATCH
  6
Continuous
 62
     7
370
    30
100
AcDbLine
 10
39.228781
 20
-8.808896
 30
0.0
 11
39.230552
 21
-8.807135
 31
0.0
  0
LINE
  5
3A7
330
65D
100
AcDbEntity
  8
HATCH
  6
Continuous
 62
     7
370
    30
100
AcDbLine
 10
39.170083
 20
-9.362573
 30
0.0
 11
39.171854
 21
-9.360802
 31
0.0
  0
LINE
  5
3A8
330
65D
100
AcDbEntity
  8
HATCH
  6
Continuous
 62
     7
370
    30
100
AcDbLine
 10
39.095906
 20
-9.472104
 30
0.0
 11
39.097677
 21
-9.470344
 31
0.0
  0
LINE
  5
3A9
330
65D
100
AcDbEntity
  8
HATCH
  6
Continuous
 62
     7
370
    30
100
AcDbLine
 10
39.157146
 20
-9.410875
 30
0.0
 11
39.158917
 21
-9.409104
 31
0.0
  0
LINE
  5
3AA
330
65D
100
AcDbEntity
  8
HATCH
  6
Continuous
 62
     7
370
    30
100
AcDbLine
 10
39.082969
 20
-9.520406
 30
0.0
 11
39.08474
 21
-9.518635
 31
0.0
  0
LINE
  5
3AB
330
65D
100
AcDbEntity
  8
HATCH
  6
Continuous
 62
     7
370
    30
100
AcDbLine
 10
39.14475
 20
-9.458625
 30
0.0
 11
39.145969
 21
-9.457396
 31
0.0
  0
LINE
  5
3AC
330
65D
100
AcDbEntity
  8
HATCH
  6
Continuous
 62
     7
370
    30
100
AcDbLine
 10
39.205438
 20
-9.397927
 30
0.0
 11
39.207208
 21
-9.396167
 31
0.0
  0
LINE
  5
3AD
330
65D
100
AcDbEntity
  8
HATCH
  6
Continuous
 62
     7
370
    30
100
AcDbLine
 10
39.13126
 20
-9.507458
 30
0.0
 11
39.133031
 21
-9.505698
 31
0.0
  0
LINE
  5
3AE
330
65D
100
AcDbEntity
  8
HATCH
  6
Continuous
 62
     7
370
    30
100
AcDbLine
 10
39.1925
 20
-9.446229
 30
0.0
 11
39.194271
 21
-9.444458
 31
0.0
  0
LINE
  5
3AF
330
65D
100
AcDbEntity
  8
HATCH
  6
Continuous
 62
     7
370
    30
100
AcDbLine
 10
39.179562
 20
-9.494521
 30
0.0
 11
39.181323
 21
-9.49275
 31
0.0
  0
LINE
  5
3B0
330
65D
100
AcDbEntity
  8
HATCH
  6
Continuous
 62
     7
370
    30
100
AcDbLine
 10
39.227854
 20
-9.481583
 30
0.0
 11
39.229625
 21
-9.479812
 31
0.0
  0
LINE
  5
3B1
330
65D
100
AcDbEntity
  8
HATCH
  6
Continuous
 62
     7
370
    30
100
AcDbLine
 10
39.276156
 20
-9.468635
 30
0.0
 11
39.277917
 21
-9.466875
 31
0.0
  0
LINE
  5
3B2
330
65D
100
AcDbEntity
  8
HATCH
  6
Continuous
 62
     7
370
    30
100
AcDbLine
 10
39.263208
 20
-9.516937
 30
0.0
 11
39.264979
 21
-9.515167
 31
0.0
  0
LINE
  5
3B3
330
65D
100
AcDbEntity
  8
HATCH
  6
Continuous
 62
     7
370
    30
100
AcDbLine
 10
39.31151
 20
-9.504
 30
0.0
 11
39.313271
 21
-9.502229
 31
0.0
  0
LINE
  5
3B4
330
65D
100
AcDbEntity
  8
HATCH
  6
Continuous
 62
     7
370
    30
100
AcDbLine
 10
39.359802
 20
-9.491052
 30
0.0
 11
39.361573
 21
-9.489292
 31
0.0
  0
LINE
  5
3B5
330
65D
100
AcDbEntity
  8
HATCH
  6
Continuous
 62
     7
370
    30
100
AcDbLine
 10
39.54351
 20
-9.307344
 30
0.0
 11
39.545281
 21
-9.305573
 31
0.0
  0
LINE
  5
3B6
330
65D
100
AcDbEntity
  8
HATCH
  6
Continuous
 62
     7
370
    30
100
AcDbLine
 10
39.408104
 20
-9.478115
 30
0.0
 11
39.409865
 21
-9.476344
 31
0.0
  0
LINE
  5
3B7
330
65D
100
AcDbEntity
  8
HATCH
  6
Continuous
 62
     7
370
    30
100
AcDbLine
 10
39.530573
 20
-9.355635
 30
0.0
 11
39.532344
 21
-9.353875
 31
0.0
  0
LINE
  5
3B8
330
65D
100
AcDbEntity
  8
HATCH
  6
Continuous
 62
     7
370
    30
100
AcDbLine
 10
39.456396
 20
-9.465177
 30
0.0
 11
39.458167
 21
-9.463406
 31
0.0
  0
LINE
  5
3B9
330
65D
100
AcDbEntity
  8
HATCH
  6
Continuous
 62
     7
370
    30
100
AcDbLine
 10
39.517635
 20
-9.403937
 30
0.0
 11
39.519406
 21
-9.402167
 31
0.0
  0
LINE
  5
3BA
330
65D
100
AcDbEntity
  8
HATCH
  6
Continuous
 62
     7
370
    30
100
AcDbLine
 10
39.443458
 20
-9.513469
 30
0.0
 11
39.445219
 21
-9.511698
 31
0.0
  0
LINE
  5
3BB
330
65D
100
AcDbEntity
  8
HATCH
  6
Continuous
 62
     7
370
    30
100
AcDbLine
 10
39.504687
 20
-9.452229
 30
0.0
 11
39.506458
 21
-9.450469
 31
0.0
  0
LINE
  5
3BC
330
65D
100
AcDbEntity
  8
HATCH
  6
Continuous
 62
     7
370
    30
100
AcDbLine
 10
39.49175
 20
-9.500531
 30
0.0
 11
39.493521
 21
-9.49876
 31
0.0
  0
LINE
  5
3BD
330
65D
100
AcDbEntity
  8
HATCH
  6
Continuous
 62
     7
370
    30
100
AcDbLine
 10
39.540052
 20
-9.487583
 30
0.0
 11
39.541812
 21
-9.485823
 31
0.0
  0
LINE
  5
3BE
330
65D
100
AcDbEntity
  8
HATCH
  6
Continuous
 62
     7
370
    30
100
AcDbLine
 10
39.588344
 20
-9.474646
 30
0.0
 11
39.590115
 21
-9.472875
 31
0.0
  0
LINE
  5
3BF
330
65D
100
AcDbEntity
  8
HATCH
  6
Continuous
 62
     7
370
    30
100
AcDbLine
 10
39.575406
 20
-9.522948
 30
0.0
 11
39.577167
 21
-9.521177
 31
0.0
  0
LINE
  5
3C0
330
65D
100
AcDbEntity
  8
HATCH
  6
Continuous
 62
     7
370
    30
100
AcDbLine
 10
39.181927
 20
-9.313177
 30
0.0
 11
39.183687
 21
-9.311406
 31
0.0
  0
LINE
  5
3C1
330
65D
100
AcDbEntity
  8
HATCH
  6
Continuous
 62
     7
370
    30
100
AcDbLine
 10
39.194865
 20
-9.264875
 30
0.0
 11
39.196635
 21
-9.263104
 31
0.0
  0
LINE
  5
3C2
330
65D
100
AcDbEntity
  8
HATCH
  6
Continuous
 62
     7
370
    30
100
AcDbLine
 10
39.146563
 20
-9.277823
 30
0.0
 11
39.148333
 21
-9.276052
 31
0.0
  0
LINE
  5
3C3
330
65D
100
AcDbEntity
  8
HATCH
  6
Continuous
 62
     7
370
    30
100
AcDbLine
 10
39.15951
 20
-9.229521
 30
0.0
 11
39.161271
 21
-9.22775
 31
0.0
  0
LINE
  5
3C4
330
65D
100
AcDbEntity
  8
HATCH
  6
Continuous
 62
     7
370
    30
100
AcDbLine
 10
39.172448
 20
-9.181229
 30
0.0
 11
39.174219
 21
-9.179458
 31
0.0
  0
LINE
  5
3C5
330
65D
100
AcDbEntity
  8
HATCH
  6
Continuous
 62
     7
370
    30
100
AcDbLine
 10
39.185385
 20
-9.132927
 30
0.0
 11
39.187156
 21
-9.131156
 31
0.0
  0
LINE
  5
3C6
330
65D
100
AcDbEntity
  8
HATCH
  6
Continuous
 62
     7
370
    30
100
AcDbLine
 10
39.198333
 20
-9.084635
 30
0.0
 11
39.200094
 21
-9.082865
 31
0.0
  0
LINE
  5
3C7
330
65D
100
AcDbEntity
  8
HATCH
  6
Continuous
 62
     7
370
    30
100
AcDbLine
 10
39.150031
 20
-9.097573
 30
0.0
 11
39.151802
 21
-9.095802
 31
0.0
  0
LINE
  5
3C8
330
65D
100
AcDbEntity
  8
HATCH
  6
Continuous
 62
     7
370
    30
100
AcDbLine
 10
39.162979
 20
-9.049281
 30
0.0
 11
39.16474
 21
-9.04751
 31
0.0
  0
LINE
  5
3C9
330
65D
100
AcDbEntity
  8
HATCH
  6
Continuous
 62
     7
370
    30
100
AcDbLine
 10
39.175917
 20
-9.000979
 30
0.0
 11
39.177687
 21
-8.999208
 31
0.0
  0
LINE
  5
3CA
330
65D
100
AcDbEntity
  8
HATCH
  6
Continuous
 62
     7
370
    30
100
AcDbLine
 10
39.188854
 20
-8.952687
 30
0.0
 11
39.190625
 21
-8.950917
 31
0.0
  0
LINE
  5
3CB
330
65D
100
AcDbEntity
  8
HATCH
  6
Continuous
 62
     7
370
    30
100
AcDbLine
 10
39.201802
 20
-8.904385
 30
0.0
 11
39.203562
 21
-8.902625
 31
0.0
  0
LINE
  5
3CC
330
65D
100
AcDbEntity
  8
HATCH
  6
Continuous
 62
     7
370
    30
100
AcDbLine
 10
39.1535
 20
-8.917333
 30
0.0
 11
39.155271
 21
-8.915563
 31
0.0
  0
LINE
  5
3CD
330
65D
100
AcDbEntity
  8
HATCH
  6
Continuous
 62
     7
370
    30
100
AcDbLine
 10
39.21474
 20
-8.856094
 30
0.0
 11
39.21651
 21
-8.854323
 31
0.0
  0
LINE
  5
3CE
330
65D
100
AcDbEntity
  8
HATCH
  6
Continuous
 62
     7
370
    30
100
AcDbLine
 10
39.166448
 20
-8.869031
 30
0.0
 11
39.168208
 21
-8.86726
 31
0.0
  0
LINE
  5
3CF
330
65D
100
AcDbEntity
  8
HATCH
  6
Continuous
 62
     7
370
    30
100
AcDbLine
 10
39.227677
 20
-8.807792
 30
0.0
 11
39.229208
 21
-8.80626
 31
0.0
  0
LINE
  5
3D0
330
65D
100
AcDbEntity
  8
HATCH
  6
Continuous
 62
     7
370
    30
100
AcDbLine
 10
39.168979
 20
-9.361469
 30
0.0
 11
39.17075
 21
-9.359698
 31
0.0
  0
LINE
  5
3D1
330
65D
100
AcDbEntity
  8
HATCH
  6
Continuous
 62
     7
370
    30
100
AcDbLine
 10
39.094802
 20
-9.471
 30
0.0
 11
39.096573
 21
-9.46924
 31
0.0
  0
LINE
  5
3D2
330
65D
100
AcDbEntity
  8
HATCH
  6
Continuous
 62
     7
370
    30
100
AcDbLine
 10
39.156042
 20
-9.409771
 30
0.0
 11
39.157812
 21
-9.408
 31
0.0
  0
LINE
  5
3D3
330
65D
100
AcDbEntity
  8
HATCH
  6
Continuous
 62
     7
370
    30
100
AcDbLine
 10
39.08225
 20
-9.518917
 30
0.0
 11
39.083625
 21
-9.517531
 31
0.0
  0
LINE
  5
3D4
330
65D
100
AcDbEntity
  8
HATCH
  6
Continuous
 62
     7
370
    30
100
AcDbLine
 10
39.14475
 20
-9.456417
 30
0.0
 11
39.144865
 21
-9.456292
 31
0.0
  0
LINE
  5
3D5
330
65D
100
AcDbEntity
  8
HATCH
  6
Continuous
 62
     7
370
    30
100
AcDbLine
 10
39.204333
 20
-9.396823
 30
0.0
 11
39.206104
 21
-9.395052
 31
0.0
  0
LINE
  5
3D6
330
65D
100
AcDbEntity
  8
HATCH
  6
Continuous
 62
     7
370
    30
100
AcDbLine
 10
39.130156
 20
-9.506354
 30
0.0
 11
39.131927
 21
-9.504594
 31
0.0
  0
LINE
  5
3D7
330
65D
100
AcDbEntity
  8
HATCH
  6
Continuous
 62
     7
370
    30
100
AcDbLine
 10
39.191396
 20
-9.445125
 30
0.0
 11
39.193167
 21
-9.443354
 31
0.0
  0
LINE
  5
3D8
330
65D
100
AcDbEntity
  8
HATCH
  6
Continuous
 62
     7
370
    30
100
AcDbLine
 10
39.178458
 20
-9.493417
 30
0.0
 11
39.180219
 21
-9.491646
 31
0.0
  0
LINE
  5
3D9
330
65D
100
AcDbEntity
  8
HATCH
  6
Continuous
 62
     7
370
    30
100
AcDbLine
 10
39.22675
 20
-9.480479
 30
0.0
 11
39.228521
 21
-9.478708
 31
0.0
  0
LINE
  5
3DA
330
65D
100
AcDbEntity
  8
HATCH
  6
Continuous
 62
     7
370
    30
100
AcDbLine
 10
39.275052
 20
-9.467531
 30
0.0
 11
39.276812
 21
-9.465771
 31
0.0
  0
LINE
  5
3DB
330
65D
100
AcDbEntity
  8
HATCH
  6
Continuous
 62
     7
370
    30
100
AcDbLine
 10
39.262104
 20
-9.515833
 30
0.0
 11
39.263875
 21
-9.514062
 31
0.0
  0
LINE
  5
3DC
330
65D
100
AcDbEntity
  8
HATCH
  6
Continuous
 62
     7
370
    30
100
AcDbLine
 10
39.310406
 20
-9.502896
 30
0.0
 11
39.312167
 21
-9.501125
 31
0.0
  0
LINE
  5
3DD
330
65D
100
AcDbEntity
  8
HATCH
  6
Continuous
 62
     7
370
    30
100
AcDbLine
 10
39.358698
 20
-9.489948
 30
0.0
 11
39.360469
 21
-9.488188
 31
0.0
  0
LINE
  5
3DE
330
65D
100
AcDbEntity
  8
HATCH
  6
Continuous
 62
     7
370
    30
100
AcDbLine
 10
39.542406
 20
-9.30624
 30
0.0
 11
39.544177
 21
-9.304469
 31
0.0
  0
LINE
  5
3DF
330
65D
100
AcDbEntity
  8
HATCH
  6
Continuous
 62
     7
370
    30
100
AcDbLine
 10
39.407
 20
-9.47701
 30
0.0
 11
39.40876
 21
-9.47524
 31
0.0
  0
LINE
  5
3E0
330
65D
100
AcDbEntity
  8
HATCH
  6
Continuous
 62
     7
370
    30
100
AcDbLine
 10
39.529469
 20
-9.354531
 30
0.0
 11
39.53124
 21
-9.352771
 31
0.0
  0
LINE
  5
3E1
330
65D
100
AcDbEntity
  8
HATCH
  6
Continuous
 62
     7
370
    30
100
AcDbLine
 10
39.395354
 20
-9.524
 30
0.0
 11
39.395823
 21
-9.523542
 31
0.0
  0
LINE
  5
3E2
330
65D
100
AcDbEntity
  8
HATCH
  6
Continuous
 62
     7
370
    30
100
AcDbLine
 10
39.455292
 20
-9.464073
 30
0.0
 11
39.457062
 21
-9.462302
 31
0.0
  0
LINE
  5
3E3
330
65D
100
AcDbEntity
  8
HATCH
  6
Continuous
 62
     7
370
    30
100
AcDbLine
 10
39.516531
 20
-9.402833
 30
0.0
 11
39.518292
 21
-9.401063
 31
0.0
  0
LINE
  5
3E4
330
65D
100
AcDbEntity
  8
HATCH
  6
Continuous
 62
     7
370
    30
100
AcDbLine
 10
39.442354
 20
-9.512365
 30
0.0
 11
39.444115
 21
-9.510594
 31
0.0
  0
LINE
  5
3E5
330
65D
100
AcDbEntity
  8
HATCH
  6
Continuous
 62
     7
370
    30
100
AcDbLine
 10
39.503583
 20
-9.451125
 30
0.0
 11
39.505354
 21
-9.449365
 31
0.0
  0
LINE
  5
3E6
330
65D
100
AcDbEntity
  8
HATCH
  6
Continuous
 62
     7
370
    30
100
AcDbLine
 10
39.490646
 20
-9.499427
 30
0.0
 11
39.492417
 21
-9.497656
 31
0.0
  0
LINE
  5
3E7
330
65D
100
AcDbEntity
  8
HATCH
  6
Continuous
 62
     7
370
    30
100
AcDbLine
 10
39.538948
 20
-9.486479
 30
0.0
 11
39.540708
 21
-9.484719
 31
0.0
  0
LINE
  5
3E8
330
65D
100
AcDbEntity
  8
HATCH
  6
Continuous
 62
     7
370
    30
100
AcDbLine
 10
39.58724
 20
-9.473542
 30
0.0
 11
39.58901
 21
-9.471771
 31
0.0
  0
LINE
  5
3E9
330
65D
100
AcDbEntity
  8
HATCH
  6
Continuous
 62
     7
370
    30
100
AcDbLine
 10
39.574302
 20
-9.521833
 30
0.0
 11
39.576062
 21
-9.520073
 31
0.0
  0
LINE
  5
3EA
330
65D
100
AcDbEntity
  8
HATCH
  6
Continuous
 62
     7
370
    30
100
AcDbLine
 10
39.174104
 20
-9.182885
 30
0.0
 11
39.176042
 21
-9.182365
 31
0.0
  0
LINE
  5
3EB
330
65D
100
AcDbEntity
  8
HATCH
  6
Continuous
 62
     7
370
    30
100
AcDbLine
 10
39.187052
 20
-9.134583
 30
0.0
 11
39.188979
 21
-9.134073
 31
0.0
  0
LINE
  5
3EC
330
65D
100
AcDbEntity
  8
HATCH
  6
Continuous
 62
     7
370
    30
100
AcDbLine
 10
39.151688
 20
-9.099229
 30
0.0
 11
39.153625
 21
-9.098708
 31
0.0
  0
LINE
  5
3ED
330
65D
100
AcDbEntity
  8
HATCH
  6
Continuous
 62
     7
370
    30
100
AcDbLine
 10
39.19999
 20
-9.086292
 30
0.0
 11
39.201917
 21
-9.085771
 31
0.0
  0
LINE
  5
3EE
330
65D
100
AcDbEntity
  8
HATCH
  6
Continuous
 62
     7
370
    30
100
AcDbLine
 10
39.164635
 20
-9.050937
 30
0.0
 11
39.166562
 21
-9.050417
 31
0.0
  0
LINE
  5
3EF
330
65D
100
AcDbEntity
  8
HATCH
  6
Continuous
 62
     7
370
    30
100
AcDbLine
 10
39.177573
 20
-9.002635
 30
0.0
 11
39.17951
 21
-9.002125
 31
0.0
  0
LINE
  5
3F0
330
65D
100
AcDbEntity
  8
HATCH
  6
Continuous
 62
     7
370
    30
100
AcDbLine
 10
39.19051
 20
-8.954344
 30
0.0
 11
39.192448
 21
-8.953823
 31
0.0
  0
LINE
  5
3F1
330
65D
100
AcDbEntity
  8
HATCH
  6
Continuous
 62
     7
370
    30
100
AcDbLine
 10
39.155156
 20
-8.91899
 30
0.0
 11
39.157094
 21
-8.918469
 31
0.0
  0
LINE
  5
3F2
330
65D
100
AcDbEntity
  8
HATCH
  6
Continuous
 62
     7
370
    30
100
AcDbLine
 10
39.203458
 20
-8.906042
 30
0.0
 11
39.205385
 21
-8.905531
 31
0.0
  0
LINE
  5
3F3
330
65D
100
AcDbEntity
  8
HATCH
  6
Continuous
 62
     7
370
    30
100
AcDbLine
 10
39.168104
 20
-8.870687
 30
0.0
 11
39.170031
 21
-8.870177
 31
0.0
  0
LINE
  5
3F4
330
65D
100
AcDbEntity
  8
HATCH
  6
Continuous
 62
     7
370
    30
100
AcDbLine
 10
39.216396
 20
-8.85775
 30
0.0
 11
39.218333
 21
-8.857229
 31
0.0
  0
LINE
  5
3F5
330
65D
100
AcDbEntity
  8
HATCH
  6
Continuous
 62
     7
370
    30
100
AcDbLine
 10
39.229333
 20
-8.809458
 30
0.0
 11
39.231271
 21
-8.808937
 31
0.0
  0
LINE
  5
3F6
330
65D
100
AcDbEntity
  8
HATCH
  6
Continuous
 62
     7
370
    30
100
AcDbLine
 10
39.161167
 20
-9.231177
 30
0.0
 11
39.163094
 21
-9.230656
 31
0.0
  0
LINE
  5
3F7
330
65D
100
AcDbEntity
  8
HATCH
  6
Continuous
 62
     7
370
    30
100
AcDbLine
 10
39.148229
 20
-9.279479
 30
0.0
 11
39.150156
 21
-9.278958
 31
0.0
  0
LINE
  5
3F8
330
65D
100
AcDbEntity
  8
HATCH
  6
Continuous
 62
     7
370
    30
100
AcDbLine
 10
39.196521
 20
-9.266531
 30
0.0
 11
39.198448
 21
-9.266021
 31
0.0
  0
LINE
  5
3F9
330
65D
100
AcDbEntity
  8
HATCH
  6
Continuous
 62
     7
370
    30
100
AcDbLine
 10
39.183583
 20
-9.314833
 30
0.0
 11
39.18551
 21
-9.314312
 31
0.0
  0
LINE
  5
3FA
330
65D
100
AcDbEntity
  8
HATCH
  6
Continuous
 62
     7
370
    30
100
AcDbLine
 10
39.170635
 20
-9.363125
 30
0.0
 11
39.172573
 21
-9.362604
 31
0.0
  0
LINE
  5
3FB
330
65D
100
AcDbEntity
  8
HATCH
  6
Continuous
 62
     7
370
    30
100
AcDbLine
 10
39.157698
 20
-9.411427
 30
0.0
 11
39.159625
 21
-9.410906
 31
0.0
  0
LINE
  5
3FC
330
65D
100
AcDbEntity
  8
HATCH
  6
Continuous
 62
     7
370
    30
100
AcDbLine
 10
39.20599
 20
-9.398479
 30
0.0
 11
39.20725
 21
-9.398146
 31
0.0
  0
LINE
  5
3FD
330
65D
100
AcDbEntity
  8
HATCH
  6
Continuous
 62
     7
370
    30
100
AcDbLine
 10
39.495771
 20
-9.320833
 30
0.0
 11
39.497708
 21
-9.320323
 31
0.0
  0
LINE
  5
3FE
330
65D
100
AcDbEntity
  8
HATCH
  6
Continuous
 62
     7
370
    30
100
AcDbLine
 10
39.544073
 20
-9.307896
 30
0.0
 11
39.546
 21
-9.307375
 31
0.0
  0
LINE
  5
3FF
330
65D
100
AcDbEntity
  8
HATCH
  6
Continuous
 62
     7
370
    30
100
AcDbLine
 10
39.096458
 20
-9.472656
 30
0.0
 11
39.098396
 21
-9.472146
 31
0.0
  0
LINE
  5
400
330
65D
100
AcDbEntity
  8
HATCH
  6
Continuous
 62
     7
370
    30
100
AcDbLine
 10
39.484313
 20
-9.36874
 30
0.0
 11
39.48476
 21
-9.368615
 31
0.0
  0
LINE
  5
401
330
65D
100
AcDbEntity
  8
HATCH
  6
Continuous
 62
     7
370
    30
100
AcDbLine
 10
39.531125
 20
-9.356187
 30
0.0
 11
39.533062
 21
-9.355677
 31
0.0
  0
LINE
  5
402
330
65D
100
AcDbEntity
  8
HATCH
  6
Continuous
 62
     7
370
    30
100
AcDbLine
 10
39.14476
 20
-9.459719
 30
0.0
 11
39.146687
 21
-9.459198
 31
0.0
  0
LINE
  5
403
330
65D
100
AcDbEntity
  8
HATCH
  6
Continuous
 62
     7
370
    30
100
AcDbLine
 10
39.193052
 20
-9.446781
 30
0.0
 11
39.19499
 21
-9.44626
 31
0.0
  0
LINE
  5
404
330
65D
100
AcDbEntity
  8
HATCH
  6
Continuous
 62
     7
370
    30
100
AcDbLine
 10
39.083521
 20
-9.520958
 30
0.0
 11
39.085448
 21
-9.520437
 31
0.0
  0
LINE
  5
405
330
65D
100
AcDbEntity
  8
HATCH
  6
Continuous
 62
     7
370
    30
100
AcDbLine
 10
39.131812
 20
-9.508021
 30
0.0
 11
39.13375
 21
-9.5075
 31
0.0
  0
LINE
  5
406
330
65D
100
AcDbEntity
  8
HATCH
  6
Continuous
 62
     7
370
    30
100
AcDbLine
 10
39.180115
 20
-9.495073
 30
0.0
 11
39.182042
 21
-9.494552
 31
0.0
  0
LINE
  5
407
330
65D
100
AcDbEntity
  8
HATCH
  6
Continuous
 62
     7
370
    30
100
AcDbLine
 10
39.228406
 20
-9.482135
 30
0.0
 11
39.230344
 21
-9.481615
 31
0.0
  0
LINE
  5
408
330
65D
100
AcDbEntity
  8
HATCH
  6
Continuous
 62
     7
370
    30
100
AcDbLine
 10
39.276708
 20
-9.469198
 30
0.0
 11
39.278635
 21
-9.468677
 31
0.0
  0
LINE
  5
409
330
65D
100
AcDbEntity
  8
HATCH
  6
Continuous
 62
     7
370
    30
100
AcDbLine
 10
39.518187
 20
-9.40449
 30
0.0
 11
39.520115
 21
-9.403969
 31
0.0
  0
LINE
  5
40A
330
65D
100
AcDbEntity
  8
HATCH
  6
Continuous
 62
     7
370
    30
100
AcDbLine
 10
39.26376
 20
-9.51749
 30
0.0
 11
39.265698
 21
-9.516969
 31
0.0
  0
LINE
  5
40B
330
65D
100
AcDbEntity
  8
HATCH
  6
Continuous
 62
     7
370
    30
100
AcDbLine
 10
39.312062
 20
-9.504552
 30
0.0
 11
39.31399
 21
-9.504031
 31
0.0
  0
LINE
  5
40C
330
65D
100
AcDbEntity
  8
HATCH
  6
Continuous
 62
     7
370
    30
100
AcDbLine
 10
39.360354
 20
-9.491604
 30
0.0
 11
39.362292
 21
-9.491094
 31
0.0
  0
LINE
  5
40D
330
65D
100
AcDbEntity
  8
HATCH
  6
Continuous
 62
     7
370
    30
100
AcDbLine
 10
39.408656
 20
-9.478667
 30
0.0
 11
39.410583
 21
-9.478146
 31
0.0
  0
LINE
  5
40E
330
65D
100
AcDbEntity
  8
HATCH
  6
Continuous
 62
     7
370
    30
100
AcDbLine
 10
39.456948
 20
-9.465729
 30
0.0
 11
39.458885
 21
-9.465208
 31
0.0
  0
LINE
  5
40F
330
65D
100
AcDbEntity
  8
HATCH
  6
Continuous
 62
     7
370
    30
100
AcDbLine
 10
39.50525
 20
-9.452781
 30
0.0
 11
39.507177
 21
-9.452271
 31
0.0
  0
LINE
  5
410
330
65D
100
AcDbEntity
  8
HATCH
  6
Continuous
 62
     7
370
    30
100
AcDbLine
 10
39.44401
 20
-9.514021
 30
0.0
 11
39.445937
 21
-9.5135
 31
0.0
  0
LINE
  5
411
330
65D
100
AcDbEntity
  8
HATCH
  6
Continuous
 62
     7
370
    30
100
AcDbLine
 10
39.492302
 20
-9.501083
 30
0.0
 11
39.49424
 21
-9.500562
 31
0.0
  0
LINE
  5
412
330
65D
100
AcDbEntity
  8
HATCH
  6
Continuous
 62
     7
370
    30
100
AcDbLine
 10
39.540604
 20
-9.488135
 30
0.0
 11
39.542531
 21
-9.487625
 31
0.0
  0
LINE
  5
413
330
65D
100
AcDbEntity
  8
HATCH
  6
Continuous
 62
     7
370
    30
100
AcDbLine
 10
39.588896
 20
-9.475198
 30
0.0
 11
39.590833
 21
-9.474677
 31
0.0
  0
LINE
  5
414
330
65D
100
AcDbEntity
  8
HATCH
  6
Continuous
 62
     7
370
    30
100
AcDbLine
 10
39.575958
 20
-9.5235
 30
0.0
 11
39.577885
 21
-9.522979
 31
0.0
  0
LINE
  5
415
330
65D
100
AcDbEntity
  8
HATCH
  6
Continuous
 62
     7
370
    30
100
AcDbLine
 10
39.226198
 20
-9.479927
 30
0.0
 11
39.226719
 21
-9.47799
 31
0.0
  0
LINE
  5
416
330
65D
100
AcDbEntity
  8
HATCH
  6
Continuous
 62
     7
370
    30
100
AcDbLine
 10
39.177906
 20
-9.492865
 30
0.0
 11
39.178417
 21
-9.490937
 31
0.0
  0
LINE
  5
417
330
65D
100
AcDbEntity
  8
HATCH
  6
Continuous
 62
     7
370
    30
100
AcDbLine
 10
39.190844
 20
-9.444573
 30
0.0
 11
39.191365
 21
-9.442635
 31
0.0
  0
LINE
  5
418
330
65D
100
AcDbEntity
  8
HATCH
  6
Continuous
 62
     7
370
    30
100
AcDbLine
 10
39.203781
 20
-9.396271
 30
0.0
 11
39.204302
 21
-9.394344
 31
0.0
  0
LINE
  5
419
330
65D
100
AcDbEntity
  8
HATCH
  6
Continuous
 62
     7
370
    30
100
AcDbLine
 10
39.15549
 20
-9.409219
 30
0.0
 11
39.15601
 21
-9.407281
 31
0.0
  0
LINE
  5
41A
330
65D
100
AcDbEntity
  8
HATCH
  6
Continuous
 62
     7
370
    30
100
AcDbLine
 10
39.168427
 20
-9.360917
 30
0.0
 11
39.168948
 21
-9.35899
 31
0.0
  0
LINE
  5
41B
330
65D
100
AcDbEntity
  8
HATCH
  6
Continuous
 62
     7
370
    30
100
AcDbLine
 10
39.181365
 20
-9.312625
 30
0.0
 11
39.181885
 21
-9.310688
 31
0.0
  0
LINE
  5
41C
330
65D
100
AcDbEntity
  8
HATCH
  6
Continuous
 62
     7
370
    30
100
AcDbLine
 10
39.194312
 20
-9.264323
 30
0.0
 11
39.194833
 21
-9.262396
 31
0.0
  0
LINE
  5
41D
330
65D
100
AcDbEntity
  8
HATCH
  6
Continuous
 62
     7
370
    30
100
AcDbLine
 10
39.129604
 20
-9.505802
 30
0.0
 11
39.130125
 21
-9.503875
 31
0.0
  0
LINE
  5
41E
330
65D
100
AcDbEntity
  8
HATCH
  6
Continuous
 62
     7
370
    30
100
AcDbLine
 10
39.09425
 20
-9.470448
 30
0.0
 11
39.094771
 21
-9.468521
 31
0.0
  0
LINE
  5
41F
330
65D
100
AcDbEntity
  8
HATCH
  6
Continuous
 62
     7
370
    30
100
AcDbLine
 10
39.14601
 20
-9.277271
 30
0.0
 11
39.146531
 21
-9.275333
 31
0.0
  0
LINE
  5
420
330
65D
100
AcDbEntity
  8
HATCH
  6
Continuous
 62
     7
370
    30
100
AcDbLine
 10
39.158958
 20
-9.228969
 30
0.0
 11
39.159469
 21
-9.227042
 31
0.0
  0
LINE
  5
421
330
65D
100
AcDbEntity
  8
HATCH
  6
Continuous
 62
     7
370
    30
100
AcDbLine
 10
39.171896
 20
-9.180677
 30
0.0
 11
39.172417
 21
-9.17874
 31
0.0
  0
LINE
  5
422
330
65D
100
AcDbEntity
  8
HATCH
  6
Continuous
 62
     7
370
    30
100
AcDbLine
 10
39.184833
 20
-9.132375
 30
0.0
 11
39.185354
 21
-9.130448
 31
0.0
  0
LINE
  5
423
330
65D
100
AcDbEntity
  8
HATCH
  6
Continuous
 62
     7
370
    30
100
AcDbLine
 10
39.197781
 20
-9.084083
 30
0.0
 11
39.198292
 21
-9.082146
 31
0.0
  0
LINE
  5
424
330
65D
100
AcDbEntity
  8
HATCH
  6
Continuous
 62
     7
370
    30
100
AcDbLine
 10
39.149479
 20
-9.097021
 30
0.0
 11
39.15
 21
-9.095094
 31
0.0
  0
LINE
  5
425
330
65D
100
AcDbEntity
  8
HATCH
  6
Continuous
 62
     7
370
    30
100
AcDbLine
 10
39.162427
 20
-9.048729
 30
0.0
 11
39.162937
 21
-9.046792
 31
0.0
  0
LINE
  5
426
330
65D
100
AcDbEntity
  8
HATCH
  6
Continuous
 62
     7
370
    30
100
AcDbLine
 10
39.175365
 20
-9.000427
 30
0.0
 11
39.175885
 21
-8.9985
 31
0.0
  0
LINE
  5
427
330
65D
100
AcDbEntity
  8
HATCH
  6
Continuous
 62
     7
370
    30
100
AcDbLine
 10
39.188302
 20
-8.952135
 30
0.0
 11
39.188823
 21
-8.950198
 31
0.0
  0
LINE
  5
428
330
65D
100
AcDbEntity
  8
HATCH
  6
Continuous
 62
     7
370
    30
100
AcDbLine
 10
39.20125
 20
-8.903833
 30
0.0
 11
39.20176
 21
-8.901906
 31
0.0
  0
LINE
  5
429
330
65D
100
AcDbEntity
  8
HATCH
  6
Continuous
 62
     7
370
    30
100
AcDbLine
 10
39.214188
 20
-8.855542
 30
0.0
 11
39.214708
 21
-8.853604
 31
0.0
  0
LINE
  5
42A
330
65D
100
AcDbEntity
  8
HATCH
  6
Continuous
 62
     7
370
    30
100
AcDbLine
 10
39.227125
 20
-8.80724
 30
0.0
 11
39.227417
 21
-8.806156
 31
0.0
  0
LINE
  5
42B
330
65D
100
AcDbEntity
  8
HATCH
  6
Continuous
 62
     7
370
    30
100
AcDbLine
 10
39.152948
 20
-8.916781
 30
0.0
 11
39.153469
 21
-8.914844
 31
0.0
  0
LINE
  5
42C
330
65D
100
AcDbEntity
  8
HATCH
  6
Continuous
 62
     7
370
    30
100
AcDbLine
 10
39.165885
 20
-8.868479
 30
0.0
 11
39.166406
 21
-8.866552
 31
0.0
  0
LINE
  5
42D
330
65D
100
AcDbEntity
  8
HATCH
  6
Continuous
 62
     7
370
    30
100
AcDbLine
 10
39.261552
 20
-9.515281
 30
0.0
 11
39.262073
 21
-9.513344
 31
0.0
  0
LINE
  5
42E
330
65D
100
AcDbEntity
  8
HATCH
  6
Continuous
 62
     7
370
    30
100
AcDbLine
 10
39.27449
 20
-9.466979
 30
0.0
 11
39.27501
 21
-9.465052
 31
0.0
  0
LINE
  5
42F
330
65D
100
AcDbEntity
  8
HATCH
  6
Continuous
 62
     7
370
    30
100
AcDbLine
 10
39.309854
 20
-9.502344
 30
0.0
 11
39.310365
 21
-9.500406
 31
0.0
  0
LINE
  5
430
330
65D
100
AcDbEntity
  8
HATCH
  6
Continuous
 62
     7
370
    30
100
AcDbLine
 10
39.358146
 20
-9.489396
 30
0.0
 11
39.358667
 21
-9.487469
 31
0.0
  0
LINE
  5
431
330
65D
100
AcDbEntity
  8
HATCH
  6
Continuous
 62
     7
370
    30
100
AcDbLine
 10
39.393698
 20
-9.524
 30
0.0
 11
39.394021
 21
-9.522823
 31
0.0
  0
LINE
  5
432
330
65D
100
AcDbEntity
  8
HATCH
  6
Continuous
 62
     7
370
    30
100
AcDbLine
 10
39.406437
 20
-9.476458
 30
0.0
 11
39.406958
 21
-9.474521
 31
0.0
  0
LINE
  5
433
330
65D
100
AcDbEntity
  8
HATCH
  6
Continuous
 62
     7
370
    30
100
AcDbLine
 10
39.441802
 20
-9.511812
 30
0.0
 11
39.442312
 21
-9.509885
 31
0.0
  0
LINE
  5
434
330
65D
100
AcDbEntity
  8
HATCH
  6
Continuous
 62
     7
370
    30
100
AcDbLine
 10
39.45474
 20
-9.463521
 30
0.0
 11
39.45526
 21
-9.461583
 31
0.0
  0
LINE
  5
435
330
65D
100
AcDbEntity
  8
HATCH
  6
Continuous
 62
     7
370
    30
100
AcDbLine
 10
39.490094
 20
-9.498875
 30
0.0
 11
39.490615
 21
-9.496937
 31
0.0
  0
LINE
  5
436
330
65D
100
AcDbEntity
  8
HATCH
  6
Continuous
 62
     7
370
    30
100
AcDbLine
 10
39.503031
 20
-9.450573
 30
0.0
 11
39.503552
 21
-9.448646
 31
0.0
  0
LINE
  5
437
330
65D
100
AcDbEntity
  8
HATCH
  6
Continuous
 62
     7
370
    30
100
AcDbLine
 10
39.515979
 20
-9.402281
 30
0.0
 11
39.51649
 21
-9.400344
 31
0.0
  0
LINE
  5
438
330
65D
100
AcDbEntity
  8
HATCH
  6
Continuous
 62
     7
370
    30
100
AcDbLine
 10
39.528917
 20
-9.353979
 30
0.0
 11
39.529438
 21
-9.352052
 31
0.0
  0
LINE
  5
439
330
65D
100
AcDbEntity
  8
HATCH
  6
Continuous
 62
     7
370
    30
100
AcDbLine
 10
39.541854
 20
-9.305687
 30
0.0
 11
39.542375
 21
-9.30375
 31
0.0
  0
LINE
  5
43A
330
65D
100
AcDbEntity
  8
HATCH
  6
Continuous
 62
     7
370
    30
100
AcDbLine
 10
39.538385
 20
-9.485927
 30
0.0
 11
39.538906
 21
-9.484
 31
0.0
  0
LINE
  5
43B
330
65D
100
AcDbEntity
  8
HATCH
  6
Continuous
 62
     7
370
    30
100
AcDbLine
 10
39.57375
 20
-9.521281
 30
0.0
 11
39.57426
 21
-9.519354
 31
0.0
  0
LINE
  5
43C
330
65D
100
AcDbEntity
  8
HATCH
  6
Continuous
 62
     7
370
    30
100
AcDbLine
 10
39.586687
 20
-9.47299
 30
0.0
 11
39.587208
 21
-9.471063
 31
0.0
  0
LINE
  5
43D
330
65D
100
AcDbEntity
  8
HATCH
  6
Continuous
 62
     7
370
    30
100
AcDbLine
 10
39.529167
 20
-8.905948
 30
0.0
 11
39.592854
 21
-8.969635
 31
0.0
  0
LINE
  5
43E
330
65D
100
AcDbEntity
  8
HATCH
  6
Continuous
 62
     7
370
    30
100
AcDbLine
 10
39.68125
 20
-9.058021
 30
0.0
 11
39.769635
 21
-9.146406
 31
0.0
  0
LINE
  5
43F
330
65D
100
AcDbEntity
  8
HATCH
  6
Continuous
 62
     7
370
    30
100
AcDbLine
 10
39.68125
 20
-8.88125
 30
0.0
 11
39.769635
 21
-8.969635
 31
0.0
  0
LINE
  5
440
330
65D
100
AcDbEntity
  8
HATCH
  6
Continuous
 62
     7
370
    30
100
AcDbLine
 10
39.858021
 20
-9.058021
 30
0.0
 11
39.86276
 21
-9.06276
 31
0.0
  0
LINE
  5
441
330
65D
100
AcDbEntity
  8
HATCH
  6
Continuous
 62
     7
370
    30
100
AcDbLine
 10
39.76124
 20
-8.784458
 30
0.0
 11
39.769635
 21
-8.792854
 31
0.0
  0
LINE
  5
442
330
65D
100
AcDbEntity
  8
HATCH
  6
Continuous
 62
     7
370
    30
100
AcDbLine
 10
39.858021
 20
-8.88125
 30
0.0
 11
39.910885
 21
-8.934104
 31
0.0
  0
LINE
  5
443
330
65D
100
AcDbEntity
  8
HATCH
  6
Continuous
 62
     7
370
    30
100
AcDbLine
 10
39.92526
 20
-8.771708
 30
0.0
 11
39.946406
 21
-8.792854
 31
0.0
  0
LINE
  5
444
330
65D
100
AcDbEntity
  8
HATCH
  6
Continuous
 62
     7
370
    30
100
AcDbLine
 10
39.546813
 20
-9.100375
 30
0.0
 11
39.592854
 21
-9.146406
 31
0.0
  0
LINE
  5
445
330
65D
100
AcDbEntity
  8
HATCH
  6
Continuous
 62
     7
370
    30
100
AcDbLine
 10
39.537615
 20
-8.848104
 30
0.0
 11
39.626
 21
-8.93649
 31
0.0
  0
LINE
  5
446
330
65D
100
AcDbEntity
  8
HATCH
  6
Continuous
 62
     7
370
    30
100
AcDbLine
 10
39.714396
 20
-9.024875
 30
0.0
 11
39.802781
 21
-9.11326
 31
0.0
  0
LINE
  5
447
330
65D
100
AcDbEntity
  8
HATCH
  6
Continuous
 62
     7
370
    30
100
AcDbLine
 10
39.714396
 20
-8.848104
 30
0.0
 11
39.802781
 21
-8.93649
 31
0.0
  0
LINE
  5
448
330
65D
100
AcDbEntity
  8
HATCH
  6
Continuous
 62
     7
370
    30
100
AcDbLine
 10
39.891167
 20
-8.848104
 30
0.0
 11
39.934792
 21
-8.891729
 31
0.0
  0
LINE
  5
449
330
65D
100
AcDbEntity
  8
HATCH
  6
Continuous
 62
     7
370
    30
100
AcDbLine
 10
39.546813
 20
-9.034083
 30
0.0
 11
39.626
 21
-9.11326
 31
0.0
  0
LINE
  5
44A
330
65D
100
AcDbEntity
  8
HATCH
  6
Continuous
 62
     7
370
    30
100
AcDbLine
 10
39.57076
 20
-8.814958
 30
0.0
 11
39.659146
 21
-8.903344
 31
0.0
  0
LINE
  5
44B
330
65D
100
AcDbEntity
  8
HATCH
  6
Continuous
 62
     7
370
    30
100
AcDbLine
 10
39.747542
 20
-8.991729
 30
0.0
 11
39.835927
 21
-9.080125
 31
0.0
  0
LINE
  5
44C
330
65D
100
AcDbEntity
  8
HATCH
  6
Continuous
 62
     7
370
    30
100
AcDbLine
 10
39.747542
 20
-8.814958
 30
0.0
 11
39.835927
 21
-8.903344
 31
0.0
  0
LINE
  5
44D
330
65D
100
AcDbEntity
  8
HATCH
  6
Continuous
 62
     7
370
    30
100
AcDbLine
 10
39.924312
 20
-8.814958
 30
0.0
 11
39.958708
 21
-8.849344
 31
0.0
  0
LINE
  5
44E
330
65D
100
AcDbEntity
  8
HATCH
  6
Continuous
 62
     7
370
    30
100
AcDbLine
 10
39.57076
 20
-8.991729
 30
0.0
 11
39.659146
 21
-9.080125
 31
0.0
  0
LINE
  5
44F
330
65D
100
AcDbEntity
  8
HATCH
  6
Continuous
 62
     7
370
    30
100
AcDbLine
 10
39.747542
 20
-9.16851
 30
0.0
 11
39.759125
 21
-9.180094
 31
0.0
  0
LINE
  5
450
330
65D
100
AcDbEntity
  8
HATCH
  6
Continuous
 62
     7
370
    30
100
AcDbLine
 10
39.57076
 20
-9.16851
 30
0.0
 11
39.577729
 21
-9.175479
 31
0.0
  0
LINE
  5
451
330
65D
100
AcDbEntity
  8
HATCH
  6
Continuous
 62
     7
370
    30
100
AcDbLine
 10
39.592854
 20
-8.991729
 30
0.0
 11
39.68125
 21
-8.903344
 31
0.0
  0
LINE
  5
452
330
65D
100
AcDbEntity
  8
HATCH
  6
Continuous
 62
     7
370
    30
100
AcDbLine
 10
39.769635
 20
-8.814958
 30
0.0
 11
39.803406
 21
-8.781187
 31
0.0
  0
LINE
  5
453
330
65D
100
AcDbEntity
  8
HATCH
  6
Continuous
 62
     7
370
    30
100
AcDbLine
 10
39.592854
 20
-8.814958
 30
0.0
 11
39.611719
 21
-8.796094
 31
0.0
  0
LINE
  5
454
330
65D
100
AcDbEntity
  8
HATCH
  6
Continuous
 62
     7
370
    30
100
AcDbLine
 10
39.592854
 20
-9.16851
 30
0.0
 11
39.68125
 21
-9.080125
 31
0.0
  0
LINE
  5
455
330
65D
100
AcDbEntity
  8
HATCH
  6
Continuous
 62
     7
370
    30
100
AcDbLine
 10
39.769635
 20
-8.991729
 30
0.0
 11
39.858021
 21
-8.903344
 31
0.0
  0
LINE
  5
456
330
65D
100
AcDbEntity
  8
HATCH
  6
Continuous
 62
     7
370
    30
100
AcDbLine
 10
39.946406
 20
-8.814958
 30
0.0
 11
39.995094
 21
-8.766271
 31
0.0
  0
LINE
  5
457
330
65D
100
AcDbEntity
  8
HATCH
  6
Continuous
 62
     7
370
    30
100
AcDbLine
 10
39.769635
 20
-9.16851
 30
0.0
 11
39.858021
 21
-9.080125
 31
0.0
  0
LINE
  5
458
330
65D
100
AcDbEntity
  8
HATCH
  6
Continuous
 62
     7
370
    30
100
AcDbLine
 10
39.626
 20
-9.024875
 30
0.0
 11
39.714396
 21
-8.93649
 31
0.0
  0
LINE
  5
459
330
65D
100
AcDbEntity
  8
HATCH
  6
Continuous
 62
     7
370
    30
100
AcDbLine
 10
39.802781
 20
-8.848104
 30
0.0
 11
39.875292
 21
-8.775594
 31
0.0
  0
LINE
  5
45A
330
65D
100
AcDbEntity
  8
HATCH
  6
Continuous
 62
     7
370
    30
100
AcDbLine
 10
39.626
 20
-8.848104
 30
0.0
 11
39.683604
 21
-8.7905
 31
0.0
  0
LINE
  5
45B
330
65D
100
AcDbEntity
  8
HATCH
  6
Continuous
 62
     7
370
    30
100
AcDbLine
 10
39.487083
 20
-8.81025
 30
0.0
 11
39.491906
 21
-8.805417
 31
0.0
  0
LINE
  5
45C
330
65D
100
AcDbEntity
  8
HATCH
  6
Continuous
 62
     7
370
    30
100
AcDbLine
 10
39.650333
 20
-9.177323
 30
0.0
 11
39.714396
 21
-9.11326
 31
0.0
  0
LINE
  5
45D
330
65D
100
AcDbEntity
  8
HATCH
  6
Continuous
 62
     7
370
    30
100
AcDbLine
 10
39.802781
 20
-9.024875
 30
0.0
 11
39.891167
 21
-8.93649
 31
0.0
  0
LINE
  5
45E
330
65D
100
AcDbEntity
  8
HATCH
  6
Continuous
 62
     7
370
    30
100
AcDbLine
 10
39.822719
 20
-9.181708
 30
0.0
 11
39.857177
 21
-9.14726
 31
0.0
  0
LINE
  5
45F
330
65D
100
AcDbEntity
  8
HATCH
  6
Continuous
 62
     7
370
    30
100
AcDbLine
 10
39.546813
 20
-9.170354
 30
0.0
 11
39.57076
 21
-9.146406
 31
0.0
  0
LINE
  5
460
330
65D
100
AcDbEntity
  8
HATCH
  6
Continuous
 62
     7
370
    30
100
AcDbLine
 10
39.659146
 20
-9.058021
 30
0.0
 11
39.747542
 21
-8.969635
 31
0.0
  0
LINE
  5
461
330
65D
100
AcDbEntity
  8
HATCH
  6
Continuous
 62
     7
370
    30
100
AcDbLine
 10
39.835927
 20
-8.88125
 30
0.0
 11
39.924312
 21
-8.792854
 31
0.0
  0
LINE
  5
462
330
65D
100
AcDbEntity
  8
HATCH
  6
Continuous
 62
     7
370
    30
100
AcDbLine
 10
39.546813
 20
-8.993573
 30
0.0
 11
39.57076
 21
-8.969635
 31
0.0
  0
LINE
  5
463
330
65D
100
AcDbEntity
  8
HATCH
  6
Continuous
 62
     7
370
    30
100
AcDbLine
 10
39.659146
 20
-8.88125
 30
0.0
 11
39.747542
 21
-8.792854
 31
0.0
  0
LINE
  5
464
330
65D
100
AcDbEntity
  8
HATCH
  6
Continuous
 62
     7
370
    30
100
AcDbLine
 10
39.507333
 20
-8.856292
 30
0.0
 11
39.563792
 21
-8.799823
 31
0.0
  0
LINE
  5
465
330
65D
100
AcDbEntity
  8
HATCH
  6
Continuous
 62
     7
370
    30
100
AcDbLine
 10
39.714979
 20
-9.178969
 30
0.0
 11
39.747542
 21
-9.146406
 31
0.0
  0
LINE
  5
466
330
65D
100
AcDbEntity
  8
HATCH
  6
Continuous
 62
     7
370
    30
100
AcDbLine
 10
39.835927
 20
-9.058021
 30
0.0
 11
39.86499
 21
-9.028958
 31
0.0
  0
LINE
  5
467
330
65D
100
AcDbEntity
  8
HATCH
  6
Continuous
 62
     7
370
    30
100
AcDbLine
 10
40.652563
 20
-9.32224
 30
0.0
 11
40.653521
 21
-9.323187
 31
0.0
  0
LINE
  5
468
330
65D
100
AcDbEntity
  8
HATCH
  6
Continuous
 62
     7
370
    30
100
AcDbLine
 10
40.741906
 20
-9.411573
 30
0.0
 11
40.830292
 21
-9.499969
 31
0.0
  0
LINE
  5
469
330
65D
100
AcDbEntity
  8
HATCH
  6
Continuous
 62
     7
370
    30
100
AcDbLine
 10
40.918687
 20
-9.588354
 30
0.0
 11
40.969802
 21
-9.639469
 31
0.0
  0
LINE
  5
46A
330
65D
100
AcDbEntity
  8
HATCH
  6
Continuous
 62
     7
370
    30
100
AcDbLine
 10
40.918687
 20
-9.411573
 30
0.0
 11
41.007073
 21
-9.499969
 31
0.0
  0
LINE
  5
46B
330
65D
100
AcDbEntity
  8
HATCH
  6
Continuous
 62
     7
370
    30
100
AcDbLine
 10
41.095458
 20
-9.588354
 30
0.0
 11
41.149219
 21
-9.642115
 31
0.0
  0
LINE
  5
46C
330
65D
100
AcDbEntity
  8
HATCH
  6
Continuous
 62
     7
370
    30
100
AcDbLine
 10
41.095458
 20
-9.411573
 30
0.0
 11
41.183844
 21
-9.499969
 31
0.0
  0
LINE
  5
46D
330
65D
100
AcDbEntity
  8
HATCH
  6
Continuous
 62
     7
370
    30
100
AcDbLine
 10
41.27224
 20
-9.411573
 30
0.0
 11
41.344802
 21
-9.484146
 31
0.0
  0
LINE
  5
46E
330
65D
100
AcDbEntity
  8
HATCH
  6
Continuous
 62
     7
370
    30
100
AcDbLine
 10
40.467052
 20
-9.3135
 30
0.0
 11
40.47674
 21
-9.323187
 31
0.0
  0
LINE
  5
46F
330
65D
100
AcDbEntity
  8
HATCH
  6
Continuous
 62
     7
370
    30
100
AcDbLine
 10
40.565125
 20
-9.411573
 30
0.0
 11
40.653521
 21
-9.499969
 31
0.0
  0
LINE
  5
470
330
65D
100
AcDbEntity
  8
HATCH
  6
Continuous
 62
     7
370
    30
100
AcDbLine
 10
40.741906
 20
-9.588354
 30
0.0
 11
40.790375
 21
-9.636823
 31
0.0
  0
LINE
  5
471
330
65D
100
AcDbEntity
  8
HATCH
  6
Continuous
 62
     7
370
    30
100
AcDbLine
 10
40.281531
 20
-9.30476
 30
0.0
 11
40.299969
 21
-9.323187
 31
0.0
  0
LINE
  5
472
330
65D
100
AcDbEntity
  8
HATCH
  6
Continuous
 62
     7
370
    30
100
AcDbLine
 10
40.388354
 20
-9.411573
 30
0.0
 11
40.47674
 21
-9.499969
 31
0.0
  0
LINE
  5
473
330
65D
100
AcDbEntity
  8
HATCH
  6
Continuous
 62
     7
370
    30
100
AcDbLine
 10
40.565125
 20
-9.588354
 30
0.0
 11
40.610958
 21
-9.634177
 31
0.0
  0
LINE
  5
474
330
65D
100
AcDbEntity
  8
HATCH
  6
Continuous
 62
     7
370
    30
100
AcDbLine
 10
40.211573
 20
-9.411573
 30
0.0
 11
40.299969
 21
-9.499969
 31
0.0
  0
LINE
  5
475
330
65D
100
AcDbEntity
  8
HATCH
  6
Continuous
 62
     7
370
    30
100
AcDbLine
 10
40.388354
 20
-9.588354
 30
0.0
 11
40.431531
 21
-9.631531
 31
0.0
  0
LINE
  5
476
330
65D
100
AcDbEntity
  8
HATCH
  6
Continuous
 62
     7
370
    30
100
AcDbLine
 10
40.211573
 20
-9.588354
 30
0.0
 11
40.252104
 21
-9.628885
 31
0.0
  0
LINE
  5
477
330
65D
100
AcDbEntity
  8
HATCH
  6
Continuous
 62
     7
370
    30
100
AcDbLine
 10
40.598271
 20
-9.378427
 30
0.0
 11
40.686667
 21
-9.466823
 31
0.0
  0
LINE
  5
478
330
65D
100
AcDbEntity
  8
HATCH
  6
Continuous
 62
     7
370
    30
100
AcDbLine
 10
40.775052
 20
-9.555208
 30
0.0
 11
40.857656
 21
-9.637812
 31
0.0
  0
LINE
  5
479
330
65D
100
AcDbEntity
  8
HATCH
  6
Continuous
 62
     7
370
    30
100
AcDbLine
 10
40.775052
 20
-9.378427
 30
0.0
 11
40.863437
 21
-9.466823
 31
0.0
  0
LINE
  5
47A
330
65D
100
AcDbEntity
  8
HATCH
  6
Continuous
 62
     7
370
    30
100
AcDbLine
 10
40.951823
 20
-9.555208
 30
0.0
 11
41.037083
 21
-9.640458
 31
0.0
  0
LINE
  5
47B
330
65D
100
AcDbEntity
  8
HATCH
  6
Continuous
 62
     7
370
    30
100
AcDbLine
 10
40.951823
 20
-9.378427
 30
0.0
 11
41.040219
 21
-9.466823
 31
0.0
  0
LINE
  5
47C
330
65D
100
AcDbEntity
  8
HATCH
  6
Continuous
 62
     7
370
    30
100
AcDbLine
 10
41.128604
 20
-9.555208
 30
0.0
 11
41.187312
 21
-9.613906
 31
0.0
  0
LINE
  5
47D
330
65D
100
AcDbEntity
  8
HATCH
  6
Continuous
 62
     7
370
    30
100
AcDbLine
 10
41.128604
 20
-9.378427
 30
0.0
 11
41.21699
 21
-9.466823
 31
0.0
  0
LINE
  5
47E
330
65D
100
AcDbEntity
  8
HATCH
  6
Continuous
 62
     7
370
    30
100
AcDbLine
 10
41.305385
 20
-9.378427
 30
0.0
 11
41.381146
 21
-9.454198
 31
0.0
  0
LINE
  5
47F
330
65D
100
AcDbEntity
  8
HATCH
  6
Continuous
 62
     7
370
    30
100
AcDbLine
 10
40.4215
 20
-9.378427
 30
0.0
 11
40.509885
 21
-9.466823
 31
0.0
  0
LINE
  5
480
330
65D
100
AcDbEntity
  8
HATCH
  6
Continuous
 62
     7
370
    30
100
AcDbLine
 10
40.598271
 20
-9.555208
 30
0.0
 11
40.67824
 21
-9.635167
 31
0.0
  0
LINE
  5
481
330
65D
100
AcDbEntity
  8
HATCH
  6
Continuous
 62
     7
370
    30
100
AcDbLine
 10
40.244719
 20
-9.378427
 30
0.0
 11
40.333115
 21
-9.466823
 31
0.0
  0
LINE
  5
482
330
65D
100
AcDbEntity
  8
HATCH
  6
Continuous
 62
     7
370
    30
100
AcDbLine
 10
40.4215
 20
-9.555208
 30
0.0
 11
40.498812
 21
-9.632521
 31
0.0
  0
LINE
  5
483
330
65D
100
AcDbEntity
  8
HATCH
  6
Continuous
 62
     7
370
    30
100
AcDbLine
 10
40.244719
 20
-9.555208
 30
0.0
 11
40.319396
 21
-9.629875
 31
0.0
  0
LINE
  5
484
330
65D
100
AcDbEntity
  8
HATCH
  6
Continuous
 62
     7
370
    30
100
AcDbLine
 10
40.631417
 20
-9.345281
 30
0.0
 11
40.719812
 21
-9.433677
 31
0.0
  0
LINE
  5
485
330
65D
100
AcDbEntity
  8
HATCH
  6
Continuous
 62
     7
370
    30
100
AcDbLine
 10
40.808198
 20
-9.522063
 30
0.0
 11
40.896583
 21
-9.610448
 31
0.0
  0
LINE
  5
486
330
65D
100
AcDbEntity
  8
HATCH
  6
Continuous
 62
     7
370
    30
100
AcDbLine
 10
40.808198
 20
-9.345281
 30
0.0
 11
40.896583
 21
-9.433677
 31
0.0
  0
LINE
  5
487
330
65D
100
AcDbEntity
  8
HATCH
  6
Continuous
 62
     7
370
    30
100
AcDbLine
 10
40.984969
 20
-9.522063
 30
0.0
 11
41.073365
 21
-9.610448
 31
0.0
  0
LINE
  5
488
330
65D
100
AcDbEntity
  8
HATCH
  6
Continuous
 62
     7
370
    30
100
AcDbLine
 10
40.984969
 20
-9.345281
 30
0.0
 11
41.073365
 21
-9.433677
 31
0.0
  0
LINE
  5
489
330
65D
100
AcDbEntity
  8
HATCH
  6
Continuous
 62
     7
370
    30
100
AcDbLine
 10
41.16175
 20
-9.522063
 30
0.0
 11
41.223656
 21
-9.583969
 31
0.0
  0
LINE
  5
48A
330
65D
100
AcDbEntity
  8
HATCH
  6
Continuous
 62
     7
370
    30
100
AcDbLine
 10
41.16274
 20
-9.346271
 30
0.0
 11
41.250135
 21
-9.433677
 31
0.0
  0
LINE
  5
48B
330
65D
100
AcDbEntity
  8
HATCH
  6
Continuous
 62
     7
370
    30
100
AcDbLine
 10
41.34826
 20
-9.35501
 30
0.0
 11
41.4175
 21
-9.42425
 31
0.0
  0
LINE
  5
48C
330
65D
100
AcDbEntity
  8
HATCH
  6
Continuous
 62
     7
370
    30
100
AcDbLine
 10
40.454646
 20
-9.345281
 30
0.0
 11
40.543031
 21
-9.433677
 31
0.0
  0
LINE
  5
48D
330
65D
100
AcDbEntity
  8
HATCH
  6
Continuous
 62
     7
370
    30
100
AcDbLine
 10
40.631417
 20
-9.522063
 30
0.0
 11
40.719812
 21
-9.610448
 31
0.0
  0
LINE
  5
48E
330
65D
100
AcDbEntity
  8
HATCH
  6
Continuous
 62
     7
370
    30
100
AcDbLine
 10
40.277865
 20
-9.345281
 30
0.0
 11
40.36626
 21
-9.433677
 31
0.0
  0
LINE
  5
48F
330
65D
100
AcDbEntity
  8
HATCH
  6
Continuous
 62
     7
370
    30
100
AcDbLine
 10
40.454646
 20
-9.522063
 30
0.0
 11
40.543031
 21
-9.610448
 31
0.0
  0
LINE
  5
490
330
65D
100
AcDbEntity
  8
HATCH
  6
Continuous
 62
     7
370
    30
100
AcDbLine
 10
40.178479
 20
-9.422667
 30
0.0
 11
40.189479
 21
-9.433677
 31
0.0
  0
LINE
  5
491
330
65D
100
AcDbEntity
  8
HATCH
  6
Continuous
 62
     7
370
    30
100
AcDbLine
 10
40.277865
 20
-9.522063
 30
0.0
 11
40.36626
 21
-9.610448
 31
0.0
  0
LINE
  5
492
330
65D
100
AcDbEntity
  8
HATCH
  6
Continuous
 62
     7
370
    30
100
AcDbLine
 10
40.178479
 20
-9.599448
 30
0.0
 11
40.189479
 21
-9.610448
 31
0.0
  0
LINE
  5
493
330
65D
100
AcDbEntity
  8
HATCH
  6
Continuous
 62
     7
370
    30
100
AcDbLine
 10
40.542417
 20
-9.633167
 30
0.0
 11
40.565125
 21
-9.610448
 31
0.0
  0
LINE
  5
494
330
65D
100
AcDbEntity
  8
HATCH
  6
Continuous
 62
     7
370
    30
100
AcDbLine
 10
40.653521
 20
-9.522063
 30
0.0
 11
40.741906
 21
-9.433677
 31
0.0
  0
LINE
  5
495
330
65D
100
AcDbEntity
  8
HATCH
  6
Continuous
 62
     7
370
    30
100
AcDbLine
 10
40.830292
 20
-9.345281
 30
0.0
 11
40.844313
 21
-9.331271
 31
0.0
  0
LINE
  5
496
330
65D
100
AcDbEntity
  8
HATCH
  6
Continuous
 62
     7
370
    30
100
AcDbLine
 10
40.368208
 20
-9.630594
 30
0.0
 11
40.388354
 21
-9.610448
 31
0.0
  0
LINE
  5
497
330
65D
100
AcDbEntity
  8
HATCH
  6
Continuous
 62
     7
370
    30
100
AcDbLine
 10
40.47674
 20
-9.522063
 30
0.0
 11
40.565125
 21
-9.433677
 31
0.0
  0
LINE
  5
498
330
65D
100
AcDbEntity
  8
HATCH
  6
Continuous
 62
     7
370
    30
100
AcDbLine
 10
40.653521
 20
-9.345281
 30
0.0
 11
40.67549
 21
-9.323313
 31
0.0
  0
LINE
  5
499
330
65D
100
AcDbEntity
  8
HATCH
  6
Continuous
 62
     7
370
    30
100
AcDbLine
 10
40.194
 20
-9.628031
 30
0.0
 11
40.211573
 21
-9.610448
 31
0.0
  0
LINE
  5
49A
330
65D
100
AcDbEntity
  8
HATCH
  6
Continuous
 62
     7
370
    30
100
AcDbLine
 10
40.299969
 20
-9.522063
 30
0.0
 11
40.388354
 21
-9.433677
 31
0.0
  0
LINE
  5
49B
330
65D
100
AcDbEntity
  8
HATCH
  6
Continuous
 62
     7
370
    30
100
AcDbLine
 10
40.47674
 20
-9.345281
 30
0.0
 11
40.506667
 21
-9.315365
 31
0.0
  0
LINE
  5
49C
330
65D
100
AcDbEntity
  8
HATCH
  6
Continuous
 62
     7
370
    30
100
AcDbLine
 10
40.178479
 20
-9.466771
 30
0.0
 11
40.211573
 21
-9.433677
 31
0.0
  0
LINE
  5
49D
330
65D
100
AcDbEntity
  8
HATCH
  6
Continuous
 62
     7
370
    30
100
AcDbLine
 10
40.299969
 20
-9.345281
 30
0.0
 11
40.337844
 21
-9.307406
 31
0.0
  0
LINE
  5
49E
330
65D
100
AcDbEntity
  8
HATCH
  6
Continuous
 62
     7
370
    30
100
AcDbLine
 10
40.716625
 20
-9.63574
 30
0.0
 11
40.741906
 21
-9.610448
 31
0.0
  0
LINE
  5
49F
330
65D
100
AcDbEntity
  8
HATCH
  6
Continuous
 62
     7
370
    30
100
AcDbLine
 10
40.830292
 20
-9.522063
 30
0.0
 11
40.918687
 21
-9.433677
 31
0.0
  0
LINE
  5
4A0
330
65D
100
AcDbEntity
  8
HATCH
  6
Continuous
 62
     7
370
    30
100
AcDbLine
 10
41.007073
 20
-9.345281
 30
0.0
 11
41.013135
 21
-9.339229
 31
0.0
  0
LINE
  5
4A1
330
65D
100
AcDbEntity
  8
HATCH
  6
Continuous
 62
     7
370
    30
100
AcDbLine
 10
40.890823
 20
-9.638302
 30
0.0
 11
40.918687
 21
-9.610448
 31
0.0
  0
LINE
  5
4A2
330
65D
100
AcDbEntity
  8
HATCH
  6
Continuous
 62
     7
370
    30
100
AcDbLine
 10
41.007073
 20
-9.522063
 30
0.0
 11
41.095458
 21
-9.433677
 31
0.0
  0
LINE
  5
4A3
330
65D
100
AcDbEntity
  8
HATCH
  6
Continuous
 62
     7
370
    30
100
AcDbLine
 10
41.065031
 20
-9.640875
 30
0.0
 11
41.095458
 21
-9.610448
 31
0.0
  0
LINE
  5
4A4
330
65D
100
AcDbEntity
  8
HATCH
  6
Continuous
 62
     7
370
    30
100
AcDbLine
 10
41.183844
 20
-9.522063
 30
0.0
 11
41.27224
 21
-9.433677
 31
0.0
  0
LINE
  5
4A5
330
65D
100
AcDbEntity
  8
HATCH
  6
Continuous
 62
     7
370
    30
100
AcDbLine
 10
40.686667
 20
-9.555208
 30
0.0
 11
40.775052
 21
-9.466823
 31
0.0
  0
LINE
  5
4A6
330
65D
100
AcDbEntity
  8
HATCH
  6
Continuous
 62
     7
370
    30
100
AcDbLine
 10
40.863437
 20
-9.378427
 30
0.0
 11
40.907615
 21
-9.33425
 31
0.0
  0
LINE
  5
4A7
330
65D
100
AcDbEntity
  8
HATCH
  6
Continuous
 62
     7
370
    30
100
AcDbLine
 10
40.509885
 20
-9.555208
 30
0.0
 11
40.598271
 21
-9.466823
 31
0.0
  0
LINE
  5
4A8
330
65D
100
AcDbEntity
  8
HATCH
  6
Continuous
 62
     7
370
    30
100
AcDbLine
 10
40.686667
 20
-9.378427
 30
0.0
 11
40.738792
 21
-9.326302
 31
0.0
  0
LINE
  5
4A9
330
65D
100
AcDbEntity
  8
HATCH
  6
Continuous
 62
     7
370
    30
100
AcDbLine
 10
40.333115
 20
-9.555208
 30
0.0
 11
40.4215
 21
-9.466823
 31
0.0
  0
LINE
  5
4AA
330
65D
100
AcDbEntity
  8
HATCH
  6
Continuous
 62
     7
370
    30
100
AcDbLine
 10
40.509885
 20
-9.378427
 30
0.0
 11
40.569969
 21
-9.318344
 31
0.0
  0
LINE
  5
4AB
330
65D
100
AcDbEntity
  8
HATCH
  6
Continuous
 62
     7
370
    30
100
AcDbLine
 10
40.178479
 20
-9.533062
 30
0.0
 11
40.244719
 21
-9.466823
 31
0.0
  0
LINE
  5
4AC
330
65D
100
AcDbEntity
  8
HATCH
  6
Continuous
 62
     7
370
    30
100
AcDbLine
 10
40.333115
 20
-9.378427
 30
0.0
 11
40.401146
 21
-9.310396
 31
0.0
  0
LINE
  5
4AD
330
65D
100
AcDbEntity
  8
HATCH
  6
Continuous
 62
     7
370
    30
100
AcDbLine
 10
40.178479
 20
-9.356292
 30
0.0
 11
40.232323
 21
-9.302437
 31
0.0
  0
LINE
  5
4AE
330
65D
100
AcDbEntity
  8
HATCH
  6
Continuous
 62
     7
370
    30
100
AcDbLine
 10
40.863437
 20
-9.555208
 30
0.0
 11
40.951823
 21
-9.466823
 31
0.0
  0
LINE
  5
4AF
330
65D
100
AcDbEntity
  8
HATCH
  6
Continuous
 62
     7
370
    30
100
AcDbLine
 10
41.040219
 20
-9.378427
 30
0.0
 11
41.076437
 21
-9.342208
 31
0.0
  0
LINE
  5
4B0
330
65D
100
AcDbEntity
  8
HATCH
  6
Continuous
 62
     7
370
    30
100
AcDbLine
 10
41.040219
 20
-9.555208
 30
0.0
 11
41.128604
 21
-9.466823
 31
0.0
  0
LINE
  5
4B1
330
65D
100
AcDbEntity
  8
HATCH
  6
Continuous
 62
     7
370
    30
100
AcDbLine
 10
41.21699
 20
-9.378427
 30
0.0
 11
41.24526
 21
-9.350156
 31
0.0
  0
LINE
  5
4B2
330
65D
100
AcDbEntity
  8
HATCH
  6
Continuous
 62
     7
370
    30
100
AcDbLine
 10
41.21699
 20
-9.555208
 30
0.0
 11
41.305385
 21
-9.466823
 31
0.0
  0
LINE
  5
4B3
330
65D
100
AcDbEntity
  8
HATCH
  6
Continuous
 62
     7
370
    30
100
AcDbLine
 10
41.393771
 20
-9.378427
 30
0.0
 11
41.414083
 21
-9.358115
 31
0.0
  0
LINE
  5
4B4
330
65D
100
AcDbEntity
  8
HATCH
  6
Continuous
 62
     7
370
    30
100
AcDbLine
 10
40.543031
 20
-9.588354
 30
0.0
 11
40.631417
 21
-9.499969
 31
0.0
  0
LINE
  5
4B5
330
65D
100
AcDbEntity
  8
HATCH
  6
Continuous
 62
     7
370
    30
100
AcDbLine
 10
40.719812
 20
-9.411573
 30
0.0
 11
40.802104
 21
-9.329281
 31
0.0
  0
LINE
  5
4B6
330
65D
100
AcDbEntity
  8
HATCH
  6
Continuous
 62
     7
370
    30
100
AcDbLine
 10
40.36626
 20
-9.588354
 30
0.0
 11
40.454646
 21
-9.499969
 31
0.0
  0
LINE
  5
4B7
330
65D
100
AcDbEntity
  8
HATCH
  6
Continuous
 62
     7
370
    30
100
AcDbLine
 10
40.543031
 20
-9.411573
 30
0.0
 11
40.631417
 21
-9.323187
 31
0.0
  0
LINE
  5
4B8
330
65D
100
AcDbEntity
  8
HATCH
  6
Continuous
 62
     7
370
    30
100
AcDbLine
 10
40.189479
 20
-9.588354
 30
0.0
 11
40.277865
 21
-9.499969
 31
0.0
  0
LINE
  5
4B9
330
65D
100
AcDbEntity
  8
HATCH
  6
Continuous
 62
     7
370
    30
100
AcDbLine
 10
40.36626
 20
-9.411573
 30
0.0
 11
40.454646
 21
-9.323187
 31
0.0
  0
LINE
  5
4BA
330
65D
100
AcDbEntity
  8
HATCH
  6
Continuous
 62
     7
370
    30
100
AcDbLine
 10
40.189479
 20
-9.411573
 30
0.0
 11
40.277865
 21
-9.323187
 31
0.0
  0
LINE
  5
4BB
330
65D
100
AcDbEntity
  8
HATCH
  6
Continuous
 62
     7
370
    30
100
AcDbLine
 10
40.719812
 20
-9.588354
 30
0.0
 11
40.808198
 21
-9.499969
 31
0.0
  0
LINE
  5
4BC
330
65D
100
AcDbEntity
  8
HATCH
  6
Continuous
 62
     7
370
    30
100
AcDbLine
 10
40.896583
 20
-9.411573
 30
0.0
 11
40.970927
 21
-9.33724
 31
0.0
  0
LINE
  5
4BD
330
65D
100
AcDbEntity
  8
HATCH
  6
Continuous
 62
     7
370
    30
100
AcDbLine
 10
40.896583
 20
-9.588354
 30
0.0
 11
40.984969
 21
-9.499969
 31
0.0
  0
LINE
  5
4BE
330
65D
100
AcDbEntity
  8
HATCH
  6
Continuous
 62
     7
370
    30
100
AcDbLine
 10
41.073365
 20
-9.411573
 30
0.0
 11
41.13975
 21
-9.345187
 31
0.0
  0
LINE
  5
4BF
330
65D
100
AcDbEntity
  8
HATCH
  6
Continuous
 62
     7
370
    30
100
AcDbLine
 10
41.073365
 20
-9.588354
 30
0.0
 11
41.16175
 21
-9.499969
 31
0.0
  0
LINE
  5
4C0
330
65D
100
AcDbEntity
  8
HATCH
  6
Continuous
 62
     7
370
    30
100
AcDbLine
 10
41.250135
 20
-9.411573
 30
0.0
 11
41.308573
 21
-9.353146
 31
0.0
  0
LINE
  5
4C1
330
65D
100
AcDbEntity
  8
HATCH
  6
Continuous
 62
     7
370
    30
100
AcDbLine
 10
41.426917
 20
-9.411573
 30
0.0
 11
41.477396
 21
-9.361094
 31
0.0
  0
LINE
  5
4C2
330
65D
100
AcDbEntity
  8
HATCH
  6
Continuous
 62
     7
370
    30
100
AcDbLine
 10
41.881406
 20
-8.606542
 30
0.0
 11
41.890958
 21
-8.616083
 31
0.0
  0
LINE
  5
4C3
330
65D
100
AcDbEntity
  8
HATCH
  6
Continuous
 62
     7
370
    30
100
AcDbLine
 10
41.979344
 20
-8.704469
 30
0.0
 11
42.067729
 21
-8.792854
 31
0.0
  0
LINE
  5
4C4
330
65D
100
AcDbEntity
  8
HATCH
  6
Continuous
 62
     7
370
    30
100
AcDbLine
 10
42.156115
 20
-8.88125
 30
0.0
 11
42.24451
 21
-8.969635
 31
0.0
  0
LINE
  5
4C5
330
65D
100
AcDbEntity
  8
HATCH
  6
Continuous
 62
     7
370
    30
100
AcDbLine
 10
42.156115
 20
-8.704469
 30
0.0
 11
42.24451
 21
-8.792854
 31
0.0
  0
LINE
  5
4C6
330
65D
100
AcDbEntity
  8
HATCH
  6
Continuous
 62
     7
370
    30
100
AcDbLine
 10
42.332896
 20
-8.88125
 30
0.0
 11
42.380781
 21
-8.929135
 31
0.0
  0
LINE
  5
4C7
330
65D
100
AcDbEntity
  8
HATCH
  6
Continuous
 62
     7
370
    30
100
AcDbLine
 10
42.334417
 20
-8.706
 30
0.0
 11
42.421281
 21
-8.792854
 31
0.0
  0
LINE
  5
4C8
330
65D
100
AcDbEntity
  8
HATCH
  6
Continuous
 62
     7
370
    30
100
AcDbLine
 10
41.983219
 20
-8.885115
 30
0.0
 11
42.067729
 21
-8.969635
 31
0.0
  0
LINE
  5
4C9
330
65D
100
AcDbEntity
  8
HATCH
  6
Continuous
 62
     7
370
    30
100
AcDbLine
 10
42.01249
 20
-8.671323
 30
0.0
 11
42.100875
 21
-8.759708
 31
0.0
  0
LINE
  5
4CA
330
65D
100
AcDbEntity
  8
HATCH
  6
Continuous
 62
     7
370
    30
100
AcDbLine
 10
42.18926
 20
-8.848104
 30
0.0
 11
42.277656
 21
-8.93649
 31
0.0
  0
LINE
  5
4CB
330
65D
100
AcDbEntity
  8
HATCH
  6
Continuous
 62
     7
370
    30
100
AcDbLine
 10
42.218135
 20
-8.700198
 30
0.0
 11
42.277656
 21
-8.759708
 31
0.0
  0
LINE
  5
4CC
330
65D
100
AcDbEntity
  8
HATCH
  6
Continuous
 62
     7
370
    30
100
AcDbLine
 10
42.366042
 20
-8.848104
 30
0.0
 11
42.399031
 21
-8.881094
 31
0.0
  0
LINE
  5
4CD
330
65D
100
AcDbEntity
  8
HATCH
  6
Continuous
 62
     7
370
    30
100
AcDbLine
 10
42.400708
 20
-8.706
 30
0.0
 11
42.447708
 21
-8.75299
 31
0.0
  0
LINE
  5
4CE
330
65D
100
AcDbEntity
  8
HATCH
  6
Continuous
 62
     7
370
    30
100
AcDbLine
 10
41.90026
 20
-8.735875
 30
0.0
 11
41.924104
 21
-8.759708
 31
0.0
  0
LINE
  5
4CF
330
65D
100
AcDbEntity
  8
HATCH
  6
Continuous
 62
     7
370
    30
100
AcDbLine
 10
42.01249
 20
-8.848104
 30
0.0
 11
42.100875
 21
-8.93649
 31
0.0
  0
LINE
  5
4D0
330
65D
100
AcDbEntity
  8
HATCH
  6
Continuous
 62
     7
370
    30
100
AcDbLine
 10
41.881406
 20
-8.650729
 30
0.0
 11
41.95725
 21
-8.726562
 31
0.0
  0
LINE
  5
4D1
330
65D
100
AcDbEntity
  8
HATCH
  6
Continuous
 62
     7
370
    30
100
AcDbLine
 10
42.045635
 20
-8.814958
 30
0.0
 11
42.134021
 21
-8.903344
 31
0.0
  0
LINE
  5
4D2
330
65D
100
AcDbEntity
  8
HATCH
  6
Continuous
 62
     7
370
    30
100
AcDbLine
 10
42.222406
 20
-8.991729
 30
0.0
 11
42.250021
 21
-9.019344
 31
0.0
  0
LINE
  5
4D3
330
65D
100
AcDbEntity
  8
HATCH
  6
Continuous
 62
     7
370
    30
100
AcDbLine
 10
42.064177
 20
-8.656719
 30
0.0
 11
42.134021
 21
-8.726562
 31
0.0
  0
LINE
  5
4D4
330
65D
100
AcDbEntity
  8
HATCH
  6
Continuous
 62
     7
370
    30
100
AcDbLine
 10
42.222406
 20
-8.814958
 30
0.0
 11
42.310802
 21
-8.903344
 31
0.0
  0
LINE
  5
4D5
330
65D
100
AcDbEntity
  8
HATCH
  6
Continuous
 62
     7
370
    30
100
AcDbLine
 10
42.290229
 20
-8.706
 30
0.0
 11
42.310802
 21
-8.726562
 31
0.0
  0
LINE
  5
4D6
330
65D
100
AcDbEntity
  8
HATCH
  6
Continuous
 62
     7
370
    30
100
AcDbLine
 10
42.399187
 20
-8.814958
 30
0.0
 11
42.417292
 21
-8.833052
 31
0.0
  0
LINE
  5
4D7
330
65D
100
AcDbEntity
  8
HATCH
  6
Continuous
 62
     7
370
    30
100
AcDbLine
 10
42.067729
 20
-8.814958
 30
0.0
 11
42.156115
 21
-8.726562
 31
0.0
  0
LINE
  5
4D8
330
65D
100
AcDbEntity
  8
HATCH
  6
Continuous
 62
     7
370
    30
100
AcDbLine
 10
41.925187
 20
-8.780719
 30
0.0
 11
41.979344
 21
-8.726562
 31
0.0
  0
LINE
  5
4D9
330
65D
100
AcDbEntity
  8
HATCH
  6
Continuous
 62
     7
370
    30
100
AcDbLine
 10
41.890958
 20
-8.638177
 30
0.0
 11
41.914635
 21
-8.61449
 31
0.0
  0
LINE
  5
4DA
330
65D
100
AcDbEntity
  8
HATCH
  6
Continuous
 62
     7
370
    30
100
AcDbLine
 10
42.068875
 20
-8.990594
 30
0.0
 11
42.156115
 21
-8.903344
 31
0.0
  0
LINE
  5
4DB
330
65D
100
AcDbEntity
  8
HATCH
  6
Continuous
 62
     7
370
    30
100
AcDbLine
 10
42.24451
 20
-8.814958
 30
0.0
 11
42.332896
 21
-8.726562
 31
0.0
  0
LINE
  5
4DC
330
65D
100
AcDbEntity
  8
HATCH
  6
Continuous
 62
     7
370
    30
100
AcDbLine
 10
42.24451
 20
-8.991729
 30
0.0
 11
42.332896
 21
-8.903344
 31
0.0
  0
LINE
  5
4DD
330
65D
100
AcDbEntity
  8
HATCH
  6
Continuous
 62
     7
370
    30
100
AcDbLine
 10
42.421281
 20
-8.814958
 30
0.0
 11
42.425927
 21
-8.810302
 31
0.0
  0
LINE
  5
4DE
330
65D
100
AcDbEntity
  8
HATCH
  6
Continuous
 62
     7
370
    30
100
AcDbLine
 10
42.012021
 20
-8.936948
 30
0.0
 11
42.01249
 21
-8.93649
 31
0.0
  0
LINE
  5
4DF
330
65D
100
AcDbEntity
  8
HATCH
  6
Continuous
 62
     7
370
    30
100
AcDbLine
 10
42.100875
 20
-8.848104
 30
0.0
 11
42.18926
 21
-8.759708
 31
0.0
  0
LINE
  5
4E0
330
65D
100
AcDbEntity
  8
HATCH
  6
Continuous
 62
     7
370
    30
100
AcDbLine
 10
41.948875
 20
-8.823333
 30
0.0
 11
42.01249
 21
-8.759708
 31
0.0
  0
LINE
  5
4E1
330
65D
100
AcDbEntity
  8
HATCH
  6
Continuous
 62
     7
370
    30
100
AcDbLine
 10
42.100875
 20
-8.671323
 30
0.0
 11
42.104188
 21
-8.668021
 31
0.0
  0
LINE
  5
4E2
330
65D
100
AcDbEntity
  8
HATCH
  6
Continuous
 62
     7
370
    30
100
AcDbLine
 10
41.924104
 20
-8.671323
 30
0.0
 11
41.966333
 21
-8.629094
 31
0.0
  0
LINE
  5
4E3
330
65D
100
AcDbEntity
  8
HATCH
  6
Continuous
 62
     7
370
    30
100
AcDbLine
 10
42.126083
 20
-8.999677
 30
0.0
 11
42.18926
 21
-8.93649
 31
0.0
  0
LINE
  5
4E4
330
65D
100
AcDbEntity
  8
HATCH
  6
Continuous
 62
     7
370
    30
100
AcDbLine
 10
42.277656
 20
-8.848104
 30
0.0
 11
42.366042
 21
-8.759708
 31
0.0
  0
LINE
  5
4E5
330
65D
100
AcDbEntity
  8
HATCH
  6
Continuous
 62
     7
370
    30
100
AcDbLine
 10
42.278646
 20
-9.023885
 30
0.0
 11
42.366042
 21
-8.93649
 31
0.0
  0
LINE
  5
4E6
330
65D
100
AcDbEntity
  8
HATCH
  6
Continuous
 62
     7
370
    30
100
AcDbLine
 10
41.972552
 20
-8.865937
 30
0.0
 11
42.045635
 21
-8.792854
 31
0.0
  0
LINE
  5
4E7
330
65D
100
AcDbEntity
  8
HATCH
  6
Continuous
 62
     7
370
    30
100
AcDbLine
 10
42.134021
 20
-8.704469
 30
0.0
 11
42.155875
 21
-8.682615
 31
0.0
  0
LINE
  5
4E8
330
65D
100
AcDbEntity
  8
HATCH
  6
Continuous
 62
     7
370
    30
100
AcDbLine
 10
41.95725
 20
-8.704469
 30
0.0
 11
42.018031
 21
-8.643688
 31
0.0
  0
LINE
  5
4E9
330
65D
100
AcDbEntity
  8
HATCH
  6
Continuous
 62
     7
370
    30
100
AcDbLine
 10
42.035708
 20
-8.979563
 30
0.0
 11
42.045635
 21
-8.969635
 31
0.0
  0
LINE
  5
4EA
330
65D
100
AcDbEntity
  8
HATCH
  6
Continuous
 62
     7
370
    30
100
AcDbLine
 10
42.134021
 20
-8.88125
 30
0.0
 11
42.222406
 21
-8.792854
 31
0.0
  0
LINE
  5
4EB
330
65D
100
AcDbEntity
  8
HATCH
  6
Continuous
 62
     7
370
    30
100
AcDbLine
 10
42.183292
 20
-9.00875
 30
0.0
 11
42.222406
 21
-8.969635
 31
0.0
  0
LINE
  5
4EC
330
65D
100
AcDbEntity
  8
HATCH
  6
Continuous
 62
     7
370
    30
100
AcDbLine
 10
42.310802
 20
-8.88125
 30
0.0
 11
42.399187
 21
-8.792854
 31
0.0
  0
LINE
  5
4ED
330
65D
100
AcDbEntity
  8
HATCH
  6
Continuous
 62
     7
370
    30
100
AcDbLine
 10
42.335854
 20
-9.032969
 30
0.0
 11
42.344687
 21
-9.024135
 31
0.0
  0
LINE
  5
4EE
330
65D
100
AcDbEntity
  8
TITLE
  6
Continuous
 62
     7
370
    30
100
AcDbLine
 10
41.160677
 20
-4.677417
 30
0.0
 11
41.160677
 21
-5.268792
 31
0.0
  0
LINE
  5
4EF
330
65D
100
AcDbEntity
  8
TITLE
  6
Continuous
 62
     7
370
    30
100
AcDbLine
 10
41.360708
 20
-4.677417
 30
0.0
 11
41.160677
 21
-4.677417
 31
0.0
  0
LINE
  5
4F0
330
65D
100
AcDbEntity
  8
TITLE
  6
Continuous
 62
     7
370
    30
100
AcDbLine
 10
41.426469
 20
-7.641594
 30
0.0
 11
41.160677
 21
-7.641594
 31
0.0
  0
LINE
  5
4F1
330
65D
100
AcDbEntity
  8
TITLE
  6
Continuous
 62
     7
370
    30
100
AcDbLine
 10
41.160677
 20
-7.641594
 30
0.0
 11
41.160677
 21
-7.050219
 31
0.0
  0
LINE
  5
4F2
330
65D
100
AcDbEntity
  8
TITLE
  6
Continuous
 62
     7
370
    13
100
AcDbLine
 10
41.07025
 20
-7.048406
 30
0.0
 11
40.942854
 21
-7.414438
 31
0.0
  0
LINE
  5
4F3
330
65D
100
AcDbEntity
  8
TITLE
  6
Continuous
 62
     7
370
    13
100
AcDbLine
 10
40.942854
 20
-7.414438
 30
0.0
 11
40.873708
 21
-7.414438
 31
0.0
  0
LINE
  5
4F4
330
65D
100
AcDbEntity
  8
TITLE
  6
Continuous
 62
     7
370
    30
100
AcDbLine
 10
41.11175
 20
-6.241031
 30
0.0
 11
40.810323
 21
-6.354156
 31
0.0
  0
LINE
  5
4F5
330
65D
100
AcDbEntity
  8
TITLE
  6
Continuous
 62
     7
370
    13
100
AcDbLine
 10
35.751062
 20
-5.275323
 30
0.0
 11
36.059229
 21
-5.522667
 31
0.0
  0
LINE
  5
4F6
330
65D
100
AcDbEntity
  8
TITLE
  6
Continuous
 62
     7
370
    13
100
AcDbLine
 10
36.059229
 20
-5.522667
 30
0.0
 11
36.149687
 21
-5.522667
 31
0.0
  0
LINE
  5
4F7
330
65D
100
AcDbEntity
  8
TITLE
  6
Continuous
 62
     7
370
    13
100
AcDbLine
 10
36.862656
 20
-5.522667
 30
0.0
 11
36.787667
 21
-5.522667
 31
0.0
  0
LINE
  5
4F8
330
65D
100
AcDbEntity
  8
TITLE
  6
Continuous
 62
     7
370
    13
100
AcDbLine
 10
37.18875
 20
-5.260927
 30
0.0
 11
36.862656
 21
-5.522667
 31
0.0
  0
LINE
  5
4F9
330
65D
100
AcDbEntity
  8
DIM
  6
Continuous
 62
     7
370
    13
100
AcDbLine
 10
35.774677
 20
-6.31751
 30
0.0
 11
35.774677
 21
-7.281083
 31
0.0
  0
LINE
  5
4FA
330
65D
100
AcDbEntity
  8
DIM
  6
Continuous
 62
     7
370
    13
100
AcDbLine
 10
37.132479
 20
-6.31751
 30
0.0
 11
37.132479
 21
-7.281083
 31
0.0
  0
LINE
  5
4FB
330
65D
100
AcDbEntity
  8
DIM
  6
Continuous
 62
     7
370
    13
100
AcDbLine
 10
35.774677
 20
-7.101083
 30
0.0
 11
37.132479
 21
-7.101083
 31
0.0
  0
LINE
  5
4FC
330
65D
100
AcDbEntity
  8
LEGEND
  6
Continuous
 62
     7
370
    30
100
AcDbLine
 10
35.774677
 20
-6.25501
 30
0.0
 11
35.774677
 21
-6.25501
 31
0.0
  0
LINE
  5
4FD
330
65D
100
AcDbEntity
  8
LEGEND
  6
Continuous
 62
     7
370
    30
100
AcDbLine
 10
37.132479
 20
-6.25501
 30
0.0
 11
37.132479
 21
-6.25501
 31
0.0
  0
LINE
  5
4FE
330
65D
100
AcDbEntity
  8
LEGEND
  6
Continuous
 62
     7
370
    30
100
AcDbLine
 10
37.132479
 20
-7.101083
 30
0.0
 11
37.132479
 21
-7.101083
 31
0.0
  0
LINE
  5
4FF
330
65D
100
AcDbEntity
  8
DIM
  6
Continuous
 62
     7
370
    13
100
AcDbLine
 10
38.467354
 20
-6.31751
 30
0.0
 11
38.467354
 21
-7.281083
 31
0.0
  0
LINE
  5
500
330
65D
100
AcDbEntity
  8
DIM
  6
Continuous
 62
     7
370
    13
100
AcDbLine
 10
37.132479
 20
-7.101083
 30
0.0
 11
38.467354
 21
-7.101083
 31
0.0
  0
LINE
  5
501
330
65D
100
AcDbEntity
  8
LEGEND
  6
Continuous
 62
     7
370
    30
100
AcDbLine
 10
37.132479
 20
-6.25501
 30
0.0
 11
37.132479
 21
-6.25501
 31
0.0
  0
LINE
  5
502
330
65D
100
AcDbEntity
  8
LEGEND
  6
Continuous
 62
     7
370
    30
100
AcDbLine
 10
38.467354
 20
-6.25501
 30
0.0
 11
38.467354
 21
-6.25501
 31
0.0
  0
LINE
  5
503
330
65D
100
AcDbEntity
  8
LEGEND
  6
Continuous
 62
     7
370
    30
100
AcDbLine
 10
38.467354
 20
-7.101083
 30
0.0
 11
38.467354
 21
-7.101083
 31
0.0
  0
LINE
  5
504
330
65D
100
AcDbEntity
  8
DIM
  6
Continuous
 62
     7
370
    13
100
AcDbLine
 10
39.767354
 20
-6.31751
 30
0.0
 11
39.767354
 21
-7.281083
 31
0.0
  0
LINE
  5
505
330
65D
100
AcDbEntity
  8
DIM
  6
Continuous
 62
     7
370
    13
100
AcDbLine
 10
38.467354
 20
-7.101083
 30
0.0
 11
39.767354
 21
-7.101083
 31
0.0
  0
LINE
  5
506
330
65D
100
AcDbEntity
  8
LEGEND
  6
Continuous
 62
     7
370
    30
100
AcDbLine
 10
38.467354
 20
-6.25501
 30
0.0
 11
38.467354
 21
-6.25501
 31
0.0
  0
LINE
  5
507
330
65D
100
AcDbEntity
  8
LEGEND
  6
Continuous
 62
     7
370
    30
100
AcDbLine
 10
39.767354
 20
-6.25501
 30
0.0
 11
39.767354
 21
-6.25501
 31
0.0
  0
LINE
  5
508
330
65D
100
AcDbEntity
  8
LEGEND
  6
Continuous
 62
     7
370
    30
100
AcDbLine
 10
39.767354
 20
-7.101083
 30
0.0
 11
39.767354
 21
-7.101083
 31
0.0
  0
LINE
  5
509
330
65D
100
AcDbEntity
  8
DIM
  6
Continuous
 62
     7
370
    13
100
AcDbLine
 10
34.385115
 20
-5.19251
 30
0.0
 11
33.984344
 21
-5.19251
 31
0.0
  0
LINE
  5
50A
330
65D
100
AcDbEntity
  8
DIM
  6
Continuous
 62
     7
370
    13
100
AcDbLine
 10
34.385115
 20
-5.86126
 30
0.0
 11
33.984344
 21
-5.86126
 31
0.0
  0
LINE
  5
50B
330
65D
100
AcDbEntity
  8
DIM
  6
Continuous
 62
     7
370
    13
100
AcDbLine
 10
34.164344
 20
-5.219656
 30
0.0
 11
34.164344
 21
-5.843521
 31
0.0
  0
LINE
  5
50C
330
65D
100
AcDbEntity
  8
LEGEND
  6
Continuous
 62
     7
370
    30
100
AcDbLine
 10
34.447615
 20
-5.19251
 30
0.0
 11
34.447615
 21
-5.19251
 31
0.0
  0
LINE
  5
50D
330
65D
100
AcDbEntity
  8
LEGEND
  6
Continuous
 62
     7
370
    13
100
AcDbLine
 10
34.447615
 20
-5.86126
 30
0.0
 11
34.447615
 21
-5.86126
 31
0.0
  0
LINE
  5
50E
330
65D
100
AcDbEntity
  8
LEGEND
  6
Continuous
 62
     7
370
    30
100
AcDbLine
 10
34.164344
 20
-5.86126
 30
0.0
 11
34.164344
 21
-5.86126
 31
0.0
  0
LINE
  5
50F
330
65D
100
AcDbEntity
  8
_0
  6
Continuous
 62
     7
370
    13
100
AcDbLine
 10
34.385115
 20
-6.656937
 30
0.0
 11
33.984344
 21
-6.656937
 31
0.0
  0
LINE
  5
510
330
65D
100
AcDbEntity
  8
_0
  6
Continuous
 62
     7
370
    13
100
AcDbLine
 10
34.385115
 20
-6.19251
 30
0.0
 11
33.984344
 21
-6.19251
 31
0.0
  0
LINE
  5
511
330
65D
100
AcDbEntity
  8
DIM
  6
Continuous
 62
     7
370
    13
100
AcDbLine
 10
34.164344
 20
-6.656937
 30
0.0
 11
34.164344
 21
-6.19099
 31
0.0
  0
LINE
  5
513
330
65D
100
AcDbEntity
  8
DIM
  6
Continuous
 62
     7
370
    13
100
AcDbLine
 10
34.16325
 20
-6.064646
 30
0.0
 11
34.16325
 21
-5.842052
 31
0.0
  0
HATCH
  5
680
330
65D
100
AcDbEntity
  8
DIM
  6
Continuous
 62
    20
370
    30
100
AcDbHatch
 10
0.0
 20
0.0
 30
0.0
210
0.0
220
0.0
230
1.0
  2
SOLID
 70
     1
 71
     1
 91
        1
 92
        1
 93
        1
 72
     2
 10
34.16433862082638
 20
-6.135152492203953
 40
0.0250000000000002
 50
360.0
 51
720.0
 73
     1
 97
        1
330
515
 75
     0
 76
     1
 98
        0
  0
CIRCLE
  5
515
102
{ACAD_REACTORS
330
680
102
}
330
65D
100
AcDbEntity
  8
DIM
  6
Continuous
 62
     7
370
    30
100
AcDbCircle
 10
34.164339
 20
-6.135152
 30
0.0
 40
0.0250000000000002
  0
LWPOLYLINE
  5
681
330
65D
100
AcDbEntity
  8
DIM
  6
Continuous
 62
     7
370
    30
100
AcDbPolyline
 90
        2
 70
   128
 43
0.0
 10
34.164339
 20
-6.135152
 10
34.164339
 20
-6.135152
  0
LINE
  5
517
330
65D
100
AcDbEntity
  8
DIM
  6
Continuous
 62
     7
370
    13
100
AcDbLine
 10
34.164344
 20
-6.129115
 30
0.0
 11
35.10524
 21
-5.823521
 31
0.0
  0
LINE
  5
518
330
65D
100
AcDbEntity
  8
DIM
  6
Continuous
 62
     7
370
    13
100
AcDbLine
 10
35.10524
 20
-5.823521
 30
0.0
 11
35.289135
 21
-5.823521
 31
0.0
  0
LINE
  5
519
330
65D
100
AcDbEntity
  8
DIM
  6
Continuous
 62
     7
370
    13
100
AcDbLine
 10
34.305625
 20
-8.339375
 30
0.0
 11
34.305625
 21
-7.951146
 31
0.0
  0
LINE
  5
51A
330
65D
100
AcDbEntity
  8
DIM
  6
Continuous
 62
     7
370
    13
100
AcDbLine
 10
37.578729
 20
-8.489677
 30
0.0
 11
37.578729
 21
-7.951146
 31
0.0
  0
LINE
  5
51B
330
65D
100
AcDbEntity
  8
DIM
  6
Continuous
 62
     7
370
    13
100
AcDbLine
 10
34.305625
 20
-8.131146
 30
0.0
 11
37.578729
 21
-8.131146
 31
0.0
  0
LINE
  5
51C
330
65D
100
AcDbEntity
  8
LEGEND
  6
Continuous
 62
     7
370
    30
100
AcDbLine
 10
34.305625
 20
-8.562427
 30
0.0
 11
34.305625
 21
-8.562427
 31
0.0
  0
LINE
  5
51D
330
65D
100
AcDbEntity
  8
LEGEND
  6
Continuous
 62
     7
370
    30
100
AcDbLine
 10
37.578729
 20
-8.552177
 30
0.0
 11
37.578729
 21
-8.552177
 31
0.0
  0
LINE
  5
51E
330
65D
100
AcDbEntity
  8
LEGEND
  6
Continuous
 62
     7
370
    30
100
AcDbLine
 10
37.578729
 20
-8.131146
 30
0.0
 11
37.578729
 21
-8.131146
 31
0.0
  0
LINE
  5
51F
330
65D
100
AcDbEntity
  8
DIM
  6
Continuous
 62
     7
370
    13
100
AcDbLine
 10
37.578729
 20
-8.489677
 30
0.0
 11
37.578729
 21
-7.951146
 31
0.0
  0
LINE
  5
520
330
65D
100
AcDbEntity
  8
DIM
  6
Continuous
 62
     7
370
    13
100
AcDbLine
 10
39.351531
 20
-9.157052
 30
0.0
 11
39.351531
 21
-7.951146
 31
0.0
  0
LINE
  5
521
330
65D
100
AcDbEntity
  8
DIM
  6
Continuous
 62
     7
370
    13
100
AcDbLine
 10
37.578729
 20
-8.131146
 30
0.0
 11
39.351531
 21
-8.131146
 31
0.0
  0
LINE
  5
522
330
65D
100
AcDbEntity
  8
LEGEND
  6
Continuous
 62
     7
370
    30
100
AcDbLine
 10
37.578729
 20
-8.552177
 30
0.0
 11
37.578729
 21
-8.552177
 31
0.0
  0
LINE
  5
523
330
65D
100
AcDbEntity
  8
LEGEND
  6
Continuous
 62
     7
370
    30
100
AcDbLine
 10
39.351531
 20
-9.219552
 30
0.0
 11
39.351531
 21
-9.219552
 31
0.0
  0
LINE
  5
524
330
65D
100
AcDbEntity
  8
LEGEND
  6
Continuous
 62
     7
370
    30
100
AcDbLine
 10
39.351531
 20
-8.131146
 30
0.0
 11
39.351531
 21
-8.131146
 31
0.0
  0
LINE
  5
525
330
65D
100
AcDbEntity
  8
DIM
  6
Continuous
 62
     7
370
    13
100
AcDbLine
 10
39.351531
 20
-9.157052
 30
0.0
 11
39.351531
 21
-7.951146
 31
0.0
  0
LINE
  5
526
330
65D
100
AcDbEntity
  8
DIM
  6
Continuous
 62
     7
370
    13
100
AcDbLine
 10
40.457156
 20
-8.516198
 30
0.0
 11
40.457156
 21
-7.951146
 31
0.0
  0
LINE
  5
527
330
65D
100
AcDbEntity
  8
DIM
  6
Continuous
 62
     7
370
    13
100
AcDbLine
 10
39.351531
 20
-8.131146
 30
0.0
 11
40.457156
 21
-8.131146
 31
0.0
  0
LINE
  5
528
330
65D
100
AcDbEntity
  8
LEGEND
  6
Continuous
 62
     7
370
    30
100
AcDbLine
 10
39.351531
 20
-9.219552
 30
0.0
 11
39.351531
 21
-9.219552
 31
0.0
  0
LINE
  5
529
330
65D
100
AcDbEntity
  8
LEGEND
  6
Continuous
 62
     7
370
    30
100
AcDbLine
 10
40.457156
 20
-8.578698
 30
0.0
 11
40.457156
 21
-8.578698
 31
0.0
  0
LINE
  5
52A
330
65D
100
AcDbEntity
  8
LEGEND
  6
Continuous
 62
     7
370
    30
100
AcDbLine
 10
40.457156
 20
-8.131146
 30
0.0
 11
40.457156
 21
-8.131146
 31
0.0
  0
LINE
  5
52B
330
65D
100
AcDbEntity
  8
DIM
  6
Continuous
 62
     7
370
    13
100
AcDbLine
 10
41.169083
 20
-8.47324
 30
0.0
 11
41.169083
 21
-7.951146
 31
0.0
  0
LINE
  5
52C
330
65D
100
AcDbEntity
  8
DIM
  6
Continuous
 62
     7
370
    13
100
AcDbLine
 10
40.457156
 20
-8.131146
 30
0.0
 11
41.169083
 21
-8.131146
 31
0.0
  0
LINE
  5
52D
330
65D
100
AcDbEntity
  8
LEGEND
  6
Continuous
 62
     7
370
    30
100
AcDbLine
 10
40.457156
 20
-8.578698
 30
0.0
 11
40.457156
 21
-8.578698
 31
0.0
  0
LINE
  5
52E
330
65D
100
AcDbEntity
  8
LEGEND
  6
Continuous
 62
     7
370
    30
100
AcDbLine
 10
41.169083
 20
-8.53574
 30
0.0
 11
41.169083
 21
-8.53574
 31
0.0
  0
LINE
  5
52F
330
65D
100
AcDbEntity
  8
LEGEND
  6
Continuous
 62
     7
370
    30
100
AcDbLine
 10
41.169083
 20
-8.131146
 30
0.0
 11
41.169083
 21
-8.131146
 31
0.0
  0
LINE
  5
530
330
65D
100
AcDbEntity
  8
DIM
  6
Continuous
 62
     7
370
    13
100
AcDbLine
 10
34.613333
 20
-8.71374
 30
0.0
 11
34.940115
 21
-9.005573
 31
0.0
  0
LINE
  5
531
330
65D
100
AcDbEntity
  8
DIM
  6
Continuous
 62
     7
370
    13
100
AcDbLine
 10
34.940115
 20
-9.005573
 30
0.0
 11
34.989333
 21
-9.005573
 31
0.0
  0
LINE
  5
532
330
65D
100
AcDbEntity
  8
DIM
  6
Continuous
 62
     7
370
    13
100
AcDbLine
 10
34.813052
 20
-8.530729
 30
0.0
 11
35.21699
 21
-8.375531
 31
0.0
  0
LINE
  5
533
330
65D
100
AcDbEntity
  8
DIM
  6
Continuous
 62
     7
370
    13
100
AcDbLine
 10
35.21699
 20
-8.375531
 30
0.0
 11
35.270469
 21
-8.375531
 31
0.0
  0
LINE
  5
534
330
65D
100
AcDbEntity
  8
DIM
  6
Continuous
 62
     7
370
    13
100
AcDbLine
 10
36.921719
 20
-8.858052
 30
0.0
 11
36.705021
 21
-9.255802
 31
0.0
  0
LINE
  5
535
330
65D
100
AcDbEntity
  8
DIM
  6
Continuous
 62
     7
370
    13
100
AcDbLine
 10
36.705021
 20
-9.255802
 30
0.0
 11
36.633083
 21
-9.255802
 31
0.0
  0
LINE
  5
536
330
65D
100
AcDbEntity
  8
DIM
  6
Continuous
 62
     7
370
    13
100
AcDbLine
 10
37.6775
 20
-9.262229
 30
0.0
 11
37.401708
 21
-9.608875
 31
0.0
  0
LINE
  5
537
330
65D
100
AcDbEntity
  8
DIM
  6
Continuous
 62
     7
370
    13
100
AcDbLine
 10
37.401708
 20
-9.608875
 30
0.0
 11
37.33024
 21
-9.608875
 31
0.0
  0
LINE
  5
538
330
65D
100
AcDbEntity
  8
DIM
  6
Continuous
 62
     7
370
    13
100
AcDbLine
 10
39.315698
 20
-9.531437
 30
0.0
 11
39.315698
 21
-9.90024
 31
0.0
  0
LINE
  5
539
330
65D
100
AcDbEntity
  8
DIM
  6
Continuous
 62
     7
370
    13
100
AcDbLine
 10
39.315698
 20
-9.90024
 30
0.0
 11
39.42124
 21
-9.90024
 31
0.0
  0
LINE
  5
53A
330
65D
100
AcDbEntity
  8
DIM
  6
Continuous
 62
     7
370
    13
100
AcDbLine
 10
41.17825
 20
-8.676042
 30
0.0
 11
41.417583
 21
-9.12726
 31
0.0
  0
LINE
  5
53B
330
65D
100
AcDbEntity
  8
DIM
  6
Continuous
 62
     7
370
    13
100
AcDbLine
 10
41.417583
 20
-9.12726
 30
0.0
 11
41.492365
 21
-9.12726
 31
0.0
  0
LINE
  5
53C
330
65D
100
AcDbEntity
  8
BORDER
  6
Continuous
 62
     7
370
    30
100
AcDbLine
 10
43.94225
 20
-12.032771
 30
0.0
 11
43.735708
 21
-12.032771
 31
0.0
  0
LINE
  5
53D
330
65D
100
AcDbEntity
  8
BORDER
  6
Continuous
 62
     7
370
    30
100
AcDbLine
 10
43.735708
 20
-12.239312
 30
0.0
 11
43.735708
 21
-12.032771
 31
0.0
  0
LINE
  5
53E
330
65D
100
AcDbEntity
  8
BORDER
  6
Continuous
 62
     7
370
    30
100
AcDbLine
 10
32.985708
 20
-12.239312
 30
0.0
 11
32.985708
 21
-12.032771
 31
0.0
  0
LINE
  5
53F
330
65D
100
AcDbEntity
  8
BORDER
  6
Continuous
 62
     7
370
    30
100
AcDbLine
 10
32.985708
 20
-12.032771
 30
0.0
 11
32.779167
 21
-12.032771
 31
0.0
  0
LINE
  5
540
330
65D
100
AcDbEntity
  8
BORDER
  6
Continuous
 62
     7
370
    30
100
AcDbLine
 10
32.985708
 20
-4.032771
 30
0.0
 11
32.779167
 21
-4.032771
 31
0.0
  0
LINE
  5
541
330
65D
100
AcDbEntity
  8
BORDER
  6
Continuous
 62
     7
370
    30
100
AcDbLine
 10
32.985708
 20
-4.032771
 30
0.0
 11
32.985708
 21
-3.826229
 31
0.0
  0
LINE
  5
542
330
65D
100
AcDbEntity
  8
BORDER
  6
Continuous
 62
     7
370
    30
100
AcDbLine
 10
43.766333
 20
-4.821687
 30
0.0
 11
43.559792
 21
-4.821687
 31
0.0
  0
LINE
  5
543
330
65D
100
AcDbEntity
  8
BORDER
  6
Continuous
 62
     7
370
    30
100
AcDbLine
 10
43.766333
 20
-4.821687
 30
0.0
 11
43.766333
 21
-4.615146
 31
0.0
  0
LINE
  5
546
330
65D
100
AcDbEntity
  8
DIM
  6
Continuous
 62
     7
370
    30
100
AcDbLine
 10
37.995802
 20
-7.643323
 30
0.0
 11
38.558656
 21
-7.643323
 31
0.0
  0
LINE
  5
547
330
65D
100
AcDbEntity
  8
DIM
  6
Continuous
 62
     7
370
    30
100
AcDbLine
 10
37.45874
 20
-10.186906
 30
0.0
 11
38.883365
 21
-10.186906
 31
0.0
  0
INSERT
  5
548
330
65D
100
AcDbEntity
  8
DIM
  6
Continuous
 62
     7
370
    30
100
AcDbBlockReference
  2
LARROW
 10
41.426469
 20
-7.641594
 30
0.0
 41
12.0
 42
12.0
 43
12.0
  0
INSERT
  5
54A
330
65D
100
AcDbEntity
  8
DIM
  6
Continuous
 62
     7
370
    30
100
AcDbBlockReference
  2
LARROW
 10
41.360708
 20
-4.677417
 30
0.0
 41
12.0
 42
12.0
 43
12.0
  0
INSERT
  5
54C
330
65D
100
AcDbEntity
  8
DIM
  6
Continuous
 62
     7
370
    13
100
AcDbBlockReference
  2
LARROW_1
 10
37.18875
 20
-5.260927
 30
0.0
 41
11.999999
 42
11.999999
 43
11.999999
 50
38.752321
  0
INSERT
  5
54E
330
65D
100
AcDbEntity
  8
DIM
  6
Continuous
 62
     7
370
    13
100
AcDbBlockReference
  2
LARROW_1
 10
35.751062
 20
-5.275323
 30
0.0
 41
11.999999
 42
11.999999
 43
11.999999
 50
141.248422
  0
INSERT
  5
550
330
65D
100
AcDbEntity
  8
DIM
  6
Continuous
 62
     7
370
    13
100
AcDbBlockReference
  2
LARROW_1
 10
41.07025
 20
-7.048406
 30
0.0
 41
11.999999
 42
11.999999
 43
11.999999
 50
70.809732
  0
INSERT
  5
552
330
65D
100
AcDbEntity
  8
DIM
  6
Continuous
 62
     7
370
    30
100
AcDbBlockReference
  2
LARROW
 10
41.11175
 20
-6.241031
 30
0.0
 41
11.999998
 42
11.999998
 43
11.999998
 50
20.571016
  0
INSERT
  5
554
330
65D
100
AcDbEntity
  8
DIM
  6
Continuous
 62
     7
370
    13
100
AcDbBlockReference
  2
LARROW_1
 10
34.164344
 20
-5.219656
 30
0.0
 41
12.0
 42
12.0
 43
12.0
 50
90.0
  0
INSERT
  5
556
330
65D
100
AcDbEntity
  8
DIM
  6
Continuous
 62
     7
370
    13
100
AcDbBlockReference
  2
LARROW_1
 10
34.164344
 20
-5.843521
 30
0.0
 41
12.0
 42
12.0
 43
12.0
 50
270.0
  0
INSERT
  5
558
330
65D
100
AcDbEntity
  8
DIM
  6
Continuous
 62
     7
370
    13
100
AcDbBlockReference
  2
LARROW_1
 10
34.16325
 20
-6.064646
 30
0.0
 41
12.0
 42
12.0
 43
12.0
 50
270.0
  0
INSERT
  5
55A
330
65D
100
AcDbEntity
  8
DIM
  6
Continuous
 62
     7
370
    13
100
AcDbBlockReference
  2
LARROW_1
 10
34.164344
 20
-6.19099
 30
0.0
 41
12.0
 42
12.0
 43
12.0
 50
90.0
  0
INSERT
  5
55C
330
65D
100
AcDbEntity
  8
DIM
  6
Continuous
 62
     7
370
    13
100
AcDbBlockReference
  2
LARROW_1
 10
34.164344
 20
-6.656937
 30
0.0
 41
12.0
 42
12.0
 43
12.0
 50
270.0
  0
INSERT
  5
55E
330
65D
100
AcDbEntity
  8
DIM
  6
Continuous
 62
     7
370
    13
100
AcDbBlockReference
  2
LARROW_1
 10
41.17825
 20
-8.676042
 30
0.0
 41
12.000002
 42
12.000002
 43
12.000002
 50
117.942171
  0
INSERT
  5
560
330
65D
100
AcDbEntity
  8
DIM
  6
Continuous
 62
     7
370
    13
100
AcDbBlockReference
  2
LARROW_1
 10
39.351531
 20
-8.131146
 30
0.0
 41
12.0
 42
12.0
 43
12.0
 50
180.0
  0
INSERT
  5
562
330
65D
100
AcDbEntity
  8
DIM
  6
Continuous
 62
     7
370
    13
100
AcDbBlockReference
  2
LARROW_1
 10
39.351531
 20
-8.131146
 30
0.0
 41
12.0
 42
12.0
 43
12.0
  0
INSERT
  5
564
330
65D
100
AcDbEntity
  8
DIM
  6
Continuous
 62
     7
370
    13
100
AcDbBlockReference
  2
LARROW_1
 10
37.578729
 20
-8.131146
 30
0.0
 41
12.0
 42
12.0
 43
12.0
 50
180.0
  0
INSERT
  5
566
330
65D
100
AcDbEntity
  8
DIM
  6
Continuous
 62
     7
370
    13
100
AcDbBlockReference
  2
LARROW_1
 10
37.578729
 20
-8.131146
 30
0.0
 41
12.0
 42
12.0
 43
12.0
  0
INSERT
  5
568
330
65D
100
AcDbEntity
  8
DIM
  6
Continuous
 62
     7
370
    13
100
AcDbBlockReference
  2
LARROW_1
 10
34.813052
 20
-8.530729
 30
0.0
 41
12.000002
 42
12.000002
 43
12.000002
 50
201.017415
  0
INSERT
  5
56A
330
65D
100
AcDbEntity
  8
DIM
  6
Continuous
 62
     7
370
    13
100
AcDbBlockReference
  2
LARROW_1
 10
34.613333
 20
-8.71374
 30
0.0
 41
11.999998
 42
11.999998
 43
11.999998
 50
138.233421
  0
INSERT
  5
56C
330
65D
100
AcDbEntity
  8
DIM
  6
Continuous
 62
     7
370
    13
100
AcDbBlockReference
  2
LARROW_1
 10
36.921719
 20
-8.858052
 30
0.0
 41
11.999999
 42
11.999999
 43
11.999999
 50
61.418036
  0
INSERT
  5
56E
330
65D
100
AcDbEntity
  8
DIM
  6
Continuous
 62
     7
370
    13
100
AcDbBlockReference
  2
LARROW_1
 10
37.6775
 20
-9.262229
 30
0.0
 41
12.000002
 42
12.000002
 43
12.000002
 50
51.494221
  0
INSERT
  5
570
330
65D
100
AcDbEntity
  8
DIM
  6
Continuous
 62
     7
370
    13
100
AcDbBlockReference
  2
LARROW_1
 10
39.315698
 20
-9.531437
 30
0.0
 41
12.0
 42
12.0
 43
12.0
 50
90.0
  0
INSERT
  5
573
330
65D
100
AcDbEntity
  8
LEGEND
  6
Continuous
 62
     7
370
    13
100
AcDbBlockReference
  2
LARROW_2
 10
35.774677
 20
-7.101083
 30
0.0
 41
12.0
 42
12.0
 43
12.0
 50
180.0
  0
INSERT
  5
57E
330
65D
100
AcDbEntity
  8
LEGEND
  6
Continuous
 62
     7
370
    13
100
AcDbBlockReference
  2
LARROW_2
 10
37.132479
 20
-7.101083
 30
0.0
 41
12.0
 42
12.0
 43
12.0
 50
180.0
  0
INSERT
  5
589
330
65D
100
AcDbEntity
  8
LEGEND
  6
Continuous
 62
     7
370
    13
100
AcDbBlockReference
  2
LARROW_2
 10
37.132479
 20
-7.101083
 30
0.0
 41
12.0
 42
12.0
 43
12.0
  0
INSERT
  5
594
330
65D
100
AcDbEntity
  8
LEGEND
  6
Continuous
 62
     7
370
    13
100
AcDbBlockReference
  2
LARROW_2
 10
38.467354
 20
-7.101083
 30
0.0
 41
12.0
 42
12.0
 43
12.0
  0
INSERT
  5
59F
330
65D
100
AcDbEntity
  8
LEGEND
  6
Continuous
 62
     7
370
    13
100
AcDbBlockReference
  2
LARROW_2
 10
38.467354
 20
-7.101083
 30
0.0
 41
12.0
 42
12.0
 43
12.0
 50
180.0
  0
INSERT
  5
5AA
330
65D
100
AcDbEntity
  8
LEGEND
  6
Continuous
 62
     7
370
    13
100
AcDbBlockReference
  2
LARROW_2
 10
39.767354
 20
-7.101083
 30
0.0
 41
12.0
 42
12.0
 43
12.0
  0
INSERT
  5
5B5
330
65D
100
AcDbEntity
  8
LEGEND
  6
Continuous
 62
     7
370
    13
100
AcDbBlockReference
  2
LARROW_2
 10
40.457156
 20
-8.131146
 30
0.0
 41
12.0
 42
12.0
 43
12.0
 50
180.0
  0
INSERT
  5
5C0
330
65D
100
AcDbEntity
  8
LEGEND
  6
Continuous
 62
     7
370
    13
100
AcDbBlockReference
  2
LARROW_2
 10
40.457156
 20
-8.131146
 30
0.0
 41
12.0
 42
12.0
 43
12.0
  0
INSERT
  5
5CB
330
65D
100
AcDbEntity
  8
LEGEND
  6
Continuous
 62
     7
370
    13
100
AcDbBlockReference
  2
LARROW_2
 10
41.169083
 20
-8.131146
 30
0.0
 41
12.0
 42
12.0
 43
12.0
  0
INSERT
  5
5D6
330
65D
100
AcDbEntity
  8
LEGEND
  6
Continuous
 62
     7
370
    13
100
AcDbBlockReference
  2
LARROW_2
 10
34.305625
 20
-8.131146
 30
0.0
 41
12.0
 42
12.0
 43
12.0
 50
180.0
  0
INSERT
  5
5E1
330
65D
100
AcDbEntity
  8
LEGEND
  6
Continuous
 62
     7
370
    13
100
AcDbBlockReference
  2
LARROW_2
 10
34.305625
 20
-8.131146
 30
0.0
 41
12.0
 42
12.0
 43
12.0
 50
180.0
  0
LINE
  5
5EC
330
65D
100
AcDbEntity
  8
HATCH
  6
Continuous
 62
     7
370
    30
100
AcDbLine
 10
36.145708
 20
-9.058021
 30
0.0
 11
36.161146
 21
-9.073458
 31
0.0
  0
LINE
  5
5ED
330
65D
100
AcDbEntity
  8
HATCH
  6
Continuous
 62
     7
370
    30
100
AcDbLine
 10
35.968937
 20
-9.058021
 30
0.0
 11
35.984375
 21
-9.073458
 31
0.0
  0
LINE
  5
5EE
330
65D
100
AcDbEntity
  8
HATCH
  6
Continuous
 62
     7
370
    30
100
AcDbLine
 10
36.002083
 20
-9.024875
 30
0.0
 11
36.050667
 21
-9.073458
 31
0.0
  0
LINE
  5
5EF
330
65D
100
AcDbEntity
  8
HATCH
  6
Continuous
 62
     7
370
    30
100
AcDbLine
 10
35.825302
 20
-9.024875
 30
0.0
 11
35.873885
 21
-9.073458
 31
0.0
  0
LINE
  5
5F0
330
65D
100
AcDbEntity
  8
HATCH
  6
Continuous
 62
     7
370
    30
100
AcDbLine
 10
36.035229
 20
-8.991729
 30
0.0
 11
36.116948
 21
-9.073458
 31
0.0
  0
LINE
  5
5F1
330
65D
100
AcDbEntity
  8
HATCH
  6
Continuous
 62
     7
370
    30
100
AcDbLine
 10
35.858448
 20
-8.991729
 30
0.0
 11
35.940167
 21
-9.073458
 31
0.0
  0
LINE
  5
5F2
330
65D
100
AcDbEntity
  8
2-34C
  6
Continuous
 62
     7
370
    13
100
AcDbLine
 10
40.065844
 20
-8.921521
 30
0.0
 11
40.065844
 21
-8.969917
 31
0.0
  0
LINE
  5
5F3
330
65D
100
AcDbEntity
  8
2-34C
  6
Continuous
 62
     7
370
    13
100
AcDbLine
 10
40.065844
 20
-8.541042
 30
0.0
 11
40.065844
 21
-8.921521
 31
0.0
  0
LINE
  5
5F4
330
65D
100
AcDbEntity
  8
2-34C
  6
Continuous
 62
     7
370
    13
100
AcDbLine
 10
40.178469
 20
-8.921521
 30
0.0
 11
40.178469
 21
-8.985979
 31
0.0
  0
LINE
  5
5F5
330
65D
100
AcDbEntity
  8
2-34C
  6
Continuous
 62
     7
370
    13
100
AcDbLine
 10
40.178469
 20
-8.541104
 30
0.0
 11
40.178469
 21
-8.921521
 31
0.0
  0
LINE
  5
5F6
330
65D
100
AcDbEntity
  8
2-34C
  6
Continuous
 62
     7
370
    13
100
AcDbLine
 10
40.065844
 20
-9.025156
 30
0.0
 11
40.065844
 21
-9.113448
 31
0.0
  0
LINE
  5
5F7
330
65D
100
AcDbEntity
  8
2-34C
  6
Continuous
 62
     7
370
    13
100
AcDbLine
 10
40.065844
 20
-9.113448
 30
0.0
 11
40.065844
 21
-9.680385
 31
0.0
  0
LINE
  5
5F8
330
65D
100
AcDbEntity
  8
2-34C
  6
Continuous
 62
     7
370
    13
100
AcDbLine
 10
40.178469
 20
-9.041167
 30
0.0
 11
40.178469
 21
-9.113448
 31
0.0
  0
LINE
  5
5F9
330
65D
100
AcDbEntity
  8
2-34C
  6
Continuous
 62
     7
370
    13
100
AcDbLine
 10
40.178469
 20
-9.113448
 30
0.0
 11
40.178469
 21
-9.687281
 31
0.0
  0
TEXT
  5
62
330
65D
100
AcDbEntity
  8
BORDER
  6
Continuous
 62
     7
370
    30
100
AcDbText
 10
41.070936
 20
-11.35008
 30
0.0
 40
0.140396
  1
DATE
 41
0.925953
  7
Style-Arial
 72
     1
 11
41.308344
 21
-11.35008
 31
0.0
100
AcDbText
  0
TEXT
  5
64
330
65D
100
AcDbEntity
  8
BORDER
  6
Continuous
 62
     7
370
    30
100
AcDbText
 10
42.111459
 20
-11.360337
 30
0.0
 40
0.140396
  1
FIGURE
 41
0.925953
  7
Style-Arial
 72
     1
 11
42.449736
 21
-11.360337
 31
0.0
100
AcDbText
  0
TEXT
  5
65
330
65D
100
AcDbEntity
  8
BORDER
  6
Continuous
 62
     7
370
    30
100
AcDbText
 10
42.228758
 20
-11.566322
 30
0.0
 40
0.140396
  1
2-35a
 41
0.925953
  7
Style-Arial
 72
     1
 11
42.457051
 21
-11.566322
 31
0.0
100
AcDbText
  0
TEXT
  5
66
330
65D
100
AcDbEntity
  8
Level 10
  6
Continuous
 62
     7
370
    30
100
AcDbText
 10
35.998657
 20
-11.48451
 30
0.0
 40
0.140396
  1
EXAMPLE OF RUNWAY DRAINAGE
 41
0.925953
  7
Style-Arial
 72
     1
 11
37.502773
 21
-11.48451
 31
0.0
100
AcDbText
  0
TEXT
  5
67
330
65D
100
AcDbEntity
  8
BORDER
  6
Continuous
 62
     7
370
    30
100
AcDbText
 10
40.874182
 20
-11.552646
 30
0.0
 40
0.140396
  1
AUG 1992
 41
0.925953
  7
Style-Arial
 72
     1
 11
41.293363
 21
-11.552646
 31
0.0
100
AcDbText
  0
TEXT
  5
68
330
65D
100
AcDbEntity
  8
TEXT
  6
Continuous
 62
     7
370
    30
100
AcDbText
 10
34.074245
 20
-10.462906
 30
0.0
 40
0.140396
  1
REFERENCE: TM 5-820-3/AFM 88-5, CHAPTER 3, DRAINAGE AND EROSION CONTROL
 41
0.925953
  7
Style-Arial
 72
     1
 11
37.790144
 21
-10.462906
 31
0.0
100
AcDbText
  0
TEXT
  5
E4
330
65D
100
AcDbEntity
  8
TITLE
  6
Continuous
 62
     7
370
    30
100
AcDbText
 10
38.815105
 20
-6.722521
 30
0.0
 40
0.140396
  1
TAXIWAY
 41
0.925953
  7
Style-Arial
 72
     1
 11
39.223188
 21
-6.722521
 31
0.0
100
AcDbText
  0
TEXT
  5
E5
330
65D
100
AcDbEntity
  8
TITLE
  6
Continuous
 62
     7
370
    30
100
AcDbText
 10
38.002593
 20
-5.917254
 30
0.0
 40
0.140396
  1
RUNWAY
 41
0.925953
  7
Style-Arial
 72
     1
 11
38.405573
 21
-5.917254
 31
0.0
100
AcDbText
  0
TEXT
  5
E6
330
65D
100
AcDbEntity
  8
TITLE
  6
Continuous
 62
     7
370
    30
100
AcDbText
 10
41.476867
 20
-7.690455
 30
0.0
 40
0.140396
  1
A
 41
0.925953
  7
Style-Arial
 72
     1
 11
41.537607
 21
-7.690455
 31
0.0
100
AcDbText
  0
TEXT
  5
E7
330
65D
100
AcDbEntity
  8
TITLE
  6
Continuous
 62
     7
370
    30
100
AcDbText
 10
41.390511
 20
-4.741323
 30
0.0
 40
0.140396
  1
A
 41
0.925953
  7
Style-Arial
 72
     1
 11
41.45125
 21
-4.741323
 31
0.0
100
AcDbText
  0
TEXT
  5
13F
330
65D
100
AcDbEntity
  8
DIM
  6
Continuous
 62
     7
370
    30
100
AcDbText
 10
34.090354
 20
-6.599387
 30
0.0
 40
0.140396
  1
VAR
 50
90.0
 41
0.925953
  7
Style-Arial
 72
     1
 11
34.090354
 21
-6.41385
 31
0.0
100
AcDbText
  0
TEXT
  5
141
330
65D
100
AcDbEntity
  8
DIM
  6
Continuous
 62
     7
370
    30
100
AcDbText
 10
34.102844
 20
-5.688856
 30
0.0
 40
0.140396
  1
250'
 50
90.0
 41
0.925953
  7
Style-Arial
 72
     1
 11
34.102844
 21
-5.524325
 31
0.0
100
AcDbText
  0
TEXT
  5
142
330
65D
100
AcDbEntity
  8
DIM
  6
Continuous
 62
     7
370
    30
100
AcDbText
 10
35.31295
 20
-5.885448
 30
0.0
 40
0.140396
  1
75' MIN
 41
0.925953
  7
Style-Arial
 72
     1
 11
35.615507
 21
-5.885448
 31
0.0
100
AcDbText
  0
TEXT
  5
143
330
65D
100
AcDbEntity
  8
DIM
  6
Continuous
 62
     7
370
    30
100
AcDbText
 10
36.112945
 20
-7.004375
 30
0.0
 40
0.140396
  1
200'-400'
 41
0.925953
  7
Style-Arial
 72
     1
 11
36.476489
 21
-7.004375
 31
0.0
100
AcDbText
  0
TEXT
  5
144
330
65D
100
AcDbEntity
  8
DIM
  6
Continuous
 62
     7
370
    30
100
AcDbText
 10
37.504308
 20
-7.032823
 30
0.0
 40
0.140396
  1
200'-400'
 41
0.925953
  7
Style-Arial
 72
     1
 11
37.867852
 21
-7.032823
 31
0.0
100
AcDbText
  0
TEXT
  5
145
330
65D
100
AcDbEntity
  8
DIM
  6
Continuous
 62
     7
370
    30
100
AcDbText
 10
38.780734
 20
-7.028073
 30
0.0
 40
0.140396
  1
200'-400'
 41
0.925953
  7
Style-Arial
 72
     1
 11
39.144278
 21
-7.028073
 31
0.0
100
AcDbText
  0
TEXT
  5
146
330
65D
100
AcDbEntity
  8
TITLE
  6
Continuous
 62
     7
370
    30
100
AcDbText
 10
39.855347
 20
-6.404229
 30
0.0
 40
0.140396
  1
MANHOLE
 41
0.925953
  7
Style-Arial
 72
     1
 11
40.299646
 21
-6.404229
 31
0.0
100
AcDbText
  0
TEXT
  5
147
330
65D
100
AcDbEntity
  8
TITLE
  6
Continuous
 62
     7
370
    30
100
AcDbText
 10
39.100022
 20
-7.47049
 30
0.0
 40
0.140396
  1
TO OUTFALL DITCH
 41
0.925953
  7
Style-Arial
 72
     1
 11
39.955525
 21
-7.47049
 31
0.0
100
AcDbText
  0
TEXT
  5
148
330
65D
100
AcDbEntity
  8
TITLE
  6
Continuous
 62
     7
370
    30
100
AcDbText
 10
36.151868
 20
-5.580677
 30
0.0
 40
0.140396
  1
INLETS
 41
0.925953
  7
Style-Arial
 72
     1
 11
36.465076
 21
-5.580677
 31
0.0
100
AcDbText
  0
TEXT
  5
149
330
65D
100
AcDbEntity
  8
TITLE
  6
Continuous
 62
     7
370
    30
100
AcDbText
 10
39.468429
 20
-9.953805
 30
0.0
 40
0.140396
  1
STORM DRAIN SYSTEM WITH
 41
0.925953
  7
Style-Arial
 72
     1
 11
40.752823
 21
-9.953805
 31
0.0
100
AcDbText
  0
TEXT
  5
14A
330
65D
100
AcDbEntity
  8
TITLE
  6
Continuous
 62
     7
370
    30
100
AcDbText
 10
39.704291
 20
-10.175045
 30
0.0
 40
0.140396
  1
INLETS AND MANHOLES
 41
0.925953
  7
Style-Arial
 72
     1
 11
40.769458
 21
-10.175045
 31
0.0
100
AcDbText
  0
TEXT
  5
14B
330
65D
100
AcDbEntity
  8
TITLE
  6
Continuous
 62
     7
370
    30
100
AcDbText
 10
36.023755
 20
-9.685842
 30
0.0
 40
0.140396
  1
SUBSURFACE
 41
0.925953
  7
Style-Arial
 72
     1
 11
36.63972
 21
-9.685842
 31
0.0
100
AcDbText
  0
TEXT
  5
14C
330
65D
100
AcDbEntity
  8
TITLE
  6
Continuous
 62
     7
370
    30
100
AcDbText
 10
36.356259
 20
-9.885745
 30
0.0
 40
0.140396
  1
DRAIN
 41
0.925953
  7
Style-Arial
 72
     1
 11
36.631419
 21
-9.885745
 31
0.0
100
AcDbText
  0
TEXT
  5
14D
330
65D
100
AcDbEntity
  8
TITLE
  6
Continuous
 62
     7
370
    30
100
AcDbText
 10
35.716357
 20
-9.325561
 30
0.0
 40
0.140396
  1
SUBBASE
 41
0.925953
  7
Style-Arial
 72
     1
 11
36.14064
 21
-9.325561
 31
0.0
100
AcDbText
  0
TEXT
  5
14E
330
65D
100
AcDbEntity
  8
TITLE
  6
Continuous
 62
     7
370
    30
100
AcDbText
 10
35.076563
 20
-9.079499
 30
0.0
 40
0.140396
  1
BASE
 41
0.925953
  7
Style-Arial
 72
     1
 11
35.314071
 21
-9.079499
 31
0.0
100
AcDbText
  0
TEXT
  5
14F
330
65D
100
AcDbEntity
  8
TITLE
  6
Continuous
 62
     7
370
    30
100
AcDbText
 10
36.155749
 20
-8.496152
 30
0.0
 40
0.140396
  1
SLOPE 1.5%
 50
359.0
 41
0.925953
  7
Style-Arial
 72
     1
 11
36.685081
 21
-8.505391
 31
0.0
100
AcDbText
  0
TEXT
  5
150
330
65D
100
AcDbEntity
  8
TITLE
  6
Continuous
 62
     7
370
    30
100
AcDbText
 10
37.67343
 20
-8.566433
 30
0.0
 40
0.140396
  1
5%
 41
0.925953
  7
Style-Arial
 72
     1
 11
37.799021
 21
-8.566433
 31
0.0
100
AcDbText
  0
TEXT
  5
151
330
65D
100
AcDbEntity
  8
TITLE
  6
Continuous
 62
     7
370
    30
100
AcDbText
 10
38.362629
 20
-8.698885
 30
0.0
 40
0.140396
  1
2.0%
 50
355.972408
 41
0.925953
  7
Style-Arial
 72
     1
 11
38.563424
 21
-8.713023
 31
0.0
100
AcDbText
  0
TEXT
  5
152
330
65D
100
AcDbEntity
  8
TITLE
  6
Continuous
 62
     7
370
    30
100
AcDbText
 10
41.245526
 20
-8.504779
 30
0.0
 40
0.140396
  1
1.5%
 50
355.986492
 41
0.925953
  7
Style-Arial
 72
     1
 11
41.446324
 21
-8.518867
 31
0.0
100
AcDbText
  0
TEXT
  5
153
330
65D
100
AcDbEntity
  8
TITLE
  6
Continuous
 62
     7
370
    30
100
AcDbText
 10
41.932801
 20
-8.582077
 30
0.0
 40
0.140396
  1
5%
 50
342.76125
 41
0.925953
  7
Style-Arial
 72
     1
 11
42.05275
 21
-8.619296
 31
0.0
100
AcDbText
  0
TEXT
  5
154
330
65D
100
AcDbEntity
  8
DIM
  6
Continuous
 62
     7
370
    30
100
AcDbText
 10
35.73676
 20
-8.015146
 30
0.0
 40
0.140396
  1
150'-300'
 41
0.925953
  7
Style-Arial
 72
     1
 11
36.100304
 21
-8.015146
 31
0.0
100
AcDbText
  0
TEXT
  5
155
330
65D
100
AcDbEntity
  8
DIM
  6
Continuous
 62
     7
370
    30
100
AcDbText
 10
38.16107
 20
-8.01175
 30
0.0
 40
0.140396
  1
75' MIN
 41
0.925953
  7
Style-Arial
 72
     1
 11
38.463627
 21
-8.01175
 31
0.0
100
AcDbText
  0
TEXT
  5
156
330
65D
100
AcDbEntity
  8
DIM
  6
Continuous
 62
     7
370
    30
100
AcDbText
 10
39.728849
 20
-8.01175
 30
0.0
 40
0.140396
  1
VAR
 41
0.925953
  7
Style-Arial
 72
     1
 11
39.914386
 21
-8.01175
 31
0.0
100
AcDbText
  0
TEXT
  5
158
330
65D
100
AcDbEntity
  8
DIM
  6
Continuous
 62
     7
370
    30
100
AcDbText
 10
40.646741
 20
-8.015146
 30
0.0
 40
0.140396
  1
37.5'
 41
0.925953
  7
Style-Arial
 72
     1
 11
40.836489
 21
-8.015146
 31
0.0
100
AcDbText
  0
TEXT
  5
159
330
65D
100
AcDbEntity
  8
TITLE
  6
Continuous
 62
     7
370
    30
100
AcDbText
 10
41.550912
 20
-9.209183
 30
0.0
 40
0.140396
  1
TAXIWAY
 41
0.925953
  7
Style-Arial
 72
     1
 11
41.958995
 21
-9.209183
 31
0.0
100
AcDbText
  0
TEXT
  5
15A
330
65D
100
AcDbEntity
  8
TITLE
  6
Continuous
 62
     7
370
    30
100
AcDbText
 10
35.273505
 20
-8.450296
 30
0.0
 40
0.140396
  1
RUNWAY
 41
0.925953
  7
Style-Arial
 72
     1
 11
35.676485
 21
-8.450296
 31
0.0
100
AcDbText
  0
TEXT
  5
15B
330
65D
100
AcDbEntity
  8
NOTES
  6
Continuous
 62
     7
370
    30
100
AcDbText
 10
34.045912
 20
-10.890688
 30
0.0
 40
0.140396
  1
NOTE:  SUBSURFACE DRAINS, STORM DRAIN SYSTEMS WITH INLETS AND MANHOLES
 41
0.925953
  7
Style-Arial
 72
     1
 11
37.856239
 21
-10.890688
 31
0.0
100
AcDbText
  0
TEXT
  5
15C
330
65D
100
AcDbEntity
  8
NOTES
  6
Continuous
 62
     7
370
    30
100
AcDbText
 10
34.701107
 20
-11.065125
 30
0.0
 40
0.140396
  1
CAN ALSO BE USED IN TAXIWAY DRAINAGE.
 41
0.925953
  7
Style-Arial
 72
     1
 11
36.651355
 21
-11.065125
 31
0.0
100
AcDbText
  0
TEXT
  5
512
330
65D
100
AcDbEntity
  8
DIM
  6
Continuous
 62
     7
370
    30
100
AcDbText
 10
34.365302
 20
-5.686088
 30
0.0
 40
0.140396
  1
MIN
 50
90.0
 41
0.925953
  7
Style-Arial
 72
     1
 11
34.365302
 21
-5.527056
 31
0.0
100
AcDbText
  0
TEXT
  5
544
330
65D
100
AcDbEntity
  8
TITLE
  6
Continuous
 62
     7
370
    30
100
AcDbText
 10
38.029335
 20
-7.587323
 30
0.0
 40
0.140396
  1
PLAN
 41
0.925953
  7
Style-Arial
 72
     1
 11
38.259164
 21
-7.587323
 31
0.0
100
AcDbText
  0
TEXT
  5
545
330
65D
100
AcDbEntity
  8
TITLE
  6
Continuous
 62
     7
370
    30
100
AcDbText
 10
37.580904
 20
-10.121729
 30
0.0
 40
0.140396
  1
SECTION A-A
 41
0.925953
  7
Style-Arial
 72
     1
 11
38.161396
 21
-10.121729
 31
0.0
100
AcDbText
  0
TEXT
  5
572
330
65D
100
AcDbEntity
  8
TEXT
  6
Continuous
 62
     7
370
    30
100
AcDbText
 10
35.291989
 20
-10.642062
 30
0.0
 40
0.140396
  1
STRUCTURES FOR AIRFIELDS AND HELIPORTS.
 41
0.925953
  7
Style-Arial
 72
     1
 11
37.398544
 21
-10.642062
 31
0.0
100
AcDbText
  0
ENDSEC
  0
SECTION
  2
OBJECTS
  0
DICTIONARY
  5
651
330
0
100
AcDbDictionary
281
     1
  3
ACAD_COLOR
350
670
  3
ACAD_GROUP
350
66D
  3
ACAD_LAYOUT
350
661
  3
ACAD_MATERIAL
350
66F
  3
ACAD_MLINESTYLE
350
65B
  3
ACAD_PLOTSETTINGS
350
66E
  3
ACAD_PLOTSTYLENAME
350
650
  3
ACAD_TABLESTYLE
350
68F
  3
AcadDim
350
67D
  3
MicroStation
350
675
  0
DICTIONARY
  5
64D
330
64C
100
AcDbDictionary
280
     1
281
     1
  3
ACAD_LAYERFILTERS
360
674
  3
ACAD_LAYERSTATES
360
64E
  0
DICTIONARY
  5
68B
330
65D
100
AcDbDictionary
280
     1
281
     1
  3
ACAD_SORTENTS
360
68C
  0
DICTIONARY
  5
670
102
{ACAD_REACTORS
330
651
102
}
330
651
100
AcDbDictionary
281
     1
  0
DICTIONARY
  5
66D
102
{ACAD_REACTORS
330
651
102
}
330
651
100
AcDbDictionary
281
     1
  0
DICTIONARY
  5
661
102
{ACAD_REACTORS
330
651
102
}
330
651
100
AcDbDictionary
281
     1
  3
Layout1
350
665
  3
Model
350
660
  0
DICTIONARY
  5
66F
102
{ACAD_REACTORS
330
651
102
}
330
651
100
AcDbDictionary
281
     1
  0
DICTIONARY
  5
65B
102
{ACAD_REACTORS
330
651
102
}
330
651
100
AcDbDictionary
281
     1
  3
Standard
350
65A
  0
DICTIONARY
  5
66E
102
{ACAD_REACTORS
330
651
102
}
330
651
100
AcDbDictionary
281
     1
  0
ACDBDICTIONARYWDFLT
  5
650
102
{ACAD_REACTORS
330
651
102
}
330
651
100
AcDbDictionary
281
     1
  3
Normal
350
64F
100
AcDbDictionaryWithDefault
340
64F
  0
DICTIONARY
  5
68F
102
{ACAD_REACTORS
330
651
102
}
330
651
100
AcDbDictionary
281
     1
  0
XRECORD
  5
67D
102
{ACAD_REACTORS
330
651
102
}
330
651
100
AcDbXrecord
280
     1
 90
   990106
  3
 
 60
     0
 61
     0
 62
     1
 63
     1
 64
     0
 65
     0
 66
     0
 67
     3
 68
     1
 69
     1
 70
     0
 71
     0
 72
     0
 40
0.0
170
     0
  0
DICTIONARY
  5
675
102
{ACAD_REACTORS
330
651
102
}
330
651
100
AcDbDictionary
281
     1
  3
ApplicationElement 1604
350
644
  3
ApplicationElement 1609
350
649
  3
ModelApplicationElement 0 1603
350
643
  0
DICTIONARY
  5
674
102
{ACAD_REACTORS
330
64D
102
}
330
64D
100
AcDbDictionary
281
     1
  0
DICTIONARY
  5
64E
102
{ACAD_REACTORS
330
64D
102
}
330
64D
100
AcDbDictionary
281
     1
  0
SORTENTSTABLE
  5
68C
102
{ACAD_REACTORS
330
68B
102
}
330
68B
100
AcDbSortentsTable
330
65D
331
62
  5
552
331
63
  5
62
331
64
  5
554
331
65
  5
556
331
66
  5
558
331
67
  5
55A
331
68
  5
55C
331
69
  5
63
331
6A
  5
64
331
6B
  5
65
331
6C
  5
66
331
6D
  5
67
331
6E
  5
68
331
6F
  5
69
331
70
  5
6A
331
71
  5
6B
331
72
  5
6C
331
73
  5
6D
331
74
  5
6E
331
75
  5
6F
331
76
  5
70
331
77
  5
71
331
78
  5
72
331
79
  5
73
331
7A
  5
74
331
7B
  5
75
331
7C
  5
76
331
7D
  5
77
331
7E
  5
78
331
7F
  5
79
331
80
  5
7A
331
81
  5
7B
331
82
  5
7C
331
83
  5
7D
331
84
  5
7E
331
85
  5
7F
331
86
  5
80
331
87
  5
81
331
88
  5
82
331
89
  5
83
331
8A
  5
84
331
8B
  5
85
331
8C
  5
86
331
8D
  5
87
331
8E
  5
88
331
8F
  5
89
331
90
  5
8A
331
91
  5
8B
331
92
  5
8C
331
93
  5
8D
331
94
  5
8E
331
95
  5
8F
331
96
  5
90
331
97
  5
91
331
98
  5
92
331
99
  5
93
331
9A
  5
94
331
9B
  5
95
331
9C
  5
96
331
9D
  5
97
331
9E
  5
98
331
9F
  5
99
331
A0
  5
9A
331
A1
  5
9B
331
A2
  5
9C
331
A3
  5
9D
331
A4
  5
9E
331
A5
  5
9F
331
A6
  5
A0
331
A7
  5
A1
331
A8
  5
A2
331
A9
  5
A3
331
AA
  5
A4
331
AB
  5
A5
331
AC
  5
A6
331
AD
  5
A7
331
AE
  5
A8
331
AF
  5
A9
331
B0
  5
AA
331
B1
  5
AB
331
B2
  5
AC
331
B3
  5
AD
331
B4
  5
AE
331
B5
  5
AF
331
B6
  5
B0
331
B7
  5
B1
331
B8
  5
B2
331
B9
  5
B3
331
BA
  5
B4
331
BB
  5
B5
331
BC
  5
B6
331
BD
  5
B7
331
BE
  5
B8
331
BF
  5
B9
331
C0
  5
BA
331
C1
  5
BB
331
C2
  5
BC
331
C3
  5
BD
331
C4
  5
BE
331
C5
  5
BF
331
C6
  5
C0
331
C7
  5
C1
331
C8
  5
C2
331
C9
  5
C3
331
CA
  5
C4
331
CB
  5
C5
331
CC
  5
C6
331
CD
  5
C7
331
CE
  5
C8
331
CF
  5
C9
331
D0
  5
CA
331
D1
  5
CB
331
D2
  5
CC
331
D3
  5
CD
331
D4
  5
CE
331
D5
  5
CF
331
D6
  5
D0
331
D7
  5
D1
331
D8
  5
D2
331
D9
  5
D3
331
DA
  5
D4
331
DB
  5
D5
331
DC
  5
D6
331
DD
  5
D7
331
DE
  5
D8
331
DF
  5
D9
331
E0
  5
DA
331
E1
  5
DB
331
E2
  5
DC
331
E3
  5
DD
331
E4
  5
55E
331
E5
  5
560
331
E6
  5
562
331
E7
  5
564
331
E8
  5
DE
331
E9
  5
DF
331
EA
  5
E0
331
EB
  5
E1
331
EC
  5
E2
331
ED
  5
E3
331
EE
  5
E4
331
EF
  5
E5
331
F0
  5
E6
331
F1
  5
E7
331
F2
  5
E8
331
F3
  5
E9
331
F4
  5
EA
331
F5
  5
EB
331
F6
  5
EC
331
F7
  5
ED
331
F8
  5
EE
331
F9
  5
EF
331
FA
  5
F0
331
FB
  5
F1
331
FC
  5
F2
331
FD
  5
F3
331
FE
  5
F4
331
FF
  5
F5
331
100
  5
F6
331
101
  5
F7
331
102
  5
F8
331
103
  5
F9
331
104
  5
FA
331
105
  5
FB
331
106
  5
FC
331
107
  5
FD
331
108
  5
FE
331
109
  5
FF
331
10A
  5
100
331
10B
  5
101
331
10C
  5
102
331
10D
  5
103
331
10E
  5
104
331
10F
  5
105
331
110
  5
106
331
111
  5
107
331
112
  5
108
331
113
  5
109
331
114
  5
10A
331
115
  5
10B
331
116
  5
10C
331
117
  5
10D
331
118
  5
10E
331
119
  5
10F
331
11A
  5
110
331
11B
  5
111
331
11C
  5
112
331
11D
  5
113
331
11E
  5
114
331
11F
  5
115
331
120
  5
116
331
121
  5
117
331
122
  5
118
331
123
  5
119
331
124
  5
11A
331
125
  5
11B
331
126
  5
11C
331
127
  5
11D
331
128
  5
11E
331
129
  5
11F
331
12A
  5
120
331
12B
  5
121
331
12C
  5
122
331
12D
  5
123
331
12E
  5
124
331
12F
  5
125
331
130
  5
126
331
131
  5
127
331
132
  5
128
331
133
  5
129
331
134
  5
12A
331
135
  5
12B
331
136
  5
12C
331
137
  5
12D
331
138
  5
12E
331
139
  5
12F
331
13A
  5
130
331
13B
  5
131
331
13C
  5
132
331
13D
  5
133
331
13E
  5
134
331
13F
  5
566
331
140
  5
135
331
141
  5
568
331
142
  5
56A
331
143
  5
56C
331
144
  5
56E
331
145
  5
570
331
146
  5
572
331
147
  5
573
331
148
  5
57E
331
149
  5
589
331
14A
  5
594
331
14B
  5
59F
331
14C
  5
5AA
331
14D
  5
5B5
331
14E
  5
5C0
331
14F
  5
5CB
331
150
  5
5D6
331
151
  5
5E1
331
152
  5
5EC
331
153
  5
5ED
331
154
  5
5EE
331
155
  5
5EF
331
156
  5
5F0
331
157
  5
136
331
158
  5
5F1
331
159
  5
5F2
331
15A
  5
5F3
331
15B
  5
5F4
331
15C
  5
5F5
331
15D
  5
137
331
15E
  5
138
331
15F
  5
139
331
160
  5
13A
331
161
  5
13B
331
162
  5
13C
331
163
  5
13D
331
164
  5
13E
331
165
  5
13F
331
166
  5
140
331
167
  5
141
331
168
  5
142
331
169
  5
143
331
16A
  5
144
331
16B
  5
145
331
16C
  5
146
331
16D
  5
147
331
16E
  5
148
331
16F
  5
149
331
170
  5
14A
331
171
  5
14B
331
172
  5
14C
331
173
  5
14D
331
174
  5
14E
331
175
  5
14F
331
176
  5
150
331
177
  5
151
331
178
  5
152
331
179
  5
153
331
17A
  5
154
331
17B
  5
155
331
17C
  5
156
331
17D
  5
157
331
17E
  5
158
331
17F
  5
159
331
180
  5
15A
331
181
  5
15B
331
182
  5
15C
331
183
  5
15D
331
184
  5
15E
331
185
  5
15F
331
186
  5
160
331
187
  5
161
331
188
  5
162
331
189
  5
163
331
18A
  5
164
331
18B
  5
165
331
18C
  5
166
331
18D
  5
167
331
18E
  5
168
331
18F
  5
169
331
190
  5
16A
331
191
  5
16B
331
192
  5
16C
331
193
  5
16D
331
194
  5
16E
331
195
  5
16F
331
196
  5
170
331
197
  5
171
331
198
  5
172
331
199
  5
173
331
19A
  5
174
331
19B
  5
175
331
19C
  5
176
331
19D
  5
177
331
19E
  5
178
331
19F
  5
179
331
1A0
  5
17A
331
1A1
  5
17B
331
1A2
  5
17C
331
1A3
  5
17D
331
1A4
  5
17E
331
1A5
  5
17F
331
1A6
  5
180
331
1A7
  5
181
331
1A8
  5
182
331
1A9
  5
183
331
1AA
  5
184
331
1AB
  5
185
331
1AC
  5
186
331
1AD
  5
187
331
1AE
  5
188
331
1AF
  5
189
331
1B0
  5
18A
331
1B1
  5
18B
331
1B2
  5
18C
331
1B3
  5
18D
331
1B4
  5
18E
331
1B5
  5
18F
331
1B6
  5
190
331
1B7
  5
191
331
1B8
  5
192
331
1B9
  5
193
331
1BA
  5
194
331
1BB
  5
195
331
1BC
  5
196
331
1BD
  5
197
331
1BE
  5
198
331
1BF
  5
199
331
1C0
  5
19A
331
1C1
  5
19B
331
1C2
  5
19C
331
1C3
  5
19D
331
1C4
  5
19E
331
1C5
  5
19F
331
1C6
  5
1A0
331
1C7
  5
1A1
331
1C8
  5
1A2
331
1C9
  5
1A3
331
1CA
  5
1A4
331
1CB
  5
1A5
331
1CC
  5
1A6
331
1CD
  5
1A7
331
1CE
  5
1A8
331
1CF
  5
1A9
331
1D0
  5
1AA
331
1D1
  5
1AB
331
1D2
  5
1AC
331
1D3
  5
1AD
331
1D4
  5
1AE
331
1D5
  5
1AF
331
1D6
  5
1B0
331
1D7
  5
1B1
331
1D8
  5
1B2
331
1D9
  5
1B3
331
1DA
  5
1B4
331
1DB
  5
1B5
331
1DC
  5
1B6
331
1DD
  5
1B7
331
1DE
  5
1B8
331
1DF
  5
1B9
331
1E0
  5
1BA
331
1E1
  5
1BB
331
1E2
  5
1BC
331
1E3
  5
1BD
331
1E4
  5
1BE
331
1E5
  5
1BF
331
1E6
  5
1C0
331
1E7
  5
1C1
331
1E8
  5
1C2
331
1E9
  5
1C3
331
1EA
  5
1C4
331
1EB
  5
1C5
331
1EC
  5
1C6
331
1ED
  5
1C7
331
1EE
  5
1C8
331
1EF
  5
1C9
331
1F0
  5
1CA
331
1F1
  5
1CB
331
1F2
  5
1CC
331
1F3
  5
1CD
331
1F4
  5
1CE
331
1F5
  5
1CF
331
1F6
  5
1D0
331
1F7
  5
1D1
331
1F8
  5
1D2
331
1F9
  5
1D3
331
1FA
  5
1D4
331
1FB
  5
1D5
331
1FC
  5
1D6
331
1FD
  5
1D7
331
1FE
  5
1D8
331
1FF
  5
1D9
331
200
  5
1DA
331
201
  5
1DB
331
202
  5
1DC
331
203
  5
1DD
331
204
  5
1DE
331
205
  5
1DF
331
206
  5
1E0
331
207
  5
1E1
331
208
  5
1E2
331
209
  5
1E3
331
20A
  5
1E4
331
20B
  5
1E5
331
20C
  5
1E6
331
20D
  5
1E7
331
20E
  5
1E8
331
20F
  5
1E9
331
210
  5
1EA
331
211
  5
1EB
331
212
  5
1EC
331
213
  5
1ED
331
214
  5
1EE
331
215
  5
1EF
331
216
  5
1F0
331
217
  5
1F1
331
218
  5
1F2
331
219
  5
1F3
331
21A
  5
1F4
331
21B
  5
1F5
331
21C
  5
1F6
331
21D
  5
1F7
331
21E
  5
1F8
331
21F
  5
1F9
331
220
  5
1FA
331
221
  5
1FB
331
222
  5
1FC
331
223
  5
1FD
331
224
  5
1FE
331
225
  5
1FF
331
226
  5
200
331
227
  5
201
331
228
  5
202
331
229
  5
203
331
22A
  5
204
331
22B
  5
205
331
22C
  5
206
331
22D
  5
207
331
22E
  5
208
331
22F
  5
209
331
230
  5
20A
331
231
  5
20B
331
232
  5
20C
331
233
  5
20D
331
234
  5
20E
331
235
  5
20F
331
236
  5
210
331
237
  5
211
331
238
  5
212
331
239
  5
213
331
23A
  5
214
331
23B
  5
215
331
23C
  5
216
331
23D
  5
217
331
23E
  5
218
331
23F
  5
219
331
240
  5
21A
331
241
  5
21B
331
242
  5
21C
331
243
  5
21D
331
244
  5
21E
331
245
  5
21F
331
246
  5
220
331
247
  5
221
331
248
  5
222
331
249
  5
223
331
24A
  5
224
331
24B
  5
225
331
24C
  5
226
331
24D
  5
227
331
24E
  5
228
331
24F
  5
229
331
250
  5
22A
331
251
  5
22B
331
252
  5
22C
331
253
  5
22D
331
254
  5
22E
331
255
  5
22F
331
256
  5
230
331
257
  5
231
331
258
  5
232
331
259
  5
233
331
25A
  5
234
331
25B
  5
235
331
25C
  5
236
331
25D
  5
237
331
25E
  5
238
331
25F
  5
239
331
260
  5
23A
331
261
  5
23B
331
262
  5
23C
331
263
  5
23D
331
264
  5
23E
331
265
  5
23F
331
266
  5
240
331
267
  5
241
331
268
  5
242
331
269
  5
243
331
26A
  5
244
331
26B
  5
245
331
26C
  5
246
331
26D
  5
247
331
26E
  5
248
331
26F
  5
249
331
270
  5
24A
331
271
  5
24B
331
272
  5
24C
331
273
  5
24D
331
274
  5
24E
331
275
  5
24F
331
276
  5
250
331
277
  5
251
331
278
  5
252
331
279
  5
253
331
27A
  5
254
331
27B
  5
255
331
27C
  5
256
331
27D
  5
257
331
27E
  5
258
331
27F
  5
259
331
280
  5
25A
331
281
  5
25B
331
282
  5
25C
331
283
  5
25D
331
284
  5
25E
331
285
  5
25F
331
286
  5
260
331
287
  5
261
331
288
  5
262
331
289
  5
263
331
28A
  5
264
331
28B
  5
265
331
28C
  5
266
331
28D
  5
267
331
28E
  5
268
331
28F
  5
269
331
290
  5
26A
331
291
  5
26B
331
292
  5
26C
331
293
  5
26D
331
294
  5
26E
331
295
  5
26F
331
296
  5
270
331
297
  5
271
331
298
  5
272
331
299
  5
273
331
29A
  5
274
331
29B
  5
275
331
29C
  5
276
331
29D
  5
277
331
29E
  5
278
331
29F
  5
279
331
2A0
  5
27A
331
2A1
  5
27B
331
2A2
  5
27C
331
2A3
  5
27D
331
2A4
  5
27E
331
2A5
  5
27F
331
2A6
  5
280
331
2A7
  5
281
331
2A8
  5
282
331
2A9
  5
283
331
2AA
  5
284
331
2AB
  5
285
331
2AC
  5
286
331
2AD
  5
287
331
2AE
  5
288
331
2AF
  5
289
331
2B0
  5
28A
331
2B1
  5
28B
331
2B2
  5
28C
331
2B3
  5
28D
331
2B4
  5
28E
331
2B5
  5
28F
331
2B6
  5
290
331
2B7
  5
291
331
2B8
  5
292
331
2B9
  5
293
331
2BA
  5
294
331
2BB
  5
295
331
2BC
  5
296
331
2BD
  5
297
331
2BE
  5
298
331
2BF
  5
299
331
2C0
  5
29A
331
2C1
  5
29B
331
2C2
  5
29C
331
2C3
  5
29D
331
2C4
  5
29E
331
2C5
  5
29F
331
2C6
  5
2A0
331
2C7
  5
2A1
331
2C8
  5
2A2
331
2C9
  5
2A3
331
2CA
  5
2A4
331
2CB
  5
2A5
331
2CC
  5
2A6
331
2CD
  5
2A7
331
2CE
  5
2A8
331
2CF
  5
2A9
331
2D0
  5
2AA
331
2D1
  5
2AB
331
2D2
  5
2AC
331
2D3
  5
2AD
331
2D4
  5
2AE
331
2D5
  5
2AF
331
2D6
  5
2B0
331
2D7
  5
2B1
331
2D8
  5
2B2
331
2D9
  5
2B3
331
2DA
  5
2B4
331
2DB
  5
2B5
331
2DC
  5
2B6
331
2DD
  5
2B7
331
2DE
  5
2B8
331
2DF
  5
2B9
331
2E0
  5
2BA
331
2E1
  5
2BB
331
2E2
  5
2BC
331
2E3
  5
2BD
331
2E4
  5
2BE
331
2E5
  5
2BF
331
2E6
  5
2C0
331
2E7
  5
2C1
331
2E8
  5
2C2
331
2E9
  5
2C3
331
2EA
  5
2C4
331
2EB
  5
2C5
331
2EC
  5
2C6
331
2ED
  5
2C7
331
2EE
  5
2C8
331
2EF
  5
2C9
331
2F0
  5
2CA
331
2F1
  5
2CB
331
2F2
  5
2CC
331
2F3
  5
2CD
331
2F4
  5
2CE
331
2F5
  5
2CF
331
2F6
  5
2D0
331
2F7
  5
2D1
331
2F8
  5
2D2
331
2F9
  5
2D3
331
2FA
  5
2D4
331
2FB
  5
2D5
331
2FC
  5
2D6
331
2FD
  5
2D7
331
2FE
  5
2D8
331
2FF
  5
2D9
331
300
  5
2DA
331
301
  5
2DB
331
302
  5
2DC
331
303
  5
2DD
331
304
  5
2DE
331
305
  5
2DF
331
306
  5
2E0
331
307
  5
2E1
331
308
  5
2E2
331
309
  5
2E3
331
30A
  5
2E4
331
30B
  5
2E5
331
30C
  5
2E6
331
30D
  5
2E7
331
30E
  5
2E8
331
30F
  5
2E9
331
310
  5
2EA
331
311
  5
2EB
331
312
  5
2EC
331
313
  5
2ED
331
314
  5
2EE
331
315
  5
2EF
331
316
  5
2F0
331
317
  5
2F1
331
318
  5
2F2
331
319
  5
2F3
331
31A
  5
2F4
331
31B
  5
2F5
331
31C
  5
2F6
331
31D
  5
2F7
331
31E
  5
2F8
331
31F
  5
2F9
331
320
  5
2FA
331
321
  5
2FB
331
322
  5
2FC
331
323
  5
2FD
331
324
  5
2FE
331
325
  5
2FF
331
326
  5
300
331
327
  5
301
331
328
  5
302
331
329
  5
303
331
32A
  5
304
331
32B
  5
305
331
32C
  5
306
331
32D
  5
307
331
32E
  5
308
331
32F
  5
309
331
330
  5
30A
331
331
  5
30B
331
332
  5
30C
331
333
  5
30D
331
334
  5
30E
331
335
  5
30F
331
336
  5
310
331
337
  5
311
331
338
  5
312
331
339
  5
313
331
33A
  5
314
331
33B
  5
315
331
33C
  5
316
331
33D
  5
317
331
33E
  5
318
331
33F
  5
319
331
340
  5
31A
331
341
  5
31B
331
342
  5
31C
331
343
  5
31D
331
344
  5
31E
331
345
  5
31F
331
346
  5
320
331
347
  5
321
331
348
  5
322
331
349
  5
323
331
34A
  5
324
331
34B
  5
325
331
34C
  5
326
331
34D
  5
327
331
34E
  5
328
331
34F
  5
329
331
350
  5
32A
331
351
  5
32B
331
352
  5
32C
331
353
  5
32D
331
354
  5
32E
331
355
  5
32F
331
356
  5
330
331
357
  5
331
331
358
  5
332
331
359
  5
333
331
35A
  5
334
331
35B
  5
335
331
35C
  5
336
331
35D
  5
337
331
35E
  5
338
331
35F
  5
339
331
360
  5
33A
331
361
  5
33B
331
362
  5
33C
331
363
  5
33D
331
364
  5
33E
331
365
  5
33F
331
366
  5
340
331
367
  5
341
331
368
  5
342
331
369
  5
343
331
36A
  5
344
331
36B
  5
345
331
36C
  5
346
331
36D
  5
347
331
36E
  5
348
331
36F
  5
349
331
370
  5
34A
331
371
  5
34B
331
372
  5
34C
331
373
  5
34D
331
374
  5
34E
331
375
  5
34F
331
376
  5
350
331
377
  5
351
331
378
  5
352
331
379
  5
353
331
37A
  5
354
331
37B
  5
355
331
37C
  5
356
331
37D
  5
357
331
37E
  5
358
331
37F
  5
359
331
380
  5
35A
331
381
  5
35B
331
382
  5
35C
331
383
  5
35D
331
384
  5
35E
331
385
  5
35F
331
386
  5
360
331
387
  5
361
331
388
  5
362
331
389
  5
363
331
38A
  5
364
331
38B
  5
365
331
38C
  5
366
331
38D
  5
367
331
38E
  5
368
331
38F
  5
369
331
390
  5
36A
331
391
  5
36B
331
392
  5
36C
331
393
  5
36D
331
394
  5
36E
331
395
  5
36F
331
396
  5
370
331
397
  5
371
331
398
  5
372
331
399
  5
373
331
39A
  5
374
331
39B
  5
375
331
39C
  5
376
331
39D
  5
377
331
39E
  5
378
331
39F
  5
379
331
3A0
  5
37A
331
3A1
  5
37B
331
3A2
  5
37C
331
3A3
  5
37D
331
3A4
  5
37E
331
3A5
  5
37F
331
3A6
  5
380
331
3A7
  5
381
331
3A8
  5
382
331
3A9
  5
383
331
3AA
  5
384
331
3AB
  5
385
331
3AC
  5
386
331
3AD
  5
387
331
3AE
  5
388
331
3AF
  5
389
331
3B0
  5
38A
331
3B1
  5
38B
331
3B2
  5
38C
331
3B3
  5
38D
331
3B4
  5
38E
331
3B5
  5
38F
331
3B6
  5
390
331
3B7
  5
391
331
3B8
  5
392
331
3B9
  5
393
331
3BA
  5
394
331
3BB
  5
395
331
3BC
  5
396
331
3BD
  5
397
331
3BE
  5
398
331
3BF
  5
399
331
3C0
  5
39A
331
3C1
  5
39B
331
3C2
  5
39C
331
3C3
  5
39D
331
3C4
  5
39E
331
3C5
  5
39F
331
3C6
  5
3A0
331
3C7
  5
3A1
331
3C8
  5
3A2
331
3C9
  5
3A3
331
3CA
  5
3A4
331
3CB
  5
3A5
331
3CC
  5
3A6
331
3CD
  5
3A7
331
3CE
  5
3A8
331
3CF
  5
3A9
331
3D0
  5
3AA
331
3D1
  5
3AB
331
3D2
  5
3AC
331
3D3
  5
3AD
331
3D4
  5
3AE
331
3D5
  5
3AF
331
3D6
  5
3B0
331
3D7
  5
3B1
331
3D8
  5
3B2
331
3D9
  5
3B3
331
3DA
  5
3B4
331
3DB
  5
3B5
331
3DC
  5
3B6
331
3DD
  5
3B7
331
3DE
  5
3B8
331
3DF
  5
3B9
331
3E0
  5
3BA
331
3E1
  5
3BB
331
3E2
  5
3BC
331
3E3
  5
3BD
331
3E4
  5
3BE
331
3E5
  5
3BF
331
3E6
  5
3C0
331
3E7
  5
3C1
331
3E8
  5
3C2
331
3E9
  5
3C3
331
3EA
  5
3C4
331
3EB
  5
3C5
331
3EC
  5
3C6
331
3ED
  5
3C7
331
3EE
  5
3C8
331
3EF
  5
3C9
331
3F0
  5
3CA
331
3F1
  5
3CB
331
3F2
  5
3CC
331
3F3
  5
3CD
331
3F4
  5
3CE
331
3F5
  5
3CF
331
3F6
  5
3D0
331
3F7
  5
3D1
331
3F8
  5
3D2
331
3F9
  5
3D3
331
3FA
  5
3D4
331
3FB
  5
3D5
331
3FC
  5
3D6
331
3FD
  5
3D7
331
3FE
  5
3D8
331
3FF
  5
3D9
331
400
  5
3DA
331
401
  5
3DB
331
402
  5
3DC
331
403
  5
3DD
331
404
  5
3DE
331
405
  5
3DF
331
406
  5
3E0
331
407
  5
3E1
331
408
  5
3E2
331
409
  5
3E3
331
40A
  5
3E4
331
40B
  5
3E5
331
40C
  5
3E6
331
40D
  5
3E7
331
40E
  5
3E8
331
40F
  5
3E9
331
410
  5
3EA
331
411
  5
3EB
331
412
  5
3EC
331
413
  5
3ED
331
414
  5
3EE
331
415
  5
3EF
331
416
  5
3F0
331
417
  5
3F1
331
418
  5
3F2
331
419
  5
3F3
331
41A
  5
3F4
331
41B
  5
3F5
331
41C
  5
3F6
331
41D
  5
3F7
331
41E
  5
3F8
331
41F
  5
3F9
331
420
  5
3FA
331
421
  5
3FB
331
422
  5
3FC
331
423
  5
3FD
331
424
  5
3FE
331
425
  5
3FF
331
426
  5
400
331
427
  5
401
331
428
  5
402
331
429
  5
403
331
42A
  5
404
331
42B
  5
405
331
42C
  5
406
331
42D
  5
407
331
42E
  5
408
331
42F
  5
409
331
430
  5
40A
331
431
  5
40B
331
432
  5
40C
331
433
  5
40D
331
434
  5
40E
331
435
  5
40F
331
436
  5
410
331
437
  5
411
331
438
  5
412
331
439
  5
413
331
43A
  5
414
331
43B
  5
415
331
43C
  5
416
331
43D
  5
417
331
43E
  5
418
331
43F
  5
419
331
440
  5
41A
331
441
  5
41B
331
442
  5
41C
331
443
  5
41D
331
444
  5
41E
331
445
  5
41F
331
446
  5
420
331
447
  5
421
331
448
  5
422
331
449
  5
423
331
44A
  5
424
331
44B
  5
425
331
44C
  5
426
331
44D
  5
427
331
44E
  5
428
331
44F
  5
429
331
450
  5
42A
331
451
  5
42B
331
452
  5
42C
331
453
  5
42D
331
454
  5
42E
331
455
  5
42F
331
456
  5
430
331
457
  5
431
331
458
  5
432
331
459
  5
433
331
45A
  5
434
331
45B
  5
435
331
45C
  5
436
331
45D
  5
437
331
45E
  5
438
331
45F
  5
439
331
460
  5
43A
331
461
  5
43B
331
462
  5
43C
331
463
  5
43D
331
464
  5
43E
331
465
  5
43F
331
466
  5
440
331
467
  5
441
331
468
  5
442
331
469
  5
443
331
46A
  5
444
331
46B
  5
445
331
46C
  5
446
331
46D
  5
447
331
46E
  5
448
331
46F
  5
449
331
470
  5
44A
331
471
  5
44B
331
472
  5
44C
331
473
  5
44D
331
474
  5
44E
331
475
  5
44F
331
476
  5
450
331
477
  5
451
331
478
  5
452
331
479
  5
453
331
47A
  5
454
331
47B
  5
455
331
47C
  5
456
331
47D
  5
457
331
47E
  5
458
331
47F
  5
459
331
480
  5
45A
331
481
  5
45B
331
482
  5
45C
331
483
  5
45D
331
484
  5
45E
331
485
  5
45F
331
486
  5
460
331
487
  5
461
331
488
  5
462
331
489
  5
463
331
48A
  5
464
331
48B
  5
465
331
48C
  5
466
331
48D
  5
467
331
48E
  5
468
331
48F
  5
469
331
490
  5
46A
331
491
  5
46B
331
492
  5
46C
331
493
  5
46D
331
494
  5
46E
331
495
  5
46F
331
496
  5
470
331
497
  5
471
331
498
  5
472
331
499
  5
473
331
49A
  5
474
331
49B
  5
475
331
49C
  5
476
331
49D
  5
477
331
49E
  5
478
331
49F
  5
479
331
4A0
  5
47A
331
4A1
  5
47B
331
4A2
  5
47C
331
4A3
  5
47D
331
4A4
  5
47E
331
4A5
  5
47F
331
4A6
  5
480
331
4A7
  5
481
331
4A8
  5
482
331
4A9
  5
483
331
4AA
  5
484
331
4AB
  5
485
331
4AC
  5
486
331
4AD
  5
487
331
4AE
  5
488
331
4AF
  5
489
331
4B0
  5
48A
331
4B1
  5
48B
331
4B2
  5
48C
331
4B3
  5
48D
331
4B4
  5
48E
331
4B5
  5
48F
331
4B6
  5
490
331
4B7
  5
491
331
4B8
  5
492
331
4B9
  5
493
331
4BA
  5
494
331
4BB
  5
495
331
4BC
  5
496
331
4BD
  5
497
331
4BE
  5
498
331
4BF
  5
499
331
4C0
  5
49A
331
4C1
  5
49B
331
4C2
  5
49C
331
4C3
  5
49D
331
4C4
  5
49E
331
4C5
  5
49F
331
4C6
  5
4A0
331
4C7
  5
4A1
331
4C8
  5
4A2
331
4C9
  5
4A3
331
4CA
  5
4A4
331
4CB
  5
4A5
331
4CC
  5
4A6
331
4CD
  5
4A7
331
4CE
  5
4A8
331
4CF
  5
4A9
331
4D0
  5
4AA
331
4D1
  5
4AB
331
4D2
  5
4AC
331
4D3
  5
4AD
331
4D4
  5
4AE
331
4D5
  5
4AF
331
4D6
  5
4B0
331
4D7
  5
4B1
331
4D8
  5
4B2
331
4D9
  5
4B3
331
4DA
  5
4B4
331
4DB
  5
4B5
331
4DC
  5
4B6
331
4DD
  5
4B7
331
4DE
  5
4B8
331
4DF
  5
4B9
331
4E0
  5
4BA
331
4E1
  5
4BB
331
4E2
  5
4BC
331
4E3
  5
4BD
331
4E4
  5
4BE
331
4E5
  5
4BF
331
4E6
  5
4C0
331
4E7
  5
4C1
331
4E8
  5
4C2
331
4E9
  5
4C3
331
4EA
  5
4C4
331
4EB
  5
4C5
331
4EC
  5
4C6
331
4ED
  5
4C7
331
4EE
  5
4C8
331
4EF
  5
4C9
331
4F0
  5
4CA
331
4F1
  5
4CB
331
4F2
  5
4CC
331
4F3
  5
4CD
331
4F4
  5
4CE
331
4F5
  5
4CF
331
4F6
  5
4D0
331
4F7
  5
4D1
331
4F8
  5
4D2
331
4F9
  5
4D3
331
4FA
  5
4D4
331
4FB
  5
4D5
331
4FC
  5
4D6
331
4FD
  5
4D7
331
4FE
  5
4D8
331
4FF
  5
4D9
331
500
  5
4DA
331
501
  5
4DB
331
502
  5
4DC
331
503
  5
4DD
331
504
  5
4DE
331
505
  5
4DF
331
506
  5
4E0
331
507
  5
4E1
331
508
  5
4E2
331
509
  5
4E3
331
50A
  5
4E4
331
50B
  5
4E5
331
50C
  5
4E6
331
50D
  5
4E7
331
50E
  5
4E8
331
50F
  5
4E9
331
510
  5
4EA
331
511
  5
4EB
331
512
  5
5F6
331
513
  5
4EC
331
517
  5
4EE
331
518
  5
4EF
331
519
  5
4F0
331
51A
  5
4F1
331
51B
  5
4F2
331
51C
  5
4F3
331
51D
  5
4F4
331
51E
  5
4F5
331
51F
  5
4F6
331
520
  5
4F7
331
521
  5
4F8
331
522
  5
4F9
331
523
  5
4FA
331
524
  5
4FB
331
525
  5
4FC
331
526
  5
4FD
331
527
  5
4FE
331
528
  5
4FF
331
529
  5
500
331
52A
  5
501
331
52B
  5
502
331
52C
  5
503
331
52D
  5
504
331
52E
  5
505
331
52F
  5
506
331
530
  5
507
331
531
  5
508
331
532
  5
509
331
533
  5
50A
331
534
  5
50B
331
535
  5
50C
331
536
  5
50D
331
537
  5
50E
331
538
  5
50F
331
539
  5
510
331
53A
  5
511
331
53B
  5
512
331
53C
  5
513
331
53D
  5
514
331
53E
  5
517
331
53F
  5
518
331
540
  5
519
331
541
  5
51A
331
542
  5
51B
331
543
  5
51C
331
544
  5
5F7
331
545
  5
5F8
331
546
  5
51D
331
547
  5
51E
331
548
  5
51F
331
54A
  5
520
331
54C
  5
521
331
54E
  5
522
331
550
  5
523
331
552
  5
524
331
554
  5
525
331
556
  5
526
331
558
  5
527
331
55A
  5
528
331
55C
  5
529
331
55E
  5
52A
331
560
  5
52B
331
562
  5
52C
331
564
  5
52D
331
566
  5
52E
331
568
  5
52F
331
56A
  5
530
331
56C
  5
531
331
56E
  5
532
331
570
  5
533
331
572
  5
5F9
331
573
  5
534
331
57E
  5
535
331
589
  5
536
331
594
  5
537
331
59F
  5
538
331
5AA
  5
539
331
5B5
  5
53A
331
5C0
  5
53B
331
5CB
  5
53C
331
5D6
  5
53D
331
5E1
  5
53E
331
5EC
  5
53F
331
5ED
  5
540
331
5EE
  5
541
331
5EF
  5
542
331
5F0
  5
543
331
5F1
  5
544
331
5F2
  5
545
331
5F3
  5
546
331
5F4
  5
547
331
5F5
  5
548
331
5F6
  5
54A
331
5F7
  5
54C
331
5F8
  5
54E
331
5F9
  5
550
  0
LAYOUT
  5
665
102
{ACAD_REACTORS
330
661
330
661
102
}
102
{ACAD_XDICTIONARY
360
666
102
}
330
661
100
AcDbPlotSettings
  1

  2
none_device
  4
Letter_(8.50_x_11.00_Inches)
  6

 40
6.35
 41
6.35
 42
6.350006
 43
6.350006
 44
215.899994
 45
279.399994
 46
0.0
 47
0.0
 48
0.0
 49
0.0
140
0.0
141
0.0
142
1.0
143
1.0
 70
   688
 72
     0
 73
     1
 74
     5
  7

 75
    16
 76
     0
 77
     2
 78
   300
147
1.0
148
0.0
149
0.0
100
AcDbLayout
  1
Layout1
 70
     1
 71
     1
 10
-0.25
 20
-0.25
 11
10.75
 21
8.25
 12
0.0
 22
0.0
 32
0.0
 14
1.049744
 24
0.799667
 34
-0.001526
 15
9.450623
 25
7.200577
 35
0.0
146
0.0
 13
0.0
 23
0.0
 33
0.0
 16
1.0
 26
0.0
 36
0.0
 17
0.0
 27
1.0
 37
0.0
 76
     0
330
662
1001
ACAD_PSEXT
1000
None
1000
None
1000
Not applicable
1000
The layout will not be plotted unless a new plotter configuration name is selected.
1070
     0
  0
LAYOUT
  5
660
102
{ACAD_REACTORS
330
661
330
661
102
}
330
661
100
AcDbPlotSettings
  1

  2
none_device
  4
ANSI_A_(8.50_x_11.00_Inches)
  6

 40
6.35
 41
19.049999
 42
6.350006
 43
19.049988
 44
215.899994
 45
279.399994
 46
0.0
 47
0.0
 48
0.0
 49
0.0
140
0.0
141
0.0
142
1.0
143
2.584895
 70
 11952
 72
     0
 73
     1
 74
     0
  7

 75
     0
 76
     0
 77
     2
 78
   300
147
0.386863
148
0.0
149
0.0
100
AcDbLayout
  1
Model
 70
     1
 71
     0
 10
0.0
 20
0.0
 11
12.0
 21
9.0
 12
0.0
 22
0.0
 32
0.0
 14
0.0
 24
0.0
 34
0.0
 15
0.0
 25
0.0
 35
0.0
146
0.0
 13
0.0
 23
0.0
 33
0.0
 16
1.0
 26
0.0
 36
0.0
 17
0.0
 27
1.0
 37
0.0
 76
     0
330
65D
331
49
  0
MLINESTYLE
  5
65A
102
{ACAD_REACTORS
330
65B
102
}
330
65B
100
AcDbMlineStyle
  2
STANDARD
 70
     0
  3

 62
   256
 51
90.0
 52
90.0
 71
     2
 49
0.5
 62
   256
  6
BYLAYER
 49
-0.5
 62
   256
  6
BYLAYER
  0
ACDBPLACEHOLDER
  5
64F
102
{ACAD_REACTORS
330
650
102
}
330
650
  0
XRECORD
  5
644
102
{ACAD_REACTORS
330
675
102
}
330
675
100
AcDbXrecord
280
     1
310
3E4F020000004D6F64656C6572000000000000000000000000000000000000000000000000000000000000000000000000000000000000000000000000000000000000000000000000000000000000000000000000000000000000000000000000000000000000000000000000000000000000000000000000000000000000
310
00000000000000000000000000000000000000000000000000000000000000000000000000000000000000000000000000000000000000000000000000000000000000000000000000000000000000000000000000000000000000000000000000000000000000000000000000000000000000000000000000000000000000
310
00
310
00000000000000000000000000000000000000000000000000000000000000000000000000000000000000000000000000000000000000000000000000000000000000000000000000000000000000000000000000000000000000000000000000000000000000000000000000000000000000000000000000000000000000
310
00000000000000000000000000000000000000000000000000000000000000000000000000000000000000000000000000000000000000000000000000000000000000000000000000000000000000000000000000000000000000000000000000000000000000000000000000000000000000000000000000000000000000
310
00
310
00000000000000000000000000000000000000000000000000000000000000000000000000000000000000000000000000000000000000000000000000000000000000000000000000000000000000000000000000000000000000000000000000000000000000000000000000000000000000000000000000000000000000
310
00000000000000000000000000000000000000000000000000000000000000000000000000000000000000000000000000000000000000000000000000000000000000000000000000000000000000000000000000000000000000000000000000000000000000000000000000000000000000000000000000000000000000
310
00
310
00000000000000000000000000000000000000000000000000000000000000000000000000000000000000000000000000000000000000000000000000000000000000000000000000000000000000000000000000000000000000000000000000000000000000000000000000000000000000000000000000000000000000
310
00000000000000000000000000000000000000000000000000000000000000000000000000000000000000000000000000000000000000000000000000000000000000000000000000000000000000000000000000000000000000000000000000000000000000000000000000000000000000000000000000000000000000
310
00
310
00000000000000000000000000000000000000000000000000000000000000000000000000000000000000000000000000000000000000000000000000000000000000000000000000000000000000000000000000000000000000000000000000000000000000000000000000000000000000000000000000000000000000
310
00000000000000000000000000000000000000000000000000000000000000000000000000000000000000000000000000000000000000000000000000000000000000000000000000000000000000000000000000000000000000000000000000000000000000000000000000000000000000000000000000000000000000
310
00
310
00000000000000000000000000000000000000000000000000000000000000000000000000000000000000000000000000000000000000000000000000000000000000000000000000000000000000000000000000000000000000000000000000000000000000000000000000000000000000000000000000000000000000
310
00000000000000000000000000000000000000000000000000000000000000000000000000000000000000000000000000000000000000000000000000000000000000000000000000000000000000000000000000000000000000000000000000000000000000000000000000000000000000000000000000000000000000
310
00
310
00000000000000000000000000000000000000000000000000000000000000000000000000000000000000000000000000000000000000000000000000000000000000000000000000000000000000000000000000000000000000000000000000000000000000000000000000000000000000000000000000000000000000
310
00000000000000000000000000000000000000000000000000000000000000000000000000000000000000000000000000000000000000000000000000000000000000000000000000000000000000000000000000000000000000000000000000000000000000000000000000000000000000000000000000000000000000
310
00
310
00000000000000000000000000000000000000000000000000000000000000000000000000000000000000000000000000000000000000000000000000000000000000000000000000000000000000000000000000000000000000000000000000000000000000000000000000000000000000000000000000000000000000
310
00000000000000000000000000000000000000000000000000000000000000000000000000000000000000000000000000000000000000000000000000000000000000000000000000000000000000000000000000000000000000000000000000000000000000000000000000000000000000000000000000000000000000
310
00
310
00000000000000000000000000000000000000000000000000000000000000000000000000000000000000000000000000000000000000000000000000000000000000000000000000000000000000000000000000000000000000000000000000000000000000000000000000000000000000000000000000000000000000
310
00000000000000000000000000000000000000000000000000000000000000000000000000000000000000000000000000000000000000000000000000000000000000000000000000000000000000000000000000000000000000000000000000000000000000000000000000000000000000000000000000000000000000
310
00
310
00000000000000000000000000000000000000000000000000000000000000000000000000000000000000000000000000000000000000000000000000000000000000000000000000000000000000000000000000000000000000000000000000000000000000000000000000000000000000000000000000000000000000
310
00000000000000000000000000000000000000000000000000000000000000000000000000000000000000000000000000000000000000000000000000000000000000000000000000000000000000000000000000000000000000000000000000000000000000000000000000000000000000000000000000000000000000
310
00
310
00000000000000000000000000000000000000000000000000000000000000000000000000000000000000000000000000000000000000000000000000000000000000000000000000000000000000000000000000000000000000000000000000000000000000000000000000000000000000000000000000000000000000
310
00000000000000000000000000000000000000000000000000000000000000000000000000000000000000000000000000000000000000000000000000000000000000000000000000000000000000000000000000000000000000000000000000000000000000000000000000000000000000000000000000000000000000
310
00
310
00000000000000000000000000000000000000000000000000000000000000000000000000000000000000000000000000000000000000000000000000000000000000000000000000000000000000000000000000000000000000000000000000000000000000000000000000000000000000000000000000000000000000
310
00000000000000000000000000000000000000000000000000000000000000000000000000000000000000000000000000000000000000000000000000000000000000000000000000000000000000000000000000000000000000000000000000000000000000000000000000000000000000000000000000000000000000
310
00
310
00000000000000000000000000000000000000000000000000000000000000000000000000000000000000000000000000000000000000000000000000000000000000000000000000000000000000000000000000000000000000000000000000000000000000000000000000000000000000000000000000000000000000
310
00000000000000000000000000000000000000000000000000000000000000000000000000000000000000000000000000000000000000000000000000000000000000000000000000000000000000000000000000000000000000000000000000000000000000000000000000000000000000000000000000000000000000
310
00
310
00000000000000000000000000000000000000000000000000000000000000000000000000000000000000000000000000000000000000000000000000000000000000000000000000000000000000000000000000000000000000000000000000000000000000000000000000000000000000
  0
XRECORD
  5
649
102
{ACAD_REACTORS
330
675
102
}
330
675
100
AcDbXrecord
280
     1
310
3E4F020000004D6F64656C6572000000000000000000000000000000000000000000000000000000000000000000000000000000000000000000000000000000000000000000000000000000000000000000000000000000000000000000000000000000000000000000000000000000000000000000000000000000000000
310
00000000000000000000000000000000000000000000000000000000000000000000000000000000000000000000000000000000000000000000000000000000000000000000000000000000000000000000000000000000000000000000000000000000000000000000000000000000000000000000000000000000000000
310
00
310
00000000000000000000000000000000000000000000000000000000000000000000000000000000000000000000000000000000000000000000000000000000000000000000000000000000000000000000000000000000000000000000000000000000000000000000000000000000000000000000000000000000000000
310
00000000000000000000000000000000000000000000000000000000000000000000000000000000000000000000000000000000000000000000000000000000000000000000000000000000000000000000000000000000000000000000000000000000000000000000000000000000000000000000000000000000000000
310
00
310
00000000000000000000000000000000000000000000000000000000000000000000000000000000000000000000000000000000000000000000000000000000000000000000000000000000000000000000000000000000000000000000000000000000000000000000000000000000000000000000000000000000000000
310
00000000000000000000000000000000000000000000000000000000000000000000000000000000000000000000000000000000000000000000000000000000000000000000000000000000000000000000000000000000000000000000000000000000000000000000000000000000000000000000000000000000000000
310
00
310
00000000000000000000000000000000000000000000000000000000000000000000000000000000000000000000000000000000000000000000000000000000000000000000000000000000000000000000000000000000000000000000000000000000000000000000000000000000000000000000000000000000000000
310
00000000000000000000000000000000000000000000000000000000000000000000000000000000000000000000000000000000000000000000000000000000000000000000000000000000000000000000000000000000000000000000000000000000000000000000000000000000000000000000000000000000000000
310
00
310
00000000000000000000000000000000000000000000000000000000000000000000000000000000000000000000000000000000000000000000000000000000000000000000000000000000000000000000000000000000000000000000000000000000000000000000000000000000000000000000000000000000000000
310
00000000000000000000000000000000000000000000000000000000000000000000000000000000000000000000000000000000000000000000000000000000000000000000000000000000000000000000000000000000000000000000000000000000000000000000000000000000000000000000000000000000000000
310
00
310
00000000000000000000000000000000000000000000000000000000000000000000000000000000000000000000000000000000000000000000000000000000000000000000000000000000000000000000000000000000000000000000000000000000000000000000000000000000000000000000000000000000000000
310
00000000000000000000000000000000000000000000000000000000000000000000000000000000000000000000000000000000000000000000000000000000000000000000000000000000000000000000000000000000000000000000000000000000000000000000000000000000000000000000000000000000000000
310
00
310
00000000000000000000000000000000000000000000000000000000000000000000000000000000000000000000000000000000000000000000000000000000000000000000000000000000000000000000000000000000000000000000000000000000000000000000000000000000000000000000000000000000000000
310
00000000000000000000000000000000000000000000000000000000000000000000000000000000000000000000000000000000000000000000000000000000000000000000000000000000000000000000000000000000000000000000000000000000000000000000000000000000000000000000000000000000000000
310
00
310
00000000000000000000000000000000000000000000000000000000000000000000000000000000000000000000000000000000000000000000000000000000000000000000000000000000000000000000000000000000000000000000000000000000000000000000000000000000000000000000000000000000000000
310
00000000000000000000000000000000000000000000000000000000000000000000000000000000000000000000000000000000000000000000000000000000000000000000000000000000000000000000000000000000000000000000000000000000000000000000000000000000000000000000000000000000000000
310
00
310
00000000000000000000000000000000000000000000000000000000000000000000000000000000000000000000000000000000000000000000000000000000000000000000000000000000000000000000000000000000000000000000000000000000000000000000000000000000000000000000000000000000000000
310
00000000000000000000000000000000000000000000000000000000000000000000000000000000000000000000000000000000000000000000000000000000000000000000000000000000000000000000000000000000000000000000000000000000000000000000000000000000000000000000000000000000000000
310
00
310
00000000000000000000000000000000000000000000000000000000000000000000000000000000000000000000000000000000000000000000000000000000000000000000000000000000000000000000000000000000000000000000000000000000000000000000000000000000000000000000000000000000000000
310
00000000000000000000000000000000000000000000000000000000000000000000000000000000000000000000000000000000000000000000000000000000000000000000000000000000000000000000000000000000000000000000000000000000000000000000000000000000000000000000000000000000000000
310
00
310
00000000000000000000000000000000000000000000000000000000000000000000000000000000000000000000000000000000000000000000000000000000000000000000000000000000000000000000000000000000000000000000000000000000000000000000000000000000000000000000000000000000000000
310
00000000000000000000000000000000000000000000000000000000000000000000000000000000000000000000000000000000000000000000000000000000000000000000000000000000000000000000000000000000000000000000000000000000000000000000000000000000000000000000000000000000000000
310
00
310
00000000000000000000000000000000000000000000000000000000000000000000000000000000000000000000000000000000000000000000000000000000000000000000000000000000000000000000000000000000000000000000000000000000000000000000000000000000000000000000000000000000000000
310
00000000000000000000000000000000000000000000000000000000000000000000000000000000000000000000000000000000000000000000000000000000000000000000000000000000000000000000000000000000000000000000000000000000000000000000000000000000000000000000000000000000000000
310
00
310
00000000000000000000000000000000000000000000000000000000000000000000000000000000000000000000000000000000000000000000000000000000000000000000000000000000000000000000000000000000000000000000000000000000000000000000000000000000000000000000000000000000000000
310
00000000000000000000000000000000000000000000000000000000000000000000000000000000000000000000000000000000000000000000000000000000000000000000000000000000000000000000000000000000000000000000000000000000000000000000000000000000000000000000000000000000000000
310
00
310
00000000000000000000000000000000000000000000000000000000000000000000000000000000000000000000000000000000000000000000000000000000000000000000000000000000000000000000000000000000000000000000000000000000000000000000000000000000000000
  0
XRECORD
  5
643
102
{ACAD_REACTORS
330
675
102
}
330
675
100
AcDbXrecord
280
     1
310
DF56060034040701D0009A9999999999B93F000000000000000000000000000000000400000009000000000000000200000064000000640000000100000001000000190000007B14AE47E17A843F00000000004060409A9999999999B93F00000000004C2D41000000000070F7400000000000942141000000000000000000
310
0000000000000000000000000000000AD482040000000000000000000000000000F03F000000000000000000000000000030402D431CEBE2362A3F00000000000008400000000000000000009807C000000000000000007C1A61B9A711364020000000050000000A000000200000002000000020000000000000000000F03F
310
00
310
0000000000F03F000000000000F03F333333333333D33F333333333333D33F333333333333D33F000000000000F43F000000000000F43F000000000000F03F0200000064000000000000000000000000000840000000000000F83F00000000000000000000000000000000008056409A9999999999B93F0000000000000000
310
00000000000000000000000000000000000000000000000000000000000000000000000000000000000000000000000000000000000000000000000000000000000000000000000000000000000000000000000000000000000000000000000000000000000000000000000000000000000000000000000000000000000000
310
00
310
0000000000000000000000000000000000000000000000000000000000000000000000000000000000000000000000000000000000000000000000000000000000000000000000000000000000000000000000000000000000000000000000000000000000000000000000000000000000000000000000009A9999999999A9
310
3F9100000000000000000000000000000035A781D547960F40000000000000F03F000000000000F03F666666666666164000000000104068F200000000000000000000000000000000000000000000000000000000000000000000000000000000000000000000000000000000000000000000000000000000000000000000
310
00
310
00000000000000000000000000000000000000000000000000000000000000000000000000000000000000000000000000000000000000000000000000000000000000000000000000000000000000000000000000000000000000000000000000000000000000000000000000000000000000000000000000000000000000
310
000000000000000000000000000000000000000000000000000000000000000000000000000000000000000000000000000000000000000000000000FF000000000000000000000000000000000000000000000000000000000000000000000000000000000000000000000000000000000000000000000000000000000000
310
00
310
0000000000000000000000000000000000000000000000000000000000000000000000000000000000000000000000000000000000000000000000000000000000000000
  0
DICTIONARY
  5
666
330
665
100
AcDbDictionary
280
     1
281
     1
  3
ADSK_XREC_LAYOUTTHUMBNAIL
360
667
  0
XRECORD
  5
667
102
{ACAD_REACTORS
330
666
102
}
330
666
100
AcDbXrecord
280
     1
310
28000000B40000008B0000000100080000000000BC61000000000000000000000001000000000000FFFFFF0000000000FFFFFF000000000000000000000000000000000000000000000000000000000000000000330000006600000099000000CC000000FF00000000330000333300006633000099330000CC330000FF3300
310
0000660000336600006666000099660000CC660000FF66000000990000339900006699000099990000CC990000FF99000000CC000033CC000066CC000099CC0000CCCC0000FFCC000000FF000033FF000066FF000099FF0000CCFF0000FFFF000000003300330033006600330099003300CC003300FF003300003333003333
310
33006633330099333300CC333300FF33330000663300336633006666330099663300CC663300FF66330000993300339933006699330099993300CC993300FF99330000CC330033CC330066CC330099CC3300CCCC3300FFCC330000FF330033FF330066FF330099FF3300CCFF3300FFFF330000006600330066006600660099
310
006600CC006600FF00660000336600333366006633660099336600CC336600FF33660000666600336666006666660099666600CC666600FF66660000996600339966006699660099996600CC996600FF99660000CC660033CC660066CC660099CC6600CCCC6600FFCC660000FF660033FF660066FF660099FF6600CCFF6600
310
FFFF660000009900330099006600990099009900CC009900FF00990000339900333399006633990099339900CC339900FF33990000669900336699006666990099669900CC669900FF66990000999900339999006699990099999900CC999900FF99990000CC990033CC990066CC990099CC9900CCCC9900FFCC990000FF99
310
0033FF990066FF990099FF9900CCFF9900FFFF99000000CC003300CC006600CC009900CC00CC00CC00FF00CC000033CC003333CC006633CC009933CC00CC33CC00FF33CC000066CC003366CC006666CC009966CC00CC66CC00FF66CC000099CC003399CC006699CC009999CC00CC99CC00FF99CC0000CCCC0033CCCC0066CC
310
CC0099CCCC00CCCCCC00FFCCCC0000FFCC0033FFCC0066FFCC0099FFCC00CCFFCC00FFFFCC000000FF003300FF006600FF009900FF00CC00FF00FF00FF000033FF003333FF006633FF009933FF00CC33FF00FF33FF000066FF003366FF006666FF009966FF00CC66FF00FF66FF000099FF003399FF006699FF009999FF00CC
310
99FF00FF99FF0000CCFF0033CCFF0066CCFF0099CCFF00CCCCFF00FFCCFF0000FFFF0033FFFF0066FFFF0099FFFF00CCFFFF00FFFFFF00000000000D0D0D001A1A1A00282828003535350043434300505050005D5D5D006B6B6B00787878008686860093939300A1A1A100AEAEAE00BBBBBB00C9C9C900D6D6D600E4E4E400
310
F1F1F100FFFFFF0000000000000000000000000000000000000000000000000000000000000000000000000000000000E2E2E2E2E2E2E2E2E2E2E2E2E2E2E2E2E2E2E2E2E2E2E2E2E2E2E2E2E2E2E2E2E2E2E2E2E2E2E2E2E2E2E2E2E2E2E2E2E2E2E2E2E2E2E2E2E2E2E2E2E2E2E2E2E2E2E2E2E2E2E2E2E2E2E2E2E2E2E2
310
E2E2E2E2E2E2E2E2E2E2E2E2E2E2E2E2E2E2E2E2E2E2E2E2E2E2E2E2E2E2E2E2E2E2E2E2E2E2E2E2E2E2E2E2E2E2E2E2E2E2E2E2E2E2E2E2E2E2E2E2E2E2E2E2E2E2E2E2E2E2E2E2E2E2E2E2E2E2E2E2E2E2E2E2E2E2E2E2E2E2E2E2E2E2E2E2E2E2E2E2EFF5F5F5F5F5F5F5F5F5F5F5F5F5F5F5F5F5F5F5F5F5F5F5F5F5F5
310
F5F5F5F5F5F5F5F5F5F5F5F5F5F5F5F5F5F5F5F5F5F5F5F5F5F5F5F5F5F5F5F5F5F5F5F5F5F5F5F5F5F5F5F5F5F5F5F5F5F5F5F5F5F5F5F5F5F5F5F5F5F5F5F5F5F5F5F5F5F5F5F5F5F5F5F5F5F5F5F5F5F5F5F5F5F5F5F5F5F5F5F5F5F5F5F5F5F5F5F5F5F5F5F5F5F5F5F5F5F5F5F5F5F5F5F5F5F5F5F5F5F5F5F5F5F5F5
310
F5F5F5F5F5F5F5F5F5F5F5F5F5F5F5F5F5F5F5F5F5F5F5F5E2E2EFF5F5F5F5F5F5F5F5F5F5F5F5F5F5F5F5F5F5F5F5F5F5F5F5F5F5F5F5F5F5F5F5F5F5F5F5F5F5F5F5F5F5F5F5F5F5F5F5F5F5F5F5F5F5F5F5F5F5F5F5F5F5F5F5F5F5F5F5F5F5F5F5F5F5F5F5F5F5F5F5F5F5F5F5F5F5F5F5F5F5F5F5F5F5F5F5F5F5F5F5
310
F5F5F5F5F5F5F5F5F5F5F5F5F5F5F5F5F5F5F5F5F5F5F5F5F5F5F5F5F5F5F5F5F5F5F5F5F5F5F5F5F5F5F5F5F5F5F5F5F5F5F5F5F5F5F5F5F5F5F5F5F5F5F5F5F5F5F5F5F5F5F5F5F5F5F5F5F5E2E2EFF5F5F5F5F5F5F5F5F5F5F5F5F5F5F5F5F5F5F5F5F5F5F5F5F5F5F5F5F5F5F5F5F5F5F5F5F5F5F5F5F5F5F5F5F5F5F5
310
F5F5F5F5F5F5F5F5F5F5F5F5F5F5F5F5F5F5F5F5F5F5F5F5F5F5F5F5F5F5F5F5F5F5F5F5F5F5F5F5F5F5F5F5F5F5F5F5F5F5F5F5F5F5F5F5F5F5F5F5F5F5F5F5F5F5F5F5F5F5F5F5F5F5F5F5F5F5F5F5F5F5F5F5F5F5F5F5F5F5F5F5F5F5F5F5F5F5F5F5F5F5F5F5F5F5F5F5F5F5F5F5F5F5F5F5F5F5F5F5F5F5F5F5F5F5F5
310
F5F5F5E2E2EFF5F5F5E2E2E2E2E2E2E2E2F5F5F5F5F5F5F5F5F5E2E2E2E2E2E2E2E2E2E2E2E2E2E2E2E2F5F5F5F5F5F5F5F5E2E2E2E2E2E2E2E2E2E2E2E2E2E2E2E2F5F5F5F5F5F5F5F5F5E2E2E2E2E2E2E2E2E2E2E2E2E2E2E2F5F5F5F5F5F5F5F5F5E2E2E2E2E2E2E2E2E2E2E2E2E2E2E2F5F5F5F5F5F5F5F5F5E2E2E2E2
310
E2E2E2E2E2E2E2E2E2E2E2E2F5F5F5F5F5F5F5F5E2E2E2E2E2E2E2E2E2E2E2E2E2E2E2E2F5F5F5F5F5F5F5F5F5E2E2E2E2E2E2E2E2F5F5F5E2E2EFF5F5F5E2F5F5F5F5F5F5F5F5F5F5F5F5F5F5F5F5F5F5F5F5F5F5F5F5F5F5F5F5F5F5F5F5F5F5F5F5F5F5F5F5F5F5F5F5F5F5F5F5F5F5F5F5F5F5F5F5F5F5F5F5F5F5F5F5
310
F5F5F5F5F5F5F5F5F5F5F5F5F5F5F5F5F5F5F5F5F5F5F5F5F5F5F5F5F5F5F5F5F5F5F5F5F5F5F5F5F5F5F5F5F5F5F5F5F5F5F5F5F5F5F5F5F5F5F5F5F5F5F5F5F5F5F5F5F5F5F5F5F5F5F5F5F5F5F5F5F5F5F5F5F5F5F5F5F5F5F5F5F5F5F5F5F5F5F5F5F5F5F5F5F5E2F5F5F5E2E2EFF5F5F5E2F5F5F5F5F5F5F5F5F5F5F5
310
F5F5F5F5F5F5F5F5F5F5F5F5F5F5F5F5F5F5F5F5F5F5F5F5F5F5F5F5F5F5F5F5F5F5F5F5F5F5F5F5F5F5F5F5F5F5F5F5F5F5F5F5F5F5F5F5F5F5F5F5F5F5F5F5F5F5F5F5F5F5F5F5F5F5F5F5F5F5F5F5F5F5F5F5F5F5F5F5F5F5F5F5F5F5F5F5F5F5F5F5F5F5F5F5F5F5F5F5F5F5F5F5F5F5F5F5F5F5F5F5F5F5F5F5F5F5F5
310
F5F5F5F5F5F5F5F5F5F5F5F5F5F5F5F5F5F5F5F5F5F5F5F5F5F5F5F5F5F5F5E2F5F5F5E2E2EFF5F5F5E2F5F5F5F5F5F5F5F5F5F5F5F5F5F5F5F5F5F5F5F5F5F5F5F5F5F5F5F5F5F5F5F5F5F5F5F5F5F5F5F5F5F5F5F5F5F5F5F5F5F5F5F5F5F5F5F5F5F5F5F5F5F5F5F5F5F5F5F5F5F5F5F5F5F5F5F5F5F5F5F5F5F5F5F5F5
310
F5F5F5F5F5F5F5F5F5F5F5F5F5F5F5F5F5F5F5F5F5F5F5F5F5F5F5F5F5F5F5F5F5F5F5F5F5F5F5F5F5F5F5F5F5F5F5F5F5F5F5F5F5F5F5F5F5F5F5F5F5F5F5F5F5F5F5F5F5F5F5F5F5F5F5F5F5F5F5F5F5F5F5F5E2F5F5F5E2E2EFF5F5F5E2F5F5F5F5F5F5F5F5F5F5F5F5F5F5F5F5F5F5F5F5F5F5F5F5F5F5F5F5F5F5F5F5
310
F5F5F5F5F5F5F5F5F5F5F5F5F5F5F5F5F5F5F5F5F5F5F5F5F5F5F5F5F5F5F5F5F5F5F5F5F5F5F5F5F5F5F5F5F5F5F5F5F5F5F5F5F5F5F5F5F5F5F5F5F5F5F5F5F5F5F5F5F5F5F5F5F5F5F5F5F5F5F5F5F5F5F5F5F5F5F5F5F5F5F5F5F5F5F5F5F5F5F5F5F5F5F5F5F5F5F5F5F5F5F5F5F5F5F5F5F5F5F5F5F5F5F5F5F5F5F5
310
F5F5F5F5F5F5F5F5F5F5E2F5F5F5E2E2EFF5F5F5E2F5F5F5F5F5F5F5F5F5F5F5F5F5F5F5F5F5F5F5F5F5F5F5F5F5F5F5F5F5F5F5F5F5F5F5F5F5F5F5F5F5F5F5F5F5F5F5F5F5F5F5F5F5F5F5F5F5F5F5F5F5F5F5F5F5F5F5F5F5F5F5F5F5F5F5F5F5F5F5F5F5F5F5F5F5F5F5F5F5F5F5F5F5F5F5F5F5F5F5F5F5F5F5F5F5F5
310
F5F5F5F5F5F5F5F5F5F5F5F5F5F5F5F5F5F5F5F5F5F5F5F5F5F5F5F5F5F5F5F5F5F5F5F5F5F5F5F5F5F5F5F5F5F5F5F5F5F5F5F5F5F5F5F5F5F5F5F5F5F5F5E2F5F5F5E2E2EFF5F5F5E2F5F5F5F5F5F5F5F5F5F5F5F5F5F5F5F5F5F5F5F5F5F5F5F5F5F5F5F5F5F5F5F5F5F5F5F5F5F5F5F5F5F5F5F5F5F5F5F5F5F5F5F5F5
310
F5F5F5F5F5F5F5F5F5F5F5F5F5F5F5F5F5F5F5F5F5F5F5F5F5F5F5F5F5F5F5F5F5F5F5F5F5F5F5F5F5F5F5F5F5F5F5F5F5F5F5F5F5F5F5F5F5F5F5F5F5F5F5F5F5F5F5F5F5F5F5F5F5F5F5F5F5F5F5F5F5F5F5F5F5F5F5F5F5F5F5F5F5F5F5F5F5F5F5F5F5F5F5F5F5F5F5F5F5F5F5F5F5F5F5F5E2F5F5F5E2E2EFF5F5F5E2
310
F5F5F5F5F5F5F5F5F5F5F5F5F5F5F5F5F5F5F5F5F5F5F5F5F5F5F5F5F5F5F5F5F5F5F5F5F5F5F5F5F5F5F5F5F5F5F5F5F5F5F5F5F5F5F5F5F5F5F5F5F5F5F5F5F5F5F5F5F5F5F5F5F5F5F5F5F5F5F5F5F5F5F5F5F5F5F5F5F5F5F5F5F5F5F5F5F5F5F5F5F5F5F5F5F5F5F5F5F5F5F5F5F5F5F5F5F5F5F5F5F5F5F5F5F5F5F5
310
F5F5F5F5F5F5F5F5F5F5F5F5F5F5F5F5F5F5F5F5F5F5F5F5F5F5F5F5F5F5F5F5F5F5F5F5F5F5F5F5F5F5E2F5F5F5E2E2EFF5F5F5E2F5F5F5F5F5F5F5F5F5F5F5F5F5F5F5F5F5F5F5F5F5F5F5F5F5F5F5F5F5F5F5F5F5F5F5F5F5F5F5F5F5F5F5F5F5F5F5F5F5F5F5F5F5F5F5F5F5F5F5F5F5F5F5F5F5F5F5F5F5F5F5F5F5F5
310
F5F5F5F5F5F5F5F5F5F5F5F5F5F5F5F5F5F5F5F5F5F5F5F5F5F5F5F5F5F5F5F5F5F5F5F5F5F5F5F5F5F5F5F5F5F5F5F5F5F5F5F5F5F5F5F5F5F5F5F5F5F5F5F5F5F5F5F5F5F5F5F5F5F5F5F5F5F5F5F5F5F5F5F5F5F5F5F5F5F5F5F5F5F5F5E2F5F5F5E2E2EFF5F5F5F5F5F5F5F5F5F5F5F5F5F5F5F5F5F5F5F5F5F5F5F5F5
310
F5F5F5F5F5F5F5F5F5F5F5F5F5F5F5F5F5F5F5F5F5F5F5F5F5F5F5F5F5F5F5F5F5F5F5F5F5F5F5F5F5F5F5F5F5F5F5F5F5F5F5F5F5F5F5F5F5F5F5F5F5F5F5F5F5F5F5F5F5F5F5F5F5F5F5F5F5F5F5F5F5F5F5F5F5F5F5F5F5F5F5F5F5F5F5F5F5F5F5F5F5F5F5F5F5F5F5F5F5F5F5F5F5F5F5F5F5F5F5F5F5F5F5F5F5F5F5
310
F5F5F5F5F5F5F5F5F5F5F5F5F5F5F5F5F5F5F5F5F5F5F5F5F5E2E2EFF5F5F5F5F5F5F5F5F5F5F5F5F5F5F5F5F5F5F5F5F5F5F5F5F5F5F5F5F5F5F5F5F5F5F5F5F5F5F5F5F5F5F5F5F5F5F5F5F5F5F5F5F5F5F5F5F5F5F5F5F5F5F5F5F5F5F5F5F5F5F5F5F5F5F5F5F5F5F5F5F5F5F5F5F5F5F5F5F5F5F5F5F5F5F5F5F5F5F5
310
F5F5F5F5F5F5F5F5F5F5F5F5F5F5F5F5F5F5F5F5F5F5F5F5F5F5F5F5F5F5F5F5F5F5F5F5F5F5F5F5F5F5F5F5F5F5F5F5F5F5F5F5F5F5F5F5F5F5F5F5F5F5F5F5F5F5F5F5F5F5F5F5F5F5F5F5F5F5E2E2EFF5F5F5F5F5F5F5F5F5F5F5F5F5F5F5F5F5F5F5F5F5F5F5F5F5F5F5F5F5F5F5F5F5F5F5F5F5F5F5F5F5F5F5F5F5F5
310
F5F5F5F5F5F5F5F5F5F5F5F5F5F5F5F5F5F5F5F5F5F5F5F5F5F5F5F5F5F5F5F5F5F5F5F5F5F5F5F5F5F5F5F5F5F5F5F5F5F5F5F5F5F5F5F5F5F5F5F5F5F5F5F5F5F5F5F5F5F5F5F5F5F5F5F5F5F5F5F5F5F5F5F5F5F5F5F5F5F5F5F5F5F5F5F5F5F5F5F5F5F5F5F5F5F5F5F5F5F5F5F5F5F5F5F5F5F5F5F5F5F5F5F5F5F5F5
310
F5F5F5F5E2E2EFF5F5F5F5F5F5F5F5F5F5F5F5F5F5F5F5F5F5F5F5F5F5F5F5F5F5F5F5F5F5F5F5F5F5F5F5F5F5F5F5F5F5F5F5F5F5F5F5F5F5F5F5F5F5F5F5F5F5F5F5F5F5F5F5F5F5F5F5F5F5F5F5F5F5F5F5F5F5F5F5F5F5F5F5F5F5F5F5F5F5F5F5F5F5F5F5F5F5F5F5F5F5F5F5F5F5F5F5F5F5F5F5F5F5F5F5F5F5F5F5
310
F5F5F5F5F5F5F5F5F5F5F5F5F5F5F5F5F5F5F5F5F5F5F5F5F5F5F5F5F5F5F5F5F5F5F5F5F5F5F5F5F5F5F5F5F5F5F5F5F5F5F5F5F5F5F5F5F5E2E2EFF5F5F5F5F5F5F5F5F5F5F5F5F5F5F5F5F5F5F5F5E2E2E2E2E2E2E2E2E2E2E2E2E2E2E2E2E2E2E2E2E2E2E2E2E2E2E2E2E2E2E2E2E2E2E2E2E2E2E2E2E2E2E2E2E2E2E2
310
E2E2E2E2E2E2E2E2E2E2E2E2E2E2E2E2E2E2E2E2E2E2E2E2E2E2E2E2E2E2E2E2E2E2E2E2E2E2E2E2E2E2E2E2E2E2E2E2E2E2E2E2E2E2E2E2E2E2E2E2E2E2E2E2E2E2E2E2E2E2E2E2E2E2E2E2E2E2E2E2E2E2E2E2E2E2E2E2E2E2F5F5F5F5F5F5F5F5F5F5F5F5F5F5F5F5F5F5F5F5E2E2EFF5F5F5F5F5F5F5F5F5F5F5F5F5F5
310
F5F5F5F5F5F5E2F5F5F5F5F5F5F5F5F5F5F5F5F5F5F5F5F5F5F5F5F5F5F5F5F5F5F5F5F5F5F5F5F5F5F5F5F5F5F5F5F5F5F5F5F5F5F5F5F5F5F5F5F5F5F5F5F5F5F5F5F5F5F5F5F5F5F5F5F5F5F5F5F5F5F5F5F5F5F5F5F5F5F5F5F5F5F5F5F5F5F5F5F5F5F5F5F5F5F5F5F5F5F5F5F5F5F5F5F5F5F5F5F5F5F5F5F5F5F5F5
310
F5F5F5F5F5F5F5F5F5F5F5F5F5F5F5E2F5F5F5F5F5F5F5F5F5F5F5F5F5F5F5F5F5F5F5F5E2E2EFF5F5F5F5F5F5F5F5F5F5F5F5F5F5F5F5F5F5F5F5E2F5F5F5F5F5F5F5F5F5F5F5F5F5F5F5F5F5F5F5F5F5F5F5F5F5F5F5F5F5F5F5F5F5F5F5F5F5F5F5F5F5F5F5F5F5F5F5F5F5F5F5F5F5F5F5F5F5F5F5F5F5F5F5F5F5F5F5
310
F5F5F5F5F5F5F5F5F5F5F5F5F5F5F5F5F5F5F5F5F5F5F5F5F5F5F5F5F5F5F5F5F5F5F5F5F5F5F5F5F5F5F5F5F5F5F5F5F5F5F5F5F5F5F5F5F5F5F5F5F5F5F5F5F5F5F5F5E2F5F5F5F5F5F5F5F5F5F5F5F5F5F5F5F5F5F5F5F5E2E2EFF5F5F5F5F5F5F5F5F5F5F5F5F5F5F5F5F5F5F5F5E2F5F5F5F5F5F5F5F5F5F5F5F5F5F5
310
F5F5F5F5F5F5F5F5F5F5F5F5F5F5F5F5F5F5F5F5F5F5F5F5F5F5F5F5F5F5F5F5F5F5F5F5F5F5F5F5F5F5F5F5F5F5F5F5F5F5F5F5F5F5F5F5F5F5F5F5F5F5F5F5F5F5F5F5F5F5F5F5F5F5F5F5F5F5F5F5F5F5F5F5F5F5F5F5F5F5F5F5F5F5F5F5F5F5F5F5F5F5F5F5F5F5F5F5F5F5F5F5F5F5F5F5F5F5F5F5F5E2F5F5F5F5F5
310
F5F5F5F5F5F5F5F5F5F5F5F5F5F5F5E2E2EFF5F5F5F5F5F5F5F5F5F5F5F5F5F5F5F5F5F5F5F5E2F5F5F5F5F5F5F5F5F5F5F5F5F5F5F5F5F5F5F5F5F5F5F5F5F5F5F5F5F5F5F5F5F5F5F5F5F5F5F5F5F5F5F5F5F5F5F5F5F5F5F5F5F5F5F5F5F5F5F5F5F5F5F5F5F5F5F5F5F5F5F5F5F5F5F5F5F5F5F5F5F5F5F5F5F5F5F5F5
310
F5F5F5F5F5F5F5F5F5F5F5F5F5F5F5F5F5F5F5F5F5F5F5F5F5F5F5F5F5F5F5F5F5F5F5F5F5F5F5F5F5F5F5F5F5F5F5E2F5F5F5F5F5F5F5F5F5F5F5F5F5F5F5F5F5F5F5F5E2E2EFF5F5F5E2F5F5F5F5F5F5F5F5F5F5F5F5F5F5F5F5E2F5F5F5F5F5F5F5F5F5F5F5F5F5F5F5F5F5F5F5F5F5F5F5F5F5F5F5F5F5F5F5F5F5F5F5
310
F5F5F5F5F5F5F5F5F5F5F5F5F5F5F5F5F5F5F5F5F5F5F5F5F5F5F5F5F5F5F5F5F5F5F5F5F5F5F5F5F5F5F5F5F5F5F5F5F5F5F5F5F5F5F5F5F5F5F5F5F5F5F5F5F5F5F5F5F5F5F5F5F5F5F5F5F5F5F5F5F5F5F5F5F5F5F5F5F5F5F5F5F5F5F5F5F5F5F5F5E2F5F5F5F5F5F5F5F5F5F5F5F5F5F5F5F5E2F5F5F5E2E2EFF5F5F5
310
E2F5F5F5F5F5F5F5F5F5F5F5F5F5F5F5F5E2F5F5F5F5F5F5F5F5F5F5F5F5F5F5F5F5F5F5F5F5F5F5F5F5F5F5F5F5F5F5F5F5F5F5F5F5F5F5F5F5F5F5F5F5F5F5F5F5F5F5F5F5F5F5F5F5F5F5F5F5F5F5F5F5F5F5F5F5F5F5F5F5F5F5F5F5F5F5F5F5F5F5F5F5F5F5F5F5F5F5F5F5F5F5F5F5F5F5F5F5F5F5F5F5F5F5F5F5F5
310
F5F5F5F5F5F5F5F5F5F5F5F5F5F5F5F5F5F5F5F5F5F5F5F5F5F5E2F5F5F5F5F5F5F5F5F5F5F5F5F5F5F5F5E2F5F5F5E2E2EFF5F5F5E2F5F5F5F5F5F5F5F5F5F5F5F5F5F5F5F5E2F5F5F5F5F5F5F5F5F5F5F5F5F5F5F5F5F5F5F5F5F5F5F5F5F5F5F5F5F5F5F5F5F5F5F5F5F5F5F5F5F5F5F5F5F5F5F5F5F5F5F5F5F5F5F5F5
310
F5F5F5F5F5F5F5F5F5F5F5F5F5F5F5F5F5F5F5F5F5F5F5F5F5F5F5F5F5F5F5F5F5F5F5F5F5F5F5F5F5F5F5F5F5F5F5F5F5F5F5F5F5F5F5F5F5F5F5F5F5F5F5F5F5F5F5F5F5F5F5F5F5F5F5F5F5F5F5E2F5F5F5F5F5F5F5F5F5F5F5F5F5F5F5F5E2F5F5F5E2E2EFF5F5F5E2F5F5F5F5F5F5F5F5F5F5F5F5F5F5F5F5E2F5F5F5
310
F5F5F5F5F5F5F5F5F5F5F5F5F5F5F5F5F5F5F5F5F5F5F5F5F5F5F5F5F5F5F5F5F5F5F5F5F5F5F5F5F5F5F5F5F5F5F5F5F5F5F5F5F5F5F5F5F5F5F5F5F5F5F5F5F5F5F5F5F5F5F5F5F5F5F5F5F5F5F5F5F5F5F5F5F5F5F5F5F5F5F5F5F5F5F5F5F5F5F5F5F5F5F5F5F5F5F5F5F5F5F5F5F5F5F5F5F5F5F5F5F5F5F5F5F5F5F5
310
F5F5F5F5F5E2F5F5F5F5F5F5F5F5F5F5F5F5F5F5F5F5E2F5F5F5E2E2EFF5F5F5E2F5F5F5F5F5F5F5F5F5F5F5F5F5F5F5F5E2F5F5F5F5F5F5F5F5F5F5F5F5F5F5F5F5F5F5F5F5F5F5F5F5F5F5F5F5F5F5F5F5F5F5F5F5F5F5F5F5F5F5F5F5F5F5F5F5F5F5F5F5F5F5F5F5F5F5F5F5F5F5F5F5F5F5F5F5F5F5F5F5F5F5F5F5F5
310
F5F5F5F5F5F5F5F5F5F5F5F5F5F5F5F5F5F5F5F5F5F5F5F5F5F5F5F5F5F5F5F5F5F5F5F5F5F5F5F5F5F5F5F5F5F5F5F5F5F5F5F5F5F5F5F5F5F5E2F5F5F5F5F5F5F5F5F5F5F5F5F5F5F5F5E2F5F5F5E2E2EFF5F5F5E2F5F5F5F5F5F5F5F5F5F5F5F5F5F5F5F5E2F5F5F5F5F5F5F5F5F5F5F5F5F5F5F5F5F5F5F5F5F5F5F5F5
310
F5F5F5F5F5F5F5F5F5F5F5F5F5F5F5F5F5F5F5F5F5F5F5F5F5F5F5F5F5F5F5F5F5F5F5F5F5F5F5F5F5F5F5F5F5F5F5F5F5F5F5F5F5F5F5F5F5F5F5F5F5F5F5F5F5F5F5F5F5F5F5F5F5F5F5F5F5F5F5F5F5F5F5F5F5F5F5F5F5F5F5F5F5F5F5F5F5F5F5F5F5F5F5F5F5F5F5F5F5F5F5E2F5F5F5F5F5F5F5F5F5F5F5F5F5F5F5
310
F5E2F5F5F5E2E2EFF5F5F5E2F5F5F5F5F5F5F5F5F5F5F5F5F5F5F5F5E2F5F5F5F5F5F5F5F5F5F5F5F5F5F5F5F5F5F5F5F5F5F5F5F5F5F5F5F5F5F5F5F5F5F5F5F5F5F5F5F5F5F5F5F5F5F5F5F5F5F5F5F5F5F5F5F5F5F5F5F5F5F5F5F5F5F5F5F5F5F5F5F5F5F5F5F5F5F5F5F5F5F5F5F5F5F5F5F5F5F5F5F5F5F5F5F5F5F5
310
F5F5F5F5F5F5F5F5F5F5F5F5F5F5F5F5F5F5F5F5F5F5F5F5F5F5F5F5F5F5F5F5F5F5F5F5F5E2F5F5F5F5F5F5F5F5F5F5F5F5F5F5F5F5E2F5F5F5E2E2EFF5F5F5E2F5F5F5F5F5F5F5F5F5F5F5F5F5F5F5F5E2F5F5F5F5F5F5F5F5F5F5F5F5F5F5F5F5F5F5F5F5F5F5F5F5F5F5F5F5F5F5F5F5F5F5F5F5F5F5F5F5F5F5F5F5F5
310
F5F5F5F5F5F5F5F5F5F5F5F5F5F5F5F5F5F5F5F5F5F5F5F5F5F5F5F5F5F5F5F5F5F5F5F5F5F5F5F5F5F5F5F5F5F5F5F5F5F5F5F5F5F5F5F5F5F5F5F5F5F5F5F5F5F5F5F5F5F5F5F5F5F5F5F5F5F5F5F5F5F5F5F5F5F5F5F5F5F5E2F5F5F5F5F5F5F5F5F5F5F5F5F5F5F5F5E2F5F5F5E2E2EFF5F5F5E2F5F5F5F5F5F5F5F5F5
310
F5F5F5F5F5F5F5E2F5F5F5F5F5F5F5F5F5F5F5F5F5F5F5F5F5F5F5F5F5F5F5F5F5F5F5F5F5F5F5F5F5F5F5F5F5F5F5F5F5F5F5F5F5F5F5F5F5F5F5F5F5F5F5F5F5F5F5F5F5F5F5F5F5F5F5F5F5F5F5F5F5F5F5F5F5F5F5F5F5F5F5F5F5F5F5F5F5F5F5F5F5F5F5F5F5F5F5F5F5F5F5F5F5F5F5F5F5F5F5F5F5F5F5F5F5F5F5
310
F5F5F5F5F5F5F5F5F5F5F5F5F5F5F5F5E2F5F5F5F5F5F5F5F5F5F5F5F5F5F5F5F5E2F5F5F5E2E2EFF5F5F5E2F5F5F5F5F5F5F5F5F5F5F5F5F5F5F5F5E2F5F5F5F5F5F5F5F5F5F5F5F5F5F5F5F5F5F5F5F5F5F5F5F5F5F5F5F5F5F5F5F5F5F5F5F5F5F5F5F5F5F5F5F5F5F5F5F5F5F5F5F5F5F5F5F5F5F5F5F5F5F5F5F5F5F5
310
F5F5F5F5F5F5F5F5F5F5F5F5F5F5F5F5F5F5F5F5F5F5F5F5F5F5F5F5F5F5F5F5F5F5F5F5F5F5F5F5F5F5F5F5F5F5F5F5F5F5F5F5F5F5F5F5F5F5F5F5F5F5F5F5F5F5F5F5F5E2F5F5F5F5F5F5F5F5F5F5F5F5F5F5F5F5E2F5F5F5E2E2EFF5F5F5E2F5F5F5F5F5F5F5F5F5F5F5F5F5F5F5F5E2F5F5F5F5F5F5F5F5F5F5F5F5F5
310
F5F5F5F5F5F5F5F5F5F5F5F5F5F5F5F5F5F5F5F5F5F5F5F5F5F5F5F5F5F5F5F5F5F5F5F5F5F5F5F5F5F5F5F5F5F5F5F5F5F5F5F5F5F5F5F5F5F5F5F5F5F5F5F5F5F5F5F5F5F5F5F5F5F5F5F5F5F5F5F5F5F5F5F5F5F5F5F5F5F5F5F5F5F5F5F5F5F5F5F5F5F5F5F5F5F5F5F5F5F5F5F5F5F5F5F5F5F5F5F5F5F5E2F5F5F5F5
310
F5F5F5F5F5F5F5F5F5F5F5F5E2F5F5F5E2E2EFF5F5F5E2F5F5F5F5F5F5F5F5F5F5F5F5F5F5F5F5E2F5F5F5F5F5F5F5F5F5F5F5F5F5F5F5F5F5F5F5F5F5F5F5F5F5F5F5F5F5F5F5F5F5F5F5F5F5F5F5F5F5F5F5F5F5F5F5F5F5F5F5F5F5F5F5F5F5F5F5F5F5F5F5F5F5F5F5F5F5F5F5F5F5F5F5F5F5F5F5F5F5F5F5F5F5F5F5
310
F5F5F5F5F5F5F5F5F5F5F5F5F5F5F5F5F5F5F5F5F5F5F5F5F5F5F5F5F5F5F5F5F5F5F5F5F5F5F5F5F5F5F5F5F5F5F5F5E2F5F5F5F5F5F5F5F5F5F5F5F5F5F5F5F5E2F5F5F5E2E2EFF5F5F5E2F5F5F5F5F5F5F5F5F5F5F5F5F5F5F5F5E2F5F5F5F5F5F5F5F5F5F5F5F5F5F5F5F5F5F5F5F5F5F5F5F5F5F5F5F5F5F5F5F5F5F5
310
F5F5F5F5F5F5F5F5F5F5F5F5F5F5F5F5F5F5F5F5F5F5F5F5F5F5F5F5F5F5F5F5F5F5F5F5F5F5F5F5F5F5F5F5F5F5F5F5F5F5F5F5F5F5F5F5F5F5F5F5F5F5F5F5F5F5F5F5F5F5F5F5F5F5F5F5F5F5F5F5F5F5F5F5F5F5F5F5F5F5F5F5F5F5F5F5F5F5F5F5F5E2F5F5F5F5F5F5F5F5F5F5F5F5F5F5F5F5E2F5F5F5E2E2EFF5F5
310
F5E2F5F5F5F5F5F5F5F5F5F5F5F5F5F5F5F5E2F5F5F5F5F5F5F5F5F5F5F5F5F5F5F5F5F5F5F5F5F5F5F5F5F5F5F5F5F5F5F5F5F5F5F5F5F5F5F5F5F5F5F5F5F5F5F5F5F5F5F5F5F5F5F5F5F5F5F5F5F5F5F5F5F5F5F5F5F5F5F5F5F5F5F5F5F5F5F5F5F5F5F5F5F5F5F5F5F5F5F5F5F5F5F5F5F5F5F5F5F5F5F5F5F5F5F5F5
310
F5F5F5F5F5F5F5F5F5F5F5F5F5F5F5F5F5F5F5F5F5F5F5F5F5F5F5E2F5F5F5F5F5F5F5F5F5F5F5F5F5F5F5F5E2F5F5F5E2E2EFF5F5F5E2F5F5F5F5F5F5F5F5F5F5F5F5F5F5F5F5E2F5F5F5F5F5F5F5F5F5F5F5F5F5F5F5F5F5F5F5F5F5F5F5F5F5F5F5F5F5F5F5F5F5F5F5F5F5F5F5F5F5F5F5F5F5F5F5F5F5F5F5F5F5F5F5
310
F5F5F5F5F5F5F5F5F5F5F5F5F5F5F5F5F5F5F5F5F5F5F5F5F5F5F5F5F5F5F5F5F5F5F5F5F5F5F5F5F5F5F5F5F5F5F5F5F5F5F5F5F5F5F5F5F5F5F5F5F5F5F5F5F5F5F5F5F5F5F5F5F5F5F5F5F5F5F5F5E2F5F5F5F5F5F5F5F5F5F5F5F5F5F5F5F5E2F5F5F5E2E2EFF5F5F5E2F5F5F5F5F5F5F5F5F5F5F5F5F5F5F5F5E2F5F5
310
F5F5F5F5F5F5F5F5F5F5F5F5F5F5F5F5F5F5F5F5F5F5F5F5F5F5F5F5F5F5F5F5F5F5F5F5F5F5F5F5F5F5F5F5F5F5F5F5F5F5F5F5F5F5F5F5F5F5F5F5F5F5F5F5F5F5F5F5F5F5F5F5F5F5F5F5F5F5F5F5F5F5F5F5F5F5F5F5F5F5F5F5F5F5F5F5F5F5F5F5F5F5F5F5F5F5F5F5F5F5F5F5F5F5F5F5F5F5F5F5F5F5F5F5F5F5F5
310
F5F5F5F5F5F5E2F5F5F5F5F5F5F5F5F5F5F5F5F5F5F5F5E2F5F5F5E2E2EFF5F5F5E2F5F5F5F5F5F5F5F5F5F5F5F5F5F5F5F5E2F5F5F5F5F5F5F5F5F5F5F5F5F5F5F5F5F5F5F5F5F5F5F5F5F5F5F5F5F5F5F5F5F5F5F5F5F5F5F5F5F5F5F5F5F5F5F5F5F5F5F5F5F5F5F5F5F5F5F5F5F5F5F5F5F5F5F5F5F5F5F5F5F5F5F5F5
310
F5F5F5F5F5F5F5F5F5F5F5F5F5F5F5F5F5F5F5F5F5F5F5F5F5F5F5F5F5F5F5F5F5F5F5F5F5F5F5F5F5F5F5F5F5F5F5F5F5F5F5F5F5F5F5F5F5F5F5E2F5F5F5F5F5F5F5F5F5F5F5F5F5F5F5F5E2F5F5F5E2E2EFF5F5F5F5F5F5F5F5F5F5F5F5F5F5F5F5F5F5F5F5E2F5F5F5F5F5F5F5F5F5F5F5F5F5F5F5F5F5F5F5F5F5F5F5
310
F5F5F5F5F5F5F5F5F5F5F5F5F5F5F5F5F5F5F5F5F5F5F5F5F5F5F5F5F5F5F5F5F5F5F5F5F5F5F5F5F5F5F5F5F5F5F5F5F5F5F5F5F5F5F5F5F5F5F5F5F5F5F5F5F5F5F5F5F5F5F5F5F5F5F5F5F5F5F5F5F5F5F5F5F5F5F5F5F5F5F5F5F5F5F5F5F5F5F5F5F5F5F5F5F5F5F5F5F5F5F5F5E2F5F5F5F5F5F5F5F5F5F5F5F5F5F5
310
F5F5F5F5F5F5E2E2EFF5F5F5F5F5F5F5F5F5F5F5F5F5F5F5F5F5F5F5F5E2F5F5F5F5F5F5F5F5F5F5F5F5F5F5F5F5F5F5F5F5F5F5F5F5F5F5F5F5F5F5F5F5F5F5F5F5F5F5F5F5F5F5F5F5F5F5F5F5F5F5F5F5F5F5F5F5F5F5F5F5F5F5F5F5F5F5F5F5F5F5F5F5F5F5F5F5F5F5F5F5F5F5F5F5F5F5F5F5F5F5F5F5F5F5F5F5F5
310
F5F5F5F5F5F5F5F5F5F5F5F5F5F5F5F5F5F5F5F5F5F5F5F5F5F5F5F5F5F5F5F5F5F5F5F5F5F5E2F5F5F5F5F5F5F5F5F5F5F5F5F5F5F5F5F5F5F5F5E2E2EFF5F5F5F5F5F5F5F5F5F5F5F5F5F5F5F5F5F5F5F5E2F5F5F5F5F5F5F5F5F5F5F5F5F5F5F5F5F5F5F5F5F5F5F5F5F5F5F5F5F5F5F5F5F5F5F5F5F5F5F5F5F5F5F5F5
310
F5F5F5F5F5F5F5F5F5F5F5F5F5F5F5F5F5F5F5F5F5F5F5F5F5F5F5F5F5F5F5F5F5F5F5F5F5F5F5F5F5F5F5F5F5F5F5F5F5F5F5F5F5F5F5F5F5F5F5F5F5F5F5F5F5F5F5F5F5F5F5F5F5F5F5F5F5F5F5F5F5F5F5F5F5F5F5F5F5F5F5E2F5F5F5F5F5F5F5F5F5F5F5F5F5F5F5F5F5F5F5F5E2E2EFF5F5F5F5F5F5F5F5F5F5F5F5
310
F5F5F5F5F5F5F5F5E2F5F5F5F5F5F5F5F5F5F5F5F5F5F5F5F5F5F5F5F5F5F5F5F5F5F5F5F5F5F5F5F5F5F5F5F5F5F5F5F5F5F5F5F5F5F5F5F5F5F5F5F5F5F5F5F5F5F5F5F5F5F5F5F5F5F5F5F5F5F5F5F5F5F5F5F5F5F5F5F5F5F5F5F5F5F5F5F5F5F5F5F5F5F5F5F5F5F5F5F5F5F5F5F5F5F5F5F5F5F5F5F5F5F5F5F5F5F5
310
F5F5F5F5F5F5F5F5F5F5F5F5F5F5F5F5F5E2F5F5F5F5F5F5F5F5F5F5F5F5F5F5F5F5F5F5F5F5E2E2EFF5F5F5F5F5F5F5F5F5F5F5F5F5F5F5F5F5F5F5F5E2F5F5F5F5F5F5F5F5F5F5F5F5F5F5F5F5F5F5F5F5F5F5F5F5F5F5F5F5F5F5F5F5F5F5F5F5F5F5F5F5F5F5F5F5F5F5F5F5F5F5F5F5F5F5F5F5F5F5F5F5F5F5F5F5F5
310
F5F5F5F5F5F5F5F5F5F5F5F5F5F5F5F5F5F5F5F5F5F5F5F5F5F5F5F5F5F5F5F5F5F5F5F5F5F5F5F5F5F5F5F5F5F5F5F5F5F5F5F5F5F5F5F5F5F5F5F5F5F5F5F5F5F5F5F5F5F5E2F5F5F5F5F5F5F5F5F5F5F5F5F5F5F5F5F5F5F5F5E2E2EFF5F5F5F5F5F5F5F5F5F5F5F5F5F5F5F5F5F5F5F5E2F5F5F5F5F5F5F5F5F5F5F5F5
310
F5F5F5F5F5F5F5F5F5F5F5F5F5F5F5F5F5F5F5F5F5F5F5F5F5F5F5F5F5F5F5F5F5F5F5F5F5F5F5F5F5F5F5F5F5F5F5F5F5F5F5F5F5F5F5F5F5F5F5F5F5F5F5F5F5F5F5F5F5F5F5F5F5F5F5F5F5F5F5F5F5F5F5F5F5F5F5F5F5F5F5F5F5F5F5F5F5F5F5F5F5F5F5F5F5F5F5F5F5F5F5F5F5F5F5F5F5F5F5F5F5F5F5E2F5F5F5
310
F5F5F5F5F5F5F5F5F5F5F5F5F5F5F5F5F5E2E2EFF5F5F5F5F5F5F5F5F5F5F5F5F5F5F5F5F5F5F5F5E2F5F5F5F5F5F5F5F5F5F5F5F5F5F5F5F5F5F5F5F5F5F5F5F5F5F5F5F5F5F5F5F5F5F5F5F5F5F5F5F5F5F5F5F5F5F5F5F5F5F5F5F5F5F5F5F5F5F5F5F5F5F5F5F5F5F5F5F5F5F5F5F5F5F5F5F5F5F5F5F5F5F5F5F5F5F5
310
F5F5F5F5F5F5F5F5F5F5F5F5F5F5F5F5F5F5F5F5F5F5F5F5F5F5F5F5F5F5F5F5F5F5F5F5F5F5F5F5F5F5F5F5F5F5F5F5F5E2F5F5F5F5F5F5F5F5F5F5F5F5F5F5F5F5F5F5F5F5E2E2EFF5F5F5F5F5F5F5F5F5F5F5F5F5F5F5F5F5F5F5F5E2F5F5F5F5F5F5F5F5F5F5F5F5F5F5F5F5F5F5F5F5F5F5F5F5F5F5F5F5F5F5F5F5F5
310
F5F5F5F5F5F5F5F5F5F5F5F5F5F5F5F5F5F5F5F5F5F5F5F5F5F5F5F5F5F5F5F5F5F5F5F5F5F5F5F5F5F5F5F5F5F5F5F5F5F5F5F5F5F5F5F5F5F5F5F5F5F5F5F5F5F5F5F5F5F5F5F5F5F5F5F5F5F5F5F5F5F5F5F5F5F5F5F5F5F5F5F5F5F5F5F5F5F5F5F5F5F5E2F5F5F5F5F5F5F5F5F5F5F5F5F5F5F5F5F5F5F5F5E2E2EFF5
310
F5F5F5F5F5F5F5F5F5F5F5F5F5F5F5F5F5F5F5E2F5F5F5F5F5F5F5F5F5F5F5F5F5F5F5F5F5F5F5F5F5F5F5F5F5F5F5F5F5F5F5F5F5F5F5F5F5F5F5F5F5F5F5F5F5F5F5F5F5F5F5F5F5F5F5F5F5F5F5F5F5F5F5F5F5F5F5F5F5F5F5F5F5F5F5F5F5F5F5F5F5F5F5F5F5F5F5F5F5F5F5F5F5F5F5F5F5F5F5F5F5F5F5F5F5F5F5
310
F5F5F5F5F5F5F5F5F5F5F5F5F5F5F5F5F5F5F5F5F5F5F5F5F5F5F5F5E2F5F5F5F5F5F5F5F5F5F5F5F5F5F5F5F5F5F5F5F5E2E2EFF5F5F5E2F5F5F5F5F5F5F5F5F5F5F5F5F5F5F5F5E2F5F5F5F5F5F5F5F5F5F5F5F5F5F5F5F5F5F5F5F5F5F5F5F5F5F5F5F5F5F5F5F5F5F5F5F5F5F5F5F5F5F5F5F5F5F5F5F5F5F5F5F5F5F5
310
F5F5F5F5F5F5F5F5F5F5F5F5F5F5F5F5F5F5F5F5F5F5F5F5F5F5F5F5F5F5F5F5F5F5F5F5F5F5F5F5F5F5F5F5F5F5F5F5F5F5F5F5F5F5F5F5F5F5F5F5F5F5F5F5F5F5F5F5F5F5F5F5F5F5F5F5F5F5F5F5F5E2F5F5F5F5F5F5F5F5F5F5F5F5F5F5F5F5E2F5F5F5E2E2EFF5F5F5E2F5F5F5F5F5F5F5F5F5F5F5F5F5F5F5F5E2F5
310
F5F5F5F5F5F5F5F5F5F5F5F5F5F5F5F5F5F5F5F5F5F5F5F5F5F5F5F5F5F5F5F5F5F5F5F5F5F5F5F5F5F5F5F5F5F5F5F5F5F5F5F5F5F5F5F5F5F5F5F5F5F5F5F5F5F5F5F5F5F5F5F5F5F5F5F5F5F5F5F5F5F5F5F5F5F5F5F5F5F5F5F5F5F5F5F5F5F5F5F5F5F5F5F5F5F5F5F5F5F5F5F5F5F5F5F5F5F5F5F5F5F5F5F5F5F5F5
310
F5F5F5F5F5F5F5E2F5F5F5F5F5F5F5F5F5F5F5F5F5F5F5F5E2F5F5F5E2E2EFF5F5F5E2F5F5F5F5F5F5F5F5F5F5F5F5F5F5F5F5E2F5F5F5F5F5F5F5F5F5F5F5F5F5F5F5F5F5F5F5F5F5F5F5F5F5F5F5F5F5F5F5F5F5F5F5F5F5F5F5F5F5F5F5F5F5F5F5F5F5F5F5F5F5F5F5F5F5F5F5F5F5F5F5F5F5F5F5F5F5F5F5F5F5F5F5
310
F5F5F5F5F5F5F5F5F5F5F5F5F5F5F5F5F5F5F5F5F5F5F5F5F5F5F5F5F5F5F5F5F5F5F5F5F5F5F5F5F5F5F5F5F5F5F5F5F5F5F5F5F5F5F5F5F5F5F5F5E2F5F5F5F5F5F5F5F5F5F5F5F5F5F5F5F5E2F5F5F5E2E2EFF5F5F5E2F5F5F5F5F5F5F5F5F5F5F5F5F5F5F5F5E2F5F5F5F5F5F5F5F5F5F5F5F5F5F5F5F5F5F5F5F5F5F5
310
F5F5F5F5F5F5F5F5F5F5F5F5F5F5F5F5F5F5F5F5F5F5F5F5F5F5F5F5F5F5F5F5F5F5F5F5F5F5F5F5F5F5F5F5F5F5F5F5F5F5F5F5F5F5F5F5F5F5F5F5F5F5F5F5F5F5F5F5F5F5F5F5F5F5F5F5F5F5F5F5F5F5F5F5F5F5F5F5F5F5F5F5F5F5F5F5F5F5F5F5F5F5F5F5F5F5F5F5F5F5F5F5F5E2F5F5F5F5F5F5F5F5F5F5F5F5F5
310
F5F5F5E2F5F5F5E2E2EFF5F5F5E2F5F5F5F5F5F5F5F5F5F5F5F5F5F5F5F5E2F5F5F5F5F5F5F5F5F5F5F5F5F5F5F5F5F5F5F5F5F5F5F5F5F5F5F5F5F5F5F5F5F5F5F5F5F5F5F5F5F5F5F5F5F5F5F5F5F5F5F5F5F5F5F5F5F5F5F5F5F5F5F5F5F5F5F5F5F5F5F5F5F5F5F5F5F5F5F5F5F5F5F5F5F5F5F5F5F5F5F5F5F5F5F5F5
310
F5F5F5F5F5F5F5F5F5F5F5F5F5F5F5F5F5F5F5F5F5F5F5F5F5F5F5F5F5F5F5F5F5F5F5F5F5F5F5E2F5F5F5F5F5F5F5F5F5F5F5F5F5F5F5F5E2F5F5F5E2E2EFF5F5F5E2F5F5F5F5F5F5F5F5F5F5F5F5F5F5F5F5E2F5F5F5F5F5F5F5F5F5F5F5F5F5F5F5F5F5F5F5F5F5F5F5F5F5F5F5F5F5F5F5F5F5F5F5F5F5F5F5F5F5F5F5
310
F5F5F5F5F5F5F5F5F5F5F5F5F5F5F5F5F5F5F5F5F5F5F5F5F5F5F5F5F5F5F5F5F5F5F5F5F5F5F5F5F5F5F5F5F5F5F5F5F5F5F5F5F5F5F5F5F5F5F5F5F5F5F5F5F5F5F5F5F5F5F5F5F5F5F5F5F5F5F5F5F5F5F5F5F5F5F5F5F5F5F5F5E2F5F5F5F5F5F5F5F5F5F5F5F5F5F5F5F5E2F5F5F5E2E2EFF5F5F5E2F5F5F5F5F5F5F5
310
F5F5F5F5F5F5F5F5F5E2F5F5F5F5F5F5F5F5F5F5F5F5F5F5F5F5F5F5F5F5F5F5F5F5F5F5F5F5F5F5F5F5F5F5F5F5F5F5F5F5F5F5F5F5F5F5F5F5F5F5F5F5F5F5F5F5F5F5F5F5F5F5F5F5F5F5F5F5F5F5F5F5F5F5F5F5F5F5F5F5F5F5F5F5F5F5F5F5F5F5F5F5F5F5F5F5F5F5F5F5F5F5F5F5F5F5F5F5F5F5F5F5F5F5F5F5F5
310
F5F5F5F5F5F5F5F5F5F5F5F5F5F5F5F5F5F5E2F5F5F5F5F5F5F5F5F5F5F5F5F5F5F5F5E2F5F5F5E2E2EFF5F5F5E2F5F5F5F5F5F5F5F5F5F5F5F5F5F5F5F5E2F5F5F5F5F5F5F5F5F5F5F5F5F5F5F5F5F5F5F5F5F5F5F5F5F5F5F5F5F5F5F5F5F5F5F5F5F5F5F5F5F5F5F5F5F5F5F5F5F5F5F5F5F5F5F5F5F5F5F5F5F5F5F5F5
310
F5F5F5F5F5F5F5F5F5F5F5F5F5F5F5F5F5F5F5F5F5F5F5F5F5F5F5F5F5F5F5F5F5F5F5F5F5F5F5F5F5F5F5F5F5F5F5F5F5F5F5F5F5F5F5F5F5F5F5F5F5F5F5F5F5F5F5F5F5F5F5E2F5F5F5F5F5F5F5F5F5F5F5F5F5F5F5F5E2F5F5F5E2E2EFF5F5F5E2F5F5F5F5F5F5F5F5F5F5F5F5F5F5F5F5E2F5F5F5F5F5F5F5F5F5F5F5
310
F5F5F5F5F5F5F5F5F5F5F5F5F5F5F5F5F5F5F5F5F5F5F5F5F5F5F5F5F5F5F5F5F5F5F5F5F5F5F5F5F5F5F5F5F5F5F5F5F5F5F5F5F5F5F5F5F5F5F5F5F5F5F5F5F5F5F5F5F5F5F5F5F5F5F5F5F5F5F5F5F5F5F5F5F5F5F5F5F5F5F5F5F5F5F5F5F5F5F5F5F5F5F5F5F5F5F5F5F5F5F5F5F5F5F5F5F5F5F5F5F5F5F5F5E2F5F5
310
F5F5F5F5F5F5F5F5F5F5F5F5F5F5E2F5F5F5E2E2EFF5F5F5E2F5F5F5F5F5F5F5F5F5F5F5F5F5F5F5F5E2F5F5F5F5F5F5F5F5F5F5F5F5F5F5F5F5F5F5F5F5F5F5F5F5F5F5F5F5F5F5F5F5F5F5F5F5F5F5F5F5F5F5F5F5F5F5F5F5F5F5F5F5F5F5F5F5F5F5F5F5F5F5F5F5F5F5F5F5F5F5F5F5F5F5F5F5F5F5F5F5F5F5F5F5F5
310
F5F5F5F5F5F5F5F5F5F5F5F5F5F5F5F5F5F5F5F5F5F5F5F5F5F5F5F5F5F5F5F5F5F5F5F5F5F5F5F5F5F5F5F5F5F5F5F5F5F5E2F5F5F5F5F5F5F5F5F5F5F5F5F5F5F5F5E2F5F5F5E2E2EFF5F5F5E2F5F5F5F5F5F5F5F5F5F5F5F5F5F5F5F5E2F5F5F5F5F5F5F5F5F5F5F5F5F5F5F5F5F5F5F5F5F5F5F5F5F5F5F5F5F5F5F5F5
310
F5F5F5F5F5F5F5F5F5F5F5F5F5F5F5F5F5F5F5F5F5F5F5F5F5F5F5F5F5F5F5F5F5F5F5F5F5F5F5F5F5F5F5F5F5F5F5F5F5F5F5F5F5F5F5F5F5F5F5F5F5F5F5F5F5F5F5F5F5F5F5F5F5F5F5F5F5F5F5F5F5F5F5F5F5F5F5F5F5F5F5F5F5F5F5F5F5F5F5F5F5F5F5E2F5F5F5F5F5F5F5F5F5F5F5F5F5F5F5F5E2F5F5F5E2E2EF
310
F5F5F5E2F5F5F5F5F5F5F5F5F5F5F5F5F5F5F5F5E2F5F5F5F5F5F5F5F5F5F5F5F5F5F5F5F5F5F5F5F5F5F5F5F5F5F5F5F5F5F5F5F5F5F5F5F5F5F5F5F5F5F5F5F5F5F5F5F5F5F5F5F5F5F5F5F5F5F5F5F5F5F5F5F5F5F5F5F5F5F5F5F5F5F5F5F5F5F5F5F5F5F5F5F5F5F5F5F5F5F5F5F5F5F5F5F5F5F5F5F5F5F5F5F5F5F5
310
F5F5F5F5F5F5F5F5F5F5F5F5F5F5F5F5F5F5F5F5F5F5F5F5F5F5F5F5F5E2F5F5F5F5F5F5F5F5F5F5F5F5F5F5F5F5E2F5F5F5E2E2EFF5F5F5E2F5F5F5F5F5F5F5F5F5F5F5F5F5F5F5F5E2F5F5F5F5F5F5F5F5F5F5F5F5F5F5F5F5F5F5F5F5F5F5F5F5F5F5F5F5F5F5F5F5F5F5F5F5F5F5F5F5F5F5F5F5F5F5F5F5F5F5F5F5F5
310
F5F5F5F5F5F5F5F5F5F5F5F5F5F5F5F5F5F5F5F5F5F5F5F5F5F5F5F5F5F5F5F5F5F5F5F5F5F5F5F5F5F5F5F5F5F5F5F5F5F5F5F5F5F5F5F5F5F5F5F5F5F5F5F5F5F5F5F5F5F5F5F5F5F5F5F5F5F5F5F5F5F5E2F5F5F5F5F5F5F5F5F5F5F5F5F5F5F5F5E2F5F5F5E2E2EFF5F5F5E2F5F5F5F5F5F5F5F5F5F5F5F5F5F5F5F5E2
310
F5F5F5F5F5F5F5F5F5F5F5F5F5F5F5F5F5F5F5F5F5F5F5F5F5F5F5F5F5F5F5F5F5F5F5F5F5F5F5F5F5F5F5F5F5F5F5F5F5F5F5F5F5F5F5F5F5F5F5F5F5F5F5F5F5F5F5F5F5F5F5F5F5F5F5F5F5F5F5F5F5F5F5F5F5F5F5F5F5F5F5F5F5F5F5F5F5F5F5F5F5F5F5F5F5F5F5F5F5F5F5F5F5F5F5F5F5F5F5F5F5F5F5F5F5F5F5
310
F5F5F5F5F5F5F5F5E2F5F5F5F5F5F5F5F5F5F5F5F5F5F5F5F5E2F5F5F5E2E2EFF5F5F5E2F5F5F5F5F5F5F5F5F5F5F5F5F5F5F5F5E2F5F5F5F5F5F5F5F5F5F5F5F5F5F5F5F5F5F5F5F5F5F5F5F5F5F5F5F5F5F5F5F5F5F5F5F5F5F5F5F5F5F5F5F5F5F5F5F5F5F5F5F5F5F5F5F5F5F5F5F5F5F5F5F5F5F5F5F5F5F5F5F5F5F5
310
F5F5F5F5F5F5F5F5F5F5F5F5F5F5F5F5F5F5F5F5F5F5F5F5F5F5F5F5F5F5F5F5F5F5F5F5F5F5F5F5F5F5F5F5F5F5F5F5F5F5F5F5F5F5F5F5F5F5F5F5F5E2F5F5F5F5F5F5F5F5F5F5F5F5F5F5F5F5E2F5F5F5E2E2EFF5F5F5E2F5F5F5F5F5F5F5F5F5F5F5F5F5F5F5F5E2F5F5F5F5F5F5F5F5F5F5F5F5F5F5F5F5F5F5F5F5F5
310
F5F5F5F5F5F5F5F5F5F5F5F5F5F5F5F5F5F5F5F5F5F5F5F5F5F5F5F5F5F5F5F5F5F5F5F5F5F5F5F5F5F5F5F5F5F5F5F5F5F5F5F5F5F5F5F5F5F5F5F5F5F5F5F5F5F5F5F5F5F5F5F5F5F5F5F5F5F5F5F5F5F5F5F5F5F5F5F5F5F5F5F5F5F5F5F5F5F5F5F5F5F5F5F5F5F5F5F5F5F5F5F5F5F5E2F5F5F5F5F5F5F5F5F5F5F5F5
310
F5F5F5F5E2F5F5F5E2E2EFF5F5F5E2F5F5F5F5F5F5F5F5F5F5F5F5F5F5F5F5E2F5F5F5F5F5F5F5F5F5F5F5F5F5F5F5F5F5F5F5F5F5F5F5F5F5F5F5F5F5F5F5F5F5F5F5F5F5F5F5F5F5F5F5F5F5F5F5F5F5F5F5F5F5F5F5F5F5F5F5F5F5F5F5F5F5F5F5F5F5F5F5F5F5F5F5F5F5F5F5F5F5F5F5F5F5F5F5F5F5F5F5F5F5F5F5
310
F5F5F5F5F5F5F5F5F5F5F5F5F5F5F5F5F5F5F5F5F5F5F5F5F5F5F5F5F5F5F5F5F5F5F5F5F5F5F5F5E2F5F5F5F5F5F5F5F5F5F5F5F5F5F5F5F5E2F5F5F5E2E2EFF5F5F5F5F5F5F5F5F5F5F5F5F5F5F5F5F5F5F5F5E2F5F5F5F5F5F5F5F5F5F5F5F5F5F5F5F5F5F5F5F5F5F5F5F5F5F5F5F5F5F5F5F5F5F5F5F5F5F5F5F5F5F5
310
F5F5F5F5F5F5F5F5F5F5F5F5F5F5F5F5F5F5F5F5F5F5F5F5F5F5F5F5F5F5F5F5F5F5F5F5F5F5F5F5F5F5F5F5F5F5F5F5F5F5F5F5F5F5F5F5F5F5F5F5F5F5F5F5F5F5F5F5F5F5F5F5F5F5F5F5F5F5F5F5F5F5F5F5F5F5F5F5F5F5F5F5F5E2F5F5F5F5F5F5F5F5F5F5F5F5F5F5F5F5F5F5F5F5E2E2EFF5F5F5F5F5F5F5F5F5F5
310
F5F5F5F5F5F5F5F5F5F5E2F5F5F5F5F5F5F5F5F5F5F5F5F5F5F5F5F5F5F5F5F5F5F5F5F5F5F5F5F5F5F5F5F5F5F5F5F5F5F5F5F5F5F5F5F5F5F5F5F5F5F5F5F5F5F5F5F5F5F5F5F5F5F5F5F5F5F5F5F5F5F5F5F5F5F5F5F5F5F5F5F5F5F5F5F5F5F5F5F5F5F5F5F5F5F5F5F5F5F5F5F5F5F5F5F5F5F5F5F5F5F5F5F5F5F5F5
310
F5F5F5F5F5F5F5F5F5F5F5F5F5F5F5F5F5F5F5E2F5F5F5F5F5F5F5F5F5F5F5F5F5F5F5F5F5F5F5F5E2E2EFF5F5F5F5F5F5F5F5F5F5F5F5F5F5F5F5F5F5F5F5E2F5F5F5F5F5F5F5F5F5F5F5F5F5F5F5F5F5F5F5F5F5F5F5F5F5F5F5F5F5F5F5F5F5F5F5F5F5F5F5F5F5F5F5F5F5F5F5F5F5F5F5F5F5F5F5F5F5F5F5F5F5F5F5
310
F5F5F5F5F5F5F5F5F5F5F5F5F5F5F5F5F5F5F5F5F5F5F5F5F5F5F5F5F5F5F5F5F5F5F5F5F5F5F5F5F5F5F5F5F5F5F5F5F5F5F5F5F5F5F5F5F5F5F5F5F5F5F5F5F5F5F5F5F5F5F5F5E2F5F5F5F5F5F5F5F5F5F5F5F5F5F5F5F5F5F5F5F5E2E2EFF5F5F5F5F5F5F5F5F5F5F5F5F5F5F5F5F5F5F5F5E2F5F5F5F5F5F5F5F5F5F5
310
F5F5F5F5F5F5F5F5F5F5F5F5F5F5F5F5F5F5F5F5F5F5F5F5F5F5F5F5F5F5F5F5F5F5F5F5F5F5F5F5F5F5F5F5F5F5F5F5F5F5F5F5F5F5F5F5F5F5F5F5F5F5F5F5F5F5F5F5F5F5F5F5F5F5F5F5F5F5F5F5F5F5F5F5F5F5F5F5F5F5F5F5F5F5F5F5F5F5F5F5F5F5F5F5F5F5F5F5F5F5F5F5F5F5F5F5F5F5F5F5F5F5F5F5F5E2F5
310
F5F5F5F5F5F5F5F5F5F5F5F5F5F5F5F5F5F5F5E2E2EFF5F5F5F5F5F5F5F5F5F5F5F5F5F5F5F5F5F5F5F5E2F5F5F5F5F5F5F5F5F5F5F5F5F5F5F5F5F5F5F5F5F5F5F5F5F5F5F5F5F5F5F5F5F5F5F5F5F5F5F5F5F5F5F5F5F5F5F5F5F5F5F5F5F5F5F5F5F5F5F5F5F5F5F5F5F5F5F5F5F5F5F5F5F5F5F5F5F5F5F5F5F5F5F5F5
310
F5F5F5F5F5F5F5F5F5F5F5F5F5F5F5F5F5F5F5F5F5F5F5F5F5F5F5F5F5F5F5F5F5F5F5F5F5F5F5F5F5F5F5F5F5F5F5F5F5F5F5E2F5F5F5F5F5F5F5F5F5F5F5F5F5F5F5F5F5F5F5F5E2E2EFF5F5F5F5F5F5F5F5F5F5F5F5F5F5F5F5F5F5F5F5E2F5F5F5F5F5F5F5F5F5F5F5F5F5F5F5F5F5F5F5F5F5F5F5F5F5F5F5F5F5F5F5
310
F5F5F5F5F5F5F5F5F5F5F5F5F5F5F5F5F5F5F5F5F5F5F5F5F5F5F5F5F5F5F5F5F5F5F5F5F5F5F5F5F5F5F5F5F5F5F5F5F5F5F5F5F5F5F5F5F5F5F5F5F5F5F5F5F5F5F5F5F5F5F5F5F5F5F5F5F5F5F5F5F5F5F5F5F5F5F5F5F5F5F5F5F5F5F5F5F5F5F5F5F5F5F5F5E2F5F5F5F5F5F5F5F5F5F5F5F5F5F5F5F5F5F5F5F5E2E2
310
EFF5F5F5F5F5F5F5F5F5F5F5F5F5F5F5F5F5F5F5F5E2F5F5F5F5F5F5F5F5F5F5F5F5F5F5F5F5F5F5F5F5F5F5F5F5F5F5F5F5F5F5F5F5F5F5F5F5F5F5F5F5F5F5F5F5F5F5F5F5F5F5F5F5F5F5F5F5F5F5F5F5F5F5F5F5F5F5F5F5F5F5F5F5F5F5F5F5F5F5F5F5F5F5F5F5F5F5F5F5F5F5F5F5F5F5F5F5F5F5F5F5F5F5F5F5F5
310
F5F5F5F5F5F5F5F5F5F5F5F5F5F5F5F5F5F5F5F5F5F5F5F5F5F5F5F5F5F5E2F5F5F5F5F5F5F5F5F5F5F5F5F5F5F5F5F5F5F5F5E2E2EFF5F5F5F5F5F5F5F5F5F5F5F5F5F5F5F5F5F5F5F5E2F5F5F5F5F5F5F5F5F5F5F5F5F5F5F5F5F5F5F5F5F5F5F5F5F5F5F5F5F5F5F5F5F5F5F5F5F5F5F5F5F5F5F5F5F5F5F5F5F5F5F5F5
310
F5F5F5F5F5F5F5F5F5F5F5F5F5F5F5F5F5F5F5F5F5F5F5F5F5F5F5F5F5F5F5F5F5F5F5F5F5F5F5F5F5F5F5F5F5F5F5F5F5F5F5F5F5F5F5F5F5F5F5F5F5F5F5F5F5F5F5F5F5F5F5F5F5F5F5F5F5F5F5F5F5F5F5E2F5F5F5F5F5F5F5F5F5F5F5F5F5F5F5F5F5F5F5F5E2E2EFF5F5F5F5F5F5F5F5F5F5F5F5F5F5F5F5F5F5F5F5
310
E2F5F5F5F5F5F5F5F5F5F5F5F5F5F5F5F5F5F5F5F5F5F5F5F5F5F5F5F5F5F5F5F5F5F5F5F5F5F5F5F5F5F5F5F5F5F5F5F5F5F5F5F5F5F5F5F5F5F5F5F5F5F5F5F5F5F5F5F5F5F5F5F5F5F5F5F5F5F5F5F5F5F5F5F5F5F5F5F5F5F5F5F5F5F5F5F5F5F5F5F5F5F5F5F5F5F5F5F5F5F5F5F5F5F5F5F5F5F5F5F5F5F5F5F5F5F5
310
F5F5F5F5F5F5F5F5F5E2F5F5F5F5F5F5F5F5F5F5F5F5F5F5F5F5F5F5F5F5E2E2EFF5F5F5E2F5F5F5F5F5F5F5F5F5F5F5F5F5F5F5F5E2F5F5F5F5F5F5F5F5F5F5F5F5F5F5F5F5F5F5F5F5F5F5F5F5F5F5F5F5F5F5F5F5F5F5F5F5F5F5F5F5F5F5F5F5F5F5F5F5F5F5F5F5F5F5F5F5F5F5F5F5F5F5F5F5F5F5F5F5F5F5F5F5F5
310
F5F5F5F5F5F5F5F5F5F5F5F5F5F5F5F5F5F5F5F5F5F5F5F5F5F5F5F5F5F5F5F5F5F5F5F5F5F5F5F5F5F5F5F5F5F5F5F5F5F5F5F5F5F5F5F5F5F5F5F5F5F5E2F5F5F5F5F5F5F5F5F5F5F5F5F5F5F5F5E2F5F5F5E2E2EFF5F5F5E2F5F5F5F5F5F5F5F5F5F5F5F5F5F5F5F5E2F5F5F5F5F5F5F5F5F5F5F5F5F5F5F5F5F5F5F5F5
310
F5F5F5F5F5F5F5F5F5F5F5F5F5F5F5F5F5F5F5F5F5F5F5F5F5F5F5F5F5F5F5F5F5F5F5F5F5F5F5F5F5F5F5F5F5F5F5F5F5F5F5F5F5F5F5F5F5F5F5F5F5F5F5F5F5F5F5F5F5F5F5F5F5F5F5F5F5F5F5F5F5F5F5F5F5F5F5F5F5F5F5F5F5F5F5F5F5F5F5F5F5F5F5F5F5F5F5F5F5F5F5F5F5F5F5E2F5F5F5F5F5F5F5F5F5F5F5
310
F5F5F5F5F5E2F5F5F5E2E2EFF5F5F5E2F5F5F5F5F5F5F5F5F5F5F5F5F5F5F5F5E2F5F5F5F5F5F5F5F5F5F5F5F5F5F5F5F5F5F5F5F5F5F5F5F5F5F5F5F5F5F5F5F5F5F5F5F5F5F5F5F5F5F5F5F5F5F5F5F5F5F5F5F5F5F5F5F5F5F5F5F5F5F5F5F5F5F5F5F5F5F5F5F5F5F5F5F5F5F5F5F5F5F5F5F5F5F5F5F5F5F5F5F5F5F5
310
F5F5F5F5F5F5F5F5F5F5F5F5F5F5F5F5F5F5F5F5F5F5F5F5F5F5F5F5F5F5F5F5F5F5F5F5F5F5F5F5F5E2F5F5F5F5F5F5F5F5F5F5F5F5F5F5F5F5E2F5F5F5E2E2EFF5F5F5E2F5F5F5F5F5F5F5F5F5F5F5F5F5F5F5F5E2F5F5F5F5F5F5F5F5F5F5F5F5F5F5F5F5F5F5F5F5F5F5F5F5F5F5F5F5F5F5F5F5F5F5F5F5F5F5F5F5F5
310
F5F5F5F5F5F5F5F5F5F5F5F5F5F5F5F5F5F5F5F5F5F5F5F5F5F5F5F5F5F5F5F5F5F5F5F5F5F5F5F5F5F5F5F5F5F5F5F5F5F5F5F5F5F5F5F5F5F5F5F5F5F5F5F5F5F5F5F5F5F5F5F5F5F5F5F5F5F5F5F5F5F5F5F5F5F5F5F5F5F5F5F5F5F5E2F5F5F5F5F5F5F5F5F5F5F5F5F5F5F5F5E2F5F5F5E2E2EFF5F5F5E2F5F5F5F5F5
310
F5F5F5F5F5F5F5F5F5F5F5E2F5F5F5F5F5F5F5F5F5F5F5F5F5F5F5F5F5F5F5F5F5F5F5F5F5F5F5F5F5F5F5F5F5F5F5F5F5F5F5F5F5F5F5F5F5F5F5F5F5F5F5F5F5F5F5F5F5F5F5F5F5F5F5F5F5F5F5F5F5F5F5F5F5F5F5F5F5F5F5F5F5F5F5F5F5F5F5F5F5F5F5F5F5F5F5F5F5F5F5F5F5F5F5F5F5F5F5F5F5F5F5F5F5F5F5
310
F5F5F5F5F5F5F5F5F5F5F5F5F5F5F5F5F5F5F5F5E2F5F5F5F5F5F5F5F5F5F5F5F5F5F5F5F5E2F5F5F5E2E2EFF5F5F5E2F5F5F5F5F5F5F5F5F5F5F5F5F5F5F5F5E2F5F5F5F5F5F5F5F5F5F5F5F5F5F5F5F5F5F5F5F5F5F5F5F5F5F5F5F5F5F5F5F5F5F5F5F5F5F5F5F5F5F5F5F5F5F5F5F5F5F5F5F5F5F5F5F5F5F5F5F5F5F5
310
F5F5F5F5F5F5F5F5F5F5F5F5F5F5F5F5F5F5F5F5F5F5F5F5F5F5F5F5F5F5F5F5F5F5F5F5F5F5F5F5F5F5F5F5F5F5F5F5F5F5F5F5F5F5F5F5F5F5F5F5F5F5F5F5F5F5F5F5F5F5F5F5F5E2F5F5F5F5F5F5F5F5F5F5F5F5F5F5F5F5E2F5F5F5E2E2EFF5F5F5E2F5F5F5F5F5F5F5F5F5F5F5F5F5F5F5F5E2F5F5F5F5F5F5F5F5F5
310
F5F5F5F5F5F5F5F5F5F5F5F5F5F5F5F5F5F5F5F5F5F5F5F5F5F5F5F5F5F5F5F5F5F5F5F5F5F5F5F5F5F5F5F5F5F5F5F5F5F5F5F5F5F5F5F5F5F5F5F5F5F5F5F5F5F5F5F5F5F5F5F5F5F5F5F5F5F5F5F5F5F5F5F5F5F5F5F5F5F5F5F5F5F5F5F5F5F5F5F5F5F5F5F5F5F5F5F5F5F5F5F5F5F5F5F5F5F5F5F5F5F5F5F5F5F5E2
310
F5F5F5F5F5F5F5F5F5F5F5F5F5F5F5F5E2F5F5F5E2E2EFF5F5F5E2F5F5F5F5F5F5F5F5F5F5F5F5F5F5F5F5E2F5F5F5F5F5F5F5F5F5F5F5F5F5F5F5F5F5F5F5F5F5F5F5F5F5F5F5F5F5F5F5F5F5F5F5F5F5F5F5F5F5F5F5F5F5F5F5F5F5F5F5F5F5F5F5F5F5F5F5F5F5F5F5F5F5F5F5F5F5F5F5F5F5F5F5F5F5F5F5F5F5F5F5
310
F5F5F5F5F5F5F5F5F5F5F5F5F5F5F5F5F5F5F5F5F5F5F5F5F5F5F5F5F5F5F5F5F5F5F5F5F5F5F5F5F5F5F5F5F5F5F5F5F5F5F5F5E2F5F5F5F5F5F5F5F5F5F5F5F5F5F5F5F5E2F5F5F5E2E2EFF5F5F5E2F5F5F5F5F5F5F5F5F5F5F5F5F5F5F5F5E2F5F5F5F5F5F5F5F5F5F5F5F5F5F5F5F5F5F5F5F5F5F5F5F5F5F5F5F5F5F5
310
F5F5F5F5F5F5F5F5F5F5F5F5F5F5F5F5F5F5F5F5F5F5F5F5F5F5F5F5F5F5F5F5F5F5F5F5F5F5F5F5F5F5F5F5F5F5F5F5F5F5F5F5F5F5F5F5F5F5F5F5F5F5F5F5F5F5F5F5F5F5F5F5F5F5F5F5F5F5F5F5F5F5F5F5F5F5F5F5F5F5F5F5F5F5F5F5F5F5F5F5F5F5F5F5F5E2F5F5F5F5F5F5F5F5F5F5F5F5F5F5F5F5E2F5F5F5E2
310
E2EFF5F5F5E2F5F5F5F5F5F5F5F5F5F5F5F5F5F5F5F5E2F5F5F5F5F5F5F5F5F5F5F5F5F5F5F5F5F5F5F5F5F5F5F5F5F5F5F5F5F5F5F5F5F5F5F5F5F5F5F5F5F5F5F5F5F5F5F5F5F5F5F5F5F5F5F5F5F5F5F5F5F5F5F5F5F5F5F5F5F5F5F5F5F5F5F5F5F5F5F5F5F5F5F5F5F5F5F5F5F5F5F5F5F5F5F5F5F5F5F5F5F5F5F5F5
310
F5F5F5F5F5F5F5F5F5F5F5F5F5F5F5F5F5F5F5F5F5F5F5F5F5F5F5F5F5F5F5E2F5F5F5F5F5F5F5F5F5F5F5F5F5F5F5F5E2F5F5F5E2E2EFF5F5F5E2F5F5F5F5F5F5F5F5F5F5F5F5F5F5F5F5E2F5F5F5F5F5F5F5F5F5F5F5F5F5F5F5F5F5F5F5F5F5F5F5F5F5F5F5F5F5F5F5F5F5F5F5F5F5F5F5F5F5F5F5F5F5F5F5F5F5F5F5
310
F5F5F5F5F5F5F5F5F5F5F5F5F5F5F5F5F5F5F5F5F5F5F5F5F5F5F5F5F5F5F5F5F5F5F5F5F5F5F5F5F5F5F5F5F5F5F5F5F5F5F5F5F5F5F5F5F5F5F5F5F5F5F5F5F5F5F5F5F5F5F5F5F5F5F5F5F5F5F5F5F5F5F5F5E2F5F5F5F5F5F5F5F5F5F5F5F5F5F5F5F5E2F5F5F5E2E2EFF5F5F5E2F5F5F5F5F5F5F5F5F5F5F5F5F5F5F5
310
F5E2F5F5F5F5F5F5F5F5F5F5F5F5F5F5F5F5F5F5F5F5F5F5F5F5F5F5F5F5F5F5F5F5F5F5F5F5F5F5F5F5F5F5F5F5F5F5F5F5F5F5F5F5F5F5F5F5F5F5F5F5F5F5F5F5F5F5F5F5F5F5F5F5F5F5F5F5F5F5F5F5F5F5F5F5F5F5F5F5F5F5F5F5F5F5F5F5F5F5F5F5F5F5F5F5F5F5F5F5F5F5F5F5F5F5F5F5F5F5F5F5F5F5F5F5F5
310
F5F5F5F5F5F5F5F5F5F5E2F5F5F5F5F5F5F5F5F5F5F5F5F5F5F5F5E2F5F5F5E2E2EFF5F5F5E2F5F5F5F5F5F5F5F5F5F5F5F5F5F5F5F5E2F5F5F5F5F5F5F5F5F5F5F5F5F5F5F5F5F5F5F5F5F5F5F5F5F5F5F5F5F5F5F5F5F5F5F5F5F5F5F5F5F5F5F5F5F5F5F5F5F5F5F5F5F5F5F5F5F5F5F5F5F5F5F5F5F5F5F5F5F5F5F5F5
310
F5F5F5F5F5F5F5F5F5F5F5F5F5F5F5F5F5F5F5F5F5F5F5F5F5F5F5F5F5F5F5F5F5F5F5F5F5F5F5F5F5F5F5F5F5F5F5F5F5F5F5F5F5F5F5F5F5F5F5F5F5F5F5E2F5F5F5F5F5F5F5F5F5F5F5F5F5F5F5F5E2F5F5F5E2E2EFF5F5F5E2F5F5F5F5F5F5F5F5F5F5F5F5F5F5F5F5E2F5F5F5F5F5F5F5F5F5F5F5F5F5F5F5F5F5F5F5
310
F5F5F5F5F5F5F5F5F5F5F5F5F5F5F5F5F5F5F5F5F5F5F5F5F5F5F5F5F5F5F5F5F5F5F5F5F5F5F5F5F5F5F5F5F5F5F5F5F5F5F5F5F5F5F5F5F5F5F5F5F5F5F5F5F5F5F5F5F5F5F5F5F5F5F5F5F5F5F5F5F5F5F5F5F5F5F5F5F5F5F5F5F5F5F5F5F5F5F5F5F5F5F5F5F5F5F5F5F5F5F5F5F5F5F5F5E2F5F5F5F5F5F5F5F5F5F5
310
F5F5F5F5F5F5E2F5F5F5E2E2EFF5F5F5E2F5F5F5F5F5F5F5F5F5F5F5F5F5F5F5F5E2F5F5F5F5F5F5F5F5F5F5F5F5F5F5F5F5F5F5F5F5F5F5F5F5F5F5F5F5F5F5F5F5F5F5F5F5F5F5F5F5F5F5F5F5F5F5F5F5F5F5F5F5F5F5F5F5F5F5F5F5F5F5F5F5F5F5F5F5F5F5F5F5F5F5F5F5F5F5F5F5F5F5F5F5F5F5F5F5F5F5F5F5F5
310
F5F5F5F5F5F5F5F5F5F5F5F5F5F5F5F5F5F5F5F5F5F5F5F5F5F5F5F5F5F5F5F5F5F5F5F5F5F5F5F5F5F5E2F5F5F5F5F5F5F5F5F5F5F5F5F5F5F5F5E2F5F5F5E2E2EFF5F5F5E2F5F5F5F5F5F5F5F5F5F5F5F5F5F5F5F5E2F5F5F5F5F5F5F5F5F5F5F5F5F5F5F5F5F5F5F5F5F5F5F5F5F5F5F5F5F5F5F5F5F5F5F5F5F5F5F5F5
310
F5F5F5F5F5F5F5F5F5F5F5F5F5F5F5F5F5F5F5F5F5F5F5F5F5F5F5F5F5F5F5F5F5F5F5F5F5F5F5F5F5F5F5F5F5F5F5F5F5F5F5F5F5F5F5F5F5F5F5F5F5F5F5F5F5F5F5F5F5F5F5F5F5F5F5F5F5F5F5F5F5F5F5F5F5F5F5F5F5F5F5F5F5F5F5E2F5F5F5F5F5F5F5F5F5F5F5F5F5F5F5F5E2F5F5F5E2E2EFF5F5F5E2F5F5F5F5
310
F5F5F5F5F5F5F5F5F5F5F5F5E2F5F5F5F5F5F5F5F5F5F5F5F5F5F5F5F5F5F5F5F5F5F5F5F5F5F5F5F5F5F5F5F5F5F5F5F5F5F5F5F5F5F5F5F5F5F5F5F5F5F5F5F5F5F5F5F5F5F5F5F5F5F5F5F5F5F5F5F5F5F5F5F5F5F5F5F5F5F5F5F5F5F5F5F5F5F5F5F5F5F5F5F5F5F5F5F5F5F5F5F5F5F5F5F5F5F5F5F5F5F5F5F5F5F5
310
F5F5F5F5F5F5F5F5F5F5F5F5F5F5F5F5F5F5F5F5F5E2F5F5F5F5F5F5F5F5F5F5F5F5F5F5F5F5E2F5F5F5E2E2EFF5F5F5F5F5F5F5F5F5F5F5F5F5F5F5F5F5F5F5F5E2F5F5F5F5F5F5F5F5F5F5F5F5F5F5F5F5F5F5F5F5F5F5F5F5F5F5F5F5F5F5F5F5F5F5F5F5F5F5F5F5F5F5F5F5F5F5F5F5F5F5F5F5F5F5F5F5F5F5F5F5F5
310
F5F5F5F5F5F5F5F5F5F5F5F5F5F5F5F5F5F5F5F5F5F5F5F5F5F5F5F5F5F5F5F5F5F5F5F5F5F5F5F5F5F5F5F5F5F5F5F5F5F5F5F5F5F5F5F5F5F5F5F5F5F5F5F5F5F5F5F5F5F5F5F5F5F5E2F5F5F5F5F5F5F5F5F5F5F5F5F5F5F5F5F5F5F5F5E2E2EFF5F5F5F5F5F5F5F5F5F5F5F5F5F5F5F5F5F5F5F5E2F5F5F5F5F5F5F5F5
310
F5F5F5F5F5F5F5F5F5F5F5F5F5F5F5F5F5F5F5F5F5F5F5F5F5F5F5F5F5F5F5F5F5F5F5F5F5F5F5F5F5F5F5F5F5F5F5F5F5F5F5F5F5F5F5F5F5F5F5F5F5F5F5F5F5F5F5F5F5F5F5F5F5F5F5F5F5F5F5F5F5F5F5F5F5F5F5F5F5F5F5F5F5F5F5F5F5F5F5F5F5F5F5F5F5F5F5F5F5F5F5F5F5F5F5F5F5F5F5F5F5F5F5F5F5F5F5
310
E2F5F5F5F5F5F5F5F5F5F5F5F5F5F5F5F5F5F5F5F5E2E2EFF5F5F5F5F5F5F5F5F5F5F5F5F5F5F5F5F5F5F5F5E2F5F5F5F5F5F5F5F5F5F5F5F5F5F5F5F5F5F5F5F5F5F5F5F5F5F5F5F5F5F5F5F5F5F5F5F5F5F5F5F5F5F5F5F5F5F5F5F5F5F5F5F5F5F5F5F5F5F5F5F5F5F5F5F5F5F5F5F5F5F5F5F5F5F5F5F5F5F5F5F5F5F5
310
F5F5F5F5F5F5F5F5F5F5F5F5F5F5F5F5F5F5F5F5F5F5F5F5F5F5F5F5F5F5F5F5F5F5F5F5F5F5F5F5F5F5F5F5F5F5F5F5F5F5F5F5F5E2F5F5F5F5F5F5F5F5F5F5F5F5F5F5F5F5F5F5F5F5E2E2EFF5F5F5F5F5F5F5F5F5F5F5F5F5F5F5F5F5F5F5F5E2F5F5F5F5F5F5F5F5F5F5F5F5F5F5F5F5F5F5F5F5F5F5F5F5F5F5F5F5F5
310
F5F5F5F5F5F5F5F5F5F5F5F5F5F5F5F5F5F5F5F5F5F5F5F5F5F5F5F5F5F5F5F5F5F5F5F5F5F5F5F5F5F5F5F5F5F5F5F5F5F5F5F5F5F5F5F5F5F5F5F5F5F5F5F5F5F5F5F5F5F5F5F5F5F5F5F5F5F5F5F5F5F5F5F5F5F5F5F5F5F5F5F5F5F5F5F5F5F5F5F5F5F5F5F5F5F5E2F5F5F5F5F5F5F5F5F5F5F5F5F5F5F5F5F5F5F5F5
310
E2E2EFF5F5F5F5F5F5F5F5F5F5F5F5F5F5F5F5F5F5F5F5E2F5F5F5F5F5F5F5F5F5F5F5F5F5F5F5F5F5F5F5F5F5F5F5F5F5F5F5F5F5F5F5F5F5F5F5F5F5F5F5F5F5F5F5F5F5F5F5F5F5F5F5F5F5F5F5F5F5F5F5F5F5F5F5F5F5F5F5F5F5F5F5F5F5F5F5F5F5F5F5F5F5F5F5F5F5F5F5F5F5F5F5F5F5F5F5F5F5F5F5F5F5F5F5
310
F5F5F5F5F5F5F5F5F5F5F5F5F5F5F5F5F5F5F5F5F5F5F5F5F5F5F5F5F5F5F5F5E2F5F5F5F5F5F5F5F5F5F5F5F5F5F5F5F5F5F5F5F5E2E2EFF5F5F5F5F5F5F5F5F5F5F5F5F5F5F5F5F5F5F5F5E2F5F5F5F5F5F5F5F5F5F5F5F5F5F5F5F5F5F5F5F5F5F5F5F5F5F5F5F5F5F5F5F5F5F5F5F5F5F5F5F5F5F5F5F5F5F5F5F5F5F5
310
F5F5F5F5F5F5F5F5F5F5F5F5F5F5F5F5F5F5F5F5F5F5F5F5F5F5F5F5F5F5F5F5F5F5F5F5F5F5F5F5F5F5F5F5F5F5F5F5F5F5F5F5F5F5F5F5F5F5F5F5F5F5F5F5F5F5F5F5F5F5F5F5F5F5F5F5F5F5F5F5F5F5F5F5F5E2F5F5F5F5F5F5F5F5F5F5F5F5F5F5F5F5F5F5F5F5E2E2EFF5F5F5F5F5F5F5F5F5F5F5F5F5F5F5F5F5F5
310
F5F5E2F5F5F5F5F5F5F5F5F5F5F5F5F5F5F5F5F5F5F5F5F5F5F5F5F5F5F5F5F5F5F5F5F5F5F5F5F5F5F5F5F5F5F5F5F5F5F5F5F5F5F5F5F5F5F5F5F5F5F5F5F5F5F5F5F5F5F5F5F5F5F5F5F5F5F5F5F5F5F5F5F5F5F5F5F5F5F5F5F5F5F5F5F5F5F5F5F5F5F5F5F5F5F5F5F5F5F5F5F5F5F5F5F5F5F5F5F5F5F5F5F5F5F5F5
310
F5F5F5F5F5F5F5F5F5F5F5E2F5F5F5F5F5F5F5F5F5F5F5F5F5F5F5F5F5F5F5F5E2E2EFF5F5F5F5F5F5F5F5F5F5F5F5F5F5F5F5F5F5F5F5E2F5F5F5F5F5F5F5F5F5F5F5F5F5F5F5F5F5F5F5F5F5F5F5F5F5F5F5F5F5F5F5F5F5F5F5F5F5F5F5F5F5F5F5F5F5F5F5F5F5F5F5F5F5F5F5F5F5F5F5F5F5F5F5F5F5F5F5F5F5F5F5
310
F5F5F5F5F5F5F5F5F5F5F5F5F5F5F5F5F5F5F5F5F5F5F5F5F5F5F5F5F5F5F5F5F5F5F5F5F5F5F5F5F5F5F5F5F5F5F5F5F5F5F5F5F5F5F5F5F5F5F5F5F5F5F5F5E2F5F5F5F5F5F5F5F5F5F5F5F5F5F5F5F5F5F5F5F5E2E2EFF5F5F5F5F5F5F5F5F5F5F5F5F5F5F5F5F5F5F5F5E2F5F5F5F5F5F5F5F5F5F5F5F5F5F5F5F5F5F5
310
F5F5F5F5F5F5F5F5F5F5F5F5F5F5F5F5F5F5F5F5F5F5F5F5F5F5F5F5F5F5F5F5F5F5F5F5F5F5F5F5F5F5F5F5F5F5F5F5F5F5F5F5F5F5F5F5F5F5F5F5F5F5F5F5F5F5F5F5F5F5F5F5F5F5F5F5F5F5F5F5F5F5F5F5F5F5F5F5F5F5F5F5F5F5F5F5F5F5F5F5F5F5F5F5F5F5F5F5F5F5F5F5F5F5F5F5F5E2F5F5F5F5F5F5F5F5F5
310
F5F5F5F5F5F5F5F5F5F5F5E2E2EFF5F5F5E2F5F5F5F5F5F5F5F5F5F5F5F5F5F5F5F5E2F5F5F5F5F5F5F5F5F5F5F5F5F5F5F5F5F5F5F5F5F5F5F5F5F5F5F5F5F5F5F5F5F5F5F5F5F5F5F5F5F5F5F5F5F5F5F5F5F5F5F5F5F5F5F5F5F5F5F5F5F5F5F5F5F5F5F5F5F5F5F5F5F5F5F5F5F5F5F5F5F5F5F5F5F5F5F5F5F5F5F5F5
310
F5F5F5F5F5F5F5F5F5F5F5F5F5F5F5F5F5F5F5F5F5F5F5F5F5F5F5F5F5F5F5F5F5F5F5F5F5F5F5F5F5F5F5E2F5F5F5F5F5F5F5F5F5F5F5F5F5F5F5F5E2F5F5F5E2E2EFF5F5F5E2F5F5F5F5F5F5F5F5F5F5F5F5F5F5F5F5E2F5F5F5F5F5F5F5F5F5F5F5F5F5F5F5F5F5F5F5F5F5F5F5F5F5F5F5F5F5F5F5F5F5F5F5F5F5F5F5
310
F5F5F5F5F5F5F5F5F5F5F5F5F5F5F5F5F5F5F5F5F5F5F5F5F5F5F5F5F5F5F5F5F5F5F5F5F5F5F5F5F5F5F5F5F5F5F5F5F5F5F5F5F5F5F5F5F5F5F5F5F5F5F5F5F5F5F5F5F5F5F5F5F5F5F5F5F5F5F5F5F5F5F5F5F5F5F5F5F5F5F5F5F5F5F5F5E2F5F5F5F5F5F5F5F5F5F5F5F5F5F5F5F5E2F5F5F5E2E2EFF5F5F5E2F5F5F5
310
F5F5F5F5F5F5F5F5F5F5F5F5F5E2F5F5F5F5F5F5F5F5F5F5F5F5F5F5F5F5F5F5F5F5F5F5F5F5F5F5F5F5F5F5F5F5F5F5F5F5F5F5F5F5F5F5F5F5F5F5F5F5F5F5F5F5F5F5F5F5F5F5F5F5F5F5F5F5F5F5F5F5F5F5F5F5F5F5F5F5F5F5F5F5F5F5F5F5F5F5F5F5F5F5F5F5F5F5F5F5F5F5F5F5F5F5F5F5F5F5F5F5F5F5F5F5F5
310
F5F5F5F5F5F5F5F5F5F5F5F5F5F5F5F5F5F5F5F5F5F5E2F5F5F5F5F5F5F5F5F5F5F5F5F5F5F5F5E2F5F5F5E2E2EFF5F5F5E2F5F5F5F5F5F5F5F5F5F5F5F5F5F5F5F5E2F5F5F5F5F5F5F5F5F5F5F5F5F5F5F5F5F5F5F5F5F5F5F5F5F5F5F5F5F5F5F5F5F5F5F5F5F5F5F5F5F5F5F5F5F5F5F5F5F5F5F5F5F5F5F5F5F5F5F5F5
310
F5F5F5F5F5F5F5F5F5F5F5F5F5F5F5F5F5F5F5F5F5F5F5F5F5F5F5F5F5F5F5F5F5F5F5F5F5F5F5F5F5F5F5F5F5F5F5F5F5F5F5F5F5F5F5F5F5F5F5F5F5F5F5F5F5F5F5F5F5F5F5F5F5F5F5E2F5F5F5F5F5F5F5F5F5F5F5F5F5F5F5F5E2F5F5F5E2E2EFF5F5F5E2F5F5F5F5F5F5F5F5F5F5F5F5F5F5F5F5E2F5F5F5F5F5F5F5
310
F5F5F5F5F5F5F5F5F5F5F5F5F5F5F5F5F5F5F5F5F5F5F5F5F5F5F5F5F5F5F5F5F5F5F5F5F5F5F5F5F5F5F5F5F5F5F5F5F5F5F5F5F5F5F5F5F5F5F5F5F5F5F5F5F5F5F5F5F5F5F5F5F5F5F5F5F5F5F5F5F5F5F5F5F5F5F5F5F5F5F5F5F5F5F5F5F5F5F5F5F5F5F5F5F5F5F5F5F5F5F5F5F5F5F5F5F5F5F5F5F5F5F5F5F5F5F5
310
F5E2F5F5F5F5F5F5F5F5F5F5F5F5F5F5F5F5E2F5F5F5E2E2EFF5F5F5E2F5F5F5F5F5F5F5F5F5F5F5F5F5F5F5F5E2F5F5F5F5F5F5F5F5F5F5F5F5F5F5F5F5F5F5F5F5F5F5F5F5F5F5F5F5F5F5F5F5F5F5F5F5F5F5F5F5F5F5F5F5F5F5F5F5F5F5F5F5F5F5F5F5F5F5F5F5F5F5F5F5F5F5F5F5F5F5F5F5F5F5F5F5F5F5F5F5F5
310
F5F5F5F5F5F5F5F5F5F5F5F5F5F5F5F5F5F5F5F5F5F5F5F5F5F5F5F5F5F5F5F5F5F5F5F5F5F5F5F5F5F5F5F5F5F5F5F5F5F5F5F5F5F5E2F5F5F5F5F5F5F5F5F5F5F5F5F5F5F5F5E2F5F5F5E2E2EFF5F5F5E2F5F5F5F5F5F5F5F5F5F5F5F5F5F5F5F5E2F5F5F5F5F5F5F5F5F5F5F5F5F5F5F5F5F5F5F5F5F5F5F5F5F5F5F5F5
310
F5F5F5F5F5F5F5F5F5F5F5F5F5F5F5F5F5F5F5F5F5F5F5F5F5F5F5F5F5F5F5F5F5F5F5F5F5F5F5F5F5F5F5F5F5F5F5F5F5F5F5F5F5F5F5F5F5F5F5F5F5F5F5F5F5F5F5F5F5F5F5F5F5F5F5F5F5F5F5F5F5F5F5F5F5F5F5F5F5F5F5F5F5F5F5F5F5F5F5F5F5F5F5F5F5F5F5E2F5F5F5F5F5F5F5F5F5F5F5F5F5F5F5F5E2F5F5
310
F5E2E2EFF5F5F5E2F5F5F5F5F5F5F5F5F5F5F5F5F5F5F5F5E2F5F5F5F5F5F5F5F5F5F5F5F5F5F5F5F5F5F5F5F5F5F5F5F5F5F5F5F5F5F5F5F5F5F5F5F5F5F5F5F5F5F5F5F5F5F5F5F5F5F5F5F5F5F5F5F5F5F5F5F5F5F5F5F5F5F5F5F5F5F5F5F5F5F5F5F5F5F5F5F5F5F5F5F5F5F5F5F5F5F5F5F5F5F5F5F5F5F5F5F5F5F5
310
F5F5F5F5F5F5F5F5F5F5F5F5F5F5F5F5F5F5F5F5F5F5F5F5F5F5F5F5F5F5F5F5F5E2F5F5F5F5F5F5F5F5F5F5F5F5F5F5F5F5E2F5F5F5E2E2EFF5F5F5E2F5F5F5F5F5F5F5F5F5F5F5F5F5F5F5F5E2F5F5F5F5F5F5F5F5F5F5F5F5F5F5F5F5F5F5F5F5F5F5F5F5F5F5F5F5F5F5F5F5F5F5F5F5F5F5F5F5F5F5F5F5F5F5F5F5F5
310
F5F5F5F5F5F5F5F5F5F5F5F5F5F5F5F5F5F5F5F5F5F5F5F5F5F5F5F5F5F5F5F5F5F5F5F5F5F5F5F5F5F5F5F5F5F5F5F5F5F5F5F5F5F5F5F5F5F5F5F5F5F5F5F5F5F5F5F5F5F5F5F5F5F5F5F5F5F5F5F5F5F5F5F5F5F5E2F5F5F5F5F5F5F5F5F5F5F5F5F5F5F5F5E2F5F5F5E2E2EFF5F5F5E2F5F5F5F5F5F5F5F5F5F5F5F5F5
310
F5F5F5E2F5F5F5F5F5F5F5F5F5F5F5F5F5F5F5F5F5F5F5F5F5F5F5F5F5F5F5F5F5F5F5F5F5F5F5F5F5F5F5F5F5F5F5F5F5F5F5F5F5F5F5F5F5F5F5F5F5F5F5F5F5F5F5F5F5F5F5F5F5F5F5F5F5F5F5F5F5F5F5F5F5F5F5F5F5F5F5F5F5F5F5F5F5F5F5F5F5F5F5F5F5F5F5F5F5F5F5F5F5F5F5F5F5F5F5F5F5F5F5F5F5F5F5
310
F5F5F5F5F5F5F5F5F5F5F5F5E2F5F5F5F5F5F5F5F5F5F5F5F5F5F5F5F5E2F5F5F5E2E2EFF5F5F5E2F5F5F5F5F5F5F5F5F5F5F5F5F5F5F5F5E2F5F5F5F5F5F5F5F5F5F5F5F5F5F5F5F5F5F5F5F5F5F5F5F5F5F5F5F5F5F5F5F5F5F5F5F5F5F5F5F5F5F5F5F5F5F5F5F5F5F5F5F5F5F5F5F5F5F5F5F5F5F5F5F5F5F5F5F5F5F5
310
F5F5F5F5F5F5F5F5F5F5F5F5F5F5F5F5F5F5F5F5F5F5F5F5F5F5F5F5F5F5F5F5F5F5F5F5F5F5F5F5F5F5F5F5F5F5F5F5F5F5F5F5F5F5F5F5F5F5F5F5F5F5F5F5F5E2F5F5F5F5F5F5F5F5F5F5F5F5F5F5F5F5E2F5F5F5E2E2EFF5F5F5E2F5F5F5F5F5F5F5F5F5F5F5F5F5F5F5F5E2F5F5F5F5F5F5F5F5F5F5F5F5F5F5F5F5F5
310
F5F5F5F5F5F5F5F5F5F5F5F5F5F5F5F5F5F5F5F5F5F5F5F5F5F5F5F5F5F5F5F5F5F5F5F5F5F5F5F5F5F5F5F5F5F5F5F5F5F5F5F5F5F5F5F5F5F5F5F5F5F5F5F5F5F5F5F5F5F5F5F5F5F5F5F5F5F5F5F5F5F5F5F5F5F5F5F5F5F5F5F5F5F5F5F5F5F5F5F5F5F5F5F5F5F5F5F5F5F5F5F5F5F5F5F5F5F5E2F5F5F5F5F5F5F5F5
310
F5F5F5F5F5F5F5F5E2F5F5F5E2E2EFF5F5F5E2F5F5F5F5F5F5F5F5F5F5F5F5F5F5F5F5E2F5F5F5F5F5F5F5F5F5F5F5F5F5F5F5F5F5F5F5F5F5F5F5F5F5F5F5F5F5F5F5F5F5F5F5F5F5F5F5F5F5F5F5F5F5F5F5F5F5F5F5F5F5F5F5F5F5F5F5F5F5F5F5F5F5F5F5F5F5F5F5F5F5F5F5F5F5F5F5F5F5F5F5F5F5F5F5F5F5F5F5
310
F5F5F5F5F5F5F5F5F5F5F5F5F5F5F5F5F5F5F5F5F5F5F5F5F5F5F5F5F5F5F5F5F5F5F5F5F5F5F5F5F5F5F5F5E2F5F5F5F5F5F5F5F5F5F5F5F5F5F5F5F5E2F5F5F5E2E2EFF5F5F5E2F5F5F5F5F5F5F5F5F5F5F5F5F5F5F5F5E2F5F5F5F5F5F5F5F5F5F5F5F5F5F5F5F5F5F5F5F5F5F5F5F5F5F5F5F5F5F5F5F5F5F5F5F5F5F5
310
F5F5F5F5F5F5F5F5F5F5F5F5F5F5F5F5F5F5F5F5F5F5F5F5F5F5F5F5F5F5F5F5F5F5F5F5F5F5F5F5F5F5F5F5F5F5F5F5F5F5F5F5F5F5F5F5F5F5F5F5F5F5F5F5F5F5F5F5F5F5F5F5F5F5F5F5F5F5F5F5F5F5F5F5F5F5F5F5F5F5F5F5F5F5F5F5F5E2F5F5F5F5F5F5F5F5F5F5F5F5F5F5F5F5E2F5F5F5E2E2EFF5F5F5E2F5F5
310
F5F5F5F5F5F5F5F5F5F5F5F5F5F5E2F5F5F5F5F5F5F5F5F5F5F5F5F5F5F5F5F5F5F5F5F5F5F5F5F5F5F5F5F5F5F5F5F5F5F5F5F5F5F5F5F5F5F5F5F5F5F5F5F5F5F5F5F5F5F5F5F5F5F5F5F5F5F5F5F5F5F5F5F5F5F5F5F5F5F5F5F5F5F5F5F5F5F5F5F5F5F5F5F5F5F5F5F5F5F5F5F5F5F5F5F5F5F5F5F5F5F5F5F5F5F5F5
310
F5F5F5F5F5F5F5F5F5F5F5F5F5F5F5F5F5F5F5F5F5F5F5E2F5F5F5F5F5F5F5F5F5F5F5F5F5F5F5F5E2F5F5F5E2E2EFF5F5F5E2F5F5F5F5F5F5F5F5F5F5F5F5F5F5F5F5E2F5F5F5F5F5F5F5F5F5F5F5F5F5F5F5F5F5F5F5F5F5F5F5F5F5F5F5F5F5F5F5F5F5F5F5F5F5F5F5F5F5F5F5F5F5F5F5F5F5F5F5F5F5F5F5F5F5F5F5
310
F5F5F5F5F5F5F5F5F5F5F5F5F5F5F5F5F5F5F5F5F5F5F5F5F5F5F5F5F5F5F5F5F5F5F5F5F5F5F5F5F5F5F5F5F5F5F5F5F5F5F5F5F5F5F5F5F5F5F5F5F5F5F5F5F5F5F5F5F5F5F5F5F5F5F5F5E2F5F5F5F5F5F5F5F5F5F5F5F5F5F5F5F5E2F5F5F5E2E2EFF5F5F5E2F5F5F5F5F5F5F5F5F5F5F5F5F5F5F5F5E2F5F5F5F5F5F5
310
F5F5F5F5F5F5F5F5F5F5F5F5F5F5F5F5F5F5F5F5F5F5F5F5F5F5F5F5F5F5F5F5F5F5F5F5F5F5F5F5F5F5F5F5F5F5F5F5F5F5F5F5F5F5F5F5F5F5F5F5F5F5F5F5F5F5F5F5F5F5F5F5F5F5F5F5F5F5F5F5F5F5F5F5F5F5F5F5F5F5F5F5F5F5F5F5F5F5F5F5F5F5F5F5F5F5F5F5F5F5F5F5F5F5F5F5F5F5F5F5F5F5F5F5F5F5F5
310
F5F5E2F5F5F5F5F5F5F5F5F5F5F5F5F5F5F5F5E2F5F5F5E2E2EFF5F5F5F5F5F5F5F5F5F5F5F5F5F5F5F5F5F5F5F5E2F5F5F5F5F5F5F5F5F5F5F5F5F5F5F5F5F5F5F5F5F5F5F5F5F5F5F5F5F5F5F5F5F5F5F5F5F5F5F5F5F5F5F5F5F5F5F5F5F5F5F5F5F5F5F5F5F5F5F5F5F5F5F5F5F5F5F5F5F5F5F5F5F5F5F5F5F5F5F5F5
310
F5F5F5F5F5F5F5F5F5F5F5F5F5F5F5F5F5F5F5F5F5F5F5F5F5F5F5F5F5F5F5F5F5F5F5F5F5F5F5F5F5F5F5F5F5F5F5F5F5F5F5F5F5F5F5E2F5F5F5F5F5F5F5F5F5F5F5F5F5F5F5F5F5F5F5F5E2E2EFF5F5F5F5F5F5F5F5F5F5F5F5F5F5F5F5F5F5F5F5E2F5F5F5F5F5F5F5F5F5F5F5F5F5F5F5F5F5F5F5F5F5F5F5F5F5F5F5
310
F5F5F5F5F5F5F5F5F5F5F5F5F5F5F5F5F5F5F5F5F5F5F5F5F5F5F5F5F5F5F5F5F5F5F5F5F5F5F5F5F5F5F5F5F5F5F5F5F5F5F5F5F5F5F5F5F5F5F5F5F5F5F5F5F5F5F5F5F5F5F5F5F5F5F5F5F5F5F5F5F5F5F5F5F5F5F5F5F5F5F5F5F5F5F5F5F5F5F5F5F5F5F5F5F5F5F5F5E2F5F5F5F5F5F5F5F5F5F5F5F5F5F5F5F5F5F5
310
F5F5E2E2EFF5F5F5F5F5F5F5F5F5F5F5F5F5F5F5F5F5F5F5F5E2F5F5F5F5F5F5F5F5F5F5F5F5F5F5F5F5F5F5F5F5F5F5F5F5F5F5F5F5F5F5F5F5F5F5F5F5F5F5F5F5F5F5F5F5F5F5F5F5F5F5F5F5F5F5F5F5F5F5F5F5F5F5F5F5F5F5F5F5F5F5F5F5F5F5F5F5F5F5F5F5F5F5F5F5F5F5F5F5F5F5F5F5F5F5F5F5F5F5F5F5F5
310
F5F5F5F5F5F5F5F5F5F5F5F5F5F5F5F5F5F5F5F5F5F5F5F5F5F5F5F5F5F5F5F5F5F5E2F5F5F5F5F5F5F5F5F5F5F5F5F5F5F5F5F5F5F5F5E2E2EFF5F5F5F5F5F5F5F5F5F5F5F5F5F5F5F5F5F5F5F5E2F5F5F5F5F5F5F5F5F5F5F5F5F5F5F5F5F5F5F5F5F5F5F5F5F5F5F5F5F5F5F5F5F5F5F5F5F5F5F5F5F5F5F5F5F5F5F5F5
310
F5F5F5F5F5F5F5F5F5F5F5F5F5F5F5F5F5F5F5F5F5F5F5F5F5F5F5F5F5F5F5F5F5F5F5F5F5F5F5F5F5F5F5F5F5F5F5F5F5F5F5F5F5F5F5F5F5F5F5F5F5F5F5F5F5F5F5F5F5F5F5F5F5F5F5F5F5F5F5F5F5F5F5F5F5F5F5E2F5F5F5F5F5F5F5F5F5F5F5F5F5F5F5F5F5F5F5F5E2E2EFF5F5F5F5F5F5F5F5F5F5F5F5F5F5F5F5
310
F5F5F5F5E2E2E2E2E2E2E2E2E2E2E2E2E2E2E2E2E2E2E2E2E2E2E2E2E2E2E2E2E2E2E2E2E2E2E2E2E2E2E2E2E2E2E2E2E2E2E2E2E2E2E2E2E2E2E2E2E2E2E2E2E2E2E2E2E2E2E2E2E2E2E2E2E2E2E2E2E2E2E2E2E2E2E2E2E2E2E2E2E2E2E2E2E2E2E2E2E2E2E2E2E2E2E2E2E2E2E2E2E2E2E2E2E2E2E2E2E2E2E2E2E2E2E2
310
E2E2E2E2E2E2E2E2E2E2E2E2E2E2F5F5F5F5F5F5F5F5F5F5F5F5F5F5F5F5F5F5F5F5E2E2EFF5F5F5F5F5F5F5F5F5F5F5F5F5F5F5F5F5F5F5F5F5F5F5F5F5F5F5F5F5F5F5F5F5F5F5F5F5F5F5F5F5F5F5F5F5F5F5F5F5F5F5F5F5F5F5F5F5F5F5F5F5F5F5F5F5F5F5F5F5F5F5F5F5F5F5F5F5F5F5F5F5F5F5F5F5F5F5F5F5F5
310
F5F5F5F5F5F5F5F5F5F5F5F5F5F5F5F5F5F5F5F5F5F5F5F5F5F5F5F5F5F5F5F5F5F5F5F5F5F5F5F5F5F5F5F5F5F5F5F5F5F5F5F5F5F5F5F5F5F5F5F5F5F5F5F5F5F5F5F5F5F5F5F5F5F5F5F5F5F5F5F5F5F5F5F5F5F5F5E2E2EFF5F5F5F5F5F5F5F5F5F5F5F5F5F5F5F5F5F5F5F5F5F5F5F5F5F5F5F5F5F5F5F5F5F5F5F5F5
310
F5F5F5F5F5F5F5F5F5F5F5F5F5F5F5F5F5F5F5F5F5F5F5F5F5F5F5F5F5F5F5F5F5F5F5F5F5F5F5F5F5F5F5F5F5F5F5F5F5F5F5F5F5F5F5F5F5F5F5F5F5F5F5F5F5F5F5F5F5F5F5F5F5F5F5F5F5F5F5F5F5F5F5F5F5F5F5F5F5F5F5F5F5F5F5F5F5F5F5F5F5F5F5F5F5F5F5F5F5F5F5F5F5F5F5F5F5F5F5F5F5F5F5F5F5F5F5
310
F5F5F5F5F5F5F5F5F5F5F5F5F5E2E2EFF5F5F5F5F5F5F5F5F5F5F5F5F5F5F5F5F5F5F5F5F5F5F5F5F5F5F5F5F5F5F5F5F5F5F5F5F5F5F5F5F5F5F5F5F5F5F5F5F5F5F5F5F5F5F5F5F5F5F5F5F5F5F5F5F5F5F5F5F5F5F5F5F5F5F5F5F5F5F5F5F5F5F5F5F5F5F5F5F5F5F5F5F5F5F5F5F5F5F5F5F5F5F5F5F5F5F5F5F5F5F5
310
F5F5F5F5F5F5F5F5F5F5F5F5F5F5F5F5F5F5F5F5F5F5F5F5F5F5F5F5F5F5F5F5F5F5F5F5F5F5F5F5F5F5F5F5F5F5F5F5F5F5F5F5F5F5F5F5F5F5F5F5F5F5F5F5F5F5E2E2EFF5F5F5F5F5F5F5F5F5F5F5F5F5F5F5F5F5F5F5F5F5F5F5F5F5F5F5F5F5F5F5F5F5F5F5F5F5F5F5F5F5F5F5F5F5F5F5F5F5F5F5F5F5F5F5F5F5F5
310
F5F5F5F5F5F5F5F5F5F5F5F5F5F5F5F5F5F5F5F5F5F5F5F5F5F5F5F5F5F5F5F5F5F5F5F5F5F5F5F5F5F5F5F5F5F5F5F5F5F5F5F5F5F5F5F5F5F5F5F5F5F5F5F5F5F5F5F5F5F5F5F5F5F5F5F5F5F5F5F5F5F5F5F5F5F5F5F5F5F5F5F5F5F5F5F5F5F5F5F5F5F5F5F5F5F5F5F5F5F5F5F5F5F5F5F5F5F5F5E2E2EFF5F5F5E2F5
310
F5F5F5F5F5F5F5F5F5F5F5F5F5F5F5F5F5F5F5F5F5F5F5F5F5F5F5F5F5F5F5F5F5F5F5F5F5F5F5F5F5F5F5F5F5F5F5F5F5F5F5F5F5F5F5F5F5F5F5F5F5F5F5F5F5F5F5F5F5F5F5F5F5F5F5F5F5F5F5F5F5F5F5F5F5F5F5F5F5F5F5F5F5F5F5F5F5F5F5F5F5F5F5F5F5F5F5F5F5F5F5F5F5F5F5F5F5F5F5F5F5F5F5F5F5F5F5
310
F5F5F5F5F5F5F5F5F5F5F5F5F5F5F5F5F5F5F5F5F5F5F5F5F5F5F5F5F5F5F5F5F5F5F5F5F5F5F5F5F5E2F5F5F5E2E2EFF5F5F5E2F5F5F5F5F5F5F5F5F5F5F5F5F5F5F5F5F5F5F5F5F5F5F5F5F5F5F5F5F5F5F5F5F5F5F5F5F5F5F5F5F5F5F5F5F5F5F5F5F5F5F5F5F5F5F5F5F5F5F5F5F5F5F5F5F5F5F5F5F5F5F5F5F5F5F5
310
F5F5F5F5F5F5F5F5F5F5F5F5F5F5F5F5F5F5F5F5F5F5F5F5F5F5F5F5F5F5F5F5F5F5F5F5F5F5F5F5F5F5F5F5F5F5F5F5F5F5F5F5F5F5F5F5F5F5F5F5F5F5F5F5F5F5F5F5F5F5F5F5F5F5F5F5F5F5F5F5F5F5F5F5F5F5F5F5F5F5F5F5F5F5E2F5F5F5E2E2EFF5F5F5E2F5F5F5F5F5F5F5F5F5F5F5F5F5F5F5F5F5F5F5F5F5F5
310
F5F5F5F5F5F5F5F5F5F5F5F5F5F5F5F5F5F5F5F5F5F5F5F5F5F5F5F5F5F5F5F5F5F5F5F5F5F5F5F5F5F5F5F5F5F5F5F5F5F5F5F5F5F5F5F5F5F5F5F5F5F5F5F5F5F5F5F5F5F5F5F5F5F5F5F5F5F5F5F5F5F5F5F5F5F5F5F5F5F5F5F5F5F5F5F5F5F5F5F5F5F5F5F5F5F5F5F5F5F5F5F5F5F5F5F5F5F5F5F5F5F5F5F5F5F5F5
310
F5F5F5F5F5F5F5F5F5F5F5F5F5F5F5F5F5F5F5F5E2F5F5F5E2E2EFF5F5F5E2F5F5F5F5F5F5F5F5F5F5F5F5F5F5F5F5F5F5F5F5F5F5F5F5F5F5F5F5F5F5F5F5F5F5F5F5F5F5F5F5F5F5F5F5F5F5F5F5F5F5F5F5F5F5F5F5F5F5F5F5F5F5F5F5F5F5F5F5F5F5F5F5F5F5F5F5F5F5F5F5F5F5F5F5F5F5F5F5F5F5F5F5F5F5F5F5
310
F5F5F5F5F5F5F5F5F5F5F5F5F5F5F5F5F5F5F5F5F5F5F5F5F5F5F5F5F5F5F5F5F5F5F5F5F5F5F5F5F5F5F5F5F5F5F5F5F5F5F5F5F5F5F5F5F5F5F5F5F5F5F5F5F5F5F5F5F5F5F5F5F5E2F5F5F5E2E2EFF5F5F5E2F5F5F5F5F5F5F5F5F5F5F5F5F5F5F5F5F5F5F5F5F5F5F5F5F5F5F5F5F5F5F5F5F5F5F5F5F5F5F5F5F5F5F5
310
F5F5F5F5F5F5F5F5F5F5F5F5F5F5F5F5F5F5F5F5F5F5F5F5F5F5F5F5F5F5F5F5F5F5F5F5F5F5F5F5F5F5F5F5F5F5F5F5F5F5F5F5F5F5F5F5F5F5F5F5F5F5F5F5F5F5F5F5F5F5F5F5F5F5F5F5F5F5F5F5F5F5F5F5F5F5F5F5F5F5F5F5F5F5F5F5F5F5F5F5F5F5F5F5F5F5F5F5F5F5F5F5F5F5F5F5F5F5F5F5F5F5F5F5F5F5E2
310
F5F5F5E2E2EFF5F5F5E2F5F5F5F5F5F5F5F5F5F5F5F5F5F5F5F5F5F5F5F5F5F5F5F5F5F5F5F5F5F5F5F5F5F5F5F5F5F5F5F5F5F5F5F5F5F5F5F5F5F5F5F5F5F5F5F5F5F5F5F5F5F5F5F5F5F5F5F5F5F5F5F5F5F5F5F5F5F5F5F5F5F5F5F5F5F5F5F5F5F5F5F5F5F5F5F5F5F5F5F5F5F5F5F5F5F5F5F5F5F5F5F5F5F5F5F5F5
310
F5F5F5F5F5F5F5F5F5F5F5F5F5F5F5F5F5F5F5F5F5F5F5F5F5F5F5F5F5F5F5F5F5F5F5F5F5F5F5F5F5F5F5F5F5F5F5F5F5F5F5F5E2F5F5F5E2E2EFF5F5F5E2F5F5F5F5F5F5F5F5F5F5F5F5F5F5F5F5F5F5F5F5F5F5F5F5F5F5F5F5F5F5F5F5F5F5F5F5F5F5F5F5F5F5F5F5F5F5F5F5F5F5F5F5F5F5F5F5F5F5F5F5F5F5F5F5
310
F5F5F5F5F5F5F5F5F5F5F5F5F5F5F5F5F5F5F5F5F5F5F5F5F5F5F5F5F5F5F5F5F5F5F5F5F5F5F5F5F5F5F5F5F5F5F5F5F5F5F5F5F5F5F5F5F5F5F5F5F5F5F5F5F5F5F5F5F5F5F5F5F5F5F5F5F5F5F5F5F5F5F5F5F5F5F5F5F5F5F5F5F5F5F5F5F5F5F5F5F5F5F5F5F5E2F5F5F5E2E2EFF5F5F5E2F5F5F5F5F5F5F5F5F5F5F5
310
F5F5F5F5F5F5F5F5F5F5F5F5F5F5F5F5F5F5F5F5F5F5F5F5F5F5F5F5F5F5F5F5F5F5F5F5F5F5F5F5F5F5F5F5F5F5F5F5F5F5F5F5F5F5F5F5F5F5F5F5F5F5F5F5F5F5F5F5F5F5F5F5F5F5F5F5F5F5F5F5F5F5F5F5F5F5F5F5F5F5F5F5F5F5F5F5F5F5F5F5F5F5F5F5F5F5F5F5F5F5F5F5F5F5F5F5F5F5F5F5F5F5F5F5F5F5F5
310
F5F5F5F5F5F5F5F5F5F5F5F5F5F5F5F5F5F5F5F5F5F5F5F5F5F5F5F5F5F5F5E2F5F5F5E2E2EFF5F5F5E2E2E2E2E2E2E2E2F5F5F5F5F5F5F5F5F5E2E2E2E2E2E2E2E2E2E2E2E2E2E2E2E2F5F5F5F5F5F5F5F5E2E2E2E2E2E2E2E2E2E2E2E2E2E2E2E2F5F5F5F5F5F5F5F5F5E2E2E2E2E2E2E2E2E2E2E2E2E2E2E2F5F5F5F5F5
310
F5F5F5F5E2E2E2E2E2E2E2E2E2E2E2E2E2E2E2F5F5F5F5F5F5F5F5F5E2E2E2E2E2E2E2E2E2E2E2E2E2E2E2E2F5F5F5F5F5F5F5F5E2E2E2E2E2E2E2E2E2E2E2E2E2E2E2E2F5F5F5F5F5F5F5F5F5E2E2E2E2E2E2E2E2F5F5F5E2E2EFF5F5F5F5F5F5F5F5F5F5F5F5F5F5F5F5F5F5F5F5F5F5F5F5F5F5F5F5F5F5F5F5F5F5F5F5
310
F5F5F5F5F5F5F5F5F5F5F5F5F5F5F5F5F5F5F5F5F5F5F5F5F5F5F5F5F5F5F5F5F5F5F5F5F5F5F5F5F5F5F5F5F5F5F5F5F5F5F5F5F5F5F5F5F5F5F5F5F5F5F5F5F5F5F5F5F5F5F5F5F5F5F5F5F5F5F5F5F5F5F5F5F5F5F5F5F5F5F5F5F5F5F5F5F5F5F5F5F5F5F5F5F5F5F5F5F5F5F5F5F5F5F5F5F5F5F5F5F5F5F5F5F5F5F5
310
F5F5F5F5F5F5F5F5F5F5F5F5F5F5E2E2EFF5F5F5F5F5F5F5F5F5F5F5F5F5F5F5F5F5F5F5F5F5F5F5F5F5F5F5F5F5F5F5F5F5F5F5F5F5F5F5F5F5F5F5F5F5F5F5F5F5F5F5F5F5F5F5F5F5F5F5F5F5F5F5F5F5F5F5F5F5F5F5F5F5F5F5F5F5F5F5F5F5F5F5F5F5F5F5F5F5F5F5F5F5F5F5F5F5F5F5F5F5F5F5F5F5F5F5F5F5F5
310
F5F5F5F5F5F5F5F5F5F5F5F5F5F5F5F5F5F5F5F5F5F5F5F5F5F5F5F5F5F5F5F5F5F5F5F5F5F5F5F5F5F5F5F5F5F5F5F5F5F5F5F5F5F5F5F5F5F5F5F5F5F5F5F5F5F5F5E2EFEFF5F5F5F5F5F5F5F5F5F5F5F5F5F5F5F5F5F5F5F5F5F5F5F5F5F5F5F5F5F5F5F5F5F5F5F5F5F5F5F5F5F5F5F5F5F5F5F5F5F5F5F5F5F5F5F5F5
310
F5F5F5F5F5F5F5F5F5F5F5F5F5F5F5F5F5F5F5F5F5F5F5F5F5F5F5F5F5F5F5F5F5F5F5F5F5F5F5F5F5F5F5F5F5F5F5F5F5F5F5F5F5F5F5F5F5F5F5F5F5F5F5F5F5F5F5F5F5F5F5F5F5F5F5F5F5F5F5F5F5F5F5F5F5F5F5F5F5F5F5F5F5F5F5F5F5F5F5F5F5F5F5F5F5F5F5F5F5F5F5F5F5F5F5F5F5F5F5F5E2EFEFE2E2E2E2
310
E2E2E2E2E2E2E2E2E2E2E2E2E2E2E2E2E2E2E2E2E2E2E2E2E2E2E2E2E2E2E2E2E2E2E2E2E2E2E2E2E2E2E2E2E2E2E2E2E2E2E2E2E2E2E2E2E2E2E2E2E2E2E2E2E2E2E2E2E2E2E2E2E2E2E2E2E2E2E2E2E2E2E2E2E2E2E2E2E2E2E2E2E2E2E2E2E2E2E2E2E2E2E2E2E2E2E2E2E2E2E2E2E2E2E2E2E2E2E2E2E2E2E2E2E2E2E2
310
E2E2E2E2E2E2E2E2E2E2E2E2E2E2E2E2E2E2E2E2E2E2E2E2E2E2E2E2E2E2E2E2E2E2E2E2E2E2E2E2E2E2E2E2E2E2E2EFEF
  0
ENDSEC
  0
EOF
