  0
SECTION
  2
HEADER
  9
$ACADVER
  1
AC1018
  9
$ACADMAINTVER
 70
     0
  9
$DWGCODEPAGE
  3
ANSI_1252
  9
$AUTHOR
  1
g6edxjah
  9
$LASTSAVEDBY
  1
g6edxjah
  9
$INSBASE
 10
0.0
 20
0.0
 30
0.0
  9
$EXTMIN
 10
12.043458
 20
-13.081542
 30
0.0
  9
$EXTMAX
 10
20.456542
 20
-1.918458
 30
0.0
  9
$LIMMIN
 10
-11.706709
 20
-35.456709
  9
$LIMMAX
 10
44.206709
 20
20.456709
  9
$ORTHOMODE
 70
     0
  9
$REGENMODE
 70
     1
  9
$FILLMODE
 70
     1
  9
$QTEXTMODE
 70
     0
  9
$MIRRTEXT
 70
     0
  9
$LTSCALE
 40
1.0
  9
$ATTMODE
 70
     1
  9
$TEXTSIZE
 40
0.12
  9
$TRACEWID
 40
0.05
  9
$TEXTSTYLE
  7
Standard
  9
$CLAYER
  8
DEFPOINTS
  9
$CELTYPE
  6
Continuous
  9
$CECOLOR
 62
     7
  9
$CELTSCALE
 40
1.0
  9
$DISPSILH
 70
     0
  9
$DIMSCALE
 40
1.0
  9
$DIMASZ
 40
0.12
  9
$DIMEXO
 40
0.06
  9
$DIMDLI
 40
0.0
  9
$DIMRND
 40
0.0
  9
$DIMDLE
 40
0.0
  9
$DIMEXE
 40
0.06
  9
$DIMTP
 40
0.0
  9
$DIMTM
 40
0.0
  9
$DIMTXT
 40
0.12
  9
$DIMCEN
 40
0.09
  9
$DIMTSZ
 40
0.0
  9
$DIMTOL
 70
     0
  9
$DIMLIM
 70
     0
  9
$DIMTIH
 70
     0
  9
$DIMTOH
 70
     0
  9
$DIMSE1
 70
     0
  9
$DIMSE2
 70
     0
  9
$DIMTAD
 70
     1
  9
$DIMZIN
 70
    11
  9
$DIMBLK
  1
TerminatorOpen_0.5
  9
$DIMASO
 70
     1
  9
$DIMSHO
 70
     1
  9
$DIMPOST
  1

  9
$DIMAPOST
  1

  9
$DIMALT
 70
     0
  9
$DIMALTD
 70
     4
  9
$DIMALTF
 40
25.4
  9
$DIMLFAC
 40
1.0
  9
$DIMTOFL
 70
     0
  9
$DIMTVP
 40
0.0
  9
$DIMTIX
 70
     0
  9
$DIMSOXD
 70
     0
  9
$DIMSAH
 70
     0
  9
$DIMBLK1
  1

  9
$DIMBLK2
  1

  9
$DIMSTYLE
  2
Standard
  9
$DIMCLRD
 70
     0
  9
$DIMCLRE
 70
     0
  9
$DIMCLRT
 70
     0
  9
$DIMTFAC
 40
1.0
  9
$DIMGAP
 40
0.06
  9
$DIMJUST
 70
     0
  9
$DIMSD1
 70
     0
  9
$DIMSD2
 70
     0
  9
$DIMTOLJ
 70
     0
  9
$DIMTZIN
 70
    11
  9
$DIMALTZ
 70
    15
  9
$DIMALTTZ
 70
    15
  9
$DIMUPT
 70
     0
  9
$DIMDEC
 70
     4
  9
$DIMTDEC
 70
     4
  9
$DIMALTU
 70
     2
  9
$DIMALTTD
 70
     4
  9
$DIMTXSTY
  7
Style-Arial
  9
$DIMAUNIT
 70
     0
  9
$DIMADEC
 70
     4
  9
$DIMALTRND
 40
0.0
  9
$DIMAZIN
 70
     3
  9
$DIMDSEP
 70
    46
  9
$DIMATFIT
 70
     1
  9
$DIMFRAC
 70
     0
  9
$DIMLDRBLK
  1
TerminatorOpen_0.5
  9
$DIMLUNIT
 70
     2
  9
$DIMLWD
 70
    -2
  9
$DIMLWE
 70
    -2
  9
$DIMTMOVE
 70
     0
  9
$LUNITS
 70
     2
  9
$LUPREC
 70
     4
  9
$SKETCHINC
 40
0.1
  9
$FILLETRAD
 40
0.0
  9
$AUNITS
 70
     0
  9
$AUPREC
 70
     4
  9
$MENU
  1
.
  9
$ELEVATION
 40
0.0
  9
$PELEVATION
 40
0.0
  9
$THICKNESS
 40
0.0
  9
$LIMCHECK
 70
     0
  9
$CHAMFERA
 40
0.0
  9
$CHAMFERB
 40
0.0
  9
$CHAMFERC
 40
0.0
  9
$CHAMFERD
 40
0.0
  9
$SKPOLY
 70
     0
  9
$TDCREATE
 40
2455372.372501412
  9
$TDUCREATE
 40
2455372.580834745
  9
$TDUPDATE
 40
2455372.372501412
  9
$TDUUPDATE
 40
2455372.580834745
  9
$TDINDWG
 40
0.0
  9
$TDUSRTIMER
 40
0.0006630093
  9
$USRTIMER
 70
     1
  9
$ANGBASE
 50
0.0
  9
$ANGDIR
 70
     0
  9
$PDMODE
 70
     0
  9
$PDSIZE
 40
0.0
  9
$PLINEWID
 40
0.0
  9
$SPLFRAME
 70
     0
  9
$SPLINETYPE
 70
     6
  9
$SPLINESEGS
 70
     8
  9
$HANDSEED
  5
37C
  9
$SURFTAB1
 70
     6
  9
$SURFTAB2
 70
     6
  9
$SURFTYPE
 70
     6
  9
$SURFU
 70
     6
  9
$SURFV
 70
     6
  9
$UCSBASE
  2

  9
$UCSNAME
  2

  9
$UCSORG
 10
0.0
 20
0.0
 30
0.0
  9
$UCSXDIR
 10
1.0
 20
0.0
 30
0.0
  9
$UCSYDIR
 10
0.0
 20
1.0
 30
0.0
  9
$UCSORTHOREF
  2

  9
$UCSORTHOVIEW
 70
     0
  9
$UCSORGTOP
 10
0.0
 20
0.0
 30
0.0
  9
$UCSORGBOTTOM
 10
0.0
 20
0.0
 30
0.0
  9
$UCSORGLEFT
 10
0.0
 20
0.0
 30
0.0
  9
$UCSORGRIGHT
 10
0.0
 20
0.0
 30
0.0
  9
$UCSORGFRONT
 10
0.0
 20
0.0
 30
0.0
  9
$UCSORGBACK
 10
0.0
 20
0.0
 30
0.0
  9
$PUCSBASE
  2

  9
$PUCSNAME
  2

  9
$PUCSORG
 10
0.0
 20
0.0
 30
0.0
  9
$PUCSXDIR
 10
1.0
 20
0.0
 30
0.0
  9
$PUCSYDIR
 10
0.0
 20
1.0
 30
0.0
  9
$PUCSORTHOREF
  2

  9
$PUCSORTHOVIEW
 70
     0
  9
$PUCSORGTOP
 10
0.0
 20
0.0
 30
0.0
  9
$PUCSORGBOTTOM
 10
0.0
 20
0.0
 30
0.0
  9
$PUCSORGLEFT
 10
0.0
 20
0.0
 30
0.0
  9
$PUCSORGRIGHT
 10
0.0
 20
0.0
 30
0.0
  9
$PUCSORGFRONT
 10
0.0
 20
0.0
 30
0.0
  9
$PUCSORGBACK
 10
0.0
 20
0.0
 30
0.0
  9
$USERI1
 70
     0
  9
$USERI2
 70
     0
  9
$USERI3
 70
     0
  9
$USERI4
 70
     0
  9
$USERI5
 70
     0
  9
$USERR1
 40
0.0
  9
$USERR2
 40
0.0
  9
$USERR3
 40
0.0
  9
$USERR4
 40
0.0
  9
$USERR5
 40
0.0
  9
$WORLDVIEW
 70
     1
  9
$SHADEDGE
 70
     3
  9
$SHADEDIF
 70
    70
  9
$TILEMODE
 70
     1
  9
$MAXACTVP
 70
    64
  9
$PINSBASE
 10
0.0
 20
0.0
 30
0.0
  9
$PLIMCHECK
 70
     0
  9
$PEXTMIN
 10
1.049744
 20
0.799667
 30
-0.001526
  9
$PEXTMAX
 10
9.450623
 20
7.200577
 30
0.0
  9
$PLIMMIN
 10
-0.25
 20
-0.25
  9
$PLIMMAX
 10
10.75
 20
8.25
  9
$UNITMODE
 70
     0
  9
$VISRETAIN
 70
     1
  9
$PLINEGEN
 70
     0
  9
$PSLTSCALE
 70
     0
  9
$TREEDEPTH
 70
  3020
  9
$CMLSTYLE
  2
Standard
  9
$CMLJUST
 70
     0
  9
$CMLSCALE
 40
1.0
  9
$PROXYGRAPHICS
 70
     1
  9
$MEASUREMENT
 70
     0
  9
$CELWEIGHT
370
    53
  9
$ENDCAPS
280
     0
  9
$JOINSTYLE
280
     0
  9
$LWDISPLAY
290
     1
  9
$INSUNITS
 70
     2
  9
$HYPERLINKBASE
  1

  9
$STYLESHEET
  1

  9
$XEDIT
290
     1
  9
$CEPSNTYPE
380
     0
  9
$PSTYLEMODE
290
     1
  9
$FINGERPRINTGUID
  2
{02C0BBB5-38A7-4FBF-829E-00875EC88963}
  9
$VERSIONGUID
  2
{82C521FC-BF81-46B3-825E-420B6BD93A99}
  9
$EXTNAMES
290
     1
  9
$PSVPSCALE
 40
0.0
  9
$OLESTARTUP
290
     0
  9
$SORTENTS
280
   127
  9
$INDEXCTL
280
     0
  9
$HIDETEXT
280
     1
  9
$XCLIPFRAME
290
     0
  9
$HALOGAP
280
     0
  9
$OBSCOLOR
 70
   257
  9
$OBSLTYPE
280
     0
  9
$INTERSECTIONDISPLAY
280
     0
  9
$INTERSECTIONCOLOR
 70
   257
  9
$DIMASSOC
280
     1
  9
$PROJECTNAME
  1

  0
ENDSEC
  0
SECTION
  2
CLASSES
  0
CLASS
  1
ACDBDICTIONARYWDFLT
  2
AcDbDictionaryWithDefault
  3
ObjectDBX Classes
 90
        0
 91
        3
280
     0
281
     0
  0
CLASS
  1
SORTENTSTABLE
  2
AcDbSortentsTable
  3
ObjectDBX Classes
 90
        0
 91
        3
280
     0
281
     0
  0
ENDSEC
  0
SECTION
  2
TABLES
  0
TABLE
  2
VPORT
  5
35D
330
0
100
AcDbSymbolTable
 70
     4
  0
VPORT
  5
49
330
35D
100
AcDbSymbolTableRecord
100
AcDbViewportTableRecord
  2
*ACTIVE
 70
     0
 10
0.0
 20
0.0
 11
1.0
 21
1.0
 12
16.25
 22
-7.5
 13
0.0
 23
0.0
 14
0.083333
 24
0.083333
 15
0.083333
 25
0.083333
 16
0.0
 26
0.0
 36
1.0
 17
0.0
 27
0.0
 37
0.0
 40
11.609607
 41
1.755882
 42
50.0
 43
0.0
 44
0.0
 50
0.0
 51
0.0
 71
     0
 72
   100
 73
     1
 74
     2
 75
     0
 76
     0
 77
     0
 78
     1
281
     0
 65
     1
110
0.0
120
0.0
130
0.0
111
1.0
121
0.0
131
0.0
112
0.0
122
1.0
132
0.0
 79
     0
146
0.0
  0
ENDTAB
  0
TABLE
  2
LTYPE
  5
344
330
0
100
AcDbSymbolTable
 70
     1
  0
LTYPE
  5
345
330
344
100
AcDbSymbolTableRecord
100
AcDbLinetypeTableRecord
  2
ByBlock
 70
     0
  3

 72
    65
 73
     0
 40
0.0
  0
LTYPE
  5
346
330
344
100
AcDbSymbolTableRecord
100
AcDbLinetypeTableRecord
  2
ByLayer
 70
     0
  3

 72
    65
 73
     0
 40
0.0
  0
LTYPE
  5
343
330
344
100
AcDbSymbolTableRecord
100
AcDbLinetypeTableRecord
  2
Continuous
 70
     0
  3
Solid line
 72
    65
 73
     0
 40
0.0
  0
ENDTAB
  0
TABLE
  2
LAYER
  5
33D
102
{ACAD_XDICTIONARY
360
33E
102
}
330
0
100
AcDbSymbolTable
 70
    64
  0
LAYER
  5
33C
330
33D
100
AcDbSymbolTableRecord
100
AcDbLayerTableRecord
  2
0
 70
     0
 62
     7
  6
Continuous
370
    -3
390
340
  0
LAYER
  5
7
330
33D
100
AcDbSymbolTableRecord
100
AcDbLayerTableRecord
  2
Level 1
 70
     0
 62
     7
  6
Continuous
370
     0
390
340
  0
LAYER
  5
8
330
33D
100
AcDbSymbolTableRecord
100
AcDbLayerTableRecord
  2
2-33A
 70
     0
 62
     7
  6
Continuous
370
     0
390
340
1001
AcAecLayerStandard
1000

1000
2-33A
  0
LAYER
  5
9
330
33D
100
AcDbSymbolTableRecord
100
AcDbLayerTableRecord
  2
BORDER
 70
     0
 62
     7
  6
Continuous
370
     0
390
340
1001
AcAecLayerStandard
1000

1000
BORDER
  0
LAYER
  5
A
330
33D
100
AcDbSymbolTableRecord
100
AcDbLayerTableRecord
  2
DEFPOINTS
 70
     0
 62
     7
  6
Continuous
290
     0
370
     0
390
340
1001
AcAecLayerStandard
1000

1000
DEFPOINTS
  0
LAYER
  5
B
330
33D
100
AcDbSymbolTableRecord
100
AcDbLayerTableRecord
  2
DIM
 70
     0
 62
     7
  6
Continuous
370
     0
390
340
1001
AcAecLayerStandard
1000

1000
DIM
  0
LAYER
  5
C
330
33D
100
AcDbSymbolTableRecord
100
AcDbLayerTableRecord
  2
HATCH
 70
     0
 62
     7
  6
Continuous
370
     0
390
340
1001
AcAecLayerStandard
1000

1000
HATCH
  0
LAYER
  5
D
330
33D
100
AcDbSymbolTableRecord
100
AcDbLayerTableRecord
  2
LEGEND
 70
     0
 62
     7
  6
Continuous
370
     0
390
340
1001
AcAecLayerStandard
1000

1000
LEGEND
  0
LAYER
  5
E
330
33D
100
AcDbSymbolTableRecord
100
AcDbLayerTableRecord
  2
NOTES
 70
     0
 62
     7
  6
Continuous
370
     0
390
340
1001
AcAecLayerStandard
1000

1000
NOTES
  0
LAYER
  5
F
330
33D
100
AcDbSymbolTableRecord
100
AcDbLayerTableRecord
  2
REF
 70
     0
 62
     7
  6
Continuous
370
     0
390
340
1001
AcAecLayerStandard
1000

1000
REF
  0
LAYER
  5
10
330
33D
100
AcDbSymbolTableRecord
100
AcDbLayerTableRecord
  2
TEXT
 70
     0
 62
     7
  6
Continuous
370
     0
390
340
1001
AcAecLayerStandard
1000

1000
TEXT
  0
LAYER
  5
11
330
33D
100
AcDbSymbolTableRecord
100
AcDbLayerTableRecord
  2
TITLE
 70
     0
 62
     7
  6
Continuous
370
     0
390
340
1001
AcAecLayerStandard
1000

1000
TITLE
  0
LAYER
  5
12
330
33D
100
AcDbSymbolTableRecord
100
AcDbLayerTableRecord
  2
Level 12
 70
     0
 62
     7
  6
Continuous
370
     0
390
340
  0
LAYER
  5
13
330
33D
100
AcDbSymbolTableRecord
100
AcDbLayerTableRecord
  2
Level 13
 70
     0
 62
     7
  6
Continuous
370
     0
390
340
  0
LAYER
  5
14
330
33D
100
AcDbSymbolTableRecord
100
AcDbLayerTableRecord
  2
Level 14
 70
     0
 62
     7
  6
Continuous
370
     0
390
340
  0
LAYER
  5
15
330
33D
100
AcDbSymbolTableRecord
100
AcDbLayerTableRecord
  2
Level 15
 70
     0
 62
     7
  6
Continuous
370
     0
390
340
  0
LAYER
  5
16
330
33D
100
AcDbSymbolTableRecord
100
AcDbLayerTableRecord
  2
Level 16
 70
     0
 62
     7
  6
Continuous
370
     0
390
340
  0
LAYER
  5
17
330
33D
100
AcDbSymbolTableRecord
100
AcDbLayerTableRecord
  2
Level 17
 70
     0
 62
     7
  6
Continuous
370
     0
390
340
  0
LAYER
  5
18
330
33D
100
AcDbSymbolTableRecord
100
AcDbLayerTableRecord
  2
Level 18
 70
     0
 62
     7
  6
Continuous
370
     0
390
340
  0
LAYER
  5
19
330
33D
100
AcDbSymbolTableRecord
100
AcDbLayerTableRecord
  2
Level 19
 70
     0
 62
     7
  6
Continuous
370
     0
390
340
  0
LAYER
  5
1A
330
33D
100
AcDbSymbolTableRecord
100
AcDbLayerTableRecord
  2
Level 20
 70
     0
 62
     7
  6
Continuous
370
     0
390
340
  0
LAYER
  5
1B
330
33D
100
AcDbSymbolTableRecord
100
AcDbLayerTableRecord
  2
Level 21
 70
     0
 62
     7
  6
Continuous
370
     0
390
340
  0
LAYER
  5
1C
330
33D
100
AcDbSymbolTableRecord
100
AcDbLayerTableRecord
  2
Level 22
 70
     0
 62
     7
  6
Continuous
370
     0
390
340
  0
LAYER
  5
1D
330
33D
100
AcDbSymbolTableRecord
100
AcDbLayerTableRecord
  2
Level 23
 70
     0
 62
     7
  6
Continuous
370
     0
390
340
  0
LAYER
  5
1E
330
33D
100
AcDbSymbolTableRecord
100
AcDbLayerTableRecord
  2
Level 24
 70
     0
 62
     7
  6
Continuous
370
     0
390
340
  0
LAYER
  5
1F
330
33D
100
AcDbSymbolTableRecord
100
AcDbLayerTableRecord
  2
Level 25
 70
     0
 62
     7
  6
Continuous
370
     0
390
340
  0
LAYER
  5
20
330
33D
100
AcDbSymbolTableRecord
100
AcDbLayerTableRecord
  2
Level 26
 70
     0
 62
     7
  6
Continuous
370
     0
390
340
  0
LAYER
  5
21
330
33D
100
AcDbSymbolTableRecord
100
AcDbLayerTableRecord
  2
Level 27
 70
     0
 62
     7
  6
Continuous
370
     0
390
340
  0
LAYER
  5
22
330
33D
100
AcDbSymbolTableRecord
100
AcDbLayerTableRecord
  2
Level 28
 70
     0
 62
     7
  6
Continuous
370
     0
390
340
  0
LAYER
  5
23
330
33D
100
AcDbSymbolTableRecord
100
AcDbLayerTableRecord
  2
Level 29
 70
     0
 62
     7
  6
Continuous
370
     0
390
340
  0
LAYER
  5
24
330
33D
100
AcDbSymbolTableRecord
100
AcDbLayerTableRecord
  2
Level 30
 70
     0
 62
     7
  6
Continuous
370
     0
390
340
  0
LAYER
  5
25
330
33D
100
AcDbSymbolTableRecord
100
AcDbLayerTableRecord
  2
Level 31
 70
     0
 62
     7
  6
Continuous
370
     0
390
340
  0
LAYER
  5
26
330
33D
100
AcDbSymbolTableRecord
100
AcDbLayerTableRecord
  2
Level 32
 70
     0
 62
     7
  6
Continuous
370
     0
390
340
  0
LAYER
  5
27
330
33D
100
AcDbSymbolTableRecord
100
AcDbLayerTableRecord
  2
Level 33
 70
     0
 62
     7
  6
Continuous
370
     0
390
340
  0
LAYER
  5
28
330
33D
100
AcDbSymbolTableRecord
100
AcDbLayerTableRecord
  2
Level 34
 70
     0
 62
     7
  6
Continuous
370
     0
390
340
  0
LAYER
  5
29
330
33D
100
AcDbSymbolTableRecord
100
AcDbLayerTableRecord
  2
Level 35
 70
     0
 62
     7
  6
Continuous
370
     0
390
340
  0
LAYER
  5
2A
330
33D
100
AcDbSymbolTableRecord
100
AcDbLayerTableRecord
  2
Level 36
 70
     0
 62
     7
  6
Continuous
370
     0
390
340
  0
LAYER
  5
2B
330
33D
100
AcDbSymbolTableRecord
100
AcDbLayerTableRecord
  2
Level 37
 70
     0
 62
     7
  6
Continuous
370
     0
390
340
  0
LAYER
  5
2C
330
33D
100
AcDbSymbolTableRecord
100
AcDbLayerTableRecord
  2
Level 38
 70
     0
 62
     7
  6
Continuous
370
     0
390
340
  0
LAYER
  5
2D
330
33D
100
AcDbSymbolTableRecord
100
AcDbLayerTableRecord
  2
Level 39
 70
     0
 62
     7
  6
Continuous
370
     0
390
340
  0
LAYER
  5
2E
330
33D
100
AcDbSymbolTableRecord
100
AcDbLayerTableRecord
  2
Level 40
 70
     0
 62
     7
  6
Continuous
370
     0
390
340
  0
LAYER
  5
2F
330
33D
100
AcDbSymbolTableRecord
100
AcDbLayerTableRecord
  2
Level 41
 70
     0
 62
     7
  6
Continuous
370
     0
390
340
  0
LAYER
  5
30
330
33D
100
AcDbSymbolTableRecord
100
AcDbLayerTableRecord
  2
Level 42
 70
     0
 62
     7
  6
Continuous
370
     0
390
340
  0
LAYER
  5
31
330
33D
100
AcDbSymbolTableRecord
100
AcDbLayerTableRecord
  2
Level 43
 70
     0
 62
     7
  6
Continuous
370
     0
390
340
  0
LAYER
  5
32
330
33D
100
AcDbSymbolTableRecord
100
AcDbLayerTableRecord
  2
Level 44
 70
     0
 62
     7
  6
Continuous
370
     0
390
340
  0
LAYER
  5
33
330
33D
100
AcDbSymbolTableRecord
100
AcDbLayerTableRecord
  2
Level 45
 70
     0
 62
     7
  6
Continuous
370
     0
390
340
  0
LAYER
  5
34
330
33D
100
AcDbSymbolTableRecord
100
AcDbLayerTableRecord
  2
Level 46
 70
     0
 62
     7
  6
Continuous
370
     0
390
340
  0
LAYER
  5
35
330
33D
100
AcDbSymbolTableRecord
100
AcDbLayerTableRecord
  2
Level 47
 70
     0
 62
     7
  6
Continuous
370
     0
390
340
  0
LAYER
  5
36
330
33D
100
AcDbSymbolTableRecord
100
AcDbLayerTableRecord
  2
Level 48
 70
     0
 62
     7
  6
Continuous
370
     0
390
340
  0
LAYER
  5
37
330
33D
100
AcDbSymbolTableRecord
100
AcDbLayerTableRecord
  2
Level 49
 70
     0
 62
     7
  6
Continuous
370
     0
390
340
  0
LAYER
  5
38
330
33D
100
AcDbSymbolTableRecord
100
AcDbLayerTableRecord
  2
Level 50
 70
     0
 62
     7
  6
Continuous
370
     0
390
340
  0
LAYER
  5
39
330
33D
100
AcDbSymbolTableRecord
100
AcDbLayerTableRecord
  2
Level 51
 70
     0
 62
     7
  6
Continuous
370
     0
390
340
  0
LAYER
  5
3A
330
33D
100
AcDbSymbolTableRecord
100
AcDbLayerTableRecord
  2
Level 52
 70
     0
 62
     7
  6
Continuous
370
     0
390
340
  0
LAYER
  5
3B
330
33D
100
AcDbSymbolTableRecord
100
AcDbLayerTableRecord
  2
Level 53
 70
     0
 62
     7
  6
Continuous
370
     0
390
340
  0
LAYER
  5
3C
330
33D
100
AcDbSymbolTableRecord
100
AcDbLayerTableRecord
  2
Level 54
 70
     0
 62
     7
  6
Continuous
370
     0
390
340
  0
LAYER
  5
3D
330
33D
100
AcDbSymbolTableRecord
100
AcDbLayerTableRecord
  2
Level 55
 70
     0
 62
     7
  6
Continuous
370
     0
390
340
  0
LAYER
  5
3E
330
33D
100
AcDbSymbolTableRecord
100
AcDbLayerTableRecord
  2
Level 56
 70
     0
 62
     7
  6
Continuous
370
     0
390
340
  0
LAYER
  5
3F
330
33D
100
AcDbSymbolTableRecord
100
AcDbLayerTableRecord
  2
Level 57
 70
     0
 62
     7
  6
Continuous
370
     0
390
340
  0
LAYER
  5
40
330
33D
100
AcDbSymbolTableRecord
100
AcDbLayerTableRecord
  2
Level 58
 70
     0
 62
     7
  6
Continuous
370
     0
390
340
  0
LAYER
  5
41
330
33D
100
AcDbSymbolTableRecord
100
AcDbLayerTableRecord
  2
Level 59
 70
     0
 62
     7
  6
Continuous
370
     0
390
340
  0
LAYER
  5
42
330
33D
100
AcDbSymbolTableRecord
100
AcDbLayerTableRecord
  2
Level 60
 70
     0
 62
     7
  6
Continuous
370
     0
390
340
  0
LAYER
  5
43
330
33D
100
AcDbSymbolTableRecord
100
AcDbLayerTableRecord
  2
Level 61
 70
     0
 62
     7
  6
Continuous
370
     0
390
340
  0
LAYER
  5
44
330
33D
100
AcDbSymbolTableRecord
100
AcDbLayerTableRecord
  2
Level 62
 70
     0
 62
     7
  6
Continuous
370
     0
390
340
  0
LAYER
  5
45
330
33D
100
AcDbSymbolTableRecord
100
AcDbLayerTableRecord
  2
_0
 70
     0
 62
     7
  6
Continuous
370
     0
390
340
1001
AcAecLayerStandard
1000

1000
0
  0
ENDTAB
  0
TABLE
  2
STYLE
  5
348
330
0
100
AcDbSymbolTable
 70
     2
  0
STYLE
  5
347
330
348
100
AcDbSymbolTableRecord
100
AcDbTextStyleTableRecord
  2
Standard
 70
     0
 40
0.0
 41
1.0
 50
0.0
 71
     0
 42
0.12
  3
txt
  4

  0
STYLE
  5
367
330
348
100
AcDbSymbolTableRecord
100
AcDbTextStyleTableRecord
  2
Style-Arial
 70
     0
 40
0.0
 41
1.0
 50
0.0
 71
     0
 42
0.2
  3

  4

1001
ACAD
1000
Arial
1071
       39
  0
ENDTAB
  0
TABLE
  2
VIEW
  5
35B
330
0
100
AcDbSymbolTable
 70
     0
  0
ENDTAB
  0
TABLE
  2
UCS
  5
35C
330
0
100
AcDbSymbolTable
 70
     0
  0
ENDTAB
  0
TABLE
  2
APPID
  5
35A
330
0
100
AcDbSymbolTable
 70
     3
  0
APPID
  5
362
330
35A
100
AcDbSymbolTableRecord
100
AcDbRegAppTableRecord
  2
ACAD
 70
     0
  0
APPID
  5
359
330
35A
100
AcDbSymbolTableRecord
100
AcDbRegAppTableRecord
  2
ACAD_PSEXT
 70
     0
  0
APPID
  5
364
330
35A
100
AcDbSymbolTableRecord
100
AcDbRegAppTableRecord
  2
AcAecLayerStandard
 70
     0
  0
ENDTAB
  0
TABLE
  2
DIMSTYLE
  5
34A
330
0
100
AcDbSymbolTable
 70
     1
100
AcDbDimStyleTable
  0
DIMSTYLE
105
349
330
34A
100
AcDbSymbolTableRecord
100
AcDbDimStyleTableRecord
  2
Standard
 70
     0
340
347
  0
ENDTAB
  0
TABLE
  2
BLOCK_RECORD
  5
34D
330
0
100
AcDbSymbolTable
 70
     3
  0
BLOCK_RECORD
  5
34E
102
{ACAD_XDICTIONARY
360
377
102
}
330
34D
100
AcDbSymbolTableRecord
100
AcDbBlockTableRecord
  2
*Model_Space
340
351
  0
BLOCK_RECORD
  5
353
330
34D
100
AcDbSymbolTableRecord
100
AcDbBlockTableRecord
  2
*Paper_Space
340
356
  0
BLOCK_RECORD
  5
368
330
34D
100
AcDbSymbolTableRecord
100
AcDbBlockTableRecord
  2
TerminatorOpen_0.5
340
0
  0
BLOCK_RECORD
  5
371
330
34D
100
AcDbSymbolTableRecord
100
AcDbBlockTableRecord
  2
LARROW
340
0
102
{BLKREFS
331
1B1
331
1B3
331
1B5
331
1B7
331
1B9
331
1BB
331
1BD
331
1BF
331
1C1
331
1C3
331
1C5
331
1C7
331
1C9
331
1CB
331
1CD
331
1CF
331
1D1
331
1D3
331
1D5
102
}
  0
BLOCK_RECORD
  5
374
330
34D
100
AcDbSymbolTableRecord
100
AcDbBlockTableRecord
  2
LARROW_1
340
0
102
{BLKREFS
331
284
331
28F
331
29B
331
2A6
331
2B1
331
2BC
331
2C7
331
2D2
331
2DD
102
}
  0
ENDTAB
  0
ENDSEC
  0
SECTION
  2
BLOCKS
  0
BLOCK
  5
34F
330
34E
100
AcDbEntity
  8
0
100
AcDbBlockBegin
  2
*Model_Space
 70
     0
 71
     0
 10
0.0
 20
0.0
 30
0.0
  3
*Model_Space
  1

  0
ENDBLK
  5
350
330
34E
100
AcDbEntity
  8
0
100
AcDbBlockEnd
  0
BLOCK
  5
354
330
353
100
AcDbEntity
 67
     1
  8
0
100
AcDbBlockBegin
  2
*Paper_Space
 70
     0
 71
     0
 10
0.0
 20
0.0
 30
0.0
  3
*Paper_Space
  1

  0
ENDBLK
  5
355
330
353
100
AcDbEntity
 67
     1
  8
0
100
AcDbBlockEnd
  0
BLOCK
  5
36C
330
368
100
AcDbEntity
  8
0
100
AcDbBlockBegin
  2
TerminatorOpen_0.5
 70
     0
 71
     0
 10
0.0
 20
0.0
 30
0.0
  3
TerminatorOpen_0.5
  1

  0
LINE
  5
369
330
368
100
AcDbEntity
  8
0
  6
ByBlock
 62
     0
370
    -2
100
AcDbLine
 10
0.0
 20
0.0
 30
0.0
 11
-1.0
 21
0.0
 31
0.0
  0
LINE
  5
36A
330
368
100
AcDbEntity
  8
0
  6
ByBlock
 62
     0
370
    -2
100
AcDbLine
 10
0.0
 20
0.0
 30
0.0
 11
-1.0
 21
0.25
 31
0.0
  0
LINE
  5
36B
330
368
100
AcDbEntity
  8
0
  6
ByBlock
 62
     0
370
    -2
100
AcDbLine
 10
0.0
 20
0.0
 30
0.0
 11
-1.0
 21
-0.25
 31
0.0
  0
ENDBLK
  5
36D
330
368
100
AcDbEntity
  8
0
100
AcDbBlockEnd
  0
BLOCK
  5
372
330
371
100
AcDbEntity
  8
0
100
AcDbBlockBegin
  2
LARROW
 70
     0
 71
     0
 10
0.0
 20
0.0
 30
0.0
  3
LARROW
  1

  0
LWPOLYLINE
  5
1B2
330
371
100
AcDbEntity
  8
DIM
  6
Continuous
 62
     7
370
    13
100
AcDbPolyline
 90
       63
 70
   128
 43
0.0
 10
-0.013031
 20
0.001886
 10
0.0
 20
0.0
 10
-0.01302
 20
-0.001885
 10
-0.012615
 20
-0.001573
 10
-0.012042
 20
-0.00101
 10
-0.011761
 20
-0.000489
 10
-0.011687
 20
0.0
 10
-0.011791
 20
0.000552
 10
-0.012094
 20
0.001094
 10
-0.012677
 20
0.001625
 10
-0.013031
 20
0.001886
 10
-0.000385
 20
0.000021
 10
-0.012604
 20
-0.00176
 10
-0.012229
 20
-0.001479
 10
-0.011625
 20
-0.000906
 10
-0.011427
 20
-0.000167
 10
-0.011563
 20
0.000573
 10
-0.011917
 20
0.001084
 10
-0.012344
 20
0.0015
 10
-0.012635
 20
0.001729
 10
-0.001073
 20
0.000021
 10
-0.012052
 20
-0.001552
 10
-0.011667
 20
-0.001302
 10
-0.011469
 20
-0.000979
 10
-0.01125
 20
-0.000562
 10
-0.011135
 20
0.000021
 10
-0.011198
 20
0.0005
 10
-0.011427
 20
0.000875
 10
-0.011896
 20
0.001177
 10
-0.012208
 20
0.001542
 10
-0.001875
 20
0.00002
 10
-0.011448
 20
-0.001323
 10
-0.011021
 20
-0.000791
 10
-0.010896
 20
-0.000146
 10
-0.010958
 20
0.000573
 10
-0.011781
 20
0.001354
 10
-0.002771
 20
0.000063
 10
-0.010896
 20
-0.001073
 10
-0.010781
 20
-0.000698
 10
-0.010531
 20
-0.000094
 10
-0.010687
 20
0.000552
 10
-0.011333
 20
0.001125
 10
-0.003594
 20
0.000062
 10
-0.010604
 20
-0.000833
 10
-0.010375
 20
-0.000375
 10
-0.010271
 20
0.000115
 10
-0.01076
 20
0.000875
 10
-0.004573
 20
0.000062
 10
-0.010177
 20
-0.000625
 10
-0.010021
 20
-0.000281
 10
-0.009979
 20
0.000114
 10
-0.010375
 20
0.000667
 10
-0.00574
 20
0.000063
 10
-0.009823
 20
-0.000396
 10
-0.009709
 20
0.000135
 10
-0.010083
 20
0.000458
 10
-0.006698
 20
0.000063
 10
-0.009552
 20
-0.00024
 10
-0.009614
 20
0.000271
 10
-0.007677
 20
0.000063
 10
-0.009438
 20
-0.000073
 10
-0.009489
 20
0.000083
 10
-0.008886
 20
0.000083
  0
ENDBLK
  5
373
330
371
100
AcDbEntity
  8
0
100
AcDbBlockEnd
  0
BLOCK
  5
375
330
374
100
AcDbEntity
  8
0
100
AcDbBlockBegin
  2
LARROW_1
 70
     0
 71
     0
 10
0.0
 20
0.0
 30
0.0
  3
LARROW_1
  1

  0
LINE
  5
285
330
374
100
AcDbEntity
  8
LEGEND
  6
Continuous
 62
     7
370
    13
100
AcDbLine
 10
0.0
 20
0.0
 30
0.0
 11
-0.013031
 21
0.001885
 31
0.0
  0
LINE
  5
286
330
374
100
AcDbEntity
  8
LEGEND
  6
Continuous
 62
     7
370
    13
100
AcDbLine
 10
0.0
 20
0.0
 30
0.0
 11
-0.013021
 21
-0.001885
 31
0.0
  0
LWPOLYLINE
  5
287
330
374
100
AcDbEntity
  8
LEGEND
  6
Continuous
 62
     7
370
    13
100
AcDbPolyline
 90
        9
 70
   128
 43
0.0
 10
-0.013031
 20
0.001885
 10
-0.01225
 20
0.001292
 10
-0.011896
 20
0.000812
 10
-0.011719
 20
0.000365
 10
-0.011688
 20
-0.000052
 10
-0.01175
 20
-0.000458
 10
-0.011958
 20
-0.000896
 10
-0.012323
 20
-0.001354
 10
-0.013021
 20
-0.001885
  0
LINE
  5
288
330
374
100
AcDbEntity
  8
LEGEND
  6
Continuous
 62
     7
370
    13
100
AcDbLine
 10
0.0
 20
0.0
 30
0.0
 11
-0.01225
 21
0.001292
 31
0.0
  0
LINE
  5
289
330
374
100
AcDbEntity
  8
LEGEND
  6
Continuous
 62
     7
370
    13
100
AcDbLine
 10
0.0
 20
0.0
 30
0.0
 11
-0.011896
 21
0.000812
 31
0.0
  0
LINE
  5
28A
330
374
100
AcDbEntity
  8
LEGEND
  6
Continuous
 62
     7
370
    13
100
AcDbLine
 10
0.0
 20
0.0
 30
0.0
 11
-0.011719
 21
0.000365
 31
0.0
  0
LINE
  5
28B
330
374
100
AcDbEntity
  8
LEGEND
  6
Continuous
 62
     7
370
    13
100
AcDbLine
 10
0.0
 20
0.0
 30
0.0
 11
-0.01175
 21
-0.000458
 31
0.0
  0
LINE
  5
28C
330
374
100
AcDbEntity
  8
LEGEND
  6
Continuous
 62
     7
370
    13
100
AcDbLine
 10
0.0
 20
0.0
 30
0.0
 11
-0.011958
 21
-0.000896
 31
0.0
  0
LINE
  5
28D
330
374
100
AcDbEntity
  8
LEGEND
  6
Continuous
 62
     7
370
    13
100
AcDbLine
 10
0.0
 20
0.0
 30
0.0
 11
-0.012323
 21
-0.001354
 31
0.0
  0
LINE
  5
28E
330
374
100
AcDbEntity
  8
LEGEND
  6
Continuous
 62
     7
370
    13
100
AcDbLine
 10
0.0
 20
0.0
 30
0.0
 11
-0.011677
 21
0.0
 31
0.0
  0
ENDBLK
  5
376
330
374
100
AcDbEntity
  8
0
100
AcDbBlockEnd
  0
ENDSEC
  0
SECTION
  2
ENTITIES
  0
POINT
  5
5B
330
34E
100
AcDbEntity
  8
2-33A
  6
Continuous
 62
     7
370
    30
100
AcDbPoint
 10
12.625
 20
-12.013094
 30
0.0
  0
LINE
  5
5C
330
34E
100
AcDbEntity
  8
2-33A
  6
Continuous
 62
     7
370
    30
100
AcDbLine
 10
12.625
 20
-12.013094
 30
0.0
 11
19.875
 21
-12.013094
 31
0.0
  0
ARC
  5
5D
330
34E
100
AcDbEntity
  8
_0
  6
Continuous
 62
     7
370
    30
100
AcDbCircle
 10
17.043548
 20
-10.296775
 30
0.0
 40
0.1587499999999998
100
AcDbArc
 50
180.0
 51
338.259878
  0
LINE
  5
60
330
34E
100
AcDbEntity
  8
2-33A
  6
Continuous
 62
     7
370
    30
100
AcDbLine
 10
12.625
 20
-11.513094
 30
0.0
 11
19.875
 21
-11.513094
 31
0.0
  0
LINE
  5
65
330
34E
100
AcDbEntity
  8
2-33A
  6
Continuous
 62
     7
370
    30
100
AcDbLine
 10
17.675
 20
-12.013094
 30
0.0
 11
17.675
 21
-11.513094
 31
0.0
  0
LINE
  5
66
330
34E
100
AcDbEntity
  8
2-33A
  6
Continuous
 62
     7
370
    30
100
AcDbLine
 10
18.775
 20
-12.013094
 30
0.0
 11
18.775
 21
-11.513094
 31
0.0
  0
LINE
  5
67
330
34E
100
AcDbEntity
  8
2-33A
  6
Continuous
 62
     7
370
    30
100
AcDbLine
 10
12.625
 20
-12.013094
 30
0.0
 11
12.625
 21
-2.913094
 31
0.0
  0
LINE
  5
68
330
34E
100
AcDbEntity
  8
2-33A
  6
Continuous
 62
     7
370
    30
100
AcDbLine
 10
12.625
 20
-2.913094
 30
0.0
 11
19.875
 21
-2.913094
 31
0.0
  0
LINE
  5
69
330
34E
100
AcDbEntity
  8
2-33A
  6
Continuous
 62
     7
370
    30
100
AcDbLine
 10
19.875
 20
-12.013094
 30
0.0
 11
19.875
 21
-2.913094
 31
0.0
  0
LINE
  5
72
330
34E
100
AcDbEntity
  8
HATCH
  6
Continuous
 62
     7
370
    30
100
AcDbLine
 10
15.863312
 20
-4.770594
 30
0.0
 11
15.863312
 21
-3.770594
 31
0.0
  0
LINE
  5
73
330
34E
100
AcDbEntity
  8
HATCH
  6
Continuous
 62
     7
370
    30
100
AcDbLine
 10
12.706656
 20
-4.770594
 30
0.0
 11
19.661719
 21
-4.770594
 31
0.0
  0
LINE
  5
7E
330
34E
100
AcDbEntity
  8
_0
  6
Continuous
 62
     7
370
    30
100
AcDbLine
 10
16.328646
 20
-10.896313
 30
0.0
 11
16.328646
 21
-9.331542
 31
0.0
  0
LINE
  5
7F
330
34E
100
AcDbEntity
  8
_0
  6
Continuous
 62
     7
370
    30
100
AcDbLine
 10
16.384792
 20
-10.896313
 30
0.0
 11
16.384792
 21
-9.331542
 31
0.0
  0
ARC
  5
81
330
34E
100
AcDbEntity
  8
_0
  6
Continuous
 62
     7
370
    30
100
AcDbCircle
 10
17.043548
 20
-10.296775
 30
0.0
 40
0.1587499999999991
100
AcDbArc
 50
106.712372
 51
180.0
  0
LWPOLYLINE
  5
82
330
34E
100
AcDbEntity
  8
_0
  6
Continuous
 62
     7
370
    30
100
AcDbPolyline
 90
        5
 70
   128
 43
0.0
 10
17.334323
 20
-10.383677
 10
17.252562
 20
-10.405125
 10
17.197167
 20
-10.248865
 10
17.029667
 20
-10.229021
 10
17.029667
 20
-10.028104
  0
LWPOLYLINE
  5
83
330
34E
100
AcDbEntity
  8
_0
  6
Continuous
 62
     7
370
    30
100
AcDbPolyline
 90
        2
 70
   128
 43
0.0
 10
17.03125
 20
-10.155302
 10
17.177437
 20
-10.171375
  0
LWPOLYLINE
  5
84
330
34E
100
AcDbEntity
  8
_0
  6
Continuous
 62
     7
370
    30
100
AcDbPolyline
 90
        2
 70
   128
 43
0.0
 10
17.714104
 20
-10.14874
 10
16.384792
 20
-9.5335
  0
LINE
  5
85
330
34E
100
AcDbEntity
  8
_0
  6
Continuous
 62
     7
370
    30
100
AcDbLine
 10
13.116
 20
-6.130552
 30
0.0
 11
13.116
 21
-8.44926
 31
0.0
  0
LINE
  5
86
330
34E
100
AcDbEntity
  8
_0
  6
Continuous
 62
     7
370
    30
100
AcDbLine
 10
15.544156
 20
-6.130552
 30
0.0
 11
15.544156
 21
-8.837573
 31
0.0
  0
LINE
  5
87
330
34E
100
AcDbEntity
  8
_0
  6
Continuous
 62
     7
370
    30
100
AcDbLine
 10
17.828958
 20
-5.883938
 30
0.0
 11
17.828958
 21
-6.7305
 31
0.0
  0
LINE
  5
88
330
34E
100
AcDbEntity
  8
_0
  6
Continuous
 62
     7
370
    30
100
AcDbLine
 10
13.16651
 20
-6.176854
 30
0.0
 11
13.365698
 21
-6.290344
 31
0.0
  0
LINE
  5
89
330
34E
100
AcDbEntity
  8
_0
  6
Continuous
 62
     7
370
    30
100
AcDbLine
 10
13.365698
 20
-6.290344
 30
0.0
 11
13.161177
 21
-6.649719
 31
0.0
  0
LINE
  5
8A
330
34E
100
AcDbEntity
  8
_0
  6
Continuous
 62
     7
370
    30
100
AcDbLine
 10
13.161177
 20
-6.649719
 30
0.0
 11
13.356229
 21
-6.769802
 31
0.0
  0
LINE
  5
8B
330
34E
100
AcDbEntity
  8
_0
  6
Continuous
 62
     7
370
    30
100
AcDbLine
 10
13.356229
 20
-6.769802
 30
0.0
 11
13.15349
 21
-7.126781
 31
0.0
  0
LINE
  5
8C
330
34E
100
AcDbEntity
  8
_0
  6
Continuous
 62
     7
370
    30
100
AcDbLine
 10
13.15349
 20
-7.126781
 30
0.0
 11
13.349208
 21
-7.259417
 31
0.0
  0
LINE
  5
8D
330
34E
100
AcDbEntity
  8
_0
  6
Continuous
 62
     7
370
    30
100
AcDbLine
 10
13.349208
 20
-7.259417
 30
0.0
 11
13.167208
 21
-7.586969
 31
0.0
  0
LINE
  5
8E
330
34E
100
AcDbEntity
  8
_0
  6
Continuous
 62
     7
370
    30
100
AcDbLine
 10
13.167208
 20
-7.586969
 30
0.0
 11
13.353937
 21
-7.715479
 31
0.0
  0
LINE
  5
8F
330
34E
100
AcDbEntity
  8
_0
  6
Continuous
 62
     7
370
    30
100
AcDbLine
 10
13.353937
 20
-7.715479
 30
0.0
 11
13.322281
 21
-7.77524
 31
0.0
  0
LINE
  5
90
330
34E
100
AcDbEntity
  8
_0
  6
Continuous
 62
     7
370
    30
100
AcDbLine
 10
13.17026
 20
-8.062167
 30
0.0
 11
13.335938
 21
-8.169896
 31
0.0
  0
LINE
  5
91
330
34E
100
AcDbEntity
  8
_0
  6
Continuous
 62
     7
370
    30
100
AcDbLine
 10
13.335938
 20
-8.169896
 30
0.0
 11
13.222479
 21
-8.373271
 31
0.0
  0
LINE
  5
92
330
34E
100
AcDbEntity
  8
_0
  6
Continuous
 62
     7
370
    30
100
AcDbLine
 10
13.25349
 20
-6.024
 30
0.0
 11
13.16651
 21
-6.176854
 31
0.0
  0
LINE
  5
93
330
34E
100
AcDbEntity
  8
_0
  6
Continuous
 62
     7
370
    30
100
AcDbLine
 10
13.403646
 20
-6.311969
 30
0.0
 11
13.877688
 21
-6.582052
 31
0.0
  0
LINE
  5
94
330
34E
100
AcDbEntity
  8
_0
  6
Continuous
 62
     7
370
    13
100
AcDbLine
 10
13.403583
 20
-6.312083
 30
0.0
 11
13.94499
 21
-6.620552
 31
0.0
  0
LINE
  5
95
330
34E
100
AcDbEntity
  8
_0
  6
Continuous
 62
     7
370
    30
100
AcDbLine
 10
13.418437
 20
-6.28601
 30
0.0
 11
13.866271
 21
-6.541167
 31
0.0
  0
LINE
  5
96
330
34E
100
AcDbEntity
  8
_0
  6
Continuous
 62
     7
370
    30
100
AcDbLine
 10
13.388729
 20
-6.338146
 30
0.0
 11
13.83874
 21
-6.594542
 31
0.0
  0
ARC
  5
97
330
34E
100
AcDbEntity
  8
_0
  6
Continuous
 62
     7
370
    30
100
AcDbCircle
 10
13.852506
 20
-6.567857
 30
0.0
 40
0.0300260444230749
100
AcDbArc
 50
237.940639
 51
62.713814
  0
ARC
  5
98
330
34E
100
AcDbEntity
  8
_0
  6
Continuous
 62
     7
370
    30
100
AcDbCircle
 10
13.843037
 20
-7.047323
 30
0.0
 40
0.0300260444230749
100
AcDbArc
 50
237.940639
 51
62.713814
  0
LINE
  5
99
330
34E
100
AcDbEntity
  8
_0
  6
Continuous
 62
     7
370
    30
100
AcDbLine
 10
13.37926
 20
-6.817615
 30
0.0
 11
13.829271
 21
-7.07401
 31
0.0
  0
LINE
  5
9A
330
34E
100
AcDbEntity
  8
_0
  6
Continuous
 62
     7
370
    30
100
AcDbLine
 10
13.408969
 20
-6.765479
 30
0.0
 11
13.856802
 21
-7.020635
 31
0.0
  0
ARC
  5
9B
330
34E
100
AcDbEntity
  8
_0
  6
Continuous
 62
     7
370
    30
100
AcDbCircle
 10
13.836025
 20
-7.536936
 30
0.0
 40
0.0300260444230749
100
AcDbArc
 50
237.940639
 51
62.713814
  0
LINE
  5
9C
330
34E
100
AcDbEntity
  8
_0
  6
Continuous
 62
     7
370
    30
100
AcDbLine
 10
13.37225
 20
-7.307229
 30
0.0
 11
13.82226
 21
-7.563625
 31
0.0
  0
LINE
  5
9D
330
34E
100
AcDbEntity
  8
_0
  6
Continuous
 62
     7
370
    30
100
AcDbLine
 10
13.401958
 20
-7.255094
 30
0.0
 11
13.849792
 21
-7.51025
 31
0.0
  0
ARC
  5
9E
330
34E
100
AcDbEntity
  8
_0
  6
Continuous
 62
     7
370
    30
100
AcDbCircle
 10
13.840752
 20
-7.992999
 30
0.0
 40
0.0300260444230749
100
AcDbArc
 50
237.940639
 51
62.713814
  0
LINE
  5
9F
330
34E
100
AcDbEntity
  8
_0
  6
Continuous
 62
     7
370
    30
100
AcDbLine
 10
13.376979
 20
-7.763292
 30
0.0
 11
13.82699
 21
-8.019687
 31
0.0
  0
LINE
  5
A0
330
34E
100
AcDbEntity
  8
_0
  6
Continuous
 62
     7
370
    13
100
AcDbLine
 10
13.391833
 20
-7.737219
 30
0.0
 11
13.905573
 21
-8.029927
 31
0.0
  0
LINE
  5
A1
330
34E
100
AcDbEntity
  8
_0
  6
Continuous
 62
     7
370
    30
100
AcDbLine
 10
13.406677
 20
-7.711156
 30
0.0
 11
13.854521
 21
-7.966312
 31
0.0
  0
ARC
  5
A2
330
34E
100
AcDbEntity
  8
_0
  6
Continuous
 62
     7
370
    30
100
AcDbCircle
 10
13.822754
 20
-8.447415
 30
0.0
 40
0.0300260444230749
100
AcDbArc
 50
237.940639
 51
62.713814
  0
LINE
  5
A3
330
34E
100
AcDbEntity
  8
_0
  6
Continuous
 62
     7
370
    30
100
AcDbLine
 10
13.358979
 20
-8.217698
 30
0.0
 11
13.80899
 21
-8.474104
 31
0.0
  0
LINE
  5
A4
330
34E
100
AcDbEntity
  8
_0
  6
Continuous
 62
     7
370
    13
100
AcDbLine
 10
13.373833
 20
-8.191635
 30
0.0
 11
13.892812
 21
-8.487333
 31
0.0
  0
LINE
  5
A5
330
34E
100
AcDbEntity
  8
_0
  6
Continuous
 62
     7
370
    30
100
AcDbLine
 10
13.388687
 20
-8.165573
 30
0.0
 11
13.836521
 21
-8.420729
 31
0.0
  0
LINE
  5
A6
330
34E
100
AcDbEntity
  8
_0
  6
Continuous
 62
     7
370
    30
100
AcDbLine
 10
13.780854
 20
-8.353031
 30
0.0
 11
13.183948
 21
-8.004792
 31
0.0
  0
LINE
  5
A7
330
34E
100
AcDbEntity
  8
_0
  6
Continuous
 62
     7
370
    30
100
AcDbLine
 10
13.165104
 20
-7.937927
 30
0.0
 11
13.244604
 21
-7.790052
 31
0.0
  0
LINE
  5
A8
330
34E
100
AcDbEntity
  8
_0
  6
Continuous
 62
     7
370
    30
100
AcDbLine
 10
13.313
 20
-7.770062
 30
0.0
 11
13.924615
 21
-8.11124
 31
0.0
  0
LINE
  5
A9
330
34E
100
AcDbEntity
  8
_0
  6
Continuous
 62
     7
370
    30
100
AcDbLine
 10
13.942979
 20
-8.180885
 30
0.0
 11
13.848771
 21
-8.335823
 31
0.0
  0
LINE
  5
AA
330
34E
100
AcDbEntity
  8
_0
  6
Continuous
 62
     7
370
    30
100
AcDbLine
 10
13.196719
 20
-8.01224
 30
0.0
 11
13.17026
 21
-8.062167
 31
0.0
  0
ARC
  5
AB
330
34E
100
AcDbEntity
  8
_0
  6
Continuous
 62
     7
370
    30
100
AcDbCircle
 10
13.288644
 20
-7.813726
 30
0.0
 40
0.05
100
AcDbArc
 50
60.845886
 51
151.737653
  0
ARC
  5
AC
330
34E
100
AcDbEntity
  8
_0
  6
Continuous
 62
     7
370
    30
100
AcDbCircle
 10
13.209146
 20
-7.961602
 30
0.0
 40
0.05
100
AcDbArc
 50
151.737653
 51
239.740067
  0
ARC
  5
AD
330
34E
100
AcDbEntity
  8
_0
  6
Continuous
 62
     7
370
    30
100
AcDbCircle
 10
13.90026
 20
-8.154905
 30
0.0
 40
0.05
100
AcDbArc
 50
328.697514
 51
60.845886
  0
ARC
  5
AE
330
34E
100
AcDbEntity
  8
_0
  6
Continuous
 62
     7
370
    30
100
AcDbCircle
 10
13.806047
 20
-8.309843
 30
0.0
 40
0.05
100
AcDbArc
 50
239.740067
 51
328.697514
  0
LINE
  5
AF
330
34E
100
AcDbEntity
  8
_0
  6
Continuous
 62
     7
370
    30
100
AcDbLine
 10
13.204
 20
-7.949406
 30
0.0
 11
13.308958
 21
-8.016302
 31
0.0
  0
LINE
  5
B0
330
34E
100
AcDbEntity
  8
_0
  6
Continuous
 62
     7
370
    30
100
AcDbLine
 10
13.293365
 20
-7.81075
 30
0.0
 11
13.398323
 21
-7.877646
 31
0.0
  0
LINE
  5
B1
330
34E
100
AcDbEntity
  8
_0
  6
Continuous
 62
     7
370
    30
100
AcDbLine
 10
13.724135
 20
-8.054854
 30
0.0
 11
13.829083
 21
-8.12175
 31
0.0
  0
LINE
  5
B2
330
34E
100
AcDbEntity
  8
_0
  6
Continuous
 62
     7
370
    30
100
AcDbLine
 10
13.649844
 20
-8.21176
 30
0.0
 11
13.758281
 21
-8.272844
 31
0.0
  0
LINE
  5
B3
330
34E
100
AcDbEntity
  8
_0
  6
Continuous
 62
     7
370
    13
100
AcDbLine
 10
15.497771
 20
-8.573906
 30
0.0
 11
16.299458
 21
-8.115458
 31
0.0
  0
LINE
  5
B4
330
34E
100
AcDbEntity
  8
_0
  6
Continuous
 62
     7
370
    13
100
AcDbLine
 10
14.753729
 20
-6.666365
 30
0.0
 11
15.590531
 21
-6.189885
 31
0.0
  0
ARC
  5
B5
330
34E
100
AcDbEntity
  8
_0
  6
Continuous
 62
     7
370
    30
100
AcDbCircle
 10
16.219837
 20
-8.160991
 30
0.0
 40
0.03125
100
AcDbArc
 50
299.7633
 51
119.7633
  0
LINE
  5
B6
330
34E
100
AcDbEntity
  8
_0
  6
Continuous
 62
     7
370
    30
100
AcDbLine
 10
15.497771
 20
-8.537906
 30
0.0
 11
16.204323
 21
-8.133865
 31
0.0
  0
LINE
  5
B7
330
34E
100
AcDbEntity
  8
_0
  6
Continuous
 62
     7
370
    30
100
AcDbLine
 10
15.497771
 20
-8.609906
 30
0.0
 11
16.235354
 21
-8.188115
 31
0.0
  0
LINE
  5
B8
330
34E
100
AcDbEntity
  8
_0
  6
Continuous
 62
     7
370
    30
100
AcDbLine
 10
14.857781
 20
-8.430292
 30
0.0
 11
16.204323
 21
-7.660271
 31
0.0
  0
LINE
  5
B9
330
34E
100
AcDbEntity
  8
_0
  6
Continuous
 62
     7
370
    30
100
AcDbLine
 10
14.888813
 20
-8.484552
 30
0.0
 11
16.235354
 21
-7.714521
 31
0.0
  0
ARC
  5
BA
330
34E
100
AcDbEntity
  8
_0
  6
Continuous
 62
     7
370
    30
100
AcDbCircle
 10
16.219837
 20
-7.687394
 30
0.0
 40
0.03125
100
AcDbArc
 50
299.7633
 51
119.7633
  0
LINE
  5
BB
330
34E
100
AcDbEntity
  8
_0
  6
Continuous
 62
     7
370
    30
100
AcDbLine
 10
14.857781
 20
-7.951521
 30
0.0
 11
16.204323
 21
-7.1815
 31
0.0
  0
LINE
  5
BC
330
34E
100
AcDbEntity
  8
_0
  6
Continuous
 62
     7
370
    30
100
AcDbLine
 10
14.888813
 20
-8.005781
 30
0.0
 11
16.235354
 21
-7.23575
 31
0.0
  0
ARC
  5
BD
330
34E
100
AcDbEntity
  8
_0
  6
Continuous
 62
     7
370
    30
100
AcDbCircle
 10
16.219837
 20
-7.208623
 30
0.0
 40
0.03125
100
AcDbArc
 50
299.7633
 51
119.7633
  0
LINE
  5
BE
330
34E
100
AcDbEntity
  8
_0
  6
Continuous
 62
     7
370
    30
100
AcDbLine
 10
14.857781
 20
-7.492781
 30
0.0
 11
16.204323
 21
-6.72276
 31
0.0
  0
LINE
  5
BF
330
34E
100
AcDbEntity
  8
_0
  6
Continuous
 62
     7
370
    30
100
AcDbLine
 10
14.888813
 20
-7.547042
 30
0.0
 11
16.235354
 21
-6.77701
 31
0.0
  0
ARC
  5
C0
330
34E
100
AcDbEntity
  8
_0
  6
Continuous
 62
     7
370
    30
100
AcDbCircle
 10
16.219837
 20
-6.749883
 30
0.0
 40
0.03125
100
AcDbArc
 50
299.7633
 51
119.7633
  0
LINE
  5
C1
330
34E
100
AcDbEntity
  8
_0
  6
Continuous
 62
     7
370
    30
100
AcDbLine
 10
14.857781
 20
-7.0145
 30
0.0
 11
16.204323
 21
-6.244469
 31
0.0
  0
LINE
  5
C2
330
34E
100
AcDbEntity
  8
_0
  6
Continuous
 62
     7
370
    30
100
AcDbLine
 10
14.888813
 20
-7.06875
 30
0.0
 11
16.235354
 21
-6.298729
 31
0.0
  0
ARC
  5
C3
330
34E
100
AcDbEntity
  8
_0
  6
Continuous
 62
     7
370
    30
100
AcDbCircle
 10
16.219837
 20
-6.2716
 30
0.0
 40
0.03125
100
AcDbArc
 50
299.7633
 51
119.7633
  0
LINE
  5
C4
330
34E
100
AcDbEntity
  8
_0
  6
Continuous
 62
     7
370
    13
100
AcDbLine
 10
14.787615
 20
-8.506417
 30
0.0
 11
16.299458
 21
-7.641865
 31
0.0
  0
LINE
  5
C5
330
34E
100
AcDbEntity
  8
_0
  6
Continuous
 62
     7
370
    13
100
AcDbLine
 10
14.787615
 20
-8.027646
 30
0.0
 11
16.299458
 21
-7.163094
 31
0.0
  0
LINE
  5
C6
330
34E
100
AcDbEntity
  8
_0
  6
Continuous
 62
     7
370
    13
100
AcDbLine
 10
14.787615
 20
-7.568906
 30
0.0
 11
16.299458
 21
-6.704354
 31
0.0
  0
LINE
  5
C7
330
34E
100
AcDbEntity
  8
_0
  6
Continuous
 62
     7
370
    13
100
AcDbLine
 10
14.787615
 20
-7.090625
 30
0.0
 11
16.299458
 21
-6.226062
 31
0.0
  0
LINE
  5
C8
330
34E
100
AcDbEntity
  8
_0
  6
Continuous
 62
     7
370
    30
100
AcDbLine
 10
14.85025
 20
-6.577104
 30
0.0
 11
15.590531
 21
-6.153771
 31
0.0
  0
LINE
  5
C9
330
34E
100
AcDbEntity
  8
_0
  6
Continuous
 62
     7
370
    30
100
AcDbLine
 10
14.883594
 20
-6.627708
 30
0.0
 11
15.590531
 21
-6.223448
 31
0.0
  0
ARC
  5
CA
330
34E
100
AcDbEntity
  8
_0
  6
Continuous
 62
     7
370
    30
100
AcDbCircle
 10
14.873296
 20
-8.45742
 30
0.0
 40
0.03125
100
AcDbArc
 50
119.7633
 51
299.7633
  0
ARC
  5
CB
330
34E
100
AcDbEntity
  8
_0
  6
Continuous
 62
     7
370
    30
100
AcDbCircle
 10
14.873296
 20
-7.97865
 30
0.0
 40
0.03125
100
AcDbArc
 50
119.7633
 51
299.7633
  0
ARC
  5
CC
330
34E
100
AcDbEntity
  8
_0
  6
Continuous
 62
     7
370
    30
100
AcDbCircle
 10
14.873296
 20
-7.51991
 30
0.0
 40
0.03125
100
AcDbArc
 50
119.7633
 51
299.7633
  0
ARC
  5
CD
330
34E
100
AcDbEntity
  8
_0
  6
Continuous
 62
     7
370
    30
100
AcDbCircle
 10
14.873296
 20
-7.041626
 30
0.0
 40
0.03125
100
AcDbArc
 50
119.7633
 51
299.7633
  0
ARC
  5
CE
330
34E
100
AcDbEntity
  8
_0
  6
Continuous
 62
     7
370
    30
100
AcDbCircle
 10
14.873296
 20
-6.598208
 30
0.0
 40
0.03125
100
AcDbArc
 50
119.7633
 51
299.7633
  0
LINE
  5
CF
330
34E
100
AcDbEntity
  8
_0
  6
Continuous
 62
     7
370
    30
100
AcDbLine
 10
17.137271
 20
-5.856958
 30
0.0
 11
17.828958
 21
-6.259625
 31
0.0
  0
LINE
  5
D0
330
34E
100
AcDbEntity
  8
_0
  6
Continuous
 62
     7
370
    30
100
AcDbLine
 10
17.164396
 20
-5.80276
 30
0.0
 11
17.828958
 21
-6.189635
 31
0.0
  0
LINE
  5
D1
330
34E
100
AcDbEntity
  8
_0
  6
Continuous
 62
     7
370
    13
100
AcDbLine
 10
17.828958
 20
-7.136781
 30
0.0
 11
17.07276
 21
-6.704354
 31
0.0
  0
LINE
  5
D2
330
34E
100
AcDbEntity
  8
_0
  6
Continuous
 62
     7
370
    13
100
AcDbLine
 10
17.828958
 20
-7.595531
 30
0.0
 11
17.07276
 21
-7.163094
 31
0.0
  0
LINE
  5
D3
330
34E
100
AcDbEntity
  8
_0
  6
Continuous
 62
     7
370
    13
100
AcDbLine
 10
17.828958
 20
-8.074302
 30
0.0
 11
17.07276
 21
-7.641865
 31
0.0
  0
ARC
  5
D4
330
34E
100
AcDbEntity
  8
_0
  6
Continuous
 62
     7
370
    30
100
AcDbCircle
 10
17.152384
 20
-6.2716
 30
0.0
 40
0.03125
100
AcDbArc
 50
60.2367
 51
240.2367
  0
LINE
  5
D5
330
34E
100
AcDbEntity
  8
_0
  6
Continuous
 62
     7
370
    30
100
AcDbLine
 10
17.828958
 20
-6.6945
 30
0.0
 11
17.136875
 21
-6.298729
 31
0.0
  0
LINE
  5
D6
330
34E
100
AcDbEntity
  8
_0
  6
Continuous
 62
     7
370
    30
100
AcDbLine
 10
17.828958
 20
-6.6225
 30
0.0
 11
17.167896
 21
-6.244469
 31
0.0
  0
ARC
  5
D7
330
34E
100
AcDbEntity
  8
_0
  6
Continuous
 62
     7
370
    30
100
AcDbCircle
 10
17.152384
 20
-6.749883
 30
0.0
 40
0.03125
100
AcDbArc
 50
60.2367
 51
240.2367
  0
LINE
  5
D8
330
34E
100
AcDbEntity
  8
_0
  6
Continuous
 62
     7
370
    30
100
AcDbLine
 10
17.828958
 20
-7.172781
 30
0.0
 11
17.136875
 21
-6.77701
 31
0.0
  0
LINE
  5
D9
330
34E
100
AcDbEntity
  8
_0
  6
Continuous
 62
     7
370
    30
100
AcDbLine
 10
17.828958
 20
-7.100792
 30
0.0
 11
17.167896
 21
-6.72276
 31
0.0
  0
ARC
  5
DA
330
34E
100
AcDbEntity
  8
_0
  6
Continuous
 62
     7
370
    30
100
AcDbCircle
 10
17.152384
 20
-7.208623
 30
0.0
 40
0.03125
100
AcDbArc
 50
60.2367
 51
240.2367
  0
LINE
  5
DB
330
34E
100
AcDbEntity
  8
_0
  6
Continuous
 62
     7
370
    30
100
AcDbLine
 10
17.828958
 20
-7.631521
 30
0.0
 11
17.136875
 21
-7.23575
 31
0.0
  0
LINE
  5
DC
330
34E
100
AcDbEntity
  8
_0
  6
Continuous
 62
     7
370
    30
100
AcDbLine
 10
17.828958
 20
-7.559531
 30
0.0
 11
17.167896
 21
-7.1815
 31
0.0
  0
ARC
  5
DD
330
34E
100
AcDbEntity
  8
_0
  6
Continuous
 62
     7
370
    30
100
AcDbCircle
 10
17.152384
 20
-7.687394
 30
0.0
 40
0.03125
100
AcDbArc
 50
60.2367
 51
240.2367
  0
LINE
  5
DE
330
34E
100
AcDbEntity
  8
_0
  6
Continuous
 62
     7
370
    30
100
AcDbLine
 10
17.828958
 20
-8.110292
 30
0.0
 11
17.136875
 21
-7.714521
 31
0.0
  0
LINE
  5
DF
330
34E
100
AcDbEntity
  8
_0
  6
Continuous
 62
     7
370
    30
100
AcDbLine
 10
17.828958
 20
-8.038302
 30
0.0
 11
17.167896
 21
-7.660271
 31
0.0
  0
LINE
  5
E0
330
34E
100
AcDbEntity
  8
_0
  6
Continuous
 62
     7
370
    30
100
AcDbLine
 10
17.828958
 20
-8.583896
 30
0.0
 11
17.136875
 21
-8.188115
 31
0.0
  0
LINE
  5
E1
330
34E
100
AcDbEntity
  8
_0
  6
Continuous
 62
     7
370
    30
100
AcDbLine
 10
17.828958
 20
-8.511896
 30
0.0
 11
17.167896
 21
-8.133865
 31
0.0
  0
ARC
  5
E2
330
34E
100
AcDbEntity
  8
_0
  6
Continuous
 62
     7
370
    30
100
AcDbCircle
 10
17.152384
 20
-8.160991
 30
0.0
 40
0.03125
100
AcDbArc
 50
60.2367
 51
240.2367
  0
LINE
  5
E3
330
34E
100
AcDbEntity
  8
_0
  6
Continuous
 62
     7
370
    13
100
AcDbLine
 10
17.828958
 20
-8.547896
 30
0.0
 11
17.07276
 21
-8.115458
 31
0.0
  0
ARC
  5
E4
330
34E
100
AcDbEntity
  8
_0
  6
Continuous
 62
     7
370
    30
100
AcDbCircle
 10
17.152786
 20
-5.829832
 30
0.0
 40
0.03125
100
AcDbArc
 50
60.2367
 51
240.2367
  0
LINE
  5
E5
330
34E
100
AcDbEntity
  8
_0
  6
Continuous
 62
     7
370
    30
100
AcDbLine
 10
18.271885
 20
-8.429844
 30
0.0
 11
18.271885
 21
-7.36326
 31
0.0
  0
LINE
  5
E6
330
34E
100
AcDbEntity
  8
_0
  6
Continuous
 62
     7
370
    13
100
AcDbLine
 10
18.271885
 20
-6.01249
 30
0.0
 11
19.028083
 21
-6.444927
 31
0.0
  0
LINE
  5
E7
330
34E
100
AcDbEntity
  8
_0
  6
Continuous
 62
     7
370
    13
100
AcDbLine
 10
18.873208
 20
-8.686125
 30
0.0
 11
18.271885
 21
-8.334583
 31
0.0
  0
ARC
  5
E8
330
34E
100
AcDbEntity
  8
_0
  6
Continuous
 62
     7
370
    30
100
AcDbCircle
 10
18.94846
 20
-6.399397
 30
0.0
 40
0.03125
100
AcDbArc
 50
240.2367
 51
60.2367
  0
LINE
  5
E9
330
34E
100
AcDbEntity
  8
_0
  6
Continuous
 62
     7
370
    30
100
AcDbLine
 10
18.271885
 20
-6.04849
 30
0.0
 11
18.932948
 21
-6.426521
 31
0.0
  0
LINE
  5
EA
330
34E
100
AcDbEntity
  8
_0
  6
Continuous
 62
     7
370
    30
100
AcDbLine
 10
18.271885
 20
-5.9765
 30
0.0
 11
18.963969
 21
-6.372271
 31
0.0
  0
LINE
  5
EB
330
34E
100
AcDbEntity
  8
_0
  6
Continuous
 62
     7
370
    30
100
AcDbLine
 10
18.271885
 20
-6.522094
 30
0.0
 11
18.932948
 21
-6.900125
 31
0.0
  0
LINE
  5
EC
330
34E
100
AcDbEntity
  8
_0
  6
Continuous
 62
     7
370
    30
100
AcDbLine
 10
18.271885
 20
-6.450094
 30
0.0
 11
18.963969
 21
-6.845865
 31
0.0
  0
ARC
  5
ED
330
34E
100
AcDbEntity
  8
_0
  6
Continuous
 62
     7
370
    30
100
AcDbCircle
 10
18.94846
 20
-6.872994
 30
0.0
 40
0.03125
100
AcDbArc
 50
240.2367
 51
60.2367
  0
LINE
  5
EE
330
34E
100
AcDbEntity
  8
_0
  6
Continuous
 62
     7
370
    30
100
AcDbLine
 10
18.271885
 20
-7.000865
 30
0.0
 11
18.932948
 21
-7.378896
 31
0.0
  0
LINE
  5
EF
330
34E
100
AcDbEntity
  8
_0
  6
Continuous
 62
     7
370
    30
100
AcDbLine
 10
18.271885
 20
-6.928865
 30
0.0
 11
18.963969
 21
-7.324635
 31
0.0
  0
ARC
  5
F0
330
34E
100
AcDbEntity
  8
_0
  6
Continuous
 62
     7
370
    30
100
AcDbCircle
 10
18.94846
 20
-7.351765
 30
0.0
 40
0.03125
100
AcDbArc
 50
240.2367
 51
60.2367
  0
LINE
  5
F1
330
34E
100
AcDbEntity
  8
_0
  6
Continuous
 62
     7
370
    30
100
AcDbLine
 10
18.271885
 20
-7.459604
 30
0.0
 11
18.932948
 21
-7.837635
 31
0.0
  0
LINE
  5
F2
330
34E
100
AcDbEntity
  8
_0
  6
Continuous
 62
     7
370
    30
100
AcDbLine
 10
18.271885
 20
-7.387604
 30
0.0
 11
18.963969
 21
-7.783375
 31
0.0
  0
ARC
  5
F3
330
34E
100
AcDbEntity
  8
_0
  6
Continuous
 62
     7
370
    30
100
AcDbCircle
 10
18.94846
 20
-7.810505
 30
0.0
 40
0.03125
100
AcDbArc
 50
240.2367
 51
60.2367
  0
LINE
  5
F4
330
34E
100
AcDbEntity
  8
_0
  6
Continuous
 62
     7
370
    30
100
AcDbLine
 10
18.271885
 20
-7.937885
 30
0.0
 11
18.932948
 21
-8.315917
 31
0.0
  0
LINE
  5
F5
330
34E
100
AcDbEntity
  8
_0
  6
Continuous
 62
     7
370
    30
100
AcDbLine
 10
18.271885
 20
-7.865885
 30
0.0
 11
18.963969
 21
-8.261656
 31
0.0
  0
ARC
  5
F6
330
34E
100
AcDbEntity
  8
_0
  6
Continuous
 62
     7
370
    30
100
AcDbCircle
 10
18.94846
 20
-8.288789
 30
0.0
 40
0.03125
100
AcDbArc
 50
240.2367
 51
60.2367
  0
LINE
  5
F7
330
34E
100
AcDbEntity
  8
_0
  6
Continuous
 62
     7
370
    13
100
AcDbLine
 10
18.271885
 20
-6.486094
 30
0.0
 11
19.028083
 21
-6.918531
 31
0.0
  0
LINE
  5
F8
330
34E
100
AcDbEntity
  8
_0
  6
Continuous
 62
     7
370
    13
100
AcDbLine
 10
18.271885
 20
-6.964865
 30
0.0
 11
19.028083
 21
-7.397302
 31
0.0
  0
LINE
  5
F9
330
34E
100
AcDbEntity
  8
_0
  6
Continuous
 62
     7
370
    13
100
AcDbLine
 10
18.271885
 20
-7.423604
 30
0.0
 11
19.028083
 21
-7.856042
 31
0.0
  0
LINE
  5
FA
330
34E
100
AcDbEntity
  8
_0
  6
Continuous
 62
     7
370
    13
100
AcDbLine
 10
18.271885
 20
-7.901885
 30
0.0
 11
19.028083
 21
-8.334323
 31
0.0
  0
LINE
  5
FB
330
34E
100
AcDbEntity
  8
_0
  6
Continuous
 62
     7
370
    30
100
AcDbLine
 10
18.771969
 20
-8.661875
 30
0.0
 11
18.271885
 21
-8.37075
 31
0.0
  0
LINE
  5
FC
330
34E
100
AcDbEntity
  8
_0
  6
Continuous
 62
     7
370
    30
100
AcDbLine
 10
18.799604
 20
-8.607979
 30
0.0
 11
18.271885
 21
-8.30076
 31
0.0
  0
ARC
  5
FD
330
34E
100
AcDbEntity
  8
_0
  6
Continuous
 62
     7
370
    30
100
AcDbCircle
 10
17.760097
 20
-6.956834
 30
0.0
 40
0.05
100
AcDbArc
 50
239.740067
 51
328.697514
  0
ARC
  5
FE
330
34E
100
AcDbEntity
  8
_0
  6
Continuous
 62
     7
370
    30
100
AcDbCircle
 10
17.163196
 20
-6.608593
 30
0.0
 40
0.05
100
AcDbArc
 50
151.737653
 51
239.740067
  0
ARC
  5
FF
330
34E
100
AcDbEntity
  8
_0
  6
Continuous
 62
     7
370
    30
100
AcDbCircle
 10
17.242694
 20
-6.460717
 30
0.0
 40
0.05
100
AcDbArc
 50
60.845886
 51
151.737653
  0
LINE
  5
100
330
34E
100
AcDbEntity
  8
_0
  6
Continuous
 62
     7
370
    30
100
AcDbLine
 10
17.119156
 20
-6.584917
 30
0.0
 11
17.198656
 21
-6.437042
 31
0.0
  0
LINE
  5
101
330
34E
100
AcDbEntity
  8
_0
  6
Continuous
 62
     7
370
    30
100
AcDbLine
 10
17.247417
 20
-6.45774
 30
0.0
 11
17.352375
 21
-6.524635
 31
0.0
  0
LINE
  5
102
330
34E
100
AcDbEntity
  8
_0
  6
Continuous
 62
     7
370
    30
100
AcDbLine
 10
17.158052
 20
-6.596396
 30
0.0
 11
17.263
 21
-6.663292
 31
0.0
  0
LINE
  5
103
330
34E
100
AcDbEntity
  8
_0
  6
Continuous
 62
     7
370
    30
100
AcDbLine
 10
17.603896
 20
-6.85875
 30
0.0
 11
17.712333
 21
-6.919833
 31
0.0
  0
LINE
  5
104
330
34E
100
AcDbEntity
  8
_0
  6
Continuous
 62
     7
370
    30
100
AcDbLine
 10
17.678187
 20
-6.701844
 30
0.0
 11
17.783135
 21
-6.76874
 31
0.0
  0
ARC
  5
105
330
34E
100
AcDbEntity
  8
_0
  6
Continuous
 62
     7
370
    30
100
AcDbCircle
 10
17.854311
 20
-6.801896
 30
0.0
 40
0.05
100
AcDbArc
 50
328.697514
 51
60.845886
  0
LINE
  5
106
330
34E
100
AcDbEntity
  8
_0
  6
Continuous
 62
     7
370
    30
100
AcDbLine
 10
17.897031
 20
-6.827875
 30
0.0
 11
17.802823
 21
-6.982812
 31
0.0
  0
LINE
  5
107
330
34E
100
AcDbEntity
  8
_0
  6
Continuous
 62
     7
370
    30
100
AcDbLine
 10
17.267052
 20
-6.417052
 30
0.0
 11
17.878667
 21
-6.758229
 31
0.0
  0
LINE
  5
108
330
34E
100
AcDbEntity
  8
_0
  6
Continuous
 62
     7
370
    30
100
AcDbLine
 10
17.734906
 20
-7.000021
 30
0.0
 11
17.138
 21
-6.651781
 31
0.0
  0
LINE
  5
109
330
34E
100
AcDbEntity
  8
_0
  6
Continuous
 62
     7
370
    30
100
AcDbLine
 10
18.802625
 20
-7.672896
 30
0.0
 11
18.205719
 21
-7.324656
 31
0.0
  0
LINE
  5
10A
330
34E
100
AcDbEntity
  8
_0
  6
Continuous
 62
     7
370
    30
100
AcDbLine
 10
18.334771
 20
-7.089927
 30
0.0
 11
18.946396
 21
-7.431104
 31
0.0
  0
LINE
  5
10B
330
34E
100
AcDbEntity
  8
_0
  6
Continuous
 62
     7
370
    30
100
AcDbLine
 10
18.96476
 20
-7.50075
 30
0.0
 11
18.870542
 21
-7.655687
 31
0.0
  0
ARC
  5
10C
330
34E
100
AcDbEntity
  8
_0
  6
Continuous
 62
     7
370
    30
100
AcDbCircle
 10
18.922034
 20
-7.474773
 30
0.0
 40
0.05
100
AcDbArc
 50
328.697514
 51
60.845886
  0
LINE
  5
10D
330
34E
100
AcDbEntity
  8
_0
  6
Continuous
 62
     7
370
    30
100
AcDbLine
 10
18.745906
 20
-7.374719
 30
0.0
 11
18.850865
 21
-7.441615
 31
0.0
  0
LINE
  5
10E
330
34E
100
AcDbEntity
  8
_0
  6
Continuous
 62
     7
370
    30
100
AcDbLine
 10
18.671615
 20
-7.531625
 30
0.0
 11
18.780052
 21
-7.592719
 31
0.0
  0
LINE
  5
10F
330
34E
100
AcDbEntity
  8
_0
  6
Continuous
 62
     7
370
    30
100
AcDbLine
 10
18.225771
 20
-7.269271
 30
0.0
 11
18.330729
 21
-7.336167
 31
0.0
  0
LINE
  5
110
330
34E
100
AcDbEntity
  8
_0
  6
Continuous
 62
     7
370
    30
100
AcDbLine
 10
18.315146
 20
-7.130615
 30
0.0
 11
18.420094
 21
-7.19751
 31
0.0
  0
LINE
  5
111
330
34E
100
AcDbEntity
  8
_0
  6
Continuous
 62
     7
370
    30
100
AcDbLine
 10
18.186885
 20
-7.257792
 30
0.0
 11
18.266375
 21
-7.109917
 31
0.0
  0
ARC
  5
112
330
34E
100
AcDbEntity
  8
_0
  6
Continuous
 62
     7
370
    30
100
AcDbCircle
 10
18.310417
 20
-7.133594
 30
0.0
 40
0.05
100
AcDbArc
 50
60.845886
 51
151.737653
  0
ARC
  5
113
330
34E
100
AcDbEntity
  8
_0
  6
Continuous
 62
     7
370
    30
100
AcDbCircle
 10
18.23092
 20
-7.28147
 30
0.0
 40
0.05
100
AcDbArc
 50
151.737653
 51
239.740067
  0
ARC
  5
114
330
34E
100
AcDbEntity
  8
_0
  6
Continuous
 62
     7
370
    30
100
AcDbCircle
 10
18.827821
 20
-7.629711
 30
0.0
 40
0.05
100
AcDbArc
 50
239.740067
 51
328.697514
  0
LINE
  5
115
330
34E
100
AcDbEntity
  8
_0
  6
Continuous
 62
     7
370
    30
100
AcDbLine
 10
18.271885
 20
-7.101729
 30
0.0
 11
18.271885
 21
-5.883938
 31
0.0
  0
LINE
  5
116
330
34E
100
AcDbEntity
  8
_0
  6
Continuous
 62
     7
370
    30
100
AcDbLine
 10
17.828958
 20
-6.939823
 30
0.0
 11
17.828958
 21
-9.054656
 31
0.0
  0
LINE
  5
11C
330
34E
100
AcDbEntity
  8
_0
  6
Continuous
 62
     7
370
    13
100
AcDbLine
 10
13.116
 20
-8.49926
 30
0.0
 11
13.116
 21
-8.936396
 31
0.0
  0
LINE
  5
129
330
34E
100
AcDbEntity
  8
_0
  6
Continuous
 62
     7
370
    30
100
AcDbLine
 10
15.458823
 20
-8.15776
 30
0.0
 11
15.652802
 21
-8.488875
 31
0.0
  0
LINE
  5
12A
330
34E
100
AcDbEntity
  8
_0
  6
Continuous
 62
     7
370
    30
100
AcDbLine
 10
15.458823
 20
-7.695833
 30
0.0
 11
15.652802
 21
-8.026948
 31
0.0
  0
LINE
  5
12B
330
34E
100
AcDbEntity
  8
_0
  6
Continuous
 62
     7
370
    30
100
AcDbLine
 10
15.458823
 20
-7.233917
 30
0.0
 11
15.652802
 21
-7.565031
 31
0.0
  0
LINE
  5
12C
330
34E
100
AcDbEntity
  8
_0
  6
Continuous
 62
     7
370
    30
100
AcDbLine
 10
15.458823
 20
-6.758208
 30
0.0
 11
15.652802
 21
-7.089323
 31
0.0
  0
LINE
  5
12D
330
34E
100
AcDbEntity
  8
_0
  6
Continuous
 62
     7
370
    30
100
AcDbLine
 10
15.458823
 20
-6.296281
 30
0.0
 11
15.652802
 21
-6.627396
 31
0.0
  0
LINE
  5
130
330
34E
100
AcDbEntity
  8
_0
  6
Continuous
 62
     7
370
    13
100
AcDbLine
 10
16.342865
 20
-6.679531
 30
0.0
 11
16.735688
 21
-6.454896
 31
0.0
  0
LINE
  5
131
330
34E
100
AcDbEntity
  8
DEFPOINTS
  6
Continuous
 62
     7
370
    13
100
AcDbLine
 10
17.828958
 20
-5.833938
 30
0.0
 11
17.828958
 21
-5.563448
 31
0.0
  0
LINE
  5
132
330
34E
100
AcDbEntity
  8
DEFPOINTS
  6
Continuous
 62
     7
370
    13
100
AcDbLine
 10
18.271885
 20
-5.833938
 30
0.0
 11
18.271885
 21
-5.563448
 31
0.0
  0
LINE
  5
133
330
34E
100
AcDbEntity
  8
DEFPOINTS
  6
Continuous
 62
     7
370
    13
100
AcDbLine
 10
18.271885
 20
-5.833938
 30
0.0
 11
18.271885
 21
-5.563448
 31
0.0
  0
LINE
  5
137
330
34E
100
AcDbEntity
  8
HATCH
  6
Continuous
 62
     7
370
    30
100
AcDbLine
 10
12.706656
 20
-4.570594
 30
0.0
 11
19.661719
 21
-4.570594
 31
0.0
  0
LINE
  5
138
330
34E
100
AcDbEntity
  8
HATCH
  6
Continuous
 62
     7
370
    30
100
AcDbLine
 10
12.706656
 20
-4.370594
 30
0.0
 11
19.661719
 21
-4.370594
 31
0.0
  0
LINE
  5
139
330
34E
100
AcDbEntity
  8
HATCH
  6
Continuous
 62
     7
370
    30
100
AcDbLine
 10
12.706656
 20
-4.170594
 30
0.0
 11
19.661719
 21
-4.170594
 31
0.0
  0
LINE
  5
13A
330
34E
100
AcDbEntity
  8
HATCH
  6
Continuous
 62
     7
370
    30
100
AcDbLine
 10
12.706656
 20
-3.970594
 30
0.0
 11
19.661719
 21
-3.970594
 31
0.0
  0
LINE
  5
13B
330
34E
100
AcDbEntity
  8
HATCH
  6
Continuous
 62
     7
370
    30
100
AcDbLine
 10
12.706656
 20
-3.770594
 30
0.0
 11
19.661719
 21
-3.770594
 31
0.0
  0
LINE
  5
13C
330
34E
100
AcDbEntity
  8
HATCH
  6
Continuous
 62
     7
370
    30
100
AcDbLine
 10
12.706656
 20
-3.570594
 30
0.0
 11
19.661719
 21
-3.570594
 31
0.0
  0
LINE
  5
13D
330
34E
100
AcDbEntity
  8
HATCH
  6
Continuous
 62
     7
370
    30
100
AcDbLine
 10
12.706656
 20
-3.370594
 30
0.0
 11
19.661719
 21
-3.370594
 31
0.0
  0
LINE
  5
13E
330
34E
100
AcDbEntity
  8
HATCH
  6
Continuous
 62
     7
370
    30
100
AcDbLine
 10
12.706656
 20
-3.170594
 30
0.0
 11
19.661719
 21
-3.170594
 31
0.0
  0
LINE
  5
13F
330
34E
100
AcDbEntity
  8
HATCH
  6
Continuous
 62
     7
370
    30
100
AcDbLine
 10
12.706656
 20
-2.970594
 30
0.0
 11
19.661719
 21
-2.970594
 31
0.0
  0
LINE
  5
140
330
34E
100
AcDbEntity
  8
HATCH
  6
Continuous
 62
     7
370
    30
100
AcDbLine
 10
16.038312
 20
-4.770594
 30
0.0
 11
16.038312
 21
-3.570594
 31
0.0
  0
LINE
  5
141
330
34E
100
AcDbEntity
  8
HATCH
  6
Continuous
 62
     7
370
    30
100
AcDbLine
 10
16.213313
 20
-4.770594
 30
0.0
 11
16.213313
 21
-3.770594
 31
0.0
  0
LINE
  5
142
330
34E
100
AcDbEntity
  8
HATCH
  6
Continuous
 62
     7
370
    30
100
AcDbLine
 10
16.388312
 20
-4.770594
 30
0.0
 11
16.388312
 21
-3.570594
 31
0.0
  0
LINE
  5
143
330
34E
100
AcDbEntity
  8
HATCH
  6
Continuous
 62
     7
370
    30
100
AcDbLine
 10
16.563312
 20
-4.770594
 30
0.0
 11
16.563312
 21
-3.570594
 31
0.0
  0
LINE
  5
144
330
34E
100
AcDbEntity
  8
HATCH
  6
Continuous
 62
     7
370
    30
100
AcDbLine
 10
16.738312
 20
-4.770594
 30
0.0
 11
16.738312
 21
-3.570594
 31
0.0
  0
LINE
  5
145
330
34E
100
AcDbEntity
  8
HATCH
  6
Continuous
 62
     7
370
    30
100
AcDbLine
 10
16.913312
 20
-4.770594
 30
0.0
 11
16.913312
 21
-3.570594
 31
0.0
  0
LINE
  5
146
330
34E
100
AcDbEntity
  8
HATCH
  6
Continuous
 62
     7
370
    30
100
AcDbLine
 10
17.088313
 20
-4.770594
 30
0.0
 11
17.088313
 21
-3.570594
 31
0.0
  0
LINE
  5
147
330
34E
100
AcDbEntity
  8
HATCH
  6
Continuous
 62
     7
370
    30
100
AcDbLine
 10
17.263312
 20
-4.770594
 30
0.0
 11
17.263312
 21
-3.570594
 31
0.0
  0
LINE
  5
148
330
34E
100
AcDbEntity
  8
HATCH
  6
Continuous
 62
     7
370
    30
100
AcDbLine
 10
17.438312
 20
-4.770594
 30
0.0
 11
17.438312
 21
-3.570594
 31
0.0
  0
LINE
  5
149
330
34E
100
AcDbEntity
  8
HATCH
  6
Continuous
 62
     7
370
    30
100
AcDbLine
 10
17.788312
 20
-4.770594
 30
0.0
 11
17.788312
 21
-3.570594
 31
0.0
  0
LINE
  5
14A
330
34E
100
AcDbEntity
  8
HATCH
  6
Continuous
 62
     7
370
    30
100
AcDbLine
 10
17.963313
 20
-4.770594
 30
0.0
 11
17.963313
 21
-3.570594
 31
0.0
  0
LINE
  5
14B
330
34E
100
AcDbEntity
  8
HATCH
  6
Continuous
 62
     7
370
    30
100
AcDbLine
 10
18.138312
 20
-4.770594
 30
0.0
 11
18.138312
 21
-3.570594
 31
0.0
  0
LINE
  5
14C
330
34E
100
AcDbEntity
  8
HATCH
  6
Continuous
 62
     7
370
    30
100
AcDbLine
 10
18.313312
 20
-4.770594
 30
0.0
 11
18.313312
 21
-3.570594
 31
0.0
  0
LINE
  5
14D
330
34E
100
AcDbEntity
  8
HATCH
  6
Continuous
 62
     7
370
    30
100
AcDbLine
 10
18.488312
 20
-4.770594
 30
0.0
 11
18.488312
 21
-3.570594
 31
0.0
  0
LINE
  5
14E
330
34E
100
AcDbEntity
  8
HATCH
  6
Continuous
 62
     7
370
    30
100
AcDbLine
 10
18.663312
 20
-4.770594
 30
0.0
 11
18.663312
 21
-3.570594
 31
0.0
  0
LINE
  5
14F
330
34E
100
AcDbEntity
  8
HATCH
  6
Continuous
 62
     7
370
    30
100
AcDbLine
 10
18.838313
 20
-4.770594
 30
0.0
 11
18.838313
 21
-3.570594
 31
0.0
  0
LINE
  5
150
330
34E
100
AcDbEntity
  8
HATCH
  6
Continuous
 62
     7
370
    30
100
AcDbLine
 10
19.013312
 20
-4.770594
 30
0.0
 11
19.013312
 21
-3.570594
 31
0.0
  0
LINE
  5
151
330
34E
100
AcDbEntity
  8
HATCH
  6
Continuous
 62
     7
370
    30
100
AcDbLine
 10
19.188312
 20
-4.770594
 30
0.0
 11
19.188312
 21
-3.570594
 31
0.0
  0
LINE
  5
152
330
34E
100
AcDbEntity
  8
HATCH
  6
Continuous
 62
     7
370
    30
100
AcDbLine
 10
19.363312
 20
-4.770594
 30
0.0
 11
19.363312
 21
-3.570594
 31
0.0
  0
LINE
  5
153
330
34E
100
AcDbEntity
  8
HATCH
  6
Continuous
 62
     7
370
    30
100
AcDbLine
 10
19.538312
 20
-4.770594
 30
0.0
 11
19.538312
 21
-3.570594
 31
0.0
  0
LINE
  5
154
330
34E
100
AcDbEntity
  8
HATCH
  6
Continuous
 62
     7
370
    30
100
AcDbLine
 10
15.863312
 20
-3.770594
 30
0.0
 11
15.863312
 21
-3.570594
 31
0.0
  0
LINE
  5
155
330
34E
100
AcDbEntity
  8
HATCH
  6
Continuous
 62
     7
370
    30
100
AcDbLine
 10
16.213313
 20
-3.770594
 30
0.0
 11
16.213313
 21
-3.570594
 31
0.0
  0
LINE
  5
15B
330
34E
100
AcDbEntity
  8
DEFPOINTS
  6
Continuous
 62
     7
370
    13
100
AcDbLine
 10
14.375344
 20
-7.572938
 30
0.0
 11
14.375344
 21
-7.924844
 31
0.0
  0
LINE
  5
15C
330
34E
100
AcDbEntity
  8
DEFPOINTS
  6
Continuous
 62
     7
370
    13
100
AcDbLine
 10
16.722188
 20
-8.023625
 30
0.0
 11
16.722188
 21
-7.573688
 31
0.0
  0
LINE
  5
15D
330
34E
100
AcDbEntity
  8
DEFPOINTS
  6
Continuous
 62
     7
370
    30
100
AcDbLine
 10
15.544156
 20
-8.365906
 30
0.0
 11
15.544156
 21
-8.967573
 31
0.0
  0
LINE
  5
15E
330
34E
100
AcDbEntity
  8
DEFPOINTS
  6
Continuous
 62
     7
370
    13
100
AcDbLine
 10
13.116
 20
-8.787573
 30
0.0
 11
15.544156
 21
-8.787573
 31
0.0
  0
LINE
  5
15F
330
34E
100
AcDbEntity
  8
BORDER
  6
Continuous
 62
     7
370
    30
100
AcDbLine
 10
13.116
 20
-8.44926
 30
0.0
 11
13.116
 21
-8.44926
 31
0.0
  0
LINE
  5
160
330
34E
100
AcDbEntity
  8
BORDER
  6
Continuous
 62
     7
370
    30
100
AcDbLine
 10
15.544156
 20
-8.303406
 30
0.0
 11
15.544156
 21
-8.303406
 31
0.0
  0
LINE
  5
161
330
34E
100
AcDbEntity
  8
BORDER
  6
Continuous
 62
     7
370
    30
100
AcDbLine
 10
15.544156
 20
-8.787573
 30
0.0
 11
15.544156
 21
-8.787573
 31
0.0
  0
LINE
  5
162
330
34E
100
AcDbEntity
  8
DEFPOINTS
  6
Continuous
 62
     7
370
    30
100
AcDbLine
 10
15.544156
 20
-8.365906
 30
0.0
 11
15.544156
 21
-8.967573
 31
0.0
  0
LINE
  5
163
330
34E
100
AcDbEntity
  8
DEFPOINTS
  6
Continuous
 62
     7
370
    30
100
AcDbLine
 10
17.828958
 20
-8.725073
 30
0.0
 11
17.828958
 21
-8.607573
 31
0.0
  0
LINE
  5
164
330
34E
100
AcDbEntity
  8
DEFPOINTS
  6
Continuous
 62
     7
370
    13
100
AcDbLine
 10
15.544156
 20
-8.787573
 30
0.0
 11
16.686552
 21
-8.787573
 31
0.0
  0
LINE
  5
165
330
34E
100
AcDbEntity
  8
DEFPOINTS
  6
Continuous
 62
     7
370
    13
100
AcDbLine
 10
17.828958
 20
-8.787573
 30
0.0
 11
16.686552
 21
-8.787573
 31
0.0
  0
LINE
  5
166
330
34E
100
AcDbEntity
  8
BORDER
  6
Continuous
 62
     7
370
    30
100
AcDbLine
 10
15.544156
 20
-8.303406
 30
0.0
 11
15.544156
 21
-8.303406
 31
0.0
  0
LINE
  5
167
330
34E
100
AcDbEntity
  8
BORDER
  6
Continuous
 62
     7
370
    30
100
AcDbLine
 10
17.828958
 20
-8.787573
 30
0.0
 11
17.828958
 21
-8.787573
 31
0.0
  0
LINE
  5
168
330
34E
100
AcDbEntity
  8
BORDER
  6
Continuous
 62
     7
370
    30
100
AcDbLine
 10
17.828958
 20
-8.787573
 30
0.0
 11
17.828958
 21
-8.787573
 31
0.0
  0
LINE
  5
169
330
34E
100
AcDbEntity
  8
DEFPOINTS
  6
Continuous
 62
     7
370
    13
100
AcDbLine
 10
13.116
 20
-6.068052
 30
0.0
 11
13.116
 21
-5.634552
 31
0.0
  0
LINE
  5
16A
330
34E
100
AcDbEntity
  8
DEFPOINTS
  6
Continuous
 62
     7
370
    13
100
AcDbLine
 10
13.16651
 20
-6.114354
 30
0.0
 11
13.16651
 21
-5.634552
 31
0.0
  0
LINE
  5
16B
330
34E
100
AcDbEntity
  8
DEFPOINTS
  6
Continuous
 62
     7
370
    13
100
AcDbLine
 10
13.107292
 20
-5.814552
 30
0.0
 11
12.756
 21
-5.814552
 31
0.0
  0
LINE
  5
16C
330
34E
100
AcDbEntity
  8
DEFPOINTS
  6
Continuous
 62
     7
370
    13
100
AcDbLine
 10
13.179115
 20
-5.814552
 30
0.0
 11
13.52651
 21
-5.814552
 31
0.0
  0
LINE
  5
16E
330
34E
100
AcDbEntity
  8
BORDER
  6
Continuous
 62
     7
370
    30
100
AcDbLine
 10
13.116
 20
-6.130552
 30
0.0
 11
13.116
 21
-6.130552
 31
0.0
  0
LINE
  5
16F
330
34E
100
AcDbEntity
  8
BORDER
  6
Continuous
 62
     7
370
    30
100
AcDbLine
 10
13.16651
 20
-6.176854
 30
0.0
 11
13.16651
 21
-6.176854
 31
0.0
  0
LINE
  5
170
330
34E
100
AcDbEntity
  8
BORDER
  6
Continuous
 62
     7
370
    30
100
AcDbLine
 10
13.16651
 20
-5.814552
 30
0.0
 11
13.16651
 21
-5.814552
 31
0.0
  0
LINE
  5
171
330
34E
100
AcDbEntity
  8
DEFPOINTS
  6
Continuous
 62
     7
370
    13
100
AcDbLine
 10
13.410354
 20
-6.801052
 30
0.0
 11
14.377
 21
-7.359146
 31
0.0
  0
LINE
  5
172
330
34E
100
AcDbEntity
  8
DEFPOINTS
  6
Continuous
 62
     7
370
    13
100
AcDbLine
 10
13.403344
 20
-7.290667
 30
0.0
 11
14.16324
 21
-7.729396
 31
0.0
  0
LINE
  5
173
330
34E
100
AcDbEntity
  8
DEFPOINTS
  6
Continuous
 62
     7
370
    13
100
AcDbLine
 10
14.216354
 20
-7.277396
 30
0.0
 11
14.000073
 21
-7.65199
 31
0.0
  0
LINE
  5
175
330
34E
100
AcDbEntity
  8
HATCH
  6
Continuous
 62
     7
370
    13
100
AcDbLine
 10
13.280458
 20
-6.439833
 30
0.0
 11
13.857583
 21
-6.779052
 31
0.0
  0
LINE
  5
176
330
34E
100
AcDbEntity
  8
HATCH
  6
Continuous
 62
     7
370
    13
100
AcDbLine
 10
13.857583
 20
-6.779052
 30
0.0
 11
14.037583
 21
-6.779052
 31
0.0
  0
LINE
  5
178
330
34E
100
AcDbEntity
  8
DEFPOINTS
  6
Continuous
 62
     7
370
    13
100
AcDbLine
 10
15.544156
 20
-6.068052
 30
0.0
 11
15.544156
 21
-5.662417
 31
0.0
  0
LINE
  5
179
330
34E
100
AcDbEntity
  8
DEFPOINTS
  6
Continuous
 62
     7
370
    13
100
AcDbLine
 10
14.839812
 20
-6.487625
 30
0.0
 11
14.839812
 21
-5.662417
 31
0.0
  0
LINE
  5
17A
330
34E
100
AcDbEntity
  8
DEFPOINTS
  6
Continuous
 62
     7
370
    13
100
AcDbLine
 10
15.544156
 20
-5.842417
 30
0.0
 11
14.839812
 21
-5.842417
 31
0.0
  0
LINE
  5
17B
330
34E
100
AcDbEntity
  8
BORDER
  6
Continuous
 62
     7
370
    30
100
AcDbLine
 10
15.544156
 20
-6.130552
 30
0.0
 11
15.544156
 21
-6.130552
 31
0.0
  0
LINE
  5
17C
330
34E
100
AcDbEntity
  8
BORDER
  6
Continuous
 62
     7
370
    30
100
AcDbLine
 10
14.839812
 20
-5.842417
 30
0.0
 11
14.839812
 21
-5.842417
 31
0.0
  0
LINE
  5
17E
330
34E
100
AcDbEntity
  8
DEFPOINTS
  6
Continuous
 62
     7
370
    13
100
AcDbLine
 10
16.910292
 20
-5.695417
 30
0.0
 11
16.723187
 21
-6.019479
 31
0.0
  0
LINE
  5
17F
330
34E
100
AcDbEntity
  8
DEFPOINTS
  6
Continuous
 62
     7
370
    13
100
AcDbLine
 10
16.672448
 20
-5.990792
 30
0.0
 11
17.828958
 21
-6.6585
 31
0.0
  0
LINE
  5
180
330
34E
100
AcDbEntity
  8
DEFPOINTS
  6
Continuous
 62
     7
370
    13
100
AcDbLine
 10
16.862312
 20
-5.667708
 30
0.0
 11
17.828958
 21
-6.225802
 31
0.0
  0
LINE
  5
181
330
34E
100
AcDbEntity
  8
DEFPOINTS
  6
Continuous
 62
     7
370
    13
100
AcDbLine
 10
16.510802
 20
-6.099896
 30
0.0
 11
16.339792
 21
-6.198625
 31
0.0
  0
LINE
  5
182
330
34E
100
AcDbEntity
  8
DEFPOINTS
  6
Continuous
 62
     7
370
    13
100
AcDbLine
 10
16.466292
 20
-6.133615
 30
0.0
 11
16.672604
 21
-6.490969
 31
0.0
  0
ARC
  5
184
330
34E
100
AcDbEntity
  8
DEFPOINTS
  6
Continuous
 62
     7
370
    13
100
AcDbCircle
 10
15.544151
 20
-6.657994
 30
0.0
 40
0.4565082739813099
100
AcDbArc
 50
344.282219
 51
7.022761
  0
ARC
  5
185
330
34E
100
AcDbEntity
  8
DEFPOINTS
  6
Continuous
 62
     7
370
    13
100
AcDbCircle
 10
15.544151
 20
-6.657994
 30
0.0
 40
0.4565082739813099
100
AcDbArc
 50
112.740542
 51
135.481083
  0
LINE
  5
188
330
34E
100
AcDbEntity
  8
BORDER
  6
Continuous
 62
     7
370
    30
100
AcDbLine
 10
15.544156
 20
-6.130552
 30
0.0
 11
15.544156
 21
-6.130552
 31
0.0
  0
LINE
  5
189
330
34E
100
AcDbEntity
  8
BORDER
  6
Continuous
 62
     7
370
    30
100
AcDbLine
 10
15.544156
 20
-8.837573
 30
0.0
 11
15.544156
 21
-8.837573
 31
0.0
  0
LINE
  5
18A
330
34E
100
AcDbEntity
  8
BORDER
  6
Continuous
 62
     7
370
    30
100
AcDbLine
 10
14.787615
 20
-7.090625
 30
0.0
 11
14.787615
 21
-7.090625
 31
0.0
  0
LINE
  5
18B
330
34E
100
AcDbEntity
  8
BORDER
  6
Continuous
 62
     7
370
    30
100
AcDbLine
 10
16.299458
 20
-6.226062
 30
0.0
 11
16.299458
 21
-6.226062
 31
0.0
  0
LINE
  5
18C
330
34E
100
AcDbEntity
  8
DEFPOINTS
  6
Continuous
 62
     7
370
    13
100
AcDbLine
 10
17.828958
 20
-5.821438
 30
0.0
 11
17.828958
 21
-5.401562
 31
0.0
  0
LINE
  5
18D
330
34E
100
AcDbEntity
  8
DEFPOINTS
  6
Continuous
 62
     7
370
    13
100
AcDbLine
 10
18.271885
 20
-5.821438
 30
0.0
 11
18.271885
 21
-5.401562
 31
0.0
  0
LINE
  5
18E
330
34E
100
AcDbEntity
  8
DEFPOINTS
  6
Continuous
 62
     7
370
    13
100
AcDbLine
 10
18.265781
 20
-5.581562
 30
0.0
 11
19.589573
 21
-5.581562
 31
0.0
  0
LINE
  5
18F
330
34E
100
AcDbEntity
  8
DEFPOINTS
  6
Continuous
 62
     7
370
    13
100
AcDbLine
 10
18.272312
 20
-5.581562
 30
0.0
 11
17.847875
 21
-5.581562
 31
0.0
  0
LINE
  5
192
330
34E
100
AcDbEntity
  8
DEFPOINTS
  6
Continuous
 62
     7
370
    30
100
AcDbLine
 10
16.384792
 20
-9.394042
 30
0.0
 11
16.384792
 21
-9.65349
 31
0.0
  0
LINE
  5
193
330
34E
100
AcDbEntity
  8
DEFPOINTS
  6
Continuous
 62
     7
370
    13
100
AcDbLine
 10
17.714104
 20
-10.08624
 30
0.0
 11
17.714104
 21
-9.29349
 31
0.0
  0
LINE
  5
194
330
34E
100
AcDbEntity
  8
DEFPOINTS
  6
Continuous
 62
     7
370
    13
100
AcDbLine
 10
16.384792
 20
-9.47349
 30
0.0
 11
17.714104
 21
-9.47349
 31
0.0
  0
LINE
  5
196
330
34E
100
AcDbEntity
  8
BORDER
  6
Continuous
 62
     7
370
    30
100
AcDbLine
 10
16.384792
 20
-9.331542
 30
0.0
 11
16.384792
 21
-9.331542
 31
0.0
  0
LINE
  5
197
330
34E
100
AcDbEntity
  8
BORDER
  6
Continuous
 62
     7
370
    30
100
AcDbLine
 10
17.714104
 20
-10.14874
 30
0.0
 11
17.714104
 21
-10.14874
 31
0.0
  0
LINE
  5
198
330
34E
100
AcDbEntity
  8
BORDER
  6
Continuous
 62
     7
370
    30
100
AcDbLine
 10
17.714104
 20
-9.47349
 30
0.0
 11
17.714104
 21
-9.47349
 31
0.0
  0
LINE
  5
199
330
34E
100
AcDbEntity
  8
DEFPOINTS
  6
Continuous
 62
     7
370
    30
100
AcDbLine
 10
17.714104
 20
-10.879167
 30
0.0
 11
16.384792
 21
-10.259313
 31
0.0
  0
LINE
  5
19A
330
34E
100
AcDbEntity
  8
DEFPOINTS
  6
Continuous
 62
     7
370
    13
100
AcDbLine
 10
17.77074
 20
-10.175156
 30
0.0
 11
18.06075
 21
-10.310385
 31
0.0
  0
LINE
  5
19B
330
34E
100
AcDbEntity
  8
DEFPOINTS
  6
Continuous
 62
     7
370
    13
100
AcDbLine
 10
17.617719
 20
-10.834552
 30
0.0
 11
17.897615
 21
-10.234312
 31
0.0
  0
LINE
  5
19C
330
34E
100
AcDbEntity
  8
BORDER
  6
Continuous
 62
     7
370
    30
100
AcDbLine
 10
17.714104
 20
-10.879167
 30
0.0
 11
17.714104
 21
-10.879167
 31
0.0
  0
LINE
  5
19D
330
34E
100
AcDbEntity
  8
BORDER
  6
Continuous
 62
     7
370
    30
100
AcDbLine
 10
17.714104
 20
-10.14874
 30
0.0
 11
17.714104
 21
-10.14874
 31
0.0
  0
LINE
  5
19E
330
34E
100
AcDbEntity
  8
BORDER
  6
Continuous
 62
     7
370
    30
100
AcDbLine
 10
17.897615
 20
-10.234312
 30
0.0
 11
17.897615
 21
-10.234312
 31
0.0
  0
LINE
  5
1A0
330
34E
100
AcDbEntity
  8
HATCH
  6
Continuous
 62
     7
370
    13
100
AcDbLine
 10
17.378927
 20
-9.992312
 30
0.0
 11
17.725729
 21
-9.726625
 31
0.0
  0
LINE
  5
1A1
330
34E
100
AcDbEntity
  8
HATCH
  6
Continuous
 62
     7
370
    13
100
AcDbLine
 10
17.725729
 20
-9.726625
 30
0.0
 11
17.971771
 21
-9.726625
 31
0.0
  0
LINE
  5
1A2
330
34E
100
AcDbEntity
  8
HATCH
  6
Continuous
 62
     7
370
    13
100
AcDbLine
 10
17.696146
 20
-10.868448
 30
0.0
 11
18.112771
 21
-10.54476
 31
0.0
  0
LINE
  5
1A3
330
34E
100
AcDbEntity
  8
HATCH
  6
Continuous
 62
     7
370
    13
100
AcDbLine
 10
18.112771
 20
-10.54476
 30
0.0
 11
18.292771
 21
-10.54476
 31
0.0
  0
LINE
  5
1A4
330
34E
100
AcDbEntity
  8
_0
  6
Continuous
 62
     7
370
    13
100
AcDbLine
 10
20.25
 20
-1.918458
 30
0.0
 11
20.25
 21
-2.125
 31
0.0
  0
LINE
  5
1A5
330
34E
100
AcDbEntity
  8
_0
  6
Continuous
 62
     7
370
    13
100
AcDbLine
 10
12.25
 20
-1.918458
 30
0.0
 11
12.25
 21
-2.125
 31
0.0
  0
LINE
  5
1A6
330
34E
100
AcDbEntity
  8
_0
  6
Continuous
 62
     7
370
    13
100
AcDbLine
 10
20.456542
 20
-2.125
 30
0.0
 11
20.25
 21
-2.125
 31
0.0
  0
LINE
  5
1A7
330
34E
100
AcDbEntity
  8
_0
  6
Continuous
 62
     7
370
    13
100
AcDbLine
 10
20.456542
 20
-12.875
 30
0.0
 11
20.25
 21
-12.875
 31
0.0
  0
LINE
  5
1A8
330
34E
100
AcDbEntity
  8
_0
  6
Continuous
 62
     7
370
    13
100
AcDbLine
 10
12.25
 20
-2.125
 30
0.0
 11
12.043458
 21
-2.125
 31
0.0
  0
LINE
  5
1A9
330
34E
100
AcDbEntity
  8
_0
  6
Continuous
 62
     7
370
    13
100
AcDbLine
 10
20.25
 20
-12.875
 30
0.0
 11
20.25
 21
-13.081542
 31
0.0
  0
LINE
  5
1AA
330
34E
100
AcDbEntity
  8
_0
  6
Continuous
 62
     7
370
    13
100
AcDbLine
 10
12.25
 20
-12.875
 30
0.0
 11
12.25
 21
-13.081542
 31
0.0
  0
LINE
  5
1AB
330
34E
100
AcDbEntity
  8
_0
  6
Continuous
 62
     7
370
    13
100
AcDbLine
 10
12.25
 20
-12.875
 30
0.0
 11
12.043458
 21
-12.875
 31
0.0
  0
LINE
  5
1AE
330
34E
100
AcDbEntity
  8
DIM
  6
Continuous
 62
     7
370
    30
100
AcDbLine
 10
16.340528
 20
-11.240437
 30
0.0
 11
18.400653
 21
-11.240437
 31
0.0
  0
LINE
  5
1AF
330
34E
100
AcDbEntity
  8
DIM
  6
Continuous
 62
     7
370
    30
100
AcDbLine
 10
15.462114
 20
-5.531813
 30
0.0
 11
17.00163
 21
-5.531813
 31
0.0
  0
INSERT
  5
1B1
330
34E
100
AcDbEntity
  8
DIM
  6
Continuous
 62
     7
370
    13
100
AcDbBlockReference
  2
LARROW
 10
17.378927
 20
-9.992312
 30
0.0
 41
11.999998
 42
11.999998
 43
11.999998
 50
217.455976
  0
INSERT
  5
1B3
330
34E
100
AcDbEntity
  8
DIM
  6
Continuous
 62
     7
370
    13
100
AcDbBlockReference
  2
LARROW
 10
17.696146
 20
-10.868448
 30
0.0
 41
12.0
 42
12.0
 43
12.0
 50
217.844618
  0
INSERT
  5
1B5
330
34E
100
AcDbEntity
  8
DIM
  6
Continuous
 62
     7
370
    13
100
AcDbBlockReference
  2
LARROW
 10
17.828958
 20
-8.787573
 30
0.0
 41
12.0
 42
12.0
 43
12.0
  0
INSERT
  5
1B7
330
34E
100
AcDbEntity
  8
DIM
  6
Continuous
 62
     7
370
    13
100
AcDbBlockReference
  2
LARROW
 10
13.116
 20
-8.787573
 30
0.0
 41
12.0
 42
12.0
 43
12.0
 50
180.0
  0
INSERT
  5
1B9
330
34E
100
AcDbEntity
  8
DIM
  6
Continuous
 62
     7
370
    13
100
AcDbBlockReference
  2
LARROW
 10
14.375344
 20
-7.572938
 30
0.0
 41
12.0
 42
12.0
 43
12.0
 50
90.0
  0
INSERT
  5
1BB
330
34E
100
AcDbEntity
  8
DIM
  6
Continuous
 62
     7
370
    13
100
AcDbBlockReference
  2
LARROW
 10
16.722188
 20
-8.023625
 30
0.0
 41
12.0
 42
12.0
 43
12.0
 50
270.0
  0
INSERT
  5
1BD
330
34E
100
AcDbEntity
  8
DIM
  6
Continuous
 62
     7
370
    13
100
AcDbBlockReference
  2
LARROW
 10
17.847875
 20
-5.581562
 30
0.0
 41
12.0
 42
12.0
 43
12.0
 50
180.0
  0
INSERT
  5
1BF
330
34E
100
AcDbEntity
  8
DIM
  6
Continuous
 62
     7
370
    13
100
AcDbBlockReference
  2
LARROW
 10
18.272312
 20
-5.581562
 30
0.0
 41
12.0
 42
12.0
 43
12.0
  0
INSERT
  5
1C1
330
34E
100
AcDbEntity
  8
DIM
  6
Continuous
 62
     7
370
    13
100
AcDbBlockReference
  2
LARROW
 10
18.265781
 20
-5.581562
 30
0.0
 41
12.0
 42
12.0
 43
12.0
 50
180.0
  0
INSERT
  5
1C3
330
34E
100
AcDbEntity
  8
DIM
  6
Continuous
 62
     7
370
    13
100
AcDbBlockReference
  2
LARROW
 10
19.589573
 20
-5.581562
 30
0.0
 41
12.0
 42
12.0
 43
12.0
  0
INSERT
  5
1C5
330
34E
100
AcDbEntity
  8
DIM
  6
Continuous
 62
     7
370
    13
100
AcDbBlockReference
  2
LARROW
 10
14.000073
 20
-7.65199
 30
0.0
 41
11.999998
 42
11.999998
 43
11.999998
 50
239.998917
  0
INSERT
  5
1C7
330
34E
100
AcDbEntity
  8
DIM
  6
Continuous
 62
     7
370
    13
100
AcDbBlockReference
  2
LARROW
 10
14.216354
 20
-7.277396
 30
0.0
 41
11.999998
 42
11.999998
 43
11.999998
 50
59.998917
  0
INSERT
  5
1C9
330
34E
100
AcDbEntity
  8
DIM
  6
Continuous
 62
     7
370
    13
100
AcDbBlockReference
  2
LARROW
 10
13.280458
 20
-6.439833
 30
0.0
 41
11.999999
 42
11.999999
 43
11.999999
 50
149.554124
  0
INSERT
  5
1CB
330
34E
100
AcDbEntity
  8
DIM
  6
Continuous
 62
     7
370
    13
100
AcDbBlockReference
  2
LARROW
 10
13.107292
 20
-5.814552
 30
0.0
 41
12.0
 42
12.0
 43
12.0
  0
INSERT
  5
1CD
330
34E
100
AcDbEntity
  8
DIM
  6
Continuous
 62
     7
370
    13
100
AcDbBlockReference
  2
LARROW
 10
13.179115
 20
-5.814552
 30
0.0
 41
12.0
 42
12.0
 43
12.0
 50
180.0
  0
INSERT
  5
1CF
330
34E
100
AcDbEntity
  8
DIM
  6
Continuous
 62
     7
370
    13
100
AcDbBlockReference
  2
LARROW
 10
16.466292
 20
-6.133615
 30
0.0
 41
12.000001
 42
12.000001
 43
12.000001
 50
119.999279
  0
INSERT
  5
1D1
330
34E
100
AcDbEntity
  8
DIM
  6
Continuous
 62
     7
370
    13
100
AcDbBlockReference
  2
LARROW
 10
16.672604
 20
-6.490969
 30
0.0
 41
12.000001
 42
12.000001
 43
12.000001
 50
299.999279
  0
INSERT
  5
1D3
330
34E
100
AcDbEntity
  8
DIM
  6
Continuous
 62
     7
370
    13
100
AcDbBlockReference
  2
LARROW
 10
16.723187
 20
-6.019479
 30
0.0
 41
12.0
 42
12.0
 43
12.0
 50
239.999127
  0
INSERT
  5
1D5
330
34E
100
AcDbEntity
  8
DIM
  6
Continuous
 62
     7
370
    13
100
AcDbBlockReference
  2
LARROW
 10
16.910292
 20
-5.695417
 30
0.0
 41
12.0
 42
12.0
 43
12.0
 50
59.999127
  0
LWPOLYLINE
  5
1D8
330
34E
100
AcDbEntity
  8
HATCH
  6
Continuous
 62
     7
370
    30
100
AcDbPolyline
 90
        2
 70
   128
 43
0.0
 10
15.863312
 20
-3.645594
 10
16.213313
 20
-3.645594
  0
LWPOLYLINE
  5
1D9
330
34E
100
AcDbEntity
  8
HATCH
  6
Continuous
 62
     7
370
    30
100
AcDbPolyline
 90
        2
 70
   128
 43
0.0
 10
15.863312
 20
-3.695594
 10
16.213313
 20
-3.695594
  0
LWPOLYLINE
  5
1DA
330
34E
100
AcDbEntity
  8
HATCH
  6
Continuous
 62
     7
370
    30
100
AcDbPolyline
 90
        2
 70
   128
 43
0.0
 10
16.213313
 20
-3.845594
 10
16.563312
 20
-3.845594
  0
LWPOLYLINE
  5
1DB
330
34E
100
AcDbEntity
  8
HATCH
  6
Continuous
 62
     7
370
    30
100
AcDbPolyline
 90
        2
 70
   128
 43
0.0
 10
16.213313
 20
-3.895594
 10
16.563312
 20
-3.895594
  0
LWPOLYLINE
  5
1DC
330
34E
100
AcDbEntity
  8
HATCH
  6
Continuous
 62
     7
370
    30
100
AcDbPolyline
 90
        2
 70
   128
 43
0.0
 10
16.563312
 20
-4.045594
 10
16.913312
 20
-4.045594
  0
LWPOLYLINE
  5
1DD
330
34E
100
AcDbEntity
  8
HATCH
  6
Continuous
 62
     7
370
    30
100
AcDbPolyline
 90
        2
 70
   128
 43
0.0
 10
16.563312
 20
-4.095594
 10
16.913312
 20
-4.095594
  0
LWPOLYLINE
  5
1DE
330
34E
100
AcDbEntity
  8
HATCH
  6
Continuous
 62
     7
370
    30
100
AcDbPolyline
 90
        2
 70
   128
 43
0.0
 10
16.913312
 20
-4.245594
 10
17.613312
 20
-4.245594
  0
LWPOLYLINE
  5
1DF
330
34E
100
AcDbEntity
  8
HATCH
  6
Continuous
 62
     7
370
    30
100
AcDbPolyline
 90
        2
 70
   128
 43
0.0
 10
16.913312
 20
-4.295594
 10
17.613312
 20
-4.295594
  0
LINE
  5
1E0
330
34E
100
AcDbEntity
  8
HATCH
  6
Continuous
 62
     7
370
    30
100
AcDbLine
 10
17.613312
 20
-4.770594
 30
0.0
 11
17.613312
 21
-4.570594
 31
0.0
  0
LINE
  5
1E1
330
34E
100
AcDbEntity
  8
HATCH
  6
Continuous
 62
     7
370
    30
100
AcDbLine
 10
17.613312
 20
-4.570594
 30
0.0
 11
17.613312
 21
-4.370594
 31
0.0
  0
LINE
  5
1E2
330
34E
100
AcDbEntity
  8
HATCH
  6
Continuous
 62
     7
370
    30
100
AcDbLine
 10
17.613312
 20
-4.370594
 30
0.0
 11
17.613312
 21
-3.570594
 31
0.0
  0
LINE
  5
1E3
330
34E
100
AcDbEntity
  8
LEGEND
  6
Continuous
 62
     7
370
    30
100
AcDbLine
 10
17.613312
 20
-4.445594
 30
0.0
 11
18.313312
 21
-4.445594
 31
0.0
  0
LINE
  5
1E4
330
34E
100
AcDbEntity
  8
LEGEND
  6
Continuous
 62
     7
370
    30
100
AcDbLine
 10
17.613312
 20
-4.495594
 30
0.0
 11
18.313312
 21
-4.495594
 31
0.0
  0
LWPOLYLINE
  5
1E5
330
34E
100
AcDbEntity
  8
HATCH
  6
Continuous
 62
     7
370
    30
100
AcDbPolyline
 90
        2
 70
   128
 43
0.0
 10
18.963344
 20
-4.645594
 10
19.068104
 20
-4.645594
  0
LWPOLYLINE
  5
1E6
330
34E
100
AcDbEntity
  8
HATCH
  6
Continuous
 62
     7
370
    30
100
AcDbPolyline
 90
        2
 70
   128
 43
0.0
 10
18.963344
 20
-4.695594
 10
19.068104
 20
-4.695594
  0
LINE
  5
1E7
330
34E
100
AcDbEntity
  8
LEGEND
  6
Continuous
 62
     7
370
    30
100
AcDbLine
 10
18.963344
 20
-4.645594
 30
0.0
 11
18.963344
 21
-4.695594
 31
0.0
  0
LINE
  5
1E8
330
34E
100
AcDbEntity
  8
LEGEND
  6
Continuous
 62
     7
370
    30
100
AcDbLine
 10
19.068104
 20
-4.645594
 30
0.0
 11
19.068104
 21
-4.695594
 31
0.0
  0
LWPOLYLINE
  5
1E9
330
34E
100
AcDbEntity
  8
HATCH
  6
Continuous
 62
     7
370
    30
100
AcDbPolyline
 90
        2
 70
   128
 43
0.0
 10
18.963344
 20
-4.693594
 10
19.068104
 20
-4.693594
  0
LWPOLYLINE
  5
1EA
330
34E
100
AcDbEntity
  8
HATCH
  6
Continuous
 62
     7
370
    30
100
AcDbPolyline
 90
        2
 70
   128
 43
0.0
 10
18.963344
 20
-4.691594
 10
19.068104
 20
-4.691594
  0
LWPOLYLINE
  5
1EB
330
34E
100
AcDbEntity
  8
HATCH
  6
Continuous
 62
     7
370
    30
100
AcDbPolyline
 90
        2
 70
   128
 43
0.0
 10
18.963344
 20
-4.689594
 10
19.068104
 20
-4.689594
  0
LWPOLYLINE
  5
1EC
330
34E
100
AcDbEntity
  8
HATCH
  6
Continuous
 62
     7
370
    30
100
AcDbPolyline
 90
        2
 70
   128
 43
0.0
 10
18.963344
 20
-4.687594
 10
19.068104
 20
-4.687594
  0
LWPOLYLINE
  5
1ED
330
34E
100
AcDbEntity
  8
HATCH
  6
Continuous
 62
     7
370
    30
100
AcDbPolyline
 90
        2
 70
   128
 43
0.0
 10
18.963344
 20
-4.685594
 10
19.068104
 20
-4.685594
  0
LWPOLYLINE
  5
1EE
330
34E
100
AcDbEntity
  8
HATCH
  6
Continuous
 62
     7
370
    30
100
AcDbPolyline
 90
        2
 70
   128
 43
0.0
 10
18.963344
 20
-4.683594
 10
19.068104
 20
-4.683594
  0
LWPOLYLINE
  5
1EF
330
34E
100
AcDbEntity
  8
HATCH
  6
Continuous
 62
     7
370
    30
100
AcDbPolyline
 90
        2
 70
   128
 43
0.0
 10
18.963344
 20
-4.681594
 10
19.068104
 20
-4.681594
  0
LWPOLYLINE
  5
1F0
330
34E
100
AcDbEntity
  8
HATCH
  6
Continuous
 62
     7
370
    30
100
AcDbPolyline
 90
        2
 70
   128
 43
0.0
 10
18.963344
 20
-4.679594
 10
19.068104
 20
-4.679594
  0
LWPOLYLINE
  5
1F1
330
34E
100
AcDbEntity
  8
HATCH
  6
Continuous
 62
     7
370
    30
100
AcDbPolyline
 90
        2
 70
   128
 43
0.0
 10
18.963344
 20
-4.677594
 10
19.068104
 20
-4.677594
  0
LWPOLYLINE
  5
1F2
330
34E
100
AcDbEntity
  8
HATCH
  6
Continuous
 62
     7
370
    30
100
AcDbPolyline
 90
        2
 70
   128
 43
0.0
 10
18.963344
 20
-4.675594
 10
19.068104
 20
-4.675594
  0
LWPOLYLINE
  5
1F3
330
34E
100
AcDbEntity
  8
HATCH
  6
Continuous
 62
     7
370
    30
100
AcDbPolyline
 90
        2
 70
   128
 43
0.0
 10
18.963344
 20
-4.673594
 10
19.068104
 20
-4.673594
  0
LWPOLYLINE
  5
1F4
330
34E
100
AcDbEntity
  8
HATCH
  6
Continuous
 62
     7
370
    30
100
AcDbPolyline
 90
        2
 70
   128
 43
0.0
 10
18.963344
 20
-4.671594
 10
19.068104
 20
-4.671594
  0
LWPOLYLINE
  5
1F5
330
34E
100
AcDbEntity
  8
HATCH
  6
Continuous
 62
     7
370
    30
100
AcDbPolyline
 90
        2
 70
   128
 43
0.0
 10
18.963344
 20
-4.669594
 10
19.068104
 20
-4.669594
  0
LWPOLYLINE
  5
1F6
330
34E
100
AcDbEntity
  8
HATCH
  6
Continuous
 62
     7
370
    30
100
AcDbPolyline
 90
        2
 70
   128
 43
0.0
 10
18.963344
 20
-4.667594
 10
19.068104
 20
-4.667594
  0
LWPOLYLINE
  5
1F7
330
34E
100
AcDbEntity
  8
HATCH
  6
Continuous
 62
     7
370
    30
100
AcDbPolyline
 90
        2
 70
   128
 43
0.0
 10
18.963344
 20
-4.665594
 10
19.068104
 20
-4.665594
  0
LWPOLYLINE
  5
1F8
330
34E
100
AcDbEntity
  8
HATCH
  6
Continuous
 62
     7
370
    30
100
AcDbPolyline
 90
        2
 70
   128
 43
0.0
 10
18.963344
 20
-4.663594
 10
19.068104
 20
-4.663594
  0
LWPOLYLINE
  5
1F9
330
34E
100
AcDbEntity
  8
HATCH
  6
Continuous
 62
     7
370
    30
100
AcDbPolyline
 90
        2
 70
   128
 43
0.0
 10
18.963344
 20
-4.661594
 10
19.068104
 20
-4.661594
  0
LWPOLYLINE
  5
1FA
330
34E
100
AcDbEntity
  8
HATCH
  6
Continuous
 62
     7
370
    30
100
AcDbPolyline
 90
        2
 70
   128
 43
0.0
 10
18.963344
 20
-4.659594
 10
19.068104
 20
-4.659594
  0
LWPOLYLINE
  5
1FB
330
34E
100
AcDbEntity
  8
HATCH
  6
Continuous
 62
     7
370
    30
100
AcDbPolyline
 90
        2
 70
   128
 43
0.0
 10
18.963344
 20
-4.657594
 10
19.068104
 20
-4.657594
  0
LWPOLYLINE
  5
1FC
330
34E
100
AcDbEntity
  8
HATCH
  6
Continuous
 62
     7
370
    30
100
AcDbPolyline
 90
        2
 70
   128
 43
0.0
 10
18.963344
 20
-4.655594
 10
19.068104
 20
-4.655594
  0
LWPOLYLINE
  5
1FD
330
34E
100
AcDbEntity
  8
HATCH
  6
Continuous
 62
     7
370
    30
100
AcDbPolyline
 90
        2
 70
   128
 43
0.0
 10
18.963344
 20
-4.653594
 10
19.068104
 20
-4.653594
  0
LWPOLYLINE
  5
1FE
330
34E
100
AcDbEntity
  8
HATCH
  6
Continuous
 62
     7
370
    30
100
AcDbPolyline
 90
        2
 70
   128
 43
0.0
 10
18.963344
 20
-4.651594
 10
19.068104
 20
-4.651594
  0
LWPOLYLINE
  5
1FF
330
34E
100
AcDbEntity
  8
HATCH
  6
Continuous
 62
     7
370
    30
100
AcDbPolyline
 90
        2
 70
   128
 43
0.0
 10
18.963344
 20
-4.649594
 10
19.068104
 20
-4.649594
  0
LWPOLYLINE
  5
200
330
34E
100
AcDbEntity
  8
HATCH
  6
Continuous
 62
     7
370
    30
100
AcDbPolyline
 90
        2
 70
   128
 43
0.0
 10
18.963344
 20
-4.647594
 10
19.068104
 20
-4.647594
  0
LINE
  5
201
330
34E
100
AcDbEntity
  8
LEGEND
  6
Continuous
 62
     7
370
    30
100
AcDbLine
 10
17.613312
 20
-4.445594
 30
0.0
 11
17.613312
 21
-4.495594
 31
0.0
  0
LINE
  5
202
330
34E
100
AcDbEntity
  8
LEGEND
  6
Continuous
 62
     7
370
    30
100
AcDbLine
 10
18.313312
 20
-4.445594
 30
0.0
 11
18.313312
 21
-4.495594
 31
0.0
  0
LINE
  5
203
330
34E
100
AcDbEntity
  8
LEGEND
  6
Continuous
 62
     7
370
    30
100
AcDbLine
 10
17.613312
 20
-4.493594
 30
0.0
 11
18.313312
 21
-4.493594
 31
0.0
  0
LINE
  5
204
330
34E
100
AcDbEntity
  8
LEGEND
  6
Continuous
 62
     7
370
    30
100
AcDbLine
 10
17.613312
 20
-4.491594
 30
0.0
 11
18.313312
 21
-4.491594
 31
0.0
  0
LINE
  5
205
330
34E
100
AcDbEntity
  8
LEGEND
  6
Continuous
 62
     7
370
    30
100
AcDbLine
 10
17.613312
 20
-4.489594
 30
0.0
 11
18.313312
 21
-4.489594
 31
0.0
  0
LINE
  5
206
330
34E
100
AcDbEntity
  8
LEGEND
  6
Continuous
 62
     7
370
    30
100
AcDbLine
 10
17.613312
 20
-4.487594
 30
0.0
 11
18.313312
 21
-4.487594
 31
0.0
  0
LINE
  5
207
330
34E
100
AcDbEntity
  8
LEGEND
  6
Continuous
 62
     7
370
    30
100
AcDbLine
 10
17.613312
 20
-4.485594
 30
0.0
 11
18.313312
 21
-4.485594
 31
0.0
  0
LINE
  5
208
330
34E
100
AcDbEntity
  8
LEGEND
  6
Continuous
 62
     7
370
    30
100
AcDbLine
 10
17.613312
 20
-4.483594
 30
0.0
 11
18.313312
 21
-4.483594
 31
0.0
  0
LINE
  5
209
330
34E
100
AcDbEntity
  8
LEGEND
  6
Continuous
 62
     7
370
    30
100
AcDbLine
 10
17.613312
 20
-4.481594
 30
0.0
 11
18.313312
 21
-4.481594
 31
0.0
  0
LINE
  5
20A
330
34E
100
AcDbEntity
  8
LEGEND
  6
Continuous
 62
     7
370
    30
100
AcDbLine
 10
17.613312
 20
-4.479594
 30
0.0
 11
18.313312
 21
-4.479594
 31
0.0
  0
LINE
  5
20B
330
34E
100
AcDbEntity
  8
LEGEND
  6
Continuous
 62
     7
370
    30
100
AcDbLine
 10
17.613312
 20
-4.477594
 30
0.0
 11
18.313312
 21
-4.477594
 31
0.0
  0
LINE
  5
20C
330
34E
100
AcDbEntity
  8
LEGEND
  6
Continuous
 62
     7
370
    30
100
AcDbLine
 10
17.613312
 20
-4.475594
 30
0.0
 11
18.313312
 21
-4.475594
 31
0.0
  0
LINE
  5
20D
330
34E
100
AcDbEntity
  8
LEGEND
  6
Continuous
 62
     7
370
    30
100
AcDbLine
 10
17.613312
 20
-4.473594
 30
0.0
 11
18.313312
 21
-4.473594
 31
0.0
  0
LINE
  5
20E
330
34E
100
AcDbEntity
  8
LEGEND
  6
Continuous
 62
     7
370
    30
100
AcDbLine
 10
17.613312
 20
-4.471594
 30
0.0
 11
18.313312
 21
-4.471594
 31
0.0
  0
LINE
  5
20F
330
34E
100
AcDbEntity
  8
LEGEND
  6
Continuous
 62
     7
370
    30
100
AcDbLine
 10
17.613312
 20
-4.469594
 30
0.0
 11
18.313312
 21
-4.469594
 31
0.0
  0
LINE
  5
210
330
34E
100
AcDbEntity
  8
LEGEND
  6
Continuous
 62
     7
370
    30
100
AcDbLine
 10
17.613312
 20
-4.467594
 30
0.0
 11
18.313312
 21
-4.467594
 31
0.0
  0
LINE
  5
211
330
34E
100
AcDbEntity
  8
LEGEND
  6
Continuous
 62
     7
370
    30
100
AcDbLine
 10
17.613312
 20
-4.465594
 30
0.0
 11
18.313312
 21
-4.465594
 31
0.0
  0
LINE
  5
212
330
34E
100
AcDbEntity
  8
LEGEND
  6
Continuous
 62
     7
370
    30
100
AcDbLine
 10
17.613312
 20
-4.463594
 30
0.0
 11
18.313312
 21
-4.463594
 31
0.0
  0
LINE
  5
213
330
34E
100
AcDbEntity
  8
LEGEND
  6
Continuous
 62
     7
370
    30
100
AcDbLine
 10
17.613312
 20
-4.461594
 30
0.0
 11
18.313312
 21
-4.461594
 31
0.0
  0
LINE
  5
214
330
34E
100
AcDbEntity
  8
LEGEND
  6
Continuous
 62
     7
370
    30
100
AcDbLine
 10
17.613312
 20
-4.459594
 30
0.0
 11
18.313312
 21
-4.459594
 31
0.0
  0
LINE
  5
215
330
34E
100
AcDbEntity
  8
LEGEND
  6
Continuous
 62
     7
370
    30
100
AcDbLine
 10
17.613312
 20
-4.457594
 30
0.0
 11
18.313312
 21
-4.457594
 31
0.0
  0
LINE
  5
216
330
34E
100
AcDbEntity
  8
LEGEND
  6
Continuous
 62
     7
370
    30
100
AcDbLine
 10
17.613312
 20
-4.455594
 30
0.0
 11
18.313312
 21
-4.455594
 31
0.0
  0
LINE
  5
217
330
34E
100
AcDbEntity
  8
LEGEND
  6
Continuous
 62
     7
370
    30
100
AcDbLine
 10
17.613312
 20
-4.453594
 30
0.0
 11
18.313312
 21
-4.453594
 31
0.0
  0
LINE
  5
218
330
34E
100
AcDbEntity
  8
LEGEND
  6
Continuous
 62
     7
370
    30
100
AcDbLine
 10
17.613312
 20
-4.451594
 30
0.0
 11
18.313312
 21
-4.451594
 31
0.0
  0
LINE
  5
219
330
34E
100
AcDbEntity
  8
LEGEND
  6
Continuous
 62
     7
370
    30
100
AcDbLine
 10
17.613312
 20
-4.449594
 30
0.0
 11
18.313312
 21
-4.449594
 31
0.0
  0
LINE
  5
21A
330
34E
100
AcDbEntity
  8
LEGEND
  6
Continuous
 62
     7
370
    30
100
AcDbLine
 10
17.613312
 20
-4.447594
 30
0.0
 11
18.313312
 21
-4.447594
 31
0.0
  0
LINE
  5
21B
330
34E
100
AcDbEntity
  8
LEGEND
  6
Continuous
 62
     7
370
    30
100
AcDbLine
 10
16.913312
 20
-4.245594
 30
0.0
 11
16.913312
 21
-4.295594
 31
0.0
  0
LINE
  5
21C
330
34E
100
AcDbEntity
  8
LEGEND
  6
Continuous
 62
     7
370
    30
100
AcDbLine
 10
17.613312
 20
-4.245594
 30
0.0
 11
17.613312
 21
-4.295594
 31
0.0
  0
LWPOLYLINE
  5
21D
330
34E
100
AcDbEntity
  8
HATCH
  6
Continuous
 62
     7
370
    30
100
AcDbPolyline
 90
        2
 70
   128
 43
0.0
 10
16.913312
 20
-4.293594
 10
17.613312
 20
-4.293594
  0
LWPOLYLINE
  5
21E
330
34E
100
AcDbEntity
  8
HATCH
  6
Continuous
 62
     7
370
    30
100
AcDbPolyline
 90
        2
 70
   128
 43
0.0
 10
16.913312
 20
-4.291594
 10
17.613312
 20
-4.291594
  0
LWPOLYLINE
  5
21F
330
34E
100
AcDbEntity
  8
HATCH
  6
Continuous
 62
     7
370
    30
100
AcDbPolyline
 90
        2
 70
   128
 43
0.0
 10
16.913312
 20
-4.289594
 10
17.613312
 20
-4.289594
  0
LWPOLYLINE
  5
220
330
34E
100
AcDbEntity
  8
HATCH
  6
Continuous
 62
     7
370
    30
100
AcDbPolyline
 90
        2
 70
   128
 43
0.0
 10
16.913312
 20
-4.287594
 10
17.613312
 20
-4.287594
  0
LWPOLYLINE
  5
221
330
34E
100
AcDbEntity
  8
HATCH
  6
Continuous
 62
     7
370
    30
100
AcDbPolyline
 90
        2
 70
   128
 43
0.0
 10
16.913312
 20
-4.285594
 10
17.613312
 20
-4.285594
  0
LWPOLYLINE
  5
222
330
34E
100
AcDbEntity
  8
HATCH
  6
Continuous
 62
     7
370
    30
100
AcDbPolyline
 90
        2
 70
   128
 43
0.0
 10
16.913312
 20
-4.283594
 10
17.613312
 20
-4.283594
  0
LWPOLYLINE
  5
223
330
34E
100
AcDbEntity
  8
HATCH
  6
Continuous
 62
     7
370
    30
100
AcDbPolyline
 90
        2
 70
   128
 43
0.0
 10
16.913312
 20
-4.281594
 10
17.613312
 20
-4.281594
  0
LWPOLYLINE
  5
224
330
34E
100
AcDbEntity
  8
HATCH
  6
Continuous
 62
     7
370
    30
100
AcDbPolyline
 90
        2
 70
   128
 43
0.0
 10
16.913312
 20
-4.279594
 10
17.613312
 20
-4.279594
  0
LWPOLYLINE
  5
225
330
34E
100
AcDbEntity
  8
HATCH
  6
Continuous
 62
     7
370
    30
100
AcDbPolyline
 90
        2
 70
   128
 43
0.0
 10
16.913312
 20
-4.277594
 10
17.613312
 20
-4.277594
  0
LWPOLYLINE
  5
226
330
34E
100
AcDbEntity
  8
HATCH
  6
Continuous
 62
     7
370
    30
100
AcDbPolyline
 90
        2
 70
   128
 43
0.0
 10
16.913312
 20
-4.275594
 10
17.613312
 20
-4.275594
  0
LWPOLYLINE
  5
227
330
34E
100
AcDbEntity
  8
HATCH
  6
Continuous
 62
     7
370
    30
100
AcDbPolyline
 90
        2
 70
   128
 43
0.0
 10
16.913312
 20
-4.273594
 10
17.613312
 20
-4.273594
  0
LWPOLYLINE
  5
228
330
34E
100
AcDbEntity
  8
HATCH
  6
Continuous
 62
     7
370
    30
100
AcDbPolyline
 90
        2
 70
   128
 43
0.0
 10
16.913312
 20
-4.271594
 10
17.613312
 20
-4.271594
  0
LWPOLYLINE
  5
229
330
34E
100
AcDbEntity
  8
HATCH
  6
Continuous
 62
     7
370
    30
100
AcDbPolyline
 90
        2
 70
   128
 43
0.0
 10
16.913312
 20
-4.269594
 10
17.613312
 20
-4.269594
  0
LWPOLYLINE
  5
22A
330
34E
100
AcDbEntity
  8
HATCH
  6
Continuous
 62
     7
370
    30
100
AcDbPolyline
 90
        2
 70
   128
 43
0.0
 10
16.913312
 20
-4.267594
 10
17.613312
 20
-4.267594
  0
LWPOLYLINE
  5
22B
330
34E
100
AcDbEntity
  8
HATCH
  6
Continuous
 62
     7
370
    30
100
AcDbPolyline
 90
        2
 70
   128
 43
0.0
 10
16.913312
 20
-4.265594
 10
17.613312
 20
-4.265594
  0
LWPOLYLINE
  5
22C
330
34E
100
AcDbEntity
  8
HATCH
  6
Continuous
 62
     7
370
    30
100
AcDbPolyline
 90
        2
 70
   128
 43
0.0
 10
16.913312
 20
-4.263594
 10
17.613312
 20
-4.263594
  0
LWPOLYLINE
  5
22D
330
34E
100
AcDbEntity
  8
HATCH
  6
Continuous
 62
     7
370
    30
100
AcDbPolyline
 90
        2
 70
   128
 43
0.0
 10
16.913312
 20
-4.261594
 10
17.613312
 20
-4.261594
  0
LWPOLYLINE
  5
22E
330
34E
100
AcDbEntity
  8
HATCH
  6
Continuous
 62
     7
370
    30
100
AcDbPolyline
 90
        2
 70
   128
 43
0.0
 10
16.913312
 20
-4.259594
 10
17.613312
 20
-4.259594
  0
LWPOLYLINE
  5
22F
330
34E
100
AcDbEntity
  8
HATCH
  6
Continuous
 62
     7
370
    30
100
AcDbPolyline
 90
        2
 70
   128
 43
0.0
 10
16.913312
 20
-4.257594
 10
17.613312
 20
-4.257594
  0
LWPOLYLINE
  5
230
330
34E
100
AcDbEntity
  8
HATCH
  6
Continuous
 62
     7
370
    30
100
AcDbPolyline
 90
        2
 70
   128
 43
0.0
 10
16.913312
 20
-4.255594
 10
17.613312
 20
-4.255594
  0
LWPOLYLINE
  5
231
330
34E
100
AcDbEntity
  8
HATCH
  6
Continuous
 62
     7
370
    30
100
AcDbPolyline
 90
        2
 70
   128
 43
0.0
 10
16.913312
 20
-4.253594
 10
17.613312
 20
-4.253594
  0
LWPOLYLINE
  5
232
330
34E
100
AcDbEntity
  8
HATCH
  6
Continuous
 62
     7
370
    30
100
AcDbPolyline
 90
        2
 70
   128
 43
0.0
 10
16.913312
 20
-4.251594
 10
17.613312
 20
-4.251594
  0
LWPOLYLINE
  5
233
330
34E
100
AcDbEntity
  8
HATCH
  6
Continuous
 62
     7
370
    30
100
AcDbPolyline
 90
        2
 70
   128
 43
0.0
 10
16.913312
 20
-4.249594
 10
17.613312
 20
-4.249594
  0
LWPOLYLINE
  5
234
330
34E
100
AcDbEntity
  8
HATCH
  6
Continuous
 62
     7
370
    30
100
AcDbPolyline
 90
        2
 70
   128
 43
0.0
 10
16.913312
 20
-4.247594
 10
17.613312
 20
-4.247594
  0
LINE
  5
235
330
34E
100
AcDbEntity
  8
LEGEND
  6
Continuous
 62
     7
370
    30
100
AcDbLine
 10
16.563312
 20
-4.045594
 30
0.0
 11
16.563312
 21
-4.095594
 31
0.0
  0
LINE
  5
236
330
34E
100
AcDbEntity
  8
LEGEND
  6
Continuous
 62
     7
370
    30
100
AcDbLine
 10
16.913312
 20
-4.045594
 30
0.0
 11
16.913312
 21
-4.095594
 31
0.0
  0
LWPOLYLINE
  5
237
330
34E
100
AcDbEntity
  8
HATCH
  6
Continuous
 62
     7
370
    30
100
AcDbPolyline
 90
        2
 70
   128
 43
0.0
 10
16.563312
 20
-4.093594
 10
16.913312
 20
-4.093594
  0
LWPOLYLINE
  5
238
330
34E
100
AcDbEntity
  8
HATCH
  6
Continuous
 62
     7
370
    30
100
AcDbPolyline
 90
        2
 70
   128
 43
0.0
 10
16.563312
 20
-4.091594
 10
16.913312
 20
-4.091594
  0
LWPOLYLINE
  5
239
330
34E
100
AcDbEntity
  8
HATCH
  6
Continuous
 62
     7
370
    30
100
AcDbPolyline
 90
        2
 70
   128
 43
0.0
 10
16.563312
 20
-4.089594
 10
16.913312
 20
-4.089594
  0
LWPOLYLINE
  5
23A
330
34E
100
AcDbEntity
  8
HATCH
  6
Continuous
 62
     7
370
    30
100
AcDbPolyline
 90
        2
 70
   128
 43
0.0
 10
16.563312
 20
-4.087594
 10
16.913312
 20
-4.087594
  0
LWPOLYLINE
  5
23B
330
34E
100
AcDbEntity
  8
HATCH
  6
Continuous
 62
     7
370
    30
100
AcDbPolyline
 90
        2
 70
   128
 43
0.0
 10
16.563312
 20
-4.085594
 10
16.913312
 20
-4.085594
  0
LWPOLYLINE
  5
23C
330
34E
100
AcDbEntity
  8
HATCH
  6
Continuous
 62
     7
370
    30
100
AcDbPolyline
 90
        2
 70
   128
 43
0.0
 10
16.563312
 20
-4.083594
 10
16.913312
 20
-4.083594
  0
LWPOLYLINE
  5
23D
330
34E
100
AcDbEntity
  8
HATCH
  6
Continuous
 62
     7
370
    30
100
AcDbPolyline
 90
        2
 70
   128
 43
0.0
 10
16.563312
 20
-4.081594
 10
16.913312
 20
-4.081594
  0
LWPOLYLINE
  5
23E
330
34E
100
AcDbEntity
  8
HATCH
  6
Continuous
 62
     7
370
    30
100
AcDbPolyline
 90
        2
 70
   128
 43
0.0
 10
16.563312
 20
-4.079594
 10
16.913312
 20
-4.079594
  0
LWPOLYLINE
  5
23F
330
34E
100
AcDbEntity
  8
HATCH
  6
Continuous
 62
     7
370
    30
100
AcDbPolyline
 90
        2
 70
   128
 43
0.0
 10
16.563312
 20
-4.077594
 10
16.913312
 20
-4.077594
  0
LWPOLYLINE
  5
240
330
34E
100
AcDbEntity
  8
HATCH
  6
Continuous
 62
     7
370
    30
100
AcDbPolyline
 90
        2
 70
   128
 43
0.0
 10
16.563312
 20
-4.075594
 10
16.913312
 20
-4.075594
  0
LWPOLYLINE
  5
241
330
34E
100
AcDbEntity
  8
HATCH
  6
Continuous
 62
     7
370
    30
100
AcDbPolyline
 90
        2
 70
   128
 43
0.0
 10
16.563312
 20
-4.073594
 10
16.913312
 20
-4.073594
  0
LWPOLYLINE
  5
242
330
34E
100
AcDbEntity
  8
HATCH
  6
Continuous
 62
     7
370
    30
100
AcDbPolyline
 90
        2
 70
   128
 43
0.0
 10
16.563312
 20
-4.071594
 10
16.913312
 20
-4.071594
  0
LWPOLYLINE
  5
243
330
34E
100
AcDbEntity
  8
HATCH
  6
Continuous
 62
     7
370
    30
100
AcDbPolyline
 90
        2
 70
   128
 43
0.0
 10
16.563312
 20
-4.069594
 10
16.913312
 20
-4.069594
  0
LWPOLYLINE
  5
244
330
34E
100
AcDbEntity
  8
HATCH
  6
Continuous
 62
     7
370
    30
100
AcDbPolyline
 90
        2
 70
   128
 43
0.0
 10
16.563312
 20
-4.067594
 10
16.913312
 20
-4.067594
  0
LWPOLYLINE
  5
245
330
34E
100
AcDbEntity
  8
HATCH
  6
Continuous
 62
     7
370
    30
100
AcDbPolyline
 90
        2
 70
   128
 43
0.0
 10
16.563312
 20
-4.065594
 10
16.913312
 20
-4.065594
  0
LWPOLYLINE
  5
246
330
34E
100
AcDbEntity
  8
HATCH
  6
Continuous
 62
     7
370
    30
100
AcDbPolyline
 90
        2
 70
   128
 43
0.0
 10
16.563312
 20
-4.063594
 10
16.913312
 20
-4.063594
  0
LWPOLYLINE
  5
247
330
34E
100
AcDbEntity
  8
HATCH
  6
Continuous
 62
     7
370
    30
100
AcDbPolyline
 90
        2
 70
   128
 43
0.0
 10
16.563312
 20
-4.061594
 10
16.913312
 20
-4.061594
  0
LWPOLYLINE
  5
248
330
34E
100
AcDbEntity
  8
HATCH
  6
Continuous
 62
     7
370
    30
100
AcDbPolyline
 90
        2
 70
   128
 43
0.0
 10
16.563312
 20
-4.059594
 10
16.913312
 20
-4.059594
  0
LWPOLYLINE
  5
249
330
34E
100
AcDbEntity
  8
HATCH
  6
Continuous
 62
     7
370
    30
100
AcDbPolyline
 90
        2
 70
   128
 43
0.0
 10
16.563312
 20
-4.057594
 10
16.913312
 20
-4.057594
  0
LWPOLYLINE
  5
24A
330
34E
100
AcDbEntity
  8
HATCH
  6
Continuous
 62
     7
370
    30
100
AcDbPolyline
 90
        2
 70
   128
 43
0.0
 10
16.563312
 20
-4.055594
 10
16.913312
 20
-4.055594
  0
LWPOLYLINE
  5
24B
330
34E
100
AcDbEntity
  8
HATCH
  6
Continuous
 62
     7
370
    30
100
AcDbPolyline
 90
        2
 70
   128
 43
0.0
 10
16.563312
 20
-4.053594
 10
16.913312
 20
-4.053594
  0
LWPOLYLINE
  5
24C
330
34E
100
AcDbEntity
  8
HATCH
  6
Continuous
 62
     7
370
    30
100
AcDbPolyline
 90
        2
 70
   128
 43
0.0
 10
16.563312
 20
-4.051594
 10
16.913312
 20
-4.051594
  0
LWPOLYLINE
  5
24D
330
34E
100
AcDbEntity
  8
HATCH
  6
Continuous
 62
     7
370
    30
100
AcDbPolyline
 90
        2
 70
   128
 43
0.0
 10
16.563312
 20
-4.049594
 10
16.913312
 20
-4.049594
  0
LWPOLYLINE
  5
24E
330
34E
100
AcDbEntity
  8
HATCH
  6
Continuous
 62
     7
370
    30
100
AcDbPolyline
 90
        2
 70
   128
 43
0.0
 10
16.563312
 20
-4.047594
 10
16.913312
 20
-4.047594
  0
LINE
  5
24F
330
34E
100
AcDbEntity
  8
LEGEND
  6
Continuous
 62
     7
370
    30
100
AcDbLine
 10
16.213313
 20
-3.845594
 30
0.0
 11
16.213313
 21
-3.895594
 31
0.0
  0
LINE
  5
250
330
34E
100
AcDbEntity
  8
LEGEND
  6
Continuous
 62
     7
370
    30
100
AcDbLine
 10
16.563312
 20
-3.845594
 30
0.0
 11
16.563312
 21
-3.895594
 31
0.0
  0
LWPOLYLINE
  5
251
330
34E
100
AcDbEntity
  8
HATCH
  6
Continuous
 62
     7
370
    30
100
AcDbPolyline
 90
        2
 70
   128
 43
0.0
 10
16.213313
 20
-3.893594
 10
16.563312
 20
-3.893594
  0
LWPOLYLINE
  5
252
330
34E
100
AcDbEntity
  8
HATCH
  6
Continuous
 62
     7
370
    30
100
AcDbPolyline
 90
        2
 70
   128
 43
0.0
 10
16.213313
 20
-3.891594
 10
16.563312
 20
-3.891594
  0
LWPOLYLINE
  5
253
330
34E
100
AcDbEntity
  8
HATCH
  6
Continuous
 62
     7
370
    30
100
AcDbPolyline
 90
        2
 70
   128
 43
0.0
 10
16.213313
 20
-3.889594
 10
16.563312
 20
-3.889594
  0
LWPOLYLINE
  5
254
330
34E
100
AcDbEntity
  8
HATCH
  6
Continuous
 62
     7
370
    30
100
AcDbPolyline
 90
        2
 70
   128
 43
0.0
 10
16.213313
 20
-3.887594
 10
16.563312
 20
-3.887594
  0
LWPOLYLINE
  5
255
330
34E
100
AcDbEntity
  8
HATCH
  6
Continuous
 62
     7
370
    30
100
AcDbPolyline
 90
        2
 70
   128
 43
0.0
 10
16.213313
 20
-3.885594
 10
16.563312
 20
-3.885594
  0
LWPOLYLINE
  5
256
330
34E
100
AcDbEntity
  8
HATCH
  6
Continuous
 62
     7
370
    30
100
AcDbPolyline
 90
        2
 70
   128
 43
0.0
 10
16.213313
 20
-3.883594
 10
16.563312
 20
-3.883594
  0
LWPOLYLINE
  5
257
330
34E
100
AcDbEntity
  8
HATCH
  6
Continuous
 62
     7
370
    30
100
AcDbPolyline
 90
        2
 70
   128
 43
0.0
 10
16.213313
 20
-3.881594
 10
16.563312
 20
-3.881594
  0
LWPOLYLINE
  5
258
330
34E
100
AcDbEntity
  8
HATCH
  6
Continuous
 62
     7
370
    30
100
AcDbPolyline
 90
        2
 70
   128
 43
0.0
 10
16.213313
 20
-3.879594
 10
16.563312
 20
-3.879594
  0
LWPOLYLINE
  5
259
330
34E
100
AcDbEntity
  8
HATCH
  6
Continuous
 62
     7
370
    30
100
AcDbPolyline
 90
        2
 70
   128
 43
0.0
 10
16.213313
 20
-3.877594
 10
16.563312
 20
-3.877594
  0
LWPOLYLINE
  5
25A
330
34E
100
AcDbEntity
  8
HATCH
  6
Continuous
 62
     7
370
    30
100
AcDbPolyline
 90
        2
 70
   128
 43
0.0
 10
16.213313
 20
-3.875594
 10
16.563312
 20
-3.875594
  0
LWPOLYLINE
  5
25B
330
34E
100
AcDbEntity
  8
HATCH
  6
Continuous
 62
     7
370
    30
100
AcDbPolyline
 90
        2
 70
   128
 43
0.0
 10
16.213313
 20
-3.873594
 10
16.563312
 20
-3.873594
  0
LWPOLYLINE
  5
25C
330
34E
100
AcDbEntity
  8
HATCH
  6
Continuous
 62
     7
370
    30
100
AcDbPolyline
 90
        2
 70
   128
 43
0.0
 10
16.213313
 20
-3.871594
 10
16.563312
 20
-3.871594
  0
LWPOLYLINE
  5
25D
330
34E
100
AcDbEntity
  8
HATCH
  6
Continuous
 62
     7
370
    30
100
AcDbPolyline
 90
        2
 70
   128
 43
0.0
 10
16.213313
 20
-3.869594
 10
16.563312
 20
-3.869594
  0
LWPOLYLINE
  5
25E
330
34E
100
AcDbEntity
  8
HATCH
  6
Continuous
 62
     7
370
    30
100
AcDbPolyline
 90
        2
 70
   128
 43
0.0
 10
16.213313
 20
-3.867594
 10
16.563312
 20
-3.867594
  0
LWPOLYLINE
  5
25F
330
34E
100
AcDbEntity
  8
HATCH
  6
Continuous
 62
     7
370
    30
100
AcDbPolyline
 90
        2
 70
   128
 43
0.0
 10
16.213313
 20
-3.865594
 10
16.563312
 20
-3.865594
  0
LWPOLYLINE
  5
260
330
34E
100
AcDbEntity
  8
HATCH
  6
Continuous
 62
     7
370
    30
100
AcDbPolyline
 90
        2
 70
   128
 43
0.0
 10
16.213313
 20
-3.863594
 10
16.563312
 20
-3.863594
  0
LWPOLYLINE
  5
261
330
34E
100
AcDbEntity
  8
HATCH
  6
Continuous
 62
     7
370
    30
100
AcDbPolyline
 90
        2
 70
   128
 43
0.0
 10
16.213313
 20
-3.861594
 10
16.563312
 20
-3.861594
  0
LWPOLYLINE
  5
262
330
34E
100
AcDbEntity
  8
HATCH
  6
Continuous
 62
     7
370
    30
100
AcDbPolyline
 90
        2
 70
   128
 43
0.0
 10
16.213313
 20
-3.859594
 10
16.563312
 20
-3.859594
  0
LWPOLYLINE
  5
263
330
34E
100
AcDbEntity
  8
HATCH
  6
Continuous
 62
     7
370
    30
100
AcDbPolyline
 90
        2
 70
   128
 43
0.0
 10
16.213313
 20
-3.857594
 10
16.563312
 20
-3.857594
  0
LWPOLYLINE
  5
264
330
34E
100
AcDbEntity
  8
HATCH
  6
Continuous
 62
     7
370
    30
100
AcDbPolyline
 90
        2
 70
   128
 43
0.0
 10
16.213313
 20
-3.855594
 10
16.563312
 20
-3.855594
  0
LWPOLYLINE
  5
265
330
34E
100
AcDbEntity
  8
HATCH
  6
Continuous
 62
     7
370
    30
100
AcDbPolyline
 90
        2
 70
   128
 43
0.0
 10
16.213313
 20
-3.853594
 10
16.563312
 20
-3.853594
  0
LWPOLYLINE
  5
266
330
34E
100
AcDbEntity
  8
HATCH
  6
Continuous
 62
     7
370
    30
100
AcDbPolyline
 90
        2
 70
   128
 43
0.0
 10
16.213313
 20
-3.851594
 10
16.563312
 20
-3.851594
  0
LWPOLYLINE
  5
267
330
34E
100
AcDbEntity
  8
HATCH
  6
Continuous
 62
     7
370
    30
100
AcDbPolyline
 90
        2
 70
   128
 43
0.0
 10
16.213313
 20
-3.849594
 10
16.563312
 20
-3.849594
  0
LWPOLYLINE
  5
268
330
34E
100
AcDbEntity
  8
HATCH
  6
Continuous
 62
     7
370
    30
100
AcDbPolyline
 90
        2
 70
   128
 43
0.0
 10
16.213313
 20
-3.847594
 10
16.563312
 20
-3.847594
  0
LINE
  5
269
330
34E
100
AcDbEntity
  8
LEGEND
  6
Continuous
 62
     7
370
    30
100
AcDbLine
 10
15.863312
 20
-3.645594
 30
0.0
 11
15.863312
 21
-3.695594
 31
0.0
  0
LINE
  5
26A
330
34E
100
AcDbEntity
  8
LEGEND
  6
Continuous
 62
     7
370
    30
100
AcDbLine
 10
16.213313
 20
-3.645594
 30
0.0
 11
16.213313
 21
-3.695594
 31
0.0
  0
LWPOLYLINE
  5
26B
330
34E
100
AcDbEntity
  8
HATCH
  6
Continuous
 62
     7
370
    30
100
AcDbPolyline
 90
        2
 70
   128
 43
0.0
 10
15.863312
 20
-3.693594
 10
16.213313
 20
-3.693594
  0
LWPOLYLINE
  5
26C
330
34E
100
AcDbEntity
  8
HATCH
  6
Continuous
 62
     7
370
    30
100
AcDbPolyline
 90
        2
 70
   128
 43
0.0
 10
15.863312
 20
-3.691594
 10
16.213313
 20
-3.691594
  0
LWPOLYLINE
  5
26D
330
34E
100
AcDbEntity
  8
HATCH
  6
Continuous
 62
     7
370
    30
100
AcDbPolyline
 90
        2
 70
   128
 43
0.0
 10
15.863312
 20
-3.689594
 10
16.213313
 20
-3.689594
  0
LWPOLYLINE
  5
26E
330
34E
100
AcDbEntity
  8
HATCH
  6
Continuous
 62
     7
370
    30
100
AcDbPolyline
 90
        2
 70
   128
 43
0.0
 10
15.863312
 20
-3.687594
 10
16.213313
 20
-3.687594
  0
LWPOLYLINE
  5
26F
330
34E
100
AcDbEntity
  8
HATCH
  6
Continuous
 62
     7
370
    30
100
AcDbPolyline
 90
        2
 70
   128
 43
0.0
 10
15.863312
 20
-3.685594
 10
16.213313
 20
-3.685594
  0
LWPOLYLINE
  5
270
330
34E
100
AcDbEntity
  8
HATCH
  6
Continuous
 62
     7
370
    30
100
AcDbPolyline
 90
        2
 70
   128
 43
0.0
 10
15.863312
 20
-3.683594
 10
16.213313
 20
-3.683594
  0
LWPOLYLINE
  5
271
330
34E
100
AcDbEntity
  8
HATCH
  6
Continuous
 62
     7
370
    30
100
AcDbPolyline
 90
        2
 70
   128
 43
0.0
 10
15.863312
 20
-3.681594
 10
16.213313
 20
-3.681594
  0
LWPOLYLINE
  5
272
330
34E
100
AcDbEntity
  8
HATCH
  6
Continuous
 62
     7
370
    30
100
AcDbPolyline
 90
        2
 70
   128
 43
0.0
 10
15.863312
 20
-3.679594
 10
16.213313
 20
-3.679594
  0
LWPOLYLINE
  5
273
330
34E
100
AcDbEntity
  8
HATCH
  6
Continuous
 62
     7
370
    30
100
AcDbPolyline
 90
        2
 70
   128
 43
0.0
 10
15.863312
 20
-3.677594
 10
16.213313
 20
-3.677594
  0
LWPOLYLINE
  5
274
330
34E
100
AcDbEntity
  8
HATCH
  6
Continuous
 62
     7
370
    30
100
AcDbPolyline
 90
        2
 70
   128
 43
0.0
 10
15.863312
 20
-3.675594
 10
16.213313
 20
-3.675594
  0
LWPOLYLINE
  5
275
330
34E
100
AcDbEntity
  8
HATCH
  6
Continuous
 62
     7
370
    30
100
AcDbPolyline
 90
        2
 70
   128
 43
0.0
 10
15.863312
 20
-3.673594
 10
16.213313
 20
-3.673594
  0
LWPOLYLINE
  5
276
330
34E
100
AcDbEntity
  8
HATCH
  6
Continuous
 62
     7
370
    30
100
AcDbPolyline
 90
        2
 70
   128
 43
0.0
 10
15.863312
 20
-3.671594
 10
16.213313
 20
-3.671594
  0
LWPOLYLINE
  5
277
330
34E
100
AcDbEntity
  8
HATCH
  6
Continuous
 62
     7
370
    30
100
AcDbPolyline
 90
        2
 70
   128
 43
0.0
 10
15.863312
 20
-3.669594
 10
16.213313
 20
-3.669594
  0
LWPOLYLINE
  5
278
330
34E
100
AcDbEntity
  8
HATCH
  6
Continuous
 62
     7
370
    30
100
AcDbPolyline
 90
        2
 70
   128
 43
0.0
 10
15.863312
 20
-3.667594
 10
16.213313
 20
-3.667594
  0
LWPOLYLINE
  5
279
330
34E
100
AcDbEntity
  8
HATCH
  6
Continuous
 62
     7
370
    30
100
AcDbPolyline
 90
        2
 70
   128
 43
0.0
 10
15.863312
 20
-3.665594
 10
16.213313
 20
-3.665594
  0
LWPOLYLINE
  5
27A
330
34E
100
AcDbEntity
  8
HATCH
  6
Continuous
 62
     7
370
    30
100
AcDbPolyline
 90
        2
 70
   128
 43
0.0
 10
15.863312
 20
-3.663594
 10
16.213313
 20
-3.663594
  0
LWPOLYLINE
  5
27B
330
34E
100
AcDbEntity
  8
HATCH
  6
Continuous
 62
     7
370
    30
100
AcDbPolyline
 90
        2
 70
   128
 43
0.0
 10
15.863312
 20
-3.661594
 10
16.213313
 20
-3.661594
  0
LWPOLYLINE
  5
27C
330
34E
100
AcDbEntity
  8
HATCH
  6
Continuous
 62
     7
370
    30
100
AcDbPolyline
 90
        2
 70
   128
 43
0.0
 10
15.863312
 20
-3.659594
 10
16.213313
 20
-3.659594
  0
LWPOLYLINE
  5
27D
330
34E
100
AcDbEntity
  8
HATCH
  6
Continuous
 62
     7
370
    30
100
AcDbPolyline
 90
        2
 70
   128
 43
0.0
 10
15.863312
 20
-3.657594
 10
16.213313
 20
-3.657594
  0
LWPOLYLINE
  5
27E
330
34E
100
AcDbEntity
  8
HATCH
  6
Continuous
 62
     7
370
    30
100
AcDbPolyline
 90
        2
 70
   128
 43
0.0
 10
15.863312
 20
-3.655594
 10
16.213313
 20
-3.655594
  0
LWPOLYLINE
  5
27F
330
34E
100
AcDbEntity
  8
HATCH
  6
Continuous
 62
     7
370
    30
100
AcDbPolyline
 90
        2
 70
   128
 43
0.0
 10
15.863312
 20
-3.653594
 10
16.213313
 20
-3.653594
  0
LWPOLYLINE
  5
280
330
34E
100
AcDbEntity
  8
HATCH
  6
Continuous
 62
     7
370
    30
100
AcDbPolyline
 90
        2
 70
   128
 43
0.0
 10
15.863312
 20
-3.651594
 10
16.213313
 20
-3.651594
  0
LWPOLYLINE
  5
281
330
34E
100
AcDbEntity
  8
HATCH
  6
Continuous
 62
     7
370
    30
100
AcDbPolyline
 90
        2
 70
   128
 43
0.0
 10
15.863312
 20
-3.649594
 10
16.213313
 20
-3.649594
  0
LWPOLYLINE
  5
282
330
34E
100
AcDbEntity
  8
HATCH
  6
Continuous
 62
     7
370
    30
100
AcDbPolyline
 90
        2
 70
   128
 43
0.0
 10
15.863312
 20
-3.647594
 10
16.213313
 20
-3.647594
  0
INSERT
  5
284
330
34E
100
AcDbEntity
  8
LEGEND
  6
Continuous
 62
     7
370
    13
100
AcDbBlockReference
  2
LARROW_1
 10
15.544156
 20
-8.787573
 30
0.0
 41
12.0
 42
12.0
 43
12.0
  0
INSERT
  5
28F
330
34E
100
AcDbEntity
  8
LEGEND
  6
Continuous
 62
     7
370
    13
100
AcDbBlockReference
  2
LARROW_1
 10
15.544156
 20
-8.787573
 30
0.0
 41
12.0
 42
12.0
 43
12.0
 50
180.0
  0
SPLINE
  5
29A
330
34E
100
AcDbEntity
  8
LEGEND
  6
Continuous
 62
     7
370
    13
100
AcDbSpline
210
0.0
220
0.0
230
1.0
 70
     8
 71
     3
 72
    35
 73
    31
 74
     0
 42
0.0000000001
 43
0.00000001
 40
0.0
 40
0.0
 40
0.0
 40
0.0
 40
0.0732908963329741
 40
0.0732908963329741
 40
0.0732908963329741
 40
0.2342144862302135
 40
0.2342144862302135
 40
0.2342144862302135
 40
0.3897001418415074
 40
0.3897001418415074
 40
0.3897001418415074
 40
0.5212776415270766
 40
0.5212776415270766
 40
0.5212776415270766
 40
0.5956401204049102
 40
0.5956401204049102
 40
0.5956401204049102
 40
0.6825906577040971
 40
0.6825906577040971
 40
0.6825906577040971
 40
0.7776284707959568
 40
0.7776284707959568
 40
0.7776284707959568
 40
0.8497107898160582
 40
0.8497107898160582
 40
0.8497107898160582
 40
0.9311961399945522
 40
0.9311961399945522
 40
0.9311961399945522
 40
1.0
 40
1.0
 40
1.0
 40
1.0
 10
18.0515
 20
-8.833072916666666
 30
0.0
 10
18.03916666666667
 20
-8.836590277777777
 30
0.0
 10
18.02683333333333
 20
-8.840107638888888
 30
0.0
 10
18.0145
 20
-8.843625
 30
0.0
 10
17.98741990718216
 20
-8.851348010705086
 30
0.0
 10
17.96838941840704
 20
-8.876006721347169
 30
0.0
 10
17.944625
 20
-8.891104166666667
 30
0.0
 10
17.92166362946011
 20
-8.905691438707123
 30
0.0
 10
17.89835776407572
 20
-8.919494988440183
 30
0.0
 10
17.87476041666667
 20
-8.9333125
 30
0.0
 10
17.85479150082624
 20
-8.945005370417977
 30
0.0
 10
17.8306062414553
 20
-8.968241554216325
 30
0.0
 10
17.80898958333333
 20
-8.954416666666667
 30
0.0
 10
17.79677268996748
 20
-8.946603378597988
 30
0.0
 10
17.77962874439406
 20
-8.936933652425532
 30
0.0
 10
17.78021875
 20
-8.92803125
 30
0.0
 10
17.78090863158034
 20
-8.917621851526002
 30
0.0
 10
17.80022391636158
 20
-8.906402608063559
 30
0.0
 10
17.81310416666667
 20
-8.896374999999999
 30
0.0
 10
17.8271824099886
 20
-8.88541472338177
 30
0.0
 10
17.84656171410258
 20
-8.902851269883595
 30
0.0
 10
17.8583125
 20
-8.917479166666666
 30
0.0
 10
17.86722499356691
 20
-8.928573831918396
 30
0.0
 10
17.85813256602611
 20
-8.94291816929021
 30
0.0
 10
17.86653125
 20
-8.954416666666667
 30
0.0
 10
17.87602552978947
 20
-8.967415125900278
 30
0.0
 10
17.88556439336986
 20
-8.996489119655465
 30
0.0
 10
17.89530208333333
 20
-8.986072916666666
 30
0.0
 10
17.90352430555555
 20
-8.977277777777777
 30
0.0
 10
17.91174652777778
 20
-8.968482638888888
 30
0.0
 10
17.91996875
 20
-8.9596875
 30
0.0
  0
INSERT
  5
29B
330
34E
100
AcDbEntity
  8
LEGEND
  6
Continuous
 62
     7
370
    13
100
AcDbBlockReference
  2
LARROW_1
 10
16.384792
 20
-9.47349
 30
0.0
 41
12.0
 42
12.0
 43
12.0
 50
180.0
  0
INSERT
  5
2A6
330
34E
100
AcDbEntity
  8
LEGEND
  6
Continuous
 62
     7
370
    13
100
AcDbBlockReference
  2
LARROW_1
 10
17.714104
 20
-9.47349
 30
0.0
 41
12.0
 42
12.0
 43
12.0
  0
INSERT
  5
2B1
330
34E
100
AcDbEntity
  8
LEGEND
  6
Continuous
 62
     7
370
    13
100
AcDbBlockReference
  2
LARROW_1
 10
17.617719
 20
-10.834552
 30
0.0
 41
12.0
 42
12.0
 43
12.0
 50
245.000028
  0
INSERT
  5
2BC
330
34E
100
AcDbEntity
  8
LEGEND
  6
Continuous
 62
     7
370
    13
100
AcDbBlockReference
  2
LARROW_1
 10
17.897615
 20
-10.234312
 30
0.0
 41
12.0
 42
12.0
 43
12.0
 50
65.000028
  0
INSERT
  5
2C7
330
34E
100
AcDbEntity
  8
LEGEND
  6
Continuous
 62
     7
370
    13
100
AcDbBlockReference
  2
LARROW_1
 10
14.839812
 20
-5.842417
 30
0.0
 41
12.0
 42
12.0
 43
12.0
 50
180.0
  0
INSERT
  5
2D2
330
34E
100
AcDbEntity
  8
LEGEND
  6
Continuous
 62
     7
370
    13
100
AcDbBlockReference
  2
LARROW_1
 10
14.839812
 20
-5.842417
 30
0.0
 41
12.0
 42
12.0
 43
12.0
 50
180.0
  0
INSERT
  5
2DD
330
34E
100
AcDbEntity
  8
LEGEND
  6
Continuous
 62
     7
370
    13
100
AcDbBlockReference
  2
LARROW_1
 10
15.544156
 20
-5.842417
 30
0.0
 41
12.0
 42
12.0
 43
12.0
  0
SPLINE
  5
2E8
330
34E
100
AcDbEntity
  8
DEFPOINTS
  6
Continuous
 62
     7
370
    30
100
AcDbSpline
210
0.0
220
0.0
230
1.0
 70
     8
 71
     3
 72
    11
 73
     7
 74
     0
 42
0.0000000001
 43
0.00000001
 40
0.0
 40
0.0
 40
0.0
 40
0.0
 40
0.4761583740601228
 40
0.4761583740601228
 40
0.4761583740601228
 40
1.0
 40
1.0
 40
1.0
 40
1.0
 10
15.75573958333333
 20
-6.276489583333333
 30
0.0
 10
15.76478819444444
 20
-6.274263888888889
 30
0.0
 10
15.77381308537201
 20
-6.269913798124802
 30
0.0
 10
15.78288541666667
 20
-6.2698125
 30
0.0
 10
15.79286626555091
 20
-6.269701057720935
 30
0.0
 10
15.80289930555555
 20
-6.274263888888889
 30
0.0
 10
15.81290625
 20
-6.276489583333333
 30
0.0
  0
TEXT
  5
5E
330
34E
100
AcDbEntity
  8
DIM
  6
Continuous
 62
     7
370
    30
100
AcDbText
 10
13.881169
 20
-11.090365
 30
0.0
 40
0.12
  1
CONSTRUCTION
  7
Style-Arial
100
AcDbText
  0
TEXT
  5
5F
330
34E
100
AcDbEntity
  8
DIM
  6
Continuous
 62
     7
370
    30
100
AcDbText
 10
12.75474
 20
-10.900427
 30
0.0
 40
0.12
  1
REFERENCE: DOD 4270.1-M
  7
Style-Arial
100
AcDbText
  0
TEXT
  5
61
330
34E
100
AcDbEntity
  8
2-33A
  6
Continuous
 62
     7
370
    30
100
AcDbText
 10
18.995711
 20
-11.67976
 30
0.0
 40
0.12
  1
FIGURE
  7
Style-Arial
100
AcDbText
  0
TEXT
  5
62
330
34E
100
AcDbEntity
  8
2-33A
  6
Continuous
 62
     7
370
    30
100
AcDbText
 10
19.156612
 20
-11.90223
 30
0.0
 40
0.12
  1
2-32d
  7
Style-Arial
100
AcDbText
  0
TEXT
  5
63
330
34E
100
AcDbEntity
  8
2-33A
  6
Continuous
 62
     7
370
    30
100
AcDbText
 10
18.012211
 20
-11.67976
 30
0.0
 40
0.12
  1
DATE
  7
Style-Arial
100
AcDbText
  0
TEXT
  5
64
330
34E
100
AcDbEntity
  8
2-33A
  6
Continuous
 62
     7
370
    30
100
AcDbText
 10
17.842525
 20
-11.89479
 30
0.0
 40
0.12
  1
AUG 1992
  7
Style-Arial
100
AcDbText
  0
TEXT
  5
6A
330
34E
100
AcDbEntity
  8
HATCH
  6
Continuous
 62
     7
370
    30
100
AcDbText
 10
13.766635
 20
-3.334875
 30
0.0
 40
0.12
  1
RECOMMENDED RANGE OF CAR STALL WIDTH (SW)
  7
Style-Arial
100
AcDbText
  0
TEXT
  5
6B
330
34E
100
AcDbEntity
  8
HATCH
  6
Continuous
 62
     7
370
    30
100
AcDbText
 10
12.740927
 20
-3.753677
 30
0.0
 40
0.12
  1
SMALL CAR USE
  7
Style-Arial
100
AcDbText
  0
TEXT
  5
6C
330
34E
100
AcDbEntity
  8
HATCH
  6
Continuous
 62
     7
370
    30
100
AcDbText
 10
12.740927
 20
-3.938719
 30
0.0
 40
0.12
  1
ALL DAY PARKER USE
  7
Style-Arial
100
AcDbText
  0
TEXT
  5
6D
330
34E
100
AcDbEntity
  8
HATCH
  6
Continuous
 62
     7
370
    30
100
AcDbText
 10
12.740927
 20
-4.127365
 30
0.0
 40
0.12
  1
STANDARD CAR USE
  7
Style-Arial
100
AcDbText
  0
TEXT
  5
6E
330
34E
100
AcDbEntity
  8
HATCH
  6
Continuous
 62
     7
370
    30
100
AcDbText
 10
12.740927
 20
-4.315635
 30
0.0
 40
0.12
  1
LUXURY AND ELDERLY USE
  7
Style-Arial
100
AcDbText
  0
TEXT
  5
6F
330
34E
100
AcDbEntity
  8
HATCH
  6
Continuous
 62
     7
370
    30
100
AcDbText
 10
12.740927
 20
-4.526365
 30
0.0
 40
0.12
  1
SUPERMARKET AND CAMPER USE
  7
Style-Arial
100
AcDbText
  0
TEXT
  5
70
330
34E
100
AcDbEntity
  8
HATCH
  6
Continuous
 62
     7
370
    30
100
AcDbText
 10
12.740927
 20
-4.736365
 30
0.0
 40
0.12
  1
HANDICAPPED USE
  7
Style-Arial
100
AcDbText
  0
TEXT
  5
71
330
34E
100
AcDbEntity
  8
HATCH
  6
Continuous
 62
     7
370
    30
100
AcDbText
 10
15.398417
 20
-4.731031
 30
0.0
 40
0.12
  1
*
  7
Style-Arial
100
AcDbText
  0
TEXT
  5
74
330
34E
100
AcDbEntity
  8
HATCH
  6
Continuous
 62
     7
370
    30
100
AcDbText
 10
14.785719
 20
-3.53376
 30
0.0
 40
0.12
  1
WIDTH (FT)
  7
Style-Arial
100
AcDbText
  0
TEXT
  5
75
330
34E
100
AcDbEntity
  8
HATCH
  6
Continuous
 62
     7
370
    30
100
AcDbText
 10
16.157281
 20
-3.531083
 30
0.0
 40
0.12
  1
8
  7
Style-Arial
100
AcDbText
  0
TEXT
  5
76
330
34E
100
AcDbEntity
  8
HATCH
  6
Continuous
 62
     7
370
    30
100
AcDbText
 10
16.857448
 20
-3.529927
 30
0.0
 40
0.12
  1
9
  7
Style-Arial
100
AcDbText
  0
TEXT
  5
77
330
34E
100
AcDbEntity
  8
HATCH
  6
Continuous
 62
     7
370
    30
100
AcDbText
 10
17.500344
 20
-3.529927
 30
0.0
 40
0.12
  1
10
  7
Style-Arial
100
AcDbText
  0
TEXT
  5
78
330
34E
100
AcDbEntity
  8
HATCH
  6
Continuous
 62
     7
370
    30
100
AcDbText
 10
18.197802
 20
-3.526094
 30
0.0
 40
0.12
  1
11
  7
Style-Arial
100
AcDbText
  0
TEXT
  5
79
330
34E
100
AcDbEntity
  8
HATCH
  6
Continuous
 62
     7
370
    30
100
AcDbText
 10
18.899562
 20
-3.526094
 30
0.0
 40
0.12
  1
12
  7
Style-Arial
100
AcDbText
  0
TEXT
  5
7A
330
34E
100
AcDbEntity
  8
HATCH
  6
Continuous
 62
     7
370
    30
100
AcDbText
 10
12.72931
 20
-4.965187
 30
0.0
 40
0.12
  1
*
  7
Style-Arial
100
AcDbText
  0
TEXT
  5
7B
330
34E
100
AcDbEntity
  8
HATCH
  6
Continuous
 62
     7
370
    30
100
AcDbText
 10
12.812206
 20
-4.971615
 30
0.0
 40
0.12
  1
MINIMUM REQUIREMENTS = 2 PER 100 STALLS AS SPECIFIED BY FEDERAL
  7
Style-Arial
100
AcDbText
  0
TEXT
  5
7C
330
34E
100
AcDbEntity
  8
HATCH
  6
Continuous
 62
     7
370
    30
100
AcDbText
 10
12.819643
 20
-5.133656
 30
0.0
 40
0.12
  1
LAW; PLACE CONVENIENT TO DESTINATION
  7
Style-Arial
100
AcDbText
  0
TEXT
  5
7D
330
34E
100
AcDbEntity
  8
HATCH
  6
Continuous
 62
     7
370
    30
100
AcDbText
 10
17.031815
 20
-11.444625
 30
0.0
 40
0.12
  1
TYPICAL
  7
Style-Arial
100
AcDbText
  0
TEXT
  5
117
330
34E
100
AcDbEntity
  8
DEFPOINTS
  6
Continuous
 62
     7
370
    30
100
AcDbText
 10
16.759311
 20
-9.640708
 30
0.0
 40
0.12
  1
TYPICAL
  7
Style-Arial
100
AcDbText
  0
TEXT
  5
118
330
34E
100
AcDbEntity
  8
HATCH
  6
Continuous
 62
     7
370
    30
100
AcDbText
 10
18.018229
 20
-9.786708
 30
0.0
 40
0.12
  1
DOUBLE
  7
Style-Arial
100
AcDbText
  0
TEXT
  5
119
330
34E
100
AcDbEntity
  8
HATCH
  6
Continuous
 62
     7
370
    30
100
AcDbText
 10
18.018229
 20
-9.982333
 30
0.0
 40
0.12
  1
4" LINE
  7
Style-Arial
100
AcDbText
  0
TEXT
  5
11A
330
34E
100
AcDbEntity
  8
HATCH
  6
Continuous
 62
     7
370
    30
100
AcDbText
 10
18.322688
 20
-10.605465
 30
0.0
 40
0.12
  1
DOUBLE
  7
Style-Arial
100
AcDbText
  0
TEXT
  5
11B
330
34E
100
AcDbEntity
  8
HATCH
  6
Continuous
 62
     7
370
    30
100
AcDbText
 10
18.319198
 20
-10.786478
 30
0.0
 40
0.12
  1
4" LINE
  7
Style-Arial
100
AcDbText
  0
TEXT
  5
11D
330
34E
100
AcDbEntity
  8
DEFPOINTS
  6
Continuous
 62
     7
370
    30
100
AcDbText
 10
13.85774
 20
-8.738042
 30
0.0
 40
0.12
  1
WALL WITH
  7
Style-Arial
100
AcDbText
  0
TEXT
  5
11E
330
34E
100
AcDbEntity
  8
DEFPOINTS
  6
Continuous
 62
     7
370
    30
100
AcDbText
 10
13.83485
 20
-8.937365
 30
0.0
 40
0.12
  1
SAWTOOTH
  7
Style-Arial
100
AcDbText
  0
TEXT
  5
11F
330
34E
100
AcDbEntity
  8
DEFPOINTS
  6
Continuous
 62
     7
370
    30
100
AcDbText
 10
13.582434
 20
-9.119398
 30
0.0
 40
0.12
  1
CONCRETE CURB
  7
Style-Arial
100
AcDbText
  0
TEXT
  5
120
330
34E
100
AcDbEntity
  8
DEFPOINTS
  6
Continuous
 62
     7
370
    30
100
AcDbText
 10
15.968285
 20
-8.748458
 30
0.0
 40
0.12
  1
DOUBLE LOADED
  7
Style-Arial
100
AcDbText
  0
TEXT
  5
121
330
34E
100
AcDbEntity
  8
DEFPOINTS
  6
Continuous
 62
     7
370
    30
100
AcDbText
 10
15.96512
 20
-8.94575
 30
0.0
 40
0.12
  1
C  TO C  (OR C
  7
Style-Arial
100
AcDbText
  0
TEXT
  5
122
330
34E
100
AcDbEntity
  8
DEFPOINTS
  6
Continuous
 62
     7
370
    30
100
AcDbText
 10
16.014059
 20
-8.98401
 30
0.0
 40
0.12
  1
L
  7
Style-Arial
100
AcDbText
  0
TEXT
  5
123
330
34E
100
AcDbEntity
  8
HATCH
  6
Continuous
 62
     7
370
    30
100
AcDbText
 10
18.153526
 20
-9.247312
 30
0.0
 40
0.12
  1
OF WALK
  7
Style-Arial
100
AcDbText
  0
TEXT
  5
124
330
34E
100
AcDbEntity
  8
HATCH
  6
Continuous
 62
     7
370
    30
100
AcDbText
 10
18.165913
 20
-8.916458
 30
0.0
 40
0.12
  1
L
  7
Style-Arial
100
AcDbText
  0
TEXT
  5
125
330
34E
100
AcDbEntity
  8
HATCH
  6
Continuous
 62
     7
370
    30
100
AcDbText
 10
18.120602
 20
-8.880615
 30
0.0
 40
0.12
  1
C  OF BAY
  7
Style-Arial
100
AcDbText
  0
TEXT
  5
126
330
34E
100
AcDbEntity
  8
HATCH
  6
Continuous
 62
     7
370
    30
100
AcDbText
 10
18.140756
 20
-9.076969
 30
0.0
 40
0.12
  1
OR EDGE
  7
Style-Arial
100
AcDbText
  0
TEXT
  5
127
330
34E
100
AcDbEntity
  8
HATCH
  6
Continuous
 62
     7
370
    30
100
AcDbText
 10
13.778448
 20
-6.453635
 30
0.0
 40
0.12
  1
4" LINE
  7
Style-Arial
100
AcDbText
  0
TEXT
  5
128
330
34E
100
AcDbEntity
  8
HATCH
  6
Continuous
 62
     7
370
    30
100
AcDbText
 10
13.778448
 20
-6.285875
 30
0.0
 40
0.12
  1
DOUBLE
  7
Style-Arial
100
AcDbText
  0
TEXT
  5
12E
330
34E
100
AcDbEntity
  8
DEFPOINTS
  6
Continuous
 62
     7
370
    30
100
AcDbText
 10
14.999998
 20
-5.778896
 30
0.0
 40
0.12
  1
16'-0"
  7
Style-Arial
100
AcDbText
  0
TEXT
  5
12F
330
34E
100
AcDbEntity
  8
DEFPOINTS
  6
Continuous
 62
     7
370
    30
100
AcDbText
 10
14.844199
 20
-6.024083
 30
0.0
 40
0.12
  1
TYPICAL
  7
Style-Arial
100
AcDbText
  0
TEXT
  5
134
330
34E
100
AcDbEntity
  8
DEFPOINTS
  6
Continuous
 62
     7
370
    30
100
AcDbText
 10
18.44171
 20
-5.521135
 30
0.0
 40
0.12
  1
PREFERRED
  7
Style-Arial
100
AcDbText
  0
TEXT
  5
135
330
34E
100
AcDbEntity
  8
DEFPOINTS
  6
Continuous
 62
     7
370
    30
100
AcDbText
 10
18.354656
 20
-5.773552
 30
0.0
 40
0.12
  1
7'-0" MINIMUM
  7
Style-Arial
100
AcDbText
  0
TEXT
  5
136
330
34E
100
AcDbEntity
  8
HATCH
  6
Continuous
 62
     7
370
    30
100
AcDbText
 10
13.021417
 20
-7.461992
 30
0.0
 40
0.12
  1
WALL
 50
90.0
  7
Style-Arial
100
AcDbText
  0
TEXT
  5
156
330
34E
100
AcDbEntity
  8
LEGEND
  6
Continuous
 62
     7
370
    30
100
AcDbText
 10
13.26267
 20
-11.860448
 30
0.0
 40
0.12
  1
TYPICAL HANDICAPPED CAR PARKING LAYOUT
  7
Style-Arial
100
AcDbText
  0
TEXT
  5
157
330
34E
100
AcDbEntity
  8
DIM
  6
Continuous
 62
     7
370
    30
100
AcDbText
 10
13.891794
 20
-11.484156
 30
0.0
 40
0.12
  1
STANDARDS.
  7
Style-Arial
100
AcDbText
  0
TEXT
  5
158
330
34E
100
AcDbEntity
  8
DIM
  6
Continuous
 62
     7
370
    30
100
AcDbText
 10
13.887814
 20
-11.294219
 30
0.0
 40
0.12
  1
CRITERIA; AIA
  7
Style-Arial
100
AcDbText
  0
TEXT
  5
159
330
34E
100
AcDbEntity
  8
DEFPOINTS
  6
Continuous
 62
     7
370
    30
100
AcDbText
 10
16.496471
 20
-8.98401
 30
0.0
 40
0.12
  1
L
  7
Style-Arial
100
AcDbText
  0
TEXT
  5
15A
330
34E
100
AcDbEntity
  8
DEFPOINTS
  6
Continuous
 62
     7
370
    30
100
AcDbText
 10
17.071851
 20
-8.98401
 30
0.0
 40
0.12
  1
L
  7
Style-Arial
100
AcDbText
  0
TEXT
  5
16D
330
34E
100
AcDbEntity
  8
DEFPOINTS
  6
Continuous
 62
     7
370
    30
100
AcDbText
 10
13.558366
 20
-5.892937
 30
0.0
 40
0.12
  1
VARIES
  7
Style-Arial
100
AcDbText
  0
TEXT
  5
174
330
34E
100
AcDbEntity
  8
DEFPOINTS
  6
Continuous
 62
     7
370
    30
100
AcDbText
 10
13.976823
 20
-7.513385
 30
0.0
 40
0.12
  1
SW
 50
60.0
  7
Style-Arial
100
AcDbText
  0
TEXT
  5
177
330
34E
100
AcDbEntity
  8
HATCH
  6
Continuous
 62
     7
370
    30
100
AcDbText
 10
14.101544
 20
-6.81824
 30
0.0
 40
0.12
  1
CURB
  7
Style-Arial
100
AcDbText
  0
TEXT
  5
17D
330
34E
100
AcDbEntity
  8
DEFPOINTS
  6
Continuous
 62
     7
370
    30
100
AcDbText
 10
16.697948
 20
-5.943382
 30
0.0
 40
0.12
  1
SW
 50
60.0
  7
Style-Arial
100
AcDbText
  0
TEXT
  5
183
330
34E
100
AcDbEntity
  8
DEFPOINTS
  6
Continuous
 62
     7
370
    30
100
AcDbText
 10
16.526074
 20
-6.142597
 30
0.0
 40
0.12
  1
SW
 50
300.0
  7
Style-Arial
100
AcDbText
  0
TEXT
  5
190
330
34E
100
AcDbEntity
  8
DEFPOINTS
  6
Continuous
 62
     7
370
    30
100
AcDbText
 10
17.818987
 20
-5.509708
 30
0.0
 40
0.12
  1
WALK
  7
Style-Arial
100
AcDbText
  0
TEXT
  5
191
330
34E
100
AcDbEntity
  8
DEFPOINTS
  6
Continuous
 62
     7
370
    30
100
AcDbText
 10
18.707603
 20
-5.335823
 30
0.0
 40
0.12
  1
10'-0"
  7
Style-Arial
100
AcDbText
  0
TEXT
  5
195
330
34E
100
AcDbEntity
  8
DEFPOINTS
  6
Continuous
 62
     7
370
    30
100
AcDbText
 10
16.861633
 20
-9.425333
 30
0.0
 40
0.12
  1
16'-0"
  7
Style-Arial
100
AcDbText
  0
TEXT
  5
19F
330
34E
100
AcDbEntity
  8
DEFPOINTS
  6
Continuous
 62
     7
370
    30
100
AcDbText
 10
17.616175
 20
-10.682422
 30
0.0
 40
0.12
  1
12'-0"
 50
65.0
  7
Style-Arial
100
AcDbText
  0
TEXT
  5
1AC
330
34E
100
AcDbEntity
  8
HATCH
  6
Continuous
 62
     7
370
    30
100
AcDbText
 10
15.471928
 20
-5.508067
 30
0.0
 40
0.12
  1
TYPICAL PARKING
  7
Style-Arial
100
AcDbText
  0
TEXT
  5
1AD
330
34E
100
AcDbEntity
  8
HATCH
  6
Continuous
 62
     7
370
    30
100
AcDbText
 10
16.366266
 20
-11.215401
 30
0.0
 40
0.12
  1
HANDICAPPED PARKING
  7
Style-Arial
100
AcDbText
  0
TEXT
  5
1B0
330
34E
100
AcDbEntity
  8
HATCH
  6
Continuous
 62
     7
370
    30
100
AcDbText
 10
14.903729
 20
-3.145344
 30
0.0
 40
0.12
  1
CAR PARKING DIMENSIONS
  7
Style-Arial
100
AcDbText
  0
TEXT
  5
1D7
330
34E
100
AcDbEntity
  8
DEFPOINTS
  6
Continuous
 62
     7
370
    30
100
AcDbText
 10
15.942869
 20
-9.155135
 30
0.0
 40
0.12
  1
TO WALK EDGE)
  7
Style-Arial
100
AcDbText
  0
TEXT
  5
283
330
34E
100
AcDbEntity
  8
DEFPOINTS
  6
Continuous
 62
     7
370
    30
100
AcDbText
 10
15.744115
 20
-6.333062
 30
0.0
 40
0.12
  1
0
  7
Style-Arial
100
AcDbText
  0
HATCH
  5
337
330
34E
100
AcDbEntity
  8
DEFPOINTS
  6
Continuous
 62
     7
370
    53
100
AcDbHatch
 10
0.0
 20
0.0
 30
0.0
210
0.0
220
0.0
230
1.0
  2
SOLID
 70
     1
 71
     0
 91
        1
 92
        1
 93
        1
 72
     2
 10
17.06240220925749
 20
-10.02572164808688
 40
0.0449755440726931
 50
0.0
 51
360.0
 73
     1
 97
        0
 75
     0
 76
     1
 98
        0
  0
SOLID
  5
338
330
34E
100
AcDbEntity
  8
DEFPOINTS
  6
Continuous
 62
     7
370
    53
100
AcDbTrace
 10
-15.940437
 20
-6.431375
 30
0.0
 11
-16.025698
 21
-6.592719
 31
0.0
 12
-15.968771
 22
-6.611646
 32
0.0
 13
-15.968771
 23
-6.611646
 33
0.0
210
0.0
220
0.0
230
-1.0
  0
SOLID
  5
339
330
34E
100
AcDbEntity
  8
DEFPOINTS
  6
Continuous
 62
     7
370
    53
100
AcDbTrace
 10
-15.361771
 20
-6.207562
 30
0.0
 11
-15.544156
 21
-6.20149
 31
0.0
 12
-15.373594
 22
-6.266385
 32
0.0
 13
-15.373594
 23
-6.266385
 33
0.0
210
0.0
220
0.0
230
-1.0
  0
ENDSEC
  0
SECTION
  2
OBJECTS
  0
DICTIONARY
  5
342
330
0
100
AcDbDictionary
281
     1
  3
ACAD_COLOR
350
361
  3
ACAD_GROUP
350
35E
  3
ACAD_LAYOUT
350
352
  3
ACAD_MATERIAL
350
360
  3
ACAD_MLINESTYLE
350
34C
  3
ACAD_PLOTSETTINGS
350
35F
  3
ACAD_PLOTSTYLENAME
350
341
  3
ACAD_TABLESTYLE
350
37B
  3
AcadDim
350
36E
  3
MicroStation
350
366
  0
DICTIONARY
  5
33E
330
33D
100
AcDbDictionary
280
     1
281
     1
  3
ACAD_LAYERFILTERS
360
365
  3
ACAD_LAYERSTATES
360
33F
  0
DICTIONARY
  5
377
330
34E
100
AcDbDictionary
280
     1
281
     1
  3
ACAD_SORTENTS
360
378
  0
DICTIONARY
  5
361
102
{ACAD_REACTORS
330
342
102
}
330
342
100
AcDbDictionary
281
     1
  0
DICTIONARY
  5
35E
102
{ACAD_REACTORS
330
342
102
}
330
342
100
AcDbDictionary
281
     1
  0
DICTIONARY
  5
352
102
{ACAD_REACTORS
330
342
102
}
330
342
100
AcDbDictionary
281
     1
  3
Layout1
350
356
  3
Model
350
351
  0
DICTIONARY
  5
360
102
{ACAD_REACTORS
330
342
102
}
330
342
100
AcDbDictionary
281
     1
  0
DICTIONARY
  5
34C
102
{ACAD_REACTORS
330
342
102
}
330
342
100
AcDbDictionary
281
     1
  3
Standard
350
34B
  0
DICTIONARY
  5
35F
102
{ACAD_REACTORS
330
342
102
}
330
342
100
AcDbDictionary
281
     1
  0
ACDBDICTIONARYWDFLT
  5
341
102
{ACAD_REACTORS
330
342
102
}
330
342
100
AcDbDictionary
281
     1
  3
Normal
350
340
100
AcDbDictionaryWithDefault
340
340
  0
DICTIONARY
  5
37B
102
{ACAD_REACTORS
330
342
102
}
330
342
100
AcDbDictionary
281
     1
  0
XRECORD
  5
36E
102
{ACAD_REACTORS
330
342
102
}
330
342
100
AcDbXrecord
280
     1
 90
   990106
  3
 
 60
     0
 61
     0
 62
     1
 63
     1
 64
     0
 65
     0
 66
     0
 67
     3
 68
     1
 69
     1
 70
     0
 71
     0
 72
     0
 40
0.0
170
     0
  0
DICTIONARY
  5
366
102
{ACAD_REACTORS
330
342
102
}
330
342
100
AcDbDictionary
281
     1
  3
ApplicationElement 819
350
333
  3
ApplicationElement 826
350
33A
  3
ModelApplicationElement 0 818
350
332
  0
DICTIONARY
  5
365
102
{ACAD_REACTORS
330
33E
102
}
330
33E
100
AcDbDictionary
281
     1
  0
DICTIONARY
  5
33F
102
{ACAD_REACTORS
330
33E
102
}
330
33E
100
AcDbDictionary
281
     1
  0
SORTENTSTABLE
  5
378
102
{ACAD_REACTORS
330
377
102
}
330
377
100
AcDbSortentsTable
330
34E
331
5E
  5
24E
331
5F
  5
24F
331
60
  5
5E
331
61
  5
250
331
62
  5
251
331
63
  5
252
331
64
  5
253
331
65
  5
5F
331
66
  5
60
331
67
  5
61
331
68
  5
62
331
69
  5
63
331
6A
  5
254
331
6B
  5
255
331
6C
  5
256
331
6D
  5
257
331
6E
  5
258
331
6F
  5
259
331
70
  5
25A
331
71
  5
25B
331
72
  5
64
331
73
  5
65
331
74
  5
25C
331
75
  5
25D
331
76
  5
25E
331
77
  5
25F
331
78
  5
260
331
79
  5
261
331
7A
  5
262
331
7B
  5
263
331
7C
  5
264
331
7D
  5
265
331
7E
  5
66
331
7F
  5
67
331
81
  5
68
331
82
  5
69
331
83
  5
6A
331
84
  5
6B
331
85
  5
6C
331
86
  5
6D
331
87
  5
6E
331
88
  5
6F
331
89
  5
70
331
8A
  5
71
331
8B
  5
72
331
8C
  5
73
331
8D
  5
74
331
8E
  5
75
331
8F
  5
76
331
90
  5
77
331
91
  5
78
331
92
  5
79
331
93
  5
7A
331
94
  5
7B
331
95
  5
7C
331
96
  5
7D
331
97
  5
7E
331
98
  5
7F
331
99
  5
81
331
9A
  5
82
331
9B
  5
83
331
9C
  5
84
331
9D
  5
85
331
9E
  5
86
331
9F
  5
87
331
A0
  5
88
331
A1
  5
89
331
A2
  5
8A
331
A3
  5
8B
331
A4
  5
8C
331
A5
  5
8D
331
A6
  5
8E
331
A7
  5
8F
331
A8
  5
90
331
A9
  5
91
331
AA
  5
92
331
AB
  5
93
331
AC
  5
94
331
AD
  5
95
331
AE
  5
96
331
AF
  5
97
331
B0
  5
98
331
B1
  5
99
331
B2
  5
9A
331
B3
  5
9B
331
B4
  5
9C
331
B5
  5
9D
331
B6
  5
9E
331
B7
  5
9F
331
B8
  5
A0
331
B9
  5
A1
331
BA
  5
A2
331
BB
  5
A3
331
BC
  5
A4
331
BD
  5
A5
331
BE
  5
A6
331
BF
  5
A7
331
C0
  5
A8
331
C1
  5
A9
331
C2
  5
AA
331
C3
  5
AB
331
C4
  5
AC
331
C5
  5
AD
331
C6
  5
AE
331
C7
  5
AF
331
C8
  5
B0
331
C9
  5
B1
331
CA
  5
B2
331
CB
  5
B3
331
CC
  5
B4
331
CD
  5
B5
331
CE
  5
B6
331
CF
  5
B7
331
D0
  5
B8
331
D1
  5
B9
331
D2
  5
BA
331
D3
  5
BB
331
D4
  5
BC
331
D5
  5
BD
331
D6
  5
BE
331
D7
  5
BF
331
D8
  5
C0
331
D9
  5
C1
331
DA
  5
C2
331
DB
  5
C3
331
DC
  5
C4
331
DD
  5
C5
331
DE
  5
C6
331
DF
  5
C7
331
E0
  5
C8
331
E1
  5
C9
331
E2
  5
CA
331
E3
  5
CB
331
E4
  5
CC
331
E5
  5
CD
331
E6
  5
CE
331
E7
  5
CF
331
E8
  5
D0
331
E9
  5
D1
331
EA
  5
D2
331
EB
  5
D3
331
EC
  5
D4
331
ED
  5
D5
331
EE
  5
D6
331
EF
  5
D7
331
F0
  5
D8
331
F1
  5
D9
331
F2
  5
DA
331
F3
  5
DB
331
F4
  5
DC
331
F5
  5
DD
331
F6
  5
DE
331
F7
  5
DF
331
F8
  5
E0
331
F9
  5
E1
331
FA
  5
E2
331
FB
  5
E3
331
FC
  5
E4
331
FD
  5
E5
331
FE
  5
E6
331
FF
  5
E7
331
100
  5
E8
331
101
  5
E9
331
102
  5
EA
331
103
  5
EB
331
104
  5
EC
331
105
  5
ED
331
106
  5
EE
331
107
  5
EF
331
108
  5
F0
331
109
  5
F1
331
10A
  5
F2
331
10B
  5
F3
331
10C
  5
F4
331
10D
  5
F5
331
10E
  5
F6
331
10F
  5
F7
331
110
  5
F8
331
111
  5
F9
331
112
  5
FA
331
113
  5
FB
331
114
  5
FC
331
115
  5
FD
331
116
  5
FE
331
117
  5
266
331
118
  5
267
331
119
  5
268
331
11A
  5
269
331
11B
  5
26A
331
11C
  5
FF
331
11D
  5
26B
331
11E
  5
26C
331
11F
  5
26D
331
120
  5
26E
331
121
  5
26F
331
122
  5
270
331
123
  5
271
331
124
  5
272
331
125
  5
273
331
126
  5
274
331
127
  5
275
331
128
  5
276
331
129
  5
100
331
12A
  5
101
331
12B
  5
102
331
12C
  5
103
331
12D
  5
104
331
12E
  5
277
331
12F
  5
278
331
130
  5
105
331
131
  5
106
331
132
  5
107
331
133
  5
108
331
134
  5
279
331
135
  5
27A
331
136
  5
27B
331
137
  5
109
331
138
  5
10A
331
139
  5
10B
331
13A
  5
10C
331
13B
  5
10D
331
13C
  5
10E
331
13D
  5
10F
331
13E
  5
110
331
13F
  5
111
331
140
  5
112
331
141
  5
113
331
142
  5
114
331
143
  5
115
331
144
  5
116
331
145
  5
117
331
146
  5
118
331
147
  5
119
331
148
  5
11A
331
149
  5
11B
331
14A
  5
11C
331
14B
  5
11D
331
14C
  5
11E
331
14D
  5
11F
331
14E
  5
120
331
14F
  5
121
331
150
  5
122
331
151
  5
123
331
152
  5
124
331
153
  5
125
331
154
  5
126
331
155
  5
127
331
156
  5
27C
331
157
  5
27D
331
158
  5
27E
331
159
  5
27F
331
15A
  5
280
331
15B
  5
128
331
15C
  5
129
331
15D
  5
12A
331
15E
  5
12B
331
15F
  5
12C
331
160
  5
12D
331
161
  5
12E
331
162
  5
12F
331
163
  5
130
331
164
  5
131
331
165
  5
132
331
166
  5
133
331
167
  5
134
331
168
  5
135
331
169
  5
136
331
16A
  5
137
331
16B
  5
138
331
16C
  5
139
331
16D
  5
281
331
16E
  5
13A
331
16F
  5
13B
331
170
  5
13C
331
171
  5
13D
331
172
  5
13E
331
173
  5
13F
331
174
  5
282
331
175
  5
140
331
176
  5
141
331
177
  5
283
331
178
  5
142
331
179
  5
143
331
17A
  5
144
331
17B
  5
145
331
17C
  5
146
331
17D
  5
284
331
17E
  5
147
331
17F
  5
148
331
180
  5
149
331
181
  5
14A
331
182
  5
14B
331
183
  5
28F
331
184
  5
14C
331
185
  5
14D
331
188
  5
14E
331
189
  5
14F
331
18A
  5
150
331
18B
  5
151
331
18C
  5
152
331
18D
  5
153
331
18E
  5
154
331
18F
  5
155
331
190
  5
29A
331
191
  5
29B
331
192
  5
156
331
193
  5
157
331
194
  5
158
331
195
  5
2A6
331
196
  5
159
331
197
  5
15A
331
198
  5
15B
331
199
  5
15C
331
19A
  5
15D
331
19B
  5
15E
331
19C
  5
15F
331
19D
  5
160
331
19E
  5
161
331
19F
  5
2B1
331
1A0
  5
162
331
1A1
  5
163
331
1A2
  5
164
331
1A3
  5
165
331
1A4
  5
166
331
1A5
  5
167
331
1A6
  5
168
331
1A7
  5
169
331
1A8
  5
16A
331
1A9
  5
16B
331
1AA
  5
16C
331
1AB
  5
16D
331
1AC
  5
2BC
331
1AD
  5
2C7
331
1AE
  5
16E
331
1AF
  5
16F
331
1B0
  5
2D2
331
1B1
  5
170
331
1B3
  5
171
331
1B5
  5
172
331
1B7
  5
173
331
1B9
  5
174
331
1BB
  5
175
331
1BD
  5
176
331
1BF
  5
177
331
1C1
  5
178
331
1C3
  5
179
331
1C5
  5
17A
331
1C7
  5
17B
331
1C9
  5
17C
331
1CB
  5
17D
331
1CD
  5
17E
331
1CF
  5
17F
331
1D1
  5
180
331
1D3
  5
181
331
1D5
  5
182
331
1D7
  5
2DD
331
1D8
  5
183
331
1D9
  5
184
331
1DA
  5
185
331
1DB
  5
188
331
1DC
  5
189
331
1DD
  5
18A
331
1DE
  5
18B
331
1DF
  5
18C
331
1E0
  5
18D
331
1E1
  5
18E
331
1E2
  5
18F
331
1E3
  5
190
331
1E4
  5
191
331
1E5
  5
192
331
1E6
  5
193
331
1E7
  5
194
331
1E8
  5
195
331
1E9
  5
196
331
1EA
  5
197
331
1EB
  5
198
331
1EC
  5
199
331
1ED
  5
19A
331
1EE
  5
19B
331
1EF
  5
19C
331
1F0
  5
19D
331
1F1
  5
19E
331
1F2
  5
19F
331
1F3
  5
1A0
331
1F4
  5
1A1
331
1F5
  5
1A2
331
1F6
  5
1A3
331
1F7
  5
1A4
331
1F8
  5
1A5
331
1F9
  5
1A6
331
1FA
  5
1A7
331
1FB
  5
1A8
331
1FC
  5
1A9
331
1FD
  5
1AA
331
1FE
  5
1AB
331
1FF
  5
1AC
331
200
  5
1AD
331
201
  5
1AE
331
202
  5
1AF
331
203
  5
1B0
331
204
  5
1B1
331
205
  5
1B3
331
206
  5
1B5
331
207
  5
1B7
331
208
  5
1B9
331
209
  5
1BB
331
20A
  5
1BD
331
20B
  5
1BF
331
20C
  5
1C1
331
20D
  5
1C3
331
20E
  5
1C5
331
20F
  5
1C7
331
210
  5
1C9
331
211
  5
1CB
331
212
  5
1CD
331
213
  5
1CF
331
214
  5
1D1
331
215
  5
1D3
331
216
  5
1D5
331
217
  5
1D7
331
218
  5
1D8
331
219
  5
1D9
331
21A
  5
1DA
331
21B
  5
1DB
331
21C
  5
1DC
331
21D
  5
1DD
331
21E
  5
1DE
331
21F
  5
1DF
331
220
  5
1E0
331
221
  5
1E1
331
222
  5
1E2
331
223
  5
1E3
331
224
  5
1E4
331
225
  5
1E5
331
226
  5
1E6
331
227
  5
1E7
331
228
  5
1E8
331
229
  5
1E9
331
22A
  5
1EA
331
22B
  5
1EB
331
22C
  5
1EC
331
22D
  5
1ED
331
22E
  5
1EE
331
22F
  5
1EF
331
230
  5
1F0
331
231
  5
1F1
331
232
  5
1F2
331
233
  5
1F3
331
234
  5
1F4
331
235
  5
1F5
331
236
  5
1F6
331
237
  5
1F7
331
238
  5
1F8
331
239
  5
1F9
331
23A
  5
1FA
331
23B
  5
1FB
331
23C
  5
1FC
331
23D
  5
1FD
331
23E
  5
1FE
331
23F
  5
1FF
331
240
  5
200
331
241
  5
201
331
242
  5
202
331
243
  5
203
331
244
  5
204
331
245
  5
205
331
246
  5
206
331
247
  5
207
331
248
  5
208
331
249
  5
209
331
24A
  5
20A
331
24B
  5
20B
331
24C
  5
20C
331
24D
  5
20D
331
24E
  5
20E
331
24F
  5
20F
331
250
  5
210
331
251
  5
211
331
252
  5
212
331
253
  5
213
331
254
  5
214
331
255
  5
215
331
256
  5
216
331
257
  5
217
331
258
  5
218
331
259
  5
219
331
25A
  5
21A
331
25B
  5
21B
331
25C
  5
21C
331
25D
  5
21D
331
25E
  5
21E
331
25F
  5
21F
331
260
  5
220
331
261
  5
221
331
262
  5
222
331
263
  5
223
331
264
  5
224
331
265
  5
225
331
266
  5
226
331
267
  5
227
331
268
  5
228
331
269
  5
229
331
26A
  5
22A
331
26B
  5
22B
331
26C
  5
22C
331
26D
  5
22D
331
26E
  5
22E
331
26F
  5
22F
331
270
  5
230
331
271
  5
231
331
272
  5
232
331
273
  5
233
331
274
  5
234
331
275
  5
235
331
276
  5
236
331
277
  5
237
331
278
  5
238
331
279
  5
239
331
27A
  5
23A
331
27B
  5
23B
331
27C
  5
23C
331
27D
  5
23D
331
27E
  5
23E
331
27F
  5
23F
331
280
  5
240
331
281
  5
241
331
282
  5
242
331
283
  5
2E8
331
284
  5
243
331
28F
  5
244
331
29A
  5
245
331
29B
  5
246
331
2A6
  5
247
331
2B1
  5
248
331
2BC
  5
249
331
2C7
  5
24A
331
2D2
  5
24B
331
2DD
  5
24C
331
2E8
  5
24D
  0
LAYOUT
  5
356
102
{ACAD_REACTORS
330
352
330
352
102
}
102
{ACAD_XDICTIONARY
360
357
102
}
330
352
100
AcDbPlotSettings
  1

  2
none_device
  4
Letter_(8.50_x_11.00_Inches)
  6

 40
6.35
 41
6.35
 42
6.350006
 43
6.350006
 44
215.899994
 45
279.399994
 46
0.0
 47
0.0
 48
0.0
 49
0.0
140
0.0
141
0.0
142
1.0
143
1.0
 70
   688
 72
     0
 73
     1
 74
     5
  7

 75
    16
 76
     0
 77
     2
 78
   300
147
1.0
148
0.0
149
0.0
100
AcDbLayout
  1
Layout1
 70
     1
 71
     1
 10
-0.25
 20
-0.25
 11
10.75
 21
8.25
 12
0.0
 22
0.0
 32
0.0
 14
1.049744
 24
0.799667
 34
-0.001526
 15
9.450623
 25
7.200577
 35
0.0
146
0.0
 13
0.0
 23
0.0
 33
0.0
 16
1.0
 26
0.0
 36
0.0
 17
0.0
 27
1.0
 37
0.0
 76
     0
330
353
1001
ACAD_PSEXT
1000
None
1000
None
1000
Not applicable
1000
The layout will not be plotted unless a new plotter configuration name is selected.
1070
     0
  0
LAYOUT
  5
351
102
{ACAD_REACTORS
330
352
330
352
102
}
330
352
100
AcDbPlotSettings
  1

  2
none_device
  4
ANSI_A_(8.50_x_11.00_Inches)
  6

 40
6.35
 41
19.049999
 42
6.350006
 43
19.049988
 44
215.899994
 45
279.399994
 46
0.0
 47
0.0
 48
0.0
 49
0.0
140
0.0
141
0.0
142
1.0
143
2.584895
 70
 11952
 72
     0
 73
     1
 74
     0
  7

 75
     0
 76
     0
 77
     2
 78
   300
147
0.386863
148
0.0
149
0.0
100
AcDbLayout
  1
Model
 70
     1
 71
     0
 10
0.0
 20
0.0
 11
12.0
 21
9.0
 12
0.0
 22
0.0
 32
0.0
 14
0.0
 24
0.0
 34
0.0
 15
0.0
 25
0.0
 35
0.0
146
0.0
 13
0.0
 23
0.0
 33
0.0
 16
1.0
 26
0.0
 36
0.0
 17
0.0
 27
1.0
 37
0.0
 76
     0
330
34E
331
49
  0
MLINESTYLE
  5
34B
102
{ACAD_REACTORS
330
34C
102
}
330
34C
100
AcDbMlineStyle
  2
STANDARD
 70
     0
  3

 62
   256
 51
90.0
 52
90.0
 71
     2
 49
0.5
 62
   256
  6
BYLAYER
 49
-0.5
 62
   256
  6
BYLAYER
  0
ACDBPLACEHOLDER
  5
340
102
{ACAD_REACTORS
330
341
102
}
330
341
  0
XRECORD
  5
333
102
{ACAD_REACTORS
330
366
102
}
330
366
100
AcDbXrecord
280
     1
310
3E4F020000004D6F64656C6572000000000000000000000000000000000000000000000000000000000000000000000000000000000000000000000000000000000000000000000000000000000000000000000000000000000000000000000000000000000000000000000000000000000000000000000000000000000000
310
00000000000000000000000000000000000000000000000000000000000000000000000000000000000000000000000000000000000000000000000000000000000000000000000000000000000000000000000000000000000000000000000000000000000000000000000000000000000000000000000000000000000000
310
00
310
00000000000000000000000000000000000000000000000000000000000000000000000000000000000000000000000000000000000000000000000000000000000000000000000000000000000000000000000000000000000000000000000000000000000000000000000000000000000000000000000000000000000000
310
00000000000000000000000000000000000000000000000000000000000000000000000000000000000000000000000000000000000000000000000000000000000000000000000000000000000000000000000000000000000000000000000000000000000000000000000000000000000000000000000000000000000000
310
00
310
00000000000000000000000000000000000000000000000000000000000000000000000000000000000000000000000000000000000000000000000000000000000000000000000000000000000000000000000000000000000000000000000000000000000000000000000000000000000000000000000000000000000000
310
00000000000000000000000000000000000000000000000000000000000000000000000000000000000000000000000000000000000000000000000000000000000000000000000000000000000000000000000000000000000000000000000000000000000000000000000000000000000000000000000000000000000000
310
00
310
00000000000000000000000000000000000000000000000000000000000000000000000000000000000000000000000000000000000000000000000000000000000000000000000000000000000000000000000000000000000000000000000000000000000000000000000000000000000000000000000000000000000000
310
00000000000000000000000000000000000000000000000000000000000000000000000000000000000000000000000000000000000000000000000000000000000000000000000000000000000000000000000000000000000000000000000000000000000000000000000000000000000000000000000000000000000000
310
00
310
00000000000000000000000000000000000000000000000000000000000000000000000000000000000000000000000000000000000000000000000000000000000000000000000000000000000000000000000000000000000000000000000000000000000000000000000000000000000000000000000000000000000000
310
00000000000000000000000000000000000000000000000000000000000000000000000000000000000000000000000000000000000000000000000000000000000000000000000000000000000000000000000000000000000000000000000000000000000000000000000000000000000000000000000000000000000000
310
00
310
00000000000000000000000000000000000000000000000000000000000000000000000000000000000000000000000000000000000000000000000000000000000000000000000000000000000000000000000000000000000000000000000000000000000000000000000000000000000000000000000000000000000000
310
00000000000000000000000000000000000000000000000000000000000000000000000000000000000000000000000000000000000000000000000000000000000000000000000000000000000000000000000000000000000000000000000000000000000000000000000000000000000000000000000000000000000000
310
00
310
00000000000000000000000000000000000000000000000000000000000000000000000000000000000000000000000000000000000000000000000000000000000000000000000000000000000000000000000000000000000000000000000000000000000000000000000000000000000000000000000000000000000000
310
00000000000000000000000000000000000000000000000000000000000000000000000000000000000000000000000000000000000000000000000000000000000000000000000000000000000000000000000000000000000000000000000000000000000000000000000000000000000000000000000000000000000000
310
00
310
00000000000000000000000000000000000000000000000000000000000000000000000000000000000000000000000000000000000000000000000000000000000000000000000000000000000000000000000000000000000000000000000000000000000000000000000000000000000000000000000000000000000000
310
00000000000000000000000000000000000000000000000000000000000000000000000000000000000000000000000000000000000000000000000000000000000000000000000000000000000000000000000000000000000000000000000000000000000000000000000000000000000000000000000000000000000000
310
00
310
00000000000000000000000000000000000000000000000000000000000000000000000000000000000000000000000000000000000000000000000000000000000000000000000000000000000000000000000000000000000000000000000000000000000000000000000000000000000000000000000000000000000000
310
00000000000000000000000000000000000000000000000000000000000000000000000000000000000000000000000000000000000000000000000000000000000000000000000000000000000000000000000000000000000000000000000000000000000000000000000000000000000000000000000000000000000000
310
00
310
00000000000000000000000000000000000000000000000000000000000000000000000000000000000000000000000000000000000000000000000000000000000000000000000000000000000000000000000000000000000000000000000000000000000000000000000000000000000000000000000000000000000000
310
00000000000000000000000000000000000000000000000000000000000000000000000000000000000000000000000000000000000000000000000000000000000000000000000000000000000000000000000000000000000000000000000000000000000000000000000000000000000000000000000000000000000000
310
00
310
00000000000000000000000000000000000000000000000000000000000000000000000000000000000000000000000000000000000000000000000000000000000000000000000000000000000000000000000000000000000000000000000000000000000000000000000000000000000000000000000000000000000000
310
00000000000000000000000000000000000000000000000000000000000000000000000000000000000000000000000000000000000000000000000000000000000000000000000000000000000000000000000000000000000000000000000000000000000000000000000000000000000000000000000000000000000000
310
00
310
00000000000000000000000000000000000000000000000000000000000000000000000000000000000000000000000000000000000000000000000000000000000000000000000000000000000000000000000000000000000000000000000000000000000000000000000000000000000000000000000000000000000000
310
00000000000000000000000000000000000000000000000000000000000000000000000000000000000000000000000000000000000000000000000000000000000000000000000000000000000000000000000000000000000000000000000000000000000000000000000000000000000000000000000000000000000000
310
00
310
00000000000000000000000000000000000000000000000000000000000000000000000000000000000000000000000000000000000000000000000000000000000000000000000000000000000000000000000000000000000000000000000000000000000000000000000000000000000000000000000000000000000000
310
00000000000000000000000000000000000000000000000000000000000000000000000000000000000000000000000000000000000000000000000000000000000000000000000000000000000000000000000000000000000000000000000000000000000000000000000000000000000000000000000000000000000000
310
00
310
00000000000000000000000000000000000000000000000000000000000000000000000000000000000000000000000000000000000000000000000000000000000000000000000000000000000000000000000000000000000000000000000000000000000000000000000000000000000000
  0
XRECORD
  5
33A
102
{ACAD_REACTORS
330
366
102
}
330
366
100
AcDbXrecord
280
     1
310
3E4F020000004D6F64656C6572000000000000000000000000000000000000000000000000000000000000000000000000000000000000000000000000000000000000000000000000000000000000000000000000000000000000000000000000000000000000000000000000000000000000000000000000000000000000
310
00000000000000000000000000000000000000000000000000000000000000000000000000000000000000000000000000000000000000000000000000000000000000000000000000000000000000000000000000000000000000000000000000000000000000000000000000000000000000000000000000000000000000
310
00
310
00000000000000000000000000000000000000000000000000000000000000000000000000000000000000000000000000000000000000000000000000000000000000000000000000000000000000000000000000000000000000000000000000000000000000000000000000000000000000000000000000000000000000
310
00000000000000000000000000000000000000000000000000000000000000000000000000000000000000000000000000000000000000000000000000000000000000000000000000000000000000000000000000000000000000000000000000000000000000000000000000000000000000000000000000000000000000
310
00
310
00000000000000000000000000000000000000000000000000000000000000000000000000000000000000000000000000000000000000000000000000000000000000000000000000000000000000000000000000000000000000000000000000000000000000000000000000000000000000000000000000000000000000
310
00000000000000000000000000000000000000000000000000000000000000000000000000000000000000000000000000000000000000000000000000000000000000000000000000000000000000000000000000000000000000000000000000000000000000000000000000000000000000000000000000000000000000
310
00
310
00000000000000000000000000000000000000000000000000000000000000000000000000000000000000000000000000000000000000000000000000000000000000000000000000000000000000000000000000000000000000000000000000000000000000000000000000000000000000000000000000000000000000
310
00000000000000000000000000000000000000000000000000000000000000000000000000000000000000000000000000000000000000000000000000000000000000000000000000000000000000000000000000000000000000000000000000000000000000000000000000000000000000000000000000000000000000
310
00
310
00000000000000000000000000000000000000000000000000000000000000000000000000000000000000000000000000000000000000000000000000000000000000000000000000000000000000000000000000000000000000000000000000000000000000000000000000000000000000000000000000000000000000
310
00000000000000000000000000000000000000000000000000000000000000000000000000000000000000000000000000000000000000000000000000000000000000000000000000000000000000000000000000000000000000000000000000000000000000000000000000000000000000000000000000000000000000
310
00
310
00000000000000000000000000000000000000000000000000000000000000000000000000000000000000000000000000000000000000000000000000000000000000000000000000000000000000000000000000000000000000000000000000000000000000000000000000000000000000000000000000000000000000
310
00000000000000000000000000000000000000000000000000000000000000000000000000000000000000000000000000000000000000000000000000000000000000000000000000000000000000000000000000000000000000000000000000000000000000000000000000000000000000000000000000000000000000
310
00
310
00000000000000000000000000000000000000000000000000000000000000000000000000000000000000000000000000000000000000000000000000000000000000000000000000000000000000000000000000000000000000000000000000000000000000000000000000000000000000000000000000000000000000
310
00000000000000000000000000000000000000000000000000000000000000000000000000000000000000000000000000000000000000000000000000000000000000000000000000000000000000000000000000000000000000000000000000000000000000000000000000000000000000000000000000000000000000
310
00
310
00000000000000000000000000000000000000000000000000000000000000000000000000000000000000000000000000000000000000000000000000000000000000000000000000000000000000000000000000000000000000000000000000000000000000000000000000000000000000000000000000000000000000
310
00000000000000000000000000000000000000000000000000000000000000000000000000000000000000000000000000000000000000000000000000000000000000000000000000000000000000000000000000000000000000000000000000000000000000000000000000000000000000000000000000000000000000
310
00
310
00000000000000000000000000000000000000000000000000000000000000000000000000000000000000000000000000000000000000000000000000000000000000000000000000000000000000000000000000000000000000000000000000000000000000000000000000000000000000000000000000000000000000
310
00000000000000000000000000000000000000000000000000000000000000000000000000000000000000000000000000000000000000000000000000000000000000000000000000000000000000000000000000000000000000000000000000000000000000000000000000000000000000000000000000000000000000
310
00
310
00000000000000000000000000000000000000000000000000000000000000000000000000000000000000000000000000000000000000000000000000000000000000000000000000000000000000000000000000000000000000000000000000000000000000000000000000000000000000000000000000000000000000
310
00000000000000000000000000000000000000000000000000000000000000000000000000000000000000000000000000000000000000000000000000000000000000000000000000000000000000000000000000000000000000000000000000000000000000000000000000000000000000000000000000000000000000
310
00
310
00000000000000000000000000000000000000000000000000000000000000000000000000000000000000000000000000000000000000000000000000000000000000000000000000000000000000000000000000000000000000000000000000000000000000000000000000000000000000000000000000000000000000
310
00000000000000000000000000000000000000000000000000000000000000000000000000000000000000000000000000000000000000000000000000000000000000000000000000000000000000000000000000000000000000000000000000000000000000000000000000000000000000000000000000000000000000
310
00
310
00000000000000000000000000000000000000000000000000000000000000000000000000000000000000000000000000000000000000000000000000000000000000000000000000000000000000000000000000000000000000000000000000000000000000000000000000000000000000000000000000000000000000
310
00000000000000000000000000000000000000000000000000000000000000000000000000000000000000000000000000000000000000000000000000000000000000000000000000000000000000000000000000000000000000000000000000000000000000000000000000000000000000000000000000000000000000
310
00
310
00000000000000000000000000000000000000000000000000000000000000000000000000000000000000000000000000000000000000000000000000000000000000000000000000000000000000000000000000000000000000000000000000000000000000000000000000000000000000000000000000000000000000
310
00000000000000000000000000000000000000000000000000000000000000000000000000000000000000000000000000000000000000000000000000000000000000000000000000000000000000000000000000000000000000000000000000000000000000000000000000000000000000000000000000000000000000
310
00
310
00000000000000000000000000000000000000000000000000000000000000000000000000000000000000000000000000000000000000000000000000000000000000000000000000000000000000000000000000000000000000000000000000000000000000000000000000000000000000
  0
XRECORD
  5
332
102
{ACAD_REACTORS
330
366
102
}
330
366
100
AcDbXrecord
280
     1
310
DF56060034040701D0009A9999999999B93F000000000000000000000000000000000400000009000000000000000200000064000000640000000100000001000000190000007B14AE47E17A843F00000000004060409A9999999999B93F00000000004C2D41000000000070F7400000000000942141000000000000000000
310
0000000000000000000000000000000AD482040000000000000000000000000000F03F000000000000000000000000000030402D431CEBE2362A3F00000000000008400000000000000000009807C000000000000000007C1A61B9A711364020000000050000000A000000200000002000000020000000000000000000F03F
310
00
310
0000000000F03F000000000000F03F333333333333D33F333333333333D33F333333333333D33F000000000000F43F000000000000F43F000000000000F03F0200000064000000000000000000000000000840000000000000F83F00000000000000000000000000000000008056409A9999999999B93F0000000000000000
310
00000000000000000000000000000000000000000000000000000000000000000000000000000000000000000000000000000000000000000000000000000000000000000000000000000000000000000000000000000000000000000000000000000000000000000000000000000000000000000000000000000000000000
310
00
310
0000000000000000000000000000000000000000000000000000000000000000000000000000000000000000000000000000000000000000000000000000000000000000000000000000000000000000000000000000000000000000000000000000000000000000000000000000000000000000000000009A9999999999A9
310
3F9100000000000000000000000000000035A781D547960F40000000000000F03F000000000000F03F666666666666164000000000104068F200000000000000000000000000000000000000000000000000000000000000000000000000000000000000000000000000000000000000000000000000000000000000000000
310
00
310
00000000000000000000000000000000000000000000000000000000000000000000000000000000000000000000000000000000000000000000000000000000000000000000000000000000000000000000000000000000000000000000000000000000000000000000000000000000000000000000000000000000000000
310
000000000000000000000000000000000000000000000000000000000000000000000000000000000000000000000000000000000000000000000000FF000000000000000000000000000000000000000000000000000000000000000000000000000000000000000000000000000000000000000000000000000000000000
310
00
310
0000000000000000000000000000000000000000000000000000000000000000000000000000000000000000000000000000000000000000000000000000000000000000
  0
DICTIONARY
  5
357
330
356
100
AcDbDictionary
280
     1
281
     1
  3
ADSK_XREC_LAYOUTTHUMBNAIL
360
358
  0
XRECORD
  5
358
102
{ACAD_REACTORS
330
357
102
}
330
357
100
AcDbXrecord
280
     1
310
28000000B40000008B0000000100080000000000BC61000000000000000000000001000000000000FFFFFF0000000000FFFFFF000000000000000000000000000000000000000000000000000000000000000000330000006600000099000000CC000000FF00000000330000333300006633000099330000CC330000FF3300
310
0000660000336600006666000099660000CC660000FF66000000990000339900006699000099990000CC990000FF99000000CC000033CC000066CC000099CC0000CCCC0000FFCC000000FF000033FF000066FF000099FF0000CCFF0000FFFF000000003300330033006600330099003300CC003300FF003300003333003333
310
33006633330099333300CC333300FF33330000663300336633006666330099663300CC663300FF66330000993300339933006699330099993300CC993300FF99330000CC330033CC330066CC330099CC3300CCCC3300FFCC330000FF330033FF330066FF330099FF3300CCFF3300FFFF330000006600330066006600660099
310
006600CC006600FF00660000336600333366006633660099336600CC336600FF33660000666600336666006666660099666600CC666600FF66660000996600339966006699660099996600CC996600FF99660000CC660033CC660066CC660099CC6600CCCC6600FFCC660000FF660033FF660066FF660099FF6600CCFF6600
310
FFFF660000009900330099006600990099009900CC009900FF00990000339900333399006633990099339900CC339900FF33990000669900336699006666990099669900CC669900FF66990000999900339999006699990099999900CC999900FF99990000CC990033CC990066CC990099CC9900CCCC9900FFCC990000FF99
310
0033FF990066FF990099FF9900CCFF9900FFFF99000000CC003300CC006600CC009900CC00CC00CC00FF00CC000033CC003333CC006633CC009933CC00CC33CC00FF33CC000066CC003366CC006666CC009966CC00CC66CC00FF66CC000099CC003399CC006699CC009999CC00CC99CC00FF99CC0000CCCC0033CCCC0066CC
310
CC0099CCCC00CCCCCC00FFCCCC0000FFCC0033FFCC0066FFCC0099FFCC00CCFFCC00FFFFCC000000FF003300FF006600FF009900FF00CC00FF00FF00FF000033FF003333FF006633FF009933FF00CC33FF00FF33FF000066FF003366FF006666FF009966FF00CC66FF00FF66FF000099FF003399FF006699FF009999FF00CC
310
99FF00FF99FF0000CCFF0033CCFF0066CCFF0099CCFF00CCCCFF00FFCCFF0000FFFF0033FFFF0066FFFF0099FFFF00CCFFFF00FFFFFF00000000000D0D0D001A1A1A00282828003535350043434300505050005D5D5D006B6B6B00787878008686860093939300A1A1A100AEAEAE00BBBBBB00C9C9C900D6D6D600E4E4E400
310
F1F1F100FFFFFF0000000000000000000000000000000000000000000000000000000000000000000000000000000000E2E2E2E2E2E2E2E2E2E2E2E2E2E2E2E2E2E2E2E2E2E2E2E2E2E2E2E2E2E2E2E2E2E2E2E2E2E2E2E2E2E2E2E2E2E2E2E2E2E2E2E2E2E2E2E2E2E2E2E2E2E2E2E2E2E2E2E2E2E2E2E2E2E2E2E2E2E2E2
310
E2E2E2E2E2E2E2E2E2E2E2E2E2E2E2E2E2E2E2E2E2E2E2E2E2E2E2E2E2E2E2E2E2E2E2E2E2E2E2E2E2E2E2E2E2E2E2E2E2E2E2E2E2E2E2E2E2E2E2E2E2E2E2E2E2E2E2E2E2E2E2E2E2E2E2E2E2E2E2E2E2E2E2E2E2E2E2E2E2E2E2E2E2E2E2E2E2E2E2E2EFF5F5F5F5F5F5F5F5F5F5F5F5F5F5F5F5F5F5F5F5F5F5F5F5F5F5
310
F5F5F5F5F5F5F5F5F5F5F5F5F5F5F5F5F5F5F5F5F5F5F5F5F5F5F5F5F5F5F5F5F5F5F5F5F5F5F5F5F5F5F5F5F5F5F5F5F5F5F5F5F5F5F5F5F5F5F5F5F5F5F5F5F5F5F5F5F5F5F5F5F5F5F5F5F5F5F5F5F5F5F5F5F5F5F5F5F5F5F5F5F5F5F5F5F5F5F5F5F5F5F5F5F5F5F5F5F5F5F5F5F5F5F5F5F5F5F5F5F5F5F5F5F5F5F5
310
F5F5F5F5F5F5F5F5F5F5F5F5F5F5F5F5F5F5F5F5F5F5F5F5E2E2EFF5F5F5F5F5F5F5F5F5F5F5F5F5F5F5F5F5F5F5F5F5F5F5F5F5F5F5F5F5F5F5F5F5F5F5F5F5F5F5F5F5F5F5F5F5F5F5F5F5F5F5F5F5F5F5F5F5F5F5F5F5F5F5F5F5F5F5F5F5F5F5F5F5F5F5F5F5F5F5F5F5F5F5F5F5F5F5F5F5F5F5F5F5F5F5F5F5F5F5F5
310
F5F5F5F5F5F5F5F5F5F5F5F5F5F5F5F5F5F5F5F5F5F5F5F5F5F5F5F5F5F5F5F5F5F5F5F5F5F5F5F5F5F5F5F5F5F5F5F5F5F5F5F5F5F5F5F5F5F5F5F5F5F5F5F5F5F5F5F5F5F5F5F5F5F5F5F5F5E2E2EFF5F5F5F5F5F5F5F5F5F5F5F5F5F5F5F5F5F5F5F5F5F5F5F5F5F5F5F5F5F5F5F5F5F5F5F5F5F5F5F5F5F5F5F5F5F5F5
310
F5F5F5F5F5F5F5F5F5F5F5F5F5F5F5F5F5F5F5F5F5F5F5F5F5F5F5F5F5F5F5F5F5F5F5F5F5F5F5F5F5F5F5F5F5F5F5F5F5F5F5F5F5F5F5F5F5F5F5F5F5F5F5F5F5F5F5F5F5F5F5F5F5F5F5F5F5F5F5F5F5F5F5F5F5F5F5F5F5F5F5F5F5F5F5F5F5F5F5F5F5F5F5F5F5F5F5F5F5F5F5F5F5F5F5F5F5F5F5F5F5F5F5F5F5F5F5
310
F5F5F5E2E2EFF5F5F5E2E2E2E2E2E2E2E2F5F5F5F5F5F5F5F5F5E2E2E2E2E2E2E2E2E2E2E2E2E2E2E2E2F5F5F5F5F5F5F5F5E2E2E2E2E2E2E2E2E2E2E2E2E2E2E2E2F5F5F5F5F5F5F5F5F5E2E2E2E2E2E2E2E2E2E2E2E2E2E2E2F5F5F5F5F5F5F5F5F5E2E2E2E2E2E2E2E2E2E2E2E2E2E2E2F5F5F5F5F5F5F5F5F5E2E2E2E2
310
E2E2E2E2E2E2E2E2E2E2E2E2F5F5F5F5F5F5F5F5E2E2E2E2E2E2E2E2E2E2E2E2E2E2E2E2F5F5F5F5F5F5F5F5F5E2E2E2E2E2E2E2E2F5F5F5E2E2EFF5F5F5E2F5F5F5F5F5F5F5F5F5F5F5F5F5F5F5F5F5F5F5F5F5F5F5F5F5F5F5F5F5F5F5F5F5F5F5F5F5F5F5F5F5F5F5F5F5F5F5F5F5F5F5F5F5F5F5F5F5F5F5F5F5F5F5F5
310
F5F5F5F5F5F5F5F5F5F5F5F5F5F5F5F5F5F5F5F5F5F5F5F5F5F5F5F5F5F5F5F5F5F5F5F5F5F5F5F5F5F5F5F5F5F5F5F5F5F5F5F5F5F5F5F5F5F5F5F5F5F5F5F5F5F5F5F5F5F5F5F5F5F5F5F5F5F5F5F5F5F5F5F5F5F5F5F5F5F5F5F5F5F5F5F5F5F5F5F5F5F5F5F5F5E2F5F5F5E2E2EFF5F5F5E2F5F5F5F5F5F5F5F5F5F5F5
310
F5F5F5F5F5F5F5F5F5F5F5F5F5F5F5F5F5F5F5F5F5F5F5F5F5F5F5F5F5F5F5F5F5F5F5F5F5F5F5F5F5F5F5F5F5F5F5F5F5F5F5F5F5F5F5F5F5F5F5F5F5F5F5F5F5F5F5F5F5F5F5F5F5F5F5F5F5F5F5F5F5F5F5F5F5F5F5F5F5F5F5F5F5F5F5F5F5F5F5F5F5F5F5F5F5F5F5F5F5F5F5F5F5F5F5F5F5F5F5F5F5F5F5F5F5F5F5
310
F5F5F5F5F5F5F5F5F5F5F5F5F5F5F5F5F5F5F5F5F5F5F5F5F5F5F5F5F5F5F5E2F5F5F5E2E2EFF5F5F5E2F5F5F5F5F5F5F5F5F5F5F5F5F5F5F5F5F5F5F5F5F5F5F5F5F5F5F5F5F5F5F5F5F5F5F5F5F5F5F5F5F5F5F5F5F5F5F5F5F5F5F5F5F5F5F5F5F5F5F5F5F5F5F5F5F5F5F5F5F5F5F5F5F5F5F5F5F5F5F5F5F5F5F5F5F5
310
F5F5F5F5F5F5F5F5F5F5F5F5F5F5F5F5F5F5F5F5F5F5F5F5F5F5F5F5F5F5F5F5F5F5F5F5F5F5F5F5F5F5F5F5F5F5F5F5F5F5F5F5F5F5F5F5F5F5F5F5F5F5F5F5F5F5F5F5F5F5F5F5F5F5F5F5F5F5F5F5F5F5F5F5E2F5F5F5E2E2EFF5F5F5E2F5F5F5F5F5F5F5F5F5F5F5F5F5F5F5F5F5F5F5F5F5F5F5F5F5F5F5F5F5F5F5F5
310
F5F5F5F5F5F5F5F5F5F5F5F5F5F5F5F5F5F5F5F5F5F5F5F5F5F5F5F5F5F5F5F5F5F5F5F5F5F5F5F5F5F5F5F5F5F5F5F5F5F5F5F5F5F5F5F5F5F5F5F5F5F5F5F5F5F5F5F5F5F5F5F5F5F5F5F5F5F5F5F5F5F5F5F5F5F5F5F5F5F5F5F5F5F5F5F5F5F5F5F5F5F5F5F5F5F5F5F5F5F5F5F5F5F5F5F5F5F5F5F5F5F5F5F5F5F5F5
310
F5F5F5F5F5F5F5F5F5F5E2F5F5F5E2E2EFF5F5F5E2F5F5F5F5F5F5F5F5F5F5F5F5F5F5F5F5F5F5F5F5F5F5F5F5F5F5F5F5F5F5F5F5F5F5F5F5F5F5F5F5F5F5F5F5F5F5F5F5F5F5F5F5F5F5F5F5F5F5F5F5F5F5F5F5F5F5F5F5F5F5F5F5F5F5F5F5F5F5F5F5F5F5F5F5F5F5F5F5F5F5F5F5F5F5F5F5F5F5F5F5F5F5F5F5F5F5
310
F5F5F5F5F5F5F5F5F5F5F5F5F5F5F5F5F5F5F5F5F5F5F5F5F5F5F5F5F5F5F5F5F5F5F5F5F5F5F5F5F5F5F5F5F5F5F5F5F5F5F5F5F5F5F5F5F5F5F5F5F5F5F5E2F5F5F5E2E2EFF5F5F5E2F5F5F5F5F5F5F5F5F5F5F5F5F5F5F5F5F5F5F5F5F5F5F5F5F5F5F5F5F5F5F5F5F5F5F5F5F5F5F5F5F5F5F5F5F5F5F5F5F5F5F5F5F5
310
F5F5F5F5F5F5F5F5F5F5F5F5F5F5F5F5F5F5F5F5F5F5F5F5F5F5F5F5F5F5F5F5F5F5F5F5F5F5F5F5F5F5F5F5F5F5F5F5F5F5F5F5F5F5F5F5F5F5F5F5F5F5F5F5F5F5F5F5F5F5F5F5F5F5F5F5F5F5F5F5F5F5F5F5F5F5F5F5F5F5F5F5F5F5F5F5F5F5F5F5F5F5F5F5F5F5F5F5F5F5F5F5F5F5F5F5E2F5F5F5E2E2EFF5F5F5E2
310
F5F5F5F5F5F5F5F5F5F5F5F5F5F5F5F5F5F5F5F5F5F5F5F5F5F5F5F5F5F5F5F5F5F5F5F5F5F5F5F5F5F5F5F5F5F5F5F5F5F5F5F5F5F5F5F5F5F5F5F5F5F5F5F5F5F5F5F5F5F5F5F5F5F5F5F5F5F5F5F5F5F5F5F5F5F5F5F5F5F5F5F5F5F5F5F5F5F5F5F5F5F5F5F5F5F5F5F5F5F5F5F5F5F5F5F5F5F5F5F5F5F5F5F5F5F5F5
310
F5F5F5F5F5F5F5F5F5F5F5F5F5F5F5F5F5F5F5F5F5F5F5F5F5F5F5F5F5F5F5F5F5F5F5F5F5F5F5F5F5F5E2F5F5F5E2E2EFF5F5F5E2F5F5F5F5F5F5F5F5F5F5F5F5F5F5F5F5F5F5F5F5F5F5F5F5F5F5F5F5F5F5F5F5F5F5F5F5F5F5F5F5F5F5F5F5F5F5F5F5F5F5F5F5F5F5F5F5F5F5F5F5F5F5F5F5F5F5F5F5F5F5F5F5F5F5
310
F5F5F5F5F5F5F5F5F5F5F5F5F5F5F5F5F5F5F5F5F5F5F5F5F5F5F5F5F5F5F5F5F5F5F5F5F5F5F5F5F5F5F5F5F5F5F5F5F5F5F5F5F5F5F5F5F5F5F5F5F5F5F5F5F5F5F5F5F5F5F5F5F5F5F5F5F5F5F5F5F5F5F5F5F5F5F5F5F5F5F5F5F5F5F5E2F5F5F5E2E2EFF5F5F5F5F5F5F5F5F5F5F5F5F5F5F5F5F5F5F5F5F5F5F5F5F5
310
F5F5F5F5F5F5F5F5F5F5F5F5F5F5F5F5F5F5F5F5F5F5F5F5F5F5F5F5F5F5F5F5F5F5F5F5F5F5F5F5F5F5F5F5F5F5F5F5F5F5F5F5F5F5F5F5F5F5F5F5F5F5F5F5F5F5F5F5F5F5F5F5F5F5F5F5F5F5F5F5F5F5F5F5F5F5F5F5F5F5F5F5F5F5F5F5F5F5F5F5F5F5F5F5F5F5F5F5F5F5F5F5F5F5F5F5F5F5F5F5F5F5F5F5F5F5F5
310
F5F5F5F5F5F5F5F5F5F5F5F5F5F5F5F5F5F5F5F5F5F5F5F5F5E2E2EFF5F5F5F5F5F5F5F5F5F5F5F5F5F5F5F5F5F5F5F5F5F5F5F5F5F5F5F5F5F5F5F5F5F5F5F5F5F5F5F5F5F5F5F5F5F5F5F5F5F5F5F5F5F5F5F5F5F5F5F5F5F5F5F5F5F5F5F5F5F5F5F5F5F5F5F5F5F5F5F5F5F5F5F5F5F5F5F5F5F5F5F5F5F5F5F5F5F5F5
310
F5F5F5F5F5F5F5F5F5F5F5F5F5F5F5F5F5F5F5F5F5F5F5F5F5F5F5F5F5F5F5F5F5F5F5F5F5F5F5F5F5F5F5F5F5F5F5F5F5F5F5F5F5F5F5F5F5F5F5F5F5F5F5F5F5F5F5F5F5F5F5F5F5F5F5F5F5F5E2E2EFF5F5F5F5F5F5F5F5F5F5F5F5F5F5F5F5F5F5F5F5F5F5F5F5F5F5F5F5F5F5F5F5F5F5F5F5F5F5F5F5F5F5F5F5F5F5
310
F5F5F5F5F5F5F5F5F5F5F5F5F5F5F5F5F5F5F5F5F5F5F5F5F5F5F5F5F5F5F5F5F5F5F5F5F5F5F5F5F5F5F5F5F5F5F5F5F5F5F5F5F5F5F5F5F5F5F5F5F5F5F5F5F5F5F5F5F5F5F5F5F5F5F5F5F5F5F5F5F5F5F5F5F5F5F5F5F5F5F5F5F5F5F5F5F5F5F5F5F5F5F5F5F5F5F5F5F5F5F5F5F5F5F5F5F5F5F5F5F5F5F5F5F5F5F5
310
F5F5F5F5E2E2EFF5F5F5F5F5F5F5F5F5F5F5F5F5F5F5F5F5F5F5F5F5F5F5F5F5F5F5F5F5F5F5F5F5F5F5F5F5F5F5F5F5F5F5F5F5F5F5F5F5F5F5F5F5F5F5F5F5F5F5F5F5F5F5F5F5F5F5F5F5F5F5F5F5F5F5F5F5F5F5F5F5F5F5F5F5F5F5F5F5F5F5F5F5F5F5F5F5F5F5F5F5F5F5F5F5F5F5F5F5F5F5F5F5F5F5F5F5F5F5F5
310
F5F5F5F5F5F5F5F5F5F5F5F5F5F5F5F5F5F5F5F5F5F5F5F5F5F5F5F5F5F5F5F5F5F5F5F5F5F5F5F5F5F5F5F5F5F5F5F5F5F5F5F5F5F5F5F5F5E2E2EFF5F5F5F5F5F5F5F5F5F5F5F5F5F5F5F5F5F5F5F5E2E2E2E2E2E2E2E2E2E2E2E2E2E2E2E2E2E2E2E2E2E2E2E2E2E2E2E2E2E2E2E2E2E2E2E2E2E2E2E2E2E2E2E2E2E2E2
310
E2E2E2E2E2E2E2E2E2E2E2E2E2E2E2E2E2E2E2E2E2E2E2E2E2E2E2E2E2E2E2E2E2E2E2E2E2E2E2E2E2E2E2E2E2E2E2E2E2E2E2E2E2E2E2E2E2E2E2E2E2E2E2E2E2E2E2E2E2E2E2E2E2E2E2E2E2E2E2E2E2E2E2E2E2E2E2E2E2E2F5F5F5F5F5F5F5F5F5F5F5F5F5F5F5F5F5F5F5F5E2E2EFF5F5F5F5F5F5F5F5F5F5F5F5F5F5
310
F5F5F5F5F5F5E2F5F5F5F5F5F5F5F5F5F5F5F5F5F5F5F5F5F5F5F5F5F5F5F5F5F5F5F5F5F5F5F5F5F5F5F5F5F5F5F5F5F5F5F5F5F5F5F5F5F5F5F5F5F5F5F5F5F5F5F5F5F5F5F5F5F5F5F5F5F5F5F5F5F5F5F5F5F5F5F5F5F5F5F5F5F5F5F5F5F5F5F5F5F5F5F5F5F5F5F5F5F5F5F5F5F5F5F5F5F5F5F5F5F5F5F5F5F5F5F5
310
F5F5F5F5F5F5F5F5F5F5F5F5F5F5F5E2F5F5F5F5F5F5F5F5F5F5F5F5F5F5F5F5F5F5F5F5E2E2EFF5F5F5F5F5F5F5F5F5F5F5F5F5F5F5F5F5F5F5F5E2F5F5F5F5F5F5F5F5F5F5F5F5F5F5F5F5F5F5F5F5F5F5F5F5F5F5F5F5F5F5F5F5F5F5F5F5F5F5F5F5F5F5F5F5F5F5F5F5F5F5F5F5F5F5F5F5F5F5F5F5F5F5F5F5F5F5F5
310
F5F5F5F5F5F5F5F5F5F5F5F5F5F5F5F5F5F5F5F5F5F5F5F5F5F5F5F5F5F5F5F5F5F5F5F5F5F5F5F5F5F5F5F5F5F5F5F5F5F5F5F5F5F5F5F5F5F5F5F5F5F5F5F5F5F5F5F5E2F5F5F5F5F5F5F5F5F5F5F5F5F5F5F5F5F5F5F5F5E2E2EFF5F5F5F5F5F5F5F5F5F5F5F5F5F5F5F5F5F5F5F5E2F5F5F5F5F5F5F5F5F5F5F5F5F5F5
310
F5F5F5F5F5F5F5F5F5F5F5F5F5F5F5F5F5F5F5F5F5F5F5F5F5F5F5F5F5F5F5F5F5F5F5F5F5F5F5F5F5F5F5F5F5F5F5F5F5F5F5F5F5F5F5F5F5F5F5F5F5F5F5F5F5F5F5F5F5F5F5F5F5F5F5F5F5F5F5F5F5F5F5F5F5F5F5F5F5F5F5F5F5F5F5F5F5F5F5F5F5F5F5F5F5F5F5F5F5F5F5F5F5F5F5F5F5F5F5F5F5E2F5F5F5F5F5
310
F5F5F5F5F5F5F5F5F5F5F5F5F5F5F5E2E2EFF5F5F5F5F5F5F5F5F5F5F5F5F5F5F5F5F5F5F5F5E2F5F5F5F5F5F5F5F5F5F5F5F5F5F5F5F5F5F5F5F5F5F5F5F5F5F5F5F5F5F5F5F5F5F5F5F5F5F5F5F5F5F5F5F5F5F5F5F5F5F5F5F5F5F5F5F5F5F5F5F5F5F5F5F5F5F5F5F5F5F5F5F5F5F5F5F5F5F5F5F5F5F5F5F5F5F5F5F5
310
F5F5F5F5F5F5F5F5F5F5F5F5F5F5F5F5F5F5F5F5F5F5F5F5F5F5F5F5F5F5F5F5F5F5F5F5F5F5F5F5F5F5F5F5F5F5F5E2F5F5F5F5F5F5F5F5F5F5F5F5F5F5F5F5F5F5F5F5E2E2EFF5F5F5E2F5F5F5F5F5F5F5F5F5F5F5F5F5F5F5F5E2F5F5F5F5F5F5F5F5F5F5F5F5F5F5F5F5F5F5F5F5F5F5F5F5F5F5F5F5F5F5F5F5F5F5F5
310
F5F5F5F5F5F5F5F5F5F5F5F5F5F5F5F5F5F5F5F5F5F5F5F5F5F5F5F5F5F5F5F5F5F5F5F5F5F5F5F5F5F5F5F5F5F5F5F5F5F5F5F5F5F5F5F5F5F5F5F5F5F5F5F5F5F5F5F5F5F5F5F5F5F5F5F5F5F5F5F5F5F5F5F5F5F5F5F5F5F5F5F5F5F5F5F5F5F5F5F5E2F5F5F5F5F5F5F5F5F5F5F5F5F5F5F5F5E2F5F5F5E2E2EFF5F5F5
310
E2F5F5F5F5F5F5F5F5F5F5F5F5F5F5F5F5E2F5F5F5F5F5F5F5F5F5F5F5F5F5F5F5F5F5F5F5F5F5F5F5F5F5F5F5F5F5F5F5F5F5F5F5F5F5F5F5F5F5F5F5F5F5F5F5F5F5F5F5F5F5F5F5F5F5F5F5F5F5F5F5F5F5F5F5F5F5F5F5F5F5F5F5F5F5F5F5F5F5F5F5F5F5F5F5F5F5F5F5F5F5F5F5F5F5F5F5F5F5F5F5F5F5F5F5F5F5
310
F5F5F5F5F5F5F5F5F5F5F5F5F5F5F5F5F5F5F5F5F5F5F5F5F5F5E2F5F5F5F5F5F5F5F5F5F5F5F5F5F5F5F5E2F5F5F5E2E2EFF5F5F5E2F5F5F5F5F5F5F5F5F5F5F5F5F5F5F5F5E2F5F5F5F5F5F5F5F5F5F5F5F5F5F5F5F5F5F5F5F5F5F5F5F5F5F5F5F5F5F5F5F5F5F5F5F5F5F5F5F5F5F5F5F5F5F5F5F5F5F5F5F5F5F5F5F5
310
F5F5F5F5F5F5F5F5F5F5F5F5F5F5F5F5F5F5F5F5F5F5F5F5F5F5F5F5F5F5F5F5F5F5F5F5F5F5F5F5F5F5F5F5F5F5F5F5F5F5F5F5F5F5F5F5F5F5F5F5F5F5F5F5F5F5F5F5F5F5F5F5F5F5F5F5F5F5F5E2F5F5F5F5F5F5F5F5F5F5F5F5F5F5F5F5E2F5F5F5E2E2EFF5F5F5E2F5F5F5F5F5F5F5F5F5F5F5F5F5F5F5F5E2F5F5F5
310
F5F5F5F5F5F5F5F5F5F5F5F5F5F5F5F5F5F5F5F5F5F5F5F5F5F5F5F5F5F5F5F5F5F5F5F5F5F5F5F5F5F5F5F5F5F5F5F5F5F5F5F5F5F5F5F5F5F5F5F5F5F5F5F5F5F5F5F5F5F5F5F5F5F5F5F5F5F5F5F5F5F5F5F5F5F5F5F5F5F5F5F5F5F5F5F5F5F5F5F5F5F5F5F5F5F5F5F5F5F5F5F5F5F5F5F5F5F5F5F5F5F5F5F5F5F5F5
310
F5F5F5F5F5E2F5F5F5F5F5F5F5F5F5F5F5F5F5F5F5F5E2F5F5F5E2E2EFF5F5F5E2F5F5F5F5F5F5F5F5F5F5F5F5F5F5F5F5E2F5F5F5F5F5F5F5F5F5F5F5F5F5F5F5F5F5F5F5F5F5F5F5F5F5F5F5F5F5F5F5F5F5F5F5F5F5F5F5F5F5F5F5F5F5F5F5F5F5F5F5F5F5F5F5F5F5F5F5F5F5F5F5F5F5F5F5F5F5F5F5F5F5F5F5F5F5
310
F5F5F5F5F5F5F5F5F5F5F5F5F5F5F5F5F5F5F5F5F5F5F5F5F5F5F5F5F5F5F5F5F5F5F5F5F5F5F5F5F5F5F5F5F5F5F5F5F5F5F5F5F5F5F5F5F5F5E2F5F5F5F5F5F5F5F5F5F5F5F5F5F5F5F5E2F5F5F5E2E2EFF5F5F5E2F5F5F5F5F5F5F5F5F5F5F5F5F5F5F5F5E2F5F5F5F5F5F5F5F5F5F5F5F5F5F5F5F5F5F5F5F5F5F5F5F5
310
F5F5F5F5F5F5F5F5F5F5F5F5F5F5F5F5F5F5F5F5F5F5F5F5F5F5F5F5F5F5F5F5F5F5F5F5F5F5F5F5F5F5F5F5F5F5F5F5F5F5F5F5F5F5F5F5F5F5F5F5F5F5F5F5F5F5F5F5F5F5F5F5F5F5F5F5F5F5F5F5F5F5F5F5F5F5F5F5F5F5F5F5F5F5F5F5F5F5F5F5F5F5F5F5F5F5F5F5F5F5F5E2F5F5F5F5F5F5F5F5F5F5F5F5F5F5F5
310
F5E2F5F5F5E2E2EFF5F5F5E2F5F5F5F5F5F5F5F5F5F5F5F5F5F5F5F5E2F5F5F5F5F5F5F5F5F5F5F5F5F5F5F5F5F5F5F5F5F5F5F5F5F5F5F5F5F5F5F5F5F5F5F5F5F5F5F5F5F5F5F5F5F5F5F5F5F5F5F5F5F5F5F5F5F5F5F5F5F5F5F5F5F5F5F5F5F5F5F5F5F5F5F5F5F5F5F5F5F5F5F5F5F5F5F5F5F5F5F5F5F5F5F5F5F5F5
310
F5F5F5F5F5F5F5F5F5F5F5F5F5F5F5F5F5F5F5F5F5F5F5F5F5F5F5F5F5F5F5F5F5F5F5F5F5E2F5F5F5F5F5F5F5F5F5F5F5F5F5F5F5F5E2F5F5F5E2E2EFF5F5F5E2F5F5F5F5F5F5F5F5F5F5F5F5F5F5F5F5E2F5F5F5F5F5F5F5F5F5F5F5F5F5F5F5F5F5F5F5F5F5F5F5F5F5F5F5F5F5F5F5F5F5F5F5F5F5F5F5F5F5F5F5F5F5
310
F5F5F5F5F5F5F5F5F5F5F5F5F5F5F5F5F5F5F5F5F5F5F5F5F5F5F5F5F5F5F5F5F5F5F5F5F5F5F5F5F5F5F5F5F5F5F5F5F5F5F5F5F5F5F5F5F5F5F5F5F5F5F5F5F5F5F5F5F5F5F5F5F5F5F5F5F5F5F5F5F5F5F5F5F5F5F5F5F5F5E2F5F5F5F5F5F5F5F5F5F5F5F5F5F5F5F5E2F5F5F5E2E2EFF5F5F5E2F5F5F5F5F5F5F5F5F5
310
F5F5F5F5F5F5F5E2F5F5F5F5F5F5F5F5F5F5F5F5F5F5F5F5F5F5F5F5F5F5F5F5F5F5F5F5F5F5F5F5F5F5F5F5F5F5F5F5F5F5F5F5F5F5F5F5F5F5F5F5F5F5F5F5F5F5F5F5F5F5F5F5F5F5F5F5F5F5F5F5F5F5F5F5F5F5F5F5F5F5F5F5F5F5F5F5F5F5F5F5F5F5F5F5F5F5F5F5F5F5F5F5F5F5F5F5F5F5F5F5F5F5F5F5F5F5F5
310
F5F5F5F5F5F5F5F5F5F5F5F5F5F5F5F5E2F5F5F5F5F5F5F5F5F5F5F5F5F5F5F5F5E2F5F5F5E2E2EFF5F5F5E2F5F5F5F5F5F5F5F5F5F5F5F5F5F5F5F5E2F5F5F5F5F5F5F5F5F5F5F5F5F5F5F5F5F5F5F5F5F5F5F5F5F5F5F5F5F5F5F5F5F5F5F5F5F5F5F5F5F5F5F5F5F5F5F5F5F5F5F5F5F5F5F5F5F5F5F5F5F5F5F5F5F5F5
310
F5F5F5F5F5F5F5F5F5F5F5F5F5F5F5F5F5F5F5F5F5F5F5F5F5F5F5F5F5F5F5F5F5F5F5F5F5F5F5F5F5F5F5F5F5F5F5F5F5F5F5F5F5F5F5F5F5F5F5F5F5F5F5F5F5F5F5F5F5E2F5F5F5F5F5F5F5F5F5F5F5F5F5F5F5F5E2F5F5F5E2E2EFF5F5F5E2F5F5F5F5F5F5F5F5F5F5F5F5F5F5F5F5E2F5F5F5F5F5F5F5F5F5F5F5F5F5
310
F5F5F5F5F5F5F5F5F5F5F5F5F5F5F5F5F5F5F5F5F5F5F5F5F5F5F5F5F5F5F5F5F5F5F5F5F5F5F5F5F5F5F5F5F5F5F5F5F5F5F5F5F5F5F5F5F5F5F5F5F5F5F5F5F5F5F5F5F5F5F5F5F5F5F5F5F5F5F5F5F5F5F5F5F5F5F5F5F5F5F5F5F5F5F5F5F5F5F5F5F5F5F5F5F5F5F5F5F5F5F5F5F5F5F5F5F5F5F5F5F5F5E2F5F5F5F5
310
F5F5F5F5F5F5F5F5F5F5F5F5E2F5F5F5E2E2EFF5F5F5E2F5F5F5F5F5F5F5F5F5F5F5F5F5F5F5F5E2F5F5F5F5F5F5F5F5F5F5F5F5F5F5F5F5F5F5F5F5F5F5F5F5F5F5F5F5F5F5F5F5F5F5F5F5F5F5F5F5F5F5F5F5F5F5F5F5F5F5F5F5F5F5F5F5F5F5F5F5F5F5F5F5F5F5F5F5F5F5F5F5F5F5F5F5F5F5F5F5F5F5F5F5F5F5F5
310
F5F5F5F5F5F5F5F5F5F5F5F5F5F5F5F5F5F5F5F5F5F5F5F5F5F5F5F5F5F5F5F5F5F5F5F5F5F5F5F5F5F5F5F5F5F5F5F5E2F5F5F5F5F5F5F5F5F5F5F5F5F5F5F5F5E2F5F5F5E2E2EFF5F5F5E2F5F5F5F5F5F5F5F5F5F5F5F5F5F5F5F5E2F5F5F5F5F5F5F5F5F5F5F5F5F5F5F5F5F5F5F5F5F5F5F5F5F5F5F5F5F5F5F5F5F5F5
310
F5F5F5F5F5F5F5F5F5F5F5F5F5F5F5F5F5F5F5F5F5F5F5F5F5F5F5F5F5F5F5F5F5F5F5F5F5F5F5F5F5F5F5F5F5F5F5F5F5F5F5F5F5F5F5F5F5F5F5F5F5F5F5F5F5F5F5F5F5F5F5F5F5F5F5F5F5F5F5F5F5F5F5F5F5F5F5F5F5F5F5F5F5F5F5F5F5F5F5F5F5E2F5F5F5F5F5F5F5F5F5F5F5F5F5F5F5F5E2F5F5F5E2E2EFF5F5
310
F5E2F5F5F5F5F5F5F5F5F5F5F5F5F5F5F5F5E2F5F5F5F5F5F5F5F5F5F5F5F5F5F5F5F5F5F5F5F5F5F5F5F5F5F5F5F5F5F5F5F5F5F5F5F5F5F5F5F5F5F5F5F5F5F5F5F5F5F5F5F5F5F5F5F5F5F5F5F5F5F5F5F5F5F5F5F5F5F5F5F5F5F5F5F5F5F5F5F5F5F5F5F5F5F5F5F5F5F5F5F5F5F5F5F5F5F5F5F5F5F5F5F5F5F5F5F5
310
F5F5F5F5F5F5F5F5F5F5F5F5F5F5F5F5F5F5F5F5F5F5F5F5F5F5F5E2F5F5F5F5F5F5F5F5F5F5F5F5F5F5F5F5E2F5F5F5E2E2EFF5F5F5E2F5F5F5F5F5F5F5F5F5F5F5F5F5F5F5F5E2F5F5F5F5F5F5F5F5F5F5F5F5F5F5F5F5F5F5F5F5F5F5F5F5F5F5F5F5F5F5F5F5F5F5F5F5F5F5F5F5F5F5F5F5F5F5F5F5F5F5F5F5F5F5F5
310
F5F5F5F5F5F5F5F5F5F5F5F5F5F5F5F5F5F5F5F5F5F5F5F5F5F5F5F5F5F5F5F5F5F5F5F5F5F5F5F5F5F5F5F5F5F5F5F5F5F5F5F5F5F5F5F5F5F5F5F5F5F5F5F5F5F5F5F5F5F5F5F5F5F5F5F5F5F5F5F5E2F5F5F5F5F5F5F5F5F5F5F5F5F5F5F5F5E2F5F5F5E2E2EFF5F5F5E2F5F5F5F5F5F5F5F5F5F5F5F5F5F5F5F5E2F5F5
310
F5F5F5F5F5F5F5F5F5F5F5F5F5F5F5F5F5F5F5F5F5F5F5F5F5F5F5F5F5F5F5F5F5F5F5F5F5F5F5F5F5F5F5F5F5F5F5F5F5F5F5F5F5F5F5F5F5F5F5F5F5F5F5F5F5F5F5F5F5F5F5F5F5F5F5F5F5F5F5F5F5F5F5F5F5F5F5F5F5F5F5F5F5F5F5F5F5F5F5F5F5F5F5F5F5F5F5F5F5F5F5F5F5F5F5F5F5F5F5F5F5F5F5F5F5F5F5
310
F5F5F5F5F5F5E2F5F5F5F5F5F5F5F5F5F5F5F5F5F5F5F5E2F5F5F5E2E2EFF5F5F5E2F5F5F5F5F5F5F5F5F5F5F5F5F5F5F5F5E2F5F5F5F5F5F5F5F5F5F5F5F5F5F5F5F5F5F5F5F5F5F5F5F5F5F5F5F5F5F5F5F5F5F5F5F5F5F5F5F5F5F5F5F5F5F5F5F5F5F5F5F5F5F5F5F5F5F5F5F5F5F5F5F5F5F5F5F5F5F5F5F5F5F5F5F5
310
F5F5F5F5F5F5F5F5F5F5F5F5F5F5F5F5F5F5F5F5F5F5F5F5F5F5F5F5F5F5F5F5F5F5F5F5F5F5F5F5F5F5F5F5F5F5F5F5F5F5F5F5F5F5F5F5F5F5F5E2F5F5F5F5F5F5F5F5F5F5F5F5F5F5F5F5E2F5F5F5E2E2EFF5F5F5F5F5F5F5F5F5F5F5F5F5F5F5F5F5F5F5F5E2F5F5F5F5F5F5F5F5F5F5F5F5F5F5F5F5F5F5F5F5F5F5F5
310
F5F5F5F5F5F5F5F5F5F5F5F5F5F5F5F5F5F5F5F5F5F5F5F5F5F5F5F5F5F5F5F5F5F5F5F5F5F5F5F5F5F5F5F5F5F5F5F5F5F5F5F5F5F5F5F5F5F5F5F5F5F5F5F5F5F5F5F5F5F5F5F5F5F5F5F5F5F5F5F5F5F5F5F5F5F5F5F5F5F5F5F5F5F5F5F5F5F5F5F5F5F5F5F5F5F5F5F5F5F5F5F5E2F5F5F5F5F5F5F5F5F5F5F5F5F5F5
310
F5F5F5F5F5F5E2E2EFF5F5F5F5F5F5F5F5F5F5F5F5F5F5F5F5F5F5F5F5E2F5F5F5F5F5F5F5F5F5F5F5F5F5F5F5F5F5F5F5F5F5F5F5F5F5F5F5F5F5F5F5F5F5F5F5F5F5F5F5F5F5F5F5F5F5F5F5F5F5F5F5F5F5F5F5F5F5F5F5F5F5F5F5F5F5F5F5F5F5F5F5F5F5F5F5F5F5F5F5F5F5F5F5F5F5F5F5F5F5F5F5F5F5F5F5F5F5
310
F5F5F5F5F5F5F5F5F5F5F5F5F5F5F5F5F5F5F5F5F5F5F5F5F5F5F5F5F5F5F5F5F5F5F5F5F5F5E2F5F5F5F5F5F5F5F5F5F5F5F5F5F5F5F5F5F5F5F5E2E2EFF5F5F5F5F5F5F5F5F5F5F5F5F5F5F5F5F5F5F5F5E2F5F5F5F5F5F5F5F5F5F5F5F5F5F5F5F5F5F5F5F5F5F5F5F5F5F5F5F5F5F5F5F5F5F5F5F5F5F5F5F5F5F5F5F5
310
F5F5F5F5F5F5F5F5F5F5F5F5F5F5F5F5F5F5F5F5F5F5F5F5F5F5F5F5F5F5F5F5F5F5F5F5F5F5F5F5F5F5F5F5F5F5F5F5F5F5F5F5F5F5F5F5F5F5F5F5F5F5F5F5F5F5F5F5F5F5F5F5F5F5F5F5F5F5F5F5F5F5F5F5F5F5F5F5F5F5F5E2F5F5F5F5F5F5F5F5F5F5F5F5F5F5F5F5F5F5F5F5E2E2EFF5F5F5F5F5F5F5F5F5F5F5F5
310
F5F5F5F5F5F5F5F5E2F5F5F5F5F5F5F5F5F5F5F5F5F5F5F5F5F5F5F5F5F5F5F5F5F5F5F5F5F5F5F5F5F5F5F5F5F5F5F5F5F5F5F5F5F5F5F5F5F5F5F5F5F5F5F5F5F5F5F5F5F5F5F5F5F5F5F5F5F5F5F5F5F5F5F5F5F5F5F5F5F5F5F5F5F5F5F5F5F5F5F5F5F5F5F5F5F5F5F5F5F5F5F5F5F5F5F5F5F5F5F5F5F5F5F5F5F5F5
310
F5F5F5F5F5F5F5F5F5F5F5F5F5F5F5F5F5E2F5F5F5F5F5F5F5F5F5F5F5F5F5F5F5F5F5F5F5F5E2E2EFF5F5F5F5F5F5F5F5F5F5F5F5F5F5F5F5F5F5F5F5E2F5F5F5F5F5F5F5F5F5F5F5F5F5F5F5F5F5F5F5F5F5F5F5F5F5F5F5F5F5F5F5F5F5F5F5F5F5F5F5F5F5F5F5F5F5F5F5F5F5F5F5F5F5F5F5F5F5F5F5F5F5F5F5F5F5
310
F5F5F5F5F5F5F5F5F5F5F5F5F5F5F5F5F5F5F5F5F5F5F5F5F5F5F5F5F5F5F5F5F5F5F5F5F5F5F5F5F5F5F5F5F5F5F5F5F5F5F5F5F5F5F5F5F5F5F5F5F5F5F5F5F5F5F5F5F5F5E2F5F5F5F5F5F5F5F5F5F5F5F5F5F5F5F5F5F5F5F5E2E2EFF5F5F5F5F5F5F5F5F5F5F5F5F5F5F5F5F5F5F5F5E2F5F5F5F5F5F5F5F5F5F5F5F5
310
F5F5F5F5F5F5F5F5F5F5F5F5F5F5F5F5F5F5F5F5F5F5F5F5F5F5F5F5F5F5F5F5F5F5F5F5F5F5F5F5F5F5F5F5F5F5F5F5F5F5F5F5F5F5F5F5F5F5F5F5F5F5F5F5F5F5F5F5F5F5F5F5F5F5F5F5F5F5F5F5F5F5F5F5F5F5F5F5F5F5F5F5F5F5F5F5F5F5F5F5F5F5F5F5F5F5F5F5F5F5F5F5F5F5F5F5F5F5F5F5F5F5F5E2F5F5F5
310
F5F5F5F5F5F5F5F5F5F5F5F5F5F5F5F5F5E2E2EFF5F5F5F5F5F5F5F5F5F5F5F5F5F5F5F5F5F5F5F5E2F5F5F5F5F5F5F5F5F5F5F5F5F5F5F5F5F5F5F5F5F5F5F5F5F5F5F5F5F5F5F5F5F5F5F5F5F5F5F5F5F5F5F5F5F5F5F5F5F5F5F5F5F5F5F5F5F5F5F5F5F5F5F5F5F5F5F5F5F5F5F5F5F5F5F5F5F5F5F5F5F5F5F5F5F5F5
310
F5F5F5F5F5F5F5F5F5F5F5F5F5F5F5F5F5F5F5F5F5F5F5F5F5F5F5F5F5F5F5F5F5F5F5F5F5F5F5F5F5F5F5F5F5F5F5F5F5E2F5F5F5F5F5F5F5F5F5F5F5F5F5F5F5F5F5F5F5F5E2E2EFF5F5F5F5F5F5F5F5F5F5F5F5F5F5F5F5F5F5F5F5E2F5F5F5F5F5F5F5F5F5F5F5F5F5F5F5F5F5F5F5F5F5F5F5F5F5F5F5F5F5F5F5F5F5
310
F5F5F5F5F5F5F5F5F5F5F5F5F5F5F5F5F5F5F5F5F5F5F5F5F5F5F5F5F5F5F5F5F5F5F5F5F5F5F5F5F5F5F5F5F5F5F5F5F5F5F5F5F5F5F5F5F5F5F5F5F5F5F5F5F5F5F5F5F5F5F5F5F5F5F5F5F5F5F5F5F5F5F5F5F5F5F5F5F5F5F5F5F5F5F5F5F5F5F5F5F5F5E2F5F5F5F5F5F5F5F5F5F5F5F5F5F5F5F5F5F5F5F5E2E2EFF5
310
F5F5F5F5F5F5F5F5F5F5F5F5F5F5F5F5F5F5F5E2F5F5F5F5F5F5F5F5F5F5F5F5F5F5F5F5F5F5F5F5F5F5F5F5F5F5F5F5F5F5F5F5F5F5F5F5F5F5F5F5F5F5F5F5F5F5F5F5F5F5F5F5F5F5F5F5F5F5F5F5F5F5F5F5F5F5F5F5F5F5F5F5F5F5F5F5F5F5F5F5F5F5F5F5F5F5F5F5F5F5F5F5F5F5F5F5F5F5F5F5F5F5F5F5F5F5F5
310
F5F5F5F5F5F5F5F5F5F5F5F5F5F5F5F5F5F5F5F5F5F5F5F5F5F5F5F5E2F5F5F5F5F5F5F5F5F5F5F5F5F5F5F5F5F5F5F5F5E2E2EFF5F5F5E2F5F5F5F5F5F5F5F5F5F5F5F5F5F5F5F5E2F5F5F5F5F5F5F5F5F5F5F5F5F5F5F5F5F5F5F5F5F5F5F5F5F5F5F5F5F5F5F5F5F5F5F5F5F5F5F5F5F5F5F5F5F5F5F5F5F5F5F5F5F5F5
310
F5F5F5F5F5F5F5F5F5F5F5F5F5F5F5F5F5F5F5F5F5F5F5F5F5F5F5F5F5F5F5F5F5F5F5F5F5F5F5F5F5F5F5F5F5F5F5F5F5F5F5F5F5F5F5F5F5F5F5F5F5F5F5F5F5F5F5F5F5F5F5F5F5F5F5F5F5F5F5F5F5E2F5F5F5F5F5F5F5F5F5F5F5F5F5F5F5F5E2F5F5F5E2E2EFF5F5F5E2F5F5F5F5F5F5F5F5F5F5F5F5F5F5F5F5E2F5
310
F5F5F5F5F5F5F5F5F5F5F5F5F5F5F5F5F5F5F5F5F5F5F5F5F5F5F5F5F5F5F5F5F5F5F5F5F5F5F5F5F5F5F5F5F5F5F5F5F5F5F5F5F5F5F5F5F5F5F5F5F5F5F5F5F5F5F5F5F5F5F5F5F5F5F5F5F5F5F5F5F5F5F5F5F5F5F5F5F5F5F5F5F5F5F5F5F5F5F5F5F5F5F5F5F5F5F5F5F5F5F5F5F5F5F5F5F5F5F5F5F5F5F5F5F5F5F5
310
F5F5F5F5F5F5F5E2F5F5F5F5F5F5F5F5F5F5F5F5F5F5F5F5E2F5F5F5E2E2EFF5F5F5E2F5F5F5F5F5F5F5F5F5F5F5F5F5F5F5F5E2F5F5F5F5F5F5F5F5F5F5F5F5F5F5F5F5F5F5F5F5F5F5F5F5F5F5F5F5F5F5F5F5F5F5F5F5F5F5F5F5F5F5F5F5F5F5F5F5F5F5F5F5F5F5F5F5F5F5F5F5F5F5F5F5F5F5F5F5F5F5F5F5F5F5F5
310
F5F5F5F5F5F5F5F5F5F5F5F5F5F5F5F5F5F5F5F5F5F5F5F5F5F5F5F5F5F5F5F5F5F5F5F5F5F5F5F5F5F5F5F5F5F5F5F5F5F5F5F5F5F5F5F5F5F5F5F5E2F5F5F5F5F5F5F5F5F5F5F5F5F5F5F5F5E2F5F5F5E2E2EFF5F5F5E2F5F5F5F5F5F5F5F5F5F5F5F5F5F5F5F5E2F5F5F5F5F5F5F5F5F5F5F5F5F5F5F5F5F5F5F5F5F5F5
310
F5F5F5F5F5F5F5F5F5F5F5F5F5F5F5F5F5F5F5F5F5F5F5F5F5F5F5F5F5F5F5F5F5F5F5F5F5F5F5F5F5F5F5F5F5F5F5F5F5F5F5F5F5F5F5F5F5F5F5F5F5F5F5F5F5F5F5F5F5F5F5F5F5F5F5F5F5F5F5F5F5F5F5F5F5F5F5F5F5F5F5F5F5F5F5F5F5F5F5F5F5F5F5F5F5F5F5F5F5F5F5F5F5E2F5F5F5F5F5F5F5F5F5F5F5F5F5
310
F5F5F5E2F5F5F5E2E2EFF5F5F5E2F5F5F5F5F5F5F5F5F5F5F5F5F5F5F5F5E2F5F5F5F5F5F5F5F5F5F5F5F5F5F5F5F5F5F5F5F5F5F5F5F5F5F5F5F5F5F5F5F5F5F5F5F5F5F5F5F5F5F5F5F5F5F5F5F5F5F5F5F5F5F5F5F5F5F5F5F5F5F5F5F5F5F5F5F5F5F5F5F5F5F5F5F5F5F5F5F5F5F5F5F5F5F5F5F5F5F5F5F5F5F5F5F5
310
F5F5F5F5F5F5F5F5F5F5F5F5F5F5F5F5F5F5F5F5F5F5F5F5F5F5F5F5F5F5F5F5F5F5F5F5F5F5F5E2F5F5F5F5F5F5F5F5F5F5F5F5F5F5F5F5E2F5F5F5E2E2EFF5F5F5E2F5F5F5F5F5F5F5F5F5F5F5F5F5F5F5F5E2F5F5F5F5F5F5F5F5F5F5F5F5F5F5F5F5F5F5F5F5F5F5F5F5F5F5F5F5F5F5F5F5F5F5F5F5F5F5F5F5F5F5F5
310
F5F5F5F5F5F5F5F5F5F5F5F5F5F5F5F5F5F5F5F5F5F5F5F5F5F5F5F5F5F5F5F5F5F5F5F5F5F5F5F5F5F5F5F5F5F5F5F5F5F5F5F5F5F5F5F5F5F5F5F5F5F5F5F5F5F5F5F5F5F5F5F5F5F5F5F5F5F5F5F5F5F5F5F5F5F5F5F5F5F5F5F5E2F5F5F5F5F5F5F5F5F5F5F5F5F5F5F5F5E2F5F5F5E2E2EFF5F5F5E2F5F5F5F5F5F5F5
310
F5F5F5F5F5F5F5F5F5E2F5F5F5F5F5F5F5F5F5F5F5F5F5F5F5F5F5F5F5F5F5F5F5F5F5F5F5F5F5F5F5F5F5F5F5F5F5F5F5F5F5F5F5F5F5F5F5F5F5F5F5F5F5F5F5F5F5F5F5F5F5F5F5F5F5F5F5F5F5F5F5F5F5F5F5F5F5F5F5F5F5F5F5F5F5F5F5F5F5F5F5F5F5F5F5F5F5F5F5F5F5F5F5F5F5F5F5F5F5F5F5F5F5F5F5F5F5
310
F5F5F5F5F5F5F5F5F5F5F5F5F5F5F5F5F5F5E2F5F5F5F5F5F5F5F5F5F5F5F5F5F5F5F5E2F5F5F5E2E2EFF5F5F5E2F5F5F5F5F5F5F5F5F5F5F5F5F5F5F5F5E2F5F5F5F5F5F5F5F5F5F5F5F5F5F5F5F5F5F5F5F5F5F5F5F5F5F5F5F5F5F5F5F5F5F5F5F5F5F5F5F5F5F5F5F5F5F5F5F5F5F5F5F5F5F5F5F5F5F5F5F5F5F5F5F5
310
F5F5F5F5F5F5F5F5F5F5F5F5F5F5F5F5F5F5F5F5F5F5F5F5F5F5F5F5F5F5F5F5F5F5F5F5F5F5F5F5F5F5F5F5F5F5F5F5F5F5F5F5F5F5F5F5F5F5F5F5F5F5F5F5F5F5F5F5F5F5F5E2F5F5F5F5F5F5F5F5F5F5F5F5F5F5F5F5E2F5F5F5E2E2EFF5F5F5E2F5F5F5F5F5F5F5F5F5F5F5F5F5F5F5F5E2F5F5F5F5F5F5F5F5F5F5F5
310
F5F5F5F5F5F5F5F5F5F5F5F5F5F5F5F5F5F5F5F5F5F5F5F5F5F5F5F5F5F5F5F5F5F5F5F5F5F5F5F5F5F5F5F5F5F5F5F5F5F5F5F5F5F5F5F5F5F5F5F5F5F5F5F5F5F5F5F5F5F5F5F5F5F5F5F5F5F5F5F5F5F5F5F5F5F5F5F5F5F5F5F5F5F5F5F5F5F5F5F5F5F5F5F5F5F5F5F5F5F5F5F5F5F5F5F5F5F5F5F5F5F5F5F5E2F5F5
310
F5F5F5F5F5F5F5F5F5F5F5F5F5F5E2F5F5F5E2E2EFF5F5F5E2F5F5F5F5F5F5F5F5F5F5F5F5F5F5F5F5E2F5F5F5F5F5F5F5F5F5F5F5F5F5F5F5F5F5F5F5F5F5F5F5F5F5F5F5F5F5F5F5F5F5F5F5F5F5F5F5F5F5F5F5F5F5F5F5F5F5F5F5F5F5F5F5F5F5F5F5F5F5F5F5F5F5F5F5F5F5F5F5F5F5F5F5F5F5F5F5F5F5F5F5F5F5
310
F5F5F5F5F5F5F5F5F5F5F5F5F5F5F5F5F5F5F5F5F5F5F5F5F5F5F5F5F5F5F5F5F5F5F5F5F5F5F5F5F5F5F5F5F5F5F5F5F5F5E2F5F5F5F5F5F5F5F5F5F5F5F5F5F5F5F5E2F5F5F5E2E2EFF5F5F5E2F5F5F5F5F5F5F5F5F5F5F5F5F5F5F5F5E2F5F5F5F5F5F5F5F5F5F5F5F5F5F5F5F5F5F5F5F5F5F5F5F5F5F5F5F5F5F5F5F5
310
F5F5F5F5F5F5F5F5F5F5F5F5F5F5F5F5F5F5F5F5F5F5F5F5F5F5F5F5F5F5F5F5F5F5F5F5F5F5F5F5F5F5F5F5F5F5F5F5F5F5F5F5F5F5F5F5F5F5F5F5F5F5F5F5F5F5F5F5F5F5F5F5F5F5F5F5F5F5F5F5F5F5F5F5F5F5F5F5F5F5F5F5F5F5F5F5F5F5F5F5F5F5F5E2F5F5F5F5F5F5F5F5F5F5F5F5F5F5F5F5E2F5F5F5E2E2EF
310
F5F5F5E2F5F5F5F5F5F5F5F5F5F5F5F5F5F5F5F5E2F5F5F5F5F5F5F5F5F5F5F5F5F5F5F5F5F5F5F5F5F5F5F5F5F5F5F5F5F5F5F5F5F5F5F5F5F5F5F5F5F5F5F5F5F5F5F5F5F5F5F5F5F5F5F5F5F5F5F5F5F5F5F5F5F5F5F5F5F5F5F5F5F5F5F5F5F5F5F5F5F5F5F5F5F5F5F5F5F5F5F5F5F5F5F5F5F5F5F5F5F5F5F5F5F5F5
310
F5F5F5F5F5F5F5F5F5F5F5F5F5F5F5F5F5F5F5F5F5F5F5F5F5F5F5F5F5E2F5F5F5F5F5F5F5F5F5F5F5F5F5F5F5F5E2F5F5F5E2E2EFF5F5F5E2F5F5F5F5F5F5F5F5F5F5F5F5F5F5F5F5E2F5F5F5F5F5F5F5F5F5F5F5F5F5F5F5F5F5F5F5F5F5F5F5F5F5F5F5F5F5F5F5F5F5F5F5F5F5F5F5F5F5F5F5F5F5F5F5F5F5F5F5F5F5
310
F5F5F5F5F5F5F5F5F5F5F5F5F5F5F5F5F5F5F5F5F5F5F5F5F5F5F5F5F5F5F5F5F5F5F5F5F5F5F5F5F5F5F5F5F5F5F5F5F5F5F5F5F5F5F5F5F5F5F5F5F5F5F5F5F5F5F5F5F5F5F5F5F5F5F5F5F5F5F5F5F5F5E2F5F5F5F5F5F5F5F5F5F5F5F5F5F5F5F5E2F5F5F5E2E2EFF5F5F5E2F5F5F5F5F5F5F5F5F5F5F5F5F5F5F5F5E2
310
F5F5F5F5F5F5F5F5F5F5F5F5F5F5F5F5F5F5F5F5F5F5F5F5F5F5F5F5F5F5F5F5F5F5F5F5F5F5F5F5F5F5F5F5F5F5F5F5F5F5F5F5F5F5F5F5F5F5F5F5F5F5F5F5F5F5F5F5F5F5F5F5F5F5F5F5F5F5F5F5F5F5F5F5F5F5F5F5F5F5F5F5F5F5F5F5F5F5F5F5F5F5F5F5F5F5F5F5F5F5F5F5F5F5F5F5F5F5F5F5F5F5F5F5F5F5F5
310
F5F5F5F5F5F5F5F5E2F5F5F5F5F5F5F5F5F5F5F5F5F5F5F5F5E2F5F5F5E2E2EFF5F5F5E2F5F5F5F5F5F5F5F5F5F5F5F5F5F5F5F5E2F5F5F5F5F5F5F5F5F5F5F5F5F5F5F5F5F5F5F5F5F5F5F5F5F5F5F5F5F5F5F5F5F5F5F5F5F5F5F5F5F5F5F5F5F5F5F5F5F5F5F5F5F5F5F5F5F5F5F5F5F5F5F5F5F5F5F5F5F5F5F5F5F5F5
310
F5F5F5F5F5F5F5F5F5F5F5F5F5F5F5F5F5F5F5F5F5F5F5F5F5F5F5F5F5F5F5F5F5F5F5F5F5F5F5F5F5F5F5F5F5F5F5F5F5F5F5F5F5F5F5F5F5F5F5F5F5E2F5F5F5F5F5F5F5F5F5F5F5F5F5F5F5F5E2F5F5F5E2E2EFF5F5F5E2F5F5F5F5F5F5F5F5F5F5F5F5F5F5F5F5E2F5F5F5F5F5F5F5F5F5F5F5F5F5F5F5F5F5F5F5F5F5
310
F5F5F5F5F5F5F5F5F5F5F5F5F5F5F5F5F5F5F5F5F5F5F5F5F5F5F5F5F5F5F5F5F5F5F5F5F5F5F5F5F5F5F5F5F5F5F5F5F5F5F5F5F5F5F5F5F5F5F5F5F5F5F5F5F5F5F5F5F5F5F5F5F5F5F5F5F5F5F5F5F5F5F5F5F5F5F5F5F5F5F5F5F5F5F5F5F5F5F5F5F5F5F5F5F5F5F5F5F5F5F5F5F5F5E2F5F5F5F5F5F5F5F5F5F5F5F5
310
F5F5F5F5E2F5F5F5E2E2EFF5F5F5E2F5F5F5F5F5F5F5F5F5F5F5F5F5F5F5F5E2F5F5F5F5F5F5F5F5F5F5F5F5F5F5F5F5F5F5F5F5F5F5F5F5F5F5F5F5F5F5F5F5F5F5F5F5F5F5F5F5F5F5F5F5F5F5F5F5F5F5F5F5F5F5F5F5F5F5F5F5F5F5F5F5F5F5F5F5F5F5F5F5F5F5F5F5F5F5F5F5F5F5F5F5F5F5F5F5F5F5F5F5F5F5F5
310
F5F5F5F5F5F5F5F5F5F5F5F5F5F5F5F5F5F5F5F5F5F5F5F5F5F5F5F5F5F5F5F5F5F5F5F5F5F5F5F5E2F5F5F5F5F5F5F5F5F5F5F5F5F5F5F5F5E2F5F5F5E2E2EFF5F5F5F5F5F5F5F5F5F5F5F5F5F5F5F5F5F5F5F5E2F5F5F5F5F5F5F5F5F5F5F5F5F5F5F5F5F5F5F5F5F5F5F5F5F5F5F5F5F5F5F5F5F5F5F5F5F5F5F5F5F5F5
310
F5F5F5F5F5F5F5F5F5F5F5F5F5F5F5F5F5F5F5F5F5F5F5F5F5F5F5F5F5F5F5F5F5F5F5F5F5F5F5F5F5F5F5F5F5F5F5F5F5F5F5F5F5F5F5F5F5F5F5F5F5F5F5F5F5F5F5F5F5F5F5F5F5F5F5F5F5F5F5F5F5F5F5F5F5F5F5F5F5F5F5F5F5E2F5F5F5F5F5F5F5F5F5F5F5F5F5F5F5F5F5F5F5F5E2E2EFF5F5F5F5F5F5F5F5F5F5
310
F5F5F5F5F5F5F5F5F5F5E2F5F5F5F5F5F5F5F5F5F5F5F5F5F5F5F5F5F5F5F5F5F5F5F5F5F5F5F5F5F5F5F5F5F5F5F5F5F5F5F5F5F5F5F5F5F5F5F5F5F5F5F5F5F5F5F5F5F5F5F5F5F5F5F5F5F5F5F5F5F5F5F5F5F5F5F5F5F5F5F5F5F5F5F5F5F5F5F5F5F5F5F5F5F5F5F5F5F5F5F5F5F5F5F5F5F5F5F5F5F5F5F5F5F5F5F5
310
F5F5F5F5F5F5F5F5F5F5F5F5F5F5F5F5F5F5F5E2F5F5F5F5F5F5F5F5F5F5F5F5F5F5F5F5F5F5F5F5E2E2EFF5F5F5F5F5F5F5F5F5F5F5F5F5F5F5F5F5F5F5F5E2F5F5F5F5F5F5F5F5F5F5F5F5F5F5F5F5F5F5F5F5F5F5F5F5F5F5F5F5F5F5F5F5F5F5F5F5F5F5F5F5F5F5F5F5F5F5F5F5F5F5F5F5F5F5F5F5F5F5F5F5F5F5F5
310
F5F5F5F5F5F5F5F5F5F5F5F5F5F5F5F5F5F5F5F5F5F5F5F5F5F5F5F5F5F5F5F5F5F5F5F5F5F5F5F5F5F5F5F5F5F5F5F5F5F5F5F5F5F5F5F5F5F5F5F5F5F5F5F5F5F5F5F5F5F5F5F5E2F5F5F5F5F5F5F5F5F5F5F5F5F5F5F5F5F5F5F5F5E2E2EFF5F5F5F5F5F5F5F5F5F5F5F5F5F5F5F5F5F5F5F5E2F5F5F5F5F5F5F5F5F5F5
310
F5F5F5F5F5F5F5F5F5F5F5F5F5F5F5F5F5F5F5F5F5F5F5F5F5F5F5F5F5F5F5F5F5F5F5F5F5F5F5F5F5F5F5F5F5F5F5F5F5F5F5F5F5F5F5F5F5F5F5F5F5F5F5F5F5F5F5F5F5F5F5F5F5F5F5F5F5F5F5F5F5F5F5F5F5F5F5F5F5F5F5F5F5F5F5F5F5F5F5F5F5F5F5F5F5F5F5F5F5F5F5F5F5F5F5F5F5F5F5F5F5F5F5F5F5E2F5
310
F5F5F5F5F5F5F5F5F5F5F5F5F5F5F5F5F5F5F5E2E2EFF5F5F5F5F5F5F5F5F5F5F5F5F5F5F5F5F5F5F5F5E2F5F5F5F5F5F5F5F5F5F5F5F5F5F5F5F5F5F5F5F5F5F5F5F5F5F5F5F5F5F5F5F5F5F5F5F5F5F5F5F5F5F5F5F5F5F5F5F5F5F5F5F5F5F5F5F5F5F5F5F5F5F5F5F5F5F5F5F5F5F5F5F5F5F5F5F5F5F5F5F5F5F5F5F5
310
F5F5F5F5F5F5F5F5F5F5F5F5F5F5F5F5F5F5F5F5F5F5F5F5F5F5F5F5F5F5F5F5F5F5F5F5F5F5F5F5F5F5F5F5F5F5F5F5F5F5F5E2F5F5F5F5F5F5F5F5F5F5F5F5F5F5F5F5F5F5F5F5E2E2EFF5F5F5F5F5F5F5F5F5F5F5F5F5F5F5F5F5F5F5F5E2F5F5F5F5F5F5F5F5F5F5F5F5F5F5F5F5F5F5F5F5F5F5F5F5F5F5F5F5F5F5F5
310
F5F5F5F5F5F5F5F5F5F5F5F5F5F5F5F5F5F5F5F5F5F5F5F5F5F5F5F5F5F5F5F5F5F5F5F5F5F5F5F5F5F5F5F5F5F5F5F5F5F5F5F5F5F5F5F5F5F5F5F5F5F5F5F5F5F5F5F5F5F5F5F5F5F5F5F5F5F5F5F5F5F5F5F5F5F5F5F5F5F5F5F5F5F5F5F5F5F5F5F5F5F5F5F5E2F5F5F5F5F5F5F5F5F5F5F5F5F5F5F5F5F5F5F5F5E2E2
310
EFF5F5F5F5F5F5F5F5F5F5F5F5F5F5F5F5F5F5F5F5E2F5F5F5F5F5F5F5F5F5F5F5F5F5F5F5F5F5F5F5F5F5F5F5F5F5F5F5F5F5F5F5F5F5F5F5F5F5F5F5F5F5F5F5F5F5F5F5F5F5F5F5F5F5F5F5F5F5F5F5F5F5F5F5F5F5F5F5F5F5F5F5F5F5F5F5F5F5F5F5F5F5F5F5F5F5F5F5F5F5F5F5F5F5F5F5F5F5F5F5F5F5F5F5F5F5
310
F5F5F5F5F5F5F5F5F5F5F5F5F5F5F5F5F5F5F5F5F5F5F5F5F5F5F5F5F5F5E2F5F5F5F5F5F5F5F5F5F5F5F5F5F5F5F5F5F5F5F5E2E2EFF5F5F5F5F5F5F5F5F5F5F5F5F5F5F5F5F5F5F5F5E2F5F5F5F5F5F5F5F5F5F5F5F5F5F5F5F5F5F5F5F5F5F5F5F5F5F5F5F5F5F5F5F5F5F5F5F5F5F5F5F5F5F5F5F5F5F5F5F5F5F5F5F5
310
F5F5F5F5F5F5F5F5F5F5F5F5F5F5F5F5F5F5F5F5F5F5F5F5F5F5F5F5F5F5F5F5F5F5F5F5F5F5F5F5F5F5F5F5F5F5F5F5F5F5F5F5F5F5F5F5F5F5F5F5F5F5F5F5F5F5F5F5F5F5F5F5F5F5F5F5F5F5F5F5F5F5F5E2F5F5F5F5F5F5F5F5F5F5F5F5F5F5F5F5F5F5F5F5E2E2EFF5F5F5F5F5F5F5F5F5F5F5F5F5F5F5F5F5F5F5F5
310
E2F5F5F5F5F5F5F5F5F5F5F5F5F5F5F5F5F5F5F5F5F5F5F5F5F5F5F5F5F5F5F5F5F5F5F5F5F5F5F5F5F5F5F5F5F5F5F5F5F5F5F5F5F5F5F5F5F5F5F5F5F5F5F5F5F5F5F5F5F5F5F5F5F5F5F5F5F5F5F5F5F5F5F5F5F5F5F5F5F5F5F5F5F5F5F5F5F5F5F5F5F5F5F5F5F5F5F5F5F5F5F5F5F5F5F5F5F5F5F5F5F5F5F5F5F5F5
310
F5F5F5F5F5F5F5F5F5E2F5F5F5F5F5F5F5F5F5F5F5F5F5F5F5F5F5F5F5F5E2E2EFF5F5F5E2F5F5F5F5F5F5F5F5F5F5F5F5F5F5F5F5E2F5F5F5F5F5F5F5F5F5F5F5F5F5F5F5F5F5F5F5F5F5F5F5F5F5F5F5F5F5F5F5F5F5F5F5F5F5F5F5F5F5F5F5F5F5F5F5F5F5F5F5F5F5F5F5F5F5F5F5F5F5F5F5F5F5F5F5F5F5F5F5F5F5
310
F5F5F5F5F5F5F5F5F5F5F5F5F5F5F5F5F5F5F5F5F5F5F5F5F5F5F5F5F5F5F5F5F5F5F5F5F5F5F5F5F5F5F5F5F5F5F5F5F5F5F5F5F5F5F5F5F5F5F5F5F5F5E2F5F5F5F5F5F5F5F5F5F5F5F5F5F5F5F5E2F5F5F5E2E2EFF5F5F5E2F5F5F5F5F5F5F5F5F5F5F5F5F5F5F5F5E2F5F5F5F5F5F5F5F5F5F5F5F5F5F5F5F5F5F5F5F5
310
F5F5F5F5F5F5F5F5F5F5F5F5F5F5F5F5F5F5F5F5F5F5F5F5F5F5F5F5F5F5F5F5F5F5F5F5F5F5F5F5F5F5F5F5F5F5F5F5F5F5F5F5F5F5F5F5F5F5F5F5F5F5F5F5F5F5F5F5F5F5F5F5F5F5F5F5F5F5F5F5F5F5F5F5F5F5F5F5F5F5F5F5F5F5F5F5F5F5F5F5F5F5F5F5F5F5F5F5F5F5F5F5F5F5F5E2F5F5F5F5F5F5F5F5F5F5F5
310
F5F5F5F5F5E2F5F5F5E2E2EFF5F5F5E2F5F5F5F5F5F5F5F5F5F5F5F5F5F5F5F5E2F5F5F5F5F5F5F5F5F5F5F5F5F5F5F5F5F5F5F5F5F5F5F5F5F5F5F5F5F5F5F5F5F5F5F5F5F5F5F5F5F5F5F5F5F5F5F5F5F5F5F5F5F5F5F5F5F5F5F5F5F5F5F5F5F5F5F5F5F5F5F5F5F5F5F5F5F5F5F5F5F5F5F5F5F5F5F5F5F5F5F5F5F5F5
310
F5F5F5F5F5F5F5F5F5F5F5F5F5F5F5F5F5F5F5F5F5F5F5F5F5F5F5F5F5F5F5F5F5F5F5F5F5F5F5F5F5E2F5F5F5F5F5F5F5F5F5F5F5F5F5F5F5F5E2F5F5F5E2E2EFF5F5F5E2F5F5F5F5F5F5F5F5F5F5F5F5F5F5F5F5E2F5F5F5F5F5F5F5F5F5F5F5F5F5F5F5F5F5F5F5F5F5F5F5F5F5F5F5F5F5F5F5F5F5F5F5F5F5F5F5F5F5
310
F5F5F5F5F5F5F5F5F5F5F5F5F5F5F5F5F5F5F5F5F5F5F5F5F5F5F5F5F5F5F5F5F5F5F5F5F5F5F5F5F5F5F5F5F5F5F5F5F5F5F5F5F5F5F5F5F5F5F5F5F5F5F5F5F5F5F5F5F5F5F5F5F5F5F5F5F5F5F5F5F5F5F5F5F5F5F5F5F5F5F5F5F5F5E2F5F5F5F5F5F5F5F5F5F5F5F5F5F5F5F5E2F5F5F5E2E2EFF5F5F5E2F5F5F5F5F5
310
F5F5F5F5F5F5F5F5F5F5F5E2F5F5F5F5F5F5F5F5F5F5F5F5F5F5F5F5F5F5F5F5F5F5F5F5F5F5F5F5F5F5F5F5F5F5F5F5F5F5F5F5F5F5F5F5F5F5F5F5F5F5F5F5F5F5F5F5F5F5F5F5F5F5F5F5F5F5F5F5F5F5F5F5F5F5F5F5F5F5F5F5F5F5F5F5F5F5F5F5F5F5F5F5F5F5F5F5F5F5F5F5F5F5F5F5F5F5F5F5F5F5F5F5F5F5F5
310
F5F5F5F5F5F5F5F5F5F5F5F5F5F5F5F5F5F5F5F5E2F5F5F5F5F5F5F5F5F5F5F5F5F5F5F5F5E2F5F5F5E2E2EFF5F5F5E2F5F5F5F5F5F5F5F5F5F5F5F5F5F5F5F5E2F5F5F5F5F5F5F5F5F5F5F5F5F5F5F5F5F5F5F5F5F5F5F5F5F5F5F5F5F5F5F5F5F5F5F5F5F5F5F5F5F5F5F5F5F5F5F5F5F5F5F5F5F5F5F5F5F5F5F5F5F5F5
310
F5F5F5F5F5F5F5F5F5F5F5F5F5F5F5F5F5F5F5F5F5F5F5F5F5F5F5F5F5F5F5F5F5F5F5F5F5F5F5F5F5F5F5F5F5F5F5F5F5F5F5F5F5F5F5F5F5F5F5F5F5F5F5F5F5F5F5F5F5F5F5F5F5E2F5F5F5F5F5F5F5F5F5F5F5F5F5F5F5F5E2F5F5F5E2E2EFF5F5F5E2F5F5F5F5F5F5F5F5F5F5F5F5F5F5F5F5E2F5F5F5F5F5F5F5F5F5
310
F5F5F5F5F5F5F5F5F5F5F5F5F5F5F5F5F5F5F5F5F5F5F5F5F5F5F5F5F5F5F5F5F5F5F5F5F5F5F5F5F5F5F5F5F5F5F5F5F5F5F5F5F5F5F5F5F5F5F5F5F5F5F5F5F5F5F5F5F5F5F5F5F5F5F5F5F5F5F5F5F5F5F5F5F5F5F5F5F5F5F5F5F5F5F5F5F5F5F5F5F5F5F5F5F5F5F5F5F5F5F5F5F5F5F5F5F5F5F5F5F5F5F5F5F5F5E2
310
F5F5F5F5F5F5F5F5F5F5F5F5F5F5F5F5E2F5F5F5E2E2EFF5F5F5E2F5F5F5F5F5F5F5F5F5F5F5F5F5F5F5F5E2F5F5F5F5F5F5F5F5F5F5F5F5F5F5F5F5F5F5F5F5F5F5F5F5F5F5F5F5F5F5F5F5F5F5F5F5F5F5F5F5F5F5F5F5F5F5F5F5F5F5F5F5F5F5F5F5F5F5F5F5F5F5F5F5F5F5F5F5F5F5F5F5F5F5F5F5F5F5F5F5F5F5F5
310
F5F5F5F5F5F5F5F5F5F5F5F5F5F5F5F5F5F5F5F5F5F5F5F5F5F5F5F5F5F5F5F5F5F5F5F5F5F5F5F5F5F5F5F5F5F5F5F5F5F5F5F5E2F5F5F5F5F5F5F5F5F5F5F5F5F5F5F5F5E2F5F5F5E2E2EFF5F5F5E2F5F5F5F5F5F5F5F5F5F5F5F5F5F5F5F5E2F5F5F5F5F5F5F5F5F5F5F5F5F5F5F5F5F5F5F5F5F5F5F5F5F5F5F5F5F5F5
310
F5F5F5F5F5F5F5F5F5F5F5F5F5F5F5F5F5F5F5F5F5F5F5F5F5F5F5F5F5F5F5F5F5F5F5F5F5F5F5F5F5F5F5F5F5F5F5F5F5F5F5F5F5F5F5F5F5F5F5F5F5F5F5F5F5F5F5F5F5F5F5F5F5F5F5F5F5F5F5F5F5F5F5F5F5F5F5F5F5F5F5F5F5F5F5F5F5F5F5F5F5F5F5F5F5E2F5F5F5F5F5F5F5F5F5F5F5F5F5F5F5F5E2F5F5F5E2
310
E2EFF5F5F5E2F5F5F5F5F5F5F5F5F5F5F5F5F5F5F5F5E2F5F5F5F5F5F5F5F5F5F5F5F5F5F5F5F5F5F5F5F5F5F5F5F5F5F5F5F5F5F5F5F5F5F5F5F5F5F5F5F5F5F5F5F5F5F5F5F5F5F5F5F5F5F5F5F5F5F5F5F5F5F5F5F5F5F5F5F5F5F5F5F5F5F5F5F5F5F5F5F5F5F5F5F5F5F5F5F5F5F5F5F5F5F5F5F5F5F5F5F5F5F5F5F5
310
F5F5F5F5F5F5F5F5F5F5F5F5F5F5F5F5F5F5F5F5F5F5F5F5F5F5F5F5F5F5F5E2F5F5F5F5F5F5F5F5F5F5F5F5F5F5F5F5E2F5F5F5E2E2EFF5F5F5E2F5F5F5F5F5F5F5F5F5F5F5F5F5F5F5F5E2F5F5F5F5F5F5F5F5F5F5F5F5F5F5F5F5F5F5F5F5F5F5F5F5F5F5F5F5F5F5F5F5F5F5F5F5F5F5F5F5F5F5F5F5F5F5F5F5F5F5F5
310
F5F5F5F5F5F5F5F5F5F5F5F5F5F5F5F5F5F5F5F5F5F5F5F5F5F5F5F5F5F5F5F5F5F5F5F5F5F5F5F5F5F5F5F5F5F5F5F5F5F5F5F5F5F5F5F5F5F5F5F5F5F5F5F5F5F5F5F5F5F5F5F5F5F5F5F5F5F5F5F5F5F5F5F5E2F5F5F5F5F5F5F5F5F5F5F5F5F5F5F5F5E2F5F5F5E2E2EFF5F5F5E2F5F5F5F5F5F5F5F5F5F5F5F5F5F5F5
310
F5E2F5F5F5F5F5F5F5F5F5F5F5F5F5F5F5F5F5F5F5F5F5F5F5F5F5F5F5F5F5F5F5F5F5F5F5F5F5F5F5F5F5F5F5F5F5F5F5F5F5F5F5F5F5F5F5F5F5F5F5F5F5F5F5F5F5F5F5F5F5F5F5F5F5F5F5F5F5F5F5F5F5F5F5F5F5F5F5F5F5F5F5F5F5F5F5F5F5F5F5F5F5F5F5F5F5F5F5F5F5F5F5F5F5F5F5F5F5F5F5F5F5F5F5F5F5
310
F5F5F5F5F5F5F5F5F5F5E2F5F5F5F5F5F5F5F5F5F5F5F5F5F5F5F5E2F5F5F5E2E2EFF5F5F5E2F5F5F5F5F5F5F5F5F5F5F5F5F5F5F5F5E2F5F5F5F5F5F5F5F5F5F5F5F5F5F5F5F5F5F5F5F5F5F5F5F5F5F5F5F5F5F5F5F5F5F5F5F5F5F5F5F5F5F5F5F5F5F5F5F5F5F5F5F5F5F5F5F5F5F5F5F5F5F5F5F5F5F5F5F5F5F5F5F5
310
F5F5F5F5F5F5F5F5F5F5F5F5F5F5F5F5F5F5F5F5F5F5F5F5F5F5F5F5F5F5F5F5F5F5F5F5F5F5F5F5F5F5F5F5F5F5F5F5F5F5F5F5F5F5F5F5F5F5F5F5F5F5F5E2F5F5F5F5F5F5F5F5F5F5F5F5F5F5F5F5E2F5F5F5E2E2EFF5F5F5E2F5F5F5F5F5F5F5F5F5F5F5F5F5F5F5F5E2F5F5F5F5F5F5F5F5F5F5F5F5F5F5F5F5F5F5F5
310
F5F5F5F5F5F5F5F5F5F5F5F5F5F5F5F5F5F5F5F5F5F5F5F5F5F5F5F5F5F5F5F5F5F5F5F5F5F5F5F5F5F5F5F5F5F5F5F5F5F5F5F5F5F5F5F5F5F5F5F5F5F5F5F5F5F5F5F5F5F5F5F5F5F5F5F5F5F5F5F5F5F5F5F5F5F5F5F5F5F5F5F5F5F5F5F5F5F5F5F5F5F5F5F5F5F5F5F5F5F5F5F5F5F5F5F5E2F5F5F5F5F5F5F5F5F5F5
310
F5F5F5F5F5F5E2F5F5F5E2E2EFF5F5F5E2F5F5F5F5F5F5F5F5F5F5F5F5F5F5F5F5E2F5F5F5F5F5F5F5F5F5F5F5F5F5F5F5F5F5F5F5F5F5F5F5F5F5F5F5F5F5F5F5F5F5F5F5F5F5F5F5F5F5F5F5F5F5F5F5F5F5F5F5F5F5F5F5F5F5F5F5F5F5F5F5F5F5F5F5F5F5F5F5F5F5F5F5F5F5F5F5F5F5F5F5F5F5F5F5F5F5F5F5F5F5
310
F5F5F5F5F5F5F5F5F5F5F5F5F5F5F5F5F5F5F5F5F5F5F5F5F5F5F5F5F5F5F5F5F5F5F5F5F5F5F5F5F5F5E2F5F5F5F5F5F5F5F5F5F5F5F5F5F5F5F5E2F5F5F5E2E2EFF5F5F5E2F5F5F5F5F5F5F5F5F5F5F5F5F5F5F5F5E2F5F5F5F5F5F5F5F5F5F5F5F5F5F5F5F5F5F5F5F5F5F5F5F5F5F5F5F5F5F5F5F5F5F5F5F5F5F5F5F5
310
F5F5F5F5F5F5F5F5F5F5F5F5F5F5F5F5F5F5F5F5F5F5F5F5F5F5F5F5F5F5F5F5F5F5F5F5F5F5F5F5F5F5F5F5F5F5F5F5F5F5F5F5F5F5F5F5F5F5F5F5F5F5F5F5F5F5F5F5F5F5F5F5F5F5F5F5F5F5F5F5F5F5F5F5F5F5F5F5F5F5F5F5F5F5F5E2F5F5F5F5F5F5F5F5F5F5F5F5F5F5F5F5E2F5F5F5E2E2EFF5F5F5E2F5F5F5F5
310
F5F5F5F5F5F5F5F5F5F5F5F5E2F5F5F5F5F5F5F5F5F5F5F5F5F5F5F5F5F5F5F5F5F5F5F5F5F5F5F5F5F5F5F5F5F5F5F5F5F5F5F5F5F5F5F5F5F5F5F5F5F5F5F5F5F5F5F5F5F5F5F5F5F5F5F5F5F5F5F5F5F5F5F5F5F5F5F5F5F5F5F5F5F5F5F5F5F5F5F5F5F5F5F5F5F5F5F5F5F5F5F5F5F5F5F5F5F5F5F5F5F5F5F5F5F5F5
310
F5F5F5F5F5F5F5F5F5F5F5F5F5F5F5F5F5F5F5F5F5E2F5F5F5F5F5F5F5F5F5F5F5F5F5F5F5F5E2F5F5F5E2E2EFF5F5F5F5F5F5F5F5F5F5F5F5F5F5F5F5F5F5F5F5E2F5F5F5F5F5F5F5F5F5F5F5F5F5F5F5F5F5F5F5F5F5F5F5F5F5F5F5F5F5F5F5F5F5F5F5F5F5F5F5F5F5F5F5F5F5F5F5F5F5F5F5F5F5F5F5F5F5F5F5F5F5
310
F5F5F5F5F5F5F5F5F5F5F5F5F5F5F5F5F5F5F5F5F5F5F5F5F5F5F5F5F5F5F5F5F5F5F5F5F5F5F5F5F5F5F5F5F5F5F5F5F5F5F5F5F5F5F5F5F5F5F5F5F5F5F5F5F5F5F5F5F5F5F5F5F5F5E2F5F5F5F5F5F5F5F5F5F5F5F5F5F5F5F5F5F5F5F5E2E2EFF5F5F5F5F5F5F5F5F5F5F5F5F5F5F5F5F5F5F5F5E2F5F5F5F5F5F5F5F5
310
F5F5F5F5F5F5F5F5F5F5F5F5F5F5F5F5F5F5F5F5F5F5F5F5F5F5F5F5F5F5F5F5F5F5F5F5F5F5F5F5F5F5F5F5F5F5F5F5F5F5F5F5F5F5F5F5F5F5F5F5F5F5F5F5F5F5F5F5F5F5F5F5F5F5F5F5F5F5F5F5F5F5F5F5F5F5F5F5F5F5F5F5F5F5F5F5F5F5F5F5F5F5F5F5F5F5F5F5F5F5F5F5F5F5F5F5F5F5F5F5F5F5F5F5F5F5F5
310
E2F5F5F5F5F5F5F5F5F5F5F5F5F5F5F5F5F5F5F5F5E2E2EFF5F5F5F5F5F5F5F5F5F5F5F5F5F5F5F5F5F5F5F5E2F5F5F5F5F5F5F5F5F5F5F5F5F5F5F5F5F5F5F5F5F5F5F5F5F5F5F5F5F5F5F5F5F5F5F5F5F5F5F5F5F5F5F5F5F5F5F5F5F5F5F5F5F5F5F5F5F5F5F5F5F5F5F5F5F5F5F5F5F5F5F5F5F5F5F5F5F5F5F5F5F5F5
310
F5F5F5F5F5F5F5F5F5F5F5F5F5F5F5F5F5F5F5F5F5F5F5F5F5F5F5F5F5F5F5F5F5F5F5F5F5F5F5F5F5F5F5F5F5F5F5F5F5F5F5F5F5E2F5F5F5F5F5F5F5F5F5F5F5F5F5F5F5F5F5F5F5F5E2E2EFF5F5F5F5F5F5F5F5F5F5F5F5F5F5F5F5F5F5F5F5E2F5F5F5F5F5F5F5F5F5F5F5F5F5F5F5F5F5F5F5F5F5F5F5F5F5F5F5F5F5
310
F5F5F5F5F5F5F5F5F5F5F5F5F5F5F5F5F5F5F5F5F5F5F5F5F5F5F5F5F5F5F5F5F5F5F5F5F5F5F5F5F5F5F5F5F5F5F5F5F5F5F5F5F5F5F5F5F5F5F5F5F5F5F5F5F5F5F5F5F5F5F5F5F5F5F5F5F5F5F5F5F5F5F5F5F5F5F5F5F5F5F5F5F5F5F5F5F5F5F5F5F5F5F5F5F5F5E2F5F5F5F5F5F5F5F5F5F5F5F5F5F5F5F5F5F5F5F5
310
E2E2EFF5F5F5F5F5F5F5F5F5F5F5F5F5F5F5F5F5F5F5F5E2F5F5F5F5F5F5F5F5F5F5F5F5F5F5F5F5F5F5F5F5F5F5F5F5F5F5F5F5F5F5F5F5F5F5F5F5F5F5F5F5F5F5F5F5F5F5F5F5F5F5F5F5F5F5F5F5F5F5F5F5F5F5F5F5F5F5F5F5F5F5F5F5F5F5F5F5F5F5F5F5F5F5F5F5F5F5F5F5F5F5F5F5F5F5F5F5F5F5F5F5F5F5F5
310
F5F5F5F5F5F5F5F5F5F5F5F5F5F5F5F5F5F5F5F5F5F5F5F5F5F5F5F5F5F5F5F5E2F5F5F5F5F5F5F5F5F5F5F5F5F5F5F5F5F5F5F5F5E2E2EFF5F5F5F5F5F5F5F5F5F5F5F5F5F5F5F5F5F5F5F5E2F5F5F5F5F5F5F5F5F5F5F5F5F5F5F5F5F5F5F5F5F5F5F5F5F5F5F5F5F5F5F5F5F5F5F5F5F5F5F5F5F5F5F5F5F5F5F5F5F5F5
310
F5F5F5F5F5F5F5F5F5F5F5F5F5F5F5F5F5F5F5F5F5F5F5F5F5F5F5F5F5F5F5F5F5F5F5F5F5F5F5F5F5F5F5F5F5F5F5F5F5F5F5F5F5F5F5F5F5F5F5F5F5F5F5F5F5F5F5F5F5F5F5F5F5F5F5F5F5F5F5F5F5F5F5F5F5E2F5F5F5F5F5F5F5F5F5F5F5F5F5F5F5F5F5F5F5F5E2E2EFF5F5F5F5F5F5F5F5F5F5F5F5F5F5F5F5F5F5
310
F5F5E2F5F5F5F5F5F5F5F5F5F5F5F5F5F5F5F5F5F5F5F5F5F5F5F5F5F5F5F5F5F5F5F5F5F5F5F5F5F5F5F5F5F5F5F5F5F5F5F5F5F5F5F5F5F5F5F5F5F5F5F5F5F5F5F5F5F5F5F5F5F5F5F5F5F5F5F5F5F5F5F5F5F5F5F5F5F5F5F5F5F5F5F5F5F5F5F5F5F5F5F5F5F5F5F5F5F5F5F5F5F5F5F5F5F5F5F5F5F5F5F5F5F5F5F5
310
F5F5F5F5F5F5F5F5F5F5F5E2F5F5F5F5F5F5F5F5F5F5F5F5F5F5F5F5F5F5F5F5E2E2EFF5F5F5F5F5F5F5F5F5F5F5F5F5F5F5F5F5F5F5F5E2F5F5F5F5F5F5F5F5F5F5F5F5F5F5F5F5F5F5F5F5F5F5F5F5F5F5F5F5F5F5F5F5F5F5F5F5F5F5F5F5F5F5F5F5F5F5F5F5F5F5F5F5F5F5F5F5F5F5F5F5F5F5F5F5F5F5F5F5F5F5F5
310
F5F5F5F5F5F5F5F5F5F5F5F5F5F5F5F5F5F5F5F5F5F5F5F5F5F5F5F5F5F5F5F5F5F5F5F5F5F5F5F5F5F5F5F5F5F5F5F5F5F5F5F5F5F5F5F5F5F5F5F5F5F5F5F5E2F5F5F5F5F5F5F5F5F5F5F5F5F5F5F5F5F5F5F5F5E2E2EFF5F5F5F5F5F5F5F5F5F5F5F5F5F5F5F5F5F5F5F5E2F5F5F5F5F5F5F5F5F5F5F5F5F5F5F5F5F5F5
310
F5F5F5F5F5F5F5F5F5F5F5F5F5F5F5F5F5F5F5F5F5F5F5F5F5F5F5F5F5F5F5F5F5F5F5F5F5F5F5F5F5F5F5F5F5F5F5F5F5F5F5F5F5F5F5F5F5F5F5F5F5F5F5F5F5F5F5F5F5F5F5F5F5F5F5F5F5F5F5F5F5F5F5F5F5F5F5F5F5F5F5F5F5F5F5F5F5F5F5F5F5F5F5F5F5F5F5F5F5F5F5F5F5F5F5F5F5E2F5F5F5F5F5F5F5F5F5
310
F5F5F5F5F5F5F5F5F5F5F5E2E2EFF5F5F5E2F5F5F5F5F5F5F5F5F5F5F5F5F5F5F5F5E2F5F5F5F5F5F5F5F5F5F5F5F5F5F5F5F5F5F5F5F5F5F5F5F5F5F5F5F5F5F5F5F5F5F5F5F5F5F5F5F5F5F5F5F5F5F5F5F5F5F5F5F5F5F5F5F5F5F5F5F5F5F5F5F5F5F5F5F5F5F5F5F5F5F5F5F5F5F5F5F5F5F5F5F5F5F5F5F5F5F5F5F5
310
F5F5F5F5F5F5F5F5F5F5F5F5F5F5F5F5F5F5F5F5F5F5F5F5F5F5F5F5F5F5F5F5F5F5F5F5F5F5F5F5F5F5F5E2F5F5F5F5F5F5F5F5F5F5F5F5F5F5F5F5E2F5F5F5E2E2EFF5F5F5E2F5F5F5F5F5F5F5F5F5F5F5F5F5F5F5F5E2F5F5F5F5F5F5F5F5F5F5F5F5F5F5F5F5F5F5F5F5F5F5F5F5F5F5F5F5F5F5F5F5F5F5F5F5F5F5F5
310
F5F5F5F5F5F5F5F5F5F5F5F5F5F5F5F5F5F5F5F5F5F5F5F5F5F5F5F5F5F5F5F5F5F5F5F5F5F5F5F5F5F5F5F5F5F5F5F5F5F5F5F5F5F5F5F5F5F5F5F5F5F5F5F5F5F5F5F5F5F5F5F5F5F5F5F5F5F5F5F5F5F5F5F5F5F5F5F5F5F5F5F5F5F5F5F5E2F5F5F5F5F5F5F5F5F5F5F5F5F5F5F5F5E2F5F5F5E2E2EFF5F5F5E2F5F5F5
310
F5F5F5F5F5F5F5F5F5F5F5F5F5E2F5F5F5F5F5F5F5F5F5F5F5F5F5F5F5F5F5F5F5F5F5F5F5F5F5F5F5F5F5F5F5F5F5F5F5F5F5F5F5F5F5F5F5F5F5F5F5F5F5F5F5F5F5F5F5F5F5F5F5F5F5F5F5F5F5F5F5F5F5F5F5F5F5F5F5F5F5F5F5F5F5F5F5F5F5F5F5F5F5F5F5F5F5F5F5F5F5F5F5F5F5F5F5F5F5F5F5F5F5F5F5F5F5
310
F5F5F5F5F5F5F5F5F5F5F5F5F5F5F5F5F5F5F5F5F5F5E2F5F5F5F5F5F5F5F5F5F5F5F5F5F5F5F5E2F5F5F5E2E2EFF5F5F5E2F5F5F5F5F5F5F5F5F5F5F5F5F5F5F5F5E2F5F5F5F5F5F5F5F5F5F5F5F5F5F5F5F5F5F5F5F5F5F5F5F5F5F5F5F5F5F5F5F5F5F5F5F5F5F5F5F5F5F5F5F5F5F5F5F5F5F5F5F5F5F5F5F5F5F5F5F5
310
F5F5F5F5F5F5F5F5F5F5F5F5F5F5F5F5F5F5F5F5F5F5F5F5F5F5F5F5F5F5F5F5F5F5F5F5F5F5F5F5F5F5F5F5F5F5F5F5F5F5F5F5F5F5F5F5F5F5F5F5F5F5F5F5F5F5F5F5F5F5F5F5F5F5F5E2F5F5F5F5F5F5F5F5F5F5F5F5F5F5F5F5E2F5F5F5E2E2EFF5F5F5E2F5F5F5F5F5F5F5F5F5F5F5F5F5F5F5F5E2F5F5F5F5F5F5F5
310
F5F5F5F5F5F5F5F5F5F5F5F5F5F5F5F5F5F5F5F5F5F5F5F5F5F5F5F5F5F5F5F5F5F5F5F5F5F5F5F5F5F5F5F5F5F5F5F5F5F5F5F5F5F5F5F5F5F5F5F5F5F5F5F5F5F5F5F5F5F5F5F5F5F5F5F5F5F5F5F5F5F5F5F5F5F5F5F5F5F5F5F5F5F5F5F5F5F5F5F5F5F5F5F5F5F5F5F5F5F5F5F5F5F5F5F5F5F5F5F5F5F5F5F5F5F5F5
310
F5E2F5F5F5F5F5F5F5F5F5F5F5F5F5F5F5F5E2F5F5F5E2E2EFF5F5F5E2F5F5F5F5F5F5F5F5F5F5F5F5F5F5F5F5E2F5F5F5F5F5F5F5F5F5F5F5F5F5F5F5F5F5F5F5F5F5F5F5F5F5F5F5F5F5F5F5F5F5F5F5F5F5F5F5F5F5F5F5F5F5F5F5F5F5F5F5F5F5F5F5F5F5F5F5F5F5F5F5F5F5F5F5F5F5F5F5F5F5F5F5F5F5F5F5F5F5
310
F5F5F5F5F5F5F5F5F5F5F5F5F5F5F5F5F5F5F5F5F5F5F5F5F5F5F5F5F5F5F5F5F5F5F5F5F5F5F5F5F5F5F5F5F5F5F5F5F5F5F5F5F5F5E2F5F5F5F5F5F5F5F5F5F5F5F5F5F5F5F5E2F5F5F5E2E2EFF5F5F5E2F5F5F5F5F5F5F5F5F5F5F5F5F5F5F5F5E2F5F5F5F5F5F5F5F5F5F5F5F5F5F5F5F5F5F5F5F5F5F5F5F5F5F5F5F5
310
F5F5F5F5F5F5F5F5F5F5F5F5F5F5F5F5F5F5F5F5F5F5F5F5F5F5F5F5F5F5F5F5F5F5F5F5F5F5F5F5F5F5F5F5F5F5F5F5F5F5F5F5F5F5F5F5F5F5F5F5F5F5F5F5F5F5F5F5F5F5F5F5F5F5F5F5F5F5F5F5F5F5F5F5F5F5F5F5F5F5F5F5F5F5F5F5F5F5F5F5F5F5F5F5F5F5F5E2F5F5F5F5F5F5F5F5F5F5F5F5F5F5F5F5E2F5F5
310
F5E2E2EFF5F5F5E2F5F5F5F5F5F5F5F5F5F5F5F5F5F5F5F5E2F5F5F5F5F5F5F5F5F5F5F5F5F5F5F5F5F5F5F5F5F5F5F5F5F5F5F5F5F5F5F5F5F5F5F5F5F5F5F5F5F5F5F5F5F5F5F5F5F5F5F5F5F5F5F5F5F5F5F5F5F5F5F5F5F5F5F5F5F5F5F5F5F5F5F5F5F5F5F5F5F5F5F5F5F5F5F5F5F5F5F5F5F5F5F5F5F5F5F5F5F5F5
310
F5F5F5F5F5F5F5F5F5F5F5F5F5F5F5F5F5F5F5F5F5F5F5F5F5F5F5F5F5F5F5F5F5E2F5F5F5F5F5F5F5F5F5F5F5F5F5F5F5F5E2F5F5F5E2E2EFF5F5F5E2F5F5F5F5F5F5F5F5F5F5F5F5F5F5F5F5E2F5F5F5F5F5F5F5F5F5F5F5F5F5F5F5F5F5F5F5F5F5F5F5F5F5F5F5F5F5F5F5F5F5F5F5F5F5F5F5F5F5F5F5F5F5F5F5F5F5
310
F5F5F5F5F5F5F5F5F5F5F5F5F5F5F5F5F5F5F5F5F5F5F5F5F5F5F5F5F5F5F5F5F5F5F5F5F5F5F5F5F5F5F5F5F5F5F5F5F5F5F5F5F5F5F5F5F5F5F5F5F5F5F5F5F5F5F5F5F5F5F5F5F5F5F5F5F5F5F5F5F5F5F5F5F5F5E2F5F5F5F5F5F5F5F5F5F5F5F5F5F5F5F5E2F5F5F5E2E2EFF5F5F5E2F5F5F5F5F5F5F5F5F5F5F5F5F5
310
F5F5F5E2F5F5F5F5F5F5F5F5F5F5F5F5F5F5F5F5F5F5F5F5F5F5F5F5F5F5F5F5F5F5F5F5F5F5F5F5F5F5F5F5F5F5F5F5F5F5F5F5F5F5F5F5F5F5F5F5F5F5F5F5F5F5F5F5F5F5F5F5F5F5F5F5F5F5F5F5F5F5F5F5F5F5F5F5F5F5F5F5F5F5F5F5F5F5F5F5F5F5F5F5F5F5F5F5F5F5F5F5F5F5F5F5F5F5F5F5F5F5F5F5F5F5F5
310
F5F5F5F5F5F5F5F5F5F5F5F5E2F5F5F5F5F5F5F5F5F5F5F5F5F5F5F5F5E2F5F5F5E2E2EFF5F5F5E2F5F5F5F5F5F5F5F5F5F5F5F5F5F5F5F5E2F5F5F5F5F5F5F5F5F5F5F5F5F5F5F5F5F5F5F5F5F5F5F5F5F5F5F5F5F5F5F5F5F5F5F5F5F5F5F5F5F5F5F5F5F5F5F5F5F5F5F5F5F5F5F5F5F5F5F5F5F5F5F5F5F5F5F5F5F5F5
310
F5F5F5F5F5F5F5F5F5F5F5F5F5F5F5F5F5F5F5F5F5F5F5F5F5F5F5F5F5F5F5F5F5F5F5F5F5F5F5F5F5F5F5F5F5F5F5F5F5F5F5F5F5F5F5F5F5F5F5F5F5F5F5F5F5E2F5F5F5F5F5F5F5F5F5F5F5F5F5F5F5F5E2F5F5F5E2E2EFF5F5F5E2F5F5F5F5F5F5F5F5F5F5F5F5F5F5F5F5E2F5F5F5F5F5F5F5F5F5F5F5F5F5F5F5F5F5
310
F5F5F5F5F5F5F5F5F5F5F5F5F5F5F5F5F5F5F5F5F5F5F5F5F5F5F5F5F5F5F5F5F5F5F5F5F5F5F5F5F5F5F5F5F5F5F5F5F5F5F5F5F5F5F5F5F5F5F5F5F5F5F5F5F5F5F5F5F5F5F5F5F5F5F5F5F5F5F5F5F5F5F5F5F5F5F5F5F5F5F5F5F5F5F5F5F5F5F5F5F5F5F5F5F5F5F5F5F5F5F5F5F5F5F5F5F5F5E2F5F5F5F5F5F5F5F5
310
F5F5F5F5F5F5F5F5E2F5F5F5E2E2EFF5F5F5E2F5F5F5F5F5F5F5F5F5F5F5F5F5F5F5F5E2F5F5F5F5F5F5F5F5F5F5F5F5F5F5F5F5F5F5F5F5F5F5F5F5F5F5F5F5F5F5F5F5F5F5F5F5F5F5F5F5F5F5F5F5F5F5F5F5F5F5F5F5F5F5F5F5F5F5F5F5F5F5F5F5F5F5F5F5F5F5F5F5F5F5F5F5F5F5F5F5F5F5F5F5F5F5F5F5F5F5F5
310
F5F5F5F5F5F5F5F5F5F5F5F5F5F5F5F5F5F5F5F5F5F5F5F5F5F5F5F5F5F5F5F5F5F5F5F5F5F5F5F5F5F5F5F5E2F5F5F5F5F5F5F5F5F5F5F5F5F5F5F5F5E2F5F5F5E2E2EFF5F5F5E2F5F5F5F5F5F5F5F5F5F5F5F5F5F5F5F5E2F5F5F5F5F5F5F5F5F5F5F5F5F5F5F5F5F5F5F5F5F5F5F5F5F5F5F5F5F5F5F5F5F5F5F5F5F5F5
310
F5F5F5F5F5F5F5F5F5F5F5F5F5F5F5F5F5F5F5F5F5F5F5F5F5F5F5F5F5F5F5F5F5F5F5F5F5F5F5F5F5F5F5F5F5F5F5F5F5F5F5F5F5F5F5F5F5F5F5F5F5F5F5F5F5F5F5F5F5F5F5F5F5F5F5F5F5F5F5F5F5F5F5F5F5F5F5F5F5F5F5F5F5F5F5F5F5E2F5F5F5F5F5F5F5F5F5F5F5F5F5F5F5F5E2F5F5F5E2E2EFF5F5F5E2F5F5
310
F5F5F5F5F5F5F5F5F5F5F5F5F5F5E2F5F5F5F5F5F5F5F5F5F5F5F5F5F5F5F5F5F5F5F5F5F5F5F5F5F5F5F5F5F5F5F5F5F5F5F5F5F5F5F5F5F5F5F5F5F5F5F5F5F5F5F5F5F5F5F5F5F5F5F5F5F5F5F5F5F5F5F5F5F5F5F5F5F5F5F5F5F5F5F5F5F5F5F5F5F5F5F5F5F5F5F5F5F5F5F5F5F5F5F5F5F5F5F5F5F5F5F5F5F5F5F5
310
F5F5F5F5F5F5F5F5F5F5F5F5F5F5F5F5F5F5F5F5F5F5F5E2F5F5F5F5F5F5F5F5F5F5F5F5F5F5F5F5E2F5F5F5E2E2EFF5F5F5E2F5F5F5F5F5F5F5F5F5F5F5F5F5F5F5F5E2F5F5F5F5F5F5F5F5F5F5F5F5F5F5F5F5F5F5F5F5F5F5F5F5F5F5F5F5F5F5F5F5F5F5F5F5F5F5F5F5F5F5F5F5F5F5F5F5F5F5F5F5F5F5F5F5F5F5F5
310
F5F5F5F5F5F5F5F5F5F5F5F5F5F5F5F5F5F5F5F5F5F5F5F5F5F5F5F5F5F5F5F5F5F5F5F5F5F5F5F5F5F5F5F5F5F5F5F5F5F5F5F5F5F5F5F5F5F5F5F5F5F5F5F5F5F5F5F5F5F5F5F5F5F5F5F5E2F5F5F5F5F5F5F5F5F5F5F5F5F5F5F5F5E2F5F5F5E2E2EFF5F5F5E2F5F5F5F5F5F5F5F5F5F5F5F5F5F5F5F5E2F5F5F5F5F5F5
310
F5F5F5F5F5F5F5F5F5F5F5F5F5F5F5F5F5F5F5F5F5F5F5F5F5F5F5F5F5F5F5F5F5F5F5F5F5F5F5F5F5F5F5F5F5F5F5F5F5F5F5F5F5F5F5F5F5F5F5F5F5F5F5F5F5F5F5F5F5F5F5F5F5F5F5F5F5F5F5F5F5F5F5F5F5F5F5F5F5F5F5F5F5F5F5F5F5F5F5F5F5F5F5F5F5F5F5F5F5F5F5F5F5F5F5F5F5F5F5F5F5F5F5F5F5F5F5
310
F5F5E2F5F5F5F5F5F5F5F5F5F5F5F5F5F5F5F5E2F5F5F5E2E2EFF5F5F5F5F5F5F5F5F5F5F5F5F5F5F5F5F5F5F5F5E2F5F5F5F5F5F5F5F5F5F5F5F5F5F5F5F5F5F5F5F5F5F5F5F5F5F5F5F5F5F5F5F5F5F5F5F5F5F5F5F5F5F5F5F5F5F5F5F5F5F5F5F5F5F5F5F5F5F5F5F5F5F5F5F5F5F5F5F5F5F5F5F5F5F5F5F5F5F5F5F5
310
F5F5F5F5F5F5F5F5F5F5F5F5F5F5F5F5F5F5F5F5F5F5F5F5F5F5F5F5F5F5F5F5F5F5F5F5F5F5F5F5F5F5F5F5F5F5F5F5F5F5F5F5F5F5F5E2F5F5F5F5F5F5F5F5F5F5F5F5F5F5F5F5F5F5F5F5E2E2EFF5F5F5F5F5F5F5F5F5F5F5F5F5F5F5F5F5F5F5F5E2F5F5F5F5F5F5F5F5F5F5F5F5F5F5F5F5F5F5F5F5F5F5F5F5F5F5F5
310
F5F5F5F5F5F5F5F5F5F5F5F5F5F5F5F5F5F5F5F5F5F5F5F5F5F5F5F5F5F5F5F5F5F5F5F5F5F5F5F5F5F5F5F5F5F5F5F5F5F5F5F5F5F5F5F5F5F5F5F5F5F5F5F5F5F5F5F5F5F5F5F5F5F5F5F5F5F5F5F5F5F5F5F5F5F5F5F5F5F5F5F5F5F5F5F5F5F5F5F5F5F5F5F5F5F5F5F5E2F5F5F5F5F5F5F5F5F5F5F5F5F5F5F5F5F5F5
310
F5F5E2E2EFF5F5F5F5F5F5F5F5F5F5F5F5F5F5F5F5F5F5F5F5E2F5F5F5F5F5F5F5F5F5F5F5F5F5F5F5F5F5F5F5F5F5F5F5F5F5F5F5F5F5F5F5F5F5F5F5F5F5F5F5F5F5F5F5F5F5F5F5F5F5F5F5F5F5F5F5F5F5F5F5F5F5F5F5F5F5F5F5F5F5F5F5F5F5F5F5F5F5F5F5F5F5F5F5F5F5F5F5F5F5F5F5F5F5F5F5F5F5F5F5F5F5
310
F5F5F5F5F5F5F5F5F5F5F5F5F5F5F5F5F5F5F5F5F5F5F5F5F5F5F5F5F5F5F5F5F5F5E2F5F5F5F5F5F5F5F5F5F5F5F5F5F5F5F5F5F5F5F5E2E2EFF5F5F5F5F5F5F5F5F5F5F5F5F5F5F5F5F5F5F5F5E2F5F5F5F5F5F5F5F5F5F5F5F5F5F5F5F5F5F5F5F5F5F5F5F5F5F5F5F5F5F5F5F5F5F5F5F5F5F5F5F5F5F5F5F5F5F5F5F5
310
F5F5F5F5F5F5F5F5F5F5F5F5F5F5F5F5F5F5F5F5F5F5F5F5F5F5F5F5F5F5F5F5F5F5F5F5F5F5F5F5F5F5F5F5F5F5F5F5F5F5F5F5F5F5F5F5F5F5F5F5F5F5F5F5F5F5F5F5F5F5F5F5F5F5F5F5F5F5F5F5F5F5F5F5F5F5F5E2F5F5F5F5F5F5F5F5F5F5F5F5F5F5F5F5F5F5F5F5E2E2EFF5F5F5F5F5F5F5F5F5F5F5F5F5F5F5F5
310
F5F5F5F5E2E2E2E2E2E2E2E2E2E2E2E2E2E2E2E2E2E2E2E2E2E2E2E2E2E2E2E2E2E2E2E2E2E2E2E2E2E2E2E2E2E2E2E2E2E2E2E2E2E2E2E2E2E2E2E2E2E2E2E2E2E2E2E2E2E2E2E2E2E2E2E2E2E2E2E2E2E2E2E2E2E2E2E2E2E2E2E2E2E2E2E2E2E2E2E2E2E2E2E2E2E2E2E2E2E2E2E2E2E2E2E2E2E2E2E2E2E2E2E2E2E2E2
310
E2E2E2E2E2E2E2E2E2E2E2E2E2E2F5F5F5F5F5F5F5F5F5F5F5F5F5F5F5F5F5F5F5F5E2E2EFF5F5F5F5F5F5F5F5F5F5F5F5F5F5F5F5F5F5F5F5F5F5F5F5F5F5F5F5F5F5F5F5F5F5F5F5F5F5F5F5F5F5F5F5F5F5F5F5F5F5F5F5F5F5F5F5F5F5F5F5F5F5F5F5F5F5F5F5F5F5F5F5F5F5F5F5F5F5F5F5F5F5F5F5F5F5F5F5F5F5
310
F5F5F5F5F5F5F5F5F5F5F5F5F5F5F5F5F5F5F5F5F5F5F5F5F5F5F5F5F5F5F5F5F5F5F5F5F5F5F5F5F5F5F5F5F5F5F5F5F5F5F5F5F5F5F5F5F5F5F5F5F5F5F5F5F5F5F5F5F5F5F5F5F5F5F5F5F5F5F5F5F5F5F5F5F5F5F5E2E2EFF5F5F5F5F5F5F5F5F5F5F5F5F5F5F5F5F5F5F5F5F5F5F5F5F5F5F5F5F5F5F5F5F5F5F5F5F5
310
F5F5F5F5F5F5F5F5F5F5F5F5F5F5F5F5F5F5F5F5F5F5F5F5F5F5F5F5F5F5F5F5F5F5F5F5F5F5F5F5F5F5F5F5F5F5F5F5F5F5F5F5F5F5F5F5F5F5F5F5F5F5F5F5F5F5F5F5F5F5F5F5F5F5F5F5F5F5F5F5F5F5F5F5F5F5F5F5F5F5F5F5F5F5F5F5F5F5F5F5F5F5F5F5F5F5F5F5F5F5F5F5F5F5F5F5F5F5F5F5F5F5F5F5F5F5F5
310
F5F5F5F5F5F5F5F5F5F5F5F5F5E2E2EFF5F5F5F5F5F5F5F5F5F5F5F5F5F5F5F5F5F5F5F5F5F5F5F5F5F5F5F5F5F5F5F5F5F5F5F5F5F5F5F5F5F5F5F5F5F5F5F5F5F5F5F5F5F5F5F5F5F5F5F5F5F5F5F5F5F5F5F5F5F5F5F5F5F5F5F5F5F5F5F5F5F5F5F5F5F5F5F5F5F5F5F5F5F5F5F5F5F5F5F5F5F5F5F5F5F5F5F5F5F5F5
310
F5F5F5F5F5F5F5F5F5F5F5F5F5F5F5F5F5F5F5F5F5F5F5F5F5F5F5F5F5F5F5F5F5F5F5F5F5F5F5F5F5F5F5F5F5F5F5F5F5F5F5F5F5F5F5F5F5F5F5F5F5F5F5F5F5F5E2E2EFF5F5F5F5F5F5F5F5F5F5F5F5F5F5F5F5F5F5F5F5F5F5F5F5F5F5F5F5F5F5F5F5F5F5F5F5F5F5F5F5F5F5F5F5F5F5F5F5F5F5F5F5F5F5F5F5F5F5
310
F5F5F5F5F5F5F5F5F5F5F5F5F5F5F5F5F5F5F5F5F5F5F5F5F5F5F5F5F5F5F5F5F5F5F5F5F5F5F5F5F5F5F5F5F5F5F5F5F5F5F5F5F5F5F5F5F5F5F5F5F5F5F5F5F5F5F5F5F5F5F5F5F5F5F5F5F5F5F5F5F5F5F5F5F5F5F5F5F5F5F5F5F5F5F5F5F5F5F5F5F5F5F5F5F5F5F5F5F5F5F5F5F5F5F5F5F5F5F5E2E2EFF5F5F5E2F5
310
F5F5F5F5F5F5F5F5F5F5F5F5F5F5F5F5F5F5F5F5F5F5F5F5F5F5F5F5F5F5F5F5F5F5F5F5F5F5F5F5F5F5F5F5F5F5F5F5F5F5F5F5F5F5F5F5F5F5F5F5F5F5F5F5F5F5F5F5F5F5F5F5F5F5F5F5F5F5F5F5F5F5F5F5F5F5F5F5F5F5F5F5F5F5F5F5F5F5F5F5F5F5F5F5F5F5F5F5F5F5F5F5F5F5F5F5F5F5F5F5F5F5F5F5F5F5F5
310
F5F5F5F5F5F5F5F5F5F5F5F5F5F5F5F5F5F5F5F5F5F5F5F5F5F5F5F5F5F5F5F5F5F5F5F5F5F5F5F5F5E2F5F5F5E2E2EFF5F5F5E2F5F5F5F5F5F5F5F5F5F5F5F5F5F5F5F5F5F5F5F5F5F5F5F5F5F5F5F5F5F5F5F5F5F5F5F5F5F5F5F5F5F5F5F5F5F5F5F5F5F5F5F5F5F5F5F5F5F5F5F5F5F5F5F5F5F5F5F5F5F5F5F5F5F5F5
310
F5F5F5F5F5F5F5F5F5F5F5F5F5F5F5F5F5F5F5F5F5F5F5F5F5F5F5F5F5F5F5F5F5F5F5F5F5F5F5F5F5F5F5F5F5F5F5F5F5F5F5F5F5F5F5F5F5F5F5F5F5F5F5F5F5F5F5F5F5F5F5F5F5F5F5F5F5F5F5F5F5F5F5F5F5F5F5F5F5F5F5F5F5F5E2F5F5F5E2E2EFF5F5F5E2F5F5F5F5F5F5F5F5F5F5F5F5F5F5F5F5F5F5F5F5F5F5
310
F5F5F5F5F5F5F5F5F5F5F5F5F5F5F5F5F5F5F5F5F5F5F5F5F5F5F5F5F5F5F5F5F5F5F5F5F5F5F5F5F5F5F5F5F5F5F5F5F5F5F5F5F5F5F5F5F5F5F5F5F5F5F5F5F5F5F5F5F5F5F5F5F5F5F5F5F5F5F5F5F5F5F5F5F5F5F5F5F5F5F5F5F5F5F5F5F5F5F5F5F5F5F5F5F5F5F5F5F5F5F5F5F5F5F5F5F5F5F5F5F5F5F5F5F5F5F5
310
F5F5F5F5F5F5F5F5F5F5F5F5F5F5F5F5F5F5F5F5E2F5F5F5E2E2EFF5F5F5E2F5F5F5F5F5F5F5F5F5F5F5F5F5F5F5F5F5F5F5F5F5F5F5F5F5F5F5F5F5F5F5F5F5F5F5F5F5F5F5F5F5F5F5F5F5F5F5F5F5F5F5F5F5F5F5F5F5F5F5F5F5F5F5F5F5F5F5F5F5F5F5F5F5F5F5F5F5F5F5F5F5F5F5F5F5F5F5F5F5F5F5F5F5F5F5F5
310
F5F5F5F5F5F5F5F5F5F5F5F5F5F5F5F5F5F5F5F5F5F5F5F5F5F5F5F5F5F5F5F5F5F5F5F5F5F5F5F5F5F5F5F5F5F5F5F5F5F5F5F5F5F5F5F5F5F5F5F5F5F5F5F5F5F5F5F5F5F5F5F5F5E2F5F5F5E2E2EFF5F5F5E2F5F5F5F5F5F5F5F5F5F5F5F5F5F5F5F5F5F5F5F5F5F5F5F5F5F5F5F5F5F5F5F5F5F5F5F5F5F5F5F5F5F5F5
310
F5F5F5F5F5F5F5F5F5F5F5F5F5F5F5F5F5F5F5F5F5F5F5F5F5F5F5F5F5F5F5F5F5F5F5F5F5F5F5F5F5F5F5F5F5F5F5F5F5F5F5F5F5F5F5F5F5F5F5F5F5F5F5F5F5F5F5F5F5F5F5F5F5F5F5F5F5F5F5F5F5F5F5F5F5F5F5F5F5F5F5F5F5F5F5F5F5F5F5F5F5F5F5F5F5F5F5F5F5F5F5F5F5F5F5F5F5F5F5F5F5F5F5F5F5F5E2
310
F5F5F5E2E2EFF5F5F5E2F5F5F5F5F5F5F5F5F5F5F5F5F5F5F5F5F5F5F5F5F5F5F5F5F5F5F5F5F5F5F5F5F5F5F5F5F5F5F5F5F5F5F5F5F5F5F5F5F5F5F5F5F5F5F5F5F5F5F5F5F5F5F5F5F5F5F5F5F5F5F5F5F5F5F5F5F5F5F5F5F5F5F5F5F5F5F5F5F5F5F5F5F5F5F5F5F5F5F5F5F5F5F5F5F5F5F5F5F5F5F5F5F5F5F5F5F5
310
F5F5F5F5F5F5F5F5F5F5F5F5F5F5F5F5F5F5F5F5F5F5F5F5F5F5F5F5F5F5F5F5F5F5F5F5F5F5F5F5F5F5F5F5F5F5F5F5F5F5F5F5E2F5F5F5E2E2EFF5F5F5E2F5F5F5F5F5F5F5F5F5F5F5F5F5F5F5F5F5F5F5F5F5F5F5F5F5F5F5F5F5F5F5F5F5F5F5F5F5F5F5F5F5F5F5F5F5F5F5F5F5F5F5F5F5F5F5F5F5F5F5F5F5F5F5F5
310
F5F5F5F5F5F5F5F5F5F5F5F5F5F5F5F5F5F5F5F5F5F5F5F5F5F5F5F5F5F5F5F5F5F5F5F5F5F5F5F5F5F5F5F5F5F5F5F5F5F5F5F5F5F5F5F5F5F5F5F5F5F5F5F5F5F5F5F5F5F5F5F5F5F5F5F5F5F5F5F5F5F5F5F5F5F5F5F5F5F5F5F5F5F5F5F5F5F5F5F5F5F5F5F5F5E2F5F5F5E2E2EFF5F5F5E2F5F5F5F5F5F5F5F5F5F5F5
310
F5F5F5F5F5F5F5F5F5F5F5F5F5F5F5F5F5F5F5F5F5F5F5F5F5F5F5F5F5F5F5F5F5F5F5F5F5F5F5F5F5F5F5F5F5F5F5F5F5F5F5F5F5F5F5F5F5F5F5F5F5F5F5F5F5F5F5F5F5F5F5F5F5F5F5F5F5F5F5F5F5F5F5F5F5F5F5F5F5F5F5F5F5F5F5F5F5F5F5F5F5F5F5F5F5F5F5F5F5F5F5F5F5F5F5F5F5F5F5F5F5F5F5F5F5F5F5
310
F5F5F5F5F5F5F5F5F5F5F5F5F5F5F5F5F5F5F5F5F5F5F5F5F5F5F5F5F5F5F5E2F5F5F5E2E2EFF5F5F5E2E2E2E2E2E2E2E2F5F5F5F5F5F5F5F5F5E2E2E2E2E2E2E2E2E2E2E2E2E2E2E2E2F5F5F5F5F5F5F5F5E2E2E2E2E2E2E2E2E2E2E2E2E2E2E2E2F5F5F5F5F5F5F5F5F5E2E2E2E2E2E2E2E2E2E2E2E2E2E2E2F5F5F5F5F5
310
F5F5F5F5E2E2E2E2E2E2E2E2E2E2E2E2E2E2E2F5F5F5F5F5F5F5F5F5E2E2E2E2E2E2E2E2E2E2E2E2E2E2E2E2F5F5F5F5F5F5F5F5E2E2E2E2E2E2E2E2E2E2E2E2E2E2E2E2F5F5F5F5F5F5F5F5F5E2E2E2E2E2E2E2E2F5F5F5E2E2EFF5F5F5F5F5F5F5F5F5F5F5F5F5F5F5F5F5F5F5F5F5F5F5F5F5F5F5F5F5F5F5F5F5F5F5F5
310
F5F5F5F5F5F5F5F5F5F5F5F5F5F5F5F5F5F5F5F5F5F5F5F5F5F5F5F5F5F5F5F5F5F5F5F5F5F5F5F5F5F5F5F5F5F5F5F5F5F5F5F5F5F5F5F5F5F5F5F5F5F5F5F5F5F5F5F5F5F5F5F5F5F5F5F5F5F5F5F5F5F5F5F5F5F5F5F5F5F5F5F5F5F5F5F5F5F5F5F5F5F5F5F5F5F5F5F5F5F5F5F5F5F5F5F5F5F5F5F5F5F5F5F5F5F5F5
310
F5F5F5F5F5F5F5F5F5F5F5F5F5F5E2E2EFF5F5F5F5F5F5F5F5F5F5F5F5F5F5F5F5F5F5F5F5F5F5F5F5F5F5F5F5F5F5F5F5F5F5F5F5F5F5F5F5F5F5F5F5F5F5F5F5F5F5F5F5F5F5F5F5F5F5F5F5F5F5F5F5F5F5F5F5F5F5F5F5F5F5F5F5F5F5F5F5F5F5F5F5F5F5F5F5F5F5F5F5F5F5F5F5F5F5F5F5F5F5F5F5F5F5F5F5F5F5
310
F5F5F5F5F5F5F5F5F5F5F5F5F5F5F5F5F5F5F5F5F5F5F5F5F5F5F5F5F5F5F5F5F5F5F5F5F5F5F5F5F5F5F5F5F5F5F5F5F5F5F5F5F5F5F5F5F5F5F5F5F5F5F5F5F5F5F5E2EFEFF5F5F5F5F5F5F5F5F5F5F5F5F5F5F5F5F5F5F5F5F5F5F5F5F5F5F5F5F5F5F5F5F5F5F5F5F5F5F5F5F5F5F5F5F5F5F5F5F5F5F5F5F5F5F5F5F5
310
F5F5F5F5F5F5F5F5F5F5F5F5F5F5F5F5F5F5F5F5F5F5F5F5F5F5F5F5F5F5F5F5F5F5F5F5F5F5F5F5F5F5F5F5F5F5F5F5F5F5F5F5F5F5F5F5F5F5F5F5F5F5F5F5F5F5F5F5F5F5F5F5F5F5F5F5F5F5F5F5F5F5F5F5F5F5F5F5F5F5F5F5F5F5F5F5F5F5F5F5F5F5F5F5F5F5F5F5F5F5F5F5F5F5F5F5F5F5F5F5E2EFEFE2E2E2E2
310
E2E2E2E2E2E2E2E2E2E2E2E2E2E2E2E2E2E2E2E2E2E2E2E2E2E2E2E2E2E2E2E2E2E2E2E2E2E2E2E2E2E2E2E2E2E2E2E2E2E2E2E2E2E2E2E2E2E2E2E2E2E2E2E2E2E2E2E2E2E2E2E2E2E2E2E2E2E2E2E2E2E2E2E2E2E2E2E2E2E2E2E2E2E2E2E2E2E2E2E2E2E2E2E2E2E2E2E2E2E2E2E2E2E2E2E2E2E2E2E2E2E2E2E2E2E2E2
310
E2E2E2E2E2E2E2E2E2E2E2E2E2E2E2E2E2E2E2E2E2E2E2E2E2E2E2E2E2E2E2E2E2E2E2E2E2E2E2E2E2E2E2E2E2E2E2EFEF
  0
ENDSEC
  0
EOF
