  0
SECTION
  2
HEADER
  9
$ACADVER
  1
AC1018
  9
$ACADMAINTVER
 70
     0
  9
$DWGCODEPAGE
  3
ANSI_1252
  9
$AUTHOR
  1
g6edxjah
  9
$LASTSAVEDBY
  1
g6edxjah
  9
$INSBASE
 10
0.0
 20
0.0
 30
0.0
  9
$EXTMIN
 10
68.85275
 20
-58.717729
 30
0.0
  9
$EXTMAX
 10
79.853635
 20
-50.217042
 30
0.0
  9
$LIMMIN
 10
46.548073
 20
-82.272505
  9
$LIMMAX
 10
102.158312
 20
-26.662266
  9
$ORTHOMODE
 70
     0
  9
$REGENMODE
 70
     1
  9
$FILLMODE
 70
     1
  9
$QTEXTMODE
 70
     0
  9
$MIRRTEXT
 70
     0
  9
$LTSCALE
 40
1.0
  9
$ATTMODE
 70
     1
  9
$TEXTSIZE
 40
0.050625
  9
$TRACEWID
 40
0.05
  9
$TEXTSTYLE
  7
Standard
  9
$CLAYER
  8
Level 10
  9
$CELTYPE
  6
Continuous
  9
$CECOLOR
 62
     7
  9
$CELTSCALE
 40
1.0
  9
$DISPSILH
 70
     0
  9
$DIMSCALE
 40
1.0
  9
$DIMASZ
 40
0.050625
  9
$DIMEXO
 40
0.025312
  9
$DIMDLI
 40
0.0
  9
$DIMRND
 40
0.0
  9
$DIMDLE
 40
0.0
  9
$DIMEXE
 40
0.025312
  9
$DIMTP
 40
0.0
  9
$DIMTM
 40
0.0
  9
$DIMTXT
 40
0.050625
  9
$DIMCEN
 40
0.09
  9
$DIMTSZ
 40
0.0
  9
$DIMTOL
 70
     0
  9
$DIMLIM
 70
     0
  9
$DIMTIH
 70
     0
  9
$DIMTOH
 70
     0
  9
$DIMSE1
 70
     0
  9
$DIMSE2
 70
     0
  9
$DIMTAD
 70
     1
  9
$DIMZIN
 70
    11
  9
$DIMBLK
  1
TerminatorOpen_0.5
  9
$DIMASO
 70
     1
  9
$DIMSHO
 70
     1
  9
$DIMPOST
  1

  9
$DIMAPOST
  1

  9
$DIMALT
 70
     0
  9
$DIMALTD
 70
     4
  9
$DIMALTF
 40
25.4
  9
$DIMLFAC
 40
1.0
  9
$DIMTOFL
 70
     0
  9
$DIMTVP
 40
0.0
  9
$DIMTIX
 70
     0
  9
$DIMSOXD
 70
     0
  9
$DIMSAH
 70
     0
  9
$DIMBLK1
  1

  9
$DIMBLK2
  1

  9
$DIMSTYLE
  2
Standard
  9
$DIMCLRD
 70
     0
  9
$DIMCLRE
 70
     0
  9
$DIMCLRT
 70
     0
  9
$DIMTFAC
 40
1.0
  9
$DIMGAP
 40
0.025312
  9
$DIMJUST
 70
     0
  9
$DIMSD1
 70
     0
  9
$DIMSD2
 70
     0
  9
$DIMTOLJ
 70
     0
  9
$DIMTZIN
 70
    11
  9
$DIMALTZ
 70
    15
  9
$DIMALTTZ
 70
    15
  9
$DIMUPT
 70
     0
  9
$DIMDEC
 70
     4
  9
$DIMTDEC
 70
     4
  9
$DIMALTU
 70
     2
  9
$DIMALTTD
 70
     4
  9
$DIMTXSTY
  7
Style-Arial
  9
$DIMAUNIT
 70
     0
  9
$DIMADEC
 70
     4
  9
$DIMALTRND
 40
0.0
  9
$DIMAZIN
 70
     3
  9
$DIMDSEP
 70
    46
  9
$DIMATFIT
 70
     1
  9
$DIMFRAC
 70
     0
  9
$DIMLDRBLK
  1
TerminatorOpen_0.5
  9
$DIMLUNIT
 70
     2
  9
$DIMLWD
 70
    -2
  9
$DIMLWE
 70
    -2
  9
$DIMTMOVE
 70
     0
  9
$LUNITS
 70
     2
  9
$LUPREC
 70
     4
  9
$SKETCHINC
 40
0.1
  9
$FILLETRAD
 40
0.0
  9
$AUNITS
 70
     0
  9
$AUPREC
 70
     4
  9
$MENU
  1
.
  9
$ELEVATION
 40
0.0
  9
$PELEVATION
 40
0.0
  9
$THICKNESS
 40
0.0
  9
$LIMCHECK
 70
     0
  9
$CHAMFERA
 40
0.0
  9
$CHAMFERB
 40
0.0
  9
$CHAMFERC
 40
0.0
  9
$CHAMFERD
 40
0.0
  9
$SKPOLY
 70
     0
  9
$TDCREATE
 40
2455364.540355197
  9
$TDUCREATE
 40
2455364.74868853
  9
$TDUPDATE
 40
2455364.540355197
  9
$TDUUPDATE
 40
2455364.74868853
  9
$TDINDWG
 40
0.0
  9
$TDUSRTIMER
 40
0.0006630093
  9
$USRTIMER
 70
     1
  9
$ANGBASE
 50
0.0
  9
$ANGDIR
 70
     0
  9
$PDMODE
 70
     0
  9
$PDSIZE
 40
0.0
  9
$PLINEWID
 40
0.0
  9
$SPLFRAME
 70
     0
  9
$SPLINETYPE
 70
     6
  9
$SPLINESEGS
 70
     8
  9
$HANDSEED
  5
3F1
  9
$SURFTAB1
 70
     6
  9
$SURFTAB2
 70
     6
  9
$SURFTYPE
 70
     6
  9
$SURFU
 70
     6
  9
$SURFV
 70
     6
  9
$UCSBASE
  2

  9
$UCSNAME
  2

  9
$UCSORG
 10
0.0
 20
0.0
 30
0.0
  9
$UCSXDIR
 10
1.0
 20
0.0
 30
0.0
  9
$UCSYDIR
 10
0.0
 20
1.0
 30
0.0
  9
$UCSORTHOREF
  2

  9
$UCSORTHOVIEW
 70
     0
  9
$UCSORGTOP
 10
0.0
 20
0.0
 30
0.0
  9
$UCSORGBOTTOM
 10
0.0
 20
0.0
 30
0.0
  9
$UCSORGLEFT
 10
0.0
 20
0.0
 30
0.0
  9
$UCSORGRIGHT
 10
0.0
 20
0.0
 30
0.0
  9
$UCSORGFRONT
 10
0.0
 20
0.0
 30
0.0
  9
$UCSORGBACK
 10
0.0
 20
0.0
 30
0.0
  9
$PUCSBASE
  2

  9
$PUCSNAME
  2

  9
$PUCSORG
 10
0.0
 20
0.0
 30
0.0
  9
$PUCSXDIR
 10
1.0
 20
0.0
 30
0.0
  9
$PUCSYDIR
 10
0.0
 20
1.0
 30
0.0
  9
$PUCSORTHOREF
  2

  9
$PUCSORTHOVIEW
 70
     0
  9
$PUCSORGTOP
 10
0.0
 20
0.0
 30
0.0
  9
$PUCSORGBOTTOM
 10
0.0
 20
0.0
 30
0.0
  9
$PUCSORGLEFT
 10
0.0
 20
0.0
 30
0.0
  9
$PUCSORGRIGHT
 10
0.0
 20
0.0
 30
0.0
  9
$PUCSORGFRONT
 10
0.0
 20
0.0
 30
0.0
  9
$PUCSORGBACK
 10
0.0
 20
0.0
 30
0.0
  9
$USERI1
 70
     0
  9
$USERI2
 70
     0
  9
$USERI3
 70
     0
  9
$USERI4
 70
     0
  9
$USERI5
 70
     0
  9
$USERR1
 40
0.0
  9
$USERR2
 40
0.0
  9
$USERR3
 40
0.0
  9
$USERR4
 40
0.0
  9
$USERR5
 40
0.0
  9
$WORLDVIEW
 70
     1
  9
$SHADEDGE
 70
     3
  9
$SHADEDIF
 70
    70
  9
$TILEMODE
 70
     1
  9
$MAXACTVP
 70
    64
  9
$PINSBASE
 10
0.0
 20
0.0
 30
0.0
  9
$PLIMCHECK
 70
     0
  9
$PEXTMIN
 10
1.049744
 20
0.799667
 30
-0.001526
  9
$PEXTMAX
 10
9.450623
 20
7.200577
 30
0.0
  9
$PLIMMIN
 10
-0.25
 20
-0.25
  9
$PLIMMAX
 10
10.75
 20
8.25
  9
$UNITMODE
 70
     0
  9
$VISRETAIN
 70
     1
  9
$PLINEGEN
 70
     0
  9
$PSLTSCALE
 70
     0
  9
$TREEDEPTH
 70
  3020
  9
$CMLSTYLE
  2
Standard
  9
$CMLJUST
 70
     0
  9
$CMLSCALE
 40
1.0
  9
$PROXYGRAPHICS
 70
     1
  9
$MEASUREMENT
 70
     0
  9
$CELWEIGHT
370
    53
  9
$ENDCAPS
280
     0
  9
$JOINSTYLE
280
     0
  9
$LWDISPLAY
290
     1
  9
$INSUNITS
 70
     2
  9
$HYPERLINKBASE
  1

  9
$STYLESHEET
  1

  9
$XEDIT
290
     1
  9
$CEPSNTYPE
380
     0
  9
$PSTYLEMODE
290
     1
  9
$FINGERPRINTGUID
  2
{02C0BBB5-38A7-4FBF-829E-00875EC88963}
  9
$VERSIONGUID
  2
{82C521FC-BF81-46B3-825E-420B6BD93A99}
  9
$EXTNAMES
290
     1
  9
$PSVPSCALE
 40
0.0
  9
$OLESTARTUP
290
     0
  9
$SORTENTS
280
   127
  9
$INDEXCTL
280
     0
  9
$HIDETEXT
280
     1
  9
$XCLIPFRAME
290
     0
  9
$HALOGAP
280
     0
  9
$OBSCOLOR
 70
   257
  9
$OBSLTYPE
280
     0
  9
$INTERSECTIONDISPLAY
280
     0
  9
$INTERSECTIONCOLOR
 70
   257
  9
$DIMASSOC
280
     1
  9
$PROJECTNAME
  1

  0
ENDSEC
  0
SECTION
  2
CLASSES
  0
CLASS
  1
ACDBDICTIONARYWDFLT
  2
AcDbDictionaryWithDefault
  3
ObjectDBX Classes
 90
        0
 91
        3
280
     0
281
     0
  0
CLASS
  1
SORTENTSTABLE
  2
AcDbSortentsTable
  3
ObjectDBX Classes
 90
        0
 91
        3
280
     0
281
     0
  0
ENDSEC
  0
SECTION
  2
TABLES
  0
TABLE
  2
VPORT
  5
3D8
330
0
100
AcDbSymbolTable
 70
     4
  0
VPORT
  5
49
330
3D8
100
AcDbSymbolTableRecord
100
AcDbViewportTableRecord
  2
*ACTIVE
 70
     0
 10
0.0
 20
0.0
 11
1.0
 21
1.0
 12
74.353193
 22
-54.467385
 13
0.0
 23
0.0
 14
0.083333
 24
0.083333
 15
0.083333
 25
0.083333
 16
0.0
 26
0.0
 36
1.0
 17
0.0
 27
0.0
 37
0.0
 40
8.840715
 41
1.884937
 42
50.0
 43
0.0
 44
0.0
 50
0.0
 51
0.0
 71
     0
 72
   100
 73
     1
 74
     2
 75
     0
 76
     0
 77
     0
 78
     1
281
     0
 65
     1
110
0.0
120
0.0
130
0.0
111
1.0
121
0.0
131
0.0
112
0.0
122
1.0
132
0.0
 79
     0
146
0.0
  0
ENDTAB
  0
TABLE
  2
LTYPE
  5
3BF
330
0
100
AcDbSymbolTable
 70
     1
  0
LTYPE
  5
3C0
330
3BF
100
AcDbSymbolTableRecord
100
AcDbLinetypeTableRecord
  2
ByBlock
 70
     0
  3

 72
    65
 73
     0
 40
0.0
  0
LTYPE
  5
3C1
330
3BF
100
AcDbSymbolTableRecord
100
AcDbLinetypeTableRecord
  2
ByLayer
 70
     0
  3

 72
    65
 73
     0
 40
0.0
  0
LTYPE
  5
3BE
330
3BF
100
AcDbSymbolTableRecord
100
AcDbLinetypeTableRecord
  2
Continuous
 70
     0
  3
Solid line
 72
    65
 73
     0
 40
0.0
  0
ENDTAB
  0
TABLE
  2
LAYER
  5
3B8
102
{ACAD_XDICTIONARY
360
3B9
102
}
330
0
100
AcDbSymbolTable
 70
    64
  0
LAYER
  5
3B7
330
3B8
100
AcDbSymbolTableRecord
100
AcDbLayerTableRecord
  2
0
 70
     0
 62
     7
  6
Continuous
370
    -3
390
3BB
  0
LAYER
  5
7
330
3B8
100
AcDbSymbolTableRecord
100
AcDbLayerTableRecord
  2
Level 1
 70
     0
 62
     7
  6
Continuous
370
     0
390
3BB
  0
LAYER
  5
8
330
3B8
100
AcDbSymbolTableRecord
100
AcDbLayerTableRecord
  2
2-30K
 70
     0
 62
     7
  6
Continuous
370
     0
390
3BB
1001
AcAecLayerStandard
1000

1000
2-30K
  0
LAYER
  5
9
330
3B8
100
AcDbSymbolTableRecord
100
AcDbLayerTableRecord
  2
DIM
 70
     0
 62
     7
  6
Continuous
370
     0
390
3BB
1001
AcAecLayerStandard
1000

1000
DIM
  0
LAYER
  5
A
330
3B8
100
AcDbSymbolTableRecord
100
AcDbLayerTableRecord
  2
LEGEND
 70
     0
 62
     7
  6
Continuous
370
     0
390
3BB
1001
AcAecLayerStandard
1000

1000
LEGEND
  0
LAYER
  5
B
330
3B8
100
AcDbSymbolTableRecord
100
AcDbLayerTableRecord
  2
HATCH
 70
     0
 62
     7
  6
Continuous
370
     0
390
3BB
1001
AcAecLayerStandard
1000

1000
HATCH
  0
LAYER
  5
C
330
3B8
100
AcDbSymbolTableRecord
100
AcDbLayerTableRecord
  2
TEXT
 70
     0
 62
     7
  6
Continuous
370
     0
390
3BB
1001
AcAecLayerStandard
1000

1000
TEXT
  0
LAYER
  5
D
330
3B8
100
AcDbSymbolTableRecord
100
AcDbLayerTableRecord
  2
TITLE
 70
     0
 62
     7
  6
Continuous
370
     0
390
3BB
1001
AcAecLayerStandard
1000

1000
TITLE
  0
LAYER
  5
E
330
3B8
100
AcDbSymbolTableRecord
100
AcDbLayerTableRecord
  2
Level 8
 70
     0
 62
     7
  6
Continuous
370
     0
390
3BB
  0
LAYER
  5
F
330
3B8
100
AcDbSymbolTableRecord
100
AcDbLayerTableRecord
  2
Level 9
 70
     0
 62
     7
  6
Continuous
370
     0
390
3BB
  0
LAYER
  5
10
330
3B8
100
AcDbSymbolTableRecord
100
AcDbLayerTableRecord
  2
Level 10
 70
     0
 62
     7
  6
Continuous
370
     0
390
3BB
  0
LAYER
  5
11
330
3B8
100
AcDbSymbolTableRecord
100
AcDbLayerTableRecord
  2
Level 11
 70
     0
 62
     7
  6
Continuous
370
     0
390
3BB
  0
LAYER
  5
12
330
3B8
100
AcDbSymbolTableRecord
100
AcDbLayerTableRecord
  2
Level 12
 70
     0
 62
     7
  6
Continuous
370
     0
390
3BB
  0
LAYER
  5
13
330
3B8
100
AcDbSymbolTableRecord
100
AcDbLayerTableRecord
  2
Level 13
 70
     0
 62
     7
  6
Continuous
370
     0
390
3BB
  0
LAYER
  5
14
330
3B8
100
AcDbSymbolTableRecord
100
AcDbLayerTableRecord
  2
Level 14
 70
     0
 62
     7
  6
Continuous
370
     0
390
3BB
  0
LAYER
  5
15
330
3B8
100
AcDbSymbolTableRecord
100
AcDbLayerTableRecord
  2
Level 15
 70
     0
 62
     7
  6
Continuous
370
     0
390
3BB
  0
LAYER
  5
16
330
3B8
100
AcDbSymbolTableRecord
100
AcDbLayerTableRecord
  2
Level 16
 70
     0
 62
     7
  6
Continuous
370
     0
390
3BB
  0
LAYER
  5
17
330
3B8
100
AcDbSymbolTableRecord
100
AcDbLayerTableRecord
  2
Level 17
 70
     0
 62
     7
  6
Continuous
370
     0
390
3BB
  0
LAYER
  5
18
330
3B8
100
AcDbSymbolTableRecord
100
AcDbLayerTableRecord
  2
Level 18
 70
     0
 62
     7
  6
Continuous
370
     0
390
3BB
  0
LAYER
  5
19
330
3B8
100
AcDbSymbolTableRecord
100
AcDbLayerTableRecord
  2
Level 19
 70
     0
 62
     7
  6
Continuous
370
     0
390
3BB
  0
LAYER
  5
1A
330
3B8
100
AcDbSymbolTableRecord
100
AcDbLayerTableRecord
  2
Level 20
 70
     0
 62
     7
  6
Continuous
370
     0
390
3BB
  0
LAYER
  5
1B
330
3B8
100
AcDbSymbolTableRecord
100
AcDbLayerTableRecord
  2
Level 21
 70
     0
 62
     7
  6
Continuous
370
     0
390
3BB
  0
LAYER
  5
1C
330
3B8
100
AcDbSymbolTableRecord
100
AcDbLayerTableRecord
  2
Level 22
 70
     0
 62
     7
  6
Continuous
370
     0
390
3BB
  0
LAYER
  5
1D
330
3B8
100
AcDbSymbolTableRecord
100
AcDbLayerTableRecord
  2
Level 23
 70
     0
 62
     7
  6
Continuous
370
     0
390
3BB
  0
LAYER
  5
1E
330
3B8
100
AcDbSymbolTableRecord
100
AcDbLayerTableRecord
  2
Level 24
 70
     0
 62
     7
  6
Continuous
370
     0
390
3BB
  0
LAYER
  5
1F
330
3B8
100
AcDbSymbolTableRecord
100
AcDbLayerTableRecord
  2
Level 25
 70
     0
 62
     7
  6
Continuous
370
     0
390
3BB
  0
LAYER
  5
20
330
3B8
100
AcDbSymbolTableRecord
100
AcDbLayerTableRecord
  2
Level 26
 70
     0
 62
     7
  6
Continuous
370
     0
390
3BB
  0
LAYER
  5
21
330
3B8
100
AcDbSymbolTableRecord
100
AcDbLayerTableRecord
  2
Level 27
 70
     0
 62
     7
  6
Continuous
370
     0
390
3BB
  0
LAYER
  5
22
330
3B8
100
AcDbSymbolTableRecord
100
AcDbLayerTableRecord
  2
Level 28
 70
     0
 62
     7
  6
Continuous
370
     0
390
3BB
  0
LAYER
  5
23
330
3B8
100
AcDbSymbolTableRecord
100
AcDbLayerTableRecord
  2
Level 29
 70
     0
 62
     7
  6
Continuous
370
     0
390
3BB
  0
LAYER
  5
24
330
3B8
100
AcDbSymbolTableRecord
100
AcDbLayerTableRecord
  2
Level 30
 70
     0
 62
     7
  6
Continuous
370
     0
390
3BB
  0
LAYER
  5
25
330
3B8
100
AcDbSymbolTableRecord
100
AcDbLayerTableRecord
  2
Level 31
 70
     0
 62
     7
  6
Continuous
370
     0
390
3BB
  0
LAYER
  5
26
330
3B8
100
AcDbSymbolTableRecord
100
AcDbLayerTableRecord
  2
Level 32
 70
     0
 62
     7
  6
Continuous
370
     0
390
3BB
  0
LAYER
  5
27
330
3B8
100
AcDbSymbolTableRecord
100
AcDbLayerTableRecord
  2
Level 33
 70
     0
 62
     7
  6
Continuous
370
     0
390
3BB
  0
LAYER
  5
28
330
3B8
100
AcDbSymbolTableRecord
100
AcDbLayerTableRecord
  2
Level 34
 70
     0
 62
     7
  6
Continuous
370
     0
390
3BB
  0
LAYER
  5
29
330
3B8
100
AcDbSymbolTableRecord
100
AcDbLayerTableRecord
  2
Level 35
 70
     0
 62
     7
  6
Continuous
370
     0
390
3BB
  0
LAYER
  5
2A
330
3B8
100
AcDbSymbolTableRecord
100
AcDbLayerTableRecord
  2
Level 36
 70
     0
 62
     7
  6
Continuous
370
     0
390
3BB
  0
LAYER
  5
2B
330
3B8
100
AcDbSymbolTableRecord
100
AcDbLayerTableRecord
  2
Level 37
 70
     0
 62
     7
  6
Continuous
370
     0
390
3BB
  0
LAYER
  5
2C
330
3B8
100
AcDbSymbolTableRecord
100
AcDbLayerTableRecord
  2
Level 38
 70
     0
 62
     7
  6
Continuous
370
     0
390
3BB
  0
LAYER
  5
2D
330
3B8
100
AcDbSymbolTableRecord
100
AcDbLayerTableRecord
  2
Level 39
 70
     0
 62
     7
  6
Continuous
370
     0
390
3BB
  0
LAYER
  5
2E
330
3B8
100
AcDbSymbolTableRecord
100
AcDbLayerTableRecord
  2
Level 40
 70
     0
 62
     7
  6
Continuous
370
     0
390
3BB
  0
LAYER
  5
2F
330
3B8
100
AcDbSymbolTableRecord
100
AcDbLayerTableRecord
  2
Level 41
 70
     0
 62
     7
  6
Continuous
370
     0
390
3BB
  0
LAYER
  5
30
330
3B8
100
AcDbSymbolTableRecord
100
AcDbLayerTableRecord
  2
Level 42
 70
     0
 62
     7
  6
Continuous
370
     0
390
3BB
  0
LAYER
  5
31
330
3B8
100
AcDbSymbolTableRecord
100
AcDbLayerTableRecord
  2
Level 43
 70
     0
 62
     7
  6
Continuous
370
     0
390
3BB
  0
LAYER
  5
32
330
3B8
100
AcDbSymbolTableRecord
100
AcDbLayerTableRecord
  2
Level 44
 70
     0
 62
     7
  6
Continuous
370
     0
390
3BB
  0
LAYER
  5
33
330
3B8
100
AcDbSymbolTableRecord
100
AcDbLayerTableRecord
  2
Level 45
 70
     0
 62
     7
  6
Continuous
370
     0
390
3BB
  0
LAYER
  5
34
330
3B8
100
AcDbSymbolTableRecord
100
AcDbLayerTableRecord
  2
Level 46
 70
     0
 62
     7
  6
Continuous
370
     0
390
3BB
  0
LAYER
  5
35
330
3B8
100
AcDbSymbolTableRecord
100
AcDbLayerTableRecord
  2
Level 47
 70
     0
 62
     7
  6
Continuous
370
     0
390
3BB
  0
LAYER
  5
36
330
3B8
100
AcDbSymbolTableRecord
100
AcDbLayerTableRecord
  2
Level 48
 70
     0
 62
     7
  6
Continuous
370
     0
390
3BB
  0
LAYER
  5
37
330
3B8
100
AcDbSymbolTableRecord
100
AcDbLayerTableRecord
  2
Level 49
 70
     0
 62
     7
  6
Continuous
370
     0
390
3BB
  0
LAYER
  5
38
330
3B8
100
AcDbSymbolTableRecord
100
AcDbLayerTableRecord
  2
Level 50
 70
     0
 62
     7
  6
Continuous
370
     0
390
3BB
  0
LAYER
  5
39
330
3B8
100
AcDbSymbolTableRecord
100
AcDbLayerTableRecord
  2
Level 51
 70
     0
 62
     7
  6
Continuous
370
     0
390
3BB
  0
LAYER
  5
3A
330
3B8
100
AcDbSymbolTableRecord
100
AcDbLayerTableRecord
  2
Level 52
 70
     0
 62
     7
  6
Continuous
370
     0
390
3BB
  0
LAYER
  5
3B
330
3B8
100
AcDbSymbolTableRecord
100
AcDbLayerTableRecord
  2
Level 53
 70
     0
 62
     7
  6
Continuous
370
     0
390
3BB
  0
LAYER
  5
3C
330
3B8
100
AcDbSymbolTableRecord
100
AcDbLayerTableRecord
  2
Level 54
 70
     0
 62
     7
  6
Continuous
370
     0
390
3BB
  0
LAYER
  5
3D
330
3B8
100
AcDbSymbolTableRecord
100
AcDbLayerTableRecord
  2
Level 55
 70
     0
 62
     7
  6
Continuous
370
     0
390
3BB
  0
LAYER
  5
3E
330
3B8
100
AcDbSymbolTableRecord
100
AcDbLayerTableRecord
  2
Level 56
 70
     0
 62
     7
  6
Continuous
370
     0
390
3BB
  0
LAYER
  5
3F
330
3B8
100
AcDbSymbolTableRecord
100
AcDbLayerTableRecord
  2
Level 57
 70
     0
 62
     7
  6
Continuous
370
     0
390
3BB
  0
LAYER
  5
40
330
3B8
100
AcDbSymbolTableRecord
100
AcDbLayerTableRecord
  2
Level 58
 70
     0
 62
     7
  6
Continuous
370
     0
390
3BB
  0
LAYER
  5
41
330
3B8
100
AcDbSymbolTableRecord
100
AcDbLayerTableRecord
  2
Level 59
 70
     0
 62
     7
  6
Continuous
370
     0
390
3BB
  0
LAYER
  5
42
330
3B8
100
AcDbSymbolTableRecord
100
AcDbLayerTableRecord
  2
Level 60
 70
     0
 62
     7
  6
Continuous
370
     0
390
3BB
  0
LAYER
  5
43
330
3B8
100
AcDbSymbolTableRecord
100
AcDbLayerTableRecord
  2
Level 61
 70
     0
 62
     7
  6
Continuous
370
     0
390
3BB
  0
LAYER
  5
44
330
3B8
100
AcDbSymbolTableRecord
100
AcDbLayerTableRecord
  2
Level 62
 70
     0
 62
     7
  6
Continuous
370
     0
390
3BB
  0
LAYER
  5
45
330
3B8
100
AcDbSymbolTableRecord
100
AcDbLayerTableRecord
  2
_0
 70
     0
 62
     7
  6
Continuous
370
     0
390
3BB
1001
AcAecLayerStandard
1000

1000
0
  0
ENDTAB
  0
TABLE
  2
STYLE
  5
3C3
330
0
100
AcDbSymbolTable
 70
     2
  0
STYLE
  5
3C2
330
3C3
100
AcDbSymbolTableRecord
100
AcDbTextStyleTableRecord
  2
Standard
 70
     0
 40
0.0
 41
1.0
 50
0.0
 71
     0
 42
0.050625
  3
txt
  4

  0
STYLE
  5
3E2
330
3C3
100
AcDbSymbolTableRecord
100
AcDbTextStyleTableRecord
  2
Style-Arial
 70
     0
 40
0.0
 41
1.0
 50
0.0
 71
     0
 42
0.2
  3

  4

1001
ACAD
1000
Arial
1071
       39
  0
ENDTAB
  0
TABLE
  2
VIEW
  5
3D6
330
0
100
AcDbSymbolTable
 70
     0
  0
ENDTAB
  0
TABLE
  2
UCS
  5
3D7
330
0
100
AcDbSymbolTable
 70
     0
  0
ENDTAB
  0
TABLE
  2
APPID
  5
3D5
330
0
100
AcDbSymbolTable
 70
     3
  0
APPID
  5
3DD
330
3D5
100
AcDbSymbolTableRecord
100
AcDbRegAppTableRecord
  2
ACAD
 70
     0
  0
APPID
  5
3D4
330
3D5
100
AcDbSymbolTableRecord
100
AcDbRegAppTableRecord
  2
ACAD_PSEXT
 70
     0
  0
APPID
  5
3DF
330
3D5
100
AcDbSymbolTableRecord
100
AcDbRegAppTableRecord
  2
AcAecLayerStandard
 70
     0
  0
ENDTAB
  0
TABLE
  2
DIMSTYLE
  5
3C5
330
0
100
AcDbSymbolTable
 70
     1
100
AcDbDimStyleTable
  0
DIMSTYLE
105
3C4
330
3C5
100
AcDbSymbolTableRecord
100
AcDbDimStyleTableRecord
  2
Standard
 70
     0
340
3C2
  0
ENDTAB
  0
TABLE
  2
BLOCK_RECORD
  5
3C8
330
0
100
AcDbSymbolTable
 70
     1
  0
BLOCK_RECORD
  5
3C9
102
{ACAD_XDICTIONARY
360
3EC
102
}
330
3C8
100
AcDbSymbolTableRecord
100
AcDbBlockTableRecord
  2
*Model_Space
340
3CC
  0
BLOCK_RECORD
  5
3CE
330
3C8
100
AcDbSymbolTableRecord
100
AcDbBlockTableRecord
  2
*Paper_Space
340
3D1
  0
BLOCK_RECORD
  5
3E3
330
3C8
100
AcDbSymbolTableRecord
100
AcDbBlockTableRecord
  2
TerminatorOpen_0.5
340
0
  0
ENDTAB
  0
ENDSEC
  0
SECTION
  2
BLOCKS
  0
BLOCK
  5
3CA
330
3C9
100
AcDbEntity
  8
0
100
AcDbBlockBegin
  2
*Model_Space
 70
     0
 71
     0
 10
0.0
 20
0.0
 30
0.0
  3
*Model_Space
  1

  0
ENDBLK
  5
3CB
330
3C9
100
AcDbEntity
  8
0
100
AcDbBlockEnd
  0
BLOCK
  5
3CF
330
3CE
100
AcDbEntity
 67
     1
  8
0
100
AcDbBlockBegin
  2
*Paper_Space
 70
     0
 71
     0
 10
0.0
 20
0.0
 30
0.0
  3
*Paper_Space
  1

  0
ENDBLK
  5
3D0
330
3CE
100
AcDbEntity
 67
     1
  8
0
100
AcDbBlockEnd
  0
BLOCK
  5
3E7
330
3E3
100
AcDbEntity
  8
0
100
AcDbBlockBegin
  2
TerminatorOpen_0.5
 70
     0
 71
     0
 10
0.0
 20
0.0
 30
0.0
  3
TerminatorOpen_0.5
  1

  0
LINE
  5
3E4
330
3E3
100
AcDbEntity
  8
0
  6
ByBlock
 62
     0
370
    -2
100
AcDbLine
 10
0.0
 20
0.0
 30
0.0
 11
-1.0
 21
0.0
 31
0.0
  0
LINE
  5
3E5
330
3E3
100
AcDbEntity
  8
0
  6
ByBlock
 62
     0
370
    -2
100
AcDbLine
 10
0.0
 20
0.0
 30
0.0
 11
-1.0
 21
0.25
 31
0.0
  0
LINE
  5
3E6
330
3E3
100
AcDbEntity
  8
0
  6
ByBlock
 62
     0
370
    -2
100
AcDbLine
 10
0.0
 20
0.0
 30
0.0
 11
-1.0
 21
-0.25
 31
0.0
  0
ENDBLK
  5
3E8
330
3E3
100
AcDbEntity
  8
0
100
AcDbBlockEnd
  0
ENDSEC
  0
SECTION
  2
ENTITIES
  0
LINE
  5
5B
330
3C9
100
AcDbEntity
  8
_0
  6
Continuous
 62
     7
370
    13
100
AcDbLine
 10
79.853635
 20
-58.717729
 30
0.0
 11
79.647073
 21
-58.717729
 31
0.0
  0
POINT
  5
5C
330
3C9
100
AcDbEntity
  8
_0
  6
Continuous
 62
     7
370
    13
100
AcDbPoint
 10
69.83974
 20
-50.842094
 30
0.0
  0
LINE
  5
5D
330
3C9
100
AcDbEntity
  8
_0
  6
Continuous
 62
     7
370
    13
100
AcDbLine
 10
79.853635
 20
-50.217042
 30
0.0
 11
79.647073
 21
-50.217042
 31
0.0
  0
LINE
  5
5E
330
3C9
100
AcDbEntity
  8
_0
  6
Continuous
 62
     7
370
    13
100
AcDbLine
 10
79.853635
 20
-58.717729
 30
0.0
 11
79.853635
 21
-58.511167
 31
0.0
  0
LINE
  5
5F
330
3C9
100
AcDbEntity
  8
_0
  6
Continuous
 62
     7
370
    13
100
AcDbLine
 10
68.85275
 20
-58.717729
 30
0.0
 11
68.85275
 21
-58.511167
 31
0.0
  0
LINE
  5
60
330
3C9
100
AcDbEntity
  8
_0
  6
Continuous
 62
     7
370
    13
100
AcDbLine
 10
79.853635
 20
-50.423604
 30
0.0
 11
79.853635
 21
-50.217042
 31
0.0
  0
LINE
  5
61
330
3C9
100
AcDbEntity
  8
_0
  6
Continuous
 62
     7
370
    13
100
AcDbLine
 10
69.059313
 20
-58.717729
 30
0.0
 11
68.85275
 21
-58.717729
 31
0.0
  0
LINE
  5
62
330
3C9
100
AcDbEntity
  8
_0
  6
Continuous
 62
     7
370
    13
100
AcDbLine
 10
69.059313
 20
-50.217042
 30
0.0
 11
68.85275
 21
-50.217042
 31
0.0
  0
LINE
  5
63
330
3C9
100
AcDbEntity
  8
_0
  6
Continuous
 62
     7
370
    13
100
AcDbLine
 10
68.85275
 20
-50.423604
 30
0.0
 11
68.85275
 21
-50.217042
 31
0.0
  0
LINE
  5
64
330
3C9
100
AcDbEntity
  8
DIM
  6
Continuous
 62
     7
370
    13
100
AcDbLine
 10
78.0535
 20
-51.821521
 30
0.0
 11
78.414229
 21
-51.821521
 31
0.0
  0
LINE
  5
65
330
3C9
100
AcDbEntity
  8
TEXT
  6
Continuous
 62
     7
370
    13
100
AcDbLine
 10
77.914125
 20
-53.316229
 30
0.0
 11
77.914125
 21
-53.408573
 31
0.0
  0
LINE
  5
66
330
3C9
100
AcDbEntity
  8
TEXT
  6
Continuous
 62
     7
370
    13
100
AcDbLine
 10
77.949375
 20
-53.266281
 30
0.0
 11
77.914125
 21
-53.316229
 31
0.0
  0
SOLID
  5
67
330
3C9
100
AcDbEntity
  8
TEXT
  6
Continuous
 62
     7
370
    13
100
AcDbTrace
 10
77.943927
 20
-53.262437
 30
0.0
 11
77.954823
 21
-53.270125
 31
0.0
 12
77.972437
 22
-53.233604
 32
0.0
 13
77.972437
 23
-53.233604
 33
0.0
  0
LINE
  5
68
330
3C9
100
AcDbEntity
  8
TEXT
  6
Continuous
 62
     7
370
    13
100
AcDbLine
 10
77.923844
 20
-52.116823
 30
0.0
 11
77.923844
 21
-52.295542
 31
0.0
  0
SOLID
  5
69
330
3C9
100
AcDbEntity
  8
TEXT
  6
Continuous
 62
     7
370
    13
100
AcDbTrace
 10
-77.917177
 20
-52.116823
 30
0.0
 11
-77.93051
 21
-52.116823
 31
0.0
 12
-77.923844
 22
-52.076823
 32
0.0
 13
-77.923844
 23
-52.076823
 33
0.0
210
0.0
220
0.0
230
-1.0
  0
SOLID
  5
6E
330
3C9
100
AcDbEntity
  8
DIM
  6
Continuous
 62
     7
370
    13
100
AcDbTrace
 10
78.0935
 20
-51.737302
 30
0.0
 11
78.0935
 21
-51.723969
 31
0.0
 12
78.0535
 22
-51.730635
 32
0.0
 13
78.0535
 23
-51.730635
 33
0.0
  0
SOLID
  5
6F
330
3C9
100
AcDbEntity
  8
DIM
  6
Continuous
 62
     7
370
    13
100
AcDbTrace
 10
77.93349
 20
-51.737302
 30
0.0
 11
77.93349
 21
-51.723969
 31
0.0
 12
77.97349
 22
-51.730635
 32
0.0
 13
77.97349
 23
-51.730635
 33
0.0
  0
LINE
  5
70
330
3C9
100
AcDbEntity
  8
DIM
  6
Continuous
 62
     7
370
    13
100
AcDbLine
 10
78.0935
 20
-51.730635
 30
0.0
 11
78.1335
 21
-51.730635
 31
0.0
  0
LINE
  5
71
330
3C9
100
AcDbEntity
  8
DIM
  6
Continuous
 62
     7
370
    13
100
AcDbLine
 10
77.93349
 20
-51.730635
 30
0.0
 11
77.89349
 21
-51.730635
 31
0.0
  0
LINE
  5
72
330
3C9
100
AcDbEntity
  8
_0
  6
Continuous
 62
     7
370
    13
100
AcDbLine
 10
78.0535
 20
-51.781521
 30
0.0
 11
78.0535
 21
-51.690635
 31
0.0
  0
SOLID
  5
73
330
3C9
100
AcDbEntity
  8
DIM
  6
Continuous
 62
     7
370
    13
100
AcDbTrace
 10
-78.0935
 20
-54.642781
 30
0.0
 11
-78.0935
 21
-54.656115
 31
0.0
 12
-78.0535
 22
-54.649448
 32
0.0
 13
-78.0535
 23
-54.649448
 33
0.0
210
0.0
220
0.0
230
-1.0
  0
LINE
  5
74
330
3C9
100
AcDbEntity
  8
DIM
  6
Continuous
 62
     7
370
    13
100
AcDbLine
 10
78.0535
 20
-54.649448
 30
0.0
 11
78.19351
 21
-54.649448
 31
0.0
  0
SOLID
  5
75
330
3C9
100
AcDbEntity
  8
DIM
  6
Continuous
 62
     7
370
    13
100
AcDbTrace
 10
-78.157896
 20
-54.642781
 30
0.0
 11
-78.157896
 21
-54.656115
 31
0.0
 12
-78.197906
 22
-54.649448
 32
0.0
 13
-78.197906
 23
-54.649448
 33
0.0
210
0.0
220
0.0
230
-1.0
  0
SOLID
  5
76
330
3C9
100
AcDbEntity
  8
DIM
  6
Continuous
 62
     7
370
    13
100
AcDbTrace
 10
78.156844
 20
-54.848375
 30
0.0
 11
78.156844
 21
-54.835042
 31
0.0
 12
78.196844
 22
-54.841708
 32
0.0
 13
78.196844
 23
-54.841708
 33
0.0
  0
SOLID
  5
77
330
3C9
100
AcDbEntity
  8
DIM
  6
Continuous
 62
     7
370
    13
100
AcDbTrace
 10
78.0135
 20
-54.848375
 30
0.0
 11
78.0135
 21
-54.835042
 31
0.0
 12
77.97349
 22
-54.841708
 32
0.0
 13
77.97349
 23
-54.841708
 33
0.0
  0
LINE
  5
78
330
3C9
100
AcDbEntity
  8
DIM
  6
Continuous
 62
     7
370
    13
100
AcDbLine
 10
78.0135
 20
-54.841708
 30
0.0
 11
78.156844
 21
-54.841708
 31
0.0
  0
LINE
  5
79
330
3C9
100
AcDbEntity
  8
DIM
  6
Continuous
 62
     7
370
    13
100
AcDbLine
 10
78.196844
 20
-54.476635
 30
0.0
 11
78.196844
 21
-54.881708
 31
0.0
  0
LINE
  5
7A
330
3C9
100
AcDbEntity
  8
_0
  6
Continuous
 62
     7
370
    13
100
AcDbLine
 10
77.97349
 20
-54.882521
 30
0.0
 11
77.97349
 21
-51.690042
 31
0.0
  0
LINE
  5
7D
330
3C9
100
AcDbEntity
  8
_0
  6
Continuous
 62
     7
370
    13
100
AcDbLine
 10
78.233094
 20
-55.330844
 30
0.0
 11
78.342083
 21
-55.330844
 31
0.0
  0
SOLID
  5
89
330
3C9
100
AcDbEntity
  8
DIM
  6
Continuous
 62
     7
370
    13
100
AcDbTrace
 10
-78.096219
 20
-53.377042
 30
0.0
 11
-78.096219
 21
-53.390375
 31
0.0
 12
-78.056219
 22
-53.383708
 32
0.0
 13
-78.056219
 23
-53.383708
 33
0.0
210
0.0
220
0.0
230
-1.0
  0
SOLID
  5
8A
330
3C9
100
AcDbEntity
  8
DIM
  6
Continuous
 62
     7
370
    13
100
AcDbTrace
 10
-78.097865
 20
-53.654281
 30
0.0
 11
-78.097865
 21
-53.667625
 31
0.0
 12
-78.057865
 22
-53.660948
 32
0.0
 13
-78.057865
 23
-53.660948
 33
0.0
210
0.0
220
0.0
230
-1.0
  0
SOLID
  5
8B
330
3C9
100
AcDbEntity
  8
DIM
  6
Continuous
 62
     7
370
    13
100
AcDbTrace
 10
-78.0935
 20
-53.915021
 30
0.0
 11
-78.0935
 21
-53.928354
 31
0.0
 12
-78.0535
 22
-53.921687
 32
0.0
 13
-78.0535
 23
-53.921687
 33
0.0
210
0.0
220
0.0
230
-1.0
  0
SOLID
  5
8C
330
3C9
100
AcDbEntity
  8
DIM
  6
Continuous
 62
     7
370
    13
100
AcDbTrace
 10
-78.092438
 20
-53.377042
 30
0.0
 11
-78.092438
 21
-53.390375
 31
0.0
 12
-78.132437
 22
-53.383708
 32
0.0
 13
-78.132437
 23
-53.383708
 33
0.0
210
0.0
220
0.0
230
-1.0
  0
SOLID
  5
8D
330
3C9
100
AcDbEntity
  8
DIM
  6
Continuous
 62
     7
370
    13
100
AcDbTrace
 10
-78.1205
 20
-53.654281
 30
0.0
 11
-78.1205
 21
-53.667625
 31
0.0
 12
-78.1605
 22
-53.660948
 32
0.0
 13
-78.1605
 23
-53.660948
 33
0.0
210
0.0
220
0.0
230
-1.0
  0
SOLID
  5
8E
330
3C9
100
AcDbEntity
  8
DIM
  6
Continuous
 62
     7
370
    13
100
AcDbTrace
 10
-78.156677
 20
-53.915021
 30
0.0
 11
-78.156677
 21
-53.928354
 31
0.0
 12
-78.196687
 22
-53.921687
 32
0.0
 13
-78.196687
 23
-53.921687
 33
0.0
210
0.0
220
0.0
230
-1.0
  0
SOLID
  5
8F
330
3C9
100
AcDbEntity
  8
DIM
  6
Continuous
 62
     7
370
    13
100
AcDbTrace
 10
78.379802
 20
-52.273187
 30
0.0
 11
78.393135
 21
-52.27301
 31
0.0
 12
78.38701
 22
-52.313094
 32
0.0
 13
78.38701
 23
-52.313094
 33
0.0
  0
SOLID
  5
90
330
3C9
100
AcDbEntity
  8
DIM
  6
Continuous
 62
     7
370
    13
100
AcDbTrace
 10
-78.291
 20
-52.019792
 30
0.0
 11
-78.277656
 21
-52.01974
 31
0.0
 12
-78.284167
 22
-52.059771
 32
0.0
 13
-78.284167
 23
-52.059771
 33
0.0
210
0.0
220
0.0
230
-1.0
  0
SOLID
  5
91
330
3C9
100
AcDbEntity
  8
DIM
  6
Continuous
 62
     7
370
    13
100
AcDbTrace
 10
78.292812
 20
-51.861875
 30
0.0
 11
78.279479
 21
-51.861708
 31
0.0
 12
78.286646
 22
-51.821792
 32
0.0
 13
78.286646
 23
-51.821792
 33
0.0
  0
SOLID
  5
92
330
3C9
100
AcDbEntity
  8
DIM
  6
Continuous
 62
     7
370
    13
100
AcDbTrace
 10
78.392615
 20
-51.862823
 30
0.0
 11
78.379281
 21
-51.862771
 31
0.0
 12
78.386115
 22
-51.822802
 32
0.0
 13
78.386115
 23
-51.822802
 33
0.0
  0
ARC
  5
93
330
3C9
100
AcDbEntity
  8
DIM
  6
Continuous
 62
     7
370
     0
100
AcDbCircle
 10
92.000423
 20
-52.072545
 30
0.0
 40
13.71663047170088
100
AcDbArc
 50
179.670869
 51
179.937256
  0
ARC
  5
94
330
3C9
100
AcDbEntity
  8
DIM
  6
Continuous
 62
     7
370
     0
100
AcDbCircle
 10
92.000423
 20
-52.072545
 30
0.0
 40
13.7166304717013
100
AcDbArc
 50
178.953925
 51
179.270231
  0
LWPOLYLINE
  5
95
330
3C9
100
AcDbEntity
  8
DIM
  6
Continuous
 62
     7
370
     0
100
AcDbPolyline
 90
        3
 70
   128
 43
0.0
 10
78.3839
 20
-52.127682
 42
0.000908
 10
78.38418
 20
-52.177155
 42
0.006749
 10
78.386972
 20
-52.310372
  0
ARC
  5
98
330
3C9
100
AcDbEntity
  8
DIM
  6
Continuous
 62
     7
370
     0
100
AcDbCircle
 10
92.000423
 20
-52.073554
 30
0.0
 40
13.61662247170215
100
AcDbArc
 50
178.944817
 51
179.777525
  0
SOLID
  5
9E
330
3C9
100
AcDbEntity
  8
DIM
  6
Continuous
 62
     7
370
    13
100
AcDbTrace
 10
78.308656
 20
-53.866479
 30
0.0
 11
78.321875
 21
-53.864771
 31
0.0
 12
78.320396
 22
-53.905292
 32
0.0
 13
78.320396
 23
-53.905292
 33
0.0
  0
SOLID
  5
9F
330
3C9
100
AcDbEntity
  8
DIM
  6
Continuous
 62
     7
370
    13
100
AcDbTrace
 10
-78.285302
 20
-53.685802
 30
0.0
 11
-78.298531
 21
-53.684094
 31
0.0
 12
-78.286792
 22
-53.645271
 32
0.0
 13
-78.286792
 23
-53.645271
 33
0.0
210
0.0
220
0.0
230
-1.0
  0
LINE
  5
A0
330
3C9
100
AcDbEntity
  8
DIM
  6
Continuous
 62
     7
370
    13
100
AcDbLine
 10
78.291917
 20
-53.684948
 30
0.0
 11
78.320396
 21
-53.905292
 31
0.0
  0
LINE
  5
A1
330
3C9
100
AcDbEntity
  8
DIM
  6
Continuous
 62
     7
370
    13
100
AcDbLine
 10
78.233187
 20
-53.916562
 30
0.0
 11
78.36674
 21
-53.900573
 31
0.0
  0
LINE
  5
A2
330
3C9
100
AcDbEntity
  8
DIM
  6
Continuous
 62
     7
370
    13
100
AcDbLine
 10
78.199583
 20
-53.656542
 30
0.0
 11
78.330969
 21
-53.640937
 31
0.0
  0
SOLID
  5
A4
330
3C9
100
AcDbEntity
  8
DIM
  6
Continuous
 62
     7
370
    13
100
AcDbTrace
 10
78.276958
 20
-53.610458
 30
0.0
 11
78.290229
 21
-53.609208
 31
0.0
 12
78.287344
 22
-53.649656
 32
0.0
 13
78.287344
 23
-53.649656
 33
0.0
  0
SOLID
  5
A5
330
3C9
100
AcDbEntity
  8
DIM
  6
Continuous
 62
     7
370
    13
100
AcDbTrace
 10
-78.258062
 20
-53.410083
 30
0.0
 11
-78.271333
 21
-53.408833
 31
0.0
 12
-78.260948
 22
-53.369635
 32
0.0
 13
-78.260948
 23
-53.369635
 33
0.0
210
0.0
220
0.0
230
-1.0
  0
LINE
  5
A6
330
3C9
100
AcDbEntity
  8
DIM
  6
Continuous
 62
     7
370
    13
100
AcDbLine
 10
78.264698
 20
-53.409458
 30
0.0
 11
78.286937
 21
-53.64526
 31
0.0
  0
SOLID
  5
A8
330
3C9
100
AcDbEntity
  8
DIM
  6
Continuous
 62
     7
370
    13
100
AcDbTrace
 10
78.2495
 20
-53.328
 30
0.0
 11
78.26275
 21
-53.326469
 31
0.0
 12
78.260708
 22
-53.366969
 32
0.0
 13
78.260708
 23
-53.366969
 33
0.0
  0
SOLID
  5
A9
330
3C9
100
AcDbEntity
  8
DIM
  6
Continuous
 62
     7
370
    13
100
AcDbTrace
 10
-78.228667
 20
-53.147448
 30
0.0
 11
-78.241917
 21
-53.145927
 31
0.0
 12
-78.230708
 22
-53.106948
 32
0.0
 13
-78.230708
 23
-53.106948
 33
0.0
210
0.0
220
0.0
230
-1.0
  0
LINE
  5
AA
330
3C9
100
AcDbEntity
  8
DIM
  6
Continuous
 62
     7
370
    13
100
AcDbLine
 10
78.235292
 20
-53.146687
 30
0.0
 11
78.260708
 21
-53.366969
 31
0.0
  0
LINE
  5
AB
330
3C9
100
AcDbEntity
  8
DIM
  6
Continuous
 62
     7
370
    13
100
AcDbLine
 10
78.17325
 20
-53.377063
 30
0.0
 11
78.307125
 21
-53.363427
 31
0.0
  0
SOLID
  5
AD
330
3C9
100
AcDbEntity
  8
DIM
  6
Continuous
 62
     7
370
    13
100
AcDbTrace
 10
78.220885
 20
-53.06701
 30
0.0
 11
78.234177
 21
-53.065969
 31
0.0
 12
78.230656
 22
-53.106365
 32
0.0
 13
78.230656
 23
-53.106365
 33
0.0
  0
SOLID
  5
AE
330
3C9
100
AcDbEntity
  8
DIM
  6
Continuous
 62
     7
370
    13
100
AcDbTrace
 10
-78.205604
 20
-52.87201
 30
0.0
 11
-78.218906
 21
-52.870969
 31
0.0
 12
-78.209135
 22
-52.831615
 32
0.0
 13
-78.209135
 23
-52.831615
 33
0.0
210
0.0
220
0.0
230
-1.0
  0
LINE
  5
AF
330
3C9
100
AcDbEntity
  8
DIM
  6
Continuous
 62
     7
370
    13
100
AcDbLine
 10
78.21226
 20
-52.87149
 30
0.0
 11
78.230656
 21
-53.106365
 31
0.0
  0
LINE
  5
B0
330
3C9
100
AcDbEntity
  8
DIM
  6
Continuous
 62
     7
370
    13
100
AcDbLine
 10
78.142906
 20
-53.11324
 30
0.0
 11
78.277323
 21
-53.105427
 31
0.0
  0
LINE
  5
B1
330
3C9
100
AcDbEntity
  8
DIM
  6
Continuous
 62
     7
370
    13
100
AcDbLine
 10
78.121385
 20
-52.838479
 30
0.0
 11
78.277323
 21
-52.829969
 31
0.0
  0
SOLID
  5
B3
330
3C9
100
AcDbEntity
  8
DIM
  6
Continuous
 62
     7
370
    13
100
AcDbTrace
 10
78.200094
 20
-52.794
 30
0.0
 11
78.213406
 21
-52.793156
 31
0.0
 12
78.209281
 22
-52.8335
 32
0.0
 13
78.209281
 23
-52.8335
 33
0.0
  0
SOLID
  5
B4
330
3C9
100
AcDbEntity
  8
DIM
  6
Continuous
 62
     7
370
    13
100
AcDbTrace
 10
-78.188667
 20
-52.613823
 30
0.0
 11
-78.201969
 21
-52.612979
 31
0.0
 12
-78.192792
 22
-52.573479
 32
0.0
 13
-78.192792
 23
-52.573479
 33
0.0
210
0.0
220
0.0
230
-1.0
  0
LINE
  5
B5
330
3C9
100
AcDbEntity
  8
DIM
  6
Continuous
 62
     7
370
    13
100
AcDbLine
 10
78.195323
 20
-52.613406
 30
0.0
 11
78.209167
 21
-52.831604
 31
0.0
  0
LINE
  5
B6
330
3C9
100
AcDbEntity
  8
DIM
  6
Continuous
 62
     7
370
    13
100
AcDbLine
 10
78.104937
 20
-52.579052
 30
0.0
 11
78.241563
 21
-52.574833
 31
0.0
  0
SOLID
  5
B8
330
3C9
100
AcDbEntity
  8
DIM
  6
Continuous
 62
     7
370
    13
100
AcDbTrace
 10
78.184979
 20
-52.537406
 30
0.0
 11
78.198302
 21
-52.536948
 31
0.0
 12
78.193021
 22
-52.577146
 32
0.0
 13
78.193021
 23
-52.577146
 33
0.0
  0
SOLID
  5
B9
330
3C9
100
AcDbEntity
  8
DIM
  6
Continuous
 62
     7
370
    13
100
AcDbTrace
 10
-78.17874
 20
-52.357344
 30
0.0
 11
-78.192073
 21
-52.356885
 31
0.0
 12
-78.184021
 22
-52.317125
 32
0.0
 13
-78.184021
 23
-52.317125
 33
0.0
210
0.0
220
0.0
230
-1.0
  0
LINE
  5
BA
330
3C9
100
AcDbEntity
  8
DIM
  6
Continuous
 62
     7
370
    13
100
AcDbLine
 10
78.185406
 20
-52.357115
 30
0.0
 11
78.192896
 21
-52.573479
 31
0.0
  0
LINE
  5
BB
330
3C9
100
AcDbEntity
  8
DIM
  6
Continuous
 62
     7
370
    13
100
AcDbLine
 10
78.09599
 20
-52.320177
 30
0.0
 11
78.415604
 21
-52.312406
 31
0.0
  0
SOLID
  5
BD
330
3C9
100
AcDbEntity
  8
DIM
  6
Continuous
 62
     7
370
    13
100
AcDbTrace
 10
78.177594
 20
-52.279927
 30
0.0
 11
78.190927
 21
-52.27974
 31
0.0
 12
78.184802
 22
-52.319833
 32
0.0
 13
78.184802
 23
-52.319833
 33
0.0
  0
SOLID
  5
BE
330
3C9
100
AcDbEntity
  8
DIM
  6
Continuous
 62
     7
370
    13
100
AcDbTrace
 10
-78.175177
 20
-52.099896
 30
0.0
 11
-78.18851
 21
-52.099719
 31
0.0
 12
-78.181302
 22
-52.059812
 32
0.0
 13
-78.181302
 23
-52.059812
 33
0.0
210
0.0
220
0.0
230
-1.0
  0
LINE
  5
BF
330
3C9
100
AcDbEntity
  8
DIM
  6
Continuous
 62
     7
370
    13
100
AcDbLine
 10
78.181844
 20
-52.099812
 30
0.0
 11
78.18476
 21
-52.317104
 31
0.0
  0
LINE
  5
C0
330
3C9
100
AcDbEntity
  8
DIM
  6
Continuous
 62
     7
370
    13
100
AcDbLine
 10
78.092521
 20
-52.06201
 30
0.0
 11
78.317729
 21
-52.061104
 31
0.0
  0
SOLID
  5
C2
330
3C9
100
AcDbEntity
  8
DIM
  6
Continuous
 62
     7
370
    13
100
AcDbTrace
 10
-78.187354
 20
-52.022094
 30
0.0
 11
-78.174021
 21
-52.022042
 31
0.0
 12
-78.180521
 22
-52.062062
 32
0.0
 13
-78.180521
 23
-52.062062
 33
0.0
210
0.0
220
0.0
230
-1.0
  0
SOLID
  5
C3
330
3C9
100
AcDbEntity
  8
DIM
  6
Continuous
 62
     7
370
    13
100
AcDbTrace
 10
78.18801
 20
-51.862083
 30
0.0
 11
78.174667
 21
-51.862021
 31
0.0
 12
78.1815
 22
-51.822052
 32
0.0
 13
78.1815
 23
-51.822052
 33
0.0
  0
LINE
  5
C4
330
3C9
100
AcDbEntity
  8
DIM
  6
Continuous
 62
     7
370
    13
100
AcDbLine
 10
78.18151
 20
-51.821521
 30
0.0
 11
78.180531
 21
-52.059823
 31
0.0
  0
LINE
  5
C5
330
3C9
100
AcDbEntity
  8
DIM
  6
Continuous
 62
     7
370
    13
100
AcDbLine
 10
78.0535
 20
-53.921687
 30
0.0
 11
78.19351
 21
-53.921687
 31
0.0
  0
LINE
  5
C6
330
3C9
100
AcDbEntity
  8
DIM
  6
Continuous
 62
     7
370
    13
100
AcDbLine
 10
78.0535
 20
-53.661667
 30
0.0
 11
78.159906
 21
-53.661667
 31
0.0
  0
LINE
  5
C7
330
3C9
100
AcDbEntity
  8
DIM
  6
Continuous
 62
     7
370
    13
100
AcDbLine
 10
78.0535
 20
-53.381646
 30
0.0
 11
78.1335
 21
-53.381646
 31
0.0
  0
LINE
  5
C8
330
3C9
100
AcDbEntity
  8
DIM
  6
Continuous
 62
     7
370
    13
100
AcDbLine
 10
78.0535
 20
-54.684177
 30
0.0
 11
78.0535
 21
-51.821521
 31
0.0
  0
LINE
  5
C9
330
3C9
100
AcDbEntity
  8
_0
  6
Continuous
 62
     7
370
    13
100
AcDbLine
 10
70.059646
 20
-51.188531
 30
0.0
 11
77.44774
 21
-51.188531
 31
0.0
  0
LINE
  5
227
330
3C9
100
AcDbEntity
  8
_0
  6
Continuous
 62
     7
370
    13
100
AcDbLine
 10
76.860187
 20
-54.551802
 30
0.0
 11
76.860187
 21
-51.613563
 31
0.0
  0
LINE
  5
228
330
3C9
100
AcDbEntity
  8
_0
  6
Continuous
 62
     7
370
    13
100
AcDbLine
 10
76.566417
 20
-55.568885
 30
0.0
 11
76.566417
 21
-51.726573
 31
0.0
  0
LINE
  5
229
330
3C9
100
AcDbEntity
  8
_0
  6
Continuous
 62
     7
370
    13
100
AcDbLine
 10
76.272646
 20
-55.568885
 30
0.0
 11
76.272646
 21
-51.613563
 31
0.0
  0
LINE
  5
22A
330
3C9
100
AcDbEntity
  8
_0
  6
Continuous
 62
     7
370
    13
100
AcDbLine
 10
75.978875
 20
-55.568885
 30
0.0
 11
75.978875
 21
-51.726573
 31
0.0
  0
LINE
  5
22B
330
3C9
100
AcDbEntity
  8
_0
  6
Continuous
 62
     7
370
    13
100
AcDbLine
 10
75.685094
 20
-55.568885
 30
0.0
 11
75.685094
 21
-51.613563
 31
0.0
  0
LINE
  5
22C
330
3C9
100
AcDbEntity
  8
_0
  6
Continuous
 62
     7
370
    13
100
AcDbLine
 10
75.391323
 20
-55.568885
 30
0.0
 11
75.391323
 21
-51.726573
 31
0.0
  0
LINE
  5
22D
330
3C9
100
AcDbEntity
  8
_0
  6
Continuous
 62
     7
370
    13
100
AcDbLine
 10
75.097552
 20
-55.568885
 30
0.0
 11
75.097552
 21
-51.613563
 31
0.0
  0
LINE
  5
22E
330
3C9
100
AcDbEntity
  8
_0
  6
Continuous
 62
     7
370
    13
100
AcDbLine
 10
74.803781
 20
-55.568885
 30
0.0
 11
74.803781
 21
-51.726573
 31
0.0
  0
LINE
  5
22F
330
3C9
100
AcDbEntity
  8
_0
  6
Continuous
 62
     7
370
    13
100
AcDbLine
 10
74.51
 20
-55.568885
 30
0.0
 11
74.51
 21
-51.613563
 31
0.0
  0
LINE
  5
230
330
3C9
100
AcDbEntity
  8
_0
  6
Continuous
 62
     7
370
    13
100
AcDbLine
 10
74.216229
 20
-55.568885
 30
0.0
 11
74.216229
 21
-51.726573
 31
0.0
  0
LINE
  5
231
330
3C9
100
AcDbEntity
  8
_0
  6
Continuous
 62
     7
370
    13
100
AcDbLine
 10
73.922458
 20
-55.568885
 30
0.0
 11
73.922458
 21
-51.613563
 31
0.0
  0
LINE
  5
232
330
3C9
100
AcDbEntity
  8
_0
  6
Continuous
 62
     7
370
    13
100
AcDbLine
 10
73.628687
 20
-55.568885
 30
0.0
 11
73.628687
 21
-51.726573
 31
0.0
  0
LINE
  5
233
330
3C9
100
AcDbEntity
  8
_0
  6
Continuous
 62
     7
370
    13
100
AcDbLine
 10
73.334906
 20
-55.568885
 30
0.0
 11
73.334906
 21
-51.613563
 31
0.0
  0
LINE
  5
234
330
3C9
100
AcDbEntity
  8
_0
  6
Continuous
 62
     7
370
    13
100
AcDbLine
 10
73.041135
 20
-55.568885
 30
0.0
 11
73.041135
 21
-51.726573
 31
0.0
  0
LINE
  5
235
330
3C9
100
AcDbEntity
  8
_0
  6
Continuous
 62
     7
370
    13
100
AcDbLine
 10
72.747365
 20
-55.568885
 30
0.0
 11
72.747365
 21
-51.613563
 31
0.0
  0
LINE
  5
236
330
3C9
100
AcDbEntity
  8
_0
  6
Continuous
 62
     7
370
    13
100
AcDbLine
 10
72.453583
 20
-55.568885
 30
0.0
 11
72.453583
 21
-51.726573
 31
0.0
  0
LINE
  5
237
330
3C9
100
AcDbEntity
  8
_0
  6
Continuous
 62
     7
370
    13
100
AcDbLine
 10
72.159813
 20
-55.568885
 30
0.0
 11
72.159813
 21
-51.613563
 31
0.0
  0
LINE
  5
238
330
3C9
100
AcDbEntity
  8
_0
  6
Continuous
 62
     7
370
    13
100
AcDbLine
 10
71.866042
 20
-55.568885
 30
0.0
 11
71.866042
 21
-51.726573
 31
0.0
  0
LINE
  5
239
330
3C9
100
AcDbEntity
  8
_0
  6
Continuous
 62
     7
370
    13
100
AcDbLine
 10
71.572271
 20
-55.568885
 30
0.0
 11
71.572271
 21
-51.613563
 31
0.0
  0
LINE
  5
23A
330
3C9
100
AcDbEntity
  8
_0
  6
Continuous
 62
     7
370
    13
100
AcDbLine
 10
71.27849
 20
-55.568885
 30
0.0
 11
71.27849
 21
-51.726573
 31
0.0
  0
LINE
  5
23B
330
3C9
100
AcDbEntity
  8
_0
  6
Continuous
 62
     7
370
    13
100
AcDbLine
 10
70.059646
 20
-51.952594
 30
0.0
 11
77.44774
 21
-51.952594
 31
0.0
  0
LINE
  5
23C
330
3C9
100
AcDbEntity
  8
_0
  6
Continuous
 62
     7
370
    13
100
AcDbLine
 10
70.484677
 20
-52.065604
 30
0.0
 11
77.44774
 21
-52.065604
 31
0.0
  0
LINE
  5
23D
330
3C9
100
AcDbEntity
  8
_0
  6
Continuous
 62
     7
370
    13
100
AcDbLine
 10
70.484677
 20
-52.178615
 30
0.0
 11
77.44774
 21
-52.178615
 31
0.0
  0
LINE
  5
23E
330
3C9
100
AcDbEntity
  8
_0
  6
Continuous
 62
     7
370
    13
100
AcDbLine
 10
70.484677
 20
-52.291625
 30
0.0
 11
77.44774
 21
-52.291625
 31
0.0
  0
LINE
  5
23F
330
3C9
100
AcDbEntity
  8
_0
  6
Continuous
 62
     7
370
    13
100
AcDbLine
 10
70.484677
 20
-52.404625
 30
0.0
 11
77.44774
 21
-52.404625
 31
0.0
  0
LINE
  5
240
330
3C9
100
AcDbEntity
  8
_0
  6
Continuous
 62
     7
370
    13
100
AcDbLine
 10
70.484677
 20
-52.517635
 30
0.0
 11
77.44774
 21
-52.517635
 31
0.0
  0
LINE
  5
241
330
3C9
100
AcDbEntity
  8
_0
  6
Continuous
 62
     7
370
    13
100
AcDbLine
 10
70.059646
 20
-52.630646
 30
0.0
 11
77.44774
 21
-52.630646
 31
0.0
  0
LINE
  5
242
330
3C9
100
AcDbEntity
  8
_0
  6
Continuous
 62
     7
370
    13
100
AcDbLine
 10
70.484677
 20
-52.743656
 30
0.0
 11
77.44774
 21
-52.743656
 31
0.0
  0
LINE
  5
243
330
3C9
100
AcDbEntity
  8
_0
  6
Continuous
 62
     7
370
    13
100
AcDbLine
 10
70.059646
 20
-52.856667
 30
0.0
 11
77.44774
 21
-52.856667
 31
0.0
  0
LINE
  5
244
330
3C9
100
AcDbEntity
  8
_0
  6
Continuous
 62
     7
370
    13
100
AcDbLine
 10
70.484677
 20
-52.969677
 30
0.0
 11
77.44774
 21
-52.969677
 31
0.0
  0
LINE
  5
245
330
3C9
100
AcDbEntity
  8
_0
  6
Continuous
 62
     7
370
    13
100
AcDbLine
 10
70.484677
 20
-53.082677
 30
0.0
 11
77.44774
 21
-53.082677
 31
0.0
  0
LINE
  5
246
330
3C9
100
AcDbEntity
  8
_0
  6
Continuous
 62
     7
370
    13
100
AcDbLine
 10
70.484677
 20
-53.195687
 30
0.0
 11
77.44774
 21
-53.195687
 31
0.0
  0
LINE
  5
247
330
3C9
100
AcDbEntity
  8
_0
  6
Continuous
 62
     7
370
    13
100
AcDbLine
 10
70.059646
 20
-53.308698
 30
0.0
 11
77.44774
 21
-53.308698
 31
0.0
  0
LINE
  5
248
330
3C9
100
AcDbEntity
  8
_0
  6
Continuous
 62
     7
370
    13
100
AcDbLine
 10
70.484677
 20
-53.421708
 30
0.0
 11
77.44774
 21
-53.421708
 31
0.0
  0
LINE
  5
249
330
3C9
100
AcDbEntity
  8
_0
  6
Continuous
 62
     7
370
    13
100
AcDbLine
 10
70.059646
 20
-53.534719
 30
0.0
 11
77.44774
 21
-53.534719
 31
0.0
  0
LINE
  5
24A
330
3C9
100
AcDbEntity
  8
_0
  6
Continuous
 62
     7
370
    13
100
AcDbLine
 10
70.484677
 20
-53.647729
 30
0.0
 11
77.44774
 21
-53.647729
 31
0.0
  0
LINE
  5
24B
330
3C9
100
AcDbEntity
  8
_0
  6
Continuous
 62
     7
370
    13
100
AcDbLine
 10
70.059646
 20
-53.76074
 30
0.0
 11
77.44774
 21
-53.76074
 31
0.0
  0
LINE
  5
24C
330
3C9
100
AcDbEntity
  8
_0
  6
Continuous
 62
     7
370
    13
100
AcDbLine
 10
70.484677
 20
-53.87375
 30
0.0
 11
77.44774
 21
-53.87375
 31
0.0
  0
LINE
  5
24D
330
3C9
100
AcDbEntity
  8
_0
  6
Continuous
 62
     7
370
    13
100
AcDbLine
 10
70.484677
 20
-53.98676
 30
0.0
 11
77.44774
 21
-53.98676
 31
0.0
  0
LINE
  5
24E
330
3C9
100
AcDbEntity
  8
_0
  6
Continuous
 62
     7
370
    13
100
AcDbLine
 10
70.484677
 20
-54.09976
 30
0.0
 11
77.44774
 21
-54.09976
 31
0.0
  0
LINE
  5
24F
330
3C9
100
AcDbEntity
  8
_0
  6
Continuous
 62
     7
370
    13
100
AcDbLine
 10
70.059646
 20
-54.212771
 30
0.0
 11
77.44774
 21
-54.212771
 31
0.0
  0
LINE
  5
250
330
3C9
100
AcDbEntity
  8
_0
  6
Continuous
 62
     7
370
    13
100
AcDbLine
 10
70.484677
 20
-54.325781
 30
0.0
 11
77.44774
 21
-54.325781
 31
0.0
  0
LINE
  5
251
330
3C9
100
AcDbEntity
  8
_0
  6
Continuous
 62
     7
370
    13
100
AcDbLine
 10
70.484677
 20
-54.438792
 30
0.0
 11
77.44774
 21
-54.438792
 31
0.0
  0
LINE
  5
252
330
3C9
100
AcDbEntity
  8
_0
  6
Continuous
 62
     7
370
    13
100
AcDbLine
 10
70.484677
 20
-54.551802
 30
0.0
 11
77.44774
 21
-54.551802
 31
0.0
  0
LINE
  5
253
330
3C9
100
AcDbEntity
  8
_0
  6
Continuous
 62
     7
370
    13
100
AcDbLine
 10
70.984719
 20
-51.613563
 30
0.0
 11
77.44774
 21
-51.613563
 31
0.0
  0
LINE
  5
254
330
3C9
100
AcDbEntity
  8
_0
  6
Continuous
 62
     7
370
    13
100
AcDbLine
 10
76.860187
 20
-55.568885
 30
0.0
 11
76.860187
 21
-51.613563
 31
0.0
  0
LINE
  5
255
330
3C9
100
AcDbEntity
  8
_0
  6
Continuous
 62
     7
370
    13
100
AcDbLine
 10
70.059646
 20
-51.488552
 30
0.0
 11
77.44774
 21
-51.488552
 31
0.0
  0
LINE
  5
256
330
3C9
100
AcDbEntity
  8
_0
  6
Continuous
 62
     7
370
    13
100
AcDbLine
 10
70.984719
 20
-55.568885
 30
0.0
 11
70.984719
 21
-51.488552
 31
0.0
  0
LINE
  5
257
330
3C9
100
AcDbEntity
  8
_0
  6
Continuous
 62
     7
370
    13
100
AcDbLine
 10
70.484677
 20
-55.568885
 30
0.0
 11
70.484677
 21
-51.488552
 31
0.0
  0
LINE
  5
258
330
3C9
100
AcDbEntity
  8
_0
  6
Continuous
 62
     7
370
    13
100
AcDbLine
 10
70.059646
 20
-55.568885
 30
0.0
 11
70.059646
 21
-51.188531
 31
0.0
  0
LINE
  5
259
330
3C9
100
AcDbEntity
  8
_0
  6
Continuous
 62
     7
370
    13
100
AcDbLine
 10
70.059646
 20
-54.664812
 30
0.0
 11
77.44774
 21
-54.664812
 31
0.0
  0
LINE
  5
25A
330
3C9
100
AcDbEntity
  8
2-30K
  6
Continuous
 62
     7
370
    13
100
AcDbLine
 10
78.940469
 20
-58.092677
 30
0.0
 11
78.940469
 21
-50.842094
 31
0.0
  0
LINE
  5
25B
330
3C9
100
AcDbEntity
  8
2-30K
  6
Continuous
 62
     7
370
    13
100
AcDbLine
 10
69.83974
 20
-50.842094
 30
0.0
 11
78.940469
 21
-50.842094
 31
0.0
  0
LINE
  5
25C
330
3C9
100
AcDbEntity
  8
2-30K
  6
Continuous
 62
     7
370
    13
100
AcDbLine
 10
69.83974
 20
-58.092677
 30
0.0
 11
69.83974
 21
-50.842094
 31
0.0
  0
LINE
  5
25D
330
3C9
100
AcDbEntity
  8
2-30K
  6
Continuous
 62
     7
370
    13
100
AcDbLine
 10
69.83974
 20
-58.092677
 30
0.0
 11
78.940469
 21
-58.092677
 31
0.0
  0
LINE
  5
25E
330
3C9
100
AcDbEntity
  8
2-30K
  6
Continuous
 62
     7
370
    13
100
AcDbLine
 10
69.83974
 20
-57.592635
 30
0.0
 11
78.940469
 21
-57.592635
 31
0.0
  0
LINE
  5
25F
330
3C9
100
AcDbEntity
  8
2-30K
  6
Continuous
 62
     7
370
    13
100
AcDbLine
 10
76.740292
 20
-58.092677
 30
0.0
 11
76.740292
 21
-57.592635
 31
0.0
  0
LINE
  5
260
330
3C9
100
AcDbEntity
  8
2-30K
  6
Continuous
 62
     7
370
    13
100
AcDbLine
 10
77.840375
 20
-58.092677
 30
0.0
 11
77.840375
 21
-57.592635
 31
0.0
  0
LINE
  5
267
330
3C9
100
AcDbEntity
  8
_0
  6
Continuous
 62
     7
370
    13
100
AcDbLine
 10
70.059646
 20
-55.568885
 30
0.0
 11
77.44774
 21
-55.568885
 31
0.0
  0
LINE
  5
268
330
3C9
100
AcDbEntity
  8
_0
  6
Continuous
 62
     7
370
    13
100
AcDbLine
 10
70.484677
 20
-55.455875
 30
0.0
 11
77.44774
 21
-55.455875
 31
0.0
  0
LINE
  5
269
330
3C9
100
AcDbEntity
  8
_0
  6
Continuous
 62
     7
370
    13
100
AcDbLine
 10
70.484677
 20
-55.342865
 30
0.0
 11
77.44774
 21
-55.342865
 31
0.0
  0
LINE
  5
26A
330
3C9
100
AcDbEntity
  8
_0
  6
Continuous
 62
     7
370
    13
100
AcDbLine
 10
70.484677
 20
-55.229854
 30
0.0
 11
77.44774
 21
-55.229854
 31
0.0
  0
LINE
  5
26B
330
3C9
100
AcDbEntity
  8
_0
  6
Continuous
 62
     7
370
    13
100
AcDbLine
 10
70.059646
 20
-55.116844
 30
0.0
 11
77.44774
 21
-55.116844
 31
0.0
  0
LINE
  5
26C
330
3C9
100
AcDbEntity
  8
_0
  6
Continuous
 62
     7
370
    13
100
AcDbLine
 10
70.484677
 20
-55.003833
 30
0.0
 11
77.44774
 21
-55.003833
 31
0.0
  0
LINE
  5
26D
330
3C9
100
AcDbEntity
  8
_0
  6
Continuous
 62
     7
370
    13
100
AcDbLine
 10
70.484677
 20
-54.890823
 30
0.0
 11
77.44774
 21
-54.890823
 31
0.0
  0
LINE
  5
26E
330
3C9
100
AcDbEntity
  8
_0
  6
Continuous
 62
     7
370
    13
100
AcDbLine
 10
70.484677
 20
-54.777812
 30
0.0
 11
77.44774
 21
-54.777812
 31
0.0
  0
LINE
  5
29F
330
3C9
100
AcDbEntity
  8
_0
  6
Continuous
 62
     7
370
    13
100
AcDbLine
 10
70.984719
 20
-51.839583
 30
0.0
 11
77.44774
 21
-51.839583
 31
0.0
  0
LINE
  5
2A0
330
3C9
100
AcDbEntity
  8
_0
  6
Continuous
 62
     7
370
    13
100
AcDbLine
 10
70.984719
 20
-51.726573
 30
0.0
 11
77.44774
 21
-51.726573
 31
0.0
  0
LINE
  5
2DE
330
3C9
100
AcDbEntity
  8
_0
  6
Continuous
 62
     7
370
    13
100
AcDbLine
 10
77.153969
 20
-55.568885
 30
0.0
 11
77.153969
 21
-51.726573
 31
0.0
  0
LINE
  5
2DF
330
3C9
100
AcDbEntity
  8
_0
  6
Continuous
 62
     7
370
    13
100
AcDbLine
 10
77.44774
 20
-54.551802
 30
0.0
 11
77.44774
 21
-51.613563
 31
0.0
  0
LINE
  5
308
330
3C9
100
AcDbEntity
  8
_0
  6
Continuous
 62
     7
370
    13
100
AcDbLine
 10
77.44774
 20
-55.568885
 30
0.0
 11
77.44774
 21
-51.188531
 31
0.0
  0
SOLID
  5
309
330
3C9
100
AcDbEntity
  8
DIM
  6
Continuous
 62
     7
370
    13
100
AcDbTrace
 10
-78.159479
 20
-54.436635
 30
0.0
 11
-78.159479
 21
-54.449969
 31
0.0
 12
-78.19949
 22
-54.443302
 32
0.0
 13
-78.19949
 23
-54.443302
 33
0.0
210
0.0
220
0.0
230
-1.0
  0
LINE
  5
30A
330
3C9
100
AcDbEntity
  8
DIM
  6
Continuous
 62
     7
370
    13
100
AcDbLine
 10
78.0535
 20
-54.443302
 30
0.0
 11
78.196312
 21
-54.443302
 31
0.0
  0
SOLID
  5
30C
330
3C9
100
AcDbEntity
  8
DIM
  6
Continuous
 62
     7
370
    13
100
AcDbTrace
 10
-78.0935
 20
-54.436635
 30
0.0
 11
-78.0935
 21
-54.449969
 31
0.0
 12
-78.0535
 22
-54.443302
 32
0.0
 13
-78.0535
 23
-54.443302
 33
0.0
210
0.0
220
0.0
230
-1.0
  0
LINE
  5
30D
330
3C9
100
AcDbEntity
  8
DIM
  6
Continuous
 62
     7
370
    13
100
AcDbLine
 10
78.0535
 20
-54.183333
 30
0.0
 11
78.196312
 21
-54.183333
 31
0.0
  0
SOLID
  5
30E
330
3C9
100
AcDbEntity
  8
DIM
  6
Continuous
 62
     7
370
    13
100
AcDbTrace
 10
-78.159479
 20
-54.176667
 30
0.0
 11
-78.159479
 21
-54.19
 31
0.0
 12
-78.19949
 22
-54.183333
 32
0.0
 13
-78.19949
 23
-54.183333
 33
0.0
210
0.0
220
0.0
230
-1.0
  0
SOLID
  5
30F
330
3C9
100
AcDbEntity
  8
DIM
  6
Continuous
 62
     7
370
    13
100
AcDbTrace
 10
-78.0935
 20
-54.176667
 30
0.0
 11
-78.0935
 21
-54.19
 31
0.0
 12
-78.0535
 22
-54.183333
 32
0.0
 13
-78.0535
 23
-54.183333
 33
0.0
210
0.0
220
0.0
230
-1.0
  0
SPLINE
  5
311
330
3C9
100
AcDbEntity
  8
DIM
  6
Continuous
 62
     7
370
     0
100
AcDbSpline
210
0.0
220
0.0
230
1.0
 70
     8
 71
     3
 72
    13
 73
     9
 74
     0
 42
0.0000000001
 43
0.00000001
 40
0.0
 40
0.0
 40
0.0
 40
0.0
 40
0.1666666666666667
 40
0.3333333333333333
 40
0.5
 40
0.6666666666666666
 40
0.8333333333333333
 40
1.0
 40
1.0
 40
1.0
 40
1.0
 10
78.0535
 20
-51.82152083333333
 30
0.0
 10
78.06715625
 20
-52.6235625
 30
0.0
 10
78.08907291666667
 20
-52.93848958333333
 30
0.0
 10
78.10307291666666
 20
-53.11708333333333
 30
0.0
 10
78.13032291666667
 20
-53.38432291666666
 30
0.0
 10
78.15985416666666
 20
-53.66148958333333
 30
0.0
 10
78.19392708333334
 20
-53.92276041666666
 30
0.0
 10
78.19725
 20
-53.95814583333333
 30
0.0
 10
78.20005208333333
 20
-54.4545625
 30
0.0
  0
LINE
  5
313
330
3C9
100
AcDbEntity
  8
DIM
  6
Continuous
 62
     7
370
    13
100
AcDbLine
 10
78.23774
 20
-54.18425
 30
0.0
 11
78.359792
 21
-54.18425
 31
0.0
  0
LINE
  5
314
330
3C9
100
AcDbEntity
  8
DIM
  6
Continuous
 62
     7
370
    13
100
AcDbLine
 10
78.319792
 20
-53.945458
 30
0.0
 11
78.319792
 21
-54.14424
 31
0.0
  0
SOLID
  5
315
330
3C9
100
AcDbEntity
  8
DIM
  6
Continuous
 62
     7
370
    13
100
AcDbTrace
 10
78.326458
 20
-53.945458
 30
0.0
 11
78.313125
 21
-53.945458
 31
0.0
 12
78.319792
 22
-53.905458
 32
0.0
 13
78.319792
 23
-53.905458
 33
0.0
  0
SOLID
  5
316
330
3C9
100
AcDbEntity
  8
DIM
  6
Continuous
 62
     7
370
    13
100
AcDbTrace
 10
78.326458
 20
-54.14424
 30
0.0
 11
78.313125
 21
-54.14424
 31
0.0
 12
78.319792
 22
-54.18425
 32
0.0
 13
78.319792
 23
-54.18425
 33
0.0
  0
LINE
  5
318
330
3C9
100
AcDbEntity
  8
DIM
  6
Continuous
 62
     7
370
    13
100
AcDbLine
 10
78.23774
 20
-54.442687
 30
0.0
 11
78.359792
 21
-54.442687
 31
0.0
  0
SOLID
  5
319
330
3C9
100
AcDbEntity
  8
DIM
  6
Continuous
 62
     7
370
    13
100
AcDbTrace
 10
78.326458
 20
-54.402687
 30
0.0
 11
78.313125
 21
-54.402687
 31
0.0
 12
78.319792
 22
-54.442687
 32
0.0
 13
78.319792
 23
-54.442687
 33
0.0
  0
LINE
  5
31A
330
3C9
100
AcDbEntity
  8
DIM
  6
Continuous
 62
     7
370
    13
100
AcDbLine
 10
78.319792
 20
-54.223052
 30
0.0
 11
78.319792
 21
-54.402687
 31
0.0
  0
SOLID
  5
31C
330
3C9
100
AcDbEntity
  8
DIM
  6
Continuous
 62
     7
370
    13
100
AcDbTrace
 10
78.326458
 20
-54.223052
 30
0.0
 11
78.313125
 21
-54.223052
 31
0.0
 12
78.319792
 22
-54.183052
 32
0.0
 13
78.319792
 23
-54.183052
 33
0.0
  0
TEXT
  5
6A
330
3C9
100
AcDbEntity
  8
TEXT
  6
Continuous
 62
     7
370
    13
100
AcDbText
 10
77.943504
 20
-54.088198
 30
0.0
 40
0.050625
  1
EDGE OF PAVEMENT
 50
90.0
 41
0.9
  7
Style-Arial
100
AcDbText
  0
TEXT
  5
6B
330
3C9
100
AcDbEntity
  8
TEXT
  6
Continuous
 62
     7
370
    13
100
AcDbText
 10
77.944495
 20
-53.054138
 30
0.0
 40
0.050625
  1
DIRECTION OF TRAFFIC
 50
90.0
 41
0.9
  7
Style-Arial
100
AcDbText
  0
TEXT
  5
6C
330
3C9
100
AcDbEntity
  8
HATCH
  6
Continuous
 62
     7
370
    13
100
AcDbText
 10
70.671323
 20
-57.055135
 30
0.0
 40
0.050625
  1
SEE AASHTO "GUIDE FOR SELECTING, LOCATING
 41
0.9
  7
Style-Arial
100
AcDbText
  0
TEXT
  5
6D
330
3C9
100
AcDbEntity
  8
HATCH
  6
Continuous
 62
     7
370
    13
100
AcDbText
 10
70.677385
 20
-57.136521
 30
0.0
 40
0.050625
  1
AND DESIGNING TRAFFIC BARRIERS"
 41
0.9
  7
Style-Arial
100
AcDbText
  0
TEXT
  5
7B
330
3C9
100
AcDbEntity
  8
DIM
  6
Continuous
 62
     7
370
    13
100
AcDbText
 10
78.161178
 20
-51.722594
 30
0.0
 40
0.050625
  1
2
 41
0.9
  7
Style-Arial
100
AcDbText
  0
TEXT
  5
7C
330
3C9
100
AcDbEntity
  8
DIM
  6
Continuous
 62
     7
370
    13
100
AcDbText
 10
78.100542
 20
-51.710635
 30
0.0
 40
0.050625
  1
O
 41
0.9
  7
Style-Arial
100
AcDbText
  0
TEXT
  5
7E
330
3C9
100
AcDbEntity
  8
_0
  6
Continuous
 62
     7
370
    13
100
AcDbText
 10
78.290583
 20
-55.393073
 30
0.0
 40
0.050625
  1
3
 41
0.9
  7
Style-Arial
100
AcDbText
  0
TEXT
  5
7F
330
3C9
100
AcDbEntity
  8
_0
  6
Continuous
 62
     7
370
    13
100
AcDbText
 10
78.290583
 20
-55.281177
 30
0.0
 40
0.050625
  1
3
 41
0.9
  7
Style-Arial
100
AcDbText
  0
TEXT
  5
80
330
3C9
100
AcDbEntity
  8
_0
  6
Continuous
 62
     7
370
    13
100
AcDbText
 10
78.096431
 20
-55.414395
 30
0.0
 40
0.050625
  1
        L
 41
0.9
  7
Style-Arial
100
AcDbText
  0
TEXT
  5
81
330
3C9
100
AcDbEntity
  8
_0
  6
Continuous
 62
     7
370
    13
100
AcDbText
 10
78.088533
 20
-55.30944
 30
0.0
 40
0.050625
  1
        X
 41
0.9
  7
Style-Arial
100
AcDbText
  0
TEXT
  5
82
330
3C9
100
AcDbEntity
  8
_0
  6
Continuous
 62
     7
370
    13
100
AcDbText
 10
77.935656
 20
-55.351844
 30
0.0
 40
0.050625
  1
Y = 4W
 41
0.9
  7
Style-Arial
100
AcDbText
  0
TEXT
  5
83
330
3C9
100
AcDbEntity
  8
DIM
  6
Continuous
 62
     7
370
    13
100
AcDbText
 10
78.082775
 20
-54.828719
 30
0.0
 40
0.050625
  1
 1
 41
0.9
  7
Style-Arial
100
AcDbText
  0
TEXT
  5
84
330
3C9
100
AcDbEntity
  8
DIM
  6
Continuous
 62
     7
370
    13
100
AcDbText
 10
78.031573
 20
-54.81676
 30
0.0
 40
0.050625
  1
O
 41
0.9
  7
Style-Arial
100
AcDbText
  0
TEXT
  5
85
330
3C9
100
AcDbEntity
  8
DIM
  6
Continuous
 62
     7
370
    13
100
AcDbText
 10
78.087399
 20
-54.620987
 30
0.0
 40
0.050625
  1
W
 41
0.9
  7
Style-Arial
100
AcDbText
  0
TEXT
  5
86
330
3C9
100
AcDbEntity
  8
DIM
  6
Continuous
 62
     7
370
    13
100
AcDbText
 10
78.104391
 20
-53.905531
 30
0.0
 40
0.050625
  1
Y
 41
0.9
  7
Style-Arial
100
AcDbText
  0
TEXT
  5
87
330
3C9
100
AcDbEntity
  8
DIM
  6
Continuous
 62
     7
370
    13
100
AcDbText
 10
78.086208
 20
-53.646031
 30
0.0
 40
0.050625
  1
Y
 41
0.9
  7
Style-Arial
100
AcDbText
  0
TEXT
  5
88
330
3C9
100
AcDbEntity
  8
DIM
  6
Continuous
 62
     7
370
    13
100
AcDbText
 10
78.066448
 20
-53.361781
 30
0.0
 40
0.050625
  1
Y
 41
0.9
  7
Style-Arial
100
AcDbText
  0
TEXT
  5
99
330
3C9
100
AcDbEntity
  8
DIM
  6
Continuous
 62
     7
370
    13
100
AcDbText
 10
78.399513
 20
-52.067464
 30
0.0
 40
0.050625
  1
 2
 50
91.0
 41
0.9
  7
Style-Arial
100
AcDbText
  0
TEXT
  5
9A
330
3C9
100
AcDbEntity
  8
DIM
  6
Continuous
 62
     7
370
    13
100
AcDbText
 10
78.384307
 20
-52.118039
 30
0.0
 40
0.050625
  1
X 
 50
91.0
 41
0.9
  7
Style-Arial
100
AcDbText
  0
TEXT
  5
9B
330
3C9
100
AcDbEntity
  8
DIM
  6
Continuous
 62
     7
370
    13
100
AcDbText
 10
78.299957
 20
-51.93982
 30
0.0
 40
0.050625
  1
 1
 50
90.0
 41
0.9
  7
Style-Arial
100
AcDbText
  0
TEXT
  5
9C
330
3C9
100
AcDbEntity
  8
DIM
  6
Continuous
 62
     7
370
    13
100
AcDbText
 10
78.284436
 20
-51.983615
 30
0.0
 40
0.050625
  1
X 
 50
90.0
 41
0.9
  7
Style-Arial
100
AcDbText
  0
TEXT
  5
9D
330
3C9
100
AcDbEntity
  8
DIM
  6
Continuous
 62
     7
370
    13
100
AcDbText
 10
78.287021
 20
-53.8343
 30
0.0
 40
0.050625
  1
6'-3"
 50
97.363567
 41
0.9
  7
Style-Arial
100
AcDbText
  0
TEXT
  5
A3
330
3C9
100
AcDbEntity
  8
DIM
  6
Continuous
 62
     7
370
    13
100
AcDbText
 10
78.253927
 20
-53.571499
 30
0.0
 40
0.050625
  1
6'-3"
 50
95.38625
 41
0.9
  7
Style-Arial
100
AcDbText
  0
TEXT
  5
A7
330
3C9
100
AcDbEntity
  8
DIM
  6
Continuous
 62
     7
370
    13
100
AcDbText
 10
78.227698
 20
-53.295737
 30
0.0
 40
0.050625
  1
6'-3"
 50
96.581944
 41
0.9
  7
Style-Arial
100
AcDbText
  0
TEXT
  5
AC
330
3C9
100
AcDbEntity
  8
DIM
  6
Continuous
 62
     7
370
    13
100
AcDbText
 10
78.19801
 20
-53.018013
 30
0.0
 40
0.050625
  1
6'-3"
 50
94.478081
 41
0.9
  7
Style-Arial
100
AcDbText
  0
TEXT
  5
B2
330
3C9
100
AcDbEntity
  8
DIM
  6
Continuous
 62
     7
370
    13
100
AcDbText
 10
78.177604
 20
-52.762941
 30
0.0
 40
0.050625
  1
6'-3"
 50
93.628814
 41
0.9
  7
Style-Arial
100
AcDbText
  0
TEXT
  5
B7
330
3C9
100
AcDbEntity
  8
DIM
  6
Continuous
 62
     7
370
    13
100
AcDbText
 10
78.162094
 20
-52.509349
 30
0.0
 40
0.050625
  1
6'-3"
 50
91.982644
 41
0.9
  7
Style-Arial
100
AcDbText
  0
TEXT
  5
BC
330
3C9
100
AcDbEntity
  8
DIM
  6
Continuous
 62
     7
370
    13
100
AcDbText
 10
78.154438
 20
-52.242767
 30
0.0
 40
0.050625
  1
6'-3"
 50
90.770147
 41
0.9
  7
Style-Arial
100
AcDbText
  0
TEXT
  5
C1
330
3C9
100
AcDbEntity
  8
DIM
  6
Continuous
 62
     7
370
    13
100
AcDbText
 10
78.150594
 20
-52.001426
 30
0.0
 40
0.050625
  1
6'-3"
 50
89.764931
 41
0.9
  7
Style-Arial
100
AcDbText
  0
TEXT
  5
CA
330
3C9
100
AcDbEntity
  8
_0
  6
Continuous
 62
     7
370
    13
100
AcDbText
 10
76.363255
 20
-54.404233
 30
0.0
 40
0.050625
  1
9 66
 41
0.9
  7
Style-Arial
100
AcDbText
  0
TEXT
  5
CB
330
3C9
100
AcDbEntity
  8
_0
  6
Continuous
 62
     7
370
    13
100
AcDbText
 10
72.249514
 20
-53.72839
 30
0.0
 40
0.050625
  1
4 00
 41
0.9
  7
Style-Arial
100
AcDbText
  0
TEXT
  5
CC
330
3C9
100
AcDbEntity
  8
_0
  6
Continuous
 62
     7
370
    13
100
AcDbText
 10
72.250775
 20
-52.370525
 30
0.0
 40
0.050625
  1
0 25
 41
0.9
  7
Style-Arial
100
AcDbText
  0
TEXT
  5
CF
330
3C9
100
AcDbEntity
  8
_0
  6
Continuous
 62
     7
370
    13
100
AcDbText
 10
70.167035
 20
-54.438789
 30
0.0
 40
0.050625
  1
150 00'
 41
0.9
  7
Style-Arial
100
AcDbText
  0
TEXT
  5
D0
330
3C9
100
AcDbEntity
  8
_0
  6
Continuous
 62
     7
370
    13
100
AcDbText
 10
70.167035
 20
-53.64632
 30
0.0
 40
0.050625
  1
100 00'
 41
0.9
  7
Style-Arial
100
AcDbText
  0
TEXT
  5
D1
330
3C9
100
AcDbEntity
  8
_0
  6
Continuous
 62
     7
370
    13
100
AcDbText
 10
70.167032
 20
-53.422122
 30
0.0
 40
0.050625
  1
87 50'
 41
0.9
  7
Style-Arial
100
AcDbText
  0
TEXT
  5
D2
330
3C9
100
AcDbEntity
  8
_0
  6
Continuous
 62
     7
370
    13
100
AcDbText
 10
70.167032
 20
-53.078622
 30
0.0
 40
0.050625
  1
75 00'
 41
0.9
  7
Style-Arial
100
AcDbText
  0
TEXT
  5
D3
330
3C9
100
AcDbEntity
  8
_0
  6
Continuous
 62
     7
370
    13
100
AcDbText
 10
70.167031
 20
-52.294279
 30
0.0
 40
0.050625
  1
37 50'
 41
0.9
  7
Style-Arial
100
AcDbText
  0
TEXT
  5
D4
330
3C9
100
AcDbEntity
  8
_0
  6
Continuous
 62
     7
370
    13
100
AcDbText
 10
70.249918
 20
-51.779685
 30
0.0
 40
0.050625
  1
L
 41
0.9
  7
Style-Arial
100
AcDbText
  0
TEXT
  5
D5
330
3C9
100
AcDbEntity
  8
_0
  6
Continuous
 62
     7
370
    13
100
AcDbText
 10
70.149218
 20
-51.678487
 30
0.0
 40
0.050625
  1
LENGTH
 41
0.9
  7
Style-Arial
100
AcDbText
  0
TEXT
  5
D6
330
3C9
100
AcDbEntity
  8
_0
  6
Continuous
 62
     7
370
    13
100
AcDbText
 10
70.734925
 20
-51.723362
 30
0.0
 40
0.050625
  1
X
 41
0.9
  7
Style-Arial
100
AcDbText
  0
TEXT
  5
D7
330
3C9
100
AcDbEntity
  8
_0
  6
Continuous
 62
     7
370
    13
100
AcDbText
 10
74.195654
 20
-51.578313
 30
0.0
 40
0.050625
  1
Y
 41
0.9
  7
Style-Arial
100
AcDbText
  0
TEXT
  5
D8
330
3C9
100
AcDbEntity
  8
_0
  6
Continuous
 62
     7
370
    13
100
AcDbText
 10
71.194909
 20
-51.686925
 30
0.0
 40
0.050625
  1
W=2'
 41
0.9
  7
Style-Arial
100
AcDbText
  0
TEXT
  5
D9
330
3C9
100
AcDbEntity
  8
_0
  6
Continuous
 62
     7
370
    13
100
AcDbText
 10
71.663232
 20
-52.82314
 30
0.0
 40
0.050625
  1
3 00
 41
0.9
  7
Style-Arial
100
AcDbText
  0
TEXT
  5
DA
330
3C9
100
AcDbEntity
  8
_0
  6
Continuous
 62
     7
370
    13
100
AcDbText
 10
72.250421
 20
-52.93615
 30
0.0
 40
0.050625
  1
2 66
 41
0.9
  7
Style-Arial
100
AcDbText
  0
TEXT
  5
DB
330
3C9
100
AcDbEntity
  8
_0
  6
Continuous
 62
     7
370
    13
100
AcDbText
 10
72.250428
 20
-53.04916
 30
0.0
 40
0.050625
  1
3 16
 41
0.9
  7
Style-Arial
100
AcDbText
  0
TEXT
  5
DC
330
3C9
100
AcDbEntity
  8
_0
  6
Continuous
 62
     7
370
    13
100
AcDbText
 10
72.250602
 20
-53.162171
 30
0.0
 40
0.050625
  1
3 51
 41
0.9
  7
Style-Arial
100
AcDbText
  0
TEXT
  5
DD
330
3C9
100
AcDbEntity
  8
_0
  6
Continuous
 62
     7
370
    13
100
AcDbText
 10
72.250774
 20
-53.275181
 30
0.0
 40
0.050625
  1
3 75
 41
0.9
  7
Style-Arial
100
AcDbText
  0
TEXT
  5
DE
330
3C9
100
AcDbEntity
  8
_0
  6
Continuous
 62
     7
370
    13
100
AcDbText
 10
72.250774
 20
-53.388192
 30
0.0
 40
0.050625
  1
3 89
 41
0.9
  7
Style-Arial
100
AcDbText
  0
TEXT
  5
DF
330
3C9
100
AcDbEntity
  8
_0
  6
Continuous
 62
     7
370
    13
100
AcDbText
 10
72.250774
 20
-53.501202
 30
0.0
 40
0.050625
  1
3 97
 41
0.9
  7
Style-Arial
100
AcDbText
  0
TEXT
  5
E0
330
3C9
100
AcDbEntity
  8
_0
  6
Continuous
 62
     7
370
    13
100
AcDbText
 10
72.250775
 20
-53.614213
 30
0.0
 40
0.050625
  1
4 00
 41
0.9
  7
Style-Arial
100
AcDbText
  0
TEXT
  5
E1
330
3C9
100
AcDbEntity
  8
_0
  6
Continuous
 62
     7
370
    13
100
AcDbText
 10
76.657379
 20
-52.82314
 30
0.0
 40
0.050625
  1
5 50
 41
0.9
  7
Style-Arial
100
AcDbText
  0
TEXT
  5
E2
330
3C9
100
AcDbEntity
  8
_0
  6
Continuous
 62
     7
370
    13
100
AcDbText
 10
76.657378
 20
-52.93615
 30
0.0
 40
0.050625
  1
7 32
 41
0.9
  7
Style-Arial
100
AcDbText
  0
TEXT
  5
E3
330
3C9
100
AcDbEntity
  8
_0
  6
Continuous
 62
     7
370
    13
100
AcDbText
 10
76.657203
 20
-53.04916
 30
0.0
 40
0.050625
  1
8 68
 41
0.9
  7
Style-Arial
100
AcDbText
  0
TEXT
  5
E4
330
3C9
100
AcDbEntity
  8
_0
  6
Continuous
 62
     7
370
    13
100
AcDbText
 10
76.657026
 20
-53.162171
 30
0.0
 40
0.050625
  1
9 66
 41
0.9
  7
Style-Arial
100
AcDbText
  0
TEXT
  5
E5
330
3C9
100
AcDbEntity
  8
_0
  6
Continuous
 62
     7
370
    13
100
AcDbText
 10
76.657203
 20
-53.275181
 30
0.0
 40
0.050625
  1
10 31
 41
0.9
  7
Style-Arial
100
AcDbText
  0
TEXT
  5
E6
330
3C9
100
AcDbEntity
  8
_0
  6
Continuous
 62
     7
370
    13
100
AcDbText
 10
76.657204
 20
-53.388192
 30
0.0
 40
0.050625
  1
10 71
 41
0.9
  7
Style-Arial
100
AcDbText
  0
TEXT
  5
E7
330
3C9
100
AcDbEntity
  8
_0
  6
Continuous
 62
     7
370
    13
100
AcDbText
 10
76.657204
 20
-53.501202
 30
0.0
 40
0.050625
  1
10 91
 41
0.9
  7
Style-Arial
100
AcDbText
  0
TEXT
  5
E8
330
3C9
100
AcDbEntity
  8
_0
  6
Continuous
 62
     7
370
    13
100
AcDbText
 10
76.657375
 20
-53.614213
 30
0.0
 40
0.050625
  1
10 99
 41
0.9
  7
Style-Arial
100
AcDbText
  0
TEXT
  5
E9
330
3C9
100
AcDbEntity
  8
_0
  6
Continuous
 62
     7
370
    13
100
AcDbText
 10
76.657027
 20
-53.727223
 30
0.0
 40
0.050625
  1
11 00
 41
0.9
  7
Style-Arial
100
AcDbText
  0
TEXT
  5
EA
330
3C9
100
AcDbEntity
  8
_0
  6
Continuous
 62
     7
370
    13
100
AcDbText
 10
76.363432
 20
-52.82314
 30
0.0
 40
0.050625
  1
0 69
 41
0.9
  7
Style-Arial
100
AcDbText
  0
TEXT
  5
EB
330
3C9
100
AcDbEntity
  8
_0
  6
Continuous
 62
     7
370
    13
100
AcDbText
 10
76.363608
 20
-52.93615
 30
0.0
 40
0.050625
  1
0 98
 41
0.9
  7
Style-Arial
100
AcDbText
  0
TEXT
  5
EC
330
3C9
100
AcDbEntity
  8
_0
  6
Continuous
 62
     7
370
    13
100
AcDbText
 10
76.363249
 20
-53.04916
 30
0.0
 40
0.050625
  1
1 34
 41
0.9
  7
Style-Arial
100
AcDbText
  0
TEXT
  5
ED
330
3C9
100
AcDbEntity
  8
_0
  6
Continuous
 62
     7
370
    13
100
AcDbText
 10
76.36326
 20
-53.162171
 30
0.0
 40
0.050625
  1
1 79
 41
0.9
  7
Style-Arial
100
AcDbText
  0
TEXT
  5
EE
330
3C9
100
AcDbEntity
  8
_0
  6
Continuous
 62
     7
370
    13
100
AcDbText
 10
76.363603
 20
-53.27516
 30
0.0
 40
0.050625
  1
2 32
 50
2.0
 41
0.9
  7
Style-Arial
100
AcDbText
  0
TEXT
  5
EF
330
3C9
100
AcDbEntity
  8
_0
  6
Continuous
 62
     7
370
    13
100
AcDbText
 10
76.363608
 20
-53.388192
 30
0.0
 40
0.050625
  1
2 95
 41
0.9
  7
Style-Arial
100
AcDbText
  0
TEXT
  5
F0
330
3C9
100
AcDbEntity
  8
_0
  6
Continuous
 62
     7
370
    13
100
AcDbText
 10
76.363431
 20
-53.501202
 30
0.0
 40
0.050625
  1
3 68
 41
0.9
  7
Style-Arial
100
AcDbText
  0
TEXT
  5
F1
330
3C9
100
AcDbEntity
  8
_0
  6
Continuous
 62
     7
370
    13
100
AcDbText
 10
76.363608
 20
-53.614213
 30
0.0
 40
0.050625
  1
4 53
 41
0.9
  7
Style-Arial
100
AcDbText
  0
TEXT
  5
F2
330
3C9
100
AcDbEntity
  8
_0
  6
Continuous
 62
     7
370
    13
100
AcDbText
 10
76.363608
 20
-53.727223
 30
0.0
 40
0.050625
  1
5 50
 41
0.9
  7
Style-Arial
100
AcDbText
  0
TEXT
  5
F3
330
3C9
100
AcDbEntity
  8
_0
  6
Continuous
 62
     7
370
    13
100
AcDbText
 10
76.363256
 20
-53.840223
 30
0.0
 40
0.050625
  1
6 47
 41
0.9
  7
Style-Arial
100
AcDbText
  0
TEXT
  5
F4
330
3C9
100
AcDbEntity
  8
_0
  6
Continuous
 62
     7
370
    13
100
AcDbText
 10
76.363608
 20
-53.953233
 30
0.0
 40
0.050625
  1
7 32
 41
0.9
  7
Style-Arial
100
AcDbText
  0
TEXT
  5
F5
330
3C9
100
AcDbEntity
  8
_0
  6
Continuous
 62
     7
370
    13
100
AcDbText
 10
76.363608
 20
-54.066244
 30
0.0
 40
0.050625
  1
8 05
 41
0.9
  7
Style-Arial
100
AcDbText
  0
TEXT
  5
F6
330
3C9
100
AcDbEntity
  8
_0
  6
Continuous
 62
     7
370
    13
100
AcDbText
 10
76.363432
 20
-54.179254
 30
0.0
 40
0.050625
  1
8 68
 41
0.9
  7
Style-Arial
100
AcDbText
  0
TEXT
  5
F7
330
3C9
100
AcDbEntity
  8
_0
  6
Continuous
 62
     7
370
    13
100
AcDbText
 10
76.363426
 20
-54.292265
 30
0.0
 40
0.050625
  1
9 21
 41
0.9
  7
Style-Arial
100
AcDbText
  0
TEXT
  5
F8
330
3C9
100
AcDbEntity
  8
_0
  6
Continuous
 62
     7
370
    13
100
AcDbText
 10
76.363604
 20
-54.517244
 30
0.0
 40
0.050625
  1
10 02
 41
0.9
  7
Style-Arial
100
AcDbText
  0
TEXT
  5
F9
330
3C9
100
AcDbEntity
  8
_0
  6
Continuous
 62
     7
370
    13
100
AcDbText
 10
76.363432
 20
-54.630254
 30
0.0
 40
0.050625
  1
10 31
 41
0.9
  7
Style-Arial
100
AcDbText
  0
TEXT
  5
FA
330
3C9
100
AcDbEntity
  8
_0
  6
Continuous
 62
     7
370
    13
100
AcDbText
 10
76.069299
 20
-52.82314
 30
0.0
 40
0.050625
  1
6 65
 41
0.9
  7
Style-Arial
100
AcDbText
  0
TEXT
  5
FB
330
3C9
100
AcDbEntity
  8
_0
  6
Continuous
 62
     7
370
    13
100
AcDbText
 10
76.069661
 20
-52.93615
 30
0.0
 40
0.050625
  1
7 69
 41
0.9
  7
Style-Arial
100
AcDbText
  0
TEXT
  5
FC
330
3C9
100
AcDbEntity
  8
_0
  6
Continuous
 62
     7
370
    13
100
AcDbText
 10
76.069827
 20
-53.04916
 30
0.0
 40
0.050625
  1
8 78
 41
0.9
  7
Style-Arial
100
AcDbText
  0
TEXT
  5
FD
330
3C9
100
AcDbEntity
  8
_0
  6
Continuous
 62
     7
370
    13
100
AcDbText
 10
76.069837
 20
-53.162171
 30
0.0
 40
0.050625
  1
9 38
 41
0.9
  7
Style-Arial
100
AcDbText
  0
TEXT
  5
FE
330
3C9
100
AcDbEntity
  8
_0
  6
Continuous
 62
     7
370
    13
100
AcDbText
 10
76.069827
 20
-53.275181
 30
0.0
 40
0.050625
  1
9 74
 41
0.9
  7
Style-Arial
100
AcDbText
  0
TEXT
  5
FF
330
3C9
100
AcDbEntity
  8
_0
  6
Continuous
 62
     7
370
    13
100
AcDbText
 10
76.069827
 20
-53.388192
 30
0.0
 40
0.050625
  1
9 92
 41
0.9
  7
Style-Arial
100
AcDbText
  0
TEXT
  5
100
330
3C9
100
AcDbEntity
  8
_0
  6
Continuous
 62
     7
370
    13
100
AcDbText
 10
76.069827
 20
-53.501202
 30
0.0
 40
0.050625
  1
9 99
 41
0.9
  7
Style-Arial
100
AcDbText
  0
TEXT
  5
101
330
3C9
100
AcDbEntity
  8
_0
  6
Continuous
 62
     7
370
    13
100
AcDbText
 10
76.069834
 20
-53.614213
 30
0.0
 40
0.050625
  1
10 00
 41
0.9
  7
Style-Arial
100
AcDbText
  0
TEXT
  5
102
330
3C9
100
AcDbEntity
  8
_0
  6
Continuous
 62
     7
370
    13
100
AcDbText
 10
76.069827
 20
-53.727223
 30
0.0
 40
0.050625
  1
8 00
 41
0.9
  7
Style-Arial
100
AcDbText
  0
TEXT
  5
103
330
3C9
100
AcDbEntity
  8
_0
  6
Continuous
 62
     7
370
    13
100
AcDbText
 10
75.77588
 20
-52.82314
 30
0.0
 40
0.050625
  1
0 63
 41
0.9
  7
Style-Arial
100
AcDbText
  0
TEXT
  5
104
330
3C9
100
AcDbEntity
  8
_0
  6
Continuous
 62
     7
370
    13
100
AcDbText
 10
75.77588
 20
-52.93615
 30
0.0
 40
0.050625
  1
0 69
 41
0.9
  7
Style-Arial
100
AcDbText
  0
TEXT
  5
105
330
3C9
100
AcDbEntity
  8
_0
  6
Continuous
 62
     7
370
    13
100
AcDbText
 10
75.775707
 20
-53.04916
 30
0.0
 40
0.050625
  1
1 22
 41
0.9
  7
Style-Arial
100
AcDbText
  0
TEXT
  5
106
330
3C9
100
AcDbEntity
  8
_0
  6
Continuous
 62
     7
370
    13
100
AcDbText
 10
75.775531
 20
-53.162171
 30
0.0
 40
0.050625
  1
1 62
 41
0.9
  7
Style-Arial
100
AcDbText
  0
TEXT
  5
107
330
3C9
100
AcDbEntity
  8
_0
  6
Continuous
 62
     7
370
    13
100
AcDbText
 10
75.775705
 20
-53.275181
 30
0.0
 40
0.050625
  1
2 11
 41
0.9
  7
Style-Arial
100
AcDbText
  0
TEXT
  5
108
330
3C9
100
AcDbEntity
  8
_0
  6
Continuous
 62
     7
370
    13
100
AcDbText
 10
75.77588
 20
-53.388192
 30
0.0
 40
0.050625
  1
2 68
 41
0.9
  7
Style-Arial
100
AcDbText
  0
TEXT
  5
109
330
3C9
100
AcDbEntity
  8
_0
  6
Continuous
 62
     7
370
    13
100
AcDbText
 10
75.776055
 20
-53.501202
 30
0.0
 40
0.050625
  1
3 35
 41
0.9
  7
Style-Arial
100
AcDbText
  0
TEXT
  5
10A
330
3C9
100
AcDbEntity
  8
_0
  6
Continuous
 62
     7
370
    13
100
AcDbText
 10
75.776052
 20
-53.614213
 30
0.0
 40
0.050625
  1
4 123
 41
0.9
  7
Style-Arial
100
AcDbText
  0
TEXT
  5
10B
330
3C9
100
AcDbEntity
  8
_0
  6
Continuous
 62
     7
370
    13
100
AcDbText
 10
75.776056
 20
-53.727223
 30
0.0
 40
0.050625
  1
5 00
 41
0.9
  7
Style-Arial
100
AcDbText
  0
TEXT
  5
10C
330
3C9
100
AcDbEntity
  8
_0
  6
Continuous
 62
     7
370
    13
100
AcDbText
 10
75.776056
 20
-53.840223
 30
0.0
 40
0.050625
  1
5 88
 41
0.9
  7
Style-Arial
100
AcDbText
  0
TEXT
  5
10D
330
3C9
100
AcDbEntity
  8
_0
  6
Continuous
 62
     7
370
    13
100
AcDbText
 10
75.775528
 20
-53.953233
 30
0.0
 40
0.050625
  1
6 65
 41
0.9
  7
Style-Arial
100
AcDbText
  0
TEXT
  5
10E
330
3C9
100
AcDbEntity
  8
_0
  6
Continuous
 62
     7
370
    13
100
AcDbText
 10
75.776055
 20
-54.066244
 30
0.0
 40
0.050625
  1
7 32
 41
0.9
  7
Style-Arial
100
AcDbText
  0
TEXT
  5
10F
330
3C9
100
AcDbEntity
  8
_0
  6
Continuous
 62
     7
370
    13
100
AcDbText
 10
75.776056
 20
-54.179254
 30
0.0
 40
0.050625
  1
7 89
 41
0.9
  7
Style-Arial
100
AcDbText
  0
TEXT
  5
110
330
3C9
100
AcDbEntity
  8
_0
  6
Continuous
 62
     7
370
    13
100
AcDbText
 10
75.776055
 20
-54.292265
 30
0.0
 40
0.050625
  1
8 38
 41
0.9
  7
Style-Arial
100
AcDbText
  0
TEXT
  5
111
330
3C9
100
AcDbEntity
  8
_0
  6
Continuous
 62
     7
370
    13
100
AcDbText
 10
75.776056
 20
-54.405275
 30
0.0
 40
0.050625
  1
8 78
 41
0.9
  7
Style-Arial
100
AcDbText
  0
TEXT
  5
112
330
3C9
100
AcDbEntity
  8
_0
  6
Continuous
 62
     7
370
    13
100
AcDbText
 10
75.775705
 20
-54.518275
 30
0.0
 40
0.050625
  1
9 11
 41
0.9
  7
Style-Arial
100
AcDbText
  0
TEXT
  5
113
330
3C9
100
AcDbEntity
  8
_0
  6
Continuous
 62
     7
370
    13
100
AcDbText
 10
75.776055
 20
-54.631285
 30
0.0
 40
0.050625
  1
9 38
 41
0.9
  7
Style-Arial
100
AcDbText
  0
TEXT
  5
114
330
3C9
100
AcDbEntity
  8
_0
  6
Continuous
 62
     7
370
    13
100
AcDbText
 10
75.482285
 20
-52.82314
 30
0.0
 40
0.050625
  1
4 50
 41
0.9
  7
Style-Arial
100
AcDbText
  0
TEXT
  5
115
330
3C9
100
AcDbEntity
  8
_0
  6
Continuous
 62
     7
370
    13
100
AcDbText
 10
75.482285
 20
-52.93615
 30
0.0
 40
0.050625
  1
5 99
 41
0.9
  7
Style-Arial
100
AcDbText
  0
TEXT
  5
116
330
3C9
100
AcDbEntity
  8
_0
  6
Continuous
 62
     7
370
    13
100
AcDbText
 10
75.482116
 20
-53.04916
 30
0.0
 40
0.050625
  1
7 10
 41
0.9
  7
Style-Arial
100
AcDbText
  0
TEXT
  5
117
330
3C9
100
AcDbEntity
  8
_0
  6
Continuous
 62
     7
370
    13
100
AcDbText
 10
75.482285
 20
-53.162171
 30
0.0
 40
0.050625
  1
7 90
 41
0.9
  7
Style-Arial
100
AcDbText
  0
TEXT
  5
118
330
3C9
100
AcDbEntity
  8
_0
  6
Continuous
 62
     7
370
    13
100
AcDbText
 10
75.482285
 20
-53.275181
 30
0.0
 40
0.050625
  1
8 44
 41
0.9
  7
Style-Arial
100
AcDbText
  0
TEXT
  5
119
330
3C9
100
AcDbEntity
  8
_0
  6
Continuous
 62
     7
370
    13
100
AcDbText
 10
75.482108
 20
-53.388192
 30
0.0
 40
0.050625
  1
8 76
 41
0.9
  7
Style-Arial
100
AcDbText
  0
TEXT
  5
11A
330
3C9
100
AcDbEntity
  8
_0
  6
Continuous
 62
     7
370
    13
100
AcDbText
 10
75.482285
 20
-53.501202
 30
0.0
 40
0.050625
  1
8 93
 41
0.9
  7
Style-Arial
100
AcDbText
  0
TEXT
  5
11B
330
3C9
100
AcDbEntity
  8
_0
  6
Continuous
 62
     7
370
    13
100
AcDbText
 10
75.482285
 20
-53.614213
 30
0.0
 40
0.050625
  1
8 99
 41
0.9
  7
Style-Arial
100
AcDbText
  0
TEXT
  5
11C
330
3C9
100
AcDbEntity
  8
_0
  6
Continuous
 62
     7
370
    13
100
AcDbText
 10
75.482285
 20
-53.727223
 30
0.0
 40
0.050625
  1
9 00
 41
0.9
  7
Style-Arial
100
AcDbText
  0
TEXT
  5
11D
330
3C9
100
AcDbEntity
  8
_0
  6
Continuous
 62
     7
370
    13
100
AcDbText
 10
75.188337
 20
-52.82314
 30
0.0
 40
0.050625
  1
0 56
 41
0.9
  7
Style-Arial
100
AcDbText
  0
TEXT
  5
11E
330
3C9
100
AcDbEntity
  8
_0
  6
Continuous
 62
     7
370
    13
100
AcDbText
 10
75.188514
 20
-52.93615
 30
0.0
 40
0.050625
  1
0 80
 41
0.9
  7
Style-Arial
100
AcDbText
  0
TEXT
  5
11F
330
3C9
100
AcDbEntity
  8
_0
  6
Continuous
 62
     7
370
    13
100
AcDbText
 10
75.187986
 20
-53.04916
 30
0.0
 40
0.050625
  1
1 10
 41
0.9
  7
Style-Arial
100
AcDbText
  0
TEXT
  5
120
330
3C9
100
AcDbEntity
  8
_0
  6
Continuous
 62
     7
370
    13
100
AcDbText
 10
75.187978
 20
-53.162171
 30
0.0
 40
0.050625
  1
1 46
 41
0.9
  7
Style-Arial
100
AcDbText
  0
TEXT
  5
121
330
3C9
100
AcDbEntity
  8
_0
  6
Continuous
 62
     7
370
    13
100
AcDbText
 10
75.188166
 20
-53.275181
 30
0.0
 40
0.050625
  1
1 90
 41
0.9
  7
Style-Arial
100
AcDbText
  0
TEXT
  5
122
330
3C9
100
AcDbEntity
  8
_0
  6
Continuous
 62
     7
370
    13
100
AcDbText
 10
75.188332
 20
-53.388192
 30
0.0
 40
0.050625
  1
2 41
 41
0.9
  7
Style-Arial
100
AcDbText
  0
TEXT
  5
123
330
3C9
100
AcDbEntity
  8
_0
  6
Continuous
 62
     7
370
    13
100
AcDbText
 10
75.188331
 20
-53.501202
 30
0.0
 40
0.050625
  1
3 01
 41
0.9
  7
Style-Arial
100
AcDbText
  0
TEXT
  5
124
330
3C9
100
AcDbEntity
  8
_0
  6
Continuous
 62
     7
370
    13
100
AcDbText
 10
75.188331
 20
-53.614213
 30
0.0
 40
0.050625
  1
3 71
 41
0.9
  7
Style-Arial
100
AcDbText
  0
TEXT
  5
125
330
3C9
100
AcDbEntity
  8
_0
  6
Continuous
 62
     7
370
    13
100
AcDbText
 10
75.188514
 20
-53.727223
 30
0.0
 40
0.050625
  1
4 50
 41
0.9
  7
Style-Arial
100
AcDbText
  0
TEXT
  5
126
330
3C9
100
AcDbEntity
  8
_0
  6
Continuous
 62
     7
370
    13
100
AcDbText
 10
75.188514
 20
-53.840223
 30
0.0
 40
0.050625
  1
5 29
 41
0.9
  7
Style-Arial
100
AcDbText
  0
TEXT
  5
127
330
3C9
100
AcDbEntity
  8
_0
  6
Continuous
 62
     7
370
    13
100
AcDbText
 10
75.188514
 20
-53.953233
 30
0.0
 40
0.050625
  1
5 99
 41
0.9
  7
Style-Arial
100
AcDbText
  0
TEXT
  5
128
330
3C9
100
AcDbEntity
  8
_0
  6
Continuous
 62
     7
370
    13
100
AcDbText
 10
75.188162
 20
-54.066244
 30
0.0
 40
0.050625
  1
6 59
 41
0.9
  7
Style-Arial
100
AcDbText
  0
TEXT
  5
129
330
3C9
100
AcDbEntity
  8
_0
  6
Continuous
 62
     7
370
    13
100
AcDbText
 10
75.188335
 20
-54.179254
 30
0.0
 40
0.050625
  1
7 10
 41
0.9
  7
Style-Arial
100
AcDbText
  0
TEXT
  5
12A
330
3C9
100
AcDbEntity
  8
_0
  6
Continuous
 62
     7
370
    13
100
AcDbText
 10
75.188514
 20
-54.292265
 30
0.0
 40
0.050625
  1
7 54
 41
0.9
  7
Style-Arial
100
AcDbText
  0
TEXT
  5
12B
330
3C9
100
AcDbEntity
  8
_0
  6
Continuous
 62
     7
370
    13
100
AcDbText
 10
75.188514
 20
-54.405275
 30
0.0
 40
0.050625
  1
7 90
 41
0.9
  7
Style-Arial
100
AcDbText
  0
TEXT
  5
12C
330
3C9
100
AcDbEntity
  8
_0
  6
Continuous
 62
     7
370
    13
100
AcDbText
 10
75.188514
 20
-54.518275
 30
0.0
 40
0.050625
  1
8 20
 41
0.9
  7
Style-Arial
100
AcDbText
  0
TEXT
  5
12D
330
3C9
100
AcDbEntity
  8
_0
  6
Continuous
 62
     7
370
    13
100
AcDbText
 10
75.188514
 20
-54.631285
 30
0.0
 40
0.050625
  1
8 44
 41
0.9
  7
Style-Arial
100
AcDbText
  0
TEXT
  5
12E
330
3C9
100
AcDbEntity
  8
_0
  6
Continuous
 62
     7
370
    13
100
AcDbText
 10
74.894733
 20
-52.82314
 30
0.0
 40
0.050625
  1
4 00
 41
0.9
  7
Style-Arial
100
AcDbText
  0
TEXT
  5
12F
330
3C9
100
AcDbEntity
  8
_0
  6
Continuous
 62
     7
370
    13
100
AcDbText
 10
74.894743
 20
-52.93615
 30
0.0
 40
0.050625
  1
5 32
 41
0.9
  7
Style-Arial
100
AcDbText
  0
TEXT
  5
130
330
3C9
100
AcDbEntity
  8
_0
  6
Continuous
 62
     7
370
    13
100
AcDbText
 10
74.894209
 20
-53.04916
 30
0.0
 40
0.050625
  1
6 31
 41
0.9
  7
Style-Arial
100
AcDbText
  0
TEXT
  5
131
330
3C9
100
AcDbEntity
  8
_0
  6
Continuous
 62
     7
370
    13
100
AcDbText
 10
74.894733
 20
-53.162171
 30
0.0
 40
0.050625
  1
7 02
 41
0.9
  7
Style-Arial
100
AcDbText
  0
TEXT
  5
132
330
3C9
100
AcDbEntity
  8
_0
  6
Continuous
 62
     7
370
    13
100
AcDbText
 10
74.894733
 20
-53.275181
 30
0.0
 40
0.050625
  1
7 50
 41
0.9
  7
Style-Arial
100
AcDbText
  0
TEXT
  5
133
330
3C9
100
AcDbEntity
  8
_0
  6
Continuous
 62
     7
370
    13
100
AcDbText
 10
74.894733
 20
-53.388192
 30
0.0
 40
0.050625
  1
7 79
 41
0.9
  7
Style-Arial
100
AcDbText
  0
TEXT
  5
134
330
3C9
100
AcDbEntity
  8
_0
  6
Continuous
 62
     7
370
    13
100
AcDbText
 10
74.894733
 20
-53.501202
 30
0.0
 40
0.050625
  1
7 94
 41
0.9
  7
Style-Arial
100
AcDbText
  0
TEXT
  5
135
330
3C9
100
AcDbEntity
  8
_0
  6
Continuous
 62
     7
370
    13
100
AcDbText
 10
74.894733
 20
-53.614213
 30
0.0
 40
0.050625
  1
7 99
 41
0.9
  7
Style-Arial
100
AcDbText
  0
TEXT
  5
136
330
3C9
100
AcDbEntity
  8
_0
  6
Continuous
 62
     7
370
    13
100
AcDbText
 10
74.894733
 20
-53.727223
 30
0.0
 40
0.050625
  1
8 00
 41
0.9
  7
Style-Arial
100
AcDbText
  0
TEXT
  5
137
330
3C9
100
AcDbEntity
  8
_0
  6
Continuous
 62
     7
370
    13
100
AcDbText
 10
74.600962
 20
-52.82314
 30
0.0
 40
0.050625
  1
0 50
 41
0.9
  7
Style-Arial
100
AcDbText
  0
TEXT
  5
138
330
3C9
100
AcDbEntity
  8
_0
  6
Continuous
 62
     7
370
    13
100
AcDbText
 10
74.60079
 20
-52.93615
 30
0.0
 40
0.050625
  1
0 71
 41
0.9
  7
Style-Arial
100
AcDbText
  0
TEXT
  5
139
330
3C9
100
AcDbEntity
  8
_0
  6
Continuous
 62
     7
370
    13
100
AcDbText
 10
74.600785
 20
-53.04916
 30
0.0
 40
0.050625
  1
0 96
 41
0.9
  7
Style-Arial
100
AcDbText
  0
TEXT
  5
13A
330
3C9
100
AcDbEntity
  8
_0
  6
Continuous
 62
     7
370
    13
100
AcDbText
 10
74.600613
 20
-53.162171
 30
0.0
 40
0.050625
  1
1 30
 41
0.9
  7
Style-Arial
100
AcDbText
  0
TEXT
  5
13B
330
3C9
100
AcDbEntity
  8
_0
  6
Continuous
 62
     7
370
    13
100
AcDbText
 10
74.600438
 20
-53.275181
 30
0.0
 40
0.050625
  1
1 69
 41
0.9
  7
Style-Arial
100
AcDbText
  0
TEXT
  5
13C
330
3C9
100
AcDbEntity
  8
_0
  6
Continuous
 62
     7
370
    13
100
AcDbText
 10
74.600793
 20
-53.388192
 30
0.0
 40
0.050625
  1
2 15
 41
0.9
  7
Style-Arial
100
AcDbText
  0
TEXT
  5
13D
330
3C9
100
AcDbEntity
  8
_0
  6
Continuous
 62
     7
370
    13
100
AcDbText
 10
74.600786
 20
-53.501202
 30
0.0
 40
0.050625
  1
2 68
 41
0.9
  7
Style-Arial
100
AcDbText
  0
TEXT
  5
13E
330
3C9
100
AcDbEntity
  8
_0
  6
Continuous
 62
     7
370
    13
100
AcDbText
 10
74.600961
 20
-53.614213
 30
0.0
 40
0.050625
  1
3 30
 41
0.9
  7
Style-Arial
100
AcDbText
  0
TEXT
  5
13F
330
3C9
100
AcDbEntity
  8
_0
  6
Continuous
 62
     7
370
    13
100
AcDbText
 10
74.600962
 20
-53.727223
 30
0.0
 40
0.050625
  1
4 00
 41
0.9
  7
Style-Arial
100
AcDbText
  0
TEXT
  5
140
330
3C9
100
AcDbEntity
  8
_0
  6
Continuous
 62
     7
370
    13
100
AcDbText
 10
74.600962
 20
-53.840223
 30
0.0
 40
0.050625
  1
4 70
 41
0.9
  7
Style-Arial
100
AcDbText
  0
TEXT
  5
141
330
3C9
100
AcDbEntity
  8
_0
  6
Continuous
 62
     7
370
    13
100
AcDbText
 10
74.600962
 20
-53.953233
 30
0.0
 40
0.050625
  1
5 32
 41
0.9
  7
Style-Arial
100
AcDbText
  0
TEXT
  5
142
330
3C9
100
AcDbEntity
  8
_0
  6
Continuous
 62
     7
370
    13
100
AcDbText
 10
74.600962
 20
-54.066244
 30
0.0
 40
0.050625
  1
5 85
 41
0.9
  7
Style-Arial
100
AcDbText
  0
TEXT
  5
143
330
3C9
100
AcDbEntity
  8
_0
  6
Continuous
 62
     7
370
    13
100
AcDbText
 10
74.600438
 20
-54.179254
 30
0.0
 40
0.050625
  1
6 31
 41
0.9
  7
Style-Arial
100
AcDbText
  0
TEXT
  5
144
330
3C9
100
AcDbEntity
  8
_0
  6
Continuous
 62
     7
370
    13
100
AcDbText
 10
74.60061
 20
-54.292265
 30
0.0
 40
0.050625
  1
6 70
 41
0.9
  7
Style-Arial
100
AcDbText
  0
TEXT
  5
145
330
3C9
100
AcDbEntity
  8
_0
  6
Continuous
 62
     7
370
    13
100
AcDbText
 10
74.600962
 20
-54.405275
 30
0.0
 40
0.050625
  1
7 02
 41
0.9
  7
Style-Arial
100
AcDbText
  0
TEXT
  5
146
330
3C9
100
AcDbEntity
  8
_0
  6
Continuous
 62
     7
370
    13
100
AcDbText
 10
74.600962
 20
-54.518275
 30
0.0
 40
0.050625
  1
7 29
 41
0.9
  7
Style-Arial
100
AcDbText
  0
TEXT
  5
147
330
3C9
100
AcDbEntity
  8
_0
  6
Continuous
 62
     7
370
    13
100
AcDbText
 10
74.600962
 20
-54.631285
 30
0.0
 40
0.050625
  1
7 50
 41
0.9
  7
Style-Arial
100
AcDbText
  0
TEXT
  5
148
330
3C9
100
AcDbEntity
  8
_0
  6
Continuous
 62
     7
370
    13
100
AcDbText
 10
74.307191
 20
-52.82314
 30
0.0
 40
0.050625
  1
3 50
 41
0.9
  7
Style-Arial
100
AcDbText
  0
TEXT
  5
149
330
3C9
100
AcDbEntity
  8
_0
  6
Continuous
 62
     7
370
    13
100
AcDbText
 10
74.306838
 20
-52.93615
 30
0.0
 40
0.050625
  1
4 66
 41
0.9
  7
Style-Arial
100
AcDbText
  0
TEXT
  5
14A
330
3C9
100
AcDbEntity
  8
_0
  6
Continuous
 62
     7
370
    13
100
AcDbText
 10
74.307191
 20
-53.04916
 30
0.0
 40
0.050625
  1
5 52
 41
0.9
  7
Style-Arial
100
AcDbText
  0
TEXT
  5
14B
330
3C9
100
AcDbEntity
  8
_0
  6
Continuous
 62
     7
370
    13
100
AcDbText
 10
74.30666
 20
-53.162171
 30
0.0
 40
0.050625
  1
6 15
 41
0.9
  7
Style-Arial
100
AcDbText
  0
TEXT
  5
14C
330
3C9
100
AcDbEntity
  8
_0
  6
Continuous
 62
     7
370
    13
100
AcDbText
 10
74.306662
 20
-53.275181
 30
0.0
 40
0.050625
  1
6 56
 41
0.9
  7
Style-Arial
100
AcDbText
  0
TEXT
  5
14D
330
3C9
100
AcDbEntity
  8
_0
  6
Continuous
 62
     7
370
    13
100
AcDbText
 10
74.306839
 20
-53.388192
 30
0.0
 40
0.050625
  1
6 82
 41
0.9
  7
Style-Arial
100
AcDbText
  0
TEXT
  5
14E
330
3C9
100
AcDbEntity
  8
_0
  6
Continuous
 62
     7
370
    13
100
AcDbText
 10
74.306839
 20
-53.501202
 30
0.0
 40
0.050625
  1
6 95
 41
0.9
  7
Style-Arial
100
AcDbText
  0
TEXT
  5
14F
330
3C9
100
AcDbEntity
  8
_0
  6
Continuous
 62
     7
370
    13
100
AcDbText
 10
74.306839
 20
-53.614213
 30
0.0
 40
0.050625
  1
6 99
 41
0.9
  7
Style-Arial
100
AcDbText
  0
TEXT
  5
150
330
3C9
100
AcDbEntity
  8
_0
  6
Continuous
 62
     7
370
    13
100
AcDbText
 10
74.307191
 20
-53.727223
 30
0.0
 40
0.050625
  1
7 00
 41
0.9
  7
Style-Arial
100
AcDbText
  0
TEXT
  5
151
330
3C9
100
AcDbEntity
  8
_0
  6
Continuous
 62
     7
370
    13
100
AcDbText
 10
74.013244
 20
-52.82314
 30
0.0
 40
0.050625
  1
0 65
 41
0.9
  7
Style-Arial
100
AcDbText
  0
TEXT
  5
152
330
3C9
100
AcDbEntity
  8
_0
  6
Continuous
 62
     7
370
    13
100
AcDbText
 10
74.01342
 20
-52.93615
 30
0.0
 40
0.050625
  1
0 93
 41
0.9
  7
Style-Arial
100
AcDbText
  0
TEXT
  5
153
330
3C9
100
AcDbEntity
  8
_0
  6
Continuous
 62
     7
370
    13
100
AcDbText
 10
74.013062
 20
-53.04916
 30
0.0
 40
0.050625
  1
1 28
 41
0.9
  7
Style-Arial
100
AcDbText
  0
TEXT
  5
154
330
3C9
100
AcDbEntity
  8
_0
  6
Continuous
 62
     7
370
    13
100
AcDbText
 10
74.013062
 20
-53.162171
 30
0.0
 40
0.050625
  1
1 70
 41
0.9
  7
Style-Arial
100
AcDbText
  0
TEXT
  5
155
330
3C9
100
AcDbEntity
  8
_0
  6
Continuous
 62
     7
370
    13
100
AcDbText
 10
74.01342
 20
-53.275181
 30
0.0
 40
0.050625
  1
2 20
 41
0.9
  7
Style-Arial
100
AcDbText
  0
TEXT
  5
156
330
3C9
100
AcDbEntity
  8
_0
  6
Continuous
 62
     7
370
    13
100
AcDbText
 10
74.01342
 20
-53.388192
 30
0.0
 40
0.050625
  1
2 80
 41
0.9
  7
Style-Arial
100
AcDbText
  0
TEXT
  5
157
330
3C9
100
AcDbEntity
  8
_0
  6
Continuous
 62
     7
370
    13
100
AcDbText
 10
74.01342
 20
-53.501202
 30
0.0
 40
0.050625
  1
3 50
 41
0.9
  7
Style-Arial
100
AcDbText
  0
TEXT
  5
158
330
3C9
100
AcDbEntity
  8
_0
  6
Continuous
 62
     7
370
    13
100
AcDbText
 10
74.01342
 20
-53.614213
 30
0.0
 40
0.050625
  1
4 20
 41
0.9
  7
Style-Arial
100
AcDbText
  0
TEXT
  5
159
330
3C9
100
AcDbEntity
  8
_0
  6
Continuous
 62
     7
370
    13
100
AcDbText
 10
74.01342
 20
-53.727223
 30
0.0
 40
0.050625
  1
4 80
 41
0.9
  7
Style-Arial
100
AcDbText
  0
TEXT
  5
15A
330
3C9
100
AcDbEntity
  8
_0
  6
Continuous
 62
     7
370
    13
100
AcDbText
 10
74.01342
 20
-53.840223
 30
0.0
 40
0.050625
  1
5 30
 41
0.9
  7
Style-Arial
100
AcDbText
  0
TEXT
  5
15B
330
3C9
100
AcDbEntity
  8
_0
  6
Continuous
 62
     7
370
    13
100
AcDbText
 10
74.012889
 20
-53.953233
 30
0.0
 40
0.050625
  1
6 19
 41
0.9
  7
Style-Arial
100
AcDbText
  0
TEXT
  5
15C
330
3C9
100
AcDbEntity
  8
_0
  6
Continuous
 62
     7
370
    13
100
AcDbText
 10
74.013068
 20
-54.066244
 30
0.0
 40
0.050625
  1
6 07
 41
0.9
  7
Style-Arial
100
AcDbText
  0
TEXT
  5
15D
330
3C9
100
AcDbEntity
  8
_0
  6
Continuous
 62
     7
370
    13
100
AcDbText
 10
74.013068
 20
-54.179254
 30
0.0
 40
0.050625
  1
6 35
 41
0.9
  7
Style-Arial
100
AcDbText
  0
TEXT
  5
15E
330
3C9
100
AcDbEntity
  8
_0
  6
Continuous
 62
     7
370
    13
100
AcDbText
 10
74.012891
 20
-54.292265
 30
0.0
 40
0.050625
  1
6 56
 41
0.9
  7
Style-Arial
100
AcDbText
  0
TEXT
  5
15F
330
3C9
100
AcDbEntity
  8
_0
  6
Continuous
 62
     7
370
    13
100
AcDbText
 10
74.013068
 20
-54.405275
 30
0.0
 40
0.050625
  1
6 72
 41
0.9
  7
Style-Arial
100
AcDbText
  0
TEXT
  5
160
330
3C9
100
AcDbEntity
  8
_0
  6
Continuous
 62
     7
370
    13
100
AcDbText
 10
74.013068
 20
-54.518275
 30
0.0
 40
0.050625
  1
6 84
 41
0.9
  7
Style-Arial
100
AcDbText
  0
TEXT
  5
161
330
3C9
100
AcDbEntity
  8
_0
  6
Continuous
 62
     7
370
    13
100
AcDbText
 10
74.013068
 20
-54.631285
 30
0.0
 40
0.050625
  1
6 92
 41
0.9
  7
Style-Arial
100
AcDbText
  0
TEXT
  5
162
330
3C9
100
AcDbEntity
  8
_0
  6
Continuous
 62
     7
370
    13
100
AcDbText
 10
73.425868
 20
-52.82314
 30
0.0
 40
0.050625
  1
0 89
 41
0.9
  7
Style-Arial
100
AcDbText
  0
TEXT
  5
163
330
3C9
100
AcDbEntity
  8
_0
  6
Continuous
 62
     7
370
    13
100
AcDbText
 10
73.42552
 20
-52.93615
 30
0.0
 40
0.050625
  1
1 27
 41
0.9
  7
Style-Arial
100
AcDbText
  0
TEXT
  5
164
330
3C9
100
AcDbEntity
  8
_0
  6
Continuous
 62
     7
370
    13
100
AcDbText
 10
73.42552
 20
-53.04916
 30
0.0
 40
0.050625
  1
1 74
 41
0.9
  7
Style-Arial
100
AcDbText
  0
TEXT
  5
165
330
3C9
100
AcDbEntity
  8
_0
  6
Continuous
 62
     7
370
    13
100
AcDbText
 10
73.425696
 20
-53.162171
 30
0.0
 40
0.050625
  1
2 31
 41
0.9
  7
Style-Arial
100
AcDbText
  0
TEXT
  5
166
330
3C9
100
AcDbEntity
  8
_0
  6
Continuous
 62
     7
370
    13
100
AcDbText
 10
73.425868
 20
-53.275181
 30
0.0
 40
0.050625
  1
3 00
 41
0.9
  7
Style-Arial
100
AcDbText
  0
TEXT
  5
167
330
3C9
100
AcDbEntity
  8
_0
  6
Continuous
 62
     7
370
    13
100
AcDbText
 10
73.425702
 20
-53.388192
 30
0.0
 40
0.050625
  1
3 69
 41
0.9
  7
Style-Arial
100
AcDbText
  0
TEXT
  5
168
330
3C9
100
AcDbEntity
  8
_0
  6
Continuous
 62
     7
370
    13
100
AcDbText
 10
73.425691
 20
-53.501202
 30
0.0
 40
0.050625
  1
4 26
 41
0.9
  7
Style-Arial
100
AcDbText
  0
TEXT
  5
169
330
3C9
100
AcDbEntity
  8
_0
  6
Continuous
 62
     7
370
    13
100
AcDbText
 10
73.425864
 20
-53.614155
 30
0.0
 40
0.050625
  1
4 73
 50
4.0
 41
0.9
  7
Style-Arial
100
AcDbText
  0
TEXT
  5
16A
330
3C9
100
AcDbEntity
  8
_0
  6
Continuous
 62
     7
370
    13
100
AcDbText
 10
73.425517
 20
-53.727223
 30
0.0
 40
0.050625
  1
5 11
 41
0.9
  7
Style-Arial
100
AcDbText
  0
TEXT
  5
16B
330
3C9
100
AcDbEntity
  8
_0
  6
Continuous
 62
     7
370
    13
100
AcDbText
 10
73.425868
 20
-53.840223
 30
0.0
 40
0.050625
  1
5 40
 41
0.9
  7
Style-Arial
100
AcDbText
  0
TEXT
  5
16C
330
3C9
100
AcDbEntity
  8
_0
  6
Continuous
 62
     7
370
    13
100
AcDbText
 10
73.425692
 20
-53.953233
 30
0.0
 40
0.050625
  1
5 63
 41
0.9
  7
Style-Arial
100
AcDbText
  0
TEXT
  5
16D
330
3C9
100
AcDbEntity
  8
_0
  6
Continuous
 62
     7
370
    13
100
AcDbText
 10
73.425868
 20
-54.066244
 30
0.0
 40
0.050625
  1
5 78
 41
0.9
  7
Style-Arial
100
AcDbText
  0
TEXT
  5
16E
330
3C9
100
AcDbEntity
  8
_0
  6
Continuous
 62
     7
370
    13
100
AcDbText
 10
73.425868
 20
-54.179254
 30
0.0
 40
0.050625
  1
5 89
 41
0.9
  7
Style-Arial
100
AcDbText
  0
TEXT
  5
16F
330
3C9
100
AcDbEntity
  8
_0
  6
Continuous
 62
     7
370
    13
100
AcDbText
 10
73.425868
 20
-54.292265
 30
0.0
 40
0.050625
  1
5 95
 41
0.9
  7
Style-Arial
100
AcDbText
  0
TEXT
  5
170
330
3C9
100
AcDbEntity
  8
_0
  6
Continuous
 62
     7
370
    13
100
AcDbText
 10
73.425868
 20
-54.405275
 30
0.0
 40
0.050625
  1
5 99
 41
0.9
  7
Style-Arial
100
AcDbText
  0
TEXT
  5
171
330
3C9
100
AcDbEntity
  8
_0
  6
Continuous
 62
     7
370
    13
100
AcDbText
 10
73.425516
 20
-54.518275
 30
0.0
 40
0.050625
  1
6 00
 41
0.9
  7
Style-Arial
100
AcDbText
  0
TEXT
  5
172
330
3C9
100
AcDbEntity
  8
_0
  6
Continuous
 62
     7
370
    13
100
AcDbText
 10
73.132097
 20
-52.82314
 30
0.0
 40
0.050625
  1
2 50
 41
0.9
  7
Style-Arial
100
AcDbText
  0
TEXT
  5
173
330
3C9
100
AcDbEntity
  8
_0
  6
Continuous
 62
     7
370
    13
100
AcDbText
 10
73.132096
 20
-52.93615
 30
0.0
 40
0.050625
  1
3 33
 41
0.9
  7
Style-Arial
100
AcDbText
  0
TEXT
  5
174
330
3C9
100
AcDbEntity
  8
_0
  6
Continuous
 62
     7
370
    13
100
AcDbText
 10
73.132097
 20
-53.04916
 30
0.0
 40
0.050625
  1
3 95
 41
0.9
  7
Style-Arial
100
AcDbText
  0
TEXT
  5
175
330
3C9
100
AcDbEntity
  8
_0
  6
Continuous
 62
     7
370
    13
100
AcDbText
 10
73.132097
 20
-53.162171
 30
0.0
 40
0.050625
  1
4 39
 41
0.9
  7
Style-Arial
100
AcDbText
  0
TEXT
  5
176
330
3C9
100
AcDbEntity
  8
_0
  6
Continuous
 62
     7
370
    13
100
AcDbText
 10
73.131921
 20
-53.275181
 30
0.0
 40
0.050625
  1
4 69
 41
0.9
  7
Style-Arial
100
AcDbText
  0
TEXT
  5
177
330
3C9
100
AcDbEntity
  8
_0
  6
Continuous
 62
     7
370
    13
100
AcDbText
 10
73.132097
 20
-53.388192
 30
0.0
 40
0.050625
  1
4 87
 41
0.9
  7
Style-Arial
100
AcDbText
  0
TEXT
  5
178
330
3C9
100
AcDbEntity
  8
_0
  6
Continuous
 62
     7
370
    13
100
AcDbText
 10
73.13192
 20
-53.501202
 30
0.0
 40
0.050625
  1
4 96
 41
0.9
  7
Style-Arial
100
AcDbText
  0
TEXT
  5
179
330
3C9
100
AcDbEntity
  8
_0
  6
Continuous
 62
     7
370
    13
100
AcDbText
 10
73.132097
 20
-53.614213
 30
0.0
 40
0.050625
  1
5 00
 41
0.9
  7
Style-Arial
100
AcDbText
  0
TEXT
  5
17A
330
3C9
100
AcDbEntity
  8
_0
  6
Continuous
 62
     7
370
    13
100
AcDbText
 10
73.132097
 20
-53.727223
 30
0.0
 40
0.050625
  1
5 00
 41
0.9
  7
Style-Arial
100
AcDbText
  0
TEXT
  5
17B
330
3C9
100
AcDbEntity
  8
_0
  6
Continuous
 62
     7
370
    13
100
AcDbText
 10
72.837968
 20
-52.82314
 30
0.0
 40
0.050625
  1
1 28
 41
0.9
  7
Style-Arial
100
AcDbText
  0
TEXT
  5
17C
330
3C9
100
AcDbEntity
  8
_0
  6
Continuous
 62
     7
370
    13
100
AcDbText
 10
72.837968
 20
-52.93615
 30
0.0
 40
0.050625
  1
1 82
 41
0.9
  7
Style-Arial
100
AcDbText
  0
TEXT
  5
17D
330
3C9
100
AcDbEntity
  8
_0
  6
Continuous
 62
     7
370
    13
100
AcDbText
 10
72.838327
 20
-53.04916
 30
0.0
 40
0.050625
  1
2 50
 41
0.9
  7
Style-Arial
100
AcDbText
  0
TEXT
  5
17E
330
3C9
100
AcDbEntity
  8
_0
  6
Continuous
 62
     7
370
    13
100
AcDbText
 10
72.838147
 20
-53.162171
 30
0.0
 40
0.050625
  1
3 18
 41
0.9
  7
Style-Arial
100
AcDbText
  0
TEXT
  5
17F
330
3C9
100
AcDbEntity
  8
_0
  6
Continuous
 62
     7
370
    13
100
AcDbText
 10
72.838326
 20
-53.275181
 30
0.0
 40
0.050625
  1
3 72
 41
0.9
  7
Style-Arial
100
AcDbText
  0
TEXT
  5
180
330
3C9
100
AcDbEntity
  8
_0
  6
Continuous
 62
     7
370
    13
100
AcDbText
 10
72.838147
 20
-53.388192
 30
0.0
 40
0.050625
  1
4 14
 41
0.9
  7
Style-Arial
100
AcDbText
  0
TEXT
  5
181
330
3C9
100
AcDbEntity
  8
_0
  6
Continuous
 62
     7
370
    13
100
AcDbText
 10
72.83815
 20
-53.501202
 30
0.0
 40
0.050625
  1
4 46
 41
0.9
  7
Style-Arial
100
AcDbText
  0
TEXT
  5
182
330
3C9
100
AcDbEntity
  8
_0
  6
Continuous
 62
     7
370
    13
100
AcDbText
 10
72.838151
 20
-53.614213
 30
0.0
 40
0.050625
  1
4 69
 41
0.9
  7
Style-Arial
100
AcDbText
  0
TEXT
  5
183
330
3C9
100
AcDbEntity
  8
_0
  6
Continuous
 62
     7
370
    13
100
AcDbText
 10
72.838327
 20
-53.727223
 30
0.0
 40
0.050625
  1
4 84
 41
0.9
  7
Style-Arial
100
AcDbText
  0
TEXT
  5
184
330
3C9
100
AcDbEntity
  8
_0
  6
Continuous
 62
     7
370
    13
100
AcDbText
 10
72.838327
 20
-53.840223
 30
0.0
 40
0.050625
  1
4 93
 41
0.9
  7
Style-Arial
100
AcDbText
  0
TEXT
  5
185
330
3C9
100
AcDbEntity
  8
_0
  6
Continuous
 62
     7
370
    13
100
AcDbText
 10
72.838327
 20
-53.953233
 30
0.0
 40
0.050625
  1
4 98
 41
0.9
  7
Style-Arial
100
AcDbText
  0
TEXT
  5
186
330
3C9
100
AcDbEntity
  8
_0
  6
Continuous
 62
     7
370
    13
100
AcDbText
 10
72.838327
 20
-54.066244
 30
0.0
 40
0.050625
  1
5 00
 41
0.9
  7
Style-Arial
100
AcDbText
  0
TEXT
  5
187
330
3C9
100
AcDbEntity
  8
_0
  6
Continuous
 62
     7
370
    13
100
AcDbText
 10
72.838327
 20
-54.179254
 30
0.0
 40
0.050625
  1
5 00
 41
0.9
  7
Style-Arial
100
AcDbText
  0
TEXT
  5
188
330
3C9
100
AcDbEntity
  8
_0
  6
Continuous
 62
     7
370
    13
100
AcDbText
 10
76.657207
 20
-52.032088
 30
0.0
 40
0.050625
  1
0 01
 41
0.9
  7
Style-Arial
100
AcDbText
  0
TEXT
  5
189
330
3C9
100
AcDbEntity
  8
_0
  6
Continuous
 62
     7
370
    13
100
AcDbText
 10
76.657379
 20
-52.145088
 30
0.0
 40
0.050625
  1
0 09
 41
0.9
  7
Style-Arial
100
AcDbText
  0
TEXT
  5
18A
330
3C9
100
AcDbEntity
  8
_0
  6
Continuous
 62
     7
370
    13
100
AcDbText
 10
76.657379
 20
-52.258098
 30
0.0
 40
0.050625
  1
0 29
 41
0.9
  7
Style-Arial
100
AcDbText
  0
TEXT
  5
18B
330
3C9
100
AcDbEntity
  8
_0
  6
Continuous
 62
     7
370
    13
100
AcDbText
 10
76.657203
 20
-52.371108
 30
0.0
 40
0.050625
  1
0 68
 41
0.9
  7
Style-Arial
100
AcDbText
  0
TEXT
  5
18C
330
3C9
100
AcDbEntity
  8
_0
  6
Continuous
 62
     7
370
    13
100
AcDbText
 10
76.65703
 20
-52.484119
 30
0.0
 40
0.050625
  1
1 34
 41
0.9
  7
Style-Arial
100
AcDbText
  0
TEXT
  5
18D
330
3C9
100
AcDbEntity
  8
_0
  6
Continuous
 62
     7
370
    13
100
AcDbText
 10
76.657378
 20
-52.597129
 30
0.0
 40
0.050625
  1
2 32
 41
0.9
  7
Style-Arial
100
AcDbText
  0
TEXT
  5
18E
330
3C9
100
AcDbEntity
  8
_0
  6
Continuous
 62
     7
370
    13
100
AcDbText
 10
76.657202
 20
-52.71014
 30
0.0
 40
0.050625
  1
3 68
 41
0.9
  7
Style-Arial
100
AcDbText
  0
TEXT
  5
18F
330
3C9
100
AcDbEntity
  8
_0
  6
Continuous
 62
     7
370
    13
100
AcDbText
 10
76.363608
 20
-52.032088
 30
0.0
 40
0.050625
  1
0 00
 41
0.9
  7
Style-Arial
100
AcDbText
  0
TEXT
  5
190
330
3C9
100
AcDbEntity
  8
_0
  6
Continuous
 62
     7
370
    13
100
AcDbText
 10
76.363426
 20
-52.145088
 30
0.0
 40
0.050625
  1
0 01
 41
0.9
  7
Style-Arial
100
AcDbText
  0
TEXT
  5
191
330
3C9
100
AcDbEntity
  8
_0
  6
Continuous
 62
     7
370
    13
100
AcDbText
 10
76.363608
 20
-52.258098
 30
0.0
 40
0.050625
  1
0 04
 41
0.9
  7
Style-Arial
100
AcDbText
  0
TEXT
  5
192
330
3C9
100
AcDbEntity
  8
_0
  6
Continuous
 62
     7
370
    13
100
AcDbText
 10
76.363608
 20
-52.371108
 30
0.0
 40
0.050625
  1
0 09
 41
0.9
  7
Style-Arial
100
AcDbText
  0
TEXT
  5
193
330
3C9
100
AcDbEntity
  8
_0
  6
Continuous
 62
     7
370
    13
100
AcDbText
 10
76.363429
 20
-52.484119
 30
0.0
 40
0.050625
  1
0 17
 41
0.9
  7
Style-Arial
100
AcDbText
  0
TEXT
  5
194
330
3C9
100
AcDbEntity
  8
_0
  6
Continuous
 62
     7
370
    13
100
AcDbText
 10
76.363608
 20
-52.597129
 30
0.0
 40
0.050625
  1
0 29
 41
0.9
  7
Style-Arial
100
AcDbText
  0
TEXT
  5
195
330
3C9
100
AcDbEntity
  8
_0
  6
Continuous
 62
     7
370
    13
100
AcDbText
 10
76.363431
 20
-52.71014
 30
0.0
 40
0.050625
  1
0 46
 41
0.9
  7
Style-Arial
100
AcDbText
  0
TEXT
  5
196
330
3C9
100
AcDbEntity
  8
_0
  6
Continuous
 62
     7
370
    13
100
AcDbText
 10
76.069655
 20
-52.032088
 30
0.0
 40
0.050625
  1
0 01
 41
0.9
  7
Style-Arial
100
AcDbText
  0
TEXT
  5
197
330
3C9
100
AcDbEntity
  8
_0
  6
Continuous
 62
     7
370
    13
100
AcDbText
 10
76.069827
 20
-52.145088
 30
0.0
 40
0.050625
  1
0 08
 41
0.9
  7
Style-Arial
100
AcDbText
  0
TEXT
  5
198
330
3C9
100
AcDbEntity
  8
_0
  6
Continuous
 62
     7
370
    13
100
AcDbText
 10
76.06966
 20
-52.258098
 30
0.0
 40
0.050625
  1
0 26
 41
0.9
  7
Style-Arial
100
AcDbText
  0
TEXT
  5
199
330
3C9
100
AcDbEntity
  8
_0
  6
Continuous
 62
     7
370
    13
100
AcDbText
 10
76.069661
 20
-52.371108
 30
0.0
 40
0.050625
  1
0 63
 41
0.9
  7
Style-Arial
100
AcDbText
  0
TEXT
  5
19A
330
3C9
100
AcDbEntity
  8
_0
  6
Continuous
 62
     7
370
    13
100
AcDbText
 10
76.069478
 20
-52.484119
 30
0.0
 40
0.050625
  1
1 22
 41
0.9
  7
Style-Arial
100
AcDbText
  0
TEXT
  5
19B
330
3C9
100
AcDbEntity
  8
_0
  6
Continuous
 62
     7
370
    13
100
AcDbText
 10
76.069836
 20
-52.597129
 30
0.0
 40
0.050625
  1
3 35
 41
0.9
  7
Style-Arial
100
AcDbText
  0
TEXT
  5
19C
330
3C9
100
AcDbEntity
  8
_0
  6
Continuous
 62
     7
370
    13
100
AcDbText
 10
76.069827
 20
-52.71014
 30
0.0
 40
0.050625
  1
5 00
 41
0.9
  7
Style-Arial
100
AcDbText
  0
TEXT
  5
19D
330
3C9
100
AcDbEntity
  8
_0
  6
Continuous
 62
     7
370
    13
100
AcDbText
 10
75.776056
 20
-52.032088
 30
0.0
 40
0.050625
  1
0 00
 41
0.9
  7
Style-Arial
100
AcDbText
  0
TEXT
  5
19E
330
3C9
100
AcDbEntity
  8
_0
  6
Continuous
 62
     7
370
    13
100
AcDbText
 10
75.775884
 20
-52.145088
 30
0.0
 40
0.050625
  1
0 01
 41
0.9
  7
Style-Arial
100
AcDbText
  0
TEXT
  5
19F
330
3C9
100
AcDbEntity
  8
_0
  6
Continuous
 62
     7
370
    13
100
AcDbText
 10
75.776056
 20
-52.258098
 30
0.0
 40
0.050625
  1
0 03
 41
0.9
  7
Style-Arial
100
AcDbText
  0
TEXT
  5
1A0
330
3C9
100
AcDbEntity
  8
_0
  6
Continuous
 62
     7
370
    13
100
AcDbText
 10
75.776056
 20
-52.371108
 30
0.0
 40
0.050625
  1
0 08
 41
0.9
  7
Style-Arial
100
AcDbText
  0
TEXT
  5
1A1
330
3C9
100
AcDbEntity
  8
_0
  6
Continuous
 62
     7
370
    13
100
AcDbText
 10
75.775887
 20
-52.484119
 30
0.0
 40
0.050625
  1
0 15
 41
0.9
  7
Style-Arial
100
AcDbText
  0
TEXT
  5
1A2
330
3C9
100
AcDbEntity
  8
_0
  6
Continuous
 62
     7
370
    13
100
AcDbText
 10
75.775879
 20
-52.597129
 30
0.0
 40
0.050625
  1
0 26
 41
0.9
  7
Style-Arial
100
AcDbText
  0
TEXT
  5
1A3
330
3C9
100
AcDbEntity
  8
_0
  6
Continuous
 62
     7
370
    13
100
AcDbText
 10
75.776056
 20
-52.71014
 30
0.0
 40
0.050625
  1
0 42
 41
0.9
  7
Style-Arial
100
AcDbText
  0
TEXT
  5
1A4
330
3C9
100
AcDbEntity
  8
_0
  6
Continuous
 62
     7
370
    13
100
AcDbText
 10
75.482113
 20
-52.032088
 30
0.0
 40
0.050625
  1
0 01
 41
0.9
  7
Style-Arial
100
AcDbText
  0
TEXT
  5
1A5
330
3C9
100
AcDbEntity
  8
_0
  6
Continuous
 62
     7
370
    13
100
AcDbText
 10
75.482285
 20
-52.145088
 30
0.0
 40
0.050625
  1
0 07
 41
0.9
  7
Style-Arial
100
AcDbText
  0
TEXT
  5
1A6
330
3C9
100
AcDbEntity
  8
_0
  6
Continuous
 62
     7
370
    13
100
AcDbText
 10
75.482285
 20
-52.258098
 30
0.0
 40
0.050625
  1
0 24
 41
0.9
  7
Style-Arial
100
AcDbText
  0
TEXT
  5
1A7
330
3C9
100
AcDbEntity
  8
_0
  6
Continuous
 62
     7
370
    13
100
AcDbText
 10
75.482108
 20
-52.371108
 30
0.0
 40
0.050625
  1
0 56
 41
0.9
  7
Style-Arial
100
AcDbText
  0
TEXT
  5
1A8
330
3C9
100
AcDbEntity
  8
_0
  6
Continuous
 62
     7
370
    13
100
AcDbText
 10
75.481757
 20
-52.484119
 30
0.0
 40
0.050625
  1
1 10
 41
0.9
  7
Style-Arial
100
AcDbText
  0
TEXT
  5
1A9
330
3C9
100
AcDbEntity
  8
_0
  6
Continuous
 62
     7
370
    13
100
AcDbText
 10
75.481937
 20
-52.597129
 30
0.0
 40
0.050625
  1
1 90
 41
0.9
  7
Style-Arial
100
AcDbText
  0
TEXT
  5
1AA
330
3C9
100
AcDbEntity
  8
_0
  6
Continuous
 62
     7
370
    13
100
AcDbText
 10
75.482102
 20
-52.71014
 30
0.0
 40
0.050625
  1
3 01
 41
0.9
  7
Style-Arial
100
AcDbText
  0
TEXT
  5
1AB
330
3C9
100
AcDbEntity
  8
_0
  6
Continuous
 62
     7
370
    13
100
AcDbText
 10
75.188514
 20
-52.032088
 30
0.0
 40
0.050625
  1
0 00
 41
0.9
  7
Style-Arial
100
AcDbText
  0
TEXT
  5
1AC
330
3C9
100
AcDbEntity
  8
_0
  6
Continuous
 62
     7
370
    13
100
AcDbText
 10
75.188332
 20
-52.145088
 30
0.0
 40
0.050625
  1
0 01
 41
0.9
  7
Style-Arial
100
AcDbText
  0
TEXT
  5
1AD
330
3C9
100
AcDbEntity
  8
_0
  6
Continuous
 62
     7
370
    13
100
AcDbText
 10
75.188514
 20
-52.258098
 30
0.0
 40
0.050625
  1
0 03
 41
0.9
  7
Style-Arial
100
AcDbText
  0
TEXT
  5
1AE
330
3C9
100
AcDbEntity
  8
_0
  6
Continuous
 62
     7
370
    13
100
AcDbText
 10
75.188514
 20
-52.371108
 30
0.0
 40
0.050625
  1
0 07
 41
0.9
  7
Style-Arial
100
AcDbText
  0
TEXT
  5
1AF
330
3C9
100
AcDbEntity
  8
_0
  6
Continuous
 62
     7
370
    13
100
AcDbText
 10
75.188335
 20
-52.484119
 30
0.0
 40
0.050625
  1
0 14
 41
0.9
  7
Style-Arial
100
AcDbText
  0
TEXT
  5
1B0
330
3C9
100
AcDbEntity
  8
_0
  6
Continuous
 62
     7
370
    13
100
AcDbText
 10
75.188514
 20
-52.597129
 30
0.0
 40
0.050625
  1
0 24
 41
0.9
  7
Style-Arial
100
AcDbText
  0
TEXT
  5
1B1
330
3C9
100
AcDbEntity
  8
_0
  6
Continuous
 62
     7
370
    13
100
AcDbText
 10
75.188514
 20
-52.71014
 30
0.0
 40
0.050625
  1
0 38
 41
0.9
  7
Style-Arial
100
AcDbText
  0
TEXT
  5
1B2
330
3C9
100
AcDbEntity
  8
_0
  6
Continuous
 62
     7
370
    13
100
AcDbText
 10
74.894561
 20
-52.032088
 30
0.0
 40
0.050625
  1
0 01
 41
0.9
  7
Style-Arial
100
AcDbText
  0
TEXT
  5
1B3
330
3C9
100
AcDbEntity
  8
_0
  6
Continuous
 62
     7
370
    13
100
AcDbText
 10
74.894566
 20
-52.145088
 30
0.0
 40
0.050625
  1
0 06
 41
0.9
  7
Style-Arial
100
AcDbText
  0
TEXT
  5
1B4
330
3C9
100
AcDbEntity
  8
_0
  6
Continuous
 62
     7
370
    13
100
AcDbText
 10
74.894561
 20
-52.258098
 30
0.0
 40
0.050625
  1
0 21
 41
0.9
  7
Style-Arial
100
AcDbText
  0
TEXT
  5
1B5
330
3C9
100
AcDbEntity
  8
_0
  6
Continuous
 62
     7
370
    13
100
AcDbText
 10
74.894733
 20
-52.371108
 30
0.0
 40
0.050625
  1
0 50
 41
0.9
  7
Style-Arial
100
AcDbText
  0
TEXT
  5
1B6
330
3C9
100
AcDbEntity
  8
_0
  6
Continuous
 62
     7
370
    13
100
AcDbText
 10
74.894733
 20
-52.484119
 30
0.0
 40
0.050625
  1
0 98
 41
0.9
  7
Style-Arial
100
AcDbText
  0
TEXT
  5
1B7
330
3C9
100
AcDbEntity
  8
_0
  6
Continuous
 62
     7
370
    13
100
AcDbText
 10
74.894209
 20
-52.597129
 30
0.0
 40
0.050625
  1
1 69
 41
0.9
  7
Style-Arial
100
AcDbText
  0
TEXT
  5
1B8
330
3C9
100
AcDbEntity
  8
_0
  6
Continuous
 62
     7
370
    13
100
AcDbText
 10
74.894567
 20
-52.71014
 30
0.0
 40
0.050625
  1
2 68
 41
0.9
  7
Style-Arial
100
AcDbText
  0
TEXT
  5
1B9
330
3C9
100
AcDbEntity
  8
_0
  6
Continuous
 62
     7
370
    13
100
AcDbText
 10
74.600962
 20
-52.032088
 30
0.0
 40
0.050625
  1
0 00
 41
0.9
  7
Style-Arial
100
AcDbText
  0
TEXT
  5
1BA
330
3C9
100
AcDbEntity
  8
_0
  6
Continuous
 62
     7
370
    13
100
AcDbText
 10
74.60079
 20
-52.145088
 30
0.0
 40
0.050625
  1
0 01
 41
0.9
  7
Style-Arial
100
AcDbText
  0
TEXT
  5
1BB
330
3C9
100
AcDbEntity
  8
_0
  6
Continuous
 62
     7
370
    13
100
AcDbText
 10
74.600962
 20
-52.258098
 30
0.0
 40
0.050625
  1
0 03
 41
0.9
  7
Style-Arial
100
AcDbText
  0
TEXT
  5
1BC
330
3C9
100
AcDbEntity
  8
_0
  6
Continuous
 62
     7
370
    13
100
AcDbText
 10
74.600785
 20
-52.371108
 30
0.0
 40
0.050625
  1
0 06
 41
0.9
  7
Style-Arial
100
AcDbText
  0
TEXT
  5
1BD
330
3C9
100
AcDbEntity
  8
_0
  6
Continuous
 62
     7
370
    13
100
AcDbText
 10
74.600793
 20
-52.484119
 30
0.0
 40
0.050625
  1
0 12
 41
0.9
  7
Style-Arial
100
AcDbText
  0
TEXT
  5
1BE
330
3C9
100
AcDbEntity
  8
_0
  6
Continuous
 62
     7
370
    13
100
AcDbText
 10
74.60079
 20
-52.597129
 30
0.0
 40
0.050625
  1
0 21
 41
0.9
  7
Style-Arial
100
AcDbText
  0
TEXT
  5
1BF
330
3C9
100
AcDbEntity
  8
_0
  6
Continuous
 62
     7
370
    13
100
AcDbText
 10
74.600962
 20
-52.71014
 30
0.0
 40
0.050625
  1
0 33
 41
0.9
  7
Style-Arial
100
AcDbText
  0
TEXT
  5
1C0
330
3C9
100
AcDbEntity
  8
_0
  6
Continuous
 62
     7
370
    13
100
AcDbText
 10
74.30702
 20
-52.032088
 30
0.0
 40
0.050625
  1
0 01
 41
0.9
  7
Style-Arial
100
AcDbText
  0
TEXT
  5
1C1
330
3C9
100
AcDbEntity
  8
_0
  6
Continuous
 62
     7
370
    13
100
AcDbText
 10
74.307191
 20
-52.145088
 30
0.0
 40
0.050625
  1
0 05
 41
0.9
  7
Style-Arial
100
AcDbText
  0
TEXT
  5
1C2
330
3C9
100
AcDbEntity
  8
_0
  6
Continuous
 62
     7
370
    13
100
AcDbText
 10
74.307022
 20
-52.258098
 30
0.0
 40
0.050625
  1
0 18
 41
0.9
  7
Style-Arial
100
AcDbText
  0
TEXT
  5
1C3
330
3C9
100
AcDbEntity
  8
_0
  6
Continuous
 62
     7
370
    13
100
AcDbText
 10
74.307191
 20
-52.371108
 30
0.0
 40
0.050625
  1
0 44
 41
0.9
  7
Style-Arial
100
AcDbText
  0
TEXT
  5
1C4
330
3C9
100
AcDbEntity
  8
_0
  6
Continuous
 62
     7
370
    13
100
AcDbText
 10
74.307191
 20
-52.484119
 30
0.0
 40
0.050625
  1
0 85
 41
0.9
  7
Style-Arial
100
AcDbText
  0
TEXT
  5
1C5
330
3C9
100
AcDbEntity
  8
_0
  6
Continuous
 62
     7
370
    13
100
AcDbText
 10
74.306666
 20
-52.597129
 30
0.0
 40
0.050625
  1
1 46
 41
0.9
  7
Style-Arial
100
AcDbText
  0
TEXT
  5
1C6
330
3C9
100
AcDbEntity
  8
_0
  6
Continuous
 62
     7
370
    13
100
AcDbText
 10
74.307191
 20
-52.71014
 30
0.0
 40
0.050625
  1
2 34
 41
0.9
  7
Style-Arial
100
AcDbText
  0
TEXT
  5
1C7
330
3C9
100
AcDbEntity
  8
_0
  6
Continuous
 62
     7
370
    13
100
AcDbText
 10
74.01342
 20
-52.032088
 30
0.0
 40
0.050625
  1
0 00
 41
0.9
  7
Style-Arial
100
AcDbText
  0
TEXT
  5
1C8
330
3C9
100
AcDbEntity
  8
_0
  6
Continuous
 62
     7
370
    13
100
AcDbText
 10
74.013238
 20
-52.145088
 30
0.0
 40
0.050625
  1
0 01
 41
0.9
  7
Style-Arial
100
AcDbText
  0
TEXT
  5
1C9
330
3C9
100
AcDbEntity
  8
_0
  6
Continuous
 62
     7
370
    13
100
AcDbText
 10
74.013419
 20
-52.258098
 30
0.0
 40
0.050625
  1
0 036
 41
0.9
  7
Style-Arial
100
AcDbText
  0
TEXT
  5
1CA
330
3C9
100
AcDbEntity
  8
_0
  6
Continuous
 62
     7
370
    13
100
AcDbText
 10
74.01342
 20
-52.371108
 30
0.0
 40
0.050625
  1
0 08
 41
0.9
  7
Style-Arial
100
AcDbText
  0
TEXT
  5
1CB
330
3C9
100
AcDbEntity
  8
_0
  6
Continuous
 62
     7
370
    13
100
AcDbText
 10
74.013064
 20
-52.484119
 30
0.0
 40
0.050625
  1
0 16
 41
0.9
  7
Style-Arial
100
AcDbText
  0
TEXT
  5
1CC
330
3C9
100
AcDbEntity
  8
_0
  6
Continuous
 62
     7
370
    13
100
AcDbText
 10
74.013243
 20
-52.597129
 30
0.0
 40
0.050625
  1
0 26
 41
0.9
  7
Style-Arial
100
AcDbText
  0
TEXT
  5
1CD
330
3C9
100
AcDbEntity
  8
_0
  6
Continuous
 62
     7
370
    13
100
AcDbText
 10
74.01342
 20
-52.71014
 30
0.0
 40
0.050625
  1
0 44
 41
0.9
  7
Style-Arial
100
AcDbText
  0
TEXT
  5
1CE
330
3C9
100
AcDbEntity
  8
_0
  6
Continuous
 62
     7
370
    13
100
AcDbText
 10
73.425868
 20
-52.032088
 30
0.0
 40
0.050625
  1
0 00
 41
0.9
  7
Style-Arial
100
AcDbText
  0
TEXT
  5
1CF
330
3C9
100
AcDbEntity
  8
_0
  6
Continuous
 62
     7
370
    13
100
AcDbText
 10
73.425697
 20
-52.145088
 30
0.0
 40
0.050625
  1
0 01
 41
0.9
  7
Style-Arial
100
AcDbText
  0
TEXT
  5
1D0
330
3C9
100
AcDbEntity
  8
_0
  6
Continuous
 62
     7
370
    13
100
AcDbText
 10
73.425868
 20
-52.258098
 30
0.0
 40
0.050625
  1
0 05
 41
0.9
  7
Style-Arial
100
AcDbText
  0
TEXT
  5
1D1
330
3C9
100
AcDbEntity
  8
_0
  6
Continuous
 62
     7
370
    13
100
AcDbText
 10
73.425517
 20
-52.371108
 30
0.0
 40
0.050625
  1
0 11
 41
0.9
  7
Style-Arial
100
AcDbText
  0
TEXT
  5
1D2
330
3C9
100
AcDbEntity
  8
_0
  6
Continuous
 62
     7
370
    13
100
AcDbText
 10
73.425868
 20
-52.484119
 30
0.0
 40
0.050625
  1
0 22
 41
0.9
  7
Style-Arial
100
AcDbText
  0
TEXT
  5
1D3
330
3C9
100
AcDbEntity
  8
_0
  6
Continuous
 62
     7
370
    13
100
AcDbText
 10
73.425868
 20
-52.597129
 30
0.0
 40
0.050625
  1
0 38
 41
0.9
  7
Style-Arial
100
AcDbText
  0
TEXT
  5
1D4
330
3C9
100
AcDbEntity
  8
_0
  6
Continuous
 62
     7
370
    13
100
AcDbText
 10
73.425692
 20
-52.71014
 30
0.0
 40
0.050625
  1
0 60
 41
0.9
  7
Style-Arial
100
AcDbText
  0
TEXT
  5
1D5
330
3C9
100
AcDbEntity
  8
_0
  6
Continuous
 62
     7
370
    13
100
AcDbText
 10
73.132097
 20
-52.032088
 30
0.0
 40
0.050625
  1
0 00
 41
0.9
  7
Style-Arial
100
AcDbText
  0
TEXT
  5
1D6
330
3C9
100
AcDbEntity
  8
_0
  6
Continuous
 62
     7
370
    13
100
AcDbText
 10
73.132097
 20
-52.145088
 30
0.0
 40
0.050625
  1
0 04
 41
0.9
  7
Style-Arial
100
AcDbText
  0
TEXT
  5
1D7
330
3C9
100
AcDbEntity
  8
_0
  6
Continuous
 62
     7
370
    13
100
AcDbText
 10
73.131918
 20
-52.258098
 30
0.0
 40
0.050625
  1
0 13
 41
0.9
  7
Style-Arial
100
AcDbText
  0
TEXT
  5
1D8
330
3C9
100
AcDbEntity
  8
_0
  6
Continuous
 62
     7
370
    13
100
AcDbText
 10
73.131915
 20
-52.371108
 30
0.0
 40
0.050625
  1
0 31
 41
0.9
  7
Style-Arial
100
AcDbText
  0
TEXT
  5
1D9
330
3C9
100
AcDbEntity
  8
_0
  6
Continuous
 62
     7
370
    13
100
AcDbText
 10
73.131739
 20
-52.484119
 30
0.0
 40
0.050625
  1
0 61
 41
0.9
  7
Style-Arial
100
AcDbText
  0
TEXT
  5
1DA
330
3C9
100
AcDbEntity
  8
_0
  6
Continuous
 62
     7
370
    13
100
AcDbText
 10
73.131749
 20
-52.597129
 30
0.0
 40
0.050625
  1
1 05
 41
0.9
  7
Style-Arial
100
AcDbText
  0
TEXT
  5
1DB
330
3C9
100
AcDbEntity
  8
_0
  6
Continuous
 62
     7
370
    13
100
AcDbText
 10
73.131573
 20
-52.71014
 30
0.0
 40
0.050625
  1
1 67
 41
0.9
  7
Style-Arial
100
AcDbText
  0
TEXT
  5
1DC
330
3C9
100
AcDbEntity
  8
_0
  6
Continuous
 62
     7
370
    13
100
AcDbText
 10
72.838327
 20
-52.032088
 30
0.0
 40
0.050625
  1
0 00
 41
0.9
  7
Style-Arial
100
AcDbText
  0
TEXT
  5
1DD
330
3C9
100
AcDbEntity
  8
_0
  6
Continuous
 62
     7
370
    13
100
AcDbText
 10
72.838327
 20
-52.145088
 30
0.0
 40
0.050625
  1
0 02
 41
0.9
  7
Style-Arial
100
AcDbText
  0
TEXT
  5
1DE
330
3C9
100
AcDbEntity
  8
_0
  6
Continuous
 62
     7
370
    13
100
AcDbText
 10
72.838327
 20
-52.258098
 30
0.0
 40
0.050625
  1
0 07
 41
0.9
  7
Style-Arial
100
AcDbText
  0
TEXT
  5
1DF
330
3C9
100
AcDbEntity
  8
_0
  6
Continuous
 62
     7
370
    13
100
AcDbText
 10
72.83797
 20
-52.371108
 30
0.0
 40
0.050625
  1
0 16
 41
0.9
  7
Style-Arial
100
AcDbText
  0
TEXT
  5
1E0
330
3C9
100
AcDbEntity
  8
_0
  6
Continuous
 62
     7
370
    13
100
AcDbText
 10
72.838144
 20
-52.484119
 30
0.0
 40
0.050625
  1
0 31
 41
0.9
  7
Style-Arial
100
AcDbText
  0
TEXT
  5
1E1
330
3C9
100
AcDbEntity
  8
_0
  6
Continuous
 62
     7
370
    13
100
AcDbText
 10
72.838327
 20
-52.597129
 30
0.0
 40
0.050625
  1
0 54
 41
0.9
  7
Style-Arial
100
AcDbText
  0
TEXT
  5
1E2
330
3C9
100
AcDbEntity
  8
_0
  6
Continuous
 62
     7
370
    13
100
AcDbText
 10
72.83815
 20
-52.71014
 30
0.0
 40
0.050625
  1
0 86
 41
0.9
  7
Style-Arial
100
AcDbText
  0
TEXT
  5
1E3
330
3C9
100
AcDbEntity
  8
_0
  6
Continuous
 62
     7
370
    13
100
AcDbText
 10
72.250775
 20
-52.032088
 30
0.0
 40
0.050625
  1
0 00
 41
0.9
  7
Style-Arial
100
AcDbText
  0
TEXT
  5
1E4
330
3C9
100
AcDbEntity
  8
_0
  6
Continuous
 62
     7
370
    13
100
AcDbText
 10
72.250775
 20
-52.145088
 30
0.0
 40
0.050625
  1
0 03
 41
0.9
  7
Style-Arial
100
AcDbText
  0
TEXT
  5
1E5
330
3C9
100
AcDbEntity
  8
_0
  6
Continuous
 62
     7
370
    13
100
AcDbText
 10
72.250423
 20
-52.258098
 30
0.0
 40
0.050625
  1
0 11
 41
0.9
  7
Style-Arial
100
AcDbText
  0
TEXT
  5
1E6
330
3C9
100
AcDbEntity
  8
_0
  6
Continuous
 62
     7
370
    13
100
AcDbText
 10
72.250775
 20
-52.484119
 30
0.0
 40
0.050625
  1
0 49
 41
0.9
  7
Style-Arial
100
AcDbText
  0
TEXT
  5
1E7
330
3C9
100
AcDbEntity
  8
_0
  6
Continuous
 62
     7
370
    13
100
AcDbText
 10
72.250775
 20
-52.597129
 30
0.0
 40
0.050625
  1
0 84
 41
0.9
  7
Style-Arial
100
AcDbText
  0
TEXT
  5
1E8
330
3C9
100
AcDbEntity
  8
_0
  6
Continuous
 62
     7
370
    13
100
AcDbText
 10
72.250426
 20
-52.71014
 30
0.0
 40
0.050625
  1
1 34
 41
0.9
  7
Style-Arial
100
AcDbText
  0
TEXT
  5
1E9
330
3C9
100
AcDbEntity
  8
_0
  6
Continuous
 62
     7
370
    13
100
AcDbText
 10
72.250775
 20
-52.82314
 30
0.0
 40
0.050625
  1
2 00
 41
0.9
  7
Style-Arial
100
AcDbText
  0
TEXT
  5
1EA
330
3C9
100
AcDbEntity
  8
_0
  6
Continuous
 62
     7
370
    13
100
AcDbText
 10
71.663233
 20
-52.032088
 30
0.0
 40
0.050625
  1
0 02
 41
0.9
  7
Style-Arial
100
AcDbText
  0
TEXT
  5
1EB
330
3C9
100
AcDbEntity
  8
_0
  6
Continuous
 62
     7
370
    13
100
AcDbText
 10
71.663054
 20
-52.145088
 30
0.0
 40
0.050625
  1
0 19
 41
0.9
  7
Style-Arial
100
AcDbText
  0
TEXT
  5
1EC
330
3C9
100
AcDbEntity
  8
_0
  6
Continuous
 62
     7
370
    13
100
AcDbText
 10
71.663057
 20
-52.258098
 30
0.0
 40
0.050625
  1
0 63
 41
0.9
  7
Style-Arial
100
AcDbText
  0
TEXT
  5
1ED
330
3C9
100
AcDbEntity
  8
_0
  6
Continuous
 62
     7
370
    13
100
AcDbText
 10
71.662874
 20
-52.371108
 30
0.0
 40
0.050625
  1
1 50
 41
0.9
  7
Style-Arial
100
AcDbText
  0
TEXT
  5
1EE
330
3C9
100
AcDbEntity
  8
_0
  6
Continuous
 62
     7
370
    13
100
AcDbText
 10
71.663233
 20
-52.484119
 30
0.0
 40
0.050625
  1
2 37
 41
0.9
  7
Style-Arial
100
AcDbText
  0
TEXT
  5
1EF
330
3C9
100
AcDbEntity
  8
_0
  6
Continuous
 62
     7
370
    13
100
AcDbText
 10
71.663051
 20
-52.597129
 30
0.0
 40
0.050625
  1
2 81
 41
0.9
  7
Style-Arial
100
AcDbText
  0
TEXT
  5
1F0
330
3C9
100
AcDbEntity
  8
_0
  6
Continuous
 62
     7
370
    13
100
AcDbText
 10
71.663233
 20
-52.71014
 30
0.0
 40
0.050625
  1
2 98
 41
0.9
  7
Style-Arial
100
AcDbText
  0
TEXT
  5
1F1
330
3C9
100
AcDbEntity
  8
_0
  6
Continuous
 62
     7
370
    13
100
AcDbText
 10
71.075681
 20
-52.032088
 30
0.0
 40
0.050625
  1
0 04
 41
0.9
  7
Style-Arial
100
AcDbText
  0
TEXT
  5
1F2
330
3C9
100
AcDbEntity
  8
_0
  6
Continuous
 62
     7
370
    13
100
AcDbText
 10
71.07568
 20
-52.145088
 30
0.0
 40
0.050625
  1
0 30
 41
0.9
  7
Style-Arial
100
AcDbText
  0
TEXT
  5
1F3
330
3C9
100
AcDbEntity
  8
_0
  6
Continuous
 62
     7
370
    13
100
AcDbText
 10
71.075332
 20
-52.258098
 30
0.0
 40
0.050625
  1
1 00
 41
0.9
  7
Style-Arial
100
AcDbText
  0
TEXT
  5
1F4
330
3C9
100
AcDbEntity
  8
_0
  6
Continuous
 62
     7
370
    13
100
AcDbText
 10
71.075332
 20
-52.371108
 30
0.0
 40
0.050625
  1
1 70
 41
0.9
  7
Style-Arial
100
AcDbText
  0
TEXT
  5
1F5
330
3C9
100
AcDbEntity
  8
_0
  6
Continuous
 62
     7
370
    13
100
AcDbText
 10
71.075155
 20
-52.484119
 30
0.0
 40
0.050625
  1
1 96
 41
0.9
  7
Style-Arial
100
AcDbText
  0
TEXT
  5
1F6
330
3C9
100
AcDbEntity
  8
_0
  6
Continuous
 62
     7
370
    13
100
AcDbText
 10
71.075681
 20
-52.597129
 30
0.0
 40
0.050625
  1
2 00
 41
0.9
  7
Style-Arial
100
AcDbText
  0
TEXT
  5
1F7
330
3C9
100
AcDbEntity
  8
_0
  6
Continuous
 62
     7
370
    13
100
AcDbText
 10
70.54875
 20
-52.030203
 30
0.0
 40
0.050625
  1
1
 41
0.9
  7
Style-Arial
100
AcDbText
  0
TEXT
  5
1F8
330
3C9
100
AcDbEntity
  8
_0
  6
Continuous
 62
     7
370
    13
100
AcDbText
 10
70.671684
 20
-52.029923
 30
0.0
 40
0.050625
  1
X     6 25'
 41
0.9
  7
Style-Arial
100
AcDbText
  0
TEXT
  5
1F9
330
3C9
100
AcDbEntity
  8
_0
  6
Continuous
 62
     7
370
    13
100
AcDbText
 10
70.54875
 20
-52.143214
 30
0.0
 40
0.050625
  1
2
 41
0.9
  7
Style-Arial
100
AcDbText
  0
TEXT
  5
1FA
330
3C9
100
AcDbEntity
  8
_0
  6
Continuous
 62
     7
370
    13
100
AcDbText
 10
70.671857
 20
-52.142923
 30
0.0
 40
0.050625
  1
X    12 50'
 41
0.9
  7
Style-Arial
100
AcDbText
  0
TEXT
  5
1FB
330
3C9
100
AcDbEntity
  8
_0
  6
Continuous
 62
     7
370
    13
100
AcDbText
 10
70.54875
 20
-52.256224
 30
0.0
 40
0.050625
  1
3
 41
0.9
  7
Style-Arial
100
AcDbText
  0
TEXT
  5
1FC
330
3C9
100
AcDbEntity
  8
_0
  6
Continuous
 62
     7
370
    13
100
AcDbText
 10
70.671857
 20
-52.255933
 30
0.0
 40
0.050625
  1
X    18 75'
 41
0.9
  7
Style-Arial
100
AcDbText
  0
TEXT
  5
1FD
330
3C9
100
AcDbEntity
  8
_0
  6
Continuous
 62
     7
370
    13
100
AcDbText
 10
70.54875
 20
-52.369235
 30
0.0
 40
0.050625
  1
4
 41
0.9
  7
Style-Arial
100
AcDbText
  0
TEXT
  5
1FE
330
3C9
100
AcDbEntity
  8
_0
  6
Continuous
 62
     7
370
    13
100
AcDbText
 10
70.672036
 20
-52.368943
 30
0.0
 40
0.050625
  1
X    25 00'
 41
0.9
  7
Style-Arial
100
AcDbText
  0
TEXT
  5
1FF
330
3C9
100
AcDbEntity
  8
_0
  6
Continuous
 62
     7
370
    13
100
AcDbText
 10
70.54875
 20
-52.482245
 30
0.0
 40
0.050625
  1
5
 41
0.9
  7
Style-Arial
100
AcDbText
  0
TEXT
  5
200
330
3C9
100
AcDbEntity
  8
_0
  6
Continuous
 62
     7
370
    13
100
AcDbText
 10
70.671677
 20
-52.481954
 30
0.0
 40
0.050625
  1
X    31 25'
 41
0.9
  7
Style-Arial
100
AcDbText
  0
TEXT
  5
201
330
3C9
100
AcDbEntity
  8
_0
  6
Continuous
 62
     7
370
    13
100
AcDbText
 10
70.54875
 20
-52.595255
 30
0.0
 40
0.050625
  1
6
 41
0.9
  7
Style-Arial
100
AcDbText
  0
TEXT
  5
202
330
3C9
100
AcDbEntity
  8
_0
  6
Continuous
 62
     7
370
    13
100
AcDbText
 10
70.672036
 20
-52.594964
 30
0.0
 40
0.050625
  1
X    37 50'
 41
0.9
  7
Style-Arial
100
AcDbText
  0
TEXT
  5
203
330
3C9
100
AcDbEntity
  8
_0
  6
Continuous
 62
     7
370
    13
100
AcDbText
 10
70.54875
 20
-52.708266
 30
0.0
 40
0.050625
  1
7
 41
0.9
  7
Style-Arial
100
AcDbText
  0
TEXT
  5
204
330
3C9
100
AcDbEntity
  8
_0
  6
Continuous
 62
     7
370
    13
100
AcDbText
 10
70.672036
 20
-52.707975
 30
0.0
 40
0.050625
  1
X    43 75'
 41
0.9
  7
Style-Arial
100
AcDbText
  0
TEXT
  5
205
330
3C9
100
AcDbEntity
  8
_0
  6
Continuous
 62
     7
370
    13
100
AcDbText
 10
70.54875
 20
-52.821266
 30
0.0
 40
0.050625
  1
8
 41
0.9
  7
Style-Arial
100
AcDbText
  0
TEXT
  5
206
330
3C9
100
AcDbEntity
  8
_0
  6
Continuous
 62
     7
370
    13
100
AcDbText
 10
70.672036
 20
-52.820975
 30
0.0
 40
0.050625
  1
X    50 00'
 41
0.9
  7
Style-Arial
100
AcDbText
  0
TEXT
  5
207
330
3C9
100
AcDbEntity
  8
_0
  6
Continuous
 62
     7
370
    13
100
AcDbText
 10
70.54875
 20
-52.934287
 30
0.0
 40
0.050625
  1
9
 41
0.9
  7
Style-Arial
100
AcDbText
  0
TEXT
  5
208
330
3C9
100
AcDbEntity
  8
_0
  6
Continuous
 62
     7
370
    13
100
AcDbText
 10
70.671684
 20
-52.933985
 30
0.0
 40
0.050625
  1
X    56 25'
 41
0.9
  7
Style-Arial
100
AcDbText
  0
TEXT
  5
209
330
3C9
100
AcDbEntity
  8
_0
  6
Continuous
 62
     7
370
    13
100
AcDbText
 10
70.54875
 20
-53.047287
 30
0.0
 40
0.050625
  1
10
 41
0.9
  7
Style-Arial
100
AcDbText
  0
TEXT
  5
20A
330
3C9
100
AcDbEntity
  8
_0
  6
Continuous
 62
     7
370
    13
100
AcDbText
 10
70.67186
 20
-53.046995
 30
0.0
 40
0.050625
  1
X    62 50'
 41
0.9
  7
Style-Arial
100
AcDbText
  0
TEXT
  5
20B
330
3C9
100
AcDbEntity
  8
_0
  6
Continuous
 62
     7
370
    13
100
AcDbText
 10
70.54875
 20
-53.160297
 30
0.0
 40
0.050625
  1
11
 41
0.9
  7
Style-Arial
100
AcDbText
  0
TEXT
  5
20C
330
3C9
100
AcDbEntity
  8
_0
  6
Continuous
 62
     7
370
    13
100
AcDbText
 10
70.67186
 20
-53.160006
 30
0.0
 40
0.050625
  1
X    68 75'
 41
0.9
  7
Style-Arial
100
AcDbText
  0
TEXT
  5
20D
330
3C9
100
AcDbEntity
  8
_0
  6
Continuous
 62
     7
370
    13
100
AcDbText
 10
70.54875
 20
-53.273308
 30
0.0
 40
0.050625
  1
12
 41
0.9
  7
Style-Arial
100
AcDbText
  0
TEXT
  5
20E
330
3C9
100
AcDbEntity
  8
_0
  6
Continuous
 62
     7
370
    13
100
AcDbText
 10
70.672036
 20
-53.273016
 30
0.0
 40
0.050625
  1
X    75 00'
 41
0.9
  7
Style-Arial
100
AcDbText
  0
TEXT
  5
20F
330
3C9
100
AcDbEntity
  8
_0
  6
Continuous
 62
     7
370
    13
100
AcDbText
 10
70.54875
 20
-53.386318
 30
0.0
 40
0.050625
  1
13
 41
0.9
  7
Style-Arial
100
AcDbText
  0
TEXT
  5
210
330
3C9
100
AcDbEntity
  8
_0
  6
Continuous
 62
     7
370
    13
100
AcDbText
 10
70.671677
 20
-53.386027
 30
0.0
 40
0.050625
  1
X    81 25'
 41
0.9
  7
Style-Arial
100
AcDbText
  0
TEXT
  5
211
330
3C9
100
AcDbEntity
  8
_0
  6
Continuous
 62
     7
370
    13
100
AcDbText
 10
70.54875
 20
-53.499328
 30
0.0
 40
0.050625
  1
14
 41
0.9
  7
Style-Arial
100
AcDbText
  0
TEXT
  5
212
330
3C9
100
AcDbEntity
  8
_0
  6
Continuous
 62
     7
370
    13
100
AcDbText
 10
70.672036
 20
-53.499037
 30
0.0
 40
0.050625
  1
X    87 50'
 41
0.9
  7
Style-Arial
100
AcDbText
  0
TEXT
  5
213
330
3C9
100
AcDbEntity
  8
_0
  6
Continuous
 62
     7
370
    13
100
AcDbText
 10
70.54875
 20
-53.612339
 30
0.0
 40
0.050625
  1
15
 41
0.9
  7
Style-Arial
100
AcDbText
  0
TEXT
  5
214
330
3C9
100
AcDbEntity
  8
_0
  6
Continuous
 62
     7
370
    13
100
AcDbText
 10
70.672036
 20
-53.612048
 30
0.0
 40
0.050625
  1
X    93 75'
 41
0.9
  7
Style-Arial
100
AcDbText
  0
TEXT
  5
215
330
3C9
100
AcDbEntity
  8
_0
  6
Continuous
 62
     7
370
    13
100
AcDbText
 10
70.54875
 20
-53.725339
 30
0.0
 40
0.050625
  1
16
 41
0.9
  7
Style-Arial
100
AcDbText
  0
TEXT
  5
216
330
3C9
100
AcDbEntity
  8
_0
  6
Continuous
 62
     7
370
    13
100
AcDbText
 10
70.671857
 20
-53.725058
 30
0.0
 40
0.050625
  1
X   100 00'
 41
0.9
  7
Style-Arial
100
AcDbText
  0
TEXT
  5
217
330
3C9
100
AcDbEntity
  8
_0
  6
Continuous
 62
     7
370
    13
100
AcDbText
 10
70.54875
 20
-53.838349
 30
0.0
 40
0.050625
  1
17
 41
0.9
  7
Style-Arial
100
AcDbText
  0
TEXT
  5
218
330
3C9
100
AcDbEntity
  8
_0
  6
Continuous
 62
     7
370
    13
100
AcDbText
 10
70.671505
 20
-53.838058
 30
0.0
 40
0.050625
  1
X   106 25'
 41
0.9
  7
Style-Arial
100
AcDbText
  0
TEXT
  5
219
330
3C9
100
AcDbEntity
  8
_0
  6
Continuous
 62
     7
370
    13
100
AcDbText
 10
70.54875
 20
-53.95136
 30
0.0
 40
0.050625
  1
18
 41
0.9
  7
Style-Arial
100
AcDbText
  0
TEXT
  5
21A
330
3C9
100
AcDbEntity
  8
_0
  6
Continuous
 62
     7
370
    13
100
AcDbText
 10
70.671677
 20
-53.951068
 30
0.0
 40
0.050625
  1
X   112 50'
 41
0.9
  7
Style-Arial
100
AcDbText
  0
TEXT
  5
21B
330
3C9
100
AcDbEntity
  8
_0
  6
Continuous
 62
     7
370
    13
100
AcDbText
 10
70.54875
 20
-54.06437
 30
0.0
 40
0.050625
  1
19
 41
0.9
  7
Style-Arial
100
AcDbText
  0
TEXT
  5
21C
330
3C9
100
AcDbEntity
  8
_0
  6
Continuous
 62
     7
370
    13
100
AcDbText
 10
70.671677
 20
-54.064079
 30
0.0
 40
0.050625
  1
X   118 75'
 41
0.9
  7
Style-Arial
100
AcDbText
  0
TEXT
  5
21D
330
3C9
100
AcDbEntity
  8
_0
  6
Continuous
 62
     7
370
    13
100
AcDbText
 10
70.54875
 20
-54.17738
 30
0.0
 40
0.050625
  1
20
 41
0.9
  7
Style-Arial
100
AcDbText
  0
TEXT
  5
21E
330
3C9
100
AcDbEntity
  8
_0
  6
Continuous
 62
     7
370
    13
100
AcDbText
 10
70.671857
 20
-54.177089
 30
0.0
 40
0.050625
  1
X   125 00'
 41
0.9
  7
Style-Arial
100
AcDbText
  0
TEXT
  5
21F
330
3C9
100
AcDbEntity
  8
_0
  6
Continuous
 62
     7
370
    13
100
AcDbText
 10
70.54875
 20
-54.290391
 30
0.0
 40
0.050625
  1
21
 41
0.9
  7
Style-Arial
100
AcDbText
  0
TEXT
  5
220
330
3C9
100
AcDbEntity
  8
_0
  6
Continuous
 62
     7
370
    13
100
AcDbText
 10
70.671508
 20
-54.2901
 30
0.0
 40
0.050625
  1
X   131 25'
 41
0.9
  7
Style-Arial
100
AcDbText
  0
TEXT
  5
221
330
3C9
100
AcDbEntity
  8
_0
  6
Continuous
 62
     7
370
    13
100
AcDbText
 10
70.54875
 20
-54.403401
 30
0.0
 40
0.050625
  1
22
 41
0.9
  7
Style-Arial
100
AcDbText
  0
TEXT
  5
222
330
3C9
100
AcDbEntity
  8
_0
  6
Continuous
 62
     7
370
    13
100
AcDbText
 10
70.671857
 20
-54.40311
 30
0.0
 40
0.050625
  1
X   137 50'
 41
0.9
  7
Style-Arial
100
AcDbText
  0
TEXT
  5
223
330
3C9
100
AcDbEntity
  8
_0
  6
Continuous
 62
     7
370
    13
100
AcDbText
 10
70.54875
 20
-54.516401
 30
0.0
 40
0.050625
  1
23
 41
0.9
  7
Style-Arial
100
AcDbText
  0
TEXT
  5
224
330
3C9
100
AcDbEntity
  8
_0
  6
Continuous
 62
     7
370
    13
100
AcDbText
 10
70.671856
 20
-54.51611
 30
0.0
 40
0.050625
  1
X   143 75'
 41
0.9
  7
Style-Arial
100
AcDbText
  0
TEXT
  5
225
330
3C9
100
AcDbEntity
  8
_0
  6
Continuous
 62
     7
370
    13
100
AcDbText
 10
70.54875
 20
-54.629422
 30
0.0
 40
0.050625
  1
24
 41
0.9
  7
Style-Arial
100
AcDbText
  0
TEXT
  5
226
330
3C9
100
AcDbEntity
  8
_0
  6
Continuous
 62
     7
370
    13
100
AcDbText
 10
70.671857
 20
-54.62912
 30
0.0
 40
0.050625
  1
X   150 00'
 41
0.9
  7
Style-Arial
100
AcDbText
  0
TEXT
  5
265
330
3C9
100
AcDbEntity
  8
_0
  6
Continuous
 62
     7
370
    13
100
AcDbText
 10
70.167035
 20
-53.988997
 30
0.0
 40
0.050625
  1
125 00'
 41
0.9
  7
Style-Arial
100
AcDbText
  0
TEXT
  5
266
330
3C9
100
AcDbEntity
  8
_0
  6
Continuous
 62
     7
370
    13
100
AcDbText
 10
70.167035
 20
-54.89306
 30
0.0
 40
0.050625
  1
175 00'
 41
0.9
  7
Style-Arial
100
AcDbText
  0
TEXT
  5
26F
330
3C9
100
AcDbEntity
  8
_0
  6
Continuous
 62
     7
370
    13
100
AcDbText
 10
70.672036
 20
-55.533193
 30
0.0
 40
0.050625
  1
X   200 00'
 41
0.9
  7
Style-Arial
100
AcDbText
  0
TEXT
  5
270
330
3C9
100
AcDbEntity
  8
_0
  6
Continuous
 62
     7
370
    13
100
AcDbText
 10
70.54875
 20
-55.533485
 30
0.0
 40
0.050625
  1
32
 41
0.9
  7
Style-Arial
100
AcDbText
  0
TEXT
  5
271
330
3C9
100
AcDbEntity
  8
_0
  6
Continuous
 62
     7
370
    13
100
AcDbText
 10
70.671856
 20
-55.420193
 30
0.0
 40
0.050625
  1
X   193 75'
 41
0.9
  7
Style-Arial
100
AcDbText
  0
TEXT
  5
272
330
3C9
100
AcDbEntity
  8
_0
  6
Continuous
 62
     7
370
    13
100
AcDbText
 10
70.54875
 20
-55.420485
 30
0.0
 40
0.050625
  1
31
 41
0.9
  7
Style-Arial
100
AcDbText
  0
TEXT
  5
273
330
3C9
100
AcDbEntity
  8
_0
  6
Continuous
 62
     7
370
    13
100
AcDbText
 10
70.671857
 20
-55.307183
 30
0.0
 40
0.050625
  1
X   187 50'
 41
0.9
  7
Style-Arial
100
AcDbText
  0
TEXT
  5
274
330
3C9
100
AcDbEntity
  8
_0
  6
Continuous
 62
     7
370
    13
100
AcDbText
 10
70.54875
 20
-55.307474
 30
0.0
 40
0.050625
  1
30
 41
0.9
  7
Style-Arial
100
AcDbText
  0
TEXT
  5
275
330
3C9
100
AcDbEntity
  8
_0
  6
Continuous
 62
     7
370
    13
100
AcDbText
 10
70.671509
 20
-55.194173
 30
0.0
 40
0.050625
  1
X   181 25'
 41
0.9
  7
Style-Arial
100
AcDbText
  0
TEXT
  5
276
330
3C9
100
AcDbEntity
  8
_0
  6
Continuous
 62
     7
370
    13
100
AcDbText
 10
70.54875
 20
-55.194464
 30
0.0
 40
0.050625
  1
29
 41
0.9
  7
Style-Arial
100
AcDbText
  0
TEXT
  5
277
330
3C9
100
AcDbEntity
  8
_0
  6
Continuous
 62
     7
370
    13
100
AcDbText
 10
70.671857
 20
-55.081162
 30
0.0
 40
0.050625
  1
X   175 00'
 41
0.9
  7
Style-Arial
100
AcDbText
  0
TEXT
  5
278
330
3C9
100
AcDbEntity
  8
_0
  6
Continuous
 62
     7
370
    13
100
AcDbText
 10
70.54875
 20
-55.081453
 30
0.0
 40
0.050625
  1
28
 41
0.9
  7
Style-Arial
100
AcDbText
  0
TEXT
  5
279
330
3C9
100
AcDbEntity
  8
_0
  6
Continuous
 62
     7
370
    13
100
AcDbText
 10
70.671681
 20
-54.968152
 30
0.0
 40
0.050625
  1
X   168 75'
 41
0.9
  7
Style-Arial
100
AcDbText
  0
TEXT
  5
27A
330
3C9
100
AcDbEntity
  8
_0
  6
Continuous
 62
     7
370
    13
100
AcDbText
 10
70.54875
 20
-54.968443
 30
0.0
 40
0.050625
  1
27
 41
0.9
  7
Style-Arial
100
AcDbText
  0
TEXT
  5
27B
330
3C9
100
AcDbEntity
  8
_0
  6
Continuous
 62
     7
370
    13
100
AcDbText
 10
70.671681
 20
-54.855141
 30
0.0
 40
0.050625
  1
X   162 50'
 41
0.9
  7
Style-Arial
100
AcDbText
  0
TEXT
  5
27C
330
3C9
100
AcDbEntity
  8
_0
  6
Continuous
 62
     7
370
    13
100
AcDbText
 10
70.54875
 20
-54.855433
 30
0.0
 40
0.050625
  1
26
 41
0.9
  7
Style-Arial
100
AcDbText
  0
TEXT
  5
27D
330
3C9
100
AcDbEntity
  8
_0
  6
Continuous
 62
     7
370
    13
100
AcDbText
 10
70.671505
 20
-54.742131
 30
0.0
 40
0.050625
  1
X   156 25"
 41
0.9
  7
Style-Arial
100
AcDbText
  0
TEXT
  5
27E
330
3C9
100
AcDbEntity
  8
_0
  6
Continuous
 62
     7
370
    13
100
AcDbText
 10
70.54875
 20
-54.742422
 30
0.0
 40
0.050625
  1
25
 41
0.9
  7
Style-Arial
100
AcDbText
  0
TEXT
  5
27F
330
3C9
100
AcDbEntity
  8
_0
  6
Continuous
 62
     7
370
    13
100
AcDbText
 10
74.01342
 20
-54.970317
 30
0.0
 40
0.050625
  1
7 00
 41
0.9
  7
Style-Arial
100
AcDbText
  0
TEXT
  5
280
330
3C9
100
AcDbEntity
  8
_0
  6
Continuous
 62
     7
370
    13
100
AcDbText
 10
74.013068
 20
-54.857306
 30
0.0
 40
0.050625
  1
6 99
 41
0.9
  7
Style-Arial
100
AcDbText
  0
TEXT
  5
281
330
3C9
100
AcDbEntity
  8
_0
  6
Continuous
 62
     7
370
    13
100
AcDbText
 10
74.013068
 20
-54.744296
 30
0.0
 40
0.050625
  1
6 97
 41
0.9
  7
Style-Arial
100
AcDbText
  0
TEXT
  5
282
330
3C9
100
AcDbEntity
  8
_0
  6
Continuous
 62
     7
370
    13
100
AcDbText
 10
74.600962
 20
-55.422358
 30
0.0
 40
0.050625
  1
8 00
 41
0.9
  7
Style-Arial
100
AcDbText
  0
TEXT
  5
283
330
3C9
100
AcDbEntity
  8
_0
  6
Continuous
 62
     7
370
    13
100
AcDbText
 10
74.600962
 20
-55.309348
 30
0.0
 40
0.050625
  1
7 97
 41
0.9
  7
Style-Arial
100
AcDbText
  0
TEXT
  5
284
330
3C9
100
AcDbEntity
  8
_0
  6
Continuous
 62
     7
370
    13
100
AcDbText
 10
74.600962
 20
-55.196338
 30
0.0
 40
0.050625
  1
7 99
 41
0.9
  7
Style-Arial
100
AcDbText
  0
TEXT
  5
285
330
3C9
100
AcDbEntity
  8
_0
  6
Continuous
 62
     7
370
    13
100
AcDbText
 10
74.600962
 20
-55.083327
 30
0.0
 40
0.050625
  1
7 94
 41
0.9
  7
Style-Arial
100
AcDbText
  0
TEXT
  5
286
330
3C9
100
AcDbEntity
  8
_0
  6
Continuous
 62
     7
370
    13
100
AcDbText
 10
74.600962
 20
-54.970317
 30
0.0
 40
0.050625
  1
7 88
 41
0.9
  7
Style-Arial
100
AcDbText
  0
TEXT
  5
287
330
3C9
100
AcDbEntity
  8
_0
  6
Continuous
 62
     7
370
    13
100
AcDbText
 10
74.600962
 20
-54.857306
 30
0.0
 40
0.050625
  1
7 79
 41
0.9
  7
Style-Arial
100
AcDbText
  0
TEXT
  5
288
330
3C9
100
AcDbEntity
  8
_0
  6
Continuous
 62
     7
370
    13
100
AcDbText
 10
74.600786
 20
-54.744296
 30
0.0
 40
0.050625
  1
7 67
 41
0.9
  7
Style-Arial
100
AcDbText
  0
TEXT
  5
289
330
3C9
100
AcDbEntity
  8
_0
  6
Continuous
 62
     7
370
    13
100
AcDbText
 10
75.188514
 20
-55.422358
 30
0.0
 40
0.050625
  1
9 00
 41
0.9
  7
Style-Arial
100
AcDbText
  0
TEXT
  5
28A
330
3C9
100
AcDbEntity
  8
_0
  6
Continuous
 62
     7
370
    13
100
AcDbText
 10
75.188514
 20
-55.309348
 30
0.0
 40
0.050625
  1
8 99
 41
0.9
  7
Style-Arial
100
AcDbText
  0
TEXT
  5
28B
330
3C9
100
AcDbEntity
  8
_0
  6
Continuous
 62
     7
370
    13
100
AcDbText
 10
75.188514
 20
-55.196338
 30
0.0
 40
0.050625
  1
8 97
 41
0.9
  7
Style-Arial
100
AcDbText
  0
TEXT
  5
28C
330
3C9
100
AcDbEntity
  8
_0
  6
Continuous
 62
     7
370
    13
100
AcDbText
 10
75.188514
 20
-55.083327
 30
0.0
 40
0.050625
  1
8 93
 41
0.9
  7
Style-Arial
100
AcDbText
  0
TEXT
  5
28D
330
3C9
100
AcDbEntity
  8
_0
  6
Continuous
 62
     7
370
    13
100
AcDbText
 10
75.188337
 20
-54.970317
 30
0.0
 40
0.050625
  1
8 86
 41
0.9
  7
Style-Arial
100
AcDbText
  0
TEXT
  5
28E
330
3C9
100
AcDbEntity
  8
_0
  6
Continuous
 62
     7
370
    13
100
AcDbText
 10
75.188337
 20
-54.857306
 30
0.0
 40
0.050625
  1
8 76
 41
0.9
  7
Style-Arial
100
AcDbText
  0
TEXT
  5
28F
330
3C9
100
AcDbEntity
  8
_0
  6
Continuous
 62
     7
370
    13
100
AcDbText
 10
75.188338
 20
-54.744296
 30
0.0
 40
0.050625
  1
8 62
 41
0.9
  7
Style-Arial
100
AcDbText
  0
TEXT
  5
290
330
3C9
100
AcDbEntity
  8
_0
  6
Continuous
 62
     7
370
    13
100
AcDbText
 10
75.776052
 20
-55.422358
 30
0.0
 40
0.050625
  1
10 00
 41
0.9
  7
Style-Arial
100
AcDbText
  0
TEXT
  5
291
330
3C9
100
AcDbEntity
  8
_0
  6
Continuous
 62
     7
370
    13
100
AcDbText
 10
75.776056
 20
-55.309348
 30
0.0
 40
0.050625
  1
9 99
 41
0.9
  7
Style-Arial
100
AcDbText
  0
TEXT
  5
292
330
3C9
100
AcDbEntity
  8
_0
  6
Continuous
 62
     7
370
    13
100
AcDbText
 10
75.776056
 20
-55.196338
 30
0.0
 40
0.050625
  1
9 97
 41
0.9
  7
Style-Arial
100
AcDbText
  0
TEXT
  5
293
330
3C9
100
AcDbEntity
  8
_0
  6
Continuous
 62
     7
370
    13
100
AcDbText
 10
75.776056
 20
-55.083327
 30
0.0
 40
0.050625
  1
9 92
 41
0.9
  7
Style-Arial
100
AcDbText
  0
TEXT
  5
294
330
3C9
100
AcDbEntity
  8
_0
  6
Continuous
 62
     7
370
    13
100
AcDbText
 10
75.776056
 20
-54.970317
 30
0.0
 40
0.050625
  1
9 85
 41
0.9
  7
Style-Arial
100
AcDbText
  0
TEXT
  5
295
330
3C9
100
AcDbEntity
  8
_0
  6
Continuous
 62
     7
370
    13
100
AcDbText
 10
75.776056
 20
-54.857306
 30
0.0
 40
0.050625
  1
9 74
 41
0.9
  7
Style-Arial
100
AcDbText
  0
TEXT
  5
296
330
3C9
100
AcDbEntity
  8
_0
  6
Continuous
 62
     7
370
    13
100
AcDbText
 10
75.776056
 20
-54.744296
 30
0.0
 40
0.050625
  1
9 58
 41
0.9
  7
Style-Arial
100
AcDbText
  0
TEXT
  5
297
330
3C9
100
AcDbEntity
  8
_0
  6
Continuous
 62
     7
370
    13
100
AcDbText
 10
76.363256
 20
-55.421317
 30
0.0
 40
0.050625
  1
11 00
 41
0.9
  7
Style-Arial
100
AcDbText
  0
TEXT
  5
298
330
3C9
100
AcDbEntity
  8
_0
  6
Continuous
 62
     7
370
    13
100
AcDbText
 10
76.363427
 20
-55.196338
 30
0.0
 40
0.050625
  1
10 96
 41
0.9
  7
Style-Arial
100
AcDbText
  0
TEXT
  5
299
330
3C9
100
AcDbEntity
  8
_0
  6
Continuous
 62
     7
370
    13
100
AcDbText
 10
76.363433
 20
-55.083327
 30
0.0
 40
0.050625
  1
10 91
 41
0.9
  7
Style-Arial
100
AcDbText
  0
TEXT
  5
29A
330
3C9
100
AcDbEntity
  8
_0
  6
Continuous
 62
     7
370
    13
100
AcDbText
 10
76.363604
 20
-54.970317
 30
0.0
 40
0.050625
  1
10 83
 41
0.9
  7
Style-Arial
100
AcDbText
  0
TEXT
  5
29B
330
3C9
100
AcDbEntity
  8
_0
  6
Continuous
 62
     7
370
    13
100
AcDbText
 10
76.363433
 20
-54.857306
 30
0.0
 40
0.050625
  1
10 71
 41
0.9
  7
Style-Arial
100
AcDbText
  0
TEXT
  5
29C
330
3C9
100
AcDbEntity
  8
_0
  6
Continuous
 62
     7
370
    13
100
AcDbText
 10
76.363604
 20
-54.744296
 30
0.0
 40
0.050625
  1
10 54
 41
0.9
  7
Style-Arial
100
AcDbText
  0
TEXT
  5
29D
330
3C9
100
AcDbEntity
  8
_0
  6
Continuous
 62
     7
370
    13
100
AcDbText
 10
70.167254
 20
-55.342862
 30
0.0
 40
0.050625
  1
200 00'
 41
0.9
  7
Style-Arial
100
AcDbText
  0
TEXT
  5
29E
330
3C9
100
AcDbEntity
  8
_0
  6
Continuous
 62
     7
370
    13
100
AcDbText
 10
76.363604
 20
-55.308306
 30
0.0
 40
0.050625
  1
10 99
 41
0.9
  7
Style-Arial
100
AcDbText
  0
TEXT
  5
2A1
330
3C9
100
AcDbEntity
  8
_0
  6
Continuous
 62
     7
370
    13
100
AcDbText
 10
71.075417
 20
-51.919077
 30
0.0
 40
0.050625
  1
ON
 41
0.9
  7
Style-Arial
100
AcDbText
  0
TEXT
  5
2A2
330
3C9
100
AcDbEntity
  8
_0
  6
Continuous
 62
     7
370
    13
100
AcDbText
 10
71.075639
 20
-51.806066
 30
0.0
 40
0.050625
  1
RUN
 41
0.9
  7
Style-Arial
100
AcDbText
  0
TEXT
  5
2A3
330
3C9
100
AcDbEntity
  8
_0
  6
Continuous
 62
     7
370
    13
100
AcDbText
 10
71.36941
 20
-51.919077
 30
0.0
 40
0.050625
  1
OFF
 41
0.9
  7
Style-Arial
100
AcDbText
  0
TEXT
  5
2A4
330
3C9
100
AcDbEntity
  8
_0
  6
Continuous
 62
     7
370
    13
100
AcDbText
 10
71.36941
 20
-51.806066
 30
0.0
 40
0.050625
  1
RUN
 41
0.9
  7
Style-Arial
100
AcDbText
  0
TEXT
  5
2A5
330
3C9
100
AcDbEntity
  8
_0
  6
Continuous
 62
     7
370
    13
100
AcDbText
 10
71.663181
 20
-51.806066
 30
0.0
 40
0.050625
  1
RUN
 41
0.9
  7
Style-Arial
100
AcDbText
  0
TEXT
  5
2A6
330
3C9
100
AcDbEntity
  8
_0
  6
Continuous
 62
     7
370
    13
100
AcDbText
 10
71.956962
 20
-51.806066
 30
0.0
 40
0.050625
  1
RUN
 41
0.9
  7
Style-Arial
100
AcDbText
  0
TEXT
  5
2A7
330
3C9
100
AcDbEntity
  8
_0
  6
Continuous
 62
     7
370
    13
100
AcDbText
 10
72.250733
 20
-51.806066
 30
0.0
 40
0.050625
  1
RUN
 41
0.9
  7
Style-Arial
100
AcDbText
  0
TEXT
  5
2A8
330
3C9
100
AcDbEntity
  8
_0
  6
Continuous
 62
     7
370
    13
100
AcDbText
 10
72.544504
 20
-51.806066
 30
0.0
 40
0.050625
  1
RUN
 41
0.9
  7
Style-Arial
100
AcDbText
  0
TEXT
  5
2A9
330
3C9
100
AcDbEntity
  8
_0
  6
Continuous
 62
     7
370
    13
100
AcDbText
 10
72.838275
 20
-51.806066
 30
0.0
 40
0.050625
  1
RUN
 41
0.9
  7
Style-Arial
100
AcDbText
  0
TEXT
  5
2AA
330
3C9
100
AcDbEntity
  8
_0
  6
Continuous
 62
     7
370
    13
100
AcDbText
 10
73.132056
 20
-51.806066
 30
0.0
 40
0.050625
  1
RUN
 41
0.9
  7
Style-Arial
100
AcDbText
  0
TEXT
  5
2AB
330
3C9
100
AcDbEntity
  8
_0
  6
Continuous
 62
     7
370
    13
100
AcDbText
 10
73.425827
 20
-51.806066
 30
0.0
 40
0.050625
  1
RUN
 41
0.9
  7
Style-Arial
100
AcDbText
  0
TEXT
  5
2AC
330
3C9
100
AcDbEntity
  8
_0
  6
Continuous
 62
     7
370
    13
100
AcDbText
 10
73.719598
 20
-51.806066
 30
0.0
 40
0.050625
  1
RUN
 41
0.9
  7
Style-Arial
100
AcDbText
  0
TEXT
  5
2AD
330
3C9
100
AcDbEntity
  8
_0
  6
Continuous
 62
     7
370
    13
100
AcDbText
 10
74.013379
 20
-51.806066
 30
0.0
 40
0.050625
  1
RUN
 41
0.9
  7
Style-Arial
100
AcDbText
  0
TEXT
  5
2AE
330
3C9
100
AcDbEntity
  8
_0
  6
Continuous
 62
     7
370
    13
100
AcDbText
 10
74.30715
 20
-51.806066
 30
0.0
 40
0.050625
  1
RUN
 41
0.9
  7
Style-Arial
100
AcDbText
  0
TEXT
  5
2AF
330
3C9
100
AcDbEntity
  8
_0
  6
Continuous
 62
     7
370
    13
100
AcDbText
 10
74.600921
 20
-51.806066
 30
0.0
 40
0.050625
  1
RUN
 41
0.9
  7
Style-Arial
100
AcDbText
  0
TEXT
  5
2B0
330
3C9
100
AcDbEntity
  8
_0
  6
Continuous
 62
     7
370
    13
100
AcDbText
 10
74.894691
 20
-51.806066
 30
0.0
 40
0.050625
  1
RUN
 41
0.9
  7
Style-Arial
100
AcDbText
  0
TEXT
  5
2B1
330
3C9
100
AcDbEntity
  8
_0
  6
Continuous
 62
     7
370
    13
100
AcDbText
 10
75.188473
 20
-51.806066
 30
0.0
 40
0.050625
  1
RUN
 41
0.9
  7
Style-Arial
100
AcDbText
  0
TEXT
  5
2B2
330
3C9
100
AcDbEntity
  8
_0
  6
Continuous
 62
     7
370
    13
100
AcDbText
 10
75.482243
 20
-51.806066
 30
0.0
 40
0.050625
  1
RUN
 41
0.9
  7
Style-Arial
100
AcDbText
  0
TEXT
  5
2B3
330
3C9
100
AcDbEntity
  8
_0
  6
Continuous
 62
     7
370
    13
100
AcDbText
 10
75.776014
 20
-51.806066
 30
0.0
 40
0.050625
  1
RUN
 41
0.9
  7
Style-Arial
100
AcDbText
  0
TEXT
  5
2B4
330
3C9
100
AcDbEntity
  8
_0
  6
Continuous
 62
     7
370
    13
100
AcDbText
 10
76.069785
 20
-51.806066
 30
0.0
 40
0.050625
  1
RUN
 41
0.9
  7
Style-Arial
100
AcDbText
  0
TEXT
  5
2B5
330
3C9
100
AcDbEntity
  8
_0
  6
Continuous
 62
     7
370
    13
100
AcDbText
 10
76.363566
 20
-51.806066
 30
0.0
 40
0.050625
  1
RUN
 41
0.9
  7
Style-Arial
100
AcDbText
  0
TEXT
  5
2B6
330
3C9
100
AcDbEntity
  8
_0
  6
Continuous
 62
     7
370
    13
100
AcDbText
 10
76.657337
 20
-51.806066
 30
0.0
 40
0.050625
  1
RUN
 41
0.9
  7
Style-Arial
100
AcDbText
  0
TEXT
  5
2B7
330
3C9
100
AcDbEntity
  8
_0
  6
Continuous
 62
     7
370
    13
100
AcDbText
 10
71.662969
 20
-51.919077
 30
0.0
 40
0.050625
  1
ON
 41
0.9
  7
Style-Arial
100
AcDbText
  0
TEXT
  5
2B8
330
3C9
100
AcDbEntity
  8
_0
  6
Continuous
 62
     7
370
    13
100
AcDbText
 10
71.956962
 20
-51.919077
 30
0.0
 40
0.050625
  1
OFF
 41
0.9
  7
Style-Arial
100
AcDbText
  0
TEXT
  5
2B9
330
3C9
100
AcDbEntity
  8
_0
  6
Continuous
 62
     7
370
    13
100
AcDbText
 10
72.25051
 20
-51.919077
 30
0.0
 40
0.050625
  1
ON
 41
0.9
  7
Style-Arial
100
AcDbText
  0
TEXT
  5
2BA
330
3C9
100
AcDbEntity
  8
_0
  6
Continuous
 62
     7
370
    13
100
AcDbText
 10
72.544504
 20
-51.919077
 30
0.0
 40
0.050625
  1
OFF
 41
0.9
  7
Style-Arial
100
AcDbText
  0
TEXT
  5
2BB
330
3C9
100
AcDbEntity
  8
_0
  6
Continuous
 62
     7
370
    13
100
AcDbText
 10
72.838063
 20
-51.919077
 30
0.0
 40
0.050625
  1
ON
 41
0.9
  7
Style-Arial
100
AcDbText
  0
TEXT
  5
2BC
330
3C9
100
AcDbEntity
  8
_0
  6
Continuous
 62
     7
370
    13
100
AcDbText
 10
73.132056
 20
-51.919077
 30
0.0
 40
0.050625
  1
OFF
 41
0.9
  7
Style-Arial
100
AcDbText
  0
TEXT
  5
2BD
330
3C9
100
AcDbEntity
  8
_0
  6
Continuous
 62
     7
370
    13
100
AcDbText
 10
73.425604
 20
-51.919077
 30
0.0
 40
0.050625
  1
ON
 41
0.9
  7
Style-Arial
100
AcDbText
  0
TEXT
  5
2BE
330
3C9
100
AcDbEntity
  8
_0
  6
Continuous
 62
     7
370
    13
100
AcDbText
 10
73.719598
 20
-51.919077
 30
0.0
 40
0.050625
  1
OFF
 41
0.9
  7
Style-Arial
100
AcDbText
  0
TEXT
  5
2BF
330
3C9
100
AcDbEntity
  8
_0
  6
Continuous
 62
     7
370
    13
100
AcDbText
 10
74.013156
 20
-51.919077
 30
0.0
 40
0.050625
  1
ON
 41
0.9
  7
Style-Arial
100
AcDbText
  0
TEXT
  5
2C0
330
3C9
100
AcDbEntity
  8
_0
  6
Continuous
 62
     7
370
    13
100
AcDbText
 10
74.30715
 20
-51.919077
 30
0.0
 40
0.050625
  1
OFF
 41
0.9
  7
Style-Arial
100
AcDbText
  0
TEXT
  5
2C1
330
3C9
100
AcDbEntity
  8
_0
  6
Continuous
 62
     7
370
    13
100
AcDbText
 10
74.600698
 20
-51.919077
 30
0.0
 40
0.050625
  1
ON
 41
0.9
  7
Style-Arial
100
AcDbText
  0
TEXT
  5
2C2
330
3C9
100
AcDbEntity
  8
_0
  6
Continuous
 62
     7
370
    13
100
AcDbText
 10
74.894691
 20
-51.919077
 30
0.0
 40
0.050625
  1
OFF
 41
0.9
  7
Style-Arial
100
AcDbText
  0
TEXT
  5
2C3
330
3C9
100
AcDbEntity
  8
_0
  6
Continuous
 62
     7
370
    13
100
AcDbText
 10
75.18825
 20
-51.919077
 30
0.0
 40
0.050625
  1
ON
 41
0.9
  7
Style-Arial
100
AcDbText
  0
TEXT
  5
2C4
330
3C9
100
AcDbEntity
  8
_0
  6
Continuous
 62
     7
370
    13
100
AcDbText
 10
75.482243
 20
-51.919077
 30
0.0
 40
0.050625
  1
OFF
 41
0.9
  7
Style-Arial
100
AcDbText
  0
TEXT
  5
2C5
330
3C9
100
AcDbEntity
  8
_0
  6
Continuous
 62
     7
370
    13
100
AcDbText
 10
75.775802
 20
-51.919077
 30
0.0
 40
0.050625
  1
ON
 41
0.9
  7
Style-Arial
100
AcDbText
  0
TEXT
  5
2C6
330
3C9
100
AcDbEntity
  8
_0
  6
Continuous
 62
     7
370
    13
100
AcDbText
 10
76.069785
 20
-51.919077
 30
0.0
 40
0.050625
  1
OFF
 41
0.9
  7
Style-Arial
100
AcDbText
  0
TEXT
  5
2C7
330
3C9
100
AcDbEntity
  8
_0
  6
Continuous
 62
     7
370
    13
100
AcDbText
 10
76.363344
 20
-51.919077
 30
0.0
 40
0.050625
  1
ON
 41
0.9
  7
Style-Arial
100
AcDbText
  0
TEXT
  5
2C8
330
3C9
100
AcDbEntity
  8
_0
  6
Continuous
 62
     7
370
    13
100
AcDbText
 10
76.657337
 20
-51.919077
 30
0.0
 40
0.050625
  1
OFF
 41
0.9
  7
Style-Arial
100
AcDbText
  0
TEXT
  5
2C9
330
3C9
100
AcDbEntity
  8
_0
  6
Continuous
 62
     7
370
    13
100
AcDbText
 10
71.78246
 20
-51.686925
 30
0.0
 40
0.050625
  1
W=3'
 41
0.9
  7
Style-Arial
100
AcDbText
  0
TEXT
  5
2CA
330
3C9
100
AcDbEntity
  8
_0
  6
Continuous
 62
     7
370
    13
100
AcDbText
 10
72.370002
 20
-51.686925
 30
0.0
 40
0.050625
  1
W=4'
 41
0.9
  7
Style-Arial
100
AcDbText
  0
TEXT
  5
2CB
330
3C9
100
AcDbEntity
  8
_0
  6
Continuous
 62
     7
370
    13
100
AcDbText
 10
72.957554
 20
-51.686925
 30
0.0
 40
0.050625
  1
W=5'
 41
0.9
  7
Style-Arial
100
AcDbText
  0
TEXT
  5
2CC
330
3C9
100
AcDbEntity
  8
_0
  6
Continuous
 62
     7
370
    13
100
AcDbText
 10
73.544881
 20
-51.686925
 30
0.0
 40
0.050625
  1
W=6'
 41
0.9
  7
Style-Arial
100
AcDbText
  0
TEXT
  5
2CD
330
3C9
100
AcDbEntity
  8
_0
  6
Continuous
 62
     7
370
    13
100
AcDbText
 10
74.132648
 20
-51.686925
 30
0.0
 40
0.050625
  1
W=7'
 41
0.9
  7
Style-Arial
100
AcDbText
  0
TEXT
  5
2CE
330
3C9
100
AcDbEntity
  8
_0
  6
Continuous
 62
     7
370
    13
100
AcDbText
 10
74.72019
 20
-51.686925
 30
0.0
 40
0.050625
  1
W=8'
 41
0.9
  7
Style-Arial
100
AcDbText
  0
TEXT
  5
2CF
330
3C9
100
AcDbEntity
  8
_0
  6
Continuous
 62
     7
370
    13
100
AcDbText
 10
75.307742
 20
-51.686925
 30
0.0
 40
0.050625
  1
W=9'
 41
0.9
  7
Style-Arial
100
AcDbText
  0
TEXT
  5
2D0
330
3C9
100
AcDbEntity
  8
_0
  6
Continuous
 62
     7
370
    13
100
AcDbText
 10
75.895286
 20
-51.686925
 30
0.0
 40
0.050625
  1
1=10'
 41
0.9
  7
Style-Arial
100
AcDbText
  0
TEXT
  5
2D1
330
3C9
100
AcDbEntity
  8
_0
  6
Continuous
 62
     7
370
    13
100
AcDbText
 10
76.48261
 20
-51.686925
 30
0.0
 40
0.050625
  1
W=11'
 41
0.9
  7
Style-Arial
100
AcDbText
  0
TEXT
  5
2D2
330
3C9
100
AcDbEntity
  8
_0
  6
Continuous
 62
     7
370
    13
100
AcDbText
 10
77.070381
 20
-51.686925
 30
0.0
 40
0.050625
  1
W=12'
 41
0.9
  7
Style-Arial
100
AcDbText
  0
TEXT
  5
2D3
330
3C9
100
AcDbEntity
  8
_0
  6
Continuous
 62
     7
370
    13
100
AcDbText
 10
77.244879
 20
-51.919077
 30
0.0
 40
0.050625
  1
OFF
 41
0.9
  7
Style-Arial
100
AcDbText
  0
TEXT
  5
2D4
330
3C9
100
AcDbEntity
  8
_0
  6
Continuous
 62
     7
370
    13
100
AcDbText
 10
76.950896
 20
-51.919077
 30
0.0
 40
0.050625
  1
ON
 41
0.9
  7
Style-Arial
100
AcDbText
  0
TEXT
  5
2D5
330
3C9
100
AcDbEntity
  8
_0
  6
Continuous
 62
     7
370
    13
100
AcDbText
 10
77.244879
 20
-51.806066
 30
0.0
 40
0.050625
  1
RUN
 41
0.9
  7
Style-Arial
100
AcDbText
  0
TEXT
  5
2D6
330
3C9
100
AcDbEntity
  8
_0
  6
Continuous
 62
     7
370
    13
100
AcDbText
 10
76.951108
 20
-51.806066
 30
0.0
 40
0.050625
  1
RUN
 41
0.9
  7
Style-Arial
100
AcDbText
  0
TEXT
  5
2D7
330
3C9
100
AcDbEntity
  8
_0
  6
Continuous
 62
     7
370
    13
100
AcDbText
 10
76.950798
 20
-55.308306
 30
0.0
 40
0.050625
  1
11 99
 41
0.9
  7
Style-Arial
100
AcDbText
  0
TEXT
  5
2D8
330
3C9
100
AcDbEntity
  8
_0
  6
Continuous
 62
     7
370
    13
100
AcDbText
 10
76.950798
 20
-54.744296
 30
0.0
 40
0.050625
  1
11 50
 41
0.9
  7
Style-Arial
100
AcDbText
  0
TEXT
  5
2D9
330
3C9
100
AcDbEntity
  8
_0
  6
Continuous
 62
     7
370
    13
100
AcDbText
 10
76.950632
 20
-54.857306
 30
0.0
 40
0.050625
  1
11 68
 41
0.9
  7
Style-Arial
100
AcDbText
  0
TEXT
  5
2DA
330
3C9
100
AcDbEntity
  8
_0
  6
Continuous
 62
     7
370
    13
100
AcDbText
 10
76.950798
 20
-54.970317
 30
0.0
 40
0.050625
  1
11 82
 41
0.9
  7
Style-Arial
100
AcDbText
  0
TEXT
  5
2DB
330
3C9
100
AcDbEntity
  8
_0
  6
Continuous
 62
     7
370
    13
100
AcDbText
 10
76.950626
 20
-55.083327
 30
0.0
 40
0.050625
  1
11 91
 41
0.9
  7
Style-Arial
100
AcDbText
  0
TEXT
  5
2DC
330
3C9
100
AcDbEntity
  8
_0
  6
Continuous
 62
     7
370
    13
100
AcDbText
 10
76.950621
 20
-55.196338
 30
0.0
 40
0.050625
  1
11 96
 41
0.9
  7
Style-Arial
100
AcDbText
  0
TEXT
  5
2DD
330
3C9
100
AcDbEntity
  8
_0
  6
Continuous
 62
     7
370
    13
100
AcDbText
 10
76.951146
 20
-55.421317
 30
0.0
 40
0.050625
  1
12 00
 41
0.9
  7
Style-Arial
100
AcDbText
  0
TEXT
  5
2E0
330
3C9
100
AcDbEntity
  8
_0
  6
Continuous
 62
     7
370
    13
100
AcDbText
 10
76.95115
 20
-52.71014
 30
0.0
 40
0.050625
  1
0 50
 41
0.9
  7
Style-Arial
100
AcDbText
  0
TEXT
  5
2E1
330
3C9
100
AcDbEntity
  8
_0
  6
Continuous
 62
     7
370
    13
100
AcDbText
 10
76.95116
 20
-52.597129
 30
0.0
 40
0.050625
  1
0 32
 41
0.9
  7
Style-Arial
100
AcDbText
  0
TEXT
  5
2E2
330
3C9
100
AcDbEntity
  8
_0
  6
Continuous
 62
     7
370
    13
100
AcDbText
 10
76.950981
 20
-52.484119
 30
0.0
 40
0.050625
  1
0 18
 41
0.9
  7
Style-Arial
100
AcDbText
  0
TEXT
  5
2E3
330
3C9
100
AcDbEntity
  8
_0
  6
Continuous
 62
     7
370
    13
100
AcDbText
 10
76.95115
 20
-52.371108
 30
0.0
 40
0.050625
  1
0 09
 41
0.9
  7
Style-Arial
100
AcDbText
  0
TEXT
  5
2E4
330
3C9
100
AcDbEntity
  8
_0
  6
Continuous
 62
     7
370
    13
100
AcDbText
 10
76.95115
 20
-52.258098
 30
0.0
 40
0.050625
  1
0 04
 41
0.9
  7
Style-Arial
100
AcDbText
  0
TEXT
  5
2E5
330
3C9
100
AcDbEntity
  8
_0
  6
Continuous
 62
     7
370
    13
100
AcDbText
 10
76.950978
 20
-52.145088
 30
0.0
 40
0.050625
  1
0 01
 41
0.9
  7
Style-Arial
100
AcDbText
  0
TEXT
  5
2E6
330
3C9
100
AcDbEntity
  8
_0
  6
Continuous
 62
     7
370
    13
100
AcDbText
 10
76.95115
 20
-52.032088
 30
0.0
 40
0.050625
  1
0 00
 41
0.9
  7
Style-Arial
100
AcDbText
  0
TEXT
  5
2E7
330
3C9
100
AcDbEntity
  8
_0
  6
Continuous
 62
     7
370
    13
100
AcDbText
 10
77.24492
 20
-52.71014
 30
0.0
 40
0.050625
  1
4 02
 41
0.9
  7
Style-Arial
100
AcDbText
  0
TEXT
  5
2E8
330
3C9
100
AcDbEntity
  8
_0
  6
Continuous
 62
     7
370
    13
100
AcDbText
 10
77.24492
 20
-52.597129
 30
0.0
 40
0.050625
  1
2 53
 41
0.9
  7
Style-Arial
100
AcDbText
  0
TEXT
  5
2E9
330
3C9
100
AcDbEntity
  8
_0
  6
Continuous
 62
     7
370
    13
100
AcDbText
 10
77.244395
 20
-52.484119
 30
0.0
 40
0.050625
  1
1 46
 41
0.9
  7
Style-Arial
100
AcDbText
  0
TEXT
  5
2EA
330
3C9
100
AcDbEntity
  8
_0
  6
Continuous
 62
     7
370
    13
100
AcDbText
 10
77.24492
 20
-52.371108
 30
0.0
 40
0.050625
  1
0 75
 41
0.9
  7
Style-Arial
100
AcDbText
  0
TEXT
  5
2EB
330
3C9
100
AcDbEntity
  8
_0
  6
Continuous
 62
     7
370
    13
100
AcDbText
 10
77.24493
 20
-52.258098
 30
0.0
 40
0.050625
  1
0 32
 41
0.9
  7
Style-Arial
100
AcDbText
  0
TEXT
  5
2EC
330
3C9
100
AcDbEntity
  8
_0
  6
Continuous
 62
     7
370
    13
100
AcDbText
 10
77.24492
 20
-52.145088
 30
0.0
 40
0.050625
  1
0 09
 41
0.9
  7
Style-Arial
100
AcDbText
  0
TEXT
  5
2ED
330
3C9
100
AcDbEntity
  8
_0
  6
Continuous
 62
     7
370
    13
100
AcDbText
 10
77.244749
 20
-52.032088
 30
0.0
 40
0.050625
  1
0 01
 41
0.9
  7
Style-Arial
100
AcDbText
  0
TEXT
  5
2EE
330
3C9
100
AcDbEntity
  8
_0
  6
Continuous
 62
     7
370
    13
100
AcDbText
 10
76.950798
 20
-54.630254
 30
0.0
 40
0.050625
  1
11 25
 41
0.9
  7
Style-Arial
100
AcDbText
  0
TEXT
  5
2EF
330
3C9
100
AcDbEntity
  8
_0
  6
Continuous
 62
     7
370
    13
100
AcDbText
 10
76.951146
 20
-54.517244
 30
0.0
 40
0.050625
  1
10 93
 41
0.9
  7
Style-Arial
100
AcDbText
  0
TEXT
  5
2F0
330
3C9
100
AcDbEntity
  8
_0
  6
Continuous
 62
     7
370
    13
100
AcDbText
 10
76.951146
 20
-54.292265
 30
0.0
 40
0.050625
  1
10 05
 41
0.9
  7
Style-Arial
100
AcDbText
  0
TEXT
  5
2F1
330
3C9
100
AcDbEntity
  8
_0
  6
Continuous
 62
     7
370
    13
100
AcDbText
 10
76.95115
 20
-54.179254
 30
0.0
 40
0.050625
  1
9 47
 41
0.9
  7
Style-Arial
100
AcDbText
  0
TEXT
  5
2F2
330
3C9
100
AcDbEntity
  8
_0
  6
Continuous
 62
     7
370
    13
100
AcDbText
 10
76.95115
 20
-54.066244
 30
0.0
 40
0.050625
  1
8 78
 41
0.9
  7
Style-Arial
100
AcDbText
  0
TEXT
  5
2F3
330
3C9
100
AcDbEntity
  8
_0
  6
Continuous
 62
     7
370
    13
100
AcDbText
 10
76.95115
 20
-53.953233
 30
0.0
 40
0.050625
  1
7 98
 41
0.9
  7
Style-Arial
100
AcDbText
  0
TEXT
  5
2F4
330
3C9
100
AcDbEntity
  8
_0
  6
Continuous
 62
     7
370
    13
100
AcDbText
 10
76.950983
 20
-53.840223
 30
0.0
 40
0.050625
  1
7 06
 41
0.9
  7
Style-Arial
100
AcDbText
  0
TEXT
  5
2F5
330
3C9
100
AcDbEntity
  8
_0
  6
Continuous
 62
     7
370
    13
100
AcDbText
 10
76.950808
 20
-53.727223
 30
0.0
 40
0.050625
  1
6 00
 41
0.9
  7
Style-Arial
100
AcDbText
  0
TEXT
  5
2F6
330
3C9
100
AcDbEntity
  8
_0
  6
Continuous
 62
     7
370
    13
100
AcDbText
 10
76.95115
 20
-53.614213
 30
0.0
 40
0.050625
  1
4 94
 41
0.9
  7
Style-Arial
100
AcDbText
  0
TEXT
  5
2F7
330
3C9
100
AcDbEntity
  8
_0
  6
Continuous
 62
     7
370
    13
100
AcDbText
 10
76.95115
 20
-53.501202
 30
0.0
 40
0.050625
  1
4 02
 41
0.9
  7
Style-Arial
100
AcDbText
  0
TEXT
  5
2F8
330
3C9
100
AcDbEntity
  8
_0
  6
Continuous
 62
     7
370
    13
100
AcDbText
 10
76.951149
 20
-53.388192
 30
0.0
 40
0.050625
  1
3 22
 41
0.9
  7
Style-Arial
100
AcDbText
  0
TEXT
  5
2F9
330
3C9
100
AcDbEntity
  8
_0
  6
Continuous
 62
     7
370
    13
100
AcDbText
 10
76.95115
 20
-53.275181
 30
0.0
 40
0.050625
  1
2 53
 41
0.9
  7
Style-Arial
100
AcDbText
  0
TEXT
  5
2FA
330
3C9
100
AcDbEntity
  8
_0
  6
Continuous
 62
     7
370
    13
100
AcDbText
 10
76.950801
 20
-53.162171
 30
0.0
 40
0.050625
  1
1 95
 41
0.9
  7
Style-Arial
100
AcDbText
  0
TEXT
  5
2FB
330
3C9
100
AcDbEntity
  8
_0
  6
Continuous
 62
     7
370
    13
100
AcDbText
 10
76.950624
 20
-53.04916
 30
0.0
 40
0.050625
  1
1 46
 41
0.9
  7
Style-Arial
100
AcDbText
  0
TEXT
  5
2FC
330
3C9
100
AcDbEntity
  8
_0
  6
Continuous
 62
     7
370
    13
100
AcDbText
 10
76.950801
 20
-52.93615
 30
0.0
 40
0.050625
  1
1 07
 41
0.9
  7
Style-Arial
100
AcDbText
  0
TEXT
  5
2FD
330
3C9
100
AcDbEntity
  8
_0
  6
Continuous
 62
     7
370
    13
100
AcDbText
 10
76.95115
 20
-52.82314
 30
0.0
 40
0.050625
  1
0 75
 41
0.9
  7
Style-Arial
100
AcDbText
  0
TEXT
  5
2FE
330
3C9
100
AcDbEntity
  8
_0
  6
Continuous
 62
     7
370
    13
100
AcDbText
 10
77.244927
 20
-53.727223
 30
0.0
 40
0.050625
  1
12 00
 41
0.9
  7
Style-Arial
100
AcDbText
  0
TEXT
  5
2FF
330
3C9
100
AcDbEntity
  8
_0
  6
Continuous
 62
     7
370
    13
100
AcDbText
 10
77.244579
 20
-53.614213
 30
0.0
 40
0.050625
  1
11 99
 41
0.9
  7
Style-Arial
100
AcDbText
  0
TEXT
  5
300
330
3C9
100
AcDbEntity
  8
_0
  6
Continuous
 62
     7
370
    13
100
AcDbText
 10
77.244397
 20
-53.501202
 30
0.0
 40
0.050625
  1
11 91
 41
0.9
  7
Style-Arial
100
AcDbText
  0
TEXT
  5
301
330
3C9
100
AcDbEntity
  8
_0
  6
Continuous
 62
     7
370
    13
100
AcDbText
 10
77.244403
 20
-53.388192
 30
0.0
 40
0.050625
  1
11 68
 41
0.9
  7
Style-Arial
100
AcDbText
  0
TEXT
  5
302
330
3C9
100
AcDbEntity
  8
_0
  6
Continuous
 62
     7
370
    13
100
AcDbText
 10
77.244579
 20
-53.275181
 30
0.0
 40
0.050625
  1
11 25
 41
0.9
  7
Style-Arial
100
AcDbText
  0
TEXT
  5
303
330
3C9
100
AcDbEntity
  8
_0
  6
Continuous
 62
     7
370
    13
100
AcDbText
 10
77.244927
 20
-53.162171
 30
0.0
 40
0.050625
  1
10 54
 41
0.9
  7
Style-Arial
100
AcDbText
  0
TEXT
  5
304
330
3C9
100
AcDbEntity
  8
_0
  6
Continuous
 62
     7
370
    13
100
AcDbText
 10
77.24492
 20
-53.04916
 30
0.0
 40
0.050625
  1
9 47
 41
0.9
  7
Style-Arial
100
AcDbText
  0
TEXT
  5
305
330
3C9
100
AcDbEntity
  8
_0
  6
Continuous
 62
     7
370
    13
100
AcDbText
 10
77.24492
 20
-52.93615
 30
0.0
 40
0.050625
  1
7 98
 41
0.9
  7
Style-Arial
100
AcDbText
  0
TEXT
  5
306
330
3C9
100
AcDbEntity
  8
_0
  6
Continuous
 62
     7
370
    13
100
AcDbText
 10
77.244579
 20
-52.82314
 30
0.0
 40
0.050625
  1
6 00
 41
0.9
  7
Style-Arial
100
AcDbText
  0
TEXT
  5
307
330
3C9
100
AcDbEntity
  8
_0
  6
Continuous
 62
     7
370
    13
100
AcDbText
 10
76.951146
 20
-54.404233
 30
0.0
 40
0.050625
  1
10 54
 41
0.9
  7
Style-Arial
100
AcDbText
  0
TEXT
  5
30B
330
3C9
100
AcDbEntity
  8
DIM
  6
Continuous
 62
     7
370
    13
100
AcDbText
 10
78.105205
 20
-54.427135
 30
0.0
 40
0.050625
  1
Y
 41
0.9
  7
Style-Arial
100
AcDbText
  0
TEXT
  5
310
330
3C9
100
AcDbEntity
  8
DIM
  6
Continuous
 62
     7
370
    13
100
AcDbText
 10
78.107719
 20
-54.167167
 30
0.0
 40
0.050625
  1
Y
 41
0.9
  7
Style-Arial
100
AcDbText
  0
TEXT
  5
317
330
3C9
100
AcDbEntity
  8
DIM
  6
Continuous
 62
     7
370
    13
100
AcDbText
 10
78.294792
 20
-54.095872
 30
0.0
 40
0.050625
  1
6'-3"
 50
90.0
 41
0.9
  7
Style-Arial
100
AcDbText
  0
TEXT
  5
31B
330
3C9
100
AcDbEntity
  8
DIM
  6
Continuous
 62
     7
370
    13
100
AcDbText
 10
78.294792
 20
-54.366289
 30
0.0
 40
0.050625
  1
6'-3"
 50
90.0
 41
0.9
  7
Style-Arial
100
AcDbText
  0
TEXT
  5
31D
330
3C9
100
AcDbEntity
  8
LEGEND
  6
Continuous
 62
     7
370
    13
100
AcDbText
 10
75.990021
 20
-55.893958
 30
0.0
 40
0.050625
  1
GUARD RAIL INSTALLATION CRITERIA AS SHOWN ON THESE
 41
0.9
  7
Style-Arial
100
AcDbText
  0
TEXT
  5
31E
330
3C9
100
AcDbEntity
  8
LEGEND
  6
Continuous
 62
     7
370
    13
100
AcDbText
 10
75.990021
 20
-55.974917
 30
0.0
 40
0.050625
  1
SHEETS IS TO APPLY TO THOSE LOCATIONS WHERE GUARD
 41
0.9
  7
Style-Arial
100
AcDbText
  0
TEXT
  5
31F
330
3C9
100
AcDbEntity
  8
LEGEND
  6
Continuous
 62
     7
370
    13
100
AcDbText
 10
75.990021
 20
-56.055875
 30
0.0
 40
0.050625
  1
RAIL IS SPECIFED ON PLANS OF DIRECTED BY THE 
 41
0.9
  7
Style-Arial
100
AcDbText
  0
TEXT
  5
320
330
3C9
100
AcDbEntity
  8
LEGEND
  6
Continuous
 62
     7
370
    13
100
AcDbText
 10
75.990021
 20
-56.136833
 30
0.0
 40
0.050625
  1
ENGINEER
 41
0.9
  7
Style-Arial
100
AcDbText
  0
TEXT
  5
321
330
3C9
100
AcDbEntity
  8
LEGEND
  6
Continuous
 62
     7
370
    13
100
AcDbText
 10
75.990021
 20
-56.272188
 30
0.0
 40
0.050625
  1
LENGTH OF TRANSITION (L) IS TO BE IN ACCORDANCE
 41
0.9
  7
Style-Arial
100
AcDbText
  0
TEXT
  5
322
330
3C9
100
AcDbEntity
  8
LEGEND
  6
Continuous
 62
     7
370
    13
100
AcDbText
 10
75.990021
 20
-56.353146
 30
0.0
 40
0.050625
  1
WITH TABLE III OR IV FOR APPLICABLE VALUES OF W
 41
0.9
  7
Style-Arial
100
AcDbText
  0
TEXT
  5
323
330
3C9
100
AcDbEntity
  8
LEGEND
  6
Continuous
 62
     7
370
    13
100
AcDbText
 10
75.990021
 20
-56.434104
 30
0.0
 40
0.050625
  1
OR AS DIRECTED BY THE ENGINEER
 41
0.9
  7
Style-Arial
100
AcDbText
  0
TEXT
  5
324
330
3C9
100
AcDbEntity
  8
LEGEND
  6
Continuous
 62
     7
370
    13
100
AcDbText
 10
75.990021
 20
-56.569458
 30
0.0
 40
0.050625
  1
ALL LENGTHS (L) ARE APPLIED ALONG FACE OF GUARD
 41
0.9
  7
Style-Arial
100
AcDbText
  0
TEXT
  5
325
330
3C9
100
AcDbEntity
  8
LEGEND
  6
Continuous
 62
     7
370
    13
100
AcDbText
 10
75.990021
 20
-56.650417
 30
0.0
 40
0.050625
  1
RAIL
 41
0.9
  7
Style-Arial
100
AcDbText
  0
TEXT
  5
326
330
3C9
100
AcDbEntity
  8
LEGEND
  6
Continuous
 62
     7
370
    13
100
AcDbText
 10
75.987073
 20
-56.785771
 30
0.0
 40
0.050625
  1
OFFSETS SHOWN IN TABLES ARE FOR 6'-3" SPACING
 41
0.9
  7
Style-Arial
100
AcDbText
  0
TEXT
  5
327
330
3C9
100
AcDbEntity
  8
LEGEND
  6
Continuous
 62
     7
370
    13
100
AcDbText
 10
75.987073
 20
-56.866729
 30
0.0
 40
0.050625
  1
FOR 12'-6" SPACING USE EVERY SECOND VALUE FOR Y
 41
0.9
  7
Style-Arial
100
AcDbText
  0
TEXT
  5
328
330
3C9
100
AcDbEntity
  8
LEGEND
  6
Continuous
 62
     7
370
    13
100
AcDbText
 10
75.975271
 20
-57.005031
 30
0.0
 40
0.050625
  1
OFFSET TRANSITIONS SHOWN ON TABLES III & IV DO NOT
 41
0.9
  7
Style-Arial
100
AcDbText
  0
TEXT
  5
329
330
3C9
100
AcDbEntity
  8
LEGEND
  6
Continuous
 62
     7
370
    13
100
AcDbText
 10
75.975271
 20
-57.08599
 30
0.0
 40
0.050625
  1
APPLY TO STRAIGHT LINE TRANSITIONS WHEN SLOPE
 41
0.9
  7
Style-Arial
100
AcDbText
  0
TEXT
  5
32A
330
3C9
100
AcDbEntity
  8
LEGEND
  6
Continuous
 62
     7
370
    13
100
AcDbText
 10
75.975271
 20
-57.166948
 30
0.0
 40
0.050625
  1
STANDARDS ARE SPECIFIED ON PLANS
 41
0.9
  7
Style-Arial
100
AcDbText
  0
TEXT
  5
32B
330
3C9
100
AcDbEntity
  8
_0
  6
Continuous
 62
     7
370
    13
100
AcDbText
 10
71.370514
 20
-52.597129
 30
0.0
 40
0.050625
  1
2 00
 41
0.9
  7
Style-Arial
100
AcDbText
  0
TEXT
  5
32C
330
3C9
100
AcDbEntity
  8
_0
  6
Continuous
 62
     7
370
    13
100
AcDbText
 10
71.369989
 20
-52.484119
 30
0.0
 40
0.050625
  1
1 96
 41
0.9
  7
Style-Arial
100
AcDbText
  0
TEXT
  5
32D
330
3C9
100
AcDbEntity
  8
_0
  6
Continuous
 62
     7
370
    13
100
AcDbText
 10
71.370166
 20
-52.371108
 30
0.0
 40
0.050625
  1
1 70
 41
0.9
  7
Style-Arial
100
AcDbText
  0
TEXT
  5
32E
330
3C9
100
AcDbEntity
  8
_0
  6
Continuous
 62
     7
370
    13
100
AcDbText
 10
71.370166
 20
-52.258098
 30
0.0
 40
0.050625
  1
1 00
 41
0.9
  7
Style-Arial
100
AcDbText
  0
TEXT
  5
32F
330
3C9
100
AcDbEntity
  8
_0
  6
Continuous
 62
     7
370
    13
100
AcDbText
 10
71.370514
 20
-52.145088
 30
0.0
 40
0.050625
  1
0 30
 41
0.9
  7
Style-Arial
100
AcDbText
  0
TEXT
  5
330
330
3C9
100
AcDbEntity
  8
_0
  6
Continuous
 62
     7
370
    13
100
AcDbText
 10
71.370514
 20
-52.032088
 30
0.0
 40
0.050625
  1
0 04
 41
0.9
  7
Style-Arial
100
AcDbText
  0
TEXT
  5
331
330
3C9
100
AcDbEntity
  8
_0
  6
Continuous
 62
     7
370
    13
100
AcDbText
 10
71.960535
 20
-52.71014
 30
0.0
 40
0.050625
  1
2 98
 41
0.9
  7
Style-Arial
100
AcDbText
  0
TEXT
  5
332
330
3C9
100
AcDbEntity
  8
_0
  6
Continuous
 62
     7
370
    13
100
AcDbText
 10
71.960363
 20
-52.597129
 30
0.0
 40
0.050625
  1
2 81
 41
0.9
  7
Style-Arial
100
AcDbText
  0
TEXT
  5
333
330
3C9
100
AcDbEntity
  8
_0
  6
Continuous
 62
     7
370
    13
100
AcDbText
 10
71.960535
 20
-52.484119
 30
0.0
 40
0.050625
  1
2 37
 41
0.9
  7
Style-Arial
100
AcDbText
  0
TEXT
  5
334
330
3C9
100
AcDbEntity
  8
_0
  6
Continuous
 62
     7
370
    13
100
AcDbText
 10
71.960187
 20
-52.371108
 30
0.0
 40
0.050625
  1
1 50
 41
0.9
  7
Style-Arial
100
AcDbText
  0
TEXT
  5
335
330
3C9
100
AcDbEntity
  8
_0
  6
Continuous
 62
     7
370
    13
100
AcDbText
 10
71.960359
 20
-52.258098
 30
0.0
 40
0.050625
  1
0 63
 41
0.9
  7
Style-Arial
100
AcDbText
  0
TEXT
  5
336
330
3C9
100
AcDbEntity
  8
_0
  6
Continuous
 62
     7
370
    13
100
AcDbText
 10
71.960366
 20
-52.145088
 30
0.0
 40
0.050625
  1
0 19
 41
0.9
  7
Style-Arial
100
AcDbText
  0
TEXT
  5
337
330
3C9
100
AcDbEntity
  8
_0
  6
Continuous
 62
     7
370
    13
100
AcDbText
 10
71.960535
 20
-52.032088
 30
0.0
 40
0.050625
  1
0 02
 41
0.9
  7
Style-Arial
100
AcDbText
  0
TEXT
  5
338
330
3C9
100
AcDbEntity
  8
_0
  6
Continuous
 62
     7
370
    13
100
AcDbText
 10
71.960534
 20
-52.82314
 30
0.0
 40
0.050625
  1
3 00
 41
0.9
  7
Style-Arial
100
AcDbText
  0
TEXT
  5
339
330
3C9
100
AcDbEntity
  8
_0
  6
Continuous
 62
     7
370
    13
100
AcDbText
 10
72.543441
 20
-52.82314
 30
0.0
 40
0.050625
  1
2 00
 41
0.9
  7
Style-Arial
100
AcDbText
  0
TEXT
  5
33A
330
3C9
100
AcDbEntity
  8
_0
  6
Continuous
 62
     7
370
    13
100
AcDbText
 10
72.543082
 20
-52.71014
 30
0.0
 40
0.050625
  1
1 34
 41
0.9
  7
Style-Arial
100
AcDbText
  0
TEXT
  5
33B
330
3C9
100
AcDbEntity
  8
_0
  6
Continuous
 62
     7
370
    13
100
AcDbText
 10
72.543441
 20
-52.597129
 30
0.0
 40
0.050625
  1
0 84
 41
0.9
  7
Style-Arial
100
AcDbText
  0
TEXT
  5
33C
330
3C9
100
AcDbEntity
  8
_0
  6
Continuous
 62
     7
370
    13
100
AcDbText
 10
72.543441
 20
-52.484119
 30
0.0
 40
0.050625
  1
0 49
 41
0.9
  7
Style-Arial
100
AcDbText
  0
TEXT
  5
33D
330
3C9
100
AcDbEntity
  8
_0
  6
Continuous
 62
     7
370
    13
100
AcDbText
 10
72.54309
 20
-52.258098
 30
0.0
 40
0.050625
  1
0 11
 41
0.9
  7
Style-Arial
100
AcDbText
  0
TEXT
  5
33E
330
3C9
100
AcDbEntity
  8
_0
  6
Continuous
 62
     7
370
    13
100
AcDbText
 10
72.543441
 20
-52.145088
 30
0.0
 40
0.050625
  1
0 03
 41
0.9
  7
Style-Arial
100
AcDbText
  0
TEXT
  5
33F
330
3C9
100
AcDbEntity
  8
_0
  6
Continuous
 62
     7
370
    13
100
AcDbText
 10
72.543441
 20
-52.032088
 30
0.0
 40
0.050625
  1
0 00
 41
0.9
  7
Style-Arial
100
AcDbText
  0
TEXT
  5
340
330
3C9
100
AcDbEntity
  8
_0
  6
Continuous
 62
     7
370
    13
100
AcDbText
 10
72.543441
 20
-53.614213
 30
0.0
 40
0.050625
  1
4 00
 41
0.9
  7
Style-Arial
100
AcDbText
  0
TEXT
  5
341
330
3C9
100
AcDbEntity
  8
_0
  6
Continuous
 62
     7
370
    13
100
AcDbText
 10
72.543441
 20
-53.501202
 30
0.0
 40
0.050625
  1
3 97
 41
0.9
  7
Style-Arial
100
AcDbText
  0
TEXT
  5
342
330
3C9
100
AcDbEntity
  8
_0
  6
Continuous
 62
     7
370
    13
100
AcDbText
 10
72.543441
 20
-53.388192
 30
0.0
 40
0.050625
  1
3 89
 41
0.9
  7
Style-Arial
100
AcDbText
  0
TEXT
  5
343
330
3C9
100
AcDbEntity
  8
_0
  6
Continuous
 62
     7
370
    13
100
AcDbText
 10
72.543441
 20
-53.275181
 30
0.0
 40
0.050625
  1
3 75
 41
0.9
  7
Style-Arial
100
AcDbText
  0
TEXT
  5
344
330
3C9
100
AcDbEntity
  8
_0
  6
Continuous
 62
     7
370
    13
100
AcDbText
 10
72.543258
 20
-53.162171
 30
0.0
 40
0.050625
  1
3 51
 41
0.9
  7
Style-Arial
100
AcDbText
  0
TEXT
  5
345
330
3C9
100
AcDbEntity
  8
_0
  6
Continuous
 62
     7
370
    13
100
AcDbText
 10
72.543084
 20
-53.04916
 30
0.0
 40
0.050625
  1
3 16
 41
0.9
  7
Style-Arial
100
AcDbText
  0
TEXT
  5
346
330
3C9
100
AcDbEntity
  8
_0
  6
Continuous
 62
     7
370
    13
100
AcDbText
 10
72.543088
 20
-52.93615
 30
0.0
 40
0.050625
  1
2 66
 41
0.9
  7
Style-Arial
100
AcDbText
  0
TEXT
  5
347
330
3C9
100
AcDbEntity
  8
_0
  6
Continuous
 62
     7
370
    13
100
AcDbText
 10
72.543441
 20
-52.370525
 30
0.0
 40
0.050625
  1
0 25
 41
0.9
  7
Style-Arial
100
AcDbText
  0
TEXT
  5
348
330
3C9
100
AcDbEntity
  8
_0
  6
Continuous
 62
     7
370
    13
100
AcDbText
 10
72.54217
 20
-53.72839
 30
0.0
 40
0.050625
  1
4 00
 41
0.9
  7
Style-Arial
100
AcDbText
  0
TEXT
  5
349
330
3C9
100
AcDbEntity
  8
_0
  6
Continuous
 62
     7
370
    13
100
AcDbText
 10
76.951146
 20
-55.53539
 30
0.0
 40
0.050625
  1
12 00
 41
0.9
  7
Style-Arial
100
AcDbText
  0
TEXT
  5
34A
330
3C9
100
AcDbEntity
  8
_0
  6
Continuous
 62
     7
370
    13
100
AcDbText
 10
76.363256
 20
-55.53539
 30
0.0
 40
0.050625
  1
11 00
 41
0.9
  7
Style-Arial
100
AcDbText
  0
TEXT
  5
34B
330
3C9
100
AcDbEntity
  8
_0
  6
Continuous
 62
     7
370
    13
100
AcDbText
 10
75.776052
 20
-55.536431
 30
0.0
 40
0.050625
  1
10 00
 41
0.9
  7
Style-Arial
100
AcDbText
  0
TEXT
  5
34C
330
3C9
100
AcDbEntity
  8
_0
  6
Continuous
 62
     7
370
    13
100
AcDbText
 10
75.188514
 20
-55.536431
 30
0.0
 40
0.050625
  1
9 00
 41
0.9
  7
Style-Arial
100
AcDbText
  0
TEXT
  5
34D
330
3C9
100
AcDbEntity
  8
_0
  6
Continuous
 62
     7
370
    13
100
AcDbText
 10
74.600962
 20
-55.536431
 30
0.0
 40
0.050625
  1
8 00
 41
0.9
  7
Style-Arial
100
AcDbText
  0
TEXT
  5
34E
330
3C9
100
AcDbEntity
  8
_0
  6
Continuous
 62
     7
370
    13
100
AcDbText
 10
74.01342
 20
-55.08439
 30
0.0
 40
0.050625
  1
7 00
 41
0.9
  7
Style-Arial
100
AcDbText
  0
TEXT
  5
34F
330
3C9
100
AcDbEntity
  8
_0
  6
Continuous
 62
     7
370
    13
100
AcDbText
 10
73.425516
 20
-54.632358
 30
0.0
 40
0.050625
  1
6 00
 41
0.9
  7
Style-Arial
100
AcDbText
  0
TEXT
  5
350
330
3C9
100
AcDbEntity
  8
_0
  6
Continuous
 62
     7
370
    13
100
AcDbText
 10
73.719697
 20
-52.71014
 30
0.0
 40
0.050625
  1
2 01
 41
0.9
  7
Style-Arial
100
AcDbText
  0
TEXT
  5
351
330
3C9
100
AcDbEntity
  8
_0
  6
Continuous
 62
     7
370
    13
100
AcDbText
 10
73.71952
 20
-52.597129
 30
0.0
 40
0.050625
  1
1 27
 41
0.9
  7
Style-Arial
100
AcDbText
  0
TEXT
  5
352
330
3C9
100
AcDbEntity
  8
_0
  6
Continuous
 62
     7
370
    13
100
AcDbText
 10
73.719868
 20
-52.484119
 30
0.0
 40
0.050625
  1
0 73
 41
0.9
  7
Style-Arial
100
AcDbText
  0
TEXT
  5
353
330
3C9
100
AcDbEntity
  8
_0
  6
Continuous
 62
     7
370
    13
100
AcDbText
 10
73.719868
 20
-52.371108
 30
0.0
 40
0.050625
  1
0 38
 41
0.9
  7
Style-Arial
100
AcDbText
  0
TEXT
  5
354
330
3C9
100
AcDbEntity
  8
_0
  6
Continuous
 62
     7
370
    13
100
AcDbText
 10
73.719522
 20
-52.258098
 30
0.0
 40
0.050625
  1
0 16
 41
0.9
  7
Style-Arial
100
AcDbText
  0
TEXT
  5
355
330
3C9
100
AcDbEntity
  8
_0
  6
Continuous
 62
     7
370
    13
100
AcDbText
 10
73.719868
 20
-52.145088
 30
0.0
 40
0.050625
  1
0 05
 41
0.9
  7
Style-Arial
100
AcDbText
  0
TEXT
  5
356
330
3C9
100
AcDbEntity
  8
_0
  6
Continuous
 62
     7
370
    13
100
AcDbText
 10
73.719697
 20
-52.032088
 30
0.0
 40
0.050625
  1
0 01
 41
0.9
  7
Style-Arial
100
AcDbText
  0
TEXT
  5
357
330
3C9
100
AcDbEntity
  8
_0
  6
Continuous
 62
     7
370
    13
100
AcDbText
 10
73.719516
 20
-53.727223
 30
0.0
 40
0.050625
  1
6 00
 41
0.9
  7
Style-Arial
100
AcDbText
  0
TEXT
  5
358
330
3C9
100
AcDbEntity
  8
_0
  6
Continuous
 62
     7
370
    13
100
AcDbText
 10
73.719868
 20
-53.614213
 30
0.0
 40
0.050625
  1
5 99
 41
0.9
  7
Style-Arial
100
AcDbText
  0
TEXT
  5
359
330
3C9
100
AcDbEntity
  8
_0
  6
Continuous
 62
     7
370
    13
100
AcDbText
 10
73.719868
 20
-53.501202
 30
0.0
 40
0.050625
  1
5 95
 41
0.9
  7
Style-Arial
100
AcDbText
  0
TEXT
  5
35A
330
3C9
100
AcDbEntity
  8
_0
  6
Continuous
 62
     7
370
    13
100
AcDbText
 10
73.719868
 20
-53.388192
 30
0.0
 40
0.050625
  1
5 84
 41
0.9
  7
Style-Arial
100
AcDbText
  0
TEXT
  5
35B
330
3C9
100
AcDbEntity
  8
_0
  6
Continuous
 62
     7
370
    13
100
AcDbText
 10
73.719703
 20
-53.275181
 30
0.0
 40
0.050625
  1
5 63
 41
0.9
  7
Style-Arial
100
AcDbText
  0
TEXT
  5
35C
330
3C9
100
AcDbEntity
  8
_0
  6
Continuous
 62
     7
370
    13
100
AcDbText
 10
73.719868
 20
-53.162171
 30
0.0
 40
0.050625
  1
5 27
 41
0.9
  7
Style-Arial
100
AcDbText
  0
TEXT
  5
35D
330
3C9
100
AcDbEntity
  8
_0
  6
Continuous
 62
     7
370
    13
100
AcDbText
 10
73.719868
 20
-53.04916
 30
0.0
 40
0.050625
  1
4 73
 41
0.9
  7
Style-Arial
100
AcDbText
  0
TEXT
  5
35E
330
3C9
100
AcDbEntity
  8
_0
  6
Continuous
 62
     7
370
    13
100
AcDbText
 10
73.719878
 20
-52.93615
 30
0.0
 40
0.050625
  1
3 99
 41
0.9
  7
Style-Arial
100
AcDbText
  0
TEXT
  5
35F
330
3C9
100
AcDbEntity
  8
_0
  6
Continuous
 62
     7
370
    13
100
AcDbText
 10
73.719878
 20
-52.82314
 30
0.0
 40
0.050625
  1
3 00
 41
0.9
  7
Style-Arial
100
AcDbText
  0
TEXT
  5
360
330
3C9
100
AcDbEntity
  8
_0
  6
Continuous
 62
     7
370
    13
100
AcDbText
 10
70.167032
 20
-52.732914
 30
0.0
 40
0.050625
  1
50 00'
 41
0.9
  7
Style-Arial
100
AcDbText
  0
TEXT
  5
361
330
3C9
100
AcDbEntity
  8
HATCH
  6
Continuous
 62
     7
370
    13
100
AcDbText
 10
70.226469
 20
-56.97375
 30
0.0
 40
0.050625
  1
REFERENCE:  FOR MORE INFORMATION ON GUARD RAILS
 41
0.9
  7
Style-Arial
100
AcDbText
  0
TEXT
  5
CD
330
3C9
100
AcDbEntity
  8
_0
  6
Continuous
 62
     7
370
    13
100
AcDbText
 10
70.629384
 20
-51.463312
 30
0.0
 40
0.10125
  1
OFFSETS (Y) FOR CONTINUOUS RUN-ON GUARD RAIL TRANSITIONS AND ALL RUN-OFF TRANSITIONS
 41
0.9
  7
Style-Arial
100
AcDbText
  0
TEXT
  5
CE
330
3C9
100
AcDbEntity
  8
_0
  6
Continuous
 62
     7
370
    13
100
AcDbText
 10
73.636698
 20
-51.313562
 30
0.0
 40
0.10125
  1
TABLE IV
 41
0.9
  7
Style-Arial
100
AcDbText
  0
TEXT
  5
264
330
3C9
100
AcDbEntity
  8
TITLE
  6
Continuous
 62
     7
370
    13
100
AcDbText
 10
71.729412
 20
-57.895788
 30
0.0
 40
0.10125
  1
TYPICAL W BEAM GUARD RAIL INSTALLATION CRITERIA
 41
0.9
  7
Style-Arial
100
AcDbText
  0
TEXT
  5
262
330
3C9
100
AcDbEntity
  8
2-30K
  6
Continuous
 62
     7
370
    13
100
AcDbText
 10
77.169077
 20
-57.821067
 30
0.0
 40
0.075937
  1
DATE
 41
0.9
  7
Style-Arial
100
AcDbText
  0
TEXT
  5
261
330
3C9
100
AcDbEntity
  8
2-30K
  6
Continuous
 62
     7
370
    13
100
AcDbText
 10
78.257103
 20
-57.80096
 30
0.0
 40
0.075937
  1
FIGURE
 41
0.9
  7
Style-Arial
100
AcDbText
  0
TEXT
  5
263
330
3C9
100
AcDbEntity
  8
2-30K
  6
Continuous
 62
     7
370
    13
100
AcDbText
 10
78.313895
 20
-57.923548
 30
0.0
 40
0.075937
  1
2-30q
 41
0.9
  7
Style-Arial
100
AcDbText
  0
ENDSEC
  0
SECTION
  2
OBJECTS
  0
DICTIONARY
  5
3BD
330
0
100
AcDbDictionary
281
     1
  3
ACAD_COLOR
350
3DC
  3
ACAD_GROUP
350
3D9
  3
ACAD_LAYOUT
350
3CD
  3
ACAD_MATERIAL
350
3DB
  3
ACAD_MLINESTYLE
350
3C7
  3
ACAD_PLOTSETTINGS
350
3DA
  3
ACAD_PLOTSTYLENAME
350
3BC
  3
ACAD_TABLESTYLE
350
3F0
  3
AcadDim
350
3E9
  3
MicroStation
350
3E1
  0
DICTIONARY
  5
3B9
330
3B8
100
AcDbDictionary
280
     1
281
     1
  3
ACAD_LAYERFILTERS
360
3E0
  3
ACAD_LAYERSTATES
360
3BA
  0
DICTIONARY
  5
3EC
330
3C9
100
AcDbDictionary
280
     1
281
     1
  3
ACAD_SORTENTS
360
3ED
  0
DICTIONARY
  5
3DC
102
{ACAD_REACTORS
330
3BD
102
}
330
3BD
100
AcDbDictionary
281
     1
  0
DICTIONARY
  5
3D9
102
{ACAD_REACTORS
330
3BD
102
}
330
3BD
100
AcDbDictionary
281
     1
  0
DICTIONARY
  5
3CD
102
{ACAD_REACTORS
330
3BD
102
}
330
3BD
100
AcDbDictionary
281
     1
  3
Layout1
350
3D1
  3
Model
350
3CC
  0
DICTIONARY
  5
3DB
102
{ACAD_REACTORS
330
3BD
102
}
330
3BD
100
AcDbDictionary
281
     1
  0
DICTIONARY
  5
3C7
102
{ACAD_REACTORS
330
3BD
102
}
330
3BD
100
AcDbDictionary
281
     1
  3
Standard
350
3C6
  0
DICTIONARY
  5
3DA
102
{ACAD_REACTORS
330
3BD
102
}
330
3BD
100
AcDbDictionary
281
     1
  0
ACDBDICTIONARYWDFLT
  5
3BC
102
{ACAD_REACTORS
330
3BD
102
}
330
3BD
100
AcDbDictionary
281
     1
  3
Normal
350
3BB
100
AcDbDictionaryWithDefault
340
3BB
  0
DICTIONARY
  5
3F0
102
{ACAD_REACTORS
330
3BD
102
}
330
3BD
100
AcDbDictionary
281
     1
  0
XRECORD
  5
3E9
102
{ACAD_REACTORS
330
3BD
102
}
330
3BD
100
AcDbXrecord
280
     1
 90
   990106
  3
 
 60
     0
 61
     0
 62
     1
 63
     1
 64
     0
 65
     0
 66
     0
 67
     3
 68
     1
 69
     1
 70
     0
 71
     0
 72
     0
 40
0.0
170
     0
  0
DICTIONARY
  5
3E1
102
{ACAD_REACTORS
330
3BD
102
}
330
3BD
100
AcDbDictionary
281
     1
  3
ApplicationElement 940
350
3AC
  3
ApplicationElement 945
350
3B1
  3
ApplicationElement 948
350
3B4
  3
ApplicationElement 949
350
3B5
  3
ModelApplicationElement 0 939
350
3AB
  0
DICTIONARY
  5
3E0
102
{ACAD_REACTORS
330
3B9
102
}
330
3B9
100
AcDbDictionary
281
     1
  0
DICTIONARY
  5
3BA
102
{ACAD_REACTORS
330
3B9
102
}
330
3B9
100
AcDbDictionary
281
     1
  0
SORTENTSTABLE
  5
3ED
102
{ACAD_REACTORS
330
3EC
102
}
330
3EC
100
AcDbSortentsTable
330
3C9
331
6A
  5
103
331
6B
  5
104
331
6C
  5
105
331
6D
  5
106
331
6E
  5
6A
331
6F
  5
6B
331
70
  5
6C
331
71
  5
6D
331
72
  5
6E
331
73
  5
6F
331
74
  5
70
331
75
  5
71
331
76
  5
72
331
77
  5
73
331
78
  5
74
331
79
  5
75
331
7A
  5
76
331
7B
  5
107
331
7C
  5
108
331
7D
  5
77
331
7E
  5
109
331
7F
  5
10A
331
80
  5
10B
331
81
  5
10C
331
82
  5
10D
331
83
  5
10E
331
84
  5
10F
331
85
  5
110
331
86
  5
111
331
87
  5
112
331
88
  5
113
331
89
  5
78
331
8A
  5
79
331
8B
  5
7A
331
8C
  5
7B
331
8D
  5
7C
331
8E
  5
7D
331
8F
  5
7E
331
90
  5
7F
331
91
  5
80
331
92
  5
81
331
93
  5
82
331
94
  5
83
331
95
  5
84
331
98
  5
85
331
99
  5
114
331
9A
  5
115
331
9B
  5
116
331
9C
  5
117
331
9D
  5
118
331
9E
  5
86
331
9F
  5
87
331
A0
  5
88
331
A1
  5
89
331
A2
  5
8A
331
A3
  5
119
331
A4
  5
8B
331
A5
  5
8C
331
A6
  5
8D
331
A7
  5
11A
331
A8
  5
8E
331
A9
  5
8F
331
AA
  5
90
331
AB
  5
91
331
AC
  5
11B
331
AD
  5
92
331
AE
  5
93
331
AF
  5
94
331
B0
  5
95
331
B1
  5
98
331
B2
  5
11C
331
B3
  5
99
331
B4
  5
9A
331
B5
  5
9B
331
B6
  5
9C
331
B7
  5
11D
331
B8
  5
9D
331
B9
  5
9E
331
BA
  5
9F
331
BB
  5
A0
331
BC
  5
11E
331
BD
  5
A1
331
BE
  5
A2
331
BF
  5
A3
331
C0
  5
A4
331
C1
  5
11F
331
C2
  5
A5
331
C3
  5
A6
331
C4
  5
A7
331
C5
  5
A8
331
C6
  5
A9
331
C7
  5
AA
331
C8
  5
AB
331
C9
  5
AC
331
CA
  5
120
331
CB
  5
121
331
CC
  5
122
331
CD
  5
35C
331
CE
  5
35D
331
CF
  5
123
331
D0
  5
124
331
D1
  5
125
331
D2
  5
126
331
D3
  5
127
331
D4
  5
128
331
D5
  5
129
331
D6
  5
12A
331
D7
  5
12B
331
D8
  5
12C
331
D9
  5
12D
331
DA
  5
12E
331
DB
  5
12F
331
DC
  5
130
331
DD
  5
131
331
DE
  5
132
331
DF
  5
133
331
E0
  5
134
331
E1
  5
135
331
E2
  5
136
331
E3
  5
137
331
E4
  5
138
331
E5
  5
139
331
E6
  5
13A
331
E7
  5
13B
331
E8
  5
13C
331
E9
  5
13D
331
EA
  5
13E
331
EB
  5
13F
331
EC
  5
140
331
ED
  5
141
331
EE
  5
142
331
EF
  5
143
331
F0
  5
144
331
F1
  5
145
331
F2
  5
146
331
F3
  5
147
331
F4
  5
148
331
F5
  5
149
331
F6
  5
14A
331
F7
  5
14B
331
F8
  5
14C
331
F9
  5
14D
331
FA
  5
14E
331
FB
  5
14F
331
FC
  5
150
331
FD
  5
151
331
FE
  5
152
331
FF
  5
153
331
100
  5
154
331
101
  5
155
331
102
  5
156
331
103
  5
157
331
104
  5
158
331
105
  5
159
331
106
  5
15A
331
107
  5
15B
331
108
  5
15C
331
109
  5
15D
331
10A
  5
15E
331
10B
  5
15F
331
10C
  5
160
331
10D
  5
161
331
10E
  5
162
331
10F
  5
163
331
110
  5
164
331
111
  5
165
331
112
  5
166
331
113
  5
167
331
114
  5
168
331
115
  5
169
331
116
  5
16A
331
117
  5
16B
331
118
  5
16C
331
119
  5
16D
331
11A
  5
16E
331
11B
  5
16F
331
11C
  5
170
331
11D
  5
171
331
11E
  5
172
331
11F
  5
173
331
120
  5
174
331
121
  5
175
331
122
  5
176
331
123
  5
177
331
124
  5
178
331
125
  5
179
331
126
  5
17A
331
127
  5
17B
331
128
  5
17C
331
129
  5
17D
331
12A
  5
17E
331
12B
  5
17F
331
12C
  5
180
331
12D
  5
181
331
12E
  5
182
331
12F
  5
183
331
130
  5
184
331
131
  5
185
331
132
  5
186
331
133
  5
187
331
134
  5
188
331
135
  5
189
331
136
  5
18A
331
137
  5
18B
331
138
  5
18C
331
139
  5
18D
331
13A
  5
18E
331
13B
  5
18F
331
13C
  5
190
331
13D
  5
191
331
13E
  5
192
331
13F
  5
193
331
140
  5
194
331
141
  5
195
331
142
  5
196
331
143
  5
197
331
144
  5
198
331
145
  5
199
331
146
  5
19A
331
147
  5
19B
331
148
  5
19C
331
149
  5
19D
331
14A
  5
19E
331
14B
  5
19F
331
14C
  5
1A0
331
14D
  5
1A1
331
14E
  5
1A2
331
14F
  5
1A3
331
150
  5
1A4
331
151
  5
1A5
331
152
  5
1A6
331
153
  5
1A7
331
154
  5
1A8
331
155
  5
1A9
331
156
  5
1AA
331
157
  5
1AB
331
158
  5
1AC
331
159
  5
1AD
331
15A
  5
1AE
331
15B
  5
1AF
331
15C
  5
1B0
331
15D
  5
1B1
331
15E
  5
1B2
331
15F
  5
1B3
331
160
  5
1B4
331
161
  5
1B5
331
162
  5
1B6
331
163
  5
1B7
331
164
  5
1B8
331
165
  5
1B9
331
166
  5
1BA
331
167
  5
1BB
331
168
  5
1BC
331
169
  5
1BD
331
16A
  5
1BE
331
16B
  5
1BF
331
16C
  5
1C0
331
16D
  5
1C1
331
16E
  5
1C2
331
16F
  5
1C3
331
170
  5
1C4
331
171
  5
1C5
331
172
  5
1C6
331
173
  5
1C7
331
174
  5
1C8
331
175
  5
1C9
331
176
  5
1CA
331
177
  5
1CB
331
178
  5
1CC
331
179
  5
1CD
331
17A
  5
1CE
331
17B
  5
1CF
331
17C
  5
1D0
331
17D
  5
1D1
331
17E
  5
1D2
331
17F
  5
1D3
331
180
  5
1D4
331
181
  5
1D5
331
182
  5
1D6
331
183
  5
1D7
331
184
  5
1D8
331
185
  5
1D9
331
186
  5
1DA
331
187
  5
1DB
331
188
  5
1DC
331
189
  5
1DD
331
18A
  5
1DE
331
18B
  5
1DF
331
18C
  5
1E0
331
18D
  5
1E1
331
18E
  5
1E2
331
18F
  5
1E3
331
190
  5
1E4
331
191
  5
1E5
331
192
  5
1E6
331
193
  5
1E7
331
194
  5
1E8
331
195
  5
1E9
331
196
  5
1EA
331
197
  5
1EB
331
198
  5
1EC
331
199
  5
1ED
331
19A
  5
1EE
331
19B
  5
1EF
331
19C
  5
1F0
331
19D
  5
1F1
331
19E
  5
1F2
331
19F
  5
1F3
331
1A0
  5
1F4
331
1A1
  5
1F5
331
1A2
  5
1F6
331
1A3
  5
1F7
331
1A4
  5
1F8
331
1A5
  5
1F9
331
1A6
  5
1FA
331
1A7
  5
1FB
331
1A8
  5
1FC
331
1A9
  5
1FD
331
1AA
  5
1FE
331
1AB
  5
1FF
331
1AC
  5
200
331
1AD
  5
201
331
1AE
  5
202
331
1AF
  5
203
331
1B0
  5
204
331
1B1
  5
205
331
1B2
  5
206
331
1B3
  5
207
331
1B4
  5
208
331
1B5
  5
209
331
1B6
  5
20A
331
1B7
  5
20B
331
1B8
  5
20C
331
1B9
  5
20D
331
1BA
  5
20E
331
1BB
  5
20F
331
1BC
  5
210
331
1BD
  5
211
331
1BE
  5
212
331
1BF
  5
213
331
1C0
  5
214
331
1C1
  5
215
331
1C2
  5
216
331
1C3
  5
217
331
1C4
  5
218
331
1C5
  5
219
331
1C6
  5
21A
331
1C7
  5
21B
331
1C8
  5
21C
331
1C9
  5
21D
331
1CA
  5
21E
331
1CB
  5
21F
331
1CC
  5
220
331
1CD
  5
221
331
1CE
  5
222
331
1CF
  5
223
331
1D0
  5
224
331
1D1
  5
225
331
1D2
  5
226
331
1D3
  5
227
331
1D4
  5
228
331
1D5
  5
229
331
1D6
  5
22A
331
1D7
  5
22B
331
1D8
  5
22C
331
1D9
  5
22D
331
1DA
  5
22E
331
1DB
  5
22F
331
1DC
  5
230
331
1DD
  5
231
331
1DE
  5
232
331
1DF
  5
233
331
1E0
  5
234
331
1E1
  5
235
331
1E2
  5
236
331
1E3
  5
237
331
1E4
  5
238
331
1E5
  5
239
331
1E6
  5
23A
331
1E7
  5
23B
331
1E8
  5
23C
331
1E9
  5
23D
331
1EA
  5
23E
331
1EB
  5
23F
331
1EC
  5
240
331
1ED
  5
241
331
1EE
  5
242
331
1EF
  5
243
331
1F0
  5
244
331
1F1
  5
245
331
1F2
  5
246
331
1F3
  5
247
331
1F4
  5
248
331
1F5
  5
249
331
1F6
  5
24A
331
1F7
  5
24B
331
1F8
  5
24C
331
1F9
  5
24D
331
1FA
  5
24E
331
1FB
  5
24F
331
1FC
  5
250
331
1FD
  5
251
331
1FE
  5
252
331
1FF
  5
253
331
200
  5
254
331
201
  5
255
331
202
  5
256
331
203
  5
257
331
204
  5
258
331
205
  5
259
331
206
  5
25A
331
207
  5
25B
331
208
  5
25C
331
209
  5
25D
331
20A
  5
25E
331
20B
  5
25F
331
20C
  5
260
331
20D
  5
261
331
20E
  5
262
331
20F
  5
263
331
210
  5
264
331
211
  5
265
331
212
  5
266
331
213
  5
267
331
214
  5
268
331
215
  5
269
331
216
  5
26A
331
217
  5
26B
331
218
  5
26C
331
219
  5
26D
331
21A
  5
26E
331
21B
  5
26F
331
21C
  5
270
331
21D
  5
271
331
21E
  5
272
331
21F
  5
273
331
220
  5
274
331
221
  5
275
331
222
  5
276
331
223
  5
277
331
224
  5
278
331
225
  5
279
331
226
  5
27A
331
227
  5
AD
331
228
  5
AE
331
229
  5
AF
331
22A
  5
B0
331
22B
  5
B1
331
22C
  5
B2
331
22D
  5
B3
331
22E
  5
B4
331
22F
  5
B5
331
230
  5
B6
331
231
  5
B7
331
232
  5
B8
331
233
  5
B9
331
234
  5
BA
331
235
  5
BB
331
236
  5
BC
331
237
  5
BD
331
238
  5
BE
331
239
  5
BF
331
23A
  5
C0
331
23B
  5
C1
331
23C
  5
C2
331
23D
  5
C3
331
23E
  5
C4
331
23F
  5
C5
331
240
  5
C6
331
241
  5
C7
331
242
  5
C8
331
243
  5
C9
331
244
  5
CA
331
245
  5
CB
331
246
  5
CC
331
247
  5
CD
331
248
  5
CE
331
249
  5
CF
331
24A
  5
D0
331
24B
  5
D1
331
24C
  5
D2
331
24D
  5
D3
331
24E
  5
D4
331
24F
  5
D5
331
250
  5
D6
331
251
  5
D7
331
252
  5
D8
331
253
  5
D9
331
254
  5
DA
331
255
  5
DB
331
256
  5
DC
331
257
  5
DD
331
258
  5
DE
331
259
  5
DF
331
25A
  5
E0
331
25B
  5
E1
331
25C
  5
E2
331
25D
  5
E3
331
25E
  5
E4
331
25F
  5
E5
331
260
  5
E6
331
261
  5
360
331
262
  5
35F
331
263
  5
361
331
264
  5
35E
331
265
  5
27B
331
266
  5
27C
331
267
  5
E7
331
268
  5
E8
331
269
  5
E9
331
26A
  5
EA
331
26B
  5
EB
331
26C
  5
EC
331
26D
  5
ED
331
26E
  5
EE
331
26F
  5
27D
331
270
  5
27E
331
271
  5
27F
331
272
  5
280
331
273
  5
281
331
274
  5
282
331
275
  5
283
331
276
  5
284
331
277
  5
285
331
278
  5
286
331
279
  5
287
331
27A
  5
288
331
27B
  5
289
331
27C
  5
28A
331
27D
  5
28B
331
27E
  5
28C
331
27F
  5
28D
331
280
  5
28E
331
281
  5
28F
331
282
  5
290
331
283
  5
291
331
284
  5
292
331
285
  5
293
331
286
  5
294
331
287
  5
295
331
288
  5
296
331
289
  5
297
331
28A
  5
298
331
28B
  5
299
331
28C
  5
29A
331
28D
  5
29B
331
28E
  5
29C
331
28F
  5
29D
331
290
  5
29E
331
291
  5
29F
331
292
  5
2A0
331
293
  5
2A1
331
294
  5
2A2
331
295
  5
2A3
331
296
  5
2A4
331
297
  5
2A5
331
298
  5
2A6
331
299
  5
2A7
331
29A
  5
2A8
331
29B
  5
2A9
331
29C
  5
2AA
331
29D
  5
2AB
331
29E
  5
2AC
331
29F
  5
EF
331
2A0
  5
F0
331
2A1
  5
2AD
331
2A2
  5
2AE
331
2A3
  5
2AF
331
2A4
  5
2B0
331
2A5
  5
2B1
331
2A6
  5
2B2
331
2A7
  5
2B3
331
2A8
  5
2B4
331
2A9
  5
2B5
331
2AA
  5
2B6
331
2AB
  5
2B7
331
2AC
  5
2B8
331
2AD
  5
2B9
331
2AE
  5
2BA
331
2AF
  5
2BB
331
2B0
  5
2BC
331
2B1
  5
2BD
331
2B2
  5
2BE
331
2B3
  5
2BF
331
2B4
  5
2C0
331
2B5
  5
2C1
331
2B6
  5
2C2
331
2B7
  5
2C3
331
2B8
  5
2C4
331
2B9
  5
2C5
331
2BA
  5
2C6
331
2BB
  5
2C7
331
2BC
  5
2C8
331
2BD
  5
2C9
331
2BE
  5
2CA
331
2BF
  5
2CB
331
2C0
  5
2CC
331
2C1
  5
2CD
331
2C2
  5
2CE
331
2C3
  5
2CF
331
2C4
  5
2D0
331
2C5
  5
2D1
331
2C6
  5
2D2
331
2C7
  5
2D3
331
2C8
  5
2D4
331
2C9
  5
2D5
331
2CA
  5
2D6
331
2CB
  5
2D7
331
2CC
  5
2D8
331
2CD
  5
2D9
331
2CE
  5
2DA
331
2CF
  5
2DB
331
2D0
  5
2DC
331
2D1
  5
2DD
331
2D2
  5
2DE
331
2D3
  5
2DF
331
2D4
  5
2E0
331
2D5
  5
2E1
331
2D6
  5
2E2
331
2D7
  5
2E3
331
2D8
  5
2E4
331
2D9
  5
2E5
331
2DA
  5
2E6
331
2DB
  5
2E7
331
2DC
  5
2E8
331
2DD
  5
2E9
331
2DE
  5
F1
331
2DF
  5
F2
331
2E0
  5
2EA
331
2E1
  5
2EB
331
2E2
  5
2EC
331
2E3
  5
2ED
331
2E4
  5
2EE
331
2E5
  5
2EF
331
2E6
  5
2F0
331
2E7
  5
2F1
331
2E8
  5
2F2
331
2E9
  5
2F3
331
2EA
  5
2F4
331
2EB
  5
2F5
331
2EC
  5
2F6
331
2ED
  5
2F7
331
2EE
  5
2F8
331
2EF
  5
2F9
331
2F0
  5
2FA
331
2F1
  5
2FB
331
2F2
  5
2FC
331
2F3
  5
2FD
331
2F4
  5
2FE
331
2F5
  5
2FF
331
2F6
  5
300
331
2F7
  5
301
331
2F8
  5
302
331
2F9
  5
303
331
2FA
  5
304
331
2FB
  5
305
331
2FC
  5
306
331
2FD
  5
307
331
2FE
  5
308
331
2FF
  5
309
331
300
  5
30A
331
301
  5
30B
331
302
  5
30C
331
303
  5
30D
331
304
  5
30E
331
305
  5
30F
331
306
  5
310
331
307
  5
311
331
308
  5
F3
331
309
  5
F4
331
30A
  5
F5
331
30B
  5
313
331
30C
  5
F6
331
30D
  5
F7
331
30E
  5
F8
331
30F
  5
F9
331
310
  5
314
331
311
  5
FA
331
313
  5
FB
331
314
  5
FC
331
315
  5
FD
331
316
  5
FE
331
317
  5
315
331
318
  5
FF
331
319
  5
100
331
31A
  5
101
331
31B
  5
316
331
31C
  5
102
331
31D
  5
317
331
31E
  5
318
331
31F
  5
319
331
320
  5
31A
331
321
  5
31B
331
322
  5
31C
331
323
  5
31D
331
324
  5
31E
331
325
  5
31F
331
326
  5
320
331
327
  5
321
331
328
  5
322
331
329
  5
323
331
32A
  5
324
331
32B
  5
325
331
32C
  5
326
331
32D
  5
327
331
32E
  5
328
331
32F
  5
329
331
330
  5
32A
331
331
  5
32B
331
332
  5
32C
331
333
  5
32D
331
334
  5
32E
331
335
  5
32F
331
336
  5
330
331
337
  5
331
331
338
  5
332
331
339
  5
333
331
33A
  5
334
331
33B
  5
335
331
33C
  5
336
331
33D
  5
337
331
33E
  5
338
331
33F
  5
339
331
340
  5
33A
331
341
  5
33B
331
342
  5
33C
331
343
  5
33D
331
344
  5
33E
331
345
  5
33F
331
346
  5
340
331
347
  5
341
331
348
  5
342
331
349
  5
343
331
34A
  5
344
331
34B
  5
345
331
34C
  5
346
331
34D
  5
347
331
34E
  5
348
331
34F
  5
349
331
350
  5
34A
331
351
  5
34B
331
352
  5
34C
331
353
  5
34D
331
354
  5
34E
331
355
  5
34F
331
356
  5
350
331
357
  5
351
331
358
  5
352
331
359
  5
353
331
35A
  5
354
331
35B
  5
355
331
35C
  5
356
331
35D
  5
357
331
35E
  5
358
331
35F
  5
359
331
360
  5
35A
331
361
  5
35B
  0
LAYOUT
  5
3D1
102
{ACAD_REACTORS
330
3CD
330
3CD
102
}
102
{ACAD_XDICTIONARY
360
3D2
102
}
330
3CD
100
AcDbPlotSettings
  1

  2
none_device
  4
Letter_(8.50_x_11.00_Inches)
  6

 40
6.35
 41
6.35
 42
6.350006
 43
6.350006
 44
215.899994
 45
279.399994
 46
0.0
 47
0.0
 48
0.0
 49
0.0
140
0.0
141
0.0
142
1.0
143
1.0
 70
   688
 72
     0
 73
     1
 74
     5
  7

 75
    16
 76
     0
 77
     2
 78
   300
147
1.0
148
0.0
149
0.0
100
AcDbLayout
  1
Layout1
 70
     1
 71
     1
 10
-0.25
 20
-0.25
 11
10.75
 21
8.25
 12
0.0
 22
0.0
 32
0.0
 14
1.049744
 24
0.799667
 34
-0.001526
 15
9.450623
 25
7.200577
 35
0.0
146
0.0
 13
0.0
 23
0.0
 33
0.0
 16
1.0
 26
0.0
 36
0.0
 17
0.0
 27
1.0
 37
0.0
 76
     0
330
3CE
1001
ACAD_PSEXT
1000
None
1000
None
1000
Not applicable
1000
The layout will not be plotted unless a new plotter configuration name is selected.
1070
     0
  0
LAYOUT
  5
3CC
102
{ACAD_REACTORS
330
3CD
330
3CD
102
}
330
3CD
100
AcDbPlotSettings
  1

  2
none_device
  4
ANSI_A_(8.50_x_11.00_Inches)
  6

 40
6.35
 41
19.049999
 42
6.350006
 43
19.049988
 44
215.899994
 45
279.399994
 46
0.0
 47
0.0
 48
0.0
 49
0.0
140
0.0
141
0.0
142
1.0
143
2.584895
 70
 11952
 72
     0
 73
     1
 74
     0
  7

 75
     0
 76
     0
 77
     2
 78
   300
147
0.386863
148
0.0
149
0.0
100
AcDbLayout
  1
Model
 70
     1
 71
     0
 10
0.0
 20
0.0
 11
12.0
 21
9.0
 12
0.0
 22
0.0
 32
0.0
 14
0.0
 24
0.0
 34
0.0
 15
0.0
 25
0.0
 35
0.0
146
0.0
 13
0.0
 23
0.0
 33
0.0
 16
1.0
 26
0.0
 36
0.0
 17
0.0
 27
1.0
 37
0.0
 76
     0
330
3C9
331
49
  0
MLINESTYLE
  5
3C6
102
{ACAD_REACTORS
330
3C7
102
}
330
3C7
100
AcDbMlineStyle
  2
STANDARD
 70
     0
  3

 62
   256
 51
90.0
 52
90.0
 71
     2
 49
0.5
 62
   256
  6
BYLAYER
 49
-0.5
 62
   256
  6
BYLAYER
  0
ACDBPLACEHOLDER
  5
3BB
102
{ACAD_REACTORS
330
3BC
102
}
330
3BC
  0
XRECORD
  5
3AC
102
{ACAD_REACTORS
330
3E1
102
}
330
3E1
100
AcDbXrecord
280
     1
310
3E4F020000004D6F64656C6572000000000000000000000000000000000000000000000000000000000000000000000000000000000000000000000000000000000000000000000000000000000000000000000000000000000000000000000000000000000000000000000000000000000000000000000000000000000000
310
00000000000000000000000000000000000000000000000000000000000000000000000000000000000000000000000000000000000000000000000000000000000000000000000000000000000000000000000000000000000000000000000000000000000000000000000000000000000000000000000000000000000000
310
00
310
00000000000000000000000000000000000000000000000000000000000000000000000000000000000000000000000000000000000000000000000000000000000000000000000000000000000000000000000000000000000000000000000000000000000000000000000000000000000000000000000000000000000000
310
00000000000000000000000000000000000000000000000000000000000000000000000000000000000000000000000000000000000000000000000000000000000000000000000000000000000000000000000000000000000000000000000000000000000000000000000000000000000000000000000000000000000000
310
00
310
00000000000000000000000000000000000000000000000000000000000000000000000000000000000000000000000000000000000000000000000000000000000000000000000000000000000000000000000000000000000000000000000000000000000000000000000000000000000000000000000000000000000000
310
00000000000000000000000000000000000000000000000000000000000000000000000000000000000000000000000000000000000000000000000000000000000000000000000000000000000000000000000000000000000000000000000000000000000000000000000000000000000000000000000000000000000000
310
00
310
00000000000000000000000000000000000000000000000000000000000000000000000000000000000000000000000000000000000000000000000000000000000000000000000000000000000000000000000000000000000000000000000000000000000000000000000000000000000000000000000000000000000000
310
00000000000000000000000000000000000000000000000000000000000000000000000000000000000000000000000000000000000000000000000000000000000000000000000000000000000000000000000000000000000000000000000000000000000000000000000000000000000000000000000000000000000000
310
00
310
00000000000000000000000000000000000000000000000000000000000000000000000000000000000000000000000000000000000000000000000000000000000000000000000000000000000000000000000000000000000000000000000000000000000000000000000000000000000000000000000000000000000000
310
00000000000000000000000000000000000000000000000000000000000000000000000000000000000000000000000000000000000000000000000000000000000000000000000000000000000000000000000000000000000000000000000000000000000000000000000000000000000000000000000000000000000000
310
00
310
00000000000000000000000000000000000000000000000000000000000000000000000000000000000000000000000000000000000000000000000000000000000000000000000000000000000000000000000000000000000000000000000000000000000000000000000000000000000000000000000000000000000000
310
00000000000000000000000000000000000000000000000000000000000000000000000000000000000000000000000000000000000000000000000000000000000000000000000000000000000000000000000000000000000000000000000000000000000000000000000000000000000000000000000000000000000000
310
00
310
00000000000000000000000000000000000000000000000000000000000000000000000000000000000000000000000000000000000000000000000000000000000000000000000000000000000000000000000000000000000000000000000000000000000000000000000000000000000000000000000000000000000000
310
00000000000000000000000000000000000000000000000000000000000000000000000000000000000000000000000000000000000000000000000000000000000000000000000000000000000000000000000000000000000000000000000000000000000000000000000000000000000000000000000000000000000000
310
00
310
00000000000000000000000000000000000000000000000000000000000000000000000000000000000000000000000000000000000000000000000000000000000000000000000000000000000000000000000000000000000000000000000000000000000000000000000000000000000000000000000000000000000000
310
00000000000000000000000000000000000000000000000000000000000000000000000000000000000000000000000000000000000000000000000000000000000000000000000000000000000000000000000000000000000000000000000000000000000000000000000000000000000000000000000000000000000000
310
00
310
00000000000000000000000000000000000000000000000000000000000000000000000000000000000000000000000000000000000000000000000000000000000000000000000000000000000000000000000000000000000000000000000000000000000000000000000000000000000000000000000000000000000000
310
00000000000000000000000000000000000000000000000000000000000000000000000000000000000000000000000000000000000000000000000000000000000000000000000000000000000000000000000000000000000000000000000000000000000000000000000000000000000000000000000000000000000000
310
00
310
00000000000000000000000000000000000000000000000000000000000000000000000000000000000000000000000000000000000000000000000000000000000000000000000000000000000000000000000000000000000000000000000000000000000000000000000000000000000000000000000000000000000000
310
00000000000000000000000000000000000000000000000000000000000000000000000000000000000000000000000000000000000000000000000000000000000000000000000000000000000000000000000000000000000000000000000000000000000000000000000000000000000000000000000000000000000000
310
00
310
00000000000000000000000000000000000000000000000000000000000000000000000000000000000000000000000000000000000000000000000000000000000000000000000000000000000000000000000000000000000000000000000000000000000000000000000000000000000000000000000000000000000000
310
00000000000000000000000000000000000000000000000000000000000000000000000000000000000000000000000000000000000000000000000000000000000000000000000000000000000000000000000000000000000000000000000000000000000000000000000000000000000000000000000000000000000000
310
00
310
00000000000000000000000000000000000000000000000000000000000000000000000000000000000000000000000000000000000000000000000000000000000000000000000000000000000000000000000000000000000000000000000000000000000000000000000000000000000000000000000000000000000000
310
00000000000000000000000000000000000000000000000000000000000000000000000000000000000000000000000000000000000000000000000000000000000000000000000000000000000000000000000000000000000000000000000000000000000000000000000000000000000000000000000000000000000000
310
00
310
00000000000000000000000000000000000000000000000000000000000000000000000000000000000000000000000000000000000000000000000000000000000000000000000000000000000000000000000000000000000000000000000000000000000000000000000000000000000000000000000000000000000000
310
00000000000000000000000000000000000000000000000000000000000000000000000000000000000000000000000000000000000000000000000000000000000000000000000000000000000000000000000000000000000000000000000000000000000000000000000000000000000000000000000000000000000000
310
00
310
00000000000000000000000000000000000000000000000000000000000000000000000000000000000000000000000000000000000000000000000000000000000000000000000000000000000000000000000000000000000000000000000000000000000000000000000000000000000000
  0
XRECORD
  5
3B1
102
{ACAD_REACTORS
330
3E1
102
}
330
3E1
100
AcDbXrecord
280
     1
310
3E4F020000004D6F64656C6572000000000000000000000000000000000000000000000000000000000000000000000000000000000000000000000000000000000000000000000000000000000000000000000000000000000000000000000000000000000000000000000000000000000000000000000000000000000000
310
00000000000000000000000000000000000000000000000000000000000000000000000000000000000000000000000000000000000000000000000000000000000000000000000000000000000000000000000000000000000000000000000000000000000000000000000000000000000000000000000000000000000000
310
00
310
00000000000000000000000000000000000000000000000000000000000000000000000000000000000000000000000000000000000000000000000000000000000000000000000000000000000000000000000000000000000000000000000000000000000000000000000000000000000000000000000000000000000000
310
00000000000000000000000000000000000000000000000000000000000000000000000000000000000000000000000000000000000000000000000000000000000000000000000000000000000000000000000000000000000000000000000000000000000000000000000000000000000000000000000000000000000000
310
00
310
00000000000000000000000000000000000000000000000000000000000000000000000000000000000000000000000000000000000000000000000000000000000000000000000000000000000000000000000000000000000000000000000000000000000000000000000000000000000000000000000000000000000000
310
00000000000000000000000000000000000000000000000000000000000000000000000000000000000000000000000000000000000000000000000000000000000000000000000000000000000000000000000000000000000000000000000000000000000000000000000000000000000000000000000000000000000000
310
00
310
00000000000000000000000000000000000000000000000000000000000000000000000000000000000000000000000000000000000000000000000000000000000000000000000000000000000000000000000000000000000000000000000000000000000000000000000000000000000000000000000000000000000000
310
00000000000000000000000000000000000000000000000000000000000000000000000000000000000000000000000000000000000000000000000000000000000000000000000000000000000000000000000000000000000000000000000000000000000000000000000000000000000000000000000000000000000000
310
00
310
00000000000000000000000000000000000000000000000000000000000000000000000000000000000000000000000000000000000000000000000000000000000000000000000000000000000000000000000000000000000000000000000000000000000000000000000000000000000000000000000000000000000000
310
00000000000000000000000000000000000000000000000000000000000000000000000000000000000000000000000000000000000000000000000000000000000000000000000000000000000000000000000000000000000000000000000000000000000000000000000000000000000000000000000000000000000000
310
00
310
00000000000000000000000000000000000000000000000000000000000000000000000000000000000000000000000000000000000000000000000000000000000000000000000000000000000000000000000000000000000000000000000000000000000000000000000000000000000000000000000000000000000000
310
00000000000000000000000000000000000000000000000000000000000000000000000000000000000000000000000000000000000000000000000000000000000000000000000000000000000000000000000000000000000000000000000000000000000000000000000000000000000000000000000000000000000000
310
00
310
00000000000000000000000000000000000000000000000000000000000000000000000000000000000000000000000000000000000000000000000000000000000000000000000000000000000000000000000000000000000000000000000000000000000000000000000000000000000000000000000000000000000000
310
00000000000000000000000000000000000000000000000000000000000000000000000000000000000000000000000000000000000000000000000000000000000000000000000000000000000000000000000000000000000000000000000000000000000000000000000000000000000000000000000000000000000000
310
00
310
00000000000000000000000000000000000000000000000000000000000000000000000000000000000000000000000000000000000000000000000000000000000000000000000000000000000000000000000000000000000000000000000000000000000000000000000000000000000000000000000000000000000000
310
00000000000000000000000000000000000000000000000000000000000000000000000000000000000000000000000000000000000000000000000000000000000000000000000000000000000000000000000000000000000000000000000000000000000000000000000000000000000000000000000000000000000000
310
00
310
00000000000000000000000000000000000000000000000000000000000000000000000000000000000000000000000000000000000000000000000000000000000000000000000000000000000000000000000000000000000000000000000000000000000000000000000000000000000000000000000000000000000000
310
00000000000000000000000000000000000000000000000000000000000000000000000000000000000000000000000000000000000000000000000000000000000000000000000000000000000000000000000000000000000000000000000000000000000000000000000000000000000000000000000000000000000000
310
00
310
00000000000000000000000000000000000000000000000000000000000000000000000000000000000000000000000000000000000000000000000000000000000000000000000000000000000000000000000000000000000000000000000000000000000000000000000000000000000000000000000000000000000000
310
00000000000000000000000000000000000000000000000000000000000000000000000000000000000000000000000000000000000000000000000000000000000000000000000000000000000000000000000000000000000000000000000000000000000000000000000000000000000000000000000000000000000000
310
00
310
00000000000000000000000000000000000000000000000000000000000000000000000000000000000000000000000000000000000000000000000000000000000000000000000000000000000000000000000000000000000000000000000000000000000000000000000000000000000000000000000000000000000000
310
00000000000000000000000000000000000000000000000000000000000000000000000000000000000000000000000000000000000000000000000000000000000000000000000000000000000000000000000000000000000000000000000000000000000000000000000000000000000000000000000000000000000000
310
00
310
00000000000000000000000000000000000000000000000000000000000000000000000000000000000000000000000000000000000000000000000000000000000000000000000000000000000000000000000000000000000000000000000000000000000000000000000000000000000000000000000000000000000000
310
00000000000000000000000000000000000000000000000000000000000000000000000000000000000000000000000000000000000000000000000000000000000000000000000000000000000000000000000000000000000000000000000000000000000000000000000000000000000000000000000000000000000000
310
00
310
00000000000000000000000000000000000000000000000000000000000000000000000000000000000000000000000000000000000000000000000000000000000000000000000000000000000000000000000000000000000000000000000000000000000000000000000000000000000000000000000000000000000000
310
00000000000000000000000000000000000000000000000000000000000000000000000000000000000000000000000000000000000000000000000000000000000000000000000000000000000000000000000000000000000000000000000000000000000000000000000000000000000000000000000000000000000000
310
00
310
00000000000000000000000000000000000000000000000000000000000000000000000000000000000000000000000000000000000000000000000000000000000000000000000000000000000000000000000000000000000000000000000000000000000000000000000000000000000000
  0
XRECORD
  5
3B4
102
{ACAD_REACTORS
330
3E1
102
}
330
3E1
100
AcDbXrecord
280
     1
310
3E4F020000004D6F64656C6572000000000000000000000000000000000000000000000000000000000000000000000000000000000000000000000000000000000000000000000000000000000000000000000000000000000000000000000000000000000000000000000000000000000000000000000000000000000000
310
00000000000000000000000000000000000000000000000000000000000000000000000000000000000000000000000000000000000000000000000000000000000000000000000000000000000000000000000000000000000000000000000000000000000000000000000000000000000000000000000000000000000000
310
00
310
00000000000000000000000000000000000000000000000000000000000000000000000000000000000000000000000000000000000000000000000000000000000000000000000000000000000000000000000000000000000000000000000000000000000000000000000000000000000000000000000000000000000000
310
00000000000000000000000000000000000000000000000000000000000000000000000000000000000000000000000000000000000000000000000000000000000000000000000000000000000000000000000000000000000000000000000000000000000000000000000000000000000000000000000000000000000000
310
00
310
00000000000000000000000000000000000000000000000000000000000000000000000000000000000000000000000000000000000000000000000000000000000000000000000000000000000000000000000000000000000000000000000000000000000000000000000000000000000000000000000000000000000000
310
00000000000000000000000000000000000000000000000000000000000000000000000000000000000000000000000000000000000000000000000000000000000000000000000000000000000000000000000000000000000000000000000000000000000000000000000000000000000000000000000000000000000000
310
00
310
00000000000000000000000000000000000000000000000000000000000000000000000000000000000000000000000000000000000000000000000000000000000000000000000000000000000000000000000000000000000000000000000000000000000000000000000000000000000000000000000000000000000000
310
00000000000000000000000000000000000000000000000000000000000000000000000000000000000000000000000000000000000000000000000000000000000000000000000000000000000000000000000000000000000000000000000000000000000000000000000000000000000000000000000000000000000000
310
00
310
00000000000000000000000000000000000000000000000000000000000000000000000000000000000000000000000000000000000000000000000000000000000000000000000000000000000000000000000000000000000000000000000000000000000000000000000000000000000000000000000000000000000000
310
00000000000000000000000000000000000000000000000000000000000000000000000000000000000000000000000000000000000000000000000000000000000000000000000000000000000000000000000000000000000000000000000000000000000000000000000000000000000000000000000000000000000000
310
00
310
00000000000000000000000000000000000000000000000000000000000000000000000000000000000000000000000000000000000000000000000000000000000000000000000000000000000000000000000000000000000000000000000000000000000000000000000000000000000000000000000000000000000000
310
00000000000000000000000000000000000000000000000000000000000000000000000000000000000000000000000000000000000000000000000000000000000000000000000000000000000000000000000000000000000000000000000000000000000000000000000000000000000000000000000000000000000000
310
00
310
00000000000000000000000000000000000000000000000000000000000000000000000000000000000000000000000000000000000000000000000000000000000000000000000000000000000000000000000000000000000000000000000000000000000000000000000000000000000000000000000000000000000000
310
00000000000000000000000000000000000000000000000000000000000000000000000000000000000000000000000000000000000000000000000000000000000000000000000000000000000000000000000000000000000000000000000000000000000000000000000000000000000000000000000000000000000000
310
00
310
00000000000000000000000000000000000000000000000000000000000000000000000000000000000000000000000000000000000000000000000000000000000000000000000000000000000000000000000000000000000000000000000000000000000000000000000000000000000000000000000000000000000000
310
00000000000000000000000000000000000000000000000000000000000000000000000000000000000000000000000000000000000000000000000000000000000000000000000000000000000000000000000000000000000000000000000000000000000000000000000000000000000000000000000000000000000000
310
00
310
00000000000000000000000000000000000000000000000000000000000000000000000000000000000000000000000000000000000000000000000000000000000000000000000000000000000000000000000000000000000000000000000000000000000000000000000000000000000000000000000000000000000000
310
00000000000000000000000000000000000000000000000000000000000000000000000000000000000000000000000000000000000000000000000000000000000000000000000000000000000000000000000000000000000000000000000000000000000000000000000000000000000000000000000000000000000000
310
00
310
00000000000000000000000000000000000000000000000000000000000000000000000000000000000000000000000000000000000000000000000000000000000000000000000000000000000000000000000000000000000000000000000000000000000000000000000000000000000000000000000000000000000000
310
00000000000000000000000000000000000000000000000000000000000000000000000000000000000000000000000000000000000000000000000000000000000000000000000000000000000000000000000000000000000000000000000000000000000000000000000000000000000000000000000000000000000000
310
00
310
00000000000000000000000000000000000000000000000000000000000000000000000000000000000000000000000000000000000000000000000000000000000000000000000000000000000000000000000000000000000000000000000000000000000000000000000000000000000000000000000000000000000000
310
00000000000000000000000000000000000000000000000000000000000000000000000000000000000000000000000000000000000000000000000000000000000000000000000000000000000000000000000000000000000000000000000000000000000000000000000000000000000000000000000000000000000000
310
00
310
00000000000000000000000000000000000000000000000000000000000000000000000000000000000000000000000000000000000000000000000000000000000000000000000000000000000000000000000000000000000000000000000000000000000000000000000000000000000000000000000000000000000000
310
00000000000000000000000000000000000000000000000000000000000000000000000000000000000000000000000000000000000000000000000000000000000000000000000000000000000000000000000000000000000000000000000000000000000000000000000000000000000000000000000000000000000000
310
00
310
00000000000000000000000000000000000000000000000000000000000000000000000000000000000000000000000000000000000000000000000000000000000000000000000000000000000000000000000000000000000000000000000000000000000000000000000000000000000000000000000000000000000000
310
00000000000000000000000000000000000000000000000000000000000000000000000000000000000000000000000000000000000000000000000000000000000000000000000000000000000000000000000000000000000000000000000000000000000000000000000000000000000000000000000000000000000000
310
00
310
00000000000000000000000000000000000000000000000000000000000000000000000000000000000000000000000000000000000000000000000000000000000000000000000000000000000000000000000000000000000000000000000000000000000000000000000000000000000000
  0
XRECORD
  5
3B5
102
{ACAD_REACTORS
330
3E1
102
}
330
3E1
100
AcDbXrecord
280
     1
310
3E4F020000004D6F64656C6572000000000000000000000000000000000000000000000000000000000000000000000000000000000000000000000000000000000000000000000000000000000000000000000000000000000000000000000000000000000000000000000000000000000000000000000000000000000000
310
00000000000000000000000000000000000000000000000000000000000000000000000000000000000000000000000000000000000000000000000000000000000000000000000000000000000000000000000000000000000000000000000000000000000000000000000000000000000000000000000000000000000000
310
00
310
00000000000000000000000000000000000000000000000000000000000000000000000000000000000000000000000000000000000000000000000000000000000000000000000000000000000000000000000000000000000000000000000000000000000000000000000000000000000000000000000000000000000000
310
00000000000000000000000000000000000000000000000000000000000000000000000000000000000000000000000000000000000000000000000000000000000000000000000000000000000000000000000000000000000000000000000000000000000000000000000000000000000000000000000000000000000000
310
00
310
00000000000000000000000000000000000000000000000000000000000000000000000000000000000000000000000000000000000000000000000000000000000000000000000000000000000000000000000000000000000000000000000000000000000000000000000000000000000000000000000000000000000000
310
00000000000000000000000000000000000000000000000000000000000000000000000000000000000000000000000000000000000000000000000000000000000000000000000000000000000000000000000000000000000000000000000000000000000000000000000000000000000000000000000000000000000000
310
00
310
00000000000000000000000000000000000000000000000000000000000000000000000000000000000000000000000000000000000000000000000000000000000000000000000000000000000000000000000000000000000000000000000000000000000000000000000000000000000000000000000000000000000000
310
00000000000000000000000000000000000000000000000000000000000000000000000000000000000000000000000000000000000000000000000000000000000000000000000000000000000000000000000000000000000000000000000000000000000000000000000000000000000000000000000000000000000000
310
00
310
00000000000000000000000000000000000000000000000000000000000000000000000000000000000000000000000000000000000000000000000000000000000000000000000000000000000000000000000000000000000000000000000000000000000000000000000000000000000000000000000000000000000000
310
00000000000000000000000000000000000000000000000000000000000000000000000000000000000000000000000000000000000000000000000000000000000000000000000000000000000000000000000000000000000000000000000000000000000000000000000000000000000000000000000000000000000000
310
00
310
00000000000000000000000000000000000000000000000000000000000000000000000000000000000000000000000000000000000000000000000000000000000000000000000000000000000000000000000000000000000000000000000000000000000000000000000000000000000000000000000000000000000000
310
00000000000000000000000000000000000000000000000000000000000000000000000000000000000000000000000000000000000000000000000000000000000000000000000000000000000000000000000000000000000000000000000000000000000000000000000000000000000000000000000000000000000000
310
00
310
00000000000000000000000000000000000000000000000000000000000000000000000000000000000000000000000000000000000000000000000000000000000000000000000000000000000000000000000000000000000000000000000000000000000000000000000000000000000000000000000000000000000000
310
00000000000000000000000000000000000000000000000000000000000000000000000000000000000000000000000000000000000000000000000000000000000000000000000000000000000000000000000000000000000000000000000000000000000000000000000000000000000000000000000000000000000000
310
00
310
00000000000000000000000000000000000000000000000000000000000000000000000000000000000000000000000000000000000000000000000000000000000000000000000000000000000000000000000000000000000000000000000000000000000000000000000000000000000000000000000000000000000000
310
00000000000000000000000000000000000000000000000000000000000000000000000000000000000000000000000000000000000000000000000000000000000000000000000000000000000000000000000000000000000000000000000000000000000000000000000000000000000000000000000000000000000000
310
00
310
00000000000000000000000000000000000000000000000000000000000000000000000000000000000000000000000000000000000000000000000000000000000000000000000000000000000000000000000000000000000000000000000000000000000000000000000000000000000000000000000000000000000000
310
00000000000000000000000000000000000000000000000000000000000000000000000000000000000000000000000000000000000000000000000000000000000000000000000000000000000000000000000000000000000000000000000000000000000000000000000000000000000000000000000000000000000000
310
00
310
00000000000000000000000000000000000000000000000000000000000000000000000000000000000000000000000000000000000000000000000000000000000000000000000000000000000000000000000000000000000000000000000000000000000000000000000000000000000000000000000000000000000000
310
00000000000000000000000000000000000000000000000000000000000000000000000000000000000000000000000000000000000000000000000000000000000000000000000000000000000000000000000000000000000000000000000000000000000000000000000000000000000000000000000000000000000000
310
00
310
00000000000000000000000000000000000000000000000000000000000000000000000000000000000000000000000000000000000000000000000000000000000000000000000000000000000000000000000000000000000000000000000000000000000000000000000000000000000000000000000000000000000000
310
00000000000000000000000000000000000000000000000000000000000000000000000000000000000000000000000000000000000000000000000000000000000000000000000000000000000000000000000000000000000000000000000000000000000000000000000000000000000000000000000000000000000000
310
00
310
00000000000000000000000000000000000000000000000000000000000000000000000000000000000000000000000000000000000000000000000000000000000000000000000000000000000000000000000000000000000000000000000000000000000000000000000000000000000000000000000000000000000000
310
00000000000000000000000000000000000000000000000000000000000000000000000000000000000000000000000000000000000000000000000000000000000000000000000000000000000000000000000000000000000000000000000000000000000000000000000000000000000000000000000000000000000000
310
00
310
00000000000000000000000000000000000000000000000000000000000000000000000000000000000000000000000000000000000000000000000000000000000000000000000000000000000000000000000000000000000000000000000000000000000000000000000000000000000000000000000000000000000000
310
00000000000000000000000000000000000000000000000000000000000000000000000000000000000000000000000000000000000000000000000000000000000000000000000000000000000000000000000000000000000000000000000000000000000000000000000000000000000000000000000000000000000000
310
00
310
00000000000000000000000000000000000000000000000000000000000000000000000000000000000000000000000000000000000000000000000000000000000000000000000000000000000000000000000000000000000000000000000000000000000000000000000000000000000000
  0
XRECORD
  5
3AB
102
{ACAD_REACTORS
330
3E1
102
}
330
3E1
100
AcDbXrecord
280
     1
310
DF56060034040701D0009A9999999999B93F000000000000000000000000000000000400000009000000000000000200000064000000640000000100000001000000190000007B14AE47E17A843F00000000004060409A9999999999B93F00000000004C2D41000000000070F7400000000000942141000000000000000000
310
0000000000000000000000000000000AD482040000000000000000000000000000F03F000000000000000000000000000030402D431CEBE2362A3F00000000000008400000000000000000009807C000000000000000007C1A61B9A711364020000000050000000A000000200000002000000020000000000000000000F03F
310
00
310
0000000000F03F000000000000F03F333333333333D33F333333333333D33F333333333333D33F000000000000F43F000000000000F43F000000000000F03F0200000064000000000000000000000000000840000000000000F83F00000000000000000000000000000000008056409A9999999999B93F0000000000000000
310
00000000000000000000000000000000000000000000000000000000000000000000000000000000000000000000000000000000000000000000000000000000000000000000000000000000000000000000000000000000000000000000000000000000000000000000000000000000000000000000000000000000000000
310
00
310
0000000000000000000000000000000000000000000000000000000000000000000000000000000000000000000000000000000000000000000000000000000000000000000000000000000000000000000000000000000000000000000000000000000000000000000000000000000000000000000000009A9999999999A9
310
3F9100000000000000000000000000000035A781D547960F40000000000000F03F000000000000F03F666666666666164000000000104068F200000000000000000000000000000000000000000000000000000000000000000000000000000000000000000000000000000000000000000000000000000000000000000000
310
00
310
00000000000000000000000000000000000000000000000000000000000000000000000000000000000000000000000000000000000000000000000000000000000000000000000000000000000000000000000000000000000000000000000000000000000000000000000000000000000000000000000000000000000000
310
000000000000000000000000000000000000000000000000000000000000000000000000000000000000000000000000000000000000000000000000FF000000000000000000000000000000000000000000000000000000000000000000000000000000000000000000000000000000000000000000000000000000000000
310
00
310
0000000000000000000000000000000000000000000000000000000000000000000000000000000000000000000000000000000000000000000000000000000000000000
  0
DICTIONARY
  5
3D2
330
3D1
100
AcDbDictionary
280
     1
281
     1
  3
ADSK_XREC_LAYOUTTHUMBNAIL
360
3D3
  0
XRECORD
  5
3D3
102
{ACAD_REACTORS
330
3D2
102
}
330
3D2
100
AcDbXrecord
280
     1
310
28000000B40000008B0000000100080000000000BC61000000000000000000000001000000000000FFFFFF0000000000FFFFFF000000000000000000000000000000000000000000000000000000000000000000330000006600000099000000CC000000FF00000000330000333300006633000099330000CC330000FF3300
310
0000660000336600006666000099660000CC660000FF66000000990000339900006699000099990000CC990000FF99000000CC000033CC000066CC000099CC0000CCCC0000FFCC000000FF000033FF000066FF000099FF0000CCFF0000FFFF000000003300330033006600330099003300CC003300FF003300003333003333
310
33006633330099333300CC333300FF33330000663300336633006666330099663300CC663300FF66330000993300339933006699330099993300CC993300FF99330000CC330033CC330066CC330099CC3300CCCC3300FFCC330000FF330033FF330066FF330099FF3300CCFF3300FFFF330000006600330066006600660099
310
006600CC006600FF00660000336600333366006633660099336600CC336600FF33660000666600336666006666660099666600CC666600FF66660000996600339966006699660099996600CC996600FF99660000CC660033CC660066CC660099CC6600CCCC6600FFCC660000FF660033FF660066FF660099FF6600CCFF6600
310
FFFF660000009900330099006600990099009900CC009900FF00990000339900333399006633990099339900CC339900FF33990000669900336699006666990099669900CC669900FF66990000999900339999006699990099999900CC999900FF99990000CC990033CC990066CC990099CC9900CCCC9900FFCC990000FF99
310
0033FF990066FF990099FF9900CCFF9900FFFF99000000CC003300CC006600CC009900CC00CC00CC00FF00CC000033CC003333CC006633CC009933CC00CC33CC00FF33CC000066CC003366CC006666CC009966CC00CC66CC00FF66CC000099CC003399CC006699CC009999CC00CC99CC00FF99CC0000CCCC0033CCCC0066CC
310
CC0099CCCC00CCCCCC00FFCCCC0000FFCC0033FFCC0066FFCC0099FFCC00CCFFCC00FFFFCC000000FF003300FF006600FF009900FF00CC00FF00FF00FF000033FF003333FF006633FF009933FF00CC33FF00FF33FF000066FF003366FF006666FF009966FF00CC66FF00FF66FF000099FF003399FF006699FF009999FF00CC
310
99FF00FF99FF0000CCFF0033CCFF0066CCFF0099CCFF00CCCCFF00FFCCFF0000FFFF0033FFFF0066FFFF0099FFFF00CCFFFF00FFFFFF00000000000D0D0D001A1A1A00282828003535350043434300505050005D5D5D006B6B6B00787878008686860093939300A1A1A100AEAEAE00BBBBBB00C9C9C900D6D6D600E4E4E400
310
F1F1F100FFFFFF0000000000000000000000000000000000000000000000000000000000000000000000000000000000E2E2E2E2E2E2E2E2E2E2E2E2E2E2E2E2E2E2E2E2E2E2E2E2E2E2E2E2E2E2E2E2E2E2E2E2E2E2E2E2E2E2E2E2E2E2E2E2E2E2E2E2E2E2E2E2E2E2E2E2E2E2E2E2E2E2E2E2E2E2E2E2E2E2E2E2E2E2E2
310
E2E2E2E2E2E2E2E2E2E2E2E2E2E2E2E2E2E2E2E2E2E2E2E2E2E2E2E2E2E2E2E2E2E2E2E2E2E2E2E2E2E2E2E2E2E2E2E2E2E2E2E2E2E2E2E2E2E2E2E2E2E2E2E2E2E2E2E2E2E2E2E2E2E2E2E2E2E2E2E2E2E2E2E2E2E2E2E2E2E2E2E2E2E2E2E2E2E2E2E2EFF5F5F5F5F5F5F5F5F5F5F5F5F5F5F5F5F5F5F5F5F5F5F5F5F5F5
310
F5F5F5F5F5F5F5F5F5F5F5F5F5F5F5F5F5F5F5F5F5F5F5F5F5F5F5F5F5F5F5F5F5F5F5F5F5F5F5F5F5F5F5F5F5F5F5F5F5F5F5F5F5F5F5F5F5F5F5F5F5F5F5F5F5F5F5F5F5F5F5F5F5F5F5F5F5F5F5F5F5F5F5F5F5F5F5F5F5F5F5F5F5F5F5F5F5F5F5F5F5F5F5F5F5F5F5F5F5F5F5F5F5F5F5F5F5F5F5F5F5F5F5F5F5F5F5
310
F5F5F5F5F5F5F5F5F5F5F5F5F5F5F5F5F5F5F5F5F5F5F5F5E2E2EFF5F5F5F5F5F5F5F5F5F5F5F5F5F5F5F5F5F5F5F5F5F5F5F5F5F5F5F5F5F5F5F5F5F5F5F5F5F5F5F5F5F5F5F5F5F5F5F5F5F5F5F5F5F5F5F5F5F5F5F5F5F5F5F5F5F5F5F5F5F5F5F5F5F5F5F5F5F5F5F5F5F5F5F5F5F5F5F5F5F5F5F5F5F5F5F5F5F5F5F5
310
F5F5F5F5F5F5F5F5F5F5F5F5F5F5F5F5F5F5F5F5F5F5F5F5F5F5F5F5F5F5F5F5F5F5F5F5F5F5F5F5F5F5F5F5F5F5F5F5F5F5F5F5F5F5F5F5F5F5F5F5F5F5F5F5F5F5F5F5F5F5F5F5F5F5F5F5F5E2E2EFF5F5F5F5F5F5F5F5F5F5F5F5F5F5F5F5F5F5F5F5F5F5F5F5F5F5F5F5F5F5F5F5F5F5F5F5F5F5F5F5F5F5F5F5F5F5F5
310
F5F5F5F5F5F5F5F5F5F5F5F5F5F5F5F5F5F5F5F5F5F5F5F5F5F5F5F5F5F5F5F5F5F5F5F5F5F5F5F5F5F5F5F5F5F5F5F5F5F5F5F5F5F5F5F5F5F5F5F5F5F5F5F5F5F5F5F5F5F5F5F5F5F5F5F5F5F5F5F5F5F5F5F5F5F5F5F5F5F5F5F5F5F5F5F5F5F5F5F5F5F5F5F5F5F5F5F5F5F5F5F5F5F5F5F5F5F5F5F5F5F5F5F5F5F5F5
310
F5F5F5E2E2EFF5F5F5E2E2E2E2E2E2E2E2F5F5F5F5F5F5F5F5F5E2E2E2E2E2E2E2E2E2E2E2E2E2E2E2E2F5F5F5F5F5F5F5F5E2E2E2E2E2E2E2E2E2E2E2E2E2E2E2E2F5F5F5F5F5F5F5F5F5E2E2E2E2E2E2E2E2E2E2E2E2E2E2E2F5F5F5F5F5F5F5F5F5E2E2E2E2E2E2E2E2E2E2E2E2E2E2E2F5F5F5F5F5F5F5F5F5E2E2E2E2
310
E2E2E2E2E2E2E2E2E2E2E2E2F5F5F5F5F5F5F5F5E2E2E2E2E2E2E2E2E2E2E2E2E2E2E2E2F5F5F5F5F5F5F5F5F5E2E2E2E2E2E2E2E2F5F5F5E2E2EFF5F5F5E2F5F5F5F5F5F5F5F5F5F5F5F5F5F5F5F5F5F5F5F5F5F5F5F5F5F5F5F5F5F5F5F5F5F5F5F5F5F5F5F5F5F5F5F5F5F5F5F5F5F5F5F5F5F5F5F5F5F5F5F5F5F5F5F5
310
F5F5F5F5F5F5F5F5F5F5F5F5F5F5F5F5F5F5F5F5F5F5F5F5F5F5F5F5F5F5F5F5F5F5F5F5F5F5F5F5F5F5F5F5F5F5F5F5F5F5F5F5F5F5F5F5F5F5F5F5F5F5F5F5F5F5F5F5F5F5F5F5F5F5F5F5F5F5F5F5F5F5F5F5F5F5F5F5F5F5F5F5F5F5F5F5F5F5F5F5F5F5F5F5F5E2F5F5F5E2E2EFF5F5F5E2F5F5F5F5F5F5F5F5F5F5F5
310
F5F5F5F5F5F5F5F5F5F5F5F5F5F5F5F5F5F5F5F5F5F5F5F5F5F5F5F5F5F5F5F5F5F5F5F5F5F5F5F5F5F5F5F5F5F5F5F5F5F5F5F5F5F5F5F5F5F5F5F5F5F5F5F5F5F5F5F5F5F5F5F5F5F5F5F5F5F5F5F5F5F5F5F5F5F5F5F5F5F5F5F5F5F5F5F5F5F5F5F5F5F5F5F5F5F5F5F5F5F5F5F5F5F5F5F5F5F5F5F5F5F5F5F5F5F5F5
310
F5F5F5F5F5F5F5F5F5F5F5F5F5F5F5F5F5F5F5F5F5F5F5F5F5F5F5F5F5F5F5E2F5F5F5E2E2EFF5F5F5E2F5F5F5F5F5F5F5F5F5F5F5F5F5F5F5F5F5F5F5F5F5F5F5F5F5F5F5F5F5F5F5F5F5F5F5F5F5F5F5F5F5F5F5F5F5F5F5F5F5F5F5F5F5F5F5F5F5F5F5F5F5F5F5F5F5F5F5F5F5F5F5F5F5F5F5F5F5F5F5F5F5F5F5F5F5
310
F5F5F5F5F5F5F5F5F5F5F5F5F5F5F5F5F5F5F5F5F5F5F5F5F5F5F5F5F5F5F5F5F5F5F5F5F5F5F5F5F5F5F5F5F5F5F5F5F5F5F5F5F5F5F5F5F5F5F5F5F5F5F5F5F5F5F5F5F5F5F5F5F5F5F5F5F5F5F5F5F5F5F5F5E2F5F5F5E2E2EFF5F5F5E2F5F5F5F5F5F5F5F5F5F5F5F5F5F5F5F5F5F5F5F5F5F5F5F5F5F5F5F5F5F5F5F5
310
F5F5F5F5F5F5F5F5F5F5F5F5F5F5F5F5F5F5F5F5F5F5F5F5F5F5F5F5F5F5F5F5F5F5F5F5F5F5F5F5F5F5F5F5F5F5F5F5F5F5F5F5F5F5F5F5F5F5F5F5F5F5F5F5F5F5F5F5F5F5F5F5F5F5F5F5F5F5F5F5F5F5F5F5F5F5F5F5F5F5F5F5F5F5F5F5F5F5F5F5F5F5F5F5F5F5F5F5F5F5F5F5F5F5F5F5F5F5F5F5F5F5F5F5F5F5F5
310
F5F5F5F5F5F5F5F5F5F5E2F5F5F5E2E2EFF5F5F5E2F5F5F5F5F5F5F5F5F5F5F5F5F5F5F5F5F5F5F5F5F5F5F5F5F5F5F5F5F5F5F5F5F5F5F5F5F5F5F5F5F5F5F5F5F5F5F5F5F5F5F5F5F5F5F5F5F5F5F5F5F5F5F5F5F5F5F5F5F5F5F5F5F5F5F5F5F5F5F5F5F5F5F5F5F5F5F5F5F5F5F5F5F5F5F5F5F5F5F5F5F5F5F5F5F5F5
310
F5F5F5F5F5F5F5F5F5F5F5F5F5F5F5F5F5F5F5F5F5F5F5F5F5F5F5F5F5F5F5F5F5F5F5F5F5F5F5F5F5F5F5F5F5F5F5F5F5F5F5F5F5F5F5F5F5F5F5F5F5F5F5E2F5F5F5E2E2EFF5F5F5E2F5F5F5F5F5F5F5F5F5F5F5F5F5F5F5F5F5F5F5F5F5F5F5F5F5F5F5F5F5F5F5F5F5F5F5F5F5F5F5F5F5F5F5F5F5F5F5F5F5F5F5F5F5
310
F5F5F5F5F5F5F5F5F5F5F5F5F5F5F5F5F5F5F5F5F5F5F5F5F5F5F5F5F5F5F5F5F5F5F5F5F5F5F5F5F5F5F5F5F5F5F5F5F5F5F5F5F5F5F5F5F5F5F5F5F5F5F5F5F5F5F5F5F5F5F5F5F5F5F5F5F5F5F5F5F5F5F5F5F5F5F5F5F5F5F5F5F5F5F5F5F5F5F5F5F5F5F5F5F5F5F5F5F5F5F5F5F5F5F5F5E2F5F5F5E2E2EFF5F5F5E2
310
F5F5F5F5F5F5F5F5F5F5F5F5F5F5F5F5F5F5F5F5F5F5F5F5F5F5F5F5F5F5F5F5F5F5F5F5F5F5F5F5F5F5F5F5F5F5F5F5F5F5F5F5F5F5F5F5F5F5F5F5F5F5F5F5F5F5F5F5F5F5F5F5F5F5F5F5F5F5F5F5F5F5F5F5F5F5F5F5F5F5F5F5F5F5F5F5F5F5F5F5F5F5F5F5F5F5F5F5F5F5F5F5F5F5F5F5F5F5F5F5F5F5F5F5F5F5F5
310
F5F5F5F5F5F5F5F5F5F5F5F5F5F5F5F5F5F5F5F5F5F5F5F5F5F5F5F5F5F5F5F5F5F5F5F5F5F5F5F5F5F5E2F5F5F5E2E2EFF5F5F5E2F5F5F5F5F5F5F5F5F5F5F5F5F5F5F5F5F5F5F5F5F5F5F5F5F5F5F5F5F5F5F5F5F5F5F5F5F5F5F5F5F5F5F5F5F5F5F5F5F5F5F5F5F5F5F5F5F5F5F5F5F5F5F5F5F5F5F5F5F5F5F5F5F5F5
310
F5F5F5F5F5F5F5F5F5F5F5F5F5F5F5F5F5F5F5F5F5F5F5F5F5F5F5F5F5F5F5F5F5F5F5F5F5F5F5F5F5F5F5F5F5F5F5F5F5F5F5F5F5F5F5F5F5F5F5F5F5F5F5F5F5F5F5F5F5F5F5F5F5F5F5F5F5F5F5F5F5F5F5F5F5F5F5F5F5F5F5F5F5F5F5E2F5F5F5E2E2EFF5F5F5F5F5F5F5F5F5F5F5F5F5F5F5F5F5F5F5F5F5F5F5F5F5
310
F5F5F5F5F5F5F5F5F5F5F5F5F5F5F5F5F5F5F5F5F5F5F5F5F5F5F5F5F5F5F5F5F5F5F5F5F5F5F5F5F5F5F5F5F5F5F5F5F5F5F5F5F5F5F5F5F5F5F5F5F5F5F5F5F5F5F5F5F5F5F5F5F5F5F5F5F5F5F5F5F5F5F5F5F5F5F5F5F5F5F5F5F5F5F5F5F5F5F5F5F5F5F5F5F5F5F5F5F5F5F5F5F5F5F5F5F5F5F5F5F5F5F5F5F5F5F5
310
F5F5F5F5F5F5F5F5F5F5F5F5F5F5F5F5F5F5F5F5F5F5F5F5F5E2E2EFF5F5F5F5F5F5F5F5F5F5F5F5F5F5F5F5F5F5F5F5F5F5F5F5F5F5F5F5F5F5F5F5F5F5F5F5F5F5F5F5F5F5F5F5F5F5F5F5F5F5F5F5F5F5F5F5F5F5F5F5F5F5F5F5F5F5F5F5F5F5F5F5F5F5F5F5F5F5F5F5F5F5F5F5F5F5F5F5F5F5F5F5F5F5F5F5F5F5F5
310
F5F5F5F5F5F5F5F5F5F5F5F5F5F5F5F5F5F5F5F5F5F5F5F5F5F5F5F5F5F5F5F5F5F5F5F5F5F5F5F5F5F5F5F5F5F5F5F5F5F5F5F5F5F5F5F5F5F5F5F5F5F5F5F5F5F5F5F5F5F5F5F5F5F5F5F5F5F5E2E2EFF5F5F5F5F5F5F5F5F5F5F5F5F5F5F5F5F5F5F5F5F5F5F5F5F5F5F5F5F5F5F5F5F5F5F5F5F5F5F5F5F5F5F5F5F5F5
310
F5F5F5F5F5F5F5F5F5F5F5F5F5F5F5F5F5F5F5F5F5F5F5F5F5F5F5F5F5F5F5F5F5F5F5F5F5F5F5F5F5F5F5F5F5F5F5F5F5F5F5F5F5F5F5F5F5F5F5F5F5F5F5F5F5F5F5F5F5F5F5F5F5F5F5F5F5F5F5F5F5F5F5F5F5F5F5F5F5F5F5F5F5F5F5F5F5F5F5F5F5F5F5F5F5F5F5F5F5F5F5F5F5F5F5F5F5F5F5F5F5F5F5F5F5F5F5
310
F5F5F5F5E2E2EFF5F5F5F5F5F5F5F5F5F5F5F5F5F5F5F5F5F5F5F5F5F5F5F5F5F5F5F5F5F5F5F5F5F5F5F5F5F5F5F5F5F5F5F5F5F5F5F5F5F5F5F5F5F5F5F5F5F5F5F5F5F5F5F5F5F5F5F5F5F5F5F5F5F5F5F5F5F5F5F5F5F5F5F5F5F5F5F5F5F5F5F5F5F5F5F5F5F5F5F5F5F5F5F5F5F5F5F5F5F5F5F5F5F5F5F5F5F5F5F5
310
F5F5F5F5F5F5F5F5F5F5F5F5F5F5F5F5F5F5F5F5F5F5F5F5F5F5F5F5F5F5F5F5F5F5F5F5F5F5F5F5F5F5F5F5F5F5F5F5F5F5F5F5F5F5F5F5F5E2E2EFF5F5F5F5F5F5F5F5F5F5F5F5F5F5F5F5F5F5F5F5E2E2E2E2E2E2E2E2E2E2E2E2E2E2E2E2E2E2E2E2E2E2E2E2E2E2E2E2E2E2E2E2E2E2E2E2E2E2E2E2E2E2E2E2E2E2E2
310
E2E2E2E2E2E2E2E2E2E2E2E2E2E2E2E2E2E2E2E2E2E2E2E2E2E2E2E2E2E2E2E2E2E2E2E2E2E2E2E2E2E2E2E2E2E2E2E2E2E2E2E2E2E2E2E2E2E2E2E2E2E2E2E2E2E2E2E2E2E2E2E2E2E2E2E2E2E2E2E2E2E2E2E2E2E2E2E2E2E2F5F5F5F5F5F5F5F5F5F5F5F5F5F5F5F5F5F5F5F5E2E2EFF5F5F5F5F5F5F5F5F5F5F5F5F5F5
310
F5F5F5F5F5F5E2F5F5F5F5F5F5F5F5F5F5F5F5F5F5F5F5F5F5F5F5F5F5F5F5F5F5F5F5F5F5F5F5F5F5F5F5F5F5F5F5F5F5F5F5F5F5F5F5F5F5F5F5F5F5F5F5F5F5F5F5F5F5F5F5F5F5F5F5F5F5F5F5F5F5F5F5F5F5F5F5F5F5F5F5F5F5F5F5F5F5F5F5F5F5F5F5F5F5F5F5F5F5F5F5F5F5F5F5F5F5F5F5F5F5F5F5F5F5F5F5
310
F5F5F5F5F5F5F5F5F5F5F5F5F5F5F5E2F5F5F5F5F5F5F5F5F5F5F5F5F5F5F5F5F5F5F5F5E2E2EFF5F5F5F5F5F5F5F5F5F5F5F5F5F5F5F5F5F5F5F5E2F5F5F5F5F5F5F5F5F5F5F5F5F5F5F5F5F5F5F5F5F5F5F5F5F5F5F5F5F5F5F5F5F5F5F5F5F5F5F5F5F5F5F5F5F5F5F5F5F5F5F5F5F5F5F5F5F5F5F5F5F5F5F5F5F5F5F5
310
F5F5F5F5F5F5F5F5F5F5F5F5F5F5F5F5F5F5F5F5F5F5F5F5F5F5F5F5F5F5F5F5F5F5F5F5F5F5F5F5F5F5F5F5F5F5F5F5F5F5F5F5F5F5F5F5F5F5F5F5F5F5F5F5F5F5F5F5E2F5F5F5F5F5F5F5F5F5F5F5F5F5F5F5F5F5F5F5F5E2E2EFF5F5F5F5F5F5F5F5F5F5F5F5F5F5F5F5F5F5F5F5E2F5F5F5F5F5F5F5F5F5F5F5F5F5F5
310
F5F5F5F5F5F5F5F5F5F5F5F5F5F5F5F5F5F5F5F5F5F5F5F5F5F5F5F5F5F5F5F5F5F5F5F5F5F5F5F5F5F5F5F5F5F5F5F5F5F5F5F5F5F5F5F5F5F5F5F5F5F5F5F5F5F5F5F5F5F5F5F5F5F5F5F5F5F5F5F5F5F5F5F5F5F5F5F5F5F5F5F5F5F5F5F5F5F5F5F5F5F5F5F5F5F5F5F5F5F5F5F5F5F5F5F5F5F5F5F5F5E2F5F5F5F5F5
310
F5F5F5F5F5F5F5F5F5F5F5F5F5F5F5E2E2EFF5F5F5F5F5F5F5F5F5F5F5F5F5F5F5F5F5F5F5F5E2F5F5F5F5F5F5F5F5F5F5F5F5F5F5F5F5F5F5F5F5F5F5F5F5F5F5F5F5F5F5F5F5F5F5F5F5F5F5F5F5F5F5F5F5F5F5F5F5F5F5F5F5F5F5F5F5F5F5F5F5F5F5F5F5F5F5F5F5F5F5F5F5F5F5F5F5F5F5F5F5F5F5F5F5F5F5F5F5
310
F5F5F5F5F5F5F5F5F5F5F5F5F5F5F5F5F5F5F5F5F5F5F5F5F5F5F5F5F5F5F5F5F5F5F5F5F5F5F5F5F5F5F5F5F5F5F5E2F5F5F5F5F5F5F5F5F5F5F5F5F5F5F5F5F5F5F5F5E2E2EFF5F5F5E2F5F5F5F5F5F5F5F5F5F5F5F5F5F5F5F5E2F5F5F5F5F5F5F5F5F5F5F5F5F5F5F5F5F5F5F5F5F5F5F5F5F5F5F5F5F5F5F5F5F5F5F5
310
F5F5F5F5F5F5F5F5F5F5F5F5F5F5F5F5F5F5F5F5F5F5F5F5F5F5F5F5F5F5F5F5F5F5F5F5F5F5F5F5F5F5F5F5F5F5F5F5F5F5F5F5F5F5F5F5F5F5F5F5F5F5F5F5F5F5F5F5F5F5F5F5F5F5F5F5F5F5F5F5F5F5F5F5F5F5F5F5F5F5F5F5F5F5F5F5F5F5F5F5E2F5F5F5F5F5F5F5F5F5F5F5F5F5F5F5F5E2F5F5F5E2E2EFF5F5F5
310
E2F5F5F5F5F5F5F5F5F5F5F5F5F5F5F5F5E2F5F5F5F5F5F5F5F5F5F5F5F5F5F5F5F5F5F5F5F5F5F5F5F5F5F5F5F5F5F5F5F5F5F5F5F5F5F5F5F5F5F5F5F5F5F5F5F5F5F5F5F5F5F5F5F5F5F5F5F5F5F5F5F5F5F5F5F5F5F5F5F5F5F5F5F5F5F5F5F5F5F5F5F5F5F5F5F5F5F5F5F5F5F5F5F5F5F5F5F5F5F5F5F5F5F5F5F5F5
310
F5F5F5F5F5F5F5F5F5F5F5F5F5F5F5F5F5F5F5F5F5F5F5F5F5F5E2F5F5F5F5F5F5F5F5F5F5F5F5F5F5F5F5E2F5F5F5E2E2EFF5F5F5E2F5F5F5F5F5F5F5F5F5F5F5F5F5F5F5F5E2F5F5F5F5F5F5F5F5F5F5F5F5F5F5F5F5F5F5F5F5F5F5F5F5F5F5F5F5F5F5F5F5F5F5F5F5F5F5F5F5F5F5F5F5F5F5F5F5F5F5F5F5F5F5F5F5
310
F5F5F5F5F5F5F5F5F5F5F5F5F5F5F5F5F5F5F5F5F5F5F5F5F5F5F5F5F5F5F5F5F5F5F5F5F5F5F5F5F5F5F5F5F5F5F5F5F5F5F5F5F5F5F5F5F5F5F5F5F5F5F5F5F5F5F5F5F5F5F5F5F5F5F5F5F5F5F5E2F5F5F5F5F5F5F5F5F5F5F5F5F5F5F5F5E2F5F5F5E2E2EFF5F5F5E2F5F5F5F5F5F5F5F5F5F5F5F5F5F5F5F5E2F5F5F5
310
F5F5F5F5F5F5F5F5F5F5F5F5F5F5F5F5F5F5F5F5F5F5F5F5F5F5F5F5F5F5F5F5F5F5F5F5F5F5F5F5F5F5F5F5F5F5F5F5F5F5F5F5F5F5F5F5F5F5F5F5F5F5F5F5F5F5F5F5F5F5F5F5F5F5F5F5F5F5F5F5F5F5F5F5F5F5F5F5F5F5F5F5F5F5F5F5F5F5F5F5F5F5F5F5F5F5F5F5F5F5F5F5F5F5F5F5F5F5F5F5F5F5F5F5F5F5F5
310
F5F5F5F5F5E2F5F5F5F5F5F5F5F5F5F5F5F5F5F5F5F5E2F5F5F5E2E2EFF5F5F5E2F5F5F5F5F5F5F5F5F5F5F5F5F5F5F5F5E2F5F5F5F5F5F5F5F5F5F5F5F5F5F5F5F5F5F5F5F5F5F5F5F5F5F5F5F5F5F5F5F5F5F5F5F5F5F5F5F5F5F5F5F5F5F5F5F5F5F5F5F5F5F5F5F5F5F5F5F5F5F5F5F5F5F5F5F5F5F5F5F5F5F5F5F5F5
310
F5F5F5F5F5F5F5F5F5F5F5F5F5F5F5F5F5F5F5F5F5F5F5F5F5F5F5F5F5F5F5F5F5F5F5F5F5F5F5F5F5F5F5F5F5F5F5F5F5F5F5F5F5F5F5F5F5F5E2F5F5F5F5F5F5F5F5F5F5F5F5F5F5F5F5E2F5F5F5E2E2EFF5F5F5E2F5F5F5F5F5F5F5F5F5F5F5F5F5F5F5F5E2F5F5F5F5F5F5F5F5F5F5F5F5F5F5F5F5F5F5F5F5F5F5F5F5
310
F5F5F5F5F5F5F5F5F5F5F5F5F5F5F5F5F5F5F5F5F5F5F5F5F5F5F5F5F5F5F5F5F5F5F5F5F5F5F5F5F5F5F5F5F5F5F5F5F5F5F5F5F5F5F5F5F5F5F5F5F5F5F5F5F5F5F5F5F5F5F5F5F5F5F5F5F5F5F5F5F5F5F5F5F5F5F5F5F5F5F5F5F5F5F5F5F5F5F5F5F5F5F5F5F5F5F5F5F5F5F5E2F5F5F5F5F5F5F5F5F5F5F5F5F5F5F5
310
F5E2F5F5F5E2E2EFF5F5F5E2F5F5F5F5F5F5F5F5F5F5F5F5F5F5F5F5E2F5F5F5F5F5F5F5F5F5F5F5F5F5F5F5F5F5F5F5F5F5F5F5F5F5F5F5F5F5F5F5F5F5F5F5F5F5F5F5F5F5F5F5F5F5F5F5F5F5F5F5F5F5F5F5F5F5F5F5F5F5F5F5F5F5F5F5F5F5F5F5F5F5F5F5F5F5F5F5F5F5F5F5F5F5F5F5F5F5F5F5F5F5F5F5F5F5F5
310
F5F5F5F5F5F5F5F5F5F5F5F5F5F5F5F5F5F5F5F5F5F5F5F5F5F5F5F5F5F5F5F5F5F5F5F5F5E2F5F5F5F5F5F5F5F5F5F5F5F5F5F5F5F5E2F5F5F5E2E2EFF5F5F5E2F5F5F5F5F5F5F5F5F5F5F5F5F5F5F5F5E2F5F5F5F5F5F5F5F5F5F5F5F5F5F5F5F5F5F5F5F5F5F5F5F5F5F5F5F5F5F5F5F5F5F5F5F5F5F5F5F5F5F5F5F5F5
310
F5F5F5F5F5F5F5F5F5F5F5F5F5F5F5F5F5F5F5F5F5F5F5F5F5F5F5F5F5F5F5F5F5F5F5F5F5F5F5F5F5F5F5F5F5F5F5F5F5F5F5F5F5F5F5F5F5F5F5F5F5F5F5F5F5F5F5F5F5F5F5F5F5F5F5F5F5F5F5F5F5F5F5F5F5F5F5F5F5F5E2F5F5F5F5F5F5F5F5F5F5F5F5F5F5F5F5E2F5F5F5E2E2EFF5F5F5E2F5F5F5F5F5F5F5F5F5
310
F5F5F5F5F5F5F5E2F5F5F5F5F5F5F5F5F5F5F5F5F5F5F5F5F5F5F5F5F5F5F5F5F5F5F5F5F5F5F5F5F5F5F5F5F5F5F5F5F5F5F5F5F5F5F5F5F5F5F5F5F5F5F5F5F5F5F5F5F5F5F5F5F5F5F5F5F5F5F5F5F5F5F5F5F5F5F5F5F5F5F5F5F5F5F5F5F5F5F5F5F5F5F5F5F5F5F5F5F5F5F5F5F5F5F5F5F5F5F5F5F5F5F5F5F5F5F5
310
F5F5F5F5F5F5F5F5F5F5F5F5F5F5F5F5E2F5F5F5F5F5F5F5F5F5F5F5F5F5F5F5F5E2F5F5F5E2E2EFF5F5F5E2F5F5F5F5F5F5F5F5F5F5F5F5F5F5F5F5E2F5F5F5F5F5F5F5F5F5F5F5F5F5F5F5F5F5F5F5F5F5F5F5F5F5F5F5F5F5F5F5F5F5F5F5F5F5F5F5F5F5F5F5F5F5F5F5F5F5F5F5F5F5F5F5F5F5F5F5F5F5F5F5F5F5F5
310
F5F5F5F5F5F5F5F5F5F5F5F5F5F5F5F5F5F5F5F5F5F5F5F5F5F5F5F5F5F5F5F5F5F5F5F5F5F5F5F5F5F5F5F5F5F5F5F5F5F5F5F5F5F5F5F5F5F5F5F5F5F5F5F5F5F5F5F5F5E2F5F5F5F5F5F5F5F5F5F5F5F5F5F5F5F5E2F5F5F5E2E2EFF5F5F5E2F5F5F5F5F5F5F5F5F5F5F5F5F5F5F5F5E2F5F5F5F5F5F5F5F5F5F5F5F5F5
310
F5F5F5F5F5F5F5F5F5F5F5F5F5F5F5F5F5F5F5F5F5F5F5F5F5F5F5F5F5F5F5F5F5F5F5F5F5F5F5F5F5F5F5F5F5F5F5F5F5F5F5F5F5F5F5F5F5F5F5F5F5F5F5F5F5F5F5F5F5F5F5F5F5F5F5F5F5F5F5F5F5F5F5F5F5F5F5F5F5F5F5F5F5F5F5F5F5F5F5F5F5F5F5F5F5F5F5F5F5F5F5F5F5F5F5F5F5F5F5F5F5F5E2F5F5F5F5
310
F5F5F5F5F5F5F5F5F5F5F5F5E2F5F5F5E2E2EFF5F5F5E2F5F5F5F5F5F5F5F5F5F5F5F5F5F5F5F5E2F5F5F5F5F5F5F5F5F5F5F5F5F5F5F5F5F5F5F5F5F5F5F5F5F5F5F5F5F5F5F5F5F5F5F5F5F5F5F5F5F5F5F5F5F5F5F5F5F5F5F5F5F5F5F5F5F5F5F5F5F5F5F5F5F5F5F5F5F5F5F5F5F5F5F5F5F5F5F5F5F5F5F5F5F5F5F5
310
F5F5F5F5F5F5F5F5F5F5F5F5F5F5F5F5F5F5F5F5F5F5F5F5F5F5F5F5F5F5F5F5F5F5F5F5F5F5F5F5F5F5F5F5F5F5F5F5E2F5F5F5F5F5F5F5F5F5F5F5F5F5F5F5F5E2F5F5F5E2E2EFF5F5F5E2F5F5F5F5F5F5F5F5F5F5F5F5F5F5F5F5E2F5F5F5F5F5F5F5F5F5F5F5F5F5F5F5F5F5F5F5F5F5F5F5F5F5F5F5F5F5F5F5F5F5F5
310
F5F5F5F5F5F5F5F5F5F5F5F5F5F5F5F5F5F5F5F5F5F5F5F5F5F5F5F5F5F5F5F5F5F5F5F5F5F5F5F5F5F5F5F5F5F5F5F5F5F5F5F5F5F5F5F5F5F5F5F5F5F5F5F5F5F5F5F5F5F5F5F5F5F5F5F5F5F5F5F5F5F5F5F5F5F5F5F5F5F5F5F5F5F5F5F5F5F5F5F5F5E2F5F5F5F5F5F5F5F5F5F5F5F5F5F5F5F5E2F5F5F5E2E2EFF5F5
310
F5E2F5F5F5F5F5F5F5F5F5F5F5F5F5F5F5F5E2F5F5F5F5F5F5F5F5F5F5F5F5F5F5F5F5F5F5F5F5F5F5F5F5F5F5F5F5F5F5F5F5F5F5F5F5F5F5F5F5F5F5F5F5F5F5F5F5F5F5F5F5F5F5F5F5F5F5F5F5F5F5F5F5F5F5F5F5F5F5F5F5F5F5F5F5F5F5F5F5F5F5F5F5F5F5F5F5F5F5F5F5F5F5F5F5F5F5F5F5F5F5F5F5F5F5F5F5
310
F5F5F5F5F5F5F5F5F5F5F5F5F5F5F5F5F5F5F5F5F5F5F5F5F5F5F5E2F5F5F5F5F5F5F5F5F5F5F5F5F5F5F5F5E2F5F5F5E2E2EFF5F5F5E2F5F5F5F5F5F5F5F5F5F5F5F5F5F5F5F5E2F5F5F5F5F5F5F5F5F5F5F5F5F5F5F5F5F5F5F5F5F5F5F5F5F5F5F5F5F5F5F5F5F5F5F5F5F5F5F5F5F5F5F5F5F5F5F5F5F5F5F5F5F5F5F5
310
F5F5F5F5F5F5F5F5F5F5F5F5F5F5F5F5F5F5F5F5F5F5F5F5F5F5F5F5F5F5F5F5F5F5F5F5F5F5F5F5F5F5F5F5F5F5F5F5F5F5F5F5F5F5F5F5F5F5F5F5F5F5F5F5F5F5F5F5F5F5F5F5F5F5F5F5F5F5F5F5E2F5F5F5F5F5F5F5F5F5F5F5F5F5F5F5F5E2F5F5F5E2E2EFF5F5F5E2F5F5F5F5F5F5F5F5F5F5F5F5F5F5F5F5E2F5F5
310
F5F5F5F5F5F5F5F5F5F5F5F5F5F5F5F5F5F5F5F5F5F5F5F5F5F5F5F5F5F5F5F5F5F5F5F5F5F5F5F5F5F5F5F5F5F5F5F5F5F5F5F5F5F5F5F5F5F5F5F5F5F5F5F5F5F5F5F5F5F5F5F5F5F5F5F5F5F5F5F5F5F5F5F5F5F5F5F5F5F5F5F5F5F5F5F5F5F5F5F5F5F5F5F5F5F5F5F5F5F5F5F5F5F5F5F5F5F5F5F5F5F5F5F5F5F5F5
310
F5F5F5F5F5F5E2F5F5F5F5F5F5F5F5F5F5F5F5F5F5F5F5E2F5F5F5E2E2EFF5F5F5E2F5F5F5F5F5F5F5F5F5F5F5F5F5F5F5F5E2F5F5F5F5F5F5F5F5F5F5F5F5F5F5F5F5F5F5F5F5F5F5F5F5F5F5F5F5F5F5F5F5F5F5F5F5F5F5F5F5F5F5F5F5F5F5F5F5F5F5F5F5F5F5F5F5F5F5F5F5F5F5F5F5F5F5F5F5F5F5F5F5F5F5F5F5
310
F5F5F5F5F5F5F5F5F5F5F5F5F5F5F5F5F5F5F5F5F5F5F5F5F5F5F5F5F5F5F5F5F5F5F5F5F5F5F5F5F5F5F5F5F5F5F5F5F5F5F5F5F5F5F5F5F5F5F5E2F5F5F5F5F5F5F5F5F5F5F5F5F5F5F5F5E2F5F5F5E2E2EFF5F5F5F5F5F5F5F5F5F5F5F5F5F5F5F5F5F5F5F5E2F5F5F5F5F5F5F5F5F5F5F5F5F5F5F5F5F5F5F5F5F5F5F5
310
F5F5F5F5F5F5F5F5F5F5F5F5F5F5F5F5F5F5F5F5F5F5F5F5F5F5F5F5F5F5F5F5F5F5F5F5F5F5F5F5F5F5F5F5F5F5F5F5F5F5F5F5F5F5F5F5F5F5F5F5F5F5F5F5F5F5F5F5F5F5F5F5F5F5F5F5F5F5F5F5F5F5F5F5F5F5F5F5F5F5F5F5F5F5F5F5F5F5F5F5F5F5F5F5F5F5F5F5F5F5F5F5E2F5F5F5F5F5F5F5F5F5F5F5F5F5F5
310
F5F5F5F5F5F5E2E2EFF5F5F5F5F5F5F5F5F5F5F5F5F5F5F5F5F5F5F5F5E2F5F5F5F5F5F5F5F5F5F5F5F5F5F5F5F5F5F5F5F5F5F5F5F5F5F5F5F5F5F5F5F5F5F5F5F5F5F5F5F5F5F5F5F5F5F5F5F5F5F5F5F5F5F5F5F5F5F5F5F5F5F5F5F5F5F5F5F5F5F5F5F5F5F5F5F5F5F5F5F5F5F5F5F5F5F5F5F5F5F5F5F5F5F5F5F5F5
310
F5F5F5F5F5F5F5F5F5F5F5F5F5F5F5F5F5F5F5F5F5F5F5F5F5F5F5F5F5F5F5F5F5F5F5F5F5F5E2F5F5F5F5F5F5F5F5F5F5F5F5F5F5F5F5F5F5F5F5E2E2EFF5F5F5F5F5F5F5F5F5F5F5F5F5F5F5F5F5F5F5F5E2F5F5F5F5F5F5F5F5F5F5F5F5F5F5F5F5F5F5F5F5F5F5F5F5F5F5F5F5F5F5F5F5F5F5F5F5F5F5F5F5F5F5F5F5
310
F5F5F5F5F5F5F5F5F5F5F5F5F5F5F5F5F5F5F5F5F5F5F5F5F5F5F5F5F5F5F5F5F5F5F5F5F5F5F5F5F5F5F5F5F5F5F5F5F5F5F5F5F5F5F5F5F5F5F5F5F5F5F5F5F5F5F5F5F5F5F5F5F5F5F5F5F5F5F5F5F5F5F5F5F5F5F5F5F5F5F5E2F5F5F5F5F5F5F5F5F5F5F5F5F5F5F5F5F5F5F5F5E2E2EFF5F5F5F5F5F5F5F5F5F5F5F5
310
F5F5F5F5F5F5F5F5E2F5F5F5F5F5F5F5F5F5F5F5F5F5F5F5F5F5F5F5F5F5F5F5F5F5F5F5F5F5F5F5F5F5F5F5F5F5F5F5F5F5F5F5F5F5F5F5F5F5F5F5F5F5F5F5F5F5F5F5F5F5F5F5F5F5F5F5F5F5F5F5F5F5F5F5F5F5F5F5F5F5F5F5F5F5F5F5F5F5F5F5F5F5F5F5F5F5F5F5F5F5F5F5F5F5F5F5F5F5F5F5F5F5F5F5F5F5F5
310
F5F5F5F5F5F5F5F5F5F5F5F5F5F5F5F5F5E2F5F5F5F5F5F5F5F5F5F5F5F5F5F5F5F5F5F5F5F5E2E2EFF5F5F5F5F5F5F5F5F5F5F5F5F5F5F5F5F5F5F5F5E2F5F5F5F5F5F5F5F5F5F5F5F5F5F5F5F5F5F5F5F5F5F5F5F5F5F5F5F5F5F5F5F5F5F5F5F5F5F5F5F5F5F5F5F5F5F5F5F5F5F5F5F5F5F5F5F5F5F5F5F5F5F5F5F5F5
310
F5F5F5F5F5F5F5F5F5F5F5F5F5F5F5F5F5F5F5F5F5F5F5F5F5F5F5F5F5F5F5F5F5F5F5F5F5F5F5F5F5F5F5F5F5F5F5F5F5F5F5F5F5F5F5F5F5F5F5F5F5F5F5F5F5F5F5F5F5F5E2F5F5F5F5F5F5F5F5F5F5F5F5F5F5F5F5F5F5F5F5E2E2EFF5F5F5F5F5F5F5F5F5F5F5F5F5F5F5F5F5F5F5F5E2F5F5F5F5F5F5F5F5F5F5F5F5
310
F5F5F5F5F5F5F5F5F5F5F5F5F5F5F5F5F5F5F5F5F5F5F5F5F5F5F5F5F5F5F5F5F5F5F5F5F5F5F5F5F5F5F5F5F5F5F5F5F5F5F5F5F5F5F5F5F5F5F5F5F5F5F5F5F5F5F5F5F5F5F5F5F5F5F5F5F5F5F5F5F5F5F5F5F5F5F5F5F5F5F5F5F5F5F5F5F5F5F5F5F5F5F5F5F5F5F5F5F5F5F5F5F5F5F5F5F5F5F5F5F5F5F5E2F5F5F5
310
F5F5F5F5F5F5F5F5F5F5F5F5F5F5F5F5F5E2E2EFF5F5F5F5F5F5F5F5F5F5F5F5F5F5F5F5F5F5F5F5E2F5F5F5F5F5F5F5F5F5F5F5F5F5F5F5F5F5F5F5F5F5F5F5F5F5F5F5F5F5F5F5F5F5F5F5F5F5F5F5F5F5F5F5F5F5F5F5F5F5F5F5F5F5F5F5F5F5F5F5F5F5F5F5F5F5F5F5F5F5F5F5F5F5F5F5F5F5F5F5F5F5F5F5F5F5F5
310
F5F5F5F5F5F5F5F5F5F5F5F5F5F5F5F5F5F5F5F5F5F5F5F5F5F5F5F5F5F5F5F5F5F5F5F5F5F5F5F5F5F5F5F5F5F5F5F5F5E2F5F5F5F5F5F5F5F5F5F5F5F5F5F5F5F5F5F5F5F5E2E2EFF5F5F5F5F5F5F5F5F5F5F5F5F5F5F5F5F5F5F5F5E2F5F5F5F5F5F5F5F5F5F5F5F5F5F5F5F5F5F5F5F5F5F5F5F5F5F5F5F5F5F5F5F5F5
310
F5F5F5F5F5F5F5F5F5F5F5F5F5F5F5F5F5F5F5F5F5F5F5F5F5F5F5F5F5F5F5F5F5F5F5F5F5F5F5F5F5F5F5F5F5F5F5F5F5F5F5F5F5F5F5F5F5F5F5F5F5F5F5F5F5F5F5F5F5F5F5F5F5F5F5F5F5F5F5F5F5F5F5F5F5F5F5F5F5F5F5F5F5F5F5F5F5F5F5F5F5F5E2F5F5F5F5F5F5F5F5F5F5F5F5F5F5F5F5F5F5F5F5E2E2EFF5
310
F5F5F5F5F5F5F5F5F5F5F5F5F5F5F5F5F5F5F5E2F5F5F5F5F5F5F5F5F5F5F5F5F5F5F5F5F5F5F5F5F5F5F5F5F5F5F5F5F5F5F5F5F5F5F5F5F5F5F5F5F5F5F5F5F5F5F5F5F5F5F5F5F5F5F5F5F5F5F5F5F5F5F5F5F5F5F5F5F5F5F5F5F5F5F5F5F5F5F5F5F5F5F5F5F5F5F5F5F5F5F5F5F5F5F5F5F5F5F5F5F5F5F5F5F5F5F5
310
F5F5F5F5F5F5F5F5F5F5F5F5F5F5F5F5F5F5F5F5F5F5F5F5F5F5F5F5E2F5F5F5F5F5F5F5F5F5F5F5F5F5F5F5F5F5F5F5F5E2E2EFF5F5F5E2F5F5F5F5F5F5F5F5F5F5F5F5F5F5F5F5E2F5F5F5F5F5F5F5F5F5F5F5F5F5F5F5F5F5F5F5F5F5F5F5F5F5F5F5F5F5F5F5F5F5F5F5F5F5F5F5F5F5F5F5F5F5F5F5F5F5F5F5F5F5F5
310
F5F5F5F5F5F5F5F5F5F5F5F5F5F5F5F5F5F5F5F5F5F5F5F5F5F5F5F5F5F5F5F5F5F5F5F5F5F5F5F5F5F5F5F5F5F5F5F5F5F5F5F5F5F5F5F5F5F5F5F5F5F5F5F5F5F5F5F5F5F5F5F5F5F5F5F5F5F5F5F5F5E2F5F5F5F5F5F5F5F5F5F5F5F5F5F5F5F5E2F5F5F5E2E2EFF5F5F5E2F5F5F5F5F5F5F5F5F5F5F5F5F5F5F5F5E2F5
310
F5F5F5F5F5F5F5F5F5F5F5F5F5F5F5F5F5F5F5F5F5F5F5F5F5F5F5F5F5F5F5F5F5F5F5F5F5F5F5F5F5F5F5F5F5F5F5F5F5F5F5F5F5F5F5F5F5F5F5F5F5F5F5F5F5F5F5F5F5F5F5F5F5F5F5F5F5F5F5F5F5F5F5F5F5F5F5F5F5F5F5F5F5F5F5F5F5F5F5F5F5F5F5F5F5F5F5F5F5F5F5F5F5F5F5F5F5F5F5F5F5F5F5F5F5F5F5
310
F5F5F5F5F5F5F5E2F5F5F5F5F5F5F5F5F5F5F5F5F5F5F5F5E2F5F5F5E2E2EFF5F5F5E2F5F5F5F5F5F5F5F5F5F5F5F5F5F5F5F5E2F5F5F5F5F5F5F5F5F5F5F5F5F5F5F5F5F5F5F5F5F5F5F5F5F5F5F5F5F5F5F5F5F5F5F5F5F5F5F5F5F5F5F5F5F5F5F5F5F5F5F5F5F5F5F5F5F5F5F5F5F5F5F5F5F5F5F5F5F5F5F5F5F5F5F5
310
F5F5F5F5F5F5F5F5F5F5F5F5F5F5F5F5F5F5F5F5F5F5F5F5F5F5F5F5F5F5F5F5F5F5F5F5F5F5F5F5F5F5F5F5F5F5F5F5F5F5F5F5F5F5F5F5F5F5F5F5E2F5F5F5F5F5F5F5F5F5F5F5F5F5F5F5F5E2F5F5F5E2E2EFF5F5F5E2F5F5F5F5F5F5F5F5F5F5F5F5F5F5F5F5E2F5F5F5F5F5F5F5F5F5F5F5F5F5F5F5F5F5F5F5F5F5F5
310
F5F5F5F5F5F5F5F5F5F5F5F5F5F5F5F5F5F5F5F5F5F5F5F5F5F5F5F5F5F5F5F5F5F5F5F5F5F5F5F5F5F5F5F5F5F5F5F5F5F5F5F5F5F5F5F5F5F5F5F5F5F5F5F5F5F5F5F5F5F5F5F5F5F5F5F5F5F5F5F5F5F5F5F5F5F5F5F5F5F5F5F5F5F5F5F5F5F5F5F5F5F5F5F5F5F5F5F5F5F5F5F5F5E2F5F5F5F5F5F5F5F5F5F5F5F5F5
310
F5F5F5E2F5F5F5E2E2EFF5F5F5E2F5F5F5F5F5F5F5F5F5F5F5F5F5F5F5F5E2F5F5F5F5F5F5F5F5F5F5F5F5F5F5F5F5F5F5F5F5F5F5F5F5F5F5F5F5F5F5F5F5F5F5F5F5F5F5F5F5F5F5F5F5F5F5F5F5F5F5F5F5F5F5F5F5F5F5F5F5F5F5F5F5F5F5F5F5F5F5F5F5F5F5F5F5F5F5F5F5F5F5F5F5F5F5F5F5F5F5F5F5F5F5F5F5
310
F5F5F5F5F5F5F5F5F5F5F5F5F5F5F5F5F5F5F5F5F5F5F5F5F5F5F5F5F5F5F5F5F5F5F5F5F5F5F5E2F5F5F5F5F5F5F5F5F5F5F5F5F5F5F5F5E2F5F5F5E2E2EFF5F5F5E2F5F5F5F5F5F5F5F5F5F5F5F5F5F5F5F5E2F5F5F5F5F5F5F5F5F5F5F5F5F5F5F5F5F5F5F5F5F5F5F5F5F5F5F5F5F5F5F5F5F5F5F5F5F5F5F5F5F5F5F5
310
F5F5F5F5F5F5F5F5F5F5F5F5F5F5F5F5F5F5F5F5F5F5F5F5F5F5F5F5F5F5F5F5F5F5F5F5F5F5F5F5F5F5F5F5F5F5F5F5F5F5F5F5F5F5F5F5F5F5F5F5F5F5F5F5F5F5F5F5F5F5F5F5F5F5F5F5F5F5F5F5F5F5F5F5F5F5F5F5F5F5F5F5E2F5F5F5F5F5F5F5F5F5F5F5F5F5F5F5F5E2F5F5F5E2E2EFF5F5F5E2F5F5F5F5F5F5F5
310
F5F5F5F5F5F5F5F5F5E2F5F5F5F5F5F5F5F5F5F5F5F5F5F5F5F5F5F5F5F5F5F5F5F5F5F5F5F5F5F5F5F5F5F5F5F5F5F5F5F5F5F5F5F5F5F5F5F5F5F5F5F5F5F5F5F5F5F5F5F5F5F5F5F5F5F5F5F5F5F5F5F5F5F5F5F5F5F5F5F5F5F5F5F5F5F5F5F5F5F5F5F5F5F5F5F5F5F5F5F5F5F5F5F5F5F5F5F5F5F5F5F5F5F5F5F5F5
310
F5F5F5F5F5F5F5F5F5F5F5F5F5F5F5F5F5F5E2F5F5F5F5F5F5F5F5F5F5F5F5F5F5F5F5E2F5F5F5E2E2EFF5F5F5E2F5F5F5F5F5F5F5F5F5F5F5F5F5F5F5F5E2F5F5F5F5F5F5F5F5F5F5F5F5F5F5F5F5F5F5F5F5F5F5F5F5F5F5F5F5F5F5F5F5F5F5F5F5F5F5F5F5F5F5F5F5F5F5F5F5F5F5F5F5F5F5F5F5F5F5F5F5F5F5F5F5
310
F5F5F5F5F5F5F5F5F5F5F5F5F5F5F5F5F5F5F5F5F5F5F5F5F5F5F5F5F5F5F5F5F5F5F5F5F5F5F5F5F5F5F5F5F5F5F5F5F5F5F5F5F5F5F5F5F5F5F5F5F5F5F5F5F5F5F5F5F5F5F5E2F5F5F5F5F5F5F5F5F5F5F5F5F5F5F5F5E2F5F5F5E2E2EFF5F5F5E2F5F5F5F5F5F5F5F5F5F5F5F5F5F5F5F5E2F5F5F5F5F5F5F5F5F5F5F5
310
F5F5F5F5F5F5F5F5F5F5F5F5F5F5F5F5F5F5F5F5F5F5F5F5F5F5F5F5F5F5F5F5F5F5F5F5F5F5F5F5F5F5F5F5F5F5F5F5F5F5F5F5F5F5F5F5F5F5F5F5F5F5F5F5F5F5F5F5F5F5F5F5F5F5F5F5F5F5F5F5F5F5F5F5F5F5F5F5F5F5F5F5F5F5F5F5F5F5F5F5F5F5F5F5F5F5F5F5F5F5F5F5F5F5F5F5F5F5F5F5F5F5F5F5E2F5F5
310
F5F5F5F5F5F5F5F5F5F5F5F5F5F5E2F5F5F5E2E2EFF5F5F5E2F5F5F5F5F5F5F5F5F5F5F5F5F5F5F5F5E2F5F5F5F5F5F5F5F5F5F5F5F5F5F5F5F5F5F5F5F5F5F5F5F5F5F5F5F5F5F5F5F5F5F5F5F5F5F5F5F5F5F5F5F5F5F5F5F5F5F5F5F5F5F5F5F5F5F5F5F5F5F5F5F5F5F5F5F5F5F5F5F5F5F5F5F5F5F5F5F5F5F5F5F5F5
310
F5F5F5F5F5F5F5F5F5F5F5F5F5F5F5F5F5F5F5F5F5F5F5F5F5F5F5F5F5F5F5F5F5F5F5F5F5F5F5F5F5F5F5F5F5F5F5F5F5F5E2F5F5F5F5F5F5F5F5F5F5F5F5F5F5F5F5E2F5F5F5E2E2EFF5F5F5E2F5F5F5F5F5F5F5F5F5F5F5F5F5F5F5F5E2F5F5F5F5F5F5F5F5F5F5F5F5F5F5F5F5F5F5F5F5F5F5F5F5F5F5F5F5F5F5F5F5
310
F5F5F5F5F5F5F5F5F5F5F5F5F5F5F5F5F5F5F5F5F5F5F5F5F5F5F5F5F5F5F5F5F5F5F5F5F5F5F5F5F5F5F5F5F5F5F5F5F5F5F5F5F5F5F5F5F5F5F5F5F5F5F5F5F5F5F5F5F5F5F5F5F5F5F5F5F5F5F5F5F5F5F5F5F5F5F5F5F5F5F5F5F5F5F5F5F5F5F5F5F5F5F5E2F5F5F5F5F5F5F5F5F5F5F5F5F5F5F5F5E2F5F5F5E2E2EF
310
F5F5F5E2F5F5F5F5F5F5F5F5F5F5F5F5F5F5F5F5E2F5F5F5F5F5F5F5F5F5F5F5F5F5F5F5F5F5F5F5F5F5F5F5F5F5F5F5F5F5F5F5F5F5F5F5F5F5F5F5F5F5F5F5F5F5F5F5F5F5F5F5F5F5F5F5F5F5F5F5F5F5F5F5F5F5F5F5F5F5F5F5F5F5F5F5F5F5F5F5F5F5F5F5F5F5F5F5F5F5F5F5F5F5F5F5F5F5F5F5F5F5F5F5F5F5F5
310
F5F5F5F5F5F5F5F5F5F5F5F5F5F5F5F5F5F5F5F5F5F5F5F5F5F5F5F5F5E2F5F5F5F5F5F5F5F5F5F5F5F5F5F5F5F5E2F5F5F5E2E2EFF5F5F5E2F5F5F5F5F5F5F5F5F5F5F5F5F5F5F5F5E2F5F5F5F5F5F5F5F5F5F5F5F5F5F5F5F5F5F5F5F5F5F5F5F5F5F5F5F5F5F5F5F5F5F5F5F5F5F5F5F5F5F5F5F5F5F5F5F5F5F5F5F5F5
310
F5F5F5F5F5F5F5F5F5F5F5F5F5F5F5F5F5F5F5F5F5F5F5F5F5F5F5F5F5F5F5F5F5F5F5F5F5F5F5F5F5F5F5F5F5F5F5F5F5F5F5F5F5F5F5F5F5F5F5F5F5F5F5F5F5F5F5F5F5F5F5F5F5F5F5F5F5F5F5F5F5F5E2F5F5F5F5F5F5F5F5F5F5F5F5F5F5F5F5E2F5F5F5E2E2EFF5F5F5E2F5F5F5F5F5F5F5F5F5F5F5F5F5F5F5F5E2
310
F5F5F5F5F5F5F5F5F5F5F5F5F5F5F5F5F5F5F5F5F5F5F5F5F5F5F5F5F5F5F5F5F5F5F5F5F5F5F5F5F5F5F5F5F5F5F5F5F5F5F5F5F5F5F5F5F5F5F5F5F5F5F5F5F5F5F5F5F5F5F5F5F5F5F5F5F5F5F5F5F5F5F5F5F5F5F5F5F5F5F5F5F5F5F5F5F5F5F5F5F5F5F5F5F5F5F5F5F5F5F5F5F5F5F5F5F5F5F5F5F5F5F5F5F5F5F5
310
F5F5F5F5F5F5F5F5E2F5F5F5F5F5F5F5F5F5F5F5F5F5F5F5F5E2F5F5F5E2E2EFF5F5F5E2F5F5F5F5F5F5F5F5F5F5F5F5F5F5F5F5E2F5F5F5F5F5F5F5F5F5F5F5F5F5F5F5F5F5F5F5F5F5F5F5F5F5F5F5F5F5F5F5F5F5F5F5F5F5F5F5F5F5F5F5F5F5F5F5F5F5F5F5F5F5F5F5F5F5F5F5F5F5F5F5F5F5F5F5F5F5F5F5F5F5F5
310
F5F5F5F5F5F5F5F5F5F5F5F5F5F5F5F5F5F5F5F5F5F5F5F5F5F5F5F5F5F5F5F5F5F5F5F5F5F5F5F5F5F5F5F5F5F5F5F5F5F5F5F5F5F5F5F5F5F5F5F5F5E2F5F5F5F5F5F5F5F5F5F5F5F5F5F5F5F5E2F5F5F5E2E2EFF5F5F5E2F5F5F5F5F5F5F5F5F5F5F5F5F5F5F5F5E2F5F5F5F5F5F5F5F5F5F5F5F5F5F5F5F5F5F5F5F5F5
310
F5F5F5F5F5F5F5F5F5F5F5F5F5F5F5F5F5F5F5F5F5F5F5F5F5F5F5F5F5F5F5F5F5F5F5F5F5F5F5F5F5F5F5F5F5F5F5F5F5F5F5F5F5F5F5F5F5F5F5F5F5F5F5F5F5F5F5F5F5F5F5F5F5F5F5F5F5F5F5F5F5F5F5F5F5F5F5F5F5F5F5F5F5F5F5F5F5F5F5F5F5F5F5F5F5F5F5F5F5F5F5F5F5F5E2F5F5F5F5F5F5F5F5F5F5F5F5
310
F5F5F5F5E2F5F5F5E2E2EFF5F5F5E2F5F5F5F5F5F5F5F5F5F5F5F5F5F5F5F5E2F5F5F5F5F5F5F5F5F5F5F5F5F5F5F5F5F5F5F5F5F5F5F5F5F5F5F5F5F5F5F5F5F5F5F5F5F5F5F5F5F5F5F5F5F5F5F5F5F5F5F5F5F5F5F5F5F5F5F5F5F5F5F5F5F5F5F5F5F5F5F5F5F5F5F5F5F5F5F5F5F5F5F5F5F5F5F5F5F5F5F5F5F5F5F5
310
F5F5F5F5F5F5F5F5F5F5F5F5F5F5F5F5F5F5F5F5F5F5F5F5F5F5F5F5F5F5F5F5F5F5F5F5F5F5F5F5E2F5F5F5F5F5F5F5F5F5F5F5F5F5F5F5F5E2F5F5F5E2E2EFF5F5F5F5F5F5F5F5F5F5F5F5F5F5F5F5F5F5F5F5E2F5F5F5F5F5F5F5F5F5F5F5F5F5F5F5F5F5F5F5F5F5F5F5F5F5F5F5F5F5F5F5F5F5F5F5F5F5F5F5F5F5F5
310
F5F5F5F5F5F5F5F5F5F5F5F5F5F5F5F5F5F5F5F5F5F5F5F5F5F5F5F5F5F5F5F5F5F5F5F5F5F5F5F5F5F5F5F5F5F5F5F5F5F5F5F5F5F5F5F5F5F5F5F5F5F5F5F5F5F5F5F5F5F5F5F5F5F5F5F5F5F5F5F5F5F5F5F5F5F5F5F5F5F5F5F5F5E2F5F5F5F5F5F5F5F5F5F5F5F5F5F5F5F5F5F5F5F5E2E2EFF5F5F5F5F5F5F5F5F5F5
310
F5F5F5F5F5F5F5F5F5F5E2F5F5F5F5F5F5F5F5F5F5F5F5F5F5F5F5F5F5F5F5F5F5F5F5F5F5F5F5F5F5F5F5F5F5F5F5F5F5F5F5F5F5F5F5F5F5F5F5F5F5F5F5F5F5F5F5F5F5F5F5F5F5F5F5F5F5F5F5F5F5F5F5F5F5F5F5F5F5F5F5F5F5F5F5F5F5F5F5F5F5F5F5F5F5F5F5F5F5F5F5F5F5F5F5F5F5F5F5F5F5F5F5F5F5F5F5
310
F5F5F5F5F5F5F5F5F5F5F5F5F5F5F5F5F5F5F5E2F5F5F5F5F5F5F5F5F5F5F5F5F5F5F5F5F5F5F5F5E2E2EFF5F5F5F5F5F5F5F5F5F5F5F5F5F5F5F5F5F5F5F5E2F5F5F5F5F5F5F5F5F5F5F5F5F5F5F5F5F5F5F5F5F5F5F5F5F5F5F5F5F5F5F5F5F5F5F5F5F5F5F5F5F5F5F5F5F5F5F5F5F5F5F5F5F5F5F5F5F5F5F5F5F5F5F5
310
F5F5F5F5F5F5F5F5F5F5F5F5F5F5F5F5F5F5F5F5F5F5F5F5F5F5F5F5F5F5F5F5F5F5F5F5F5F5F5F5F5F5F5F5F5F5F5F5F5F5F5F5F5F5F5F5F5F5F5F5F5F5F5F5F5F5F5F5F5F5F5F5E2F5F5F5F5F5F5F5F5F5F5F5F5F5F5F5F5F5F5F5F5E2E2EFF5F5F5F5F5F5F5F5F5F5F5F5F5F5F5F5F5F5F5F5E2F5F5F5F5F5F5F5F5F5F5
310
F5F5F5F5F5F5F5F5F5F5F5F5F5F5F5F5F5F5F5F5F5F5F5F5F5F5F5F5F5F5F5F5F5F5F5F5F5F5F5F5F5F5F5F5F5F5F5F5F5F5F5F5F5F5F5F5F5F5F5F5F5F5F5F5F5F5F5F5F5F5F5F5F5F5F5F5F5F5F5F5F5F5F5F5F5F5F5F5F5F5F5F5F5F5F5F5F5F5F5F5F5F5F5F5F5F5F5F5F5F5F5F5F5F5F5F5F5F5F5F5F5F5F5F5F5E2F5
310
F5F5F5F5F5F5F5F5F5F5F5F5F5F5F5F5F5F5F5E2E2EFF5F5F5F5F5F5F5F5F5F5F5F5F5F5F5F5F5F5F5F5E2F5F5F5F5F5F5F5F5F5F5F5F5F5F5F5F5F5F5F5F5F5F5F5F5F5F5F5F5F5F5F5F5F5F5F5F5F5F5F5F5F5F5F5F5F5F5F5F5F5F5F5F5F5F5F5F5F5F5F5F5F5F5F5F5F5F5F5F5F5F5F5F5F5F5F5F5F5F5F5F5F5F5F5F5
310
F5F5F5F5F5F5F5F5F5F5F5F5F5F5F5F5F5F5F5F5F5F5F5F5F5F5F5F5F5F5F5F5F5F5F5F5F5F5F5F5F5F5F5F5F5F5F5F5F5F5F5E2F5F5F5F5F5F5F5F5F5F5F5F5F5F5F5F5F5F5F5F5E2E2EFF5F5F5F5F5F5F5F5F5F5F5F5F5F5F5F5F5F5F5F5E2F5F5F5F5F5F5F5F5F5F5F5F5F5F5F5F5F5F5F5F5F5F5F5F5F5F5F5F5F5F5F5
310
F5F5F5F5F5F5F5F5F5F5F5F5F5F5F5F5F5F5F5F5F5F5F5F5F5F5F5F5F5F5F5F5F5F5F5F5F5F5F5F5F5F5F5F5F5F5F5F5F5F5F5F5F5F5F5F5F5F5F5F5F5F5F5F5F5F5F5F5F5F5F5F5F5F5F5F5F5F5F5F5F5F5F5F5F5F5F5F5F5F5F5F5F5F5F5F5F5F5F5F5F5F5F5F5E2F5F5F5F5F5F5F5F5F5F5F5F5F5F5F5F5F5F5F5F5E2E2
310
EFF5F5F5F5F5F5F5F5F5F5F5F5F5F5F5F5F5F5F5F5E2F5F5F5F5F5F5F5F5F5F5F5F5F5F5F5F5F5F5F5F5F5F5F5F5F5F5F5F5F5F5F5F5F5F5F5F5F5F5F5F5F5F5F5F5F5F5F5F5F5F5F5F5F5F5F5F5F5F5F5F5F5F5F5F5F5F5F5F5F5F5F5F5F5F5F5F5F5F5F5F5F5F5F5F5F5F5F5F5F5F5F5F5F5F5F5F5F5F5F5F5F5F5F5F5F5
310
F5F5F5F5F5F5F5F5F5F5F5F5F5F5F5F5F5F5F5F5F5F5F5F5F5F5F5F5F5F5E2F5F5F5F5F5F5F5F5F5F5F5F5F5F5F5F5F5F5F5F5E2E2EFF5F5F5F5F5F5F5F5F5F5F5F5F5F5F5F5F5F5F5F5E2F5F5F5F5F5F5F5F5F5F5F5F5F5F5F5F5F5F5F5F5F5F5F5F5F5F5F5F5F5F5F5F5F5F5F5F5F5F5F5F5F5F5F5F5F5F5F5F5F5F5F5F5
310
F5F5F5F5F5F5F5F5F5F5F5F5F5F5F5F5F5F5F5F5F5F5F5F5F5F5F5F5F5F5F5F5F5F5F5F5F5F5F5F5F5F5F5F5F5F5F5F5F5F5F5F5F5F5F5F5F5F5F5F5F5F5F5F5F5F5F5F5F5F5F5F5F5F5F5F5F5F5F5F5F5F5F5E2F5F5F5F5F5F5F5F5F5F5F5F5F5F5F5F5F5F5F5F5E2E2EFF5F5F5F5F5F5F5F5F5F5F5F5F5F5F5F5F5F5F5F5
310
E2F5F5F5F5F5F5F5F5F5F5F5F5F5F5F5F5F5F5F5F5F5F5F5F5F5F5F5F5F5F5F5F5F5F5F5F5F5F5F5F5F5F5F5F5F5F5F5F5F5F5F5F5F5F5F5F5F5F5F5F5F5F5F5F5F5F5F5F5F5F5F5F5F5F5F5F5F5F5F5F5F5F5F5F5F5F5F5F5F5F5F5F5F5F5F5F5F5F5F5F5F5F5F5F5F5F5F5F5F5F5F5F5F5F5F5F5F5F5F5F5F5F5F5F5F5F5
310
F5F5F5F5F5F5F5F5F5E2F5F5F5F5F5F5F5F5F5F5F5F5F5F5F5F5F5F5F5F5E2E2EFF5F5F5E2F5F5F5F5F5F5F5F5F5F5F5F5F5F5F5F5E2F5F5F5F5F5F5F5F5F5F5F5F5F5F5F5F5F5F5F5F5F5F5F5F5F5F5F5F5F5F5F5F5F5F5F5F5F5F5F5F5F5F5F5F5F5F5F5F5F5F5F5F5F5F5F5F5F5F5F5F5F5F5F5F5F5F5F5F5F5F5F5F5F5
310
F5F5F5F5F5F5F5F5F5F5F5F5F5F5F5F5F5F5F5F5F5F5F5F5F5F5F5F5F5F5F5F5F5F5F5F5F5F5F5F5F5F5F5F5F5F5F5F5F5F5F5F5F5F5F5F5F5F5F5F5F5F5E2F5F5F5F5F5F5F5F5F5F5F5F5F5F5F5F5E2F5F5F5E2E2EFF5F5F5E2F5F5F5F5F5F5F5F5F5F5F5F5F5F5F5F5E2F5F5F5F5F5F5F5F5F5F5F5F5F5F5F5F5F5F5F5F5
310
F5F5F5F5F5F5F5F5F5F5F5F5F5F5F5F5F5F5F5F5F5F5F5F5F5F5F5F5F5F5F5F5F5F5F5F5F5F5F5F5F5F5F5F5F5F5F5F5F5F5F5F5F5F5F5F5F5F5F5F5F5F5F5F5F5F5F5F5F5F5F5F5F5F5F5F5F5F5F5F5F5F5F5F5F5F5F5F5F5F5F5F5F5F5F5F5F5F5F5F5F5F5F5F5F5F5F5F5F5F5F5F5F5F5F5E2F5F5F5F5F5F5F5F5F5F5F5
310
F5F5F5F5F5E2F5F5F5E2E2EFF5F5F5E2F5F5F5F5F5F5F5F5F5F5F5F5F5F5F5F5E2F5F5F5F5F5F5F5F5F5F5F5F5F5F5F5F5F5F5F5F5F5F5F5F5F5F5F5F5F5F5F5F5F5F5F5F5F5F5F5F5F5F5F5F5F5F5F5F5F5F5F5F5F5F5F5F5F5F5F5F5F5F5F5F5F5F5F5F5F5F5F5F5F5F5F5F5F5F5F5F5F5F5F5F5F5F5F5F5F5F5F5F5F5F5
310
F5F5F5F5F5F5F5F5F5F5F5F5F5F5F5F5F5F5F5F5F5F5F5F5F5F5F5F5F5F5F5F5F5F5F5F5F5F5F5F5F5E2F5F5F5F5F5F5F5F5F5F5F5F5F5F5F5F5E2F5F5F5E2E2EFF5F5F5E2F5F5F5F5F5F5F5F5F5F5F5F5F5F5F5F5E2F5F5F5F5F5F5F5F5F5F5F5F5F5F5F5F5F5F5F5F5F5F5F5F5F5F5F5F5F5F5F5F5F5F5F5F5F5F5F5F5F5
310
F5F5F5F5F5F5F5F5F5F5F5F5F5F5F5F5F5F5F5F5F5F5F5F5F5F5F5F5F5F5F5F5F5F5F5F5F5F5F5F5F5F5F5F5F5F5F5F5F5F5F5F5F5F5F5F5F5F5F5F5F5F5F5F5F5F5F5F5F5F5F5F5F5F5F5F5F5F5F5F5F5F5F5F5F5F5F5F5F5F5F5F5F5F5E2F5F5F5F5F5F5F5F5F5F5F5F5F5F5F5F5E2F5F5F5E2E2EFF5F5F5E2F5F5F5F5F5
310
F5F5F5F5F5F5F5F5F5F5F5E2F5F5F5F5F5F5F5F5F5F5F5F5F5F5F5F5F5F5F5F5F5F5F5F5F5F5F5F5F5F5F5F5F5F5F5F5F5F5F5F5F5F5F5F5F5F5F5F5F5F5F5F5F5F5F5F5F5F5F5F5F5F5F5F5F5F5F5F5F5F5F5F5F5F5F5F5F5F5F5F5F5F5F5F5F5F5F5F5F5F5F5F5F5F5F5F5F5F5F5F5F5F5F5F5F5F5F5F5F5F5F5F5F5F5F5
310
F5F5F5F5F5F5F5F5F5F5F5F5F5F5F5F5F5F5F5F5E2F5F5F5F5F5F5F5F5F5F5F5F5F5F5F5F5E2F5F5F5E2E2EFF5F5F5E2F5F5F5F5F5F5F5F5F5F5F5F5F5F5F5F5E2F5F5F5F5F5F5F5F5F5F5F5F5F5F5F5F5F5F5F5F5F5F5F5F5F5F5F5F5F5F5F5F5F5F5F5F5F5F5F5F5F5F5F5F5F5F5F5F5F5F5F5F5F5F5F5F5F5F5F5F5F5F5
310
F5F5F5F5F5F5F5F5F5F5F5F5F5F5F5F5F5F5F5F5F5F5F5F5F5F5F5F5F5F5F5F5F5F5F5F5F5F5F5F5F5F5F5F5F5F5F5F5F5F5F5F5F5F5F5F5F5F5F5F5F5F5F5F5F5F5F5F5F5F5F5F5F5E2F5F5F5F5F5F5F5F5F5F5F5F5F5F5F5F5E2F5F5F5E2E2EFF5F5F5E2F5F5F5F5F5F5F5F5F5F5F5F5F5F5F5F5E2F5F5F5F5F5F5F5F5F5
310
F5F5F5F5F5F5F5F5F5F5F5F5F5F5F5F5F5F5F5F5F5F5F5F5F5F5F5F5F5F5F5F5F5F5F5F5F5F5F5F5F5F5F5F5F5F5F5F5F5F5F5F5F5F5F5F5F5F5F5F5F5F5F5F5F5F5F5F5F5F5F5F5F5F5F5F5F5F5F5F5F5F5F5F5F5F5F5F5F5F5F5F5F5F5F5F5F5F5F5F5F5F5F5F5F5F5F5F5F5F5F5F5F5F5F5F5F5F5F5F5F5F5F5F5F5F5E2
310
F5F5F5F5F5F5F5F5F5F5F5F5F5F5F5F5E2F5F5F5E2E2EFF5F5F5E2F5F5F5F5F5F5F5F5F5F5F5F5F5F5F5F5E2F5F5F5F5F5F5F5F5F5F5F5F5F5F5F5F5F5F5F5F5F5F5F5F5F5F5F5F5F5F5F5F5F5F5F5F5F5F5F5F5F5F5F5F5F5F5F5F5F5F5F5F5F5F5F5F5F5F5F5F5F5F5F5F5F5F5F5F5F5F5F5F5F5F5F5F5F5F5F5F5F5F5F5
310
F5F5F5F5F5F5F5F5F5F5F5F5F5F5F5F5F5F5F5F5F5F5F5F5F5F5F5F5F5F5F5F5F5F5F5F5F5F5F5F5F5F5F5F5F5F5F5F5F5F5F5F5E2F5F5F5F5F5F5F5F5F5F5F5F5F5F5F5F5E2F5F5F5E2E2EFF5F5F5E2F5F5F5F5F5F5F5F5F5F5F5F5F5F5F5F5E2F5F5F5F5F5F5F5F5F5F5F5F5F5F5F5F5F5F5F5F5F5F5F5F5F5F5F5F5F5F5
310
F5F5F5F5F5F5F5F5F5F5F5F5F5F5F5F5F5F5F5F5F5F5F5F5F5F5F5F5F5F5F5F5F5F5F5F5F5F5F5F5F5F5F5F5F5F5F5F5F5F5F5F5F5F5F5F5F5F5F5F5F5F5F5F5F5F5F5F5F5F5F5F5F5F5F5F5F5F5F5F5F5F5F5F5F5F5F5F5F5F5F5F5F5F5F5F5F5F5F5F5F5F5F5F5F5E2F5F5F5F5F5F5F5F5F5F5F5F5F5F5F5F5E2F5F5F5E2
310
E2EFF5F5F5E2F5F5F5F5F5F5F5F5F5F5F5F5F5F5F5F5E2F5F5F5F5F5F5F5F5F5F5F5F5F5F5F5F5F5F5F5F5F5F5F5F5F5F5F5F5F5F5F5F5F5F5F5F5F5F5F5F5F5F5F5F5F5F5F5F5F5F5F5F5F5F5F5F5F5F5F5F5F5F5F5F5F5F5F5F5F5F5F5F5F5F5F5F5F5F5F5F5F5F5F5F5F5F5F5F5F5F5F5F5F5F5F5F5F5F5F5F5F5F5F5F5
310
F5F5F5F5F5F5F5F5F5F5F5F5F5F5F5F5F5F5F5F5F5F5F5F5F5F5F5F5F5F5F5E2F5F5F5F5F5F5F5F5F5F5F5F5F5F5F5F5E2F5F5F5E2E2EFF5F5F5E2F5F5F5F5F5F5F5F5F5F5F5F5F5F5F5F5E2F5F5F5F5F5F5F5F5F5F5F5F5F5F5F5F5F5F5F5F5F5F5F5F5F5F5F5F5F5F5F5F5F5F5F5F5F5F5F5F5F5F5F5F5F5F5F5F5F5F5F5
310
F5F5F5F5F5F5F5F5F5F5F5F5F5F5F5F5F5F5F5F5F5F5F5F5F5F5F5F5F5F5F5F5F5F5F5F5F5F5F5F5F5F5F5F5F5F5F5F5F5F5F5F5F5F5F5F5F5F5F5F5F5F5F5F5F5F5F5F5F5F5F5F5F5F5F5F5F5F5F5F5F5F5F5F5E2F5F5F5F5F5F5F5F5F5F5F5F5F5F5F5F5E2F5F5F5E2E2EFF5F5F5E2F5F5F5F5F5F5F5F5F5F5F5F5F5F5F5
310
F5E2F5F5F5F5F5F5F5F5F5F5F5F5F5F5F5F5F5F5F5F5F5F5F5F5F5F5F5F5F5F5F5F5F5F5F5F5F5F5F5F5F5F5F5F5F5F5F5F5F5F5F5F5F5F5F5F5F5F5F5F5F5F5F5F5F5F5F5F5F5F5F5F5F5F5F5F5F5F5F5F5F5F5F5F5F5F5F5F5F5F5F5F5F5F5F5F5F5F5F5F5F5F5F5F5F5F5F5F5F5F5F5F5F5F5F5F5F5F5F5F5F5F5F5F5F5
310
F5F5F5F5F5F5F5F5F5F5E2F5F5F5F5F5F5F5F5F5F5F5F5F5F5F5F5E2F5F5F5E2E2EFF5F5F5E2F5F5F5F5F5F5F5F5F5F5F5F5F5F5F5F5E2F5F5F5F5F5F5F5F5F5F5F5F5F5F5F5F5F5F5F5F5F5F5F5F5F5F5F5F5F5F5F5F5F5F5F5F5F5F5F5F5F5F5F5F5F5F5F5F5F5F5F5F5F5F5F5F5F5F5F5F5F5F5F5F5F5F5F5F5F5F5F5F5
310
F5F5F5F5F5F5F5F5F5F5F5F5F5F5F5F5F5F5F5F5F5F5F5F5F5F5F5F5F5F5F5F5F5F5F5F5F5F5F5F5F5F5F5F5F5F5F5F5F5F5F5F5F5F5F5F5F5F5F5F5F5F5F5E2F5F5F5F5F5F5F5F5F5F5F5F5F5F5F5F5E2F5F5F5E2E2EFF5F5F5E2F5F5F5F5F5F5F5F5F5F5F5F5F5F5F5F5E2F5F5F5F5F5F5F5F5F5F5F5F5F5F5F5F5F5F5F5
310
F5F5F5F5F5F5F5F5F5F5F5F5F5F5F5F5F5F5F5F5F5F5F5F5F5F5F5F5F5F5F5F5F5F5F5F5F5F5F5F5F5F5F5F5F5F5F5F5F5F5F5F5F5F5F5F5F5F5F5F5F5F5F5F5F5F5F5F5F5F5F5F5F5F5F5F5F5F5F5F5F5F5F5F5F5F5F5F5F5F5F5F5F5F5F5F5F5F5F5F5F5F5F5F5F5F5F5F5F5F5F5F5F5F5F5F5E2F5F5F5F5F5F5F5F5F5F5
310
F5F5F5F5F5F5E2F5F5F5E2E2EFF5F5F5E2F5F5F5F5F5F5F5F5F5F5F5F5F5F5F5F5E2F5F5F5F5F5F5F5F5F5F5F5F5F5F5F5F5F5F5F5F5F5F5F5F5F5F5F5F5F5F5F5F5F5F5F5F5F5F5F5F5F5F5F5F5F5F5F5F5F5F5F5F5F5F5F5F5F5F5F5F5F5F5F5F5F5F5F5F5F5F5F5F5F5F5F5F5F5F5F5F5F5F5F5F5F5F5F5F5F5F5F5F5F5
310
F5F5F5F5F5F5F5F5F5F5F5F5F5F5F5F5F5F5F5F5F5F5F5F5F5F5F5F5F5F5F5F5F5F5F5F5F5F5F5F5F5F5E2F5F5F5F5F5F5F5F5F5F5F5F5F5F5F5F5E2F5F5F5E2E2EFF5F5F5E2F5F5F5F5F5F5F5F5F5F5F5F5F5F5F5F5E2F5F5F5F5F5F5F5F5F5F5F5F5F5F5F5F5F5F5F5F5F5F5F5F5F5F5F5F5F5F5F5F5F5F5F5F5F5F5F5F5
310
F5F5F5F5F5F5F5F5F5F5F5F5F5F5F5F5F5F5F5F5F5F5F5F5F5F5F5F5F5F5F5F5F5F5F5F5F5F5F5F5F5F5F5F5F5F5F5F5F5F5F5F5F5F5F5F5F5F5F5F5F5F5F5F5F5F5F5F5F5F5F5F5F5F5F5F5F5F5F5F5F5F5F5F5F5F5F5F5F5F5F5F5F5F5F5E2F5F5F5F5F5F5F5F5F5F5F5F5F5F5F5F5E2F5F5F5E2E2EFF5F5F5E2F5F5F5F5
310
F5F5F5F5F5F5F5F5F5F5F5F5E2F5F5F5F5F5F5F5F5F5F5F5F5F5F5F5F5F5F5F5F5F5F5F5F5F5F5F5F5F5F5F5F5F5F5F5F5F5F5F5F5F5F5F5F5F5F5F5F5F5F5F5F5F5F5F5F5F5F5F5F5F5F5F5F5F5F5F5F5F5F5F5F5F5F5F5F5F5F5F5F5F5F5F5F5F5F5F5F5F5F5F5F5F5F5F5F5F5F5F5F5F5F5F5F5F5F5F5F5F5F5F5F5F5F5
310
F5F5F5F5F5F5F5F5F5F5F5F5F5F5F5F5F5F5F5F5F5E2F5F5F5F5F5F5F5F5F5F5F5F5F5F5F5F5E2F5F5F5E2E2EFF5F5F5F5F5F5F5F5F5F5F5F5F5F5F5F5F5F5F5F5E2F5F5F5F5F5F5F5F5F5F5F5F5F5F5F5F5F5F5F5F5F5F5F5F5F5F5F5F5F5F5F5F5F5F5F5F5F5F5F5F5F5F5F5F5F5F5F5F5F5F5F5F5F5F5F5F5F5F5F5F5F5
310
F5F5F5F5F5F5F5F5F5F5F5F5F5F5F5F5F5F5F5F5F5F5F5F5F5F5F5F5F5F5F5F5F5F5F5F5F5F5F5F5F5F5F5F5F5F5F5F5F5F5F5F5F5F5F5F5F5F5F5F5F5F5F5F5F5F5F5F5F5F5F5F5F5F5E2F5F5F5F5F5F5F5F5F5F5F5F5F5F5F5F5F5F5F5F5E2E2EFF5F5F5F5F5F5F5F5F5F5F5F5F5F5F5F5F5F5F5F5E2F5F5F5F5F5F5F5F5
310
F5F5F5F5F5F5F5F5F5F5F5F5F5F5F5F5F5F5F5F5F5F5F5F5F5F5F5F5F5F5F5F5F5F5F5F5F5F5F5F5F5F5F5F5F5F5F5F5F5F5F5F5F5F5F5F5F5F5F5F5F5F5F5F5F5F5F5F5F5F5F5F5F5F5F5F5F5F5F5F5F5F5F5F5F5F5F5F5F5F5F5F5F5F5F5F5F5F5F5F5F5F5F5F5F5F5F5F5F5F5F5F5F5F5F5F5F5F5F5F5F5F5F5F5F5F5F5
310
E2F5F5F5F5F5F5F5F5F5F5F5F5F5F5F5F5F5F5F5F5E2E2EFF5F5F5F5F5F5F5F5F5F5F5F5F5F5F5F5F5F5F5F5E2F5F5F5F5F5F5F5F5F5F5F5F5F5F5F5F5F5F5F5F5F5F5F5F5F5F5F5F5F5F5F5F5F5F5F5F5F5F5F5F5F5F5F5F5F5F5F5F5F5F5F5F5F5F5F5F5F5F5F5F5F5F5F5F5F5F5F5F5F5F5F5F5F5F5F5F5F5F5F5F5F5F5
310
F5F5F5F5F5F5F5F5F5F5F5F5F5F5F5F5F5F5F5F5F5F5F5F5F5F5F5F5F5F5F5F5F5F5F5F5F5F5F5F5F5F5F5F5F5F5F5F5F5F5F5F5F5E2F5F5F5F5F5F5F5F5F5F5F5F5F5F5F5F5F5F5F5F5E2E2EFF5F5F5F5F5F5F5F5F5F5F5F5F5F5F5F5F5F5F5F5E2F5F5F5F5F5F5F5F5F5F5F5F5F5F5F5F5F5F5F5F5F5F5F5F5F5F5F5F5F5
310
F5F5F5F5F5F5F5F5F5F5F5F5F5F5F5F5F5F5F5F5F5F5F5F5F5F5F5F5F5F5F5F5F5F5F5F5F5F5F5F5F5F5F5F5F5F5F5F5F5F5F5F5F5F5F5F5F5F5F5F5F5F5F5F5F5F5F5F5F5F5F5F5F5F5F5F5F5F5F5F5F5F5F5F5F5F5F5F5F5F5F5F5F5F5F5F5F5F5F5F5F5F5F5F5F5F5E2F5F5F5F5F5F5F5F5F5F5F5F5F5F5F5F5F5F5F5F5
310
E2E2EFF5F5F5F5F5F5F5F5F5F5F5F5F5F5F5F5F5F5F5F5E2F5F5F5F5F5F5F5F5F5F5F5F5F5F5F5F5F5F5F5F5F5F5F5F5F5F5F5F5F5F5F5F5F5F5F5F5F5F5F5F5F5F5F5F5F5F5F5F5F5F5F5F5F5F5F5F5F5F5F5F5F5F5F5F5F5F5F5F5F5F5F5F5F5F5F5F5F5F5F5F5F5F5F5F5F5F5F5F5F5F5F5F5F5F5F5F5F5F5F5F5F5F5F5
310
F5F5F5F5F5F5F5F5F5F5F5F5F5F5F5F5F5F5F5F5F5F5F5F5F5F5F5F5F5F5F5F5E2F5F5F5F5F5F5F5F5F5F5F5F5F5F5F5F5F5F5F5F5E2E2EFF5F5F5F5F5F5F5F5F5F5F5F5F5F5F5F5F5F5F5F5E2F5F5F5F5F5F5F5F5F5F5F5F5F5F5F5F5F5F5F5F5F5F5F5F5F5F5F5F5F5F5F5F5F5F5F5F5F5F5F5F5F5F5F5F5F5F5F5F5F5F5
310
F5F5F5F5F5F5F5F5F5F5F5F5F5F5F5F5F5F5F5F5F5F5F5F5F5F5F5F5F5F5F5F5F5F5F5F5F5F5F5F5F5F5F5F5F5F5F5F5F5F5F5F5F5F5F5F5F5F5F5F5F5F5F5F5F5F5F5F5F5F5F5F5F5F5F5F5F5F5F5F5F5F5F5F5F5E2F5F5F5F5F5F5F5F5F5F5F5F5F5F5F5F5F5F5F5F5E2E2EFF5F5F5F5F5F5F5F5F5F5F5F5F5F5F5F5F5F5
310
F5F5E2F5F5F5F5F5F5F5F5F5F5F5F5F5F5F5F5F5F5F5F5F5F5F5F5F5F5F5F5F5F5F5F5F5F5F5F5F5F5F5F5F5F5F5F5F5F5F5F5F5F5F5F5F5F5F5F5F5F5F5F5F5F5F5F5F5F5F5F5F5F5F5F5F5F5F5F5F5F5F5F5F5F5F5F5F5F5F5F5F5F5F5F5F5F5F5F5F5F5F5F5F5F5F5F5F5F5F5F5F5F5F5F5F5F5F5F5F5F5F5F5F5F5F5F5
310
F5F5F5F5F5F5F5F5F5F5F5E2F5F5F5F5F5F5F5F5F5F5F5F5F5F5F5F5F5F5F5F5E2E2EFF5F5F5F5F5F5F5F5F5F5F5F5F5F5F5F5F5F5F5F5E2F5F5F5F5F5F5F5F5F5F5F5F5F5F5F5F5F5F5F5F5F5F5F5F5F5F5F5F5F5F5F5F5F5F5F5F5F5F5F5F5F5F5F5F5F5F5F5F5F5F5F5F5F5F5F5F5F5F5F5F5F5F5F5F5F5F5F5F5F5F5F5
310
F5F5F5F5F5F5F5F5F5F5F5F5F5F5F5F5F5F5F5F5F5F5F5F5F5F5F5F5F5F5F5F5F5F5F5F5F5F5F5F5F5F5F5F5F5F5F5F5F5F5F5F5F5F5F5F5F5F5F5F5F5F5F5F5E2F5F5F5F5F5F5F5F5F5F5F5F5F5F5F5F5F5F5F5F5E2E2EFF5F5F5F5F5F5F5F5F5F5F5F5F5F5F5F5F5F5F5F5E2F5F5F5F5F5F5F5F5F5F5F5F5F5F5F5F5F5F5
310
F5F5F5F5F5F5F5F5F5F5F5F5F5F5F5F5F5F5F5F5F5F5F5F5F5F5F5F5F5F5F5F5F5F5F5F5F5F5F5F5F5F5F5F5F5F5F5F5F5F5F5F5F5F5F5F5F5F5F5F5F5F5F5F5F5F5F5F5F5F5F5F5F5F5F5F5F5F5F5F5F5F5F5F5F5F5F5F5F5F5F5F5F5F5F5F5F5F5F5F5F5F5F5F5F5F5F5F5F5F5F5F5F5F5F5F5F5E2F5F5F5F5F5F5F5F5F5
310
F5F5F5F5F5F5F5F5F5F5F5E2E2EFF5F5F5E2F5F5F5F5F5F5F5F5F5F5F5F5F5F5F5F5E2F5F5F5F5F5F5F5F5F5F5F5F5F5F5F5F5F5F5F5F5F5F5F5F5F5F5F5F5F5F5F5F5F5F5F5F5F5F5F5F5F5F5F5F5F5F5F5F5F5F5F5F5F5F5F5F5F5F5F5F5F5F5F5F5F5F5F5F5F5F5F5F5F5F5F5F5F5F5F5F5F5F5F5F5F5F5F5F5F5F5F5F5
310
F5F5F5F5F5F5F5F5F5F5F5F5F5F5F5F5F5F5F5F5F5F5F5F5F5F5F5F5F5F5F5F5F5F5F5F5F5F5F5F5F5F5F5E2F5F5F5F5F5F5F5F5F5F5F5F5F5F5F5F5E2F5F5F5E2E2EFF5F5F5E2F5F5F5F5F5F5F5F5F5F5F5F5F5F5F5F5E2F5F5F5F5F5F5F5F5F5F5F5F5F5F5F5F5F5F5F5F5F5F5F5F5F5F5F5F5F5F5F5F5F5F5F5F5F5F5F5
310
F5F5F5F5F5F5F5F5F5F5F5F5F5F5F5F5F5F5F5F5F5F5F5F5F5F5F5F5F5F5F5F5F5F5F5F5F5F5F5F5F5F5F5F5F5F5F5F5F5F5F5F5F5F5F5F5F5F5F5F5F5F5F5F5F5F5F5F5F5F5F5F5F5F5F5F5F5F5F5F5F5F5F5F5F5F5F5F5F5F5F5F5F5F5F5F5E2F5F5F5F5F5F5F5F5F5F5F5F5F5F5F5F5E2F5F5F5E2E2EFF5F5F5E2F5F5F5
310
F5F5F5F5F5F5F5F5F5F5F5F5F5E2F5F5F5F5F5F5F5F5F5F5F5F5F5F5F5F5F5F5F5F5F5F5F5F5F5F5F5F5F5F5F5F5F5F5F5F5F5F5F5F5F5F5F5F5F5F5F5F5F5F5F5F5F5F5F5F5F5F5F5F5F5F5F5F5F5F5F5F5F5F5F5F5F5F5F5F5F5F5F5F5F5F5F5F5F5F5F5F5F5F5F5F5F5F5F5F5F5F5F5F5F5F5F5F5F5F5F5F5F5F5F5F5F5
310
F5F5F5F5F5F5F5F5F5F5F5F5F5F5F5F5F5F5F5F5F5F5E2F5F5F5F5F5F5F5F5F5F5F5F5F5F5F5F5E2F5F5F5E2E2EFF5F5F5E2F5F5F5F5F5F5F5F5F5F5F5F5F5F5F5F5E2F5F5F5F5F5F5F5F5F5F5F5F5F5F5F5F5F5F5F5F5F5F5F5F5F5F5F5F5F5F5F5F5F5F5F5F5F5F5F5F5F5F5F5F5F5F5F5F5F5F5F5F5F5F5F5F5F5F5F5F5
310
F5F5F5F5F5F5F5F5F5F5F5F5F5F5F5F5F5F5F5F5F5F5F5F5F5F5F5F5F5F5F5F5F5F5F5F5F5F5F5F5F5F5F5F5F5F5F5F5F5F5F5F5F5F5F5F5F5F5F5F5F5F5F5F5F5F5F5F5F5F5F5F5F5F5F5E2F5F5F5F5F5F5F5F5F5F5F5F5F5F5F5F5E2F5F5F5E2E2EFF5F5F5E2F5F5F5F5F5F5F5F5F5F5F5F5F5F5F5F5E2F5F5F5F5F5F5F5
310
F5F5F5F5F5F5F5F5F5F5F5F5F5F5F5F5F5F5F5F5F5F5F5F5F5F5F5F5F5F5F5F5F5F5F5F5F5F5F5F5F5F5F5F5F5F5F5F5F5F5F5F5F5F5F5F5F5F5F5F5F5F5F5F5F5F5F5F5F5F5F5F5F5F5F5F5F5F5F5F5F5F5F5F5F5F5F5F5F5F5F5F5F5F5F5F5F5F5F5F5F5F5F5F5F5F5F5F5F5F5F5F5F5F5F5F5F5F5F5F5F5F5F5F5F5F5F5
310
F5E2F5F5F5F5F5F5F5F5F5F5F5F5F5F5F5F5E2F5F5F5E2E2EFF5F5F5E2F5F5F5F5F5F5F5F5F5F5F5F5F5F5F5F5E2F5F5F5F5F5F5F5F5F5F5F5F5F5F5F5F5F5F5F5F5F5F5F5F5F5F5F5F5F5F5F5F5F5F5F5F5F5F5F5F5F5F5F5F5F5F5F5F5F5F5F5F5F5F5F5F5F5F5F5F5F5F5F5F5F5F5F5F5F5F5F5F5F5F5F5F5F5F5F5F5F5
310
F5F5F5F5F5F5F5F5F5F5F5F5F5F5F5F5F5F5F5F5F5F5F5F5F5F5F5F5F5F5F5F5F5F5F5F5F5F5F5F5F5F5F5F5F5F5F5F5F5F5F5F5F5F5E2F5F5F5F5F5F5F5F5F5F5F5F5F5F5F5F5E2F5F5F5E2E2EFF5F5F5E2F5F5F5F5F5F5F5F5F5F5F5F5F5F5F5F5E2F5F5F5F5F5F5F5F5F5F5F5F5F5F5F5F5F5F5F5F5F5F5F5F5F5F5F5F5
310
F5F5F5F5F5F5F5F5F5F5F5F5F5F5F5F5F5F5F5F5F5F5F5F5F5F5F5F5F5F5F5F5F5F5F5F5F5F5F5F5F5F5F5F5F5F5F5F5F5F5F5F5F5F5F5F5F5F5F5F5F5F5F5F5F5F5F5F5F5F5F5F5F5F5F5F5F5F5F5F5F5F5F5F5F5F5F5F5F5F5F5F5F5F5F5F5F5F5F5F5F5F5F5F5F5F5F5E2F5F5F5F5F5F5F5F5F5F5F5F5F5F5F5F5E2F5F5
310
F5E2E2EFF5F5F5E2F5F5F5F5F5F5F5F5F5F5F5F5F5F5F5F5E2F5F5F5F5F5F5F5F5F5F5F5F5F5F5F5F5F5F5F5F5F5F5F5F5F5F5F5F5F5F5F5F5F5F5F5F5F5F5F5F5F5F5F5F5F5F5F5F5F5F5F5F5F5F5F5F5F5F5F5F5F5F5F5F5F5F5F5F5F5F5F5F5F5F5F5F5F5F5F5F5F5F5F5F5F5F5F5F5F5F5F5F5F5F5F5F5F5F5F5F5F5F5
310
F5F5F5F5F5F5F5F5F5F5F5F5F5F5F5F5F5F5F5F5F5F5F5F5F5F5F5F5F5F5F5F5F5E2F5F5F5F5F5F5F5F5F5F5F5F5F5F5F5F5E2F5F5F5E2E2EFF5F5F5E2F5F5F5F5F5F5F5F5F5F5F5F5F5F5F5F5E2F5F5F5F5F5F5F5F5F5F5F5F5F5F5F5F5F5F5F5F5F5F5F5F5F5F5F5F5F5F5F5F5F5F5F5F5F5F5F5F5F5F5F5F5F5F5F5F5F5
310
F5F5F5F5F5F5F5F5F5F5F5F5F5F5F5F5F5F5F5F5F5F5F5F5F5F5F5F5F5F5F5F5F5F5F5F5F5F5F5F5F5F5F5F5F5F5F5F5F5F5F5F5F5F5F5F5F5F5F5F5F5F5F5F5F5F5F5F5F5F5F5F5F5F5F5F5F5F5F5F5F5F5F5F5F5F5E2F5F5F5F5F5F5F5F5F5F5F5F5F5F5F5F5E2F5F5F5E2E2EFF5F5F5E2F5F5F5F5F5F5F5F5F5F5F5F5F5
310
F5F5F5E2F5F5F5F5F5F5F5F5F5F5F5F5F5F5F5F5F5F5F5F5F5F5F5F5F5F5F5F5F5F5F5F5F5F5F5F5F5F5F5F5F5F5F5F5F5F5F5F5F5F5F5F5F5F5F5F5F5F5F5F5F5F5F5F5F5F5F5F5F5F5F5F5F5F5F5F5F5F5F5F5F5F5F5F5F5F5F5F5F5F5F5F5F5F5F5F5F5F5F5F5F5F5F5F5F5F5F5F5F5F5F5F5F5F5F5F5F5F5F5F5F5F5F5
310
F5F5F5F5F5F5F5F5F5F5F5F5E2F5F5F5F5F5F5F5F5F5F5F5F5F5F5F5F5E2F5F5F5E2E2EFF5F5F5E2F5F5F5F5F5F5F5F5F5F5F5F5F5F5F5F5E2F5F5F5F5F5F5F5F5F5F5F5F5F5F5F5F5F5F5F5F5F5F5F5F5F5F5F5F5F5F5F5F5F5F5F5F5F5F5F5F5F5F5F5F5F5F5F5F5F5F5F5F5F5F5F5F5F5F5F5F5F5F5F5F5F5F5F5F5F5F5
310
F5F5F5F5F5F5F5F5F5F5F5F5F5F5F5F5F5F5F5F5F5F5F5F5F5F5F5F5F5F5F5F5F5F5F5F5F5F5F5F5F5F5F5F5F5F5F5F5F5F5F5F5F5F5F5F5F5F5F5F5F5F5F5F5F5E2F5F5F5F5F5F5F5F5F5F5F5F5F5F5F5F5E2F5F5F5E2E2EFF5F5F5E2F5F5F5F5F5F5F5F5F5F5F5F5F5F5F5F5E2F5F5F5F5F5F5F5F5F5F5F5F5F5F5F5F5F5
310
F5F5F5F5F5F5F5F5F5F5F5F5F5F5F5F5F5F5F5F5F5F5F5F5F5F5F5F5F5F5F5F5F5F5F5F5F5F5F5F5F5F5F5F5F5F5F5F5F5F5F5F5F5F5F5F5F5F5F5F5F5F5F5F5F5F5F5F5F5F5F5F5F5F5F5F5F5F5F5F5F5F5F5F5F5F5F5F5F5F5F5F5F5F5F5F5F5F5F5F5F5F5F5F5F5F5F5F5F5F5F5F5F5F5F5F5F5F5E2F5F5F5F5F5F5F5F5
310
F5F5F5F5F5F5F5F5E2F5F5F5E2E2EFF5F5F5E2F5F5F5F5F5F5F5F5F5F5F5F5F5F5F5F5E2F5F5F5F5F5F5F5F5F5F5F5F5F5F5F5F5F5F5F5F5F5F5F5F5F5F5F5F5F5F5F5F5F5F5F5F5F5F5F5F5F5F5F5F5F5F5F5F5F5F5F5F5F5F5F5F5F5F5F5F5F5F5F5F5F5F5F5F5F5F5F5F5F5F5F5F5F5F5F5F5F5F5F5F5F5F5F5F5F5F5F5
310
F5F5F5F5F5F5F5F5F5F5F5F5F5F5F5F5F5F5F5F5F5F5F5F5F5F5F5F5F5F5F5F5F5F5F5F5F5F5F5F5F5F5F5F5E2F5F5F5F5F5F5F5F5F5F5F5F5F5F5F5F5E2F5F5F5E2E2EFF5F5F5E2F5F5F5F5F5F5F5F5F5F5F5F5F5F5F5F5E2F5F5F5F5F5F5F5F5F5F5F5F5F5F5F5F5F5F5F5F5F5F5F5F5F5F5F5F5F5F5F5F5F5F5F5F5F5F5
310
F5F5F5F5F5F5F5F5F5F5F5F5F5F5F5F5F5F5F5F5F5F5F5F5F5F5F5F5F5F5F5F5F5F5F5F5F5F5F5F5F5F5F5F5F5F5F5F5F5F5F5F5F5F5F5F5F5F5F5F5F5F5F5F5F5F5F5F5F5F5F5F5F5F5F5F5F5F5F5F5F5F5F5F5F5F5F5F5F5F5F5F5F5F5F5F5F5E2F5F5F5F5F5F5F5F5F5F5F5F5F5F5F5F5E2F5F5F5E2E2EFF5F5F5E2F5F5
310
F5F5F5F5F5F5F5F5F5F5F5F5F5F5E2F5F5F5F5F5F5F5F5F5F5F5F5F5F5F5F5F5F5F5F5F5F5F5F5F5F5F5F5F5F5F5F5F5F5F5F5F5F5F5F5F5F5F5F5F5F5F5F5F5F5F5F5F5F5F5F5F5F5F5F5F5F5F5F5F5F5F5F5F5F5F5F5F5F5F5F5F5F5F5F5F5F5F5F5F5F5F5F5F5F5F5F5F5F5F5F5F5F5F5F5F5F5F5F5F5F5F5F5F5F5F5F5
310
F5F5F5F5F5F5F5F5F5F5F5F5F5F5F5F5F5F5F5F5F5F5F5E2F5F5F5F5F5F5F5F5F5F5F5F5F5F5F5F5E2F5F5F5E2E2EFF5F5F5E2F5F5F5F5F5F5F5F5F5F5F5F5F5F5F5F5E2F5F5F5F5F5F5F5F5F5F5F5F5F5F5F5F5F5F5F5F5F5F5F5F5F5F5F5F5F5F5F5F5F5F5F5F5F5F5F5F5F5F5F5F5F5F5F5F5F5F5F5F5F5F5F5F5F5F5F5
310
F5F5F5F5F5F5F5F5F5F5F5F5F5F5F5F5F5F5F5F5F5F5F5F5F5F5F5F5F5F5F5F5F5F5F5F5F5F5F5F5F5F5F5F5F5F5F5F5F5F5F5F5F5F5F5F5F5F5F5F5F5F5F5F5F5F5F5F5F5F5F5F5F5F5F5F5E2F5F5F5F5F5F5F5F5F5F5F5F5F5F5F5F5E2F5F5F5E2E2EFF5F5F5E2F5F5F5F5F5F5F5F5F5F5F5F5F5F5F5F5E2F5F5F5F5F5F5
310
F5F5F5F5F5F5F5F5F5F5F5F5F5F5F5F5F5F5F5F5F5F5F5F5F5F5F5F5F5F5F5F5F5F5F5F5F5F5F5F5F5F5F5F5F5F5F5F5F5F5F5F5F5F5F5F5F5F5F5F5F5F5F5F5F5F5F5F5F5F5F5F5F5F5F5F5F5F5F5F5F5F5F5F5F5F5F5F5F5F5F5F5F5F5F5F5F5F5F5F5F5F5F5F5F5F5F5F5F5F5F5F5F5F5F5F5F5F5F5F5F5F5F5F5F5F5F5
310
F5F5E2F5F5F5F5F5F5F5F5F5F5F5F5F5F5F5F5E2F5F5F5E2E2EFF5F5F5F5F5F5F5F5F5F5F5F5F5F5F5F5F5F5F5F5E2F5F5F5F5F5F5F5F5F5F5F5F5F5F5F5F5F5F5F5F5F5F5F5F5F5F5F5F5F5F5F5F5F5F5F5F5F5F5F5F5F5F5F5F5F5F5F5F5F5F5F5F5F5F5F5F5F5F5F5F5F5F5F5F5F5F5F5F5F5F5F5F5F5F5F5F5F5F5F5F5
310
F5F5F5F5F5F5F5F5F5F5F5F5F5F5F5F5F5F5F5F5F5F5F5F5F5F5F5F5F5F5F5F5F5F5F5F5F5F5F5F5F5F5F5F5F5F5F5F5F5F5F5F5F5F5F5E2F5F5F5F5F5F5F5F5F5F5F5F5F5F5F5F5F5F5F5F5E2E2EFF5F5F5F5F5F5F5F5F5F5F5F5F5F5F5F5F5F5F5F5E2F5F5F5F5F5F5F5F5F5F5F5F5F5F5F5F5F5F5F5F5F5F5F5F5F5F5F5
310
F5F5F5F5F5F5F5F5F5F5F5F5F5F5F5F5F5F5F5F5F5F5F5F5F5F5F5F5F5F5F5F5F5F5F5F5F5F5F5F5F5F5F5F5F5F5F5F5F5F5F5F5F5F5F5F5F5F5F5F5F5F5F5F5F5F5F5F5F5F5F5F5F5F5F5F5F5F5F5F5F5F5F5F5F5F5F5F5F5F5F5F5F5F5F5F5F5F5F5F5F5F5F5F5F5F5F5F5E2F5F5F5F5F5F5F5F5F5F5F5F5F5F5F5F5F5F5
310
F5F5E2E2EFF5F5F5F5F5F5F5F5F5F5F5F5F5F5F5F5F5F5F5F5E2F5F5F5F5F5F5F5F5F5F5F5F5F5F5F5F5F5F5F5F5F5F5F5F5F5F5F5F5F5F5F5F5F5F5F5F5F5F5F5F5F5F5F5F5F5F5F5F5F5F5F5F5F5F5F5F5F5F5F5F5F5F5F5F5F5F5F5F5F5F5F5F5F5F5F5F5F5F5F5F5F5F5F5F5F5F5F5F5F5F5F5F5F5F5F5F5F5F5F5F5F5
310
F5F5F5F5F5F5F5F5F5F5F5F5F5F5F5F5F5F5F5F5F5F5F5F5F5F5F5F5F5F5F5F5F5F5E2F5F5F5F5F5F5F5F5F5F5F5F5F5F5F5F5F5F5F5F5E2E2EFF5F5F5F5F5F5F5F5F5F5F5F5F5F5F5F5F5F5F5F5E2F5F5F5F5F5F5F5F5F5F5F5F5F5F5F5F5F5F5F5F5F5F5F5F5F5F5F5F5F5F5F5F5F5F5F5F5F5F5F5F5F5F5F5F5F5F5F5F5
310
F5F5F5F5F5F5F5F5F5F5F5F5F5F5F5F5F5F5F5F5F5F5F5F5F5F5F5F5F5F5F5F5F5F5F5F5F5F5F5F5F5F5F5F5F5F5F5F5F5F5F5F5F5F5F5F5F5F5F5F5F5F5F5F5F5F5F5F5F5F5F5F5F5F5F5F5F5F5F5F5F5F5F5F5F5F5F5E2F5F5F5F5F5F5F5F5F5F5F5F5F5F5F5F5F5F5F5F5E2E2EFF5F5F5F5F5F5F5F5F5F5F5F5F5F5F5F5
310
F5F5F5F5E2E2E2E2E2E2E2E2E2E2E2E2E2E2E2E2E2E2E2E2E2E2E2E2E2E2E2E2E2E2E2E2E2E2E2E2E2E2E2E2E2E2E2E2E2E2E2E2E2E2E2E2E2E2E2E2E2E2E2E2E2E2E2E2E2E2E2E2E2E2E2E2E2E2E2E2E2E2E2E2E2E2E2E2E2E2E2E2E2E2E2E2E2E2E2E2E2E2E2E2E2E2E2E2E2E2E2E2E2E2E2E2E2E2E2E2E2E2E2E2E2E2E2
310
E2E2E2E2E2E2E2E2E2E2E2E2E2E2F5F5F5F5F5F5F5F5F5F5F5F5F5F5F5F5F5F5F5F5E2E2EFF5F5F5F5F5F5F5F5F5F5F5F5F5F5F5F5F5F5F5F5F5F5F5F5F5F5F5F5F5F5F5F5F5F5F5F5F5F5F5F5F5F5F5F5F5F5F5F5F5F5F5F5F5F5F5F5F5F5F5F5F5F5F5F5F5F5F5F5F5F5F5F5F5F5F5F5F5F5F5F5F5F5F5F5F5F5F5F5F5F5
310
F5F5F5F5F5F5F5F5F5F5F5F5F5F5F5F5F5F5F5F5F5F5F5F5F5F5F5F5F5F5F5F5F5F5F5F5F5F5F5F5F5F5F5F5F5F5F5F5F5F5F5F5F5F5F5F5F5F5F5F5F5F5F5F5F5F5F5F5F5F5F5F5F5F5F5F5F5F5F5F5F5F5F5F5F5F5F5E2E2EFF5F5F5F5F5F5F5F5F5F5F5F5F5F5F5F5F5F5F5F5F5F5F5F5F5F5F5F5F5F5F5F5F5F5F5F5F5
310
F5F5F5F5F5F5F5F5F5F5F5F5F5F5F5F5F5F5F5F5F5F5F5F5F5F5F5F5F5F5F5F5F5F5F5F5F5F5F5F5F5F5F5F5F5F5F5F5F5F5F5F5F5F5F5F5F5F5F5F5F5F5F5F5F5F5F5F5F5F5F5F5F5F5F5F5F5F5F5F5F5F5F5F5F5F5F5F5F5F5F5F5F5F5F5F5F5F5F5F5F5F5F5F5F5F5F5F5F5F5F5F5F5F5F5F5F5F5F5F5F5F5F5F5F5F5F5
310
F5F5F5F5F5F5F5F5F5F5F5F5F5E2E2EFF5F5F5F5F5F5F5F5F5F5F5F5F5F5F5F5F5F5F5F5F5F5F5F5F5F5F5F5F5F5F5F5F5F5F5F5F5F5F5F5F5F5F5F5F5F5F5F5F5F5F5F5F5F5F5F5F5F5F5F5F5F5F5F5F5F5F5F5F5F5F5F5F5F5F5F5F5F5F5F5F5F5F5F5F5F5F5F5F5F5F5F5F5F5F5F5F5F5F5F5F5F5F5F5F5F5F5F5F5F5F5
310
F5F5F5F5F5F5F5F5F5F5F5F5F5F5F5F5F5F5F5F5F5F5F5F5F5F5F5F5F5F5F5F5F5F5F5F5F5F5F5F5F5F5F5F5F5F5F5F5F5F5F5F5F5F5F5F5F5F5F5F5F5F5F5F5F5F5E2E2EFF5F5F5F5F5F5F5F5F5F5F5F5F5F5F5F5F5F5F5F5F5F5F5F5F5F5F5F5F5F5F5F5F5F5F5F5F5F5F5F5F5F5F5F5F5F5F5F5F5F5F5F5F5F5F5F5F5F5
310
F5F5F5F5F5F5F5F5F5F5F5F5F5F5F5F5F5F5F5F5F5F5F5F5F5F5F5F5F5F5F5F5F5F5F5F5F5F5F5F5F5F5F5F5F5F5F5F5F5F5F5F5F5F5F5F5F5F5F5F5F5F5F5F5F5F5F5F5F5F5F5F5F5F5F5F5F5F5F5F5F5F5F5F5F5F5F5F5F5F5F5F5F5F5F5F5F5F5F5F5F5F5F5F5F5F5F5F5F5F5F5F5F5F5F5F5F5F5F5E2E2EFF5F5F5E2F5
310
F5F5F5F5F5F5F5F5F5F5F5F5F5F5F5F5F5F5F5F5F5F5F5F5F5F5F5F5F5F5F5F5F5F5F5F5F5F5F5F5F5F5F5F5F5F5F5F5F5F5F5F5F5F5F5F5F5F5F5F5F5F5F5F5F5F5F5F5F5F5F5F5F5F5F5F5F5F5F5F5F5F5F5F5F5F5F5F5F5F5F5F5F5F5F5F5F5F5F5F5F5F5F5F5F5F5F5F5F5F5F5F5F5F5F5F5F5F5F5F5F5F5F5F5F5F5F5
310
F5F5F5F5F5F5F5F5F5F5F5F5F5F5F5F5F5F5F5F5F5F5F5F5F5F5F5F5F5F5F5F5F5F5F5F5F5F5F5F5F5E2F5F5F5E2E2EFF5F5F5E2F5F5F5F5F5F5F5F5F5F5F5F5F5F5F5F5F5F5F5F5F5F5F5F5F5F5F5F5F5F5F5F5F5F5F5F5F5F5F5F5F5F5F5F5F5F5F5F5F5F5F5F5F5F5F5F5F5F5F5F5F5F5F5F5F5F5F5F5F5F5F5F5F5F5F5
310
F5F5F5F5F5F5F5F5F5F5F5F5F5F5F5F5F5F5F5F5F5F5F5F5F5F5F5F5F5F5F5F5F5F5F5F5F5F5F5F5F5F5F5F5F5F5F5F5F5F5F5F5F5F5F5F5F5F5F5F5F5F5F5F5F5F5F5F5F5F5F5F5F5F5F5F5F5F5F5F5F5F5F5F5F5F5F5F5F5F5F5F5F5F5E2F5F5F5E2E2EFF5F5F5E2F5F5F5F5F5F5F5F5F5F5F5F5F5F5F5F5F5F5F5F5F5F5
310
F5F5F5F5F5F5F5F5F5F5F5F5F5F5F5F5F5F5F5F5F5F5F5F5F5F5F5F5F5F5F5F5F5F5F5F5F5F5F5F5F5F5F5F5F5F5F5F5F5F5F5F5F5F5F5F5F5F5F5F5F5F5F5F5F5F5F5F5F5F5F5F5F5F5F5F5F5F5F5F5F5F5F5F5F5F5F5F5F5F5F5F5F5F5F5F5F5F5F5F5F5F5F5F5F5F5F5F5F5F5F5F5F5F5F5F5F5F5F5F5F5F5F5F5F5F5F5
310
F5F5F5F5F5F5F5F5F5F5F5F5F5F5F5F5F5F5F5F5E2F5F5F5E2E2EFF5F5F5E2F5F5F5F5F5F5F5F5F5F5F5F5F5F5F5F5F5F5F5F5F5F5F5F5F5F5F5F5F5F5F5F5F5F5F5F5F5F5F5F5F5F5F5F5F5F5F5F5F5F5F5F5F5F5F5F5F5F5F5F5F5F5F5F5F5F5F5F5F5F5F5F5F5F5F5F5F5F5F5F5F5F5F5F5F5F5F5F5F5F5F5F5F5F5F5F5
310
F5F5F5F5F5F5F5F5F5F5F5F5F5F5F5F5F5F5F5F5F5F5F5F5F5F5F5F5F5F5F5F5F5F5F5F5F5F5F5F5F5F5F5F5F5F5F5F5F5F5F5F5F5F5F5F5F5F5F5F5F5F5F5F5F5F5F5F5F5F5F5F5F5E2F5F5F5E2E2EFF5F5F5E2F5F5F5F5F5F5F5F5F5F5F5F5F5F5F5F5F5F5F5F5F5F5F5F5F5F5F5F5F5F5F5F5F5F5F5F5F5F5F5F5F5F5F5
310
F5F5F5F5F5F5F5F5F5F5F5F5F5F5F5F5F5F5F5F5F5F5F5F5F5F5F5F5F5F5F5F5F5F5F5F5F5F5F5F5F5F5F5F5F5F5F5F5F5F5F5F5F5F5F5F5F5F5F5F5F5F5F5F5F5F5F5F5F5F5F5F5F5F5F5F5F5F5F5F5F5F5F5F5F5F5F5F5F5F5F5F5F5F5F5F5F5F5F5F5F5F5F5F5F5F5F5F5F5F5F5F5F5F5F5F5F5F5F5F5F5F5F5F5F5F5E2
310
F5F5F5E2E2EFF5F5F5E2F5F5F5F5F5F5F5F5F5F5F5F5F5F5F5F5F5F5F5F5F5F5F5F5F5F5F5F5F5F5F5F5F5F5F5F5F5F5F5F5F5F5F5F5F5F5F5F5F5F5F5F5F5F5F5F5F5F5F5F5F5F5F5F5F5F5F5F5F5F5F5F5F5F5F5F5F5F5F5F5F5F5F5F5F5F5F5F5F5F5F5F5F5F5F5F5F5F5F5F5F5F5F5F5F5F5F5F5F5F5F5F5F5F5F5F5F5
310
F5F5F5F5F5F5F5F5F5F5F5F5F5F5F5F5F5F5F5F5F5F5F5F5F5F5F5F5F5F5F5F5F5F5F5F5F5F5F5F5F5F5F5F5F5F5F5F5F5F5F5F5E2F5F5F5E2E2EFF5F5F5E2F5F5F5F5F5F5F5F5F5F5F5F5F5F5F5F5F5F5F5F5F5F5F5F5F5F5F5F5F5F5F5F5F5F5F5F5F5F5F5F5F5F5F5F5F5F5F5F5F5F5F5F5F5F5F5F5F5F5F5F5F5F5F5F5
310
F5F5F5F5F5F5F5F5F5F5F5F5F5F5F5F5F5F5F5F5F5F5F5F5F5F5F5F5F5F5F5F5F5F5F5F5F5F5F5F5F5F5F5F5F5F5F5F5F5F5F5F5F5F5F5F5F5F5F5F5F5F5F5F5F5F5F5F5F5F5F5F5F5F5F5F5F5F5F5F5F5F5F5F5F5F5F5F5F5F5F5F5F5F5F5F5F5F5F5F5F5F5F5F5F5E2F5F5F5E2E2EFF5F5F5E2F5F5F5F5F5F5F5F5F5F5F5
310
F5F5F5F5F5F5F5F5F5F5F5F5F5F5F5F5F5F5F5F5F5F5F5F5F5F5F5F5F5F5F5F5F5F5F5F5F5F5F5F5F5F5F5F5F5F5F5F5F5F5F5F5F5F5F5F5F5F5F5F5F5F5F5F5F5F5F5F5F5F5F5F5F5F5F5F5F5F5F5F5F5F5F5F5F5F5F5F5F5F5F5F5F5F5F5F5F5F5F5F5F5F5F5F5F5F5F5F5F5F5F5F5F5F5F5F5F5F5F5F5F5F5F5F5F5F5F5
310
F5F5F5F5F5F5F5F5F5F5F5F5F5F5F5F5F5F5F5F5F5F5F5F5F5F5F5F5F5F5F5E2F5F5F5E2E2EFF5F5F5E2E2E2E2E2E2E2E2F5F5F5F5F5F5F5F5F5E2E2E2E2E2E2E2E2E2E2E2E2E2E2E2E2F5F5F5F5F5F5F5F5E2E2E2E2E2E2E2E2E2E2E2E2E2E2E2E2F5F5F5F5F5F5F5F5F5E2E2E2E2E2E2E2E2E2E2E2E2E2E2E2F5F5F5F5F5
310
F5F5F5F5E2E2E2E2E2E2E2E2E2E2E2E2E2E2E2F5F5F5F5F5F5F5F5F5E2E2E2E2E2E2E2E2E2E2E2E2E2E2E2E2F5F5F5F5F5F5F5F5E2E2E2E2E2E2E2E2E2E2E2E2E2E2E2E2F5F5F5F5F5F5F5F5F5E2E2E2E2E2E2E2E2F5F5F5E2E2EFF5F5F5F5F5F5F5F5F5F5F5F5F5F5F5F5F5F5F5F5F5F5F5F5F5F5F5F5F5F5F5F5F5F5F5F5
310
F5F5F5F5F5F5F5F5F5F5F5F5F5F5F5F5F5F5F5F5F5F5F5F5F5F5F5F5F5F5F5F5F5F5F5F5F5F5F5F5F5F5F5F5F5F5F5F5F5F5F5F5F5F5F5F5F5F5F5F5F5F5F5F5F5F5F5F5F5F5F5F5F5F5F5F5F5F5F5F5F5F5F5F5F5F5F5F5F5F5F5F5F5F5F5F5F5F5F5F5F5F5F5F5F5F5F5F5F5F5F5F5F5F5F5F5F5F5F5F5F5F5F5F5F5F5F5
310
F5F5F5F5F5F5F5F5F5F5F5F5F5F5E2E2EFF5F5F5F5F5F5F5F5F5F5F5F5F5F5F5F5F5F5F5F5F5F5F5F5F5F5F5F5F5F5F5F5F5F5F5F5F5F5F5F5F5F5F5F5F5F5F5F5F5F5F5F5F5F5F5F5F5F5F5F5F5F5F5F5F5F5F5F5F5F5F5F5F5F5F5F5F5F5F5F5F5F5F5F5F5F5F5F5F5F5F5F5F5F5F5F5F5F5F5F5F5F5F5F5F5F5F5F5F5F5
310
F5F5F5F5F5F5F5F5F5F5F5F5F5F5F5F5F5F5F5F5F5F5F5F5F5F5F5F5F5F5F5F5F5F5F5F5F5F5F5F5F5F5F5F5F5F5F5F5F5F5F5F5F5F5F5F5F5F5F5F5F5F5F5F5F5F5F5E2EFEFF5F5F5F5F5F5F5F5F5F5F5F5F5F5F5F5F5F5F5F5F5F5F5F5F5F5F5F5F5F5F5F5F5F5F5F5F5F5F5F5F5F5F5F5F5F5F5F5F5F5F5F5F5F5F5F5F5
310
F5F5F5F5F5F5F5F5F5F5F5F5F5F5F5F5F5F5F5F5F5F5F5F5F5F5F5F5F5F5F5F5F5F5F5F5F5F5F5F5F5F5F5F5F5F5F5F5F5F5F5F5F5F5F5F5F5F5F5F5F5F5F5F5F5F5F5F5F5F5F5F5F5F5F5F5F5F5F5F5F5F5F5F5F5F5F5F5F5F5F5F5F5F5F5F5F5F5F5F5F5F5F5F5F5F5F5F5F5F5F5F5F5F5F5F5F5F5F5F5E2EFEFE2E2E2E2
310
E2E2E2E2E2E2E2E2E2E2E2E2E2E2E2E2E2E2E2E2E2E2E2E2E2E2E2E2E2E2E2E2E2E2E2E2E2E2E2E2E2E2E2E2E2E2E2E2E2E2E2E2E2E2E2E2E2E2E2E2E2E2E2E2E2E2E2E2E2E2E2E2E2E2E2E2E2E2E2E2E2E2E2E2E2E2E2E2E2E2E2E2E2E2E2E2E2E2E2E2E2E2E2E2E2E2E2E2E2E2E2E2E2E2E2E2E2E2E2E2E2E2E2E2E2E2E2
310
E2E2E2E2E2E2E2E2E2E2E2E2E2E2E2E2E2E2E2E2E2E2E2E2E2E2E2E2E2E2E2E2E2E2E2E2E2E2E2E2E2E2E2E2E2E2E2EFEF
  0
ENDSEC
  0
EOF
