  0
SECTION
  2
HEADER
  9
$ACADVER
  1
AC1018
  9
$ACADMAINTVER
 70
     0
  9
$DWGCODEPAGE
  3
ANSI_1252
  9
$AUTHOR
  1
g6edxjah
  9
$LASTSAVEDBY
  1
g6edxjah
  9
$INSBASE
 10
0.0
 20
0.0
 30
0.0
  9
$EXTMIN
 10
79.904438
 20
-45.90251
 30
0.0
  9
$EXTMAX
 10
90.905312
 20
-37.401833
 30
0.0
  9
$LIMMIN
 10
57.599785
 20
-69.457262
  9
$LIMMAX
 10
113.209965
 20
-13.847082
  9
$ORTHOMODE
 70
     0
  9
$REGENMODE
 70
     1
  9
$FILLMODE
 70
     1
  9
$QTEXTMODE
 70
     0
  9
$MIRRTEXT
 70
     0
  9
$LTSCALE
 40
1.0
  9
$ATTMODE
 70
     1
  9
$TEXTSIZE
 40
0.113906
  9
$TRACEWID
 40
0.05
  9
$TEXTSTYLE
  7
Standard
  9
$CLAYER
  8
Level 10
  9
$CELTYPE
  6
Continuous
  9
$CECOLOR
 62
     7
  9
$CELTSCALE
 40
1.0
  9
$DISPSILH
 70
     0
  9
$DIMSCALE
 40
1.0
  9
$DIMASZ
 40
0.113906
  9
$DIMEXO
 40
0.056953
  9
$DIMDLI
 40
0.0
  9
$DIMRND
 40
0.0
  9
$DIMDLE
 40
0.0
  9
$DIMEXE
 40
0.056953
  9
$DIMTP
 40
0.0
  9
$DIMTM
 40
0.0
  9
$DIMTXT
 40
0.113906
  9
$DIMCEN
 40
0.09
  9
$DIMTSZ
 40
0.0
  9
$DIMTOL
 70
     0
  9
$DIMLIM
 70
     0
  9
$DIMTIH
 70
     0
  9
$DIMTOH
 70
     0
  9
$DIMSE1
 70
     0
  9
$DIMSE2
 70
     0
  9
$DIMTAD
 70
     1
  9
$DIMZIN
 70
    11
  9
$DIMBLK
  1
TerminatorOpen_0.5
  9
$DIMASO
 70
     1
  9
$DIMSHO
 70
     1
  9
$DIMPOST
  1

  9
$DIMAPOST
  1

  9
$DIMALT
 70
     0
  9
$DIMALTD
 70
     4
  9
$DIMALTF
 40
25.4
  9
$DIMLFAC
 40
1.0
  9
$DIMTOFL
 70
     0
  9
$DIMTVP
 40
0.0
  9
$DIMTIX
 70
     0
  9
$DIMSOXD
 70
     0
  9
$DIMSAH
 70
     0
  9
$DIMBLK1
  1

  9
$DIMBLK2
  1

  9
$DIMSTYLE
  2
Standard
  9
$DIMCLRD
 70
     0
  9
$DIMCLRE
 70
     0
  9
$DIMCLRT
 70
     0
  9
$DIMTFAC
 40
1.0
  9
$DIMGAP
 40
0.056953
  9
$DIMJUST
 70
     0
  9
$DIMSD1
 70
     0
  9
$DIMSD2
 70
     0
  9
$DIMTOLJ
 70
     0
  9
$DIMTZIN
 70
    11
  9
$DIMALTZ
 70
    15
  9
$DIMALTTZ
 70
    15
  9
$DIMUPT
 70
     0
  9
$DIMDEC
 70
     4
  9
$DIMTDEC
 70
     4
  9
$DIMALTU
 70
     2
  9
$DIMALTTD
 70
     4
  9
$DIMTXSTY
  7
Style-Arial
  9
$DIMAUNIT
 70
     0
  9
$DIMADEC
 70
     4
  9
$DIMALTRND
 40
0.0
  9
$DIMAZIN
 70
     3
  9
$DIMDSEP
 70
    46
  9
$DIMATFIT
 70
     1
  9
$DIMFRAC
 70
     0
  9
$DIMLDRBLK
  1
TerminatorOpen_0.5
  9
$DIMLUNIT
 70
     2
  9
$DIMLWD
 70
    -2
  9
$DIMLWE
 70
    -2
  9
$DIMTMOVE
 70
     0
  9
$LUNITS
 70
     2
  9
$LUPREC
 70
     4
  9
$SKETCHINC
 40
0.1
  9
$FILLETRAD
 40
0.0
  9
$AUNITS
 70
     0
  9
$AUPREC
 70
     4
  9
$MENU
  1
.
  9
$ELEVATION
 40
0.0
  9
$PELEVATION
 40
0.0
  9
$THICKNESS
 40
0.0
  9
$LIMCHECK
 70
     0
  9
$CHAMFERA
 40
0.0
  9
$CHAMFERB
 40
0.0
  9
$CHAMFERC
 40
0.0
  9
$CHAMFERD
 40
0.0
  9
$SKPOLY
 70
     0
  9
$TDCREATE
 40
2455364.401565856
  9
$TDUCREATE
 40
2455364.60989919
  9
$TDUPDATE
 40
2455364.401566042
  9
$TDUUPDATE
 40
2455364.609899375
  9
$TDINDWG
 40
0.0
  9
$TDUSRTIMER
 40
0.0006630093
  9
$USRTIMER
 70
     1
  9
$ANGBASE
 50
0.0
  9
$ANGDIR
 70
     0
  9
$PDMODE
 70
     0
  9
$PDSIZE
 40
0.0
  9
$PLINEWID
 40
0.0
  9
$SPLFRAME
 70
     0
  9
$SPLINETYPE
 70
     6
  9
$SPLINESEGS
 70
     8
  9
$HANDSEED
  5
551
  9
$SURFTAB1
 70
     6
  9
$SURFTAB2
 70
     6
  9
$SURFTYPE
 70
     6
  9
$SURFU
 70
     6
  9
$SURFV
 70
     6
  9
$UCSBASE
  2

  9
$UCSNAME
  2

  9
$UCSORG
 10
0.0
 20
0.0
 30
0.0
  9
$UCSXDIR
 10
1.0
 20
0.0
 30
0.0
  9
$UCSYDIR
 10
0.0
 20
1.0
 30
0.0
  9
$UCSORTHOREF
  2

  9
$UCSORTHOVIEW
 70
     0
  9
$UCSORGTOP
 10
0.0
 20
0.0
 30
0.0
  9
$UCSORGBOTTOM
 10
0.0
 20
0.0
 30
0.0
  9
$UCSORGLEFT
 10
0.0
 20
0.0
 30
0.0
  9
$UCSORGRIGHT
 10
0.0
 20
0.0
 30
0.0
  9
$UCSORGFRONT
 10
0.0
 20
0.0
 30
0.0
  9
$UCSORGBACK
 10
0.0
 20
0.0
 30
0.0
  9
$PUCSBASE
  2

  9
$PUCSNAME
  2

  9
$PUCSORG
 10
0.0
 20
0.0
 30
0.0
  9
$PUCSXDIR
 10
1.0
 20
0.0
 30
0.0
  9
$PUCSYDIR
 10
0.0
 20
1.0
 30
0.0
  9
$PUCSORTHOREF
  2

  9
$PUCSORTHOVIEW
 70
     0
  9
$PUCSORGTOP
 10
0.0
 20
0.0
 30
0.0
  9
$PUCSORGBOTTOM
 10
0.0
 20
0.0
 30
0.0
  9
$PUCSORGLEFT
 10
0.0
 20
0.0
 30
0.0
  9
$PUCSORGRIGHT
 10
0.0
 20
0.0
 30
0.0
  9
$PUCSORGFRONT
 10
0.0
 20
0.0
 30
0.0
  9
$PUCSORGBACK
 10
0.0
 20
0.0
 30
0.0
  9
$USERI1
 70
     0
  9
$USERI2
 70
     0
  9
$USERI3
 70
     0
  9
$USERI4
 70
     0
  9
$USERI5
 70
     0
  9
$USERR1
 40
0.0
  9
$USERR2
 40
0.0
  9
$USERR3
 40
0.0
  9
$USERR4
 40
0.0
  9
$USERR5
 40
0.0
  9
$WORLDVIEW
 70
     1
  9
$SHADEDGE
 70
     3
  9
$SHADEDIF
 70
    70
  9
$TILEMODE
 70
     1
  9
$MAXACTVP
 70
    64
  9
$PINSBASE
 10
0.0
 20
0.0
 30
0.0
  9
$PLIMCHECK
 70
     0
  9
$PEXTMIN
 10
1.049744
 20
0.799667
 30
-0.001526
  9
$PEXTMAX
 10
9.450623
 20
7.200577
 30
0.0
  9
$PLIMMIN
 10
-0.25
 20
-0.25
  9
$PLIMMAX
 10
10.75
 20
8.25
  9
$UNITMODE
 70
     0
  9
$VISRETAIN
 70
     1
  9
$PLINEGEN
 70
     0
  9
$PSLTSCALE
 70
     0
  9
$TREEDEPTH
 70
  3020
  9
$CMLSTYLE
  2
Standard
  9
$CMLJUST
 70
     0
  9
$CMLSCALE
 40
1.0
  9
$PROXYGRAPHICS
 70
     1
  9
$MEASUREMENT
 70
     0
  9
$CELWEIGHT
370
    53
  9
$ENDCAPS
280
     0
  9
$JOINSTYLE
280
     0
  9
$LWDISPLAY
290
     1
  9
$INSUNITS
 70
     2
  9
$HYPERLINKBASE
  1

  9
$STYLESHEET
  1

  9
$XEDIT
290
     1
  9
$CEPSNTYPE
380
     0
  9
$PSTYLEMODE
290
     1
  9
$FINGERPRINTGUID
  2
{02C0BBB5-38A7-4FBF-829E-00875EC88963}
  9
$VERSIONGUID
  2
{82C521FC-BF81-46B3-825E-420B6BD93A99}
  9
$EXTNAMES
290
     1
  9
$PSVPSCALE
 40
0.0
  9
$OLESTARTUP
290
     0
  9
$SORTENTS
280
   127
  9
$INDEXCTL
280
     0
  9
$HIDETEXT
280
     1
  9
$XCLIPFRAME
290
     0
  9
$HALOGAP
280
     0
  9
$OBSCOLOR
 70
   257
  9
$OBSLTYPE
280
     0
  9
$INTERSECTIONDISPLAY
280
     0
  9
$INTERSECTIONCOLOR
 70
   257
  9
$DIMASSOC
280
     1
  9
$PROJECTNAME
  1

  0
ENDSEC
  0
SECTION
  2
CLASSES
  0
CLASS
  1
ACDBDICTIONARYWDFLT
  2
AcDbDictionaryWithDefault
  3
ObjectDBX Classes
 90
        0
 91
        3
280
     0
281
     0
  0
CLASS
  1
SORTENTSTABLE
  2
AcDbSortentsTable
  3
ObjectDBX Classes
 90
        0
 91
        3
280
     0
281
     0
  0
ENDSEC
  0
SECTION
  2
TABLES
  0
TABLE
  2
VPORT
  5
534
330
0
100
AcDbSymbolTable
 70
     4
  0
VPORT
  5
49
330
534
100
AcDbSymbolTableRecord
100
AcDbViewportTableRecord
  2
*ACTIVE
 70
     0
 10
0.0
 20
0.0
 11
1.0
 21
1.0
 12
85.404875
 22
-41.652172
 13
0.0
 23
0.0
 14
0.083333
 24
0.083333
 15
0.083333
 25
0.083333
 16
0.0
 26
0.0
 36
1.0
 17
0.0
 27
0.0
 37
0.0
 40
8.840704
 41
1.884937
 42
50.0
 43
0.0
 44
0.0
 50
0.0
 51
0.0
 71
     0
 72
   100
 73
     1
 74
     2
 75
     0
 76
     0
 77
     0
 78
     1
281
     0
 65
     1
110
0.0
120
0.0
130
0.0
111
1.0
121
0.0
131
0.0
112
0.0
122
1.0
132
0.0
 79
     0
146
0.0
  0
ENDTAB
  0
TABLE
  2
LTYPE
  5
51B
330
0
100
AcDbSymbolTable
 70
     2
  0
LTYPE
  5
51C
330
51B
100
AcDbSymbolTableRecord
100
AcDbLinetypeTableRecord
  2
ByBlock
 70
     0
  3

 72
    65
 73
     0
 40
0.0
  0
LTYPE
  5
51D
330
51B
100
AcDbSymbolTableRecord
100
AcDbLinetypeTableRecord
  2
ByLayer
 70
     0
  3

 72
    65
 73
     0
 40
0.0
  0
LTYPE
  5
51A
330
51B
100
AcDbSymbolTableRecord
100
AcDbLinetypeTableRecord
  2
Continuous
 70
     0
  3
Solid line
 72
    65
 73
     0
 40
0.0
  0
LTYPE
  5
548
330
51B
100
AcDbSymbolTableRecord
100
AcDbLinetypeTableRecord
  2
DGN Style 2
 70
     0
  3
Dgn Style 2
 72
    65
 73
     2
 40
0.166642
 49
0.099985
 74
     0
 49
-0.066657
 74
     0
  0
ENDTAB
  0
TABLE
  2
LAYER
  5
514
102
{ACAD_XDICTIONARY
360
515
102
}
330
0
100
AcDbSymbolTable
 70
    64
  0
LAYER
  5
513
330
514
100
AcDbSymbolTableRecord
100
AcDbLayerTableRecord
  2
0
 70
     0
 62
     7
  6
Continuous
370
    -3
390
517
  0
LAYER
  5
7
330
514
100
AcDbSymbolTableRecord
100
AcDbLayerTableRecord
  2
Level 1
 70
     0
 62
     7
  6
Continuous
370
     0
390
517
  0
LAYER
  5
8
330
514
100
AcDbSymbolTableRecord
100
AcDbLayerTableRecord
  2
2-30K
 70
     0
 62
     7
  6
Continuous
370
     0
390
517
1001
AcAecLayerStandard
1000

1000
2-30K
  0
LAYER
  5
9
330
514
100
AcDbSymbolTableRecord
100
AcDbLayerTableRecord
  2
DIM
 70
     0
 62
     7
  6
Continuous
370
     0
390
517
1001
AcAecLayerStandard
1000

1000
DIM
  0
LAYER
  5
A
330
514
100
AcDbSymbolTableRecord
100
AcDbLayerTableRecord
  2
LEGEND
 70
     0
 62
     7
  6
Continuous
370
     0
390
517
1001
AcAecLayerStandard
1000

1000
LEGEND
  0
LAYER
  5
B
330
514
100
AcDbSymbolTableRecord
100
AcDbLayerTableRecord
  2
HATCH
 70
     0
 62
     7
  6
Continuous
370
     0
390
517
1001
AcAecLayerStandard
1000

1000
HATCH
  0
LAYER
  5
C
330
514
100
AcDbSymbolTableRecord
100
AcDbLayerTableRecord
  2
TEXT
 70
     0
 62
     7
  6
Continuous
370
     0
390
517
1001
AcAecLayerStandard
1000

1000
TEXT
  0
LAYER
  5
D
330
514
100
AcDbSymbolTableRecord
100
AcDbLayerTableRecord
  2
TITLE
 70
     0
 62
     7
  6
Continuous
370
     0
390
517
1001
AcAecLayerStandard
1000

1000
TITLE
  0
LAYER
  5
E
330
514
100
AcDbSymbolTableRecord
100
AcDbLayerTableRecord
  2
Level 8
 70
     0
 62
     7
  6
Continuous
370
     0
390
517
  0
LAYER
  5
F
330
514
100
AcDbSymbolTableRecord
100
AcDbLayerTableRecord
  2
Level 9
 70
     0
 62
     7
  6
Continuous
370
     0
390
517
  0
LAYER
  5
10
330
514
100
AcDbSymbolTableRecord
100
AcDbLayerTableRecord
  2
Level 10
 70
     0
 62
     7
  6
Continuous
370
     0
390
517
  0
LAYER
  5
11
330
514
100
AcDbSymbolTableRecord
100
AcDbLayerTableRecord
  2
Level 11
 70
     0
 62
     7
  6
Continuous
370
     0
390
517
  0
LAYER
  5
12
330
514
100
AcDbSymbolTableRecord
100
AcDbLayerTableRecord
  2
Level 12
 70
     0
 62
     7
  6
Continuous
370
     0
390
517
  0
LAYER
  5
13
330
514
100
AcDbSymbolTableRecord
100
AcDbLayerTableRecord
  2
Level 13
 70
     0
 62
     7
  6
Continuous
370
     0
390
517
  0
LAYER
  5
14
330
514
100
AcDbSymbolTableRecord
100
AcDbLayerTableRecord
  2
Level 14
 70
     0
 62
     7
  6
Continuous
370
     0
390
517
  0
LAYER
  5
15
330
514
100
AcDbSymbolTableRecord
100
AcDbLayerTableRecord
  2
Level 15
 70
     0
 62
     7
  6
Continuous
370
     0
390
517
  0
LAYER
  5
16
330
514
100
AcDbSymbolTableRecord
100
AcDbLayerTableRecord
  2
Level 16
 70
     0
 62
     7
  6
Continuous
370
     0
390
517
  0
LAYER
  5
17
330
514
100
AcDbSymbolTableRecord
100
AcDbLayerTableRecord
  2
Level 17
 70
     0
 62
     7
  6
Continuous
370
     0
390
517
  0
LAYER
  5
18
330
514
100
AcDbSymbolTableRecord
100
AcDbLayerTableRecord
  2
Level 18
 70
     0
 62
     7
  6
Continuous
370
     0
390
517
  0
LAYER
  5
19
330
514
100
AcDbSymbolTableRecord
100
AcDbLayerTableRecord
  2
Level 19
 70
     0
 62
     7
  6
Continuous
370
     0
390
517
  0
LAYER
  5
1A
330
514
100
AcDbSymbolTableRecord
100
AcDbLayerTableRecord
  2
Level 20
 70
     0
 62
     7
  6
Continuous
370
     0
390
517
  0
LAYER
  5
1B
330
514
100
AcDbSymbolTableRecord
100
AcDbLayerTableRecord
  2
Level 21
 70
     0
 62
     7
  6
Continuous
370
     0
390
517
  0
LAYER
  5
1C
330
514
100
AcDbSymbolTableRecord
100
AcDbLayerTableRecord
  2
Level 22
 70
     0
 62
     7
  6
Continuous
370
     0
390
517
  0
LAYER
  5
1D
330
514
100
AcDbSymbolTableRecord
100
AcDbLayerTableRecord
  2
Level 23
 70
     0
 62
     7
  6
Continuous
370
     0
390
517
  0
LAYER
  5
1E
330
514
100
AcDbSymbolTableRecord
100
AcDbLayerTableRecord
  2
Level 24
 70
     0
 62
     7
  6
Continuous
370
     0
390
517
  0
LAYER
  5
1F
330
514
100
AcDbSymbolTableRecord
100
AcDbLayerTableRecord
  2
Level 25
 70
     0
 62
     7
  6
Continuous
370
     0
390
517
  0
LAYER
  5
20
330
514
100
AcDbSymbolTableRecord
100
AcDbLayerTableRecord
  2
Level 26
 70
     0
 62
     7
  6
Continuous
370
     0
390
517
  0
LAYER
  5
21
330
514
100
AcDbSymbolTableRecord
100
AcDbLayerTableRecord
  2
Level 27
 70
     0
 62
     7
  6
Continuous
370
     0
390
517
  0
LAYER
  5
22
330
514
100
AcDbSymbolTableRecord
100
AcDbLayerTableRecord
  2
Level 28
 70
     0
 62
     7
  6
Continuous
370
     0
390
517
  0
LAYER
  5
23
330
514
100
AcDbSymbolTableRecord
100
AcDbLayerTableRecord
  2
Level 29
 70
     0
 62
     7
  6
Continuous
370
     0
390
517
  0
LAYER
  5
24
330
514
100
AcDbSymbolTableRecord
100
AcDbLayerTableRecord
  2
Level 30
 70
     0
 62
     7
  6
Continuous
370
     0
390
517
  0
LAYER
  5
25
330
514
100
AcDbSymbolTableRecord
100
AcDbLayerTableRecord
  2
Level 31
 70
     0
 62
     7
  6
Continuous
370
     0
390
517
  0
LAYER
  5
26
330
514
100
AcDbSymbolTableRecord
100
AcDbLayerTableRecord
  2
Level 32
 70
     0
 62
     7
  6
Continuous
370
     0
390
517
  0
LAYER
  5
27
330
514
100
AcDbSymbolTableRecord
100
AcDbLayerTableRecord
  2
Level 33
 70
     0
 62
     7
  6
Continuous
370
     0
390
517
  0
LAYER
  5
28
330
514
100
AcDbSymbolTableRecord
100
AcDbLayerTableRecord
  2
Level 34
 70
     0
 62
     7
  6
Continuous
370
     0
390
517
  0
LAYER
  5
29
330
514
100
AcDbSymbolTableRecord
100
AcDbLayerTableRecord
  2
Level 35
 70
     0
 62
     7
  6
Continuous
370
     0
390
517
  0
LAYER
  5
2A
330
514
100
AcDbSymbolTableRecord
100
AcDbLayerTableRecord
  2
Level 36
 70
     0
 62
     7
  6
Continuous
370
     0
390
517
  0
LAYER
  5
2B
330
514
100
AcDbSymbolTableRecord
100
AcDbLayerTableRecord
  2
Level 37
 70
     0
 62
     7
  6
Continuous
370
     0
390
517
  0
LAYER
  5
2C
330
514
100
AcDbSymbolTableRecord
100
AcDbLayerTableRecord
  2
Level 38
 70
     0
 62
     7
  6
Continuous
370
     0
390
517
  0
LAYER
  5
2D
330
514
100
AcDbSymbolTableRecord
100
AcDbLayerTableRecord
  2
Level 39
 70
     0
 62
     7
  6
Continuous
370
     0
390
517
  0
LAYER
  5
2E
330
514
100
AcDbSymbolTableRecord
100
AcDbLayerTableRecord
  2
Level 40
 70
     0
 62
     7
  6
Continuous
370
     0
390
517
  0
LAYER
  5
2F
330
514
100
AcDbSymbolTableRecord
100
AcDbLayerTableRecord
  2
Level 41
 70
     0
 62
     7
  6
Continuous
370
     0
390
517
  0
LAYER
  5
30
330
514
100
AcDbSymbolTableRecord
100
AcDbLayerTableRecord
  2
Level 42
 70
     0
 62
     7
  6
Continuous
370
     0
390
517
  0
LAYER
  5
31
330
514
100
AcDbSymbolTableRecord
100
AcDbLayerTableRecord
  2
Level 43
 70
     0
 62
     7
  6
Continuous
370
     0
390
517
  0
LAYER
  5
32
330
514
100
AcDbSymbolTableRecord
100
AcDbLayerTableRecord
  2
Level 44
 70
     0
 62
     7
  6
Continuous
370
     0
390
517
  0
LAYER
  5
33
330
514
100
AcDbSymbolTableRecord
100
AcDbLayerTableRecord
  2
Level 45
 70
     0
 62
     7
  6
Continuous
370
     0
390
517
  0
LAYER
  5
34
330
514
100
AcDbSymbolTableRecord
100
AcDbLayerTableRecord
  2
Level 46
 70
     0
 62
     7
  6
Continuous
370
     0
390
517
  0
LAYER
  5
35
330
514
100
AcDbSymbolTableRecord
100
AcDbLayerTableRecord
  2
Level 47
 70
     0
 62
     7
  6
Continuous
370
     0
390
517
  0
LAYER
  5
36
330
514
100
AcDbSymbolTableRecord
100
AcDbLayerTableRecord
  2
Level 48
 70
     0
 62
     7
  6
Continuous
370
     0
390
517
  0
LAYER
  5
37
330
514
100
AcDbSymbolTableRecord
100
AcDbLayerTableRecord
  2
Level 49
 70
     0
 62
     7
  6
Continuous
370
     0
390
517
  0
LAYER
  5
38
330
514
100
AcDbSymbolTableRecord
100
AcDbLayerTableRecord
  2
Level 50
 70
     0
 62
     7
  6
Continuous
370
     0
390
517
  0
LAYER
  5
39
330
514
100
AcDbSymbolTableRecord
100
AcDbLayerTableRecord
  2
Level 51
 70
     0
 62
     7
  6
Continuous
370
     0
390
517
  0
LAYER
  5
3A
330
514
100
AcDbSymbolTableRecord
100
AcDbLayerTableRecord
  2
Level 52
 70
     0
 62
     7
  6
Continuous
370
     0
390
517
  0
LAYER
  5
3B
330
514
100
AcDbSymbolTableRecord
100
AcDbLayerTableRecord
  2
Level 53
 70
     0
 62
     7
  6
Continuous
370
     0
390
517
  0
LAYER
  5
3C
330
514
100
AcDbSymbolTableRecord
100
AcDbLayerTableRecord
  2
Level 54
 70
     0
 62
     7
  6
Continuous
370
     0
390
517
  0
LAYER
  5
3D
330
514
100
AcDbSymbolTableRecord
100
AcDbLayerTableRecord
  2
Level 55
 70
     0
 62
     7
  6
Continuous
370
     0
390
517
  0
LAYER
  5
3E
330
514
100
AcDbSymbolTableRecord
100
AcDbLayerTableRecord
  2
Level 56
 70
     0
 62
     7
  6
Continuous
370
     0
390
517
  0
LAYER
  5
3F
330
514
100
AcDbSymbolTableRecord
100
AcDbLayerTableRecord
  2
Level 57
 70
     0
 62
     7
  6
Continuous
370
     0
390
517
  0
LAYER
  5
40
330
514
100
AcDbSymbolTableRecord
100
AcDbLayerTableRecord
  2
Level 58
 70
     0
 62
     7
  6
Continuous
370
     0
390
517
  0
LAYER
  5
41
330
514
100
AcDbSymbolTableRecord
100
AcDbLayerTableRecord
  2
Level 59
 70
     0
 62
     7
  6
Continuous
370
     0
390
517
  0
LAYER
  5
42
330
514
100
AcDbSymbolTableRecord
100
AcDbLayerTableRecord
  2
Level 60
 70
     0
 62
     7
  6
Continuous
370
     0
390
517
  0
LAYER
  5
43
330
514
100
AcDbSymbolTableRecord
100
AcDbLayerTableRecord
  2
Level 61
 70
     0
 62
     7
  6
Continuous
370
     0
390
517
  0
LAYER
  5
44
330
514
100
AcDbSymbolTableRecord
100
AcDbLayerTableRecord
  2
Level 62
 70
     0
 62
     7
  6
Continuous
370
     0
390
517
  0
LAYER
  5
45
330
514
100
AcDbSymbolTableRecord
100
AcDbLayerTableRecord
  2
_0
 70
     0
 62
     7
  6
Continuous
370
     0
390
517
1001
AcAecLayerStandard
1000

1000
0
  0
ENDTAB
  0
TABLE
  2
STYLE
  5
51F
330
0
100
AcDbSymbolTable
 70
     2
  0
STYLE
  5
51E
330
51F
100
AcDbSymbolTableRecord
100
AcDbTextStyleTableRecord
  2
Standard
 70
     0
 40
0.0
 41
1.0
 50
0.0
 71
     0
 42
0.113906
  3
txt
  4

  0
STYLE
  5
53E
330
51F
100
AcDbSymbolTableRecord
100
AcDbTextStyleTableRecord
  2
Style-Arial
 70
     0
 40
0.0
 41
1.0
 50
0.0
 71
     0
 42
0.2
  3

  4

1001
ACAD
1000
Arial
1071
       39
  0
ENDTAB
  0
TABLE
  2
VIEW
  5
532
330
0
100
AcDbSymbolTable
 70
     0
  0
ENDTAB
  0
TABLE
  2
UCS
  5
533
330
0
100
AcDbSymbolTable
 70
     0
  0
ENDTAB
  0
TABLE
  2
APPID
  5
531
330
0
100
AcDbSymbolTable
 70
     3
  0
APPID
  5
539
330
531
100
AcDbSymbolTableRecord
100
AcDbRegAppTableRecord
  2
ACAD
 70
     0
  0
APPID
  5
530
330
531
100
AcDbSymbolTableRecord
100
AcDbRegAppTableRecord
  2
ACAD_PSEXT
 70
     0
  0
APPID
  5
53B
330
531
100
AcDbSymbolTableRecord
100
AcDbRegAppTableRecord
  2
AcAecLayerStandard
 70
     0
  0
ENDTAB
  0
TABLE
  2
DIMSTYLE
  5
521
330
0
100
AcDbSymbolTable
 70
     1
100
AcDbDimStyleTable
  0
DIMSTYLE
105
520
330
521
100
AcDbSymbolTableRecord
100
AcDbDimStyleTableRecord
  2
Standard
 70
     0
340
51E
  0
ENDTAB
  0
TABLE
  2
BLOCK_RECORD
  5
524
330
0
100
AcDbSymbolTable
 70
     2
  0
BLOCK_RECORD
  5
525
102
{ACAD_XDICTIONARY
360
54C
102
}
330
524
100
AcDbSymbolTableRecord
100
AcDbBlockTableRecord
  2
*Model_Space
340
528
  0
BLOCK_RECORD
  5
52A
330
524
100
AcDbSymbolTableRecord
100
AcDbBlockTableRecord
  2
*Paper_Space
340
52D
  0
BLOCK_RECORD
  5
53F
330
524
100
AcDbSymbolTableRecord
100
AcDbBlockTableRecord
  2
TerminatorOpen_0.5
340
0
  0
BLOCK_RECORD
  5
549
330
524
100
AcDbSymbolTableRecord
100
AcDbBlockTableRecord
  2
LARROW
340
0
102
{BLKREFS
331
4B6
102
}
  0
ENDTAB
  0
ENDSEC
  0
SECTION
  2
BLOCKS
  0
BLOCK
  5
526
330
525
100
AcDbEntity
  8
0
100
AcDbBlockBegin
  2
*Model_Space
 70
     0
 71
     0
 10
0.0
 20
0.0
 30
0.0
  3
*Model_Space
  1

  0
ENDBLK
  5
527
330
525
100
AcDbEntity
  8
0
100
AcDbBlockEnd
  0
BLOCK
  5
52B
330
52A
100
AcDbEntity
 67
     1
  8
0
100
AcDbBlockBegin
  2
*Paper_Space
 70
     0
 71
     0
 10
0.0
 20
0.0
 30
0.0
  3
*Paper_Space
  1

  0
ENDBLK
  5
52C
330
52A
100
AcDbEntity
 67
     1
  8
0
100
AcDbBlockEnd
  0
BLOCK
  5
543
330
53F
100
AcDbEntity
  8
0
100
AcDbBlockBegin
  2
TerminatorOpen_0.5
 70
     0
 71
     0
 10
0.0
 20
0.0
 30
0.0
  3
TerminatorOpen_0.5
  1

  0
LINE
  5
540
330
53F
100
AcDbEntity
  8
0
  6
ByBlock
 62
     0
370
    -2
100
AcDbLine
 10
0.0
 20
0.0
 30
0.0
 11
-1.0
 21
0.0
 31
0.0
  0
LINE
  5
541
330
53F
100
AcDbEntity
  8
0
  6
ByBlock
 62
     0
370
    -2
100
AcDbLine
 10
0.0
 20
0.0
 30
0.0
 11
-1.0
 21
0.25
 31
0.0
  0
LINE
  5
542
330
53F
100
AcDbEntity
  8
0
  6
ByBlock
 62
     0
370
    -2
100
AcDbLine
 10
0.0
 20
0.0
 30
0.0
 11
-1.0
 21
-0.25
 31
0.0
  0
ENDBLK
  5
544
330
53F
100
AcDbEntity
  8
0
100
AcDbBlockEnd
  0
BLOCK
  5
54A
330
549
100
AcDbEntity
  8
0
100
AcDbBlockBegin
  2
LARROW
 70
     0
 71
     0
 10
0.0
 20
0.0
 30
0.0
  3
LARROW
  1

  0
LINE
  5
4B7
330
549
100
AcDbEntity
  8
TEXT
  6
Continuous
 62
     7
370
    13
100
AcDbLine
 10
0.0
 20
0.0
 30
0.0
 11
-0.013031
 21
0.001886
 31
0.0
  0
LINE
  5
4B8
330
549
100
AcDbEntity
  8
TEXT
  6
Continuous
 62
     7
370
    13
100
AcDbLine
 10
0.0
 20
0.0
 30
0.0
 11
-0.013021
 21
-0.001886
 31
0.0
  0
LWPOLYLINE
  5
4B9
330
549
100
AcDbEntity
  8
TEXT
  6
Continuous
 62
     7
370
    13
100
AcDbPolyline
 90
        9
 70
   128
 43
0.0
 10
-0.013031
 20
0.001886
 10
-0.012251
 20
0.001292
 10
-0.011896
 20
0.000813
 10
-0.011718
 20
0.000365
 10
-0.011688
 20
-0.000053
 10
-0.01175
 20
-0.000458
 10
-0.011959
 20
-0.000896
 10
-0.012322
 20
-0.001354
 10
-0.013021
 20
-0.001886
  0
LINE
  5
4BA
330
549
100
AcDbEntity
  8
TEXT
  6
Continuous
 62
     7
370
    13
100
AcDbLine
 10
0.0
 20
0.0
 30
0.0
 11
-0.012251
 21
0.001292
 31
0.0
  0
LINE
  5
4BB
330
549
100
AcDbEntity
  8
TEXT
  6
Continuous
 62
     7
370
    13
100
AcDbLine
 10
0.0
 20
0.0
 30
0.0
 11
-0.011896
 21
0.000813
 31
0.0
  0
LINE
  5
4BC
330
549
100
AcDbEntity
  8
TEXT
  6
Continuous
 62
     7
370
    13
100
AcDbLine
 10
0.0
 20
0.0
 30
0.0
 11
-0.011718
 21
0.000365
 31
0.0
  0
LINE
  5
4BD
330
549
100
AcDbEntity
  8
TEXT
  6
Continuous
 62
     7
370
    13
100
AcDbLine
 10
0.0
 20
0.0
 30
0.0
 11
-0.01175
 21
-0.000458
 31
0.0
  0
LINE
  5
4BE
330
549
100
AcDbEntity
  8
TEXT
  6
Continuous
 62
     7
370
    13
100
AcDbLine
 10
0.0
 20
0.0
 30
0.0
 11
-0.011959
 21
-0.000896
 31
0.0
  0
LINE
  5
4BF
330
549
100
AcDbEntity
  8
TEXT
  6
Continuous
 62
     7
370
    13
100
AcDbLine
 10
0.0
 20
0.0
 30
0.0
 11
-0.012322
 21
-0.001354
 31
0.0
  0
LINE
  5
4C0
330
549
100
AcDbEntity
  8
TEXT
  6
Continuous
 62
     7
370
    13
100
AcDbLine
 10
0.0
 20
0.0
 30
0.0
 11
-0.011676
 21
0.000001
 31
0.0
  0
ENDBLK
  5
54B
330
549
100
AcDbEntity
  8
0
100
AcDbBlockEnd
  0
ENDSEC
  0
SECTION
  2
ENTITIES
  0
LINE
  5
5B
330
525
100
AcDbEntity
  8
_0
  6
Continuous
 62
     7
370
    13
100
AcDbLine
 10
90.905312
 20
-45.90251
 30
0.0
 11
90.69876
 21
-45.90251
 31
0.0
  0
POINT
  5
5C
330
525
100
AcDbEntity
  8
_0
  6
Continuous
 62
     7
370
    13
100
AcDbPoint
 10
80.891417
 20
-38.026885
 30
0.0
  0
LINE
  5
5D
330
525
100
AcDbEntity
  8
_0
  6
Continuous
 62
     7
370
    13
100
AcDbLine
 10
90.905312
 20
-37.401833
 30
0.0
 11
90.69876
 21
-37.401833
 31
0.0
  0
LINE
  5
5E
330
525
100
AcDbEntity
  8
_0
  6
Continuous
 62
     7
370
    13
100
AcDbLine
 10
90.905312
 20
-45.90251
 30
0.0
 11
90.905312
 21
-45.695958
 31
0.0
  0
LINE
  5
5F
330
525
100
AcDbEntity
  8
_0
  6
Continuous
 62
     7
370
    13
100
AcDbLine
 10
79.904438
 20
-45.90251
 30
0.0
 11
79.904438
 21
-45.695958
 31
0.0
  0
LINE
  5
60
330
525
100
AcDbEntity
  8
_0
  6
Continuous
 62
     7
370
    13
100
AcDbLine
 10
90.905312
 20
-37.608396
 30
0.0
 11
90.905312
 21
-37.401833
 31
0.0
  0
LINE
  5
61
330
525
100
AcDbEntity
  8
_0
  6
Continuous
 62
     7
370
    13
100
AcDbLine
 10
80.11099
 20
-45.90251
 30
0.0
 11
79.904438
 21
-45.90251
 31
0.0
  0
LINE
  5
62
330
525
100
AcDbEntity
  8
_0
  6
Continuous
 62
     7
370
    13
100
AcDbLine
 10
80.11099
 20
-37.401833
 30
0.0
 11
79.904438
 21
-37.401833
 31
0.0
  0
LINE
  5
63
330
525
100
AcDbEntity
  8
_0
  6
Continuous
 62
     7
370
    13
100
AcDbLine
 10
79.904438
 20
-37.608396
 30
0.0
 11
79.904438
 21
-37.401833
 31
0.0
  0
LWPOLYLINE
  5
64
330
525
100
AcDbEntity
  8
_0
  6
Continuous
 62
     7
370
     0
100
AcDbPolyline
 90
       10
 70
   128
 43
0.0
 10
82.032667
 20
-41.915146
 10
82.015719
 20
-41.915146
 10
81.86801
 20
-42.010438
 10
81.86801
 20
-42.049156
 10
82.023031
 20
-42.149167
 10
82.023031
 20
-42.310469
 10
81.86801
 20
-42.410469
 10
81.86801
 20
-42.449188
 10
82.015719
 20
-42.544479
 10
82.032667
 20
-42.544479
  0
LWPOLYLINE
  5
65
330
525
100
AcDbEntity
  8
_0
  6
Continuous
 62
     7
370
     0
100
AcDbPolyline
 90
       10
 70
   128
 43
0.0
 10
82.032667
 20
-41.894427
 10
82.009615
 20
-41.894427
 10
81.847292
 20
-41.999146
 10
81.847292
 20
-42.060448
 10
82.002313
 20
-42.160448
 10
82.002313
 20
-42.299177
 10
81.847292
 20
-42.399177
 10
81.847292
 20
-42.460479
 10
82.009615
 20
-42.565198
 10
82.032667
 20
-42.565198
  0
LINE
  5
67
330
525
100
AcDbEntity
  8
TEXT
  6
Continuous
 62
     7
370
    13
100
AcDbLine
 10
81.887885
 20
-43.586708
 30
0.0
 11
81.933427
 21
-43.586708
 31
0.0
  0
LINE
  5
68
330
525
100
AcDbEntity
  8
TEXT
  6
Continuous
 62
     7
370
    13
100
AcDbLine
 10
81.985187
 20
-43.731198
 30
0.0
 11
81.887885
 21
-43.586708
 31
0.0
  0
SOLID
  5
69
330
525
100
AcDbEntity
  8
TEXT
  6
Continuous
 62
     7
370
    13
100
AcDbTrace
 10
81.992104
 20
-43.726542
 30
0.0
 11
81.978271
 21
-43.735854
 31
0.0
 12
82.013115
 22
-43.772677
 32
0.0
 13
82.013115
 23
-43.772677
 33
0.0
  0
LWPOLYLINE
  5
6A
330
525
100
AcDbEntity
  8
_0
  6
Continuous
 62
     7
370
     0
100
AcDbPolyline
 90
       11
 70
   128
 43
0.0
 10
83.386567
 20
-43.656275
 42
0.019504
 10
83.382375
 20
-43.69864
 42
0.031086
 10
83.382442
 20
-43.725366
 42
0.014781
 10
83.38605
 20
-43.763548
 42
-0.026157
 10
83.387599
 20
-43.785176
 42
-0.061934
 10
83.384091
 20
-43.818607
 42
0.053269
 10
83.379348
 20
-43.85736
 42
0.066185
 10
83.382434
 20
-43.883658
 42
-0.057024
 10
83.386567
 20
-43.914077
 42
-0.066639
 10
83.385262
 20
-43.925694
 42
-0.034541
 10
83.378316
 20
-43.947075
  0
LWPOLYLINE
  5
75
330
525
100
AcDbEntity
  8
_0
  6
Continuous
 62
     7
370
     0
100
AcDbPolyline
 90
       11
 70
   128
 43
0.0
 10
83.496925
 20
-43.665556
 42
0.019504
 10
83.492732
 20
-43.707921
 42
0.031086
 10
83.492799
 20
-43.734647
 42
0.014781
 10
83.496408
 20
-43.772829
 42
-0.026157
 10
83.497956
 20
-43.794457
 42
-0.061934
 10
83.494449
 20
-43.827887
 42
0.053269
 10
83.489705
 20
-43.866641
 42
0.066185
 10
83.492791
 20
-43.892939
 42
-0.057024
 10
83.496925
 20
-43.923357
 42
-0.066639
 10
83.495619
 20
-43.934975
 42
-0.034541
 10
83.488674
 20
-43.956356
  0
LINE
  5
81
330
525
100
AcDbEntity
  8
TEXT
  6
Continuous
 62
     7
370
    13
100
AcDbLine
 10
82.024469
 20
-41.600906
 30
0.0
 11
81.935958
 21
-41.600906
 31
0.0
  0
LINE
  5
82
330
525
100
AcDbEntity
  8
TEXT
  6
Continuous
 62
     7
370
    13
100
AcDbLine
 10
81.954177
 20
-41.858542
 30
0.0
 11
82.024469
 21
-41.600906
 31
0.0
  0
SOLID
  5
83
330
525
100
AcDbEntity
  8
TEXT
  6
Continuous
 62
     7
370
    13
100
AcDbTrace
 10
-81.962219
 20
-41.86074
 30
0.0
 11
-81.946135
 21
-41.856344
 31
0.0
 12
-81.94101
 22
-41.906781
 32
0.0
 13
-81.94101
 23
-41.906781
 33
0.0
210
0.0
220
0.0
230
-1.0
  0
LINE
  5
85
330
525
100
AcDbEntity
  8
TEXT
  6
Continuous
 62
     7
370
    13
100
AcDbLine
 10
86.267458
 20
-43.415115
 30
0.0
 11
86.217458
 21
-43.415115
 31
0.0
  0
LINE
  5
86
330
525
100
AcDbEntity
  8
TEXT
  6
Continuous
 62
     7
370
    13
100
AcDbLine
 10
86.597573
 20
-43.773667
 30
0.0
 11
86.267458
 21
-43.415115
 31
0.0
  0
SOLID
  5
87
330
525
100
AcDbEntity
  8
TEXT
  6
Continuous
 62
     7
370
    13
100
AcDbTrace
 10
86.603802
 20
-43.768135
 30
0.0
 11
86.591344
 21
-43.779208
 31
0.0
 12
86.630802
 22
-43.811031
 32
0.0
 13
86.630802
 23
-43.811031
 33
0.0
  0
SOLID
  5
8B
330
525
100
AcDbEntity
  8
DIM
  6
Continuous
 62
     7
370
    13
100
AcDbTrace
 10
83.758865
 20
-44.164562
 30
0.0
 11
83.758865
 21
-44.147896
 31
0.0
 12
83.708854
 22
-44.156229
 32
0.0
 13
83.708854
 23
-44.156229
 33
0.0
  0
SOLID
  5
8C
330
525
100
AcDbEntity
  8
DIM
  6
Continuous
 62
     7
370
    13
100
AcDbTrace
 10
84.158927
 20
-44.164562
 30
0.0
 11
84.158927
 21
-44.147896
 31
0.0
 12
84.208927
 22
-44.156229
 32
0.0
 13
84.208927
 23
-44.156229
 33
0.0
  0
LINE
  5
8D
330
525
100
AcDbEntity
  8
DIM
  6
Continuous
 62
     7
370
    13
100
AcDbLine
 10
84.158927
 20
-44.156229
 30
0.0
 11
83.758865
 21
-44.156229
 31
0.0
  0
LINE
  5
8E
330
525
100
AcDbEntity
  8
DIM
  6
Continuous
 62
     7
370
    13
100
AcDbLine
 10
83.708854
 20
-43.977573
 30
0.0
 11
83.708854
 21
-44.206229
 31
0.0
  0
LINE
  5
8F
330
525
100
AcDbEntity
  8
DIM
  6
Continuous
 62
     7
370
    13
100
AcDbLine
 10
84.208927
 20
-43.977573
 30
0.0
 11
84.208927
 21
-44.206229
 31
0.0
  0
SOLID
  5
91
330
525
100
AcDbEntity
  8
DIM
  6
Continuous
 62
     7
370
    13
100
AcDbTrace
 10
84.750292
 20
-44.228615
 30
0.0
 11
84.750292
 21
-44.211948
 31
0.0
 12
84.700292
 22
-44.220281
 32
0.0
 13
84.700292
 23
-44.220281
 33
0.0
  0
SOLID
  5
92
330
525
100
AcDbEntity
  8
DIM
  6
Continuous
 62
     7
370
    13
100
AcDbTrace
 10
85.144781
 20
-44.228615
 30
0.0
 11
85.144781
 21
-44.211948
 31
0.0
 12
85.194792
 22
-44.220281
 32
0.0
 13
85.194792
 23
-44.220281
 33
0.0
  0
LINE
  5
93
330
525
100
AcDbEntity
  8
DIM
  6
Continuous
 62
     7
370
    13
100
AcDbLine
 10
85.144781
 20
-44.220281
 30
0.0
 11
84.750292
 21
-44.220281
 31
0.0
  0
LINE
  5
94
330
525
100
AcDbEntity
  8
DIM
  6
Continuous
 62
     7
370
    13
100
AcDbLine
 10
84.700292
 20
-44.017458
 30
0.0
 11
84.700292
 21
-44.270281
 31
0.0
  0
LINE
  5
95
330
525
100
AcDbEntity
  8
DIM
  6
Continuous
 62
     7
370
    13
100
AcDbLine
 10
85.194792
 20
-44.058354
 30
0.0
 11
85.194792
 21
-44.270281
 31
0.0
  0
LINE
  5
96
330
525
100
AcDbEntity
  8
_0
  6
Continuous
 62
     7
370
    13
100
AcDbLine
 10
86.172521
 20
-44.089135
 30
0.0
 11
86.823615
 21
-44.089135
 31
0.0
  0
LINE
  5
97
330
525
100
AcDbEntity
  8
_0
  6
Continuous
 62
     7
370
    13
100
AcDbLine
 10
86.172521
 20
-43.539094
 30
0.0
 11
86.823615
 21
-43.539094
 31
0.0
  0
LINE
  5
98
330
525
100
AcDbEntity
  8
_0
  6
Continuous
 62
     7
370
    13
100
AcDbLine
 10
84.23224
 20
-43.701604
 30
0.0
 11
86.172521
 21
-43.539094
 31
0.0
  0
LINE
  5
99
330
525
100
AcDbEntity
  8
_0
  6
Continuous
 62
     7
370
    13
100
AcDbLine
 10
84.23224
 20
-43.926625
 30
0.0
 11
86.172521
 21
-44.089135
 31
0.0
  0
LINE
  5
9A
330
525
100
AcDbEntity
  8
_0
  6
Continuous
 62
     7
370
    13
100
AcDbLine
 10
83.496875
 20
-43.926625
 30
0.0
 11
84.23224
 21
-43.926625
 31
0.0
  0
LINE
  5
9B
330
525
100
AcDbEntity
  8
_0
  6
Continuous
 62
     7
370
    13
100
AcDbLine
 10
83.4965
 20
-43.701604
 30
0.0
 11
84.23224
 21
-43.701604
 31
0.0
  0
LINE
  5
9C
330
525
100
AcDbEntity
  8
_0
  6
Continuous
 62
     7
370
    13
100
AcDbLine
 10
85.222687
 20
-43.643552
 30
0.0
 11
85.232865
 21
-43.759823
 31
0.0
  0
LINE
  5
9D
330
525
100
AcDbEntity
  8
_0
  6
Continuous
 62
     7
370
    13
100
AcDbLine
 10
85.183052
 20
-43.764177
 30
0.0
 11
85.232865
 21
-43.759823
 31
0.0
  0
LINE
  5
9E
330
525
100
AcDbEntity
  8
_0
  6
Continuous
 62
     7
370
    13
100
AcDbLine
 10
85.177958
 20
-43.706
 30
0.0
 11
85.227771
 21
-43.701635
 31
0.0
  0
LINE
  5
9F
330
525
100
AcDbEntity
  8
_0
  6
Continuous
 62
     7
370
    13
100
AcDbLine
 10
85.172875
 20
-43.647917
 30
0.0
 11
85.183052
 21
-43.764177
 31
0.0
  0
LINE
  5
A0
330
525
100
AcDbEntity
  8
_0
  6
Continuous
 62
     7
370
    13
100
AcDbLine
 10
84.678604
 20
-43.689312
 30
0.0
 11
84.688771
 21
-43.805583
 31
0.0
  0
LINE
  5
A1
330
525
100
AcDbEntity
  8
_0
  6
Continuous
 62
     7
370
    13
100
AcDbLine
 10
84.683687
 20
-43.747396
 30
0.0
 11
84.7335
 21
-43.743042
 31
0.0
  0
LINE
  5
A2
330
525
100
AcDbEntity
  8
_0
  6
Continuous
 62
     7
370
    13
100
AcDbLine
 10
84.688771
 20
-43.805583
 30
0.0
 11
84.738583
 21
-43.801219
 31
0.0
  0
LINE
  5
A3
330
525
100
AcDbEntity
  8
_0
  6
Continuous
 62
     7
370
    13
100
AcDbLine
 10
84.728417
 20
-43.684958
 30
0.0
 11
84.738583
 21
-43.801219
 31
0.0
  0
LINE
  5
A4
330
525
100
AcDbEntity
  8
_0
  6
Continuous
 62
     7
370
    13
100
AcDbLine
 10
84.728417
 20
-43.943281
 30
0.0
 11
84.738583
 21
-43.827021
 31
0.0
  0
LINE
  5
A5
330
525
100
AcDbEntity
  8
_0
  6
Continuous
 62
     7
370
    13
100
AcDbLine
 10
84.688771
 20
-43.822656
 30
0.0
 11
84.738583
 21
-43.827021
 31
0.0
  0
LINE
  5
A6
330
525
100
AcDbEntity
  8
_0
  6
Continuous
 62
     7
370
    13
100
AcDbLine
 10
84.683687
 20
-43.880844
 30
0.0
 11
84.7335
 21
-43.885198
 31
0.0
  0
LINE
  5
A7
330
525
100
AcDbEntity
  8
_0
  6
Continuous
 62
     7
370
    13
100
AcDbLine
 10
84.678604
 20
-43.938927
 30
0.0
 11
84.688771
 21
-43.822656
 31
0.0
  0
LINE
  5
A8
330
525
100
AcDbEntity
  8
_0
  6
Continuous
 62
     7
370
    13
100
AcDbLine
 10
86.723667
 20
-44.064135
 30
0.0
 11
86.723667
 21
-43.947427
 31
0.0
  0
LINE
  5
A9
330
525
100
AcDbEntity
  8
_0
  6
Continuous
 62
     7
370
    13
100
AcDbLine
 10
86.673656
 20
-43.947427
 30
0.0
 11
86.723667
 21
-43.947427
 31
0.0
  0
LINE
  5
AA
330
525
100
AcDbEntity
  8
_0
  6
Continuous
 62
     7
370
    13
100
AcDbLine
 10
86.673656
 20
-44.005833
 30
0.0
 11
86.723667
 21
-44.005833
 31
0.0
  0
LINE
  5
AB
330
525
100
AcDbEntity
  8
_0
  6
Continuous
 62
     7
370
    13
100
AcDbLine
 10
86.673656
 20
-44.064135
 30
0.0
 11
86.673656
 21
-43.947427
 31
0.0
  0
LINE
  5
AC
330
525
100
AcDbEntity
  8
_0
  6
Continuous
 62
     7
370
    13
100
AcDbLine
 10
86.724937
 20
-43.680813
 30
0.0
 11
86.724937
 21
-43.564094
 31
0.0
  0
LINE
  5
AD
330
525
100
AcDbEntity
  8
_0
  6
Continuous
 62
     7
370
    13
100
AcDbLine
 10
86.674937
 20
-43.622406
 30
0.0
 11
86.724937
 21
-43.622406
 31
0.0
  0
LINE
  5
AE
330
525
100
AcDbEntity
  8
_0
  6
Continuous
 62
     7
370
    13
100
AcDbLine
 10
86.674937
 20
-43.680813
 30
0.0
 11
86.724937
 21
-43.680813
 31
0.0
  0
LINE
  5
AF
330
525
100
AcDbEntity
  8
_0
  6
Continuous
 62
     7
370
    13
100
AcDbLine
 10
86.674937
 20
-43.680813
 30
0.0
 11
86.674937
 21
-43.564094
 31
0.0
  0
LINE
  5
B0
330
525
100
AcDbEntity
  8
_0
  6
Continuous
 62
     7
370
    13
100
AcDbLine
 10
86.225292
 20
-44.064135
 30
0.0
 11
86.225292
 21
-43.947427
 31
0.0
  0
LINE
  5
B1
330
525
100
AcDbEntity
  8
_0
  6
Continuous
 62
     7
370
    13
100
AcDbLine
 10
86.175281
 20
-43.947427
 30
0.0
 11
86.225292
 21
-43.947427
 31
0.0
  0
LINE
  5
B2
330
525
100
AcDbEntity
  8
_0
  6
Continuous
 62
     7
370
    13
100
AcDbLine
 10
86.175281
 20
-44.005833
 30
0.0
 11
86.225292
 21
-44.005833
 31
0.0
  0
LINE
  5
B3
330
525
100
AcDbEntity
  8
_0
  6
Continuous
 62
     7
370
    13
100
AcDbLine
 10
86.175281
 20
-44.064135
 30
0.0
 11
86.175281
 21
-43.947427
 31
0.0
  0
LINE
  5
B4
330
525
100
AcDbEntity
  8
_0
  6
Continuous
 62
     7
370
    13
100
AcDbLine
 10
86.226562
 20
-43.680813
 30
0.0
 11
86.226562
 21
-43.564094
 31
0.0
  0
LINE
  5
B5
330
525
100
AcDbEntity
  8
_0
  6
Continuous
 62
     7
370
    13
100
AcDbLine
 10
86.176563
 20
-43.622406
 30
0.0
 11
86.226562
 21
-43.622406
 31
0.0
  0
LINE
  5
B6
330
525
100
AcDbEntity
  8
_0
  6
Continuous
 62
     7
370
    13
100
AcDbLine
 10
86.176563
 20
-43.680813
 30
0.0
 11
86.226562
 21
-43.680813
 31
0.0
  0
LINE
  5
B7
330
525
100
AcDbEntity
  8
_0
  6
Continuous
 62
     7
370
    13
100
AcDbLine
 10
86.176563
 20
-43.680813
 30
0.0
 11
86.176563
 21
-43.564094
 31
0.0
  0
LINE
  5
B8
330
525
100
AcDbEntity
  8
_0
  6
Continuous
 62
     7
370
    13
100
AcDbLine
 10
85.676292
 20
-43.722865
 30
0.0
 11
85.666125
 21
-43.606604
 31
0.0
  0
LINE
  5
B9
330
525
100
AcDbEntity
  8
_0
  6
Continuous
 62
     7
370
    13
100
AcDbLine
 10
85.676292
 20
-43.722865
 30
0.0
 11
85.726104
 21
-43.71851
 31
0.0
  0
LINE
  5
BA
330
525
100
AcDbEntity
  8
_0
  6
Continuous
 62
     7
370
    13
100
AcDbLine
 10
85.671208
 20
-43.664687
 30
0.0
 11
85.721021
 21
-43.660323
 31
0.0
  0
LINE
  5
BB
330
525
100
AcDbEntity
  8
_0
  6
Continuous
 62
     7
370
    13
100
AcDbLine
 10
85.726104
 20
-43.71851
 30
0.0
 11
85.715937
 21
-43.60224
 31
0.0
  0
LINE
  5
BC
330
525
100
AcDbEntity
  8
_0
  6
Continuous
 62
     7
370
    13
100
AcDbLine
 10
85.664844
 20
-44.021531
 30
0.0
 11
85.675021
 21
-43.905271
 31
0.0
  0
LINE
  5
BD
330
525
100
AcDbEntity
  8
_0
  6
Continuous
 62
     7
370
    13
100
AcDbLine
 10
85.669927
 20
-43.963448
 30
0.0
 11
85.71974
 21
-43.967802
 31
0.0
  0
LINE
  5
BE
330
525
100
AcDbEntity
  8
_0
  6
Continuous
 62
     7
370
    13
100
AcDbLine
 10
85.675021
 20
-43.905271
 30
0.0
 11
85.724833
 21
-43.909625
 31
0.0
  0
LINE
  5
BF
330
525
100
AcDbEntity
  8
_0
  6
Continuous
 62
     7
370
    13
100
AcDbLine
 10
85.714656
 20
-44.025885
 30
0.0
 11
85.724833
 21
-43.909625
 31
0.0
  0
LINE
  5
C0
330
525
100
AcDbEntity
  8
_0
  6
Continuous
 62
     7
370
    13
100
AcDbLine
 10
85.172875
 20
-43.980323
 30
0.0
 11
85.183052
 21
-43.864062
 31
0.0
  0
LINE
  5
C1
330
525
100
AcDbEntity
  8
_0
  6
Continuous
 62
     7
370
    13
100
AcDbLine
 10
85.177958
 20
-43.92224
 30
0.0
 11
85.227771
 21
-43.926604
 31
0.0
  0
LINE
  5
C2
330
525
100
AcDbEntity
  8
_0
  6
Continuous
 62
     7
370
    13
100
AcDbLine
 10
85.183052
 20
-43.864062
 30
0.0
 11
85.232865
 21
-43.868417
 31
0.0
  0
LINE
  5
C3
330
525
100
AcDbEntity
  8
_0
  6
Continuous
 62
     7
370
    13
100
AcDbLine
 10
85.222687
 20
-43.984677
 30
0.0
 11
85.232865
 21
-43.868417
 31
0.0
  0
LINE
  5
C4
330
525
100
AcDbEntity
  8
_0
  6
Continuous
 62
     7
370
    13
100
AcDbLine
 10
83.73325
 20
-43.901625
 30
0.0
 11
83.73325
 21
-43.726615
 31
0.0
  0
LINE
  5
C5
330
525
100
AcDbEntity
  8
_0
  6
Continuous
 62
     7
370
    13
100
AcDbLine
 10
83.68324
 20
-43.901625
 30
0.0
 11
83.68324
 21
-43.726615
 31
0.0
  0
LINE
  5
C6
330
525
100
AcDbEntity
  8
_0
  6
Continuous
 62
     7
370
    13
100
AcDbLine
 10
83.68324
 20
-43.843323
 30
0.0
 11
83.73325
 21
-43.843323
 31
0.0
  0
LINE
  5
C7
330
525
100
AcDbEntity
  8
_0
  6
Continuous
 62
     7
370
    13
100
AcDbLine
 10
83.68324
 20
-43.784917
 30
0.0
 11
83.73325
 21
-43.784917
 31
0.0
  0
LINE
  5
C8
330
525
100
AcDbEntity
  8
_0
  6
Continuous
 62
     7
370
    13
100
AcDbLine
 10
84.183281
 20
-43.784917
 30
0.0
 11
84.233281
 21
-43.784917
 31
0.0
  0
LINE
  5
C9
330
525
100
AcDbEntity
  8
_0
  6
Continuous
 62
     7
370
    13
100
AcDbLine
 10
84.183281
 20
-43.843323
 30
0.0
 11
84.233281
 21
-43.843323
 31
0.0
  0
LINE
  5
CA
330
525
100
AcDbEntity
  8
_0
  6
Continuous
 62
     7
370
    13
100
AcDbLine
 10
84.183281
 20
-43.901625
 30
0.0
 11
84.183281
 21
-43.726615
 31
0.0
  0
LINE
  5
CF
330
525
100
AcDbEntity
  8
_0
  6
Continuous
 62
     7
370
    13
100
AcDbLine
 10
84.233281
 20
-43.901625
 30
0.0
 11
86.173563
 21
-44.064135
 31
0.0
  0
LINE
  5
D0
330
525
100
AcDbEntity
  8
_0
  6
Continuous
 62
     7
370
    13
100
AcDbLine
 10
84.233281
 20
-43.726615
 30
0.0
 11
86.173563
 21
-43.564094
 31
0.0
  0
ARC
  5
D1
330
525
100
AcDbEntity
  8
_0
  6
Continuous
 62
     7
370
    13
100
AcDbCircle
 10
86.423586
 20
-43.814119
 30
0.0
 40
0.0875069999999995
100
AcDbArc
 50
90.0
 51
270.0
  0
LINE
  5
D2
330
525
100
AcDbEntity
  8
_0
  6
Continuous
 62
     7
370
    13
100
AcDbLine
 10
86.423583
 20
-43.901625
 30
0.0
 11
86.823615
 21
-43.901625
 31
0.0
  0
LINE
  5
D3
330
525
100
AcDbEntity
  8
_0
  6
Continuous
 62
     7
370
    13
100
AcDbLine
 10
86.423583
 20
-43.726615
 30
0.0
 11
86.823615
 21
-43.726615
 31
0.0
  0
LINE
  5
D4
330
525
100
AcDbEntity
  8
_0
  6
Continuous
 62
     7
370
    13
100
AcDbLine
 10
86.173563
 20
-44.064135
 30
0.0
 11
86.823615
 21
-44.064135
 31
0.0
  0
LINE
  5
D5
330
525
100
AcDbEntity
  8
_0
  6
Continuous
 62
     7
370
    13
100
AcDbLine
 10
86.173563
 20
-43.564094
 30
0.0
 11
86.823615
 21
-43.564094
 31
0.0
  0
LINE
  5
D6
330
525
100
AcDbEntity
  8
_0
  6
Continuous
 62
     7
370
    13
100
AcDbLine
 10
84.233281
 20
-43.901625
 30
0.0
 11
84.233281
 21
-43.726615
 31
0.0
  0
LINE
  5
D7
330
525
100
AcDbEntity
  8
_0
  6
Continuous
 62
     7
370
    13
100
AcDbLine
 10
82.058594
 20
-43.814115
 30
0.0
 11
83.383219
 21
-43.789115
 31
0.0
  0
LINE
  5
D8
330
525
100
AcDbEntity
  8
_0
  6
Continuous
 62
     7
370
    13
100
AcDbLine
 10
82.058594
 20
-43.814115
 30
0.0
 11
83.383219
 21
-43.839115
 31
0.0
  0
LINE
  5
D9
330
525
100
AcDbEntity
  8
_0
  6
Continuous
 62
     7
370
    13
100
AcDbLine
 10
83.493156
 20
-43.726615
 30
0.0
 11
84.233281
 21
-43.726615
 31
0.0
  0
LINE
  5
DA
330
525
100
AcDbEntity
  8
_0
  6
Continuous
 62
     7
370
    13
100
AcDbLine
 10
83.494698
 20
-43.901625
 30
0.0
 11
84.233281
 21
-43.901625
 31
0.0
  0
LINE
  5
DB
330
525
100
AcDbEntity
  8
_0
  6
Continuous
 62
     7
370
    13
100
AcDbLine
 10
82.033115
 20
-43.726615
 30
0.0
 11
83.383219
 21
-43.726615
 31
0.0
  0
LINE
  5
DC
330
525
100
AcDbEntity
  8
_0
  6
Continuous
 62
     7
370
    13
100
AcDbLine
 10
82.033115
 20
-43.901625
 30
0.0
 11
83.383219
 21
-43.901625
 31
0.0
  0
LINE
  5
DD
330
525
100
AcDbEntity
  8
_0
  6
Continuous
 62
     7
370
    13
100
AcDbLine
 10
82.033115
 20
-43.901625
 30
0.0
 11
82.033115
 21
-43.726615
 31
0.0
  0
LINE
  5
E2
330
525
100
AcDbEntity
  8
TEXT
  6
Continuous
 62
     7
370
    13
100
AcDbLine
 10
83.621094
 20
-41.979229
 30
0.0
 11
83.648135
 21
-41.979229
 31
0.0
  0
LINE
  5
E3
330
525
100
AcDbEntity
  8
TEXT
  6
Continuous
 62
     7
370
    13
100
AcDbLine
 10
83.154833
 20
-42.056281
 30
0.0
 11
83.621094
 21
-41.979229
 31
0.0
  0
SOLID
  5
E4
330
525
100
AcDbEntity
  8
TEXT
  6
Continuous
 62
     7
370
    13
100
AcDbTrace
 10
83.156208
 20
-42.0645
 30
0.0
 11
83.153458
 21
-42.048063
 31
0.0
 12
83.10551
 22
-42.064531
 32
0.0
 13
83.10551
 23
-42.064531
 33
0.0
  0
SOLID
  5
E9
330
525
100
AcDbEntity
  8
DIM
  6
Continuous
 62
     7
370
    13
100
AcDbTrace
 10
81.997344
 20
-42.655781
 30
0.0
 11
81.997344
 21
-42.639115
 31
0.0
 12
82.047354
 22
-42.647448
 32
0.0
 13
82.047354
 23
-42.647448
 33
0.0
  0
SOLID
  5
EA
330
525
100
AcDbEntity
  8
DIM
  6
Continuous
 62
     7
370
    13
100
AcDbTrace
 10
81.89951
 20
-42.655781
 30
0.0
 11
81.89951
 21
-42.639115
 31
0.0
 12
81.84951
 22
-42.647448
 32
0.0
 13
81.84951
 23
-42.647448
 33
0.0
  0
LINE
  5
EB
330
525
100
AcDbEntity
  8
DIM
  6
Continuous
 62
     7
370
    13
100
AcDbLine
 10
81.89951
 20
-42.647448
 30
0.0
 11
81.997344
 21
-42.647448
 31
0.0
  0
LINE
  5
EC
330
525
100
AcDbEntity
  8
DIM
  6
Continuous
 62
     7
370
    13
100
AcDbLine
 10
82.047354
 20
-42.607625
 30
0.0
 11
82.047354
 21
-42.697448
 31
0.0
  0
LINE
  5
ED
330
525
100
AcDbEntity
  8
DIM
  6
Continuous
 62
     7
370
    13
100
AcDbLine
 10
81.84951
 20
-42.509812
 30
0.0
 11
81.84951
 21
-42.697448
 31
0.0
  0
LINE
  5
EF
330
525
100
AcDbEntity
  8
TEXT
  6
Continuous
 62
     7
370
    13
100
AcDbLine
 10
86.919385
 20
-42.70876
 30
0.0
 11
86.989719
 21
-42.70876
 31
0.0
  0
LINE
  5
F0
330
525
100
AcDbEntity
  8
TEXT
  6
Continuous
 62
     7
370
    13
100
AcDbLine
 10
86.7125
 20
-42.62524
 30
0.0
 11
86.919385
 21
-42.70876
 31
0.0
  0
SOLID
  5
F1
330
525
100
AcDbEntity
  8
TEXT
  6
Continuous
 62
     7
370
    13
100
AcDbTrace
 10
-86.709385
 20
-42.632969
 30
0.0
 11
-86.715625
 21
-42.61751
 31
0.0
 12
-86.666135
 22
-42.606521
 32
0.0
 13
-86.666135
 23
-42.606521
 33
0.0
210
0.0
220
0.0
230
-1.0
  0
LINE
  5
F2
330
525
100
AcDbEntity
  8
_0
  6
Continuous
 62
     7
370
    13
100
AcDbLine
 10
82.989167
 20
-41.993573
 30
0.0
 11
83.139177
 21
-41.993573
 31
0.0
  0
LINE
  5
F3
330
525
100
AcDbEntity
  8
_0
  6
DGN Style 2
 62
     7
370
    13
100
AcDbLine
 10
82.989167
 20
-42.375469
 30
0.0
 11
82.989167
 21
-41.993042
 31
0.0
  0
LINE
  5
F4
330
525
100
AcDbEntity
  8
_0
  6
DGN Style 2
 62
     7
370
    13
100
AcDbLine
 10
83.139177
 20
-42.375469
 30
0.0
 11
83.139177
 21
-42.225458
 31
0.0
  0
SPLINE
  5
F5
330
525
100
AcDbEntity
  8
_0
  6
Continuous
 62
     7
370
     0
100
AcDbSpline
210
0.0
220
0.0
230
1.0
 70
     8
 71
     3
 72
    14
 73
    10
 74
     0
 42
0.0000000001
 43
0.00000001
 40
0.0
 40
0.0
 40
0.0
 40
0.0
 40
0.1428571428571428
 40
0.2857142857142857
 40
0.4285714285714285
 40
0.5714285714285714
 40
0.7142857142857142
 40
0.857142857142857
 40
1.0
 40
1.0
 40
1.0
 40
1.0
 10
82.7049375
 20
-42.02544791666666
 30
0.0
 10
82.66484375
 20
-42.10529166666667
 30
0.0
 10
82.72096875
 20
-42.13466666666667
 30
0.0
 10
82.7049375
 20
-42.18363541666667
 30
0.0
 10
82.69691666666667
 20
-42.23259375
 30
0.0
 10
82.7049375
 20
-42.27176041666667
 30
0.0
 10
82.65682291666667
 20
-42.29134375
 30
0.0
 10
82.68889583333333
 20
-42.33052083333333
 30
0.0
 10
82.69691666666667
 20
-42.3696875
 30
0.0
 10
82.69841666666666
 20
-42.37546875
 30
0.0
  0
SPLINE
  5
F7
330
525
100
AcDbEntity
  8
_0
  6
Continuous
 62
     7
370
     0
100
AcDbSpline
210
0.0
220
0.0
230
1.0
 70
     8
 71
     3
 72
    14
 73
    10
 74
     0
 42
0.0000000001
 43
0.00000001
 40
0.0
 40
0.0
 40
0.0
 40
0.0
 40
0.1428571428571428
 40
0.2857142857142857
 40
0.4285714285714285
 40
0.5714285714285714
 40
0.7142857142857142
 40
0.857142857142857
 40
1.0
 40
1.0
 40
1.0
 40
1.0
 10
83.53896875
 20
-42.02544791666666
 30
0.0
 10
83.498875
 20
-42.10529166666667
 30
0.0
 10
83.55501041666666
 20
-42.13466666666667
 30
0.0
 10
83.53896875
 20
-42.18363541666667
 30
0.0
 10
83.53094791666666
 20
-42.23259375
 30
0.0
 10
83.53896875
 20
-42.27176041666667
 30
0.0
 10
83.49085416666667
 20
-42.29134375
 30
0.0
 10
83.52292708333333
 20
-42.33052083333333
 30
0.0
 10
83.53094791666666
 20
-42.3696875
 30
0.0
 10
83.53244791666667
 20
-42.37546875
 30
0.0
  0
LINE
  5
F9
330
525
100
AcDbEntity
  8
_0
  6
Continuous
 62
     7
370
    13
100
AcDbLine
 10
82.704937
 20
-42.025448
 30
0.0
 11
83.538969
 21
-42.025448
 31
0.0
  0
LINE
  5
FA
330
525
100
AcDbEntity
  8
_0
  6
Continuous
 62
     7
370
    13
100
AcDbLine
 10
82.698417
 20
-42.375469
 30
0.0
 11
83.532448
 21
-42.375469
 31
0.0
  0
LINE
  5
FB
330
525
100
AcDbEntity
  8
_0
  6
Continuous
 62
     7
370
    13
100
AcDbLine
 10
82.689
 20
-42.275469
 30
0.0
 11
83.523031
 21
-42.275469
 31
0.0
  0
LINE
  5
FC
330
525
100
AcDbEntity
  8
_0
  6
Continuous
 62
     7
370
    13
100
AcDbLine
 10
82.708292
 20
-42.175458
 30
0.0
 11
83.542323
 21
-42.175458
 31
0.0
  0
LINE
  5
FD
330
525
100
AcDbEntity
  8
_0
  6
Continuous
 62
     7
370
    13
100
AcDbLine
 10
82.686146
 20
-42.075448
 30
0.0
 11
83.520187
 21
-42.075448
 31
0.0
  0
LINE
  5
FE
330
525
100
AcDbEntity
  8
_0
  6
Continuous
 62
     7
370
    13
100
AcDbLine
 10
82.681438
 20
-42.325469
 30
0.0
 11
83.515469
 21
-42.325469
 31
0.0
  0
LINE
  5
FF
330
525
100
AcDbEntity
  8
_0
  6
Continuous
 62
     7
370
    13
100
AcDbLine
 10
82.699708
 20
-42.225458
 30
0.0
 11
83.53374
 21
-42.225458
 31
0.0
  0
LINE
  5
100
330
525
100
AcDbEntity
  8
_0
  6
Continuous
 62
     7
370
    13
100
AcDbLine
 10
82.69599
 20
-42.125458
 30
0.0
 11
83.530021
 21
-42.125458
 31
0.0
  0
LINE
  5
103
330
525
100
AcDbEntity
  8
_0
  6
DGN Style 2
 62
     7
370
    13
100
AcDbLine
 10
83.305125
 20
-42.025448
 30
0.0
 11
83.305125
 21
-42.399437
 31
0.0
  0
LINE
  5
104
330
525
100
AcDbEntity
  8
_0
  6
Continuous
 62
     7
370
    13
100
AcDbLine
 10
82.905094
 20
-42.025448
 30
0.0
 11
82.905094
 21
-42.399437
 31
0.0
  0
LINE
  5
105
330
525
100
AcDbEntity
  8
_0
  6
Continuous
 62
     7
370
    13
100
AcDbLine
 10
83.255115
 20
-42.025448
 30
0.0
 11
83.255115
 21
-42.375469
 31
0.0
  0
LINE
  5
106
330
525
100
AcDbEntity
  8
_0
  6
Continuous
 62
     7
370
    13
100
AcDbLine
 10
82.955094
 20
-42.025448
 30
0.0
 11
82.955094
 21
-42.375469
 31
0.0
  0
LWPOLYLINE
  5
107
330
525
100
AcDbEntity
  8
_0
  6
Continuous
 62
     7
370
   100
100
AcDbPolyline
 90
        2
 70
   128
 43
0.0
 10
82.940979
 20
-42.152979
 10
82.965937
 20
-42.152979
  0
LWPOLYLINE
  5
108
330
525
100
AcDbEntity
  8
_0
  6
Continuous
 62
     7
370
   100
100
AcDbPolyline
 90
        2
 70
   128
 43
0.0
 10
83.240479
 20
-42.152979
 10
83.265437
 20
-42.152979
  0
LWPOLYLINE
  5
109
330
525
100
AcDbEntity
  8
_0
  6
Continuous
 62
     7
370
   100
100
AcDbPolyline
 90
        2
 70
   128
 43
0.0
 10
83.240479
 20
-42.07675
 10
83.265437
 20
-42.07675
  0
LWPOLYLINE
  5
10A
330
525
100
AcDbEntity
  8
_0
  6
Continuous
 62
     7
370
   100
100
AcDbPolyline
 90
        2
 70
   128
 43
0.0
 10
82.940979
 20
-42.07675
 10
82.965937
 20
-42.07675
  0
LWPOLYLINE
  5
10B
330
525
100
AcDbEntity
  8
_0
  6
Continuous
 62
     7
370
   100
100
AcDbPolyline
 90
        2
 70
   128
 43
0.0
 10
83.240479
 20
-42.252083
 10
83.265437
 20
-42.252083
  0
LWPOLYLINE
  5
10C
330
525
100
AcDbEntity
  8
_0
  6
Continuous
 62
     7
370
   100
100
AcDbPolyline
 90
        2
 70
   128
 43
0.0
 10
82.940979
 20
-42.252083
 10
82.965937
 20
-42.252083
  0
LWPOLYLINE
  5
10D
330
525
100
AcDbEntity
  8
_0
  6
Continuous
 62
     7
370
   100
100
AcDbPolyline
 90
        2
 70
   128
 43
0.0
 10
83.240479
 20
-42.328323
 10
83.265437
 20
-42.328323
  0
LWPOLYLINE
  5
10E
330
525
100
AcDbEntity
  8
_0
  6
Continuous
 62
     7
370
   100
100
AcDbPolyline
 90
        2
 70
   128
 43
0.0
 10
82.940979
 20
-42.328323
 10
82.965937
 20
-42.328323
  0
LWPOLYLINE
  5
111
330
525
100
AcDbEntity
  8
_0
  6
DGN Style 2
 62
     7
370
    70
100
AcDbPolyline
 90
        2
 70
   128
 43
0.0
 10
82.906667
 20
-42.386437
 10
83.304198
 20
-42.386437
  0
LINE
  5
112
330
525
100
AcDbEntity
  8
DIM
  6
Continuous
 62
     7
370
    13
100
AcDbLine
 10
82.951917
 20
-41.977208
 30
0.0
 11
82.951917
 21
-41.820302
 31
0.0
  0
LINE
  5
113
330
525
100
AcDbEntity
  8
DIM
  6
Continuous
 62
     7
370
    13
100
AcDbLine
 10
83.107052
 20
-41.945625
 30
0.0
 11
83.107052
 21
-41.820302
 31
0.0
  0
LINE
  5
114
330
525
100
AcDbEntity
  8
DIM
  6
Continuous
 62
     7
370
    13
100
AcDbLine
 10
83.001917
 20
-41.870302
 30
0.0
 11
83.057052
 21
-41.870302
 31
0.0
  0
SOLID
  5
115
330
525
100
AcDbEntity
  8
DIM
  6
Continuous
 62
     7
370
    13
100
AcDbTrace
 10
83.001917
 20
-41.878635
 30
0.0
 11
83.001917
 21
-41.861969
 31
0.0
 12
82.951917
 22
-41.870302
 32
0.0
 13
82.951917
 23
-41.870302
 33
0.0
  0
SOLID
  5
116
330
525
100
AcDbEntity
  8
DIM
  6
Continuous
 62
     7
370
    13
100
AcDbTrace
 10
83.057052
 20
-41.878635
 30
0.0
 11
83.057052
 21
-41.861969
 31
0.0
 12
83.107052
 22
-41.870302
 32
0.0
 13
83.107052
 23
-41.870302
 33
0.0
  0
LINE
  5
118
330
525
100
AcDbEntity
  8
DIM
  6
Continuous
 62
     7
370
    13
100
AcDbLine
 10
83.107052
 20
-41.945625
 30
0.0
 11
83.107052
 21
-41.820302
 31
0.0
  0
LINE
  5
119
330
525
100
AcDbEntity
  8
DIM
  6
Continuous
 62
     7
370
    13
100
AcDbLine
 10
83.25249
 20
-41.977208
 30
0.0
 11
83.25249
 21
-41.820302
 31
0.0
  0
LINE
  5
11A
330
525
100
AcDbEntity
  8
DIM
  6
Continuous
 62
     7
370
    13
100
AcDbLine
 10
83.157062
 20
-41.870302
 30
0.0
 11
83.20249
 21
-41.870302
 31
0.0
  0
SOLID
  5
11B
330
525
100
AcDbEntity
  8
DIM
  6
Continuous
 62
     7
370
    13
100
AcDbTrace
 10
83.157062
 20
-41.878635
 30
0.0
 11
83.157062
 21
-41.861969
 31
0.0
 12
83.107052
 22
-41.870302
 32
0.0
 13
83.107052
 23
-41.870302
 33
0.0
  0
SOLID
  5
11C
330
525
100
AcDbEntity
  8
DIM
  6
Continuous
 62
     7
370
    13
100
AcDbTrace
 10
83.20249
 20
-41.878635
 30
0.0
 11
83.20249
 21
-41.861969
 31
0.0
 12
83.25249
 22
-41.870302
 32
0.0
 13
83.25249
 23
-41.870302
 33
0.0
  0
LINE
  5
11D
330
525
100
AcDbEntity
  8
DIM
  6
Continuous
 62
     7
370
    13
100
AcDbLine
 10
82.903437
 20
-41.977208
 30
0.0
 11
82.903437
 21
-41.583448
 31
0.0
  0
LINE
  5
11E
330
525
100
AcDbEntity
  8
DIM
  6
Continuous
 62
     7
370
    13
100
AcDbLine
 10
83.304198
 20
-41.977208
 30
0.0
 11
83.304198
 21
-41.583448
 31
0.0
  0
LINE
  5
11F
330
525
100
AcDbEntity
  8
DIM
  6
Continuous
 62
     7
370
    13
100
AcDbLine
 10
82.953448
 20
-41.633458
 30
0.0
 11
83.254198
 21
-41.633458
 31
0.0
  0
SOLID
  5
120
330
525
100
AcDbEntity
  8
DIM
  6
Continuous
 62
     7
370
    13
100
AcDbTrace
 10
82.953448
 20
-41.641792
 30
0.0
 11
82.953448
 21
-41.625125
 31
0.0
 12
82.903437
 22
-41.633458
 32
0.0
 13
82.903437
 23
-41.633458
 33
0.0
  0
SOLID
  5
121
330
525
100
AcDbEntity
  8
DIM
  6
Continuous
 62
     7
370
    13
100
AcDbTrace
 10
83.254198
 20
-41.641792
 30
0.0
 11
83.254198
 21
-41.625125
 31
0.0
 12
83.304198
 22
-41.633458
 32
0.0
 13
83.304198
 23
-41.633458
 33
0.0
  0
LINE
  5
124
330
525
100
AcDbEntity
  8
DIM
  6
Continuous
 62
     7
370
    13
100
AcDbLine
 10
82.798312
 20
-41.870302
 30
0.0
 11
82.853437
 21
-41.870302
 31
0.0
  0
SOLID
  5
125
330
525
100
AcDbEntity
  8
DIM
  6
Continuous
 62
     7
370
    13
100
AcDbTrace
 10
82.853437
 20
-41.878635
 30
0.0
 11
82.853437
 21
-41.861969
 31
0.0
 12
82.903437
 22
-41.870302
 32
0.0
 13
82.903437
 23
-41.870302
 33
0.0
  0
SOLID
  5
126
330
525
100
AcDbEntity
  8
DIM
  6
Continuous
 62
     7
370
    13
100
AcDbTrace
 10
83.354875
 20
-41.878635
 30
0.0
 11
83.354875
 21
-41.861969
 31
0.0
 12
83.304875
 22
-41.870302
 32
0.0
 13
83.304875
 23
-41.870302
 33
0.0
  0
LINE
  5
127
330
525
100
AcDbEntity
  8
DIM
  6
Continuous
 62
     7
370
    13
100
AcDbLine
 10
83.350979
 20
-41.870302
 30
0.0
 11
83.396406
 21
-41.870302
 31
0.0
  0
SOLID
  5
12B
330
525
100
AcDbEntity
  8
DIM
  6
Continuous
 62
     7
370
    13
100
AcDbTrace
 10
83.008167
 20
-41.824219
 30
0.0
 11
82.994396
 21
-41.833625
 31
0.0
 12
83.029469
 22
-41.870229
 32
0.0
 13
83.029469
 23
-41.870229
 33
0.0
  0
LINE
  5
12C
330
525
100
AcDbEntity
  8
DIM
  6
Continuous
 62
     7
370
    13
100
AcDbLine
 10
83.001281
 20
-41.828917
 30
0.0
 11
82.93249
 21
-41.728115
 31
0.0
  0
LINE
  5
12D
330
525
100
AcDbEntity
  8
DIM
  6
Continuous
 62
     7
370
    13
100
AcDbLine
 10
82.93249
 20
-41.728115
 30
0.0
 11
82.858135
 21
-41.728115
 31
0.0
  0
SOLID
  5
12E
330
525
100
AcDbEntity
  8
DIM
  6
Continuous
 62
     7
370
    13
100
AcDbTrace
 10
-83.213448
 20
-41.831406
 30
0.0
 11
-83.199562
 21
-41.822187
 31
0.0
 12
-83.178844
 22
-41.868458
 32
0.0
 13
-83.178844
 23
-41.868458
 33
0.0
210
0.0
220
0.0
230
-1.0
  0
LINE
  5
12F
330
525
100
AcDbEntity
  8
DIM
  6
Continuous
 62
     7
370
    13
100
AcDbLine
 10
83.202604
 20
-41.83251
 30
0.0
 11
83.271917
 21
-41.728115
 31
0.0
  0
LINE
  5
130
330
525
100
AcDbEntity
  8
DIM
  6
Continuous
 62
     7
370
    13
100
AcDbLine
 10
83.271917
 20
-41.728115
 30
0.0
 11
83.346271
 21
-41.728115
 31
0.0
  0
LINE
  5
131
330
525
100
AcDbEntity
  8
_0
  6
Continuous
 62
     7
370
    13
100
AcDbLine
 10
85.593448
 20
-42.294302
 30
0.0
 11
85.593448
 21
-41.944271
 31
0.0
  0
LINE
  5
132
330
525
100
AcDbEntity
  8
_0
  6
Continuous
 62
     7
370
    13
100
AcDbLine
 10
84.993406
 20
-42.294302
 30
0.0
 11
84.993406
 21
-41.944271
 31
0.0
  0
LINE
  5
133
330
525
100
AcDbEntity
  8
_0
  6
Continuous
 62
     7
370
    13
100
AcDbLine
 10
84.993406
 20
-41.944271
 30
0.0
 11
85.593448
 21
-41.944271
 31
0.0
  0
LINE
  5
134
330
525
100
AcDbEntity
  8
_0
  6
Continuous
 62
     7
370
    13
100
AcDbLine
 10
84.993406
 20
-42.294302
 30
0.0
 11
85.593448
 21
-42.294302
 31
0.0
  0
LINE
  5
135
330
525
100
AcDbEntity
  8
_0
  6
Continuous
 62
     7
370
    13
100
AcDbLine
 10
85.293427
 20
-42.09324
 30
0.0
 11
85.293427
 21
-42.145333
 31
0.0
  0
LINE
  5
136
330
525
100
AcDbEntity
  8
_0
  6
Continuous
 62
     7
370
    13
100
AcDbLine
 10
85.356979
 20
-42.119292
 30
0.0
 11
85.229875
 21
-42.119292
 31
0.0
  0
LWPOLYLINE
  5
137
330
525
100
AcDbEntity
  8
_0
  6
Continuous
 62
     7
370
     0
100
AcDbPolyline
 90
       17
 70
   128
 43
0.0
 10
85.293427
 20
-42.181793
 42
0.063415
 10
85.333392
 20
-42.176704
 42
0.076468
 10
85.364144
 20
-42.163486
 42
0.107136
 10
85.386751
 20
-42.141474
 42
0.147373
 10
85.393435
 20
-42.119288
 42
0.147373
 10
85.386751
 20
-42.097102
 42
0.107136
 10
85.364144
 20
-42.07509
 42
0.076468
 10
85.333392
 20
-42.061872
 42
0.063415
 10
85.293427
 20
-42.056783
 42
0.063415
 10
85.253462
 20
-42.061872
 42
0.076468
 10
85.222711
 20
-42.07509
 42
0.107136
 10
85.200104
 20
-42.097102
 42
0.147373
 10
85.193419
 20
-42.119288
 42
0.147373
 10
85.200104
 20
-42.141474
 42
0.107136
 10
85.222711
 20
-42.163486
 42
0.076468
 10
85.253462
 20
-42.176704
 42
0.063415
 10
85.293427
 20
-42.181793
  0
LINE
  5
148
330
525
100
AcDbEntity
  8
DIM
  6
Continuous
 62
     7
370
    13
100
AcDbLine
 10
85.193417
 20
-42.069281
 30
0.0
 11
85.193417
 21
-41.857458
 31
0.0
  0
LINE
  5
149
330
525
100
AcDbEntity
  8
DIM
  6
Continuous
 62
     7
370
    13
100
AcDbLine
 10
85.393437
 20
-42.069281
 30
0.0
 11
85.393437
 21
-41.857458
 31
0.0
  0
LINE
  5
14A
330
525
100
AcDbEntity
  8
DIM
  6
Continuous
 62
     7
370
    13
100
AcDbLine
 10
85.243427
 20
-41.907458
 30
0.0
 11
85.343427
 21
-41.907458
 31
0.0
  0
SOLID
  5
14B
330
525
100
AcDbEntity
  8
DIM
  6
Continuous
 62
     7
370
    13
100
AcDbTrace
 10
85.243427
 20
-41.915792
 30
0.0
 11
85.243427
 21
-41.899125
 31
0.0
 12
85.193417
 22
-41.907458
 32
0.0
 13
85.193417
 23
-41.907458
 33
0.0
  0
SOLID
  5
14C
330
525
100
AcDbEntity
  8
DIM
  6
Continuous
 62
     7
370
    13
100
AcDbTrace
 10
85.343427
 20
-41.915792
 30
0.0
 11
85.343427
 21
-41.899125
 31
0.0
 12
85.393437
 22
-41.907458
 32
0.0
 13
85.393437
 23
-41.907458
 33
0.0
  0
LINE
  5
14D
330
525
100
AcDbEntity
  8
DIM
  6
Continuous
 62
     7
370
    13
100
AcDbLine
 10
84.993406
 20
-41.894271
 30
0.0
 11
84.993406
 21
-41.677115
 31
0.0
  0
LINE
  5
14E
330
525
100
AcDbEntity
  8
DIM
  6
Continuous
 62
     7
370
    13
100
AcDbLine
 10
85.593448
 20
-41.894271
 30
0.0
 11
85.593448
 21
-41.677115
 31
0.0
  0
LINE
  5
14F
330
525
100
AcDbEntity
  8
DIM
  6
Continuous
 62
     7
370
    13
100
AcDbLine
 10
85.043406
 20
-41.727115
 30
0.0
 11
85.543448
 21
-41.727115
 31
0.0
  0
SOLID
  5
150
330
525
100
AcDbEntity
  8
DIM
  6
Continuous
 62
     7
370
    13
100
AcDbTrace
 10
85.043406
 20
-41.735448
 30
0.0
 11
85.043406
 21
-41.718781
 31
0.0
 12
84.993406
 22
-41.727115
 32
0.0
 13
84.993406
 23
-41.727115
 33
0.0
  0
SOLID
  5
151
330
525
100
AcDbEntity
  8
DIM
  6
Continuous
 62
     7
370
    13
100
AcDbTrace
 10
85.543448
 20
-41.735448
 30
0.0
 11
85.543448
 21
-41.718781
 31
0.0
 12
85.593448
 22
-41.727115
 32
0.0
 13
85.593448
 23
-41.727115
 33
0.0
  0
LINE
  5
154
330
525
100
AcDbEntity
  8
DIM
  6
Continuous
 62
     7
370
    13
100
AcDbLine
 10
85.343427
 20
-42.056781
 30
0.0
 11
85.688365
 21
-42.056781
 31
0.0
  0
LINE
  5
155
330
525
100
AcDbEntity
  8
DIM
  6
Continuous
 62
     7
370
    13
100
AcDbLine
 10
85.343427
 20
-42.181792
 30
0.0
 11
85.688365
 21
-42.181792
 31
0.0
  0
LINE
  5
156
330
525
100
AcDbEntity
  8
DIM
  6
Continuous
 62
     7
370
    13
100
AcDbLine
 10
85.638365
 20
-42.106792
 30
0.0
 11
85.638365
 21
-42.131792
 31
0.0
  0
SOLID
  5
157
330
525
100
AcDbEntity
  8
DIM
  6
Continuous
 62
     7
370
    13
100
AcDbTrace
 10
85.646698
 20
-42.106792
 30
0.0
 11
85.630031
 21
-42.106792
 31
0.0
 12
85.638365
 22
-42.056781
 32
0.0
 13
85.638365
 23
-42.056781
 33
0.0
  0
SOLID
  5
158
330
525
100
AcDbEntity
  8
DIM
  6
Continuous
 62
     7
370
    13
100
AcDbTrace
 10
85.646698
 20
-42.131792
 30
0.0
 11
85.630031
 21
-42.131792
 31
0.0
 12
85.638365
 22
-42.181792
 32
0.0
 13
85.638365
 23
-42.181792
 33
0.0
  0
LINE
  5
159
330
525
100
AcDbEntity
  8
DIM
  6
Continuous
 62
     7
370
    13
100
AcDbLine
 10
85.643458
 20
-41.944271
 30
0.0
 11
85.983146
 21
-41.944271
 31
0.0
  0
LINE
  5
15A
330
525
100
AcDbEntity
  8
DIM
  6
Continuous
 62
     7
370
    13
100
AcDbLine
 10
85.643458
 20
-42.294302
 30
0.0
 11
85.983146
 21
-42.294302
 31
0.0
  0
LINE
  5
15B
330
525
100
AcDbEntity
  8
DIM
  6
Continuous
 62
     7
370
    13
100
AcDbLine
 10
85.933135
 20
-41.994281
 30
0.0
 11
85.933135
 21
-42.244302
 31
0.0
  0
SOLID
  5
15C
330
525
100
AcDbEntity
  8
DIM
  6
Continuous
 62
     7
370
    13
100
AcDbTrace
 10
85.941479
 20
-41.994281
 30
0.0
 11
85.924802
 21
-41.994281
 31
0.0
 12
85.933135
 22
-41.944271
 32
0.0
 13
85.933135
 23
-41.944271
 33
0.0
  0
SOLID
  5
15D
330
525
100
AcDbEntity
  8
DIM
  6
Continuous
 62
     7
370
    13
100
AcDbTrace
 10
85.941479
 20
-42.244302
 30
0.0
 11
85.924802
 21
-42.244302
 31
0.0
 12
85.933135
 22
-42.294302
 32
0.0
 13
85.933135
 23
-42.294302
 33
0.0
  0
LINE
  5
160
330
525
100
AcDbEntity
  8
DIM
  6
Continuous
 62
     7
370
    13
100
AcDbLine
 10
85.293427
 20
-42.231802
 30
0.0
 11
85.293427
 21
-42.555354
 31
0.0
  0
LINE
  5
161
330
525
100
AcDbEntity
  8
DIM
  6
Continuous
 62
     7
370
    13
100
AcDbLine
 10
84.993406
 20
-42.344313
 30
0.0
 11
84.993406
 21
-42.555354
 31
0.0
  0
LINE
  5
162
330
525
100
AcDbEntity
  8
DIM
  6
Continuous
 62
     7
370
    13
100
AcDbLine
 10
85.243427
 20
-42.505354
 30
0.0
 11
85.043406
 21
-42.505354
 31
0.0
  0
SOLID
  5
163
330
525
100
AcDbEntity
  8
DIM
  6
Continuous
 62
     7
370
    13
100
AcDbTrace
 10
85.243427
 20
-42.513687
 30
0.0
 11
85.243427
 21
-42.497021
 31
0.0
 12
85.293427
 22
-42.505354
 32
0.0
 13
85.293427
 23
-42.505354
 33
0.0
  0
SOLID
  5
164
330
525
100
AcDbEntity
  8
DIM
  6
Continuous
 62
     7
370
    13
100
AcDbTrace
 10
85.043406
 20
-42.513687
 30
0.0
 11
85.043406
 21
-42.497021
 31
0.0
 12
84.993406
 22
-42.505354
 32
0.0
 13
84.993406
 23
-42.505354
 33
0.0
  0
LINE
  5
166
330
525
100
AcDbEntity
  8
DIM
  6
Continuous
 62
     7
370
    13
100
AcDbLine
 10
85.143417
 20
-42.119292
 30
0.0
 11
84.775552
 21
-42.119292
 31
0.0
  0
LINE
  5
167
330
525
100
AcDbEntity
  8
DIM
  6
Continuous
 62
     7
370
    13
100
AcDbLine
 10
84.943396
 20
-42.294302
 30
0.0
 11
84.775552
 21
-42.294302
 31
0.0
  0
LINE
  5
168
330
525
100
AcDbEntity
  8
DIM
  6
Continuous
 62
     7
370
    13
100
AcDbLine
 10
84.825563
 20
-42.169292
 30
0.0
 11
84.825563
 21
-42.244302
 31
0.0
  0
SOLID
  5
169
330
525
100
AcDbEntity
  8
DIM
  6
Continuous
 62
     7
370
    13
100
AcDbTrace
 10
84.833896
 20
-42.169292
 30
0.0
 11
84.817229
 21
-42.169292
 31
0.0
 12
84.825563
 22
-42.119292
 32
0.0
 13
84.825563
 23
-42.119292
 33
0.0
  0
SOLID
  5
16A
330
525
100
AcDbEntity
  8
DIM
  6
Continuous
 62
     7
370
    13
100
AcDbTrace
 10
84.833896
 20
-42.244302
 30
0.0
 11
84.817229
 21
-42.244302
 31
0.0
 12
84.825563
 22
-42.294302
 32
0.0
 13
84.825563
 23
-42.294302
 33
0.0
  0
LINE
  5
16F
330
525
100
AcDbEntity
  8
_0
  6
Continuous
 62
     7
370
    13
100
AcDbLine
 10
86.6525
 20
-42.732854
 30
0.0
 11
86.55249
 21
-42.732854
 31
0.0
  0
LINE
  5
170
330
525
100
AcDbEntity
  8
_0
  6
Continuous
 62
     7
370
    13
100
AcDbLine
 10
86.6525
 20
-42.732854
 30
0.0
 11
86.6525
 21
-42.532844
 31
0.0
  0
LINE
  5
171
330
525
100
AcDbEntity
  8
_0
  6
Continuous
 62
     7
370
    13
100
AcDbLine
 10
86.55249
 20
-42.732854
 30
0.0
 11
86.55249
 21
-42.532844
 31
0.0
  0
LINE
  5
172
330
525
100
AcDbEntity
  8
_0
  6
Continuous
 62
     7
370
    13
100
AcDbLine
 10
86.7275
 20
-42.532844
 30
0.0
 11
86.7275
 21
-42.407833
 31
0.0
  0
LINE
  5
173
330
525
100
AcDbEntity
  8
_0
  6
Continuous
 62
     7
370
    13
100
AcDbLine
 10
86.47749
 20
-42.532844
 30
0.0
 11
86.47749
 21
-42.407833
 31
0.0
  0
LINE
  5
174
330
525
100
AcDbEntity
  8
_0
  6
Continuous
 62
     7
370
    13
100
AcDbLine
 10
86.7275
 20
-42.532844
 30
0.0
 11
86.47749
 21
-42.532844
 31
0.0
  0
LINE
  5
175
330
525
100
AcDbEntity
  8
_0
  6
Continuous
 62
     7
370
    13
100
AcDbLine
 10
86.7275
 20
-42.407833
 30
0.0
 11
86.47749
 21
-42.407833
 31
0.0
  0
LINE
  5
176
330
525
100
AcDbEntity
  8
_0
  6
Continuous
 62
     7
370
    13
100
AcDbLine
 10
86.7025
 20
-42.257812
 30
0.0
 11
86.50249
 21
-42.257812
 31
0.0
  0
LINE
  5
177
330
525
100
AcDbEntity
  8
_0
  6
Continuous
 62
     7
370
    13
100
AcDbLine
 10
86.902521
 20
-42.232813
 30
0.0
 11
86.302469
 21
-42.232813
 31
0.0
  0
LINE
  5
178
330
525
100
AcDbEntity
  8
_0
  6
Continuous
 62
     7
370
    13
100
AcDbLine
 10
86.902521
 20
-42.207812
 30
0.0
 11
86.302469
 21
-42.207812
 31
0.0
  0
LINE
  5
179
330
525
100
AcDbEntity
  8
_0
  6
Continuous
 62
     7
370
    13
100
AcDbLine
 10
86.55249
 20
-42.407833
 30
0.0
 11
86.55249
 21
-42.257812
 31
0.0
  0
LINE
  5
17A
330
525
100
AcDbEntity
  8
_0
  6
Continuous
 62
     7
370
    13
100
AcDbLine
 10
86.6525
 20
-42.407833
 30
0.0
 11
86.6525
 21
-42.257812
 31
0.0
  0
LINE
  5
17B
330
525
100
AcDbEntity
  8
_0
  6
Continuous
 62
     7
370
    13
100
AcDbLine
 10
86.902521
 20
-42.232813
 30
0.0
 11
86.902521
 21
-42.207812
 31
0.0
  0
LINE
  5
17C
330
525
100
AcDbEntity
  8
_0
  6
Continuous
 62
     7
370
    13
100
AcDbLine
 10
86.302469
 20
-42.232813
 30
0.0
 11
86.302469
 21
-42.207812
 31
0.0
  0
LINE
  5
17D
330
525
100
AcDbEntity
  8
_0
  6
Continuous
 62
     7
370
    13
100
AcDbLine
 10
86.6775
 20
-42.532844
 30
0.0
 11
86.6775
 21
-42.407833
 31
0.0
  0
LINE
  5
17E
330
525
100
AcDbEntity
  8
_0
  6
Continuous
 62
     7
370
    13
100
AcDbLine
 10
86.57749
 20
-42.532844
 30
0.0
 11
86.57749
 21
-42.407833
 31
0.0
  0
LINE
  5
17F
330
525
100
AcDbEntity
  8
_0
  6
Continuous
 62
     7
370
    13
100
AcDbLine
 10
86.7025
 20
-42.257812
 30
0.0
 11
86.7025
 21
-42.232813
 31
0.0
  0
LINE
  5
180
330
525
100
AcDbEntity
  8
_0
  6
Continuous
 62
     7
370
    13
100
AcDbLine
 10
86.50249
 20
-42.257812
 30
0.0
 11
86.50249
 21
-42.232813
 31
0.0
  0
ARC
  5
181
330
525
100
AcDbEntity
  8
_0
  6
Continuous
 62
     7
370
    13
100
AcDbCircle
 10
86.602493
 20
-42.274484
 30
0.0
 40
0.1416779999999991
100
AcDbArc
 50
28.072486
 51
151.927511
  0
LINE
  5
182
330
525
100
AcDbEntity
  8
_0
  6
Continuous
 62
     7
370
    13
100
AcDbLine
 10
86.6325
 20
-42.712854
 30
0.0
 11
86.57249
 21
-42.712854
 31
0.0
  0
LINE
  5
183
330
525
100
AcDbEntity
  8
_0
  6
Continuous
 62
     7
370
    13
100
AcDbLine
 10
86.6525
 20
-42.692854
 30
0.0
 11
86.55249
 21
-42.692854
 31
0.0
  0
LINE
  5
184
330
525
100
AcDbEntity
  8
_0
  6
Continuous
 62
     7
370
    13
100
AcDbLine
 10
86.6325
 20
-42.672854
 30
0.0
 11
86.57249
 21
-42.672854
 31
0.0
  0
LINE
  5
185
330
525
100
AcDbEntity
  8
_0
  6
Continuous
 62
     7
370
    13
100
AcDbLine
 10
86.6525
 20
-42.652844
 30
0.0
 11
86.55249
 21
-42.652844
 31
0.0
  0
LINE
  5
186
330
525
100
AcDbEntity
  8
_0
  6
Continuous
 62
     7
370
    13
100
AcDbLine
 10
86.6325
 20
-42.632844
 30
0.0
 11
86.57249
 21
-42.632844
 31
0.0
  0
LINE
  5
187
330
525
100
AcDbEntity
  8
_0
  6
Continuous
 62
     7
370
    13
100
AcDbLine
 10
86.6525
 20
-42.612844
 30
0.0
 11
86.55249
 21
-42.612844
 31
0.0
  0
LINE
  5
188
330
525
100
AcDbEntity
  8
_0
  6
Continuous
 62
     7
370
    13
100
AcDbLine
 10
86.6325
 20
-42.592844
 30
0.0
 11
86.57249
 21
-42.592844
 31
0.0
  0
LINE
  5
189
330
525
100
AcDbEntity
  8
_0
  6
Continuous
 62
     7
370
    13
100
AcDbLine
 10
86.6525
 20
-42.572844
 30
0.0
 11
86.55249
 21
-42.572844
 31
0.0
  0
LINE
  5
18A
330
525
100
AcDbEntity
  8
_0
  6
Continuous
 62
     7
370
    13
100
AcDbLine
 10
86.6325
 20
-42.552844
 30
0.0
 11
86.57249
 21
-42.552844
 31
0.0
  0
LINE
  5
18B
330
525
100
AcDbEntity
  8
_0
  6
Continuous
 62
     7
370
    13
100
AcDbLine
 10
86.6325
 20
-42.267812
 30
0.0
 11
86.57249
 21
-42.267812
 31
0.0
  0
LINE
  5
18C
330
525
100
AcDbEntity
  8
_0
  6
Continuous
 62
     7
370
    13
100
AcDbLine
 10
86.6525
 20
-42.287823
 30
0.0
 11
86.55249
 21
-42.287823
 31
0.0
  0
LINE
  5
18D
330
525
100
AcDbEntity
  8
_0
  6
Continuous
 62
     7
370
    13
100
AcDbLine
 10
86.6325
 20
-42.307823
 30
0.0
 11
86.57249
 21
-42.307823
 31
0.0
  0
LINE
  5
18E
330
525
100
AcDbEntity
  8
_0
  6
Continuous
 62
     7
370
    13
100
AcDbLine
 10
86.6525
 20
-42.327823
 30
0.0
 11
86.55249
 21
-42.327823
 31
0.0
  0
LINE
  5
18F
330
525
100
AcDbEntity
  8
_0
  6
Continuous
 62
     7
370
    13
100
AcDbLine
 10
86.6325
 20
-42.347823
 30
0.0
 11
86.57249
 21
-42.347823
 31
0.0
  0
LINE
  5
190
330
525
100
AcDbEntity
  8
_0
  6
Continuous
 62
     7
370
    13
100
AcDbLine
 10
86.6525
 20
-42.367823
 30
0.0
 11
86.55249
 21
-42.367823
 31
0.0
  0
LINE
  5
191
330
525
100
AcDbEntity
  8
_0
  6
Continuous
 62
     7
370
    13
100
AcDbLine
 10
86.6325
 20
-42.387823
 30
0.0
 11
86.57249
 21
-42.387823
 31
0.0
  0
SOLID
  5
196
330
525
100
AcDbEntity
  8
TEXT
  6
Continuous
 62
     7
370
    13
100
AcDbTrace
 10
-86.712677
 20
-42.304375
 30
0.0
 11
-86.718917
 21
-42.288917
 31
0.0
 12
-86.669427
 22
-42.277927
 32
0.0
 13
-86.669427
 23
-42.277927
 33
0.0
210
0.0
220
0.0
230
-1.0
  0
LINE
  5
197
330
525
100
AcDbEntity
  8
TEXT
  6
Continuous
 62
     7
370
    13
100
AcDbLine
 10
86.715802
 20
-42.296646
 30
0.0
 11
86.922687
 21
-42.380167
 31
0.0
  0
LINE
  5
198
330
525
100
AcDbEntity
  8
TEXT
  6
Continuous
 62
     7
370
    13
100
AcDbLine
 10
86.922687
 20
-42.380167
 30
0.0
 11
86.99301
 21
-42.380167
 31
0.0
  0
LWPOLYLINE
  5
199
330
525
100
AcDbEntity
  8
_0
  6
Continuous
 62
     7
370
     0
100
AcDbPolyline
 90
       10
 70
   128
 43
0.0
 10
82.032667
 20
-41.904781
 10
82.012667
 20
-41.904781
 10
81.857656
 20
-42.004792
 10
81.857656
 20
-42.054792
 10
82.012667
 20
-42.154802
 10
82.012667
 20
-42.304812
 10
81.857656
 20
-42.404823
 10
81.857656
 20
-42.454833
 10
82.012667
 20
-42.554833
 10
82.032667
 20
-42.554833
  0
LINE
  5
19A
330
525
100
AcDbEntity
  8
_0
  6
Continuous
 62
     7
370
    13
100
AcDbLine
 10
82.047292
 20
-41.772469
 30
0.0
 11
82.047292
 21
-42.569594
 31
0.0
  0
LINE
  5
19B
330
525
100
AcDbEntity
  8
_0
  6
Continuous
 62
     7
370
    13
100
AcDbLine
 10
81.946271
 20
-42.005802
 30
0.0
 11
81.971802
 21
-41.988021
 31
0.0
  0
LINE
  5
19C
330
525
100
AcDbEntity
  8
_0
  6
Continuous
 62
     7
370
    13
100
AcDbLine
 10
81.970896
 20
-41.988656
 30
0.0
 11
81.956229
 21
-41.967594
 31
0.0
  0
LINE
  5
19D
330
525
100
AcDbEntity
  8
_0
  6
Continuous
 62
     7
370
    13
100
AcDbLine
 10
81.946271
 20
-42.005802
 30
0.0
 11
81.931604
 21
-41.98474
 31
0.0
  0
LINE
  5
19E
330
525
100
AcDbEntity
  8
_0
  6
Continuous
 62
     7
370
    13
100
AcDbLine
 10
81.954448
 20
-41.92325
 30
0.0
 11
81.948729
 21
-41.915042
 31
0.0
  0
LINE
  5
19F
330
525
100
AcDbEntity
  8
_0
  6
Continuous
 62
     7
370
    13
100
AcDbLine
 10
81.897
 20
-41.96325
 30
0.0
 11
81.891281
 21
-41.955042
 31
0.0
  0
LINE
  5
1A0
330
525
100
AcDbEntity
  8
_0
  6
Continuous
 62
     7
370
    13
100
AcDbLine
 10
81.897
 20
-41.96325
 30
0.0
 11
81.954448
 21
-41.92325
 31
0.0
  0
LINE
  5
1A1
330
525
100
AcDbEntity
  8
_0
  6
Continuous
 62
     7
370
    13
100
AcDbLine
 10
81.964438
 20
-41.961885
 30
0.0
 11
81.953
 21
-41.945469
 31
0.0
  0
LINE
  5
1A2
330
525
100
AcDbEntity
  8
_0
  6
Continuous
 62
     7
370
    13
100
AcDbLine
 10
81.923396
 20
-41.990448
 30
0.0
 11
81.911969
 21
-41.974042
 31
0.0
  0
LINE
  5
1A3
330
525
100
AcDbEntity
  8
_0
  6
Continuous
 62
     7
370
    13
100
AcDbLine
 10
81.923396
 20
-41.990448
 30
0.0
 11
81.964438
 21
-41.961885
 31
0.0
  0
ARC
  5
1A4
330
525
100
AcDbEntity
  8
_0
  6
Continuous
 62
     7
370
    13
100
AcDbCircle
 10
81.931489
 20
-41.951526
 30
0.0
 40
0.0403574225190407
100
AcDbArc
 50
64.701253
 51
184.998622
  0
ARC
  5
1A5
330
525
100
AcDbEntity
  8
_0
  6
Continuous
 62
     7
370
    13
100
AcDbCircle
 10
81.935436
 20
-42.106225
 30
0.0
 40
0.0403574225190407
100
AcDbArc
 50
178.029072
 51
298.326442
  0
LINE
  5
1A6
330
525
100
AcDbEntity
  8
_0
  6
Continuous
 62
     7
370
    13
100
AcDbLine
 10
81.974385
 20
-42.09824
 30
0.0
 11
81.931896
 21
-42.071875
 31
0.0
  0
LINE
  5
1A7
330
525
100
AcDbEntity
  8
_0
  6
Continuous
 62
     7
370
    13
100
AcDbLine
 10
81.974385
 20
-42.09824
 30
0.0
 11
81.963833
 21
-42.11524
 31
0.0
  0
LINE
  5
1A8
330
525
100
AcDbEntity
  8
_0
  6
Continuous
 62
     7
370
    13
100
AcDbLine
 10
81.931896
 20
-42.071875
 30
0.0
 11
81.921354
 21
-42.088875
 31
0.0
  0
LINE
  5
1A9
330
525
100
AcDbEntity
  8
_0
  6
Continuous
 62
     7
370
    13
100
AcDbLine
 10
81.959854
 20
-42.13325
 30
0.0
 11
81.900375
 21
-42.096344
 31
0.0
  0
LINE
  5
1AA
330
525
100
AcDbEntity
  8
_0
  6
Continuous
 62
     7
370
    13
100
AcDbLine
 10
81.959854
 20
-42.13325
 30
0.0
 11
81.954583
 21
-42.14175
 31
0.0
  0
LINE
  5
1AB
330
525
100
AcDbEntity
  8
_0
  6
Continuous
 62
     7
370
    13
100
AcDbLine
 10
81.900375
 20
-42.096344
 30
0.0
 11
81.895104
 21
-42.104833
 31
0.0
  0
LINE
  5
1AC
330
525
100
AcDbEntity
  8
_0
  6
Continuous
 62
     7
370
    13
100
AcDbLine
 10
81.979417
 20
-42.071156
 30
0.0
 11
81.965885
 21
-42.092969
 31
0.0
  0
LINE
  5
1AD
330
525
100
AcDbEntity
  8
_0
  6
Continuous
 62
     7
370
    13
100
AcDbLine
 10
81.953927
 20
-42.055344
 30
0.0
 11
81.940396
 21
-42.077146
 31
0.0
  0
LINE
  5
1AE
330
525
100
AcDbEntity
  8
_0
  6
Continuous
 62
     7
370
    13
100
AcDbLine
 10
81.979417
 20
-42.071156
 30
0.0
 11
81.95299
 21
-42.05476
 31
0.0
  0
LINE
  5
1AF
330
525
100
AcDbEntity
  8
_0
  6
Continuous
 62
     7
370
    13
100
AcDbLine
 10
81.979417
 20
-42.473479
 30
0.0
 11
81.95299
 21
-42.457073
 31
0.0
  0
LINE
  5
1B0
330
525
100
AcDbEntity
  8
_0
  6
Continuous
 62
     7
370
    13
100
AcDbLine
 10
81.953927
 20
-42.457656
 30
0.0
 11
81.940396
 21
-42.479458
 31
0.0
  0
LINE
  5
1B1
330
525
100
AcDbEntity
  8
_0
  6
Continuous
 62
     7
370
    13
100
AcDbLine
 10
81.979417
 20
-42.473479
 30
0.0
 11
81.965885
 21
-42.495281
 31
0.0
  0
LINE
  5
1B2
330
525
100
AcDbEntity
  8
_0
  6
Continuous
 62
     7
370
    13
100
AcDbLine
 10
81.900375
 20
-42.498656
 30
0.0
 11
81.895104
 21
-42.507146
 31
0.0
  0
LINE
  5
1B3
330
525
100
AcDbEntity
  8
_0
  6
Continuous
 62
     7
370
    13
100
AcDbLine
 10
81.959854
 20
-42.535573
 30
0.0
 11
81.954583
 21
-42.544062
 31
0.0
  0
LINE
  5
1B4
330
525
100
AcDbEntity
  8
_0
  6
Continuous
 62
     7
370
    13
100
AcDbLine
 10
81.959854
 20
-42.535573
 30
0.0
 11
81.900375
 21
-42.498656
 31
0.0
  0
LINE
  5
1B5
330
525
100
AcDbEntity
  8
_0
  6
Continuous
 62
     7
370
    13
100
AcDbLine
 10
81.931896
 20
-42.474187
 30
0.0
 11
81.921354
 21
-42.491177
 31
0.0
  0
LINE
  5
1B6
330
525
100
AcDbEntity
  8
_0
  6
Continuous
 62
     7
370
    13
100
AcDbLine
 10
81.974385
 20
-42.500552
 30
0.0
 11
81.963833
 21
-42.517552
 31
0.0
  0
LINE
  5
1B7
330
525
100
AcDbEntity
  8
_0
  6
Continuous
 62
     7
370
    13
100
AcDbLine
 10
81.974385
 20
-42.500552
 30
0.0
 11
81.931896
 21
-42.474187
 31
0.0
  0
ARC
  5
1B8
330
525
100
AcDbEntity
  8
_0
  6
Continuous
 62
     7
370
    13
100
AcDbCircle
 10
81.935436
 20
-42.508539
 30
0.0
 40
0.0403574225190407
100
AcDbArc
 50
178.029072
 51
298.326442
  0
ARC
  5
1B9
330
525
100
AcDbEntity
  8
_0
  6
Continuous
 62
     7
370
    13
100
AcDbCircle
 10
81.931489
 20
-42.35384
 30
0.0
 40
0.0403574225190407
100
AcDbArc
 50
64.701253
 51
184.998622
  0
LINE
  5
1BA
330
525
100
AcDbEntity
  8
_0
  6
Continuous
 62
     7
370
    13
100
AcDbLine
 10
81.923396
 20
-42.392771
 30
0.0
 11
81.964438
 21
-42.364187
 31
0.0
  0
LINE
  5
1BB
330
525
100
AcDbEntity
  8
_0
  6
Continuous
 62
     7
370
    13
100
AcDbLine
 10
81.923396
 20
-42.392771
 30
0.0
 11
81.911969
 21
-42.376354
 31
0.0
  0
LINE
  5
1BC
330
525
100
AcDbEntity
  8
_0
  6
Continuous
 62
     7
370
    13
100
AcDbLine
 10
81.964438
 20
-42.364187
 30
0.0
 11
81.953
 21
-42.347781
 31
0.0
  0
LINE
  5
1BD
330
525
100
AcDbEntity
  8
_0
  6
Continuous
 62
     7
370
    13
100
AcDbLine
 10
81.897
 20
-42.365562
 30
0.0
 11
81.954448
 21
-42.325562
 31
0.0
  0
LINE
  5
1BE
330
525
100
AcDbEntity
  8
_0
  6
Continuous
 62
     7
370
    13
100
AcDbLine
 10
81.897
 20
-42.365562
 30
0.0
 11
81.891281
 21
-42.357354
 31
0.0
  0
LINE
  5
1BF
330
525
100
AcDbEntity
  8
_0
  6
Continuous
 62
     7
370
    13
100
AcDbLine
 10
81.954448
 20
-42.325562
 30
0.0
 11
81.948729
 21
-42.317354
 31
0.0
  0
LINE
  5
1C0
330
525
100
AcDbEntity
  8
_0
  6
Continuous
 62
     7
370
    13
100
AcDbLine
 10
81.946271
 20
-42.408115
 30
0.0
 11
81.931604
 21
-42.387052
 31
0.0
  0
LINE
  5
1C1
330
525
100
AcDbEntity
  8
_0
  6
Continuous
 62
     7
370
    13
100
AcDbLine
 10
81.970896
 20
-42.390969
 30
0.0
 11
81.956229
 21
-42.369906
 31
0.0
  0
LINE
  5
1C2
330
525
100
AcDbEntity
  8
_0
  6
Continuous
 62
     7
370
    13
100
AcDbLine
 10
81.946271
 20
-42.408115
 30
0.0
 11
81.971802
 21
-42.390333
 31
0.0
  0
LINE
  5
1C3
330
525
100
AcDbEntity
  8
DIM
  6
Continuous
 62
     7
370
    13
100
AcDbLine
 10
81.982667
 20
-42.561375
 30
0.0
 11
81.608427
 21
-42.561375
 31
0.0
  0
LINE
  5
1C4
330
525
100
AcDbEntity
  8
DIM
  6
Continuous
 62
     7
370
    13
100
AcDbLine
 10
81.431396
 20
-42.511375
 30
0.0
 11
81.431396
 21
-41.9485
 31
0.0
  0
SOLID
  5
1C5
330
525
100
AcDbEntity
  8
DIM
  6
Continuous
 62
     7
370
    13
100
AcDbTrace
 10
81.439729
 20
-42.511375
 30
0.0
 11
81.423063
 21
-42.511375
 31
0.0
 12
81.431396
 22
-42.561375
 32
0.0
 13
81.431396
 23
-42.561375
 33
0.0
  0
SOLID
  5
1C6
330
525
100
AcDbEntity
  8
DIM
  6
Continuous
 62
     7
370
    13
100
AcDbTrace
 10
81.439729
 20
-41.9485
 30
0.0
 11
81.423063
 21
-41.9485
 31
0.0
 12
81.431396
 22
-41.89849
 32
0.0
 13
81.431396
 23
-41.89849
 33
0.0
  0
LINE
  5
1C8
330
525
100
AcDbEntity
  8
DIM
  6
Continuous
 62
     7
370
    13
100
AcDbLine
 10
81.790396
 20
-42.430917
 30
0.0
 11
81.57249
 21
-42.430917
 31
0.0
  0
LINE
  5
1C9
330
525
100
AcDbEntity
  8
DIM
  6
Continuous
 62
     7
370
    13
100
AcDbLine
 10
81.62249
 20
-42.511375
 30
0.0
 11
81.62249
 21
-42.480917
 31
0.0
  0
SOLID
  5
1CA
330
525
100
AcDbEntity
  8
DIM
  6
Continuous
 62
     7
370
    13
100
AcDbTrace
 10
81.630823
 20
-42.511375
 30
0.0
 11
81.614156
 21
-42.511375
 31
0.0
 12
81.62249
 22
-42.561375
 32
0.0
 13
81.62249
 23
-42.561375
 33
0.0
  0
SOLID
  5
1CB
330
525
100
AcDbEntity
  8
DIM
  6
Continuous
 62
     7
370
    13
100
AcDbTrace
 10
81.630823
 20
-42.480917
 30
0.0
 11
81.614156
 21
-42.480917
 31
0.0
 12
81.62249
 22
-42.430917
 32
0.0
 13
81.62249
 23
-42.430917
 33
0.0
  0
LINE
  5
1CD
330
525
100
AcDbEntity
  8
DIM
  6
Continuous
 62
     7
370
    13
100
AcDbLine
 10
81.531104
 20
-42.561375
 30
0.0
 11
81.381396
 21
-42.561375
 31
0.0
  0
LINE
  5
1CE
330
525
100
AcDbEntity
  8
DIM
  6
Continuous
 62
     7
370
    13
100
AcDbLine
 10
81.531104
 20
-41.89849
 30
0.0
 11
81.381396
 21
-41.89849
 31
0.0
  0
LINE
  5
1CF
330
525
100
AcDbEntity
  8
DIM
  6
Continuous
 62
     7
370
    13
100
AcDbLine
 10
81.790396
 20
-42.028948
 30
0.0
 11
81.57249
 21
-42.028948
 31
0.0
  0
SOLID
  5
1D0
330
525
100
AcDbEntity
  8
DIM
  6
Continuous
 62
     7
370
    13
100
AcDbTrace
 10
81.630823
 20
-41.978948
 30
0.0
 11
81.614156
 21
-41.978948
 31
0.0
 12
81.62249
 22
-42.028948
 32
0.0
 13
81.62249
 23
-42.028948
 33
0.0
  0
SOLID
  5
1D1
330
525
100
AcDbEntity
  8
DIM
  6
Continuous
 62
     7
370
    13
100
AcDbTrace
 10
81.630823
 20
-41.9485
 30
0.0
 11
81.614156
 21
-41.9485
 31
0.0
 12
81.62249
 22
-41.89849
 32
0.0
 13
81.62249
 23
-41.89849
 33
0.0
  0
LINE
  5
1D2
330
525
100
AcDbEntity
  8
DIM
  6
Continuous
 62
     7
370
    13
100
AcDbLine
 10
81.62249
 20
-41.9485
 30
0.0
 11
81.62249
 21
-41.978948
 31
0.0
  0
LINE
  5
1D3
330
525
100
AcDbEntity
  8
DIM
  6
Continuous
 62
     7
370
    13
100
AcDbLine
 10
81.982667
 20
-41.89849
 30
0.0
 11
81.608427
 21
-41.89849
 31
0.0
  0
LINE
  5
1D5
330
525
100
AcDbEntity
  8
DIM
  6
Continuous
 62
     7
370
    13
100
AcDbLine
 10
81.622781
 20
-42.229937
 30
0.0
 11
82.132125
 21
-42.229937
 31
0.0
  0
LINE
  5
1D6
330
525
100
AcDbEntity
  8
DIM
  6
Continuous
 62
     7
370
    13
100
AcDbLine
 10
81.948562
 20
-42.267833
 30
0.0
 11
81.57249
 21
-42.267833
 31
0.0
  0
SOLID
  5
1D7
330
525
100
AcDbEntity
  8
DIM
  6
Continuous
 62
     7
370
    13
100
AcDbTrace
 10
81.630823
 20
-42.380906
 30
0.0
 11
81.614156
 21
-42.380906
 31
0.0
 12
81.62249
 22
-42.430917
 32
0.0
 13
81.62249
 23
-42.430917
 33
0.0
  0
SOLID
  5
1D8
330
525
100
AcDbEntity
  8
DIM
  6
Continuous
 62
     7
370
    13
100
AcDbTrace
 10
81.630823
 20
-42.317833
 30
0.0
 11
81.614156
 21
-42.317833
 31
0.0
 12
81.62249
 22
-42.267833
 32
0.0
 13
81.62249
 23
-42.267833
 33
0.0
  0
SOLID
  5
1DA
330
525
100
AcDbEntity
  8
DIM
  6
Continuous
 62
     7
370
    13
100
AcDbTrace
 10
81.630823
 20
-42.078958
 30
0.0
 11
81.614156
 21
-42.078958
 31
0.0
 12
81.62249
 22
-42.028948
 32
0.0
 13
81.62249
 23
-42.028948
 33
0.0
  0
SOLID
  5
1DB
330
525
100
AcDbEntity
  8
DIM
  6
Continuous
 62
     7
370
    13
100
AcDbTrace
 10
81.630823
 20
-42.142031
 30
0.0
 11
81.614156
 21
-42.142031
 31
0.0
 12
81.62249
 22
-42.192031
 32
0.0
 13
81.62249
 23
-42.192031
 33
0.0
  0
LINE
  5
1DC
330
525
100
AcDbEntity
  8
DIM
  6
Continuous
 62
     7
370
    13
100
AcDbLine
 10
81.948562
 20
-42.192031
 30
0.0
 11
81.57249
 21
-42.192031
 31
0.0
  0
LINE
  5
1DE
330
525
100
AcDbEntity
  8
DIM
  6
Continuous
 62
     7
370
    13
100
AcDbLine
 10
81.622781
 20
-42.192542
 30
0.0
 11
81.622781
 21
-42.268448
 31
0.0
  0
SOLID
  5
1DF
330
525
100
AcDbEntity
  8
DIM
  6
Continuous
 62
     7
370
    13
100
AcDbTrace
 10
81.672562
 20
-42.238823
 30
0.0
 11
81.672562
 21
-42.222156
 31
0.0
 12
81.622563
 22
-42.23049
 32
0.0
 13
81.622563
 23
-42.23049
 33
0.0
  0
LINE
  5
1E1
330
525
100
AcDbEntity
  8
2-30K
  6
Continuous
 62
     7
370
    13
100
AcDbLine
 10
89.992146
 20
-45.277458
 30
0.0
 11
89.992146
 21
-38.026885
 31
0.0
  0
LINE
  5
1E2
330
525
100
AcDbEntity
  8
2-30K
  6
Continuous
 62
     7
370
    13
100
AcDbLine
 10
80.891417
 20
-38.026885
 30
0.0
 11
89.992146
 21
-38.026885
 31
0.0
  0
LINE
  5
1E3
330
525
100
AcDbEntity
  8
2-30K
  6
Continuous
 62
     7
370
    13
100
AcDbLine
 10
80.891417
 20
-45.277458
 30
0.0
 11
80.891417
 21
-38.026885
 31
0.0
  0
LINE
  5
1E4
330
525
100
AcDbEntity
  8
2-30K
  6
Continuous
 62
     7
370
    13
100
AcDbLine
 10
80.891417
 20
-44.777427
 30
0.0
 11
89.992146
 21
-44.777427
 31
0.0
  0
LINE
  5
1E5
330
525
100
AcDbEntity
  8
2-30K
  6
Continuous
 62
     7
370
    13
100
AcDbLine
 10
80.891417
 20
-45.277458
 30
0.0
 11
89.992146
 21
-45.277458
 31
0.0
  0
LINE
  5
1E7
330
525
100
AcDbEntity
  8
2-30K
  6
Continuous
 62
     7
370
    13
100
AcDbLine
 10
87.791969
 20
-45.277458
 30
0.0
 11
87.791969
 21
-44.777427
 31
0.0
  0
LINE
  5
1E9
330
525
100
AcDbEntity
  8
2-30K
  6
Continuous
 62
     7
370
    13
100
AcDbLine
 10
88.892062
 20
-45.277458
 30
0.0
 11
88.892062
 21
-44.777427
 31
0.0
  0
CIRCLE
  5
220
330
525
100
AcDbEntity
  8
_0
  6
Continuous
 62
     7
370
    13
100
AcDbCircle
 10
85.288021
 20
-40.591989
 30
0.0
 40
0.025001999999997
  0
CIRCLE
  5
221
330
525
100
AcDbEntity
  8
_0
  6
Continuous
 62
     7
370
    13
100
AcDbCircle
 10
86.921411
 20
-39.048279
 30
0.0
 40
0.01687635
  0
CIRCLE
  5
222
330
525
100
AcDbEntity
  8
_0
  6
Continuous
 62
     7
370
    13
100
AcDbCircle
 10
87.066612
 20
-38.700201
 30
0.0
 40
0.01687635
  0
CIRCLE
  5
223
330
525
100
AcDbEntity
  8
_0
  6
Continuous
 62
     7
370
    13
100
AcDbCircle
 10
86.817684
 20
-38.654141
 30
0.0
 40
0.01687635
  0
CIRCLE
  5
224
330
525
100
AcDbEntity
  8
_0
  6
Continuous
 62
     7
370
    13
100
AcDbCircle
 10
87.495604
 20
-39.00294
 30
0.0
 40
0.01687635
  0
LINE
  5
225
330
525
100
AcDbEntity
  8
_0
  6
Continuous
 62
     7
370
    13
100
AcDbLine
 10
87.346396
 20
-38.733219
 30
0.0
 11
87.346396
 21
-39.266312
 31
0.0
  0
LINE
  5
226
330
525
100
AcDbEntity
  8
_0
  6
Continuous
 62
     7
370
    13
100
AcDbLine
 10
87.346396
 20
-38.733219
 30
0.0
 11
87.359896
 21
-38.738573
 31
0.0
  0
LINE
  5
227
330
525
100
AcDbEntity
  8
_0
  6
Continuous
 62
     7
370
    13
100
AcDbLine
 10
87.41049
 20
-38.733219
 30
0.0
 11
87.111365
 21
-38.649635
 31
0.0
  0
LINE
  5
228
330
525
100
AcDbEntity
  8
_0
  6
Continuous
 62
     7
370
    13
100
AcDbLine
 10
87.43975
 20
-38.733219
 30
0.0
 11
87.140625
 21
-38.649635
 31
0.0
  0
LINE
  5
229
330
525
100
AcDbEntity
  8
_0
  6
Continuous
 62
     7
370
    13
100
AcDbLine
 10
87.023719
 20
-38.642115
 30
0.0
 11
87.037219
 21
-38.649635
 31
0.0
  0
LINE
  5
22A
330
525
100
AcDbEntity
  8
_0
  6
Continuous
 62
     7
370
    13
100
AcDbLine
 10
87.037219
 20
-38.649635
 30
0.0
 11
87.111365
 21
-38.649635
 31
0.0
  0
LINE
  5
22B
330
525
100
AcDbEntity
  8
_0
  6
Continuous
 62
     7
370
    13
100
AcDbLine
 10
87.21476
 20
-38.649635
 30
0.0
 11
87.21476
 21
-38.670354
 31
0.0
  0
LINE
  5
22C
330
525
100
AcDbEntity
  8
_0
  6
Continuous
 62
     7
370
    13
100
AcDbLine
 10
87.037219
 20
-39.182729
 30
0.0
 11
87.121604
 21
-39.182729
 31
0.0
  0
LINE
  5
22D
330
525
100
AcDbEntity
  8
_0
  6
Continuous
 62
     7
370
    13
100
AcDbLine
 10
87.023719
 20
-39.175208
 30
0.0
 11
87.037219
 21
-39.182729
 31
0.0
  0
LINE
  5
22E
330
525
100
AcDbEntity
  8
_0
  6
Continuous
 62
     7
370
    13
100
AcDbLine
 10
87.346396
 20
-39.267677
 30
0.0
 11
87.359896
 21
-39.273042
 31
0.0
  0
LINE
  5
22F
330
525
100
AcDbEntity
  8
_0
  6
Continuous
 62
     7
370
    13
100
AcDbLine
 10
87.359896
 20
-39.273042
 30
0.0
 11
87.528656
 21
-39.273042
 31
0.0
  0
LINE
  5
230
330
525
100
AcDbEntity
  8
_0
  6
Continuous
 62
     7
370
    13
100
AcDbLine
 10
87.121604
 20
-39.182729
 30
0.0
 11
87.346396
 21
-39.245646
 31
0.0
  0
LINE
  5
231
330
525
100
AcDbEntity
  8
_0
  6
Continuous
 62
     7
370
    13
100
AcDbLine
 10
87.359896
 20
-38.738573
 30
0.0
 11
87.528656
 21
-38.738573
 31
0.0
  0
LINE
  5
232
330
525
100
AcDbEntity
  8
_0
  6
Continuous
 62
     7
370
    13
100
AcDbLine
 10
87.037219
 20
-38.649635
 30
0.0
 11
87.037219
 21
-39.182729
 31
0.0
  0
LINE
  5
233
330
525
100
AcDbEntity
  8
_0
  6
Continuous
 62
     7
370
    13
100
AcDbLine
 10
87.346396
 20
-38.735323
 30
0.0
 11
87.346396
 21
-39.267677
 31
0.0
  0
LINE
  5
234
330
525
100
AcDbEntity
  8
_0
  6
Continuous
 62
     7
370
    13
100
AcDbLine
 10
87.359896
 20
-38.738573
 30
0.0
 11
87.359896
 21
-39.273042
 31
0.0
  0
LINE
  5
235
330
525
100
AcDbEntity
  8
_0
  6
Continuous
 62
     7
370
    13
100
AcDbLine
 10
87.528656
 20
-38.738573
 30
0.0
 11
87.528656
 21
-39.273042
 31
0.0
  0
LINE
  5
236
330
525
100
AcDbEntity
  8
_0
  6
Continuous
 62
     7
370
    13
100
AcDbLine
 10
87.123625
 20
-38.653062
 30
0.0
 11
87.123625
 21
-39.183052
 31
0.0
  0
LINE
  5
237
330
525
100
AcDbEntity
  8
_0
  6
Continuous
 62
     7
370
    13
100
AcDbLine
 10
87.023719
 20
-38.642115
 30
0.0
 11
87.023719
 21
-39.175208
 31
0.0
  0
LINE
  5
239
330
525
100
AcDbEntity
  8
_0
  6
Continuous
 62
     7
370
    13
100
AcDbLine
 10
84.954542
 20
-39.157604
 30
0.0
 11
84.954542
 21
-39.107604
 31
0.0
  0
LINE
  5
23A
330
525
100
AcDbEntity
  8
_0
  6
Continuous
 62
     7
370
    13
100
AcDbLine
 10
84.954542
 20
-39.157604
 30
0.0
 11
84.934531
 21
-39.157604
 31
0.0
  0
LINE
  5
23B
330
525
100
AcDbEntity
  8
_0
  6
Continuous
 62
     7
370
    13
100
AcDbLine
 10
84.954542
 20
-39.107604
 30
0.0
 11
84.934531
 21
-39.107604
 31
0.0
  0
LINE
  5
23C
330
525
100
AcDbEntity
  8
_0
  6
Continuous
 62
     7
370
    13
100
AcDbLine
 10
84.934531
 20
-39.167604
 30
0.0
 11
84.934531
 21
-39.097594
 31
0.0
  0
LINE
  5
23D
330
525
100
AcDbEntity
  8
_0
  6
Continuous
 62
     7
370
    13
100
AcDbLine
 10
84.934531
 20
-39.167604
 30
0.0
 11
84.922344
 21
-39.167604
 31
0.0
  0
LINE
  5
23E
330
525
100
AcDbEntity
  8
_0
  6
Continuous
 62
     7
370
    13
100
AcDbLine
 10
84.934531
 20
-39.097594
 30
0.0
 11
84.922344
 21
-39.097594
 31
0.0
  0
LINE
  5
23F
330
525
100
AcDbEntity
  8
_0
  6
Continuous
 62
     7
370
    13
100
AcDbLine
 10
85.229594
 20
-39.016365
 30
0.0
 11
85.229594
 21
-38.966365
 31
0.0
  0
LINE
  5
240
330
525
100
AcDbEntity
  8
_0
  6
Continuous
 62
     7
370
    13
100
AcDbLine
 10
85.229594
 20
-39.016365
 30
0.0
 11
85.209583
 21
-39.016365
 31
0.0
  0
LINE
  5
241
330
525
100
AcDbEntity
  8
_0
  6
Continuous
 62
     7
370
    13
100
AcDbLine
 10
85.229594
 20
-38.966365
 30
0.0
 11
85.209583
 21
-38.966365
 31
0.0
  0
LINE
  5
242
330
525
100
AcDbEntity
  8
_0
  6
Continuous
 62
     7
370
    13
100
AcDbLine
 10
85.209583
 20
-39.026365
 30
0.0
 11
85.209583
 21
-38.956365
 31
0.0
  0
LINE
  5
243
330
525
100
AcDbEntity
  8
_0
  6
Continuous
 62
     7
370
    13
100
AcDbLine
 10
85.209583
 20
-39.026365
 30
0.0
 11
85.197396
 21
-39.026365
 31
0.0
  0
LINE
  5
244
330
525
100
AcDbEntity
  8
_0
  6
Continuous
 62
     7
370
    13
100
AcDbLine
 10
85.209583
 20
-38.956365
 30
0.0
 11
85.197396
 21
-38.956365
 31
0.0
  0
LINE
  5
245
330
525
100
AcDbEntity
  8
_0
  6
Continuous
 62
     7
370
    13
100
AcDbLine
 10
85.209583
 20
-39.247281
 30
0.0
 11
85.197396
 21
-39.247281
 31
0.0
  0
LINE
  5
246
330
525
100
AcDbEntity
  8
_0
  6
Continuous
 62
     7
370
    13
100
AcDbLine
 10
85.209583
 20
-39.317281
 30
0.0
 11
85.197396
 21
-39.317281
 31
0.0
  0
LINE
  5
247
330
525
100
AcDbEntity
  8
_0
  6
Continuous
 62
     7
370
    13
100
AcDbLine
 10
85.209583
 20
-39.317281
 30
0.0
 11
85.209583
 21
-39.247281
 31
0.0
  0
LINE
  5
248
330
525
100
AcDbEntity
  8
_0
  6
Continuous
 62
     7
370
    13
100
AcDbLine
 10
85.229594
 20
-39.257281
 30
0.0
 11
85.209583
 21
-39.257281
 31
0.0
  0
LINE
  5
249
330
525
100
AcDbEntity
  8
_0
  6
Continuous
 62
     7
370
    13
100
AcDbLine
 10
85.229594
 20
-39.307281
 30
0.0
 11
85.209583
 21
-39.307281
 31
0.0
  0
LINE
  5
24A
330
525
100
AcDbEntity
  8
_0
  6
Continuous
 62
     7
370
    13
100
AcDbLine
 10
85.229594
 20
-39.307281
 30
0.0
 11
85.229594
 21
-39.257281
 31
0.0
  0
LINE
  5
24B
330
525
100
AcDbEntity
  8
_0
  6
Continuous
 62
     7
370
    13
100
AcDbLine
 10
85.149906
 20
-39.317281
 30
0.0
 11
85.149906
 21
-39.247281
 31
0.0
  0
LINE
  5
24C
330
525
100
AcDbEntity
  8
_0
  6
Continuous
 62
     7
370
    13
100
AcDbLine
 10
85.149906
 20
-39.026365
 30
0.0
 11
85.149906
 21
-38.956365
 31
0.0
  0
LINE
  5
24D
330
525
100
AcDbEntity
  8
_0
  6
Continuous
 62
     7
370
    13
100
AcDbLine
 10
85.177396
 20
-38.956365
 30
0.0
 11
85.149906
 21
-38.956365
 31
0.0
  0
LINE
  5
24E
330
525
100
AcDbEntity
  8
_0
  6
Continuous
 62
     7
370
    13
100
AcDbLine
 10
85.177396
 20
-39.026365
 30
0.0
 11
85.149906
 21
-39.026365
 31
0.0
  0
LINE
  5
24F
330
525
100
AcDbEntity
  8
_0
  6
Continuous
 62
     7
370
    13
100
AcDbLine
 10
85.177396
 20
-39.247281
 30
0.0
 11
85.149906
 21
-39.247281
 31
0.0
  0
LINE
  5
250
330
525
100
AcDbEntity
  8
_0
  6
Continuous
 62
     7
370
    13
100
AcDbLine
 10
85.177396
 20
-39.317281
 30
0.0
 11
85.149906
 21
-39.317281
 31
0.0
  0
LINE
  5
251
330
525
100
AcDbEntity
  8
_0
  6
Continuous
 62
     7
370
    13
100
AcDbLine
 10
85.177396
 20
-38.999823
 30
0.0
 11
85.149906
 21
-38.999823
 31
0.0
  0
LINE
  5
252
330
525
100
AcDbEntity
  8
_0
  6
Continuous
 62
     7
370
    13
100
AcDbLine
 10
85.177396
 20
-38.961042
 30
0.0
 11
85.149906
 21
-38.961042
 31
0.0
  0
LINE
  5
253
330
525
100
AcDbEntity
  8
_0
  6
Continuous
 62
     7
370
    13
100
AcDbLine
 10
85.177396
 20
-39.253521
 30
0.0
 11
85.149906
 21
-39.253521
 31
0.0
  0
LINE
  5
254
330
525
100
AcDbEntity
  8
_0
  6
Continuous
 62
     7
370
    13
100
AcDbLine
 10
85.177396
 20
-39.298542
 30
0.0
 11
85.149906
 21
-39.298542
 31
0.0
  0
LINE
  5
255
330
525
100
AcDbEntity
  8
_0
  6
Continuous
 62
     7
370
    13
100
AcDbLine
 10
85.197396
 20
-40.711615
 30
0.0
 11
85.197396
 21
-40.460208
 31
0.0
  0
LINE
  5
256
330
525
100
AcDbEntity
  8
_0
  6
Continuous
 62
     7
370
    13
100
AcDbLine
 10
85.377406
 20
-40.711615
 30
0.0
 11
85.377406
 21
-40.460208
 31
0.0
  0
LINE
  5
257
330
525
100
AcDbEntity
  8
_0
  6
Continuous
 62
     7
370
    13
100
AcDbLine
 10
84.922375
 20
-39.358083
 30
0.0
 11
84.922375
 21
-38.911469
 31
0.0
  0
LINE
  5
258
330
525
100
AcDbEntity
  8
_0
  6
Continuous
 62
     7
370
    13
100
AcDbLine
 10
85.177396
 20
-39.358083
 30
0.0
 11
85.177396
 21
-38.911469
 31
0.0
  0
LINE
  5
259
330
525
100
AcDbEntity
  8
_0
  6
Continuous
 62
     7
370
    13
100
AcDbLine
 10
85.197396
 20
-40.306844
 30
0.0
 11
85.197396
 21
-38.911469
 31
0.0
  0
LINE
  5
25A
330
525
100
AcDbEntity
  8
_0
  6
Continuous
 62
     7
370
    13
100
AcDbLine
 10
85.377406
 20
-40.306844
 30
0.0
 11
85.377406
 21
-38.911469
 31
0.0
  0
LINE
  5
25B
330
525
100
AcDbEntity
  8
_0
  6
Continuous
 62
     7
370
    13
100
AcDbLine
 10
85.177396
 20
-38.630771
 30
0.0
 11
85.149906
 21
-38.630771
 31
0.0
  0
LINE
  5
25C
330
525
100
AcDbEntity
  8
_0
  6
Continuous
 62
     7
370
    13
100
AcDbLine
 10
85.177396
 20
-38.58574
 30
0.0
 11
85.149906
 21
-38.58574
 31
0.0
  0
LINE
  5
25D
330
525
100
AcDbEntity
  8
_0
  6
Continuous
 62
     7
370
    13
100
AcDbLine
 10
85.177396
 20
-38.479542
 30
0.0
 11
85.149906
 21
-38.479542
 31
0.0
  0
LINE
  5
25E
330
525
100
AcDbEntity
  8
_0
  6
Continuous
 62
     7
370
    13
100
AcDbLine
 10
85.177396
 20
-38.518313
 30
0.0
 11
85.149906
 21
-38.518313
 31
0.0
  0
LINE
  5
25F
330
525
100
AcDbEntity
  8
_0
  6
Continuous
 62
     7
370
    13
100
AcDbLine
 10
85.177396
 20
-38.64951
 30
0.0
 11
85.149906
 21
-38.64951
 31
0.0
  0
LINE
  5
260
330
525
100
AcDbEntity
  8
_0
  6
Continuous
 62
     7
370
    13
100
AcDbLine
 10
85.177396
 20
-38.5795
 30
0.0
 11
85.149906
 21
-38.5795
 31
0.0
  0
LINE
  5
261
330
525
100
AcDbEntity
  8
_0
  6
Continuous
 62
     7
370
    13
100
AcDbLine
 10
85.177396
 20
-38.544854
 30
0.0
 11
85.149906
 21
-38.544854
 31
0.0
  0
LINE
  5
262
330
525
100
AcDbEntity
  8
_0
  6
Continuous
 62
     7
370
    13
100
AcDbLine
 10
85.177396
 20
-38.474854
 30
0.0
 11
85.149906
 21
-38.474854
 31
0.0
  0
LINE
  5
263
330
525
100
AcDbEntity
  8
_0
  6
Continuous
 62
     7
370
    13
100
AcDbLine
 10
85.149906
 20
-38.544854
 30
0.0
 11
85.149906
 21
-38.474854
 31
0.0
  0
LINE
  5
264
330
525
100
AcDbEntity
  8
_0
  6
Continuous
 62
     7
370
    13
100
AcDbLine
 10
85.149906
 20
-38.64951
 30
0.0
 11
85.149906
 21
-38.5795
 31
0.0
  0
LINE
  5
265
330
525
100
AcDbEntity
  8
_0
  6
Continuous
 62
     7
370
    13
100
AcDbLine
 10
85.229594
 20
-38.63951
 30
0.0
 11
85.229594
 21
-38.5895
 31
0.0
  0
LINE
  5
266
330
525
100
AcDbEntity
  8
_0
  6
Continuous
 62
     7
370
    13
100
AcDbLine
 10
85.229594
 20
-38.63951
 30
0.0
 11
85.209583
 21
-38.63951
 31
0.0
  0
LINE
  5
267
330
525
100
AcDbEntity
  8
_0
  6
Continuous
 62
     7
370
    13
100
AcDbLine
 10
85.229594
 20
-38.5895
 30
0.0
 11
85.209583
 21
-38.5895
 31
0.0
  0
LINE
  5
268
330
525
100
AcDbEntity
  8
_0
  6
Continuous
 62
     7
370
    13
100
AcDbLine
 10
85.209583
 20
-38.64951
 30
0.0
 11
85.209583
 21
-38.5795
 31
0.0
  0
LINE
  5
269
330
525
100
AcDbEntity
  8
_0
  6
Continuous
 62
     7
370
    13
100
AcDbLine
 10
85.209583
 20
-38.64951
 30
0.0
 11
85.197396
 21
-38.64951
 31
0.0
  0
LINE
  5
26A
330
525
100
AcDbEntity
  8
_0
  6
Continuous
 62
     7
370
    13
100
AcDbLine
 10
85.209583
 20
-38.5795
 30
0.0
 11
85.197396
 21
-38.5795
 31
0.0
  0
LINE
  5
26B
330
525
100
AcDbEntity
  8
_0
  6
Continuous
 62
     7
370
    13
100
AcDbLine
 10
85.177396
 20
-38.461437
 30
0.0
 11
85.197396
 21
-38.461437
 31
0.0
  0
LINE
  5
26C
330
525
100
AcDbEntity
  8
_0
  6
Continuous
 62
     7
370
    13
100
AcDbLine
 10
85.177396
 20
-38.661448
 30
0.0
 11
85.197396
 21
-38.661448
 31
0.0
  0
LINE
  5
26D
330
525
100
AcDbEntity
  8
_0
  6
Continuous
 62
     7
370
    13
100
AcDbLine
 10
84.922375
 20
-38.556156
 30
0.0
 11
84.922375
 21
-38.461437
 31
0.0
  0
LINE
  5
26E
330
525
100
AcDbEntity
  8
_0
  6
Continuous
 62
     7
370
    13
100
AcDbLine
 10
84.922375
 20
-38.661448
 30
0.0
 11
84.922375
 21
-38.566156
 31
0.0
  0
LINE
  5
26F
330
525
100
AcDbEntity
  8
_0
  6
Continuous
 62
     7
370
    13
100
AcDbLine
 10
85.377406
 20
-38.461437
 30
0.0
 11
85.397417
 21
-38.461437
 31
0.0
  0
LINE
  5
270
330
525
100
AcDbEntity
  8
_0
  6
Continuous
 62
     7
370
    13
100
AcDbLine
 10
85.377406
 20
-38.661448
 30
0.0
 11
85.397417
 21
-38.661448
 31
0.0
  0
LINE
  5
271
330
525
100
AcDbEntity
  8
_0
  6
Continuous
 62
     7
370
    13
100
AcDbLine
 10
85.177396
 20
-38.556156
 30
0.0
 11
85.177396
 21
-38.461437
 31
0.0
  0
LINE
  5
272
330
525
100
AcDbEntity
  8
_0
  6
Continuous
 62
     7
370
    13
100
AcDbLine
 10
85.377406
 20
-38.556156
 30
0.0
 11
85.377406
 21
-38.460854
 31
0.0
  0
LINE
  5
273
330
525
100
AcDbEntity
  8
_0
  6
Continuous
 62
     7
370
    13
100
AcDbLine
 10
85.197396
 20
-38.556156
 30
0.0
 11
85.197396
 21
-38.461437
 31
0.0
  0
LINE
  5
274
330
525
100
AcDbEntity
  8
_0
  6
Continuous
 62
     7
370
    13
100
AcDbLine
 10
85.197396
 20
-38.556156
 30
0.0
 11
85.377406
 21
-38.556156
 31
0.0
  0
LINE
  5
275
330
525
100
AcDbEntity
  8
_0
  6
Continuous
 62
     7
370
    13
100
AcDbLine
 10
85.197396
 20
-38.566156
 30
0.0
 11
85.377406
 21
-38.566156
 31
0.0
  0
LINE
  5
276
330
525
100
AcDbEntity
  8
_0
  6
Continuous
 62
     7
370
    13
100
AcDbLine
 10
85.177396
 20
-38.661448
 30
0.0
 11
85.177396
 21
-38.566156
 31
0.0
  0
LINE
  5
277
330
525
100
AcDbEntity
  8
_0
  6
Continuous
 62
     7
370
    13
100
AcDbLine
 10
85.197396
 20
-38.661448
 30
0.0
 11
85.197396
 21
-38.566156
 31
0.0
  0
LINE
  5
278
330
525
100
AcDbEntity
  8
_0
  6
Continuous
 62
     7
370
    13
100
AcDbLine
 10
84.922375
 20
-38.566156
 30
0.0
 11
85.177396
 21
-38.566156
 31
0.0
  0
LINE
  5
279
330
525
100
AcDbEntity
  8
_0
  6
Continuous
 62
     7
370
    13
100
AcDbLine
 10
84.922375
 20
-38.556156
 30
0.0
 11
85.177396
 21
-38.556156
 31
0.0
  0
LINE
  5
27A
330
525
100
AcDbEntity
  8
_0
  6
Continuous
 62
     7
370
    13
100
AcDbLine
 10
85.377406
 20
-38.661448
 30
0.0
 11
85.377406
 21
-38.566156
 31
0.0
  0
LWPOLYLINE
  5
27B
330
525
100
AcDbEntity
  8
_0
  6
Continuous
 62
     7
370
     0
100
AcDbPolyline
 90
       53
 70
   128
 43
0.0
 10
85.187396
 20
-40.305677
 10
85.196167
 20
-40.303292
 10
85.204052
 20
-40.301938
 10
85.211125
 20
-40.301406
 10
85.21751
 20
-40.30149
 10
85.223271
 20
-40.302
 10
85.228531
 20
-40.302708
 10
85.233365
 20
-40.303417
 10
85.237896
 20
-40.303917
 10
85.242188
 20
-40.304063
 10
85.246323
 20
-40.303885
 10
85.250344
 20
-40.3035
 10
85.254312
 20
-40.30301
 10
85.258281
 20
-40.3025
 10
85.262302
 20
-40.302094
 10
85.266437
 20
-40.301865
 10
85.27074
 20
-40.301938
 10
85.27524
 20
-40.302365
 10
85.279896
 20
-40.303094
 10
85.284656
 20
-40.304031
 10
85.289458
 20
-40.305104
 10
85.29425
 20
-40.306198
 10
85.298958
 20
-40.307229
 10
85.303531
 20
-40.308115
 10
85.307917
 20
-40.30876
 10
85.312052
 20
-40.309094
 10
85.315969
 20
-40.309146
 10
85.319698
 20
-40.308958
 10
85.323271
 20
-40.308573
 10
85.326719
 20
-40.308021
 10
85.330062
 20
-40.307365
 10
85.333354
 20
-40.306646
 10
85.336604
 20
-40.305896
 10
85.339854
 20
-40.305167
 10
85.343073
 20
-40.30449
 10
85.34626
 20
-40.303875
 10
85.349375
 20
-40.303365
 10
85.352406
 20
-40.302979
 10
85.355333
 20
-40.30274
 10
85.358135
 20
-40.302677
 10
85.360792
 20
-40.302813
 10
85.363281
 20
-40.303167
 10
85.365635
 20
-40.303687
 10
85.367885
 20
-40.304313
 10
85.370052
 20
-40.30499
 10
85.372187
 20
-40.305656
 10
85.374313
 20
-40.30625
 10
85.376458
 20
-40.306719
 10
85.378656
 20
-40.307
 10
85.380927
 20
-40.307052
 10
85.383271
 20
-40.306917
 10
85.385677
 20
-40.306667
 10
85.387406
 20
-40.306458
  0
LWPOLYLINE
  5
27C
330
525
100
AcDbEntity
  8
_0
  6
Continuous
 62
     7
370
     0
100
AcDbPolyline
 90
       53
 70
   128
 43
0.0
 10
85.187396
 20
-40.460208
 10
85.196167
 20
-40.457823
 10
85.204052
 20
-40.456469
 10
85.211125
 20
-40.455937
 10
85.21751
 20
-40.456031
 10
85.223271
 20
-40.456531
 10
85.228531
 20
-40.45724
 10
85.233365
 20
-40.457948
 10
85.237896
 20
-40.458448
 10
85.242188
 20
-40.458583
 10
85.246323
 20
-40.458417
 10
85.250344
 20
-40.458031
 10
85.254312
 20
-40.457542
 10
85.258281
 20
-40.457031
 10
85.262302
 20
-40.456625
 10
85.266437
 20
-40.456396
 10
85.27074
 20
-40.456469
 10
85.27524
 20
-40.456896
 10
85.279896
 20
-40.457625
 10
85.284656
 20
-40.458562
 10
85.289458
 20
-40.459625
 10
85.29425
 20
-40.460729
 10
85.298958
 20
-40.46176
 10
85.303531
 20
-40.462646
 10
85.307917
 20
-40.463292
 10
85.312052
 20
-40.463625
 10
85.315969
 20
-40.463677
 10
85.319698
 20
-40.46349
 10
85.323271
 20
-40.463094
 10
85.326719
 20
-40.462552
 10
85.330062
 20
-40.461896
 10
85.333354
 20
-40.461177
 10
85.336604
 20
-40.460427
 10
85.339854
 20
-40.459698
 10
85.343073
 20
-40.459021
 10
85.34626
 20
-40.458406
 10
85.349375
 20
-40.457896
 10
85.352406
 20
-40.45751
 10
85.355333
 20
-40.457271
 10
85.358135
 20
-40.457208
 10
85.360792
 20
-40.457344
 10
85.363281
 20
-40.457698
 10
85.365635
 20
-40.458219
 10
85.367885
 20
-40.458844
 10
85.370052
 20
-40.459521
 10
85.372187
 20
-40.460187
 10
85.374313
 20
-40.460781
 10
85.376458
 20
-40.46125
 10
85.378656
 20
-40.461531
 10
85.380927
 20
-40.461583
 10
85.383271
 20
-40.461448
 10
85.385677
 20
-40.461198
 10
85.387406
 20
-40.46099
  0
LINE
  5
27D
330
525
100
AcDbEntity
  8
_0
  6
Continuous
 62
     7
370
    13
100
AcDbLine
 10
85.387406
 20
-40.711615
 30
0.0
 11
85.387406
 21
-40.460208
 31
0.0
  0
LINE
  5
27E
330
525
100
AcDbEntity
  8
_0
  6
Continuous
 62
     7
370
    13
100
AcDbLine
 10
85.387406
 20
-40.306844
 30
0.0
 11
85.387406
 21
-38.911469
 31
0.0
  0
LWPOLYLINE
  5
27F
330
525
100
AcDbEntity
  8
_0
  6
Continuous
 62
     7
370
    53
100
AcDbPolyline
 90
       10
 70
   128
 43
0.0
 10
84.912375
 20
-38.918135
 10
84.822365
 20
-39.008135
 10
84.822365
 20
-39.030635
 10
84.904375
 20
-39.112656
 10
84.904378
 20
-39.112657
 42
0.573574
 10
84.902673
 20
-39.149241
 10
84.902667
 20
-39.14924
 10
84.822365
 20
-39.229552
 10
84.822365
 20
-39.253156
 10
84.912375
 20
-39.343167
  0
LINE
  5
283
330
525
100
AcDbEntity
  8
_0
  6
Continuous
 62
     7
370
    13
100
AcDbLine
 10
85.187396
 20
-40.711615
 30
0.0
 11
85.187396
 21
-40.460208
 31
0.0
  0
LINE
  5
284
330
525
100
AcDbEntity
  8
_0
  6
Continuous
 62
     7
370
    13
100
AcDbLine
 10
85.187396
 20
-40.711031
 30
0.0
 11
85.387406
 21
-40.711031
 31
0.0
  0
LINE
  5
285
330
525
100
AcDbEntity
  8
_0
  6
Continuous
 62
     7
370
    13
100
AcDbLine
 10
84.912375
 20
-38.911469
 30
0.0
 11
85.662437
 21
-38.911469
 31
0.0
  0
LINE
  5
286
330
525
100
AcDbEntity
  8
_0
  6
Continuous
 62
     7
370
    13
100
AcDbLine
 10
85.187396
 20
-40.711615
 30
0.0
 11
85.187604
 21
-40.454885
 31
0.0
  0
LINE
  5
287
330
525
100
AcDbEntity
  8
_0
  6
Continuous
 62
     7
370
    13
100
AcDbLine
 10
85.387406
 20
-40.711031
 30
0.0
 11
85.387406
 21
-40.466875
 31
0.0
  0
LINE
  5
288
330
525
100
AcDbEntity
  8
_0
  6
Continuous
 62
     7
370
    13
100
AcDbLine
 10
84.912375
 20
-39.358083
 30
0.0
 11
84.912375
 21
-38.911469
 31
0.0
  0
LINE
  5
289
330
525
100
AcDbEntity
  8
_0
  6
Continuous
 62
     7
370
    13
100
AcDbLine
 10
84.912375
 20
-39.358083
 30
0.0
 11
85.187396
 21
-39.358083
 31
0.0
  0
LINE
  5
28A
330
525
100
AcDbEntity
  8
_0
  6
Continuous
 62
     7
370
    13
100
AcDbLine
 10
85.187396
 20
-40.711615
 30
0.0
 11
85.387406
 21
-40.711615
 31
0.0
  0
LINE
  5
28B
330
525
100
AcDbEntity
  8
_0
  6
Continuous
 62
     7
370
    13
100
AcDbLine
 10
85.187396
 20
-40.306844
 30
0.0
 11
85.187396
 21
-38.911469
 31
0.0
  0
LINE
  5
28C
330
525
100
AcDbEntity
  8
_0
  6
Continuous
 62
     7
370
    13
100
AcDbLine
 10
85.387406
 20
-40.314052
 30
0.0
 11
85.387406
 21
-38.910885
 31
0.0
  0
LINE
  5
28D
330
525
100
AcDbEntity
  8
_0
  6
Continuous
 62
     7
370
    13
100
AcDbLine
 10
84.912375
 20
-38.661448
 30
0.0
 11
84.922375
 21
-38.661448
 31
0.0
  0
LINE
  5
28E
330
525
100
AcDbEntity
  8
_0
  6
Continuous
 62
     7
370
    13
100
AcDbLine
 10
84.912375
 20
-38.461437
 30
0.0
 11
84.922375
 21
-38.461437
 31
0.0
  0
LINE
  5
28F
330
525
100
AcDbEntity
  8
_0
  6
Continuous
 62
     7
370
    13
100
AcDbLine
 10
84.816208
 20
-38.695031
 30
0.0
 11
84.816208
 21
-38.4305
 31
0.0
  0
LINE
  5
290
330
525
100
AcDbEntity
  8
_0
  6
Continuous
 62
     7
370
    13
100
AcDbLine
 10
84.912375
 20
-38.695031
 30
0.0
 11
84.912375
 21
-38.4305
 31
0.0
  0
LINE
  5
291
330
525
100
AcDbEntity
  8
_0
  6
Continuous
 62
     7
370
    13
100
AcDbLine
 10
85.187396
 20
-38.661448
 30
0.0
 11
85.187396
 21
-38.461437
 31
0.0
  0
LINE
  5
292
330
525
100
AcDbEntity
  8
_0
  6
Continuous
 62
     7
370
    13
100
AcDbLine
 10
85.387406
 20
-38.661448
 30
0.0
 11
85.387406
 21
-38.460854
 31
0.0
  0
LINE
  5
293
330
525
100
AcDbEntity
  8
_0
  6
Continuous
 62
     7
370
    13
100
AcDbLine
 10
85.209583
 20
-38.474854
 30
0.0
 11
85.197396
 21
-38.474854
 31
0.0
  0
LINE
  5
294
330
525
100
AcDbEntity
  8
_0
  6
Continuous
 62
     7
370
    13
100
AcDbLine
 10
85.209583
 20
-38.544854
 30
0.0
 11
85.197396
 21
-38.544854
 31
0.0
  0
LINE
  5
295
330
525
100
AcDbEntity
  8
_0
  6
Continuous
 62
     7
370
    13
100
AcDbLine
 10
85.209583
 20
-38.544854
 30
0.0
 11
85.209583
 21
-38.474854
 31
0.0
  0
LINE
  5
296
330
525
100
AcDbEntity
  8
_0
  6
Continuous
 62
     7
370
    13
100
AcDbLine
 10
85.229594
 20
-38.484854
 30
0.0
 11
85.209583
 21
-38.484854
 31
0.0
  0
LINE
  5
297
330
525
100
AcDbEntity
  8
_0
  6
Continuous
 62
     7
370
    13
100
AcDbLine
 10
85.229594
 20
-38.534854
 30
0.0
 11
85.209583
 21
-38.534854
 31
0.0
  0
LINE
  5
298
330
525
100
AcDbEntity
  8
_0
  6
Continuous
 62
     7
370
    13
100
AcDbLine
 10
85.229594
 20
-38.534854
 30
0.0
 11
85.229594
 21
-38.484854
 31
0.0
  0
LINE
  5
299
330
525
100
AcDbEntity
  8
DIM
  6
Continuous
 62
     7
370
    13
100
AcDbLine
 10
85.387406
 20
-38.294615
 30
0.0
 11
85.387406
 21
-38.443406
 31
0.0
  0
LINE
  5
29A
330
525
100
AcDbEntity
  8
DIM
  6
Continuous
 62
     7
370
    13
100
AcDbLine
 10
85.187396
 20
-38.295198
 30
0.0
 11
85.187396
 21
-38.44399
 31
0.0
  0
LINE
  5
29B
330
525
100
AcDbEntity
  8
DIM
  6
Continuous
 62
     7
370
    13
100
AcDbLine
 10
85.34049
 20
-38.329594
 30
0.0
 11
85.237396
 21
-38.329594
 31
0.0
  0
SOLID
  5
29C
330
525
100
AcDbEntity
  8
DIM
  6
Continuous
 62
     7
370
    13
100
AcDbTrace
 10
85.337406
 20
-38.337344
 30
0.0
 11
85.337406
 21
-38.320677
 31
0.0
 12
85.387406
 22
-38.32901
 32
0.0
 13
85.387406
 23
-38.32901
 33
0.0
  0
SOLID
  5
29D
330
525
100
AcDbEntity
  8
DIM
  6
Continuous
 62
     7
370
    13
100
AcDbTrace
 10
85.237396
 20
-38.337937
 30
0.0
 11
85.237396
 21
-38.32126
 31
0.0
 12
85.187396
 22
-38.329594
 32
0.0
 13
85.187396
 23
-38.329594
 33
0.0
  0
SOLID
  5
2A0
330
525
100
AcDbEntity
  8
DIM
  6
Continuous
 62
     7
370
    13
100
AcDbTrace
 10
85.13776
 20
-38.337937
 30
0.0
 11
85.13776
 21
-38.32126
 31
0.0
 12
85.18776
 22
-38.329594
 32
0.0
 13
85.18776
 23
-38.329594
 33
0.0
  0
LINE
  5
2A1
330
525
100
AcDbEntity
  8
DIM
  6
Continuous
 62
     7
370
    13
100
AcDbLine
 10
85.13776
 20
-38.329594
 30
0.0
 11
84.96274
 21
-38.329594
 31
0.0
  0
SOLID
  5
2A2
330
525
100
AcDbEntity
  8
DIM
  6
Continuous
 62
     7
370
    13
100
AcDbTrace
 10
84.96274
 20
-38.337937
 30
0.0
 11
84.96274
 21
-38.32126
 31
0.0
 12
84.91274
 22
-38.329594
 32
0.0
 13
84.91274
 23
-38.329594
 33
0.0
  0
LINE
  5
2A3
330
525
100
AcDbEntity
  8
DIM
  6
Continuous
 62
     7
370
    13
100
AcDbLine
 10
84.91274
 20
-38.295198
 30
0.0
 11
84.91274
 21
-38.418229
 31
0.0
  0
SOLID
  5
2A4
330
525
100
AcDbEntity
  8
DIM
  6
Continuous
 62
     7
370
    13
100
AcDbTrace
 10
84.767677
 20
-38.337937
 30
0.0
 11
84.767677
 21
-38.32126
 31
0.0
 12
84.817677
 22
-38.329594
 32
0.0
 13
84.817677
 23
-38.329594
 33
0.0
  0
LINE
  5
2A5
330
525
100
AcDbEntity
  8
DIM
  6
Continuous
 62
     7
370
    13
100
AcDbLine
 10
84.817312
 20
-38.295198
 30
0.0
 11
84.817312
 21
-38.418229
 31
0.0
  0
LINE
  5
2A6
330
525
100
AcDbEntity
  8
DIM
  6
Continuous
 62
     7
370
    13
100
AcDbLine
 10
84.767677
 20
-38.329594
 30
0.0
 11
84.71726
 21
-38.329594
 31
0.0
  0
LINE
  5
2A8
330
525
100
AcDbEntity
  8
_0
  6
Continuous
 62
     7
370
    13
100
AcDbLine
 10
84.816208
 20
-38.695031
 30
0.0
 11
84.912375
 21
-38.695031
 31
0.0
  0
LINE
  5
2A9
330
525
100
AcDbEntity
  8
_0
  6
Continuous
 62
     7
370
    13
100
AcDbLine
 10
84.816208
 20
-38.4305
 30
0.0
 11
84.912375
 21
-38.4305
 31
0.0
  0
LINE
  5
2AA
330
525
100
AcDbEntity
  8
_0
  6
Continuous
 62
     7
370
    13
100
AcDbLine
 10
85.387406
 20
-39.910969
 30
0.0
 11
85.980906
 21
-39.910969
 31
0.0
  0
LINE
  5
2AB
330
525
100
AcDbEntity
  8
TEXT
  6
Continuous
 62
     7
370
    13
100
AcDbLine
 10
83.364958
 20
-39.527969
 30
0.0
 11
83.388146
 21
-39.527969
 31
0.0
  0
LINE
  5
2AC
330
525
100
AcDbEntity
  8
TEXT
  6
Continuous
 62
     7
370
    13
100
AcDbLine
 10
83.250906
 20
-39.667229
 30
0.0
 11
83.364958
 21
-39.527969
 31
0.0
  0
SOLID
  5
2AD
330
525
100
AcDbEntity
  8
TEXT
  6
Continuous
 62
     7
370
    13
100
AcDbTrace
 10
-83.257354
 20
-39.67251
 30
0.0
 11
-83.244458
 21
-39.661948
 31
0.0
 12
-83.219229
 22
-39.705906
 32
0.0
 13
-83.219229
 23
-39.705906
 33
0.0
210
0.0
220
0.0
230
-1.0
  0
LINE
  5
2AE
330
525
100
AcDbEntity
  8
TEXT
  6
Continuous
 62
     7
370
    13
100
AcDbLine
 10
83.189281
 20
-39.392667
 30
0.0
 11
83.364958
 21
-39.527969
 31
0.0
  0
SOLID
  5
2AF
330
525
100
AcDbEntity
  8
TEXT
  6
Continuous
 62
     7
370
    13
100
AcDbTrace
 10
-83.184198
 20
-39.399271
 30
0.0
 11
-83.194375
 21
-39.386063
 31
0.0
 12
-83.149667
 22
-39.362156
 32
0.0
 13
-83.149667
 23
-39.362156
 33
0.0
210
0.0
220
0.0
230
-1.0
  0
LWPOLYLINE
  5
2B0
330
525
100
AcDbEntity
  8
_0
  6
Continuous
 62
     7
370
     0
100
AcDbPolyline
 90
       80
 70
   128
 43
0.0
 10
83.008938
 20
-40.317375
 10
83.023844
 20
-40.31324
 10
83.036385
 20
-40.310792
 10
83.046865
 20
-40.309698
 10
83.055583
 20
-40.309646
 10
83.062844
 20
-40.310333
 10
83.068958
 20
-40.311437
 10
83.07424
 20
-40.312646
 10
83.078979
 20
-40.313646
 10
83.083438
 20
-40.314198
 10
83.087688
 20
-40.314354
 10
83.091719
 20
-40.314219
 10
83.095542
 20
-40.313906
 10
83.099177
 20
-40.313542
 10
83.102615
 20
-40.313229
 10
83.105875
 20
-40.313083
 10
83.108969
 20
-40.313219
 10
83.111896
 20
-40.313729
 10
83.114688
 20
-40.314583
 10
83.117354
 20
-40.315729
 10
83.119948
 20
-40.317104
 10
83.122469
 20
-40.318656
 10
83.124948
 20
-40.320344
 10
83.127417
 20
-40.322094
 10
83.129885
 20
-40.323854
 10
83.132385
 20
-40.325583
 10
83.134937
 20
-40.32725
 10
83.137542
 20
-40.328833
 10
83.140208
 20
-40.330292
 10
83.142969
 20
-40.331615
 10
83.145812
 20
-40.332771
 10
83.148771
 20
-40.33374
 10
83.151854
 20
-40.33449
 10
83.155052
 20
-40.33501
 10
83.158354
 20
-40.335323
 10
83.16176
 20
-40.335437
 10
83.165229
 20
-40.335396
 10
83.16875
 20
-40.335208
 10
83.172292
 20
-40.334906
 10
83.175854
 20
-40.334521
 10
83.179396
 20
-40.334063
 10
83.182906
 20
-40.333573
 10
83.186375
 20
-40.333031
 10
83.189802
 20
-40.332448
 10
83.193167
 20
-40.331833
 10
83.196458
 20
-40.331177
 10
83.199687
 20
-40.330479
 10
83.202833
 20
-40.32974
 10
83.205896
 20
-40.328958
 10
83.208844
 20
-40.328146
 10
83.211698
 20
-40.327292
 10
83.214448
 20
-40.326417
 10
83.217094
 20
-40.3255
 10
83.219615
 20
-40.324583
 10
83.222021
 20
-40.323635
 10
83.224302
 20
-40.322688
 10
83.226458
 20
-40.321729
 10
83.22849
 20
-40.320781
 10
83.230427
 20
-40.319854
 10
83.232292
 20
-40.31899
 10
83.234135
 20
-40.318219
 10
83.235969
 20
-40.317563
 10
83.237833
 20
-40.317062
 10
83.239771
 20
-40.31674
 10
83.241802
 20
-40.316625
 10
83.243958
 20
-40.316729
 10
83.246198
 20
-40.31699
 10
83.248521
 20
-40.317333
 10
83.250865
 20
-40.317656
 10
83.253208
 20
-40.317896
 10
83.255531
 20
-40.317969
 10
83.257781
 20
-40.317781
 10
83.259927
 20
-40.31726
 10
83.261979
 20
-40.316375
 10
83.264031
 20
-40.315292
 10
83.266229
 20
-40.31424
 10
83.268687
 20
-40.313448
 10
83.271552
 20
-40.313135
 10
83.274969
 20
-40.313542
 10
83.279052
 20
-40.314875
  0
CIRCLE
  5
2B1
330
525
100
AcDbEntity
  8
_0
  6
Continuous
 62
     7
370
    13
100
AcDbCircle
 10
83.253829
 20
-38.491439
 30
0.0
 40
0.0100008
  0
CIRCLE
  5
2B2
330
525
100
AcDbEntity
  8
_0
  6
Continuous
 62
     7
370
    13
100
AcDbCircle
 10
83.253829
 20
-38.631654
 30
0.0
 40
0.0100008
  0
CIRCLE
  5
2B3
330
525
100
AcDbEntity
  8
_0
  6
Continuous
 62
     7
370
    13
100
AcDbCircle
 10
83.038935
 20
-38.631654
 30
0.0
 40
0.0100008
  0
CIRCLE
  5
2B4
330
525
100
AcDbEntity
  8
_0
  6
Continuous
 62
     7
370
    13
100
AcDbCircle
 10
83.038935
 20
-38.491439
 30
0.0
 40
0.0100008
  0
LINE
  5
2B5
330
525
100
AcDbEntity
  8
_0
  6
Continuous
 62
     7
370
    13
100
AcDbLine
 10
83.028937
 20
-38.661448
 30
0.0
 11
83.263958
 21
-38.661448
 31
0.0
  0
LINE
  5
2B6
330
525
100
AcDbEntity
  8
_0
  6
Continuous
 62
     7
370
    13
100
AcDbLine
 10
83.028937
 20
-38.911469
 30
0.0
 11
83.263958
 21
-38.911469
 31
0.0
  0
LINE
  5
2B7
330
525
100
AcDbEntity
  8
_0
  6
Continuous
 62
     7
370
    13
100
AcDbLine
 10
83.263958
 20
-38.911469
 30
0.0
 11
83.283958
 21
-38.931479
 31
0.0
  0
LINE
  5
2B8
330
525
100
AcDbEntity
  8
_0
  6
Continuous
 62
     7
370
    13
100
AcDbLine
 10
83.028937
 20
-38.911469
 30
0.0
 11
83.008938
 21
-38.931479
 31
0.0
  0
SPLINE
  5
2B9
330
525
100
AcDbEntity
  8
_0
  6
Continuous
 62
     7
370
     0
100
AcDbSpline
210
0.0
220
0.0
230
1.0
 70
     8
 71
     3
 72
    17
 73
    13
 74
     0
 42
0.0000000001
 43
0.00000001
 40
0.0
 40
0.0
 40
0.0
 40
0.0
 40
0.1
 40
0.2
 40
0.3
 40
0.4
 40
0.5
 40
0.6
 40
0.7
 40
0.7999999999999999
 40
0.8999999999999999
 40
1.0
 40
1.0
 40
1.0
 40
1.0
 10
83.0089375
 20
-40.46541666666666
 30
0.0
 10
83.05213541666666
 20
-40.45190625
 30
0.0
 10
83.08141666666667
 20
-40.46721875
 30
0.0
 10
83.11070833333333
 20
-40.45701041666666
 30
0.0
 10
83.12953125
 20
-40.47232291666666
 30
0.0
 10
83.15044791666666
 20
-40.48509375
 30
0.0
 10
83.17973958333333
 20
-40.48254166666666
 30
0.0
 10
83.2069375
 20
-40.4774375
 30
0.0
 10
83.22785416666666
 20
-40.46977083333334
 30
0.0
 10
83.24040624999999
 20
-40.46211458333333
 30
0.0
 10
83.26132291666666
 20
-40.46977083333334
 30
0.0
 10
83.26969791666666
 20
-40.45701041666666
 30
0.0
 10
83.28395833333333
 20
-40.46541666666666
 30
0.0
  0
LINE
  5
2BB
330
525
100
AcDbEntity
  8
_0
  6
Continuous
 62
     7
370
    13
100
AcDbLine
 10
83.008917
 20
-40.167354
 30
0.0
 11
83.028937
 21
-40.147344
 31
0.0
  0
LINE
  5
2BC
330
525
100
AcDbEntity
  8
_0
  6
DGN Style 2
 62
     7
370
    13
100
AcDbLine
 10
83.248958
 20
-40.057354
 30
0.0
 11
83.043937
 21
-40.057354
 31
0.0
  0
LINE
  5
2BD
330
525
100
AcDbEntity
  8
_0
  6
DGN Style 2
 62
     7
370
    13
100
AcDbLine
 10
83.248958
 20
-39.882333
 30
0.0
 11
83.043937
 21
-39.882333
 31
0.0
  0
LINE
  5
2BE
330
525
100
AcDbEntity
  8
_0
  6
DGN Style 2
 62
     7
370
    13
100
AcDbLine
 10
83.248958
 20
-39.707323
 30
0.0
 11
83.043937
 21
-39.707323
 31
0.0
  0
LINE
  5
2BF
330
525
100
AcDbEntity
  8
_0
  6
DGN Style 2
 62
     7
370
    13
100
AcDbLine
 10
83.248958
 20
-39.532312
 30
0.0
 11
83.043937
 21
-39.532312
 31
0.0
  0
LINE
  5
2C0
330
525
100
AcDbEntity
  8
_0
  6
DGN Style 2
 62
     7
370
    13
100
AcDbLine
 10
83.248958
 20
-39.357292
 30
0.0
 11
83.043937
 21
-39.357292
 31
0.0
  0
LINE
  5
2C1
330
525
100
AcDbEntity
  8
_0
  6
Continuous
 62
     7
370
    13
100
AcDbLine
 10
83.008938
 20
-38.931479
 30
0.0
 11
83.283958
 21
-38.931479
 31
0.0
  0
LINE
  5
2C2
330
525
100
AcDbEntity
  8
_0
  6
DGN Style 2
 62
     7
370
    13
100
AcDbLine
 10
83.043937
 20
-38.99226
 30
0.0
 11
83.248958
 21
-38.99226
 31
0.0
  0
LINE
  5
2C3
330
525
100
AcDbEntity
  8
_0
  6
Continuous
 62
     7
370
    13
100
AcDbLine
 10
83.283958
 20
-40.166469
 30
0.0
 11
83.263958
 21
-40.146469
 31
0.0
  0
LINE
  5
2C4
330
525
100
AcDbEntity
  8
_0
  6
Continuous
 62
     7
370
    13
100
AcDbLine
 10
83.263958
 20
-40.146469
 30
0.0
 11
83.263958
 21
-38.911469
 31
0.0
  0
LINE
  5
2C5
330
525
100
AcDbEntity
  8
_0
  6
DGN Style 2
 62
     7
370
    13
100
AcDbLine
 10
83.248958
 20
-40.317396
 30
0.0
 11
83.248958
 21
-38.99226
 31
0.0
  0
LINE
  5
2C6
330
525
100
AcDbEntity
  8
_0
  6
Continuous
 62
     7
370
    13
100
AcDbLine
 10
83.028937
 20
-40.147344
 30
0.0
 11
83.028937
 21
-38.911469
 31
0.0
  0
LINE
  5
2C7
330
525
100
AcDbEntity
  8
_0
  6
DGN Style 2
 62
     7
370
    13
100
AcDbLine
 10
83.043937
 20
-40.31
 30
0.0
 11
83.043937
 21
-38.99226
 31
0.0
  0
LINE
  5
2C8
330
525
100
AcDbEntity
  8
_0
  6
DGN Style 2
 62
     7
370
    13
100
AcDbLine
 10
83.248958
 20
-40.232365
 30
0.0
 11
83.043937
 21
-40.232365
 31
0.0
  0
LINE
  5
2C9
330
525
100
AcDbEntity
  8
_0
  6
DGN Style 2
 62
     7
370
    13
100
AcDbLine
 10
83.248958
 20
-40.611604
 30
0.0
 11
83.248958
 21
-40.46525
 31
0.0
  0
LINE
  5
2CA
330
525
100
AcDbEntity
  8
_0
  6
DGN Style 2
 62
     7
370
    13
100
AcDbLine
 10
83.043937
 20
-40.611604
 30
0.0
 11
83.248958
 21
-40.611604
 31
0.0
  0
LINE
  5
2CB
330
525
100
AcDbEntity
  8
_0
  6
DGN Style 2
 62
     7
370
    13
100
AcDbLine
 10
83.043937
 20
-40.611604
 30
0.0
 11
83.043937
 21
-40.454469
 31
0.0
  0
LWPOLYLINE
  5
2CC
330
525
100
AcDbEntity
  8
_0
  6
Continuous
 62
     7
370
    53
100
AcDbPolyline
 90
       10
 70
   128
 43
0.0
 10
82.733917
 20
-38.918135
 10
82.643906
 20
-39.008135
 10
82.643906
 20
-39.030635
 10
82.725917
 20
-39.112656
 10
82.725918
 20
-39.112657
 42
0.573574
 10
82.724213
 20
-39.149241
 10
82.724208
 20
-39.14924
 10
82.643906
 20
-39.229552
 10
82.643906
 20
-39.253156
 10
82.733917
 20
-39.343167
  0
LINE
  5
2D0
330
525
100
AcDbEntity
  8
_0
  6
DGN Style 2
 62
     7
370
    13
100
AcDbLine
 10
83.558979
 20
-39.119302
 30
0.0
 11
82.718365
 21
-39.119302
 31
0.0
  0
LINE
  5
2D1
330
525
100
AcDbEntity
  8
_0
  6
DGN Style 2
 62
     7
370
    13
100
AcDbLine
 10
83.558979
 20
-39.149313
 30
0.0
 11
82.724146
 21
-39.149313
 31
0.0
  0
LINE
  5
2D2
330
525
100
AcDbEntity
  8
_0
  6
Continuous
 62
     7
370
    13
100
AcDbLine
 10
83.008938
 20
-40.711615
 30
0.0
 11
83.008938
 21
-40.460208
 31
0.0
  0
LINE
  5
2D3
330
525
100
AcDbEntity
  8
_0
  6
Continuous
 62
     7
370
    13
100
AcDbLine
 10
83.008938
 20
-40.711031
 30
0.0
 11
83.208948
 21
-40.711031
 31
0.0
  0
LINE
  5
2D4
330
525
100
AcDbEntity
  8
_0
  6
Continuous
 62
     7
370
    13
100
AcDbLine
 10
82.733917
 20
-38.911469
 30
0.0
 11
83.008938
 21
-38.911469
 31
0.0
  0
LINE
  5
2D5
330
525
100
AcDbEntity
  8
_0
  6
Continuous
 62
     7
370
    13
100
AcDbLine
 10
83.008938
 20
-40.711615
 30
0.0
 11
83.009146
 21
-40.454885
 31
0.0
  0
LINE
  5
2D6
330
525
100
AcDbEntity
  8
_0
  6
Continuous
 62
     7
370
    13
100
AcDbLine
 10
83.283958
 20
-40.711615
 30
0.0
 11
83.283958
 21
-40.467458
 31
0.0
  0
LINE
  5
2D7
330
525
100
AcDbEntity
  8
_0
  6
Continuous
 62
     7
370
    13
100
AcDbLine
 10
82.733917
 20
-39.358083
 30
0.0
 11
82.733917
 21
-38.911469
 31
0.0
  0
LINE
  5
2D8
330
525
100
AcDbEntity
  8
_0
  6
Continuous
 62
     7
370
    13
100
AcDbLine
 10
82.733917
 20
-39.358083
 30
0.0
 11
83.008938
 21
-39.358083
 31
0.0
  0
LINE
  5
2D9
330
525
100
AcDbEntity
  8
_0
  6
Continuous
 62
     7
370
    13
100
AcDbLine
 10
83.008938
 20
-40.711615
 30
0.0
 11
83.283958
 21
-40.711615
 31
0.0
  0
LINE
  5
2DA
330
525
100
AcDbEntity
  8
_0
  6
Continuous
 62
     7
370
    13
100
AcDbLine
 10
83.008938
 20
-40.317375
 30
0.0
 11
83.008938
 21
-38.911469
 31
0.0
  0
LINE
  5
2DB
330
525
100
AcDbEntity
  8
_0
  6
Continuous
 62
     7
370
    13
100
AcDbLine
 10
83.283958
 20
-40.314635
 30
0.0
 11
83.283958
 21
-38.911469
 31
0.0
  0
LINE
  5
2DC
330
525
100
AcDbEntity
  8
_0
  6
Continuous
 62
     7
370
    13
100
AcDbLine
 10
82.733917
 20
-38.661448
 30
0.0
 11
83.008938
 21
-38.661448
 31
0.0
  0
LINE
  5
2DD
330
525
100
AcDbEntity
  8
_0
  6
Continuous
 62
     7
370
    13
100
AcDbLine
 10
82.733917
 20
-38.461437
 30
0.0
 11
83.008938
 21
-38.461437
 31
0.0
  0
LINE
  5
2DE
330
525
100
AcDbEntity
  8
_0
  6
Continuous
 62
     7
370
    13
100
AcDbLine
 10
82.63775
 20
-38.695031
 30
0.0
 11
82.63775
 21
-38.4305
 31
0.0
  0
LINE
  5
2DF
330
525
100
AcDbEntity
  8
_0
  6
Continuous
 62
     7
370
    13
100
AcDbLine
 10
82.733917
 20
-38.695031
 30
0.0
 11
82.733917
 21
-38.4305
 31
0.0
  0
LINE
  5
2E0
330
525
100
AcDbEntity
  8
_0
  6
Continuous
 62
     7
370
    13
100
AcDbLine
 10
83.008938
 20
-38.661448
 30
0.0
 11
83.008938
 21
-38.461437
 31
0.0
  0
LINE
  5
2E1
330
525
100
AcDbEntity
  8
_0
  6
Continuous
 62
     7
370
    13
100
AcDbLine
 10
83.283958
 20
-38.641448
 30
0.0
 11
83.283958
 21
-38.481437
 31
0.0
  0
LINE
  5
2E2
330
525
100
AcDbEntity
  8
_0
  6
DGN Style 2
 62
     7
370
    13
100
AcDbLine
 10
83.558979
 20
-38.574031
 30
0.0
 11
82.726073
 21
-38.574031
 31
0.0
  0
LINE
  5
2E3
330
525
100
AcDbEntity
  8
_0
  6
DGN Style 2
 62
     7
370
    13
100
AcDbLine
 10
83.558979
 20
-38.544021
 30
0.0
 11
82.733917
 21
-38.544021
 31
0.0
  0
LWPOLYLINE
  5
2E4
330
525
100
AcDbEntity
  8
_0
  6
DGN Style 2
 62
     7
370
    53
100
AcDbPolyline
 90
        2
 70
   128
 43
0.0
 10
82.72574
 20
-38.695031
 10
82.72574
 20
-38.4305
  0
LINE
  5
2E5
330
525
100
AcDbEntity
  8
DIM
  6
Continuous
 62
     7
370
    13
100
AcDbLine
 10
83.283958
 20
-38.290104
 30
0.0
 11
83.283958
 21
-38.413135
 31
0.0
  0
LINE
  5
2E6
330
525
100
AcDbEntity
  8
DIM
  6
Continuous
 62
     7
370
    13
100
AcDbLine
 10
83.008938
 20
-38.290104
 30
0.0
 11
83.008938
 21
-38.413135
 31
0.0
  0
LINE
  5
2E7
330
525
100
AcDbEntity
  8
DIM
  6
Continuous
 62
     7
370
    13
100
AcDbLine
 10
83.233948
 20
-38.313865
 30
0.0
 11
83.058937
 21
-38.313865
 31
0.0
  0
SOLID
  5
2E8
330
525
100
AcDbEntity
  8
DIM
  6
Continuous
 62
     7
370
    13
100
AcDbTrace
 10
83.233948
 20
-38.322198
 30
0.0
 11
83.233948
 21
-38.305531
 31
0.0
 12
83.283958
 22
-38.313865
 32
0.0
 13
83.283958
 23
-38.313865
 33
0.0
  0
SOLID
  5
2E9
330
525
100
AcDbEntity
  8
DIM
  6
Continuous
 62
     7
370
    13
100
AcDbTrace
 10
83.058937
 20
-38.322198
 30
0.0
 11
83.058937
 21
-38.305531
 31
0.0
 12
83.008938
 22
-38.313865
 32
0.0
 13
83.008938
 23
-38.313865
 33
0.0
  0
SOLID
  5
2EC
330
525
100
AcDbEntity
  8
DIM
  6
Continuous
 62
     7
370
    13
100
AcDbTrace
 10
82.959292
 20
-38.322198
 30
0.0
 11
82.959292
 21
-38.305531
 31
0.0
 12
83.009302
 22
-38.313865
 32
0.0
 13
83.009302
 23
-38.313865
 33
0.0
  0
LINE
  5
2ED
330
525
100
AcDbEntity
  8
DIM
  6
Continuous
 62
     7
370
    13
100
AcDbLine
 10
82.959292
 20
-38.313865
 30
0.0
 11
82.784281
 21
-38.313865
 31
0.0
  0
SOLID
  5
2EE
330
525
100
AcDbEntity
  8
DIM
  6
Continuous
 62
     7
370
    13
100
AcDbTrace
 10
82.784281
 20
-38.322198
 30
0.0
 11
82.784281
 21
-38.305531
 31
0.0
 12
82.734281
 22
-38.313865
 32
0.0
 13
82.734281
 23
-38.313865
 33
0.0
  0
LINE
  5
2EF
330
525
100
AcDbEntity
  8
DIM
  6
Continuous
 62
     7
370
    13
100
AcDbLine
 10
82.734281
 20
-38.290104
 30
0.0
 11
82.734281
 21
-38.413135
 31
0.0
  0
SOLID
  5
2F0
330
525
100
AcDbEntity
  8
DIM
  6
Continuous
 62
     7
370
    13
100
AcDbTrace
 10
82.589219
 20
-38.322198
 30
0.0
 11
82.589219
 21
-38.305531
 31
0.0
 12
82.639219
 22
-38.313865
 32
0.0
 13
82.639219
 23
-38.313865
 33
0.0
  0
LINE
  5
2F1
330
525
100
AcDbEntity
  8
DIM
  6
Continuous
 62
     7
370
    13
100
AcDbLine
 10
82.638844
 20
-38.290104
 30
0.0
 11
82.638844
 21
-38.413135
 31
0.0
  0
LINE
  5
2F2
330
525
100
AcDbEntity
  8
DIM
  6
Continuous
 62
     7
370
    13
100
AcDbLine
 10
82.589219
 20
-38.313865
 30
0.0
 11
82.538802
 21
-38.313865
 31
0.0
  0
LINE
  5
2F4
330
525
100
AcDbEntity
  8
DIM
  6
Continuous
 62
     7
370
    13
100
AcDbLine
 10
83.690729
 20
-38.661448
 30
0.0
 11
83.86774
 21
-38.661448
 31
0.0
  0
LINE
  5
2F5
330
525
100
AcDbEntity
  8
DIM
  6
Continuous
 62
     7
370
    13
100
AcDbLine
 10
83.690729
 20
-38.461437
 30
0.0
 11
83.86774
 21
-38.461437
 31
0.0
  0
LINE
  5
2F6
330
525
100
AcDbEntity
  8
DIM
  6
Continuous
 62
     7
370
    13
100
AcDbLine
 10
83.81774
 20
-38.611448
 30
0.0
 11
83.81774
 21
-38.511437
 31
0.0
  0
SOLID
  5
2F7
330
525
100
AcDbEntity
  8
DIM
  6
Continuous
 62
     7
370
    13
100
AcDbTrace
 10
83.826073
 20
-38.611448
 30
0.0
 11
83.809406
 21
-38.611448
 31
0.0
 12
83.81774
 22
-38.661448
 32
0.0
 13
83.81774
 23
-38.661448
 33
0.0
  0
SOLID
  5
2F8
330
525
100
AcDbEntity
  8
DIM
  6
Continuous
 62
     7
370
    13
100
AcDbTrace
 10
83.826073
 20
-38.511437
 30
0.0
 11
83.809406
 21
-38.511437
 31
0.0
 12
83.81774
 22
-38.461437
 32
0.0
 13
83.81774
 23
-38.461437
 33
0.0
  0
LINE
  5
2FA
330
525
100
AcDbEntity
  8
_0
  6
Continuous
 62
     7
370
    13
100
AcDbLine
 10
82.63775
 20
-38.695031
 30
0.0
 11
82.733917
 21
-38.695031
 31
0.0
  0
LINE
  5
2FB
330
525
100
AcDbEntity
  8
_0
  6
Continuous
 62
     7
370
    13
100
AcDbLine
 10
82.63775
 20
-38.4305
 30
0.0
 11
82.733917
 21
-38.4305
 31
0.0
  0
LINE
  5
2FC
330
525
100
AcDbEntity
  8
_0
  6
Continuous
 62
     7
370
    13
100
AcDbLine
 10
83.283958
 20
-39.911552
 30
0.0
 11
83.877458
 21
-39.911552
 31
0.0
  0
LINE
  5
2FD
330
525
100
AcDbEntity
  8
_0
  6
Continuous
 62
     7
370
    13
100
AcDbLine
 10
89.147937
 20
-39.919187
 30
0.0
 11
89.741438
 21
-39.919187
 31
0.0
  0
LINE
  5
2FE
330
525
100
AcDbEntity
  8
_0
  6
Continuous
 62
     7
370
    13
100
AcDbLine
 10
88.501729
 20
-38.438135
 30
0.0
 11
88.597896
 21
-38.438135
 31
0.0
  0
LINE
  5
2FF
330
525
100
AcDbEntity
  8
_0
  6
Continuous
 62
     7
370
    13
100
AcDbLine
 10
88.501729
 20
-38.702667
 30
0.0
 11
88.597896
 21
-38.702667
 31
0.0
  0
SOLID
  5
301
330
525
100
AcDbEntity
  8
DIM
  6
Continuous
 62
     7
370
    13
100
AcDbTrace
 10
88.184604
 20
-39.869563
 30
0.0
 11
88.167937
 21
-39.869563
 31
0.0
 12
88.176271
 22
-39.919562
 32
0.0
 13
88.176271
 23
-39.919562
 33
0.0
  0
SOLID
  5
302
330
525
100
AcDbEntity
  8
DIM
  6
Continuous
 62
     7
370
    13
100
AcDbTrace
 10
88.184604
 20
-38.971812
 30
0.0
 11
88.167937
 21
-38.971812
 31
0.0
 12
88.176271
 22
-38.921813
 32
0.0
 13
88.176271
 23
-38.921813
 33
0.0
  0
LINE
  5
303
330
525
100
AcDbEntity
  8
DIM
  6
Continuous
 62
     7
370
    13
100
AcDbLine
 10
88.176271
 20
-38.971812
 30
0.0
 11
88.176271
 21
-39.869563
 31
0.0
  0
SOLID
  5
305
330
525
100
AcDbEntity
  8
DIM
  6
Continuous
 62
     7
370
    13
100
AcDbTrace
 10
89.695552
 20
-38.519073
 30
0.0
 11
89.678885
 21
-38.519073
 31
0.0
 12
89.687219
 22
-38.469073
 32
0.0
 13
89.687219
 23
-38.469073
 33
0.0
  0
SOLID
  5
306
330
525
100
AcDbEntity
  8
DIM
  6
Continuous
 62
     7
370
    13
100
AcDbTrace
 10
89.695552
 20
-38.619083
 30
0.0
 11
89.678885
 21
-38.619083
 31
0.0
 12
89.687219
 22
-38.669083
 32
0.0
 13
89.687219
 23
-38.669083
 33
0.0
  0
LINE
  5
307
330
525
100
AcDbEntity
  8
DIM
  6
Continuous
 62
     7
370
    13
100
AcDbLine
 10
89.687219
 20
-38.619083
 30
0.0
 11
89.687219
 21
-38.519073
 31
0.0
  0
LINE
  5
308
330
525
100
AcDbEntity
  8
DIM
  6
Continuous
 62
     7
370
    13
100
AcDbLine
 10
89.560208
 20
-38.469073
 30
0.0
 11
89.737219
 21
-38.469073
 31
0.0
  0
LINE
  5
309
330
525
100
AcDbEntity
  8
DIM
  6
Continuous
 62
     7
370
    13
100
AcDbLine
 10
89.560208
 20
-38.669083
 30
0.0
 11
89.737219
 21
-38.669083
 31
0.0
  0
LINE
  5
30B
330
525
100
AcDbEntity
  8
DIM
  6
Continuous
 62
     7
370
    13
100
AcDbLine
 10
88.453198
 20
-38.328083
 30
0.0
 11
88.402781
 21
-38.328083
 31
0.0
  0
LINE
  5
30C
330
525
100
AcDbEntity
  8
DIM
  6
Continuous
 62
     7
370
    13
100
AcDbLine
 10
88.502833
 20
-38.297604
 30
0.0
 11
88.502833
 21
-38.420646
 31
0.0
  0
SOLID
  5
30D
330
525
100
AcDbEntity
  8
DIM
  6
Continuous
 62
     7
370
    13
100
AcDbTrace
 10
88.453198
 20
-38.336417
 30
0.0
 11
88.453198
 21
-38.31975
 31
0.0
 12
88.503198
 22
-38.328083
 32
0.0
 13
88.503198
 23
-38.328083
 33
0.0
  0
LINE
  5
30E
330
525
100
AcDbEntity
  8
DIM
  6
Continuous
 62
     7
370
    13
100
AcDbLine
 10
88.59826
 20
-38.297604
 30
0.0
 11
88.59826
 21
-38.420646
 31
0.0
  0
SOLID
  5
30F
330
525
100
AcDbEntity
  8
DIM
  6
Continuous
 62
     7
370
    13
100
AcDbTrace
 10
88.648271
 20
-38.336417
 30
0.0
 11
88.648271
 21
-38.31975
 31
0.0
 12
88.59826
 22
-38.328083
 32
0.0
 13
88.59826
 23
-38.328083
 33
0.0
  0
LINE
  5
310
330
525
100
AcDbEntity
  8
DIM
  6
Continuous
 62
     7
370
    13
100
AcDbLine
 10
88.823281
 20
-38.328083
 30
0.0
 11
88.648271
 21
-38.328083
 31
0.0
  0
SOLID
  5
311
330
525
100
AcDbEntity
  8
DIM
  6
Continuous
 62
     7
370
    13
100
AcDbTrace
 10
88.823281
 20
-38.336417
 30
0.0
 11
88.823281
 21
-38.31975
 31
0.0
 12
88.873281
 22
-38.328083
 32
0.0
 13
88.873281
 23
-38.328083
 33
0.0
  0
SOLID
  5
314
330
525
100
AcDbEntity
  8
DIM
  6
Continuous
 62
     7
370
    13
100
AcDbTrace
 10
88.922917
 20
-38.336417
 30
0.0
 11
88.922917
 21
-38.31975
 31
0.0
 12
88.872917
 22
-38.328083
 32
0.0
 13
88.872917
 23
-38.328083
 33
0.0
  0
SOLID
  5
315
330
525
100
AcDbEntity
  8
DIM
  6
Continuous
 62
     7
370
    13
100
AcDbTrace
 10
89.097938
 20
-38.336417
 30
0.0
 11
89.097938
 21
-38.31975
 31
0.0
 12
89.147937
 22
-38.328083
 32
0.0
 13
89.147937
 23
-38.328083
 33
0.0
  0
LINE
  5
316
330
525
100
AcDbEntity
  8
DIM
  6
Continuous
 62
     7
370
    13
100
AcDbLine
 10
89.097938
 20
-38.328083
 30
0.0
 11
88.922917
 21
-38.328083
 31
0.0
  0
LINE
  5
317
330
525
100
AcDbEntity
  8
DIM
  6
Continuous
 62
     7
370
    13
100
AcDbLine
 10
88.872917
 20
-38.297604
 30
0.0
 11
88.872917
 21
-38.450781
 31
0.0
  0
LINE
  5
318
330
525
100
AcDbEntity
  8
DIM
  6
Continuous
 62
     7
370
    13
100
AcDbLine
 10
89.147937
 20
-38.297604
 30
0.0
 11
89.147937
 21
-38.450781
 31
0.0
  0
LINE
  5
319
330
525
100
AcDbEntity
  8
_0
  6
DGN Style 2
 62
     7
370
    13
100
AcDbLine
 10
89.422958
 20
-38.551656
 30
0.0
 11
88.597896
 21
-38.551656
 31
0.0
  0
LINE
  5
31A
330
525
100
AcDbEntity
  8
_0
  6
DGN Style 2
 62
     7
370
    13
100
AcDbLine
 10
89.422958
 20
-38.581667
 30
0.0
 11
88.590052
 21
-38.581667
 31
0.0
  0
LINE
  5
31B
330
525
100
AcDbEntity
  8
_0
  6
Continuous
 62
     7
370
    13
100
AcDbLine
 10
89.147937
 20
-38.669083
 30
0.0
 11
89.147937
 21
-38.469073
 31
0.0
  0
LINE
  5
31C
330
525
100
AcDbEntity
  8
_0
  6
Continuous
 62
     7
370
    13
100
AcDbLine
 10
88.872917
 20
-38.669083
 30
0.0
 11
88.872917
 21
-38.469073
 31
0.0
  0
LINE
  5
31D
330
525
100
AcDbEntity
  8
_0
  6
Continuous
 62
     7
370
    13
100
AcDbLine
 10
88.597896
 20
-38.702667
 30
0.0
 11
88.597896
 21
-38.438135
 31
0.0
  0
LINE
  5
31E
330
525
100
AcDbEntity
  8
_0
  6
Continuous
 62
     7
370
    13
100
AcDbLine
 10
88.501729
 20
-38.702667
 30
0.0
 11
88.501729
 21
-38.438135
 31
0.0
  0
LINE
  5
31F
330
525
100
AcDbEntity
  8
_0
  6
Continuous
 62
     7
370
    13
100
AcDbLine
 10
88.597896
 20
-38.469073
 30
0.0
 11
89.422958
 21
-38.469073
 31
0.0
  0
LINE
  5
320
330
525
100
AcDbEntity
  8
_0
  6
Continuous
 62
     7
370
    13
100
AcDbLine
 10
88.597896
 20
-38.669083
 30
0.0
 11
89.422958
 21
-38.669083
 31
0.0
  0
SPLINE
  5
321
330
525
100
AcDbEntity
  8
_0
  6
Continuous
 62
     7
370
     0
100
AcDbSpline
210
0.0
220
0.0
230
1.0
 70
     8
 71
     3
 72
    17
 73
    13
 74
     0
 42
0.0000000001
 43
0.00000001
 40
0.0
 40
0.0
 40
0.0
 40
0.0
 40
0.1
 40
0.2
 40
0.3
 40
0.4
 40
0.5
 40
0.6
 40
0.7
 40
0.7999999999999999
 40
0.8999999999999999
 40
1.0
 40
1.0
 40
1.0
 40
1.0
 10
88.87291666666667
 20
-40.3133125
 30
0.0
 10
88.89760416666667
 20
-40.30538541666667
 30
0.0
 10
88.92576041666666
 20
-40.31595833333333
 30
0.0
 10
88.95391666666666
 20
-40.30538541666667
 30
0.0
 10
88.99614583333333
 20
-40.31991666666666
 30
0.0
 10
89.022125
 20
-40.3133125
 30
0.0
 10
89.04811458333333
 20
-40.30803125
 30
0.0
 10
89.06327083333333
 20
-40.31727083333333
 30
0.0
 10
89.08384375
 20
-40.31067708333333
 30
0.0
 10
89.10333333333332
 20
-40.32123958333333
 30
0.0
 10
89.12607291666666
 20
-40.3133125
 30
0.0
 10
89.13797916666667
 20
-40.31595833333333
 30
0.0
 10
89.1479375
 20
-40.3205625
 30
0.0
  0
LINE
  5
323
330
525
100
AcDbEntity
  8
_0
  6
Continuous
 62
     7
370
    13
100
AcDbLine
 10
89.147937
 20
-40.322271
 30
0.0
 11
89.147937
 21
-38.919104
 31
0.0
  0
LINE
  5
324
330
525
100
AcDbEntity
  8
_0
  6
Continuous
 62
     7
370
    13
100
AcDbLine
 10
88.872917
 20
-40.314479
 30
0.0
 11
88.872917
 21
-38.919104
 31
0.0
  0
SPLINE
  5
325
330
525
100
AcDbEntity
  8
_0
  6
Continuous
 62
     7
370
     0
100
AcDbSpline
210
0.0
220
0.0
230
1.0
 70
     8
 71
     3
 72
    17
 73
    13
 74
     0
 42
0.0000000001
 43
0.00000001
 40
0.0
 40
0.0
 40
0.0
 40
0.0
 40
0.1
 40
0.2
 40
0.3
 40
0.4
 40
0.5
 40
0.6
 40
0.7
 40
0.7999999999999999
 40
0.8999999999999999
 40
1.0
 40
1.0
 40
1.0
 40
1.0
 10
88.87291666666667
 20
-40.46784375
 30
0.0
 10
88.89760416666667
 20
-40.45991666666666
 30
0.0
 10
88.92576041666666
 20
-40.47048958333333
 30
0.0
 10
88.95391666666666
 20
-40.45991666666666
 30
0.0
 10
88.99614583333333
 20
-40.47444791666666
 30
0.0
 10
89.022125
 20
-40.46784375
 30
0.0
 10
89.04811458333333
 20
-40.4625625
 30
0.0
 10
89.06327083333333
 20
-40.4718125
 30
0.0
 10
89.08384375
 20
-40.46520833333333
 30
0.0
 10
89.10333333333332
 20
-40.47577083333334
 30
0.0
 10
89.12607291666666
 20
-40.46784375
 30
0.0
 10
89.13797916666667
 20
-40.47048958333333
 30
0.0
 10
89.1479375
 20
-40.47509375
 30
0.0
  0
LINE
  5
327
330
525
100
AcDbEntity
  8
_0
  6
Continuous
 62
     7
370
    13
100
AcDbLine
 10
88.707552
 20
-39.919187
 30
0.0
 11
88.872917
 21
-39.919187
 31
0.0
  0
LINE
  5
328
330
525
100
AcDbEntity
  8
_0
  6
Continuous
 62
     7
370
    13
100
AcDbLine
 10
88.872917
 20
-40.71925
 30
0.0
 11
89.147937
 21
-40.71925
 31
0.0
  0
LINE
  5
329
330
525
100
AcDbEntity
  8
_0
  6
Continuous
 62
     7
370
    13
100
AcDbLine
 10
88.597896
 20
-39.365719
 30
0.0
 11
88.872917
 21
-39.365719
 31
0.0
  0
LINE
  5
32A
330
525
100
AcDbEntity
  8
_0
  6
Continuous
 62
     7
370
    13
100
AcDbLine
 10
88.597896
 20
-39.365719
 30
0.0
 11
88.597896
 21
-38.919104
 31
0.0
  0
LINE
  5
32B
330
525
100
AcDbEntity
  8
_0
  6
Continuous
 62
     7
370
    13
100
AcDbLine
 10
89.147937
 20
-40.71925
 30
0.0
 11
89.147937
 21
-40.475094
 31
0.0
  0
LINE
  5
32C
330
525
100
AcDbEntity
  8
_0
  6
Continuous
 62
     7
370
    13
100
AcDbLine
 10
88.597896
 20
-38.919104
 30
0.0
 11
89.422958
 21
-38.919104
 31
0.0
  0
LINE
  5
32D
330
525
100
AcDbEntity
  8
_0
  6
Continuous
 62
     7
370
    13
100
AcDbLine
 10
88.872917
 20
-40.718667
 30
0.0
 11
89.072927
 21
-40.718667
 31
0.0
  0
LINE
  5
33B
330
525
100
AcDbEntity
  8
_0
  6
Continuous
 62
     7
370
    13
100
AcDbLine
 10
88.872917
 20
-40.71925
 30
0.0
 11
88.872917
 21
-40.467844
 31
0.0
  0
LINE
  5
33C
330
525
100
AcDbEntity
  8
_0
  6
DGN Style 2
 62
     7
370
    13
100
AcDbLine
 10
89.422958
 20
-39.156948
 30
0.0
 11
88.588125
 21
-39.156948
 31
0.0
  0
LINE
  5
33D
330
525
100
AcDbEntity
  8
_0
  6
DGN Style 2
 62
     7
370
    13
100
AcDbLine
 10
89.422958
 20
-39.126937
 30
0.0
 11
88.582354
 21
-39.126937
 31
0.0
  0
LWPOLYLINE
  5
33E
330
525
100
AcDbEntity
  8
_0
  6
Continuous
 62
     7
370
    53
100
AcDbPolyline
 90
       10
 70
   128
 43
0.0
 10
88.597896
 20
-38.925771
 10
88.507885
 20
-39.015781
 10
88.507885
 20
-39.038281
 10
88.589906
 20
-39.120292
 10
88.589901
 20
-39.120293
 42
0.573574
 10
88.588196
 20
-39.156878
 10
88.588198
 20
-39.156875
 10
88.507885
 20
-39.237187
 10
88.507885
 20
-39.260802
 10
88.597896
 20
-39.350802
  0
SOLID
  5
343
330
525
100
AcDbEntity
  8
DIM
  6
Continuous
 62
     7
370
    13
100
AcDbTrace
 10
83.172229
 20
-40.562594
 30
0.0
 11
83.155563
 21
-40.562594
 31
0.0
 12
83.163896
 22
-40.612604
 32
0.0
 13
83.163896
 23
-40.612604
 33
0.0
  0
SOLID
  5
344
330
525
100
AcDbEntity
  8
DIM
  6
Continuous
 62
     7
370
    13
100
AcDbTrace
 10
83.172229
 20
-40.764708
 30
0.0
 11
83.155563
 21
-40.764708
 31
0.0
 12
83.163896
 22
-40.714698
 32
0.0
 13
83.163896
 23
-40.714698
 33
0.0
  0
LINE
  5
345
330
525
100
AcDbEntity
  8
DIM
  6
Continuous
 62
     7
370
    13
100
AcDbLine
 10
83.163896
 20
-40.564979
 30
0.0
 11
83.163896
 21
-40.514979
 31
0.0
  0
LINE
  5
346
330
525
100
AcDbEntity
  8
DIM
  6
Continuous
 62
     7
370
    13
100
AcDbLine
 10
83.163896
 20
-40.764708
 30
0.0
 11
83.163896
 21
-40.814708
 31
0.0
  0
LINE
  5
347
330
525
100
AcDbEntity
  8
TEXT
  6
Continuous
 62
     7
370
    13
100
AcDbLine
 10
83.095062
 20
-39.49301
 30
0.0
 11
83.145062
 21
-39.49301
 31
0.0
  0
LINE
  5
348
330
525
100
AcDbEntity
  8
TEXT
  6
Continuous
 62
     7
370
    13
100
AcDbLine
 10
82.960292
 20
-39.49301
 30
0.0
 11
82.910292
 21
-39.49301
 31
0.0
  0
SOLID
  5
349
330
525
100
AcDbEntity
  8
TEXT
  6
Continuous
 62
     7
370
    13
100
AcDbTrace
 10
83.095062
 20
-39.501344
 30
0.0
 11
83.095062
 21
-39.484677
 31
0.0
 12
83.045063
 22
-39.49301
 32
0.0
 13
83.045063
 23
-39.49301
 33
0.0
  0
SOLID
  5
34A
330
525
100
AcDbEntity
  8
TEXT
  6
Continuous
 62
     7
370
    13
100
AcDbTrace
 10
82.960292
 20
-39.501344
 30
0.0
 11
82.960292
 21
-39.484677
 31
0.0
 12
83.010302
 22
-39.49301
 32
0.0
 13
83.010302
 23
-39.49301
 33
0.0
  0
LINE
  5
34E
330
525
100
AcDbEntity
  8
_0
  6
Continuous
 62
     7
370
    13
100
AcDbLine
 10
83.008938
 20
-38.481437
 30
0.0
 11
83.283958
 21
-38.481437
 31
0.0
  0
LINE
  5
34F
330
525
100
AcDbEntity
  8
_0
  6
Continuous
 62
     7
370
    13
100
AcDbLine
 10
83.028937
 20
-38.461437
 30
0.0
 11
83.028937
 21
-38.661448
 31
0.0
  0
LINE
  5
350
330
525
100
AcDbEntity
  8
_0
  6
Continuous
 62
     7
370
    13
100
AcDbLine
 10
83.263958
 20
-38.461437
 30
0.0
 11
83.263958
 21
-38.661448
 31
0.0
  0
LINE
  5
351
330
525
100
AcDbEntity
  8
_0
  6
Continuous
 62
     7
370
    13
100
AcDbLine
 10
83.008938
 20
-38.641448
 30
0.0
 11
83.283958
 21
-38.641448
 31
0.0
  0
LINE
  5
352
330
525
100
AcDbEntity
  8
_0
  6
Continuous
 62
     7
370
    13
100
AcDbLine
 10
83.283958
 20
-38.641448
 30
0.0
 11
83.263958
 21
-38.661448
 31
0.0
  0
LINE
  5
353
330
525
100
AcDbEntity
  8
_0
  6
Continuous
 62
     7
370
    13
100
AcDbLine
 10
83.283958
 20
-38.481437
 30
0.0
 11
83.263958
 21
-38.461437
 31
0.0
  0
LINE
  5
354
330
525
100
AcDbEntity
  8
_0
  6
Continuous
 62
     7
370
    13
100
AcDbLine
 10
83.028937
 20
-38.461437
 30
0.0
 11
83.008938
 21
-38.481437
 31
0.0
  0
LINE
  5
355
330
525
100
AcDbEntity
  8
_0
  6
Continuous
 62
     7
370
    13
100
AcDbLine
 10
83.028937
 20
-38.661448
 30
0.0
 11
83.008938
 21
-38.641448
 31
0.0
  0
LWPOLYLINE
  5
356
330
525
100
AcDbEntity
  8
_0
  6
Continuous
 62
     7
370
    53
100
AcDbPolyline
 90
       10
 70
   128
 43
0.0
 10
89.422958
 20
-38.925771
 10
89.512969
 20
-39.015781
 10
89.512969
 20
-39.038281
 10
89.430958
 20
-39.120292
 10
89.430953
 20
-39.120293
 42
-0.573574
 10
89.432658
 20
-39.156878
 10
89.432656
 20
-39.156875
 10
89.512969
 20
-39.237187
 10
89.512969
 20
-39.260802
 10
89.422958
 20
-39.350802
  0
LINE
  5
35A
330
525
100
AcDbEntity
  8
_0
  6
Continuous
 62
     7
370
    13
100
AcDbLine
 10
89.422958
 20
-39.365719
 30
0.0
 11
89.422958
 21
-38.919104
 31
0.0
  0
LINE
  5
35B
330
525
100
AcDbEntity
  8
_0
  6
Continuous
 62
     7
370
    13
100
AcDbLine
 10
89.422958
 20
-39.365719
 30
0.0
 11
89.147937
 21
-39.365719
 31
0.0
  0
LINE
  5
35C
330
525
100
AcDbEntity
  8
_0
  6
Continuous
 62
     7
370
    13
100
AcDbLine
 10
89.519125
 20
-38.702667
 30
0.0
 11
89.422958
 21
-38.702667
 31
0.0
  0
LINE
  5
35D
330
525
100
AcDbEntity
  8
_0
  6
Continuous
 62
     7
370
    13
100
AcDbLine
 10
89.422958
 20
-38.702667
 30
0.0
 11
89.422958
 21
-38.438135
 31
0.0
  0
LINE
  5
35E
330
525
100
AcDbEntity
  8
_0
  6
Continuous
 62
     7
370
    13
100
AcDbLine
 10
89.519125
 20
-38.438135
 30
0.0
 11
89.422958
 21
-38.438135
 31
0.0
  0
LINE
  5
35F
330
525
100
AcDbEntity
  8
_0
  6
Continuous
 62
     7
370
    13
100
AcDbLine
 10
89.519125
 20
-38.702667
 30
0.0
 11
89.519125
 21
-38.438135
 31
0.0
  0
LINE
  5
360
330
525
100
AcDbEntity
  8
DIM
  6
Continuous
 62
     7
370
    13
100
AcDbLine
 10
89.422573
 20
-38.297604
 30
0.0
 11
89.422573
 21
-38.420646
 31
0.0
  0
SOLID
  5
361
330
525
100
AcDbEntity
  8
DIM
  6
Continuous
 62
     7
370
    13
100
AcDbTrace
 10
89.372573
 20
-38.336417
 30
0.0
 11
89.372573
 21
-38.31975
 31
0.0
 12
89.422573
 22
-38.328083
 32
0.0
 13
89.422573
 23
-38.328083
 33
0.0
  0
LINE
  5
362
330
525
100
AcDbEntity
  8
DIM
  6
Continuous
 62
     7
370
    13
100
AcDbLine
 10
89.372573
 20
-38.328083
 30
0.0
 11
89.197552
 21
-38.328083
 31
0.0
  0
SOLID
  5
364
330
525
100
AcDbEntity
  8
DIM
  6
Continuous
 62
     7
370
    13
100
AcDbTrace
 10
89.197552
 20
-38.336417
 30
0.0
 11
89.197552
 21
-38.31975
 31
0.0
 12
89.147552
 22
-38.328083
 32
0.0
 13
89.147552
 23
-38.328083
 33
0.0
  0
LINE
  5
365
330
525
100
AcDbEntity
  8
DIM
  6
Continuous
 62
     7
370
    13
100
AcDbLine
 10
89.567656
 20
-38.328083
 30
0.0
 11
89.618073
 21
-38.328083
 31
0.0
  0
SOLID
  5
366
330
525
100
AcDbEntity
  8
DIM
  6
Continuous
 62
     7
370
    13
100
AcDbTrace
 10
89.567656
 20
-38.336417
 30
0.0
 11
89.567656
 21
-38.31975
 31
0.0
 12
89.517656
 22
-38.328083
 32
0.0
 13
89.517656
 23
-38.328083
 33
0.0
  0
LINE
  5
367
330
525
100
AcDbEntity
  8
DIM
  6
Continuous
 62
     7
370
    13
100
AcDbLine
 10
89.518021
 20
-38.297604
 30
0.0
 11
89.518021
 21
-38.420646
 31
0.0
  0
SOLID
  5
369
330
525
100
AcDbEntity
  8
TEXT
  6
Continuous
 62
     7
370
    13
100
AcDbTrace
 10
-88.981104
 20
-39.219073
 30
0.0
 11
-88.997135
 21
-39.21451
 31
0.0
 12
-88.975458
 22
-39.168698
 32
0.0
 13
-88.975458
 23
-39.168698
 33
0.0
210
0.0
220
0.0
230
-1.0
  0
LINE
  5
36A
330
525
100
AcDbEntity
  8
TEXT
  6
Continuous
 62
     7
370
    13
100
AcDbLine
 10
88.989125
 20
-39.216792
 30
0.0
 11
89.110156
 21
-39.642854
 31
0.0
  0
LINE
  5
36B
330
525
100
AcDbEntity
  8
TEXT
  6
Continuous
 62
     7
370
    13
100
AcDbLine
 10
89.110156
 20
-39.642854
 30
0.0
 11
89.180323
 21
-39.642854
 31
0.0
  0
SOLID
  5
36E
330
525
100
AcDbEntity
  8
TEXT
  6
Continuous
 62
     7
370
    13
100
AcDbTrace
 10
-88.814469
 20
-39.300698
 30
0.0
 11
-88.820333
 21
-39.285094
 31
0.0
 12
-88.770594
 22
-39.275312
 32
0.0
 13
-88.770594
 23
-39.275312
 33
0.0
210
0.0
220
0.0
230
-1.0
  0
LINE
  5
36F
330
525
100
AcDbEntity
  8
TEXT
  6
Continuous
 62
     7
370
    13
100
AcDbLine
 10
88.817406
 20
-39.292896
 30
0.0
 11
89.18874
 21
-39.432427
 31
0.0
  0
SOLID
  5
370
330
525
100
AcDbEntity
  8
TEXT
  6
Continuous
 62
     7
370
    13
100
AcDbTrace
 10
89.228313
 20
-39.299781
 30
0.0
 11
89.243969
 21
-39.3055
 31
0.0
 12
89.253292
 22
-39.255667
 32
0.0
 13
89.253292
 23
-39.255667
 33
0.0
  0
LINE
  5
371
330
525
100
AcDbEntity
  8
TEXT
  6
Continuous
 62
     7
370
    13
100
AcDbLine
 10
89.236135
 20
-39.302646
 30
0.0
 11
89.18874
 21
-39.432427
 31
0.0
  0
LINE
  5
372
330
525
100
AcDbEntity
  8
DIM
  6
Continuous
 62
     7
370
    13
100
AcDbLine
 10
88.126427
 20
-39.919187
 30
0.0
 11
88.669406
 21
-39.919187
 31
0.0
  0
LINE
  5
373
330
525
100
AcDbEntity
  8
DIM
  6
Continuous
 62
     7
370
    13
100
AcDbLine
 10
88.547885
 20
-38.919104
 30
0.0
 11
87.978698
 21
-38.919104
 31
0.0
  0
LINE
  5
374
330
525
100
AcDbEntity
  8
DIM
  6
Continuous
 62
     7
370
    13
100
AcDbLine
 10
88.822906
 20
-40.71925
 30
0.0
 11
87.978698
 21
-40.71925
 31
0.0
  0
LINE
  5
375
330
525
100
AcDbEntity
  8
DIM
  6
Continuous
 62
     7
370
    13
100
AcDbLine
 10
88.028698
 20
-38.969115
 30
0.0
 11
88.028698
 21
-40.66925
 31
0.0
  0
SOLID
  5
376
330
525
100
AcDbEntity
  8
DIM
  6
Continuous
 62
     7
370
    13
100
AcDbTrace
 10
88.037031
 20
-38.969115
 30
0.0
 11
88.020365
 21
-38.969115
 31
0.0
 12
88.028698
 22
-38.919104
 32
0.0
 13
88.028698
 23
-38.919104
 33
0.0
  0
SOLID
  5
377
330
525
100
AcDbEntity
  8
DIM
  6
Continuous
 62
     7
370
    13
100
AcDbTrace
 10
88.037031
 20
-40.66925
 30
0.0
 11
88.020365
 21
-40.66925
 31
0.0
 12
88.028698
 22
-40.71925
 32
0.0
 13
88.028698
 23
-40.71925
 33
0.0
  0
LINE
  5
379
330
525
100
AcDbEntity
  8
DIM
  6
Continuous
 62
     7
370
    13
100
AcDbLine
 10
88.545573
 20
-39.141656
 30
0.0
 11
88.278979
 21
-39.141656
 31
0.0
  0
LINE
  5
37A
330
525
100
AcDbEntity
  8
DIM
  6
Continuous
 62
     7
370
    13
100
AcDbLine
 10
88.328979
 20
-39.191656
 30
0.0
 11
88.328979
 21
-39.869187
 31
0.0
  0
SOLID
  5
37B
330
525
100
AcDbEntity
  8
DIM
  6
Continuous
 62
     7
370
    13
100
AcDbTrace
 10
88.337312
 20
-39.191656
 30
0.0
 11
88.320646
 21
-39.191656
 31
0.0
 12
88.328979
 22
-39.141656
 32
0.0
 13
88.328979
 23
-39.141656
 33
0.0
  0
SOLID
  5
37C
330
525
100
AcDbEntity
  8
DIM
  6
Continuous
 62
     7
370
    13
100
AcDbTrace
 10
88.337312
 20
-39.869187
 30
0.0
 11
88.320646
 21
-39.869187
 31
0.0
 12
88.328979
 22
-39.919187
 32
0.0
 13
88.328979
 23
-39.919187
 33
0.0
  0
SOLID
  5
380
330
525
100
AcDbEntity
  8
DIM
  6
Continuous
 62
     7
370
    13
100
AcDbTrace
 10
84.651792
 20
-39.861552
 30
0.0
 11
84.635115
 21
-39.861552
 31
0.0
 12
84.643458
 22
-39.911552
 32
0.0
 13
84.643458
 23
-39.911552
 33
0.0
  0
SOLID
  5
381
330
525
100
AcDbEntity
  8
DIM
  6
Continuous
 62
     7
370
    13
100
AcDbTrace
 10
84.651792
 20
-39.184021
 30
0.0
 11
84.635115
 21
-39.184021
 31
0.0
 12
84.643458
 22
-39.134021
 32
0.0
 13
84.643458
 23
-39.134021
 33
0.0
  0
LINE
  5
382
330
525
100
AcDbEntity
  8
DIM
  6
Continuous
 62
     7
370
    13
100
AcDbLine
 10
84.643458
 20
-39.184021
 30
0.0
 11
84.643458
 21
-39.861552
 31
0.0
  0
LINE
  5
383
330
525
100
AcDbEntity
  8
DIM
  6
Continuous
 62
     7
370
    13
100
AcDbLine
 10
84.860052
 20
-39.134021
 30
0.0
 11
84.593448
 21
-39.134021
 31
0.0
  0
SOLID
  5
384
330
525
100
AcDbEntity
  8
DIM
  6
Continuous
 62
     7
370
    13
100
AcDbTrace
 10
84.35151
 20
-38.961479
 30
0.0
 11
84.334844
 21
-38.961479
 31
0.0
 12
84.343177
 22
-38.911469
 32
0.0
 13
84.343177
 23
-38.911469
 33
0.0
  0
LINE
  5
385
330
525
100
AcDbEntity
  8
DIM
  6
Continuous
 62
     7
370
    13
100
AcDbLine
 10
84.862365
 20
-38.911469
 30
0.0
 11
84.293167
 21
-38.911469
 31
0.0
  0
LINE
  5
386
330
525
100
AcDbEntity
  8
DIM
  6
Continuous
 62
     7
370
    13
100
AcDbLine
 10
84.49075
 20
-38.964177
 30
0.0
 11
84.49075
 21
-39.861927
 31
0.0
  0
SOLID
  5
387
330
525
100
AcDbEntity
  8
DIM
  6
Continuous
 62
     7
370
    13
100
AcDbTrace
 10
84.499083
 20
-38.964177
 30
0.0
 11
84.482417
 21
-38.964177
 31
0.0
 12
84.49075
 22
-38.914177
 32
0.0
 13
84.49075
 23
-38.914177
 33
0.0
  0
SOLID
  5
388
330
525
100
AcDbEntity
  8
DIM
  6
Continuous
 62
     7
370
    13
100
AcDbTrace
 10
84.499083
 20
-39.861927
 30
0.0
 11
84.482417
 21
-39.861927
 31
0.0
 12
84.49075
 22
-39.911927
 32
0.0
 13
84.49075
 23
-39.911927
 33
0.0
  0
LINE
  5
38A
330
525
100
AcDbEntity
  8
_0
  6
Continuous
 62
     7
370
    13
100
AcDbLine
 10
85.022031
 20
-39.911552
 30
0.0
 11
85.187396
 21
-39.911552
 31
0.0
  0
LINE
  5
38B
330
525
100
AcDbEntity
  8
DIM
  6
Continuous
 62
     7
370
    13
100
AcDbLine
 10
84.440896
 20
-39.911552
 30
0.0
 11
84.983885
 21
-39.911552
 31
0.0
  0
LINE
  5
38D
330
525
100
AcDbEntity
  8
DIM
  6
Continuous
 62
     7
370
    13
100
AcDbLine
 10
84.343177
 20
-38.961479
 30
0.0
 11
84.343177
 21
-40.661615
 31
0.0
  0
SOLID
  5
38E
330
525
100
AcDbEntity
  8
DIM
  6
Continuous
 62
     7
370
    13
100
AcDbTrace
 10
84.35151
 20
-40.661615
 30
0.0
 11
84.334844
 21
-40.661615
 31
0.0
 12
84.343177
 22
-40.711615
 32
0.0
 13
84.343177
 23
-40.711615
 33
0.0
  0
LINE
  5
38F
330
525
100
AcDbEntity
  8
DIM
  6
Continuous
 62
     7
370
    13
100
AcDbLine
 10
85.137396
 20
-40.711615
 30
0.0
 11
84.293167
 21
-40.711615
 31
0.0
  0
LINE
  5
390
330
525
100
AcDbEntity
  8
DIM
  6
Continuous
 62
     7
370
    13
100
AcDbLine
 10
82.958927
 20
-40.711615
 30
0.0
 11
82.114708
 21
-40.711615
 31
0.0
  0
SOLID
  5
391
330
525
100
AcDbEntity
  8
DIM
  6
Continuous
 62
     7
370
    13
100
AcDbTrace
 10
82.173052
 20
-40.661615
 30
0.0
 11
82.156375
 21
-40.661615
 31
0.0
 12
82.164719
 22
-40.711615
 32
0.0
 13
82.164719
 23
-40.711615
 33
0.0
  0
LINE
  5
392
330
525
100
AcDbEntity
  8
DIM
  6
Continuous
 62
     7
370
    13
100
AcDbLine
 10
82.164719
 20
-38.961479
 30
0.0
 11
82.164719
 21
-40.411062
 31
0.0
  0
SOLID
  5
394
330
525
100
AcDbEntity
  8
DIM
  6
Continuous
 62
     7
370
    13
100
AcDbTrace
 10
82.320625
 20
-39.861927
 30
0.0
 11
82.303948
 21
-39.861927
 31
0.0
 12
82.312281
 22
-39.911927
 32
0.0
 13
82.312281
 23
-39.911927
 33
0.0
  0
SOLID
  5
395
330
525
100
AcDbEntity
  8
DIM
  6
Continuous
 62
     7
370
    13
100
AcDbTrace
 10
82.473323
 20
-39.861552
 30
0.0
 11
82.456656
 21
-39.861552
 31
0.0
 12
82.46499
 22
-39.911552
 32
0.0
 13
82.46499
 23
-39.911552
 33
0.0
  0
LINE
  5
396
330
525
100
AcDbEntity
  8
DIM
  6
Continuous
 62
     7
370
    13
100
AcDbLine
 10
82.262438
 20
-39.911552
 30
0.0
 11
82.805427
 21
-39.911552
 31
0.0
  0
LINE
  5
397
330
525
100
AcDbEntity
  8
_0
  6
Continuous
 62
     7
370
    13
100
AcDbLine
 10
82.843573
 20
-39.911552
 30
0.0
 11
83.008938
 21
-39.911552
 31
0.0
  0
SOLID
  5
399
330
525
100
AcDbEntity
  8
DIM
  6
Continuous
 62
     7
370
    13
100
AcDbTrace
 10
82.320625
 20
-38.964177
 30
0.0
 11
82.303948
 21
-38.964177
 31
0.0
 12
82.312281
 22
-38.914177
 32
0.0
 13
82.312281
 23
-38.914177
 33
0.0
  0
LINE
  5
39A
330
525
100
AcDbEntity
  8
DIM
  6
Continuous
 62
     7
370
    13
100
AcDbLine
 10
82.312281
 20
-38.964177
 30
0.0
 11
82.312281
 21
-39.861927
 31
0.0
  0
LINE
  5
39B
330
525
100
AcDbEntity
  8
DIM
  6
Continuous
 62
     7
370
    13
100
AcDbLine
 10
82.683906
 20
-38.911469
 30
0.0
 11
82.114708
 21
-38.911469
 31
0.0
  0
SOLID
  5
39C
330
525
100
AcDbEntity
  8
DIM
  6
Continuous
 62
     7
370
    13
100
AcDbTrace
 10
82.173052
 20
-38.961479
 30
0.0
 11
82.156375
 21
-38.961479
 31
0.0
 12
82.164719
 22
-38.911469
 32
0.0
 13
82.164719
 23
-38.911469
 33
0.0
  0
LINE
  5
39D
330
525
100
AcDbEntity
  8
DIM
  6
Continuous
 62
     7
370
    13
100
AcDbLine
 10
82.681594
 20
-39.134021
 30
0.0
 11
82.41499
 21
-39.134021
 31
0.0
  0
LINE
  5
39E
330
525
100
AcDbEntity
  8
DIM
  6
Continuous
 62
     7
370
    13
100
AcDbLine
 10
82.46499
 20
-39.184021
 30
0.0
 11
82.46499
 21
-39.861552
 31
0.0
  0
SOLID
  5
39F
330
525
100
AcDbEntity
  8
DIM
  6
Continuous
 62
     7
370
    13
100
AcDbTrace
 10
82.473323
 20
-39.184021
 30
0.0
 11
82.456656
 21
-39.184021
 31
0.0
 12
82.46499
 22
-39.134021
 32
0.0
 13
82.46499
 23
-39.134021
 33
0.0
  0
LINE
  5
3A1
330
525
100
AcDbEntity
  8
_0
  6
Continuous
 62
     7
370
    13
100
AcDbLine
 10
87.346396
 20
-38.733219
 30
0.0
 11
87.41049
 21
-38.733219
 31
0.0
  0
LINE
  5
3A2
330
525
100
AcDbEntity
  8
_0
  6
Continuous
 62
     7
370
    13
100
AcDbLine
 10
87.519656
 20
-38.733219
 30
0.0
 11
87.528656
 21
-38.738573
 31
0.0
  0
LINE
  5
3A3
330
525
100
AcDbEntity
  8
_0
  6
Continuous
 62
     7
370
    13
100
AcDbLine
 10
87.43975
 20
-38.733219
 30
0.0
 11
87.519656
 21
-38.733219
 31
0.0
  0
LINE
  5
3A4
330
525
100
AcDbEntity
  8
_0
  6
Continuous
 62
     7
370
    13
100
AcDbLine
 10
87.023719
 20
-38.642115
 30
0.0
 11
87.20126
 21
-38.642115
 31
0.0
  0
LINE
  5
3A5
330
525
100
AcDbEntity
  8
_0
  6
Continuous
 62
     7
370
    13
100
AcDbLine
 10
87.201875
 20
-38.642115
 30
0.0
 11
87.215375
 21
-38.649635
 31
0.0
  0
LINE
  5
3A6
330
525
100
AcDbEntity
  8
_0
  6
Continuous
 62
     7
370
    13
100
AcDbLine
 10
87.140625
 20
-38.649635
 30
0.0
 11
87.21476
 21
-38.649635
 31
0.0
  0
LINE
  5
3A7
330
525
100
AcDbEntity
  8
_0
  6
Continuous
 62
     7
370
    13
100
AcDbLine
 10
86.569021
 20
-38.513958
 30
0.0
 11
86.643156
 21
-38.513958
 31
0.0
  0
LINE
  5
3A8
330
525
100
AcDbEntity
  8
DIM
  6
Continuous
 62
     7
370
    13
100
AcDbLine
 10
86.630271
 20
-38.506437
 30
0.0
 11
86.643771
 21
-38.513958
 31
0.0
  0
LINE
  5
3A9
330
525
100
AcDbEntity
  8
_0
  6
Continuous
 62
     7
370
    13
100
AcDbLine
 10
86.452115
 20
-38.506437
 30
0.0
 11
86.629656
 21
-38.506437
 31
0.0
  0
LINE
  5
3AA
330
525
100
AcDbEntity
  8
_0
  6
Continuous
 62
     7
370
    13
100
AcDbLine
 10
86.868146
 20
-38.597542
 30
0.0
 11
86.948052
 21
-38.597542
 31
0.0
  0
LINE
  5
3AB
330
525
100
AcDbEntity
  8
TEXT
  6
Continuous
 62
     7
370
    13
100
AcDbLine
 10
86.948052
 20
-38.597542
 30
0.0
 11
86.957052
 21
-38.602896
 31
0.0
  0
LINE
  5
3AC
330
525
100
AcDbEntity
  8
_0
  6
Continuous
 62
     7
370
    13
100
AcDbLine
 10
86.774792
 20
-38.597542
 30
0.0
 11
86.838885
 21
-38.597542
 31
0.0
  0
LINE
  5
3AD
330
525
100
AcDbEntity
  8
_0
  6
Continuous
 62
     7
370
    13
100
AcDbLine
 10
86.452115
 20
-38.506437
 30
0.0
 11
86.452115
 21
-40.329479
 31
0.0
  0
LINE
  5
3AE
330
525
100
AcDbEntity
  8
_0
  6
Continuous
 62
     7
370
    13
100
AcDbLine
 10
86.552021
 20
-38.517385
 30
0.0
 11
86.552021
 21
-40.374594
 31
0.0
  0
LINE
  5
3AF
330
525
100
AcDbEntity
  8
_0
  6
Continuous
 62
     7
370
    13
100
AcDbLine
 10
86.957052
 20
-38.602896
 30
0.0
 11
86.957052
 21
-40.463823
 31
0.0
  0
LINE
  5
3B0
330
525
100
AcDbEntity
  8
_0
  6
Continuous
 62
     7
370
    13
100
AcDbLine
 10
86.788292
 20
-38.602896
 30
0.0
 11
86.788292
 21
-40.508688
 31
0.0
  0
LINE
  5
3B1
330
525
100
AcDbEntity
  8
_0
  6
Continuous
 62
     7
370
    13
100
AcDbLine
 10
86.774792
 20
-38.599646
 30
0.0
 11
86.774792
 21
-40.526146
 31
0.0
  0
LINE
  5
3B2
330
525
100
AcDbEntity
  8
_0
  6
Continuous
 62
     7
370
    13
100
AcDbLine
 10
86.465615
 20
-38.513958
 30
0.0
 11
86.465615
 21
-40.342365
 31
0.0
  0
LINE
  5
3B3
330
525
100
AcDbEntity
  8
_0
  6
Continuous
 62
     7
370
    13
100
AcDbLine
 10
86.788292
 20
-38.602896
 30
0.0
 11
86.957052
 21
-38.602896
 31
0.0
  0
LINE
  5
3B4
330
525
100
AcDbEntity
  8
DIM
  6
Continuous
 62
     7
370
    13
100
AcDbLine
 10
86.643156
 20
-38.513958
 30
0.0
 11
86.643156
 21
-38.534667
 31
0.0
  0
LINE
  5
3B5
330
525
100
AcDbEntity
  8
_0
  6
Continuous
 62
     7
370
    13
100
AcDbLine
 10
86.465615
 20
-38.513958
 30
0.0
 11
86.53976
 21
-38.513958
 31
0.0
  0
LINE
  5
3B6
330
525
100
AcDbEntity
  8
_0
  6
Continuous
 62
     7
370
    13
100
AcDbLine
 10
86.452115
 20
-38.506437
 30
0.0
 11
86.465615
 21
-38.513958
 31
0.0
  0
LINE
  5
3B7
330
525
100
AcDbEntity
  8
_0
  6
Continuous
 62
     7
370
    13
100
AcDbLine
 10
86.868146
 20
-38.597542
 30
0.0
 11
86.569021
 21
-38.513958
 31
0.0
  0
LINE
  5
3B8
330
525
100
AcDbEntity
  8
_0
  6
Continuous
 62
     7
370
    13
100
AcDbLine
 10
86.838885
 20
-38.597542
 30
0.0
 11
86.53976
 21
-38.513958
 31
0.0
  0
LINE
  5
3B9
330
525
100
AcDbEntity
  8
_0
  6
Continuous
 62
     7
370
    13
100
AcDbLine
 10
86.774792
 20
-38.597542
 30
0.0
 11
86.788292
 21
-38.602896
 31
0.0
  0
LINE
  5
3BA
330
525
100
AcDbEntity
  8
_0
  6
Continuous
 62
     7
370
    13
100
AcDbLine
 10
86.774792
 20
-38.597542
 30
0.0
 11
86.774792
 21
-40.510937
 31
0.0
  0
LINE
  5
3BB
330
525
100
AcDbEntity
  8
_0
  6
Continuous
 62
     7
370
    13
100
AcDbLine
 10
87.178146
 20
-38.720833
 30
0.0
 11
87.050021
 21
-38.697125
 31
0.0
  0
LINE
  5
3BC
330
525
100
AcDbEntity
  8
_0
  6
Continuous
 62
     7
370
    13
100
AcDbLine
 10
87.023719
 20
-38.69226
 30
0.0
 11
86.801083
 21
-38.651073
 31
0.0
  0
LINE
  5
3BD
330
525
100
AcDbEntity
  8
_0
  6
Continuous
 62
     7
370
    13
100
AcDbLine
 10
86.774792
 20
-38.646208
 30
0.0
 11
86.708948
 21
-38.634021
 31
0.0
  0
LINE
  5
3BE
330
525
100
AcDbEntity
  8
DIM
  6
Continuous
 62
     7
370
    13
100
AcDbLine
 10
86.871406
 20
-39.048281
 30
0.0
 11
86.591125
 21
-39.048281
 31
0.0
  0
LINE
  5
3BF
330
525
100
AcDbEntity
  8
_0
  6
Continuous
 62
     7
370
    13
100
AcDbLine
 10
86.767677
 20
-38.654146
 30
0.0
 11
86.591125
 21
-38.654146
 31
0.0
  0
LINE
  5
3C0
330
525
100
AcDbEntity
  8
DIM
  6
Continuous
 62
     7
370
    13
100
AcDbLine
 10
86.641135
 20
-38.998281
 30
0.0
 11
86.641135
 21
-38.704146
 31
0.0
  0
SOLID
  5
3C1
330
525
100
AcDbEntity
  8
DIM
  6
Continuous
 62
     7
370
    13
100
AcDbTrace
 10
86.649469
 20
-38.998281
 30
0.0
 11
86.632792
 21
-38.998281
 31
0.0
 12
86.641135
 22
-39.048281
 32
0.0
 13
86.641135
 23
-39.048281
 33
0.0
  0
SOLID
  5
3C2
330
525
100
AcDbEntity
  8
DIM
  6
Continuous
 62
     7
370
    13
100
AcDbTrace
 10
86.649469
 20
-38.704146
 30
0.0
 11
86.632792
 21
-38.704146
 31
0.0
 12
86.641135
 22
-38.654146
 32
0.0
 13
86.641135
 23
-38.654146
 33
0.0
  0
LINE
  5
3C4
330
525
100
AcDbEntity
  8
DIM
  6
Continuous
 62
     7
370
    13
100
AcDbLine
 10
86.767677
 20
-38.654146
 30
0.0
 11
86.591125
 21
-38.654146
 31
0.0
  0
LINE
  5
3C5
330
525
100
AcDbEntity
  8
DIM
  6
Continuous
 62
     7
370
    13
100
AcDbLine
 10
86.738292
 20
-38.602896
 30
0.0
 11
86.591125
 21
-38.602896
 31
0.0
  0
LINE
  5
3C6
330
525
100
AcDbEntity
  8
DIM
  6
Continuous
 62
     7
370
    13
100
AcDbLine
 10
86.641135
 20
-38.552885
 30
0.0
 11
86.641135
 21
-38.502885
 31
0.0
  0
LINE
  5
3C7
330
525
100
AcDbEntity
  8
DIM
  6
Continuous
 62
     7
370
    13
100
AcDbLine
 10
86.641135
 20
-38.704146
 30
0.0
 11
86.641135
 21
-38.754146
 31
0.0
  0
SOLID
  5
3C8
330
525
100
AcDbEntity
  8
DIM
  6
Continuous
 62
     7
370
    13
100
AcDbTrace
 10
86.649469
 20
-38.552885
 30
0.0
 11
86.632792
 21
-38.552885
 31
0.0
 12
86.641135
 22
-38.602896
 32
0.0
 13
86.641135
 23
-38.602896
 33
0.0
  0
SOLID
  5
3C9
330
525
100
AcDbEntity
  8
DIM
  6
Continuous
 62
     7
370
    13
100
AcDbTrace
 10
86.649469
 20
-38.704146
 30
0.0
 11
86.632792
 21
-38.704146
 31
0.0
 12
86.641135
 22
-38.654146
 32
0.0
 13
86.641135
 23
-38.654146
 33
0.0
  0
LINE
  5
3CB
330
525
100
AcDbEntity
  8
DIM
  6
Continuous
 62
     7
370
    13
100
AcDbLine
 10
87.569656
 20
-38.733219
 30
0.0
 11
87.71874
 21
-38.733219
 31
0.0
  0
LINE
  5
3CC
330
525
100
AcDbEntity
  8
DIM
  6
Continuous
 62
     7
370
    13
100
AcDbLine
 10
87.545604
 20
-39.002938
 30
0.0
 11
87.71874
 21
-39.002938
 31
0.0
  0
LINE
  5
3CD
330
525
100
AcDbEntity
  8
DIM
  6
Continuous
 62
     7
370
    13
100
AcDbLine
 10
87.66874
 20
-38.783229
 30
0.0
 11
87.66874
 21
-38.952937
 31
0.0
  0
SOLID
  5
3CE
330
525
100
AcDbEntity
  8
DIM
  6
Continuous
 62
     7
370
    13
100
AcDbTrace
 10
87.677073
 20
-38.783229
 30
0.0
 11
87.660396
 21
-38.783229
 31
0.0
 12
87.66874
 22
-38.733219
 32
0.0
 13
87.66874
 23
-38.733219
 33
0.0
  0
SOLID
  5
3CF
330
525
100
AcDbEntity
  8
DIM
  6
Continuous
 62
     7
370
    13
100
AcDbTrace
 10
87.677073
 20
-38.952937
 30
0.0
 11
87.660396
 21
-38.952937
 31
0.0
 12
87.66874
 22
-39.002938
 32
0.0
 13
87.66874
 23
-39.002938
 33
0.0
  0
SOLID
  5
3D1
330
525
100
AcDbEntity
  8
TEXT
  6
Continuous
 62
     7
370
    13
100
AcDbTrace
 10
-86.996437
 20
-38.627594
 30
0.0
 11
-86.979781
 21
-38.62699
 31
0.0
 12
-86.986292
 22
-38.67726
 32
0.0
 13
-86.986292
 23
-38.67726
 33
0.0
210
0.0
220
0.0
230
-1.0
  0
LINE
  5
3D2
330
525
100
AcDbEntity
  8
TEXT
  6
Continuous
 62
     7
370
    13
100
AcDbLine
 10
86.988115
 20
-38.627292
 30
0.0
 11
86.998729
 21
-38.335313
 31
0.0
  0
LINE
  5
3D3
330
525
100
AcDbEntity
  8
TEXT
  6
Continuous
 62
     7
370
    13
100
AcDbLine
 10
86.998729
 20
-38.335313
 30
0.0
 11
86.544917
 21
-38.335313
 31
0.0
  0
SPLINE
  5
3D5
330
525
100
AcDbEntity
  8
_0
  6
Continuous
 62
     7
370
     0
100
AcDbSpline
210
0.0
220
0.0
230
1.0
 70
     8
 71
     3
 72
    13
 73
     9
 74
     0
 42
0.0000000001
 43
0.00000001
 40
0.0
 40
0.0
 40
0.0
 40
0.0
 40
0.1666666666666667
 40
0.3333333333333333
 40
0.5
 40
0.6666666666666666
 40
0.8333333333333333
 40
1.0
 40
1.0
 40
1.0
 40
1.0
 10
86.95705208333332
 20
-40.46382291666666
 30
0.0
 10
86.94726041666667
 20
-40.46648958333333
 30
0.0
 10
86.9236875
 20
-40.48416666666667
 30
0.0
 10
86.92172916666667
 20
-40.46453125
 30
0.0
 10
86.88440625
 20
-40.47435416666666
 30
0.0
 10
86.86280208333334
 20
-40.49202083333333
 30
0.0
 10
86.85297916666666
 20
-40.50772916666666
 30
0.0
 10
86.7940625
 20
-40.50772916666666
 30
0.0
 10
86.77479166666666
 20
-40.5109375
 30
0.0
  0
SPLINE
  5
3D7
330
525
100
AcDbEntity
  8
_0
  6
Continuous
 62
     7
370
     0
100
AcDbSpline
210
0.0
220
0.0
230
1.0
 70
     8
 71
     3
 72
    16
 73
    12
 74
     0
 42
0.0000000001
 43
0.00000001
 40
0.0
 40
0.0
 40
0.0
 40
0.0
 40
0.1111111111111111
 40
0.2222222222222222
 40
0.3333333333333333
 40
0.4444444444444444
 40
0.5555555555555556
 40
0.6666666666666667
 40
0.7777777777777779
 40
0.8888888888888891
 40
1.0
 40
1.0
 40
1.0
 40
1.0
 10
86.77479166666666
 20
-40.47314583333333
 30
0.0
 10
86.75478125
 20
-40.45078125
 30
0.0
 10
86.70176041666666
 20
-40.45078125
 30
0.0
 10
86.67622916666666
 20
-40.43114583333333
 30
0.0
 10
86.63890624999999
 20
-40.39580208333333
 30
0.0
 10
86.599625
 20
-40.4291875
 30
0.0
 10
86.58391666666667
 20
-40.40169791666666
 30
0.0
 10
86.54463541666667
 20
-40.3683125
 30
0.0
 10
86.51320833333332
 20
-40.3820625
 30
0.0
 10
86.48767708333332
 20
-40.3683125
 30
0.0
 10
86.45429166666666
 20
-40.32904166666667
 30
0.0
 10
86.45211458333333
 20
-40.32947916666667
 30
0.0
  0
CIRCLE
  5
3DB
330
525
100
AcDbEntity
  8
_0
  6
Continuous
 62
     7
370
    13
100
AcDbCircle
 10
86.516089
 20
-38.930779
 30
0.0
 40
0.01687635
  0
LINE
  5
3DC
330
525
100
AcDbEntity
  8
_0
  6
Continuous
 62
     7
370
    13
100
AcDbLine
 10
85.345219
 20
-38.534854
 30
0.0
 11
85.345219
 21
-38.484854
 31
0.0
  0
LINE
  5
3DD
330
525
100
AcDbEntity
  8
_0
  6
Continuous
 62
     7
370
    13
100
AcDbLine
 10
85.345219
 20
-38.534854
 30
0.0
 11
85.365219
 21
-38.534854
 31
0.0
  0
LINE
  5
3DE
330
525
100
AcDbEntity
  8
_0
  6
Continuous
 62
     7
370
    13
100
AcDbLine
 10
85.345219
 20
-38.484854
 30
0.0
 11
85.365219
 21
-38.484854
 31
0.0
  0
LINE
  5
3DF
330
525
100
AcDbEntity
  8
_0
  6
Continuous
 62
     7
370
    13
100
AcDbLine
 10
85.365219
 20
-38.544854
 30
0.0
 11
85.365219
 21
-38.474854
 31
0.0
  0
LINE
  5
3E0
330
525
100
AcDbEntity
  8
_0
  6
Continuous
 62
     7
370
    13
100
AcDbLine
 10
85.365219
 20
-38.544854
 30
0.0
 11
85.377406
 21
-38.544854
 31
0.0
  0
LINE
  5
3E1
330
525
100
AcDbEntity
  8
_0
  6
Continuous
 62
     7
370
    13
100
AcDbLine
 10
85.365219
 20
-38.474854
 30
0.0
 11
85.377406
 21
-38.474854
 31
0.0
  0
LINE
  5
3E2
330
525
100
AcDbEntity
  8
_0
  6
Continuous
 62
     7
370
    13
100
AcDbLine
 10
85.365219
 20
-38.5795
 30
0.0
 11
85.377406
 21
-38.5795
 31
0.0
  0
LINE
  5
3E3
330
525
100
AcDbEntity
  8
_0
  6
Continuous
 62
     7
370
    13
100
AcDbLine
 10
85.365219
 20
-38.64951
 30
0.0
 11
85.377406
 21
-38.64951
 31
0.0
  0
LINE
  5
3E4
330
525
100
AcDbEntity
  8
_0
  6
Continuous
 62
     7
370
    13
100
AcDbLine
 10
85.365219
 20
-38.64951
 30
0.0
 11
85.365219
 21
-38.5795
 31
0.0
  0
LINE
  5
3E5
330
525
100
AcDbEntity
  8
_0
  6
Continuous
 62
     7
370
    13
100
AcDbLine
 10
85.345219
 20
-38.5895
 30
0.0
 11
85.365219
 21
-38.5895
 31
0.0
  0
LINE
  5
3E6
330
525
100
AcDbEntity
  8
_0
  6
Continuous
 62
     7
370
    13
100
AcDbLine
 10
85.345219
 20
-38.63951
 30
0.0
 11
85.365219
 21
-38.63951
 31
0.0
  0
LINE
  5
3E7
330
525
100
AcDbEntity
  8
_0
  6
Continuous
 62
     7
370
    13
100
AcDbLine
 10
85.345219
 20
-38.63951
 30
0.0
 11
85.345219
 21
-38.5895
 31
0.0
  0
LINE
  5
3E8
330
525
100
AcDbEntity
  8
_0
  6
Continuous
 62
     7
370
    13
100
AcDbLine
 10
85.424896
 20
-38.64951
 30
0.0
 11
85.424896
 21
-38.5795
 31
0.0
  0
LINE
  5
3E9
330
525
100
AcDbEntity
  8
_0
  6
Continuous
 62
     7
370
    13
100
AcDbLine
 10
85.424896
 20
-38.544854
 30
0.0
 11
85.424896
 21
-38.474854
 31
0.0
  0
LINE
  5
3EA
330
525
100
AcDbEntity
  8
_0
  6
Continuous
 62
     7
370
    13
100
AcDbLine
 10
85.397417
 20
-38.474854
 30
0.0
 11
85.424896
 21
-38.474854
 31
0.0
  0
LINE
  5
3EB
330
525
100
AcDbEntity
  8
_0
  6
Continuous
 62
     7
370
    13
100
AcDbLine
 10
85.397417
 20
-38.544854
 30
0.0
 11
85.424896
 21
-38.544854
 31
0.0
  0
LINE
  5
3EC
330
525
100
AcDbEntity
  8
_0
  6
Continuous
 62
     7
370
    13
100
AcDbLine
 10
85.397417
 20
-38.5795
 30
0.0
 11
85.424896
 21
-38.5795
 31
0.0
  0
LINE
  5
3ED
330
525
100
AcDbEntity
  8
_0
  6
Continuous
 62
     7
370
    13
100
AcDbLine
 10
85.397417
 20
-38.64951
 30
0.0
 11
85.424896
 21
-38.64951
 31
0.0
  0
LINE
  5
3EE
330
525
100
AcDbEntity
  8
_0
  6
Continuous
 62
     7
370
    13
100
AcDbLine
 10
85.397417
 20
-38.518313
 30
0.0
 11
85.424896
 21
-38.518313
 31
0.0
  0
LINE
  5
3EF
330
525
100
AcDbEntity
  8
_0
  6
Continuous
 62
     7
370
    13
100
AcDbLine
 10
85.397417
 20
-38.479542
 30
0.0
 11
85.424896
 21
-38.479542
 31
0.0
  0
LINE
  5
3F0
330
525
100
AcDbEntity
  8
_0
  6
Continuous
 62
     7
370
    13
100
AcDbLine
 10
85.397417
 20
-38.58574
 30
0.0
 11
85.424896
 21
-38.58574
 31
0.0
  0
LINE
  5
3F1
330
525
100
AcDbEntity
  8
_0
  6
Continuous
 62
     7
370
    13
100
AcDbLine
 10
85.397417
 20
-38.630771
 30
0.0
 11
85.424896
 21
-38.630771
 31
0.0
  0
LINE
  5
3F2
330
525
100
AcDbEntity
  8
_0
  6
Continuous
 62
     7
370
    13
100
AcDbLine
 10
85.652427
 20
-38.566156
 30
0.0
 11
85.397417
 21
-38.566156
 31
0.0
  0
LINE
  5
3F3
330
525
100
AcDbEntity
  8
_0
  6
Continuous
 62
     7
370
    13
100
AcDbLine
 10
85.652427
 20
-38.556156
 30
0.0
 11
85.397417
 21
-38.556156
 31
0.0
  0
LINE
  5
3F4
330
525
100
AcDbEntity
  8
_0
  6
Continuous
 62
     7
370
    13
100
AcDbLine
 10
85.652427
 20
-38.556156
 30
0.0
 11
85.652427
 21
-38.461437
 31
0.0
  0
LINE
  5
3F5
330
525
100
AcDbEntity
  8
_0
  6
Continuous
 62
     7
370
    13
100
AcDbLine
 10
85.758594
 20
-38.4305
 30
0.0
 11
85.662437
 21
-38.4305
 31
0.0
  0
LINE
  5
3F6
330
525
100
AcDbEntity
  8
_0
  6
Continuous
 62
     7
370
    13
100
AcDbLine
 10
85.758594
 20
-38.695031
 30
0.0
 11
85.662437
 21
-38.695031
 31
0.0
  0
LINE
  5
3F7
330
525
100
AcDbEntity
  8
_0
  6
Continuous
 62
     7
370
    13
100
AcDbLine
 10
85.662437
 20
-38.695031
 30
0.0
 11
85.662437
 21
-38.4305
 31
0.0
  0
LINE
  5
3F8
330
525
100
AcDbEntity
  8
_0
  6
Continuous
 62
     7
370
    13
100
AcDbLine
 10
85.758594
 20
-38.695031
 30
0.0
 11
85.758594
 21
-38.4305
 31
0.0
  0
LINE
  5
3F9
330
525
100
AcDbEntity
  8
_0
  6
Continuous
 62
     7
370
    13
100
AcDbLine
 10
85.662437
 20
-38.461437
 30
0.0
 11
85.652427
 21
-38.461437
 31
0.0
  0
LINE
  5
3FA
330
525
100
AcDbEntity
  8
_0
  6
Continuous
 62
     7
370
    13
100
AcDbLine
 10
85.662437
 20
-38.661448
 30
0.0
 11
85.652427
 21
-38.661448
 31
0.0
  0
LINE
  5
3FB
330
525
100
AcDbEntity
  8
_0
  6
Continuous
 62
     7
370
    13
100
AcDbLine
 10
85.652427
 20
-38.661448
 30
0.0
 11
85.652427
 21
-38.566156
 31
0.0
  0
SOLID
  5
3FC
330
525
100
AcDbEntity
  8
DIM
  6
Continuous
 62
     7
370
    13
100
AcDbTrace
 10
85.437042
 20
-38.337937
 30
0.0
 11
85.437042
 21
-38.32126
 31
0.0
 12
85.387042
 22
-38.329594
 32
0.0
 13
85.387042
 23
-38.329594
 33
0.0
  0
LINE
  5
3FD
330
525
100
AcDbEntity
  8
DIM
  6
Continuous
 62
     7
370
    13
100
AcDbLine
 10
85.437042
 20
-38.329594
 30
0.0
 11
85.612062
 21
-38.329594
 31
0.0
  0
SOLID
  5
3FE
330
525
100
AcDbEntity
  8
DIM
  6
Continuous
 62
     7
370
    13
100
AcDbTrace
 10
85.612062
 20
-38.337937
 30
0.0
 11
85.612062
 21
-38.32126
 31
0.0
 12
85.662062
 22
-38.329594
 32
0.0
 13
85.662062
 23
-38.329594
 33
0.0
  0
LINE
  5
3FF
330
525
100
AcDbEntity
  8
DIM
  6
Continuous
 62
     7
370
    13
100
AcDbLine
 10
85.662062
 20
-38.295198
 30
0.0
 11
85.662062
 21
-38.418229
 31
0.0
  0
SOLID
  5
400
330
525
100
AcDbEntity
  8
DIM
  6
Continuous
 62
     7
370
    13
100
AcDbTrace
 10
85.807125
 20
-38.337937
 30
0.0
 11
85.807125
 21
-38.32126
 31
0.0
 12
85.757125
 22
-38.329594
 32
0.0
 13
85.757125
 23
-38.329594
 33
0.0
  0
LINE
  5
401
330
525
100
AcDbEntity
  8
DIM
  6
Continuous
 62
     7
370
    13
100
AcDbLine
 10
85.807125
 20
-38.329594
 30
0.0
 11
85.857542
 21
-38.329594
 31
0.0
  0
LINE
  5
402
330
525
100
AcDbEntity
  8
DIM
  6
Continuous
 62
     7
370
    13
100
AcDbLine
 10
85.75749
 20
-38.295198
 30
0.0
 11
85.75749
 21
-38.418229
 31
0.0
  0
LINE
  5
403
330
525
100
AcDbEntity
  8
_0
  6
Continuous
 62
     7
370
    13
100
AcDbLine
 10
85.397417
 20
-38.556156
 30
0.0
 11
85.397417
 21
-38.461437
 31
0.0
  0
LINE
  5
404
330
525
100
AcDbEntity
  8
_0
  6
Continuous
 62
     7
370
    13
100
AcDbLine
 10
85.397417
 20
-38.661448
 30
0.0
 11
85.397417
 21
-38.566156
 31
0.0
  0
LINE
  5
408
330
525
100
AcDbEntity
  8
_0
  6
Continuous
 62
     7
370
    13
100
AcDbLine
 10
85.662437
 20
-39.358083
 30
0.0
 11
85.387406
 21
-39.358083
 31
0.0
  0
LINE
  5
409
330
525
100
AcDbEntity
  8
_0
  6
Continuous
 62
     7
370
    13
100
AcDbLine
 10
85.662437
 20
-39.358083
 30
0.0
 11
85.662437
 21
-38.911469
 31
0.0
  0
LWPOLYLINE
  5
40A
330
525
100
AcDbEntity
  8
_0
  6
Continuous
 62
     7
370
    53
100
AcDbPolyline
 90
       10
 70
   128
 43
0.0
 10
85.662437
 20
-38.918135
 10
85.752437
 20
-39.008135
 10
85.752437
 20
-39.030635
 10
85.670427
 20
-39.112656
 10
85.670424
 20
-39.112657
 42
-0.573574
 10
85.672129
 20
-39.149241
 10
85.672125
 20
-39.14924
 10
85.752437
 20
-39.229552
 10
85.752437
 20
-39.253156
 10
85.662437
 20
-39.343167
  0
LINE
  5
40E
330
525
100
AcDbEntity
  8
_0
  6
Continuous
 62
     7
370
    13
100
AcDbLine
 10
85.397417
 20
-39.358083
 30
0.0
 11
85.397417
 21
-38.911469
 31
0.0
  0
LINE
  5
40F
330
525
100
AcDbEntity
  8
_0
  6
Continuous
 62
     7
370
    13
100
AcDbLine
 10
85.652427
 20
-39.358083
 30
0.0
 11
85.652427
 21
-38.911469
 31
0.0
  0
LINE
  5
410
330
525
100
AcDbEntity
  8
_0
  6
Continuous
 62
     7
370
    13
100
AcDbLine
 10
85.397417
 20
-39.298542
 30
0.0
 11
85.424896
 21
-39.298542
 31
0.0
  0
LINE
  5
411
330
525
100
AcDbEntity
  8
_0
  6
Continuous
 62
     7
370
    13
100
AcDbLine
 10
85.397417
 20
-39.253521
 30
0.0
 11
85.424896
 21
-39.253521
 31
0.0
  0
LINE
  5
412
330
525
100
AcDbEntity
  8
_0
  6
Continuous
 62
     7
370
    13
100
AcDbLine
 10
85.397417
 20
-38.961042
 30
0.0
 11
85.424896
 21
-38.961042
 31
0.0
  0
LINE
  5
413
330
525
100
AcDbEntity
  8
_0
  6
Continuous
 62
     7
370
    13
100
AcDbLine
 10
85.397417
 20
-38.999823
 30
0.0
 11
85.424896
 21
-38.999823
 31
0.0
  0
LINE
  5
414
330
525
100
AcDbEntity
  8
_0
  6
Continuous
 62
     7
370
    13
100
AcDbLine
 10
85.397417
 20
-39.317281
 30
0.0
 11
85.424896
 21
-39.317281
 31
0.0
  0
LINE
  5
415
330
525
100
AcDbEntity
  8
_0
  6
Continuous
 62
     7
370
    13
100
AcDbLine
 10
85.397417
 20
-39.247281
 30
0.0
 11
85.424896
 21
-39.247281
 31
0.0
  0
LINE
  5
416
330
525
100
AcDbEntity
  8
_0
  6
Continuous
 62
     7
370
    13
100
AcDbLine
 10
85.397417
 20
-39.026365
 30
0.0
 11
85.424896
 21
-39.026365
 31
0.0
  0
LINE
  5
417
330
525
100
AcDbEntity
  8
_0
  6
Continuous
 62
     7
370
    13
100
AcDbLine
 10
85.397417
 20
-38.956365
 30
0.0
 11
85.424896
 21
-38.956365
 31
0.0
  0
LINE
  5
418
330
525
100
AcDbEntity
  8
_0
  6
Continuous
 62
     7
370
    13
100
AcDbLine
 10
85.424896
 20
-39.026365
 30
0.0
 11
85.424896
 21
-38.956365
 31
0.0
  0
LINE
  5
419
330
525
100
AcDbEntity
  8
_0
  6
Continuous
 62
     7
370
    13
100
AcDbLine
 10
85.424896
 20
-39.317281
 30
0.0
 11
85.424896
 21
-39.247281
 31
0.0
  0
LINE
  5
41A
330
525
100
AcDbEntity
  8
_0
  6
Continuous
 62
     7
370
    13
100
AcDbLine
 10
85.345219
 20
-39.307281
 30
0.0
 11
85.345219
 21
-39.257281
 31
0.0
  0
LINE
  5
41B
330
525
100
AcDbEntity
  8
_0
  6
Continuous
 62
     7
370
    13
100
AcDbLine
 10
85.345219
 20
-39.307281
 30
0.0
 11
85.365219
 21
-39.307281
 31
0.0
  0
LINE
  5
41C
330
525
100
AcDbEntity
  8
_0
  6
Continuous
 62
     7
370
    13
100
AcDbLine
 10
85.345219
 20
-39.257281
 30
0.0
 11
85.365219
 21
-39.257281
 31
0.0
  0
LINE
  5
41D
330
525
100
AcDbEntity
  8
_0
  6
Continuous
 62
     7
370
    13
100
AcDbLine
 10
85.365219
 20
-39.317281
 30
0.0
 11
85.365219
 21
-39.247281
 31
0.0
  0
LINE
  5
41E
330
525
100
AcDbEntity
  8
_0
  6
Continuous
 62
     7
370
    13
100
AcDbLine
 10
85.365219
 20
-39.317281
 30
0.0
 11
85.377406
 21
-39.317281
 31
0.0
  0
LINE
  5
41F
330
525
100
AcDbEntity
  8
_0
  6
Continuous
 62
     7
370
    13
100
AcDbLine
 10
85.365219
 20
-39.247281
 30
0.0
 11
85.377406
 21
-39.247281
 31
0.0
  0
LINE
  5
420
330
525
100
AcDbEntity
  8
_0
  6
Continuous
 62
     7
370
    13
100
AcDbLine
 10
85.365219
 20
-38.956365
 30
0.0
 11
85.377406
 21
-38.956365
 31
0.0
  0
LINE
  5
421
330
525
100
AcDbEntity
  8
_0
  6
Continuous
 62
     7
370
    13
100
AcDbLine
 10
85.365219
 20
-39.026365
 30
0.0
 11
85.377406
 21
-39.026365
 31
0.0
  0
LINE
  5
422
330
525
100
AcDbEntity
  8
_0
  6
Continuous
 62
     7
370
    13
100
AcDbLine
 10
85.365219
 20
-39.026365
 30
0.0
 11
85.365219
 21
-38.956365
 31
0.0
  0
LINE
  5
423
330
525
100
AcDbEntity
  8
_0
  6
Continuous
 62
     7
370
    13
100
AcDbLine
 10
85.345219
 20
-38.966365
 30
0.0
 11
85.365219
 21
-38.966365
 31
0.0
  0
LINE
  5
424
330
525
100
AcDbEntity
  8
_0
  6
Continuous
 62
     7
370
    13
100
AcDbLine
 10
85.345219
 20
-39.016365
 30
0.0
 11
85.365219
 21
-39.016365
 31
0.0
  0
LINE
  5
425
330
525
100
AcDbEntity
  8
_0
  6
Continuous
 62
     7
370
    13
100
AcDbLine
 10
85.345219
 20
-39.016365
 30
0.0
 11
85.345219
 21
-38.966365
 31
0.0
  0
LINE
  5
426
330
525
100
AcDbEntity
  8
_0
  6
Continuous
 62
     7
370
    13
100
AcDbLine
 10
85.640271
 20
-39.097594
 30
0.0
 11
85.652458
 21
-39.097594
 31
0.0
  0
LINE
  5
427
330
525
100
AcDbEntity
  8
_0
  6
Continuous
 62
     7
370
    13
100
AcDbLine
 10
85.640271
 20
-39.167604
 30
0.0
 11
85.652458
 21
-39.167604
 31
0.0
  0
LINE
  5
428
330
525
100
AcDbEntity
  8
_0
  6
Continuous
 62
     7
370
    13
100
AcDbLine
 10
85.640271
 20
-39.167604
 30
0.0
 11
85.640271
 21
-39.097594
 31
0.0
  0
LINE
  5
429
330
525
100
AcDbEntity
  8
_0
  6
Continuous
 62
     7
370
    13
100
AcDbLine
 10
85.620271
 20
-39.107604
 30
0.0
 11
85.640271
 21
-39.107604
 31
0.0
  0
LINE
  5
42A
330
525
100
AcDbEntity
  8
_0
  6
Continuous
 62
     7
370
    13
100
AcDbLine
 10
85.620271
 20
-39.157604
 30
0.0
 11
85.640271
 21
-39.157604
 31
0.0
  0
LINE
  5
42B
330
525
100
AcDbEntity
  8
_0
  6
Continuous
 62
     7
370
    13
100
AcDbLine
 10
85.620271
 20
-39.157604
 30
0.0
 11
85.620271
 21
-39.107604
 31
0.0
  0
LINE
  5
42C
330
525
100
AcDbEntity
  8
DIM
  6
Continuous
 62
     7
370
    13
100
AcDbLine
 10
85.712437
 20
-39.358083
 30
0.0
 11
85.980792
 21
-39.358083
 31
0.0
  0
LINE
  5
42D
330
525
100
AcDbEntity
  8
DIM
  6
Continuous
 62
     7
370
    13
100
AcDbLine
 10
85.712437
 20
-38.911469
 30
0.0
 11
85.980792
 21
-38.911469
 31
0.0
  0
LINE
  5
42E
330
525
100
AcDbEntity
  8
DIM
  6
Continuous
 62
     7
370
    13
100
AcDbLine
 10
85.930792
 20
-39.308083
 30
0.0
 11
85.930792
 21
-38.961479
 31
0.0
  0
SOLID
  5
42F
330
525
100
AcDbEntity
  8
DIM
  6
Continuous
 62
     7
370
    13
100
AcDbTrace
 10
85.939125
 20
-39.308083
 30
0.0
 11
85.922458
 21
-39.308083
 31
0.0
 12
85.930792
 22
-39.358083
 32
0.0
 13
85.930792
 23
-39.358083
 33
0.0
  0
SOLID
  5
430
330
525
100
AcDbEntity
  8
DIM
  6
Continuous
 62
     7
370
    13
100
AcDbTrace
 10
85.939125
 20
-38.961479
 30
0.0
 11
85.922458
 21
-38.961479
 31
0.0
 12
85.930792
 22
-38.911469
 32
0.0
 13
85.930792
 23
-38.911469
 33
0.0
  0
SOLID
  5
432
330
525
100
AcDbEntity
  8
TEXT
  6
Continuous
 62
     7
370
    13
100
AcDbTrace
 10
-85.49476
 20
-39.23801
 30
0.0
 11
-85.511177
 21
-39.235125
 31
0.0
 12
-85.494312
 22
-39.187312
 32
0.0
 13
-85.494312
 23
-39.187312
 33
0.0
210
0.0
220
0.0
230
-1.0
  0
LINE
  5
433
330
525
100
AcDbEntity
  8
TEXT
  6
Continuous
 62
     7
370
    13
100
AcDbLine
 10
85.502969
 20
-39.236573
 30
0.0
 11
85.545479
 21
-39.478687
 31
0.0
  0
SOLID
  5
434
330
525
100
AcDbEntity
  8
TEXT
  6
Continuous
 62
     7
370
    13
100
AcDbTrace
 10
-85.115115
 20
-39.23749
 30
0.0
 11
-85.12351
 21
-39.223094
 31
0.0
 12
-85.076115
 22
-39.205115
 32
0.0
 13
-85.076115
 23
-39.205115
 33
0.0
210
0.0
220
0.0
230
-1.0
  0
LINE
  5
435
330
525
100
AcDbEntity
  8
TEXT
  6
Continuous
 62
     7
370
    13
100
AcDbLine
 10
85.119312
 20
-39.230292
 30
0.0
 11
85.545479
 21
-39.478687
 31
0.0
  0
SOLID
  5
437
330
525
100
AcDbEntity
  8
TEXT
  6
Continuous
 62
     7
370
    13
100
AcDbTrace
 10
-85.266823
 20
-38.651917
 30
0.0
 11
-85.279573
 21
-38.641177
 31
0.0
 12
-85.241
 22
-38.608292
 32
0.0
 13
-85.241
 23
-38.608292
 33
0.0
210
0.0
220
0.0
230
-1.0
  0
LINE
  5
438
330
525
100
AcDbEntity
  8
TEXT
  6
Continuous
 62
     7
370
    13
100
AcDbLine
 10
85.273198
 20
-38.646542
 30
0.0
 11
85.405594
 21
-38.803812
 31
0.0
  0
SOLID
  5
439
330
525
100
AcDbEntity
  8
TEXT
  6
Continuous
 62
     7
370
    13
100
AcDbTrace
 10
85.285635
 20
-38.936208
 30
0.0
 11
85.275437
 21
-38.923031
 31
0.0
 12
85.241
 22
-38.960229
 32
0.0
 13
85.241
 23
-38.960229
 33
0.0
  0
LINE
  5
43A
330
525
100
AcDbEntity
  8
TEXT
  6
Continuous
 62
     7
370
    13
100
AcDbLine
 10
85.280542
 20
-38.929625
 30
0.0
 11
85.413823
 21
-38.826448
 31
0.0
  0
SOLID
  5
43B
330
525
100
AcDbEntity
  8
TEXT
  6
Continuous
 62
     7
370
    13
100
AcDbTrace
 10
-84.977385
 20
-39.048844
 30
0.0
 11
-84.963531
 21
-39.039573
 31
0.0
 12
-84.942656
 22
-39.085771
 32
0.0
 13
-84.942656
 23
-39.085771
 33
0.0
210
0.0
220
0.0
230
-1.0
  0
LINE
  5
43C
330
525
100
AcDbEntity
  8
TEXT
  6
Continuous
 62
     7
370
    13
100
AcDbLine
 10
84.970458
 20
-39.044208
 30
0.0
 11
85.13401
 21
-38.799687
 31
0.0
  0
LINE
  5
43D
330
525
100
AcDbEntity
  8
TEXT
  6
Continuous
 62
     7
370
    13
100
AcDbLine
 10
85.13401
 20
-38.799687
 30
0.0
 11
85.094917
 21
-38.799687
 31
0.0
  0
SOLID
  5
43F
330
525
100
AcDbEntity
  8
TEXT
  6
Continuous
 62
     7
370
    13
100
AcDbTrace
 10
85.220177
 20
-40.651677
 30
0.0
 11
85.232281
 21
-40.663135
 31
0.0
 12
85.260615
 22
-40.621094
 32
0.0
 13
85.260615
 23
-40.621094
 33
0.0
  0
LINE
  5
440
330
525
100
AcDbEntity
  8
TEXT
  6
Continuous
 62
     7
370
    13
100
AcDbLine
 10
85.226229
 20
-40.657406
 30
0.0
 11
85.061323
 21
-40.831531
 31
0.0
  0
SOLID
  5
441
330
525
100
AcDbEntity
  8
TEXT
  6
Continuous
 62
     7
370
    13
100
AcDbTrace
 10
85.344479
 20
-40.081844
 30
0.0
 11
85.339656
 21
-40.065885
 31
0.0
 12
85.294198
 22
-40.088313
 32
0.0
 13
85.294198
 23
-40.088313
 33
0.0
  0
LINE
  5
442
330
525
100
AcDbEntity
  8
TEXT
  6
Continuous
 62
     7
370
    13
100
AcDbLine
 10
85.342073
 20
-40.073865
 30
0.0
 11
85.509156
 21
-40.023396
 31
0.0
  0
LINE
  5
443
330
525
100
AcDbEntity
  8
_0
  6
Continuous
 62
     7
370
    13
100
AcDbLine
 10
84.887375
 20
-40.414062
 30
0.0
 11
84.887375
 21
-39.911552
 31
0.0
  0
LINE
  5
444
330
525
100
AcDbEntity
  8
_0
  6
Continuous
 62
     7
370
    13
100
AcDbLine
 10
84.887375
 20
-40.414062
 30
0.0
 11
84.714219
 21
-40.414062
 31
0.0
  0
LINE
  5
445
330
525
100
AcDbEntity
  8
_0
  6
Continuous
 62
     7
370
    13
100
AcDbLine
 10
84.714219
 20
-40.314052
 30
0.0
 11
84.564271
 21
-40.314052
 31
0.0
  0
LINE
  5
446
330
525
100
AcDbEntity
  8
_0
  6
Continuous
 62
     7
370
    13
100
AcDbLine
 10
84.714219
 20
-40.414062
 30
0.0
 11
84.714219
 21
-40.159531
 31
0.0
  0
LINE
  5
447
330
525
100
AcDbEntity
  8
_0
  6
Continuous
 62
     7
370
    13
100
AcDbLine
 10
84.714219
 20
-40.159531
 30
0.0
 11
84.567646
 21
-40.159531
 31
0.0
  0
LINE
  5
448
330
525
100
AcDbEntity
  8
_0
  6
Continuous
 62
     7
370
    13
100
AcDbLine
 10
84.714219
 20
-40.159531
 30
0.0
 11
84.779875
 21
-39.951469
 31
0.0
  0
LINE
  5
449
330
525
100
AcDbEntity
  8
_0
  6
Continuous
 62
     7
370
    13
100
AcDbLine
 10
84.82524
 20
-39.916562
 30
0.0
 11
84.886667
 21
-39.913708
 31
0.0
  0
ARC
  5
44A
330
525
100
AcDbEntity
  8
_0
  6
Continuous
 62
     7
370
    13
100
AcDbCircle
 10
84.827562
 20
-39.966515
 30
0.0
 40
0.050004
100
AcDbArc
 50
92.66225
 51
162.487403
  0
LWPOLYLINE
  5
44B
330
525
100
AcDbEntity
  8
_0
  6
Continuous
 62
     7
370
     0
100
AcDbPolyline
 90
       47
 70
   128
 43
0.0
 10
84.564271
 20
-40.314052
 10
84.56449
 20
-40.312573
 10
84.56499
 20
-40.308042
 10
84.565125
 20
-40.30375
 10
84.564958
 20
-40.299615
 10
84.564573
 20
-40.295594
 10
84.564083
 20
-40.291625
 10
84.563573
 20
-40.287656
 10
84.563156
 20
-40.283635
 10
84.562938
 20
-40.2795
 10
84.563
 20
-40.275198
 10
84.563437
 20
-40.270698
 10
84.564167
 20
-40.266042
 10
84.565104
 20
-40.261281
 10
84.566167
 20
-40.256479
 10
84.56726
 20
-40.251687
 10
84.568302
 20
-40.246979
 10
84.569187
 20
-40.242406
 10
84.569823
 20
-40.238021
 10
84.570167
 20
-40.233885
 10
84.570219
 20
-40.229958
 10
84.570031
 20
-40.22624
 10
84.569635
 20
-40.222667
 10
84.569094
 20
-40.219219
 10
84.568438
 20
-40.215865
 10
84.567719
 20
-40.212583
 10
84.566969
 20
-40.209333
 10
84.56624
 20
-40.206083
 10
84.565552
 20
-40.202865
 10
84.564948
 20
-40.199677
 10
84.564437
 20
-40.196562
 10
84.564052
 20
-40.193531
 10
84.563812
 20
-40.190604
 10
84.56375
 20
-40.187802
 10
84.563885
 20
-40.185146
 10
84.56424
 20
-40.182656
 10
84.56476
 20
-40.180302
 10
84.565385
 20
-40.178052
 10
84.566063
 20
-40.175875
 10
84.566729
 20
-40.17374
 10
84.567323
 20
-40.171625
 10
84.567792
 20
-40.169479
 10
84.568073
 20
-40.167281
 10
84.568125
 20
-40.16501
 10
84.56799
 20
-40.162667
 10
84.56774
 20
-40.16026
 10
84.567521
 20
-40.158521
  0
SOLID
  5
44C
330
525
100
AcDbEntity
  8
TEXT
  6
Continuous
 62
     7
370
    13
100
AcDbTrace
 10
-89.136417
 20
-40.090385
 30
0.0
 11
-89.14125
 21
-40.074438
 31
0.0
 12
-89.090979
 22
-40.067917
 32
0.0
 13
-89.090979
 23
-40.067917
 33
0.0
210
0.0
220
0.0
230
-1.0
  0
LINE
  5
44D
330
525
100
AcDbEntity
  8
TEXT
  6
Continuous
 62
     7
370
    13
100
AcDbLine
 10
89.138833
 20
-40.082417
 30
0.0
 11
89.255823
 21
-40.117865
 31
0.0
  0
LINE
  5
44E
330
525
100
AcDbEntity
  8
TEXT
  6
Continuous
 62
     7
370
    13
100
AcDbLine
 10
89.255823
 20
-40.117865
 30
0.0
 11
89.305823
 21
-40.117865
 31
0.0
  0
LINE
  5
451
330
525
100
AcDbEntity
  8
_0
  6
Continuous
 62
     7
370
    13
100
AcDbLine
 10
83.028937
 20
-38.461437
 30
0.0
 11
83.263958
 21
-38.461437
 31
0.0
  0
LINE
  5
452
330
525
100
AcDbEntity
  8
_0
  6
Continuous
 62
     7
370
    13
100
AcDbLine
 10
83.655135
 20
-38.4305
 30
0.0
 11
83.558979
 21
-38.4305
 31
0.0
  0
LINE
  5
453
330
525
100
AcDbEntity
  8
_0
  6
Continuous
 62
     7
370
    13
100
AcDbLine
 10
83.655135
 20
-38.695031
 30
0.0
 11
83.558979
 21
-38.695031
 31
0.0
  0
LWPOLYLINE
  5
454
330
525
100
AcDbEntity
  8
_0
  6
DGN Style 2
 62
     7
370
    53
100
AcDbPolyline
 90
        2
 70
   128
 43
0.0
 10
83.567146
 20
-38.695031
 10
83.567146
 20
-38.4305
  0
LINE
  5
455
330
525
100
AcDbEntity
  8
_0
  6
Continuous
 62
     7
370
    13
100
AcDbLine
 10
83.283958
 20
-38.661448
 30
0.0
 11
83.283958
 21
-38.461437
 31
0.0
  0
LINE
  5
456
330
525
100
AcDbEntity
  8
_0
  6
Continuous
 62
     7
370
    13
100
AcDbLine
 10
83.558979
 20
-38.695031
 30
0.0
 11
83.558979
 21
-38.4305
 31
0.0
  0
LINE
  5
457
330
525
100
AcDbEntity
  8
_0
  6
Continuous
 62
     7
370
    13
100
AcDbLine
 10
83.655135
 20
-38.695031
 30
0.0
 11
83.655135
 21
-38.4305
 31
0.0
  0
LINE
  5
458
330
525
100
AcDbEntity
  8
_0
  6
Continuous
 62
     7
370
    13
100
AcDbLine
 10
83.558979
 20
-38.461437
 30
0.0
 11
83.283958
 21
-38.461437
 31
0.0
  0
LINE
  5
459
330
525
100
AcDbEntity
  8
_0
  6
Continuous
 62
     7
370
    13
100
AcDbLine
 10
83.558979
 20
-38.661448
 30
0.0
 11
83.283958
 21
-38.661448
 31
0.0
  0
SOLID
  5
45A
330
525
100
AcDbEntity
  8
DIM
  6
Continuous
 62
     7
370
    13
100
AcDbTrace
 10
83.333594
 20
-38.322198
 30
0.0
 11
83.333594
 21
-38.305531
 31
0.0
 12
83.283583
 22
-38.313865
 32
0.0
 13
83.283583
 23
-38.313865
 33
0.0
  0
LINE
  5
45B
330
525
100
AcDbEntity
  8
DIM
  6
Continuous
 62
     7
370
    13
100
AcDbLine
 10
83.333594
 20
-38.313865
 30
0.0
 11
83.508604
 21
-38.313865
 31
0.0
  0
SOLID
  5
45C
330
525
100
AcDbEntity
  8
DIM
  6
Continuous
 62
     7
370
    13
100
AcDbTrace
 10
83.508604
 20
-38.322198
 30
0.0
 11
83.508604
 21
-38.305531
 31
0.0
 12
83.558615
 22
-38.313865
 32
0.0
 13
83.558615
 23
-38.313865
 33
0.0
  0
LINE
  5
45D
330
525
100
AcDbEntity
  8
DIM
  6
Continuous
 62
     7
370
    13
100
AcDbLine
 10
83.558615
 20
-38.290104
 30
0.0
 11
83.558615
 21
-38.413135
 31
0.0
  0
SOLID
  5
45E
330
525
100
AcDbEntity
  8
DIM
  6
Continuous
 62
     7
370
    13
100
AcDbTrace
 10
83.703677
 20
-38.322198
 30
0.0
 11
83.703677
 21
-38.305531
 31
0.0
 12
83.653667
 22
-38.313865
 32
0.0
 13
83.653667
 23
-38.313865
 33
0.0
  0
LINE
  5
45F
330
525
100
AcDbEntity
  8
DIM
  6
Continuous
 62
     7
370
    13
100
AcDbLine
 10
83.654042
 20
-38.290104
 30
0.0
 11
83.654042
 21
-38.413135
 31
0.0
  0
LINE
  5
460
330
525
100
AcDbEntity
  8
DIM
  6
Continuous
 62
     7
370
    13
100
AcDbLine
 10
83.703677
 20
-38.313865
 30
0.0
 11
83.754094
 21
-38.313865
 31
0.0
  0
ARC
  5
463
330
525
100
AcDbEntity
  8
_0
  6
Continuous
 62
     7
370
    13
100
AcDbCircle
 10
82.633526
 20
-39.966515
 30
0.0
 40
0.050004
100
AcDbArc
 50
92.66225
 51
162.487403
  0
LINE
  5
464
330
525
100
AcDbEntity
  8
_0
  6
Continuous
 62
     7
370
    13
100
AcDbLine
 10
82.520187
 20
-40.159531
 30
0.0
 11
82.585844
 21
-39.951469
 31
0.0
  0
LINE
  5
465
330
525
100
AcDbEntity
  8
_0
  6
Continuous
 62
     7
370
    13
100
AcDbLine
 10
82.631208
 20
-39.916562
 30
0.0
 11
82.692625
 21
-39.913708
 31
0.0
  0
LINE
  5
466
330
525
100
AcDbEntity
  8
_0
  6
Continuous
 62
     7
370
    13
100
AcDbLine
 10
82.693333
 20
-40.414062
 30
0.0
 11
82.693333
 21
-39.911552
 31
0.0
  0
LINE
  5
467
330
525
100
AcDbEntity
  8
_0
  6
Continuous
 62
     7
370
    13
100
AcDbLine
 10
82.520187
 20
-40.414062
 30
0.0
 11
82.520187
 21
-40.159531
 31
0.0
  0
LINE
  5
468
330
525
100
AcDbEntity
  8
_0
  6
Continuous
 62
     7
370
    13
100
AcDbLine
 10
82.693333
 20
-40.414062
 30
0.0
 11
82.520187
 21
-40.414062
 31
0.0
  0
LINE
  5
469
330
525
100
AcDbEntity
  8
_0
  6
Continuous
 62
     7
370
    13
100
AcDbLine
 10
82.520187
 20
-40.314052
 30
0.0
 11
82.370229
 21
-40.314052
 31
0.0
  0
LWPOLYLINE
  5
46A
330
525
100
AcDbEntity
  8
_0
  6
Continuous
 62
     7
370
     0
100
AcDbPolyline
 90
       47
 70
   128
 43
0.0
 10
82.370229
 20
-40.314052
 10
82.370448
 20
-40.312573
 10
82.370948
 20
-40.308042
 10
82.371094
 20
-40.30375
 10
82.370917
 20
-40.299615
 10
82.370542
 20
-40.295594
 10
82.370042
 20
-40.291625
 10
82.369542
 20
-40.287656
 10
82.369125
 20
-40.283635
 10
82.368906
 20
-40.2795
 10
82.368969
 20
-40.275198
 10
82.369396
 20
-40.270698
 10
82.370125
 20
-40.266042
 10
82.371073
 20
-40.261281
 10
82.372135
 20
-40.256479
 10
82.373229
 20
-40.251687
 10
82.37426
 20
-40.246979
 10
82.375146
 20
-40.242406
 10
82.375792
 20
-40.238021
 10
82.376135
 20
-40.233885
 10
82.376177
 20
-40.229958
 10
82.37599
 20
-40.22624
 10
82.375594
 20
-40.222667
 10
82.375052
 20
-40.219219
 10
82.374396
 20
-40.215865
 10
82.373677
 20
-40.212583
 10
82.372937
 20
-40.209333
 10
82.372208
 20
-40.206083
 10
82.371521
 20
-40.202865
 10
82.370906
 20
-40.199677
 10
82.370396
 20
-40.196562
 10
82.37001
 20
-40.193531
 10
82.369771
 20
-40.190604
 10
82.369708
 20
-40.187802
 10
82.369854
 20
-40.185146
 10
82.370198
 20
-40.182656
 10
82.370719
 20
-40.180302
 10
82.371354
 20
-40.178052
 10
82.372021
 20
-40.175875
 10
82.372687
 20
-40.17374
 10
82.373281
 20
-40.171625
 10
82.37375
 20
-40.169479
 10
82.374031
 20
-40.167281
 10
82.374083
 20
-40.16501
 10
82.373958
 20
-40.162667
 10
82.373698
 20
-40.16026
 10
82.37349
 20
-40.158521
  0
LINE
  5
46B
330
525
100
AcDbEntity
  8
_0
  6
Continuous
 62
     7
370
    13
100
AcDbLine
 10
82.520187
 20
-40.159531
 30
0.0
 11
82.373615
 21
-40.159531
 31
0.0
  0
LINE
  5
472
330
525
100
AcDbEntity
  8
_0
  6
Continuous
 62
     7
370
    13
100
AcDbLine
 10
83.558979
 20
-39.358083
 30
0.0
 11
83.283958
 21
-39.358083
 31
0.0
  0
LINE
  5
473
330
525
100
AcDbEntity
  8
_0
  6
Continuous
 62
     7
370
    13
100
AcDbLine
 10
83.558979
 20
-39.358083
 30
0.0
 11
83.558979
 21
-38.911469
 31
0.0
  0
LINE
  5
474
330
525
100
AcDbEntity
  8
_0
  6
Continuous
 62
     7
370
    13
100
AcDbLine
 10
83.558979
 20
-38.911469
 30
0.0
 11
83.283958
 21
-38.911469
 31
0.0
  0
LWPOLYLINE
  5
475
330
525
100
AcDbEntity
  8
_0
  6
Continuous
 62
     7
370
    53
100
AcDbPolyline
 90
       10
 70
   128
 43
0.0
 10
83.558979
 20
-38.918135
 10
83.64899
 20
-39.008135
 10
83.64899
 20
-39.030635
 10
83.566969
 20
-39.112656
 10
83.56697
 20
-39.112657
 42
-0.573574
 10
83.568675
 20
-39.149241
 10
83.568677
 20
-39.14924
 10
83.64899
 20
-39.229552
 10
83.64899
 20
-39.253156
 10
83.558979
 20
-39.343167
  0
SOLID
  5
47A
330
525
100
AcDbEntity
  8
DIM
  6
Continuous
 62
     7
370
    13
100
AcDbTrace
 10
83.835667
 20
-38.961479
 30
0.0
 11
83.819
 21
-38.961479
 31
0.0
 12
83.827333
 22
-38.911469
 32
0.0
 13
83.827333
 23
-38.911469
 33
0.0
  0
SOLID
  5
47B
330
525
100
AcDbEntity
  8
DIM
  6
Continuous
 62
     7
370
    13
100
AcDbTrace
 10
83.835667
 20
-39.308083
 30
0.0
 11
83.819
 21
-39.308083
 31
0.0
 12
83.827333
 22
-39.358083
 32
0.0
 13
83.827333
 23
-39.358083
 33
0.0
  0
LINE
  5
47C
330
525
100
AcDbEntity
  8
DIM
  6
Continuous
 62
     7
370
    13
100
AcDbLine
 10
83.827333
 20
-39.308083
 30
0.0
 11
83.827333
 21
-38.961479
 31
0.0
  0
LINE
  5
47D
330
525
100
AcDbEntity
  8
DIM
  6
Continuous
 62
     7
370
    13
100
AcDbLine
 10
83.608979
 20
-38.911469
 30
0.0
 11
83.877333
 21
-38.911469
 31
0.0
  0
LINE
  5
47E
330
525
100
AcDbEntity
  8
DIM
  6
Continuous
 62
     7
370
    13
100
AcDbLine
 10
83.608979
 20
-39.358083
 30
0.0
 11
83.877333
 21
-39.358083
 31
0.0
  0
SOLID
  5
485
330
525
100
AcDbEntity
  8
TEXT
  6
Continuous
 62
     7
370
    13
100
AcDbTrace
 10
-83.443667
 20
-38.954073
 30
0.0
 11
-83.42724
 21
-38.95126
 31
0.0
 12
-83.42701
 22
-39.001948
 32
0.0
 13
-83.42701
 23
-39.001948
 33
0.0
210
0.0
220
0.0
230
-1.0
  0
LINE
  5
486
330
525
100
AcDbEntity
  8
TEXT
  6
Continuous
 62
     7
370
    13
100
AcDbLine
 10
83.435458
 20
-38.952667
 30
0.0
 11
83.456052
 21
-38.832469
 31
0.0
  0
LINE
  5
487
330
525
100
AcDbEntity
  8
TEXT
  6
Continuous
 62
     7
370
    13
100
AcDbLine
 10
83.456052
 20
-38.832469
 30
0.0
 11
83.378583
 21
-38.832469
 31
0.0
  0
SOLID
  5
488
330
525
100
AcDbEntity
  8
TEXT
  6
Continuous
 62
     7
370
    13
100
AcDbTrace
 10
82.859844
 20
-38.96201
 30
0.0
 11
82.844313
 21
-38.968052
 31
0.0
 12
82.870198
 22
-39.011635
 32
0.0
 13
82.870198
 23
-39.011635
 33
0.0
  0
LINE
  5
489
330
525
100
AcDbEntity
  8
TEXT
  6
Continuous
 62
     7
370
    13
100
AcDbLine
 10
82.852073
 20
-38.965031
 30
0.0
 11
82.768521
 21
-38.750146
 31
0.0
  0
LINE
  5
48A
330
525
100
AcDbEntity
  8
TEXT
  6
Continuous
 62
     7
370
    13
100
AcDbLine
 10
82.768521
 20
-38.750146
 30
0.0
 11
82.855667
 21
-38.750146
 31
0.0
  0
SOLID
  5
48B
330
525
100
AcDbEntity
  8
TEXT
  6
Continuous
 62
     7
370
    13
100
AcDbTrace
 10
82.835542
 20
-39.076333
 30
0.0
 11
82.825417
 21
-39.089573
 31
0.0
 12
82.870198
 22
-39.113323
 32
0.0
 13
82.870198
 23
-39.113323
 33
0.0
  0
LINE
  5
48C
330
525
100
AcDbEntity
  8
TEXT
  6
Continuous
 62
     7
370
    13
100
AcDbLine
 10
82.830479
 20
-39.082948
 30
0.0
 11
82.458646
 21
-38.798573
 31
0.0
  0
LINE
  5
48D
330
525
100
AcDbEntity
  8
TEXT
  6
Continuous
 62
     7
370
    13
100
AcDbLine
 10
82.458646
 20
-38.798573
 30
0.0
 11
82.408635
 21
-38.798573
 31
0.0
  0
LINE
  5
48E
330
525
100
AcDbEntity
  8
_0
  6
DGN Style 2
 62
     7
370
    13
100
AcDbLine
 10
84.904198
 20
-38.695031
 30
0.0
 11
84.904198
 21
-38.4305
 31
0.0
  0
LINE
  5
48F
330
525
100
AcDbEntity
  8
_0
  6
DGN Style 2
 62
     7
370
    13
100
AcDbLine
 10
85.670604
 20
-38.695031
 30
0.0
 11
85.670604
 21
-38.4305
 31
0.0
  0
LINE
  5
490
330
525
100
AcDbEntity
  8
_0
  6
Continuous
 62
     7
370
    13
100
AcDbLine
 10
84.934562
 20
-38.5795
 30
0.0
 11
84.922375
 21
-38.5795
 31
0.0
  0
LINE
  5
491
330
525
100
AcDbEntity
  8
_0
  6
Continuous
 62
     7
370
    13
100
AcDbLine
 10
84.934562
 20
-38.64951
 30
0.0
 11
84.922375
 21
-38.64951
 31
0.0
  0
LINE
  5
492
330
525
100
AcDbEntity
  8
_0
  6
Continuous
 62
     7
370
    13
100
AcDbLine
 10
84.934562
 20
-38.64951
 30
0.0
 11
84.934562
 21
-38.5795
 31
0.0
  0
LINE
  5
493
330
525
100
AcDbEntity
  8
_0
  6
Continuous
 62
     7
370
    13
100
AcDbLine
 10
84.954573
 20
-38.5895
 30
0.0
 11
84.934562
 21
-38.5895
 31
0.0
  0
LINE
  5
494
330
525
100
AcDbEntity
  8
_0
  6
Continuous
 62
     7
370
    13
100
AcDbLine
 10
84.954573
 20
-38.63951
 30
0.0
 11
84.934562
 21
-38.63951
 31
0.0
  0
LINE
  5
495
330
525
100
AcDbEntity
  8
_0
  6
Continuous
 62
     7
370
    13
100
AcDbLine
 10
84.954573
 20
-38.63951
 30
0.0
 11
84.954573
 21
-38.5895
 31
0.0
  0
LINE
  5
496
330
525
100
AcDbEntity
  8
_0
  6
Continuous
 62
     7
370
    13
100
AcDbLine
 10
85.64024
 20
-38.473385
 30
0.0
 11
85.64024
 21
-38.543385
 31
0.0
  0
LINE
  5
497
330
525
100
AcDbEntity
  8
_0
  6
Continuous
 62
     7
370
    13
100
AcDbLine
 10
85.64024
 20
-38.543385
 30
0.0
 11
85.652427
 21
-38.543385
 31
0.0
  0
LINE
  5
498
330
525
100
AcDbEntity
  8
_0
  6
Continuous
 62
     7
370
    13
100
AcDbLine
 10
85.62024
 20
-38.533385
 30
0.0
 11
85.64024
 21
-38.533385
 31
0.0
  0
LINE
  5
499
330
525
100
AcDbEntity
  8
_0
  6
Continuous
 62
     7
370
    13
100
AcDbLine
 10
85.62024
 20
-38.483385
 30
0.0
 11
85.62024
 21
-38.533385
 31
0.0
  0
LINE
  5
49A
330
525
100
AcDbEntity
  8
_0
  6
Continuous
 62
     7
370
    13
100
AcDbLine
 10
85.62024
 20
-38.483385
 30
0.0
 11
85.64024
 21
-38.483385
 31
0.0
  0
LINE
  5
49B
330
525
100
AcDbEntity
  8
_0
  6
Continuous
 62
     7
370
    13
100
AcDbLine
 10
85.64024
 20
-38.473385
 30
0.0
 11
85.652427
 21
-38.473385
 31
0.0
  0
LINE
  5
49C
330
525
100
AcDbEntity
  8
_0
  6
DGN Style 2
 62
     7
370
    13
100
AcDbLine
 10
88.589719
 20
-38.702667
 30
0.0
 11
88.589719
 21
-38.438135
 31
0.0
  0
LINE
  5
49D
330
525
100
AcDbEntity
  8
_0
  6
DGN Style 2
 62
     7
370
    13
100
AcDbLine
 10
89.431135
 20
-38.702667
 30
0.0
 11
89.431135
 21
-38.438135
 31
0.0
  0
CIRCLE
  5
49E
330
525
100
AcDbEntity
  8
_0
  6
Continuous
 62
     7
370
    13
100
AcDbCircle
 10
83.110506
 20
-42.198754
 30
0.0
 40
0.0185924126370166
  0
LINE
  5
49F
330
525
100
AcDbEntity
  8
_0
  6
Continuous
 62
     7
370
    13
100
AcDbLine
 10
83.065615
 20
-42.175458
 30
0.0
 11
83.065615
 21
-42.225458
 31
0.0
  0
LINE
  5
4A0
330
525
100
AcDbEntity
  8
_0
  6
Continuous
 62
     7
370
    13
100
AcDbLine
 10
83.14849
 20
-42.175458
 30
0.0
 11
83.14849
 21
-42.225458
 31
0.0
  0
LINE
  5
4A1
330
525
100
AcDbEntity
  8
_0
  6
Continuous
 62
     7
370
    13
100
AcDbLine
 10
83.107052
 20
-41.945625
 30
0.0
 11
83.107052
 21
-42.175458
 31
0.0
  0
LINE
  5
4A2
330
525
100
AcDbEntity
  8
_0
  6
Continuous
 62
     7
370
    13
100
AcDbLine
 10
82.989167
 20
-42.375469
 30
0.0
 11
82.989167
 21
-42.537802
 31
0.0
  0
LINE
  5
4A3
330
525
100
AcDbEntity
  8
_0
  6
Continuous
 62
     7
370
    13
100
AcDbLine
 10
83.139177
 20
-42.375469
 30
0.0
 11
83.139177
 21
-42.537802
 31
0.0
  0
LINE
  5
4A4
330
525
100
AcDbEntity
  8
_0
  6
DGN Style 2
 62
     7
370
    13
100
AcDbLine
 10
83.054427
 20
-42.465698
 30
0.0
 11
83.054427
 21
-41.993573
 31
0.0
  0
LINE
  5
4A5
330
525
100
AcDbEntity
  8
_0
  6
DGN Style 2
 62
     7
370
    13
100
AcDbLine
 10
83.070021
 20
-42.465698
 30
0.0
 11
83.070021
 21
-42.225458
 31
0.0
  0
LINE
  5
4A6
330
525
100
AcDbEntity
  8
_0
  6
DGN Style 2
 62
     7
370
    13
100
AcDbLine
 10
83.070021
 20
-42.175458
 30
0.0
 11
83.070021
 21
-41.993573
 31
0.0
  0
LINE
  5
4A7
330
525
100
AcDbEntity
  8
_0
  6
Continuous
 62
     7
370
    13
100
AcDbLine
 10
82.905094
 20
-42.399437
 30
0.0
 11
83.305125
 21
-42.399437
 31
0.0
  0
LINE
  5
4A8
330
525
100
AcDbEntity
  8
_0
  6
DGN Style 2
 62
     7
370
    13
100
AcDbLine
 10
83.139177
 20
-42.175458
 30
0.0
 11
83.139177
 21
-41.993042
 31
0.0
  0
LWPOLYLINE
  5
4B5
330
525
100
AcDbEntity
  8
TEXT
  6
Continuous
 62
     7
370
    13
100
AcDbPolyline
 90
        3
 70
   128
 43
0.0
 10
83.38251
 20
-40.066698
 10
83.359635
 20
-40.066698
 10
83.283958
 20
-40.026688
  0
INSERT
  5
4B6
330
525
100
AcDbEntity
  8
TEXT
  6
Continuous
 62
     7
370
    13
100
AcDbBlockReference
  2
LARROW
 10
83.283958
 20
-40.026688
 30
0.0
 41
5.000402
 42
5.000402
 43
5.000402
 50
152.135513
  0
TEXT
  5
66
330
525
100
AcDbEntity
  8
TEXT
  6
Continuous
 62
     7
370
    13
100
AcDbText
 10
81.950624
 20
-43.611708
 30
0.0
 40
0.050625
  1
STANDARD MB-4 TERMINAL TREATMENT
 41
0.9
  7
Style-Arial
100
AcDbText
  0
TEXT
  5
80
330
525
100
AcDbEntity
  8
TEXT
  6
Continuous
 62
     7
370
    13
100
AcDbText
 10
87.022058
 20
-42.570052
 30
0.0
 40
0.050625
  1
ON BOLT
 41
0.9
  7
Style-Arial
100
AcDbText
  0
TEXT
  5
84
330
525
100
AcDbEntity
  8
TEXT
  6
Continuous
 62
     7
370
    13
100
AcDbText
 10
84.671859
 20
-43.440115
 30
0.0
 40
0.050625
  1
BRIDGE PIER OR OTHER MEDIAN OBSTRUCTION
 41
0.9
  7
Style-Arial
100
AcDbText
  0
TEXT
  5
88
330
525
100
AcDbEntity
  8
TEXT
  6
Continuous
 62
     7
370
    13
100
AcDbText
 10
85.318792
 20
-44.25799
 30
0.0
 40
0.050625
  1
MAXIMUM SPLAY PER 6'-3" SECTION = 6"
 41
0.9
  7
Style-Arial
100
AcDbText
  0
TEXT
  5
89
330
525
100
AcDbEntity
  8
DIM
  6
Continuous
 62
     7
370
    13
100
AcDbText
 10
84.44591
 20
-44.095906
 30
0.0
 40
0.050625
  1
6"
 41
0.9
  7
Style-Arial
100
AcDbText
  0
TEXT
  5
8A
330
525
100
AcDbEntity
  8
DIM
  6
Continuous
 62
     7
370
    13
100
AcDbText
 10
83.906401
 20
-44.131229
 30
0.0
 40
0.050625
  1
6'-3"
 41
0.9
  7
Style-Arial
100
AcDbText
  0
TEXT
  5
90
330
525
100
AcDbEntity
  8
DIM
  6
Continuous
 62
     7
370
    13
100
AcDbText
 10
84.901089
 20
-44.195281
 30
0.0
 40
0.050625
  1
6'-3"
 41
0.9
  7
Style-Arial
100
AcDbText
  0
TEXT
  5
CB
330
525
100
AcDbEntity
  8
HATCH
  6
Continuous
 62
     7
370
    13
100
AcDbText
 10
81.464698
 20
-44.559396
 30
0.0
 40
0.050625
  1
SEE AASHTO "GUIDE FOR SELECTING, LOCATING
 41
0.9
  7
Style-Arial
100
AcDbText
  0
TEXT
  5
CC
330
525
100
AcDbEntity
  8
HATCH
  6
Continuous
 62
     7
370
    13
100
AcDbText
 10
81.463341
 20
-44.64075
 30
0.0
 40
0.050625
  1
AND DESIGNING TRAFFIC BARRIERS"
 41
0.9
  7
Style-Arial
100
AcDbText
  0
TEXT
  5
CD
330
525
100
AcDbEntity
  8
TITLE
  6
Continuous
 62
     7
370
    13
100
AcDbText
 10
85.601145
 20
-44.695194
 30
0.0
 40
0.050625
  1
OR MEDIAN OBSTRUCTION
 41
0.9
  7
Style-Arial
100
AcDbText
  0
TEXT
  5
CE
330
525
100
AcDbEntity
  8
TITLE
  6
Continuous
 62
     7
370
    13
100
AcDbText
 10
85.60047
 20
-44.598656
 30
0.0
 40
0.050625
  1
MEDTHOD  OF TREATMENT AT BRIDGE PIER
 41
0.9
  7
Style-Arial
100
AcDbText
  0
TEXT
  5
DE
330
525
100
AcDbEntity
  8
TEXT
  6
Continuous
 62
     7
370
    13
100
AcDbText
 10
81.302717
 20
-41.54649
 30
0.0
 40
0.050625
  1
5/8" x 1-1/4" BOLTS
 41
0.9
  7
Style-Arial
100
AcDbText
  0
TEXT
  5
DF
330
525
100
AcDbEntity
  8
TEXT
  6
Continuous
 62
     7
370
    13
100
AcDbText
 10
81.305381
 20
-41.628125
 30
0.0
 40
0.050625
  1
8 REQD. PER JOINT
 41
0.9
  7
Style-Arial
100
AcDbText
  0
TEXT
  5
E0
330
525
100
AcDbEntity
  8
TEXT
  6
Continuous
 62
     7
370
    13
100
AcDbText
 10
83.680156
 20
-42.02176
 30
0.0
 40
0.050625
  1
L
 41
0.9
  7
Style-Arial
100
AcDbText
  0
TEXT
  5
E1
330
525
100
AcDbEntity
  8
TEXT
  6
Continuous
 62
     7
370
    13
100
AcDbText
 10
83.660615
 20
-42.000865
 30
0.0
 40
0.050625
  1
C POST BOLT SLOT
 41
0.9
  7
Style-Arial
100
AcDbText
  0
TEXT
  5
E5
330
525
100
AcDbEntity
  8
TEXT
  6
Continuous
 62
     7
370
    13
100
AcDbText
 10
83.661542
 20
-42.36299
 30
0.0
 40
0.050625
  1
SLOTTED HOLES
 41
0.9
  7
Style-Arial
100
AcDbText
  0
TEXT
  5
E7
330
525
100
AcDbEntity
  8
DIM
  6
Continuous
 62
     7
370
    13
100
AcDbText
 10
81.881802
 20
-42.791062
 30
0.0
 40
0.050625
  1
MIN
 41
0.9
  7
Style-Arial
100
AcDbText
  0
TEXT
  5
E8
330
525
100
AcDbEntity
  8
DIM
  6
Continuous
 62
     7
370
    13
100
AcDbText
 10
81.918969
 20
-42.725729
 30
0.0
 40
0.050625
  1
3"
 41
0.9
  7
Style-Arial
100
AcDbText
  0
TEXT
  5
EE
330
525
100
AcDbEntity
  8
TEXT
  6
Continuous
 62
     7
370
    13
100
AcDbText
 10
87.021789
 20
-42.736292
 30
0.0
 40
0.050625
  1
5/8" BOLT
 41
0.9
  7
Style-Arial
100
AcDbText
  0
TEXT
  5
101
330
525
100
AcDbEntity
  8
DIM
  6
Continuous
 62
     7
370
    13
100
AcDbText
 10
82.753844
 20
-42.668646
 30
0.0
 40
0.050625
  1
SPLICE AT POST
 41
0.9
  7
Style-Arial
100
AcDbText
  0
TEXT
  5
102
330
525
100
AcDbEntity
  8
TEXT
  6
Continuous
 62
     7
370
    13
100
AcDbText
 10
82.753844
 20
-42.749604
 30
0.0
 40
0.050625
  1
LAP IN DIRECTION OF TRAFFIC
 41
0.9
  7
Style-Arial
100
AcDbText
  0
TEXT
  5
10F
330
525
100
AcDbEntity
  8
TEXT
  6
Continuous
 62
     7
370
    13
100
AcDbText
 10
83.660615
 20
-42.178917
 30
0.0
 40
0.050625
  1
3/4" x 2-14" SLOT
 41
0.9
  7
Style-Arial
100
AcDbText
  0
TEXT
  5
110
330
525
100
AcDbEntity
  8
TEXT
  6
Continuous
 62
     7
370
    13
100
AcDbText
 10
83.660615
 20
-42.281354
 30
0.0
 40
0.050625
  1
29/32" x 1-1/8"
 41
0.9
  7
Style-Arial
100
AcDbText
  0
TEXT
  5
117
330
525
100
AcDbEntity
  8
DIM
  6
Continuous
 62
     7
370
    13
100
AcDbText
 10
83.369948
 20
-41.746615
 30
0.0
 40
0.050625
  1
4-1/4"
 41
0.9
  7
Style-Arial
100
AcDbText
  0
TEXT
  5
122
330
525
100
AcDbEntity
  8
DIM
  6
Continuous
 62
     7
370
    13
100
AcDbText
 10
83.032885
 20
-41.709708
 30
0.0
 40
0.050625
  1
LAP
 41
0.9
  7
Style-Arial
100
AcDbText
  0
TEXT
  5
123
330
525
100
AcDbEntity
  8
DIM
  6
Continuous
 62
     7
370
    13
100
AcDbText
 10
83.003216
 20
-41.599281
 30
0.0
 40
0.050625
  1
12-1/2"
 41
0.9
  7
Style-Arial
100
AcDbText
  0
TEXT
  5
128
330
525
100
AcDbEntity
  8
DIM
  6
Continuous
 62
     7
370
    13
100
AcDbText
 10
82.781729
 20
-41.841354
 30
0.0
 40
0.050625
  1
2"
 41
0.9
  7
Style-Arial
100
AcDbText
  0
TEXT
  5
129
330
525
100
AcDbEntity
  8
DIM
  6
Continuous
 62
     7
370
    13
100
AcDbText
 10
83.369948
 20
-41.841354
 30
0.0
 40
0.050625
  1
2"
 41
0.9
  7
Style-Arial
100
AcDbText
  0
TEXT
  5
12A
330
525
100
AcDbEntity
  8
DIM
  6
Continuous
 62
     7
370
    13
100
AcDbText
 10
82.675862
 20
-41.746615
 30
0.0
 40
0.050625
  1
4-1/4"
 41
0.9
  7
Style-Arial
100
AcDbText
  0
TEXT
  5
152
330
525
100
AcDbEntity
  8
DIM
  6
Continuous
 62
     7
370
    13
100
AcDbText
 10
85.266646
 20
-41.702115
 30
0.0
 40
0.050625
  1
3"
 41
0.9
  7
Style-Arial
100
AcDbText
  0
TEXT
  5
153
330
525
100
AcDbEntity
  8
DIM
  6
Continuous
 62
     7
370
    13
100
AcDbText
 10
85.202584
 20
-41.868281
 30
0.0
 40
0.050625
  1
15/16"
 41
0.9
  7
Style-Arial
100
AcDbText
  0
TEXT
  5
15E
330
525
100
AcDbEntity
  8
DIM
  6
Continuous
 62
     7
370
    13
100
AcDbText
 10
85.908135
 20
-42.187805
 30
0.0
 40
0.050625
  1
1-3/4"
 50
90.0
 41
0.9
  7
Style-Arial
100
AcDbText
  0
TEXT
  5
15F
330
525
100
AcDbEntity
  8
DIM
  6
Continuous
 62
     7
370
    13
100
AcDbText
 10
85.753021
 20
-42.207155
 30
0.0
 40
0.050625
  1
11/16"
 50
90.0
 41
0.9
  7
Style-Arial
100
AcDbText
  0
TEXT
  5
165
330
525
100
AcDbEntity
  8
DIM
  6
Continuous
 62
     7
370
    13
100
AcDbText
 10
85.063534
 20
-42.480354
 30
0.0
 40
0.050625
  1
1-1/2"
 41
0.9
  7
Style-Arial
100
AcDbText
  0
TEXT
  5
16B
330
525
100
AcDbEntity
  8
DIM
  6
Continuous
 62
     7
370
    13
100
AcDbText
 10
84.800562
 20
-42.252674
 30
0.0
 40
0.050625
  1
7/8"
 50
90.0
 41
0.9
  7
Style-Arial
100
AcDbText
  0
TEXT
  5
194
330
525
100
AcDbEntity
  8
TEXT
  6
Continuous
 62
     7
370
    13
100
AcDbText
 10
87.019907
 20
-42.407698
 30
0.0
 40
0.050625
  1
ELLIPTICAL
 41
0.9
  7
Style-Arial
100
AcDbText
  0
TEXT
  5
195
330
525
100
AcDbEntity
  8
TEXT
  6
Continuous
 62
     7
370
    13
100
AcDbText
 10
87.020255
 20
-42.488656
 30
0.0
 40
0.050625
  1
SHOULDER
 41
0.9
  7
Style-Arial
100
AcDbText
  0
TEXT
  5
1C7
330
525
100
AcDbEntity
  8
DIM
  6
Continuous
 62
     7
370
    13
100
AcDbText
 10
81.406396
 20
-42.303122
 30
0.0
 40
0.050625
  1
1'-1/4"
 50
90.0
 41
0.9
  7
Style-Arial
100
AcDbText
  0
TEXT
  5
1CC
330
525
100
AcDbEntity
  8
DIM
  6
Continuous
 62
     7
370
    13
100
AcDbText
 10
81.59749
 20
-42.65123
 30
0.0
 40
0.050625
  1
2-5/16"
 50
90.0
 41
0.9
  7
Style-Arial
100
AcDbText
  0
TEXT
  5
1D4
330
525
100
AcDbEntity
  8
DIM
  6
Continuous
 62
     7
370
    13
100
AcDbText
 10
81.59749
 20
-42.01225
 30
0.0
 40
0.050625
  1
2-5/16"
 50
90.0
 41
0.9
  7
Style-Arial
100
AcDbText
  0
TEXT
  5
1D9
330
525
100
AcDbEntity
  8
DIM
  6
Continuous
 62
     7
370
    13
100
AcDbText
 10
81.530708
 20
-42.367604
 30
0.0
 40
0.050625
  1
3-1/4"
 41
0.9
  7
Style-Arial
100
AcDbText
  0
TEXT
  5
1DD
330
525
100
AcDbEntity
  8
DIM
  6
Continuous
 62
     7
370
    13
100
AcDbText
 10
81.530708
 20
-42.127271
 30
0.0
 40
0.050625
  1
3-1/4"
 41
0.9
  7
Style-Arial
100
AcDbText
  0
TEXT
  5
1E0
330
525
100
AcDbEntity
  8
DIM
  6
Continuous
 62
     7
370
    13
100
AcDbText
 10
82.149885
 20
-42.252281
 30
0.0
 40
0.050625
  1
1-1/ "
 41
0.9
  7
Style-Arial
100
AcDbText
  0
TEXT
  5
1EC
330
525
100
AcDbEntity
  8
LEGEND
  6
Continuous
 62
     7
370
    13
100
AcDbText
 10
87.574344
 20
-41.677375
 30
0.0
 40
0.050625
  1
RAIL ELEMENT TO BE 12 GUAGE GALVANIZED UNLESS
 41
0.9
  7
Style-Arial
100
AcDbText
  0
TEXT
  5
1ED
330
525
100
AcDbEntity
  8
LEGEND
  6
Continuous
 62
     7
370
    13
100
AcDbText
 10
87.574344
 20
-41.758333
 30
0.0
 40
0.050625
  1
OTHERWISE NOTED ON PLANS
 41
0.9
  7
Style-Arial
100
AcDbText
  0
TEXT
  5
1EE
330
525
100
AcDbEntity
  8
LEGEND
  6
Continuous
 62
     7
370
    13
100
AcDbText
 10
87.574344
 20
-41.92025
 30
0.0
 40
0.050625
  1
MEDIAN BARRIER INSTALLATIONS HAVING A RADIUS OF
 41
0.9
  7
Style-Arial
100
AcDbText
  0
TEXT
  5
1EF
330
525
100
AcDbEntity
  8
LEGEND
  6
Continuous
 62
     7
370
    13
100
AcDbText
 10
87.574344
 20
-42.001208
 30
0.0
 40
0.050625
  1
125' OR LESS SHALL BE CONSIDER RADIAL WHERE THE
 41
0.9
  7
Style-Arial
100
AcDbText
  0
TEXT
  5
1F0
330
525
100
AcDbEntity
  8
LEGEND
  6
Continuous
 62
     7
370
    13
100
AcDbText
 10
87.574344
 20
-42.082167
 30
0.0
 40
0.050625
  1
FACE OF GUARD RAIL IS CONSTRUCTED ON A RADIUS OR 75'
 41
0.9
  7
Style-Arial
100
AcDbText
  0
TEXT
  5
1F1
330
525
100
AcDbEntity
  8
LEGEND
  6
Continuous
 62
     7
370
    13
100
AcDbText
 10
87.574344
 20
-42.163125
 30
0.0
 40
0.050625
  1
OR LESS THE BEAM BE SHOP CURVED THIS PRICE
 41
0.9
  7
Style-Arial
100
AcDbText
  0
TEXT
  5
1F2
330
525
100
AcDbEntity
  8
LEGEND
  6
Continuous
 62
     7
370
    13
100
AcDbText
 10
87.574344
 20
-42.244083
 30
0.0
 40
0.050625
  1
BID PER LINEAR FOOT OF RADIAL STELL BEAM MEDIAN
 41
0.9
  7
Style-Arial
100
AcDbText
  0
TEXT
  5
1F3
330
525
100
AcDbEntity
  8
LEGEND
  6
Continuous
 62
     7
370
    13
100
AcDbText
 10
87.574344
 20
-42.325042
 30
0.0
 40
0.050625
  1
BARRIER SHALL INCLUDE THE COST OF ALL CURVED SECTIONS
 41
0.9
  7
Style-Arial
100
AcDbText
  0
TEXT
  5
1F4
330
525
100
AcDbEntity
  8
LEGEND
  6
Continuous
 62
     7
370
    13
100
AcDbText
 10
87.574344
 20
-42.486958
 30
0.0
 40
0.050625
  1
THE MEDIAN BARRIER ITS FITTINGS, PARTS, ECT. ARE TO
 41
0.9
  7
Style-Arial
100
AcDbText
  0
TEXT
  5
1F5
330
525
100
AcDbEntity
  8
LEGEND
  6
Continuous
 62
     7
370
    13
100
AcDbText
 10
87.574344
 20
-42.567917
 30
0.0
 40
0.050625
  1
BE IN ACCORDANCE WITH THE ROAD AND BRIDGE SPECIFICATIONS
 41
0.9
  7
Style-Arial
100
AcDbText
  0
TEXT
  5
1F6
330
525
100
AcDbEntity
  8
LEGEND
  6
Continuous
 62
     7
370
    13
100
AcDbText
 10
87.574344
 20
-42.729833
 30
0.0
 40
0.050625
  1
ACCEPTANCE OF ALL MEDIAN BARRIER PRODUCTS SHALL
 41
0.9
  7
Style-Arial
100
AcDbText
  0
TEXT
  5
1F7
330
525
100
AcDbEntity
  8
LEGEND
  6
Continuous
 62
     7
370
    13
100
AcDbText
 10
87.574344
 20
-42.810792
 30
0.0
 40
0.050625
  1
BE GOVERNED BY THE REQUIREMENTS SET FORTH IN
 41
0.9
  7
Style-Arial
100
AcDbText
  0
TEXT
  5
1F8
330
525
100
AcDbEntity
  8
LEGEND
  6
Continuous
 62
     7
370
    13
100
AcDbText
 10
87.574344
 20
-42.89176
 30
0.0
 40
0.050625
  1
AASHTO DESIGNATIONS M180.
 41
0.9
  7
Style-Arial
100
AcDbText
  0
TEXT
  5
1F9
330
525
100
AcDbEntity
  8
LEGEND
  6
Continuous
 62
     7
370
    13
100
AcDbText
 10
87.574344
 20
-43.053677
 30
0.0
 40
0.050625
  1
ALL POSTS SPACING TO BE 6'-3" c-c.
 41
0.9
  7
Style-Arial
100
AcDbText
  0
TEXT
  5
1FA
330
525
100
AcDbEntity
  8
LEGEND
  6
Continuous
 62
     7
370
    13
100
AcDbText
 10
87.574344
 20
-43.215594
 30
0.0
 40
0.050625
  1
WOOD POSTS TO BE PRESSURE TREATED TERMINAL TREATMENT
 41
0.9
  7
Style-Arial
100
AcDbText
  0
TEXT
  5
1FB
330
525
100
AcDbEntity
  8
LEGEND
  6
Continuous
 62
     7
370
    13
100
AcDbText
 10
87.574344
 20
-43.296552
 30
0.0
 40
0.050625
  1
SHOWN ON FIGURE 2-30n TO BE USED ALL TERMINAL ON
 41
0.9
  7
Style-Arial
100
AcDbText
  0
TEXT
  5
1FC
330
525
100
AcDbEntity
  8
LEGEND
  6
Continuous
 62
     7
370
    13
100
AcDbText
 10
87.574344
 20
-43.37751
 30
0.0
 40
0.050625
  1
MEDIAN BARRIER INSTALLATIONS.
 41
0.9
  7
Style-Arial
100
AcDbText
  0
TEXT
  5
1FD
330
525
100
AcDbEntity
  8
LEGEND
  6
Continuous
 62
     7
370
    13
100
AcDbText
 10
87.574344
 20
-43.539427
 30
0.0
 40
0.050625
  1
THE GUARD RAIL COMPONENTS DEPICTED IN A.R.B.A.
 41
0.9
  7
Style-Arial
100
AcDbText
  0
TEXT
  5
1FE
330
525
100
AcDbEntity
  8
LEGEND
  6
Continuous
 62
     7
370
    13
100
AcDbText
 10
87.574344
 20
-43.620385
 30
0.0
 40
0.050625
  1
TECHNICAL BULLETIN NUMBER 268 MAY BE SUBSTITUTED
 41
0.9
  7
Style-Arial
100
AcDbText
  0
TEXT
  5
1FF
330
525
100
AcDbEntity
  8
LEGEND
  6
Continuous
 62
     7
370
    13
100
AcDbText
 10
87.574344
 20
-43.701344
 30
0.0
 40
0.050625
  1
IN INTERCHANGEABLE WITH THIS STANDARD AND IF APPROVED
 41
0.9
  7
Style-Arial
100
AcDbText
  0
TEXT
  5
200
330
525
100
AcDbEntity
  8
LEGEND
  6
Continuous
 62
     7
370
    13
100
AcDbText
 10
87.574344
 20
-43.782302
 30
0.0
 40
0.050625
  1
BY THE ENGINEER.
 41
0.9
  7
Style-Arial
100
AcDbText
  0
TEXT
  5
201
330
525
100
AcDbEntity
  8
LEGEND
  6
Continuous
 62
     7
370
    13
100
AcDbText
 10
87.574344
 20
-43.944219
 30
0.0
 40
0.050625
  1
HOLES IN POSTS AND OFFSET BRACKETS MAY BE
 41
0.9
  7
Style-Arial
100
AcDbText
  0
TEXT
  5
202
330
525
100
AcDbEntity
  8
LEGEND
  6
Continuous
 62
     7
370
    13
100
AcDbText
 10
87.574344
 20
-44.025177
 30
0.0
 40
0.050625
  1
È1/16" OF INDICATED DIMENSIONS. 
 41
0.9
  7
Style-Arial
100
AcDbText
  0
TEXT
  5
203
330
525
100
AcDbEntity
  8
LEGEND
  6
Continuous
 62
     7
370
    13
100
AcDbText
 10
87.574344
 20
-44.187094
 30
0.0
 40
0.050625
  1
BASIS OF PAYMENT TO BE PER LINEAR FOOT OF RADAIL
 41
0.9
  7
Style-Arial
100
AcDbText
  0
TEXT
  5
204
330
525
100
AcDbEntity
  8
LEGEND
  6
Continuous
 62
     7
370
    13
100
AcDbText
 10
87.574344
 20
-44.268052
 30
0.0
 40
0.050625
  1
STEEL BEAM MEDIAN BARRIER COMPLETE IN PLACE AND
 41
0.9
  7
Style-Arial
100
AcDbText
  0
TEXT
  5
205
330
525
100
AcDbEntity
  8
LEGEND
  6
Continuous
 62
     7
370
    13
100
AcDbText
 10
87.574344
 20
-44.349021
 30
0.0
 40
0.050625
  1
IS TO INCLUDE THE FURNISHING AND PLACING OF ALL 
 41
0.9
  7
Style-Arial
100
AcDbText
  0
TEXT
  5
206
330
525
100
AcDbEntity
  8
LEGEND
  6
Continuous
 62
     7
370
    13
100
AcDbText
 10
87.574344
 20
-44.429969
 30
0.0
 40
0.050625
  1
COMPONENTS DETAILED HEREON.
 41
0.9
  7
Style-Arial
100
AcDbText
  0
TEXT
  5
208
330
525
100
AcDbEntity
  8
TEXT
  6
Continuous
 62
     7
370
    13
100
AcDbText
 10
88.053656
 20
-40.076187
 30
0.0
 40
0.050625
  1
ALL HOLES IN POST
 41
0.9
  7
Style-Arial
100
AcDbText
  0
TEXT
  5
209
330
525
100
AcDbEntity
  8
LEGEND
  6
Continuous
 62
     7
370
    13
100
AcDbText
 10
86.316486
 20
-41.04224
 30
0.0
 40
0.050625
  1
BRACKETS SEE FIGURE 3-32g
 41
0.9
  7
Style-Arial
100
AcDbText
  0
TEXT
  5
20A
330
525
100
AcDbEntity
  8
LEGEND
  6
Continuous
 62
     7
370
    13
100
AcDbText
 10
86.101115
 20
-40.949531
 30
0.0
 40
0.050625
  1
NOTE: FOR DETAIL OF ALTERNATE STEEL AND OFFSET
 41
0.9
  7
Style-Arial
100
AcDbText
  0
TEXT
  5
20B
330
525
100
AcDbEntity
  8
TEXT
  6
Continuous
 62
     7
370
    13
100
AcDbText
 10
81.007219
 20
-38.416719
 30
0.0
 40
0.050625
  1
3/4" HOLES TO BE CAST IN POST
 41
0.9
  7
Style-Arial
100
AcDbText
  0
TEXT
  5
20C
330
525
100
AcDbEntity
  8
TEXT
  6
Continuous
 62
     7
370
    13
100
AcDbText
 10
81.007219
 20
-38.33576
 30
0.0
 40
0.050625
  1
1/2"(È1/4") CHAMFER ALL CORNERS
 41
0.9
  7
Style-Arial
100
AcDbText
  0
TEXT
  5
20D
330
525
100
AcDbEntity
  8
TEXT
  6
Continuous
 62
     7
370
    13
100
AcDbText
 10
81.007219
 20
-38.254802
 30
0.0
 40
0.050625
  1
ALL CONCRETE TO BE CLASS A3
 41
0.9
  7
Style-Arial
100
AcDbText
  0
TEXT
  5
20E
330
525
100
AcDbEntity
  8
TEXT
  6
Continuous
 62
     7
370
    13
100
AcDbText
 10
81.010885
 20
-40.314615
 30
0.0
 40
0.050625
  1
ACCEPTABLE TOLERANCES
 41
0.9
  7
Style-Arial
100
AcDbText
  0
TEXT
  5
20F
330
525
100
AcDbEntity
  8
TEXT
  6
Continuous
 62
     7
370
    13
100
AcDbText
 10
81.010885
 20
-40.233625
 30
0.0
 40
0.050625
  1
PARENTHESIS INDICATE
 41
0.9
  7
Style-Arial
100
AcDbText
  0
TEXT
  5
210
330
525
100
AcDbEntity
  8
TEXT
  6
Continuous
 62
     7
370
    13
100
AcDbText
 10
81.010885
 20
-40.152635
 30
0.0
 40
0.050625
  1
DIMENSIONS SHOWN IN
 41
0.9
  7
Style-Arial
100
AcDbText
  0
TEXT
  5
211
330
525
100
AcDbEntity
  8
TEXT
  6
Continuous
 62
     7
370
    13
100
AcDbText
 10
84.521698
 20
-41.019354
 30
0.0
 40
0.050625
  1
GALVANIZING
 41
0.9
  7
Style-Arial
100
AcDbText
  0
TEXT
  5
212
330
525
100
AcDbEntity
  8
TEXT
  6
Continuous
 62
     7
370
    13
100
AcDbText
 10
84.521698
 20
-40.938396
 30
0.0
 40
0.050625
  1
TO FACILITATE
 41
0.9
  7
Style-Arial
100
AcDbText
  0
TEXT
  5
213
330
525
100
AcDbEntity
  8
TEXT
  6
Continuous
 62
     7
370
    13
100
AcDbText
 10
84.521698
 20
-40.857437
 30
0.0
 40
0.050625
  1
OPTIONAL HOLE
 41
0.9
  7
Style-Arial
100
AcDbText
  0
TEXT
  5
214
330
525
100
AcDbEntity
  8
TEXT
  6
Continuous
 62
     7
370
    13
100
AcDbText
 10
85.519094
 20
-40.04275
 30
0.0
 40
0.050625
  1
W6x 8.5
 41
0.9
  7
Style-Arial
100
AcDbText
  0
TEXT
  5
215
330
525
100
AcDbEntity
  8
TEXT
  6
Continuous
 62
     7
370
    13
100
AcDbText
 10
85.56126
 20
-39.593021
 30
0.0
 40
0.050625
  1
W6x 8.5
 41
0.9
  7
Style-Arial
100
AcDbText
  0
TEXT
  5
216
330
525
100
AcDbEntity
  8
TEXT
  6
Continuous
 62
     7
370
    13
100
AcDbText
 10
85.56126
 20
-39.512062
 30
0.0
 40
0.050625
  1
W8x 10 OR
 41
0.9
  7
Style-Arial
100
AcDbText
  0
TEXT
  5
217
330
525
100
AcDbEntity
  8
TEXT
  6
Continuous
 62
     7
370
    13
100
AcDbText
 10
87.033906
 20
-40.011625
 30
0.0
 40
0.050625
  1
BRACKETS TO BE 3/4"
 41
0.9
  7
Style-Arial
100
AcDbText
  0
TEXT
  5
218
330
525
100
AcDbEntity
  8
TEXT
  6
Continuous
 62
     7
370
    13
100
AcDbText
 10
87.033906
 20
-39.930667
 30
0.0
 40
0.050625
  1
HOLES IN POST, AND
 41
0.9
  7
Style-Arial
100
AcDbText
  0
TEXT
  5
219
330
525
100
AcDbEntity
  8
TEXT
  6
Continuous
 62
     7
370
    13
100
AcDbText
 10
86.337646
 20
-40.788125
 30
0.0
 40
0.050625
  1
IN ACCORDANCE WITH SPECIFICATIONS
 41
0.9
  7
Style-Arial
100
AcDbText
  0
TEXT
  5
21A
330
525
100
AcDbEntity
  8
TEXT
  6
Continuous
 62
     7
370
    13
100
AcDbText
 10
86.337646
 20
-40.707156
 30
0.0
 40
0.050625
  1
POSTS AND BRACKETS TO BE GALVANIZED
 41
0.9
  7
Style-Arial
100
AcDbText
  0
TEXT
  5
21B
330
525
100
AcDbEntity
  8
TEXT
  6
Continuous
 62
     7
370
    13
100
AcDbText
 10
86.301896
 20
-38.357469
 30
0.0
 40
0.050625
  1
HAND.
 41
0.9
  7
Style-Arial
100
AcDbText
  0
TEXT
  5
21C
330
525
100
AcDbEntity
  8
TEXT
  6
Continuous
 62
     7
370
    13
100
AcDbText
 10
86.301896
 20
-38.27651
 30
0.0
 40
0.050625
  1
OF POST HOLES MAY BE OPPOSITE
 41
0.9
  7
Style-Arial
100
AcDbText
  0
TEXT
  5
21D
330
525
100
AcDbEntity
  8
TEXT
  6
Continuous
 62
     7
370
    13
100
AcDbText
 10
86.301896
 20
-38.195552
 30
0.0
 40
0.050625
  1
BRACKET TO MATCH THOSE IN FRONT
 41
0.9
  7
Style-Arial
100
AcDbText
  0
TEXT
  5
21E
330
525
100
AcDbEntity
  8
TEXT
  6
Continuous
 62
     7
370
    13
100
AcDbText
 10
86.301896
 20
-38.114594
 30
0.0
 40
0.050625
  1
CENTERS OF HOLES IN BACK OF
 41
0.9
  7
Style-Arial
100
AcDbText
  0
TEXT
  5
238
330
525
100
AcDbEntity
  8
DIM
  6
Continuous
 62
     7
370
    13
100
AcDbText
 10
84.946885
 20
-38.29174
 30
0.0
 40
0.050625
  1
6" OR
 41
0.9
  7
Style-Arial
100
AcDbText
  0
TEXT
  5
29E
330
525
100
AcDbEntity
  8
DIM
  6
Continuous
 62
     7
370
    13
100
AcDbText
 10
85.263042
 20
-38.316302
 30
0.0
 40
0.050625
  1
6"
 41
0.9
  7
Style-Arial
100
AcDbText
  0
TEXT
  5
29F
330
525
100
AcDbEntity
  8
DIM
  6
Continuous
 62
     7
370
    13
100
AcDbText
 10
85.003438
 20
-38.412042
 30
0.0
 40
0.050625
  1
8"
 41
0.9
  7
Style-Arial
100
AcDbText
  0
TEXT
  5
2A7
330
525
100
AcDbEntity
  8
DIM
  6
Continuous
 62
     7
370
    13
100
AcDbText
 10
84.82999
 20
-38.316302
 30
0.0
 40
0.050625
  1
3"
 41
0.9
  7
Style-Arial
100
AcDbText
  0
TEXT
  5
2EA
330
525
100
AcDbEntity
  8
DIM
  6
Continuous
 62
     7
370
    13
100
AcDbText
 10
83.115146
 20
-38.293823
 30
0.0
 40
0.050625
  1
8"
 41
0.9
  7
Style-Arial
100
AcDbText
  0
TEXT
  5
2EB
330
525
100
AcDbEntity
  8
DIM
  6
Continuous
 62
     7
370
    13
100
AcDbText
 10
82.865458
 20
-38.293823
 30
0.0
 40
0.050625
  1
8"
 41
0.9
  7
Style-Arial
100
AcDbText
  0
TEXT
  5
2F3
330
525
100
AcDbEntity
  8
DIM
  6
Continuous
 62
     7
370
    13
100
AcDbText
 10
82.658333
 20
-38.300573
 30
0.0
 40
0.050625
  1
3"
 41
0.9
  7
Style-Arial
100
AcDbText
  0
TEXT
  5
2F9
330
525
100
AcDbEntity
  8
DIM
  6
Continuous
 62
     7
370
    13
100
AcDbText
 10
83.773927
 20
-38.590688
 30
0.0
 40
0.050625
  1
6"
 50
90.0
 41
0.9
  7
Style-Arial
100
AcDbText
  0
TEXT
  5
300
330
525
100
AcDbEntity
  8
DIM
  6
Continuous
 62
     7
370
    13
100
AcDbText
 10
88.148771
 20
-39.521771
 30
0.0
 40
0.050625
  1
2'-3"
 50
90.0
 41
0.9
  7
Style-Arial
100
AcDbText
  0
TEXT
  5
304
330
525
100
AcDbEntity
  8
DIM
  6
Continuous
 62
     7
370
    13
100
AcDbText
 10
89.654375
 20
-38.59374
 30
0.0
 40
0.050625
  1
6"
 50
90.0
 41
0.9
  7
Style-Arial
100
AcDbText
  0
TEXT
  5
30A
330
525
100
AcDbEntity
  8
DIM
  6
Continuous
 62
     7
370
    13
100
AcDbText
 10
88.52124
 20
-38.314781
 30
0.0
 40
0.050625
  1
3"
 41
0.9
  7
Style-Arial
100
AcDbText
  0
TEXT
  5
312
330
525
100
AcDbEntity
  8
DIM
  6
Continuous
 62
     7
370
    13
100
AcDbText
 10
88.711167
 20
-38.314781
 30
0.0
 40
0.050625
  1
8"
 41
0.9
  7
Style-Arial
100
AcDbText
  0
TEXT
  5
313
330
525
100
AcDbEntity
  8
DIM
  6
Continuous
 62
     7
370
    13
100
AcDbText
 10
88.980198
 20
-38.314781
 30
0.0
 40
0.050625
  1
8"
 41
0.9
  7
Style-Arial
100
AcDbText
  0
TEXT
  5
32E
330
525
100
AcDbEntity
  8
TEXT
  6
Continuous
 62
     7
370
    13
100
AcDbText
 10
83.398604
 20
-39.548573
 30
0.0
 40
0.050625
  1
9-3 GA
 41
0.9
  7
Style-Arial
100
AcDbText
  0
TEXT
  5
32F
330
525
100
AcDbEntity
  8
TEXT
  6
Continuous
 62
     7
370
    13
100
AcDbText
 10
83.398604
 20
-39.629531
 30
0.0
 40
0.050625
  1
WIRE STIRRUPS
 41
0.9
  7
Style-Arial
100
AcDbText
  0
TEXT
  5
330
330
525
100
AcDbEntity
  8
TEXT
  6
Continuous
 62
     7
370
    13
100
AcDbText
 10
83.398604
 20
-39.71049
 30
0.0
 40
0.050625
  1
LAPPED 10"
 41
0.9
  7
Style-Arial
100
AcDbText
  0
TEXT
  5
331
330
525
100
AcDbEntity
  8
TEXT
  6
Continuous
 62
     7
370
    13
100
AcDbText
 10
83.398604
 20
-39.791448
 30
0.0
 40
0.050625
  1
SPACING VARIES 5"
 41
0.9
  7
Style-Arial
100
AcDbText
  0
TEXT
  5
332
330
525
100
AcDbEntity
  8
TEXT
  6
Continuous
 62
     7
370
    13
100
AcDbText
 10
83.398604
 20
-39.872406
 30
0.0
 40
0.050625
  1
TO 1'-0"c-c
 41
0.9
  7
Style-Arial
100
AcDbText
  0
TEXT
  5
333
330
525
100
AcDbEntity
  8
TEXT
  6
Continuous
 62
     7
370
    13
100
AcDbText
 10
81.006115
 20
-39.071438
 30
0.0
 40
0.050625
  1
4 NO. 4 DEFORMED
 41
0.9
  7
Style-Arial
100
AcDbText
  0
TEXT
  5
334
330
525
100
AcDbEntity
  8
TEXT
  6
Continuous
 62
     7
370
    13
100
AcDbText
 10
81.006115
 20
-39.152396
 30
0.0
 40
0.050625
  1
REINF BARS 4" LESS
 41
0.9
  7
Style-Arial
100
AcDbText
  0
TEXT
  5
335
330
525
100
AcDbEntity
  8
TEXT
  6
Continuous
 62
     7
370
    13
100
AcDbText
 10
81.006115
 20
-39.233354
 30
0.0
 40
0.050625
  1
THAN HEIGHT OF POST
 41
0.9
  7
Style-Arial
100
AcDbText
  0
TEXT
  5
336
330
525
100
AcDbEntity
  8
TEXT
  6
Continuous
 62
     7
370
    13
100
AcDbText
 10
81.005562
 20
-39.546979
 30
0.0
 40
0.050625
  1
CHAMFER MAY BE
 41
0.9
  7
Style-Arial
100
AcDbText
  0
TEXT
  5
337
330
525
100
AcDbEntity
  8
TEXT
  6
Continuous
 62
     7
370
    13
100
AcDbText
 10
81.005562
 20
-39.627938
 30
0.0
 40
0.050625
  1
EXTENDED ENTIRE
 41
0.9
  7
Style-Arial
100
AcDbText
  0
TEXT
  5
338
330
525
100
AcDbEntity
  8
TEXT
  6
Continuous
 62
     7
370
    13
100
AcDbText
 10
81.005562
 20
-39.708896
 30
0.0
 40
0.050625
  1
LENGTH OF POST AT
 41
0.9
  7
Style-Arial
100
AcDbText
  0
TEXT
  5
342
330
525
100
AcDbEntity
  8
DIM
  6
Continuous
 62
     7
370
    13
100
AcDbText
 10
83.138896
 20
-40.688938
 30
0.0
 40
0.050625
  1
3"
 50
90.0
 41
0.9
  7
Style-Arial
100
AcDbText
  0
TEXT
  5
34B
330
525
100
AcDbEntity
  8
TEXT
  6
Continuous
 62
     7
370
    13
100
AcDbText
 10
82.73036
 20
-39.516729
 30
0.0
 40
0.050625
  1
1" CL
 41
0.9
  7
Style-Arial
100
AcDbText
  0
TEXT
  5
34C
330
525
100
AcDbEntity
  8
TEXT
  6
Continuous
 62
     7
370
    13
100
AcDbText
 10
89.190771
 20
-39.749771
 30
0.0
 40
0.050625
  1
& 2 WASHERS
 41
0.9
  7
Style-Arial
100
AcDbText
  0
TEXT
  5
34D
330
525
100
AcDbEntity
  8
TEXT
  6
Continuous
 62
     7
370
    13
100
AcDbText
 10
89.190771
 20
-39.668813
 30
0.0
 40
0.050625
  1
5/8"x26" BOLT
 41
0.9
  7
Style-Arial
100
AcDbText
  0
TEXT
  5
363
330
525
100
AcDbEntity
  8
DIM
  6
Continuous
 62
     7
370
    13
100
AcDbText
 10
89.254948
 20
-38.314781
 30
0.0
 40
0.050625
  1
8"
 41
0.9
  7
Style-Arial
100
AcDbText
  0
TEXT
  5
368
330
525
100
AcDbEntity
  8
DIM
  6
Continuous
 62
     7
370
    13
100
AcDbText
 10
89.437312
 20
-38.314781
 30
0.0
 40
0.050625
  1
3"
 41
0.9
  7
Style-Arial
100
AcDbText
  0
TEXT
  5
36C
330
525
100
AcDbEntity
  8
TEXT
  6
Continuous
 62
     7
370
    13
100
AcDbText
 10
89.190771
 20
-39.570615
 30
0.0
 40
0.050625
  1
PINE BLOCKS.
 41
0.9
  7
Style-Arial
100
AcDbText
  0
TEXT
  5
36D
330
525
100
AcDbEntity
  8
TEXT
  6
Continuous
 62
     7
370
    13
100
AcDbText
 10
89.190771
 20
-39.48924
 30
0.0
 40
0.050625
  1
8"x6"x1'-1" TREATED
 41
0.9
  7
Style-Arial
100
AcDbText
  0
TEXT
  5
378
330
525
100
AcDbEntity
  8
DIM
  6
Continuous
 62
     7
370
    13
100
AcDbText
 10
88.003698
 20
-39.886777
 30
0.0
 40
0.050625
  1
5'-9" MIN
 50
90.0
 41
0.9
  7
Style-Arial
100
AcDbText
  0
TEXT
  5
37D
330
525
100
AcDbEntity
  8
DIM
  6
Continuous
 62
     7
370
    13
100
AcDbText
 10
88.303979
 20
-39.638768
 30
0.0
 40
0.050625
  1
1'-8-1/2"
 50
90.0
 41
0.9
  7
Style-Arial
100
AcDbText
  0
TEXT
  5
37E
330
525
100
AcDbEntity
  8
TEXT
  6
Continuous
 62
     7
370
    13
100
AcDbText
 10
88.053656
 20
-40.158375
 30
0.0
 40
0.050625
  1
TO BE 3/4" DIAMETER
 41
0.9
  7
Style-Arial
100
AcDbText
  0
TEXT
  5
37F
330
525
100
AcDbEntity
  8
DIM
  6
Continuous
 62
     7
370
    13
100
AcDbText
 10
84.618448
 20
-39.622064
 30
0.0
 40
0.050625
  1
1'-8-1/2"
 50
90.0
 41
0.9
  7
Style-Arial
100
AcDbText
  0
TEXT
  5
389
330
525
100
AcDbEntity
  8
DIM
  6
Continuous
 62
     7
370
    13
100
AcDbText
 10
84.46324
 20
-39.514135
 30
0.0
 40
0.050625
  1
2'-3"
 50
90.0
 41
0.9
  7
Style-Arial
100
AcDbText
  0
TEXT
  5
38C
330
525
100
AcDbEntity
  8
DIM
  6
Continuous
 62
     7
370
    13
100
AcDbText
 10
84.318167
 20
-39.981917
 30
0.0
 40
0.050625
  1
5'-9" MIN
 50
90.0
 41
0.9
  7
Style-Arial
100
AcDbText
  0
TEXT
  5
393
330
525
100
AcDbEntity
  8
DIM
  6
Continuous
 62
     7
370
    13
100
AcDbText
 10
82.139708
 20
-39.776367
 30
0.0
 40
0.050625
  1
5'-9" MIN
 50
90.0
 41
0.9
  7
Style-Arial
100
AcDbText
  0
TEXT
  5
398
330
525
100
AcDbEntity
  8
DIM
  6
Continuous
 62
     7
370
    13
100
AcDbText
 10
82.284781
 20
-39.45368
 30
0.0
 40
0.050625
  1
2'-3"
 50
90.0
 41
0.9
  7
Style-Arial
100
AcDbText
  0
TEXT
  5
3A0
330
525
100
AcDbEntity
  8
DIM
  6
Continuous
 62
     7
370
    13
100
AcDbText
 10
82.43999
 20
-39.622064
 30
0.0
 40
0.050625
  1
1'-8-1/2"
 50
90.0
 41
0.9
  7
Style-Arial
100
AcDbText
  0
TEXT
  5
3C3
330
525
100
AcDbEntity
  8
DIM
  6
Continuous
 62
     7
370
    13
100
AcDbText
 10
86.71525
 20
-38.881302
 30
0.0
 40
0.050625
  1
9"
 50
90.0
 41
0.9
  7
Style-Arial
100
AcDbText
  0
TEXT
  5
3CA
330
525
100
AcDbEntity
  8
DIM
  6
Continuous
 62
     7
370
    13
100
AcDbText
 10
86.670646
 20
-38.49251
 30
0.0
 40
0.050625
  1
2"
 50
90.0
 41
0.9
  7
Style-Arial
100
AcDbText
  0
TEXT
  5
3D0
330
525
100
AcDbEntity
  8
DIM
  6
Continuous
 62
     7
370
    13
100
AcDbText
 10
87.759906
 20
-38.945552
 30
0.0
 40
0.050625
  1
6-1/2"
 50
90.0
 41
0.9
  7
Style-Arial
100
AcDbText
  0
TEXT
  5
3DA
330
525
100
AcDbEntity
  8
TEXT
  6
Continuous
 62
     7
370
    13
100
AcDbText
 10
87.033906
 20
-40.092448
 30
0.0
 40
0.050625
  1
DIAMETER
 41
0.9
  7
Style-Arial
100
AcDbText
  0
TEXT
  5
405
330
525
100
AcDbEntity
  8
DIM
  6
Continuous
 62
     7
370
    13
100
AcDbText
 10
85.492167
 20
-38.412042
 30
0.0
 40
0.050625
  1
8"
 41
0.9
  7
Style-Arial
100
AcDbText
  0
TEXT
  5
406
330
525
100
AcDbEntity
  8
DIM
  6
Continuous
 62
     7
370
    13
100
AcDbText
 10
85.41699
 20
-38.29174
 30
0.0
 40
0.050625
  1
6" OR
 41
0.9
  7
Style-Arial
100
AcDbText
  0
TEXT
  5
407
330
525
100
AcDbEntity
  8
DIM
  6
Continuous
 62
     7
370
    13
100
AcDbText
 10
85.681167
 20
-38.316302
 30
0.0
 40
0.050625
  1
3"
 41
0.9
  7
Style-Arial
100
AcDbText
  0
TEXT
  5
431
330
525
100
AcDbEntity
  8
DIM
  6
Continuous
 62
     7
370
    13
100
AcDbText
 10
85.905781
 20
-39.16999
 30
0.0
 40
0.050625
  1
1'-1"
 50
90.0
 41
0.9
  7
Style-Arial
100
AcDbText
  0
TEXT
  5
436
330
525
100
AcDbEntity
  8
TEXT
  6
Continuous
 62
     7
370
    13
100
AcDbText
 10
85.422062
 20
-38.832625
 30
0.0
 40
0.050625
  1
5/8"x2" MACHINE BOLT
 41
0.9
  7
Style-Arial
100
AcDbText
  0
TEXT
  5
43E
330
525
100
AcDbEntity
  8
TEXT
  6
Continuous
 62
     7
370
    13
100
AcDbText
 10
84.303037
 20
-38.824698
 30
0.0
 40
0.050625
  1
5/8"x2" BOLT & WASHER
 41
0.9
  7
Style-Arial
100
AcDbText
  0
TEXT
  5
44F
330
525
100
AcDbEntity
  8
TEXT
  6
Continuous
 62
     7
370
    13
100
AcDbText
 10
89.355823
 20
-40.142865
 30
0.0
 40
0.050625
  1
SOUTHERN
 41
0.9
  7
Style-Arial
100
AcDbText
  0
TEXT
  5
450
330
525
100
AcDbEntity
  8
TEXT
  6
Continuous
 62
     7
370
    13
100
AcDbText
 10
89.355823
 20
-40.222802
 30
0.0
 40
0.050625
  1
PINE
 41
0.9
  7
Style-Arial
100
AcDbText
  0
TEXT
  5
461
330
525
100
AcDbEntity
  8
DIM
  6
Continuous
 62
     7
370
    13
100
AcDbText
 10
83.385531
 20
-38.293823
 30
0.0
 40
0.050625
  1
8"
 41
0.9
  7
Style-Arial
100
AcDbText
  0
TEXT
  5
462
330
525
100
AcDbEntity
  8
DIM
  6
Continuous
 62
     7
370
    13
100
AcDbText
 10
83.579844
 20
-38.314312
 30
0.0
 40
0.050625
  1
3"
 41
0.9
  7
Style-Arial
100
AcDbText
  0
TEXT
  5
46C
330
525
100
AcDbEntity
  8
TEXT
  6
Continuous
 62
     7
370
    13
100
AcDbText
 10
83.37751
 20
-40.867833
 30
0.0
 40
0.050625
  1
MEDIAN
 41
0.9
  7
Style-Arial
100
AcDbText
  0
TEXT
  5
46D
330
525
100
AcDbEntity
  8
TEXT
  6
Continuous
 62
     7
370
    13
100
AcDbText
 10
83.37751
 20
-40.793677
 30
0.0
 40
0.050625
  1
DEPRESSED
 41
0.9
  7
Style-Arial
100
AcDbText
  0
TEXT
  5
46E
330
525
100
AcDbEntity
  8
TEXT
  6
Continuous
 62
     7
370
    13
100
AcDbText
 10
83.37751
 20
-40.68674
 30
0.0
 40
0.050625
  1
SECTION
 41
0.9
  7
Style-Arial
100
AcDbText
  0
TEXT
  5
46F
330
525
100
AcDbEntity
  8
TEXT
  6
Continuous
 62
     7
370
    13
100
AcDbText
 10
83.37751
 20
-40.612594
 30
0.0
 40
0.050625
  1
HALF
 41
0.9
  7
Style-Arial
100
AcDbText
  0
TEXT
  5
470
330
525
100
AcDbEntity
  8
TEXT
  6
Continuous
 62
     7
370
    13
100
AcDbText
 10
82.066187
 20
-40.592094
 30
0.0
 40
0.050625
  1
RAISED MEDIAN
 41
0.9
  7
Style-Arial
100
AcDbText
  0
TEXT
  5
471
330
525
100
AcDbEntity
  8
TEXT
  6
Continuous
 62
     7
370
    13
100
AcDbText
 10
82.066187
 20
-40.517938
 30
0.0
 40
0.050625
  1
HALF SECTION
 41
0.9
  7
Style-Arial
100
AcDbText
  0
TEXT
  5
479
330
525
100
AcDbEntity
  8
DIM
  6
Continuous
 62
     7
370
    13
100
AcDbText
 10
83.802333
 20
-39.179058
 30
0.0
 40
0.050625
  1
1'-1"
 50
90.0
 41
0.9
  7
Style-Arial
100
AcDbText
  0
TEXT
  5
47F
330
525
100
AcDbEntity
  8
TEXT
  6
Continuous
 62
     7
370
    13
100
AcDbText
 10
81.005562
 20
-39.871948
 30
0.0
 40
0.050625
  1
FABRICATOR
 41
0.9
  7
Style-Arial
100
AcDbText
  0
TEXT
  5
480
330
525
100
AcDbEntity
  8
TEXT
  6
Continuous
 62
     7
370
    13
100
AcDbText
 10
81.005562
 20
-39.791
 30
0.0
 40
0.050625
  1
THE OPTION OF THE
 41
0.9
  7
Style-Arial
100
AcDbText
  0
TEXT
  5
481
330
525
100
AcDbEntity
  8
TEXT
  6
Continuous
 62
     7
370
    13
100
AcDbText
 10
82.886615
 20
-38.77575
 30
0.0
 40
0.050625
  1
6"x8"x1'-1" TREATED
 41
0.9
  7
Style-Arial
100
AcDbText
  0
TEXT
  5
482
330
525
100
AcDbEntity
  8
TEXT
  6
Continuous
 62
     7
370
    13
100
AcDbText
 10
82.886615
 20
-38.857115
 30
0.0
 40
0.050625
  1
PINE BLOCKS.
 41
0.9
  7
Style-Arial
100
AcDbText
  0
TEXT
  5
483
330
525
100
AcDbEntity
  8
TEXT
  6
Continuous
 62
     7
370
    13
100
AcDbText
 10
81.934442
 20
-38.747094
 30
0.0
 40
0.050625
  1
5/8"x26" BOLT
 41
0.9
  7
Style-Arial
100
AcDbText
  0
TEXT
  5
484
330
525
100
AcDbEntity
  8
TEXT
  6
Continuous
 62
     7
370
    13
100
AcDbText
 10
81.928399
 20
-38.828052
 30
0.0
 40
0.050625
  1
& 2 WASHERS
 41
0.9
  7
Style-Arial
100
AcDbText
  0
TEXT
  5
4A9
330
525
100
AcDbEntity
  8
TEXT
  6
Continuous
 62
     7
370
    13
100
AcDbText
 10
84.50774
 20
-40.592135
 30
0.0
 40
0.050625
  1
HALF SECTION
 41
0.9
  7
Style-Arial
100
AcDbText
  0
TEXT
  5
4AA
330
525
100
AcDbEntity
  8
TEXT
  6
Continuous
 62
     7
370
    13
100
AcDbText
 10
84.50774
 20
-40.666292
 30
0.0
 40
0.050625
  1
RAISED MEDIAN
 41
0.9
  7
Style-Arial
100
AcDbText
  0
TEXT
  5
4AB
330
525
100
AcDbEntity
  8
TEXT
  6
Continuous
 62
     7
370
    13
100
AcDbText
 10
85.46049
 20
-40.612594
 30
0.0
 40
0.050625
  1
HALF
 41
0.9
  7
Style-Arial
100
AcDbText
  0
TEXT
  5
4AC
330
525
100
AcDbEntity
  8
TEXT
  6
Continuous
 62
     7
370
    13
100
AcDbText
 10
85.46049
 20
-40.68674
 30
0.0
 40
0.050625
  1
SECTION
 41
0.9
  7
Style-Arial
100
AcDbText
  0
TEXT
  5
4AD
330
525
100
AcDbEntity
  8
TEXT
  6
Continuous
 62
     7
370
    13
100
AcDbText
 10
85.46049
 20
-40.793677
 30
0.0
 40
0.050625
  1
DEPRESSED
 41
0.9
  7
Style-Arial
100
AcDbText
  0
TEXT
  5
4AE
330
525
100
AcDbEntity
  8
TEXT
  6
Continuous
 62
     7
370
    13
100
AcDbText
 10
85.46049
 20
-40.867833
 30
0.0
 40
0.050625
  1
MEDIAN
 41
0.9
  7
Style-Arial
100
AcDbText
  0
TEXT
  5
4AF
330
525
100
AcDbEntity
  8
DIM
  6
Continuous
 62
     7
370
    13
100
AcDbText
 10
82.284562
 20
-42.252292
 30
0.0
 40
0.050625
  1
8
 41
0.9
  7
Style-Arial
100
AcDbText
  0
TEXT
  5
4B0
330
525
100
AcDbEntity
  8
HATCH
  6
Continuous
 62
     7
370
    13
100
AcDbText
 10
81.012686
 20
-44.478042
 30
0.0
 40
0.050625
  1
REFERENCE:  FOR MORE INFORMATION ON GUARD RAILS
 41
0.9
  7
Style-Arial
100
AcDbText
  0
TEXT
  5
4B1
330
525
100
AcDbEntity
  8
TEXT
  6
Continuous
 62
     7
370
    13
100
AcDbText
 10
83.409958
 20
-40.08725
 30
0.0
 40
0.050625
  1
1/ " CHAMFER
 41
0.9
  7
Style-Arial
100
AcDbText
  0
TEXT
  5
4B2
330
525
100
AcDbEntity
  8
TEXT
  6
Continuous
 62
     7
370
    13
100
AcDbText
 10
83.407677
 20
-40.160677
 30
0.0
 40
0.050625
  1
ON TOP 3'-0"
 41
0.9
  7
Style-Arial
100
AcDbText
  0
TEXT
  5
4B3
330
525
100
AcDbEntity
  8
TEXT
  6
Continuous
 62
     7
370
    13
100
AcDbText
 10
83.485448
 20
-40.239979
 30
0.0
 40
0.050625
  1
OF POST
 41
0.9
  7
Style-Arial
100
AcDbText
  0
TEXT
  5
4B4
330
525
100
AcDbEntity
  8
TEXT
  6
Continuous
 62
     7
370
    13
100
AcDbText
 10
83.483167
 20
-40.08725
 30
0.0
 40
0.050625
  1
2
 41
0.9
  7
Style-Arial
100
AcDbText
  0
TEXT
  5
339
330
525
100
AcDbEntity
  8
TITLE
  6
Continuous
 62
     7
370
    13
100
AcDbText
 10
82.381464
 20
-41.250392
 30
0.0
 40
0.113906
  1
WITH CONRETE POST
 41
0.9
  7
Style-Arial
100
AcDbText
  0
TEXT
  5
21F
330
525
100
AcDbEntity
  8
DIM
  6
Continuous
 62
     7
370
    13
100
AcDbText
 10
84.481266
 20
-41.234649
 30
0.0
 40
0.113906
  1
WITH STEEL POST
 41
0.9
  7
Style-Arial
100
AcDbText
  0
TEXT
  5
33A
330
525
100
AcDbEntity
  8
TITLE
  6
Continuous
 62
     7
370
    13
100
AcDbText
 10
88.126935
 20
-41.212135
 30
0.0
 40
0.113906
  1
WITH WOOD POST
 41
0.9
  7
Style-Arial
100
AcDbText
  0
TEXT
  5
207
330
525
100
AcDbEntity
  8
LEGEND
  6
Continuous
 62
     7
370
    13
100
AcDbText
 10
87.573318
 20
-41.464146
 30
0.0
 40
0.075937
  1
NOTES
 41
0.9
  7
Style-Arial
100
AcDbText
  0
TEXT
  5
3D9
330
525
100
AcDbEntity
  8
TEXT
  6
Continuous
 62
     7
370
    13
100
AcDbText
 10
86.22931
 20
-40.575772
 30
0.0
 40
0.113906
  1
POST
 41
0.9
  7
Style-Arial
100
AcDbText
  0
TEXT
  5
192
330
525
100
AcDbEntity
  8
TITLE
  6
Continuous
 62
     7
370
    13
100
AcDbText
 10
81.3554
 20
-42.962547
 30
0.0
 40
0.113906
  1
DETAIL OF
 41
0.9
  7
Style-Arial
100
AcDbText
  0
TEXT
  5
193
330
525
100
AcDbEntity
  8
TITLE
  6
Continuous
 62
     7
370
    13
100
AcDbText
 10
81.207201
 20
-43.158272
 30
0.0
 40
0.113906
  1
RAIL ELEMENT
 41
0.9
  7
Style-Arial
100
AcDbText
  0
TEXT
  5
E6
330
525
100
AcDbEntity
  8
TITLE
  6
Continuous
 62
     7
370
    13
100
AcDbText
 10
82.734495
 20
-42.980406
 30
0.0
 40
0.113906
  1
SPLICE DETAIL
 41
0.9
  7
Style-Arial
100
AcDbText
  0
TEXT
  5
16D
330
525
100
AcDbEntity
  8
TITLE
  6
Continuous
 62
     7
370
    13
100
AcDbText
 10
84.657467
 20
-42.999576
 30
0.0
 40
0.113906
  1
8 GAUGE WASHER
 41
0.9
  7
Style-Arial
100
AcDbText
  0
TEXT
  5
16C
330
525
100
AcDbEntity
  8
TITLE
  6
Continuous
 62
     7
370
    13
100
AcDbText
 10
84.939159
 20
-42.813792
 30
0.0
 40
0.113906
  1
DETAIL OF
 41
0.9
  7
Style-Arial
100
AcDbText
  0
TEXT
  5
16E
330
525
100
AcDbEntity
  8
TITLE
  6
Continuous
 62
     7
370
    13
100
AcDbText
 10
86.258785
 20
-42.999141
 30
0.0
 40
0.113906
  1
BOLT DETAIL
 41
0.9
  7
Style-Arial
100
AcDbText
  0
TEXT
  5
1E8
330
525
100
AcDbEntity
  8
2-30K
  6
Continuous
 62
     7
370
    13
100
AcDbText
 10
88.249523
 20
-45.026414
 30
0.0
 40
0.075937
  1
DATE
 41
0.9
  7
Style-Arial
100
AcDbText
  0
TEXT
  5
1EA
330
525
100
AcDbEntity
  8
2-30K
  6
Continuous
 62
     7
370
    13
100
AcDbText
 10
89.288457
 20
-45.004556
 30
0.0
 40
0.075937
  1
FIGURE
 41
0.9
  7
Style-Arial
100
AcDbText
  0
TEXT
  5
1EB
330
525
100
AcDbEntity
  8
2-30K
  6
Continuous
 62
     7
370
    13
100
AcDbText
 10
89.341132
 20
-45.136697
 30
0.0
 40
0.075937
  1
2-30m
 41
0.9
  7
Style-Arial
100
AcDbText
  0
TEXT
  5
1E6
330
525
100
AcDbEntity
  8
TITLE
  6
Continuous
 62
     7
370
    13
100
AcDbText
 10
83.026018
 20
-45.078069
 30
0.0
 40
0.10125
  1
TYPICAL OFFSET WITH BEAM MEDIAN BARRIER
 41
0.9
  7
Style-Arial
100
AcDbText
  0
TEXT
  5
3D4
330
525
100
AcDbEntity
  8
TEXT
  6
Continuous
 62
     7
370
    13
100
AcDbText
 10
87.105121
 20
-39.434406
 30
0.0
 40
0.113906
  1
OFFSET 
 41
0.9
  7
Style-Arial
100
AcDbText
  0
TEXT
  5
510
330
525
100
AcDbEntity
  8
TEXT
  6
Continuous
 62
     7
370
    13
100
AcDbText
 10
87.053327
 20
-39.588136
 30
0.0
 40
0.113906
  1
BRACKET
 41
0.9
  7
Style-Arial
100
AcDbText
  0
ENDSEC
  0
SECTION
  2
OBJECTS
  0
DICTIONARY
  5
519
330
0
100
AcDbDictionary
281
     1
  3
ACAD_COLOR
350
538
  3
ACAD_GROUP
350
535
  3
ACAD_LAYOUT
350
529
  3
ACAD_MATERIAL
350
537
  3
ACAD_MLINESTYLE
350
523
  3
ACAD_PLOTSETTINGS
350
536
  3
ACAD_PLOTSTYLENAME
350
518
  3
ACAD_TABLESTYLE
350
550
  3
AcadDim
350
545
  3
MicroStation
350
53D
  0
DICTIONARY
  5
515
330
514
100
AcDbDictionary
280
     1
281
     1
  3
ACAD_LAYERFILTERS
360
53C
  3
ACAD_LAYERSTATES
360
516
  0
DICTIONARY
  5
54C
330
525
100
AcDbDictionary
280
     1
281
     1
  3
ACAD_SORTENTS
360
54D
  0
DICTIONARY
  5
538
102
{ACAD_REACTORS
330
519
102
}
330
519
100
AcDbDictionary
281
     1
  0
DICTIONARY
  5
535
102
{ACAD_REACTORS
330
519
102
}
330
519
100
AcDbDictionary
281
     1
  0
DICTIONARY
  5
529
102
{ACAD_REACTORS
330
519
102
}
330
519
100
AcDbDictionary
281
     1
  3
Layout1
350
52D
  3
Model
350
528
  0
DICTIONARY
  5
537
102
{ACAD_REACTORS
330
519
102
}
330
519
100
AcDbDictionary
281
     1
  0
DICTIONARY
  5
523
102
{ACAD_REACTORS
330
519
102
}
330
519
100
AcDbDictionary
281
     1
  3
Standard
350
522
  0
DICTIONARY
  5
536
102
{ACAD_REACTORS
330
519
102
}
330
519
100
AcDbDictionary
281
     1
  0
ACDBDICTIONARYWDFLT
  5
518
102
{ACAD_REACTORS
330
519
102
}
330
519
100
AcDbDictionary
281
     1
  3
Normal
350
517
100
AcDbDictionaryWithDefault
340
517
  0
DICTIONARY
  5
550
102
{ACAD_REACTORS
330
519
102
}
330
519
100
AcDbDictionary
281
     1
  0
XRECORD
  5
545
102
{ACAD_REACTORS
330
519
102
}
330
519
100
AcDbXrecord
280
     1
 90
   990106
  3
 
 60
     0
 61
     0
 62
     1
 63
     1
 64
     0
 65
     0
 66
     0
 67
     3
 68
     1
 69
     1
 70
     0
 71
     0
 72
     0
 40
0.0
170
     0
  0
DICTIONARY
  5
53D
102
{ACAD_REACTORS
330
519
102
}
330
519
100
AcDbDictionary
281
     1
  3
ApplicationElement 1291
350
50B
  3
ApplicationElement 1297
350
511
  3
ModelApplicationElement 0 1290
350
50A
  0
DICTIONARY
  5
53C
102
{ACAD_REACTORS
330
515
102
}
330
515
100
AcDbDictionary
281
     1
  0
DICTIONARY
  5
516
102
{ACAD_REACTORS
330
515
102
}
330
515
100
AcDbDictionary
281
     1
  0
SORTENTSTABLE
  5
54D
102
{ACAD_REACTORS
330
54C
102
}
330
54C
100
AcDbSortentsTable
330
525
331
66
  5
3F4
331
67
  5
66
331
68
  5
67
331
69
  5
68
331
6A
  5
69
331
75
  5
6A
331
80
  5
3F5
331
81
  5
75
331
82
  5
80
331
83
  5
81
331
84
  5
3F6
331
85
  5
82
331
86
  5
83
331
87
  5
84
331
88
  5
3F7
331
89
  5
3F8
331
8A
  5
3F9
331
8B
  5
85
331
8C
  5
86
331
8D
  5
87
331
8E
  5
88
331
8F
  5
89
331
90
  5
3FA
331
91
  5
8A
331
92
  5
8B
331
93
  5
8C
331
94
  5
8D
331
95
  5
8E
331
96
  5
8F
331
97
  5
90
331
98
  5
91
331
99
  5
92
331
9A
  5
93
331
9B
  5
94
331
9C
  5
95
331
9D
  5
96
331
9E
  5
97
331
9F
  5
98
331
A0
  5
99
331
A1
  5
9A
331
A2
  5
9B
331
A3
  5
9C
331
A4
  5
9D
331
A5
  5
9E
331
A6
  5
9F
331
A7
  5
A0
331
A8
  5
A1
331
A9
  5
A2
331
AA
  5
A3
331
AB
  5
A4
331
AC
  5
A5
331
AD
  5
A6
331
AE
  5
A7
331
AF
  5
A8
331
B0
  5
A9
331
B1
  5
AA
331
B2
  5
AB
331
B3
  5
AC
331
B4
  5
AD
331
B5
  5
AE
331
B6
  5
AF
331
B7
  5
B0
331
B8
  5
B1
331
B9
  5
B2
331
BA
  5
B3
331
BB
  5
B4
331
BC
  5
B5
331
BD
  5
B6
331
BE
  5
B7
331
BF
  5
B8
331
C0
  5
B9
331
C1
  5
BA
331
C2
  5
BB
331
C3
  5
BC
331
C4
  5
BD
331
C5
  5
BE
331
C6
  5
BF
331
C7
  5
C0
331
C8
  5
C1
331
C9
  5
C2
331
CA
  5
C3
331
CB
  5
3FB
331
CC
  5
3FC
331
CD
  5
3FD
331
CE
  5
3FE
331
CF
  5
C4
331
D0
  5
C5
331
D1
  5
C6
331
D2
  5
C7
331
D3
  5
C8
331
D4
  5
C9
331
D5
  5
CA
331
D6
  5
CB
331
D7
  5
CC
331
D8
  5
CD
331
D9
  5
CE
331
DA
  5
CF
331
DB
  5
D0
331
DC
  5
D1
331
DD
  5
D2
331
DE
  5
3FF
331
DF
  5
400
331
E0
  5
401
331
E1
  5
402
331
E2
  5
D3
331
E3
  5
D4
331
E4
  5
D5
331
E5
  5
403
331
E6
  5
4AE
331
E7
  5
404
331
E8
  5
405
331
E9
  5
D6
331
EA
  5
D7
331
EB
  5
D8
331
EC
  5
D9
331
ED
  5
DA
331
EE
  5
406
331
EF
  5
DB
331
F0
  5
DC
331
F1
  5
DD
331
F2
  5
DE
331
F3
  5
DF
331
F4
  5
E0
331
F5
  5
E1
331
F7
  5
E2
331
F9
  5
E3
331
FA
  5
E4
331
FB
  5
E5
331
FC
  5
E6
331
FD
  5
E7
331
FE
  5
E8
331
FF
  5
E9
331
100
  5
EA
331
101
  5
407
331
102
  5
408
331
103
  5
EB
331
104
  5
EC
331
105
  5
ED
331
106
  5
EE
331
107
  5
EF
331
108
  5
F0
331
109
  5
F1
331
10A
  5
F2
331
10B
  5
F3
331
10C
  5
F4
331
10D
  5
F5
331
10E
  5
F7
331
10F
  5
409
331
110
  5
40A
331
111
  5
F9
331
112
  5
FA
331
113
  5
FB
331
114
  5
FC
331
115
  5
FD
331
116
  5
FE
331
117
  5
40E
331
118
  5
FF
331
119
  5
100
331
11A
  5
101
331
11B
  5
102
331
11C
  5
103
331
11D
  5
104
331
11E
  5
105
331
11F
  5
106
331
120
  5
107
331
121
  5
108
331
122
  5
40F
331
123
  5
410
331
124
  5
109
331
125
  5
10A
331
126
  5
10B
331
127
  5
10C
331
128
  5
411
331
129
  5
412
331
12A
  5
413
331
12B
  5
10D
331
12C
  5
10E
331
12D
  5
10F
331
12E
  5
110
331
12F
  5
111
331
130
  5
112
331
131
  5
113
331
132
  5
114
331
133
  5
115
331
134
  5
116
331
135
  5
117
331
136
  5
118
331
137
  5
119
331
148
  5
11A
331
149
  5
11B
331
14A
  5
11C
331
14B
  5
11D
331
14C
  5
11E
331
14D
  5
11F
331
14E
  5
120
331
14F
  5
121
331
150
  5
122
331
151
  5
123
331
152
  5
414
331
153
  5
415
331
154
  5
124
331
155
  5
125
331
156
  5
126
331
157
  5
127
331
158
  5
128
331
159
  5
129
331
15A
  5
12A
331
15B
  5
12B
331
15C
  5
12C
331
15D
  5
12D
331
15E
  5
416
331
15F
  5
417
331
160
  5
12E
331
161
  5
12F
331
162
  5
130
331
163
  5
131
331
164
  5
132
331
165
  5
418
331
166
  5
133
331
167
  5
134
331
168
  5
135
331
169
  5
136
331
16A
  5
137
331
16B
  5
419
331
16C
  5
4B0
331
16D
  5
4AF
331
16E
  5
4B1
331
16F
  5
148
331
170
  5
149
331
171
  5
14A
331
172
  5
14B
331
173
  5
14C
331
174
  5
14D
331
175
  5
14E
331
176
  5
14F
331
177
  5
150
331
178
  5
151
331
179
  5
152
331
17A
  5
153
331
17B
  5
154
331
17C
  5
155
331
17D
  5
156
331
17E
  5
157
331
17F
  5
158
331
180
  5
159
331
181
  5
15A
331
182
  5
15B
331
183
  5
15C
331
184
  5
15D
331
185
  5
15E
331
186
  5
15F
331
187
  5
160
331
188
  5
161
331
189
  5
162
331
18A
  5
163
331
18B
  5
164
331
18C
  5
165
331
18D
  5
166
331
18E
  5
167
331
18F
  5
168
331
190
  5
169
331
191
  5
16A
331
192
  5
4AC
331
193
  5
4AD
331
194
  5
41A
331
195
  5
41B
331
196
  5
16B
331
197
  5
16C
331
198
  5
16D
331
199
  5
16E
331
19A
  5
16F
331
19B
  5
170
331
19C
  5
171
331
19D
  5
172
331
19E
  5
173
331
19F
  5
174
331
1A0
  5
175
331
1A1
  5
176
331
1A2
  5
177
331
1A3
  5
178
331
1A4
  5
179
331
1A5
  5
17A
331
1A6
  5
17B
331
1A7
  5
17C
331
1A8
  5
17D
331
1A9
  5
17E
331
1AA
  5
17F
331
1AB
  5
180
331
1AC
  5
181
331
1AD
  5
182
331
1AE
  5
183
331
1AF
  5
184
331
1B0
  5
185
331
1B1
  5
186
331
1B2
  5
187
331
1B3
  5
188
331
1B4
  5
189
331
1B5
  5
18A
331
1B6
  5
18B
331
1B7
  5
18C
331
1B8
  5
18D
331
1B9
  5
18E
331
1BA
  5
18F
331
1BB
  5
190
331
1BC
  5
191
331
1BD
  5
192
331
1BE
  5
193
331
1BF
  5
194
331
1C0
  5
195
331
1C1
  5
196
331
1C2
  5
197
331
1C3
  5
198
331
1C4
  5
199
331
1C5
  5
19A
331
1C6
  5
19B
331
1C7
  5
41C
331
1C8
  5
19C
331
1C9
  5
19D
331
1CA
  5
19E
331
1CB
  5
19F
331
1CC
  5
41D
331
1CD
  5
1A0
331
1CE
  5
1A1
331
1CF
  5
1A2
331
1D0
  5
1A3
331
1D1
  5
1A4
331
1D2
  5
1A5
331
1D3
  5
1A6
331
1D4
  5
41E
331
1D5
  5
1A7
331
1D6
  5
1A8
331
1D7
  5
1A9
331
1D8
  5
1AA
331
1D9
  5
41F
331
1DA
  5
1AB
331
1DB
  5
1AC
331
1DC
  5
1AD
331
1DD
  5
420
331
1DE
  5
1AE
331
1DF
  5
1AF
331
1E0
  5
421
331
1E1
  5
1B0
331
1E2
  5
1B1
331
1E3
  5
1B2
331
1E4
  5
1B3
331
1E5
  5
1B4
331
1E6
  5
4B5
331
1E7
  5
1B5
331
1E8
  5
4B2
331
1E9
  5
1B6
331
1EA
  5
4B3
331
1EB
  5
4B4
331
1EC
  5
422
331
1ED
  5
423
331
1EE
  5
424
331
1EF
  5
425
331
1F0
  5
426
331
1F1
  5
427
331
1F2
  5
428
331
1F3
  5
429
331
1F4
  5
42A
331
1F5
  5
42B
331
1F6
  5
42C
331
1F7
  5
42D
331
1F8
  5
42E
331
1F9
  5
42F
331
1FA
  5
430
331
1FB
  5
431
331
1FC
  5
432
331
1FD
  5
433
331
1FE
  5
434
331
1FF
  5
435
331
200
  5
436
331
201
  5
437
331
202
  5
438
331
203
  5
439
331
204
  5
43A
331
205
  5
43B
331
206
  5
43C
331
207
  5
4AA
331
208
  5
43D
331
209
  5
43E
331
20A
  5
43F
331
20B
  5
440
331
20C
  5
441
331
20D
  5
442
331
20E
  5
443
331
20F
  5
444
331
210
  5
445
331
211
  5
446
331
212
  5
447
331
213
  5
448
331
214
  5
449
331
215
  5
44A
331
216
  5
44B
331
217
  5
44C
331
218
  5
44D
331
219
  5
44E
331
21A
  5
44F
331
21B
  5
450
331
21C
  5
451
331
21D
  5
452
331
21E
  5
453
331
21F
  5
4A8
331
220
  5
1B7
331
221
  5
1B8
331
222
  5
1B9
331
223
  5
1BA
331
224
  5
1BB
331
225
  5
1BC
331
226
  5
1BD
331
227
  5
1BE
331
228
  5
1BF
331
229
  5
1C0
331
22A
  5
1C1
331
22B
  5
1C2
331
22C
  5
1C3
331
22D
  5
1C4
331
22E
  5
1C5
331
22F
  5
1C6
331
230
  5
1C7
331
231
  5
1C8
331
232
  5
1C9
331
233
  5
1CA
331
234
  5
1CB
331
235
  5
1CC
331
236
  5
1CD
331
237
  5
1CE
331
238
  5
454
331
239
  5
1CF
331
23A
  5
1D0
331
23B
  5
1D1
331
23C
  5
1D2
331
23D
  5
1D3
331
23E
  5
1D4
331
23F
  5
1D5
331
240
  5
1D6
331
241
  5
1D7
331
242
  5
1D8
331
243
  5
1D9
331
244
  5
1DA
331
245
  5
1DB
331
246
  5
1DC
331
247
  5
1DD
331
248
  5
1DE
331
249
  5
1DF
331
24A
  5
1E0
331
24B
  5
1E1
331
24C
  5
1E2
331
24D
  5
1E3
331
24E
  5
1E4
331
24F
  5
1E5
331
250
  5
1E6
331
251
  5
1E7
331
252
  5
1E8
331
253
  5
1E9
331
254
  5
1EA
331
255
  5
1EB
331
256
  5
1EC
331
257
  5
1ED
331
258
  5
1EE
331
259
  5
1EF
331
25A
  5
1F0
331
25B
  5
1F1
331
25C
  5
1F2
331
25D
  5
1F3
331
25E
  5
1F4
331
25F
  5
1F5
331
260
  5
1F6
331
261
  5
1F7
331
262
  5
1F8
331
263
  5
1F9
331
264
  5
1FA
331
265
  5
1FB
331
266
  5
1FC
331
267
  5
1FD
331
268
  5
1FE
331
269
  5
1FF
331
26A
  5
200
331
26B
  5
201
331
26C
  5
202
331
26D
  5
203
331
26E
  5
204
331
26F
  5
205
331
270
  5
206
331
271
  5
207
331
272
  5
208
331
273
  5
209
331
274
  5
20A
331
275
  5
20B
331
276
  5
20C
331
277
  5
20D
331
278
  5
20E
331
279
  5
20F
331
27A
  5
210
331
27B
  5
211
331
27C
  5
212
331
27D
  5
213
331
27E
  5
214
331
27F
  5
215
331
283
  5
216
331
284
  5
217
331
285
  5
218
331
286
  5
219
331
287
  5
21A
331
288
  5
21B
331
289
  5
21C
331
28A
  5
21D
331
28B
  5
21E
331
28C
  5
21F
331
28D
  5
220
331
28E
  5
221
331
28F
  5
222
331
290
  5
223
331
291
  5
224
331
292
  5
225
331
293
  5
226
331
294
  5
227
331
295
  5
228
331
296
  5
229
331
297
  5
22A
331
298
  5
22B
331
299
  5
22C
331
29A
  5
22D
331
29B
  5
22E
331
29C
  5
22F
331
29D
  5
230
331
29E
  5
455
331
29F
  5
456
331
2A0
  5
231
331
2A1
  5
232
331
2A2
  5
233
331
2A3
  5
234
331
2A4
  5
235
331
2A5
  5
236
331
2A6
  5
237
331
2A7
  5
457
331
2A8
  5
238
331
2A9
  5
239
331
2AA
  5
23A
331
2AB
  5
23B
331
2AC
  5
23C
331
2AD
  5
23D
331
2AE
  5
23E
331
2AF
  5
23F
331
2B0
  5
240
331
2B1
  5
241
331
2B2
  5
242
331
2B3
  5
243
331
2B4
  5
244
331
2B5
  5
245
331
2B6
  5
246
331
2B7
  5
247
331
2B8
  5
248
331
2B9
  5
249
331
2BB
  5
24A
331
2BC
  5
24B
331
2BD
  5
24C
331
2BE
  5
24D
331
2BF
  5
24E
331
2C0
  5
24F
331
2C1
  5
250
331
2C2
  5
251
331
2C3
  5
252
331
2C4
  5
253
331
2C5
  5
254
331
2C6
  5
255
331
2C7
  5
256
331
2C8
  5
257
331
2C9
  5
258
331
2CA
  5
259
331
2CB
  5
25A
331
2CC
  5
25B
331
2D0
  5
25C
331
2D1
  5
25D
331
2D2
  5
25E
331
2D3
  5
25F
331
2D4
  5
260
331
2D5
  5
261
331
2D6
  5
262
331
2D7
  5
263
331
2D8
  5
264
331
2D9
  5
265
331
2DA
  5
266
331
2DB
  5
267
331
2DC
  5
268
331
2DD
  5
269
331
2DE
  5
26A
331
2DF
  5
26B
331
2E0
  5
26C
331
2E1
  5
26D
331
2E2
  5
26E
331
2E3
  5
26F
331
2E4
  5
270
331
2E5
  5
271
331
2E6
  5
272
331
2E7
  5
273
331
2E8
  5
274
331
2E9
  5
275
331
2EA
  5
458
331
2EB
  5
459
331
2EC
  5
276
331
2ED
  5
277
331
2EE
  5
278
331
2EF
  5
279
331
2F0
  5
27A
331
2F1
  5
27B
331
2F2
  5
27C
331
2F3
  5
45A
331
2F4
  5
27D
331
2F5
  5
27E
331
2F6
  5
27F
331
2F7
  5
283
331
2F8
  5
284
331
2F9
  5
45B
331
2FA
  5
285
331
2FB
  5
286
331
2FC
  5
287
331
2FD
  5
288
331
2FE
  5
289
331
2FF
  5
28A
331
300
  5
45C
331
301
  5
28B
331
302
  5
28C
331
303
  5
28D
331
304
  5
45D
331
305
  5
28E
331
306
  5
28F
331
307
  5
290
331
308
  5
291
331
309
  5
292
331
30A
  5
45E
331
30B
  5
293
331
30C
  5
294
331
30D
  5
295
331
30E
  5
296
331
30F
  5
297
331
310
  5
298
331
311
  5
299
331
312
  5
45F
331
313
  5
460
331
314
  5
29A
331
315
  5
29B
331
316
  5
29C
331
317
  5
29D
331
318
  5
29E
331
319
  5
29F
331
31A
  5
2A0
331
31B
  5
2A1
331
31C
  5
2A2
331
31D
  5
2A3
331
31E
  5
2A4
331
31F
  5
2A5
331
320
  5
2A6
331
321
  5
2A7
331
323
  5
2A8
331
324
  5
2A9
331
325
  5
2AA
331
327
  5
2AB
331
328
  5
2AC
331
329
  5
2AD
331
32A
  5
2AE
331
32B
  5
2AF
331
32C
  5
2B0
331
32D
  5
2B1
331
32E
  5
461
331
32F
  5
462
331
330
  5
463
331
331
  5
464
331
332
  5
465
331
333
  5
466
331
334
  5
467
331
335
  5
468
331
336
  5
469
331
337
  5
46A
331
338
  5
46B
331
339
  5
4A7
331
33A
  5
4A9
331
33B
  5
2B2
331
33C
  5
2B3
331
33D
  5
2B4
331
33E
  5
2B5
331
342
  5
46C
331
343
  5
2B6
331
344
  5
2B7
331
345
  5
2B8
331
346
  5
2B9
331
347
  5
2BB
331
348
  5
2BC
331
349
  5
2BD
331
34A
  5
2BE
331
34B
  5
46D
331
34C
  5
46E
331
34D
  5
46F
331
34E
  5
2BF
331
34F
  5
2C0
331
350
  5
2C1
331
351
  5
2C2
331
352
  5
2C3
331
353
  5
2C4
331
354
  5
2C5
331
355
  5
2C6
331
356
  5
2C7
331
35A
  5
2C8
331
35B
  5
2C9
331
35C
  5
2CA
331
35D
  5
2CB
331
35E
  5
2CC
331
35F
  5
2D0
331
360
  5
2D1
331
361
  5
2D2
331
362
  5
2D3
331
363
  5
470
331
364
  5
2D4
331
365
  5
2D5
331
366
  5
2D6
331
367
  5
2D7
331
368
  5
471
331
369
  5
2D8
331
36A
  5
2D9
331
36B
  5
2DA
331
36C
  5
472
331
36D
  5
473
331
36E
  5
2DB
331
36F
  5
2DC
331
370
  5
2DD
331
371
  5
2DE
331
372
  5
2DF
331
373
  5
2E0
331
374
  5
2E1
331
375
  5
2E2
331
376
  5
2E3
331
377
  5
2E4
331
378
  5
474
331
379
  5
2E5
331
37A
  5
2E6
331
37B
  5
2E7
331
37C
  5
2E8
331
37D
  5
475
331
37E
  5
479
331
37F
  5
47A
331
380
  5
2E9
331
381
  5
2EA
331
382
  5
2EB
331
383
  5
2EC
331
384
  5
2ED
331
385
  5
2EE
331
386
  5
2EF
331
387
  5
2F0
331
388
  5
2F1
331
389
  5
47B
331
38A
  5
2F2
331
38B
  5
2F3
331
38C
  5
47C
331
38D
  5
2F4
331
38E
  5
2F5
331
38F
  5
2F6
331
390
  5
2F7
331
391
  5
2F8
331
392
  5
2F9
331
393
  5
47D
331
394
  5
2FA
331
395
  5
2FB
331
396
  5
2FC
331
397
  5
2FD
331
398
  5
47E
331
399
  5
2FE
331
39A
  5
2FF
331
39B
  5
300
331
39C
  5
301
331
39D
  5
302
331
39E
  5
303
331
39F
  5
304
331
3A0
  5
47F
331
3A1
  5
305
331
3A2
  5
306
331
3A3
  5
307
331
3A4
  5
308
331
3A5
  5
309
331
3A6
  5
30A
331
3A7
  5
30B
331
3A8
  5
30C
331
3A9
  5
30D
331
3AA
  5
30E
331
3AB
  5
30F
331
3AC
  5
310
331
3AD
  5
311
331
3AE
  5
312
331
3AF
  5
313
331
3B0
  5
314
331
3B1
  5
315
331
3B2
  5
316
331
3B3
  5
317
331
3B4
  5
318
331
3B5
  5
319
331
3B6
  5
31A
331
3B7
  5
31B
331
3B8
  5
31C
331
3B9
  5
31D
331
3BA
  5
31E
331
3BB
  5
31F
331
3BC
  5
320
331
3BD
  5
321
331
3BE
  5
323
331
3BF
  5
324
331
3C0
  5
325
331
3C1
  5
327
331
3C2
  5
328
331
3C3
  5
480
331
3C4
  5
329
331
3C5
  5
32A
331
3C6
  5
32B
331
3C7
  5
32C
331
3C8
  5
32D
331
3C9
  5
32E
331
3CA
  5
481
331
3CB
  5
32F
331
3CC
  5
330
331
3CD
  5
331
331
3CE
  5
332
331
3CF
  5
333
331
3D0
  5
482
331
3D1
  5
334
331
3D2
  5
335
331
3D3
  5
336
331
3D4
  5
4B6
331
3D5
  5
337
331
3D7
  5
338
331
3D9
  5
4AB
331
3DA
  5
483
331
3DB
  5
339
331
3DC
  5
33A
331
3DD
  5
33B
331
3DE
  5
33C
331
3DF
  5
33D
331
3E0
  5
33E
331
3E1
  5
342
331
3E2
  5
343
331
3E3
  5
344
331
3E4
  5
345
331
3E5
  5
346
331
3E6
  5
347
331
3E7
  5
348
331
3E8
  5
349
331
3E9
  5
34A
331
3EA
  5
34B
331
3EB
  5
34C
331
3EC
  5
34D
331
3ED
  5
34E
331
3EE
  5
34F
331
3EF
  5
350
331
3F0
  5
351
331
3F1
  5
352
331
3F2
  5
353
331
3F3
  5
354
331
3F4
  5
355
331
3F5
  5
356
331
3F6
  5
35A
331
3F7
  5
35B
331
3F8
  5
35C
331
3F9
  5
35D
331
3FA
  5
35E
331
3FB
  5
35F
331
3FC
  5
360
331
3FD
  5
361
331
3FE
  5
362
331
3FF
  5
363
331
400
  5
364
331
401
  5
365
331
402
  5
366
331
403
  5
367
331
404
  5
368
331
405
  5
484
331
406
  5
485
331
407
  5
486
331
408
  5
369
331
409
  5
36A
331
40A
  5
36B
331
40E
  5
36C
331
40F
  5
36D
331
410
  5
36E
331
411
  5
36F
331
412
  5
370
331
413
  5
371
331
414
  5
372
331
415
  5
373
331
416
  5
374
331
417
  5
375
331
418
  5
376
331
419
  5
377
331
41A
  5
378
331
41B
  5
379
331
41C
  5
37A
331
41D
  5
37B
331
41E
  5
37C
331
41F
  5
37D
331
420
  5
37E
331
421
  5
37F
331
422
  5
380
331
423
  5
381
331
424
  5
382
331
425
  5
383
331
426
  5
384
331
427
  5
385
331
428
  5
386
331
429
  5
387
331
42A
  5
388
331
42B
  5
389
331
42C
  5
38A
331
42D
  5
38B
331
42E
  5
38C
331
42F
  5
38D
331
430
  5
38E
331
431
  5
487
331
432
  5
38F
331
433
  5
390
331
434
  5
391
331
435
  5
392
331
436
  5
488
331
437
  5
393
331
438
  5
394
331
439
  5
395
331
43A
  5
396
331
43B
  5
397
331
43C
  5
398
331
43D
  5
399
331
43E
  5
489
331
43F
  5
39A
331
440
  5
39B
331
441
  5
39C
331
442
  5
39D
331
443
  5
39E
331
444
  5
39F
331
445
  5
3A0
331
446
  5
3A1
331
447
  5
3A2
331
448
  5
3A3
331
449
  5
3A4
331
44A
  5
3A5
331
44B
  5
3A6
331
44C
  5
3A7
331
44D
  5
3A8
331
44E
  5
3A9
331
44F
  5
48A
331
450
  5
48B
331
451
  5
3AA
331
452
  5
3AB
331
453
  5
3AC
331
454
  5
3AD
331
455
  5
3AE
331
456
  5
3AF
331
457
  5
3B0
331
458
  5
3B1
331
459
  5
3B2
331
45A
  5
3B3
331
45B
  5
3B4
331
45C
  5
3B5
331
45D
  5
3B6
331
45E
  5
3B7
331
45F
  5
3B8
331
460
  5
3B9
331
461
  5
48C
331
462
  5
48D
331
463
  5
3BA
331
464
  5
3BB
331
465
  5
3BC
331
466
  5
3BD
331
467
  5
3BE
331
468
  5
3BF
331
469
  5
3C0
331
46A
  5
3C1
331
46B
  5
3C2
331
46C
  5
48E
331
46D
  5
48F
331
46E
  5
490
331
46F
  5
491
331
470
  5
492
331
471
  5
493
331
472
  5
3C3
331
473
  5
3C4
331
474
  5
3C5
331
475
  5
3C6
331
479
  5
494
331
47A
  5
3C7
331
47B
  5
3C8
331
47C
  5
3C9
331
47D
  5
3CA
331
47E
  5
3CB
331
47F
  5
495
331
480
  5
496
331
481
  5
497
331
482
  5
498
331
483
  5
499
331
484
  5
49A
331
485
  5
3CC
331
486
  5
3CD
331
487
  5
3CE
331
488
  5
3CF
331
489
  5
3D0
331
48A
  5
3D1
331
48B
  5
3D2
331
48C
  5
3D3
331
48D
  5
3D4
331
48E
  5
3D5
331
48F
  5
3D7
331
490
  5
3D9
331
491
  5
3DA
331
492
  5
3DB
331
493
  5
3DC
331
494
  5
3DD
331
495
  5
3DE
331
496
  5
3DF
331
497
  5
3E0
331
498
  5
3E1
331
499
  5
3E2
331
49A
  5
3E3
331
49B
  5
3E4
331
49C
  5
3E5
331
49D
  5
3E6
331
49E
  5
3E7
331
49F
  5
3E8
331
4A0
  5
3E9
331
4A1
  5
3EA
331
4A2
  5
3EB
331
4A3
  5
3EC
331
4A4
  5
3ED
331
4A5
  5
3EE
331
4A6
  5
3EF
331
4A7
  5
3F0
331
4A8
  5
3F1
331
4A9
  5
49B
331
4AA
  5
49C
331
4AB
  5
49D
331
4AC
  5
49E
331
4AD
  5
49F
331
4AE
  5
4A0
331
4AF
  5
4A1
331
4B0
  5
4A2
331
4B1
  5
4A3
331
4B2
  5
4A4
331
4B3
  5
4A5
331
4B4
  5
4A6
331
4B5
  5
3F2
331
4B6
  5
3F3
  0
LAYOUT
  5
52D
102
{ACAD_REACTORS
330
529
330
529
102
}
102
{ACAD_XDICTIONARY
360
52E
102
}
330
529
100
AcDbPlotSettings
  1

  2
none_device
  4
Letter_(8.50_x_11.00_Inches)
  6

 40
6.35
 41
6.35
 42
6.350006
 43
6.350006
 44
215.899994
 45
279.399994
 46
0.0
 47
0.0
 48
0.0
 49
0.0
140
0.0
141
0.0
142
1.0
143
1.0
 70
   688
 72
     0
 73
     1
 74
     5
  7

 75
    16
 76
     0
 77
     2
 78
   300
147
1.0
148
0.0
149
0.0
100
AcDbLayout
  1
Layout1
 70
     1
 71
     1
 10
-0.25
 20
-0.25
 11
10.75
 21
8.25
 12
0.0
 22
0.0
 32
0.0
 14
1.049744
 24
0.799667
 34
-0.001526
 15
9.450623
 25
7.200577
 35
0.0
146
0.0
 13
0.0
 23
0.0
 33
0.0
 16
1.0
 26
0.0
 36
0.0
 17
0.0
 27
1.0
 37
0.0
 76
     0
330
52A
1001
ACAD_PSEXT
1000
None
1000
None
1000
Not applicable
1000
The layout will not be plotted unless a new plotter configuration name is selected.
1070
     0
  0
LAYOUT
  5
528
102
{ACAD_REACTORS
330
529
330
529
102
}
330
529
100
AcDbPlotSettings
  1

  2
none_device
  4
ANSI_A_(8.50_x_11.00_Inches)
  6

 40
6.35
 41
19.049999
 42
6.350006
 43
19.049988
 44
215.899994
 45
279.399994
 46
0.0
 47
0.0
 48
0.0
 49
0.0
140
0.0
141
0.0
142
1.0
143
2.584895
 70
 11952
 72
     0
 73
     1
 74
     0
  7

 75
     0
 76
     0
 77
     2
 78
   300
147
0.386863
148
0.0
149
0.0
100
AcDbLayout
  1
Model
 70
     1
 71
     0
 10
0.0
 20
0.0
 11
12.0
 21
9.0
 12
0.0
 22
0.0
 32
0.0
 14
0.0
 24
0.0
 34
0.0
 15
0.0
 25
0.0
 35
0.0
146
0.0
 13
0.0
 23
0.0
 33
0.0
 16
1.0
 26
0.0
 36
0.0
 17
0.0
 27
1.0
 37
0.0
 76
     0
330
525
331
49
  0
MLINESTYLE
  5
522
102
{ACAD_REACTORS
330
523
102
}
330
523
100
AcDbMlineStyle
  2
STANDARD
 70
     0
  3

 62
   256
 51
90.0
 52
90.0
 71
     2
 49
0.5
 62
   256
  6
BYLAYER
 49
-0.5
 62
   256
  6
BYLAYER
  0
ACDBPLACEHOLDER
  5
517
102
{ACAD_REACTORS
330
518
102
}
330
518
  0
XRECORD
  5
50B
102
{ACAD_REACTORS
330
53D
102
}
330
53D
100
AcDbXrecord
280
     1
310
3E4F020000004D6F64656C6572000000000000000000000000000000000000000000000000000000000000000000000000000000000000000000000000000000000000000000000000000000000000000000000000000000000000000000000000000000000000000000000000000000000000000000000000000000000000
310
00000000000000000000000000000000000000000000000000000000000000000000000000000000000000000000000000000000000000000000000000000000000000000000000000000000000000000000000000000000000000000000000000000000000000000000000000000000000000000000000000000000000000
310
00
310
00000000000000000000000000000000000000000000000000000000000000000000000000000000000000000000000000000000000000000000000000000000000000000000000000000000000000000000000000000000000000000000000000000000000000000000000000000000000000000000000000000000000000
310
00000000000000000000000000000000000000000000000000000000000000000000000000000000000000000000000000000000000000000000000000000000000000000000000000000000000000000000000000000000000000000000000000000000000000000000000000000000000000000000000000000000000000
310
00
310
00000000000000000000000000000000000000000000000000000000000000000000000000000000000000000000000000000000000000000000000000000000000000000000000000000000000000000000000000000000000000000000000000000000000000000000000000000000000000000000000000000000000000
310
00000000000000000000000000000000000000000000000000000000000000000000000000000000000000000000000000000000000000000000000000000000000000000000000000000000000000000000000000000000000000000000000000000000000000000000000000000000000000000000000000000000000000
310
00
310
00000000000000000000000000000000000000000000000000000000000000000000000000000000000000000000000000000000000000000000000000000000000000000000000000000000000000000000000000000000000000000000000000000000000000000000000000000000000000000000000000000000000000
310
00000000000000000000000000000000000000000000000000000000000000000000000000000000000000000000000000000000000000000000000000000000000000000000000000000000000000000000000000000000000000000000000000000000000000000000000000000000000000000000000000000000000000
310
00
310
00000000000000000000000000000000000000000000000000000000000000000000000000000000000000000000000000000000000000000000000000000000000000000000000000000000000000000000000000000000000000000000000000000000000000000000000000000000000000000000000000000000000000
310
00000000000000000000000000000000000000000000000000000000000000000000000000000000000000000000000000000000000000000000000000000000000000000000000000000000000000000000000000000000000000000000000000000000000000000000000000000000000000000000000000000000000000
310
00
310
00000000000000000000000000000000000000000000000000000000000000000000000000000000000000000000000000000000000000000000000000000000000000000000000000000000000000000000000000000000000000000000000000000000000000000000000000000000000000000000000000000000000000
310
00000000000000000000000000000000000000000000000000000000000000000000000000000000000000000000000000000000000000000000000000000000000000000000000000000000000000000000000000000000000000000000000000000000000000000000000000000000000000000000000000000000000000
310
00
310
00000000000000000000000000000000000000000000000000000000000000000000000000000000000000000000000000000000000000000000000000000000000000000000000000000000000000000000000000000000000000000000000000000000000000000000000000000000000000000000000000000000000000
310
00000000000000000000000000000000000000000000000000000000000000000000000000000000000000000000000000000000000000000000000000000000000000000000000000000000000000000000000000000000000000000000000000000000000000000000000000000000000000000000000000000000000000
310
00
310
00000000000000000000000000000000000000000000000000000000000000000000000000000000000000000000000000000000000000000000000000000000000000000000000000000000000000000000000000000000000000000000000000000000000000000000000000000000000000000000000000000000000000
310
00000000000000000000000000000000000000000000000000000000000000000000000000000000000000000000000000000000000000000000000000000000000000000000000000000000000000000000000000000000000000000000000000000000000000000000000000000000000000000000000000000000000000
310
00
310
00000000000000000000000000000000000000000000000000000000000000000000000000000000000000000000000000000000000000000000000000000000000000000000000000000000000000000000000000000000000000000000000000000000000000000000000000000000000000000000000000000000000000
310
00000000000000000000000000000000000000000000000000000000000000000000000000000000000000000000000000000000000000000000000000000000000000000000000000000000000000000000000000000000000000000000000000000000000000000000000000000000000000000000000000000000000000
310
00
310
00000000000000000000000000000000000000000000000000000000000000000000000000000000000000000000000000000000000000000000000000000000000000000000000000000000000000000000000000000000000000000000000000000000000000000000000000000000000000000000000000000000000000
310
00000000000000000000000000000000000000000000000000000000000000000000000000000000000000000000000000000000000000000000000000000000000000000000000000000000000000000000000000000000000000000000000000000000000000000000000000000000000000000000000000000000000000
310
00
310
00000000000000000000000000000000000000000000000000000000000000000000000000000000000000000000000000000000000000000000000000000000000000000000000000000000000000000000000000000000000000000000000000000000000000000000000000000000000000000000000000000000000000
310
00000000000000000000000000000000000000000000000000000000000000000000000000000000000000000000000000000000000000000000000000000000000000000000000000000000000000000000000000000000000000000000000000000000000000000000000000000000000000000000000000000000000000
310
00
310
00000000000000000000000000000000000000000000000000000000000000000000000000000000000000000000000000000000000000000000000000000000000000000000000000000000000000000000000000000000000000000000000000000000000000000000000000000000000000000000000000000000000000
310
00000000000000000000000000000000000000000000000000000000000000000000000000000000000000000000000000000000000000000000000000000000000000000000000000000000000000000000000000000000000000000000000000000000000000000000000000000000000000000000000000000000000000
310
00
310
00000000000000000000000000000000000000000000000000000000000000000000000000000000000000000000000000000000000000000000000000000000000000000000000000000000000000000000000000000000000000000000000000000000000000000000000000000000000000000000000000000000000000
310
00000000000000000000000000000000000000000000000000000000000000000000000000000000000000000000000000000000000000000000000000000000000000000000000000000000000000000000000000000000000000000000000000000000000000000000000000000000000000000000000000000000000000
310
00
310
00000000000000000000000000000000000000000000000000000000000000000000000000000000000000000000000000000000000000000000000000000000000000000000000000000000000000000000000000000000000000000000000000000000000000000000000000000000000000
  0
XRECORD
  5
511
102
{ACAD_REACTORS
330
53D
102
}
330
53D
100
AcDbXrecord
280
     1
310
3E4F020000004D6F64656C6572000000000000000000000000000000000000000000000000000000000000000000000000000000000000000000000000000000000000000000000000000000000000000000000000000000000000000000000000000000000000000000000000000000000000000000000000000000000000
310
00000000000000000000000000000000000000000000000000000000000000000000000000000000000000000000000000000000000000000000000000000000000000000000000000000000000000000000000000000000000000000000000000000000000000000000000000000000000000000000000000000000000000
310
00
310
00000000000000000000000000000000000000000000000000000000000000000000000000000000000000000000000000000000000000000000000000000000000000000000000000000000000000000000000000000000000000000000000000000000000000000000000000000000000000000000000000000000000000
310
00000000000000000000000000000000000000000000000000000000000000000000000000000000000000000000000000000000000000000000000000000000000000000000000000000000000000000000000000000000000000000000000000000000000000000000000000000000000000000000000000000000000000
310
00
310
00000000000000000000000000000000000000000000000000000000000000000000000000000000000000000000000000000000000000000000000000000000000000000000000000000000000000000000000000000000000000000000000000000000000000000000000000000000000000000000000000000000000000
310
00000000000000000000000000000000000000000000000000000000000000000000000000000000000000000000000000000000000000000000000000000000000000000000000000000000000000000000000000000000000000000000000000000000000000000000000000000000000000000000000000000000000000
310
00
310
00000000000000000000000000000000000000000000000000000000000000000000000000000000000000000000000000000000000000000000000000000000000000000000000000000000000000000000000000000000000000000000000000000000000000000000000000000000000000000000000000000000000000
310
00000000000000000000000000000000000000000000000000000000000000000000000000000000000000000000000000000000000000000000000000000000000000000000000000000000000000000000000000000000000000000000000000000000000000000000000000000000000000000000000000000000000000
310
00
310
00000000000000000000000000000000000000000000000000000000000000000000000000000000000000000000000000000000000000000000000000000000000000000000000000000000000000000000000000000000000000000000000000000000000000000000000000000000000000000000000000000000000000
310
00000000000000000000000000000000000000000000000000000000000000000000000000000000000000000000000000000000000000000000000000000000000000000000000000000000000000000000000000000000000000000000000000000000000000000000000000000000000000000000000000000000000000
310
00
310
00000000000000000000000000000000000000000000000000000000000000000000000000000000000000000000000000000000000000000000000000000000000000000000000000000000000000000000000000000000000000000000000000000000000000000000000000000000000000000000000000000000000000
310
00000000000000000000000000000000000000000000000000000000000000000000000000000000000000000000000000000000000000000000000000000000000000000000000000000000000000000000000000000000000000000000000000000000000000000000000000000000000000000000000000000000000000
310
00
310
00000000000000000000000000000000000000000000000000000000000000000000000000000000000000000000000000000000000000000000000000000000000000000000000000000000000000000000000000000000000000000000000000000000000000000000000000000000000000000000000000000000000000
310
00000000000000000000000000000000000000000000000000000000000000000000000000000000000000000000000000000000000000000000000000000000000000000000000000000000000000000000000000000000000000000000000000000000000000000000000000000000000000000000000000000000000000
310
00
310
00000000000000000000000000000000000000000000000000000000000000000000000000000000000000000000000000000000000000000000000000000000000000000000000000000000000000000000000000000000000000000000000000000000000000000000000000000000000000000000000000000000000000
310
00000000000000000000000000000000000000000000000000000000000000000000000000000000000000000000000000000000000000000000000000000000000000000000000000000000000000000000000000000000000000000000000000000000000000000000000000000000000000000000000000000000000000
310
00
310
00000000000000000000000000000000000000000000000000000000000000000000000000000000000000000000000000000000000000000000000000000000000000000000000000000000000000000000000000000000000000000000000000000000000000000000000000000000000000000000000000000000000000
310
00000000000000000000000000000000000000000000000000000000000000000000000000000000000000000000000000000000000000000000000000000000000000000000000000000000000000000000000000000000000000000000000000000000000000000000000000000000000000000000000000000000000000
310
00
310
00000000000000000000000000000000000000000000000000000000000000000000000000000000000000000000000000000000000000000000000000000000000000000000000000000000000000000000000000000000000000000000000000000000000000000000000000000000000000000000000000000000000000
310
00000000000000000000000000000000000000000000000000000000000000000000000000000000000000000000000000000000000000000000000000000000000000000000000000000000000000000000000000000000000000000000000000000000000000000000000000000000000000000000000000000000000000
310
00
310
00000000000000000000000000000000000000000000000000000000000000000000000000000000000000000000000000000000000000000000000000000000000000000000000000000000000000000000000000000000000000000000000000000000000000000000000000000000000000000000000000000000000000
310
00000000000000000000000000000000000000000000000000000000000000000000000000000000000000000000000000000000000000000000000000000000000000000000000000000000000000000000000000000000000000000000000000000000000000000000000000000000000000000000000000000000000000
310
00
310
00000000000000000000000000000000000000000000000000000000000000000000000000000000000000000000000000000000000000000000000000000000000000000000000000000000000000000000000000000000000000000000000000000000000000000000000000000000000000000000000000000000000000
310
00000000000000000000000000000000000000000000000000000000000000000000000000000000000000000000000000000000000000000000000000000000000000000000000000000000000000000000000000000000000000000000000000000000000000000000000000000000000000000000000000000000000000
310
00
310
00000000000000000000000000000000000000000000000000000000000000000000000000000000000000000000000000000000000000000000000000000000000000000000000000000000000000000000000000000000000000000000000000000000000000000000000000000000000000000000000000000000000000
310
00000000000000000000000000000000000000000000000000000000000000000000000000000000000000000000000000000000000000000000000000000000000000000000000000000000000000000000000000000000000000000000000000000000000000000000000000000000000000000000000000000000000000
310
00
310
00000000000000000000000000000000000000000000000000000000000000000000000000000000000000000000000000000000000000000000000000000000000000000000000000000000000000000000000000000000000000000000000000000000000000000000000000000000000000
  0
XRECORD
  5
50A
102
{ACAD_REACTORS
330
53D
102
}
330
53D
100
AcDbXrecord
280
     1
310
DF56060034040701D0009A9999999999B93F000000000000000000000000000000000400000009000000000000000200000064000000640000000100000001000000190000007B14AE47E17A843F00000000004060409A9999999999B93F00000000004C2D41000000000070F7400000000000942141000000000000000000
310
0000000000000000000000000000000AD482040000000000000000000000000000F03F000000000000000000000000000030402D431CEBE2362A3F00000000000008400000000000000000009807C000000000000000007C1A61B9A711364020000000050000000A000000200000002000000020000000000000000000F03F
310
00
310
0000000000F03F000000000000F03F333333333333D33F333333333333D33F333333333333D33F000000000000F43F000000000000F43F000000000000F03F0200000064000000000000000000000000000840000000000000F83F00000000000000000000000000000000008056409A9999999999B93F0000000000000000
310
00000000000000000000000000000000000000000000000000000000000000000000000000000000000000000000000000000000000000000000000000000000000000000000000000000000000000000000000000000000000000000000000000000000000000000000000000000000000000000000000000000000000000
310
00
310
0000000000000000000000000000000000000000000000000000000000000000000000000000000000000000000000000000000000000000000000000000000000000000000000000000000000000000000000000000000000000000000000000000000000000000000000000000000000000000000000009A9999999999A9
310
3F9100000000000000000000000000000035A781D547960F40000000000000F03F000000000000F03F666666666666164000000000104068F200000000000000000000000000000000000000000000000000000000000000000000000000000000000000000000000000000000000000000000000000000000000000000000
310
00
310
00000000000000000000000000000000000000000000000000000000000000000000000000000000000000000000000000000000000000000000000000000000000000000000000000000000000000000000000000000000000000000000000000000000000000000000000000000000000000000000000000000000000000
310
000000000000000000000000000000000000000000000000000000000000000000000000000000000000000000000000000000000000000000000000FF000000000000000000000000000000000000000000000000000000000000000000000000000000000000000000000000000000000000000000000000000000000000
310
00
310
0000000000000000000000000000000000000000000000000000000000000000000000000000000000000000000000000000000000000000000000000000000000000000
  0
DICTIONARY
  5
52E
330
52D
100
AcDbDictionary
280
     1
281
     1
  3
ADSK_XREC_LAYOUTTHUMBNAIL
360
52F
  0
XRECORD
  5
52F
102
{ACAD_REACTORS
330
52E
102
}
330
52E
100
AcDbXrecord
280
     1
310
28000000B40000008B0000000100080000000000BC61000000000000000000000001000000000000FFFFFF0000000000FFFFFF000000000000000000000000000000000000000000000000000000000000000000330000006600000099000000CC000000FF00000000330000333300006633000099330000CC330000FF3300
310
0000660000336600006666000099660000CC660000FF66000000990000339900006699000099990000CC990000FF99000000CC000033CC000066CC000099CC0000CCCC0000FFCC000000FF000033FF000066FF000099FF0000CCFF0000FFFF000000003300330033006600330099003300CC003300FF003300003333003333
310
33006633330099333300CC333300FF33330000663300336633006666330099663300CC663300FF66330000993300339933006699330099993300CC993300FF99330000CC330033CC330066CC330099CC3300CCCC3300FFCC330000FF330033FF330066FF330099FF3300CCFF3300FFFF330000006600330066006600660099
310
006600CC006600FF00660000336600333366006633660099336600CC336600FF33660000666600336666006666660099666600CC666600FF66660000996600339966006699660099996600CC996600FF99660000CC660033CC660066CC660099CC6600CCCC6600FFCC660000FF660033FF660066FF660099FF6600CCFF6600
310
FFFF660000009900330099006600990099009900CC009900FF00990000339900333399006633990099339900CC339900FF33990000669900336699006666990099669900CC669900FF66990000999900339999006699990099999900CC999900FF99990000CC990033CC990066CC990099CC9900CCCC9900FFCC990000FF99
310
0033FF990066FF990099FF9900CCFF9900FFFF99000000CC003300CC006600CC009900CC00CC00CC00FF00CC000033CC003333CC006633CC009933CC00CC33CC00FF33CC000066CC003366CC006666CC009966CC00CC66CC00FF66CC000099CC003399CC006699CC009999CC00CC99CC00FF99CC0000CCCC0033CCCC0066CC
310
CC0099CCCC00CCCCCC00FFCCCC0000FFCC0033FFCC0066FFCC0099FFCC00CCFFCC00FFFFCC000000FF003300FF006600FF009900FF00CC00FF00FF00FF000033FF003333FF006633FF009933FF00CC33FF00FF33FF000066FF003366FF006666FF009966FF00CC66FF00FF66FF000099FF003399FF006699FF009999FF00CC
310
99FF00FF99FF0000CCFF0033CCFF0066CCFF0099CCFF00CCCCFF00FFCCFF0000FFFF0033FFFF0066FFFF0099FFFF00CCFFFF00FFFFFF00000000000D0D0D001A1A1A00282828003535350043434300505050005D5D5D006B6B6B00787878008686860093939300A1A1A100AEAEAE00BBBBBB00C9C9C900D6D6D600E4E4E400
310
F1F1F100FFFFFF0000000000000000000000000000000000000000000000000000000000000000000000000000000000E2E2E2E2E2E2E2E2E2E2E2E2E2E2E2E2E2E2E2E2E2E2E2E2E2E2E2E2E2E2E2E2E2E2E2E2E2E2E2E2E2E2E2E2E2E2E2E2E2E2E2E2E2E2E2E2E2E2E2E2E2E2E2E2E2E2E2E2E2E2E2E2E2E2E2E2E2E2E2
310
E2E2E2E2E2E2E2E2E2E2E2E2E2E2E2E2E2E2E2E2E2E2E2E2E2E2E2E2E2E2E2E2E2E2E2E2E2E2E2E2E2E2E2E2E2E2E2E2E2E2E2E2E2E2E2E2E2E2E2E2E2E2E2E2E2E2E2E2E2E2E2E2E2E2E2E2E2E2E2E2E2E2E2E2E2E2E2E2E2E2E2E2E2E2E2E2E2E2E2E2EFF5F5F5F5F5F5F5F5F5F5F5F5F5F5F5F5F5F5F5F5F5F5F5F5F5F5
310
F5F5F5F5F5F5F5F5F5F5F5F5F5F5F5F5F5F5F5F5F5F5F5F5F5F5F5F5F5F5F5F5F5F5F5F5F5F5F5F5F5F5F5F5F5F5F5F5F5F5F5F5F5F5F5F5F5F5F5F5F5F5F5F5F5F5F5F5F5F5F5F5F5F5F5F5F5F5F5F5F5F5F5F5F5F5F5F5F5F5F5F5F5F5F5F5F5F5F5F5F5F5F5F5F5F5F5F5F5F5F5F5F5F5F5F5F5F5F5F5F5F5F5F5F5F5F5
310
F5F5F5F5F5F5F5F5F5F5F5F5F5F5F5F5F5F5F5F5F5F5F5F5E2E2EFF5F5F5F5F5F5F5F5F5F5F5F5F5F5F5F5F5F5F5F5F5F5F5F5F5F5F5F5F5F5F5F5F5F5F5F5F5F5F5F5F5F5F5F5F5F5F5F5F5F5F5F5F5F5F5F5F5F5F5F5F5F5F5F5F5F5F5F5F5F5F5F5F5F5F5F5F5F5F5F5F5F5F5F5F5F5F5F5F5F5F5F5F5F5F5F5F5F5F5F5
310
F5F5F5F5F5F5F5F5F5F5F5F5F5F5F5F5F5F5F5F5F5F5F5F5F5F5F5F5F5F5F5F5F5F5F5F5F5F5F5F5F5F5F5F5F5F5F5F5F5F5F5F5F5F5F5F5F5F5F5F5F5F5F5F5F5F5F5F5F5F5F5F5F5F5F5F5F5E2E2EFF5F5F5F5F5F5F5F5F5F5F5F5F5F5F5F5F5F5F5F5F5F5F5F5F5F5F5F5F5F5F5F5F5F5F5F5F5F5F5F5F5F5F5F5F5F5F5
310
F5F5F5F5F5F5F5F5F5F5F5F5F5F5F5F5F5F5F5F5F5F5F5F5F5F5F5F5F5F5F5F5F5F5F5F5F5F5F5F5F5F5F5F5F5F5F5F5F5F5F5F5F5F5F5F5F5F5F5F5F5F5F5F5F5F5F5F5F5F5F5F5F5F5F5F5F5F5F5F5F5F5F5F5F5F5F5F5F5F5F5F5F5F5F5F5F5F5F5F5F5F5F5F5F5F5F5F5F5F5F5F5F5F5F5F5F5F5F5F5F5F5F5F5F5F5F5
310
F5F5F5E2E2EFF5F5F5E2E2E2E2E2E2E2E2F5F5F5F5F5F5F5F5F5E2E2E2E2E2E2E2E2E2E2E2E2E2E2E2E2F5F5F5F5F5F5F5F5E2E2E2E2E2E2E2E2E2E2E2E2E2E2E2E2F5F5F5F5F5F5F5F5F5E2E2E2E2E2E2E2E2E2E2E2E2E2E2E2F5F5F5F5F5F5F5F5F5E2E2E2E2E2E2E2E2E2E2E2E2E2E2E2F5F5F5F5F5F5F5F5F5E2E2E2E2
310
E2E2E2E2E2E2E2E2E2E2E2E2F5F5F5F5F5F5F5F5E2E2E2E2E2E2E2E2E2E2E2E2E2E2E2E2F5F5F5F5F5F5F5F5F5E2E2E2E2E2E2E2E2F5F5F5E2E2EFF5F5F5E2F5F5F5F5F5F5F5F5F5F5F5F5F5F5F5F5F5F5F5F5F5F5F5F5F5F5F5F5F5F5F5F5F5F5F5F5F5F5F5F5F5F5F5F5F5F5F5F5F5F5F5F5F5F5F5F5F5F5F5F5F5F5F5F5
310
F5F5F5F5F5F5F5F5F5F5F5F5F5F5F5F5F5F5F5F5F5F5F5F5F5F5F5F5F5F5F5F5F5F5F5F5F5F5F5F5F5F5F5F5F5F5F5F5F5F5F5F5F5F5F5F5F5F5F5F5F5F5F5F5F5F5F5F5F5F5F5F5F5F5F5F5F5F5F5F5F5F5F5F5F5F5F5F5F5F5F5F5F5F5F5F5F5F5F5F5F5F5F5F5F5E2F5F5F5E2E2EFF5F5F5E2F5F5F5F5F5F5F5F5F5F5F5
310
F5F5F5F5F5F5F5F5F5F5F5F5F5F5F5F5F5F5F5F5F5F5F5F5F5F5F5F5F5F5F5F5F5F5F5F5F5F5F5F5F5F5F5F5F5F5F5F5F5F5F5F5F5F5F5F5F5F5F5F5F5F5F5F5F5F5F5F5F5F5F5F5F5F5F5F5F5F5F5F5F5F5F5F5F5F5F5F5F5F5F5F5F5F5F5F5F5F5F5F5F5F5F5F5F5F5F5F5F5F5F5F5F5F5F5F5F5F5F5F5F5F5F5F5F5F5F5
310
F5F5F5F5F5F5F5F5F5F5F5F5F5F5F5F5F5F5F5F5F5F5F5F5F5F5F5F5F5F5F5E2F5F5F5E2E2EFF5F5F5E2F5F5F5F5F5F5F5F5F5F5F5F5F5F5F5F5F5F5F5F5F5F5F5F5F5F5F5F5F5F5F5F5F5F5F5F5F5F5F5F5F5F5F5F5F5F5F5F5F5F5F5F5F5F5F5F5F5F5F5F5F5F5F5F5F5F5F5F5F5F5F5F5F5F5F5F5F5F5F5F5F5F5F5F5F5
310
F5F5F5F5F5F5F5F5F5F5F5F5F5F5F5F5F5F5F5F5F5F5F5F5F5F5F5F5F5F5F5F5F5F5F5F5F5F5F5F5F5F5F5F5F5F5F5F5F5F5F5F5F5F5F5F5F5F5F5F5F5F5F5F5F5F5F5F5F5F5F5F5F5F5F5F5F5F5F5F5F5F5F5F5E2F5F5F5E2E2EFF5F5F5E2F5F5F5F5F5F5F5F5F5F5F5F5F5F5F5F5F5F5F5F5F5F5F5F5F5F5F5F5F5F5F5F5
310
F5F5F5F5F5F5F5F5F5F5F5F5F5F5F5F5F5F5F5F5F5F5F5F5F5F5F5F5F5F5F5F5F5F5F5F5F5F5F5F5F5F5F5F5F5F5F5F5F5F5F5F5F5F5F5F5F5F5F5F5F5F5F5F5F5F5F5F5F5F5F5F5F5F5F5F5F5F5F5F5F5F5F5F5F5F5F5F5F5F5F5F5F5F5F5F5F5F5F5F5F5F5F5F5F5F5F5F5F5F5F5F5F5F5F5F5F5F5F5F5F5F5F5F5F5F5F5
310
F5F5F5F5F5F5F5F5F5F5E2F5F5F5E2E2EFF5F5F5E2F5F5F5F5F5F5F5F5F5F5F5F5F5F5F5F5F5F5F5F5F5F5F5F5F5F5F5F5F5F5F5F5F5F5F5F5F5F5F5F5F5F5F5F5F5F5F5F5F5F5F5F5F5F5F5F5F5F5F5F5F5F5F5F5F5F5F5F5F5F5F5F5F5F5F5F5F5F5F5F5F5F5F5F5F5F5F5F5F5F5F5F5F5F5F5F5F5F5F5F5F5F5F5F5F5F5
310
F5F5F5F5F5F5F5F5F5F5F5F5F5F5F5F5F5F5F5F5F5F5F5F5F5F5F5F5F5F5F5F5F5F5F5F5F5F5F5F5F5F5F5F5F5F5F5F5F5F5F5F5F5F5F5F5F5F5F5F5F5F5F5E2F5F5F5E2E2EFF5F5F5E2F5F5F5F5F5F5F5F5F5F5F5F5F5F5F5F5F5F5F5F5F5F5F5F5F5F5F5F5F5F5F5F5F5F5F5F5F5F5F5F5F5F5F5F5F5F5F5F5F5F5F5F5F5
310
F5F5F5F5F5F5F5F5F5F5F5F5F5F5F5F5F5F5F5F5F5F5F5F5F5F5F5F5F5F5F5F5F5F5F5F5F5F5F5F5F5F5F5F5F5F5F5F5F5F5F5F5F5F5F5F5F5F5F5F5F5F5F5F5F5F5F5F5F5F5F5F5F5F5F5F5F5F5F5F5F5F5F5F5F5F5F5F5F5F5F5F5F5F5F5F5F5F5F5F5F5F5F5F5F5F5F5F5F5F5F5F5F5F5F5F5E2F5F5F5E2E2EFF5F5F5E2
310
F5F5F5F5F5F5F5F5F5F5F5F5F5F5F5F5F5F5F5F5F5F5F5F5F5F5F5F5F5F5F5F5F5F5F5F5F5F5F5F5F5F5F5F5F5F5F5F5F5F5F5F5F5F5F5F5F5F5F5F5F5F5F5F5F5F5F5F5F5F5F5F5F5F5F5F5F5F5F5F5F5F5F5F5F5F5F5F5F5F5F5F5F5F5F5F5F5F5F5F5F5F5F5F5F5F5F5F5F5F5F5F5F5F5F5F5F5F5F5F5F5F5F5F5F5F5F5
310
F5F5F5F5F5F5F5F5F5F5F5F5F5F5F5F5F5F5F5F5F5F5F5F5F5F5F5F5F5F5F5F5F5F5F5F5F5F5F5F5F5F5E2F5F5F5E2E2EFF5F5F5E2F5F5F5F5F5F5F5F5F5F5F5F5F5F5F5F5F5F5F5F5F5F5F5F5F5F5F5F5F5F5F5F5F5F5F5F5F5F5F5F5F5F5F5F5F5F5F5F5F5F5F5F5F5F5F5F5F5F5F5F5F5F5F5F5F5F5F5F5F5F5F5F5F5F5
310
F5F5F5F5F5F5F5F5F5F5F5F5F5F5F5F5F5F5F5F5F5F5F5F5F5F5F5F5F5F5F5F5F5F5F5F5F5F5F5F5F5F5F5F5F5F5F5F5F5F5F5F5F5F5F5F5F5F5F5F5F5F5F5F5F5F5F5F5F5F5F5F5F5F5F5F5F5F5F5F5F5F5F5F5F5F5F5F5F5F5F5F5F5F5F5E2F5F5F5E2E2EFF5F5F5F5F5F5F5F5F5F5F5F5F5F5F5F5F5F5F5F5F5F5F5F5F5
310
F5F5F5F5F5F5F5F5F5F5F5F5F5F5F5F5F5F5F5F5F5F5F5F5F5F5F5F5F5F5F5F5F5F5F5F5F5F5F5F5F5F5F5F5F5F5F5F5F5F5F5F5F5F5F5F5F5F5F5F5F5F5F5F5F5F5F5F5F5F5F5F5F5F5F5F5F5F5F5F5F5F5F5F5F5F5F5F5F5F5F5F5F5F5F5F5F5F5F5F5F5F5F5F5F5F5F5F5F5F5F5F5F5F5F5F5F5F5F5F5F5F5F5F5F5F5F5
310
F5F5F5F5F5F5F5F5F5F5F5F5F5F5F5F5F5F5F5F5F5F5F5F5F5E2E2EFF5F5F5F5F5F5F5F5F5F5F5F5F5F5F5F5F5F5F5F5F5F5F5F5F5F5F5F5F5F5F5F5F5F5F5F5F5F5F5F5F5F5F5F5F5F5F5F5F5F5F5F5F5F5F5F5F5F5F5F5F5F5F5F5F5F5F5F5F5F5F5F5F5F5F5F5F5F5F5F5F5F5F5F5F5F5F5F5F5F5F5F5F5F5F5F5F5F5F5
310
F5F5F5F5F5F5F5F5F5F5F5F5F5F5F5F5F5F5F5F5F5F5F5F5F5F5F5F5F5F5F5F5F5F5F5F5F5F5F5F5F5F5F5F5F5F5F5F5F5F5F5F5F5F5F5F5F5F5F5F5F5F5F5F5F5F5F5F5F5F5F5F5F5F5F5F5F5F5E2E2EFF5F5F5F5F5F5F5F5F5F5F5F5F5F5F5F5F5F5F5F5F5F5F5F5F5F5F5F5F5F5F5F5F5F5F5F5F5F5F5F5F5F5F5F5F5F5
310
F5F5F5F5F5F5F5F5F5F5F5F5F5F5F5F5F5F5F5F5F5F5F5F5F5F5F5F5F5F5F5F5F5F5F5F5F5F5F5F5F5F5F5F5F5F5F5F5F5F5F5F5F5F5F5F5F5F5F5F5F5F5F5F5F5F5F5F5F5F5F5F5F5F5F5F5F5F5F5F5F5F5F5F5F5F5F5F5F5F5F5F5F5F5F5F5F5F5F5F5F5F5F5F5F5F5F5F5F5F5F5F5F5F5F5F5F5F5F5F5F5F5F5F5F5F5F5
310
F5F5F5F5E2E2EFF5F5F5F5F5F5F5F5F5F5F5F5F5F5F5F5F5F5F5F5F5F5F5F5F5F5F5F5F5F5F5F5F5F5F5F5F5F5F5F5F5F5F5F5F5F5F5F5F5F5F5F5F5F5F5F5F5F5F5F5F5F5F5F5F5F5F5F5F5F5F5F5F5F5F5F5F5F5F5F5F5F5F5F5F5F5F5F5F5F5F5F5F5F5F5F5F5F5F5F5F5F5F5F5F5F5F5F5F5F5F5F5F5F5F5F5F5F5F5F5
310
F5F5F5F5F5F5F5F5F5F5F5F5F5F5F5F5F5F5F5F5F5F5F5F5F5F5F5F5F5F5F5F5F5F5F5F5F5F5F5F5F5F5F5F5F5F5F5F5F5F5F5F5F5F5F5F5F5E2E2EFF5F5F5F5F5F5F5F5F5F5F5F5F5F5F5F5F5F5F5F5E2E2E2E2E2E2E2E2E2E2E2E2E2E2E2E2E2E2E2E2E2E2E2E2E2E2E2E2E2E2E2E2E2E2E2E2E2E2E2E2E2E2E2E2E2E2E2
310
E2E2E2E2E2E2E2E2E2E2E2E2E2E2E2E2E2E2E2E2E2E2E2E2E2E2E2E2E2E2E2E2E2E2E2E2E2E2E2E2E2E2E2E2E2E2E2E2E2E2E2E2E2E2E2E2E2E2E2E2E2E2E2E2E2E2E2E2E2E2E2E2E2E2E2E2E2E2E2E2E2E2E2E2E2E2E2E2E2E2F5F5F5F5F5F5F5F5F5F5F5F5F5F5F5F5F5F5F5F5E2E2EFF5F5F5F5F5F5F5F5F5F5F5F5F5F5
310
F5F5F5F5F5F5E2F5F5F5F5F5F5F5F5F5F5F5F5F5F5F5F5F5F5F5F5F5F5F5F5F5F5F5F5F5F5F5F5F5F5F5F5F5F5F5F5F5F5F5F5F5F5F5F5F5F5F5F5F5F5F5F5F5F5F5F5F5F5F5F5F5F5F5F5F5F5F5F5F5F5F5F5F5F5F5F5F5F5F5F5F5F5F5F5F5F5F5F5F5F5F5F5F5F5F5F5F5F5F5F5F5F5F5F5F5F5F5F5F5F5F5F5F5F5F5F5
310
F5F5F5F5F5F5F5F5F5F5F5F5F5F5F5E2F5F5F5F5F5F5F5F5F5F5F5F5F5F5F5F5F5F5F5F5E2E2EFF5F5F5F5F5F5F5F5F5F5F5F5F5F5F5F5F5F5F5F5E2F5F5F5F5F5F5F5F5F5F5F5F5F5F5F5F5F5F5F5F5F5F5F5F5F5F5F5F5F5F5F5F5F5F5F5F5F5F5F5F5F5F5F5F5F5F5F5F5F5F5F5F5F5F5F5F5F5F5F5F5F5F5F5F5F5F5F5
310
F5F5F5F5F5F5F5F5F5F5F5F5F5F5F5F5F5F5F5F5F5F5F5F5F5F5F5F5F5F5F5F5F5F5F5F5F5F5F5F5F5F5F5F5F5F5F5F5F5F5F5F5F5F5F5F5F5F5F5F5F5F5F5F5F5F5F5F5E2F5F5F5F5F5F5F5F5F5F5F5F5F5F5F5F5F5F5F5F5E2E2EFF5F5F5F5F5F5F5F5F5F5F5F5F5F5F5F5F5F5F5F5E2F5F5F5F5F5F5F5F5F5F5F5F5F5F5
310
F5F5F5F5F5F5F5F5F5F5F5F5F5F5F5F5F5F5F5F5F5F5F5F5F5F5F5F5F5F5F5F5F5F5F5F5F5F5F5F5F5F5F5F5F5F5F5F5F5F5F5F5F5F5F5F5F5F5F5F5F5F5F5F5F5F5F5F5F5F5F5F5F5F5F5F5F5F5F5F5F5F5F5F5F5F5F5F5F5F5F5F5F5F5F5F5F5F5F5F5F5F5F5F5F5F5F5F5F5F5F5F5F5F5F5F5F5F5F5F5F5E2F5F5F5F5F5
310
F5F5F5F5F5F5F5F5F5F5F5F5F5F5F5E2E2EFF5F5F5F5F5F5F5F5F5F5F5F5F5F5F5F5F5F5F5F5E2F5F5F5F5F5F5F5F5F5F5F5F5F5F5F5F5F5F5F5F5F5F5F5F5F5F5F5F5F5F5F5F5F5F5F5F5F5F5F5F5F5F5F5F5F5F5F5F5F5F5F5F5F5F5F5F5F5F5F5F5F5F5F5F5F5F5F5F5F5F5F5F5F5F5F5F5F5F5F5F5F5F5F5F5F5F5F5F5
310
F5F5F5F5F5F5F5F5F5F5F5F5F5F5F5F5F5F5F5F5F5F5F5F5F5F5F5F5F5F5F5F5F5F5F5F5F5F5F5F5F5F5F5F5F5F5F5E2F5F5F5F5F5F5F5F5F5F5F5F5F5F5F5F5F5F5F5F5E2E2EFF5F5F5E2F5F5F5F5F5F5F5F5F5F5F5F5F5F5F5F5E2F5F5F5F5F5F5F5F5F5F5F5F5F5F5F5F5F5F5F5F5F5F5F5F5F5F5F5F5F5F5F5F5F5F5F5
310
F5F5F5F5F5F5F5F5F5F5F5F5F5F5F5F5F5F5F5F5F5F5F5F5F5F5F5F5F5F5F5F5F5F5F5F5F5F5F5F5F5F5F5F5F5F5F5F5F5F5F5F5F5F5F5F5F5F5F5F5F5F5F5F5F5F5F5F5F5F5F5F5F5F5F5F5F5F5F5F5F5F5F5F5F5F5F5F5F5F5F5F5F5F5F5F5F5F5F5F5E2F5F5F5F5F5F5F5F5F5F5F5F5F5F5F5F5E2F5F5F5E2E2EFF5F5F5
310
E2F5F5F5F5F5F5F5F5F5F5F5F5F5F5F5F5E2F5F5F5F5F5F5F5F5F5F5F5F5F5F5F5F5F5F5F5F5F5F5F5F5F5F5F5F5F5F5F5F5F5F5F5F5F5F5F5F5F5F5F5F5F5F5F5F5F5F5F5F5F5F5F5F5F5F5F5F5F5F5F5F5F5F5F5F5F5F5F5F5F5F5F5F5F5F5F5F5F5F5F5F5F5F5F5F5F5F5F5F5F5F5F5F5F5F5F5F5F5F5F5F5F5F5F5F5F5
310
F5F5F5F5F5F5F5F5F5F5F5F5F5F5F5F5F5F5F5F5F5F5F5F5F5F5E2F5F5F5F5F5F5F5F5F5F5F5F5F5F5F5F5E2F5F5F5E2E2EFF5F5F5E2F5F5F5F5F5F5F5F5F5F5F5F5F5F5F5F5E2F5F5F5F5F5F5F5F5F5F5F5F5F5F5F5F5F5F5F5F5F5F5F5F5F5F5F5F5F5F5F5F5F5F5F5F5F5F5F5F5F5F5F5F5F5F5F5F5F5F5F5F5F5F5F5F5
310
F5F5F5F5F5F5F5F5F5F5F5F5F5F5F5F5F5F5F5F5F5F5F5F5F5F5F5F5F5F5F5F5F5F5F5F5F5F5F5F5F5F5F5F5F5F5F5F5F5F5F5F5F5F5F5F5F5F5F5F5F5F5F5F5F5F5F5F5F5F5F5F5F5F5F5F5F5F5F5E2F5F5F5F5F5F5F5F5F5F5F5F5F5F5F5F5E2F5F5F5E2E2EFF5F5F5E2F5F5F5F5F5F5F5F5F5F5F5F5F5F5F5F5E2F5F5F5
310
F5F5F5F5F5F5F5F5F5F5F5F5F5F5F5F5F5F5F5F5F5F5F5F5F5F5F5F5F5F5F5F5F5F5F5F5F5F5F5F5F5F5F5F5F5F5F5F5F5F5F5F5F5F5F5F5F5F5F5F5F5F5F5F5F5F5F5F5F5F5F5F5F5F5F5F5F5F5F5F5F5F5F5F5F5F5F5F5F5F5F5F5F5F5F5F5F5F5F5F5F5F5F5F5F5F5F5F5F5F5F5F5F5F5F5F5F5F5F5F5F5F5F5F5F5F5F5
310
F5F5F5F5F5E2F5F5F5F5F5F5F5F5F5F5F5F5F5F5F5F5E2F5F5F5E2E2EFF5F5F5E2F5F5F5F5F5F5F5F5F5F5F5F5F5F5F5F5E2F5F5F5F5F5F5F5F5F5F5F5F5F5F5F5F5F5F5F5F5F5F5F5F5F5F5F5F5F5F5F5F5F5F5F5F5F5F5F5F5F5F5F5F5F5F5F5F5F5F5F5F5F5F5F5F5F5F5F5F5F5F5F5F5F5F5F5F5F5F5F5F5F5F5F5F5F5
310
F5F5F5F5F5F5F5F5F5F5F5F5F5F5F5F5F5F5F5F5F5F5F5F5F5F5F5F5F5F5F5F5F5F5F5F5F5F5F5F5F5F5F5F5F5F5F5F5F5F5F5F5F5F5F5F5F5F5E2F5F5F5F5F5F5F5F5F5F5F5F5F5F5F5F5E2F5F5F5E2E2EFF5F5F5E2F5F5F5F5F5F5F5F5F5F5F5F5F5F5F5F5E2F5F5F5F5F5F5F5F5F5F5F5F5F5F5F5F5F5F5F5F5F5F5F5F5
310
F5F5F5F5F5F5F5F5F5F5F5F5F5F5F5F5F5F5F5F5F5F5F5F5F5F5F5F5F5F5F5F5F5F5F5F5F5F5F5F5F5F5F5F5F5F5F5F5F5F5F5F5F5F5F5F5F5F5F5F5F5F5F5F5F5F5F5F5F5F5F5F5F5F5F5F5F5F5F5F5F5F5F5F5F5F5F5F5F5F5F5F5F5F5F5F5F5F5F5F5F5F5F5F5F5F5F5F5F5F5F5E2F5F5F5F5F5F5F5F5F5F5F5F5F5F5F5
310
F5E2F5F5F5E2E2EFF5F5F5E2F5F5F5F5F5F5F5F5F5F5F5F5F5F5F5F5E2F5F5F5F5F5F5F5F5F5F5F5F5F5F5F5F5F5F5F5F5F5F5F5F5F5F5F5F5F5F5F5F5F5F5F5F5F5F5F5F5F5F5F5F5F5F5F5F5F5F5F5F5F5F5F5F5F5F5F5F5F5F5F5F5F5F5F5F5F5F5F5F5F5F5F5F5F5F5F5F5F5F5F5F5F5F5F5F5F5F5F5F5F5F5F5F5F5F5
310
F5F5F5F5F5F5F5F5F5F5F5F5F5F5F5F5F5F5F5F5F5F5F5F5F5F5F5F5F5F5F5F5F5F5F5F5F5E2F5F5F5F5F5F5F5F5F5F5F5F5F5F5F5F5E2F5F5F5E2E2EFF5F5F5E2F5F5F5F5F5F5F5F5F5F5F5F5F5F5F5F5E2F5F5F5F5F5F5F5F5F5F5F5F5F5F5F5F5F5F5F5F5F5F5F5F5F5F5F5F5F5F5F5F5F5F5F5F5F5F5F5F5F5F5F5F5F5
310
F5F5F5F5F5F5F5F5F5F5F5F5F5F5F5F5F5F5F5F5F5F5F5F5F5F5F5F5F5F5F5F5F5F5F5F5F5F5F5F5F5F5F5F5F5F5F5F5F5F5F5F5F5F5F5F5F5F5F5F5F5F5F5F5F5F5F5F5F5F5F5F5F5F5F5F5F5F5F5F5F5F5F5F5F5F5F5F5F5F5E2F5F5F5F5F5F5F5F5F5F5F5F5F5F5F5F5E2F5F5F5E2E2EFF5F5F5E2F5F5F5F5F5F5F5F5F5
310
F5F5F5F5F5F5F5E2F5F5F5F5F5F5F5F5F5F5F5F5F5F5F5F5F5F5F5F5F5F5F5F5F5F5F5F5F5F5F5F5F5F5F5F5F5F5F5F5F5F5F5F5F5F5F5F5F5F5F5F5F5F5F5F5F5F5F5F5F5F5F5F5F5F5F5F5F5F5F5F5F5F5F5F5F5F5F5F5F5F5F5F5F5F5F5F5F5F5F5F5F5F5F5F5F5F5F5F5F5F5F5F5F5F5F5F5F5F5F5F5F5F5F5F5F5F5F5
310
F5F5F5F5F5F5F5F5F5F5F5F5F5F5F5F5E2F5F5F5F5F5F5F5F5F5F5F5F5F5F5F5F5E2F5F5F5E2E2EFF5F5F5E2F5F5F5F5F5F5F5F5F5F5F5F5F5F5F5F5E2F5F5F5F5F5F5F5F5F5F5F5F5F5F5F5F5F5F5F5F5F5F5F5F5F5F5F5F5F5F5F5F5F5F5F5F5F5F5F5F5F5F5F5F5F5F5F5F5F5F5F5F5F5F5F5F5F5F5F5F5F5F5F5F5F5F5
310
F5F5F5F5F5F5F5F5F5F5F5F5F5F5F5F5F5F5F5F5F5F5F5F5F5F5F5F5F5F5F5F5F5F5F5F5F5F5F5F5F5F5F5F5F5F5F5F5F5F5F5F5F5F5F5F5F5F5F5F5F5F5F5F5F5F5F5F5F5E2F5F5F5F5F5F5F5F5F5F5F5F5F5F5F5F5E2F5F5F5E2E2EFF5F5F5E2F5F5F5F5F5F5F5F5F5F5F5F5F5F5F5F5E2F5F5F5F5F5F5F5F5F5F5F5F5F5
310
F5F5F5F5F5F5F5F5F5F5F5F5F5F5F5F5F5F5F5F5F5F5F5F5F5F5F5F5F5F5F5F5F5F5F5F5F5F5F5F5F5F5F5F5F5F5F5F5F5F5F5F5F5F5F5F5F5F5F5F5F5F5F5F5F5F5F5F5F5F5F5F5F5F5F5F5F5F5F5F5F5F5F5F5F5F5F5F5F5F5F5F5F5F5F5F5F5F5F5F5F5F5F5F5F5F5F5F5F5F5F5F5F5F5F5F5F5F5F5F5F5F5E2F5F5F5F5
310
F5F5F5F5F5F5F5F5F5F5F5F5E2F5F5F5E2E2EFF5F5F5E2F5F5F5F5F5F5F5F5F5F5F5F5F5F5F5F5E2F5F5F5F5F5F5F5F5F5F5F5F5F5F5F5F5F5F5F5F5F5F5F5F5F5F5F5F5F5F5F5F5F5F5F5F5F5F5F5F5F5F5F5F5F5F5F5F5F5F5F5F5F5F5F5F5F5F5F5F5F5F5F5F5F5F5F5F5F5F5F5F5F5F5F5F5F5F5F5F5F5F5F5F5F5F5F5
310
F5F5F5F5F5F5F5F5F5F5F5F5F5F5F5F5F5F5F5F5F5F5F5F5F5F5F5F5F5F5F5F5F5F5F5F5F5F5F5F5F5F5F5F5F5F5F5F5E2F5F5F5F5F5F5F5F5F5F5F5F5F5F5F5F5E2F5F5F5E2E2EFF5F5F5E2F5F5F5F5F5F5F5F5F5F5F5F5F5F5F5F5E2F5F5F5F5F5F5F5F5F5F5F5F5F5F5F5F5F5F5F5F5F5F5F5F5F5F5F5F5F5F5F5F5F5F5
310
F5F5F5F5F5F5F5F5F5F5F5F5F5F5F5F5F5F5F5F5F5F5F5F5F5F5F5F5F5F5F5F5F5F5F5F5F5F5F5F5F5F5F5F5F5F5F5F5F5F5F5F5F5F5F5F5F5F5F5F5F5F5F5F5F5F5F5F5F5F5F5F5F5F5F5F5F5F5F5F5F5F5F5F5F5F5F5F5F5F5F5F5F5F5F5F5F5F5F5F5F5E2F5F5F5F5F5F5F5F5F5F5F5F5F5F5F5F5E2F5F5F5E2E2EFF5F5
310
F5E2F5F5F5F5F5F5F5F5F5F5F5F5F5F5F5F5E2F5F5F5F5F5F5F5F5F5F5F5F5F5F5F5F5F5F5F5F5F5F5F5F5F5F5F5F5F5F5F5F5F5F5F5F5F5F5F5F5F5F5F5F5F5F5F5F5F5F5F5F5F5F5F5F5F5F5F5F5F5F5F5F5F5F5F5F5F5F5F5F5F5F5F5F5F5F5F5F5F5F5F5F5F5F5F5F5F5F5F5F5F5F5F5F5F5F5F5F5F5F5F5F5F5F5F5F5
310
F5F5F5F5F5F5F5F5F5F5F5F5F5F5F5F5F5F5F5F5F5F5F5F5F5F5F5E2F5F5F5F5F5F5F5F5F5F5F5F5F5F5F5F5E2F5F5F5E2E2EFF5F5F5E2F5F5F5F5F5F5F5F5F5F5F5F5F5F5F5F5E2F5F5F5F5F5F5F5F5F5F5F5F5F5F5F5F5F5F5F5F5F5F5F5F5F5F5F5F5F5F5F5F5F5F5F5F5F5F5F5F5F5F5F5F5F5F5F5F5F5F5F5F5F5F5F5
310
F5F5F5F5F5F5F5F5F5F5F5F5F5F5F5F5F5F5F5F5F5F5F5F5F5F5F5F5F5F5F5F5F5F5F5F5F5F5F5F5F5F5F5F5F5F5F5F5F5F5F5F5F5F5F5F5F5F5F5F5F5F5F5F5F5F5F5F5F5F5F5F5F5F5F5F5F5F5F5F5E2F5F5F5F5F5F5F5F5F5F5F5F5F5F5F5F5E2F5F5F5E2E2EFF5F5F5E2F5F5F5F5F5F5F5F5F5F5F5F5F5F5F5F5E2F5F5
310
F5F5F5F5F5F5F5F5F5F5F5F5F5F5F5F5F5F5F5F5F5F5F5F5F5F5F5F5F5F5F5F5F5F5F5F5F5F5F5F5F5F5F5F5F5F5F5F5F5F5F5F5F5F5F5F5F5F5F5F5F5F5F5F5F5F5F5F5F5F5F5F5F5F5F5F5F5F5F5F5F5F5F5F5F5F5F5F5F5F5F5F5F5F5F5F5F5F5F5F5F5F5F5F5F5F5F5F5F5F5F5F5F5F5F5F5F5F5F5F5F5F5F5F5F5F5F5
310
F5F5F5F5F5F5E2F5F5F5F5F5F5F5F5F5F5F5F5F5F5F5F5E2F5F5F5E2E2EFF5F5F5E2F5F5F5F5F5F5F5F5F5F5F5F5F5F5F5F5E2F5F5F5F5F5F5F5F5F5F5F5F5F5F5F5F5F5F5F5F5F5F5F5F5F5F5F5F5F5F5F5F5F5F5F5F5F5F5F5F5F5F5F5F5F5F5F5F5F5F5F5F5F5F5F5F5F5F5F5F5F5F5F5F5F5F5F5F5F5F5F5F5F5F5F5F5
310
F5F5F5F5F5F5F5F5F5F5F5F5F5F5F5F5F5F5F5F5F5F5F5F5F5F5F5F5F5F5F5F5F5F5F5F5F5F5F5F5F5F5F5F5F5F5F5F5F5F5F5F5F5F5F5F5F5F5F5E2F5F5F5F5F5F5F5F5F5F5F5F5F5F5F5F5E2F5F5F5E2E2EFF5F5F5F5F5F5F5F5F5F5F5F5F5F5F5F5F5F5F5F5E2F5F5F5F5F5F5F5F5F5F5F5F5F5F5F5F5F5F5F5F5F5F5F5
310
F5F5F5F5F5F5F5F5F5F5F5F5F5F5F5F5F5F5F5F5F5F5F5F5F5F5F5F5F5F5F5F5F5F5F5F5F5F5F5F5F5F5F5F5F5F5F5F5F5F5F5F5F5F5F5F5F5F5F5F5F5F5F5F5F5F5F5F5F5F5F5F5F5F5F5F5F5F5F5F5F5F5F5F5F5F5F5F5F5F5F5F5F5F5F5F5F5F5F5F5F5F5F5F5F5F5F5F5F5F5F5F5E2F5F5F5F5F5F5F5F5F5F5F5F5F5F5
310
F5F5F5F5F5F5E2E2EFF5F5F5F5F5F5F5F5F5F5F5F5F5F5F5F5F5F5F5F5E2F5F5F5F5F5F5F5F5F5F5F5F5F5F5F5F5F5F5F5F5F5F5F5F5F5F5F5F5F5F5F5F5F5F5F5F5F5F5F5F5F5F5F5F5F5F5F5F5F5F5F5F5F5F5F5F5F5F5F5F5F5F5F5F5F5F5F5F5F5F5F5F5F5F5F5F5F5F5F5F5F5F5F5F5F5F5F5F5F5F5F5F5F5F5F5F5F5
310
F5F5F5F5F5F5F5F5F5F5F5F5F5F5F5F5F5F5F5F5F5F5F5F5F5F5F5F5F5F5F5F5F5F5F5F5F5F5E2F5F5F5F5F5F5F5F5F5F5F5F5F5F5F5F5F5F5F5F5E2E2EFF5F5F5F5F5F5F5F5F5F5F5F5F5F5F5F5F5F5F5F5E2F5F5F5F5F5F5F5F5F5F5F5F5F5F5F5F5F5F5F5F5F5F5F5F5F5F5F5F5F5F5F5F5F5F5F5F5F5F5F5F5F5F5F5F5
310
F5F5F5F5F5F5F5F5F5F5F5F5F5F5F5F5F5F5F5F5F5F5F5F5F5F5F5F5F5F5F5F5F5F5F5F5F5F5F5F5F5F5F5F5F5F5F5F5F5F5F5F5F5F5F5F5F5F5F5F5F5F5F5F5F5F5F5F5F5F5F5F5F5F5F5F5F5F5F5F5F5F5F5F5F5F5F5F5F5F5F5E2F5F5F5F5F5F5F5F5F5F5F5F5F5F5F5F5F5F5F5F5E2E2EFF5F5F5F5F5F5F5F5F5F5F5F5
310
F5F5F5F5F5F5F5F5E2F5F5F5F5F5F5F5F5F5F5F5F5F5F5F5F5F5F5F5F5F5F5F5F5F5F5F5F5F5F5F5F5F5F5F5F5F5F5F5F5F5F5F5F5F5F5F5F5F5F5F5F5F5F5F5F5F5F5F5F5F5F5F5F5F5F5F5F5F5F5F5F5F5F5F5F5F5F5F5F5F5F5F5F5F5F5F5F5F5F5F5F5F5F5F5F5F5F5F5F5F5F5F5F5F5F5F5F5F5F5F5F5F5F5F5F5F5F5
310
F5F5F5F5F5F5F5F5F5F5F5F5F5F5F5F5F5E2F5F5F5F5F5F5F5F5F5F5F5F5F5F5F5F5F5F5F5F5E2E2EFF5F5F5F5F5F5F5F5F5F5F5F5F5F5F5F5F5F5F5F5E2F5F5F5F5F5F5F5F5F5F5F5F5F5F5F5F5F5F5F5F5F5F5F5F5F5F5F5F5F5F5F5F5F5F5F5F5F5F5F5F5F5F5F5F5F5F5F5F5F5F5F5F5F5F5F5F5F5F5F5F5F5F5F5F5F5
310
F5F5F5F5F5F5F5F5F5F5F5F5F5F5F5F5F5F5F5F5F5F5F5F5F5F5F5F5F5F5F5F5F5F5F5F5F5F5F5F5F5F5F5F5F5F5F5F5F5F5F5F5F5F5F5F5F5F5F5F5F5F5F5F5F5F5F5F5F5F5E2F5F5F5F5F5F5F5F5F5F5F5F5F5F5F5F5F5F5F5F5E2E2EFF5F5F5F5F5F5F5F5F5F5F5F5F5F5F5F5F5F5F5F5E2F5F5F5F5F5F5F5F5F5F5F5F5
310
F5F5F5F5F5F5F5F5F5F5F5F5F5F5F5F5F5F5F5F5F5F5F5F5F5F5F5F5F5F5F5F5F5F5F5F5F5F5F5F5F5F5F5F5F5F5F5F5F5F5F5F5F5F5F5F5F5F5F5F5F5F5F5F5F5F5F5F5F5F5F5F5F5F5F5F5F5F5F5F5F5F5F5F5F5F5F5F5F5F5F5F5F5F5F5F5F5F5F5F5F5F5F5F5F5F5F5F5F5F5F5F5F5F5F5F5F5F5F5F5F5F5F5E2F5F5F5
310
F5F5F5F5F5F5F5F5F5F5F5F5F5F5F5F5F5E2E2EFF5F5F5F5F5F5F5F5F5F5F5F5F5F5F5F5F5F5F5F5E2F5F5F5F5F5F5F5F5F5F5F5F5F5F5F5F5F5F5F5F5F5F5F5F5F5F5F5F5F5F5F5F5F5F5F5F5F5F5F5F5F5F5F5F5F5F5F5F5F5F5F5F5F5F5F5F5F5F5F5F5F5F5F5F5F5F5F5F5F5F5F5F5F5F5F5F5F5F5F5F5F5F5F5F5F5F5
310
F5F5F5F5F5F5F5F5F5F5F5F5F5F5F5F5F5F5F5F5F5F5F5F5F5F5F5F5F5F5F5F5F5F5F5F5F5F5F5F5F5F5F5F5F5F5F5F5F5E2F5F5F5F5F5F5F5F5F5F5F5F5F5F5F5F5F5F5F5F5E2E2EFF5F5F5F5F5F5F5F5F5F5F5F5F5F5F5F5F5F5F5F5E2F5F5F5F5F5F5F5F5F5F5F5F5F5F5F5F5F5F5F5F5F5F5F5F5F5F5F5F5F5F5F5F5F5
310
F5F5F5F5F5F5F5F5F5F5F5F5F5F5F5F5F5F5F5F5F5F5F5F5F5F5F5F5F5F5F5F5F5F5F5F5F5F5F5F5F5F5F5F5F5F5F5F5F5F5F5F5F5F5F5F5F5F5F5F5F5F5F5F5F5F5F5F5F5F5F5F5F5F5F5F5F5F5F5F5F5F5F5F5F5F5F5F5F5F5F5F5F5F5F5F5F5F5F5F5F5F5E2F5F5F5F5F5F5F5F5F5F5F5F5F5F5F5F5F5F5F5F5E2E2EFF5
310
F5F5F5F5F5F5F5F5F5F5F5F5F5F5F5F5F5F5F5E2F5F5F5F5F5F5F5F5F5F5F5F5F5F5F5F5F5F5F5F5F5F5F5F5F5F5F5F5F5F5F5F5F5F5F5F5F5F5F5F5F5F5F5F5F5F5F5F5F5F5F5F5F5F5F5F5F5F5F5F5F5F5F5F5F5F5F5F5F5F5F5F5F5F5F5F5F5F5F5F5F5F5F5F5F5F5F5F5F5F5F5F5F5F5F5F5F5F5F5F5F5F5F5F5F5F5F5
310
F5F5F5F5F5F5F5F5F5F5F5F5F5F5F5F5F5F5F5F5F5F5F5F5F5F5F5F5E2F5F5F5F5F5F5F5F5F5F5F5F5F5F5F5F5F5F5F5F5E2E2EFF5F5F5E2F5F5F5F5F5F5F5F5F5F5F5F5F5F5F5F5E2F5F5F5F5F5F5F5F5F5F5F5F5F5F5F5F5F5F5F5F5F5F5F5F5F5F5F5F5F5F5F5F5F5F5F5F5F5F5F5F5F5F5F5F5F5F5F5F5F5F5F5F5F5F5
310
F5F5F5F5F5F5F5F5F5F5F5F5F5F5F5F5F5F5F5F5F5F5F5F5F5F5F5F5F5F5F5F5F5F5F5F5F5F5F5F5F5F5F5F5F5F5F5F5F5F5F5F5F5F5F5F5F5F5F5F5F5F5F5F5F5F5F5F5F5F5F5F5F5F5F5F5F5F5F5F5F5E2F5F5F5F5F5F5F5F5F5F5F5F5F5F5F5F5E2F5F5F5E2E2EFF5F5F5E2F5F5F5F5F5F5F5F5F5F5F5F5F5F5F5F5E2F5
310
F5F5F5F5F5F5F5F5F5F5F5F5F5F5F5F5F5F5F5F5F5F5F5F5F5F5F5F5F5F5F5F5F5F5F5F5F5F5F5F5F5F5F5F5F5F5F5F5F5F5F5F5F5F5F5F5F5F5F5F5F5F5F5F5F5F5F5F5F5F5F5F5F5F5F5F5F5F5F5F5F5F5F5F5F5F5F5F5F5F5F5F5F5F5F5F5F5F5F5F5F5F5F5F5F5F5F5F5F5F5F5F5F5F5F5F5F5F5F5F5F5F5F5F5F5F5F5
310
F5F5F5F5F5F5F5E2F5F5F5F5F5F5F5F5F5F5F5F5F5F5F5F5E2F5F5F5E2E2EFF5F5F5E2F5F5F5F5F5F5F5F5F5F5F5F5F5F5F5F5E2F5F5F5F5F5F5F5F5F5F5F5F5F5F5F5F5F5F5F5F5F5F5F5F5F5F5F5F5F5F5F5F5F5F5F5F5F5F5F5F5F5F5F5F5F5F5F5F5F5F5F5F5F5F5F5F5F5F5F5F5F5F5F5F5F5F5F5F5F5F5F5F5F5F5F5
310
F5F5F5F5F5F5F5F5F5F5F5F5F5F5F5F5F5F5F5F5F5F5F5F5F5F5F5F5F5F5F5F5F5F5F5F5F5F5F5F5F5F5F5F5F5F5F5F5F5F5F5F5F5F5F5F5F5F5F5F5E2F5F5F5F5F5F5F5F5F5F5F5F5F5F5F5F5E2F5F5F5E2E2EFF5F5F5E2F5F5F5F5F5F5F5F5F5F5F5F5F5F5F5F5E2F5F5F5F5F5F5F5F5F5F5F5F5F5F5F5F5F5F5F5F5F5F5
310
F5F5F5F5F5F5F5F5F5F5F5F5F5F5F5F5F5F5F5F5F5F5F5F5F5F5F5F5F5F5F5F5F5F5F5F5F5F5F5F5F5F5F5F5F5F5F5F5F5F5F5F5F5F5F5F5F5F5F5F5F5F5F5F5F5F5F5F5F5F5F5F5F5F5F5F5F5F5F5F5F5F5F5F5F5F5F5F5F5F5F5F5F5F5F5F5F5F5F5F5F5F5F5F5F5F5F5F5F5F5F5F5F5E2F5F5F5F5F5F5F5F5F5F5F5F5F5
310
F5F5F5E2F5F5F5E2E2EFF5F5F5E2F5F5F5F5F5F5F5F5F5F5F5F5F5F5F5F5E2F5F5F5F5F5F5F5F5F5F5F5F5F5F5F5F5F5F5F5F5F5F5F5F5F5F5F5F5F5F5F5F5F5F5F5F5F5F5F5F5F5F5F5F5F5F5F5F5F5F5F5F5F5F5F5F5F5F5F5F5F5F5F5F5F5F5F5F5F5F5F5F5F5F5F5F5F5F5F5F5F5F5F5F5F5F5F5F5F5F5F5F5F5F5F5F5
310
F5F5F5F5F5F5F5F5F5F5F5F5F5F5F5F5F5F5F5F5F5F5F5F5F5F5F5F5F5F5F5F5F5F5F5F5F5F5F5E2F5F5F5F5F5F5F5F5F5F5F5F5F5F5F5F5E2F5F5F5E2E2EFF5F5F5E2F5F5F5F5F5F5F5F5F5F5F5F5F5F5F5F5E2F5F5F5F5F5F5F5F5F5F5F5F5F5F5F5F5F5F5F5F5F5F5F5F5F5F5F5F5F5F5F5F5F5F5F5F5F5F5F5F5F5F5F5
310
F5F5F5F5F5F5F5F5F5F5F5F5F5F5F5F5F5F5F5F5F5F5F5F5F5F5F5F5F5F5F5F5F5F5F5F5F5F5F5F5F5F5F5F5F5F5F5F5F5F5F5F5F5F5F5F5F5F5F5F5F5F5F5F5F5F5F5F5F5F5F5F5F5F5F5F5F5F5F5F5F5F5F5F5F5F5F5F5F5F5F5F5E2F5F5F5F5F5F5F5F5F5F5F5F5F5F5F5F5E2F5F5F5E2E2EFF5F5F5E2F5F5F5F5F5F5F5
310
F5F5F5F5F5F5F5F5F5E2F5F5F5F5F5F5F5F5F5F5F5F5F5F5F5F5F5F5F5F5F5F5F5F5F5F5F5F5F5F5F5F5F5F5F5F5F5F5F5F5F5F5F5F5F5F5F5F5F5F5F5F5F5F5F5F5F5F5F5F5F5F5F5F5F5F5F5F5F5F5F5F5F5F5F5F5F5F5F5F5F5F5F5F5F5F5F5F5F5F5F5F5F5F5F5F5F5F5F5F5F5F5F5F5F5F5F5F5F5F5F5F5F5F5F5F5F5
310
F5F5F5F5F5F5F5F5F5F5F5F5F5F5F5F5F5F5E2F5F5F5F5F5F5F5F5F5F5F5F5F5F5F5F5E2F5F5F5E2E2EFF5F5F5E2F5F5F5F5F5F5F5F5F5F5F5F5F5F5F5F5E2F5F5F5F5F5F5F5F5F5F5F5F5F5F5F5F5F5F5F5F5F5F5F5F5F5F5F5F5F5F5F5F5F5F5F5F5F5F5F5F5F5F5F5F5F5F5F5F5F5F5F5F5F5F5F5F5F5F5F5F5F5F5F5F5
310
F5F5F5F5F5F5F5F5F5F5F5F5F5F5F5F5F5F5F5F5F5F5F5F5F5F5F5F5F5F5F5F5F5F5F5F5F5F5F5F5F5F5F5F5F5F5F5F5F5F5F5F5F5F5F5F5F5F5F5F5F5F5F5F5F5F5F5F5F5F5F5E2F5F5F5F5F5F5F5F5F5F5F5F5F5F5F5F5E2F5F5F5E2E2EFF5F5F5E2F5F5F5F5F5F5F5F5F5F5F5F5F5F5F5F5E2F5F5F5F5F5F5F5F5F5F5F5
310
F5F5F5F5F5F5F5F5F5F5F5F5F5F5F5F5F5F5F5F5F5F5F5F5F5F5F5F5F5F5F5F5F5F5F5F5F5F5F5F5F5F5F5F5F5F5F5F5F5F5F5F5F5F5F5F5F5F5F5F5F5F5F5F5F5F5F5F5F5F5F5F5F5F5F5F5F5F5F5F5F5F5F5F5F5F5F5F5F5F5F5F5F5F5F5F5F5F5F5F5F5F5F5F5F5F5F5F5F5F5F5F5F5F5F5F5F5F5F5F5F5F5F5F5E2F5F5
310
F5F5F5F5F5F5F5F5F5F5F5F5F5F5E2F5F5F5E2E2EFF5F5F5E2F5F5F5F5F5F5F5F5F5F5F5F5F5F5F5F5E2F5F5F5F5F5F5F5F5F5F5F5F5F5F5F5F5F5F5F5F5F5F5F5F5F5F5F5F5F5F5F5F5F5F5F5F5F5F5F5F5F5F5F5F5F5F5F5F5F5F5F5F5F5F5F5F5F5F5F5F5F5F5F5F5F5F5F5F5F5F5F5F5F5F5F5F5F5F5F5F5F5F5F5F5F5
310
F5F5F5F5F5F5F5F5F5F5F5F5F5F5F5F5F5F5F5F5F5F5F5F5F5F5F5F5F5F5F5F5F5F5F5F5F5F5F5F5F5F5F5F5F5F5F5F5F5F5E2F5F5F5F5F5F5F5F5F5F5F5F5F5F5F5F5E2F5F5F5E2E2EFF5F5F5E2F5F5F5F5F5F5F5F5F5F5F5F5F5F5F5F5E2F5F5F5F5F5F5F5F5F5F5F5F5F5F5F5F5F5F5F5F5F5F5F5F5F5F5F5F5F5F5F5F5
310
F5F5F5F5F5F5F5F5F5F5F5F5F5F5F5F5F5F5F5F5F5F5F5F5F5F5F5F5F5F5F5F5F5F5F5F5F5F5F5F5F5F5F5F5F5F5F5F5F5F5F5F5F5F5F5F5F5F5F5F5F5F5F5F5F5F5F5F5F5F5F5F5F5F5F5F5F5F5F5F5F5F5F5F5F5F5F5F5F5F5F5F5F5F5F5F5F5F5F5F5F5F5F5E2F5F5F5F5F5F5F5F5F5F5F5F5F5F5F5F5E2F5F5F5E2E2EF
310
F5F5F5E2F5F5F5F5F5F5F5F5F5F5F5F5F5F5F5F5E2F5F5F5F5F5F5F5F5F5F5F5F5F5F5F5F5F5F5F5F5F5F5F5F5F5F5F5F5F5F5F5F5F5F5F5F5F5F5F5F5F5F5F5F5F5F5F5F5F5F5F5F5F5F5F5F5F5F5F5F5F5F5F5F5F5F5F5F5F5F5F5F5F5F5F5F5F5F5F5F5F5F5F5F5F5F5F5F5F5F5F5F5F5F5F5F5F5F5F5F5F5F5F5F5F5F5
310
F5F5F5F5F5F5F5F5F5F5F5F5F5F5F5F5F5F5F5F5F5F5F5F5F5F5F5F5F5E2F5F5F5F5F5F5F5F5F5F5F5F5F5F5F5F5E2F5F5F5E2E2EFF5F5F5E2F5F5F5F5F5F5F5F5F5F5F5F5F5F5F5F5E2F5F5F5F5F5F5F5F5F5F5F5F5F5F5F5F5F5F5F5F5F5F5F5F5F5F5F5F5F5F5F5F5F5F5F5F5F5F5F5F5F5F5F5F5F5F5F5F5F5F5F5F5F5
310
F5F5F5F5F5F5F5F5F5F5F5F5F5F5F5F5F5F5F5F5F5F5F5F5F5F5F5F5F5F5F5F5F5F5F5F5F5F5F5F5F5F5F5F5F5F5F5F5F5F5F5F5F5F5F5F5F5F5F5F5F5F5F5F5F5F5F5F5F5F5F5F5F5F5F5F5F5F5F5F5F5F5E2F5F5F5F5F5F5F5F5F5F5F5F5F5F5F5F5E2F5F5F5E2E2EFF5F5F5E2F5F5F5F5F5F5F5F5F5F5F5F5F5F5F5F5E2
310
F5F5F5F5F5F5F5F5F5F5F5F5F5F5F5F5F5F5F5F5F5F5F5F5F5F5F5F5F5F5F5F5F5F5F5F5F5F5F5F5F5F5F5F5F5F5F5F5F5F5F5F5F5F5F5F5F5F5F5F5F5F5F5F5F5F5F5F5F5F5F5F5F5F5F5F5F5F5F5F5F5F5F5F5F5F5F5F5F5F5F5F5F5F5F5F5F5F5F5F5F5F5F5F5F5F5F5F5F5F5F5F5F5F5F5F5F5F5F5F5F5F5F5F5F5F5F5
310
F5F5F5F5F5F5F5F5E2F5F5F5F5F5F5F5F5F5F5F5F5F5F5F5F5E2F5F5F5E2E2EFF5F5F5E2F5F5F5F5F5F5F5F5F5F5F5F5F5F5F5F5E2F5F5F5F5F5F5F5F5F5F5F5F5F5F5F5F5F5F5F5F5F5F5F5F5F5F5F5F5F5F5F5F5F5F5F5F5F5F5F5F5F5F5F5F5F5F5F5F5F5F5F5F5F5F5F5F5F5F5F5F5F5F5F5F5F5F5F5F5F5F5F5F5F5F5
310
F5F5F5F5F5F5F5F5F5F5F5F5F5F5F5F5F5F5F5F5F5F5F5F5F5F5F5F5F5F5F5F5F5F5F5F5F5F5F5F5F5F5F5F5F5F5F5F5F5F5F5F5F5F5F5F5F5F5F5F5F5E2F5F5F5F5F5F5F5F5F5F5F5F5F5F5F5F5E2F5F5F5E2E2EFF5F5F5E2F5F5F5F5F5F5F5F5F5F5F5F5F5F5F5F5E2F5F5F5F5F5F5F5F5F5F5F5F5F5F5F5F5F5F5F5F5F5
310
F5F5F5F5F5F5F5F5F5F5F5F5F5F5F5F5F5F5F5F5F5F5F5F5F5F5F5F5F5F5F5F5F5F5F5F5F5F5F5F5F5F5F5F5F5F5F5F5F5F5F5F5F5F5F5F5F5F5F5F5F5F5F5F5F5F5F5F5F5F5F5F5F5F5F5F5F5F5F5F5F5F5F5F5F5F5F5F5F5F5F5F5F5F5F5F5F5F5F5F5F5F5F5F5F5F5F5F5F5F5F5F5F5F5E2F5F5F5F5F5F5F5F5F5F5F5F5
310
F5F5F5F5E2F5F5F5E2E2EFF5F5F5E2F5F5F5F5F5F5F5F5F5F5F5F5F5F5F5F5E2F5F5F5F5F5F5F5F5F5F5F5F5F5F5F5F5F5F5F5F5F5F5F5F5F5F5F5F5F5F5F5F5F5F5F5F5F5F5F5F5F5F5F5F5F5F5F5F5F5F5F5F5F5F5F5F5F5F5F5F5F5F5F5F5F5F5F5F5F5F5F5F5F5F5F5F5F5F5F5F5F5F5F5F5F5F5F5F5F5F5F5F5F5F5F5
310
F5F5F5F5F5F5F5F5F5F5F5F5F5F5F5F5F5F5F5F5F5F5F5F5F5F5F5F5F5F5F5F5F5F5F5F5F5F5F5F5E2F5F5F5F5F5F5F5F5F5F5F5F5F5F5F5F5E2F5F5F5E2E2EFF5F5F5F5F5F5F5F5F5F5F5F5F5F5F5F5F5F5F5F5E2F5F5F5F5F5F5F5F5F5F5F5F5F5F5F5F5F5F5F5F5F5F5F5F5F5F5F5F5F5F5F5F5F5F5F5F5F5F5F5F5F5F5
310
F5F5F5F5F5F5F5F5F5F5F5F5F5F5F5F5F5F5F5F5F5F5F5F5F5F5F5F5F5F5F5F5F5F5F5F5F5F5F5F5F5F5F5F5F5F5F5F5F5F5F5F5F5F5F5F5F5F5F5F5F5F5F5F5F5F5F5F5F5F5F5F5F5F5F5F5F5F5F5F5F5F5F5F5F5F5F5F5F5F5F5F5F5E2F5F5F5F5F5F5F5F5F5F5F5F5F5F5F5F5F5F5F5F5E2E2EFF5F5F5F5F5F5F5F5F5F5
310
F5F5F5F5F5F5F5F5F5F5E2F5F5F5F5F5F5F5F5F5F5F5F5F5F5F5F5F5F5F5F5F5F5F5F5F5F5F5F5F5F5F5F5F5F5F5F5F5F5F5F5F5F5F5F5F5F5F5F5F5F5F5F5F5F5F5F5F5F5F5F5F5F5F5F5F5F5F5F5F5F5F5F5F5F5F5F5F5F5F5F5F5F5F5F5F5F5F5F5F5F5F5F5F5F5F5F5F5F5F5F5F5F5F5F5F5F5F5F5F5F5F5F5F5F5F5F5
310
F5F5F5F5F5F5F5F5F5F5F5F5F5F5F5F5F5F5F5E2F5F5F5F5F5F5F5F5F5F5F5F5F5F5F5F5F5F5F5F5E2E2EFF5F5F5F5F5F5F5F5F5F5F5F5F5F5F5F5F5F5F5F5E2F5F5F5F5F5F5F5F5F5F5F5F5F5F5F5F5F5F5F5F5F5F5F5F5F5F5F5F5F5F5F5F5F5F5F5F5F5F5F5F5F5F5F5F5F5F5F5F5F5F5F5F5F5F5F5F5F5F5F5F5F5F5F5
310
F5F5F5F5F5F5F5F5F5F5F5F5F5F5F5F5F5F5F5F5F5F5F5F5F5F5F5F5F5F5F5F5F5F5F5F5F5F5F5F5F5F5F5F5F5F5F5F5F5F5F5F5F5F5F5F5F5F5F5F5F5F5F5F5F5F5F5F5F5F5F5F5E2F5F5F5F5F5F5F5F5F5F5F5F5F5F5F5F5F5F5F5F5E2E2EFF5F5F5F5F5F5F5F5F5F5F5F5F5F5F5F5F5F5F5F5E2F5F5F5F5F5F5F5F5F5F5
310
F5F5F5F5F5F5F5F5F5F5F5F5F5F5F5F5F5F5F5F5F5F5F5F5F5F5F5F5F5F5F5F5F5F5F5F5F5F5F5F5F5F5F5F5F5F5F5F5F5F5F5F5F5F5F5F5F5F5F5F5F5F5F5F5F5F5F5F5F5F5F5F5F5F5F5F5F5F5F5F5F5F5F5F5F5F5F5F5F5F5F5F5F5F5F5F5F5F5F5F5F5F5F5F5F5F5F5F5F5F5F5F5F5F5F5F5F5F5F5F5F5F5F5F5F5E2F5
310
F5F5F5F5F5F5F5F5F5F5F5F5F5F5F5F5F5F5F5E2E2EFF5F5F5F5F5F5F5F5F5F5F5F5F5F5F5F5F5F5F5F5E2F5F5F5F5F5F5F5F5F5F5F5F5F5F5F5F5F5F5F5F5F5F5F5F5F5F5F5F5F5F5F5F5F5F5F5F5F5F5F5F5F5F5F5F5F5F5F5F5F5F5F5F5F5F5F5F5F5F5F5F5F5F5F5F5F5F5F5F5F5F5F5F5F5F5F5F5F5F5F5F5F5F5F5F5
310
F5F5F5F5F5F5F5F5F5F5F5F5F5F5F5F5F5F5F5F5F5F5F5F5F5F5F5F5F5F5F5F5F5F5F5F5F5F5F5F5F5F5F5F5F5F5F5F5F5F5F5E2F5F5F5F5F5F5F5F5F5F5F5F5F5F5F5F5F5F5F5F5E2E2EFF5F5F5F5F5F5F5F5F5F5F5F5F5F5F5F5F5F5F5F5E2F5F5F5F5F5F5F5F5F5F5F5F5F5F5F5F5F5F5F5F5F5F5F5F5F5F5F5F5F5F5F5
310
F5F5F5F5F5F5F5F5F5F5F5F5F5F5F5F5F5F5F5F5F5F5F5F5F5F5F5F5F5F5F5F5F5F5F5F5F5F5F5F5F5F5F5F5F5F5F5F5F5F5F5F5F5F5F5F5F5F5F5F5F5F5F5F5F5F5F5F5F5F5F5F5F5F5F5F5F5F5F5F5F5F5F5F5F5F5F5F5F5F5F5F5F5F5F5F5F5F5F5F5F5F5F5F5E2F5F5F5F5F5F5F5F5F5F5F5F5F5F5F5F5F5F5F5F5E2E2
310
EFF5F5F5F5F5F5F5F5F5F5F5F5F5F5F5F5F5F5F5F5E2F5F5F5F5F5F5F5F5F5F5F5F5F5F5F5F5F5F5F5F5F5F5F5F5F5F5F5F5F5F5F5F5F5F5F5F5F5F5F5F5F5F5F5F5F5F5F5F5F5F5F5F5F5F5F5F5F5F5F5F5F5F5F5F5F5F5F5F5F5F5F5F5F5F5F5F5F5F5F5F5F5F5F5F5F5F5F5F5F5F5F5F5F5F5F5F5F5F5F5F5F5F5F5F5F5
310
F5F5F5F5F5F5F5F5F5F5F5F5F5F5F5F5F5F5F5F5F5F5F5F5F5F5F5F5F5F5E2F5F5F5F5F5F5F5F5F5F5F5F5F5F5F5F5F5F5F5F5E2E2EFF5F5F5F5F5F5F5F5F5F5F5F5F5F5F5F5F5F5F5F5E2F5F5F5F5F5F5F5F5F5F5F5F5F5F5F5F5F5F5F5F5F5F5F5F5F5F5F5F5F5F5F5F5F5F5F5F5F5F5F5F5F5F5F5F5F5F5F5F5F5F5F5F5
310
F5F5F5F5F5F5F5F5F5F5F5F5F5F5F5F5F5F5F5F5F5F5F5F5F5F5F5F5F5F5F5F5F5F5F5F5F5F5F5F5F5F5F5F5F5F5F5F5F5F5F5F5F5F5F5F5F5F5F5F5F5F5F5F5F5F5F5F5F5F5F5F5F5F5F5F5F5F5F5F5F5F5F5E2F5F5F5F5F5F5F5F5F5F5F5F5F5F5F5F5F5F5F5F5E2E2EFF5F5F5F5F5F5F5F5F5F5F5F5F5F5F5F5F5F5F5F5
310
E2F5F5F5F5F5F5F5F5F5F5F5F5F5F5F5F5F5F5F5F5F5F5F5F5F5F5F5F5F5F5F5F5F5F5F5F5F5F5F5F5F5F5F5F5F5F5F5F5F5F5F5F5F5F5F5F5F5F5F5F5F5F5F5F5F5F5F5F5F5F5F5F5F5F5F5F5F5F5F5F5F5F5F5F5F5F5F5F5F5F5F5F5F5F5F5F5F5F5F5F5F5F5F5F5F5F5F5F5F5F5F5F5F5F5F5F5F5F5F5F5F5F5F5F5F5F5
310
F5F5F5F5F5F5F5F5F5E2F5F5F5F5F5F5F5F5F5F5F5F5F5F5F5F5F5F5F5F5E2E2EFF5F5F5E2F5F5F5F5F5F5F5F5F5F5F5F5F5F5F5F5E2F5F5F5F5F5F5F5F5F5F5F5F5F5F5F5F5F5F5F5F5F5F5F5F5F5F5F5F5F5F5F5F5F5F5F5F5F5F5F5F5F5F5F5F5F5F5F5F5F5F5F5F5F5F5F5F5F5F5F5F5F5F5F5F5F5F5F5F5F5F5F5F5F5
310
F5F5F5F5F5F5F5F5F5F5F5F5F5F5F5F5F5F5F5F5F5F5F5F5F5F5F5F5F5F5F5F5F5F5F5F5F5F5F5F5F5F5F5F5F5F5F5F5F5F5F5F5F5F5F5F5F5F5F5F5F5F5E2F5F5F5F5F5F5F5F5F5F5F5F5F5F5F5F5E2F5F5F5E2E2EFF5F5F5E2F5F5F5F5F5F5F5F5F5F5F5F5F5F5F5F5E2F5F5F5F5F5F5F5F5F5F5F5F5F5F5F5F5F5F5F5F5
310
F5F5F5F5F5F5F5F5F5F5F5F5F5F5F5F5F5F5F5F5F5F5F5F5F5F5F5F5F5F5F5F5F5F5F5F5F5F5F5F5F5F5F5F5F5F5F5F5F5F5F5F5F5F5F5F5F5F5F5F5F5F5F5F5F5F5F5F5F5F5F5F5F5F5F5F5F5F5F5F5F5F5F5F5F5F5F5F5F5F5F5F5F5F5F5F5F5F5F5F5F5F5F5F5F5F5F5F5F5F5F5F5F5F5F5E2F5F5F5F5F5F5F5F5F5F5F5
310
F5F5F5F5F5E2F5F5F5E2E2EFF5F5F5E2F5F5F5F5F5F5F5F5F5F5F5F5F5F5F5F5E2F5F5F5F5F5F5F5F5F5F5F5F5F5F5F5F5F5F5F5F5F5F5F5F5F5F5F5F5F5F5F5F5F5F5F5F5F5F5F5F5F5F5F5F5F5F5F5F5F5F5F5F5F5F5F5F5F5F5F5F5F5F5F5F5F5F5F5F5F5F5F5F5F5F5F5F5F5F5F5F5F5F5F5F5F5F5F5F5F5F5F5F5F5F5
310
F5F5F5F5F5F5F5F5F5F5F5F5F5F5F5F5F5F5F5F5F5F5F5F5F5F5F5F5F5F5F5F5F5F5F5F5F5F5F5F5F5E2F5F5F5F5F5F5F5F5F5F5F5F5F5F5F5F5E2F5F5F5E2E2EFF5F5F5E2F5F5F5F5F5F5F5F5F5F5F5F5F5F5F5F5E2F5F5F5F5F5F5F5F5F5F5F5F5F5F5F5F5F5F5F5F5F5F5F5F5F5F5F5F5F5F5F5F5F5F5F5F5F5F5F5F5F5
310
F5F5F5F5F5F5F5F5F5F5F5F5F5F5F5F5F5F5F5F5F5F5F5F5F5F5F5F5F5F5F5F5F5F5F5F5F5F5F5F5F5F5F5F5F5F5F5F5F5F5F5F5F5F5F5F5F5F5F5F5F5F5F5F5F5F5F5F5F5F5F5F5F5F5F5F5F5F5F5F5F5F5F5F5F5F5F5F5F5F5F5F5F5F5E2F5F5F5F5F5F5F5F5F5F5F5F5F5F5F5F5E2F5F5F5E2E2EFF5F5F5E2F5F5F5F5F5
310
F5F5F5F5F5F5F5F5F5F5F5E2F5F5F5F5F5F5F5F5F5F5F5F5F5F5F5F5F5F5F5F5F5F5F5F5F5F5F5F5F5F5F5F5F5F5F5F5F5F5F5F5F5F5F5F5F5F5F5F5F5F5F5F5F5F5F5F5F5F5F5F5F5F5F5F5F5F5F5F5F5F5F5F5F5F5F5F5F5F5F5F5F5F5F5F5F5F5F5F5F5F5F5F5F5F5F5F5F5F5F5F5F5F5F5F5F5F5F5F5F5F5F5F5F5F5F5
310
F5F5F5F5F5F5F5F5F5F5F5F5F5F5F5F5F5F5F5F5E2F5F5F5F5F5F5F5F5F5F5F5F5F5F5F5F5E2F5F5F5E2E2EFF5F5F5E2F5F5F5F5F5F5F5F5F5F5F5F5F5F5F5F5E2F5F5F5F5F5F5F5F5F5F5F5F5F5F5F5F5F5F5F5F5F5F5F5F5F5F5F5F5F5F5F5F5F5F5F5F5F5F5F5F5F5F5F5F5F5F5F5F5F5F5F5F5F5F5F5F5F5F5F5F5F5F5
310
F5F5F5F5F5F5F5F5F5F5F5F5F5F5F5F5F5F5F5F5F5F5F5F5F5F5F5F5F5F5F5F5F5F5F5F5F5F5F5F5F5F5F5F5F5F5F5F5F5F5F5F5F5F5F5F5F5F5F5F5F5F5F5F5F5F5F5F5F5F5F5F5F5E2F5F5F5F5F5F5F5F5F5F5F5F5F5F5F5F5E2F5F5F5E2E2EFF5F5F5E2F5F5F5F5F5F5F5F5F5F5F5F5F5F5F5F5E2F5F5F5F5F5F5F5F5F5
310
F5F5F5F5F5F5F5F5F5F5F5F5F5F5F5F5F5F5F5F5F5F5F5F5F5F5F5F5F5F5F5F5F5F5F5F5F5F5F5F5F5F5F5F5F5F5F5F5F5F5F5F5F5F5F5F5F5F5F5F5F5F5F5F5F5F5F5F5F5F5F5F5F5F5F5F5F5F5F5F5F5F5F5F5F5F5F5F5F5F5F5F5F5F5F5F5F5F5F5F5F5F5F5F5F5F5F5F5F5F5F5F5F5F5F5F5F5F5F5F5F5F5F5F5F5F5E2
310
F5F5F5F5F5F5F5F5F5F5F5F5F5F5F5F5E2F5F5F5E2E2EFF5F5F5E2F5F5F5F5F5F5F5F5F5F5F5F5F5F5F5F5E2F5F5F5F5F5F5F5F5F5F5F5F5F5F5F5F5F5F5F5F5F5F5F5F5F5F5F5F5F5F5F5F5F5F5F5F5F5F5F5F5F5F5F5F5F5F5F5F5F5F5F5F5F5F5F5F5F5F5F5F5F5F5F5F5F5F5F5F5F5F5F5F5F5F5F5F5F5F5F5F5F5F5F5
310
F5F5F5F5F5F5F5F5F5F5F5F5F5F5F5F5F5F5F5F5F5F5F5F5F5F5F5F5F5F5F5F5F5F5F5F5F5F5F5F5F5F5F5F5F5F5F5F5F5F5F5F5E2F5F5F5F5F5F5F5F5F5F5F5F5F5F5F5F5E2F5F5F5E2E2EFF5F5F5E2F5F5F5F5F5F5F5F5F5F5F5F5F5F5F5F5E2F5F5F5F5F5F5F5F5F5F5F5F5F5F5F5F5F5F5F5F5F5F5F5F5F5F5F5F5F5F5
310
F5F5F5F5F5F5F5F5F5F5F5F5F5F5F5F5F5F5F5F5F5F5F5F5F5F5F5F5F5F5F5F5F5F5F5F5F5F5F5F5F5F5F5F5F5F5F5F5F5F5F5F5F5F5F5F5F5F5F5F5F5F5F5F5F5F5F5F5F5F5F5F5F5F5F5F5F5F5F5F5F5F5F5F5F5F5F5F5F5F5F5F5F5F5F5F5F5F5F5F5F5F5F5F5F5E2F5F5F5F5F5F5F5F5F5F5F5F5F5F5F5F5E2F5F5F5E2
310
E2EFF5F5F5E2F5F5F5F5F5F5F5F5F5F5F5F5F5F5F5F5E2F5F5F5F5F5F5F5F5F5F5F5F5F5F5F5F5F5F5F5F5F5F5F5F5F5F5F5F5F5F5F5F5F5F5F5F5F5F5F5F5F5F5F5F5F5F5F5F5F5F5F5F5F5F5F5F5F5F5F5F5F5F5F5F5F5F5F5F5F5F5F5F5F5F5F5F5F5F5F5F5F5F5F5F5F5F5F5F5F5F5F5F5F5F5F5F5F5F5F5F5F5F5F5F5
310
F5F5F5F5F5F5F5F5F5F5F5F5F5F5F5F5F5F5F5F5F5F5F5F5F5F5F5F5F5F5F5E2F5F5F5F5F5F5F5F5F5F5F5F5F5F5F5F5E2F5F5F5E2E2EFF5F5F5E2F5F5F5F5F5F5F5F5F5F5F5F5F5F5F5F5E2F5F5F5F5F5F5F5F5F5F5F5F5F5F5F5F5F5F5F5F5F5F5F5F5F5F5F5F5F5F5F5F5F5F5F5F5F5F5F5F5F5F5F5F5F5F5F5F5F5F5F5
310
F5F5F5F5F5F5F5F5F5F5F5F5F5F5F5F5F5F5F5F5F5F5F5F5F5F5F5F5F5F5F5F5F5F5F5F5F5F5F5F5F5F5F5F5F5F5F5F5F5F5F5F5F5F5F5F5F5F5F5F5F5F5F5F5F5F5F5F5F5F5F5F5F5F5F5F5F5F5F5F5F5F5F5F5E2F5F5F5F5F5F5F5F5F5F5F5F5F5F5F5F5E2F5F5F5E2E2EFF5F5F5E2F5F5F5F5F5F5F5F5F5F5F5F5F5F5F5
310
F5E2F5F5F5F5F5F5F5F5F5F5F5F5F5F5F5F5F5F5F5F5F5F5F5F5F5F5F5F5F5F5F5F5F5F5F5F5F5F5F5F5F5F5F5F5F5F5F5F5F5F5F5F5F5F5F5F5F5F5F5F5F5F5F5F5F5F5F5F5F5F5F5F5F5F5F5F5F5F5F5F5F5F5F5F5F5F5F5F5F5F5F5F5F5F5F5F5F5F5F5F5F5F5F5F5F5F5F5F5F5F5F5F5F5F5F5F5F5F5F5F5F5F5F5F5F5
310
F5F5F5F5F5F5F5F5F5F5E2F5F5F5F5F5F5F5F5F5F5F5F5F5F5F5F5E2F5F5F5E2E2EFF5F5F5E2F5F5F5F5F5F5F5F5F5F5F5F5F5F5F5F5E2F5F5F5F5F5F5F5F5F5F5F5F5F5F5F5F5F5F5F5F5F5F5F5F5F5F5F5F5F5F5F5F5F5F5F5F5F5F5F5F5F5F5F5F5F5F5F5F5F5F5F5F5F5F5F5F5F5F5F5F5F5F5F5F5F5F5F5F5F5F5F5F5
310
F5F5F5F5F5F5F5F5F5F5F5F5F5F5F5F5F5F5F5F5F5F5F5F5F5F5F5F5F5F5F5F5F5F5F5F5F5F5F5F5F5F5F5F5F5F5F5F5F5F5F5F5F5F5F5F5F5F5F5F5F5F5F5E2F5F5F5F5F5F5F5F5F5F5F5F5F5F5F5F5E2F5F5F5E2E2EFF5F5F5E2F5F5F5F5F5F5F5F5F5F5F5F5F5F5F5F5E2F5F5F5F5F5F5F5F5F5F5F5F5F5F5F5F5F5F5F5
310
F5F5F5F5F5F5F5F5F5F5F5F5F5F5F5F5F5F5F5F5F5F5F5F5F5F5F5F5F5F5F5F5F5F5F5F5F5F5F5F5F5F5F5F5F5F5F5F5F5F5F5F5F5F5F5F5F5F5F5F5F5F5F5F5F5F5F5F5F5F5F5F5F5F5F5F5F5F5F5F5F5F5F5F5F5F5F5F5F5F5F5F5F5F5F5F5F5F5F5F5F5F5F5F5F5F5F5F5F5F5F5F5F5F5F5F5E2F5F5F5F5F5F5F5F5F5F5
310
F5F5F5F5F5F5E2F5F5F5E2E2EFF5F5F5E2F5F5F5F5F5F5F5F5F5F5F5F5F5F5F5F5E2F5F5F5F5F5F5F5F5F5F5F5F5F5F5F5F5F5F5F5F5F5F5F5F5F5F5F5F5F5F5F5F5F5F5F5F5F5F5F5F5F5F5F5F5F5F5F5F5F5F5F5F5F5F5F5F5F5F5F5F5F5F5F5F5F5F5F5F5F5F5F5F5F5F5F5F5F5F5F5F5F5F5F5F5F5F5F5F5F5F5F5F5F5
310
F5F5F5F5F5F5F5F5F5F5F5F5F5F5F5F5F5F5F5F5F5F5F5F5F5F5F5F5F5F5F5F5F5F5F5F5F5F5F5F5F5F5E2F5F5F5F5F5F5F5F5F5F5F5F5F5F5F5F5E2F5F5F5E2E2EFF5F5F5E2F5F5F5F5F5F5F5F5F5F5F5F5F5F5F5F5E2F5F5F5F5F5F5F5F5F5F5F5F5F5F5F5F5F5F5F5F5F5F5F5F5F5F5F5F5F5F5F5F5F5F5F5F5F5F5F5F5
310
F5F5F5F5F5F5F5F5F5F5F5F5F5F5F5F5F5F5F5F5F5F5F5F5F5F5F5F5F5F5F5F5F5F5F5F5F5F5F5F5F5F5F5F5F5F5F5F5F5F5F5F5F5F5F5F5F5F5F5F5F5F5F5F5F5F5F5F5F5F5F5F5F5F5F5F5F5F5F5F5F5F5F5F5F5F5F5F5F5F5F5F5F5F5F5E2F5F5F5F5F5F5F5F5F5F5F5F5F5F5F5F5E2F5F5F5E2E2EFF5F5F5E2F5F5F5F5
310
F5F5F5F5F5F5F5F5F5F5F5F5E2F5F5F5F5F5F5F5F5F5F5F5F5F5F5F5F5F5F5F5F5F5F5F5F5F5F5F5F5F5F5F5F5F5F5F5F5F5F5F5F5F5F5F5F5F5F5F5F5F5F5F5F5F5F5F5F5F5F5F5F5F5F5F5F5F5F5F5F5F5F5F5F5F5F5F5F5F5F5F5F5F5F5F5F5F5F5F5F5F5F5F5F5F5F5F5F5F5F5F5F5F5F5F5F5F5F5F5F5F5F5F5F5F5F5
310
F5F5F5F5F5F5F5F5F5F5F5F5F5F5F5F5F5F5F5F5F5E2F5F5F5F5F5F5F5F5F5F5F5F5F5F5F5F5E2F5F5F5E2E2EFF5F5F5F5F5F5F5F5F5F5F5F5F5F5F5F5F5F5F5F5E2F5F5F5F5F5F5F5F5F5F5F5F5F5F5F5F5F5F5F5F5F5F5F5F5F5F5F5F5F5F5F5F5F5F5F5F5F5F5F5F5F5F5F5F5F5F5F5F5F5F5F5F5F5F5F5F5F5F5F5F5F5
310
F5F5F5F5F5F5F5F5F5F5F5F5F5F5F5F5F5F5F5F5F5F5F5F5F5F5F5F5F5F5F5F5F5F5F5F5F5F5F5F5F5F5F5F5F5F5F5F5F5F5F5F5F5F5F5F5F5F5F5F5F5F5F5F5F5F5F5F5F5F5F5F5F5F5E2F5F5F5F5F5F5F5F5F5F5F5F5F5F5F5F5F5F5F5F5E2E2EFF5F5F5F5F5F5F5F5F5F5F5F5F5F5F5F5F5F5F5F5E2F5F5F5F5F5F5F5F5
310
F5F5F5F5F5F5F5F5F5F5F5F5F5F5F5F5F5F5F5F5F5F5F5F5F5F5F5F5F5F5F5F5F5F5F5F5F5F5F5F5F5F5F5F5F5F5F5F5F5F5F5F5F5F5F5F5F5F5F5F5F5F5F5F5F5F5F5F5F5F5F5F5F5F5F5F5F5F5F5F5F5F5F5F5F5F5F5F5F5F5F5F5F5F5F5F5F5F5F5F5F5F5F5F5F5F5F5F5F5F5F5F5F5F5F5F5F5F5F5F5F5F5F5F5F5F5F5
310
E2F5F5F5F5F5F5F5F5F5F5F5F5F5F5F5F5F5F5F5F5E2E2EFF5F5F5F5F5F5F5F5F5F5F5F5F5F5F5F5F5F5F5F5E2F5F5F5F5F5F5F5F5F5F5F5F5F5F5F5F5F5F5F5F5F5F5F5F5F5F5F5F5F5F5F5F5F5F5F5F5F5F5F5F5F5F5F5F5F5F5F5F5F5F5F5F5F5F5F5F5F5F5F5F5F5F5F5F5F5F5F5F5F5F5F5F5F5F5F5F5F5F5F5F5F5F5
310
F5F5F5F5F5F5F5F5F5F5F5F5F5F5F5F5F5F5F5F5F5F5F5F5F5F5F5F5F5F5F5F5F5F5F5F5F5F5F5F5F5F5F5F5F5F5F5F5F5F5F5F5F5E2F5F5F5F5F5F5F5F5F5F5F5F5F5F5F5F5F5F5F5F5E2E2EFF5F5F5F5F5F5F5F5F5F5F5F5F5F5F5F5F5F5F5F5E2F5F5F5F5F5F5F5F5F5F5F5F5F5F5F5F5F5F5F5F5F5F5F5F5F5F5F5F5F5
310
F5F5F5F5F5F5F5F5F5F5F5F5F5F5F5F5F5F5F5F5F5F5F5F5F5F5F5F5F5F5F5F5F5F5F5F5F5F5F5F5F5F5F5F5F5F5F5F5F5F5F5F5F5F5F5F5F5F5F5F5F5F5F5F5F5F5F5F5F5F5F5F5F5F5F5F5F5F5F5F5F5F5F5F5F5F5F5F5F5F5F5F5F5F5F5F5F5F5F5F5F5F5F5F5F5F5E2F5F5F5F5F5F5F5F5F5F5F5F5F5F5F5F5F5F5F5F5
310
E2E2EFF5F5F5F5F5F5F5F5F5F5F5F5F5F5F5F5F5F5F5F5E2F5F5F5F5F5F5F5F5F5F5F5F5F5F5F5F5F5F5F5F5F5F5F5F5F5F5F5F5F5F5F5F5F5F5F5F5F5F5F5F5F5F5F5F5F5F5F5F5F5F5F5F5F5F5F5F5F5F5F5F5F5F5F5F5F5F5F5F5F5F5F5F5F5F5F5F5F5F5F5F5F5F5F5F5F5F5F5F5F5F5F5F5F5F5F5F5F5F5F5F5F5F5F5
310
F5F5F5F5F5F5F5F5F5F5F5F5F5F5F5F5F5F5F5F5F5F5F5F5F5F5F5F5F5F5F5F5E2F5F5F5F5F5F5F5F5F5F5F5F5F5F5F5F5F5F5F5F5E2E2EFF5F5F5F5F5F5F5F5F5F5F5F5F5F5F5F5F5F5F5F5E2F5F5F5F5F5F5F5F5F5F5F5F5F5F5F5F5F5F5F5F5F5F5F5F5F5F5F5F5F5F5F5F5F5F5F5F5F5F5F5F5F5F5F5F5F5F5F5F5F5F5
310
F5F5F5F5F5F5F5F5F5F5F5F5F5F5F5F5F5F5F5F5F5F5F5F5F5F5F5F5F5F5F5F5F5F5F5F5F5F5F5F5F5F5F5F5F5F5F5F5F5F5F5F5F5F5F5F5F5F5F5F5F5F5F5F5F5F5F5F5F5F5F5F5F5F5F5F5F5F5F5F5F5F5F5F5F5E2F5F5F5F5F5F5F5F5F5F5F5F5F5F5F5F5F5F5F5F5E2E2EFF5F5F5F5F5F5F5F5F5F5F5F5F5F5F5F5F5F5
310
F5F5E2F5F5F5F5F5F5F5F5F5F5F5F5F5F5F5F5F5F5F5F5F5F5F5F5F5F5F5F5F5F5F5F5F5F5F5F5F5F5F5F5F5F5F5F5F5F5F5F5F5F5F5F5F5F5F5F5F5F5F5F5F5F5F5F5F5F5F5F5F5F5F5F5F5F5F5F5F5F5F5F5F5F5F5F5F5F5F5F5F5F5F5F5F5F5F5F5F5F5F5F5F5F5F5F5F5F5F5F5F5F5F5F5F5F5F5F5F5F5F5F5F5F5F5F5
310
F5F5F5F5F5F5F5F5F5F5F5E2F5F5F5F5F5F5F5F5F5F5F5F5F5F5F5F5F5F5F5F5E2E2EFF5F5F5F5F5F5F5F5F5F5F5F5F5F5F5F5F5F5F5F5E2F5F5F5F5F5F5F5F5F5F5F5F5F5F5F5F5F5F5F5F5F5F5F5F5F5F5F5F5F5F5F5F5F5F5F5F5F5F5F5F5F5F5F5F5F5F5F5F5F5F5F5F5F5F5F5F5F5F5F5F5F5F5F5F5F5F5F5F5F5F5F5
310
F5F5F5F5F5F5F5F5F5F5F5F5F5F5F5F5F5F5F5F5F5F5F5F5F5F5F5F5F5F5F5F5F5F5F5F5F5F5F5F5F5F5F5F5F5F5F5F5F5F5F5F5F5F5F5F5F5F5F5F5F5F5F5F5E2F5F5F5F5F5F5F5F5F5F5F5F5F5F5F5F5F5F5F5F5E2E2EFF5F5F5F5F5F5F5F5F5F5F5F5F5F5F5F5F5F5F5F5E2F5F5F5F5F5F5F5F5F5F5F5F5F5F5F5F5F5F5
310
F5F5F5F5F5F5F5F5F5F5F5F5F5F5F5F5F5F5F5F5F5F5F5F5F5F5F5F5F5F5F5F5F5F5F5F5F5F5F5F5F5F5F5F5F5F5F5F5F5F5F5F5F5F5F5F5F5F5F5F5F5F5F5F5F5F5F5F5F5F5F5F5F5F5F5F5F5F5F5F5F5F5F5F5F5F5F5F5F5F5F5F5F5F5F5F5F5F5F5F5F5F5F5F5F5F5F5F5F5F5F5F5F5F5F5F5F5E2F5F5F5F5F5F5F5F5F5
310
F5F5F5F5F5F5F5F5F5F5F5E2E2EFF5F5F5E2F5F5F5F5F5F5F5F5F5F5F5F5F5F5F5F5E2F5F5F5F5F5F5F5F5F5F5F5F5F5F5F5F5F5F5F5F5F5F5F5F5F5F5F5F5F5F5F5F5F5F5F5F5F5F5F5F5F5F5F5F5F5F5F5F5F5F5F5F5F5F5F5F5F5F5F5F5F5F5F5F5F5F5F5F5F5F5F5F5F5F5F5F5F5F5F5F5F5F5F5F5F5F5F5F5F5F5F5F5
310
F5F5F5F5F5F5F5F5F5F5F5F5F5F5F5F5F5F5F5F5F5F5F5F5F5F5F5F5F5F5F5F5F5F5F5F5F5F5F5F5F5F5F5E2F5F5F5F5F5F5F5F5F5F5F5F5F5F5F5F5E2F5F5F5E2E2EFF5F5F5E2F5F5F5F5F5F5F5F5F5F5F5F5F5F5F5F5E2F5F5F5F5F5F5F5F5F5F5F5F5F5F5F5F5F5F5F5F5F5F5F5F5F5F5F5F5F5F5F5F5F5F5F5F5F5F5F5
310
F5F5F5F5F5F5F5F5F5F5F5F5F5F5F5F5F5F5F5F5F5F5F5F5F5F5F5F5F5F5F5F5F5F5F5F5F5F5F5F5F5F5F5F5F5F5F5F5F5F5F5F5F5F5F5F5F5F5F5F5F5F5F5F5F5F5F5F5F5F5F5F5F5F5F5F5F5F5F5F5F5F5F5F5F5F5F5F5F5F5F5F5F5F5F5F5E2F5F5F5F5F5F5F5F5F5F5F5F5F5F5F5F5E2F5F5F5E2E2EFF5F5F5E2F5F5F5
310
F5F5F5F5F5F5F5F5F5F5F5F5F5E2F5F5F5F5F5F5F5F5F5F5F5F5F5F5F5F5F5F5F5F5F5F5F5F5F5F5F5F5F5F5F5F5F5F5F5F5F5F5F5F5F5F5F5F5F5F5F5F5F5F5F5F5F5F5F5F5F5F5F5F5F5F5F5F5F5F5F5F5F5F5F5F5F5F5F5F5F5F5F5F5F5F5F5F5F5F5F5F5F5F5F5F5F5F5F5F5F5F5F5F5F5F5F5F5F5F5F5F5F5F5F5F5F5
310
F5F5F5F5F5F5F5F5F5F5F5F5F5F5F5F5F5F5F5F5F5F5E2F5F5F5F5F5F5F5F5F5F5F5F5F5F5F5F5E2F5F5F5E2E2EFF5F5F5E2F5F5F5F5F5F5F5F5F5F5F5F5F5F5F5F5E2F5F5F5F5F5F5F5F5F5F5F5F5F5F5F5F5F5F5F5F5F5F5F5F5F5F5F5F5F5F5F5F5F5F5F5F5F5F5F5F5F5F5F5F5F5F5F5F5F5F5F5F5F5F5F5F5F5F5F5F5
310
F5F5F5F5F5F5F5F5F5F5F5F5F5F5F5F5F5F5F5F5F5F5F5F5F5F5F5F5F5F5F5F5F5F5F5F5F5F5F5F5F5F5F5F5F5F5F5F5F5F5F5F5F5F5F5F5F5F5F5F5F5F5F5F5F5F5F5F5F5F5F5F5F5F5F5E2F5F5F5F5F5F5F5F5F5F5F5F5F5F5F5F5E2F5F5F5E2E2EFF5F5F5E2F5F5F5F5F5F5F5F5F5F5F5F5F5F5F5F5E2F5F5F5F5F5F5F5
310
F5F5F5F5F5F5F5F5F5F5F5F5F5F5F5F5F5F5F5F5F5F5F5F5F5F5F5F5F5F5F5F5F5F5F5F5F5F5F5F5F5F5F5F5F5F5F5F5F5F5F5F5F5F5F5F5F5F5F5F5F5F5F5F5F5F5F5F5F5F5F5F5F5F5F5F5F5F5F5F5F5F5F5F5F5F5F5F5F5F5F5F5F5F5F5F5F5F5F5F5F5F5F5F5F5F5F5F5F5F5F5F5F5F5F5F5F5F5F5F5F5F5F5F5F5F5F5
310
F5E2F5F5F5F5F5F5F5F5F5F5F5F5F5F5F5F5E2F5F5F5E2E2EFF5F5F5E2F5F5F5F5F5F5F5F5F5F5F5F5F5F5F5F5E2F5F5F5F5F5F5F5F5F5F5F5F5F5F5F5F5F5F5F5F5F5F5F5F5F5F5F5F5F5F5F5F5F5F5F5F5F5F5F5F5F5F5F5F5F5F5F5F5F5F5F5F5F5F5F5F5F5F5F5F5F5F5F5F5F5F5F5F5F5F5F5F5F5F5F5F5F5F5F5F5F5
310
F5F5F5F5F5F5F5F5F5F5F5F5F5F5F5F5F5F5F5F5F5F5F5F5F5F5F5F5F5F5F5F5F5F5F5F5F5F5F5F5F5F5F5F5F5F5F5F5F5F5F5F5F5F5E2F5F5F5F5F5F5F5F5F5F5F5F5F5F5F5F5E2F5F5F5E2E2EFF5F5F5E2F5F5F5F5F5F5F5F5F5F5F5F5F5F5F5F5E2F5F5F5F5F5F5F5F5F5F5F5F5F5F5F5F5F5F5F5F5F5F5F5F5F5F5F5F5
310
F5F5F5F5F5F5F5F5F5F5F5F5F5F5F5F5F5F5F5F5F5F5F5F5F5F5F5F5F5F5F5F5F5F5F5F5F5F5F5F5F5F5F5F5F5F5F5F5F5F5F5F5F5F5F5F5F5F5F5F5F5F5F5F5F5F5F5F5F5F5F5F5F5F5F5F5F5F5F5F5F5F5F5F5F5F5F5F5F5F5F5F5F5F5F5F5F5F5F5F5F5F5F5F5F5F5F5E2F5F5F5F5F5F5F5F5F5F5F5F5F5F5F5F5E2F5F5
310
F5E2E2EFF5F5F5E2F5F5F5F5F5F5F5F5F5F5F5F5F5F5F5F5E2F5F5F5F5F5F5F5F5F5F5F5F5F5F5F5F5F5F5F5F5F5F5F5F5F5F5F5F5F5F5F5F5F5F5F5F5F5F5F5F5F5F5F5F5F5F5F5F5F5F5F5F5F5F5F5F5F5F5F5F5F5F5F5F5F5F5F5F5F5F5F5F5F5F5F5F5F5F5F5F5F5F5F5F5F5F5F5F5F5F5F5F5F5F5F5F5F5F5F5F5F5F5
310
F5F5F5F5F5F5F5F5F5F5F5F5F5F5F5F5F5F5F5F5F5F5F5F5F5F5F5F5F5F5F5F5F5E2F5F5F5F5F5F5F5F5F5F5F5F5F5F5F5F5E2F5F5F5E2E2EFF5F5F5E2F5F5F5F5F5F5F5F5F5F5F5F5F5F5F5F5E2F5F5F5F5F5F5F5F5F5F5F5F5F5F5F5F5F5F5F5F5F5F5F5F5F5F5F5F5F5F5F5F5F5F5F5F5F5F5F5F5F5F5F5F5F5F5F5F5F5
310
F5F5F5F5F5F5F5F5F5F5F5F5F5F5F5F5F5F5F5F5F5F5F5F5F5F5F5F5F5F5F5F5F5F5F5F5F5F5F5F5F5F5F5F5F5F5F5F5F5F5F5F5F5F5F5F5F5F5F5F5F5F5F5F5F5F5F5F5F5F5F5F5F5F5F5F5F5F5F5F5F5F5F5F5F5F5E2F5F5F5F5F5F5F5F5F5F5F5F5F5F5F5F5E2F5F5F5E2E2EFF5F5F5E2F5F5F5F5F5F5F5F5F5F5F5F5F5
310
F5F5F5E2F5F5F5F5F5F5F5F5F5F5F5F5F5F5F5F5F5F5F5F5F5F5F5F5F5F5F5F5F5F5F5F5F5F5F5F5F5F5F5F5F5F5F5F5F5F5F5F5F5F5F5F5F5F5F5F5F5F5F5F5F5F5F5F5F5F5F5F5F5F5F5F5F5F5F5F5F5F5F5F5F5F5F5F5F5F5F5F5F5F5F5F5F5F5F5F5F5F5F5F5F5F5F5F5F5F5F5F5F5F5F5F5F5F5F5F5F5F5F5F5F5F5F5
310
F5F5F5F5F5F5F5F5F5F5F5F5E2F5F5F5F5F5F5F5F5F5F5F5F5F5F5F5F5E2F5F5F5E2E2EFF5F5F5E2F5F5F5F5F5F5F5F5F5F5F5F5F5F5F5F5E2F5F5F5F5F5F5F5F5F5F5F5F5F5F5F5F5F5F5F5F5F5F5F5F5F5F5F5F5F5F5F5F5F5F5F5F5F5F5F5F5F5F5F5F5F5F5F5F5F5F5F5F5F5F5F5F5F5F5F5F5F5F5F5F5F5F5F5F5F5F5
310
F5F5F5F5F5F5F5F5F5F5F5F5F5F5F5F5F5F5F5F5F5F5F5F5F5F5F5F5F5F5F5F5F5F5F5F5F5F5F5F5F5F5F5F5F5F5F5F5F5F5F5F5F5F5F5F5F5F5F5F5F5F5F5F5F5E2F5F5F5F5F5F5F5F5F5F5F5F5F5F5F5F5E2F5F5F5E2E2EFF5F5F5E2F5F5F5F5F5F5F5F5F5F5F5F5F5F5F5F5E2F5F5F5F5F5F5F5F5F5F5F5F5F5F5F5F5F5
310
F5F5F5F5F5F5F5F5F5F5F5F5F5F5F5F5F5F5F5F5F5F5F5F5F5F5F5F5F5F5F5F5F5F5F5F5F5F5F5F5F5F5F5F5F5F5F5F5F5F5F5F5F5F5F5F5F5F5F5F5F5F5F5F5F5F5F5F5F5F5F5F5F5F5F5F5F5F5F5F5F5F5F5F5F5F5F5F5F5F5F5F5F5F5F5F5F5F5F5F5F5F5F5F5F5F5F5F5F5F5F5F5F5F5F5F5F5F5E2F5F5F5F5F5F5F5F5
310
F5F5F5F5F5F5F5F5E2F5F5F5E2E2EFF5F5F5E2F5F5F5F5F5F5F5F5F5F5F5F5F5F5F5F5E2F5F5F5F5F5F5F5F5F5F5F5F5F5F5F5F5F5F5F5F5F5F5F5F5F5F5F5F5F5F5F5F5F5F5F5F5F5F5F5F5F5F5F5F5F5F5F5F5F5F5F5F5F5F5F5F5F5F5F5F5F5F5F5F5F5F5F5F5F5F5F5F5F5F5F5F5F5F5F5F5F5F5F5F5F5F5F5F5F5F5F5
310
F5F5F5F5F5F5F5F5F5F5F5F5F5F5F5F5F5F5F5F5F5F5F5F5F5F5F5F5F5F5F5F5F5F5F5F5F5F5F5F5F5F5F5F5E2F5F5F5F5F5F5F5F5F5F5F5F5F5F5F5F5E2F5F5F5E2E2EFF5F5F5E2F5F5F5F5F5F5F5F5F5F5F5F5F5F5F5F5E2F5F5F5F5F5F5F5F5F5F5F5F5F5F5F5F5F5F5F5F5F5F5F5F5F5F5F5F5F5F5F5F5F5F5F5F5F5F5
310
F5F5F5F5F5F5F5F5F5F5F5F5F5F5F5F5F5F5F5F5F5F5F5F5F5F5F5F5F5F5F5F5F5F5F5F5F5F5F5F5F5F5F5F5F5F5F5F5F5F5F5F5F5F5F5F5F5F5F5F5F5F5F5F5F5F5F5F5F5F5F5F5F5F5F5F5F5F5F5F5F5F5F5F5F5F5F5F5F5F5F5F5F5F5F5F5F5E2F5F5F5F5F5F5F5F5F5F5F5F5F5F5F5F5E2F5F5F5E2E2EFF5F5F5E2F5F5
310
F5F5F5F5F5F5F5F5F5F5F5F5F5F5E2F5F5F5F5F5F5F5F5F5F5F5F5F5F5F5F5F5F5F5F5F5F5F5F5F5F5F5F5F5F5F5F5F5F5F5F5F5F5F5F5F5F5F5F5F5F5F5F5F5F5F5F5F5F5F5F5F5F5F5F5F5F5F5F5F5F5F5F5F5F5F5F5F5F5F5F5F5F5F5F5F5F5F5F5F5F5F5F5F5F5F5F5F5F5F5F5F5F5F5F5F5F5F5F5F5F5F5F5F5F5F5F5
310
F5F5F5F5F5F5F5F5F5F5F5F5F5F5F5F5F5F5F5F5F5F5F5E2F5F5F5F5F5F5F5F5F5F5F5F5F5F5F5F5E2F5F5F5E2E2EFF5F5F5E2F5F5F5F5F5F5F5F5F5F5F5F5F5F5F5F5E2F5F5F5F5F5F5F5F5F5F5F5F5F5F5F5F5F5F5F5F5F5F5F5F5F5F5F5F5F5F5F5F5F5F5F5F5F5F5F5F5F5F5F5F5F5F5F5F5F5F5F5F5F5F5F5F5F5F5F5
310
F5F5F5F5F5F5F5F5F5F5F5F5F5F5F5F5F5F5F5F5F5F5F5F5F5F5F5F5F5F5F5F5F5F5F5F5F5F5F5F5F5F5F5F5F5F5F5F5F5F5F5F5F5F5F5F5F5F5F5F5F5F5F5F5F5F5F5F5F5F5F5F5F5F5F5F5E2F5F5F5F5F5F5F5F5F5F5F5F5F5F5F5F5E2F5F5F5E2E2EFF5F5F5E2F5F5F5F5F5F5F5F5F5F5F5F5F5F5F5F5E2F5F5F5F5F5F5
310
F5F5F5F5F5F5F5F5F5F5F5F5F5F5F5F5F5F5F5F5F5F5F5F5F5F5F5F5F5F5F5F5F5F5F5F5F5F5F5F5F5F5F5F5F5F5F5F5F5F5F5F5F5F5F5F5F5F5F5F5F5F5F5F5F5F5F5F5F5F5F5F5F5F5F5F5F5F5F5F5F5F5F5F5F5F5F5F5F5F5F5F5F5F5F5F5F5F5F5F5F5F5F5F5F5F5F5F5F5F5F5F5F5F5F5F5F5F5F5F5F5F5F5F5F5F5F5
310
F5F5E2F5F5F5F5F5F5F5F5F5F5F5F5F5F5F5F5E2F5F5F5E2E2EFF5F5F5F5F5F5F5F5F5F5F5F5F5F5F5F5F5F5F5F5E2F5F5F5F5F5F5F5F5F5F5F5F5F5F5F5F5F5F5F5F5F5F5F5F5F5F5F5F5F5F5F5F5F5F5F5F5F5F5F5F5F5F5F5F5F5F5F5F5F5F5F5F5F5F5F5F5F5F5F5F5F5F5F5F5F5F5F5F5F5F5F5F5F5F5F5F5F5F5F5F5
310
F5F5F5F5F5F5F5F5F5F5F5F5F5F5F5F5F5F5F5F5F5F5F5F5F5F5F5F5F5F5F5F5F5F5F5F5F5F5F5F5F5F5F5F5F5F5F5F5F5F5F5F5F5F5F5E2F5F5F5F5F5F5F5F5F5F5F5F5F5F5F5F5F5F5F5F5E2E2EFF5F5F5F5F5F5F5F5F5F5F5F5F5F5F5F5F5F5F5F5E2F5F5F5F5F5F5F5F5F5F5F5F5F5F5F5F5F5F5F5F5F5F5F5F5F5F5F5
310
F5F5F5F5F5F5F5F5F5F5F5F5F5F5F5F5F5F5F5F5F5F5F5F5F5F5F5F5F5F5F5F5F5F5F5F5F5F5F5F5F5F5F5F5F5F5F5F5F5F5F5F5F5F5F5F5F5F5F5F5F5F5F5F5F5F5F5F5F5F5F5F5F5F5F5F5F5F5F5F5F5F5F5F5F5F5F5F5F5F5F5F5F5F5F5F5F5F5F5F5F5F5F5F5F5F5F5F5E2F5F5F5F5F5F5F5F5F5F5F5F5F5F5F5F5F5F5
310
F5F5E2E2EFF5F5F5F5F5F5F5F5F5F5F5F5F5F5F5F5F5F5F5F5E2F5F5F5F5F5F5F5F5F5F5F5F5F5F5F5F5F5F5F5F5F5F5F5F5F5F5F5F5F5F5F5F5F5F5F5F5F5F5F5F5F5F5F5F5F5F5F5F5F5F5F5F5F5F5F5F5F5F5F5F5F5F5F5F5F5F5F5F5F5F5F5F5F5F5F5F5F5F5F5F5F5F5F5F5F5F5F5F5F5F5F5F5F5F5F5F5F5F5F5F5F5
310
F5F5F5F5F5F5F5F5F5F5F5F5F5F5F5F5F5F5F5F5F5F5F5F5F5F5F5F5F5F5F5F5F5F5E2F5F5F5F5F5F5F5F5F5F5F5F5F5F5F5F5F5F5F5F5E2E2EFF5F5F5F5F5F5F5F5F5F5F5F5F5F5F5F5F5F5F5F5E2F5F5F5F5F5F5F5F5F5F5F5F5F5F5F5F5F5F5F5F5F5F5F5F5F5F5F5F5F5F5F5F5F5F5F5F5F5F5F5F5F5F5F5F5F5F5F5F5
310
F5F5F5F5F5F5F5F5F5F5F5F5F5F5F5F5F5F5F5F5F5F5F5F5F5F5F5F5F5F5F5F5F5F5F5F5F5F5F5F5F5F5F5F5F5F5F5F5F5F5F5F5F5F5F5F5F5F5F5F5F5F5F5F5F5F5F5F5F5F5F5F5F5F5F5F5F5F5F5F5F5F5F5F5F5F5F5E2F5F5F5F5F5F5F5F5F5F5F5F5F5F5F5F5F5F5F5F5E2E2EFF5F5F5F5F5F5F5F5F5F5F5F5F5F5F5F5
310
F5F5F5F5E2E2E2E2E2E2E2E2E2E2E2E2E2E2E2E2E2E2E2E2E2E2E2E2E2E2E2E2E2E2E2E2E2E2E2E2E2E2E2E2E2E2E2E2E2E2E2E2E2E2E2E2E2E2E2E2E2E2E2E2E2E2E2E2E2E2E2E2E2E2E2E2E2E2E2E2E2E2E2E2E2E2E2E2E2E2E2E2E2E2E2E2E2E2E2E2E2E2E2E2E2E2E2E2E2E2E2E2E2E2E2E2E2E2E2E2E2E2E2E2E2E2E2
310
E2E2E2E2E2E2E2E2E2E2E2E2E2E2F5F5F5F5F5F5F5F5F5F5F5F5F5F5F5F5F5F5F5F5E2E2EFF5F5F5F5F5F5F5F5F5F5F5F5F5F5F5F5F5F5F5F5F5F5F5F5F5F5F5F5F5F5F5F5F5F5F5F5F5F5F5F5F5F5F5F5F5F5F5F5F5F5F5F5F5F5F5F5F5F5F5F5F5F5F5F5F5F5F5F5F5F5F5F5F5F5F5F5F5F5F5F5F5F5F5F5F5F5F5F5F5F5
310
F5F5F5F5F5F5F5F5F5F5F5F5F5F5F5F5F5F5F5F5F5F5F5F5F5F5F5F5F5F5F5F5F5F5F5F5F5F5F5F5F5F5F5F5F5F5F5F5F5F5F5F5F5F5F5F5F5F5F5F5F5F5F5F5F5F5F5F5F5F5F5F5F5F5F5F5F5F5F5F5F5F5F5F5F5F5F5E2E2EFF5F5F5F5F5F5F5F5F5F5F5F5F5F5F5F5F5F5F5F5F5F5F5F5F5F5F5F5F5F5F5F5F5F5F5F5F5
310
F5F5F5F5F5F5F5F5F5F5F5F5F5F5F5F5F5F5F5F5F5F5F5F5F5F5F5F5F5F5F5F5F5F5F5F5F5F5F5F5F5F5F5F5F5F5F5F5F5F5F5F5F5F5F5F5F5F5F5F5F5F5F5F5F5F5F5F5F5F5F5F5F5F5F5F5F5F5F5F5F5F5F5F5F5F5F5F5F5F5F5F5F5F5F5F5F5F5F5F5F5F5F5F5F5F5F5F5F5F5F5F5F5F5F5F5F5F5F5F5F5F5F5F5F5F5F5
310
F5F5F5F5F5F5F5F5F5F5F5F5F5E2E2EFF5F5F5F5F5F5F5F5F5F5F5F5F5F5F5F5F5F5F5F5F5F5F5F5F5F5F5F5F5F5F5F5F5F5F5F5F5F5F5F5F5F5F5F5F5F5F5F5F5F5F5F5F5F5F5F5F5F5F5F5F5F5F5F5F5F5F5F5F5F5F5F5F5F5F5F5F5F5F5F5F5F5F5F5F5F5F5F5F5F5F5F5F5F5F5F5F5F5F5F5F5F5F5F5F5F5F5F5F5F5F5
310
F5F5F5F5F5F5F5F5F5F5F5F5F5F5F5F5F5F5F5F5F5F5F5F5F5F5F5F5F5F5F5F5F5F5F5F5F5F5F5F5F5F5F5F5F5F5F5F5F5F5F5F5F5F5F5F5F5F5F5F5F5F5F5F5F5F5E2E2EFF5F5F5F5F5F5F5F5F5F5F5F5F5F5F5F5F5F5F5F5F5F5F5F5F5F5F5F5F5F5F5F5F5F5F5F5F5F5F5F5F5F5F5F5F5F5F5F5F5F5F5F5F5F5F5F5F5F5
310
F5F5F5F5F5F5F5F5F5F5F5F5F5F5F5F5F5F5F5F5F5F5F5F5F5F5F5F5F5F5F5F5F5F5F5F5F5F5F5F5F5F5F5F5F5F5F5F5F5F5F5F5F5F5F5F5F5F5F5F5F5F5F5F5F5F5F5F5F5F5F5F5F5F5F5F5F5F5F5F5F5F5F5F5F5F5F5F5F5F5F5F5F5F5F5F5F5F5F5F5F5F5F5F5F5F5F5F5F5F5F5F5F5F5F5F5F5F5F5E2E2EFF5F5F5E2F5
310
F5F5F5F5F5F5F5F5F5F5F5F5F5F5F5F5F5F5F5F5F5F5F5F5F5F5F5F5F5F5F5F5F5F5F5F5F5F5F5F5F5F5F5F5F5F5F5F5F5F5F5F5F5F5F5F5F5F5F5F5F5F5F5F5F5F5F5F5F5F5F5F5F5F5F5F5F5F5F5F5F5F5F5F5F5F5F5F5F5F5F5F5F5F5F5F5F5F5F5F5F5F5F5F5F5F5F5F5F5F5F5F5F5F5F5F5F5F5F5F5F5F5F5F5F5F5F5
310
F5F5F5F5F5F5F5F5F5F5F5F5F5F5F5F5F5F5F5F5F5F5F5F5F5F5F5F5F5F5F5F5F5F5F5F5F5F5F5F5F5E2F5F5F5E2E2EFF5F5F5E2F5F5F5F5F5F5F5F5F5F5F5F5F5F5F5F5F5F5F5F5F5F5F5F5F5F5F5F5F5F5F5F5F5F5F5F5F5F5F5F5F5F5F5F5F5F5F5F5F5F5F5F5F5F5F5F5F5F5F5F5F5F5F5F5F5F5F5F5F5F5F5F5F5F5F5
310
F5F5F5F5F5F5F5F5F5F5F5F5F5F5F5F5F5F5F5F5F5F5F5F5F5F5F5F5F5F5F5F5F5F5F5F5F5F5F5F5F5F5F5F5F5F5F5F5F5F5F5F5F5F5F5F5F5F5F5F5F5F5F5F5F5F5F5F5F5F5F5F5F5F5F5F5F5F5F5F5F5F5F5F5F5F5F5F5F5F5F5F5F5F5E2F5F5F5E2E2EFF5F5F5E2F5F5F5F5F5F5F5F5F5F5F5F5F5F5F5F5F5F5F5F5F5F5
310
F5F5F5F5F5F5F5F5F5F5F5F5F5F5F5F5F5F5F5F5F5F5F5F5F5F5F5F5F5F5F5F5F5F5F5F5F5F5F5F5F5F5F5F5F5F5F5F5F5F5F5F5F5F5F5F5F5F5F5F5F5F5F5F5F5F5F5F5F5F5F5F5F5F5F5F5F5F5F5F5F5F5F5F5F5F5F5F5F5F5F5F5F5F5F5F5F5F5F5F5F5F5F5F5F5F5F5F5F5F5F5F5F5F5F5F5F5F5F5F5F5F5F5F5F5F5F5
310
F5F5F5F5F5F5F5F5F5F5F5F5F5F5F5F5F5F5F5F5E2F5F5F5E2E2EFF5F5F5E2F5F5F5F5F5F5F5F5F5F5F5F5F5F5F5F5F5F5F5F5F5F5F5F5F5F5F5F5F5F5F5F5F5F5F5F5F5F5F5F5F5F5F5F5F5F5F5F5F5F5F5F5F5F5F5F5F5F5F5F5F5F5F5F5F5F5F5F5F5F5F5F5F5F5F5F5F5F5F5F5F5F5F5F5F5F5F5F5F5F5F5F5F5F5F5F5
310
F5F5F5F5F5F5F5F5F5F5F5F5F5F5F5F5F5F5F5F5F5F5F5F5F5F5F5F5F5F5F5F5F5F5F5F5F5F5F5F5F5F5F5F5F5F5F5F5F5F5F5F5F5F5F5F5F5F5F5F5F5F5F5F5F5F5F5F5F5F5F5F5F5E2F5F5F5E2E2EFF5F5F5E2F5F5F5F5F5F5F5F5F5F5F5F5F5F5F5F5F5F5F5F5F5F5F5F5F5F5F5F5F5F5F5F5F5F5F5F5F5F5F5F5F5F5F5
310
F5F5F5F5F5F5F5F5F5F5F5F5F5F5F5F5F5F5F5F5F5F5F5F5F5F5F5F5F5F5F5F5F5F5F5F5F5F5F5F5F5F5F5F5F5F5F5F5F5F5F5F5F5F5F5F5F5F5F5F5F5F5F5F5F5F5F5F5F5F5F5F5F5F5F5F5F5F5F5F5F5F5F5F5F5F5F5F5F5F5F5F5F5F5F5F5F5F5F5F5F5F5F5F5F5F5F5F5F5F5F5F5F5F5F5F5F5F5F5F5F5F5F5F5F5F5E2
310
F5F5F5E2E2EFF5F5F5E2F5F5F5F5F5F5F5F5F5F5F5F5F5F5F5F5F5F5F5F5F5F5F5F5F5F5F5F5F5F5F5F5F5F5F5F5F5F5F5F5F5F5F5F5F5F5F5F5F5F5F5F5F5F5F5F5F5F5F5F5F5F5F5F5F5F5F5F5F5F5F5F5F5F5F5F5F5F5F5F5F5F5F5F5F5F5F5F5F5F5F5F5F5F5F5F5F5F5F5F5F5F5F5F5F5F5F5F5F5F5F5F5F5F5F5F5F5
310
F5F5F5F5F5F5F5F5F5F5F5F5F5F5F5F5F5F5F5F5F5F5F5F5F5F5F5F5F5F5F5F5F5F5F5F5F5F5F5F5F5F5F5F5F5F5F5F5F5F5F5F5E2F5F5F5E2E2EFF5F5F5E2F5F5F5F5F5F5F5F5F5F5F5F5F5F5F5F5F5F5F5F5F5F5F5F5F5F5F5F5F5F5F5F5F5F5F5F5F5F5F5F5F5F5F5F5F5F5F5F5F5F5F5F5F5F5F5F5F5F5F5F5F5F5F5F5
310
F5F5F5F5F5F5F5F5F5F5F5F5F5F5F5F5F5F5F5F5F5F5F5F5F5F5F5F5F5F5F5F5F5F5F5F5F5F5F5F5F5F5F5F5F5F5F5F5F5F5F5F5F5F5F5F5F5F5F5F5F5F5F5F5F5F5F5F5F5F5F5F5F5F5F5F5F5F5F5F5F5F5F5F5F5F5F5F5F5F5F5F5F5F5F5F5F5F5F5F5F5F5F5F5F5E2F5F5F5E2E2EFF5F5F5E2F5F5F5F5F5F5F5F5F5F5F5
310
F5F5F5F5F5F5F5F5F5F5F5F5F5F5F5F5F5F5F5F5F5F5F5F5F5F5F5F5F5F5F5F5F5F5F5F5F5F5F5F5F5F5F5F5F5F5F5F5F5F5F5F5F5F5F5F5F5F5F5F5F5F5F5F5F5F5F5F5F5F5F5F5F5F5F5F5F5F5F5F5F5F5F5F5F5F5F5F5F5F5F5F5F5F5F5F5F5F5F5F5F5F5F5F5F5F5F5F5F5F5F5F5F5F5F5F5F5F5F5F5F5F5F5F5F5F5F5
310
F5F5F5F5F5F5F5F5F5F5F5F5F5F5F5F5F5F5F5F5F5F5F5F5F5F5F5F5F5F5F5E2F5F5F5E2E2EFF5F5F5E2E2E2E2E2E2E2E2F5F5F5F5F5F5F5F5F5E2E2E2E2E2E2E2E2E2E2E2E2E2E2E2E2F5F5F5F5F5F5F5F5E2E2E2E2E2E2E2E2E2E2E2E2E2E2E2E2F5F5F5F5F5F5F5F5F5E2E2E2E2E2E2E2E2E2E2E2E2E2E2E2F5F5F5F5F5
310
F5F5F5F5E2E2E2E2E2E2E2E2E2E2E2E2E2E2E2F5F5F5F5F5F5F5F5F5E2E2E2E2E2E2E2E2E2E2E2E2E2E2E2E2F5F5F5F5F5F5F5F5E2E2E2E2E2E2E2E2E2E2E2E2E2E2E2E2F5F5F5F5F5F5F5F5F5E2E2E2E2E2E2E2E2F5F5F5E2E2EFF5F5F5F5F5F5F5F5F5F5F5F5F5F5F5F5F5F5F5F5F5F5F5F5F5F5F5F5F5F5F5F5F5F5F5F5
310
F5F5F5F5F5F5F5F5F5F5F5F5F5F5F5F5F5F5F5F5F5F5F5F5F5F5F5F5F5F5F5F5F5F5F5F5F5F5F5F5F5F5F5F5F5F5F5F5F5F5F5F5F5F5F5F5F5F5F5F5F5F5F5F5F5F5F5F5F5F5F5F5F5F5F5F5F5F5F5F5F5F5F5F5F5F5F5F5F5F5F5F5F5F5F5F5F5F5F5F5F5F5F5F5F5F5F5F5F5F5F5F5F5F5F5F5F5F5F5F5F5F5F5F5F5F5F5
310
F5F5F5F5F5F5F5F5F5F5F5F5F5F5E2E2EFF5F5F5F5F5F5F5F5F5F5F5F5F5F5F5F5F5F5F5F5F5F5F5F5F5F5F5F5F5F5F5F5F5F5F5F5F5F5F5F5F5F5F5F5F5F5F5F5F5F5F5F5F5F5F5F5F5F5F5F5F5F5F5F5F5F5F5F5F5F5F5F5F5F5F5F5F5F5F5F5F5F5F5F5F5F5F5F5F5F5F5F5F5F5F5F5F5F5F5F5F5F5F5F5F5F5F5F5F5F5
310
F5F5F5F5F5F5F5F5F5F5F5F5F5F5F5F5F5F5F5F5F5F5F5F5F5F5F5F5F5F5F5F5F5F5F5F5F5F5F5F5F5F5F5F5F5F5F5F5F5F5F5F5F5F5F5F5F5F5F5F5F5F5F5F5F5F5F5E2EFEFF5F5F5F5F5F5F5F5F5F5F5F5F5F5F5F5F5F5F5F5F5F5F5F5F5F5F5F5F5F5F5F5F5F5F5F5F5F5F5F5F5F5F5F5F5F5F5F5F5F5F5F5F5F5F5F5F5
310
F5F5F5F5F5F5F5F5F5F5F5F5F5F5F5F5F5F5F5F5F5F5F5F5F5F5F5F5F5F5F5F5F5F5F5F5F5F5F5F5F5F5F5F5F5F5F5F5F5F5F5F5F5F5F5F5F5F5F5F5F5F5F5F5F5F5F5F5F5F5F5F5F5F5F5F5F5F5F5F5F5F5F5F5F5F5F5F5F5F5F5F5F5F5F5F5F5F5F5F5F5F5F5F5F5F5F5F5F5F5F5F5F5F5F5F5F5F5F5F5E2EFEFE2E2E2E2
310
E2E2E2E2E2E2E2E2E2E2E2E2E2E2E2E2E2E2E2E2E2E2E2E2E2E2E2E2E2E2E2E2E2E2E2E2E2E2E2E2E2E2E2E2E2E2E2E2E2E2E2E2E2E2E2E2E2E2E2E2E2E2E2E2E2E2E2E2E2E2E2E2E2E2E2E2E2E2E2E2E2E2E2E2E2E2E2E2E2E2E2E2E2E2E2E2E2E2E2E2E2E2E2E2E2E2E2E2E2E2E2E2E2E2E2E2E2E2E2E2E2E2E2E2E2E2E2
310
E2E2E2E2E2E2E2E2E2E2E2E2E2E2E2E2E2E2E2E2E2E2E2E2E2E2E2E2E2E2E2E2E2E2E2E2E2E2E2E2E2E2E2E2E2E2E2EFEF
  0
ENDSEC
  0
EOF
