  0
SECTION
  2
HEADER
  9
$ACADVER
  1
AC1018
  9
$ACADMAINTVER
 70
     0
  9
$DWGCODEPAGE
  3
ANSI_1252
  9
$AUTHOR
  1
g6edxjah
  9
$LASTSAVEDBY
  1
g6edxjah
  9
$INSBASE
 10
0.0
 20
0.0
 30
0.0
  9
$EXTMIN
 10
23.169875
 20
-11.352125
 30
0.0
  9
$EXTMAX
 10
34.169167
 20
-2.852667
 30
0.0
  9
$LIMMIN
 10
0.868427
 20
-34.90349
  9
$LIMMAX
 10
56.470615
 20
20.698698
  9
$ORTHOMODE
 70
     0
  9
$REGENMODE
 70
     1
  9
$FILLMODE
 70
     1
  9
$QTEXTMODE
 70
     0
  9
$MIRRTEXT
 70
     0
  9
$LTSCALE
 40
1.0
  9
$ATTMODE
 70
     1
  9
$TEXTSIZE
 40
0.0675
  9
$TRACEWID
 40
0.05
  9
$TEXTSTYLE
  7
Standard
  9
$CLAYER
  8
DIM
  9
$CELTYPE
  6
Continuous
  9
$CECOLOR
 62
     7
  9
$CELTSCALE
 40
1.0
  9
$DISPSILH
 70
     0
  9
$DIMSCALE
 40
1.0
  9
$DIMASZ
 40
0.0675
  9
$DIMEXO
 40
0.03375
  9
$DIMDLI
 40
0.0
  9
$DIMRND
 40
0.0
  9
$DIMDLE
 40
0.0
  9
$DIMEXE
 40
0.03375
  9
$DIMTP
 40
0.0
  9
$DIMTM
 40
0.0
  9
$DIMTXT
 40
0.0675
  9
$DIMCEN
 40
0.09
  9
$DIMTSZ
 40
0.0
  9
$DIMTOL
 70
     0
  9
$DIMLIM
 70
     0
  9
$DIMTIH
 70
     0
  9
$DIMTOH
 70
     0
  9
$DIMSE1
 70
     0
  9
$DIMSE2
 70
     0
  9
$DIMTAD
 70
     1
  9
$DIMZIN
 70
    11
  9
$DIMBLK
  1
TerminatorOpen_0.5
  9
$DIMASO
 70
     1
  9
$DIMSHO
 70
     1
  9
$DIMPOST
  1

  9
$DIMAPOST
  1

  9
$DIMALT
 70
     0
  9
$DIMALTD
 70
     4
  9
$DIMALTF
 40
25.4
  9
$DIMLFAC
 40
1.0
  9
$DIMTOFL
 70
     0
  9
$DIMTVP
 40
0.0
  9
$DIMTIX
 70
     0
  9
$DIMSOXD
 70
     0
  9
$DIMSAH
 70
     0
  9
$DIMBLK1
  1

  9
$DIMBLK2
  1

  9
$DIMSTYLE
  2
Standard
  9
$DIMCLRD
 70
     0
  9
$DIMCLRE
 70
     0
  9
$DIMCLRT
 70
     0
  9
$DIMTFAC
 40
1.0
  9
$DIMGAP
 40
0.03375
  9
$DIMJUST
 70
     0
  9
$DIMSD1
 70
     0
  9
$DIMSD2
 70
     0
  9
$DIMTOLJ
 70
     0
  9
$DIMTZIN
 70
    11
  9
$DIMALTZ
 70
    15
  9
$DIMALTTZ
 70
    15
  9
$DIMUPT
 70
     0
  9
$DIMDEC
 70
     4
  9
$DIMTDEC
 70
     4
  9
$DIMALTU
 70
     2
  9
$DIMALTTD
 70
     4
  9
$DIMTXSTY
  7
Style-Arial
  9
$DIMAUNIT
 70
     0
  9
$DIMADEC
 70
     4
  9
$DIMALTRND
 40
0.0
  9
$DIMAZIN
 70
     3
  9
$DIMDSEP
 70
    46
  9
$DIMATFIT
 70
     1
  9
$DIMFRAC
 70
     0
  9
$DIMLDRBLK
  1
TerminatorOpen_0.5
  9
$DIMLUNIT
 70
     2
  9
$DIMLWD
 70
    -2
  9
$DIMLWE
 70
    -2
  9
$DIMTMOVE
 70
     0
  9
$LUNITS
 70
     2
  9
$LUPREC
 70
     4
  9
$SKETCHINC
 40
0.1
  9
$FILLETRAD
 40
0.0
  9
$AUNITS
 70
     0
  9
$AUPREC
 70
     4
  9
$MENU
  1
.
  9
$ELEVATION
 40
0.0
  9
$PELEVATION
 40
0.0
  9
$THICKNESS
 40
0.0
  9
$LIMCHECK
 70
     0
  9
$CHAMFERA
 40
0.0
  9
$CHAMFERB
 40
0.0
  9
$CHAMFERC
 40
0.0
  9
$CHAMFERD
 40
0.0
  9
$SKPOLY
 70
     0
  9
$TDCREATE
 40
2455363.547407512
  9
$TDUCREATE
 40
2455363.755740845
  9
$TDUPDATE
 40
2455363.547407512
  9
$TDUUPDATE
 40
2455363.755740845
  9
$TDINDWG
 40
0.0
  9
$TDUSRTIMER
 40
0.0006630093
  9
$USRTIMER
 70
     1
  9
$ANGBASE
 50
0.0
  9
$ANGDIR
 70
     0
  9
$PDMODE
 70
     0
  9
$PDSIZE
 40
0.0
  9
$PLINEWID
 40
0.0
  9
$SPLFRAME
 70
     0
  9
$SPLINETYPE
 70
     6
  9
$SPLINESEGS
 70
     8
  9
$HANDSEED
  5
586
  9
$SURFTAB1
 70
     6
  9
$SURFTAB2
 70
     6
  9
$SURFTYPE
 70
     6
  9
$SURFU
 70
     6
  9
$SURFV
 70
     6
  9
$UCSBASE
  2

  9
$UCSNAME
  2

  9
$UCSORG
 10
0.0
 20
0.0
 30
0.0
  9
$UCSXDIR
 10
1.0
 20
0.0
 30
0.0
  9
$UCSYDIR
 10
0.0
 20
1.0
 30
0.0
  9
$UCSORTHOREF
  2

  9
$UCSORTHOVIEW
 70
     0
  9
$UCSORGTOP
 10
0.0
 20
0.0
 30
0.0
  9
$UCSORGBOTTOM
 10
0.0
 20
0.0
 30
0.0
  9
$UCSORGLEFT
 10
0.0
 20
0.0
 30
0.0
  9
$UCSORGRIGHT
 10
0.0
 20
0.0
 30
0.0
  9
$UCSORGFRONT
 10
0.0
 20
0.0
 30
0.0
  9
$UCSORGBACK
 10
0.0
 20
0.0
 30
0.0
  9
$PUCSBASE
  2

  9
$PUCSNAME
  2

  9
$PUCSORG
 10
0.0
 20
0.0
 30
0.0
  9
$PUCSXDIR
 10
1.0
 20
0.0
 30
0.0
  9
$PUCSYDIR
 10
0.0
 20
1.0
 30
0.0
  9
$PUCSORTHOREF
  2

  9
$PUCSORTHOVIEW
 70
     0
  9
$PUCSORGTOP
 10
0.0
 20
0.0
 30
0.0
  9
$PUCSORGBOTTOM
 10
0.0
 20
0.0
 30
0.0
  9
$PUCSORGLEFT
 10
0.0
 20
0.0
 30
0.0
  9
$PUCSORGRIGHT
 10
0.0
 20
0.0
 30
0.0
  9
$PUCSORGFRONT
 10
0.0
 20
0.0
 30
0.0
  9
$PUCSORGBACK
 10
0.0
 20
0.0
 30
0.0
  9
$USERI1
 70
     0
  9
$USERI2
 70
     0
  9
$USERI3
 70
     0
  9
$USERI4
 70
     0
  9
$USERI5
 70
     0
  9
$USERR1
 40
0.0
  9
$USERR2
 40
0.0
  9
$USERR3
 40
0.0
  9
$USERR4
 40
0.0
  9
$USERR5
 40
0.0
  9
$WORLDVIEW
 70
     1
  9
$SHADEDGE
 70
     3
  9
$SHADEDIF
 70
    70
  9
$TILEMODE
 70
     1
  9
$MAXACTVP
 70
    64
  9
$PINSBASE
 10
0.0
 20
0.0
 30
0.0
  9
$PLIMCHECK
 70
     0
  9
$PEXTMIN
 10
1.049744
 20
0.799667
 30
-0.001526
  9
$PEXTMAX
 10
9.450623
 20
7.200577
 30
0.0
  9
$PLIMMIN
 10
-0.25
 20
-0.25
  9
$PLIMMAX
 10
10.75
 20
8.25
  9
$UNITMODE
 70
     0
  9
$VISRETAIN
 70
     1
  9
$PLINEGEN
 70
     0
  9
$PSLTSCALE
 70
     0
  9
$TREEDEPTH
 70
  3020
  9
$CMLSTYLE
  2
Standard
  9
$CMLJUST
 70
     0
  9
$CMLSCALE
 40
1.0
  9
$PROXYGRAPHICS
 70
     1
  9
$MEASUREMENT
 70
     0
  9
$CELWEIGHT
370
    53
  9
$ENDCAPS
280
     0
  9
$JOINSTYLE
280
     0
  9
$LWDISPLAY
290
     1
  9
$INSUNITS
 70
     2
  9
$HYPERLINKBASE
  1

  9
$STYLESHEET
  1

  9
$XEDIT
290
     1
  9
$CEPSNTYPE
380
     0
  9
$PSTYLEMODE
290
     1
  9
$FINGERPRINTGUID
  2
{02C0BBB5-38A7-4FBF-829E-00875EC88963}
  9
$VERSIONGUID
  2
{82C521FC-BF81-46B3-825E-420B6BD93A99}
  9
$EXTNAMES
290
     1
  9
$PSVPSCALE
 40
0.0
  9
$OLESTARTUP
290
     0
  9
$SORTENTS
280
   127
  9
$INDEXCTL
280
     0
  9
$HIDETEXT
280
     1
  9
$XCLIPFRAME
290
     0
  9
$HALOGAP
280
     0
  9
$OBSCOLOR
 70
   257
  9
$OBSLTYPE
280
     0
  9
$INTERSECTIONDISPLAY
280
     0
  9
$INTERSECTIONCOLOR
 70
   257
  9
$DIMASSOC
280
     1
  9
$PROJECTNAME
  1

  0
ENDSEC
  0
SECTION
  2
CLASSES
  0
CLASS
  1
ACDBDICTIONARYWDFLT
  2
AcDbDictionaryWithDefault
  3
ObjectDBX Classes
 90
        0
 91
        3
280
     0
281
     0
  0
CLASS
  1
SORTENTSTABLE
  2
AcDbSortentsTable
  3
ObjectDBX Classes
 90
        0
 91
        3
280
     0
281
     0
  0
ENDSEC
  0
SECTION
  2
TABLES
  0
TABLE
  2
VPORT
  5
568
330
0
100
AcDbSymbolTable
 70
     4
  0
VPORT
  5
49
330
568
100
AcDbSymbolTableRecord
100
AcDbViewportTableRecord
  2
*ACTIVE
 70
     0
 10
0.0
 20
0.0
 11
1.0
 21
1.0
 12
28.669521
 22
-7.102396
 13
0.0
 23
0.0
 14
0.083333
 24
0.083333
 15
0.083333
 25
0.083333
 16
0.0
 26
0.0
 36
1.0
 17
0.0
 27
0.0
 37
0.0
 40
8.839437
 41
1.884937
 42
50.0
 43
0.0
 44
0.0
 50
0.0
 51
0.0
 71
     0
 72
   100
 73
     1
 74
     2
 75
     0
 76
     0
 77
     0
 78
     1
281
     0
 65
     1
110
0.0
120
0.0
130
0.0
111
1.0
121
0.0
131
0.0
112
0.0
122
1.0
132
0.0
 79
     0
146
0.0
  0
ENDTAB
  0
TABLE
  2
LTYPE
  5
54F
330
0
100
AcDbSymbolTable
 70
     3
  0
LTYPE
  5
550
330
54F
100
AcDbSymbolTableRecord
100
AcDbLinetypeTableRecord
  2
ByBlock
 70
     0
  3

 72
    65
 73
     0
 40
0.0
  0
LTYPE
  5
551
330
54F
100
AcDbSymbolTableRecord
100
AcDbLinetypeTableRecord
  2
ByLayer
 70
     0
  3

 72
    65
 73
     0
 40
0.0
  0
LTYPE
  5
54E
330
54F
100
AcDbSymbolTableRecord
100
AcDbLinetypeTableRecord
  2
Continuous
 70
     0
  3
Solid line
 72
    65
 73
     0
 40
0.0
  0
LTYPE
  5
57C
330
54F
100
AcDbSymbolTableRecord
100
AcDbLinetypeTableRecord
  2
DGN Style 7
 70
     0
  3
Dgn Style 7
 72
    65
 73
     4
 40
0.333236
 49
0.149956
 74
     0
 49
-0.066647
 74
     0
 49
0.049985
 74
     0
 49
-0.066647
 74
     0
  0
LTYPE
  5
57D
330
54F
100
AcDbSymbolTableRecord
100
AcDbLinetypeTableRecord
  2
DGN Style 2
 70
     0
  3
Dgn Style 2
 72
    65
 73
     2
 40
0.166618
 49
0.099971
 74
     0
 49
-0.066647
 74
     0
  0
ENDTAB
  0
TABLE
  2
LAYER
  5
548
102
{ACAD_XDICTIONARY
360
549
102
}
330
0
100
AcDbSymbolTable
 70
    64
  0
LAYER
  5
547
330
548
100
AcDbSymbolTableRecord
100
AcDbLayerTableRecord
  2
0
 70
     0
 62
     7
  6
Continuous
370
    -3
390
54B
  0
LAYER
  5
7
330
548
100
AcDbSymbolTableRecord
100
AcDbLayerTableRecord
  2
Level 1
 70
     0
 62
     7
  6
Continuous
370
     0
390
54B
  0
LAYER
  5
8
330
548
100
AcDbSymbolTableRecord
100
AcDbLayerTableRecord
  2
2-30G
 70
     0
 62
     7
  6
Continuous
370
     0
390
54B
1001
AcAecLayerStandard
1000

1000
2-30G
  0
LAYER
  5
9
330
548
100
AcDbSymbolTableRecord
100
AcDbLayerTableRecord
  2
BORDER
 70
     0
 62
     7
  6
Continuous
370
     0
390
54B
1001
AcAecLayerStandard
1000

1000
BORDER
  0
LAYER
  5
A
330
548
100
AcDbSymbolTableRecord
100
AcDbLayerTableRecord
  2
DEFPOINTS
 70
     0
 62
     7
  6
Continuous
290
     0
370
     0
390
54B
1001
AcAecLayerStandard
1000

1000
DEFPOINTS
  0
LAYER
  5
B
330
548
100
AcDbSymbolTableRecord
100
AcDbLayerTableRecord
  2
DIM
 70
     0
 62
     7
  6
Continuous
370
     0
390
54B
1001
AcAecLayerStandard
1000

1000
DIM
  0
LAYER
  5
C
330
548
100
AcDbSymbolTableRecord
100
AcDbLayerTableRecord
  2
HATCH
 70
     0
 62
     7
  6
Continuous
370
     0
390
54B
1001
AcAecLayerStandard
1000

1000
HATCH
  0
LAYER
  5
D
330
548
100
AcDbSymbolTableRecord
100
AcDbLayerTableRecord
  2
LEGEND
 70
     0
 62
     7
  6
Continuous
370
     0
390
54B
1001
AcAecLayerStandard
1000

1000
LEGEND
  0
LAYER
  5
E
330
548
100
AcDbSymbolTableRecord
100
AcDbLayerTableRecord
  2
REF
 70
     0
 62
     7
  6
Continuous
370
     0
390
54B
1001
AcAecLayerStandard
1000

1000
REF
  0
LAYER
  5
F
330
548
100
AcDbSymbolTableRecord
100
AcDbLayerTableRecord
  2
TEXT
 70
     0
 62
     7
  6
Continuous
370
     0
390
54B
1001
AcAecLayerStandard
1000

1000
TEXT
  0
LAYER
  5
10
330
548
100
AcDbSymbolTableRecord
100
AcDbLayerTableRecord
  2
TITLE
 70
     0
 62
     7
  6
Continuous
370
     0
390
54B
1001
AcAecLayerStandard
1000

1000
TITLE
  0
LAYER
  5
11
330
548
100
AcDbSymbolTableRecord
100
AcDbLayerTableRecord
  2
Level 11
 70
     0
 62
     7
  6
Continuous
370
     0
390
54B
  0
LAYER
  5
12
330
548
100
AcDbSymbolTableRecord
100
AcDbLayerTableRecord
  2
Level 12
 70
     0
 62
     7
  6
Continuous
370
     0
390
54B
  0
LAYER
  5
13
330
548
100
AcDbSymbolTableRecord
100
AcDbLayerTableRecord
  2
Level 13
 70
     0
 62
     7
  6
Continuous
370
     0
390
54B
  0
LAYER
  5
14
330
548
100
AcDbSymbolTableRecord
100
AcDbLayerTableRecord
  2
Level 14
 70
     0
 62
     7
  6
Continuous
370
     0
390
54B
  0
LAYER
  5
15
330
548
100
AcDbSymbolTableRecord
100
AcDbLayerTableRecord
  2
Level 15
 70
     0
 62
     7
  6
Continuous
370
     0
390
54B
  0
LAYER
  5
16
330
548
100
AcDbSymbolTableRecord
100
AcDbLayerTableRecord
  2
Level 16
 70
     0
 62
     7
  6
Continuous
370
     0
390
54B
  0
LAYER
  5
17
330
548
100
AcDbSymbolTableRecord
100
AcDbLayerTableRecord
  2
Level 17
 70
     0
 62
     7
  6
Continuous
370
     0
390
54B
  0
LAYER
  5
18
330
548
100
AcDbSymbolTableRecord
100
AcDbLayerTableRecord
  2
Level 18
 70
     0
 62
     7
  6
Continuous
370
     0
390
54B
  0
LAYER
  5
19
330
548
100
AcDbSymbolTableRecord
100
AcDbLayerTableRecord
  2
Level 19
 70
     0
 62
     7
  6
Continuous
370
     0
390
54B
  0
LAYER
  5
1A
330
548
100
AcDbSymbolTableRecord
100
AcDbLayerTableRecord
  2
Level 20
 70
     0
 62
     7
  6
Continuous
370
     0
390
54B
  0
LAYER
  5
1B
330
548
100
AcDbSymbolTableRecord
100
AcDbLayerTableRecord
  2
Level 21
 70
     0
 62
     7
  6
Continuous
370
     0
390
54B
  0
LAYER
  5
1C
330
548
100
AcDbSymbolTableRecord
100
AcDbLayerTableRecord
  2
Level 22
 70
     0
 62
     7
  6
Continuous
370
     0
390
54B
  0
LAYER
  5
1D
330
548
100
AcDbSymbolTableRecord
100
AcDbLayerTableRecord
  2
Level 23
 70
     0
 62
     7
  6
Continuous
370
     0
390
54B
  0
LAYER
  5
1E
330
548
100
AcDbSymbolTableRecord
100
AcDbLayerTableRecord
  2
Level 24
 70
     0
 62
     7
  6
Continuous
370
     0
390
54B
  0
LAYER
  5
1F
330
548
100
AcDbSymbolTableRecord
100
AcDbLayerTableRecord
  2
Level 25
 70
     0
 62
     7
  6
Continuous
370
     0
390
54B
  0
LAYER
  5
20
330
548
100
AcDbSymbolTableRecord
100
AcDbLayerTableRecord
  2
Level 26
 70
     0
 62
     7
  6
Continuous
370
     0
390
54B
  0
LAYER
  5
21
330
548
100
AcDbSymbolTableRecord
100
AcDbLayerTableRecord
  2
Level 27
 70
     0
 62
     7
  6
Continuous
370
     0
390
54B
  0
LAYER
  5
22
330
548
100
AcDbSymbolTableRecord
100
AcDbLayerTableRecord
  2
Level 28
 70
     0
 62
     7
  6
Continuous
370
     0
390
54B
  0
LAYER
  5
23
330
548
100
AcDbSymbolTableRecord
100
AcDbLayerTableRecord
  2
Level 29
 70
     0
 62
     7
  6
Continuous
370
     0
390
54B
  0
LAYER
  5
24
330
548
100
AcDbSymbolTableRecord
100
AcDbLayerTableRecord
  2
Level 30
 70
     0
 62
     7
  6
Continuous
370
     0
390
54B
  0
LAYER
  5
25
330
548
100
AcDbSymbolTableRecord
100
AcDbLayerTableRecord
  2
Level 31
 70
     0
 62
     7
  6
Continuous
370
     0
390
54B
  0
LAYER
  5
26
330
548
100
AcDbSymbolTableRecord
100
AcDbLayerTableRecord
  2
Level 32
 70
     0
 62
     7
  6
Continuous
370
     0
390
54B
  0
LAYER
  5
27
330
548
100
AcDbSymbolTableRecord
100
AcDbLayerTableRecord
  2
Level 33
 70
     0
 62
     7
  6
Continuous
370
     0
390
54B
  0
LAYER
  5
28
330
548
100
AcDbSymbolTableRecord
100
AcDbLayerTableRecord
  2
Level 34
 70
     0
 62
     7
  6
Continuous
370
     0
390
54B
  0
LAYER
  5
29
330
548
100
AcDbSymbolTableRecord
100
AcDbLayerTableRecord
  2
Level 35
 70
     0
 62
     7
  6
Continuous
370
     0
390
54B
  0
LAYER
  5
2A
330
548
100
AcDbSymbolTableRecord
100
AcDbLayerTableRecord
  2
Level 36
 70
     0
 62
     7
  6
Continuous
370
     0
390
54B
  0
LAYER
  5
2B
330
548
100
AcDbSymbolTableRecord
100
AcDbLayerTableRecord
  2
Level 37
 70
     0
 62
     7
  6
Continuous
370
     0
390
54B
  0
LAYER
  5
2C
330
548
100
AcDbSymbolTableRecord
100
AcDbLayerTableRecord
  2
Level 38
 70
     0
 62
     7
  6
Continuous
370
     0
390
54B
  0
LAYER
  5
2D
330
548
100
AcDbSymbolTableRecord
100
AcDbLayerTableRecord
  2
Level 39
 70
     0
 62
     7
  6
Continuous
370
     0
390
54B
  0
LAYER
  5
2E
330
548
100
AcDbSymbolTableRecord
100
AcDbLayerTableRecord
  2
Level 40
 70
     0
 62
     7
  6
Continuous
370
     0
390
54B
  0
LAYER
  5
2F
330
548
100
AcDbSymbolTableRecord
100
AcDbLayerTableRecord
  2
Level 41
 70
     0
 62
     7
  6
Continuous
370
     0
390
54B
  0
LAYER
  5
30
330
548
100
AcDbSymbolTableRecord
100
AcDbLayerTableRecord
  2
Level 42
 70
     0
 62
     7
  6
Continuous
370
     0
390
54B
  0
LAYER
  5
31
330
548
100
AcDbSymbolTableRecord
100
AcDbLayerTableRecord
  2
Level 43
 70
     0
 62
     7
  6
Continuous
370
     0
390
54B
  0
LAYER
  5
32
330
548
100
AcDbSymbolTableRecord
100
AcDbLayerTableRecord
  2
Level 44
 70
     0
 62
     7
  6
Continuous
370
     0
390
54B
  0
LAYER
  5
33
330
548
100
AcDbSymbolTableRecord
100
AcDbLayerTableRecord
  2
Level 45
 70
     0
 62
     7
  6
Continuous
370
     0
390
54B
  0
LAYER
  5
34
330
548
100
AcDbSymbolTableRecord
100
AcDbLayerTableRecord
  2
Level 46
 70
     0
 62
     7
  6
Continuous
370
     0
390
54B
  0
LAYER
  5
35
330
548
100
AcDbSymbolTableRecord
100
AcDbLayerTableRecord
  2
Level 47
 70
     0
 62
     7
  6
Continuous
370
     0
390
54B
  0
LAYER
  5
36
330
548
100
AcDbSymbolTableRecord
100
AcDbLayerTableRecord
  2
Level 48
 70
     0
 62
     7
  6
Continuous
370
     0
390
54B
  0
LAYER
  5
37
330
548
100
AcDbSymbolTableRecord
100
AcDbLayerTableRecord
  2
Level 49
 70
     0
 62
     7
  6
Continuous
370
     0
390
54B
  0
LAYER
  5
38
330
548
100
AcDbSymbolTableRecord
100
AcDbLayerTableRecord
  2
Level 50
 70
     0
 62
     7
  6
Continuous
370
     0
390
54B
  0
LAYER
  5
39
330
548
100
AcDbSymbolTableRecord
100
AcDbLayerTableRecord
  2
Level 51
 70
     0
 62
     7
  6
Continuous
370
     0
390
54B
  0
LAYER
  5
3A
330
548
100
AcDbSymbolTableRecord
100
AcDbLayerTableRecord
  2
Level 52
 70
     0
 62
     7
  6
Continuous
370
     0
390
54B
  0
LAYER
  5
3B
330
548
100
AcDbSymbolTableRecord
100
AcDbLayerTableRecord
  2
Level 53
 70
     0
 62
     7
  6
Continuous
370
     0
390
54B
  0
LAYER
  5
3C
330
548
100
AcDbSymbolTableRecord
100
AcDbLayerTableRecord
  2
Level 54
 70
     0
 62
     7
  6
Continuous
370
     0
390
54B
  0
LAYER
  5
3D
330
548
100
AcDbSymbolTableRecord
100
AcDbLayerTableRecord
  2
Level 55
 70
     0
 62
     7
  6
Continuous
370
     0
390
54B
  0
LAYER
  5
3E
330
548
100
AcDbSymbolTableRecord
100
AcDbLayerTableRecord
  2
Level 56
 70
     0
 62
     7
  6
Continuous
370
     0
390
54B
  0
LAYER
  5
3F
330
548
100
AcDbSymbolTableRecord
100
AcDbLayerTableRecord
  2
Level 57
 70
     0
 62
     7
  6
Continuous
370
     0
390
54B
  0
LAYER
  5
40
330
548
100
AcDbSymbolTableRecord
100
AcDbLayerTableRecord
  2
Level 58
 70
     0
 62
     7
  6
Continuous
370
     0
390
54B
  0
LAYER
  5
41
330
548
100
AcDbSymbolTableRecord
100
AcDbLayerTableRecord
  2
Level 59
 70
     0
 62
     7
  6
Continuous
370
     0
390
54B
  0
LAYER
  5
42
330
548
100
AcDbSymbolTableRecord
100
AcDbLayerTableRecord
  2
Level 60
 70
     0
 62
     7
  6
Continuous
370
     0
390
54B
  0
LAYER
  5
43
330
548
100
AcDbSymbolTableRecord
100
AcDbLayerTableRecord
  2
Level 61
 70
     0
 62
     7
  6
Continuous
370
     0
390
54B
  0
LAYER
  5
44
330
548
100
AcDbSymbolTableRecord
100
AcDbLayerTableRecord
  2
Level 62
 70
     0
 62
     7
  6
Continuous
370
     0
390
54B
  0
LAYER
  5
45
330
548
100
AcDbSymbolTableRecord
100
AcDbLayerTableRecord
  2
_0
 70
     0
 62
     7
  6
Continuous
370
     0
390
54B
1001
AcAecLayerStandard
1000

1000
0
  0
ENDTAB
  0
TABLE
  2
STYLE
  5
553
330
0
100
AcDbSymbolTable
 70
     2
  0
STYLE
  5
552
330
553
100
AcDbSymbolTableRecord
100
AcDbTextStyleTableRecord
  2
Standard
 70
     0
 40
0.0
 41
1.0
 50
0.0
 71
     0
 42
0.0675
  3
txt
  4

  0
STYLE
  5
572
330
553
100
AcDbSymbolTableRecord
100
AcDbTextStyleTableRecord
  2
Style-Arial
 70
     0
 40
0.0
 41
1.0
 50
0.0
 71
     0
 42
0.2
  3

  4

1001
ACAD
1000
Arial
1071
       39
  0
ENDTAB
  0
TABLE
  2
VIEW
  5
566
330
0
100
AcDbSymbolTable
 70
     0
  0
ENDTAB
  0
TABLE
  2
UCS
  5
567
330
0
100
AcDbSymbolTable
 70
     0
  0
ENDTAB
  0
TABLE
  2
APPID
  5
565
330
0
100
AcDbSymbolTable
 70
     3
  0
APPID
  5
56D
330
565
100
AcDbSymbolTableRecord
100
AcDbRegAppTableRecord
  2
ACAD
 70
     0
  0
APPID
  5
564
330
565
100
AcDbSymbolTableRecord
100
AcDbRegAppTableRecord
  2
ACAD_PSEXT
 70
     0
  0
APPID
  5
56F
330
565
100
AcDbSymbolTableRecord
100
AcDbRegAppTableRecord
  2
AcAecLayerStandard
 70
     0
  0
ENDTAB
  0
TABLE
  2
DIMSTYLE
  5
555
330
0
100
AcDbSymbolTable
 70
     1
100
AcDbDimStyleTable
  0
DIMSTYLE
105
554
330
555
100
AcDbSymbolTableRecord
100
AcDbDimStyleTableRecord
  2
Standard
 70
     0
340
552
  0
ENDTAB
  0
TABLE
  2
BLOCK_RECORD
  5
558
330
0
100
AcDbSymbolTable
 70
     2
  0
BLOCK_RECORD
  5
559
102
{ACAD_XDICTIONARY
360
581
102
}
330
558
100
AcDbSymbolTableRecord
100
AcDbBlockTableRecord
  2
*Model_Space
340
55C
  0
BLOCK_RECORD
  5
55E
330
558
100
AcDbSymbolTableRecord
100
AcDbBlockTableRecord
  2
*Paper_Space
340
561
  0
BLOCK_RECORD
  5
573
330
558
100
AcDbSymbolTableRecord
100
AcDbBlockTableRecord
  2
TerminatorOpen_0.5
340
0
  0
BLOCK_RECORD
  5
57E
330
558
100
AcDbSymbolTableRecord
100
AcDbBlockTableRecord
  2
LARROW
340
0
102
{BLKREFS
331
4DF
102
}
  0
ENDTAB
  0
ENDSEC
  0
SECTION
  2
BLOCKS
  0
BLOCK
  5
55A
330
559
100
AcDbEntity
  8
0
100
AcDbBlockBegin
  2
*Model_Space
 70
     0
 71
     0
 10
0.0
 20
0.0
 30
0.0
  3
*Model_Space
  1

  0
ENDBLK
  5
55B
330
559
100
AcDbEntity
  8
0
100
AcDbBlockEnd
  0
BLOCK
  5
55F
330
55E
100
AcDbEntity
 67
     1
  8
0
100
AcDbBlockBegin
  2
*Paper_Space
 70
     0
 71
     0
 10
0.0
 20
0.0
 30
0.0
  3
*Paper_Space
  1

  0
ENDBLK
  5
560
330
55E
100
AcDbEntity
 67
     1
  8
0
100
AcDbBlockEnd
  0
BLOCK
  5
577
330
573
100
AcDbEntity
  8
0
100
AcDbBlockBegin
  2
TerminatorOpen_0.5
 70
     0
 71
     0
 10
0.0
 20
0.0
 30
0.0
  3
TerminatorOpen_0.5
  1

  0
LINE
  5
574
330
573
100
AcDbEntity
  8
0
  6
ByBlock
 62
     0
370
    -2
100
AcDbLine
 10
0.0
 20
0.0
 30
0.0
 11
-1.0
 21
0.0
 31
0.0
  0
LINE
  5
575
330
573
100
AcDbEntity
  8
0
  6
ByBlock
 62
     0
370
    -2
100
AcDbLine
 10
0.0
 20
0.0
 30
0.0
 11
-1.0
 21
0.25
 31
0.0
  0
LINE
  5
576
330
573
100
AcDbEntity
  8
0
  6
ByBlock
 62
     0
370
    -2
100
AcDbLine
 10
0.0
 20
0.0
 30
0.0
 11
-1.0
 21
-0.25
 31
0.0
  0
ENDBLK
  5
578
330
573
100
AcDbEntity
  8
0
100
AcDbBlockEnd
  0
BLOCK
  5
57F
330
57E
100
AcDbEntity
  8
0
100
AcDbBlockBegin
  2
LARROW
 70
     0
 71
     0
 10
0.0
 20
0.0
 30
0.0
  3
LARROW
  1

  0
LINE
  5
4E0
330
57E
100
AcDbEntity
  8
DEFPOINTS
  6
Continuous
 62
     7
370
    13
100
AcDbLine
 10
0.0
 20
0.0
 30
0.0
 11
-0.013031
 21
0.001885
 31
0.0
  0
LINE
  5
4E1
330
57E
100
AcDbEntity
  8
DEFPOINTS
  6
Continuous
 62
     7
370
    13
100
AcDbLine
 10
0.0
 20
0.0
 30
0.0
 11
-0.013021
 21
-0.001886
 31
0.0
  0
LWPOLYLINE
  5
4E2
330
57E
100
AcDbEntity
  8
DEFPOINTS
  6
Continuous
 62
     7
370
    13
100
AcDbPolyline
 90
        9
 70
   128
 43
0.0
 10
-0.013031
 20
0.001885
 10
-0.012249
 20
0.001291
 10
-0.011895
 20
0.000811
 10
-0.011718
 20
0.000364
 10
-0.011688
 20
-0.000053
 10
-0.011749
 20
-0.000458
 10
-0.011957
 20
-0.000896
 10
-0.012322
 20
-0.001355
 10
-0.013021
 20
-0.001886
  0
LINE
  5
4E3
330
57E
100
AcDbEntity
  8
DEFPOINTS
  6
Continuous
 62
     7
370
    13
100
AcDbLine
 10
0.0
 20
0.0
 30
0.0
 11
-0.012249
 21
0.001291
 31
0.0
  0
LINE
  5
4E4
330
57E
100
AcDbEntity
  8
DEFPOINTS
  6
Continuous
 62
     7
370
    13
100
AcDbLine
 10
0.0
 20
0.0
 30
0.0
 11
-0.011895
 21
0.000811
 31
0.0
  0
LINE
  5
4E5
330
57E
100
AcDbEntity
  8
DEFPOINTS
  6
Continuous
 62
     7
370
    13
100
AcDbLine
 10
0.0
 20
0.0
 30
0.0
 11
-0.011718
 21
0.000364
 31
0.0
  0
LINE
  5
4E6
330
57E
100
AcDbEntity
  8
DEFPOINTS
  6
Continuous
 62
     7
370
    13
100
AcDbLine
 10
0.0
 20
0.0
 30
0.0
 11
-0.011749
 21
-0.000458
 31
0.0
  0
LINE
  5
4E7
330
57E
100
AcDbEntity
  8
DEFPOINTS
  6
Continuous
 62
     7
370
    13
100
AcDbLine
 10
0.0
 20
0.0
 30
0.0
 11
-0.011957
 21
-0.000896
 31
0.0
  0
LINE
  5
4E8
330
57E
100
AcDbEntity
  8
DEFPOINTS
  6
Continuous
 62
     7
370
    13
100
AcDbLine
 10
0.0
 20
0.0
 30
0.0
 11
-0.012322
 21
-0.001355
 31
0.0
  0
LINE
  5
4E9
330
57E
100
AcDbEntity
  8
DEFPOINTS
  6
Continuous
 62
     7
370
    13
100
AcDbLine
 10
0.0
 20
0.0
 30
0.0
 11
-0.011678
 21
-0.000001
 31
0.0
  0
ENDBLK
  5
580
330
57E
100
AcDbEntity
  8
0
100
AcDbBlockEnd
  0
ENDSEC
  0
SECTION
  2
ENTITIES
  0
LINE
  5
5B
330
559
100
AcDbEntity
  8
_0
  6
Continuous
 62
     7
370
    13
100
AcDbLine
 10
34.169167
 20
-11.352125
 30
0.0
 11
33.962635
 21
-11.352125
 31
0.0
  0
POINT
  5
5C
330
559
100
AcDbEntity
  8
_0
  6
Continuous
 62
     7
370
    13
100
AcDbPoint
 10
24.156719
 20
-3.477625
 30
0.0
  0
LINE
  5
5D
330
559
100
AcDbEntity
  8
_0
  6
Continuous
 62
     7
370
    13
100
AcDbLine
 10
34.169167
 20
-2.852667
 30
0.0
 11
33.962635
 21
-2.852667
 31
0.0
  0
LINE
  5
5E
330
559
100
AcDbEntity
  8
_0
  6
Continuous
 62
     7
370
    13
100
AcDbLine
 10
34.169167
 20
-11.352125
 30
0.0
 11
34.169167
 21
-11.145594
 31
0.0
  0
LINE
  5
5F
330
559
100
AcDbEntity
  8
_0
  6
Continuous
 62
     7
370
    13
100
AcDbLine
 10
23.169875
 20
-11.352125
 30
0.0
 11
23.169875
 21
-11.145594
 31
0.0
  0
LINE
  5
60
330
559
100
AcDbEntity
  8
_0
  6
Continuous
 62
     7
370
    13
100
AcDbLine
 10
34.169167
 20
-3.059198
 30
0.0
 11
34.169167
 21
-2.852667
 31
0.0
  0
LINE
  5
61
330
559
100
AcDbEntity
  8
_0
  6
Continuous
 62
     7
370
    13
100
AcDbLine
 10
23.376406
 20
-11.352125
 30
0.0
 11
23.169875
 21
-11.352125
 31
0.0
  0
LINE
  5
62
330
559
100
AcDbEntity
  8
_0
  6
Continuous
 62
     7
370
    13
100
AcDbLine
 10
23.376406
 20
-2.852667
 30
0.0
 11
23.169875
 21
-2.852667
 31
0.0
  0
LINE
  5
63
330
559
100
AcDbEntity
  8
_0
  6
Continuous
 62
     7
370
    13
100
AcDbLine
 10
23.169875
 20
-3.059198
 30
0.0
 11
23.169875
 21
-2.852667
 31
0.0
  0
LINE
  5
64
330
559
100
AcDbEntity
  8
BORDER
  6
Continuous
 62
     7
370
    13
100
AcDbLine
 10
24.156708
 20
-10.727156
 30
0.0
 11
24.156708
 21
-3.477625
 31
0.0
  0
CIRCLE
  5
65
330
559
100
AcDbEntity
  8
_0
  6
Continuous
 62
     7
370
    13
100
AcDbCircle
 10
30.408097
 20
-5.875561
 30
0.0
 40
0.0249983999999693
  0
SOLID
  5
66
330
559
100
AcDbEntity
  8
DEFPOINTS
  6
Continuous
 62
     7
370
    13
100
AcDbTrace
 10
27.412573
 20
-5.992521
 30
0.0
 11
27.412573
 21
-5.975854
 31
0.0
 12
27.462563
 22
-5.984187
 32
0.0
 13
27.462563
 23
-5.984187
 33
0.0
  0
LINE
  5
67
330
559
100
AcDbEntity
  8
DEFPOINTS
  6
Continuous
 62
     7
370
    13
100
AcDbLine
 10
27.396562
 20
-5.984187
 30
0.0
 11
27.412573
 21
-5.984187
 31
0.0
  0
LINE
  5
68
330
559
100
AcDbEntity
  8
DIM
  6
Continuous
 62
     7
370
    13
100
AcDbLine
 10
32.350469
 20
-6.368417
 30
0.0
 11
32.376302
 21
-6.39425
 31
0.0
  0
LINE
  5
69
330
559
100
AcDbEntity
  8
DIM
  6
Continuous
 62
     7
370
    13
100
AcDbLine
 10
32.464677
 20
-6.305875
 30
0.0
 11
32.553073
 21
-6.39425
 31
0.0
  0
LINE
  5
6A
330
559
100
AcDbEntity
  8
DIM
  6
Continuous
 62
     7
370
    13
100
AcDbLine
 10
32.641448
 20
-6.305875
 30
0.0
 11
32.698
 21
-6.362417
 31
0.0
  0
LINE
  5
6B
330
559
100
AcDbEntity
  8
DIM
  6
Continuous
 62
     7
370
    13
100
AcDbLine
 10
31.955458
 20
-6.326937
 30
0.0
 11
32.022771
 21
-6.39425
 31
0.0
  0
LINE
  5
6C
330
559
100
AcDbEntity
  8
DIM
  6
Continuous
 62
     7
370
    13
100
AcDbLine
 10
31.757625
 20
-6.305875
 30
0.0
 11
31.846
 21
-6.39425
 31
0.0
  0
LINE
  5
6D
330
559
100
AcDbEntity
  8
DIM
  6
Continuous
 62
     7
370
    13
100
AcDbLine
 10
31.645521
 20
-6.370521
 30
0.0
 11
31.66924
 21
-6.39425
 31
0.0
  0
LINE
  5
6E
330
559
100
AcDbEntity
  8
DIM
  6
Continuous
 62
     7
370
    13
100
AcDbLine
 10
31.985667
 20
-6.290865
 30
0.0
 11
32.055917
 21
-6.361104
 31
0.0
  0
LINE
  5
6F
330
559
100
AcDbEntity
  8
DIM
  6
Continuous
 62
     7
370
    13
100
AcDbLine
 10
32.350469
 20
-6.302125
 30
0.0
 11
32.409448
 21
-6.361104
 31
0.0
  0
LINE
  5
70
330
559
100
AcDbEntity
  8
DIM
  6
Continuous
 62
     7
370
    13
100
AcDbLine
 10
32.497823
 20
-6.272729
 30
0.0
 11
32.586219
 21
-6.361104
 31
0.0
  0
LINE
  5
71
330
559
100
AcDbEntity
  8
DIM
  6
Continuous
 62
     7
370
    13
100
AcDbLine
 10
32.674594
 20
-6.272729
 30
0.0
 11
32.698
 21
-6.296125
 31
0.0
  0
LINE
  5
72
330
559
100
AcDbEntity
  8
DIM
  6
Continuous
 62
     7
370
    13
100
AcDbLine
 10
31.790771
 20
-6.272729
 30
0.0
 11
31.83624
 21
-6.318208
 31
0.0
  0
LINE
  5
73
330
559
100
AcDbEntity
  8
DIM
  6
Continuous
 62
     7
370
    13
100
AcDbLine
 10
31.848344
 20
-6.330292
 30
0.0
 11
31.879146
 21
-6.361104
 31
0.0
  0
LINE
  5
74
330
559
100
AcDbEntity
  8
DIM
  6
Continuous
 62
     7
370
    13
100
AcDbLine
 10
31.645521
 20
-6.30425
 30
0.0
 11
31.702385
 21
-6.361104
 31
0.0
  0
LINE
  5
75
330
559
100
AcDbEntity
  8
DIM
  6
Continuous
 62
     7
370
    13
100
AcDbLine
 10
32.015885
 20
-6.254792
 30
0.0
 11
32.089062
 21
-6.327969
 31
0.0
  0
LINE
  5
76
330
559
100
AcDbEntity
  8
DIM
  6
Continuous
 62
     7
370
    13
100
AcDbLine
 10
32.354208
 20
-6.239583
 30
0.0
 11
32.442594
 21
-6.327969
 31
0.0
  0
LINE
  5
77
330
559
100
AcDbEntity
  8
DIM
  6
Continuous
 62
     7
370
    13
100
AcDbLine
 10
32.530969
 20
-6.239583
 30
0.0
 11
32.619354
 21
-6.327969
 31
0.0
  0
LINE
  5
78
330
559
100
AcDbEntity
  8
DIM
  6
Continuous
 62
     7
370
    13
100
AcDbLine
 10
31.647146
 20
-6.239583
 30
0.0
 11
31.735531
 21
-6.327969
 31
0.0
  0
LINE
  5
79
330
559
100
AcDbEntity
  8
DIM
  6
Continuous
 62
     7
370
    13
100
AcDbLine
 10
32.038781
 20
-6.400344
 30
0.0
 11
32.09549
 21
-6.343646
 31
0.0
  0
LINE
  5
7A
330
559
100
AcDbEntity
  8
DIM
  6
Continuous
 62
     7
370
    13
100
AcDbLine
 10
31.86201
 20
-6.400344
 30
0.0
 11
31.932063
 21
-6.330292
 31
0.0
  0
LINE
  5
7B
330
559
100
AcDbEntity
  8
DIM
  6
Continuous
 62
     7
370
    13
100
AcDbLine
 10
31.68525
 20
-6.400344
 30
0.0
 11
31.757625
 21
-6.327969
 31
0.0
  0
LINE
  5
7C
330
559
100
AcDbEntity
  8
DIM
  6
Continuous
 62
     7
370
    13
100
AcDbLine
 10
31.66924
 20
-6.239583
 30
0.0
 11
31.674073
 21
-6.23475
 31
0.0
  0
LINE
  5
7D
330
559
100
AcDbEntity
  8
DIM
  6
Continuous
 62
     7
370
    13
100
AcDbLine
 10
32.376302
 20
-6.239583
 30
0.0
 11
32.381729
 21
-6.234156
 31
0.0
  0
LINE
  5
7E
330
559
100
AcDbEntity
  8
DIM
  6
Continuous
 62
     7
370
    13
100
AcDbLine
 10
32.397312
 20
-6.395344
 30
0.0
 11
32.464677
 21
-6.327969
 31
0.0
  0
LINE
  5
7F
330
559
100
AcDbEntity
  8
DIM
  6
Continuous
 62
     7
370
    13
100
AcDbLine
 10
32.553073
 20
-6.239583
 30
0.0
 11
32.55849
 21
-6.234156
 31
0.0
  0
LINE
  5
80
330
559
100
AcDbEntity
  8
DIM
  6
Continuous
 62
     7
370
    13
100
AcDbLine
 10
32.574083
 20
-6.395344
 30
0.0
 11
32.641448
 21
-6.327969
 31
0.0
  0
LINE
  5
81
330
559
100
AcDbEntity
  8
DIM
  6
Continuous
 62
     7
370
    13
100
AcDbLine
 10
31.928302
 20
-6.400344
 30
0.0
 11
31.967531
 21
-6.361104
 31
0.0
  0
LINE
  5
82
330
559
100
AcDbEntity
  8
DIM
  6
Continuous
 62
     7
370
    13
100
AcDbLine
 10
32.055917
 20
-6.272729
 30
0.0
 11
32.093896
 21
-6.23475
 31
0.0
  0
LINE
  5
83
330
559
100
AcDbEntity
  8
DIM
  6
Continuous
 62
     7
370
    13
100
AcDbLine
 10
31.751542
 20
-6.400344
 30
0.0
 11
31.790771
 21
-6.361104
 31
0.0
  0
LINE
  5
84
330
559
100
AcDbEntity
  8
DIM
  6
Continuous
 62
     7
370
    13
100
AcDbLine
 10
31.702385
 20
-6.272729
 30
0.0
 11
31.740365
 21
-6.23475
 31
0.0
  0
LINE
  5
85
330
559
100
AcDbEntity
  8
DIM
  6
Continuous
 62
     7
370
    13
100
AcDbLine
 10
32.409448
 20
-6.272729
 30
0.0
 11
32.448021
 21
-6.234156
 31
0.0
  0
LINE
  5
86
330
559
100
AcDbEntity
  8
DIM
  6
Continuous
 62
     7
370
    13
100
AcDbLine
 10
32.463594
 20
-6.395344
 30
0.0
 11
32.497823
 21
-6.361104
 31
0.0
  0
LINE
  5
87
330
559
100
AcDbEntity
  8
DIM
  6
Continuous
 62
     7
370
    13
100
AcDbLine
 10
32.586219
 20
-6.272729
 30
0.0
 11
32.624771
 21
-6.234156
 31
0.0
  0
LINE
  5
88
330
559
100
AcDbEntity
  8
DIM
  6
Continuous
 62
     7
370
    13
100
AcDbLine
 10
32.640375
 20
-6.395344
 30
0.0
 11
32.674594
 21
-6.361104
 31
0.0
  0
LINE
  5
89
330
559
100
AcDbEntity
  8
DIM
  6
Continuous
 62
     7
370
    13
100
AcDbLine
 10
31.994594
 20
-6.400344
 30
0.0
 11
32.000677
 21
-6.39425
 31
0.0
  0
LINE
  5
8A
330
559
100
AcDbEntity
  8
DIM
  6
Continuous
 62
     7
370
    13
100
AcDbLine
 10
32.089062
 20
-6.305875
 30
0.0
 11
32.09549
 21
-6.299448
 31
0.0
  0
LINE
  5
8B
330
559
100
AcDbEntity
  8
DIM
  6
Continuous
 62
     7
370
    13
100
AcDbLine
 10
31.817823
 20
-6.400344
 30
0.0
 11
31.823906
 21
-6.39425
 31
0.0
  0
LINE
  5
8C
330
559
100
AcDbEntity
  8
DIM
  6
Continuous
 62
     7
370
    13
100
AcDbLine
 10
31.645521
 20
-6.395885
 30
0.0
 11
31.647146
 21
-6.39425
 31
0.0
  0
LINE
  5
8D
330
559
100
AcDbEntity
  8
DIM
  6
Continuous
 62
     7
370
    13
100
AcDbLine
 10
31.735531
 20
-6.305875
 30
0.0
 11
31.797406
 21
-6.244
 31
0.0
  0
LINE
  5
8E
330
559
100
AcDbEntity
  8
DIM
  6
Continuous
 62
     7
370
    13
100
AcDbLine
 10
32.353125
 20
-6.395344
 30
0.0
 11
32.354208
 21
-6.39425
 31
0.0
  0
LINE
  5
8F
330
559
100
AcDbEntity
  8
DIM
  6
Continuous
 62
     7
370
    13
100
AcDbLine
 10
32.442594
 20
-6.305875
 30
0.0
 11
32.514302
 21
-6.234156
 31
0.0
  0
LINE
  5
90
330
559
100
AcDbEntity
  8
DIM
  6
Continuous
 62
     7
370
    13
100
AcDbLine
 10
32.529885
 20
-6.395344
 30
0.0
 11
32.530969
 21
-6.39425
 31
0.0
  0
LINE
  5
91
330
559
100
AcDbEntity
  8
DIM
  6
Continuous
 62
     7
370
    13
100
AcDbLine
 10
32.619354
 20
-6.305875
 30
0.0
 11
32.691063
 21
-6.234156
 31
0.0
  0
LINE
  5
92
330
559
100
AcDbEntity
  8
DIM
  6
Continuous
 62
     7
370
    13
100
AcDbLine
 10
32.594167
 20
-6.438187
 30
0.0
 11
32.665677
 21
-6.366687
 31
0.0
  0
LINE
  5
93
330
559
100
AcDbEntity
  8
DIM
  6
Continuous
 62
     7
370
    13
100
AcDbLine
 10
32.585677
 20
-6.269906
 30
0.0
 11
32.600062
 21
-6.255531
 31
0.0
  0
LINE
  5
94
330
559
100
AcDbEntity
  8
DIM
  6
Continuous
 62
     7
370
    13
100
AcDbLine
 10
32.417406
 20
-6.438187
 30
0.0
 11
32.497292
 21
-6.358292
 31
0.0
  0
LINE
  5
95
330
559
100
AcDbEntity
  8
DIM
  6
Continuous
 62
     7
370
    13
100
AcDbLine
 10
32.408917
 20
-6.269906
 30
0.0
 11
32.423292
 21
-6.255531
 31
0.0
  0
LINE
  5
96
330
559
100
AcDbEntity
  8
DIM
  6
Continuous
 62
     7
370
    13
100
AcDbLine
 10
32.063875
 20
-6.438187
 30
0.0
 11
32.10226
 21
-6.399802
 31
0.0
  0
LINE
  5
97
330
559
100
AcDbEntity
  8
DIM
  6
Continuous
 62
     7
370
    13
100
AcDbLine
 10
31.701854
 20
-6.269906
 30
0.0
 11
31.715656
 21
-6.256115
 31
0.0
  0
LINE
  5
98
330
559
100
AcDbEntity
  8
DIM
  6
Continuous
 62
     7
370
    13
100
AcDbLine
 10
31.586562
 20
-6.385208
 30
0.0
 11
31.613469
 21
-6.358292
 31
0.0
  0
LINE
  5
99
330
559
100
AcDbEntity
  8
DIM
  6
Continuous
 62
     7
370
    13
100
AcDbLine
 10
31.878615
 20
-6.269906
 30
0.0
 11
31.892417
 21
-6.256115
 31
0.0
  0
LINE
  5
9A
330
559
100
AcDbEntity
  8
DIM
  6
Continuous
 62
     7
370
    13
100
AcDbLine
 10
31.710344
 20
-6.438187
 30
0.0
 11
31.79024
 21
-6.358292
 31
0.0
  0
LINE
  5
9B
330
559
100
AcDbEntity
  8
DIM
  6
Continuous
 62
     7
370
    13
100
AcDbLine
 10
32.055385
 20
-6.269906
 30
0.0
 11
32.069187
 21
-6.256115
 31
0.0
  0
LINE
  5
9C
330
559
100
AcDbEntity
  8
DIM
  6
Continuous
 62
     7
370
    13
100
AcDbLine
 10
31.887115
 20
-6.438187
 30
0.0
 11
31.967
 21
-6.358292
 31
0.0
  0
LINE
  5
9D
330
559
100
AcDbEntity
  8
DIM
  6
Continuous
 62
     7
370
    13
100
AcDbLine
 10
32.552542
 20
-6.413531
 30
0.0
 11
32.640927
 21
-6.325146
 31
0.0
  0
LINE
  5
9E
330
559
100
AcDbEntity
  8
DIM
  6
Continuous
 62
     7
370
    13
100
AcDbLine
 10
32.375771
 20
-6.413531
 30
0.0
 11
32.464156
 21
-6.325146
 31
0.0
  0
LINE
  5
9F
330
559
100
AcDbEntity
  8
DIM
  6
Continuous
 62
     7
370
    13
100
AcDbLine
 10
31.668708
 20
-6.413531
 30
0.0
 11
31.757094
 21
-6.325146
 31
0.0
  0
LINE
  5
A0
330
559
100
AcDbEntity
  8
DIM
  6
Continuous
 62
     7
370
    13
100
AcDbLine
 10
31.845479
 20
-6.413531
 30
0.0
 11
31.933865
 21
-6.325146
 31
0.0
  0
LINE
  5
A1
330
559
100
AcDbEntity
  8
DIM
  6
Continuous
 62
     7
370
    13
100
AcDbLine
 10
32.02224
 20
-6.413531
 30
0.0
 11
32.10226
 21
-6.33351
 31
0.0
  0
LINE
  5
A2
330
559
100
AcDbEntity
  8
DIM
  6
Continuous
 62
     7
370
    13
100
AcDbLine
 10
32.519396
 20
-6.380396
 30
0.0
 11
32.607781
 21
-6.29201
 31
0.0
  0
LINE
  5
A3
330
559
100
AcDbEntity
  8
DIM
  6
Continuous
 62
     7
370
    13
100
AcDbLine
 10
32.35725
 20
-6.365771
 30
0.0
 11
32.43101
 21
-6.29201
 31
0.0
  0
LINE
  5
A4
330
559
100
AcDbEntity
  8
DIM
  6
Continuous
 62
     7
370
    13
100
AcDbLine
 10
31.635573
 20
-6.380396
 30
0.0
 11
31.723948
 21
-6.29201
 31
0.0
  0
LINE
  5
A5
330
559
100
AcDbEntity
  8
DIM
  6
Continuous
 62
     7
370
    13
100
AcDbLine
 10
31.812333
 20
-6.380396
 30
0.0
 11
31.900719
 21
-6.29201
 31
0.0
  0
LINE
  5
A6
330
559
100
AcDbEntity
  8
DIM
  6
Continuous
 62
     7
370
    13
100
AcDbLine
 10
31.989104
 20
-6.380396
 30
0.0
 11
32.077479
 21
-6.29201
 31
0.0
  0
LINE
  5
A7
330
559
100
AcDbEntity
  8
DIM
  6
Continuous
 62
     7
370
    13
100
AcDbLine
 10
31.613469
 20
-6.380396
 30
0.0
 11
31.671271
 21
-6.438187
 31
0.0
  0
LINE
  5
A8
330
559
100
AcDbEntity
  8
DIM
  6
Continuous
 62
     7
370
    13
100
AcDbLine
 10
31.79024
 20
-6.380396
 30
0.0
 11
31.848031
 21
-6.438187
 31
0.0
  0
LINE
  5
A9
330
559
100
AcDbEntity
  8
DIM
  6
Continuous
 62
     7
370
    13
100
AcDbLine
 10
31.665969
 20
-6.256115
 30
0.0
 11
31.701854
 21
-6.29201
 31
0.0
  0
LINE
  5
AA
330
559
100
AcDbEntity
  8
DIM
  6
Continuous
 62
     7
370
    13
100
AcDbLine
 10
31.967
 20
-6.380396
 30
0.0
 11
32.024802
 21
-6.438187
 31
0.0
  0
LINE
  5
AB
330
559
100
AcDbEntity
  8
DIM
  6
Continuous
 62
     7
370
    13
100
AcDbLine
 10
31.842729
 20
-6.256115
 30
0.0
 11
31.878615
 21
-6.29201
 31
0.0
  0
LINE
  5
AC
330
559
100
AcDbEntity
  8
DIM
  6
Continuous
 62
     7
370
    13
100
AcDbLine
 10
32.0195
 20
-6.256115
 30
0.0
 11
32.055385
 21
-6.29201
 31
0.0
  0
LINE
  5
AD
330
559
100
AcDbEntity
  8
DIM
  6
Continuous
 62
     7
370
    13
100
AcDbLine
 10
32.549208
 20
-6.255531
 30
0.0
 11
32.585677
 21
-6.29201
 31
0.0
  0
LINE
  5
AE
330
559
100
AcDbEntity
  8
DIM
  6
Continuous
 62
     7
370
    13
100
AcDbLine
 10
32.497292
 20
-6.380396
 30
0.0
 11
32.555094
 21
-6.438187
 31
0.0
  0
LINE
  5
AF
330
559
100
AcDbEntity
  8
DIM
  6
Continuous
 62
     7
370
    13
100
AcDbLine
 10
32.372437
 20
-6.255531
 30
0.0
 11
32.408917
 21
-6.29201
 31
0.0
  0
LINE
  5
B0
330
559
100
AcDbEntity
  8
DIM
  6
Continuous
 62
     7
370
    13
100
AcDbLine
 10
32.35725
 20
-6.417104
 30
0.0
 11
32.378333
 21
-6.438187
 31
0.0
  0
LINE
  5
B1
330
559
100
AcDbEntity
  8
DIM
  6
Continuous
 62
     7
370
    13
100
AcDbLine
 10
31.586562
 20
-6.41976
 30
0.0
 11
31.604979
 21
-6.438187
 31
0.0
  0
LINE
  5
B2
330
559
100
AcDbEntity
  8
DIM
  6
Continuous
 62
     7
370
    13
100
AcDbLine
 10
31.757094
 20
-6.413531
 30
0.0
 11
31.78174
 21
-6.438187
 31
0.0
  0
LINE
  5
B3
330
559
100
AcDbEntity
  8
DIM
  6
Continuous
 62
     7
370
    13
100
AcDbLine
 10
31.599677
 20
-6.256115
 30
0.0
 11
31.668708
 21
-6.325146
 31
0.0
  0
LINE
  5
B4
330
559
100
AcDbEntity
  8
DIM
  6
Continuous
 62
     7
370
    13
100
AcDbLine
 10
31.933865
 20
-6.413531
 30
0.0
 11
31.95851
 21
-6.438187
 31
0.0
  0
LINE
  5
B5
330
559
100
AcDbEntity
  8
DIM
  6
Continuous
 62
     7
370
    13
100
AcDbLine
 10
31.776448
 20
-6.256115
 30
0.0
 11
31.845479
 21
-6.325146
 31
0.0
  0
LINE
  5
B6
330
559
100
AcDbEntity
  8
DIM
  6
Continuous
 62
     7
370
    13
100
AcDbLine
 10
31.953208
 20
-6.256115
 30
0.0
 11
32.02224
 21
-6.325146
 31
0.0
  0
LINE
  5
B7
330
559
100
AcDbEntity
  8
DIM
  6
Continuous
 62
     7
370
    13
100
AcDbLine
 10
32.659687
 20
-6.255531
 30
0.0
 11
32.665677
 21
-6.261521
 31
0.0
  0
LINE
  5
B8
330
559
100
AcDbEntity
  8
DIM
  6
Continuous
 62
     7
370
    13
100
AcDbLine
 10
32.640927
 20
-6.413531
 30
0.0
 11
32.665573
 21
-6.438187
 31
0.0
  0
LINE
  5
B9
330
559
100
AcDbEntity
  8
DIM
  6
Continuous
 62
     7
370
    13
100
AcDbLine
 10
32.482917
 20
-6.255531
 30
0.0
 11
32.552542
 21
-6.325146
 31
0.0
  0
LINE
  5
BA
330
559
100
AcDbEntity
  8
DIM
  6
Continuous
 62
     7
370
    13
100
AcDbLine
 10
32.464156
 20
-6.413531
 30
0.0
 11
32.488802
 21
-6.438187
 31
0.0
  0
LINE
  5
BB
330
559
100
AcDbEntity
  8
DIM
  6
Continuous
 62
     7
370
    13
100
AcDbLine
 10
32.35725
 20
-6.306625
 30
0.0
 11
32.375771
 21
-6.325146
 31
0.0
  0
LINE
  5
BC
330
559
100
AcDbEntity
  8
DIM
  6
Continuous
 62
     7
370
    13
100
AcDbLine
 10
31.586562
 20
-6.309281
 30
0.0
 11
31.635573
 21
-6.358292
 31
0.0
  0
LINE
  5
BD
330
559
100
AcDbEntity
  8
DIM
  6
Continuous
 62
     7
370
    13
100
AcDbLine
 10
31.723948
 20
-6.269906
 30
0.0
 11
31.812333
 21
-6.358292
 31
0.0
  0
LINE
  5
BE
330
559
100
AcDbEntity
  8
DIM
  6
Continuous
 62
     7
370
    13
100
AcDbLine
 10
31.900719
 20
-6.269906
 30
0.0
 11
31.989104
 21
-6.358292
 31
0.0
  0
LINE
  5
BF
330
559
100
AcDbEntity
  8
DIM
  6
Continuous
 62
     7
370
    13
100
AcDbLine
 10
32.607781
 20
-6.269906
 30
0.0
 11
32.665677
 21
-6.327802
 31
0.0
  0
LINE
  5
C0
330
559
100
AcDbEntity
  8
DIM
  6
Continuous
 62
     7
370
    13
100
AcDbLine
 10
32.43101
 20
-6.269906
 30
0.0
 11
32.519396
 21
-6.358292
 31
0.0
  0
LINE
  5
C1
330
559
100
AcDbEntity
  8
DIM
  6
Continuous
 62
     7
370
    13
100
AcDbLine
 10
32.077479
 20
-6.269906
 30
0.0
 11
32.10226
 21
-6.294688
 31
0.0
  0
LINE
  5
C2
330
559
100
AcDbEntity
  8
DIM
  6
Continuous
 62
     7
370
    13
100
AcDbLine
 10
28.706635
 20
-6.091844
 30
0.0
 11
28.731417
 21
-6.116615
 31
0.0
  0
LINE
  5
C3
330
559
100
AcDbEntity
  8
DIM
  6
Continuous
 62
     7
370
    13
100
AcDbLine
 10
29.060167
 20
-6.091844
 30
0.0
 11
29.148552
 21
-6.180219
 31
0.0
  0
LINE
  5
C4
330
559
100
AcDbEntity
  8
DIM
  6
Continuous
 62
     7
370
    13
100
AcDbLine
 10
29.236937
 20
-6.091844
 30
0.0
 11
29.294833
 21
-6.149729
 31
0.0
  0
LINE
  5
C5
330
559
100
AcDbEntity
  8
DIM
  6
Continuous
 62
     7
370
    13
100
AcDbLine
 10
28.529885
 20
-6.091844
 30
0.0
 11
28.61826
 21
-6.180219
 31
0.0
  0
LINE
  5
C6
330
559
100
AcDbEntity
  8
DIM
  6
Continuous
 62
     7
370
    13
100
AcDbLine
 10
28.353115
 20
-6.091844
 30
0.0
 11
28.44149
 21
-6.180219
 31
0.0
  0
LINE
  5
C7
330
559
100
AcDbEntity
  8
DIM
  6
Continuous
 62
     7
370
    13
100
AcDbLine
 10
28.215708
 20
-6.131208
 30
0.0
 11
28.264729
 21
-6.180219
 31
0.0
  0
LINE
  5
C8
330
559
100
AcDbEntity
  8
DIM
  6
Continuous
 62
     7
370
    13
100
AcDbLine
 10
28.986406
 20
-6.128542
 30
0.0
 11
29.004927
 21
-6.147073
 31
0.0
  0
LINE
  5
C9
330
559
100
AcDbEntity
  8
DIM
  6
Continuous
 62
     7
370
    13
100
AcDbLine
 10
29.093312
 20
-6.235458
 30
0.0
 11
29.117969
 21
-6.260104
 31
0.0
  0
LINE
  5
CA
330
559
100
AcDbEntity
  8
DIM
  6
Continuous
 62
     7
370
    13
100
AcDbLine
 10
29.112083
 20
-6.077458
 30
0.0
 11
29.181698
 21
-6.147073
 31
0.0
  0
LINE
  5
CB
330
559
100
AcDbEntity
  8
DIM
  6
Continuous
 62
     7
370
    13
100
AcDbLine
 10
29.270083
 20
-6.235458
 30
0.0
 11
29.294729
 21
-6.260104
 31
0.0
  0
LINE
  5
CC
330
559
100
AcDbEntity
  8
DIM
  6
Continuous
 62
     7
370
    13
100
AcDbLine
 10
29.288844
 20
-6.077458
 30
0.0
 11
29.294833
 21
-6.083437
 31
0.0
  0
LINE
  5
CD
330
559
100
AcDbEntity
  8
DIM
  6
Continuous
 62
     7
370
    13
100
AcDbLine
 10
28.582365
 20
-6.078042
 30
0.0
 11
28.651406
 21
-6.147073
 31
0.0
  0
LINE
  5
CE
330
559
100
AcDbEntity
  8
DIM
  6
Continuous
 62
     7
370
    13
100
AcDbLine
 10
28.405604
 20
-6.078042
 30
0.0
 11
28.474635
 21
-6.147073
 31
0.0
  0
LINE
  5
CF
330
559
100
AcDbEntity
  8
DIM
  6
Continuous
 62
     7
370
    13
100
AcDbLine
 10
28.56301
 20
-6.235458
 30
0.0
 11
28.587667
 21
-6.260104
 31
0.0
  0
LINE
  5
D0
330
559
100
AcDbEntity
  8
DIM
  6
Continuous
 62
     7
370
    13
100
AcDbLine
 10
28.228833
 20
-6.078042
 30
0.0
 11
28.297875
 21
-6.147073
 31
0.0
  0
LINE
  5
D1
330
559
100
AcDbEntity
  8
DIM
  6
Continuous
 62
     7
370
    13
100
AcDbLine
 10
28.38625
 20
-6.235458
 30
0.0
 11
28.410906
 21
-6.260104
 31
0.0
  0
LINE
  5
D2
330
559
100
AcDbEntity
  8
DIM
  6
Continuous
 62
     7
370
    13
100
AcDbLine
 10
28.215708
 20
-6.241698
 30
0.0
 11
28.234135
 21
-6.260104
 31
0.0
  0
LINE
  5
D3
330
559
100
AcDbEntity
  8
DIM
  6
Continuous
 62
     7
370
    13
100
AcDbLine
 10
28.986406
 20
-6.239031
 30
0.0
 11
29.00749
 21
-6.260104
 31
0.0
  0
LINE
  5
D4
330
559
100
AcDbEntity
  8
DIM
  6
Continuous
 62
     7
370
    13
100
AcDbLine
 10
29.001604
 20
-6.077458
 30
0.0
 11
29.038073
 21
-6.113927
 31
0.0
  0
LINE
  5
D5
330
559
100
AcDbEntity
  8
DIM
  6
Continuous
 62
     7
370
    13
100
AcDbLine
 10
29.126458
 20
-6.202312
 30
0.0
 11
29.18425
 21
-6.260104
 31
0.0
  0
LINE
  5
D6
330
559
100
AcDbEntity
  8
DIM
  6
Continuous
 62
     7
370
    13
100
AcDbLine
 10
29.178365
 20
-6.077458
 30
0.0
 11
29.214833
 21
-6.113927
 31
0.0
  0
LINE
  5
D7
330
559
100
AcDbEntity
  8
DIM
  6
Continuous
 62
     7
370
    13
100
AcDbLine
 10
28.648656
 20
-6.078042
 30
0.0
 11
28.684552
 21
-6.113927
 31
0.0
  0
LINE
  5
D8
330
559
100
AcDbEntity
  8
DIM
  6
Continuous
 62
     7
370
    13
100
AcDbLine
 10
28.471885
 20
-6.078042
 30
0.0
 11
28.507781
 21
-6.113927
 31
0.0
  0
LINE
  5
D9
330
559
100
AcDbEntity
  8
DIM
  6
Continuous
 62
     7
370
    13
100
AcDbLine
 10
28.596156
 20
-6.202312
 30
0.0
 11
28.653958
 21
-6.260104
 31
0.0
  0
LINE
  5
DA
330
559
100
AcDbEntity
  8
DIM
  6
Continuous
 62
     7
370
    13
100
AcDbLine
 10
28.295125
 20
-6.078042
 30
0.0
 11
28.331021
 21
-6.113927
 31
0.0
  0
LINE
  5
DB
330
559
100
AcDbEntity
  8
DIM
  6
Continuous
 62
     7
370
    13
100
AcDbLine
 10
28.419396
 20
-6.202312
 30
0.0
 11
28.477198
 21
-6.260104
 31
0.0
  0
LINE
  5
DC
330
559
100
AcDbEntity
  8
DIM
  6
Continuous
 62
     7
370
    13
100
AcDbLine
 10
28.242625
 20
-6.202312
 30
0.0
 11
28.300427
 21
-6.260104
 31
0.0
  0
LINE
  5
DD
330
559
100
AcDbEntity
  8
DIM
  6
Continuous
 62
     7
370
    13
100
AcDbLine
 10
28.61826
 20
-6.202312
 30
0.0
 11
28.706635
 21
-6.113927
 31
0.0
  0
LINE
  5
DE
330
559
100
AcDbEntity
  8
DIM
  6
Continuous
 62
     7
370
    13
100
AcDbLine
 10
28.44149
 20
-6.202312
 30
0.0
 11
28.529885
 21
-6.113927
 31
0.0
  0
LINE
  5
DF
330
559
100
AcDbEntity
  8
DIM
  6
Continuous
 62
     7
370
    13
100
AcDbLine
 10
28.264729
 20
-6.202312
 30
0.0
 11
28.353115
 21
-6.113927
 31
0.0
  0
LINE
  5
E0
330
559
100
AcDbEntity
  8
DIM
  6
Continuous
 62
     7
370
    13
100
AcDbLine
 10
28.986406
 20
-6.187698
 30
0.0
 11
29.060167
 21
-6.113927
 31
0.0
  0
LINE
  5
E1
330
559
100
AcDbEntity
  8
DIM
  6
Continuous
 62
     7
370
    13
100
AcDbLine
 10
29.148552
 20
-6.202312
 30
0.0
 11
29.236937
 21
-6.113927
 31
0.0
  0
LINE
  5
E2
330
559
100
AcDbEntity
  8
DIM
  6
Continuous
 62
     7
370
    13
100
AcDbLine
 10
28.651406
 20
-6.235458
 30
0.0
 11
28.731417
 21
-6.155437
 31
0.0
  0
LINE
  5
E3
330
559
100
AcDbEntity
  8
DIM
  6
Continuous
 62
     7
370
    13
100
AcDbLine
 10
28.474635
 20
-6.235458
 30
0.0
 11
28.56301
 21
-6.147073
 31
0.0
  0
LINE
  5
E4
330
559
100
AcDbEntity
  8
DIM
  6
Continuous
 62
     7
370
    13
100
AcDbLine
 10
28.297875
 20
-6.235458
 30
0.0
 11
28.38625
 21
-6.147073
 31
0.0
  0
LINE
  5
E5
330
559
100
AcDbEntity
  8
DIM
  6
Continuous
 62
     7
370
    13
100
AcDbLine
 10
29.004927
 20
-6.235458
 30
0.0
 11
29.093312
 21
-6.147073
 31
0.0
  0
LINE
  5
E6
330
559
100
AcDbEntity
  8
DIM
  6
Continuous
 62
     7
370
    13
100
AcDbLine
 10
29.181698
 20
-6.235458
 30
0.0
 11
29.270083
 21
-6.147073
 31
0.0
  0
LINE
  5
E7
330
559
100
AcDbEntity
  8
DIM
  6
Continuous
 62
     7
370
    13
100
AcDbLine
 10
28.516271
 20
-6.260104
 30
0.0
 11
28.596156
 21
-6.180219
 31
0.0
  0
LINE
  5
E8
330
559
100
AcDbEntity
  8
DIM
  6
Continuous
 62
     7
370
    13
100
AcDbLine
 10
28.684552
 20
-6.091844
 30
0.0
 11
28.698333
 21
-6.078042
 31
0.0
  0
LINE
  5
E9
330
559
100
AcDbEntity
  8
DIM
  6
Continuous
 62
     7
370
    13
100
AcDbLine
 10
28.33951
 20
-6.260104
 30
0.0
 11
28.419396
 21
-6.180219
 31
0.0
  0
LINE
  5
EA
330
559
100
AcDbEntity
  8
DIM
  6
Continuous
 62
     7
370
    13
100
AcDbLine
 10
28.507781
 20
-6.091844
 30
0.0
 11
28.521583
 21
-6.078042
 31
0.0
  0
LINE
  5
EB
330
559
100
AcDbEntity
  8
DIM
  6
Continuous
 62
     7
370
    13
100
AcDbLine
 10
28.215708
 20
-6.207135
 30
0.0
 11
28.242625
 21
-6.180219
 31
0.0
  0
LINE
  5
EC
330
559
100
AcDbEntity
  8
DIM
  6
Continuous
 62
     7
370
    13
100
AcDbLine
 10
28.331021
 20
-6.091844
 30
0.0
 11
28.344802
 21
-6.078042
 31
0.0
  0
LINE
  5
ED
330
559
100
AcDbEntity
  8
DIM
  6
Continuous
 62
     7
370
    13
100
AcDbLine
 10
28.693042
 20
-6.260104
 30
0.0
 11
28.731417
 21
-6.221729
 31
0.0
  0
LINE
  5
EE
330
559
100
AcDbEntity
  8
DIM
  6
Continuous
 62
     7
370
    13
100
AcDbLine
 10
29.038073
 20
-6.091844
 30
0.0
 11
29.052448
 21
-6.077458
 31
0.0
  0
LINE
  5
EF
330
559
100
AcDbEntity
  8
DIM
  6
Continuous
 62
     7
370
    13
100
AcDbLine
 10
29.046573
 20
-6.260104
 30
0.0
 11
29.126458
 21
-6.180219
 31
0.0
  0
LINE
  5
F0
330
559
100
AcDbEntity
  8
DIM
  6
Continuous
 62
     7
370
    13
100
AcDbLine
 10
29.214833
 20
-6.091844
 30
0.0
 11
29.229219
 21
-6.077458
 31
0.0
  0
LINE
  5
F1
330
559
100
AcDbEntity
  8
DIM
  6
Continuous
 62
     7
370
    13
100
AcDbLine
 10
29.223333
 20
-6.260104
 30
0.0
 11
29.294833
 21
-6.188615
 31
0.0
  0
LINE
  5
F2
330
559
100
AcDbEntity
  8
DIM
  6
Continuous
 62
     7
370
    13
100
AcDbLine
 10
25.747604
 20
-5.952344
 30
0.0
 11
25.772375
 21
-5.977125
 31
0.0
  0
LINE
  5
F3
330
559
100
AcDbEntity
  8
DIM
  6
Continuous
 62
     7
370
    13
100
AcDbLine
 10
26.101125
 20
-5.952344
 30
0.0
 11
26.18951
 21
-6.040719
 31
0.0
  0
LINE
  5
F4
330
559
100
AcDbEntity
  8
DIM
  6
Continuous
 62
     7
370
    13
100
AcDbLine
 10
26.277906
 20
-5.952344
 30
0.0
 11
26.335792
 21
-6.010229
 31
0.0
  0
LINE
  5
F5
330
559
100
AcDbEntity
  8
DIM
  6
Continuous
 62
     7
370
    13
100
AcDbLine
 10
25.570844
 20
-5.952344
 30
0.0
 11
25.659219
 21
-6.040719
 31
0.0
  0
LINE
  5
F6
330
559
100
AcDbEntity
  8
DIM
  6
Continuous
 62
     7
370
    13
100
AcDbLine
 10
25.394073
 20
-5.952344
 30
0.0
 11
25.482448
 21
-6.040719
 31
0.0
  0
LINE
  5
F7
330
559
100
AcDbEntity
  8
DIM
  6
Continuous
 62
     7
370
    13
100
AcDbLine
 10
25.256677
 20
-5.991719
 30
0.0
 11
25.305698
 21
-6.040719
 31
0.0
  0
LINE
  5
F8
330
559
100
AcDbEntity
  8
DIM
  6
Continuous
 62
     7
370
    13
100
AcDbLine
 10
26.027365
 20
-5.989052
 30
0.0
 11
26.045896
 21
-6.007583
 31
0.0
  0
LINE
  5
F9
330
559
100
AcDbEntity
  8
DIM
  6
Continuous
 62
     7
370
    13
100
AcDbLine
 10
26.134281
 20
-6.095958
 30
0.0
 11
26.158927
 21
-6.120615
 31
0.0
  0
LINE
  5
FA
330
559
100
AcDbEntity
  8
DIM
  6
Continuous
 62
     7
370
    13
100
AcDbLine
 10
26.153042
 20
-5.937958
 30
0.0
 11
26.222656
 21
-6.007583
 31
0.0
  0
LINE
  5
FB
330
559
100
AcDbEntity
  8
DIM
  6
Continuous
 62
     7
370
    13
100
AcDbLine
 10
26.311042
 20
-6.095958
 30
0.0
 11
26.335687
 21
-6.120615
 31
0.0
  0
LINE
  5
FC
330
559
100
AcDbEntity
  8
DIM
  6
Continuous
 62
     7
370
    13
100
AcDbLine
 10
26.329802
 20
-5.937958
 30
0.0
 11
26.335792
 21
-5.943948
 31
0.0
  0
LINE
  5
FD
330
559
100
AcDbEntity
  8
DIM
  6
Continuous
 62
     7
370
    13
100
AcDbLine
 10
25.623333
 20
-5.938542
 30
0.0
 11
25.692365
 21
-6.007583
 31
0.0
  0
LINE
  5
FE
330
559
100
AcDbEntity
  8
DIM
  6
Continuous
 62
     7
370
    13
100
AcDbLine
 10
25.446562
 20
-5.938542
 30
0.0
 11
25.515594
 21
-6.007583
 31
0.0
  0
LINE
  5
FF
330
559
100
AcDbEntity
  8
DIM
  6
Continuous
 62
     7
370
    13
100
AcDbLine
 10
25.603979
 20
-6.095958
 30
0.0
 11
25.628625
 21
-6.120615
 31
0.0
  0
LINE
  5
100
330
559
100
AcDbEntity
  8
DIM
  6
Continuous
 62
     7
370
    13
100
AcDbLine
 10
25.269802
 20
-5.938542
 30
0.0
 11
25.338833
 21
-6.007583
 31
0.0
  0
LINE
  5
101
330
559
100
AcDbEntity
  8
DIM
  6
Continuous
 62
     7
370
    13
100
AcDbLine
 10
25.427219
 20
-6.095958
 30
0.0
 11
25.451875
 21
-6.120615
 31
0.0
  0
LINE
  5
102
330
559
100
AcDbEntity
  8
DIM
  6
Continuous
 62
     7
370
    13
100
AcDbLine
 10
25.256677
 20
-6.102198
 30
0.0
 11
25.275104
 21
-6.120615
 31
0.0
  0
LINE
  5
103
330
559
100
AcDbEntity
  8
DIM
  6
Continuous
 62
     7
370
    13
100
AcDbLine
 10
26.027365
 20
-6.099531
 30
0.0
 11
26.048448
 21
-6.120615
 31
0.0
  0
LINE
  5
104
330
559
100
AcDbEntity
  8
DIM
  6
Continuous
 62
     7
370
    13
100
AcDbLine
 10
26.042562
 20
-5.937958
 30
0.0
 11
26.079042
 21
-5.974437
 31
0.0
  0
LINE
  5
105
330
559
100
AcDbEntity
  8
DIM
  6
Continuous
 62
     7
370
    13
100
AcDbLine
 10
26.167417
 20
-6.062812
 30
0.0
 11
26.225219
 21
-6.120615
 31
0.0
  0
LINE
  5
106
330
559
100
AcDbEntity
  8
DIM
  6
Continuous
 62
     7
370
    13
100
AcDbLine
 10
26.219333
 20
-5.937958
 30
0.0
 11
26.255792
 21
-5.974437
 31
0.0
  0
LINE
  5
107
330
559
100
AcDbEntity
  8
DIM
  6
Continuous
 62
     7
370
    13
100
AcDbLine
 10
25.689615
 20
-5.938542
 30
0.0
 11
25.72551
 21
-5.974437
 31
0.0
  0
LINE
  5
108
330
559
100
AcDbEntity
  8
DIM
  6
Continuous
 62
     7
370
    13
100
AcDbLine
 10
25.512844
 20
-5.938542
 30
0.0
 11
25.54874
 21
-5.974437
 31
0.0
  0
LINE
  5
109
330
559
100
AcDbEntity
  8
DIM
  6
Continuous
 62
     7
370
    13
100
AcDbLine
 10
25.637115
 20
-6.062812
 30
0.0
 11
25.694917
 21
-6.120615
 31
0.0
  0
LINE
  5
10A
330
559
100
AcDbEntity
  8
DIM
  6
Continuous
 62
     7
370
    13
100
AcDbLine
 10
25.336083
 20
-5.938542
 30
0.0
 11
25.371979
 21
-5.974437
 31
0.0
  0
LINE
  5
10B
330
559
100
AcDbEntity
  8
DIM
  6
Continuous
 62
     7
370
    13
100
AcDbLine
 10
25.460365
 20
-6.062812
 30
0.0
 11
25.518156
 21
-6.120615
 31
0.0
  0
LINE
  5
10C
330
559
100
AcDbEntity
  8
DIM
  6
Continuous
 62
     7
370
    13
100
AcDbLine
 10
25.283583
 20
-6.062812
 30
0.0
 11
25.341385
 21
-6.120615
 31
0.0
  0
LINE
  5
10D
330
559
100
AcDbEntity
  8
DIM
  6
Continuous
 62
     7
370
    13
100
AcDbLine
 10
25.659219
 20
-6.062812
 30
0.0
 11
25.747604
 21
-5.974437
 31
0.0
  0
LINE
  5
10E
330
559
100
AcDbEntity
  8
DIM
  6
Continuous
 62
     7
370
    13
100
AcDbLine
 10
25.482448
 20
-6.062812
 30
0.0
 11
25.570844
 21
-5.974437
 31
0.0
  0
LINE
  5
10F
330
559
100
AcDbEntity
  8
DIM
  6
Continuous
 62
     7
370
    13
100
AcDbLine
 10
25.305698
 20
-6.062812
 30
0.0
 11
25.394073
 21
-5.974437
 31
0.0
  0
LINE
  5
110
330
559
100
AcDbEntity
  8
DIM
  6
Continuous
 62
     7
370
    13
100
AcDbLine
 10
26.027365
 20
-6.048198
 30
0.0
 11
26.101125
 21
-5.974437
 31
0.0
  0
LINE
  5
111
330
559
100
AcDbEntity
  8
DIM
  6
Continuous
 62
     7
370
    13
100
AcDbLine
 10
26.18951
 20
-6.062812
 30
0.0
 11
26.277906
 21
-5.974437
 31
0.0
  0
LINE
  5
112
330
559
100
AcDbEntity
  8
DIM
  6
Continuous
 62
     7
370
    13
100
AcDbLine
 10
25.692365
 20
-6.095958
 30
0.0
 11
25.772375
 21
-6.015937
 31
0.0
  0
LINE
  5
113
330
559
100
AcDbEntity
  8
DIM
  6
Continuous
 62
     7
370
    13
100
AcDbLine
 10
25.515594
 20
-6.095958
 30
0.0
 11
25.603979
 21
-6.007583
 31
0.0
  0
LINE
  5
114
330
559
100
AcDbEntity
  8
DIM
  6
Continuous
 62
     7
370
    13
100
AcDbLine
 10
25.338833
 20
-6.095958
 30
0.0
 11
25.427219
 21
-6.007583
 31
0.0
  0
LINE
  5
115
330
559
100
AcDbEntity
  8
DIM
  6
Continuous
 62
     7
370
    13
100
AcDbLine
 10
26.045896
 20
-6.095958
 30
0.0
 11
26.134281
 21
-6.007583
 31
0.0
  0
LINE
  5
116
330
559
100
AcDbEntity
  8
DIM
  6
Continuous
 62
     7
370
    13
100
AcDbLine
 10
26.222656
 20
-6.095958
 30
0.0
 11
26.311042
 21
-6.007583
 31
0.0
  0
LINE
  5
117
330
559
100
AcDbEntity
  8
DIM
  6
Continuous
 62
     7
370
    13
100
AcDbLine
 10
25.557229
 20
-6.120615
 30
0.0
 11
25.637115
 21
-6.040719
 31
0.0
  0
LINE
  5
118
330
559
100
AcDbEntity
  8
DIM
  6
Continuous
 62
     7
370
    13
100
AcDbLine
 10
25.72551
 20
-5.952344
 30
0.0
 11
25.739302
 21
-5.938542
 31
0.0
  0
LINE
  5
119
330
559
100
AcDbEntity
  8
DIM
  6
Continuous
 62
     7
370
    13
100
AcDbLine
 10
25.380469
 20
-6.120615
 30
0.0
 11
25.460365
 21
-6.040719
 31
0.0
  0
LINE
  5
11A
330
559
100
AcDbEntity
  8
DIM
  6
Continuous
 62
     7
370
    13
100
AcDbLine
 10
25.54874
 20
-5.952344
 30
0.0
 11
25.562542
 21
-5.938542
 31
0.0
  0
LINE
  5
11B
330
559
100
AcDbEntity
  8
DIM
  6
Continuous
 62
     7
370
    13
100
AcDbLine
 10
25.256677
 20
-6.067635
 30
0.0
 11
25.283583
 21
-6.040719
 31
0.0
  0
LINE
  5
11C
330
559
100
AcDbEntity
  8
DIM
  6
Continuous
 62
     7
370
    13
100
AcDbLine
 10
25.371979
 20
-5.952344
 30
0.0
 11
25.385771
 21
-5.938542
 31
0.0
  0
LINE
  5
11D
330
559
100
AcDbEntity
  8
DIM
  6
Continuous
 62
     7
370
    13
100
AcDbLine
 10
25.734
 20
-6.120615
 30
0.0
 11
25.772375
 21
-6.082229
 31
0.0
  0
LINE
  5
11E
330
559
100
AcDbEntity
  8
DIM
  6
Continuous
 62
     7
370
    13
100
AcDbLine
 10
26.079042
 20
-5.952344
 30
0.0
 11
26.093417
 21
-5.937958
 31
0.0
  0
LINE
  5
11F
330
559
100
AcDbEntity
  8
DIM
  6
Continuous
 62
     7
370
    13
100
AcDbLine
 10
26.087531
 20
-6.120615
 30
0.0
 11
26.167417
 21
-6.040719
 31
0.0
  0
LINE
  5
120
330
559
100
AcDbEntity
  8
DIM
  6
Continuous
 62
     7
370
    13
100
AcDbLine
 10
26.255792
 20
-5.952344
 30
0.0
 11
26.270187
 21
-5.937958
 31
0.0
  0
LINE
  5
121
330
559
100
AcDbEntity
  8
DIM
  6
Continuous
 62
     7
370
    13
100
AcDbLine
 10
26.264302
 20
-6.120615
 30
0.0
 11
26.335792
 21
-6.049115
 31
0.0
  0
LINE
  5
122
330
559
100
AcDbEntity
  8
DEFPOINTS
  6
Continuous
 62
     7
370
    13
100
AcDbLine
 10
26.448104
 20
-6.230688
 30
0.0
 11
26.448104
 21
-5.990677
 31
0.0
  0
LINE
  5
123
330
559
100
AcDbEntity
  8
DEFPOINTS
  6
Continuous
 62
     7
370
    13
100
AcDbLine
 10
26.448104
 20
-6.230688
 30
0.0
 11
26.448104
 21
-6.687917
 31
0.0
  0
LINE
  5
124
330
559
100
AcDbEntity
  8
DEFPOINTS
  6
Continuous
 62
     7
370
    13
100
AcDbLine
 10
26.057365
 20
-4.938021
 30
0.0
 11
26.498104
 21
-4.938021
 31
0.0
  0
LINE
  5
125
330
559
100
AcDbEntity
  8
DEFPOINTS
  6
Continuous
 62
     7
370
    13
100
AcDbLine
 10
26.0715
 20
-6.737906
 30
0.0
 11
26.498104
 21
-6.737906
 31
0.0
  0
LINE
  5
126
330
559
100
AcDbEntity
  8
DEFPOINTS
  6
Continuous
 62
     7
370
    13
100
AcDbLine
 10
26.448104
 20
-4.988021
 30
0.0
 11
26.448104
 21
-5.990677
 31
0.0
  0
SOLID
  5
127
330
559
100
AcDbEntity
  8
DEFPOINTS
  6
Continuous
 62
     7
370
    13
100
AcDbTrace
 10
26.456437
 20
-4.988021
 30
0.0
 11
26.439771
 21
-4.988021
 31
0.0
 12
26.448104
 22
-4.938021
 32
0.0
 13
26.448104
 23
-4.938021
 33
0.0
  0
SOLID
  5
128
330
559
100
AcDbEntity
  8
DEFPOINTS
  6
Continuous
 62
     7
370
    13
100
AcDbTrace
 10
26.456437
 20
-6.687917
 30
0.0
 11
26.439771
 21
-6.687917
 31
0.0
 12
26.448104
 22
-6.737906
 32
0.0
 13
26.448104
 23
-6.737906
 33
0.0
  0
LINE
  5
12A
330
559
100
AcDbEntity
  8
DEFPOINTS
  6
Continuous
 62
     7
370
    13
100
AcDbLine
 10
24.602062
 20
-5.056667
 30
0.0
 11
24.535479
 21
-5.056667
 31
0.0
  0
SOLID
  5
12C
330
559
100
AcDbEntity
  8
DEFPOINTS
  6
Continuous
 62
     7
370
    13
100
AcDbTrace
 10
24.716542
 20
-5.116823
 30
0.0
 11
24.699875
 21
-5.116823
 31
0.0
 12
24.708208
 22
-5.166823
 32
0.0
 13
24.708208
 23
-5.166823
 33
0.0
  0
SOLID
  5
12D
330
559
100
AcDbEntity
  8
DEFPOINTS
  6
Continuous
 62
     7
370
    13
100
AcDbTrace
 10
24.715958
 20
-4.988604
 30
0.0
 11
24.699292
 21
-4.988604
 31
0.0
 12
24.707625
 22
-4.938615
 32
0.0
 13
24.707625
 23
-4.938615
 33
0.0
  0
LINE
  5
12E
330
559
100
AcDbEntity
  8
DEFPOINTS
  6
Continuous
 62
     7
370
    13
100
AcDbLine
 10
24.708208
 20
-4.985521
 30
0.0
 11
24.708208
 21
-4.981729
 31
0.0
  0
LINE
  5
12F
330
559
100
AcDbEntity
  8
DEFPOINTS
  6
Continuous
 62
     7
370
    13
100
AcDbLine
 10
24.611417
 20
-5.166823
 30
0.0
 11
24.734437
 21
-5.166823
 31
0.0
  0
LINE
  5
130
330
559
100
AcDbEntity
  8
DEFPOINTS
  6
Continuous
 62
     7
370
    13
100
AcDbLine
 10
24.610833
 20
-4.938615
 30
0.0
 11
24.733854
 21
-4.938615
 31
0.0
  0
LINE
  5
131
330
559
100
AcDbEntity
  8
DEFPOINTS
  6
Continuous
 62
     7
370
    13
100
AcDbLine
 10
24.517385
 20
-4.983646
 30
0.0
 11
24.517385
 21
-5.106667
 31
0.0
  0
SOLID
  5
132
330
559
100
AcDbEntity
  8
DEFPOINTS
  6
Continuous
 62
     7
370
    13
100
AcDbTrace
 10
24.567375
 20
-5.065
 30
0.0
 11
24.567375
 21
-5.048333
 31
0.0
 12
24.517385
 22
-5.056667
 32
0.0
 13
24.517385
 23
-5.056667
 33
0.0
  0
SOLID
  5
134
330
559
100
AcDbEntity
  8
DEFPOINTS
  6
Continuous
 62
     7
370
    13
100
AcDbTrace
 10
24.401854
 20
-5.064417
 30
0.0
 11
24.401854
 21
-5.04776
 31
0.0
 12
24.451854
 22
-5.056094
 32
0.0
 13
24.451854
 23
-5.056094
 33
0.0
  0
LINE
  5
135
330
559
100
AcDbEntity
  8
DEFPOINTS
  6
Continuous
 62
     7
370
    13
100
AcDbLine
 10
24.404948
 20
-5.056667
 30
0.0
 11
24.338354
 21
-5.056667
 31
0.0
  0
LINE
  5
136
330
559
100
AcDbEntity
  8
DIM
  6
Continuous
 62
     7
370
    13
100
AcDbLine
 10
24.956656
 20
-9.226951
 30
0.0
 11
25.031656
 21
-9.151961
 31
0.0
  0
LINE
  5
137
330
559
100
AcDbEntity
  8
DIM
  6
Continuous
 62
     7
370
    13
100
AcDbLine
 10
24.966646
 20
-9.28769
 30
0.0
 11
25.031656
 21
-9.222659
 31
0.0
  0
LINE
  5
138
330
559
100
AcDbEntity
  8
DIM
  6
Continuous
 62
     7
370
    13
100
AcDbLine
 10
25.0
 20
-9.325024
 30
0.0
 11
25.059729
 21
-9.265305
 31
0.0
  0
LINE
  5
139
330
559
100
AcDbEntity
  8
DIM
  6
Continuous
 62
     7
370
    13
100
AcDbLine
 10
25.055438
 20
-9.340295
 30
0.0
 11
25.130437
 21
-9.265305
 31
0.0
  0
LINE
  5
13A
330
559
100
AcDbEntity
  8
DIM
  6
Continuous
 62
     7
370
    13
100
AcDbLine
 10
25.126146
 20
-9.340295
 30
0.0
 11
25.201135
 21
-9.265305
 31
0.0
  0
LINE
  5
13B
330
559
100
AcDbEntity
  8
DIM
  6
Continuous
 62
     7
370
    13
100
AcDbLine
 10
25.196844
 20
-9.340295
 30
0.0
 11
25.271844
 21
-9.265305
 31
0.0
  0
LINE
  5
13C
330
559
100
AcDbEntity
  8
DIM
  6
Continuous
 62
     7
370
    13
100
AcDbLine
 10
25.267552
 20
-9.340295
 30
0.0
 11
25.342552
 21
-9.265305
 31
0.0
  0
LINE
  5
13D
330
559
100
AcDbEntity
  8
DIM
  6
Continuous
 62
     7
370
    13
100
AcDbLine
 10
25.33826
 20
-9.340295
 30
0.0
 11
25.41326
 21
-9.265305
 31
0.0
  0
LINE
  5
13E
330
559
100
AcDbEntity
  8
DIM
  6
Continuous
 62
     7
370
    13
100
AcDbLine
 10
25.408969
 20
-9.340295
 30
0.0
 11
25.483958
 21
-9.265305
 31
0.0
  0
LINE
  5
13F
330
559
100
AcDbEntity
  8
DIM
  6
Continuous
 62
     7
370
    13
100
AcDbLine
 10
25.479667
 20
-9.340295
 30
0.0
 11
25.554667
 21
-9.265305
 31
0.0
  0
LINE
  5
140
330
559
100
AcDbEntity
  8
DIM
  6
Continuous
 62
     7
370
    13
100
AcDbLine
 10
25.550385
 20
-9.340295
 30
0.0
 11
25.625375
 21
-9.265305
 31
0.0
  0
LINE
  5
141
330
559
100
AcDbEntity
  8
DIM
  6
Continuous
 62
     7
370
    13
100
AcDbLine
 10
25.681615
 20
-9.209065
 30
0.0
 11
25.700375
 21
-9.190305
 31
0.0
  0
LINE
  5
142
330
559
100
AcDbEntity
  8
DIM
  6
Continuous
 62
     7
370
    13
100
AcDbLine
 10
25.621083
 20
-9.340295
 30
0.0
 11
25.756615
 21
-9.204774
 31
0.0
  0
LINE
  5
143
330
559
100
AcDbEntity
  8
DIM
  6
Continuous
 62
     7
370
    13
100
AcDbLine
 10
25.699802
 20
-9.332295
 30
0.0
 11
25.748604
 21
-9.283482
 31
0.0
  0
LINE
  5
144
330
559
100
AcDbEntity
  8
DIM
  6
Continuous
 62
     7
370
    13
100
AcDbLine
 10
24.956656
 20
-9.156253
 30
0.0
 11
25.031656
 21
-9.081253
 31
0.0
  0
LINE
  5
145
330
559
100
AcDbEntity
  8
DIM
  6
Continuous
 62
     7
370
    13
100
AcDbLine
 10
24.956656
 20
-9.085545
 30
0.0
 11
25.031656
 21
-9.010545
 31
0.0
  0
LINE
  5
146
330
559
100
AcDbEntity
  8
DIM
  6
Continuous
 62
     7
370
    13
100
AcDbLine
 10
25.701844
 20
-8.340357
 30
0.0
 11
25.756615
 21
-8.285597
 31
0.0
  0
LINE
  5
147
330
559
100
AcDbEntity
  8
DIM
  6
Continuous
 62
     7
370
    13
100
AcDbLine
 10
24.956656
 20
-9.014836
 30
0.0
 11
25.031656
 21
-8.939847
 31
0.0
  0
LINE
  5
148
330
559
100
AcDbEntity
  8
DIM
  6
Continuous
 62
     7
370
    13
100
AcDbLine
 10
25.681615
 20
-8.289888
 30
0.0
 11
25.739917
 21
-8.231576
 31
0.0
  0
LINE
  5
149
330
559
100
AcDbEntity
  8
DIM
  6
Continuous
 62
     7
370
    13
100
AcDbLine
 10
24.956656
 20
-8.944128
 30
0.0
 11
25.031656
 21
-8.869128
 31
0.0
  0
LINE
  5
14A
330
559
100
AcDbEntity
  8
DIM
  6
Continuous
 62
     7
370
    13
100
AcDbLine
 10
25.635417
 20
-8.265367
 30
0.0
 11
25.701594
 21
-8.19919
 31
0.0
  0
LINE
  5
14B
330
559
100
AcDbEntity
  8
DIM
  6
Continuous
 62
     7
370
    13
100
AcDbLine
 10
24.956656
 20
-8.87342
 30
0.0
 11
25.031656
 21
-8.79843
 31
0.0
  0
LINE
  5
14C
330
559
100
AcDbEntity
  8
DIM
  6
Continuous
 62
     7
370
    13
100
AcDbLine
 10
25.564719
 20
-8.265367
 30
0.0
 11
25.639708
 21
-8.190367
 31
0.0
  0
LINE
  5
14D
330
559
100
AcDbEntity
  8
DIM
  6
Continuous
 62
     7
370
    13
100
AcDbLine
 10
24.956656
 20
-8.802722
 30
0.0
 11
25.031656
 21
-8.727722
 31
0.0
  0
LINE
  5
14E
330
559
100
AcDbEntity
  8
DIM
  6
Continuous
 62
     7
370
    13
100
AcDbLine
 10
25.49401
 20
-8.265367
 30
0.0
 11
25.56901
 21
-8.190367
 31
0.0
  0
LINE
  5
14F
330
559
100
AcDbEntity
  8
DIM
  6
Continuous
 62
     7
370
    13
100
AcDbLine
 10
24.956656
 20
-8.732013
 30
0.0
 11
25.031656
 21
-8.657013
 31
0.0
  0
LINE
  5
150
330
559
100
AcDbEntity
  8
DIM
  6
Continuous
 62
     7
370
    13
100
AcDbLine
 10
25.423312
 20
-8.265367
 30
0.0
 11
25.498302
 21
-8.190367
 31
0.0
  0
LINE
  5
151
330
559
100
AcDbEntity
  8
DIM
  6
Continuous
 62
     7
370
    13
100
AcDbLine
 10
24.956656
 20
-8.661295
 30
0.0
 11
25.031656
 21
-8.586305
 31
0.0
  0
LINE
  5
152
330
559
100
AcDbEntity
  8
DIM
  6
Continuous
 62
     7
370
    13
100
AcDbLine
 10
25.352594
 20
-8.265367
 30
0.0
 11
25.427594
 21
-8.190367
 31
0.0
  0
LINE
  5
153
330
559
100
AcDbEntity
  8
DIM
  6
Continuous
 62
     7
370
    13
100
AcDbLine
 10
24.956656
 20
-8.590597
 30
0.0
 11
25.031656
 21
-8.515597
 31
0.0
  0
LINE
  5
154
330
559
100
AcDbEntity
  8
DIM
  6
Continuous
 62
     7
370
    13
100
AcDbLine
 10
25.281885
 20
-8.265367
 30
0.0
 11
25.356885
 21
-8.190367
 31
0.0
  0
LINE
  5
155
330
559
100
AcDbEntity
  8
DIM
  6
Continuous
 62
     7
370
    13
100
AcDbLine
 10
24.956656
 20
-8.519888
 30
0.0
 11
25.031656
 21
-8.444899
 31
0.0
  0
LINE
  5
156
330
559
100
AcDbEntity
  8
DIM
  6
Continuous
 62
     7
370
    13
100
AcDbLine
 10
25.211187
 20
-8.265367
 30
0.0
 11
25.286177
 21
-8.190367
 31
0.0
  0
LINE
  5
157
330
559
100
AcDbEntity
  8
DIM
  6
Continuous
 62
     7
370
    13
100
AcDbLine
 10
24.956656
 20
-8.44919
 30
0.0
 11
25.031656
 21
-8.37419
 31
0.0
  0
LINE
  5
158
330
559
100
AcDbEntity
  8
DIM
  6
Continuous
 62
     7
370
    13
100
AcDbLine
 10
25.140479
 20
-8.265367
 30
0.0
 11
25.215479
 21
-8.190367
 31
0.0
  0
LINE
  5
159
330
559
100
AcDbEntity
  8
DIM
  6
Continuous
 62
     7
370
    13
100
AcDbLine
 10
24.956656
 20
-8.378482
 30
0.0
 11
25.031656
 21
-8.303482
 31
0.0
  0
LINE
  5
15A
330
559
100
AcDbEntity
  8
DIM
  6
Continuous
 62
     7
370
    13
100
AcDbLine
 10
25.069781
 20
-8.265367
 30
0.0
 11
25.144781
 21
-8.190367
 31
0.0
  0
LINE
  5
15B
330
559
100
AcDbEntity
  8
DIM
  6
Continuous
 62
     7
370
    13
100
AcDbLine
 10
24.956656
 20
-8.307763
 30
0.0
 11
25.074063
 21
-8.190367
 31
0.0
  0
LINE
  5
15E
330
559
100
AcDbEntity
  8
REF
  6
Continuous
 62
     7
370
    13
100
AcDbLine
 10
31.501979
 20
-5.126656
 30
0.0
 11
31.453312
 21
-5.126656
 31
0.0
  0
LINE
  5
15F
330
559
100
AcDbEntity
  8
REF
  6
Continuous
 62
     7
370
    13
100
AcDbLine
 10
31.754479
 20
-5.403292
 30
0.0
 11
31.501979
 21
-5.126656
 31
0.0
  0
SOLID
  5
160
330
559
100
AcDbEntity
  8
REF
  6
Continuous
 62
     7
370
    13
100
AcDbTrace
 10
31.760635
 20
-5.397667
 30
0.0
 11
31.748323
 21
-5.408906
 31
0.0
 12
31.788187
 22
-5.440219
 32
0.0
 13
31.788187
 23
-5.440219
 33
0.0
  0
LINE
  5
161
330
559
100
AcDbEntity
  8
REF
  6
Continuous
 62
     7
370
    13
100
AcDbLine
 10
28.135219
 20
-4.966792
 30
0.0
 11
28.086552
 21
-4.966792
 31
0.0
  0
LINE
  5
162
330
559
100
AcDbEntity
  8
REF
  6
Continuous
 62
     7
370
    13
100
AcDbLine
 10
28.387719
 20
-5.243417
 30
0.0
 11
28.135219
 21
-4.966792
 31
0.0
  0
SOLID
  5
163
330
559
100
AcDbEntity
  8
REF
  6
Continuous
 62
     7
370
    13
100
AcDbTrace
 10
28.393875
 20
-5.237802
 30
0.0
 11
28.381562
 21
-5.249031
 31
0.0
 12
28.421427
 22
-5.280344
 32
0.0
 13
28.421427
 23
-5.280344
 33
0.0
  0
LINE
  5
164
330
559
100
AcDbEntity
  8
REF
  6
Continuous
 62
     7
370
    13
100
AcDbLine
 10
25.387395
 20
-4.769943
 30
0.0
 11
25.355768
 21
-4.769943
 31
0.0
  0
LINE
  5
165
330
559
100
AcDbEntity
  8
REF
  6
Continuous
 62
     7
370
    13
100
AcDbLine
 10
25.710115
 20
-5.12351
 30
0.0
 11
25.387395
 21
-4.769943
 31
0.0
  0
SOLID
  5
166
330
559
100
AcDbEntity
  8
REF
  6
Continuous
 62
     7
370
    13
100
AcDbTrace
 10
25.71626
 20
-5.117885
 30
0.0
 11
25.703958
 21
-5.129125
 31
0.0
 12
25.743813
 22
-5.160437
 32
0.0
 13
25.743813
 23
-5.160437
 33
0.0
  0
SPLINE
  5
169
330
559
100
AcDbEntity
  8
_0
  6
Continuous
 62
     7
370
     0
100
AcDbSpline
210
0.0
220
0.0
230
1.0
 70
     8
 71
     3
 72
    10
 73
     6
 74
     0
 42
0.0000000001
 43
0.00000001
 40
0.0
 40
0.0
 40
0.0
 40
0.0
 40
0.3333333333333333
 40
0.6666666666666666
 40
1.0
 40
1.0
 40
1.0
 40
1.0
 10
31.35596875
 20
-6.359739583333333
 30
0.0
 10
31.34588541666666
 20
-6.394020833333333
 30
0.0
 10
31.36096875
 20
-6.43171875
 30
0.0
 10
31.33834375
 20
-6.49959375
 30
0.0
 10
31.37228125
 20
-6.54484375
 30
0.0
 10
31.35739583333333
 20
-6.559729166666666
 30
0.0
  0
SPLINE
  5
16B
330
559
100
AcDbEntity
  8
_0
  6
Continuous
 62
     7
370
     0
100
AcDbSpline
210
0.0
220
0.0
230
1.0
 70
     8
 71
     3
 72
     9
 73
     5
 74
     0
 42
0.0000000001
 43
0.00000001
 40
0.0
 40
0.0
 40
0.0
 40
0.0
 40
0.5
 40
1.0
 40
1.0
 40
1.0
 40
1.0
 10
32.17994791666666
 20
-6.195145833333333
 30
0.0
 10
32.19485416666667
 20
-6.216666666666667
 30
0.0
 10
32.19816666666667
 20
-6.23475
 30
0.0
 10
32.19651041666667
 20
-6.259708333333333
 30
0.0
 10
32.20644791666667
 20
-6.276260416666666
 30
0.0
  0
SPLINE
  5
16D
330
559
100
AcDbEntity
  8
_0
  6
Continuous
 62
     7
370
     0
100
AcDbSpline
210
0.0
220
0.0
230
1.0
 70
     8
 71
     3
 72
     9
 73
     5
 74
     0
 42
0.0000000001
 43
0.00000001
 40
0.0
 40
0.0
 40
0.0
 40
0.0
 40
0.5
 40
1.0
 40
1.0
 40
1.0
 40
1.0
 10
31.92976041666667
 20
-6.195145833333333
 30
0.0
 10
31.94466666666667
 20
-6.216666666666667
 30
0.0
 10
31.94797916666667
 20
-6.23475
 30
0.0
 10
31.94632291666667
 20
-6.259708333333333
 30
0.0
 10
31.95626041666667
 20
-6.276260416666666
 30
0.0
  0
SPLINE
  5
16F
330
559
100
AcDbEntity
  8
_0
  6
Continuous
 62
     7
370
     0
100
AcDbSpline
210
0.0
220
0.0
230
1.0
 70
     8
 71
     3
 72
     9
 73
     5
 74
     0
 42
0.0000000001
 43
0.00000001
 40
0.0
 40
0.0
 40
0.0
 40
0.0
 40
0.5
 40
1.0
 40
1.0
 40
1.0
 40
1.0
 10
31.82708333333333
 20
-6.195145833333333
 30
0.0
 10
31.84198958333333
 20
-6.216666666666667
 30
0.0
 10
31.84530208333333
 20
-6.23475
 30
0.0
 10
31.84364583333333
 20
-6.259708333333333
 30
0.0
 10
31.85358333333333
 20
-6.276260416666666
 30
0.0
  0
LINE
  5
171
330
559
100
AcDbEntity
  8
_0
  6
Continuous
 62
     7
370
    13
100
AcDbLine
 10
31.947979
 20
-6.23475
 30
0.0
 11
32.198167
 21
-6.23475
 31
0.0
  0
LINE
  5
172
330
559
100
AcDbEntity
  8
_0
  6
Continuous
 62
     7
370
    13
100
AcDbLine
 10
31.547177
 20
-6.24326
 30
0.0
 11
31.652146
 21
-6.233156
 31
0.0
  0
LINE
  5
173
330
559
100
AcDbEntity
  8
_0
  6
Continuous
 62
     7
370
    13
100
AcDbLine
 10
31.495531
 20
-6.35974
 30
0.0
 11
31.547177
 21
-6.24326
 31
0.0
  0
LINE
  5
174
330
559
100
AcDbEntity
  8
_0
  6
Continuous
 62
     7
370
    13
100
AcDbLine
 10
31.355969
 20
-6.35974
 30
0.0
 11
31.495531
 21
-6.35974
 31
0.0
  0
LINE
  5
175
330
559
100
AcDbEntity
  8
_0
  6
Continuous
 62
     7
370
    13
100
AcDbLine
 10
31.357396
 20
-6.559729
 30
0.0
 11
31.495531
 21
-6.559729
 31
0.0
  0
LINE
  5
176
330
559
100
AcDbEntity
  8
_0
  6
Continuous
 62
     7
370
    13
100
AcDbLine
 10
31.495531
 20
-6.634719
 30
0.0
 11
31.645521
 21
-6.634719
 31
0.0
  0
LINE
  5
177
330
559
100
AcDbEntity
  8
_0
  6
Continuous
 62
     7
370
    13
100
AcDbLine
 10
31.495531
 20
-6.634719
 30
0.0
 11
31.495531
 21
-6.35974
 31
0.0
  0
LINE
  5
178
330
559
100
AcDbEntity
  8
_0
  6
Continuous
 62
     7
370
    13
100
AcDbLine
 10
31.645521
 20
-6.634719
 30
0.0
 11
31.645521
 21
-6.233792
 31
0.0
  0
LINE
  5
188
330
559
100
AcDbEntity
  8
DEFPOINTS
  6
Continuous
 62
     7
370
    13
100
AcDbLine
 10
27.059333
 20
-5.67049
 30
0.0
 11
26.878271
 21
-5.757333
 31
0.0
  0
SOLID
  5
189
330
559
100
AcDbEntity
  8
DEFPOINTS
  6
Continuous
 62
     7
370
    13
100
AcDbTrace
 10
-27.055729
 20
-5.662969
 30
0.0
 11
-27.062948
 21
-5.678
 31
0.0
 12
-27.104417
 22
-5.648865
 32
0.0
 13
-27.104417
 23
-5.648865
 33
0.0
210
0.0
220
0.0
230
-1.0
  0
SOLID
  5
18C
330
559
100
AcDbEntity
  8
DEFPOINTS
  6
Continuous
 62
     7
370
    13
100
AcDbTrace
 10
27.115292
 20
-5.487406
 30
0.0
 11
27.098625
 21
-5.487406
 31
0.0
 12
27.106958
 22
-5.437417
 32
0.0
 13
27.106958
 23
-5.437417
 33
0.0
  0
SOLID
  5
18D
330
559
100
AcDbEntity
  8
DEFPOINTS
  6
Continuous
 62
     7
370
    13
100
AcDbTrace
 10
27.115292
 20
-5.323521
 30
0.0
 11
27.098625
 21
-5.323521
 31
0.0
 12
27.106958
 22
-5.373521
 32
0.0
 13
27.106958
 23
-5.373521
 33
0.0
  0
LINE
  5
18E
330
559
100
AcDbEntity
  8
DEFPOINTS
  6
Continuous
 62
     7
370
    13
100
AcDbLine
 10
27.106958
 20
-5.273531
 30
0.0
 11
27.106958
 21
-5.223531
 31
0.0
  0
LINE
  5
18F
330
559
100
AcDbEntity
  8
DEFPOINTS
  6
Continuous
 62
     7
370
    13
100
AcDbLine
 10
27.106958
 20
-5.487406
 30
0.0
 11
27.106958
 21
-5.537406
 31
0.0
  0
LINE
  5
190
330
559
100
AcDbEntity
  8
DEFPOINTS
  6
Continuous
 62
     7
370
    13
100
AcDbLine
 10
27.106958
 20
-5.323521
 30
0.0
 11
27.106958
 21
-5.273531
 31
0.0
  0
LINE
  5
191
330
559
100
AcDbEntity
  8
DEFPOINTS
  6
Continuous
 62
     7
370
    13
100
AcDbLine
 10
27.136583
 20
-5.373521
 30
0.0
 11
27.056969
 21
-5.373521
 31
0.0
  0
LINE
  5
192
330
559
100
AcDbEntity
  8
DEFPOINTS
  6
Continuous
 62
     7
370
    13
100
AcDbLine
 10
27.192135
 20
-5.437417
 30
0.0
 11
27.056969
 21
-5.437417
 31
0.0
  0
SOLID
  5
193
330
559
100
AcDbEntity
  8
DEFPOINTS
  6
Continuous
 62
     7
370
    13
100
AcDbTrace
 10
27.115292
 20
-5.487406
 30
0.0
 11
27.098625
 21
-5.487406
 31
0.0
 12
27.106958
 22
-5.437417
 32
0.0
 13
27.106958
 23
-5.437417
 33
0.0
  0
SOLID
  5
194
330
559
100
AcDbEntity
  8
DEFPOINTS
  6
Continuous
 62
     7
370
    13
100
AcDbTrace
 10
27.115292
 20
-5.824021
 30
0.0
 11
27.098625
 21
-5.824021
 31
0.0
 12
27.106958
 22
-5.874021
 32
0.0
 13
27.106958
 23
-5.874021
 33
0.0
  0
LINE
  5
195
330
559
100
AcDbEntity
  8
DEFPOINTS
  6
Continuous
 62
     7
370
    13
100
AcDbLine
 10
27.106958
 20
-5.824021
 30
0.0
 11
27.106958
 21
-5.487406
 31
0.0
  0
LINE
  5
196
330
559
100
AcDbEntity
  8
DEFPOINTS
  6
Continuous
 62
     7
370
    13
100
AcDbLine
 10
27.192135
 20
-5.437417
 30
0.0
 11
27.056969
 21
-5.437417
 31
0.0
  0
LINE
  5
197
330
559
100
AcDbEntity
  8
DEFPOINTS
  6
Continuous
 62
     7
370
    13
100
AcDbLine
 10
27.262802
 20
-5.874021
 30
0.0
 11
27.056969
 21
-5.874021
 31
0.0
  0
LINE
  5
198
330
559
100
AcDbEntity
  8
_0
  6
DGN Style 7
 62
     7
370
    13
100
AcDbLine
 10
27.242135
 20
-5.437417
 30
0.0
 11
27.322406
 21
-5.437417
 31
0.0
  0
CIRCLE
  5
199
330
559
100
AcDbEntity
  8
_0
  6
Continuous
 62
     7
370
    13
100
AcDbCircle
 10
27.282272
 20
-5.43741
 30
0.0
 40
0.0249984
  0
LINE
  5
19A
330
559
100
AcDbEntity
  8
_0
  6
DGN Style 7
 62
     7
370
    13
100
AcDbLine
 10
27.282271
 20
-5.477552
 30
0.0
 11
27.282271
 21
-5.397271
 31
0.0
  0
ARC
  5
19B
330
559
100
AcDbEntity
  8
_0
  6
Continuous
 62
     7
370
    13
100
AcDbCircle
 10
27.352941
 20
-5.874023
 30
0.0
 40
0.0249984
100
AcDbArc
 50
85.116294
 51
274.883703
  0
LINE
  5
19C
330
559
100
AcDbEntity
  8
_0
  6
DGN Style 7
 62
     7
370
    13
100
AcDbLine
 10
27.312802
 20
-5.874021
 30
0.0
 11
27.355073
 21
-5.874021
 31
0.0
  0
LINE
  5
19E
330
559
100
AcDbEntity
  8
DEFPOINTS
  6
Continuous
 62
     7
370
    13
100
AcDbLine
 10
27.69101
 20
-5.984187
 30
0.0
 11
27.767031
 21
-5.984187
 31
0.0
  0
SOLID
  5
19F
330
559
100
AcDbEntity
  8
DEFPOINTS
  6
Continuous
 62
     7
370
    13
100
AcDbTrace
 10
27.69101
 20
-5.992521
 30
0.0
 11
27.69101
 21
-5.975854
 31
0.0
 12
27.641021
 22
-5.984187
 32
0.0
 13
27.641021
 23
-5.984187
 33
0.0
  0
LINE
  5
1A0
330
559
100
AcDbEntity
  8
DEFPOINTS
  6
Continuous
 62
     7
370
    13
100
AcDbLine
 10
27.462083
 20
-5.901865
 30
0.0
 11
27.462083
 21
-6.034187
 31
0.0
  0
CIRCLE
  5
1A1
330
559
100
AcDbEntity
  8
_0
  6
Continuous
 62
     7
370
    13
100
AcDbCircle
 10
27.462086
 20
-5.811725
 30
0.0
 40
0.0249984
  0
LINE
  5
1A2
330
559
100
AcDbEntity
  8
_0
  6
DGN Style 7
 62
     7
370
    13
100
AcDbLine
 10
27.421948
 20
-5.811729
 30
0.0
 11
27.502229
 21
-5.811729
 31
0.0
  0
LINE
  5
1A3
330
559
100
AcDbEntity
  8
_0
  6
DGN Style 7
 62
     7
370
    13
100
AcDbLine
 10
27.462083
 20
-5.851865
 30
0.0
 11
27.462083
 21
-5.771583
 31
0.0
  0
LINE
  5
1A4
330
559
100
AcDbEntity
  8
DEFPOINTS
  6
Continuous
 62
     7
370
    13
100
AcDbLine
 10
27.655344
 20
-5.502448
 30
0.0
 11
27.765365
 21
-5.502448
 31
0.0
  0
SOLID
  5
1A5
330
559
100
AcDbEntity
  8
DEFPOINTS
  6
Continuous
 62
     7
370
    13
100
AcDbTrace
 10
27.746969
 20
-5.552448
 30
0.0
 11
27.730302
 21
-5.552448
 31
0.0
 12
27.738635
 22
-5.502448
 32
0.0
 13
27.738635
 23
-5.502448
 33
0.0
  0
LINE
  5
1A7
330
559
100
AcDbEntity
  8
DEFPOINTS
  6
Continuous
 62
     7
370
    13
100
AcDbLine
 10
27.738635
 20
-5.552448
 30
0.0
 11
27.738635
 21
-5.762135
 31
0.0
  0
SOLID
  5
1A8
330
559
100
AcDbEntity
  8
DEFPOINTS
  6
Continuous
 62
     7
370
    13
100
AcDbTrace
 10
27.746969
 20
-5.762135
 30
0.0
 11
27.730302
 21
-5.762135
 31
0.0
 12
27.738635
 22
-5.812125
 32
0.0
 13
27.738635
 23
-5.812125
 33
0.0
  0
LINE
  5
1A9
330
559
100
AcDbEntity
  8
DEFPOINTS
  6
Continuous
 62
     7
370
    13
100
AcDbLine
 10
27.556531
 20
-5.812125
 30
0.0
 11
27.765365
 21
-5.812125
 31
0.0
  0
SOLID
  5
1AB
330
559
100
AcDbEntity
  8
DEFPOINTS
  6
Continuous
 62
     7
370
    13
100
AcDbTrace
 10
30.867802
 20
-6.106833
 30
0.0
 11
30.867802
 21
-6.090167
 31
0.0
 12
30.917802
 22
-6.0985
 32
0.0
 13
30.917802
 23
-6.0985
 33
0.0
  0
SOLID
  5
1AC
330
559
100
AcDbEntity
  8
DEFPOINTS
  6
Continuous
 62
     7
370
    13
100
AcDbTrace
 10
30.791781
 20
-6.106833
 30
0.0
 11
30.791781
 21
-6.090167
 31
0.0
 12
30.741781
 22
-6.0985
 32
0.0
 13
30.741781
 23
-6.0985
 33
0.0
  0
LINE
  5
1AD
330
559
100
AcDbEntity
  8
DEFPOINTS
  6
Continuous
 62
     7
370
    13
100
AcDbLine
 10
30.791781
 20
-6.0985
 30
0.0
 11
30.867802
 21
-6.0985
 31
0.0
  0
POINT
  5
1AE
330
559
100
AcDbEntity
  8
_0
  6
Continuous
 62
     7
370
    13
100
AcDbPoint
 10
30.917802
 20
-6.14849
 30
0.0
  0
LINE
  5
1AF
330
559
100
AcDbEntity
  8
DEFPOINTS
  6
Continuous
 62
     7
370
    13
100
AcDbLine
 10
30.741781
 20
-6.016177
 30
0.0
 11
30.741781
 21
-6.14849
 31
0.0
  0
LINE
  5
1B0
330
559
100
AcDbEntity
  8
DEFPOINTS
  6
Continuous
 62
     7
370
    13
100
AcDbLine
 10
30.315875
 20
-5.762583
 30
0.0
 11
30.117875
 21
-5.846667
 31
0.0
  0
SOLID
  5
1B1
330
559
100
AcDbEntity
  8
DEFPOINTS
  6
Continuous
 62
     7
370
    13
100
AcDbTrace
 10
-30.312615
 20
-5.754906
 30
0.0
 11
-30.319135
 21
-5.77025
 31
0.0
 12
-30.361896
 22
-5.743042
 32
0.0
 13
-30.361896
 23
-5.743042
 33
0.0
210
0.0
220
0.0
230
-1.0
  0
SOLID
  5
1B4
330
559
100
AcDbEntity
  8
DEFPOINTS
  6
Continuous
 62
     7
370
    13
100
AcDbTrace
 10
30.370552
 20
-5.587365
 30
0.0
 11
30.353885
 21
-5.587365
 31
0.0
 12
30.362219
 22
-5.537375
 32
0.0
 13
30.362219
 23
-5.537375
 33
0.0
  0
SOLID
  5
1B5
330
559
100
AcDbEntity
  8
DEFPOINTS
  6
Continuous
 62
     7
370
    13
100
AcDbTrace
 10
30.370552
 20
-5.43426
 30
0.0
 11
30.353885
 21
-5.43426
 31
0.0
 12
30.362219
 22
-5.48426
 32
0.0
 13
30.362219
 23
-5.48426
 33
0.0
  0
LINE
  5
1B6
330
559
100
AcDbEntity
  8
DEFPOINTS
  6
Continuous
 62
     7
370
    13
100
AcDbLine
 10
30.362219
 20
-5.384271
 30
0.0
 11
30.362219
 21
-5.334271
 31
0.0
  0
LINE
  5
1B7
330
559
100
AcDbEntity
  8
DEFPOINTS
  6
Continuous
 62
     7
370
    13
100
AcDbLine
 10
30.362219
 20
-5.587365
 30
0.0
 11
30.362219
 21
-5.637365
 31
0.0
  0
LINE
  5
1B8
330
559
100
AcDbEntity
  8
DEFPOINTS
  6
Continuous
 62
     7
370
    13
100
AcDbLine
 10
30.362219
 20
-5.43426
 30
0.0
 11
30.362219
 21
-5.384271
 31
0.0
  0
LINE
  5
1B9
330
559
100
AcDbEntity
  8
DEFPOINTS
  6
Continuous
 62
     7
370
    13
100
AcDbLine
 10
30.410906
 20
-5.48426
 30
0.0
 11
30.312229
 21
-5.48426
 31
0.0
  0
LINE
  5
1BA
330
559
100
AcDbEntity
  8
DEFPOINTS
  6
Continuous
 62
     7
370
    13
100
AcDbLine
 10
30.454781
 20
-5.537375
 30
0.0
 11
30.312229
 21
-5.537375
 31
0.0
  0
SOLID
  5
1BB
330
559
100
AcDbEntity
  8
DEFPOINTS
  6
Continuous
 62
     7
370
    13
100
AcDbTrace
 10
30.370552
 20
-5.587365
 30
0.0
 11
30.353885
 21
-5.587365
 31
0.0
 12
30.362219
 22
-5.537375
 32
0.0
 13
30.362219
 23
-5.537375
 33
0.0
  0
SOLID
  5
1BC
330
559
100
AcDbEntity
  8
DEFPOINTS
  6
Continuous
 62
     7
370
    13
100
AcDbTrace
 10
30.370552
 20
-5.92399
 30
0.0
 11
30.353885
 21
-5.92399
 31
0.0
 12
30.362219
 22
-5.97399
 32
0.0
 13
30.362219
 23
-5.97399
 33
0.0
  0
LINE
  5
1BD
330
559
100
AcDbEntity
  8
DEFPOINTS
  6
Continuous
 62
     7
370
    13
100
AcDbLine
 10
30.362219
 20
-5.92399
 30
0.0
 11
30.362219
 21
-5.587365
 31
0.0
  0
LINE
  5
1BE
330
559
100
AcDbEntity
  8
DEFPOINTS
  6
Continuous
 62
     7
370
    13
100
AcDbLine
 10
30.454781
 20
-5.537375
 30
0.0
 11
30.312229
 21
-5.537375
 31
0.0
  0
LINE
  5
1BF
330
559
100
AcDbEntity
  8
DEFPOINTS
  6
Continuous
 62
     7
370
    13
100
AcDbLine
 10
30.525448
 20
-5.97399
 30
0.0
 11
30.312229
 21
-5.97399
 31
0.0
  0
SOLID
  5
1C1
330
559
100
AcDbEntity
  8
DEFPOINTS
  6
Continuous
 62
     7
370
    13
100
AcDbTrace
 10
31.044437
 20
-5.876448
 30
0.0
 11
31.027771
 21
-5.876448
 31
0.0
 12
31.036104
 22
-5.926448
 32
0.0
 13
31.036104
 23
-5.926448
 33
0.0
  0
SOLID
  5
1C2
330
559
100
AcDbEntity
  8
DEFPOINTS
  6
Continuous
 62
     7
370
    13
100
AcDbTrace
 10
31.044437
 20
-5.66676
 30
0.0
 11
31.027771
 21
-5.66676
 31
0.0
 12
31.036104
 22
-5.61676
 32
0.0
 13
31.036104
 23
-5.61676
 33
0.0
  0
LINE
  5
1C3
330
559
100
AcDbEntity
  8
DEFPOINTS
  6
Continuous
 62
     7
370
    13
100
AcDbLine
 10
31.036104
 20
-5.66676
 30
0.0
 11
31.036104
 21
-5.876448
 31
0.0
  0
LINE
  5
1C4
330
559
100
AcDbEntity
  8
DEFPOINTS
  6
Continuous
 62
     7
370
    13
100
AcDbLine
 10
30.836229
 20
-5.926448
 30
0.0
 11
31.086094
 21
-5.926448
 31
0.0
  0
LINE
  5
1C5
330
559
100
AcDbEntity
  8
DEFPOINTS
  6
Continuous
 62
     7
370
    13
100
AcDbLine
 10
30.935052
 20
-5.61676
 30
0.0
 11
31.086094
 21
-5.61676
 31
0.0
  0
LINE
  5
1C6
330
559
100
AcDbEntity
  8
_0
  6
DGN Style 7
 62
     7
370
    13
100
AcDbLine
 10
30.408094
 20
-5.915698
 30
0.0
 11
30.408094
 21
-5.835417
 31
0.0
  0
LINE
  5
1C7
330
559
100
AcDbEntity
  8
_0
  6
DGN Style 7
 62
     7
370
    13
100
AcDbLine
 10
30.367958
 20
-5.875563
 30
0.0
 11
30.44824
 21
-5.875563
 31
0.0
  0
LINE
  5
1C8
330
559
100
AcDbEntity
  8
_0
  6
DGN Style 7
 62
     7
370
    13
100
AcDbLine
 10
30.544917
 20
-5.577521
 30
0.0
 11
30.544917
 21
-5.497229
 31
0.0
  0
LINE
  5
1C9
330
559
100
AcDbEntity
  8
_0
  6
DGN Style 7
 62
     7
370
    13
100
AcDbLine
 10
30.504781
 20
-5.537375
 30
0.0
 11
30.585062
 21
-5.537375
 31
0.0
  0
LINE
  5
1CA
330
559
100
AcDbEntity
  8
_0
  6
DGN Style 7
 62
     7
370
    13
100
AcDbLine
 10
30.353104
 20
-5.453854
 30
0.0
 11
30.353104
 21
-5.373573
 31
0.0
  0
LINE
  5
1CB
330
559
100
AcDbEntity
  8
_0
  6
DGN Style 7
 62
     7
370
    13
100
AcDbLine
 10
30.312969
 20
-5.413708
 30
0.0
 11
30.39325
 21
-5.413708
 31
0.0
  0
LINE
  5
1CC
330
559
100
AcDbEntity
  8
_0
  6
DGN Style 7
 62
     7
370
    13
100
AcDbLine
 10
30.615594
 20
-6.014125
 30
0.0
 11
30.615594
 21
-5.933844
 31
0.0
  0
LINE
  5
1CD
330
559
100
AcDbEntity
  8
_0
  6
DGN Style 7
 62
     7
370
    13
100
AcDbLine
 10
30.575448
 20
-5.97399
 30
0.0
 11
30.655729
 21
-5.97399
 31
0.0
  0
LINE
  5
1CE
330
559
100
AcDbEntity
  8
_0
  6
DGN Style 7
 62
     7
370
    13
100
AcDbLine
 10
30.128479
 20
-5.567427
 30
0.0
 11
30.128479
 21
-5.487135
 31
0.0
  0
LINE
  5
1CF
330
559
100
AcDbEntity
  8
_0
  6
DGN Style 7
 62
     7
370
    13
100
AcDbLine
 10
30.088344
 20
-5.527281
 30
0.0
 11
30.168625
 21
-5.527281
 31
0.0
  0
LINE
  5
1D0
330
559
100
AcDbEntity
  8
_0
  6
DGN Style 7
 62
     7
370
    13
100
AcDbLine
 10
30.701646
 20
-5.926031
 30
0.0
 11
30.781927
 21
-5.926031
 31
0.0
  0
LINE
  5
1D1
330
559
100
AcDbEntity
  8
_0
  6
DGN Style 7
 62
     7
370
    13
100
AcDbLine
 10
30.741781
 20
-5.966177
 30
0.0
 11
30.741781
 21
-5.885896
 31
0.0
  0
LINE
  5
1D2
330
559
100
AcDbEntity
  8
_0
  6
Continuous
 62
     7
370
    13
100
AcDbLine
 10
30.268583
 20
-5.359781
 30
0.0
 11
30.532104
 21
-5.359781
 31
0.0
  0
LINE
  5
1D3
330
559
100
AcDbEntity
  8
_0
  6
Continuous
 62
     7
370
    13
100
AcDbLine
 10
30.285115
 20
-5.362802
 30
0.0
 11
30.522698
 21
-5.362802
 31
0.0
  0
CIRCLE
  5
1D4
330
559
100
AcDbEntity
  8
_0
  6
Continuous
 62
     7
370
    13
100
AcDbCircle
 10
30.353107
 20
-5.41371
 30
0.0
 40
0.0249984
  0
CIRCLE
  5
1D5
330
559
100
AcDbEntity
  8
_0
  6
Continuous
 62
     7
370
    13
100
AcDbCircle
 10
30.544922
 20
-5.537375
 30
0.0
 40
0.0249984
  0
CIRCLE
  5
1D6
330
559
100
AcDbEntity
  8
_0
  6
Continuous
 62
     7
370
    13
100
AcDbCircle
 10
30.61559
 20
-5.973988
 30
0.0
 40
0.0249984
  0
CIRCLE
  5
1D7
330
559
100
AcDbEntity
  8
_0
  6
Continuous
 62
     7
370
    13
100
AcDbCircle
 10
30.128482
 20
-5.52728
 30
0.0
 40
0.0249984
  0
CIRCLE
  5
1D8
330
559
100
AcDbEntity
  8
_0
  6
Continuous
 62
     7
370
    13
100
AcDbCircle
 10
30.741784
 20
-5.926036
 30
0.0
 40
0.0249984
  0
SOLID
  5
1DB
330
559
100
AcDbEntity
  8
DEFPOINTS
  6
Continuous
 62
     7
370
    13
100
AcDbTrace
 10
24.906667
 20
-8.77367
 30
0.0
 11
24.906667
 21
-8.757003
 31
0.0
 12
24.956656
 22
-8.765336
 32
0.0
 13
24.956656
 23
-8.765336
 33
0.0
  0
SOLID
  5
1DC
330
559
100
AcDbEntity
  8
DEFPOINTS
  6
Continuous
 62
     7
370
    13
100
AcDbTrace
 10
25.081656
 20
-8.77367
 30
0.0
 11
25.081656
 21
-8.757003
 31
0.0
 12
25.031656
 22
-8.765336
 32
0.0
 13
25.031656
 23
-8.765336
 33
0.0
  0
LINE
  5
1DD
330
559
100
AcDbEntity
  8
DEFPOINTS
  6
Continuous
 62
     7
370
    13
100
AcDbLine
 10
24.906667
 20
-8.765336
 30
0.0
 11
24.856667
 21
-8.765336
 31
0.0
  0
LINE
  5
1DE
330
559
100
AcDbEntity
  8
DEFPOINTS
  6
Continuous
 62
     7
370
    13
100
AcDbLine
 10
25.081656
 20
-8.765336
 30
0.0
 11
25.131646
 21
-8.765336
 31
0.0
  0
LINE
  5
1DF
330
559
100
AcDbEntity
  8
DEFPOINTS
  6
Continuous
 62
     7
370
    13
100
AcDbLine
 10
25.539323
 20
-9.053242
 30
0.0
 11
25.612063
 21
-9.053242
 31
0.0
  0
LINE
  5
1E0
330
559
100
AcDbEntity
  8
DEFPOINTS
  6
Continuous
 62
     7
370
    13
100
AcDbLine
 10
25.63824
 20
-9.212763
 30
0.0
 11
25.539323
 21
-9.053242
 31
0.0
  0
SOLID
  5
1E1
330
559
100
AcDbEntity
  8
DEFPOINTS
  6
Continuous
 62
     7
370
    13
100
AcDbTrace
 10
25.645323
 20
-9.208367
 30
0.0
 11
25.631167
 21
-9.217149
 31
0.0
 12
25.664594
 22
-9.255253
 32
0.0
 13
25.664594
 23
-9.255253
 33
0.0
  0
SOLID
  5
1E4
330
559
100
AcDbEntity
  8
DEFPOINTS
  6
Continuous
 62
     7
370
    13
100
AcDbTrace
 10
26.020437
 20
-9.240305
 30
0.0
 11
26.003771
 21
-9.240305
 31
0.0
 12
26.012104
 22
-9.190305
 32
0.0
 13
26.012104
 23
-9.190305
 33
0.0
  0
SOLID
  5
1E5
330
559
100
AcDbEntity
  8
DEFPOINTS
  6
Continuous
 62
     7
370
    13
100
AcDbTrace
 10
26.020437
 20
-9.290305
 30
0.0
 11
26.003771
 21
-9.290305
 31
0.0
 12
26.012104
 22
-9.340295
 32
0.0
 13
26.012104
 23
-9.340295
 33
0.0
  0
LINE
  5
1E6
330
559
100
AcDbEntity
  8
DEFPOINTS
  6
Continuous
 62
     7
370
    13
100
AcDbLine
 10
26.012104
 20
-9.290305
 30
0.0
 11
26.012104
 21
-9.240305
 31
0.0
  0
LINE
  5
1E7
330
559
100
AcDbEntity
  8
DEFPOINTS
  6
Continuous
 62
     7
370
    13
100
AcDbLine
 10
25.806604
 20
-9.190305
 30
0.0
 11
26.062094
 21
-9.190305
 31
0.0
  0
LINE
  5
1E8
330
559
100
AcDbEntity
  8
DEFPOINTS
  6
Continuous
 62
     7
370
    13
100
AcDbLine
 10
25.711615
 20
-9.340295
 30
0.0
 11
26.062094
 21
-9.340295
 31
0.0
  0
SOLID
  5
1EA
330
559
100
AcDbEntity
  8
DEFPOINTS
  6
Continuous
 62
     7
370
    13
100
AcDbTrace
 10
24.464719
 20
-9.290305
 30
0.0
 11
24.448052
 21
-9.290305
 31
0.0
 12
24.456385
 22
-9.340295
 32
0.0
 13
24.456385
 23
-9.340295
 33
0.0
  0
SOLID
  5
1EB
330
559
100
AcDbEntity
  8
DEFPOINTS
  6
Continuous
 62
     7
370
    13
100
AcDbTrace
 10
24.464719
 20
-8.240367
 30
0.0
 11
24.448052
 21
-8.240367
 31
0.0
 12
24.456385
 22
-8.190367
 32
0.0
 13
24.456385
 23
-8.190367
 33
0.0
  0
LINE
  5
1EC
330
559
100
AcDbEntity
  8
DEFPOINTS
  6
Continuous
 62
     7
370
    13
100
AcDbLine
 10
24.456385
 20
-8.240367
 30
0.0
 11
24.456385
 21
-9.290305
 31
0.0
  0
LINE
  5
1ED
330
559
100
AcDbEntity
  8
DEFPOINTS
  6
Continuous
 62
     7
370
    13
100
AcDbLine
 10
25.001656
 20
-9.340295
 30
0.0
 11
24.406396
 21
-9.340295
 31
0.0
  0
LINE
  5
1EE
330
559
100
AcDbEntity
  8
DEFPOINTS
  6
Continuous
 62
     7
370
    13
100
AcDbLine
 10
25.001656
 20
-8.190367
 30
0.0
 11
24.406396
 21
-8.190367
 31
0.0
  0
SOLID
  5
1F0
330
559
100
AcDbEntity
  8
DEFPOINTS
  6
Continuous
 62
     7
370
    13
100
AcDbTrace
 10
25.006656
 20
-7.825274
 30
0.0
 11
25.006656
 21
-7.808607
 31
0.0
 12
24.956656
 22
-7.81694
 32
0.0
 13
24.956656
 23
-7.81694
 33
0.0
  0
SOLID
  5
1F1
330
559
100
AcDbEntity
  8
DEFPOINTS
  6
Continuous
 62
     7
370
    13
100
AcDbTrace
 10
25.706615
 20
-7.825274
 30
0.0
 11
25.706615
 21
-7.808607
 31
0.0
 12
25.756615
 22
-7.81694
 32
0.0
 13
25.756615
 23
-7.81694
 33
0.0
  0
LINE
  5
1F2
330
559
100
AcDbEntity
  8
DEFPOINTS
  6
Continuous
 62
     7
370
    13
100
AcDbLine
 10
25.706615
 20
-7.81694
 30
0.0
 11
25.006656
 21
-7.81694
 31
0.0
  0
LINE
  5
1F3
330
559
100
AcDbEntity
  8
DEFPOINTS
  6
Continuous
 62
     7
370
    13
100
AcDbLine
 10
24.956656
 20
-8.235367
 30
0.0
 11
24.956656
 21
-7.76694
 31
0.0
  0
LINE
  5
1F4
330
559
100
AcDbEntity
  8
DEFPOINTS
  6
Continuous
 62
     7
370
    13
100
AcDbLine
 10
25.756615
 20
-8.235367
 30
0.0
 11
25.756615
 21
-7.76694
 31
0.0
  0
LINE
  5
1F5
330
559
100
AcDbEntity
  8
_0
  6
Continuous
 62
     7
370
    13
100
AcDbLine
 10
30.507312
 20
-6.034229
 30
0.0
 11
30.649906
 21
-6.034229
 31
0.0
  0
LINE
  5
1F6
330
559
100
AcDbEntity
  8
_0
  6
Continuous
 62
     7
370
    13
100
AcDbLine
 10
30.460896
 20
-5.48426
 30
0.0
 11
30.713885
 21
-5.48426
 31
0.0
  0
LINE
  5
1F7
330
559
100
AcDbEntity
  8
_0
  6
Continuous
 62
     7
370
    13
100
AcDbLine
 10
30.243594
 20
-5.343177
 30
0.0
 11
30.254948
 21
-5.343177
 31
0.0
  0
ARC
  5
1F8
330
559
100
AcDbEntity
  8
_0
  6
Continuous
 62
     7
370
    13
100
AcDbCircle
 10
25.051656
 20
-9.245303
 30
0.0
 40
0.09499392
100
AcDbArc
 50
180.0
 51
270.0
  0
ARC
  5
1F9
330
559
100
AcDbEntity
  8
_0
  6
Continuous
 62
     7
370
    13
100
AcDbCircle
 10
25.051656
 20
-8.285365
 30
0.0
 40
0.09499392
100
AcDbArc
 50
90.0
 51
180.0
  0
ARC
  5
1FA
330
559
100
AcDbEntity
  8
_0
  6
Continuous
 62
     7
370
    13
100
AcDbCircle
 10
25.661617
 20
-8.285365
 30
0.0
 40
0.09499392
100
AcDbArc
 50
0.0
 51
90.0
  0
ARC
  5
1FB
330
559
100
AcDbEntity
  8
_0
  6
Continuous
 62
     7
370
    13
100
AcDbCircle
 10
25.661617
 20
-9.245303
 30
0.0
 40
0.09499392
100
AcDbArc
 50
270.0
 51
0.0
  0
ARC
  5
1FC
330
559
100
AcDbEntity
  8
_0
  6
Continuous
 62
     7
370
    13
100
AcDbCircle
 10
25.051656
 20
-9.245303
 30
0.0
 40
0.01999872
100
AcDbArc
 50
180.0
 51
270.0
  0
ARC
  5
1FD
330
559
100
AcDbEntity
  8
_0
  6
Continuous
 62
     7
370
    13
100
AcDbCircle
 10
25.051656
 20
-8.285365
 30
0.0
 40
0.01999872
100
AcDbArc
 50
90.0
 51
180.0
  0
ARC
  5
1FE
330
559
100
AcDbEntity
  8
_0
  6
Continuous
 62
     7
370
    13
100
AcDbCircle
 10
25.661617
 20
-8.285365
 30
0.0
 40
0.01999872
100
AcDbArc
 50
0.0
 51
90.0
  0
ARC
  5
1FF
330
559
100
AcDbEntity
  8
_0
  6
Continuous
 62
     7
370
    13
100
AcDbCircle
 10
25.661617
 20
-9.245303
 30
0.0
 40
0.01999872
100
AcDbArc
 50
270.0
 51
0.0
  0
LINE
  5
200
330
559
100
AcDbEntity
  8
_0
  6
Continuous
 62
     7
370
    13
100
AcDbLine
 10
25.756615
 20
-8.340357
 30
0.0
 11
25.756615
 21
-8.285367
 31
0.0
  0
LINE
  5
201
330
559
100
AcDbEntity
  8
_0
  6
Continuous
 62
     7
370
    13
100
AcDbLine
 10
25.681615
 20
-8.340357
 30
0.0
 11
25.681615
 21
-8.285367
 31
0.0
  0
LINE
  5
202
330
559
100
AcDbEntity
  8
_0
  6
Continuous
 62
     7
370
    13
100
AcDbLine
 10
25.681615
 20
-9.190305
 30
0.0
 11
25.756615
 21
-9.190305
 31
0.0
  0
LINE
  5
203
330
559
100
AcDbEntity
  8
_0
  6
Continuous
 62
     7
370
    13
100
AcDbLine
 10
25.681615
 20
-8.340357
 30
0.0
 11
25.756615
 21
-8.340357
 31
0.0
  0
LINE
  5
204
330
559
100
AcDbEntity
  8
_0
  6
Continuous
 62
     7
370
    13
100
AcDbLine
 10
25.051656
 20
-9.265305
 30
0.0
 11
25.661615
 21
-9.265305
 31
0.0
  0
LINE
  5
205
330
559
100
AcDbEntity
  8
_0
  6
Continuous
 62
     7
370
    13
100
AcDbLine
 10
25.681615
 20
-9.245305
 30
0.0
 11
25.681615
 21
-9.190305
 31
0.0
  0
LINE
  5
206
330
559
100
AcDbEntity
  8
_0
  6
Continuous
 62
     7
370
    13
100
AcDbLine
 10
25.031656
 20
-9.245305
 30
0.0
 11
25.031656
 21
-8.285367
 31
0.0
  0
LINE
  5
207
330
559
100
AcDbEntity
  8
_0
  6
Continuous
 62
     7
370
    13
100
AcDbLine
 10
25.051656
 20
-8.265367
 30
0.0
 11
25.661615
 21
-8.265367
 31
0.0
  0
LINE
  5
208
330
559
100
AcDbEntity
  8
_0
  6
Continuous
 62
     7
370
    13
100
AcDbLine
 10
25.051656
 20
-8.190367
 30
0.0
 11
25.661615
 21
-8.190367
 31
0.0
  0
LINE
  5
209
330
559
100
AcDbEntity
  8
_0
  6
Continuous
 62
     7
370
    13
100
AcDbLine
 10
25.051656
 20
-9.340295
 30
0.0
 11
25.661615
 21
-9.340295
 31
0.0
  0
LINE
  5
20A
330
559
100
AcDbEntity
  8
_0
  6
Continuous
 62
     7
370
    13
100
AcDbLine
 10
25.756615
 20
-9.245305
 30
0.0
 11
25.756615
 21
-9.190305
 31
0.0
  0
LINE
  5
20B
330
559
100
AcDbEntity
  8
_0
  6
Continuous
 62
     7
370
    13
100
AcDbLine
 10
24.956656
 20
-9.245305
 30
0.0
 11
24.956656
 21
-8.285367
 31
0.0
  0
LINE
  5
20C
330
559
100
AcDbEntity
  8
_0
  6
Continuous
 62
     7
370
    13
100
AcDbLine
 10
27.638094
 20
-6.062979
 30
0.0
 11
27.638094
 21
-5.51301
 31
0.0
  0
LINE
  5
20D
330
559
100
AcDbEntity
  8
_0
  6
Continuous
 62
     7
370
    13
100
AcDbLine
 10
27.396562
 20
-6.591042
 30
0.0
 11
27.396562
 21
-5.51301
 31
0.0
  0
LINE
  5
20E
330
559
100
AcDbEntity
  8
_0
  6
Continuous
 62
     7
370
    13
100
AcDbLine
 10
27.186583
 20
-6.522417
 30
0.0
 11
27.186583
 21
-5.373521
 31
0.0
  0
LINE
  5
20F
330
559
100
AcDbEntity
  8
_0
  6
Continuous
 62
     7
370
    13
100
AcDbLine
 10
26.995354
 20
-6.471427
 30
0.0
 11
26.995354
 21
-5.24526
 31
0.0
  0
LINE
  5
210
330
559
100
AcDbEntity
  8
_0
  6
Continuous
 62
     7
370
    13
100
AcDbLine
 10
27.396562
 20
-5.51301
 30
0.0
 11
27.638094
 21
-5.51301
 31
0.0
  0
LINE
  5
211
330
559
100
AcDbEntity
  8
_0
  6
Continuous
 62
     7
370
    13
100
AcDbLine
 10
27.396562
 20
-6.062979
 30
0.0
 11
27.638094
 21
-6.062979
 31
0.0
  0
LINE
  5
212
330
559
100
AcDbEntity
  8
_0
  6
Continuous
 62
     7
370
    13
100
AcDbLine
 10
27.638094
 20
-5.51301
 30
0.0
 11
27.251646
 21
-5.24526
 31
0.0
  0
LINE
  5
213
330
559
100
AcDbEntity
  8
_0
  6
Continuous
 62
     7
370
    13
100
AcDbLine
 10
27.396562
 20
-6.062979
 30
0.0
 11
27.355073
 21
-6.035417
 31
0.0
  0
LINE
  5
214
330
559
100
AcDbEntity
  8
_0
  6
Continuous
 62
     7
370
    13
100
AcDbLine
 10
27.396562
 20
-5.51301
 30
0.0
 11
27.355073
 21
-5.485448
 31
0.0
  0
LINE
  5
215
330
559
100
AcDbEntity
  8
_0
  6
Continuous
 62
     7
370
    13
100
AcDbLine
 10
27.161583
 20
-6.519635
 30
0.0
 11
27.161583
 21
-5.356917
 31
0.0
  0
LINE
  5
216
330
559
100
AcDbEntity
  8
_0
  6
Continuous
 62
     7
370
    13
100
AcDbLine
 10
27.211583
 20
-5.940094
 30
0.0
 11
27.211583
 21
-5.390125
 31
0.0
  0
LINE
  5
217
330
559
100
AcDbEntity
  8
_0
  6
Continuous
 62
     7
370
    13
100
AcDbLine
 10
27.030354
 20
-6.483094
 30
0.0
 11
27.030354
 21
-5.271531
 31
0.0
  0
LINE
  5
218
330
559
100
AcDbEntity
  8
_0
  6
Continuous
 62
     7
370
    13
100
AcDbLine
 10
27.355073
 20
-6.035417
 30
0.0
 11
27.355073
 21
-5.485448
 31
0.0
  0
LINE
  5
219
330
559
100
AcDbEntity
  8
_0
  6
Continuous
 62
     7
370
    13
100
AcDbLine
 10
27.211583
 20
-5.940094
 30
0.0
 11
27.186583
 21
-5.92349
 31
0.0
  0
LINE
  5
21A
330
559
100
AcDbEntity
  8
_0
  6
Continuous
 62
     7
370
    13
100
AcDbLine
 10
27.040354
 20
-6.486
 30
0.0
 11
27.040354
 21
-5.271531
 31
0.0
  0
LINE
  5
21B
330
559
100
AcDbEntity
  8
_0
  6
Continuous
 62
     7
370
    13
100
AcDbLine
 10
27.227615
 20
-5.940094
 30
0.0
 11
27.227615
 21
-5.390125
 31
0.0
  0
LINE
  5
21C
330
559
100
AcDbEntity
  8
_0
  6
Continuous
 62
     7
370
    13
100
AcDbLine
 10
27.211583
 20
-5.940094
 30
0.0
 11
27.227615
 21
-5.940094
 31
0.0
  0
LINE
  5
21D
330
559
100
AcDbEntity
  8
_0
  6
Continuous
 62
     7
370
    13
100
AcDbLine
 10
27.011885
 20
-5.251302
 30
0.0
 11
27.243802
 21
-5.251302
 31
0.0
  0
LINE
  5
21E
330
559
100
AcDbEntity
  8
_0
  6
Continuous
 62
     7
370
    13
100
AcDbLine
 10
27.355073
 20
-5.485448
 30
0.0
 11
27.376844
 21
-5.485448
 31
0.0
  0
LINE
  5
21F
330
559
100
AcDbEntity
  8
_0
  6
Continuous
 62
     7
370
    13
100
AcDbLine
 10
27.211583
 20
-5.390125
 30
0.0
 11
27.228781
 21
-5.390125
 31
0.0
  0
LINE
  5
220
330
559
100
AcDbEntity
  8
_0
  6
Continuous
 62
     7
370
    13
100
AcDbLine
 10
27.030354
 20
-5.271531
 30
0.0
 11
27.040885
 21
-5.271531
 31
0.0
  0
LINE
  5
221
330
559
100
AcDbEntity
  8
_0
  6
Continuous
 62
     7
370
    13
100
AcDbLine
 10
27.605354
 20
-5.502448
 30
0.0
 11
27.418437
 21
-5.375031
 31
0.0
  0
LINE
  5
222
330
559
100
AcDbEntity
  8
_0
  6
Continuous
 62
     7
370
    13
100
AcDbLine
 10
27.402969
 20
-5.502448
 30
0.0
 11
27.376844
 21
-5.485448
 31
0.0
  0
LINE
  5
223
330
559
100
AcDbEntity
  8
_0
  6
Continuous
 62
     7
370
    13
100
AcDbLine
 10
27.402969
 20
-5.502448
 30
0.0
 11
27.605354
 21
-5.502448
 31
0.0
  0
LINE
  5
224
330
559
100
AcDbEntity
  8
_0
  6
Continuous
 62
     7
370
    13
100
AcDbLine
 10
27.190146
 20
-5.365979
 30
0.0
 11
27.408917
 21
-5.365979
 31
0.0
  0
LINE
  5
225
330
559
100
AcDbEntity
  8
_0
  6
Continuous
 62
     7
370
    13
100
AcDbLine
 10
27.205583
 20
-5.375031
 30
0.0
 11
27.418437
 21
-5.375031
 31
0.0
  0
LINE
  5
226
330
559
100
AcDbEntity
  8
_0
  6
Continuous
 62
     7
370
    13
100
AcDbLine
 10
27.408917
 20
-5.365979
 30
0.0
 11
27.243802
 21
-5.251302
 31
0.0
  0
LINE
  5
227
330
559
100
AcDbEntity
  8
_0
  6
Continuous
 62
     7
370
    13
100
AcDbLine
 10
27.190146
 20
-5.365979
 30
0.0
 11
27.176219
 21
-5.356917
 31
0.0
  0
LINE
  5
228
330
559
100
AcDbEntity
  8
_0
  6
Continuous
 62
     7
370
    13
100
AcDbLine
 10
27.211583
 20
-5.390125
 30
0.0
 11
27.161583
 21
-5.356917
 31
0.0
  0
LINE
  5
229
330
559
100
AcDbEntity
  8
_0
  6
Continuous
 62
     7
370
    13
100
AcDbLine
 10
27.228781
 20
-5.390125
 30
0.0
 11
27.205583
 21
-5.375031
 31
0.0
  0
LINE
  5
22A
330
559
100
AcDbEntity
  8
_0
  6
Continuous
 62
     7
370
    13
100
AcDbLine
 10
27.161583
 20
-5.356917
 30
0.0
 11
27.176219
 21
-5.356917
 31
0.0
  0
LINE
  5
22B
330
559
100
AcDbEntity
  8
_0
  6
Continuous
 62
     7
370
    13
100
AcDbLine
 10
27.040885
 20
-5.271531
 30
0.0
 11
27.011885
 21
-5.251302
 31
0.0
  0
LINE
  5
22C
330
559
100
AcDbEntity
  8
_0
  6
Continuous
 62
     7
370
    13
100
AcDbLine
 10
27.030354
 20
-5.271531
 30
0.0
 11
26.995354
 21
-5.248281
 31
0.0
  0
LINE
  5
22D
330
559
100
AcDbEntity
  8
_0
  6
Continuous
 62
     7
370
    13
100
AcDbLine
 10
26.995354
 20
-5.24526
 30
0.0
 11
27.251646
 21
-5.24526
 31
0.0
  0
SPLINE
  5
22E
330
559
100
AcDbEntity
  8
_0
  6
Continuous
 62
     7
370
     0
100
AcDbSpline
210
0.0
220
0.0
230
1.0
 70
     8
 71
     3
 72
    17
 73
    13
 74
     0
 42
0.0000000001
 43
0.00000001
 40
0.0
 40
0.0
 40
0.0
 40
0.0
 40
0.1
 40
0.2
 40
0.3
 40
0.4
 40
0.5
 40
0.6
 40
0.7
 40
0.7999999999999999
 40
0.8999999999999999
 40
1.0
 40
1.0
 40
1.0
 40
1.0
 10
27.3965625
 20
-6.591041666666666
 30
0.0
 10
27.35788541666667
 20
-6.567864583333333
 30
0.0
 10
27.32444791666667
 20
-6.571583333333333
 30
0.0
 10
27.30959375
 20
-6.545572916666666
 30
0.0
 10
27.26501041666667
 20
-6.541864583333333
 30
0.0
 10
27.239
 20
-6.527
 30
0.0
 10
27.21670833333333
 20
-6.541864583333333
 30
0.0
 10
27.19441666666667
 20
-6.523291666666666
 30
0.0
 10
27.16097916666667
 20
-6.519572916666666
 30
0.0
 10
27.13496875
 20
-6.527
 30
0.0
 10
27.08366666666667
 20
-6.486
 30
0.0
 10
27.03908333333333
 20
-6.486
 30
0.0
 10
26.99535416666667
 20
-6.471427083333333
 30
0.0
  0
SPLINE
  5
230
330
559
100
AcDbEntity
  8
_0
  6
Continuous
 62
     7
370
     0
100
AcDbSpline
210
0.0
220
0.0
230
1.0
 70
     8
 71
     3
 72
    17
 73
    13
 74
     0
 42
0.0000000001
 43
0.00000001
 40
0.0
 40
0.0
 40
0.0
 40
0.0
 40
0.1
 40
0.2
 40
0.3
 40
0.4
 40
0.5
 40
0.6
 40
0.7
 40
0.7999999999999999
 40
0.8999999999999999
 40
1.0
 40
1.0
 40
1.0
 40
1.0
 10
30.67626041666666
 20
-6.705354166666666
 30
0.0
 10
30.63759375
 20
-6.682177083333333
 30
0.0
 10
30.60414583333333
 20
-6.685885416666666
 30
0.0
 10
30.58929166666666
 20
-6.659885416666667
 30
0.0
 10
30.54470833333333
 20
-6.656166666666667
 30
0.0
 10
30.51869791666666
 20
-6.6413125
 30
0.0
 10
30.49640625
 20
-6.656166666666667
 30
0.0
 10
30.47411458333333
 20
-6.637604166666667
 30
0.0
 10
30.44067708333333
 20
-6.633885416666667
 30
0.0
 10
30.37176041666666
 20
-6.616072916666666
 30
0.0
 10
30.35689583333333
 20
-6.5975
 30
0.0
 10
30.31232291666667
 20
-6.5975
 30
0.0
 10
30.26858333333333
 20
-6.582927083333333
 30
0.0
  0
LINE
  5
232
330
559
100
AcDbEntity
  8
_0
  6
Continuous
 62
     7
370
    13
100
AcDbLine
 10
30.027323
 20
-5.203385
 30
0.0
 11
30.302302
 21
-5.203385
 31
0.0
  0
LINE
  5
233
330
559
100
AcDbEntity
  8
_0
  6
Continuous
 62
     7
370
    13
100
AcDbLine
 10
30.514604
 20
-5.357
 30
0.0
 11
30.291729
 21
-5.200375
 31
0.0
  0
LINE
  5
234
330
559
100
AcDbEntity
  8
_0
  6
Continuous
 62
     7
370
    13
100
AcDbLine
 10
30.275823
 20
-5.35676
 30
0.0
 11
30.254948
 21
-5.343177
 31
0.0
  0
LINE
  5
235
330
559
100
AcDbEntity
  8
_0
  6
Continuous
 62
     7
370
    13
100
AcDbLine
 10
30.275823
 20
-5.35676
 30
0.0
 11
30.514604
 21
-5.357
 31
0.0
  0
LINE
  5
236
330
559
100
AcDbEntity
  8
_0
  6
Continuous
 62
     7
370
    13
100
AcDbLine
 10
30.058885
 20
-5.216979
 30
0.0
 11
30.033365
 21
-5.200375
 31
0.0
  0
LINE
  5
237
330
559
100
AcDbEntity
  8
_0
  6
Continuous
 62
     7
370
    13
100
AcDbLine
 10
30.052323
 20
-5.216979
 30
0.0
 11
30.027323
 21
-5.200375
 31
0.0
  0
LINE
  5
238
330
559
100
AcDbEntity
  8
_0
  6
Continuous
 62
     7
370
    13
100
AcDbLine
 10
30.303583
 20
-5.383031
 30
0.0
 11
30.243594
 21
-5.343177
 31
0.0
  0
LINE
  5
239
330
559
100
AcDbEntity
  8
_0
  6
Continuous
 62
     7
370
    13
100
AcDbLine
 10
30.314115
 20
-5.383031
 30
0.0
 11
30.285115
 21
-5.362802
 31
0.0
  0
LINE
  5
23A
330
559
100
AcDbEntity
  8
_0
  6
Continuous
 62
     7
370
    13
100
AcDbLine
 10
30.441281
 20
-5.471229
 30
0.0
 11
30.455917
 21
-5.471229
 31
0.0
  0
LINE
  5
23B
330
559
100
AcDbEntity
  8
_0
  6
Continuous
 62
     7
370
    13
100
AcDbLine
 10
30.50849
 20
-5.504448
 30
0.0
 11
30.485281
 21
-5.489344
 31
0.0
  0
LINE
  5
23C
330
559
100
AcDbEntity
  8
_0
  6
Continuous
 62
     7
370
    13
100
AcDbLine
 10
30.491271
 20
-5.504448
 30
0.0
 11
30.441281
 21
-5.471229
 31
0.0
  0
LINE
  5
23D
330
559
100
AcDbEntity
  8
_0
  6
Continuous
 62
     7
370
    13
100
AcDbLine
 10
30.469844
 20
-5.480292
 30
0.0
 11
30.455917
 21
-5.471229
 31
0.0
  0
LINE
  5
23E
330
559
100
AcDbEntity
  8
_0
  6
Continuous
 62
     7
370
    13
100
AcDbLine
 10
30.688615
 20
-5.480292
 30
0.0
 11
30.522698
 21
-5.362802
 31
0.0
  0
LINE
  5
23F
330
559
100
AcDbEntity
  8
_0
  6
Continuous
 62
     7
370
    13
100
AcDbLine
 10
30.485281
 20
-5.489344
 30
0.0
 11
30.698135
 21
-5.489344
 31
0.0
  0
LINE
  5
240
330
559
100
AcDbEntity
  8
_0
  6
Continuous
 62
     7
370
    13
100
AcDbLine
 10
30.469844
 20
-5.480292
 30
0.0
 11
30.688615
 21
-5.480292
 31
0.0
  0
LINE
  5
241
330
559
100
AcDbEntity
  8
_0
  6
Continuous
 62
     7
370
    13
100
AcDbLine
 10
30.682677
 20
-5.61676
 30
0.0
 11
30.885052
 21
-5.61676
 31
0.0
  0
LINE
  5
242
330
559
100
AcDbEntity
  8
_0
  6
Continuous
 62
     7
370
    13
100
AcDbLine
 10
30.682677
 20
-5.61676
 30
0.0
 11
30.671677
 21
-5.607333
 31
0.0
  0
LINE
  5
243
330
559
100
AcDbEntity
  8
_0
  6
Continuous
 62
     7
370
    13
100
AcDbLine
 10
30.885052
 20
-5.61676
 30
0.0
 11
30.698135
 21
-5.489344
 31
0.0
  0
LINE
  5
244
330
559
100
AcDbEntity
  8
_0
  6
Continuous
 62
     7
370
    13
100
AcDbLine
 10
30.052323
 20
-5.216979
 30
0.0
 11
30.057792
 21
-5.216979
 31
0.0
  0
LINE
  5
245
330
559
100
AcDbEntity
  8
_0
  6
Continuous
 62
     7
370
    13
100
AcDbLine
 10
30.303583
 20
-5.383031
 30
0.0
 11
30.314115
 21
-5.383031
 31
0.0
  0
LINE
  5
246
330
559
100
AcDbEntity
  8
_0
  6
Continuous
 62
     7
370
    13
100
AcDbLine
 10
30.491271
 20
-5.504448
 30
0.0
 11
30.50849
 21
-5.504448
 31
0.0
  0
LINE
  5
247
330
559
100
AcDbEntity
  8
_0
  6
Continuous
 62
     7
370
    13
100
AcDbLine
 10
30.649906
 20
-5.607333
 30
0.0
 11
30.671677
 21
-5.607333
 31
0.0
  0
LINE
  5
248
330
559
100
AcDbEntity
  8
_0
  6
Continuous
 62
     7
370
    13
100
AcDbLine
 10
30.491271
 20
-6.054406
 30
0.0
 11
30.507312
 21
-6.054406
 31
0.0
  0
LINE
  5
249
330
559
100
AcDbEntity
  8
_0
  6
Continuous
 62
     7
370
    13
100
AcDbLine
 10
30.052323
 20
-5.736656
 30
0.0
 11
30.057792
 21
-5.736656
 31
0.0
  0
LINE
  5
24A
330
559
100
AcDbEntity
  8
_0
  6
Continuous
 62
     7
370
    13
100
AcDbLine
 10
30.507312
 20
-6.054406
 30
0.0
 11
30.507312
 21
-5.504448
 31
0.0
  0
LINE
  5
24B
330
559
100
AcDbEntity
  8
_0
  6
Continuous
 62
     7
370
    13
100
AcDbLine
 10
30.313583
 20
-6.5975
 30
0.0
 11
30.313583
 21
-5.383031
 31
0.0
  0
LINE
  5
24C
330
559
100
AcDbEntity
  8
_0
  6
Continuous
 62
     7
370
    13
100
AcDbLine
 10
30.052323
 20
-5.736656
 30
0.0
 11
30.027323
 21
-5.720052
 31
0.0
  0
LINE
  5
24D
330
559
100
AcDbEntity
  8
_0
  6
Continuous
 62
     7
370
    13
100
AcDbLine
 10
30.268583
 20
-5.879458
 30
0.0
 11
30.243594
 21
-5.862854
 31
0.0
  0
LINE
  5
24E
330
559
100
AcDbEntity
  8
_0
  6
Continuous
 62
     7
370
    13
100
AcDbLine
 10
30.491271
 20
-6.054406
 30
0.0
 11
30.460896
 21
-6.034229
 31
0.0
  0
LINE
  5
24F
330
559
100
AcDbEntity
  8
_0
  6
Continuous
 62
     7
370
    13
100
AcDbLine
 10
30.649906
 20
-6.157302
 30
0.0
 11
30.649906
 21
-5.607333
 31
0.0
  0
LINE
  5
250
330
559
100
AcDbEntity
  8
_0
  6
Continuous
 62
     7
370
    13
100
AcDbLine
 10
30.057792
 20
-5.736656
 30
0.0
 11
30.057792
 21
-5.216979
 31
0.0
  0
LINE
  5
251
330
559
100
AcDbEntity
  8
_0
  6
Continuous
 62
     7
370
    13
100
AcDbLine
 10
30.052323
 20
-5.736656
 30
0.0
 11
30.052323
 21
-5.216979
 31
0.0
  0
LINE
  5
252
330
559
100
AcDbEntity
  8
_0
  6
Continuous
 62
     7
370
    13
100
AcDbLine
 10
30.303583
 20
-6.594594
 30
0.0
 11
30.303583
 21
-5.383031
 31
0.0
  0
LINE
  5
253
330
559
100
AcDbEntity
  8
_0
  6
Continuous
 62
     7
370
    13
100
AcDbLine
 10
30.491271
 20
-6.054406
 30
0.0
 11
30.491271
 21
-5.504448
 31
0.0
  0
LINE
  5
254
330
559
100
AcDbEntity
  8
_0
  6
Continuous
 62
     7
370
    13
100
AcDbLine
 10
30.243594
 20
-5.862854
 30
0.0
 11
30.243594
 21
-5.343177
 31
0.0
  0
LINE
  5
255
330
559
100
AcDbEntity
  8
_0
  6
Continuous
 62
     7
370
    13
100
AcDbLine
 10
30.441281
 20
-6.633948
 30
0.0
 11
30.441281
 21
-5.471229
 31
0.0
  0
LINE
  5
256
330
559
100
AcDbEntity
  8
_0
  6
Continuous
 62
     7
370
    13
100
AcDbLine
 10
30.67626
 20
-5.627323
 30
0.0
 11
30.649906
 21
-5.607333
 31
0.0
  0
LINE
  5
257
330
559
100
AcDbEntity
  8
_0
  6
Continuous
 62
     7
370
    13
100
AcDbLine
 10
30.67626
 20
-6.177292
 30
0.0
 11
30.649906
 21
-6.157302
 31
0.0
  0
LINE
  5
258
330
559
100
AcDbEntity
  8
_0
  6
Continuous
 62
     7
370
    13
100
AcDbLine
 10
30.027323
 20
-5.720052
 30
0.0
 11
30.243594
 21
-5.720052
 31
0.0
  0
LINE
  5
259
330
559
100
AcDbEntity
  8
_0
  6
Continuous
 62
     7
370
    13
100
AcDbLine
 10
30.917802
 20
-5.627323
 30
0.0
 11
30.302302
 21
-5.200375
 31
0.0
  0
LINE
  5
25A
330
559
100
AcDbEntity
  8
_0
  6
Continuous
 62
     7
370
    13
100
AcDbLine
 10
30.027323
 20
-5.200375
 30
0.0
 11
30.302302
 21
-5.200375
 31
0.0
  0
LINE
  5
25B
330
559
100
AcDbEntity
  8
_0
  6
Continuous
 62
     7
370
    13
100
AcDbLine
 10
30.67626
 20
-6.177292
 30
0.0
 11
30.917802
 21
-6.177292
 31
0.0
  0
LINE
  5
25C
330
559
100
AcDbEntity
  8
_0
  6
Continuous
 62
     7
370
    13
100
AcDbLine
 10
30.67626
 20
-5.627323
 30
0.0
 11
30.917802
 21
-5.627323
 31
0.0
  0
LINE
  5
25D
330
559
100
AcDbEntity
  8
_0
  6
Continuous
 62
     7
370
    13
100
AcDbLine
 10
30.027323
 20
-5.720052
 30
0.0
 11
30.027323
 21
-5.200375
 31
0.0
  0
LINE
  5
25E
330
559
100
AcDbEntity
  8
_0
  6
Continuous
 62
     7
370
    13
100
AcDbLine
 10
30.268583
 20
-6.582927
 30
0.0
 11
30.268583
 21
-5.359781
 31
0.0
  0
LINE
  5
25F
330
559
100
AcDbEntity
  8
_0
  6
Continuous
 62
     7
370
    13
100
AcDbLine
 10
30.460896
 20
-6.633156
 30
0.0
 11
30.460896
 21
-5.48426
 31
0.0
  0
LINE
  5
260
330
559
100
AcDbEntity
  8
_0
  6
Continuous
 62
     7
370
    13
100
AcDbLine
 10
30.67626
 20
-6.705354
 30
0.0
 11
30.67626
 21
-5.627323
 31
0.0
  0
LINE
  5
261
330
559
100
AcDbEntity
  8
_0
  6
Continuous
 62
     7
370
    13
100
AcDbLine
 10
30.917802
 20
-6.177292
 30
0.0
 11
30.917802
 21
-5.627323
 31
0.0
  0
LINE
  5
284
330
559
100
AcDbEntity
  8
_0
  6
Continuous
 62
     7
370
    13
100
AcDbLine
 10
25.839542
 20
-5.184708
 30
0.0
 11
25.839542
 21
-5.134708
 31
0.0
  0
LINE
  5
285
330
559
100
AcDbEntity
  8
_0
  6
Continuous
 62
     7
370
    13
100
AcDbLine
 10
25.839542
 20
-5.184708
 30
0.0
 11
25.819542
 21
-5.184708
 31
0.0
  0
LINE
  5
286
330
559
100
AcDbEntity
  8
_0
  6
Continuous
 62
     7
370
    13
100
AcDbLine
 10
25.839542
 20
-5.134708
 30
0.0
 11
25.819542
 21
-5.134708
 31
0.0
  0
LINE
  5
287
330
559
100
AcDbEntity
  8
_0
  6
Continuous
 62
     7
370
    13
100
AcDbLine
 10
25.819542
 20
-5.194698
 30
0.0
 11
25.819542
 21
-5.124708
 31
0.0
  0
LINE
  5
288
330
559
100
AcDbEntity
  8
_0
  6
Continuous
 62
     7
370
    13
100
AcDbLine
 10
25.819542
 20
-5.194698
 30
0.0
 11
25.807354
 21
-5.194698
 31
0.0
  0
LINE
  5
289
330
559
100
AcDbEntity
  8
_0
  6
Continuous
 62
     7
370
    13
100
AcDbLine
 10
25.819542
 20
-5.124708
 30
0.0
 11
25.807354
 21
-5.124708
 31
0.0
  0
LWPOLYLINE
  5
28A
330
559
100
AcDbEntity
  8
_0
  6
Continuous
 62
     7
370
    40
100
AcDbPolyline
 90
       10
 70
   128
 43
0.0
 10
25.772375
 20
-4.945271
 10
25.682385
 20
-5.03526
 10
25.682385
 20
-5.05776
 10
25.764385
 20
-5.13976
 10
25.764391
 20
-5.139765
 42
0.573574
 10
25.762686
 20
-5.176345
 10
25.762687
 20
-5.176344
 10
25.682385
 20
-5.256635
 10
25.682385
 20
-5.28025
 10
25.772375
 20
-5.37025
  0
LINE
  5
28E
330
559
100
AcDbEntity
  8
DEFPOINTS
  6
Continuous
 62
     7
370
    13
100
AcDbLine
 10
25.713594
 20
-4.952531
 30
0.0
 11
25.300823
 21
-4.952531
 31
0.0
  0
SOLID
  5
28F
330
559
100
AcDbEntity
  8
DEFPOINTS
  6
Continuous
 62
     7
370
    13
100
AcDbTrace
 10
25.359156
 20
-5.002531
 30
0.0
 11
25.34249
 21
-5.002531
 31
0.0
 12
25.350823
 22
-4.952531
 32
0.0
 13
25.350823
 23
-4.952531
 33
0.0
  0
LINE
  5
291
330
559
100
AcDbEntity
  8
DEFPOINTS
  6
Continuous
 62
     7
370
    13
100
AcDbLine
 10
25.350823
 20
-5.002531
 30
0.0
 11
25.350823
 21
-5.888927
 31
0.0
  0
SOLID
  5
292
330
559
100
AcDbEntity
  8
DEFPOINTS
  6
Continuous
 62
     7
370
    13
100
AcDbTrace
 10
25.359156
 20
-5.888927
 30
0.0
 11
25.34249
 21
-5.888927
 31
0.0
 12
25.350823
 22
-5.938917
 32
0.0
 13
25.350823
 23
-5.938917
 33
0.0
  0
LINE
  5
293
330
559
100
AcDbEntity
  8
_0
  6
Continuous
 62
     7
370
    13
100
AcDbLine
 10
25.259031
 20
-5.938542
 30
0.0
 11
25.772375
 21
-5.938542
 31
0.0
  0
LINE
  5
294
330
559
100
AcDbEntity
  8
_0
  6
Continuous
 62
     7
370
    13
100
AcDbLine
 10
26.027365
 20
-5.937958
 30
0.0
 11
26.351437
 21
-5.937958
 31
0.0
  0
CIRCLE
  5
295
330
559
100
AcDbEntity
  8
DEFPOINTS
  6
Continuous
 62
     7
370
    13
100
AcDbCircle
 10
24.520844
 20
-5.166314
 30
0.0
 40
0.024998399999997
  0
LINE
  5
296
330
559
100
AcDbEntity
  8
_0
  6
DGN Style 2
 62
     7
370
    13
100
AcDbLine
 10
24.575833
 20
-6.329917
 30
0.0
 11
24.575833
 21
-4.938021
 31
0.0
  0
LINE
  5
297
330
559
100
AcDbEntity
  8
_0
  6
DGN Style 2
 62
     7
370
    13
100
AcDbLine
 10
24.450844
 20
-6.738521
 30
0.0
 11
24.451052
 21
-6.481833
 31
0.0
  0
LINE
  5
298
330
559
100
AcDbEntity
  8
_0
  6
DGN Style 2
 62
     7
370
    13
100
AcDbLine
 10
24.575833
 20
-6.737906
 30
0.0
 11
24.575833
 21
-6.484427
 31
0.0
  0
LINE
  5
299
330
559
100
AcDbEntity
  8
DEFPOINTS
  6
Continuous
 62
     7
370
    13
100
AcDbLine
 10
24.610833
 20
-6.340979
 30
0.0
 11
24.610833
 21
-4.938021
 31
0.0
  0
LINE
  5
29A
330
559
100
AcDbEntity
  8
_0
  6
Continuous
 62
     7
370
    13
100
AcDbLine
 10
24.415844
 20
-6.7385
 30
0.0
 11
24.610833
 21
-6.7385
 31
0.0
  0
LINE
  5
29B
330
559
100
AcDbEntity
  8
_0
  6
Continuous
 62
     7
370
    13
100
AcDbLine
 10
24.610833
 20
-6.737906
 30
0.0
 11
24.610833
 21
-6.493781
 31
0.0
  0
LINE
  5
29C
330
559
100
AcDbEntity
  8
_0
  6
Continuous
 62
     7
370
    13
100
AcDbLine
 10
24.415844
 20
-6.7385
 30
0.0
 11
24.416052
 21
-6.487073
 31
0.0
  0
LINE
  5
29D
330
559
100
AcDbEntity
  8
_0
  6
Continuous
 62
     7
370
    13
100
AcDbLine
 10
24.415844
 20
-6.737906
 30
0.0
 11
24.610833
 21
-6.737906
 31
0.0
  0
LINE
  5
29E
330
559
100
AcDbEntity
  8
_0
  6
Continuous
 62
     7
370
    13
100
AcDbLine
 10
24.415844
 20
-6.7385
 30
0.0
 11
24.415844
 21
-6.487125
 31
0.0
  0
LINE
  5
29F
330
559
100
AcDbEntity
  8
_0
  6
Continuous
 62
     7
370
    13
100
AcDbLine
 10
24.610833
 20
-6.333781
 30
0.0
 11
24.610833
 21
-4.938615
 31
0.0
  0
LINE
  5
2A0
330
559
100
AcDbEntity
  8
_0
  6
Continuous
 62
     7
370
    13
100
AcDbLine
 10
24.610833
 20
-6.7385
 30
0.0
 11
24.610833
 21
-6.487125
 31
0.0
  0
LWPOLYLINE
  5
2A1
330
559
100
AcDbEntity
  8
_0
  6
Continuous
 62
     7
370
     0
100
AcDbPolyline
 90
       53
 70
   128
 43
0.0
 10
24.415844
 20
-6.487125
 10
24.424625
 20
-6.48474
 10
24.4325
 20
-6.483385
 10
24.439583
 20
-6.482854
 10
24.445958
 20
-6.482937
 10
24.451719
 20
-6.483448
 10
24.456979
 20
-6.484156
 10
24.461813
 20
-6.484865
 10
24.466333
 20
-6.485365
 10
24.470635
 20
-6.48551
 10
24.474771
 20
-6.485333
 10
24.478792
 20
-6.484948
 10
24.48276
 20
-6.484458
 10
24.456729
 20
-6.483948
 10
24.46075
 20
-6.483531
 10
24.464885
 20
-6.483312
 10
24.469177
 20
-6.483385
 10
24.473677
 20
-6.483812
 10
24.478333
 20
-6.484542
 10
24.483094
 20
-6.485479
 10
24.487906
 20
-6.486552
 10
24.492687
 20
-6.487635
 10
24.497396
 20
-6.488677
 10
24.501969
 20
-6.489562
 10
24.506354
 20
-6.490208
 10
24.51049
 20
-6.490542
 10
24.514406
 20
-6.490594
 10
24.543135
 20
-6.490406
 10
24.546708
 20
-6.49001
 10
24.550156
 20
-6.489469
 10
24.5535
 20
-6.488812
 10
24.556781
 20
-6.488083
 10
24.560042
 20
-6.487344
 10
24.563281
 20
-6.486615
 10
24.56651
 20
-6.485937
 10
24.569688
 20
-6.485323
 10
24.572802
 20
-6.484812
 10
24.575833
 20
-6.484427
 10
24.578771
 20
-6.484187
 10
24.581563
 20
-6.484125
 10
24.584219
 20
-6.48426
 10
24.586708
 20
-6.484615
 10
24.589063
 20
-6.485135
 10
24.591313
 20
-6.48576
 10
24.59349
 20
-6.486438
 10
24.595625
 20
-6.487104
 10
24.59774
 20
-6.487698
 10
24.599885
 20
-6.488167
 10
24.602083
 20
-6.488448
 10
24.604354
 20
-6.48849
 10
24.606698
 20
-6.488365
 10
24.609104
 20
-6.488115
 10
24.610833
 20
-6.487896
  0
LWPOLYLINE
  5
2A2
330
559
100
AcDbEntity
  8
_0
  6
Continuous
 62
     7
370
     0
100
AcDbPolyline
 90
       53
 70
   128
 43
0.0
 10
24.415844
 20
-6.332615
 10
24.424625
 20
-6.330229
 10
24.4325
 20
-6.328865
 10
24.439583
 20
-6.328344
 10
24.445958
 20
-6.328427
 10
24.451719
 20
-6.328937
 10
24.456979
 20
-6.329635
 10
24.461813
 20
-6.330354
 10
24.466333
 20
-6.330854
 10
24.470635
 20
-6.33099
 10
24.474771
 20
-6.330823
 10
24.478792
 20
-6.330437
 10
24.48276
 20
-6.329948
 10
24.456729
 20
-6.329438
 10
24.46075
 20
-6.329031
 10
24.464885
 20
-6.328802
 10
24.469177
 20
-6.328865
 10
24.473677
 20
-6.329302
 10
24.478333
 20
-6.330031
 10
24.483094
 20
-6.330979
 10
24.487906
 20
-6.332042
 10
24.492687
 20
-6.333125
 10
24.497396
 20
-6.334167
 10
24.501969
 20
-6.335052
 10
24.506354
 20
-6.335698
 10
24.51049
 20
-6.336031
 10
24.514406
 20
-6.336083
 10
24.543135
 20
-6.335896
 10
24.546708
 20
-6.3355
 10
24.550156
 20
-6.334958
 10
24.5535
 20
-6.334302
 10
24.556781
 20
-6.333583
 10
24.560042
 20
-6.332833
 10
24.563281
 20
-6.332104
 10
24.56651
 20
-6.331427
 10
24.569688
 20
-6.330812
 10
24.572802
 20
-6.330302
 10
24.575833
 20
-6.329917
 10
24.578771
 20
-6.329677
 10
24.581563
 20
-6.329615
 10
24.584219
 20
-6.32975
 10
24.586708
 20
-6.330104
 10
24.589063
 20
-6.330625
 10
24.591313
 20
-6.33125
 10
24.59349
 20
-6.331927
 10
24.595625
 20
-6.332594
 10
24.59774
 20
-6.333188
 10
24.599885
 20
-6.333656
 10
24.602083
 20
-6.333938
 10
24.604354
 20
-6.33399
 10
24.606698
 20
-6.333854
 10
24.609104
 20
-6.333604
 10
24.610833
 20
-6.333385
  0
LINE
  5
2A3
330
559
100
AcDbEntity
  8
_0
  6
DGN Style 2
 62
     7
370
    13
100
AcDbLine
 10
24.450854
 20
-6.328854
 30
0.0
 11
24.450854
 21
-4.938615
 31
0.0
  0
LINE
  5
2A4
330
559
100
AcDbEntity
  8
_0
  6
Continuous
 62
     7
370
    13
100
AcDbLine
 10
24.415844
 20
-6.332615
 30
0.0
 11
24.415844
 21
-4.938615
 31
0.0
  0
LINE
  5
2A5
330
559
100
AcDbEntity
  8
_0
  6
Continuous
 62
     7
370
    13
100
AcDbLine
 10
24.415844
 20
-4.938615
 30
0.0
 11
24.610833
 21
-4.938615
 31
0.0
  0
LINE
  5
2A6
330
559
100
AcDbEntity
  8
_0
  6
Continuous
 62
     7
370
    13
100
AcDbLine
 10
25.772375
 20
-4.938615
 30
0.0
 11
26.027365
 21
-4.938615
 31
0.0
  0
LINE
  5
2A7
330
559
100
AcDbEntity
  8
_0
  6
Continuous
 62
     7
370
    13
100
AcDbLine
 10
26.074146
 20
-4.09099
 30
0.0
 11
26.061958
 21
-4.09099
 31
0.0
  0
LINE
  5
2A8
330
559
100
AcDbEntity
  8
_0
  6
Continuous
 62
     7
370
    13
100
AcDbLine
 10
26.074146
 20
-4.16099
 30
0.0
 11
26.061958
 21
-4.16099
 31
0.0
  0
LINE
  5
2A9
330
559
100
AcDbEntity
  8
_0
  6
Continuous
 62
     7
370
    13
100
AcDbLine
 10
26.074146
 20
-4.16099
 30
0.0
 11
26.074146
 21
-4.09099
 31
0.0
  0
LINE
  5
2AA
330
559
100
AcDbEntity
  8
_0
  6
Continuous
 62
     7
370
    13
100
AcDbLine
 10
26.094146
 20
-4.10099
 30
0.0
 11
26.074146
 21
-4.10099
 31
0.0
  0
LINE
  5
2AB
330
559
100
AcDbEntity
  8
_0
  6
Continuous
 62
     7
370
    13
100
AcDbLine
 10
26.094146
 20
-4.15099
 30
0.0
 11
26.074146
 21
-4.15099
 31
0.0
  0
LINE
  5
2AC
330
559
100
AcDbEntity
  8
_0
  6
Continuous
 62
     7
370
    13
100
AcDbLine
 10
26.094146
 20
-4.15099
 30
0.0
 11
26.094146
 21
-4.10099
 31
0.0
  0
LINE
  5
2AD
330
559
100
AcDbEntity
  8
_0
  6
Continuous
 62
     7
370
    13
100
AcDbLine
 10
32.125479
 20
-4.273573
 30
0.0
 11
32.320479
 21
-4.273573
 31
0.0
  0
LINE
  5
2AE
330
559
100
AcDbEntity
  8
_0
  6
Continuous
 62
     7
370
    13
100
AcDbLine
 10
32.125479
 20
-4.498552
 30
0.0
 11
32.14549
 21
-4.498552
 31
0.0
  0
LINE
  5
2AF
330
559
100
AcDbEntity
  8
_0
  6
Continuous
 62
     7
370
    13
100
AcDbLine
 10
32.380469
 20
-4.498552
 30
0.0
 11
32.400469
 21
-4.498552
 31
0.0
  0
LINE
  5
2B0
330
559
100
AcDbEntity
  8
_0
  6
Continuous
 62
     7
370
    13
100
AcDbLine
 10
32.380469
 20
-4.273573
 30
0.0
 11
32.595458
 21
-4.273573
 31
0.0
  0
ARC
  5
2B1
330
559
100
AcDbEntity
  8
_0
  6
Continuous
 62
     7
370
    13
100
AcDbCircle
 10
32.595456
 20
-4.468555
 30
0.0
 40
0.02999808
100
AcDbArc
 50
270.0
 51
0.0
  0
ARC
  5
2B2
330
559
100
AcDbEntity
  8
_0
  6
Continuous
 62
     7
370
    13
100
AcDbCircle
 10
32.38047
 20
-4.468555
 30
0.0
 40
0.02999808
100
AcDbArc
 50
180.0
 51
270.0
  0
ARC
  5
2B3
330
559
100
AcDbEntity
  8
_0
  6
Continuous
 62
     7
370
    13
100
AcDbCircle
 10
32.320473
 20
-4.468555
 30
0.0
 40
0.02999808
100
AcDbArc
 50
270.0
 51
0.0
  0
ARC
  5
2B4
330
559
100
AcDbEntity
  8
_0
  6
Continuous
 62
     7
370
    13
100
AcDbCircle
 10
32.125486
 20
-4.468555
 30
0.0
 40
0.02999808
100
AcDbArc
 50
180.0
 51
270.0
  0
ARC
  5
2B5
330
559
100
AcDbEntity
  8
_0
  6
Continuous
 62
     7
370
    13
100
AcDbCircle
 10
32.06549
 20
-4.468555
 30
0.0
 40
0.02999808
100
AcDbArc
 50
270.0
 51
0.0
  0
ARC
  5
2B6
330
559
100
AcDbEntity
  8
_0
  6
Continuous
 62
     7
370
    13
100
AcDbCircle
 10
31.850504
 20
-4.468555
 30
0.0
 40
0.02999808
100
AcDbArc
 50
180.0
 51
270.0
  0
ARC
  5
2B7
330
559
100
AcDbEntity
  8
_0
  6
Continuous
 62
     7
370
    13
100
AcDbCircle
 10
31.850504
 20
-4.303566
 30
0.0
 40
0.02999808
100
AcDbArc
 50
90.0
 51
180.0
  0
ARC
  5
2B8
330
559
100
AcDbEntity
  8
_0
  6
Continuous
 62
     7
370
    13
100
AcDbCircle
 10
32.06549
 20
-4.303566
 30
0.0
 40
0.02999808
100
AcDbArc
 50
0.0
 51
90.0
  0
ARC
  5
2B9
330
559
100
AcDbEntity
  8
_0
  6
Continuous
 62
     7
370
    13
100
AcDbCircle
 10
32.125486
 20
-4.303566
 30
0.0
 40
0.02999808
100
AcDbArc
 50
90.0
 51
180.0
  0
ARC
  5
2BA
330
559
100
AcDbEntity
  8
_0
  6
Continuous
 62
     7
370
    13
100
AcDbCircle
 10
32.320473
 20
-4.303566
 30
0.0
 40
0.02999808
100
AcDbArc
 50
0.0
 51
90.0
  0
ARC
  5
2BB
330
559
100
AcDbEntity
  8
_0
  6
Continuous
 62
     7
370
    13
100
AcDbCircle
 10
32.38047
 20
-4.303566
 30
0.0
 40
0.02999808
100
AcDbArc
 50
90.0
 51
180.0
  0
ARC
  5
2BC
330
559
100
AcDbEntity
  8
_0
  6
Continuous
 62
     7
370
    13
100
AcDbCircle
 10
32.595456
 20
-4.303566
 30
0.0
 40
0.02999808
100
AcDbArc
 50
0.0
 51
90.0
  0
ARC
  5
2BD
330
559
100
AcDbEntity
  8
_0
  6
Continuous
 62
     7
370
    13
100
AcDbCircle
 10
32.320473
 20
-4.468555
 30
0.0
 40
0.00999936
100
AcDbArc
 50
270.0
 51
0.0
  0
ARC
  5
2BE
330
559
100
AcDbEntity
  8
_0
  6
Continuous
 62
     7
370
    13
100
AcDbCircle
 10
32.38047
 20
-4.468555
 30
0.0
 40
0.00999936
100
AcDbArc
 50
180.0
 51
270.0
  0
ARC
  5
2BF
330
559
100
AcDbEntity
  8
_0
  6
Continuous
 62
     7
370
    13
100
AcDbCircle
 10
32.595456
 20
-4.468555
 30
0.0
 40
0.00999936
100
AcDbArc
 50
270.0
 51
0.0
  0
ARC
  5
2C0
330
559
100
AcDbEntity
  8
_0
  6
Continuous
 62
     7
370
    13
100
AcDbCircle
 10
32.595456
 20
-4.303566
 30
0.0
 40
0.00999936
100
AcDbArc
 50
0.0
 51
90.0
  0
ARC
  5
2C1
330
559
100
AcDbEntity
  8
_0
  6
Continuous
 62
     7
370
    13
100
AcDbCircle
 10
32.38047
 20
-4.303566
 30
0.0
 40
0.00999936
100
AcDbArc
 50
90.0
 51
180.0
  0
ARC
  5
2C2
330
559
100
AcDbEntity
  8
_0
  6
Continuous
 62
     7
370
    13
100
AcDbCircle
 10
32.320473
 20
-4.303566
 30
0.0
 40
0.00999936
100
AcDbArc
 50
0.0
 51
90.0
  0
ARC
  5
2C3
330
559
100
AcDbEntity
  8
_0
  6
Continuous
 62
     7
370
    13
100
AcDbCircle
 10
32.125486
 20
-4.303566
 30
0.0
 40
0.00999936
100
AcDbArc
 50
90.0
 51
180.0
  0
ARC
  5
2C4
330
559
100
AcDbEntity
  8
_0
  6
Continuous
 62
     7
370
    13
100
AcDbCircle
 10
32.125486
 20
-4.468555
 30
0.0
 40
0.00999936
100
AcDbArc
 50
180.0
 51
270.0
  0
ARC
  5
2C5
330
559
100
AcDbEntity
  8
_0
  6
Continuous
 62
     7
370
    13
100
AcDbCircle
 10
32.06549
 20
-4.468555
 30
0.0
 40
0.00999936
100
AcDbArc
 50
270.0
 51
0.0
  0
ARC
  5
2C6
330
559
100
AcDbEntity
  8
_0
  6
Continuous
 62
     7
370
    13
100
AcDbCircle
 10
32.06549
 20
-4.303566
 30
0.0
 40
0.00999936
100
AcDbArc
 50
0.0
 51
90.0
  0
ARC
  5
2C7
330
559
100
AcDbEntity
  8
_0
  6
Continuous
 62
     7
370
    13
100
AcDbCircle
 10
31.850504
 20
-4.303566
 30
0.0
 40
0.00999936
100
AcDbArc
 50
90.0
 51
180.0
  0
ARC
  5
2C8
330
559
100
AcDbEntity
  8
_0
  6
Continuous
 62
     7
370
    13
100
AcDbCircle
 10
31.850504
 20
-4.468555
 30
0.0
 40
0.00999936
100
AcDbArc
 50
180.0
 51
270.0
  0
LINE
  5
2C9
330
559
100
AcDbEntity
  8
_0
  6
Continuous
 62
     7
370
    13
100
AcDbLine
 10
29.170719
 20
-4.136115
 30
0.0
 11
29.365698
 21
-4.136115
 31
0.0
  0
LINE
  5
2CA
330
559
100
AcDbEntity
  8
_0
  6
Continuous
 62
     7
370
    13
100
AcDbLine
 10
29.170719
 20
-4.361094
 30
0.0
 11
29.190708
 21
-4.361094
 31
0.0
  0
ARC
  5
2CB
330
559
100
AcDbEntity
  8
_0
  6
Continuous
 62
     7
370
    13
100
AcDbCircle
 10
28.895732
 20
-4.331101
 30
0.0
 40
0.02999808
100
AcDbArc
 50
180.0
 51
270.0
  0
ARC
  5
2CC
330
559
100
AcDbEntity
  8
_0
  6
Continuous
 62
     7
370
    13
100
AcDbCircle
 10
29.110718
 20
-4.331101
 30
0.0
 40
0.02999808
100
AcDbArc
 50
270.0
 51
0.0
  0
ARC
  5
2CD
330
559
100
AcDbEntity
  8
_0
  6
Continuous
 62
     7
370
    13
100
AcDbCircle
 10
29.170714
 20
-4.331101
 30
0.0
 40
0.02999808
100
AcDbArc
 50
180.0
 51
270.0
  0
ARC
  5
2CE
330
559
100
AcDbEntity
  8
_0
  6
Continuous
 62
     7
370
    13
100
AcDbCircle
 10
29.365702
 20
-4.331101
 30
0.0
 40
0.02999808
100
AcDbArc
 50
270.0
 51
0.0
  0
ARC
  5
2CF
330
559
100
AcDbEntity
  8
_0
  6
Continuous
 62
     7
370
    13
100
AcDbCircle
 10
29.365702
 20
-4.166112
 30
0.0
 40
0.02999808
100
AcDbArc
 50
0.0
 51
90.0
  0
ARC
  5
2D0
330
559
100
AcDbEntity
  8
_0
  6
Continuous
 62
     7
370
    13
100
AcDbCircle
 10
29.170714
 20
-4.166112
 30
0.0
 40
0.02999808
100
AcDbArc
 50
90.0
 51
180.0
  0
ARC
  5
2D1
330
559
100
AcDbEntity
  8
_0
  6
Continuous
 62
     7
370
    13
100
AcDbCircle
 10
29.110718
 20
-4.166112
 30
0.0
 40
0.02999808
100
AcDbArc
 50
0.0
 51
90.0
  0
ARC
  5
2D2
330
559
100
AcDbEntity
  8
_0
  6
Continuous
 62
     7
370
    13
100
AcDbCircle
 10
28.895732
 20
-4.166112
 30
0.0
 40
0.02999808
100
AcDbArc
 50
90.0
 51
180.0
  0
ARC
  5
2D3
330
559
100
AcDbEntity
  8
_0
  6
Continuous
 62
     7
370
    13
100
AcDbCircle
 10
29.365702
 20
-4.166112
 30
0.0
 40
0.00999936
100
AcDbArc
 50
0.0
 51
90.0
  0
ARC
  5
2D4
330
559
100
AcDbEntity
  8
_0
  6
Continuous
 62
     7
370
    13
100
AcDbCircle
 10
29.365702
 20
-4.331101
 30
0.0
 40
0.00999936
100
AcDbArc
 50
270.0
 51
0.0
  0
ARC
  5
2D5
330
559
100
AcDbEntity
  8
_0
  6
Continuous
 62
     7
370
    13
100
AcDbCircle
 10
29.170714
 20
-4.331101
 30
0.0
 40
0.00999936
100
AcDbArc
 50
180.0
 51
270.0
  0
ARC
  5
2D6
330
559
100
AcDbEntity
  8
_0
  6
Continuous
 62
     7
370
    13
100
AcDbCircle
 10
29.170714
 20
-4.166112
 30
0.0
 40
0.00999936
100
AcDbArc
 50
90.0
 51
180.0
  0
ARC
  5
2D7
330
559
100
AcDbEntity
  8
_0
  6
Continuous
 62
     7
370
    13
100
AcDbCircle
 10
29.110718
 20
-4.331101
 30
0.0
 40
0.00999936
100
AcDbArc
 50
270.0
 51
0.0
  0
ARC
  5
2D8
330
559
100
AcDbEntity
  8
_0
  6
Continuous
 62
     7
370
    13
100
AcDbCircle
 10
28.895732
 20
-4.331101
 30
0.0
 40
0.00999936
100
AcDbArc
 50
180.0
 51
270.0
  0
ARC
  5
2D9
330
559
100
AcDbEntity
  8
_0
  6
Continuous
 62
     7
370
    13
100
AcDbCircle
 10
28.895732
 20
-4.166112
 30
0.0
 40
0.00999936
100
AcDbArc
 50
90.0
 51
180.0
  0
ARC
  5
2DA
330
559
100
AcDbEntity
  8
_0
  6
Continuous
 62
     7
370
    13
100
AcDbCircle
 10
29.110718
 20
-4.166112
 30
0.0
 40
0.00999936
100
AcDbArc
 50
0.0
 51
90.0
  0
ARC
  5
2DB
330
559
100
AcDbEntity
  8
_0
  6
Continuous
 62
     7
370
    13
100
AcDbCircle
 10
26.287505
 20
-4.035793
 30
0.0
 40
0.02999808
100
AcDbArc
 50
0.0
 51
90.0
  0
ARC
  5
2DC
330
559
100
AcDbEntity
  8
_0
  6
Continuous
 62
     7
370
    13
100
AcDbCircle
 10
26.072518
 20
-4.035793
 30
0.0
 40
0.02999808
100
AcDbArc
 50
90.0
 51
180.0
  0
ARC
  5
2DD
330
559
100
AcDbEntity
  8
_0
  6
Continuous
 62
     7
370
    13
100
AcDbCircle
 10
26.072518
 20
-4.200782
 30
0.0
 40
0.02999808
100
AcDbArc
 50
180.0
 51
270.0
  0
ARC
  5
2DE
330
559
100
AcDbEntity
  8
_0
  6
Continuous
 62
     7
370
    13
100
AcDbCircle
 10
26.287505
 20
-4.200782
 30
0.0
 40
0.02999808
100
AcDbArc
 50
270.0
 51
0.0
  0
ARC
  5
2DF
330
559
100
AcDbEntity
  8
_0
  6
Continuous
 62
     7
370
    13
100
AcDbCircle
 10
26.072518
 20
-4.200782
 30
0.0
 40
0.00999936
100
AcDbArc
 50
180.0
 51
270.0
  0
ARC
  5
2E0
330
559
100
AcDbEntity
  8
_0
  6
Continuous
 62
     7
370
    13
100
AcDbCircle
 10
26.287505
 20
-4.200782
 30
0.0
 40
0.00999936
100
AcDbArc
 50
270.0
 51
0.0
  0
ARC
  5
2E1
330
559
100
AcDbEntity
  8
_0
  6
Continuous
 62
     7
370
    13
100
AcDbCircle
 10
26.287505
 20
-4.035793
 30
0.0
 40
0.00999936
100
AcDbArc
 50
0.0
 51
90.0
  0
ARC
  5
2E2
330
559
100
AcDbEntity
  8
_0
  6
Continuous
 62
     7
370
    13
100
AcDbCircle
 10
26.072518
 20
-4.035793
 30
0.0
 40
0.00999936
100
AcDbArc
 50
90.0
 51
180.0
  0
ARC
  5
2E3
330
559
100
AcDbEntity
  8
_0
  6
Continuous
 62
     7
370
    13
100
AcDbCircle
 10
26.063519
 20
-4.026794
 30
0.0
 40
0.000999936
100
AcDbArc
 50
90.0
 51
180.0
  0
LINE
  5
2E4
330
559
100
AcDbEntity
  8
_0
  6
Continuous
 62
     7
370
    13
100
AcDbLine
 10
26.28751
 20
-4.005792
 30
0.0
 11
26.072521
 21
-4.005792
 31
0.0
  0
LINE
  5
2E5
330
559
100
AcDbEntity
  8
_0
  6
Continuous
 62
     7
370
    13
100
AcDbLine
 10
26.09251
 20
-4.230781
 30
0.0
 11
26.09251
 21
-4.210781
 31
0.0
  0
LINE
  5
2E6
330
559
100
AcDbEntity
  8
_0
  6
DGN Style 2
 62
     7
370
    13
100
AcDbLine
 10
26.017521
 20
-4.561354
 30
0.0
 11
26.017521
 21
-3.730979
 31
0.0
  0
LINE
  5
2E7
330
559
100
AcDbEntity
  8
_0
  6
Continuous
 62
     7
370
    13
100
AcDbLine
 10
25.927531
 20
-4.561354
 30
0.0
 11
25.927531
 21
-3.730979
 31
0.0
  0
LINE
  5
2E8
330
559
100
AcDbEntity
  8
_0
  6
Continuous
 62
     7
370
    13
100
AcDbLine
 10
26.004667
 20
-3.730979
 30
0.0
 11
25.984937
 21
-3.714406
 31
0.0
  0
LINE
  5
2E9
330
559
100
AcDbEntity
  8
_0
  6
Continuous
 62
     7
370
    13
100
AcDbLine
 10
25.984937
 20
-3.714406
 30
0.0
 11
26.004667
 21
-3.770917
 31
0.0
  0
LINE
  5
2EA
330
559
100
AcDbEntity
  8
_0
  6
Continuous
 62
     7
370
    13
100
AcDbLine
 10
26.004667
 20
-3.770917
 30
0.0
 11
25.959312
 21
-3.693417
 31
0.0
  0
LINE
  5
2EB
330
559
100
AcDbEntity
  8
_0
  6
Continuous
 62
     7
370
    13
100
AcDbLine
 10
25.959312
 20
-3.693417
 30
0.0
 11
25.967198
 21
-3.746698
 31
0.0
  0
LINE
  5
2EC
330
559
100
AcDbEntity
  8
_0
  6
Continuous
 62
     7
370
    13
100
AcDbLine
 10
25.967198
 20
-3.746698
 30
0.0
 11
25.949448
 21
-3.730979
 31
0.0
  0
LINE
  5
2ED
330
559
100
AcDbEntity
  8
_0
  6
Continuous
 62
     7
370
    13
100
AcDbLine
 10
26.004667
 20
-3.730979
 30
0.0
 11
26.167281
 21
-3.730979
 31
0.0
  0
LINE
  5
2EE
330
559
100
AcDbEntity
  8
_0
  6
Continuous
 62
     7
370
    13
100
AcDbLine
 10
25.809208
 20
-3.730979
 30
0.0
 11
25.949448
 21
-3.730979
 31
0.0
  0
LINE
  5
2EF
330
559
100
AcDbEntity
  8
_0
  6
Continuous
 62
     7
370
    13
100
AcDbLine
 10
25.809208
 20
-4.561354
 30
0.0
 11
25.949448
 21
-4.561354
 31
0.0
  0
LINE
  5
2F0
330
559
100
AcDbEntity
  8
_0
  6
Continuous
 62
     7
370
    13
100
AcDbLine
 10
26.004667
 20
-4.561354
 30
0.0
 11
26.167281
 21
-4.561354
 31
0.0
  0
LINE
  5
2F1
330
559
100
AcDbEntity
  8
_0
  6
Continuous
 62
     7
370
    13
100
AcDbLine
 10
25.967198
 20
-4.577073
 30
0.0
 11
25.949448
 21
-4.561354
 31
0.0
  0
LINE
  5
2F2
330
559
100
AcDbEntity
  8
_0
  6
Continuous
 62
     7
370
    13
100
AcDbLine
 10
25.959312
 20
-4.523792
 30
0.0
 11
25.967198
 21
-4.577073
 31
0.0
  0
LINE
  5
2F3
330
559
100
AcDbEntity
  8
_0
  6
Continuous
 62
     7
370
    13
100
AcDbLine
 10
26.004667
 20
-4.601292
 30
0.0
 11
25.959312
 21
-4.523792
 31
0.0
  0
LINE
  5
2F4
330
559
100
AcDbEntity
  8
_0
  6
Continuous
 62
     7
370
    13
100
AcDbLine
 10
25.984937
 20
-4.544781
 30
0.0
 11
26.004667
 21
-4.601292
 31
0.0
  0
LINE
  5
2F5
330
559
100
AcDbEntity
  8
_0
  6
Continuous
 62
     7
370
    13
100
AcDbLine
 10
26.004667
 20
-4.561354
 30
0.0
 11
25.984937
 21
-4.544781
 31
0.0
  0
LINE
  5
2F6
330
559
100
AcDbEntity
  8
_0
  6
Continuous
 62
     7
370
    13
100
AcDbLine
 10
26.2675
 20
-4.210781
 30
0.0
 11
26.28751
 21
-4.210781
 31
0.0
  0
LINE
  5
2F7
330
559
100
AcDbEntity
  8
_0
  6
Continuous
 62
     7
370
    13
100
AcDbLine
 10
26.2675
 20
-4.230781
 30
0.0
 11
26.28751
 21
-4.230781
 31
0.0
  0
LINE
  5
2F8
330
559
100
AcDbEntity
  8
_0
  6
Continuous
 62
     7
370
    13
100
AcDbLine
 10
26.2675
 20
-4.230781
 30
0.0
 11
26.2675
 21
-4.210781
 31
0.0
  0
LINE
  5
2F9
330
559
100
AcDbEntity
  8
_0
  6
Continuous
 62
     7
370
    13
100
AcDbLine
 10
26.062521
 20
-4.200781
 30
0.0
 11
26.062521
 21
-4.035792
 31
0.0
  0
LINE
  5
2FA
330
559
100
AcDbEntity
  8
_0
  6
Continuous
 62
     7
370
    13
100
AcDbLine
 10
26.2975
 20
-4.200781
 30
0.0
 11
26.2975
 21
-4.035792
 31
0.0
  0
LINE
  5
2FB
330
559
100
AcDbEntity
  8
_0
  6
Continuous
 62
     7
370
    13
100
AcDbLine
 10
26.072521
 20
-4.025792
 30
0.0
 11
26.28751
 21
-4.025792
 31
0.0
  0
LINE
  5
2FC
330
559
100
AcDbEntity
  8
_0
  6
Continuous
 62
     7
370
    13
100
AcDbLine
 10
26.072521
 20
-4.210781
 30
0.0
 11
26.09251
 21
-4.210781
 31
0.0
  0
LINE
  5
2FD
330
559
100
AcDbEntity
  8
_0
  6
Continuous
 62
     7
370
    13
100
AcDbLine
 10
26.072521
 20
-4.230781
 30
0.0
 11
26.09251
 21
-4.230781
 31
0.0
  0
LINE
  5
2FE
330
559
100
AcDbEntity
  8
_0
  6
Continuous
 62
     7
370
    13
100
AcDbLine
 10
26.3175
 20
-4.200781
 30
0.0
 11
26.3175
 21
-4.035792
 31
0.0
  0
LINE
  5
2FF
330
559
100
AcDbEntity
  8
_0
  6
Continuous
 62
     7
370
    13
100
AcDbLine
 10
26.042521
 20
-4.561354
 30
0.0
 11
26.042521
 21
-3.730979
 31
0.0
  0
LINE
  5
300
330
559
100
AcDbEntity
  8
REF
  6
Continuous
 62
     7
370
    13
100
AcDbLine
 10
25.82849
 20
-6.599917
 30
0.0
 11
25.58025
 21
-6.457177
 31
0.0
  0
LINE
  5
301
330
559
100
AcDbEntity
  8
REF
  6
Continuous
 62
     7
370
    13
100
AcDbLine
 10
25.58025
 20
-6.457177
 30
0.0
 11
25.536521
 21
-6.457177
 31
0.0
  0
SOLID
  5
305
330
559
100
AcDbEntity
  8
REF
  6
Continuous
 62
     7
370
    13
100
AcDbTrace
 10
25.832635
 20
-6.592687
 30
0.0
 11
25.824333
 21
-6.607135
 31
0.0
 12
25.871823
 22
-6.624833
 32
0.0
 13
25.871823
 23
-6.624833
 33
0.0
  0
CIRCLE
  5
306
330
559
100
AcDbEntity
  8
_0
  6
Continuous
 62
     7
370
    13
100
AcDbCircle
 10
25.907378
 20
-6.618884
 30
0.0
 40
0.024998399999997
  0
LINE
  5
307
330
559
100
AcDbEntity
  8
_0
  6
Continuous
 62
     7
370
    13
100
AcDbLine
 10
25.772375
 20
-6.332615
 30
0.0
 11
25.772375
 21
-4.938615
 31
0.0
  0
LINE
  5
308
330
559
100
AcDbEntity
  8
_0
  6
Continuous
 62
     7
370
    13
100
AcDbLine
 10
25.807385
 20
-6.328854
 30
0.0
 11
25.807385
 21
-4.938615
 31
0.0
  0
LWPOLYLINE
  5
309
330
559
100
AcDbEntity
  8
_0
  6
Continuous
 62
     7
370
     0
100
AcDbPolyline
 90
       53
 70
   128
 43
0.0
 10
25.772375
 20
-6.332615
 10
25.781156
 20
-6.330229
 10
25.789042
 20
-6.328865
 10
25.796115
 20
-6.328344
 10
25.80249
 20
-6.328427
 10
25.80826
 20
-6.328937
 10
25.81351
 20
-6.329635
 10
25.818354
 20
-6.330354
 10
25.822875
 20
-6.330854
 10
25.827177
 20
-6.33099
 10
25.831302
 20
-6.330823
 10
25.835323
 20
-6.330437
 10
25.839302
 20
-6.329948
 10
25.84326
 20
-6.329438
 10
25.847281
 20
-6.329031
 10
25.851417
 20
-6.328802
 10
25.855708
 20
-6.328865
 10
25.860208
 20
-6.329302
 10
25.864875
 20
-6.330031
 10
25.869635
 20
-6.330979
 10
25.874437
 20
-6.332042
 10
25.879219
 20
-6.333125
 10
25.883927
 20
-6.334167
 10
25.88851
 20
-6.335052
 10
25.892885
 20
-6.335698
 10
25.897021
 20
-6.336031
 10
25.900948
 20
-6.336083
 10
25.959677
 20
-6.335896
 10
25.96324
 20
-6.3355
 10
25.966677
 20
-6.334958
 10
25.970031
 20
-6.334302
 10
25.973312
 20
-6.333583
 10
25.976573
 20
-6.332833
 10
25.979812
 20
-6.332104
 10
25.983042
 20
-6.331427
 10
25.986219
 20
-6.330812
 10
25.989333
 20
-6.330302
 10
25.992365
 20
-6.329917
 10
25.995302
 20
-6.329677
 10
25.998094
 20
-6.329615
 10
26.00075
 20
-6.32975
 10
26.00324
 20
-6.330104
 10
26.005594
 20
-6.330625
 10
26.007844
 20
-6.33125
 10
26.010021
 20
-6.331927
 10
26.012146
 20
-6.332594
 10
26.014271
 20
-6.333188
 10
26.016417
 20
-6.333656
 10
26.018615
 20
-6.333938
 10
26.020885
 20
-6.33399
 10
26.023229
 20
-6.333854
 10
26.025635
 20
-6.333604
 10
26.027365
 20
-6.333385
  0
LWPOLYLINE
  5
30A
330
559
100
AcDbEntity
  8
_0
  6
Continuous
 62
     7
370
     0
100
AcDbPolyline
 90
       53
 70
   128
 43
0.0
 10
25.772375
 20
-6.487125
 10
25.781156
 20
-6.48474
 10
25.789042
 20
-6.483385
 10
25.796115
 20
-6.482854
 10
25.80249
 20
-6.482937
 10
25.80826
 20
-6.483448
 10
25.81351
 20
-6.484156
 10
25.818354
 20
-6.484865
 10
25.822875
 20
-6.485365
 10
25.827177
 20
-6.48551
 10
25.831302
 20
-6.485333
 10
25.835323
 20
-6.484948
 10
25.839302
 20
-6.484458
 10
25.84326
 20
-6.483948
 10
25.847281
 20
-6.483531
 10
25.851417
 20
-6.483312
 10
25.855708
 20
-6.483385
 10
25.860208
 20
-6.483812
 10
25.864875
 20
-6.484542
 10
25.869635
 20
-6.485479
 10
25.874437
 20
-6.486552
 10
25.879219
 20
-6.487635
 10
25.883927
 20
-6.488677
 10
25.88851
 20
-6.489562
 10
25.892885
 20
-6.490208
 10
25.897021
 20
-6.490542
 10
25.900948
 20
-6.490594
 10
25.959677
 20
-6.490406
 10
25.96324
 20
-6.49001
 10
25.966677
 20
-6.489469
 10
25.970031
 20
-6.488812
 10
25.973312
 20
-6.488083
 10
25.976573
 20
-6.487344
 10
25.979812
 20
-6.486615
 10
25.983042
 20
-6.485937
 10
25.986219
 20
-6.485323
 10
25.989333
 20
-6.484812
 10
25.992365
 20
-6.484427
 10
25.995302
 20
-6.484187
 10
25.998094
 20
-6.484125
 10
26.00075
 20
-6.48426
 10
26.00324
 20
-6.484615
 10
26.005594
 20
-6.485135
 10
26.007844
 20
-6.48576
 10
26.010021
 20
-6.486438
 10
26.012146
 20
-6.487104
 10
26.014271
 20
-6.487698
 10
26.016417
 20
-6.488167
 10
26.018615
 20
-6.488448
 10
26.020885
 20
-6.48849
 10
26.023229
 20
-6.488365
 10
26.025635
 20
-6.488115
 10
26.027365
 20
-6.487896
  0
LINE
  5
30B
330
559
100
AcDbEntity
  8
_0
  6
Continuous
 62
     7
370
    13
100
AcDbLine
 10
26.027365
 20
-6.7385
 30
0.0
 11
26.027365
 21
-6.487125
 31
0.0
  0
LINE
  5
30C
330
559
100
AcDbEntity
  8
_0
  6
Continuous
 62
     7
370
    13
100
AcDbLine
 10
26.027365
 20
-6.333781
 30
0.0
 11
26.027365
 21
-4.938615
 31
0.0
  0
LINE
  5
30D
330
559
100
AcDbEntity
  8
_0
  6
Continuous
 62
     7
370
    13
100
AcDbLine
 10
25.772375
 20
-6.7385
 30
0.0
 11
25.772375
 21
-6.487125
 31
0.0
  0
LINE
  5
30E
330
559
100
AcDbEntity
  8
_0
  6
Continuous
 62
     7
370
    13
100
AcDbLine
 10
25.772375
 20
-6.737906
 30
0.0
 11
26.027365
 21
-6.737906
 31
0.0
  0
LINE
  5
30F
330
559
100
AcDbEntity
  8
_0
  6
Continuous
 62
     7
370
    13
100
AcDbLine
 10
25.772375
 20
-6.7385
 30
0.0
 11
25.772583
 21
-6.487073
 31
0.0
  0
LINE
  5
310
330
559
100
AcDbEntity
  8
_0
  6
Continuous
 62
     7
370
    13
100
AcDbLine
 10
26.027365
 20
-6.737906
 30
0.0
 11
26.027365
 21
-6.493781
 31
0.0
  0
LINE
  5
311
330
559
100
AcDbEntity
  8
_0
  6
Continuous
 62
     7
370
    13
100
AcDbLine
 10
25.772375
 20
-6.7385
 30
0.0
 11
26.027365
 21
-6.7385
 31
0.0
  0
LINE
  5
312
330
559
100
AcDbEntity
  8
_0
  6
Continuous
 62
     7
370
    13
100
AcDbLine
 10
26.027365
 20
-6.340979
 30
0.0
 11
26.027365
 21
-4.938021
 31
0.0
  0
LINE
  5
313
330
559
100
AcDbEntity
  8
DEFPOINTS
  6
Continuous
 62
     7
370
    13
100
AcDbLine
 10
26.027365
 20
-4.752729
 30
0.0
 11
26.027365
 21
-4.87575
 31
0.0
  0
LINE
  5
314
330
559
100
AcDbEntity
  8
DEFPOINTS
  6
Continuous
 62
     7
370
    13
100
AcDbLine
 10
25.772375
 20
-4.753312
 30
0.0
 11
25.772375
 21
-4.876333
 31
0.0
  0
LINE
  5
315
330
559
100
AcDbEntity
  8
DEFPOINTS
  6
Continuous
 62
     7
370
    13
100
AcDbLine
 10
25.980458
 20
-4.826344
 30
0.0
 11
25.822375
 21
-4.826344
 31
0.0
  0
SOLID
  5
316
330
559
100
AcDbEntity
  8
DEFPOINTS
  6
Continuous
 62
     7
370
    13
100
AcDbTrace
 10
25.977365
 20
-4.834083
 30
0.0
 11
25.977365
 21
-4.817417
 31
0.0
 12
26.027365
 22
-4.82575
 32
0.0
 13
26.027365
 23
-4.82575
 33
0.0
  0
SOLID
  5
317
330
559
100
AcDbEntity
  8
DEFPOINTS
  6
Continuous
 62
     7
370
    13
100
AcDbTrace
 10
25.822375
 20
-4.834677
 30
0.0
 11
25.822375
 21
-4.81801
 31
0.0
 12
25.772375
 22
-4.826344
 32
0.0
 13
25.772375
 23
-4.826344
 33
0.0
  0
LINE
  5
319
330
559
100
AcDbEntity
  8
_0
  6
Continuous
 62
     7
370
    13
100
AcDbLine
 10
25.992365
 20
-6.737906
 30
0.0
 11
25.992365
 21
-6.484427
 31
0.0
  0
LINE
  5
31A
330
559
100
AcDbEntity
  8
_0
  6
Continuous
 62
     7
370
    13
100
AcDbLine
 10
25.807385
 20
-6.738521
 30
0.0
 11
25.807583
 21
-6.481833
 31
0.0
  0
LINE
  5
31B
330
559
100
AcDbEntity
  8
_0
  6
Continuous
 62
     7
370
    13
100
AcDbLine
 10
25.992365
 20
-6.329917
 30
0.0
 11
25.992365
 21
-4.938021
 31
0.0
  0
LINE
  5
31C
330
559
100
AcDbEntity
  8
_0
  6
Continuous
 62
     7
370
    13
100
AcDbLine
 10
29.192375
 20
-4.22774
 30
0.0
 11
29.192375
 21
-4.17774
 31
0.0
  0
LINE
  5
31D
330
559
100
AcDbEntity
  8
_0
  6
Continuous
 62
     7
370
    13
100
AcDbLine
 10
29.192375
 20
-4.22774
 30
0.0
 11
29.172375
 21
-4.22774
 31
0.0
  0
LINE
  5
31E
330
559
100
AcDbEntity
  8
_0
  6
Continuous
 62
     7
370
    13
100
AcDbLine
 10
29.192375
 20
-4.17774
 30
0.0
 11
29.172375
 21
-4.17774
 31
0.0
  0
LINE
  5
31F
330
559
100
AcDbEntity
  8
_0
  6
Continuous
 62
     7
370
    13
100
AcDbLine
 10
29.172375
 20
-4.237729
 30
0.0
 11
29.172375
 21
-4.167729
 31
0.0
  0
LINE
  5
320
330
559
100
AcDbEntity
  8
_0
  6
Continuous
 62
     7
370
    13
100
AcDbLine
 10
29.172375
 20
-4.237729
 30
0.0
 11
29.160177
 21
-4.237729
 31
0.0
  0
LINE
  5
321
330
559
100
AcDbEntity
  8
_0
  6
Continuous
 62
     7
370
    13
100
AcDbLine
 10
29.172375
 20
-4.167729
 30
0.0
 11
29.160177
 21
-4.167729
 31
0.0
  0
LINE
  5
322
330
559
100
AcDbEntity
  8
_0
  6
Continuous
 62
     7
370
    13
100
AcDbLine
 10
29.092417
 20
-4.237729
 30
0.0
 11
29.092417
 21
-4.167729
 31
0.0
  0
LINE
  5
323
330
559
100
AcDbEntity
  8
_0
  6
Continuous
 62
     7
370
    13
100
AcDbLine
 10
29.119906
 20
-4.167729
 30
0.0
 11
29.092417
 21
-4.167729
 31
0.0
  0
LINE
  5
324
330
559
100
AcDbEntity
  8
_0
  6
Continuous
 62
     7
370
    13
100
AcDbLine
 10
29.119906
 20
-4.237729
 30
0.0
 11
29.092417
 21
-4.237729
 31
0.0
  0
LINE
  5
325
330
559
100
AcDbEntity
  8
_0
  6
Continuous
 62
     7
370
    13
100
AcDbLine
 10
29.119906
 20
-4.211198
 30
0.0
 11
29.092417
 21
-4.211198
 31
0.0
  0
LINE
  5
326
330
559
100
AcDbEntity
  8
_0
  6
Continuous
 62
     7
370
    13
100
AcDbLine
 10
29.119906
 20
-4.172417
 30
0.0
 11
29.092417
 21
-4.172417
 31
0.0
  0
LINE
  5
327
330
559
100
AcDbEntity
  8
_0
  6
Continuous
 62
     7
370
    13
100
AcDbLine
 10
28.917354
 20
-4.281302
 30
0.0
 11
28.917354
 21
-4.231312
 31
0.0
  0
LINE
  5
328
330
559
100
AcDbEntity
  8
_0
  6
Continuous
 62
     7
370
    13
100
AcDbLine
 10
28.917354
 20
-4.281302
 30
0.0
 11
28.897354
 21
-4.281302
 31
0.0
  0
LINE
  5
329
330
559
100
AcDbEntity
  8
_0
  6
Continuous
 62
     7
370
    13
100
AcDbLine
 10
28.917354
 20
-4.231312
 30
0.0
 11
28.897354
 21
-4.231312
 31
0.0
  0
LINE
  5
32A
330
559
100
AcDbEntity
  8
_0
  6
Continuous
 62
     7
370
    13
100
AcDbLine
 10
28.897354
 20
-4.291302
 30
0.0
 11
28.897354
 21
-4.221312
 31
0.0
  0
LINE
  5
32B
330
559
100
AcDbEntity
  8
_0
  6
Continuous
 62
     7
370
    13
100
AcDbLine
 10
28.897354
 20
-4.291302
 30
0.0
 11
28.885167
 21
-4.291302
 31
0.0
  0
LINE
  5
32C
330
559
100
AcDbEntity
  8
_0
  6
Continuous
 62
     7
370
    13
100
AcDbLine
 10
28.897354
 20
-4.221312
 30
0.0
 11
28.885167
 21
-4.221312
 31
0.0
  0
LINE
  5
32D
330
559
100
AcDbEntity
  8
_0
  6
Continuous
 62
     7
370
    13
100
AcDbLine
 10
29.119906
 20
-4.265615
 30
0.0
 11
29.092417
 21
-4.265615
 31
0.0
  0
LINE
  5
32E
330
559
100
AcDbEntity
  8
_0
  6
Continuous
 62
     7
370
    13
100
AcDbLine
 10
29.119906
 20
-4.304385
 30
0.0
 11
29.092417
 21
-4.304385
 31
0.0
  0
LINE
  5
32F
330
559
100
AcDbEntity
  8
_0
  6
Continuous
 62
     7
370
    13
100
AcDbLine
 10
29.119906
 20
-4.330927
 30
0.0
 11
29.092417
 21
-4.330927
 31
0.0
  0
LINE
  5
330
330
559
100
AcDbEntity
  8
_0
  6
Continuous
 62
     7
370
    13
100
AcDbLine
 10
29.119906
 20
-4.260927
 30
0.0
 11
29.092417
 21
-4.260927
 31
0.0
  0
LINE
  5
331
330
559
100
AcDbEntity
  8
_0
  6
Continuous
 62
     7
370
    13
100
AcDbLine
 10
29.092417
 20
-4.330927
 30
0.0
 11
29.092417
 21
-4.260927
 31
0.0
  0
LINE
  5
332
330
559
100
AcDbEntity
  8
_0
  6
Continuous
 62
     7
370
    13
100
AcDbLine
 10
29.172375
 20
-4.260927
 30
0.0
 11
29.160177
 21
-4.260927
 31
0.0
  0
LINE
  5
333
330
559
100
AcDbEntity
  8
_0
  6
Continuous
 62
     7
370
    13
100
AcDbLine
 10
29.172375
 20
-4.330927
 30
0.0
 11
29.160177
 21
-4.330927
 31
0.0
  0
LINE
  5
334
330
559
100
AcDbEntity
  8
_0
  6
Continuous
 62
     7
370
    13
100
AcDbLine
 10
29.172375
 20
-4.330927
 30
0.0
 11
29.172375
 21
-4.260927
 31
0.0
  0
LINE
  5
335
330
559
100
AcDbEntity
  8
_0
  6
Continuous
 62
     7
370
    13
100
AcDbLine
 10
29.192375
 20
-4.270937
 30
0.0
 11
29.172375
 21
-4.270937
 31
0.0
  0
LINE
  5
336
330
559
100
AcDbEntity
  8
_0
  6
Continuous
 62
     7
370
    13
100
AcDbLine
 10
29.192375
 20
-4.320927
 30
0.0
 11
29.172375
 21
-4.320927
 31
0.0
  0
LINE
  5
337
330
559
100
AcDbEntity
  8
_0
  6
Continuous
 62
     7
370
    13
100
AcDbLine
 10
29.192375
 20
-4.320927
 30
0.0
 11
29.192375
 21
-4.270937
 31
0.0
  0
LINE
  5
338
330
559
100
AcDbEntity
  8
_0
  6
Continuous
 62
     7
370
    13
100
AcDbLine
 10
32.573833
 20
-4.41876
 30
0.0
 11
32.573833
 21
-4.36876
 31
0.0
  0
LINE
  5
339
330
559
100
AcDbEntity
  8
_0
  6
Continuous
 62
     7
370
    13
100
AcDbLine
 10
32.573833
 20
-4.41876
 30
0.0
 11
32.593833
 21
-4.41876
 31
0.0
  0
LINE
  5
33A
330
559
100
AcDbEntity
  8
_0
  6
Continuous
 62
     7
370
    13
100
AcDbLine
 10
32.573833
 20
-4.36876
 30
0.0
 11
32.593833
 21
-4.36876
 31
0.0
  0
LINE
  5
33B
330
559
100
AcDbEntity
  8
_0
  6
Continuous
 62
     7
370
    13
100
AcDbLine
 10
32.593833
 20
-4.42876
 30
0.0
 11
32.593833
 21
-4.35876
 31
0.0
  0
LINE
  5
33C
330
559
100
AcDbEntity
  8
_0
  6
Continuous
 62
     7
370
    13
100
AcDbLine
 10
32.593833
 20
-4.42876
 30
0.0
 11
32.606021
 21
-4.42876
 31
0.0
  0
LINE
  5
33D
330
559
100
AcDbEntity
  8
_0
  6
Continuous
 62
     7
370
    13
100
AcDbLine
 10
32.593833
 20
-4.35876
 30
0.0
 11
32.606021
 21
-4.35876
 31
0.0
  0
LINE
  5
33E
330
559
100
AcDbEntity
  8
_0
  6
Continuous
 62
     7
370
    13
100
AcDbLine
 10
32.401802
 20
-4.365188
 30
0.0
 11
32.401802
 21
-4.315187
 31
0.0
  0
LINE
  5
33F
330
559
100
AcDbEntity
  8
_0
  6
Continuous
 62
     7
370
    13
100
AcDbLine
 10
32.401802
 20
-4.365188
 30
0.0
 11
32.381813
 21
-4.365188
 31
0.0
  0
LINE
  5
340
330
559
100
AcDbEntity
  8
_0
  6
Continuous
 62
     7
370
    13
100
AcDbLine
 10
32.401802
 20
-4.315187
 30
0.0
 11
32.381813
 21
-4.315187
 31
0.0
  0
LINE
  5
341
330
559
100
AcDbEntity
  8
_0
  6
Continuous
 62
     7
370
    13
100
AcDbLine
 10
32.381813
 20
-4.375188
 30
0.0
 11
32.381813
 21
-4.305187
 31
0.0
  0
LINE
  5
342
330
559
100
AcDbEntity
  8
_0
  6
Continuous
 62
     7
370
    13
100
AcDbLine
 10
32.381813
 20
-4.375188
 30
0.0
 11
32.369615
 21
-4.375188
 31
0.0
  0
LINE
  5
343
330
559
100
AcDbEntity
  8
_0
  6
Continuous
 62
     7
370
    13
100
AcDbLine
 10
32.381813
 20
-4.305187
 30
0.0
 11
32.369615
 21
-4.305187
 31
0.0
  0
LINE
  5
344
330
559
100
AcDbEntity
  8
_0
  6
Continuous
 62
     7
370
    13
100
AcDbLine
 10
32.301854
 20
-4.375188
 30
0.0
 11
32.301854
 21
-4.305187
 31
0.0
  0
LINE
  5
345
330
559
100
AcDbEntity
  8
_0
  6
Continuous
 62
     7
370
    13
100
AcDbLine
 10
32.329333
 20
-4.305187
 30
0.0
 11
32.301854
 21
-4.305187
 31
0.0
  0
LINE
  5
346
330
559
100
AcDbEntity
  8
_0
  6
Continuous
 62
     7
370
    13
100
AcDbLine
 10
32.329333
 20
-4.375188
 30
0.0
 11
32.301854
 21
-4.375188
 31
0.0
  0
LINE
  5
347
330
559
100
AcDbEntity
  8
_0
  6
Continuous
 62
     7
370
    13
100
AcDbLine
 10
32.329333
 20
-4.348646
 30
0.0
 11
32.301854
 21
-4.348646
 31
0.0
  0
LINE
  5
348
330
559
100
AcDbEntity
  8
_0
  6
Continuous
 62
     7
370
    13
100
AcDbLine
 10
32.329333
 20
-4.309875
 30
0.0
 11
32.301854
 21
-4.309875
 31
0.0
  0
LINE
  5
349
330
559
100
AcDbEntity
  8
_0
  6
Continuous
 62
     7
370
    13
100
AcDbLine
 10
32.329333
 20
-4.403073
 30
0.0
 11
32.301854
 21
-4.403073
 31
0.0
  0
LINE
  5
34A
330
559
100
AcDbEntity
  8
_0
  6
Continuous
 62
     7
370
    13
100
AcDbLine
 10
32.329333
 20
-4.441844
 30
0.0
 11
32.301854
 21
-4.441844
 31
0.0
  0
LINE
  5
34B
330
559
100
AcDbEntity
  8
_0
  6
Continuous
 62
     7
370
    13
100
AcDbLine
 10
32.329333
 20
-4.468385
 30
0.0
 11
32.301854
 21
-4.468385
 31
0.0
  0
LINE
  5
34C
330
559
100
AcDbEntity
  8
_0
  6
Continuous
 62
     7
370
    13
100
AcDbLine
 10
32.329333
 20
-4.398385
 30
0.0
 11
32.301854
 21
-4.398385
 31
0.0
  0
LINE
  5
34D
330
559
100
AcDbEntity
  8
_0
  6
Continuous
 62
     7
370
    13
100
AcDbLine
 10
32.301854
 20
-4.468385
 30
0.0
 11
32.301854
 21
-4.398385
 31
0.0
  0
LINE
  5
34E
330
559
100
AcDbEntity
  8
_0
  6
Continuous
 62
     7
370
    13
100
AcDbLine
 10
32.381813
 20
-4.398385
 30
0.0
 11
32.369615
 21
-4.398385
 31
0.0
  0
LINE
  5
34F
330
559
100
AcDbEntity
  8
_0
  6
Continuous
 62
     7
370
    13
100
AcDbLine
 10
32.381813
 20
-4.468385
 30
0.0
 11
32.369615
 21
-4.468385
 31
0.0
  0
LINE
  5
350
330
559
100
AcDbEntity
  8
_0
  6
Continuous
 62
     7
370
    13
100
AcDbLine
 10
32.381813
 20
-4.468385
 30
0.0
 11
32.381813
 21
-4.398385
 31
0.0
  0
LINE
  5
351
330
559
100
AcDbEntity
  8
_0
  6
Continuous
 62
     7
370
    13
100
AcDbLine
 10
32.401802
 20
-4.408385
 30
0.0
 11
32.381813
 21
-4.408385
 31
0.0
  0
LINE
  5
352
330
559
100
AcDbEntity
  8
_0
  6
Continuous
 62
     7
370
    13
100
AcDbLine
 10
32.401802
 20
-4.458385
 30
0.0
 11
32.381813
 21
-4.458385
 31
0.0
  0
LINE
  5
353
330
559
100
AcDbEntity
  8
_0
  6
Continuous
 62
     7
370
    13
100
AcDbLine
 10
32.401802
 20
-4.458385
 30
0.0
 11
32.401802
 21
-4.408385
 31
0.0
  0
LINE
  5
354
330
559
100
AcDbEntity
  8
_0
  6
Continuous
 62
     7
370
    13
100
AcDbLine
 10
32.147135
 20
-4.458385
 30
0.0
 11
32.147135
 21
-4.408385
 31
0.0
  0
LINE
  5
355
330
559
100
AcDbEntity
  8
_0
  6
Continuous
 62
     7
370
    13
100
AcDbLine
 10
32.147135
 20
-4.458385
 30
0.0
 11
32.127146
 21
-4.458385
 31
0.0
  0
LINE
  5
356
330
559
100
AcDbEntity
  8
_0
  6
Continuous
 62
     7
370
    13
100
AcDbLine
 10
32.147135
 20
-4.408385
 30
0.0
 11
32.127146
 21
-4.408385
 31
0.0
  0
LINE
  5
357
330
559
100
AcDbEntity
  8
_0
  6
Continuous
 62
     7
370
    13
100
AcDbLine
 10
32.127146
 20
-4.468385
 30
0.0
 11
32.127146
 21
-4.398385
 31
0.0
  0
LINE
  5
358
330
559
100
AcDbEntity
  8
_0
  6
Continuous
 62
     7
370
    13
100
AcDbLine
 10
32.127146
 20
-4.468385
 30
0.0
 11
32.114958
 21
-4.468385
 31
0.0
  0
LINE
  5
359
330
559
100
AcDbEntity
  8
_0
  6
Continuous
 62
     7
370
    13
100
AcDbLine
 10
32.127146
 20
-4.398385
 30
0.0
 11
32.114958
 21
-4.398385
 31
0.0
  0
LINE
  5
35A
330
559
100
AcDbEntity
  8
_0
  6
Continuous
 62
     7
370
    13
100
AcDbLine
 10
32.047187
 20
-4.468385
 30
0.0
 11
32.047187
 21
-4.398385
 31
0.0
  0
LINE
  5
35B
330
559
100
AcDbEntity
  8
_0
  6
Continuous
 62
     7
370
    13
100
AcDbLine
 10
32.074677
 20
-4.398385
 30
0.0
 11
32.047187
 21
-4.398385
 31
0.0
  0
LINE
  5
35C
330
559
100
AcDbEntity
  8
_0
  6
Continuous
 62
     7
370
    13
100
AcDbLine
 10
32.074677
 20
-4.468385
 30
0.0
 11
32.047187
 21
-4.468385
 31
0.0
  0
LINE
  5
35D
330
559
100
AcDbEntity
  8
_0
  6
Continuous
 62
     7
370
    13
100
AcDbLine
 10
32.074677
 20
-4.441844
 30
0.0
 11
32.047187
 21
-4.441844
 31
0.0
  0
LINE
  5
35E
330
559
100
AcDbEntity
  8
_0
  6
Continuous
 62
     7
370
    13
100
AcDbLine
 10
32.074677
 20
-4.403073
 30
0.0
 11
32.047187
 21
-4.403073
 31
0.0
  0
LINE
  5
35F
330
559
100
AcDbEntity
  8
_0
  6
Continuous
 62
     7
370
    13
100
AcDbLine
 10
31.852125
 20
-4.35876
 30
0.0
 11
31.839937
 21
-4.35876
 31
0.0
  0
LINE
  5
360
330
559
100
AcDbEntity
  8
_0
  6
Continuous
 62
     7
370
    13
100
AcDbLine
 10
31.852125
 20
-4.42876
 30
0.0
 11
31.839937
 21
-4.42876
 31
0.0
  0
LINE
  5
361
330
559
100
AcDbEntity
  8
_0
  6
Continuous
 62
     7
370
    13
100
AcDbLine
 10
31.852125
 20
-4.42876
 30
0.0
 11
31.852125
 21
-4.35876
 31
0.0
  0
LINE
  5
362
330
559
100
AcDbEntity
  8
_0
  6
Continuous
 62
     7
370
    13
100
AcDbLine
 10
31.872135
 20
-4.36876
 30
0.0
 11
31.852125
 21
-4.36876
 31
0.0
  0
LINE
  5
363
330
559
100
AcDbEntity
  8
_0
  6
Continuous
 62
     7
370
    13
100
AcDbLine
 10
31.872135
 20
-4.41876
 30
0.0
 11
31.852125
 21
-4.41876
 31
0.0
  0
LINE
  5
364
330
559
100
AcDbEntity
  8
_0
  6
Continuous
 62
     7
370
    13
100
AcDbLine
 10
31.872135
 20
-4.41876
 30
0.0
 11
31.872135
 21
-4.36876
 31
0.0
  0
LINE
  5
365
330
559
100
AcDbEntity
  8
_0
  6
Continuous
 62
     7
370
    13
100
AcDbLine
 10
32.074677
 20
-4.309875
 30
0.0
 11
32.047187
 21
-4.309875
 31
0.0
  0
LINE
  5
366
330
559
100
AcDbEntity
  8
_0
  6
Continuous
 62
     7
370
    13
100
AcDbLine
 10
32.074677
 20
-4.348646
 30
0.0
 11
32.047187
 21
-4.348646
 31
0.0
  0
LINE
  5
367
330
559
100
AcDbEntity
  8
_0
  6
Continuous
 62
     7
370
    13
100
AcDbLine
 10
32.074677
 20
-4.375188
 30
0.0
 11
32.047187
 21
-4.375188
 31
0.0
  0
LINE
  5
368
330
559
100
AcDbEntity
  8
_0
  6
Continuous
 62
     7
370
    13
100
AcDbLine
 10
32.074677
 20
-4.305187
 30
0.0
 11
32.047187
 21
-4.305187
 31
0.0
  0
LINE
  5
369
330
559
100
AcDbEntity
  8
_0
  6
Continuous
 62
     7
370
    13
100
AcDbLine
 10
32.047187
 20
-4.375188
 30
0.0
 11
32.047187
 21
-4.305187
 31
0.0
  0
LINE
  5
36A
330
559
100
AcDbEntity
  8
_0
  6
Continuous
 62
     7
370
    13
100
AcDbLine
 10
32.127146
 20
-4.305187
 30
0.0
 11
32.114958
 21
-4.305187
 31
0.0
  0
LINE
  5
36B
330
559
100
AcDbEntity
  8
_0
  6
Continuous
 62
     7
370
    13
100
AcDbLine
 10
32.127146
 20
-4.375188
 30
0.0
 11
32.114958
 21
-4.375188
 31
0.0
  0
LINE
  5
36C
330
559
100
AcDbEntity
  8
_0
  6
Continuous
 62
     7
370
    13
100
AcDbLine
 10
32.127146
 20
-4.375188
 30
0.0
 11
32.127146
 21
-4.305187
 31
0.0
  0
LINE
  5
36D
330
559
100
AcDbEntity
  8
_0
  6
Continuous
 62
     7
370
    13
100
AcDbLine
 10
32.147135
 20
-4.315187
 30
0.0
 11
32.127146
 21
-4.315187
 31
0.0
  0
LINE
  5
36E
330
559
100
AcDbEntity
  8
_0
  6
Continuous
 62
     7
370
    13
100
AcDbLine
 10
32.147135
 20
-4.365188
 30
0.0
 11
32.127146
 21
-4.365188
 31
0.0
  0
LINE
  5
36F
330
559
100
AcDbEntity
  8
_0
  6
Continuous
 62
     7
370
    13
100
AcDbLine
 10
32.147135
 20
-4.365188
 30
0.0
 11
32.147135
 21
-4.315187
 31
0.0
  0
LINE
  5
370
330
559
100
AcDbEntity
  8
_0
  6
Continuous
 62
     7
370
    13
100
AcDbLine
 10
28.895729
 20
-4.136115
 30
0.0
 11
29.110719
 21
-4.136115
 31
0.0
  0
LINE
  5
371
330
559
100
AcDbEntity
  8
_0
  6
Continuous
 62
     7
370
    13
100
AcDbLine
 10
28.865729
 20
-4.691677
 30
0.0
 11
28.865729
 21
-3.861302
 31
0.0
  0
LINE
  5
372
330
559
100
AcDbEntity
  8
_0
  6
Continuous
 62
     7
370
    13
100
AcDbLine
 10
29.140719
 20
-4.331104
 30
0.0
 11
29.140719
 21
-4.166115
 31
0.0
  0
LINE
  5
373
330
559
100
AcDbEntity
  8
_0
  6
Continuous
 62
     7
370
    13
100
AcDbLine
 10
29.395698
 20
-4.331104
 30
0.0
 11
29.395698
 21
-4.166115
 31
0.0
  0
LINE
  5
374
330
559
100
AcDbEntity
  8
_0
  6
Continuous
 62
     7
370
    13
100
AcDbLine
 10
28.895729
 20
-4.361094
 30
0.0
 11
28.915729
 21
-4.361094
 31
0.0
  0
LINE
  5
375
330
559
100
AcDbEntity
  8
_0
  6
Continuous
 62
     7
370
    13
100
AcDbLine
 10
28.895729
 20
-4.341104
 30
0.0
 11
28.915729
 21
-4.341104
 31
0.0
  0
LINE
  5
376
330
559
100
AcDbEntity
  8
_0
  6
Continuous
 62
     7
370
    13
100
AcDbLine
 10
28.895729
 20
-4.156115
 30
0.0
 11
29.110719
 21
-4.156115
 31
0.0
  0
LINE
  5
377
330
559
100
AcDbEntity
  8
_0
  6
Continuous
 62
     7
370
    13
100
AcDbLine
 10
29.375698
 20
-4.331104
 30
0.0
 11
29.375698
 21
-4.166115
 31
0.0
  0
LINE
  5
378
330
559
100
AcDbEntity
  8
_0
  6
Continuous
 62
     7
370
    13
100
AcDbLine
 10
29.160719
 20
-4.331104
 30
0.0
 11
29.160719
 21
-4.166115
 31
0.0
  0
LINE
  5
379
330
559
100
AcDbEntity
  8
_0
  6
Continuous
 62
     7
370
    13
100
AcDbLine
 10
29.120719
 20
-4.331104
 30
0.0
 11
29.120719
 21
-4.166115
 31
0.0
  0
LINE
  5
37A
330
559
100
AcDbEntity
  8
_0
  6
Continuous
 62
     7
370
    13
100
AcDbLine
 10
28.885729
 20
-4.331104
 30
0.0
 11
28.885729
 21
-4.166115
 31
0.0
  0
LINE
  5
37B
330
559
100
AcDbEntity
  8
_0
  6
Continuous
 62
     7
370
    13
100
AcDbLine
 10
29.345698
 20
-4.361094
 30
0.0
 11
29.345698
 21
-4.341104
 31
0.0
  0
LINE
  5
37C
330
559
100
AcDbEntity
  8
_0
  6
Continuous
 62
     7
370
    13
100
AcDbLine
 10
29.190708
 20
-4.361094
 30
0.0
 11
29.190708
 21
-4.341104
 31
0.0
  0
LINE
  5
37D
330
559
100
AcDbEntity
  8
_0
  6
Continuous
 62
     7
370
    13
100
AcDbLine
 10
29.090719
 20
-4.361094
 30
0.0
 11
29.090719
 21
-4.341104
 31
0.0
  0
LINE
  5
37E
330
559
100
AcDbEntity
  8
_0
  6
Continuous
 62
     7
370
    13
100
AcDbLine
 10
29.090719
 20
-4.361094
 30
0.0
 11
29.110719
 21
-4.361094
 31
0.0
  0
LINE
  5
37F
330
559
100
AcDbEntity
  8
_0
  6
Continuous
 62
     7
370
    13
100
AcDbLine
 10
29.090719
 20
-4.341104
 30
0.0
 11
29.110719
 21
-4.341104
 31
0.0
  0
LINE
  5
380
330
559
100
AcDbEntity
  8
_0
  6
Continuous
 62
     7
370
    13
100
AcDbLine
 10
29.170719
 20
-4.341104
 30
0.0
 11
29.190708
 21
-4.341104
 31
0.0
  0
LINE
  5
381
330
559
100
AcDbEntity
  8
_0
  6
Continuous
 62
     7
370
    13
100
AcDbLine
 10
29.170719
 20
-4.156115
 30
0.0
 11
29.365698
 21
-4.156115
 31
0.0
  0
LINE
  5
382
330
559
100
AcDbEntity
  8
_0
  6
Continuous
 62
     7
370
    13
100
AcDbLine
 10
29.345698
 20
-4.341104
 30
0.0
 11
29.365698
 21
-4.341104
 31
0.0
  0
LINE
  5
383
330
559
100
AcDbEntity
  8
_0
  6
Continuous
 62
     7
370
    13
100
AcDbLine
 10
29.345698
 20
-4.361094
 30
0.0
 11
29.365698
 21
-4.361094
 31
0.0
  0
LINE
  5
384
330
559
100
AcDbEntity
  8
_0
  6
Continuous
 62
     7
370
    13
100
AcDbLine
 10
28.827875
 20
-4.691677
 30
0.0
 11
28.808156
 21
-4.675094
 31
0.0
  0
LINE
  5
385
330
559
100
AcDbEntity
  8
_0
  6
Continuous
 62
     7
370
    13
100
AcDbLine
 10
28.808156
 20
-4.675094
 30
0.0
 11
28.827875
 21
-4.731604
 31
0.0
  0
LINE
  5
386
330
559
100
AcDbEntity
  8
_0
  6
Continuous
 62
     7
370
    13
100
AcDbLine
 10
28.827875
 20
-4.731604
 30
0.0
 11
28.782521
 21
-4.654115
 31
0.0
  0
LINE
  5
387
330
559
100
AcDbEntity
  8
_0
  6
Continuous
 62
     7
370
    13
100
AcDbLine
 10
28.782521
 20
-4.654115
 30
0.0
 11
28.790406
 21
-4.707385
 31
0.0
  0
LINE
  5
388
330
559
100
AcDbEntity
  8
_0
  6
Continuous
 62
     7
370
    13
100
AcDbLine
 10
28.790406
 20
-4.707385
 30
0.0
 11
28.772667
 21
-4.691677
 31
0.0
  0
LINE
  5
389
330
559
100
AcDbEntity
  8
_0
  6
Continuous
 62
     7
370
    13
100
AcDbLine
 10
28.827875
 20
-4.691677
 30
0.0
 11
28.99049
 21
-4.691677
 31
0.0
  0
LINE
  5
38A
330
559
100
AcDbEntity
  8
_0
  6
Continuous
 62
     7
370
    13
100
AcDbLine
 10
28.632427
 20
-4.691677
 30
0.0
 11
28.772667
 21
-4.691677
 31
0.0
  0
LINE
  5
38B
330
559
100
AcDbEntity
  8
_0
  6
Continuous
 62
     7
370
    13
100
AcDbLine
 10
28.632427
 20
-3.861302
 30
0.0
 11
28.772667
 21
-3.861302
 31
0.0
  0
LINE
  5
38C
330
559
100
AcDbEntity
  8
_0
  6
Continuous
 62
     7
370
    13
100
AcDbLine
 10
28.827875
 20
-3.861302
 30
0.0
 11
28.99049
 21
-3.861302
 31
0.0
  0
LINE
  5
38D
330
559
100
AcDbEntity
  8
_0
  6
Continuous
 62
     7
370
    13
100
AcDbLine
 10
28.790406
 20
-3.877021
 30
0.0
 11
28.772667
 21
-3.861302
 31
0.0
  0
LINE
  5
38E
330
559
100
AcDbEntity
  8
_0
  6
Continuous
 62
     7
370
    13
100
AcDbLine
 10
28.782521
 20
-3.82374
 30
0.0
 11
28.790406
 21
-3.877021
 31
0.0
  0
LINE
  5
38F
330
559
100
AcDbEntity
  8
_0
  6
Continuous
 62
     7
370
    13
100
AcDbLine
 10
28.827875
 20
-3.90124
 30
0.0
 11
28.782521
 21
-3.82374
 31
0.0
  0
LINE
  5
390
330
559
100
AcDbEntity
  8
_0
  6
Continuous
 62
     7
370
    13
100
AcDbLine
 10
28.808156
 20
-3.844729
 30
0.0
 11
28.827875
 21
-3.90124
 31
0.0
  0
LINE
  5
391
330
559
100
AcDbEntity
  8
_0
  6
Continuous
 62
     7
370
    13
100
AcDbLine
 10
28.827875
 20
-3.861302
 30
0.0
 11
28.808156
 21
-3.844729
 31
0.0
  0
LINE
  5
392
330
559
100
AcDbEntity
  8
_0
  6
Continuous
 62
     7
370
    13
100
AcDbLine
 10
28.75074
 20
-4.691677
 30
0.0
 11
28.75074
 21
-3.861302
 31
0.0
  0
LINE
  5
393
330
559
100
AcDbEntity
  8
_0
  6
DGN Style 2
 62
     7
370
    13
100
AcDbLine
 10
28.840729
 20
-4.691677
 30
0.0
 11
28.840729
 21
-3.861302
 31
0.0
  0
LINE
  5
394
330
559
100
AcDbEntity
  8
_0
  6
Continuous
 62
     7
370
    13
100
AcDbLine
 10
28.915729
 20
-4.361094
 30
0.0
 11
28.915729
 21
-4.341104
 31
0.0
  0
LINE
  5
396
330
559
100
AcDbEntity
  8
_0
  6
Continuous
 62
     7
370
    13
100
AcDbLine
 10
31.8705
 20
-4.498552
 30
0.0
 11
31.8705
 21
-4.478552
 31
0.0
  0
LINE
  5
397
330
559
100
AcDbEntity
  8
_0
  6
Continuous
 62
     7
370
    13
100
AcDbLine
 10
32.52751
 20
-3.99876
 30
0.0
 11
32.66776
 21
-3.99876
 31
0.0
  0
LINE
  5
398
330
559
100
AcDbEntity
  8
_0
  6
Continuous
 62
     7
370
    13
100
AcDbLine
 10
32.722969
 20
-3.99876
 30
0.0
 11
32.885583
 21
-3.99876
 31
0.0
  0
LINE
  5
399
330
559
100
AcDbEntity
  8
_0
  6
Continuous
 62
     7
370
    13
100
AcDbLine
 10
32.6855
 20
-4.014469
 30
0.0
 11
32.66776
 21
-3.99876
 31
0.0
  0
LINE
  5
39A
330
559
100
AcDbEntity
  8
_0
  6
Continuous
 62
     7
370
    13
100
AcDbLine
 10
32.677615
 20
-3.961198
 30
0.0
 11
32.6855
 21
-4.014469
 31
0.0
  0
LINE
  5
39B
330
559
100
AcDbEntity
  8
_0
  6
Continuous
 62
     7
370
    13
100
AcDbLine
 10
32.722969
 20
-4.038687
 30
0.0
 11
32.677615
 21
-3.961198
 31
0.0
  0
LINE
  5
39C
330
559
100
AcDbEntity
  8
_0
  6
Continuous
 62
     7
370
    13
100
AcDbLine
 10
32.70325
 20
-3.982187
 30
0.0
 11
32.722969
 21
-4.038687
 31
0.0
  0
LINE
  5
39D
330
559
100
AcDbEntity
  8
_0
  6
Continuous
 62
     7
370
    13
100
AcDbLine
 10
32.722969
 20
-3.99876
 30
0.0
 11
32.70325
 21
-3.982187
 31
0.0
  0
LINE
  5
39E
330
559
100
AcDbEntity
  8
_0
  6
Continuous
 62
     7
370
    13
100
AcDbLine
 10
32.722969
 20
-4.829125
 30
0.0
 11
32.70325
 21
-4.812552
 31
0.0
  0
LINE
  5
39F
330
559
100
AcDbEntity
  8
_0
  6
Continuous
 62
     7
370
    13
100
AcDbLine
 10
32.70325
 20
-4.812552
 30
0.0
 11
32.722969
 21
-4.869063
 31
0.0
  0
LINE
  5
3A0
330
559
100
AcDbEntity
  8
_0
  6
Continuous
 62
     7
370
    13
100
AcDbLine
 10
32.722969
 20
-4.869063
 30
0.0
 11
32.677615
 21
-4.791562
 31
0.0
  0
LINE
  5
3A1
330
559
100
AcDbEntity
  8
_0
  6
Continuous
 62
     7
370
    13
100
AcDbLine
 10
32.677615
 20
-4.791562
 30
0.0
 11
32.6855
 21
-4.844844
 31
0.0
  0
LINE
  5
3A2
330
559
100
AcDbEntity
  8
_0
  6
Continuous
 62
     7
370
    13
100
AcDbLine
 10
32.6855
 20
-4.844844
 30
0.0
 11
32.66776
 21
-4.829125
 31
0.0
  0
LINE
  5
3A3
330
559
100
AcDbEntity
  8
_0
  6
Continuous
 62
     7
370
    13
100
AcDbLine
 10
32.722969
 20
-4.829125
 30
0.0
 11
32.885583
 21
-4.829125
 31
0.0
  0
LINE
  5
3A4
330
559
100
AcDbEntity
  8
_0
  6
Continuous
 62
     7
370
    13
100
AcDbLine
 10
32.52751
 20
-4.829125
 30
0.0
 11
32.66776
 21
-4.829125
 31
0.0
  0
LINE
  5
3A5
330
559
100
AcDbEntity
  8
_0
  6
Continuous
 62
     7
370
    13
100
AcDbLine
 10
32.740448
 20
-4.829125
 30
0.0
 11
32.740448
 21
-3.99876
 31
0.0
  0
LINE
  5
3A6
330
559
100
AcDbEntity
  8
_0
  6
DGN Style 2
 62
     7
370
    13
100
AcDbLine
 10
32.650448
 20
-4.829125
 30
0.0
 11
32.650448
 21
-3.99876
 31
0.0
  0
LINE
  5
3A7
330
559
100
AcDbEntity
  8
_0
  6
Continuous
 62
     7
370
    13
100
AcDbLine
 10
32.625448
 20
-4.829125
 30
0.0
 11
32.625448
 21
-3.99876
 31
0.0
  0
LINE
  5
3A8
330
559
100
AcDbEntity
  8
_0
  6
DGN Style 2
 62
     7
370
    13
100
AcDbLine
 10
31.79551
 20
-4.829125
 30
0.0
 11
31.79551
 21
-3.99876
 31
0.0
  0
LINE
  5
3A9
330
559
100
AcDbEntity
  8
_0
  6
Continuous
 62
     7
370
    13
100
AcDbLine
 10
31.70551
 20
-4.829125
 30
0.0
 11
31.70551
 21
-3.99876
 31
0.0
  0
LINE
  5
3AA
330
559
100
AcDbEntity
  8
_0
  6
Continuous
 62
     7
370
    13
100
AcDbLine
 10
31.782646
 20
-3.99876
 30
0.0
 11
31.762927
 21
-3.982187
 31
0.0
  0
LINE
  5
3AB
330
559
100
AcDbEntity
  8
_0
  6
Continuous
 62
     7
370
    13
100
AcDbLine
 10
31.762927
 20
-3.982187
 30
0.0
 11
31.782646
 21
-4.038687
 31
0.0
  0
LINE
  5
3AC
330
559
100
AcDbEntity
  8
_0
  6
Continuous
 62
     7
370
    13
100
AcDbLine
 10
31.782646
 20
-4.038687
 30
0.0
 11
31.737292
 21
-3.961198
 31
0.0
  0
LINE
  5
3AD
330
559
100
AcDbEntity
  8
_0
  6
Continuous
 62
     7
370
    13
100
AcDbLine
 10
31.737292
 20
-3.961198
 30
0.0
 11
31.745177
 21
-4.014469
 31
0.0
  0
LINE
  5
3AE
330
559
100
AcDbEntity
  8
_0
  6
Continuous
 62
     7
370
    13
100
AcDbLine
 10
31.745177
 20
-4.014469
 30
0.0
 11
31.727438
 21
-3.99876
 31
0.0
  0
LINE
  5
3AF
330
559
100
AcDbEntity
  8
_0
  6
Continuous
 62
     7
370
    13
100
AcDbLine
 10
31.782646
 20
-3.99876
 30
0.0
 11
31.94526
 21
-3.99876
 31
0.0
  0
LINE
  5
3B0
330
559
100
AcDbEntity
  8
_0
  6
Continuous
 62
     7
370
    13
100
AcDbLine
 10
31.587198
 20
-3.99876
 30
0.0
 11
31.727438
 21
-3.99876
 31
0.0
  0
LINE
  5
3B1
330
559
100
AcDbEntity
  8
_0
  6
Continuous
 62
     7
370
    13
100
AcDbLine
 10
31.587198
 20
-4.829125
 30
0.0
 11
31.727438
 21
-4.829125
 31
0.0
  0
LINE
  5
3B2
330
559
100
AcDbEntity
  8
_0
  6
Continuous
 62
     7
370
    13
100
AcDbLine
 10
31.782646
 20
-4.829125
 30
0.0
 11
31.94526
 21
-4.829125
 31
0.0
  0
LINE
  5
3B3
330
559
100
AcDbEntity
  8
_0
  6
Continuous
 62
     7
370
    13
100
AcDbLine
 10
31.745177
 20
-4.844844
 30
0.0
 11
31.727438
 21
-4.829125
 31
0.0
  0
LINE
  5
3B4
330
559
100
AcDbEntity
  8
_0
  6
Continuous
 62
     7
370
    13
100
AcDbLine
 10
31.737292
 20
-4.791562
 30
0.0
 11
31.745177
 21
-4.844844
 31
0.0
  0
LINE
  5
3B5
330
559
100
AcDbEntity
  8
_0
  6
Continuous
 62
     7
370
    13
100
AcDbLine
 10
31.782646
 20
-4.869063
 30
0.0
 11
31.737292
 21
-4.791562
 31
0.0
  0
LINE
  5
3B6
330
559
100
AcDbEntity
  8
_0
  6
Continuous
 62
     7
370
    13
100
AcDbLine
 10
31.762927
 20
-4.812552
 30
0.0
 11
31.782646
 21
-4.869063
 31
0.0
  0
LINE
  5
3B7
330
559
100
AcDbEntity
  8
_0
  6
Continuous
 62
     7
370
    13
100
AcDbLine
 10
31.782646
 20
-4.829125
 30
0.0
 11
31.762927
 21
-4.812552
 31
0.0
  0
LINE
  5
3B8
330
559
100
AcDbEntity
  8
_0
  6
Continuous
 62
     7
370
    13
100
AcDbLine
 10
32.380469
 20
-4.293563
 30
0.0
 11
32.595458
 21
-4.293563
 31
0.0
  0
LINE
  5
3B9
330
559
100
AcDbEntity
  8
_0
  6
Continuous
 62
     7
370
    13
100
AcDbLine
 10
32.575458
 20
-4.498552
 30
0.0
 11
32.595458
 21
-4.498552
 31
0.0
  0
LINE
  5
3BA
330
559
100
AcDbEntity
  8
_0
  6
Continuous
 62
     7
370
    13
100
AcDbLine
 10
32.575458
 20
-4.478552
 30
0.0
 11
32.595458
 21
-4.478552
 31
0.0
  0
LINE
  5
3BB
330
559
100
AcDbEntity
  8
_0
  6
Continuous
 62
     7
370
    13
100
AcDbLine
 10
32.380469
 20
-4.478552
 30
0.0
 11
32.400469
 21
-4.478552
 31
0.0
  0
LINE
  5
3BC
330
559
100
AcDbEntity
  8
_0
  6
Continuous
 62
     7
370
    13
100
AcDbLine
 10
32.300469
 20
-4.498552
 30
0.0
 11
32.320479
 21
-4.498552
 31
0.0
  0
LINE
  5
3BD
330
559
100
AcDbEntity
  8
_0
  6
Continuous
 62
     7
370
    13
100
AcDbLine
 10
32.300469
 20
-4.478552
 30
0.0
 11
32.320479
 21
-4.478552
 31
0.0
  0
LINE
  5
3BE
330
559
100
AcDbEntity
  8
_0
  6
Continuous
 62
     7
370
    13
100
AcDbLine
 10
32.125479
 20
-4.293563
 30
0.0
 11
32.320479
 21
-4.293563
 31
0.0
  0
LINE
  5
3BF
330
559
100
AcDbEntity
  8
_0
  6
Continuous
 62
     7
370
    13
100
AcDbLine
 10
32.125479
 20
-4.478552
 30
0.0
 11
32.14549
 21
-4.478552
 31
0.0
  0
LINE
  5
3C0
330
559
100
AcDbEntity
  8
_0
  6
Continuous
 62
     7
370
    13
100
AcDbLine
 10
32.04549
 20
-4.478552
 30
0.0
 11
32.06549
 21
-4.478552
 31
0.0
  0
LINE
  5
3C1
330
559
100
AcDbEntity
  8
_0
  6
Continuous
 62
     7
370
    13
100
AcDbLine
 10
32.04549
 20
-4.498552
 30
0.0
 11
32.06549
 21
-4.498552
 31
0.0
  0
LINE
  5
3C2
330
559
100
AcDbEntity
  8
_0
  6
Continuous
 62
     7
370
    13
100
AcDbLine
 10
32.04549
 20
-4.498552
 30
0.0
 11
32.04549
 21
-4.478552
 31
0.0
  0
LINE
  5
3C3
330
559
100
AcDbEntity
  8
_0
  6
Continuous
 62
     7
370
    13
100
AcDbLine
 10
32.14549
 20
-4.498552
 30
0.0
 11
32.14549
 21
-4.478552
 31
0.0
  0
LINE
  5
3C4
330
559
100
AcDbEntity
  8
_0
  6
Continuous
 62
     7
370
    13
100
AcDbLine
 10
32.300469
 20
-4.498552
 30
0.0
 11
32.300469
 21
-4.478552
 31
0.0
  0
LINE
  5
3C5
330
559
100
AcDbEntity
  8
_0
  6
Continuous
 62
     7
370
    13
100
AcDbLine
 10
32.400469
 20
-4.498552
 30
0.0
 11
32.400469
 21
-4.478552
 31
0.0
  0
LINE
  5
3C6
330
559
100
AcDbEntity
  8
_0
  6
Continuous
 62
     7
370
    13
100
AcDbLine
 10
32.575458
 20
-4.498552
 30
0.0
 11
32.575458
 21
-4.478552
 31
0.0
  0
LINE
  5
3C7
330
559
100
AcDbEntity
  8
_0
  6
Continuous
 62
     7
370
    13
100
AcDbLine
 10
31.8405
 20
-4.468552
 30
0.0
 11
31.8405
 21
-4.303562
 31
0.0
  0
LINE
  5
3C8
330
559
100
AcDbEntity
  8
_0
  6
Continuous
 62
     7
370
    13
100
AcDbLine
 10
32.07549
 20
-4.468552
 30
0.0
 11
32.07549
 21
-4.303562
 31
0.0
  0
LINE
  5
3C9
330
559
100
AcDbEntity
  8
_0
  6
Continuous
 62
     7
370
    13
100
AcDbLine
 10
32.11549
 20
-4.468552
 30
0.0
 11
32.11549
 21
-4.303562
 31
0.0
  0
LINE
  5
3CA
330
559
100
AcDbEntity
  8
_0
  6
Continuous
 62
     7
370
    13
100
AcDbLine
 10
32.330469
 20
-4.468552
 30
0.0
 11
32.330469
 21
-4.303562
 31
0.0
  0
LINE
  5
3CB
330
559
100
AcDbEntity
  8
_0
  6
Continuous
 62
     7
370
    13
100
AcDbLine
 10
32.370469
 20
-4.468552
 30
0.0
 11
32.370469
 21
-4.303562
 31
0.0
  0
LINE
  5
3CC
330
559
100
AcDbEntity
  8
_0
  6
Continuous
 62
     7
370
    13
100
AcDbLine
 10
31.8505
 20
-4.293563
 30
0.0
 11
32.06549
 21
-4.293563
 31
0.0
  0
LINE
  5
3CD
330
559
100
AcDbEntity
  8
_0
  6
Continuous
 62
     7
370
    13
100
AcDbLine
 10
31.8505
 20
-4.478552
 30
0.0
 11
31.8705
 21
-4.478552
 31
0.0
  0
LINE
  5
3CE
330
559
100
AcDbEntity
  8
_0
  6
Continuous
 62
     7
370
    13
100
AcDbLine
 10
32.605458
 20
-4.468552
 30
0.0
 11
32.605458
 21
-4.303562
 31
0.0
  0
LINE
  5
3CF
330
559
100
AcDbEntity
  8
_0
  6
Continuous
 62
     7
370
    13
100
AcDbLine
 10
31.8505
 20
-4.498552
 30
0.0
 11
31.8705
 21
-4.498552
 31
0.0
  0
LINE
  5
3D0
330
559
100
AcDbEntity
  8
_0
  6
Continuous
 62
     7
370
    13
100
AcDbLine
 10
31.8505
 20
-4.273573
 30
0.0
 11
32.06549
 21
-4.273573
 31
0.0
  0
LINE
  5
3D1
330
559
100
AcDbEntity
  8
_0
  6
Continuous
 62
     7
370
    13
100
AcDbLine
 10
32.350469
 20
-4.468552
 30
0.0
 11
32.350469
 21
-4.303562
 31
0.0
  0
LINE
  5
3D2
330
559
100
AcDbEntity
  8
_0
  6
Continuous
 62
     7
370
    13
100
AcDbLine
 10
32.09549
 20
-4.468552
 30
0.0
 11
32.09549
 21
-4.303562
 31
0.0
  0
LINE
  5
3D3
330
559
100
AcDbEntity
  8
_0
  6
Continuous
 62
     7
370
    13
100
AcDbLine
 10
31.82051
 20
-4.829125
 30
0.0
 11
31.82051
 21
-3.99876
 31
0.0
  0
LINE
  5
3D5
330
559
100
AcDbEntity
  8
DEFPOINTS
  6
Continuous
 62
     7
370
    13
100
AcDbLine
 10
32.7205
 20
-5.087854
 30
0.0
 11
32.7205
 21
-5.210875
 31
0.0
  0
SOLID
  5
3D6
330
559
100
AcDbEntity
  8
DEFPOINTS
  6
Continuous
 62
     7
370
    13
100
AcDbTrace
 10
32.770135
 20
-5.130875
 30
0.0
 11
32.770135
 21
-5.114208
 31
0.0
 12
32.720135
 22
-5.122542
 32
0.0
 13
32.720135
 23
-5.122542
 33
0.0
  0
LINE
  5
3D7
330
559
100
AcDbEntity
  8
DEFPOINTS
  6
Continuous
 62
     7
370
    13
100
AcDbLine
 10
32.770135
 20
-5.122542
 30
0.0
 11
32.820542
 21
-5.122542
 31
0.0
  0
SOLID
  5
3D8
330
559
100
AcDbEntity
  8
DEFPOINTS
  6
Continuous
 62
     7
370
    13
100
AcDbTrace
 10
32.40351
 20
-5.130875
 30
0.0
 11
32.40351
 21
-5.114208
 31
0.0
 12
32.35351
 22
-5.122542
 32
0.0
 13
32.35351
 23
-5.122542
 33
0.0
  0
LINE
  5
3D9
330
559
100
AcDbEntity
  8
DEFPOINTS
  6
Continuous
 62
     7
370
    13
100
AcDbLine
 10
32.5785
 20
-5.122542
 30
0.0
 11
32.40351
 21
-5.122542
 31
0.0
  0
SOLID
  5
3DB
330
559
100
AcDbEntity
  8
DEFPOINTS
  6
Continuous
 62
     7
370
    13
100
AcDbTrace
 10
32.5785
 20
-5.130875
 30
0.0
 11
32.5785
 21
-5.114208
 31
0.0
 12
32.6285
 22
-5.122542
 32
0.0
 13
32.6285
 23
-5.122542
 33
0.0
  0
LINE
  5
3DC
330
559
100
AcDbEntity
  8
DEFPOINTS
  6
Continuous
 62
     7
370
    13
100
AcDbLine
 10
32.628125
 20
-5.087854
 30
0.0
 11
32.628125
 21
-5.210875
 31
0.0
  0
LINE
  5
3DD
330
559
100
AcDbEntity
  8
_0
  6
Continuous
 62
     7
370
    13
100
AcDbLine
 10
32.283281
 20
-5.630562
 30
0.0
 11
32.283281
 21
-5.580563
 31
0.0
  0
LINE
  5
3DE
330
559
100
AcDbEntity
  8
_0
  6
Continuous
 62
     7
370
    13
100
AcDbLine
 10
32.283281
 20
-5.630562
 30
0.0
 11
32.303281
 21
-5.630562
 31
0.0
  0
LINE
  5
3DF
330
559
100
AcDbEntity
  8
_0
  6
Continuous
 62
     7
370
    13
100
AcDbLine
 10
32.283281
 20
-5.580563
 30
0.0
 11
32.303281
 21
-5.580563
 31
0.0
  0
LINE
  5
3E0
330
559
100
AcDbEntity
  8
_0
  6
Continuous
 62
     7
370
    13
100
AcDbLine
 10
32.303281
 20
-5.640562
 30
0.0
 11
32.303281
 21
-5.570562
 31
0.0
  0
LINE
  5
3E1
330
559
100
AcDbEntity
  8
_0
  6
Continuous
 62
     7
370
    13
100
AcDbLine
 10
32.303281
 20
-5.640562
 30
0.0
 11
32.315469
 21
-5.640562
 31
0.0
  0
LINE
  5
3E2
330
559
100
AcDbEntity
  8
_0
  6
Continuous
 62
     7
370
    13
100
AcDbLine
 10
32.303281
 20
-5.570562
 30
0.0
 11
32.315469
 21
-5.570562
 31
0.0
  0
LINE
  5
3E3
330
559
100
AcDbEntity
  8
_0
  6
Continuous
 62
     7
370
    13
100
AcDbLine
 10
32.303281
 20
-5.279698
 30
0.0
 11
32.315469
 21
-5.279698
 31
0.0
  0
LINE
  5
3E4
330
559
100
AcDbEntity
  8
_0
  6
Continuous
 62
     7
370
    13
100
AcDbLine
 10
32.303281
 20
-5.349687
 30
0.0
 11
32.315469
 21
-5.349687
 31
0.0
  0
LINE
  5
3E5
330
559
100
AcDbEntity
  8
_0
  6
Continuous
 62
     7
370
    13
100
AcDbLine
 10
32.303281
 20
-5.349687
 30
0.0
 11
32.303281
 21
-5.279698
 31
0.0
  0
LINE
  5
3E6
330
559
100
AcDbEntity
  8
_0
  6
Continuous
 62
     7
370
    13
100
AcDbLine
 10
32.283281
 20
-5.289698
 30
0.0
 11
32.303281
 21
-5.289698
 31
0.0
  0
LINE
  5
3E7
330
559
100
AcDbEntity
  8
_0
  6
Continuous
 62
     7
370
    13
100
AcDbLine
 10
32.283281
 20
-5.339688
 30
0.0
 11
32.303281
 21
-5.339688
 31
0.0
  0
LINE
  5
3E8
330
559
100
AcDbEntity
  8
_0
  6
Continuous
 62
     7
370
    13
100
AcDbLine
 10
32.283281
 20
-5.339688
 30
0.0
 11
32.283281
 21
-5.289698
 31
0.0
  0
LINE
  5
3E9
330
559
100
AcDbEntity
  8
_0
  6
Continuous
 62
     7
370
    13
100
AcDbLine
 10
32.625448
 20
-5.681354
 30
0.0
 11
32.350469
 21
-5.681354
 31
0.0
  0
LINE
  5
3EA
330
559
100
AcDbEntity
  8
_0
  6
Continuous
 62
     7
370
    13
100
AcDbLine
 10
32.625448
 20
-5.681354
 30
0.0
 11
32.625448
 21
-5.234812
 31
0.0
  0
LWPOLYLINE
  5
3EB
330
559
100
AcDbEntity
  8
_0
  6
Continuous
 62
     7
370
    40
100
AcDbPolyline
 90
       10
 70
   128
 43
0.0
 10
32.625448
 20
-5.241469
 10
32.715448
 20
-5.331469
 10
32.715448
 20
-5.353969
 10
32.633448
 20
-5.435958
 10
32.633446
 20
-5.435966
 42
-0.573574
 10
32.635151
 20
-5.472546
 10
32.635156
 20
-5.472542
 10
32.715448
 20
-5.552844
 10
32.715448
 20
-5.576448
 10
32.625448
 20
-5.666448
  0
LINE
  5
3EF
330
559
100
AcDbEntity
  8
_0
  6
Continuous
 62
     7
370
    13
100
AcDbLine
 10
32.385469
 20
-5.681354
 30
0.0
 11
32.385469
 21
-5.234812
 31
0.0
  0
LINE
  5
3F0
330
559
100
AcDbEntity
  8
_0
  6
Continuous
 62
     7
370
    13
100
AcDbLine
 10
32.590458
 20
-5.681354
 30
0.0
 11
32.590458
 21
-5.234812
 31
0.0
  0
LINE
  5
3F1
330
559
100
AcDbEntity
  8
_0
  6
Continuous
 62
     7
370
    13
100
AcDbLine
 10
32.385469
 20
-5.621833
 30
0.0
 11
32.412958
 21
-5.621833
 31
0.0
  0
LINE
  5
3F2
330
559
100
AcDbEntity
  8
_0
  6
Continuous
 62
     7
370
    13
100
AcDbLine
 10
32.385469
 20
-5.576802
 30
0.0
 11
32.412958
 21
-5.576802
 31
0.0
  0
LINE
  5
3F3
330
559
100
AcDbEntity
  8
_0
  6
Continuous
 62
     7
370
    13
100
AcDbLine
 10
32.385469
 20
-5.284375
 30
0.0
 11
32.412958
 21
-5.284375
 31
0.0
  0
LINE
  5
3F4
330
559
100
AcDbEntity
  8
_0
  6
Continuous
 62
     7
370
    13
100
AcDbLine
 10
32.385469
 20
-5.323146
 30
0.0
 11
32.412958
 21
-5.323146
 31
0.0
  0
LINE
  5
3F5
330
559
100
AcDbEntity
  8
_0
  6
Continuous
 62
     7
370
    13
100
AcDbLine
 10
32.385469
 20
-5.640562
 30
0.0
 11
32.412958
 21
-5.640562
 31
0.0
  0
LINE
  5
3F6
330
559
100
AcDbEntity
  8
_0
  6
Continuous
 62
     7
370
    13
100
AcDbLine
 10
32.385469
 20
-5.570562
 30
0.0
 11
32.412958
 21
-5.570562
 31
0.0
  0
LINE
  5
3F7
330
559
100
AcDbEntity
  8
_0
  6
Continuous
 62
     7
370
    13
100
AcDbLine
 10
32.385469
 20
-5.349687
 30
0.0
 11
32.412958
 21
-5.349687
 31
0.0
  0
LINE
  5
3F8
330
559
100
AcDbEntity
  8
_0
  6
Continuous
 62
     7
370
    13
100
AcDbLine
 10
32.385469
 20
-5.279698
 30
0.0
 11
32.412958
 21
-5.279698
 31
0.0
  0
LINE
  5
3F9
330
559
100
AcDbEntity
  8
_0
  6
Continuous
 62
     7
370
    13
100
AcDbLine
 10
32.412958
 20
-5.349687
 30
0.0
 11
32.412958
 21
-5.279698
 31
0.0
  0
LINE
  5
3FA
330
559
100
AcDbEntity
  8
_0
  6
Continuous
 62
     7
370
    13
100
AcDbLine
 10
32.412958
 20
-5.640562
 30
0.0
 11
32.412958
 21
-5.570562
 31
0.0
  0
LINE
  5
3FB
330
559
100
AcDbEntity
  8
_0
  6
Continuous
 62
     7
370
    13
100
AcDbLine
 10
32.578292
 20
-5.420906
 30
0.0
 11
32.590479
 21
-5.420906
 31
0.0
  0
LINE
  5
3FC
330
559
100
AcDbEntity
  8
_0
  6
Continuous
 62
     7
370
    13
100
AcDbLine
 10
32.578292
 20
-5.490906
 30
0.0
 11
32.590479
 21
-5.490906
 31
0.0
  0
LINE
  5
3FD
330
559
100
AcDbEntity
  8
_0
  6
Continuous
 62
     7
370
    13
100
AcDbLine
 10
32.578292
 20
-5.490906
 30
0.0
 11
32.578292
 21
-5.420906
 31
0.0
  0
LINE
  5
3FE
330
559
100
AcDbEntity
  8
_0
  6
Continuous
 62
     7
370
    13
100
AcDbLine
 10
32.558292
 20
-5.430906
 30
0.0
 11
32.578292
 21
-5.430906
 31
0.0
  0
LINE
  5
3FF
330
559
100
AcDbEntity
  8
_0
  6
Continuous
 62
     7
370
    13
100
AcDbLine
 10
32.558292
 20
-5.480906
 30
0.0
 11
32.578292
 21
-5.480906
 31
0.0
  0
LINE
  5
400
330
559
100
AcDbEntity
  8
_0
  6
Continuous
 62
     7
370
    13
100
AcDbLine
 10
32.558292
 20
-5.480906
 30
0.0
 11
32.558292
 21
-5.430906
 31
0.0
  0
LINE
  5
402
330
559
100
AcDbEntity
  8
REF
  6
Continuous
 62
     7
370
    13
100
AcDbLine
 10
31.908125
 20
-6.735469
 30
0.0
 11
31.864385
 21
-6.735469
 31
0.0
  0
LINE
  5
403
330
559
100
AcDbEntity
  8
REF
  6
Continuous
 62
     7
370
    13
100
AcDbLine
 10
32.156354
 20
-6.878198
 30
0.0
 11
31.908125
 21
-6.735469
 31
0.0
  0
SOLID
  5
404
330
559
100
AcDbEntity
  8
REF
  6
Continuous
 62
     7
370
    13
100
AcDbTrace
 10
32.16051
 20
-6.870969
 30
0.0
 11
32.152198
 21
-6.885417
 31
0.0
 12
32.199687
 22
-6.903115
 32
0.0
 13
32.199687
 23
-6.903115
 33
0.0
  0
CIRCLE
  5
405
330
559
100
AcDbEntity
  8
_0
  6
Continuous
 62
     7
370
    13
100
AcDbCircle
 10
32.224438
 20
-6.915085
 30
0.0
 40
0.024998399999997
  0
LINE
  5
406
330
559
100
AcDbEntity
  8
_0
  6
Continuous
 62
     7
370
    13
100
AcDbLine
 10
32.09549
 20
-6.628812
 30
0.0
 11
32.09549
 21
-5.234812
 31
0.0
  0
LINE
  5
407
330
559
100
AcDbEntity
  8
_0
  6
Continuous
 62
     7
370
    13
100
AcDbLine
 10
32.13049
 20
-6.625062
 30
0.0
 11
32.13049
 21
-5.234812
 31
0.0
  0
LINE
  5
408
330
559
100
AcDbEntity
  8
_0
  6
Continuous
 62
     7
370
    13
100
AcDbLine
 10
31.887667
 20
-5.480906
 30
0.0
 11
31.887667
 21
-5.430906
 31
0.0
  0
LINE
  5
409
330
559
100
AcDbEntity
  8
_0
  6
Continuous
 62
     7
370
    13
100
AcDbLine
 10
31.887667
 20
-5.480906
 30
0.0
 11
31.867667
 21
-5.480906
 31
0.0
  0
LINE
  5
40A
330
559
100
AcDbEntity
  8
_0
  6
Continuous
 62
     7
370
    13
100
AcDbLine
 10
31.887667
 20
-5.430906
 30
0.0
 11
31.867667
 21
-5.430906
 31
0.0
  0
LINE
  5
40B
330
559
100
AcDbEntity
  8
_0
  6
Continuous
 62
     7
370
    13
100
AcDbLine
 10
31.867667
 20
-5.490906
 30
0.0
 11
31.867667
 21
-5.420906
 31
0.0
  0
LINE
  5
40C
330
559
100
AcDbEntity
  8
_0
  6
Continuous
 62
     7
370
    13
100
AcDbLine
 10
31.867667
 20
-5.490906
 30
0.0
 11
31.855479
 21
-5.490906
 31
0.0
  0
LINE
  5
40D
330
559
100
AcDbEntity
  8
_0
  6
Continuous
 62
     7
370
    13
100
AcDbLine
 10
31.867667
 20
-5.420906
 30
0.0
 11
31.855479
 21
-5.420906
 31
0.0
  0
LINE
  5
40E
330
559
100
AcDbEntity
  8
_0
  6
Continuous
 62
     7
370
    13
100
AcDbLine
 10
32.162677
 20
-5.339688
 30
0.0
 11
32.162677
 21
-5.289698
 31
0.0
  0
LINE
  5
40F
330
559
100
AcDbEntity
  8
_0
  6
Continuous
 62
     7
370
    13
100
AcDbLine
 10
32.162677
 20
-5.339688
 30
0.0
 11
32.142677
 21
-5.339688
 31
0.0
  0
LINE
  5
410
330
559
100
AcDbEntity
  8
_0
  6
Continuous
 62
     7
370
    13
100
AcDbLine
 10
32.162677
 20
-5.289698
 30
0.0
 11
32.142677
 21
-5.289698
 31
0.0
  0
LINE
  5
411
330
559
100
AcDbEntity
  8
_0
  6
Continuous
 62
     7
370
    13
100
AcDbLine
 10
32.142677
 20
-5.349687
 30
0.0
 11
32.142677
 21
-5.279698
 31
0.0
  0
LINE
  5
412
330
559
100
AcDbEntity
  8
_0
  6
Continuous
 62
     7
370
    13
100
AcDbLine
 10
32.142677
 20
-5.349687
 30
0.0
 11
32.13049
 21
-5.349687
 31
0.0
  0
LINE
  5
413
330
559
100
AcDbEntity
  8
_0
  6
Continuous
 62
     7
370
    13
100
AcDbLine
 10
32.142677
 20
-5.279698
 30
0.0
 11
32.13049
 21
-5.279698
 31
0.0
  0
LINE
  5
414
330
559
100
AcDbEntity
  8
_0
  6
Continuous
 62
     7
370
    13
100
AcDbLine
 10
32.142677
 20
-5.570562
 30
0.0
 11
32.13049
 21
-5.570562
 31
0.0
  0
LINE
  5
415
330
559
100
AcDbEntity
  8
_0
  6
Continuous
 62
     7
370
    13
100
AcDbLine
 10
32.142677
 20
-5.640562
 30
0.0
 11
32.13049
 21
-5.640562
 31
0.0
  0
LINE
  5
416
330
559
100
AcDbEntity
  8
_0
  6
Continuous
 62
     7
370
    13
100
AcDbLine
 10
32.142677
 20
-5.640562
 30
0.0
 11
32.142677
 21
-5.570562
 31
0.0
  0
LINE
  5
417
330
559
100
AcDbEntity
  8
_0
  6
Continuous
 62
     7
370
    13
100
AcDbLine
 10
32.162677
 20
-5.580563
 30
0.0
 11
32.142677
 21
-5.580563
 31
0.0
  0
LINE
  5
418
330
559
100
AcDbEntity
  8
_0
  6
Continuous
 62
     7
370
    13
100
AcDbLine
 10
32.162677
 20
-5.630562
 30
0.0
 11
32.142677
 21
-5.630562
 31
0.0
  0
LINE
  5
419
330
559
100
AcDbEntity
  8
_0
  6
Continuous
 62
     7
370
    13
100
AcDbLine
 10
32.162677
 20
-5.630562
 30
0.0
 11
32.162677
 21
-5.580563
 31
0.0
  0
LINE
  5
41A
330
559
100
AcDbEntity
  8
_0
  6
Continuous
 62
     7
370
    13
100
AcDbLine
 10
32.033
 20
-5.640562
 30
0.0
 11
32.033
 21
-5.570562
 31
0.0
  0
LINE
  5
41B
330
559
100
AcDbEntity
  8
_0
  6
Continuous
 62
     7
370
    13
100
AcDbLine
 10
32.033
 20
-5.349687
 30
0.0
 11
32.033
 21
-5.279698
 31
0.0
  0
LINE
  5
41C
330
559
100
AcDbEntity
  8
_0
  6
Continuous
 62
     7
370
    13
100
AcDbLine
 10
32.06049
 20
-5.279698
 30
0.0
 11
32.033
 21
-5.279698
 31
0.0
  0
LINE
  5
41D
330
559
100
AcDbEntity
  8
_0
  6
Continuous
 62
     7
370
    13
100
AcDbLine
 10
32.06049
 20
-5.349687
 30
0.0
 11
32.033
 21
-5.349687
 31
0.0
  0
LINE
  5
41E
330
559
100
AcDbEntity
  8
_0
  6
Continuous
 62
     7
370
    13
100
AcDbLine
 10
32.06049
 20
-5.570562
 30
0.0
 11
32.033
 21
-5.570562
 31
0.0
  0
LINE
  5
41F
330
559
100
AcDbEntity
  8
_0
  6
Continuous
 62
     7
370
    13
100
AcDbLine
 10
32.06049
 20
-5.640562
 30
0.0
 11
32.033
 21
-5.640562
 31
0.0
  0
LINE
  5
420
330
559
100
AcDbEntity
  8
_0
  6
Continuous
 62
     7
370
    13
100
AcDbLine
 10
32.06049
 20
-5.323146
 30
0.0
 11
32.033
 21
-5.323146
 31
0.0
  0
LINE
  5
421
330
559
100
AcDbEntity
  8
_0
  6
Continuous
 62
     7
370
    13
100
AcDbLine
 10
32.06049
 20
-5.284375
 30
0.0
 11
32.033
 21
-5.284375
 31
0.0
  0
LINE
  5
422
330
559
100
AcDbEntity
  8
_0
  6
Continuous
 62
     7
370
    13
100
AcDbLine
 10
32.06049
 20
-5.576802
 30
0.0
 11
32.033
 21
-5.576802
 31
0.0
  0
LINE
  5
423
330
559
100
AcDbEntity
  8
_0
  6
Continuous
 62
     7
370
    13
100
AcDbLine
 10
32.06049
 20
-5.621833
 30
0.0
 11
32.033
 21
-5.621833
 31
0.0
  0
LINE
  5
424
330
559
100
AcDbEntity
  8
_0
  6
Continuous
 62
     7
370
    13
100
AcDbLine
 10
31.85551
 20
-5.681354
 30
0.0
 11
31.85551
 21
-5.234812
 31
0.0
  0
LINE
  5
425
330
559
100
AcDbEntity
  8
_0
  6
Continuous
 62
     7
370
    13
100
AcDbLine
 10
32.06049
 20
-5.681354
 30
0.0
 11
32.06049
 21
-5.234812
 31
0.0
  0
LWPOLYLINE
  5
426
330
559
100
AcDbEntity
  8
_0
  6
Continuous
 62
     7
370
     0
100
AcDbPolyline
 90
       53
 70
   128
 43
0.0
 10
32.09549
 20
-6.628812
 10
32.104271
 20
-6.626427
 10
32.112146
 20
-6.625073
 10
32.119219
 20
-6.624542
 10
32.125594
 20
-6.624635
 10
32.131354
 20
-6.625135
 10
32.136615
 20
-6.625844
 10
32.141458
 20
-6.626552
 10
32.145979
 20
-6.627052
 10
32.150271
 20
-6.627198
 10
32.154406
 20
-6.627021
 10
32.158437
 20
-6.626646
 10
32.162396
 20
-6.626146
 10
32.166365
 20
-6.625646
 10
32.170396
 20
-6.625229
 10
32.174521
 20
-6.625
 10
32.178823
 20
-6.625073
 10
32.183323
 20
-6.6255
 10
32.242969
 20
-6.626229
 10
32.24774
 20
-6.627177
 10
32.252542
 20
-6.62824
 10
32.257323
 20
-6.629333
 10
32.262031
 20
-6.630365
 10
32.266604
 20
-6.63125
 10
32.27099
 20
-6.631896
 10
32.275125
 20
-6.63224
 10
32.279052
 20
-6.632281
 10
32.282771
 20
-6.632094
 10
32.286344
 20
-6.631708
 10
32.289792
 20
-6.631156
 10
32.293135
 20
-6.6305
 10
32.296417
 20
-6.629781
 10
32.299677
 20
-6.629031
 10
32.302917
 20
-6.628312
 10
32.306146
 20
-6.627625
 10
32.309323
 20
-6.627021
 10
32.312438
 20
-6.6265
 10
32.315469
 20
-6.626115
 10
32.318406
 20
-6.625875
 10
32.321198
 20
-6.625812
 10
32.323854
 20
-6.625958
 10
32.326344
 20
-6.626302
 10
32.328698
 20
-6.626823
 10
32.330948
 20
-6.627448
 10
32.333125
 20
-6.628125
 10
32.33526
 20
-6.628792
 10
32.337375
 20
-6.629385
 10
32.339521
 20
-6.629854
 10
32.341719
 20
-6.630135
 10
32.34399
 20
-6.630187
 10
32.346333
 20
-6.630052
 10
32.34874
 20
-6.629802
 10
32.350469
 20
-6.629594
  0
LWPOLYLINE
  5
427
330
559
100
AcDbEntity
  8
_0
  6
Continuous
 62
     7
370
     0
100
AcDbPolyline
 90
       53
 70
   128
 43
0.0
 10
32.09549
 20
-6.783323
 10
32.104271
 20
-6.780937
 10
32.112146
 20
-6.779583
 10
32.119219
 20
-6.779052
 10
32.125594
 20
-6.779146
 10
32.131354
 20
-6.779646
 10
32.136615
 20
-6.780354
 10
32.141458
 20
-6.781062
 10
32.145979
 20
-6.781562
 10
32.150271
 20
-6.781708
 10
32.154406
 20
-6.781531
 10
32.158437
 20
-6.781156
 10
32.162396
 20
-6.780656
 10
32.166365
 20
-6.780156
 10
32.170396
 20
-6.77974
 10
32.174521
 20
-6.77951
 10
32.178823
 20
-6.779583
 10
32.183323
 20
-6.78001
 10
32.242969
 20
-6.78074
 10
32.24774
 20
-6.781687
 10
32.252542
 20
-6.78275
 10
32.257323
 20
-6.783844
 10
32.262031
 20
-6.784875
 10
32.266604
 20
-6.78576
 10
32.27099
 20
-6.786406
 10
32.275125
 20
-6.78675
 10
32.279052
 20
-6.786792
 10
32.282771
 20
-6.786604
 10
32.286344
 20
-6.786208
 10
32.289792
 20
-6.785667
 10
32.293135
 20
-6.78501
 10
32.296417
 20
-6.784292
 10
32.299677
 20
-6.783542
 10
32.302917
 20
-6.782812
 10
32.306146
 20
-6.782135
 10
32.309323
 20
-6.781531
 10
32.312438
 20
-6.781021
 10
32.315469
 20
-6.780625
 10
32.318406
 20
-6.780385
 10
32.321198
 20
-6.780323
 10
32.323854
 20
-6.780458
 10
32.326344
 20
-6.780812
 10
32.328698
 20
-6.781333
 10
32.330948
 20
-6.781958
 10
32.333125
 20
-6.782635
 10
32.33526
 20
-6.783302
 10
32.337375
 20
-6.783896
 10
32.339521
 20
-6.784365
 10
32.341719
 20
-6.784646
 10
32.34399
 20
-6.784698
 10
32.346333
 20
-6.784562
 10
32.34874
 20
-6.784312
 10
32.350469
 20
-6.784104
  0
LINE
  5
428
330
559
100
AcDbEntity
  8
_0
  6
Continuous
 62
     7
370
    13
100
AcDbLine
 10
32.350469
 20
-7.034698
 30
0.0
 11
32.350469
 21
-6.783323
 31
0.0
  0
LINE
  5
429
330
559
100
AcDbEntity
  8
_0
  6
Continuous
 62
     7
370
    13
100
AcDbLine
 10
32.350469
 20
-6.629979
 30
0.0
 11
32.350469
 21
-5.234812
 31
0.0
  0
LINE
  5
42A
330
559
100
AcDbEntity
  8
DEFPOINTS
  6
Continuous
 62
     7
370
    13
100
AcDbLine
 10
32.680302
 20
-5.234219
 30
0.0
 11
33.12025
 21
-5.234219
 31
0.0
  0
LINE
  5
42B
330
559
100
AcDbEntity
  8
DEFPOINTS
  6
Continuous
 62
     7
370
    13
100
AcDbLine
 10
32.394604
 20
-7.034104
 30
0.0
 11
33.12025
 21
-7.034104
 31
0.0
  0
LINE
  5
42C
330
559
100
AcDbEntity
  8
DEFPOINTS
  6
Continuous
 62
     7
370
    13
100
AcDbLine
 10
33.07026
 20
-5.284219
 30
0.0
 11
33.07026
 21
-6.994438
 31
0.0
  0
SOLID
  5
42D
330
559
100
AcDbEntity
  8
DEFPOINTS
  6
Continuous
 62
     7
370
    13
100
AcDbTrace
 10
33.078594
 20
-5.284219
 30
0.0
 11
33.061927
 21
-5.284219
 31
0.0
 12
33.07026
 22
-5.234219
 32
0.0
 13
33.07026
 23
-5.234219
 33
0.0
  0
SOLID
  5
42E
330
559
100
AcDbEntity
  8
DEFPOINTS
  6
Continuous
 62
     7
370
    13
100
AcDbTrace
 10
33.078594
 20
-6.984115
 30
0.0
 11
33.061927
 21
-6.984115
 31
0.0
 12
33.07026
 22
-7.034104
 32
0.0
 13
33.07026
 23
-7.034104
 33
0.0
  0
LWPOLYLINE
  5
42F
330
559
100
AcDbEntity
  8
_0
  6
Continuous
 62
     7
370
    40
100
AcDbPolyline
 90
       10
 70
   128
 43
0.0
 10
31.82051
 20
-5.241469
 10
31.73051
 20
-5.331469
 10
31.73051
 20
-5.353969
 10
31.81251
 20
-5.435958
 10
31.812514
 20
-5.435966
 42
0.573574
 10
31.810809
 20
-5.472546
 10
31.810802
 20
-5.472542
 10
31.73051
 20
-5.552844
 10
31.73051
 20
-5.576448
 10
31.82051
 20
-5.666448
  0
LINE
  5
433
330
559
100
AcDbEntity
  8
_0
  6
Continuous
 62
     7
370
    13
100
AcDbLine
 10
32.09549
 20
-7.034698
 30
0.0
 11
32.09549
 21
-6.783323
 31
0.0
  0
LINE
  5
434
330
559
100
AcDbEntity
  8
2-30G
  6
Continuous
 62
     7
370
    13
100
AcDbLine
 10
32.09549
 20
-7.034104
 30
0.0
 11
32.350469
 21
-7.034104
 31
0.0
  0
LINE
  5
435
330
559
100
AcDbEntity
  8
_0
  6
Continuous
 62
     7
370
    13
100
AcDbLine
 10
31.82051
 20
-5.234812
 30
0.0
 11
32.625448
 21
-5.234812
 31
0.0
  0
LINE
  5
436
330
559
100
AcDbEntity
  8
_0
  6
Continuous
 62
     7
370
    13
100
AcDbLine
 10
32.350469
 20
-7.034104
 30
0.0
 11
32.350469
 21
-6.78999
 31
0.0
  0
LINE
  5
437
330
559
100
AcDbEntity
  8
_0
  6
Continuous
 62
     7
370
    13
100
AcDbLine
 10
31.82051
 20
-5.681354
 30
0.0
 11
31.82051
 21
-5.234812
 31
0.0
  0
LINE
  5
438
330
559
100
AcDbEntity
  8
_0
  6
Continuous
 62
     7
370
    13
100
AcDbLine
 10
31.82051
 20
-5.681354
 30
0.0
 11
32.09549
 21
-5.681354
 31
0.0
  0
LINE
  5
439
330
559
100
AcDbEntity
  8
_0
  6
Continuous
 62
     7
370
    13
100
AcDbLine
 10
32.09549
 20
-7.034698
 30
0.0
 11
32.350469
 21
-7.034698
 31
0.0
  0
LINE
  5
43A
330
559
100
AcDbEntity
  8
_0
  6
Continuous
 62
     7
370
    13
100
AcDbLine
 10
31.307156
 20
-6.23475
 30
0.0
 11
31.845302
 21
-6.23475
 31
0.0
  0
LINE
  5
43B
330
559
100
AcDbEntity
  8
_0
  6
Continuous
 62
     7
370
    13
100
AcDbLine
 10
32.350469
 20
-6.637187
 30
0.0
 11
32.350469
 21
-5.234219
 31
0.0
  0
LINE
  5
43C
330
559
100
AcDbEntity
  8
DEFPOINTS
  6
Continuous
 62
     7
370
    13
100
AcDbLine
 10
32.350469
 20
-5.087271
 30
0.0
 11
32.350469
 21
-5.210292
 31
0.0
  0
LINE
  5
43D
330
559
100
AcDbEntity
  8
DEFPOINTS
  6
Continuous
 62
     7
370
    13
100
AcDbLine
 10
32.09549
 20
-5.087854
 30
0.0
 11
32.09549
 21
-5.210875
 31
0.0
  0
LINE
  5
43E
330
559
100
AcDbEntity
  8
DEFPOINTS
  6
Continuous
 62
     7
370
    13
100
AcDbLine
 10
32.303562
 20
-5.122542
 30
0.0
 11
32.14549
 21
-5.122542
 31
0.0
  0
SOLID
  5
43F
330
559
100
AcDbEntity
  8
DEFPOINTS
  6
Continuous
 62
     7
370
    13
100
AcDbTrace
 10
32.300469
 20
-5.130281
 30
0.0
 11
32.300469
 21
-5.113625
 31
0.0
 12
32.350469
 22
-5.121958
 32
0.0
 13
32.350469
 23
-5.121958
 33
0.0
  0
SOLID
  5
440
330
559
100
AcDbEntity
  8
DEFPOINTS
  6
Continuous
 62
     7
370
    13
100
AcDbTrace
 10
32.14549
 20
-5.130875
 30
0.0
 11
32.14549
 21
-5.114208
 31
0.0
 12
32.09549
 22
-5.122542
 32
0.0
 13
32.09549
 23
-5.122542
 33
0.0
  0
SOLID
  5
442
330
559
100
AcDbEntity
  8
DEFPOINTS
  6
Continuous
 62
     7
370
    13
100
AcDbTrace
 10
32.045865
 20
-5.130875
 30
0.0
 11
32.045865
 21
-5.114208
 31
0.0
 12
32.095854
 22
-5.122542
 32
0.0
 13
32.095854
 23
-5.122542
 33
0.0
  0
LINE
  5
443
330
559
100
AcDbEntity
  8
DEFPOINTS
  6
Continuous
 62
     7
370
    13
100
AcDbLine
 10
32.045865
 20
-5.122542
 30
0.0
 11
31.870875
 21
-5.122542
 31
0.0
  0
SOLID
  5
444
330
559
100
AcDbEntity
  8
DEFPOINTS
  6
Continuous
 62
     7
370
    13
100
AcDbTrace
 10
31.870875
 20
-5.130875
 30
0.0
 11
31.870875
 21
-5.114208
 31
0.0
 12
31.820875
 22
-5.122542
 32
0.0
 13
31.820875
 23
-5.122542
 33
0.0
  0
LINE
  5
445
330
559
100
AcDbEntity
  8
DEFPOINTS
  6
Continuous
 62
     7
370
    13
100
AcDbLine
 10
31.820875
 20
-5.087854
 30
0.0
 11
31.820875
 21
-5.210875
 31
0.0
  0
SOLID
  5
446
330
559
100
AcDbEntity
  8
DEFPOINTS
  6
Continuous
 62
     7
370
    13
100
AcDbTrace
 10
31.675823
 20
-5.130875
 30
0.0
 11
31.675823
 21
-5.114208
 31
0.0
 12
31.725823
 22
-5.122542
 32
0.0
 13
31.725823
 23
-5.122542
 33
0.0
  0
LINE
  5
447
330
559
100
AcDbEntity
  8
DEFPOINTS
  6
Continuous
 62
     7
370
    13
100
AcDbLine
 10
31.725458
 20
-5.087854
 30
0.0
 11
31.725458
 21
-5.210875
 31
0.0
  0
LINE
  5
448
330
559
100
AcDbEntity
  8
DEFPOINTS
  6
Continuous
 62
     7
370
    13
100
AcDbLine
 10
31.675823
 20
-5.122542
 30
0.0
 11
31.625417
 21
-5.122542
 31
0.0
  0
LINE
  5
44A
330
559
100
AcDbEntity
  8
_0
  6
Continuous
 62
     7
370
    13
100
AcDbLine
 10
31.77051
 20
-5.234427
 30
0.0
 11
31.542344
 21
-5.234427
 31
0.0
  0
LINE
  5
44B
330
559
100
AcDbEntity
  8
DEFPOINTS
  6
Continuous
 62
     7
370
    13
100
AcDbLine
 10
31.77051
 20
-5.681354
 30
0.0
 11
31.542344
 21
-5.681354
 31
0.0
  0
LINE
  5
44C
330
559
100
AcDbEntity
  8
DEFPOINTS
  6
Continuous
 62
     7
370
    13
100
AcDbLine
 10
31.592333
 20
-5.284417
 30
0.0
 11
31.592333
 21
-5.631365
 31
0.0
  0
SOLID
  5
44D
330
559
100
AcDbEntity
  8
DEFPOINTS
  6
Continuous
 62
     7
370
    13
100
AcDbTrace
 10
31.600667
 20
-5.284417
 30
0.0
 11
31.584
 21
-5.284417
 31
0.0
 12
31.592333
 22
-5.234427
 32
0.0
 13
31.592333
 23
-5.234427
 33
0.0
  0
SOLID
  5
44E
330
559
100
AcDbEntity
  8
DEFPOINTS
  6
Continuous
 62
     7
370
    13
100
AcDbTrace
 10
31.600667
 20
-5.631365
 30
0.0
 11
31.584
 21
-5.631365
 31
0.0
 12
31.592333
 22
-5.681354
 32
0.0
 13
31.592333
 23
-5.681354
 33
0.0
  0
LINE
  5
450
330
559
100
AcDbEntity
  8
DEFPOINTS
  6
Continuous
 62
     7
370
    13
100
AcDbLine
 10
31.761708
 20
-5.248729
 30
0.0
 11
31.348948
 21
-5.248729
 31
0.0
  0
LINE
  5
451
330
559
100
AcDbEntity
  8
DEFPOINTS
  6
Continuous
 62
     7
370
    13
100
AcDbLine
 10
31.398937
 20
-5.298729
 30
0.0
 11
31.398937
 21
-6.185125
 31
0.0
  0
SOLID
  5
452
330
559
100
AcDbEntity
  8
DEFPOINTS
  6
Continuous
 62
     7
370
    13
100
AcDbTrace
 10
31.407271
 20
-5.298729
 30
0.0
 11
31.390604
 21
-5.298729
 31
0.0
 12
31.398937
 22
-5.248729
 32
0.0
 13
31.398937
 23
-5.248729
 33
0.0
  0
SOLID
  5
453
330
559
100
AcDbEntity
  8
DEFPOINTS
  6
Continuous
 62
     7
370
    13
100
AcDbTrace
 10
31.407271
 20
-6.185125
 30
0.0
 11
31.390604
 21
-6.185125
 31
0.0
 12
31.398937
 22
-6.235125
 32
0.0
 13
31.398937
 23
-6.235125
 33
0.0
  0
LINE
  5
455
330
559
100
AcDbEntity
  8
_0
  6
Continuous
 62
     7
370
    13
100
AcDbLine
 10
32.350469
 20
-6.234156
 30
0.0
 11
32.738135
 21
-6.234156
 31
0.0
  0
LINE
  5
456
330
559
100
AcDbEntity
  8
_0
  6
Continuous
 62
     7
370
    13
100
AcDbLine
 10
32.315469
 20
-7.034104
 30
0.0
 11
32.315469
 21
-6.780625
 31
0.0
  0
LINE
  5
457
330
559
100
AcDbEntity
  8
_0
  6
Continuous
 62
     7
370
    13
100
AcDbLine
 10
32.13049
 20
-7.034719
 30
0.0
 11
32.130698
 21
-6.778031
 31
0.0
  0
LINE
  5
458
330
559
100
AcDbEntity
  8
_0
  6
Continuous
 62
     7
370
    13
100
AcDbLine
 10
32.315469
 20
-6.626115
 30
0.0
 11
32.315469
 21
-5.234219
 31
0.0
  0
LINE
  5
459
330
559
100
AcDbEntity
  8
_0
  6
Continuous
 62
     7
370
    13
100
AcDbLine
 10
28.951406
 20
-6.469417
 30
0.0
 11
28.951406
 21
-5.077521
 31
0.0
  0
LINE
  5
45A
330
559
100
AcDbEntity
  8
_0
  6
Continuous
 62
     7
370
    13
100
AcDbLine
 10
28.766417
 20
-6.878021
 30
0.0
 11
28.766625
 21
-6.621333
 31
0.0
  0
LINE
  5
45B
330
559
100
AcDbEntity
  8
_0
  6
Continuous
 62
     7
370
    13
100
AcDbLine
 10
28.951406
 20
-6.877406
 30
0.0
 11
28.951406
 21
-6.623927
 31
0.0
  0
LINE
  5
45C
330
559
100
AcDbEntity
  8
_0
  6
Continuous
 62
     7
370
    13
100
AcDbLine
 10
28.986406
 20
-6.077458
 30
0.0
 11
29.319073
 21
-6.077458
 31
0.0
  0
SOLID
  5
45E
330
559
100
AcDbEntity
  8
DEFPOINTS
  6
Continuous
 62
     7
370
    13
100
AcDbTrace
 10
28.043208
 20
-6.028427
 30
0.0
 11
28.026542
 21
-6.028427
 31
0.0
 12
28.034875
 22
-6.078417
 32
0.0
 13
28.034875
 23
-6.078417
 33
0.0
  0
SOLID
  5
45F
330
559
100
AcDbEntity
  8
DEFPOINTS
  6
Continuous
 62
     7
370
    13
100
AcDbTrace
 10
28.043208
 20
-5.142031
 30
0.0
 11
28.026542
 21
-5.142031
 31
0.0
 12
28.034875
 22
-5.092031
 32
0.0
 13
28.034875
 23
-5.092031
 33
0.0
  0
LINE
  5
460
330
559
100
AcDbEntity
  8
DEFPOINTS
  6
Continuous
 62
     7
370
    13
100
AcDbLine
 10
28.034875
 20
-5.142031
 30
0.0
 11
28.034875
 21
-6.028427
 31
0.0
  0
LINE
  5
461
330
559
100
AcDbEntity
  8
DEFPOINTS
  6
Continuous
 62
     7
370
    13
100
AcDbLine
 10
28.397635
 20
-5.092031
 30
0.0
 11
27.984875
 21
-5.092031
 31
0.0
  0
SOLID
  5
463
330
559
100
AcDbEntity
  8
DEFPOINTS
  6
Continuous
 62
     7
370
    13
100
AcDbTrace
 10
28.236604
 20
-5.474656
 30
0.0
 11
28.219938
 21
-5.474656
 31
0.0
 12
28.228271
 22
-5.524656
 32
0.0
 13
28.228271
 23
-5.524656
 33
0.0
  0
SOLID
  5
464
330
559
100
AcDbEntity
  8
DEFPOINTS
  6
Continuous
 62
     7
370
    13
100
AcDbTrace
 10
28.236604
 20
-5.127719
 30
0.0
 11
28.219938
 21
-5.127719
 31
0.0
 12
28.228271
 22
-5.077719
 32
0.0
 13
28.228271
 23
-5.077719
 33
0.0
  0
LINE
  5
465
330
559
100
AcDbEntity
  8
DEFPOINTS
  6
Continuous
 62
     7
370
    13
100
AcDbLine
 10
28.228271
 20
-5.127719
 30
0.0
 11
28.228271
 21
-5.474656
 31
0.0
  0
LINE
  5
466
330
559
100
AcDbEntity
  8
DEFPOINTS
  6
Continuous
 62
     7
370
    13
100
AcDbLine
 10
28.406437
 20
-5.524656
 30
0.0
 11
28.178271
 21
-5.524656
 31
0.0
  0
LINE
  5
467
330
559
100
AcDbEntity
  8
_0
  6
Continuous
 62
     7
370
    13
100
AcDbLine
 10
28.406437
 20
-5.077719
 30
0.0
 11
28.178271
 21
-5.077719
 31
0.0
  0
LINE
  5
469
330
559
100
AcDbEntity
  8
DEFPOINTS
  6
Continuous
 62
     7
370
    13
100
AcDbLine
 10
28.31176
 20
-4.965833
 30
0.0
 11
28.261354
 21
-4.965833
 31
0.0
  0
LINE
  5
46A
330
559
100
AcDbEntity
  8
DEFPOINTS
  6
Continuous
 62
     7
370
    13
100
AcDbLine
 10
28.361396
 20
-4.892812
 30
0.0
 11
28.361396
 21
-5.015833
 31
0.0
  0
SOLID
  5
46B
330
559
100
AcDbEntity
  8
DEFPOINTS
  6
Continuous
 62
     7
370
    13
100
AcDbTrace
 10
28.31176
 20
-4.974167
 30
0.0
 11
28.31176
 21
-4.9575
 31
0.0
 12
28.36176
 22
-4.965833
 32
0.0
 13
28.36176
 23
-4.965833
 33
0.0
  0
LINE
  5
46C
330
559
100
AcDbEntity
  8
DEFPOINTS
  6
Continuous
 62
     7
370
    13
100
AcDbLine
 10
28.456802
 20
-4.892812
 30
0.0
 11
28.456802
 21
-5.015833
 31
0.0
  0
SOLID
  5
46D
330
559
100
AcDbEntity
  8
DEFPOINTS
  6
Continuous
 62
     7
370
    13
100
AcDbTrace
 10
28.506802
 20
-4.974167
 30
0.0
 11
28.506802
 21
-4.9575
 31
0.0
 12
28.456802
 22
-4.965833
 32
0.0
 13
28.456802
 23
-4.965833
 33
0.0
  0
LINE
  5
46E
330
559
100
AcDbEntity
  8
DEFPOINTS
  6
Continuous
 62
     7
370
    13
100
AcDbLine
 10
28.681792
 20
-4.965833
 30
0.0
 11
28.506802
 21
-4.965833
 31
0.0
  0
SOLID
  5
46F
330
559
100
AcDbEntity
  8
DEFPOINTS
  6
Continuous
 62
     7
370
    13
100
AcDbTrace
 10
28.681792
 20
-4.974167
 30
0.0
 11
28.681792
 21
-4.9575
 31
0.0
 12
28.731792
 22
-4.965833
 32
0.0
 13
28.731792
 23
-4.965833
 33
0.0
  0
SOLID
  5
471
330
559
100
AcDbEntity
  8
DEFPOINTS
  6
Continuous
 62
     7
370
    13
100
AcDbTrace
 10
28.781417
 20
-4.974167
 30
0.0
 11
28.781417
 21
-4.9575
 31
0.0
 12
28.731417
 22
-4.965833
 32
0.0
 13
28.731417
 23
-4.965833
 33
0.0
  0
SOLID
  5
472
330
559
100
AcDbEntity
  8
DEFPOINTS
  6
Continuous
 62
     7
370
    13
100
AcDbTrace
 10
28.936406
 20
-4.973583
 30
0.0
 11
28.936406
 21
-4.956917
 31
0.0
 12
28.986406
 22
-4.96525
 32
0.0
 13
28.986406
 23
-4.96525
 33
0.0
  0
LINE
  5
473
330
559
100
AcDbEntity
  8
DEFPOINTS
  6
Continuous
 62
     7
370
    13
100
AcDbLine
 10
28.9395
 20
-4.965833
 30
0.0
 11
28.781417
 21
-4.965833
 31
0.0
  0
LINE
  5
474
330
559
100
AcDbEntity
  8
DEFPOINTS
  6
Continuous
 62
     7
370
    13
100
AcDbLine
 10
28.731417
 20
-4.892812
 30
0.0
 11
28.731417
 21
-5.015833
 31
0.0
  0
LINE
  5
475
330
559
100
AcDbEntity
  8
DEFPOINTS
  6
Continuous
 62
     7
370
    13
100
AcDbLine
 10
28.986406
 20
-4.892229
 30
0.0
 11
28.986406
 21
-5.01525
 31
0.0
  0
LINE
  5
476
330
559
100
AcDbEntity
  8
_0
  6
Continuous
 62
     7
370
    13
100
AcDbLine
 10
28.986406
 20
-6.480479
 30
0.0
 11
28.986406
 21
-5.077521
 31
0.0
  0
LINE
  5
477
330
559
100
AcDbEntity
  8
DEFPOINTS
  6
Continuous
 62
     7
370
    13
100
AcDbLine
 10
27.943083
 20
-6.078042
 30
0.0
 11
28.731417
 21
-6.078042
 31
0.0
  0
LINE
  5
478
330
559
100
AcDbEntity
  8
_0
  6
Continuous
 62
     7
370
    13
100
AcDbLine
 10
28.731417
 20
-6.87799
 30
0.0
 11
28.986406
 21
-6.87799
 31
0.0
  0
LINE
  5
479
330
559
100
AcDbEntity
  8
_0
  6
Continuous
 62
     7
370
    13
100
AcDbLine
 10
28.456437
 20
-5.524656
 30
0.0
 11
28.731417
 21
-5.524656
 31
0.0
  0
LINE
  5
47A
330
559
100
AcDbEntity
  8
_0
  6
Continuous
 62
     7
370
    13
100
AcDbLine
 10
28.456437
 20
-5.524656
 30
0.0
 11
28.456437
 21
-5.078104
 31
0.0
  0
LINE
  5
47B
330
559
100
AcDbEntity
  8
_0
  6
Continuous
 62
     7
370
    13
100
AcDbLine
 10
28.986406
 20
-6.877406
 30
0.0
 11
28.986406
 21
-6.633281
 31
0.0
  0
LINE
  5
47C
330
559
100
AcDbEntity
  8
_0
  6
Continuous
 62
     7
370
    13
100
AcDbLine
 10
28.731417
 20
-6.87799
 30
0.0
 11
28.731625
 21
-6.626562
 31
0.0
  0
LINE
  5
47D
330
559
100
AcDbEntity
  8
_0
  6
Continuous
 62
     7
370
    13
100
AcDbLine
 10
28.456437
 20
-5.078104
 30
0.0
 11
28.986406
 21
-5.078104
 31
0.0
  0
LINE
  5
47E
330
559
100
AcDbEntity
  8
_0
  6
Continuous
 62
     7
370
    13
100
AcDbLine
 10
28.731417
 20
-6.877406
 30
0.0
 11
28.986406
 21
-6.877406
 31
0.0
  0
LINE
  5
47F
330
559
100
AcDbEntity
  8
_0
  6
Continuous
 62
     7
370
    13
100
AcDbLine
 10
28.731417
 20
-6.87799
 30
0.0
 11
28.731417
 21
-6.626625
 31
0.0
  0
LWPOLYLINE
  5
480
330
559
100
AcDbEntity
  8
_0
  6
Continuous
 62
     7
370
    40
100
AcDbPolyline
 90
       10
 70
   128
 43
0.0
 10
28.456437
 20
-5.08476
 10
28.366448
 20
-5.17476
 10
28.366448
 20
-5.19726
 10
28.448448
 20
-5.27926
 10
28.448447
 20
-5.279263
 42
0.573574
 10
28.446742
 20
-5.315842
 10
28.44674
 20
-5.315844
 10
28.366448
 20
-5.396135
 10
28.366448
 20
-5.41975
 10
28.456437
 20
-5.50974
  0
SOLID
  5
485
330
559
100
AcDbEntity
  8
DEFPOINTS
  6
Continuous
 62
     7
370
    13
100
AcDbTrace
 10
29.415479
 20
-6.827406
 30
0.0
 11
29.398812
 21
-6.827406
 31
0.0
 12
29.407146
 22
-6.877406
 32
0.0
 13
29.407146
 23
-6.877406
 33
0.0
  0
SOLID
  5
486
330
559
100
AcDbEntity
  8
DEFPOINTS
  6
Continuous
 62
     7
370
    13
100
AcDbTrace
 10
29.415479
 20
-5.127521
 30
0.0
 11
29.398812
 21
-5.127521
 31
0.0
 12
29.407146
 22
-5.077521
 32
0.0
 13
29.407146
 23
-5.077521
 33
0.0
  0
LINE
  5
487
330
559
100
AcDbEntity
  8
DEFPOINTS
  6
Continuous
 62
     7
370
    13
100
AcDbLine
 10
29.407146
 20
-5.127521
 30
0.0
 11
29.407146
 21
-6.130177
 31
0.0
  0
LINE
  5
488
330
559
100
AcDbEntity
  8
DEFPOINTS
  6
Continuous
 62
     7
370
    13
100
AcDbLine
 10
29.030542
 20
-6.877406
 30
0.0
 11
29.457146
 21
-6.877406
 31
0.0
  0
LINE
  5
489
330
559
100
AcDbEntity
  8
DEFPOINTS
  6
Continuous
 62
     7
370
    13
100
AcDbLine
 10
29.016406
 20
-5.077521
 30
0.0
 11
29.457146
 21
-5.077521
 31
0.0
  0
LINE
  5
48A
330
559
100
AcDbEntity
  8
_0
  6
Continuous
 62
     7
370
    13
100
AcDbLine
 10
28.986406
 20
-6.473281
 30
0.0
 11
28.986406
 21
-5.078104
 31
0.0
  0
LINE
  5
48B
330
559
100
AcDbEntity
  8
_0
  6
Continuous
 62
     7
370
    13
100
AcDbLine
 10
28.986406
 20
-6.87799
 30
0.0
 11
28.986406
 21
-6.626625
 31
0.0
  0
LWPOLYLINE
  5
48C
330
559
100
AcDbEntity
  8
_0
  6
Continuous
 62
     7
370
     0
100
AcDbPolyline
 90
       53
 70
   128
 43
0.0
 10
28.731417
 20
-6.626625
 10
28.740198
 20
-6.624229
 10
28.748083
 20
-6.622875
 10
28.755156
 20
-6.622354
 10
28.761531
 20
-6.622438
 10
28.767292
 20
-6.622937
 10
28.772542
 20
-6.623646
 10
28.777385
 20
-6.624354
 10
28.781917
 20
-6.624865
 10
28.786208
 20
-6.625
 10
28.790344
 20
-6.624833
 10
28.794365
 20
-6.624448
 10
28.798333
 20
-6.623948
 10
28.802302
 20
-6.623448
 10
28.806323
 20
-6.623031
 10
28.810458
 20
-6.622813
 10
28.81475
 20
-6.622875
 10
28.81925
 20
-6.623302
 10
28.823906
 20
-6.624042
 10
28.828677
 20
-6.624979
 10
28.833479
 20
-6.626042
 10
28.83826
 20
-6.627135
 10
28.842969
 20
-6.628177
 10
28.847542
 20
-6.629052
 10
28.851927
 20
-6.629698
 10
28.856063
 20
-6.630042
 10
28.859979
 20
-6.630094
 10
28.918708
 20
-6.629896
 10
28.922281
 20
-6.62951
 10
28.925719
 20
-6.628969
 10
28.929073
 20
-6.628312
 10
28.932354
 20
-6.627583
 10
28.935615
 20
-6.626844
 10
28.938854
 20
-6.626115
 10
28.942073
 20
-6.625437
 10
28.94526
 20
-6.624823
 10
28.948375
 20
-6.624312
 10
28.951406
 20
-6.623927
 10
28.954333
 20
-6.623687
 10
28.957135
 20
-6.623625
 10
28.959792
 20
-6.62376
 10
28.962281
 20
-6.624104
 10
28.964635
 20
-6.624625
 10
28.966885
 20
-6.62526
 10
28.969052
 20
-6.625927
 10
28.971187
 20
-6.626604
 10
28.973312
 20
-6.627198
 10
28.975448
 20
-6.627667
 10
28.977646
 20
-6.627948
 10
28.979927
 20
-6.62799
 10
28.982271
 20
-6.627865
 10
28.984677
 20
-6.627615
 10
28.986406
 20
-6.627396
  0
LWPOLYLINE
  5
48D
330
559
100
AcDbEntity
  8
_0
  6
Continuous
 62
     7
370
     0
100
AcDbPolyline
 90
       53
 70
   128
 43
0.0
 10
28.731417
 20
-6.472115
 10
28.740198
 20
-6.469729
 10
28.748083
 20
-6.468365
 10
28.755156
 20
-6.467844
 10
28.761531
 20
-6.467927
 10
28.767292
 20
-6.468437
 10
28.772542
 20
-6.469135
 10
28.777385
 20
-6.469854
 10
28.781917
 20
-6.470344
 10
28.786208
 20
-6.47049
 10
28.790344
 20
-6.470323
 10
28.794365
 20
-6.469937
 10
28.798333
 20
-6.469437
 10
28.802302
 20
-6.468938
 10
28.806323
 20
-6.468521
 10
28.810458
 20
-6.468302
 10
28.81475
 20
-6.468365
 10
28.81925
 20
-6.468792
 10
28.823906
 20
-6.469531
 10
28.828677
 20
-6.470469
 10
28.833479
 20
-6.471531
 10
28.83826
 20
-6.472625
 10
28.842969
 20
-6.473667
 10
28.847542
 20
-6.474552
 10
28.851927
 20
-6.475187
 10
28.856063
 20
-6.475531
 10
28.859979
 20
-6.475583
 10
28.918708
 20
-6.475385
 10
28.922281
 20
-6.475
 10
28.925719
 20
-6.474458
 10
28.929073
 20
-6.473802
 10
28.932354
 20
-6.473073
 10
28.935615
 20
-6.472333
 10
28.938854
 20
-6.471604
 10
28.942073
 20
-6.470927
 10
28.94526
 20
-6.470312
 10
28.948375
 20
-6.469802
 10
28.951406
 20
-6.469417
 10
28.954333
 20
-6.469177
 10
28.957135
 20
-6.469115
 10
28.959792
 20
-6.46925
 10
28.962281
 20
-6.469604
 10
28.964635
 20
-6.470125
 10
28.966885
 20
-6.47075
 10
28.969052
 20
-6.471427
 10
28.971187
 20
-6.472094
 10
28.973312
 20
-6.472688
 10
28.975448
 20
-6.473156
 10
28.977646
 20
-6.473427
 10
28.979927
 20
-6.473479
 10
28.982271
 20
-6.473354
 10
28.984677
 20
-6.473104
 10
28.986406
 20
-6.472885
  0
LINE
  5
48E
330
559
100
AcDbEntity
  8
_0
  6
Continuous
 62
     7
370
    13
100
AcDbLine
 10
28.696427
 20
-5.524656
 30
0.0
 11
28.696427
 21
-5.078104
 31
0.0
  0
LINE
  5
48F
330
559
100
AcDbEntity
  8
_0
  6
Continuous
 62
     7
370
    13
100
AcDbLine
 10
28.491437
 20
-5.524656
 30
0.0
 11
28.491437
 21
-5.078104
 31
0.0
  0
LINE
  5
490
330
559
100
AcDbEntity
  8
_0
  6
Continuous
 62
     7
370
    13
100
AcDbLine
 10
28.696427
 20
-5.465125
 30
0.0
 11
28.668937
 21
-5.465125
 31
0.0
  0
LINE
  5
491
330
559
100
AcDbEntity
  8
_0
  6
Continuous
 62
     7
370
    13
100
AcDbLine
 10
28.696427
 20
-5.420104
 30
0.0
 11
28.668937
 21
-5.420104
 31
0.0
  0
LINE
  5
492
330
559
100
AcDbEntity
  8
_0
  6
Continuous
 62
     7
370
    13
100
AcDbLine
 10
28.696427
 20
-5.127677
 30
0.0
 11
28.668937
 21
-5.127677
 31
0.0
  0
LINE
  5
493
330
559
100
AcDbEntity
  8
_0
  6
Continuous
 62
     7
370
    13
100
AcDbLine
 10
28.696427
 20
-5.166448
 30
0.0
 11
28.668937
 21
-5.166448
 31
0.0
  0
LINE
  5
494
330
559
100
AcDbEntity
  8
_0
  6
Continuous
 62
     7
370
    13
100
AcDbLine
 10
28.696427
 20
-5.483854
 30
0.0
 11
28.668937
 21
-5.483854
 31
0.0
  0
LINE
  5
495
330
559
100
AcDbEntity
  8
_0
  6
Continuous
 62
     7
370
    13
100
AcDbLine
 10
28.696427
 20
-5.413865
 30
0.0
 11
28.668937
 21
-5.413865
 31
0.0
  0
LINE
  5
496
330
559
100
AcDbEntity
  8
_0
  6
Continuous
 62
     7
370
    13
100
AcDbLine
 10
28.696427
 20
-5.19299
 30
0.0
 11
28.668937
 21
-5.19299
 31
0.0
  0
LINE
  5
497
330
559
100
AcDbEntity
  8
_0
  6
Continuous
 62
     7
370
    13
100
AcDbLine
 10
28.696427
 20
-5.12299
 30
0.0
 11
28.668937
 21
-5.12299
 31
0.0
  0
LINE
  5
498
330
559
100
AcDbEntity
  8
_0
  6
Continuous
 62
     7
370
    13
100
AcDbLine
 10
28.668937
 20
-5.19299
 30
0.0
 11
28.668937
 21
-5.12299
 31
0.0
  0
LINE
  5
499
330
559
100
AcDbEntity
  8
_0
  6
Continuous
 62
     7
370
    13
100
AcDbLine
 10
28.668937
 20
-5.483854
 30
0.0
 11
28.668937
 21
-5.413865
 31
0.0
  0
LINE
  5
49A
330
559
100
AcDbEntity
  8
_0
  6
Continuous
 62
     7
370
    13
100
AcDbLine
 10
28.798615
 20
-5.473854
 30
0.0
 11
28.798615
 21
-5.423865
 31
0.0
  0
LINE
  5
49B
330
559
100
AcDbEntity
  8
_0
  6
Continuous
 62
     7
370
    13
100
AcDbLine
 10
28.798615
 20
-5.473854
 30
0.0
 11
28.778615
 21
-5.473854
 31
0.0
  0
LINE
  5
49C
330
559
100
AcDbEntity
  8
_0
  6
Continuous
 62
     7
370
    13
100
AcDbLine
 10
28.798615
 20
-5.423865
 30
0.0
 11
28.778615
 21
-5.423865
 31
0.0
  0
LINE
  5
49D
330
559
100
AcDbEntity
  8
_0
  6
Continuous
 62
     7
370
    13
100
AcDbLine
 10
28.778615
 20
-5.483854
 30
0.0
 11
28.778615
 21
-5.413865
 31
0.0
  0
LINE
  5
49E
330
559
100
AcDbEntity
  8
_0
  6
Continuous
 62
     7
370
    13
100
AcDbLine
 10
28.778615
 20
-5.483854
 30
0.0
 11
28.766417
 21
-5.483854
 31
0.0
  0
LINE
  5
49F
330
559
100
AcDbEntity
  8
_0
  6
Continuous
 62
     7
370
    13
100
AcDbLine
 10
28.778615
 20
-5.413865
 30
0.0
 11
28.766417
 21
-5.413865
 31
0.0
  0
LINE
  5
4A0
330
559
100
AcDbEntity
  8
_0
  6
Continuous
 62
     7
370
    13
100
AcDbLine
 10
28.778615
 20
-5.12299
 30
0.0
 11
28.766417
 21
-5.12299
 31
0.0
  0
LINE
  5
4A1
330
559
100
AcDbEntity
  8
_0
  6
Continuous
 62
     7
370
    13
100
AcDbLine
 10
28.778615
 20
-5.19299
 30
0.0
 11
28.766417
 21
-5.19299
 31
0.0
  0
LINE
  5
4A2
330
559
100
AcDbEntity
  8
_0
  6
Continuous
 62
     7
370
    13
100
AcDbLine
 10
28.778615
 20
-5.19299
 30
0.0
 11
28.778615
 21
-5.12299
 31
0.0
  0
LINE
  5
4A3
330
559
100
AcDbEntity
  8
_0
  6
Continuous
 62
     7
370
    13
100
AcDbLine
 10
28.798615
 20
-5.13299
 30
0.0
 11
28.778615
 21
-5.13299
 31
0.0
  0
LINE
  5
4A4
330
559
100
AcDbEntity
  8
_0
  6
Continuous
 62
     7
370
    13
100
AcDbLine
 10
28.798615
 20
-5.18299
 30
0.0
 11
28.778615
 21
-5.18299
 31
0.0
  0
LINE
  5
4A5
330
559
100
AcDbEntity
  8
_0
  6
Continuous
 62
     7
370
    13
100
AcDbLine
 10
28.798615
 20
-5.18299
 30
0.0
 11
28.798615
 21
-5.13299
 31
0.0
  0
LINE
  5
4A6
330
559
100
AcDbEntity
  8
_0
  6
Continuous
 62
     7
370
    13
100
AcDbLine
 10
28.503604
 20
-5.264208
 30
0.0
 11
28.491406
 21
-5.264208
 31
0.0
  0
LINE
  5
4A7
330
559
100
AcDbEntity
  8
_0
  6
Continuous
 62
     7
370
    13
100
AcDbLine
 10
28.503604
 20
-5.334198
 30
0.0
 11
28.491406
 21
-5.334198
 31
0.0
  0
LINE
  5
4A8
330
559
100
AcDbEntity
  8
_0
  6
Continuous
 62
     7
370
    13
100
AcDbLine
 10
28.503604
 20
-5.334198
 30
0.0
 11
28.503604
 21
-5.264208
 31
0.0
  0
LINE
  5
4A9
330
559
100
AcDbEntity
  8
_0
  6
Continuous
 62
     7
370
    13
100
AcDbLine
 10
28.523594
 20
-5.274208
 30
0.0
 11
28.503604
 21
-5.274208
 31
0.0
  0
LINE
  5
4AA
330
559
100
AcDbEntity
  8
_0
  6
Continuous
 62
     7
370
    13
100
AcDbLine
 10
28.523594
 20
-5.324198
 30
0.0
 11
28.503604
 21
-5.324198
 31
0.0
  0
LINE
  5
4AB
330
559
100
AcDbEntity
  8
_0
  6
Continuous
 62
     7
370
    13
100
AcDbLine
 10
28.523594
 20
-5.324198
 30
0.0
 11
28.523594
 21
-5.274208
 31
0.0
  0
LINE
  5
4AC
330
559
100
AcDbEntity
  8
_0
  6
Continuous
 62
     7
370
    13
100
AcDbLine
 10
28.766417
 20
-6.468354
 30
0.0
 11
28.766417
 21
-5.078104
 31
0.0
  0
LINE
  5
4AD
330
559
100
AcDbEntity
  8
_0
  6
Continuous
 62
     7
370
    13
100
AcDbLine
 10
28.731417
 20
-6.472115
 30
0.0
 11
28.731417
 21
-5.078104
 31
0.0
  0
LINE
  5
4AE
330
559
100
AcDbEntity
  8
DEFPOINTS
  6
Continuous
 62
     7
370
    13
100
AcDbLine
 10
28.823604
 20
-5.448854
 30
0.0
 11
29.18875
 21
-5.448854
 31
0.0
  0
LINE
  5
4AF
330
559
100
AcDbEntity
  8
DEFPOINTS
  6
Continuous
 62
     7
370
    13
100
AcDbLine
 10
28.823604
 20
-5.15799
 30
0.0
 11
29.18875
 21
-5.15799
 31
0.0
  0
LINE
  5
4B0
330
559
100
AcDbEntity
  8
DEFPOINTS
  6
Continuous
 62
     7
370
    13
100
AcDbLine
 10
29.13875
 20
-5.398865
 30
0.0
 11
29.13875
 21
-5.20799
 31
0.0
  0
SOLID
  5
4B1
330
559
100
AcDbEntity
  8
DEFPOINTS
  6
Continuous
 62
     7
370
    13
100
AcDbTrace
 10
29.147083
 20
-5.398865
 30
0.0
 11
29.130417
 21
-5.398865
 31
0.0
 12
29.13875
 22
-5.448854
 32
0.0
 13
29.13875
 23
-5.448854
 33
0.0
  0
SOLID
  5
4B2
330
559
100
AcDbEntity
  8
DEFPOINTS
  6
Continuous
 62
     7
370
    13
100
AcDbTrace
 10
29.147083
 20
-5.20799
 30
0.0
 11
29.130417
 21
-5.20799
 31
0.0
 12
29.13875
 22
-5.15799
 32
0.0
 13
29.13875
 23
-5.15799
 33
0.0
  0
LINE
  5
4B4
330
559
100
AcDbEntity
  8
DEFPOINTS
  6
Continuous
 62
     7
370
    13
100
AcDbLine
 10
28.823604
 20
-5.15799
 30
0.0
 11
29.18875
 21
-5.15799
 31
0.0
  0
LINE
  5
4B5
330
559
100
AcDbEntity
  8
DEFPOINTS
  6
Continuous
 62
     7
370
    13
100
AcDbLine
 10
29.13875
 20
-5.030396
 30
0.0
 11
29.13875
 21
-4.980396
 31
0.0
  0
LINE
  5
4B6
330
559
100
AcDbEntity
  8
DEFPOINTS
  6
Continuous
 62
     7
370
    13
100
AcDbLine
 10
29.13875
 20
-5.20799
 30
0.0
 11
29.13875
 21
-5.25799
 31
0.0
  0
LINE
  5
4B7
330
559
100
AcDbEntity
  8
DEFPOINTS
  6
Continuous
 62
     7
370
    13
100
AcDbLine
 10
29.13875
 20
-4.980396
 30
0.0
 11
29.13875
 21
-4.930406
 31
0.0
  0
SOLID
  5
4B8
330
559
100
AcDbEntity
  8
DEFPOINTS
  6
Continuous
 62
     7
370
    13
100
AcDbTrace
 10
29.147083
 20
-5.030396
 30
0.0
 11
29.130417
 21
-5.030396
 31
0.0
 12
29.13875
 22
-5.080396
 32
0.0
 13
29.13875
 23
-5.080396
 33
0.0
  0
SOLID
  5
4B9
330
559
100
AcDbEntity
  8
DEFPOINTS
  6
Continuous
 62
     7
370
    13
100
AcDbTrace
 10
29.147083
 20
-5.20799
 30
0.0
 11
29.130417
 21
-5.20799
 31
0.0
 12
29.13875
 22
-5.15799
 32
0.0
 13
29.13875
 23
-5.15799
 33
0.0
  0
CIRCLE
  5
4BB
330
559
100
AcDbEntity
  8
_0
  6
Continuous
 62
     7
370
    13
100
AcDbCircle
 10
28.866416
 20
-6.758382
 30
0.0
 40
0.024998399999997
  0
SOLID
  5
4BC
330
559
100
AcDbEntity
  8
REF
  6
Continuous
 62
     7
370
    13
100
AcDbTrace
 10
28.791677
 20
-6.732188
 30
0.0
 11
28.783365
 21
-6.746635
 31
0.0
 12
28.830865
 22
-6.764333
 32
0.0
 13
28.830865
 23
-6.764333
 33
0.0
  0
LINE
  5
4BD
330
559
100
AcDbEntity
  8
REF
  6
Continuous
 62
     7
370
    13
100
AcDbLine
 10
28.787521
 20
-6.739417
 30
0.0
 11
28.539292
 21
-6.596677
 31
0.0
  0
LINE
  5
4BE
330
559
100
AcDbEntity
  8
REF
  6
Continuous
 62
     7
370
    13
100
AcDbLine
 10
28.539292
 20
-6.596677
 30
0.0
 11
28.495552
 21
-6.596677
 31
0.0
  0
LINE
  5
4BF
330
559
100
AcDbEntity
  8
DEFPOINTS
  6
Continuous
 62
     7
370
    13
100
AcDbLine
 10
29.407146
 20
-6.084949
 30
0.0
 11
29.407146
 21
-6.827406
 31
0.0
  0
LINE
  5
4C0
330
559
100
AcDbEntity
  8
BORDER
  6
Continuous
 62
     7
370
    13
100
AcDbLine
 10
24.156708
 20
-7.327375
 30
0.0
 11
33.256125
 21
-7.327375
 31
0.0
  0
LINE
  5
4C1
330
559
100
AcDbEntity
  8
BORDER
  6
Continuous
 62
     7
370
    13
100
AcDbLine
 10
29.731354
 20
-7.327375
 30
0.0
 11
29.731354
 21
-3.477625
 31
0.0
  0
LINE
  5
4C2
330
559
100
AcDbEntity
  8
BORDER
  6
Continuous
 62
     7
370
    13
100
AcDbLine
 10
26.656552
 20
-10.227198
 30
0.0
 11
26.656552
 21
-3.477625
 31
0.0
  0
LINE
  5
4C3
330
559
100
AcDbEntity
  8
BORDER
  6
Continuous
 62
     7
370
    13
100
AcDbLine
 10
24.156708
 20
-3.477625
 30
0.0
 11
33.256125
 21
-3.477625
 31
0.0
  0
LINE
  5
4C4
330
559
100
AcDbEntity
  8
BORDER
  6
Continuous
 62
     7
370
    13
100
AcDbLine
 10
33.256125
 20
-10.727156
 30
0.0
 11
33.256125
 21
-3.477625
 31
0.0
  0
LINE
  5
4C9
330
559
100
AcDbEntity
  8
BORDER
  6
Continuous
 62
     7
370
    13
100
AcDbLine
 10
32.156198
 20
-10.727156
 30
0.0
 11
32.156198
 21
-10.227198
 31
0.0
  0
LINE
  5
4CA
330
559
100
AcDbEntity
  8
BORDER
  6
Continuous
 62
     7
370
    13
100
AcDbLine
 10
31.056271
 20
-10.727156
 30
0.0
 11
31.056271
 21
-10.227198
 31
0.0
  0
LINE
  5
4CB
330
559
100
AcDbEntity
  8
BORDER
  6
Continuous
 62
     7
370
    13
100
AcDbLine
 10
24.156708
 20
-10.227198
 30
0.0
 11
33.256125
 21
-10.227198
 31
0.0
  0
LINE
  5
4CC
330
559
100
AcDbEntity
  8
BORDER
  6
Continuous
 62
     7
370
    13
100
AcDbLine
 10
24.156708
 20
-10.727156
 30
0.0
 11
33.256125
 21
-10.727156
 31
0.0
  0
LWPOLYLINE
  5
4CD
330
559
100
AcDbEntity
  8
DEFPOINTS
  6
Continuous
 62
     7
370
     0
100
AcDbPolyline
 90
        3
 70
   128
 43
0.0
 10
24.708208
 20
-5.116823
 10
24.708208
 20
-5.094656
 10
24.708208
 20
-4.983094
  0
LWPOLYLINE
  5
4DE
330
559
100
AcDbEntity
  8
DEFPOINTS
  6
Continuous
 62
     7
370
    13
100
AcDbPolyline
 90
        3
 70
   128
 43
0.0
 10
32.472365
 20
-5.84626
 10
32.446333
 20
-5.84626
 10
32.400562
 20
-5.640562
  0
INSERT
  5
4DF
330
559
100
AcDbEntity
  8
DEFPOINTS
  6
Continuous
 62
     7
370
    13
100
AcDbBlockReference
  2
LARROW
 10
32.400562
 20
-5.640562
 30
0.0
 41
6.2496
 42
6.2496
 43
6.2496
 50
102.543547
  0
TEXT
  5
129
330
559
100
AcDbEntity
  8
DEFPOINTS
  6
Continuous
 62
     7
370
    13
100
AcDbText
 10
26.408281
 20
-5.873886
 30
0.0
 40
0.0675
  1
5'-9" MIN
 50
90.0
 41
0.833333
  7
Style-Arial
 72
     1
 11
26.408281
 21
-5.71594
 31
0.0
100
AcDbText
  0
TEXT
  5
12B
330
559
100
AcDbEntity
  8
DEFPOINTS
  6
Continuous
 62
     7
370
    13
100
AcDbText
 10
24.715922
 20
-5.083971
 30
0.0
 40
0.0675
  1
6-1/2"
 41
0.833333
  7
Style-Arial
 72
     1
 11
24.817553
 21
-5.083971
 31
0.0
100
AcDbText
  0
TEXT
  5
133
330
559
100
AcDbEntity
  8
DEFPOINTS
  6
Continuous
 62
     7
370
    13
100
AcDbText
 10
24.230148
 20
-5.089219
 30
0.0
 40
0.0675
  1
1"
 41
0.833333
  7
Style-Arial
 72
     1
 11
24.264104
 21
-5.089219
 31
0.0
100
AcDbText
  0
TEXT
  5
15C
330
559
100
AcDbEntity
  8
TEXT
  6
Continuous
 62
     7
370
    13
100
AcDbText
 10
24.844144
 20
-9.894951
 30
0.0
 40
0.0675
  1
POST AND OFFSET BRACKET
 41
0.833333
  7
Style-Arial
 72
     1
 11
25.406751
 21
-9.894951
 31
0.0
100
AcDbText
  0
TEXT
  5
15D
330
559
100
AcDbEntity
  8
TEXT
  6
Continuous
 62
     7
370
    13
100
AcDbText
 10
24.909585
 20
-9.773524
 30
0.0
 40
0.0675
  1
TYPICAL CROSS SECTION
 41
0.833333
  7
Style-Arial
 72
     1
 11
25.406446
 21
-9.773524
 31
0.0
100
AcDbText
  0
TEXT
  5
167
330
559
100
AcDbEntity
  8
REF
  6
Continuous
 62
     7
370
    13
100
AcDbText
 10
24.869515
 20
-4.804198
 30
0.0
 40
0.0675
  1
5/8"x2" BOLT
 41
0.833333
  7
Style-Arial
 72
     1
 11
25.106284
 21
-4.804198
 31
0.0
100
AcDbText
  0
TEXT
  5
168
330
559
100
AcDbEntity
  8
REF
  6
Continuous
 62
     7
370
    13
100
AcDbText
 10
24.866981
 20
-4.906958
 30
0.0
 40
0.0675
  1
& WASHER
 41
0.833333
  7
Style-Arial
 72
     1
 11
25.076075
 21
-4.906958
 31
0.0
100
AcDbText
  0
TEXT
  5
179
330
559
100
AcDbEntity
  8
REF
  6
Continuous
 62
     7
370
    13
100
AcDbText
 10
30.149929
 20
-7.268833
 30
0.0
 40
0.0675
  1
RAISED MEDIAN
 41
0.833333
  7
Style-Arial
 72
     1
 11
30.456796
 21
-7.268833
 31
0.0
100
AcDbText
  0
TEXT
  5
17A
330
559
100
AcDbEntity
  8
REF
  6
Continuous
 62
     7
370
    13
100
AcDbText
 10
30.173955
 20
-7.167646
 30
0.0
 40
0.0675
  1
HALF SECTION
 41
0.833333
  7
Style-Arial
 72
     1
 11
30.456791
 21
-7.167646
 31
0.0
100
AcDbText
  0
TEXT
  5
17B
330
559
100
AcDbEntity
  8
REF
  6
Continuous
 62
     7
370
    13
100
AcDbText
 10
31.892608
 20
-7.266323
 30
0.0
 40
0.0675
  1
GRADED MEDIAN
 41
0.833333
  7
Style-Arial
 72
     1
 11
32.221297
 21
-7.266323
 31
0.0
100
AcDbText
  0
TEXT
  5
17C
330
559
100
AcDbEntity
  8
REF
  6
Continuous
 62
     7
370
    13
100
AcDbText
 10
31.934797
 20
-7.165146
 30
0.0
 40
0.0675
  1
HALF SECTION
 41
0.833333
  7
Style-Arial
 72
     1
 11
32.217634
 21
-7.165146
 31
0.0
100
AcDbText
  0
TEXT
  5
17D
330
559
100
AcDbEntity
  8
LEGEND
  6
Continuous
 62
     7
370
    13
100
AcDbText
 10
29.183059
 20
-9.791917
 30
0.0
 40
0.0675
  1
SEE AASHTO "GUIDE FOR SELECTING, LOCATING
 41
0.833333
  7
Style-Arial
 72
     1
 11
30.131335
 21
-9.791917
 31
0.0
100
AcDbText
  0
TEXT
  5
17E
330
559
100
AcDbEntity
  8
LEGEND
  6
Continuous
 62
     7
370
    13
100
AcDbText
 10
29.184534
 20
-9.893625
 30
0.0
 40
0.0675
  1
AND DESIGNING TRAFFIC BARRIERS"
 41
0.833333
  7
Style-Arial
 72
     1
 11
29.899749
 21
-9.893625
 31
0.0
100
AcDbText
  0
TEXT
  5
17F
330
559
100
AcDbEntity
  8
HATCH
  6
Continuous
 62
     7
370
    13
100
AcDbText
 10
27.749566
 20
-9.192698
 30
0.0
 40
0.0675
  1
ALTERNATE POSTS ARE TO CONFORM TO ASTM DESIGNATION A570 WITH MECHANICAL PROPERTIES EQUAL TO A36.
 41
0.833333
  7
Style-Arial
 72
     1
 11
30.008334
 21
-9.192698
 31
0.0
100
AcDbText
  0
TEXT
  5
180
330
559
100
AcDbEntity
  8
HATCH
  6
Continuous
 62
     7
370
    13
100
AcDbText
 10
27.743193
 20
-8.990333
 30
0.0
 40
0.0675
  1
HOLES IN POSTS AND OFFSET BRACKETS MAY BE È1/16" OF INDICATED DIMENSIONS.
 41
0.833333
  7
Style-Arial
 72
     1
 11
29.395836
 21
-8.990333
 31
0.0
100
AcDbText
  0
TEXT
  5
181
330
559
100
AcDbEntity
  8
HATCH
  6
Continuous
 62
     7
370
    13
100
AcDbText
 10
27.74304
 20
-8.787969
 30
0.0
 40
0.0675
  1
FOR DETAILS OF POST PLACEMENT AND OFFSETS SEE FIGURES 3-32h AND 3-32i.
 41
0.833333
  7
Style-Arial
 72
     1
 11
29.30745
 21
-8.787969
 31
0.0
100
AcDbText
  0
TEXT
  5
182
330
559
100
AcDbEntity
  8
HATCH
  6
Continuous
 62
     7
370
    13
100
AcDbText
 10
27.743348
 20
-8.585604
 30
0.0
 40
0.0675
  1
RESTRICTION THAT THE SAME TYPE OF POST MUST BE USED IN ANY SINGLE RUN OF GUARD RAIL.
 41
0.833333
  7
Style-Arial
 72
     1
 11
29.654883
 21
-8.585604
 31
0.0
100
AcDbText
  0
TEXT
  5
183
330
559
100
AcDbEntity
  8
HATCH
  6
Continuous
 62
     7
370
    13
100
AcDbText
 10
27.749533
 20
-8.484417
 30
0.0
 40
0.0675
  1
ALTERNATE POSTS AND STANDARD W6x 8.5 POSTS MAY BE INTERCHANGED ON ANY ONE PROJECT WITH THE
 41
0.833333
  7
Style-Arial
 72
     1
 11
29.880816
 21
-8.484417
 31
0.0
100
AcDbText
  0
TEXT
  5
184
330
559
100
AcDbEntity
  8
HATCH
  6
Continuous
 62
     7
370
    13
100
AcDbText
 10
27.747716
 20
-8.282052
 30
0.0
 40
0.0675
  1
THE POSTION WILL BE OPTIONAL; HOWEVER, ALL POSTS ARE TO FACE IN THE SAME DIRECTION
 41
0.833333
  7
Style-Arial
 72
     1
 11
29.609261
 21
-8.282052
 31
0.0
100
AcDbText
  0
TEXT
  5
185
330
559
100
AcDbEntity
  8
HATCH
  6
Continuous
 62
     7
370
    13
100
AcDbText
 10
27.743464
 20
-8.180865
 30
0.0
 40
0.0675
  1
POSTS ARE TO BE PLACED WITH THE CLOSED FACE TOWARD IMPACTING TRAFFIC WHEN USED AS A MEDIAN BARRIER
 41
0.833333
  7
Style-Arial
 72
     1
 11
30.046542
 21
-8.180865
 31
0.0
100
AcDbText
  0
TEXT
  5
186
330
559
100
AcDbEntity
  8
HATCH
  6
Continuous
 62
     7
370
    13
100
AcDbText
 10
27.743552
 20
-7.97849
 30
0.0
 40
0.0675
  1
POST SPACING TO BE 12'-6" c-c FOR ALTERNATE 1 AND 6'-3" c-c FOR ALTERNATE 2 AND ALTERNATE 3.
 41
0.833333
  7
Style-Arial
 72
     1
 11
29.70242
 21
-7.97849
 31
0.0
100
AcDbText
  0
TEXT
  5
187
330
559
100
AcDbEntity
  8
HATCH
  6
Continuous
 62
     7
370
    13
100
AcDbText
 10
27.743585
 20
-7.778146
 30
0.0
 40
0.0675
  1
NOTES: POSTS AND OFFSET BRACKETS ARE TO BE GALVANIZED IN ACCORDANCE WITH THES SPECIFICATION
 41
0.833333
  7
Style-Arial
 72
     1
 11
29.873775
 21
-7.778146
 31
0.0
100
AcDbText
  0
TEXT
  5
18A
330
559
100
AcDbEntity
  8
DEFPOINTS
  6
Continuous
 62
     7
370
    13
100
AcDbText
 10
26.776269
 20
-5.815063
 30
0.0
 40
0.0675
  1
9"
 41
0.833333
  7
Style-Arial
 72
     1
 11
26.810225
 21
-5.815063
 31
0.0
100
AcDbText
  0
TEXT
  5
18B
330
559
100
AcDbEntity
  8
DEFPOINTS
  6
Continuous
 62
     7
370
    13
100
AcDbText
 10
27.127519
 20
-5.33325
 30
0.0
 40
0.0675
  1
2"
 41
0.833333
  7
Style-Arial
 72
     1
 11
27.161475
 21
-5.33325
 31
0.0
100
AcDbText
  0
TEXT
  5
19D
330
559
100
AcDbEntity
  8
DEFPOINTS
  6
Continuous
 62
     7
370
    13
100
AcDbText
 10
27.515893
 20
-6.011844
 30
0.0
 40
0.0675
  1
1"
 41
0.833333
  7
Style-Arial
 72
     1
 11
27.549849
 21
-6.011844
 31
0.0
100
AcDbText
  0
TEXT
  5
1A6
330
559
100
AcDbEntity
  8
DEFPOINTS
  6
Continuous
 62
     7
370
    13
100
AcDbText
 10
27.838149
 20
-5.750484
 30
0.0
 40
0.0675
  1
6-1/2"
 50
90.0
 41
0.833333
  7
Style-Arial
 72
     1
 11
27.838149
 21
-5.648853
 31
0.0
100
AcDbText
  0
TEXT
  5
1AA
330
559
100
AcDbEntity
  8
DEFPOINTS
  6
Continuous
 62
     7
370
    13
100
AcDbText
 10
30.799545
 20
-6.06725
 30
0.0
 40
0.0675
  1
1"
 41
0.833333
  7
Style-Arial
 72
     1
 11
30.8335
 21
-6.06725
 31
0.0
100
AcDbText
  0
TEXT
  5
1B2
330
559
100
AcDbEntity
  8
DEFPOINTS
  6
Continuous
 62
     7
370
    13
100
AcDbText
 10
30.032244
 20
-5.908948
 30
0.0
 40
0.0675
  1
9"
 41
0.833333
  7
Style-Arial
 72
     1
 11
30.0662
 21
-5.908948
 31
0.0
100
AcDbText
  0
TEXT
  5
1B3
330
559
100
AcDbEntity
  8
DEFPOINTS
  6
Continuous
 62
     7
370
    13
100
AcDbText
 10
30.304849
 20
-5.334344
 30
0.0
 40
0.0675
  1
2"
 41
0.833333
  7
Style-Arial
 72
     1
 11
30.338804
 21
-5.334344
 31
0.0
100
AcDbText
  0
TEXT
  5
1C0
330
559
100
AcDbEntity
  8
DEFPOINTS
  6
Continuous
 62
     7
370
    13
100
AcDbText
 10
31.136535
 20
-5.867184
 30
0.0
 40
0.0675
  1
6-1/2"
 50
90.0
 41
0.833333
  7
Style-Arial
 72
     1
 11
31.136535
 21
-5.765552
 31
0.0
100
AcDbText
  0
TEXT
  5
1D9
330
559
100
AcDbEntity
  8
REF
  6
Continuous
 62
     7
370
    13
100
AcDbText
 10
24.842341
 20
-9.602701
 30
0.0
 40
0.0675
  1
* UNGALVANIZED THICKNESS.
 41
0.833333
  7
Style-Arial
 72
     1
 11
25.417596
 21
-9.602701
 31
0.0
100
AcDbText
  0
TEXT
  5
1DA
330
559
100
AcDbEntity
  8
DEFPOINTS
  6
Continuous
 62
     7
370
    13
100
AcDbText
 10
25.125131
 20
-8.788489
 30
0.0
 40
0.0675
  1
*0.170"
 41
0.833333
  7
Style-Arial
 72
     1
 11
25.250814
 21
-8.788489
 31
0.0
100
AcDbText
  0
TEXT
  5
1E2
330
559
100
AcDbEntity
  8
DEFPOINTS
  6
Continuous
 62
     7
370
    13
100
AcDbText
 10
25.635448
 20
-9.082597
 30
0.0
 40
0.0675
  1
3/8" RADIUS (TYP.)
 41
0.833333
  7
Style-Arial
 72
     1
 11
25.98641
 21
-9.082597
 31
0.0
100
AcDbText
  0
TEXT
  5
1E3
330
559
100
AcDbEntity
  8
DEFPOINTS
  6
Continuous
 62
     7
370
    13
100
AcDbText
 10
26.040287
 20
-9.300763
 30
0.0
 40
0.0675
  1
0.75" (TYP.)
 41
0.833333
  7
Style-Arial
 72
     1
 11
26.25369
 21
-9.300763
 31
0.0
100
AcDbText
  0
TEXT
  5
1E9
330
559
100
AcDbEntity
  8
DEFPOINTS
  6
Continuous
 62
     7
370
    13
100
AcDbText
 10
24.425146
 20
-8.84277
 30
0.0
 40
0.0675
  1
5.875"
 50
90.0
 41
0.833333
  7
Style-Arial
 72
     1
 11
24.425146
 21
-8.73237
 31
0.0
100
AcDbText
  0
TEXT
  5
1EF
330
559
100
AcDbEntity
  8
DEFPOINTS
  6
Continuous
 62
     7
370
    13
100
AcDbText
 10
25.285457
 20
-7.78569
 30
0.0
 40
0.0675
  1
4.34"
 41
0.833333
  7
Style-Arial
 72
     1
 11
25.374012
 21
-7.78569
 31
0.0
100
AcDbText
  0
TEXT
  5
262
330
559
100
AcDbEntity
  8
REF
  6
Continuous
 62
     7
370
    13
100
AcDbText
 10
32.844164
 20
-3.684052
 30
0.0
 40
0.0675
  1
3
 41
0.833333
  7
Style-Arial
 72
     1
 11
32.864229
 21
-3.684052
 31
0.0
100
AcDbText
  0
TEXT
  5
263
330
559
100
AcDbEntity
  8
REF
  6
Continuous
 62
     7
370
    13
100
AcDbText
 10
32.59629
 20
-3.582875
 30
0.0
 40
0.0675
  1
ALTERNATIVE
 41
0.833333
  7
Style-Arial
 72
     1
 11
32.862813
 21
-3.582875
 31
0.0
100
AcDbText
  0
TEXT
  5
264
330
559
100
AcDbEntity
  8
REF
  6
Continuous
 62
     7
370
    13
100
AcDbText
 10
29.084349
 20
-3.582875
 30
0.0
 40
0.0675
  1
ALTERNATIVE
 41
0.833333
  7
Style-Arial
 72
     1
 11
29.350872
 21
-3.582875
 31
0.0
100
AcDbText
  0
TEXT
  5
265
330
559
100
AcDbEntity
  8
REF
  6
Continuous
 62
     7
370
    13
100
AcDbText
 10
29.320121
 20
-3.684052
 30
0.0
 40
0.0675
  1
2
 41
0.833333
  7
Style-Arial
 72
     1
 11
29.339885
 21
-3.684052
 31
0.0
100
AcDbText
  0
TEXT
  5
266
330
559
100
AcDbEntity
  8
REF
  6
Continuous
 62
     7
370
    13
100
AcDbText
 10
26.259474
 20
-3.684052
 30
0.0
 40
0.0675
  1
1
 41
0.833333
  7
Style-Arial
 72
     1
 11
26.274094
 21
-3.684052
 31
0.0
100
AcDbText
  0
TEXT
  5
267
330
559
100
AcDbEntity
  8
REF
  6
Continuous
 62
     7
370
    13
100
AcDbText
 10
26.034417
 20
-3.582875
 30
0.0
 40
0.0675
  1
ALTERNATIVE
 41
0.833333
  7
Style-Arial
 72
     1
 11
26.30094
 21
-3.582875
 31
0.0
100
AcDbText
  0
TEXT
  5
268
330
559
100
AcDbEntity
  8
REF
  6
Continuous
 62
     7
370
    13
100
AcDbText
 10
24.248049
 20
-3.68675
 30
0.0
 40
0.0675
  1
3/4" HOLES TO BE LOCATED AS
 41
0.833333
  7
Style-Arial
 72
     1
 11
24.847399
 21
-3.68675
 31
0.0
100
AcDbText
  0
TEXT
  5
269
330
559
100
AcDbEntity
  8
REF
  6
Continuous
 62
     7
370
    13
100
AcDbText
 10
24.247753
 20
-3.787937
 30
0.0
 40
0.0675
  1
SHOWN TO PERMIT USE OF 5/8"
 41
0.833333
  7
Style-Arial
 72
     1
 11
24.8581
 21
-3.787937
 31
0.0
100
AcDbText
  0
TEXT
  5
26A
330
559
100
AcDbEntity
  8
REF
  6
Continuous
 62
     7
370
    13
100
AcDbText
 10
24.245473
 20
-3.889125
 30
0.0
 40
0.0675
  1
BOLT.
 41
0.833333
  7
Style-Arial
 72
     1
 11
24.355594
 21
-3.889125
 31
0.0
100
AcDbText
  0
TEXT
  5
26B
330
559
100
AcDbEntity
  8
REF
  6
Continuous
 62
     7
370
    13
100
AcDbText
 10
24.245381
 20
-4.09149
 30
0.0
 40
0.0675
  1
POST AND BRACKET ARE TO BE
 41
0.833333
  7
Style-Arial
 72
     1
 11
24.861301
 21
-4.09149
 31
0.0
100
AcDbText
  0
TEXT
  5
26C
330
559
100
AcDbEntity
  8
REF
  6
Continuous
 62
     7
370
    13
100
AcDbText
 10
24.247202
 20
-4.192677
 30
0.0
 40
0.0675
  1
GALVANIZED IN ACCORDANCE WITH
 41
0.833333
  7
Style-Arial
 72
     1
 11
24.944925
 21
-4.192677
 31
0.0
100
AcDbText
  0
TEXT
  5
26D
330
559
100
AcDbEntity
  8
REF
  6
Continuous
 62
     7
370
    13
100
AcDbText
 10
24.247904
 20
-4.293854
 30
0.0
 40
0.0675
  1
SPECIFICATIONS.
 41
0.833333
  7
Style-Arial
 72
     1
 11
24.582939
 21
-4.293854
 31
0.0
100
AcDbText
  0
TEXT
  5
26E
330
559
100
AcDbEntity
  8
REF
  6
Continuous
 62
     7
370
    13
100
AcDbText
 10
24.214984
 20
-4.496219
 30
0.0
 40
0.0675
  1
*NOMINAL DIMENSIONS (SEE TYPICAL
 41
0.833333
  7
Style-Arial
 72
     1
 11
24.945098
 21
-4.496219
 31
0.0
100
AcDbText
  0
TEXT
  5
26F
330
559
100
AcDbEntity
  8
REF
  6
Continuous
 62
     7
370
    13
100
AcDbText
 10
24.226042
 20
-4.597406
 30
0.0
 40
0.0675
  1
 SECTION) HEREON.
 41
0.833333
  7
Style-Arial
 72
     1
 11
24.61126
 21
-4.597406
 31
0.0
100
AcDbText
  0
TEXT
  5
270
330
559
100
AcDbEntity
  8
REF
  6
Continuous
 62
     7
370
    13
100
AcDbText
 10
26.811751
 20
-3.686323
 30
0.0
 40
0.0675
  1
CENTER OF HOLES IN BACK OF
 41
0.833333
  7
Style-Arial
 72
     1
 11
27.41481
 21
-3.686323
 31
0.0
100
AcDbText
  0
TEXT
  5
271
330
559
100
AcDbEntity
  8
REF
  6
Continuous
 62
     7
370
    13
100
AcDbText
 10
26.810013
 20
-3.7875
 30
0.0
 40
0.0675
  1
BRACKET TO MATCH THOSE IN 
 41
0.833333
  7
Style-Arial
 72
     1
 11
27.405075
 21
-3.7875
 31
0.0
100
AcDbText
  0
TEXT
  5
272
330
559
100
AcDbEntity
  8
REF
  6
Continuous
 62
     7
370
    13
100
AcDbText
 10
26.808973
 20
-3.888688
 30
0.0
 40
0.0675
  1
FRONT OF POST. HOLES MAY BE
 41
0.833333
  7
Style-Arial
 72
     1
 11
27.440113
 21
-3.888688
 31
0.0
100
AcDbText
  0
TEXT
  5
273
330
559
100
AcDbEntity
  8
REF
  6
Continuous
 62
     7
370
    13
100
AcDbText
 10
26.811706
 20
-3.989875
 30
0.0
 40
0.0675
  1
OPPOSITE HAND. HOLES IN POST
 41
0.833333
  7
Style-Arial
 72
     1
 11
27.457295
 21
-3.989875
 31
0.0
100
AcDbText
  0
TEXT
  5
274
330
559
100
AcDbEntity
  8
REF
  6
Continuous
 62
     7
370
    13
100
AcDbText
 10
26.816094
 20
-4.091052
 30
0.0
 40
0.0675
  1
AND BRACKET ARE TO BE 3/4"%
 41
0.833333
  7
Style-Arial
 72
     1
 11
27.428155
 21
-4.091052
 31
0.0
100
AcDbText
  0
TEXT
  5
275
330
559
100
AcDbEntity
  8
REF
  6
Continuous
 62
     7
370
    13
100
AcDbText
 10
26.809348
 20
-4.293417
 30
0.0
 40
0.0675
  1
POST AND BRACKET ARE TO BE
 41
0.833333
  7
Style-Arial
 72
     1
 11
27.425269
 21
-4.293417
 31
0.0
100
AcDbText
  0
TEXT
  5
276
330
559
100
AcDbEntity
  8
REF
  6
Continuous
 62
     7
370
    13
100
AcDbText
 10
26.811242
 20
-4.395656
 30
0.0
 40
0.0675
  1
GALVANIZED IN ACCORDANCE WITH
 41
0.833333
  7
Style-Arial
 72
     1
 11
27.508965
 21
-4.395656
 31
0.0
100
AcDbText
  0
TEXT
  5
277
330
559
100
AcDbEntity
  8
REF
  6
Continuous
 62
     7
370
    13
100
AcDbText
 10
26.812151
 20
-4.495792
 30
0.0
 40
0.0675
  1
SPECIFICATIONS.
 41
0.833333
  7
Style-Arial
 72
     1
 11
27.147186
 21
-4.495792
 31
0.0
100
AcDbText
  0
TEXT
  5
278
330
559
100
AcDbEntity
  8
REF
  6
Continuous
 62
     7
370
    13
100
AcDbText
 10
26.778997
 20
-4.621281
 30
0.0
 40
0.0675
  1
*NOMINAL DIMENSIONS (SEE TYPICAL
 41
0.833333
  7
Style-Arial
 72
     1
 11
27.509111
 21
-4.621281
 31
0.0
100
AcDbText
  0
TEXT
  5
279
330
559
100
AcDbEntity
  8
REF
  6
Continuous
 62
     7
370
    13
100
AcDbText
 10
26.790309
 20
-4.726003
 30
0.0
 40
0.0675
  1
 SECTION) HEREON.
 41
0.833333
  7
Style-Arial
 72
     1
 11
27.175527
 21
-4.726003
 31
0.0
100
AcDbText
  0
TEXT
  5
27A
330
559
100
AcDbEntity
  8
REF
  6
Continuous
 62
     7
370
    13
100
AcDbText
 10
29.880425
 20
-4.799344
 30
0.0
 40
0.0675
  1
 SECTION) HEREON.
 41
0.833333
  7
Style-Arial
 72
     1
 11
30.265644
 21
-4.799344
 31
0.0
100
AcDbText
  0
TEXT
  5
27B
330
559
100
AcDbEntity
  8
REF
  6
Continuous
 62
     7
370
    13
100
AcDbText
 10
29.869203
 20
-4.698156
 30
0.0
 40
0.0675
  1
*NOMINAL DIMENSIONS (SEE TYPICAL
 41
0.833333
  7
Style-Arial
 72
     1
 11
30.599317
 21
-4.698156
 31
0.0
100
AcDbText
  0
TEXT
  5
27C
330
559
100
AcDbEntity
  8
REF
  6
Continuous
 62
     7
370
    13
100
AcDbText
 10
29.902212
 20
-4.495792
 30
0.0
 40
0.0675
  1
SPECIFICATIONS.
 41
0.833333
  7
Style-Arial
 72
     1
 11
30.237247
 21
-4.495792
 31
0.0
100
AcDbText
  0
TEXT
  5
27D
330
559
100
AcDbEntity
  8
REF
  6
Continuous
 62
     7
370
    13
100
AcDbText
 10
29.901454
 20
-4.394604
 30
0.0
 40
0.0675
  1
GALVANIZED IN ACCORDANCE WITH
 41
0.833333
  7
Style-Arial
 72
     1
 11
30.599177
 21
-4.394604
 31
0.0
100
AcDbText
  0
TEXT
  5
27E
330
559
100
AcDbEntity
  8
REF
  6
Continuous
 62
     7
370
    13
100
AcDbText
 10
29.89969
 20
-4.293417
 30
0.0
 40
0.0675
  1
POST AND BRACKET ARE TO BE
 41
0.833333
  7
Style-Arial
 72
     1
 11
30.51561
 21
-4.293417
 31
0.0
100
AcDbText
  0
TEXT
  5
27F
330
559
100
AcDbEntity
  8
REF
  6
Continuous
 62
     7
370
    13
100
AcDbText
 10
29.905376
 20
-4.032929
 30
0.0
 40
0.0675
  1
AND BRACKET ARE TO BE 3/4"%
 41
0.833333
  7
Style-Arial
 72
     1
 11
30.517438
 21
-4.032929
 31
0.0
100
AcDbText
  0
TEXT
  5
280
330
559
100
AcDbEntity
  8
REF
  6
Continuous
 62
     7
370
    13
100
AcDbText
 10
29.901515
 20
-3.927146
 30
0.0
 40
0.0675
  1
OPPOSITE HAND. HOLES IN POST
 41
0.833333
  7
Style-Arial
 72
     1
 11
30.547104
 21
-3.927146
 31
0.0
100
AcDbText
  0
TEXT
  5
281
330
559
100
AcDbEntity
  8
REF
  6
Continuous
 62
     7
370
    13
100
AcDbText
 10
29.899
 20
-3.833201
 30
0.0
 40
0.0675
  1
FRONT OF POST. HOLES MAY BE
 41
0.833333
  7
Style-Arial
 72
     1
 11
30.53014
 21
-3.833201
 31
0.0
100
AcDbText
  0
TEXT
  5
282
330
559
100
AcDbEntity
  8
REF
  6
Continuous
 62
     7
370
    13
100
AcDbText
 10
29.900095
 20
-3.732708
 30
0.0
 40
0.0675
  1
BRACKET TO MATCH THOSE IN 
 41
0.833333
  7
Style-Arial
 72
     1
 11
30.495158
 21
-3.732708
 31
0.0
100
AcDbText
  0
TEXT
  5
283
330
559
100
AcDbEntity
  8
REF
  6
Continuous
 62
     7
370
    13
100
AcDbText
 10
29.901825
 20
-3.626925
 30
0.0
 40
0.0675
  1
CENTER OF HOLES IN BACK OF
 41
0.833333
  7
Style-Arial
 72
     1
 11
30.504883
 21
-3.626925
 31
0.0
100
AcDbText
  0
TEXT
  5
290
330
559
100
AcDbEntity
  8
DEFPOINTS
  6
Continuous
 62
     7
370
    13
100
AcDbText
 10
25.323323
 20
-5.514807
 30
0.0
 40
0.0675
  1
2'-3"
 50
90.0
 41
0.833333
  7
Style-Arial
 72
     1
 11
25.323323
 21
-5.438428
 31
0.0
100
AcDbText
  0
TEXT
  5
302
330
559
100
AcDbEntity
  8
REF
  6
Continuous
 62
     7
370
    13
100
AcDbText
 10
24.876491
 20
-6.663569
 30
0.0
 40
0.0675
  1
GALVANIZING
 41
0.833333
  7
Style-Arial
 72
     1
 11
25.138255
 21
-6.663569
 31
0.0
100
AcDbText
  0
TEXT
  5
303
330
559
100
AcDbEntity
  8
REF
  6
Continuous
 62
     7
370
    13
100
AcDbText
 10
24.87458
 20
-6.567563
 30
0.0
 40
0.0675
  1
TO FACILITATE
 41
0.833333
  7
Style-Arial
 72
     1
 11
25.160696
 21
-6.567563
 31
0.0
100
AcDbText
  0
TEXT
  5
304
330
559
100
AcDbEntity
  8
REF
  6
Continuous
 62
     7
370
    13
100
AcDbText
 10
24.870322
 20
-6.483646
 30
0.0
 40
0.0675
  1
OPTIONAL HOLE
 41
0.833333
  7
Style-Arial
 72
     1
 11
25.184863
 21
-6.483646
 31
0.0
100
AcDbText
  0
TEXT
  5
318
330
559
100
AcDbEntity
  8
DEFPOINTS
  6
Continuous
 62
     7
370
    13
100
AcDbText
 10
25.86144
 20
-4.800396
 30
0.0
 40
0.0675
  1
6"
 41
0.833333
  7
Style-Arial
 72
     1
 11
25.895396
 21
-4.800396
 31
0.0
100
AcDbText
  0
TEXT
  5
395
330
559
100
AcDbEntity
  8
DEFPOINTS
  6
Continuous
 62
     7
370
    13
100
AcDbText
 10
28.568372
 20
-4.950073
 30
0.0
 40
0.0675
  1
6"
 41
0.833333
  7
Style-Arial
 72
     1
 11
28.602328
 21
-4.950073
 31
0.0
100
AcDbText
  0
TEXT
  5
3D4
330
559
100
AcDbEntity
  8
DEFPOINTS
  6
Continuous
 62
     7
370
    13
100
AcDbText
 10
32.64239
 20
-5.10924
 30
0.0
 40
0.0675
  1
3"
 41
0.833333
  7
Style-Arial
 72
     1
 11
32.676346
 21
-5.10924
 31
0.0
100
AcDbText
  0
TEXT
  5
3DA
330
559
100
AcDbEntity
  8
DEFPOINTS
  6
Continuous
 62
     7
370
    13
100
AcDbText
 10
32.466788
 20
-5.10924
 30
0.0
 40
0.0675
  1
6"
 41
0.833333
  7
Style-Arial
 72
     1
 11
32.500744
 21
-5.10924
 31
0.0
100
AcDbText
  0
TEXT
  5
401
330
559
100
AcDbEntity
  8
DEFPOINTS
  6
Continuous
 62
     7
370
    13
100
AcDbText
 10
31.938551
 20
-5.111625
 30
0.0
 40
0.0675
  1
6"
 41
0.833333
  7
Style-Arial
 72
     1
 11
31.972507
 21
-5.111625
 31
0.0
100
AcDbText
  0
TEXT
  5
441
330
559
100
AcDbEntity
  8
DEFPOINTS
  6
Continuous
 62
     7
370
    13
100
AcDbText
 10
32.194442
 20
-5.10924
 30
0.0
 40
0.0675
  1
6"
 41
0.833333
  7
Style-Arial
 72
     1
 11
32.228397
 21
-5.10924
 31
0.0
100
AcDbText
  0
TEXT
  5
449
330
559
100
AcDbEntity
  8
DEFPOINTS
  6
Continuous
 62
     7
370
    13
100
AcDbText
 10
31.741243
 20
-5.108979
 30
0.0
 40
0.0675
  1
3"
 41
0.833333
  7
Style-Arial
 72
     1
 11
31.775199
 21
-5.108979
 31
0.0
100
AcDbText
  0
TEXT
  5
44F
330
559
100
AcDbEntity
  8
DEFPOINTS
  6
Continuous
 62
     7
370
    13
100
AcDbText
 10
31.564833
 20
-5.528073
 30
0.0
 40
0.0675
  1
1'-1"
 50
90.0
 41
0.833333
  7
Style-Arial
 72
     1
 11
31.564833
 21
-5.451694
 31
0.0
100
AcDbText
  0
TEXT
  5
454
330
559
100
AcDbEntity
  8
DEFPOINTS
  6
Continuous
 62
     7
370
    13
100
AcDbText
 10
31.371448
 20
-5.796325
 30
0.0
 40
0.0675
  1
2'-3"
 50
90.0
 41
0.833333
  7
Style-Arial
 72
     1
 11
31.371448
 21
-5.719945
 31
0.0
100
AcDbText
  0
TEXT
  5
45D
330
559
100
AcDbEntity
  8
DEFPOINTS
  6
Continuous
 62
     7
370
    13
100
AcDbText
 10
28.019427
 20
-5.627895
 30
0.0
 40
0.0675
  1
2'-3"
 50
90.0
 41
0.833333
  7
Style-Arial
 72
     1
 11
28.019427
 21
-5.551516
 31
0.0
100
AcDbText
  0
TEXT
  5
462
330
559
100
AcDbEntity
  8
DEFPOINTS
  6
Continuous
 62
     7
370
    13
100
AcDbText
 10
28.209708
 20
-5.378766
 30
0.0
 40
0.0675
  1
1'-1"
 50
90.0
 41
0.833333
  7
Style-Arial
 72
     1
 11
28.209708
 21
-5.302387
 31
0.0
100
AcDbText
  0
TEXT
  5
468
330
559
100
AcDbEntity
  8
DEFPOINTS
  6
Continuous
 62
     7
370
    13
100
AcDbText
 10
28.375152
 20
-4.952531
 30
0.0
 40
0.0675
  1
3"
 41
0.833333
  7
Style-Arial
 72
     1
 11
28.409108
 21
-4.952531
 31
0.0
100
AcDbText
  0
TEXT
  5
470
330
559
100
AcDbEntity
  8
DEFPOINTS
  6
Continuous
 62
     7
370
    13
100
AcDbText
 10
28.827093
 20
-4.955458
 30
0.0
 40
0.0675
  1
6"
 41
0.833333
  7
Style-Arial
 72
     1
 11
28.861048
 21
-4.955458
 31
0.0
100
AcDbText
  0
TEXT
  5
484
330
559
100
AcDbEntity
  8
DEFPOINTS
  6
Continuous
 62
     7
370
    13
100
AcDbText
 10
29.385792
 20
-5.851331
 30
0.0
 40
0.0675
  1
5'-9" MIN
 50
90.0
 41
0.833333
  7
Style-Arial
 72
     1
 11
29.385792
 21
-5.693385
 31
0.0
100
AcDbText
  0
TEXT
  5
4B3
330
559
100
AcDbEntity
  8
DEFPOINTS
  6
Continuous
 62
     7
370
    13
100
AcDbText
 10
29.116396
 20
-5.325959
 30
0.0
 40
0.0675
  1
9"
 50
90.0
 41
0.833333
  7
Style-Arial
 72
     1
 11
29.116396
 21
-5.292003
 31
0.0
100
AcDbText
  0
TEXT
  5
4BA
330
559
100
AcDbEntity
  8
DEFPOINTS
  6
Continuous
 62
     7
370
    13
100
AcDbText
 10
29.123791
 20
-4.974805
 30
0.0
 40
0.0675
  1
2"
 50
90.0
 41
0.833333
  7
Style-Arial
 72
     1
 11
29.123791
 21
-4.94085
 31
0.0
100
AcDbText
  0
TEXT
  5
4CE
330
559
100
AcDbEntity
  8
REF
  6
Continuous
 62
     7
370
    13
100
AcDbText
 10
27.831952
 20
-6.623146
 30
0.0
 40
0.0675
  1
OPTIONAL HOLE
 41
0.833333
  7
Style-Arial
 72
     1
 11
28.146494
 21
-6.623146
 31
0.0
100
AcDbText
  0
TEXT
  5
4CF
330
559
100
AcDbEntity
  8
REF
  6
Continuous
 62
     7
370
    13
100
AcDbText
 10
27.837266
 20
-6.724333
 30
0.0
 40
0.0675
  1
TO FACILITATE
 41
0.833333
  7
Style-Arial
 72
     1
 11
28.123382
 21
-6.724333
 31
0.0
100
AcDbText
  0
TEXT
  5
4D0
330
559
100
AcDbEntity
  8
REF
  6
Continuous
 62
     7
370
    13
100
AcDbText
 10
27.839417
 20
-6.82551
 30
0.0
 40
0.0675
  1
GALVANIZING
 41
0.833333
  7
Style-Arial
 72
     1
 11
28.101181
 21
-6.82551
 31
0.0
100
AcDbText
  0
TEXT
  5
4D1
330
559
100
AcDbEntity
  8
REF
  6
Continuous
 62
     7
370
    13
100
AcDbText
 10
27.589853
 20
-4.993586
 30
0.0
 40
0.0675
  1
5/8"x2" BOLT
 41
0.833333
  7
Style-Arial
 72
     1
 11
27.826622
 21
-4.993586
 31
0.0
100
AcDbText
  0
TEXT
  5
4D2
330
559
100
AcDbEntity
  8
REF
  6
Continuous
 62
     7
370
    13
100
AcDbText
 10
27.593361
 20
-5.080957
 30
0.0
 40
0.0675
  1
& WASHER
 41
0.833333
  7
Style-Arial
 72
     1
 11
27.802455
 21
-5.080957
 31
0.0
100
AcDbText
  0
TEXT
  5
4D3
330
559
100
AcDbEntity
  8
REF
  6
Continuous
 62
     7
370
    13
100
AcDbText
 10
30.963829
 20
-5.237996
 30
0.0
 40
0.0675
  1
& WASHER
 41
0.833333
  7
Style-Arial
 72
     1
 11
31.172923
 21
-5.237996
 31
0.0
100
AcDbText
  0
TEXT
  5
4D4
330
559
100
AcDbEntity
  8
REF
  6
Continuous
 62
     7
370
    13
100
AcDbText
 10
30.961801
 20
-5.146677
 30
0.0
 40
0.0675
  1
5/8"x2" BOLT
 41
0.833333
  7
Style-Arial
 72
     1
 11
31.19857
 21
-5.146677
 31
0.0
100
AcDbText
  0
TEXT
  5
4D5
330
559
100
AcDbEntity
  8
REF
  6
Continuous
 62
     7
370
    13
100
AcDbText
 10
31.186729
 20
-6.973854
 30
0.0
 40
0.0675
  1
GALVANIZING
 41
0.833333
  7
Style-Arial
 72
     1
 11
31.448493
 21
-6.973854
 31
0.0
100
AcDbText
  0
TEXT
  5
4D6
330
559
100
AcDbEntity
  8
REF
  6
Continuous
 62
     7
370
    13
100
AcDbText
 10
31.183523
 20
-6.872667
 30
0.0
 40
0.0675
  1
TO FACILITATE
 41
0.833333
  7
Style-Arial
 72
     1
 11
31.469639
 21
-6.872667
 31
0.0
100
AcDbText
  0
TEXT
  5
4D7
330
559
100
AcDbEntity
  8
REF
  6
Continuous
 62
     7
370
    13
100
AcDbText
 10
31.179264
 20
-6.77149
 30
0.0
 40
0.0675
  1
OPTIONAL HOLE
 41
0.833333
  7
Style-Arial
 72
     1
 11
31.493806
 21
-6.77149
 31
0.0
100
AcDbText
  0
TEXT
  5
4D8
330
559
100
AcDbEntity
  8
DEFPOINTS
  6
Continuous
 62
     7
370
    13
100
AcDbText
 10
33.026812
 20
-6.32902
 30
0.0
 40
0.0675
  1
5'-9" MIN
 50
90.0
 41
0.833333
  7
Style-Arial
 72
     1
 11
33.026812
 21
-6.171074
 31
0.0
100
AcDbText
  0
TEXT
  5
4D9
330
559
100
AcDbEntity
  8
DEFPOINTS
  6
Continuous
 62
     7
370
    13
100
AcDbText
 10
25.940421
 20
-4.762833
 30
0.0
 40
0.0675
  1
*
 41
0.833333
  7
Style-Arial
 72
     1
 11
25.954333
 21
-4.762833
 31
0.0
100
AcDbText
  0
TEXT
  5
4DA
330
559
100
AcDbEntity
  8
DEFPOINTS
  6
Continuous
 62
     7
370
    13
100
AcDbText
 10
28.88891
 20
-4.920042
 30
0.0
 40
0.0675
  1
*
 41
0.833333
  7
Style-Arial
 72
     1
 11
28.902823
 21
-4.920042
 31
0.0
100
AcDbText
  0
MTEXT
  5
4DB
330
559
100
AcDbEntity
  8
DEFPOINTS
  6
Continuous
 62
     7
370
    13
100
AcDbMText
 10
32.600348
 20
-5.960942
 30
0.0
 40
0.0675
 41
0.0
 71
     8
 72
     1
  1
{\H1.000000x;\W0.833333;\A0;\S5#8;}\H1.000000x;\W0.833333;" x 2"
  7
Style-Arial
 73
     2
 44
1.382053
  0
TEXT
  5
4DC
330
559
100
AcDbEntity
  8
DEFPOINTS
  6
Continuous
 62
     7
370
    13
100
AcDbText
 10
32.469505
 20
-5.979979
 30
0.0
 40
0.0675
  1
MACHINE
 41
0.833333
  7
Style-Arial
 72
     1
 11
32.64863
 21
-5.979979
 31
0.0
100
AcDbText
  0
TEXT
  5
4DD
330
559
100
AcDbEntity
  8
DEFPOINTS
  6
Continuous
 62
     7
370
    13
100
AcDbText
 10
32.469337
 20
-6.08026
 30
0.0
 40
0.0675
  1
BOLT
 41
0.833333
  7
Style-Arial
 72
     1
 11
32.571183
 21
-6.08026
 31
0.0
100
AcDbText
  0
TEXT
  5
4EA
330
559
100
AcDbEntity
  8
LEGEND
  6
Continuous
 62
     7
370
    13
100
AcDbText
 10
28.627301
 20
-9.690208
 30
0.0
 40
0.0675
  1
REFERENCE:  FOR MORE INFORMATION ON GUARD RAILS
 41
0.833333
  7
Style-Arial
 72
     1
 11
29.745334
 21
-9.690208
 31
0.0
100
AcDbText
  0
TEXT
  5
4C7
330
559
100
AcDbEntity
  8
BORDER
  6
Continuous
 62
     7
370
    13
100
AcDbText
 10
31.45036
 20
-10.459924
 30
0.0
 40
0.105469
  1
DATE
 41
0.833333
  7
Style-Arial
 72
     1
 11
31.610868
 21
-10.459924
 31
0.0
100
AcDbText
  0
TEXT
  5
4C8
330
559
100
AcDbEntity
  8
BORDER
  6
Continuous
 62
     7
370
    13
100
AcDbText
 10
32.512407
 20
-10.448719
 30
0.0
 40
0.105469
  1
FIGURE
 41
0.833333
  7
Style-Arial
 72
     1
 11
32.74111
 21
-10.448719
 31
0.0
100
AcDbText
  0
TEXT
  5
4C6
330
559
100
AcDbEntity
  8
BORDER
  6
Continuous
 62
     7
370
    13
100
AcDbText
 10
32.582252
 20
-10.599453
 30
0.0
 40
0.105469
  1
2-30g
 41
0.833333
  7
Style-Arial
 72
     1
 11
32.735123
 21
-10.599453
 31
0.0
100
AcDbText
  0
TEXT
  5
4C5
330
559
100
AcDbEntity
  8
TEXT
  6
Continuous
 62
     7
370
    13
100
AcDbText
 10
25.384705
 20
-10.543167
 30
0.0
 40
0.105469
  1
TYPICAL ALTERNATE STEEL POST FOR GUARD RAIL AND MEDIAN BARRIER
 41
0.833333
  7
Style-Arial
 72
     1
 11
27.646046
 21
-10.543167
 31
0.0
100
AcDbText
  0
ENDSEC
  0
SECTION
  2
OBJECTS
  0
DICTIONARY
  5
54D
330
0
100
AcDbDictionary
281
     1
  3
ACAD_COLOR
350
56C
  3
ACAD_GROUP
350
569
  3
ACAD_LAYOUT
350
55D
  3
ACAD_MATERIAL
350
56B
  3
ACAD_MLINESTYLE
350
557
  3
ACAD_PLOTSETTINGS
350
56A
  3
ACAD_PLOTSTYLENAME
350
54C
  3
ACAD_TABLESTYLE
350
585
  3
AcadDim
350
579
  3
MicroStation
350
571
  0
DICTIONARY
  5
549
330
548
100
AcDbDictionary
280
     1
281
     1
  3
ACAD_LAYERFILTERS
360
570
  3
ACAD_LAYERSTATES
360
54A
  0
DICTIONARY
  5
581
330
559
100
AcDbDictionary
280
     1
281
     1
  3
ACAD_SORTENTS
360
582
  0
DICTIONARY
  5
56C
102
{ACAD_REACTORS
330
54D
102
}
330
54D
100
AcDbDictionary
281
     1
  0
DICTIONARY
  5
569
102
{ACAD_REACTORS
330
54D
102
}
330
54D
100
AcDbDictionary
281
     1
  0
DICTIONARY
  5
55D
102
{ACAD_REACTORS
330
54D
102
}
330
54D
100
AcDbDictionary
281
     1
  3
Layout1
350
561
  3
Model
350
55C
  0
DICTIONARY
  5
56B
102
{ACAD_REACTORS
330
54D
102
}
330
54D
100
AcDbDictionary
281
     1
  0
DICTIONARY
  5
557
102
{ACAD_REACTORS
330
54D
102
}
330
54D
100
AcDbDictionary
281
     1
  3
Standard
350
556
  0
DICTIONARY
  5
56A
102
{ACAD_REACTORS
330
54D
102
}
330
54D
100
AcDbDictionary
281
     1
  0
ACDBDICTIONARYWDFLT
  5
54C
102
{ACAD_REACTORS
330
54D
102
}
330
54D
100
AcDbDictionary
281
     1
  3
Normal
350
54B
100
AcDbDictionaryWithDefault
340
54B
  0
DICTIONARY
  5
585
102
{ACAD_REACTORS
330
54D
102
}
330
54D
100
AcDbDictionary
281
     1
  0
XRECORD
  5
579
102
{ACAD_REACTORS
330
54D
102
}
330
54D
100
AcDbXrecord
280
     1
 90
   990106
  3
 
 60
     0
 61
     0
 62
     1
 63
     1
 64
     0
 65
     0
 66
     0
 67
     3
 68
     1
 69
     1
 70
     0
 71
     0
 72
     0
 40
0.0
170
     0
  0
DICTIONARY
  5
571
102
{ACAD_REACTORS
330
54D
102
}
330
54D
100
AcDbDictionary
281
     1
  3
ApplicationElement 1333
350
535
  3
ApplicationElement 1349
350
545
  3
ModelApplicationElement 0 1332
350
534
  0
DICTIONARY
  5
570
102
{ACAD_REACTORS
330
549
102
}
330
549
100
AcDbDictionary
281
     1
  0
DICTIONARY
  5
54A
102
{ACAD_REACTORS
330
549
102
}
330
549
100
AcDbDictionary
281
     1
  0
SORTENTSTABLE
  5
582
102
{ACAD_REACTORS
330
581
102
}
330
581
100
AcDbSortentsTable
330
559
331
129
  5
46F
331
12A
  5
129
331
12B
  5
470
331
12C
  5
12A
331
12D
  5
12B
331
12E
  5
12C
331
12F
  5
12D
331
130
  5
12E
331
131
  5
12F
331
132
  5
130
331
133
  5
471
331
134
  5
131
331
135
  5
132
331
136
  5
133
331
137
  5
134
331
138
  5
135
331
139
  5
136
331
13A
  5
137
331
13B
  5
138
331
13C
  5
139
331
13D
  5
13A
331
13E
  5
13B
331
13F
  5
13C
331
140
  5
13D
331
141
  5
13E
331
142
  5
13F
331
143
  5
140
331
144
  5
141
331
145
  5
142
331
146
  5
143
331
147
  5
144
331
148
  5
145
331
149
  5
146
331
14A
  5
147
331
14B
  5
148
331
14C
  5
149
331
14D
  5
14A
331
14E
  5
14B
331
14F
  5
14C
331
150
  5
14D
331
151
  5
14E
331
152
  5
14F
331
153
  5
150
331
154
  5
151
331
155
  5
152
331
156
  5
153
331
157
  5
154
331
158
  5
155
331
159
  5
156
331
15A
  5
157
331
15B
  5
158
331
15C
  5
472
331
15D
  5
473
331
15E
  5
159
331
15F
  5
15A
331
160
  5
15B
331
161
  5
15C
331
162
  5
15D
331
163
  5
15E
331
164
  5
15F
331
165
  5
160
331
166
  5
161
331
167
  5
474
331
168
  5
475
331
169
  5
162
331
16B
  5
163
331
16D
  5
164
331
16F
  5
165
331
171
  5
166
331
172
  5
167
331
173
  5
168
331
174
  5
169
331
175
  5
16B
331
176
  5
16D
331
177
  5
16F
331
178
  5
171
331
179
  5
476
331
17A
  5
477
331
17B
  5
478
331
17C
  5
479
331
17D
  5
47A
331
17E
  5
47B
331
17F
  5
47C
331
180
  5
47D
331
181
  5
47E
331
182
  5
47F
331
183
  5
480
331
184
  5
484
331
185
  5
485
331
186
  5
486
331
187
  5
487
331
188
  5
172
331
189
  5
173
331
18A
  5
488
331
18B
  5
489
331
18C
  5
174
331
18D
  5
175
331
18E
  5
176
331
18F
  5
177
331
190
  5
178
331
191
  5
179
331
192
  5
17A
331
193
  5
17B
331
194
  5
17C
331
195
  5
17D
331
196
  5
17E
331
197
  5
17F
331
198
  5
180
331
199
  5
181
331
19A
  5
182
331
19B
  5
183
331
19C
  5
184
331
19D
  5
48A
331
19E
  5
185
331
19F
  5
186
331
1A0
  5
187
331
1A1
  5
188
331
1A2
  5
189
331
1A3
  5
18A
331
1A4
  5
18B
331
1A5
  5
18C
331
1A6
  5
48B
331
1A7
  5
18D
331
1A8
  5
18E
331
1A9
  5
18F
331
1AA
  5
48C
331
1AB
  5
190
331
1AC
  5
191
331
1AD
  5
192
331
1AE
  5
193
331
1AF
  5
194
331
1B0
  5
195
331
1B1
  5
196
331
1B2
  5
48D
331
1B3
  5
48E
331
1B4
  5
197
331
1B5
  5
198
331
1B6
  5
199
331
1B7
  5
19A
331
1B8
  5
19B
331
1B9
  5
19C
331
1BA
  5
19D
331
1BB
  5
19E
331
1BC
  5
19F
331
1BD
  5
1A0
331
1BE
  5
1A1
331
1BF
  5
1A2
331
1C0
  5
48F
331
1C1
  5
1A3
331
1C2
  5
1A4
331
1C3
  5
1A5
331
1C4
  5
1A6
331
1C5
  5
1A7
331
1C6
  5
1A8
331
1C7
  5
1A9
331
1C8
  5
1AA
331
1C9
  5
1AB
331
1CA
  5
1AC
331
1CB
  5
1AD
331
1CC
  5
1AE
331
1CD
  5
1AF
331
1CE
  5
1B0
331
1CF
  5
1B1
331
1D0
  5
1B2
331
1D1
  5
1B3
331
1D2
  5
1B4
331
1D3
  5
1B5
331
1D4
  5
1B6
331
1D5
  5
1B7
331
1D6
  5
1B8
331
1D7
  5
1B9
331
1D8
  5
1BA
331
1D9
  5
490
331
1DA
  5
491
331
1DB
  5
1BB
331
1DC
  5
1BC
331
1DD
  5
1BD
331
1DE
  5
1BE
331
1DF
  5
1BF
331
1E0
  5
1C0
331
1E1
  5
1C1
331
1E2
  5
492
331
1E3
  5
493
331
1E4
  5
1C2
331
1E5
  5
1C3
331
1E6
  5
1C4
331
1E7
  5
1C5
331
1E8
  5
1C6
331
1E9
  5
494
331
1EA
  5
1C7
331
1EB
  5
1C8
331
1EC
  5
1C9
331
1ED
  5
1CA
331
1EE
  5
1CB
331
1EF
  5
495
331
1F0
  5
1CC
331
1F1
  5
1CD
331
1F2
  5
1CE
331
1F3
  5
1CF
331
1F4
  5
1D0
331
1F5
  5
1D1
331
1F6
  5
1D2
331
1F7
  5
1D3
331
1F8
  5
1D4
331
1F9
  5
1D5
331
1FA
  5
1D6
331
1FB
  5
1D7
331
1FC
  5
1D8
331
1FD
  5
1D9
331
1FE
  5
1DA
331
1FF
  5
1DB
331
200
  5
1DC
331
201
  5
1DD
331
202
  5
1DE
331
203
  5
1DF
331
204
  5
1E0
331
205
  5
1E1
331
206
  5
1E2
331
207
  5
1E3
331
208
  5
1E4
331
209
  5
1E5
331
20A
  5
1E6
331
20B
  5
1E7
331
20C
  5
1E8
331
20D
  5
1E9
331
20E
  5
1EA
331
20F
  5
1EB
331
210
  5
1EC
331
211
  5
1ED
331
212
  5
1EE
331
213
  5
1EF
331
214
  5
1F0
331
215
  5
1F1
331
216
  5
1F2
331
217
  5
1F3
331
218
  5
1F4
331
219
  5
1F5
331
21A
  5
1F6
331
21B
  5
1F7
331
21C
  5
1F8
331
21D
  5
1F9
331
21E
  5
1FA
331
21F
  5
1FB
331
220
  5
1FC
331
221
  5
1FD
331
222
  5
1FE
331
223
  5
1FF
331
224
  5
200
331
225
  5
201
331
226
  5
202
331
227
  5
203
331
228
  5
204
331
229
  5
205
331
22A
  5
206
331
22B
  5
207
331
22C
  5
208
331
22D
  5
209
331
22E
  5
20A
331
230
  5
20B
331
232
  5
20C
331
233
  5
20D
331
234
  5
20E
331
235
  5
20F
331
236
  5
210
331
237
  5
211
331
238
  5
212
331
239
  5
213
331
23A
  5
214
331
23B
  5
215
331
23C
  5
216
331
23D
  5
217
331
23E
  5
218
331
23F
  5
219
331
240
  5
21A
331
241
  5
21B
331
242
  5
21C
331
243
  5
21D
331
244
  5
21E
331
245
  5
21F
331
246
  5
220
331
247
  5
221
331
248
  5
222
331
249
  5
223
331
24A
  5
224
331
24B
  5
225
331
24C
  5
226
331
24D
  5
227
331
24E
  5
228
331
24F
  5
229
331
250
  5
22A
331
251
  5
22B
331
252
  5
22C
331
253
  5
22D
331
254
  5
22E
331
255
  5
230
331
256
  5
232
331
257
  5
233
331
258
  5
234
331
259
  5
235
331
25A
  5
236
331
25B
  5
237
331
25C
  5
238
331
25D
  5
239
331
25E
  5
23A
331
25F
  5
23B
331
260
  5
23C
331
261
  5
23D
331
262
  5
496
331
263
  5
497
331
264
  5
498
331
265
  5
499
331
266
  5
49A
331
267
  5
49B
331
268
  5
49C
331
269
  5
49D
331
26A
  5
49E
331
26B
  5
49F
331
26C
  5
4A0
331
26D
  5
4A1
331
26E
  5
4A2
331
26F
  5
4A3
331
270
  5
4A4
331
271
  5
4A5
331
272
  5
4A6
331
273
  5
4A7
331
274
  5
4A8
331
275
  5
4A9
331
276
  5
4AA
331
277
  5
4AB
331
278
  5
4AC
331
279
  5
4AD
331
27A
  5
4AE
331
27B
  5
4AF
331
27C
  5
4B0
331
27D
  5
4B1
331
27E
  5
4B2
331
27F
  5
4B3
331
280
  5
4B4
331
281
  5
4B5
331
282
  5
4B6
331
283
  5
4B7
331
284
  5
23E
331
285
  5
23F
331
286
  5
240
331
287
  5
241
331
288
  5
242
331
289
  5
243
331
28A
  5
244
331
28E
  5
245
331
28F
  5
246
331
290
  5
4B8
331
291
  5
247
331
292
  5
248
331
293
  5
249
331
294
  5
24A
331
295
  5
24B
331
296
  5
24C
331
297
  5
24D
331
298
  5
24E
331
299
  5
24F
331
29A
  5
250
331
29B
  5
251
331
29C
  5
252
331
29D
  5
253
331
29E
  5
254
331
29F
  5
255
331
2A0
  5
256
331
2A1
  5
257
331
2A2
  5
258
331
2A3
  5
259
331
2A4
  5
25A
331
2A5
  5
25B
331
2A6
  5
25C
331
2A7
  5
25D
331
2A8
  5
25E
331
2A9
  5
25F
331
2AA
  5
260
331
2AB
  5
261
331
2AC
  5
262
331
2AD
  5
263
331
2AE
  5
264
331
2AF
  5
265
331
2B0
  5
266
331
2B1
  5
267
331
2B2
  5
268
331
2B3
  5
269
331
2B4
  5
26A
331
2B5
  5
26B
331
2B6
  5
26C
331
2B7
  5
26D
331
2B8
  5
26E
331
2B9
  5
26F
331
2BA
  5
270
331
2BB
  5
271
331
2BC
  5
272
331
2BD
  5
273
331
2BE
  5
274
331
2BF
  5
275
331
2C0
  5
276
331
2C1
  5
277
331
2C2
  5
278
331
2C3
  5
279
331
2C4
  5
27A
331
2C5
  5
27B
331
2C6
  5
27C
331
2C7
  5
27D
331
2C8
  5
27E
331
2C9
  5
27F
331
2CA
  5
280
331
2CB
  5
281
331
2CC
  5
282
331
2CD
  5
283
331
2CE
  5
284
331
2CF
  5
285
331
2D0
  5
286
331
2D1
  5
287
331
2D2
  5
288
331
2D3
  5
289
331
2D4
  5
28A
331
2D5
  5
28E
331
2D6
  5
28F
331
2D7
  5
290
331
2D8
  5
291
331
2D9
  5
292
331
2DA
  5
293
331
2DB
  5
294
331
2DC
  5
295
331
2DD
  5
296
331
2DE
  5
297
331
2DF
  5
298
331
2E0
  5
299
331
2E1
  5
29A
331
2E2
  5
29B
331
2E3
  5
29C
331
2E4
  5
29D
331
2E5
  5
29E
331
2E6
  5
29F
331
2E7
  5
2A0
331
2E8
  5
2A1
331
2E9
  5
2A2
331
2EA
  5
2A3
331
2EB
  5
2A4
331
2EC
  5
2A5
331
2ED
  5
2A6
331
2EE
  5
2A7
331
2EF
  5
2A8
331
2F0
  5
2A9
331
2F1
  5
2AA
331
2F2
  5
2AB
331
2F3
  5
2AC
331
2F4
  5
2AD
331
2F5
  5
2AE
331
2F6
  5
2AF
331
2F7
  5
2B0
331
2F8
  5
2B1
331
2F9
  5
2B2
331
2FA
  5
2B3
331
2FB
  5
2B4
331
2FC
  5
2B5
331
2FD
  5
2B6
331
2FE
  5
2B7
331
2FF
  5
2B8
331
300
  5
2B9
331
301
  5
2BA
331
302
  5
4B9
331
303
  5
4BA
331
304
  5
4BB
331
305
  5
2BB
331
306
  5
2BC
331
307
  5
2BD
331
308
  5
2BE
331
309
  5
2BF
331
30A
  5
2C0
331
30B
  5
2C1
331
30C
  5
2C2
331
30D
  5
2C3
331
30E
  5
2C4
331
30F
  5
2C5
331
310
  5
2C6
331
311
  5
2C7
331
312
  5
2C8
331
313
  5
2C9
331
314
  5
2CA
331
315
  5
2CB
331
316
  5
2CC
331
317
  5
2CD
331
318
  5
4BC
331
319
  5
2CE
331
31A
  5
2CF
331
31B
  5
2D0
331
31C
  5
2D1
331
31D
  5
2D2
331
31E
  5
2D3
331
31F
  5
2D4
331
320
  5
2D5
331
321
  5
2D6
331
322
  5
2D7
331
323
  5
2D8
331
324
  5
2D9
331
325
  5
2DA
331
326
  5
2DB
331
327
  5
2DC
331
328
  5
2DD
331
329
  5
2DE
331
32A
  5
2DF
331
32B
  5
2E0
331
32C
  5
2E1
331
32D
  5
2E2
331
32E
  5
2E3
331
32F
  5
2E4
331
330
  5
2E5
331
331
  5
2E6
331
332
  5
2E7
331
333
  5
2E8
331
334
  5
2E9
331
335
  5
2EA
331
336
  5
2EB
331
337
  5
2EC
331
338
  5
2ED
331
339
  5
2EE
331
33A
  5
2EF
331
33B
  5
2F0
331
33C
  5
2F1
331
33D
  5
2F2
331
33E
  5
2F3
331
33F
  5
2F4
331
340
  5
2F5
331
341
  5
2F6
331
342
  5
2F7
331
343
  5
2F8
331
344
  5
2F9
331
345
  5
2FA
331
346
  5
2FB
331
347
  5
2FC
331
348
  5
2FD
331
349
  5
2FE
331
34A
  5
2FF
331
34B
  5
300
331
34C
  5
301
331
34D
  5
302
331
34E
  5
303
331
34F
  5
304
331
350
  5
305
331
351
  5
306
331
352
  5
307
331
353
  5
308
331
354
  5
309
331
355
  5
30A
331
356
  5
30B
331
357
  5
30C
331
358
  5
30D
331
359
  5
30E
331
35A
  5
30F
331
35B
  5
310
331
35C
  5
311
331
35D
  5
312
331
35E
  5
313
331
35F
  5
314
331
360
  5
315
331
361
  5
316
331
362
  5
317
331
363
  5
318
331
364
  5
319
331
365
  5
31A
331
366
  5
31B
331
367
  5
31C
331
368
  5
31D
331
369
  5
31E
331
36A
  5
31F
331
36B
  5
320
331
36C
  5
321
331
36D
  5
322
331
36E
  5
323
331
36F
  5
324
331
370
  5
325
331
371
  5
326
331
372
  5
327
331
373
  5
328
331
374
  5
329
331
375
  5
32A
331
376
  5
32B
331
377
  5
32C
331
378
  5
32D
331
379
  5
32E
331
37A
  5
32F
331
37B
  5
330
331
37C
  5
331
331
37D
  5
332
331
37E
  5
333
331
37F
  5
334
331
380
  5
335
331
381
  5
336
331
382
  5
337
331
383
  5
338
331
384
  5
339
331
385
  5
33A
331
386
  5
33B
331
387
  5
33C
331
388
  5
33D
331
389
  5
33E
331
38A
  5
33F
331
38B
  5
340
331
38C
  5
341
331
38D
  5
342
331
38E
  5
343
331
38F
  5
344
331
390
  5
345
331
391
  5
346
331
392
  5
347
331
393
  5
348
331
394
  5
349
331
395
  5
4BD
331
396
  5
34A
331
397
  5
34B
331
398
  5
34C
331
399
  5
34D
331
39A
  5
34E
331
39B
  5
34F
331
39C
  5
350
331
39D
  5
351
331
39E
  5
352
331
39F
  5
353
331
3A0
  5
354
331
3A1
  5
355
331
3A2
  5
356
331
3A3
  5
357
331
3A4
  5
358
331
3A5
  5
359
331
3A6
  5
35A
331
3A7
  5
35B
331
3A8
  5
35C
331
3A9
  5
35D
331
3AA
  5
35E
331
3AB
  5
35F
331
3AC
  5
360
331
3AD
  5
361
331
3AE
  5
362
331
3AF
  5
363
331
3B0
  5
364
331
3B1
  5
365
331
3B2
  5
366
331
3B3
  5
367
331
3B4
  5
368
331
3B5
  5
369
331
3B6
  5
36A
331
3B7
  5
36B
331
3B8
  5
36C
331
3B9
  5
36D
331
3BA
  5
36E
331
3BB
  5
36F
331
3BC
  5
370
331
3BD
  5
371
331
3BE
  5
372
331
3BF
  5
373
331
3C0
  5
374
331
3C1
  5
375
331
3C2
  5
376
331
3C3
  5
377
331
3C4
  5
378
331
3C5
  5
379
331
3C6
  5
37A
331
3C7
  5
37B
331
3C8
  5
37C
331
3C9
  5
37D
331
3CA
  5
37E
331
3CB
  5
37F
331
3CC
  5
380
331
3CD
  5
381
331
3CE
  5
382
331
3CF
  5
383
331
3D0
  5
384
331
3D1
  5
385
331
3D2
  5
386
331
3D3
  5
387
331
3D4
  5
4BE
331
3D5
  5
388
331
3D6
  5
389
331
3D7
  5
38A
331
3D8
  5
38B
331
3D9
  5
38C
331
3DA
  5
4BF
331
3DB
  5
38D
331
3DC
  5
38E
331
3DD
  5
38F
331
3DE
  5
390
331
3DF
  5
391
331
3E0
  5
392
331
3E1
  5
393
331
3E2
  5
394
331
3E3
  5
395
331
3E4
  5
396
331
3E5
  5
397
331
3E6
  5
398
331
3E7
  5
399
331
3E8
  5
39A
331
3E9
  5
39B
331
3EA
  5
39C
331
3EB
  5
39D
331
3EF
  5
39E
331
3F0
  5
39F
331
3F1
  5
3A0
331
3F2
  5
3A1
331
3F3
  5
3A2
331
3F4
  5
3A3
331
3F5
  5
3A4
331
3F6
  5
3A5
331
3F7
  5
3A6
331
3F8
  5
3A7
331
3F9
  5
3A8
331
3FA
  5
3A9
331
3FB
  5
3AA
331
3FC
  5
3AB
331
3FD
  5
3AC
331
3FE
  5
3AD
331
3FF
  5
3AE
331
400
  5
3AF
331
401
  5
4C0
331
402
  5
3B0
331
403
  5
3B1
331
404
  5
3B2
331
405
  5
3B3
331
406
  5
3B4
331
407
  5
3B5
331
408
  5
3B6
331
409
  5
3B7
331
40A
  5
3B8
331
40B
  5
3B9
331
40C
  5
3BA
331
40D
  5
3BB
331
40E
  5
3BC
331
40F
  5
3BD
331
410
  5
3BE
331
411
  5
3BF
331
412
  5
3C0
331
413
  5
3C1
331
414
  5
3C2
331
415
  5
3C3
331
416
  5
3C4
331
417
  5
3C5
331
418
  5
3C6
331
419
  5
3C7
331
41A
  5
3C8
331
41B
  5
3C9
331
41C
  5
3CA
331
41D
  5
3CB
331
41E
  5
3CC
331
41F
  5
3CD
331
420
  5
3CE
331
421
  5
3CF
331
422
  5
3D0
331
423
  5
3D1
331
424
  5
3D2
331
425
  5
3D3
331
426
  5
3D4
331
427
  5
3D5
331
428
  5
3D6
331
429
  5
3D7
331
42A
  5
3D8
331
42B
  5
3D9
331
42C
  5
3DA
331
42D
  5
3DB
331
42E
  5
3DC
331
42F
  5
3DD
331
433
  5
3DE
331
434
  5
3DF
331
435
  5
3E0
331
436
  5
3E1
331
437
  5
3E2
331
438
  5
3E3
331
439
  5
3E4
331
43A
  5
3E5
331
43B
  5
3E6
331
43C
  5
3E7
331
43D
  5
3E8
331
43E
  5
3E9
331
43F
  5
3EA
331
440
  5
3EB
331
441
  5
4C1
331
442
  5
3EF
331
443
  5
3F0
331
444
  5
3F1
331
445
  5
3F2
331
446
  5
3F3
331
447
  5
3F4
331
448
  5
3F5
331
449
  5
4C2
331
44A
  5
3F6
331
44B
  5
3F7
331
44C
  5
3F8
331
44D
  5
3F9
331
44E
  5
3FA
331
44F
  5
4C3
331
450
  5
3FB
331
451
  5
3FC
331
452
  5
3FD
331
453
  5
3FE
331
454
  5
4C4
331
455
  5
3FF
331
456
  5
400
331
457
  5
401
331
458
  5
402
331
459
  5
403
331
45A
  5
404
331
45B
  5
405
331
45C
  5
406
331
45D
  5
4C5
331
45E
  5
407
331
45F
  5
408
331
460
  5
409
331
461
  5
40A
331
462
  5
4C6
331
463
  5
40B
331
464
  5
40C
331
465
  5
40D
331
466
  5
40E
331
467
  5
40F
331
468
  5
4C7
331
469
  5
410
331
46A
  5
411
331
46B
  5
412
331
46C
  5
413
331
46D
  5
414
331
46E
  5
415
331
46F
  5
416
331
470
  5
4C8
331
471
  5
417
331
472
  5
418
331
473
  5
419
331
474
  5
41A
331
475
  5
41B
331
476
  5
41C
331
477
  5
41D
331
478
  5
41E
331
479
  5
41F
331
47A
  5
420
331
47B
  5
421
331
47C
  5
422
331
47D
  5
423
331
47E
  5
424
331
47F
  5
425
331
480
  5
426
331
484
  5
4C9
331
485
  5
427
331
486
  5
428
331
487
  5
429
331
488
  5
42A
331
489
  5
42B
331
48A
  5
42C
331
48B
  5
42D
331
48C
  5
42E
331
48D
  5
42F
331
48E
  5
433
331
48F
  5
434
331
490
  5
435
331
491
  5
436
331
492
  5
437
331
493
  5
438
331
494
  5
439
331
495
  5
43A
331
496
  5
43B
331
497
  5
43C
331
498
  5
43D
331
499
  5
43E
331
49A
  5
43F
331
49B
  5
440
331
49C
  5
441
331
49D
  5
442
331
49E
  5
443
331
49F
  5
444
331
4A0
  5
445
331
4A1
  5
446
331
4A2
  5
447
331
4A3
  5
448
331
4A4
  5
449
331
4A5
  5
44A
331
4A6
  5
44B
331
4A7
  5
44C
331
4A8
  5
44D
331
4A9
  5
44E
331
4AA
  5
44F
331
4AB
  5
450
331
4AC
  5
451
331
4AD
  5
452
331
4AE
  5
453
331
4AF
  5
454
331
4B0
  5
455
331
4B1
  5
456
331
4B2
  5
457
331
4B3
  5
4CA
331
4B4
  5
458
331
4B5
  5
459
331
4B6
  5
45A
331
4B7
  5
45B
331
4B8
  5
45C
331
4B9
  5
45D
331
4BA
  5
4CB
331
4BB
  5
45E
331
4BC
  5
45F
331
4BD
  5
460
331
4BE
  5
461
331
4BF
  5
462
331
4C0
  5
463
331
4C1
  5
464
331
4C2
  5
465
331
4C3
  5
466
331
4C4
  5
467
331
4C5
  5
4EA
331
4C6
  5
4DF
331
4C7
  5
4DD
331
4C8
  5
4DE
331
4C9
  5
468
331
4CA
  5
469
331
4CB
  5
46A
331
4CC
  5
46B
331
4CD
  5
46C
331
4CE
  5
4CC
331
4CF
  5
4CD
331
4D0
  5
4CE
331
4D1
  5
4CF
331
4D2
  5
4D0
331
4D3
  5
4D1
331
4D4
  5
4D2
331
4D5
  5
4D3
331
4D6
  5
4D4
331
4D7
  5
4D5
331
4D8
  5
4D6
331
4D9
  5
4D7
331
4DA
  5
4D8
331
4DB
  5
4D9
331
4DC
  5
4DA
331
4DD
  5
4DB
331
4DE
  5
46D
331
4DF
  5
46E
331
4EA
  5
4DC
  0
LAYOUT
  5
561
102
{ACAD_REACTORS
330
55D
330
55D
102
}
102
{ACAD_XDICTIONARY
360
562
102
}
330
55D
100
AcDbPlotSettings
  1

  2
none_device
  4
Letter_(8.50_x_11.00_Inches)
  6

 40
6.35
 41
6.35
 42
6.350006
 43
6.350006
 44
215.899994
 45
279.399994
 46
0.0
 47
0.0
 48
0.0
 49
0.0
140
0.0
141
0.0
142
1.0
143
1.0
 70
   688
 72
     0
 73
     1
 74
     5
  7

 75
    16
 76
     0
 77
     2
 78
   300
147
1.0
148
0.0
149
0.0
100
AcDbLayout
  1
Layout1
 70
     1
 71
     1
 10
-0.25
 20
-0.25
 11
10.75
 21
8.25
 12
0.0
 22
0.0
 32
0.0
 14
1.049744
 24
0.799667
 34
-0.001526
 15
9.450623
 25
7.200577
 35
0.0
146
0.0
 13
0.0
 23
0.0
 33
0.0
 16
1.0
 26
0.0
 36
0.0
 17
0.0
 27
1.0
 37
0.0
 76
     0
330
55E
1001
ACAD_PSEXT
1000
None
1000
None
1000
Not applicable
1000
The layout will not be plotted unless a new plotter configuration name is selected.
1070
     0
  0
LAYOUT
  5
55C
102
{ACAD_REACTORS
330
55D
330
55D
102
}
330
55D
100
AcDbPlotSettings
  1

  2
none_device
  4
ANSI_A_(8.50_x_11.00_Inches)
  6

 40
6.35
 41
19.049999
 42
6.350006
 43
19.049988
 44
215.899994
 45
279.399994
 46
0.0
 47
0.0
 48
0.0
 49
0.0
140
0.0
141
0.0
142
1.0
143
2.584895
 70
 11952
 72
     0
 73
     1
 74
     0
  7

 75
     0
 76
     0
 77
     2
 78
   300
147
0.386863
148
0.0
149
0.0
100
AcDbLayout
  1
Model
 70
     1
 71
     0
 10
0.0
 20
0.0
 11
12.0
 21
9.0
 12
0.0
 22
0.0
 32
0.0
 14
0.0
 24
0.0
 34
0.0
 15
0.0
 25
0.0
 35
0.0
146
0.0
 13
0.0
 23
0.0
 33
0.0
 16
1.0
 26
0.0
 36
0.0
 17
0.0
 27
1.0
 37
0.0
 76
     0
330
559
331
49
  0
MLINESTYLE
  5
556
102
{ACAD_REACTORS
330
557
102
}
330
557
100
AcDbMlineStyle
  2
STANDARD
 70
     0
  3

 62
   256
 51
90.0
 52
90.0
 71
     2
 49
0.5
 62
   256
  6
BYLAYER
 49
-0.5
 62
   256
  6
BYLAYER
  0
ACDBPLACEHOLDER
  5
54B
102
{ACAD_REACTORS
330
54C
102
}
330
54C
  0
XRECORD
  5
535
102
{ACAD_REACTORS
330
571
102
}
330
571
100
AcDbXrecord
280
     1
310
3E4F020000004D6F64656C6572000000000000000000000000000000000000000000000000000000000000000000000000000000000000000000000000000000000000000000000000000000000000000000000000000000000000000000000000000000000000000000000000000000000000000000000000000000000000
310
00000000000000000000000000000000000000000000000000000000000000000000000000000000000000000000000000000000000000000000000000000000000000000000000000000000000000000000000000000000000000000000000000000000000000000000000000000000000000000000000000000000000000
310
00
310
00000000000000000000000000000000000000000000000000000000000000000000000000000000000000000000000000000000000000000000000000000000000000000000000000000000000000000000000000000000000000000000000000000000000000000000000000000000000000000000000000000000000000
310
00000000000000000000000000000000000000000000000000000000000000000000000000000000000000000000000000000000000000000000000000000000000000000000000000000000000000000000000000000000000000000000000000000000000000000000000000000000000000000000000000000000000000
310
00
310
00000000000000000000000000000000000000000000000000000000000000000000000000000000000000000000000000000000000000000000000000000000000000000000000000000000000000000000000000000000000000000000000000000000000000000000000000000000000000000000000000000000000000
310
00000000000000000000000000000000000000000000000000000000000000000000000000000000000000000000000000000000000000000000000000000000000000000000000000000000000000000000000000000000000000000000000000000000000000000000000000000000000000000000000000000000000000
310
00
310
00000000000000000000000000000000000000000000000000000000000000000000000000000000000000000000000000000000000000000000000000000000000000000000000000000000000000000000000000000000000000000000000000000000000000000000000000000000000000000000000000000000000000
310
00000000000000000000000000000000000000000000000000000000000000000000000000000000000000000000000000000000000000000000000000000000000000000000000000000000000000000000000000000000000000000000000000000000000000000000000000000000000000000000000000000000000000
310
00
310
00000000000000000000000000000000000000000000000000000000000000000000000000000000000000000000000000000000000000000000000000000000000000000000000000000000000000000000000000000000000000000000000000000000000000000000000000000000000000000000000000000000000000
310
00000000000000000000000000000000000000000000000000000000000000000000000000000000000000000000000000000000000000000000000000000000000000000000000000000000000000000000000000000000000000000000000000000000000000000000000000000000000000000000000000000000000000
310
00
310
00000000000000000000000000000000000000000000000000000000000000000000000000000000000000000000000000000000000000000000000000000000000000000000000000000000000000000000000000000000000000000000000000000000000000000000000000000000000000000000000000000000000000
310
00000000000000000000000000000000000000000000000000000000000000000000000000000000000000000000000000000000000000000000000000000000000000000000000000000000000000000000000000000000000000000000000000000000000000000000000000000000000000000000000000000000000000
310
00
310
00000000000000000000000000000000000000000000000000000000000000000000000000000000000000000000000000000000000000000000000000000000000000000000000000000000000000000000000000000000000000000000000000000000000000000000000000000000000000000000000000000000000000
310
00000000000000000000000000000000000000000000000000000000000000000000000000000000000000000000000000000000000000000000000000000000000000000000000000000000000000000000000000000000000000000000000000000000000000000000000000000000000000000000000000000000000000
310
00
310
00000000000000000000000000000000000000000000000000000000000000000000000000000000000000000000000000000000000000000000000000000000000000000000000000000000000000000000000000000000000000000000000000000000000000000000000000000000000000000000000000000000000000
310
00000000000000000000000000000000000000000000000000000000000000000000000000000000000000000000000000000000000000000000000000000000000000000000000000000000000000000000000000000000000000000000000000000000000000000000000000000000000000000000000000000000000000
310
00
310
00000000000000000000000000000000000000000000000000000000000000000000000000000000000000000000000000000000000000000000000000000000000000000000000000000000000000000000000000000000000000000000000000000000000000000000000000000000000000000000000000000000000000
310
00000000000000000000000000000000000000000000000000000000000000000000000000000000000000000000000000000000000000000000000000000000000000000000000000000000000000000000000000000000000000000000000000000000000000000000000000000000000000000000000000000000000000
310
00
310
00000000000000000000000000000000000000000000000000000000000000000000000000000000000000000000000000000000000000000000000000000000000000000000000000000000000000000000000000000000000000000000000000000000000000000000000000000000000000000000000000000000000000
310
00000000000000000000000000000000000000000000000000000000000000000000000000000000000000000000000000000000000000000000000000000000000000000000000000000000000000000000000000000000000000000000000000000000000000000000000000000000000000000000000000000000000000
310
00
310
00000000000000000000000000000000000000000000000000000000000000000000000000000000000000000000000000000000000000000000000000000000000000000000000000000000000000000000000000000000000000000000000000000000000000000000000000000000000000000000000000000000000000
310
00000000000000000000000000000000000000000000000000000000000000000000000000000000000000000000000000000000000000000000000000000000000000000000000000000000000000000000000000000000000000000000000000000000000000000000000000000000000000000000000000000000000000
310
00
310
00000000000000000000000000000000000000000000000000000000000000000000000000000000000000000000000000000000000000000000000000000000000000000000000000000000000000000000000000000000000000000000000000000000000000000000000000000000000000000000000000000000000000
310
00000000000000000000000000000000000000000000000000000000000000000000000000000000000000000000000000000000000000000000000000000000000000000000000000000000000000000000000000000000000000000000000000000000000000000000000000000000000000000000000000000000000000
310
00
310
00000000000000000000000000000000000000000000000000000000000000000000000000000000000000000000000000000000000000000000000000000000000000000000000000000000000000000000000000000000000000000000000000000000000000000000000000000000000000000000000000000000000000
310
00000000000000000000000000000000000000000000000000000000000000000000000000000000000000000000000000000000000000000000000000000000000000000000000000000000000000000000000000000000000000000000000000000000000000000000000000000000000000000000000000000000000000
310
00
310
00000000000000000000000000000000000000000000000000000000000000000000000000000000000000000000000000000000000000000000000000000000000000000000000000000000000000000000000000000000000000000000000000000000000000000000000000000000000000
  0
XRECORD
  5
545
102
{ACAD_REACTORS
330
571
102
}
330
571
100
AcDbXrecord
280
     1
310
3E4F020000004D6F64656C6572000000000000000000000000000000000000000000000000000000000000000000000000000000000000000000000000000000000000000000000000000000000000000000000000000000000000000000000000000000000000000000000000000000000000000000000000000000000000
310
00000000000000000000000000000000000000000000000000000000000000000000000000000000000000000000000000000000000000000000000000000000000000000000000000000000000000000000000000000000000000000000000000000000000000000000000000000000000000000000000000000000000000
310
00
310
00000000000000000000000000000000000000000000000000000000000000000000000000000000000000000000000000000000000000000000000000000000000000000000000000000000000000000000000000000000000000000000000000000000000000000000000000000000000000000000000000000000000000
310
00000000000000000000000000000000000000000000000000000000000000000000000000000000000000000000000000000000000000000000000000000000000000000000000000000000000000000000000000000000000000000000000000000000000000000000000000000000000000000000000000000000000000
310
00
310
00000000000000000000000000000000000000000000000000000000000000000000000000000000000000000000000000000000000000000000000000000000000000000000000000000000000000000000000000000000000000000000000000000000000000000000000000000000000000000000000000000000000000
310
00000000000000000000000000000000000000000000000000000000000000000000000000000000000000000000000000000000000000000000000000000000000000000000000000000000000000000000000000000000000000000000000000000000000000000000000000000000000000000000000000000000000000
310
00
310
00000000000000000000000000000000000000000000000000000000000000000000000000000000000000000000000000000000000000000000000000000000000000000000000000000000000000000000000000000000000000000000000000000000000000000000000000000000000000000000000000000000000000
310
00000000000000000000000000000000000000000000000000000000000000000000000000000000000000000000000000000000000000000000000000000000000000000000000000000000000000000000000000000000000000000000000000000000000000000000000000000000000000000000000000000000000000
310
00
310
00000000000000000000000000000000000000000000000000000000000000000000000000000000000000000000000000000000000000000000000000000000000000000000000000000000000000000000000000000000000000000000000000000000000000000000000000000000000000000000000000000000000000
310
00000000000000000000000000000000000000000000000000000000000000000000000000000000000000000000000000000000000000000000000000000000000000000000000000000000000000000000000000000000000000000000000000000000000000000000000000000000000000000000000000000000000000
310
00
310
00000000000000000000000000000000000000000000000000000000000000000000000000000000000000000000000000000000000000000000000000000000000000000000000000000000000000000000000000000000000000000000000000000000000000000000000000000000000000000000000000000000000000
310
00000000000000000000000000000000000000000000000000000000000000000000000000000000000000000000000000000000000000000000000000000000000000000000000000000000000000000000000000000000000000000000000000000000000000000000000000000000000000000000000000000000000000
310
00
310
00000000000000000000000000000000000000000000000000000000000000000000000000000000000000000000000000000000000000000000000000000000000000000000000000000000000000000000000000000000000000000000000000000000000000000000000000000000000000000000000000000000000000
310
00000000000000000000000000000000000000000000000000000000000000000000000000000000000000000000000000000000000000000000000000000000000000000000000000000000000000000000000000000000000000000000000000000000000000000000000000000000000000000000000000000000000000
310
00
310
00000000000000000000000000000000000000000000000000000000000000000000000000000000000000000000000000000000000000000000000000000000000000000000000000000000000000000000000000000000000000000000000000000000000000000000000000000000000000000000000000000000000000
310
00000000000000000000000000000000000000000000000000000000000000000000000000000000000000000000000000000000000000000000000000000000000000000000000000000000000000000000000000000000000000000000000000000000000000000000000000000000000000000000000000000000000000
310
00
310
00000000000000000000000000000000000000000000000000000000000000000000000000000000000000000000000000000000000000000000000000000000000000000000000000000000000000000000000000000000000000000000000000000000000000000000000000000000000000000000000000000000000000
310
00000000000000000000000000000000000000000000000000000000000000000000000000000000000000000000000000000000000000000000000000000000000000000000000000000000000000000000000000000000000000000000000000000000000000000000000000000000000000000000000000000000000000
310
00
310
00000000000000000000000000000000000000000000000000000000000000000000000000000000000000000000000000000000000000000000000000000000000000000000000000000000000000000000000000000000000000000000000000000000000000000000000000000000000000000000000000000000000000
310
00000000000000000000000000000000000000000000000000000000000000000000000000000000000000000000000000000000000000000000000000000000000000000000000000000000000000000000000000000000000000000000000000000000000000000000000000000000000000000000000000000000000000
310
00
310
00000000000000000000000000000000000000000000000000000000000000000000000000000000000000000000000000000000000000000000000000000000000000000000000000000000000000000000000000000000000000000000000000000000000000000000000000000000000000000000000000000000000000
310
00000000000000000000000000000000000000000000000000000000000000000000000000000000000000000000000000000000000000000000000000000000000000000000000000000000000000000000000000000000000000000000000000000000000000000000000000000000000000000000000000000000000000
310
00
310
00000000000000000000000000000000000000000000000000000000000000000000000000000000000000000000000000000000000000000000000000000000000000000000000000000000000000000000000000000000000000000000000000000000000000000000000000000000000000000000000000000000000000
310
00000000000000000000000000000000000000000000000000000000000000000000000000000000000000000000000000000000000000000000000000000000000000000000000000000000000000000000000000000000000000000000000000000000000000000000000000000000000000000000000000000000000000
310
00
310
00000000000000000000000000000000000000000000000000000000000000000000000000000000000000000000000000000000000000000000000000000000000000000000000000000000000000000000000000000000000000000000000000000000000000000000000000000000000000000000000000000000000000
310
00000000000000000000000000000000000000000000000000000000000000000000000000000000000000000000000000000000000000000000000000000000000000000000000000000000000000000000000000000000000000000000000000000000000000000000000000000000000000000000000000000000000000
310
00
310
00000000000000000000000000000000000000000000000000000000000000000000000000000000000000000000000000000000000000000000000000000000000000000000000000000000000000000000000000000000000000000000000000000000000000000000000000000000000000
  0
XRECORD
  5
534
102
{ACAD_REACTORS
330
571
102
}
330
571
100
AcDbXrecord
280
     1
310
DF56060034040701D0009A9999999999B93F000000000000000000000000000000000400000009000000000000000200000064000000640000000100000001000000190000007B14AE47E17A843F00000000004060409A9999999999B93F00000000004C2D41000000000070F7400000000000942141000000000000000000
310
0000000000000000000000000000000AD482040000000000000000000000000000F03F000000000000000000000000000030402D431CEBE2362A3F00000000000008400000000000000000009807C000000000000000007C1A61B9A711364020000000050000000A000000200000002000000020000000000000000000F03F
310
00
310
0000000000F03F000000000000F03F333333333333D33F333333333333D33F333333333333D33F000000000000F43F000000000000F43F000000000000F03F0200000064000000000000000000000000000840000000000000F83F00000000000000000000000000000000008056409A9999999999B93F0000000000000000
310
00000000000000000000000000000000000000000000000000000000000000000000000000000000000000000000000000000000000000000000000000000000000000000000000000000000000000000000000000000000000000000000000000000000000000000000000000000000000000000000000000000000000000
310
00
310
0000000000000000000000000000000000000000000000000000000000000000000000000000000000000000000000000000000000000000000000000000000000000000000000000000000000000000000000000000000000000000000000000000000000000000000000000000000000000000000000009A9999999999A9
310
3F9100000000000000000000000000000035A781D547960F40000000000000F03F000000000000F03F666666666666164000000000104068F200000000000000000000000000000000000000000000000000000000000000000000000000000000000000000000000000000000000000000000000000000000000000000000
310
00
310
00000000000000000000000000000000000000000000000000000000000000000000000000000000000000000000000000000000000000000000000000000000000000000000000000000000000000000000000000000000000000000000000000000000000000000000000000000000000000000000000000000000000000
310
000000000000000000000000000000000000000000000000000000000000000000000000000000000000000000000000000000000000000000000000FF000000000000000000000000000000000000000000000000000000000000000000000000000000000000000000000000000000000000000000000000000000000000
310
00
310
0000000000000000000000000000000000000000000000000000000000000000000000000000000000000000000000000000000000000000000000000000000000000000
  0
DICTIONARY
  5
562
330
561
100
AcDbDictionary
280
     1
281
     1
  3
ADSK_XREC_LAYOUTTHUMBNAIL
360
563
  0
XRECORD
  5
563
102
{ACAD_REACTORS
330
562
102
}
330
562
100
AcDbXrecord
280
     1
310
28000000B40000008B0000000100080000000000BC61000000000000000000000001000000000000FFFFFF0000000000FFFFFF000000000000000000000000000000000000000000000000000000000000000000330000006600000099000000CC000000FF00000000330000333300006633000099330000CC330000FF3300
310
0000660000336600006666000099660000CC660000FF66000000990000339900006699000099990000CC990000FF99000000CC000033CC000066CC000099CC0000CCCC0000FFCC000000FF000033FF000066FF000099FF0000CCFF0000FFFF000000003300330033006600330099003300CC003300FF003300003333003333
310
33006633330099333300CC333300FF33330000663300336633006666330099663300CC663300FF66330000993300339933006699330099993300CC993300FF99330000CC330033CC330066CC330099CC3300CCCC3300FFCC330000FF330033FF330066FF330099FF3300CCFF3300FFFF330000006600330066006600660099
310
006600CC006600FF00660000336600333366006633660099336600CC336600FF33660000666600336666006666660099666600CC666600FF66660000996600339966006699660099996600CC996600FF99660000CC660033CC660066CC660099CC6600CCCC6600FFCC660000FF660033FF660066FF660099FF6600CCFF6600
310
FFFF660000009900330099006600990099009900CC009900FF00990000339900333399006633990099339900CC339900FF33990000669900336699006666990099669900CC669900FF66990000999900339999006699990099999900CC999900FF99990000CC990033CC990066CC990099CC9900CCCC9900FFCC990000FF99
310
0033FF990066FF990099FF9900CCFF9900FFFF99000000CC003300CC006600CC009900CC00CC00CC00FF00CC000033CC003333CC006633CC009933CC00CC33CC00FF33CC000066CC003366CC006666CC009966CC00CC66CC00FF66CC000099CC003399CC006699CC009999CC00CC99CC00FF99CC0000CCCC0033CCCC0066CC
310
CC0099CCCC00CCCCCC00FFCCCC0000FFCC0033FFCC0066FFCC0099FFCC00CCFFCC00FFFFCC000000FF003300FF006600FF009900FF00CC00FF00FF00FF000033FF003333FF006633FF009933FF00CC33FF00FF33FF000066FF003366FF006666FF009966FF00CC66FF00FF66FF000099FF003399FF006699FF009999FF00CC
310
99FF00FF99FF0000CCFF0033CCFF0066CCFF0099CCFF00CCCCFF00FFCCFF0000FFFF0033FFFF0066FFFF0099FFFF00CCFFFF00FFFFFF00000000000D0D0D001A1A1A00282828003535350043434300505050005D5D5D006B6B6B00787878008686860093939300A1A1A100AEAEAE00BBBBBB00C9C9C900D6D6D600E4E4E400
310
F1F1F100FFFFFF0000000000000000000000000000000000000000000000000000000000000000000000000000000000E2E2E2E2E2E2E2E2E2E2E2E2E2E2E2E2E2E2E2E2E2E2E2E2E2E2E2E2E2E2E2E2E2E2E2E2E2E2E2E2E2E2E2E2E2E2E2E2E2E2E2E2E2E2E2E2E2E2E2E2E2E2E2E2E2E2E2E2E2E2E2E2E2E2E2E2E2E2E2
310
E2E2E2E2E2E2E2E2E2E2E2E2E2E2E2E2E2E2E2E2E2E2E2E2E2E2E2E2E2E2E2E2E2E2E2E2E2E2E2E2E2E2E2E2E2E2E2E2E2E2E2E2E2E2E2E2E2E2E2E2E2E2E2E2E2E2E2E2E2E2E2E2E2E2E2E2E2E2E2E2E2E2E2E2E2E2E2E2E2E2E2E2E2E2E2E2E2E2E2E2EFF5F5F5F5F5F5F5F5F5F5F5F5F5F5F5F5F5F5F5F5F5F5F5F5F5F5
310
F5F5F5F5F5F5F5F5F5F5F5F5F5F5F5F5F5F5F5F5F5F5F5F5F5F5F5F5F5F5F5F5F5F5F5F5F5F5F5F5F5F5F5F5F5F5F5F5F5F5F5F5F5F5F5F5F5F5F5F5F5F5F5F5F5F5F5F5F5F5F5F5F5F5F5F5F5F5F5F5F5F5F5F5F5F5F5F5F5F5F5F5F5F5F5F5F5F5F5F5F5F5F5F5F5F5F5F5F5F5F5F5F5F5F5F5F5F5F5F5F5F5F5F5F5F5F5
310
F5F5F5F5F5F5F5F5F5F5F5F5F5F5F5F5F5F5F5F5F5F5F5F5E2E2EFF5F5F5F5F5F5F5F5F5F5F5F5F5F5F5F5F5F5F5F5F5F5F5F5F5F5F5F5F5F5F5F5F5F5F5F5F5F5F5F5F5F5F5F5F5F5F5F5F5F5F5F5F5F5F5F5F5F5F5F5F5F5F5F5F5F5F5F5F5F5F5F5F5F5F5F5F5F5F5F5F5F5F5F5F5F5F5F5F5F5F5F5F5F5F5F5F5F5F5F5
310
F5F5F5F5F5F5F5F5F5F5F5F5F5F5F5F5F5F5F5F5F5F5F5F5F5F5F5F5F5F5F5F5F5F5F5F5F5F5F5F5F5F5F5F5F5F5F5F5F5F5F5F5F5F5F5F5F5F5F5F5F5F5F5F5F5F5F5F5F5F5F5F5F5F5F5F5F5E2E2EFF5F5F5F5F5F5F5F5F5F5F5F5F5F5F5F5F5F5F5F5F5F5F5F5F5F5F5F5F5F5F5F5F5F5F5F5F5F5F5F5F5F5F5F5F5F5F5
310
F5F5F5F5F5F5F5F5F5F5F5F5F5F5F5F5F5F5F5F5F5F5F5F5F5F5F5F5F5F5F5F5F5F5F5F5F5F5F5F5F5F5F5F5F5F5F5F5F5F5F5F5F5F5F5F5F5F5F5F5F5F5F5F5F5F5F5F5F5F5F5F5F5F5F5F5F5F5F5F5F5F5F5F5F5F5F5F5F5F5F5F5F5F5F5F5F5F5F5F5F5F5F5F5F5F5F5F5F5F5F5F5F5F5F5F5F5F5F5F5F5F5F5F5F5F5F5
310
F5F5F5E2E2EFF5F5F5E2E2E2E2E2E2E2E2F5F5F5F5F5F5F5F5F5E2E2E2E2E2E2E2E2E2E2E2E2E2E2E2E2F5F5F5F5F5F5F5F5E2E2E2E2E2E2E2E2E2E2E2E2E2E2E2E2F5F5F5F5F5F5F5F5F5E2E2E2E2E2E2E2E2E2E2E2E2E2E2E2F5F5F5F5F5F5F5F5F5E2E2E2E2E2E2E2E2E2E2E2E2E2E2E2F5F5F5F5F5F5F5F5F5E2E2E2E2
310
E2E2E2E2E2E2E2E2E2E2E2E2F5F5F5F5F5F5F5F5E2E2E2E2E2E2E2E2E2E2E2E2E2E2E2E2F5F5F5F5F5F5F5F5F5E2E2E2E2E2E2E2E2F5F5F5E2E2EFF5F5F5E2F5F5F5F5F5F5F5F5F5F5F5F5F5F5F5F5F5F5F5F5F5F5F5F5F5F5F5F5F5F5F5F5F5F5F5F5F5F5F5F5F5F5F5F5F5F5F5F5F5F5F5F5F5F5F5F5F5F5F5F5F5F5F5F5
310
F5F5F5F5F5F5F5F5F5F5F5F5F5F5F5F5F5F5F5F5F5F5F5F5F5F5F5F5F5F5F5F5F5F5F5F5F5F5F5F5F5F5F5F5F5F5F5F5F5F5F5F5F5F5F5F5F5F5F5F5F5F5F5F5F5F5F5F5F5F5F5F5F5F5F5F5F5F5F5F5F5F5F5F5F5F5F5F5F5F5F5F5F5F5F5F5F5F5F5F5F5F5F5F5F5E2F5F5F5E2E2EFF5F5F5E2F5F5F5F5F5F5F5F5F5F5F5
310
F5F5F5F5F5F5F5F5F5F5F5F5F5F5F5F5F5F5F5F5F5F5F5F5F5F5F5F5F5F5F5F5F5F5F5F5F5F5F5F5F5F5F5F5F5F5F5F5F5F5F5F5F5F5F5F5F5F5F5F5F5F5F5F5F5F5F5F5F5F5F5F5F5F5F5F5F5F5F5F5F5F5F5F5F5F5F5F5F5F5F5F5F5F5F5F5F5F5F5F5F5F5F5F5F5F5F5F5F5F5F5F5F5F5F5F5F5F5F5F5F5F5F5F5F5F5F5
310
F5F5F5F5F5F5F5F5F5F5F5F5F5F5F5F5F5F5F5F5F5F5F5F5F5F5F5F5F5F5F5E2F5F5F5E2E2EFF5F5F5E2F5F5F5F5F5F5F5F5F5F5F5F5F5F5F5F5F5F5F5F5F5F5F5F5F5F5F5F5F5F5F5F5F5F5F5F5F5F5F5F5F5F5F5F5F5F5F5F5F5F5F5F5F5F5F5F5F5F5F5F5F5F5F5F5F5F5F5F5F5F5F5F5F5F5F5F5F5F5F5F5F5F5F5F5F5
310
F5F5F5F5F5F5F5F5F5F5F5F5F5F5F5F5F5F5F5F5F5F5F5F5F5F5F5F5F5F5F5F5F5F5F5F5F5F5F5F5F5F5F5F5F5F5F5F5F5F5F5F5F5F5F5F5F5F5F5F5F5F5F5F5F5F5F5F5F5F5F5F5F5F5F5F5F5F5F5F5F5F5F5F5E2F5F5F5E2E2EFF5F5F5E2F5F5F5F5F5F5F5F5F5F5F5F5F5F5F5F5F5F5F5F5F5F5F5F5F5F5F5F5F5F5F5F5
310
F5F5F5F5F5F5F5F5F5F5F5F5F5F5F5F5F5F5F5F5F5F5F5F5F5F5F5F5F5F5F5F5F5F5F5F5F5F5F5F5F5F5F5F5F5F5F5F5F5F5F5F5F5F5F5F5F5F5F5F5F5F5F5F5F5F5F5F5F5F5F5F5F5F5F5F5F5F5F5F5F5F5F5F5F5F5F5F5F5F5F5F5F5F5F5F5F5F5F5F5F5F5F5F5F5F5F5F5F5F5F5F5F5F5F5F5F5F5F5F5F5F5F5F5F5F5F5
310
F5F5F5F5F5F5F5F5F5F5E2F5F5F5E2E2EFF5F5F5E2F5F5F5F5F5F5F5F5F5F5F5F5F5F5F5F5F5F5F5F5F5F5F5F5F5F5F5F5F5F5F5F5F5F5F5F5F5F5F5F5F5F5F5F5F5F5F5F5F5F5F5F5F5F5F5F5F5F5F5F5F5F5F5F5F5F5F5F5F5F5F5F5F5F5F5F5F5F5F5F5F5F5F5F5F5F5F5F5F5F5F5F5F5F5F5F5F5F5F5F5F5F5F5F5F5F5
310
F5F5F5F5F5F5F5F5F5F5F5F5F5F5F5F5F5F5F5F5F5F5F5F5F5F5F5F5F5F5F5F5F5F5F5F5F5F5F5F5F5F5F5F5F5F5F5F5F5F5F5F5F5F5F5F5F5F5F5F5F5F5F5E2F5F5F5E2E2EFF5F5F5E2F5F5F5F5F5F5F5F5F5F5F5F5F5F5F5F5F5F5F5F5F5F5F5F5F5F5F5F5F5F5F5F5F5F5F5F5F5F5F5F5F5F5F5F5F5F5F5F5F5F5F5F5F5
310
F5F5F5F5F5F5F5F5F5F5F5F5F5F5F5F5F5F5F5F5F5F5F5F5F5F5F5F5F5F5F5F5F5F5F5F5F5F5F5F5F5F5F5F5F5F5F5F5F5F5F5F5F5F5F5F5F5F5F5F5F5F5F5F5F5F5F5F5F5F5F5F5F5F5F5F5F5F5F5F5F5F5F5F5F5F5F5F5F5F5F5F5F5F5F5F5F5F5F5F5F5F5F5F5F5F5F5F5F5F5F5F5F5F5F5F5E2F5F5F5E2E2EFF5F5F5E2
310
F5F5F5F5F5F5F5F5F5F5F5F5F5F5F5F5F5F5F5F5F5F5F5F5F5F5F5F5F5F5F5F5F5F5F5F5F5F5F5F5F5F5F5F5F5F5F5F5F5F5F5F5F5F5F5F5F5F5F5F5F5F5F5F5F5F5F5F5F5F5F5F5F5F5F5F5F5F5F5F5F5F5F5F5F5F5F5F5F5F5F5F5F5F5F5F5F5F5F5F5F5F5F5F5F5F5F5F5F5F5F5F5F5F5F5F5F5F5F5F5F5F5F5F5F5F5F5
310
F5F5F5F5F5F5F5F5F5F5F5F5F5F5F5F5F5F5F5F5F5F5F5F5F5F5F5F5F5F5F5F5F5F5F5F5F5F5F5F5F5F5E2F5F5F5E2E2EFF5F5F5E2F5F5F5F5F5F5F5F5F5F5F5F5F5F5F5F5F5F5F5F5F5F5F5F5F5F5F5F5F5F5F5F5F5F5F5F5F5F5F5F5F5F5F5F5F5F5F5F5F5F5F5F5F5F5F5F5F5F5F5F5F5F5F5F5F5F5F5F5F5F5F5F5F5F5
310
F5F5F5F5F5F5F5F5F5F5F5F5F5F5F5F5F5F5F5F5F5F5F5F5F5F5F5F5F5F5F5F5F5F5F5F5F5F5F5F5F5F5F5F5F5F5F5F5F5F5F5F5F5F5F5F5F5F5F5F5F5F5F5F5F5F5F5F5F5F5F5F5F5F5F5F5F5F5F5F5F5F5F5F5F5F5F5F5F5F5F5F5F5F5F5E2F5F5F5E2E2EFF5F5F5F5F5F5F5F5F5F5F5F5F5F5F5F5F5F5F5F5F5F5F5F5F5
310
F5F5F5F5F5F5F5F5F5F5F5F5F5F5F5F5F5F5F5F5F5F5F5F5F5F5F5F5F5F5F5F5F5F5F5F5F5F5F5F5F5F5F5F5F5F5F5F5F5F5F5F5F5F5F5F5F5F5F5F5F5F5F5F5F5F5F5F5F5F5F5F5F5F5F5F5F5F5F5F5F5F5F5F5F5F5F5F5F5F5F5F5F5F5F5F5F5F5F5F5F5F5F5F5F5F5F5F5F5F5F5F5F5F5F5F5F5F5F5F5F5F5F5F5F5F5F5
310
F5F5F5F5F5F5F5F5F5F5F5F5F5F5F5F5F5F5F5F5F5F5F5F5F5E2E2EFF5F5F5F5F5F5F5F5F5F5F5F5F5F5F5F5F5F5F5F5F5F5F5F5F5F5F5F5F5F5F5F5F5F5F5F5F5F5F5F5F5F5F5F5F5F5F5F5F5F5F5F5F5F5F5F5F5F5F5F5F5F5F5F5F5F5F5F5F5F5F5F5F5F5F5F5F5F5F5F5F5F5F5F5F5F5F5F5F5F5F5F5F5F5F5F5F5F5F5
310
F5F5F5F5F5F5F5F5F5F5F5F5F5F5F5F5F5F5F5F5F5F5F5F5F5F5F5F5F5F5F5F5F5F5F5F5F5F5F5F5F5F5F5F5F5F5F5F5F5F5F5F5F5F5F5F5F5F5F5F5F5F5F5F5F5F5F5F5F5F5F5F5F5F5F5F5F5F5E2E2EFF5F5F5F5F5F5F5F5F5F5F5F5F5F5F5F5F5F5F5F5F5F5F5F5F5F5F5F5F5F5F5F5F5F5F5F5F5F5F5F5F5F5F5F5F5F5
310
F5F5F5F5F5F5F5F5F5F5F5F5F5F5F5F5F5F5F5F5F5F5F5F5F5F5F5F5F5F5F5F5F5F5F5F5F5F5F5F5F5F5F5F5F5F5F5F5F5F5F5F5F5F5F5F5F5F5F5F5F5F5F5F5F5F5F5F5F5F5F5F5F5F5F5F5F5F5F5F5F5F5F5F5F5F5F5F5F5F5F5F5F5F5F5F5F5F5F5F5F5F5F5F5F5F5F5F5F5F5F5F5F5F5F5F5F5F5F5F5F5F5F5F5F5F5F5
310
F5F5F5F5E2E2EFF5F5F5F5F5F5F5F5F5F5F5F5F5F5F5F5F5F5F5F5F5F5F5F5F5F5F5F5F5F5F5F5F5F5F5F5F5F5F5F5F5F5F5F5F5F5F5F5F5F5F5F5F5F5F5F5F5F5F5F5F5F5F5F5F5F5F5F5F5F5F5F5F5F5F5F5F5F5F5F5F5F5F5F5F5F5F5F5F5F5F5F5F5F5F5F5F5F5F5F5F5F5F5F5F5F5F5F5F5F5F5F5F5F5F5F5F5F5F5F5
310
F5F5F5F5F5F5F5F5F5F5F5F5F5F5F5F5F5F5F5F5F5F5F5F5F5F5F5F5F5F5F5F5F5F5F5F5F5F5F5F5F5F5F5F5F5F5F5F5F5F5F5F5F5F5F5F5F5E2E2EFF5F5F5F5F5F5F5F5F5F5F5F5F5F5F5F5F5F5F5F5E2E2E2E2E2E2E2E2E2E2E2E2E2E2E2E2E2E2E2E2E2E2E2E2E2E2E2E2E2E2E2E2E2E2E2E2E2E2E2E2E2E2E2E2E2E2E2
310
E2E2E2E2E2E2E2E2E2E2E2E2E2E2E2E2E2E2E2E2E2E2E2E2E2E2E2E2E2E2E2E2E2E2E2E2E2E2E2E2E2E2E2E2E2E2E2E2E2E2E2E2E2E2E2E2E2E2E2E2E2E2E2E2E2E2E2E2E2E2E2E2E2E2E2E2E2E2E2E2E2E2E2E2E2E2E2E2E2E2F5F5F5F5F5F5F5F5F5F5F5F5F5F5F5F5F5F5F5F5E2E2EFF5F5F5F5F5F5F5F5F5F5F5F5F5F5
310
F5F5F5F5F5F5E2F5F5F5F5F5F5F5F5F5F5F5F5F5F5F5F5F5F5F5F5F5F5F5F5F5F5F5F5F5F5F5F5F5F5F5F5F5F5F5F5F5F5F5F5F5F5F5F5F5F5F5F5F5F5F5F5F5F5F5F5F5F5F5F5F5F5F5F5F5F5F5F5F5F5F5F5F5F5F5F5F5F5F5F5F5F5F5F5F5F5F5F5F5F5F5F5F5F5F5F5F5F5F5F5F5F5F5F5F5F5F5F5F5F5F5F5F5F5F5F5
310
F5F5F5F5F5F5F5F5F5F5F5F5F5F5F5E2F5F5F5F5F5F5F5F5F5F5F5F5F5F5F5F5F5F5F5F5E2E2EFF5F5F5F5F5F5F5F5F5F5F5F5F5F5F5F5F5F5F5F5E2F5F5F5F5F5F5F5F5F5F5F5F5F5F5F5F5F5F5F5F5F5F5F5F5F5F5F5F5F5F5F5F5F5F5F5F5F5F5F5F5F5F5F5F5F5F5F5F5F5F5F5F5F5F5F5F5F5F5F5F5F5F5F5F5F5F5F5
310
F5F5F5F5F5F5F5F5F5F5F5F5F5F5F5F5F5F5F5F5F5F5F5F5F5F5F5F5F5F5F5F5F5F5F5F5F5F5F5F5F5F5F5F5F5F5F5F5F5F5F5F5F5F5F5F5F5F5F5F5F5F5F5F5F5F5F5F5E2F5F5F5F5F5F5F5F5F5F5F5F5F5F5F5F5F5F5F5F5E2E2EFF5F5F5F5F5F5F5F5F5F5F5F5F5F5F5F5F5F5F5F5E2F5F5F5F5F5F5F5F5F5F5F5F5F5F5
310
F5F5F5F5F5F5F5F5F5F5F5F5F5F5F5F5F5F5F5F5F5F5F5F5F5F5F5F5F5F5F5F5F5F5F5F5F5F5F5F5F5F5F5F5F5F5F5F5F5F5F5F5F5F5F5F5F5F5F5F5F5F5F5F5F5F5F5F5F5F5F5F5F5F5F5F5F5F5F5F5F5F5F5F5F5F5F5F5F5F5F5F5F5F5F5F5F5F5F5F5F5F5F5F5F5F5F5F5F5F5F5F5F5F5F5F5F5F5F5F5F5E2F5F5F5F5F5
310
F5F5F5F5F5F5F5F5F5F5F5F5F5F5F5E2E2EFF5F5F5F5F5F5F5F5F5F5F5F5F5F5F5F5F5F5F5F5E2F5F5F5F5F5F5F5F5F5F5F5F5F5F5F5F5F5F5F5F5F5F5F5F5F5F5F5F5F5F5F5F5F5F5F5F5F5F5F5F5F5F5F5F5F5F5F5F5F5F5F5F5F5F5F5F5F5F5F5F5F5F5F5F5F5F5F5F5F5F5F5F5F5F5F5F5F5F5F5F5F5F5F5F5F5F5F5F5
310
F5F5F5F5F5F5F5F5F5F5F5F5F5F5F5F5F5F5F5F5F5F5F5F5F5F5F5F5F5F5F5F5F5F5F5F5F5F5F5F5F5F5F5F5F5F5F5E2F5F5F5F5F5F5F5F5F5F5F5F5F5F5F5F5F5F5F5F5E2E2EFF5F5F5E2F5F5F5F5F5F5F5F5F5F5F5F5F5F5F5F5E2F5F5F5F5F5F5F5F5F5F5F5F5F5F5F5F5F5F5F5F5F5F5F5F5F5F5F5F5F5F5F5F5F5F5F5
310
F5F5F5F5F5F5F5F5F5F5F5F5F5F5F5F5F5F5F5F5F5F5F5F5F5F5F5F5F5F5F5F5F5F5F5F5F5F5F5F5F5F5F5F5F5F5F5F5F5F5F5F5F5F5F5F5F5F5F5F5F5F5F5F5F5F5F5F5F5F5F5F5F5F5F5F5F5F5F5F5F5F5F5F5F5F5F5F5F5F5F5F5F5F5F5F5F5F5F5F5E2F5F5F5F5F5F5F5F5F5F5F5F5F5F5F5F5E2F5F5F5E2E2EFF5F5F5
310
E2F5F5F5F5F5F5F5F5F5F5F5F5F5F5F5F5E2F5F5F5F5F5F5F5F5F5F5F5F5F5F5F5F5F5F5F5F5F5F5F5F5F5F5F5F5F5F5F5F5F5F5F5F5F5F5F5F5F5F5F5F5F5F5F5F5F5F5F5F5F5F5F5F5F5F5F5F5F5F5F5F5F5F5F5F5F5F5F5F5F5F5F5F5F5F5F5F5F5F5F5F5F5F5F5F5F5F5F5F5F5F5F5F5F5F5F5F5F5F5F5F5F5F5F5F5F5
310
F5F5F5F5F5F5F5F5F5F5F5F5F5F5F5F5F5F5F5F5F5F5F5F5F5F5E2F5F5F5F5F5F5F5F5F5F5F5F5F5F5F5F5E2F5F5F5E2E2EFF5F5F5E2F5F5F5F5F5F5F5F5F5F5F5F5F5F5F5F5E2F5F5F5F5F5F5F5F5F5F5F5F5F5F5F5F5F5F5F5F5F5F5F5F5F5F5F5F5F5F5F5F5F5F5F5F5F5F5F5F5F5F5F5F5F5F5F5F5F5F5F5F5F5F5F5F5
310
F5F5F5F5F5F5F5F5F5F5F5F5F5F5F5F5F5F5F5F5F5F5F5F5F5F5F5F5F5F5F5F5F5F5F5F5F5F5F5F5F5F5F5F5F5F5F5F5F5F5F5F5F5F5F5F5F5F5F5F5F5F5F5F5F5F5F5F5F5F5F5F5F5F5F5F5F5F5F5E2F5F5F5F5F5F5F5F5F5F5F5F5F5F5F5F5E2F5F5F5E2E2EFF5F5F5E2F5F5F5F5F5F5F5F5F5F5F5F5F5F5F5F5E2F5F5F5
310
F5F5F5F5F5F5F5F5F5F5F5F5F5F5F5F5F5F5F5F5F5F5F5F5F5F5F5F5F5F5F5F5F5F5F5F5F5F5F5F5F5F5F5F5F5F5F5F5F5F5F5F5F5F5F5F5F5F5F5F5F5F5F5F5F5F5F5F5F5F5F5F5F5F5F5F5F5F5F5F5F5F5F5F5F5F5F5F5F5F5F5F5F5F5F5F5F5F5F5F5F5F5F5F5F5F5F5F5F5F5F5F5F5F5F5F5F5F5F5F5F5F5F5F5F5F5F5
310
F5F5F5F5F5E2F5F5F5F5F5F5F5F5F5F5F5F5F5F5F5F5E2F5F5F5E2E2EFF5F5F5E2F5F5F5F5F5F5F5F5F5F5F5F5F5F5F5F5E2F5F5F5F5F5F5F5F5F5F5F5F5F5F5F5F5F5F5F5F5F5F5F5F5F5F5F5F5F5F5F5F5F5F5F5F5F5F5F5F5F5F5F5F5F5F5F5F5F5F5F5F5F5F5F5F5F5F5F5F5F5F5F5F5F5F5F5F5F5F5F5F5F5F5F5F5F5
310
F5F5F5F5F5F5F5F5F5F5F5F5F5F5F5F5F5F5F5F5F5F5F5F5F5F5F5F5F5F5F5F5F5F5F5F5F5F5F5F5F5F5F5F5F5F5F5F5F5F5F5F5F5F5F5F5F5F5E2F5F5F5F5F5F5F5F5F5F5F5F5F5F5F5F5E2F5F5F5E2E2EFF5F5F5E2F5F5F5F5F5F5F5F5F5F5F5F5F5F5F5F5E2F5F5F5F5F5F5F5F5F5F5F5F5F5F5F5F5F5F5F5F5F5F5F5F5
310
F5F5F5F5F5F5F5F5F5F5F5F5F5F5F5F5F5F5F5F5F5F5F5F5F5F5F5F5F5F5F5F5F5F5F5F5F5F5F5F5F5F5F5F5F5F5F5F5F5F5F5F5F5F5F5F5F5F5F5F5F5F5F5F5F5F5F5F5F5F5F5F5F5F5F5F5F5F5F5F5F5F5F5F5F5F5F5F5F5F5F5F5F5F5F5F5F5F5F5F5F5F5F5F5F5F5F5F5F5F5F5E2F5F5F5F5F5F5F5F5F5F5F5F5F5F5F5
310
F5E2F5F5F5E2E2EFF5F5F5E2F5F5F5F5F5F5F5F5F5F5F5F5F5F5F5F5E2F5F5F5F5F5F5F5F5F5F5F5F5F5F5F5F5F5F5F5F5F5F5F5F5F5F5F5F5F5F5F5F5F5F5F5F5F5F5F5F5F5F5F5F5F5F5F5F5F5F5F5F5F5F5F5F5F5F5F5F5F5F5F5F5F5F5F5F5F5F5F5F5F5F5F5F5F5F5F5F5F5F5F5F5F5F5F5F5F5F5F5F5F5F5F5F5F5F5
310
F5F5F5F5F5F5F5F5F5F5F5F5F5F5F5F5F5F5F5F5F5F5F5F5F5F5F5F5F5F5F5F5F5F5F5F5F5E2F5F5F5F5F5F5F5F5F5F5F5F5F5F5F5F5E2F5F5F5E2E2EFF5F5F5E2F5F5F5F5F5F5F5F5F5F5F5F5F5F5F5F5E2F5F5F5F5F5F5F5F5F5F5F5F5F5F5F5F5F5F5F5F5F5F5F5F5F5F5F5F5F5F5F5F5F5F5F5F5F5F5F5F5F5F5F5F5F5
310
F5F5F5F5F5F5F5F5F5F5F5F5F5F5F5F5F5F5F5F5F5F5F5F5F5F5F5F5F5F5F5F5F5F5F5F5F5F5F5F5F5F5F5F5F5F5F5F5F5F5F5F5F5F5F5F5F5F5F5F5F5F5F5F5F5F5F5F5F5F5F5F5F5F5F5F5F5F5F5F5F5F5F5F5F5F5F5F5F5F5E2F5F5F5F5F5F5F5F5F5F5F5F5F5F5F5F5E2F5F5F5E2E2EFF5F5F5E2F5F5F5F5F5F5F5F5F5
310
F5F5F5F5F5F5F5E2F5F5F5F5F5F5F5F5F5F5F5F5F5F5F5F5F5F5F5F5F5F5F5F5F5F5F5F5F5F5F5F5F5F5F5F5F5F5F5F5F5F5F5F5F5F5F5F5F5F5F5F5F5F5F5F5F5F5F5F5F5F5F5F5F5F5F5F5F5F5F5F5F5F5F5F5F5F5F5F5F5F5F5F5F5F5F5F5F5F5F5F5F5F5F5F5F5F5F5F5F5F5F5F5F5F5F5F5F5F5F5F5F5F5F5F5F5F5F5
310
F5F5F5F5F5F5F5F5F5F5F5F5F5F5F5F5E2F5F5F5F5F5F5F5F5F5F5F5F5F5F5F5F5E2F5F5F5E2E2EFF5F5F5E2F5F5F5F5F5F5F5F5F5F5F5F5F5F5F5F5E2F5F5F5F5F5F5F5F5F5F5F5F5F5F5F5F5F5F5F5F5F5F5F5F5F5F5F5F5F5F5F5F5F5F5F5F5F5F5F5F5F5F5F5F5F5F5F5F5F5F5F5F5F5F5F5F5F5F5F5F5F5F5F5F5F5F5
310
F5F5F5F5F5F5F5F5F5F5F5F5F5F5F5F5F5F5F5F5F5F5F5F5F5F5F5F5F5F5F5F5F5F5F5F5F5F5F5F5F5F5F5F5F5F5F5F5F5F5F5F5F5F5F5F5F5F5F5F5F5F5F5F5F5F5F5F5F5E2F5F5F5F5F5F5F5F5F5F5F5F5F5F5F5F5E2F5F5F5E2E2EFF5F5F5E2F5F5F5F5F5F5F5F5F5F5F5F5F5F5F5F5E2F5F5F5F5F5F5F5F5F5F5F5F5F5
310
F5F5F5F5F5F5F5F5F5F5F5F5F5F5F5F5F5F5F5F5F5F5F5F5F5F5F5F5F5F5F5F5F5F5F5F5F5F5F5F5F5F5F5F5F5F5F5F5F5F5F5F5F5F5F5F5F5F5F5F5F5F5F5F5F5F5F5F5F5F5F5F5F5F5F5F5F5F5F5F5F5F5F5F5F5F5F5F5F5F5F5F5F5F5F5F5F5F5F5F5F5F5F5F5F5F5F5F5F5F5F5F5F5F5F5F5F5F5F5F5F5F5E2F5F5F5F5
310
F5F5F5F5F5F5F5F5F5F5F5F5E2F5F5F5E2E2EFF5F5F5E2F5F5F5F5F5F5F5F5F5F5F5F5F5F5F5F5E2F5F5F5F5F5F5F5F5F5F5F5F5F5F5F5F5F5F5F5F5F5F5F5F5F5F5F5F5F5F5F5F5F5F5F5F5F5F5F5F5F5F5F5F5F5F5F5F5F5F5F5F5F5F5F5F5F5F5F5F5F5F5F5F5F5F5F5F5F5F5F5F5F5F5F5F5F5F5F5F5F5F5F5F5F5F5F5
310
F5F5F5F5F5F5F5F5F5F5F5F5F5F5F5F5F5F5F5F5F5F5F5F5F5F5F5F5F5F5F5F5F5F5F5F5F5F5F5F5F5F5F5F5F5F5F5F5E2F5F5F5F5F5F5F5F5F5F5F5F5F5F5F5F5E2F5F5F5E2E2EFF5F5F5E2F5F5F5F5F5F5F5F5F5F5F5F5F5F5F5F5E2F5F5F5F5F5F5F5F5F5F5F5F5F5F5F5F5F5F5F5F5F5F5F5F5F5F5F5F5F5F5F5F5F5F5
310
F5F5F5F5F5F5F5F5F5F5F5F5F5F5F5F5F5F5F5F5F5F5F5F5F5F5F5F5F5F5F5F5F5F5F5F5F5F5F5F5F5F5F5F5F5F5F5F5F5F5F5F5F5F5F5F5F5F5F5F5F5F5F5F5F5F5F5F5F5F5F5F5F5F5F5F5F5F5F5F5F5F5F5F5F5F5F5F5F5F5F5F5F5F5F5F5F5F5F5F5F5E2F5F5F5F5F5F5F5F5F5F5F5F5F5F5F5F5E2F5F5F5E2E2EFF5F5
310
F5E2F5F5F5F5F5F5F5F5F5F5F5F5F5F5F5F5E2F5F5F5F5F5F5F5F5F5F5F5F5F5F5F5F5F5F5F5F5F5F5F5F5F5F5F5F5F5F5F5F5F5F5F5F5F5F5F5F5F5F5F5F5F5F5F5F5F5F5F5F5F5F5F5F5F5F5F5F5F5F5F5F5F5F5F5F5F5F5F5F5F5F5F5F5F5F5F5F5F5F5F5F5F5F5F5F5F5F5F5F5F5F5F5F5F5F5F5F5F5F5F5F5F5F5F5F5
310
F5F5F5F5F5F5F5F5F5F5F5F5F5F5F5F5F5F5F5F5F5F5F5F5F5F5F5E2F5F5F5F5F5F5F5F5F5F5F5F5F5F5F5F5E2F5F5F5E2E2EFF5F5F5E2F5F5F5F5F5F5F5F5F5F5F5F5F5F5F5F5E2F5F5F5F5F5F5F5F5F5F5F5F5F5F5F5F5F5F5F5F5F5F5F5F5F5F5F5F5F5F5F5F5F5F5F5F5F5F5F5F5F5F5F5F5F5F5F5F5F5F5F5F5F5F5F5
310
F5F5F5F5F5F5F5F5F5F5F5F5F5F5F5F5F5F5F5F5F5F5F5F5F5F5F5F5F5F5F5F5F5F5F5F5F5F5F5F5F5F5F5F5F5F5F5F5F5F5F5F5F5F5F5F5F5F5F5F5F5F5F5F5F5F5F5F5F5F5F5F5F5F5F5F5F5F5F5F5E2F5F5F5F5F5F5F5F5F5F5F5F5F5F5F5F5E2F5F5F5E2E2EFF5F5F5E2F5F5F5F5F5F5F5F5F5F5F5F5F5F5F5F5E2F5F5
310
F5F5F5F5F5F5F5F5F5F5F5F5F5F5F5F5F5F5F5F5F5F5F5F5F5F5F5F5F5F5F5F5F5F5F5F5F5F5F5F5F5F5F5F5F5F5F5F5F5F5F5F5F5F5F5F5F5F5F5F5F5F5F5F5F5F5F5F5F5F5F5F5F5F5F5F5F5F5F5F5F5F5F5F5F5F5F5F5F5F5F5F5F5F5F5F5F5F5F5F5F5F5F5F5F5F5F5F5F5F5F5F5F5F5F5F5F5F5F5F5F5F5F5F5F5F5F5
310
F5F5F5F5F5F5E2F5F5F5F5F5F5F5F5F5F5F5F5F5F5F5F5E2F5F5F5E2E2EFF5F5F5E2F5F5F5F5F5F5F5F5F5F5F5F5F5F5F5F5E2F5F5F5F5F5F5F5F5F5F5F5F5F5F5F5F5F5F5F5F5F5F5F5F5F5F5F5F5F5F5F5F5F5F5F5F5F5F5F5F5F5F5F5F5F5F5F5F5F5F5F5F5F5F5F5F5F5F5F5F5F5F5F5F5F5F5F5F5F5F5F5F5F5F5F5F5
310
F5F5F5F5F5F5F5F5F5F5F5F5F5F5F5F5F5F5F5F5F5F5F5F5F5F5F5F5F5F5F5F5F5F5F5F5F5F5F5F5F5F5F5F5F5F5F5F5F5F5F5F5F5F5F5F5F5F5F5E2F5F5F5F5F5F5F5F5F5F5F5F5F5F5F5F5E2F5F5F5E2E2EFF5F5F5F5F5F5F5F5F5F5F5F5F5F5F5F5F5F5F5F5E2F5F5F5F5F5F5F5F5F5F5F5F5F5F5F5F5F5F5F5F5F5F5F5
310
F5F5F5F5F5F5F5F5F5F5F5F5F5F5F5F5F5F5F5F5F5F5F5F5F5F5F5F5F5F5F5F5F5F5F5F5F5F5F5F5F5F5F5F5F5F5F5F5F5F5F5F5F5F5F5F5F5F5F5F5F5F5F5F5F5F5F5F5F5F5F5F5F5F5F5F5F5F5F5F5F5F5F5F5F5F5F5F5F5F5F5F5F5F5F5F5F5F5F5F5F5F5F5F5F5F5F5F5F5F5F5F5E2F5F5F5F5F5F5F5F5F5F5F5F5F5F5
310
F5F5F5F5F5F5E2E2EFF5F5F5F5F5F5F5F5F5F5F5F5F5F5F5F5F5F5F5F5E2F5F5F5F5F5F5F5F5F5F5F5F5F5F5F5F5F5F5F5F5F5F5F5F5F5F5F5F5F5F5F5F5F5F5F5F5F5F5F5F5F5F5F5F5F5F5F5F5F5F5F5F5F5F5F5F5F5F5F5F5F5F5F5F5F5F5F5F5F5F5F5F5F5F5F5F5F5F5F5F5F5F5F5F5F5F5F5F5F5F5F5F5F5F5F5F5F5
310
F5F5F5F5F5F5F5F5F5F5F5F5F5F5F5F5F5F5F5F5F5F5F5F5F5F5F5F5F5F5F5F5F5F5F5F5F5F5E2F5F5F5F5F5F5F5F5F5F5F5F5F5F5F5F5F5F5F5F5E2E2EFF5F5F5F5F5F5F5F5F5F5F5F5F5F5F5F5F5F5F5F5E2F5F5F5F5F5F5F5F5F5F5F5F5F5F5F5F5F5F5F5F5F5F5F5F5F5F5F5F5F5F5F5F5F5F5F5F5F5F5F5F5F5F5F5F5
310
F5F5F5F5F5F5F5F5F5F5F5F5F5F5F5F5F5F5F5F5F5F5F5F5F5F5F5F5F5F5F5F5F5F5F5F5F5F5F5F5F5F5F5F5F5F5F5F5F5F5F5F5F5F5F5F5F5F5F5F5F5F5F5F5F5F5F5F5F5F5F5F5F5F5F5F5F5F5F5F5F5F5F5F5F5F5F5F5F5F5F5E2F5F5F5F5F5F5F5F5F5F5F5F5F5F5F5F5F5F5F5F5E2E2EFF5F5F5F5F5F5F5F5F5F5F5F5
310
F5F5F5F5F5F5F5F5E2F5F5F5F5F5F5F5F5F5F5F5F5F5F5F5F5F5F5F5F5F5F5F5F5F5F5F5F5F5F5F5F5F5F5F5F5F5F5F5F5F5F5F5F5F5F5F5F5F5F5F5F5F5F5F5F5F5F5F5F5F5F5F5F5F5F5F5F5F5F5F5F5F5F5F5F5F5F5F5F5F5F5F5F5F5F5F5F5F5F5F5F5F5F5F5F5F5F5F5F5F5F5F5F5F5F5F5F5F5F5F5F5F5F5F5F5F5F5
310
F5F5F5F5F5F5F5F5F5F5F5F5F5F5F5F5F5E2F5F5F5F5F5F5F5F5F5F5F5F5F5F5F5F5F5F5F5F5E2E2EFF5F5F5F5F5F5F5F5F5F5F5F5F5F5F5F5F5F5F5F5E2F5F5F5F5F5F5F5F5F5F5F5F5F5F5F5F5F5F5F5F5F5F5F5F5F5F5F5F5F5F5F5F5F5F5F5F5F5F5F5F5F5F5F5F5F5F5F5F5F5F5F5F5F5F5F5F5F5F5F5F5F5F5F5F5F5
310
F5F5F5F5F5F5F5F5F5F5F5F5F5F5F5F5F5F5F5F5F5F5F5F5F5F5F5F5F5F5F5F5F5F5F5F5F5F5F5F5F5F5F5F5F5F5F5F5F5F5F5F5F5F5F5F5F5F5F5F5F5F5F5F5F5F5F5F5F5F5E2F5F5F5F5F5F5F5F5F5F5F5F5F5F5F5F5F5F5F5F5E2E2EFF5F5F5F5F5F5F5F5F5F5F5F5F5F5F5F5F5F5F5F5E2F5F5F5F5F5F5F5F5F5F5F5F5
310
F5F5F5F5F5F5F5F5F5F5F5F5F5F5F5F5F5F5F5F5F5F5F5F5F5F5F5F5F5F5F5F5F5F5F5F5F5F5F5F5F5F5F5F5F5F5F5F5F5F5F5F5F5F5F5F5F5F5F5F5F5F5F5F5F5F5F5F5F5F5F5F5F5F5F5F5F5F5F5F5F5F5F5F5F5F5F5F5F5F5F5F5F5F5F5F5F5F5F5F5F5F5F5F5F5F5F5F5F5F5F5F5F5F5F5F5F5F5F5F5F5F5F5E2F5F5F5
310
F5F5F5F5F5F5F5F5F5F5F5F5F5F5F5F5F5E2E2EFF5F5F5F5F5F5F5F5F5F5F5F5F5F5F5F5F5F5F5F5E2F5F5F5F5F5F5F5F5F5F5F5F5F5F5F5F5F5F5F5F5F5F5F5F5F5F5F5F5F5F5F5F5F5F5F5F5F5F5F5F5F5F5F5F5F5F5F5F5F5F5F5F5F5F5F5F5F5F5F5F5F5F5F5F5F5F5F5F5F5F5F5F5F5F5F5F5F5F5F5F5F5F5F5F5F5F5
310
F5F5F5F5F5F5F5F5F5F5F5F5F5F5F5F5F5F5F5F5F5F5F5F5F5F5F5F5F5F5F5F5F5F5F5F5F5F5F5F5F5F5F5F5F5F5F5F5F5E2F5F5F5F5F5F5F5F5F5F5F5F5F5F5F5F5F5F5F5F5E2E2EFF5F5F5F5F5F5F5F5F5F5F5F5F5F5F5F5F5F5F5F5E2F5F5F5F5F5F5F5F5F5F5F5F5F5F5F5F5F5F5F5F5F5F5F5F5F5F5F5F5F5F5F5F5F5
310
F5F5F5F5F5F5F5F5F5F5F5F5F5F5F5F5F5F5F5F5F5F5F5F5F5F5F5F5F5F5F5F5F5F5F5F5F5F5F5F5F5F5F5F5F5F5F5F5F5F5F5F5F5F5F5F5F5F5F5F5F5F5F5F5F5F5F5F5F5F5F5F5F5F5F5F5F5F5F5F5F5F5F5F5F5F5F5F5F5F5F5F5F5F5F5F5F5F5F5F5F5F5E2F5F5F5F5F5F5F5F5F5F5F5F5F5F5F5F5F5F5F5F5E2E2EFF5
310
F5F5F5F5F5F5F5F5F5F5F5F5F5F5F5F5F5F5F5E2F5F5F5F5F5F5F5F5F5F5F5F5F5F5F5F5F5F5F5F5F5F5F5F5F5F5F5F5F5F5F5F5F5F5F5F5F5F5F5F5F5F5F5F5F5F5F5F5F5F5F5F5F5F5F5F5F5F5F5F5F5F5F5F5F5F5F5F5F5F5F5F5F5F5F5F5F5F5F5F5F5F5F5F5F5F5F5F5F5F5F5F5F5F5F5F5F5F5F5F5F5F5F5F5F5F5F5
310
F5F5F5F5F5F5F5F5F5F5F5F5F5F5F5F5F5F5F5F5F5F5F5F5F5F5F5F5E2F5F5F5F5F5F5F5F5F5F5F5F5F5F5F5F5F5F5F5F5E2E2EFF5F5F5E2F5F5F5F5F5F5F5F5F5F5F5F5F5F5F5F5E2F5F5F5F5F5F5F5F5F5F5F5F5F5F5F5F5F5F5F5F5F5F5F5F5F5F5F5F5F5F5F5F5F5F5F5F5F5F5F5F5F5F5F5F5F5F5F5F5F5F5F5F5F5F5
310
F5F5F5F5F5F5F5F5F5F5F5F5F5F5F5F5F5F5F5F5F5F5F5F5F5F5F5F5F5F5F5F5F5F5F5F5F5F5F5F5F5F5F5F5F5F5F5F5F5F5F5F5F5F5F5F5F5F5F5F5F5F5F5F5F5F5F5F5F5F5F5F5F5F5F5F5F5F5F5F5F5E2F5F5F5F5F5F5F5F5F5F5F5F5F5F5F5F5E2F5F5F5E2E2EFF5F5F5E2F5F5F5F5F5F5F5F5F5F5F5F5F5F5F5F5E2F5
310
F5F5F5F5F5F5F5F5F5F5F5F5F5F5F5F5F5F5F5F5F5F5F5F5F5F5F5F5F5F5F5F5F5F5F5F5F5F5F5F5F5F5F5F5F5F5F5F5F5F5F5F5F5F5F5F5F5F5F5F5F5F5F5F5F5F5F5F5F5F5F5F5F5F5F5F5F5F5F5F5F5F5F5F5F5F5F5F5F5F5F5F5F5F5F5F5F5F5F5F5F5F5F5F5F5F5F5F5F5F5F5F5F5F5F5F5F5F5F5F5F5F5F5F5F5F5F5
310
F5F5F5F5F5F5F5E2F5F5F5F5F5F5F5F5F5F5F5F5F5F5F5F5E2F5F5F5E2E2EFF5F5F5E2F5F5F5F5F5F5F5F5F5F5F5F5F5F5F5F5E2F5F5F5F5F5F5F5F5F5F5F5F5F5F5F5F5F5F5F5F5F5F5F5F5F5F5F5F5F5F5F5F5F5F5F5F5F5F5F5F5F5F5F5F5F5F5F5F5F5F5F5F5F5F5F5F5F5F5F5F5F5F5F5F5F5F5F5F5F5F5F5F5F5F5F5
310
F5F5F5F5F5F5F5F5F5F5F5F5F5F5F5F5F5F5F5F5F5F5F5F5F5F5F5F5F5F5F5F5F5F5F5F5F5F5F5F5F5F5F5F5F5F5F5F5F5F5F5F5F5F5F5F5F5F5F5F5E2F5F5F5F5F5F5F5F5F5F5F5F5F5F5F5F5E2F5F5F5E2E2EFF5F5F5E2F5F5F5F5F5F5F5F5F5F5F5F5F5F5F5F5E2F5F5F5F5F5F5F5F5F5F5F5F5F5F5F5F5F5F5F5F5F5F5
310
F5F5F5F5F5F5F5F5F5F5F5F5F5F5F5F5F5F5F5F5F5F5F5F5F5F5F5F5F5F5F5F5F5F5F5F5F5F5F5F5F5F5F5F5F5F5F5F5F5F5F5F5F5F5F5F5F5F5F5F5F5F5F5F5F5F5F5F5F5F5F5F5F5F5F5F5F5F5F5F5F5F5F5F5F5F5F5F5F5F5F5F5F5F5F5F5F5F5F5F5F5F5F5F5F5F5F5F5F5F5F5F5F5E2F5F5F5F5F5F5F5F5F5F5F5F5F5
310
F5F5F5E2F5F5F5E2E2EFF5F5F5E2F5F5F5F5F5F5F5F5F5F5F5F5F5F5F5F5E2F5F5F5F5F5F5F5F5F5F5F5F5F5F5F5F5F5F5F5F5F5F5F5F5F5F5F5F5F5F5F5F5F5F5F5F5F5F5F5F5F5F5F5F5F5F5F5F5F5F5F5F5F5F5F5F5F5F5F5F5F5F5F5F5F5F5F5F5F5F5F5F5F5F5F5F5F5F5F5F5F5F5F5F5F5F5F5F5F5F5F5F5F5F5F5F5
310
F5F5F5F5F5F5F5F5F5F5F5F5F5F5F5F5F5F5F5F5F5F5F5F5F5F5F5F5F5F5F5F5F5F5F5F5F5F5F5E2F5F5F5F5F5F5F5F5F5F5F5F5F5F5F5F5E2F5F5F5E2E2EFF5F5F5E2F5F5F5F5F5F5F5F5F5F5F5F5F5F5F5F5E2F5F5F5F5F5F5F5F5F5F5F5F5F5F5F5F5F5F5F5F5F5F5F5F5F5F5F5F5F5F5F5F5F5F5F5F5F5F5F5F5F5F5F5
310
F5F5F5F5F5F5F5F5F5F5F5F5F5F5F5F5F5F5F5F5F5F5F5F5F5F5F5F5F5F5F5F5F5F5F5F5F5F5F5F5F5F5F5F5F5F5F5F5F5F5F5F5F5F5F5F5F5F5F5F5F5F5F5F5F5F5F5F5F5F5F5F5F5F5F5F5F5F5F5F5F5F5F5F5F5F5F5F5F5F5F5F5E2F5F5F5F5F5F5F5F5F5F5F5F5F5F5F5F5E2F5F5F5E2E2EFF5F5F5E2F5F5F5F5F5F5F5
310
F5F5F5F5F5F5F5F5F5E2F5F5F5F5F5F5F5F5F5F5F5F5F5F5F5F5F5F5F5F5F5F5F5F5F5F5F5F5F5F5F5F5F5F5F5F5F5F5F5F5F5F5F5F5F5F5F5F5F5F5F5F5F5F5F5F5F5F5F5F5F5F5F5F5F5F5F5F5F5F5F5F5F5F5F5F5F5F5F5F5F5F5F5F5F5F5F5F5F5F5F5F5F5F5F5F5F5F5F5F5F5F5F5F5F5F5F5F5F5F5F5F5F5F5F5F5F5
310
F5F5F5F5F5F5F5F5F5F5F5F5F5F5F5F5F5F5E2F5F5F5F5F5F5F5F5F5F5F5F5F5F5F5F5E2F5F5F5E2E2EFF5F5F5E2F5F5F5F5F5F5F5F5F5F5F5F5F5F5F5F5E2F5F5F5F5F5F5F5F5F5F5F5F5F5F5F5F5F5F5F5F5F5F5F5F5F5F5F5F5F5F5F5F5F5F5F5F5F5F5F5F5F5F5F5F5F5F5F5F5F5F5F5F5F5F5F5F5F5F5F5F5F5F5F5F5
310
F5F5F5F5F5F5F5F5F5F5F5F5F5F5F5F5F5F5F5F5F5F5F5F5F5F5F5F5F5F5F5F5F5F5F5F5F5F5F5F5F5F5F5F5F5F5F5F5F5F5F5F5F5F5F5F5F5F5F5F5F5F5F5F5F5F5F5F5F5F5F5E2F5F5F5F5F5F5F5F5F5F5F5F5F5F5F5F5E2F5F5F5E2E2EFF5F5F5E2F5F5F5F5F5F5F5F5F5F5F5F5F5F5F5F5E2F5F5F5F5F5F5F5F5F5F5F5
310
F5F5F5F5F5F5F5F5F5F5F5F5F5F5F5F5F5F5F5F5F5F5F5F5F5F5F5F5F5F5F5F5F5F5F5F5F5F5F5F5F5F5F5F5F5F5F5F5F5F5F5F5F5F5F5F5F5F5F5F5F5F5F5F5F5F5F5F5F5F5F5F5F5F5F5F5F5F5F5F5F5F5F5F5F5F5F5F5F5F5F5F5F5F5F5F5F5F5F5F5F5F5F5F5F5F5F5F5F5F5F5F5F5F5F5F5F5F5F5F5F5F5F5F5E2F5F5
310
F5F5F5F5F5F5F5F5F5F5F5F5F5F5E2F5F5F5E2E2EFF5F5F5E2F5F5F5F5F5F5F5F5F5F5F5F5F5F5F5F5E2F5F5F5F5F5F5F5F5F5F5F5F5F5F5F5F5F5F5F5F5F5F5F5F5F5F5F5F5F5F5F5F5F5F5F5F5F5F5F5F5F5F5F5F5F5F5F5F5F5F5F5F5F5F5F5F5F5F5F5F5F5F5F5F5F5F5F5F5F5F5F5F5F5F5F5F5F5F5F5F5F5F5F5F5F5
310
F5F5F5F5F5F5F5F5F5F5F5F5F5F5F5F5F5F5F5F5F5F5F5F5F5F5F5F5F5F5F5F5F5F5F5F5F5F5F5F5F5F5F5F5F5F5F5F5F5F5E2F5F5F5F5F5F5F5F5F5F5F5F5F5F5F5F5E2F5F5F5E2E2EFF5F5F5E2F5F5F5F5F5F5F5F5F5F5F5F5F5F5F5F5E2F5F5F5F5F5F5F5F5F5F5F5F5F5F5F5F5F5F5F5F5F5F5F5F5F5F5F5F5F5F5F5F5
310
F5F5F5F5F5F5F5F5F5F5F5F5F5F5F5F5F5F5F5F5F5F5F5F5F5F5F5F5F5F5F5F5F5F5F5F5F5F5F5F5F5F5F5F5F5F5F5F5F5F5F5F5F5F5F5F5F5F5F5F5F5F5F5F5F5F5F5F5F5F5F5F5F5F5F5F5F5F5F5F5F5F5F5F5F5F5F5F5F5F5F5F5F5F5F5F5F5F5F5F5F5F5F5E2F5F5F5F5F5F5F5F5F5F5F5F5F5F5F5F5E2F5F5F5E2E2EF
310
F5F5F5E2F5F5F5F5F5F5F5F5F5F5F5F5F5F5F5F5E2F5F5F5F5F5F5F5F5F5F5F5F5F5F5F5F5F5F5F5F5F5F5F5F5F5F5F5F5F5F5F5F5F5F5F5F5F5F5F5F5F5F5F5F5F5F5F5F5F5F5F5F5F5F5F5F5F5F5F5F5F5F5F5F5F5F5F5F5F5F5F5F5F5F5F5F5F5F5F5F5F5F5F5F5F5F5F5F5F5F5F5F5F5F5F5F5F5F5F5F5F5F5F5F5F5F5
310
F5F5F5F5F5F5F5F5F5F5F5F5F5F5F5F5F5F5F5F5F5F5F5F5F5F5F5F5F5E2F5F5F5F5F5F5F5F5F5F5F5F5F5F5F5F5E2F5F5F5E2E2EFF5F5F5E2F5F5F5F5F5F5F5F5F5F5F5F5F5F5F5F5E2F5F5F5F5F5F5F5F5F5F5F5F5F5F5F5F5F5F5F5F5F5F5F5F5F5F5F5F5F5F5F5F5F5F5F5F5F5F5F5F5F5F5F5F5F5F5F5F5F5F5F5F5F5
310
F5F5F5F5F5F5F5F5F5F5F5F5F5F5F5F5F5F5F5F5F5F5F5F5F5F5F5F5F5F5F5F5F5F5F5F5F5F5F5F5F5F5F5F5F5F5F5F5F5F5F5F5F5F5F5F5F5F5F5F5F5F5F5F5F5F5F5F5F5F5F5F5F5F5F5F5F5F5F5F5F5F5E2F5F5F5F5F5F5F5F5F5F5F5F5F5F5F5F5E2F5F5F5E2E2EFF5F5F5E2F5F5F5F5F5F5F5F5F5F5F5F5F5F5F5F5E2
310
F5F5F5F5F5F5F5F5F5F5F5F5F5F5F5F5F5F5F5F5F5F5F5F5F5F5F5F5F5F5F5F5F5F5F5F5F5F5F5F5F5F5F5F5F5F5F5F5F5F5F5F5F5F5F5F5F5F5F5F5F5F5F5F5F5F5F5F5F5F5F5F5F5F5F5F5F5F5F5F5F5F5F5F5F5F5F5F5F5F5F5F5F5F5F5F5F5F5F5F5F5F5F5F5F5F5F5F5F5F5F5F5F5F5F5F5F5F5F5F5F5F5F5F5F5F5F5
310
F5F5F5F5F5F5F5F5E2F5F5F5F5F5F5F5F5F5F5F5F5F5F5F5F5E2F5F5F5E2E2EFF5F5F5E2F5F5F5F5F5F5F5F5F5F5F5F5F5F5F5F5E2F5F5F5F5F5F5F5F5F5F5F5F5F5F5F5F5F5F5F5F5F5F5F5F5F5F5F5F5F5F5F5F5F5F5F5F5F5F5F5F5F5F5F5F5F5F5F5F5F5F5F5F5F5F5F5F5F5F5F5F5F5F5F5F5F5F5F5F5F5F5F5F5F5F5
310
F5F5F5F5F5F5F5F5F5F5F5F5F5F5F5F5F5F5F5F5F5F5F5F5F5F5F5F5F5F5F5F5F5F5F5F5F5F5F5F5F5F5F5F5F5F5F5F5F5F5F5F5F5F5F5F5F5F5F5F5F5E2F5F5F5F5F5F5F5F5F5F5F5F5F5F5F5F5E2F5F5F5E2E2EFF5F5F5E2F5F5F5F5F5F5F5F5F5F5F5F5F5F5F5F5E2F5F5F5F5F5F5F5F5F5F5F5F5F5F5F5F5F5F5F5F5F5
310
F5F5F5F5F5F5F5F5F5F5F5F5F5F5F5F5F5F5F5F5F5F5F5F5F5F5F5F5F5F5F5F5F5F5F5F5F5F5F5F5F5F5F5F5F5F5F5F5F5F5F5F5F5F5F5F5F5F5F5F5F5F5F5F5F5F5F5F5F5F5F5F5F5F5F5F5F5F5F5F5F5F5F5F5F5F5F5F5F5F5F5F5F5F5F5F5F5F5F5F5F5F5F5F5F5F5F5F5F5F5F5F5F5F5E2F5F5F5F5F5F5F5F5F5F5F5F5
310
F5F5F5F5E2F5F5F5E2E2EFF5F5F5E2F5F5F5F5F5F5F5F5F5F5F5F5F5F5F5F5E2F5F5F5F5F5F5F5F5F5F5F5F5F5F5F5F5F5F5F5F5F5F5F5F5F5F5F5F5F5F5F5F5F5F5F5F5F5F5F5F5F5F5F5F5F5F5F5F5F5F5F5F5F5F5F5F5F5F5F5F5F5F5F5F5F5F5F5F5F5F5F5F5F5F5F5F5F5F5F5F5F5F5F5F5F5F5F5F5F5F5F5F5F5F5F5
310
F5F5F5F5F5F5F5F5F5F5F5F5F5F5F5F5F5F5F5F5F5F5F5F5F5F5F5F5F5F5F5F5F5F5F5F5F5F5F5F5E2F5F5F5F5F5F5F5F5F5F5F5F5F5F5F5F5E2F5F5F5E2E2EFF5F5F5F5F5F5F5F5F5F5F5F5F5F5F5F5F5F5F5F5E2F5F5F5F5F5F5F5F5F5F5F5F5F5F5F5F5F5F5F5F5F5F5F5F5F5F5F5F5F5F5F5F5F5F5F5F5F5F5F5F5F5F5
310
F5F5F5F5F5F5F5F5F5F5F5F5F5F5F5F5F5F5F5F5F5F5F5F5F5F5F5F5F5F5F5F5F5F5F5F5F5F5F5F5F5F5F5F5F5F5F5F5F5F5F5F5F5F5F5F5F5F5F5F5F5F5F5F5F5F5F5F5F5F5F5F5F5F5F5F5F5F5F5F5F5F5F5F5F5F5F5F5F5F5F5F5F5E2F5F5F5F5F5F5F5F5F5F5F5F5F5F5F5F5F5F5F5F5E2E2EFF5F5F5F5F5F5F5F5F5F5
310
F5F5F5F5F5F5F5F5F5F5E2F5F5F5F5F5F5F5F5F5F5F5F5F5F5F5F5F5F5F5F5F5F5F5F5F5F5F5F5F5F5F5F5F5F5F5F5F5F5F5F5F5F5F5F5F5F5F5F5F5F5F5F5F5F5F5F5F5F5F5F5F5F5F5F5F5F5F5F5F5F5F5F5F5F5F5F5F5F5F5F5F5F5F5F5F5F5F5F5F5F5F5F5F5F5F5F5F5F5F5F5F5F5F5F5F5F5F5F5F5F5F5F5F5F5F5F5
310
F5F5F5F5F5F5F5F5F5F5F5F5F5F5F5F5F5F5F5E2F5F5F5F5F5F5F5F5F5F5F5F5F5F5F5F5F5F5F5F5E2E2EFF5F5F5F5F5F5F5F5F5F5F5F5F5F5F5F5F5F5F5F5E2F5F5F5F5F5F5F5F5F5F5F5F5F5F5F5F5F5F5F5F5F5F5F5F5F5F5F5F5F5F5F5F5F5F5F5F5F5F5F5F5F5F5F5F5F5F5F5F5F5F5F5F5F5F5F5F5F5F5F5F5F5F5F5
310
F5F5F5F5F5F5F5F5F5F5F5F5F5F5F5F5F5F5F5F5F5F5F5F5F5F5F5F5F5F5F5F5F5F5F5F5F5F5F5F5F5F5F5F5F5F5F5F5F5F5F5F5F5F5F5F5F5F5F5F5F5F5F5F5F5F5F5F5F5F5F5F5E2F5F5F5F5F5F5F5F5F5F5F5F5F5F5F5F5F5F5F5F5E2E2EFF5F5F5F5F5F5F5F5F5F5F5F5F5F5F5F5F5F5F5F5E2F5F5F5F5F5F5F5F5F5F5
310
F5F5F5F5F5F5F5F5F5F5F5F5F5F5F5F5F5F5F5F5F5F5F5F5F5F5F5F5F5F5F5F5F5F5F5F5F5F5F5F5F5F5F5F5F5F5F5F5F5F5F5F5F5F5F5F5F5F5F5F5F5F5F5F5F5F5F5F5F5F5F5F5F5F5F5F5F5F5F5F5F5F5F5F5F5F5F5F5F5F5F5F5F5F5F5F5F5F5F5F5F5F5F5F5F5F5F5F5F5F5F5F5F5F5F5F5F5F5F5F5F5F5F5F5F5E2F5
310
F5F5F5F5F5F5F5F5F5F5F5F5F5F5F5F5F5F5F5E2E2EFF5F5F5F5F5F5F5F5F5F5F5F5F5F5F5F5F5F5F5F5E2F5F5F5F5F5F5F5F5F5F5F5F5F5F5F5F5F5F5F5F5F5F5F5F5F5F5F5F5F5F5F5F5F5F5F5F5F5F5F5F5F5F5F5F5F5F5F5F5F5F5F5F5F5F5F5F5F5F5F5F5F5F5F5F5F5F5F5F5F5F5F5F5F5F5F5F5F5F5F5F5F5F5F5F5
310
F5F5F5F5F5F5F5F5F5F5F5F5F5F5F5F5F5F5F5F5F5F5F5F5F5F5F5F5F5F5F5F5F5F5F5F5F5F5F5F5F5F5F5F5F5F5F5F5F5F5F5E2F5F5F5F5F5F5F5F5F5F5F5F5F5F5F5F5F5F5F5F5E2E2EFF5F5F5F5F5F5F5F5F5F5F5F5F5F5F5F5F5F5F5F5E2F5F5F5F5F5F5F5F5F5F5F5F5F5F5F5F5F5F5F5F5F5F5F5F5F5F5F5F5F5F5F5
310
F5F5F5F5F5F5F5F5F5F5F5F5F5F5F5F5F5F5F5F5F5F5F5F5F5F5F5F5F5F5F5F5F5F5F5F5F5F5F5F5F5F5F5F5F5F5F5F5F5F5F5F5F5F5F5F5F5F5F5F5F5F5F5F5F5F5F5F5F5F5F5F5F5F5F5F5F5F5F5F5F5F5F5F5F5F5F5F5F5F5F5F5F5F5F5F5F5F5F5F5F5F5F5F5E2F5F5F5F5F5F5F5F5F5F5F5F5F5F5F5F5F5F5F5F5E2E2
310
EFF5F5F5F5F5F5F5F5F5F5F5F5F5F5F5F5F5F5F5F5E2F5F5F5F5F5F5F5F5F5F5F5F5F5F5F5F5F5F5F5F5F5F5F5F5F5F5F5F5F5F5F5F5F5F5F5F5F5F5F5F5F5F5F5F5F5F5F5F5F5F5F5F5F5F5F5F5F5F5F5F5F5F5F5F5F5F5F5F5F5F5F5F5F5F5F5F5F5F5F5F5F5F5F5F5F5F5F5F5F5F5F5F5F5F5F5F5F5F5F5F5F5F5F5F5F5
310
F5F5F5F5F5F5F5F5F5F5F5F5F5F5F5F5F5F5F5F5F5F5F5F5F5F5F5F5F5F5E2F5F5F5F5F5F5F5F5F5F5F5F5F5F5F5F5F5F5F5F5E2E2EFF5F5F5F5F5F5F5F5F5F5F5F5F5F5F5F5F5F5F5F5E2F5F5F5F5F5F5F5F5F5F5F5F5F5F5F5F5F5F5F5F5F5F5F5F5F5F5F5F5F5F5F5F5F5F5F5F5F5F5F5F5F5F5F5F5F5F5F5F5F5F5F5F5
310
F5F5F5F5F5F5F5F5F5F5F5F5F5F5F5F5F5F5F5F5F5F5F5F5F5F5F5F5F5F5F5F5F5F5F5F5F5F5F5F5F5F5F5F5F5F5F5F5F5F5F5F5F5F5F5F5F5F5F5F5F5F5F5F5F5F5F5F5F5F5F5F5F5F5F5F5F5F5F5F5F5F5F5E2F5F5F5F5F5F5F5F5F5F5F5F5F5F5F5F5F5F5F5F5E2E2EFF5F5F5F5F5F5F5F5F5F5F5F5F5F5F5F5F5F5F5F5
310
E2F5F5F5F5F5F5F5F5F5F5F5F5F5F5F5F5F5F5F5F5F5F5F5F5F5F5F5F5F5F5F5F5F5F5F5F5F5F5F5F5F5F5F5F5F5F5F5F5F5F5F5F5F5F5F5F5F5F5F5F5F5F5F5F5F5F5F5F5F5F5F5F5F5F5F5F5F5F5F5F5F5F5F5F5F5F5F5F5F5F5F5F5F5F5F5F5F5F5F5F5F5F5F5F5F5F5F5F5F5F5F5F5F5F5F5F5F5F5F5F5F5F5F5F5F5F5
310
F5F5F5F5F5F5F5F5F5E2F5F5F5F5F5F5F5F5F5F5F5F5F5F5F5F5F5F5F5F5E2E2EFF5F5F5E2F5F5F5F5F5F5F5F5F5F5F5F5F5F5F5F5E2F5F5F5F5F5F5F5F5F5F5F5F5F5F5F5F5F5F5F5F5F5F5F5F5F5F5F5F5F5F5F5F5F5F5F5F5F5F5F5F5F5F5F5F5F5F5F5F5F5F5F5F5F5F5F5F5F5F5F5F5F5F5F5F5F5F5F5F5F5F5F5F5F5
310
F5F5F5F5F5F5F5F5F5F5F5F5F5F5F5F5F5F5F5F5F5F5F5F5F5F5F5F5F5F5F5F5F5F5F5F5F5F5F5F5F5F5F5F5F5F5F5F5F5F5F5F5F5F5F5F5F5F5F5F5F5F5E2F5F5F5F5F5F5F5F5F5F5F5F5F5F5F5F5E2F5F5F5E2E2EFF5F5F5E2F5F5F5F5F5F5F5F5F5F5F5F5F5F5F5F5E2F5F5F5F5F5F5F5F5F5F5F5F5F5F5F5F5F5F5F5F5
310
F5F5F5F5F5F5F5F5F5F5F5F5F5F5F5F5F5F5F5F5F5F5F5F5F5F5F5F5F5F5F5F5F5F5F5F5F5F5F5F5F5F5F5F5F5F5F5F5F5F5F5F5F5F5F5F5F5F5F5F5F5F5F5F5F5F5F5F5F5F5F5F5F5F5F5F5F5F5F5F5F5F5F5F5F5F5F5F5F5F5F5F5F5F5F5F5F5F5F5F5F5F5F5F5F5F5F5F5F5F5F5F5F5F5F5E2F5F5F5F5F5F5F5F5F5F5F5
310
F5F5F5F5F5E2F5F5F5E2E2EFF5F5F5E2F5F5F5F5F5F5F5F5F5F5F5F5F5F5F5F5E2F5F5F5F5F5F5F5F5F5F5F5F5F5F5F5F5F5F5F5F5F5F5F5F5F5F5F5F5F5F5F5F5F5F5F5F5F5F5F5F5F5F5F5F5F5F5F5F5F5F5F5F5F5F5F5F5F5F5F5F5F5F5F5F5F5F5F5F5F5F5F5F5F5F5F5F5F5F5F5F5F5F5F5F5F5F5F5F5F5F5F5F5F5F5
310
F5F5F5F5F5F5F5F5F5F5F5F5F5F5F5F5F5F5F5F5F5F5F5F5F5F5F5F5F5F5F5F5F5F5F5F5F5F5F5F5F5E2F5F5F5F5F5F5F5F5F5F5F5F5F5F5F5F5E2F5F5F5E2E2EFF5F5F5E2F5F5F5F5F5F5F5F5F5F5F5F5F5F5F5F5E2F5F5F5F5F5F5F5F5F5F5F5F5F5F5F5F5F5F5F5F5F5F5F5F5F5F5F5F5F5F5F5F5F5F5F5F5F5F5F5F5F5
310
F5F5F5F5F5F5F5F5F5F5F5F5F5F5F5F5F5F5F5F5F5F5F5F5F5F5F5F5F5F5F5F5F5F5F5F5F5F5F5F5F5F5F5F5F5F5F5F5F5F5F5F5F5F5F5F5F5F5F5F5F5F5F5F5F5F5F5F5F5F5F5F5F5F5F5F5F5F5F5F5F5F5F5F5F5F5F5F5F5F5F5F5F5F5E2F5F5F5F5F5F5F5F5F5F5F5F5F5F5F5F5E2F5F5F5E2E2EFF5F5F5E2F5F5F5F5F5
310
F5F5F5F5F5F5F5F5F5F5F5E2F5F5F5F5F5F5F5F5F5F5F5F5F5F5F5F5F5F5F5F5F5F5F5F5F5F5F5F5F5F5F5F5F5F5F5F5F5F5F5F5F5F5F5F5F5F5F5F5F5F5F5F5F5F5F5F5F5F5F5F5F5F5F5F5F5F5F5F5F5F5F5F5F5F5F5F5F5F5F5F5F5F5F5F5F5F5F5F5F5F5F5F5F5F5F5F5F5F5F5F5F5F5F5F5F5F5F5F5F5F5F5F5F5F5F5
310
F5F5F5F5F5F5F5F5F5F5F5F5F5F5F5F5F5F5F5F5E2F5F5F5F5F5F5F5F5F5F5F5F5F5F5F5F5E2F5F5F5E2E2EFF5F5F5E2F5F5F5F5F5F5F5F5F5F5F5F5F5F5F5F5E2F5F5F5F5F5F5F5F5F5F5F5F5F5F5F5F5F5F5F5F5F5F5F5F5F5F5F5F5F5F5F5F5F5F5F5F5F5F5F5F5F5F5F5F5F5F5F5F5F5F5F5F5F5F5F5F5F5F5F5F5F5F5
310
F5F5F5F5F5F5F5F5F5F5F5F5F5F5F5F5F5F5F5F5F5F5F5F5F5F5F5F5F5F5F5F5F5F5F5F5F5F5F5F5F5F5F5F5F5F5F5F5F5F5F5F5F5F5F5F5F5F5F5F5F5F5F5F5F5F5F5F5F5F5F5F5F5E2F5F5F5F5F5F5F5F5F5F5F5F5F5F5F5F5E2F5F5F5E2E2EFF5F5F5E2F5F5F5F5F5F5F5F5F5F5F5F5F5F5F5F5E2F5F5F5F5F5F5F5F5F5
310
F5F5F5F5F5F5F5F5F5F5F5F5F5F5F5F5F5F5F5F5F5F5F5F5F5F5F5F5F5F5F5F5F5F5F5F5F5F5F5F5F5F5F5F5F5F5F5F5F5F5F5F5F5F5F5F5F5F5F5F5F5F5F5F5F5F5F5F5F5F5F5F5F5F5F5F5F5F5F5F5F5F5F5F5F5F5F5F5F5F5F5F5F5F5F5F5F5F5F5F5F5F5F5F5F5F5F5F5F5F5F5F5F5F5F5F5F5F5F5F5F5F5F5F5F5F5E2
310
F5F5F5F5F5F5F5F5F5F5F5F5F5F5F5F5E2F5F5F5E2E2EFF5F5F5E2F5F5F5F5F5F5F5F5F5F5F5F5F5F5F5F5E2F5F5F5F5F5F5F5F5F5F5F5F5F5F5F5F5F5F5F5F5F5F5F5F5F5F5F5F5F5F5F5F5F5F5F5F5F5F5F5F5F5F5F5F5F5F5F5F5F5F5F5F5F5F5F5F5F5F5F5F5F5F5F5F5F5F5F5F5F5F5F5F5F5F5F5F5F5F5F5F5F5F5F5
310
F5F5F5F5F5F5F5F5F5F5F5F5F5F5F5F5F5F5F5F5F5F5F5F5F5F5F5F5F5F5F5F5F5F5F5F5F5F5F5F5F5F5F5F5F5F5F5F5F5F5F5F5E2F5F5F5F5F5F5F5F5F5F5F5F5F5F5F5F5E2F5F5F5E2E2EFF5F5F5E2F5F5F5F5F5F5F5F5F5F5F5F5F5F5F5F5E2F5F5F5F5F5F5F5F5F5F5F5F5F5F5F5F5F5F5F5F5F5F5F5F5F5F5F5F5F5F5
310
F5F5F5F5F5F5F5F5F5F5F5F5F5F5F5F5F5F5F5F5F5F5F5F5F5F5F5F5F5F5F5F5F5F5F5F5F5F5F5F5F5F5F5F5F5F5F5F5F5F5F5F5F5F5F5F5F5F5F5F5F5F5F5F5F5F5F5F5F5F5F5F5F5F5F5F5F5F5F5F5F5F5F5F5F5F5F5F5F5F5F5F5F5F5F5F5F5F5F5F5F5F5F5F5F5E2F5F5F5F5F5F5F5F5F5F5F5F5F5F5F5F5E2F5F5F5E2
310
E2EFF5F5F5E2F5F5F5F5F5F5F5F5F5F5F5F5F5F5F5F5E2F5F5F5F5F5F5F5F5F5F5F5F5F5F5F5F5F5F5F5F5F5F5F5F5F5F5F5F5F5F5F5F5F5F5F5F5F5F5F5F5F5F5F5F5F5F5F5F5F5F5F5F5F5F5F5F5F5F5F5F5F5F5F5F5F5F5F5F5F5F5F5F5F5F5F5F5F5F5F5F5F5F5F5F5F5F5F5F5F5F5F5F5F5F5F5F5F5F5F5F5F5F5F5F5
310
F5F5F5F5F5F5F5F5F5F5F5F5F5F5F5F5F5F5F5F5F5F5F5F5F5F5F5F5F5F5F5E2F5F5F5F5F5F5F5F5F5F5F5F5F5F5F5F5E2F5F5F5E2E2EFF5F5F5E2F5F5F5F5F5F5F5F5F5F5F5F5F5F5F5F5E2F5F5F5F5F5F5F5F5F5F5F5F5F5F5F5F5F5F5F5F5F5F5F5F5F5F5F5F5F5F5F5F5F5F5F5F5F5F5F5F5F5F5F5F5F5F5F5F5F5F5F5
310
F5F5F5F5F5F5F5F5F5F5F5F5F5F5F5F5F5F5F5F5F5F5F5F5F5F5F5F5F5F5F5F5F5F5F5F5F5F5F5F5F5F5F5F5F5F5F5F5F5F5F5F5F5F5F5F5F5F5F5F5F5F5F5F5F5F5F5F5F5F5F5F5F5F5F5F5F5F5F5F5F5F5F5F5E2F5F5F5F5F5F5F5F5F5F5F5F5F5F5F5F5E2F5F5F5E2E2EFF5F5F5E2F5F5F5F5F5F5F5F5F5F5F5F5F5F5F5
310
F5E2F5F5F5F5F5F5F5F5F5F5F5F5F5F5F5F5F5F5F5F5F5F5F5F5F5F5F5F5F5F5F5F5F5F5F5F5F5F5F5F5F5F5F5F5F5F5F5F5F5F5F5F5F5F5F5F5F5F5F5F5F5F5F5F5F5F5F5F5F5F5F5F5F5F5F5F5F5F5F5F5F5F5F5F5F5F5F5F5F5F5F5F5F5F5F5F5F5F5F5F5F5F5F5F5F5F5F5F5F5F5F5F5F5F5F5F5F5F5F5F5F5F5F5F5F5
310
F5F5F5F5F5F5F5F5F5F5E2F5F5F5F5F5F5F5F5F5F5F5F5F5F5F5F5E2F5F5F5E2E2EFF5F5F5E2F5F5F5F5F5F5F5F5F5F5F5F5F5F5F5F5E2F5F5F5F5F5F5F5F5F5F5F5F5F5F5F5F5F5F5F5F5F5F5F5F5F5F5F5F5F5F5F5F5F5F5F5F5F5F5F5F5F5F5F5F5F5F5F5F5F5F5F5F5F5F5F5F5F5F5F5F5F5F5F5F5F5F5F5F5F5F5F5F5
310
F5F5F5F5F5F5F5F5F5F5F5F5F5F5F5F5F5F5F5F5F5F5F5F5F5F5F5F5F5F5F5F5F5F5F5F5F5F5F5F5F5F5F5F5F5F5F5F5F5F5F5F5F5F5F5F5F5F5F5F5F5F5F5E2F5F5F5F5F5F5F5F5F5F5F5F5F5F5F5F5E2F5F5F5E2E2EFF5F5F5E2F5F5F5F5F5F5F5F5F5F5F5F5F5F5F5F5E2F5F5F5F5F5F5F5F5F5F5F5F5F5F5F5F5F5F5F5
310
F5F5F5F5F5F5F5F5F5F5F5F5F5F5F5F5F5F5F5F5F5F5F5F5F5F5F5F5F5F5F5F5F5F5F5F5F5F5F5F5F5F5F5F5F5F5F5F5F5F5F5F5F5F5F5F5F5F5F5F5F5F5F5F5F5F5F5F5F5F5F5F5F5F5F5F5F5F5F5F5F5F5F5F5F5F5F5F5F5F5F5F5F5F5F5F5F5F5F5F5F5F5F5F5F5F5F5F5F5F5F5F5F5F5F5F5E2F5F5F5F5F5F5F5F5F5F5
310
F5F5F5F5F5F5E2F5F5F5E2E2EFF5F5F5E2F5F5F5F5F5F5F5F5F5F5F5F5F5F5F5F5E2F5F5F5F5F5F5F5F5F5F5F5F5F5F5F5F5F5F5F5F5F5F5F5F5F5F5F5F5F5F5F5F5F5F5F5F5F5F5F5F5F5F5F5F5F5F5F5F5F5F5F5F5F5F5F5F5F5F5F5F5F5F5F5F5F5F5F5F5F5F5F5F5F5F5F5F5F5F5F5F5F5F5F5F5F5F5F5F5F5F5F5F5F5
310
F5F5F5F5F5F5F5F5F5F5F5F5F5F5F5F5F5F5F5F5F5F5F5F5F5F5F5F5F5F5F5F5F5F5F5F5F5F5F5F5F5F5E2F5F5F5F5F5F5F5F5F5F5F5F5F5F5F5F5E2F5F5F5E2E2EFF5F5F5E2F5F5F5F5F5F5F5F5F5F5F5F5F5F5F5F5E2F5F5F5F5F5F5F5F5F5F5F5F5F5F5F5F5F5F5F5F5F5F5F5F5F5F5F5F5F5F5F5F5F5F5F5F5F5F5F5F5
310
F5F5F5F5F5F5F5F5F5F5F5F5F5F5F5F5F5F5F5F5F5F5F5F5F5F5F5F5F5F5F5F5F5F5F5F5F5F5F5F5F5F5F5F5F5F5F5F5F5F5F5F5F5F5F5F5F5F5F5F5F5F5F5F5F5F5F5F5F5F5F5F5F5F5F5F5F5F5F5F5F5F5F5F5F5F5F5F5F5F5F5F5F5F5F5E2F5F5F5F5F5F5F5F5F5F5F5F5F5F5F5F5E2F5F5F5E2E2EFF5F5F5E2F5F5F5F5
310
F5F5F5F5F5F5F5F5F5F5F5F5E2F5F5F5F5F5F5F5F5F5F5F5F5F5F5F5F5F5F5F5F5F5F5F5F5F5F5F5F5F5F5F5F5F5F5F5F5F5F5F5F5F5F5F5F5F5F5F5F5F5F5F5F5F5F5F5F5F5F5F5F5F5F5F5F5F5F5F5F5F5F5F5F5F5F5F5F5F5F5F5F5F5F5F5F5F5F5F5F5F5F5F5F5F5F5F5F5F5F5F5F5F5F5F5F5F5F5F5F5F5F5F5F5F5F5
310
F5F5F5F5F5F5F5F5F5F5F5F5F5F5F5F5F5F5F5F5F5E2F5F5F5F5F5F5F5F5F5F5F5F5F5F5F5F5E2F5F5F5E2E2EFF5F5F5F5F5F5F5F5F5F5F5F5F5F5F5F5F5F5F5F5E2F5F5F5F5F5F5F5F5F5F5F5F5F5F5F5F5F5F5F5F5F5F5F5F5F5F5F5F5F5F5F5F5F5F5F5F5F5F5F5F5F5F5F5F5F5F5F5F5F5F5F5F5F5F5F5F5F5F5F5F5F5
310
F5F5F5F5F5F5F5F5F5F5F5F5F5F5F5F5F5F5F5F5F5F5F5F5F5F5F5F5F5F5F5F5F5F5F5F5F5F5F5F5F5F5F5F5F5F5F5F5F5F5F5F5F5F5F5F5F5F5F5F5F5F5F5F5F5F5F5F5F5F5F5F5F5F5E2F5F5F5F5F5F5F5F5F5F5F5F5F5F5F5F5F5F5F5F5E2E2EFF5F5F5F5F5F5F5F5F5F5F5F5F5F5F5F5F5F5F5F5E2F5F5F5F5F5F5F5F5
310
F5F5F5F5F5F5F5F5F5F5F5F5F5F5F5F5F5F5F5F5F5F5F5F5F5F5F5F5F5F5F5F5F5F5F5F5F5F5F5F5F5F5F5F5F5F5F5F5F5F5F5F5F5F5F5F5F5F5F5F5F5F5F5F5F5F5F5F5F5F5F5F5F5F5F5F5F5F5F5F5F5F5F5F5F5F5F5F5F5F5F5F5F5F5F5F5F5F5F5F5F5F5F5F5F5F5F5F5F5F5F5F5F5F5F5F5F5F5F5F5F5F5F5F5F5F5F5
310
E2F5F5F5F5F5F5F5F5F5F5F5F5F5F5F5F5F5F5F5F5E2E2EFF5F5F5F5F5F5F5F5F5F5F5F5F5F5F5F5F5F5F5F5E2F5F5F5F5F5F5F5F5F5F5F5F5F5F5F5F5F5F5F5F5F5F5F5F5F5F5F5F5F5F5F5F5F5F5F5F5F5F5F5F5F5F5F5F5F5F5F5F5F5F5F5F5F5F5F5F5F5F5F5F5F5F5F5F5F5F5F5F5F5F5F5F5F5F5F5F5F5F5F5F5F5F5
310
F5F5F5F5F5F5F5F5F5F5F5F5F5F5F5F5F5F5F5F5F5F5F5F5F5F5F5F5F5F5F5F5F5F5F5F5F5F5F5F5F5F5F5F5F5F5F5F5F5F5F5F5F5E2F5F5F5F5F5F5F5F5F5F5F5F5F5F5F5F5F5F5F5F5E2E2EFF5F5F5F5F5F5F5F5F5F5F5F5F5F5F5F5F5F5F5F5E2F5F5F5F5F5F5F5F5F5F5F5F5F5F5F5F5F5F5F5F5F5F5F5F5F5F5F5F5F5
310
F5F5F5F5F5F5F5F5F5F5F5F5F5F5F5F5F5F5F5F5F5F5F5F5F5F5F5F5F5F5F5F5F5F5F5F5F5F5F5F5F5F5F5F5F5F5F5F5F5F5F5F5F5F5F5F5F5F5F5F5F5F5F5F5F5F5F5F5F5F5F5F5F5F5F5F5F5F5F5F5F5F5F5F5F5F5F5F5F5F5F5F5F5F5F5F5F5F5F5F5F5F5F5F5F5F5E2F5F5F5F5F5F5F5F5F5F5F5F5F5F5F5F5F5F5F5F5
310
E2E2EFF5F5F5F5F5F5F5F5F5F5F5F5F5F5F5F5F5F5F5F5E2F5F5F5F5F5F5F5F5F5F5F5F5F5F5F5F5F5F5F5F5F5F5F5F5F5F5F5F5F5F5F5F5F5F5F5F5F5F5F5F5F5F5F5F5F5F5F5F5F5F5F5F5F5F5F5F5F5F5F5F5F5F5F5F5F5F5F5F5F5F5F5F5F5F5F5F5F5F5F5F5F5F5F5F5F5F5F5F5F5F5F5F5F5F5F5F5F5F5F5F5F5F5F5
310
F5F5F5F5F5F5F5F5F5F5F5F5F5F5F5F5F5F5F5F5F5F5F5F5F5F5F5F5F5F5F5F5E2F5F5F5F5F5F5F5F5F5F5F5F5F5F5F5F5F5F5F5F5E2E2EFF5F5F5F5F5F5F5F5F5F5F5F5F5F5F5F5F5F5F5F5E2F5F5F5F5F5F5F5F5F5F5F5F5F5F5F5F5F5F5F5F5F5F5F5F5F5F5F5F5F5F5F5F5F5F5F5F5F5F5F5F5F5F5F5F5F5F5F5F5F5F5
310
F5F5F5F5F5F5F5F5F5F5F5F5F5F5F5F5F5F5F5F5F5F5F5F5F5F5F5F5F5F5F5F5F5F5F5F5F5F5F5F5F5F5F5F5F5F5F5F5F5F5F5F5F5F5F5F5F5F5F5F5F5F5F5F5F5F5F5F5F5F5F5F5F5F5F5F5F5F5F5F5F5F5F5F5F5E2F5F5F5F5F5F5F5F5F5F5F5F5F5F5F5F5F5F5F5F5E2E2EFF5F5F5F5F5F5F5F5F5F5F5F5F5F5F5F5F5F5
310
F5F5E2F5F5F5F5F5F5F5F5F5F5F5F5F5F5F5F5F5F5F5F5F5F5F5F5F5F5F5F5F5F5F5F5F5F5F5F5F5F5F5F5F5F5F5F5F5F5F5F5F5F5F5F5F5F5F5F5F5F5F5F5F5F5F5F5F5F5F5F5F5F5F5F5F5F5F5F5F5F5F5F5F5F5F5F5F5F5F5F5F5F5F5F5F5F5F5F5F5F5F5F5F5F5F5F5F5F5F5F5F5F5F5F5F5F5F5F5F5F5F5F5F5F5F5F5
310
F5F5F5F5F5F5F5F5F5F5F5E2F5F5F5F5F5F5F5F5F5F5F5F5F5F5F5F5F5F5F5F5E2E2EFF5F5F5F5F5F5F5F5F5F5F5F5F5F5F5F5F5F5F5F5E2F5F5F5F5F5F5F5F5F5F5F5F5F5F5F5F5F5F5F5F5F5F5F5F5F5F5F5F5F5F5F5F5F5F5F5F5F5F5F5F5F5F5F5F5F5F5F5F5F5F5F5F5F5F5F5F5F5F5F5F5F5F5F5F5F5F5F5F5F5F5F5
310
F5F5F5F5F5F5F5F5F5F5F5F5F5F5F5F5F5F5F5F5F5F5F5F5F5F5F5F5F5F5F5F5F5F5F5F5F5F5F5F5F5F5F5F5F5F5F5F5F5F5F5F5F5F5F5F5F5F5F5F5F5F5F5F5E2F5F5F5F5F5F5F5F5F5F5F5F5F5F5F5F5F5F5F5F5E2E2EFF5F5F5F5F5F5F5F5F5F5F5F5F5F5F5F5F5F5F5F5E2F5F5F5F5F5F5F5F5F5F5F5F5F5F5F5F5F5F5
310
F5F5F5F5F5F5F5F5F5F5F5F5F5F5F5F5F5F5F5F5F5F5F5F5F5F5F5F5F5F5F5F5F5F5F5F5F5F5F5F5F5F5F5F5F5F5F5F5F5F5F5F5F5F5F5F5F5F5F5F5F5F5F5F5F5F5F5F5F5F5F5F5F5F5F5F5F5F5F5F5F5F5F5F5F5F5F5F5F5F5F5F5F5F5F5F5F5F5F5F5F5F5F5F5F5F5F5F5F5F5F5F5F5F5F5F5F5E2F5F5F5F5F5F5F5F5F5
310
F5F5F5F5F5F5F5F5F5F5F5E2E2EFF5F5F5E2F5F5F5F5F5F5F5F5F5F5F5F5F5F5F5F5E2F5F5F5F5F5F5F5F5F5F5F5F5F5F5F5F5F5F5F5F5F5F5F5F5F5F5F5F5F5F5F5F5F5F5F5F5F5F5F5F5F5F5F5F5F5F5F5F5F5F5F5F5F5F5F5F5F5F5F5F5F5F5F5F5F5F5F5F5F5F5F5F5F5F5F5F5F5F5F5F5F5F5F5F5F5F5F5F5F5F5F5F5
310
F5F5F5F5F5F5F5F5F5F5F5F5F5F5F5F5F5F5F5F5F5F5F5F5F5F5F5F5F5F5F5F5F5F5F5F5F5F5F5F5F5F5F5E2F5F5F5F5F5F5F5F5F5F5F5F5F5F5F5F5E2F5F5F5E2E2EFF5F5F5E2F5F5F5F5F5F5F5F5F5F5F5F5F5F5F5F5E2F5F5F5F5F5F5F5F5F5F5F5F5F5F5F5F5F5F5F5F5F5F5F5F5F5F5F5F5F5F5F5F5F5F5F5F5F5F5F5
310
F5F5F5F5F5F5F5F5F5F5F5F5F5F5F5F5F5F5F5F5F5F5F5F5F5F5F5F5F5F5F5F5F5F5F5F5F5F5F5F5F5F5F5F5F5F5F5F5F5F5F5F5F5F5F5F5F5F5F5F5F5F5F5F5F5F5F5F5F5F5F5F5F5F5F5F5F5F5F5F5F5F5F5F5F5F5F5F5F5F5F5F5F5F5F5F5E2F5F5F5F5F5F5F5F5F5F5F5F5F5F5F5F5E2F5F5F5E2E2EFF5F5F5E2F5F5F5
310
F5F5F5F5F5F5F5F5F5F5F5F5F5E2F5F5F5F5F5F5F5F5F5F5F5F5F5F5F5F5F5F5F5F5F5F5F5F5F5F5F5F5F5F5F5F5F5F5F5F5F5F5F5F5F5F5F5F5F5F5F5F5F5F5F5F5F5F5F5F5F5F5F5F5F5F5F5F5F5F5F5F5F5F5F5F5F5F5F5F5F5F5F5F5F5F5F5F5F5F5F5F5F5F5F5F5F5F5F5F5F5F5F5F5F5F5F5F5F5F5F5F5F5F5F5F5F5
310
F5F5F5F5F5F5F5F5F5F5F5F5F5F5F5F5F5F5F5F5F5F5E2F5F5F5F5F5F5F5F5F5F5F5F5F5F5F5F5E2F5F5F5E2E2EFF5F5F5E2F5F5F5F5F5F5F5F5F5F5F5F5F5F5F5F5E2F5F5F5F5F5F5F5F5F5F5F5F5F5F5F5F5F5F5F5F5F5F5F5F5F5F5F5F5F5F5F5F5F5F5F5F5F5F5F5F5F5F5F5F5F5F5F5F5F5F5F5F5F5F5F5F5F5F5F5F5
310
F5F5F5F5F5F5F5F5F5F5F5F5F5F5F5F5F5F5F5F5F5F5F5F5F5F5F5F5F5F5F5F5F5F5F5F5F5F5F5F5F5F5F5F5F5F5F5F5F5F5F5F5F5F5F5F5F5F5F5F5F5F5F5F5F5F5F5F5F5F5F5F5F5F5F5E2F5F5F5F5F5F5F5F5F5F5F5F5F5F5F5F5E2F5F5F5E2E2EFF5F5F5E2F5F5F5F5F5F5F5F5F5F5F5F5F5F5F5F5E2F5F5F5F5F5F5F5
310
F5F5F5F5F5F5F5F5F5F5F5F5F5F5F5F5F5F5F5F5F5F5F5F5F5F5F5F5F5F5F5F5F5F5F5F5F5F5F5F5F5F5F5F5F5F5F5F5F5F5F5F5F5F5F5F5F5F5F5F5F5F5F5F5F5F5F5F5F5F5F5F5F5F5F5F5F5F5F5F5F5F5F5F5F5F5F5F5F5F5F5F5F5F5F5F5F5F5F5F5F5F5F5F5F5F5F5F5F5F5F5F5F5F5F5F5F5F5F5F5F5F5F5F5F5F5F5
310
F5E2F5F5F5F5F5F5F5F5F5F5F5F5F5F5F5F5E2F5F5F5E2E2EFF5F5F5E2F5F5F5F5F5F5F5F5F5F5F5F5F5F5F5F5E2F5F5F5F5F5F5F5F5F5F5F5F5F5F5F5F5F5F5F5F5F5F5F5F5F5F5F5F5F5F5F5F5F5F5F5F5F5F5F5F5F5F5F5F5F5F5F5F5F5F5F5F5F5F5F5F5F5F5F5F5F5F5F5F5F5F5F5F5F5F5F5F5F5F5F5F5F5F5F5F5F5
310
F5F5F5F5F5F5F5F5F5F5F5F5F5F5F5F5F5F5F5F5F5F5F5F5F5F5F5F5F5F5F5F5F5F5F5F5F5F5F5F5F5F5F5F5F5F5F5F5F5F5F5F5F5F5E2F5F5F5F5F5F5F5F5F5F5F5F5F5F5F5F5E2F5F5F5E2E2EFF5F5F5E2F5F5F5F5F5F5F5F5F5F5F5F5F5F5F5F5E2F5F5F5F5F5F5F5F5F5F5F5F5F5F5F5F5F5F5F5F5F5F5F5F5F5F5F5F5
310
F5F5F5F5F5F5F5F5F5F5F5F5F5F5F5F5F5F5F5F5F5F5F5F5F5F5F5F5F5F5F5F5F5F5F5F5F5F5F5F5F5F5F5F5F5F5F5F5F5F5F5F5F5F5F5F5F5F5F5F5F5F5F5F5F5F5F5F5F5F5F5F5F5F5F5F5F5F5F5F5F5F5F5F5F5F5F5F5F5F5F5F5F5F5F5F5F5F5F5F5F5F5F5F5F5F5F5E2F5F5F5F5F5F5F5F5F5F5F5F5F5F5F5F5E2F5F5
310
F5E2E2EFF5F5F5E2F5F5F5F5F5F5F5F5F5F5F5F5F5F5F5F5E2F5F5F5F5F5F5F5F5F5F5F5F5F5F5F5F5F5F5F5F5F5F5F5F5F5F5F5F5F5F5F5F5F5F5F5F5F5F5F5F5F5F5F5F5F5F5F5F5F5F5F5F5F5F5F5F5F5F5F5F5F5F5F5F5F5F5F5F5F5F5F5F5F5F5F5F5F5F5F5F5F5F5F5F5F5F5F5F5F5F5F5F5F5F5F5F5F5F5F5F5F5F5
310
F5F5F5F5F5F5F5F5F5F5F5F5F5F5F5F5F5F5F5F5F5F5F5F5F5F5F5F5F5F5F5F5F5E2F5F5F5F5F5F5F5F5F5F5F5F5F5F5F5F5E2F5F5F5E2E2EFF5F5F5E2F5F5F5F5F5F5F5F5F5F5F5F5F5F5F5F5E2F5F5F5F5F5F5F5F5F5F5F5F5F5F5F5F5F5F5F5F5F5F5F5F5F5F5F5F5F5F5F5F5F5F5F5F5F5F5F5F5F5F5F5F5F5F5F5F5F5
310
F5F5F5F5F5F5F5F5F5F5F5F5F5F5F5F5F5F5F5F5F5F5F5F5F5F5F5F5F5F5F5F5F5F5F5F5F5F5F5F5F5F5F5F5F5F5F5F5F5F5F5F5F5F5F5F5F5F5F5F5F5F5F5F5F5F5F5F5F5F5F5F5F5F5F5F5F5F5F5F5F5F5F5F5F5F5E2F5F5F5F5F5F5F5F5F5F5F5F5F5F5F5F5E2F5F5F5E2E2EFF5F5F5E2F5F5F5F5F5F5F5F5F5F5F5F5F5
310
F5F5F5E2F5F5F5F5F5F5F5F5F5F5F5F5F5F5F5F5F5F5F5F5F5F5F5F5F5F5F5F5F5F5F5F5F5F5F5F5F5F5F5F5F5F5F5F5F5F5F5F5F5F5F5F5F5F5F5F5F5F5F5F5F5F5F5F5F5F5F5F5F5F5F5F5F5F5F5F5F5F5F5F5F5F5F5F5F5F5F5F5F5F5F5F5F5F5F5F5F5F5F5F5F5F5F5F5F5F5F5F5F5F5F5F5F5F5F5F5F5F5F5F5F5F5F5
310
F5F5F5F5F5F5F5F5F5F5F5F5E2F5F5F5F5F5F5F5F5F5F5F5F5F5F5F5F5E2F5F5F5E2E2EFF5F5F5E2F5F5F5F5F5F5F5F5F5F5F5F5F5F5F5F5E2F5F5F5F5F5F5F5F5F5F5F5F5F5F5F5F5F5F5F5F5F5F5F5F5F5F5F5F5F5F5F5F5F5F5F5F5F5F5F5F5F5F5F5F5F5F5F5F5F5F5F5F5F5F5F5F5F5F5F5F5F5F5F5F5F5F5F5F5F5F5
310
F5F5F5F5F5F5F5F5F5F5F5F5F5F5F5F5F5F5F5F5F5F5F5F5F5F5F5F5F5F5F5F5F5F5F5F5F5F5F5F5F5F5F5F5F5F5F5F5F5F5F5F5F5F5F5F5F5F5F5F5F5F5F5F5F5E2F5F5F5F5F5F5F5F5F5F5F5F5F5F5F5F5E2F5F5F5E2E2EFF5F5F5E2F5F5F5F5F5F5F5F5F5F5F5F5F5F5F5F5E2F5F5F5F5F5F5F5F5F5F5F5F5F5F5F5F5F5
310
F5F5F5F5F5F5F5F5F5F5F5F5F5F5F5F5F5F5F5F5F5F5F5F5F5F5F5F5F5F5F5F5F5F5F5F5F5F5F5F5F5F5F5F5F5F5F5F5F5F5F5F5F5F5F5F5F5F5F5F5F5F5F5F5F5F5F5F5F5F5F5F5F5F5F5F5F5F5F5F5F5F5F5F5F5F5F5F5F5F5F5F5F5F5F5F5F5F5F5F5F5F5F5F5F5F5F5F5F5F5F5F5F5F5F5F5F5F5E2F5F5F5F5F5F5F5F5
310
F5F5F5F5F5F5F5F5E2F5F5F5E2E2EFF5F5F5E2F5F5F5F5F5F5F5F5F5F5F5F5F5F5F5F5E2F5F5F5F5F5F5F5F5F5F5F5F5F5F5F5F5F5F5F5F5F5F5F5F5F5F5F5F5F5F5F5F5F5F5F5F5F5F5F5F5F5F5F5F5F5F5F5F5F5F5F5F5F5F5F5F5F5F5F5F5F5F5F5F5F5F5F5F5F5F5F5F5F5F5F5F5F5F5F5F5F5F5F5F5F5F5F5F5F5F5F5
310
F5F5F5F5F5F5F5F5F5F5F5F5F5F5F5F5F5F5F5F5F5F5F5F5F5F5F5F5F5F5F5F5F5F5F5F5F5F5F5F5F5F5F5F5E2F5F5F5F5F5F5F5F5F5F5F5F5F5F5F5F5E2F5F5F5E2E2EFF5F5F5E2F5F5F5F5F5F5F5F5F5F5F5F5F5F5F5F5E2F5F5F5F5F5F5F5F5F5F5F5F5F5F5F5F5F5F5F5F5F5F5F5F5F5F5F5F5F5F5F5F5F5F5F5F5F5F5
310
F5F5F5F5F5F5F5F5F5F5F5F5F5F5F5F5F5F5F5F5F5F5F5F5F5F5F5F5F5F5F5F5F5F5F5F5F5F5F5F5F5F5F5F5F5F5F5F5F5F5F5F5F5F5F5F5F5F5F5F5F5F5F5F5F5F5F5F5F5F5F5F5F5F5F5F5F5F5F5F5F5F5F5F5F5F5F5F5F5F5F5F5F5F5F5F5F5E2F5F5F5F5F5F5F5F5F5F5F5F5F5F5F5F5E2F5F5F5E2E2EFF5F5F5E2F5F5
310
F5F5F5F5F5F5F5F5F5F5F5F5F5F5E2F5F5F5F5F5F5F5F5F5F5F5F5F5F5F5F5F5F5F5F5F5F5F5F5F5F5F5F5F5F5F5F5F5F5F5F5F5F5F5F5F5F5F5F5F5F5F5F5F5F5F5F5F5F5F5F5F5F5F5F5F5F5F5F5F5F5F5F5F5F5F5F5F5F5F5F5F5F5F5F5F5F5F5F5F5F5F5F5F5F5F5F5F5F5F5F5F5F5F5F5F5F5F5F5F5F5F5F5F5F5F5F5
310
F5F5F5F5F5F5F5F5F5F5F5F5F5F5F5F5F5F5F5F5F5F5F5E2F5F5F5F5F5F5F5F5F5F5F5F5F5F5F5F5E2F5F5F5E2E2EFF5F5F5E2F5F5F5F5F5F5F5F5F5F5F5F5F5F5F5F5E2F5F5F5F5F5F5F5F5F5F5F5F5F5F5F5F5F5F5F5F5F5F5F5F5F5F5F5F5F5F5F5F5F5F5F5F5F5F5F5F5F5F5F5F5F5F5F5F5F5F5F5F5F5F5F5F5F5F5F5
310
F5F5F5F5F5F5F5F5F5F5F5F5F5F5F5F5F5F5F5F5F5F5F5F5F5F5F5F5F5F5F5F5F5F5F5F5F5F5F5F5F5F5F5F5F5F5F5F5F5F5F5F5F5F5F5F5F5F5F5F5F5F5F5F5F5F5F5F5F5F5F5F5F5F5F5F5E2F5F5F5F5F5F5F5F5F5F5F5F5F5F5F5F5E2F5F5F5E2E2EFF5F5F5E2F5F5F5F5F5F5F5F5F5F5F5F5F5F5F5F5E2F5F5F5F5F5F5
310
F5F5F5F5F5F5F5F5F5F5F5F5F5F5F5F5F5F5F5F5F5F5F5F5F5F5F5F5F5F5F5F5F5F5F5F5F5F5F5F5F5F5F5F5F5F5F5F5F5F5F5F5F5F5F5F5F5F5F5F5F5F5F5F5F5F5F5F5F5F5F5F5F5F5F5F5F5F5F5F5F5F5F5F5F5F5F5F5F5F5F5F5F5F5F5F5F5F5F5F5F5F5F5F5F5F5F5F5F5F5F5F5F5F5F5F5F5F5F5F5F5F5F5F5F5F5F5
310
F5F5E2F5F5F5F5F5F5F5F5F5F5F5F5F5F5F5F5E2F5F5F5E2E2EFF5F5F5F5F5F5F5F5F5F5F5F5F5F5F5F5F5F5F5F5E2F5F5F5F5F5F5F5F5F5F5F5F5F5F5F5F5F5F5F5F5F5F5F5F5F5F5F5F5F5F5F5F5F5F5F5F5F5F5F5F5F5F5F5F5F5F5F5F5F5F5F5F5F5F5F5F5F5F5F5F5F5F5F5F5F5F5F5F5F5F5F5F5F5F5F5F5F5F5F5F5
310
F5F5F5F5F5F5F5F5F5F5F5F5F5F5F5F5F5F5F5F5F5F5F5F5F5F5F5F5F5F5F5F5F5F5F5F5F5F5F5F5F5F5F5F5F5F5F5F5F5F5F5F5F5F5F5E2F5F5F5F5F5F5F5F5F5F5F5F5F5F5F5F5F5F5F5F5E2E2EFF5F5F5F5F5F5F5F5F5F5F5F5F5F5F5F5F5F5F5F5E2F5F5F5F5F5F5F5F5F5F5F5F5F5F5F5F5F5F5F5F5F5F5F5F5F5F5F5
310
F5F5F5F5F5F5F5F5F5F5F5F5F5F5F5F5F5F5F5F5F5F5F5F5F5F5F5F5F5F5F5F5F5F5F5F5F5F5F5F5F5F5F5F5F5F5F5F5F5F5F5F5F5F5F5F5F5F5F5F5F5F5F5F5F5F5F5F5F5F5F5F5F5F5F5F5F5F5F5F5F5F5F5F5F5F5F5F5F5F5F5F5F5F5F5F5F5F5F5F5F5F5F5F5F5F5F5F5E2F5F5F5F5F5F5F5F5F5F5F5F5F5F5F5F5F5F5
310
F5F5E2E2EFF5F5F5F5F5F5F5F5F5F5F5F5F5F5F5F5F5F5F5F5E2F5F5F5F5F5F5F5F5F5F5F5F5F5F5F5F5F5F5F5F5F5F5F5F5F5F5F5F5F5F5F5F5F5F5F5F5F5F5F5F5F5F5F5F5F5F5F5F5F5F5F5F5F5F5F5F5F5F5F5F5F5F5F5F5F5F5F5F5F5F5F5F5F5F5F5F5F5F5F5F5F5F5F5F5F5F5F5F5F5F5F5F5F5F5F5F5F5F5F5F5F5
310
F5F5F5F5F5F5F5F5F5F5F5F5F5F5F5F5F5F5F5F5F5F5F5F5F5F5F5F5F5F5F5F5F5F5E2F5F5F5F5F5F5F5F5F5F5F5F5F5F5F5F5F5F5F5F5E2E2EFF5F5F5F5F5F5F5F5F5F5F5F5F5F5F5F5F5F5F5F5E2F5F5F5F5F5F5F5F5F5F5F5F5F5F5F5F5F5F5F5F5F5F5F5F5F5F5F5F5F5F5F5F5F5F5F5F5F5F5F5F5F5F5F5F5F5F5F5F5
310
F5F5F5F5F5F5F5F5F5F5F5F5F5F5F5F5F5F5F5F5F5F5F5F5F5F5F5F5F5F5F5F5F5F5F5F5F5F5F5F5F5F5F5F5F5F5F5F5F5F5F5F5F5F5F5F5F5F5F5F5F5F5F5F5F5F5F5F5F5F5F5F5F5F5F5F5F5F5F5F5F5F5F5F5F5F5F5E2F5F5F5F5F5F5F5F5F5F5F5F5F5F5F5F5F5F5F5F5E2E2EFF5F5F5F5F5F5F5F5F5F5F5F5F5F5F5F5
310
F5F5F5F5E2E2E2E2E2E2E2E2E2E2E2E2E2E2E2E2E2E2E2E2E2E2E2E2E2E2E2E2E2E2E2E2E2E2E2E2E2E2E2E2E2E2E2E2E2E2E2E2E2E2E2E2E2E2E2E2E2E2E2E2E2E2E2E2E2E2E2E2E2E2E2E2E2E2E2E2E2E2E2E2E2E2E2E2E2E2E2E2E2E2E2E2E2E2E2E2E2E2E2E2E2E2E2E2E2E2E2E2E2E2E2E2E2E2E2E2E2E2E2E2E2E2E2
310
E2E2E2E2E2E2E2E2E2E2E2E2E2E2F5F5F5F5F5F5F5F5F5F5F5F5F5F5F5F5F5F5F5F5E2E2EFF5F5F5F5F5F5F5F5F5F5F5F5F5F5F5F5F5F5F5F5F5F5F5F5F5F5F5F5F5F5F5F5F5F5F5F5F5F5F5F5F5F5F5F5F5F5F5F5F5F5F5F5F5F5F5F5F5F5F5F5F5F5F5F5F5F5F5F5F5F5F5F5F5F5F5F5F5F5F5F5F5F5F5F5F5F5F5F5F5F5
310
F5F5F5F5F5F5F5F5F5F5F5F5F5F5F5F5F5F5F5F5F5F5F5F5F5F5F5F5F5F5F5F5F5F5F5F5F5F5F5F5F5F5F5F5F5F5F5F5F5F5F5F5F5F5F5F5F5F5F5F5F5F5F5F5F5F5F5F5F5F5F5F5F5F5F5F5F5F5F5F5F5F5F5F5F5F5F5E2E2EFF5F5F5F5F5F5F5F5F5F5F5F5F5F5F5F5F5F5F5F5F5F5F5F5F5F5F5F5F5F5F5F5F5F5F5F5F5
310
F5F5F5F5F5F5F5F5F5F5F5F5F5F5F5F5F5F5F5F5F5F5F5F5F5F5F5F5F5F5F5F5F5F5F5F5F5F5F5F5F5F5F5F5F5F5F5F5F5F5F5F5F5F5F5F5F5F5F5F5F5F5F5F5F5F5F5F5F5F5F5F5F5F5F5F5F5F5F5F5F5F5F5F5F5F5F5F5F5F5F5F5F5F5F5F5F5F5F5F5F5F5F5F5F5F5F5F5F5F5F5F5F5F5F5F5F5F5F5F5F5F5F5F5F5F5F5
310
F5F5F5F5F5F5F5F5F5F5F5F5F5E2E2EFF5F5F5F5F5F5F5F5F5F5F5F5F5F5F5F5F5F5F5F5F5F5F5F5F5F5F5F5F5F5F5F5F5F5F5F5F5F5F5F5F5F5F5F5F5F5F5F5F5F5F5F5F5F5F5F5F5F5F5F5F5F5F5F5F5F5F5F5F5F5F5F5F5F5F5F5F5F5F5F5F5F5F5F5F5F5F5F5F5F5F5F5F5F5F5F5F5F5F5F5F5F5F5F5F5F5F5F5F5F5F5
310
F5F5F5F5F5F5F5F5F5F5F5F5F5F5F5F5F5F5F5F5F5F5F5F5F5F5F5F5F5F5F5F5F5F5F5F5F5F5F5F5F5F5F5F5F5F5F5F5F5F5F5F5F5F5F5F5F5F5F5F5F5F5F5F5F5F5E2E2EFF5F5F5F5F5F5F5F5F5F5F5F5F5F5F5F5F5F5F5F5F5F5F5F5F5F5F5F5F5F5F5F5F5F5F5F5F5F5F5F5F5F5F5F5F5F5F5F5F5F5F5F5F5F5F5F5F5F5
310
F5F5F5F5F5F5F5F5F5F5F5F5F5F5F5F5F5F5F5F5F5F5F5F5F5F5F5F5F5F5F5F5F5F5F5F5F5F5F5F5F5F5F5F5F5F5F5F5F5F5F5F5F5F5F5F5F5F5F5F5F5F5F5F5F5F5F5F5F5F5F5F5F5F5F5F5F5F5F5F5F5F5F5F5F5F5F5F5F5F5F5F5F5F5F5F5F5F5F5F5F5F5F5F5F5F5F5F5F5F5F5F5F5F5F5F5F5F5F5E2E2EFF5F5F5E2F5
310
F5F5F5F5F5F5F5F5F5F5F5F5F5F5F5F5F5F5F5F5F5F5F5F5F5F5F5F5F5F5F5F5F5F5F5F5F5F5F5F5F5F5F5F5F5F5F5F5F5F5F5F5F5F5F5F5F5F5F5F5F5F5F5F5F5F5F5F5F5F5F5F5F5F5F5F5F5F5F5F5F5F5F5F5F5F5F5F5F5F5F5F5F5F5F5F5F5F5F5F5F5F5F5F5F5F5F5F5F5F5F5F5F5F5F5F5F5F5F5F5F5F5F5F5F5F5F5
310
F5F5F5F5F5F5F5F5F5F5F5F5F5F5F5F5F5F5F5F5F5F5F5F5F5F5F5F5F5F5F5F5F5F5F5F5F5F5F5F5F5E2F5F5F5E2E2EFF5F5F5E2F5F5F5F5F5F5F5F5F5F5F5F5F5F5F5F5F5F5F5F5F5F5F5F5F5F5F5F5F5F5F5F5F5F5F5F5F5F5F5F5F5F5F5F5F5F5F5F5F5F5F5F5F5F5F5F5F5F5F5F5F5F5F5F5F5F5F5F5F5F5F5F5F5F5F5
310
F5F5F5F5F5F5F5F5F5F5F5F5F5F5F5F5F5F5F5F5F5F5F5F5F5F5F5F5F5F5F5F5F5F5F5F5F5F5F5F5F5F5F5F5F5F5F5F5F5F5F5F5F5F5F5F5F5F5F5F5F5F5F5F5F5F5F5F5F5F5F5F5F5F5F5F5F5F5F5F5F5F5F5F5F5F5F5F5F5F5F5F5F5F5E2F5F5F5E2E2EFF5F5F5E2F5F5F5F5F5F5F5F5F5F5F5F5F5F5F5F5F5F5F5F5F5F5
310
F5F5F5F5F5F5F5F5F5F5F5F5F5F5F5F5F5F5F5F5F5F5F5F5F5F5F5F5F5F5F5F5F5F5F5F5F5F5F5F5F5F5F5F5F5F5F5F5F5F5F5F5F5F5F5F5F5F5F5F5F5F5F5F5F5F5F5F5F5F5F5F5F5F5F5F5F5F5F5F5F5F5F5F5F5F5F5F5F5F5F5F5F5F5F5F5F5F5F5F5F5F5F5F5F5F5F5F5F5F5F5F5F5F5F5F5F5F5F5F5F5F5F5F5F5F5F5
310
F5F5F5F5F5F5F5F5F5F5F5F5F5F5F5F5F5F5F5F5E2F5F5F5E2E2EFF5F5F5E2F5F5F5F5F5F5F5F5F5F5F5F5F5F5F5F5F5F5F5F5F5F5F5F5F5F5F5F5F5F5F5F5F5F5F5F5F5F5F5F5F5F5F5F5F5F5F5F5F5F5F5F5F5F5F5F5F5F5F5F5F5F5F5F5F5F5F5F5F5F5F5F5F5F5F5F5F5F5F5F5F5F5F5F5F5F5F5F5F5F5F5F5F5F5F5F5
310
F5F5F5F5F5F5F5F5F5F5F5F5F5F5F5F5F5F5F5F5F5F5F5F5F5F5F5F5F5F5F5F5F5F5F5F5F5F5F5F5F5F5F5F5F5F5F5F5F5F5F5F5F5F5F5F5F5F5F5F5F5F5F5F5F5F5F5F5F5F5F5F5F5E2F5F5F5E2E2EFF5F5F5E2F5F5F5F5F5F5F5F5F5F5F5F5F5F5F5F5F5F5F5F5F5F5F5F5F5F5F5F5F5F5F5F5F5F5F5F5F5F5F5F5F5F5F5
310
F5F5F5F5F5F5F5F5F5F5F5F5F5F5F5F5F5F5F5F5F5F5F5F5F5F5F5F5F5F5F5F5F5F5F5F5F5F5F5F5F5F5F5F5F5F5F5F5F5F5F5F5F5F5F5F5F5F5F5F5F5F5F5F5F5F5F5F5F5F5F5F5F5F5F5F5F5F5F5F5F5F5F5F5F5F5F5F5F5F5F5F5F5F5F5F5F5F5F5F5F5F5F5F5F5F5F5F5F5F5F5F5F5F5F5F5F5F5F5F5F5F5F5F5F5F5E2
310
F5F5F5E2E2EFF5F5F5E2F5F5F5F5F5F5F5F5F5F5F5F5F5F5F5F5F5F5F5F5F5F5F5F5F5F5F5F5F5F5F5F5F5F5F5F5F5F5F5F5F5F5F5F5F5F5F5F5F5F5F5F5F5F5F5F5F5F5F5F5F5F5F5F5F5F5F5F5F5F5F5F5F5F5F5F5F5F5F5F5F5F5F5F5F5F5F5F5F5F5F5F5F5F5F5F5F5F5F5F5F5F5F5F5F5F5F5F5F5F5F5F5F5F5F5F5F5
310
F5F5F5F5F5F5F5F5F5F5F5F5F5F5F5F5F5F5F5F5F5F5F5F5F5F5F5F5F5F5F5F5F5F5F5F5F5F5F5F5F5F5F5F5F5F5F5F5F5F5F5F5E2F5F5F5E2E2EFF5F5F5E2F5F5F5F5F5F5F5F5F5F5F5F5F5F5F5F5F5F5F5F5F5F5F5F5F5F5F5F5F5F5F5F5F5F5F5F5F5F5F5F5F5F5F5F5F5F5F5F5F5F5F5F5F5F5F5F5F5F5F5F5F5F5F5F5
310
F5F5F5F5F5F5F5F5F5F5F5F5F5F5F5F5F5F5F5F5F5F5F5F5F5F5F5F5F5F5F5F5F5F5F5F5F5F5F5F5F5F5F5F5F5F5F5F5F5F5F5F5F5F5F5F5F5F5F5F5F5F5F5F5F5F5F5F5F5F5F5F5F5F5F5F5F5F5F5F5F5F5F5F5F5F5F5F5F5F5F5F5F5F5F5F5F5F5F5F5F5F5F5F5F5E2F5F5F5E2E2EFF5F5F5E2F5F5F5F5F5F5F5F5F5F5F5
310
F5F5F5F5F5F5F5F5F5F5F5F5F5F5F5F5F5F5F5F5F5F5F5F5F5F5F5F5F5F5F5F5F5F5F5F5F5F5F5F5F5F5F5F5F5F5F5F5F5F5F5F5F5F5F5F5F5F5F5F5F5F5F5F5F5F5F5F5F5F5F5F5F5F5F5F5F5F5F5F5F5F5F5F5F5F5F5F5F5F5F5F5F5F5F5F5F5F5F5F5F5F5F5F5F5F5F5F5F5F5F5F5F5F5F5F5F5F5F5F5F5F5F5F5F5F5F5
310
F5F5F5F5F5F5F5F5F5F5F5F5F5F5F5F5F5F5F5F5F5F5F5F5F5F5F5F5F5F5F5E2F5F5F5E2E2EFF5F5F5E2E2E2E2E2E2E2E2F5F5F5F5F5F5F5F5F5E2E2E2E2E2E2E2E2E2E2E2E2E2E2E2E2F5F5F5F5F5F5F5F5E2E2E2E2E2E2E2E2E2E2E2E2E2E2E2E2F5F5F5F5F5F5F5F5F5E2E2E2E2E2E2E2E2E2E2E2E2E2E2E2F5F5F5F5F5
310
F5F5F5F5E2E2E2E2E2E2E2E2E2E2E2E2E2E2E2F5F5F5F5F5F5F5F5F5E2E2E2E2E2E2E2E2E2E2E2E2E2E2E2E2F5F5F5F5F5F5F5F5E2E2E2E2E2E2E2E2E2E2E2E2E2E2E2E2F5F5F5F5F5F5F5F5F5E2E2E2E2E2E2E2E2F5F5F5E2E2EFF5F5F5F5F5F5F5F5F5F5F5F5F5F5F5F5F5F5F5F5F5F5F5F5F5F5F5F5F5F5F5F5F5F5F5F5
310
F5F5F5F5F5F5F5F5F5F5F5F5F5F5F5F5F5F5F5F5F5F5F5F5F5F5F5F5F5F5F5F5F5F5F5F5F5F5F5F5F5F5F5F5F5F5F5F5F5F5F5F5F5F5F5F5F5F5F5F5F5F5F5F5F5F5F5F5F5F5F5F5F5F5F5F5F5F5F5F5F5F5F5F5F5F5F5F5F5F5F5F5F5F5F5F5F5F5F5F5F5F5F5F5F5F5F5F5F5F5F5F5F5F5F5F5F5F5F5F5F5F5F5F5F5F5F5
310
F5F5F5F5F5F5F5F5F5F5F5F5F5F5E2E2EFF5F5F5F5F5F5F5F5F5F5F5F5F5F5F5F5F5F5F5F5F5F5F5F5F5F5F5F5F5F5F5F5F5F5F5F5F5F5F5F5F5F5F5F5F5F5F5F5F5F5F5F5F5F5F5F5F5F5F5F5F5F5F5F5F5F5F5F5F5F5F5F5F5F5F5F5F5F5F5F5F5F5F5F5F5F5F5F5F5F5F5F5F5F5F5F5F5F5F5F5F5F5F5F5F5F5F5F5F5F5
310
F5F5F5F5F5F5F5F5F5F5F5F5F5F5F5F5F5F5F5F5F5F5F5F5F5F5F5F5F5F5F5F5F5F5F5F5F5F5F5F5F5F5F5F5F5F5F5F5F5F5F5F5F5F5F5F5F5F5F5F5F5F5F5F5F5F5F5E2EFEFF5F5F5F5F5F5F5F5F5F5F5F5F5F5F5F5F5F5F5F5F5F5F5F5F5F5F5F5F5F5F5F5F5F5F5F5F5F5F5F5F5F5F5F5F5F5F5F5F5F5F5F5F5F5F5F5F5
310
F5F5F5F5F5F5F5F5F5F5F5F5F5F5F5F5F5F5F5F5F5F5F5F5F5F5F5F5F5F5F5F5F5F5F5F5F5F5F5F5F5F5F5F5F5F5F5F5F5F5F5F5F5F5F5F5F5F5F5F5F5F5F5F5F5F5F5F5F5F5F5F5F5F5F5F5F5F5F5F5F5F5F5F5F5F5F5F5F5F5F5F5F5F5F5F5F5F5F5F5F5F5F5F5F5F5F5F5F5F5F5F5F5F5F5F5F5F5F5F5E2EFEFE2E2E2E2
310
E2E2E2E2E2E2E2E2E2E2E2E2E2E2E2E2E2E2E2E2E2E2E2E2E2E2E2E2E2E2E2E2E2E2E2E2E2E2E2E2E2E2E2E2E2E2E2E2E2E2E2E2E2E2E2E2E2E2E2E2E2E2E2E2E2E2E2E2E2E2E2E2E2E2E2E2E2E2E2E2E2E2E2E2E2E2E2E2E2E2E2E2E2E2E2E2E2E2E2E2E2E2E2E2E2E2E2E2E2E2E2E2E2E2E2E2E2E2E2E2E2E2E2E2E2E2E2
310
E2E2E2E2E2E2E2E2E2E2E2E2E2E2E2E2E2E2E2E2E2E2E2E2E2E2E2E2E2E2E2E2E2E2E2E2E2E2E2E2E2E2E2E2E2E2E2EFEF
  0
ENDSEC
  0
EOF
