  0
SECTION
  2
HEADER
  9
$ACADVER
  1
AC1018
  9
$ACADMAINTVER
 70
     0
  9
$DWGCODEPAGE
  3
ANSI_1252
  9
$AUTHOR
  1
g6edxjah
  9
$LASTSAVEDBY
  1
g6edxjah
  9
$INSBASE
 10
0.0
 20
0.0
 30
0.0
  9
$EXTMIN
 10
11.52226
 20
-11.55349
 30
0.0
  9
$EXTMAX
 10
22.685344
 20
-3.140417
 30
0.0
  9
$LIMMIN
 10
-10.852895
 20
-35.30365
  9
$LIMMAX
 10
45.060499
 20
20.609744
  9
$ORTHOMODE
 70
     0
  9
$REGENMODE
 70
     1
  9
$FILLMODE
 70
     1
  9
$QTEXTMODE
 70
     0
  9
$MIRRTEXT
 70
     0
  9
$LTSCALE
 40
1.0
  9
$ATTMODE
 70
     1
  9
$TEXTSIZE
 40
0.18
  9
$TRACEWID
 40
0.05
  9
$TEXTSTYLE
  7
Standard
  9
$CLAYER
  8
DIM
  9
$CELTYPE
  6
Continuous
  9
$CECOLOR
 62
     7
  9
$CELTSCALE
 40
1.0
  9
$DISPSILH
 70
     0
  9
$DIMSCALE
 40
1.0
  9
$DIMASZ
 40
0.18
  9
$DIMEXO
 40
0.09
  9
$DIMDLI
 40
0.0
  9
$DIMRND
 40
0.0
  9
$DIMDLE
 40
0.0
  9
$DIMEXE
 40
0.09
  9
$DIMTP
 40
0.0
  9
$DIMTM
 40
0.0
  9
$DIMTXT
 40
0.18
  9
$DIMCEN
 40
0.09
  9
$DIMTSZ
 40
0.0
  9
$DIMTOL
 70
     0
  9
$DIMLIM
 70
     0
  9
$DIMTIH
 70
     0
  9
$DIMTOH
 70
     0
  9
$DIMSE1
 70
     0
  9
$DIMSE2
 70
     0
  9
$DIMTAD
 70
     1
  9
$DIMZIN
 70
    11
  9
$DIMBLK
  1
TerminatorOpen_0.5
  9
$DIMASO
 70
     1
  9
$DIMSHO
 70
     1
  9
$DIMPOST
  1

  9
$DIMAPOST
  1

  9
$DIMALT
 70
     0
  9
$DIMALTD
 70
     4
  9
$DIMALTF
 40
25.4
  9
$DIMLFAC
 40
1.0
  9
$DIMTOFL
 70
     0
  9
$DIMTVP
 40
0.0
  9
$DIMTIX
 70
     0
  9
$DIMSOXD
 70
     0
  9
$DIMSAH
 70
     0
  9
$DIMBLK1
  1

  9
$DIMBLK2
  1

  9
$DIMSTYLE
  2
Standard
  9
$DIMCLRD
 70
     0
  9
$DIMCLRE
 70
     0
  9
$DIMCLRT
 70
     0
  9
$DIMTFAC
 40
1.0
  9
$DIMGAP
 40
0.09
  9
$DIMJUST
 70
     0
  9
$DIMSD1
 70
     0
  9
$DIMSD2
 70
     0
  9
$DIMTOLJ
 70
     0
  9
$DIMTZIN
 70
    11
  9
$DIMALTZ
 70
    15
  9
$DIMALTTZ
 70
    15
  9
$DIMUPT
 70
     0
  9
$DIMDEC
 70
     4
  9
$DIMTDEC
 70
     4
  9
$DIMALTU
 70
     2
  9
$DIMALTTD
 70
     4
  9
$DIMTXSTY
  7
Style-Arial
  9
$DIMAUNIT
 70
     0
  9
$DIMADEC
 70
     4
  9
$DIMALTRND
 40
0.0
  9
$DIMAZIN
 70
     3
  9
$DIMDSEP
 70
    46
  9
$DIMATFIT
 70
     1
  9
$DIMFRAC
 70
     0
  9
$DIMLDRBLK
  1
TerminatorOpen_0.5
  9
$DIMLUNIT
 70
     2
  9
$DIMLWD
 70
    -2
  9
$DIMLWE
 70
    -2
  9
$DIMTMOVE
 70
     0
  9
$LUNITS
 70
     2
  9
$LUPREC
 70
     4
  9
$SKETCHINC
 40
0.1
  9
$FILLETRAD
 40
0.0
  9
$AUNITS
 70
     0
  9
$AUPREC
 70
     4
  9
$MENU
  1
.
  9
$ELEVATION
 40
0.0
  9
$PELEVATION
 40
0.0
  9
$THICKNESS
 40
0.0
  9
$LIMCHECK
 70
     0
  9
$CHAMFERA
 40
0.0
  9
$CHAMFERB
 40
0.0
  9
$CHAMFERC
 40
0.0
  9
$CHAMFERD
 40
0.0
  9
$SKPOLY
 70
     0
  9
$TDCREATE
 40
2455363.449642836
  9
$TDUCREATE
 40
2455363.657976169
  9
$TDUPDATE
 40
2455363.449642836
  9
$TDUUPDATE
 40
2455363.657976169
  9
$TDINDWG
 40
0.0
  9
$TDUSRTIMER
 40
0.0006630093
  9
$USRTIMER
 70
     1
  9
$ANGBASE
 50
0.0
  9
$ANGDIR
 70
     0
  9
$PDMODE
 70
     0
  9
$PDSIZE
 40
0.0
  9
$PLINEWID
 40
0.0
  9
$SPLFRAME
 70
     0
  9
$SPLINETYPE
 70
     6
  9
$SPLINESEGS
 70
     8
  9
$HANDSEED
  5
454
  9
$SURFTAB1
 70
     6
  9
$SURFTAB2
 70
     6
  9
$SURFTYPE
 70
     6
  9
$SURFU
 70
     6
  9
$SURFV
 70
     6
  9
$UCSBASE
  2

  9
$UCSNAME
  2

  9
$UCSORG
 10
0.0
 20
0.0
 30
0.0
  9
$UCSXDIR
 10
1.0
 20
0.0
 30
0.0
  9
$UCSYDIR
 10
0.0
 20
1.0
 30
0.0
  9
$UCSORTHOREF
  2

  9
$UCSORTHOVIEW
 70
     0
  9
$UCSORGTOP
 10
0.0
 20
0.0
 30
0.0
  9
$UCSORGBOTTOM
 10
0.0
 20
0.0
 30
0.0
  9
$UCSORGLEFT
 10
0.0
 20
0.0
 30
0.0
  9
$UCSORGRIGHT
 10
0.0
 20
0.0
 30
0.0
  9
$UCSORGFRONT
 10
0.0
 20
0.0
 30
0.0
  9
$UCSORGBACK
 10
0.0
 20
0.0
 30
0.0
  9
$PUCSBASE
  2

  9
$PUCSNAME
  2

  9
$PUCSORG
 10
0.0
 20
0.0
 30
0.0
  9
$PUCSXDIR
 10
1.0
 20
0.0
 30
0.0
  9
$PUCSYDIR
 10
0.0
 20
1.0
 30
0.0
  9
$PUCSORTHOREF
  2

  9
$PUCSORTHOVIEW
 70
     0
  9
$PUCSORGTOP
 10
0.0
 20
0.0
 30
0.0
  9
$PUCSORGBOTTOM
 10
0.0
 20
0.0
 30
0.0
  9
$PUCSORGLEFT
 10
0.0
 20
0.0
 30
0.0
  9
$PUCSORGRIGHT
 10
0.0
 20
0.0
 30
0.0
  9
$PUCSORGFRONT
 10
0.0
 20
0.0
 30
0.0
  9
$PUCSORGBACK
 10
0.0
 20
0.0
 30
0.0
  9
$USERI1
 70
     0
  9
$USERI2
 70
     0
  9
$USERI3
 70
     0
  9
$USERI4
 70
     0
  9
$USERI5
 70
     0
  9
$USERR1
 40
0.0
  9
$USERR2
 40
0.0
  9
$USERR3
 40
0.0
  9
$USERR4
 40
0.0
  9
$USERR5
 40
0.0
  9
$WORLDVIEW
 70
     1
  9
$SHADEDGE
 70
     3
  9
$SHADEDIF
 70
    70
  9
$TILEMODE
 70
     1
  9
$MAXACTVP
 70
    64
  9
$PINSBASE
 10
0.0
 20
0.0
 30
0.0
  9
$PLIMCHECK
 70
     0
  9
$PEXTMIN
 10
1.049744
 20
0.799667
 30
-0.001526
  9
$PEXTMAX
 10
9.450623
 20
7.200577
 30
0.0
  9
$PLIMMIN
 10
-0.25
 20
-0.25
  9
$PLIMMAX
 10
10.75
 20
8.25
  9
$UNITMODE
 70
     0
  9
$VISRETAIN
 70
     1
  9
$PLINEGEN
 70
     0
  9
$PSLTSCALE
 70
     0
  9
$TREEDEPTH
 70
  3020
  9
$CMLSTYLE
  2
Standard
  9
$CMLJUST
 70
     0
  9
$CMLSCALE
 40
1.0
  9
$PROXYGRAPHICS
 70
     1
  9
$MEASUREMENT
 70
     0
  9
$CELWEIGHT
370
    13
  9
$ENDCAPS
280
     0
  9
$JOINSTYLE
280
     0
  9
$LWDISPLAY
290
     1
  9
$INSUNITS
 70
     2
  9
$HYPERLINKBASE
  1

  9
$STYLESHEET
  1

  9
$XEDIT
290
     1
  9
$CEPSNTYPE
380
     0
  9
$PSTYLEMODE
290
     1
  9
$FINGERPRINTGUID
  2
{02C0BBB5-38A7-4FBF-829E-00875EC88963}
  9
$VERSIONGUID
  2
{82C521FC-BF81-46B3-825E-420B6BD93A99}
  9
$EXTNAMES
290
     1
  9
$PSVPSCALE
 40
0.0
  9
$OLESTARTUP
290
     0
  9
$SORTENTS
280
   127
  9
$INDEXCTL
280
     0
  9
$HIDETEXT
280
     1
  9
$XCLIPFRAME
290
     0
  9
$HALOGAP
280
     0
  9
$OBSCOLOR
 70
   257
  9
$OBSLTYPE
280
     0
  9
$INTERSECTIONDISPLAY
280
     0
  9
$INTERSECTIONCOLOR
 70
   257
  9
$DIMASSOC
280
     1
  9
$PROJECTNAME
  1

  0
ENDSEC
  0
SECTION
  2
CLASSES
  0
CLASS
  1
ACDBDICTIONARYWDFLT
  2
AcDbDictionaryWithDefault
  3
ObjectDBX Classes
 90
        0
 91
        3
280
     0
281
     0
  0
CLASS
  1
SORTENTSTABLE
  2
AcDbSortentsTable
  3
ObjectDBX Classes
 90
        0
 91
        3
280
     0
281
     0
  0
ENDSEC
  0
SECTION
  2
TABLES
  0
TABLE
  2
VPORT
  5
43A
330
0
100
AcDbSymbolTable
 70
     4
  0
VPORT
  5
49
330
43A
100
AcDbSymbolTableRecord
100
AcDbViewportTableRecord
  2
*ACTIVE
 70
     0
 10
0.0
 20
0.0
 11
1.0
 21
1.0
 12
17.103802
 22
-7.346953
 13
0.0
 23
0.0
 14
0.083333
 24
0.083333
 15
0.083333
 25
0.083333
 16
0.0
 26
0.0
 36
1.0
 17
0.0
 27
0.0
 37
0.0
 40
8.749596
 41
1.884937
 42
50.0
 43
0.0
 44
0.0
 50
0.0
 51
0.0
 71
     0
 72
   100
 73
     1
 74
     2
 75
     0
 76
     0
 77
     0
 78
     1
281
     0
 65
     1
110
0.0
120
0.0
130
0.0
111
1.0
121
0.0
131
0.0
112
0.0
122
1.0
132
0.0
 79
     0
146
0.0
  0
ENDTAB
  0
TABLE
  2
LTYPE
  5
421
330
0
100
AcDbSymbolTable
 70
     2
  0
LTYPE
  5
422
330
421
100
AcDbSymbolTableRecord
100
AcDbLinetypeTableRecord
  2
ByBlock
 70
     0
  3

 72
    65
 73
     0
 40
0.0
  0
LTYPE
  5
423
330
421
100
AcDbSymbolTableRecord
100
AcDbLinetypeTableRecord
  2
ByLayer
 70
     0
  3

 72
    65
 73
     0
 40
0.0
  0
LTYPE
  5
420
330
421
100
AcDbSymbolTableRecord
100
AcDbLinetypeTableRecord
  2
Continuous
 70
     0
  3
Solid line
 72
    65
 73
     0
 40
0.0
  0
LTYPE
  5
44E
330
421
100
AcDbSymbolTableRecord
100
AcDbLinetypeTableRecord
  2
DGN Style 2
 70
     0
  3
Dgn Style 2
 72
    65
 73
     2
 40
0.164924
 49
0.098955
 74
     0
 49
-0.06597
 74
     0
  0
ENDTAB
  0
TABLE
  2
LAYER
  5
41A
102
{ACAD_XDICTIONARY
360
41B
102
}
330
0
100
AcDbSymbolTable
 70
    64
  0
LAYER
  5
419
330
41A
100
AcDbSymbolTableRecord
100
AcDbLayerTableRecord
  2
0
 70
     0
 62
     7
  6
Continuous
370
    -3
390
41D
  0
LAYER
  5
7
330
41A
100
AcDbSymbolTableRecord
100
AcDbLayerTableRecord
  2
Level 1
 70
     0
 62
     7
  6
Continuous
370
     0
390
41D
  0
LAYER
  5
8
330
41A
100
AcDbSymbolTableRecord
100
AcDbLayerTableRecord
  2
2-30G
 70
     0
 62
     7
  6
Continuous
370
     0
390
41D
1001
AcAecLayerStandard
1000

1000
2-30G
  0
LAYER
  5
9
330
41A
100
AcDbSymbolTableRecord
100
AcDbLayerTableRecord
  2
BORDER
 70
     0
 62
     7
  6
Continuous
370
     0
390
41D
1001
AcAecLayerStandard
1000

1000
BORDER
  0
LAYER
  5
A
330
41A
100
AcDbSymbolTableRecord
100
AcDbLayerTableRecord
  2
DEFPOINTS
 70
     0
 62
     7
  6
Continuous
290
     0
370
     0
390
41D
1001
AcAecLayerStandard
1000

1000
DEFPOINTS
  0
LAYER
  5
B
330
41A
100
AcDbSymbolTableRecord
100
AcDbLayerTableRecord
  2
DIM
 70
     0
 62
     7
  6
Continuous
370
     0
390
41D
1001
AcAecLayerStandard
1000

1000
DIM
  0
LAYER
  5
C
330
41A
100
AcDbSymbolTableRecord
100
AcDbLayerTableRecord
  2
HATCH
 70
     0
 62
     7
  6
Continuous
370
     0
390
41D
1001
AcAecLayerStandard
1000

1000
HATCH
  0
LAYER
  5
D
330
41A
100
AcDbSymbolTableRecord
100
AcDbLayerTableRecord
  2
LEGEND
 70
     0
 62
     7
  6
Continuous
370
     0
390
41D
1001
AcAecLayerStandard
1000

1000
LEGEND
  0
LAYER
  5
E
330
41A
100
AcDbSymbolTableRecord
100
AcDbLayerTableRecord
  2
REF
 70
     0
 62
     7
  6
Continuous
370
     0
390
41D
1001
AcAecLayerStandard
1000

1000
REF
  0
LAYER
  5
F
330
41A
100
AcDbSymbolTableRecord
100
AcDbLayerTableRecord
  2
TEXT
 70
     0
 62
     7
  6
Continuous
370
     0
390
41D
1001
AcAecLayerStandard
1000

1000
TEXT
  0
LAYER
  5
10
330
41A
100
AcDbSymbolTableRecord
100
AcDbLayerTableRecord
  2
TITLE
 70
     0
 62
     7
  6
Continuous
370
     0
390
41D
1001
AcAecLayerStandard
1000

1000
TITLE
  0
LAYER
  5
11
330
41A
100
AcDbSymbolTableRecord
100
AcDbLayerTableRecord
  2
Level 11
 70
     0
 62
     7
  6
Continuous
370
     0
390
41D
  0
LAYER
  5
12
330
41A
100
AcDbSymbolTableRecord
100
AcDbLayerTableRecord
  2
Level 12
 70
     0
 62
     7
  6
Continuous
370
     0
390
41D
  0
LAYER
  5
13
330
41A
100
AcDbSymbolTableRecord
100
AcDbLayerTableRecord
  2
Level 13
 70
     0
 62
     7
  6
Continuous
370
     0
390
41D
  0
LAYER
  5
14
330
41A
100
AcDbSymbolTableRecord
100
AcDbLayerTableRecord
  2
Level 14
 70
     0
 62
     7
  6
Continuous
370
     0
390
41D
  0
LAYER
  5
15
330
41A
100
AcDbSymbolTableRecord
100
AcDbLayerTableRecord
  2
Level 15
 70
     0
 62
     7
  6
Continuous
370
     0
390
41D
  0
LAYER
  5
16
330
41A
100
AcDbSymbolTableRecord
100
AcDbLayerTableRecord
  2
Level 16
 70
     0
 62
     7
  6
Continuous
370
     0
390
41D
  0
LAYER
  5
17
330
41A
100
AcDbSymbolTableRecord
100
AcDbLayerTableRecord
  2
Level 17
 70
     0
 62
     7
  6
Continuous
370
     0
390
41D
  0
LAYER
  5
18
330
41A
100
AcDbSymbolTableRecord
100
AcDbLayerTableRecord
  2
Level 18
 70
     0
 62
     7
  6
Continuous
370
     0
390
41D
  0
LAYER
  5
19
330
41A
100
AcDbSymbolTableRecord
100
AcDbLayerTableRecord
  2
Level 19
 70
     0
 62
     7
  6
Continuous
370
     0
390
41D
  0
LAYER
  5
1A
330
41A
100
AcDbSymbolTableRecord
100
AcDbLayerTableRecord
  2
Level 20
 70
     0
 62
     7
  6
Continuous
370
     0
390
41D
  0
LAYER
  5
1B
330
41A
100
AcDbSymbolTableRecord
100
AcDbLayerTableRecord
  2
Level 21
 70
     0
 62
     7
  6
Continuous
370
     0
390
41D
  0
LAYER
  5
1C
330
41A
100
AcDbSymbolTableRecord
100
AcDbLayerTableRecord
  2
Level 22
 70
     0
 62
     7
  6
Continuous
370
     0
390
41D
  0
LAYER
  5
1D
330
41A
100
AcDbSymbolTableRecord
100
AcDbLayerTableRecord
  2
Level 23
 70
     0
 62
     7
  6
Continuous
370
     0
390
41D
  0
LAYER
  5
1E
330
41A
100
AcDbSymbolTableRecord
100
AcDbLayerTableRecord
  2
Level 24
 70
     0
 62
     7
  6
Continuous
370
     0
390
41D
  0
LAYER
  5
1F
330
41A
100
AcDbSymbolTableRecord
100
AcDbLayerTableRecord
  2
Level 25
 70
     0
 62
     7
  6
Continuous
370
     0
390
41D
  0
LAYER
  5
20
330
41A
100
AcDbSymbolTableRecord
100
AcDbLayerTableRecord
  2
Level 26
 70
     0
 62
     7
  6
Continuous
370
     0
390
41D
  0
LAYER
  5
21
330
41A
100
AcDbSymbolTableRecord
100
AcDbLayerTableRecord
  2
Level 27
 70
     0
 62
     7
  6
Continuous
370
     0
390
41D
  0
LAYER
  5
22
330
41A
100
AcDbSymbolTableRecord
100
AcDbLayerTableRecord
  2
Level 28
 70
     0
 62
     7
  6
Continuous
370
     0
390
41D
  0
LAYER
  5
23
330
41A
100
AcDbSymbolTableRecord
100
AcDbLayerTableRecord
  2
Level 29
 70
     0
 62
     7
  6
Continuous
370
     0
390
41D
  0
LAYER
  5
24
330
41A
100
AcDbSymbolTableRecord
100
AcDbLayerTableRecord
  2
Level 30
 70
     0
 62
     7
  6
Continuous
370
     0
390
41D
  0
LAYER
  5
25
330
41A
100
AcDbSymbolTableRecord
100
AcDbLayerTableRecord
  2
Level 31
 70
     0
 62
     7
  6
Continuous
370
     0
390
41D
  0
LAYER
  5
26
330
41A
100
AcDbSymbolTableRecord
100
AcDbLayerTableRecord
  2
Level 32
 70
     0
 62
     7
  6
Continuous
370
     0
390
41D
  0
LAYER
  5
27
330
41A
100
AcDbSymbolTableRecord
100
AcDbLayerTableRecord
  2
Level 33
 70
     0
 62
     7
  6
Continuous
370
     0
390
41D
  0
LAYER
  5
28
330
41A
100
AcDbSymbolTableRecord
100
AcDbLayerTableRecord
  2
Level 34
 70
     0
 62
     7
  6
Continuous
370
     0
390
41D
  0
LAYER
  5
29
330
41A
100
AcDbSymbolTableRecord
100
AcDbLayerTableRecord
  2
Level 35
 70
     0
 62
     7
  6
Continuous
370
     0
390
41D
  0
LAYER
  5
2A
330
41A
100
AcDbSymbolTableRecord
100
AcDbLayerTableRecord
  2
Level 36
 70
     0
 62
     7
  6
Continuous
370
     0
390
41D
  0
LAYER
  5
2B
330
41A
100
AcDbSymbolTableRecord
100
AcDbLayerTableRecord
  2
Level 37
 70
     0
 62
     7
  6
Continuous
370
     0
390
41D
  0
LAYER
  5
2C
330
41A
100
AcDbSymbolTableRecord
100
AcDbLayerTableRecord
  2
Level 38
 70
     0
 62
     7
  6
Continuous
370
     0
390
41D
  0
LAYER
  5
2D
330
41A
100
AcDbSymbolTableRecord
100
AcDbLayerTableRecord
  2
Level 39
 70
     0
 62
     7
  6
Continuous
370
     0
390
41D
  0
LAYER
  5
2E
330
41A
100
AcDbSymbolTableRecord
100
AcDbLayerTableRecord
  2
Level 40
 70
     0
 62
     7
  6
Continuous
370
     0
390
41D
  0
LAYER
  5
2F
330
41A
100
AcDbSymbolTableRecord
100
AcDbLayerTableRecord
  2
Level 41
 70
     0
 62
     7
  6
Continuous
370
     0
390
41D
  0
LAYER
  5
30
330
41A
100
AcDbSymbolTableRecord
100
AcDbLayerTableRecord
  2
Level 42
 70
     0
 62
     7
  6
Continuous
370
     0
390
41D
  0
LAYER
  5
31
330
41A
100
AcDbSymbolTableRecord
100
AcDbLayerTableRecord
  2
Level 43
 70
     0
 62
     7
  6
Continuous
370
     0
390
41D
  0
LAYER
  5
32
330
41A
100
AcDbSymbolTableRecord
100
AcDbLayerTableRecord
  2
Level 44
 70
     0
 62
     7
  6
Continuous
370
     0
390
41D
  0
LAYER
  5
33
330
41A
100
AcDbSymbolTableRecord
100
AcDbLayerTableRecord
  2
Level 45
 70
     0
 62
     7
  6
Continuous
370
     0
390
41D
  0
LAYER
  5
34
330
41A
100
AcDbSymbolTableRecord
100
AcDbLayerTableRecord
  2
Level 46
 70
     0
 62
     7
  6
Continuous
370
     0
390
41D
  0
LAYER
  5
35
330
41A
100
AcDbSymbolTableRecord
100
AcDbLayerTableRecord
  2
Level 47
 70
     0
 62
     7
  6
Continuous
370
     0
390
41D
  0
LAYER
  5
36
330
41A
100
AcDbSymbolTableRecord
100
AcDbLayerTableRecord
  2
Level 48
 70
     0
 62
     7
  6
Continuous
370
     0
390
41D
  0
LAYER
  5
37
330
41A
100
AcDbSymbolTableRecord
100
AcDbLayerTableRecord
  2
Level 49
 70
     0
 62
     7
  6
Continuous
370
     0
390
41D
  0
LAYER
  5
38
330
41A
100
AcDbSymbolTableRecord
100
AcDbLayerTableRecord
  2
Level 50
 70
     0
 62
     7
  6
Continuous
370
     0
390
41D
  0
LAYER
  5
39
330
41A
100
AcDbSymbolTableRecord
100
AcDbLayerTableRecord
  2
Level 51
 70
     0
 62
     7
  6
Continuous
370
     0
390
41D
  0
LAYER
  5
3A
330
41A
100
AcDbSymbolTableRecord
100
AcDbLayerTableRecord
  2
Level 52
 70
     0
 62
     7
  6
Continuous
370
     0
390
41D
  0
LAYER
  5
3B
330
41A
100
AcDbSymbolTableRecord
100
AcDbLayerTableRecord
  2
Level 53
 70
     0
 62
     7
  6
Continuous
370
     0
390
41D
  0
LAYER
  5
3C
330
41A
100
AcDbSymbolTableRecord
100
AcDbLayerTableRecord
  2
Level 54
 70
     0
 62
     7
  6
Continuous
370
     0
390
41D
  0
LAYER
  5
3D
330
41A
100
AcDbSymbolTableRecord
100
AcDbLayerTableRecord
  2
Level 55
 70
     0
 62
     7
  6
Continuous
370
     0
390
41D
  0
LAYER
  5
3E
330
41A
100
AcDbSymbolTableRecord
100
AcDbLayerTableRecord
  2
Level 56
 70
     0
 62
     7
  6
Continuous
370
     0
390
41D
  0
LAYER
  5
3F
330
41A
100
AcDbSymbolTableRecord
100
AcDbLayerTableRecord
  2
Level 57
 70
     0
 62
     7
  6
Continuous
370
     0
390
41D
  0
LAYER
  5
40
330
41A
100
AcDbSymbolTableRecord
100
AcDbLayerTableRecord
  2
Level 58
 70
     0
 62
     7
  6
Continuous
370
     0
390
41D
  0
LAYER
  5
41
330
41A
100
AcDbSymbolTableRecord
100
AcDbLayerTableRecord
  2
Level 59
 70
     0
 62
     7
  6
Continuous
370
     0
390
41D
  0
LAYER
  5
42
330
41A
100
AcDbSymbolTableRecord
100
AcDbLayerTableRecord
  2
Level 60
 70
     0
 62
     7
  6
Continuous
370
     0
390
41D
  0
LAYER
  5
43
330
41A
100
AcDbSymbolTableRecord
100
AcDbLayerTableRecord
  2
Level 61
 70
     0
 62
     7
  6
Continuous
370
     0
390
41D
  0
LAYER
  5
44
330
41A
100
AcDbSymbolTableRecord
100
AcDbLayerTableRecord
  2
Level 62
 70
     0
 62
     7
  6
Continuous
370
     0
390
41D
  0
LAYER
  5
45
330
41A
100
AcDbSymbolTableRecord
100
AcDbLayerTableRecord
  2
_0
 70
     0
 62
     7
  6
Continuous
370
     0
390
41D
1001
AcAecLayerStandard
1000

1000
0
  0
ENDTAB
  0
TABLE
  2
STYLE
  5
425
330
0
100
AcDbSymbolTable
 70
     2
  0
STYLE
  5
424
330
425
100
AcDbSymbolTableRecord
100
AcDbTextStyleTableRecord
  2
Standard
 70
     0
 40
0.0
 41
1.0
 50
0.0
 71
     0
 42
0.18
  3
txt
  4

  0
STYLE
  5
444
330
425
100
AcDbSymbolTableRecord
100
AcDbTextStyleTableRecord
  2
Style-Arial
 70
     0
 40
0.0
 41
1.0
 50
0.0
 71
     0
 42
0.2
  3

  4

1001
ACAD
1000
Arial
1071
       39
  0
ENDTAB
  0
TABLE
  2
VIEW
  5
438
330
0
100
AcDbSymbolTable
 70
     0
  0
ENDTAB
  0
TABLE
  2
UCS
  5
439
330
0
100
AcDbSymbolTable
 70
     0
  0
ENDTAB
  0
TABLE
  2
APPID
  5
437
330
0
100
AcDbSymbolTable
 70
     3
  0
APPID
  5
43F
330
437
100
AcDbSymbolTableRecord
100
AcDbRegAppTableRecord
  2
ACAD
 70
     0
  0
APPID
  5
436
330
437
100
AcDbSymbolTableRecord
100
AcDbRegAppTableRecord
  2
ACAD_PSEXT
 70
     0
  0
APPID
  5
441
330
437
100
AcDbSymbolTableRecord
100
AcDbRegAppTableRecord
  2
AcAecLayerStandard
 70
     0
  0
ENDTAB
  0
TABLE
  2
DIMSTYLE
  5
427
330
0
100
AcDbSymbolTable
 70
     1
100
AcDbDimStyleTable
  0
DIMSTYLE
105
426
330
427
100
AcDbSymbolTableRecord
100
AcDbDimStyleTableRecord
  2
Standard
 70
     0
340
424
  0
ENDTAB
  0
TABLE
  2
BLOCK_RECORD
  5
42A
330
0
100
AcDbSymbolTable
 70
     1
  0
BLOCK_RECORD
  5
42B
102
{ACAD_XDICTIONARY
360
44F
102
}
330
42A
100
AcDbSymbolTableRecord
100
AcDbBlockTableRecord
  2
*Model_Space
340
42E
  0
BLOCK_RECORD
  5
430
330
42A
100
AcDbSymbolTableRecord
100
AcDbBlockTableRecord
  2
*Paper_Space
340
433
  0
BLOCK_RECORD
  5
445
330
42A
100
AcDbSymbolTableRecord
100
AcDbBlockTableRecord
  2
TerminatorOpen_0.5
340
0
  0
ENDTAB
  0
ENDSEC
  0
SECTION
  2
BLOCKS
  0
BLOCK
  5
42C
330
42B
100
AcDbEntity
  8
0
100
AcDbBlockBegin
  2
*Model_Space
 70
     0
 71
     0
 10
0.0
 20
0.0
 30
0.0
  3
*Model_Space
  1

  0
ENDBLK
  5
42D
330
42B
100
AcDbEntity
  8
0
100
AcDbBlockEnd
  0
BLOCK
  5
431
330
430
100
AcDbEntity
 67
     1
  8
0
100
AcDbBlockBegin
  2
*Paper_Space
 70
     0
 71
     0
 10
0.0
 20
0.0
 30
0.0
  3
*Paper_Space
  1

  0
ENDBLK
  5
432
330
430
100
AcDbEntity
 67
     1
  8
0
100
AcDbBlockEnd
  0
BLOCK
  5
449
330
445
100
AcDbEntity
  8
0
100
AcDbBlockBegin
  2
TerminatorOpen_0.5
 70
     0
 71
     0
 10
0.0
 20
0.0
 30
0.0
  3
TerminatorOpen_0.5
  1

  0
LINE
  5
446
330
445
100
AcDbEntity
  8
0
  6
ByBlock
 62
     0
370
    -2
100
AcDbLine
 10
0.0
 20
0.0
 30
0.0
 11
-1.0
 21
0.0
 31
0.0
  0
LINE
  5
447
330
445
100
AcDbEntity
  8
0
  6
ByBlock
 62
     0
370
    -2
100
AcDbLine
 10
0.0
 20
0.0
 30
0.0
 11
-1.0
 21
0.25
 31
0.0
  0
LINE
  5
448
330
445
100
AcDbEntity
  8
0
  6
ByBlock
 62
     0
370
    -2
100
AcDbLine
 10
0.0
 20
0.0
 30
0.0
 11
-1.0
 21
-0.25
 31
0.0
  0
ENDBLK
  5
44A
330
445
100
AcDbEntity
  8
0
100
AcDbBlockEnd
  0
ENDSEC
  0
SECTION
  2
ENTITIES
  0
LINE
  5
5B
330
42B
100
AcDbEntity
  8
_0
  6
Continuous
 62
     7
370
    13
100
AcDbLine
 10
22.685344
 20
-11.346948
 30
0.0
 11
22.478802
 21
-11.346948
 31
0.0
  0
POINT
  5
5C
330
42B
100
AcDbEntity
  8
_0
  6
Continuous
 62
     7
370
    13
100
AcDbPoint
 10
12.590708
 20
-3.721948
 30
0.0
  0
LINE
  5
5D
330
42B
100
AcDbEntity
  8
_0
  6
Continuous
 62
     7
370
    13
100
AcDbLine
 10
22.685344
 20
-3.346948
 30
0.0
 11
22.478802
 21
-3.346948
 31
0.0
  0
LINE
  5
5E
330
42B
100
AcDbEntity
  8
_0
  6
Continuous
 62
     7
370
    13
100
AcDbLine
 10
22.478802
 20
-11.55349
 30
0.0
 11
22.478802
 21
-11.346948
 31
0.0
  0
LINE
  5
5F
330
42B
100
AcDbEntity
  8
_0
  6
Continuous
 62
     7
370
    13
100
AcDbLine
 10
11.728802
 20
-11.55349
 30
0.0
 11
11.728802
 21
-11.346948
 31
0.0
  0
LINE
  5
60
330
42B
100
AcDbEntity
  8
_0
  6
Continuous
 62
     7
370
    13
100
AcDbLine
 10
22.478802
 20
-3.346948
 30
0.0
 11
22.478802
 21
-3.140417
 31
0.0
  0
LINE
  5
61
330
42B
100
AcDbEntity
  8
_0
  6
Continuous
 62
     7
370
    13
100
AcDbLine
 10
11.728802
 20
-11.346948
 30
0.0
 11
11.52226
 21
-11.346948
 31
0.0
  0
LINE
  5
62
330
42B
100
AcDbEntity
  8
_0
  6
Continuous
 62
     7
370
    13
100
AcDbLine
 10
11.728802
 20
-3.346948
 30
0.0
 11
11.52226
 21
-3.346948
 31
0.0
  0
LINE
  5
63
330
42B
100
AcDbEntity
  8
_0
  6
Continuous
 62
     7
370
    13
100
AcDbLine
 10
11.728802
 20
-3.346948
 30
0.0
 11
11.728802
 21
-3.140417
 31
0.0
  0
LINE
  5
64
330
42B
100
AcDbEntity
  8
2-30G
  6
Continuous
 62
     7
370
    13
100
AcDbLine
 10
12.590708
 20
-10.971948
 30
0.0
 11
21.690708
 21
-10.971948
 31
0.0
  0
LINE
  5
65
330
42B
100
AcDbEntity
  8
2-30G
  6
Continuous
 62
     7
370
    13
100
AcDbLine
 10
12.590708
 20
-10.471948
 30
0.0
 11
21.690708
 21
-10.471948
 31
0.0
  0
LINE
  5
66
330
42B
100
AcDbEntity
  8
2-30G
  6
Continuous
 62
     7
370
    13
100
AcDbLine
 10
19.66339
 20
-10.971948
 30
0.0
 11
19.66339
 21
-10.471948
 31
0.0
  0
LINE
  5
67
330
42B
100
AcDbEntity
  8
2-30G
  6
Continuous
 62
     7
370
    13
100
AcDbLine
 10
20.76339
 20
-10.971948
 30
0.0
 11
20.76339
 21
-10.471948
 31
0.0
  0
LINE
  5
6C
330
42B
100
AcDbEntity
  8
2-30G
  6
Continuous
 62
     7
370
    13
100
AcDbLine
 10
12.590708
 20
-10.971948
 30
0.0
 11
12.590708
 21
-3.721948
 31
0.0
  0
LINE
  5
6D
330
42B
100
AcDbEntity
  8
2-30G
  6
Continuous
 62
     7
370
    13
100
AcDbLine
 10
12.590708
 20
-3.721948
 30
0.0
 11
21.690708
 21
-3.721948
 31
0.0
  0
LINE
  5
6E
330
42B
100
AcDbEntity
  8
2-30G
  6
Continuous
 62
     7
370
    13
100
AcDbLine
 10
21.690708
 20
-10.971948
 30
0.0
 11
21.690708
 21
-3.721948
 31
0.0
  0
LINE
  5
8D
330
42B
100
AcDbEntity
  8
_0
  6
Continuous
 62
     7
370
    13
100
AcDbLine
 10
14.690708
 20
-10.471948
 30
0.0
 11
14.690708
 21
-6.871948
 31
0.0
  0
LINE
  5
8E
330
42B
100
AcDbEntity
  8
_0
  6
Continuous
 62
     7
370
    13
100
AcDbLine
 10
16.790708
 20
-10.471948
 30
0.0
 11
16.790708
 21
-6.871948
 31
0.0
  0
LINE
  5
8F
330
42B
100
AcDbEntity
  8
2-30G
  6
Continuous
 62
     7
370
    13
100
AcDbLine
 10
18.890708
 20
-10.471948
 30
0.0
 11
18.890708
 21
-6.871948
 31
0.0
  0
LINE
  5
90
330
42B
100
AcDbEntity
  8
2-30G
  6
Continuous
 62
     7
370
    13
100
AcDbLine
 10
12.590708
 20
-6.871948
 30
0.0
 11
21.690708
 21
-6.871948
 31
0.0
  0
LINE
  5
91
330
42B
100
AcDbEntity
  8
_0
  6
Continuous
 62
     7
370
    13
100
AcDbLine
 10
16.940708
 20
-10.271948
 30
0.0
 11
16.940708
 21
-9.41524
 31
0.0
  0
LINE
  5
92
330
42B
100
AcDbEntity
  8
_0
  6
Continuous
 62
     7
370
    13
100
AcDbLine
 10
17.140708
 20
-10.271948
 30
0.0
 11
17.140708
 21
-9.423031
 31
0.0
  0
LINE
  5
93
330
42B
100
AcDbEntity
  8
_0
  6
Continuous
 62
     7
370
    13
100
AcDbLine
 10
17.740708
 20
-10.271948
 30
0.0
 11
17.740708
 21
-9.421479
 31
0.0
  0
LINE
  5
94
330
42B
100
AcDbEntity
  8
_0
  6
Continuous
 62
     7
370
    13
100
AcDbLine
 10
17.990708
 20
-10.271948
 30
0.0
 11
17.990708
 21
-9.41926
 31
0.0
  0
LINE
  5
95
330
42B
100
AcDbEntity
  8
_0
  6
Continuous
 62
     7
370
    13
100
AcDbLine
 10
13.390708
 20
-10.271948
 30
0.0
 11
13.590708
 21
-10.271948
 31
0.0
  0
LINE
  5
96
330
42B
100
AcDbEntity
  8
_0
  6
Continuous
 62
     7
370
    13
100
AcDbLine
 10
16.940708
 20
-7.871948
 30
0.0
 11
17.140708
 21
-7.871948
 31
0.0
  0
LINE
  5
97
330
42B
100
AcDbEntity
  8
_0
  6
Continuous
 62
     7
370
    13
100
AcDbLine
 10
16.940708
 20
-7.271948
 30
0.0
 11
17.140708
 21
-7.271948
 31
0.0
  0
LINE
  5
98
330
42B
100
AcDbEntity
  8
_0
  6
Continuous
 62
     7
370
    13
100
AcDbLine
 10
16.940708
 20
-7.546948
 30
0.0
 11
17.140708
 21
-7.546948
 31
0.0
  0
LINE
  5
99
330
42B
100
AcDbEntity
  8
_0
  6
Continuous
 62
     7
370
    13
100
AcDbLine
 10
16.940708
 20
-7.546948
 30
0.0
 11
16.940708
 21
-7.271948
 31
0.0
  0
LINE
  5
9A
330
42B
100
AcDbEntity
  8
_0
  6
Continuous
 62
     7
370
    13
100
AcDbLine
 10
17.140708
 20
-7.546948
 30
0.0
 11
17.140708
 21
-7.271948
 31
0.0
  0
LINE
  5
9B
330
42B
100
AcDbEntity
  8
_0
  6
Continuous
 62
     7
370
    13
100
AcDbLine
 10
17.740708
 20
-7.871948
 30
0.0
 11
17.990708
 21
-7.871948
 31
0.0
  0
LINE
  5
9C
330
42B
100
AcDbEntity
  8
_0
  6
Continuous
 62
     7
370
    13
100
AcDbLine
 10
17.740708
 20
-10.271948
 30
0.0
 11
17.990708
 21
-10.271948
 31
0.0
  0
LINE
  5
9D
330
42B
100
AcDbEntity
  8
_0
  6
Continuous
 62
     7
370
    13
100
AcDbLine
 10
14.940708
 20
-10.271948
 30
0.0
 11
14.940708
 21
-9.425562
 31
0.0
  0
LINE
  5
9E
330
42B
100
AcDbEntity
  8
_0
  6
Continuous
 62
     7
370
    13
100
AcDbLine
 10
15.090708
 20
-10.271948
 30
0.0
 11
15.090708
 21
-9.419104
 31
0.0
  0
LINE
  5
9F
330
42B
100
AcDbEntity
  8
_0
  6
Continuous
 62
     7
370
    13
100
AcDbLine
 10
15.883219
 20
-10.271948
 30
0.0
 11
15.883219
 21
-9.41501
 31
0.0
  0
LINE
  5
A0
330
42B
100
AcDbEntity
  8
_0
  6
Continuous
 62
     7
370
    13
100
AcDbLine
 10
16.083219
 20
-10.271948
 30
0.0
 11
16.083219
 21
-9.423542
 31
0.0
  0
LINE
  5
A1
330
42B
100
AcDbEntity
  8
_0
  6
Continuous
 62
     7
370
    13
100
AcDbLine
 10
13.410708
 20
-7.871948
 30
0.0
 11
13.570708
 21
-7.871948
 31
0.0
  0
LINE
  5
A2
330
42B
100
AcDbEntity
  8
_0
  6
Continuous
 62
     7
370
    13
100
AcDbLine
 10
16.940708
 20
-10.271948
 30
0.0
 11
17.140708
 21
-10.271948
 31
0.0
  0
LINE
  5
A3
330
42B
100
AcDbEntity
  8
_0
  6
Continuous
 62
     7
370
    13
100
AcDbLine
 10
15.883219
 20
-7.871948
 30
0.0
 11
16.083219
 21
-7.871948
 31
0.0
  0
LINE
  5
A4
330
42B
100
AcDbEntity
  8
_0
  6
Continuous
 62
     7
370
    13
100
AcDbLine
 10
15.883219
 20
-10.271948
 30
0.0
 11
16.083219
 21
-10.271948
 31
0.0
  0
LINE
  5
A5
330
42B
100
AcDbEntity
  8
_0
  6
Continuous
 62
     7
370
    13
100
AcDbLine
 10
13.390708
 20
-10.271948
 30
0.0
 11
13.390708
 21
-9.427635
 31
0.0
  0
LINE
  5
A6
330
42B
100
AcDbEntity
  8
_0
  6
Continuous
 62
     7
370
    13
100
AcDbLine
 10
13.590708
 20
-10.271948
 30
0.0
 11
13.590708
 21
-9.427635
 31
0.0
  0
LINE
  5
A7
330
42B
100
AcDbEntity
  8
_0
  6
Continuous
 62
     7
370
    13
100
AcDbLine
 10
14.190708
 20
-10.271948
 30
0.0
 11
14.190708
 21
-9.419979
 31
0.0
  0
LINE
  5
A8
330
42B
100
AcDbEntity
  8
_0
  6
Continuous
 62
     7
370
    13
100
AcDbLine
 10
14.465708
 20
-10.271948
 30
0.0
 11
14.465708
 21
-9.419979
 31
0.0
  0
LINE
  5
A9
330
42B
100
AcDbEntity
  8
_0
  6
Continuous
 62
     7
370
    13
100
AcDbLine
 10
14.210708
 20
-7.871948
 30
0.0
 11
14.445708
 21
-7.871948
 31
0.0
  0
LINE
  5
AA
330
42B
100
AcDbEntity
  8
_0
  6
Continuous
 62
     7
370
    13
100
AcDbLine
 10
14.190708
 20
-10.271948
 30
0.0
 11
14.465708
 21
-10.271948
 31
0.0
  0
LINE
  5
AB
330
42B
100
AcDbEntity
  8
_0
  6
Continuous
 62
     7
370
    13
100
AcDbLine
 10
14.940708
 20
-10.271948
 30
0.0
 11
15.090708
 21
-10.271948
 31
0.0
  0
LINE
  5
AC
330
42B
100
AcDbEntity
  8
_0
  6
Continuous
 62
     7
370
    13
100
AcDbLine
 10
14.940708
 20
-7.871948
 30
0.0
 11
15.090708
 21
-7.871948
 31
0.0
  0
LINE
  5
BD
330
42B
100
AcDbEntity
  8
_0
  6
Continuous
 62
     7
370
    13
100
AcDbLine
 10
13.033302
 20
-7.501948
 30
0.0
 11
13.033302
 21
-7.241948
 31
0.0
  0
LINE
  5
BE
330
42B
100
AcDbEntity
  8
_0
  6
Continuous
 62
     7
370
    13
100
AcDbLine
 10
12.833302
 20
-7.501948
 30
0.0
 11
12.833302
 21
-7.241948
 31
0.0
  0
LINE
  5
BF
330
42B
100
AcDbEntity
  8
_0
  6
Continuous
 62
     7
370
    13
100
AcDbLine
 10
12.853302
 20
-7.221948
 30
0.0
 11
13.013302
 21
-7.221948
 31
0.0
  0
LINE
  5
C0
330
42B
100
AcDbEntity
  8
_0
  6
Continuous
 62
     7
370
    13
100
AcDbLine
 10
12.853302
 20
-7.521948
 30
0.0
 11
13.013302
 21
-7.521948
 31
0.0
  0
LINE
  5
CD
330
42B
100
AcDbEntity
  8
_0
  6
Continuous
 62
     7
370
    13
100
AcDbLine
 10
14.940708
 20
-7.546948
 30
0.0
 11
15.090708
 21
-7.546948
 31
0.0
  0
LINE
  5
CE
330
42B
100
AcDbEntity
  8
_0
  6
Continuous
 62
     7
370
    13
100
AcDbLine
 10
14.940708
 20
-7.346948
 30
0.0
 11
15.090708
 21
-7.346948
 31
0.0
  0
LINE
  5
CF
330
42B
100
AcDbEntity
  8
_0
  6
Continuous
 62
     7
370
    13
100
AcDbLine
 10
15.015708
 20
-7.346948
 30
0.0
 11
15.015708
 21
-7.546948
 31
0.0
  0
LINE
  5
D0
330
42B
100
AcDbEntity
  8
_0
  6
Continuous
 62
     7
370
    13
100
AcDbLine
 10
15.003208
 20
-7.871948
 30
0.0
 11
15.003208
 21
-9.263458
 31
0.0
  0
LINE
  5
DD
330
42B
100
AcDbEntity
  8
_0
  6
DGN Style 2
 62
     7
370
    13
100
AcDbLine
 10
17.065708
 20
-7.546948
 30
0.0
 11
17.065708
 21
-7.271948
 31
0.0
  0
LINE
  5
DE
330
42B
100
AcDbEntity
  8
_0
  6
DGN Style 2
 62
     7
370
    13
100
AcDbLine
 10
17.015708
 20
-7.546948
 30
0.0
 11
17.015708
 21
-7.271948
 31
0.0
  0
LINE
  5
EA
330
42B
100
AcDbEntity
  8
_0
  6
Continuous
 62
     7
370
    13
100
AcDbLine
 10
12.853302
 20
-7.521948
 30
0.0
 11
12.853302
 21
-7.221948
 31
0.0
  0
LINE
  5
EB
330
42B
100
AcDbEntity
  8
_0
  6
Continuous
 62
     7
370
    13
100
AcDbLine
 10
12.833302
 20
-7.501948
 30
0.0
 11
13.033302
 21
-7.501948
 31
0.0
  0
LINE
  5
EC
330
42B
100
AcDbEntity
  8
_0
  6
Continuous
 62
     7
370
    13
100
AcDbLine
 10
12.833302
 20
-7.241948
 30
0.0
 11
13.033302
 21
-7.241948
 31
0.0
  0
LINE
  5
ED
330
42B
100
AcDbEntity
  8
_0
  6
Continuous
 62
     7
370
    13
100
AcDbLine
 10
13.013302
 20
-7.521948
 30
0.0
 11
13.013302
 21
-7.221948
 31
0.0
  0
LINE
  5
EE
330
42B
100
AcDbEntity
  8
_0
  6
Continuous
 62
     7
370
    13
100
AcDbLine
 10
13.013302
 20
-7.221948
 30
0.0
 11
13.033302
 21
-7.241948
 31
0.0
  0
LINE
  5
EF
330
42B
100
AcDbEntity
  8
_0
  6
Continuous
 62
     7
370
    13
100
AcDbLine
 10
12.853302
 20
-7.221948
 30
0.0
 11
12.833302
 21
-7.241948
 31
0.0
  0
LINE
  5
F0
330
42B
100
AcDbEntity
  8
_0
  6
Continuous
 62
     7
370
    13
100
AcDbLine
 10
12.833302
 20
-7.501948
 30
0.0
 11
12.853302
 21
-7.521948
 31
0.0
  0
LINE
  5
F1
330
42B
100
AcDbEntity
  8
_0
  6
Continuous
 62
     7
370
    13
100
AcDbLine
 10
13.033302
 20
-7.501948
 30
0.0
 11
13.013302
 21
-7.521948
 31
0.0
  0
LINE
  5
F2
330
42B
100
AcDbEntity
  8
_0
  6
Continuous
 62
     7
370
    13
100
AcDbLine
 10
14.445708
 20
-7.871948
 30
0.0
 11
14.465708
 21
-7.891948
 31
0.0
  0
LINE
  5
F3
330
42B
100
AcDbEntity
  8
_0
  6
Continuous
 62
     7
370
    13
100
AcDbLine
 10
14.210708
 20
-7.871948
 30
0.0
 11
14.190708
 21
-7.891948
 31
0.0
  0
LINE
  5
F4
330
42B
100
AcDbEntity
  8
_0
  6
Continuous
 62
     7
370
    13
100
AcDbLine
 10
13.410708
 20
-7.871948
 30
0.0
 11
13.390708
 21
-7.891948
 31
0.0
  0
LINE
  5
F5
330
42B
100
AcDbEntity
  8
_0
  6
Continuous
 62
     7
370
    13
100
AcDbLine
 10
13.570708
 20
-7.871948
 30
0.0
 11
13.590708
 21
-7.891948
 31
0.0
  0
LINE
  5
F6
330
42B
100
AcDbEntity
  8
_0
  6
Continuous
 62
     7
370
    13
100
AcDbLine
 10
13.410708
 20
-9.101948
 30
0.0
 11
13.410708
 21
-7.871948
 31
0.0
  0
LINE
  5
F7
330
42B
100
AcDbEntity
  8
_0
  6
Continuous
 62
     7
370
    13
100
AcDbLine
 10
13.570708
 20
-9.101948
 30
0.0
 11
13.570708
 21
-7.871948
 31
0.0
  0
LINE
  5
F8
330
42B
100
AcDbEntity
  8
_0
  6
Continuous
 62
     7
370
    13
100
AcDbLine
 10
14.210708
 20
-9.101938
 30
0.0
 11
14.210708
 21
-7.871948
 31
0.0
  0
LINE
  5
F9
330
42B
100
AcDbEntity
  8
_0
  6
Continuous
 62
     7
370
    13
100
AcDbLine
 10
14.445708
 20
-9.101062
 30
0.0
 11
14.445708
 21
-7.871948
 31
0.0
  0
LINE
  5
FA
330
42B
100
AcDbEntity
  8
_0
  6
Continuous
 62
     7
370
    13
100
AcDbLine
 10
13.390708
 20
-7.891948
 30
0.0
 11
13.590708
 21
-7.891948
 31
0.0
  0
LINE
  5
FB
330
42B
100
AcDbEntity
  8
_0
  6
Continuous
 62
     7
370
    13
100
AcDbLine
 10
14.190708
 20
-7.891948
 30
0.0
 11
14.465708
 21
-7.891948
 31
0.0
  0
LINE
  5
FC
330
42B
100
AcDbEntity
  8
_0
  6
DGN Style 2
 62
     7
370
    13
100
AcDbLine
 10
12.948302
 20
-7.521948
 30
0.0
 11
12.948302
 21
-7.221948
 31
0.0
  0
LINE
  5
FD
330
42B
100
AcDbEntity
  8
_0
  6
DGN Style 2
 62
     7
370
    13
100
AcDbLine
 10
12.918302
 20
-7.521948
 30
0.0
 11
12.918302
 21
-7.221948
 31
0.0
  0
LINE
  5
FE
330
42B
100
AcDbEntity
  8
_0
  6
DGN Style 2
 62
     7
370
    13
100
AcDbLine
 10
13.560708
 20
-10.171948
 30
0.0
 11
13.560708
 21
-9.423344
 31
0.0
  0
LINE
  5
FF
330
42B
100
AcDbEntity
  8
_0
  6
DGN Style 2
 62
     7
370
    13
100
AcDbLine
 10
13.420708
 20
-10.171948
 30
0.0
 11
13.420708
 21
-9.424396
 31
0.0
  0
LINE
  5
100
330
42B
100
AcDbEntity
  8
_0
  6
DGN Style 2
 62
     7
370
    13
100
AcDbLine
 10
13.420708
 20
-7.946948
 30
0.0
 11
13.560708
 21
-7.946948
 31
0.0
  0
LINE
  5
101
330
42B
100
AcDbEntity
  8
_0
  6
DGN Style 2
 62
     7
370
    13
100
AcDbLine
 10
14.225708
 20
-7.946948
 30
0.0
 11
14.430708
 21
-7.946948
 31
0.0
  0
LINE
  5
102
330
42B
100
AcDbEntity
  8
_0
  6
DGN Style 2
 62
     7
370
    13
100
AcDbLine
 10
14.430708
 20
-10.171948
 30
0.0
 11
14.430708
 21
-9.419812
 31
0.0
  0
LINE
  5
103
330
42B
100
AcDbEntity
  8
_0
  6
DGN Style 2
 62
     7
370
    13
100
AcDbLine
 10
14.225708
 20
-10.171948
 30
0.0
 11
14.225708
 21
-9.409031
 31
0.0
  0
LINE
  5
104
330
42B
100
AcDbEntity
  8
_0
  6
DGN Style 2
 62
     7
370
    13
100
AcDbLine
 10
13.590708
 20
-8.110948
 30
0.0
 11
13.390708
 21
-8.110948
 31
0.0
  0
LINE
  5
105
330
42B
100
AcDbEntity
  8
_0
  6
DGN Style 2
 62
     7
370
    13
100
AcDbLine
 10
13.590708
 20
-8.080948
 30
0.0
 11
13.390708
 21
-8.080948
 31
0.0
  0
LINE
  5
106
330
42B
100
AcDbEntity
  8
_0
  6
DGN Style 2
 62
     7
370
    13
100
AcDbLine
 10
14.465708
 20
-8.080948
 30
0.0
 11
14.190708
 21
-8.080948
 31
0.0
  0
LINE
  5
107
330
42B
100
AcDbEntity
  8
_0
  6
DGN Style 2
 62
     7
370
    13
100
AcDbLine
 10
14.465708
 20
-8.110948
 30
0.0
 11
14.190708
 21
-8.110948
 31
0.0
  0
LINE
  5
108
330
42B
100
AcDbEntity
  8
_0
  6
DGN Style 2
 62
     7
370
    13
100
AcDbLine
 10
13.560708
 20
-8.311948
 30
0.0
 11
13.420708
 21
-8.311948
 31
0.0
  0
LINE
  5
109
330
42B
100
AcDbEntity
  8
_0
  6
DGN Style 2
 62
     7
370
    13
100
AcDbLine
 10
13.560708
 20
-8.486948
 30
0.0
 11
13.420708
 21
-8.486948
 31
0.0
  0
LINE
  5
10A
330
42B
100
AcDbEntity
  8
_0
  6
DGN Style 2
 62
     7
370
    13
100
AcDbLine
 10
13.560708
 20
-8.661948
 30
0.0
 11
13.420708
 21
-8.661948
 31
0.0
  0
LINE
  5
10B
330
42B
100
AcDbEntity
  8
_0
  6
DGN Style 2
 62
     7
370
    13
100
AcDbLine
 10
13.560708
 20
-8.836948
 30
0.0
 11
13.420708
 21
-8.836948
 31
0.0
  0
LINE
  5
10C
330
42B
100
AcDbEntity
  8
_0
  6
DGN Style 2
 62
     7
370
    13
100
AcDbLine
 10
13.560708
 20
-9.011948
 30
0.0
 11
13.420708
 21
-9.011948
 31
0.0
  0
LINE
  5
10D
330
42B
100
AcDbEntity
  8
_0
  6
DGN Style 2
 62
     7
370
    13
100
AcDbLine
 10
13.560708
 20
-9.186948
 30
0.0
 11
13.420708
 21
-9.186948
 31
0.0
  0
LINE
  5
10E
330
42B
100
AcDbEntity
  8
_0
  6
DGN Style 2
 62
     7
370
    13
100
AcDbLine
 10
14.430708
 20
-9.186948
 30
0.0
 11
14.225708
 21
-9.186948
 31
0.0
  0
LINE
  5
10F
330
42B
100
AcDbEntity
  8
_0
  6
DGN Style 2
 62
     7
370
    13
100
AcDbLine
 10
14.430708
 20
-9.011948
 30
0.0
 11
14.225708
 21
-9.011948
 31
0.0
  0
LINE
  5
110
330
42B
100
AcDbEntity
  8
_0
  6
DGN Style 2
 62
     7
370
    13
100
AcDbLine
 10
14.430708
 20
-8.836948
 30
0.0
 11
14.225708
 21
-8.836948
 31
0.0
  0
LINE
  5
111
330
42B
100
AcDbEntity
  8
_0
  6
DGN Style 2
 62
     7
370
    13
100
AcDbLine
 10
14.430708
 20
-8.661948
 30
0.0
 11
14.225708
 21
-8.661948
 31
0.0
  0
LINE
  5
112
330
42B
100
AcDbEntity
  8
_0
  6
DGN Style 2
 62
     7
370
    13
100
AcDbLine
 10
14.430708
 20
-8.486948
 30
0.0
 11
14.225708
 21
-8.486948
 31
0.0
  0
LINE
  5
113
330
42B
100
AcDbEntity
  8
_0
  6
DGN Style 2
 62
     7
370
    13
100
AcDbLine
 10
14.430708
 20
-8.311948
 30
0.0
 11
14.225708
 21
-8.311948
 31
0.0
  0
CIRCLE
  5
114
330
42B
100
AcDbEntity
  8
_0
  6
Continuous
 62
     7
370
    13
100
AcDbCircle
 10
13.490706
 20
-8.095944
 30
0.0
 40
0.014999999999997
  0
LINE
  5
115
330
42B
100
AcDbEntity
  8
_0
  6
Continuous
 62
     7
370
    13
100
AcDbLine
 10
13.390708
 20
-9.121948
 30
0.0
 11
13.410708
 21
-9.101948
 31
0.0
  0
LINE
  5
116
330
42B
100
AcDbEntity
  8
_0
  6
Continuous
 62
     7
370
    13
100
AcDbLine
 10
13.590708
 20
-9.121948
 30
0.0
 11
13.570708
 21
-9.101948
 31
0.0
  0
LINE
  5
117
330
42B
100
AcDbEntity
  8
_0
  6
Continuous
 62
     7
370
    13
100
AcDbLine
 10
14.190698
 20
-9.121948
 30
0.0
 11
14.210708
 21
-9.101938
 31
0.0
  0
LINE
  5
118
330
42B
100
AcDbEntity
  8
_0
  6
Continuous
 62
     7
370
    13
100
AcDbLine
 10
14.465708
 20
-9.121062
 30
0.0
 11
14.445708
 21
-9.101062
 31
0.0
  0
LWPOLYLINE
  5
119
330
42B
100
AcDbEntity
  8
_0
  6
Continuous
 62
     7
370
     0
100
AcDbPolyline
 90
       19
 70
   128
 43
0.0
 10
13.390706
 20
-9.271943
 42
-0.136552
 10
13.401449
 20
-9.264298
 42
-0.144243
 10
13.413935
 20
-9.263541
 42
-0.239523
 10
13.42271
 20
-9.270875
 42
0.291796
 10
13.430669
 20
-9.276303
 42
0.227031
 10
13.440457
 20
-9.271981
 42
-0.190097
 10
13.451587
 20
-9.266094
 42
-0.183468
 10
13.465652
 20
-9.269715
 42
0.245448
 10
13.476688
 20
-9.271198
 42
0.168666
 10
13.482438
 20
-9.266529
 42
-0.229272
 10
13.487147
 20
-9.263541
 42
-0.046619
 10
13.495845
 20
-9.263354
 42
-0.014992
 10
13.522706
 20
-9.266094
 42
-0.025727
 10
13.540295
 20
-9.26935
 42
0.038898
 10
13.551991
 20
-9.271198
 42
0.205471
 10
13.560254
 20
-9.268402
 42
-0.151306
 10
13.570817
 20
-9.263541
 42
-0.13344
 10
13.580367
 20
-9.264832
 42
-0.101729
 10
13.590706
 20
-9.271943
  0
SPLINE
  5
12C
330
42B
100
AcDbEntity
  8
_0
  6
Continuous
 62
     7
370
     0
100
AcDbSpline
210
0.0
220
0.0
230
1.0
 70
     8
 71
     3
 72
    17
 73
    13
 74
     0
 42
0.0000000001
 43
0.00000001
 40
0.0
 40
0.0
 40
0.0
 40
0.0
 40
0.1
 40
0.2
 40
0.3
 40
0.4
 40
0.5
 40
0.6
 40
0.7
 40
0.7999999999999999
 40
0.8999999999999999
 40
1.0
 40
1.0
 40
1.0
 40
1.0
 10
14.19070833333333
 20
-9.271947916666667
 30
0.0
 10
14.23390625
 20
-9.2584375
 30
0.0
 10
14.2631875
 20
-9.27375
 30
0.0
 10
14.29246875
 20
-9.263541666666667
 30
0.0
 10
14.31130208333333
 20
-9.278854166666667
 30
0.0
 10
14.33221875
 20
-9.291614583333333
 30
0.0
 10
14.3615
 20
-9.2890625
 30
0.0
 10
14.38869791666667
 20
-9.283958333333333
 30
0.0
 10
14.40961458333333
 20
-9.276302083333333
 30
0.0
 10
14.42215625
 20
-9.268645833333332
 30
0.0
 10
14.44308333333333
 20
-9.276302083333333
 30
0.0
 10
14.45144791666667
 20
-9.263541666666667
 30
0.0
 10
14.46570833333333
 20
-9.271947916666667
 30
0.0
  0
SPLINE
  5
12E
330
42B
100
AcDbEntity
  8
_0
  6
Continuous
 62
     7
370
     0
100
AcDbSpline
210
0.0
220
0.0
230
1.0
 70
     8
 71
     3
 72
    17
 73
    13
 74
     0
 42
0.0000000001
 43
0.00000001
 40
0.0
 40
0.0
 40
0.0
 40
0.0
 40
0.1
 40
0.2
 40
0.3
 40
0.4
 40
0.5
 40
0.6
 40
0.7
 40
0.7999999999999999
 40
0.8999999999999999
 40
1.0
 40
1.0
 40
1.0
 40
1.0
 10
14.19070833333333
 20
-9.419979166666666
 30
0.0
 10
14.23390625
 20
-9.40646875
 30
0.0
 10
14.2631875
 20
-9.421791666666666
 30
0.0
 10
14.29246875
 20
-9.411572916666666
 30
0.0
 10
14.31130208333333
 20
-9.426895833333333
 30
0.0
 10
14.33221875
 20
-9.43965625
 30
0.0
 10
14.3615
 20
-9.437104166666666
 30
0.0
 10
14.38869791666667
 20
-9.432
 30
0.0
 10
14.40961458333333
 20
-9.42434375
 30
0.0
 10
14.42215625
 20
-9.4166875
 30
0.0
 10
14.44308333333333
 20
-9.42434375
 30
0.0
 10
14.45144791666667
 20
-9.411572916666666
 30
0.0
 10
14.46570833333333
 20
-9.419979166666666
 30
0.0
  0
LWPOLYLINE
  5
130
330
42B
100
AcDbEntity
  8
_0
  6
Continuous
 62
     7
370
     0
100
AcDbPolyline
 90
       19
 70
   128
 43
0.0
 10
13.390706
 20
-9.427634
 42
-0.136552
 10
13.401449
 20
-9.419989
 42
-0.144243
 10
13.413935
 20
-9.419233
 42
-0.239523
 10
13.42271
 20
-9.426566
 42
0.291796
 10
13.430669
 20
-9.431994
 42
0.227031
 10
13.440457
 20
-9.427673
 42
-0.190097
 10
13.451587
 20
-9.421785
 42
-0.183468
 10
13.465652
 20
-9.425407
 42
0.245448
 10
13.476688
 20
-9.42689
 42
0.168666
 10
13.482438
 20
-9.422221
 42
-0.229272
 10
13.487147
 20
-9.419233
 42
-0.046619
 10
13.495845
 20
-9.419045
 42
-0.014992
 10
13.522706
 20
-9.421785
 42
-0.025727
 10
13.540295
 20
-9.425041
 42
0.038898
 10
13.551991
 20
-9.42689
 42
0.205471
 10
13.560254
 20
-9.424093
 42
-0.151306
 10
13.570817
 20
-9.419233
 42
-0.13344
 10
13.580367
 20
-9.420524
 42
-0.101729
 10
13.590706
 20
-9.427634
  0
LINE
  5
143
330
42B
100
AcDbEntity
  8
_0
  6
DGN Style 2
 62
     7
370
    13
100
AcDbLine
 10
14.225708
 20
-9.261
 30
0.0
 11
14.225708
 21
-7.946948
 31
0.0
  0
LINE
  5
144
330
42B
100
AcDbEntity
  8
_0
  6
Continuous
 62
     7
370
    13
100
AcDbLine
 10
14.190708
 20
-9.271948
 30
0.0
 11
14.190708
 21
-7.891948
 31
0.0
  0
LINE
  5
145
330
42B
100
AcDbEntity
  8
_0
  6
Continuous
 62
     7
370
    13
100
AcDbLine
 10
14.465708
 20
-9.271948
 30
0.0
 11
14.465708
 21
-7.891948
 31
0.0
  0
LINE
  5
146
330
42B
100
AcDbEntity
  8
_0
  6
DGN Style 2
 62
     7
370
    13
100
AcDbLine
 10
14.430708
 20
-9.271771
 30
0.0
 11
14.430708
 21
-7.946948
 31
0.0
  0
LINE
  5
147
330
42B
100
AcDbEntity
  8
_0
  6
Continuous
 62
     7
370
    13
100
AcDbLine
 10
13.590708
 20
-9.271948
 30
0.0
 11
13.590708
 21
-7.891948
 31
0.0
  0
LINE
  5
148
330
42B
100
AcDbEntity
  8
_0
  6
DGN Style 2
 62
     7
370
    13
100
AcDbLine
 10
13.560708
 20
-9.267656
 30
0.0
 11
13.560708
 21
-7.946948
 31
0.0
  0
LINE
  5
149
330
42B
100
AcDbEntity
  8
_0
  6
DGN Style 2
 62
     7
370
    13
100
AcDbLine
 10
13.420708
 20
-9.268708
 30
0.0
 11
13.420708
 21
-7.946948
 31
0.0
  0
LINE
  5
14A
330
42B
100
AcDbEntity
  8
_0
  6
Continuous
 62
     7
370
    13
100
AcDbLine
 10
13.390708
 20
-9.271948
 30
0.0
 11
13.390708
 21
-7.891948
 31
0.0
  0
LINE
  5
14B
330
42B
100
AcDbEntity
  8
_0
  6
DGN Style 2
 62
     7
370
    13
100
AcDbLine
 10
14.225708
 20
-10.171948
 30
0.0
 11
14.430708
 21
-10.171948
 31
0.0
  0
LINE
  5
14C
330
42B
100
AcDbEntity
  8
_0
  6
DGN Style 2
 62
     7
370
    13
100
AcDbLine
 10
13.420708
 20
-10.171948
 30
0.0
 11
13.560708
 21
-10.171948
 31
0.0
  0
LINE
  5
14D
330
42B
100
AcDbEntity
  8
_0
  6
Continuous
 62
     7
370
    13
100
AcDbLine
 10
15.883219
 20
-9.266979
 30
0.0
 11
15.883219
 21
-7.871948
 31
0.0
  0
LINE
  5
14E
330
42B
100
AcDbEntity
  8
_0
  6
Continuous
 62
     7
370
    13
100
AcDbLine
 10
16.083219
 20
-9.27551
 30
0.0
 11
16.083219
 21
-7.871948
 31
0.0
  0
LINE
  5
14F
330
42B
100
AcDbEntity
  8
_0
  6
Continuous
 62
     7
370
    13
100
AcDbLine
 10
14.940708
 20
-9.269875
 30
0.0
 11
14.940708
 21
-7.871948
 31
0.0
  0
LINE
  5
150
330
42B
100
AcDbEntity
  8
_0
  6
Continuous
 62
     7
370
    13
100
AcDbLine
 10
15.003208
 20
-9.419146
 30
0.0
 11
15.003208
 21
-10.271948
 31
0.0
  0
LINE
  5
151
330
42B
100
AcDbEntity
  8
_0
  6
Continuous
 62
     7
370
    13
100
AcDbLine
 10
15.090708
 20
-9.263406
 30
0.0
 11
15.090708
 21
-7.871948
 31
0.0
  0
SPLINE
  5
152
330
42B
100
AcDbEntity
  8
_0
  6
Continuous
 62
     7
370
     0
100
AcDbSpline
210
0.0
220
0.0
230
1.0
 70
     8
 71
     3
 72
    15
 73
    11
 74
     0
 42
0.0000000001
 43
0.00000001
 40
0.0
 40
0.0
 40
0.0
 40
0.0
 40
0.125
 40
0.25
 40
0.375
 40
0.5
 40
0.625
 40
0.75
 40
0.875
 40
1.0
 40
1.0
 40
1.0
 40
1.0
 10
14.94070833333333
 20
-9.269874999999999
 30
0.0
 10
14.963375
 20
-9.257958333333333
 30
0.0
 10
14.9796875
 20
-9.260447916666667
 30
0.0
 10
14.98784375
 20
-9.2629375
 30
0.0
 10
15.00007291666667
 20
-9.257958333333333
 30
0.0
 10
15.03066666666667
 20
-9.275385416666666
 30
0.0
 10
15.03882291666667
 20
-9.260447916666667
 30
0.0
 10
15.05309375
 20
-9.260447916666667
 30
0.0
 10
15.0714375
 20
-9.257958333333333
 30
0.0
 10
15.07347916666667
 20
-9.252989583333333
 30
0.0
 10
15.09070833333333
 20
-9.26340625
 30
0.0
  0
LWPOLYLINE
  5
154
330
42B
100
AcDbEntity
  8
_0
  6
Continuous
 62
     7
370
     0
100
AcDbPolyline
 90
       29
 70
   128
 43
0.0
 10
14.940708
 20
-9.426698
 10
14.948552
 20
-9.422823
 10
14.955177
 20
-9.420021
 10
14.960708
 20
-9.418146
 10
14.965302
 20
-9.417021
 10
14.969083
 20
-9.416521
 10
14.972198
 20
-9.416458
 10
14.974781
 20
-9.416698
 10
14.976969
 20
-9.417063
 10
14.978885
 20
-9.417438
 10
14.980594
 20
-9.417792
 10
14.982115
 20
-9.418094
 10
14.98351
 20
-9.418333
 10
14.984813
 20
-9.41851
 10
14.986052
 20
-9.418615
 10
14.987271
 20
-9.418615
 10
14.988521
 20
-9.418521
 10
14.989833
 20
-9.418312
 10
14.99124
 20
-9.418052
 10
14.99276
 20
-9.417792
 10
14.994427
 20
-9.417583
 10
14.996271
 20
-9.4175
 10
14.998323
 20
-9.417583
 10
15.000594
 20
-9.417906
 10
15.003135
 20
-9.418521
 10
15.005937
 20
-9.419448
 10
15.008958
 20
-9.420635
 10
15.012094
 20
-9.421948
 10
15.015281
 20
-9.423292
  0
LWPOLYLINE
  5
155
330
42B
100
AcDbEntity
  8
_0
  6
Continuous
 62
     7
370
     0
100
AcDbPolyline
 90
       36
 70
   128
 43
0.0
 10
15.018437
 20
-9.424552
 10
15.02149
 20
-9.425635
 10
15.024344
 20
-9.426427
 10
15.026927
 20
-9.426813
 10
15.029177
 20
-9.42674
 10
15.031146
 20
-9.42624
 10
15.032865
 20
-9.425427
 10
15.034396
 20
-9.424375
 10
15.035812
 20
-9.423198
 10
15.037156
 20
-9.421969
 10
15.038469
 20
-9.420802
 10
15.039844
 20
-9.41976
 10
15.041281
 20
-9.418938
 10
15.042823
 20
-9.418323
 10
15.044448
 20
-9.417854
 10
15.046167
 20
-9.417531
 10
15.047958
 20
-9.417302
 10
15.049823
 20
-9.417135
 10
15.05176
 20
-9.417
 10
15.053771
 20
-9.416865
 10
15.055833
 20
-9.416688
 10
15.057927
 20
-9.416458
 10
15.06
 20
-9.416198
 10
15.062031
 20
-9.415875
 10
15.063969
 20
-9.41549
 10
15.065792
 20
-9.415052
 10
15.067437
 20
-9.414542
 10
15.068896
 20
-9.413948
 10
15.070146
 20
-9.413323
 10
15.071385
 20
-9.412771
 10
15.072823
 20
-9.412469
 10
15.074677
 20
-9.412562
 10
15.077177
 20
-9.413229
 10
15.080531
 20
-9.414625
 10
15.084969
 20
-9.416896
 10
15.090708
 20
-9.420229
  0
SPLINE
  5
156
330
42B
100
AcDbEntity
  8
_0
  6
Continuous
 62
     7
370
     0
100
AcDbSpline
210
0.0
220
0.0
230
1.0
 70
     8
 71
     3
 72
    14
 73
    10
 74
     0
 42
0.0000000001
 43
0.00000001
 40
0.0
 40
0.0
 40
0.0
 40
0.0
 40
0.1428571428571428
 40
0.2857142857142857
 40
0.4285714285714285
 40
0.5714285714285714
 40
0.7142857142857142
 40
0.857142857142857
 40
1.0
 40
1.0
 40
1.0
 40
1.0
 10
15.88321875
 20
-9.266979166666667
 30
0.0
 10
15.91145833333333
 20
-9.275385416666666
 30
0.0
 10
15.93185416666667
 20
-9.2629375
 30
0.0
 10
15.95020833333333
 20
-9.267916666666666
 30
0.0
 10
15.97875
 20
-9.272895833333333
 30
0.0
 10
15.99913541666667
 20
-9.275385416666666
 30
0.0
 10
16.011375
 20
-9.267916666666666
 30
0.0
 10
16.04398958333333
 20
-9.272895833333333
 30
0.0
 10
16.07254166666667
 20
-9.277875
 30
0.0
 10
16.08321875
 20
-9.275510416666666
 30
0.0
  0
SPLINE
  5
158
330
42B
100
AcDbEntity
  8
_0
  6
Continuous
 62
     7
370
     0
100
AcDbSpline
210
0.0
220
0.0
230
1.0
 70
     8
 71
     3
 72
    14
 73
    10
 74
     0
 42
0.0000000001
 43
0.00000001
 40
0.0
 40
0.0
 40
0.0
 40
0.0
 40
0.1428571428571428
 40
0.2857142857142857
 40
0.4285714285714285
 40
0.5714285714285714
 40
0.7142857142857142
 40
0.857142857142857
 40
1.0
 40
1.0
 40
1.0
 40
1.0
 10
15.88321875
 20
-9.415010416666666
 30
0.0
 10
15.91145833333333
 20
-9.423427083333333
 30
0.0
 10
15.93185416666667
 20
-9.410979166666666
 30
0.0
 10
15.95020833333333
 20
-9.415958333333332
 30
0.0
 10
15.97875
 20
-9.420927083333334
 30
0.0
 10
15.99913541666667
 20
-9.423427083333333
 30
0.0
 10
16.011375
 20
-9.415958333333332
 30
0.0
 10
16.04398958333333
 20
-9.420927083333334
 30
0.0
 10
16.07254166666667
 20
-9.425906249999999
 30
0.0
 10
16.08321875
 20
-9.423541666666667
 30
0.0
  0
LINE
  5
15A
330
42B
100
AcDbEntity
  8
_0
  6
Continuous
 62
     7
370
    13
100
AcDbLine
 10
16.940708
 20
-9.267208
 30
0.0
 11
16.940708
 21
-7.871948
 31
0.0
  0
LINE
  5
15B
330
42B
100
AcDbEntity
  8
_0
  6
Continuous
 62
     7
370
    13
100
AcDbLine
 10
17.140708
 20
-9.27499
 30
0.0
 11
17.140708
 21
-7.871948
 31
0.0
  0
LINE
  5
15C
330
42B
100
AcDbEntity
  8
_0
  6
Continuous
 62
     7
370
    13
100
AcDbLine
 10
17.740708
 20
-9.273448
 30
0.0
 11
17.740708
 21
-7.871948
 31
0.0
  0
LINE
  5
15D
330
42B
100
AcDbEntity
  8
_0
  6
Continuous
 62
     7
370
    13
100
AcDbLine
 10
17.990708
 20
-9.271219
 30
0.0
 11
17.990708
 21
-7.871948
 31
0.0
  0
SPLINE
  5
15E
330
42B
100
AcDbEntity
  8
_0
  6
Continuous
 62
     7
370
     0
100
AcDbSpline
210
0.0
220
0.0
230
1.0
 70
     8
 71
     3
 72
    14
 73
    10
 74
     0
 42
0.0000000001
 43
0.00000001
 40
0.0
 40
0.0
 40
0.0
 40
0.0
 40
0.1428571428571428
 40
0.2857142857142857
 40
0.4285714285714285
 40
0.5714285714285714
 40
0.7142857142857142
 40
0.857142857142857
 40
1.0
 40
1.0
 40
1.0
 40
1.0
 10
16.94070833333333
 20
-9.267208333333333
 30
0.0
 10
16.96465625
 20
-9.2741875
 30
0.0
 10
16.9831875
 20
-9.251552083333333
 30
0.0
 10
17.01098958333333
 20
-9.26853125
 30
0.0
 10
17.03880208333333
 20
-9.245895833333334
 30
0.0
 10
17.05270833333333
 20
-9.291166666666667
 30
0.0
 10
17.07123958333333
 20
-9.262875
 30
0.0
 10
17.08978125
 20
-9.26853125
 30
0.0
 10
17.10367708333333
 20
-9.26853125
 30
0.0
 10
17.14070833333333
 20
-9.274989583333333
 30
0.0
  0
SPLINE
  5
160
330
42B
100
AcDbEntity
  8
_0
  6
Continuous
 62
     7
370
     0
100
AcDbSpline
210
0.0
220
0.0
230
1.0
 70
     8
 71
     3
 72
    12
 73
     8
 74
     0
 42
0.0000000001
 43
0.00000001
 40
0.0
 40
0.0
 40
0.0
 40
0.0
 40
0.2
 40
0.4
 40
0.6000000000000001
 40
0.8
 40
1.0
 40
1.0
 40
1.0
 40
1.0
 10
17.74070833333333
 20
-9.273447916666667
 30
0.0
 10
17.78955208333333
 20
-9.257208333333333
 30
0.0
 10
17.84515625
 20
-9.2741875
 30
0.0
 10
17.886875
 20
-9.302489583333333
 30
0.0
 10
17.89613541666667
 20
-9.2741875
 30
0.0
 10
17.92394791666667
 20
-9.26853125
 30
0.0
 10
17.94711458333333
 20
-9.257208333333333
 30
0.0
 10
17.99070833333333
 20
-9.27121875
 30
0.0
  0
SPLINE
  5
162
330
42B
100
AcDbEntity
  8
_0
  6
Continuous
 62
     7
370
     0
100
AcDbSpline
210
0.0
220
0.0
230
1.0
 70
     8
 71
     3
 72
    14
 73
    10
 74
     0
 42
0.0000000001
 43
0.00000001
 40
0.0
 40
0.0
 40
0.0
 40
0.0
 40
0.1428571428571428
 40
0.2857142857142857
 40
0.4285714285714285
 40
0.5714285714285714
 40
0.7142857142857142
 40
0.857142857142857
 40
1.0
 40
1.0
 40
1.0
 40
1.0
 10
16.94070833333333
 20
-9.420010416666667
 30
0.0
 10
16.96465625
 20
-9.427
 30
0.0
 10
16.9831875
 20
-9.404364583333333
 30
0.0
 10
17.01098958333333
 20
-9.42134375
 30
0.0
 10
17.03880208333333
 20
-9.398708333333333
 30
0.0
 10
17.05270833333333
 20
-9.443979166666667
 30
0.0
 10
17.07123958333333
 20
-9.415687499999999
 30
0.0
 10
17.08978125
 20
-9.42134375
 30
0.0
 10
17.10367708333333
 20
-9.42134375
 30
0.0
 10
17.14070833333333
 20
-9.427802083333333
 30
0.0
  0
SPLINE
  5
164
330
42B
100
AcDbEntity
  8
_0
  6
Continuous
 62
     7
370
     0
100
AcDbSpline
210
0.0
220
0.0
230
1.0
 70
     8
 71
     3
 72
    12
 73
     8
 74
     0
 42
0.0000000001
 43
0.00000001
 40
0.0
 40
0.0
 40
0.0
 40
0.0
 40
0.2
 40
0.4
 40
0.6000000000000001
 40
0.8
 40
1.0
 40
1.0
 40
1.0
 40
1.0
 10
17.74070833333333
 20
-9.426260416666667
 30
0.0
 10
17.78955208333333
 20
-9.410020833333332
 30
0.0
 10
17.84515625
 20
-9.427
 30
0.0
 10
17.886875
 20
-9.455302083333333
 30
0.0
 10
17.89613541666667
 20
-9.427
 30
0.0
 10
17.92394791666667
 20
-9.42134375
 30
0.0
 10
17.94711458333333
 20
-9.410020833333332
 30
0.0
 10
17.99070833333333
 20
-9.42403125
 30
0.0
  0
LINE
  5
166
330
42B
100
AcDbEntity
  8
_0
  6
DGN Style 2
 62
     7
370
    13
100
AcDbLine
 10
17.990708
 20
-8.10976
 30
0.0
 11
17.730937
 21
-8.10976
 31
0.0
  0
LINE
  5
167
330
42B
100
AcDbEntity
  8
_0
  6
DGN Style 2
 62
     7
370
    13
100
AcDbLine
 10
17.990708
 20
-8.07976
 30
0.0
 11
17.725167
 21
-8.07976
 31
0.0
  0
CIRCLE
  5
168
330
42B
100
AcDbEntity
  8
_0
  6
Continuous
 62
     7
370
    13
100
AcDbCircle
 10
17.044328
 20
-8.09476
 30
0.0
 40
0.014999999999997
  0
LINE
  5
169
330
42B
100
AcDbEntity
  8
_0
  6
Continuous
 62
     7
370
    13
100
AcDbLine
 10
15.028208
 20
-7.871948
 30
0.0
 11
15.028208
 21
-9.263458
 31
0.0
  0
LINE
  5
16A
330
42B
100
AcDbEntity
  8
_0
  6
Continuous
 62
     7
370
    13
100
AcDbLine
 10
15.028208
 20
-9.419146
 30
0.0
 11
15.028208
 21
-10.271948
 31
0.0
  0
CIRCLE
  5
16B
330
42B
100
AcDbEntity
  8
_0
  6
Continuous
 62
     7
370
    13
100
AcDbCircle
 10
15.058649
 20
-8.09476
 30
0.0
 40
0.014999999999997
  0
LWPOLYLINE
  5
16C
330
42B
100
AcDbEntity
  8
_0
  6
Continuous
 62
     7
370
    53
100
AcDbPolyline
 90
       10
 70
   128
 43
0.0
 10
15.883219
 20
-7.878604
 10
15.793219
 20
-7.968604
 10
15.793219
 20
-7.991104
 10
15.875229
 20
-8.073115
 10
15.875227
 20
-8.073111
 42
0.573574
 10
15.873522
 20
-8.109693
 10
15.873521
 20
-8.109698
 10
15.793219
 20
-8.18999
 10
15.793219
 20
-8.213604
 10
15.883219
 20
-8.303604
  0
LWPOLYLINE
  5
170
330
42B
100
AcDbEntity
  8
_0
  6
Continuous
 62
     7
370
    53
100
AcDbPolyline
 90
       10
 70
   128
 43
0.0
 10
17.740708
 20
-7.878604
 10
17.650708
 20
-7.968604
 10
17.650708
 20
-7.991104
 10
17.732719
 20
-8.073115
 10
17.732714
 20
-8.073111
 42
0.573574
 10
17.731009
 20
-8.109693
 10
17.73101
 20
-8.109698
 10
17.650708
 20
-8.18999
 10
17.650708
 20
-8.213604
 10
17.740708
 20
-8.303604
  0
LINE
  5
174
330
42B
100
AcDbEntity
  8
_0
  6
Continuous
 62
     7
370
    13
100
AcDbLine
 10
18.065708
 20
-8.10976
 30
0.0
 11
18.065708
 21
-8.07976
 31
0.0
  0
LINE
  5
175
330
42B
100
AcDbEntity
  8
_0
  6
Continuous
 62
     7
370
    13
100
AcDbLine
 10
18.065708
 20
-8.07976
 30
0.0
 11
18.020708
 21
-8.07976
 31
0.0
  0
LINE
  5
176
330
42B
100
AcDbEntity
  8
_0
  6
Continuous
 62
     7
370
    13
100
AcDbLine
 10
18.065708
 20
-8.10976
 30
0.0
 11
18.020708
 21
-8.10976
 31
0.0
  0
LINE
  5
177
330
42B
100
AcDbEntity
  8
_0
  6
Continuous
 62
     7
370
    13
100
AcDbLine
 10
18.000708
 20
-8.05976
 30
0.0
 11
17.990708
 21
-8.05976
 31
0.0
  0
LINE
  5
178
330
42B
100
AcDbEntity
  8
_0
  6
Continuous
 62
     7
370
    13
100
AcDbLine
 10
18.000708
 20
-8.12976
 30
0.0
 11
17.990708
 21
-8.12976
 31
0.0
  0
LINE
  5
179
330
42B
100
AcDbEntity
  8
_0
  6
Continuous
 62
     7
370
    13
100
AcDbLine
 10
18.000708
 20
-8.12976
 30
0.0
 11
18.000708
 21
-8.05976
 31
0.0
  0
LINE
  5
17A
330
42B
100
AcDbEntity
  8
_0
  6
Continuous
 62
     7
370
    13
100
AcDbLine
 10
18.020708
 20
-8.06976
 30
0.0
 11
18.000708
 21
-8.06976
 31
0.0
  0
LINE
  5
17B
330
42B
100
AcDbEntity
  8
_0
  6
Continuous
 62
     7
370
    13
100
AcDbLine
 10
18.020708
 20
-8.11976
 30
0.0
 11
18.000708
 21
-8.11976
 31
0.0
  0
LINE
  5
17C
330
42B
100
AcDbEntity
  8
_0
  6
Continuous
 62
     7
370
    13
100
AcDbLine
 10
18.020708
 20
-8.11976
 30
0.0
 11
18.020708
 21
-8.06976
 31
0.0
  0
LINE
  5
17D
330
42B
100
AcDbEntity
  8
_0
  6
Continuous
 62
     7
370
    13
100
AcDbLine
 10
15.913219
 20
-8.11976
 30
0.0
 11
15.913219
 21
-8.06976
 31
0.0
  0
LINE
  5
17E
330
42B
100
AcDbEntity
  8
_0
  6
Continuous
 62
     7
370
    13
100
AcDbLine
 10
15.913219
 20
-8.11976
 30
0.0
 11
15.893219
 21
-8.11976
 31
0.0
  0
LINE
  5
17F
330
42B
100
AcDbEntity
  8
_0
  6
Continuous
 62
     7
370
    13
100
AcDbLine
 10
15.913219
 20
-8.06976
 30
0.0
 11
15.893219
 21
-8.06976
 31
0.0
  0
LINE
  5
180
330
42B
100
AcDbEntity
  8
_0
  6
Continuous
 62
     7
370
    13
100
AcDbLine
 10
15.893219
 20
-8.12976
 30
0.0
 11
15.893219
 21
-8.05976
 31
0.0
  0
LINE
  5
181
330
42B
100
AcDbEntity
  8
_0
  6
Continuous
 62
     7
370
    13
100
AcDbLine
 10
15.893219
 20
-8.12976
 30
0.0
 11
15.883219
 21
-8.12976
 31
0.0
  0
LINE
  5
182
330
42B
100
AcDbEntity
  8
_0
  6
Continuous
 62
     7
370
    13
100
AcDbLine
 10
15.893219
 20
-8.05976
 30
0.0
 11
15.883219
 21
-8.05976
 31
0.0
  0
LINE
  5
183
330
42B
100
AcDbEntity
  8
_0
  6
Continuous
 62
     7
370
    13
100
AcDbLine
 10
15.958219
 20
-8.10976
 30
0.0
 11
15.913219
 21
-8.10976
 31
0.0
  0
LINE
  5
184
330
42B
100
AcDbEntity
  8
_0
  6
Continuous
 62
     7
370
    13
100
AcDbLine
 10
15.958219
 20
-8.07976
 30
0.0
 11
15.913219
 21
-8.07976
 31
0.0
  0
LINE
  5
185
330
42B
100
AcDbEntity
  8
_0
  6
Continuous
 62
     7
370
    13
100
AcDbLine
 10
15.958219
 20
-8.10976
 30
0.0
 11
15.958219
 21
-8.07976
 31
0.0
  0
LINE
  5
186
330
42B
100
AcDbEntity
  8
BORDER
  6
Continuous
 62
     7
370
    13
100
AcDbLine
 10
13.063302
 20
-7.221948
 30
0.0
 11
13.22701
 21
-7.221948
 31
0.0
  0
LINE
  5
187
330
42B
100
AcDbEntity
  8
BORDER
  6
Continuous
 62
     7
370
    13
100
AcDbLine
 10
13.063302
 20
-7.521948
 30
0.0
 11
13.22701
 21
-7.521948
 31
0.0
  0
LINE
  5
188
330
42B
100
AcDbEntity
  8
BORDER
  6
Continuous
 62
     7
370
    13
100
AcDbLine
 10
13.17701
 20
-7.271948
 30
0.0
 11
13.17701
 21
-7.471948
 31
0.0
  0
SOLID
  5
189
330
42B
100
AcDbEntity
  8
BORDER
  6
Continuous
 62
     7
370
    13
100
AcDbTrace
 10
13.185344
 20
-7.271948
 30
0.0
 11
13.168677
 21
-7.271948
 31
0.0
 12
13.17701
 22
-7.221948
 32
0.0
 13
13.17701
 23
-7.221948
 33
0.0
  0
SOLID
  5
18A
330
42B
100
AcDbEntity
  8
BORDER
  6
Continuous
 62
     7
370
    13
100
AcDbTrace
 10
13.185344
 20
-7.471948
 30
0.0
 11
13.168677
 21
-7.471948
 31
0.0
 12
13.17701
 22
-7.521948
 32
0.0
 13
13.17701
 23
-7.521948
 33
0.0
  0
LINE
  5
18C
330
42B
100
AcDbEntity
  8
BORDER
  6
Continuous
 62
     7
370
    13
100
AcDbLine
 10
12.833302
 20
-7.551948
 30
0.0
 11
12.833302
 21
-7.774823
 31
0.0
  0
LINE
  5
18D
330
42B
100
AcDbEntity
  8
BORDER
  6
Continuous
 62
     7
370
    13
100
AcDbLine
 10
13.033302
 20
-7.551948
 30
0.0
 11
13.033302
 21
-7.774823
 31
0.0
  0
LINE
  5
18E
330
42B
100
AcDbEntity
  8
BORDER
  6
Continuous
 62
     7
370
    13
100
AcDbLine
 10
12.883302
 20
-7.724823
 30
0.0
 11
12.983302
 21
-7.724823
 31
0.0
  0
SOLID
  5
18F
330
42B
100
AcDbEntity
  8
BORDER
  6
Continuous
 62
     7
370
    13
100
AcDbTrace
 10
12.883302
 20
-7.733156
 30
0.0
 11
12.883302
 21
-7.71649
 31
0.0
 12
12.833302
 22
-7.724823
 32
0.0
 13
12.833302
 23
-7.724823
 33
0.0
  0
SOLID
  5
190
330
42B
100
AcDbEntity
  8
BORDER
  6
Continuous
 62
     7
370
    13
100
AcDbTrace
 10
12.983302
 20
-7.733156
 30
0.0
 11
12.983302
 21
-7.71649
 31
0.0
 12
13.033302
 22
-7.724823
 32
0.0
 13
13.033302
 23
-7.724823
 33
0.0
  0
LINE
  5
192
330
42B
100
AcDbEntity
  8
BORDER
  6
Continuous
 62
     7
370
    13
100
AcDbLine
 10
13.359604
 20
-7.875031
 30
0.0
 11
13.189667
 21
-7.875031
 31
0.0
  0
LINE
  5
193
330
42B
100
AcDbEntity
  8
BORDER
  6
Continuous
 62
     7
370
    13
100
AcDbLine
 10
13.339479
 20
-8.09476
 30
0.0
 11
13.189667
 21
-8.09476
 31
0.0
  0
LINE
  5
194
330
42B
100
AcDbEntity
  8
BORDER
  6
Continuous
 62
     7
370
    13
100
AcDbLine
 10
13.239667
 20
-7.925031
 30
0.0
 11
13.239667
 21
-8.04476
 31
0.0
  0
SOLID
  5
195
330
42B
100
AcDbEntity
  8
BORDER
  6
Continuous
 62
     7
370
    13
100
AcDbTrace
 10
13.248
 20
-7.925031
 30
0.0
 11
13.231333
 21
-7.925031
 31
0.0
 12
13.239667
 22
-7.875031
 32
0.0
 13
13.239667
 23
-7.875031
 33
0.0
  0
SOLID
  5
196
330
42B
100
AcDbEntity
  8
BORDER
  6
Continuous
 62
     7
370
    13
100
AcDbTrace
 10
13.248
 20
-8.04476
 30
0.0
 11
13.231333
 21
-8.04476
 31
0.0
 12
13.239667
 22
-8.09476
 32
0.0
 13
13.239667
 23
-8.09476
 33
0.0
  0
LINE
  5
198
330
42B
100
AcDbEntity
  8
BORDER
  6
Continuous
 62
     7
370
    13
100
AcDbLine
 10
13.620708
 20
-7.871948
 30
0.0
 11
13.900573
 21
-7.871948
 31
0.0
  0
LINE
  5
199
330
42B
100
AcDbEntity
  8
BORDER
  6
Continuous
 62
     7
370
    13
100
AcDbLine
 10
13.634844
 20
-10.272531
 30
0.0
 11
13.900573
 21
-10.272531
 31
0.0
  0
LINE
  5
19A
330
42B
100
AcDbEntity
  8
BORDER
  6
Continuous
 62
     7
370
    13
100
AcDbLine
 10
13.850573
 20
-7.921948
 30
0.0
 11
13.850573
 21
-10.222531
 31
0.0
  0
SOLID
  5
19B
330
42B
100
AcDbEntity
  8
BORDER
  6
Continuous
 62
     7
370
    13
100
AcDbTrace
 10
13.858906
 20
-7.921948
 30
0.0
 11
13.84224
 21
-7.921948
 31
0.0
 12
13.850573
 22
-7.871948
 32
0.0
 13
13.850573
 23
-7.871948
 33
0.0
  0
SOLID
  5
19C
330
42B
100
AcDbEntity
  8
BORDER
  6
Continuous
 62
     7
370
    13
100
AcDbTrace
 10
13.858906
 20
-10.222531
 30
0.0
 11
13.84224
 21
-10.222531
 31
0.0
 12
13.850573
 22
-10.272531
 32
0.0
 13
13.850573
 23
-10.272531
 33
0.0
  0
LINE
  5
19E
330
42B
100
AcDbEntity
  8
BORDER
  6
Continuous
 62
     7
370
    13
100
AcDbLine
 10
13.620125
 20
-7.946885
 30
0.0
 11
13.776344
 21
-7.946885
 31
0.0
  0
LINE
  5
19F
330
42B
100
AcDbEntity
  8
BORDER
  6
Continuous
 62
     7
370
    13
100
AcDbLine
 10
13.739187
 20
-7.996885
 30
0.0
 11
13.739187
 21
-8.046885
 31
0.0
  0
LINE
  5
1A0
330
42B
100
AcDbEntity
  8
BORDER
  6
Continuous
 62
     7
370
    13
100
AcDbLine
 10
13.739187
 20
-7.821948
 30
0.0
 11
13.739187
 21
-7.771948
 31
0.0
  0
LINE
  5
1A1
330
42B
100
AcDbEntity
  8
BORDER
  6
Continuous
 62
     7
370
    13
100
AcDbLine
 10
13.739187
 20
-8.046885
 30
0.0
 11
13.739187
 21
-8.150458
 31
0.0
  0
SOLID
  5
1A2
330
42B
100
AcDbEntity
  8
BORDER
  6
Continuous
 62
     7
370
    13
100
AcDbTrace
 10
13.747521
 20
-7.996885
 30
0.0
 11
13.730854
 21
-7.996885
 31
0.0
 12
13.739187
 22
-7.946885
 32
0.0
 13
13.739187
 23
-7.946885
 33
0.0
  0
SOLID
  5
1A3
330
42B
100
AcDbEntity
  8
BORDER
  6
Continuous
 62
     7
370
    13
100
AcDbTrace
 10
13.747521
 20
-7.821948
 30
0.0
 11
13.730854
 21
-7.821948
 31
0.0
 12
13.739187
 22
-7.871948
 32
0.0
 13
13.739187
 23
-7.871948
 33
0.0
  0
SOLID
  5
1A6
330
42B
100
AcDbEntity
  8
BORDER
  6
Continuous
 62
     7
370
    13
100
AcDbTrace
 10
13.747521
 20
-10.122219
 30
0.0
 11
13.730854
 21
-10.122219
 31
0.0
 12
13.739187
 22
-10.172219
 32
0.0
 13
13.739187
 23
-10.172219
 33
0.0
  0
SOLID
  5
1A7
330
42B
100
AcDbEntity
  8
BORDER
  6
Continuous
 62
     7
370
    13
100
AcDbTrace
 10
13.747521
 20
-10.321927
 30
0.0
 11
13.730854
 21
-10.321927
 31
0.0
 12
13.739187
 22
-10.271927
 32
0.0
 13
13.739187
 23
-10.271927
 33
0.0
  0
LINE
  5
1A8
330
42B
100
AcDbEntity
  8
BORDER
  6
Continuous
 62
     7
370
    13
100
AcDbLine
 10
13.739187
 20
-9.968646
 30
0.0
 11
13.739187
 21
-10.072219
 31
0.0
  0
LINE
  5
1A9
330
42B
100
AcDbEntity
  8
BORDER
  6
Continuous
 62
     7
370
    13
100
AcDbLine
 10
13.739187
 20
-10.122219
 30
0.0
 11
13.739187
 21
-10.072219
 31
0.0
  0
LINE
  5
1AA
330
42B
100
AcDbEntity
  8
BORDER
  6
Continuous
 62
     7
370
    13
100
AcDbLine
 10
13.739187
 20
-10.321927
 30
0.0
 11
13.739187
 21
-10.371927
 31
0.0
  0
LINE
  5
1AB
330
42B
100
AcDbEntity
  8
BORDER
  6
Continuous
 62
     7
370
    13
100
AcDbLine
 10
13.620125
 20
-10.172854
 30
0.0
 11
13.776344
 21
-10.172854
 31
0.0
  0
SOLID
  5
1AC
330
42B
100
AcDbEntity
  8
HATCH
  6
Continuous
 62
     7
370
    13
100
AcDbTrace
 10
13.450729
 20
-8.981458
 30
0.0
 11
13.44399
 21
-8.996708
 31
0.0
 12
13.493083
 22
-9.009313
 32
0.0
 13
13.493083
 23
-9.009313
 33
0.0
  0
LINE
  5
1AD
330
42B
100
AcDbEntity
  8
HATCH
  6
Continuous
 62
     7
370
    13
100
AcDbLine
 10
13.447365
 20
-8.989083
 30
0.0
 11
13.205104
 21
-8.881896
 31
0.0
  0
LINE
  5
1AE
330
42B
100
AcDbEntity
  8
HATCH
  6
Continuous
 62
     7
370
    13
100
AcDbLine
 10
13.205104
 20
-8.881896
 30
0.0
 11
13.007894
 21
-8.881896
 31
0.0
  0
SOLID
  5
1AF
330
42B
100
AcDbEntity
  8
HATCH
  6
Continuous
 62
     7
370
    13
100
AcDbTrace
 10
13.507156
 20
-9.563417
 30
0.0
 11
13.502375
 21
-9.579375
 31
0.0
 12
13.552667
 22
-9.585729
 32
0.0
 13
13.552667
 23
-9.585729
 33
0.0
  0
LINE
  5
1B0
330
42B
100
AcDbEntity
  8
HATCH
  6
Continuous
 62
     7
370
    13
100
AcDbLine
 10
13.50476
 20
-9.571396
 30
0.0
 11
13.309375
 21
-9.512917
 31
0.0
  0
LINE
  5
1B1
330
42B
100
AcDbEntity
  8
HATCH
  6
Continuous
 62
     7
370
    13
100
AcDbLine
 10
13.309375
 20
-9.512917
 30
0.0
 11
13.195167
 21
-9.512917
 31
0.0
  0
SOLID
  5
1B2
330
42B
100
AcDbEntity
  8
HATCH
  6
Continuous
 62
     7
370
    13
100
AcDbTrace
 10
13.388427
 20
-9.596365
 30
0.0
 11
13.375521
 21
-9.606917
 31
0.0
 12
13.413646
 22
-9.640333
 32
0.0
 13
13.413646
 23
-9.640333
 33
0.0
  0
LINE
  5
1B3
330
42B
100
AcDbEntity
  8
HATCH
  6
Continuous
 62
     7
370
    13
100
AcDbLine
 10
13.381979
 20
-9.601646
 30
0.0
 11
13.309375
 21
-9.512917
 31
0.0
  0
LINE
  5
1B4
330
42B
100
AcDbEntity
  8
BORDER
  6
Continuous
 62
     7
370
    13
100
AcDbLine
 10
14.514885
 20
-8.881896
 30
0.0
 11
14.564885
 21
-8.881896
 31
0.0
  0
LINE
  5
1B5
330
42B
100
AcDbEntity
  8
BORDER
  6
Continuous
 62
     7
370
    13
100
AcDbLine
 10
14.380125
 20
-8.881896
 30
0.0
 11
14.330125
 21
-8.881896
 31
0.0
  0
SOLID
  5
1B6
330
42B
100
AcDbEntity
  8
BORDER
  6
Continuous
 62
     7
370
    13
100
AcDbTrace
 10
14.514885
 20
-8.890229
 30
0.0
 11
14.514885
 21
-8.873563
 31
0.0
 12
14.464885
 22
-8.881896
 32
0.0
 13
14.464885
 23
-8.881896
 33
0.0
  0
SOLID
  5
1B7
330
42B
100
AcDbEntity
  8
BORDER
  6
Continuous
 62
     7
370
    13
100
AcDbTrace
 10
14.380125
 20
-8.890229
 30
0.0
 11
14.380125
 21
-8.873563
 31
0.0
 12
14.430125
 22
-8.881896
 32
0.0
 13
14.430125
 23
-8.881896
 33
0.0
  0
LINE
  5
1B9
330
42B
100
AcDbEntity
  8
_0
  6
Continuous
 62
     7
370
    13
100
AcDbLine
 10
14.541479
 20
-8.10976
 30
0.0
 11
14.541479
 21
-8.07976
 31
0.0
  0
LINE
  5
1BA
330
42B
100
AcDbEntity
  8
_0
  6
Continuous
 62
     7
370
    13
100
AcDbLine
 10
14.541479
 20
-8.07976
 30
0.0
 11
14.496479
 21
-8.07976
 31
0.0
  0
LINE
  5
1BB
330
42B
100
AcDbEntity
  8
_0
  6
Continuous
 62
     7
370
    13
100
AcDbLine
 10
14.541479
 20
-8.10976
 30
0.0
 11
14.496479
 21
-8.10976
 31
0.0
  0
LINE
  5
1BC
330
42B
100
AcDbEntity
  8
_0
  6
Continuous
 62
     7
370
    13
100
AcDbLine
 10
14.476479
 20
-8.05976
 30
0.0
 11
14.466479
 21
-8.05976
 31
0.0
  0
LINE
  5
1BD
330
42B
100
AcDbEntity
  8
_0
  6
Continuous
 62
     7
370
    13
100
AcDbLine
 10
14.476479
 20
-8.12976
 30
0.0
 11
14.466479
 21
-8.12976
 31
0.0
  0
LINE
  5
1BE
330
42B
100
AcDbEntity
  8
_0
  6
Continuous
 62
     7
370
    13
100
AcDbLine
 10
14.476479
 20
-8.12976
 30
0.0
 11
14.476479
 21
-8.05976
 31
0.0
  0
LINE
  5
1BF
330
42B
100
AcDbEntity
  8
_0
  6
Continuous
 62
     7
370
    13
100
AcDbLine
 10
14.496479
 20
-8.06976
 30
0.0
 11
14.476479
 21
-8.06976
 31
0.0
  0
LINE
  5
1C0
330
42B
100
AcDbEntity
  8
_0
  6
Continuous
 62
     7
370
    13
100
AcDbLine
 10
14.496479
 20
-8.11976
 30
0.0
 11
14.476479
 21
-8.11976
 31
0.0
  0
LINE
  5
1C1
330
42B
100
AcDbEntity
  8
_0
  6
Continuous
 62
     7
370
    13
100
AcDbLine
 10
14.496479
 20
-8.11976
 30
0.0
 11
14.496479
 21
-8.06976
 31
0.0
  0
LWPOLYLINE
  5
1C2
330
42B
100
AcDbEntity
  8
_0
  6
Continuous
 62
     7
370
    53
100
AcDbPolyline
 90
       10
 70
   128
 43
0.0
 10
14.191969
 20
-7.878604
 10
14.101969
 20
-7.968604
 10
14.101969
 20
-7.991104
 10
14.183979
 20
-8.073115
 10
14.183975
 20
-8.073111
 42
0.573574
 10
14.18227
 20
-8.109693
 10
14.182271
 20
-8.109698
 10
14.101969
 20
-8.18999
 10
14.101969
 20
-8.213604
 10
14.191969
 20
-8.303604
  0
SOLID
  5
1C6
330
42B
100
AcDbEntity
  8
HATCH
  6
Continuous
 62
     7
370
    13
100
AcDbTrace
 10
14.121583
 20
-8.063219
 30
0.0
 11
14.110062
 21
-8.07526
 31
0.0
 12
14.151948
 22
-8.103802
 32
0.0
 13
14.151948
 23
-8.103802
 33
0.0
  0
LINE
  5
1C7
330
42B
100
AcDbEntity
  8
HATCH
  6
Continuous
 62
     7
370
    13
100
AcDbLine
 10
14.115823
 20
-8.06924
 30
0.0
 11
13.976833
 21
-7.93626
 31
0.0
  0
LINE
  5
1C8
330
42B
100
AcDbEntity
  8
HATCH
  6
Continuous
 62
     7
370
    13
100
AcDbLine
 10
13.976833
 20
-7.93626
 30
0.0
 11
13.976833
 21
-7.699385
 31
0.0
  0
LINE
  5
1C9
330
42B
100
AcDbEntity
  8
HATCH
  6
Continuous
 62
     7
370
    13
100
AcDbLine
 10
13.976833
 20
-7.699385
 30
0.0
 11
14.024167
 21
-7.699385
 31
0.0
  0
SOLID
  5
1CA
330
42B
100
AcDbEntity
  8
HATCH
  6
Continuous
 62
     7
370
    13
100
AcDbTrace
 10
17.6745
 20
-8.063219
 30
0.0
 11
17.66299
 21
-8.07526
 31
0.0
 12
17.704875
 22
-8.103802
 32
0.0
 13
17.704875
 23
-8.103802
 33
0.0
  0
LINE
  5
1CB
330
42B
100
AcDbEntity
  8
HATCH
  6
Continuous
 62
     7
370
    13
100
AcDbLine
 10
17.66875
 20
-8.06924
 30
0.0
 11
17.52976
 21
-7.93626
 31
0.0
  0
LINE
  5
1CC
330
42B
100
AcDbEntity
  8
HATCH
  6
Continuous
 62
     7
370
    13
100
AcDbLine
 10
17.52976
 20
-7.93626
 30
0.0
 11
17.52976
 21
-7.699385
 31
0.0
  0
LINE
  5
1CD
330
42B
100
AcDbEntity
  8
HATCH
  6
Continuous
 62
     7
370
    13
100
AcDbLine
 10
17.52976
 20
-7.699385
 30
0.0
 11
17.577083
 21
-7.699385
 31
0.0
  0
SOLID
  5
1D1
330
42B
100
AcDbEntity
  8
BORDER
  6
Continuous
 62
     7
370
    13
100
AcDbTrace
 10
15.358906
 20
-10.222531
 30
0.0
 11
15.34224
 21
-10.222531
 31
0.0
 12
15.350573
 22
-10.272531
 32
0.0
 13
15.350573
 23
-10.272531
 33
0.0
  0
SOLID
  5
1D2
330
42B
100
AcDbEntity
  8
BORDER
  6
Continuous
 62
     7
370
    13
100
AcDbTrace
 10
15.358906
 20
-7.921948
 30
0.0
 11
15.34224
 21
-7.921948
 31
0.0
 12
15.350573
 22
-7.871948
 32
0.0
 13
15.350573
 23
-7.871948
 33
0.0
  0
LINE
  5
1D3
330
42B
100
AcDbEntity
  8
BORDER
  6
Continuous
 62
     7
370
    13
100
AcDbLine
 10
15.350573
 20
-7.921948
 30
0.0
 11
15.350573
 21
-10.222531
 31
0.0
  0
LINE
  5
1D4
330
42B
100
AcDbEntity
  8
BORDER
  6
Continuous
 62
     7
370
    13
100
AcDbLine
 10
15.134844
 20
-10.272531
 30
0.0
 11
15.400573
 21
-10.272531
 31
0.0
  0
LINE
  5
1D5
330
42B
100
AcDbEntity
  8
BORDER
  6
Continuous
 62
     7
370
    13
100
AcDbLine
 10
15.120708
 20
-7.871948
 30
0.0
 11
15.400573
 21
-7.871948
 31
0.0
  0
SOLID
  5
1D6
330
42B
100
AcDbEntity
  8
BORDER
  6
Continuous
 62
     7
370
    13
100
AcDbTrace
 10
17.297521
 20
-7.821948
 30
0.0
 11
17.280854
 21
-7.821948
 31
0.0
 12
17.289188
 22
-7.871948
 32
0.0
 13
17.289188
 23
-7.871948
 33
0.0
  0
LINE
  5
1D7
330
42B
100
AcDbEntity
  8
BORDER
  6
Continuous
 62
     7
370
    13
100
AcDbLine
 10
17.289188
 20
-7.821948
 30
0.0
 11
17.289188
 21
-7.771948
 31
0.0
  0
SOLID
  5
1D9
330
42B
100
AcDbEntity
  8
BORDER
  6
Continuous
 62
     7
370
    13
100
AcDbTrace
 10
17.408906
 20
-10.222531
 30
0.0
 11
17.39224
 21
-10.222531
 31
0.0
 12
17.400573
 22
-10.272531
 32
0.0
 13
17.400573
 23
-10.272531
 33
0.0
  0
SOLID
  5
1DA
330
42B
100
AcDbEntity
  8
BORDER
  6
Continuous
 62
     7
370
    13
100
AcDbTrace
 10
17.408906
 20
-7.921948
 30
0.0
 11
17.39224
 21
-7.921948
 31
0.0
 12
17.400573
 22
-7.871948
 32
0.0
 13
17.400573
 23
-7.871948
 33
0.0
  0
LINE
  5
1DB
330
42B
100
AcDbEntity
  8
BORDER
  6
Continuous
 62
     7
370
    13
100
AcDbLine
 10
17.400573
 20
-7.921948
 30
0.0
 11
17.400573
 21
-10.222531
 31
0.0
  0
LINE
  5
1DC
330
42B
100
AcDbEntity
  8
BORDER
  6
Continuous
 62
     7
370
    13
100
AcDbLine
 10
17.184844
 20
-10.272531
 30
0.0
 11
17.450573
 21
-10.272531
 31
0.0
  0
LINE
  5
1DD
330
42B
100
AcDbEntity
  8
BORDER
  6
Continuous
 62
     7
370
    13
100
AcDbLine
 10
17.170708
 20
-7.871948
 30
0.0
 11
17.450573
 21
-7.871948
 31
0.0
  0
LINE
  5
1DE
330
42B
100
AcDbEntity
  8
BORDER
  6
Continuous
 62
     7
370
    13
100
AcDbLine
 10
15.140458
 20
-8.094312
 30
0.0
 11
15.292604
 21
-8.094312
 31
0.0
  0
LINE
  5
1DF
330
42B
100
AcDbEntity
  8
BORDER
  6
Continuous
 62
     7
370
    13
100
AcDbLine
 10
15.242604
 20
-8.144312
 30
0.0
 11
15.242604
 21
-8.194313
 31
0.0
  0
LINE
  5
1E0
330
42B
100
AcDbEntity
  8
BORDER
  6
Continuous
 62
     7
370
    13
100
AcDbLine
 10
15.242604
 20
-7.821948
 30
0.0
 11
15.242604
 21
-7.771948
 31
0.0
  0
LINE
  5
1E1
330
42B
100
AcDbEntity
  8
BORDER
  6
Continuous
 62
     7
370
    13
100
AcDbLine
 10
15.242604
 20
-8.194313
 30
0.0
 11
15.242604
 21
-8.484312
 31
0.0
  0
SOLID
  5
1E2
330
42B
100
AcDbEntity
  8
BORDER
  6
Continuous
 62
     7
370
    13
100
AcDbTrace
 10
15.250937
 20
-8.144312
 30
0.0
 11
15.234271
 21
-8.144312
 31
0.0
 12
15.242604
 22
-8.094312
 32
0.0
 13
15.242604
 23
-8.094312
 33
0.0
  0
SOLID
  5
1E3
330
42B
100
AcDbEntity
  8
BORDER
  6
Continuous
 62
     7
370
    13
100
AcDbTrace
 10
15.250937
 20
-7.821948
 30
0.0
 11
15.234271
 21
-7.821948
 31
0.0
 12
15.242604
 22
-7.871948
 32
0.0
 13
15.242604
 23
-7.871948
 33
0.0
  0
SOLID
  5
1E6
330
42B
100
AcDbEntity
  8
BORDER
  6
Continuous
 62
     7
370
    13
100
AcDbTrace
 10
17.297344
 20
-8.144312
 30
0.0
 11
17.280677
 21
-8.144312
 31
0.0
 12
17.28901
 22
-8.094312
 32
0.0
 13
17.28901
 23
-8.094312
 33
0.0
  0
LINE
  5
1E7
330
42B
100
AcDbEntity
  8
BORDER
  6
Continuous
 62
     7
370
    13
100
AcDbLine
 10
17.28901
 20
-8.194313
 30
0.0
 11
17.28901
 21
-8.484312
 31
0.0
  0
LINE
  5
1E8
330
42B
100
AcDbEntity
  8
BORDER
  6
Continuous
 62
     7
370
    13
100
AcDbLine
 10
17.28901
 20
-8.144312
 30
0.0
 11
17.28901
 21
-8.194313
 31
0.0
  0
LINE
  5
1E9
330
42B
100
AcDbEntity
  8
BORDER
  6
Continuous
 62
     7
370
    13
100
AcDbLine
 10
17.186854
 20
-8.094312
 30
0.0
 11
17.33901
 21
-8.094312
 31
0.0
  0
SOLID
  5
1EA
330
42B
100
AcDbEntity
  8
HATCH
  6
Continuous
 62
     7
370
    13
100
AcDbTrace
 10
-15.968927
 20
-8.180479
 30
0.0
 11
-15.980354
 21
-8.168354
 31
0.0
 12
-15.93824
 22
-8.140135
 32
0.0
 13
-15.93824
 23
-8.140135
 33
0.0
210
0.0
220
0.0
230
-1.0
  0
LINE
  5
1EB
330
42B
100
AcDbEntity
  8
HATCH
  6
Continuous
 62
     7
370
    13
100
AcDbLine
 10
15.974646
 20
-8.174417
 30
0.0
 11
16.106938
 21
-8.298979
 31
0.0
  0
SOLID
  5
1ED
330
42B
100
AcDbEntity
  8
HATCH
  6
Continuous
 62
     7
370
    13
100
AcDbTrace
 10
15.947323
 20
-8.690437
 30
0.0
 11
15.940385
 21
-8.705594
 31
0.0
 12
15.989323
 22
-8.718823
 32
0.0
 13
15.989323
 23
-8.718823
 33
0.0
  0
LINE
  5
1EE
330
42B
100
AcDbEntity
  8
HATCH
  6
Continuous
 62
     7
370
    13
100
AcDbLine
 10
15.943854
 20
-8.69801
 30
0.0
 11
15.762135
 21
-8.614833
 31
0.0
  0
SOLID
  5
1EF
330
42B
100
AcDbEntity
  8
HATCH
  6
Continuous
 62
     7
370
    13
100
AcDbTrace
 10
-15.083833
 20
-8.527875
 30
0.0
 11
-15.089469
 21
-8.512177
 31
0.0
 12
-15.039583
 22
-8.503135
 32
0.0
 13
-15.039583
 23
-8.503135
 33
0.0
210
0.0
220
0.0
230
-1.0
  0
LINE
  5
1F0
330
42B
100
AcDbEntity
  8
HATCH
  6
Continuous
 62
     7
370
    13
100
AcDbLine
 10
15.086646
 20
-8.520031
 30
0.0
 11
15.361427
 21
-8.618677
 31
0.0
  0
SOLID
  5
1F1
330
42B
100
AcDbEntity
  8
HATCH
  6
Continuous
 62
     7
370
    13
100
AcDbTrace
 10
-18.027583
 20
-8.192427
 30
0.0
 11
-18.043885
 21
-8.188937
 31
0.0
 12
-18.025281
 22
-8.141792
 32
0.0
 13
-18.025281
 23
-8.141792
 33
0.0
210
0.0
220
0.0
230
-1.0
  0
LINE
  5
1F2
330
42B
100
AcDbEntity
  8
HATCH
  6
Continuous
 62
     7
370
    13
100
AcDbLine
 10
18.03574
 20
-8.190687
 30
0.0
 11
18.060583
 21
-8.306969
 31
0.0
  0
SOLID
  5
1F3
330
42B
100
AcDbEntity
  8
HATCH
  6
Continuous
 62
     7
370
    13
100
AcDbTrace
 10
17.120698
 20
-9.563073
 30
0.0
 11
17.113198
 21
-9.548187
 31
0.0
 12
17.072302
 22
-9.578146
 32
0.0
 13
17.072302
 23
-9.578146
 33
0.0
  0
LINE
  5
1F4
330
42B
100
AcDbEntity
  8
HATCH
  6
Continuous
 62
     7
370
    13
100
AcDbLine
 10
17.116948
 20
-9.555635
 30
0.0
 11
18.054698
 21
-9.082604
 31
0.0
  0
LINE
  5
1F5
330
42B
100
AcDbEntity
  8
HATCH
  6
Continuous
 62
     7
370
    13
100
AcDbLine
 10
18.054698
 20
-9.082604
 30
0.0
 11
18.142937
 21
-9.082604
 31
0.0
  0
SOLID
  5
1F6
330
42B
100
AcDbEntity
  8
HATCH
  6
Continuous
 62
     7
370
    13
100
AcDbTrace
 10
-17.94551
 20
-9.553219
 30
0.0
 11
-17.929344
 21
-9.549167
 31
0.0
 12
-17.925281
 22
-9.599698
 32
0.0
 13
-17.925281
 23
-9.599698
 33
0.0
210
0.0
220
0.0
230
-1.0
  0
LINE
  5
1F7
330
42B
100
AcDbEntity
  8
HATCH
  6
Continuous
 62
     7
370
    13
100
AcDbLine
 10
17.937417
 20
-9.551187
 30
0.0
 11
18.054698
 21
-9.082604
 31
0.0
  0
LINE
  5
1F8
330
42B
100
AcDbEntity
  8
_0
  6
Continuous
 62
     7
370
    13
100
AcDbLine
 10
20.090708
 20
-5.971948
 30
0.0
 11
20.090708
 21
-5.621948
 31
0.0
  0
LINE
  5
1F9
330
42B
100
AcDbEntity
  8
_0
  6
Continuous
 62
     7
370
    13
100
AcDbLine
 10
19.490708
 20
-5.971948
 30
0.0
 11
19.490708
 21
-5.621948
 31
0.0
  0
LINE
  5
1FA
330
42B
100
AcDbEntity
  8
_0
  6
Continuous
 62
     7
370
    13
100
AcDbLine
 10
19.490708
 20
-5.621948
 30
0.0
 11
20.090708
 21
-5.621948
 31
0.0
  0
LINE
  5
1FB
330
42B
100
AcDbEntity
  8
_0
  6
Continuous
 62
     7
370
    13
100
AcDbLine
 10
19.490708
 20
-5.971948
 30
0.0
 11
20.090708
 21
-5.971948
 31
0.0
  0
LINE
  5
1FC
330
42B
100
AcDbEntity
  8
_0
  6
Continuous
 62
     7
370
    13
100
AcDbLine
 10
19.790708
 20
-5.770896
 30
0.0
 11
19.790708
 21
-5.82299
 31
0.0
  0
LINE
  5
1FD
330
42B
100
AcDbEntity
  8
_0
  6
Continuous
 62
     7
370
    13
100
AcDbLine
 10
19.85425
 20
-5.796948
 30
0.0
 11
19.727156
 21
-5.796948
 31
0.0
  0
LWPOLYLINE
  5
1FE
330
42B
100
AcDbEntity
  8
_0
  6
Continuous
 62
     7
370
     0
100
AcDbPolyline
 90
       17
 70
   128
 43
0.0
 10
19.790706
 20
-5.859443
 42
0.063415
 10
19.830668
 20
-5.854354
 42
0.076468
 10
19.861417
 20
-5.841137
 42
0.107136
 10
19.884022
 20
-5.819127
 42
0.147373
 10
19.890706
 20
-5.796943
 42
0.147373
 10
19.884022
 20
-5.774759
 42
0.107136
 10
19.861417
 20
-5.752749
 42
0.076468
 10
19.830668
 20
-5.739532
 42
0.063415
 10
19.790706
 20
-5.734443
 42
0.063415
 10
19.750744
 20
-5.739532
 42
0.076468
 10
19.719995
 20
-5.752749
 42
0.107136
 10
19.69739
 20
-5.774759
 42
0.147373
 10
19.690706
 20
-5.796943
 42
0.147373
 10
19.69739
 20
-5.819127
 42
0.107136
 10
19.719995
 20
-5.841137
 42
0.076468
 10
19.750744
 20
-5.854354
 42
0.063415
 10
19.790706
 20
-5.859443
  0
LINE
  5
20F
330
42B
100
AcDbEntity
  8
BORDER
  6
Continuous
 62
     7
370
    13
100
AcDbLine
 10
19.690708
 20
-5.746948
 30
0.0
 11
19.690708
 21
-5.642958
 31
0.0
  0
LINE
  5
210
330
42B
100
AcDbEntity
  8
BORDER
  6
Continuous
 62
     7
370
    13
100
AcDbLine
 10
19.890708
 20
-5.746948
 30
0.0
 11
19.890708
 21
-5.642958
 31
0.0
  0
LINE
  5
211
330
42B
100
AcDbEntity
  8
BORDER
  6
Continuous
 62
     7
370
    13
100
AcDbLine
 10
19.740708
 20
-5.692958
 30
0.0
 11
19.840708
 21
-5.692958
 31
0.0
  0
SOLID
  5
212
330
42B
100
AcDbEntity
  8
BORDER
  6
Continuous
 62
     7
370
    13
100
AcDbTrace
 10
19.740708
 20
-5.701292
 30
0.0
 11
19.740708
 21
-5.684625
 31
0.0
 12
19.690708
 22
-5.692958
 32
0.0
 13
19.690708
 23
-5.692958
 33
0.0
  0
SOLID
  5
213
330
42B
100
AcDbEntity
  8
BORDER
  6
Continuous
 62
     7
370
    13
100
AcDbTrace
 10
19.840708
 20
-5.701292
 30
0.0
 11
19.840708
 21
-5.684625
 31
0.0
 12
19.890708
 22
-5.692958
 32
0.0
 13
19.890708
 23
-5.692958
 33
0.0
  0
LINE
  5
214
330
42B
100
AcDbEntity
  8
BORDER
  6
Continuous
 62
     7
370
    13
100
AcDbLine
 10
19.490708
 20
-5.571948
 30
0.0
 11
19.490708
 21
-5.427656
 31
0.0
  0
LINE
  5
215
330
42B
100
AcDbEntity
  8
BORDER
  6
Continuous
 62
     7
370
    13
100
AcDbLine
 10
20.090708
 20
-5.571948
 30
0.0
 11
20.090708
 21
-5.427656
 31
0.0
  0
LINE
  5
216
330
42B
100
AcDbEntity
  8
BORDER
  6
Continuous
 62
     7
370
    13
100
AcDbLine
 10
19.540708
 20
-5.477656
 30
0.0
 11
20.040708
 21
-5.477656
 31
0.0
  0
SOLID
  5
217
330
42B
100
AcDbEntity
  8
BORDER
  6
Continuous
 62
     7
370
    13
100
AcDbTrace
 10
19.540708
 20
-5.48599
 30
0.0
 11
19.540708
 21
-5.469323
 31
0.0
 12
19.490708
 22
-5.477656
 32
0.0
 13
19.490708
 23
-5.477656
 33
0.0
  0
SOLID
  5
218
330
42B
100
AcDbEntity
  8
BORDER
  6
Continuous
 62
     7
370
    13
100
AcDbTrace
 10
20.040708
 20
-5.48599
 30
0.0
 11
20.040708
 21
-5.469323
 31
0.0
 12
20.090708
 22
-5.477656
 32
0.0
 13
20.090708
 23
-5.477656
 33
0.0
  0
LINE
  5
21B
330
42B
100
AcDbEntity
  8
BORDER
  6
Continuous
 62
     7
370
    13
100
AcDbLine
 10
19.840708
 20
-5.734448
 30
0.0
 11
20.176875
 21
-5.734448
 31
0.0
  0
LINE
  5
21C
330
42B
100
AcDbEntity
  8
BORDER
  6
Continuous
 62
     7
370
    13
100
AcDbLine
 10
19.840708
 20
-5.859448
 30
0.0
 11
20.176875
 21
-5.859448
 31
0.0
  0
LINE
  5
21D
330
42B
100
AcDbEntity
  8
BORDER
  6
Continuous
 62
     7
370
    13
100
AcDbLine
 10
20.126875
 20
-5.784448
 30
0.0
 11
20.126875
 21
-5.809448
 31
0.0
  0
SOLID
  5
21E
330
42B
100
AcDbEntity
  8
BORDER
  6
Continuous
 62
     7
370
    13
100
AcDbTrace
 10
20.135208
 20
-5.784448
 30
0.0
 11
20.118542
 21
-5.784448
 31
0.0
 12
20.126875
 22
-5.734448
 32
0.0
 13
20.126875
 23
-5.734448
 33
0.0
  0
SOLID
  5
21F
330
42B
100
AcDbEntity
  8
BORDER
  6
Continuous
 62
     7
370
    13
100
AcDbTrace
 10
20.135208
 20
-5.809448
 30
0.0
 11
20.118542
 21
-5.809448
 31
0.0
 12
20.126875
 22
-5.859448
 32
0.0
 13
20.126875
 23
-5.859448
 33
0.0
  0
LINE
  5
220
330
42B
100
AcDbEntity
  8
BORDER
  6
Continuous
 62
     7
370
    13
100
AcDbLine
 10
20.140708
 20
-5.621948
 30
0.0
 11
20.480365
 21
-5.621948
 31
0.0
  0
LINE
  5
221
330
42B
100
AcDbEntity
  8
BORDER
  6
Continuous
 62
     7
370
    13
100
AcDbLine
 10
20.140708
 20
-5.971948
 30
0.0
 11
20.480365
 21
-5.971948
 31
0.0
  0
LINE
  5
222
330
42B
100
AcDbEntity
  8
BORDER
  6
Continuous
 62
     7
370
    13
100
AcDbLine
 10
20.430365
 20
-5.671948
 30
0.0
 11
20.430365
 21
-5.921948
 31
0.0
  0
SOLID
  5
223
330
42B
100
AcDbEntity
  8
BORDER
  6
Continuous
 62
     7
370
    13
100
AcDbTrace
 10
20.438698
 20
-5.671948
 30
0.0
 11
20.422031
 21
-5.671948
 31
0.0
 12
20.430365
 22
-5.621948
 32
0.0
 13
20.430365
 23
-5.621948
 33
0.0
  0
SOLID
  5
224
330
42B
100
AcDbEntity
  8
BORDER
  6
Continuous
 62
     7
370
    13
100
AcDbTrace
 10
20.438698
 20
-5.921948
 30
0.0
 11
20.422031
 21
-5.921948
 31
0.0
 12
20.430365
 22
-5.971948
 32
0.0
 13
20.430365
 23
-5.971948
 33
0.0
  0
LINE
  5
227
330
42B
100
AcDbEntity
  8
BORDER
  6
Continuous
 62
     7
370
    13
100
AcDbLine
 10
19.790708
 20
-5.909448
 30
0.0
 11
19.790708
 21
-6.232979
 31
0.0
  0
LINE
  5
228
330
42B
100
AcDbEntity
  8
BORDER
  6
Continuous
 62
     7
370
    13
100
AcDbLine
 10
19.490708
 20
-6.021948
 30
0.0
 11
19.490708
 21
-6.232979
 31
0.0
  0
LINE
  5
229
330
42B
100
AcDbEntity
  8
BORDER
  6
Continuous
 62
     7
370
    13
100
AcDbLine
 10
19.740708
 20
-6.182979
 30
0.0
 11
19.540708
 21
-6.182979
 31
0.0
  0
SOLID
  5
22A
330
42B
100
AcDbEntity
  8
BORDER
  6
Continuous
 62
     7
370
    13
100
AcDbTrace
 10
19.740708
 20
-6.191312
 30
0.0
 11
19.740708
 21
-6.174646
 31
0.0
 12
19.790708
 22
-6.182979
 32
0.0
 13
19.790708
 23
-6.182979
 33
0.0
  0
SOLID
  5
22B
330
42B
100
AcDbEntity
  8
BORDER
  6
Continuous
 62
     7
370
    13
100
AcDbTrace
 10
19.540708
 20
-6.191312
 30
0.0
 11
19.540708
 21
-6.174646
 31
0.0
 12
19.490708
 22
-6.182979
 32
0.0
 13
19.490708
 23
-6.182979
 33
0.0
  0
LINE
  5
22D
330
42B
100
AcDbEntity
  8
BORDER
  6
Continuous
 62
     7
370
    13
100
AcDbLine
 10
19.640708
 20
-5.796948
 30
0.0
 11
19.272875
 21
-5.796948
 31
0.0
  0
LINE
  5
22E
330
42B
100
AcDbEntity
  8
BORDER
  6
Continuous
 62
     7
370
    13
100
AcDbLine
 10
19.440708
 20
-5.971948
 30
0.0
 11
19.272875
 21
-5.971948
 31
0.0
  0
LINE
  5
22F
330
42B
100
AcDbEntity
  8
BORDER
  6
Continuous
 62
     7
370
    13
100
AcDbLine
 10
19.322875
 20
-5.846948
 30
0.0
 11
19.322875
 21
-5.921948
 31
0.0
  0
SOLID
  5
230
330
42B
100
AcDbEntity
  8
BORDER
  6
Continuous
 62
     7
370
    13
100
AcDbTrace
 10
19.331208
 20
-5.846948
 30
0.0
 11
19.314542
 21
-5.846948
 31
0.0
 12
19.322875
 22
-5.796948
 32
0.0
 13
19.322875
 23
-5.796948
 33
0.0
  0
SOLID
  5
231
330
42B
100
AcDbEntity
  8
BORDER
  6
Continuous
 62
     7
370
    13
100
AcDbTrace
 10
19.331208
 20
-5.921948
 30
0.0
 11
19.314542
 21
-5.921948
 31
0.0
 12
19.322875
 22
-5.971948
 32
0.0
 13
19.322875
 23
-5.971948
 33
0.0
  0
LINE
  5
237
330
42B
100
AcDbEntity
  8
_0
  6
Continuous
 62
     7
370
    13
100
AcDbLine
 10
19.833646
 20
-5.002125
 30
0.0
 11
19.733646
 21
-5.002125
 31
0.0
  0
LINE
  5
238
330
42B
100
AcDbEntity
  8
_0
  6
Continuous
 62
     7
370
    13
100
AcDbLine
 10
19.833646
 20
-5.002125
 30
0.0
 11
19.833646
 21
-4.802125
 31
0.0
  0
LINE
  5
239
330
42B
100
AcDbEntity
  8
_0
  6
Continuous
 62
     7
370
    13
100
AcDbLine
 10
19.733646
 20
-5.002125
 30
0.0
 11
19.733646
 21
-4.802125
 31
0.0
  0
LINE
  5
23A
330
42B
100
AcDbEntity
  8
_0
  6
Continuous
 62
     7
370
    13
100
AcDbLine
 10
19.908646
 20
-4.802125
 30
0.0
 11
19.908646
 21
-4.677125
 31
0.0
  0
LINE
  5
23B
330
42B
100
AcDbEntity
  8
_0
  6
Continuous
 62
     7
370
    13
100
AcDbLine
 10
19.658646
 20
-4.802125
 30
0.0
 11
19.658646
 21
-4.677125
 31
0.0
  0
LINE
  5
23C
330
42B
100
AcDbEntity
  8
_0
  6
Continuous
 62
     7
370
    13
100
AcDbLine
 10
19.908646
 20
-4.802125
 30
0.0
 11
19.658646
 21
-4.802125
 31
0.0
  0
LINE
  5
23D
330
42B
100
AcDbEntity
  8
_0
  6
Continuous
 62
     7
370
    13
100
AcDbLine
 10
19.908646
 20
-4.677125
 30
0.0
 11
19.658646
 21
-4.677125
 31
0.0
  0
LINE
  5
23E
330
42B
100
AcDbEntity
  8
_0
  6
Continuous
 62
     7
370
    13
100
AcDbLine
 10
19.883646
 20
-4.527125
 30
0.0
 11
19.683646
 21
-4.527125
 31
0.0
  0
LINE
  5
23F
330
42B
100
AcDbEntity
  8
_0
  6
Continuous
 62
     7
370
    13
100
AcDbLine
 10
20.083646
 20
-4.502125
 30
0.0
 11
19.483646
 21
-4.502125
 31
0.0
  0
LINE
  5
240
330
42B
100
AcDbEntity
  8
_0
  6
Continuous
 62
     7
370
    13
100
AcDbLine
 10
20.083646
 20
-4.477125
 30
0.0
 11
19.483646
 21
-4.477125
 31
0.0
  0
LINE
  5
241
330
42B
100
AcDbEntity
  8
_0
  6
Continuous
 62
     7
370
    13
100
AcDbLine
 10
19.733646
 20
-4.677125
 30
0.0
 11
19.733646
 21
-4.527125
 31
0.0
  0
LINE
  5
242
330
42B
100
AcDbEntity
  8
_0
  6
Continuous
 62
     7
370
    13
100
AcDbLine
 10
19.833646
 20
-4.677125
 30
0.0
 11
19.833646
 21
-4.527125
 31
0.0
  0
LINE
  5
243
330
42B
100
AcDbEntity
  8
_0
  6
Continuous
 62
     7
370
    13
100
AcDbLine
 10
20.083646
 20
-4.502125
 30
0.0
 11
20.083646
 21
-4.477125
 31
0.0
  0
LINE
  5
244
330
42B
100
AcDbEntity
  8
_0
  6
Continuous
 62
     7
370
    13
100
AcDbLine
 10
19.483646
 20
-4.502125
 30
0.0
 11
19.483646
 21
-4.477125
 31
0.0
  0
LINE
  5
245
330
42B
100
AcDbEntity
  8
_0
  6
Continuous
 62
     7
370
    13
100
AcDbLine
 10
19.858646
 20
-4.802125
 30
0.0
 11
19.858646
 21
-4.677125
 31
0.0
  0
LINE
  5
246
330
42B
100
AcDbEntity
  8
_0
  6
Continuous
 62
     7
370
    13
100
AcDbLine
 10
19.758646
 20
-4.802125
 30
0.0
 11
19.758646
 21
-4.677125
 31
0.0
  0
LINE
  5
247
330
42B
100
AcDbEntity
  8
_0
  6
Continuous
 62
     7
370
    13
100
AcDbLine
 10
19.883646
 20
-4.527125
 30
0.0
 11
19.883646
 21
-4.502125
 31
0.0
  0
LINE
  5
248
330
42B
100
AcDbEntity
  8
_0
  6
Continuous
 62
     7
370
    13
100
AcDbLine
 10
19.683646
 20
-4.527125
 30
0.0
 11
19.683646
 21
-4.502125
 31
0.0
  0
ARC
  5
249
330
42B
100
AcDbEntity
  8
_0
  6
Continuous
 62
     7
370
    13
100
AcDbCircle
 10
19.783648
 20
-4.543794
 30
0.0
 40
0.1416666666666657
100
AcDbArc
 50
28.072486
 51
151.927511
  0
LINE
  5
24A
330
42B
100
AcDbEntity
  8
_0
  6
Continuous
 62
     7
370
    13
100
AcDbLine
 10
19.813646
 20
-4.982125
 30
0.0
 11
19.753646
 21
-4.982125
 31
0.0
  0
LINE
  5
24B
330
42B
100
AcDbEntity
  8
_0
  6
Continuous
 62
     7
370
    13
100
AcDbLine
 10
19.833646
 20
-4.962125
 30
0.0
 11
19.733646
 21
-4.962125
 31
0.0
  0
LINE
  5
24C
330
42B
100
AcDbEntity
  8
_0
  6
Continuous
 62
     7
370
    13
100
AcDbLine
 10
19.813646
 20
-4.942125
 30
0.0
 11
19.753646
 21
-4.942125
 31
0.0
  0
LINE
  5
24D
330
42B
100
AcDbEntity
  8
_0
  6
Continuous
 62
     7
370
    13
100
AcDbLine
 10
19.833646
 20
-4.922125
 30
0.0
 11
19.733646
 21
-4.922125
 31
0.0
  0
LINE
  5
24E
330
42B
100
AcDbEntity
  8
_0
  6
Continuous
 62
     7
370
    13
100
AcDbLine
 10
19.813646
 20
-4.902125
 30
0.0
 11
19.753646
 21
-4.902125
 31
0.0
  0
LINE
  5
24F
330
42B
100
AcDbEntity
  8
_0
  6
Continuous
 62
     7
370
    13
100
AcDbLine
 10
19.833646
 20
-4.882125
 30
0.0
 11
19.733646
 21
-4.882125
 31
0.0
  0
LINE
  5
250
330
42B
100
AcDbEntity
  8
_0
  6
Continuous
 62
     7
370
    13
100
AcDbLine
 10
19.813646
 20
-4.862125
 30
0.0
 11
19.753646
 21
-4.862125
 31
0.0
  0
LINE
  5
251
330
42B
100
AcDbEntity
  8
_0
  6
Continuous
 62
     7
370
    13
100
AcDbLine
 10
19.833646
 20
-4.842125
 30
0.0
 11
19.733646
 21
-4.842125
 31
0.0
  0
LINE
  5
252
330
42B
100
AcDbEntity
  8
_0
  6
Continuous
 62
     7
370
    13
100
AcDbLine
 10
19.813646
 20
-4.822125
 30
0.0
 11
19.753646
 21
-4.822125
 31
0.0
  0
LINE
  5
253
330
42B
100
AcDbEntity
  8
_0
  6
Continuous
 62
     7
370
    13
100
AcDbLine
 10
19.813646
 20
-4.537125
 30
0.0
 11
19.753646
 21
-4.537125
 31
0.0
  0
LINE
  5
254
330
42B
100
AcDbEntity
  8
_0
  6
Continuous
 62
     7
370
    13
100
AcDbLine
 10
19.833646
 20
-4.557125
 30
0.0
 11
19.733646
 21
-4.557125
 31
0.0
  0
LINE
  5
255
330
42B
100
AcDbEntity
  8
_0
  6
Continuous
 62
     7
370
    13
100
AcDbLine
 10
19.813646
 20
-4.577125
 30
0.0
 11
19.753646
 21
-4.577125
 31
0.0
  0
LINE
  5
256
330
42B
100
AcDbEntity
  8
_0
  6
Continuous
 62
     7
370
    13
100
AcDbLine
 10
19.833646
 20
-4.597125
 30
0.0
 11
19.733646
 21
-4.597125
 31
0.0
  0
LINE
  5
257
330
42B
100
AcDbEntity
  8
_0
  6
Continuous
 62
     7
370
    13
100
AcDbLine
 10
19.813646
 20
-4.617125
 30
0.0
 11
19.753646
 21
-4.617125
 31
0.0
  0
LINE
  5
258
330
42B
100
AcDbEntity
  8
_0
  6
Continuous
 62
     7
370
    13
100
AcDbLine
 10
19.833646
 20
-4.637125
 30
0.0
 11
19.733646
 21
-4.637125
 31
0.0
  0
LINE
  5
259
330
42B
100
AcDbEntity
  8
_0
  6
Continuous
 62
     7
370
    13
100
AcDbLine
 10
19.813646
 20
-4.657125
 30
0.0
 11
19.753646
 21
-4.657125
 31
0.0
  0
SOLID
  5
25E
330
42B
100
AcDbEntity
  8
HATCH
  6
Continuous
 62
     7
370
    13
100
AcDbTrace
 10
-19.959969
 20
-4.573677
 30
0.0
 11
-19.966208
 21
-4.558229
 31
0.0
 12
-19.916729
 22
-4.547229
 32
0.0
 13
-19.916729
 23
-4.547229
 33
0.0
210
0.0
220
0.0
230
-1.0
  0
LINE
  5
25F
330
42B
100
AcDbEntity
  8
HATCH
  6
Continuous
 62
     7
370
    13
100
AcDbLine
 10
19.963094
 20
-4.565958
 30
0.0
 11
20.169958
 21
-4.649469
 31
0.0
  0
LINE
  5
260
330
42B
100
AcDbEntity
  8
HATCH
  6
Continuous
 62
     7
370
    13
100
AcDbLine
 10
20.169958
 20
-4.649469
 30
0.0
 11
20.240281
 21
-4.649469
 31
0.0
  0
LWPOLYLINE
  5
261
330
42B
100
AcDbEntity
  8
_0
  6
Continuous
 62
     7
370
   100
100
AcDbPolyline
 90
       10
 70
   128
 43
0.0
 10
18.178802
 20
-5.008719
 10
18.158802
 20
-5.008719
 10
18.003802
 20
-5.108719
 10
18.003802
 20
-5.158719
 10
18.158802
 20
-5.258719
 10
18.158802
 20
-5.408719
 10
18.003802
 20
-5.508719
 10
18.003802
 20
-5.558719
 10
18.158802
 20
-5.658719
 10
18.178802
 20
-5.658719
  0
LINE
  5
262
330
42B
100
AcDbEntity
  8
_0
  6
Continuous
 62
     7
370
    13
100
AcDbLine
 10
18.193427
 20
-4.701396
 30
0.0
 11
18.193427
 21
-5.839552
 31
0.0
  0
LINE
  5
263
330
42B
100
AcDbEntity
  8
_0
  6
Continuous
 62
     7
370
    13
100
AcDbLine
 10
18.092406
 20
-5.109719
 30
0.0
 11
18.117938
 21
-5.091948
 31
0.0
  0
LINE
  5
264
330
42B
100
AcDbEntity
  8
_0
  6
Continuous
 62
     7
370
    13
100
AcDbLine
 10
18.117031
 20
-5.092573
 30
0.0
 11
18.102365
 21
-5.07151
 31
0.0
  0
LINE
  5
265
330
42B
100
AcDbEntity
  8
_0
  6
Continuous
 62
     7
370
    13
100
AcDbLine
 10
18.092406
 20
-5.109719
 30
0.0
 11
18.07775
 21
-5.088656
 31
0.0
  0
LINE
  5
266
330
42B
100
AcDbEntity
  8
_0
  6
Continuous
 62
     7
370
    13
100
AcDbLine
 10
18.100594
 20
-5.027167
 30
0.0
 11
18.094875
 21
-5.018969
 31
0.0
  0
LINE
  5
267
330
42B
100
AcDbEntity
  8
_0
  6
Continuous
 62
     7
370
    13
100
AcDbLine
 10
18.043146
 20
-5.067167
 30
0.0
 11
18.037427
 21
-5.058969
 31
0.0
  0
LINE
  5
268
330
42B
100
AcDbEntity
  8
_0
  6
Continuous
 62
     7
370
    13
100
AcDbLine
 10
18.043146
 20
-5.067167
 30
0.0
 11
18.100594
 21
-5.027167
 31
0.0
  0
LINE
  5
269
330
42B
100
AcDbEntity
  8
_0
  6
Continuous
 62
     7
370
    13
100
AcDbLine
 10
18.110573
 20
-5.065802
 30
0.0
 11
18.099146
 21
-5.049385
 31
0.0
  0
LINE
  5
26A
330
42B
100
AcDbEntity
  8
_0
  6
Continuous
 62
     7
370
    13
100
AcDbLine
 10
18.069542
 20
-5.094375
 30
0.0
 11
18.058115
 21
-5.077958
 31
0.0
  0
LINE
  5
26B
330
42B
100
AcDbEntity
  8
_0
  6
Continuous
 62
     7
370
    13
100
AcDbLine
 10
18.069542
 20
-5.094375
 30
0.0
 11
18.110573
 21
-5.065802
 31
0.0
  0
ARC
  5
26C
330
42B
100
AcDbEntity
  8
_0
  6
Continuous
 62
     7
370
    13
100
AcDbCircle
 10
18.077629
 20
-5.055447
 30
0.0
 40
0.040354194183506
100
AcDbArc
 50
64.701253
 51
184.998622
  0
ARC
  5
26D
330
42B
100
AcDbEntity
  8
_0
  6
Continuous
 62
     7
370
    13
100
AcDbCircle
 10
18.081576
 20
-5.210135
 30
0.0
 40
0.040354194183506
100
AcDbArc
 50
178.029072
 51
298.326442
  0
LINE
  5
26E
330
42B
100
AcDbEntity
  8
_0
  6
Continuous
 62
     7
370
    13
100
AcDbLine
 10
18.120521
 20
-5.202156
 30
0.0
 11
18.078042
 21
-5.175781
 31
0.0
  0
LINE
  5
26F
330
42B
100
AcDbEntity
  8
_0
  6
Continuous
 62
     7
370
    13
100
AcDbLine
 10
18.120521
 20
-5.202156
 30
0.0
 11
18.109979
 21
-5.219146
 31
0.0
  0
LINE
  5
270
330
42B
100
AcDbEntity
  8
_0
  6
Continuous
 62
     7
370
    13
100
AcDbLine
 10
18.078042
 20
-5.175781
 30
0.0
 11
18.06749
 21
-5.192781
 31
0.0
  0
LINE
  5
271
330
42B
100
AcDbEntity
  8
_0
  6
Continuous
 62
     7
370
    13
100
AcDbLine
 10
18.106
 20
-5.237156
 30
0.0
 11
18.046521
 21
-5.20025
 31
0.0
  0
LINE
  5
272
330
42B
100
AcDbEntity
  8
_0
  6
Continuous
 62
     7
370
    13
100
AcDbLine
 10
18.106
 20
-5.237156
 30
0.0
 11
18.100729
 21
-5.245656
 31
0.0
  0
LINE
  5
273
330
42B
100
AcDbEntity
  8
_0
  6
Continuous
 62
     7
370
    13
100
AcDbLine
 10
18.046521
 20
-5.20025
 30
0.0
 11
18.04125
 21
-5.20875
 31
0.0
  0
LINE
  5
274
330
42B
100
AcDbEntity
  8
_0
  6
Continuous
 62
     7
370
    13
100
AcDbLine
 10
18.125552
 20
-5.175073
 30
0.0
 11
18.112031
 21
-5.196875
 31
0.0
  0
LINE
  5
275
330
42B
100
AcDbEntity
  8
_0
  6
Continuous
 62
     7
370
    13
100
AcDbLine
 10
18.100062
 20
-5.15926
 30
0.0
 11
18.086531
 21
-5.181062
 31
0.0
  0
LINE
  5
276
330
42B
100
AcDbEntity
  8
_0
  6
Continuous
 62
     7
370
    13
100
AcDbLine
 10
18.125552
 20
-5.175073
 30
0.0
 11
18.099125
 21
-5.158667
 31
0.0
  0
LINE
  5
277
330
42B
100
AcDbEntity
  8
_0
  6
Continuous
 62
     7
370
    13
100
AcDbLine
 10
18.125552
 20
-5.577354
 30
0.0
 11
18.099125
 21
-5.560958
 31
0.0
  0
LINE
  5
278
330
42B
100
AcDbEntity
  8
_0
  6
Continuous
 62
     7
370
    13
100
AcDbLine
 10
18.100062
 20
-5.561531
 30
0.0
 11
18.086531
 21
-5.583344
 31
0.0
  0
LINE
  5
279
330
42B
100
AcDbEntity
  8
_0
  6
Continuous
 62
     7
370
    13
100
AcDbLine
 10
18.125552
 20
-5.577354
 30
0.0
 11
18.112031
 21
-5.599156
 31
0.0
  0
LINE
  5
27A
330
42B
100
AcDbEntity
  8
_0
  6
Continuous
 62
     7
370
    13
100
AcDbLine
 10
18.046521
 20
-5.602531
 30
0.0
 11
18.04125
 21
-5.611031
 31
0.0
  0
LINE
  5
27B
330
42B
100
AcDbEntity
  8
_0
  6
Continuous
 62
     7
370
    13
100
AcDbLine
 10
18.106
 20
-5.639448
 30
0.0
 11
18.100729
 21
-5.647937
 31
0.0
  0
LINE
  5
27C
330
42B
100
AcDbEntity
  8
_0
  6
Continuous
 62
     7
370
    13
100
AcDbLine
 10
18.106
 20
-5.639448
 30
0.0
 11
18.046521
 21
-5.602531
 31
0.0
  0
LINE
  5
27D
330
42B
100
AcDbEntity
  8
_0
  6
Continuous
 62
     7
370
    13
100
AcDbLine
 10
18.078042
 20
-5.578062
 30
0.0
 11
18.06749
 21
-5.595063
 31
0.0
  0
LINE
  5
27E
330
42B
100
AcDbEntity
  8
_0
  6
Continuous
 62
     7
370
    13
100
AcDbLine
 10
18.120521
 20
-5.604427
 30
0.0
 11
18.109979
 21
-5.621427
 31
0.0
  0
LINE
  5
27F
330
42B
100
AcDbEntity
  8
_0
  6
Continuous
 62
     7
370
    13
100
AcDbLine
 10
18.120521
 20
-5.604427
 30
0.0
 11
18.078042
 21
-5.578062
 31
0.0
  0
ARC
  5
280
330
42B
100
AcDbEntity
  8
_0
  6
Continuous
 62
     7
370
    13
100
AcDbCircle
 10
18.081576
 20
-5.612416
 30
0.0
 40
0.040354194183506
100
AcDbArc
 50
178.029072
 51
298.326442
  0
ARC
  5
281
330
42B
100
AcDbEntity
  8
_0
  6
Continuous
 62
     7
370
    13
100
AcDbCircle
 10
18.077629
 20
-5.457729
 30
0.0
 40
0.040354194183506
100
AcDbArc
 50
64.701253
 51
184.998622
  0
LINE
  5
282
330
42B
100
AcDbEntity
  8
_0
  6
Continuous
 62
     7
370
    13
100
AcDbLine
 10
18.069542
 20
-5.496656
 30
0.0
 11
18.110573
 21
-5.468083
 31
0.0
  0
LINE
  5
283
330
42B
100
AcDbEntity
  8
_0
  6
Continuous
 62
     7
370
    13
100
AcDbLine
 10
18.069542
 20
-5.496656
 30
0.0
 11
18.058115
 21
-5.48024
 31
0.0
  0
LINE
  5
284
330
42B
100
AcDbEntity
  8
_0
  6
Continuous
 62
     7
370
    13
100
AcDbLine
 10
18.110573
 20
-5.468083
 30
0.0
 11
18.099146
 21
-5.451667
 31
0.0
  0
LINE
  5
285
330
42B
100
AcDbEntity
  8
_0
  6
Continuous
 62
     7
370
    13
100
AcDbLine
 10
18.043146
 20
-5.469448
 30
0.0
 11
18.100594
 21
-5.429448
 31
0.0
  0
LINE
  5
286
330
42B
100
AcDbEntity
  8
_0
  6
Continuous
 62
     7
370
    13
100
AcDbLine
 10
18.043146
 20
-5.469448
 30
0.0
 11
18.037427
 21
-5.46124
 31
0.0
  0
LINE
  5
287
330
42B
100
AcDbEntity
  8
_0
  6
Continuous
 62
     7
370
    13
100
AcDbLine
 10
18.100594
 20
-5.429448
 30
0.0
 11
18.094875
 21
-5.42124
 31
0.0
  0
LINE
  5
288
330
42B
100
AcDbEntity
  8
_0
  6
Continuous
 62
     7
370
    13
100
AcDbLine
 10
18.092406
 20
-5.512
 30
0.0
 11
18.07775
 21
-5.490938
 31
0.0
  0
LINE
  5
289
330
42B
100
AcDbEntity
  8
_0
  6
Continuous
 62
     7
370
    13
100
AcDbLine
 10
18.117031
 20
-5.494854
 30
0.0
 11
18.102365
 21
-5.473792
 31
0.0
  0
LINE
  5
28A
330
42B
100
AcDbEntity
  8
_0
  6
Continuous
 62
     7
370
    13
100
AcDbLine
 10
18.092406
 20
-5.512
 30
0.0
 11
18.117938
 21
-5.494219
 31
0.0
  0
LINE
  5
28B
330
42B
100
AcDbEntity
  8
BORDER
  6
Continuous
 62
     7
370
    13
100
AcDbLine
 10
18.128802
 20
-5.66525
 30
0.0
 11
17.754594
 21
-5.66525
 31
0.0
  0
LINE
  5
28C
330
42B
100
AcDbEntity
  8
BORDER
  6
Continuous
 62
     7
370
    13
100
AcDbLine
 10
17.577583
 20
-5.61525
 30
0.0
 11
17.577583
 21
-5.052417
 31
0.0
  0
SOLID
  5
28D
330
42B
100
AcDbEntity
  8
BORDER
  6
Continuous
 62
     7
370
    13
100
AcDbTrace
 10
17.585917
 20
-5.61525
 30
0.0
 11
17.56925
 21
-5.61525
 31
0.0
 12
17.577583
 22
-5.66525
 32
0.0
 13
17.577583
 23
-5.66525
 33
0.0
  0
SOLID
  5
28E
330
42B
100
AcDbEntity
  8
BORDER
  6
Continuous
 62
     7
370
    13
100
AcDbTrace
 10
17.585917
 20
-5.052417
 30
0.0
 11
17.56925
 21
-5.052417
 31
0.0
 12
17.577583
 22
-5.002417
 32
0.0
 13
17.577583
 23
-5.002417
 33
0.0
  0
LINE
  5
290
330
42B
100
AcDbEntity
  8
BORDER
  6
Continuous
 62
     7
370
    13
100
AcDbLine
 10
17.936552
 20
-5.534792
 30
0.0
 11
17.718656
 21
-5.534792
 31
0.0
  0
LINE
  5
291
330
42B
100
AcDbEntity
  8
BORDER
  6
Continuous
 62
     7
370
    13
100
AcDbLine
 10
17.768656
 20
-5.61525
 30
0.0
 11
17.768656
 21
-5.584792
 31
0.0
  0
SOLID
  5
292
330
42B
100
AcDbEntity
  8
BORDER
  6
Continuous
 62
     7
370
    13
100
AcDbTrace
 10
17.77699
 20
-5.61525
 30
0.0
 11
17.760323
 21
-5.61525
 31
0.0
 12
17.768656
 22
-5.66525
 32
0.0
 13
17.768656
 23
-5.66525
 33
0.0
  0
SOLID
  5
293
330
42B
100
AcDbEntity
  8
BORDER
  6
Continuous
 62
     7
370
    13
100
AcDbTrace
 10
17.77699
 20
-5.584792
 30
0.0
 11
17.760323
 21
-5.584792
 31
0.0
 12
17.768656
 22
-5.534792
 32
0.0
 13
17.768656
 23
-5.534792
 33
0.0
  0
LINE
  5
295
330
42B
100
AcDbEntity
  8
BORDER
  6
Continuous
 62
     7
370
    13
100
AcDbLine
 10
17.677281
 20
-5.66525
 30
0.0
 11
17.527583
 21
-5.66525
 31
0.0
  0
LINE
  5
296
330
42B
100
AcDbEntity
  8
BORDER
  6
Continuous
 62
     7
370
    13
100
AcDbLine
 10
17.677281
 20
-5.002417
 30
0.0
 11
17.527583
 21
-5.002417
 31
0.0
  0
LINE
  5
297
330
42B
100
AcDbEntity
  8
BORDER
  6
Continuous
 62
     7
370
    13
100
AcDbLine
 10
17.936552
 20
-5.132865
 30
0.0
 11
17.718656
 21
-5.132865
 31
0.0
  0
SOLID
  5
298
330
42B
100
AcDbEntity
  8
BORDER
  6
Continuous
 62
     7
370
    13
100
AcDbTrace
 10
17.77699
 20
-5.082865
 30
0.0
 11
17.760323
 21
-5.082865
 31
0.0
 12
17.768656
 22
-5.132865
 32
0.0
 13
17.768656
 23
-5.132865
 33
0.0
  0
SOLID
  5
299
330
42B
100
AcDbEntity
  8
BORDER
  6
Continuous
 62
     7
370
    13
100
AcDbTrace
 10
17.77699
 20
-5.052417
 30
0.0
 11
17.760323
 21
-5.052417
 31
0.0
 12
17.768656
 22
-5.002417
 32
0.0
 13
17.768656
 23
-5.002417
 33
0.0
  0
LINE
  5
29A
330
42B
100
AcDbEntity
  8
BORDER
  6
Continuous
 62
     7
370
    13
100
AcDbLine
 10
17.768656
 20
-5.052417
 30
0.0
 11
17.768656
 21
-5.082865
 31
0.0
  0
LINE
  5
29B
330
42B
100
AcDbEntity
  8
BORDER
  6
Continuous
 62
     7
370
    13
100
AcDbLine
 10
18.128802
 20
-5.002417
 30
0.0
 11
17.754594
 21
-5.002417
 31
0.0
  0
LINE
  5
29D
330
42B
100
AcDbEntity
  8
BORDER
  6
Continuous
 62
     7
370
    13
100
AcDbLine
 10
17.768948
 20
-5.333833
 30
0.0
 11
18.27825
 21
-5.333833
 31
0.0
  0
LINE
  5
29E
330
42B
100
AcDbEntity
  8
BORDER
  6
Continuous
 62
     7
370
    13
100
AcDbLine
 10
18.094698
 20
-5.371729
 30
0.0
 11
17.718656
 21
-5.371729
 31
0.0
  0
SOLID
  5
29F
330
42B
100
AcDbEntity
  8
BORDER
  6
Continuous
 62
     7
370
    13
100
AcDbTrace
 10
17.77699
 20
-5.484792
 30
0.0
 11
17.760323
 21
-5.484792
 31
0.0
 12
17.768656
 22
-5.534792
 32
0.0
 13
17.768656
 23
-5.534792
 33
0.0
  0
SOLID
  5
2A0
330
42B
100
AcDbEntity
  8
BORDER
  6
Continuous
 62
     7
370
    13
100
AcDbTrace
 10
17.77699
 20
-5.421729
 30
0.0
 11
17.760323
 21
-5.421729
 31
0.0
 12
17.768656
 22
-5.371729
 32
0.0
 13
17.768656
 23
-5.371729
 33
0.0
  0
SOLID
  5
2A2
330
42B
100
AcDbEntity
  8
BORDER
  6
Continuous
 62
     7
370
    13
100
AcDbTrace
 10
17.77699
 20
-5.182865
 30
0.0
 11
17.760323
 21
-5.182865
 31
0.0
 12
17.768656
 22
-5.132865
 32
0.0
 13
17.768656
 23
-5.132865
 33
0.0
  0
SOLID
  5
2A3
330
42B
100
AcDbEntity
  8
BORDER
  6
Continuous
 62
     7
370
    13
100
AcDbTrace
 10
17.77699
 20
-5.245938
 30
0.0
 11
17.760323
 21
-5.245938
 31
0.0
 12
17.768656
 22
-5.295937
 32
0.0
 13
17.768656
 23
-5.295937
 33
0.0
  0
LINE
  5
2A4
330
42B
100
AcDbEntity
  8
BORDER
  6
Continuous
 62
     7
370
    13
100
AcDbLine
 10
18.094698
 20
-5.295937
 30
0.0
 11
17.718656
 21
-5.295937
 31
0.0
  0
LINE
  5
2A6
330
42B
100
AcDbEntity
  8
BORDER
  6
Continuous
 62
     7
370
    13
100
AcDbLine
 10
17.768948
 20
-5.296448
 30
0.0
 11
17.768948
 21
-5.372344
 31
0.0
  0
SOLID
  5
2A7
330
42B
100
AcDbEntity
  8
BORDER
  6
Continuous
 62
     7
370
    13
100
AcDbTrace
 10
17.818729
 20
-5.342729
 30
0.0
 11
17.818729
 21
-5.326062
 31
0.0
 12
17.768729
 22
-5.334396
 32
0.0
 13
17.768729
 23
-5.334396
 33
0.0
  0
LINE
  5
2A9
330
42B
100
AcDbEntity
  8
_0
  6
Continuous
 62
     7
370
    13
100
AcDbLine
 10
13.290708
 20
-5.192115
 30
0.0
 11
13.290708
 21
-4.751771
 31
0.0
  0
LINE
  5
2AA
330
42B
100
AcDbEntity
  8
_0
  6
Continuous
 62
     7
370
    13
100
AcDbLine
 10
13.713
 20
-4.796948
 30
0.0
 11
14.237271
 21
-4.796948
 31
0.0
  0
LINE
  5
2AB
330
42B
100
AcDbEntity
  8
_0
  6
Continuous
 62
     7
370
    13
100
AcDbLine
 10
13.713
 20
-5.146948
 30
0.0
 11
14.23075
 21
-5.146948
 31
0.0
  0
LINE
  5
2AC
330
42B
100
AcDbEntity
  8
_0
  6
Continuous
 62
     7
370
    13
100
AcDbLine
 10
12.9655
 20
-5.671948
 30
0.0
 11
16.421156
 21
-5.671948
 31
0.0
  0
LINE
  5
2AD
330
42B
100
AcDbEntity
  8
_0
  6
Continuous
 62
     7
370
    13
100
AcDbLine
 10
13.320073
 20
-4.727156
 30
0.0
 11
13.713
 21
-4.796948
 31
0.0
  0
LINE
  5
2AE
330
42B
100
AcDbEntity
  8
_0
  6
Continuous
 62
     7
370
    13
100
AcDbLine
 10
13.320073
 20
-5.216729
 30
0.0
 11
13.713
 21
-5.146948
 31
0.0
  0
SOLID
  5
2B0
330
42B
100
AcDbEntity
  8
BORDER
  6
Continuous
 62
     7
370
    13
100
AcDbTrace
 10
17.2915
 20
-7.320906
 30
0.0
 11
17.274833
 21
-7.320906
 31
0.0
 12
17.283167
 22
-7.270906
 32
0.0
 13
17.283167
 23
-7.270906
 33
0.0
  0
LINE
  5
2B1
330
42B
100
AcDbEntity
  8
BORDER
  6
Continuous
 62
     7
370
    13
100
AcDbLine
 10
17.169458
 20
-7.270906
 30
0.0
 11
17.333167
 21
-7.270906
 31
0.0
  0
LINE
  5
2B2
330
42B
100
AcDbEntity
  8
BORDER
  6
Continuous
 62
     7
370
    13
100
AcDbLine
 10
17.283167
 20
-7.320906
 30
0.0
 11
17.283167
 21
-7.497885
 31
0.0
  0
SOLID
  5
2B3
330
42B
100
AcDbEntity
  8
BORDER
  6
Continuous
 62
     7
370
    13
100
AcDbTrace
 10
17.2915
 20
-7.497885
 30
0.0
 11
17.274833
 21
-7.497885
 31
0.0
 12
17.283167
 22
-7.547885
 32
0.0
 13
17.283167
 23
-7.547885
 33
0.0
  0
LINE
  5
2B4
330
42B
100
AcDbEntity
  8
BORDER
  6
Continuous
 62
     7
370
    13
100
AcDbLine
 10
17.169458
 20
-7.547885
 30
0.0
 11
17.333167
 21
-7.547885
 31
0.0
  0
LINE
  5
2B5
330
42B
100
AcDbEntity
  8
BORDER
  6
Continuous
 62
     7
370
    13
100
AcDbLine
 10
17.139458
 20
-7.577885
 30
0.0
 11
17.139458
 21
-7.80076
 31
0.0
  0
SOLID
  5
2B7
330
42B
100
AcDbEntity
  8
BORDER
  6
Continuous
 62
     7
370
    13
100
AcDbTrace
 10
17.089458
 20
-7.759094
 30
0.0
 11
17.089458
 21
-7.742427
 31
0.0
 12
17.139458
 22
-7.75076
 32
0.0
 13
17.139458
 23
-7.75076
 33
0.0
  0
LINE
  5
2B8
330
42B
100
AcDbEntity
  8
BORDER
  6
Continuous
 62
     7
370
    13
100
AcDbLine
 10
16.989458
 20
-7.75076
 30
0.0
 11
17.089458
 21
-7.75076
 31
0.0
  0
SOLID
  5
2B9
330
42B
100
AcDbEntity
  8
BORDER
  6
Continuous
 62
     7
370
    13
100
AcDbTrace
 10
16.989458
 20
-7.759094
 30
0.0
 11
16.989458
 21
-7.742427
 31
0.0
 12
16.939458
 22
-7.75076
 32
0.0
 13
16.939458
 23
-7.75076
 33
0.0
  0
LINE
  5
2BA
330
42B
100
AcDbEntity
  8
BORDER
  6
Continuous
 62
     7
370
    13
100
AcDbLine
 10
16.939458
 20
-7.577885
 30
0.0
 11
16.939458
 21
-7.80076
 31
0.0
  0
LINE
  5
2BB
330
42B
100
AcDbEntity
  8
_0
  6
DGN Style 2
 62
     7
370
    13
100
AcDbLine
 10
13.893958
 20
-6.488708
 30
0.0
 11
13.893958
 21
-4.744958
 31
0.0
  0
LINE
  5
2BC
330
42B
100
AcDbEntity
  8
_0
  6
DGN Style 2
 62
     7
370
    13
100
AcDbLine
 10
13.943958
 20
-6.488708
 30
0.0
 11
13.943958
 21
-4.744958
 31
0.0
  0
LINE
  5
2BD
330
42B
100
AcDbEntity
  8
_0
  6
Continuous
 62
     7
370
    13
100
AcDbLine
 10
13.840708
 20
-5.671948
 30
0.0
 11
13.840708
 21
-5.146948
 31
0.0
  0
LINE
  5
2BE
330
42B
100
AcDbEntity
  8
_0
  6
Continuous
 62
     7
370
    13
100
AcDbLine
 10
13.840708
 20
-4.74549
 30
0.0
 11
13.990708
 21
-4.74549
 31
0.0
  0
LINE
  5
2BF
330
42B
100
AcDbEntity
  8
_0
  6
Continuous
 62
     7
370
    13
100
AcDbLine
 10
13.990708
 20
-5.671948
 30
0.0
 11
13.990708
 21
-5.146948
 31
0.0
  0
LINE
  5
2C0
330
42B
100
AcDbEntity
  8
_0
  6
Continuous
 62
     7
370
    13
100
AcDbLine
 10
13.840708
 20
-6.48924
 30
0.0
 11
13.892458
 21
-6.51199
 31
0.0
  0
LINE
  5
2C1
330
42B
100
AcDbEntity
  8
_0
  6
Continuous
 62
     7
370
    13
100
AcDbLine
 10
13.892458
 20
-6.51199
 30
0.0
 11
13.91651
 21
-6.482615
 31
0.0
  0
LINE
  5
2C2
330
42B
100
AcDbEntity
  8
_0
  6
Continuous
 62
     7
370
    13
100
AcDbLine
 10
13.91651
 20
-6.482615
 30
0.0
 11
13.940573
 21
-6.502198
 31
0.0
  0
LINE
  5
2C3
330
42B
100
AcDbEntity
  8
_0
  6
Continuous
 62
     7
370
    13
100
AcDbLine
 10
13.940573
 20
-6.502198
 30
0.0
 11
13.980667
 21
-6.521781
 31
0.0
  0
LINE
  5
2C4
330
42B
100
AcDbEntity
  8
_0
  6
Continuous
 62
     7
370
    13
100
AcDbLine
 10
13.980667
 20
-6.521781
 30
0.0
 11
13.996698
 21
-6.492406
 31
0.0
  0
LINE
  5
2C5
330
42B
100
AcDbEntity
  8
_0
  6
Continuous
 62
     7
370
    13
100
AcDbLine
 10
13.996698
 20
-6.492406
 30
0.0
 11
13.990708
 21
-6.48924
 31
0.0
  0
LINE
  5
2C6
330
42B
100
AcDbEntity
  8
_0
  6
Continuous
 62
     7
370
    13
100
AcDbLine
 10
13.990708
 20
-4.796948
 30
0.0
 11
13.990708
 21
-4.74549
 31
0.0
  0
LINE
  5
2C7
330
42B
100
AcDbEntity
  8
_0
  6
Continuous
 62
     7
370
    13
100
AcDbLine
 10
13.840708
 20
-4.796948
 30
0.0
 11
13.840708
 21
-4.74549
 31
0.0
  0
LINE
  5
2C8
330
42B
100
AcDbEntity
  8
_0
  6
DGN Style 2
 62
     7
370
    13
100
AcDbLine
 10
13.840708
 20
-6.488708
 30
0.0
 11
13.840708
 21
-5.671948
 31
0.0
  0
LINE
  5
2C9
330
42B
100
AcDbEntity
  8
_0
  6
DGN Style 2
 62
     7
370
    13
100
AcDbLine
 10
13.840708
 20
-5.146948
 30
0.0
 11
13.840708
 21
-4.744958
 31
0.0
  0
LINE
  5
2CA
330
42B
100
AcDbEntity
  8
_0
  6
DGN Style 2
 62
     7
370
    13
100
AcDbLine
 10
13.990708
 20
-6.488708
 30
0.0
 11
13.990708
 21
-5.671948
 31
0.0
  0
LINE
  5
2CB
330
42B
100
AcDbEntity
  8
_0
  6
DGN Style 2
 62
     7
370
    13
100
AcDbLine
 10
13.990708
 20
-5.146948
 30
0.0
 11
13.990708
 21
-4.744958
 31
0.0
  0
LINE
  5
2CC
330
42B
100
AcDbEntity
  8
_0
  6
Continuous
 62
     7
370
    13
100
AcDbLine
 10
14.02076
 20
-4.935531
 30
0.0
 11
13.892458
 21
-4.935531
 31
0.0
  0
LINE
  5
2CD
330
42B
100
AcDbEntity
  8
_0
  6
Continuous
 62
     7
370
    13
100
AcDbLine
 10
13.892458
 20
-4.935531
 30
0.0
 11
13.892458
 21
-5.013865
 31
0.0
  0
LINE
  5
2CE
330
42B
100
AcDbEntity
  8
_0
  6
Continuous
 62
     7
370
    13
100
AcDbLine
 10
13.892458
 20
-5.013865
 30
0.0
 11
14.02076
 21
-5.013865
 31
0.0
  0
LINE
  5
2CF
330
42B
100
AcDbEntity
  8
_0
  6
Continuous
 62
     7
370
    13
100
AcDbLine
 10
14.02076
 20
-5.013865
 30
0.0
 11
14.02076
 21
-4.935531
 31
0.0
  0
LWPOLYLINE
  5
2D0
330
42B
100
AcDbEntity
  8
_0
  6
Continuous
 62
     7
370
     0
100
AcDbPolyline
 90
       17
 70
   128
 43
0.0
 10
13.956607
 20
-4.991829
 42
0.041124
 10
13.973604
 20
-4.990429
 42
0.05419
 10
13.986083
 20
-4.986939
 42
0.097213
 10
13.996013
 20
-4.980507
 42
0.203285
 10
13.998292
 20
-4.975133
 42
0.203285
 10
13.996013
 20
-4.96976
 42
0.097213
 10
13.986083
 20
-4.963328
 42
0.05419
 10
13.973604
 20
-4.959838
 42
0.041124
 10
13.956607
 20
-4.958438
 42
0.041124
 10
13.93961
 20
-4.959838
 42
0.05419
 10
13.927131
 20
-4.963328
 42
0.097213
 10
13.917201
 20
-4.96976
 42
0.203285
 10
13.914922
 20
-4.975133
 42
0.203285
 10
13.917201
 20
-4.980507
 42
0.097213
 10
13.927131
 20
-4.986939
 42
0.05419
 10
13.93961
 20
-4.990429
 42
0.041124
 10
13.956607
 20
-4.991829
  0
LWPOLYLINE
  5
2E1
330
42B
100
AcDbEntity
  8
_0
  6
Continuous
 62
     7
370
     0
100
AcDbPolyline
 90
       17
 70
   128
 43
0.0
 10
14.710383
 20
-4.991829
 42
0.041124
 10
14.72738
 20
-4.990429
 42
0.05419
 10
14.739859
 20
-4.986939
 42
0.097213
 10
14.749789
 20
-4.980507
 42
0.203285
 10
14.752068
 20
-4.975133
 42
0.203285
 10
14.749789
 20
-4.96976
 42
0.097213
 10
14.739859
 20
-4.963328
 42
0.05419
 10
14.72738
 20
-4.959838
 42
0.041124
 10
14.710383
 20
-4.958438
 42
0.041124
 10
14.693387
 20
-4.959838
 42
0.05419
 10
14.680908
 20
-4.963328
 42
0.097213
 10
14.670977
 20
-4.96976
 42
0.203285
 10
14.668698
 20
-4.975133
 42
0.203285
 10
14.670977
 20
-4.980507
 42
0.097213
 10
14.680908
 20
-4.986939
 42
0.05419
 10
14.693387
 20
-4.990429
 42
0.041124
 10
14.710383
 20
-4.991829
  0
LINE
  5
2F2
330
42B
100
AcDbEntity
  8
_0
  6
Continuous
 62
     7
370
    13
100
AcDbLine
 10
14.774531
 20
-5.013865
 30
0.0
 11
14.774531
 21
-4.935531
 31
0.0
  0
LINE
  5
2F3
330
42B
100
AcDbEntity
  8
_0
  6
Continuous
 62
     7
370
    13
100
AcDbLine
 10
14.646229
 20
-5.013865
 30
0.0
 11
14.774531
 21
-5.013865
 31
0.0
  0
LINE
  5
2F4
330
42B
100
AcDbEntity
  8
_0
  6
Continuous
 62
     7
370
    13
100
AcDbLine
 10
14.646229
 20
-4.935531
 30
0.0
 11
14.646229
 21
-5.013865
 31
0.0
  0
LINE
  5
2F5
330
42B
100
AcDbEntity
  8
_0
  6
Continuous
 62
     7
370
    13
100
AcDbLine
 10
14.774531
 20
-4.935531
 30
0.0
 11
14.646229
 21
-4.935531
 31
0.0
  0
LINE
  5
2F6
330
42B
100
AcDbEntity
  8
_0
  6
DGN Style 2
 62
     7
370
    13
100
AcDbLine
 10
14.744479
 20
-5.146948
 30
0.0
 11
14.744479
 21
-4.744958
 31
0.0
  0
LINE
  5
2F7
330
42B
100
AcDbEntity
  8
_0
  6
DGN Style 2
 62
     7
370
    13
100
AcDbLine
 10
14.744479
 20
-6.488708
 30
0.0
 11
14.744479
 21
-5.671948
 31
0.0
  0
LINE
  5
2F8
330
42B
100
AcDbEntity
  8
_0
  6
DGN Style 2
 62
     7
370
    13
100
AcDbLine
 10
14.594479
 20
-5.146948
 30
0.0
 11
14.594479
 21
-4.744958
 31
0.0
  0
LINE
  5
2F9
330
42B
100
AcDbEntity
  8
_0
  6
DGN Style 2
 62
     7
370
    13
100
AcDbLine
 10
14.594479
 20
-6.488708
 30
0.0
 11
14.594479
 21
-5.671948
 31
0.0
  0
LINE
  5
2FA
330
42B
100
AcDbEntity
  8
_0
  6
Continuous
 62
     7
370
    13
100
AcDbLine
 10
14.594479
 20
-4.796948
 30
0.0
 11
14.594479
 21
-4.74549
 31
0.0
  0
LINE
  5
2FB
330
42B
100
AcDbEntity
  8
_0
  6
Continuous
 62
     7
370
    13
100
AcDbLine
 10
14.744479
 20
-4.796948
 30
0.0
 11
14.744479
 21
-4.74549
 31
0.0
  0
LINE
  5
2FC
330
42B
100
AcDbEntity
  8
_0
  6
Continuous
 62
     7
370
    13
100
AcDbLine
 10
14.750479
 20
-6.492406
 30
0.0
 11
14.744479
 21
-6.48924
 31
0.0
  0
LINE
  5
2FD
330
42B
100
AcDbEntity
  8
_0
  6
Continuous
 62
     7
370
    13
100
AcDbLine
 10
14.734438
 20
-6.521781
 30
0.0
 11
14.750479
 21
-6.492406
 31
0.0
  0
LINE
  5
2FE
330
42B
100
AcDbEntity
  8
_0
  6
Continuous
 62
     7
370
    13
100
AcDbLine
 10
14.694344
 20
-6.502198
 30
0.0
 11
14.734438
 21
-6.521781
 31
0.0
  0
LINE
  5
2FF
330
42B
100
AcDbEntity
  8
_0
  6
Continuous
 62
     7
370
    13
100
AcDbLine
 10
14.670292
 20
-6.482615
 30
0.0
 11
14.694344
 21
-6.502198
 31
0.0
  0
LINE
  5
300
330
42B
100
AcDbEntity
  8
_0
  6
Continuous
 62
     7
370
    13
100
AcDbLine
 10
14.646229
 20
-6.51199
 30
0.0
 11
14.670292
 21
-6.482615
 31
0.0
  0
LINE
  5
301
330
42B
100
AcDbEntity
  8
_0
  6
Continuous
 62
     7
370
    13
100
AcDbLine
 10
14.594479
 20
-6.48924
 30
0.0
 11
14.646229
 21
-6.51199
 31
0.0
  0
LINE
  5
302
330
42B
100
AcDbEntity
  8
_0
  6
Continuous
 62
     7
370
    13
100
AcDbLine
 10
14.744479
 20
-5.671948
 30
0.0
 11
14.744479
 21
-5.146948
 31
0.0
  0
LINE
  5
303
330
42B
100
AcDbEntity
  8
_0
  6
Continuous
 62
     7
370
    13
100
AcDbLine
 10
14.594479
 20
-4.74549
 30
0.0
 11
14.744479
 21
-4.74549
 31
0.0
  0
LINE
  5
304
330
42B
100
AcDbEntity
  8
_0
  6
Continuous
 62
     7
370
    13
100
AcDbLine
 10
14.594479
 20
-5.671948
 30
0.0
 11
14.594479
 21
-5.146948
 31
0.0
  0
LINE
  5
305
330
42B
100
AcDbEntity
  8
_0
  6
DGN Style 2
 62
     7
370
    13
100
AcDbLine
 10
14.697729
 20
-6.488708
 30
0.0
 11
14.697729
 21
-4.744958
 31
0.0
  0
LINE
  5
306
330
42B
100
AcDbEntity
  8
_0
  6
DGN Style 2
 62
     7
370
    13
100
AcDbLine
 10
14.647729
 20
-6.488708
 30
0.0
 11
14.647729
 21
-4.744958
 31
0.0
  0
LINE
  5
307
330
42B
100
AcDbEntity
  8
_0
  6
DGN Style 2
 62
     7
370
    13
100
AcDbLine
 10
15.513771
 20
-6.508292
 30
0.0
 11
15.513771
 21
-4.764542
 31
0.0
  0
LINE
  5
308
330
42B
100
AcDbEntity
  8
_0
  6
DGN Style 2
 62
     7
370
    13
100
AcDbLine
 10
15.563771
 20
-6.508292
 30
0.0
 11
15.563771
 21
-4.764542
 31
0.0
  0
LINE
  5
309
330
42B
100
AcDbEntity
  8
_0
  6
Continuous
 62
     7
370
    13
100
AcDbLine
 10
15.460521
 20
-5.691531
 30
0.0
 11
15.460521
 21
-5.166531
 31
0.0
  0
LINE
  5
30A
330
42B
100
AcDbEntity
  8
_0
  6
Continuous
 62
     7
370
    13
100
AcDbLine
 10
15.460521
 20
-4.765073
 30
0.0
 11
15.610521
 21
-4.765073
 31
0.0
  0
LINE
  5
30B
330
42B
100
AcDbEntity
  8
_0
  6
Continuous
 62
     7
370
    13
100
AcDbLine
 10
15.610521
 20
-5.691531
 30
0.0
 11
15.610521
 21
-5.166531
 31
0.0
  0
LINE
  5
30C
330
42B
100
AcDbEntity
  8
_0
  6
Continuous
 62
     7
370
    13
100
AcDbLine
 10
15.460521
 20
-6.508823
 30
0.0
 11
15.512271
 21
-6.531573
 31
0.0
  0
LINE
  5
30D
330
42B
100
AcDbEntity
  8
_0
  6
Continuous
 62
     7
370
    13
100
AcDbLine
 10
15.512271
 20
-6.531573
 30
0.0
 11
15.536333
 21
-6.502198
 31
0.0
  0
LINE
  5
30E
330
42B
100
AcDbEntity
  8
_0
  6
Continuous
 62
     7
370
    13
100
AcDbLine
 10
15.536333
 20
-6.502198
 30
0.0
 11
15.560385
 21
-6.521781
 31
0.0
  0
LINE
  5
30F
330
42B
100
AcDbEntity
  8
_0
  6
Continuous
 62
     7
370
    13
100
AcDbLine
 10
15.560385
 20
-6.521781
 30
0.0
 11
15.600479
 21
-6.541365
 31
0.0
  0
LINE
  5
310
330
42B
100
AcDbEntity
  8
_0
  6
Continuous
 62
     7
370
    13
100
AcDbLine
 10
15.600479
 20
-6.541365
 30
0.0
 11
15.616521
 21
-6.51199
 31
0.0
  0
LINE
  5
311
330
42B
100
AcDbEntity
  8
_0
  6
Continuous
 62
     7
370
    13
100
AcDbLine
 10
15.616521
 20
-6.51199
 30
0.0
 11
15.610521
 21
-6.508823
 31
0.0
  0
LINE
  5
312
330
42B
100
AcDbEntity
  8
_0
  6
Continuous
 62
     7
370
    13
100
AcDbLine
 10
15.610521
 20
-4.816531
 30
0.0
 11
15.610521
 21
-4.765073
 31
0.0
  0
LINE
  5
313
330
42B
100
AcDbEntity
  8
_0
  6
Continuous
 62
     7
370
    13
100
AcDbLine
 10
15.460521
 20
-4.816531
 30
0.0
 11
15.460521
 21
-4.765073
 31
0.0
  0
LINE
  5
314
330
42B
100
AcDbEntity
  8
_0
  6
DGN Style 2
 62
     7
370
    13
100
AcDbLine
 10
15.460521
 20
-6.508292
 30
0.0
 11
15.460521
 21
-5.691531
 31
0.0
  0
LINE
  5
315
330
42B
100
AcDbEntity
  8
_0
  6
DGN Style 2
 62
     7
370
    13
100
AcDbLine
 10
15.460521
 20
-5.166531
 30
0.0
 11
15.460521
 21
-4.764542
 31
0.0
  0
LINE
  5
316
330
42B
100
AcDbEntity
  8
_0
  6
DGN Style 2
 62
     7
370
    13
100
AcDbLine
 10
15.610521
 20
-6.508292
 30
0.0
 11
15.610521
 21
-5.691531
 31
0.0
  0
LINE
  5
317
330
42B
100
AcDbEntity
  8
_0
  6
DGN Style 2
 62
     7
370
    13
100
AcDbLine
 10
15.610521
 20
-5.166531
 30
0.0
 11
15.610521
 21
-4.764542
 31
0.0
  0
LINE
  5
318
330
42B
100
AcDbEntity
  8
_0
  6
Continuous
 62
     7
370
    13
100
AcDbLine
 10
15.640573
 20
-4.955115
 30
0.0
 11
15.512271
 21
-4.955115
 31
0.0
  0
LINE
  5
319
330
42B
100
AcDbEntity
  8
_0
  6
Continuous
 62
     7
370
    13
100
AcDbLine
 10
15.512271
 20
-4.955115
 30
0.0
 11
15.512271
 21
-5.033448
 31
0.0
  0
LINE
  5
31A
330
42B
100
AcDbEntity
  8
_0
  6
Continuous
 62
     7
370
    13
100
AcDbLine
 10
15.512271
 20
-5.033448
 30
0.0
 11
15.640573
 21
-5.033448
 31
0.0
  0
LINE
  5
31B
330
42B
100
AcDbEntity
  8
_0
  6
Continuous
 62
     7
370
    13
100
AcDbLine
 10
15.640573
 20
-5.033448
 30
0.0
 11
15.640573
 21
-4.955115
 31
0.0
  0
LWPOLYLINE
  5
31C
330
42B
100
AcDbEntity
  8
_0
  6
Continuous
 62
     7
370
     0
100
AcDbPolyline
 90
       17
 70
   128
 43
0.0
 10
15.576424
 20
-5.011412
 42
0.041124
 10
15.593421
 20
-5.010012
 42
0.05419
 10
15.6059
 20
-5.006522
 42
0.097213
 10
15.61583
 20
-5.00009
 42
0.203285
 10
15.618109
 20
-4.994717
 42
0.203285
 10
15.61583
 20
-4.989343
 42
0.097213
 10
15.6059
 20
-4.982911
 42
0.05419
 10
15.593421
 20
-4.979422
 42
0.041124
 10
15.576424
 20
-4.978021
 42
0.041124
 10
15.559428
 20
-4.979422
 42
0.05419
 10
15.546948
 20
-4.982911
 42
0.097213
 10
15.537018
 20
-4.989343
 42
0.203285
 10
15.534739
 20
-4.994717
 42
0.203285
 10
15.537018
 20
-5.00009
 42
0.097213
 10
15.546948
 20
-5.006522
 42
0.05419
 10
15.559428
 20
-5.010012
 42
0.041124
 10
15.576424
 20
-5.011412
  0
SPLINE
  5
32D
330
42B
100
AcDbEntity
  8
_0
  6
Continuous
 62
     7
370
     0
100
AcDbSpline
210
0.0
220
0.0
230
1.0
 70
     8
 71
     3
 72
    14
 73
    10
 74
     0
 42
0.0000000001
 43
0.00000001
 40
0.0
 40
0.0
 40
0.0
 40
0.0
 40
0.1428571428571428
 40
0.2857142857142857
 40
0.4285714285714285
 40
0.5714285714285714
 40
0.7142857142857142
 40
0.857142857142857
 40
1.0
 40
1.0
 40
1.0
 40
1.0
 10
14.23727083333333
 20
-4.796947916666666
 30
0.0
 10
14.19717708333333
 20
-4.87678125
 30
0.0
 10
14.25330208333333
 20
-4.90615625
 30
0.0
 10
14.23727083333333
 20
-4.955114583333333
 30
0.0
 10
14.22925
 20
-5.004072916666667
 30
0.0
 10
14.23727083333333
 20
-5.043239583333333
 30
0.0
 10
14.18915625
 20
-5.062822916666667
 30
0.0
 10
14.22122916666667
 20
-5.101989583333333
 30
0.0
 10
14.22925
 20
-5.14115625
 30
0.0
 10
14.23075
 20
-5.146947916666666
 30
0.0
  0
SPLINE
  5
32F
330
42B
100
AcDbEntity
  8
_0
  6
Continuous
 62
     7
370
     0
100
AcDbSpline
210
0.0
220
0.0
230
1.0
 70
     8
 71
     3
 72
    14
 73
    10
 74
     0
 42
0.0000000001
 43
0.00000001
 40
0.0
 40
0.0
 40
0.0
 40
0.0
 40
0.1428571428571428
 40
0.2857142857142857
 40
0.4285714285714285
 40
0.5714285714285714
 40
0.7142857142857142
 40
0.857142857142857
 40
1.0
 40
1.0
 40
1.0
 40
1.0
 10
14.34151041666667
 20
-4.796947916666666
 30
0.0
 10
14.30141666666667
 20
-4.87678125
 30
0.0
 10
14.35755208333333
 20
-4.90615625
 30
0.0
 10
14.34151041666667
 20
-4.955114583333333
 30
0.0
 10
14.33348958333333
 20
-5.004072916666667
 30
0.0
 10
14.34151041666667
 20
-5.043239583333333
 30
0.0
 10
14.29340625
 20
-5.062822916666667
 30
0.0
 10
14.32547916666667
 20
-5.101989583333333
 30
0.0
 10
14.33348958333333
 20
-5.14115625
 30
0.0
 10
14.33498958333333
 20
-5.146947916666666
 30
0.0
  0
SPLINE
  5
331
330
42B
100
AcDbEntity
  8
_0
  6
Continuous
 62
     7
370
     0
100
AcDbSpline
210
0.0
220
0.0
230
1.0
 70
     8
 71
     3
 72
    14
 73
    10
 74
     0
 42
0.0000000001
 43
0.00000001
 40
0.0
 40
0.0
 40
0.0
 40
0.0
 40
0.1428571428571428
 40
0.2857142857142857
 40
0.4285714285714285
 40
0.5714285714285714
 40
0.7142857142857142
 40
0.857142857142857
 40
1.0
 40
1.0
 40
1.0
 40
1.0
 10
15.01510416666667
 20
-4.796947916666666
 30
0.0
 10
14.97501041666667
 20
-4.87678125
 30
0.0
 10
15.03114583333333
 20
-4.90615625
 30
0.0
 10
15.01510416666667
 20
-4.955114583333333
 30
0.0
 10
15.00708333333333
 20
-5.004072916666667
 30
0.0
 10
15.01510416666667
 20
-5.043239583333333
 30
0.0
 10
14.96698958333333
 20
-5.062822916666667
 30
0.0
 10
14.9990625
 20
-5.101989583333333
 30
0.0
 10
15.00708333333333
 20
-5.14115625
 30
0.0
 10
15.00858333333333
 20
-5.146947916666666
 30
0.0
  0
SPLINE
  5
333
330
42B
100
AcDbEntity
  8
_0
  6
Continuous
 62
     7
370
     0
100
AcDbSpline
210
0.0
220
0.0
230
1.0
 70
     8
 71
     3
 72
    14
 73
    10
 74
     0
 42
0.0000000001
 43
0.00000001
 40
0.0
 40
0.0
 40
0.0
 40
0.0
 40
0.1428571428571428
 40
0.2857142857142857
 40
0.4285714285714285
 40
0.5714285714285714
 40
0.7142857142857142
 40
0.857142857142857
 40
1.0
 40
1.0
 40
1.0
 40
1.0
 10
15.13538541666667
 20
-4.796947916666666
 30
0.0
 10
15.09529166666667
 20
-4.87678125
 30
0.0
 10
15.15142708333333
 20
-4.90615625
 30
0.0
 10
15.13538541666667
 20
-4.955114583333333
 30
0.0
 10
15.12736458333333
 20
-5.004072916666667
 30
0.0
 10
15.13538541666667
 20
-5.043239583333333
 30
0.0
 10
15.08727083333333
 20
-5.062822916666667
 30
0.0
 10
15.11934375
 20
-5.101989583333333
 30
0.0
 10
15.12736458333333
 20
-5.14115625
 30
0.0
 10
15.12886458333333
 20
-5.146947916666666
 30
0.0
  0
SPLINE
  5
335
330
42B
100
AcDbEntity
  8
_0
  6
Continuous
 62
     7
370
     0
100
AcDbSpline
210
0.0
220
0.0
230
1.0
 70
     8
 71
     3
 72
    14
 73
    10
 74
     0
 42
0.0000000001
 43
0.00000001
 40
0.0
 40
0.0
 40
0.0
 40
0.0
 40
0.1428571428571428
 40
0.2857142857142857
 40
0.4285714285714285
 40
0.5714285714285714
 40
0.7142857142857142
 40
0.857142857142857
 40
1.0
 40
1.0
 40
1.0
 40
1.0
 10
15.96934375
 20
-4.796947916666666
 30
0.0
 10
15.92926041666667
 20
-4.87678125
 30
0.0
 10
15.98538541666667
 20
-4.90615625
 30
0.0
 10
15.96934375
 20
-4.955114583333333
 30
0.0
 10
15.96133333333333
 20
-5.004072916666667
 30
0.0
 10
15.96934375
 20
-5.043239583333333
 30
0.0
 10
15.92123958333333
 20
-5.062822916666667
 30
0.0
 10
15.9533125
 20
-5.101989583333333
 30
0.0
 10
15.96133333333333
 20
-5.14115625
 30
0.0
 10
15.96283333333333
 20
-5.146947916666666
 30
0.0
  0
LINE
  5
337
330
42B
100
AcDbEntity
  8
_0
  6
Continuous
 62
     7
370
    13
100
AcDbLine
 10
14.33499
 20
-5.146948
 30
0.0
 11
14.583052
 21
-5.146948
 31
0.0
  0
LINE
  5
338
330
42B
100
AcDbEntity
  8
_0
  6
Continuous
 62
     7
370
    13
100
AcDbLine
 10
14.34151
 20
-4.796948
 30
0.0
 11
15.015104
 21
-4.796948
 31
0.0
  0
LINE
  5
339
330
42B
100
AcDbEntity
  8
_0
  6
Continuous
 62
     7
370
    13
100
AcDbLine
 10
15.135385
 20
-4.796948
 30
0.0
 11
15.969344
 21
-4.796948
 31
0.0
  0
LINE
  5
33A
330
42B
100
AcDbEntity
  8
_0
  6
Continuous
 62
     7
370
    13
100
AcDbLine
 10
15.128865
 20
-5.146948
 30
0.0
 11
15.962833
 21
-5.146948
 31
0.0
  0
LINE
  5
33B
330
42B
100
AcDbEntity
  8
_0
  6
Continuous
 62
     7
370
    13
100
AcDbLine
 10
13.7185
 20
-5.046948
 30
0.0
 11
13.825812
 21
-5.046948
 31
0.0
  0
LINE
  5
33C
330
42B
100
AcDbEntity
  8
_0
  6
Continuous
 62
     7
370
    13
100
AcDbLine
 10
13.690167
 20
-4.946948
 30
0.0
 11
13.771292
 21
-4.946948
 31
0.0
  0
LINE
  5
33D
330
42B
100
AcDbEntity
  8
_0
  6
Continuous
 62
     7
370
    13
100
AcDbLine
 10
13.693406
 20
-4.846948
 30
0.0
 11
13.792344
 21
-4.846948
 31
0.0
  0
LINE
  5
33E
330
42B
100
AcDbEntity
  8
_0
  6
Continuous
 62
     7
370
    13
100
AcDbLine
 10
14.41974
 20
-4.946948
 30
0.0
 11
14.547062
 21
-4.946948
 31
0.0
  0
LINE
  5
33F
330
42B
100
AcDbEntity
  8
_0
  6
Continuous
 62
     7
370
    13
100
AcDbLine
 10
14.458073
 20
-4.846948
 30
0.0
 11
14.575104
 21
-4.846948
 31
0.0
  0
LINE
  5
340
330
42B
100
AcDbEntity
  8
_0
  6
Continuous
 62
     7
370
    13
100
AcDbLine
 10
15.220073
 20
-5.046948
 30
0.0
 11
15.398927
 21
-5.046948
 31
0.0
  0
LINE
  5
341
330
42B
100
AcDbEntity
  8
_0
  6
Continuous
 62
     7
370
    13
100
AcDbLine
 10
15.168635
 20
-4.946948
 30
0.0
 11
15.37751
 21
-4.946948
 31
0.0
  0
LINE
  5
342
330
42B
100
AcDbEntity
  8
_0
  6
Continuous
 62
     7
370
    13
100
AcDbLine
 10
15.163708
 20
-4.846948
 30
0.0
 11
15.402708
 21
-4.846948
 31
0.0
  0
LINE
  5
343
330
42B
100
AcDbEntity
  8
_0
  6
Continuous
 62
     7
370
    13
100
AcDbLine
 10
14.010958
 20
-4.846948
 30
0.0
 11
14.151677
 21
-4.846948
 31
0.0
  0
LINE
  5
344
330
42B
100
AcDbEntity
  8
_0
  6
Continuous
 62
     7
370
    13
100
AcDbLine
 10
14.772417
 20
-4.846948
 30
0.0
 11
14.972448
 21
-4.846948
 31
0.0
  0
LINE
  5
345
330
42B
100
AcDbEntity
  8
_0
  6
Continuous
 62
     7
370
    13
100
AcDbLine
 10
14.806437
 20
-4.946948
 30
0.0
 11
14.956729
 21
-4.946948
 31
0.0
  0
LINE
  5
346
330
42B
100
AcDbEntity
  8
_0
  6
Continuous
 62
     7
370
    13
100
AcDbLine
 10
14.779344
 20
-5.046948
 30
0.0
 11
14.940406
 21
-5.046948
 31
0.0
  0
LINE
  5
347
330
42B
100
AcDbEntity
  8
_0
  6
Continuous
 62
     7
370
    13
100
AcDbLine
 10
14.787542
 20
-5.146948
 30
0.0
 11
15.008583
 21
-5.146948
 31
0.0
  0
LINE
  5
348
330
42B
100
AcDbEntity
  8
_0
  6
Continuous
 62
     7
370
    13
100
AcDbLine
 10
15.698688
 20
-5.046948
 30
0.0
 11
15.858604
 21
-5.046948
 31
0.0
  0
LINE
  5
349
330
42B
100
AcDbEntity
  8
_0
  6
Continuous
 62
     7
370
    13
100
AcDbLine
 10
15.698688
 20
-4.946948
 30
0.0
 11
15.807573
 21
-4.946948
 31
0.0
  0
LINE
  5
34A
330
42B
100
AcDbEntity
  8
_0
  6
Continuous
 62
     7
370
    13
100
AcDbLine
 10
15.728198
 20
-4.846948
 30
0.0
 11
15.897104
 21
-4.846948
 31
0.0
  0
LINE
  5
34B
330
42B
100
AcDbEntity
  8
_0
  6
Continuous
 62
     7
370
    13
100
AcDbLine
 10
14.378823
 20
-5.096948
 30
0.0
 11
14.558833
 21
-5.096948
 31
0.0
  0
LINE
  5
34C
330
42B
100
AcDbEntity
  8
_0
  6
Continuous
 62
     7
370
    13
100
AcDbLine
 10
14.375656
 20
-4.996948
 30
0.0
 11
14.502979
 21
-4.996948
 31
0.0
  0
LINE
  5
34D
330
42B
100
AcDbEntity
  8
_0
  6
Continuous
 62
     7
370
    13
100
AcDbLine
 10
14.080229
 20
-4.896948
 30
0.0
 11
14.220948
 21
-4.896948
 31
0.0
  0
LINE
  5
34E
330
42B
100
AcDbEntity
  8
_0
  6
Continuous
 62
     7
370
    13
100
AcDbLine
 10
14.042448
 20
-4.996948
 30
0.0
 11
14.162031
 21
-4.996948
 31
0.0
  0
LINE
  5
34F
330
42B
100
AcDbEntity
  8
_0
  6
Continuous
 62
     7
370
    13
100
AcDbLine
 10
14.042448
 20
-5.096948
 30
0.0
 11
14.170125
 21
-5.096948
 31
0.0
  0
LINE
  5
350
330
42B
100
AcDbEntity
  8
_0
  6
Continuous
 62
     7
370
    13
100
AcDbLine
 10
13.737396
 20
-5.096948
 30
0.0
 11
13.796844
 21
-5.096948
 31
0.0
  0
LINE
  5
351
330
42B
100
AcDbEntity
  8
_0
  6
Continuous
 62
     7
370
    13
100
AcDbLine
 10
15.164719
 20
-5.096948
 30
0.0
 11
15.352323
 21
-5.096948
 31
0.0
  0
LINE
  5
352
330
42B
100
AcDbEntity
  8
_0
  6
Continuous
 62
     7
370
    13
100
AcDbLine
 10
15.660896
 20
-5.096948
 30
0.0
 11
15.858604
 21
-5.096948
 31
0.0
  0
LINE
  5
353
330
42B
100
AcDbEntity
  8
_0
  6
Continuous
 62
     7
370
    13
100
AcDbLine
 10
15.749062
 20
-4.996948
 30
0.0
 11
15.902042
 21
-4.996948
 31
0.0
  0
LINE
  5
354
330
42B
100
AcDbEntity
  8
_0
  6
Continuous
 62
     7
370
    13
100
AcDbLine
 10
15.665219
 20
-4.896948
 30
0.0
 11
15.834125
 21
-4.896948
 31
0.0
  0
SOLID
  5
359
330
42B
100
AcDbEntity
  8
HATCH
  6
Continuous
 62
     7
370
    13
100
AcDbTrace
 10
13.261094
 20
-4.841687
 30
0.0
 11
13.245167
 21
-4.846594
 31
0.0
 12
13.267854
 22
-4.891917
 32
0.0
 13
13.267854
 23
-4.891917
 33
0.0
  0
LINE
  5
35A
330
42B
100
AcDbEntity
  8
HATCH
  6
Continuous
 62
     7
370
    13
100
AcDbLine
 10
13.253125
 20
-4.844135
 30
0.0
 11
13.028542
 21
-4.11526
 31
0.0
  0
LINE
  5
35B
330
42B
100
AcDbEntity
  8
HATCH
  6
Continuous
 62
     7
370
    13
100
AcDbLine
 10
13.028542
 20
-4.11526
 30
0.0
 11
13.179688
 21
-4.11526
 31
0.0
  0
LINE
  5
35F
330
42B
100
AcDbEntity
  8
_0
  6
Continuous
 62
     7
370
    13
100
AcDbLine
 10
15.735521
 20
-4.796948
 30
0.0
 11
15.735521
 21
-5.146948
 31
0.0
  0
LINE
  5
360
330
42B
100
AcDbEntity
  8
_0
  6
Continuous
 62
     7
370
    13
100
AcDbLine
 10
15.335521
 20
-4.796948
 30
0.0
 11
15.335521
 21
-5.146948
 31
0.0
  0
LINE
  5
361
330
42B
100
AcDbEntity
  8
_0
  6
Continuous
 62
     7
370
    13
100
AcDbLine
 10
15.685521
 20
-4.796948
 30
0.0
 11
15.685521
 21
-5.146948
 31
0.0
  0
LINE
  5
362
330
42B
100
AcDbEntity
  8
_0
  6
Continuous
 62
     7
370
    13
100
AcDbLine
 10
15.385521
 20
-4.796948
 30
0.0
 11
15.385521
 21
-5.146948
 31
0.0
  0
LWPOLYLINE
  5
363
330
42B
100
AcDbEntity
  8
_0
  6
Continuous
 62
     7
370
   100
100
AcDbPolyline
 90
        2
 70
   128
 43
0.0
 10
15.371406
 20
-4.924469
 10
15.396365
 20
-4.924469
  0
LWPOLYLINE
  5
364
330
42B
100
AcDbEntity
  8
_0
  6
Continuous
 62
     7
370
   100
100
AcDbPolyline
 90
        2
 70
   128
 43
0.0
 10
15.670885
 20
-4.924469
 10
15.695844
 20
-4.924469
  0
LWPOLYLINE
  5
365
330
42B
100
AcDbEntity
  8
_0
  6
Continuous
 62
     7
370
   100
100
AcDbPolyline
 90
        2
 70
   128
 43
0.0
 10
15.670885
 20
-4.84824
 10
15.695844
 20
-4.84824
  0
LWPOLYLINE
  5
366
330
42B
100
AcDbEntity
  8
_0
  6
Continuous
 62
     7
370
   100
100
AcDbPolyline
 90
        2
 70
   128
 43
0.0
 10
15.371406
 20
-4.84824
 10
15.396365
 20
-4.84824
  0
LWPOLYLINE
  5
367
330
42B
100
AcDbEntity
  8
_0
  6
Continuous
 62
     7
370
   100
100
AcDbPolyline
 90
        2
 70
   128
 43
0.0
 10
15.670885
 20
-5.023562
 10
15.695844
 20
-5.023562
  0
LWPOLYLINE
  5
368
330
42B
100
AcDbEntity
  8
_0
  6
Continuous
 62
     7
370
   100
100
AcDbPolyline
 90
        2
 70
   128
 43
0.0
 10
15.371406
 20
-5.023562
 10
15.396365
 20
-5.023562
  0
LWPOLYLINE
  5
369
330
42B
100
AcDbEntity
  8
_0
  6
Continuous
 62
     7
370
   100
100
AcDbPolyline
 90
        2
 70
   128
 43
0.0
 10
15.670885
 20
-5.099792
 10
15.695844
 20
-5.099792
  0
LWPOLYLINE
  5
36A
330
42B
100
AcDbEntity
  8
_0
  6
Continuous
 62
     7
370
   100
100
AcDbPolyline
 90
        2
 70
   128
 43
0.0
 10
15.371406
 20
-5.099792
 10
15.396365
 20
-5.099792
  0
SOLID
  5
36B
330
42B
100
AcDbEntity
  8
HATCH
  6
Continuous
 62
     7
370
    13
100
AcDbTrace
 10
15.696583
 20
-4.984719
 30
0.0
 11
15.694437
 21
-4.968187
 31
0.0
 12
15.645937
 22
-4.982906
 32
0.0
 13
15.645937
 23
-4.982906
 33
0.0
  0
LINE
  5
36C
330
42B
100
AcDbEntity
  8
HATCH
  6
Continuous
 62
     7
370
    13
100
AcDbLine
 10
15.69551
 20
-4.976448
 30
0.0
 11
16.055625
 21
-4.929552
 31
0.0
  0
LINE
  5
36D
330
42B
100
AcDbEntity
  8
HATCH
  6
Continuous
 62
     7
370
    13
100
AcDbLine
 10
16.055625
 20
-4.929552
 30
0.0
 11
16.076427
 21
-4.929552
 31
0.0
  0
SOLID
  5
36E
330
42B
100
AcDbEntity
  8
HATCH
  6
Continuous
 62
     7
370
    13
100
AcDbTrace
 10
15.752771
 20
-5.089604
 30
0.0
 11
15.750021
 21
-5.073167
 31
0.0
 12
15.702083
 22
-5.089625
 32
0.0
 13
15.702083
 23
-5.089625
 33
0.0
  0
LINE
  5
36F
330
42B
100
AcDbEntity
  8
HATCH
  6
Continuous
 62
     7
370
    13
100
AcDbLine
 10
15.751396
 20
-5.081375
 30
0.0
 11
16.051469
 21
-5.031187
 31
0.0
  0
LINE
  5
370
330
42B
100
AcDbEntity
  8
HATCH
  6
Continuous
 62
     7
370
    13
100
AcDbLine
 10
16.051469
 20
-5.031187
 30
0.0
 11
16.07851
 21
-5.031187
 31
0.0
  0
LINE
  5
373
330
42B
100
AcDbEntity
  8
BORDER
  6
Continuous
 62
     7
370
    13
100
AcDbLine
 10
15.061823
 20
-5.621948
 30
0.0
 11
15.061823
 21
-4.848802
 31
0.0
  0
SOLID
  5
374
330
42B
100
AcDbEntity
  8
BORDER
  6
Continuous
 62
     7
370
    13
100
AcDbTrace
 10
15.070156
 20
-5.621948
 30
0.0
 11
15.05349
 21
-5.621948
 31
0.0
 12
15.061823
 22
-5.671948
 32
0.0
 13
15.061823
 23
-5.671948
 33
0.0
  0
SOLID
  5
375
330
42B
100
AcDbEntity
  8
BORDER
  6
Continuous
 62
     7
370
    13
100
AcDbTrace
 10
15.070156
 20
-4.848802
 30
0.0
 11
15.05349
 21
-4.848802
 31
0.0
 12
15.061823
 22
-4.798802
 32
0.0
 13
15.061823
 23
-4.798802
 33
0.0
  0
LINE
  5
377
330
42B
100
AcDbEntity
  8
BORDER
  6
Continuous
 62
     7
370
    13
100
AcDbLine
 10
14.864437
 20
-5.622469
 30
0.0
 11
14.864437
 21
-5.19525
 31
0.0
  0
SOLID
  5
378
330
42B
100
AcDbEntity
  8
BORDER
  6
Continuous
 62
     7
370
    13
100
AcDbTrace
 10
14.872771
 20
-5.622469
 30
0.0
 11
14.856104
 21
-5.622469
 31
0.0
 12
14.864437
 22
-5.672469
 32
0.0
 13
14.864437
 23
-5.672469
 33
0.0
  0
SOLID
  5
379
330
42B
100
AcDbEntity
  8
BORDER
  6
Continuous
 62
     7
370
    13
100
AcDbTrace
 10
14.872771
 20
-5.19525
 30
0.0
 11
14.856104
 21
-5.19525
 31
0.0
 12
14.864437
 22
-5.14525
 32
0.0
 13
14.864437
 23
-5.14525
 33
0.0
  0
LWPOLYLINE
  5
37B
330
42B
100
AcDbEntity
  8
_0
  6
DGN Style 2
 62
     7
370
    70
100
AcDbPolyline
 90
        2
 70
   128
 43
0.0
 10
15.337104
 20
-5.157906
 10
15.734604
 20
-5.157906
  0
LINE
  5
37C
330
42B
100
AcDbEntity
  8
BORDER
  6
Continuous
 62
     7
370
    13
100
AcDbLine
 10
15.382344
 20
-4.748708
 30
0.0
 11
15.382344
 21
-4.535563
 31
0.0
  0
LINE
  5
37D
330
42B
100
AcDbEntity
  8
BORDER
  6
Continuous
 62
     7
370
    13
100
AcDbLine
 10
15.537469
 20
-4.717135
 30
0.0
 11
15.537469
 21
-4.535563
 31
0.0
  0
LINE
  5
37E
330
42B
100
AcDbEntity
  8
BORDER
  6
Continuous
 62
     7
370
    13
100
AcDbLine
 10
15.432344
 20
-4.585562
 30
0.0
 11
15.487469
 21
-4.585562
 31
0.0
  0
SOLID
  5
37F
330
42B
100
AcDbEntity
  8
BORDER
  6
Continuous
 62
     7
370
    13
100
AcDbTrace
 10
15.432344
 20
-4.593896
 30
0.0
 11
15.432344
 21
-4.577229
 31
0.0
 12
15.382344
 22
-4.585562
 32
0.0
 13
15.382344
 23
-4.585562
 33
0.0
  0
SOLID
  5
380
330
42B
100
AcDbEntity
  8
BORDER
  6
Continuous
 62
     7
370
    13
100
AcDbTrace
 10
15.487469
 20
-4.593896
 30
0.0
 11
15.487469
 21
-4.577229
 31
0.0
 12
15.537469
 22
-4.585562
 32
0.0
 13
15.537469
 23
-4.585562
 33
0.0
  0
LINE
  5
382
330
42B
100
AcDbEntity
  8
BORDER
  6
Continuous
 62
     7
370
    13
100
AcDbLine
 10
15.537469
 20
-4.717135
 30
0.0
 11
15.537469
 21
-4.535563
 31
0.0
  0
LINE
  5
383
330
42B
100
AcDbEntity
  8
BORDER
  6
Continuous
 62
     7
370
    13
100
AcDbLine
 10
15.682896
 20
-4.748708
 30
0.0
 11
15.682896
 21
-4.535563
 31
0.0
  0
LINE
  5
384
330
42B
100
AcDbEntity
  8
BORDER
  6
Continuous
 62
     7
370
    13
100
AcDbLine
 10
15.587469
 20
-4.585562
 30
0.0
 11
15.632896
 21
-4.585562
 31
0.0
  0
SOLID
  5
385
330
42B
100
AcDbEntity
  8
BORDER
  6
Continuous
 62
     7
370
    13
100
AcDbTrace
 10
15.587469
 20
-4.593896
 30
0.0
 11
15.587469
 21
-4.577229
 31
0.0
 12
15.537469
 22
-4.585562
 32
0.0
 13
15.537469
 23
-4.585562
 33
0.0
  0
SOLID
  5
386
330
42B
100
AcDbEntity
  8
BORDER
  6
Continuous
 62
     7
370
    13
100
AcDbTrace
 10
15.632896
 20
-4.593896
 30
0.0
 11
15.632896
 21
-4.577229
 31
0.0
 12
15.682896
 22
-4.585562
 32
0.0
 13
15.682896
 23
-4.585562
 33
0.0
  0
LINE
  5
387
330
42B
100
AcDbEntity
  8
BORDER
  6
Continuous
 62
     7
370
    13
100
AcDbLine
 10
15.333875
 20
-4.748708
 30
0.0
 11
15.333875
 21
-4.298729
 31
0.0
  0
LINE
  5
388
330
42B
100
AcDbEntity
  8
BORDER
  6
Continuous
 62
     7
370
    13
100
AcDbLine
 10
15.734604
 20
-4.748708
 30
0.0
 11
15.734604
 21
-4.298729
 31
0.0
  0
LINE
  5
389
330
42B
100
AcDbEntity
  8
BORDER
  6
Continuous
 62
     7
370
    13
100
AcDbLine
 10
15.383875
 20
-4.348729
 30
0.0
 11
15.684604
 21
-4.348729
 31
0.0
  0
SOLID
  5
38A
330
42B
100
AcDbEntity
  8
BORDER
  6
Continuous
 62
     7
370
    13
100
AcDbTrace
 10
15.383875
 20
-4.357062
 30
0.0
 11
15.383875
 21
-4.340396
 31
0.0
 12
15.333875
 22
-4.348729
 32
0.0
 13
15.333875
 23
-4.348729
 33
0.0
  0
SOLID
  5
38B
330
42B
100
AcDbEntity
  8
BORDER
  6
Continuous
 62
     7
370
    13
100
AcDbTrace
 10
15.684604
 20
-4.357062
 30
0.0
 11
15.684604
 21
-4.340396
 31
0.0
 12
15.734604
 22
-4.348729
 32
0.0
 13
15.734604
 23
-4.348729
 33
0.0
  0
LINE
  5
38E
330
42B
100
AcDbEntity
  8
BORDER
  6
Continuous
 62
     7
370
    13
100
AcDbLine
 10
15.22875
 20
-4.585562
 30
0.0
 11
15.283875
 21
-4.585562
 31
0.0
  0
SOLID
  5
38F
330
42B
100
AcDbEntity
  8
BORDER
  6
Continuous
 62
     7
370
    13
100
AcDbTrace
 10
15.283875
 20
-4.593896
 30
0.0
 11
15.283875
 21
-4.577229
 31
0.0
 12
15.333875
 22
-4.585562
 32
0.0
 13
15.333875
 23
-4.585562
 33
0.0
  0
SOLID
  5
390
330
42B
100
AcDbEntity
  8
BORDER
  6
Continuous
 62
     7
370
    13
100
AcDbTrace
 10
15.785271
 20
-4.593896
 30
0.0
 11
15.785271
 21
-4.577229
 31
0.0
 12
15.735271
 22
-4.585562
 32
0.0
 13
15.735271
 23
-4.585562
 33
0.0
  0
LINE
  5
391
330
42B
100
AcDbEntity
  8
BORDER
  6
Continuous
 62
     7
370
    13
100
AcDbLine
 10
15.781375
 20
-4.585562
 30
0.0
 11
15.826802
 21
-4.585562
 31
0.0
  0
SOLID
  5
395
330
42B
100
AcDbEntity
  8
BORDER
  6
Continuous
 62
     7
370
    13
100
AcDbTrace
 10
15.438594
 20
-4.53949
 30
0.0
 11
15.424823
 21
-4.548875
 31
0.0
 12
15.459896
 22
-4.585479
 32
0.0
 13
15.459896
 23
-4.585479
 33
0.0
  0
LINE
  5
396
330
42B
100
AcDbEntity
  8
BORDER
  6
Continuous
 62
     7
370
    13
100
AcDbLine
 10
15.431708
 20
-4.544187
 30
0.0
 11
15.362917
 21
-4.443385
 31
0.0
  0
LINE
  5
397
330
42B
100
AcDbEntity
  8
BORDER
  6
Continuous
 62
     7
370
    13
100
AcDbLine
 10
15.362917
 20
-4.443385
 30
0.0
 11
15.288573
 21
-4.443385
 31
0.0
  0
SOLID
  5
398
330
42B
100
AcDbEntity
  8
BORDER
  6
Continuous
 62
     7
370
    13
100
AcDbTrace
 10
-15.643854
 20
-4.546677
 30
0.0
 11
-15.629969
 21
-4.537448
 31
0.0
 12
-15.60925
 22
-4.583719
 32
0.0
 13
-15.60925
 23
-4.583719
 33
0.0
210
0.0
220
0.0
230
-1.0
  0
LINE
  5
399
330
42B
100
AcDbEntity
  8
BORDER
  6
Continuous
 62
     7
370
    13
100
AcDbLine
 10
15.63301
 20
-4.547781
 30
0.0
 11
15.702323
 21
-4.443385
 31
0.0
  0
LINE
  5
39A
330
42B
100
AcDbEntity
  8
BORDER
  6
Continuous
 62
     7
370
    13
100
AcDbLine
 10
15.702323
 20
-4.443385
 30
0.0
 11
15.776667
 21
-4.443385
 31
0.0
  0
SOLID
  5
39B
330
42B
100
AcDbEntity
  8
HATCH
  6
Continuous
 62
     7
370
    13
100
AcDbTrace
 10
-15.666688
 20
-5.211198
 30
0.0
 11
-15.678604
 21
-5.199542
 31
0.0
 12
-15.637677
 22
-5.169635
 32
0.0
 13
-15.637677
 23
-5.169635
 33
0.0
210
0.0
220
0.0
230
-1.0
  0
LINE
  5
39C
330
42B
100
AcDbEntity
  8
HATCH
  6
Continuous
 62
     7
370
    13
100
AcDbLine
 10
15.672646
 20
-5.205375
 30
0.0
 11
15.796062
 21
-5.331469
 31
0.0
  0
LINE
  5
39D
330
42B
100
AcDbEntity
  8
HATCH
  6
Continuous
 62
     7
370
    13
100
AcDbLine
 10
15.796062
 20
-5.331469
 30
0.0
 11
15.860708
 21
-5.331469
 31
0.0
  0
LINE
  5
39E
330
42B
100
AcDbEntity
  8
BORDER
  6
Continuous
 62
     7
370
    13
100
AcDbLine
 10
14.597323
 20
-6.334469
 30
0.0
 11
13.993667
 21
-6.334469
 31
0.0
  0
SOLID
  5
39F
330
42B
100
AcDbEntity
  8
BORDER
  6
Continuous
 62
     7
370
    13
100
AcDbTrace
 10
14.597323
 20
-6.342802
 30
0.0
 11
14.597323
 21
-6.326135
 31
0.0
 12
14.647323
 22
-6.334469
 32
0.0
 13
14.647323
 23
-6.334469
 33
0.0
  0
SOLID
  5
3A0
330
42B
100
AcDbEntity
  8
BORDER
  6
Continuous
 62
     7
370
    13
100
AcDbTrace
 10
13.993667
 20
-6.342802
 30
0.0
 11
13.993667
 21
-6.326135
 31
0.0
 12
13.943667
 22
-6.334469
 32
0.0
 13
13.943667
 23
-6.334469
 33
0.0
  0
ARC
  5
3A3
330
42B
100
AcDbEntity
  8
_0
  6
Continuous
 62
     7
370
    13
100
AcDbCircle
 10
13.315706
 20
-5.192111
 30
0.0
 40
0.025
100
AcDbArc
 50
180.0
 51
280.070747
  0
ARC
  5
3A4
330
42B
100
AcDbEntity
  8
_0
  6
Continuous
 62
     7
370
    13
100
AcDbCircle
 10
13.315706
 20
-4.751774
 30
0.0
 40
0.025
100
AcDbArc
 50
79.929253
 51
180.0
  0
SOLID
  5
3AA
330
42B
100
AcDbEntity
  8
BORDER
  6
Continuous
 62
     7
370
    13
100
AcDbTrace
 10
18.045656
 20
-5.759646
 30
0.0
 11
18.045656
 21
-5.742979
 31
0.0
 12
17.995656
 22
-5.751313
 32
0.0
 13
17.995656
 23
-5.751313
 33
0.0
  0
LINE
  5
3AB
330
42B
100
AcDbEntity
  8
BORDER
  6
Continuous
 62
     7
370
    13
100
AcDbLine
 10
18.045656
 20
-5.751313
 30
0.0
 11
18.14349
 21
-5.751313
 31
0.0
  0
SOLID
  5
3AC
330
42B
100
AcDbEntity
  8
BORDER
  6
Continuous
 62
     7
370
    13
100
AcDbTrace
 10
18.14349
 20
-5.759646
 30
0.0
 11
18.14349
 21
-5.742979
 31
0.0
 12
18.19349
 22
-5.751313
 32
0.0
 13
18.19349
 23
-5.751313
 33
0.0
  0
LINE
  5
3AD
330
42B
100
AcDbEntity
  8
BORDER
  6
Continuous
 62
     7
370
    13
100
AcDbLine
 10
17.995656
 20
-5.613688
 30
0.0
 11
17.995656
 21
-5.801312
 31
0.0
  0
LINE
  5
3AE
330
42B
100
AcDbEntity
  8
_0
  6
Continuous
 62
     7
370
    13
100
AcDbLine
 10
18.19349
 20
-5.71149
 30
0.0
 11
18.19349
 21
-5.801312
 31
0.0
  0
LINE
  5
3AF
330
42B
100
AcDbEntity
  8
HATCH
  6
Continuous
 62
     7
370
    13
100
AcDbLine
 10
18.168667
 20
-5.080885
 30
0.0
 11
18.46874
 21
-5.030698
 31
0.0
  0
LINE
  5
3B2
330
42B
100
AcDbEntity
  8
HATCH
  6
Continuous
 62
     7
370
    13
100
AcDbLine
 10
18.46874
 20
-5.030698
 30
0.0
 11
18.495771
 21
-5.030698
 31
0.0
  0
SOLID
  5
3B3
330
42B
100
AcDbEntity
  8
HATCH
  6
Continuous
 62
     7
370
    13
100
AcDbTrace
 10
18.170042
 20
-5.089104
 30
0.0
 11
18.167292
 21
-5.072667
 31
0.0
 12
18.119344
 22
-5.089135
 32
0.0
 13
18.119344
 23
-5.089135
 33
0.0
  0
LINE
  5
3B5
330
42B
100
AcDbEntity
  8
HATCH
  6
Continuous
 62
     7
370
    13
100
AcDbLine
 10
20.100521
 20
-4.978042
 30
0.0
 11
20.170844
 21
-4.978042
 31
0.0
  0
LINE
  5
3B6
330
42B
100
AcDbEntity
  8
HATCH
  6
Continuous
 62
     7
370
    13
100
AcDbLine
 10
19.893646
 20
-4.894521
 30
0.0
 11
20.100521
 21
-4.978042
 31
0.0
  0
SOLID
  5
3B7
330
42B
100
AcDbEntity
  8
HATCH
  6
Continuous
 62
     7
370
    13
100
AcDbTrace
 10
-19.890531
 20
-4.90225
 30
0.0
 11
-19.896771
 21
-4.886792
 31
0.0
 12
-19.847292
 22
-4.875802
 32
0.0
 13
-19.847292
 23
-4.875802
 33
0.0
210
0.0
220
0.0
230
-1.0
  0
HATCH
  5
3B8
330
42B
100
AcDbEntity
  8
_0
  6
Continuous
 62
     7
370
    13
100
AcDbHatch
 10
0.0
 20
0.0
 30
0.0
210
0.0
220
0.0
230
1.0
  2
SOLID
 70
     1
 71
     0
 91
        1
 92
        1
 93
        1
 72
     2
 10
15.98321879746022
 20
-10.17162050660744
 40
0.0250000000000005
 50
0.0
 51
360.0
 73
     1
 97
        0
 75
     0
 76
     1
 98
        0
  0
LINE
  5
3BB
330
42B
100
AcDbEntity
  8
HATCH
  6
Continuous
 62
     7
370
    13
100
AcDbLine
 10
16.058229
 20
-10.185385
 30
0.0
 11
16.199958
 21
-10.209865
 31
0.0
  0
SOLID
  5
3BC
330
42B
100
AcDbEntity
  8
HATCH
  6
Continuous
 62
     7
370
    13
100
AcDbTrace
 10
-16.056802
 20
-10.193604
 30
0.0
 11
-16.059646
 21
-10.177177
 31
0.0
 12
-16.008958
 22
-10.176875
 32
0.0
 13
-16.008958
 23
-10.176875
 33
0.0
210
0.0
220
0.0
230
-1.0
  0
TEXT
  5
6F
330
42B
100
AcDbEntity
  8
DEFPOINTS
  6
Continuous
 62
     7
370
    13
100
AcDbText
 10
19.342084
 20
-7.163229
 30
0.0
 40
0.045
  1
NUTS, BOLTS, AND WASHERS SHALL BE GALVANIZED
 41
0.833333
  7
Style-Arial
 72
     1
 11
20.027845
 21
-7.163229
 31
0.0
100
AcDbText
  0
TEXT
  5
70
330
42B
100
AcDbEntity
  8
DEFPOINTS
  6
Continuous
 62
     7
370
    13
100
AcDbText
 10
19.346037
 20
-7.325135
 30
0.0
 40
0.045
  1
ACCEPTANCE OF ALL GUARD RAIL PRODUCTS SHALL BE GOVERNED
 41
0.833333
  7
Style-Arial
 72
     1
 11
20.232703
 21
-7.325135
 31
0.0
100
AcDbText
  0
TEXT
  5
71
330
42B
100
AcDbEntity
  8
DEFPOINTS
  6
Continuous
 62
     7
370
    13
100
AcDbText
 10
19.342212
 20
-7.406083
 30
0.0
 40
0.045
  1
BY THE REQUIREMENTS SET FORTH IN AASHTO
 41
0.833333
  7
Style-Arial
 72
     1
 11
19.958261
 21
-7.406083
 31
0.0
100
AcDbText
  0
TEXT
  5
72
330
42B
100
AcDbEntity
  8
DEFPOINTS
  6
Continuous
 62
     7
370
    13
100
AcDbText
 10
19.34183
 20
-7.487042
 30
0.0
 40
0.045
  1
DESIGNATION M180
 41
0.833333
  7
Style-Arial
 72
     1
 11
19.593868
 21
-7.487042
 31
0.0
100
AcDbText
  0
TEXT
  5
73
330
42B
100
AcDbEntity
  8
DEFPOINTS
  6
Continuous
 62
     7
370
    13
100
AcDbText
 10
19.345011
 20
-7.648937
 30
0.0
 40
0.045
  1
THE GUARD RAIL. FITTINGS PARTS ECT ARE TO BE IN ACCORDANCE
 41
0.833333
  7
Style-Arial
 72
     1
 11
20.225761
 21
-7.648937
 31
0.0
100
AcDbText
  0
TEXT
  5
74
330
42B
100
AcDbEntity
  8
DEFPOINTS
  6
Continuous
 62
     7
370
    13
100
AcDbText
 10
19.345494
 20
-7.729896
 30
0.0
 40
0.045
  1
WITH THE ROAD AND BRIDGE SPECIFICATIONS
 41
0.833333
  7
Style-Arial
 72
     1
 11
19.949667
 21
-7.729896
 31
0.0
100
AcDbText
  0
TEXT
  5
75
330
42B
100
AcDbEntity
  8
DEFPOINTS
  6
Continuous
 62
     7
370
    13
100
AcDbText
 10
19.34476
 20
-7.891802
 30
0.0
 40
0.045
  1
THE GUARD RAIL COMPONENTS DEPICTED IN A R B A TECHNICAL
 41
0.833333
  7
Style-Arial
 72
     1
 11
20.188139
 21
-7.891802
 31
0.0
100
AcDbText
  0
TEXT
  5
76
330
42B
100
AcDbEntity
  8
DEFPOINTS
  6
Continuous
 62
     7
370
    13
100
AcDbText
 10
19.342238
 20
-7.97275
 30
0.0
 40
0.045
  1
BULLETIN NUMBER 268 MAY BE SUBSTITUTED IF INTERCHANGABLE
 41
0.833333
  7
Style-Arial
 72
     1
 11
20.211397
 21
-7.97275
 31
0.0
100
AcDbText
  0
TEXT
  5
77
330
42B
100
AcDbEntity
  8
DEFPOINTS
  6
Continuous
 62
     7
370
    13
100
AcDbText
 10
19.345444
 20
-8.053708
 30
0.0
 40
0.045
  1
WITH THIS STANDARD AND IF APPROVED BY THE ENGINEER
 41
0.833333
  7
Style-Arial
 72
     1
 11
20.12244
 21
-8.053708
 31
0.0
100
AcDbText
  0
TEXT
  5
78
330
42B
100
AcDbEntity
  8
DEFPOINTS
  6
Continuous
 62
     7
370
    13
100
AcDbText
 10
19.341981
 20
-8.294812
 30
0.0
 40
0.045
  1
PLAN AND SHALL BE GALVANIZED IN ACCORDANCE WITH SPECIFICATIONS
 41
0.833333
  7
Style-Arial
 72
     1
 11
20.304334
 21
-8.294812
 31
0.0
100
AcDbText
  0
TEXT
  5
79
330
42B
100
AcDbEntity
  8
DEFPOINTS
  6
Continuous
 62
     7
370
    13
100
AcDbText
 10
19.344625
 20
-8.213854
 30
0.0
 40
0.045
  1
THE RAIL ELEMENT SHALL BE 12 GAUGE UNLESS OTHERWISE NOTED ON
 41
0.833333
  7
Style-Arial
 72
     1
 11
20.285841
 21
-8.213854
 31
0.0
100
AcDbText
  0
TEXT
  5
7A
330
42B
100
AcDbEntity
  8
DEFPOINTS
  6
Continuous
 62
     7
370
    13
100
AcDbText
 10
19.343198
 20
-8.456708
 30
0.0
 40
0.045
  1
GUARD RAIL INSTALLATIONS HAVING A RADIUS OF 125 OR LESS SHALL BE
 41
0.833333
  7
Style-Arial
 72
     1
 11
20.299748
 21
-8.456708
 31
0.0
100
AcDbText
  0
TEXT
  5
7B
330
42B
100
AcDbEntity
  8
DEFPOINTS
  6
Continuous
 62
     7
370
    13
100
AcDbText
 10
19.343236
 20
-8.537667
 30
0.0
 40
0.045
  1
CONSIDERED RADIAL WHERE THE FACE OF GUARD RAILL IS CONSTRUCTED
 41
0.833333
  7
Style-Arial
 72
     1
 11
20.325881
 21
-8.537667
 31
0.0
100
AcDbText
  0
TEXT
  5
7C
330
42B
100
AcDbEntity
  8
DEFPOINTS
  6
Continuous
 62
     7
370
    13
100
AcDbText
 10
19.343404
 20
-8.618615
 30
0.0
 40
0.045
  1
ON A RADIUS OF 75' OR LESS THE BEAM SHALL BE SHOP CURVED
 41
0.833333
  7
Style-Arial
 72
     1
 11
20.191398
 21
-8.618615
 31
0.0
100
AcDbText
  0
TEXT
  5
7D
330
42B
100
AcDbEntity
  8
DEFPOINTS
  6
Continuous
 62
     7
370
    13
100
AcDbText
 10
19.344801
 20
-8.699573
 30
0.0
 40
0.045
  1
THE PRICE BID PER LINEAR FOOT OF RADIAL GUARD SHALL INCLUDE
 41
0.833333
  7
Style-Arial
 72
     1
 11
20.237226
 21
-8.699573
 31
0.0
100
AcDbText
  0
TEXT
  5
7E
330
42B
100
AcDbEntity
  8
DEFPOINTS
  6
Continuous
 62
     7
370
    13
100
AcDbText
 10
19.344842
 20
-8.780521
 30
0.0
 40
0.045
  1
THE COST OF ALL CURVED SECTIONS
 41
0.833333
  7
Style-Arial
 72
     1
 11
19.832599
 21
-8.780521
 31
0.0
100
AcDbText
  0
TEXT
  5
7F
330
42B
100
AcDbEntity
  8
DEFPOINTS
  6
Continuous
 62
     7
370
    13
100
AcDbText
 10
19.344831
 20
-8.942427
 30
0.0
 40
0.045
  1
THE SPACING OF POSTS IS TO BE ADJUSTED TO FIT
 41
0.833333
  7
Style-Arial
 72
     1
 11
20.015387
 21
-8.942427
 31
0.0
100
AcDbText
  0
TEXT
  5
80
330
42B
100
AcDbEntity
  8
DEFPOINTS
  6
Continuous
 62
     7
370
    13
100
AcDbText
 10
19.344819
 20
-9.023375
 30
0.0
 40
0.045
  1
THE CHORD LENGTH OF ALL CURVED RAIL SECTIONS
 41
0.833333
  7
Style-Arial
 72
     1
 11
20.034911
 21
-9.023375
 31
0.0
100
AcDbText
  0
TEXT
  5
81
330
42B
100
AcDbEntity
  8
DEFPOINTS
  6
Continuous
 62
     7
370
    13
100
AcDbText
 10
19.343202
 20
-9.185281
 30
0.0
 40
0.045
  1
GUARD RAIL LOCATIONS AND LENGTHS SHOWN ON
 41
0.833333
  7
Style-Arial
 72
     1
 11
20.007755
 21
-9.185281
 31
0.0
100
AcDbText
  0
TEXT
  5
82
330
42B
100
AcDbEntity
  8
DEFPOINTS
  6
Continuous
 62
     7
370
    13
100
AcDbText
 10
19.342103
 20
-9.26624
 30
0.0
 40
0.045
  1
PLANS ARE APPROXIMATE ONLY AND CAN BE 
 41
0.833333
  7
Style-Arial
 72
     1
 11
19.930356
 21
-9.26624
 31
0.0
100
AcDbText
  0
TEXT
  5
83
330
42B
100
AcDbEntity
  8
DEFPOINTS
  6
Continuous
 62
     7
370
    13
100
AcDbText
 10
19.345895
 20
-9.347188
 30
0.0
 40
0.045
  1
ADJUSTED DURING CONSTRUCTION IF AND AS DIRECTED
 41
0.833333
  7
Style-Arial
 72
     1
 11
20.088321
 21
-9.347188
 31
0.0
100
AcDbText
  0
TEXT
  5
84
330
42B
100
AcDbEntity
  8
DEFPOINTS
  6
Continuous
 62
     7
370
    13
100
AcDbText
 10
19.342042
 20
-9.428146
 30
0.0
 40
0.045
  1
BY THE ENGINEER
 41
0.833333
  7
Style-Arial
 72
     1
 11
19.580447
 21
-9.428146
 31
0.0
100
AcDbText
  0
TEXT
  5
85
330
42B
100
AcDbEntity
  8
DEFPOINTS
  6
Continuous
 62
     7
370
    13
100
AcDbText
 10
19.341464
 20
-9.590042
 30
0.0
 40
0.045
  1
FOR DETAILS OF GUARD RAIL INSTALLATION METHODS SEE
 41
0.833333
  7
Style-Arial
 72
     1
 11
20.114515
 21
-9.590042
 31
0.0
100
AcDbText
  0
TEXT
  5
86
330
42B
100
AcDbEntity
  8
DEFPOINTS
  6
Continuous
 62
     7
370
    13
100
AcDbText
 10
19.341896
 20
-9.671
 30
0.0
 40
0.045
  1
FIGURE 3-32h
 41
0.833333
  7
Style-Arial
 72
     1
 11
19.513347
 21
-9.671
 31
0.0
100
AcDbText
  0
TEXT
  5
87
330
42B
100
AcDbEntity
  8
DEFPOINTS
  6
Continuous
 62
     7
370
    13
100
AcDbText
 10
19.342129
 20
-9.832906
 30
0.0
 40
0.045
  1
BASIS OF PAYMENT TO BE PER LINEAR FOOT OF STEEL BEAM GUARD
 41
0.833333
  7
Style-Arial
 72
     1
 11
20.241872
 21
-9.832906
 31
0.0
100
AcDbText
  0
TEXT
  5
88
330
42B
100
AcDbEntity
  8
DEFPOINTS
  6
Continuous
 62
     7
370
    13
100
AcDbText
 10
19.341944
 20
-9.913854
 30
0.0
 40
0.045
  1
RAIL AND PER LINEAR FOOT OF RADIAL STEEL BEAM GUARD RAIL COM-
 41
0.833333
  7
Style-Arial
 72
     1
 11
20.266967
 21
-9.913854
 31
0.0
100
AcDbText
  0
TEXT
  5
89
330
42B
100
AcDbEntity
  8
DEFPOINTS
  6
Continuous
 62
     7
370
    13
100
AcDbText
 10
19.342114
 20
-9.994813
 30
0.0
 40
0.045
  1
PLETE IN PLACE AND IS TO INCLUDE THE FURNISH AND PLACING OF
 41
0.833333
  7
Style-Arial
 72
     1
 11
20.223078
 21
-9.994813
 31
0.0
100
AcDbText
  0
TEXT
  5
8A
330
42B
100
AcDbEntity
  8
DEFPOINTS
  6
Continuous
 62
     7
370
    13
100
AcDbText
 10
19.346068
 20
-10.07576
 30
0.0
 40
0.045
  1
ALL COMPONENTS DETAILED HEREON
 41
0.833333
  7
Style-Arial
 72
     1
 11
19.840356
 21
-10.07576
 31
0.0
100
AcDbText
  0
TEXT
  5
8B
330
42B
100
AcDbEntity
  8
DEFPOINTS
  6
Continuous
 62
     7
370
    13
100
AcDbText
 10
19.34188
 20
-10.237667
 30
0.0
 40
0.045
  1
NORMAL POST  SPACING TO BE 12' 6"
 41
0.833333
  7
Style-Arial
 72
     1
 11
19.822263
 21
-10.237667
 31
0.0
100
AcDbText
  0
TEXT
  5
8C
330
42B
100
AcDbEntity
  8
DEFPOINTS
  6
Continuous
 62
     7
370
    13
100
AcDbText
 10
19.341864
 20
-10.399573
 30
0.0
 40
0.045
  1
HOLE IN POST MAY BE È 1/16 OF INDICATED DIMENSIONS
 41
0.833333
  7
Style-Arial
 72
     1
 11
20.078544
 21
-10.399573
 31
0.0
100
AcDbText
  0
TEXT
  5
AD
330
42B
100
AcDbEntity
  8
HATCH
  6
Continuous
 62
     7
370
    13
100
AcDbText
 10
12.724875
 20
-8.622645
 30
0.0
 40
0.045
  1
9-3 GA
 41
0.833333
  7
Style-Arial
 72
     1
 11
12.807893
 21
-8.622645
 31
0.0
100
AcDbText
  0
TEXT
  5
AE
330
42B
100
AcDbEntity
  8
HATCH
  6
Continuous
 62
     7
370
    13
100
AcDbText
 10
12.727773
 20
-8.694114
 30
0.0
 40
0.045
  1
WIRE STIRRUPS
 41
0.833333
  7
Style-Arial
 72
     1
 11
12.934552
 21
-8.694114
 31
0.0
100
AcDbText
  0
TEXT
  5
AF
330
42B
100
AcDbEntity
  8
HATCH
  6
Continuous
 62
     7
370
    13
100
AcDbText
 10
12.72469
 20
-8.76948
 30
0.0
 40
0.045
  1
LAPPED 10"
 41
0.833333
  7
Style-Arial
 72
     1
 11
12.87256
 21
-8.76948
 31
0.0
100
AcDbText
  0
TEXT
  5
B0
330
42B
100
AcDbEntity
  8
HATCH
  6
Continuous
 62
     7
370
    13
100
AcDbText
 10
12.725835
 20
-8.845404
 30
0.0
 40
0.045
  1
SPACING VARIES 5"
 41
0.833333
  7
Style-Arial
 72
     1
 11
12.977059
 21
-8.845404
 31
0.0
100
AcDbText
  0
TEXT
  5
B1
330
42B
100
AcDbEntity
  8
HATCH
  6
Continuous
 62
     7
370
    13
100
AcDbText
 10
12.727198
 20
-8.9085
 30
0.0
 40
0.045
  1
TO 1'-0"c-c
 41
0.833333
  7
Style-Arial
 72
     1
 11
12.85769
 21
-8.9085
 31
0.0
100
AcDbText
  0
TEXT
  5
B2
330
42B
100
AcDbEntity
  8
HATCH
  6
Continuous
 62
     7
370
    13
100
AcDbText
 10
12.727517
 20
-9.295554
 30
0.0
 40
0.045
  1
4 NO 4
 41
0.833333
  7
Style-Arial
 72
     1
 11
12.80922
 21
-9.295554
 31
0.0
100
AcDbText
  0
TEXT
  5
B3
330
42B
100
AcDbEntity
  8
HATCH
  6
Continuous
 62
     7
370
    13
100
AcDbText
 10
12.72439
 20
-9.354278
 30
0.0
 40
0.045
  1
DEFORMED
 41
0.833333
  7
Style-Arial
 72
     1
 11
12.872918
 21
-9.354278
 31
0.0
100
AcDbText
  0
TEXT
  5
B4
330
42B
100
AcDbEntity
  8
HATCH
  6
Continuous
 62
     7
370
    13
100
AcDbText
 10
12.724514
 20
-9.416432
 30
0.0
 40
0.045
  1
REINFORCED
 41
0.833333
  7
Style-Arial
 72
     1
 11
12.896337
 21
-9.416432
 31
0.0
100
AcDbText
  0
TEXT
  5
B5
330
42B
100
AcDbEntity
  8
HATCH
  6
Continuous
 62
     7
370
    13
100
AcDbText
 10
12.724694
 20
-9.475156
 30
0.0
 40
0.045
  1
BARS 4" LESS THAN
 41
0.833333
  7
Style-Arial
 72
     1
 11
12.977919
 21
-9.475156
 31
0.0
100
AcDbText
  0
TEXT
  5
B6
330
42B
100
AcDbEntity
  8
HATCH
  6
Continuous
 62
     7
370
    13
100
AcDbText
 10
12.724432
 20
-9.53731
 30
0.0
 40
0.045
  1
HEIGTH OF POST
 41
0.833333
  7
Style-Arial
 72
     1
 11
12.945159
 21
-9.53731
 31
0.0
100
AcDbText
  0
TEXT
  5
B7
330
42B
100
AcDbEntity
  8
HATCH
  6
Continuous
 62
     7
370
    13
100
AcDbText
 10
12.724673
 20
-9.918704
 30
0.0
 40
0.045
  1
CHAMFER MAY 
 41
0.833333
  7
Style-Arial
 72
     1
 11
12.918075
 21
-9.918704
 31
0.0
100
AcDbText
  0
TEXT
  5
B8
330
42B
100
AcDbEntity
  8
HATCH
  6
Continuous
 62
     7
370
    13
100
AcDbText
 10
12.724799
 20
-9.985976
 30
0.0
 40
0.045
  1
BE EXTENDED
 41
0.833333
  7
Style-Arial
 72
     1
 11
12.908312
 21
-9.985976
 31
0.0
100
AcDbText
  0
TEXT
  5
B9
330
42B
100
AcDbEntity
  8
HATCH
  6
Continuous
 62
     7
370
    13
100
AcDbText
 10
12.725214
 20
-10.051294
 30
0.0
 40
0.045
  1
ENTIRE LENGTH
 41
0.833333
  7
Style-Arial
 72
     1
 11
12.932721
 21
-10.051294
 31
0.0
100
AcDbText
  0
TEXT
  5
BA
330
42B
100
AcDbEntity
  8
HATCH
  6
Continuous
 62
     7
370
    13
100
AcDbText
 10
12.725517
 20
-10.114669
 30
0.0
 40
0.045
  1
OF POST AT THE
 41
0.833333
  7
Style-Arial
 72
     1
 11
12.939556
 21
-10.114669
 31
0.0
100
AcDbText
  0
TEXT
  5
BB
330
42B
100
AcDbEntity
  8
HATCH
  6
Continuous
 62
     7
370
    13
100
AcDbText
 10
12.726439
 20
-10.17608
 30
0.0
 40
0.045
  1
OPTION OF THE
 41
0.833333
  7
Style-Arial
 72
     1
 11
12.928816
 21
-10.17608
 31
0.0
100
AcDbText
  0
TEXT
  5
BC
330
42B
100
AcDbEntity
  8
HATCH
  6
Continuous
 62
     7
370
    13
100
AcDbText
 10
12.725159
 20
-10.237012
 30
0.0
 40
0.045
  1
FABRICATOR
 41
0.833333
  7
Style-Arial
 72
     1
 11
12.893666
 21
-10.237012
 31
0.0
100
AcDbText
  0
TEXT
  5
C1
330
42B
100
AcDbEntity
  8
DEFPOINTS
  6
Continuous
 62
     7
370
    13
100
AcDbText
 10
12.611484
 20
-6.99699
 30
0.0
 40
0.045
  1
NOTE: DIMENSIONS SHOWN IN PARAENTHESIS INDICATE
 41
0.833333
  7
Style-Arial
 72
     1
 11
13.343748
 21
-6.99699
 31
0.0
100
AcDbText
  0
TEXT
  5
C2
330
42B
100
AcDbEntity
  8
DEFPOINTS
  6
Continuous
 62
     7
370
    13
100
AcDbText
 10
12.786857
 20
-7.077937
 30
0.0
 40
0.045
  1
ACCEPTABLE TOLERANCES
 41
0.833333
  7
Style-Arial
 72
     1
 11
13.143664
 21
-7.077937
 31
0.0
100
AcDbText
  0
TEXT
  5
C3
330
42B
100
AcDbEntity
  8
HATCH
  6
Continuous
 62
     7
370
    13
100
AcDbText
 10
13.256947
 20
-7.312561
 30
0.0
 40
0.045
  1
CHAMFER ALL CORNERS 1/2"(+1/4")
 41
0.833333
  7
Style-Arial
 72
     1
 11
13.709133
 21
-7.312561
 31
0.0
100
AcDbText
  0
TEXT
  5
C4
330
42B
100
AcDbEntity
  8
HATCH
  6
Continuous
 62
     7
370
    13
100
AcDbText
 10
13.257117
 20
-7.385705
 30
0.0
 40
0.045
  1
CONCRETE TO BE CLASS A3
 41
0.833333
  7
Style-Arial
 72
     1
 11
13.621356
 21
-7.385705
 31
0.0
100
AcDbText
  0
TEXT
  5
C5
330
42B
100
AcDbEntity
  8
HATCH
  6
Continuous
 62
     7
370
    13
100
AcDbText
 10
13.263022
 20
-7.457372
 30
0.0
 40
0.045
  1
3/4" HOLE TO BE CAST IN POST
 41
0.833333
  7
Style-Arial
 72
     1
 11
13.661946
 21
-7.457372
 31
0.0
100
AcDbText
  0
TEXT
  5
C6
330
42B
100
AcDbEntity
  8
HATCH
  6
Continuous
 62
     7
370
    13
100
AcDbText
 10
13.268873
 20
-7.562854
 30
0.0
 40
0.045
  1
1/2" CHAMFER ON TOP 3'-0"
 41
0.833333
  7
Style-Arial
 72
     1
 11
13.617306
 21
-7.562854
 31
0.0
100
AcDbText
  0
TEXT
  5
C7
330
42B
100
AcDbEntity
  8
HATCH
  6
Continuous
 62
     7
370
    13
100
AcDbText
 10
13.275581
 20
-7.643813
 30
0.0
 40
0.045
  1
OF POST
 41
0.833333
  7
Style-Arial
 72
     1
 11
13.390053
 21
-7.643813
 31
0.0
100
AcDbText
  0
TEXT
  5
C8
330
42B
100
AcDbEntity
  8
HATCH
  6
Continuous
 62
     7
370
    13
100
AcDbText
 10
14.043572
 20
-7.723312
 30
0.0
 40
0.045
  1
5/8" x 10" BOLT
 41
0.833333
  7
Style-Arial
 72
     1
 11
14.230529
 21
-7.723312
 31
0.0
100
AcDbText
  0
TEXT
  5
C9
330
42B
100
AcDbEntity
  8
HATCH
  6
Continuous
 62
     7
370
    13
100
AcDbText
 10
14.043203
 20
-7.783845
 30
0.0
 40
0.045
  1
& WASHER
 41
0.833333
  7
Style-Arial
 72
     1
 11
14.182599
 21
-7.783845
 31
0.0
100
AcDbText
  0
TEXT
  5
CA
330
42B
100
AcDbEntity
  8
LEGEND
  6
Continuous
 62
     7
370
    13
100
AcDbText
 10
13.806478
 20
-10.423157
 30
0.0
 40
0.045
  1
CONRETE POST
 41
0.833333
  7
Style-Arial
 72
     1
 11
14.012671
 21
-10.423157
 31
0.0
100
AcDbText
  0
TEXT
  5
CB
330
42B
100
AcDbEntity
  8
LEGEND
  6
Continuous
 62
     7
370
    13
100
AcDbText
 10
15.479617
 20
-10.410531
 30
0.0
 40
0.045
  1
STEEL POST
 41
0.833333
  7
Style-Arial
 72
     1
 11
15.640707
 21
-10.410531
 31
0.0
100
AcDbText
  0
TEXT
  5
CC
330
42B
100
AcDbEntity
  8
LEGEND
  6
Continuous
 62
     7
370
    13
100
AcDbText
 10
17.419348
 20
-10.410531
 30
0.0
 40
0.045
  1
WOOD POST
 41
0.833333
  7
Style-Arial
 72
     1
 11
17.581839
 21
-10.410531
 31
0.0
100
AcDbText
  0
TEXT
  5
D1
330
42B
100
AcDbEntity
  8
DEFPOINTS
  6
Continuous
 62
     7
370
    13
100
AcDbText
 10
14.737881
 20
-6.99699
 30
0.0
 40
0.045
  1
NOTE: FOR DETAILS OF ALTERNATE STEEL POST
 41
0.833333
  7
Style-Arial
 72
     1
 11
15.370622
 21
-6.99699
 31
0.0
100
AcDbText
  0
TEXT
  5
D2
330
42B
100
AcDbEntity
  8
DEFPOINTS
  6
Continuous
 62
     7
370
    13
100
AcDbText
 10
14.912438
 20
-7.077937
 30
0.0
 40
0.045
  1
SEE FIGURE 3-32g
 41
0.833333
  7
Style-Arial
 72
     1
 11
15.143626
 21
-7.077937
 31
0.0
100
AcDbText
  0
TEXT
  5
D3
330
42B
100
AcDbEntity
  8
HATCH
  6
Continuous
 62
     7
370
    13
100
AcDbText
 10
16.913999
 20
-7.077937
 30
0.0
 40
0.045
  1
TO PERMIT USE 5/8" BOLT
 41
0.833333
  7
Style-Arial
 72
     1
 11
17.245939
 21
-7.077937
 31
0.0
100
AcDbText
  0
TEXT
  5
D4
330
42B
100
AcDbEntity
  8
HATCH
  6
Continuous
 62
     7
370
    13
100
AcDbText
 10
16.908897
 20
-6.99699
 30
0.0
 40
0.045
  1
3/4" HOLE TO LOCATED AS SHOWN
 41
0.833333
  7
Style-Arial
 72
     1
 11
17.355682
 21
-6.99699
 31
0.0
100
AcDbText
  0
TEXT
  5
D5
330
42B
100
AcDbEntity
  8
HATCH
  6
Continuous
 62
     7
370
    13
100
AcDbText
 10
15.11753
 20
-7.368944
 30
0.0
 40
0.045
  1
3/4" HOLE TO BE LOCATED AS SHOWN
 41
0.833333
  7
Style-Arial
 72
     1
 11
15.606545
 21
-7.368944
 31
0.0
100
AcDbText
  0
TEXT
  5
D6
330
42B
100
AcDbEntity
  8
HATCH
  6
Continuous
 62
     7
370
    13
100
AcDbText
 10
15.114328
 20
-7.431066
 30
0.0
 40
0.045
  1
TO PERMIT USE OF 5/8" BOLT
 41
0.833333
  7
Style-Arial
 72
     1
 11
15.489929
 21
-7.431066
 31
0.0
100
AcDbText
  0
TEXT
  5
D7
330
42B
100
AcDbEntity
  8
HATCH
  6
Continuous
 62
     7
370
    13
100
AcDbText
 10
15.238348
 20
-7.751748
 30
0.0
 40
0.045
  1
ACCORDANCE WITH SPECIFICATIONS
 41
0.833333
  7
Style-Arial
 72
     1
 11
15.723161
 21
-7.751748
 31
0.0
100
AcDbText
  0
TEXT
  5
D8
330
42B
100
AcDbEntity
  8
HATCH
  6
Continuous
 62
     7
370
    13
100
AcDbText
 10
16.22192
 20
-10.230322
 30
0.0
 40
0.045
  1
OPTIONAL HOLE
 41
0.833333
  7
Style-Arial
 72
     1
 11
16.431614
 21
-10.230322
 31
0.0
100
AcDbText
  0
TEXT
  5
D9
330
42B
100
AcDbEntity
  8
HATCH
  6
Continuous
 62
     7
370
    13
100
AcDbText
 10
16.225797
 20
-10.29565
 30
0.0
 40
0.045
  1
TO FACILITATE
 41
0.833333
  7
Style-Arial
 72
     1
 11
16.416541
 21
-10.29565
 31
0.0
100
AcDbText
  0
TEXT
  5
DA
330
42B
100
AcDbEntity
  8
HATCH
  6
Continuous
 62
     7
370
    13
100
AcDbText
 10
16.225434
 20
-10.360968
 30
0.0
 40
0.045
  1
GALVANIZING
 41
0.833333
  7
Style-Arial
 72
     1
 11
16.399943
 21
-10.360968
 31
0.0
100
AcDbText
  0
TEXT
  5
DB
330
42B
100
AcDbEntity
  8
HATCH
  6
Continuous
 62
     7
370
    13
100
AcDbText
 10
16.121203
 20
-8.325083
 30
0.0
 40
0.045
  1
5/8" x 10" BOLT
 41
0.833333
  7
Style-Arial
 72
     1
 11
16.30816
 21
-8.325083
 31
0.0
100
AcDbText
  0
TEXT
  5
DC
330
42B
100
AcDbEntity
  8
HATCH
  6
Continuous
 62
     7
370
    13
100
AcDbText
 10
16.126902
 20
-8.406031
 30
0.0
 40
0.045
  1
& WASHER
 41
0.833333
  7
Style-Arial
 72
     1
 11
16.266298
 21
-8.406031
 31
0.0
100
AcDbText
  0
TEXT
  5
DF
330
42B
100
AcDbEntity
  8
HATCH
  6
Continuous
 62
     7
370
    13
100
AcDbText
 10
17.565338
 20
-7.405256
 30
0.0
 40
0.045
  1
POSTS ARE TO BE PRESSURE TREATED
 41
0.833333
  7
Style-Arial
 72
     1
 11
18.080791
 21
-7.405256
 31
0.0
100
AcDbText
  0
TEXT
  5
E0
330
42B
100
AcDbEntity
  8
HATCH
  6
Continuous
 62
     7
370
    13
100
AcDbText
 10
17.566317
 20
-7.479132
 30
0.0
 40
0.045
  1
IN ACCORDANCE WITH SECIFICATIONS
 41
0.833333
  7
Style-Arial
 72
     1
 11
18.067122
 21
-7.479132
 31
0.0
100
AcDbText
  0
TEXT
  5
E1
330
42B
100
AcDbEntity
  8
HATCH
  6
Continuous
 62
     7
370
    13
100
AcDbText
 10
18.08205
 20
-8.316396
 30
0.0
 40
0.045
  1
3/4" HOLE IN
 41
0.833333
  7
Style-Arial
 72
     1
 11
18.237695
 21
-8.316396
 31
0.0
100
AcDbText
  0
TEXT
  5
E2
330
42B
100
AcDbEntity
  8
HATCH
  6
Continuous
 62
     7
370
    13
100
AcDbText
 10
18.078625
 20
-8.383804
 30
0.0
 40
0.045
  1
1-1/2" DIAMETER 
 41
0.833333
  7
Style-Arial
 72
     1
 11
18.289905
 21
-8.383804
 31
0.0
100
AcDbText
  0
TEXT
  5
E3
330
42B
100
AcDbEntity
  8
HATCH
  6
Continuous
 62
     7
370
    13
100
AcDbText
 10
18.081267
 20
-8.447681
 30
0.0
 40
0.045
  1
GALVANIZED
 41
0.833333
  7
Style-Arial
 72
     1
 11
18.245844
 21
-8.447681
 31
0.0
100
AcDbText
  0
TEXT
  5
E4
330
42B
100
AcDbEntity
  8
HATCH
  6
Continuous
 62
     7
370
    13
100
AcDbText
 10
18.083637
 20
-8.521338
 30
0.0
 40
0.045
  1
WASHER
 41
0.833333
  7
Style-Arial
 72
     1
 11
18.198281
 21
-8.521338
 31
0.0
100
AcDbText
  0
TEXT
  5
E5
330
42B
100
AcDbEntity
  8
HATCH
  6
Continuous
 62
     7
370
    13
100
AcDbText
 10
18.08029
 20
-8.592352
 30
0.0
 40
0.045
  1
(WOOD POST ONLY)
 41
0.833333
  7
Style-Arial
 72
     1
 11
18.338417
 21
-8.592352
 31
0.0
100
AcDbText
  0
TEXT
  5
E6
330
42B
100
AcDbEntity
  8
HATCH
  6
Continuous
 62
     7
370
    13
100
AcDbText
 10
18.156719
 20
-9.114031
 30
0.0
 40
0.045
  1
SOUTHERN
 41
0.833333
  7
Style-Arial
 72
     1
 11
18.301603
 21
-9.114031
 31
0.0
100
AcDbText
  0
TEXT
  5
E7
330
42B
100
AcDbEntity
  8
HATCH
  6
Continuous
 62
     7
370
    13
100
AcDbText
 10
18.156002
 20
-9.175452
 30
0.0
 40
0.045
  1
FINE GRADE
 41
0.833333
  7
Style-Arial
 72
     1
 11
18.314734
 21
-9.175452
 31
0.0
100
AcDbText
  0
TEXT
  5
E8
330
42B
100
AcDbEntity
  8
HATCH
  6
Continuous
 62
     7
370
    13
100
AcDbText
 10
18.155053
 20
-9.238817
 30
0.0
 40
0.045
  1
NO. 1 DENSE 
 41
0.833333
  7
Style-Arial
 72
     1
 11
18.319615
 21
-9.238817
 31
0.0
100
AcDbText
  0
TEXT
  5
E9
330
42B
100
AcDbEntity
  8
HATCH
  6
Continuous
 62
     7
370
    13
100
AcDbText
 10
18.148833
 20
-9.305122
 30
0.0
 40
0.045
  1
SR
 41
0.833333
  7
Style-Arial
 72
     1
 11
18.184875
 21
-9.305122
 31
0.0
100
AcDbText
  0
TEXT
  5
18B
330
42B
100
AcDbEntity
  8
BORDER
  6
Continuous
 62
     7
370
    13
100
AcDbText
 10
13.15201
 20
-7.378629
 30
0.0
 40
0.045
  1
8"
 50
90.0
 41
0.833333
  7
Style-Arial
 72
     1
 11
13.15201
 21
-7.355992
 31
0.0
100
AcDbText
  0
TEXT
  5
191
330
42B
100
AcDbEntity
  8
BORDER
  6
Continuous
 62
     7
370
    13
100
AcDbText
 10
12.910587
 20
-7.699823
 30
0.0
 40
0.045
  1
6"
 41
0.833333
  7
Style-Arial
 72
     1
 11
12.933224
 21
-7.699823
 31
0.0
100
AcDbText
  0
TEXT
  5
197
330
42B
100
AcDbEntity
  8
BORDER
  6
Continuous
 62
     7
370
    13
100
AcDbText
 10
13.190237
 20
-8.087993
 30
0.0
 40
0.045
  1
7"(+1/4")
 50
90.0
 41
0.833333
  7
Style-Arial
 72
     1
 11
13.190237
 21
-7.98664
 31
0.0
100
AcDbText
  0
TEXT
  5
19D
330
42B
100
AcDbEntity
  8
BORDER
  6
Continuous
 62
     7
370
    13
100
AcDbText
 10
13.825573
 20
-9.19207
 30
0.0
 40
0.045
  1
5'-9" MIN
 50
90.0
 41
0.833333
  7
Style-Arial
 72
     1
 11
13.825573
 21
-9.086773
 31
0.0
100
AcDbText
  0
TEXT
  5
1A4
330
42B
100
AcDbEntity
  8
BORDER
  6
Continuous
 62
     7
370
    13
100
AcDbText
 10
13.714187
 20
-8.132619
 30
0.0
 40
0.045
  1
3"
 50
90.0
 41
0.833333
  7
Style-Arial
 72
     1
 11
13.714187
 21
-8.109982
 31
0.0
100
AcDbText
  0
TEXT
  5
1A5
330
42B
100
AcDbEntity
  8
BORDER
  6
Continuous
 62
     7
370
    13
100
AcDbText
 10
13.714187
 20
-10.031604
 30
0.0
 40
0.045
  1
3"
 50
90.0
 41
0.833333
  7
Style-Arial
 72
     1
 11
13.714187
 21
-10.008967
 31
0.0
100
AcDbText
  0
TEXT
  5
1B8
330
42B
100
AcDbEntity
  8
BORDER
  6
Continuous
 62
     7
370
    13
100
AcDbText
 10
14.521065
 20
-8.856896
 30
0.0
 40
0.045
  1
1" CL
 41
0.833333
  7
Style-Arial
 72
     1
 11
14.584761
 21
-8.856896
 31
0.0
100
AcDbText
  0
TEXT
  5
1CE
330
42B
100
AcDbEntity
  8
HATCH
  6
Continuous
 62
     7
370
    13
100
AcDbText
 10
17.577502
 20
-7.780327
 30
0.0
 40
0.045
  1
& WASHER
 41
0.833333
  7
Style-Arial
 72
     1
 11
17.716898
 21
-7.780327
 31
0.0
100
AcDbText
  0
TEXT
  5
1CF
330
42B
100
AcDbEntity
  8
HATCH
  6
Continuous
 62
     7
370
    13
100
AcDbText
 10
17.581201
 20
-7.723312
 30
0.0
 40
0.045
  1
5/8" x 10" BOLT
 41
0.833333
  7
Style-Arial
 72
     1
 11
17.768158
 21
-7.723312
 31
0.0
100
AcDbText
  0
TEXT
  5
1D0
330
42B
100
AcDbEntity
  8
BORDER
  6
Continuous
 62
     7
370
    13
100
AcDbText
 10
15.325573
 20
-9.349131
 30
0.0
 40
0.045
  1
5'-9" MIN
 50
90.0
 41
0.833333
  7
Style-Arial
 72
     1
 11
15.325573
 21
-9.243833
 31
0.0
100
AcDbText
  0
TEXT
  5
1D8
330
42B
100
AcDbEntity
  8
BORDER
  6
Continuous
 62
     7
370
    13
100
AcDbText
 10
17.375573
 20
-9.349131
 30
0.0
 40
0.045
  1
5'-9" MIN
 50
90.0
 41
0.833333
  7
Style-Arial
 72
     1
 11
17.375573
 21
-9.243833
 31
0.0
100
AcDbText
  0
TEXT
  5
1E4
330
42B
100
AcDbEntity
  8
BORDER
  6
Continuous
 62
     7
370
    13
100
AcDbText
 10
15.217604
 20
-8.452754
 30
0.0
 40
0.045
  1
6-1/2"
 50
90.0
 41
0.833333
  7
Style-Arial
 72
     1
 11
15.217604
 21
-8.385
 31
0.0
100
AcDbText
  0
TEXT
  5
1E5
330
42B
100
AcDbEntity
  8
BORDER
  6
Continuous
 62
     7
370
    13
100
AcDbText
 10
17.26401
 20
-8.464882
 30
0.0
 40
0.045
  1
6-1/2"
 50
90.0
 41
0.833333
  7
Style-Arial
 72
     1
 11
17.26401
 21
-8.397128
 31
0.0
100
AcDbText
  0
TEXT
  5
1EC
330
42B
100
AcDbEntity
  8
HATCH
  6
Continuous
 62
     7
370
    13
100
AcDbText
 10
15.373602
 20
-8.644833
 30
0.0
 40
0.045
  1
W 6X 8.5
 41
0.833333
  7
Style-Arial
 72
     1
 11
15.480271
 21
-8.644833
 31
0.0
100
AcDbText
  0
TEXT
  5
219
330
42B
100
AcDbEntity
  8
BORDER
  6
Continuous
 62
     7
370
    13
100
AcDbText
 10
19.765201
 20
-5.452656
 30
0.0
 40
0.045
  1
3"
 41
0.833333
  7
Style-Arial
 72
     1
 11
19.787838
 21
-5.452656
 31
0.0
100
AcDbText
  0
TEXT
  5
21A
330
42B
100
AcDbEntity
  8
BORDER
  6
Continuous
 62
     7
370
    13
100
AcDbText
 10
19.714287
 20
-5.605427
 30
0.0
 40
0.045
  1
15/16"
 41
0.833333
  7
Style-Arial
 72
     1
 11
19.787887
 21
-5.605427
 31
0.0
100
AcDbText
  0
TEXT
  5
225
330
42B
100
AcDbEntity
  8
BORDER
  6
Continuous
 62
     7
370
    13
100
AcDbText
 10
20.405365
 20
-5.852634
 30
0.0
 40
0.045
  1
1-3/4"
 50
90.0
 41
0.833333
  7
Style-Arial
 72
     1
 11
20.405365
 21
-5.78488
 31
0.0
100
AcDbText
  0
TEXT
  5
226
330
42B
100
AcDbEntity
  8
BORDER
  6
Continuous
 62
     7
370
    13
100
AcDbText
 10
20.234598
 20
-5.872681
 30
0.0
 40
0.045
  1
11/16"
 50
90.0
 41
0.833333
  7
Style-Arial
 72
     1
 11
20.234598
 21
-5.799081
 31
0.0
100
AcDbText
  0
TEXT
  5
22C
330
42B
100
AcDbEntity
  8
BORDER
  6
Continuous
 62
     7
370
    13
100
AcDbText
 10
19.56958
 20
-6.157979
 30
0.0
 40
0.045
  1
1-1/2"
 41
0.833333
  7
Style-Arial
 72
     1
 11
19.637335
 21
-6.157979
 31
0.0
100
AcDbText
  0
TEXT
  5
232
330
42B
100
AcDbEntity
  8
BORDER
  6
Continuous
 62
     7
370
    13
100
AcDbText
 10
19.297875
 20
-5.915228
 30
0.0
 40
0.045
  1
7/8"
 50
90.0
 41
0.833333
  7
Style-Arial
 72
     1
 11
19.297875
 21
-5.870754
 31
0.0
100
AcDbText
  0
TEXT
  5
233
330
42B
100
AcDbEntity
  8
LEGEND
  6
Continuous
 62
     7
370
    13
100
AcDbText
 10
19.651253
 20
-6.402656
 30
0.0
 40
0.045
  1
DETAIL OF
 41
0.833333
  7
Style-Arial
 72
     1
 11
19.785433
 21
-6.402656
 31
0.0
100
AcDbText
  0
TEXT
  5
234
330
42B
100
AcDbEntity
  8
LEGEND
  6
Continuous
 62
     7
370
    13
100
AcDbText
 10
19.548569
 20
-6.520719
 30
0.0
 40
0.045
  1
8 GAUGE WASHER
 41
0.833333
  7
Style-Arial
 72
     1
 11
19.786959
 21
-6.520719
 31
0.0
100
AcDbText
  0
TEXT
  5
235
330
42B
100
AcDbEntity
  8
LEGEND
  6
Continuous
 62
     7
370
    13
100
AcDbText
 10
19.37044
 20
-6.638781
 30
0.0
 40
0.045
  1
(ONE REQUIRED AT EACH POST)
 41
0.833333
  7
Style-Arial
 72
     1
 11
19.788728
 21
-6.638781
 31
0.0
100
AcDbText
  0
TEXT
  5
236
330
42B
100
AcDbEntity
  8
LEGEND
  6
Continuous
 62
     7
370
    13
100
AcDbText
 10
19.61893
 20
-5.198625
 30
0.0
 40
0.045
  1
BOLT DETAIL
 41
0.833333
  7
Style-Arial
 72
     1
 11
19.785422
 21
-5.198625
 31
0.0
100
AcDbText
  0
TEXT
  5
25A
330
42B
100
AcDbEntity
  8
LEGEND
  6
Continuous
 62
     7
370
    13
100
AcDbText
 10
17.919399
 20
-6.402656
 30
0.0
 40
0.045
  1
DETAIL OF
 41
0.833333
  7
Style-Arial
 72
     1
 11
18.053579
 21
-6.402656
 31
0.0
100
AcDbText
  0
TEXT
  5
25B
330
42B
100
AcDbEntity
  8
LEGEND
  6
Continuous
 62
     7
370
    13
100
AcDbText
 10
17.865348
 20
-6.520719
 30
0.0
 40
0.045
  1
RAIL ELEMENT
 41
0.833333
  7
Style-Arial
 72
     1
 11
18.054077
 21
-6.520719
 31
0.0
100
AcDbText
  0
TEXT
  5
25C
330
42B
100
AcDbEntity
  8
HATCH
  6
Continuous
 62
     7
370
    13
100
AcDbText
 10
20.256465
 20
-4.677
 30
0.0
 40
0.045
  1
ELLIPTICAL
 41
0.833333
  7
Style-Arial
 72
     1
 11
20.401134
 21
-4.677
 31
0.0
100
AcDbText
  0
TEXT
  5
25D
330
42B
100
AcDbEntity
  8
HATCH
  6
Continuous
 62
     7
370
    13
100
AcDbText
 10
20.256379
 20
-4.757958
 30
0.0
 40
0.045
  1
SHOULDER ON BOLT
 41
0.833333
  7
Style-Arial
 72
     1
 11
20.52371
 21
-4.757958
 31
0.0
100
AcDbText
  0
TEXT
  5
28F
330
42B
100
AcDbEntity
  8
BORDER
  6
Continuous
 62
     7
370
    13
100
AcDbText
 10
17.552583
 20
-5.391439
 30
0.0
 40
0.045
  1
1'-1/4"
 50
90.0
 41
0.833333
  7
Style-Arial
 72
     1
 11
17.552583
 21
-5.318683
 31
0.0
100
AcDbText
  0
TEXT
  5
294
330
42B
100
AcDbEntity
  8
BORDER
  6
Continuous
 62
     7
370
    13
100
AcDbText
 10
17.743656
 20
-5.709061
 30
0.0
 40
0.045
  1
2-5/16"
 50
90.0
 41
0.833333
  7
Style-Arial
 72
     1
 11
17.743656
 21
-5.626744
 31
0.0
100
AcDbText
  0
TEXT
  5
29C
330
42B
100
AcDbEntity
  8
BORDER
  6
Continuous
 62
     7
370
    13
100
AcDbText
 10
17.743656
 20
-5.116427
 30
0.0
 40
0.045
  1
2-5/16"
 50
90.0
 41
0.833333
  7
Style-Arial
 72
     1
 11
17.743656
 21
-5.03411
 31
0.0
100
AcDbText
  0
TEXT
  5
2A1
330
42B
100
AcDbEntity
  8
BORDER
  6
Continuous
 62
     7
370
    13
100
AcDbText
 10
17.713349
 20
-5.47149
 30
0.0
 40
0.045
  1
3-1/4"
 41
0.833333
  7
Style-Arial
 72
     1
 11
17.781104
 21
-5.47149
 31
0.0
100
AcDbText
  0
TEXT
  5
2A5
330
42B
100
AcDbEntity
  8
BORDER
  6
Continuous
 62
     7
370
    13
100
AcDbText
 10
17.716767
 20
-5.231177
 30
0.0
 40
0.045
  1
3-1/4"
 41
0.833333
  7
Style-Arial
 72
     1
 11
17.784521
 21
-5.231177
 31
0.0
100
AcDbText
  0
TEXT
  5
2A8
330
42B
100
AcDbEntity
  8
BORDER
  6
Continuous
 62
     7
370
    13
100
AcDbText
 10
18.276957
 20
-5.356177
 30
0.0
 40
0.045
  1
1-1/8"
 41
0.833333
  7
Style-Arial
 72
     1
 11
18.344711
 21
-5.356177
 31
0.0
100
AcDbText
  0
TEXT
  5
2AF
330
42B
100
AcDbEntity
  8
BORDER
  6
Continuous
 62
     7
370
    13
100
AcDbText
 10
17.258167
 20
-7.418379
 30
0.0
 40
0.045
  1
8"
 50
90.0
 41
0.833333
  7
Style-Arial
 72
     1
 11
17.258167
 21
-7.395742
 31
0.0
100
AcDbText
  0
TEXT
  5
2B6
330
42B
100
AcDbEntity
  8
BORDER
  6
Continuous
 62
     7
370
    13
100
AcDbText
 10
17.023577
 20
-7.72576
 30
0.0
 40
0.045
  1
6"
 41
0.833333
  7
Style-Arial
 72
     1
 11
17.046215
 21
-7.72576
 31
0.0
100
AcDbText
  0
TEXT
  5
355
330
42B
100
AcDbEntity
  8
HATCH
  6
Continuous
 62
     7
370
    13
100
AcDbText
 10
13.191847
 20
-4.130635
 30
0.0
 40
0.045
  1
RAIL TERMINAL SECTION SHOWN HEREON IS
 41
0.833333
  7
Style-Arial
 72
     1
 11
13.771282
 21
-4.130635
 31
0.0
100
AcDbText
  0
TEXT
  5
356
330
42B
100
AcDbEntity
  8
HATCH
  6
Continuous
 62
     7
370
    13
100
AcDbText
 10
13.191416
 20
-4.211594
 30
0.0
 40
0.045
  1
SUGGESTED ONLY ANY TYPE MEETING THE
 41
0.833333
  7
Style-Arial
 72
     1
 11
13.756331
 21
-4.211594
 31
0.0
100
AcDbText
  0
TEXT
  5
357
330
42B
100
AcDbEntity
  8
HATCH
  6
Continuous
 62
     7
370
    13
100
AcDbText
 10
13.193955
 20
-4.292542
 30
0.0
 40
0.045
  1
APPROVAL OF THE ENGINEER MAY BE 
 41
0.833333
  7
Style-Arial
 72
     1
 11
13.687558
 21
-4.292542
 31
0.0
100
AcDbText
  0
TEXT
  5
358
330
42B
100
AcDbEntity
  8
HATCH
  6
Continuous
 62
     7
370
    13
100
AcDbText
 10
13.190031
 20
-4.3735
 30
0.0
 40
0.045
  1
SUBSTITUTED
 41
0.833333
  7
Style-Arial
 72
     1
 11
13.3706
 21
-4.3735
 31
0.0
100
AcDbText
  0
TEXT
  5
35C
330
42B
100
AcDbEntity
  8
HATCH
  6
Continuous
 62
     7
370
    13
100
AcDbText
 10
15.867016
 20
-5.355052
 30
0.0
 40
0.045
  1
DETAILS OF GUARD RAIL
 41
0.833333
  7
Style-Arial
 72
     1
 11
16.186352
 21
-5.355052
 31
0.0
100
AcDbText
  0
TEXT
  5
35D
330
42B
100
AcDbEntity
  8
HATCH
  6
Continuous
 62
     7
370
    13
100
AcDbText
 10
15.866668
 20
-5.417206
 30
0.0
 40
0.045
  1
SPLICE AT POST
 41
0.833333
  7
Style-Arial
 72
     1
 11
16.078706
 21
-5.417206
 31
0.0
100
AcDbText
  0
TEXT
  5
35E
330
42B
100
AcDbEntity
  8
HATCH
  6
Continuous
 62
     7
370
    13
100
AcDbText
 10
15.870086
 20
-5.486187
 30
0.0
 40
0.045
  1
LAP IN DIRECTION OF TRAFFIC
 41
0.833333
  7
Style-Arial
 72
     1
 11
16.264951
 21
-5.486187
 31
0.0
100
AcDbText
  0
TEXT
  5
371
330
42B
100
AcDbEntity
  8
HATCH
  6
Continuous
 62
     7
370
    13
100
AcDbText
 10
16.080666
 20
-4.950406
 30
0.0
 40
0.045
  1
3/4" x 2-14" SLOT
 41
0.833333
  7
Style-Arial
 72
     1
 11
16.290903
 21
-4.950406
 31
0.0
100
AcDbText
  0
TEXT
  5
372
330
42B
100
AcDbEntity
  8
HATCH
  6
Continuous
 62
     7
370
    13
100
AcDbText
 10
16.082855
 20
-5.052833
 30
0.0
 40
0.045
  1
29/32" x 1-1/8" SLOTTED HOLES
 41
0.833333
  7
Style-Arial
 72
     1
 11
16.477148
 21
-5.052833
 31
0.0
100
AcDbText
  0
TEXT
  5
376
330
42B
100
AcDbEntity
  8
BORDER
  6
Continuous
 62
     7
370
    13
100
AcDbText
 10
15.036823
 20
-5.290012
 30
0.0
 40
0.045
  1
27"
 50
90.0
 41
0.833333
  7
Style-Arial
 72
     1
 11
15.036823
 21
-5.252812
 31
0.0
100
AcDbText
  0
TEXT
  5
37A
330
42B
100
AcDbEntity
  8
BORDER
  6
Continuous
 62
     7
370
    13
100
AcDbText
 10
14.856524
 20
-5.414137
 30
0.0
 40
0.045
  1
14"
 50
90.0
 41
0.833333
  7
Style-Arial
 72
     1
 11
14.856524
 21
-5.376937
 31
0.0
100
AcDbText
  0
TEXT
  5
381
330
42B
100
AcDbEntity
  8
BORDER
  6
Continuous
 62
     7
370
    13
100
AcDbText
 10
15.785558
 20
-4.461885
 30
0.0
 40
0.045
  1
4-1/4"
 41
0.833333
  7
Style-Arial
 72
     1
 11
15.853312
 21
-4.461885
 31
0.0
100
AcDbText
  0
TEXT
  5
38C
330
42B
100
AcDbEntity
  8
BORDER
  6
Continuous
 62
     7
370
    13
100
AcDbText
 10
15.503419
 20
-4.342534
 30
0.0
 40
0.045
  1
LAP
 41
0.833333
  7
Style-Arial
 72
     1
 11
15.551795
 21
-4.342534
 31
0.0
100
AcDbText
  0
TEXT
  5
38D
330
42B
100
AcDbEntity
  8
BORDER
  6
Continuous
 62
     7
370
    13
100
AcDbText
 10
15.473565
 20
-4.27833
 30
0.0
 40
0.045
  1
12-1/2"
 41
0.833333
  7
Style-Arial
 72
     1
 11
15.555882
 21
-4.27833
 31
0.0
100
AcDbText
  0
TEXT
  5
392
330
42B
100
AcDbEntity
  8
BORDER
  6
Continuous
 62
     7
370
    13
100
AcDbText
 10
15.18954
 20
-4.599352
 30
0.0
 40
0.045
  1
2"
 41
0.833333
  7
Style-Arial
 72
     1
 11
15.212177
 21
-4.599352
 31
0.0
100
AcDbText
  0
TEXT
  5
393
330
42B
100
AcDbEntity
  8
BORDER
  6
Continuous
 62
     7
370
    13
100
AcDbText
 10
15.83751
 20
-4.609609
 30
0.0
 40
0.045
  1
2"
 41
0.833333
  7
Style-Arial
 72
     1
 11
15.860147
 21
-4.609609
 31
0.0
100
AcDbText
  0
TEXT
  5
394
330
42B
100
AcDbEntity
  8
BORDER
  6
Continuous
 62
     7
370
    13
100
AcDbText
 10
15.135052
 20
-4.461885
 30
0.0
 40
0.045
  1
4-1/4"
 41
0.833333
  7
Style-Arial
 72
     1
 11
15.202807
 21
-4.461885
 31
0.0
100
AcDbText
  0
TEXT
  5
3A1
330
42B
100
AcDbEntity
  8
BORDER
  6
Continuous
 62
     7
370
    13
100
AcDbText
 10
14.206823
 20
-6.309469
 30
0.0
 40
0.045
  1
(TYP.)
 41
0.833333
  7
Style-Arial
 72
     1
 11
14.281551
 21
-6.309469
 31
0.0
100
AcDbText
  0
TEXT
  5
3A2
330
42B
100
AcDbEntity
  8
BORDER
  6
Continuous
 62
     7
370
    13
100
AcDbText
 10
14.166306
 20
-6.241542
 30
0.0
 40
0.045
  1
12"-6" c-c
 41
0.833333
  7
Style-Arial
 72
     1
 11
14.279278
 21
-6.241542
 31
0.0
100
AcDbText
  0
TEXT
  5
3A5
330
42B
100
AcDbEntity
  8
DIM
  6
Continuous
 62
     7
370
    13
100
AcDbText
 10
16.165605
 20
-4.143226
 30
0.0
 40
0.045
  1
SEE AASHTO "GUIDE FOR SELECTING, LOCATING
 41
0.833333
  7
Style-Arial
 72
     1
 11
16.797789
 21
-4.143226
 31
0.0
100
AcDbText
  0
TEXT
  5
3A6
330
42B
100
AcDbEntity
  8
DIM
  6
Continuous
 62
     7
370
    13
100
AcDbText
 10
16.166416
 20
-4.213143
 30
0.0
 40
0.045
  1
AND DESIGNING TRAFFIC BARRIERS"
 41
0.833333
  7
Style-Arial
 72
     1
 11
16.643226
 21
-4.213143
 31
0.0
100
AcDbText
  0
TEXT
  5
3A7
330
42B
100
AcDbEntity
  8
LEGEND
  6
Continuous
 62
     7
370
    13
100
AcDbText
 10
14.569085
 20
-6.712875
 30
0.0
 40
0.045
  1
ELEVATION
 41
0.833333
  7
Style-Arial
 72
     1
 11
14.713997
 21
-6.712875
 31
0.0
100
AcDbText
  0
TEXT
  5
3A8
330
42B
100
AcDbEntity
  8
BORDER
  6
Continuous
 62
     7
370
    13
100
AcDbText
 10
18.039837
 20
-5.894917
 30
0.0
 40
0.045
  1
MIN
 41
0.833333
  7
Style-Arial
 72
     1
 11
18.085712
 21
-5.894917
 31
0.0
100
AcDbText
  0
TEXT
  5
3A9
330
42B
100
AcDbEntity
  8
BORDER
  6
Continuous
 62
     7
370
    13
100
AcDbText
 10
18.071618
 20
-5.829594
 30
0.0
 40
0.045
  1
3"
 41
0.833333
  7
Style-Arial
 72
     1
 11
18.094255
 21
-5.829594
 31
0.0
100
AcDbText
  0
TEXT
  5
3B0
330
42B
100
AcDbEntity
  8
HATCH
  6
Continuous
 62
     7
370
    13
100
AcDbText
 10
18.503065
 20
-5.052333
 30
0.0
 40
0.045
  1
5/8" x 1-1/4" BOLTS
 41
0.833333
  7
Style-Arial
 72
     1
 11
18.737211
 21
-5.052333
 31
0.0
100
AcDbText
  0
TEXT
  5
3B1
330
42B
100
AcDbEntity
  8
HATCH
  6
Continuous
 62
     7
370
    13
100
AcDbText
 10
18.499996
 20
-5.115601
 30
0.0
 40
0.045
  1
8 REQD. PER JOINT
 41
0.833333
  7
Style-Arial
 72
     1
 11
18.74839
 21
-5.115601
 31
0.0
100
AcDbText
  0
TEXT
  5
3B4
330
42B
100
AcDbEntity
  8
HATCH
  6
Continuous
 62
     7
370
    13
100
AcDbText
 10
20.191291
 20
-5.005562
 30
0.0
 40
0.045
  1
5/8" BOLT
 41
0.833333
  7
Style-Arial
 72
     1
 11
20.312165
 21
-5.005562
 31
0.0
100
AcDbText
  0
TEXT
  5
3BE
330
42B
100
AcDbEntity
  8
DIM
  6
Continuous
 62
     7
370
    13
100
AcDbText
 10
15.811294
 20
-4.07399
 30
0.0
 40
0.045
  1
REFERENCE: FOR MORE INFORMATION ON GUARD RAILS
 41
0.833333
  7
Style-Arial
 72
     1
 11
16.549375
 21
-4.07399
 31
0.0
100
AcDbText
  0
TEXT
  5
3BF
330
42B
100
AcDbEntity
  8
HATCH
  6
Continuous
 62
     7
370
    13
100
AcDbText
 10
15.238755
 20
-7.685813
 30
0.0
 40
0.045
  1
POST TO BE GALVANIZED IN
 41
0.833333
  7
Style-Arial
 72
     1
 11
15.600565
 21
-7.685813
 31
0.0
100
AcDbText
  0
LINE
  5
411
330
42B
100
AcDbEntity
  8
BORDER
  6
Continuous
 62
     7
370
    13
100
AcDbLine
 10
15.605917
 20
-8.614833
 30
0.0
 11
15.762135
 21
-8.614833
 31
0.0
  0
LINE
  5
413
330
42B
100
AcDbEntity
  8
_0
  6
Continuous
 62
     7
370
    13
100
AcDbLine
 10
18.084312
 20
-9.281266
 30
0.0
 11
18.084312
 21
-7.881996
 31
0.0
  0
TEXT
  5
3BD
330
42B
100
AcDbEntity
  8
DEFPOINTS
  6
Continuous
 62
     7
370
    13
100
AcDbText
 10
19.969127
 20
-7.017844
 30
0.0
 40
0.09
  1
NOTES
 41
0.833333
  7
Style-Arial
 72
     1
 11
20.146909
 21
-7.017844
 31
0.0
100
AcDbText
  0
LINE
  5
414
330
42B
100
AcDbEntity
  8
DIM
  6
Continuous
 62
     7
370
    13
100
AcDbLine
 10
19.969955
 20
-7.03966
 30
0.0
 11
20.328775
 21
-7.03966
 31
0.0
  0
TEXT
  5
416
330
42B
100
AcDbEntity
  8
LEGEND
  6
Continuous
 62
     7
370
    13
100
AcDbText
 10
14.538222
 20
-10.804997
 30
0.0
 40
0.18
  1
TYPICAL WITH BEAM GUARD RAIL
 41
0.833333
  7
Style-Arial
 72
     1
 11
16.26385
 21
-10.804997
 31
0.0
100
AcDbText
  0
TEXT
  5
69
330
42B
100
AcDbEntity
  8
2-30G
  6
Continuous
 62
     7
370
    13
100
AcDbText
 10
20.006733
 20
-10.708705
 30
0.0
 40
0.135
  1
DATE
 41
0.833333
  7
Style-Arial
 72
     1
 11
20.212182
 21
-10.708705
 31
0.0
100
AcDbText
  0
TEXT
  5
68
330
42B
100
AcDbEntity
  8
2-30G
  6
Continuous
 62
     7
370
    13
100
AcDbText
 10
20.926703
 20
-10.676545
 30
0.0
 40
0.135
  1
FIGURE
 41
0.833333
  7
Style-Arial
 72
     1
 11
21.219443
 21
-10.676545
 31
0.0
100
AcDbText
  0
TEXT
  5
6A
330
42B
100
AcDbEntity
  8
2-30G
  6
Continuous
 62
     7
370
    13
100
AcDbText
 10
21.03885
 20
-10.886058
 30
0.0
 40
0.135
  1
2-30e
 41
0.833333
  7
Style-Arial
 72
     1
 11
21.236496
 21
-10.886058
 31
0.0
100
AcDbText
  0
ENDSEC
  0
SECTION
  2
OBJECTS
  0
DICTIONARY
  5
41F
330
0
100
AcDbDictionary
281
     1
  3
ACAD_COLOR
350
43E
  3
ACAD_GROUP
350
43B
  3
ACAD_LAYOUT
350
42F
  3
ACAD_MATERIAL
350
43D
  3
ACAD_MLINESTYLE
350
429
  3
ACAD_PLOTSETTINGS
350
43C
  3
ACAD_PLOTSTYLENAME
350
41E
  3
ACAD_TABLESTYLE
350
453
  3
AcadDim
350
44B
  3
MicroStation
350
443
  0
DICTIONARY
  5
41B
330
41A
100
AcDbDictionary
280
     1
281
     1
  3
ACAD_LAYERFILTERS
360
442
  3
ACAD_LAYERSTATES
360
41C
  0
DICTIONARY
  5
44F
330
42B
100
AcDbDictionary
280
     1
281
     1
  3
ACAD_SORTENTS
360
450
  0
DICTIONARY
  5
43E
102
{ACAD_REACTORS
330
41F
102
}
330
41F
100
AcDbDictionary
281
     1
  0
DICTIONARY
  5
43B
102
{ACAD_REACTORS
330
41F
102
}
330
41F
100
AcDbDictionary
281
     1
  0
DICTIONARY
  5
42F
102
{ACAD_REACTORS
330
41F
102
}
330
41F
100
AcDbDictionary
281
     1
  3
Layout1
350
433
  3
Model
350
42E
  0
DICTIONARY
  5
43D
102
{ACAD_REACTORS
330
41F
102
}
330
41F
100
AcDbDictionary
281
     1
  0
DICTIONARY
  5
429
102
{ACAD_REACTORS
330
41F
102
}
330
41F
100
AcDbDictionary
281
     1
  3
Standard
350
428
  0
DICTIONARY
  5
43C
102
{ACAD_REACTORS
330
41F
102
}
330
41F
100
AcDbDictionary
281
     1
  0
ACDBDICTIONARYWDFLT
  5
41E
102
{ACAD_REACTORS
330
41F
102
}
330
41F
100
AcDbDictionary
281
     1
  3
Normal
350
41D
100
AcDbDictionaryWithDefault
340
41D
  0
DICTIONARY
  5
453
102
{ACAD_REACTORS
330
41F
102
}
330
41F
100
AcDbDictionary
281
     1
  0
XRECORD
  5
44B
102
{ACAD_REACTORS
330
41F
102
}
330
41F
100
AcDbXrecord
280
     1
 90
   990106
  3
 
 60
     0
 61
     0
 62
     1
 63
     1
 64
     0
 65
     0
 66
     0
 67
     3
 68
     1
 69
     1
 70
     0
 71
     0
 72
     0
 40
0.0
170
     0
  0
DICTIONARY
  5
443
102
{ACAD_REACTORS
330
41F
102
}
330
41F
100
AcDbDictionary
281
     1
  3
ApplicationElement 1039
350
40F
  3
ApplicationElement 1047
350
417
  3
ModelApplicationElement 0 1038
350
40E
  0
DICTIONARY
  5
442
102
{ACAD_REACTORS
330
41B
102
}
330
41B
100
AcDbDictionary
281
     1
  0
DICTIONARY
  5
41C
102
{ACAD_REACTORS
330
41B
102
}
330
41B
100
AcDbDictionary
281
     1
  0
SORTENTSTABLE
  5
450
102
{ACAD_REACTORS
330
44F
102
}
330
44F
100
AcDbSortentsTable
330
42B
331
68
  5
414
331
69
  5
413
331
6A
  5
416
331
6C
  5
68
331
6D
  5
69
331
6E
  5
6A
331
6F
  5
313
331
70
  5
314
331
71
  5
315
331
72
  5
316
331
73
  5
317
331
74
  5
318
331
75
  5
319
331
76
  5
31A
331
77
  5
31B
331
78
  5
31C
331
79
  5
32D
331
7A
  5
32F
331
7B
  5
331
331
7C
  5
333
331
7D
  5
335
331
7E
  5
337
331
7F
  5
338
331
80
  5
339
331
81
  5
33A
331
82
  5
33B
331
83
  5
33C
331
84
  5
33D
331
85
  5
33E
331
86
  5
33F
331
87
  5
340
331
88
  5
341
331
89
  5
342
331
8A
  5
343
331
8B
  5
344
331
8C
  5
345
331
8D
  5
6C
331
8E
  5
6D
331
8F
  5
6E
331
90
  5
6F
331
91
  5
70
331
92
  5
71
331
93
  5
72
331
94
  5
73
331
95
  5
74
331
96
  5
75
331
97
  5
76
331
98
  5
77
331
99
  5
78
331
9A
  5
79
331
9B
  5
7A
331
9C
  5
7B
331
9D
  5
7C
331
9E
  5
7D
331
9F
  5
7E
331
A0
  5
7F
331
A1
  5
80
331
A2
  5
81
331
A3
  5
82
331
A4
  5
83
331
A5
  5
84
331
A6
  5
85
331
A7
  5
86
331
A8
  5
87
331
A9
  5
88
331
AA
  5
89
331
AB
  5
8A
331
AC
  5
8B
331
AD
  5
346
331
AE
  5
347
331
AF
  5
348
331
B0
  5
349
331
B1
  5
34A
331
B2
  5
34B
331
B3
  5
34C
331
B4
  5
34D
331
B5
  5
34E
331
B6
  5
34F
331
B7
  5
350
331
B8
  5
351
331
B9
  5
352
331
BA
  5
353
331
BB
  5
354
331
BC
  5
355
331
BD
  5
8C
331
BE
  5
8D
331
BF
  5
8E
331
C0
  5
8F
331
C1
  5
356
331
C2
  5
357
331
C3
  5
358
331
C4
  5
359
331
C5
  5
35A
331
C6
  5
35B
331
C7
  5
35C
331
C8
  5
35D
331
C9
  5
35E
331
CA
  5
35F
331
CB
  5
360
331
CC
  5
361
331
CD
  5
90
331
CE
  5
91
331
CF
  5
92
331
D0
  5
93
331
D1
  5
362
331
D2
  5
363
331
D3
  5
364
331
D4
  5
365
331
D5
  5
366
331
D6
  5
367
331
D7
  5
368
331
D8
  5
369
331
D9
  5
36A
331
DA
  5
36B
331
DB
  5
36C
331
DC
  5
36D
331
DD
  5
94
331
DE
  5
95
331
DF
  5
36E
331
E0
  5
36F
331
E1
  5
370
331
E2
  5
371
331
E3
  5
372
331
E4
  5
373
331
E5
  5
374
331
E6
  5
375
331
E7
  5
376
331
E8
  5
377
331
E9
  5
378
331
EA
  5
96
331
EB
  5
97
331
EC
  5
98
331
ED
  5
99
331
EE
  5
9A
331
EF
  5
9B
331
F0
  5
9C
331
F1
  5
9D
331
F2
  5
9E
331
F3
  5
9F
331
F4
  5
A0
331
F5
  5
A1
331
F6
  5
A2
331
F7
  5
A3
331
F8
  5
A4
331
F9
  5
A5
331
FA
  5
A6
331
FB
  5
A7
331
FC
  5
A8
331
FD
  5
A9
331
FE
  5
AA
331
FF
  5
AB
331
100
  5
AC
331
101
  5
AD
331
102
  5
AE
331
103
  5
AF
331
104
  5
B0
331
105
  5
B1
331
106
  5
B2
331
107
  5
B3
331
108
  5
B4
331
109
  5
B5
331
10A
  5
B6
331
10B
  5
B7
331
10C
  5
B8
331
10D
  5
B9
331
10E
  5
BA
331
10F
  5
BB
331
110
  5
BC
331
111
  5
BD
331
112
  5
BE
331
113
  5
BF
331
114
  5
C0
331
115
  5
C1
331
116
  5
C2
331
117
  5
C3
331
118
  5
C4
331
119
  5
C5
331
12C
  5
C6
331
12E
  5
C7
331
130
  5
C8
331
143
  5
C9
331
144
  5
CA
331
145
  5
CB
331
146
  5
CC
331
147
  5
CD
331
148
  5
CE
331
149
  5
CF
331
14A
  5
D0
331
14B
  5
D1
331
14C
  5
D2
331
14D
  5
D3
331
14E
  5
D4
331
14F
  5
D5
331
150
  5
D6
331
151
  5
D7
331
152
  5
D8
331
154
  5
D9
331
155
  5
DA
331
156
  5
DB
331
158
  5
DC
331
15A
  5
DD
331
15B
  5
DE
331
15C
  5
DF
331
15D
  5
E0
331
15E
  5
E1
331
160
  5
E2
331
162
  5
E3
331
164
  5
E4
331
166
  5
E5
331
167
  5
E6
331
168
  5
E7
331
169
  5
E8
331
16A
  5
E9
331
16B
  5
EA
331
16C
  5
EB
331
170
  5
EC
331
174
  5
ED
331
175
  5
EE
331
176
  5
EF
331
177
  5
F0
331
178
  5
F1
331
179
  5
F2
331
17A
  5
F3
331
17B
  5
F4
331
17C
  5
F5
331
17D
  5
F6
331
17E
  5
F7
331
17F
  5
F8
331
180
  5
F9
331
181
  5
FA
331
182
  5
FB
331
183
  5
FC
331
184
  5
FD
331
185
  5
FE
331
186
  5
FF
331
187
  5
100
331
188
  5
101
331
189
  5
102
331
18A
  5
103
331
18B
  5
379
331
18C
  5
104
331
18D
  5
105
331
18E
  5
106
331
18F
  5
107
331
190
  5
108
331
191
  5
37A
331
192
  5
109
331
193
  5
10A
331
194
  5
10B
331
195
  5
10C
331
196
  5
10D
331
197
  5
37B
331
198
  5
10E
331
199
  5
10F
331
19A
  5
110
331
19B
  5
111
331
19C
  5
112
331
19D
  5
37C
331
19E
  5
113
331
19F
  5
114
331
1A0
  5
115
331
1A1
  5
116
331
1A2
  5
117
331
1A3
  5
118
331
1A4
  5
37D
331
1A5
  5
37E
331
1A6
  5
119
331
1A7
  5
12C
331
1A8
  5
12E
331
1A9
  5
130
331
1AA
  5
143
331
1AB
  5
144
331
1AC
  5
145
331
1AD
  5
146
331
1AE
  5
147
331
1AF
  5
148
331
1B0
  5
149
331
1B1
  5
14A
331
1B2
  5
14B
331
1B3
  5
14C
331
1B4
  5
14D
331
1B5
  5
14E
331
1B6
  5
14F
331
1B7
  5
150
331
1B8
  5
37F
331
1B9
  5
151
331
1BA
  5
152
331
1BB
  5
154
331
1BC
  5
155
331
1BD
  5
156
331
1BE
  5
158
331
1BF
  5
15A
331
1C0
  5
15B
331
1C1
  5
15C
331
1C2
  5
15D
331
1C6
  5
15E
331
1C7
  5
160
331
1C8
  5
162
331
1C9
  5
164
331
1CA
  5
166
331
1CB
  5
167
331
1CC
  5
168
331
1CD
  5
169
331
1CE
  5
380
331
1CF
  5
381
331
1D0
  5
382
331
1D1
  5
16A
331
1D2
  5
16B
331
1D3
  5
16C
331
1D4
  5
170
331
1D5
  5
174
331
1D6
  5
175
331
1D7
  5
176
331
1D8
  5
383
331
1D9
  5
177
331
1DA
  5
178
331
1DB
  5
179
331
1DC
  5
17A
331
1DD
  5
17B
331
1DE
  5
17C
331
1DF
  5
17D
331
1E0
  5
17E
331
1E1
  5
17F
331
1E2
  5
180
331
1E3
  5
181
331
1E4
  5
384
331
1E5
  5
385
331
1E6
  5
182
331
1E7
  5
183
331
1E8
  5
184
331
1E9
  5
185
331
1EA
  5
186
331
1EB
  5
187
331
1EC
  5
386
331
1ED
  5
188
331
1EE
  5
189
331
1EF
  5
18A
331
1F0
  5
18B
331
1F1
  5
18C
331
1F2
  5
18D
331
1F3
  5
18E
331
1F4
  5
18F
331
1F5
  5
190
331
1F6
  5
191
331
1F7
  5
192
331
1F8
  5
193
331
1F9
  5
194
331
1FA
  5
195
331
1FB
  5
196
331
1FC
  5
197
331
1FD
  5
198
331
1FE
  5
199
331
20F
  5
19A
331
210
  5
19B
331
211
  5
19C
331
212
  5
19D
331
213
  5
19E
331
214
  5
19F
331
215
  5
1A0
331
216
  5
1A1
331
217
  5
1A2
331
218
  5
1A3
331
219
  5
387
331
21A
  5
388
331
21B
  5
1A4
331
21C
  5
1A5
331
21D
  5
1A6
331
21E
  5
1A7
331
21F
  5
1A8
331
220
  5
1A9
331
221
  5
1AA
331
222
  5
1AB
331
223
  5
1AC
331
224
  5
1AD
331
225
  5
389
331
226
  5
38A
331
227
  5
1AE
331
228
  5
1AF
331
229
  5
1B0
331
22A
  5
1B1
331
22B
  5
1B2
331
22C
  5
38B
331
22D
  5
1B3
331
22E
  5
1B4
331
22F
  5
1B5
331
230
  5
1B6
331
231
  5
1B7
331
232
  5
38C
331
233
  5
38D
331
234
  5
38E
331
235
  5
38F
331
236
  5
390
331
237
  5
1B8
331
238
  5
1B9
331
239
  5
1BA
331
23A
  5
1BB
331
23B
  5
1BC
331
23C
  5
1BD
331
23D
  5
1BE
331
23E
  5
1BF
331
23F
  5
1C0
331
240
  5
1C1
331
241
  5
1C2
331
242
  5
1C6
331
243
  5
1C7
331
244
  5
1C8
331
245
  5
1C9
331
246
  5
1CA
331
247
  5
1CB
331
248
  5
1CC
331
249
  5
1CD
331
24A
  5
1CE
331
24B
  5
1CF
331
24C
  5
1D0
331
24D
  5
1D1
331
24E
  5
1D2
331
24F
  5
1D3
331
250
  5
1D4
331
251
  5
1D5
331
252
  5
1D6
331
253
  5
1D7
331
254
  5
1D8
331
255
  5
1D9
331
256
  5
1DA
331
257
  5
1DB
331
258
  5
1DC
331
259
  5
1DD
331
25A
  5
391
331
25B
  5
392
331
25C
  5
393
331
25D
  5
394
331
25E
  5
1DE
331
25F
  5
1DF
331
260
  5
1E0
331
261
  5
1E1
331
262
  5
1E2
331
263
  5
1E3
331
264
  5
1E4
331
265
  5
1E5
331
266
  5
1E6
331
267
  5
1E7
331
268
  5
1E8
331
269
  5
1E9
331
26A
  5
1EA
331
26B
  5
1EB
331
26C
  5
1EC
331
26D
  5
1ED
331
26E
  5
1EE
331
26F
  5
1EF
331
270
  5
1F0
331
271
  5
1F1
331
272
  5
1F2
331
273
  5
1F3
331
274
  5
1F4
331
275
  5
1F5
331
276
  5
1F6
331
277
  5
1F7
331
278
  5
1F8
331
279
  5
1F9
331
27A
  5
1FA
331
27B
  5
1FB
331
27C
  5
1FC
331
27D
  5
1FD
331
27E
  5
1FE
331
27F
  5
20F
331
280
  5
210
331
281
  5
211
331
282
  5
212
331
283
  5
213
331
284
  5
214
331
285
  5
215
331
286
  5
216
331
287
  5
217
331
288
  5
218
331
289
  5
219
331
28A
  5
21A
331
28B
  5
21B
331
28C
  5
21C
331
28D
  5
21D
331
28E
  5
21E
331
28F
  5
395
331
290
  5
21F
331
291
  5
220
331
292
  5
221
331
293
  5
222
331
294
  5
396
331
295
  5
223
331
296
  5
224
331
297
  5
225
331
298
  5
226
331
299
  5
227
331
29A
  5
228
331
29B
  5
229
331
29C
  5
397
331
29D
  5
22A
331
29E
  5
22B
331
29F
  5
22C
331
2A0
  5
22D
331
2A1
  5
398
331
2A2
  5
22E
331
2A3
  5
22F
331
2A4
  5
230
331
2A5
  5
399
331
2A6
  5
231
331
2A7
  5
232
331
2A8
  5
39A
331
2A9
  5
233
331
2AA
  5
234
331
2AB
  5
235
331
2AC
  5
236
331
2AD
  5
237
331
2AE
  5
238
331
2AF
  5
39B
331
2B0
  5
239
331
2B1
  5
23A
331
2B2
  5
23B
331
2B3
  5
23C
331
2B4
  5
23D
331
2B5
  5
23E
331
2B6
  5
39C
331
2B7
  5
23F
331
2B8
  5
240
331
2B9
  5
241
331
2BA
  5
242
331
2BB
  5
243
331
2BC
  5
244
331
2BD
  5
245
331
2BE
  5
246
331
2BF
  5
247
331
2C0
  5
248
331
2C1
  5
249
331
2C2
  5
24A
331
2C3
  5
24B
331
2C4
  5
24C
331
2C5
  5
24D
331
2C6
  5
24E
331
2C7
  5
24F
331
2C8
  5
250
331
2C9
  5
251
331
2CA
  5
252
331
2CB
  5
253
331
2CC
  5
254
331
2CD
  5
255
331
2CE
  5
256
331
2CF
  5
257
331
2D0
  5
258
331
2E1
  5
259
331
2F2
  5
25A
331
2F3
  5
25B
331
2F4
  5
25C
331
2F5
  5
25D
331
2F6
  5
25E
331
2F7
  5
25F
331
2F8
  5
260
331
2F9
  5
261
331
2FA
  5
262
331
2FB
  5
263
331
2FC
  5
264
331
2FD
  5
265
331
2FE
  5
266
331
2FF
  5
267
331
300
  5
268
331
301
  5
269
331
302
  5
26A
331
303
  5
26B
331
304
  5
26C
331
305
  5
26D
331
306
  5
26E
331
307
  5
26F
331
308
  5
270
331
309
  5
271
331
30A
  5
272
331
30B
  5
273
331
30C
  5
274
331
30D
  5
275
331
30E
  5
276
331
30F
  5
277
331
310
  5
278
331
311
  5
279
331
312
  5
27A
331
313
  5
27B
331
314
  5
27C
331
315
  5
27D
331
316
  5
27E
331
317
  5
27F
331
318
  5
280
331
319
  5
281
331
31A
  5
282
331
31B
  5
283
331
31C
  5
284
331
32D
  5
285
331
32F
  5
286
331
331
  5
287
331
333
  5
288
331
335
  5
289
331
337
  5
28A
331
338
  5
28B
331
339
  5
28C
331
33A
  5
28D
331
33B
  5
28E
331
33C
  5
28F
331
33D
  5
290
331
33E
  5
291
331
33F
  5
292
331
340
  5
293
331
341
  5
294
331
342
  5
295
331
343
  5
296
331
344
  5
297
331
345
  5
298
331
346
  5
299
331
347
  5
29A
331
348
  5
29B
331
349
  5
29C
331
34A
  5
29D
331
34B
  5
29E
331
34C
  5
29F
331
34D
  5
2A0
331
34E
  5
2A1
331
34F
  5
2A2
331
350
  5
2A3
331
351
  5
2A4
331
352
  5
2A5
331
353
  5
2A6
331
354
  5
2A7
331
355
  5
39D
331
356
  5
39E
331
357
  5
39F
331
358
  5
3A0
331
359
  5
2A8
331
35A
  5
2A9
331
35B
  5
2AA
331
35C
  5
3A1
331
35D
  5
3A2
331
35E
  5
3A3
331
35F
  5
2AB
331
360
  5
2AC
331
361
  5
2AD
331
362
  5
2AE
331
363
  5
2AF
331
364
  5
2B0
331
365
  5
2B1
331
366
  5
2B2
331
367
  5
2B3
331
368
  5
2B4
331
369
  5
2B5
331
36A
  5
2B6
331
36B
  5
2B7
331
36C
  5
2B8
331
36D
  5
2B9
331
36E
  5
2BA
331
36F
  5
2BB
331
370
  5
2BC
331
371
  5
3A4
331
372
  5
3A5
331
373
  5
2BD
331
374
  5
2BE
331
375
  5
2BF
331
376
  5
3A6
331
377
  5
2C0
331
378
  5
2C1
331
379
  5
2C2
331
37A
  5
3A7
331
37B
  5
2C3
331
37C
  5
2C4
331
37D
  5
2C5
331
37E
  5
2C6
331
37F
  5
2C7
331
380
  5
2C8
331
381
  5
3A8
331
382
  5
2C9
331
383
  5
2CA
331
384
  5
2CB
331
385
  5
2CC
331
386
  5
2CD
331
387
  5
2CE
331
388
  5
2CF
331
389
  5
2D0
331
38A
  5
2E1
331
38B
  5
2F2
331
38C
  5
3A9
331
38D
  5
3AA
331
38E
  5
2F3
331
38F
  5
2F4
331
390
  5
2F5
331
391
  5
2F6
331
392
  5
3AB
331
393
  5
3AC
331
394
  5
3AD
331
395
  5
2F7
331
396
  5
2F8
331
397
  5
2F9
331
398
  5
2FA
331
399
  5
2FB
331
39A
  5
2FC
331
39B
  5
2FD
331
39C
  5
2FE
331
39D
  5
2FF
331
39E
  5
300
331
39F
  5
301
331
3A0
  5
302
331
3A1
  5
3AE
331
3A2
  5
3AF
331
3A3
  5
303
331
3A4
  5
304
331
3A5
  5
3B0
331
3A6
  5
3B1
331
3A7
  5
3B2
331
3A8
  5
3B3
331
3A9
  5
3B4
331
3AA
  5
305
331
3AB
  5
306
331
3AC
  5
307
331
3AD
  5
308
331
3AE
  5
309
331
3AF
  5
30A
331
3B0
  5
3B5
331
3B1
  5
3B6
331
3B2
  5
30B
331
3B3
  5
30C
331
3B4
  5
3B7
331
3B5
  5
30D
331
3B6
  5
30E
331
3B7
  5
30F
331
3B8
  5
310
331
3BB
  5
311
331
3BC
  5
312
331
3BD
  5
3BE
331
3BE
  5
3B8
331
3BF
  5
3BB
331
411
  5
3BC
331
413
  5
3BD
331
414
  5
3BF
331
416
  5
411
  0
LAYOUT
  5
433
102
{ACAD_REACTORS
330
42F
330
42F
102
}
102
{ACAD_XDICTIONARY
360
434
102
}
330
42F
100
AcDbPlotSettings
  1

  2
none_device
  4
Letter_(8.50_x_11.00_Inches)
  6

 40
6.35
 41
6.35
 42
6.350006
 43
6.350006
 44
215.899994
 45
279.399994
 46
0.0
 47
0.0
 48
0.0
 49
0.0
140
0.0
141
0.0
142
1.0
143
1.0
 70
   688
 72
     0
 73
     1
 74
     5
  7

 75
    16
 76
     0
 77
     2
 78
   300
147
1.0
148
0.0
149
0.0
100
AcDbLayout
  1
Layout1
 70
     1
 71
     1
 10
-0.25
 20
-0.25
 11
10.75
 21
8.25
 12
0.0
 22
0.0
 32
0.0
 14
1.049744
 24
0.799667
 34
-0.001526
 15
9.450623
 25
7.200577
 35
0.0
146
0.0
 13
0.0
 23
0.0
 33
0.0
 16
1.0
 26
0.0
 36
0.0
 17
0.0
 27
1.0
 37
0.0
 76
     0
330
430
1001
ACAD_PSEXT
1000
None
1000
None
1000
Not applicable
1000
The layout will not be plotted unless a new plotter configuration name is selected.
1070
     0
  0
LAYOUT
  5
42E
102
{ACAD_REACTORS
330
42F
330
42F
102
}
330
42F
100
AcDbPlotSettings
  1

  2
none_device
  4
ANSI_A_(8.50_x_11.00_Inches)
  6

 40
6.35
 41
19.049999
 42
6.350006
 43
19.049988
 44
215.899994
 45
279.399994
 46
0.0
 47
0.0
 48
0.0
 49
0.0
140
0.0
141
0.0
142
1.0
143
2.584895
 70
 11952
 72
     0
 73
     1
 74
     0
  7

 75
     0
 76
     0
 77
     2
 78
   300
147
0.386863
148
0.0
149
0.0
100
AcDbLayout
  1
Model
 70
     1
 71
     0
 10
0.0
 20
0.0
 11
12.0
 21
9.0
 12
0.0
 22
0.0
 32
0.0
 14
0.0
 24
0.0
 34
0.0
 15
0.0
 25
0.0
 35
0.0
146
0.0
 13
0.0
 23
0.0
 33
0.0
 16
1.0
 26
0.0
 36
0.0
 17
0.0
 27
1.0
 37
0.0
 76
     0
330
42B
331
49
  0
MLINESTYLE
  5
428
102
{ACAD_REACTORS
330
429
102
}
330
429
100
AcDbMlineStyle
  2
STANDARD
 70
     0
  3

 62
   256
 51
90.0
 52
90.0
 71
     2
 49
0.5
 62
   256
  6
BYLAYER
 49
-0.5
 62
   256
  6
BYLAYER
  0
ACDBPLACEHOLDER
  5
41D
102
{ACAD_REACTORS
330
41E
102
}
330
41E
  0
XRECORD
  5
40F
102
{ACAD_REACTORS
330
443
102
}
330
443
100
AcDbXrecord
280
     1
310
3E4F020000004D6F64656C6572000000000000000000000000000000000000000000000000000000000000000000000000000000000000000000000000000000000000000000000000000000000000000000000000000000000000000000000000000000000000000000000000000000000000000000000000000000000000
310
00000000000000000000000000000000000000000000000000000000000000000000000000000000000000000000000000000000000000000000000000000000000000000000000000000000000000000000000000000000000000000000000000000000000000000000000000000000000000000000000000000000000000
310
00
310
00000000000000000000000000000000000000000000000000000000000000000000000000000000000000000000000000000000000000000000000000000000000000000000000000000000000000000000000000000000000000000000000000000000000000000000000000000000000000000000000000000000000000
310
00000000000000000000000000000000000000000000000000000000000000000000000000000000000000000000000000000000000000000000000000000000000000000000000000000000000000000000000000000000000000000000000000000000000000000000000000000000000000000000000000000000000000
310
00
310
00000000000000000000000000000000000000000000000000000000000000000000000000000000000000000000000000000000000000000000000000000000000000000000000000000000000000000000000000000000000000000000000000000000000000000000000000000000000000000000000000000000000000
310
00000000000000000000000000000000000000000000000000000000000000000000000000000000000000000000000000000000000000000000000000000000000000000000000000000000000000000000000000000000000000000000000000000000000000000000000000000000000000000000000000000000000000
310
00
310
00000000000000000000000000000000000000000000000000000000000000000000000000000000000000000000000000000000000000000000000000000000000000000000000000000000000000000000000000000000000000000000000000000000000000000000000000000000000000000000000000000000000000
310
00000000000000000000000000000000000000000000000000000000000000000000000000000000000000000000000000000000000000000000000000000000000000000000000000000000000000000000000000000000000000000000000000000000000000000000000000000000000000000000000000000000000000
310
00
310
00000000000000000000000000000000000000000000000000000000000000000000000000000000000000000000000000000000000000000000000000000000000000000000000000000000000000000000000000000000000000000000000000000000000000000000000000000000000000000000000000000000000000
310
00000000000000000000000000000000000000000000000000000000000000000000000000000000000000000000000000000000000000000000000000000000000000000000000000000000000000000000000000000000000000000000000000000000000000000000000000000000000000000000000000000000000000
310
00
310
00000000000000000000000000000000000000000000000000000000000000000000000000000000000000000000000000000000000000000000000000000000000000000000000000000000000000000000000000000000000000000000000000000000000000000000000000000000000000000000000000000000000000
310
00000000000000000000000000000000000000000000000000000000000000000000000000000000000000000000000000000000000000000000000000000000000000000000000000000000000000000000000000000000000000000000000000000000000000000000000000000000000000000000000000000000000000
310
00
310
00000000000000000000000000000000000000000000000000000000000000000000000000000000000000000000000000000000000000000000000000000000000000000000000000000000000000000000000000000000000000000000000000000000000000000000000000000000000000000000000000000000000000
310
00000000000000000000000000000000000000000000000000000000000000000000000000000000000000000000000000000000000000000000000000000000000000000000000000000000000000000000000000000000000000000000000000000000000000000000000000000000000000000000000000000000000000
310
00
310
00000000000000000000000000000000000000000000000000000000000000000000000000000000000000000000000000000000000000000000000000000000000000000000000000000000000000000000000000000000000000000000000000000000000000000000000000000000000000000000000000000000000000
310
00000000000000000000000000000000000000000000000000000000000000000000000000000000000000000000000000000000000000000000000000000000000000000000000000000000000000000000000000000000000000000000000000000000000000000000000000000000000000000000000000000000000000
310
00
310
00000000000000000000000000000000000000000000000000000000000000000000000000000000000000000000000000000000000000000000000000000000000000000000000000000000000000000000000000000000000000000000000000000000000000000000000000000000000000000000000000000000000000
310
00000000000000000000000000000000000000000000000000000000000000000000000000000000000000000000000000000000000000000000000000000000000000000000000000000000000000000000000000000000000000000000000000000000000000000000000000000000000000000000000000000000000000
310
00
310
00000000000000000000000000000000000000000000000000000000000000000000000000000000000000000000000000000000000000000000000000000000000000000000000000000000000000000000000000000000000000000000000000000000000000000000000000000000000000000000000000000000000000
310
00000000000000000000000000000000000000000000000000000000000000000000000000000000000000000000000000000000000000000000000000000000000000000000000000000000000000000000000000000000000000000000000000000000000000000000000000000000000000000000000000000000000000
310
00
310
00000000000000000000000000000000000000000000000000000000000000000000000000000000000000000000000000000000000000000000000000000000000000000000000000000000000000000000000000000000000000000000000000000000000000000000000000000000000000000000000000000000000000
310
00000000000000000000000000000000000000000000000000000000000000000000000000000000000000000000000000000000000000000000000000000000000000000000000000000000000000000000000000000000000000000000000000000000000000000000000000000000000000000000000000000000000000
310
00
310
00000000000000000000000000000000000000000000000000000000000000000000000000000000000000000000000000000000000000000000000000000000000000000000000000000000000000000000000000000000000000000000000000000000000000000000000000000000000000000000000000000000000000
310
00000000000000000000000000000000000000000000000000000000000000000000000000000000000000000000000000000000000000000000000000000000000000000000000000000000000000000000000000000000000000000000000000000000000000000000000000000000000000000000000000000000000000
310
00
310
00000000000000000000000000000000000000000000000000000000000000000000000000000000000000000000000000000000000000000000000000000000000000000000000000000000000000000000000000000000000000000000000000000000000000000000000000000000000000000000000000000000000000
310
00000000000000000000000000000000000000000000000000000000000000000000000000000000000000000000000000000000000000000000000000000000000000000000000000000000000000000000000000000000000000000000000000000000000000000000000000000000000000000000000000000000000000
310
00
310
00000000000000000000000000000000000000000000000000000000000000000000000000000000000000000000000000000000000000000000000000000000000000000000000000000000000000000000000000000000000000000000000000000000000000000000000000000000000000
  0
XRECORD
  5
417
102
{ACAD_REACTORS
330
443
102
}
330
443
100
AcDbXrecord
280
     1
310
3E4F020000004D6F64656C6572000000000000000000000000000000000000000000000000000000000000000000000000000000000000000000000000000000000000000000000000000000000000000000000000000000000000000000000000000000000000000000000000000000000000000000000000000000000000
310
00000000000000000000000000000000000000000000000000000000000000000000000000000000000000000000000000000000000000000000000000000000000000000000000000000000000000000000000000000000000000000000000000000000000000000000000000000000000000000000000000000000000000
310
00
310
00000000000000000000000000000000000000000000000000000000000000000000000000000000000000000000000000000000000000000000000000000000000000000000000000000000000000000000000000000000000000000000000000000000000000000000000000000000000000000000000000000000000000
310
00000000000000000000000000000000000000000000000000000000000000000000000000000000000000000000000000000000000000000000000000000000000000000000000000000000000000000000000000000000000000000000000000000000000000000000000000000000000000000000000000000000000000
310
00
310
00000000000000000000000000000000000000000000000000000000000000000000000000000000000000000000000000000000000000000000000000000000000000000000000000000000000000000000000000000000000000000000000000000000000000000000000000000000000000000000000000000000000000
310
00000000000000000000000000000000000000000000000000000000000000000000000000000000000000000000000000000000000000000000000000000000000000000000000000000000000000000000000000000000000000000000000000000000000000000000000000000000000000000000000000000000000000
310
00
310
00000000000000000000000000000000000000000000000000000000000000000000000000000000000000000000000000000000000000000000000000000000000000000000000000000000000000000000000000000000000000000000000000000000000000000000000000000000000000000000000000000000000000
310
00000000000000000000000000000000000000000000000000000000000000000000000000000000000000000000000000000000000000000000000000000000000000000000000000000000000000000000000000000000000000000000000000000000000000000000000000000000000000000000000000000000000000
310
00
310
00000000000000000000000000000000000000000000000000000000000000000000000000000000000000000000000000000000000000000000000000000000000000000000000000000000000000000000000000000000000000000000000000000000000000000000000000000000000000000000000000000000000000
310
00000000000000000000000000000000000000000000000000000000000000000000000000000000000000000000000000000000000000000000000000000000000000000000000000000000000000000000000000000000000000000000000000000000000000000000000000000000000000000000000000000000000000
310
00
310
00000000000000000000000000000000000000000000000000000000000000000000000000000000000000000000000000000000000000000000000000000000000000000000000000000000000000000000000000000000000000000000000000000000000000000000000000000000000000000000000000000000000000
310
00000000000000000000000000000000000000000000000000000000000000000000000000000000000000000000000000000000000000000000000000000000000000000000000000000000000000000000000000000000000000000000000000000000000000000000000000000000000000000000000000000000000000
310
00
310
00000000000000000000000000000000000000000000000000000000000000000000000000000000000000000000000000000000000000000000000000000000000000000000000000000000000000000000000000000000000000000000000000000000000000000000000000000000000000000000000000000000000000
310
00000000000000000000000000000000000000000000000000000000000000000000000000000000000000000000000000000000000000000000000000000000000000000000000000000000000000000000000000000000000000000000000000000000000000000000000000000000000000000000000000000000000000
310
00
310
00000000000000000000000000000000000000000000000000000000000000000000000000000000000000000000000000000000000000000000000000000000000000000000000000000000000000000000000000000000000000000000000000000000000000000000000000000000000000000000000000000000000000
310
00000000000000000000000000000000000000000000000000000000000000000000000000000000000000000000000000000000000000000000000000000000000000000000000000000000000000000000000000000000000000000000000000000000000000000000000000000000000000000000000000000000000000
310
00
310
00000000000000000000000000000000000000000000000000000000000000000000000000000000000000000000000000000000000000000000000000000000000000000000000000000000000000000000000000000000000000000000000000000000000000000000000000000000000000000000000000000000000000
310
00000000000000000000000000000000000000000000000000000000000000000000000000000000000000000000000000000000000000000000000000000000000000000000000000000000000000000000000000000000000000000000000000000000000000000000000000000000000000000000000000000000000000
310
00
310
00000000000000000000000000000000000000000000000000000000000000000000000000000000000000000000000000000000000000000000000000000000000000000000000000000000000000000000000000000000000000000000000000000000000000000000000000000000000000000000000000000000000000
310
00000000000000000000000000000000000000000000000000000000000000000000000000000000000000000000000000000000000000000000000000000000000000000000000000000000000000000000000000000000000000000000000000000000000000000000000000000000000000000000000000000000000000
310
00
310
00000000000000000000000000000000000000000000000000000000000000000000000000000000000000000000000000000000000000000000000000000000000000000000000000000000000000000000000000000000000000000000000000000000000000000000000000000000000000000000000000000000000000
310
00000000000000000000000000000000000000000000000000000000000000000000000000000000000000000000000000000000000000000000000000000000000000000000000000000000000000000000000000000000000000000000000000000000000000000000000000000000000000000000000000000000000000
310
00
310
00000000000000000000000000000000000000000000000000000000000000000000000000000000000000000000000000000000000000000000000000000000000000000000000000000000000000000000000000000000000000000000000000000000000000000000000000000000000000000000000000000000000000
310
00000000000000000000000000000000000000000000000000000000000000000000000000000000000000000000000000000000000000000000000000000000000000000000000000000000000000000000000000000000000000000000000000000000000000000000000000000000000000000000000000000000000000
310
00
310
00000000000000000000000000000000000000000000000000000000000000000000000000000000000000000000000000000000000000000000000000000000000000000000000000000000000000000000000000000000000000000000000000000000000000000000000000000000000000000000000000000000000000
310
00000000000000000000000000000000000000000000000000000000000000000000000000000000000000000000000000000000000000000000000000000000000000000000000000000000000000000000000000000000000000000000000000000000000000000000000000000000000000000000000000000000000000
310
00
310
00000000000000000000000000000000000000000000000000000000000000000000000000000000000000000000000000000000000000000000000000000000000000000000000000000000000000000000000000000000000000000000000000000000000000000000000000000000000000
  0
XRECORD
  5
40E
102
{ACAD_REACTORS
330
443
102
}
330
443
100
AcDbXrecord
280
     1
310
DF56060034040701D0009A9999999999B93F000000000000000000000000000000000400000009000000000000000200000064000000640000000100000001000000190000007B14AE47E17A843F00000000004060409A9999999999B93F00000000004C2D41000000000070F7400000000000942141000000000000000000
310
0000000000000000000000000000000AD482040000000000000000000000000000F03F000000000000000000000000000030402D431CEBE2362A3F00000000000008400000000000000000009807C000000000000000007C1A61B9A711364020000000050000000A000000200000002000000020000000000000000000F03F
310
00
310
0000000000F03F000000000000F03F333333333333D33F333333333333D33F333333333333D33F000000000000F43F000000000000F43F000000000000F03F0200000064000000000000000000000000000840000000000000F83F00000000000000000000000000000000008056409A9999999999B93F0000000000000000
310
00000000000000000000000000000000000000000000000000000000000000000000000000000000000000000000000000000000000000000000000000000000000000000000000000000000000000000000000000000000000000000000000000000000000000000000000000000000000000000000000000000000000000
310
00
310
0000000000000000000000000000000000000000000000000000000000000000000000000000000000000000000000000000000000000000000000000000000000000000000000000000000000000000000000000000000000000000000000000000000000000000000000000000000000000000000000009A9999999999A9
310
3F9100000000000000000000000000000035A781D547960F40000000000000F03F000000000000F03F666666666666164000000000104068F200000000000000000000000000000000000000000000000000000000000000000000000000000000000000000000000000000000000000000000000000000000000000000000
310
00
310
00000000000000000000000000000000000000000000000000000000000000000000000000000000000000000000000000000000000000000000000000000000000000000000000000000000000000000000000000000000000000000000000000000000000000000000000000000000000000000000000000000000000000
310
000000000000000000000000000000000000000000000000000000000000000000000000000000000000000000000000000000000000000000000000FF000000000000000000000000000000000000000000000000000000000000000000000000000000000000000000000000000000000000000000000000000000000000
310
00
310
0000000000000000000000000000000000000000000000000000000000000000000000000000000000000000000000000000000000000000000000000000000000000000
  0
DICTIONARY
  5
434
330
433
100
AcDbDictionary
280
     1
281
     1
  3
ADSK_XREC_LAYOUTTHUMBNAIL
360
435
  0
XRECORD
  5
435
102
{ACAD_REACTORS
330
434
102
}
330
434
100
AcDbXrecord
280
     1
310
28000000B40000008B0000000100080000000000BC61000000000000000000000001000000000000FFFFFF0000000000FFFFFF000000000000000000000000000000000000000000000000000000000000000000330000006600000099000000CC000000FF00000000330000333300006633000099330000CC330000FF3300
310
0000660000336600006666000099660000CC660000FF66000000990000339900006699000099990000CC990000FF99000000CC000033CC000066CC000099CC0000CCCC0000FFCC000000FF000033FF000066FF000099FF0000CCFF0000FFFF000000003300330033006600330099003300CC003300FF003300003333003333
310
33006633330099333300CC333300FF33330000663300336633006666330099663300CC663300FF66330000993300339933006699330099993300CC993300FF99330000CC330033CC330066CC330099CC3300CCCC3300FFCC330000FF330033FF330066FF330099FF3300CCFF3300FFFF330000006600330066006600660099
310
006600CC006600FF00660000336600333366006633660099336600CC336600FF33660000666600336666006666660099666600CC666600FF66660000996600339966006699660099996600CC996600FF99660000CC660033CC660066CC660099CC6600CCCC6600FFCC660000FF660033FF660066FF660099FF6600CCFF6600
310
FFFF660000009900330099006600990099009900CC009900FF00990000339900333399006633990099339900CC339900FF33990000669900336699006666990099669900CC669900FF66990000999900339999006699990099999900CC999900FF99990000CC990033CC990066CC990099CC9900CCCC9900FFCC990000FF99
310
0033FF990066FF990099FF9900CCFF9900FFFF99000000CC003300CC006600CC009900CC00CC00CC00FF00CC000033CC003333CC006633CC009933CC00CC33CC00FF33CC000066CC003366CC006666CC009966CC00CC66CC00FF66CC000099CC003399CC006699CC009999CC00CC99CC00FF99CC0000CCCC0033CCCC0066CC
310
CC0099CCCC00CCCCCC00FFCCCC0000FFCC0033FFCC0066FFCC0099FFCC00CCFFCC00FFFFCC000000FF003300FF006600FF009900FF00CC00FF00FF00FF000033FF003333FF006633FF009933FF00CC33FF00FF33FF000066FF003366FF006666FF009966FF00CC66FF00FF66FF000099FF003399FF006699FF009999FF00CC
310
99FF00FF99FF0000CCFF0033CCFF0066CCFF0099CCFF00CCCCFF00FFCCFF0000FFFF0033FFFF0066FFFF0099FFFF00CCFFFF00FFFFFF00000000000D0D0D001A1A1A00282828003535350043434300505050005D5D5D006B6B6B00787878008686860093939300A1A1A100AEAEAE00BBBBBB00C9C9C900D6D6D600E4E4E400
310
F1F1F100FFFFFF0000000000000000000000000000000000000000000000000000000000000000000000000000000000E2E2E2E2E2E2E2E2E2E2E2E2E2E2E2E2E2E2E2E2E2E2E2E2E2E2E2E2E2E2E2E2E2E2E2E2E2E2E2E2E2E2E2E2E2E2E2E2E2E2E2E2E2E2E2E2E2E2E2E2E2E2E2E2E2E2E2E2E2E2E2E2E2E2E2E2E2E2E2
310
E2E2E2E2E2E2E2E2E2E2E2E2E2E2E2E2E2E2E2E2E2E2E2E2E2E2E2E2E2E2E2E2E2E2E2E2E2E2E2E2E2E2E2E2E2E2E2E2E2E2E2E2E2E2E2E2E2E2E2E2E2E2E2E2E2E2E2E2E2E2E2E2E2E2E2E2E2E2E2E2E2E2E2E2E2E2E2E2E2E2E2E2E2E2E2E2E2E2E2E2EFF5F5F5F5F5F5F5F5F5F5F5F5F5F5F5F5F5F5F5F5F5F5F5F5F5F5
310
F5F5F5F5F5F5F5F5F5F5F5F5F5F5F5F5F5F5F5F5F5F5F5F5F5F5F5F5F5F5F5F5F5F5F5F5F5F5F5F5F5F5F5F5F5F5F5F5F5F5F5F5F5F5F5F5F5F5F5F5F5F5F5F5F5F5F5F5F5F5F5F5F5F5F5F5F5F5F5F5F5F5F5F5F5F5F5F5F5F5F5F5F5F5F5F5F5F5F5F5F5F5F5F5F5F5F5F5F5F5F5F5F5F5F5F5F5F5F5F5F5F5F5F5F5F5F5
310
F5F5F5F5F5F5F5F5F5F5F5F5F5F5F5F5F5F5F5F5F5F5F5F5E2E2EFF5F5F5F5F5F5F5F5F5F5F5F5F5F5F5F5F5F5F5F5F5F5F5F5F5F5F5F5F5F5F5F5F5F5F5F5F5F5F5F5F5F5F5F5F5F5F5F5F5F5F5F5F5F5F5F5F5F5F5F5F5F5F5F5F5F5F5F5F5F5F5F5F5F5F5F5F5F5F5F5F5F5F5F5F5F5F5F5F5F5F5F5F5F5F5F5F5F5F5F5
310
F5F5F5F5F5F5F5F5F5F5F5F5F5F5F5F5F5F5F5F5F5F5F5F5F5F5F5F5F5F5F5F5F5F5F5F5F5F5F5F5F5F5F5F5F5F5F5F5F5F5F5F5F5F5F5F5F5F5F5F5F5F5F5F5F5F5F5F5F5F5F5F5F5F5F5F5F5E2E2EFF5F5F5F5F5F5F5F5F5F5F5F5F5F5F5F5F5F5F5F5F5F5F5F5F5F5F5F5F5F5F5F5F5F5F5F5F5F5F5F5F5F5F5F5F5F5F5
310
F5F5F5F5F5F5F5F5F5F5F5F5F5F5F5F5F5F5F5F5F5F5F5F5F5F5F5F5F5F5F5F5F5F5F5F5F5F5F5F5F5F5F5F5F5F5F5F5F5F5F5F5F5F5F5F5F5F5F5F5F5F5F5F5F5F5F5F5F5F5F5F5F5F5F5F5F5F5F5F5F5F5F5F5F5F5F5F5F5F5F5F5F5F5F5F5F5F5F5F5F5F5F5F5F5F5F5F5F5F5F5F5F5F5F5F5F5F5F5F5F5F5F5F5F5F5F5
310
F5F5F5E2E2EFF5F5F5E2E2E2E2E2E2E2E2F5F5F5F5F5F5F5F5F5E2E2E2E2E2E2E2E2E2E2E2E2E2E2E2E2F5F5F5F5F5F5F5F5E2E2E2E2E2E2E2E2E2E2E2E2E2E2E2E2F5F5F5F5F5F5F5F5F5E2E2E2E2E2E2E2E2E2E2E2E2E2E2E2F5F5F5F5F5F5F5F5F5E2E2E2E2E2E2E2E2E2E2E2E2E2E2E2F5F5F5F5F5F5F5F5F5E2E2E2E2
310
E2E2E2E2E2E2E2E2E2E2E2E2F5F5F5F5F5F5F5F5E2E2E2E2E2E2E2E2E2E2E2E2E2E2E2E2F5F5F5F5F5F5F5F5F5E2E2E2E2E2E2E2E2F5F5F5E2E2EFF5F5F5E2F5F5F5F5F5F5F5F5F5F5F5F5F5F5F5F5F5F5F5F5F5F5F5F5F5F5F5F5F5F5F5F5F5F5F5F5F5F5F5F5F5F5F5F5F5F5F5F5F5F5F5F5F5F5F5F5F5F5F5F5F5F5F5F5
310
F5F5F5F5F5F5F5F5F5F5F5F5F5F5F5F5F5F5F5F5F5F5F5F5F5F5F5F5F5F5F5F5F5F5F5F5F5F5F5F5F5F5F5F5F5F5F5F5F5F5F5F5F5F5F5F5F5F5F5F5F5F5F5F5F5F5F5F5F5F5F5F5F5F5F5F5F5F5F5F5F5F5F5F5F5F5F5F5F5F5F5F5F5F5F5F5F5F5F5F5F5F5F5F5F5E2F5F5F5E2E2EFF5F5F5E2F5F5F5F5F5F5F5F5F5F5F5
310
F5F5F5F5F5F5F5F5F5F5F5F5F5F5F5F5F5F5F5F5F5F5F5F5F5F5F5F5F5F5F5F5F5F5F5F5F5F5F5F5F5F5F5F5F5F5F5F5F5F5F5F5F5F5F5F5F5F5F5F5F5F5F5F5F5F5F5F5F5F5F5F5F5F5F5F5F5F5F5F5F5F5F5F5F5F5F5F5F5F5F5F5F5F5F5F5F5F5F5F5F5F5F5F5F5F5F5F5F5F5F5F5F5F5F5F5F5F5F5F5F5F5F5F5F5F5F5
310
F5F5F5F5F5F5F5F5F5F5F5F5F5F5F5F5F5F5F5F5F5F5F5F5F5F5F5F5F5F5F5E2F5F5F5E2E2EFF5F5F5E2F5F5F5F5F5F5F5F5F5F5F5F5F5F5F5F5F5F5F5F5F5F5F5F5F5F5F5F5F5F5F5F5F5F5F5F5F5F5F5F5F5F5F5F5F5F5F5F5F5F5F5F5F5F5F5F5F5F5F5F5F5F5F5F5F5F5F5F5F5F5F5F5F5F5F5F5F5F5F5F5F5F5F5F5F5
310
F5F5F5F5F5F5F5F5F5F5F5F5F5F5F5F5F5F5F5F5F5F5F5F5F5F5F5F5F5F5F5F5F5F5F5F5F5F5F5F5F5F5F5F5F5F5F5F5F5F5F5F5F5F5F5F5F5F5F5F5F5F5F5F5F5F5F5F5F5F5F5F5F5F5F5F5F5F5F5F5F5F5F5F5E2F5F5F5E2E2EFF5F5F5E2F5F5F5F5F5F5F5F5F5F5F5F5F5F5F5F5F5F5F5F5F5F5F5F5F5F5F5F5F5F5F5F5
310
F5F5F5F5F5F5F5F5F5F5F5F5F5F5F5F5F5F5F5F5F5F5F5F5F5F5F5F5F5F5F5F5F5F5F5F5F5F5F5F5F5F5F5F5F5F5F5F5F5F5F5F5F5F5F5F5F5F5F5F5F5F5F5F5F5F5F5F5F5F5F5F5F5F5F5F5F5F5F5F5F5F5F5F5F5F5F5F5F5F5F5F5F5F5F5F5F5F5F5F5F5F5F5F5F5F5F5F5F5F5F5F5F5F5F5F5F5F5F5F5F5F5F5F5F5F5F5
310
F5F5F5F5F5F5F5F5F5F5E2F5F5F5E2E2EFF5F5F5E2F5F5F5F5F5F5F5F5F5F5F5F5F5F5F5F5F5F5F5F5F5F5F5F5F5F5F5F5F5F5F5F5F5F5F5F5F5F5F5F5F5F5F5F5F5F5F5F5F5F5F5F5F5F5F5F5F5F5F5F5F5F5F5F5F5F5F5F5F5F5F5F5F5F5F5F5F5F5F5F5F5F5F5F5F5F5F5F5F5F5F5F5F5F5F5F5F5F5F5F5F5F5F5F5F5F5
310
F5F5F5F5F5F5F5F5F5F5F5F5F5F5F5F5F5F5F5F5F5F5F5F5F5F5F5F5F5F5F5F5F5F5F5F5F5F5F5F5F5F5F5F5F5F5F5F5F5F5F5F5F5F5F5F5F5F5F5F5F5F5F5E2F5F5F5E2E2EFF5F5F5E2F5F5F5F5F5F5F5F5F5F5F5F5F5F5F5F5F5F5F5F5F5F5F5F5F5F5F5F5F5F5F5F5F5F5F5F5F5F5F5F5F5F5F5F5F5F5F5F5F5F5F5F5F5
310
F5F5F5F5F5F5F5F5F5F5F5F5F5F5F5F5F5F5F5F5F5F5F5F5F5F5F5F5F5F5F5F5F5F5F5F5F5F5F5F5F5F5F5F5F5F5F5F5F5F5F5F5F5F5F5F5F5F5F5F5F5F5F5F5F5F5F5F5F5F5F5F5F5F5F5F5F5F5F5F5F5F5F5F5F5F5F5F5F5F5F5F5F5F5F5F5F5F5F5F5F5F5F5F5F5F5F5F5F5F5F5F5F5F5F5F5E2F5F5F5E2E2EFF5F5F5E2
310
F5F5F5F5F5F5F5F5F5F5F5F5F5F5F5F5F5F5F5F5F5F5F5F5F5F5F5F5F5F5F5F5F5F5F5F5F5F5F5F5F5F5F5F5F5F5F5F5F5F5F5F5F5F5F5F5F5F5F5F5F5F5F5F5F5F5F5F5F5F5F5F5F5F5F5F5F5F5F5F5F5F5F5F5F5F5F5F5F5F5F5F5F5F5F5F5F5F5F5F5F5F5F5F5F5F5F5F5F5F5F5F5F5F5F5F5F5F5F5F5F5F5F5F5F5F5F5
310
F5F5F5F5F5F5F5F5F5F5F5F5F5F5F5F5F5F5F5F5F5F5F5F5F5F5F5F5F5F5F5F5F5F5F5F5F5F5F5F5F5F5E2F5F5F5E2E2EFF5F5F5E2F5F5F5F5F5F5F5F5F5F5F5F5F5F5F5F5F5F5F5F5F5F5F5F5F5F5F5F5F5F5F5F5F5F5F5F5F5F5F5F5F5F5F5F5F5F5F5F5F5F5F5F5F5F5F5F5F5F5F5F5F5F5F5F5F5F5F5F5F5F5F5F5F5F5
310
F5F5F5F5F5F5F5F5F5F5F5F5F5F5F5F5F5F5F5F5F5F5F5F5F5F5F5F5F5F5F5F5F5F5F5F5F5F5F5F5F5F5F5F5F5F5F5F5F5F5F5F5F5F5F5F5F5F5F5F5F5F5F5F5F5F5F5F5F5F5F5F5F5F5F5F5F5F5F5F5F5F5F5F5F5F5F5F5F5F5F5F5F5F5F5E2F5F5F5E2E2EFF5F5F5F5F5F5F5F5F5F5F5F5F5F5F5F5F5F5F5F5F5F5F5F5F5
310
F5F5F5F5F5F5F5F5F5F5F5F5F5F5F5F5F5F5F5F5F5F5F5F5F5F5F5F5F5F5F5F5F5F5F5F5F5F5F5F5F5F5F5F5F5F5F5F5F5F5F5F5F5F5F5F5F5F5F5F5F5F5F5F5F5F5F5F5F5F5F5F5F5F5F5F5F5F5F5F5F5F5F5F5F5F5F5F5F5F5F5F5F5F5F5F5F5F5F5F5F5F5F5F5F5F5F5F5F5F5F5F5F5F5F5F5F5F5F5F5F5F5F5F5F5F5F5
310
F5F5F5F5F5F5F5F5F5F5F5F5F5F5F5F5F5F5F5F5F5F5F5F5F5E2E2EFF5F5F5F5F5F5F5F5F5F5F5F5F5F5F5F5F5F5F5F5F5F5F5F5F5F5F5F5F5F5F5F5F5F5F5F5F5F5F5F5F5F5F5F5F5F5F5F5F5F5F5F5F5F5F5F5F5F5F5F5F5F5F5F5F5F5F5F5F5F5F5F5F5F5F5F5F5F5F5F5F5F5F5F5F5F5F5F5F5F5F5F5F5F5F5F5F5F5F5
310
F5F5F5F5F5F5F5F5F5F5F5F5F5F5F5F5F5F5F5F5F5F5F5F5F5F5F5F5F5F5F5F5F5F5F5F5F5F5F5F5F5F5F5F5F5F5F5F5F5F5F5F5F5F5F5F5F5F5F5F5F5F5F5F5F5F5F5F5F5F5F5F5F5F5F5F5F5F5E2E2EFF5F5F5F5F5F5F5F5F5F5F5F5F5F5F5F5F5F5F5F5F5F5F5F5F5F5F5F5F5F5F5F5F5F5F5F5F5F5F5F5F5F5F5F5F5F5
310
F5F5F5F5F5F5F5F5F5F5F5F5F5F5F5F5F5F5F5F5F5F5F5F5F5F5F5F5F5F5F5F5F5F5F5F5F5F5F5F5F5F5F5F5F5F5F5F5F5F5F5F5F5F5F5F5F5F5F5F5F5F5F5F5F5F5F5F5F5F5F5F5F5F5F5F5F5F5F5F5F5F5F5F5F5F5F5F5F5F5F5F5F5F5F5F5F5F5F5F5F5F5F5F5F5F5F5F5F5F5F5F5F5F5F5F5F5F5F5F5F5F5F5F5F5F5F5
310
F5F5F5F5E2E2EFF5F5F5F5F5F5F5F5F5F5F5F5F5F5F5F5F5F5F5F5F5F5F5F5F5F5F5F5F5F5F5F5F5F5F5F5F5F5F5F5F5F5F5F5F5F5F5F5F5F5F5F5F5F5F5F5F5F5F5F5F5F5F5F5F5F5F5F5F5F5F5F5F5F5F5F5F5F5F5F5F5F5F5F5F5F5F5F5F5F5F5F5F5F5F5F5F5F5F5F5F5F5F5F5F5F5F5F5F5F5F5F5F5F5F5F5F5F5F5F5
310
F5F5F5F5F5F5F5F5F5F5F5F5F5F5F5F5F5F5F5F5F5F5F5F5F5F5F5F5F5F5F5F5F5F5F5F5F5F5F5F5F5F5F5F5F5F5F5F5F5F5F5F5F5F5F5F5F5E2E2EFF5F5F5F5F5F5F5F5F5F5F5F5F5F5F5F5F5F5F5F5E2E2E2E2E2E2E2E2E2E2E2E2E2E2E2E2E2E2E2E2E2E2E2E2E2E2E2E2E2E2E2E2E2E2E2E2E2E2E2E2E2E2E2E2E2E2E2
310
E2E2E2E2E2E2E2E2E2E2E2E2E2E2E2E2E2E2E2E2E2E2E2E2E2E2E2E2E2E2E2E2E2E2E2E2E2E2E2E2E2E2E2E2E2E2E2E2E2E2E2E2E2E2E2E2E2E2E2E2E2E2E2E2E2E2E2E2E2E2E2E2E2E2E2E2E2E2E2E2E2E2E2E2E2E2E2E2E2E2F5F5F5F5F5F5F5F5F5F5F5F5F5F5F5F5F5F5F5F5E2E2EFF5F5F5F5F5F5F5F5F5F5F5F5F5F5
310
F5F5F5F5F5F5E2F5F5F5F5F5F5F5F5F5F5F5F5F5F5F5F5F5F5F5F5F5F5F5F5F5F5F5F5F5F5F5F5F5F5F5F5F5F5F5F5F5F5F5F5F5F5F5F5F5F5F5F5F5F5F5F5F5F5F5F5F5F5F5F5F5F5F5F5F5F5F5F5F5F5F5F5F5F5F5F5F5F5F5F5F5F5F5F5F5F5F5F5F5F5F5F5F5F5F5F5F5F5F5F5F5F5F5F5F5F5F5F5F5F5F5F5F5F5F5F5
310
F5F5F5F5F5F5F5F5F5F5F5F5F5F5F5E2F5F5F5F5F5F5F5F5F5F5F5F5F5F5F5F5F5F5F5F5E2E2EFF5F5F5F5F5F5F5F5F5F5F5F5F5F5F5F5F5F5F5F5E2F5F5F5F5F5F5F5F5F5F5F5F5F5F5F5F5F5F5F5F5F5F5F5F5F5F5F5F5F5F5F5F5F5F5F5F5F5F5F5F5F5F5F5F5F5F5F5F5F5F5F5F5F5F5F5F5F5F5F5F5F5F5F5F5F5F5F5
310
F5F5F5F5F5F5F5F5F5F5F5F5F5F5F5F5F5F5F5F5F5F5F5F5F5F5F5F5F5F5F5F5F5F5F5F5F5F5F5F5F5F5F5F5F5F5F5F5F5F5F5F5F5F5F5F5F5F5F5F5F5F5F5F5F5F5F5F5E2F5F5F5F5F5F5F5F5F5F5F5F5F5F5F5F5F5F5F5F5E2E2EFF5F5F5F5F5F5F5F5F5F5F5F5F5F5F5F5F5F5F5F5E2F5F5F5F5F5F5F5F5F5F5F5F5F5F5
310
F5F5F5F5F5F5F5F5F5F5F5F5F5F5F5F5F5F5F5F5F5F5F5F5F5F5F5F5F5F5F5F5F5F5F5F5F5F5F5F5F5F5F5F5F5F5F5F5F5F5F5F5F5F5F5F5F5F5F5F5F5F5F5F5F5F5F5F5F5F5F5F5F5F5F5F5F5F5F5F5F5F5F5F5F5F5F5F5F5F5F5F5F5F5F5F5F5F5F5F5F5F5F5F5F5F5F5F5F5F5F5F5F5F5F5F5F5F5F5F5F5E2F5F5F5F5F5
310
F5F5F5F5F5F5F5F5F5F5F5F5F5F5F5E2E2EFF5F5F5F5F5F5F5F5F5F5F5F5F5F5F5F5F5F5F5F5E2F5F5F5F5F5F5F5F5F5F5F5F5F5F5F5F5F5F5F5F5F5F5F5F5F5F5F5F5F5F5F5F5F5F5F5F5F5F5F5F5F5F5F5F5F5F5F5F5F5F5F5F5F5F5F5F5F5F5F5F5F5F5F5F5F5F5F5F5F5F5F5F5F5F5F5F5F5F5F5F5F5F5F5F5F5F5F5F5
310
F5F5F5F5F5F5F5F5F5F5F5F5F5F5F5F5F5F5F5F5F5F5F5F5F5F5F5F5F5F5F5F5F5F5F5F5F5F5F5F5F5F5F5F5F5F5F5E2F5F5F5F5F5F5F5F5F5F5F5F5F5F5F5F5F5F5F5F5E2E2EFF5F5F5E2F5F5F5F5F5F5F5F5F5F5F5F5F5F5F5F5E2F5F5F5F5F5F5F5F5F5F5F5F5F5F5F5F5F5F5F5F5F5F5F5F5F5F5F5F5F5F5F5F5F5F5F5
310
F5F5F5F5F5F5F5F5F5F5F5F5F5F5F5F5F5F5F5F5F5F5F5F5F5F5F5F5F5F5F5F5F5F5F5F5F5F5F5F5F5F5F5F5F5F5F5F5F5F5F5F5F5F5F5F5F5F5F5F5F5F5F5F5F5F5F5F5F5F5F5F5F5F5F5F5F5F5F5F5F5F5F5F5F5F5F5F5F5F5F5F5F5F5F5F5F5F5F5F5E2F5F5F5F5F5F5F5F5F5F5F5F5F5F5F5F5E2F5F5F5E2E2EFF5F5F5
310
E2F5F5F5F5F5F5F5F5F5F5F5F5F5F5F5F5E2F5F5F5F5F5F5F5F5F5F5F5F5F5F5F5F5F5F5F5F5F5F5F5F5F5F5F5F5F5F5F5F5F5F5F5F5F5F5F5F5F5F5F5F5F5F5F5F5F5F5F5F5F5F5F5F5F5F5F5F5F5F5F5F5F5F5F5F5F5F5F5F5F5F5F5F5F5F5F5F5F5F5F5F5F5F5F5F5F5F5F5F5F5F5F5F5F5F5F5F5F5F5F5F5F5F5F5F5F5
310
F5F5F5F5F5F5F5F5F5F5F5F5F5F5F5F5F5F5F5F5F5F5F5F5F5F5E2F5F5F5F5F5F5F5F5F5F5F5F5F5F5F5F5E2F5F5F5E2E2EFF5F5F5E2F5F5F5F5F5F5F5F5F5F5F5F5F5F5F5F5E2F5F5F5F5F5F5F5F5F5F5F5F5F5F5F5F5F5F5F5F5F5F5F5F5F5F5F5F5F5F5F5F5F5F5F5F5F5F5F5F5F5F5F5F5F5F5F5F5F5F5F5F5F5F5F5F5
310
F5F5F5F5F5F5F5F5F5F5F5F5F5F5F5F5F5F5F5F5F5F5F5F5F5F5F5F5F5F5F5F5F5F5F5F5F5F5F5F5F5F5F5F5F5F5F5F5F5F5F5F5F5F5F5F5F5F5F5F5F5F5F5F5F5F5F5F5F5F5F5F5F5F5F5F5F5F5F5E2F5F5F5F5F5F5F5F5F5F5F5F5F5F5F5F5E2F5F5F5E2E2EFF5F5F5E2F5F5F5F5F5F5F5F5F5F5F5F5F5F5F5F5E2F5F5F5
310
F5F5F5F5F5F5F5F5F5F5F5F5F5F5F5F5F5F5F5F5F5F5F5F5F5F5F5F5F5F5F5F5F5F5F5F5F5F5F5F5F5F5F5F5F5F5F5F5F5F5F5F5F5F5F5F5F5F5F5F5F5F5F5F5F5F5F5F5F5F5F5F5F5F5F5F5F5F5F5F5F5F5F5F5F5F5F5F5F5F5F5F5F5F5F5F5F5F5F5F5F5F5F5F5F5F5F5F5F5F5F5F5F5F5F5F5F5F5F5F5F5F5F5F5F5F5F5
310
F5F5F5F5F5E2F5F5F5F5F5F5F5F5F5F5F5F5F5F5F5F5E2F5F5F5E2E2EFF5F5F5E2F5F5F5F5F5F5F5F5F5F5F5F5F5F5F5F5E2F5F5F5F5F5F5F5F5F5F5F5F5F5F5F5F5F5F5F5F5F5F5F5F5F5F5F5F5F5F5F5F5F5F5F5F5F5F5F5F5F5F5F5F5F5F5F5F5F5F5F5F5F5F5F5F5F5F5F5F5F5F5F5F5F5F5F5F5F5F5F5F5F5F5F5F5F5
310
F5F5F5F5F5F5F5F5F5F5F5F5F5F5F5F5F5F5F5F5F5F5F5F5F5F5F5F5F5F5F5F5F5F5F5F5F5F5F5F5F5F5F5F5F5F5F5F5F5F5F5F5F5F5F5F5F5F5E2F5F5F5F5F5F5F5F5F5F5F5F5F5F5F5F5E2F5F5F5E2E2EFF5F5F5E2F5F5F5F5F5F5F5F5F5F5F5F5F5F5F5F5E2F5F5F5F5F5F5F5F5F5F5F5F5F5F5F5F5F5F5F5F5F5F5F5F5
310
F5F5F5F5F5F5F5F5F5F5F5F5F5F5F5F5F5F5F5F5F5F5F5F5F5F5F5F5F5F5F5F5F5F5F5F5F5F5F5F5F5F5F5F5F5F5F5F5F5F5F5F5F5F5F5F5F5F5F5F5F5F5F5F5F5F5F5F5F5F5F5F5F5F5F5F5F5F5F5F5F5F5F5F5F5F5F5F5F5F5F5F5F5F5F5F5F5F5F5F5F5F5F5F5F5F5F5F5F5F5F5E2F5F5F5F5F5F5F5F5F5F5F5F5F5F5F5
310
F5E2F5F5F5E2E2EFF5F5F5E2F5F5F5F5F5F5F5F5F5F5F5F5F5F5F5F5E2F5F5F5F5F5F5F5F5F5F5F5F5F5F5F5F5F5F5F5F5F5F5F5F5F5F5F5F5F5F5F5F5F5F5F5F5F5F5F5F5F5F5F5F5F5F5F5F5F5F5F5F5F5F5F5F5F5F5F5F5F5F5F5F5F5F5F5F5F5F5F5F5F5F5F5F5F5F5F5F5F5F5F5F5F5F5F5F5F5F5F5F5F5F5F5F5F5F5
310
F5F5F5F5F5F5F5F5F5F5F5F5F5F5F5F5F5F5F5F5F5F5F5F5F5F5F5F5F5F5F5F5F5F5F5F5F5E2F5F5F5F5F5F5F5F5F5F5F5F5F5F5F5F5E2F5F5F5E2E2EFF5F5F5E2F5F5F5F5F5F5F5F5F5F5F5F5F5F5F5F5E2F5F5F5F5F5F5F5F5F5F5F5F5F5F5F5F5F5F5F5F5F5F5F5F5F5F5F5F5F5F5F5F5F5F5F5F5F5F5F5F5F5F5F5F5F5
310
F5F5F5F5F5F5F5F5F5F5F5F5F5F5F5F5F5F5F5F5F5F5F5F5F5F5F5F5F5F5F5F5F5F5F5F5F5F5F5F5F5F5F5F5F5F5F5F5F5F5F5F5F5F5F5F5F5F5F5F5F5F5F5F5F5F5F5F5F5F5F5F5F5F5F5F5F5F5F5F5F5F5F5F5F5F5F5F5F5F5E2F5F5F5F5F5F5F5F5F5F5F5F5F5F5F5F5E2F5F5F5E2E2EFF5F5F5E2F5F5F5F5F5F5F5F5F5
310
F5F5F5F5F5F5F5E2F5F5F5F5F5F5F5F5F5F5F5F5F5F5F5F5F5F5F5F5F5F5F5F5F5F5F5F5F5F5F5F5F5F5F5F5F5F5F5F5F5F5F5F5F5F5F5F5F5F5F5F5F5F5F5F5F5F5F5F5F5F5F5F5F5F5F5F5F5F5F5F5F5F5F5F5F5F5F5F5F5F5F5F5F5F5F5F5F5F5F5F5F5F5F5F5F5F5F5F5F5F5F5F5F5F5F5F5F5F5F5F5F5F5F5F5F5F5F5
310
F5F5F5F5F5F5F5F5F5F5F5F5F5F5F5F5E2F5F5F5F5F5F5F5F5F5F5F5F5F5F5F5F5E2F5F5F5E2E2EFF5F5F5E2F5F5F5F5F5F5F5F5F5F5F5F5F5F5F5F5E2F5F5F5F5F5F5F5F5F5F5F5F5F5F5F5F5F5F5F5F5F5F5F5F5F5F5F5F5F5F5F5F5F5F5F5F5F5F5F5F5F5F5F5F5F5F5F5F5F5F5F5F5F5F5F5F5F5F5F5F5F5F5F5F5F5F5
310
F5F5F5F5F5F5F5F5F5F5F5F5F5F5F5F5F5F5F5F5F5F5F5F5F5F5F5F5F5F5F5F5F5F5F5F5F5F5F5F5F5F5F5F5F5F5F5F5F5F5F5F5F5F5F5F5F5F5F5F5F5F5F5F5F5F5F5F5F5E2F5F5F5F5F5F5F5F5F5F5F5F5F5F5F5F5E2F5F5F5E2E2EFF5F5F5E2F5F5F5F5F5F5F5F5F5F5F5F5F5F5F5F5E2F5F5F5F5F5F5F5F5F5F5F5F5F5
310
F5F5F5F5F5F5F5F5F5F5F5F5F5F5F5F5F5F5F5F5F5F5F5F5F5F5F5F5F5F5F5F5F5F5F5F5F5F5F5F5F5F5F5F5F5F5F5F5F5F5F5F5F5F5F5F5F5F5F5F5F5F5F5F5F5F5F5F5F5F5F5F5F5F5F5F5F5F5F5F5F5F5F5F5F5F5F5F5F5F5F5F5F5F5F5F5F5F5F5F5F5F5F5F5F5F5F5F5F5F5F5F5F5F5F5F5F5F5F5F5F5F5E2F5F5F5F5
310
F5F5F5F5F5F5F5F5F5F5F5F5E2F5F5F5E2E2EFF5F5F5E2F5F5F5F5F5F5F5F5F5F5F5F5F5F5F5F5E2F5F5F5F5F5F5F5F5F5F5F5F5F5F5F5F5F5F5F5F5F5F5F5F5F5F5F5F5F5F5F5F5F5F5F5F5F5F5F5F5F5F5F5F5F5F5F5F5F5F5F5F5F5F5F5F5F5F5F5F5F5F5F5F5F5F5F5F5F5F5F5F5F5F5F5F5F5F5F5F5F5F5F5F5F5F5F5
310
F5F5F5F5F5F5F5F5F5F5F5F5F5F5F5F5F5F5F5F5F5F5F5F5F5F5F5F5F5F5F5F5F5F5F5F5F5F5F5F5F5F5F5F5F5F5F5F5E2F5F5F5F5F5F5F5F5F5F5F5F5F5F5F5F5E2F5F5F5E2E2EFF5F5F5E2F5F5F5F5F5F5F5F5F5F5F5F5F5F5F5F5E2F5F5F5F5F5F5F5F5F5F5F5F5F5F5F5F5F5F5F5F5F5F5F5F5F5F5F5F5F5F5F5F5F5F5
310
F5F5F5F5F5F5F5F5F5F5F5F5F5F5F5F5F5F5F5F5F5F5F5F5F5F5F5F5F5F5F5F5F5F5F5F5F5F5F5F5F5F5F5F5F5F5F5F5F5F5F5F5F5F5F5F5F5F5F5F5F5F5F5F5F5F5F5F5F5F5F5F5F5F5F5F5F5F5F5F5F5F5F5F5F5F5F5F5F5F5F5F5F5F5F5F5F5F5F5F5F5E2F5F5F5F5F5F5F5F5F5F5F5F5F5F5F5F5E2F5F5F5E2E2EFF5F5
310
F5E2F5F5F5F5F5F5F5F5F5F5F5F5F5F5F5F5E2F5F5F5F5F5F5F5F5F5F5F5F5F5F5F5F5F5F5F5F5F5F5F5F5F5F5F5F5F5F5F5F5F5F5F5F5F5F5F5F5F5F5F5F5F5F5F5F5F5F5F5F5F5F5F5F5F5F5F5F5F5F5F5F5F5F5F5F5F5F5F5F5F5F5F5F5F5F5F5F5F5F5F5F5F5F5F5F5F5F5F5F5F5F5F5F5F5F5F5F5F5F5F5F5F5F5F5F5
310
F5F5F5F5F5F5F5F5F5F5F5F5F5F5F5F5F5F5F5F5F5F5F5F5F5F5F5E2F5F5F5F5F5F5F5F5F5F5F5F5F5F5F5F5E2F5F5F5E2E2EFF5F5F5E2F5F5F5F5F5F5F5F5F5F5F5F5F5F5F5F5E2F5F5F5F5F5F5F5F5F5F5F5F5F5F5F5F5F5F5F5F5F5F5F5F5F5F5F5F5F5F5F5F5F5F5F5F5F5F5F5F5F5F5F5F5F5F5F5F5F5F5F5F5F5F5F5
310
F5F5F5F5F5F5F5F5F5F5F5F5F5F5F5F5F5F5F5F5F5F5F5F5F5F5F5F5F5F5F5F5F5F5F5F5F5F5F5F5F5F5F5F5F5F5F5F5F5F5F5F5F5F5F5F5F5F5F5F5F5F5F5F5F5F5F5F5F5F5F5F5F5F5F5F5F5F5F5F5E2F5F5F5F5F5F5F5F5F5F5F5F5F5F5F5F5E2F5F5F5E2E2EFF5F5F5E2F5F5F5F5F5F5F5F5F5F5F5F5F5F5F5F5E2F5F5
310
F5F5F5F5F5F5F5F5F5F5F5F5F5F5F5F5F5F5F5F5F5F5F5F5F5F5F5F5F5F5F5F5F5F5F5F5F5F5F5F5F5F5F5F5F5F5F5F5F5F5F5F5F5F5F5F5F5F5F5F5F5F5F5F5F5F5F5F5F5F5F5F5F5F5F5F5F5F5F5F5F5F5F5F5F5F5F5F5F5F5F5F5F5F5F5F5F5F5F5F5F5F5F5F5F5F5F5F5F5F5F5F5F5F5F5F5F5F5F5F5F5F5F5F5F5F5F5
310
F5F5F5F5F5F5E2F5F5F5F5F5F5F5F5F5F5F5F5F5F5F5F5E2F5F5F5E2E2EFF5F5F5E2F5F5F5F5F5F5F5F5F5F5F5F5F5F5F5F5E2F5F5F5F5F5F5F5F5F5F5F5F5F5F5F5F5F5F5F5F5F5F5F5F5F5F5F5F5F5F5F5F5F5F5F5F5F5F5F5F5F5F5F5F5F5F5F5F5F5F5F5F5F5F5F5F5F5F5F5F5F5F5F5F5F5F5F5F5F5F5F5F5F5F5F5F5
310
F5F5F5F5F5F5F5F5F5F5F5F5F5F5F5F5F5F5F5F5F5F5F5F5F5F5F5F5F5F5F5F5F5F5F5F5F5F5F5F5F5F5F5F5F5F5F5F5F5F5F5F5F5F5F5F5F5F5F5E2F5F5F5F5F5F5F5F5F5F5F5F5F5F5F5F5E2F5F5F5E2E2EFF5F5F5F5F5F5F5F5F5F5F5F5F5F5F5F5F5F5F5F5E2F5F5F5F5F5F5F5F5F5F5F5F5F5F5F5F5F5F5F5F5F5F5F5
310
F5F5F5F5F5F5F5F5F5F5F5F5F5F5F5F5F5F5F5F5F5F5F5F5F5F5F5F5F5F5F5F5F5F5F5F5F5F5F5F5F5F5F5F5F5F5F5F5F5F5F5F5F5F5F5F5F5F5F5F5F5F5F5F5F5F5F5F5F5F5F5F5F5F5F5F5F5F5F5F5F5F5F5F5F5F5F5F5F5F5F5F5F5F5F5F5F5F5F5F5F5F5F5F5F5F5F5F5F5F5F5F5E2F5F5F5F5F5F5F5F5F5F5F5F5F5F5
310
F5F5F5F5F5F5E2E2EFF5F5F5F5F5F5F5F5F5F5F5F5F5F5F5F5F5F5F5F5E2F5F5F5F5F5F5F5F5F5F5F5F5F5F5F5F5F5F5F5F5F5F5F5F5F5F5F5F5F5F5F5F5F5F5F5F5F5F5F5F5F5F5F5F5F5F5F5F5F5F5F5F5F5F5F5F5F5F5F5F5F5F5F5F5F5F5F5F5F5F5F5F5F5F5F5F5F5F5F5F5F5F5F5F5F5F5F5F5F5F5F5F5F5F5F5F5F5
310
F5F5F5F5F5F5F5F5F5F5F5F5F5F5F5F5F5F5F5F5F5F5F5F5F5F5F5F5F5F5F5F5F5F5F5F5F5F5E2F5F5F5F5F5F5F5F5F5F5F5F5F5F5F5F5F5F5F5F5E2E2EFF5F5F5F5F5F5F5F5F5F5F5F5F5F5F5F5F5F5F5F5E2F5F5F5F5F5F5F5F5F5F5F5F5F5F5F5F5F5F5F5F5F5F5F5F5F5F5F5F5F5F5F5F5F5F5F5F5F5F5F5F5F5F5F5F5
310
F5F5F5F5F5F5F5F5F5F5F5F5F5F5F5F5F5F5F5F5F5F5F5F5F5F5F5F5F5F5F5F5F5F5F5F5F5F5F5F5F5F5F5F5F5F5F5F5F5F5F5F5F5F5F5F5F5F5F5F5F5F5F5F5F5F5F5F5F5F5F5F5F5F5F5F5F5F5F5F5F5F5F5F5F5F5F5F5F5F5F5E2F5F5F5F5F5F5F5F5F5F5F5F5F5F5F5F5F5F5F5F5E2E2EFF5F5F5F5F5F5F5F5F5F5F5F5
310
F5F5F5F5F5F5F5F5E2F5F5F5F5F5F5F5F5F5F5F5F5F5F5F5F5F5F5F5F5F5F5F5F5F5F5F5F5F5F5F5F5F5F5F5F5F5F5F5F5F5F5F5F5F5F5F5F5F5F5F5F5F5F5F5F5F5F5F5F5F5F5F5F5F5F5F5F5F5F5F5F5F5F5F5F5F5F5F5F5F5F5F5F5F5F5F5F5F5F5F5F5F5F5F5F5F5F5F5F5F5F5F5F5F5F5F5F5F5F5F5F5F5F5F5F5F5F5
310
F5F5F5F5F5F5F5F5F5F5F5F5F5F5F5F5F5E2F5F5F5F5F5F5F5F5F5F5F5F5F5F5F5F5F5F5F5F5E2E2EFF5F5F5F5F5F5F5F5F5F5F5F5F5F5F5F5F5F5F5F5E2F5F5F5F5F5F5F5F5F5F5F5F5F5F5F5F5F5F5F5F5F5F5F5F5F5F5F5F5F5F5F5F5F5F5F5F5F5F5F5F5F5F5F5F5F5F5F5F5F5F5F5F5F5F5F5F5F5F5F5F5F5F5F5F5F5
310
F5F5F5F5F5F5F5F5F5F5F5F5F5F5F5F5F5F5F5F5F5F5F5F5F5F5F5F5F5F5F5F5F5F5F5F5F5F5F5F5F5F5F5F5F5F5F5F5F5F5F5F5F5F5F5F5F5F5F5F5F5F5F5F5F5F5F5F5F5F5E2F5F5F5F5F5F5F5F5F5F5F5F5F5F5F5F5F5F5F5F5E2E2EFF5F5F5F5F5F5F5F5F5F5F5F5F5F5F5F5F5F5F5F5E2F5F5F5F5F5F5F5F5F5F5F5F5
310
F5F5F5F5F5F5F5F5F5F5F5F5F5F5F5F5F5F5F5F5F5F5F5F5F5F5F5F5F5F5F5F5F5F5F5F5F5F5F5F5F5F5F5F5F5F5F5F5F5F5F5F5F5F5F5F5F5F5F5F5F5F5F5F5F5F5F5F5F5F5F5F5F5F5F5F5F5F5F5F5F5F5F5F5F5F5F5F5F5F5F5F5F5F5F5F5F5F5F5F5F5F5F5F5F5F5F5F5F5F5F5F5F5F5F5F5F5F5F5F5F5F5F5E2F5F5F5
310
F5F5F5F5F5F5F5F5F5F5F5F5F5F5F5F5F5E2E2EFF5F5F5F5F5F5F5F5F5F5F5F5F5F5F5F5F5F5F5F5E2F5F5F5F5F5F5F5F5F5F5F5F5F5F5F5F5F5F5F5F5F5F5F5F5F5F5F5F5F5F5F5F5F5F5F5F5F5F5F5F5F5F5F5F5F5F5F5F5F5F5F5F5F5F5F5F5F5F5F5F5F5F5F5F5F5F5F5F5F5F5F5F5F5F5F5F5F5F5F5F5F5F5F5F5F5F5
310
F5F5F5F5F5F5F5F5F5F5F5F5F5F5F5F5F5F5F5F5F5F5F5F5F5F5F5F5F5F5F5F5F5F5F5F5F5F5F5F5F5F5F5F5F5F5F5F5F5E2F5F5F5F5F5F5F5F5F5F5F5F5F5F5F5F5F5F5F5F5E2E2EFF5F5F5F5F5F5F5F5F5F5F5F5F5F5F5F5F5F5F5F5E2F5F5F5F5F5F5F5F5F5F5F5F5F5F5F5F5F5F5F5F5F5F5F5F5F5F5F5F5F5F5F5F5F5
310
F5F5F5F5F5F5F5F5F5F5F5F5F5F5F5F5F5F5F5F5F5F5F5F5F5F5F5F5F5F5F5F5F5F5F5F5F5F5F5F5F5F5F5F5F5F5F5F5F5F5F5F5F5F5F5F5F5F5F5F5F5F5F5F5F5F5F5F5F5F5F5F5F5F5F5F5F5F5F5F5F5F5F5F5F5F5F5F5F5F5F5F5F5F5F5F5F5F5F5F5F5F5E2F5F5F5F5F5F5F5F5F5F5F5F5F5F5F5F5F5F5F5F5E2E2EFF5
310
F5F5F5F5F5F5F5F5F5F5F5F5F5F5F5F5F5F5F5E2F5F5F5F5F5F5F5F5F5F5F5F5F5F5F5F5F5F5F5F5F5F5F5F5F5F5F5F5F5F5F5F5F5F5F5F5F5F5F5F5F5F5F5F5F5F5F5F5F5F5F5F5F5F5F5F5F5F5F5F5F5F5F5F5F5F5F5F5F5F5F5F5F5F5F5F5F5F5F5F5F5F5F5F5F5F5F5F5F5F5F5F5F5F5F5F5F5F5F5F5F5F5F5F5F5F5F5
310
F5F5F5F5F5F5F5F5F5F5F5F5F5F5F5F5F5F5F5F5F5F5F5F5F5F5F5F5E2F5F5F5F5F5F5F5F5F5F5F5F5F5F5F5F5F5F5F5F5E2E2EFF5F5F5E2F5F5F5F5F5F5F5F5F5F5F5F5F5F5F5F5E2F5F5F5F5F5F5F5F5F5F5F5F5F5F5F5F5F5F5F5F5F5F5F5F5F5F5F5F5F5F5F5F5F5F5F5F5F5F5F5F5F5F5F5F5F5F5F5F5F5F5F5F5F5F5
310
F5F5F5F5F5F5F5F5F5F5F5F5F5F5F5F5F5F5F5F5F5F5F5F5F5F5F5F5F5F5F5F5F5F5F5F5F5F5F5F5F5F5F5F5F5F5F5F5F5F5F5F5F5F5F5F5F5F5F5F5F5F5F5F5F5F5F5F5F5F5F5F5F5F5F5F5F5F5F5F5F5E2F5F5F5F5F5F5F5F5F5F5F5F5F5F5F5F5E2F5F5F5E2E2EFF5F5F5E2F5F5F5F5F5F5F5F5F5F5F5F5F5F5F5F5E2F5
310
F5F5F5F5F5F5F5F5F5F5F5F5F5F5F5F5F5F5F5F5F5F5F5F5F5F5F5F5F5F5F5F5F5F5F5F5F5F5F5F5F5F5F5F5F5F5F5F5F5F5F5F5F5F5F5F5F5F5F5F5F5F5F5F5F5F5F5F5F5F5F5F5F5F5F5F5F5F5F5F5F5F5F5F5F5F5F5F5F5F5F5F5F5F5F5F5F5F5F5F5F5F5F5F5F5F5F5F5F5F5F5F5F5F5F5F5F5F5F5F5F5F5F5F5F5F5F5
310
F5F5F5F5F5F5F5E2F5F5F5F5F5F5F5F5F5F5F5F5F5F5F5F5E2F5F5F5E2E2EFF5F5F5E2F5F5F5F5F5F5F5F5F5F5F5F5F5F5F5F5E2F5F5F5F5F5F5F5F5F5F5F5F5F5F5F5F5F5F5F5F5F5F5F5F5F5F5F5F5F5F5F5F5F5F5F5F5F5F5F5F5F5F5F5F5F5F5F5F5F5F5F5F5F5F5F5F5F5F5F5F5F5F5F5F5F5F5F5F5F5F5F5F5F5F5F5
310
F5F5F5F5F5F5F5F5F5F5F5F5F5F5F5F5F5F5F5F5F5F5F5F5F5F5F5F5F5F5F5F5F5F5F5F5F5F5F5F5F5F5F5F5F5F5F5F5F5F5F5F5F5F5F5F5F5F5F5F5E2F5F5F5F5F5F5F5F5F5F5F5F5F5F5F5F5E2F5F5F5E2E2EFF5F5F5E2F5F5F5F5F5F5F5F5F5F5F5F5F5F5F5F5E2F5F5F5F5F5F5F5F5F5F5F5F5F5F5F5F5F5F5F5F5F5F5
310
F5F5F5F5F5F5F5F5F5F5F5F5F5F5F5F5F5F5F5F5F5F5F5F5F5F5F5F5F5F5F5F5F5F5F5F5F5F5F5F5F5F5F5F5F5F5F5F5F5F5F5F5F5F5F5F5F5F5F5F5F5F5F5F5F5F5F5F5F5F5F5F5F5F5F5F5F5F5F5F5F5F5F5F5F5F5F5F5F5F5F5F5F5F5F5F5F5F5F5F5F5F5F5F5F5F5F5F5F5F5F5F5F5E2F5F5F5F5F5F5F5F5F5F5F5F5F5
310
F5F5F5E2F5F5F5E2E2EFF5F5F5E2F5F5F5F5F5F5F5F5F5F5F5F5F5F5F5F5E2F5F5F5F5F5F5F5F5F5F5F5F5F5F5F5F5F5F5F5F5F5F5F5F5F5F5F5F5F5F5F5F5F5F5F5F5F5F5F5F5F5F5F5F5F5F5F5F5F5F5F5F5F5F5F5F5F5F5F5F5F5F5F5F5F5F5F5F5F5F5F5F5F5F5F5F5F5F5F5F5F5F5F5F5F5F5F5F5F5F5F5F5F5F5F5F5
310
F5F5F5F5F5F5F5F5F5F5F5F5F5F5F5F5F5F5F5F5F5F5F5F5F5F5F5F5F5F5F5F5F5F5F5F5F5F5F5E2F5F5F5F5F5F5F5F5F5F5F5F5F5F5F5F5E2F5F5F5E2E2EFF5F5F5E2F5F5F5F5F5F5F5F5F5F5F5F5F5F5F5F5E2F5F5F5F5F5F5F5F5F5F5F5F5F5F5F5F5F5F5F5F5F5F5F5F5F5F5F5F5F5F5F5F5F5F5F5F5F5F5F5F5F5F5F5
310
F5F5F5F5F5F5F5F5F5F5F5F5F5F5F5F5F5F5F5F5F5F5F5F5F5F5F5F5F5F5F5F5F5F5F5F5F5F5F5F5F5F5F5F5F5F5F5F5F5F5F5F5F5F5F5F5F5F5F5F5F5F5F5F5F5F5F5F5F5F5F5F5F5F5F5F5F5F5F5F5F5F5F5F5F5F5F5F5F5F5F5F5E2F5F5F5F5F5F5F5F5F5F5F5F5F5F5F5F5E2F5F5F5E2E2EFF5F5F5E2F5F5F5F5F5F5F5
310
F5F5F5F5F5F5F5F5F5E2F5F5F5F5F5F5F5F5F5F5F5F5F5F5F5F5F5F5F5F5F5F5F5F5F5F5F5F5F5F5F5F5F5F5F5F5F5F5F5F5F5F5F5F5F5F5F5F5F5F5F5F5F5F5F5F5F5F5F5F5F5F5F5F5F5F5F5F5F5F5F5F5F5F5F5F5F5F5F5F5F5F5F5F5F5F5F5F5F5F5F5F5F5F5F5F5F5F5F5F5F5F5F5F5F5F5F5F5F5F5F5F5F5F5F5F5F5
310
F5F5F5F5F5F5F5F5F5F5F5F5F5F5F5F5F5F5E2F5F5F5F5F5F5F5F5F5F5F5F5F5F5F5F5E2F5F5F5E2E2EFF5F5F5E2F5F5F5F5F5F5F5F5F5F5F5F5F5F5F5F5E2F5F5F5F5F5F5F5F5F5F5F5F5F5F5F5F5F5F5F5F5F5F5F5F5F5F5F5F5F5F5F5F5F5F5F5F5F5F5F5F5F5F5F5F5F5F5F5F5F5F5F5F5F5F5F5F5F5F5F5F5F5F5F5F5
310
F5F5F5F5F5F5F5F5F5F5F5F5F5F5F5F5F5F5F5F5F5F5F5F5F5F5F5F5F5F5F5F5F5F5F5F5F5F5F5F5F5F5F5F5F5F5F5F5F5F5F5F5F5F5F5F5F5F5F5F5F5F5F5F5F5F5F5F5F5F5F5E2F5F5F5F5F5F5F5F5F5F5F5F5F5F5F5F5E2F5F5F5E2E2EFF5F5F5E2F5F5F5F5F5F5F5F5F5F5F5F5F5F5F5F5E2F5F5F5F5F5F5F5F5F5F5F5
310
F5F5F5F5F5F5F5F5F5F5F5F5F5F5F5F5F5F5F5F5F5F5F5F5F5F5F5F5F5F5F5F5F5F5F5F5F5F5F5F5F5F5F5F5F5F5F5F5F5F5F5F5F5F5F5F5F5F5F5F5F5F5F5F5F5F5F5F5F5F5F5F5F5F5F5F5F5F5F5F5F5F5F5F5F5F5F5F5F5F5F5F5F5F5F5F5F5F5F5F5F5F5F5F5F5F5F5F5F5F5F5F5F5F5F5F5F5F5F5F5F5F5F5F5E2F5F5
310
F5F5F5F5F5F5F5F5F5F5F5F5F5F5E2F5F5F5E2E2EFF5F5F5E2F5F5F5F5F5F5F5F5F5F5F5F5F5F5F5F5E2F5F5F5F5F5F5F5F5F5F5F5F5F5F5F5F5F5F5F5F5F5F5F5F5F5F5F5F5F5F5F5F5F5F5F5F5F5F5F5F5F5F5F5F5F5F5F5F5F5F5F5F5F5F5F5F5F5F5F5F5F5F5F5F5F5F5F5F5F5F5F5F5F5F5F5F5F5F5F5F5F5F5F5F5F5
310
F5F5F5F5F5F5F5F5F5F5F5F5F5F5F5F5F5F5F5F5F5F5F5F5F5F5F5F5F5F5F5F5F5F5F5F5F5F5F5F5F5F5F5F5F5F5F5F5F5F5E2F5F5F5F5F5F5F5F5F5F5F5F5F5F5F5F5E2F5F5F5E2E2EFF5F5F5E2F5F5F5F5F5F5F5F5F5F5F5F5F5F5F5F5E2F5F5F5F5F5F5F5F5F5F5F5F5F5F5F5F5F5F5F5F5F5F5F5F5F5F5F5F5F5F5F5F5
310
F5F5F5F5F5F5F5F5F5F5F5F5F5F5F5F5F5F5F5F5F5F5F5F5F5F5F5F5F5F5F5F5F5F5F5F5F5F5F5F5F5F5F5F5F5F5F5F5F5F5F5F5F5F5F5F5F5F5F5F5F5F5F5F5F5F5F5F5F5F5F5F5F5F5F5F5F5F5F5F5F5F5F5F5F5F5F5F5F5F5F5F5F5F5F5F5F5F5F5F5F5F5F5E2F5F5F5F5F5F5F5F5F5F5F5F5F5F5F5F5E2F5F5F5E2E2EF
310
F5F5F5E2F5F5F5F5F5F5F5F5F5F5F5F5F5F5F5F5E2F5F5F5F5F5F5F5F5F5F5F5F5F5F5F5F5F5F5F5F5F5F5F5F5F5F5F5F5F5F5F5F5F5F5F5F5F5F5F5F5F5F5F5F5F5F5F5F5F5F5F5F5F5F5F5F5F5F5F5F5F5F5F5F5F5F5F5F5F5F5F5F5F5F5F5F5F5F5F5F5F5F5F5F5F5F5F5F5F5F5F5F5F5F5F5F5F5F5F5F5F5F5F5F5F5F5
310
F5F5F5F5F5F5F5F5F5F5F5F5F5F5F5F5F5F5F5F5F5F5F5F5F5F5F5F5F5E2F5F5F5F5F5F5F5F5F5F5F5F5F5F5F5F5E2F5F5F5E2E2EFF5F5F5E2F5F5F5F5F5F5F5F5F5F5F5F5F5F5F5F5E2F5F5F5F5F5F5F5F5F5F5F5F5F5F5F5F5F5F5F5F5F5F5F5F5F5F5F5F5F5F5F5F5F5F5F5F5F5F5F5F5F5F5F5F5F5F5F5F5F5F5F5F5F5
310
F5F5F5F5F5F5F5F5F5F5F5F5F5F5F5F5F5F5F5F5F5F5F5F5F5F5F5F5F5F5F5F5F5F5F5F5F5F5F5F5F5F5F5F5F5F5F5F5F5F5F5F5F5F5F5F5F5F5F5F5F5F5F5F5F5F5F5F5F5F5F5F5F5F5F5F5F5F5F5F5F5F5E2F5F5F5F5F5F5F5F5F5F5F5F5F5F5F5F5E2F5F5F5E2E2EFF5F5F5E2F5F5F5F5F5F5F5F5F5F5F5F5F5F5F5F5E2
310
F5F5F5F5F5F5F5F5F5F5F5F5F5F5F5F5F5F5F5F5F5F5F5F5F5F5F5F5F5F5F5F5F5F5F5F5F5F5F5F5F5F5F5F5F5F5F5F5F5F5F5F5F5F5F5F5F5F5F5F5F5F5F5F5F5F5F5F5F5F5F5F5F5F5F5F5F5F5F5F5F5F5F5F5F5F5F5F5F5F5F5F5F5F5F5F5F5F5F5F5F5F5F5F5F5F5F5F5F5F5F5F5F5F5F5F5F5F5F5F5F5F5F5F5F5F5F5
310
F5F5F5F5F5F5F5F5E2F5F5F5F5F5F5F5F5F5F5F5F5F5F5F5F5E2F5F5F5E2E2EFF5F5F5E2F5F5F5F5F5F5F5F5F5F5F5F5F5F5F5F5E2F5F5F5F5F5F5F5F5F5F5F5F5F5F5F5F5F5F5F5F5F5F5F5F5F5F5F5F5F5F5F5F5F5F5F5F5F5F5F5F5F5F5F5F5F5F5F5F5F5F5F5F5F5F5F5F5F5F5F5F5F5F5F5F5F5F5F5F5F5F5F5F5F5F5
310
F5F5F5F5F5F5F5F5F5F5F5F5F5F5F5F5F5F5F5F5F5F5F5F5F5F5F5F5F5F5F5F5F5F5F5F5F5F5F5F5F5F5F5F5F5F5F5F5F5F5F5F5F5F5F5F5F5F5F5F5F5E2F5F5F5F5F5F5F5F5F5F5F5F5F5F5F5F5E2F5F5F5E2E2EFF5F5F5E2F5F5F5F5F5F5F5F5F5F5F5F5F5F5F5F5E2F5F5F5F5F5F5F5F5F5F5F5F5F5F5F5F5F5F5F5F5F5
310
F5F5F5F5F5F5F5F5F5F5F5F5F5F5F5F5F5F5F5F5F5F5F5F5F5F5F5F5F5F5F5F5F5F5F5F5F5F5F5F5F5F5F5F5F5F5F5F5F5F5F5F5F5F5F5F5F5F5F5F5F5F5F5F5F5F5F5F5F5F5F5F5F5F5F5F5F5F5F5F5F5F5F5F5F5F5F5F5F5F5F5F5F5F5F5F5F5F5F5F5F5F5F5F5F5F5F5F5F5F5F5F5F5F5E2F5F5F5F5F5F5F5F5F5F5F5F5
310
F5F5F5F5E2F5F5F5E2E2EFF5F5F5E2F5F5F5F5F5F5F5F5F5F5F5F5F5F5F5F5E2F5F5F5F5F5F5F5F5F5F5F5F5F5F5F5F5F5F5F5F5F5F5F5F5F5F5F5F5F5F5F5F5F5F5F5F5F5F5F5F5F5F5F5F5F5F5F5F5F5F5F5F5F5F5F5F5F5F5F5F5F5F5F5F5F5F5F5F5F5F5F5F5F5F5F5F5F5F5F5F5F5F5F5F5F5F5F5F5F5F5F5F5F5F5F5
310
F5F5F5F5F5F5F5F5F5F5F5F5F5F5F5F5F5F5F5F5F5F5F5F5F5F5F5F5F5F5F5F5F5F5F5F5F5F5F5F5E2F5F5F5F5F5F5F5F5F5F5F5F5F5F5F5F5E2F5F5F5E2E2EFF5F5F5F5F5F5F5F5F5F5F5F5F5F5F5F5F5F5F5F5E2F5F5F5F5F5F5F5F5F5F5F5F5F5F5F5F5F5F5F5F5F5F5F5F5F5F5F5F5F5F5F5F5F5F5F5F5F5F5F5F5F5F5
310
F5F5F5F5F5F5F5F5F5F5F5F5F5F5F5F5F5F5F5F5F5F5F5F5F5F5F5F5F5F5F5F5F5F5F5F5F5F5F5F5F5F5F5F5F5F5F5F5F5F5F5F5F5F5F5F5F5F5F5F5F5F5F5F5F5F5F5F5F5F5F5F5F5F5F5F5F5F5F5F5F5F5F5F5F5F5F5F5F5F5F5F5F5E2F5F5F5F5F5F5F5F5F5F5F5F5F5F5F5F5F5F5F5F5E2E2EFF5F5F5F5F5F5F5F5F5F5
310
F5F5F5F5F5F5F5F5F5F5E2F5F5F5F5F5F5F5F5F5F5F5F5F5F5F5F5F5F5F5F5F5F5F5F5F5F5F5F5F5F5F5F5F5F5F5F5F5F5F5F5F5F5F5F5F5F5F5F5F5F5F5F5F5F5F5F5F5F5F5F5F5F5F5F5F5F5F5F5F5F5F5F5F5F5F5F5F5F5F5F5F5F5F5F5F5F5F5F5F5F5F5F5F5F5F5F5F5F5F5F5F5F5F5F5F5F5F5F5F5F5F5F5F5F5F5F5
310
F5F5F5F5F5F5F5F5F5F5F5F5F5F5F5F5F5F5F5E2F5F5F5F5F5F5F5F5F5F5F5F5F5F5F5F5F5F5F5F5E2E2EFF5F5F5F5F5F5F5F5F5F5F5F5F5F5F5F5F5F5F5F5E2F5F5F5F5F5F5F5F5F5F5F5F5F5F5F5F5F5F5F5F5F5F5F5F5F5F5F5F5F5F5F5F5F5F5F5F5F5F5F5F5F5F5F5F5F5F5F5F5F5F5F5F5F5F5F5F5F5F5F5F5F5F5F5
310
F5F5F5F5F5F5F5F5F5F5F5F5F5F5F5F5F5F5F5F5F5F5F5F5F5F5F5F5F5F5F5F5F5F5F5F5F5F5F5F5F5F5F5F5F5F5F5F5F5F5F5F5F5F5F5F5F5F5F5F5F5F5F5F5F5F5F5F5F5F5F5F5E2F5F5F5F5F5F5F5F5F5F5F5F5F5F5F5F5F5F5F5F5E2E2EFF5F5F5F5F5F5F5F5F5F5F5F5F5F5F5F5F5F5F5F5E2F5F5F5F5F5F5F5F5F5F5
310
F5F5F5F5F5F5F5F5F5F5F5F5F5F5F5F5F5F5F5F5F5F5F5F5F5F5F5F5F5F5F5F5F5F5F5F5F5F5F5F5F5F5F5F5F5F5F5F5F5F5F5F5F5F5F5F5F5F5F5F5F5F5F5F5F5F5F5F5F5F5F5F5F5F5F5F5F5F5F5F5F5F5F5F5F5F5F5F5F5F5F5F5F5F5F5F5F5F5F5F5F5F5F5F5F5F5F5F5F5F5F5F5F5F5F5F5F5F5F5F5F5F5F5F5F5E2F5
310
F5F5F5F5F5F5F5F5F5F5F5F5F5F5F5F5F5F5F5E2E2EFF5F5F5F5F5F5F5F5F5F5F5F5F5F5F5F5F5F5F5F5E2F5F5F5F5F5F5F5F5F5F5F5F5F5F5F5F5F5F5F5F5F5F5F5F5F5F5F5F5F5F5F5F5F5F5F5F5F5F5F5F5F5F5F5F5F5F5F5F5F5F5F5F5F5F5F5F5F5F5F5F5F5F5F5F5F5F5F5F5F5F5F5F5F5F5F5F5F5F5F5F5F5F5F5F5
310
F5F5F5F5F5F5F5F5F5F5F5F5F5F5F5F5F5F5F5F5F5F5F5F5F5F5F5F5F5F5F5F5F5F5F5F5F5F5F5F5F5F5F5F5F5F5F5F5F5F5F5E2F5F5F5F5F5F5F5F5F5F5F5F5F5F5F5F5F5F5F5F5E2E2EFF5F5F5F5F5F5F5F5F5F5F5F5F5F5F5F5F5F5F5F5E2F5F5F5F5F5F5F5F5F5F5F5F5F5F5F5F5F5F5F5F5F5F5F5F5F5F5F5F5F5F5F5
310
F5F5F5F5F5F5F5F5F5F5F5F5F5F5F5F5F5F5F5F5F5F5F5F5F5F5F5F5F5F5F5F5F5F5F5F5F5F5F5F5F5F5F5F5F5F5F5F5F5F5F5F5F5F5F5F5F5F5F5F5F5F5F5F5F5F5F5F5F5F5F5F5F5F5F5F5F5F5F5F5F5F5F5F5F5F5F5F5F5F5F5F5F5F5F5F5F5F5F5F5F5F5F5F5E2F5F5F5F5F5F5F5F5F5F5F5F5F5F5F5F5F5F5F5F5E2E2
310
EFF5F5F5F5F5F5F5F5F5F5F5F5F5F5F5F5F5F5F5F5E2F5F5F5F5F5F5F5F5F5F5F5F5F5F5F5F5F5F5F5F5F5F5F5F5F5F5F5F5F5F5F5F5F5F5F5F5F5F5F5F5F5F5F5F5F5F5F5F5F5F5F5F5F5F5F5F5F5F5F5F5F5F5F5F5F5F5F5F5F5F5F5F5F5F5F5F5F5F5F5F5F5F5F5F5F5F5F5F5F5F5F5F5F5F5F5F5F5F5F5F5F5F5F5F5F5
310
F5F5F5F5F5F5F5F5F5F5F5F5F5F5F5F5F5F5F5F5F5F5F5F5F5F5F5F5F5F5E2F5F5F5F5F5F5F5F5F5F5F5F5F5F5F5F5F5F5F5F5E2E2EFF5F5F5F5F5F5F5F5F5F5F5F5F5F5F5F5F5F5F5F5E2F5F5F5F5F5F5F5F5F5F5F5F5F5F5F5F5F5F5F5F5F5F5F5F5F5F5F5F5F5F5F5F5F5F5F5F5F5F5F5F5F5F5F5F5F5F5F5F5F5F5F5F5
310
F5F5F5F5F5F5F5F5F5F5F5F5F5F5F5F5F5F5F5F5F5F5F5F5F5F5F5F5F5F5F5F5F5F5F5F5F5F5F5F5F5F5F5F5F5F5F5F5F5F5F5F5F5F5F5F5F5F5F5F5F5F5F5F5F5F5F5F5F5F5F5F5F5F5F5F5F5F5F5F5F5F5F5E2F5F5F5F5F5F5F5F5F5F5F5F5F5F5F5F5F5F5F5F5E2E2EFF5F5F5F5F5F5F5F5F5F5F5F5F5F5F5F5F5F5F5F5
310
E2F5F5F5F5F5F5F5F5F5F5F5F5F5F5F5F5F5F5F5F5F5F5F5F5F5F5F5F5F5F5F5F5F5F5F5F5F5F5F5F5F5F5F5F5F5F5F5F5F5F5F5F5F5F5F5F5F5F5F5F5F5F5F5F5F5F5F5F5F5F5F5F5F5F5F5F5F5F5F5F5F5F5F5F5F5F5F5F5F5F5F5F5F5F5F5F5F5F5F5F5F5F5F5F5F5F5F5F5F5F5F5F5F5F5F5F5F5F5F5F5F5F5F5F5F5F5
310
F5F5F5F5F5F5F5F5F5E2F5F5F5F5F5F5F5F5F5F5F5F5F5F5F5F5F5F5F5F5E2E2EFF5F5F5E2F5F5F5F5F5F5F5F5F5F5F5F5F5F5F5F5E2F5F5F5F5F5F5F5F5F5F5F5F5F5F5F5F5F5F5F5F5F5F5F5F5F5F5F5F5F5F5F5F5F5F5F5F5F5F5F5F5F5F5F5F5F5F5F5F5F5F5F5F5F5F5F5F5F5F5F5F5F5F5F5F5F5F5F5F5F5F5F5F5F5
310
F5F5F5F5F5F5F5F5F5F5F5F5F5F5F5F5F5F5F5F5F5F5F5F5F5F5F5F5F5F5F5F5F5F5F5F5F5F5F5F5F5F5F5F5F5F5F5F5F5F5F5F5F5F5F5F5F5F5F5F5F5F5E2F5F5F5F5F5F5F5F5F5F5F5F5F5F5F5F5E2F5F5F5E2E2EFF5F5F5E2F5F5F5F5F5F5F5F5F5F5F5F5F5F5F5F5E2F5F5F5F5F5F5F5F5F5F5F5F5F5F5F5F5F5F5F5F5
310
F5F5F5F5F5F5F5F5F5F5F5F5F5F5F5F5F5F5F5F5F5F5F5F5F5F5F5F5F5F5F5F5F5F5F5F5F5F5F5F5F5F5F5F5F5F5F5F5F5F5F5F5F5F5F5F5F5F5F5F5F5F5F5F5F5F5F5F5F5F5F5F5F5F5F5F5F5F5F5F5F5F5F5F5F5F5F5F5F5F5F5F5F5F5F5F5F5F5F5F5F5F5F5F5F5F5F5F5F5F5F5F5F5F5F5E2F5F5F5F5F5F5F5F5F5F5F5
310
F5F5F5F5F5E2F5F5F5E2E2EFF5F5F5E2F5F5F5F5F5F5F5F5F5F5F5F5F5F5F5F5E2F5F5F5F5F5F5F5F5F5F5F5F5F5F5F5F5F5F5F5F5F5F5F5F5F5F5F5F5F5F5F5F5F5F5F5F5F5F5F5F5F5F5F5F5F5F5F5F5F5F5F5F5F5F5F5F5F5F5F5F5F5F5F5F5F5F5F5F5F5F5F5F5F5F5F5F5F5F5F5F5F5F5F5F5F5F5F5F5F5F5F5F5F5F5
310
F5F5F5F5F5F5F5F5F5F5F5F5F5F5F5F5F5F5F5F5F5F5F5F5F5F5F5F5F5F5F5F5F5F5F5F5F5F5F5F5F5E2F5F5F5F5F5F5F5F5F5F5F5F5F5F5F5F5E2F5F5F5E2E2EFF5F5F5E2F5F5F5F5F5F5F5F5F5F5F5F5F5F5F5F5E2F5F5F5F5F5F5F5F5F5F5F5F5F5F5F5F5F5F5F5F5F5F5F5F5F5F5F5F5F5F5F5F5F5F5F5F5F5F5F5F5F5
310
F5F5F5F5F5F5F5F5F5F5F5F5F5F5F5F5F5F5F5F5F5F5F5F5F5F5F5F5F5F5F5F5F5F5F5F5F5F5F5F5F5F5F5F5F5F5F5F5F5F5F5F5F5F5F5F5F5F5F5F5F5F5F5F5F5F5F5F5F5F5F5F5F5F5F5F5F5F5F5F5F5F5F5F5F5F5F5F5F5F5F5F5F5F5E2F5F5F5F5F5F5F5F5F5F5F5F5F5F5F5F5E2F5F5F5E2E2EFF5F5F5E2F5F5F5F5F5
310
F5F5F5F5F5F5F5F5F5F5F5E2F5F5F5F5F5F5F5F5F5F5F5F5F5F5F5F5F5F5F5F5F5F5F5F5F5F5F5F5F5F5F5F5F5F5F5F5F5F5F5F5F5F5F5F5F5F5F5F5F5F5F5F5F5F5F5F5F5F5F5F5F5F5F5F5F5F5F5F5F5F5F5F5F5F5F5F5F5F5F5F5F5F5F5F5F5F5F5F5F5F5F5F5F5F5F5F5F5F5F5F5F5F5F5F5F5F5F5F5F5F5F5F5F5F5F5
310
F5F5F5F5F5F5F5F5F5F5F5F5F5F5F5F5F5F5F5F5E2F5F5F5F5F5F5F5F5F5F5F5F5F5F5F5F5E2F5F5F5E2E2EFF5F5F5E2F5F5F5F5F5F5F5F5F5F5F5F5F5F5F5F5E2F5F5F5F5F5F5F5F5F5F5F5F5F5F5F5F5F5F5F5F5F5F5F5F5F5F5F5F5F5F5F5F5F5F5F5F5F5F5F5F5F5F5F5F5F5F5F5F5F5F5F5F5F5F5F5F5F5F5F5F5F5F5
310
F5F5F5F5F5F5F5F5F5F5F5F5F5F5F5F5F5F5F5F5F5F5F5F5F5F5F5F5F5F5F5F5F5F5F5F5F5F5F5F5F5F5F5F5F5F5F5F5F5F5F5F5F5F5F5F5F5F5F5F5F5F5F5F5F5F5F5F5F5F5F5F5F5E2F5F5F5F5F5F5F5F5F5F5F5F5F5F5F5F5E2F5F5F5E2E2EFF5F5F5E2F5F5F5F5F5F5F5F5F5F5F5F5F5F5F5F5E2F5F5F5F5F5F5F5F5F5
310
F5F5F5F5F5F5F5F5F5F5F5F5F5F5F5F5F5F5F5F5F5F5F5F5F5F5F5F5F5F5F5F5F5F5F5F5F5F5F5F5F5F5F5F5F5F5F5F5F5F5F5F5F5F5F5F5F5F5F5F5F5F5F5F5F5F5F5F5F5F5F5F5F5F5F5F5F5F5F5F5F5F5F5F5F5F5F5F5F5F5F5F5F5F5F5F5F5F5F5F5F5F5F5F5F5F5F5F5F5F5F5F5F5F5F5F5F5F5F5F5F5F5F5F5F5F5E2
310
F5F5F5F5F5F5F5F5F5F5F5F5F5F5F5F5E2F5F5F5E2E2EFF5F5F5E2F5F5F5F5F5F5F5F5F5F5F5F5F5F5F5F5E2F5F5F5F5F5F5F5F5F5F5F5F5F5F5F5F5F5F5F5F5F5F5F5F5F5F5F5F5F5F5F5F5F5F5F5F5F5F5F5F5F5F5F5F5F5F5F5F5F5F5F5F5F5F5F5F5F5F5F5F5F5F5F5F5F5F5F5F5F5F5F5F5F5F5F5F5F5F5F5F5F5F5F5
310
F5F5F5F5F5F5F5F5F5F5F5F5F5F5F5F5F5F5F5F5F5F5F5F5F5F5F5F5F5F5F5F5F5F5F5F5F5F5F5F5F5F5F5F5F5F5F5F5F5F5F5F5E2F5F5F5F5F5F5F5F5F5F5F5F5F5F5F5F5E2F5F5F5E2E2EFF5F5F5E2F5F5F5F5F5F5F5F5F5F5F5F5F5F5F5F5E2F5F5F5F5F5F5F5F5F5F5F5F5F5F5F5F5F5F5F5F5F5F5F5F5F5F5F5F5F5F5
310
F5F5F5F5F5F5F5F5F5F5F5F5F5F5F5F5F5F5F5F5F5F5F5F5F5F5F5F5F5F5F5F5F5F5F5F5F5F5F5F5F5F5F5F5F5F5F5F5F5F5F5F5F5F5F5F5F5F5F5F5F5F5F5F5F5F5F5F5F5F5F5F5F5F5F5F5F5F5F5F5F5F5F5F5F5F5F5F5F5F5F5F5F5F5F5F5F5F5F5F5F5F5F5F5F5E2F5F5F5F5F5F5F5F5F5F5F5F5F5F5F5F5E2F5F5F5E2
310
E2EFF5F5F5E2F5F5F5F5F5F5F5F5F5F5F5F5F5F5F5F5E2F5F5F5F5F5F5F5F5F5F5F5F5F5F5F5F5F5F5F5F5F5F5F5F5F5F5F5F5F5F5F5F5F5F5F5F5F5F5F5F5F5F5F5F5F5F5F5F5F5F5F5F5F5F5F5F5F5F5F5F5F5F5F5F5F5F5F5F5F5F5F5F5F5F5F5F5F5F5F5F5F5F5F5F5F5F5F5F5F5F5F5F5F5F5F5F5F5F5F5F5F5F5F5F5
310
F5F5F5F5F5F5F5F5F5F5F5F5F5F5F5F5F5F5F5F5F5F5F5F5F5F5F5F5F5F5F5E2F5F5F5F5F5F5F5F5F5F5F5F5F5F5F5F5E2F5F5F5E2E2EFF5F5F5E2F5F5F5F5F5F5F5F5F5F5F5F5F5F5F5F5E2F5F5F5F5F5F5F5F5F5F5F5F5F5F5F5F5F5F5F5F5F5F5F5F5F5F5F5F5F5F5F5F5F5F5F5F5F5F5F5F5F5F5F5F5F5F5F5F5F5F5F5
310
F5F5F5F5F5F5F5F5F5F5F5F5F5F5F5F5F5F5F5F5F5F5F5F5F5F5F5F5F5F5F5F5F5F5F5F5F5F5F5F5F5F5F5F5F5F5F5F5F5F5F5F5F5F5F5F5F5F5F5F5F5F5F5F5F5F5F5F5F5F5F5F5F5F5F5F5F5F5F5F5F5F5F5F5E2F5F5F5F5F5F5F5F5F5F5F5F5F5F5F5F5E2F5F5F5E2E2EFF5F5F5E2F5F5F5F5F5F5F5F5F5F5F5F5F5F5F5
310
F5E2F5F5F5F5F5F5F5F5F5F5F5F5F5F5F5F5F5F5F5F5F5F5F5F5F5F5F5F5F5F5F5F5F5F5F5F5F5F5F5F5F5F5F5F5F5F5F5F5F5F5F5F5F5F5F5F5F5F5F5F5F5F5F5F5F5F5F5F5F5F5F5F5F5F5F5F5F5F5F5F5F5F5F5F5F5F5F5F5F5F5F5F5F5F5F5F5F5F5F5F5F5F5F5F5F5F5F5F5F5F5F5F5F5F5F5F5F5F5F5F5F5F5F5F5F5
310
F5F5F5F5F5F5F5F5F5F5E2F5F5F5F5F5F5F5F5F5F5F5F5F5F5F5F5E2F5F5F5E2E2EFF5F5F5E2F5F5F5F5F5F5F5F5F5F5F5F5F5F5F5F5E2F5F5F5F5F5F5F5F5F5F5F5F5F5F5F5F5F5F5F5F5F5F5F5F5F5F5F5F5F5F5F5F5F5F5F5F5F5F5F5F5F5F5F5F5F5F5F5F5F5F5F5F5F5F5F5F5F5F5F5F5F5F5F5F5F5F5F5F5F5F5F5F5
310
F5F5F5F5F5F5F5F5F5F5F5F5F5F5F5F5F5F5F5F5F5F5F5F5F5F5F5F5F5F5F5F5F5F5F5F5F5F5F5F5F5F5F5F5F5F5F5F5F5F5F5F5F5F5F5F5F5F5F5F5F5F5F5E2F5F5F5F5F5F5F5F5F5F5F5F5F5F5F5F5E2F5F5F5E2E2EFF5F5F5E2F5F5F5F5F5F5F5F5F5F5F5F5F5F5F5F5E2F5F5F5F5F5F5F5F5F5F5F5F5F5F5F5F5F5F5F5
310
F5F5F5F5F5F5F5F5F5F5F5F5F5F5F5F5F5F5F5F5F5F5F5F5F5F5F5F5F5F5F5F5F5F5F5F5F5F5F5F5F5F5F5F5F5F5F5F5F5F5F5F5F5F5F5F5F5F5F5F5F5F5F5F5F5F5F5F5F5F5F5F5F5F5F5F5F5F5F5F5F5F5F5F5F5F5F5F5F5F5F5F5F5F5F5F5F5F5F5F5F5F5F5F5F5F5F5F5F5F5F5F5F5F5F5F5E2F5F5F5F5F5F5F5F5F5F5
310
F5F5F5F5F5F5E2F5F5F5E2E2EFF5F5F5E2F5F5F5F5F5F5F5F5F5F5F5F5F5F5F5F5E2F5F5F5F5F5F5F5F5F5F5F5F5F5F5F5F5F5F5F5F5F5F5F5F5F5F5F5F5F5F5F5F5F5F5F5F5F5F5F5F5F5F5F5F5F5F5F5F5F5F5F5F5F5F5F5F5F5F5F5F5F5F5F5F5F5F5F5F5F5F5F5F5F5F5F5F5F5F5F5F5F5F5F5F5F5F5F5F5F5F5F5F5F5
310
F5F5F5F5F5F5F5F5F5F5F5F5F5F5F5F5F5F5F5F5F5F5F5F5F5F5F5F5F5F5F5F5F5F5F5F5F5F5F5F5F5F5E2F5F5F5F5F5F5F5F5F5F5F5F5F5F5F5F5E2F5F5F5E2E2EFF5F5F5E2F5F5F5F5F5F5F5F5F5F5F5F5F5F5F5F5E2F5F5F5F5F5F5F5F5F5F5F5F5F5F5F5F5F5F5F5F5F5F5F5F5F5F5F5F5F5F5F5F5F5F5F5F5F5F5F5F5
310
F5F5F5F5F5F5F5F5F5F5F5F5F5F5F5F5F5F5F5F5F5F5F5F5F5F5F5F5F5F5F5F5F5F5F5F5F5F5F5F5F5F5F5F5F5F5F5F5F5F5F5F5F5F5F5F5F5F5F5F5F5F5F5F5F5F5F5F5F5F5F5F5F5F5F5F5F5F5F5F5F5F5F5F5F5F5F5F5F5F5F5F5F5F5F5E2F5F5F5F5F5F5F5F5F5F5F5F5F5F5F5F5E2F5F5F5E2E2EFF5F5F5E2F5F5F5F5
310
F5F5F5F5F5F5F5F5F5F5F5F5E2F5F5F5F5F5F5F5F5F5F5F5F5F5F5F5F5F5F5F5F5F5F5F5F5F5F5F5F5F5F5F5F5F5F5F5F5F5F5F5F5F5F5F5F5F5F5F5F5F5F5F5F5F5F5F5F5F5F5F5F5F5F5F5F5F5F5F5F5F5F5F5F5F5F5F5F5F5F5F5F5F5F5F5F5F5F5F5F5F5F5F5F5F5F5F5F5F5F5F5F5F5F5F5F5F5F5F5F5F5F5F5F5F5F5
310
F5F5F5F5F5F5F5F5F5F5F5F5F5F5F5F5F5F5F5F5F5E2F5F5F5F5F5F5F5F5F5F5F5F5F5F5F5F5E2F5F5F5E2E2EFF5F5F5F5F5F5F5F5F5F5F5F5F5F5F5F5F5F5F5F5E2F5F5F5F5F5F5F5F5F5F5F5F5F5F5F5F5F5F5F5F5F5F5F5F5F5F5F5F5F5F5F5F5F5F5F5F5F5F5F5F5F5F5F5F5F5F5F5F5F5F5F5F5F5F5F5F5F5F5F5F5F5
310
F5F5F5F5F5F5F5F5F5F5F5F5F5F5F5F5F5F5F5F5F5F5F5F5F5F5F5F5F5F5F5F5F5F5F5F5F5F5F5F5F5F5F5F5F5F5F5F5F5F5F5F5F5F5F5F5F5F5F5F5F5F5F5F5F5F5F5F5F5F5F5F5F5F5E2F5F5F5F5F5F5F5F5F5F5F5F5F5F5F5F5F5F5F5F5E2E2EFF5F5F5F5F5F5F5F5F5F5F5F5F5F5F5F5F5F5F5F5E2F5F5F5F5F5F5F5F5
310
F5F5F5F5F5F5F5F5F5F5F5F5F5F5F5F5F5F5F5F5F5F5F5F5F5F5F5F5F5F5F5F5F5F5F5F5F5F5F5F5F5F5F5F5F5F5F5F5F5F5F5F5F5F5F5F5F5F5F5F5F5F5F5F5F5F5F5F5F5F5F5F5F5F5F5F5F5F5F5F5F5F5F5F5F5F5F5F5F5F5F5F5F5F5F5F5F5F5F5F5F5F5F5F5F5F5F5F5F5F5F5F5F5F5F5F5F5F5F5F5F5F5F5F5F5F5F5
310
E2F5F5F5F5F5F5F5F5F5F5F5F5F5F5F5F5F5F5F5F5E2E2EFF5F5F5F5F5F5F5F5F5F5F5F5F5F5F5F5F5F5F5F5E2F5F5F5F5F5F5F5F5F5F5F5F5F5F5F5F5F5F5F5F5F5F5F5F5F5F5F5F5F5F5F5F5F5F5F5F5F5F5F5F5F5F5F5F5F5F5F5F5F5F5F5F5F5F5F5F5F5F5F5F5F5F5F5F5F5F5F5F5F5F5F5F5F5F5F5F5F5F5F5F5F5F5
310
F5F5F5F5F5F5F5F5F5F5F5F5F5F5F5F5F5F5F5F5F5F5F5F5F5F5F5F5F5F5F5F5F5F5F5F5F5F5F5F5F5F5F5F5F5F5F5F5F5F5F5F5F5E2F5F5F5F5F5F5F5F5F5F5F5F5F5F5F5F5F5F5F5F5E2E2EFF5F5F5F5F5F5F5F5F5F5F5F5F5F5F5F5F5F5F5F5E2F5F5F5F5F5F5F5F5F5F5F5F5F5F5F5F5F5F5F5F5F5F5F5F5F5F5F5F5F5
310
F5F5F5F5F5F5F5F5F5F5F5F5F5F5F5F5F5F5F5F5F5F5F5F5F5F5F5F5F5F5F5F5F5F5F5F5F5F5F5F5F5F5F5F5F5F5F5F5F5F5F5F5F5F5F5F5F5F5F5F5F5F5F5F5F5F5F5F5F5F5F5F5F5F5F5F5F5F5F5F5F5F5F5F5F5F5F5F5F5F5F5F5F5F5F5F5F5F5F5F5F5F5F5F5F5F5E2F5F5F5F5F5F5F5F5F5F5F5F5F5F5F5F5F5F5F5F5
310
E2E2EFF5F5F5F5F5F5F5F5F5F5F5F5F5F5F5F5F5F5F5F5E2F5F5F5F5F5F5F5F5F5F5F5F5F5F5F5F5F5F5F5F5F5F5F5F5F5F5F5F5F5F5F5F5F5F5F5F5F5F5F5F5F5F5F5F5F5F5F5F5F5F5F5F5F5F5F5F5F5F5F5F5F5F5F5F5F5F5F5F5F5F5F5F5F5F5F5F5F5F5F5F5F5F5F5F5F5F5F5F5F5F5F5F5F5F5F5F5F5F5F5F5F5F5F5
310
F5F5F5F5F5F5F5F5F5F5F5F5F5F5F5F5F5F5F5F5F5F5F5F5F5F5F5F5F5F5F5F5E2F5F5F5F5F5F5F5F5F5F5F5F5F5F5F5F5F5F5F5F5E2E2EFF5F5F5F5F5F5F5F5F5F5F5F5F5F5F5F5F5F5F5F5E2F5F5F5F5F5F5F5F5F5F5F5F5F5F5F5F5F5F5F5F5F5F5F5F5F5F5F5F5F5F5F5F5F5F5F5F5F5F5F5F5F5F5F5F5F5F5F5F5F5F5
310
F5F5F5F5F5F5F5F5F5F5F5F5F5F5F5F5F5F5F5F5F5F5F5F5F5F5F5F5F5F5F5F5F5F5F5F5F5F5F5F5F5F5F5F5F5F5F5F5F5F5F5F5F5F5F5F5F5F5F5F5F5F5F5F5F5F5F5F5F5F5F5F5F5F5F5F5F5F5F5F5F5F5F5F5F5E2F5F5F5F5F5F5F5F5F5F5F5F5F5F5F5F5F5F5F5F5E2E2EFF5F5F5F5F5F5F5F5F5F5F5F5F5F5F5F5F5F5
310
F5F5E2F5F5F5F5F5F5F5F5F5F5F5F5F5F5F5F5F5F5F5F5F5F5F5F5F5F5F5F5F5F5F5F5F5F5F5F5F5F5F5F5F5F5F5F5F5F5F5F5F5F5F5F5F5F5F5F5F5F5F5F5F5F5F5F5F5F5F5F5F5F5F5F5F5F5F5F5F5F5F5F5F5F5F5F5F5F5F5F5F5F5F5F5F5F5F5F5F5F5F5F5F5F5F5F5F5F5F5F5F5F5F5F5F5F5F5F5F5F5F5F5F5F5F5F5
310
F5F5F5F5F5F5F5F5F5F5F5E2F5F5F5F5F5F5F5F5F5F5F5F5F5F5F5F5F5F5F5F5E2E2EFF5F5F5F5F5F5F5F5F5F5F5F5F5F5F5F5F5F5F5F5E2F5F5F5F5F5F5F5F5F5F5F5F5F5F5F5F5F5F5F5F5F5F5F5F5F5F5F5F5F5F5F5F5F5F5F5F5F5F5F5F5F5F5F5F5F5F5F5F5F5F5F5F5F5F5F5F5F5F5F5F5F5F5F5F5F5F5F5F5F5F5F5
310
F5F5F5F5F5F5F5F5F5F5F5F5F5F5F5F5F5F5F5F5F5F5F5F5F5F5F5F5F5F5F5F5F5F5F5F5F5F5F5F5F5F5F5F5F5F5F5F5F5F5F5F5F5F5F5F5F5F5F5F5F5F5F5F5E2F5F5F5F5F5F5F5F5F5F5F5F5F5F5F5F5F5F5F5F5E2E2EFF5F5F5F5F5F5F5F5F5F5F5F5F5F5F5F5F5F5F5F5E2F5F5F5F5F5F5F5F5F5F5F5F5F5F5F5F5F5F5
310
F5F5F5F5F5F5F5F5F5F5F5F5F5F5F5F5F5F5F5F5F5F5F5F5F5F5F5F5F5F5F5F5F5F5F5F5F5F5F5F5F5F5F5F5F5F5F5F5F5F5F5F5F5F5F5F5F5F5F5F5F5F5F5F5F5F5F5F5F5F5F5F5F5F5F5F5F5F5F5F5F5F5F5F5F5F5F5F5F5F5F5F5F5F5F5F5F5F5F5F5F5F5F5F5F5F5F5F5F5F5F5F5F5F5F5F5F5E2F5F5F5F5F5F5F5F5F5
310
F5F5F5F5F5F5F5F5F5F5F5E2E2EFF5F5F5E2F5F5F5F5F5F5F5F5F5F5F5F5F5F5F5F5E2F5F5F5F5F5F5F5F5F5F5F5F5F5F5F5F5F5F5F5F5F5F5F5F5F5F5F5F5F5F5F5F5F5F5F5F5F5F5F5F5F5F5F5F5F5F5F5F5F5F5F5F5F5F5F5F5F5F5F5F5F5F5F5F5F5F5F5F5F5F5F5F5F5F5F5F5F5F5F5F5F5F5F5F5F5F5F5F5F5F5F5F5
310
F5F5F5F5F5F5F5F5F5F5F5F5F5F5F5F5F5F5F5F5F5F5F5F5F5F5F5F5F5F5F5F5F5F5F5F5F5F5F5F5F5F5F5E2F5F5F5F5F5F5F5F5F5F5F5F5F5F5F5F5E2F5F5F5E2E2EFF5F5F5E2F5F5F5F5F5F5F5F5F5F5F5F5F5F5F5F5E2F5F5F5F5F5F5F5F5F5F5F5F5F5F5F5F5F5F5F5F5F5F5F5F5F5F5F5F5F5F5F5F5F5F5F5F5F5F5F5
310
F5F5F5F5F5F5F5F5F5F5F5F5F5F5F5F5F5F5F5F5F5F5F5F5F5F5F5F5F5F5F5F5F5F5F5F5F5F5F5F5F5F5F5F5F5F5F5F5F5F5F5F5F5F5F5F5F5F5F5F5F5F5F5F5F5F5F5F5F5F5F5F5F5F5F5F5F5F5F5F5F5F5F5F5F5F5F5F5F5F5F5F5F5F5F5F5E2F5F5F5F5F5F5F5F5F5F5F5F5F5F5F5F5E2F5F5F5E2E2EFF5F5F5E2F5F5F5
310
F5F5F5F5F5F5F5F5F5F5F5F5F5E2F5F5F5F5F5F5F5F5F5F5F5F5F5F5F5F5F5F5F5F5F5F5F5F5F5F5F5F5F5F5F5F5F5F5F5F5F5F5F5F5F5F5F5F5F5F5F5F5F5F5F5F5F5F5F5F5F5F5F5F5F5F5F5F5F5F5F5F5F5F5F5F5F5F5F5F5F5F5F5F5F5F5F5F5F5F5F5F5F5F5F5F5F5F5F5F5F5F5F5F5F5F5F5F5F5F5F5F5F5F5F5F5F5
310
F5F5F5F5F5F5F5F5F5F5F5F5F5F5F5F5F5F5F5F5F5F5E2F5F5F5F5F5F5F5F5F5F5F5F5F5F5F5F5E2F5F5F5E2E2EFF5F5F5E2F5F5F5F5F5F5F5F5F5F5F5F5F5F5F5F5E2F5F5F5F5F5F5F5F5F5F5F5F5F5F5F5F5F5F5F5F5F5F5F5F5F5F5F5F5F5F5F5F5F5F5F5F5F5F5F5F5F5F5F5F5F5F5F5F5F5F5F5F5F5F5F5F5F5F5F5F5
310
F5F5F5F5F5F5F5F5F5F5F5F5F5F5F5F5F5F5F5F5F5F5F5F5F5F5F5F5F5F5F5F5F5F5F5F5F5F5F5F5F5F5F5F5F5F5F5F5F5F5F5F5F5F5F5F5F5F5F5F5F5F5F5F5F5F5F5F5F5F5F5F5F5F5F5E2F5F5F5F5F5F5F5F5F5F5F5F5F5F5F5F5E2F5F5F5E2E2EFF5F5F5E2F5F5F5F5F5F5F5F5F5F5F5F5F5F5F5F5E2F5F5F5F5F5F5F5
310
F5F5F5F5F5F5F5F5F5F5F5F5F5F5F5F5F5F5F5F5F5F5F5F5F5F5F5F5F5F5F5F5F5F5F5F5F5F5F5F5F5F5F5F5F5F5F5F5F5F5F5F5F5F5F5F5F5F5F5F5F5F5F5F5F5F5F5F5F5F5F5F5F5F5F5F5F5F5F5F5F5F5F5F5F5F5F5F5F5F5F5F5F5F5F5F5F5F5F5F5F5F5F5F5F5F5F5F5F5F5F5F5F5F5F5F5F5F5F5F5F5F5F5F5F5F5F5
310
F5E2F5F5F5F5F5F5F5F5F5F5F5F5F5F5F5F5E2F5F5F5E2E2EFF5F5F5E2F5F5F5F5F5F5F5F5F5F5F5F5F5F5F5F5E2F5F5F5F5F5F5F5F5F5F5F5F5F5F5F5F5F5F5F5F5F5F5F5F5F5F5F5F5F5F5F5F5F5F5F5F5F5F5F5F5F5F5F5F5F5F5F5F5F5F5F5F5F5F5F5F5F5F5F5F5F5F5F5F5F5F5F5F5F5F5F5F5F5F5F5F5F5F5F5F5F5
310
F5F5F5F5F5F5F5F5F5F5F5F5F5F5F5F5F5F5F5F5F5F5F5F5F5F5F5F5F5F5F5F5F5F5F5F5F5F5F5F5F5F5F5F5F5F5F5F5F5F5F5F5F5F5E2F5F5F5F5F5F5F5F5F5F5F5F5F5F5F5F5E2F5F5F5E2E2EFF5F5F5E2F5F5F5F5F5F5F5F5F5F5F5F5F5F5F5F5E2F5F5F5F5F5F5F5F5F5F5F5F5F5F5F5F5F5F5F5F5F5F5F5F5F5F5F5F5
310
F5F5F5F5F5F5F5F5F5F5F5F5F5F5F5F5F5F5F5F5F5F5F5F5F5F5F5F5F5F5F5F5F5F5F5F5F5F5F5F5F5F5F5F5F5F5F5F5F5F5F5F5F5F5F5F5F5F5F5F5F5F5F5F5F5F5F5F5F5F5F5F5F5F5F5F5F5F5F5F5F5F5F5F5F5F5F5F5F5F5F5F5F5F5F5F5F5F5F5F5F5F5F5F5F5F5F5E2F5F5F5F5F5F5F5F5F5F5F5F5F5F5F5F5E2F5F5
310
F5E2E2EFF5F5F5E2F5F5F5F5F5F5F5F5F5F5F5F5F5F5F5F5E2F5F5F5F5F5F5F5F5F5F5F5F5F5F5F5F5F5F5F5F5F5F5F5F5F5F5F5F5F5F5F5F5F5F5F5F5F5F5F5F5F5F5F5F5F5F5F5F5F5F5F5F5F5F5F5F5F5F5F5F5F5F5F5F5F5F5F5F5F5F5F5F5F5F5F5F5F5F5F5F5F5F5F5F5F5F5F5F5F5F5F5F5F5F5F5F5F5F5F5F5F5F5
310
F5F5F5F5F5F5F5F5F5F5F5F5F5F5F5F5F5F5F5F5F5F5F5F5F5F5F5F5F5F5F5F5F5E2F5F5F5F5F5F5F5F5F5F5F5F5F5F5F5F5E2F5F5F5E2E2EFF5F5F5E2F5F5F5F5F5F5F5F5F5F5F5F5F5F5F5F5E2F5F5F5F5F5F5F5F5F5F5F5F5F5F5F5F5F5F5F5F5F5F5F5F5F5F5F5F5F5F5F5F5F5F5F5F5F5F5F5F5F5F5F5F5F5F5F5F5F5
310
F5F5F5F5F5F5F5F5F5F5F5F5F5F5F5F5F5F5F5F5F5F5F5F5F5F5F5F5F5F5F5F5F5F5F5F5F5F5F5F5F5F5F5F5F5F5F5F5F5F5F5F5F5F5F5F5F5F5F5F5F5F5F5F5F5F5F5F5F5F5F5F5F5F5F5F5F5F5F5F5F5F5F5F5F5F5E2F5F5F5F5F5F5F5F5F5F5F5F5F5F5F5F5E2F5F5F5E2E2EFF5F5F5E2F5F5F5F5F5F5F5F5F5F5F5F5F5
310
F5F5F5E2F5F5F5F5F5F5F5F5F5F5F5F5F5F5F5F5F5F5F5F5F5F5F5F5F5F5F5F5F5F5F5F5F5F5F5F5F5F5F5F5F5F5F5F5F5F5F5F5F5F5F5F5F5F5F5F5F5F5F5F5F5F5F5F5F5F5F5F5F5F5F5F5F5F5F5F5F5F5F5F5F5F5F5F5F5F5F5F5F5F5F5F5F5F5F5F5F5F5F5F5F5F5F5F5F5F5F5F5F5F5F5F5F5F5F5F5F5F5F5F5F5F5F5
310
F5F5F5F5F5F5F5F5F5F5F5F5E2F5F5F5F5F5F5F5F5F5F5F5F5F5F5F5F5E2F5F5F5E2E2EFF5F5F5E2F5F5F5F5F5F5F5F5F5F5F5F5F5F5F5F5E2F5F5F5F5F5F5F5F5F5F5F5F5F5F5F5F5F5F5F5F5F5F5F5F5F5F5F5F5F5F5F5F5F5F5F5F5F5F5F5F5F5F5F5F5F5F5F5F5F5F5F5F5F5F5F5F5F5F5F5F5F5F5F5F5F5F5F5F5F5F5
310
F5F5F5F5F5F5F5F5F5F5F5F5F5F5F5F5F5F5F5F5F5F5F5F5F5F5F5F5F5F5F5F5F5F5F5F5F5F5F5F5F5F5F5F5F5F5F5F5F5F5F5F5F5F5F5F5F5F5F5F5F5F5F5F5F5E2F5F5F5F5F5F5F5F5F5F5F5F5F5F5F5F5E2F5F5F5E2E2EFF5F5F5E2F5F5F5F5F5F5F5F5F5F5F5F5F5F5F5F5E2F5F5F5F5F5F5F5F5F5F5F5F5F5F5F5F5F5
310
F5F5F5F5F5F5F5F5F5F5F5F5F5F5F5F5F5F5F5F5F5F5F5F5F5F5F5F5F5F5F5F5F5F5F5F5F5F5F5F5F5F5F5F5F5F5F5F5F5F5F5F5F5F5F5F5F5F5F5F5F5F5F5F5F5F5F5F5F5F5F5F5F5F5F5F5F5F5F5F5F5F5F5F5F5F5F5F5F5F5F5F5F5F5F5F5F5F5F5F5F5F5F5F5F5F5F5F5F5F5F5F5F5F5F5F5F5F5E2F5F5F5F5F5F5F5F5
310
F5F5F5F5F5F5F5F5E2F5F5F5E2E2EFF5F5F5E2F5F5F5F5F5F5F5F5F5F5F5F5F5F5F5F5E2F5F5F5F5F5F5F5F5F5F5F5F5F5F5F5F5F5F5F5F5F5F5F5F5F5F5F5F5F5F5F5F5F5F5F5F5F5F5F5F5F5F5F5F5F5F5F5F5F5F5F5F5F5F5F5F5F5F5F5F5F5F5F5F5F5F5F5F5F5F5F5F5F5F5F5F5F5F5F5F5F5F5F5F5F5F5F5F5F5F5F5
310
F5F5F5F5F5F5F5F5F5F5F5F5F5F5F5F5F5F5F5F5F5F5F5F5F5F5F5F5F5F5F5F5F5F5F5F5F5F5F5F5F5F5F5F5E2F5F5F5F5F5F5F5F5F5F5F5F5F5F5F5F5E2F5F5F5E2E2EFF5F5F5E2F5F5F5F5F5F5F5F5F5F5F5F5F5F5F5F5E2F5F5F5F5F5F5F5F5F5F5F5F5F5F5F5F5F5F5F5F5F5F5F5F5F5F5F5F5F5F5F5F5F5F5F5F5F5F5
310
F5F5F5F5F5F5F5F5F5F5F5F5F5F5F5F5F5F5F5F5F5F5F5F5F5F5F5F5F5F5F5F5F5F5F5F5F5F5F5F5F5F5F5F5F5F5F5F5F5F5F5F5F5F5F5F5F5F5F5F5F5F5F5F5F5F5F5F5F5F5F5F5F5F5F5F5F5F5F5F5F5F5F5F5F5F5F5F5F5F5F5F5F5F5F5F5F5E2F5F5F5F5F5F5F5F5F5F5F5F5F5F5F5F5E2F5F5F5E2E2EFF5F5F5E2F5F5
310
F5F5F5F5F5F5F5F5F5F5F5F5F5F5E2F5F5F5F5F5F5F5F5F5F5F5F5F5F5F5F5F5F5F5F5F5F5F5F5F5F5F5F5F5F5F5F5F5F5F5F5F5F5F5F5F5F5F5F5F5F5F5F5F5F5F5F5F5F5F5F5F5F5F5F5F5F5F5F5F5F5F5F5F5F5F5F5F5F5F5F5F5F5F5F5F5F5F5F5F5F5F5F5F5F5F5F5F5F5F5F5F5F5F5F5F5F5F5F5F5F5F5F5F5F5F5F5
310
F5F5F5F5F5F5F5F5F5F5F5F5F5F5F5F5F5F5F5F5F5F5F5E2F5F5F5F5F5F5F5F5F5F5F5F5F5F5F5F5E2F5F5F5E2E2EFF5F5F5E2F5F5F5F5F5F5F5F5F5F5F5F5F5F5F5F5E2F5F5F5F5F5F5F5F5F5F5F5F5F5F5F5F5F5F5F5F5F5F5F5F5F5F5F5F5F5F5F5F5F5F5F5F5F5F5F5F5F5F5F5F5F5F5F5F5F5F5F5F5F5F5F5F5F5F5F5
310
F5F5F5F5F5F5F5F5F5F5F5F5F5F5F5F5F5F5F5F5F5F5F5F5F5F5F5F5F5F5F5F5F5F5F5F5F5F5F5F5F5F5F5F5F5F5F5F5F5F5F5F5F5F5F5F5F5F5F5F5F5F5F5F5F5F5F5F5F5F5F5F5F5F5F5F5E2F5F5F5F5F5F5F5F5F5F5F5F5F5F5F5F5E2F5F5F5E2E2EFF5F5F5E2F5F5F5F5F5F5F5F5F5F5F5F5F5F5F5F5E2F5F5F5F5F5F5
310
F5F5F5F5F5F5F5F5F5F5F5F5F5F5F5F5F5F5F5F5F5F5F5F5F5F5F5F5F5F5F5F5F5F5F5F5F5F5F5F5F5F5F5F5F5F5F5F5F5F5F5F5F5F5F5F5F5F5F5F5F5F5F5F5F5F5F5F5F5F5F5F5F5F5F5F5F5F5F5F5F5F5F5F5F5F5F5F5F5F5F5F5F5F5F5F5F5F5F5F5F5F5F5F5F5F5F5F5F5F5F5F5F5F5F5F5F5F5F5F5F5F5F5F5F5F5F5
310
F5F5E2F5F5F5F5F5F5F5F5F5F5F5F5F5F5F5F5E2F5F5F5E2E2EFF5F5F5F5F5F5F5F5F5F5F5F5F5F5F5F5F5F5F5F5E2F5F5F5F5F5F5F5F5F5F5F5F5F5F5F5F5F5F5F5F5F5F5F5F5F5F5F5F5F5F5F5F5F5F5F5F5F5F5F5F5F5F5F5F5F5F5F5F5F5F5F5F5F5F5F5F5F5F5F5F5F5F5F5F5F5F5F5F5F5F5F5F5F5F5F5F5F5F5F5F5
310
F5F5F5F5F5F5F5F5F5F5F5F5F5F5F5F5F5F5F5F5F5F5F5F5F5F5F5F5F5F5F5F5F5F5F5F5F5F5F5F5F5F5F5F5F5F5F5F5F5F5F5F5F5F5F5E2F5F5F5F5F5F5F5F5F5F5F5F5F5F5F5F5F5F5F5F5E2E2EFF5F5F5F5F5F5F5F5F5F5F5F5F5F5F5F5F5F5F5F5E2F5F5F5F5F5F5F5F5F5F5F5F5F5F5F5F5F5F5F5F5F5F5F5F5F5F5F5
310
F5F5F5F5F5F5F5F5F5F5F5F5F5F5F5F5F5F5F5F5F5F5F5F5F5F5F5F5F5F5F5F5F5F5F5F5F5F5F5F5F5F5F5F5F5F5F5F5F5F5F5F5F5F5F5F5F5F5F5F5F5F5F5F5F5F5F5F5F5F5F5F5F5F5F5F5F5F5F5F5F5F5F5F5F5F5F5F5F5F5F5F5F5F5F5F5F5F5F5F5F5F5F5F5F5F5F5F5E2F5F5F5F5F5F5F5F5F5F5F5F5F5F5F5F5F5F5
310
F5F5E2E2EFF5F5F5F5F5F5F5F5F5F5F5F5F5F5F5F5F5F5F5F5E2F5F5F5F5F5F5F5F5F5F5F5F5F5F5F5F5F5F5F5F5F5F5F5F5F5F5F5F5F5F5F5F5F5F5F5F5F5F5F5F5F5F5F5F5F5F5F5F5F5F5F5F5F5F5F5F5F5F5F5F5F5F5F5F5F5F5F5F5F5F5F5F5F5F5F5F5F5F5F5F5F5F5F5F5F5F5F5F5F5F5F5F5F5F5F5F5F5F5F5F5F5
310
F5F5F5F5F5F5F5F5F5F5F5F5F5F5F5F5F5F5F5F5F5F5F5F5F5F5F5F5F5F5F5F5F5F5E2F5F5F5F5F5F5F5F5F5F5F5F5F5F5F5F5F5F5F5F5E2E2EFF5F5F5F5F5F5F5F5F5F5F5F5F5F5F5F5F5F5F5F5E2F5F5F5F5F5F5F5F5F5F5F5F5F5F5F5F5F5F5F5F5F5F5F5F5F5F5F5F5F5F5F5F5F5F5F5F5F5F5F5F5F5F5F5F5F5F5F5F5
310
F5F5F5F5F5F5F5F5F5F5F5F5F5F5F5F5F5F5F5F5F5F5F5F5F5F5F5F5F5F5F5F5F5F5F5F5F5F5F5F5F5F5F5F5F5F5F5F5F5F5F5F5F5F5F5F5F5F5F5F5F5F5F5F5F5F5F5F5F5F5F5F5F5F5F5F5F5F5F5F5F5F5F5F5F5F5F5E2F5F5F5F5F5F5F5F5F5F5F5F5F5F5F5F5F5F5F5F5E2E2EFF5F5F5F5F5F5F5F5F5F5F5F5F5F5F5F5
310
F5F5F5F5E2E2E2E2E2E2E2E2E2E2E2E2E2E2E2E2E2E2E2E2E2E2E2E2E2E2E2E2E2E2E2E2E2E2E2E2E2E2E2E2E2E2E2E2E2E2E2E2E2E2E2E2E2E2E2E2E2E2E2E2E2E2E2E2E2E2E2E2E2E2E2E2E2E2E2E2E2E2E2E2E2E2E2E2E2E2E2E2E2E2E2E2E2E2E2E2E2E2E2E2E2E2E2E2E2E2E2E2E2E2E2E2E2E2E2E2E2E2E2E2E2E2E2
310
E2E2E2E2E2E2E2E2E2E2E2E2E2E2F5F5F5F5F5F5F5F5F5F5F5F5F5F5F5F5F5F5F5F5E2E2EFF5F5F5F5F5F5F5F5F5F5F5F5F5F5F5F5F5F5F5F5F5F5F5F5F5F5F5F5F5F5F5F5F5F5F5F5F5F5F5F5F5F5F5F5F5F5F5F5F5F5F5F5F5F5F5F5F5F5F5F5F5F5F5F5F5F5F5F5F5F5F5F5F5F5F5F5F5F5F5F5F5F5F5F5F5F5F5F5F5F5
310
F5F5F5F5F5F5F5F5F5F5F5F5F5F5F5F5F5F5F5F5F5F5F5F5F5F5F5F5F5F5F5F5F5F5F5F5F5F5F5F5F5F5F5F5F5F5F5F5F5F5F5F5F5F5F5F5F5F5F5F5F5F5F5F5F5F5F5F5F5F5F5F5F5F5F5F5F5F5F5F5F5F5F5F5F5F5F5E2E2EFF5F5F5F5F5F5F5F5F5F5F5F5F5F5F5F5F5F5F5F5F5F5F5F5F5F5F5F5F5F5F5F5F5F5F5F5F5
310
F5F5F5F5F5F5F5F5F5F5F5F5F5F5F5F5F5F5F5F5F5F5F5F5F5F5F5F5F5F5F5F5F5F5F5F5F5F5F5F5F5F5F5F5F5F5F5F5F5F5F5F5F5F5F5F5F5F5F5F5F5F5F5F5F5F5F5F5F5F5F5F5F5F5F5F5F5F5F5F5F5F5F5F5F5F5F5F5F5F5F5F5F5F5F5F5F5F5F5F5F5F5F5F5F5F5F5F5F5F5F5F5F5F5F5F5F5F5F5F5F5F5F5F5F5F5F5
310
F5F5F5F5F5F5F5F5F5F5F5F5F5E2E2EFF5F5F5F5F5F5F5F5F5F5F5F5F5F5F5F5F5F5F5F5F5F5F5F5F5F5F5F5F5F5F5F5F5F5F5F5F5F5F5F5F5F5F5F5F5F5F5F5F5F5F5F5F5F5F5F5F5F5F5F5F5F5F5F5F5F5F5F5F5F5F5F5F5F5F5F5F5F5F5F5F5F5F5F5F5F5F5F5F5F5F5F5F5F5F5F5F5F5F5F5F5F5F5F5F5F5F5F5F5F5F5
310
F5F5F5F5F5F5F5F5F5F5F5F5F5F5F5F5F5F5F5F5F5F5F5F5F5F5F5F5F5F5F5F5F5F5F5F5F5F5F5F5F5F5F5F5F5F5F5F5F5F5F5F5F5F5F5F5F5F5F5F5F5F5F5F5F5F5E2E2EFF5F5F5F5F5F5F5F5F5F5F5F5F5F5F5F5F5F5F5F5F5F5F5F5F5F5F5F5F5F5F5F5F5F5F5F5F5F5F5F5F5F5F5F5F5F5F5F5F5F5F5F5F5F5F5F5F5F5
310
F5F5F5F5F5F5F5F5F5F5F5F5F5F5F5F5F5F5F5F5F5F5F5F5F5F5F5F5F5F5F5F5F5F5F5F5F5F5F5F5F5F5F5F5F5F5F5F5F5F5F5F5F5F5F5F5F5F5F5F5F5F5F5F5F5F5F5F5F5F5F5F5F5F5F5F5F5F5F5F5F5F5F5F5F5F5F5F5F5F5F5F5F5F5F5F5F5F5F5F5F5F5F5F5F5F5F5F5F5F5F5F5F5F5F5F5F5F5F5E2E2EFF5F5F5E2F5
310
F5F5F5F5F5F5F5F5F5F5F5F5F5F5F5F5F5F5F5F5F5F5F5F5F5F5F5F5F5F5F5F5F5F5F5F5F5F5F5F5F5F5F5F5F5F5F5F5F5F5F5F5F5F5F5F5F5F5F5F5F5F5F5F5F5F5F5F5F5F5F5F5F5F5F5F5F5F5F5F5F5F5F5F5F5F5F5F5F5F5F5F5F5F5F5F5F5F5F5F5F5F5F5F5F5F5F5F5F5F5F5F5F5F5F5F5F5F5F5F5F5F5F5F5F5F5F5
310
F5F5F5F5F5F5F5F5F5F5F5F5F5F5F5F5F5F5F5F5F5F5F5F5F5F5F5F5F5F5F5F5F5F5F5F5F5F5F5F5F5E2F5F5F5E2E2EFF5F5F5E2F5F5F5F5F5F5F5F5F5F5F5F5F5F5F5F5F5F5F5F5F5F5F5F5F5F5F5F5F5F5F5F5F5F5F5F5F5F5F5F5F5F5F5F5F5F5F5F5F5F5F5F5F5F5F5F5F5F5F5F5F5F5F5F5F5F5F5F5F5F5F5F5F5F5F5
310
F5F5F5F5F5F5F5F5F5F5F5F5F5F5F5F5F5F5F5F5F5F5F5F5F5F5F5F5F5F5F5F5F5F5F5F5F5F5F5F5F5F5F5F5F5F5F5F5F5F5F5F5F5F5F5F5F5F5F5F5F5F5F5F5F5F5F5F5F5F5F5F5F5F5F5F5F5F5F5F5F5F5F5F5F5F5F5F5F5F5F5F5F5F5E2F5F5F5E2E2EFF5F5F5E2F5F5F5F5F5F5F5F5F5F5F5F5F5F5F5F5F5F5F5F5F5F5
310
F5F5F5F5F5F5F5F5F5F5F5F5F5F5F5F5F5F5F5F5F5F5F5F5F5F5F5F5F5F5F5F5F5F5F5F5F5F5F5F5F5F5F5F5F5F5F5F5F5F5F5F5F5F5F5F5F5F5F5F5F5F5F5F5F5F5F5F5F5F5F5F5F5F5F5F5F5F5F5F5F5F5F5F5F5F5F5F5F5F5F5F5F5F5F5F5F5F5F5F5F5F5F5F5F5F5F5F5F5F5F5F5F5F5F5F5F5F5F5F5F5F5F5F5F5F5F5
310
F5F5F5F5F5F5F5F5F5F5F5F5F5F5F5F5F5F5F5F5E2F5F5F5E2E2EFF5F5F5E2F5F5F5F5F5F5F5F5F5F5F5F5F5F5F5F5F5F5F5F5F5F5F5F5F5F5F5F5F5F5F5F5F5F5F5F5F5F5F5F5F5F5F5F5F5F5F5F5F5F5F5F5F5F5F5F5F5F5F5F5F5F5F5F5F5F5F5F5F5F5F5F5F5F5F5F5F5F5F5F5F5F5F5F5F5F5F5F5F5F5F5F5F5F5F5F5
310
F5F5F5F5F5F5F5F5F5F5F5F5F5F5F5F5F5F5F5F5F5F5F5F5F5F5F5F5F5F5F5F5F5F5F5F5F5F5F5F5F5F5F5F5F5F5F5F5F5F5F5F5F5F5F5F5F5F5F5F5F5F5F5F5F5F5F5F5F5F5F5F5F5E2F5F5F5E2E2EFF5F5F5E2F5F5F5F5F5F5F5F5F5F5F5F5F5F5F5F5F5F5F5F5F5F5F5F5F5F5F5F5F5F5F5F5F5F5F5F5F5F5F5F5F5F5F5
310
F5F5F5F5F5F5F5F5F5F5F5F5F5F5F5F5F5F5F5F5F5F5F5F5F5F5F5F5F5F5F5F5F5F5F5F5F5F5F5F5F5F5F5F5F5F5F5F5F5F5F5F5F5F5F5F5F5F5F5F5F5F5F5F5F5F5F5F5F5F5F5F5F5F5F5F5F5F5F5F5F5F5F5F5F5F5F5F5F5F5F5F5F5F5F5F5F5F5F5F5F5F5F5F5F5F5F5F5F5F5F5F5F5F5F5F5F5F5F5F5F5F5F5F5F5F5E2
310
F5F5F5E2E2EFF5F5F5E2F5F5F5F5F5F5F5F5F5F5F5F5F5F5F5F5F5F5F5F5F5F5F5F5F5F5F5F5F5F5F5F5F5F5F5F5F5F5F5F5F5F5F5F5F5F5F5F5F5F5F5F5F5F5F5F5F5F5F5F5F5F5F5F5F5F5F5F5F5F5F5F5F5F5F5F5F5F5F5F5F5F5F5F5F5F5F5F5F5F5F5F5F5F5F5F5F5F5F5F5F5F5F5F5F5F5F5F5F5F5F5F5F5F5F5F5F5
310
F5F5F5F5F5F5F5F5F5F5F5F5F5F5F5F5F5F5F5F5F5F5F5F5F5F5F5F5F5F5F5F5F5F5F5F5F5F5F5F5F5F5F5F5F5F5F5F5F5F5F5F5E2F5F5F5E2E2EFF5F5F5E2F5F5F5F5F5F5F5F5F5F5F5F5F5F5F5F5F5F5F5F5F5F5F5F5F5F5F5F5F5F5F5F5F5F5F5F5F5F5F5F5F5F5F5F5F5F5F5F5F5F5F5F5F5F5F5F5F5F5F5F5F5F5F5F5
310
F5F5F5F5F5F5F5F5F5F5F5F5F5F5F5F5F5F5F5F5F5F5F5F5F5F5F5F5F5F5F5F5F5F5F5F5F5F5F5F5F5F5F5F5F5F5F5F5F5F5F5F5F5F5F5F5F5F5F5F5F5F5F5F5F5F5F5F5F5F5F5F5F5F5F5F5F5F5F5F5F5F5F5F5F5F5F5F5F5F5F5F5F5F5F5F5F5F5F5F5F5F5F5F5F5E2F5F5F5E2E2EFF5F5F5E2F5F5F5F5F5F5F5F5F5F5F5
310
F5F5F5F5F5F5F5F5F5F5F5F5F5F5F5F5F5F5F5F5F5F5F5F5F5F5F5F5F5F5F5F5F5F5F5F5F5F5F5F5F5F5F5F5F5F5F5F5F5F5F5F5F5F5F5F5F5F5F5F5F5F5F5F5F5F5F5F5F5F5F5F5F5F5F5F5F5F5F5F5F5F5F5F5F5F5F5F5F5F5F5F5F5F5F5F5F5F5F5F5F5F5F5F5F5F5F5F5F5F5F5F5F5F5F5F5F5F5F5F5F5F5F5F5F5F5F5
310
F5F5F5F5F5F5F5F5F5F5F5F5F5F5F5F5F5F5F5F5F5F5F5F5F5F5F5F5F5F5F5E2F5F5F5E2E2EFF5F5F5E2E2E2E2E2E2E2E2F5F5F5F5F5F5F5F5F5E2E2E2E2E2E2E2E2E2E2E2E2E2E2E2E2F5F5F5F5F5F5F5F5E2E2E2E2E2E2E2E2E2E2E2E2E2E2E2E2F5F5F5F5F5F5F5F5F5E2E2E2E2E2E2E2E2E2E2E2E2E2E2E2F5F5F5F5F5
310
F5F5F5F5E2E2E2E2E2E2E2E2E2E2E2E2E2E2E2F5F5F5F5F5F5F5F5F5E2E2E2E2E2E2E2E2E2E2E2E2E2E2E2E2F5F5F5F5F5F5F5F5E2E2E2E2E2E2E2E2E2E2E2E2E2E2E2E2F5F5F5F5F5F5F5F5F5E2E2E2E2E2E2E2E2F5F5F5E2E2EFF5F5F5F5F5F5F5F5F5F5F5F5F5F5F5F5F5F5F5F5F5F5F5F5F5F5F5F5F5F5F5F5F5F5F5F5
310
F5F5F5F5F5F5F5F5F5F5F5F5F5F5F5F5F5F5F5F5F5F5F5F5F5F5F5F5F5F5F5F5F5F5F5F5F5F5F5F5F5F5F5F5F5F5F5F5F5F5F5F5F5F5F5F5F5F5F5F5F5F5F5F5F5F5F5F5F5F5F5F5F5F5F5F5F5F5F5F5F5F5F5F5F5F5F5F5F5F5F5F5F5F5F5F5F5F5F5F5F5F5F5F5F5F5F5F5F5F5F5F5F5F5F5F5F5F5F5F5F5F5F5F5F5F5F5
310
F5F5F5F5F5F5F5F5F5F5F5F5F5F5E2E2EFF5F5F5F5F5F5F5F5F5F5F5F5F5F5F5F5F5F5F5F5F5F5F5F5F5F5F5F5F5F5F5F5F5F5F5F5F5F5F5F5F5F5F5F5F5F5F5F5F5F5F5F5F5F5F5F5F5F5F5F5F5F5F5F5F5F5F5F5F5F5F5F5F5F5F5F5F5F5F5F5F5F5F5F5F5F5F5F5F5F5F5F5F5F5F5F5F5F5F5F5F5F5F5F5F5F5F5F5F5F5
310
F5F5F5F5F5F5F5F5F5F5F5F5F5F5F5F5F5F5F5F5F5F5F5F5F5F5F5F5F5F5F5F5F5F5F5F5F5F5F5F5F5F5F5F5F5F5F5F5F5F5F5F5F5F5F5F5F5F5F5F5F5F5F5F5F5F5F5E2EFEFF5F5F5F5F5F5F5F5F5F5F5F5F5F5F5F5F5F5F5F5F5F5F5F5F5F5F5F5F5F5F5F5F5F5F5F5F5F5F5F5F5F5F5F5F5F5F5F5F5F5F5F5F5F5F5F5F5
310
F5F5F5F5F5F5F5F5F5F5F5F5F5F5F5F5F5F5F5F5F5F5F5F5F5F5F5F5F5F5F5F5F5F5F5F5F5F5F5F5F5F5F5F5F5F5F5F5F5F5F5F5F5F5F5F5F5F5F5F5F5F5F5F5F5F5F5F5F5F5F5F5F5F5F5F5F5F5F5F5F5F5F5F5F5F5F5F5F5F5F5F5F5F5F5F5F5F5F5F5F5F5F5F5F5F5F5F5F5F5F5F5F5F5F5F5F5F5F5F5E2EFEFE2E2E2E2
310
E2E2E2E2E2E2E2E2E2E2E2E2E2E2E2E2E2E2E2E2E2E2E2E2E2E2E2E2E2E2E2E2E2E2E2E2E2E2E2E2E2E2E2E2E2E2E2E2E2E2E2E2E2E2E2E2E2E2E2E2E2E2E2E2E2E2E2E2E2E2E2E2E2E2E2E2E2E2E2E2E2E2E2E2E2E2E2E2E2E2E2E2E2E2E2E2E2E2E2E2E2E2E2E2E2E2E2E2E2E2E2E2E2E2E2E2E2E2E2E2E2E2E2E2E2E2E2
310
E2E2E2E2E2E2E2E2E2E2E2E2E2E2E2E2E2E2E2E2E2E2E2E2E2E2E2E2E2E2E2E2E2E2E2E2E2E2E2E2E2E2E2E2E2E2E2EFEF
  0
ENDSEC
  0
EOF
