  0
SECTION
  2
HEADER
  9
$ACADVER
  1
AC1018
  9
$ACADMAINTVER
 70
     0
  9
$DWGCODEPAGE
  3
ANSI_1252
  9
$AUTHOR
  1
g6edxjah
  9
$LASTSAVEDBY
  1
g6edxjah
  9
$INSBASE
 10
0.0
 20
0.0
 30
0.0
  9
$EXTMIN
 10
38.91424
 20
0.206885
 30
0.0
  9
$EXTMAX
 10
50.077323
 20
8.619969
 30
0.0
  9
$LIMMIN
 10
16.539072
 20
-23.543282
  9
$LIMMAX
 10
72.452491
 20
32.370137
  9
$ORTHOMODE
 70
     0
  9
$REGENMODE
 70
     1
  9
$FILLMODE
 70
     1
  9
$QTEXTMODE
 70
     0
  9
$MIRRTEXT
 70
     0
  9
$LTSCALE
 40
1.0
  9
$ATTMODE
 70
     1
  9
$TEXTSIZE
 40
0.12
  9
$TRACEWID
 40
0.05
  9
$TEXTSTYLE
  7
Standard
  9
$CLAYER
  8
DIM
  9
$CELTYPE
  6
Continuous
  9
$CECOLOR
 62
     7
  9
$CELTSCALE
 40
1.0
  9
$DISPSILH
 70
     0
  9
$DIMSCALE
 40
1.0
  9
$DIMASZ
 40
0.12
  9
$DIMEXO
 40
0.06
  9
$DIMDLI
 40
0.0
  9
$DIMRND
 40
0.0
  9
$DIMDLE
 40
0.0
  9
$DIMEXE
 40
0.06
  9
$DIMTP
 40
0.0
  9
$DIMTM
 40
0.0
  9
$DIMTXT
 40
0.12
  9
$DIMCEN
 40
0.09
  9
$DIMTSZ
 40
0.0
  9
$DIMTOL
 70
     0
  9
$DIMLIM
 70
     0
  9
$DIMTIH
 70
     0
  9
$DIMTOH
 70
     0
  9
$DIMSE1
 70
     0
  9
$DIMSE2
 70
     0
  9
$DIMTAD
 70
     1
  9
$DIMZIN
 70
    11
  9
$DIMBLK
  1
TerminatorOpen_0.5
  9
$DIMASO
 70
     1
  9
$DIMSHO
 70
     1
  9
$DIMPOST
  1

  9
$DIMAPOST
  1

  9
$DIMALT
 70
     0
  9
$DIMALTD
 70
     4
  9
$DIMALTF
 40
25.4
  9
$DIMLFAC
 40
1.0
  9
$DIMTOFL
 70
     0
  9
$DIMTVP
 40
0.0
  9
$DIMTIX
 70
     0
  9
$DIMSOXD
 70
     0
  9
$DIMSAH
 70
     0
  9
$DIMBLK1
  1

  9
$DIMBLK2
  1

  9
$DIMSTYLE
  2
Standard
  9
$DIMCLRD
 70
     0
  9
$DIMCLRE
 70
     0
  9
$DIMCLRT
 70
     0
  9
$DIMTFAC
 40
1.0
  9
$DIMGAP
 40
0.06
  9
$DIMJUST
 70
     0
  9
$DIMSD1
 70
     0
  9
$DIMSD2
 70
     0
  9
$DIMTOLJ
 70
     0
  9
$DIMTZIN
 70
    11
  9
$DIMALTZ
 70
    15
  9
$DIMALTTZ
 70
    15
  9
$DIMUPT
 70
     0
  9
$DIMDEC
 70
     4
  9
$DIMTDEC
 70
     4
  9
$DIMALTU
 70
     2
  9
$DIMALTTD
 70
     4
  9
$DIMTXSTY
  7
Style-Arial
  9
$DIMAUNIT
 70
     0
  9
$DIMADEC
 70
     4
  9
$DIMALTRND
 40
0.0
  9
$DIMAZIN
 70
     3
  9
$DIMDSEP
 70
    46
  9
$DIMATFIT
 70
     1
  9
$DIMFRAC
 70
     0
  9
$DIMLDRBLK
  1
TerminatorOpen_0.5
  9
$DIMLUNIT
 70
     2
  9
$DIMLWD
 70
    -2
  9
$DIMLWE
 70
    -2
  9
$DIMTMOVE
 70
     0
  9
$LUNITS
 70
     2
  9
$LUPREC
 70
     4
  9
$SKETCHINC
 40
0.1
  9
$FILLETRAD
 40
0.0
  9
$AUNITS
 70
     0
  9
$AUPREC
 70
     4
  9
$MENU
  1
.
  9
$ELEVATION
 40
0.0
  9
$PELEVATION
 40
0.0
  9
$THICKNESS
 40
0.0
  9
$LIMCHECK
 70
     0
  9
$CHAMFERA
 40
0.0
  9
$CHAMFERB
 40
0.0
  9
$CHAMFERC
 40
0.0
  9
$CHAMFERD
 40
0.0
  9
$SKPOLY
 70
     0
  9
$TDCREATE
 40
2455363.359823993
  9
$TDUCREATE
 40
2455363.568157326
  9
$TDUPDATE
 40
2455363.359824178
  9
$TDUUPDATE
 40
2455363.568157512
  9
$TDINDWG
 40
0.0
  9
$TDUSRTIMER
 40
0.0006630093
  9
$USRTIMER
 70
     1
  9
$ANGBASE
 50
0.0
  9
$ANGDIR
 70
     0
  9
$PDMODE
 70
     0
  9
$PDSIZE
 40
0.0
  9
$PLINEWID
 40
0.0
  9
$SPLFRAME
 70
     0
  9
$SPLINETYPE
 70
     6
  9
$SPLINESEGS
 70
     8
  9
$HANDSEED
  5
45A
  9
$SURFTAB1
 70
     6
  9
$SURFTAB2
 70
     6
  9
$SURFTYPE
 70
     6
  9
$SURFU
 70
     6
  9
$SURFV
 70
     6
  9
$UCSBASE
  2

  9
$UCSNAME
  2

  9
$UCSORG
 10
0.0
 20
0.0
 30
0.0
  9
$UCSXDIR
 10
1.0
 20
0.0
 30
0.0
  9
$UCSYDIR
 10
0.0
 20
1.0
 30
0.0
  9
$UCSORTHOREF
  2

  9
$UCSORTHOVIEW
 70
     0
  9
$UCSORGTOP
 10
0.0
 20
0.0
 30
0.0
  9
$UCSORGBOTTOM
 10
0.0
 20
0.0
 30
0.0
  9
$UCSORGLEFT
 10
0.0
 20
0.0
 30
0.0
  9
$UCSORGRIGHT
 10
0.0
 20
0.0
 30
0.0
  9
$UCSORGFRONT
 10
0.0
 20
0.0
 30
0.0
  9
$UCSORGBACK
 10
0.0
 20
0.0
 30
0.0
  9
$PUCSBASE
  2

  9
$PUCSNAME
  2

  9
$PUCSORG
 10
0.0
 20
0.0
 30
0.0
  9
$PUCSXDIR
 10
1.0
 20
0.0
 30
0.0
  9
$PUCSYDIR
 10
0.0
 20
1.0
 30
0.0
  9
$PUCSORTHOREF
  2

  9
$PUCSORTHOVIEW
 70
     0
  9
$PUCSORGTOP
 10
0.0
 20
0.0
 30
0.0
  9
$PUCSORGBOTTOM
 10
0.0
 20
0.0
 30
0.0
  9
$PUCSORGLEFT
 10
0.0
 20
0.0
 30
0.0
  9
$PUCSORGRIGHT
 10
0.0
 20
0.0
 30
0.0
  9
$PUCSORGFRONT
 10
0.0
 20
0.0
 30
0.0
  9
$PUCSORGBACK
 10
0.0
 20
0.0
 30
0.0
  9
$USERI1
 70
     0
  9
$USERI2
 70
     0
  9
$USERI3
 70
     0
  9
$USERI4
 70
     0
  9
$USERI5
 70
     0
  9
$USERR1
 40
0.0
  9
$USERR2
 40
0.0
  9
$USERR3
 40
0.0
  9
$USERR4
 40
0.0
  9
$USERR5
 40
0.0
  9
$WORLDVIEW
 70
     1
  9
$SHADEDGE
 70
     3
  9
$SHADEDIF
 70
    70
  9
$TILEMODE
 70
     1
  9
$MAXACTVP
 70
    64
  9
$PINSBASE
 10
0.0
 20
0.0
 30
0.0
  9
$PLIMCHECK
 70
     0
  9
$PEXTMIN
 10
1.049744
 20
0.799667
 30
-0.001526
  9
$PEXTMAX
 10
9.450623
 20
7.200577
 30
0.0
  9
$PLIMMIN
 10
-0.25
 20
-0.25
  9
$PLIMMAX
 10
10.75
 20
8.25
  9
$UNITMODE
 70
     0
  9
$VISRETAIN
 70
     1
  9
$PLINEGEN
 70
     0
  9
$PSLTSCALE
 70
     0
  9
$TREEDEPTH
 70
  3020
  9
$CMLSTYLE
  2
Standard
  9
$CMLJUST
 70
     0
  9
$CMLSCALE
 40
1.0
  9
$PROXYGRAPHICS
 70
     1
  9
$MEASUREMENT
 70
     0
  9
$CELWEIGHT
370
    13
  9
$ENDCAPS
280
     0
  9
$JOINSTYLE
280
     0
  9
$LWDISPLAY
290
     1
  9
$INSUNITS
 70
     2
  9
$HYPERLINKBASE
  1

  9
$STYLESHEET
  1

  9
$XEDIT
290
     1
  9
$CEPSNTYPE
380
     0
  9
$PSTYLEMODE
290
     1
  9
$FINGERPRINTGUID
  2
{02C0BBB5-38A7-4FBF-829E-00875EC88963}
  9
$VERSIONGUID
  2
{82C521FC-BF81-46B3-825E-420B6BD93A99}
  9
$EXTNAMES
290
     1
  9
$PSVPSCALE
 40
0.0
  9
$OLESTARTUP
290
     0
  9
$SORTENTS
280
   127
  9
$INDEXCTL
280
     0
  9
$HIDETEXT
280
     1
  9
$XCLIPFRAME
290
     0
  9
$HALOGAP
280
     0
  9
$OBSCOLOR
 70
   257
  9
$OBSLTYPE
280
     0
  9
$INTERSECTIONDISPLAY
280
     0
  9
$INTERSECTIONCOLOR
 70
   257
  9
$DIMASSOC
280
     1
  9
$PROJECTNAME
  1

  0
ENDSEC
  0
SECTION
  2
CLASSES
  0
CLASS
  1
ACDBDICTIONARYWDFLT
  2
AcDbDictionaryWithDefault
  3
ObjectDBX Classes
 90
        0
 91
        3
280
     0
281
     0
  0
CLASS
  1
SORTENTSTABLE
  2
AcDbSortentsTable
  3
ObjectDBX Classes
 90
        0
 91
        3
280
     0
281
     0
  0
ENDSEC
  0
SECTION
  2
TABLES
  0
TABLE
  2
VPORT
  5
43E
330
0
100
AcDbSymbolTable
 70
     4
  0
VPORT
  5
49
330
43E
100
AcDbSymbolTableRecord
100
AcDbViewportTableRecord
  2
*ACTIVE
 70
     0
 10
0.0
 20
0.0
 11
1.0
 21
1.0
 12
44.495781
 22
4.413427
 13
0.0
 23
0.0
 14
0.083333
 24
0.083333
 15
0.083333
 25
0.083333
 16
0.0
 26
0.0
 36
1.0
 17
0.0
 27
0.0
 37
0.0
 40
8.749607
 41
1.884937
 42
50.0
 43
0.0
 44
0.0
 50
0.0
 51
0.0
 71
     0
 72
   100
 73
     1
 74
     2
 75
     0
 76
     0
 77
     0
 78
     1
281
     0
 65
     1
110
0.0
120
0.0
130
0.0
111
1.0
121
0.0
131
0.0
112
0.0
122
1.0
132
0.0
 79
     0
146
0.0
  0
ENDTAB
  0
TABLE
  2
LTYPE
  5
425
330
0
100
AcDbSymbolTable
 70
     1
  0
LTYPE
  5
426
330
425
100
AcDbSymbolTableRecord
100
AcDbLinetypeTableRecord
  2
ByBlock
 70
     0
  3

 72
    65
 73
     0
 40
0.0
  0
LTYPE
  5
427
330
425
100
AcDbSymbolTableRecord
100
AcDbLinetypeTableRecord
  2
ByLayer
 70
     0
  3

 72
    65
 73
     0
 40
0.0
  0
LTYPE
  5
424
330
425
100
AcDbSymbolTableRecord
100
AcDbLinetypeTableRecord
  2
Continuous
 70
     0
  3
Solid line
 72
    65
 73
     0
 40
0.0
  0
ENDTAB
  0
TABLE
  2
LAYER
  5
41E
102
{ACAD_XDICTIONARY
360
41F
102
}
330
0
100
AcDbSymbolTable
 70
    64
  0
LAYER
  5
41D
330
41E
100
AcDbSymbolTableRecord
100
AcDbLayerTableRecord
  2
0
 70
     0
 62
     7
  6
Continuous
370
    -3
390
421
  0
LAYER
  5
7
330
41E
100
AcDbSymbolTableRecord
100
AcDbLayerTableRecord
  2
Level 1
 70
     0
 62
     7
  6
Continuous
370
     0
390
421
  0
LAYER
  5
8
330
41E
100
AcDbSymbolTableRecord
100
AcDbLayerTableRecord
  2
2-30G
 70
     0
 62
     7
  6
Continuous
370
     0
390
421
1001
AcAecLayerStandard
1000

1000
2-30G
  0
LAYER
  5
9
330
41E
100
AcDbSymbolTableRecord
100
AcDbLayerTableRecord
  2
BORDER
 70
     0
 62
     7
  6
Continuous
370
     0
390
421
1001
AcAecLayerStandard
1000

1000
BORDER
  0
LAYER
  5
A
330
41E
100
AcDbSymbolTableRecord
100
AcDbLayerTableRecord
  2
DEFPOINTS
 70
     0
 62
     7
  6
Continuous
290
     0
370
     0
390
421
1001
AcAecLayerStandard
1000

1000
DEFPOINTS
  0
LAYER
  5
B
330
41E
100
AcDbSymbolTableRecord
100
AcDbLayerTableRecord
  2
DIM
 70
     0
 62
     7
  6
Continuous
370
     0
390
421
1001
AcAecLayerStandard
1000

1000
DIM
  0
LAYER
  5
C
330
41E
100
AcDbSymbolTableRecord
100
AcDbLayerTableRecord
  2
HATCH
 70
     0
 62
     7
  6
Continuous
370
     0
390
421
1001
AcAecLayerStandard
1000

1000
HATCH
  0
LAYER
  5
D
330
41E
100
AcDbSymbolTableRecord
100
AcDbLayerTableRecord
  2
LEGEND
 70
     0
 62
     7
  6
Continuous
370
     0
390
421
1001
AcAecLayerStandard
1000

1000
LEGEND
  0
LAYER
  5
E
330
41E
100
AcDbSymbolTableRecord
100
AcDbLayerTableRecord
  2
REF
 70
     0
 62
     7
  6
Continuous
370
     0
390
421
1001
AcAecLayerStandard
1000

1000
REF
  0
LAYER
  5
F
330
41E
100
AcDbSymbolTableRecord
100
AcDbLayerTableRecord
  2
TEXT
 70
     0
 62
     7
  6
Continuous
370
     0
390
421
1001
AcAecLayerStandard
1000

1000
TEXT
  0
LAYER
  5
10
330
41E
100
AcDbSymbolTableRecord
100
AcDbLayerTableRecord
  2
TITLE
 70
     0
 62
     7
  6
Continuous
370
     0
390
421
1001
AcAecLayerStandard
1000

1000
TITLE
  0
LAYER
  5
11
330
41E
100
AcDbSymbolTableRecord
100
AcDbLayerTableRecord
  2
Level 11
 70
     0
 62
     7
  6
Continuous
370
     0
390
421
  0
LAYER
  5
12
330
41E
100
AcDbSymbolTableRecord
100
AcDbLayerTableRecord
  2
Level 12
 70
     0
 62
     7
  6
Continuous
370
     0
390
421
  0
LAYER
  5
13
330
41E
100
AcDbSymbolTableRecord
100
AcDbLayerTableRecord
  2
Level 13
 70
     0
 62
     7
  6
Continuous
370
     0
390
421
  0
LAYER
  5
14
330
41E
100
AcDbSymbolTableRecord
100
AcDbLayerTableRecord
  2
Level 14
 70
     0
 62
     7
  6
Continuous
370
     0
390
421
  0
LAYER
  5
15
330
41E
100
AcDbSymbolTableRecord
100
AcDbLayerTableRecord
  2
Level 15
 70
     0
 62
     7
  6
Continuous
370
     0
390
421
  0
LAYER
  5
16
330
41E
100
AcDbSymbolTableRecord
100
AcDbLayerTableRecord
  2
Level 16
 70
     0
 62
     7
  6
Continuous
370
     0
390
421
  0
LAYER
  5
17
330
41E
100
AcDbSymbolTableRecord
100
AcDbLayerTableRecord
  2
Level 17
 70
     0
 62
     7
  6
Continuous
370
     0
390
421
  0
LAYER
  5
18
330
41E
100
AcDbSymbolTableRecord
100
AcDbLayerTableRecord
  2
Level 18
 70
     0
 62
     7
  6
Continuous
370
     0
390
421
  0
LAYER
  5
19
330
41E
100
AcDbSymbolTableRecord
100
AcDbLayerTableRecord
  2
Level 19
 70
     0
 62
     7
  6
Continuous
370
     0
390
421
  0
LAYER
  5
1A
330
41E
100
AcDbSymbolTableRecord
100
AcDbLayerTableRecord
  2
Level 20
 70
     0
 62
     7
  6
Continuous
370
     0
390
421
  0
LAYER
  5
1B
330
41E
100
AcDbSymbolTableRecord
100
AcDbLayerTableRecord
  2
Level 21
 70
     0
 62
     7
  6
Continuous
370
     0
390
421
  0
LAYER
  5
1C
330
41E
100
AcDbSymbolTableRecord
100
AcDbLayerTableRecord
  2
Level 22
 70
     0
 62
     7
  6
Continuous
370
     0
390
421
  0
LAYER
  5
1D
330
41E
100
AcDbSymbolTableRecord
100
AcDbLayerTableRecord
  2
Level 23
 70
     0
 62
     7
  6
Continuous
370
     0
390
421
  0
LAYER
  5
1E
330
41E
100
AcDbSymbolTableRecord
100
AcDbLayerTableRecord
  2
Level 24
 70
     0
 62
     7
  6
Continuous
370
     0
390
421
  0
LAYER
  5
1F
330
41E
100
AcDbSymbolTableRecord
100
AcDbLayerTableRecord
  2
Level 25
 70
     0
 62
     7
  6
Continuous
370
     0
390
421
  0
LAYER
  5
20
330
41E
100
AcDbSymbolTableRecord
100
AcDbLayerTableRecord
  2
Level 26
 70
     0
 62
     7
  6
Continuous
370
     0
390
421
  0
LAYER
  5
21
330
41E
100
AcDbSymbolTableRecord
100
AcDbLayerTableRecord
  2
Level 27
 70
     0
 62
     7
  6
Continuous
370
     0
390
421
  0
LAYER
  5
22
330
41E
100
AcDbSymbolTableRecord
100
AcDbLayerTableRecord
  2
Level 28
 70
     0
 62
     7
  6
Continuous
370
     0
390
421
  0
LAYER
  5
23
330
41E
100
AcDbSymbolTableRecord
100
AcDbLayerTableRecord
  2
Level 29
 70
     0
 62
     7
  6
Continuous
370
     0
390
421
  0
LAYER
  5
24
330
41E
100
AcDbSymbolTableRecord
100
AcDbLayerTableRecord
  2
Level 30
 70
     0
 62
     7
  6
Continuous
370
     0
390
421
  0
LAYER
  5
25
330
41E
100
AcDbSymbolTableRecord
100
AcDbLayerTableRecord
  2
Level 31
 70
     0
 62
     7
  6
Continuous
370
     0
390
421
  0
LAYER
  5
26
330
41E
100
AcDbSymbolTableRecord
100
AcDbLayerTableRecord
  2
Level 32
 70
     0
 62
     7
  6
Continuous
370
     0
390
421
  0
LAYER
  5
27
330
41E
100
AcDbSymbolTableRecord
100
AcDbLayerTableRecord
  2
Level 33
 70
     0
 62
     7
  6
Continuous
370
     0
390
421
  0
LAYER
  5
28
330
41E
100
AcDbSymbolTableRecord
100
AcDbLayerTableRecord
  2
Level 34
 70
     0
 62
     7
  6
Continuous
370
     0
390
421
  0
LAYER
  5
29
330
41E
100
AcDbSymbolTableRecord
100
AcDbLayerTableRecord
  2
Level 35
 70
     0
 62
     7
  6
Continuous
370
     0
390
421
  0
LAYER
  5
2A
330
41E
100
AcDbSymbolTableRecord
100
AcDbLayerTableRecord
  2
Level 36
 70
     0
 62
     7
  6
Continuous
370
     0
390
421
  0
LAYER
  5
2B
330
41E
100
AcDbSymbolTableRecord
100
AcDbLayerTableRecord
  2
Level 37
 70
     0
 62
     7
  6
Continuous
370
     0
390
421
  0
LAYER
  5
2C
330
41E
100
AcDbSymbolTableRecord
100
AcDbLayerTableRecord
  2
Level 38
 70
     0
 62
     7
  6
Continuous
370
     0
390
421
  0
LAYER
  5
2D
330
41E
100
AcDbSymbolTableRecord
100
AcDbLayerTableRecord
  2
Level 39
 70
     0
 62
     7
  6
Continuous
370
     0
390
421
  0
LAYER
  5
2E
330
41E
100
AcDbSymbolTableRecord
100
AcDbLayerTableRecord
  2
Level 40
 70
     0
 62
     7
  6
Continuous
370
     0
390
421
  0
LAYER
  5
2F
330
41E
100
AcDbSymbolTableRecord
100
AcDbLayerTableRecord
  2
Level 41
 70
     0
 62
     7
  6
Continuous
370
     0
390
421
  0
LAYER
  5
30
330
41E
100
AcDbSymbolTableRecord
100
AcDbLayerTableRecord
  2
Level 42
 70
     0
 62
     7
  6
Continuous
370
     0
390
421
  0
LAYER
  5
31
330
41E
100
AcDbSymbolTableRecord
100
AcDbLayerTableRecord
  2
Level 43
 70
     0
 62
     7
  6
Continuous
370
     0
390
421
  0
LAYER
  5
32
330
41E
100
AcDbSymbolTableRecord
100
AcDbLayerTableRecord
  2
Level 44
 70
     0
 62
     7
  6
Continuous
370
     0
390
421
  0
LAYER
  5
33
330
41E
100
AcDbSymbolTableRecord
100
AcDbLayerTableRecord
  2
Level 45
 70
     0
 62
     7
  6
Continuous
370
     0
390
421
  0
LAYER
  5
34
330
41E
100
AcDbSymbolTableRecord
100
AcDbLayerTableRecord
  2
Level 46
 70
     0
 62
     7
  6
Continuous
370
     0
390
421
  0
LAYER
  5
35
330
41E
100
AcDbSymbolTableRecord
100
AcDbLayerTableRecord
  2
Level 47
 70
     0
 62
     7
  6
Continuous
370
     0
390
421
  0
LAYER
  5
36
330
41E
100
AcDbSymbolTableRecord
100
AcDbLayerTableRecord
  2
Level 48
 70
     0
 62
     7
  6
Continuous
370
     0
390
421
  0
LAYER
  5
37
330
41E
100
AcDbSymbolTableRecord
100
AcDbLayerTableRecord
  2
Level 49
 70
     0
 62
     7
  6
Continuous
370
     0
390
421
  0
LAYER
  5
38
330
41E
100
AcDbSymbolTableRecord
100
AcDbLayerTableRecord
  2
Level 50
 70
     0
 62
     7
  6
Continuous
370
     0
390
421
  0
LAYER
  5
39
330
41E
100
AcDbSymbolTableRecord
100
AcDbLayerTableRecord
  2
Level 51
 70
     0
 62
     7
  6
Continuous
370
     0
390
421
  0
LAYER
  5
3A
330
41E
100
AcDbSymbolTableRecord
100
AcDbLayerTableRecord
  2
Level 52
 70
     0
 62
     7
  6
Continuous
370
     0
390
421
  0
LAYER
  5
3B
330
41E
100
AcDbSymbolTableRecord
100
AcDbLayerTableRecord
  2
Level 53
 70
     0
 62
     7
  6
Continuous
370
     0
390
421
  0
LAYER
  5
3C
330
41E
100
AcDbSymbolTableRecord
100
AcDbLayerTableRecord
  2
Level 54
 70
     0
 62
     7
  6
Continuous
370
     0
390
421
  0
LAYER
  5
3D
330
41E
100
AcDbSymbolTableRecord
100
AcDbLayerTableRecord
  2
Level 55
 70
     0
 62
     7
  6
Continuous
370
     0
390
421
  0
LAYER
  5
3E
330
41E
100
AcDbSymbolTableRecord
100
AcDbLayerTableRecord
  2
Level 56
 70
     0
 62
     7
  6
Continuous
370
     0
390
421
  0
LAYER
  5
3F
330
41E
100
AcDbSymbolTableRecord
100
AcDbLayerTableRecord
  2
Level 57
 70
     0
 62
     7
  6
Continuous
370
     0
390
421
  0
LAYER
  5
40
330
41E
100
AcDbSymbolTableRecord
100
AcDbLayerTableRecord
  2
Level 58
 70
     0
 62
     7
  6
Continuous
370
     0
390
421
  0
LAYER
  5
41
330
41E
100
AcDbSymbolTableRecord
100
AcDbLayerTableRecord
  2
Level 59
 70
     0
 62
     7
  6
Continuous
370
     0
390
421
  0
LAYER
  5
42
330
41E
100
AcDbSymbolTableRecord
100
AcDbLayerTableRecord
  2
Level 60
 70
     0
 62
     7
  6
Continuous
370
     0
390
421
  0
LAYER
  5
43
330
41E
100
AcDbSymbolTableRecord
100
AcDbLayerTableRecord
  2
Level 61
 70
     0
 62
     7
  6
Continuous
370
     0
390
421
  0
LAYER
  5
44
330
41E
100
AcDbSymbolTableRecord
100
AcDbLayerTableRecord
  2
Level 62
 70
     0
 62
     7
  6
Continuous
370
     0
390
421
  0
LAYER
  5
45
330
41E
100
AcDbSymbolTableRecord
100
AcDbLayerTableRecord
  2
_0
 70
     0
 62
     7
  6
Continuous
370
     0
390
421
1001
AcAecLayerStandard
1000

1000
0
  0
ENDTAB
  0
TABLE
  2
STYLE
  5
429
330
0
100
AcDbSymbolTable
 70
     2
  0
STYLE
  5
428
330
429
100
AcDbSymbolTableRecord
100
AcDbTextStyleTableRecord
  2
Standard
 70
     0
 40
0.0
 41
1.0
 50
0.0
 71
     0
 42
0.12
  3
txt
  4

  0
STYLE
  5
448
330
429
100
AcDbSymbolTableRecord
100
AcDbTextStyleTableRecord
  2
Style-Arial
 70
     0
 40
0.0
 41
1.0
 50
0.0
 71
     0
 42
0.2
  3

  4

1001
ACAD
1000
Arial
1071
       39
  0
ENDTAB
  0
TABLE
  2
VIEW
  5
43C
330
0
100
AcDbSymbolTable
 70
     0
  0
ENDTAB
  0
TABLE
  2
UCS
  5
43D
330
0
100
AcDbSymbolTable
 70
     0
  0
ENDTAB
  0
TABLE
  2
APPID
  5
43B
330
0
100
AcDbSymbolTable
 70
     3
  0
APPID
  5
443
330
43B
100
AcDbSymbolTableRecord
100
AcDbRegAppTableRecord
  2
ACAD
 70
     0
  0
APPID
  5
43A
330
43B
100
AcDbSymbolTableRecord
100
AcDbRegAppTableRecord
  2
ACAD_PSEXT
 70
     0
  0
APPID
  5
445
330
43B
100
AcDbSymbolTableRecord
100
AcDbRegAppTableRecord
  2
AcAecLayerStandard
 70
     0
  0
ENDTAB
  0
TABLE
  2
DIMSTYLE
  5
42B
330
0
100
AcDbSymbolTable
 70
     1
100
AcDbDimStyleTable
  0
DIMSTYLE
105
42A
330
42B
100
AcDbSymbolTableRecord
100
AcDbDimStyleTableRecord
  2
Standard
 70
     0
340
428
  0
ENDTAB
  0
TABLE
  2
BLOCK_RECORD
  5
42E
330
0
100
AcDbSymbolTable
 70
     2
  0
BLOCK_RECORD
  5
42F
102
{ACAD_XDICTIONARY
360
455
102
}
330
42E
100
AcDbSymbolTableRecord
100
AcDbBlockTableRecord
  2
*Model_Space
340
432
  0
BLOCK_RECORD
  5
434
330
42E
100
AcDbSymbolTableRecord
100
AcDbBlockTableRecord
  2
*Paper_Space
340
437
  0
BLOCK_RECORD
  5
449
330
42E
100
AcDbSymbolTableRecord
100
AcDbBlockTableRecord
  2
TerminatorOpen_0.5
340
0
  0
BLOCK_RECORD
  5
452
330
42E
100
AcDbSymbolTableRecord
100
AcDbBlockTableRecord
  2
LARROW
340
0
102
{BLKREFS
331
3B9
331
3BB
331
3BD
102
}
  0
ENDTAB
  0
ENDSEC
  0
SECTION
  2
BLOCKS
  0
BLOCK
  5
430
330
42F
100
AcDbEntity
  8
0
100
AcDbBlockBegin
  2
*Model_Space
 70
     0
 71
     0
 10
0.0
 20
0.0
 30
0.0
  3
*Model_Space
  1

  0
ENDBLK
  5
431
330
42F
100
AcDbEntity
  8
0
100
AcDbBlockEnd
  0
BLOCK
  5
435
330
434
100
AcDbEntity
 67
     1
  8
0
100
AcDbBlockBegin
  2
*Paper_Space
 70
     0
 71
     0
 10
0.0
 20
0.0
 30
0.0
  3
*Paper_Space
  1

  0
ENDBLK
  5
436
330
434
100
AcDbEntity
 67
     1
  8
0
100
AcDbBlockEnd
  0
BLOCK
  5
44D
330
449
100
AcDbEntity
  8
0
100
AcDbBlockBegin
  2
TerminatorOpen_0.5
 70
     0
 71
     0
 10
0.0
 20
0.0
 30
0.0
  3
TerminatorOpen_0.5
  1

  0
LINE
  5
44A
330
449
100
AcDbEntity
  8
0
  6
ByBlock
 62
     0
370
    -2
100
AcDbLine
 10
0.0
 20
0.0
 30
0.0
 11
-1.0
 21
0.0
 31
0.0
  0
LINE
  5
44B
330
449
100
AcDbEntity
  8
0
  6
ByBlock
 62
     0
370
    -2
100
AcDbLine
 10
0.0
 20
0.0
 30
0.0
 11
-1.0
 21
0.25
 31
0.0
  0
LINE
  5
44C
330
449
100
AcDbEntity
  8
0
  6
ByBlock
 62
     0
370
    -2
100
AcDbLine
 10
0.0
 20
0.0
 30
0.0
 11
-1.0
 21
-0.25
 31
0.0
  0
ENDBLK
  5
44E
330
449
100
AcDbEntity
  8
0
100
AcDbBlockEnd
  0
BLOCK
  5
453
330
452
100
AcDbEntity
  8
0
100
AcDbBlockBegin
  2
LARROW
 70
     0
 71
     0
 10
0.0
 20
0.0
 30
0.0
  3
LARROW
  1

  0
LWPOLYLINE
  5
3BA
330
452
100
AcDbEntity
  8
DIM
  6
Continuous
 62
     7
370
    13
100
AcDbPolyline
 90
       63
 70
   128
 43
0.0
 10
-0.013031
 20
0.001885
 10
0.0
 20
0.0
 10
-0.013021
 20
-0.001885
 10
-0.012615
 20
-0.001573
 10
-0.012042
 20
-0.00101
 10
-0.01176
 20
-0.00049
 10
-0.011687
 20
0.0
 10
-0.011792
 20
0.000552
 10
-0.012094
 20
0.001094
 10
-0.012677
 20
0.001625
 10
-0.013031
 20
0.001885
 10
-0.000385
 20
0.000021
 10
-0.012604
 20
-0.00176
 10
-0.012229
 20
-0.001479
 10
-0.011625
 20
-0.000906
 10
-0.011427
 20
-0.000167
 10
-0.011562
 20
0.000573
 10
-0.011917
 20
0.001083
 10
-0.012344
 20
0.0015
 10
-0.012635
 20
0.001729
 10
-0.001073
 20
0.000021
 10
-0.012052
 20
-0.001552
 10
-0.011667
 20
-0.001302
 10
-0.011469
 20
-0.000979
 10
-0.01125
 20
-0.000563
 10
-0.011135
 20
0.000021
 10
-0.011198
 20
0.0005
 10
-0.011427
 20
0.000875
 10
-0.011896
 20
0.001177
 10
-0.012208
 20
0.001542
 10
-0.001875
 20
0.000021
 10
-0.011448
 20
-0.001323
 10
-0.011021
 20
-0.000792
 10
-0.010896
 20
-0.000146
 10
-0.010958
 20
0.000573
 10
-0.011781
 20
0.001354
 10
-0.002771
 20
0.000063
 10
-0.010896
 20
-0.001073
 10
-0.010781
 20
-0.000698
 10
-0.010531
 20
-0.000094
 10
-0.010687
 20
0.000552
 10
-0.011333
 20
0.001125
 10
-0.003594
 20
0.000063
 10
-0.010604
 20
-0.000833
 10
-0.010375
 20
-0.000375
 10
-0.010271
 20
0.000115
 10
-0.01076
 20
0.000875
 10
-0.004573
 20
0.000063
 10
-0.010177
 20
-0.000625
 10
-0.010021
 20
-0.000281
 10
-0.009979
 20
0.000115
 10
-0.010375
 20
0.000667
 10
-0.00574
 20
0.000063
 10
-0.009823
 20
-0.000396
 10
-0.009708
 20
0.000135
 10
-0.010083
 20
0.000458
 10
-0.006698
 20
0.000063
 10
-0.009552
 20
-0.00024
 10
-0.009615
 20
0.000271
 10
-0.007677
 20
0.000063
 10
-0.009437
 20
-0.000073
 10
-0.00949
 20
0.000083
 10
-0.008885
 20
0.000083
  0
ENDBLK
  5
454
330
452
100
AcDbEntity
  8
0
100
AcDbBlockEnd
  0
ENDSEC
  0
SECTION
  2
ENTITIES
  0
POINT
  5
5B
330
42F
100
AcDbEntity
  8
_0
  6
Continuous
 62
     7
370
    30
100
AcDbPoint
 10
39.982687
 20
8.038427
 30
0.0
  0
LINE
  5
5C
330
42F
100
AcDbEntity
  8
_0
  6
Continuous
 62
     7
370
    30
100
AcDbLine
 10
45.213583
 20
7.861885
 30
0.0
 11
44.56775
 21
7.894177
 31
0.0
  0
LINE
  5
5D
330
42F
100
AcDbEntity
  8
_0
  6
Continuous
 62
     7
370
    13
100
AcDbLine
 10
40.282688
 20
4.574219
 30
0.0
 11
40.282688
 21
5.00851
 31
0.0
  0
LINE
  5
5E
330
42F
100
AcDbEntity
  8
_0
  6
Continuous
 62
     7
370
    13
100
AcDbLine
 10
40.282688
 20
5.063729
 30
0.0
 11
40.266073
 21
5.043969
 31
0.0
  0
LINE
  5
5F
330
42F
100
AcDbEntity
  8
_0
  6
Continuous
 62
     7
370
    13
100
AcDbLine
 10
40.266073
 20
5.043969
 30
0.0
 11
40.322583
 21
5.063687
 31
0.0
  0
LINE
  5
60
330
42F
100
AcDbEntity
  8
_0
  6
Continuous
 62
     7
370
    13
100
AcDbLine
 10
40.322583
 20
5.063687
 30
0.0
 11
40.245083
 21
5.018333
 31
0.0
  0
LINE
  5
61
330
42F
100
AcDbEntity
  8
_0
  6
Continuous
 62
     7
370
    13
100
AcDbLine
 10
40.245083
 20
5.018333
 30
0.0
 11
40.298365
 21
5.026219
 31
0.0
  0
LINE
  5
62
330
42F
100
AcDbEntity
  8
_0
  6
Continuous
 62
     7
370
    13
100
AcDbLine
 10
40.298365
 20
5.026219
 30
0.0
 11
40.282656
 21
5.008469
 31
0.0
  0
LINE
  5
63
330
42F
100
AcDbEntity
  8
_0
  6
Continuous
 62
     7
370
    13
100
AcDbLine
 10
40.282688
 20
5.063729
 30
0.0
 11
40.282688
 21
5.520708
 31
0.0
  0
LINE
  5
64
330
42F
100
AcDbEntity
  8
_0
  6
Continuous
 62
     7
370
    13
100
AcDbLine
 10
48.782688
 20
5.063729
 30
0.0
 11
48.782688
 21
5.520708
 31
0.0
  0
LINE
  5
65
330
42F
100
AcDbEntity
  8
_0
  6
Continuous
 62
     7
370
    13
100
AcDbLine
 10
43.496812
 20
1.876187
 30
0.0
 11
43.225646
 21
1.891687
 31
0.0
  0
LINE
  5
66
330
42F
100
AcDbEntity
  8
_0
  6
Continuous
 62
     7
370
    13
100
AcDbLine
 10
43.514552
 20
1.860479
 30
0.0
 11
43.496812
 21
1.876187
 31
0.0
  0
LINE
  5
67
330
42F
100
AcDbEntity
  8
_0
  6
Continuous
 62
     7
370
    13
100
AcDbLine
 10
43.506667
 20
1.91376
 30
0.0
 11
43.514552
 21
1.860479
 31
0.0
  0
LINE
  5
68
330
42F
100
AcDbEntity
  8
_0
  6
Continuous
 62
     7
370
    13
100
AcDbLine
 10
43.552021
 20
1.83626
 30
0.0
 11
43.506667
 21
1.91376
 31
0.0
  0
LINE
  5
69
330
42F
100
AcDbEntity
  8
_0
  6
Continuous
 62
     7
370
    13
100
AcDbLine
 10
43.532302
 20
1.892771
 30
0.0
 11
43.552021
 21
1.83626
 31
0.0
  0
LINE
  5
6A
330
42F
100
AcDbEntity
  8
_0
  6
Continuous
 62
     7
370
    13
100
AcDbLine
 10
43.556052
 20
1.872802
 30
0.0
 11
43.532302
 21
1.892771
 31
0.0
  0
LINE
  5
6B
330
42F
100
AcDbEntity
  8
_0
  6
Continuous
 62
     7
370
    30
100
AcDbLine
 10
45.230375
 20
7.845198
 30
0.0
 11
45.213552
 21
7.861906
 31
0.0
  0
LINE
  5
6C
330
42F
100
AcDbEntity
  8
_0
  6
Continuous
 62
     7
370
    30
100
AcDbLine
 10
45.225552
 20
7.898844
 30
0.0
 11
45.230375
 21
7.845198
 31
0.0
  0
LINE
  5
6D
330
42F
100
AcDbEntity
  8
_0
  6
Continuous
 62
     7
370
    30
100
AcDbLine
 10
45.266396
 20
7.818865
 30
0.0
 11
45.225552
 21
7.898844
 31
0.0
  0
LINE
  5
6E
330
42F
100
AcDbEntity
  8
_0
  6
Continuous
 62
     7
370
    30
100
AcDbLine
 10
45.249948
 20
7.876417
 30
0.0
 11
45.266396
 21
7.818865
 31
0.0
  0
LINE
  5
6F
330
42F
100
AcDbEntity
  8
_0
  6
Continuous
 62
     7
370
    30
100
AcDbLine
 10
45.268687
 20
7.85874
 30
0.0
 11
45.249948
 21
7.876417
 31
0.0
  0
LINE
  5
70
330
42F
100
AcDbEntity
  8
_0
  6
Continuous
 62
     7
370
    13
100
AcDbLine
 10
48.798365
 20
5.026219
 30
0.0
 11
48.782656
 21
5.008469
 31
0.0
  0
LINE
  5
71
330
42F
100
AcDbEntity
  8
_0
  6
Continuous
 62
     7
370
    13
100
AcDbLine
 10
48.745083
 20
5.018333
 30
0.0
 11
48.798365
 21
5.026219
 31
0.0
  0
LINE
  5
72
330
42F
100
AcDbEntity
  8
_0
  6
Continuous
 62
     7
370
    13
100
AcDbLine
 10
48.822583
 20
5.063687
 30
0.0
 11
48.745083
 21
5.018333
 31
0.0
  0
LINE
  5
73
330
42F
100
AcDbEntity
  8
_0
  6
Continuous
 62
     7
370
    13
100
AcDbLine
 10
48.766073
 20
5.043969
 30
0.0
 11
48.822583
 21
5.063687
 31
0.0
  0
LINE
  5
74
330
42F
100
AcDbEntity
  8
_0
  6
Continuous
 62
     7
370
    13
100
AcDbLine
 10
48.782688
 20
5.063729
 30
0.0
 11
48.766073
 21
5.043969
 31
0.0
  0
LINE
  5
7D
330
42F
100
AcDbEntity
  8
_0
  6
Continuous
 62
     7
370
    13
100
AcDbLine
 10
45.850437
 20
4.46976
 30
0.0
 11
45.907854
 21
4.586615
 31
0.0
  0
LINE
  5
7E
330
42F
100
AcDbEntity
  8
_0
  6
Continuous
 62
     7
370
    13
100
AcDbLine
 10
44.223521
 20
3.020177
 30
0.0
 11
44.395781
 21
2.996792
 31
0.0
  0
LINE
  5
A4
330
42F
100
AcDbEntity
  8
BORDER
  6
Continuous
 62
     7
370
    30
100
AcDbLine
 10
45.83225
 20
3.843125
 30
0.0
 11
45.83225
 21
3.983125
 31
0.0
  0
LINE
  5
A5
330
42F
100
AcDbEntity
  8
BORDER
  6
Continuous
 62
     7
370
    30
100
AcDbLine
 10
45.73225
 20
3.843125
 30
0.0
 11
45.73225
 21
3.983125
 31
0.0
  0
LINE
  5
A6
330
42F
100
AcDbEntity
  8
BORDER
  6
Continuous
 62
     7
370
    30
100
AcDbLine
 10
45.63225
 20
3.843125
 30
0.0
 11
45.63225
 21
3.983125
 31
0.0
  0
LINE
  5
A7
330
42F
100
AcDbEntity
  8
BORDER
  6
Continuous
 62
     7
370
    30
100
AcDbLine
 10
45.53225
 20
3.843125
 30
0.0
 11
45.53225
 21
3.983125
 31
0.0
  0
LINE
  5
A8
330
42F
100
AcDbEntity
  8
BORDER
  6
Continuous
 62
     7
370
    30
100
AcDbLine
 10
45.43225
 20
3.843125
 30
0.0
 11
45.43225
 21
3.983125
 31
0.0
  0
LINE
  5
A9
330
42F
100
AcDbEntity
  8
BORDER
  6
Continuous
 62
     7
370
    30
100
AcDbLine
 10
45.33225
 20
3.843125
 30
0.0
 11
45.33225
 21
3.983125
 31
0.0
  0
LINE
  5
AA
330
42F
100
AcDbEntity
  8
BORDER
  6
Continuous
 62
     7
370
    30
100
AcDbLine
 10
45.23225
 20
3.843125
 30
0.0
 11
45.23225
 21
3.983125
 31
0.0
  0
LWPOLYLINE
  5
AB
330
42F
100
AcDbEntity
  8
BORDER
  6
Continuous
 62
     7
370
    70
100
AcDbPolyline
 90
        2
 70
   128
 43
0.0
 10
45.869937
 20
4.16524
 10
45.180031
 20
4.16524
  0
LINE
  5
AC
330
42F
100
AcDbEntity
  8
BORDER
  6
Continuous
 62
     7
370
    30
100
AcDbLine
 10
45.246333
 20
3.698833
 30
0.0
 11
45.333833
 21
3.698833
 31
0.0
  0
LINE
  5
AD
330
42F
100
AcDbEntity
  8
BORDER
  6
Continuous
 62
     7
370
    30
100
AcDbLine
 10
45.246333
 20
3.628833
 30
0.0
 11
45.333833
 21
3.628833
 31
0.0
  0
LINE
  5
AE
330
42F
100
AcDbEntity
  8
BORDER
  6
Continuous
 62
     7
370
    30
100
AcDbLine
 10
45.333833
 20
3.698833
 30
0.0
 11
45.246333
 21
3.628833
 31
0.0
  0
LINE
  5
AF
330
42F
100
AcDbEntity
  8
BORDER
  6
Continuous
 62
     7
370
    30
100
AcDbLine
 10
45.456583
 20
3.698833
 30
0.0
 11
45.369083
 21
3.628833
 31
0.0
  0
LINE
  5
B0
330
42F
100
AcDbEntity
  8
BORDER
  6
Continuous
 62
     7
370
    30
100
AcDbLine
 10
45.369083
 20
3.628833
 30
0.0
 11
45.456583
 21
3.628833
 31
0.0
  0
LINE
  5
B1
330
42F
100
AcDbEntity
  8
BORDER
  6
Continuous
 62
     7
370
    30
100
AcDbLine
 10
45.369083
 20
3.698833
 30
0.0
 11
45.456583
 21
3.698833
 31
0.0
  0
LINE
  5
B2
330
42F
100
AcDbEntity
  8
BORDER
  6
Continuous
 62
     7
370
    30
100
AcDbLine
 10
45.753656
 20
3.698833
 30
0.0
 11
45.841156
 21
3.698833
 31
0.0
  0
LINE
  5
B3
330
42F
100
AcDbEntity
  8
BORDER
  6
Continuous
 62
     7
370
    30
100
AcDbLine
 10
45.753656
 20
3.628833
 30
0.0
 11
45.841156
 21
3.628833
 31
0.0
  0
LINE
  5
B4
330
42F
100
AcDbEntity
  8
BORDER
  6
Continuous
 62
     7
370
    30
100
AcDbLine
 10
45.841156
 20
3.698833
 30
0.0
 11
45.753656
 21
3.628833
 31
0.0
  0
LINE
  5
B5
330
42F
100
AcDbEntity
  8
BORDER
  6
Continuous
 62
     7
370
    30
100
AcDbLine
 10
45.615052
 20
3.698833
 30
0.0
 11
45.702552
 21
3.698833
 31
0.0
  0
LINE
  5
B6
330
42F
100
AcDbEntity
  8
BORDER
  6
Continuous
 62
     7
370
    30
100
AcDbLine
 10
45.615052
 20
3.628833
 30
0.0
 11
45.702552
 21
3.628833
 31
0.0
  0
LINE
  5
B7
330
42F
100
AcDbEntity
  8
BORDER
  6
Continuous
 62
     7
370
    30
100
AcDbLine
 10
45.702552
 20
3.698833
 30
0.0
 11
45.615052
 21
3.628833
 31
0.0
  0
LINE
  5
B8
330
42F
100
AcDbEntity
  8
BORDER
  6
Continuous
 62
     7
370
    30
100
AcDbLine
 10
45.579802
 20
3.698833
 30
0.0
 11
45.492302
 21
3.628833
 31
0.0
  0
LINE
  5
B9
330
42F
100
AcDbEntity
  8
BORDER
  6
Continuous
 62
     7
370
    30
100
AcDbLine
 10
45.492302
 20
3.628833
 30
0.0
 11
45.579802
 21
3.628833
 31
0.0
  0
LINE
  5
BA
330
42F
100
AcDbEntity
  8
BORDER
  6
Continuous
 62
     7
370
    30
100
AcDbLine
 10
45.492302
 20
3.698833
 30
0.0
 11
45.579802
 21
3.698833
 31
0.0
  0
LINE
  5
BB
330
42F
100
AcDbEntity
  8
BORDER
  6
Continuous
 62
     7
370
    30
100
AcDbLine
 10
45.675073
 20
3.224427
 30
0.0
 11
45.675073
 21
3.364427
 31
0.0
  0
LINE
  5
BC
330
42F
100
AcDbEntity
  8
BORDER
  6
Continuous
 62
     7
370
    30
100
AcDbLine
 10
45.532208
 20
3.224427
 30
0.0
 11
45.532208
 21
3.364427
 31
0.0
  0
LINE
  5
BD
330
42F
100
AcDbEntity
  8
BORDER
  6
Continuous
 62
     7
370
    30
100
AcDbLine
 10
45.23225
 20
3.224427
 30
0.0
 11
45.23225
 21
3.364427
 31
0.0
  0
LINE
  5
BE
330
42F
100
AcDbEntity
  8
BORDER
  6
Continuous
 62
     7
370
    30
100
AcDbLine
 10
45.381115
 20
3.224427
 30
0.0
 11
45.381115
 21
3.364427
 31
0.0
  0
LINE
  5
BF
330
42F
100
AcDbEntity
  8
BORDER
  6
Continuous
 62
     7
370
    30
100
AcDbLine
 10
45.823333
 20
3.224427
 30
0.0
 11
45.823333
 21
3.364427
 31
0.0
  0
LINE
  5
C0
330
42F
100
AcDbEntity
  8
BORDER
  6
Continuous
 62
     7
370
    30
100
AcDbLine
 10
45.869937
 20
3.293583
 30
0.0
 11
45.180031
 21
3.293583
 31
0.0
  0
LINE
  5
C1
330
42F
100
AcDbEntity
  8
BORDER
  6
Continuous
 62
     7
370
    30
100
AcDbLine
 10
45.869937
 20
3.667146
 30
0.0
 11
45.180031
 21
3.667146
 31
0.0
  0
LINE
  5
C2
330
42F
100
AcDbEntity
  8
BORDER
  6
Continuous
 62
     7
370
    30
100
AcDbLine
 10
45.869937
 20
3.916187
 30
0.0
 11
45.180031
 21
3.916187
 31
0.0
  0
LINE
  5
C3
330
42F
100
AcDbEntity
  8
_0
  6
Continuous
 62
     7
370
    30
100
AcDbLine
 10
47.198187
 20
5.413427
 30
0.0
 11
48.782688
 21
5.413427
 31
0.0
  0
LINE
  5
C4
330
42F
100
AcDbEntity
  8
_0
  6
Continuous
 62
     7
370
    30
100
AcDbLine
 10
46.285688
 20
4.663427
 30
0.0
 11
48.782688
 21
4.663427
 31
0.0
  0
LWPOLYLINE
  5
C5
330
42F
100
AcDbEntity
  8
_0
  6
Continuous
 62
     7
370
    30
100
AcDbPolyline
 90
       15
 70
   128
 43
0.0
 10
44.132686
 20
1.839856
 42
-0.041167
 10
44.182835
 20
2.57966
 42
-0.050693
 10
44.332686
 20
3.163427
 10
44.332686
 20
3.163427
 42
-0.006984
 10
44.495722
 20
3.588127
 10
44.495722
 20
3.588126
 42
-0.037929
 10
44.532686
 20
3.663427
 42
-0.050208
 10
44.722989
 20
3.923077
 42
-0.045658
 10
44.982686
 20
4.163427
 42
-0.015317
 10
45.020962
 20
4.191034
 10
45.020962
 20
4.191034
 42
-0.004104
 10
45.167686
 20
4.288427
 10
45.167686
 20
4.288427
 42
-0.085686
 10
45.645358
 20
4.494248
 42
-0.073509
 10
46.227782
 20
4.5463
  0
LWPOLYLINE
  5
D0
330
42F
100
AcDbEntity
  8
_0
  6
Continuous
 62
     7
370
    30
100
AcDbPolyline
 90
       15
 70
   128
 43
0.0
 10
43.333122
 20
1.885545
 42
0.038631
 10
43.282537
 20
2.57966
 42
0.050693
 10
43.132686
 20
3.163427
 10
43.132686
 20
3.163427
 42
0.006984
 10
42.96965
 20
3.588127
 10
42.96965
 20
3.588126
 42
0.037929
 10
42.932686
 20
3.663427
 42
0.050208
 10
42.742383
 20
3.923077
 42
0.045658
 10
42.482686
 20
4.163427
 42
0.015317
 10
42.44441
 20
4.191034
 10
42.44441
 20
4.191034
 42
0.004104
 10
42.297686
 20
4.288427
 10
42.297686
 20
4.288427
 42
0.085686
 10
41.820015
 20
4.494248
 42
0.073509
 10
41.23759
 20
4.5463
  0
LINE
  5
E7
330
42F
100
AcDbEntity
  8
_0
  6
Continuous
 62
     7
370
    13
100
AcDbLine
 10
43.221312
 20
3.008354
 30
0.0
 11
42.985469
 21
3.008354
 31
0.0
  0
LINE
  5
E8
330
42F
100
AcDbEntity
  8
_0
  6
Continuous
 62
     7
370
    13
100
AcDbLine
 10
41.678698
 20
5.492406
 30
0.0
 11
41.61974
 21
5.648417
 31
0.0
  0
LINE
  5
E9
330
42F
100
AcDbEntity
  8
_0
  6
Continuous
 62
     7
370
    30
100
AcDbLine
 10
41.870198
 20
5.413427
 30
0.0
 11
41.870198
 21
5.49125
 31
0.0
  0
LINE
  5
EA
330
42F
100
AcDbEntity
  8
_0
  6
Continuous
 62
     7
370
    13
100
AcDbLine
 10
43.95849
 20
6.608458
 30
0.0
 11
43.752125
 21
6.644458
 31
0.0
  0
LINE
  5
EB
330
42F
100
AcDbEntity
  8
_0
  6
Continuous
 62
     7
370
    13
100
AcDbLine
 10
44.155021
 20
6.944469
 30
0.0
 11
43.899521
 21
6.908469
 31
0.0
  0
LINE
  5
EC
330
42F
100
AcDbEntity
  8
_0
  6
Continuous
 62
     7
370
    13
100
AcDbLine
 10
45.402448
 20
7.29276
 30
0.0
 11
45.687365
 21
7.32876
 31
0.0
  0
LINE
  5
ED
330
42F
100
AcDbEntity
  8
_0
  6
Continuous
 62
     7
370
    13
100
AcDbLine
 10
46.748958
 20
5.4685
 30
0.0
 11
46.827573
 21
5.660448
 31
0.0
  0
CIRCLE
  5
EE
330
42F
100
AcDbEntity
  8
_0
  6
Continuous
 62
     7
370
    30
100
AcDbCircle
 10
44.154985
 20
2.697563
 30
0.0
 40
0.25
  0
CIRCLE
  5
EF
330
42F
100
AcDbEntity
  8
_0
  6
Continuous
 62
     7
370
    30
100
AcDbCircle
 10
42.671423
 20
4.089136
 30
0.0
 40
0.25
  0
CIRCLE
  5
F0
330
42F
100
AcDbEntity
  8
_0
  6
Continuous
 62
     7
370
    30
100
AcDbCircle
 10
47.092741
 20
5.420727
 30
0.0
 40
0.25
  0
LINE
  5
F1
330
42F
100
AcDbEntity
  8
_0
  6
Continuous
 62
     7
370
    13
100
AcDbLine
 10
41.638344
 20
4.605917
 30
0.0
 11
41.443312
 21
4.449021
 31
0.0
  0
LINE
  5
F2
330
42F
100
AcDbEntity
  8
_0
  6
Continuous
 62
     7
370
    30
100
AcDbLine
 10
43.247687
 20
3.163427
 30
0.0
 11
43.144823
 21
3.129833
 31
0.0
  0
LINE
  5
F3
330
42F
100
AcDbEntity
  8
_0
  6
Continuous
 62
     7
370
    30
100
AcDbLine
 10
43.047688
 20
3.663427
 30
0.0
 11
42.95601
 21
3.619385
 31
0.0
  0
LINE
  5
F4
330
42F
100
AcDbEntity
  8
_0
  6
Continuous
 62
     7
370
    30
100
AcDbLine
 10
42.772687
 20
4.163427
 30
0.0
 11
42.636052
 21
4.032281
 31
0.0
  0
LINE
  5
F5
330
42F
100
AcDbEntity
  8
_0
  6
Continuous
 62
     7
370
    30
100
AcDbLine
 10
44.117687
 20
2.663427
 30
0.0
 11
44.199708
 21
2.663427
 31
0.0
  0
LINE
  5
F6
330
42F
100
AcDbEntity
  8
_0
  6
Continuous
 62
     7
370
    30
100
AcDbLine
 10
44.217687
 20
3.163427
 30
0.0
 11
44.320552
 21
3.129833
 31
0.0
  0
LINE
  5
F7
330
42F
100
AcDbEntity
  8
_0
  6
Continuous
 62
     7
370
    30
100
AcDbLine
 10
44.417687
 20
3.663427
 30
0.0
 11
44.509354
 21
3.619385
 31
0.0
  0
LINE
  5
F8
330
42F
100
AcDbEntity
  8
_0
  6
Continuous
 62
     7
370
    30
100
AcDbLine
 10
44.692687
 20
4.163427
 30
0.0
 11
44.829323
 21
4.032281
 31
0.0
  0
LINE
  5
F9
330
42F
100
AcDbEntity
  8
_0
  6
Continuous
 62
     7
370
    30
100
AcDbLine
 10
45.167687
 20
4.363427
 30
0.0
 11
45.167687
 21
4.288427
 31
0.0
  0
LINE
  5
FA
330
42F
100
AcDbEntity
  8
_0
  6
Continuous
 62
     7
370
    30
100
AcDbLine
 10
43.342625
 20
6.016687
 30
0.0
 11
43.408969
 21
6.139979
 31
0.0
  0
LINE
  5
FB
330
42F
100
AcDbEntity
  8
_0
  6
Continuous
 62
     7
370
    30
100
AcDbLine
 10
45.507792
 20
6.080802
 30
0.0
 11
45.631885
 21
6.139792
 31
0.0
  0
LINE
  5
FC
330
42F
100
AcDbEntity
  8
_0
  6
Continuous
 62
     7
370
    30
100
AcDbLine
 10
44.927896
 20
7.481677
 30
0.0
 11
44.969365
 21
7.558729
 31
0.0
  0
LINE
  5
FD
330
42F
100
AcDbEntity
  8
_0
  6
Continuous
 62
     7
370
    30
100
AcDbLine
 10
44.989542
 20
7.44851
 30
0.0
 11
45.031
 21
7.525562
 31
0.0
  0
LINE
  5
FE
330
42F
100
AcDbEntity
  8
_0
  6
Continuous
 62
     7
370
    30
100
AcDbLine
 10
44.969365
 20
7.558729
 30
0.0
 11
44.989542
 21
7.44851
 31
0.0
  0
LINE
  5
FF
330
42F
100
AcDbEntity
  8
_0
  6
Continuous
 62
     7
370
    30
100
AcDbLine
 10
45.027531
 20
7.666833
 30
0.0
 11
45.047708
 21
7.556615
 31
0.0
  0
LINE
  5
100
330
42F
100
AcDbEntity
  8
_0
  6
Continuous
 62
     7
370
    30
100
AcDbLine
 10
45.047708
 20
7.556615
 30
0.0
 11
45.089177
 21
7.633667
 31
0.0
  0
LINE
  5
101
330
42F
100
AcDbEntity
  8
_0
  6
Continuous
 62
     7
370
    30
100
AcDbLine
 10
44.986073
 20
7.589781
 30
0.0
 11
45.027531
 21
7.666833
 31
0.0
  0
LINE
  5
102
330
42F
100
AcDbEntity
  8
_0
  6
Continuous
 62
     7
370
    30
100
AcDbLine
 10
45.093208
 20
7.788885
 30
0.0
 11
45.113385
 21
7.678656
 31
0.0
  0
LINE
  5
103
330
42F
100
AcDbEntity
  8
_0
  6
Continuous
 62
     7
370
    30
100
AcDbLine
 10
45.113385
 20
7.678656
 30
0.0
 11
45.154854
 21
7.755708
 31
0.0
  0
LINE
  5
104
330
42F
100
AcDbEntity
  8
_0
  6
Continuous
 62
     7
370
    30
100
AcDbLine
 10
45.05175
 20
7.711833
 30
0.0
 11
45.093208
 21
7.788885
 31
0.0
  0
LINE
  5
105
330
42F
100
AcDbEntity
  8
_0
  6
Continuous
 62
     7
370
    30
100
AcDbLine
 10
45.590177
 20
7.651063
 30
0.0
 11
45.466896
 21
7.717396
 31
0.0
  0
LINE
  5
106
330
42F
100
AcDbEntity
  8
_0
  6
Continuous
 62
     7
370
    30
100
AcDbLine
 10
45.442406
 20
7.374292
 30
0.0
 11
45.319125
 21
7.440635
 31
0.0
  0
LINE
  5
107
330
42F
100
AcDbEntity
  8
_0
  6
Continuous
 62
     7
370
    30
100
AcDbLine
 10
45.489792
 20
7.462344
 30
0.0
 11
45.36651
 21
7.528687
 31
0.0
  0
LINE
  5
108
330
42F
100
AcDbEntity
  8
_0
  6
Continuous
 62
     7
370
    30
100
AcDbLine
 10
45.537177
 20
7.550406
 30
0.0
 11
45.413896
 21
7.61675
 31
0.0
  0
LINE
  5
109
330
42F
100
AcDbEntity
  8
_0
  6
Continuous
 62
     7
370
    30
100
AcDbLine
 10
44.469
 20
7.120552
 30
0.0
 11
44.535344
 21
7.243833
 31
0.0
  0
LINE
  5
10A
330
42F
100
AcDbEntity
  8
_0
  6
Continuous
 62
     7
370
    30
100
AcDbLine
 10
44.59551
 20
7.046135
 30
0.0
 11
44.661854
 21
7.169427
 31
0.0
  0
LINE
  5
10B
330
42F
100
AcDbEntity
  8
_0
  6
Continuous
 62
     7
370
    30
100
AcDbLine
 10
44.732927
 20
6.970219
 30
0.0
 11
44.799271
 21
7.0935
 31
0.0
  0
LINE
  5
10C
330
42F
100
AcDbEntity
  8
_0
  6
Continuous
 62
     7
370
    30
100
AcDbLine
 10
45.183031
 20
6.919573
 30
0.0
 11
45.05975
 21
6.985917
 31
0.0
  0
LINE
  5
10D
330
42F
100
AcDbEntity
  8
_0
  6
Continuous
 62
     7
370
    30
100
AcDbLine
 10
45.230417
 20
7.007635
 30
0.0
 11
45.107135
 21
7.073969
 31
0.0
  0
LINE
  5
10E
330
42F
100
AcDbEntity
  8
_0
  6
Continuous
 62
     7
370
    30
100
AcDbLine
 10
45.277802
 20
7.095687
 30
0.0
 11
45.154521
 21
7.162031
 31
0.0
  0
LINE
  5
10F
330
42F
100
AcDbEntity
  8
_0
  6
Continuous
 62
     7
370
    30
100
AcDbLine
 10
45.325187
 20
7.18375
 30
0.0
 11
45.201906
 21
7.250094
 31
0.0
  0
LINE
  5
110
330
42F
100
AcDbEntity
  8
_0
  6
Continuous
 62
     7
370
    30
100
AcDbLine
 10
44.862146
 20
6.904979
 30
0.0
 11
44.928479
 21
7.02826
 31
0.0
  0
LINE
  5
111
330
42F
100
AcDbEntity
  8
_0
  6
Continuous
 62
     7
370
    30
100
AcDbLine
 10
44.99149
 20
6.843417
 30
0.0
 11
45.057833
 21
6.966698
 31
0.0
  0
LINE
  5
112
330
42F
100
AcDbEntity
  8
_0
  6
Continuous
 62
     7
370
    30
100
AcDbLine
 10
44.857427
 20
7.36674
 30
0.0
 11
44.898885
 21
7.443792
 31
0.0
  0
LINE
  5
113
330
42F
100
AcDbEntity
  8
_0
  6
Continuous
 62
     7
370
    30
100
AcDbLine
 10
44.919062
 20
7.333573
 30
0.0
 11
44.960531
 21
7.410625
 31
0.0
  0
LINE
  5
114
330
42F
100
AcDbEntity
  8
_0
  6
Continuous
 62
     7
370
    30
100
AcDbLine
 10
44.898885
 20
7.443792
 30
0.0
 11
44.919062
 21
7.333573
 31
0.0
  0
LINE
  5
115
330
42F
100
AcDbEntity
  8
_0
  6
Continuous
 62
     7
370
    30
100
AcDbLine
 10
44.79175
 20
7.244687
 30
0.0
 11
44.833208
 21
7.32174
 31
0.0
  0
LINE
  5
116
330
42F
100
AcDbEntity
  8
_0
  6
Continuous
 62
     7
370
    30
100
AcDbLine
 10
44.853385
 20
7.211521
 30
0.0
 11
44.894854
 21
7.288573
 31
0.0
  0
LINE
  5
117
330
42F
100
AcDbEntity
  8
_0
  6
Continuous
 62
     7
370
    30
100
AcDbLine
 10
44.833208
 20
7.32174
 30
0.0
 11
44.853385
 21
7.211521
 31
0.0
  0
LINE
  5
118
330
42F
100
AcDbEntity
  8
_0
  6
Continuous
 62
     7
370
    30
100
AcDbLine
 10
44.775042
 20
7.213646
 30
0.0
 11
44.795219
 21
7.103417
 31
0.0
  0
LINE
  5
119
330
42F
100
AcDbEntity
  8
_0
  6
Continuous
 62
     7
370
    30
100
AcDbLine
 10
44.795219
 20
7.103417
 30
0.0
 11
44.836677
 21
7.180469
 31
0.0
  0
LINE
  5
11A
330
42F
100
AcDbEntity
  8
_0
  6
Continuous
 62
     7
370
    30
100
AcDbLine
 10
44.733573
 20
7.136594
 30
0.0
 11
44.775042
 21
7.213646
 31
0.0
  0
LINE
  5
11B
330
42F
100
AcDbEntity
  8
_0
  6
Continuous
 62
     7
370
    30
100
AcDbLine
 10
45.263604
 20
6.688948
 30
0.0
 11
45.329948
 21
6.812229
 31
0.0
  0
LINE
  5
11C
330
42F
100
AcDbEntity
  8
_0
  6
Continuous
 62
     7
370
    30
100
AcDbLine
 10
45.122479
 20
6.764885
 30
0.0
 11
45.188823
 21
6.888167
 31
0.0
  0
LINE
  5
11D
330
42F
100
AcDbEntity
  8
_0
  6
Continuous
 62
     7
370
    30
100
AcDbLine
 10
45.297396
 20
7.251542
 30
0.0
 11
44.282688
 21
5.413427
 31
0.0
  0
LINE
  5
11E
330
42F
100
AcDbEntity
  8
_0
  6
Continuous
 62
     7
370
    30
100
AcDbLine
 10
46.622781
 20
5.480115
 30
0.0
 11
46.668594
 21
5.422854
 31
0.0
  0
LINE
  5
11F
330
42F
100
AcDbEntity
  8
_0
  6
Continuous
 62
     7
370
    30
100
AcDbLine
 10
46.668594
 20
5.422854
 30
0.0
 11
46.668594
 21
5.480115
 31
0.0
  0
LINE
  5
120
330
42F
100
AcDbEntity
  8
_0
  6
Continuous
 62
     7
370
    30
100
AcDbLine
 10
46.622781
 20
5.422854
 30
0.0
 11
46.622781
 21
5.480115
 31
0.0
  0
LINE
  5
121
330
42F
100
AcDbEntity
  8
_0
  6
Continuous
 62
     7
370
    30
100
AcDbLine
 10
46.135198
 20
5.537844
 30
0.0
 11
46.135198
 21
5.625344
 31
0.0
  0
LINE
  5
122
330
42F
100
AcDbEntity
  8
_0
  6
Continuous
 62
     7
370
    30
100
AcDbLine
 10
46.205198
 20
5.537844
 30
0.0
 11
46.205198
 21
5.625344
 31
0.0
  0
LINE
  5
123
330
42F
100
AcDbEntity
  8
_0
  6
Continuous
 62
     7
370
    30
100
AcDbLine
 10
46.135198
 20
5.625344
 30
0.0
 11
46.205198
 21
5.537844
 31
0.0
  0
LINE
  5
124
330
42F
100
AcDbEntity
  8
_0
  6
Continuous
 62
     7
370
    30
100
AcDbLine
 10
46.135198
 20
5.42801
 30
0.0
 11
46.135198
 21
5.51551
 31
0.0
  0
LINE
  5
125
330
42F
100
AcDbEntity
  8
_0
  6
Continuous
 62
     7
370
    30
100
AcDbLine
 10
46.205198
 20
5.42801
 30
0.0
 11
46.205198
 21
5.51551
 31
0.0
  0
LINE
  5
126
330
42F
100
AcDbEntity
  8
_0
  6
Continuous
 62
     7
370
    30
100
AcDbLine
 10
46.135198
 20
5.51551
 30
0.0
 11
46.205198
 21
5.42801
 31
0.0
  0
LINE
  5
127
330
42F
100
AcDbEntity
  8
_0
  6
Continuous
 62
     7
370
    30
100
AcDbLine
 10
46.647167
 20
5.413427
 30
0.0
 11
46.647167
 21
5.501594
 31
0.0
  0
LINE
  5
128
330
42F
100
AcDbEntity
  8
_0
  6
Continuous
 62
     7
370
    30
100
AcDbLine
 10
46.170198
 20
5.413427
 30
0.0
 11
46.170198
 21
5.65351
 31
0.0
  0
LINE
  5
129
330
42F
100
AcDbEntity
  8
_0
  6
Continuous
 62
     7
370
    30
100
AcDbLine
 10
45.711969
 20
5.748052
 30
0.0
 11
45.753427
 21
5.825104
 31
0.0
  0
LINE
  5
12A
330
42F
100
AcDbEntity
  8
_0
  6
Continuous
 62
     7
370
    30
100
AcDbLine
 10
45.773604
 20
5.714885
 30
0.0
 11
45.815073
 21
5.791937
 31
0.0
  0
LINE
  5
12B
330
42F
100
AcDbEntity
  8
_0
  6
Continuous
 62
     7
370
    30
100
AcDbLine
 10
45.753427
 20
5.825104
 30
0.0
 11
45.773604
 21
5.714885
 31
0.0
  0
LINE
  5
12C
330
42F
100
AcDbEntity
  8
_0
  6
Continuous
 62
     7
370
    30
100
AcDbLine
 10
45.646292
 20
5.626
 30
0.0
 11
45.68775
 21
5.703052
 31
0.0
  0
LINE
  5
12D
330
42F
100
AcDbEntity
  8
_0
  6
Continuous
 62
     7
370
    30
100
AcDbLine
 10
45.707927
 20
5.592833
 30
0.0
 11
45.749396
 21
5.669885
 31
0.0
  0
LINE
  5
12E
330
42F
100
AcDbEntity
  8
_0
  6
Continuous
 62
     7
370
    30
100
AcDbLine
 10
45.68775
 20
5.703052
 30
0.0
 11
45.707927
 21
5.592833
 31
0.0
  0
LINE
  5
12F
330
42F
100
AcDbEntity
  8
_0
  6
Continuous
 62
     7
370
    30
100
AcDbLine
 10
45.629583
 20
5.594958
 30
0.0
 11
45.64976
 21
5.484729
 31
0.0
  0
LINE
  5
130
330
42F
100
AcDbEntity
  8
_0
  6
Continuous
 62
     7
370
    30
100
AcDbLine
 10
45.64976
 20
5.484729
 30
0.0
 11
45.691219
 21
5.561781
 31
0.0
  0
LINE
  5
131
330
42F
100
AcDbEntity
  8
_0
  6
Continuous
 62
     7
370
    30
100
AcDbLine
 10
45.588115
 20
5.517906
 30
0.0
 11
45.629583
 21
5.594958
 31
0.0
  0
LINE
  5
132
330
42F
100
AcDbEntity
  8
_0
  6
Continuous
 62
     7
370
    30
100
AcDbLine
 10
45.29426
 20
6.554458
 30
0.0
 11
45.335729
 21
6.63151
 31
0.0
  0
LINE
  5
133
330
42F
100
AcDbEntity
  8
_0
  6
Continuous
 62
     7
370
    30
100
AcDbLine
 10
45.355906
 20
6.521292
 30
0.0
 11
45.397365
 21
6.598344
 31
0.0
  0
LINE
  5
134
330
42F
100
AcDbEntity
  8
_0
  6
Continuous
 62
     7
370
    30
100
AcDbLine
 10
45.335729
 20
6.63151
 30
0.0
 11
45.355906
 21
6.521292
 31
0.0
  0
LINE
  5
135
330
42F
100
AcDbEntity
  8
_0
  6
Continuous
 62
     7
370
    30
100
AcDbLine
 10
45.228583
 20
6.432417
 30
0.0
 11
45.270052
 21
6.509469
 31
0.0
  0
LINE
  5
136
330
42F
100
AcDbEntity
  8
_0
  6
Continuous
 62
     7
370
    30
100
AcDbLine
 10
45.290229
 20
6.39924
 30
0.0
 11
45.331688
 21
6.476292
 31
0.0
  0
LINE
  5
137
330
42F
100
AcDbEntity
  8
_0
  6
Continuous
 62
     7
370
    30
100
AcDbLine
 10
45.270052
 20
6.509469
 30
0.0
 11
45.290229
 21
6.39924
 31
0.0
  0
LINE
  5
138
330
42F
100
AcDbEntity
  8
_0
  6
Continuous
 62
     7
370
    30
100
AcDbLine
 10
45.211875
 20
6.401365
 30
0.0
 11
45.232052
 21
6.291146
 31
0.0
  0
LINE
  5
139
330
42F
100
AcDbEntity
  8
_0
  6
Continuous
 62
     7
370
    30
100
AcDbLine
 10
45.232052
 20
6.291146
 30
0.0
 11
45.273521
 21
6.368198
 31
0.0
  0
LINE
  5
13A
330
42F
100
AcDbEntity
  8
_0
  6
Continuous
 62
     7
370
    30
100
AcDbLine
 10
45.170417
 20
6.324312
 30
0.0
 11
45.211875
 21
6.401365
 31
0.0
  0
LINE
  5
13B
330
42F
100
AcDbEntity
  8
_0
  6
Continuous
 62
     7
370
    30
100
AcDbLine
 10
44.695573
 20
5.470667
 30
0.0
 11
44.737042
 21
5.547719
 31
0.0
  0
LINE
  5
13C
330
42F
100
AcDbEntity
  8
_0
  6
Continuous
 62
     7
370
    30
100
AcDbLine
 10
44.757219
 20
5.4375
 30
0.0
 11
44.798677
 21
5.514552
 31
0.0
  0
LINE
  5
13D
330
42F
100
AcDbEntity
  8
_0
  6
Continuous
 62
     7
370
    30
100
AcDbLine
 10
44.737042
 20
5.547719
 30
0.0
 11
44.757219
 21
5.4375
 31
0.0
  0
LINE
  5
13E
330
42F
100
AcDbEntity
  8
_0
  6
Continuous
 62
     7
370
    30
100
AcDbLine
 10
44.795208
 20
5.66301
 30
0.0
 11
44.815385
 21
5.552792
 31
0.0
  0
LINE
  5
13F
330
42F
100
AcDbEntity
  8
_0
  6
Continuous
 62
     7
370
    30
100
AcDbLine
 10
44.815385
 20
5.552792
 30
0.0
 11
44.856854
 21
5.629844
 31
0.0
  0
LINE
  5
140
330
42F
100
AcDbEntity
  8
_0
  6
Continuous
 62
     7
370
    30
100
AcDbLine
 10
44.75375
 20
5.585958
 30
0.0
 11
44.795208
 21
5.66301
 31
0.0
  0
LINE
  5
141
330
42F
100
AcDbEntity
  8
_0
  6
Continuous
 62
     7
370
    30
100
AcDbLine
 10
44.855
 20
5.76349
 30
0.0
 11
44.875177
 21
5.65326
 31
0.0
  0
LINE
  5
142
330
42F
100
AcDbEntity
  8
_0
  6
Continuous
 62
     7
370
    30
100
AcDbLine
 10
44.875177
 20
5.65326
 30
0.0
 11
44.916635
 21
5.730313
 31
0.0
  0
LINE
  5
143
330
42F
100
AcDbEntity
  8
_0
  6
Continuous
 62
     7
370
    30
100
AcDbLine
 10
44.813531
 20
5.686437
 30
0.0
 11
44.855
 21
5.76349
 31
0.0
  0
LINE
  5
144
330
42F
100
AcDbEntity
  8
_0
  6
Continuous
 62
     7
370
    30
100
AcDbLine
 10
44.931521
 20
5.880365
 30
0.0
 11
44.972979
 21
5.957417
 31
0.0
  0
LINE
  5
145
330
42F
100
AcDbEntity
  8
_0
  6
Continuous
 62
     7
370
    30
100
AcDbLine
 10
44.993167
 20
5.847198
 30
0.0
 11
45.034625
 21
5.92425
 31
0.0
  0
LINE
  5
146
330
42F
100
AcDbEntity
  8
_0
  6
Continuous
 62
     7
370
    30
100
AcDbLine
 10
44.972979
 20
5.957417
 30
0.0
 11
44.993167
 21
5.847198
 31
0.0
  0
LINE
  5
147
330
42F
100
AcDbEntity
  8
_0
  6
Continuous
 62
     7
370
    30
100
AcDbLine
 10
45.031156
 20
6.065521
 30
0.0
 11
45.051333
 21
5.955302
 31
0.0
  0
LINE
  5
148
330
42F
100
AcDbEntity
  8
_0
  6
Continuous
 62
     7
370
    30
100
AcDbLine
 10
45.051333
 20
5.955302
 30
0.0
 11
45.092792
 21
6.032354
 31
0.0
  0
LINE
  5
149
330
42F
100
AcDbEntity
  8
_0
  6
Continuous
 62
     7
370
    30
100
AcDbLine
 10
44.989687
 20
5.988469
 30
0.0
 11
45.031156
 21
6.065521
 31
0.0
  0
LINE
  5
14A
330
42F
100
AcDbEntity
  8
_0
  6
Continuous
 62
     7
370
    30
100
AcDbLine
 10
45.096833
 20
6.187573
 30
0.0
 11
45.11701
 21
6.077344
 31
0.0
  0
LINE
  5
14B
330
42F
100
AcDbEntity
  8
_0
  6
Continuous
 62
     7
370
    30
100
AcDbLine
 10
45.11701
 20
6.077344
 30
0.0
 11
45.158469
 21
6.154396
 31
0.0
  0
LINE
  5
14C
330
42F
100
AcDbEntity
  8
_0
  6
Continuous
 62
     7
370
    30
100
AcDbLine
 10
45.055365
 20
6.110521
 30
0.0
 11
45.096833
 21
6.187573
 31
0.0
  0
LINE
  5
14D
330
42F
100
AcDbEntity
  8
_0
  6
Continuous
 62
     7
370
    30
100
AcDbLine
 10
45.50125
 20
5.939615
 30
0.0
 11
45.377969
 21
6.005948
 31
0.0
  0
LINE
  5
14E
330
42F
100
AcDbEntity
  8
_0
  6
Continuous
 62
     7
370
    30
100
AcDbLine
 10
45.453865
 20
5.851552
 30
0.0
 11
45.330583
 21
5.917896
 31
0.0
  0
LINE
  5
14F
330
42F
100
AcDbEntity
  8
_0
  6
Continuous
 62
     7
370
    30
100
AcDbLine
 10
45.406479
 20
5.76349
 30
0.0
 11
45.283187
 21
5.829833
 31
0.0
  0
LINE
  5
150
330
42F
100
AcDbEntity
  8
_0
  6
Continuous
 62
     7
370
    30
100
AcDbLine
 10
45.359094
 20
5.675427
 30
0.0
 11
45.235802
 21
5.741771
 31
0.0
  0
LINE
  5
151
330
42F
100
AcDbEntity
  8
_0
  6
Continuous
 62
     7
370
    30
100
AcDbLine
 10
45.265302
 20
5.501146
 30
0.0
 11
45.142021
 21
5.56749
 31
0.0
  0
LINE
  5
152
330
42F
100
AcDbEntity
  8
_0
  6
Continuous
 62
     7
370
    30
100
AcDbLine
 10
45.217917
 20
5.413083
 30
0.0
 11
45.094635
 21
5.479427
 31
0.0
  0
LINE
  5
153
330
42F
100
AcDbEntity
  8
_0
  6
Continuous
 62
     7
370
    30
100
AcDbLine
 10
45.410604
 20
6.028281
 30
0.0
 11
45.476948
 21
6.151573
 31
0.0
  0
LINE
  5
154
330
42F
100
AcDbEntity
  8
_0
  6
Continuous
 62
     7
370
    30
100
AcDbLine
 10
45.275365
 20
6.111417
 30
0.0
 11
45.341708
 21
6.234698
 31
0.0
  0
LINE
  5
155
330
42F
100
AcDbEntity
  8
_0
  6
Continuous
 62
     7
370
    30
100
AcDbLine
 10
45.361177
 20
5.480677
 30
0.0
 11
45.427521
 21
5.603969
 31
0.0
  0
LINE
  5
156
330
42F
100
AcDbEntity
  8
_0
  6
Continuous
 62
     7
370
    30
100
AcDbLine
 10
45.107969
 20
5.617312
 30
0.0
 11
45.174312
 21
5.740594
 31
0.0
  0
LINE
  5
157
330
42F
100
AcDbEntity
  8
_0
  6
Continuous
 62
     7
370
    30
100
AcDbLine
 10
44.96075
 20
5.696417
 30
0.0
 11
45.027094
 21
5.819698
 31
0.0
  0
LINE
  5
158
330
42F
100
AcDbEntity
  8
_0
  6
Continuous
 62
     7
370
    30
100
AcDbLine
 10
44.842979
 20
5.768333
 30
0.0
 11
44.909323
 21
5.891615
 31
0.0
  0
LINE
  5
159
330
42F
100
AcDbEntity
  8
_0
  6
Continuous
 62
     7
370
    30
100
AcDbLine
 10
42.310281
 20
5.449312
 30
0.0
 11
42.310281
 21
5.536812
 31
0.0
  0
LINE
  5
15A
330
42F
100
AcDbEntity
  8
_0
  6
Continuous
 62
     7
370
    30
100
AcDbLine
 10
42.380281
 20
5.449312
 30
0.0
 11
42.380281
 21
5.536812
 31
0.0
  0
LINE
  5
15B
330
42F
100
AcDbEntity
  8
_0
  6
Continuous
 62
     7
370
    30
100
AcDbLine
 10
42.310281
 20
5.536812
 30
0.0
 11
42.380281
 21
5.449312
 31
0.0
  0
LINE
  5
15C
330
42F
100
AcDbEntity
  8
_0
  6
Continuous
 62
     7
370
    30
100
AcDbLine
 10
42.781302
 20
5.572073
 30
0.0
 11
42.781302
 21
5.659573
 31
0.0
  0
LINE
  5
15D
330
42F
100
AcDbEntity
  8
_0
  6
Continuous
 62
     7
370
    30
100
AcDbLine
 10
42.851302
 20
5.572073
 30
0.0
 11
42.851302
 21
5.659573
 31
0.0
  0
LINE
  5
15E
330
42F
100
AcDbEntity
  8
_0
  6
Continuous
 62
     7
370
    30
100
AcDbLine
 10
42.781302
 20
5.659573
 30
0.0
 11
42.851302
 21
5.572073
 31
0.0
  0
LINE
  5
15F
330
42F
100
AcDbEntity
  8
_0
  6
Continuous
 62
     7
370
    30
100
AcDbLine
 10
42.781302
 20
5.536812
 30
0.0
 11
42.851302
 21
5.449312
 31
0.0
  0
LINE
  5
160
330
42F
100
AcDbEntity
  8
_0
  6
Continuous
 62
     7
370
    30
100
AcDbLine
 10
42.851302
 20
5.449312
 30
0.0
 11
42.851302
 21
5.536812
 31
0.0
  0
LINE
  5
161
330
42F
100
AcDbEntity
  8
_0
  6
Continuous
 62
     7
370
    30
100
AcDbLine
 10
42.781302
 20
5.449312
 30
0.0
 11
42.781302
 21
5.536812
 31
0.0
  0
LINE
  5
162
330
42F
100
AcDbEntity
  8
_0
  6
Continuous
 62
     7
370
    30
100
AcDbLine
 10
42.820198
 20
5.678958
 30
0.0
 11
42.769594
 21
5.778604
 31
0.0
  0
LINE
  5
163
330
42F
100
AcDbEntity
  8
_0
  6
Continuous
 62
     7
370
    30
100
AcDbLine
 10
42.820198
 20
5.413427
 30
0.0
 11
42.820198
 21
5.678958
 31
0.0
  0
LINE
  5
164
330
42F
100
AcDbEntity
  8
_0
  6
Continuous
 62
     7
370
    30
100
AcDbLine
 10
42.345198
 20
5.413427
 30
0.0
 11
42.346104
 21
5.609771
 31
0.0
  0
LINE
  5
165
330
42F
100
AcDbEntity
  8
_0
  6
Continuous
 62
     7
370
    30
100
AcDbLine
 10
42.953354
 20
5.747021
 30
0.0
 11
42.953354
 21
5.872885
 31
0.0
  0
LINE
  5
166
330
42F
100
AcDbEntity
  8
_0
  6
Continuous
 62
     7
370
    30
100
AcDbLine
 10
43.093448
 20
5.589729
 30
0.0
 11
43.159792
 21
5.713021
 31
0.0
  0
LINE
  5
167
330
42F
100
AcDbEntity
  8
_0
  6
Continuous
 62
     7
370
    30
100
AcDbLine
 10
43.215333
 20
5.520979
 30
0.0
 11
43.281677
 21
5.64426
 31
0.0
  0
LINE
  5
168
330
42F
100
AcDbEntity
  8
_0
  6
Continuous
 62
     7
370
    30
100
AcDbLine
 10
43.350771
 20
5.441896
 30
0.0
 11
43.417115
 21
5.565177
 31
0.0
  0
LINE
  5
169
330
42F
100
AcDbEntity
  8
_0
  6
Continuous
 62
     7
370
    30
100
AcDbLine
 10
43.629146
 20
5.70151
 30
0.0
 11
43.505865
 21
5.767854
 31
0.0
  0
LINE
  5
16A
330
42F
100
AcDbEntity
  8
_0
  6
Continuous
 62
     7
370
    30
100
AcDbLine
 10
43.58176
 20
5.613458
 30
0.0
 11
43.458479
 21
5.679792
 31
0.0
  0
LINE
  5
16B
330
42F
100
AcDbEntity
  8
_0
  6
Continuous
 62
     7
370
    30
100
AcDbLine
 10
43.534375
 20
5.525396
 30
0.0
 11
43.411094
 21
5.59174
 31
0.0
  0
LINE
  5
16C
330
42F
100
AcDbEntity
  8
_0
  6
Continuous
 62
     7
370
    30
100
AcDbLine
 10
43.81099
 20
5.478552
 30
0.0
 11
43.852458
 21
5.555604
 31
0.0
  0
LINE
  5
16D
330
42F
100
AcDbEntity
  8
_0
  6
Continuous
 62
     7
370
    30
100
AcDbLine
 10
43.872635
 20
5.445385
 30
0.0
 11
43.914094
 21
5.522437
 31
0.0
  0
LINE
  5
16E
330
42F
100
AcDbEntity
  8
_0
  6
Continuous
 62
     7
370
    30
100
AcDbLine
 10
43.852458
 20
5.555604
 30
0.0
 11
43.872635
 21
5.445385
 31
0.0
  0
LINE
  5
16F
330
42F
100
AcDbEntity
  8
_0
  6
Continuous
 62
     7
370
    30
100
AcDbLine
 10
43.90474
 20
5.642135
 30
0.0
 11
43.924917
 21
5.531917
 31
0.0
  0
LINE
  5
170
330
42F
100
AcDbEntity
  8
_0
  6
Continuous
 62
     7
370
    30
100
AcDbLine
 10
43.924917
 20
5.531917
 30
0.0
 11
43.966375
 21
5.608969
 31
0.0
  0
LINE
  5
171
330
42F
100
AcDbEntity
  8
_0
  6
Continuous
 62
     7
370
    30
100
AcDbLine
 10
43.863271
 20
5.565083
 30
0.0
 11
43.90474
 21
5.642135
 31
0.0
  0
LINE
  5
172
330
42F
100
AcDbEntity
  8
_0
  6
Continuous
 62
     7
370
    30
100
AcDbLine
 10
43.95275
 20
5.72824
 30
0.0
 11
43.972927
 21
5.618021
 31
0.0
  0
LINE
  5
173
330
42F
100
AcDbEntity
  8
_0
  6
Continuous
 62
     7
370
    30
100
AcDbLine
 10
43.972927
 20
5.618021
 30
0.0
 11
44.014396
 21
5.695073
 31
0.0
  0
LINE
  5
174
330
42F
100
AcDbEntity
  8
_0
  6
Continuous
 62
     7
370
    30
100
AcDbLine
 10
43.911292
 20
5.651187
 30
0.0
 11
43.95275
 21
5.72824
 31
0.0
  0
LINE
  5
175
330
42F
100
AcDbEntity
  8
_0
  6
Continuous
 62
     7
370
    30
100
AcDbLine
 10
44.271625
 20
5.507552
 30
0.0
 11
44.337969
 21
5.630833
 31
0.0
  0
LINE
  5
176
330
42F
100
AcDbEntity
  8
_0
  6
Continuous
 62
     7
370
    30
100
AcDbLine
 10
44.014302
 20
5.655385
 30
0.0
 11
44.080646
 21
5.778667
 31
0.0
  0
LINE
  5
177
330
42F
100
AcDbEntity
  8
_0
  6
Continuous
 62
     7
370
    30
100
AcDbLine
 10
43.878031
 20
5.729708
 30
0.0
 11
43.944375
 21
5.85299
 31
0.0
  0
LINE
  5
178
330
42F
100
AcDbEntity
  8
_0
  6
Continuous
 62
     7
370
    30
100
AcDbLine
 10
44.227354
 20
6.682823
 30
0.0
 11
44.293698
 21
6.806104
 31
0.0
  0
LINE
  5
179
330
42F
100
AcDbEntity
  8
_0
  6
Continuous
 62
     7
370
    30
100
AcDbLine
 10
44.353865
 20
6.608406
 30
0.0
 11
44.420208
 21
6.731687
 31
0.0
  0
LINE
  5
17A
330
42F
100
AcDbEntity
  8
_0
  6
Continuous
 62
     7
370
    30
100
AcDbLine
 10
44.880833
 20
6.327156
 30
0.0
 11
44.947177
 21
6.450437
 31
0.0
  0
LINE
  5
17B
330
42F
100
AcDbEntity
  8
_0
  6
Continuous
 62
     7
370
    30
100
AcDbLine
 10
45.021958
 20
6.251208
 30
0.0
 11
45.088302
 21
6.3745
 31
0.0
  0
LINE
  5
17C
330
42F
100
AcDbEntity
  8
_0
  6
Continuous
 62
     7
370
    30
100
AcDbLine
 10
44.491937
 20
6.698865
 30
0.0
 11
44.533396
 21
6.775917
 31
0.0
  0
LINE
  5
17D
330
42F
100
AcDbEntity
  8
_0
  6
Continuous
 62
     7
370
    30
100
AcDbLine
 10
44.553573
 20
6.665687
 30
0.0
 11
44.595042
 21
6.74274
 31
0.0
  0
LINE
  5
17E
330
42F
100
AcDbEntity
  8
_0
  6
Continuous
 62
     7
370
    30
100
AcDbLine
 10
44.533396
 20
6.775917
 30
0.0
 11
44.553573
 21
6.665687
 31
0.0
  0
LINE
  5
17F
330
42F
100
AcDbEntity
  8
_0
  6
Continuous
 62
     7
370
    30
100
AcDbLine
 10
44.591563
 20
6.88401
 30
0.0
 11
44.61175
 21
6.773792
 31
0.0
  0
LINE
  5
180
330
42F
100
AcDbEntity
  8
_0
  6
Continuous
 62
     7
370
    30
100
AcDbLine
 10
44.61175
 20
6.773792
 30
0.0
 11
44.653208
 21
6.850844
 31
0.0
  0
LINE
  5
181
330
42F
100
AcDbEntity
  8
_0
  6
Continuous
 62
     7
370
    30
100
AcDbLine
 10
44.550104
 20
6.806958
 30
0.0
 11
44.591563
 21
6.88401
 31
0.0
  0
LINE
  5
182
330
42F
100
AcDbEntity
  8
_0
  6
Continuous
 62
     7
370
    30
100
AcDbLine
 10
44.65724
 20
7.006062
 30
0.0
 11
44.677427
 21
6.895844
 31
0.0
  0
LINE
  5
183
330
42F
100
AcDbEntity
  8
_0
  6
Continuous
 62
     7
370
    30
100
AcDbLine
 10
44.677427
 20
6.895844
 30
0.0
 11
44.718885
 21
6.972896
 31
0.0
  0
LINE
  5
184
330
42F
100
AcDbEntity
  8
_0
  6
Continuous
 62
     7
370
    30
100
AcDbLine
 10
44.615781
 20
6.92901
 30
0.0
 11
44.65724
 21
7.006062
 31
0.0
  0
LINE
  5
185
330
42F
100
AcDbEntity
  8
_0
  6
Continuous
 62
     7
370
    30
100
AcDbLine
 10
44.749844
 20
6.405687
 30
0.0
 11
44.816187
 21
6.528969
 31
0.0
  0
LINE
  5
186
330
42F
100
AcDbEntity
  8
_0
  6
Continuous
 62
     7
370
    30
100
AcDbLine
 10
44.6205
 20
6.46725
 30
0.0
 11
44.686844
 21
6.590531
 31
0.0
  0
LINE
  5
187
330
42F
100
AcDbEntity
  8
_0
  6
Continuous
 62
     7
370
    30
100
AcDbLine
 10
44.250646
 20
6.853542
 30
0.0
 11
44.127365
 21
6.919885
 31
0.0
  0
LINE
  5
188
330
42F
100
AcDbEntity
  8
_0
  6
Continuous
 62
     7
370
    30
100
AcDbLine
 10
44.298031
 20
6.941604
 30
0.0
 11
44.17475
 21
7.007948
 31
0.0
  0
LINE
  5
189
330
42F
100
AcDbEntity
  8
_0
  6
Continuous
 62
     7
370
    30
100
AcDbLine
 10
44.345417
 20
7.029667
 30
0.0
 11
44.235708
 21
7.088698
 31
0.0
  0
LINE
  5
18A
330
42F
100
AcDbEntity
  8
_0
  6
Continuous
 62
     7
370
    30
100
AcDbLine
 10
44.392802
 20
7.117719
 30
0.0
 11
44.287406
 21
7.174437
 31
0.0
  0
LINE
  5
18B
330
42F
100
AcDbEntity
  8
_0
  6
Continuous
 62
     7
370
    30
100
AcDbLine
 10
45.083552
 20
6.746021
 30
0.0
 11
44.96026
 21
6.812365
 31
0.0
  0
LINE
  5
18C
330
42F
100
AcDbEntity
  8
_0
  6
Continuous
 62
     7
370
    30
100
AcDbLine
 10
45.036167
 20
6.657958
 30
0.0
 11
44.912875
 21
6.724302
 31
0.0
  0
LINE
  5
18D
330
42F
100
AcDbEntity
  8
_0
  6
Continuous
 62
     7
370
    30
100
AcDbLine
 10
44.988771
 20
6.569906
 30
0.0
 11
44.86549
 21
6.63624
 31
0.0
  0
LINE
  5
18E
330
42F
100
AcDbEntity
  8
_0
  6
Continuous
 62
     7
370
    30
100
AcDbLine
 10
44.941385
 20
6.481844
 30
0.0
 11
44.818104
 21
6.548188
 31
0.0
  0
LINE
  5
18F
330
42F
100
AcDbEntity
  8
_0
  6
Continuous
 62
     7
370
    30
100
AcDbLine
 10
44.70249
 20
6.037896
 30
0.0
 11
44.579208
 21
6.10424
 31
0.0
  0
LINE
  5
190
330
42F
100
AcDbEntity
  8
_0
  6
Continuous
 62
     7
370
    30
100
AcDbLine
 10
44.749885
 20
6.125958
 30
0.0
 11
44.626594
 21
6.192302
 31
0.0
  0
LINE
  5
191
330
42F
100
AcDbEntity
  8
_0
  6
Continuous
 62
     7
370
    30
100
AcDbLine
 10
44.797271
 20
6.214021
 30
0.0
 11
44.673979
 21
6.280354
 31
0.0
  0
LINE
  5
192
330
42F
100
AcDbEntity
  8
_0
  6
Continuous
 62
     7
370
    30
100
AcDbLine
 10
44.844656
 20
6.302073
 30
0.0
 11
44.721375
 21
6.368417
 31
0.0
  0
LINE
  5
193
330
42F
100
AcDbEntity
  8
_0
  6
Continuous
 62
     7
370
    30
100
AcDbLine
 10
44.153917
 20
6.673781
 30
0.0
 11
44.030625
 21
6.740115
 31
0.0
  0
LINE
  5
194
330
42F
100
AcDbEntity
  8
_0
  6
Continuous
 62
     7
370
    30
100
AcDbLine
 10
44.106521
 20
6.585719
 30
0.0
 11
43.98324
 21
6.652062
 31
0.0
  0
LINE
  5
195
330
42F
100
AcDbEntity
  8
_0
  6
Continuous
 62
     7
370
    30
100
AcDbLine
 10
44.059135
 20
6.497656
 30
0.0
 11
43.935854
 21
6.564
 31
0.0
  0
LINE
  5
196
330
42F
100
AcDbEntity
  8
_0
  6
Continuous
 62
     7
370
    30
100
AcDbLine
 10
44.01175
 20
6.409594
 30
0.0
 11
43.888469
 21
6.475937
 31
0.0
  0
LINE
  5
197
330
42F
100
AcDbEntity
  8
_0
  6
Continuous
 62
     7
370
    30
100
AcDbLine
 10
44.376885
 20
6.485062
 30
0.0
 11
44.418354
 21
6.562125
 31
0.0
  0
LINE
  5
198
330
42F
100
AcDbEntity
  8
_0
  6
Continuous
 62
     7
370
    30
100
AcDbLine
 10
44.438531
 20
6.451896
 30
0.0
 11
44.47999
 21
6.528948
 31
0.0
  0
LINE
  5
199
330
42F
100
AcDbEntity
  8
_0
  6
Continuous
 62
     7
370
    30
100
AcDbLine
 10
44.418354
 20
6.562125
 30
0.0
 11
44.438531
 21
6.451896
 31
0.0
  0
LINE
  5
19A
330
42F
100
AcDbEntity
  8
_0
  6
Continuous
 62
     7
370
    30
100
AcDbLine
 10
44.311208
 20
6.363021
 30
0.0
 11
44.352667
 21
6.440073
 31
0.0
  0
LINE
  5
19B
330
42F
100
AcDbEntity
  8
_0
  6
Continuous
 62
     7
370
    30
100
AcDbLine
 10
44.372854
 20
6.329844
 30
0.0
 11
44.414313
 21
6.406896
 31
0.0
  0
LINE
  5
19C
330
42F
100
AcDbEntity
  8
_0
  6
Continuous
 62
     7
370
    30
100
AcDbLine
 10
44.352667
 20
6.440073
 30
0.0
 11
44.372854
 21
6.329844
 31
0.0
  0
LINE
  5
19D
330
42F
100
AcDbEntity
  8
_0
  6
Continuous
 62
     7
370
    30
100
AcDbLine
 10
44.2945
 20
6.331969
 30
0.0
 11
44.314677
 21
6.22175
 31
0.0
  0
LINE
  5
19E
330
42F
100
AcDbEntity
  8
_0
  6
Continuous
 62
     7
370
    30
100
AcDbLine
 10
44.314677
 20
6.22175
 30
0.0
 11
44.356146
 21
6.298802
 31
0.0
  0
LINE
  5
19F
330
42F
100
AcDbEntity
  8
_0
  6
Continuous
 62
     7
370
    30
100
AcDbLine
 10
44.253042
 20
6.254917
 30
0.0
 11
44.2945
 21
6.331969
 31
0.0
  0
LINE
  5
1A0
330
42F
100
AcDbEntity
  8
_0
  6
Continuous
 62
     7
370
    30
100
AcDbLine
 10
43.682021
 20
5.796854
 30
0.0
 11
43.55874
 21
5.863187
 31
0.0
  0
LINE
  5
1A1
330
42F
100
AcDbEntity
  8
_0
  6
Continuous
 62
     7
370
    30
100
AcDbLine
 10
44.308
 20
6.050354
 30
0.0
 11
44.374344
 21
6.173635
 31
0.0
  0
LINE
  5
1A2
330
42F
100
AcDbEntity
  8
_0
  6
Continuous
 62
     7
370
    30
100
AcDbLine
 10
44.437344
 20
5.981604
 30
0.0
 11
44.503687
 21
6.104885
 31
0.0
  0
LINE
  5
1A3
330
42F
100
AcDbEntity
  8
_0
  6
Continuous
 62
     7
370
    30
100
AcDbLine
 10
43.784813
 20
6.353458
 30
0.0
 11
43.851156
 21
6.47674
 31
0.0
  0
LINE
  5
1A4
330
42F
100
AcDbEntity
  8
_0
  6
Continuous
 62
     7
370
    30
100
AcDbLine
 10
44.703573
 20
5.848698
 30
0.0
 11
44.769917
 21
5.971979
 31
0.0
  0
LINE
  5
1A5
330
42F
100
AcDbEntity
  8
_0
  6
Continuous
 62
     7
370
    30
100
AcDbLine
 10
44.04726
 20
6.205896
 30
0.0
 11
44.113604
 21
6.329177
 31
0.0
  0
LINE
  5
1A6
330
42F
100
AcDbEntity
  8
_0
  6
Continuous
 62
     7
370
    30
100
AcDbLine
 10
43.92075
 20
6.280302
 30
0.0
 11
43.987094
 21
6.403594
 31
0.0
  0
LINE
  5
1A7
330
42F
100
AcDbEntity
  8
_0
  6
Continuous
 62
     7
370
    30
100
AcDbLine
 10
43.742594
 20
5.808792
 30
0.0
 11
43.808937
 21
5.932073
 31
0.0
  0
LINE
  5
1A8
330
42F
100
AcDbEntity
  8
_0
  6
Continuous
 62
     7
370
    30
100
AcDbLine
 10
43.614823
 20
5.877542
 30
0.0
 11
43.681167
 21
6.000833
 31
0.0
  0
LINE
  5
1A9
330
42F
100
AcDbEntity
  8
_0
  6
Continuous
 62
     7
370
    30
100
AcDbLine
 10
43.49
 20
5.944719
 30
0.0
 11
43.556344
 21
6.068
 31
0.0
  0
LINE
  5
1AA
330
42F
100
AcDbEntity
  8
_0
  6
Continuous
 62
     7
370
    30
100
AcDbLine
 10
44.466552
 20
5.599437
 30
0.0
 11
44.34326
 21
5.665771
 31
0.0
  0
LINE
  5
1AB
330
42F
100
AcDbEntity
  8
_0
  6
Continuous
 62
     7
370
    30
100
AcDbLine
 10
44.513937
 20
5.68749
 30
0.0
 11
44.390656
 21
5.753833
 31
0.0
  0
LINE
  5
1AC
330
42F
100
AcDbEntity
  8
_0
  6
Continuous
 62
     7
370
    30
100
AcDbLine
 10
44.561323
 20
5.775552
 30
0.0
 11
44.438042
 21
5.841896
 31
0.0
  0
LINE
  5
1AD
330
42F
100
AcDbEntity
  8
_0
  6
Continuous
 62
     7
370
    30
100
AcDbLine
 10
44.608708
 20
5.863615
 30
0.0
 11
44.485427
 21
5.929958
 31
0.0
  0
LINE
  5
1AE
330
42F
100
AcDbEntity
  8
_0
  6
Continuous
 62
     7
370
    30
100
AcDbLine
 10
43.917969
 20
6.235313
 30
0.0
 11
43.794688
 21
6.301656
 31
0.0
  0
LINE
  5
1AF
330
42F
100
AcDbEntity
  8
_0
  6
Continuous
 62
     7
370
    30
100
AcDbLine
 10
43.870583
 20
6.14725
 30
0.0
 11
43.747292
 21
6.213594
 31
0.0
  0
LINE
  5
1B0
330
42F
100
AcDbEntity
  8
_0
  6
Continuous
 62
     7
370
    30
100
AcDbLine
 10
43.823198
 20
6.059198
 30
0.0
 11
43.699906
 21
6.125531
 31
0.0
  0
LINE
  5
1B1
330
42F
100
AcDbEntity
  8
_0
  6
Continuous
 62
     7
370
    30
100
AcDbLine
 10
43.775802
 20
5.971135
 30
0.0
 11
43.652521
 21
6.037479
 31
0.0
  0
LINE
  5
1B2
330
42F
100
AcDbEntity
  8
_0
  6
Continuous
 62
     7
370
    30
100
AcDbLine
 10
44.135052
 20
6.060979
 30
0.0
 11
44.176521
 21
6.138031
 31
0.0
  0
LINE
  5
1B3
330
42F
100
AcDbEntity
  8
_0
  6
Continuous
 62
     7
370
    30
100
AcDbLine
 10
44.196698
 20
6.027812
 30
0.0
 11
44.238156
 21
6.104865
 31
0.0
  0
LINE
  5
1B4
330
42F
100
AcDbEntity
  8
_0
  6
Continuous
 62
     7
370
    30
100
AcDbLine
 10
44.176521
 20
6.138031
 30
0.0
 11
44.196698
 21
6.027812
 31
0.0
  0
LINE
  5
1B5
330
42F
100
AcDbEntity
  8
_0
  6
Continuous
 62
     7
370
    30
100
AcDbLine
 10
44.069375
 20
5.938927
 30
0.0
 11
44.110833
 21
6.01599
 31
0.0
  0
LINE
  5
1B6
330
42F
100
AcDbEntity
  8
_0
  6
Continuous
 62
     7
370
    30
100
AcDbLine
 10
44.131021
 20
5.90576
 30
0.0
 11
44.172479
 21
5.982812
 31
0.0
  0
LINE
  5
1B7
330
42F
100
AcDbEntity
  8
_0
  6
Continuous
 62
     7
370
    30
100
AcDbLine
 10
44.110833
 20
6.01599
 30
0.0
 11
44.131021
 21
5.90576
 31
0.0
  0
LINE
  5
1B8
330
42F
100
AcDbEntity
  8
_0
  6
Continuous
 62
     7
370
    30
100
AcDbLine
 10
44.052667
 20
5.907885
 30
0.0
 11
44.072844
 21
5.797667
 31
0.0
  0
LINE
  5
1B9
330
42F
100
AcDbEntity
  8
_0
  6
Continuous
 62
     7
370
    30
100
AcDbLine
 10
44.072844
 20
5.797667
 30
0.0
 11
44.114312
 21
5.874719
 31
0.0
  0
LINE
  5
1BA
330
42F
100
AcDbEntity
  8
_0
  6
Continuous
 62
     7
370
    30
100
AcDbLine
 10
44.011208
 20
5.830833
 30
0.0
 11
44.052667
 21
5.907885
 31
0.0
  0
LINE
  5
1BB
330
42F
100
AcDbEntity
  8
_0
  6
Continuous
 62
     7
370
    30
100
AcDbLine
 10
44.136187
 20
5.586635
 30
0.0
 11
44.202531
 21
5.709917
 31
0.0
  0
LINE
  5
1BC
330
42F
100
AcDbEntity
  8
_0
  6
Continuous
 62
     7
370
    30
100
AcDbLine
 10
44.491281
 20
6.53249
 30
0.0
 11
44.557625
 21
6.655771
 31
0.0
  0
LINE
  5
1BD
330
42F
100
AcDbEntity
  8
_0
  6
Continuous
 62
     7
370
    30
100
AcDbLine
 10
41.8565
 20
4.53175
 30
0.0
 11
41.8565
 21
4.61925
 31
0.0
  0
LINE
  5
1BE
330
42F
100
AcDbEntity
  8
_0
  6
Continuous
 62
     7
370
    30
100
AcDbLine
 10
41.7865
 20
4.61925
 30
0.0
 11
41.8565
 21
4.53175
 31
0.0
  0
LINE
  5
1BF
330
42F
100
AcDbEntity
  8
_0
  6
Continuous
 62
     7
370
    30
100
AcDbLine
 10
41.7865
 20
4.53175
 30
0.0
 11
41.7865
 21
4.61925
 31
0.0
  0
LINE
  5
1C0
330
42F
100
AcDbEntity
  8
_0
  6
Continuous
 62
     7
370
    30
100
AcDbLine
 10
42.260469
 20
4.53175
 30
0.0
 11
42.260469
 21
4.61925
 31
0.0
  0
LINE
  5
1C1
330
42F
100
AcDbEntity
  8
_0
  6
Continuous
 62
     7
370
    30
100
AcDbLine
 10
42.330469
 20
4.53175
 30
0.0
 11
42.330469
 21
4.61925
 31
0.0
  0
LINE
  5
1C2
330
42F
100
AcDbEntity
  8
_0
  6
Continuous
 62
     7
370
    30
100
AcDbLine
 10
42.260469
 20
4.61925
 30
0.0
 11
42.330469
 21
4.53175
 31
0.0
  0
LINE
  5
1C3
330
42F
100
AcDbEntity
  8
_0
  6
Continuous
 62
     7
370
    30
100
AcDbLine
 10
42.260469
 20
4.393156
 30
0.0
 11
42.260469
 21
4.480656
 31
0.0
  0
LINE
  5
1C4
330
42F
100
AcDbEntity
  8
_0
  6
Continuous
 62
     7
370
    30
100
AcDbLine
 10
42.330469
 20
4.393156
 30
0.0
 11
42.330469
 21
4.480656
 31
0.0
  0
LINE
  5
1C5
330
42F
100
AcDbEntity
  8
_0
  6
Continuous
 62
     7
370
    30
100
AcDbLine
 10
42.260469
 20
4.480656
 30
0.0
 11
42.330469
 21
4.393156
 31
0.0
  0
LINE
  5
1C6
330
42F
100
AcDbEntity
  8
_0
  6
Continuous
 62
     7
370
    30
100
AcDbLine
 10
45.60925
 20
4.608156
 30
0.0
 11
45.67925
 21
4.520656
 31
0.0
  0
LINE
  5
1C7
330
42F
100
AcDbEntity
  8
_0
  6
Continuous
 62
     7
370
    30
100
AcDbLine
 10
45.67925
 20
4.520656
 30
0.0
 11
45.67925
 21
4.608156
 31
0.0
  0
LINE
  5
1C8
330
42F
100
AcDbEntity
  8
_0
  6
Continuous
 62
     7
370
    30
100
AcDbLine
 10
45.60925
 20
4.520656
 30
0.0
 11
45.60925
 21
4.608156
 31
0.0
  0
LINE
  5
1C9
330
42F
100
AcDbEntity
  8
_0
  6
Continuous
 62
     7
370
    30
100
AcDbLine
 10
45.130115
 20
4.520656
 30
0.0
 11
45.130115
 21
4.608156
 31
0.0
  0
LINE
  5
1CA
330
42F
100
AcDbEntity
  8
_0
  6
Continuous
 62
     7
370
    30
100
AcDbLine
 10
45.200115
 20
4.520656
 30
0.0
 11
45.200115
 21
4.608156
 31
0.0
  0
LINE
  5
1CB
330
42F
100
AcDbEntity
  8
_0
  6
Continuous
 62
     7
370
    30
100
AcDbLine
 10
45.130115
 20
4.608156
 30
0.0
 11
45.200115
 21
4.520656
 31
0.0
  0
LINE
  5
1CC
330
42F
100
AcDbEntity
  8
_0
  6
Continuous
 62
     7
370
    30
100
AcDbLine
 10
45.130115
 20
4.382062
 30
0.0
 11
45.130115
 21
4.469562
 31
0.0
  0
LINE
  5
1CD
330
42F
100
AcDbEntity
  8
_0
  6
Continuous
 62
     7
370
    30
100
AcDbLine
 10
45.200115
 20
4.382062
 30
0.0
 11
45.200115
 21
4.469562
 31
0.0
  0
LINE
  5
1CE
330
42F
100
AcDbEntity
  8
_0
  6
Continuous
 62
     7
370
    30
100
AcDbLine
 10
45.130115
 20
4.469562
 30
0.0
 11
45.200115
 21
4.382062
 31
0.0
  0
LINE
  5
1CF
330
42F
100
AcDbEntity
  8
_0
  6
Continuous
 62
     7
370
    30
100
AcDbLine
 10
44.656073
 20
4.240635
 30
0.0
 11
44.656073
 21
4.328135
 31
0.0
  0
LINE
  5
1D0
330
42F
100
AcDbEntity
  8
_0
  6
Continuous
 62
     7
370
    30
100
AcDbLine
 10
44.726073
 20
4.240635
 30
0.0
 11
44.726073
 21
4.328135
 31
0.0
  0
LINE
  5
1D1
330
42F
100
AcDbEntity
  8
_0
  6
Continuous
 62
     7
370
    30
100
AcDbLine
 10
44.656073
 20
4.328135
 30
0.0
 11
44.726073
 21
4.240635
 31
0.0
  0
LINE
  5
1D2
330
42F
100
AcDbEntity
  8
_0
  6
Continuous
 62
     7
370
    30
100
AcDbLine
 10
44.656073
 20
4.450885
 30
0.0
 11
44.726073
 21
4.363385
 31
0.0
  0
LINE
  5
1D3
330
42F
100
AcDbEntity
  8
_0
  6
Continuous
 62
     7
370
    30
100
AcDbLine
 10
44.726073
 20
4.363385
 30
0.0
 11
44.726073
 21
4.450885
 31
0.0
  0
LINE
  5
1D4
330
42F
100
AcDbEntity
  8
_0
  6
Continuous
 62
     7
370
    30
100
AcDbLine
 10
44.656073
 20
4.363385
 30
0.0
 11
44.656073
 21
4.450885
 31
0.0
  0
LINE
  5
1D5
330
42F
100
AcDbEntity
  8
_0
  6
Continuous
 62
     7
370
    30
100
AcDbLine
 10
44.656073
 20
4.58949
 30
0.0
 11
44.726073
 21
4.50199
 31
0.0
  0
LINE
  5
1D6
330
42F
100
AcDbEntity
  8
_0
  6
Continuous
 62
     7
370
    30
100
AcDbLine
 10
44.726073
 20
4.50199
 30
0.0
 11
44.726073
 21
4.58949
 31
0.0
  0
LINE
  5
1D7
330
42F
100
AcDbEntity
  8
_0
  6
Continuous
 62
     7
370
    30
100
AcDbLine
 10
44.656073
 20
4.50199
 30
0.0
 11
44.656073
 21
4.58949
 31
0.0
  0
LINE
  5
1D8
330
42F
100
AcDbEntity
  8
_0
  6
Continuous
 62
     7
370
    30
100
AcDbLine
 10
43.697802
 20
2.16801
 30
0.0
 11
43.697802
 21
2.25551
 31
0.0
  0
LINE
  5
1D9
330
42F
100
AcDbEntity
  8
_0
  6
Continuous
 62
     7
370
    30
100
AcDbLine
 10
43.767802
 20
2.16801
 30
0.0
 11
43.767802
 21
2.25551
 31
0.0
  0
LINE
  5
1DA
330
42F
100
AcDbEntity
  8
_0
  6
Continuous
 62
     7
370
    30
100
AcDbLine
 10
43.697802
 20
2.25551
 30
0.0
 11
43.767802
 21
2.16801
 31
0.0
  0
LINE
  5
1DB
330
42F
100
AcDbEntity
  8
_0
  6
Continuous
 62
     7
370
    30
100
AcDbLine
 10
43.697802
 20
2.029406
 30
0.0
 11
43.697802
 21
2.116906
 31
0.0
  0
LINE
  5
1DC
330
42F
100
AcDbEntity
  8
_0
  6
Continuous
 62
     7
370
    30
100
AcDbLine
 10
43.767802
 20
2.029406
 30
0.0
 11
43.767802
 21
2.116906
 31
0.0
  0
LINE
  5
1DD
330
42F
100
AcDbEntity
  8
_0
  6
Continuous
 62
     7
370
    30
100
AcDbLine
 10
43.697802
 20
2.116906
 30
0.0
 11
43.767802
 21
2.029406
 31
0.0
  0
LINE
  5
1DE
330
42F
100
AcDbEntity
  8
_0
  6
Continuous
 62
     7
370
    30
100
AcDbLine
 10
43.697802
 20
1.994146
 30
0.0
 11
43.767802
 21
1.906646
 31
0.0
  0
LINE
  5
1DF
330
42F
100
AcDbEntity
  8
_0
  6
Continuous
 62
     7
370
    30
100
AcDbLine
 10
43.767802
 20
1.906646
 30
0.0
 11
43.767802
 21
1.994146
 31
0.0
  0
LINE
  5
1E0
330
42F
100
AcDbEntity
  8
_0
  6
Continuous
 62
     7
370
    30
100
AcDbLine
 10
43.697802
 20
1.906646
 30
0.0
 11
43.697802
 21
1.994146
 31
0.0
  0
LINE
  5
1E1
330
42F
100
AcDbEntity
  8
_0
  6
Continuous
 62
     7
370
    30
100
AcDbLine
 10
43.697802
 20
2.280083
 30
0.0
 11
43.697802
 21
2.367583
 31
0.0
  0
LINE
  5
1E2
330
42F
100
AcDbEntity
  8
_0
  6
Continuous
 62
     7
370
    30
100
AcDbLine
 10
43.767802
 20
2.280083
 30
0.0
 11
43.767802
 21
2.367583
 31
0.0
  0
LINE
  5
1E3
330
42F
100
AcDbEntity
  8
_0
  6
Continuous
 62
     7
370
    30
100
AcDbLine
 10
43.697802
 20
2.367583
 30
0.0
 11
43.767802
 21
2.280083
 31
0.0
  0
LINE
  5
1E4
330
42F
100
AcDbEntity
  8
_0
  6
Continuous
 62
     7
370
    30
100
AcDbLine
 10
43.697802
 20
2.490344
 30
0.0
 11
43.767802
 21
2.402844
 31
0.0
  0
LINE
  5
1E5
330
42F
100
AcDbEntity
  8
_0
  6
Continuous
 62
     7
370
    30
100
AcDbLine
 10
43.767802
 20
2.402844
 30
0.0
 11
43.767802
 21
2.490344
 31
0.0
  0
LINE
  5
1E6
330
42F
100
AcDbEntity
  8
_0
  6
Continuous
 62
     7
370
    30
100
AcDbLine
 10
43.697802
 20
2.402844
 30
0.0
 11
43.697802
 21
2.490344
 31
0.0
  0
LINE
  5
1E7
330
42F
100
AcDbEntity
  8
_0
  6
Continuous
 62
     7
370
    30
100
AcDbLine
 10
43.697802
 20
2.628948
 30
0.0
 11
43.767802
 21
2.541448
 31
0.0
  0
LINE
  5
1E8
330
42F
100
AcDbEntity
  8
_0
  6
Continuous
 62
     7
370
    30
100
AcDbLine
 10
43.767802
 20
2.541448
 30
0.0
 11
43.767802
 21
2.628948
 31
0.0
  0
LINE
  5
1E9
330
42F
100
AcDbEntity
  8
_0
  6
Continuous
 62
     7
370
    30
100
AcDbLine
 10
43.697802
 20
2.541448
 30
0.0
 11
43.697802
 21
2.628948
 31
0.0
  0
LINE
  5
1EA
330
42F
100
AcDbEntity
  8
_0
  6
Continuous
 62
     7
370
    30
100
AcDbLine
 10
43.887083
 20
3.092208
 30
0.0
 11
43.887083
 21
3.232208
 31
0.0
  0
LINE
  5
1EB
330
42F
100
AcDbEntity
  8
_0
  6
Continuous
 62
     7
370
    30
100
AcDbLine
 10
44.032177
 20
3.092208
 30
0.0
 11
44.032177
 21
3.232208
 31
0.0
  0
LINE
  5
1EC
330
42F
100
AcDbEntity
  8
_0
  6
Continuous
 62
     7
370
    30
100
AcDbLine
 10
43.697802
 20
3.238573
 30
0.0
 11
43.697802
 21
3.326073
 31
0.0
  0
LINE
  5
1ED
330
42F
100
AcDbEntity
  8
_0
  6
Continuous
 62
     7
370
    30
100
AcDbLine
 10
43.767802
 20
3.238573
 30
0.0
 11
43.767802
 21
3.326073
 31
0.0
  0
LINE
  5
1EE
330
42F
100
AcDbEntity
  8
_0
  6
Continuous
 62
     7
370
    30
100
AcDbLine
 10
43.697802
 20
3.326073
 30
0.0
 11
43.767802
 21
3.238573
 31
0.0
  0
LINE
  5
1EF
330
42F
100
AcDbEntity
  8
_0
  6
Continuous
 62
     7
370
    30
100
AcDbLine
 10
43.697802
 20
3.448833
 30
0.0
 11
43.767802
 21
3.361333
 31
0.0
  0
LINE
  5
1F0
330
42F
100
AcDbEntity
  8
_0
  6
Continuous
 62
     7
370
    30
100
AcDbLine
 10
43.767802
 20
3.361333
 30
0.0
 11
43.767802
 21
3.448833
 31
0.0
  0
LINE
  5
1F1
330
42F
100
AcDbEntity
  8
_0
  6
Continuous
 62
     7
370
    30
100
AcDbLine
 10
43.697802
 20
3.361333
 30
0.0
 11
43.697802
 21
3.448833
 31
0.0
  0
LINE
  5
1F2
330
42F
100
AcDbEntity
  8
_0
  6
Continuous
 62
     7
370
    30
100
AcDbLine
 10
43.697802
 20
3.587438
 30
0.0
 11
43.767802
 21
3.499937
 31
0.0
  0
LINE
  5
1F3
330
42F
100
AcDbEntity
  8
_0
  6
Continuous
 62
     7
370
    30
100
AcDbLine
 10
43.767802
 20
3.499937
 30
0.0
 11
43.767802
 21
3.587438
 31
0.0
  0
LINE
  5
1F4
330
42F
100
AcDbEntity
  8
_0
  6
Continuous
 62
     7
370
    30
100
AcDbLine
 10
43.697802
 20
3.499937
 30
0.0
 11
43.697802
 21
3.587438
 31
0.0
  0
LINE
  5
1F5
330
42F
100
AcDbEntity
  8
_0
  6
Continuous
 62
     7
370
    30
100
AcDbLine
 10
43.412031
 20
3.260448
 30
0.0
 11
43.272031
 21
3.260448
 31
0.0
  0
LINE
  5
1F6
330
42F
100
AcDbEntity
  8
_0
  6
Continuous
 62
     7
370
    30
100
AcDbLine
 10
43.412031
 20
3.360448
 30
0.0
 11
43.272031
 21
3.360448
 31
0.0
  0
LINE
  5
1F7
330
42F
100
AcDbEntity
  8
_0
  6
Continuous
 62
     7
370
    30
100
AcDbLine
 10
43.412031
 20
3.460448
 30
0.0
 11
43.272031
 21
3.460448
 31
0.0
  0
LINE
  5
1F8
330
42F
100
AcDbEntity
  8
_0
  6
Continuous
 62
     7
370
    30
100
AcDbLine
 10
43.412031
 20
3.560448
 30
0.0
 11
43.272031
 21
3.560448
 31
0.0
  0
LINE
  5
1F9
330
42F
100
AcDbEntity
  8
_0
  6
Continuous
 62
     7
370
    30
100
AcDbLine
 10
44.181708
 20
3.560448
 30
0.0
 11
44.041708
 21
3.560448
 31
0.0
  0
LINE
  5
1FA
330
42F
100
AcDbEntity
  8
_0
  6
Continuous
 62
     7
370
    30
100
AcDbLine
 10
44.181708
 20
3.460448
 30
0.0
 11
44.041708
 21
3.460448
 31
0.0
  0
LINE
  5
1FB
330
42F
100
AcDbEntity
  8
_0
  6
Continuous
 62
     7
370
    30
100
AcDbLine
 10
44.181708
 20
3.360448
 30
0.0
 11
44.041708
 21
3.360448
 31
0.0
  0
LINE
  5
1FC
330
42F
100
AcDbEntity
  8
_0
  6
Continuous
 62
     7
370
    30
100
AcDbLine
 10
44.181708
 20
3.260448
 30
0.0
 11
44.041708
 21
3.260448
 31
0.0
  0
LINE
  5
1FD
330
42F
100
AcDbEntity
  8
_0
  6
Continuous
 62
     7
370
    30
100
AcDbLine
 10
43.505771
 20
2.600521
 30
0.0
 11
43.505771
 21
2.740521
 31
0.0
  0
LINE
  5
1FE
330
42F
100
AcDbEntity
  8
_0
  6
Continuous
 62
     7
370
    30
100
AcDbLine
 10
43.662802
 20
2.600521
 30
0.0
 11
43.662802
 21
2.740521
 31
0.0
  0
LINE
  5
1FF
330
42F
100
AcDbEntity
  8
_0
  6
Continuous
 62
     7
370
    30
100
AcDbLine
 10
43.968156
 20
2.600521
 30
0.0
 11
43.968156
 21
2.740521
 31
0.0
  0
LINE
  5
200
330
42F
100
AcDbEntity
  8
_0
  6
Continuous
 62
     7
370
    30
100
AcDbLine
 10
43.807896
 20
2.600521
 30
0.0
 11
43.807896
 21
2.740521
 31
0.0
  0
LINE
  5
201
330
42F
100
AcDbEntity
  8
_0
  6
Continuous
 62
     7
370
    30
100
AcDbLine
 10
43.291688
 20
3.092208
 30
0.0
 11
43.291688
 21
3.232208
 31
0.0
  0
LINE
  5
202
330
42F
100
AcDbEntity
  8
_0
  6
Continuous
 62
     7
370
    30
100
AcDbLine
 10
43.433427
 20
3.092208
 30
0.0
 11
43.433427
 21
3.232208
 31
0.0
  0
LINE
  5
203
330
42F
100
AcDbEntity
  8
_0
  6
Continuous
 62
     7
370
    30
100
AcDbLine
 10
44.172052
 20
3.092208
 30
0.0
 11
44.172052
 21
3.232208
 31
0.0
  0
LINE
  5
204
330
42F
100
AcDbEntity
  8
_0
  6
Continuous
 62
     7
370
    30
100
AcDbLine
 10
43.578531
 20
3.092208
 30
0.0
 11
43.578531
 21
3.232208
 31
0.0
  0
LINE
  5
205
330
42F
100
AcDbEntity
  8
_0
  6
Continuous
 62
     7
370
    30
100
AcDbLine
 10
43.429313
 20
3.596354
 30
0.0
 11
43.429313
 21
3.736354
 31
0.0
  0
LINE
  5
206
330
42F
100
AcDbEntity
  8
_0
  6
Continuous
 62
     7
370
    30
100
AcDbLine
 10
43.586344
 20
3.596354
 30
0.0
 11
43.586344
 21
3.736354
 31
0.0
  0
LINE
  5
207
330
42F
100
AcDbEntity
  8
_0
  6
Continuous
 62
     7
370
    30
100
AcDbLine
 10
44.164708
 20
3.596354
 30
0.0
 11
44.164708
 21
3.736354
 31
0.0
  0
LINE
  5
208
330
42F
100
AcDbEntity
  8
_0
  6
Continuous
 62
     7
370
    30
100
AcDbLine
 10
44.324969
 20
3.596354
 30
0.0
 11
44.324969
 21
3.736354
 31
0.0
  0
LINE
  5
209
330
42F
100
AcDbEntity
  8
_0
  6
Continuous
 62
     7
370
    30
100
AcDbLine
 10
43.274938
 20
3.596354
 30
0.0
 11
43.274938
 21
3.736354
 31
0.0
  0
LINE
  5
20A
330
42F
100
AcDbEntity
  8
_0
  6
Continuous
 62
     7
370
    30
100
AcDbLine
 10
43.127125
 20
3.596354
 30
0.0
 11
43.127125
 21
3.736354
 31
0.0
  0
LINE
  5
20B
330
42F
100
AcDbEntity
  8
_0
  6
Continuous
 62
     7
370
    30
100
AcDbLine
 10
44.029323
 20
3.596354
 30
0.0
 11
44.029323
 21
3.736354
 31
0.0
  0
LINE
  5
20C
330
42F
100
AcDbEntity
  8
_0
  6
Continuous
 62
     7
370
    30
100
AcDbLine
 10
43.869062
 20
3.596354
 30
0.0
 11
43.869062
 21
3.736354
 31
0.0
  0
LINE
  5
20D
330
42F
100
AcDbEntity
  8
_0
  6
Continuous
 62
     7
370
    30
100
AcDbLine
 10
44.181708
 20
2.762531
 30
0.0
 11
44.041708
 21
2.762531
 31
0.0
  0
LINE
  5
20E
330
42F
100
AcDbEntity
  8
_0
  6
Continuous
 62
     7
370
    30
100
AcDbLine
 10
44.181708
 20
2.862531
 30
0.0
 11
44.041708
 21
2.862531
 31
0.0
  0
LINE
  5
20F
330
42F
100
AcDbEntity
  8
_0
  6
Continuous
 62
     7
370
    30
100
AcDbLine
 10
44.181708
 20
2.962531
 30
0.0
 11
44.041708
 21
2.962531
 31
0.0
  0
LINE
  5
210
330
42F
100
AcDbEntity
  8
_0
  6
Continuous
 62
     7
370
    30
100
AcDbLine
 10
44.181708
 20
3.062531
 30
0.0
 11
44.041708
 21
3.062531
 31
0.0
  0
LINE
  5
211
330
42F
100
AcDbEntity
  8
_0
  6
Continuous
 62
     7
370
    30
100
AcDbLine
 10
43.412031
 20
3.062531
 30
0.0
 11
43.272031
 21
3.062531
 31
0.0
  0
LINE
  5
212
330
42F
100
AcDbEntity
  8
_0
  6
Continuous
 62
     7
370
    30
100
AcDbLine
 10
43.412031
 20
2.962531
 30
0.0
 11
43.272031
 21
2.962531
 31
0.0
  0
LINE
  5
213
330
42F
100
AcDbEntity
  8
_0
  6
Continuous
 62
     7
370
    30
100
AcDbLine
 10
43.412031
 20
2.862531
 30
0.0
 11
43.272031
 21
2.862531
 31
0.0
  0
LINE
  5
214
330
42F
100
AcDbEntity
  8
_0
  6
Continuous
 62
     7
370
    30
100
AcDbLine
 10
43.412031
 20
2.762531
 30
0.0
 11
43.272031
 21
2.762531
 31
0.0
  0
LINE
  5
215
330
42F
100
AcDbEntity
  8
_0
  6
Continuous
 62
     7
370
    30
100
AcDbLine
 10
43.697802
 20
3.002021
 30
0.0
 11
43.697802
 21
3.089521
 31
0.0
  0
LINE
  5
216
330
42F
100
AcDbEntity
  8
_0
  6
Continuous
 62
     7
370
    30
100
AcDbLine
 10
43.767802
 20
3.002021
 30
0.0
 11
43.767802
 21
3.089521
 31
0.0
  0
LINE
  5
217
330
42F
100
AcDbEntity
  8
_0
  6
Continuous
 62
     7
370
    30
100
AcDbLine
 10
43.697802
 20
3.089521
 30
0.0
 11
43.767802
 21
3.002021
 31
0.0
  0
LINE
  5
218
330
42F
100
AcDbEntity
  8
_0
  6
Continuous
 62
     7
370
    30
100
AcDbLine
 10
43.697802
 20
2.863417
 30
0.0
 11
43.697802
 21
2.950917
 31
0.0
  0
LINE
  5
219
330
42F
100
AcDbEntity
  8
_0
  6
Continuous
 62
     7
370
    30
100
AcDbLine
 10
43.767802
 20
2.863417
 30
0.0
 11
43.767802
 21
2.950917
 31
0.0
  0
LINE
  5
21A
330
42F
100
AcDbEntity
  8
_0
  6
Continuous
 62
     7
370
    30
100
AcDbLine
 10
43.697802
 20
2.950917
 30
0.0
 11
43.767802
 21
2.863417
 31
0.0
  0
LINE
  5
21B
330
42F
100
AcDbEntity
  8
_0
  6
Continuous
 62
     7
370
    30
100
AcDbLine
 10
43.697802
 20
2.828156
 30
0.0
 11
43.767802
 21
2.740656
 31
0.0
  0
LINE
  5
21C
330
42F
100
AcDbEntity
  8
_0
  6
Continuous
 62
     7
370
    30
100
AcDbLine
 10
43.767802
 20
2.740656
 30
0.0
 11
43.767802
 21
2.828156
 31
0.0
  0
LINE
  5
21D
330
42F
100
AcDbEntity
  8
_0
  6
Continuous
 62
     7
370
    30
100
AcDbLine
 10
43.697802
 20
2.740656
 30
0.0
 11
43.697802
 21
2.828156
 31
0.0
  0
LINE
  5
21E
330
42F
100
AcDbEntity
  8
_0
  6
Continuous
 62
     7
370
    30
100
AcDbLine
 10
43.697802
 20
3.73649
 30
0.0
 11
43.697802
 21
3.82399
 31
0.0
  0
LINE
  5
21F
330
42F
100
AcDbEntity
  8
_0
  6
Continuous
 62
     7
370
    30
100
AcDbLine
 10
43.767802
 20
3.73649
 30
0.0
 11
43.767802
 21
3.82399
 31
0.0
  0
LINE
  5
220
330
42F
100
AcDbEntity
  8
_0
  6
Continuous
 62
     7
370
    30
100
AcDbLine
 10
43.697802
 20
3.82399
 30
0.0
 11
43.767802
 21
3.73649
 31
0.0
  0
LINE
  5
221
330
42F
100
AcDbEntity
  8
_0
  6
Continuous
 62
     7
370
    30
100
AcDbLine
 10
43.697802
 20
3.94675
 30
0.0
 11
43.767802
 21
3.85925
 31
0.0
  0
LINE
  5
222
330
42F
100
AcDbEntity
  8
_0
  6
Continuous
 62
     7
370
    30
100
AcDbLine
 10
43.767802
 20
3.85925
 30
0.0
 11
43.767802
 21
3.94675
 31
0.0
  0
LINE
  5
223
330
42F
100
AcDbEntity
  8
_0
  6
Continuous
 62
     7
370
    30
100
AcDbLine
 10
43.697802
 20
3.85925
 30
0.0
 11
43.697802
 21
3.94675
 31
0.0
  0
LINE
  5
224
330
42F
100
AcDbEntity
  8
_0
  6
Continuous
 62
     7
370
    30
100
AcDbLine
 10
43.697802
 20
4.085344
 30
0.0
 11
43.767802
 21
3.997844
 31
0.0
  0
LINE
  5
225
330
42F
100
AcDbEntity
  8
_0
  6
Continuous
 62
     7
370
    30
100
AcDbLine
 10
43.767802
 20
3.997844
 30
0.0
 11
43.767802
 21
4.085344
 31
0.0
  0
LINE
  5
226
330
42F
100
AcDbEntity
  8
_0
  6
Continuous
 62
     7
370
    30
100
AcDbLine
 10
43.697802
 20
3.997844
 30
0.0
 11
43.697802
 21
4.085344
 31
0.0
  0
LINE
  5
227
330
42F
100
AcDbEntity
  8
_0
  6
Continuous
 62
     7
370
    30
100
AcDbLine
 10
43.412031
 20
3.758365
 30
0.0
 11
43.272031
 21
3.758365
 31
0.0
  0
LINE
  5
228
330
42F
100
AcDbEntity
  8
_0
  6
Continuous
 62
     7
370
    30
100
AcDbLine
 10
43.412031
 20
3.858365
 30
0.0
 11
43.272031
 21
3.858365
 31
0.0
  0
LINE
  5
229
330
42F
100
AcDbEntity
  8
_0
  6
Continuous
 62
     7
370
    30
100
AcDbLine
 10
43.412031
 20
3.958365
 30
0.0
 11
43.272031
 21
3.958365
 31
0.0
  0
LINE
  5
22A
330
42F
100
AcDbEntity
  8
_0
  6
Continuous
 62
     7
370
    30
100
AcDbLine
 10
43.412031
 20
4.058365
 30
0.0
 11
43.272031
 21
4.058365
 31
0.0
  0
LINE
  5
22B
330
42F
100
AcDbEntity
  8
_0
  6
Continuous
 62
     7
370
    30
100
AcDbLine
 10
44.181708
 20
4.058365
 30
0.0
 11
44.041708
 21
4.058365
 31
0.0
  0
LINE
  5
22C
330
42F
100
AcDbEntity
  8
_0
  6
Continuous
 62
     7
370
    30
100
AcDbLine
 10
44.181708
 20
3.958365
 30
0.0
 11
44.041708
 21
3.958365
 31
0.0
  0
LINE
  5
22D
330
42F
100
AcDbEntity
  8
_0
  6
Continuous
 62
     7
370
    30
100
AcDbLine
 10
44.181708
 20
3.858365
 30
0.0
 11
44.041708
 21
3.858365
 31
0.0
  0
LINE
  5
22E
330
42F
100
AcDbEntity
  8
_0
  6
Continuous
 62
     7
370
    30
100
AcDbLine
 10
44.181708
 20
3.758365
 30
0.0
 11
44.041708
 21
3.758365
 31
0.0
  0
LINE
  5
22F
330
42F
100
AcDbEntity
  8
_0
  6
Continuous
 62
     7
370
    30
100
AcDbLine
 10
44.181708
 20
4.26251
 30
0.0
 11
44.041708
 21
4.26251
 31
0.0
  0
LINE
  5
230
330
42F
100
AcDbEntity
  8
_0
  6
Continuous
 62
     7
370
    30
100
AcDbLine
 10
44.181708
 20
4.36251
 30
0.0
 11
44.041708
 21
4.36251
 31
0.0
  0
LINE
  5
231
330
42F
100
AcDbEntity
  8
_0
  6
Continuous
 62
     7
370
    30
100
AcDbLine
 10
44.181708
 20
4.46251
 30
0.0
 11
44.041708
 21
4.46251
 31
0.0
  0
LINE
  5
232
330
42F
100
AcDbEntity
  8
_0
  6
Continuous
 62
     7
370
    30
100
AcDbLine
 10
44.181708
 20
4.56251
 30
0.0
 11
44.041708
 21
4.56251
 31
0.0
  0
LINE
  5
233
330
42F
100
AcDbEntity
  8
_0
  6
Continuous
 62
     7
370
    30
100
AcDbLine
 10
43.412031
 20
4.56251
 30
0.0
 11
43.272031
 21
4.56251
 31
0.0
  0
LINE
  5
234
330
42F
100
AcDbEntity
  8
_0
  6
Continuous
 62
     7
370
    30
100
AcDbLine
 10
43.412031
 20
4.46251
 30
0.0
 11
43.272031
 21
4.46251
 31
0.0
  0
LINE
  5
235
330
42F
100
AcDbEntity
  8
_0
  6
Continuous
 62
     7
370
    30
100
AcDbLine
 10
43.412031
 20
4.36251
 30
0.0
 11
43.272031
 21
4.36251
 31
0.0
  0
LINE
  5
236
330
42F
100
AcDbEntity
  8
_0
  6
Continuous
 62
     7
370
    30
100
AcDbLine
 10
43.412031
 20
4.26251
 30
0.0
 11
43.272031
 21
4.26251
 31
0.0
  0
LINE
  5
237
330
42F
100
AcDbEntity
  8
_0
  6
Continuous
 62
     7
370
    30
100
AcDbLine
 10
43.869062
 20
4.09426
 30
0.0
 11
43.869062
 21
4.23426
 31
0.0
  0
LINE
  5
238
330
42F
100
AcDbEntity
  8
_0
  6
Continuous
 62
     7
370
    30
100
AcDbLine
 10
44.029323
 20
4.09426
 30
0.0
 11
44.029323
 21
4.23426
 31
0.0
  0
LINE
  5
239
330
42F
100
AcDbEntity
  8
_0
  6
Continuous
 62
     7
370
    30
100
AcDbLine
 10
44.485823
 20
4.09426
 30
0.0
 11
44.485823
 21
4.23426
 31
0.0
  0
LINE
  5
23A
330
42F
100
AcDbEntity
  8
_0
  6
Continuous
 62
     7
370
    30
100
AcDbLine
 10
44.646083
 20
4.09426
 30
0.0
 11
44.646083
 21
4.23426
 31
0.0
  0
LINE
  5
23B
330
42F
100
AcDbEntity
  8
_0
  6
Continuous
 62
     7
370
    30
100
AcDbLine
 10
43.127125
 20
4.09426
 30
0.0
 11
43.127125
 21
4.23426
 31
0.0
  0
LINE
  5
23C
330
42F
100
AcDbEntity
  8
_0
  6
Continuous
 62
     7
370
    30
100
AcDbLine
 10
43.274938
 20
4.09426
 30
0.0
 11
43.274938
 21
4.23426
 31
0.0
  0
LINE
  5
23D
330
42F
100
AcDbEntity
  8
_0
  6
Continuous
 62
     7
370
    30
100
AcDbLine
 10
42.834333
 20
4.09426
 30
0.0
 11
42.834333
 21
4.23426
 31
0.0
  0
LINE
  5
23E
330
42F
100
AcDbEntity
  8
_0
  6
Continuous
 62
     7
370
    30
100
AcDbLine
 10
42.9895
 20
4.09426
 30
0.0
 11
42.9895
 21
4.23426
 31
0.0
  0
LINE
  5
23F
330
42F
100
AcDbEntity
  8
_0
  6
Continuous
 62
     7
370
    30
100
AcDbLine
 10
42.734437
 20
4.240635
 30
0.0
 11
42.734437
 21
4.328135
 31
0.0
  0
LINE
  5
240
330
42F
100
AcDbEntity
  8
_0
  6
Continuous
 62
     7
370
    30
100
AcDbLine
 10
42.804437
 20
4.240635
 30
0.0
 11
42.804437
 21
4.328135
 31
0.0
  0
LINE
  5
241
330
42F
100
AcDbEntity
  8
_0
  6
Continuous
 62
     7
370
    30
100
AcDbLine
 10
42.734437
 20
4.328135
 30
0.0
 11
42.804437
 21
4.240635
 31
0.0
  0
LINE
  5
242
330
42F
100
AcDbEntity
  8
_0
  6
Continuous
 62
     7
370
    30
100
AcDbLine
 10
42.734437
 20
4.450885
 30
0.0
 11
42.804437
 21
4.363385
 31
0.0
  0
LINE
  5
243
330
42F
100
AcDbEntity
  8
_0
  6
Continuous
 62
     7
370
    30
100
AcDbLine
 10
42.804437
 20
4.363385
 30
0.0
 11
42.804437
 21
4.450885
 31
0.0
  0
LINE
  5
244
330
42F
100
AcDbEntity
  8
_0
  6
Continuous
 62
     7
370
    30
100
AcDbLine
 10
42.734437
 20
4.363385
 30
0.0
 11
42.734437
 21
4.450885
 31
0.0
  0
LINE
  5
245
330
42F
100
AcDbEntity
  8
_0
  6
Continuous
 62
     7
370
    30
100
AcDbLine
 10
42.734437
 20
4.58949
 30
0.0
 11
42.804437
 21
4.50199
 31
0.0
  0
LINE
  5
246
330
42F
100
AcDbEntity
  8
_0
  6
Continuous
 62
     7
370
    30
100
AcDbLine
 10
42.804437
 20
4.50199
 30
0.0
 11
42.804437
 21
4.58949
 31
0.0
  0
LINE
  5
247
330
42F
100
AcDbEntity
  8
_0
  6
Continuous
 62
     7
370
    30
100
AcDbLine
 10
42.734437
 20
4.50199
 30
0.0
 11
42.734437
 21
4.58949
 31
0.0
  0
LINE
  5
248
330
42F
100
AcDbEntity
  8
_0
  6
Continuous
 62
     7
370
    30
100
AcDbLine
 10
43.697802
 20
4.50199
 30
0.0
 11
43.697802
 21
4.58949
 31
0.0
  0
LINE
  5
249
330
42F
100
AcDbEntity
  8
_0
  6
Continuous
 62
     7
370
    30
100
AcDbLine
 10
43.767802
 20
4.50199
 30
0.0
 11
43.767802
 21
4.58949
 31
0.0
  0
LINE
  5
24A
330
42F
100
AcDbEntity
  8
_0
  6
Continuous
 62
     7
370
    30
100
AcDbLine
 10
43.697802
 20
4.58949
 30
0.0
 11
43.767802
 21
4.50199
 31
0.0
  0
LINE
  5
24B
330
42F
100
AcDbEntity
  8
_0
  6
Continuous
 62
     7
370
    30
100
AcDbLine
 10
43.697802
 20
4.363385
 30
0.0
 11
43.697802
 21
4.450885
 31
0.0
  0
LINE
  5
24C
330
42F
100
AcDbEntity
  8
_0
  6
Continuous
 62
     7
370
    30
100
AcDbLine
 10
43.767802
 20
4.363385
 30
0.0
 11
43.767802
 21
4.450885
 31
0.0
  0
LINE
  5
24D
330
42F
100
AcDbEntity
  8
_0
  6
Continuous
 62
     7
370
    30
100
AcDbLine
 10
43.697802
 20
4.450885
 30
0.0
 11
43.767802
 21
4.363385
 31
0.0
  0
LINE
  5
24E
330
42F
100
AcDbEntity
  8
_0
  6
Continuous
 62
     7
370
    30
100
AcDbLine
 10
43.697802
 20
4.328135
 30
0.0
 11
43.767802
 21
4.240635
 31
0.0
  0
LINE
  5
24F
330
42F
100
AcDbEntity
  8
_0
  6
Continuous
 62
     7
370
    30
100
AcDbLine
 10
43.767802
 20
4.240635
 30
0.0
 11
43.767802
 21
4.328135
 31
0.0
  0
LINE
  5
250
330
42F
100
AcDbEntity
  8
_0
  6
Continuous
 62
     7
370
    30
100
AcDbLine
 10
43.697802
 20
4.240635
 30
0.0
 11
43.697802
 21
4.328135
 31
0.0
  0
LINE
  5
251
330
42F
100
AcDbEntity
  8
_0
  6
Continuous
 62
     7
370
    30
100
AcDbLine
 10
44.324969
 20
4.09426
 30
0.0
 11
44.324969
 21
4.23426
 31
0.0
  0
LINE
  5
252
330
42F
100
AcDbEntity
  8
_0
  6
Continuous
 62
     7
370
    30
100
AcDbLine
 10
44.164708
 20
4.09426
 30
0.0
 11
44.164708
 21
4.23426
 31
0.0
  0
LINE
  5
253
330
42F
100
AcDbEntity
  8
_0
  6
Continuous
 62
     7
370
    30
100
AcDbLine
 10
43.586344
 20
4.09426
 30
0.0
 11
43.586344
 21
4.23426
 31
0.0
  0
LINE
  5
254
330
42F
100
AcDbEntity
  8
_0
  6
Continuous
 62
     7
370
    30
100
AcDbLine
 10
43.429313
 20
4.09426
 30
0.0
 11
43.429313
 21
4.23426
 31
0.0
  0
LINE
  5
255
330
42F
100
AcDbEntity
  8
_0
  6
Continuous
 62
     7
370
    30
100
AcDbLine
 10
48.471479
 20
5.386927
 30
0.0
 11
48.611479
 21
5.386927
 31
0.0
  0
LINE
  5
256
330
42F
100
AcDbEntity
  8
_0
  6
Continuous
 62
     7
370
    30
100
AcDbLine
 10
48.471479
 20
5.265344
 30
0.0
 11
48.611479
 21
5.265344
 31
0.0
  0
LINE
  5
257
330
42F
100
AcDbEntity
  8
_0
  6
Continuous
 62
     7
370
    30
100
AcDbLine
 10
48.471479
 20
5.108313
 30
0.0
 11
48.611479
 21
5.108313
 31
0.0
  0
LINE
  5
258
330
42F
100
AcDbEntity
  8
_0
  6
Continuous
 62
     7
370
    30
100
AcDbLine
 10
48.471479
 20
4.968312
 30
0.0
 11
48.611479
 21
4.968312
 31
0.0
  0
LINE
  5
259
330
42F
100
AcDbEntity
  8
_0
  6
Continuous
 62
     7
370
    30
100
AcDbLine
 10
48.471479
 20
4.808052
 30
0.0
 11
48.611479
 21
4.808052
 31
0.0
  0
LINE
  5
25A
330
42F
100
AcDbEntity
  8
_0
  6
Continuous
 62
     7
370
    30
100
AcDbLine
 10
48.471479
 20
4.689698
 30
0.0
 11
48.611479
 21
4.689698
 31
0.0
  0
LINE
  5
25B
330
42F
100
AcDbEntity
  8
_0
  6
Continuous
 62
     7
370
    30
100
AcDbLine
 10
48.617844
 20
5.073313
 30
0.0
 11
48.705344
 21
5.073313
 31
0.0
  0
LINE
  5
25C
330
42F
100
AcDbEntity
  8
_0
  6
Continuous
 62
     7
370
    30
100
AcDbLine
 10
48.617844
 20
5.003312
 30
0.0
 11
48.705344
 21
5.003312
 31
0.0
  0
LINE
  5
25D
330
42F
100
AcDbEntity
  8
_0
  6
Continuous
 62
     7
370
    30
100
AcDbLine
 10
48.705344
 20
5.073313
 30
0.0
 11
48.617844
 21
5.003312
 31
0.0
  0
LINE
  5
25E
330
42F
100
AcDbEntity
  8
_0
  6
Continuous
 62
     7
370
    30
100
AcDbLine
 10
48.001031
 20
5.386927
 30
0.0
 11
48.141031
 21
5.386927
 31
0.0
  0
LINE
  5
25F
330
42F
100
AcDbEntity
  8
_0
  6
Continuous
 62
     7
370
    30
100
AcDbLine
 10
48.001031
 20
5.265344
 30
0.0
 11
48.141031
 21
5.265344
 31
0.0
  0
LINE
  5
260
330
42F
100
AcDbEntity
  8
_0
  6
Continuous
 62
     7
370
    30
100
AcDbLine
 10
48.001031
 20
5.108313
 30
0.0
 11
48.141031
 21
5.108313
 31
0.0
  0
LINE
  5
261
330
42F
100
AcDbEntity
  8
_0
  6
Continuous
 62
     7
370
    30
100
AcDbLine
 10
48.001031
 20
4.968312
 30
0.0
 11
48.141031
 21
4.968312
 31
0.0
  0
LINE
  5
262
330
42F
100
AcDbEntity
  8
_0
  6
Continuous
 62
     7
370
    30
100
AcDbLine
 10
48.001031
 20
4.808052
 30
0.0
 11
48.141031
 21
4.808052
 31
0.0
  0
LINE
  5
263
330
42F
100
AcDbEntity
  8
_0
  6
Continuous
 62
     7
370
    30
100
AcDbLine
 10
48.001031
 20
4.689698
 30
0.0
 11
48.141031
 21
4.689698
 31
0.0
  0
LINE
  5
264
330
42F
100
AcDbEntity
  8
_0
  6
Continuous
 62
     7
370
    30
100
AcDbLine
 10
48.147396
 20
5.073313
 30
0.0
 11
48.234896
 21
5.073313
 31
0.0
  0
LINE
  5
265
330
42F
100
AcDbEntity
  8
_0
  6
Continuous
 62
     7
370
    30
100
AcDbLine
 10
48.147396
 20
5.003312
 30
0.0
 11
48.234896
 21
5.003312
 31
0.0
  0
LINE
  5
266
330
42F
100
AcDbEntity
  8
_0
  6
Continuous
 62
     7
370
    30
100
AcDbLine
 10
48.234896
 20
5.073313
 30
0.0
 11
48.147396
 21
5.003312
 31
0.0
  0
LINE
  5
267
330
42F
100
AcDbEntity
  8
_0
  6
Continuous
 62
     7
370
    30
100
AcDbLine
 10
48.357656
 20
5.073313
 30
0.0
 11
48.270156
 21
5.003312
 31
0.0
  0
LINE
  5
268
330
42F
100
AcDbEntity
  8
_0
  6
Continuous
 62
     7
370
    30
100
AcDbLine
 10
48.270156
 20
5.003312
 30
0.0
 11
48.357656
 21
5.003312
 31
0.0
  0
LINE
  5
269
330
42F
100
AcDbEntity
  8
_0
  6
Continuous
 62
     7
370
    30
100
AcDbLine
 10
48.270156
 20
5.073313
 30
0.0
 11
48.357656
 21
5.073313
 31
0.0
  0
LINE
  5
26A
330
42F
100
AcDbEntity
  8
_0
  6
Continuous
 62
     7
370
    30
100
AcDbLine
 10
48.49626
 20
5.073313
 30
0.0
 11
48.40876
 21
5.003312
 31
0.0
  0
LINE
  5
26B
330
42F
100
AcDbEntity
  8
_0
  6
Continuous
 62
     7
370
    30
100
AcDbLine
 10
48.40876
 20
5.003312
 30
0.0
 11
48.49626
 21
5.003312
 31
0.0
  0
LINE
  5
26C
330
42F
100
AcDbEntity
  8
_0
  6
Continuous
 62
     7
370
    30
100
AcDbLine
 10
48.40876
 20
5.073313
 30
0.0
 11
48.49626
 21
5.073313
 31
0.0
  0
LINE
  5
26D
330
42F
100
AcDbEntity
  8
_0
  6
Continuous
 62
     7
370
    30
100
AcDbLine
 10
47.525115
 20
5.386927
 30
0.0
 11
47.665115
 21
5.386927
 31
0.0
  0
LINE
  5
26E
330
42F
100
AcDbEntity
  8
_0
  6
Continuous
 62
     7
370
    30
100
AcDbLine
 10
47.525115
 20
5.265344
 30
0.0
 11
47.665115
 21
5.265344
 31
0.0
  0
LINE
  5
26F
330
42F
100
AcDbEntity
  8
_0
  6
Continuous
 62
     7
370
    30
100
AcDbLine
 10
47.525115
 20
5.108313
 30
0.0
 11
47.665115
 21
5.108313
 31
0.0
  0
LINE
  5
270
330
42F
100
AcDbEntity
  8
_0
  6
Continuous
 62
     7
370
    30
100
AcDbLine
 10
47.525115
 20
4.968312
 30
0.0
 11
47.665115
 21
4.968312
 31
0.0
  0
LINE
  5
271
330
42F
100
AcDbEntity
  8
_0
  6
Continuous
 62
     7
370
    30
100
AcDbLine
 10
47.525115
 20
4.808052
 30
0.0
 11
47.665115
 21
4.808052
 31
0.0
  0
LINE
  5
272
330
42F
100
AcDbEntity
  8
_0
  6
Continuous
 62
     7
370
    30
100
AcDbLine
 10
47.525115
 20
4.689698
 30
0.0
 11
47.665115
 21
4.689698
 31
0.0
  0
LINE
  5
273
330
42F
100
AcDbEntity
  8
_0
  6
Continuous
 62
     7
370
    30
100
AcDbLine
 10
47.671479
 20
5.073313
 30
0.0
 11
47.758979
 21
5.073313
 31
0.0
  0
LINE
  5
274
330
42F
100
AcDbEntity
  8
_0
  6
Continuous
 62
     7
370
    30
100
AcDbLine
 10
47.671479
 20
5.003312
 30
0.0
 11
47.758979
 21
5.003312
 31
0.0
  0
LINE
  5
275
330
42F
100
AcDbEntity
  8
_0
  6
Continuous
 62
     7
370
    30
100
AcDbLine
 10
47.758979
 20
5.073313
 30
0.0
 11
47.671479
 21
5.003312
 31
0.0
  0
LINE
  5
276
330
42F
100
AcDbEntity
  8
_0
  6
Continuous
 62
     7
370
    30
100
AcDbLine
 10
47.88174
 20
5.073313
 30
0.0
 11
47.79424
 21
5.003312
 31
0.0
  0
LINE
  5
277
330
42F
100
AcDbEntity
  8
_0
  6
Continuous
 62
     7
370
    30
100
AcDbLine
 10
47.79424
 20
5.003312
 30
0.0
 11
47.88174
 21
5.003312
 31
0.0
  0
LINE
  5
278
330
42F
100
AcDbEntity
  8
_0
  6
Continuous
 62
     7
370
    30
100
AcDbLine
 10
47.79424
 20
5.073313
 30
0.0
 11
47.88174
 21
5.073313
 31
0.0
  0
LINE
  5
279
330
42F
100
AcDbEntity
  8
_0
  6
Continuous
 62
     7
370
    30
100
AcDbLine
 10
48.020344
 20
5.073313
 30
0.0
 11
47.932844
 21
5.003312
 31
0.0
  0
LINE
  5
27A
330
42F
100
AcDbEntity
  8
_0
  6
Continuous
 62
     7
370
    30
100
AcDbLine
 10
47.932844
 20
5.003312
 30
0.0
 11
48.020344
 21
5.003312
 31
0.0
  0
LINE
  5
27B
330
42F
100
AcDbEntity
  8
_0
  6
Continuous
 62
     7
370
    30
100
AcDbLine
 10
47.932844
 20
5.073313
 30
0.0
 11
48.020344
 21
5.073313
 31
0.0
  0
LINE
  5
27C
330
42F
100
AcDbEntity
  8
_0
  6
Continuous
 62
     7
370
    30
100
AcDbLine
 10
47.049198
 20
5.386927
 30
0.0
 11
47.189198
 21
5.386927
 31
0.0
  0
LINE
  5
27D
330
42F
100
AcDbEntity
  8
_0
  6
Continuous
 62
     7
370
    30
100
AcDbLine
 10
47.049198
 20
5.265344
 30
0.0
 11
47.189198
 21
5.265344
 31
0.0
  0
LINE
  5
27E
330
42F
100
AcDbEntity
  8
_0
  6
Continuous
 62
     7
370
    30
100
AcDbLine
 10
47.049198
 20
5.108313
 30
0.0
 11
47.189198
 21
5.108313
 31
0.0
  0
LINE
  5
27F
330
42F
100
AcDbEntity
  8
_0
  6
Continuous
 62
     7
370
    30
100
AcDbLine
 10
47.049198
 20
4.968312
 30
0.0
 11
47.189198
 21
4.968312
 31
0.0
  0
LINE
  5
280
330
42F
100
AcDbEntity
  8
_0
  6
Continuous
 62
     7
370
    30
100
AcDbLine
 10
47.049198
 20
4.808052
 30
0.0
 11
47.189198
 21
4.808052
 31
0.0
  0
LINE
  5
281
330
42F
100
AcDbEntity
  8
_0
  6
Continuous
 62
     7
370
    30
100
AcDbLine
 10
47.049198
 20
4.689698
 30
0.0
 11
47.189198
 21
4.689698
 31
0.0
  0
LINE
  5
282
330
42F
100
AcDbEntity
  8
_0
  6
Continuous
 62
     7
370
    30
100
AcDbLine
 10
47.195563
 20
5.073313
 30
0.0
 11
47.283062
 21
5.073313
 31
0.0
  0
LINE
  5
283
330
42F
100
AcDbEntity
  8
_0
  6
Continuous
 62
     7
370
    30
100
AcDbLine
 10
47.195563
 20
5.003312
 30
0.0
 11
47.283062
 21
5.003312
 31
0.0
  0
LINE
  5
284
330
42F
100
AcDbEntity
  8
_0
  6
Continuous
 62
     7
370
    30
100
AcDbLine
 10
47.283062
 20
5.073313
 30
0.0
 11
47.195563
 21
5.003312
 31
0.0
  0
LINE
  5
285
330
42F
100
AcDbEntity
  8
_0
  6
Continuous
 62
     7
370
    30
100
AcDbLine
 10
47.405823
 20
5.073313
 30
0.0
 11
47.318323
 21
5.003312
 31
0.0
  0
LINE
  5
286
330
42F
100
AcDbEntity
  8
_0
  6
Continuous
 62
     7
370
    30
100
AcDbLine
 10
47.318323
 20
5.003312
 30
0.0
 11
47.405823
 21
5.003312
 31
0.0
  0
LINE
  5
287
330
42F
100
AcDbEntity
  8
_0
  6
Continuous
 62
     7
370
    30
100
AcDbLine
 10
47.318323
 20
5.073313
 30
0.0
 11
47.405823
 21
5.073313
 31
0.0
  0
LINE
  5
288
330
42F
100
AcDbEntity
  8
_0
  6
Continuous
 62
     7
370
    30
100
AcDbLine
 10
47.544427
 20
5.073313
 30
0.0
 11
47.456927
 21
5.003312
 31
0.0
  0
LINE
  5
289
330
42F
100
AcDbEntity
  8
_0
  6
Continuous
 62
     7
370
    30
100
AcDbLine
 10
47.456927
 20
5.003312
 30
0.0
 11
47.544427
 21
5.003312
 31
0.0
  0
LINE
  5
28A
330
42F
100
AcDbEntity
  8
_0
  6
Continuous
 62
     7
370
    30
100
AcDbLine
 10
47.456927
 20
5.073313
 30
0.0
 11
47.544427
 21
5.073313
 31
0.0
  0
LINE
  5
28B
330
42F
100
AcDbEntity
  8
_0
  6
Continuous
 62
     7
370
    30
100
AcDbLine
 10
46.573281
 20
5.386927
 30
0.0
 11
46.713281
 21
5.386927
 31
0.0
  0
LINE
  5
28C
330
42F
100
AcDbEntity
  8
_0
  6
Continuous
 62
     7
370
    30
100
AcDbLine
 10
46.573281
 20
5.265344
 30
0.0
 11
46.713281
 21
5.265344
 31
0.0
  0
LINE
  5
28D
330
42F
100
AcDbEntity
  8
_0
  6
Continuous
 62
     7
370
    30
100
AcDbLine
 10
46.573281
 20
5.108313
 30
0.0
 11
46.713281
 21
5.108313
 31
0.0
  0
LINE
  5
28E
330
42F
100
AcDbEntity
  8
_0
  6
Continuous
 62
     7
370
    30
100
AcDbLine
 10
46.573281
 20
4.968312
 30
0.0
 11
46.713281
 21
4.968312
 31
0.0
  0
LINE
  5
28F
330
42F
100
AcDbEntity
  8
_0
  6
Continuous
 62
     7
370
    30
100
AcDbLine
 10
46.573281
 20
4.808052
 30
0.0
 11
46.713281
 21
4.808052
 31
0.0
  0
LINE
  5
290
330
42F
100
AcDbEntity
  8
_0
  6
Continuous
 62
     7
370
    30
100
AcDbLine
 10
46.573281
 20
4.689698
 30
0.0
 11
46.713281
 21
4.689698
 31
0.0
  0
LINE
  5
291
330
42F
100
AcDbEntity
  8
_0
  6
Continuous
 62
     7
370
    30
100
AcDbLine
 10
46.719646
 20
5.073313
 30
0.0
 11
46.807146
 21
5.073313
 31
0.0
  0
LINE
  5
292
330
42F
100
AcDbEntity
  8
_0
  6
Continuous
 62
     7
370
    30
100
AcDbLine
 10
46.719646
 20
5.003312
 30
0.0
 11
46.807146
 21
5.003312
 31
0.0
  0
LINE
  5
293
330
42F
100
AcDbEntity
  8
_0
  6
Continuous
 62
     7
370
    30
100
AcDbLine
 10
46.807146
 20
5.073313
 30
0.0
 11
46.719646
 21
5.003312
 31
0.0
  0
LINE
  5
294
330
42F
100
AcDbEntity
  8
_0
  6
Continuous
 62
     7
370
    30
100
AcDbLine
 10
46.929906
 20
5.073313
 30
0.0
 11
46.842406
 21
5.003312
 31
0.0
  0
LINE
  5
295
330
42F
100
AcDbEntity
  8
_0
  6
Continuous
 62
     7
370
    30
100
AcDbLine
 10
46.842406
 20
5.003312
 30
0.0
 11
46.929906
 21
5.003312
 31
0.0
  0
LINE
  5
296
330
42F
100
AcDbEntity
  8
_0
  6
Continuous
 62
     7
370
    30
100
AcDbLine
 10
46.842406
 20
5.073313
 30
0.0
 11
46.929906
 21
5.073313
 31
0.0
  0
LINE
  5
297
330
42F
100
AcDbEntity
  8
_0
  6
Continuous
 62
     7
370
    30
100
AcDbLine
 10
47.06851
 20
5.073313
 30
0.0
 11
46.98101
 21
5.003312
 31
0.0
  0
LINE
  5
298
330
42F
100
AcDbEntity
  8
_0
  6
Continuous
 62
     7
370
    30
100
AcDbLine
 10
46.98101
 20
5.003312
 30
0.0
 11
47.06851
 21
5.003312
 31
0.0
  0
LINE
  5
299
330
42F
100
AcDbEntity
  8
_0
  6
Continuous
 62
     7
370
    30
100
AcDbLine
 10
46.98101
 20
5.073313
 30
0.0
 11
47.06851
 21
5.073313
 31
0.0
  0
LINE
  5
29A
330
42F
100
AcDbEntity
  8
_0
  6
Continuous
 62
     7
370
    30
100
AcDbLine
 10
46.097365
 20
5.386927
 30
0.0
 11
46.237365
 21
5.386927
 31
0.0
  0
LINE
  5
29B
330
42F
100
AcDbEntity
  8
_0
  6
Continuous
 62
     7
370
    30
100
AcDbLine
 10
46.097365
 20
5.265344
 30
0.0
 11
46.237365
 21
5.265344
 31
0.0
  0
LINE
  5
29C
330
42F
100
AcDbEntity
  8
_0
  6
Continuous
 62
     7
370
    30
100
AcDbLine
 10
46.097365
 20
5.108313
 30
0.0
 11
46.237365
 21
5.108313
 31
0.0
  0
LINE
  5
29D
330
42F
100
AcDbEntity
  8
_0
  6
Continuous
 62
     7
370
    30
100
AcDbLine
 10
46.097365
 20
4.968312
 30
0.0
 11
46.237365
 21
4.968312
 31
0.0
  0
LINE
  5
29E
330
42F
100
AcDbEntity
  8
_0
  6
Continuous
 62
     7
370
    30
100
AcDbLine
 10
46.097365
 20
4.808052
 30
0.0
 11
46.237365
 21
4.808052
 31
0.0
  0
LINE
  5
29F
330
42F
100
AcDbEntity
  8
_0
  6
Continuous
 62
     7
370
    30
100
AcDbLine
 10
46.097365
 20
4.689698
 30
0.0
 11
46.237365
 21
4.689698
 31
0.0
  0
LINE
  5
2A0
330
42F
100
AcDbEntity
  8
_0
  6
Continuous
 62
     7
370
    30
100
AcDbLine
 10
46.24374
 20
5.073313
 30
0.0
 11
46.33124
 21
5.073313
 31
0.0
  0
LINE
  5
2A1
330
42F
100
AcDbEntity
  8
_0
  6
Continuous
 62
     7
370
    30
100
AcDbLine
 10
46.24374
 20
5.003312
 30
0.0
 11
46.33124
 21
5.003312
 31
0.0
  0
LINE
  5
2A2
330
42F
100
AcDbEntity
  8
_0
  6
Continuous
 62
     7
370
    30
100
AcDbLine
 10
46.33124
 20
5.073313
 30
0.0
 11
46.24374
 21
5.003312
 31
0.0
  0
LINE
  5
2A3
330
42F
100
AcDbEntity
  8
_0
  6
Continuous
 62
     7
370
    30
100
AcDbLine
 10
46.45399
 20
5.073313
 30
0.0
 11
46.36649
 21
5.003312
 31
0.0
  0
LINE
  5
2A4
330
42F
100
AcDbEntity
  8
_0
  6
Continuous
 62
     7
370
    30
100
AcDbLine
 10
46.36649
 20
5.003312
 30
0.0
 11
46.45399
 21
5.003312
 31
0.0
  0
LINE
  5
2A5
330
42F
100
AcDbEntity
  8
_0
  6
Continuous
 62
     7
370
    30
100
AcDbLine
 10
46.36649
 20
5.073313
 30
0.0
 11
46.45399
 21
5.073313
 31
0.0
  0
LINE
  5
2A6
330
42F
100
AcDbEntity
  8
_0
  6
Continuous
 62
     7
370
    30
100
AcDbLine
 10
46.592594
 20
5.073313
 30
0.0
 11
46.505094
 21
5.003312
 31
0.0
  0
LINE
  5
2A7
330
42F
100
AcDbEntity
  8
_0
  6
Continuous
 62
     7
370
    30
100
AcDbLine
 10
46.505094
 20
5.003312
 30
0.0
 11
46.592594
 21
5.003312
 31
0.0
  0
LINE
  5
2A8
330
42F
100
AcDbEntity
  8
_0
  6
Continuous
 62
     7
370
    30
100
AcDbLine
 10
46.505094
 20
5.073313
 30
0.0
 11
46.592594
 21
5.073313
 31
0.0
  0
LINE
  5
2A9
330
42F
100
AcDbEntity
  8
_0
  6
Continuous
 62
     7
370
    30
100
AcDbLine
 10
45.649062
 20
5.386927
 30
0.0
 11
45.789062
 21
5.386927
 31
0.0
  0
LINE
  5
2AA
330
42F
100
AcDbEntity
  8
_0
  6
Continuous
 62
     7
370
    30
100
AcDbLine
 10
45.649062
 20
5.265344
 30
0.0
 11
45.789062
 21
5.265344
 31
0.0
  0
LINE
  5
2AB
330
42F
100
AcDbEntity
  8
_0
  6
Continuous
 62
     7
370
    30
100
AcDbLine
 10
45.649062
 20
5.108313
 30
0.0
 11
45.789062
 21
5.108313
 31
0.0
  0
LINE
  5
2AC
330
42F
100
AcDbEntity
  8
_0
  6
Continuous
 62
     7
370
    30
100
AcDbLine
 10
45.649062
 20
4.968312
 30
0.0
 11
45.789062
 21
4.968312
 31
0.0
  0
LINE
  5
2AD
330
42F
100
AcDbEntity
  8
_0
  6
Continuous
 62
     7
370
    30
100
AcDbLine
 10
45.649062
 20
4.808052
 30
0.0
 11
45.789062
 21
4.808052
 31
0.0
  0
LINE
  5
2AE
330
42F
100
AcDbEntity
  8
_0
  6
Continuous
 62
     7
370
    30
100
AcDbLine
 10
45.649062
 20
4.689698
 30
0.0
 11
45.789062
 21
4.689698
 31
0.0
  0
LINE
  5
2AF
330
42F
100
AcDbEntity
  8
_0
  6
Continuous
 62
     7
370
    30
100
AcDbLine
 10
45.795427
 20
5.073313
 30
0.0
 11
45.882927
 21
5.073313
 31
0.0
  0
LINE
  5
2B0
330
42F
100
AcDbEntity
  8
_0
  6
Continuous
 62
     7
370
    30
100
AcDbLine
 10
45.795427
 20
5.003312
 30
0.0
 11
45.882927
 21
5.003312
 31
0.0
  0
LINE
  5
2B1
330
42F
100
AcDbEntity
  8
_0
  6
Continuous
 62
     7
370
    30
100
AcDbLine
 10
45.882927
 20
5.073313
 30
0.0
 11
45.795427
 21
5.003312
 31
0.0
  0
LINE
  5
2B2
330
42F
100
AcDbEntity
  8
_0
  6
Continuous
 62
     7
370
    30
100
AcDbLine
 10
46.005688
 20
5.073313
 30
0.0
 11
45.918188
 21
5.003312
 31
0.0
  0
LINE
  5
2B3
330
42F
100
AcDbEntity
  8
_0
  6
Continuous
 62
     7
370
    30
100
AcDbLine
 10
45.918188
 20
5.003312
 30
0.0
 11
46.005688
 21
5.003312
 31
0.0
  0
LINE
  5
2B4
330
42F
100
AcDbEntity
  8
_0
  6
Continuous
 62
     7
370
    30
100
AcDbLine
 10
45.918188
 20
5.073313
 30
0.0
 11
46.005688
 21
5.073313
 31
0.0
  0
LINE
  5
2B5
330
42F
100
AcDbEntity
  8
_0
  6
Continuous
 62
     7
370
    30
100
AcDbLine
 10
46.144281
 20
5.073313
 30
0.0
 11
46.056781
 21
5.003312
 31
0.0
  0
LINE
  5
2B6
330
42F
100
AcDbEntity
  8
_0
  6
Continuous
 62
     7
370
    30
100
AcDbLine
 10
46.056781
 20
5.003312
 30
0.0
 11
46.144281
 21
5.003312
 31
0.0
  0
LINE
  5
2B7
330
42F
100
AcDbEntity
  8
_0
  6
Continuous
 62
     7
370
    30
100
AcDbLine
 10
46.056781
 20
5.073313
 30
0.0
 11
46.144281
 21
5.073313
 31
0.0
  0
LINE
  5
2B8
330
42F
100
AcDbEntity
  8
_0
  6
Continuous
 62
     7
370
    30
100
AcDbLine
 10
45.145865
 20
5.386927
 30
0.0
 11
45.285865
 21
5.386927
 31
0.0
  0
LINE
  5
2B9
330
42F
100
AcDbEntity
  8
_0
  6
Continuous
 62
     7
370
    30
100
AcDbLine
 10
45.145865
 20
5.265344
 30
0.0
 11
45.285865
 21
5.265344
 31
0.0
  0
LINE
  5
2BA
330
42F
100
AcDbEntity
  8
_0
  6
Continuous
 62
     7
370
    30
100
AcDbLine
 10
45.145865
 20
5.108313
 30
0.0
 11
45.285865
 21
5.108313
 31
0.0
  0
LINE
  5
2BB
330
42F
100
AcDbEntity
  8
_0
  6
Continuous
 62
     7
370
    30
100
AcDbLine
 10
45.145865
 20
4.968312
 30
0.0
 11
45.285865
 21
4.968312
 31
0.0
  0
LINE
  5
2BC
330
42F
100
AcDbEntity
  8
_0
  6
Continuous
 62
     7
370
    30
100
AcDbLine
 10
45.145865
 20
4.808052
 30
0.0
 11
45.285865
 21
4.808052
 31
0.0
  0
LINE
  5
2BD
330
42F
100
AcDbEntity
  8
_0
  6
Continuous
 62
     7
370
    30
100
AcDbLine
 10
45.145865
 20
4.689698
 30
0.0
 11
45.285865
 21
4.689698
 31
0.0
  0
LINE
  5
2BE
330
42F
100
AcDbEntity
  8
_0
  6
Continuous
 62
     7
370
    30
100
AcDbLine
 10
45.292229
 20
5.073313
 30
0.0
 11
45.379729
 21
5.073313
 31
0.0
  0
LINE
  5
2BF
330
42F
100
AcDbEntity
  8
_0
  6
Continuous
 62
     7
370
    30
100
AcDbLine
 10
45.292229
 20
5.003312
 30
0.0
 11
45.379729
 21
5.003312
 31
0.0
  0
LINE
  5
2C0
330
42F
100
AcDbEntity
  8
_0
  6
Continuous
 62
     7
370
    30
100
AcDbLine
 10
45.379729
 20
5.073313
 30
0.0
 11
45.292229
 21
5.003312
 31
0.0
  0
LINE
  5
2C1
330
42F
100
AcDbEntity
  8
_0
  6
Continuous
 62
     7
370
    30
100
AcDbLine
 10
45.50249
 20
5.073313
 30
0.0
 11
45.41499
 21
5.003312
 31
0.0
  0
LINE
  5
2C2
330
42F
100
AcDbEntity
  8
_0
  6
Continuous
 62
     7
370
    30
100
AcDbLine
 10
45.41499
 20
5.003312
 30
0.0
 11
45.50249
 21
5.003312
 31
0.0
  0
LINE
  5
2C3
330
42F
100
AcDbEntity
  8
_0
  6
Continuous
 62
     7
370
    30
100
AcDbLine
 10
45.41499
 20
5.073313
 30
0.0
 11
45.50249
 21
5.073313
 31
0.0
  0
LINE
  5
2C4
330
42F
100
AcDbEntity
  8
_0
  6
Continuous
 62
     7
370
    30
100
AcDbLine
 10
45.641083
 20
5.073313
 30
0.0
 11
45.553583
 21
5.003312
 31
0.0
  0
LINE
  5
2C5
330
42F
100
AcDbEntity
  8
_0
  6
Continuous
 62
     7
370
    30
100
AcDbLine
 10
45.553583
 20
5.003312
 30
0.0
 11
45.641083
 21
5.003312
 31
0.0
  0
LINE
  5
2C6
330
42F
100
AcDbEntity
  8
_0
  6
Continuous
 62
     7
370
    30
100
AcDbLine
 10
45.553583
 20
5.073313
 30
0.0
 11
45.641083
 21
5.073313
 31
0.0
  0
LINE
  5
2C7
330
42F
100
AcDbEntity
  8
_0
  6
Continuous
 62
     7
370
    30
100
AcDbLine
 10
44.67549
 20
5.386927
 30
0.0
 11
44.81549
 21
5.386927
 31
0.0
  0
LINE
  5
2C8
330
42F
100
AcDbEntity
  8
_0
  6
Continuous
 62
     7
370
    30
100
AcDbLine
 10
44.67549
 20
5.265344
 30
0.0
 11
44.81549
 21
5.265344
 31
0.0
  0
LINE
  5
2C9
330
42F
100
AcDbEntity
  8
_0
  6
Continuous
 62
     7
370
    30
100
AcDbLine
 10
44.67549
 20
5.108313
 30
0.0
 11
44.81549
 21
5.108313
 31
0.0
  0
LINE
  5
2CA
330
42F
100
AcDbEntity
  8
_0
  6
Continuous
 62
     7
370
    30
100
AcDbLine
 10
44.67549
 20
4.968312
 30
0.0
 11
44.81549
 21
4.968312
 31
0.0
  0
LINE
  5
2CB
330
42F
100
AcDbEntity
  8
_0
  6
Continuous
 62
     7
370
    30
100
AcDbLine
 10
44.67549
 20
4.808052
 30
0.0
 11
44.81549
 21
4.808052
 31
0.0
  0
LINE
  5
2CC
330
42F
100
AcDbEntity
  8
_0
  6
Continuous
 62
     7
370
    30
100
AcDbLine
 10
44.67549
 20
4.689698
 30
0.0
 11
44.81549
 21
4.689698
 31
0.0
  0
LINE
  5
2CD
330
42F
100
AcDbEntity
  8
_0
  6
Continuous
 62
     7
370
    30
100
AcDbLine
 10
44.821854
 20
5.073313
 30
0.0
 11
44.909354
 21
5.073313
 31
0.0
  0
LINE
  5
2CE
330
42F
100
AcDbEntity
  8
_0
  6
Continuous
 62
     7
370
    30
100
AcDbLine
 10
44.821854
 20
5.003312
 30
0.0
 11
44.909354
 21
5.003312
 31
0.0
  0
LINE
  5
2CF
330
42F
100
AcDbEntity
  8
_0
  6
Continuous
 62
     7
370
    30
100
AcDbLine
 10
44.909354
 20
5.073313
 30
0.0
 11
44.821854
 21
5.003312
 31
0.0
  0
LINE
  5
2D0
330
42F
100
AcDbEntity
  8
_0
  6
Continuous
 62
     7
370
    30
100
AcDbLine
 10
45.032104
 20
5.073313
 30
0.0
 11
44.944604
 21
5.003312
 31
0.0
  0
LINE
  5
2D1
330
42F
100
AcDbEntity
  8
_0
  6
Continuous
 62
     7
370
    30
100
AcDbLine
 10
44.944604
 20
5.003312
 30
0.0
 11
45.032104
 21
5.003312
 31
0.0
  0
LINE
  5
2D2
330
42F
100
AcDbEntity
  8
_0
  6
Continuous
 62
     7
370
    30
100
AcDbLine
 10
44.944604
 20
5.073313
 30
0.0
 11
45.032104
 21
5.073313
 31
0.0
  0
LINE
  5
2D3
330
42F
100
AcDbEntity
  8
_0
  6
Continuous
 62
     7
370
    30
100
AcDbLine
 10
45.170708
 20
5.073313
 30
0.0
 11
45.083208
 21
5.003312
 31
0.0
  0
LINE
  5
2D4
330
42F
100
AcDbEntity
  8
_0
  6
Continuous
 62
     7
370
    30
100
AcDbLine
 10
45.083208
 20
5.003312
 30
0.0
 11
45.170708
 21
5.003312
 31
0.0
  0
LINE
  5
2D5
330
42F
100
AcDbEntity
  8
_0
  6
Continuous
 62
     7
370
    30
100
AcDbLine
 10
45.083208
 20
5.073313
 30
0.0
 11
45.170708
 21
5.073313
 31
0.0
  0
LINE
  5
2D6
330
42F
100
AcDbEntity
  8
_0
  6
Continuous
 62
     7
370
    30
100
AcDbLine
 10
44.172292
 20
5.386927
 30
0.0
 11
44.312292
 21
5.386927
 31
0.0
  0
LINE
  5
2D7
330
42F
100
AcDbEntity
  8
_0
  6
Continuous
 62
     7
370
    30
100
AcDbLine
 10
44.172292
 20
5.265344
 30
0.0
 11
44.312292
 21
5.265344
 31
0.0
  0
LINE
  5
2D8
330
42F
100
AcDbEntity
  8
_0
  6
Continuous
 62
     7
370
    30
100
AcDbLine
 10
44.172292
 20
5.108313
 30
0.0
 11
44.312292
 21
5.108313
 31
0.0
  0
LINE
  5
2D9
330
42F
100
AcDbEntity
  8
_0
  6
Continuous
 62
     7
370
    30
100
AcDbLine
 10
44.172292
 20
4.968312
 30
0.0
 11
44.312292
 21
4.968312
 31
0.0
  0
LINE
  5
2DA
330
42F
100
AcDbEntity
  8
_0
  6
Continuous
 62
     7
370
    30
100
AcDbLine
 10
44.172292
 20
4.808052
 30
0.0
 11
44.312292
 21
4.808052
 31
0.0
  0
LINE
  5
2DB
330
42F
100
AcDbEntity
  8
_0
  6
Continuous
 62
     7
370
    30
100
AcDbLine
 10
44.172292
 20
4.689698
 30
0.0
 11
44.312292
 21
4.689698
 31
0.0
  0
LINE
  5
2DC
330
42F
100
AcDbEntity
  8
_0
  6
Continuous
 62
     7
370
    30
100
AcDbLine
 10
44.318656
 20
5.073313
 30
0.0
 11
44.406156
 21
5.073313
 31
0.0
  0
LINE
  5
2DD
330
42F
100
AcDbEntity
  8
_0
  6
Continuous
 62
     7
370
    30
100
AcDbLine
 10
44.318656
 20
5.003312
 30
0.0
 11
44.406156
 21
5.003312
 31
0.0
  0
LINE
  5
2DE
330
42F
100
AcDbEntity
  8
_0
  6
Continuous
 62
     7
370
    30
100
AcDbLine
 10
44.406156
 20
5.073313
 30
0.0
 11
44.318656
 21
5.003312
 31
0.0
  0
LINE
  5
2DF
330
42F
100
AcDbEntity
  8
_0
  6
Continuous
 62
     7
370
    30
100
AcDbLine
 10
44.528917
 20
5.073313
 30
0.0
 11
44.441417
 21
5.003312
 31
0.0
  0
LINE
  5
2E0
330
42F
100
AcDbEntity
  8
_0
  6
Continuous
 62
     7
370
    30
100
AcDbLine
 10
44.441417
 20
5.003312
 30
0.0
 11
44.528917
 21
5.003312
 31
0.0
  0
LINE
  5
2E1
330
42F
100
AcDbEntity
  8
_0
  6
Continuous
 62
     7
370
    30
100
AcDbLine
 10
44.441417
 20
5.073313
 30
0.0
 11
44.528917
 21
5.073313
 31
0.0
  0
LINE
  5
2E2
330
42F
100
AcDbEntity
  8
_0
  6
Continuous
 62
     7
370
    30
100
AcDbLine
 10
44.66751
 20
5.073313
 30
0.0
 11
44.58001
 21
5.003312
 31
0.0
  0
LINE
  5
2E3
330
42F
100
AcDbEntity
  8
_0
  6
Continuous
 62
     7
370
    30
100
AcDbLine
 10
44.58001
 20
5.003312
 30
0.0
 11
44.66751
 21
5.003312
 31
0.0
  0
LINE
  5
2E4
330
42F
100
AcDbEntity
  8
_0
  6
Continuous
 62
     7
370
    30
100
AcDbLine
 10
44.58001
 20
5.073313
 30
0.0
 11
44.66751
 21
5.073313
 31
0.0
  0
LINE
  5
2E5
330
42F
100
AcDbEntity
  8
_0
  6
Continuous
 62
     7
370
    30
100
AcDbLine
 10
43.696438
 20
5.386927
 30
0.0
 11
43.836437
 21
5.386927
 31
0.0
  0
LINE
  5
2E6
330
42F
100
AcDbEntity
  8
_0
  6
Continuous
 62
     7
370
    30
100
AcDbLine
 10
43.696438
 20
5.265344
 30
0.0
 11
43.836437
 21
5.265344
 31
0.0
  0
LINE
  5
2E7
330
42F
100
AcDbEntity
  8
_0
  6
Continuous
 62
     7
370
    30
100
AcDbLine
 10
43.696438
 20
5.108313
 30
0.0
 11
43.836437
 21
5.108313
 31
0.0
  0
LINE
  5
2E8
330
42F
100
AcDbEntity
  8
_0
  6
Continuous
 62
     7
370
    30
100
AcDbLine
 10
43.696438
 20
4.968312
 30
0.0
 11
43.836437
 21
4.968312
 31
0.0
  0
LINE
  5
2E9
330
42F
100
AcDbEntity
  8
_0
  6
Continuous
 62
     7
370
    30
100
AcDbLine
 10
43.696438
 20
4.808052
 30
0.0
 11
43.836437
 21
4.808052
 31
0.0
  0
LINE
  5
2EA
330
42F
100
AcDbEntity
  8
_0
  6
Continuous
 62
     7
370
    30
100
AcDbLine
 10
43.696438
 20
4.689698
 30
0.0
 11
43.836437
 21
4.689698
 31
0.0
  0
LINE
  5
2EB
330
42F
100
AcDbEntity
  8
_0
  6
Continuous
 62
     7
370
    30
100
AcDbLine
 10
43.842813
 20
5.073313
 30
0.0
 11
43.930312
 21
5.073313
 31
0.0
  0
LINE
  5
2EC
330
42F
100
AcDbEntity
  8
_0
  6
Continuous
 62
     7
370
    30
100
AcDbLine
 10
43.842813
 20
5.003312
 30
0.0
 11
43.930312
 21
5.003312
 31
0.0
  0
LINE
  5
2ED
330
42F
100
AcDbEntity
  8
_0
  6
Continuous
 62
     7
370
    30
100
AcDbLine
 10
43.930312
 20
5.073313
 30
0.0
 11
43.842813
 21
5.003312
 31
0.0
  0
LINE
  5
2EE
330
42F
100
AcDbEntity
  8
_0
  6
Continuous
 62
     7
370
    30
100
AcDbLine
 10
44.053062
 20
5.073313
 30
0.0
 11
43.965562
 21
5.003312
 31
0.0
  0
LINE
  5
2EF
330
42F
100
AcDbEntity
  8
_0
  6
Continuous
 62
     7
370
    30
100
AcDbLine
 10
43.965562
 20
5.003312
 30
0.0
 11
44.053062
 21
5.003312
 31
0.0
  0
LINE
  5
2F0
330
42F
100
AcDbEntity
  8
_0
  6
Continuous
 62
     7
370
    30
100
AcDbLine
 10
43.965562
 20
5.073313
 30
0.0
 11
44.053062
 21
5.073313
 31
0.0
  0
LINE
  5
2F1
330
42F
100
AcDbEntity
  8
_0
  6
Continuous
 62
     7
370
    30
100
AcDbLine
 10
44.191667
 20
5.073313
 30
0.0
 11
44.104167
 21
5.003312
 31
0.0
  0
LINE
  5
2F2
330
42F
100
AcDbEntity
  8
_0
  6
Continuous
 62
     7
370
    30
100
AcDbLine
 10
44.104167
 20
5.003312
 30
0.0
 11
44.191667
 21
5.003312
 31
0.0
  0
LINE
  5
2F3
330
42F
100
AcDbEntity
  8
_0
  6
Continuous
 62
     7
370
    30
100
AcDbLine
 10
44.104167
 20
5.073313
 30
0.0
 11
44.191667
 21
5.073313
 31
0.0
  0
LINE
  5
2F4
330
42F
100
AcDbEntity
  8
_0
  6
Continuous
 62
     7
370
    30
100
AcDbLine
 10
43.220594
 20
5.386927
 30
0.0
 11
43.360594
 21
5.386927
 31
0.0
  0
LINE
  5
2F5
330
42F
100
AcDbEntity
  8
_0
  6
Continuous
 62
     7
370
    30
100
AcDbLine
 10
43.220594
 20
5.265344
 30
0.0
 11
43.360594
 21
5.265344
 31
0.0
  0
LINE
  5
2F6
330
42F
100
AcDbEntity
  8
_0
  6
Continuous
 62
     7
370
    30
100
AcDbLine
 10
43.220594
 20
5.108313
 30
0.0
 11
43.360594
 21
5.108313
 31
0.0
  0
LINE
  5
2F7
330
42F
100
AcDbEntity
  8
_0
  6
Continuous
 62
     7
370
    30
100
AcDbLine
 10
43.220594
 20
4.968312
 30
0.0
 11
43.360594
 21
4.968312
 31
0.0
  0
LINE
  5
2F8
330
42F
100
AcDbEntity
  8
_0
  6
Continuous
 62
     7
370
    30
100
AcDbLine
 10
43.220594
 20
4.808052
 30
0.0
 11
43.360594
 21
4.808052
 31
0.0
  0
LINE
  5
2F9
330
42F
100
AcDbEntity
  8
_0
  6
Continuous
 62
     7
370
    30
100
AcDbLine
 10
43.220594
 20
4.689698
 30
0.0
 11
43.360594
 21
4.689698
 31
0.0
  0
LINE
  5
2FA
330
42F
100
AcDbEntity
  8
_0
  6
Continuous
 62
     7
370
    30
100
AcDbLine
 10
43.366958
 20
5.073313
 30
0.0
 11
43.454458
 21
5.073313
 31
0.0
  0
LINE
  5
2FB
330
42F
100
AcDbEntity
  8
_0
  6
Continuous
 62
     7
370
    30
100
AcDbLine
 10
43.366958
 20
5.003312
 30
0.0
 11
43.454458
 21
5.003312
 31
0.0
  0
LINE
  5
2FC
330
42F
100
AcDbEntity
  8
_0
  6
Continuous
 62
     7
370
    30
100
AcDbLine
 10
43.454458
 20
5.073313
 30
0.0
 11
43.366958
 21
5.003312
 31
0.0
  0
LINE
  5
2FD
330
42F
100
AcDbEntity
  8
_0
  6
Continuous
 62
     7
370
    30
100
AcDbLine
 10
43.577219
 20
5.073313
 30
0.0
 11
43.489719
 21
5.003312
 31
0.0
  0
LINE
  5
2FE
330
42F
100
AcDbEntity
  8
_0
  6
Continuous
 62
     7
370
    30
100
AcDbLine
 10
43.489719
 20
5.003312
 30
0.0
 11
43.577219
 21
5.003312
 31
0.0
  0
LINE
  5
2FF
330
42F
100
AcDbEntity
  8
_0
  6
Continuous
 62
     7
370
    30
100
AcDbLine
 10
43.489719
 20
5.073313
 30
0.0
 11
43.577219
 21
5.073313
 31
0.0
  0
LINE
  5
300
330
42F
100
AcDbEntity
  8
_0
  6
Continuous
 62
     7
370
    30
100
AcDbLine
 10
43.715812
 20
5.073313
 30
0.0
 11
43.628312
 21
5.003312
 31
0.0
  0
LINE
  5
301
330
42F
100
AcDbEntity
  8
_0
  6
Continuous
 62
     7
370
    30
100
AcDbLine
 10
43.628312
 20
5.003312
 30
0.0
 11
43.715812
 21
5.003312
 31
0.0
  0
LINE
  5
302
330
42F
100
AcDbEntity
  8
_0
  6
Continuous
 62
     7
370
    30
100
AcDbLine
 10
43.628312
 20
5.073313
 30
0.0
 11
43.715812
 21
5.073313
 31
0.0
  0
LINE
  5
303
330
42F
100
AcDbEntity
  8
_0
  6
Continuous
 62
     7
370
    30
100
AcDbLine
 10
42.750219
 20
5.386927
 30
0.0
 11
42.890219
 21
5.386927
 31
0.0
  0
LINE
  5
304
330
42F
100
AcDbEntity
  8
_0
  6
Continuous
 62
     7
370
    30
100
AcDbLine
 10
42.750219
 20
5.265344
 30
0.0
 11
42.890219
 21
5.265344
 31
0.0
  0
LINE
  5
305
330
42F
100
AcDbEntity
  8
_0
  6
Continuous
 62
     7
370
    30
100
AcDbLine
 10
42.750219
 20
5.108313
 30
0.0
 11
42.890219
 21
5.108313
 31
0.0
  0
LINE
  5
306
330
42F
100
AcDbEntity
  8
_0
  6
Continuous
 62
     7
370
    30
100
AcDbLine
 10
42.750219
 20
4.968312
 30
0.0
 11
42.890219
 21
4.968312
 31
0.0
  0
LINE
  5
307
330
42F
100
AcDbEntity
  8
_0
  6
Continuous
 62
     7
370
    30
100
AcDbLine
 10
42.750219
 20
4.808052
 30
0.0
 11
42.890219
 21
4.808052
 31
0.0
  0
LINE
  5
308
330
42F
100
AcDbEntity
  8
_0
  6
Continuous
 62
     7
370
    30
100
AcDbLine
 10
42.750219
 20
4.689698
 30
0.0
 11
42.890219
 21
4.689698
 31
0.0
  0
LINE
  5
309
330
42F
100
AcDbEntity
  8
_0
  6
Continuous
 62
     7
370
    30
100
AcDbLine
 10
42.896583
 20
5.073313
 30
0.0
 11
42.984083
 21
5.073313
 31
0.0
  0
LINE
  5
30A
330
42F
100
AcDbEntity
  8
_0
  6
Continuous
 62
     7
370
    30
100
AcDbLine
 10
42.896583
 20
5.003312
 30
0.0
 11
42.984083
 21
5.003312
 31
0.0
  0
LINE
  5
30B
330
42F
100
AcDbEntity
  8
_0
  6
Continuous
 62
     7
370
    30
100
AcDbLine
 10
42.984083
 20
5.073313
 30
0.0
 11
42.896583
 21
5.003312
 31
0.0
  0
LINE
  5
30C
330
42F
100
AcDbEntity
  8
_0
  6
Continuous
 62
     7
370
    30
100
AcDbLine
 10
43.106844
 20
5.073313
 30
0.0
 11
43.019344
 21
5.003312
 31
0.0
  0
LINE
  5
30D
330
42F
100
AcDbEntity
  8
_0
  6
Continuous
 62
     7
370
    30
100
AcDbLine
 10
43.019344
 20
5.003312
 30
0.0
 11
43.106844
 21
5.003312
 31
0.0
  0
LINE
  5
30E
330
42F
100
AcDbEntity
  8
_0
  6
Continuous
 62
     7
370
    30
100
AcDbLine
 10
43.019344
 20
5.073313
 30
0.0
 11
43.106844
 21
5.073313
 31
0.0
  0
LINE
  5
30F
330
42F
100
AcDbEntity
  8
_0
  6
Continuous
 62
     7
370
    30
100
AcDbLine
 10
43.245448
 20
5.073313
 30
0.0
 11
43.157948
 21
5.003312
 31
0.0
  0
LINE
  5
310
330
42F
100
AcDbEntity
  8
_0
  6
Continuous
 62
     7
370
    30
100
AcDbLine
 10
43.157948
 20
5.003312
 30
0.0
 11
43.245448
 21
5.003312
 31
0.0
  0
LINE
  5
311
330
42F
100
AcDbEntity
  8
_0
  6
Continuous
 62
     7
370
    30
100
AcDbLine
 10
43.157948
 20
5.073313
 30
0.0
 11
43.245448
 21
5.073313
 31
0.0
  0
LINE
  5
312
330
42F
100
AcDbEntity
  8
_0
  6
Continuous
 62
     7
370
    30
100
AcDbLine
 10
42.274375
 20
5.386927
 30
0.0
 11
42.414375
 21
5.386927
 31
0.0
  0
LINE
  5
313
330
42F
100
AcDbEntity
  8
_0
  6
Continuous
 62
     7
370
    30
100
AcDbLine
 10
42.274375
 20
5.265344
 30
0.0
 11
42.414375
 21
5.265344
 31
0.0
  0
LINE
  5
314
330
42F
100
AcDbEntity
  8
_0
  6
Continuous
 62
     7
370
    30
100
AcDbLine
 10
42.274375
 20
5.108313
 30
0.0
 11
42.414375
 21
5.108313
 31
0.0
  0
LINE
  5
315
330
42F
100
AcDbEntity
  8
_0
  6
Continuous
 62
     7
370
    30
100
AcDbLine
 10
42.274375
 20
4.968312
 30
0.0
 11
42.414375
 21
4.968312
 31
0.0
  0
LINE
  5
316
330
42F
100
AcDbEntity
  8
_0
  6
Continuous
 62
     7
370
    30
100
AcDbLine
 10
42.274375
 20
4.808052
 30
0.0
 11
42.414375
 21
4.808052
 31
0.0
  0
LINE
  5
317
330
42F
100
AcDbEntity
  8
_0
  6
Continuous
 62
     7
370
    30
100
AcDbLine
 10
42.274375
 20
4.689698
 30
0.0
 11
42.414375
 21
4.689698
 31
0.0
  0
LINE
  5
318
330
42F
100
AcDbEntity
  8
_0
  6
Continuous
 62
     7
370
    30
100
AcDbLine
 10
42.42074
 20
5.073313
 30
0.0
 11
42.50824
 21
5.073313
 31
0.0
  0
LINE
  5
319
330
42F
100
AcDbEntity
  8
_0
  6
Continuous
 62
     7
370
    30
100
AcDbLine
 10
42.42074
 20
5.003312
 30
0.0
 11
42.50824
 21
5.003312
 31
0.0
  0
LINE
  5
31A
330
42F
100
AcDbEntity
  8
_0
  6
Continuous
 62
     7
370
    30
100
AcDbLine
 10
42.50824
 20
5.073313
 30
0.0
 11
42.42074
 21
5.003312
 31
0.0
  0
LINE
  5
31B
330
42F
100
AcDbEntity
  8
_0
  6
Continuous
 62
     7
370
    30
100
AcDbLine
 10
42.631
 20
5.073313
 30
0.0
 11
42.5435
 21
5.003312
 31
0.0
  0
LINE
  5
31C
330
42F
100
AcDbEntity
  8
_0
  6
Continuous
 62
     7
370
    30
100
AcDbLine
 10
42.5435
 20
5.003312
 30
0.0
 11
42.631
 21
5.003312
 31
0.0
  0
LINE
  5
31D
330
42F
100
AcDbEntity
  8
_0
  6
Continuous
 62
     7
370
    30
100
AcDbLine
 10
42.5435
 20
5.073313
 30
0.0
 11
42.631
 21
5.073313
 31
0.0
  0
LINE
  5
31E
330
42F
100
AcDbEntity
  8
_0
  6
Continuous
 62
     7
370
    30
100
AcDbLine
 10
42.769594
 20
5.073313
 30
0.0
 11
42.682094
 21
5.003312
 31
0.0
  0
LINE
  5
31F
330
42F
100
AcDbEntity
  8
_0
  6
Continuous
 62
     7
370
    30
100
AcDbLine
 10
42.682094
 20
5.003312
 30
0.0
 11
42.769594
 21
5.003312
 31
0.0
  0
LINE
  5
320
330
42F
100
AcDbEntity
  8
_0
  6
Continuous
 62
     7
370
    30
100
AcDbLine
 10
42.682094
 20
5.073313
 30
0.0
 11
42.769594
 21
5.073313
 31
0.0
  0
LINE
  5
321
330
42F
100
AcDbEntity
  8
_0
  6
Continuous
 62
     7
370
    30
100
AcDbLine
 10
41.798521
 20
5.386927
 30
0.0
 11
41.938521
 21
5.386927
 31
0.0
  0
LINE
  5
322
330
42F
100
AcDbEntity
  8
_0
  6
Continuous
 62
     7
370
    30
100
AcDbLine
 10
41.798521
 20
5.265344
 30
0.0
 11
41.938521
 21
5.265344
 31
0.0
  0
LINE
  5
323
330
42F
100
AcDbEntity
  8
_0
  6
Continuous
 62
     7
370
    30
100
AcDbLine
 10
41.798521
 20
5.108313
 30
0.0
 11
41.938521
 21
5.108313
 31
0.0
  0
LINE
  5
324
330
42F
100
AcDbEntity
  8
_0
  6
Continuous
 62
     7
370
    30
100
AcDbLine
 10
41.798521
 20
4.968312
 30
0.0
 11
41.938521
 21
4.968312
 31
0.0
  0
LINE
  5
325
330
42F
100
AcDbEntity
  8
_0
  6
Continuous
 62
     7
370
    30
100
AcDbLine
 10
41.798521
 20
4.808052
 30
0.0
 11
41.938521
 21
4.808052
 31
0.0
  0
LINE
  5
326
330
42F
100
AcDbEntity
  8
_0
  6
Continuous
 62
     7
370
    30
100
AcDbLine
 10
41.798521
 20
4.689698
 30
0.0
 11
41.938521
 21
4.689698
 31
0.0
  0
LINE
  5
327
330
42F
100
AcDbEntity
  8
_0
  6
Continuous
 62
     7
370
    30
100
AcDbLine
 10
41.944896
 20
5.073313
 30
0.0
 11
42.032396
 21
5.073313
 31
0.0
  0
LINE
  5
328
330
42F
100
AcDbEntity
  8
_0
  6
Continuous
 62
     7
370
    30
100
AcDbLine
 10
41.944896
 20
5.003312
 30
0.0
 11
42.032396
 21
5.003312
 31
0.0
  0
LINE
  5
329
330
42F
100
AcDbEntity
  8
_0
  6
Continuous
 62
     7
370
    30
100
AcDbLine
 10
42.032396
 20
5.073313
 30
0.0
 11
41.944896
 21
5.003312
 31
0.0
  0
LINE
  5
32A
330
42F
100
AcDbEntity
  8
_0
  6
Continuous
 62
     7
370
    30
100
AcDbLine
 10
42.155146
 20
5.073313
 30
0.0
 11
42.067646
 21
5.003312
 31
0.0
  0
LINE
  5
32B
330
42F
100
AcDbEntity
  8
_0
  6
Continuous
 62
     7
370
    30
100
AcDbLine
 10
42.067646
 20
5.003312
 30
0.0
 11
42.155146
 21
5.003312
 31
0.0
  0
LINE
  5
32C
330
42F
100
AcDbEntity
  8
_0
  6
Continuous
 62
     7
370
    30
100
AcDbLine
 10
42.067646
 20
5.073313
 30
0.0
 11
42.155146
 21
5.073313
 31
0.0
  0
LINE
  5
32D
330
42F
100
AcDbEntity
  8
_0
  6
Continuous
 62
     7
370
    30
100
AcDbLine
 10
42.29375
 20
5.073313
 30
0.0
 11
42.20625
 21
5.003312
 31
0.0
  0
LINE
  5
32E
330
42F
100
AcDbEntity
  8
_0
  6
Continuous
 62
     7
370
    30
100
AcDbLine
 10
42.20625
 20
5.003312
 30
0.0
 11
42.29375
 21
5.003312
 31
0.0
  0
LINE
  5
32F
330
42F
100
AcDbEntity
  8
_0
  6
Continuous
 62
     7
370
    30
100
AcDbLine
 10
42.20625
 20
5.073313
 30
0.0
 11
42.29375
 21
5.073313
 31
0.0
  0
LINE
  5
330
330
42F
100
AcDbEntity
  8
_0
  6
Continuous
 62
     7
370
    30
100
AcDbLine
 10
41.322677
 20
5.386927
 30
0.0
 11
41.462677
 21
5.386927
 31
0.0
  0
LINE
  5
331
330
42F
100
AcDbEntity
  8
_0
  6
Continuous
 62
     7
370
    30
100
AcDbLine
 10
41.322677
 20
5.265344
 30
0.0
 11
41.462677
 21
5.265344
 31
0.0
  0
LINE
  5
332
330
42F
100
AcDbEntity
  8
_0
  6
Continuous
 62
     7
370
    30
100
AcDbLine
 10
41.322677
 20
5.108313
 30
0.0
 11
41.462677
 21
5.108313
 31
0.0
  0
LINE
  5
333
330
42F
100
AcDbEntity
  8
_0
  6
Continuous
 62
     7
370
    30
100
AcDbLine
 10
41.322677
 20
4.968312
 30
0.0
 11
41.462677
 21
4.968312
 31
0.0
  0
LINE
  5
334
330
42F
100
AcDbEntity
  8
_0
  6
Continuous
 62
     7
370
    30
100
AcDbLine
 10
41.322677
 20
4.808052
 30
0.0
 11
41.462677
 21
4.808052
 31
0.0
  0
LINE
  5
335
330
42F
100
AcDbEntity
  8
_0
  6
Continuous
 62
     7
370
    30
100
AcDbLine
 10
41.322677
 20
4.689698
 30
0.0
 11
41.462677
 21
4.689698
 31
0.0
  0
LINE
  5
336
330
42F
100
AcDbEntity
  8
_0
  6
Continuous
 62
     7
370
    30
100
AcDbLine
 10
41.469042
 20
5.073313
 30
0.0
 11
41.556542
 21
5.073313
 31
0.0
  0
LINE
  5
337
330
42F
100
AcDbEntity
  8
_0
  6
Continuous
 62
     7
370
    30
100
AcDbLine
 10
41.469042
 20
5.003312
 30
0.0
 11
41.556542
 21
5.003312
 31
0.0
  0
LINE
  5
338
330
42F
100
AcDbEntity
  8
_0
  6
Continuous
 62
     7
370
    30
100
AcDbLine
 10
41.556542
 20
5.073313
 30
0.0
 11
41.469042
 21
5.003312
 31
0.0
  0
LINE
  5
339
330
42F
100
AcDbEntity
  8
_0
  6
Continuous
 62
     7
370
    30
100
AcDbLine
 10
41.679302
 20
5.073313
 30
0.0
 11
41.591802
 21
5.003312
 31
0.0
  0
LINE
  5
33A
330
42F
100
AcDbEntity
  8
_0
  6
Continuous
 62
     7
370
    30
100
AcDbLine
 10
41.591802
 20
5.003312
 30
0.0
 11
41.679302
 21
5.003312
 31
0.0
  0
LINE
  5
33B
330
42F
100
AcDbEntity
  8
_0
  6
Continuous
 62
     7
370
    30
100
AcDbLine
 10
41.591802
 20
5.073313
 30
0.0
 11
41.679302
 21
5.073313
 31
0.0
  0
LINE
  5
33C
330
42F
100
AcDbEntity
  8
_0
  6
Continuous
 62
     7
370
    30
100
AcDbLine
 10
41.817906
 20
5.073313
 30
0.0
 11
41.730406
 21
5.003312
 31
0.0
  0
LINE
  5
33D
330
42F
100
AcDbEntity
  8
_0
  6
Continuous
 62
     7
370
    30
100
AcDbLine
 10
41.730406
 20
5.003312
 30
0.0
 11
41.817906
 21
5.003312
 31
0.0
  0
LINE
  5
33E
330
42F
100
AcDbEntity
  8
_0
  6
Continuous
 62
     7
370
    30
100
AcDbLine
 10
41.730406
 20
5.073313
 30
0.0
 11
41.817906
 21
5.073313
 31
0.0
  0
LINE
  5
33F
330
42F
100
AcDbEntity
  8
_0
  6
Continuous
 62
     7
370
    30
100
AcDbLine
 10
40.32176
 20
5.386927
 30
0.0
 11
40.46176
 21
5.386927
 31
0.0
  0
LINE
  5
340
330
42F
100
AcDbEntity
  8
_0
  6
Continuous
 62
     7
370
    30
100
AcDbLine
 10
40.32176
 20
5.265344
 30
0.0
 11
40.46176
 21
5.265344
 31
0.0
  0
LINE
  5
341
330
42F
100
AcDbEntity
  8
_0
  6
Continuous
 62
     7
370
    30
100
AcDbLine
 10
40.32176
 20
5.108313
 30
0.0
 11
40.46176
 21
5.108313
 31
0.0
  0
LINE
  5
342
330
42F
100
AcDbEntity
  8
_0
  6
Continuous
 62
     7
370
    30
100
AcDbLine
 10
40.32176
 20
4.968312
 30
0.0
 11
40.46176
 21
4.968312
 31
0.0
  0
LINE
  5
343
330
42F
100
AcDbEntity
  8
_0
  6
Continuous
 62
     7
370
    30
100
AcDbLine
 10
40.32176
 20
4.808052
 30
0.0
 11
40.46176
 21
4.808052
 31
0.0
  0
LINE
  5
344
330
42F
100
AcDbEntity
  8
_0
  6
Continuous
 62
     7
370
    30
100
AcDbLine
 10
40.32176
 20
4.689698
 30
0.0
 11
40.46176
 21
4.689698
 31
0.0
  0
LINE
  5
345
330
42F
100
AcDbEntity
  8
_0
  6
Continuous
 62
     7
370
    30
100
AcDbLine
 10
40.468125
 20
5.073313
 30
0.0
 11
40.555625
 21
5.073313
 31
0.0
  0
LINE
  5
346
330
42F
100
AcDbEntity
  8
_0
  6
Continuous
 62
     7
370
    30
100
AcDbLine
 10
40.468125
 20
5.003312
 30
0.0
 11
40.555625
 21
5.003312
 31
0.0
  0
LINE
  5
347
330
42F
100
AcDbEntity
  8
_0
  6
Continuous
 62
     7
370
    30
100
AcDbLine
 10
40.555625
 20
5.073313
 30
0.0
 11
40.468125
 21
5.003312
 31
0.0
  0
LINE
  5
348
330
42F
100
AcDbEntity
  8
_0
  6
Continuous
 62
     7
370
    30
100
AcDbLine
 10
40.678375
 20
5.073313
 30
0.0
 11
40.590875
 21
5.003312
 31
0.0
  0
LINE
  5
349
330
42F
100
AcDbEntity
  8
_0
  6
Continuous
 62
     7
370
    30
100
AcDbLine
 10
40.590875
 20
5.003312
 30
0.0
 11
40.678375
 21
5.003312
 31
0.0
  0
LINE
  5
34A
330
42F
100
AcDbEntity
  8
_0
  6
Continuous
 62
     7
370
    30
100
AcDbLine
 10
40.590875
 20
5.073313
 30
0.0
 11
40.678375
 21
5.073313
 31
0.0
  0
LINE
  5
34B
330
42F
100
AcDbEntity
  8
_0
  6
Continuous
 62
     7
370
    30
100
AcDbLine
 10
40.816979
 20
5.073313
 30
0.0
 11
40.729479
 21
5.003312
 31
0.0
  0
LINE
  5
34C
330
42F
100
AcDbEntity
  8
_0
  6
Continuous
 62
     7
370
    30
100
AcDbLine
 10
40.729479
 20
5.003312
 30
0.0
 11
40.816979
 21
5.003312
 31
0.0
  0
LINE
  5
34D
330
42F
100
AcDbEntity
  8
_0
  6
Continuous
 62
     7
370
    30
100
AcDbLine
 10
40.729479
 20
5.073313
 30
0.0
 11
40.816979
 21
5.073313
 31
0.0
  0
LINE
  5
34E
330
42F
100
AcDbEntity
  8
_0
  6
Continuous
 62
     7
370
    30
100
AcDbLine
 10
41.232677
 20
5.073313
 30
0.0
 11
41.320177
 21
5.073313
 31
0.0
  0
LINE
  5
34F
330
42F
100
AcDbEntity
  8
_0
  6
Continuous
 62
     7
370
    30
100
AcDbLine
 10
41.232677
 20
5.003312
 30
0.0
 11
41.320177
 21
5.003312
 31
0.0
  0
LINE
  5
350
330
42F
100
AcDbEntity
  8
_0
  6
Continuous
 62
     7
370
    30
100
AcDbLine
 10
41.320177
 20
5.073313
 30
0.0
 11
41.232677
 21
5.003312
 31
0.0
  0
LINE
  5
351
330
42F
100
AcDbEntity
  8
_0
  6
Continuous
 62
     7
370
    30
100
AcDbLine
 10
41.094073
 20
5.073313
 30
0.0
 11
41.181573
 21
5.073313
 31
0.0
  0
LINE
  5
352
330
42F
100
AcDbEntity
  8
_0
  6
Continuous
 62
     7
370
    30
100
AcDbLine
 10
41.094073
 20
5.003312
 30
0.0
 11
41.181573
 21
5.003312
 31
0.0
  0
LINE
  5
353
330
42F
100
AcDbEntity
  8
_0
  6
Continuous
 62
     7
370
    30
100
AcDbLine
 10
41.181573
 20
5.073313
 30
0.0
 11
41.094073
 21
5.003312
 31
0.0
  0
LINE
  5
354
330
42F
100
AcDbEntity
  8
_0
  6
Continuous
 62
     7
370
    30
100
AcDbLine
 10
41.058823
 20
5.073313
 30
0.0
 11
40.971323
 21
5.003312
 31
0.0
  0
LINE
  5
355
330
42F
100
AcDbEntity
  8
_0
  6
Continuous
 62
     7
370
    30
100
AcDbLine
 10
40.971323
 20
5.003312
 30
0.0
 11
41.058823
 21
5.003312
 31
0.0
  0
LINE
  5
356
330
42F
100
AcDbEntity
  8
_0
  6
Continuous
 62
     7
370
    30
100
AcDbLine
 10
40.971323
 20
5.073313
 30
0.0
 11
41.058823
 21
5.073313
 31
0.0
  0
LINE
  5
357
330
42F
100
AcDbEntity
  8
_0
  6
Continuous
 62
     7
370
    30
100
AcDbLine
 10
40.824948
 20
4.689698
 30
0.0
 11
40.964948
 21
4.689698
 31
0.0
  0
LINE
  5
358
330
42F
100
AcDbEntity
  8
_0
  6
Continuous
 62
     7
370
    30
100
AcDbLine
 10
40.824948
 20
4.808052
 30
0.0
 11
40.964948
 21
4.808052
 31
0.0
  0
LINE
  5
359
330
42F
100
AcDbEntity
  8
_0
  6
Continuous
 62
     7
370
    30
100
AcDbLine
 10
40.824948
 20
4.968312
 30
0.0
 11
40.964948
 21
4.968312
 31
0.0
  0
LINE
  5
35A
330
42F
100
AcDbEntity
  8
_0
  6
Continuous
 62
     7
370
    30
100
AcDbLine
 10
40.824948
 20
5.108313
 30
0.0
 11
40.964948
 21
5.108313
 31
0.0
  0
LINE
  5
35B
330
42F
100
AcDbEntity
  8
_0
  6
Continuous
 62
     7
370
    30
100
AcDbLine
 10
40.824948
 20
5.265344
 30
0.0
 11
40.964948
 21
5.265344
 31
0.0
  0
LINE
  5
35C
330
42F
100
AcDbEntity
  8
_0
  6
Continuous
 62
     7
370
    30
100
AcDbLine
 10
40.824948
 20
5.386927
 30
0.0
 11
40.964948
 21
5.386927
 31
0.0
  0
LINE
  5
35D
330
42F
100
AcDbEntity
  8
_0
  6
Continuous
 62
     7
370
    30
100
AcDbLine
 10
41.822688
 20
4.493604
 30
0.0
 11
41.822688
 21
4.663427
 31
0.0
  0
LINE
  5
35E
330
42F
100
AcDbEntity
  8
_0
  6
Continuous
 62
     7
370
    30
100
AcDbLine
 10
42.297688
 20
4.288427
 30
0.0
 11
42.297688
 21
4.663427
 31
0.0
  0
LINE
  5
35F
330
42F
100
AcDbEntity
  8
_0
  6
Continuous
 62
     7
370
    30
100
AcDbLine
 10
45.642688
 20
4.493604
 30
0.0
 11
45.642688
 21
4.663427
 31
0.0
  0
LINE
  5
360
330
42F
100
AcDbEntity
  8
_0
  6
Continuous
 62
     7
370
    30
100
AcDbLine
 10
45.167687
 20
4.363427
 30
0.0
 11
45.167687
 21
4.663427
 31
0.0
  0
LINE
  5
361
330
42F
100
AcDbEntity
  8
_0
  6
Continuous
 62
     7
370
    30
100
AcDbLine
 10
42.772687
 20
4.163427
 30
0.0
 11
42.772687
 21
4.663427
 31
0.0
  0
LINE
  5
362
330
42F
100
AcDbEntity
  8
_0
  6
Continuous
 62
     7
370
    30
100
AcDbLine
 10
44.692687
 20
4.163427
 30
0.0
 11
44.692687
 21
4.663427
 31
0.0
  0
LINE
  5
363
330
42F
100
AcDbEntity
  8
_0
  6
Continuous
 62
     7
370
    30
100
AcDbLine
 10
44.117687
 20
2.663427
 30
0.0
 11
44.117687
 21
4.663427
 31
0.0
  0
LINE
  5
364
330
42F
100
AcDbEntity
  8
_0
  6
Continuous
 62
     7
370
    30
100
AcDbLine
 10
43.347687
 20
2.663427
 30
0.0
 11
43.347687
 21
4.663427
 31
0.0
  0
LINE
  5
365
330
42F
100
AcDbEntity
  8
_0
  6
Continuous
 62
     7
370
    30
100
AcDbLine
 10
43.347687
 20
2.663427
 30
0.0
 11
44.117687
 21
2.663427
 31
0.0
  0
LINE
  5
366
330
42F
100
AcDbEntity
  8
_0
  6
Continuous
 62
     7
370
    30
100
AcDbLine
 10
40.395198
 20
5.413427
 30
0.0
 11
40.395198
 21
4.663427
 31
0.0
  0
LINE
  5
367
330
42F
100
AcDbEntity
  8
_0
  6
Continuous
 62
     7
370
    30
100
AcDbLine
 10
40.895198
 20
5.413427
 30
0.0
 11
40.895198
 21
4.663427
 31
0.0
  0
LINE
  5
368
330
42F
100
AcDbEntity
  8
_0
  6
Continuous
 62
     7
370
    30
100
AcDbLine
 10
41.395198
 20
5.413427
 30
0.0
 11
41.395198
 21
4.663427
 31
0.0
  0
LINE
  5
369
330
42F
100
AcDbEntity
  8
_0
  6
Continuous
 62
     7
370
    30
100
AcDbLine
 10
41.870198
 20
5.413427
 30
0.0
 11
41.870198
 21
4.663427
 31
0.0
  0
LINE
  5
36A
330
42F
100
AcDbEntity
  8
_0
  6
Continuous
 62
     7
370
    30
100
AcDbLine
 10
42.345198
 20
5.413427
 30
0.0
 11
42.345198
 21
4.663427
 31
0.0
  0
LINE
  5
36B
330
42F
100
AcDbEntity
  8
_0
  6
Continuous
 62
     7
370
    30
100
AcDbLine
 10
42.820198
 20
5.413427
 30
0.0
 11
42.820198
 21
4.663427
 31
0.0
  0
LINE
  5
36C
330
42F
100
AcDbEntity
  8
_0
  6
Continuous
 62
     7
370
    30
100
AcDbLine
 10
43.295198
 20
5.413427
 30
0.0
 11
43.295198
 21
4.663427
 31
0.0
  0
LINE
  5
36D
330
42F
100
AcDbEntity
  8
_0
  6
Continuous
 62
     7
370
    30
100
AcDbLine
 10
43.770198
 20
5.413427
 30
0.0
 11
43.770198
 21
4.663427
 31
0.0
  0
LINE
  5
36E
330
42F
100
AcDbEntity
  8
_0
  6
Continuous
 62
     7
370
    30
100
AcDbLine
 10
44.245198
 20
5.413427
 30
0.0
 11
44.245198
 21
4.663427
 31
0.0
  0
LINE
  5
36F
330
42F
100
AcDbEntity
  8
_0
  6
Continuous
 62
     7
370
    30
100
AcDbLine
 10
44.745198
 20
5.413427
 30
0.0
 11
44.745198
 21
4.663427
 31
0.0
  0
LINE
  5
370
330
42F
100
AcDbEntity
  8
_0
  6
Continuous
 62
     7
370
    30
100
AcDbLine
 10
45.220198
 20
5.413427
 30
0.0
 11
45.220198
 21
4.663427
 31
0.0
  0
LINE
  5
371
330
42F
100
AcDbEntity
  8
_0
  6
Continuous
 62
     7
370
    30
100
AcDbLine
 10
45.720198
 20
5.413427
 30
0.0
 11
45.720198
 21
4.663427
 31
0.0
  0
LINE
  5
372
330
42F
100
AcDbEntity
  8
_0
  6
Continuous
 62
     7
370
    30
100
AcDbLine
 10
46.170198
 20
5.413427
 30
0.0
 11
46.170198
 21
4.663427
 31
0.0
  0
LINE
  5
373
330
42F
100
AcDbEntity
  8
_0
  6
Continuous
 62
     7
370
    30
100
AcDbLine
 10
48.545198
 20
5.413427
 30
0.0
 11
48.545198
 21
4.663427
 31
0.0
  0
LINE
  5
374
330
42F
100
AcDbEntity
  8
_0
  6
Continuous
 62
     7
370
    30
100
AcDbLine
 10
48.070198
 20
5.413427
 30
0.0
 11
48.070198
 21
4.663427
 31
0.0
  0
LINE
  5
375
330
42F
100
AcDbEntity
  8
_0
  6
Continuous
 62
     7
370
    30
100
AcDbLine
 10
47.595198
 20
5.413427
 30
0.0
 11
47.595198
 21
4.663427
 31
0.0
  0
LINE
  5
376
330
42F
100
AcDbEntity
  8
_0
  6
Continuous
 62
     7
370
    30
100
AcDbLine
 10
47.120198
 20
5.413427
 30
0.0
 11
47.120198
 21
4.663427
 31
0.0
  0
LINE
  5
377
330
42F
100
AcDbEntity
  8
_0
  6
Continuous
 62
     7
370
    30
100
AcDbLine
 10
46.645198
 20
5.413427
 30
0.0
 11
46.645198
 21
4.663427
 31
0.0
  0
LINE
  5
378
330
42F
100
AcDbEntity
  8
_0
  6
Continuous
 62
     7
370
    30
100
AcDbLine
 10
43.247687
 20
3.163427
 30
0.0
 11
44.217687
 21
3.163427
 31
0.0
  0
LINE
  5
379
330
42F
100
AcDbEntity
  8
_0
  6
Continuous
 62
     7
370
    30
100
AcDbLine
 10
43.047688
 20
3.663427
 30
0.0
 11
44.417687
 21
3.663427
 31
0.0
  0
LINE
  5
37A
330
42F
100
AcDbEntity
  8
_0
  6
Continuous
 62
     7
370
    30
100
AcDbLine
 10
42.772687
 20
4.163427
 30
0.0
 11
44.692687
 21
4.163427
 31
0.0
  0
LINE
  5
37B
330
42F
100
AcDbEntity
  8
_0
  6
Continuous
 62
     7
370
    30
100
AcDbLine
 10
45.416885
 20
6.671562
 30
0.0
 11
44.339323
 21
7.266427
 31
0.0
  0
LINE
  5
37C
330
42F
100
AcDbEntity
  8
_0
  6
Continuous
 62
     7
370
    30
100
AcDbLine
 10
45.494875
 20
6.057396
 30
0.0
 11
44.069
 21
6.844531
 31
0.0
  0
ARC
  5
37D
330
42F
100
AcDbEntity
  8
_0
  6
Continuous
 62
     7
370
    30
100
AcDbCircle
 10
41.264434
 20
8.938427
 30
0.0
 40
3.5
100
AcDbArc
 50
270.0
 51
331.099592
  0
LINE
  5
37E
330
42F
100
AcDbEntity
  8
_0
  6
Continuous
 62
     7
370
    30
100
AcDbLine
 10
43.557656
 20
5.413427
 30
0.0
 11
42.953354
 21
5.747021
 31
0.0
  0
LINE
  5
37F
330
42F
100
AcDbEntity
  8
_0
  6
Continuous
 62
     7
370
    30
100
AcDbLine
 10
44.35499
 20
5.544396
 30
0.0
 11
43.327896
 21
6.111396
 31
0.0
  0
LINE
  5
380
330
42F
100
AcDbEntity
  8
_0
  6
Continuous
 62
     7
370
    30
100
AcDbLine
 10
45.581521
 20
5.438427
 30
0.0
 11
43.764938
 21
6.44125
 31
0.0
  0
LINE
  5
381
330
42F
100
AcDbEntity
  8
_0
  6
Continuous
 62
     7
370
    30
100
AcDbLine
 10
41.182688
 20
5.438427
 30
0.0
 11
41.264437
 21
5.438427
 31
0.0
  0
ARC
  5
382
330
42F
100
AcDbEntity
  8
_0
  6
Continuous
 62
     7
370
    30
100
AcDbCircle
 10
46.842121
 20
6.938427
 30
0.0
 40
1.45
100
AcDbArc
 50
151.099592
 51
270.0
  0
LINE
  5
383
330
42F
100
AcDbEntity
  8
_0
  6
Continuous
 62
     7
370
    30
100
AcDbLine
 10
45.682688
 20
7.838427
 30
0.0
 11
45.572698
 21
7.639198
 31
0.0
  0
LINE
  5
384
330
42F
100
AcDbEntity
  8
_0
  6
Continuous
 62
     7
370
    30
100
AcDbLine
 10
46.842125
 20
5.488427
 30
0.0
 11
47.145198
 21
5.488427
 31
0.0
  0
LINE
  5
385
330
42F
100
AcDbEntity
  8
_0
  6
Continuous
 62
     7
370
    30
100
AcDbLine
 10
46.170198
 20
5.413427
 30
0.0
 11
46.170198
 21
4.663427
 31
0.0
  0
LINE
  5
386
330
42F
100
AcDbEntity
  8
_0
  6
Continuous
 62
     7
370
    30
100
AcDbLine
 10
45.834156
 20
5.896063
 30
0.0
 11
45.567719
 21
5.413427
 31
0.0
  0
LINE
  5
387
330
42F
100
AcDbEntity
  8
_0
  6
Continuous
 62
     7
370
    30
100
AcDbLine
 10
45.507792
 20
6.080802
 30
0.0
 11
45.139375
 21
5.413427
 31
0.0
  0
LINE
  5
388
330
42F
100
AcDbEntity
  8
_0
  6
Continuous
 62
     7
370
    30
100
AcDbLine
 10
45.414083
 20
6.68699
 30
0.0
 11
44.711031
 21
5.413427
 31
0.0
  0
LINE
  5
389
330
42F
100
AcDbEntity
  8
_0
  6
Continuous
 62
     7
370
    30
100
AcDbLine
 10
44.682688
 20
7.888427
 30
0.0
 11
44.328552
 21
7.246917
 31
0.0
  0
LINE
  5
38A
330
42F
100
AcDbEntity
  8
_0
  6
Continuous
 62
     7
370
    30
100
AcDbLine
 10
43.732687
 20
1.862708
 30
0.0
 11
43.732687
 21
4.663427
 31
0.0
  0
LINE
  5
38B
330
42F
100
AcDbEntity
  8
_0
  6
Continuous
 62
     7
370
    30
100
AcDbLine
 10
44.401438
 20
7.232135
 30
0.0
 11
43.397437
 21
5.413427
 31
0.0
  0
LINE
  5
38C
330
42F
100
AcDbEntity
  8
_0
  6
Continuous
 62
     7
370
    30
100
AcDbLine
 10
45.178396
 20
7.863646
 30
0.0
 11
43.825781
 21
5.413427
 31
0.0
  0
LINE
  5
38D
330
42F
100
AcDbEntity
  8
_0
  6
Continuous
 62
     7
370
    30
100
AcDbLine
 10
45.582687
 20
7.768333
 30
0.0
 11
45.345729
 21
7.339094
 31
0.0
  0
LINE
  5
38E
330
42F
100
AcDbEntity
  8
_0
  6
Continuous
 62
     7
370
    30
100
AcDbLine
 10
45.642344
 20
7.765354
 30
0.0
 11
45.582687
 21
7.768333
 31
0.0
  0
LINE
  5
38F
330
42F
100
AcDbEntity
  8
_0
  6
Continuous
 62
     7
370
    30
100
AcDbLine
 10
40.282688
 20
5.038427
 30
0.0
 11
48.782688
 21
5.038427
 31
0.0
  0
LINE
  5
390
330
42F
100
AcDbEntity
  8
_0
  6
Continuous
 62
     7
370
    13
100
AcDbLine
 10
44.245833
 20
1.833385
 30
0.0
 11
43.556052
 21
1.872802
 31
0.0
  0
LINE
  5
391
330
42F
100
AcDbEntity
  8
_0
  6
Continuous
 62
     7
370
    30
100
AcDbLine
 10
45.782646
 20
7.833427
 30
0.0
 11
45.26825
 21
7.859146
 31
0.0
  0
LINE
  5
392
330
42F
100
AcDbEntity
  8
_0
  6
Continuous
 62
     7
370
    13
100
AcDbLine
 10
48.782688
 20
4.574219
 30
0.0
 11
48.782688
 21
5.00851
 31
0.0
  0
LINE
  5
393
330
42F
100
AcDbEntity
  8
_0
  6
Continuous
 62
     7
370
    30
100
AcDbLine
 10
40.282688
 20
4.663427
 30
0.0
 11
41.179688
 21
4.663427
 31
0.0
  0
LINE
  5
394
330
42F
100
AcDbEntity
  8
_0
  6
Continuous
 62
     7
370
    30
100
AcDbLine
 10
40.282688
 20
5.413427
 30
0.0
 11
41.182688
 21
5.413427
 31
0.0
  0
LINE
  5
398
330
42F
100
AcDbEntity
  8
2-30G
  6
Continuous
 62
     7
370
    30
100
AcDbLine
 10
49.082687
 20
0.788427
 30
0.0
 11
49.082687
 21
8.038427
 31
0.0
  0
LINE
  5
399
330
42F
100
AcDbEntity
  8
2-30G
  6
Continuous
 62
     7
370
    30
100
AcDbLine
 10
39.982687
 20
8.038427
 30
0.0
 11
49.082687
 21
8.038427
 31
0.0
  0
LINE
  5
39A
330
42F
100
AcDbEntity
  8
2-30G
  6
Continuous
 62
     7
370
    30
100
AcDbLine
 10
39.982687
 20
0.788427
 30
0.0
 11
49.082687
 21
0.788427
 31
0.0
  0
LINE
  5
39B
330
42F
100
AcDbEntity
  8
2-30G
  6
Continuous
 62
     7
370
    30
100
AcDbLine
 10
39.982687
 20
1.288427
 30
0.0
 11
49.082687
 21
1.288427
 31
0.0
  0
LINE
  5
39C
330
42F
100
AcDbEntity
  8
2-30G
  6
Continuous
 62
     7
370
    30
100
AcDbLine
 10
39.982687
 20
0.788427
 30
0.0
 11
39.982687
 21
8.038427
 31
0.0
  0
LINE
  5
39D
330
42F
100
AcDbEntity
  8
2-30G
  6
Continuous
 62
     7
370
    30
100
AcDbLine
 10
46.882687
 20
0.788427
 30
0.0
 11
46.882687
 21
1.288427
 31
0.0
  0
LINE
  5
39F
330
42F
100
AcDbEntity
  8
2-30G
  6
Continuous
 62
     7
370
    30
100
AcDbLine
 10
47.982687
 20
0.788427
 30
0.0
 11
47.982687
 21
1.288427
 31
0.0
  0
LINE
  5
3A5
330
42F
100
AcDbEntity
  8
_0
  6
Continuous
 62
     7
370
    13
100
AcDbLine
 10
42.111323
 20
5.6325
 30
0.0
 11
42.186104
 21
5.507865
 31
0.0
  0
LINE
  5
3A9
330
42F
100
AcDbEntity
  8
HATCH
  6
Continuous
 62
     7
370
    13
100
AcDbLine
 10
47.199937
 20
5.64799
 30
0.0
 11
47.199937
 21
6.183458
 31
0.0
  0
LINE
  5
3AA
330
42F
100
AcDbEntity
  8
HATCH
  6
Continuous
 62
     7
370
    13
100
AcDbLine
 10
47.199937
 20
6.183458
 30
0.0
 11
47.274323
 21
6.183458
 31
0.0
  0
LINE
  5
3AB
330
42F
100
AcDbEntity
  8
HATCH
  6
Continuous
 62
     7
370
    13
100
AcDbLine
 10
42.461594
 20
3.947885
 30
0.0
 11
42.144312
 21
3.458417
 31
0.0
  0
LINE
  5
3AC
330
42F
100
AcDbEntity
  8
HATCH
  6
Continuous
 62
     7
370
    13
100
AcDbLine
 10
42.144312
 20
3.458417
 30
0.0
 11
42.056229
 21
3.458417
 31
0.0
  0
LINE
  5
3AD
330
42F
100
AcDbEntity
  8
HATCH
  6
Continuous
 62
     7
370
    13
100
AcDbLine
 10
44.384292
 20
2.59576
 30
0.0
 11
45.098646
 21
1.588521
 31
0.0
  0
LINE
  5
3AE
330
42F
100
AcDbEntity
  8
HATCH
  6
Continuous
 62
     7
370
    13
100
AcDbLine
 10
45.098646
 20
1.588521
 30
0.0
 11
44.952146
 21
1.588521
 31
0.0
  0
LINE
  5
3AF
330
42F
100
AcDbEntity
  8
_0
  6
Continuous
 62
     7
370
    13
100
AcDbLine
 10
50.077323
 20
0.413427
 30
0.0
 11
49.870781
 21
0.413427
 31
0.0
  0
LINE
  5
3B0
330
42F
100
AcDbEntity
  8
_0
  6
Continuous
 62
     7
370
    13
100
AcDbLine
 10
50.077323
 20
8.413427
 30
0.0
 11
49.870781
 21
8.413427
 31
0.0
  0
LINE
  5
3B1
330
42F
100
AcDbEntity
  8
_0
  6
Continuous
 62
     7
370
    13
100
AcDbLine
 10
49.870781
 20
0.206885
 30
0.0
 11
49.870781
 21
0.413427
 31
0.0
  0
LINE
  5
3B2
330
42F
100
AcDbEntity
  8
_0
  6
Continuous
 62
     7
370
    13
100
AcDbLine
 10
39.120781
 20
0.206885
 30
0.0
 11
39.120781
 21
0.413427
 31
0.0
  0
LINE
  5
3B3
330
42F
100
AcDbEntity
  8
_0
  6
Continuous
 62
     7
370
    13
100
AcDbLine
 10
49.870781
 20
8.413427
 30
0.0
 11
49.870781
 21
8.619969
 31
0.0
  0
LINE
  5
3B4
330
42F
100
AcDbEntity
  8
_0
  6
Continuous
 62
     7
370
    13
100
AcDbLine
 10
39.120781
 20
0.413427
 30
0.0
 11
38.91424
 21
0.413427
 31
0.0
  0
LINE
  5
3B5
330
42F
100
AcDbEntity
  8
_0
  6
Continuous
 62
     7
370
    13
100
AcDbLine
 10
39.120781
 20
8.413427
 30
0.0
 11
38.91424
 21
8.413427
 31
0.0
  0
LINE
  5
3B6
330
42F
100
AcDbEntity
  8
_0
  6
Continuous
 62
     7
370
    13
100
AcDbLine
 10
39.120781
 20
8.413427
 30
0.0
 11
39.120781
 21
8.619969
 31
0.0
  0
LINE
  5
3B8
330
42F
100
AcDbEntity
  8
DIM
  6
Continuous
 62
     7
370
    30
100
AcDbLine
 10
47.234548
 20
4.379448
 30
0.0
 11
47.829165
 21
4.379448
 31
0.0
  0
INSERT
  5
3B9
330
42F
100
AcDbEntity
  8
DIM
  6
Continuous
 62
     7
370
    13
100
AcDbBlockReference
  2
LARROW
 10
47.199937
 20
5.64799
 30
0.0
 41
12.0
 42
12.0
 43
12.0
 50
270.0
  0
INSERT
  5
3BB
330
42F
100
AcDbEntity
  8
DIM
  6
Continuous
 62
     7
370
    13
100
AcDbBlockReference
  2
LARROW
 10
42.461594
 20
3.947885
 30
0.0
 41
12.000001
 42
12.000001
 43
12.000001
 50
57.048074
  0
INSERT
  5
3BD
330
42F
100
AcDbEntity
  8
DIM
  6
Continuous
 62
     7
370
    13
100
AcDbBlockReference
  2
LARROW
 10
44.384292
 20
2.59576
 30
0.0
 41
11.999998
 42
11.999998
 43
11.999998
 50
125.345017
  0
LWPOLYLINE
  5
3C2
330
42F
100
AcDbEntity
  8
_0
  6
Continuous
 62
     7
370
    30
100
AcDbPolyline
 90
        2
 70
   128
 43
0.0
 10
47.145198
 20
5.488427
 10
47.198187
 20
5.413427
  0
LWPOLYLINE
  5
3C3
330
42F
100
AcDbEntity
  8
_0
  6
Continuous
 62
     7
370
    70
100
AcDbPolyline
 90
        2
 70
   128
 43
0.0
 10
47.198187
 20
5.413427
 10
41.182688
 20
5.413427
  0
LWPOLYLINE
  5
3C4
330
42F
100
AcDbEntity
  8
_0
  6
Continuous
 62
     7
370
    30
100
AcDbPolyline
 90
        2
 70
   128
 43
0.0
 10
41.182688
 20
5.413427
 10
41.182688
 20
5.438427
  0
LWPOLYLINE
  5
3C5
330
42F
100
AcDbEntity
  8
_0
  6
Continuous
 62
     7
370
    30
100
AcDbPolyline
 90
        2
 70
   128
 43
0.0
 10
41.237594
 20
4.546302
 10
41.179688
 20
4.663427
  0
LWPOLYLINE
  5
3C6
330
42F
100
AcDbEntity
  8
_0
  6
Continuous
 62
     7
370
    70
100
AcDbPolyline
 90
        2
 70
   128
 43
0.0
 10
41.179688
 20
4.663427
 10
46.285688
 20
4.663427
  0
LWPOLYLINE
  5
3C7
330
42F
100
AcDbEntity
  8
_0
  6
Continuous
 62
     7
370
    30
100
AcDbPolyline
 90
        2
 70
   128
 43
0.0
 10
46.285688
 20
4.663427
 10
46.227781
 20
4.546302
  0
TEXT
  5
75
330
42F
100
AcDbEntity
  8
HATCH
  6
Continuous
 62
     7
370
    30
100
AcDbText
 10
43.785138
 20
6.855434
 30
0.0
 40
0.12
  1
R
 41
0.833333
  7
Style-Arial
 72
     1
 11
43.834642
 21
6.855434
 31
0.0
100
AcDbText
  0
TEXT
  5
76
330
42F
100
AcDbEntity
  8
HATCH
  6
Continuous
 62
     7
370
    30
100
AcDbText
 10
43.651169
 20
6.583682
 30
0.0
 40
0.12
  1
R
 41
0.833333
  7
Style-Arial
 72
     1
 11
43.700674
 21
6.583682
 31
0.0
100
AcDbText
  0
TEXT
  5
77
330
42F
100
AcDbEntity
  8
HATCH
  6
Continuous
 62
     7
370
    30
100
AcDbText
 10
45.060298
 20
6.510865
 30
0.0
 40
0.12
  1
R
 41
0.833333
  7
Style-Arial
 72
     1
 11
45.109802
 21
6.510865
 31
0.0
100
AcDbText
  0
TEXT
  5
78
330
42F
100
AcDbEntity
  8
HATCH
  6
Continuous
 62
     7
370
    30
100
AcDbText
 10
45.24212
 20
6.914708
 30
0.0
 40
0.12
  1
R
 41
0.833333
  7
Style-Arial
 72
     1
 11
45.291625
 21
6.914708
 31
0.0
100
AcDbText
  0
TEXT
  5
79
330
42F
100
AcDbEntity
  8
HATCH
  6
Continuous
 62
     7
370
    30
100
AcDbText
 10
45.691891
 20
7.2761
 30
0.0
 40
0.12
  1
R
 41
0.833333
  7
Style-Arial
 72
     1
 11
45.741396
 21
7.2761
 31
0.0
100
AcDbText
  0
TEXT
  5
7A
330
42F
100
AcDbEntity
  8
HATCH
  6
Continuous
 62
     7
370
    30
100
AcDbText
 10
46.763683
 20
5.68776
 30
0.0
 40
0.12
  1
R
 41
0.833333
  7
Style-Arial
 72
     1
 11
46.813187
 21
5.68776
 31
0.0
100
AcDbText
  0
TEXT
  5
7B
330
42F
100
AcDbEntity
  8
HATCH
  6
Continuous
 62
     7
370
    30
100
AcDbText
 10
46.287928
 20
5.441177
 30
0.0
 40
0.12
  1
R
 41
0.833333
  7
Style-Arial
 72
     1
 11
46.337432
 21
5.441177
 31
0.0
100
AcDbText
  0
TEXT
  5
7C
330
42F
100
AcDbEntity
  8
HATCH
  6
Continuous
 62
     7
370
    30
100
AcDbText
 10
45.853244
 20
5.516126
 30
0.0
 40
0.12
  1
R
 41
0.833333
  7
Style-Arial
 72
     1
 11
45.902749
 21
5.516126
 31
0.0
100
AcDbText
  0
TEXT
  5
7F
330
42F
100
AcDbEntity
  8
HATCH
  6
Continuous
 62
     7
370
    30
100
AcDbText
 10
44.409668
 20
2.925929
 30
0.0
 40
0.12
  1
R
 41
0.833333
  7
Style-Arial
 72
     1
 11
44.459172
 21
2.925929
 31
0.0
100
AcDbText
  0
TEXT
  5
80
330
42F
100
AcDbEntity
  8
HATCH
  6
Continuous
 62
     7
370
    30
100
AcDbText
 10
44.913211
 20
5.221469
 30
0.0
 40
0.12
  1
M
 41
0.833333
  7
Style-Arial
 72
     1
 11
44.966146
 21
5.221469
 31
0.0
100
AcDbText
  0
TEXT
  5
81
330
42F
100
AcDbEntity
  8
HATCH
  6
Continuous
 62
     7
370
    30
100
AcDbText
 10
44.434649
 20
5.221469
 30
0.0
 40
0.12
  1
M
 41
0.833333
  7
Style-Arial
 72
     1
 11
44.487583
 21
5.221469
 31
0.0
100
AcDbText
  0
TEXT
  5
82
330
42F
100
AcDbEntity
  8
HATCH
  6
Continuous
 62
     7
370
    30
100
AcDbText
 10
43.946503
 20
5.209781
 30
0.0
 40
0.12
  1
M
 41
0.833333
  7
Style-Arial
 72
     1
 11
43.999437
 21
5.209781
 31
0.0
100
AcDbText
  0
TEXT
  5
83
330
42F
100
AcDbEntity
  8
HATCH
  6
Continuous
 62
     7
370
    30
100
AcDbText
 10
43.467941
 20
5.209781
 30
0.0
 40
0.12
  1
M
 41
0.833333
  7
Style-Arial
 72
     1
 11
43.520875
 21
5.209781
 31
0.0
100
AcDbText
  0
TEXT
  5
84
330
42F
100
AcDbEntity
  8
HATCH
  6
Continuous
 62
     7
370
    30
100
AcDbText
 10
43.93693
 20
4.812479
 30
0.0
 40
0.12
  1
M
 41
0.833333
  7
Style-Arial
 72
     1
 11
43.989865
 21
4.812479
 31
0.0
100
AcDbText
  0
TEXT
  5
85
330
42F
100
AcDbEntity
  8
HATCH
  6
Continuous
 62
     7
370
    30
100
AcDbText
 10
43.458368
 20
4.812479
 30
0.0
 40
0.12
  1
M
 41
0.833333
  7
Style-Arial
 72
     1
 11
43.511302
 21
4.812479
 31
0.0
100
AcDbText
  0
TEXT
  5
86
330
42F
100
AcDbEntity
  8
HATCH
  6
Continuous
 62
     7
370
    30
100
AcDbText
 10
44.329357
 20
4.4035
 30
0.0
 40
0.12
  1
M
 41
0.833333
  7
Style-Arial
 72
     1
 11
44.382292
 21
4.4035
 31
0.0
100
AcDbText
  0
TEXT
  5
87
330
42F
100
AcDbEntity
  8
HATCH
  6
Continuous
 62
     7
370
    30
100
AcDbText
 10
42.979795
 20
4.4035
 30
0.0
 40
0.12
  1
M
 41
0.833333
  7
Style-Arial
 72
     1
 11
43.032729
 21
4.4035
 31
0.0
100
AcDbText
  0
TEXT
  5
88
330
42F
100
AcDbEntity
  8
HATCH
  6
Continuous
 62
     7
370
    30
100
AcDbText
 10
45.510068
 20
5.757875
 30
0.0
 40
0.12
  1
R
 41
0.833333
  7
Style-Arial
 72
     1
 11
45.559573
 21
5.757875
 31
0.0
100
AcDbText
  0
TEXT
  5
89
330
42F
100
AcDbEntity
  8
HATCH
  6
Continuous
 62
     7
370
    30
100
AcDbText
 10
45.268377
 20
5.454063
 30
0.0
 40
0.12
  1
R
 41
0.833333
  7
Style-Arial
 72
     1
 11
45.317882
 21
5.454063
 31
0.0
100
AcDbText
  0
TEXT
  5
8A
330
42F
100
AcDbEntity
  8
HATCH
  6
Continuous
 62
     7
370
    30
100
AcDbText
 10
45.356923
 20
6.260333
 30
0.0
 40
0.12
  1
R
 41
0.833333
  7
Style-Arial
 72
     1
 11
45.406427
 21
6.260333
 31
0.0
100
AcDbText
  0
TEXT
  5
8B
330
42F
100
AcDbEntity
  8
HATCH
  6
Continuous
 62
     7
370
    30
100
AcDbText
 10
44.954119
 20
5.470146
 30
0.0
 40
0.12
  1
R
 41
0.833333
  7
Style-Arial
 72
     1
 11
45.003623
 21
5.470146
 31
0.0
100
AcDbText
  0
TEXT
  5
8C
330
42F
100
AcDbEntity
  8
HATCH
  6
Continuous
 62
     7
370
    30
100
AcDbText
 10
44.557095
 20
5.551939
 30
0.0
 40
0.12
  1
R
 41
0.833333
  7
Style-Arial
 72
     1
 11
44.606599
 21
5.551939
 31
0.0
100
AcDbText
  0
TEXT
  5
8D
330
42F
100
AcDbEntity
  8
HATCH
  6
Continuous
 62
     7
370
    30
100
AcDbText
 10
44.040358
 20
5.451615
 30
0.0
 40
0.12
  1
R
 41
0.833333
  7
Style-Arial
 72
     1
 11
44.089862
 21
5.451615
 31
0.0
100
AcDbText
  0
TEXT
  5
8E
330
42F
100
AcDbEntity
  8
HATCH
  6
Continuous
 62
     7
370
    30
100
AcDbText
 10
43.689095
 20
5.539972
 30
0.0
 40
0.12
  1
R
 41
0.833333
  7
Style-Arial
 72
     1
 11
43.7386
 21
5.539972
 31
0.0
100
AcDbText
  0
TEXT
  5
8F
330
42F
100
AcDbEntity
  8
HATCH
  6
Continuous
 62
     7
370
    30
100
AcDbText
 10
43.582621
 20
6.151338
 30
0.0
 40
0.12
  1
R
 41
0.833333
  7
Style-Arial
 72
     1
 11
43.632125
 21
6.151338
 31
0.0
100
AcDbText
  0
TEXT
  5
90
330
42F
100
AcDbEntity
  8
HATCH
  6
Continuous
 62
     7
370
    30
100
AcDbText
 10
43.301455
 20
5.774419
 30
0.0
 40
0.12
  1
R
 41
0.833333
  7
Style-Arial
 72
     1
 11
43.35096
 21
5.774419
 31
0.0
100
AcDbText
  0
TEXT
  5
91
330
42F
100
AcDbEntity
  8
HATCH
  6
Continuous
 62
     7
370
    30
100
AcDbText
 10
42.982262
 20
5.465365
 30
0.0
 40
0.12
  1
R
 41
0.833333
  7
Style-Arial
 72
     1
 11
43.031767
 21
5.465365
 31
0.0
100
AcDbText
  0
TEXT
  5
92
330
42F
100
AcDbEntity
  8
HATCH
  6
Continuous
 62
     7
370
    30
100
AcDbText
 10
42.550437
 20
5.490701
 30
0.0
 40
0.12
  1
R
 41
0.833333
  7
Style-Arial
 72
     1
 11
42.599941
 21
5.490701
 31
0.0
100
AcDbText
  0
TEXT
  5
93
330
42F
100
AcDbEntity
  8
HATCH
  6
Continuous
 62
     7
370
    30
100
AcDbText
 10
42.029352
 20
5.658937
 30
0.0
 40
0.12
  1
R
 41
0.833333
  7
Style-Arial
 72
     1
 11
42.078857
 21
5.658937
 31
0.0
100
AcDbText
  0
TEXT
  5
94
330
42F
100
AcDbEntity
  8
HATCH
  6
Continuous
 62
     7
370
    30
100
AcDbText
 10
41.569662
 20
5.657844
 30
0.0
 40
0.12
  1
R
 41
0.833333
  7
Style-Arial
 72
     1
 11
41.619166
 21
5.657844
 31
0.0
100
AcDbText
  0
TEXT
  5
95
330
42F
100
AcDbEntity
  8
HATCH
  6
Continuous
 62
     7
370
    30
100
AcDbText
 10
45.790007
 20
4.323802
 30
0.0
 40
0.12
  1
R
 41
0.833333
  7
Style-Arial
 72
     1
 11
45.839512
 21
4.323802
 31
0.0
100
AcDbText
  0
TEXT
  5
96
330
42F
100
AcDbEntity
  8
HATCH
  6
Continuous
 62
     7
370
    30
100
AcDbText
 10
45.337974
 20
4.471831
 30
0.0
 40
0.12
  1
R
 41
0.833333
  7
Style-Arial
 72
     1
 11
45.387479
 21
4.471831
 31
0.0
100
AcDbText
  0
TEXT
  5
97
330
42F
100
AcDbEntity
  8
HATCH
  6
Continuous
 62
     7
370
    30
100
AcDbText
 10
44.868787
 20
4.414083
 30
0.0
 40
0.12
  1
R
 41
0.833333
  7
Style-Arial
 72
     1
 11
44.918292
 21
4.414083
 31
0.0
100
AcDbText
  0
TEXT
  5
98
330
42F
100
AcDbEntity
  8
HATCH
  6
Continuous
 62
     7
370
    30
100
AcDbText
 10
44.390203
 20
3.858334
 30
0.0
 40
0.12
  1
R
 41
0.833333
  7
Style-Arial
 72
     1
 11
44.439707
 21
3.858334
 31
0.0
100
AcDbText
  0
TEXT
  5
99
330
42F
100
AcDbEntity
  8
HATCH
  6
Continuous
 62
     7
370
    30
100
AcDbText
 10
44.237079
 20
3.351881
 30
0.0
 40
0.12
  1
R
 41
0.833333
  7
Style-Arial
 72
     1
 11
44.286583
 21
3.351881
 31
0.0
100
AcDbText
  0
TEXT
  5
9A
330
42F
100
AcDbEntity
  8
HATCH
  6
Continuous
 62
     7
370
    30
100
AcDbText
 10
42.872795
 20
2.951118
 30
0.0
 40
0.12
  1
R
 41
0.833333
  7
Style-Arial
 72
     1
 11
42.9223
 21
2.951118
 31
0.0
100
AcDbText
  0
TEXT
  5
9B
330
42F
100
AcDbEntity
  8
HATCH
  6
Continuous
 62
     7
370
    30
100
AcDbText
 10
43.107312
 20
3.353301
 30
0.0
 40
0.12
  1
R
 41
0.833333
  7
Style-Arial
 72
     1
 11
43.156816
 21
3.353301
 31
0.0
100
AcDbText
  0
TEXT
  5
9C
330
42F
100
AcDbEntity
  8
HATCH
  6
Continuous
 62
     7
370
    30
100
AcDbText
 10
43.02868
 20
3.831409
 30
0.0
 40
0.12
  1
R
 41
0.833333
  7
Style-Arial
 72
     1
 11
43.078184
 21
3.831409
 31
0.0
100
AcDbText
  0
TEXT
  5
9D
330
42F
100
AcDbEntity
  8
HATCH
  6
Continuous
 62
     7
370
    30
100
AcDbText
 10
42.475943
 20
4.423965
 30
0.0
 40
0.12
  1
R
 41
0.833333
  7
Style-Arial
 72
     1
 11
42.525448
 21
4.423965
 31
0.0
100
AcDbText
  0
TEXT
  5
9E
330
42F
100
AcDbEntity
  8
HATCH
  6
Continuous
 62
     7
370
    30
100
AcDbText
 10
41.997381
 20
4.495875
 30
0.0
 40
0.12
  1
R
 41
0.833333
  7
Style-Arial
 72
     1
 11
42.046885
 21
4.495875
 31
0.0
100
AcDbText
  0
TEXT
  5
9F
330
42F
100
AcDbEntity
  8
HATCH
  6
Continuous
 62
     7
370
    30
100
AcDbText
 10
41.370021
 20
4.309855
 30
0.0
 40
0.12
  1
R
 41
0.833333
  7
Style-Arial
 72
     1
 11
41.419526
 21
4.309855
 31
0.0
100
AcDbText
  0
TEXT
  5
A0
330
42F
100
AcDbEntity
  8
DEFPOINTS
  6
Continuous
 62
     7
370
    30
100
AcDbText
 10
45.505308
 20
1.603958
 30
0.0
 40
0.12
  1
*
 41
0.833333
  7
Style-Arial
 72
     1
 11
45.530041
 21
1.603958
 31
0.0
100
AcDbText
  0
TEXT
  5
A1
330
42F
100
AcDbEntity
  8
DEFPOINTS
  6
Continuous
 62
     7
370
    30
100
AcDbText
 10
45.505341
 20
2.122552
 30
0.0
 40
0.12
  1
*
 41
0.833333
  7
Style-Arial
 72
     1
 11
45.530074
 21
2.122552
 31
0.0
100
AcDbText
  0
TEXT
  5
A2
330
42F
100
AcDbEntity
  8
BORDER
  6
Continuous
 62
     7
370
    30
100
AcDbText
 10
46.217788
 20
3.006406
 30
0.0
 40
0.12
  1
REINFORCEMENT REQUIRED FOR
 41
0.833333
  7
Style-Arial
 72
     1
 11
47.381317
 21
3.006406
 31
0.0
100
AcDbText
  0
TEXT
  5
A3
330
42F
100
AcDbEntity
  8
BORDER
  6
Continuous
 62
     7
370
    30
100
AcDbText
 10
46.222103
 20
2.844833
 30
0.0
 40
0.12
  1
ODD-SHAPED SLABS
 41
0.833333
  7
Style-Arial
 72
     1
 11
46.928963
 21
2.844833
 31
0.0
100
AcDbText
  0
TEXT
  5
DB
330
42F
100
AcDbEntity
  8
DEFPOINTS
  6
Continuous
 62
     7
370
    30
100
AcDbText
 10
46.228848
 20
1.454573
 30
0.0
 40
0.12
  1
AND GEOMETRIC DESIGN CRITERIA
 41
0.833333
  7
Style-Arial
 72
     1
 11
47.451714
 21
1.454573
 31
0.0
100
AcDbText
  0
TEXT
  5
DC
330
42F
100
AcDbEntity
  8
DEFPOINTS
  6
Continuous
 62
     7
370
    30
100
AcDbText
 10
46.221867
 20
1.601042
 30
0.0
 40
0.12
  1
CHAP 5  FOR GENERAL PROVISIONS
 41
0.833333
  7
Style-Arial
 72
     1
 11
47.464398
 21
1.601042
 31
0.0
100
AcDbText
  0
TEXT
  5
DD
330
42F
100
AcDbEntity
  8
DEFPOINTS
  6
Continuous
 62
     7
370
    30
100
AcDbText
 10
46.21794
 20
1.764021
 30
0.0
 40
0.12
  1
REF TM5-822-2/AFM 88-7,
 41
0.833333
  7
Style-Arial
 72
     1
 11
47.057841
 21
1.764021
 31
0.0
100
AcDbText
  0
TEXT
  5
DE
330
42F
100
AcDbEntity
  8
DEFPOINTS
  6
Continuous
 62
     7
370
    30
100
AcDbText
 10
46.217767
 20
1.971156
 30
0.0
 40
0.12
  1
ROADS AND STREETS ONLY.
 41
0.833333
  7
Style-Arial
 72
     1
 11
47.197759
 21
1.971156
 31
0.0
100
AcDbText
  0
TEXT
  5
DF
330
42F
100
AcDbEntity
  8
DEFPOINTS
  6
Continuous
 62
     7
370
    30
100
AcDbText
 10
46.218057
 20
2.119042
 30
0.0
 40
0.12
  1
REQUIRED ON CLASSES A AND B
 41
0.833333
  7
Style-Arial
 72
     1
 11
47.347973
 21
2.119042
 31
0.0
100
AcDbText
  0
TEXT
  5
E0
330
42F
100
AcDbEntity
  8
DEFPOINTS
  6
Continuous
 62
     7
370
    30
100
AcDbText
 10
46.218282
 20
2.266656
 30
0.0
 40
0.12
  1
DOWELED CONTRATION JOINTS
 41
0.833333
  7
Style-Arial
 72
     1
 11
47.316987
 21
2.266656
 31
0.0
100
AcDbText
  0
TEXT
  5
E1
330
42F
100
AcDbEntity
  8
BORDER
  6
Continuous
 62
     7
370
    30
100
AcDbText
 10
46.225529
 20
2.455375
 30
0.0
 40
0.12
  1
TO MISMATCHED JOINTS
 41
0.833333
  7
Style-Arial
 72
     1
 11
47.075796
 21
2.455375
 31
0.0
100
AcDbText
  0
TEXT
  5
E2
330
42F
100
AcDbEntity
  8
BORDER
  6
Continuous
 62
     7
370
    30
100
AcDbText
 10
46.217798
 20
2.626292
 30
0.0
 40
0.12
  1
REINFORCEMENT REQUIRED DUE
 41
0.833333
  7
Style-Arial
 72
     1
 11
47.378583
 21
2.626292
 31
0.0
100
AcDbText
  0
TEXT
  5
E3
330
42F
100
AcDbEntity
  8
BORDER
  6
Continuous
 62
     7
370
    30
100
AcDbText
 10
46.222419
 20
3.615906
 30
0.0
 40
0.12
  1
CONSTRUCTION OR CONTRACTION
 41
0.833333
  7
Style-Arial
 72
     1
 11
47.435453
 21
3.615906
 31
0.0
100
AcDbText
  0
TEXT
  5
E4
330
42F
100
AcDbEntity
  8
HATCH
  6
Continuous
 62
     7
370
    30
100
AcDbText
 10
44.227544
 20
1.532
 30
0.0
 40
0.12
  1
DETAIL C
 41
0.833333
  7
Style-Arial
 72
     1
 11
44.539205
 21
1.532
 31
0.0
100
AcDbText
  0
TEXT
  5
E5
330
42F
100
AcDbEntity
  8
HATCH
  6
Continuous
 62
     7
370
    30
100
AcDbText
 10
41.334182
 20
3.398438
 30
0.0
 40
0.12
  1
DETAIL B
 41
0.833333
  7
Style-Arial
 72
     1
 11
41.641042
 21
3.398438
 31
0.0
100
AcDbText
  0
TEXT
  5
E6
330
42F
100
AcDbEntity
  8
HATCH
  6
Continuous
 62
     7
370
    30
100
AcDbText
 10
47.288548
 20
6.112697
 30
0.0
 40
0.12
  1
DETAIL A
 41
0.833333
  7
Style-Arial
 72
     1
 11
47.599257
 21
6.112697
 31
0.0
100
AcDbText
  0
TEXT
  5
395
330
42F
100
AcDbEntity
  8
DIM
  6
Continuous
 62
     7
370
    30
100
AcDbText
 10
40.568029
 20
1.57875
 30
0.0
 40
0.12
  1
FOR ROADS, STREETS, WALKS
 41
0.833333
  7
Style-Arial
 72
     1
 11
41.624165
 21
1.57875
 31
0.0
100
AcDbText
  0
TEXT
  5
396
330
42F
100
AcDbEntity
  8
DIM
  6
Continuous
 62
     7
370
    30
100
AcDbText
 10
40.5796
 20
1.375302
 30
0.0
 40
0.12
  1
AND OPEN STORAGE AREAS
 41
0.833333
  7
Style-Arial
 72
     1
 11
41.55822
 21
1.375302
 31
0.0
100
AcDbText
  0
TEXT
  5
397
330
42F
100
AcDbEntity
  8
DIM
  6
Continuous
 62
     7
370
    30
100
AcDbText
 10
40.573603
 20
1.782625
 30
0.0
 40
0.12
  1
88-7, CHAPTER 1, RIGID PAV'T
 41
0.833333
  7
Style-Arial
 72
     1
 11
41.590943
 21
1.782625
 31
0.0
100
AcDbText
  0
TEXT
  5
39E
330
42F
100
AcDbEntity
  8
2-30G
  6
Continuous
 62
     7
370
    30
100
AcDbText
 10
47.132995
 20
0.915775
 30
0.0
 40
0.12
  1
AUG 1992
 41
0.833333
  7
Style-Arial
 72
     1
 11
47.455441
 21
0.915775
 31
0.0
100
AcDbText
  0
TEXT
  5
3A0
330
42F
100
AcDbEntity
  8
2-30G
  6
Continuous
 62
     7
370
    30
100
AcDbText
 10
48.267782
 20
1.070903
 30
0.0
 40
0.12
  1
FIGURE
 41
0.833333
  7
Style-Arial
 72
     1
 11
48.527996
 21
1.070903
 31
0.0
100
AcDbText
  0
TEXT
  5
3A1
330
42F
100
AcDbEntity
  8
2-30G
  6
Continuous
 62
     7
370
    30
100
AcDbText
 10
47.255669
 20
1.092699
 30
0.0
 40
0.12
  1
DATE
 41
0.833333
  7
Style-Arial
 72
     1
 11
47.438291
 21
1.092699
 31
0.0
100
AcDbText
  0
TEXT
  5
3A2
330
42F
100
AcDbEntity
  8
2-30G
  6
Continuous
 62
     7
370
    30
100
AcDbText
 10
48.366312
 20
0.905591
 30
0.0
 40
0.12
  1
2-30c
 41
0.833333
  7
Style-Arial
 72
     1
 11
48.540359
 21
0.905591
 31
0.0
100
AcDbText
  0
TEXT
  5
3A3
330
42F
100
AcDbEntity
  8
BORDER
  6
Continuous
 62
     7
370
    30
100
AcDbText
 10
45.48771
 20
2.934542
 30
0.0
 40
0.12
  1
R
 41
0.833333
  7
Style-Arial
 72
     1
 11
45.537214
 21
2.934542
 31
0.0
100
AcDbText
  0
TEXT
  5
3A4
330
42F
100
AcDbEntity
  8
BORDER
  6
Continuous
 62
     7
370
    30
100
AcDbText
 10
45.472924
 20
2.554437
 30
0.0
 40
0.12
  1
M
 41
0.833333
  7
Style-Arial
 72
     1
 11
45.525858
 21
2.554437
 31
0.0
100
AcDbText
  0
TEXT
  5
3A6
330
42F
100
AcDbEntity
  8
DIM
  6
Continuous
 62
     7
370
    30
100
AcDbText
 10
40.568473
 20
1.979177
 30
0.0
 40
0.12
  1
REFERENCE: TM 5-822-6/AFM
 41
0.833333
  7
Style-Arial
 72
     1
 11
41.560774
 21
1.979177
 31
0.0
100
AcDbText
  0
TEXT
  5
3A7
330
42F
100
AcDbEntity
  8
LEGEND
  6
Continuous
 62
     7
370
    30
100
AcDbText
 10
41.495098
 20
1.096919
 30
0.0
 40
0.12
  1
TYPICAL LAYOUT OF JOINTS AT INTERSECTION OF
 41
0.833333
  7
Style-Arial
 72
     1
 11
43.23096
 21
1.096919
 31
0.0
100
AcDbText
  0
TEXT
  5
3A8
330
42F
100
AcDbEntity
  8
LEGEND
  6
Continuous
 62
     7
370
    30
100
AcDbText
 10
41.219585
 20
0.882353
 30
0.0
 40
0.12
  1
PLAIN CONCRETE PAVEMENTS FOR ROADS AND STREETS
 41
0.833333
  7
Style-Arial
 72
     1
 11
43.223015
 21
0.882353
 31
0.0
100
AcDbText
  0
TEXT
  5
3B7
330
42F
100
AcDbEntity
  8
BORDER
  6
Continuous
 62
     7
370
    30
100
AcDbText
 10
47.239205
 20
4.409551
 30
0.0
 40
0.12
  1
LEGEND
 41
0.833333
  7
Style-Arial
 72
     1
 11
47.52278
 21
4.409551
 31
0.0
100
AcDbText
  0
TEXT
  5
3BF
330
42F
100
AcDbEntity
  8
BORDER
  6
Continuous
 62
     7
370
    30
100
AcDbText
 10
46.217778
 20
3.871062
 30
0.0
 40
0.12
  1
DOWELED CONSTRUCTION JOINT
 41
0.833333
  7
Style-Arial
 72
     1
 11
47.373038
 21
3.871062
 31
0.0
100
AcDbText
  0
TEXT
  5
3C0
330
42F
100
AcDbEntity
  8
BORDER
  6
Continuous
 62
     7
370
    30
100
AcDbText
 10
46.218354
 20
3.229856
 30
0.0
 40
0.12
  1
DOWELED CONTRACTION JOINT
 41
0.833333
  7
Style-Arial
 72
     1
 11
47.323156
 21
3.229856
 31
0.0
100
AcDbText
  0
TEXT
  5
3C1
330
42F
100
AcDbEntity
  8
BORDER
  6
Continuous
 62
     7
370
    30
100
AcDbText
 10
46.225582
 20
3.453951
 30
0.0
 40
0.12
  1
JOINT WITH/TIE BARS
 41
0.833333
  7
Style-Arial
 72
     1
 11
46.959386
 21
3.453951
 31
0.0
100
AcDbText
  0
TEXT
  5
3C8
330
42F
100
AcDbEntity
  8
BORDER
  6
Continuous
 62
     7
370
    30
100
AcDbText
 10
46.225489
 20
4.115906
 30
0.0
 40
0.12
  1
THICKENED EDGE EXPANSION JOINT
 41
0.833333
  7
Style-Arial
 72
     1
 11
47.493553
 21
4.115906
 31
0.0
100
AcDbText
  0
ENDSEC
  0
SECTION
  2
OBJECTS
  0
DICTIONARY
  5
423
330
0
100
AcDbDictionary
281
     1
  3
ACAD_COLOR
350
442
  3
ACAD_GROUP
350
43F
  3
ACAD_LAYOUT
350
433
  3
ACAD_MATERIAL
350
441
  3
ACAD_MLINESTYLE
350
42D
  3
ACAD_PLOTSETTINGS
350
440
  3
ACAD_PLOTSTYLENAME
350
422
  3
ACAD_TABLESTYLE
350
459
  3
AcadDim
350
44F
  3
MicroStation
350
447
  0
DICTIONARY
  5
41F
330
41E
100
AcDbDictionary
280
     1
281
     1
  3
ACAD_LAYERFILTERS
360
446
  3
ACAD_LAYERSTATES
360
420
  0
DICTIONARY
  5
455
330
42F
100
AcDbDictionary
280
     1
281
     1
  3
ACAD_SORTENTS
360
456
  0
DICTIONARY
  5
442
102
{ACAD_REACTORS
330
423
102
}
330
423
100
AcDbDictionary
281
     1
  0
DICTIONARY
  5
43F
102
{ACAD_REACTORS
330
423
102
}
330
423
100
AcDbDictionary
281
     1
  0
DICTIONARY
  5
433
102
{ACAD_REACTORS
330
423
102
}
330
423
100
AcDbDictionary
281
     1
  3
Layout1
350
437
  3
Model
350
432
  0
DICTIONARY
  5
441
102
{ACAD_REACTORS
330
423
102
}
330
423
100
AcDbDictionary
281
     1
  0
DICTIONARY
  5
42D
102
{ACAD_REACTORS
330
423
102
}
330
423
100
AcDbDictionary
281
     1
  3
Standard
350
42C
  0
DICTIONARY
  5
440
102
{ACAD_REACTORS
330
423
102
}
330
423
100
AcDbDictionary
281
     1
  0
ACDBDICTIONARYWDFLT
  5
422
102
{ACAD_REACTORS
330
423
102
}
330
423
100
AcDbDictionary
281
     1
  3
Normal
350
421
100
AcDbDictionaryWithDefault
340
421
  0
DICTIONARY
  5
459
102
{ACAD_REACTORS
330
423
102
}
330
423
100
AcDbDictionary
281
     1
  0
XRECORD
  5
44F
102
{ACAD_REACTORS
330
423
102
}
330
423
100
AcDbXrecord
280
     1
 90
   990106
  3
 
 60
     0
 61
     0
 62
     1
 63
     1
 64
     0
 65
     0
 66
     0
 67
     3
 68
     1
 69
     1
 70
     0
 71
     0
 72
     0
 40
0.0
170
     0
  0
DICTIONARY
  5
447
102
{ACAD_REACTORS
330
423
102
}
330
423
100
AcDbDictionary
281
     1
  3
ApplicationElement 1043
350
413
  3
ApplicationElement 1047
350
417
  3
ApplicationElement 1050
350
41A
  3
ApplicationElement 1051
350
41B
  3
ModelApplicationElement 0 1042
350
412
  0
DICTIONARY
  5
446
102
{ACAD_REACTORS
330
41F
102
}
330
41F
100
AcDbDictionary
281
     1
  0
DICTIONARY
  5
420
102
{ACAD_REACTORS
330
41F
102
}
330
41F
100
AcDbDictionary
281
     1
  0
SORTENTSTABLE
  5
456
102
{ACAD_REACTORS
330
455
102
}
330
455
100
AcDbSortentsTable
330
42F
331
75
  5
37C
331
76
  5
37D
331
77
  5
37E
331
78
  5
37F
331
79
  5
380
331
7A
  5
381
331
7B
  5
382
331
7C
  5
383
331
7D
  5
75
331
7E
  5
76
331
7F
  5
384
331
80
  5
385
331
81
  5
386
331
82
  5
387
331
83
  5
388
331
84
  5
389
331
85
  5
38A
331
86
  5
38B
331
87
  5
38C
331
88
  5
38D
331
89
  5
38E
331
8A
  5
38F
331
8B
  5
390
331
8C
  5
391
331
8D
  5
392
331
8E
  5
393
331
8F
  5
394
331
90
  5
395
331
91
  5
396
331
92
  5
397
331
93
  5
398
331
94
  5
399
331
95
  5
39A
331
96
  5
39B
331
97
  5
39C
331
98
  5
39D
331
99
  5
39E
331
9A
  5
39F
331
9B
  5
3A0
331
9C
  5
3A1
331
9D
  5
3A2
331
9E
  5
3A3
331
9F
  5
3A4
331
A0
  5
3A5
331
A1
  5
3A6
331
A2
  5
3A7
331
A3
  5
3A8
331
A4
  5
77
331
A5
  5
78
331
A6
  5
79
331
A7
  5
7A
331
A8
  5
7B
331
A9
  5
7C
331
AA
  5
7D
331
AB
  5
7E
331
AC
  5
7F
331
AD
  5
80
331
AE
  5
81
331
AF
  5
82
331
B0
  5
83
331
B1
  5
84
331
B2
  5
85
331
B3
  5
86
331
B4
  5
87
331
B5
  5
88
331
B6
  5
89
331
B7
  5
8A
331
B8
  5
8B
331
B9
  5
8C
331
BA
  5
8D
331
BB
  5
8E
331
BC
  5
8F
331
BD
  5
90
331
BE
  5
91
331
BF
  5
92
331
C0
  5
93
331
C1
  5
94
331
C2
  5
95
331
C3
  5
96
331
C4
  5
97
331
C5
  5
98
331
D0
  5
99
331
DB
  5
3A9
331
DC
  5
3AA
331
DD
  5
3AB
331
DE
  5
3AC
331
DF
  5
3AD
331
E0
  5
3AE
331
E1
  5
3AF
331
E2
  5
3B0
331
E3
  5
3B1
331
E4
  5
3B2
331
E5
  5
3B3
331
E6
  5
3B4
331
E7
  5
9A
331
E8
  5
9B
331
E9
  5
9C
331
EA
  5
9D
331
EB
  5
9E
331
EC
  5
9F
331
ED
  5
A0
331
EE
  5
A1
331
EF
  5
A2
331
F0
  5
A3
331
F1
  5
A4
331
F2
  5
A5
331
F3
  5
A6
331
F4
  5
A7
331
F5
  5
A8
331
F6
  5
A9
331
F7
  5
AA
331
F8
  5
AB
331
F9
  5
AC
331
FA
  5
AD
331
FB
  5
AE
331
FC
  5
AF
331
FD
  5
B0
331
FE
  5
B1
331
FF
  5
B2
331
100
  5
B3
331
101
  5
B4
331
102
  5
B5
331
103
  5
B6
331
104
  5
B7
331
105
  5
B8
331
106
  5
B9
331
107
  5
BA
331
108
  5
BB
331
109
  5
BC
331
10A
  5
BD
331
10B
  5
BE
331
10C
  5
BF
331
10D
  5
C0
331
10E
  5
C1
331
10F
  5
C2
331
110
  5
C3
331
111
  5
C4
331
112
  5
C5
331
113
  5
D0
331
114
  5
DB
331
115
  5
DC
331
116
  5
DD
331
117
  5
DE
331
118
  5
DF
331
119
  5
E0
331
11A
  5
E1
331
11B
  5
E2
331
11C
  5
E3
331
11D
  5
E4
331
11E
  5
E5
331
11F
  5
E6
331
120
  5
E7
331
121
  5
E8
331
122
  5
E9
331
123
  5
EA
331
124
  5
EB
331
125
  5
EC
331
126
  5
ED
331
127
  5
EE
331
128
  5
EF
331
129
  5
F0
331
12A
  5
F1
331
12B
  5
F2
331
12C
  5
F3
331
12D
  5
F4
331
12E
  5
F5
331
12F
  5
F6
331
130
  5
F7
331
131
  5
F8
331
132
  5
F9
331
133
  5
FA
331
134
  5
FB
331
135
  5
FC
331
136
  5
FD
331
137
  5
FE
331
138
  5
FF
331
139
  5
100
331
13A
  5
101
331
13B
  5
102
331
13C
  5
103
331
13D
  5
104
331
13E
  5
105
331
13F
  5
106
331
140
  5
107
331
141
  5
108
331
142
  5
109
331
143
  5
10A
331
144
  5
10B
331
145
  5
10C
331
146
  5
10D
331
147
  5
10E
331
148
  5
10F
331
149
  5
110
331
14A
  5
111
331
14B
  5
112
331
14C
  5
113
331
14D
  5
114
331
14E
  5
115
331
14F
  5
116
331
150
  5
117
331
151
  5
118
331
152
  5
119
331
153
  5
11A
331
154
  5
11B
331
155
  5
11C
331
156
  5
11D
331
157
  5
11E
331
158
  5
11F
331
159
  5
120
331
15A
  5
121
331
15B
  5
122
331
15C
  5
123
331
15D
  5
124
331
15E
  5
125
331
15F
  5
126
331
160
  5
127
331
161
  5
128
331
162
  5
129
331
163
  5
12A
331
164
  5
12B
331
165
  5
12C
331
166
  5
12D
331
167
  5
12E
331
168
  5
12F
331
169
  5
130
331
16A
  5
131
331
16B
  5
132
331
16C
  5
133
331
16D
  5
134
331
16E
  5
135
331
16F
  5
136
331
170
  5
137
331
171
  5
138
331
172
  5
139
331
173
  5
13A
331
174
  5
13B
331
175
  5
13C
331
176
  5
13D
331
177
  5
13E
331
178
  5
13F
331
179
  5
140
331
17A
  5
141
331
17B
  5
142
331
17C
  5
143
331
17D
  5
144
331
17E
  5
145
331
17F
  5
146
331
180
  5
147
331
181
  5
148
331
182
  5
149
331
183
  5
14A
331
184
  5
14B
331
185
  5
14C
331
186
  5
14D
331
187
  5
14E
331
188
  5
14F
331
189
  5
150
331
18A
  5
151
331
18B
  5
152
331
18C
  5
153
331
18D
  5
154
331
18E
  5
155
331
18F
  5
156
331
190
  5
157
331
191
  5
158
331
192
  5
159
331
193
  5
15A
331
194
  5
15B
331
195
  5
15C
331
196
  5
15D
331
197
  5
15E
331
198
  5
15F
331
199
  5
160
331
19A
  5
161
331
19B
  5
162
331
19C
  5
163
331
19D
  5
164
331
19E
  5
165
331
19F
  5
166
331
1A0
  5
167
331
1A1
  5
168
331
1A2
  5
169
331
1A3
  5
16A
331
1A4
  5
16B
331
1A5
  5
16C
331
1A6
  5
16D
331
1A7
  5
16E
331
1A8
  5
16F
331
1A9
  5
170
331
1AA
  5
171
331
1AB
  5
172
331
1AC
  5
173
331
1AD
  5
174
331
1AE
  5
175
331
1AF
  5
176
331
1B0
  5
177
331
1B1
  5
178
331
1B2
  5
179
331
1B3
  5
17A
331
1B4
  5
17B
331
1B5
  5
17C
331
1B6
  5
17D
331
1B7
  5
17E
331
1B8
  5
17F
331
1B9
  5
180
331
1BA
  5
181
331
1BB
  5
182
331
1BC
  5
183
331
1BD
  5
184
331
1BE
  5
185
331
1BF
  5
186
331
1C0
  5
187
331
1C1
  5
188
331
1C2
  5
189
331
1C3
  5
18A
331
1C4
  5
18B
331
1C5
  5
18C
331
1C6
  5
18D
331
1C7
  5
18E
331
1C8
  5
18F
331
1C9
  5
190
331
1CA
  5
191
331
1CB
  5
192
331
1CC
  5
193
331
1CD
  5
194
331
1CE
  5
195
331
1CF
  5
196
331
1D0
  5
197
331
1D1
  5
198
331
1D2
  5
199
331
1D3
  5
19A
331
1D4
  5
19B
331
1D5
  5
19C
331
1D6
  5
19D
331
1D7
  5
19E
331
1D8
  5
19F
331
1D9
  5
1A0
331
1DA
  5
1A1
331
1DB
  5
1A2
331
1DC
  5
1A3
331
1DD
  5
1A4
331
1DE
  5
1A5
331
1DF
  5
1A6
331
1E0
  5
1A7
331
1E1
  5
1A8
331
1E2
  5
1A9
331
1E3
  5
1AA
331
1E4
  5
1AB
331
1E5
  5
1AC
331
1E6
  5
1AD
331
1E7
  5
1AE
331
1E8
  5
1AF
331
1E9
  5
1B0
331
1EA
  5
1B1
331
1EB
  5
1B2
331
1EC
  5
1B3
331
1ED
  5
1B4
331
1EE
  5
1B5
331
1EF
  5
1B6
331
1F0
  5
1B7
331
1F1
  5
1B8
331
1F2
  5
1B9
331
1F3
  5
1BA
331
1F4
  5
1BB
331
1F5
  5
1BC
331
1F6
  5
1BD
331
1F7
  5
1BE
331
1F8
  5
1BF
331
1F9
  5
1C0
331
1FA
  5
1C1
331
1FB
  5
1C2
331
1FC
  5
1C3
331
1FD
  5
1C4
331
1FE
  5
1C5
331
1FF
  5
1C6
331
200
  5
1C7
331
201
  5
1C8
331
202
  5
1C9
331
203
  5
1CA
331
204
  5
1CB
331
205
  5
1CC
331
206
  5
1CD
331
207
  5
1CE
331
208
  5
1CF
331
209
  5
1D0
331
20A
  5
1D1
331
20B
  5
1D2
331
20C
  5
1D3
331
20D
  5
1D4
331
20E
  5
1D5
331
20F
  5
1D6
331
210
  5
1D7
331
211
  5
1D8
331
212
  5
1D9
331
213
  5
1DA
331
214
  5
1DB
331
215
  5
1DC
331
216
  5
1DD
331
217
  5
1DE
331
218
  5
1DF
331
219
  5
1E0
331
21A
  5
1E1
331
21B
  5
1E2
331
21C
  5
1E3
331
21D
  5
1E4
331
21E
  5
1E5
331
21F
  5
1E6
331
220
  5
1E7
331
221
  5
1E8
331
222
  5
1E9
331
223
  5
1EA
331
224
  5
1EB
331
225
  5
1EC
331
226
  5
1ED
331
227
  5
1EE
331
228
  5
1EF
331
229
  5
1F0
331
22A
  5
1F1
331
22B
  5
1F2
331
22C
  5
1F3
331
22D
  5
1F4
331
22E
  5
1F5
331
22F
  5
1F6
331
230
  5
1F7
331
231
  5
1F8
331
232
  5
1F9
331
233
  5
1FA
331
234
  5
1FB
331
235
  5
1FC
331
236
  5
1FD
331
237
  5
1FE
331
238
  5
1FF
331
239
  5
200
331
23A
  5
201
331
23B
  5
202
331
23C
  5
203
331
23D
  5
204
331
23E
  5
205
331
23F
  5
206
331
240
  5
207
331
241
  5
208
331
242
  5
209
331
243
  5
20A
331
244
  5
20B
331
245
  5
20C
331
246
  5
20D
331
247
  5
20E
331
248
  5
20F
331
249
  5
210
331
24A
  5
211
331
24B
  5
212
331
24C
  5
213
331
24D
  5
214
331
24E
  5
215
331
24F
  5
216
331
250
  5
217
331
251
  5
218
331
252
  5
219
331
253
  5
21A
331
254
  5
21B
331
255
  5
21C
331
256
  5
21D
331
257
  5
21E
331
258
  5
21F
331
259
  5
220
331
25A
  5
221
331
25B
  5
222
331
25C
  5
223
331
25D
  5
224
331
25E
  5
225
331
25F
  5
226
331
260
  5
227
331
261
  5
228
331
262
  5
229
331
263
  5
22A
331
264
  5
22B
331
265
  5
22C
331
266
  5
22D
331
267
  5
22E
331
268
  5
22F
331
269
  5
230
331
26A
  5
231
331
26B
  5
232
331
26C
  5
233
331
26D
  5
234
331
26E
  5
235
331
26F
  5
236
331
270
  5
237
331
271
  5
238
331
272
  5
239
331
273
  5
23A
331
274
  5
23B
331
275
  5
23C
331
276
  5
23D
331
277
  5
23E
331
278
  5
23F
331
279
  5
240
331
27A
  5
241
331
27B
  5
242
331
27C
  5
243
331
27D
  5
244
331
27E
  5
245
331
27F
  5
246
331
280
  5
247
331
281
  5
248
331
282
  5
249
331
283
  5
24A
331
284
  5
24B
331
285
  5
24C
331
286
  5
24D
331
287
  5
24E
331
288
  5
24F
331
289
  5
250
331
28A
  5
251
331
28B
  5
252
331
28C
  5
253
331
28D
  5
254
331
28E
  5
255
331
28F
  5
256
331
290
  5
257
331
291
  5
258
331
292
  5
259
331
293
  5
25A
331
294
  5
25B
331
295
  5
25C
331
296
  5
25D
331
297
  5
25E
331
298
  5
25F
331
299
  5
260
331
29A
  5
261
331
29B
  5
262
331
29C
  5
263
331
29D
  5
264
331
29E
  5
265
331
29F
  5
266
331
2A0
  5
267
331
2A1
  5
268
331
2A2
  5
269
331
2A3
  5
26A
331
2A4
  5
26B
331
2A5
  5
26C
331
2A6
  5
26D
331
2A7
  5
26E
331
2A8
  5
26F
331
2A9
  5
270
331
2AA
  5
271
331
2AB
  5
272
331
2AC
  5
273
331
2AD
  5
274
331
2AE
  5
275
331
2AF
  5
276
331
2B0
  5
277
331
2B1
  5
278
331
2B2
  5
279
331
2B3
  5
27A
331
2B4
  5
27B
331
2B5
  5
27C
331
2B6
  5
27D
331
2B7
  5
27E
331
2B8
  5
27F
331
2B9
  5
280
331
2BA
  5
281
331
2BB
  5
282
331
2BC
  5
283
331
2BD
  5
284
331
2BE
  5
285
331
2BF
  5
286
331
2C0
  5
287
331
2C1
  5
288
331
2C2
  5
289
331
2C3
  5
28A
331
2C4
  5
28B
331
2C5
  5
28C
331
2C6
  5
28D
331
2C7
  5
28E
331
2C8
  5
28F
331
2C9
  5
290
331
2CA
  5
291
331
2CB
  5
292
331
2CC
  5
293
331
2CD
  5
294
331
2CE
  5
295
331
2CF
  5
296
331
2D0
  5
297
331
2D1
  5
298
331
2D2
  5
299
331
2D3
  5
29A
331
2D4
  5
29B
331
2D5
  5
29C
331
2D6
  5
29D
331
2D7
  5
29E
331
2D8
  5
29F
331
2D9
  5
2A0
331
2DA
  5
2A1
331
2DB
  5
2A2
331
2DC
  5
2A3
331
2DD
  5
2A4
331
2DE
  5
2A5
331
2DF
  5
2A6
331
2E0
  5
2A7
331
2E1
  5
2A8
331
2E2
  5
2A9
331
2E3
  5
2AA
331
2E4
  5
2AB
331
2E5
  5
2AC
331
2E6
  5
2AD
331
2E7
  5
2AE
331
2E8
  5
2AF
331
2E9
  5
2B0
331
2EA
  5
2B1
331
2EB
  5
2B2
331
2EC
  5
2B3
331
2ED
  5
2B4
331
2EE
  5
2B5
331
2EF
  5
2B6
331
2F0
  5
2B7
331
2F1
  5
2B8
331
2F2
  5
2B9
331
2F3
  5
2BA
331
2F4
  5
2BB
331
2F5
  5
2BC
331
2F6
  5
2BD
331
2F7
  5
2BE
331
2F8
  5
2BF
331
2F9
  5
2C0
331
2FA
  5
2C1
331
2FB
  5
2C2
331
2FC
  5
2C3
331
2FD
  5
2C4
331
2FE
  5
2C5
331
2FF
  5
2C6
331
300
  5
2C7
331
301
  5
2C8
331
302
  5
2C9
331
303
  5
2CA
331
304
  5
2CB
331
305
  5
2CC
331
306
  5
2CD
331
307
  5
2CE
331
308
  5
2CF
331
309
  5
2D0
331
30A
  5
2D1
331
30B
  5
2D2
331
30C
  5
2D3
331
30D
  5
2D4
331
30E
  5
2D5
331
30F
  5
2D6
331
310
  5
2D7
331
311
  5
2D8
331
312
  5
2D9
331
313
  5
2DA
331
314
  5
2DB
331
315
  5
2DC
331
316
  5
2DD
331
317
  5
2DE
331
318
  5
2DF
331
319
  5
2E0
331
31A
  5
2E1
331
31B
  5
2E2
331
31C
  5
2E3
331
31D
  5
2E4
331
31E
  5
2E5
331
31F
  5
2E6
331
320
  5
2E7
331
321
  5
2E8
331
322
  5
2E9
331
323
  5
2EA
331
324
  5
2EB
331
325
  5
2EC
331
326
  5
2ED
331
327
  5
2EE
331
328
  5
2EF
331
329
  5
2F0
331
32A
  5
2F1
331
32B
  5
2F2
331
32C
  5
2F3
331
32D
  5
2F4
331
32E
  5
2F5
331
32F
  5
2F6
331
330
  5
2F7
331
331
  5
2F8
331
332
  5
2F9
331
333
  5
2FA
331
334
  5
2FB
331
335
  5
2FC
331
336
  5
2FD
331
337
  5
2FE
331
338
  5
2FF
331
339
  5
300
331
33A
  5
301
331
33B
  5
302
331
33C
  5
303
331
33D
  5
304
331
33E
  5
305
331
33F
  5
306
331
340
  5
307
331
341
  5
308
331
342
  5
309
331
343
  5
30A
331
344
  5
30B
331
345
  5
30C
331
346
  5
30D
331
347
  5
30E
331
348
  5
30F
331
349
  5
310
331
34A
  5
311
331
34B
  5
312
331
34C
  5
313
331
34D
  5
314
331
34E
  5
315
331
34F
  5
316
331
350
  5
317
331
351
  5
318
331
352
  5
319
331
353
  5
31A
331
354
  5
31B
331
355
  5
31C
331
356
  5
31D
331
357
  5
31E
331
358
  5
31F
331
359
  5
320
331
35A
  5
321
331
35B
  5
322
331
35C
  5
323
331
35D
  5
324
331
35E
  5
325
331
35F
  5
326
331
360
  5
327
331
361
  5
328
331
362
  5
329
331
363
  5
32A
331
364
  5
32B
331
365
  5
32C
331
366
  5
32D
331
367
  5
32E
331
368
  5
32F
331
369
  5
330
331
36A
  5
331
331
36B
  5
332
331
36C
  5
333
331
36D
  5
334
331
36E
  5
335
331
36F
  5
336
331
370
  5
337
331
371
  5
338
331
372
  5
339
331
373
  5
33A
331
374
  5
33B
331
375
  5
33C
331
376
  5
33D
331
377
  5
33E
331
378
  5
33F
331
379
  5
340
331
37A
  5
341
331
37B
  5
342
331
37C
  5
343
331
37D
  5
344
331
37E
  5
345
331
37F
  5
346
331
380
  5
347
331
381
  5
348
331
382
  5
349
331
383
  5
34A
331
384
  5
34B
331
385
  5
34C
331
386
  5
34D
331
387
  5
34E
331
388
  5
34F
331
389
  5
350
331
38A
  5
351
331
38B
  5
352
331
38C
  5
353
331
38D
  5
354
331
38E
  5
355
331
38F
  5
356
331
390
  5
357
331
391
  5
358
331
392
  5
359
331
393
  5
35A
331
394
  5
35B
331
395
  5
3B5
331
396
  5
3B6
331
397
  5
3B7
331
398
  5
35C
331
399
  5
35D
331
39A
  5
35E
331
39B
  5
35F
331
39C
  5
360
331
39D
  5
361
331
39E
  5
3B8
331
39F
  5
362
331
3A0
  5
3B9
331
3A1
  5
3BB
331
3A2
  5
3BD
331
3A3
  5
3BF
331
3A4
  5
3C0
331
3A5
  5
363
331
3A6
  5
3C1
331
3A7
  5
3C2
331
3A8
  5
3C3
331
3A9
  5
364
331
3AA
  5
365
331
3AB
  5
366
331
3AC
  5
367
331
3AD
  5
368
331
3AE
  5
369
331
3AF
  5
36A
331
3B0
  5
36B
331
3B1
  5
36C
331
3B2
  5
36D
331
3B3
  5
36E
331
3B4
  5
36F
331
3B5
  5
370
331
3B6
  5
371
331
3B7
  5
3C4
331
3B8
  5
372
331
3B9
  5
373
331
3BB
  5
374
331
3BD
  5
375
331
3BF
  5
3C5
331
3C0
  5
3C6
331
3C1
  5
3C7
331
3C2
  5
376
331
3C3
  5
377
331
3C4
  5
378
331
3C5
  5
379
331
3C6
  5
37A
331
3C7
  5
37B
  0
LAYOUT
  5
437
102
{ACAD_REACTORS
330
433
330
433
102
}
102
{ACAD_XDICTIONARY
360
438
102
}
330
433
100
AcDbPlotSettings
  1

  2
none_device
  4
Letter_(8.50_x_11.00_Inches)
  6

 40
6.35
 41
6.35
 42
6.350006
 43
6.350006
 44
215.899994
 45
279.399994
 46
0.0
 47
0.0
 48
0.0
 49
0.0
140
0.0
141
0.0
142
1.0
143
1.0
 70
   688
 72
     0
 73
     1
 74
     5
  7

 75
    16
 76
     0
 77
     2
 78
   300
147
1.0
148
0.0
149
0.0
100
AcDbLayout
  1
Layout1
 70
     1
 71
     1
 10
-0.25
 20
-0.25
 11
10.75
 21
8.25
 12
0.0
 22
0.0
 32
0.0
 14
1.049744
 24
0.799667
 34
-0.001526
 15
9.450623
 25
7.200577
 35
0.0
146
0.0
 13
0.0
 23
0.0
 33
0.0
 16
1.0
 26
0.0
 36
0.0
 17
0.0
 27
1.0
 37
0.0
 76
     0
330
434
1001
ACAD_PSEXT
1000
None
1000
None
1000
Not applicable
1000
The layout will not be plotted unless a new plotter configuration name is selected.
1070
     0
  0
LAYOUT
  5
432
102
{ACAD_REACTORS
330
433
330
433
102
}
330
433
100
AcDbPlotSettings
  1

  2
none_device
  4
ANSI_A_(8.50_x_11.00_Inches)
  6

 40
6.35
 41
19.049999
 42
6.350006
 43
19.049988
 44
215.899994
 45
279.399994
 46
0.0
 47
0.0
 48
0.0
 49
0.0
140
0.0
141
0.0
142
1.0
143
2.584895
 70
 11952
 72
     0
 73
     1
 74
     0
  7

 75
     0
 76
     0
 77
     2
 78
   300
147
0.386863
148
0.0
149
0.0
100
AcDbLayout
  1
Model
 70
     1
 71
     0
 10
0.0
 20
0.0
 11
12.0
 21
9.0
 12
0.0
 22
0.0
 32
0.0
 14
0.0
 24
0.0
 34
0.0
 15
0.0
 25
0.0
 35
0.0
146
0.0
 13
0.0
 23
0.0
 33
0.0
 16
1.0
 26
0.0
 36
0.0
 17
0.0
 27
1.0
 37
0.0
 76
     0
330
42F
331
49
  0
MLINESTYLE
  5
42C
102
{ACAD_REACTORS
330
42D
102
}
330
42D
100
AcDbMlineStyle
  2
STANDARD
 70
     0
  3

 62
   256
 51
90.0
 52
90.0
 71
     2
 49
0.5
 62
   256
  6
BYLAYER
 49
-0.5
 62
   256
  6
BYLAYER
  0
ACDBPLACEHOLDER
  5
421
102
{ACAD_REACTORS
330
422
102
}
330
422
  0
XRECORD
  5
413
102
{ACAD_REACTORS
330
447
102
}
330
447
100
AcDbXrecord
280
     1
310
3E4F020000004D6F64656C6572000000000000000000000000000000000000000000000000000000000000000000000000000000000000000000000000000000000000000000000000000000000000000000000000000000000000000000000000000000000000000000000000000000000000000000000000000000000000
310
00000000000000000000000000000000000000000000000000000000000000000000000000000000000000000000000000000000000000000000000000000000000000000000000000000000000000000000000000000000000000000000000000000000000000000000000000000000000000000000000000000000000000
310
00
310
00000000000000000000000000000000000000000000000000000000000000000000000000000000000000000000000000000000000000000000000000000000000000000000000000000000000000000000000000000000000000000000000000000000000000000000000000000000000000000000000000000000000000
310
00000000000000000000000000000000000000000000000000000000000000000000000000000000000000000000000000000000000000000000000000000000000000000000000000000000000000000000000000000000000000000000000000000000000000000000000000000000000000000000000000000000000000
310
00
310
00000000000000000000000000000000000000000000000000000000000000000000000000000000000000000000000000000000000000000000000000000000000000000000000000000000000000000000000000000000000000000000000000000000000000000000000000000000000000000000000000000000000000
310
00000000000000000000000000000000000000000000000000000000000000000000000000000000000000000000000000000000000000000000000000000000000000000000000000000000000000000000000000000000000000000000000000000000000000000000000000000000000000000000000000000000000000
310
00
310
00000000000000000000000000000000000000000000000000000000000000000000000000000000000000000000000000000000000000000000000000000000000000000000000000000000000000000000000000000000000000000000000000000000000000000000000000000000000000000000000000000000000000
310
00000000000000000000000000000000000000000000000000000000000000000000000000000000000000000000000000000000000000000000000000000000000000000000000000000000000000000000000000000000000000000000000000000000000000000000000000000000000000000000000000000000000000
310
00
310
00000000000000000000000000000000000000000000000000000000000000000000000000000000000000000000000000000000000000000000000000000000000000000000000000000000000000000000000000000000000000000000000000000000000000000000000000000000000000000000000000000000000000
310
00000000000000000000000000000000000000000000000000000000000000000000000000000000000000000000000000000000000000000000000000000000000000000000000000000000000000000000000000000000000000000000000000000000000000000000000000000000000000000000000000000000000000
310
00
310
00000000000000000000000000000000000000000000000000000000000000000000000000000000000000000000000000000000000000000000000000000000000000000000000000000000000000000000000000000000000000000000000000000000000000000000000000000000000000000000000000000000000000
310
00000000000000000000000000000000000000000000000000000000000000000000000000000000000000000000000000000000000000000000000000000000000000000000000000000000000000000000000000000000000000000000000000000000000000000000000000000000000000000000000000000000000000
310
00
310
00000000000000000000000000000000000000000000000000000000000000000000000000000000000000000000000000000000000000000000000000000000000000000000000000000000000000000000000000000000000000000000000000000000000000000000000000000000000000000000000000000000000000
310
00000000000000000000000000000000000000000000000000000000000000000000000000000000000000000000000000000000000000000000000000000000000000000000000000000000000000000000000000000000000000000000000000000000000000000000000000000000000000000000000000000000000000
310
00
310
00000000000000000000000000000000000000000000000000000000000000000000000000000000000000000000000000000000000000000000000000000000000000000000000000000000000000000000000000000000000000000000000000000000000000000000000000000000000000000000000000000000000000
310
00000000000000000000000000000000000000000000000000000000000000000000000000000000000000000000000000000000000000000000000000000000000000000000000000000000000000000000000000000000000000000000000000000000000000000000000000000000000000000000000000000000000000
310
00
310
00000000000000000000000000000000000000000000000000000000000000000000000000000000000000000000000000000000000000000000000000000000000000000000000000000000000000000000000000000000000000000000000000000000000000000000000000000000000000000000000000000000000000
310
00000000000000000000000000000000000000000000000000000000000000000000000000000000000000000000000000000000000000000000000000000000000000000000000000000000000000000000000000000000000000000000000000000000000000000000000000000000000000000000000000000000000000
310
00
310
00000000000000000000000000000000000000000000000000000000000000000000000000000000000000000000000000000000000000000000000000000000000000000000000000000000000000000000000000000000000000000000000000000000000000000000000000000000000000000000000000000000000000
310
00000000000000000000000000000000000000000000000000000000000000000000000000000000000000000000000000000000000000000000000000000000000000000000000000000000000000000000000000000000000000000000000000000000000000000000000000000000000000000000000000000000000000
310
00
310
00000000000000000000000000000000000000000000000000000000000000000000000000000000000000000000000000000000000000000000000000000000000000000000000000000000000000000000000000000000000000000000000000000000000000000000000000000000000000000000000000000000000000
310
00000000000000000000000000000000000000000000000000000000000000000000000000000000000000000000000000000000000000000000000000000000000000000000000000000000000000000000000000000000000000000000000000000000000000000000000000000000000000000000000000000000000000
310
00
310
00000000000000000000000000000000000000000000000000000000000000000000000000000000000000000000000000000000000000000000000000000000000000000000000000000000000000000000000000000000000000000000000000000000000000000000000000000000000000000000000000000000000000
310
00000000000000000000000000000000000000000000000000000000000000000000000000000000000000000000000000000000000000000000000000000000000000000000000000000000000000000000000000000000000000000000000000000000000000000000000000000000000000000000000000000000000000
310
00
310
00000000000000000000000000000000000000000000000000000000000000000000000000000000000000000000000000000000000000000000000000000000000000000000000000000000000000000000000000000000000000000000000000000000000000000000000000000000000000000000000000000000000000
310
00000000000000000000000000000000000000000000000000000000000000000000000000000000000000000000000000000000000000000000000000000000000000000000000000000000000000000000000000000000000000000000000000000000000000000000000000000000000000000000000000000000000000
310
00
310
00000000000000000000000000000000000000000000000000000000000000000000000000000000000000000000000000000000000000000000000000000000000000000000000000000000000000000000000000000000000000000000000000000000000000000000000000000000000000
  0
XRECORD
  5
417
102
{ACAD_REACTORS
330
447
102
}
330
447
100
AcDbXrecord
280
     1
310
3E4F020000004D6F64656C6572000000000000000000000000000000000000000000000000000000000000000000000000000000000000000000000000000000000000000000000000000000000000000000000000000000000000000000000000000000000000000000000000000000000000000000000000000000000000
310
00000000000000000000000000000000000000000000000000000000000000000000000000000000000000000000000000000000000000000000000000000000000000000000000000000000000000000000000000000000000000000000000000000000000000000000000000000000000000000000000000000000000000
310
00
310
00000000000000000000000000000000000000000000000000000000000000000000000000000000000000000000000000000000000000000000000000000000000000000000000000000000000000000000000000000000000000000000000000000000000000000000000000000000000000000000000000000000000000
310
00000000000000000000000000000000000000000000000000000000000000000000000000000000000000000000000000000000000000000000000000000000000000000000000000000000000000000000000000000000000000000000000000000000000000000000000000000000000000000000000000000000000000
310
00
310
00000000000000000000000000000000000000000000000000000000000000000000000000000000000000000000000000000000000000000000000000000000000000000000000000000000000000000000000000000000000000000000000000000000000000000000000000000000000000000000000000000000000000
310
00000000000000000000000000000000000000000000000000000000000000000000000000000000000000000000000000000000000000000000000000000000000000000000000000000000000000000000000000000000000000000000000000000000000000000000000000000000000000000000000000000000000000
310
00
310
00000000000000000000000000000000000000000000000000000000000000000000000000000000000000000000000000000000000000000000000000000000000000000000000000000000000000000000000000000000000000000000000000000000000000000000000000000000000000000000000000000000000000
310
00000000000000000000000000000000000000000000000000000000000000000000000000000000000000000000000000000000000000000000000000000000000000000000000000000000000000000000000000000000000000000000000000000000000000000000000000000000000000000000000000000000000000
310
00
310
00000000000000000000000000000000000000000000000000000000000000000000000000000000000000000000000000000000000000000000000000000000000000000000000000000000000000000000000000000000000000000000000000000000000000000000000000000000000000000000000000000000000000
310
00000000000000000000000000000000000000000000000000000000000000000000000000000000000000000000000000000000000000000000000000000000000000000000000000000000000000000000000000000000000000000000000000000000000000000000000000000000000000000000000000000000000000
310
00
310
00000000000000000000000000000000000000000000000000000000000000000000000000000000000000000000000000000000000000000000000000000000000000000000000000000000000000000000000000000000000000000000000000000000000000000000000000000000000000000000000000000000000000
310
00000000000000000000000000000000000000000000000000000000000000000000000000000000000000000000000000000000000000000000000000000000000000000000000000000000000000000000000000000000000000000000000000000000000000000000000000000000000000000000000000000000000000
310
00
310
00000000000000000000000000000000000000000000000000000000000000000000000000000000000000000000000000000000000000000000000000000000000000000000000000000000000000000000000000000000000000000000000000000000000000000000000000000000000000000000000000000000000000
310
00000000000000000000000000000000000000000000000000000000000000000000000000000000000000000000000000000000000000000000000000000000000000000000000000000000000000000000000000000000000000000000000000000000000000000000000000000000000000000000000000000000000000
310
00
310
00000000000000000000000000000000000000000000000000000000000000000000000000000000000000000000000000000000000000000000000000000000000000000000000000000000000000000000000000000000000000000000000000000000000000000000000000000000000000000000000000000000000000
310
00000000000000000000000000000000000000000000000000000000000000000000000000000000000000000000000000000000000000000000000000000000000000000000000000000000000000000000000000000000000000000000000000000000000000000000000000000000000000000000000000000000000000
310
00
310
00000000000000000000000000000000000000000000000000000000000000000000000000000000000000000000000000000000000000000000000000000000000000000000000000000000000000000000000000000000000000000000000000000000000000000000000000000000000000000000000000000000000000
310
00000000000000000000000000000000000000000000000000000000000000000000000000000000000000000000000000000000000000000000000000000000000000000000000000000000000000000000000000000000000000000000000000000000000000000000000000000000000000000000000000000000000000
310
00
310
00000000000000000000000000000000000000000000000000000000000000000000000000000000000000000000000000000000000000000000000000000000000000000000000000000000000000000000000000000000000000000000000000000000000000000000000000000000000000000000000000000000000000
310
00000000000000000000000000000000000000000000000000000000000000000000000000000000000000000000000000000000000000000000000000000000000000000000000000000000000000000000000000000000000000000000000000000000000000000000000000000000000000000000000000000000000000
310
00
310
00000000000000000000000000000000000000000000000000000000000000000000000000000000000000000000000000000000000000000000000000000000000000000000000000000000000000000000000000000000000000000000000000000000000000000000000000000000000000000000000000000000000000
310
00000000000000000000000000000000000000000000000000000000000000000000000000000000000000000000000000000000000000000000000000000000000000000000000000000000000000000000000000000000000000000000000000000000000000000000000000000000000000000000000000000000000000
310
00
310
00000000000000000000000000000000000000000000000000000000000000000000000000000000000000000000000000000000000000000000000000000000000000000000000000000000000000000000000000000000000000000000000000000000000000000000000000000000000000000000000000000000000000
310
00000000000000000000000000000000000000000000000000000000000000000000000000000000000000000000000000000000000000000000000000000000000000000000000000000000000000000000000000000000000000000000000000000000000000000000000000000000000000000000000000000000000000
310
00
310
00000000000000000000000000000000000000000000000000000000000000000000000000000000000000000000000000000000000000000000000000000000000000000000000000000000000000000000000000000000000000000000000000000000000000000000000000000000000000000000000000000000000000
310
00000000000000000000000000000000000000000000000000000000000000000000000000000000000000000000000000000000000000000000000000000000000000000000000000000000000000000000000000000000000000000000000000000000000000000000000000000000000000000000000000000000000000
310
00
310
00000000000000000000000000000000000000000000000000000000000000000000000000000000000000000000000000000000000000000000000000000000000000000000000000000000000000000000000000000000000000000000000000000000000000000000000000000000000000
  0
XRECORD
  5
41A
102
{ACAD_REACTORS
330
447
102
}
330
447
100
AcDbXrecord
280
     1
310
3E4F020000004D6F64656C6572000000000000000000000000000000000000000000000000000000000000000000000000000000000000000000000000000000000000000000000000000000000000000000000000000000000000000000000000000000000000000000000000000000000000000000000000000000000000
310
00000000000000000000000000000000000000000000000000000000000000000000000000000000000000000000000000000000000000000000000000000000000000000000000000000000000000000000000000000000000000000000000000000000000000000000000000000000000000000000000000000000000000
310
00
310
00000000000000000000000000000000000000000000000000000000000000000000000000000000000000000000000000000000000000000000000000000000000000000000000000000000000000000000000000000000000000000000000000000000000000000000000000000000000000000000000000000000000000
310
00000000000000000000000000000000000000000000000000000000000000000000000000000000000000000000000000000000000000000000000000000000000000000000000000000000000000000000000000000000000000000000000000000000000000000000000000000000000000000000000000000000000000
310
00
310
00000000000000000000000000000000000000000000000000000000000000000000000000000000000000000000000000000000000000000000000000000000000000000000000000000000000000000000000000000000000000000000000000000000000000000000000000000000000000000000000000000000000000
310
00000000000000000000000000000000000000000000000000000000000000000000000000000000000000000000000000000000000000000000000000000000000000000000000000000000000000000000000000000000000000000000000000000000000000000000000000000000000000000000000000000000000000
310
00
310
00000000000000000000000000000000000000000000000000000000000000000000000000000000000000000000000000000000000000000000000000000000000000000000000000000000000000000000000000000000000000000000000000000000000000000000000000000000000000000000000000000000000000
310
00000000000000000000000000000000000000000000000000000000000000000000000000000000000000000000000000000000000000000000000000000000000000000000000000000000000000000000000000000000000000000000000000000000000000000000000000000000000000000000000000000000000000
310
00
310
00000000000000000000000000000000000000000000000000000000000000000000000000000000000000000000000000000000000000000000000000000000000000000000000000000000000000000000000000000000000000000000000000000000000000000000000000000000000000000000000000000000000000
310
00000000000000000000000000000000000000000000000000000000000000000000000000000000000000000000000000000000000000000000000000000000000000000000000000000000000000000000000000000000000000000000000000000000000000000000000000000000000000000000000000000000000000
310
00
310
00000000000000000000000000000000000000000000000000000000000000000000000000000000000000000000000000000000000000000000000000000000000000000000000000000000000000000000000000000000000000000000000000000000000000000000000000000000000000000000000000000000000000
310
00000000000000000000000000000000000000000000000000000000000000000000000000000000000000000000000000000000000000000000000000000000000000000000000000000000000000000000000000000000000000000000000000000000000000000000000000000000000000000000000000000000000000
310
00
310
00000000000000000000000000000000000000000000000000000000000000000000000000000000000000000000000000000000000000000000000000000000000000000000000000000000000000000000000000000000000000000000000000000000000000000000000000000000000000000000000000000000000000
310
00000000000000000000000000000000000000000000000000000000000000000000000000000000000000000000000000000000000000000000000000000000000000000000000000000000000000000000000000000000000000000000000000000000000000000000000000000000000000000000000000000000000000
310
00
310
00000000000000000000000000000000000000000000000000000000000000000000000000000000000000000000000000000000000000000000000000000000000000000000000000000000000000000000000000000000000000000000000000000000000000000000000000000000000000000000000000000000000000
310
00000000000000000000000000000000000000000000000000000000000000000000000000000000000000000000000000000000000000000000000000000000000000000000000000000000000000000000000000000000000000000000000000000000000000000000000000000000000000000000000000000000000000
310
00
310
00000000000000000000000000000000000000000000000000000000000000000000000000000000000000000000000000000000000000000000000000000000000000000000000000000000000000000000000000000000000000000000000000000000000000000000000000000000000000000000000000000000000000
310
00000000000000000000000000000000000000000000000000000000000000000000000000000000000000000000000000000000000000000000000000000000000000000000000000000000000000000000000000000000000000000000000000000000000000000000000000000000000000000000000000000000000000
310
00
310
00000000000000000000000000000000000000000000000000000000000000000000000000000000000000000000000000000000000000000000000000000000000000000000000000000000000000000000000000000000000000000000000000000000000000000000000000000000000000000000000000000000000000
310
00000000000000000000000000000000000000000000000000000000000000000000000000000000000000000000000000000000000000000000000000000000000000000000000000000000000000000000000000000000000000000000000000000000000000000000000000000000000000000000000000000000000000
310
00
310
00000000000000000000000000000000000000000000000000000000000000000000000000000000000000000000000000000000000000000000000000000000000000000000000000000000000000000000000000000000000000000000000000000000000000000000000000000000000000000000000000000000000000
310
00000000000000000000000000000000000000000000000000000000000000000000000000000000000000000000000000000000000000000000000000000000000000000000000000000000000000000000000000000000000000000000000000000000000000000000000000000000000000000000000000000000000000
310
00
310
00000000000000000000000000000000000000000000000000000000000000000000000000000000000000000000000000000000000000000000000000000000000000000000000000000000000000000000000000000000000000000000000000000000000000000000000000000000000000000000000000000000000000
310
00000000000000000000000000000000000000000000000000000000000000000000000000000000000000000000000000000000000000000000000000000000000000000000000000000000000000000000000000000000000000000000000000000000000000000000000000000000000000000000000000000000000000
310
00
310
00000000000000000000000000000000000000000000000000000000000000000000000000000000000000000000000000000000000000000000000000000000000000000000000000000000000000000000000000000000000000000000000000000000000000000000000000000000000000000000000000000000000000
310
00000000000000000000000000000000000000000000000000000000000000000000000000000000000000000000000000000000000000000000000000000000000000000000000000000000000000000000000000000000000000000000000000000000000000000000000000000000000000000000000000000000000000
310
00
310
00000000000000000000000000000000000000000000000000000000000000000000000000000000000000000000000000000000000000000000000000000000000000000000000000000000000000000000000000000000000000000000000000000000000000000000000000000000000000
  0
XRECORD
  5
41B
102
{ACAD_REACTORS
330
447
102
}
330
447
100
AcDbXrecord
280
     1
310
3E4F020000004D6F64656C6572000000000000000000000000000000000000000000000000000000000000000000000000000000000000000000000000000000000000000000000000000000000000000000000000000000000000000000000000000000000000000000000000000000000000000000000000000000000000
310
00000000000000000000000000000000000000000000000000000000000000000000000000000000000000000000000000000000000000000000000000000000000000000000000000000000000000000000000000000000000000000000000000000000000000000000000000000000000000000000000000000000000000
310
00
310
00000000000000000000000000000000000000000000000000000000000000000000000000000000000000000000000000000000000000000000000000000000000000000000000000000000000000000000000000000000000000000000000000000000000000000000000000000000000000000000000000000000000000
310
00000000000000000000000000000000000000000000000000000000000000000000000000000000000000000000000000000000000000000000000000000000000000000000000000000000000000000000000000000000000000000000000000000000000000000000000000000000000000000000000000000000000000
310
00
310
00000000000000000000000000000000000000000000000000000000000000000000000000000000000000000000000000000000000000000000000000000000000000000000000000000000000000000000000000000000000000000000000000000000000000000000000000000000000000000000000000000000000000
310
00000000000000000000000000000000000000000000000000000000000000000000000000000000000000000000000000000000000000000000000000000000000000000000000000000000000000000000000000000000000000000000000000000000000000000000000000000000000000000000000000000000000000
310
00
310
00000000000000000000000000000000000000000000000000000000000000000000000000000000000000000000000000000000000000000000000000000000000000000000000000000000000000000000000000000000000000000000000000000000000000000000000000000000000000000000000000000000000000
310
00000000000000000000000000000000000000000000000000000000000000000000000000000000000000000000000000000000000000000000000000000000000000000000000000000000000000000000000000000000000000000000000000000000000000000000000000000000000000000000000000000000000000
310
00
310
00000000000000000000000000000000000000000000000000000000000000000000000000000000000000000000000000000000000000000000000000000000000000000000000000000000000000000000000000000000000000000000000000000000000000000000000000000000000000000000000000000000000000
310
00000000000000000000000000000000000000000000000000000000000000000000000000000000000000000000000000000000000000000000000000000000000000000000000000000000000000000000000000000000000000000000000000000000000000000000000000000000000000000000000000000000000000
310
00
310
00000000000000000000000000000000000000000000000000000000000000000000000000000000000000000000000000000000000000000000000000000000000000000000000000000000000000000000000000000000000000000000000000000000000000000000000000000000000000000000000000000000000000
310
00000000000000000000000000000000000000000000000000000000000000000000000000000000000000000000000000000000000000000000000000000000000000000000000000000000000000000000000000000000000000000000000000000000000000000000000000000000000000000000000000000000000000
310
00
310
00000000000000000000000000000000000000000000000000000000000000000000000000000000000000000000000000000000000000000000000000000000000000000000000000000000000000000000000000000000000000000000000000000000000000000000000000000000000000000000000000000000000000
310
00000000000000000000000000000000000000000000000000000000000000000000000000000000000000000000000000000000000000000000000000000000000000000000000000000000000000000000000000000000000000000000000000000000000000000000000000000000000000000000000000000000000000
310
00
310
00000000000000000000000000000000000000000000000000000000000000000000000000000000000000000000000000000000000000000000000000000000000000000000000000000000000000000000000000000000000000000000000000000000000000000000000000000000000000000000000000000000000000
310
00000000000000000000000000000000000000000000000000000000000000000000000000000000000000000000000000000000000000000000000000000000000000000000000000000000000000000000000000000000000000000000000000000000000000000000000000000000000000000000000000000000000000
310
00
310
00000000000000000000000000000000000000000000000000000000000000000000000000000000000000000000000000000000000000000000000000000000000000000000000000000000000000000000000000000000000000000000000000000000000000000000000000000000000000000000000000000000000000
310
00000000000000000000000000000000000000000000000000000000000000000000000000000000000000000000000000000000000000000000000000000000000000000000000000000000000000000000000000000000000000000000000000000000000000000000000000000000000000000000000000000000000000
310
00
310
00000000000000000000000000000000000000000000000000000000000000000000000000000000000000000000000000000000000000000000000000000000000000000000000000000000000000000000000000000000000000000000000000000000000000000000000000000000000000000000000000000000000000
310
00000000000000000000000000000000000000000000000000000000000000000000000000000000000000000000000000000000000000000000000000000000000000000000000000000000000000000000000000000000000000000000000000000000000000000000000000000000000000000000000000000000000000
310
00
310
00000000000000000000000000000000000000000000000000000000000000000000000000000000000000000000000000000000000000000000000000000000000000000000000000000000000000000000000000000000000000000000000000000000000000000000000000000000000000000000000000000000000000
310
00000000000000000000000000000000000000000000000000000000000000000000000000000000000000000000000000000000000000000000000000000000000000000000000000000000000000000000000000000000000000000000000000000000000000000000000000000000000000000000000000000000000000
310
00
310
00000000000000000000000000000000000000000000000000000000000000000000000000000000000000000000000000000000000000000000000000000000000000000000000000000000000000000000000000000000000000000000000000000000000000000000000000000000000000000000000000000000000000
310
00000000000000000000000000000000000000000000000000000000000000000000000000000000000000000000000000000000000000000000000000000000000000000000000000000000000000000000000000000000000000000000000000000000000000000000000000000000000000000000000000000000000000
310
00
310
00000000000000000000000000000000000000000000000000000000000000000000000000000000000000000000000000000000000000000000000000000000000000000000000000000000000000000000000000000000000000000000000000000000000000000000000000000000000000000000000000000000000000
310
00000000000000000000000000000000000000000000000000000000000000000000000000000000000000000000000000000000000000000000000000000000000000000000000000000000000000000000000000000000000000000000000000000000000000000000000000000000000000000000000000000000000000
310
00
310
00000000000000000000000000000000000000000000000000000000000000000000000000000000000000000000000000000000000000000000000000000000000000000000000000000000000000000000000000000000000000000000000000000000000000000000000000000000000000
  0
XRECORD
  5
412
102
{ACAD_REACTORS
330
447
102
}
330
447
100
AcDbXrecord
280
     1
310
DF56060034040701D0009A9999999999B93F000000000000000000000000000000000400000009000000000000000200000064000000640000000100000001000000190000007B14AE47E17A843F00000000004060409A9999999999B93F00000000004C2D41000000000070F7400000000000942141000000000000000000
310
0000000000000000000000000000000AD482040000000000000000000000000000F03F000000000000000000000000000030402D431CEBE2362A3F00000000000008400000000000000000009807C000000000000000007C1A61B9A711364020000000050000000A000000200000002000000020000000000000000000F03F
310
00
310
0000000000F03F000000000000F03F333333333333D33F333333333333D33F333333333333D33F000000000000F43F000000000000F43F000000000000F03F0200000064000000000000000000000000000840000000000000F83F00000000000000000000000000000000008056409A9999999999B93F0000000000000000
310
00000000000000000000000000000000000000000000000000000000000000000000000000000000000000000000000000000000000000000000000000000000000000000000000000000000000000000000000000000000000000000000000000000000000000000000000000000000000000000000000000000000000000
310
00
310
0000000000000000000000000000000000000000000000000000000000000000000000000000000000000000000000000000000000000000000000000000000000000000000000000000000000000000000000000000000000000000000000000000000000000000000000000000000000000000000000009A9999999999A9
310
3F9100000000000000000000000000000035A781D547960F40000000000000F03F000000000000F03F666666666666164000000000104068F200000000000000000000000000000000000000000000000000000000000000000000000000000000000000000000000000000000000000000000000000000000000000000000
310
00
310
00000000000000000000000000000000000000000000000000000000000000000000000000000000000000000000000000000000000000000000000000000000000000000000000000000000000000000000000000000000000000000000000000000000000000000000000000000000000000000000000000000000000000
310
000000000000000000000000000000000000000000000000000000000000000000000000000000000000000000000000000000000000000000000000FF000000000000000000000000000000000000000000000000000000000000000000000000000000000000000000000000000000000000000000000000000000000000
310
00
310
0000000000000000000000000000000000000000000000000000000000000000000000000000000000000000000000000000000000000000000000000000000000000000
  0
DICTIONARY
  5
438
330
437
100
AcDbDictionary
280
     1
281
     1
  3
ADSK_XREC_LAYOUTTHUMBNAIL
360
439
  0
XRECORD
  5
439
102
{ACAD_REACTORS
330
438
102
}
330
438
100
AcDbXrecord
280
     1
310
28000000B40000008B0000000100080000000000BC61000000000000000000000001000000000000FFFFFF0000000000FFFFFF000000000000000000000000000000000000000000000000000000000000000000330000006600000099000000CC000000FF00000000330000333300006633000099330000CC330000FF3300
310
0000660000336600006666000099660000CC660000FF66000000990000339900006699000099990000CC990000FF99000000CC000033CC000066CC000099CC0000CCCC0000FFCC000000FF000033FF000066FF000099FF0000CCFF0000FFFF000000003300330033006600330099003300CC003300FF003300003333003333
310
33006633330099333300CC333300FF33330000663300336633006666330099663300CC663300FF66330000993300339933006699330099993300CC993300FF99330000CC330033CC330066CC330099CC3300CCCC3300FFCC330000FF330033FF330066FF330099FF3300CCFF3300FFFF330000006600330066006600660099
310
006600CC006600FF00660000336600333366006633660099336600CC336600FF33660000666600336666006666660099666600CC666600FF66660000996600339966006699660099996600CC996600FF99660000CC660033CC660066CC660099CC6600CCCC6600FFCC660000FF660033FF660066FF660099FF6600CCFF6600
310
FFFF660000009900330099006600990099009900CC009900FF00990000339900333399006633990099339900CC339900FF33990000669900336699006666990099669900CC669900FF66990000999900339999006699990099999900CC999900FF99990000CC990033CC990066CC990099CC9900CCCC9900FFCC990000FF99
310
0033FF990066FF990099FF9900CCFF9900FFFF99000000CC003300CC006600CC009900CC00CC00CC00FF00CC000033CC003333CC006633CC009933CC00CC33CC00FF33CC000066CC003366CC006666CC009966CC00CC66CC00FF66CC000099CC003399CC006699CC009999CC00CC99CC00FF99CC0000CCCC0033CCCC0066CC
310
CC0099CCCC00CCCCCC00FFCCCC0000FFCC0033FFCC0066FFCC0099FFCC00CCFFCC00FFFFCC000000FF003300FF006600FF009900FF00CC00FF00FF00FF000033FF003333FF006633FF009933FF00CC33FF00FF33FF000066FF003366FF006666FF009966FF00CC66FF00FF66FF000099FF003399FF006699FF009999FF00CC
310
99FF00FF99FF0000CCFF0033CCFF0066CCFF0099CCFF00CCCCFF00FFCCFF0000FFFF0033FFFF0066FFFF0099FFFF00CCFFFF00FFFFFF00000000000D0D0D001A1A1A00282828003535350043434300505050005D5D5D006B6B6B00787878008686860093939300A1A1A100AEAEAE00BBBBBB00C9C9C900D6D6D600E4E4E400
310
F1F1F100FFFFFF0000000000000000000000000000000000000000000000000000000000000000000000000000000000E2E2E2E2E2E2E2E2E2E2E2E2E2E2E2E2E2E2E2E2E2E2E2E2E2E2E2E2E2E2E2E2E2E2E2E2E2E2E2E2E2E2E2E2E2E2E2E2E2E2E2E2E2E2E2E2E2E2E2E2E2E2E2E2E2E2E2E2E2E2E2E2E2E2E2E2E2E2E2
310
E2E2E2E2E2E2E2E2E2E2E2E2E2E2E2E2E2E2E2E2E2E2E2E2E2E2E2E2E2E2E2E2E2E2E2E2E2E2E2E2E2E2E2E2E2E2E2E2E2E2E2E2E2E2E2E2E2E2E2E2E2E2E2E2E2E2E2E2E2E2E2E2E2E2E2E2E2E2E2E2E2E2E2E2E2E2E2E2E2E2E2E2E2E2E2E2E2E2E2E2EFF5F5F5F5F5F5F5F5F5F5F5F5F5F5F5F5F5F5F5F5F5F5F5F5F5F5
310
F5F5F5F5F5F5F5F5F5F5F5F5F5F5F5F5F5F5F5F5F5F5F5F5F5F5F5F5F5F5F5F5F5F5F5F5F5F5F5F5F5F5F5F5F5F5F5F5F5F5F5F5F5F5F5F5F5F5F5F5F5F5F5F5F5F5F5F5F5F5F5F5F5F5F5F5F5F5F5F5F5F5F5F5F5F5F5F5F5F5F5F5F5F5F5F5F5F5F5F5F5F5F5F5F5F5F5F5F5F5F5F5F5F5F5F5F5F5F5F5F5F5F5F5F5F5F5
310
F5F5F5F5F5F5F5F5F5F5F5F5F5F5F5F5F5F5F5F5F5F5F5F5E2E2EFF5F5F5F5F5F5F5F5F5F5F5F5F5F5F5F5F5F5F5F5F5F5F5F5F5F5F5F5F5F5F5F5F5F5F5F5F5F5F5F5F5F5F5F5F5F5F5F5F5F5F5F5F5F5F5F5F5F5F5F5F5F5F5F5F5F5F5F5F5F5F5F5F5F5F5F5F5F5F5F5F5F5F5F5F5F5F5F5F5F5F5F5F5F5F5F5F5F5F5F5
310
F5F5F5F5F5F5F5F5F5F5F5F5F5F5F5F5F5F5F5F5F5F5F5F5F5F5F5F5F5F5F5F5F5F5F5F5F5F5F5F5F5F5F5F5F5F5F5F5F5F5F5F5F5F5F5F5F5F5F5F5F5F5F5F5F5F5F5F5F5F5F5F5F5F5F5F5F5E2E2EFF5F5F5F5F5F5F5F5F5F5F5F5F5F5F5F5F5F5F5F5F5F5F5F5F5F5F5F5F5F5F5F5F5F5F5F5F5F5F5F5F5F5F5F5F5F5F5
310
F5F5F5F5F5F5F5F5F5F5F5F5F5F5F5F5F5F5F5F5F5F5F5F5F5F5F5F5F5F5F5F5F5F5F5F5F5F5F5F5F5F5F5F5F5F5F5F5F5F5F5F5F5F5F5F5F5F5F5F5F5F5F5F5F5F5F5F5F5F5F5F5F5F5F5F5F5F5F5F5F5F5F5F5F5F5F5F5F5F5F5F5F5F5F5F5F5F5F5F5F5F5F5F5F5F5F5F5F5F5F5F5F5F5F5F5F5F5F5F5F5F5F5F5F5F5F5
310
F5F5F5E2E2EFF5F5F5E2E2E2E2E2E2E2E2F5F5F5F5F5F5F5F5F5E2E2E2E2E2E2E2E2E2E2E2E2E2E2E2E2F5F5F5F5F5F5F5F5E2E2E2E2E2E2E2E2E2E2E2E2E2E2E2E2F5F5F5F5F5F5F5F5F5E2E2E2E2E2E2E2E2E2E2E2E2E2E2E2F5F5F5F5F5F5F5F5F5E2E2E2E2E2E2E2E2E2E2E2E2E2E2E2F5F5F5F5F5F5F5F5F5E2E2E2E2
310
E2E2E2E2E2E2E2E2E2E2E2E2F5F5F5F5F5F5F5F5E2E2E2E2E2E2E2E2E2E2E2E2E2E2E2E2F5F5F5F5F5F5F5F5F5E2E2E2E2E2E2E2E2F5F5F5E2E2EFF5F5F5E2F5F5F5F5F5F5F5F5F5F5F5F5F5F5F5F5F5F5F5F5F5F5F5F5F5F5F5F5F5F5F5F5F5F5F5F5F5F5F5F5F5F5F5F5F5F5F5F5F5F5F5F5F5F5F5F5F5F5F5F5F5F5F5F5
310
F5F5F5F5F5F5F5F5F5F5F5F5F5F5F5F5F5F5F5F5F5F5F5F5F5F5F5F5F5F5F5F5F5F5F5F5F5F5F5F5F5F5F5F5F5F5F5F5F5F5F5F5F5F5F5F5F5F5F5F5F5F5F5F5F5F5F5F5F5F5F5F5F5F5F5F5F5F5F5F5F5F5F5F5F5F5F5F5F5F5F5F5F5F5F5F5F5F5F5F5F5F5F5F5F5E2F5F5F5E2E2EFF5F5F5E2F5F5F5F5F5F5F5F5F5F5F5
310
F5F5F5F5F5F5F5F5F5F5F5F5F5F5F5F5F5F5F5F5F5F5F5F5F5F5F5F5F5F5F5F5F5F5F5F5F5F5F5F5F5F5F5F5F5F5F5F5F5F5F5F5F5F5F5F5F5F5F5F5F5F5F5F5F5F5F5F5F5F5F5F5F5F5F5F5F5F5F5F5F5F5F5F5F5F5F5F5F5F5F5F5F5F5F5F5F5F5F5F5F5F5F5F5F5F5F5F5F5F5F5F5F5F5F5F5F5F5F5F5F5F5F5F5F5F5F5
310
F5F5F5F5F5F5F5F5F5F5F5F5F5F5F5F5F5F5F5F5F5F5F5F5F5F5F5F5F5F5F5E2F5F5F5E2E2EFF5F5F5E2F5F5F5F5F5F5F5F5F5F5F5F5F5F5F5F5F5F5F5F5F5F5F5F5F5F5F5F5F5F5F5F5F5F5F5F5F5F5F5F5F5F5F5F5F5F5F5F5F5F5F5F5F5F5F5F5F5F5F5F5F5F5F5F5F5F5F5F5F5F5F5F5F5F5F5F5F5F5F5F5F5F5F5F5F5
310
F5F5F5F5F5F5F5F5F5F5F5F5F5F5F5F5F5F5F5F5F5F5F5F5F5F5F5F5F5F5F5F5F5F5F5F5F5F5F5F5F5F5F5F5F5F5F5F5F5F5F5F5F5F5F5F5F5F5F5F5F5F5F5F5F5F5F5F5F5F5F5F5F5F5F5F5F5F5F5F5F5F5F5F5E2F5F5F5E2E2EFF5F5F5E2F5F5F5F5F5F5F5F5F5F5F5F5F5F5F5F5F5F5F5F5F5F5F5F5F5F5F5F5F5F5F5F5
310
F5F5F5F5F5F5F5F5F5F5F5F5F5F5F5F5F5F5F5F5F5F5F5F5F5F5F5F5F5F5F5F5F5F5F5F5F5F5F5F5F5F5F5F5F5F5F5F5F5F5F5F5F5F5F5F5F5F5F5F5F5F5F5F5F5F5F5F5F5F5F5F5F5F5F5F5F5F5F5F5F5F5F5F5F5F5F5F5F5F5F5F5F5F5F5F5F5F5F5F5F5F5F5F5F5F5F5F5F5F5F5F5F5F5F5F5F5F5F5F5F5F5F5F5F5F5F5
310
F5F5F5F5F5F5F5F5F5F5E2F5F5F5E2E2EFF5F5F5E2F5F5F5F5F5F5F5F5F5F5F5F5F5F5F5F5F5F5F5F5F5F5F5F5F5F5F5F5F5F5F5F5F5F5F5F5F5F5F5F5F5F5F5F5F5F5F5F5F5F5F5F5F5F5F5F5F5F5F5F5F5F5F5F5F5F5F5F5F5F5F5F5F5F5F5F5F5F5F5F5F5F5F5F5F5F5F5F5F5F5F5F5F5F5F5F5F5F5F5F5F5F5F5F5F5F5
310
F5F5F5F5F5F5F5F5F5F5F5F5F5F5F5F5F5F5F5F5F5F5F5F5F5F5F5F5F5F5F5F5F5F5F5F5F5F5F5F5F5F5F5F5F5F5F5F5F5F5F5F5F5F5F5F5F5F5F5F5F5F5F5E2F5F5F5E2E2EFF5F5F5E2F5F5F5F5F5F5F5F5F5F5F5F5F5F5F5F5F5F5F5F5F5F5F5F5F5F5F5F5F5F5F5F5F5F5F5F5F5F5F5F5F5F5F5F5F5F5F5F5F5F5F5F5F5
310
F5F5F5F5F5F5F5F5F5F5F5F5F5F5F5F5F5F5F5F5F5F5F5F5F5F5F5F5F5F5F5F5F5F5F5F5F5F5F5F5F5F5F5F5F5F5F5F5F5F5F5F5F5F5F5F5F5F5F5F5F5F5F5F5F5F5F5F5F5F5F5F5F5F5F5F5F5F5F5F5F5F5F5F5F5F5F5F5F5F5F5F5F5F5F5F5F5F5F5F5F5F5F5F5F5F5F5F5F5F5F5F5F5F5F5F5E2F5F5F5E2E2EFF5F5F5E2
310
F5F5F5F5F5F5F5F5F5F5F5F5F5F5F5F5F5F5F5F5F5F5F5F5F5F5F5F5F5F5F5F5F5F5F5F5F5F5F5F5F5F5F5F5F5F5F5F5F5F5F5F5F5F5F5F5F5F5F5F5F5F5F5F5F5F5F5F5F5F5F5F5F5F5F5F5F5F5F5F5F5F5F5F5F5F5F5F5F5F5F5F5F5F5F5F5F5F5F5F5F5F5F5F5F5F5F5F5F5F5F5F5F5F5F5F5F5F5F5F5F5F5F5F5F5F5F5
310
F5F5F5F5F5F5F5F5F5F5F5F5F5F5F5F5F5F5F5F5F5F5F5F5F5F5F5F5F5F5F5F5F5F5F5F5F5F5F5F5F5F5E2F5F5F5E2E2EFF5F5F5E2F5F5F5F5F5F5F5F5F5F5F5F5F5F5F5F5F5F5F5F5F5F5F5F5F5F5F5F5F5F5F5F5F5F5F5F5F5F5F5F5F5F5F5F5F5F5F5F5F5F5F5F5F5F5F5F5F5F5F5F5F5F5F5F5F5F5F5F5F5F5F5F5F5F5
310
F5F5F5F5F5F5F5F5F5F5F5F5F5F5F5F5F5F5F5F5F5F5F5F5F5F5F5F5F5F5F5F5F5F5F5F5F5F5F5F5F5F5F5F5F5F5F5F5F5F5F5F5F5F5F5F5F5F5F5F5F5F5F5F5F5F5F5F5F5F5F5F5F5F5F5F5F5F5F5F5F5F5F5F5F5F5F5F5F5F5F5F5F5F5F5E2F5F5F5E2E2EFF5F5F5F5F5F5F5F5F5F5F5F5F5F5F5F5F5F5F5F5F5F5F5F5F5
310
F5F5F5F5F5F5F5F5F5F5F5F5F5F5F5F5F5F5F5F5F5F5F5F5F5F5F5F5F5F5F5F5F5F5F5F5F5F5F5F5F5F5F5F5F5F5F5F5F5F5F5F5F5F5F5F5F5F5F5F5F5F5F5F5F5F5F5F5F5F5F5F5F5F5F5F5F5F5F5F5F5F5F5F5F5F5F5F5F5F5F5F5F5F5F5F5F5F5F5F5F5F5F5F5F5F5F5F5F5F5F5F5F5F5F5F5F5F5F5F5F5F5F5F5F5F5F5
310
F5F5F5F5F5F5F5F5F5F5F5F5F5F5F5F5F5F5F5F5F5F5F5F5F5E2E2EFF5F5F5F5F5F5F5F5F5F5F5F5F5F5F5F5F5F5F5F5F5F5F5F5F5F5F5F5F5F5F5F5F5F5F5F5F5F5F5F5F5F5F5F5F5F5F5F5F5F5F5F5F5F5F5F5F5F5F5F5F5F5F5F5F5F5F5F5F5F5F5F5F5F5F5F5F5F5F5F5F5F5F5F5F5F5F5F5F5F5F5F5F5F5F5F5F5F5F5
310
F5F5F5F5F5F5F5F5F5F5F5F5F5F5F5F5F5F5F5F5F5F5F5F5F5F5F5F5F5F5F5F5F5F5F5F5F5F5F5F5F5F5F5F5F5F5F5F5F5F5F5F5F5F5F5F5F5F5F5F5F5F5F5F5F5F5F5F5F5F5F5F5F5F5F5F5F5F5E2E2EFF5F5F5F5F5F5F5F5F5F5F5F5F5F5F5F5F5F5F5F5F5F5F5F5F5F5F5F5F5F5F5F5F5F5F5F5F5F5F5F5F5F5F5F5F5F5
310
F5F5F5F5F5F5F5F5F5F5F5F5F5F5F5F5F5F5F5F5F5F5F5F5F5F5F5F5F5F5F5F5F5F5F5F5F5F5F5F5F5F5F5F5F5F5F5F5F5F5F5F5F5F5F5F5F5F5F5F5F5F5F5F5F5F5F5F5F5F5F5F5F5F5F5F5F5F5F5F5F5F5F5F5F5F5F5F5F5F5F5F5F5F5F5F5F5F5F5F5F5F5F5F5F5F5F5F5F5F5F5F5F5F5F5F5F5F5F5F5F5F5F5F5F5F5F5
310
F5F5F5F5E2E2EFF5F5F5F5F5F5F5F5F5F5F5F5F5F5F5F5F5F5F5F5F5F5F5F5F5F5F5F5F5F5F5F5F5F5F5F5F5F5F5F5F5F5F5F5F5F5F5F5F5F5F5F5F5F5F5F5F5F5F5F5F5F5F5F5F5F5F5F5F5F5F5F5F5F5F5F5F5F5F5F5F5F5F5F5F5F5F5F5F5F5F5F5F5F5F5F5F5F5F5F5F5F5F5F5F5F5F5F5F5F5F5F5F5F5F5F5F5F5F5F5
310
F5F5F5F5F5F5F5F5F5F5F5F5F5F5F5F5F5F5F5F5F5F5F5F5F5F5F5F5F5F5F5F5F5F5F5F5F5F5F5F5F5F5F5F5F5F5F5F5F5F5F5F5F5F5F5F5F5E2E2EFF5F5F5F5F5F5F5F5F5F5F5F5F5F5F5F5F5F5F5F5E2E2E2E2E2E2E2E2E2E2E2E2E2E2E2E2E2E2E2E2E2E2E2E2E2E2E2E2E2E2E2E2E2E2E2E2E2E2E2E2E2E2E2E2E2E2E2
310
E2E2E2E2E2E2E2E2E2E2E2E2E2E2E2E2E2E2E2E2E2E2E2E2E2E2E2E2E2E2E2E2E2E2E2E2E2E2E2E2E2E2E2E2E2E2E2E2E2E2E2E2E2E2E2E2E2E2E2E2E2E2E2E2E2E2E2E2E2E2E2E2E2E2E2E2E2E2E2E2E2E2E2E2E2E2E2E2E2E2F5F5F5F5F5F5F5F5F5F5F5F5F5F5F5F5F5F5F5F5E2E2EFF5F5F5F5F5F5F5F5F5F5F5F5F5F5
310
F5F5F5F5F5F5E2F5F5F5F5F5F5F5F5F5F5F5F5F5F5F5F5F5F5F5F5F5F5F5F5F5F5F5F5F5F5F5F5F5F5F5F5F5F5F5F5F5F5F5F5F5F5F5F5F5F5F5F5F5F5F5F5F5F5F5F5F5F5F5F5F5F5F5F5F5F5F5F5F5F5F5F5F5F5F5F5F5F5F5F5F5F5F5F5F5F5F5F5F5F5F5F5F5F5F5F5F5F5F5F5F5F5F5F5F5F5F5F5F5F5F5F5F5F5F5F5
310
F5F5F5F5F5F5F5F5F5F5F5F5F5F5F5E2F5F5F5F5F5F5F5F5F5F5F5F5F5F5F5F5F5F5F5F5E2E2EFF5F5F5F5F5F5F5F5F5F5F5F5F5F5F5F5F5F5F5F5E2F5F5F5F5F5F5F5F5F5F5F5F5F5F5F5F5F5F5F5F5F5F5F5F5F5F5F5F5F5F5F5F5F5F5F5F5F5F5F5F5F5F5F5F5F5F5F5F5F5F5F5F5F5F5F5F5F5F5F5F5F5F5F5F5F5F5F5
310
F5F5F5F5F5F5F5F5F5F5F5F5F5F5F5F5F5F5F5F5F5F5F5F5F5F5F5F5F5F5F5F5F5F5F5F5F5F5F5F5F5F5F5F5F5F5F5F5F5F5F5F5F5F5F5F5F5F5F5F5F5F5F5F5F5F5F5F5E2F5F5F5F5F5F5F5F5F5F5F5F5F5F5F5F5F5F5F5F5E2E2EFF5F5F5F5F5F5F5F5F5F5F5F5F5F5F5F5F5F5F5F5E2F5F5F5F5F5F5F5F5F5F5F5F5F5F5
310
F5F5F5F5F5F5F5F5F5F5F5F5F5F5F5F5F5F5F5F5F5F5F5F5F5F5F5F5F5F5F5F5F5F5F5F5F5F5F5F5F5F5F5F5F5F5F5F5F5F5F5F5F5F5F5F5F5F5F5F5F5F5F5F5F5F5F5F5F5F5F5F5F5F5F5F5F5F5F5F5F5F5F5F5F5F5F5F5F5F5F5F5F5F5F5F5F5F5F5F5F5F5F5F5F5F5F5F5F5F5F5F5F5F5F5F5F5F5F5F5F5E2F5F5F5F5F5
310
F5F5F5F5F5F5F5F5F5F5F5F5F5F5F5E2E2EFF5F5F5F5F5F5F5F5F5F5F5F5F5F5F5F5F5F5F5F5E2F5F5F5F5F5F5F5F5F5F5F5F5F5F5F5F5F5F5F5F5F5F5F5F5F5F5F5F5F5F5F5F5F5F5F5F5F5F5F5F5F5F5F5F5F5F5F5F5F5F5F5F5F5F5F5F5F5F5F5F5F5F5F5F5F5F5F5F5F5F5F5F5F5F5F5F5F5F5F5F5F5F5F5F5F5F5F5F5
310
F5F5F5F5F5F5F5F5F5F5F5F5F5F5F5F5F5F5F5F5F5F5F5F5F5F5F5F5F5F5F5F5F5F5F5F5F5F5F5F5F5F5F5F5F5F5F5E2F5F5F5F5F5F5F5F5F5F5F5F5F5F5F5F5F5F5F5F5E2E2EFF5F5F5E2F5F5F5F5F5F5F5F5F5F5F5F5F5F5F5F5E2F5F5F5F5F5F5F5F5F5F5F5F5F5F5F5F5F5F5F5F5F5F5F5F5F5F5F5F5F5F5F5F5F5F5F5
310
F5F5F5F5F5F5F5F5F5F5F5F5F5F5F5F5F5F5F5F5F5F5F5F5F5F5F5F5F5F5F5F5F5F5F5F5F5F5F5F5F5F5F5F5F5F5F5F5F5F5F5F5F5F5F5F5F5F5F5F5F5F5F5F5F5F5F5F5F5F5F5F5F5F5F5F5F5F5F5F5F5F5F5F5F5F5F5F5F5F5F5F5F5F5F5F5F5F5F5F5E2F5F5F5F5F5F5F5F5F5F5F5F5F5F5F5F5E2F5F5F5E2E2EFF5F5F5
310
E2F5F5F5F5F5F5F5F5F5F5F5F5F5F5F5F5E2F5F5F5F5F5F5F5F5F5F5F5F5F5F5F5F5F5F5F5F5F5F5F5F5F5F5F5F5F5F5F5F5F5F5F5F5F5F5F5F5F5F5F5F5F5F5F5F5F5F5F5F5F5F5F5F5F5F5F5F5F5F5F5F5F5F5F5F5F5F5F5F5F5F5F5F5F5F5F5F5F5F5F5F5F5F5F5F5F5F5F5F5F5F5F5F5F5F5F5F5F5F5F5F5F5F5F5F5F5
310
F5F5F5F5F5F5F5F5F5F5F5F5F5F5F5F5F5F5F5F5F5F5F5F5F5F5E2F5F5F5F5F5F5F5F5F5F5F5F5F5F5F5F5E2F5F5F5E2E2EFF5F5F5E2F5F5F5F5F5F5F5F5F5F5F5F5F5F5F5F5E2F5F5F5F5F5F5F5F5F5F5F5F5F5F5F5F5F5F5F5F5F5F5F5F5F5F5F5F5F5F5F5F5F5F5F5F5F5F5F5F5F5F5F5F5F5F5F5F5F5F5F5F5F5F5F5F5
310
F5F5F5F5F5F5F5F5F5F5F5F5F5F5F5F5F5F5F5F5F5F5F5F5F5F5F5F5F5F5F5F5F5F5F5F5F5F5F5F5F5F5F5F5F5F5F5F5F5F5F5F5F5F5F5F5F5F5F5F5F5F5F5F5F5F5F5F5F5F5F5F5F5F5F5F5F5F5F5E2F5F5F5F5F5F5F5F5F5F5F5F5F5F5F5F5E2F5F5F5E2E2EFF5F5F5E2F5F5F5F5F5F5F5F5F5F5F5F5F5F5F5F5E2F5F5F5
310
F5F5F5F5F5F5F5F5F5F5F5F5F5F5F5F5F5F5F5F5F5F5F5F5F5F5F5F5F5F5F5F5F5F5F5F5F5F5F5F5F5F5F5F5F5F5F5F5F5F5F5F5F5F5F5F5F5F5F5F5F5F5F5F5F5F5F5F5F5F5F5F5F5F5F5F5F5F5F5F5F5F5F5F5F5F5F5F5F5F5F5F5F5F5F5F5F5F5F5F5F5F5F5F5F5F5F5F5F5F5F5F5F5F5F5F5F5F5F5F5F5F5F5F5F5F5F5
310
F5F5F5F5F5E2F5F5F5F5F5F5F5F5F5F5F5F5F5F5F5F5E2F5F5F5E2E2EFF5F5F5E2F5F5F5F5F5F5F5F5F5F5F5F5F5F5F5F5E2F5F5F5F5F5F5F5F5F5F5F5F5F5F5F5F5F5F5F5F5F5F5F5F5F5F5F5F5F5F5F5F5F5F5F5F5F5F5F5F5F5F5F5F5F5F5F5F5F5F5F5F5F5F5F5F5F5F5F5F5F5F5F5F5F5F5F5F5F5F5F5F5F5F5F5F5F5
310
F5F5F5F5F5F5F5F5F5F5F5F5F5F5F5F5F5F5F5F5F5F5F5F5F5F5F5F5F5F5F5F5F5F5F5F5F5F5F5F5F5F5F5F5F5F5F5F5F5F5F5F5F5F5F5F5F5F5E2F5F5F5F5F5F5F5F5F5F5F5F5F5F5F5F5E2F5F5F5E2E2EFF5F5F5E2F5F5F5F5F5F5F5F5F5F5F5F5F5F5F5F5E2F5F5F5F5F5F5F5F5F5F5F5F5F5F5F5F5F5F5F5F5F5F5F5F5
310
F5F5F5F5F5F5F5F5F5F5F5F5F5F5F5F5F5F5F5F5F5F5F5F5F5F5F5F5F5F5F5F5F5F5F5F5F5F5F5F5F5F5F5F5F5F5F5F5F5F5F5F5F5F5F5F5F5F5F5F5F5F5F5F5F5F5F5F5F5F5F5F5F5F5F5F5F5F5F5F5F5F5F5F5F5F5F5F5F5F5F5F5F5F5F5F5F5F5F5F5F5F5F5F5F5F5F5F5F5F5F5E2F5F5F5F5F5F5F5F5F5F5F5F5F5F5F5
310
F5E2F5F5F5E2E2EFF5F5F5E2F5F5F5F5F5F5F5F5F5F5F5F5F5F5F5F5E2F5F5F5F5F5F5F5F5F5F5F5F5F5F5F5F5F5F5F5F5F5F5F5F5F5F5F5F5F5F5F5F5F5F5F5F5F5F5F5F5F5F5F5F5F5F5F5F5F5F5F5F5F5F5F5F5F5F5F5F5F5F5F5F5F5F5F5F5F5F5F5F5F5F5F5F5F5F5F5F5F5F5F5F5F5F5F5F5F5F5F5F5F5F5F5F5F5F5
310
F5F5F5F5F5F5F5F5F5F5F5F5F5F5F5F5F5F5F5F5F5F5F5F5F5F5F5F5F5F5F5F5F5F5F5F5F5E2F5F5F5F5F5F5F5F5F5F5F5F5F5F5F5F5E2F5F5F5E2E2EFF5F5F5E2F5F5F5F5F5F5F5F5F5F5F5F5F5F5F5F5E2F5F5F5F5F5F5F5F5F5F5F5F5F5F5F5F5F5F5F5F5F5F5F5F5F5F5F5F5F5F5F5F5F5F5F5F5F5F5F5F5F5F5F5F5F5
310
F5F5F5F5F5F5F5F5F5F5F5F5F5F5F5F5F5F5F5F5F5F5F5F5F5F5F5F5F5F5F5F5F5F5F5F5F5F5F5F5F5F5F5F5F5F5F5F5F5F5F5F5F5F5F5F5F5F5F5F5F5F5F5F5F5F5F5F5F5F5F5F5F5F5F5F5F5F5F5F5F5F5F5F5F5F5F5F5F5F5E2F5F5F5F5F5F5F5F5F5F5F5F5F5F5F5F5E2F5F5F5E2E2EFF5F5F5E2F5F5F5F5F5F5F5F5F5
310
F5F5F5F5F5F5F5E2F5F5F5F5F5F5F5F5F5F5F5F5F5F5F5F5F5F5F5F5F5F5F5F5F5F5F5F5F5F5F5F5F5F5F5F5F5F5F5F5F5F5F5F5F5F5F5F5F5F5F5F5F5F5F5F5F5F5F5F5F5F5F5F5F5F5F5F5F5F5F5F5F5F5F5F5F5F5F5F5F5F5F5F5F5F5F5F5F5F5F5F5F5F5F5F5F5F5F5F5F5F5F5F5F5F5F5F5F5F5F5F5F5F5F5F5F5F5F5
310
F5F5F5F5F5F5F5F5F5F5F5F5F5F5F5F5E2F5F5F5F5F5F5F5F5F5F5F5F5F5F5F5F5E2F5F5F5E2E2EFF5F5F5E2F5F5F5F5F5F5F5F5F5F5F5F5F5F5F5F5E2F5F5F5F5F5F5F5F5F5F5F5F5F5F5F5F5F5F5F5F5F5F5F5F5F5F5F5F5F5F5F5F5F5F5F5F5F5F5F5F5F5F5F5F5F5F5F5F5F5F5F5F5F5F5F5F5F5F5F5F5F5F5F5F5F5F5
310
F5F5F5F5F5F5F5F5F5F5F5F5F5F5F5F5F5F5F5F5F5F5F5F5F5F5F5F5F5F5F5F5F5F5F5F5F5F5F5F5F5F5F5F5F5F5F5F5F5F5F5F5F5F5F5F5F5F5F5F5F5F5F5F5F5F5F5F5F5E2F5F5F5F5F5F5F5F5F5F5F5F5F5F5F5F5E2F5F5F5E2E2EFF5F5F5E2F5F5F5F5F5F5F5F5F5F5F5F5F5F5F5F5E2F5F5F5F5F5F5F5F5F5F5F5F5F5
310
F5F5F5F5F5F5F5F5F5F5F5F5F5F5F5F5F5F5F5F5F5F5F5F5F5F5F5F5F5F5F5F5F5F5F5F5F5F5F5F5F5F5F5F5F5F5F5F5F5F5F5F5F5F5F5F5F5F5F5F5F5F5F5F5F5F5F5F5F5F5F5F5F5F5F5F5F5F5F5F5F5F5F5F5F5F5F5F5F5F5F5F5F5F5F5F5F5F5F5F5F5F5F5F5F5F5F5F5F5F5F5F5F5F5F5F5F5F5F5F5F5F5E2F5F5F5F5
310
F5F5F5F5F5F5F5F5F5F5F5F5E2F5F5F5E2E2EFF5F5F5E2F5F5F5F5F5F5F5F5F5F5F5F5F5F5F5F5E2F5F5F5F5F5F5F5F5F5F5F5F5F5F5F5F5F5F5F5F5F5F5F5F5F5F5F5F5F5F5F5F5F5F5F5F5F5F5F5F5F5F5F5F5F5F5F5F5F5F5F5F5F5F5F5F5F5F5F5F5F5F5F5F5F5F5F5F5F5F5F5F5F5F5F5F5F5F5F5F5F5F5F5F5F5F5F5
310
F5F5F5F5F5F5F5F5F5F5F5F5F5F5F5F5F5F5F5F5F5F5F5F5F5F5F5F5F5F5F5F5F5F5F5F5F5F5F5F5F5F5F5F5F5F5F5F5E2F5F5F5F5F5F5F5F5F5F5F5F5F5F5F5F5E2F5F5F5E2E2EFF5F5F5E2F5F5F5F5F5F5F5F5F5F5F5F5F5F5F5F5E2F5F5F5F5F5F5F5F5F5F5F5F5F5F5F5F5F5F5F5F5F5F5F5F5F5F5F5F5F5F5F5F5F5F5
310
F5F5F5F5F5F5F5F5F5F5F5F5F5F5F5F5F5F5F5F5F5F5F5F5F5F5F5F5F5F5F5F5F5F5F5F5F5F5F5F5F5F5F5F5F5F5F5F5F5F5F5F5F5F5F5F5F5F5F5F5F5F5F5F5F5F5F5F5F5F5F5F5F5F5F5F5F5F5F5F5F5F5F5F5F5F5F5F5F5F5F5F5F5F5F5F5F5F5F5F5F5E2F5F5F5F5F5F5F5F5F5F5F5F5F5F5F5F5E2F5F5F5E2E2EFF5F5
310
F5E2F5F5F5F5F5F5F5F5F5F5F5F5F5F5F5F5E2F5F5F5F5F5F5F5F5F5F5F5F5F5F5F5F5F5F5F5F5F5F5F5F5F5F5F5F5F5F5F5F5F5F5F5F5F5F5F5F5F5F5F5F5F5F5F5F5F5F5F5F5F5F5F5F5F5F5F5F5F5F5F5F5F5F5F5F5F5F5F5F5F5F5F5F5F5F5F5F5F5F5F5F5F5F5F5F5F5F5F5F5F5F5F5F5F5F5F5F5F5F5F5F5F5F5F5F5
310
F5F5F5F5F5F5F5F5F5F5F5F5F5F5F5F5F5F5F5F5F5F5F5F5F5F5F5E2F5F5F5F5F5F5F5F5F5F5F5F5F5F5F5F5E2F5F5F5E2E2EFF5F5F5E2F5F5F5F5F5F5F5F5F5F5F5F5F5F5F5F5E2F5F5F5F5F5F5F5F5F5F5F5F5F5F5F5F5F5F5F5F5F5F5F5F5F5F5F5F5F5F5F5F5F5F5F5F5F5F5F5F5F5F5F5F5F5F5F5F5F5F5F5F5F5F5F5
310
F5F5F5F5F5F5F5F5F5F5F5F5F5F5F5F5F5F5F5F5F5F5F5F5F5F5F5F5F5F5F5F5F5F5F5F5F5F5F5F5F5F5F5F5F5F5F5F5F5F5F5F5F5F5F5F5F5F5F5F5F5F5F5F5F5F5F5F5F5F5F5F5F5F5F5F5F5F5F5F5E2F5F5F5F5F5F5F5F5F5F5F5F5F5F5F5F5E2F5F5F5E2E2EFF5F5F5E2F5F5F5F5F5F5F5F5F5F5F5F5F5F5F5F5E2F5F5
310
F5F5F5F5F5F5F5F5F5F5F5F5F5F5F5F5F5F5F5F5F5F5F5F5F5F5F5F5F5F5F5F5F5F5F5F5F5F5F5F5F5F5F5F5F5F5F5F5F5F5F5F5F5F5F5F5F5F5F5F5F5F5F5F5F5F5F5F5F5F5F5F5F5F5F5F5F5F5F5F5F5F5F5F5F5F5F5F5F5F5F5F5F5F5F5F5F5F5F5F5F5F5F5F5F5F5F5F5F5F5F5F5F5F5F5F5F5F5F5F5F5F5F5F5F5F5F5
310
F5F5F5F5F5F5E2F5F5F5F5F5F5F5F5F5F5F5F5F5F5F5F5E2F5F5F5E2E2EFF5F5F5E2F5F5F5F5F5F5F5F5F5F5F5F5F5F5F5F5E2F5F5F5F5F5F5F5F5F5F5F5F5F5F5F5F5F5F5F5F5F5F5F5F5F5F5F5F5F5F5F5F5F5F5F5F5F5F5F5F5F5F5F5F5F5F5F5F5F5F5F5F5F5F5F5F5F5F5F5F5F5F5F5F5F5F5F5F5F5F5F5F5F5F5F5F5
310
F5F5F5F5F5F5F5F5F5F5F5F5F5F5F5F5F5F5F5F5F5F5F5F5F5F5F5F5F5F5F5F5F5F5F5F5F5F5F5F5F5F5F5F5F5F5F5F5F5F5F5F5F5F5F5F5F5F5F5E2F5F5F5F5F5F5F5F5F5F5F5F5F5F5F5F5E2F5F5F5E2E2EFF5F5F5F5F5F5F5F5F5F5F5F5F5F5F5F5F5F5F5F5E2F5F5F5F5F5F5F5F5F5F5F5F5F5F5F5F5F5F5F5F5F5F5F5
310
F5F5F5F5F5F5F5F5F5F5F5F5F5F5F5F5F5F5F5F5F5F5F5F5F5F5F5F5F5F5F5F5F5F5F5F5F5F5F5F5F5F5F5F5F5F5F5F5F5F5F5F5F5F5F5F5F5F5F5F5F5F5F5F5F5F5F5F5F5F5F5F5F5F5F5F5F5F5F5F5F5F5F5F5F5F5F5F5F5F5F5F5F5F5F5F5F5F5F5F5F5F5F5F5F5F5F5F5F5F5F5F5E2F5F5F5F5F5F5F5F5F5F5F5F5F5F5
310
F5F5F5F5F5F5E2E2EFF5F5F5F5F5F5F5F5F5F5F5F5F5F5F5F5F5F5F5F5E2F5F5F5F5F5F5F5F5F5F5F5F5F5F5F5F5F5F5F5F5F5F5F5F5F5F5F5F5F5F5F5F5F5F5F5F5F5F5F5F5F5F5F5F5F5F5F5F5F5F5F5F5F5F5F5F5F5F5F5F5F5F5F5F5F5F5F5F5F5F5F5F5F5F5F5F5F5F5F5F5F5F5F5F5F5F5F5F5F5F5F5F5F5F5F5F5F5
310
F5F5F5F5F5F5F5F5F5F5F5F5F5F5F5F5F5F5F5F5F5F5F5F5F5F5F5F5F5F5F5F5F5F5F5F5F5F5E2F5F5F5F5F5F5F5F5F5F5F5F5F5F5F5F5F5F5F5F5E2E2EFF5F5F5F5F5F5F5F5F5F5F5F5F5F5F5F5F5F5F5F5E2F5F5F5F5F5F5F5F5F5F5F5F5F5F5F5F5F5F5F5F5F5F5F5F5F5F5F5F5F5F5F5F5F5F5F5F5F5F5F5F5F5F5F5F5
310
F5F5F5F5F5F5F5F5F5F5F5F5F5F5F5F5F5F5F5F5F5F5F5F5F5F5F5F5F5F5F5F5F5F5F5F5F5F5F5F5F5F5F5F5F5F5F5F5F5F5F5F5F5F5F5F5F5F5F5F5F5F5F5F5F5F5F5F5F5F5F5F5F5F5F5F5F5F5F5F5F5F5F5F5F5F5F5F5F5F5F5E2F5F5F5F5F5F5F5F5F5F5F5F5F5F5F5F5F5F5F5F5E2E2EFF5F5F5F5F5F5F5F5F5F5F5F5
310
F5F5F5F5F5F5F5F5E2F5F5F5F5F5F5F5F5F5F5F5F5F5F5F5F5F5F5F5F5F5F5F5F5F5F5F5F5F5F5F5F5F5F5F5F5F5F5F5F5F5F5F5F5F5F5F5F5F5F5F5F5F5F5F5F5F5F5F5F5F5F5F5F5F5F5F5F5F5F5F5F5F5F5F5F5F5F5F5F5F5F5F5F5F5F5F5F5F5F5F5F5F5F5F5F5F5F5F5F5F5F5F5F5F5F5F5F5F5F5F5F5F5F5F5F5F5F5
310
F5F5F5F5F5F5F5F5F5F5F5F5F5F5F5F5F5E2F5F5F5F5F5F5F5F5F5F5F5F5F5F5F5F5F5F5F5F5E2E2EFF5F5F5F5F5F5F5F5F5F5F5F5F5F5F5F5F5F5F5F5E2F5F5F5F5F5F5F5F5F5F5F5F5F5F5F5F5F5F5F5F5F5F5F5F5F5F5F5F5F5F5F5F5F5F5F5F5F5F5F5F5F5F5F5F5F5F5F5F5F5F5F5F5F5F5F5F5F5F5F5F5F5F5F5F5F5
310
F5F5F5F5F5F5F5F5F5F5F5F5F5F5F5F5F5F5F5F5F5F5F5F5F5F5F5F5F5F5F5F5F5F5F5F5F5F5F5F5F5F5F5F5F5F5F5F5F5F5F5F5F5F5F5F5F5F5F5F5F5F5F5F5F5F5F5F5F5F5E2F5F5F5F5F5F5F5F5F5F5F5F5F5F5F5F5F5F5F5F5E2E2EFF5F5F5F5F5F5F5F5F5F5F5F5F5F5F5F5F5F5F5F5E2F5F5F5F5F5F5F5F5F5F5F5F5
310
F5F5F5F5F5F5F5F5F5F5F5F5F5F5F5F5F5F5F5F5F5F5F5F5F5F5F5F5F5F5F5F5F5F5F5F5F5F5F5F5F5F5F5F5F5F5F5F5F5F5F5F5F5F5F5F5F5F5F5F5F5F5F5F5F5F5F5F5F5F5F5F5F5F5F5F5F5F5F5F5F5F5F5F5F5F5F5F5F5F5F5F5F5F5F5F5F5F5F5F5F5F5F5F5F5F5F5F5F5F5F5F5F5F5F5F5F5F5F5F5F5F5F5E2F5F5F5
310
F5F5F5F5F5F5F5F5F5F5F5F5F5F5F5F5F5E2E2EFF5F5F5F5F5F5F5F5F5F5F5F5F5F5F5F5F5F5F5F5E2F5F5F5F5F5F5F5F5F5F5F5F5F5F5F5F5F5F5F5F5F5F5F5F5F5F5F5F5F5F5F5F5F5F5F5F5F5F5F5F5F5F5F5F5F5F5F5F5F5F5F5F5F5F5F5F5F5F5F5F5F5F5F5F5F5F5F5F5F5F5F5F5F5F5F5F5F5F5F5F5F5F5F5F5F5F5
310
F5F5F5F5F5F5F5F5F5F5F5F5F5F5F5F5F5F5F5F5F5F5F5F5F5F5F5F5F5F5F5F5F5F5F5F5F5F5F5F5F5F5F5F5F5F5F5F5F5E2F5F5F5F5F5F5F5F5F5F5F5F5F5F5F5F5F5F5F5F5E2E2EFF5F5F5F5F5F5F5F5F5F5F5F5F5F5F5F5F5F5F5F5E2F5F5F5F5F5F5F5F5F5F5F5F5F5F5F5F5F5F5F5F5F5F5F5F5F5F5F5F5F5F5F5F5F5
310
F5F5F5F5F5F5F5F5F5F5F5F5F5F5F5F5F5F5F5F5F5F5F5F5F5F5F5F5F5F5F5F5F5F5F5F5F5F5F5F5F5F5F5F5F5F5F5F5F5F5F5F5F5F5F5F5F5F5F5F5F5F5F5F5F5F5F5F5F5F5F5F5F5F5F5F5F5F5F5F5F5F5F5F5F5F5F5F5F5F5F5F5F5F5F5F5F5F5F5F5F5F5E2F5F5F5F5F5F5F5F5F5F5F5F5F5F5F5F5F5F5F5F5E2E2EFF5
310
F5F5F5F5F5F5F5F5F5F5F5F5F5F5F5F5F5F5F5E2F5F5F5F5F5F5F5F5F5F5F5F5F5F5F5F5F5F5F5F5F5F5F5F5F5F5F5F5F5F5F5F5F5F5F5F5F5F5F5F5F5F5F5F5F5F5F5F5F5F5F5F5F5F5F5F5F5F5F5F5F5F5F5F5F5F5F5F5F5F5F5F5F5F5F5F5F5F5F5F5F5F5F5F5F5F5F5F5F5F5F5F5F5F5F5F5F5F5F5F5F5F5F5F5F5F5F5
310
F5F5F5F5F5F5F5F5F5F5F5F5F5F5F5F5F5F5F5F5F5F5F5F5F5F5F5F5E2F5F5F5F5F5F5F5F5F5F5F5F5F5F5F5F5F5F5F5F5E2E2EFF5F5F5E2F5F5F5F5F5F5F5F5F5F5F5F5F5F5F5F5E2F5F5F5F5F5F5F5F5F5F5F5F5F5F5F5F5F5F5F5F5F5F5F5F5F5F5F5F5F5F5F5F5F5F5F5F5F5F5F5F5F5F5F5F5F5F5F5F5F5F5F5F5F5F5
310
F5F5F5F5F5F5F5F5F5F5F5F5F5F5F5F5F5F5F5F5F5F5F5F5F5F5F5F5F5F5F5F5F5F5F5F5F5F5F5F5F5F5F5F5F5F5F5F5F5F5F5F5F5F5F5F5F5F5F5F5F5F5F5F5F5F5F5F5F5F5F5F5F5F5F5F5F5F5F5F5F5E2F5F5F5F5F5F5F5F5F5F5F5F5F5F5F5F5E2F5F5F5E2E2EFF5F5F5E2F5F5F5F5F5F5F5F5F5F5F5F5F5F5F5F5E2F5
310
F5F5F5F5F5F5F5F5F5F5F5F5F5F5F5F5F5F5F5F5F5F5F5F5F5F5F5F5F5F5F5F5F5F5F5F5F5F5F5F5F5F5F5F5F5F5F5F5F5F5F5F5F5F5F5F5F5F5F5F5F5F5F5F5F5F5F5F5F5F5F5F5F5F5F5F5F5F5F5F5F5F5F5F5F5F5F5F5F5F5F5F5F5F5F5F5F5F5F5F5F5F5F5F5F5F5F5F5F5F5F5F5F5F5F5F5F5F5F5F5F5F5F5F5F5F5F5
310
F5F5F5F5F5F5F5E2F5F5F5F5F5F5F5F5F5F5F5F5F5F5F5F5E2F5F5F5E2E2EFF5F5F5E2F5F5F5F5F5F5F5F5F5F5F5F5F5F5F5F5E2F5F5F5F5F5F5F5F5F5F5F5F5F5F5F5F5F5F5F5F5F5F5F5F5F5F5F5F5F5F5F5F5F5F5F5F5F5F5F5F5F5F5F5F5F5F5F5F5F5F5F5F5F5F5F5F5F5F5F5F5F5F5F5F5F5F5F5F5F5F5F5F5F5F5F5
310
F5F5F5F5F5F5F5F5F5F5F5F5F5F5F5F5F5F5F5F5F5F5F5F5F5F5F5F5F5F5F5F5F5F5F5F5F5F5F5F5F5F5F5F5F5F5F5F5F5F5F5F5F5F5F5F5F5F5F5F5E2F5F5F5F5F5F5F5F5F5F5F5F5F5F5F5F5E2F5F5F5E2E2EFF5F5F5E2F5F5F5F5F5F5F5F5F5F5F5F5F5F5F5F5E2F5F5F5F5F5F5F5F5F5F5F5F5F5F5F5F5F5F5F5F5F5F5
310
F5F5F5F5F5F5F5F5F5F5F5F5F5F5F5F5F5F5F5F5F5F5F5F5F5F5F5F5F5F5F5F5F5F5F5F5F5F5F5F5F5F5F5F5F5F5F5F5F5F5F5F5F5F5F5F5F5F5F5F5F5F5F5F5F5F5F5F5F5F5F5F5F5F5F5F5F5F5F5F5F5F5F5F5F5F5F5F5F5F5F5F5F5F5F5F5F5F5F5F5F5F5F5F5F5F5F5F5F5F5F5F5F5E2F5F5F5F5F5F5F5F5F5F5F5F5F5
310
F5F5F5E2F5F5F5E2E2EFF5F5F5E2F5F5F5F5F5F5F5F5F5F5F5F5F5F5F5F5E2F5F5F5F5F5F5F5F5F5F5F5F5F5F5F5F5F5F5F5F5F5F5F5F5F5F5F5F5F5F5F5F5F5F5F5F5F5F5F5F5F5F5F5F5F5F5F5F5F5F5F5F5F5F5F5F5F5F5F5F5F5F5F5F5F5F5F5F5F5F5F5F5F5F5F5F5F5F5F5F5F5F5F5F5F5F5F5F5F5F5F5F5F5F5F5F5
310
F5F5F5F5F5F5F5F5F5F5F5F5F5F5F5F5F5F5F5F5F5F5F5F5F5F5F5F5F5F5F5F5F5F5F5F5F5F5F5E2F5F5F5F5F5F5F5F5F5F5F5F5F5F5F5F5E2F5F5F5E2E2EFF5F5F5E2F5F5F5F5F5F5F5F5F5F5F5F5F5F5F5F5E2F5F5F5F5F5F5F5F5F5F5F5F5F5F5F5F5F5F5F5F5F5F5F5F5F5F5F5F5F5F5F5F5F5F5F5F5F5F5F5F5F5F5F5
310
F5F5F5F5F5F5F5F5F5F5F5F5F5F5F5F5F5F5F5F5F5F5F5F5F5F5F5F5F5F5F5F5F5F5F5F5F5F5F5F5F5F5F5F5F5F5F5F5F5F5F5F5F5F5F5F5F5F5F5F5F5F5F5F5F5F5F5F5F5F5F5F5F5F5F5F5F5F5F5F5F5F5F5F5F5F5F5F5F5F5F5F5E2F5F5F5F5F5F5F5F5F5F5F5F5F5F5F5F5E2F5F5F5E2E2EFF5F5F5E2F5F5F5F5F5F5F5
310
F5F5F5F5F5F5F5F5F5E2F5F5F5F5F5F5F5F5F5F5F5F5F5F5F5F5F5F5F5F5F5F5F5F5F5F5F5F5F5F5F5F5F5F5F5F5F5F5F5F5F5F5F5F5F5F5F5F5F5F5F5F5F5F5F5F5F5F5F5F5F5F5F5F5F5F5F5F5F5F5F5F5F5F5F5F5F5F5F5F5F5F5F5F5F5F5F5F5F5F5F5F5F5F5F5F5F5F5F5F5F5F5F5F5F5F5F5F5F5F5F5F5F5F5F5F5F5
310
F5F5F5F5F5F5F5F5F5F5F5F5F5F5F5F5F5F5E2F5F5F5F5F5F5F5F5F5F5F5F5F5F5F5F5E2F5F5F5E2E2EFF5F5F5E2F5F5F5F5F5F5F5F5F5F5F5F5F5F5F5F5E2F5F5F5F5F5F5F5F5F5F5F5F5F5F5F5F5F5F5F5F5F5F5F5F5F5F5F5F5F5F5F5F5F5F5F5F5F5F5F5F5F5F5F5F5F5F5F5F5F5F5F5F5F5F5F5F5F5F5F5F5F5F5F5F5
310
F5F5F5F5F5F5F5F5F5F5F5F5F5F5F5F5F5F5F5F5F5F5F5F5F5F5F5F5F5F5F5F5F5F5F5F5F5F5F5F5F5F5F5F5F5F5F5F5F5F5F5F5F5F5F5F5F5F5F5F5F5F5F5F5F5F5F5F5F5F5F5E2F5F5F5F5F5F5F5F5F5F5F5F5F5F5F5F5E2F5F5F5E2E2EFF5F5F5E2F5F5F5F5F5F5F5F5F5F5F5F5F5F5F5F5E2F5F5F5F5F5F5F5F5F5F5F5
310
F5F5F5F5F5F5F5F5F5F5F5F5F5F5F5F5F5F5F5F5F5F5F5F5F5F5F5F5F5F5F5F5F5F5F5F5F5F5F5F5F5F5F5F5F5F5F5F5F5F5F5F5F5F5F5F5F5F5F5F5F5F5F5F5F5F5F5F5F5F5F5F5F5F5F5F5F5F5F5F5F5F5F5F5F5F5F5F5F5F5F5F5F5F5F5F5F5F5F5F5F5F5F5F5F5F5F5F5F5F5F5F5F5F5F5F5F5F5F5F5F5F5F5F5E2F5F5
310
F5F5F5F5F5F5F5F5F5F5F5F5F5F5E2F5F5F5E2E2EFF5F5F5E2F5F5F5F5F5F5F5F5F5F5F5F5F5F5F5F5E2F5F5F5F5F5F5F5F5F5F5F5F5F5F5F5F5F5F5F5F5F5F5F5F5F5F5F5F5F5F5F5F5F5F5F5F5F5F5F5F5F5F5F5F5F5F5F5F5F5F5F5F5F5F5F5F5F5F5F5F5F5F5F5F5F5F5F5F5F5F5F5F5F5F5F5F5F5F5F5F5F5F5F5F5F5
310
F5F5F5F5F5F5F5F5F5F5F5F5F5F5F5F5F5F5F5F5F5F5F5F5F5F5F5F5F5F5F5F5F5F5F5F5F5F5F5F5F5F5F5F5F5F5F5F5F5F5E2F5F5F5F5F5F5F5F5F5F5F5F5F5F5F5F5E2F5F5F5E2E2EFF5F5F5E2F5F5F5F5F5F5F5F5F5F5F5F5F5F5F5F5E2F5F5F5F5F5F5F5F5F5F5F5F5F5F5F5F5F5F5F5F5F5F5F5F5F5F5F5F5F5F5F5F5
310
F5F5F5F5F5F5F5F5F5F5F5F5F5F5F5F5F5F5F5F5F5F5F5F5F5F5F5F5F5F5F5F5F5F5F5F5F5F5F5F5F5F5F5F5F5F5F5F5F5F5F5F5F5F5F5F5F5F5F5F5F5F5F5F5F5F5F5F5F5F5F5F5F5F5F5F5F5F5F5F5F5F5F5F5F5F5F5F5F5F5F5F5F5F5F5F5F5F5F5F5F5F5F5E2F5F5F5F5F5F5F5F5F5F5F5F5F5F5F5F5E2F5F5F5E2E2EF
310
F5F5F5E2F5F5F5F5F5F5F5F5F5F5F5F5F5F5F5F5E2F5F5F5F5F5F5F5F5F5F5F5F5F5F5F5F5F5F5F5F5F5F5F5F5F5F5F5F5F5F5F5F5F5F5F5F5F5F5F5F5F5F5F5F5F5F5F5F5F5F5F5F5F5F5F5F5F5F5F5F5F5F5F5F5F5F5F5F5F5F5F5F5F5F5F5F5F5F5F5F5F5F5F5F5F5F5F5F5F5F5F5F5F5F5F5F5F5F5F5F5F5F5F5F5F5F5
310
F5F5F5F5F5F5F5F5F5F5F5F5F5F5F5F5F5F5F5F5F5F5F5F5F5F5F5F5F5E2F5F5F5F5F5F5F5F5F5F5F5F5F5F5F5F5E2F5F5F5E2E2EFF5F5F5E2F5F5F5F5F5F5F5F5F5F5F5F5F5F5F5F5E2F5F5F5F5F5F5F5F5F5F5F5F5F5F5F5F5F5F5F5F5F5F5F5F5F5F5F5F5F5F5F5F5F5F5F5F5F5F5F5F5F5F5F5F5F5F5F5F5F5F5F5F5F5
310
F5F5F5F5F5F5F5F5F5F5F5F5F5F5F5F5F5F5F5F5F5F5F5F5F5F5F5F5F5F5F5F5F5F5F5F5F5F5F5F5F5F5F5F5F5F5F5F5F5F5F5F5F5F5F5F5F5F5F5F5F5F5F5F5F5F5F5F5F5F5F5F5F5F5F5F5F5F5F5F5F5F5E2F5F5F5F5F5F5F5F5F5F5F5F5F5F5F5F5E2F5F5F5E2E2EFF5F5F5E2F5F5F5F5F5F5F5F5F5F5F5F5F5F5F5F5E2
310
F5F5F5F5F5F5F5F5F5F5F5F5F5F5F5F5F5F5F5F5F5F5F5F5F5F5F5F5F5F5F5F5F5F5F5F5F5F5F5F5F5F5F5F5F5F5F5F5F5F5F5F5F5F5F5F5F5F5F5F5F5F5F5F5F5F5F5F5F5F5F5F5F5F5F5F5F5F5F5F5F5F5F5F5F5F5F5F5F5F5F5F5F5F5F5F5F5F5F5F5F5F5F5F5F5F5F5F5F5F5F5F5F5F5F5F5F5F5F5F5F5F5F5F5F5F5F5
310
F5F5F5F5F5F5F5F5E2F5F5F5F5F5F5F5F5F5F5F5F5F5F5F5F5E2F5F5F5E2E2EFF5F5F5E2F5F5F5F5F5F5F5F5F5F5F5F5F5F5F5F5E2F5F5F5F5F5F5F5F5F5F5F5F5F5F5F5F5F5F5F5F5F5F5F5F5F5F5F5F5F5F5F5F5F5F5F5F5F5F5F5F5F5F5F5F5F5F5F5F5F5F5F5F5F5F5F5F5F5F5F5F5F5F5F5F5F5F5F5F5F5F5F5F5F5F5
310
F5F5F5F5F5F5F5F5F5F5F5F5F5F5F5F5F5F5F5F5F5F5F5F5F5F5F5F5F5F5F5F5F5F5F5F5F5F5F5F5F5F5F5F5F5F5F5F5F5F5F5F5F5F5F5F5F5F5F5F5F5E2F5F5F5F5F5F5F5F5F5F5F5F5F5F5F5F5E2F5F5F5E2E2EFF5F5F5E2F5F5F5F5F5F5F5F5F5F5F5F5F5F5F5F5E2F5F5F5F5F5F5F5F5F5F5F5F5F5F5F5F5F5F5F5F5F5
310
F5F5F5F5F5F5F5F5F5F5F5F5F5F5F5F5F5F5F5F5F5F5F5F5F5F5F5F5F5F5F5F5F5F5F5F5F5F5F5F5F5F5F5F5F5F5F5F5F5F5F5F5F5F5F5F5F5F5F5F5F5F5F5F5F5F5F5F5F5F5F5F5F5F5F5F5F5F5F5F5F5F5F5F5F5F5F5F5F5F5F5F5F5F5F5F5F5F5F5F5F5F5F5F5F5F5F5F5F5F5F5F5F5F5E2F5F5F5F5F5F5F5F5F5F5F5F5
310
F5F5F5F5E2F5F5F5E2E2EFF5F5F5E2F5F5F5F5F5F5F5F5F5F5F5F5F5F5F5F5E2F5F5F5F5F5F5F5F5F5F5F5F5F5F5F5F5F5F5F5F5F5F5F5F5F5F5F5F5F5F5F5F5F5F5F5F5F5F5F5F5F5F5F5F5F5F5F5F5F5F5F5F5F5F5F5F5F5F5F5F5F5F5F5F5F5F5F5F5F5F5F5F5F5F5F5F5F5F5F5F5F5F5F5F5F5F5F5F5F5F5F5F5F5F5F5
310
F5F5F5F5F5F5F5F5F5F5F5F5F5F5F5F5F5F5F5F5F5F5F5F5F5F5F5F5F5F5F5F5F5F5F5F5F5F5F5F5E2F5F5F5F5F5F5F5F5F5F5F5F5F5F5F5F5E2F5F5F5E2E2EFF5F5F5F5F5F5F5F5F5F5F5F5F5F5F5F5F5F5F5F5E2F5F5F5F5F5F5F5F5F5F5F5F5F5F5F5F5F5F5F5F5F5F5F5F5F5F5F5F5F5F5F5F5F5F5F5F5F5F5F5F5F5F5
310
F5F5F5F5F5F5F5F5F5F5F5F5F5F5F5F5F5F5F5F5F5F5F5F5F5F5F5F5F5F5F5F5F5F5F5F5F5F5F5F5F5F5F5F5F5F5F5F5F5F5F5F5F5F5F5F5F5F5F5F5F5F5F5F5F5F5F5F5F5F5F5F5F5F5F5F5F5F5F5F5F5F5F5F5F5F5F5F5F5F5F5F5F5E2F5F5F5F5F5F5F5F5F5F5F5F5F5F5F5F5F5F5F5F5E2E2EFF5F5F5F5F5F5F5F5F5F5
310
F5F5F5F5F5F5F5F5F5F5E2F5F5F5F5F5F5F5F5F5F5F5F5F5F5F5F5F5F5F5F5F5F5F5F5F5F5F5F5F5F5F5F5F5F5F5F5F5F5F5F5F5F5F5F5F5F5F5F5F5F5F5F5F5F5F5F5F5F5F5F5F5F5F5F5F5F5F5F5F5F5F5F5F5F5F5F5F5F5F5F5F5F5F5F5F5F5F5F5F5F5F5F5F5F5F5F5F5F5F5F5F5F5F5F5F5F5F5F5F5F5F5F5F5F5F5F5
310
F5F5F5F5F5F5F5F5F5F5F5F5F5F5F5F5F5F5F5E2F5F5F5F5F5F5F5F5F5F5F5F5F5F5F5F5F5F5F5F5E2E2EFF5F5F5F5F5F5F5F5F5F5F5F5F5F5F5F5F5F5F5F5E2F5F5F5F5F5F5F5F5F5F5F5F5F5F5F5F5F5F5F5F5F5F5F5F5F5F5F5F5F5F5F5F5F5F5F5F5F5F5F5F5F5F5F5F5F5F5F5F5F5F5F5F5F5F5F5F5F5F5F5F5F5F5F5
310
F5F5F5F5F5F5F5F5F5F5F5F5F5F5F5F5F5F5F5F5F5F5F5F5F5F5F5F5F5F5F5F5F5F5F5F5F5F5F5F5F5F5F5F5F5F5F5F5F5F5F5F5F5F5F5F5F5F5F5F5F5F5F5F5F5F5F5F5F5F5F5F5E2F5F5F5F5F5F5F5F5F5F5F5F5F5F5F5F5F5F5F5F5E2E2EFF5F5F5F5F5F5F5F5F5F5F5F5F5F5F5F5F5F5F5F5E2F5F5F5F5F5F5F5F5F5F5
310
F5F5F5F5F5F5F5F5F5F5F5F5F5F5F5F5F5F5F5F5F5F5F5F5F5F5F5F5F5F5F5F5F5F5F5F5F5F5F5F5F5F5F5F5F5F5F5F5F5F5F5F5F5F5F5F5F5F5F5F5F5F5F5F5F5F5F5F5F5F5F5F5F5F5F5F5F5F5F5F5F5F5F5F5F5F5F5F5F5F5F5F5F5F5F5F5F5F5F5F5F5F5F5F5F5F5F5F5F5F5F5F5F5F5F5F5F5F5F5F5F5F5F5F5F5E2F5
310
F5F5F5F5F5F5F5F5F5F5F5F5F5F5F5F5F5F5F5E2E2EFF5F5F5F5F5F5F5F5F5F5F5F5F5F5F5F5F5F5F5F5E2F5F5F5F5F5F5F5F5F5F5F5F5F5F5F5F5F5F5F5F5F5F5F5F5F5F5F5F5F5F5F5F5F5F5F5F5F5F5F5F5F5F5F5F5F5F5F5F5F5F5F5F5F5F5F5F5F5F5F5F5F5F5F5F5F5F5F5F5F5F5F5F5F5F5F5F5F5F5F5F5F5F5F5F5
310
F5F5F5F5F5F5F5F5F5F5F5F5F5F5F5F5F5F5F5F5F5F5F5F5F5F5F5F5F5F5F5F5F5F5F5F5F5F5F5F5F5F5F5F5F5F5F5F5F5F5F5E2F5F5F5F5F5F5F5F5F5F5F5F5F5F5F5F5F5F5F5F5E2E2EFF5F5F5F5F5F5F5F5F5F5F5F5F5F5F5F5F5F5F5F5E2F5F5F5F5F5F5F5F5F5F5F5F5F5F5F5F5F5F5F5F5F5F5F5F5F5F5F5F5F5F5F5
310
F5F5F5F5F5F5F5F5F5F5F5F5F5F5F5F5F5F5F5F5F5F5F5F5F5F5F5F5F5F5F5F5F5F5F5F5F5F5F5F5F5F5F5F5F5F5F5F5F5F5F5F5F5F5F5F5F5F5F5F5F5F5F5F5F5F5F5F5F5F5F5F5F5F5F5F5F5F5F5F5F5F5F5F5F5F5F5F5F5F5F5F5F5F5F5F5F5F5F5F5F5F5F5F5E2F5F5F5F5F5F5F5F5F5F5F5F5F5F5F5F5F5F5F5F5E2E2
310
EFF5F5F5F5F5F5F5F5F5F5F5F5F5F5F5F5F5F5F5F5E2F5F5F5F5F5F5F5F5F5F5F5F5F5F5F5F5F5F5F5F5F5F5F5F5F5F5F5F5F5F5F5F5F5F5F5F5F5F5F5F5F5F5F5F5F5F5F5F5F5F5F5F5F5F5F5F5F5F5F5F5F5F5F5F5F5F5F5F5F5F5F5F5F5F5F5F5F5F5F5F5F5F5F5F5F5F5F5F5F5F5F5F5F5F5F5F5F5F5F5F5F5F5F5F5F5
310
F5F5F5F5F5F5F5F5F5F5F5F5F5F5F5F5F5F5F5F5F5F5F5F5F5F5F5F5F5F5E2F5F5F5F5F5F5F5F5F5F5F5F5F5F5F5F5F5F5F5F5E2E2EFF5F5F5F5F5F5F5F5F5F5F5F5F5F5F5F5F5F5F5F5E2F5F5F5F5F5F5F5F5F5F5F5F5F5F5F5F5F5F5F5F5F5F5F5F5F5F5F5F5F5F5F5F5F5F5F5F5F5F5F5F5F5F5F5F5F5F5F5F5F5F5F5F5
310
F5F5F5F5F5F5F5F5F5F5F5F5F5F5F5F5F5F5F5F5F5F5F5F5F5F5F5F5F5F5F5F5F5F5F5F5F5F5F5F5F5F5F5F5F5F5F5F5F5F5F5F5F5F5F5F5F5F5F5F5F5F5F5F5F5F5F5F5F5F5F5F5F5F5F5F5F5F5F5F5F5F5F5E2F5F5F5F5F5F5F5F5F5F5F5F5F5F5F5F5F5F5F5F5E2E2EFF5F5F5F5F5F5F5F5F5F5F5F5F5F5F5F5F5F5F5F5
310
E2F5F5F5F5F5F5F5F5F5F5F5F5F5F5F5F5F5F5F5F5F5F5F5F5F5F5F5F5F5F5F5F5F5F5F5F5F5F5F5F5F5F5F5F5F5F5F5F5F5F5F5F5F5F5F5F5F5F5F5F5F5F5F5F5F5F5F5F5F5F5F5F5F5F5F5F5F5F5F5F5F5F5F5F5F5F5F5F5F5F5F5F5F5F5F5F5F5F5F5F5F5F5F5F5F5F5F5F5F5F5F5F5F5F5F5F5F5F5F5F5F5F5F5F5F5F5
310
F5F5F5F5F5F5F5F5F5E2F5F5F5F5F5F5F5F5F5F5F5F5F5F5F5F5F5F5F5F5E2E2EFF5F5F5E2F5F5F5F5F5F5F5F5F5F5F5F5F5F5F5F5E2F5F5F5F5F5F5F5F5F5F5F5F5F5F5F5F5F5F5F5F5F5F5F5F5F5F5F5F5F5F5F5F5F5F5F5F5F5F5F5F5F5F5F5F5F5F5F5F5F5F5F5F5F5F5F5F5F5F5F5F5F5F5F5F5F5F5F5F5F5F5F5F5F5
310
F5F5F5F5F5F5F5F5F5F5F5F5F5F5F5F5F5F5F5F5F5F5F5F5F5F5F5F5F5F5F5F5F5F5F5F5F5F5F5F5F5F5F5F5F5F5F5F5F5F5F5F5F5F5F5F5F5F5F5F5F5F5E2F5F5F5F5F5F5F5F5F5F5F5F5F5F5F5F5E2F5F5F5E2E2EFF5F5F5E2F5F5F5F5F5F5F5F5F5F5F5F5F5F5F5F5E2F5F5F5F5F5F5F5F5F5F5F5F5F5F5F5F5F5F5F5F5
310
F5F5F5F5F5F5F5F5F5F5F5F5F5F5F5F5F5F5F5F5F5F5F5F5F5F5F5F5F5F5F5F5F5F5F5F5F5F5F5F5F5F5F5F5F5F5F5F5F5F5F5F5F5F5F5F5F5F5F5F5F5F5F5F5F5F5F5F5F5F5F5F5F5F5F5F5F5F5F5F5F5F5F5F5F5F5F5F5F5F5F5F5F5F5F5F5F5F5F5F5F5F5F5F5F5F5F5F5F5F5F5F5F5F5F5E2F5F5F5F5F5F5F5F5F5F5F5
310
F5F5F5F5F5E2F5F5F5E2E2EFF5F5F5E2F5F5F5F5F5F5F5F5F5F5F5F5F5F5F5F5E2F5F5F5F5F5F5F5F5F5F5F5F5F5F5F5F5F5F5F5F5F5F5F5F5F5F5F5F5F5F5F5F5F5F5F5F5F5F5F5F5F5F5F5F5F5F5F5F5F5F5F5F5F5F5F5F5F5F5F5F5F5F5F5F5F5F5F5F5F5F5F5F5F5F5F5F5F5F5F5F5F5F5F5F5F5F5F5F5F5F5F5F5F5F5
310
F5F5F5F5F5F5F5F5F5F5F5F5F5F5F5F5F5F5F5F5F5F5F5F5F5F5F5F5F5F5F5F5F5F5F5F5F5F5F5F5F5E2F5F5F5F5F5F5F5F5F5F5F5F5F5F5F5F5E2F5F5F5E2E2EFF5F5F5E2F5F5F5F5F5F5F5F5F5F5F5F5F5F5F5F5E2F5F5F5F5F5F5F5F5F5F5F5F5F5F5F5F5F5F5F5F5F5F5F5F5F5F5F5F5F5F5F5F5F5F5F5F5F5F5F5F5F5
310
F5F5F5F5F5F5F5F5F5F5F5F5F5F5F5F5F5F5F5F5F5F5F5F5F5F5F5F5F5F5F5F5F5F5F5F5F5F5F5F5F5F5F5F5F5F5F5F5F5F5F5F5F5F5F5F5F5F5F5F5F5F5F5F5F5F5F5F5F5F5F5F5F5F5F5F5F5F5F5F5F5F5F5F5F5F5F5F5F5F5F5F5F5F5E2F5F5F5F5F5F5F5F5F5F5F5F5F5F5F5F5E2F5F5F5E2E2EFF5F5F5E2F5F5F5F5F5
310
F5F5F5F5F5F5F5F5F5F5F5E2F5F5F5F5F5F5F5F5F5F5F5F5F5F5F5F5F5F5F5F5F5F5F5F5F5F5F5F5F5F5F5F5F5F5F5F5F5F5F5F5F5F5F5F5F5F5F5F5F5F5F5F5F5F5F5F5F5F5F5F5F5F5F5F5F5F5F5F5F5F5F5F5F5F5F5F5F5F5F5F5F5F5F5F5F5F5F5F5F5F5F5F5F5F5F5F5F5F5F5F5F5F5F5F5F5F5F5F5F5F5F5F5F5F5F5
310
F5F5F5F5F5F5F5F5F5F5F5F5F5F5F5F5F5F5F5F5E2F5F5F5F5F5F5F5F5F5F5F5F5F5F5F5F5E2F5F5F5E2E2EFF5F5F5E2F5F5F5F5F5F5F5F5F5F5F5F5F5F5F5F5E2F5F5F5F5F5F5F5F5F5F5F5F5F5F5F5F5F5F5F5F5F5F5F5F5F5F5F5F5F5F5F5F5F5F5F5F5F5F5F5F5F5F5F5F5F5F5F5F5F5F5F5F5F5F5F5F5F5F5F5F5F5F5
310
F5F5F5F5F5F5F5F5F5F5F5F5F5F5F5F5F5F5F5F5F5F5F5F5F5F5F5F5F5F5F5F5F5F5F5F5F5F5F5F5F5F5F5F5F5F5F5F5F5F5F5F5F5F5F5F5F5F5F5F5F5F5F5F5F5F5F5F5F5F5F5F5F5E2F5F5F5F5F5F5F5F5F5F5F5F5F5F5F5F5E2F5F5F5E2E2EFF5F5F5E2F5F5F5F5F5F5F5F5F5F5F5F5F5F5F5F5E2F5F5F5F5F5F5F5F5F5
310
F5F5F5F5F5F5F5F5F5F5F5F5F5F5F5F5F5F5F5F5F5F5F5F5F5F5F5F5F5F5F5F5F5F5F5F5F5F5F5F5F5F5F5F5F5F5F5F5F5F5F5F5F5F5F5F5F5F5F5F5F5F5F5F5F5F5F5F5F5F5F5F5F5F5F5F5F5F5F5F5F5F5F5F5F5F5F5F5F5F5F5F5F5F5F5F5F5F5F5F5F5F5F5F5F5F5F5F5F5F5F5F5F5F5F5F5F5F5F5F5F5F5F5F5F5F5E2
310
F5F5F5F5F5F5F5F5F5F5F5F5F5F5F5F5E2F5F5F5E2E2EFF5F5F5E2F5F5F5F5F5F5F5F5F5F5F5F5F5F5F5F5E2F5F5F5F5F5F5F5F5F5F5F5F5F5F5F5F5F5F5F5F5F5F5F5F5F5F5F5F5F5F5F5F5F5F5F5F5F5F5F5F5F5F5F5F5F5F5F5F5F5F5F5F5F5F5F5F5F5F5F5F5F5F5F5F5F5F5F5F5F5F5F5F5F5F5F5F5F5F5F5F5F5F5F5
310
F5F5F5F5F5F5F5F5F5F5F5F5F5F5F5F5F5F5F5F5F5F5F5F5F5F5F5F5F5F5F5F5F5F5F5F5F5F5F5F5F5F5F5F5F5F5F5F5F5F5F5F5E2F5F5F5F5F5F5F5F5F5F5F5F5F5F5F5F5E2F5F5F5E2E2EFF5F5F5E2F5F5F5F5F5F5F5F5F5F5F5F5F5F5F5F5E2F5F5F5F5F5F5F5F5F5F5F5F5F5F5F5F5F5F5F5F5F5F5F5F5F5F5F5F5F5F5
310
F5F5F5F5F5F5F5F5F5F5F5F5F5F5F5F5F5F5F5F5F5F5F5F5F5F5F5F5F5F5F5F5F5F5F5F5F5F5F5F5F5F5F5F5F5F5F5F5F5F5F5F5F5F5F5F5F5F5F5F5F5F5F5F5F5F5F5F5F5F5F5F5F5F5F5F5F5F5F5F5F5F5F5F5F5F5F5F5F5F5F5F5F5F5F5F5F5F5F5F5F5F5F5F5F5E2F5F5F5F5F5F5F5F5F5F5F5F5F5F5F5F5E2F5F5F5E2
310
E2EFF5F5F5E2F5F5F5F5F5F5F5F5F5F5F5F5F5F5F5F5E2F5F5F5F5F5F5F5F5F5F5F5F5F5F5F5F5F5F5F5F5F5F5F5F5F5F5F5F5F5F5F5F5F5F5F5F5F5F5F5F5F5F5F5F5F5F5F5F5F5F5F5F5F5F5F5F5F5F5F5F5F5F5F5F5F5F5F5F5F5F5F5F5F5F5F5F5F5F5F5F5F5F5F5F5F5F5F5F5F5F5F5F5F5F5F5F5F5F5F5F5F5F5F5F5
310
F5F5F5F5F5F5F5F5F5F5F5F5F5F5F5F5F5F5F5F5F5F5F5F5F5F5F5F5F5F5F5E2F5F5F5F5F5F5F5F5F5F5F5F5F5F5F5F5E2F5F5F5E2E2EFF5F5F5E2F5F5F5F5F5F5F5F5F5F5F5F5F5F5F5F5E2F5F5F5F5F5F5F5F5F5F5F5F5F5F5F5F5F5F5F5F5F5F5F5F5F5F5F5F5F5F5F5F5F5F5F5F5F5F5F5F5F5F5F5F5F5F5F5F5F5F5F5
310
F5F5F5F5F5F5F5F5F5F5F5F5F5F5F5F5F5F5F5F5F5F5F5F5F5F5F5F5F5F5F5F5F5F5F5F5F5F5F5F5F5F5F5F5F5F5F5F5F5F5F5F5F5F5F5F5F5F5F5F5F5F5F5F5F5F5F5F5F5F5F5F5F5F5F5F5F5F5F5F5F5F5F5F5E2F5F5F5F5F5F5F5F5F5F5F5F5F5F5F5F5E2F5F5F5E2E2EFF5F5F5E2F5F5F5F5F5F5F5F5F5F5F5F5F5F5F5
310
F5E2F5F5F5F5F5F5F5F5F5F5F5F5F5F5F5F5F5F5F5F5F5F5F5F5F5F5F5F5F5F5F5F5F5F5F5F5F5F5F5F5F5F5F5F5F5F5F5F5F5F5F5F5F5F5F5F5F5F5F5F5F5F5F5F5F5F5F5F5F5F5F5F5F5F5F5F5F5F5F5F5F5F5F5F5F5F5F5F5F5F5F5F5F5F5F5F5F5F5F5F5F5F5F5F5F5F5F5F5F5F5F5F5F5F5F5F5F5F5F5F5F5F5F5F5F5
310
F5F5F5F5F5F5F5F5F5F5E2F5F5F5F5F5F5F5F5F5F5F5F5F5F5F5F5E2F5F5F5E2E2EFF5F5F5E2F5F5F5F5F5F5F5F5F5F5F5F5F5F5F5F5E2F5F5F5F5F5F5F5F5F5F5F5F5F5F5F5F5F5F5F5F5F5F5F5F5F5F5F5F5F5F5F5F5F5F5F5F5F5F5F5F5F5F5F5F5F5F5F5F5F5F5F5F5F5F5F5F5F5F5F5F5F5F5F5F5F5F5F5F5F5F5F5F5
310
F5F5F5F5F5F5F5F5F5F5F5F5F5F5F5F5F5F5F5F5F5F5F5F5F5F5F5F5F5F5F5F5F5F5F5F5F5F5F5F5F5F5F5F5F5F5F5F5F5F5F5F5F5F5F5F5F5F5F5F5F5F5F5E2F5F5F5F5F5F5F5F5F5F5F5F5F5F5F5F5E2F5F5F5E2E2EFF5F5F5E2F5F5F5F5F5F5F5F5F5F5F5F5F5F5F5F5E2F5F5F5F5F5F5F5F5F5F5F5F5F5F5F5F5F5F5F5
310
F5F5F5F5F5F5F5F5F5F5F5F5F5F5F5F5F5F5F5F5F5F5F5F5F5F5F5F5F5F5F5F5F5F5F5F5F5F5F5F5F5F5F5F5F5F5F5F5F5F5F5F5F5F5F5F5F5F5F5F5F5F5F5F5F5F5F5F5F5F5F5F5F5F5F5F5F5F5F5F5F5F5F5F5F5F5F5F5F5F5F5F5F5F5F5F5F5F5F5F5F5F5F5F5F5F5F5F5F5F5F5F5F5F5F5F5E2F5F5F5F5F5F5F5F5F5F5
310
F5F5F5F5F5F5E2F5F5F5E2E2EFF5F5F5E2F5F5F5F5F5F5F5F5F5F5F5F5F5F5F5F5E2F5F5F5F5F5F5F5F5F5F5F5F5F5F5F5F5F5F5F5F5F5F5F5F5F5F5F5F5F5F5F5F5F5F5F5F5F5F5F5F5F5F5F5F5F5F5F5F5F5F5F5F5F5F5F5F5F5F5F5F5F5F5F5F5F5F5F5F5F5F5F5F5F5F5F5F5F5F5F5F5F5F5F5F5F5F5F5F5F5F5F5F5F5
310
F5F5F5F5F5F5F5F5F5F5F5F5F5F5F5F5F5F5F5F5F5F5F5F5F5F5F5F5F5F5F5F5F5F5F5F5F5F5F5F5F5F5E2F5F5F5F5F5F5F5F5F5F5F5F5F5F5F5F5E2F5F5F5E2E2EFF5F5F5E2F5F5F5F5F5F5F5F5F5F5F5F5F5F5F5F5E2F5F5F5F5F5F5F5F5F5F5F5F5F5F5F5F5F5F5F5F5F5F5F5F5F5F5F5F5F5F5F5F5F5F5F5F5F5F5F5F5
310
F5F5F5F5F5F5F5F5F5F5F5F5F5F5F5F5F5F5F5F5F5F5F5F5F5F5F5F5F5F5F5F5F5F5F5F5F5F5F5F5F5F5F5F5F5F5F5F5F5F5F5F5F5F5F5F5F5F5F5F5F5F5F5F5F5F5F5F5F5F5F5F5F5F5F5F5F5F5F5F5F5F5F5F5F5F5F5F5F5F5F5F5F5F5F5E2F5F5F5F5F5F5F5F5F5F5F5F5F5F5F5F5E2F5F5F5E2E2EFF5F5F5E2F5F5F5F5
310
F5F5F5F5F5F5F5F5F5F5F5F5E2F5F5F5F5F5F5F5F5F5F5F5F5F5F5F5F5F5F5F5F5F5F5F5F5F5F5F5F5F5F5F5F5F5F5F5F5F5F5F5F5F5F5F5F5F5F5F5F5F5F5F5F5F5F5F5F5F5F5F5F5F5F5F5F5F5F5F5F5F5F5F5F5F5F5F5F5F5F5F5F5F5F5F5F5F5F5F5F5F5F5F5F5F5F5F5F5F5F5F5F5F5F5F5F5F5F5F5F5F5F5F5F5F5F5
310
F5F5F5F5F5F5F5F5F5F5F5F5F5F5F5F5F5F5F5F5F5E2F5F5F5F5F5F5F5F5F5F5F5F5F5F5F5F5E2F5F5F5E2E2EFF5F5F5F5F5F5F5F5F5F5F5F5F5F5F5F5F5F5F5F5E2F5F5F5F5F5F5F5F5F5F5F5F5F5F5F5F5F5F5F5F5F5F5F5F5F5F5F5F5F5F5F5F5F5F5F5F5F5F5F5F5F5F5F5F5F5F5F5F5F5F5F5F5F5F5F5F5F5F5F5F5F5
310
F5F5F5F5F5F5F5F5F5F5F5F5F5F5F5F5F5F5F5F5F5F5F5F5F5F5F5F5F5F5F5F5F5F5F5F5F5F5F5F5F5F5F5F5F5F5F5F5F5F5F5F5F5F5F5F5F5F5F5F5F5F5F5F5F5F5F5F5F5F5F5F5F5F5E2F5F5F5F5F5F5F5F5F5F5F5F5F5F5F5F5F5F5F5F5E2E2EFF5F5F5F5F5F5F5F5F5F5F5F5F5F5F5F5F5F5F5F5E2F5F5F5F5F5F5F5F5
310
F5F5F5F5F5F5F5F5F5F5F5F5F5F5F5F5F5F5F5F5F5F5F5F5F5F5F5F5F5F5F5F5F5F5F5F5F5F5F5F5F5F5F5F5F5F5F5F5F5F5F5F5F5F5F5F5F5F5F5F5F5F5F5F5F5F5F5F5F5F5F5F5F5F5F5F5F5F5F5F5F5F5F5F5F5F5F5F5F5F5F5F5F5F5F5F5F5F5F5F5F5F5F5F5F5F5F5F5F5F5F5F5F5F5F5F5F5F5F5F5F5F5F5F5F5F5F5
310
E2F5F5F5F5F5F5F5F5F5F5F5F5F5F5F5F5F5F5F5F5E2E2EFF5F5F5F5F5F5F5F5F5F5F5F5F5F5F5F5F5F5F5F5E2F5F5F5F5F5F5F5F5F5F5F5F5F5F5F5F5F5F5F5F5F5F5F5F5F5F5F5F5F5F5F5F5F5F5F5F5F5F5F5F5F5F5F5F5F5F5F5F5F5F5F5F5F5F5F5F5F5F5F5F5F5F5F5F5F5F5F5F5F5F5F5F5F5F5F5F5F5F5F5F5F5F5
310
F5F5F5F5F5F5F5F5F5F5F5F5F5F5F5F5F5F5F5F5F5F5F5F5F5F5F5F5F5F5F5F5F5F5F5F5F5F5F5F5F5F5F5F5F5F5F5F5F5F5F5F5F5E2F5F5F5F5F5F5F5F5F5F5F5F5F5F5F5F5F5F5F5F5E2E2EFF5F5F5F5F5F5F5F5F5F5F5F5F5F5F5F5F5F5F5F5E2F5F5F5F5F5F5F5F5F5F5F5F5F5F5F5F5F5F5F5F5F5F5F5F5F5F5F5F5F5
310
F5F5F5F5F5F5F5F5F5F5F5F5F5F5F5F5F5F5F5F5F5F5F5F5F5F5F5F5F5F5F5F5F5F5F5F5F5F5F5F5F5F5F5F5F5F5F5F5F5F5F5F5F5F5F5F5F5F5F5F5F5F5F5F5F5F5F5F5F5F5F5F5F5F5F5F5F5F5F5F5F5F5F5F5F5F5F5F5F5F5F5F5F5F5F5F5F5F5F5F5F5F5F5F5F5F5E2F5F5F5F5F5F5F5F5F5F5F5F5F5F5F5F5F5F5F5F5
310
E2E2EFF5F5F5F5F5F5F5F5F5F5F5F5F5F5F5F5F5F5F5F5E2F5F5F5F5F5F5F5F5F5F5F5F5F5F5F5F5F5F5F5F5F5F5F5F5F5F5F5F5F5F5F5F5F5F5F5F5F5F5F5F5F5F5F5F5F5F5F5F5F5F5F5F5F5F5F5F5F5F5F5F5F5F5F5F5F5F5F5F5F5F5F5F5F5F5F5F5F5F5F5F5F5F5F5F5F5F5F5F5F5F5F5F5F5F5F5F5F5F5F5F5F5F5F5
310
F5F5F5F5F5F5F5F5F5F5F5F5F5F5F5F5F5F5F5F5F5F5F5F5F5F5F5F5F5F5F5F5E2F5F5F5F5F5F5F5F5F5F5F5F5F5F5F5F5F5F5F5F5E2E2EFF5F5F5F5F5F5F5F5F5F5F5F5F5F5F5F5F5F5F5F5E2F5F5F5F5F5F5F5F5F5F5F5F5F5F5F5F5F5F5F5F5F5F5F5F5F5F5F5F5F5F5F5F5F5F5F5F5F5F5F5F5F5F5F5F5F5F5F5F5F5F5
310
F5F5F5F5F5F5F5F5F5F5F5F5F5F5F5F5F5F5F5F5F5F5F5F5F5F5F5F5F5F5F5F5F5F5F5F5F5F5F5F5F5F5F5F5F5F5F5F5F5F5F5F5F5F5F5F5F5F5F5F5F5F5F5F5F5F5F5F5F5F5F5F5F5F5F5F5F5F5F5F5F5F5F5F5F5E2F5F5F5F5F5F5F5F5F5F5F5F5F5F5F5F5F5F5F5F5E2E2EFF5F5F5F5F5F5F5F5F5F5F5F5F5F5F5F5F5F5
310
F5F5E2F5F5F5F5F5F5F5F5F5F5F5F5F5F5F5F5F5F5F5F5F5F5F5F5F5F5F5F5F5F5F5F5F5F5F5F5F5F5F5F5F5F5F5F5F5F5F5F5F5F5F5F5F5F5F5F5F5F5F5F5F5F5F5F5F5F5F5F5F5F5F5F5F5F5F5F5F5F5F5F5F5F5F5F5F5F5F5F5F5F5F5F5F5F5F5F5F5F5F5F5F5F5F5F5F5F5F5F5F5F5F5F5F5F5F5F5F5F5F5F5F5F5F5F5
310
F5F5F5F5F5F5F5F5F5F5F5E2F5F5F5F5F5F5F5F5F5F5F5F5F5F5F5F5F5F5F5F5E2E2EFF5F5F5F5F5F5F5F5F5F5F5F5F5F5F5F5F5F5F5F5E2F5F5F5F5F5F5F5F5F5F5F5F5F5F5F5F5F5F5F5F5F5F5F5F5F5F5F5F5F5F5F5F5F5F5F5F5F5F5F5F5F5F5F5F5F5F5F5F5F5F5F5F5F5F5F5F5F5F5F5F5F5F5F5F5F5F5F5F5F5F5F5
310
F5F5F5F5F5F5F5F5F5F5F5F5F5F5F5F5F5F5F5F5F5F5F5F5F5F5F5F5F5F5F5F5F5F5F5F5F5F5F5F5F5F5F5F5F5F5F5F5F5F5F5F5F5F5F5F5F5F5F5F5F5F5F5F5E2F5F5F5F5F5F5F5F5F5F5F5F5F5F5F5F5F5F5F5F5E2E2EFF5F5F5F5F5F5F5F5F5F5F5F5F5F5F5F5F5F5F5F5E2F5F5F5F5F5F5F5F5F5F5F5F5F5F5F5F5F5F5
310
F5F5F5F5F5F5F5F5F5F5F5F5F5F5F5F5F5F5F5F5F5F5F5F5F5F5F5F5F5F5F5F5F5F5F5F5F5F5F5F5F5F5F5F5F5F5F5F5F5F5F5F5F5F5F5F5F5F5F5F5F5F5F5F5F5F5F5F5F5F5F5F5F5F5F5F5F5F5F5F5F5F5F5F5F5F5F5F5F5F5F5F5F5F5F5F5F5F5F5F5F5F5F5F5F5F5F5F5F5F5F5F5F5F5F5F5F5E2F5F5F5F5F5F5F5F5F5
310
F5F5F5F5F5F5F5F5F5F5F5E2E2EFF5F5F5E2F5F5F5F5F5F5F5F5F5F5F5F5F5F5F5F5E2F5F5F5F5F5F5F5F5F5F5F5F5F5F5F5F5F5F5F5F5F5F5F5F5F5F5F5F5F5F5F5F5F5F5F5F5F5F5F5F5F5F5F5F5F5F5F5F5F5F5F5F5F5F5F5F5F5F5F5F5F5F5F5F5F5F5F5F5F5F5F5F5F5F5F5F5F5F5F5F5F5F5F5F5F5F5F5F5F5F5F5F5
310
F5F5F5F5F5F5F5F5F5F5F5F5F5F5F5F5F5F5F5F5F5F5F5F5F5F5F5F5F5F5F5F5F5F5F5F5F5F5F5F5F5F5F5E2F5F5F5F5F5F5F5F5F5F5F5F5F5F5F5F5E2F5F5F5E2E2EFF5F5F5E2F5F5F5F5F5F5F5F5F5F5F5F5F5F5F5F5E2F5F5F5F5F5F5F5F5F5F5F5F5F5F5F5F5F5F5F5F5F5F5F5F5F5F5F5F5F5F5F5F5F5F5F5F5F5F5F5
310
F5F5F5F5F5F5F5F5F5F5F5F5F5F5F5F5F5F5F5F5F5F5F5F5F5F5F5F5F5F5F5F5F5F5F5F5F5F5F5F5F5F5F5F5F5F5F5F5F5F5F5F5F5F5F5F5F5F5F5F5F5F5F5F5F5F5F5F5F5F5F5F5F5F5F5F5F5F5F5F5F5F5F5F5F5F5F5F5F5F5F5F5F5F5F5F5E2F5F5F5F5F5F5F5F5F5F5F5F5F5F5F5F5E2F5F5F5E2E2EFF5F5F5E2F5F5F5
310
F5F5F5F5F5F5F5F5F5F5F5F5F5E2F5F5F5F5F5F5F5F5F5F5F5F5F5F5F5F5F5F5F5F5F5F5F5F5F5F5F5F5F5F5F5F5F5F5F5F5F5F5F5F5F5F5F5F5F5F5F5F5F5F5F5F5F5F5F5F5F5F5F5F5F5F5F5F5F5F5F5F5F5F5F5F5F5F5F5F5F5F5F5F5F5F5F5F5F5F5F5F5F5F5F5F5F5F5F5F5F5F5F5F5F5F5F5F5F5F5F5F5F5F5F5F5F5
310
F5F5F5F5F5F5F5F5F5F5F5F5F5F5F5F5F5F5F5F5F5F5E2F5F5F5F5F5F5F5F5F5F5F5F5F5F5F5F5E2F5F5F5E2E2EFF5F5F5E2F5F5F5F5F5F5F5F5F5F5F5F5F5F5F5F5E2F5F5F5F5F5F5F5F5F5F5F5F5F5F5F5F5F5F5F5F5F5F5F5F5F5F5F5F5F5F5F5F5F5F5F5F5F5F5F5F5F5F5F5F5F5F5F5F5F5F5F5F5F5F5F5F5F5F5F5F5
310
F5F5F5F5F5F5F5F5F5F5F5F5F5F5F5F5F5F5F5F5F5F5F5F5F5F5F5F5F5F5F5F5F5F5F5F5F5F5F5F5F5F5F5F5F5F5F5F5F5F5F5F5F5F5F5F5F5F5F5F5F5F5F5F5F5F5F5F5F5F5F5F5F5F5F5E2F5F5F5F5F5F5F5F5F5F5F5F5F5F5F5F5E2F5F5F5E2E2EFF5F5F5E2F5F5F5F5F5F5F5F5F5F5F5F5F5F5F5F5E2F5F5F5F5F5F5F5
310
F5F5F5F5F5F5F5F5F5F5F5F5F5F5F5F5F5F5F5F5F5F5F5F5F5F5F5F5F5F5F5F5F5F5F5F5F5F5F5F5F5F5F5F5F5F5F5F5F5F5F5F5F5F5F5F5F5F5F5F5F5F5F5F5F5F5F5F5F5F5F5F5F5F5F5F5F5F5F5F5F5F5F5F5F5F5F5F5F5F5F5F5F5F5F5F5F5F5F5F5F5F5F5F5F5F5F5F5F5F5F5F5F5F5F5F5F5F5F5F5F5F5F5F5F5F5F5
310
F5E2F5F5F5F5F5F5F5F5F5F5F5F5F5F5F5F5E2F5F5F5E2E2EFF5F5F5E2F5F5F5F5F5F5F5F5F5F5F5F5F5F5F5F5E2F5F5F5F5F5F5F5F5F5F5F5F5F5F5F5F5F5F5F5F5F5F5F5F5F5F5F5F5F5F5F5F5F5F5F5F5F5F5F5F5F5F5F5F5F5F5F5F5F5F5F5F5F5F5F5F5F5F5F5F5F5F5F5F5F5F5F5F5F5F5F5F5F5F5F5F5F5F5F5F5F5
310
F5F5F5F5F5F5F5F5F5F5F5F5F5F5F5F5F5F5F5F5F5F5F5F5F5F5F5F5F5F5F5F5F5F5F5F5F5F5F5F5F5F5F5F5F5F5F5F5F5F5F5F5F5F5E2F5F5F5F5F5F5F5F5F5F5F5F5F5F5F5F5E2F5F5F5E2E2EFF5F5F5E2F5F5F5F5F5F5F5F5F5F5F5F5F5F5F5F5E2F5F5F5F5F5F5F5F5F5F5F5F5F5F5F5F5F5F5F5F5F5F5F5F5F5F5F5F5
310
F5F5F5F5F5F5F5F5F5F5F5F5F5F5F5F5F5F5F5F5F5F5F5F5F5F5F5F5F5F5F5F5F5F5F5F5F5F5F5F5F5F5F5F5F5F5F5F5F5F5F5F5F5F5F5F5F5F5F5F5F5F5F5F5F5F5F5F5F5F5F5F5F5F5F5F5F5F5F5F5F5F5F5F5F5F5F5F5F5F5F5F5F5F5F5F5F5F5F5F5F5F5F5F5F5F5F5E2F5F5F5F5F5F5F5F5F5F5F5F5F5F5F5F5E2F5F5
310
F5E2E2EFF5F5F5E2F5F5F5F5F5F5F5F5F5F5F5F5F5F5F5F5E2F5F5F5F5F5F5F5F5F5F5F5F5F5F5F5F5F5F5F5F5F5F5F5F5F5F5F5F5F5F5F5F5F5F5F5F5F5F5F5F5F5F5F5F5F5F5F5F5F5F5F5F5F5F5F5F5F5F5F5F5F5F5F5F5F5F5F5F5F5F5F5F5F5F5F5F5F5F5F5F5F5F5F5F5F5F5F5F5F5F5F5F5F5F5F5F5F5F5F5F5F5F5
310
F5F5F5F5F5F5F5F5F5F5F5F5F5F5F5F5F5F5F5F5F5F5F5F5F5F5F5F5F5F5F5F5F5E2F5F5F5F5F5F5F5F5F5F5F5F5F5F5F5F5E2F5F5F5E2E2EFF5F5F5E2F5F5F5F5F5F5F5F5F5F5F5F5F5F5F5F5E2F5F5F5F5F5F5F5F5F5F5F5F5F5F5F5F5F5F5F5F5F5F5F5F5F5F5F5F5F5F5F5F5F5F5F5F5F5F5F5F5F5F5F5F5F5F5F5F5F5
310
F5F5F5F5F5F5F5F5F5F5F5F5F5F5F5F5F5F5F5F5F5F5F5F5F5F5F5F5F5F5F5F5F5F5F5F5F5F5F5F5F5F5F5F5F5F5F5F5F5F5F5F5F5F5F5F5F5F5F5F5F5F5F5F5F5F5F5F5F5F5F5F5F5F5F5F5F5F5F5F5F5F5F5F5F5F5E2F5F5F5F5F5F5F5F5F5F5F5F5F5F5F5F5E2F5F5F5E2E2EFF5F5F5E2F5F5F5F5F5F5F5F5F5F5F5F5F5
310
F5F5F5E2F5F5F5F5F5F5F5F5F5F5F5F5F5F5F5F5F5F5F5F5F5F5F5F5F5F5F5F5F5F5F5F5F5F5F5F5F5F5F5F5F5F5F5F5F5F5F5F5F5F5F5F5F5F5F5F5F5F5F5F5F5F5F5F5F5F5F5F5F5F5F5F5F5F5F5F5F5F5F5F5F5F5F5F5F5F5F5F5F5F5F5F5F5F5F5F5F5F5F5F5F5F5F5F5F5F5F5F5F5F5F5F5F5F5F5F5F5F5F5F5F5F5F5
310
F5F5F5F5F5F5F5F5F5F5F5F5E2F5F5F5F5F5F5F5F5F5F5F5F5F5F5F5F5E2F5F5F5E2E2EFF5F5F5E2F5F5F5F5F5F5F5F5F5F5F5F5F5F5F5F5E2F5F5F5F5F5F5F5F5F5F5F5F5F5F5F5F5F5F5F5F5F5F5F5F5F5F5F5F5F5F5F5F5F5F5F5F5F5F5F5F5F5F5F5F5F5F5F5F5F5F5F5F5F5F5F5F5F5F5F5F5F5F5F5F5F5F5F5F5F5F5
310
F5F5F5F5F5F5F5F5F5F5F5F5F5F5F5F5F5F5F5F5F5F5F5F5F5F5F5F5F5F5F5F5F5F5F5F5F5F5F5F5F5F5F5F5F5F5F5F5F5F5F5F5F5F5F5F5F5F5F5F5F5F5F5F5F5E2F5F5F5F5F5F5F5F5F5F5F5F5F5F5F5F5E2F5F5F5E2E2EFF5F5F5E2F5F5F5F5F5F5F5F5F5F5F5F5F5F5F5F5E2F5F5F5F5F5F5F5F5F5F5F5F5F5F5F5F5F5
310
F5F5F5F5F5F5F5F5F5F5F5F5F5F5F5F5F5F5F5F5F5F5F5F5F5F5F5F5F5F5F5F5F5F5F5F5F5F5F5F5F5F5F5F5F5F5F5F5F5F5F5F5F5F5F5F5F5F5F5F5F5F5F5F5F5F5F5F5F5F5F5F5F5F5F5F5F5F5F5F5F5F5F5F5F5F5F5F5F5F5F5F5F5F5F5F5F5F5F5F5F5F5F5F5F5F5F5F5F5F5F5F5F5F5F5F5F5F5E2F5F5F5F5F5F5F5F5
310
F5F5F5F5F5F5F5F5E2F5F5F5E2E2EFF5F5F5E2F5F5F5F5F5F5F5F5F5F5F5F5F5F5F5F5E2F5F5F5F5F5F5F5F5F5F5F5F5F5F5F5F5F5F5F5F5F5F5F5F5F5F5F5F5F5F5F5F5F5F5F5F5F5F5F5F5F5F5F5F5F5F5F5F5F5F5F5F5F5F5F5F5F5F5F5F5F5F5F5F5F5F5F5F5F5F5F5F5F5F5F5F5F5F5F5F5F5F5F5F5F5F5F5F5F5F5F5
310
F5F5F5F5F5F5F5F5F5F5F5F5F5F5F5F5F5F5F5F5F5F5F5F5F5F5F5F5F5F5F5F5F5F5F5F5F5F5F5F5F5F5F5F5E2F5F5F5F5F5F5F5F5F5F5F5F5F5F5F5F5E2F5F5F5E2E2EFF5F5F5E2F5F5F5F5F5F5F5F5F5F5F5F5F5F5F5F5E2F5F5F5F5F5F5F5F5F5F5F5F5F5F5F5F5F5F5F5F5F5F5F5F5F5F5F5F5F5F5F5F5F5F5F5F5F5F5
310
F5F5F5F5F5F5F5F5F5F5F5F5F5F5F5F5F5F5F5F5F5F5F5F5F5F5F5F5F5F5F5F5F5F5F5F5F5F5F5F5F5F5F5F5F5F5F5F5F5F5F5F5F5F5F5F5F5F5F5F5F5F5F5F5F5F5F5F5F5F5F5F5F5F5F5F5F5F5F5F5F5F5F5F5F5F5F5F5F5F5F5F5F5F5F5F5F5E2F5F5F5F5F5F5F5F5F5F5F5F5F5F5F5F5E2F5F5F5E2E2EFF5F5F5E2F5F5
310
F5F5F5F5F5F5F5F5F5F5F5F5F5F5E2F5F5F5F5F5F5F5F5F5F5F5F5F5F5F5F5F5F5F5F5F5F5F5F5F5F5F5F5F5F5F5F5F5F5F5F5F5F5F5F5F5F5F5F5F5F5F5F5F5F5F5F5F5F5F5F5F5F5F5F5F5F5F5F5F5F5F5F5F5F5F5F5F5F5F5F5F5F5F5F5F5F5F5F5F5F5F5F5F5F5F5F5F5F5F5F5F5F5F5F5F5F5F5F5F5F5F5F5F5F5F5F5
310
F5F5F5F5F5F5F5F5F5F5F5F5F5F5F5F5F5F5F5F5F5F5F5E2F5F5F5F5F5F5F5F5F5F5F5F5F5F5F5F5E2F5F5F5E2E2EFF5F5F5E2F5F5F5F5F5F5F5F5F5F5F5F5F5F5F5F5E2F5F5F5F5F5F5F5F5F5F5F5F5F5F5F5F5F5F5F5F5F5F5F5F5F5F5F5F5F5F5F5F5F5F5F5F5F5F5F5F5F5F5F5F5F5F5F5F5F5F5F5F5F5F5F5F5F5F5F5
310
F5F5F5F5F5F5F5F5F5F5F5F5F5F5F5F5F5F5F5F5F5F5F5F5F5F5F5F5F5F5F5F5F5F5F5F5F5F5F5F5F5F5F5F5F5F5F5F5F5F5F5F5F5F5F5F5F5F5F5F5F5F5F5F5F5F5F5F5F5F5F5F5F5F5F5F5E2F5F5F5F5F5F5F5F5F5F5F5F5F5F5F5F5E2F5F5F5E2E2EFF5F5F5E2F5F5F5F5F5F5F5F5F5F5F5F5F5F5F5F5E2F5F5F5F5F5F5
310
F5F5F5F5F5F5F5F5F5F5F5F5F5F5F5F5F5F5F5F5F5F5F5F5F5F5F5F5F5F5F5F5F5F5F5F5F5F5F5F5F5F5F5F5F5F5F5F5F5F5F5F5F5F5F5F5F5F5F5F5F5F5F5F5F5F5F5F5F5F5F5F5F5F5F5F5F5F5F5F5F5F5F5F5F5F5F5F5F5F5F5F5F5F5F5F5F5F5F5F5F5F5F5F5F5F5F5F5F5F5F5F5F5F5F5F5F5F5F5F5F5F5F5F5F5F5F5
310
F5F5E2F5F5F5F5F5F5F5F5F5F5F5F5F5F5F5F5E2F5F5F5E2E2EFF5F5F5F5F5F5F5F5F5F5F5F5F5F5F5F5F5F5F5F5E2F5F5F5F5F5F5F5F5F5F5F5F5F5F5F5F5F5F5F5F5F5F5F5F5F5F5F5F5F5F5F5F5F5F5F5F5F5F5F5F5F5F5F5F5F5F5F5F5F5F5F5F5F5F5F5F5F5F5F5F5F5F5F5F5F5F5F5F5F5F5F5F5F5F5F5F5F5F5F5F5
310
F5F5F5F5F5F5F5F5F5F5F5F5F5F5F5F5F5F5F5F5F5F5F5F5F5F5F5F5F5F5F5F5F5F5F5F5F5F5F5F5F5F5F5F5F5F5F5F5F5F5F5F5F5F5F5E2F5F5F5F5F5F5F5F5F5F5F5F5F5F5F5F5F5F5F5F5E2E2EFF5F5F5F5F5F5F5F5F5F5F5F5F5F5F5F5F5F5F5F5E2F5F5F5F5F5F5F5F5F5F5F5F5F5F5F5F5F5F5F5F5F5F5F5F5F5F5F5
310
F5F5F5F5F5F5F5F5F5F5F5F5F5F5F5F5F5F5F5F5F5F5F5F5F5F5F5F5F5F5F5F5F5F5F5F5F5F5F5F5F5F5F5F5F5F5F5F5F5F5F5F5F5F5F5F5F5F5F5F5F5F5F5F5F5F5F5F5F5F5F5F5F5F5F5F5F5F5F5F5F5F5F5F5F5F5F5F5F5F5F5F5F5F5F5F5F5F5F5F5F5F5F5F5F5F5F5F5E2F5F5F5F5F5F5F5F5F5F5F5F5F5F5F5F5F5F5
310
F5F5E2E2EFF5F5F5F5F5F5F5F5F5F5F5F5F5F5F5F5F5F5F5F5E2F5F5F5F5F5F5F5F5F5F5F5F5F5F5F5F5F5F5F5F5F5F5F5F5F5F5F5F5F5F5F5F5F5F5F5F5F5F5F5F5F5F5F5F5F5F5F5F5F5F5F5F5F5F5F5F5F5F5F5F5F5F5F5F5F5F5F5F5F5F5F5F5F5F5F5F5F5F5F5F5F5F5F5F5F5F5F5F5F5F5F5F5F5F5F5F5F5F5F5F5F5
310
F5F5F5F5F5F5F5F5F5F5F5F5F5F5F5F5F5F5F5F5F5F5F5F5F5F5F5F5F5F5F5F5F5F5E2F5F5F5F5F5F5F5F5F5F5F5F5F5F5F5F5F5F5F5F5E2E2EFF5F5F5F5F5F5F5F5F5F5F5F5F5F5F5F5F5F5F5F5E2F5F5F5F5F5F5F5F5F5F5F5F5F5F5F5F5F5F5F5F5F5F5F5F5F5F5F5F5F5F5F5F5F5F5F5F5F5F5F5F5F5F5F5F5F5F5F5F5
310
F5F5F5F5F5F5F5F5F5F5F5F5F5F5F5F5F5F5F5F5F5F5F5F5F5F5F5F5F5F5F5F5F5F5F5F5F5F5F5F5F5F5F5F5F5F5F5F5F5F5F5F5F5F5F5F5F5F5F5F5F5F5F5F5F5F5F5F5F5F5F5F5F5F5F5F5F5F5F5F5F5F5F5F5F5F5F5E2F5F5F5F5F5F5F5F5F5F5F5F5F5F5F5F5F5F5F5F5E2E2EFF5F5F5F5F5F5F5F5F5F5F5F5F5F5F5F5
310
F5F5F5F5E2E2E2E2E2E2E2E2E2E2E2E2E2E2E2E2E2E2E2E2E2E2E2E2E2E2E2E2E2E2E2E2E2E2E2E2E2E2E2E2E2E2E2E2E2E2E2E2E2E2E2E2E2E2E2E2E2E2E2E2E2E2E2E2E2E2E2E2E2E2E2E2E2E2E2E2E2E2E2E2E2E2E2E2E2E2E2E2E2E2E2E2E2E2E2E2E2E2E2E2E2E2E2E2E2E2E2E2E2E2E2E2E2E2E2E2E2E2E2E2E2E2E2
310
E2E2E2E2E2E2E2E2E2E2E2E2E2E2F5F5F5F5F5F5F5F5F5F5F5F5F5F5F5F5F5F5F5F5E2E2EFF5F5F5F5F5F5F5F5F5F5F5F5F5F5F5F5F5F5F5F5F5F5F5F5F5F5F5F5F5F5F5F5F5F5F5F5F5F5F5F5F5F5F5F5F5F5F5F5F5F5F5F5F5F5F5F5F5F5F5F5F5F5F5F5F5F5F5F5F5F5F5F5F5F5F5F5F5F5F5F5F5F5F5F5F5F5F5F5F5F5
310
F5F5F5F5F5F5F5F5F5F5F5F5F5F5F5F5F5F5F5F5F5F5F5F5F5F5F5F5F5F5F5F5F5F5F5F5F5F5F5F5F5F5F5F5F5F5F5F5F5F5F5F5F5F5F5F5F5F5F5F5F5F5F5F5F5F5F5F5F5F5F5F5F5F5F5F5F5F5F5F5F5F5F5F5F5F5F5E2E2EFF5F5F5F5F5F5F5F5F5F5F5F5F5F5F5F5F5F5F5F5F5F5F5F5F5F5F5F5F5F5F5F5F5F5F5F5F5
310
F5F5F5F5F5F5F5F5F5F5F5F5F5F5F5F5F5F5F5F5F5F5F5F5F5F5F5F5F5F5F5F5F5F5F5F5F5F5F5F5F5F5F5F5F5F5F5F5F5F5F5F5F5F5F5F5F5F5F5F5F5F5F5F5F5F5F5F5F5F5F5F5F5F5F5F5F5F5F5F5F5F5F5F5F5F5F5F5F5F5F5F5F5F5F5F5F5F5F5F5F5F5F5F5F5F5F5F5F5F5F5F5F5F5F5F5F5F5F5F5F5F5F5F5F5F5F5
310
F5F5F5F5F5F5F5F5F5F5F5F5F5E2E2EFF5F5F5F5F5F5F5F5F5F5F5F5F5F5F5F5F5F5F5F5F5F5F5F5F5F5F5F5F5F5F5F5F5F5F5F5F5F5F5F5F5F5F5F5F5F5F5F5F5F5F5F5F5F5F5F5F5F5F5F5F5F5F5F5F5F5F5F5F5F5F5F5F5F5F5F5F5F5F5F5F5F5F5F5F5F5F5F5F5F5F5F5F5F5F5F5F5F5F5F5F5F5F5F5F5F5F5F5F5F5F5
310
F5F5F5F5F5F5F5F5F5F5F5F5F5F5F5F5F5F5F5F5F5F5F5F5F5F5F5F5F5F5F5F5F5F5F5F5F5F5F5F5F5F5F5F5F5F5F5F5F5F5F5F5F5F5F5F5F5F5F5F5F5F5F5F5F5F5E2E2EFF5F5F5F5F5F5F5F5F5F5F5F5F5F5F5F5F5F5F5F5F5F5F5F5F5F5F5F5F5F5F5F5F5F5F5F5F5F5F5F5F5F5F5F5F5F5F5F5F5F5F5F5F5F5F5F5F5F5
310
F5F5F5F5F5F5F5F5F5F5F5F5F5F5F5F5F5F5F5F5F5F5F5F5F5F5F5F5F5F5F5F5F5F5F5F5F5F5F5F5F5F5F5F5F5F5F5F5F5F5F5F5F5F5F5F5F5F5F5F5F5F5F5F5F5F5F5F5F5F5F5F5F5F5F5F5F5F5F5F5F5F5F5F5F5F5F5F5F5F5F5F5F5F5F5F5F5F5F5F5F5F5F5F5F5F5F5F5F5F5F5F5F5F5F5F5F5F5F5E2E2EFF5F5F5E2F5
310
F5F5F5F5F5F5F5F5F5F5F5F5F5F5F5F5F5F5F5F5F5F5F5F5F5F5F5F5F5F5F5F5F5F5F5F5F5F5F5F5F5F5F5F5F5F5F5F5F5F5F5F5F5F5F5F5F5F5F5F5F5F5F5F5F5F5F5F5F5F5F5F5F5F5F5F5F5F5F5F5F5F5F5F5F5F5F5F5F5F5F5F5F5F5F5F5F5F5F5F5F5F5F5F5F5F5F5F5F5F5F5F5F5F5F5F5F5F5F5F5F5F5F5F5F5F5F5
310
F5F5F5F5F5F5F5F5F5F5F5F5F5F5F5F5F5F5F5F5F5F5F5F5F5F5F5F5F5F5F5F5F5F5F5F5F5F5F5F5F5E2F5F5F5E2E2EFF5F5F5E2F5F5F5F5F5F5F5F5F5F5F5F5F5F5F5F5F5F5F5F5F5F5F5F5F5F5F5F5F5F5F5F5F5F5F5F5F5F5F5F5F5F5F5F5F5F5F5F5F5F5F5F5F5F5F5F5F5F5F5F5F5F5F5F5F5F5F5F5F5F5F5F5F5F5F5
310
F5F5F5F5F5F5F5F5F5F5F5F5F5F5F5F5F5F5F5F5F5F5F5F5F5F5F5F5F5F5F5F5F5F5F5F5F5F5F5F5F5F5F5F5F5F5F5F5F5F5F5F5F5F5F5F5F5F5F5F5F5F5F5F5F5F5F5F5F5F5F5F5F5F5F5F5F5F5F5F5F5F5F5F5F5F5F5F5F5F5F5F5F5F5E2F5F5F5E2E2EFF5F5F5E2F5F5F5F5F5F5F5F5F5F5F5F5F5F5F5F5F5F5F5F5F5F5
310
F5F5F5F5F5F5F5F5F5F5F5F5F5F5F5F5F5F5F5F5F5F5F5F5F5F5F5F5F5F5F5F5F5F5F5F5F5F5F5F5F5F5F5F5F5F5F5F5F5F5F5F5F5F5F5F5F5F5F5F5F5F5F5F5F5F5F5F5F5F5F5F5F5F5F5F5F5F5F5F5F5F5F5F5F5F5F5F5F5F5F5F5F5F5F5F5F5F5F5F5F5F5F5F5F5F5F5F5F5F5F5F5F5F5F5F5F5F5F5F5F5F5F5F5F5F5F5
310
F5F5F5F5F5F5F5F5F5F5F5F5F5F5F5F5F5F5F5F5E2F5F5F5E2E2EFF5F5F5E2F5F5F5F5F5F5F5F5F5F5F5F5F5F5F5F5F5F5F5F5F5F5F5F5F5F5F5F5F5F5F5F5F5F5F5F5F5F5F5F5F5F5F5F5F5F5F5F5F5F5F5F5F5F5F5F5F5F5F5F5F5F5F5F5F5F5F5F5F5F5F5F5F5F5F5F5F5F5F5F5F5F5F5F5F5F5F5F5F5F5F5F5F5F5F5F5
310
F5F5F5F5F5F5F5F5F5F5F5F5F5F5F5F5F5F5F5F5F5F5F5F5F5F5F5F5F5F5F5F5F5F5F5F5F5F5F5F5F5F5F5F5F5F5F5F5F5F5F5F5F5F5F5F5F5F5F5F5F5F5F5F5F5F5F5F5F5F5F5F5F5E2F5F5F5E2E2EFF5F5F5E2F5F5F5F5F5F5F5F5F5F5F5F5F5F5F5F5F5F5F5F5F5F5F5F5F5F5F5F5F5F5F5F5F5F5F5F5F5F5F5F5F5F5F5
310
F5F5F5F5F5F5F5F5F5F5F5F5F5F5F5F5F5F5F5F5F5F5F5F5F5F5F5F5F5F5F5F5F5F5F5F5F5F5F5F5F5F5F5F5F5F5F5F5F5F5F5F5F5F5F5F5F5F5F5F5F5F5F5F5F5F5F5F5F5F5F5F5F5F5F5F5F5F5F5F5F5F5F5F5F5F5F5F5F5F5F5F5F5F5F5F5F5F5F5F5F5F5F5F5F5F5F5F5F5F5F5F5F5F5F5F5F5F5F5F5F5F5F5F5F5F5E2
310
F5F5F5E2E2EFF5F5F5E2F5F5F5F5F5F5F5F5F5F5F5F5F5F5F5F5F5F5F5F5F5F5F5F5F5F5F5F5F5F5F5F5F5F5F5F5F5F5F5F5F5F5F5F5F5F5F5F5F5F5F5F5F5F5F5F5F5F5F5F5F5F5F5F5F5F5F5F5F5F5F5F5F5F5F5F5F5F5F5F5F5F5F5F5F5F5F5F5F5F5F5F5F5F5F5F5F5F5F5F5F5F5F5F5F5F5F5F5F5F5F5F5F5F5F5F5F5
310
F5F5F5F5F5F5F5F5F5F5F5F5F5F5F5F5F5F5F5F5F5F5F5F5F5F5F5F5F5F5F5F5F5F5F5F5F5F5F5F5F5F5F5F5F5F5F5F5F5F5F5F5E2F5F5F5E2E2EFF5F5F5E2F5F5F5F5F5F5F5F5F5F5F5F5F5F5F5F5F5F5F5F5F5F5F5F5F5F5F5F5F5F5F5F5F5F5F5F5F5F5F5F5F5F5F5F5F5F5F5F5F5F5F5F5F5F5F5F5F5F5F5F5F5F5F5F5
310
F5F5F5F5F5F5F5F5F5F5F5F5F5F5F5F5F5F5F5F5F5F5F5F5F5F5F5F5F5F5F5F5F5F5F5F5F5F5F5F5F5F5F5F5F5F5F5F5F5F5F5F5F5F5F5F5F5F5F5F5F5F5F5F5F5F5F5F5F5F5F5F5F5F5F5F5F5F5F5F5F5F5F5F5F5F5F5F5F5F5F5F5F5F5F5F5F5F5F5F5F5F5F5F5F5E2F5F5F5E2E2EFF5F5F5E2F5F5F5F5F5F5F5F5F5F5F5
310
F5F5F5F5F5F5F5F5F5F5F5F5F5F5F5F5F5F5F5F5F5F5F5F5F5F5F5F5F5F5F5F5F5F5F5F5F5F5F5F5F5F5F5F5F5F5F5F5F5F5F5F5F5F5F5F5F5F5F5F5F5F5F5F5F5F5F5F5F5F5F5F5F5F5F5F5F5F5F5F5F5F5F5F5F5F5F5F5F5F5F5F5F5F5F5F5F5F5F5F5F5F5F5F5F5F5F5F5F5F5F5F5F5F5F5F5F5F5F5F5F5F5F5F5F5F5F5
310
F5F5F5F5F5F5F5F5F5F5F5F5F5F5F5F5F5F5F5F5F5F5F5F5F5F5F5F5F5F5F5E2F5F5F5E2E2EFF5F5F5E2E2E2E2E2E2E2E2F5F5F5F5F5F5F5F5F5E2E2E2E2E2E2E2E2E2E2E2E2E2E2E2E2F5F5F5F5F5F5F5F5E2E2E2E2E2E2E2E2E2E2E2E2E2E2E2E2F5F5F5F5F5F5F5F5F5E2E2E2E2E2E2E2E2E2E2E2E2E2E2E2F5F5F5F5F5
310
F5F5F5F5E2E2E2E2E2E2E2E2E2E2E2E2E2E2E2F5F5F5F5F5F5F5F5F5E2E2E2E2E2E2E2E2E2E2E2E2E2E2E2E2F5F5F5F5F5F5F5F5E2E2E2E2E2E2E2E2E2E2E2E2E2E2E2E2F5F5F5F5F5F5F5F5F5E2E2E2E2E2E2E2E2F5F5F5E2E2EFF5F5F5F5F5F5F5F5F5F5F5F5F5F5F5F5F5F5F5F5F5F5F5F5F5F5F5F5F5F5F5F5F5F5F5F5
310
F5F5F5F5F5F5F5F5F5F5F5F5F5F5F5F5F5F5F5F5F5F5F5F5F5F5F5F5F5F5F5F5F5F5F5F5F5F5F5F5F5F5F5F5F5F5F5F5F5F5F5F5F5F5F5F5F5F5F5F5F5F5F5F5F5F5F5F5F5F5F5F5F5F5F5F5F5F5F5F5F5F5F5F5F5F5F5F5F5F5F5F5F5F5F5F5F5F5F5F5F5F5F5F5F5F5F5F5F5F5F5F5F5F5F5F5F5F5F5F5F5F5F5F5F5F5F5
310
F5F5F5F5F5F5F5F5F5F5F5F5F5F5E2E2EFF5F5F5F5F5F5F5F5F5F5F5F5F5F5F5F5F5F5F5F5F5F5F5F5F5F5F5F5F5F5F5F5F5F5F5F5F5F5F5F5F5F5F5F5F5F5F5F5F5F5F5F5F5F5F5F5F5F5F5F5F5F5F5F5F5F5F5F5F5F5F5F5F5F5F5F5F5F5F5F5F5F5F5F5F5F5F5F5F5F5F5F5F5F5F5F5F5F5F5F5F5F5F5F5F5F5F5F5F5F5
310
F5F5F5F5F5F5F5F5F5F5F5F5F5F5F5F5F5F5F5F5F5F5F5F5F5F5F5F5F5F5F5F5F5F5F5F5F5F5F5F5F5F5F5F5F5F5F5F5F5F5F5F5F5F5F5F5F5F5F5F5F5F5F5F5F5F5F5E2EFEFF5F5F5F5F5F5F5F5F5F5F5F5F5F5F5F5F5F5F5F5F5F5F5F5F5F5F5F5F5F5F5F5F5F5F5F5F5F5F5F5F5F5F5F5F5F5F5F5F5F5F5F5F5F5F5F5F5
310
F5F5F5F5F5F5F5F5F5F5F5F5F5F5F5F5F5F5F5F5F5F5F5F5F5F5F5F5F5F5F5F5F5F5F5F5F5F5F5F5F5F5F5F5F5F5F5F5F5F5F5F5F5F5F5F5F5F5F5F5F5F5F5F5F5F5F5F5F5F5F5F5F5F5F5F5F5F5F5F5F5F5F5F5F5F5F5F5F5F5F5F5F5F5F5F5F5F5F5F5F5F5F5F5F5F5F5F5F5F5F5F5F5F5F5F5F5F5F5F5E2EFEFE2E2E2E2
310
E2E2E2E2E2E2E2E2E2E2E2E2E2E2E2E2E2E2E2E2E2E2E2E2E2E2E2E2E2E2E2E2E2E2E2E2E2E2E2E2E2E2E2E2E2E2E2E2E2E2E2E2E2E2E2E2E2E2E2E2E2E2E2E2E2E2E2E2E2E2E2E2E2E2E2E2E2E2E2E2E2E2E2E2E2E2E2E2E2E2E2E2E2E2E2E2E2E2E2E2E2E2E2E2E2E2E2E2E2E2E2E2E2E2E2E2E2E2E2E2E2E2E2E2E2E2E2
310
E2E2E2E2E2E2E2E2E2E2E2E2E2E2E2E2E2E2E2E2E2E2E2E2E2E2E2E2E2E2E2E2E2E2E2E2E2E2E2E2E2E2E2E2E2E2E2EFEF
  0
ENDSEC
  0
EOF
