  0
SECTION
  2
HEADER
  9
$ACADVER
  1
AC1018
  9
$ACADMAINTVER
 70
     0
  9
$DWGCODEPAGE
  3
ANSI_1252
  9
$AUTHOR
  1
g6edxjah
  9
$LASTSAVEDBY
  1
g6edxjah
  9
$INSBASE
 10
0.0
 20
0.0
 30
0.0
  9
$EXTMIN
 10
-0.081542
 20
0.043458
 30
0.0
  9
$EXTMAX
 10
11.081542
 20
8.456542
 30
0.0
  9
$LIMMIN
 10
-22.456709
 20
-23.706709
  9
$LIMMAX
 10
33.456709
 20
32.206709
  9
$ORTHOMODE
 70
     0
  9
$REGENMODE
 70
     1
  9
$FILLMODE
 70
     1
  9
$QTEXTMODE
 70
     0
  9
$MIRRTEXT
 70
     0
  9
$LTSCALE
 40
1.0
  9
$ATTMODE
 70
     1
  9
$TEXTSIZE
 40
0.12
  9
$TRACEWID
 40
0.05
  9
$TEXTSTYLE
  7
Standard
  9
$CLAYER
  8
DIM
  9
$CELTYPE
  6
Continuous
  9
$CECOLOR
 62
     7
  9
$CELTSCALE
 40
1.0
  9
$DISPSILH
 70
     0
  9
$DIMSCALE
 40
1.0
  9
$DIMASZ
 40
0.12
  9
$DIMEXO
 40
0.06
  9
$DIMDLI
 40
0.0
  9
$DIMRND
 40
0.0
  9
$DIMDLE
 40
0.0
  9
$DIMEXE
 40
0.06
  9
$DIMTP
 40
0.0
  9
$DIMTM
 40
0.0
  9
$DIMTXT
 40
0.12
  9
$DIMCEN
 40
0.09
  9
$DIMTSZ
 40
0.0
  9
$DIMTOL
 70
     0
  9
$DIMLIM
 70
     0
  9
$DIMTIH
 70
     0
  9
$DIMTOH
 70
     0
  9
$DIMSE1
 70
     0
  9
$DIMSE2
 70
     0
  9
$DIMTAD
 70
     1
  9
$DIMZIN
 70
    11
  9
$DIMBLK
  1
TerminatorOpen_0.5
  9
$DIMASO
 70
     1
  9
$DIMSHO
 70
     1
  9
$DIMPOST
  1

  9
$DIMAPOST
  1

  9
$DIMALT
 70
     0
  9
$DIMALTD
 70
     4
  9
$DIMALTF
 40
25.4
  9
$DIMLFAC
 40
1.0
  9
$DIMTOFL
 70
     0
  9
$DIMTVP
 40
0.0
  9
$DIMTIX
 70
     0
  9
$DIMSOXD
 70
     0
  9
$DIMSAH
 70
     0
  9
$DIMBLK1
  1

  9
$DIMBLK2
  1

  9
$DIMSTYLE
  2
Standard
  9
$DIMCLRD
 70
     0
  9
$DIMCLRE
 70
     0
  9
$DIMCLRT
 70
     0
  9
$DIMTFAC
 40
1.0
  9
$DIMGAP
 40
0.06
  9
$DIMJUST
 70
     0
  9
$DIMSD1
 70
     0
  9
$DIMSD2
 70
     0
  9
$DIMTOLJ
 70
     0
  9
$DIMTZIN
 70
    11
  9
$DIMALTZ
 70
    15
  9
$DIMALTTZ
 70
    15
  9
$DIMUPT
 70
     0
  9
$DIMDEC
 70
     4
  9
$DIMTDEC
 70
     4
  9
$DIMALTU
 70
     2
  9
$DIMALTTD
 70
     4
  9
$DIMTXSTY
  7
Style-FANCY
  9
$DIMAUNIT
 70
     0
  9
$DIMADEC
 70
     4
  9
$DIMALTRND
 40
0.0
  9
$DIMAZIN
 70
     3
  9
$DIMDSEP
 70
    46
  9
$DIMATFIT
 70
     1
  9
$DIMFRAC
 70
     0
  9
$DIMLDRBLK
  1
TerminatorOpen_0.5
  9
$DIMLUNIT
 70
     2
  9
$DIMLWD
 70
    -2
  9
$DIMLWE
 70
    -2
  9
$DIMTMOVE
 70
     0
  9
$LUNITS
 70
     2
  9
$LUPREC
 70
     4
  9
$SKETCHINC
 40
0.1
  9
$FILLETRAD
 40
0.0
  9
$AUNITS
 70
     0
  9
$AUPREC
 70
     4
  9
$MENU
  1
.
  9
$ELEVATION
 40
0.0
  9
$PELEVATION
 40
0.0
  9
$THICKNESS
 40
0.0
  9
$LIMCHECK
 70
     0
  9
$CHAMFERA
 40
0.0
  9
$CHAMFERB
 40
0.0
  9
$CHAMFERC
 40
0.0
  9
$CHAMFERD
 40
0.0
  9
$SKPOLY
 70
     0
  9
$TDCREATE
 40
2455362.444706701
  9
$TDUCREATE
 40
2455362.653040035
  9
$TDUPDATE
 40
2455362.444706701
  9
$TDUUPDATE
 40
2455362.653040035
  9
$TDINDWG
 40
0.0
  9
$TDUSRTIMER
 40
0.0006630093
  9
$USRTIMER
 70
     1
  9
$ANGBASE
 50
0.0
  9
$ANGDIR
 70
     0
  9
$PDMODE
 70
     0
  9
$PDSIZE
 40
0.0
  9
$PLINEWID
 40
0.0
  9
$SPLFRAME
 70
     0
  9
$SPLINETYPE
 70
     6
  9
$SPLINESEGS
 70
     8
  9
$HANDSEED
  5
562
  9
$SURFTAB1
 70
     6
  9
$SURFTAB2
 70
     6
  9
$SURFTYPE
 70
     6
  9
$SURFU
 70
     6
  9
$SURFV
 70
     6
  9
$UCSBASE
  2

  9
$UCSNAME
  2

  9
$UCSORG
 10
0.0
 20
0.0
 30
0.0
  9
$UCSXDIR
 10
1.0
 20
0.0
 30
0.0
  9
$UCSYDIR
 10
0.0
 20
1.0
 30
0.0
  9
$UCSORTHOREF
  2

  9
$UCSORTHOVIEW
 70
     0
  9
$UCSORGTOP
 10
0.0
 20
0.0
 30
0.0
  9
$UCSORGBOTTOM
 10
0.0
 20
0.0
 30
0.0
  9
$UCSORGLEFT
 10
0.0
 20
0.0
 30
0.0
  9
$UCSORGRIGHT
 10
0.0
 20
0.0
 30
0.0
  9
$UCSORGFRONT
 10
0.0
 20
0.0
 30
0.0
  9
$UCSORGBACK
 10
0.0
 20
0.0
 30
0.0
  9
$PUCSBASE
  2

  9
$PUCSNAME
  2

  9
$PUCSORG
 10
0.0
 20
0.0
 30
0.0
  9
$PUCSXDIR
 10
1.0
 20
0.0
 30
0.0
  9
$PUCSYDIR
 10
0.0
 20
1.0
 30
0.0
  9
$PUCSORTHOREF
  2

  9
$PUCSORTHOVIEW
 70
     0
  9
$PUCSORGTOP
 10
0.0
 20
0.0
 30
0.0
  9
$PUCSORGBOTTOM
 10
0.0
 20
0.0
 30
0.0
  9
$PUCSORGLEFT
 10
0.0
 20
0.0
 30
0.0
  9
$PUCSORGRIGHT
 10
0.0
 20
0.0
 30
0.0
  9
$PUCSORGFRONT
 10
0.0
 20
0.0
 30
0.0
  9
$PUCSORGBACK
 10
0.0
 20
0.0
 30
0.0
  9
$USERI1
 70
     0
  9
$USERI2
 70
     0
  9
$USERI3
 70
     0
  9
$USERI4
 70
     0
  9
$USERI5
 70
     0
  9
$USERR1
 40
0.0
  9
$USERR2
 40
0.0
  9
$USERR3
 40
0.0
  9
$USERR4
 40
0.0
  9
$USERR5
 40
0.0
  9
$WORLDVIEW
 70
     1
  9
$SHADEDGE
 70
     3
  9
$SHADEDIF
 70
    70
  9
$TILEMODE
 70
     1
  9
$MAXACTVP
 70
    64
  9
$PINSBASE
 10
0.0
 20
0.0
 30
0.0
  9
$PLIMCHECK
 70
     0
  9
$PEXTMIN
 10
1.049744
 20
0.799667
 30
-0.001526
  9
$PEXTMAX
 10
9.450623
 20
7.200577
 30
0.0
  9
$PLIMMIN
 10
-0.25
 20
-0.25
  9
$PLIMMAX
 10
10.75
 20
8.25
  9
$UNITMODE
 70
     0
  9
$VISRETAIN
 70
     1
  9
$PLINEGEN
 70
     0
  9
$PSLTSCALE
 70
     0
  9
$TREEDEPTH
 70
  3020
  9
$CMLSTYLE
  2
Standard
  9
$CMLJUST
 70
     0
  9
$CMLSCALE
 40
1.0
  9
$PROXYGRAPHICS
 70
     1
  9
$MEASUREMENT
 70
     0
  9
$CELWEIGHT
370
    53
  9
$ENDCAPS
280
     0
  9
$JOINSTYLE
280
     0
  9
$LWDISPLAY
290
     1
  9
$INSUNITS
 70
     2
  9
$HYPERLINKBASE
  1

  9
$STYLESHEET
  1

  9
$XEDIT
290
     1
  9
$CEPSNTYPE
380
     0
  9
$PSTYLEMODE
290
     1
  9
$FINGERPRINTGUID
  2
{02C0BBB5-38A7-4FBF-829E-00875EC88963}
  9
$VERSIONGUID
  2
{82C521FC-BF81-46B3-825E-420B6BD93A99}
  9
$EXTNAMES
290
     1
  9
$PSVPSCALE
 40
0.0
  9
$OLESTARTUP
290
     0
  9
$SORTENTS
280
   127
  9
$INDEXCTL
280
     0
  9
$HIDETEXT
280
     1
  9
$XCLIPFRAME
290
     0
  9
$HALOGAP
280
     0
  9
$OBSCOLOR
 70
   257
  9
$OBSLTYPE
280
     0
  9
$INTERSECTIONDISPLAY
280
     0
  9
$INTERSECTIONCOLOR
 70
   257
  9
$DIMASSOC
280
     1
  9
$PROJECTNAME
  1

  0
ENDSEC
  0
SECTION
  2
CLASSES
  0
CLASS
  1
ACDBDICTIONARYWDFLT
  2
AcDbDictionaryWithDefault
  3
ObjectDBX Classes
 90
        0
 91
        3
280
     0
281
     0
  0
CLASS
  1
SORTENTSTABLE
  2
AcDbSortentsTable
  3
ObjectDBX Classes
 90
        0
 91
        3
280
     0
281
     0
  0
ENDSEC
  0
SECTION
  2
TABLES
  0
TABLE
  2
VPORT
  5
53C
330
0
100
AcDbSymbolTable
 70
     4
  0
VPORT
  5
49
330
53C
100
AcDbSymbolTableRecord
100
AcDbViewportTableRecord
  2
*ACTIVE
 70
     0
 10
0.0
 20
0.0
 11
1.0
 21
1.0
 12
5.5
 22
4.25
 13
0.0
 23
0.0
 14
0.083333
 24
0.083333
 15
0.083333
 25
0.083333
 16
0.0
 26
0.0
 36
1.0
 17
0.0
 27
0.0
 37
0.0
 40
8.749607
 41
1.884937
 42
50.0
 43
0.0
 44
0.0
 50
0.0
 51
0.0
 71
     0
 72
   100
 73
     1
 74
     2
 75
     0
 76
     0
 77
     0
 78
     1
281
     0
 65
     1
110
0.0
120
0.0
130
0.0
111
1.0
121
0.0
131
0.0
112
0.0
122
1.0
132
0.0
 79
     0
146
0.0
  0
ENDTAB
  0
TABLE
  2
LTYPE
  5
523
330
0
100
AcDbSymbolTable
 70
     1
  0
LTYPE
  5
524
330
523
100
AcDbSymbolTableRecord
100
AcDbLinetypeTableRecord
  2
ByBlock
 70
     0
  3

 72
    65
 73
     0
 40
0.0
  0
LTYPE
  5
525
330
523
100
AcDbSymbolTableRecord
100
AcDbLinetypeTableRecord
  2
ByLayer
 70
     0
  3

 72
    65
 73
     0
 40
0.0
  0
LTYPE
  5
522
330
523
100
AcDbSymbolTableRecord
100
AcDbLinetypeTableRecord
  2
Continuous
 70
     0
  3
Solid line
 72
    65
 73
     0
 40
0.0
  0
ENDTAB
  0
TABLE
  2
LAYER
  5
51C
102
{ACAD_XDICTIONARY
360
51D
102
}
330
0
100
AcDbSymbolTable
 70
    64
  0
LAYER
  5
51B
330
51C
100
AcDbSymbolTableRecord
100
AcDbLayerTableRecord
  2
0
 70
     0
 62
     7
  6
Continuous
370
    -3
390
51F
  0
LAYER
  5
7
330
51C
100
AcDbSymbolTableRecord
100
AcDbLayerTableRecord
  2
Level 1
 70
     0
 62
     7
  6
Continuous
370
     0
390
51F
  0
LAYER
  5
8
330
51C
100
AcDbSymbolTableRecord
100
AcDbLayerTableRecord
  2
2-30G
 70
     0
 62
     7
  6
Continuous
370
     0
390
51F
1001
AcAecLayerStandard
1000

1000
2-30G
  0
LAYER
  5
9
330
51C
100
AcDbSymbolTableRecord
100
AcDbLayerTableRecord
  2
BORDER
 70
     0
 62
     7
  6
Continuous
370
     0
390
51F
1001
AcAecLayerStandard
1000

1000
BORDER
  0
LAYER
  5
A
330
51C
100
AcDbSymbolTableRecord
100
AcDbLayerTableRecord
  2
DEFPOINTS
 70
     0
 62
     7
  6
Continuous
290
     0
370
     0
390
51F
1001
AcAecLayerStandard
1000

1000
DEFPOINTS
  0
LAYER
  5
B
330
51C
100
AcDbSymbolTableRecord
100
AcDbLayerTableRecord
  2
DIM
 70
     0
 62
     7
  6
Continuous
370
     0
390
51F
1001
AcAecLayerStandard
1000

1000
DIM
  0
LAYER
  5
C
330
51C
100
AcDbSymbolTableRecord
100
AcDbLayerTableRecord
  2
HATCH
 70
     0
 62
     7
  6
Continuous
370
     0
390
51F
1001
AcAecLayerStandard
1000

1000
HATCH
  0
LAYER
  5
D
330
51C
100
AcDbSymbolTableRecord
100
AcDbLayerTableRecord
  2
LEGEND
 70
     0
 62
     7
  6
Continuous
370
     0
390
51F
1001
AcAecLayerStandard
1000

1000
LEGEND
  0
LAYER
  5
E
330
51C
100
AcDbSymbolTableRecord
100
AcDbLayerTableRecord
  2
REF
 70
     0
 62
     7
  6
Continuous
370
     0
390
51F
1001
AcAecLayerStandard
1000

1000
REF
  0
LAYER
  5
F
330
51C
100
AcDbSymbolTableRecord
100
AcDbLayerTableRecord
  2
TEXT
 70
     0
 62
     7
  6
Continuous
370
     0
390
51F
1001
AcAecLayerStandard
1000

1000
TEXT
  0
LAYER
  5
10
330
51C
100
AcDbSymbolTableRecord
100
AcDbLayerTableRecord
  2
TITLE
 70
     0
 62
     7
  6
Continuous
370
     0
390
51F
1001
AcAecLayerStandard
1000

1000
TITLE
  0
LAYER
  5
11
330
51C
100
AcDbSymbolTableRecord
100
AcDbLayerTableRecord
  2
Level 11
 70
     0
 62
     7
  6
Continuous
370
     0
390
51F
  0
LAYER
  5
12
330
51C
100
AcDbSymbolTableRecord
100
AcDbLayerTableRecord
  2
Level 12
 70
     0
 62
     7
  6
Continuous
370
     0
390
51F
  0
LAYER
  5
13
330
51C
100
AcDbSymbolTableRecord
100
AcDbLayerTableRecord
  2
Level 13
 70
     0
 62
     7
  6
Continuous
370
     0
390
51F
  0
LAYER
  5
14
330
51C
100
AcDbSymbolTableRecord
100
AcDbLayerTableRecord
  2
Level 14
 70
     0
 62
     7
  6
Continuous
370
     0
390
51F
  0
LAYER
  5
15
330
51C
100
AcDbSymbolTableRecord
100
AcDbLayerTableRecord
  2
Level 15
 70
     0
 62
     7
  6
Continuous
370
     0
390
51F
  0
LAYER
  5
16
330
51C
100
AcDbSymbolTableRecord
100
AcDbLayerTableRecord
  2
Level 16
 70
     0
 62
     7
  6
Continuous
370
     0
390
51F
  0
LAYER
  5
17
330
51C
100
AcDbSymbolTableRecord
100
AcDbLayerTableRecord
  2
Level 17
 70
     0
 62
     7
  6
Continuous
370
     0
390
51F
  0
LAYER
  5
18
330
51C
100
AcDbSymbolTableRecord
100
AcDbLayerTableRecord
  2
Level 18
 70
     0
 62
     7
  6
Continuous
370
     0
390
51F
  0
LAYER
  5
19
330
51C
100
AcDbSymbolTableRecord
100
AcDbLayerTableRecord
  2
Level 19
 70
     0
 62
     7
  6
Continuous
370
     0
390
51F
  0
LAYER
  5
1A
330
51C
100
AcDbSymbolTableRecord
100
AcDbLayerTableRecord
  2
Level 20
 70
     0
 62
     7
  6
Continuous
370
     0
390
51F
  0
LAYER
  5
1B
330
51C
100
AcDbSymbolTableRecord
100
AcDbLayerTableRecord
  2
Level 21
 70
     0
 62
     7
  6
Continuous
370
     0
390
51F
  0
LAYER
  5
1C
330
51C
100
AcDbSymbolTableRecord
100
AcDbLayerTableRecord
  2
Level 22
 70
     0
 62
     7
  6
Continuous
370
     0
390
51F
  0
LAYER
  5
1D
330
51C
100
AcDbSymbolTableRecord
100
AcDbLayerTableRecord
  2
Level 23
 70
     0
 62
     7
  6
Continuous
370
     0
390
51F
  0
LAYER
  5
1E
330
51C
100
AcDbSymbolTableRecord
100
AcDbLayerTableRecord
  2
Level 24
 70
     0
 62
     7
  6
Continuous
370
     0
390
51F
  0
LAYER
  5
1F
330
51C
100
AcDbSymbolTableRecord
100
AcDbLayerTableRecord
  2
Level 25
 70
     0
 62
     7
  6
Continuous
370
     0
390
51F
  0
LAYER
  5
20
330
51C
100
AcDbSymbolTableRecord
100
AcDbLayerTableRecord
  2
Level 26
 70
     0
 62
     7
  6
Continuous
370
     0
390
51F
  0
LAYER
  5
21
330
51C
100
AcDbSymbolTableRecord
100
AcDbLayerTableRecord
  2
Level 27
 70
     0
 62
     7
  6
Continuous
370
     0
390
51F
  0
LAYER
  5
22
330
51C
100
AcDbSymbolTableRecord
100
AcDbLayerTableRecord
  2
Level 28
 70
     0
 62
     7
  6
Continuous
370
     0
390
51F
  0
LAYER
  5
23
330
51C
100
AcDbSymbolTableRecord
100
AcDbLayerTableRecord
  2
Level 29
 70
     0
 62
     7
  6
Continuous
370
     0
390
51F
  0
LAYER
  5
24
330
51C
100
AcDbSymbolTableRecord
100
AcDbLayerTableRecord
  2
Level 30
 70
     0
 62
     7
  6
Continuous
370
     0
390
51F
  0
LAYER
  5
25
330
51C
100
AcDbSymbolTableRecord
100
AcDbLayerTableRecord
  2
Level 31
 70
     0
 62
     7
  6
Continuous
370
     0
390
51F
  0
LAYER
  5
26
330
51C
100
AcDbSymbolTableRecord
100
AcDbLayerTableRecord
  2
Level 32
 70
     0
 62
     7
  6
Continuous
370
     0
390
51F
  0
LAYER
  5
27
330
51C
100
AcDbSymbolTableRecord
100
AcDbLayerTableRecord
  2
Level 33
 70
     0
 62
     7
  6
Continuous
370
     0
390
51F
  0
LAYER
  5
28
330
51C
100
AcDbSymbolTableRecord
100
AcDbLayerTableRecord
  2
Level 34
 70
     0
 62
     7
  6
Continuous
370
     0
390
51F
  0
LAYER
  5
29
330
51C
100
AcDbSymbolTableRecord
100
AcDbLayerTableRecord
  2
Level 35
 70
     0
 62
     7
  6
Continuous
370
     0
390
51F
  0
LAYER
  5
2A
330
51C
100
AcDbSymbolTableRecord
100
AcDbLayerTableRecord
  2
Level 36
 70
     0
 62
     7
  6
Continuous
370
     0
390
51F
  0
LAYER
  5
2B
330
51C
100
AcDbSymbolTableRecord
100
AcDbLayerTableRecord
  2
Level 37
 70
     0
 62
     7
  6
Continuous
370
     0
390
51F
  0
LAYER
  5
2C
330
51C
100
AcDbSymbolTableRecord
100
AcDbLayerTableRecord
  2
Level 38
 70
     0
 62
     7
  6
Continuous
370
     0
390
51F
  0
LAYER
  5
2D
330
51C
100
AcDbSymbolTableRecord
100
AcDbLayerTableRecord
  2
Level 39
 70
     0
 62
     7
  6
Continuous
370
     0
390
51F
  0
LAYER
  5
2E
330
51C
100
AcDbSymbolTableRecord
100
AcDbLayerTableRecord
  2
Level 40
 70
     0
 62
     7
  6
Continuous
370
     0
390
51F
  0
LAYER
  5
2F
330
51C
100
AcDbSymbolTableRecord
100
AcDbLayerTableRecord
  2
Level 41
 70
     0
 62
     7
  6
Continuous
370
     0
390
51F
  0
LAYER
  5
30
330
51C
100
AcDbSymbolTableRecord
100
AcDbLayerTableRecord
  2
Level 42
 70
     0
 62
     7
  6
Continuous
370
     0
390
51F
  0
LAYER
  5
31
330
51C
100
AcDbSymbolTableRecord
100
AcDbLayerTableRecord
  2
Level 43
 70
     0
 62
     7
  6
Continuous
370
     0
390
51F
  0
LAYER
  5
32
330
51C
100
AcDbSymbolTableRecord
100
AcDbLayerTableRecord
  2
Level 44
 70
     0
 62
     7
  6
Continuous
370
     0
390
51F
  0
LAYER
  5
33
330
51C
100
AcDbSymbolTableRecord
100
AcDbLayerTableRecord
  2
Level 45
 70
     0
 62
     7
  6
Continuous
370
     0
390
51F
  0
LAYER
  5
34
330
51C
100
AcDbSymbolTableRecord
100
AcDbLayerTableRecord
  2
Level 46
 70
     0
 62
     7
  6
Continuous
370
     0
390
51F
  0
LAYER
  5
35
330
51C
100
AcDbSymbolTableRecord
100
AcDbLayerTableRecord
  2
Level 47
 70
     0
 62
     7
  6
Continuous
370
     0
390
51F
  0
LAYER
  5
36
330
51C
100
AcDbSymbolTableRecord
100
AcDbLayerTableRecord
  2
Level 48
 70
     0
 62
     7
  6
Continuous
370
     0
390
51F
  0
LAYER
  5
37
330
51C
100
AcDbSymbolTableRecord
100
AcDbLayerTableRecord
  2
Level 49
 70
     0
 62
     7
  6
Continuous
370
     0
390
51F
  0
LAYER
  5
38
330
51C
100
AcDbSymbolTableRecord
100
AcDbLayerTableRecord
  2
Level 50
 70
     0
 62
     7
  6
Continuous
370
     0
390
51F
  0
LAYER
  5
39
330
51C
100
AcDbSymbolTableRecord
100
AcDbLayerTableRecord
  2
Level 51
 70
     0
 62
     7
  6
Continuous
370
     0
390
51F
  0
LAYER
  5
3A
330
51C
100
AcDbSymbolTableRecord
100
AcDbLayerTableRecord
  2
Level 52
 70
     0
 62
     7
  6
Continuous
370
     0
390
51F
  0
LAYER
  5
3B
330
51C
100
AcDbSymbolTableRecord
100
AcDbLayerTableRecord
  2
Level 53
 70
     0
 62
     7
  6
Continuous
370
     0
390
51F
  0
LAYER
  5
3C
330
51C
100
AcDbSymbolTableRecord
100
AcDbLayerTableRecord
  2
Level 54
 70
     0
 62
     7
  6
Continuous
370
     0
390
51F
  0
LAYER
  5
3D
330
51C
100
AcDbSymbolTableRecord
100
AcDbLayerTableRecord
  2
Level 55
 70
     0
 62
     7
  6
Continuous
370
     0
390
51F
  0
LAYER
  5
3E
330
51C
100
AcDbSymbolTableRecord
100
AcDbLayerTableRecord
  2
Level 56
 70
     0
 62
     7
  6
Continuous
370
     0
390
51F
  0
LAYER
  5
3F
330
51C
100
AcDbSymbolTableRecord
100
AcDbLayerTableRecord
  2
Level 57
 70
     0
 62
     7
  6
Continuous
370
     0
390
51F
  0
LAYER
  5
40
330
51C
100
AcDbSymbolTableRecord
100
AcDbLayerTableRecord
  2
Level 58
 70
     0
 62
     7
  6
Continuous
370
     0
390
51F
  0
LAYER
  5
41
330
51C
100
AcDbSymbolTableRecord
100
AcDbLayerTableRecord
  2
Level 59
 70
     0
 62
     7
  6
Continuous
370
     0
390
51F
  0
LAYER
  5
42
330
51C
100
AcDbSymbolTableRecord
100
AcDbLayerTableRecord
  2
Level 60
 70
     0
 62
     7
  6
Continuous
370
     0
390
51F
  0
LAYER
  5
43
330
51C
100
AcDbSymbolTableRecord
100
AcDbLayerTableRecord
  2
Level 61
 70
     0
 62
     7
  6
Continuous
370
     0
390
51F
  0
LAYER
  5
44
330
51C
100
AcDbSymbolTableRecord
100
AcDbLayerTableRecord
  2
Level 62
 70
     0
 62
     7
  6
Continuous
370
     0
390
51F
  0
LAYER
  5
45
330
51C
100
AcDbSymbolTableRecord
100
AcDbLayerTableRecord
  2
_0
 70
     0
 62
     7
  6
Continuous
370
     0
390
51F
1001
AcAecLayerStandard
1000

1000
0
  0
ENDTAB
  0
TABLE
  2
STYLE
  5
527
330
0
100
AcDbSymbolTable
 70
     3
  0
STYLE
  5
526
330
527
100
AcDbSymbolTableRecord
100
AcDbTextStyleTableRecord
  2
Standard
 70
     0
 40
0.0
 41
1.0
 50
0.0
 71
     0
 42
0.12
  3
txt
  4

  0
STYLE
  5
546
330
527
100
AcDbSymbolTableRecord
100
AcDbTextStyleTableRecord
  2
Style-FANCY
 70
     0
 40
0.0
 41
1.0
 50
0.0
 71
     0
 42
0.2
  3
FANCY.shx
  4

  0
STYLE
  5
55C
330
527
100
AcDbSymbolTableRecord
100
AcDbTextStyleTableRecord
  2
Style-Arial
 70
     0
 40
0.0
 41
1.0
 50
0.0
 71
     0
 42
0.2
  3

  4

1001
ACAD
1000
Arial
1071
       39
  0
ENDTAB
  0
TABLE
  2
VIEW
  5
53A
330
0
100
AcDbSymbolTable
 70
     0
  0
ENDTAB
  0
TABLE
  2
UCS
  5
53B
330
0
100
AcDbSymbolTable
 70
     0
  0
ENDTAB
  0
TABLE
  2
APPID
  5
539
330
0
100
AcDbSymbolTable
 70
     3
  0
APPID
  5
541
330
539
100
AcDbSymbolTableRecord
100
AcDbRegAppTableRecord
  2
ACAD
 70
     0
  0
APPID
  5
538
330
539
100
AcDbSymbolTableRecord
100
AcDbRegAppTableRecord
  2
ACAD_PSEXT
 70
     0
  0
APPID
  5
543
330
539
100
AcDbSymbolTableRecord
100
AcDbRegAppTableRecord
  2
AcAecLayerStandard
 70
     0
  0
ENDTAB
  0
TABLE
  2
DIMSTYLE
  5
529
330
0
100
AcDbSymbolTable
 70
     1
100
AcDbDimStyleTable
  0
DIMSTYLE
105
528
330
529
100
AcDbSymbolTableRecord
100
AcDbDimStyleTableRecord
  2
Standard
 70
     0
340
526
  0
ENDTAB
  0
TABLE
  2
BLOCK_RECORD
  5
52C
330
0
100
AcDbSymbolTable
 70
     5
  0
BLOCK_RECORD
  5
52D
102
{ACAD_XDICTIONARY
360
55D
102
}
330
52C
100
AcDbSymbolTableRecord
100
AcDbBlockTableRecord
  2
*Model_Space
340
530
  0
BLOCK_RECORD
  5
532
330
52C
100
AcDbSymbolTableRecord
100
AcDbBlockTableRecord
  2
*Paper_Space
340
535
  0
BLOCK_RECORD
  5
547
330
52C
100
AcDbSymbolTableRecord
100
AcDbBlockTableRecord
  2
TerminatorOpen_0.5
340
0
  0
BLOCK_RECORD
  5
550
330
52C
100
AcDbSymbolTableRecord
100
AcDbBlockTableRecord
  2
LARROW
340
0
102
{BLKREFS
331
46C
331
46E
331
476
331
47C
331
49C
102
}
  0
BLOCK_RECORD
  5
553
330
52C
100
AcDbSymbolTableRecord
100
AcDbBlockTableRecord
  2
LARROW_1
340
0
102
{BLKREFS
331
470
331
472
331
474
331
478
331
47A
331
47E
331
480
331
482
331
484
331
486
331
488
331
48A
331
48C
331
48E
331
490
331
492
331
494
331
496
331
498
331
49A
331
49E
331
4A0
331
4A2
331
4A4
102
}
  0
BLOCK_RECORD
  5
556
330
52C
100
AcDbSymbolTableRecord
100
AcDbBlockTableRecord
  2
LARROW_2
340
0
102
{BLKREFS
331
4A7
102
}
  0
BLOCK_RECORD
  5
559
330
52C
100
AcDbSymbolTableRecord
100
AcDbBlockTableRecord
  2
LARROW_3
340
0
102
{BLKREFS
331
4B5
331
4C0
102
}
  0
ENDTAB
  0
ENDSEC
  0
SECTION
  2
BLOCKS
  0
BLOCK
  5
52E
330
52D
100
AcDbEntity
  8
0
100
AcDbBlockBegin
  2
*Model_Space
 70
     0
 71
     0
 10
0.0
 20
0.0
 30
0.0
  3
*Model_Space
  1

  0
ENDBLK
  5
52F
330
52D
100
AcDbEntity
  8
0
100
AcDbBlockEnd
  0
BLOCK
  5
533
330
532
100
AcDbEntity
 67
     1
  8
0
100
AcDbBlockBegin
  2
*Paper_Space
 70
     0
 71
     0
 10
0.0
 20
0.0
 30
0.0
  3
*Paper_Space
  1

  0
ENDBLK
  5
534
330
532
100
AcDbEntity
 67
     1
  8
0
100
AcDbBlockEnd
  0
BLOCK
  5
54B
330
547
100
AcDbEntity
  8
0
100
AcDbBlockBegin
  2
TerminatorOpen_0.5
 70
     0
 71
     0
 10
0.0
 20
0.0
 30
0.0
  3
TerminatorOpen_0.5
  1

  0
LINE
  5
548
330
547
100
AcDbEntity
  8
0
  6
ByBlock
 62
     0
370
    -2
100
AcDbLine
 10
0.0
 20
0.0
 30
0.0
 11
-1.0
 21
0.0
 31
0.0
  0
LINE
  5
549
330
547
100
AcDbEntity
  8
0
  6
ByBlock
 62
     0
370
    -2
100
AcDbLine
 10
0.0
 20
0.0
 30
0.0
 11
-1.0
 21
0.25
 31
0.0
  0
LINE
  5
54A
330
547
100
AcDbEntity
  8
0
  6
ByBlock
 62
     0
370
    -2
100
AcDbLine
 10
0.0
 20
0.0
 30
0.0
 11
-1.0
 21
-0.25
 31
0.0
  0
ENDBLK
  5
54C
330
547
100
AcDbEntity
  8
0
100
AcDbBlockEnd
  0
BLOCK
  5
551
330
550
100
AcDbEntity
  8
0
100
AcDbBlockBegin
  2
LARROW
 70
     0
 71
     0
 10
0.0
 20
0.0
 30
0.0
  3
LARROW
  1

  0
LWPOLYLINE
  5
46D
330
550
100
AcDbEntity
  8
DIM
  6
Continuous
 62
     7
370
    30
100
AcDbPolyline
 90
       63
 70
   128
 43
0.0
 10
-0.013031
 20
0.001885
 10
0.0
 20
0.0
 10
-0.013021
 20
-0.001885
 10
-0.012615
 20
-0.001573
 10
-0.012042
 20
-0.00101
 10
-0.01176
 20
-0.00049
 10
-0.011688
 20
0.0
 10
-0.011792
 20
0.000552
 10
-0.012094
 20
0.001094
 10
-0.012677
 20
0.001625
 10
-0.013031
 20
0.001885
 10
-0.000385
 20
0.000021
 10
-0.012604
 20
-0.00176
 10
-0.012229
 20
-0.001479
 10
-0.011625
 20
-0.000906
 10
-0.011427
 20
-0.000167
 10
-0.011563
 20
0.000573
 10
-0.011917
 20
0.001083
 10
-0.012344
 20
0.0015
 10
-0.012635
 20
0.001729
 10
-0.001073
 20
0.000021
 10
-0.012052
 20
-0.001552
 10
-0.011667
 20
-0.001302
 10
-0.011469
 20
-0.000979
 10
-0.01125
 20
-0.000562
 10
-0.011135
 20
0.000021
 10
-0.011198
 20
0.0005
 10
-0.011427
 20
0.000875
 10
-0.011896
 20
0.001177
 10
-0.012208
 20
0.001542
 10
-0.001875
 20
0.000021
 10
-0.011448
 20
-0.001323
 10
-0.011021
 20
-0.000792
 10
-0.010896
 20
-0.000146
 10
-0.010958
 20
0.000573
 10
-0.011781
 20
0.001354
 10
-0.002771
 20
0.000063
 10
-0.010896
 20
-0.001073
 10
-0.010781
 20
-0.000698
 10
-0.010531
 20
-0.000094
 10
-0.010688
 20
0.000552
 10
-0.011333
 20
0.001125
 10
-0.003594
 20
0.000063
 10
-0.010604
 20
-0.000833
 10
-0.010375
 20
-0.000375
 10
-0.010271
 20
0.000115
 10
-0.01076
 20
0.000875
 10
-0.004573
 20
0.000063
 10
-0.010177
 20
-0.000625
 10
-0.010021
 20
-0.000281
 10
-0.009979
 20
0.000115
 10
-0.010375
 20
0.000667
 10
-0.00574
 20
0.000063
 10
-0.009823
 20
-0.000396
 10
-0.009708
 20
0.000135
 10
-0.010083
 20
0.000458
 10
-0.006698
 20
0.000063
 10
-0.009552
 20
-0.00024
 10
-0.009615
 20
0.000271
 10
-0.007677
 20
0.000063
 10
-0.009437
 20
-0.000073
 10
-0.00949
 20
0.000083
 10
-0.008885
 20
0.000083
  0
ENDBLK
  5
552
330
550
100
AcDbEntity
  8
0
100
AcDbBlockEnd
  0
BLOCK
  5
554
330
553
100
AcDbEntity
  8
0
100
AcDbBlockBegin
  2
LARROW_1
 70
     0
 71
     0
 10
0.0
 20
0.0
 30
0.0
  3
LARROW_1
  1

  0
LWPOLYLINE
  5
471
330
553
100
AcDbEntity
  8
DIM
  6
Continuous
 62
     7
370
    13
100
AcDbPolyline
 90
       63
 70
   128
 43
0.0
 10
-0.013031
 20
0.001885
 10
0.0
 20
0.0
 10
-0.013021
 20
-0.001885
 10
-0.012615
 20
-0.001573
 10
-0.012042
 20
-0.00101
 10
-0.01176
 20
-0.00049
 10
-0.011688
 20
0.0
 10
-0.011792
 20
0.000552
 10
-0.012094
 20
0.001094
 10
-0.012677
 20
0.001625
 10
-0.013031
 20
0.001885
 10
-0.000385
 20
0.000021
 10
-0.012604
 20
-0.00176
 10
-0.012229
 20
-0.001479
 10
-0.011625
 20
-0.000906
 10
-0.011427
 20
-0.000167
 10
-0.011563
 20
0.000573
 10
-0.011917
 20
0.001083
 10
-0.012344
 20
0.0015
 10
-0.012635
 20
0.001729
 10
-0.001073
 20
0.000021
 10
-0.012052
 20
-0.001552
 10
-0.011667
 20
-0.001302
 10
-0.011469
 20
-0.000979
 10
-0.01125
 20
-0.000562
 10
-0.011135
 20
0.000021
 10
-0.011198
 20
0.0005
 10
-0.011427
 20
0.000875
 10
-0.011896
 20
0.001177
 10
-0.012208
 20
0.001542
 10
-0.001875
 20
0.000021
 10
-0.011448
 20
-0.001323
 10
-0.011021
 20
-0.000792
 10
-0.010896
 20
-0.000146
 10
-0.010958
 20
0.000573
 10
-0.011781
 20
0.001354
 10
-0.002771
 20
0.000063
 10
-0.010896
 20
-0.001073
 10
-0.010781
 20
-0.000698
 10
-0.010531
 20
-0.000094
 10
-0.010688
 20
0.000552
 10
-0.011333
 20
0.001125
 10
-0.003594
 20
0.000063
 10
-0.010604
 20
-0.000833
 10
-0.010375
 20
-0.000375
 10
-0.010271
 20
0.000115
 10
-0.01076
 20
0.000875
 10
-0.004573
 20
0.000063
 10
-0.010177
 20
-0.000625
 10
-0.010021
 20
-0.000281
 10
-0.009979
 20
0.000115
 10
-0.010375
 20
0.000667
 10
-0.00574
 20
0.000063
 10
-0.009823
 20
-0.000396
 10
-0.009708
 20
0.000135
 10
-0.010083
 20
0.000458
 10
-0.006698
 20
0.000063
 10
-0.009552
 20
-0.00024
 10
-0.009615
 20
0.000271
 10
-0.007677
 20
0.000063
 10
-0.009437
 20
-0.000073
 10
-0.00949
 20
0.000083
 10
-0.008885
 20
0.000083
  0
ENDBLK
  5
555
330
553
100
AcDbEntity
  8
0
100
AcDbBlockEnd
  0
BLOCK
  5
557
330
556
100
AcDbEntity
  8
0
100
AcDbBlockBegin
  2
LARROW_2
 70
     0
 71
     0
 10
0.0
 20
0.0
 30
0.0
  3
LARROW_2
  1

  0
LINE
  5
4A8
330
556
100
AcDbEntity
  8
TEXT
  6
Continuous
 62
     7
370
    13
100
AcDbLine
 10
0.0
 20
0.0
 30
0.0
 11
-0.013031
 21
0.001885
 31
0.0
  0
LINE
  5
4A9
330
556
100
AcDbEntity
  8
TEXT
  6
Continuous
 62
     7
370
    13
100
AcDbLine
 10
0.0
 20
0.0
 30
0.0
 11
-0.013021
 21
-0.001885
 31
0.0
  0
LWPOLYLINE
  5
4AA
330
556
100
AcDbEntity
  8
TEXT
  6
Continuous
 62
     7
370
    13
100
AcDbPolyline
 90
        9
 70
   128
 43
0.0
 10
-0.013031
 20
0.001885
 10
-0.01225
 20
0.001292
 10
-0.011896
 20
0.000813
 10
-0.011719
 20
0.000365
 10
-0.011687
 20
-0.000052
 10
-0.01175
 20
-0.000459
 10
-0.011959
 20
-0.000896
 10
-0.012323
 20
-0.001354
 10
-0.013021
 20
-0.001885
  0
LINE
  5
4AB
330
556
100
AcDbEntity
  8
TEXT
  6
Continuous
 62
     7
370
    13
100
AcDbLine
 10
0.0
 20
0.0
 30
0.0
 11
-0.01225
 21
0.001292
 31
0.0
  0
LINE
  5
4AC
330
556
100
AcDbEntity
  8
TEXT
  6
Continuous
 62
     7
370
    13
100
AcDbLine
 10
0.0
 20
0.0
 30
0.0
 11
-0.011896
 21
0.000813
 31
0.0
  0
LINE
  5
4AD
330
556
100
AcDbEntity
  8
TEXT
  6
Continuous
 62
     7
370
    13
100
AcDbLine
 10
0.0
 20
0.0
 30
0.0
 11
-0.011719
 21
0.000365
 31
0.0
  0
LINE
  5
4AE
330
556
100
AcDbEntity
  8
TEXT
  6
Continuous
 62
     7
370
    13
100
AcDbLine
 10
0.0
 20
0.0
 30
0.0
 11
-0.01175
 21
-0.000459
 31
0.0
  0
LINE
  5
4AF
330
556
100
AcDbEntity
  8
TEXT
  6
Continuous
 62
     7
370
    13
100
AcDbLine
 10
0.0
 20
0.0
 30
0.0
 11
-0.011959
 21
-0.000896
 31
0.0
  0
LINE
  5
4B0
330
556
100
AcDbEntity
  8
TEXT
  6
Continuous
 62
     7
370
    13
100
AcDbLine
 10
0.0
 20
0.0
 30
0.0
 11
-0.012323
 21
-0.001354
 31
0.0
  0
LINE
  5
4B1
330
556
100
AcDbEntity
  8
TEXT
  6
Continuous
 62
     7
370
    13
100
AcDbLine
 10
0.0
 20
0.0
 30
0.0
 11
-0.011677
 21
0.0
 31
0.0
  0
ENDBLK
  5
558
330
556
100
AcDbEntity
  8
0
100
AcDbBlockEnd
  0
BLOCK
  5
55A
330
559
100
AcDbEntity
  8
0
100
AcDbBlockBegin
  2
LARROW_3
 70
     0
 71
     0
 10
0.0
 20
0.0
 30
0.0
  3
LARROW_3
  1

  0
LINE
  5
4B6
330
559
100
AcDbEntity
  8
DIM
  6
Continuous
 62
     7
370
    13
100
AcDbLine
 10
0.0
 20
0.0
 30
0.0
 11
-0.013031
 21
0.001886
 31
0.0
  0
LINE
  5
4B7
330
559
100
AcDbEntity
  8
DIM
  6
Continuous
 62
     7
370
    13
100
AcDbLine
 10
0.0
 20
0.0
 30
0.0
 11
-0.013021
 21
-0.001885
 31
0.0
  0
LWPOLYLINE
  5
4B8
330
559
100
AcDbEntity
  8
DIM
  6
Continuous
 62
     7
370
    13
100
AcDbPolyline
 90
        9
 70
   128
 43
0.0
 10
-0.013031
 20
0.001886
 10
-0.01225
 20
0.001292
 10
-0.011896
 20
0.000813
 10
-0.011719
 20
0.000364
 10
-0.011688
 20
-0.000052
 10
-0.01175
 20
-0.000458
 10
-0.011959
 20
-0.000896
 10
-0.012323
 20
-0.001355
 10
-0.013021
 20
-0.001885
  0
LINE
  5
4B9
330
559
100
AcDbEntity
  8
DIM
  6
Continuous
 62
     7
370
    13
100
AcDbLine
 10
0.0
 20
0.0
 30
0.0
 11
-0.01225
 21
0.001292
 31
0.0
  0
LINE
  5
4BA
330
559
100
AcDbEntity
  8
DIM
  6
Continuous
 62
     7
370
    13
100
AcDbLine
 10
0.0
 20
0.0
 30
0.0
 11
-0.011896
 21
0.000813
 31
0.0
  0
LINE
  5
4BB
330
559
100
AcDbEntity
  8
DIM
  6
Continuous
 62
     7
370
    13
100
AcDbLine
 10
0.0
 20
0.0
 30
0.0
 11
-0.011719
 21
0.000364
 31
0.0
  0
LINE
  5
4BC
330
559
100
AcDbEntity
  8
DIM
  6
Continuous
 62
     7
370
    13
100
AcDbLine
 10
0.0
 20
0.0
 30
0.0
 11
-0.01175
 21
-0.000458
 31
0.0
  0
LINE
  5
4BD
330
559
100
AcDbEntity
  8
DIM
  6
Continuous
 62
     7
370
    13
100
AcDbLine
 10
0.0
 20
0.0
 30
0.0
 11
-0.011959
 21
-0.000896
 31
0.0
  0
LINE
  5
4BE
330
559
100
AcDbEntity
  8
DIM
  6
Continuous
 62
     7
370
    13
100
AcDbLine
 10
0.0
 20
0.0
 30
0.0
 11
-0.012323
 21
-0.001355
 31
0.0
  0
LINE
  5
4BF
330
559
100
AcDbEntity
  8
DIM
  6
Continuous
 62
     7
370
    13
100
AcDbLine
 10
0.0
 20
0.0
 30
0.0
 11
-0.011677
 21
0.0
 31
0.0
  0
ENDBLK
  5
55B
330
559
100
AcDbEntity
  8
0
100
AcDbBlockEnd
  0
ENDSEC
  0
SECTION
  2
ENTITIES
  0
LINE
  5
5B
330
52D
100
AcDbEntity
  8
_0
  6
Continuous
 62
     7
370
    13
100
AcDbLine
 10
11.081542
 20
0.25
 30
0.0
 11
10.875
 21
0.25
 31
0.0
  0
POINT
  5
5C
330
52D
100
AcDbEntity
  8
_0
  6
Continuous
 62
     7
370
    30
100
AcDbPoint
 10
0.986906
 20
7.875
 30
0.0
  0
LINE
  5
5D
330
52D
100
AcDbEntity
  8
_0
  6
Continuous
 62
     7
370
    13
100
AcDbLine
 10
11.081542
 20
8.25
 30
0.0
 11
10.875
 21
8.25
 31
0.0
  0
LINE
  5
5E
330
52D
100
AcDbEntity
  8
_0
  6
Continuous
 62
     7
370
    13
100
AcDbLine
 10
10.875
 20
0.043458
 30
0.0
 11
10.875
 21
0.25
 31
0.0
  0
LINE
  5
5F
330
52D
100
AcDbEntity
  8
_0
  6
Continuous
 62
     7
370
    13
100
AcDbLine
 10
0.125
 20
0.043458
 30
0.0
 11
0.125
 21
0.25
 31
0.0
  0
LINE
  5
60
330
52D
100
AcDbEntity
  8
_0
  6
Continuous
 62
     7
370
    13
100
AcDbLine
 10
10.875
 20
8.25
 30
0.0
 11
10.875
 21
8.456542
 31
0.0
  0
LINE
  5
61
330
52D
100
AcDbEntity
  8
_0
  6
Continuous
 62
     7
370
    13
100
AcDbLine
 10
0.125
 20
0.25
 30
0.0
 11
-0.081542
 21
0.25
 31
0.0
  0
LINE
  5
62
330
52D
100
AcDbEntity
  8
_0
  6
Continuous
 62
     7
370
    13
100
AcDbLine
 10
0.125
 20
8.25
 30
0.0
 11
-0.081542
 21
8.25
 31
0.0
  0
LINE
  5
63
330
52D
100
AcDbEntity
  8
_0
  6
Continuous
 62
     7
370
    13
100
AcDbLine
 10
0.125
 20
8.25
 30
0.0
 11
0.125
 21
8.456542
 31
0.0
  0
LINE
  5
64
330
52D
100
AcDbEntity
  8
BORDER
  6
Continuous
 62
     7
370
    30
100
AcDbLine
 10
0.986906
 20
0.625
 30
0.0
 11
0.986906
 21
7.875
 31
0.0
  0
LINE
  5
65
330
52D
100
AcDbEntity
  8
DIM
  6
Continuous
 62
     7
370
    13
100
AcDbLine
 10
9.651708
 20
3.574594
 30
0.0
 11
9.651708
 21
3.730635
 31
0.0
  0
POINT
  5
66
330
52D
100
AcDbEntity
  8
_0
  6
Continuous
 62
     7
370
    30
100
AcDbPoint
 10
7.194365
 20
4.361396
 30
0.0
  0
POINT
  5
67
330
52D
100
AcDbEntity
  8
_0
  6
Continuous
 62
     7
370
    30
100
AcDbPoint
 10
7.194365
 20
4.330146
 30
0.0
  0
POINT
  5
68
330
52D
100
AcDbEntity
  8
_0
  6
Continuous
 62
     7
370
    30
100
AcDbPoint
 10
7.194365
 20
4.298896
 30
0.0
  0
POINT
  5
69
330
52D
100
AcDbEntity
  8
_0
  6
Continuous
 62
     7
370
    30
100
AcDbPoint
 10
7.225615
 20
4.345771
 30
0.0
  0
POINT
  5
6A
330
52D
100
AcDbEntity
  8
_0
  6
Continuous
 62
     7
370
    30
100
AcDbPoint
 10
7.288115
 20
4.252021
 30
0.0
  0
POINT
  5
6B
330
52D
100
AcDbEntity
  8
_0
  6
Continuous
 62
     7
370
    30
100
AcDbPoint
 10
7.288115
 20
4.220771
 30
0.0
  0
POINT
  5
6C
330
52D
100
AcDbEntity
  8
_0
  6
Continuous
 62
     7
370
    30
100
AcDbPoint
 10
7.288115
 20
4.189521
 30
0.0
  0
POINT
  5
6D
330
52D
100
AcDbEntity
  8
_0
  6
Continuous
 62
     7
370
    30
100
AcDbPoint
 10
7.319365
 20
4.298896
 30
0.0
  0
POINT
  5
6E
330
52D
100
AcDbEntity
  8
_0
  6
Continuous
 62
     7
370
    30
100
AcDbPoint
 10
7.319365
 20
4.267646
 30
0.0
  0
POINT
  5
6F
330
52D
100
AcDbEntity
  8
_0
  6
Continuous
 62
     7
370
    30
100
AcDbPoint
 10
7.319365
 20
4.236396
 30
0.0
  0
POINT
  5
70
330
52D
100
AcDbEntity
  8
_0
  6
Continuous
 62
     7
370
    30
100
AcDbPoint
 10
7.319365
 20
4.205146
 30
0.0
  0
POINT
  5
71
330
52D
100
AcDbEntity
  8
_0
  6
Continuous
 62
     7
370
    30
100
AcDbPoint
 10
7.319365
 20
4.173896
 30
0.0
  0
POINT
  5
72
330
52D
100
AcDbEntity
  8
_0
  6
Continuous
 62
     7
370
    30
100
AcDbPoint
 10
7.350615
 20
4.314521
 30
0.0
  0
POINT
  5
73
330
52D
100
AcDbEntity
  8
_0
  6
Continuous
 62
     7
370
    30
100
AcDbPoint
 10
7.350615
 20
4.283271
 30
0.0
  0
POINT
  5
74
330
52D
100
AcDbEntity
  8
_0
  6
Continuous
 62
     7
370
    30
100
AcDbPoint
 10
7.350615
 20
4.252021
 30
0.0
  0
POINT
  5
75
330
52D
100
AcDbEntity
  8
_0
  6
Continuous
 62
     7
370
    30
100
AcDbPoint
 10
7.350615
 20
4.220771
 30
0.0
  0
POINT
  5
76
330
52D
100
AcDbEntity
  8
_0
  6
Continuous
 62
     7
370
    30
100
AcDbPoint
 10
7.350615
 20
4.189521
 30
0.0
  0
POINT
  5
77
330
52D
100
AcDbEntity
  8
_0
  6
Continuous
 62
     7
370
    30
100
AcDbPoint
 10
7.381865
 20
4.361396
 30
0.0
  0
POINT
  5
78
330
52D
100
AcDbEntity
  8
_0
  6
Continuous
 62
     7
370
    30
100
AcDbPoint
 10
7.381865
 20
4.330146
 30
0.0
  0
POINT
  5
79
330
52D
100
AcDbEntity
  8
_0
  6
Continuous
 62
     7
370
    30
100
AcDbPoint
 10
7.381865
 20
4.298896
 30
0.0
  0
POINT
  5
7A
330
52D
100
AcDbEntity
  8
_0
  6
Continuous
 62
     7
370
    30
100
AcDbPoint
 10
7.381865
 20
4.267646
 30
0.0
  0
POINT
  5
7B
330
52D
100
AcDbEntity
  8
_0
  6
Continuous
 62
     7
370
    30
100
AcDbPoint
 10
7.381865
 20
4.236396
 30
0.0
  0
POINT
  5
7C
330
52D
100
AcDbEntity
  8
_0
  6
Continuous
 62
     7
370
    30
100
AcDbPoint
 10
7.381865
 20
4.205146
 30
0.0
  0
POINT
  5
7D
330
52D
100
AcDbEntity
  8
_0
  6
Continuous
 62
     7
370
    30
100
AcDbPoint
 10
7.381865
 20
4.173896
 30
0.0
  0
POINT
  5
7E
330
52D
100
AcDbEntity
  8
_0
  6
Continuous
 62
     7
370
    30
100
AcDbPoint
 10
7.413115
 20
4.564521
 30
0.0
  0
POINT
  5
7F
330
52D
100
AcDbEntity
  8
_0
  6
Continuous
 62
     7
370
    30
100
AcDbPoint
 10
7.413115
 20
4.533271
 30
0.0
  0
POINT
  5
80
330
52D
100
AcDbEntity
  8
_0
  6
Continuous
 62
     7
370
    30
100
AcDbPoint
 10
7.413115
 20
4.502021
 30
0.0
  0
POINT
  5
81
330
52D
100
AcDbEntity
  8
_0
  6
Continuous
 62
     7
370
    30
100
AcDbPoint
 10
7.413115
 20
4.470771
 30
0.0
  0
POINT
  5
82
330
52D
100
AcDbEntity
  8
_0
  6
Continuous
 62
     7
370
    30
100
AcDbPoint
 10
7.413115
 20
4.439521
 30
0.0
  0
POINT
  5
83
330
52D
100
AcDbEntity
  8
_0
  6
Continuous
 62
     7
370
    30
100
AcDbPoint
 10
7.413115
 20
4.408271
 30
0.0
  0
POINT
  5
84
330
52D
100
AcDbEntity
  8
_0
  6
Continuous
 62
     7
370
    30
100
AcDbPoint
 10
7.413115
 20
4.377021
 30
0.0
  0
POINT
  5
85
330
52D
100
AcDbEntity
  8
_0
  6
Continuous
 62
     7
370
    30
100
AcDbPoint
 10
7.413115
 20
4.345771
 30
0.0
  0
POINT
  5
86
330
52D
100
AcDbEntity
  8
_0
  6
Continuous
 62
     7
370
    30
100
AcDbPoint
 10
7.413115
 20
4.314521
 30
0.0
  0
POINT
  5
87
330
52D
100
AcDbEntity
  8
_0
  6
Continuous
 62
     7
370
    30
100
AcDbPoint
 10
7.413115
 20
4.283271
 30
0.0
  0
POINT
  5
88
330
52D
100
AcDbEntity
  8
_0
  6
Continuous
 62
     7
370
    30
100
AcDbPoint
 10
7.413115
 20
4.252021
 30
0.0
  0
POINT
  5
89
330
52D
100
AcDbEntity
  8
_0
  6
Continuous
 62
     7
370
    30
100
AcDbPoint
 10
7.413115
 20
4.220771
 30
0.0
  0
POINT
  5
8A
330
52D
100
AcDbEntity
  8
_0
  6
Continuous
 62
     7
370
    30
100
AcDbPoint
 10
7.413115
 20
4.189521
 30
0.0
  0
POINT
  5
8B
330
52D
100
AcDbEntity
  8
_0
  6
Continuous
 62
     7
370
    30
100
AcDbPoint
 10
7.444365
 20
4.642646
 30
0.0
  0
POINT
  5
8C
330
52D
100
AcDbEntity
  8
_0
  6
Continuous
 62
     7
370
    30
100
AcDbPoint
 10
7.444365
 20
4.611396
 30
0.0
  0
POINT
  5
8D
330
52D
100
AcDbEntity
  8
_0
  6
Continuous
 62
     7
370
    30
100
AcDbPoint
 10
7.444365
 20
4.580146
 30
0.0
  0
POINT
  5
8E
330
52D
100
AcDbEntity
  8
_0
  6
Continuous
 62
     7
370
    30
100
AcDbPoint
 10
7.444365
 20
4.548896
 30
0.0
  0
POINT
  5
8F
330
52D
100
AcDbEntity
  8
_0
  6
Continuous
 62
     7
370
    30
100
AcDbPoint
 10
7.444365
 20
4.517646
 30
0.0
  0
POINT
  5
90
330
52D
100
AcDbEntity
  8
_0
  6
Continuous
 62
     7
370
    30
100
AcDbPoint
 10
7.444365
 20
4.486396
 30
0.0
  0
POINT
  5
91
330
52D
100
AcDbEntity
  8
_0
  6
Continuous
 62
     7
370
    30
100
AcDbPoint
 10
7.444365
 20
4.455146
 30
0.0
  0
POINT
  5
92
330
52D
100
AcDbEntity
  8
_0
  6
Continuous
 62
     7
370
    30
100
AcDbPoint
 10
7.444365
 20
4.423896
 30
0.0
  0
POINT
  5
93
330
52D
100
AcDbEntity
  8
_0
  6
Continuous
 62
     7
370
    30
100
AcDbPoint
 10
7.444365
 20
4.392646
 30
0.0
  0
POINT
  5
94
330
52D
100
AcDbEntity
  8
_0
  6
Continuous
 62
     7
370
    30
100
AcDbPoint
 10
7.444365
 20
4.361396
 30
0.0
  0
POINT
  5
95
330
52D
100
AcDbEntity
  8
_0
  6
Continuous
 62
     7
370
    30
100
AcDbPoint
 10
7.444365
 20
4.330146
 30
0.0
  0
POINT
  5
96
330
52D
100
AcDbEntity
  8
_0
  6
Continuous
 62
     7
370
    30
100
AcDbPoint
 10
7.444365
 20
4.298896
 30
0.0
  0
POINT
  5
97
330
52D
100
AcDbEntity
  8
_0
  6
Continuous
 62
     7
370
    30
100
AcDbPoint
 10
7.444365
 20
4.267646
 30
0.0
  0
POINT
  5
98
330
52D
100
AcDbEntity
  8
_0
  6
Continuous
 62
     7
370
    30
100
AcDbPoint
 10
7.444365
 20
4.236396
 30
0.0
  0
POINT
  5
99
330
52D
100
AcDbEntity
  8
_0
  6
Continuous
 62
     7
370
    30
100
AcDbPoint
 10
7.444365
 20
4.205146
 30
0.0
  0
POINT
  5
9A
330
52D
100
AcDbEntity
  8
_0
  6
Continuous
 62
     7
370
    30
100
AcDbPoint
 10
7.444365
 20
4.173896
 30
0.0
  0
POINT
  5
9B
330
52D
100
AcDbEntity
  8
_0
  6
Continuous
 62
     7
370
    30
100
AcDbPoint
 10
7.475615
 20
4.658271
 30
0.0
  0
POINT
  5
9C
330
52D
100
AcDbEntity
  8
_0
  6
Continuous
 62
     7
370
    30
100
AcDbPoint
 10
7.475615
 20
4.627021
 30
0.0
  0
POINT
  5
9D
330
52D
100
AcDbEntity
  8
_0
  6
Continuous
 62
     7
370
    30
100
AcDbPoint
 10
7.475615
 20
4.595771
 30
0.0
  0
POINT
  5
9E
330
52D
100
AcDbEntity
  8
_0
  6
Continuous
 62
     7
370
    30
100
AcDbPoint
 10
7.475615
 20
4.564521
 30
0.0
  0
POINT
  5
9F
330
52D
100
AcDbEntity
  8
_0
  6
Continuous
 62
     7
370
    30
100
AcDbPoint
 10
7.475615
 20
4.533271
 30
0.0
  0
POINT
  5
A0
330
52D
100
AcDbEntity
  8
_0
  6
Continuous
 62
     7
370
    30
100
AcDbPoint
 10
7.475615
 20
4.502021
 30
0.0
  0
POINT
  5
A1
330
52D
100
AcDbEntity
  8
_0
  6
Continuous
 62
     7
370
    30
100
AcDbPoint
 10
7.475615
 20
4.470771
 30
0.0
  0
POINT
  5
A2
330
52D
100
AcDbEntity
  8
_0
  6
Continuous
 62
     7
370
    30
100
AcDbPoint
 10
7.475615
 20
4.439521
 30
0.0
  0
POINT
  5
A3
330
52D
100
AcDbEntity
  8
_0
  6
Continuous
 62
     7
370
    30
100
AcDbPoint
 10
7.475615
 20
4.408271
 30
0.0
  0
POINT
  5
A4
330
52D
100
AcDbEntity
  8
_0
  6
Continuous
 62
     7
370
    30
100
AcDbPoint
 10
7.475615
 20
4.377021
 30
0.0
  0
POINT
  5
A5
330
52D
100
AcDbEntity
  8
_0
  6
Continuous
 62
     7
370
    30
100
AcDbPoint
 10
7.475615
 20
4.345771
 30
0.0
  0
POINT
  5
A6
330
52D
100
AcDbEntity
  8
_0
  6
Continuous
 62
     7
370
    30
100
AcDbPoint
 10
7.475615
 20
4.314521
 30
0.0
  0
POINT
  5
A7
330
52D
100
AcDbEntity
  8
_0
  6
Continuous
 62
     7
370
    30
100
AcDbPoint
 10
7.475615
 20
4.283271
 30
0.0
  0
POINT
  5
A8
330
52D
100
AcDbEntity
  8
_0
  6
Continuous
 62
     7
370
    30
100
AcDbPoint
 10
7.475615
 20
4.252021
 30
0.0
  0
POINT
  5
A9
330
52D
100
AcDbEntity
  8
_0
  6
Continuous
 62
     7
370
    30
100
AcDbPoint
 10
7.475615
 20
4.220771
 30
0.0
  0
POINT
  5
AA
330
52D
100
AcDbEntity
  8
_0
  6
Continuous
 62
     7
370
    30
100
AcDbPoint
 10
7.475615
 20
4.189521
 30
0.0
  0
POINT
  5
AB
330
52D
100
AcDbEntity
  8
_0
  6
Continuous
 62
     7
370
    30
100
AcDbPoint
 10
7.506865
 20
4.642646
 30
0.0
  0
POINT
  5
AC
330
52D
100
AcDbEntity
  8
_0
  6
Continuous
 62
     7
370
    30
100
AcDbPoint
 10
7.506865
 20
4.611396
 30
0.0
  0
POINT
  5
AD
330
52D
100
AcDbEntity
  8
_0
  6
Continuous
 62
     7
370
    30
100
AcDbPoint
 10
7.506865
 20
4.580146
 30
0.0
  0
POINT
  5
AE
330
52D
100
AcDbEntity
  8
_0
  6
Continuous
 62
     7
370
    30
100
AcDbPoint
 10
7.506865
 20
4.548896
 30
0.0
  0
POINT
  5
AF
330
52D
100
AcDbEntity
  8
_0
  6
Continuous
 62
     7
370
    30
100
AcDbPoint
 10
7.506865
 20
4.517646
 30
0.0
  0
POINT
  5
B0
330
52D
100
AcDbEntity
  8
_0
  6
Continuous
 62
     7
370
    30
100
AcDbPoint
 10
7.506865
 20
4.486396
 30
0.0
  0
POINT
  5
B1
330
52D
100
AcDbEntity
  8
_0
  6
Continuous
 62
     7
370
    30
100
AcDbPoint
 10
7.506865
 20
4.455146
 30
0.0
  0
POINT
  5
B2
330
52D
100
AcDbEntity
  8
_0
  6
Continuous
 62
     7
370
    30
100
AcDbPoint
 10
7.506865
 20
4.423896
 30
0.0
  0
POINT
  5
B3
330
52D
100
AcDbEntity
  8
_0
  6
Continuous
 62
     7
370
    30
100
AcDbPoint
 10
7.506865
 20
4.392646
 30
0.0
  0
POINT
  5
B4
330
52D
100
AcDbEntity
  8
_0
  6
Continuous
 62
     7
370
    30
100
AcDbPoint
 10
7.506865
 20
4.361396
 30
0.0
  0
POINT
  5
B5
330
52D
100
AcDbEntity
  8
_0
  6
Continuous
 62
     7
370
    30
100
AcDbPoint
 10
7.506865
 20
4.330146
 30
0.0
  0
POINT
  5
B6
330
52D
100
AcDbEntity
  8
_0
  6
Continuous
 62
     7
370
    30
100
AcDbPoint
 10
7.506865
 20
4.298896
 30
0.0
  0
POINT
  5
B7
330
52D
100
AcDbEntity
  8
_0
  6
Continuous
 62
     7
370
    30
100
AcDbPoint
 10
7.506865
 20
4.267646
 30
0.0
  0
POINT
  5
B8
330
52D
100
AcDbEntity
  8
_0
  6
Continuous
 62
     7
370
    30
100
AcDbPoint
 10
7.506865
 20
4.236396
 30
0.0
  0
POINT
  5
B9
330
52D
100
AcDbEntity
  8
_0
  6
Continuous
 62
     7
370
    30
100
AcDbPoint
 10
7.506865
 20
4.205146
 30
0.0
  0
POINT
  5
BA
330
52D
100
AcDbEntity
  8
_0
  6
Continuous
 62
     7
370
    30
100
AcDbPoint
 10
7.506865
 20
4.173896
 30
0.0
  0
POINT
  5
BB
330
52D
100
AcDbEntity
  8
_0
  6
Continuous
 62
     7
370
    30
100
AcDbPoint
 10
7.538115
 20
4.658271
 30
0.0
  0
POINT
  5
BC
330
52D
100
AcDbEntity
  8
_0
  6
Continuous
 62
     7
370
    30
100
AcDbPoint
 10
7.538115
 20
4.627021
 30
0.0
  0
POINT
  5
BD
330
52D
100
AcDbEntity
  8
_0
  6
Continuous
 62
     7
370
    30
100
AcDbPoint
 10
7.538115
 20
4.595771
 30
0.0
  0
POINT
  5
BE
330
52D
100
AcDbEntity
  8
_0
  6
Continuous
 62
     7
370
    30
100
AcDbPoint
 10
7.538115
 20
4.564521
 30
0.0
  0
POINT
  5
BF
330
52D
100
AcDbEntity
  8
_0
  6
Continuous
 62
     7
370
    30
100
AcDbPoint
 10
7.538115
 20
4.533271
 30
0.0
  0
POINT
  5
C0
330
52D
100
AcDbEntity
  8
_0
  6
Continuous
 62
     7
370
    30
100
AcDbPoint
 10
7.538115
 20
4.502021
 30
0.0
  0
POINT
  5
C1
330
52D
100
AcDbEntity
  8
_0
  6
Continuous
 62
     7
370
    30
100
AcDbPoint
 10
7.538115
 20
4.470771
 30
0.0
  0
POINT
  5
C2
330
52D
100
AcDbEntity
  8
_0
  6
Continuous
 62
     7
370
    30
100
AcDbPoint
 10
7.538115
 20
4.439521
 30
0.0
  0
POINT
  5
C3
330
52D
100
AcDbEntity
  8
_0
  6
Continuous
 62
     7
370
    30
100
AcDbPoint
 10
7.538115
 20
4.408271
 30
0.0
  0
POINT
  5
C4
330
52D
100
AcDbEntity
  8
_0
  6
Continuous
 62
     7
370
    30
100
AcDbPoint
 10
7.538115
 20
4.377021
 30
0.0
  0
POINT
  5
C5
330
52D
100
AcDbEntity
  8
_0
  6
Continuous
 62
     7
370
    30
100
AcDbPoint
 10
7.538115
 20
4.345771
 30
0.0
  0
POINT
  5
C6
330
52D
100
AcDbEntity
  8
_0
  6
Continuous
 62
     7
370
    30
100
AcDbPoint
 10
7.538115
 20
4.314521
 30
0.0
  0
POINT
  5
C7
330
52D
100
AcDbEntity
  8
_0
  6
Continuous
 62
     7
370
    30
100
AcDbPoint
 10
7.538115
 20
4.283271
 30
0.0
  0
POINT
  5
C8
330
52D
100
AcDbEntity
  8
_0
  6
Continuous
 62
     7
370
    30
100
AcDbPoint
 10
7.538115
 20
4.252021
 30
0.0
  0
POINT
  5
C9
330
52D
100
AcDbEntity
  8
_0
  6
Continuous
 62
     7
370
    30
100
AcDbPoint
 10
7.538115
 20
4.220771
 30
0.0
  0
POINT
  5
CA
330
52D
100
AcDbEntity
  8
_0
  6
Continuous
 62
     7
370
    30
100
AcDbPoint
 10
7.538115
 20
4.189521
 30
0.0
  0
POINT
  5
CB
330
52D
100
AcDbEntity
  8
_0
  6
Continuous
 62
     7
370
    30
100
AcDbPoint
 10
7.569365
 20
4.642646
 30
0.0
  0
POINT
  5
CC
330
52D
100
AcDbEntity
  8
_0
  6
Continuous
 62
     7
370
    30
100
AcDbPoint
 10
7.569365
 20
4.611396
 30
0.0
  0
POINT
  5
CD
330
52D
100
AcDbEntity
  8
_0
  6
Continuous
 62
     7
370
    30
100
AcDbPoint
 10
7.569365
 20
4.580146
 30
0.0
  0
POINT
  5
CE
330
52D
100
AcDbEntity
  8
_0
  6
Continuous
 62
     7
370
    30
100
AcDbPoint
 10
7.569365
 20
4.548896
 30
0.0
  0
POINT
  5
CF
330
52D
100
AcDbEntity
  8
_0
  6
Continuous
 62
     7
370
    30
100
AcDbPoint
 10
7.569365
 20
4.517646
 30
0.0
  0
POINT
  5
D0
330
52D
100
AcDbEntity
  8
_0
  6
Continuous
 62
     7
370
    30
100
AcDbPoint
 10
7.569365
 20
4.486396
 30
0.0
  0
POINT
  5
D1
330
52D
100
AcDbEntity
  8
_0
  6
Continuous
 62
     7
370
    30
100
AcDbPoint
 10
7.569365
 20
4.455146
 30
0.0
  0
POINT
  5
D2
330
52D
100
AcDbEntity
  8
_0
  6
Continuous
 62
     7
370
    30
100
AcDbPoint
 10
7.569365
 20
4.423896
 30
0.0
  0
POINT
  5
D3
330
52D
100
AcDbEntity
  8
_0
  6
Continuous
 62
     7
370
    30
100
AcDbPoint
 10
7.569365
 20
4.392646
 30
0.0
  0
POINT
  5
D4
330
52D
100
AcDbEntity
  8
_0
  6
Continuous
 62
     7
370
    30
100
AcDbPoint
 10
7.569365
 20
4.361396
 30
0.0
  0
POINT
  5
D5
330
52D
100
AcDbEntity
  8
_0
  6
Continuous
 62
     7
370
    30
100
AcDbPoint
 10
7.569365
 20
4.330146
 30
0.0
  0
POINT
  5
D6
330
52D
100
AcDbEntity
  8
_0
  6
Continuous
 62
     7
370
    30
100
AcDbPoint
 10
7.569365
 20
4.298896
 30
0.0
  0
POINT
  5
D7
330
52D
100
AcDbEntity
  8
_0
  6
Continuous
 62
     7
370
    30
100
AcDbPoint
 10
7.569365
 20
4.267646
 30
0.0
  0
POINT
  5
D8
330
52D
100
AcDbEntity
  8
_0
  6
Continuous
 62
     7
370
    30
100
AcDbPoint
 10
7.569365
 20
4.236396
 30
0.0
  0
POINT
  5
D9
330
52D
100
AcDbEntity
  8
_0
  6
Continuous
 62
     7
370
    30
100
AcDbPoint
 10
7.569365
 20
4.205146
 30
0.0
  0
POINT
  5
DA
330
52D
100
AcDbEntity
  8
_0
  6
Continuous
 62
     7
370
    30
100
AcDbPoint
 10
7.569365
 20
4.173896
 30
0.0
  0
POINT
  5
DB
330
52D
100
AcDbEntity
  8
_0
  6
Continuous
 62
     7
370
    30
100
AcDbPoint
 10
7.600615
 20
4.658271
 30
0.0
  0
POINT
  5
DC
330
52D
100
AcDbEntity
  8
_0
  6
Continuous
 62
     7
370
    30
100
AcDbPoint
 10
7.600615
 20
4.627021
 30
0.0
  0
POINT
  5
DD
330
52D
100
AcDbEntity
  8
_0
  6
Continuous
 62
     7
370
    30
100
AcDbPoint
 10
7.600615
 20
4.595771
 30
0.0
  0
POINT
  5
DE
330
52D
100
AcDbEntity
  8
_0
  6
Continuous
 62
     7
370
    30
100
AcDbPoint
 10
7.600615
 20
4.564521
 30
0.0
  0
POINT
  5
DF
330
52D
100
AcDbEntity
  8
_0
  6
Continuous
 62
     7
370
    30
100
AcDbPoint
 10
7.600615
 20
4.533271
 30
0.0
  0
POINT
  5
E0
330
52D
100
AcDbEntity
  8
_0
  6
Continuous
 62
     7
370
    30
100
AcDbPoint
 10
7.600615
 20
4.502021
 30
0.0
  0
POINT
  5
E1
330
52D
100
AcDbEntity
  8
_0
  6
Continuous
 62
     7
370
    30
100
AcDbPoint
 10
7.600615
 20
4.470771
 30
0.0
  0
POINT
  5
E2
330
52D
100
AcDbEntity
  8
_0
  6
Continuous
 62
     7
370
    30
100
AcDbPoint
 10
7.600615
 20
4.439521
 30
0.0
  0
POINT
  5
E3
330
52D
100
AcDbEntity
  8
_0
  6
Continuous
 62
     7
370
    30
100
AcDbPoint
 10
7.600615
 20
4.408271
 30
0.0
  0
POINT
  5
E4
330
52D
100
AcDbEntity
  8
_0
  6
Continuous
 62
     7
370
    30
100
AcDbPoint
 10
7.600615
 20
4.377021
 30
0.0
  0
POINT
  5
E5
330
52D
100
AcDbEntity
  8
_0
  6
Continuous
 62
     7
370
    30
100
AcDbPoint
 10
7.600615
 20
4.345771
 30
0.0
  0
POINT
  5
E6
330
52D
100
AcDbEntity
  8
_0
  6
Continuous
 62
     7
370
    30
100
AcDbPoint
 10
7.600615
 20
4.314521
 30
0.0
  0
POINT
  5
E7
330
52D
100
AcDbEntity
  8
_0
  6
Continuous
 62
     7
370
    30
100
AcDbPoint
 10
7.600615
 20
4.283271
 30
0.0
  0
POINT
  5
E8
330
52D
100
AcDbEntity
  8
_0
  6
Continuous
 62
     7
370
    30
100
AcDbPoint
 10
7.600615
 20
4.252021
 30
0.0
  0
POINT
  5
E9
330
52D
100
AcDbEntity
  8
_0
  6
Continuous
 62
     7
370
    30
100
AcDbPoint
 10
7.600615
 20
4.220771
 30
0.0
  0
POINT
  5
EA
330
52D
100
AcDbEntity
  8
_0
  6
Continuous
 62
     7
370
    30
100
AcDbPoint
 10
7.600615
 20
4.189521
 30
0.0
  0
POINT
  5
EB
330
52D
100
AcDbEntity
  8
_0
  6
Continuous
 62
     7
370
    30
100
AcDbPoint
 10
7.631865
 20
4.642646
 30
0.0
  0
POINT
  5
EC
330
52D
100
AcDbEntity
  8
_0
  6
Continuous
 62
     7
370
    30
100
AcDbPoint
 10
7.631865
 20
4.611396
 30
0.0
  0
POINT
  5
ED
330
52D
100
AcDbEntity
  8
_0
  6
Continuous
 62
     7
370
    30
100
AcDbPoint
 10
7.631865
 20
4.580146
 30
0.0
  0
POINT
  5
EE
330
52D
100
AcDbEntity
  8
_0
  6
Continuous
 62
     7
370
    30
100
AcDbPoint
 10
7.631865
 20
4.548896
 30
0.0
  0
POINT
  5
EF
330
52D
100
AcDbEntity
  8
_0
  6
Continuous
 62
     7
370
    30
100
AcDbPoint
 10
7.631865
 20
4.517646
 30
0.0
  0
POINT
  5
F0
330
52D
100
AcDbEntity
  8
_0
  6
Continuous
 62
     7
370
    30
100
AcDbPoint
 10
7.631865
 20
4.486396
 30
0.0
  0
POINT
  5
F1
330
52D
100
AcDbEntity
  8
_0
  6
Continuous
 62
     7
370
    30
100
AcDbPoint
 10
7.631865
 20
4.455146
 30
0.0
  0
POINT
  5
F2
330
52D
100
AcDbEntity
  8
_0
  6
Continuous
 62
     7
370
    30
100
AcDbPoint
 10
7.631865
 20
4.423896
 30
0.0
  0
POINT
  5
F3
330
52D
100
AcDbEntity
  8
_0
  6
Continuous
 62
     7
370
    30
100
AcDbPoint
 10
7.631865
 20
4.392646
 30
0.0
  0
POINT
  5
F4
330
52D
100
AcDbEntity
  8
_0
  6
Continuous
 62
     7
370
    30
100
AcDbPoint
 10
7.631865
 20
4.361396
 30
0.0
  0
POINT
  5
F5
330
52D
100
AcDbEntity
  8
_0
  6
Continuous
 62
     7
370
    30
100
AcDbPoint
 10
7.631865
 20
4.330146
 30
0.0
  0
POINT
  5
F6
330
52D
100
AcDbEntity
  8
_0
  6
Continuous
 62
     7
370
    30
100
AcDbPoint
 10
7.631865
 20
4.298896
 30
0.0
  0
POINT
  5
F7
330
52D
100
AcDbEntity
  8
_0
  6
Continuous
 62
     7
370
    30
100
AcDbPoint
 10
7.631865
 20
4.267646
 30
0.0
  0
POINT
  5
F8
330
52D
100
AcDbEntity
  8
_0
  6
Continuous
 62
     7
370
    30
100
AcDbPoint
 10
7.631865
 20
4.236396
 30
0.0
  0
POINT
  5
F9
330
52D
100
AcDbEntity
  8
_0
  6
Continuous
 62
     7
370
    30
100
AcDbPoint
 10
7.631865
 20
4.205146
 30
0.0
  0
POINT
  5
FA
330
52D
100
AcDbEntity
  8
_0
  6
Continuous
 62
     7
370
    30
100
AcDbPoint
 10
7.631865
 20
4.173896
 30
0.0
  0
POINT
  5
FB
330
52D
100
AcDbEntity
  8
_0
  6
Continuous
 62
     7
370
    30
100
AcDbPoint
 10
7.663115
 20
4.658271
 30
0.0
  0
POINT
  5
FC
330
52D
100
AcDbEntity
  8
_0
  6
Continuous
 62
     7
370
    30
100
AcDbPoint
 10
7.663115
 20
4.627021
 30
0.0
  0
POINT
  5
FD
330
52D
100
AcDbEntity
  8
_0
  6
Continuous
 62
     7
370
    30
100
AcDbPoint
 10
7.663115
 20
4.595771
 30
0.0
  0
POINT
  5
FE
330
52D
100
AcDbEntity
  8
_0
  6
Continuous
 62
     7
370
    30
100
AcDbPoint
 10
7.663115
 20
4.564521
 30
0.0
  0
POINT
  5
FF
330
52D
100
AcDbEntity
  8
_0
  6
Continuous
 62
     7
370
    30
100
AcDbPoint
 10
7.663115
 20
4.533271
 30
0.0
  0
POINT
  5
100
330
52D
100
AcDbEntity
  8
_0
  6
Continuous
 62
     7
370
    30
100
AcDbPoint
 10
7.663115
 20
4.502021
 30
0.0
  0
POINT
  5
101
330
52D
100
AcDbEntity
  8
_0
  6
Continuous
 62
     7
370
    30
100
AcDbPoint
 10
7.663115
 20
4.470771
 30
0.0
  0
POINT
  5
102
330
52D
100
AcDbEntity
  8
_0
  6
Continuous
 62
     7
370
    30
100
AcDbPoint
 10
7.663115
 20
4.439521
 30
0.0
  0
POINT
  5
103
330
52D
100
AcDbEntity
  8
_0
  6
Continuous
 62
     7
370
    30
100
AcDbPoint
 10
7.663115
 20
4.408271
 30
0.0
  0
POINT
  5
104
330
52D
100
AcDbEntity
  8
_0
  6
Continuous
 62
     7
370
    30
100
AcDbPoint
 10
7.663115
 20
4.377021
 30
0.0
  0
POINT
  5
105
330
52D
100
AcDbEntity
  8
_0
  6
Continuous
 62
     7
370
    30
100
AcDbPoint
 10
7.663115
 20
4.345771
 30
0.0
  0
POINT
  5
106
330
52D
100
AcDbEntity
  8
_0
  6
Continuous
 62
     7
370
    30
100
AcDbPoint
 10
7.663115
 20
4.314521
 30
0.0
  0
POINT
  5
107
330
52D
100
AcDbEntity
  8
_0
  6
Continuous
 62
     7
370
    30
100
AcDbPoint
 10
7.663115
 20
4.283271
 30
0.0
  0
POINT
  5
108
330
52D
100
AcDbEntity
  8
_0
  6
Continuous
 62
     7
370
    30
100
AcDbPoint
 10
7.663115
 20
4.252021
 30
0.0
  0
POINT
  5
109
330
52D
100
AcDbEntity
  8
_0
  6
Continuous
 62
     7
370
    30
100
AcDbPoint
 10
7.663115
 20
4.220771
 30
0.0
  0
POINT
  5
10A
330
52D
100
AcDbEntity
  8
_0
  6
Continuous
 62
     7
370
    30
100
AcDbPoint
 10
7.663115
 20
4.189521
 30
0.0
  0
POINT
  5
10B
330
52D
100
AcDbEntity
  8
_0
  6
Continuous
 62
     7
370
    30
100
AcDbPoint
 10
7.694365
 20
4.642646
 30
0.0
  0
POINT
  5
10C
330
52D
100
AcDbEntity
  8
_0
  6
Continuous
 62
     7
370
    30
100
AcDbPoint
 10
7.694365
 20
4.611396
 30
0.0
  0
POINT
  5
10D
330
52D
100
AcDbEntity
  8
_0
  6
Continuous
 62
     7
370
    30
100
AcDbPoint
 10
7.694365
 20
4.580146
 30
0.0
  0
POINT
  5
10E
330
52D
100
AcDbEntity
  8
_0
  6
Continuous
 62
     7
370
    30
100
AcDbPoint
 10
7.694365
 20
4.548896
 30
0.0
  0
POINT
  5
10F
330
52D
100
AcDbEntity
  8
_0
  6
Continuous
 62
     7
370
    30
100
AcDbPoint
 10
7.694365
 20
4.517646
 30
0.0
  0
POINT
  5
110
330
52D
100
AcDbEntity
  8
_0
  6
Continuous
 62
     7
370
    30
100
AcDbPoint
 10
7.694365
 20
4.486396
 30
0.0
  0
POINT
  5
111
330
52D
100
AcDbEntity
  8
_0
  6
Continuous
 62
     7
370
    30
100
AcDbPoint
 10
7.694365
 20
4.455146
 30
0.0
  0
POINT
  5
112
330
52D
100
AcDbEntity
  8
_0
  6
Continuous
 62
     7
370
    30
100
AcDbPoint
 10
7.694365
 20
4.423896
 30
0.0
  0
POINT
  5
113
330
52D
100
AcDbEntity
  8
_0
  6
Continuous
 62
     7
370
    30
100
AcDbPoint
 10
7.694365
 20
4.392646
 30
0.0
  0
POINT
  5
114
330
52D
100
AcDbEntity
  8
_0
  6
Continuous
 62
     7
370
    30
100
AcDbPoint
 10
7.694365
 20
4.361396
 30
0.0
  0
POINT
  5
115
330
52D
100
AcDbEntity
  8
_0
  6
Continuous
 62
     7
370
    30
100
AcDbPoint
 10
7.694365
 20
4.330146
 30
0.0
  0
POINT
  5
116
330
52D
100
AcDbEntity
  8
_0
  6
Continuous
 62
     7
370
    30
100
AcDbPoint
 10
7.694365
 20
4.298896
 30
0.0
  0
POINT
  5
117
330
52D
100
AcDbEntity
  8
_0
  6
Continuous
 62
     7
370
    30
100
AcDbPoint
 10
7.694365
 20
4.267646
 30
0.0
  0
POINT
  5
118
330
52D
100
AcDbEntity
  8
_0
  6
Continuous
 62
     7
370
    30
100
AcDbPoint
 10
7.694365
 20
4.236396
 30
0.0
  0
POINT
  5
119
330
52D
100
AcDbEntity
  8
_0
  6
Continuous
 62
     7
370
    30
100
AcDbPoint
 10
7.694365
 20
4.205146
 30
0.0
  0
POINT
  5
11A
330
52D
100
AcDbEntity
  8
_0
  6
Continuous
 62
     7
370
    30
100
AcDbPoint
 10
7.694365
 20
4.173896
 30
0.0
  0
POINT
  5
11B
330
52D
100
AcDbEntity
  8
_0
  6
Continuous
 62
     7
370
    30
100
AcDbPoint
 10
7.100615
 20
4.283271
 30
0.0
  0
POINT
  5
11C
330
52D
100
AcDbEntity
  8
_0
  6
Continuous
 62
     7
370
    30
100
AcDbPoint
 10
7.100615
 20
4.252021
 30
0.0
  0
POINT
  5
11D
330
52D
100
AcDbEntity
  8
_0
  6
Continuous
 62
     7
370
    30
100
AcDbPoint
 10
7.100615
 20
4.220771
 30
0.0
  0
POINT
  5
11E
330
52D
100
AcDbEntity
  8
_0
  6
Continuous
 62
     7
370
    30
100
AcDbPoint
 10
7.100615
 20
4.189521
 30
0.0
  0
POINT
  5
11F
330
52D
100
AcDbEntity
  8
_0
  6
Continuous
 62
     7
370
    30
100
AcDbPoint
 10
7.069365
 20
4.298896
 30
0.0
  0
POINT
  5
120
330
52D
100
AcDbEntity
  8
_0
  6
Continuous
 62
     7
370
    30
100
AcDbPoint
 10
7.069365
 20
4.267646
 30
0.0
  0
POINT
  5
121
330
52D
100
AcDbEntity
  8
_0
  6
Continuous
 62
     7
370
    30
100
AcDbPoint
 10
7.069365
 20
4.236396
 30
0.0
  0
POINT
  5
122
330
52D
100
AcDbEntity
  8
_0
  6
Continuous
 62
     7
370
    30
100
AcDbPoint
 10
7.069365
 20
4.205146
 30
0.0
  0
POINT
  5
123
330
52D
100
AcDbEntity
  8
_0
  6
Continuous
 62
     7
370
    30
100
AcDbPoint
 10
7.069365
 20
4.173896
 30
0.0
  0
POINT
  5
124
330
52D
100
AcDbEntity
  8
_0
  6
Continuous
 62
     7
370
    30
100
AcDbPoint
 10
7.038115
 20
4.345771
 30
0.0
  0
POINT
  5
125
330
52D
100
AcDbEntity
  8
_0
  6
Continuous
 62
     7
370
    30
100
AcDbPoint
 10
7.038115
 20
4.314521
 30
0.0
  0
POINT
  5
126
330
52D
100
AcDbEntity
  8
_0
  6
Continuous
 62
     7
370
    30
100
AcDbPoint
 10
7.038115
 20
4.283271
 30
0.0
  0
POINT
  5
127
330
52D
100
AcDbEntity
  8
_0
  6
Continuous
 62
     7
370
    30
100
AcDbPoint
 10
7.038115
 20
4.252021
 30
0.0
  0
POINT
  5
128
330
52D
100
AcDbEntity
  8
_0
  6
Continuous
 62
     7
370
    30
100
AcDbPoint
 10
7.038115
 20
4.220771
 30
0.0
  0
POINT
  5
129
330
52D
100
AcDbEntity
  8
_0
  6
Continuous
 62
     7
370
    30
100
AcDbPoint
 10
7.038115
 20
4.189521
 30
0.0
  0
POINT
  5
12A
330
52D
100
AcDbEntity
  8
_0
  6
Continuous
 62
     7
370
    30
100
AcDbPoint
 10
7.006865
 20
4.361396
 30
0.0
  0
POINT
  5
12B
330
52D
100
AcDbEntity
  8
_0
  6
Continuous
 62
     7
370
    30
100
AcDbPoint
 10
7.006865
 20
4.330146
 30
0.0
  0
POINT
  5
12C
330
52D
100
AcDbEntity
  8
_0
  6
Continuous
 62
     7
370
    30
100
AcDbPoint
 10
7.006865
 20
4.298896
 30
0.0
  0
POINT
  5
12D
330
52D
100
AcDbEntity
  8
_0
  6
Continuous
 62
     7
370
    30
100
AcDbPoint
 10
7.006865
 20
4.267646
 30
0.0
  0
POINT
  5
12E
330
52D
100
AcDbEntity
  8
_0
  6
Continuous
 62
     7
370
    30
100
AcDbPoint
 10
7.006865
 20
4.236396
 30
0.0
  0
POINT
  5
12F
330
52D
100
AcDbEntity
  8
_0
  6
Continuous
 62
     7
370
    30
100
AcDbPoint
 10
7.006865
 20
4.205146
 30
0.0
  0
POINT
  5
130
330
52D
100
AcDbEntity
  8
_0
  6
Continuous
 62
     7
370
    30
100
AcDbPoint
 10
7.006865
 20
4.173896
 30
0.0
  0
POINT
  5
131
330
52D
100
AcDbEntity
  8
_0
  6
Continuous
 62
     7
370
    30
100
AcDbPoint
 10
6.975615
 20
4.627021
 30
0.0
  0
POINT
  5
132
330
52D
100
AcDbEntity
  8
_0
  6
Continuous
 62
     7
370
    30
100
AcDbPoint
 10
6.975615
 20
4.595771
 30
0.0
  0
POINT
  5
133
330
52D
100
AcDbEntity
  8
_0
  6
Continuous
 62
     7
370
    30
100
AcDbPoint
 10
6.975615
 20
4.564521
 30
0.0
  0
POINT
  5
134
330
52D
100
AcDbEntity
  8
_0
  6
Continuous
 62
     7
370
    30
100
AcDbPoint
 10
6.975615
 20
4.533271
 30
0.0
  0
POINT
  5
135
330
52D
100
AcDbEntity
  8
_0
  6
Continuous
 62
     7
370
    30
100
AcDbPoint
 10
6.975615
 20
4.502021
 30
0.0
  0
POINT
  5
136
330
52D
100
AcDbEntity
  8
_0
  6
Continuous
 62
     7
370
    30
100
AcDbPoint
 10
6.975615
 20
4.470771
 30
0.0
  0
POINT
  5
137
330
52D
100
AcDbEntity
  8
_0
  6
Continuous
 62
     7
370
    30
100
AcDbPoint
 10
6.975615
 20
4.439521
 30
0.0
  0
POINT
  5
138
330
52D
100
AcDbEntity
  8
_0
  6
Continuous
 62
     7
370
    30
100
AcDbPoint
 10
6.975615
 20
4.408271
 30
0.0
  0
POINT
  5
139
330
52D
100
AcDbEntity
  8
_0
  6
Continuous
 62
     7
370
    30
100
AcDbPoint
 10
6.975615
 20
4.377021
 30
0.0
  0
POINT
  5
13A
330
52D
100
AcDbEntity
  8
_0
  6
Continuous
 62
     7
370
    30
100
AcDbPoint
 10
6.975615
 20
4.345771
 30
0.0
  0
POINT
  5
13B
330
52D
100
AcDbEntity
  8
_0
  6
Continuous
 62
     7
370
    30
100
AcDbPoint
 10
6.975615
 20
4.314521
 30
0.0
  0
POINT
  5
13C
330
52D
100
AcDbEntity
  8
_0
  6
Continuous
 62
     7
370
    30
100
AcDbPoint
 10
6.975615
 20
4.283271
 30
0.0
  0
POINT
  5
13D
330
52D
100
AcDbEntity
  8
_0
  6
Continuous
 62
     7
370
    30
100
AcDbPoint
 10
6.975615
 20
4.252021
 30
0.0
  0
POINT
  5
13E
330
52D
100
AcDbEntity
  8
_0
  6
Continuous
 62
     7
370
    30
100
AcDbPoint
 10
6.975615
 20
4.220771
 30
0.0
  0
POINT
  5
13F
330
52D
100
AcDbEntity
  8
_0
  6
Continuous
 62
     7
370
    30
100
AcDbPoint
 10
6.975615
 20
4.189521
 30
0.0
  0
POINT
  5
140
330
52D
100
AcDbEntity
  8
_0
  6
Continuous
 62
     7
370
    30
100
AcDbPoint
 10
6.944365
 20
4.642646
 30
0.0
  0
POINT
  5
141
330
52D
100
AcDbEntity
  8
_0
  6
Continuous
 62
     7
370
    30
100
AcDbPoint
 10
6.944365
 20
4.611396
 30
0.0
  0
POINT
  5
142
330
52D
100
AcDbEntity
  8
_0
  6
Continuous
 62
     7
370
    30
100
AcDbPoint
 10
6.944365
 20
4.580146
 30
0.0
  0
POINT
  5
143
330
52D
100
AcDbEntity
  8
_0
  6
Continuous
 62
     7
370
    30
100
AcDbPoint
 10
6.944365
 20
4.548896
 30
0.0
  0
POINT
  5
144
330
52D
100
AcDbEntity
  8
_0
  6
Continuous
 62
     7
370
    30
100
AcDbPoint
 10
6.944365
 20
4.517646
 30
0.0
  0
POINT
  5
145
330
52D
100
AcDbEntity
  8
_0
  6
Continuous
 62
     7
370
    30
100
AcDbPoint
 10
6.944365
 20
4.486396
 30
0.0
  0
POINT
  5
146
330
52D
100
AcDbEntity
  8
_0
  6
Continuous
 62
     7
370
    30
100
AcDbPoint
 10
6.944365
 20
4.455146
 30
0.0
  0
POINT
  5
147
330
52D
100
AcDbEntity
  8
_0
  6
Continuous
 62
     7
370
    30
100
AcDbPoint
 10
6.944365
 20
4.423896
 30
0.0
  0
POINT
  5
148
330
52D
100
AcDbEntity
  8
_0
  6
Continuous
 62
     7
370
    30
100
AcDbPoint
 10
6.944365
 20
4.392646
 30
0.0
  0
POINT
  5
149
330
52D
100
AcDbEntity
  8
_0
  6
Continuous
 62
     7
370
    30
100
AcDbPoint
 10
6.944365
 20
4.361396
 30
0.0
  0
POINT
  5
14A
330
52D
100
AcDbEntity
  8
_0
  6
Continuous
 62
     7
370
    30
100
AcDbPoint
 10
6.944365
 20
4.330146
 30
0.0
  0
POINT
  5
14B
330
52D
100
AcDbEntity
  8
_0
  6
Continuous
 62
     7
370
    30
100
AcDbPoint
 10
6.944365
 20
4.298896
 30
0.0
  0
POINT
  5
14C
330
52D
100
AcDbEntity
  8
_0
  6
Continuous
 62
     7
370
    30
100
AcDbPoint
 10
6.944365
 20
4.267646
 30
0.0
  0
POINT
  5
14D
330
52D
100
AcDbEntity
  8
_0
  6
Continuous
 62
     7
370
    30
100
AcDbPoint
 10
6.944365
 20
4.236396
 30
0.0
  0
POINT
  5
14E
330
52D
100
AcDbEntity
  8
_0
  6
Continuous
 62
     7
370
    30
100
AcDbPoint
 10
6.944365
 20
4.205146
 30
0.0
  0
POINT
  5
14F
330
52D
100
AcDbEntity
  8
_0
  6
Continuous
 62
     7
370
    30
100
AcDbPoint
 10
6.944365
 20
4.173896
 30
0.0
  0
POINT
  5
150
330
52D
100
AcDbEntity
  8
_0
  6
Continuous
 62
     7
370
    30
100
AcDbPoint
 10
6.913115
 20
4.658271
 30
0.0
  0
POINT
  5
151
330
52D
100
AcDbEntity
  8
_0
  6
Continuous
 62
     7
370
    30
100
AcDbPoint
 10
6.913115
 20
4.627021
 30
0.0
  0
POINT
  5
152
330
52D
100
AcDbEntity
  8
_0
  6
Continuous
 62
     7
370
    30
100
AcDbPoint
 10
6.913115
 20
4.595771
 30
0.0
  0
POINT
  5
153
330
52D
100
AcDbEntity
  8
_0
  6
Continuous
 62
     7
370
    30
100
AcDbPoint
 10
6.913115
 20
4.564521
 30
0.0
  0
POINT
  5
154
330
52D
100
AcDbEntity
  8
_0
  6
Continuous
 62
     7
370
    30
100
AcDbPoint
 10
6.913115
 20
4.533271
 30
0.0
  0
POINT
  5
155
330
52D
100
AcDbEntity
  8
_0
  6
Continuous
 62
     7
370
    30
100
AcDbPoint
 10
6.913115
 20
4.502021
 30
0.0
  0
POINT
  5
156
330
52D
100
AcDbEntity
  8
_0
  6
Continuous
 62
     7
370
    30
100
AcDbPoint
 10
6.913115
 20
4.470771
 30
0.0
  0
POINT
  5
157
330
52D
100
AcDbEntity
  8
_0
  6
Continuous
 62
     7
370
    30
100
AcDbPoint
 10
6.913115
 20
4.439521
 30
0.0
  0
POINT
  5
158
330
52D
100
AcDbEntity
  8
_0
  6
Continuous
 62
     7
370
    30
100
AcDbPoint
 10
6.913115
 20
4.408271
 30
0.0
  0
POINT
  5
159
330
52D
100
AcDbEntity
  8
_0
  6
Continuous
 62
     7
370
    30
100
AcDbPoint
 10
6.913115
 20
4.377021
 30
0.0
  0
POINT
  5
15A
330
52D
100
AcDbEntity
  8
_0
  6
Continuous
 62
     7
370
    30
100
AcDbPoint
 10
6.913115
 20
4.345771
 30
0.0
  0
POINT
  5
15B
330
52D
100
AcDbEntity
  8
_0
  6
Continuous
 62
     7
370
    30
100
AcDbPoint
 10
6.913115
 20
4.314521
 30
0.0
  0
POINT
  5
15C
330
52D
100
AcDbEntity
  8
_0
  6
Continuous
 62
     7
370
    30
100
AcDbPoint
 10
6.913115
 20
4.283271
 30
0.0
  0
POINT
  5
15D
330
52D
100
AcDbEntity
  8
_0
  6
Continuous
 62
     7
370
    30
100
AcDbPoint
 10
6.913115
 20
4.252021
 30
0.0
  0
POINT
  5
15E
330
52D
100
AcDbEntity
  8
_0
  6
Continuous
 62
     7
370
    30
100
AcDbPoint
 10
6.913115
 20
4.220771
 30
0.0
  0
POINT
  5
15F
330
52D
100
AcDbEntity
  8
_0
  6
Continuous
 62
     7
370
    30
100
AcDbPoint
 10
6.913115
 20
4.189521
 30
0.0
  0
POINT
  5
160
330
52D
100
AcDbEntity
  8
_0
  6
Continuous
 62
     7
370
    30
100
AcDbPoint
 10
6.881865
 20
4.642646
 30
0.0
  0
POINT
  5
161
330
52D
100
AcDbEntity
  8
_0
  6
Continuous
 62
     7
370
    30
100
AcDbPoint
 10
6.881865
 20
4.611396
 30
0.0
  0
POINT
  5
162
330
52D
100
AcDbEntity
  8
_0
  6
Continuous
 62
     7
370
    30
100
AcDbPoint
 10
6.881865
 20
4.580146
 30
0.0
  0
POINT
  5
163
330
52D
100
AcDbEntity
  8
_0
  6
Continuous
 62
     7
370
    30
100
AcDbPoint
 10
6.881865
 20
4.548896
 30
0.0
  0
POINT
  5
164
330
52D
100
AcDbEntity
  8
_0
  6
Continuous
 62
     7
370
    30
100
AcDbPoint
 10
6.881865
 20
4.517646
 30
0.0
  0
POINT
  5
165
330
52D
100
AcDbEntity
  8
_0
  6
Continuous
 62
     7
370
    30
100
AcDbPoint
 10
6.881865
 20
4.486396
 30
0.0
  0
POINT
  5
166
330
52D
100
AcDbEntity
  8
_0
  6
Continuous
 62
     7
370
    30
100
AcDbPoint
 10
6.881865
 20
4.455146
 30
0.0
  0
POINT
  5
167
330
52D
100
AcDbEntity
  8
_0
  6
Continuous
 62
     7
370
    30
100
AcDbPoint
 10
6.881865
 20
4.423896
 30
0.0
  0
POINT
  5
168
330
52D
100
AcDbEntity
  8
_0
  6
Continuous
 62
     7
370
    30
100
AcDbPoint
 10
6.881865
 20
4.392646
 30
0.0
  0
POINT
  5
169
330
52D
100
AcDbEntity
  8
_0
  6
Continuous
 62
     7
370
    30
100
AcDbPoint
 10
6.881865
 20
4.361396
 30
0.0
  0
POINT
  5
16A
330
52D
100
AcDbEntity
  8
_0
  6
Continuous
 62
     7
370
    30
100
AcDbPoint
 10
6.881865
 20
4.330146
 30
0.0
  0
POINT
  5
16B
330
52D
100
AcDbEntity
  8
_0
  6
Continuous
 62
     7
370
    30
100
AcDbPoint
 10
6.881865
 20
4.298896
 30
0.0
  0
POINT
  5
16C
330
52D
100
AcDbEntity
  8
_0
  6
Continuous
 62
     7
370
    30
100
AcDbPoint
 10
6.881865
 20
4.267646
 30
0.0
  0
POINT
  5
16D
330
52D
100
AcDbEntity
  8
_0
  6
Continuous
 62
     7
370
    30
100
AcDbPoint
 10
6.881865
 20
4.236396
 30
0.0
  0
POINT
  5
16E
330
52D
100
AcDbEntity
  8
_0
  6
Continuous
 62
     7
370
    30
100
AcDbPoint
 10
6.881865
 20
4.205146
 30
0.0
  0
POINT
  5
16F
330
52D
100
AcDbEntity
  8
_0
  6
Continuous
 62
     7
370
    30
100
AcDbPoint
 10
6.881865
 20
4.173896
 30
0.0
  0
POINT
  5
170
330
52D
100
AcDbEntity
  8
_0
  6
Continuous
 62
     7
370
    30
100
AcDbPoint
 10
6.850615
 20
4.658271
 30
0.0
  0
POINT
  5
171
330
52D
100
AcDbEntity
  8
_0
  6
Continuous
 62
     7
370
    30
100
AcDbPoint
 10
6.850615
 20
4.627021
 30
0.0
  0
POINT
  5
172
330
52D
100
AcDbEntity
  8
_0
  6
Continuous
 62
     7
370
    30
100
AcDbPoint
 10
6.850615
 20
4.595771
 30
0.0
  0
POINT
  5
173
330
52D
100
AcDbEntity
  8
_0
  6
Continuous
 62
     7
370
    30
100
AcDbPoint
 10
6.850615
 20
4.564521
 30
0.0
  0
POINT
  5
174
330
52D
100
AcDbEntity
  8
_0
  6
Continuous
 62
     7
370
    30
100
AcDbPoint
 10
6.850615
 20
4.533271
 30
0.0
  0
POINT
  5
175
330
52D
100
AcDbEntity
  8
_0
  6
Continuous
 62
     7
370
    30
100
AcDbPoint
 10
6.850615
 20
4.502021
 30
0.0
  0
POINT
  5
176
330
52D
100
AcDbEntity
  8
_0
  6
Continuous
 62
     7
370
    30
100
AcDbPoint
 10
6.850615
 20
4.470771
 30
0.0
  0
POINT
  5
177
330
52D
100
AcDbEntity
  8
_0
  6
Continuous
 62
     7
370
    30
100
AcDbPoint
 10
6.850615
 20
4.439521
 30
0.0
  0
POINT
  5
178
330
52D
100
AcDbEntity
  8
_0
  6
Continuous
 62
     7
370
    30
100
AcDbPoint
 10
6.850615
 20
4.408271
 30
0.0
  0
POINT
  5
179
330
52D
100
AcDbEntity
  8
_0
  6
Continuous
 62
     7
370
    30
100
AcDbPoint
 10
6.850615
 20
4.377021
 30
0.0
  0
POINT
  5
17A
330
52D
100
AcDbEntity
  8
_0
  6
Continuous
 62
     7
370
    30
100
AcDbPoint
 10
6.850615
 20
4.345771
 30
0.0
  0
POINT
  5
17B
330
52D
100
AcDbEntity
  8
_0
  6
Continuous
 62
     7
370
    30
100
AcDbPoint
 10
6.850615
 20
4.314521
 30
0.0
  0
POINT
  5
17C
330
52D
100
AcDbEntity
  8
_0
  6
Continuous
 62
     7
370
    30
100
AcDbPoint
 10
6.850615
 20
4.283271
 30
0.0
  0
POINT
  5
17D
330
52D
100
AcDbEntity
  8
_0
  6
Continuous
 62
     7
370
    30
100
AcDbPoint
 10
6.850615
 20
4.252021
 30
0.0
  0
POINT
  5
17E
330
52D
100
AcDbEntity
  8
_0
  6
Continuous
 62
     7
370
    30
100
AcDbPoint
 10
6.850615
 20
4.220771
 30
0.0
  0
POINT
  5
17F
330
52D
100
AcDbEntity
  8
_0
  6
Continuous
 62
     7
370
    30
100
AcDbPoint
 10
6.850615
 20
4.189521
 30
0.0
  0
POINT
  5
180
330
52D
100
AcDbEntity
  8
_0
  6
Continuous
 62
     7
370
    30
100
AcDbPoint
 10
6.819365
 20
4.642646
 30
0.0
  0
POINT
  5
181
330
52D
100
AcDbEntity
  8
_0
  6
Continuous
 62
     7
370
    30
100
AcDbPoint
 10
6.819365
 20
4.611396
 30
0.0
  0
POINT
  5
182
330
52D
100
AcDbEntity
  8
_0
  6
Continuous
 62
     7
370
    30
100
AcDbPoint
 10
6.819365
 20
4.580146
 30
0.0
  0
POINT
  5
183
330
52D
100
AcDbEntity
  8
_0
  6
Continuous
 62
     7
370
    30
100
AcDbPoint
 10
6.819365
 20
4.548896
 30
0.0
  0
POINT
  5
184
330
52D
100
AcDbEntity
  8
_0
  6
Continuous
 62
     7
370
    30
100
AcDbPoint
 10
6.819365
 20
4.517646
 30
0.0
  0
POINT
  5
185
330
52D
100
AcDbEntity
  8
_0
  6
Continuous
 62
     7
370
    30
100
AcDbPoint
 10
6.819365
 20
4.486396
 30
0.0
  0
POINT
  5
186
330
52D
100
AcDbEntity
  8
_0
  6
Continuous
 62
     7
370
    30
100
AcDbPoint
 10
6.819365
 20
4.455146
 30
0.0
  0
POINT
  5
187
330
52D
100
AcDbEntity
  8
_0
  6
Continuous
 62
     7
370
    30
100
AcDbPoint
 10
6.819365
 20
4.423896
 30
0.0
  0
POINT
  5
188
330
52D
100
AcDbEntity
  8
_0
  6
Continuous
 62
     7
370
    30
100
AcDbPoint
 10
6.819365
 20
4.392646
 30
0.0
  0
POINT
  5
189
330
52D
100
AcDbEntity
  8
_0
  6
Continuous
 62
     7
370
    30
100
AcDbPoint
 10
6.819365
 20
4.361396
 30
0.0
  0
POINT
  5
18A
330
52D
100
AcDbEntity
  8
_0
  6
Continuous
 62
     7
370
    30
100
AcDbPoint
 10
6.819365
 20
4.330146
 30
0.0
  0
POINT
  5
18B
330
52D
100
AcDbEntity
  8
_0
  6
Continuous
 62
     7
370
    30
100
AcDbPoint
 10
6.819365
 20
4.298896
 30
0.0
  0
POINT
  5
18C
330
52D
100
AcDbEntity
  8
_0
  6
Continuous
 62
     7
370
    30
100
AcDbPoint
 10
6.819365
 20
4.267646
 30
0.0
  0
POINT
  5
18D
330
52D
100
AcDbEntity
  8
_0
  6
Continuous
 62
     7
370
    30
100
AcDbPoint
 10
6.819365
 20
4.236396
 30
0.0
  0
POINT
  5
18E
330
52D
100
AcDbEntity
  8
_0
  6
Continuous
 62
     7
370
    30
100
AcDbPoint
 10
6.819365
 20
4.205146
 30
0.0
  0
POINT
  5
18F
330
52D
100
AcDbEntity
  8
_0
  6
Continuous
 62
     7
370
    30
100
AcDbPoint
 10
6.819365
 20
4.173896
 30
0.0
  0
POINT
  5
190
330
52D
100
AcDbEntity
  8
_0
  6
Continuous
 62
     7
370
    30
100
AcDbPoint
 10
6.788115
 20
4.658271
 30
0.0
  0
POINT
  5
191
330
52D
100
AcDbEntity
  8
_0
  6
Continuous
 62
     7
370
    30
100
AcDbPoint
 10
6.788115
 20
4.627021
 30
0.0
  0
POINT
  5
192
330
52D
100
AcDbEntity
  8
_0
  6
Continuous
 62
     7
370
    30
100
AcDbPoint
 10
6.788115
 20
4.595771
 30
0.0
  0
POINT
  5
193
330
52D
100
AcDbEntity
  8
_0
  6
Continuous
 62
     7
370
    30
100
AcDbPoint
 10
6.788115
 20
4.564521
 30
0.0
  0
POINT
  5
194
330
52D
100
AcDbEntity
  8
_0
  6
Continuous
 62
     7
370
    30
100
AcDbPoint
 10
6.788115
 20
4.533271
 30
0.0
  0
POINT
  5
195
330
52D
100
AcDbEntity
  8
_0
  6
Continuous
 62
     7
370
    30
100
AcDbPoint
 10
6.788115
 20
4.502021
 30
0.0
  0
POINT
  5
196
330
52D
100
AcDbEntity
  8
_0
  6
Continuous
 62
     7
370
    30
100
AcDbPoint
 10
6.788115
 20
4.470771
 30
0.0
  0
POINT
  5
197
330
52D
100
AcDbEntity
  8
_0
  6
Continuous
 62
     7
370
    30
100
AcDbPoint
 10
6.788115
 20
4.439521
 30
0.0
  0
POINT
  5
198
330
52D
100
AcDbEntity
  8
_0
  6
Continuous
 62
     7
370
    30
100
AcDbPoint
 10
6.788115
 20
4.408271
 30
0.0
  0
POINT
  5
199
330
52D
100
AcDbEntity
  8
_0
  6
Continuous
 62
     7
370
    30
100
AcDbPoint
 10
6.788115
 20
4.377021
 30
0.0
  0
POINT
  5
19A
330
52D
100
AcDbEntity
  8
_0
  6
Continuous
 62
     7
370
    30
100
AcDbPoint
 10
6.788115
 20
4.345771
 30
0.0
  0
POINT
  5
19B
330
52D
100
AcDbEntity
  8
_0
  6
Continuous
 62
     7
370
    30
100
AcDbPoint
 10
6.788115
 20
4.314521
 30
0.0
  0
POINT
  5
19C
330
52D
100
AcDbEntity
  8
_0
  6
Continuous
 62
     7
370
    30
100
AcDbPoint
 10
6.788115
 20
4.283271
 30
0.0
  0
POINT
  5
19D
330
52D
100
AcDbEntity
  8
_0
  6
Continuous
 62
     7
370
    30
100
AcDbPoint
 10
6.788115
 20
4.252021
 30
0.0
  0
POINT
  5
19E
330
52D
100
AcDbEntity
  8
_0
  6
Continuous
 62
     7
370
    30
100
AcDbPoint
 10
6.788115
 20
4.220771
 30
0.0
  0
POINT
  5
19F
330
52D
100
AcDbEntity
  8
_0
  6
Continuous
 62
     7
370
    30
100
AcDbPoint
 10
6.788115
 20
4.189521
 30
0.0
  0
POINT
  5
1A0
330
52D
100
AcDbEntity
  8
_0
  6
Continuous
 62
     7
370
    30
100
AcDbPoint
 10
6.756865
 20
4.642646
 30
0.0
  0
POINT
  5
1A1
330
52D
100
AcDbEntity
  8
_0
  6
Continuous
 62
     7
370
    30
100
AcDbPoint
 10
6.756865
 20
4.611396
 30
0.0
  0
POINT
  5
1A2
330
52D
100
AcDbEntity
  8
_0
  6
Continuous
 62
     7
370
    30
100
AcDbPoint
 10
6.756865
 20
4.580146
 30
0.0
  0
POINT
  5
1A3
330
52D
100
AcDbEntity
  8
_0
  6
Continuous
 62
     7
370
    30
100
AcDbPoint
 10
6.756865
 20
4.548896
 30
0.0
  0
POINT
  5
1A4
330
52D
100
AcDbEntity
  8
_0
  6
Continuous
 62
     7
370
    30
100
AcDbPoint
 10
6.756865
 20
4.517646
 30
0.0
  0
POINT
  5
1A5
330
52D
100
AcDbEntity
  8
_0
  6
Continuous
 62
     7
370
    30
100
AcDbPoint
 10
6.756865
 20
4.486396
 30
0.0
  0
POINT
  5
1A6
330
52D
100
AcDbEntity
  8
_0
  6
Continuous
 62
     7
370
    30
100
AcDbPoint
 10
6.756865
 20
4.455146
 30
0.0
  0
POINT
  5
1A7
330
52D
100
AcDbEntity
  8
_0
  6
Continuous
 62
     7
370
    30
100
AcDbPoint
 10
6.756865
 20
4.423896
 30
0.0
  0
POINT
  5
1A8
330
52D
100
AcDbEntity
  8
_0
  6
Continuous
 62
     7
370
    30
100
AcDbPoint
 10
6.756865
 20
4.392646
 30
0.0
  0
POINT
  5
1A9
330
52D
100
AcDbEntity
  8
_0
  6
Continuous
 62
     7
370
    30
100
AcDbPoint
 10
6.756865
 20
4.361396
 30
0.0
  0
POINT
  5
1AA
330
52D
100
AcDbEntity
  8
_0
  6
Continuous
 62
     7
370
    30
100
AcDbPoint
 10
6.756865
 20
4.330146
 30
0.0
  0
POINT
  5
1AB
330
52D
100
AcDbEntity
  8
_0
  6
Continuous
 62
     7
370
    30
100
AcDbPoint
 10
6.756865
 20
4.298896
 30
0.0
  0
POINT
  5
1AC
330
52D
100
AcDbEntity
  8
_0
  6
Continuous
 62
     7
370
    30
100
AcDbPoint
 10
6.756865
 20
4.267646
 30
0.0
  0
POINT
  5
1AD
330
52D
100
AcDbEntity
  8
_0
  6
Continuous
 62
     7
370
    30
100
AcDbPoint
 10
6.756865
 20
4.236396
 30
0.0
  0
POINT
  5
1AE
330
52D
100
AcDbEntity
  8
_0
  6
Continuous
 62
     7
370
    30
100
AcDbPoint
 10
6.756865
 20
4.205146
 30
0.0
  0
POINT
  5
1AF
330
52D
100
AcDbEntity
  8
_0
  6
Continuous
 62
     7
370
    30
100
AcDbPoint
 10
6.756865
 20
4.173896
 30
0.0
  0
POINT
  5
1B0
330
52D
100
AcDbEntity
  8
_0
  6
Continuous
 62
     7
370
    30
100
AcDbPoint
 10
6.725615
 20
4.658271
 30
0.0
  0
POINT
  5
1B1
330
52D
100
AcDbEntity
  8
_0
  6
Continuous
 62
     7
370
    30
100
AcDbPoint
 10
6.725615
 20
4.627021
 30
0.0
  0
POINT
  5
1B2
330
52D
100
AcDbEntity
  8
_0
  6
Continuous
 62
     7
370
    30
100
AcDbPoint
 10
6.725615
 20
4.595771
 30
0.0
  0
POINT
  5
1B3
330
52D
100
AcDbEntity
  8
_0
  6
Continuous
 62
     7
370
    30
100
AcDbPoint
 10
6.725615
 20
4.564521
 30
0.0
  0
POINT
  5
1B4
330
52D
100
AcDbEntity
  8
_0
  6
Continuous
 62
     7
370
    30
100
AcDbPoint
 10
6.725615
 20
4.533271
 30
0.0
  0
POINT
  5
1B5
330
52D
100
AcDbEntity
  8
_0
  6
Continuous
 62
     7
370
    30
100
AcDbPoint
 10
6.725615
 20
4.502021
 30
0.0
  0
POINT
  5
1B6
330
52D
100
AcDbEntity
  8
_0
  6
Continuous
 62
     7
370
    30
100
AcDbPoint
 10
6.725615
 20
4.470771
 30
0.0
  0
POINT
  5
1B7
330
52D
100
AcDbEntity
  8
_0
  6
Continuous
 62
     7
370
    30
100
AcDbPoint
 10
6.725615
 20
4.439521
 30
0.0
  0
POINT
  5
1B8
330
52D
100
AcDbEntity
  8
_0
  6
Continuous
 62
     7
370
    30
100
AcDbPoint
 10
6.725615
 20
4.408271
 30
0.0
  0
POINT
  5
1B9
330
52D
100
AcDbEntity
  8
_0
  6
Continuous
 62
     7
370
    30
100
AcDbPoint
 10
6.725615
 20
4.377021
 30
0.0
  0
POINT
  5
1BA
330
52D
100
AcDbEntity
  8
_0
  6
Continuous
 62
     7
370
    30
100
AcDbPoint
 10
6.725615
 20
4.345771
 30
0.0
  0
POINT
  5
1BB
330
52D
100
AcDbEntity
  8
_0
  6
Continuous
 62
     7
370
    30
100
AcDbPoint
 10
6.725615
 20
4.314521
 30
0.0
  0
POINT
  5
1BC
330
52D
100
AcDbEntity
  8
_0
  6
Continuous
 62
     7
370
    30
100
AcDbPoint
 10
6.725615
 20
4.283271
 30
0.0
  0
POINT
  5
1BD
330
52D
100
AcDbEntity
  8
_0
  6
Continuous
 62
     7
370
    30
100
AcDbPoint
 10
6.725615
 20
4.252021
 30
0.0
  0
POINT
  5
1BE
330
52D
100
AcDbEntity
  8
_0
  6
Continuous
 62
     7
370
    30
100
AcDbPoint
 10
6.725615
 20
4.220771
 30
0.0
  0
POINT
  5
1BF
330
52D
100
AcDbEntity
  8
_0
  6
Continuous
 62
     7
370
    30
100
AcDbPoint
 10
6.725615
 20
4.189521
 30
0.0
  0
POINT
  5
1C0
330
52D
100
AcDbEntity
  8
_0
  6
Continuous
 62
     7
370
    30
100
AcDbPoint
 10
6.694365
 20
4.423896
 30
0.0
  0
POINT
  5
1C1
330
52D
100
AcDbEntity
  8
_0
  6
Continuous
 62
     7
370
    30
100
AcDbPoint
 10
5.850615
 20
4.377021
 30
0.0
  0
POINT
  5
1C2
330
52D
100
AcDbEntity
  8
_0
  6
Continuous
 62
     7
370
    30
100
AcDbPoint
 10
5.850615
 20
4.345771
 30
0.0
  0
POINT
  5
1C3
330
52D
100
AcDbEntity
  8
_0
  6
Continuous
 62
     7
370
    30
100
AcDbPoint
 10
5.850615
 20
4.314521
 30
0.0
  0
POINT
  5
1C4
330
52D
100
AcDbEntity
  8
_0
  6
Continuous
 62
     7
370
    30
100
AcDbPoint
 10
5.850615
 20
4.283271
 30
0.0
  0
POINT
  5
1C5
330
52D
100
AcDbEntity
  8
_0
  6
Continuous
 62
     7
370
    30
100
AcDbPoint
 10
5.850615
 20
4.252021
 30
0.0
  0
POINT
  5
1C6
330
52D
100
AcDbEntity
  8
_0
  6
Continuous
 62
     7
370
    30
100
AcDbPoint
 10
5.850615
 20
4.220771
 30
0.0
  0
POINT
  5
1C7
330
52D
100
AcDbEntity
  8
_0
  6
Continuous
 62
     7
370
    30
100
AcDbPoint
 10
5.850615
 20
4.189521
 30
0.0
  0
POINT
  5
1C8
330
52D
100
AcDbEntity
  8
_0
  6
Continuous
 62
     7
370
    30
100
AcDbPoint
 10
5.881865
 20
4.361396
 30
0.0
  0
POINT
  5
1C9
330
52D
100
AcDbEntity
  8
_0
  6
Continuous
 62
     7
370
    30
100
AcDbPoint
 10
5.881865
 20
4.330146
 30
0.0
  0
POINT
  5
1CA
330
52D
100
AcDbEntity
  8
_0
  6
Continuous
 62
     7
370
    30
100
AcDbPoint
 10
5.881865
 20
4.298896
 30
0.0
  0
POINT
  5
1CB
330
52D
100
AcDbEntity
  8
_0
  6
Continuous
 62
     7
370
    30
100
AcDbPoint
 10
5.881865
 20
4.267646
 30
0.0
  0
POINT
  5
1CC
330
52D
100
AcDbEntity
  8
_0
  6
Continuous
 62
     7
370
    30
100
AcDbPoint
 10
5.881865
 20
4.236396
 30
0.0
  0
POINT
  5
1CD
330
52D
100
AcDbEntity
  8
_0
  6
Continuous
 62
     7
370
    30
100
AcDbPoint
 10
5.881865
 20
4.205146
 30
0.0
  0
POINT
  5
1CE
330
52D
100
AcDbEntity
  8
_0
  6
Continuous
 62
     7
370
    30
100
AcDbPoint
 10
5.881865
 20
4.173896
 30
0.0
  0
POINT
  5
1CF
330
52D
100
AcDbEntity
  8
_0
  6
Continuous
 62
     7
370
    30
100
AcDbPoint
 10
5.913115
 20
4.377021
 30
0.0
  0
POINT
  5
1D0
330
52D
100
AcDbEntity
  8
_0
  6
Continuous
 62
     7
370
    30
100
AcDbPoint
 10
5.913115
 20
4.345771
 30
0.0
  0
POINT
  5
1D1
330
52D
100
AcDbEntity
  8
_0
  6
Continuous
 62
     7
370
    30
100
AcDbPoint
 10
5.913115
 20
4.314521
 30
0.0
  0
POINT
  5
1D2
330
52D
100
AcDbEntity
  8
_0
  6
Continuous
 62
     7
370
    30
100
AcDbPoint
 10
5.913115
 20
4.283271
 30
0.0
  0
POINT
  5
1D3
330
52D
100
AcDbEntity
  8
_0
  6
Continuous
 62
     7
370
    30
100
AcDbPoint
 10
5.913115
 20
4.252021
 30
0.0
  0
POINT
  5
1D4
330
52D
100
AcDbEntity
  8
_0
  6
Continuous
 62
     7
370
    30
100
AcDbPoint
 10
5.913115
 20
4.220771
 30
0.0
  0
POINT
  5
1D5
330
52D
100
AcDbEntity
  8
_0
  6
Continuous
 62
     7
370
    30
100
AcDbPoint
 10
5.913115
 20
4.189521
 30
0.0
  0
POINT
  5
1D6
330
52D
100
AcDbEntity
  8
_0
  6
Continuous
 62
     7
370
    30
100
AcDbPoint
 10
5.944365
 20
4.392646
 30
0.0
  0
POINT
  5
1D7
330
52D
100
AcDbEntity
  8
_0
  6
Continuous
 62
     7
370
    30
100
AcDbPoint
 10
5.944365
 20
4.361396
 30
0.0
  0
POINT
  5
1D8
330
52D
100
AcDbEntity
  8
_0
  6
Continuous
 62
     7
370
    30
100
AcDbPoint
 10
5.944365
 20
4.330146
 30
0.0
  0
POINT
  5
1D9
330
52D
100
AcDbEntity
  8
_0
  6
Continuous
 62
     7
370
    30
100
AcDbPoint
 10
5.944365
 20
4.298896
 30
0.0
  0
POINT
  5
1DA
330
52D
100
AcDbEntity
  8
_0
  6
Continuous
 62
     7
370
    30
100
AcDbPoint
 10
5.944365
 20
4.267646
 30
0.0
  0
POINT
  5
1DB
330
52D
100
AcDbEntity
  8
_0
  6
Continuous
 62
     7
370
    30
100
AcDbPoint
 10
5.944365
 20
4.236396
 30
0.0
  0
POINT
  5
1DC
330
52D
100
AcDbEntity
  8
_0
  6
Continuous
 62
     7
370
    30
100
AcDbPoint
 10
5.944365
 20
4.205146
 30
0.0
  0
POINT
  5
1DD
330
52D
100
AcDbEntity
  8
_0
  6
Continuous
 62
     7
370
    30
100
AcDbPoint
 10
5.944365
 20
4.173896
 30
0.0
  0
POINT
  5
1DE
330
52D
100
AcDbEntity
  8
_0
  6
Continuous
 62
     7
370
    30
100
AcDbPoint
 10
5.975615
 20
4.408271
 30
0.0
  0
POINT
  5
1DF
330
52D
100
AcDbEntity
  8
_0
  6
Continuous
 62
     7
370
    30
100
AcDbPoint
 10
5.975615
 20
4.377021
 30
0.0
  0
POINT
  5
1E0
330
52D
100
AcDbEntity
  8
_0
  6
Continuous
 62
     7
370
    30
100
AcDbPoint
 10
5.975615
 20
4.345771
 30
0.0
  0
POINT
  5
1E1
330
52D
100
AcDbEntity
  8
_0
  6
Continuous
 62
     7
370
    30
100
AcDbPoint
 10
5.975615
 20
4.314521
 30
0.0
  0
POINT
  5
1E2
330
52D
100
AcDbEntity
  8
_0
  6
Continuous
 62
     7
370
    30
100
AcDbPoint
 10
5.975615
 20
4.283271
 30
0.0
  0
POINT
  5
1E3
330
52D
100
AcDbEntity
  8
_0
  6
Continuous
 62
     7
370
    30
100
AcDbPoint
 10
5.975615
 20
4.252021
 30
0.0
  0
POINT
  5
1E4
330
52D
100
AcDbEntity
  8
_0
  6
Continuous
 62
     7
370
    30
100
AcDbPoint
 10
5.975615
 20
4.220771
 30
0.0
  0
POINT
  5
1E5
330
52D
100
AcDbEntity
  8
_0
  6
Continuous
 62
     7
370
    30
100
AcDbPoint
 10
5.975615
 20
4.189521
 30
0.0
  0
POINT
  5
1E6
330
52D
100
AcDbEntity
  8
_0
  6
Continuous
 62
     7
370
    30
100
AcDbPoint
 10
6.006865
 20
4.423896
 30
0.0
  0
POINT
  5
1E7
330
52D
100
AcDbEntity
  8
_0
  6
Continuous
 62
     7
370
    30
100
AcDbPoint
 10
6.006865
 20
4.392646
 30
0.0
  0
POINT
  5
1E8
330
52D
100
AcDbEntity
  8
_0
  6
Continuous
 62
     7
370
    30
100
AcDbPoint
 10
6.006865
 20
4.361396
 30
0.0
  0
POINT
  5
1E9
330
52D
100
AcDbEntity
  8
_0
  6
Continuous
 62
     7
370
    30
100
AcDbPoint
 10
6.006865
 20
4.330146
 30
0.0
  0
POINT
  5
1EA
330
52D
100
AcDbEntity
  8
_0
  6
Continuous
 62
     7
370
    30
100
AcDbPoint
 10
6.006865
 20
4.298896
 30
0.0
  0
POINT
  5
1EB
330
52D
100
AcDbEntity
  8
_0
  6
Continuous
 62
     7
370
    30
100
AcDbPoint
 10
6.006865
 20
4.267646
 30
0.0
  0
POINT
  5
1EC
330
52D
100
AcDbEntity
  8
_0
  6
Continuous
 62
     7
370
    30
100
AcDbPoint
 10
6.006865
 20
4.236396
 30
0.0
  0
POINT
  5
1ED
330
52D
100
AcDbEntity
  8
_0
  6
Continuous
 62
     7
370
    30
100
AcDbPoint
 10
6.006865
 20
4.205146
 30
0.0
  0
POINT
  5
1EE
330
52D
100
AcDbEntity
  8
_0
  6
Continuous
 62
     7
370
    30
100
AcDbPoint
 10
6.006865
 20
4.173896
 30
0.0
  0
POINT
  5
1EF
330
52D
100
AcDbEntity
  8
_0
  6
Continuous
 62
     7
370
    30
100
AcDbPoint
 10
6.038115
 20
4.439521
 30
0.0
  0
POINT
  5
1F0
330
52D
100
AcDbEntity
  8
_0
  6
Continuous
 62
     7
370
    30
100
AcDbPoint
 10
6.038115
 20
4.408271
 30
0.0
  0
POINT
  5
1F1
330
52D
100
AcDbEntity
  8
_0
  6
Continuous
 62
     7
370
    30
100
AcDbPoint
 10
6.038115
 20
4.377021
 30
0.0
  0
POINT
  5
1F2
330
52D
100
AcDbEntity
  8
_0
  6
Continuous
 62
     7
370
    30
100
AcDbPoint
 10
6.038115
 20
4.345771
 30
0.0
  0
POINT
  5
1F3
330
52D
100
AcDbEntity
  8
_0
  6
Continuous
 62
     7
370
    30
100
AcDbPoint
 10
6.038115
 20
4.314521
 30
0.0
  0
POINT
  5
1F4
330
52D
100
AcDbEntity
  8
_0
  6
Continuous
 62
     7
370
    30
100
AcDbPoint
 10
6.038115
 20
4.283271
 30
0.0
  0
POINT
  5
1F5
330
52D
100
AcDbEntity
  8
_0
  6
Continuous
 62
     7
370
    30
100
AcDbPoint
 10
6.038115
 20
4.252021
 30
0.0
  0
POINT
  5
1F6
330
52D
100
AcDbEntity
  8
_0
  6
Continuous
 62
     7
370
    30
100
AcDbPoint
 10
6.038115
 20
4.220771
 30
0.0
  0
POINT
  5
1F7
330
52D
100
AcDbEntity
  8
_0
  6
Continuous
 62
     7
370
    30
100
AcDbPoint
 10
6.038115
 20
4.189521
 30
0.0
  0
POINT
  5
1F8
330
52D
100
AcDbEntity
  8
_0
  6
Continuous
 62
     7
370
    30
100
AcDbPoint
 10
6.069365
 20
4.455146
 30
0.0
  0
POINT
  5
1F9
330
52D
100
AcDbEntity
  8
_0
  6
Continuous
 62
     7
370
    30
100
AcDbPoint
 10
6.069365
 20
4.423896
 30
0.0
  0
POINT
  5
1FA
330
52D
100
AcDbEntity
  8
_0
  6
Continuous
 62
     7
370
    30
100
AcDbPoint
 10
6.069365
 20
4.392646
 30
0.0
  0
POINT
  5
1FB
330
52D
100
AcDbEntity
  8
_0
  6
Continuous
 62
     7
370
    30
100
AcDbPoint
 10
6.069365
 20
4.361396
 30
0.0
  0
POINT
  5
1FC
330
52D
100
AcDbEntity
  8
_0
  6
Continuous
 62
     7
370
    30
100
AcDbPoint
 10
6.069365
 20
4.330146
 30
0.0
  0
POINT
  5
1FD
330
52D
100
AcDbEntity
  8
_0
  6
Continuous
 62
     7
370
    30
100
AcDbPoint
 10
6.069365
 20
4.298896
 30
0.0
  0
POINT
  5
1FE
330
52D
100
AcDbEntity
  8
_0
  6
Continuous
 62
     7
370
    30
100
AcDbPoint
 10
6.069365
 20
4.267646
 30
0.0
  0
POINT
  5
1FF
330
52D
100
AcDbEntity
  8
_0
  6
Continuous
 62
     7
370
    30
100
AcDbPoint
 10
6.069365
 20
4.236396
 30
0.0
  0
POINT
  5
200
330
52D
100
AcDbEntity
  8
_0
  6
Continuous
 62
     7
370
    30
100
AcDbPoint
 10
6.069365
 20
4.205146
 30
0.0
  0
POINT
  5
201
330
52D
100
AcDbEntity
  8
_0
  6
Continuous
 62
     7
370
    30
100
AcDbPoint
 10
6.069365
 20
4.173896
 30
0.0
  0
POINT
  5
202
330
52D
100
AcDbEntity
  8
_0
  6
Continuous
 62
     7
370
    30
100
AcDbPoint
 10
6.100615
 20
4.502021
 30
0.0
  0
POINT
  5
203
330
52D
100
AcDbEntity
  8
_0
  6
Continuous
 62
     7
370
    30
100
AcDbPoint
 10
6.100615
 20
4.470771
 30
0.0
  0
POINT
  5
204
330
52D
100
AcDbEntity
  8
_0
  6
Continuous
 62
     7
370
    30
100
AcDbPoint
 10
6.100615
 20
4.439521
 30
0.0
  0
POINT
  5
205
330
52D
100
AcDbEntity
  8
_0
  6
Continuous
 62
     7
370
    30
100
AcDbPoint
 10
6.100615
 20
4.408271
 30
0.0
  0
POINT
  5
206
330
52D
100
AcDbEntity
  8
_0
  6
Continuous
 62
     7
370
    30
100
AcDbPoint
 10
6.100615
 20
4.377021
 30
0.0
  0
POINT
  5
207
330
52D
100
AcDbEntity
  8
_0
  6
Continuous
 62
     7
370
    30
100
AcDbPoint
 10
6.100615
 20
4.345771
 30
0.0
  0
POINT
  5
208
330
52D
100
AcDbEntity
  8
_0
  6
Continuous
 62
     7
370
    30
100
AcDbPoint
 10
6.100615
 20
4.314521
 30
0.0
  0
POINT
  5
209
330
52D
100
AcDbEntity
  8
_0
  6
Continuous
 62
     7
370
    30
100
AcDbPoint
 10
6.100615
 20
4.283271
 30
0.0
  0
POINT
  5
20A
330
52D
100
AcDbEntity
  8
_0
  6
Continuous
 62
     7
370
    30
100
AcDbPoint
 10
6.100615
 20
4.252021
 30
0.0
  0
POINT
  5
20B
330
52D
100
AcDbEntity
  8
_0
  6
Continuous
 62
     7
370
    30
100
AcDbPoint
 10
6.100615
 20
4.220771
 30
0.0
  0
POINT
  5
20C
330
52D
100
AcDbEntity
  8
_0
  6
Continuous
 62
     7
370
    30
100
AcDbPoint
 10
6.100615
 20
4.189521
 30
0.0
  0
POINT
  5
20D
330
52D
100
AcDbEntity
  8
_0
  6
Continuous
 62
     7
370
    30
100
AcDbPoint
 10
6.131865
 20
4.517646
 30
0.0
  0
POINT
  5
20E
330
52D
100
AcDbEntity
  8
_0
  6
Continuous
 62
     7
370
    30
100
AcDbPoint
 10
6.131865
 20
4.486396
 30
0.0
  0
POINT
  5
20F
330
52D
100
AcDbEntity
  8
_0
  6
Continuous
 62
     7
370
    30
100
AcDbPoint
 10
6.131865
 20
4.455146
 30
0.0
  0
POINT
  5
210
330
52D
100
AcDbEntity
  8
_0
  6
Continuous
 62
     7
370
    30
100
AcDbPoint
 10
6.131865
 20
4.423896
 30
0.0
  0
POINT
  5
211
330
52D
100
AcDbEntity
  8
_0
  6
Continuous
 62
     7
370
    30
100
AcDbPoint
 10
6.131865
 20
4.392646
 30
0.0
  0
POINT
  5
212
330
52D
100
AcDbEntity
  8
_0
  6
Continuous
 62
     7
370
    30
100
AcDbPoint
 10
6.131865
 20
4.361396
 30
0.0
  0
POINT
  5
213
330
52D
100
AcDbEntity
  8
_0
  6
Continuous
 62
     7
370
    30
100
AcDbPoint
 10
6.131865
 20
4.330146
 30
0.0
  0
POINT
  5
214
330
52D
100
AcDbEntity
  8
_0
  6
Continuous
 62
     7
370
    30
100
AcDbPoint
 10
6.131865
 20
4.298896
 30
0.0
  0
POINT
  5
215
330
52D
100
AcDbEntity
  8
_0
  6
Continuous
 62
     7
370
    30
100
AcDbPoint
 10
6.131865
 20
4.267646
 30
0.0
  0
POINT
  5
216
330
52D
100
AcDbEntity
  8
_0
  6
Continuous
 62
     7
370
    30
100
AcDbPoint
 10
6.131865
 20
4.236396
 30
0.0
  0
POINT
  5
217
330
52D
100
AcDbEntity
  8
_0
  6
Continuous
 62
     7
370
    30
100
AcDbPoint
 10
6.131865
 20
4.205146
 30
0.0
  0
POINT
  5
218
330
52D
100
AcDbEntity
  8
_0
  6
Continuous
 62
     7
370
    30
100
AcDbPoint
 10
6.131865
 20
4.173896
 30
0.0
  0
POINT
  5
219
330
52D
100
AcDbEntity
  8
_0
  6
Continuous
 62
     7
370
    30
100
AcDbPoint
 10
6.163115
 20
4.595771
 30
0.0
  0
POINT
  5
21A
330
52D
100
AcDbEntity
  8
_0
  6
Continuous
 62
     7
370
    30
100
AcDbPoint
 10
6.163115
 20
4.564521
 30
0.0
  0
POINT
  5
21B
330
52D
100
AcDbEntity
  8
_0
  6
Continuous
 62
     7
370
    30
100
AcDbPoint
 10
6.163115
 20
4.533271
 30
0.0
  0
POINT
  5
21C
330
52D
100
AcDbEntity
  8
_0
  6
Continuous
 62
     7
370
    30
100
AcDbPoint
 10
6.163115
 20
4.502021
 30
0.0
  0
POINT
  5
21D
330
52D
100
AcDbEntity
  8
_0
  6
Continuous
 62
     7
370
    30
100
AcDbPoint
 10
6.163115
 20
4.470771
 30
0.0
  0
POINT
  5
21E
330
52D
100
AcDbEntity
  8
_0
  6
Continuous
 62
     7
370
    30
100
AcDbPoint
 10
6.163115
 20
4.439521
 30
0.0
  0
POINT
  5
21F
330
52D
100
AcDbEntity
  8
_0
  6
Continuous
 62
     7
370
    30
100
AcDbPoint
 10
6.163115
 20
4.408271
 30
0.0
  0
POINT
  5
220
330
52D
100
AcDbEntity
  8
_0
  6
Continuous
 62
     7
370
    30
100
AcDbPoint
 10
6.163115
 20
4.377021
 30
0.0
  0
POINT
  5
221
330
52D
100
AcDbEntity
  8
_0
  6
Continuous
 62
     7
370
    30
100
AcDbPoint
 10
6.163115
 20
4.345771
 30
0.0
  0
POINT
  5
222
330
52D
100
AcDbEntity
  8
_0
  6
Continuous
 62
     7
370
    30
100
AcDbPoint
 10
6.163115
 20
4.314521
 30
0.0
  0
POINT
  5
223
330
52D
100
AcDbEntity
  8
_0
  6
Continuous
 62
     7
370
    30
100
AcDbPoint
 10
6.163115
 20
4.283271
 30
0.0
  0
POINT
  5
224
330
52D
100
AcDbEntity
  8
_0
  6
Continuous
 62
     7
370
    30
100
AcDbPoint
 10
6.163115
 20
4.252021
 30
0.0
  0
POINT
  5
225
330
52D
100
AcDbEntity
  8
_0
  6
Continuous
 62
     7
370
    30
100
AcDbPoint
 10
6.163115
 20
4.220771
 30
0.0
  0
POINT
  5
226
330
52D
100
AcDbEntity
  8
_0
  6
Continuous
 62
     7
370
    30
100
AcDbPoint
 10
6.163115
 20
4.189521
 30
0.0
  0
POINT
  5
227
330
52D
100
AcDbEntity
  8
_0
  6
Continuous
 62
     7
370
    30
100
AcDbPoint
 10
6.194365
 20
4.642646
 30
0.0
  0
POINT
  5
228
330
52D
100
AcDbEntity
  8
_0
  6
Continuous
 62
     7
370
    30
100
AcDbPoint
 10
6.194365
 20
4.611396
 30
0.0
  0
POINT
  5
229
330
52D
100
AcDbEntity
  8
_0
  6
Continuous
 62
     7
370
    30
100
AcDbPoint
 10
6.194365
 20
4.580146
 30
0.0
  0
POINT
  5
22A
330
52D
100
AcDbEntity
  8
_0
  6
Continuous
 62
     7
370
    30
100
AcDbPoint
 10
6.194365
 20
4.548896
 30
0.0
  0
POINT
  5
22B
330
52D
100
AcDbEntity
  8
_0
  6
Continuous
 62
     7
370
    30
100
AcDbPoint
 10
6.194365
 20
4.517646
 30
0.0
  0
POINT
  5
22C
330
52D
100
AcDbEntity
  8
_0
  6
Continuous
 62
     7
370
    30
100
AcDbPoint
 10
6.194365
 20
4.486396
 30
0.0
  0
POINT
  5
22D
330
52D
100
AcDbEntity
  8
_0
  6
Continuous
 62
     7
370
    30
100
AcDbPoint
 10
6.194365
 20
4.455146
 30
0.0
  0
POINT
  5
22E
330
52D
100
AcDbEntity
  8
_0
  6
Continuous
 62
     7
370
    30
100
AcDbPoint
 10
6.194365
 20
4.423896
 30
0.0
  0
POINT
  5
22F
330
52D
100
AcDbEntity
  8
_0
  6
Continuous
 62
     7
370
    30
100
AcDbPoint
 10
6.194365
 20
4.392646
 30
0.0
  0
POINT
  5
230
330
52D
100
AcDbEntity
  8
_0
  6
Continuous
 62
     7
370
    30
100
AcDbPoint
 10
6.194365
 20
4.361396
 30
0.0
  0
POINT
  5
231
330
52D
100
AcDbEntity
  8
_0
  6
Continuous
 62
     7
370
    30
100
AcDbPoint
 10
6.194365
 20
4.330146
 30
0.0
  0
POINT
  5
232
330
52D
100
AcDbEntity
  8
_0
  6
Continuous
 62
     7
370
    30
100
AcDbPoint
 10
6.194365
 20
4.298896
 30
0.0
  0
POINT
  5
233
330
52D
100
AcDbEntity
  8
_0
  6
Continuous
 62
     7
370
    30
100
AcDbPoint
 10
6.194365
 20
4.267646
 30
0.0
  0
POINT
  5
234
330
52D
100
AcDbEntity
  8
_0
  6
Continuous
 62
     7
370
    30
100
AcDbPoint
 10
6.194365
 20
4.236396
 30
0.0
  0
POINT
  5
235
330
52D
100
AcDbEntity
  8
_0
  6
Continuous
 62
     7
370
    30
100
AcDbPoint
 10
6.194365
 20
4.205146
 30
0.0
  0
POINT
  5
236
330
52D
100
AcDbEntity
  8
_0
  6
Continuous
 62
     7
370
    30
100
AcDbPoint
 10
6.194365
 20
4.173896
 30
0.0
  0
POINT
  5
237
330
52D
100
AcDbEntity
  8
_0
  6
Continuous
 62
     7
370
    30
100
AcDbPoint
 10
6.225615
 20
4.658271
 30
0.0
  0
POINT
  5
238
330
52D
100
AcDbEntity
  8
_0
  6
Continuous
 62
     7
370
    30
100
AcDbPoint
 10
6.225615
 20
4.627021
 30
0.0
  0
POINT
  5
239
330
52D
100
AcDbEntity
  8
_0
  6
Continuous
 62
     7
370
    30
100
AcDbPoint
 10
6.225615
 20
4.595771
 30
0.0
  0
POINT
  5
23A
330
52D
100
AcDbEntity
  8
_0
  6
Continuous
 62
     7
370
    30
100
AcDbPoint
 10
6.225615
 20
4.564521
 30
0.0
  0
POINT
  5
23B
330
52D
100
AcDbEntity
  8
_0
  6
Continuous
 62
     7
370
    30
100
AcDbPoint
 10
6.225615
 20
4.533271
 30
0.0
  0
POINT
  5
23C
330
52D
100
AcDbEntity
  8
_0
  6
Continuous
 62
     7
370
    30
100
AcDbPoint
 10
6.225615
 20
4.502021
 30
0.0
  0
POINT
  5
23D
330
52D
100
AcDbEntity
  8
_0
  6
Continuous
 62
     7
370
    30
100
AcDbPoint
 10
6.225615
 20
4.470771
 30
0.0
  0
POINT
  5
23E
330
52D
100
AcDbEntity
  8
_0
  6
Continuous
 62
     7
370
    30
100
AcDbPoint
 10
6.225615
 20
4.439521
 30
0.0
  0
POINT
  5
23F
330
52D
100
AcDbEntity
  8
_0
  6
Continuous
 62
     7
370
    30
100
AcDbPoint
 10
6.225615
 20
4.408271
 30
0.0
  0
POINT
  5
240
330
52D
100
AcDbEntity
  8
_0
  6
Continuous
 62
     7
370
    30
100
AcDbPoint
 10
6.225615
 20
4.377021
 30
0.0
  0
POINT
  5
241
330
52D
100
AcDbEntity
  8
_0
  6
Continuous
 62
     7
370
    30
100
AcDbPoint
 10
6.225615
 20
4.345771
 30
0.0
  0
POINT
  5
242
330
52D
100
AcDbEntity
  8
_0
  6
Continuous
 62
     7
370
    30
100
AcDbPoint
 10
6.225615
 20
4.314521
 30
0.0
  0
POINT
  5
243
330
52D
100
AcDbEntity
  8
_0
  6
Continuous
 62
     7
370
    30
100
AcDbPoint
 10
6.225615
 20
4.283271
 30
0.0
  0
POINT
  5
244
330
52D
100
AcDbEntity
  8
_0
  6
Continuous
 62
     7
370
    30
100
AcDbPoint
 10
6.225615
 20
4.252021
 30
0.0
  0
POINT
  5
245
330
52D
100
AcDbEntity
  8
_0
  6
Continuous
 62
     7
370
    30
100
AcDbPoint
 10
6.225615
 20
4.220771
 30
0.0
  0
POINT
  5
246
330
52D
100
AcDbEntity
  8
_0
  6
Continuous
 62
     7
370
    30
100
AcDbPoint
 10
6.225615
 20
4.189521
 30
0.0
  0
POINT
  5
247
330
52D
100
AcDbEntity
  8
_0
  6
Continuous
 62
     7
370
    30
100
AcDbPoint
 10
6.256865
 20
4.642646
 30
0.0
  0
POINT
  5
248
330
52D
100
AcDbEntity
  8
_0
  6
Continuous
 62
     7
370
    30
100
AcDbPoint
 10
6.256865
 20
4.611396
 30
0.0
  0
POINT
  5
249
330
52D
100
AcDbEntity
  8
_0
  6
Continuous
 62
     7
370
    30
100
AcDbPoint
 10
6.256865
 20
4.580146
 30
0.0
  0
POINT
  5
24A
330
52D
100
AcDbEntity
  8
_0
  6
Continuous
 62
     7
370
    30
100
AcDbPoint
 10
6.256865
 20
4.548896
 30
0.0
  0
POINT
  5
24B
330
52D
100
AcDbEntity
  8
_0
  6
Continuous
 62
     7
370
    30
100
AcDbPoint
 10
6.256865
 20
4.517646
 30
0.0
  0
POINT
  5
24C
330
52D
100
AcDbEntity
  8
_0
  6
Continuous
 62
     7
370
    30
100
AcDbPoint
 10
6.256865
 20
4.486396
 30
0.0
  0
POINT
  5
24D
330
52D
100
AcDbEntity
  8
_0
  6
Continuous
 62
     7
370
    30
100
AcDbPoint
 10
6.256865
 20
4.455146
 30
0.0
  0
POINT
  5
24E
330
52D
100
AcDbEntity
  8
_0
  6
Continuous
 62
     7
370
    30
100
AcDbPoint
 10
6.256865
 20
4.423896
 30
0.0
  0
POINT
  5
24F
330
52D
100
AcDbEntity
  8
_0
  6
Continuous
 62
     7
370
    30
100
AcDbPoint
 10
6.256865
 20
4.392646
 30
0.0
  0
POINT
  5
250
330
52D
100
AcDbEntity
  8
_0
  6
Continuous
 62
     7
370
    30
100
AcDbPoint
 10
6.256865
 20
4.361396
 30
0.0
  0
POINT
  5
251
330
52D
100
AcDbEntity
  8
_0
  6
Continuous
 62
     7
370
    30
100
AcDbPoint
 10
6.256865
 20
4.330146
 30
0.0
  0
POINT
  5
252
330
52D
100
AcDbEntity
  8
_0
  6
Continuous
 62
     7
370
    30
100
AcDbPoint
 10
6.256865
 20
4.298896
 30
0.0
  0
POINT
  5
253
330
52D
100
AcDbEntity
  8
_0
  6
Continuous
 62
     7
370
    30
100
AcDbPoint
 10
6.256865
 20
4.267646
 30
0.0
  0
POINT
  5
254
330
52D
100
AcDbEntity
  8
_0
  6
Continuous
 62
     7
370
    30
100
AcDbPoint
 10
6.256865
 20
4.236396
 30
0.0
  0
POINT
  5
255
330
52D
100
AcDbEntity
  8
_0
  6
Continuous
 62
     7
370
    30
100
AcDbPoint
 10
6.256865
 20
4.205146
 30
0.0
  0
POINT
  5
256
330
52D
100
AcDbEntity
  8
_0
  6
Continuous
 62
     7
370
    30
100
AcDbPoint
 10
6.256865
 20
4.173896
 30
0.0
  0
POINT
  5
257
330
52D
100
AcDbEntity
  8
_0
  6
Continuous
 62
     7
370
    30
100
AcDbPoint
 10
6.288115
 20
4.658271
 30
0.0
  0
POINT
  5
258
330
52D
100
AcDbEntity
  8
_0
  6
Continuous
 62
     7
370
    30
100
AcDbPoint
 10
6.288115
 20
4.627021
 30
0.0
  0
POINT
  5
259
330
52D
100
AcDbEntity
  8
_0
  6
Continuous
 62
     7
370
    30
100
AcDbPoint
 10
6.288115
 20
4.595771
 30
0.0
  0
POINT
  5
25A
330
52D
100
AcDbEntity
  8
_0
  6
Continuous
 62
     7
370
    30
100
AcDbPoint
 10
6.288115
 20
4.564521
 30
0.0
  0
POINT
  5
25B
330
52D
100
AcDbEntity
  8
_0
  6
Continuous
 62
     7
370
    30
100
AcDbPoint
 10
6.288115
 20
4.533271
 30
0.0
  0
POINT
  5
25C
330
52D
100
AcDbEntity
  8
_0
  6
Continuous
 62
     7
370
    30
100
AcDbPoint
 10
6.288115
 20
4.502021
 30
0.0
  0
POINT
  5
25D
330
52D
100
AcDbEntity
  8
_0
  6
Continuous
 62
     7
370
    30
100
AcDbPoint
 10
6.288115
 20
4.470771
 30
0.0
  0
POINT
  5
25E
330
52D
100
AcDbEntity
  8
_0
  6
Continuous
 62
     7
370
    30
100
AcDbPoint
 10
6.288115
 20
4.439521
 30
0.0
  0
POINT
  5
25F
330
52D
100
AcDbEntity
  8
_0
  6
Continuous
 62
     7
370
    30
100
AcDbPoint
 10
6.288115
 20
4.377021
 30
0.0
  0
POINT
  5
260
330
52D
100
AcDbEntity
  8
_0
  6
Continuous
 62
     7
370
    30
100
AcDbPoint
 10
6.288115
 20
4.345771
 30
0.0
  0
POINT
  5
261
330
52D
100
AcDbEntity
  8
_0
  6
Continuous
 62
     7
370
    30
100
AcDbPoint
 10
6.288115
 20
4.314521
 30
0.0
  0
POINT
  5
262
330
52D
100
AcDbEntity
  8
_0
  6
Continuous
 62
     7
370
    30
100
AcDbPoint
 10
6.288115
 20
4.283271
 30
0.0
  0
POINT
  5
263
330
52D
100
AcDbEntity
  8
_0
  6
Continuous
 62
     7
370
    30
100
AcDbPoint
 10
6.288115
 20
4.252021
 30
0.0
  0
POINT
  5
264
330
52D
100
AcDbEntity
  8
_0
  6
Continuous
 62
     7
370
    30
100
AcDbPoint
 10
6.288115
 20
4.220771
 30
0.0
  0
POINT
  5
265
330
52D
100
AcDbEntity
  8
_0
  6
Continuous
 62
     7
370
    30
100
AcDbPoint
 10
6.288115
 20
4.189521
 30
0.0
  0
POINT
  5
266
330
52D
100
AcDbEntity
  8
_0
  6
Continuous
 62
     7
370
    30
100
AcDbPoint
 10
6.288115
 20
4.408271
 30
0.0
  0
POINT
  5
267
330
52D
100
AcDbEntity
  8
_0
  6
Continuous
 62
     7
370
    13
100
AcDbPoint
 10
6.319365
 20
4.392646
 30
0.0
  0
POINT
  5
268
330
52D
100
AcDbEntity
  8
_0
  6
Continuous
 62
     7
370
    30
100
AcDbPoint
 10
5.756865
 20
4.361396
 30
0.0
  0
POINT
  5
269
330
52D
100
AcDbEntity
  8
_0
  6
Continuous
 62
     7
370
    30
100
AcDbPoint
 10
5.756865
 20
4.330146
 30
0.0
  0
POINT
  5
26A
330
52D
100
AcDbEntity
  8
_0
  6
Continuous
 62
     7
370
    30
100
AcDbPoint
 10
5.756865
 20
4.298896
 30
0.0
  0
POINT
  5
26B
330
52D
100
AcDbEntity
  8
_0
  6
Continuous
 62
     7
370
    30
100
AcDbPoint
 10
5.756865
 20
4.267646
 30
0.0
  0
POINT
  5
26C
330
52D
100
AcDbEntity
  8
_0
  6
Continuous
 62
     7
370
    30
100
AcDbPoint
 10
5.756865
 20
4.236396
 30
0.0
  0
POINT
  5
26D
330
52D
100
AcDbEntity
  8
_0
  6
Continuous
 62
     7
370
    30
100
AcDbPoint
 10
5.756865
 20
4.205146
 30
0.0
  0
POINT
  5
26E
330
52D
100
AcDbEntity
  8
_0
  6
Continuous
 62
     7
370
    30
100
AcDbPoint
 10
5.756865
 20
4.173896
 30
0.0
  0
POINT
  5
26F
330
52D
100
AcDbEntity
  8
_0
  6
Continuous
 62
     7
370
    30
100
AcDbPoint
 10
5.725615
 20
4.377021
 30
0.0
  0
POINT
  5
270
330
52D
100
AcDbEntity
  8
_0
  6
Continuous
 62
     7
370
    30
100
AcDbPoint
 10
5.725615
 20
4.345771
 30
0.0
  0
POINT
  5
271
330
52D
100
AcDbEntity
  8
_0
  6
Continuous
 62
     7
370
    30
100
AcDbPoint
 10
5.725615
 20
4.314521
 30
0.0
  0
POINT
  5
272
330
52D
100
AcDbEntity
  8
_0
  6
Continuous
 62
     7
370
    30
100
AcDbPoint
 10
5.725615
 20
4.283271
 30
0.0
  0
POINT
  5
273
330
52D
100
AcDbEntity
  8
_0
  6
Continuous
 62
     7
370
    30
100
AcDbPoint
 10
5.725615
 20
4.252021
 30
0.0
  0
POINT
  5
274
330
52D
100
AcDbEntity
  8
_0
  6
Continuous
 62
     7
370
    30
100
AcDbPoint
 10
5.725615
 20
4.220771
 30
0.0
  0
POINT
  5
275
330
52D
100
AcDbEntity
  8
_0
  6
Continuous
 62
     7
370
    30
100
AcDbPoint
 10
5.725615
 20
4.189521
 30
0.0
  0
POINT
  5
276
330
52D
100
AcDbEntity
  8
_0
  6
Continuous
 62
     7
370
    30
100
AcDbPoint
 10
5.694365
 20
4.361396
 30
0.0
  0
POINT
  5
277
330
52D
100
AcDbEntity
  8
_0
  6
Continuous
 62
     7
370
    30
100
AcDbPoint
 10
5.694365
 20
4.330146
 30
0.0
  0
POINT
  5
278
330
52D
100
AcDbEntity
  8
_0
  6
Continuous
 62
     7
370
    30
100
AcDbPoint
 10
5.694365
 20
4.298896
 30
0.0
  0
POINT
  5
279
330
52D
100
AcDbEntity
  8
_0
  6
Continuous
 62
     7
370
    30
100
AcDbPoint
 10
5.694365
 20
4.267646
 30
0.0
  0
POINT
  5
27A
330
52D
100
AcDbEntity
  8
_0
  6
Continuous
 62
     7
370
    30
100
AcDbPoint
 10
5.694365
 20
4.236396
 30
0.0
  0
POINT
  5
27B
330
52D
100
AcDbEntity
  8
_0
  6
Continuous
 62
     7
370
    30
100
AcDbPoint
 10
5.694365
 20
4.205146
 30
0.0
  0
POINT
  5
27C
330
52D
100
AcDbEntity
  8
_0
  6
Continuous
 62
     7
370
    30
100
AcDbPoint
 10
5.694365
 20
4.173896
 30
0.0
  0
POINT
  5
27D
330
52D
100
AcDbEntity
  8
_0
  6
Continuous
 62
     7
370
    30
100
AcDbPoint
 10
5.663115
 20
4.377021
 30
0.0
  0
POINT
  5
27E
330
52D
100
AcDbEntity
  8
_0
  6
Continuous
 62
     7
370
    30
100
AcDbPoint
 10
5.663115
 20
4.345771
 30
0.0
  0
POINT
  5
27F
330
52D
100
AcDbEntity
  8
_0
  6
Continuous
 62
     7
370
    30
100
AcDbPoint
 10
5.663115
 20
4.314521
 30
0.0
  0
POINT
  5
280
330
52D
100
AcDbEntity
  8
_0
  6
Continuous
 62
     7
370
    30
100
AcDbPoint
 10
5.663115
 20
4.283271
 30
0.0
  0
POINT
  5
281
330
52D
100
AcDbEntity
  8
_0
  6
Continuous
 62
     7
370
    30
100
AcDbPoint
 10
5.663115
 20
4.252021
 30
0.0
  0
POINT
  5
282
330
52D
100
AcDbEntity
  8
_0
  6
Continuous
 62
     7
370
    30
100
AcDbPoint
 10
5.663115
 20
4.220771
 30
0.0
  0
POINT
  5
283
330
52D
100
AcDbEntity
  8
_0
  6
Continuous
 62
     7
370
    30
100
AcDbPoint
 10
5.663115
 20
4.189521
 30
0.0
  0
POINT
  5
284
330
52D
100
AcDbEntity
  8
_0
  6
Continuous
 62
     7
370
    30
100
AcDbPoint
 10
5.631865
 20
4.392646
 30
0.0
  0
POINT
  5
285
330
52D
100
AcDbEntity
  8
_0
  6
Continuous
 62
     7
370
    30
100
AcDbPoint
 10
5.631865
 20
4.361396
 30
0.0
  0
POINT
  5
286
330
52D
100
AcDbEntity
  8
_0
  6
Continuous
 62
     7
370
    30
100
AcDbPoint
 10
5.631865
 20
4.330146
 30
0.0
  0
POINT
  5
287
330
52D
100
AcDbEntity
  8
_0
  6
Continuous
 62
     7
370
    30
100
AcDbPoint
 10
5.631865
 20
4.298896
 30
0.0
  0
POINT
  5
288
330
52D
100
AcDbEntity
  8
_0
  6
Continuous
 62
     7
370
    30
100
AcDbPoint
 10
5.631865
 20
4.267646
 30
0.0
  0
POINT
  5
289
330
52D
100
AcDbEntity
  8
_0
  6
Continuous
 62
     7
370
    30
100
AcDbPoint
 10
5.631865
 20
4.236396
 30
0.0
  0
POINT
  5
28A
330
52D
100
AcDbEntity
  8
_0
  6
Continuous
 62
     7
370
    30
100
AcDbPoint
 10
5.631865
 20
4.205146
 30
0.0
  0
POINT
  5
28B
330
52D
100
AcDbEntity
  8
_0
  6
Continuous
 62
     7
370
    30
100
AcDbPoint
 10
5.631865
 20
4.173896
 30
0.0
  0
POINT
  5
28C
330
52D
100
AcDbEntity
  8
_0
  6
Continuous
 62
     7
370
    30
100
AcDbPoint
 10
5.600615
 20
4.408271
 30
0.0
  0
POINT
  5
28D
330
52D
100
AcDbEntity
  8
_0
  6
Continuous
 62
     7
370
    30
100
AcDbPoint
 10
5.600615
 20
4.377021
 30
0.0
  0
POINT
  5
28E
330
52D
100
AcDbEntity
  8
_0
  6
Continuous
 62
     7
370
    30
100
AcDbPoint
 10
5.600615
 20
4.345771
 30
0.0
  0
POINT
  5
28F
330
52D
100
AcDbEntity
  8
_0
  6
Continuous
 62
     7
370
    30
100
AcDbPoint
 10
5.600615
 20
4.314521
 30
0.0
  0
POINT
  5
290
330
52D
100
AcDbEntity
  8
_0
  6
Continuous
 62
     7
370
    30
100
AcDbPoint
 10
5.600615
 20
4.283271
 30
0.0
  0
POINT
  5
291
330
52D
100
AcDbEntity
  8
_0
  6
Continuous
 62
     7
370
    30
100
AcDbPoint
 10
5.600615
 20
4.252021
 30
0.0
  0
POINT
  5
292
330
52D
100
AcDbEntity
  8
_0
  6
Continuous
 62
     7
370
    30
100
AcDbPoint
 10
5.600615
 20
4.220771
 30
0.0
  0
POINT
  5
293
330
52D
100
AcDbEntity
  8
_0
  6
Continuous
 62
     7
370
    30
100
AcDbPoint
 10
5.600615
 20
4.189521
 30
0.0
  0
POINT
  5
294
330
52D
100
AcDbEntity
  8
_0
  6
Continuous
 62
     7
370
    30
100
AcDbPoint
 10
5.569365
 20
4.423896
 30
0.0
  0
POINT
  5
295
330
52D
100
AcDbEntity
  8
_0
  6
Continuous
 62
     7
370
    30
100
AcDbPoint
 10
5.569365
 20
4.392646
 30
0.0
  0
POINT
  5
296
330
52D
100
AcDbEntity
  8
_0
  6
Continuous
 62
     7
370
    30
100
AcDbPoint
 10
5.569365
 20
4.361396
 30
0.0
  0
POINT
  5
297
330
52D
100
AcDbEntity
  8
_0
  6
Continuous
 62
     7
370
    30
100
AcDbPoint
 10
5.569365
 20
4.330146
 30
0.0
  0
POINT
  5
298
330
52D
100
AcDbEntity
  8
_0
  6
Continuous
 62
     7
370
    30
100
AcDbPoint
 10
5.569365
 20
4.298896
 30
0.0
  0
POINT
  5
299
330
52D
100
AcDbEntity
  8
_0
  6
Continuous
 62
     7
370
    30
100
AcDbPoint
 10
5.569365
 20
4.267646
 30
0.0
  0
POINT
  5
29A
330
52D
100
AcDbEntity
  8
_0
  6
Continuous
 62
     7
370
    30
100
AcDbPoint
 10
5.569365
 20
4.236396
 30
0.0
  0
POINT
  5
29B
330
52D
100
AcDbEntity
  8
_0
  6
Continuous
 62
     7
370
    30
100
AcDbPoint
 10
5.569365
 20
4.205146
 30
0.0
  0
POINT
  5
29C
330
52D
100
AcDbEntity
  8
_0
  6
Continuous
 62
     7
370
    30
100
AcDbPoint
 10
5.569365
 20
4.173896
 30
0.0
  0
POINT
  5
29D
330
52D
100
AcDbEntity
  8
_0
  6
Continuous
 62
     7
370
    30
100
AcDbPoint
 10
5.538115
 20
4.439521
 30
0.0
  0
POINT
  5
29E
330
52D
100
AcDbEntity
  8
_0
  6
Continuous
 62
     7
370
    30
100
AcDbPoint
 10
5.538115
 20
4.408271
 30
0.0
  0
POINT
  5
29F
330
52D
100
AcDbEntity
  8
_0
  6
Continuous
 62
     7
370
    30
100
AcDbPoint
 10
5.538115
 20
4.377021
 30
0.0
  0
POINT
  5
2A0
330
52D
100
AcDbEntity
  8
_0
  6
Continuous
 62
     7
370
    30
100
AcDbPoint
 10
5.538115
 20
4.345771
 30
0.0
  0
POINT
  5
2A1
330
52D
100
AcDbEntity
  8
_0
  6
Continuous
 62
     7
370
    30
100
AcDbPoint
 10
5.538115
 20
4.314521
 30
0.0
  0
POINT
  5
2A2
330
52D
100
AcDbEntity
  8
_0
  6
Continuous
 62
     7
370
    30
100
AcDbPoint
 10
5.538115
 20
4.283271
 30
0.0
  0
POINT
  5
2A3
330
52D
100
AcDbEntity
  8
_0
  6
Continuous
 62
     7
370
    30
100
AcDbPoint
 10
5.538115
 20
4.252021
 30
0.0
  0
POINT
  5
2A4
330
52D
100
AcDbEntity
  8
_0
  6
Continuous
 62
     7
370
    30
100
AcDbPoint
 10
5.538115
 20
4.220771
 30
0.0
  0
POINT
  5
2A5
330
52D
100
AcDbEntity
  8
_0
  6
Continuous
 62
     7
370
    30
100
AcDbPoint
 10
5.538115
 20
4.189521
 30
0.0
  0
POINT
  5
2A6
330
52D
100
AcDbEntity
  8
_0
  6
Continuous
 62
     7
370
    30
100
AcDbPoint
 10
5.506865
 20
4.486396
 30
0.0
  0
POINT
  5
2A7
330
52D
100
AcDbEntity
  8
_0
  6
Continuous
 62
     7
370
    30
100
AcDbPoint
 10
5.506865
 20
4.455146
 30
0.0
  0
POINT
  5
2A8
330
52D
100
AcDbEntity
  8
_0
  6
Continuous
 62
     7
370
    30
100
AcDbPoint
 10
5.506865
 20
4.423896
 30
0.0
  0
POINT
  5
2A9
330
52D
100
AcDbEntity
  8
_0
  6
Continuous
 62
     7
370
    30
100
AcDbPoint
 10
5.506865
 20
4.392646
 30
0.0
  0
POINT
  5
2AA
330
52D
100
AcDbEntity
  8
_0
  6
Continuous
 62
     7
370
    30
100
AcDbPoint
 10
5.506865
 20
4.361396
 30
0.0
  0
POINT
  5
2AB
330
52D
100
AcDbEntity
  8
_0
  6
Continuous
 62
     7
370
    30
100
AcDbPoint
 10
5.506865
 20
4.330146
 30
0.0
  0
POINT
  5
2AC
330
52D
100
AcDbEntity
  8
_0
  6
Continuous
 62
     7
370
    30
100
AcDbPoint
 10
5.506865
 20
4.298896
 30
0.0
  0
POINT
  5
2AD
330
52D
100
AcDbEntity
  8
_0
  6
Continuous
 62
     7
370
    30
100
AcDbPoint
 10
5.506865
 20
4.267646
 30
0.0
  0
POINT
  5
2AE
330
52D
100
AcDbEntity
  8
_0
  6
Continuous
 62
     7
370
    30
100
AcDbPoint
 10
5.506865
 20
4.236396
 30
0.0
  0
POINT
  5
2AF
330
52D
100
AcDbEntity
  8
_0
  6
Continuous
 62
     7
370
    30
100
AcDbPoint
 10
5.506865
 20
4.205146
 30
0.0
  0
POINT
  5
2B0
330
52D
100
AcDbEntity
  8
_0
  6
Continuous
 62
     7
370
    30
100
AcDbPoint
 10
5.506865
 20
4.173896
 30
0.0
  0
POINT
  5
2B1
330
52D
100
AcDbEntity
  8
_0
  6
Continuous
 62
     7
370
    30
100
AcDbPoint
 10
5.475615
 20
4.502021
 30
0.0
  0
POINT
  5
2B2
330
52D
100
AcDbEntity
  8
_0
  6
Continuous
 62
     7
370
    30
100
AcDbPoint
 10
5.475615
 20
4.470771
 30
0.0
  0
POINT
  5
2B3
330
52D
100
AcDbEntity
  8
_0
  6
Continuous
 62
     7
370
    30
100
AcDbPoint
 10
5.475615
 20
4.439521
 30
0.0
  0
POINT
  5
2B4
330
52D
100
AcDbEntity
  8
_0
  6
Continuous
 62
     7
370
    30
100
AcDbPoint
 10
5.475615
 20
4.408271
 30
0.0
  0
POINT
  5
2B5
330
52D
100
AcDbEntity
  8
_0
  6
Continuous
 62
     7
370
    30
100
AcDbPoint
 10
5.475615
 20
4.377021
 30
0.0
  0
POINT
  5
2B6
330
52D
100
AcDbEntity
  8
_0
  6
Continuous
 62
     7
370
    30
100
AcDbPoint
 10
5.475615
 20
4.345771
 30
0.0
  0
POINT
  5
2B7
330
52D
100
AcDbEntity
  8
_0
  6
Continuous
 62
     7
370
    30
100
AcDbPoint
 10
5.475615
 20
4.314521
 30
0.0
  0
POINT
  5
2B8
330
52D
100
AcDbEntity
  8
_0
  6
Continuous
 62
     7
370
    30
100
AcDbPoint
 10
5.475615
 20
4.283271
 30
0.0
  0
POINT
  5
2B9
330
52D
100
AcDbEntity
  8
_0
  6
Continuous
 62
     7
370
    30
100
AcDbPoint
 10
5.475615
 20
4.252021
 30
0.0
  0
POINT
  5
2BA
330
52D
100
AcDbEntity
  8
_0
  6
Continuous
 62
     7
370
    30
100
AcDbPoint
 10
5.475615
 20
4.220771
 30
0.0
  0
POINT
  5
2BB
330
52D
100
AcDbEntity
  8
_0
  6
Continuous
 62
     7
370
    30
100
AcDbPoint
 10
5.475615
 20
4.189521
 30
0.0
  0
POINT
  5
2BC
330
52D
100
AcDbEntity
  8
_0
  6
Continuous
 62
     7
370
    30
100
AcDbPoint
 10
5.444365
 20
4.548896
 30
0.0
  0
POINT
  5
2BD
330
52D
100
AcDbEntity
  8
_0
  6
Continuous
 62
     7
370
    30
100
AcDbPoint
 10
5.444365
 20
4.517646
 30
0.0
  0
POINT
  5
2BE
330
52D
100
AcDbEntity
  8
_0
  6
Continuous
 62
     7
370
    30
100
AcDbPoint
 10
5.444365
 20
4.486396
 30
0.0
  0
POINT
  5
2BF
330
52D
100
AcDbEntity
  8
_0
  6
Continuous
 62
     7
370
    30
100
AcDbPoint
 10
5.444365
 20
4.455146
 30
0.0
  0
POINT
  5
2C0
330
52D
100
AcDbEntity
  8
_0
  6
Continuous
 62
     7
370
    30
100
AcDbPoint
 10
5.444365
 20
4.423896
 30
0.0
  0
POINT
  5
2C1
330
52D
100
AcDbEntity
  8
_0
  6
Continuous
 62
     7
370
    30
100
AcDbPoint
 10
5.444365
 20
4.392646
 30
0.0
  0
POINT
  5
2C2
330
52D
100
AcDbEntity
  8
_0
  6
Continuous
 62
     7
370
    30
100
AcDbPoint
 10
5.444365
 20
4.361396
 30
0.0
  0
POINT
  5
2C3
330
52D
100
AcDbEntity
  8
_0
  6
Continuous
 62
     7
370
    30
100
AcDbPoint
 10
5.444365
 20
4.330146
 30
0.0
  0
POINT
  5
2C4
330
52D
100
AcDbEntity
  8
_0
  6
Continuous
 62
     7
370
    30
100
AcDbPoint
 10
5.444365
 20
4.298896
 30
0.0
  0
POINT
  5
2C5
330
52D
100
AcDbEntity
  8
_0
  6
Continuous
 62
     7
370
    30
100
AcDbPoint
 10
5.444365
 20
4.267646
 30
0.0
  0
POINT
  5
2C6
330
52D
100
AcDbEntity
  8
_0
  6
Continuous
 62
     7
370
    30
100
AcDbPoint
 10
5.444365
 20
4.236396
 30
0.0
  0
POINT
  5
2C7
330
52D
100
AcDbEntity
  8
_0
  6
Continuous
 62
     7
370
    30
100
AcDbPoint
 10
5.444365
 20
4.205146
 30
0.0
  0
POINT
  5
2C8
330
52D
100
AcDbEntity
  8
_0
  6
Continuous
 62
     7
370
    30
100
AcDbPoint
 10
5.444365
 20
4.173896
 30
0.0
  0
POINT
  5
2C9
330
52D
100
AcDbEntity
  8
_0
  6
Continuous
 62
     7
370
    30
100
AcDbPoint
 10
5.413115
 20
4.627021
 30
0.0
  0
POINT
  5
2CA
330
52D
100
AcDbEntity
  8
_0
  6
Continuous
 62
     7
370
    30
100
AcDbPoint
 10
5.413115
 20
4.595771
 30
0.0
  0
POINT
  5
2CB
330
52D
100
AcDbEntity
  8
_0
  6
Continuous
 62
     7
370
    30
100
AcDbPoint
 10
5.413115
 20
4.564521
 30
0.0
  0
POINT
  5
2CC
330
52D
100
AcDbEntity
  8
_0
  6
Continuous
 62
     7
370
    30
100
AcDbPoint
 10
5.413115
 20
4.533271
 30
0.0
  0
POINT
  5
2CD
330
52D
100
AcDbEntity
  8
_0
  6
Continuous
 62
     7
370
    30
100
AcDbPoint
 10
5.413115
 20
4.502021
 30
0.0
  0
POINT
  5
2CE
330
52D
100
AcDbEntity
  8
_0
  6
Continuous
 62
     7
370
    30
100
AcDbPoint
 10
5.413115
 20
4.470771
 30
0.0
  0
POINT
  5
2CF
330
52D
100
AcDbEntity
  8
_0
  6
Continuous
 62
     7
370
    30
100
AcDbPoint
 10
5.413115
 20
4.439521
 30
0.0
  0
POINT
  5
2D0
330
52D
100
AcDbEntity
  8
_0
  6
Continuous
 62
     7
370
    30
100
AcDbPoint
 10
5.413115
 20
4.408271
 30
0.0
  0
POINT
  5
2D1
330
52D
100
AcDbEntity
  8
_0
  6
Continuous
 62
     7
370
    30
100
AcDbPoint
 10
5.413115
 20
4.377021
 30
0.0
  0
POINT
  5
2D2
330
52D
100
AcDbEntity
  8
_0
  6
Continuous
 62
     7
370
    30
100
AcDbPoint
 10
5.413115
 20
4.345771
 30
0.0
  0
POINT
  5
2D3
330
52D
100
AcDbEntity
  8
_0
  6
Continuous
 62
     7
370
    30
100
AcDbPoint
 10
5.413115
 20
4.314521
 30
0.0
  0
POINT
  5
2D4
330
52D
100
AcDbEntity
  8
_0
  6
Continuous
 62
     7
370
    30
100
AcDbPoint
 10
5.413115
 20
4.283271
 30
0.0
  0
POINT
  5
2D5
330
52D
100
AcDbEntity
  8
_0
  6
Continuous
 62
     7
370
    30
100
AcDbPoint
 10
5.413115
 20
4.252021
 30
0.0
  0
POINT
  5
2D6
330
52D
100
AcDbEntity
  8
_0
  6
Continuous
 62
     7
370
    30
100
AcDbPoint
 10
5.413115
 20
4.220771
 30
0.0
  0
POINT
  5
2D7
330
52D
100
AcDbEntity
  8
_0
  6
Continuous
 62
     7
370
    30
100
AcDbPoint
 10
5.413115
 20
4.189521
 30
0.0
  0
POINT
  5
2D8
330
52D
100
AcDbEntity
  8
_0
  6
Continuous
 62
     7
370
    30
100
AcDbPoint
 10
5.381865
 20
4.642646
 30
0.0
  0
POINT
  5
2D9
330
52D
100
AcDbEntity
  8
_0
  6
Continuous
 62
     7
370
    30
100
AcDbPoint
 10
5.381865
 20
4.611396
 30
0.0
  0
POINT
  5
2DA
330
52D
100
AcDbEntity
  8
_0
  6
Continuous
 62
     7
370
    30
100
AcDbPoint
 10
5.381865
 20
4.580146
 30
0.0
  0
POINT
  5
2DB
330
52D
100
AcDbEntity
  8
_0
  6
Continuous
 62
     7
370
    30
100
AcDbPoint
 10
5.381865
 20
4.548896
 30
0.0
  0
POINT
  5
2DC
330
52D
100
AcDbEntity
  8
_0
  6
Continuous
 62
     7
370
    30
100
AcDbPoint
 10
5.381865
 20
4.517646
 30
0.0
  0
POINT
  5
2DD
330
52D
100
AcDbEntity
  8
_0
  6
Continuous
 62
     7
370
    30
100
AcDbPoint
 10
5.381865
 20
4.486396
 30
0.0
  0
POINT
  5
2DE
330
52D
100
AcDbEntity
  8
_0
  6
Continuous
 62
     7
370
    30
100
AcDbPoint
 10
5.381865
 20
4.455146
 30
0.0
  0
POINT
  5
2DF
330
52D
100
AcDbEntity
  8
_0
  6
Continuous
 62
     7
370
    30
100
AcDbPoint
 10
5.381865
 20
4.423896
 30
0.0
  0
POINT
  5
2E0
330
52D
100
AcDbEntity
  8
_0
  6
Continuous
 62
     7
370
    30
100
AcDbPoint
 10
5.381865
 20
4.392646
 30
0.0
  0
POINT
  5
2E1
330
52D
100
AcDbEntity
  8
_0
  6
Continuous
 62
     7
370
    30
100
AcDbPoint
 10
5.381865
 20
4.361396
 30
0.0
  0
POINT
  5
2E2
330
52D
100
AcDbEntity
  8
_0
  6
Continuous
 62
     7
370
    30
100
AcDbPoint
 10
5.381865
 20
4.330146
 30
0.0
  0
POINT
  5
2E3
330
52D
100
AcDbEntity
  8
_0
  6
Continuous
 62
     7
370
    30
100
AcDbPoint
 10
5.381865
 20
4.298896
 30
0.0
  0
POINT
  5
2E4
330
52D
100
AcDbEntity
  8
_0
  6
Continuous
 62
     7
370
    30
100
AcDbPoint
 10
5.381865
 20
4.267646
 30
0.0
  0
POINT
  5
2E5
330
52D
100
AcDbEntity
  8
_0
  6
Continuous
 62
     7
370
    30
100
AcDbPoint
 10
5.381865
 20
4.236396
 30
0.0
  0
POINT
  5
2E6
330
52D
100
AcDbEntity
  8
_0
  6
Continuous
 62
     7
370
    30
100
AcDbPoint
 10
5.381865
 20
4.205146
 30
0.0
  0
POINT
  5
2E7
330
52D
100
AcDbEntity
  8
_0
  6
Continuous
 62
     7
370
    30
100
AcDbPoint
 10
5.381865
 20
4.173896
 30
0.0
  0
POINT
  5
2E8
330
52D
100
AcDbEntity
  8
_0
  6
Continuous
 62
     7
370
    30
100
AcDbPoint
 10
5.350615
 20
4.658271
 30
0.0
  0
POINT
  5
2E9
330
52D
100
AcDbEntity
  8
_0
  6
Continuous
 62
     7
370
    30
100
AcDbPoint
 10
5.350615
 20
4.627021
 30
0.0
  0
POINT
  5
2EA
330
52D
100
AcDbEntity
  8
_0
  6
Continuous
 62
     7
370
    30
100
AcDbPoint
 10
5.350615
 20
4.595771
 30
0.0
  0
POINT
  5
2EB
330
52D
100
AcDbEntity
  8
_0
  6
Continuous
 62
     7
370
    30
100
AcDbPoint
 10
5.350615
 20
4.564521
 30
0.0
  0
POINT
  5
2EC
330
52D
100
AcDbEntity
  8
_0
  6
Continuous
 62
     7
370
    30
100
AcDbPoint
 10
5.350615
 20
4.533271
 30
0.0
  0
POINT
  5
2ED
330
52D
100
AcDbEntity
  8
_0
  6
Continuous
 62
     7
370
    30
100
AcDbPoint
 10
5.350615
 20
4.502021
 30
0.0
  0
POINT
  5
2EE
330
52D
100
AcDbEntity
  8
_0
  6
Continuous
 62
     7
370
    30
100
AcDbPoint
 10
5.350615
 20
4.470771
 30
0.0
  0
POINT
  5
2EF
330
52D
100
AcDbEntity
  8
_0
  6
Continuous
 62
     7
370
    30
100
AcDbPoint
 10
5.350615
 20
4.439521
 30
0.0
  0
POINT
  5
2F0
330
52D
100
AcDbEntity
  8
_0
  6
Continuous
 62
     7
370
    30
100
AcDbPoint
 10
5.350615
 20
4.408271
 30
0.0
  0
POINT
  5
2F1
330
52D
100
AcDbEntity
  8
_0
  6
Continuous
 62
     7
370
    30
100
AcDbPoint
 10
5.350615
 20
4.377021
 30
0.0
  0
POINT
  5
2F2
330
52D
100
AcDbEntity
  8
_0
  6
Continuous
 62
     7
370
    30
100
AcDbPoint
 10
5.350615
 20
4.345771
 30
0.0
  0
POINT
  5
2F3
330
52D
100
AcDbEntity
  8
_0
  6
Continuous
 62
     7
370
    30
100
AcDbPoint
 10
5.350615
 20
4.314521
 30
0.0
  0
POINT
  5
2F4
330
52D
100
AcDbEntity
  8
_0
  6
Continuous
 62
     7
370
    30
100
AcDbPoint
 10
5.350615
 20
4.283271
 30
0.0
  0
POINT
  5
2F5
330
52D
100
AcDbEntity
  8
_0
  6
Continuous
 62
     7
370
    30
100
AcDbPoint
 10
5.350615
 20
4.252021
 30
0.0
  0
POINT
  5
2F6
330
52D
100
AcDbEntity
  8
_0
  6
Continuous
 62
     7
370
    30
100
AcDbPoint
 10
5.350615
 20
4.220771
 30
0.0
  0
POINT
  5
2F7
330
52D
100
AcDbEntity
  8
_0
  6
Continuous
 62
     7
370
    30
100
AcDbPoint
 10
5.350615
 20
4.189521
 30
0.0
  0
POINT
  5
2F8
330
52D
100
AcDbEntity
  8
_0
  6
Continuous
 62
     7
370
    30
100
AcDbPoint
 10
5.319365
 20
4.642646
 30
0.0
  0
POINT
  5
2F9
330
52D
100
AcDbEntity
  8
_0
  6
Continuous
 62
     7
370
    30
100
AcDbPoint
 10
5.319365
 20
4.611396
 30
0.0
  0
POINT
  5
2FA
330
52D
100
AcDbEntity
  8
_0
  6
Continuous
 62
     7
370
    30
100
AcDbPoint
 10
5.319365
 20
4.580146
 30
0.0
  0
POINT
  5
2FB
330
52D
100
AcDbEntity
  8
_0
  6
Continuous
 62
     7
370
    30
100
AcDbPoint
 10
5.319365
 20
4.548896
 30
0.0
  0
POINT
  5
2FC
330
52D
100
AcDbEntity
  8
_0
  6
Continuous
 62
     7
370
    30
100
AcDbPoint
 10
5.319365
 20
4.517646
 30
0.0
  0
POINT
  5
2FD
330
52D
100
AcDbEntity
  8
_0
  6
Continuous
 62
     7
370
    30
100
AcDbPoint
 10
5.319365
 20
4.486396
 30
0.0
  0
POINT
  5
2FE
330
52D
100
AcDbEntity
  8
_0
  6
Continuous
 62
     7
370
    30
100
AcDbPoint
 10
5.319365
 20
4.455146
 30
0.0
  0
POINT
  5
2FF
330
52D
100
AcDbEntity
  8
_0
  6
Continuous
 62
     7
370
    30
100
AcDbPoint
 10
5.319365
 20
4.423896
 30
0.0
  0
POINT
  5
300
330
52D
100
AcDbEntity
  8
_0
  6
Continuous
 62
     7
370
    30
100
AcDbPoint
 10
5.319365
 20
4.361396
 30
0.0
  0
POINT
  5
301
330
52D
100
AcDbEntity
  8
_0
  6
Continuous
 62
     7
370
    30
100
AcDbPoint
 10
5.319365
 20
4.330146
 30
0.0
  0
POINT
  5
302
330
52D
100
AcDbEntity
  8
_0
  6
Continuous
 62
     7
370
    30
100
AcDbPoint
 10
5.319365
 20
4.298896
 30
0.0
  0
POINT
  5
303
330
52D
100
AcDbEntity
  8
_0
  6
Continuous
 62
     7
370
    30
100
AcDbPoint
 10
5.319365
 20
4.267646
 30
0.0
  0
POINT
  5
304
330
52D
100
AcDbEntity
  8
_0
  6
Continuous
 62
     7
370
    30
100
AcDbPoint
 10
5.319365
 20
4.236396
 30
0.0
  0
POINT
  5
305
330
52D
100
AcDbEntity
  8
_0
  6
Continuous
 62
     7
370
    30
100
AcDbPoint
 10
5.319365
 20
4.205146
 30
0.0
  0
POINT
  5
306
330
52D
100
AcDbEntity
  8
_0
  6
Continuous
 62
     7
370
    30
100
AcDbPoint
 10
5.319365
 20
4.173896
 30
0.0
  0
LINE
  5
30B
330
52D
100
AcDbEntity
  8
BORDER
  6
Continuous
 62
     7
370
    30
100
AcDbLine
 10
8.986906
 20
0.625
 30
0.0
 11
8.986906
 21
1.125
 31
0.0
  0
LINE
  5
30D
330
52D
100
AcDbEntity
  8
BORDER
  6
Continuous
 62
     7
370
    30
100
AcDbLine
 10
7.886906
 20
0.625
 30
0.0
 11
7.886906
 21
1.125
 31
0.0
  0
LINE
  5
30E
330
52D
100
AcDbEntity
  8
BORDER
  6
Continuous
 62
     7
370
    30
100
AcDbLine
 10
0.986906
 20
1.125
 30
0.0
 11
10.086906
 21
1.125
 31
0.0
  0
LINE
  5
30F
330
52D
100
AcDbEntity
  8
BORDER
  6
Continuous
 62
     7
370
    30
100
AcDbLine
 10
0.986906
 20
0.625
 30
0.0
 11
10.086906
 21
0.625
 31
0.0
  0
LINE
  5
310
330
52D
100
AcDbEntity
  8
BORDER
  6
Continuous
 62
     7
370
    30
100
AcDbLine
 10
0.986906
 20
7.875
 30
0.0
 11
10.086906
 21
7.875
 31
0.0
  0
LINE
  5
311
330
52D
100
AcDbEntity
  8
BORDER
  6
Continuous
 62
     7
370
    30
100
AcDbLine
 10
10.086906
 20
0.625
 30
0.0
 11
10.086906
 21
7.875
 31
0.0
  0
LINE
  5
312
330
52D
100
AcDbEntity
  8
_0
  6
Continuous
 62
     7
370
    30
100
AcDbLine
 10
1.992563
 20
3.930396
 30
0.0
 11
2.154437
 21
3.930396
 31
0.0
  0
ARC
  5
313
330
52D
100
AcDbEntity
  8
_0
  6
Continuous
 62
     7
370
    30
100
AcDbCircle
 10
2.466941
 20
4.395251
 30
0.0
 40
0.3125
100
AcDbArc
 50
126.594931
 51
173.542708
  0
ARC
  5
314
330
52D
100
AcDbEntity
  8
_0
  6
Continuous
 62
     7
370
    30
100
AcDbCircle
 10
1.481628
 20
4.407882
 30
0.0
 40
0.3125
100
AcDbArc
 50
4.131422
 51
51.936206
  0
LINE
  5
315
330
52D
100
AcDbEntity
  8
_0
  6
Continuous
 62
     7
370
    30
100
AcDbLine
 10
1.777562
 20
4.430396
 30
0.0
 11
2.171
 21
4.430396
 31
0.0
  0
ARC
  5
316
330
52D
100
AcDbEntity
  8
_0
  6
Continuous
 62
     7
370
    30
100
AcDbCircle
 10
1.982566
 20
5.047583
 30
0.0
 40
0.5
100
AcDbArc
 50
306.594931
 51
231.936206
  0
LINE
  5
317
330
52D
100
AcDbEntity
  8
_0
  6
Continuous
 62
     7
370
    30
100
AcDbLine
 10
2.154437
 20
3.930396
 30
0.0
 11
2.154437
 21
4.055396
 31
0.0
  0
LINE
  5
318
330
52D
100
AcDbEntity
  8
_0
  6
Continuous
 62
     7
370
    30
100
AcDbLine
 10
2.171
 20
4.055396
 30
0.0
 11
2.171
 21
4.430396
 31
0.0
  0
LINE
  5
319
330
52D
100
AcDbEntity
  8
_0
  6
Continuous
 62
     7
370
    30
100
AcDbLine
 10
1.794125
 20
3.000708
 30
0.0
 11
1.794125
 21
3.473958
 31
0.0
  0
LINE
  5
31A
330
52D
100
AcDbEntity
  8
_0
  6
Continuous
 62
     7
370
    30
100
AcDbLine
 10
1.966
 20
3.000708
 30
0.0
 11
1.966
 21
3.473958
 31
0.0
  0
LINE
  5
31B
330
52D
100
AcDbEntity
  8
_0
  6
Continuous
 62
     7
370
    30
100
AcDbLine
 10
1.777562
 20
4.055396
 30
0.0
 11
2.171
 21
4.055396
 31
0.0
  0
LINE
  5
31C
330
52D
100
AcDbEntity
  8
_0
  6
Continuous
 62
     7
370
    30
100
AcDbLine
 10
1.777562
 20
4.055396
 30
0.0
 11
1.777562
 21
4.430396
 31
0.0
  0
LINE
  5
31D
330
52D
100
AcDbEntity
  8
_0
  6
Continuous
 62
     7
370
    30
100
AcDbLine
 10
1.794125
 20
3.719458
 30
0.0
 11
1.794125
 21
4.055396
 31
0.0
  0
LINE
  5
31E
330
52D
100
AcDbEntity
  8
_0
  6
Continuous
 62
     7
370
    30
100
AcDbLine
 10
1.794125
 20
3.000708
 30
0.0
 11
1.833187
 21
2.875708
 31
0.0
  0
LINE
  5
31F
330
52D
100
AcDbEntity
  8
_0
  6
Continuous
 62
     7
370
    30
100
AcDbLine
 10
1.833187
 20
2.875708
 30
0.0
 11
1.926937
 21
2.875708
 31
0.0
  0
LINE
  5
320
330
52D
100
AcDbEntity
  8
_0
  6
Continuous
 62
     7
370
    30
100
AcDbLine
 10
1.926937
 20
2.875708
 30
0.0
 11
1.966
 21
3.000708
 31
0.0
  0
LWPOLYLINE
  5
321
330
52D
100
AcDbEntity
  8
_0
  6
Continuous
 62
     7
370
    30
100
AcDbPolyline
 90
        6
 70
   128
 43
0.0
 10
1.889073
 20
3.719458
 10
1.8795
 20
3.71424
 10
1.857417
 20
3.702833
 10
1.835667
 20
3.696771
 10
1.814479
 20
3.70075
 10
1.794125
 20
3.719458
  0
LWPOLYLINE
  5
322
330
52D
100
AcDbEntity
  8
_0
  6
Continuous
 62
     7
370
    30
100
AcDbPolyline
 90
        6
 70
   128
 43
0.0
 10
1.889073
 20
3.473958
 10
1.8795
 20
3.479167
 10
1.857417
 20
3.490583
 10
1.835667
 20
3.496646
 10
1.814479
 20
3.492667
 10
1.794125
 20
3.473958
  0
SPLINE
  5
323
330
52D
100
AcDbEntity
  8
_0
  6
Continuous
 62
     7
370
    30
100
AcDbSpline
210
0.0
220
0.0
230
1.0
 70
     8
 71
     3
 72
     8
 73
     4
 74
     0
 42
0.0000000001
 43
0.00000001
 40
0.0
 40
0.0
 40
0.0
 40
0.0
 40
1.0
 40
1.0
 40
1.0
 40
1.0
 10
1.966
 20
3.473958333333333
 30
0.0
 10
1.911541666666667
 20
3.533770833333333
 30
0.0
 10
1.847083333333333
 20
3.400239583333333
 30
0.0
 10
1.794125
 20
3.473958333333333
 30
0.0
  0
LWPOLYLINE
  5
325
330
52D
100
AcDbEntity
  8
_0
  6
Continuous
 62
     7
370
    30
100
AcDbPolyline
 90
        6
 70
   128
 43
0.0
 10
2.124771
 20
5.728271
 10
2.115198
 20
5.723052
 10
2.093115
 20
5.711646
 10
2.071365
 20
5.705573
 10
2.050177
 20
5.709552
 10
2.029823
 20
5.728271
  0
LINE
  5
326
330
52D
100
AcDbEntity
  8
_0
  6
Continuous
 62
     7
370
    30
100
AcDbLine
 10
2.029823
 20
5.728271
 30
0.0
 11
2.029823
 21
6.064208
 31
0.0
  0
LINE
  5
327
330
52D
100
AcDbEntity
  8
_0
  6
Continuous
 62
     7
370
    30
100
AcDbLine
 10
2.029823
 20
6.064208
 30
0.0
 11
2.029823
 21
6.439208
 31
0.0
  0
LINE
  5
328
330
52D
100
AcDbEntity
  8
_0
  6
Continuous
 62
     7
370
    30
100
AcDbLine
 10
2.029823
 20
6.439208
 30
0.0
 11
2.029823
 21
6.416688
 31
0.0
  0
LINE
  5
329
330
52D
100
AcDbEntity
  8
_0
  6
Continuous
 62
     7
370
    30
100
AcDbLine
 10
2.001865
 20
6.064208
 30
0.0
 11
2.001865
 21
6.439208
 31
0.0
  0
LINE
  5
32A
330
52D
100
AcDbEntity
  8
_0
  6
Continuous
 62
     7
370
    30
100
AcDbLine
 10
2.001865
 20
6.064208
 30
0.0
 11
2.420937
 21
6.064208
 31
0.0
  0
LINE
  5
32B
330
52D
100
AcDbEntity
  8
_0
  6
Continuous
 62
     7
370
    30
100
AcDbLine
 10
2.390135
 20
6.439208
 30
0.0
 11
2.390135
 21
6.404063
 31
0.0
  0
LINE
  5
32C
330
52D
100
AcDbEntity
  8
_0
  6
Continuous
 62
     7
370
    30
100
AcDbLine
 10
2.420937
 20
6.064208
 30
0.0
 11
2.420937
 21
6.439208
 31
0.0
  0
LINE
  5
32D
330
52D
100
AcDbEntity
  8
_0
  6
Continuous
 62
     7
370
    30
100
AcDbLine
 10
2.390135
 20
6.064208
 30
0.0
 11
2.390135
 21
6.439208
 31
0.0
  0
LINE
  5
32E
330
52D
100
AcDbEntity
  8
_0
  6
Continuous
 62
     7
370
    30
100
AcDbLine
 10
2.390135
 20
5.939208
 30
0.0
 11
2.390135
 21
6.064208
 31
0.0
  0
ARC
  5
32F
330
52D
100
AcDbEntity
  8
_0
  6
Continuous
 62
     7
370
    30
100
AcDbCircle
 10
2.218262
 20
7.056391
 30
0.0
 40
0.5
100
AcDbArc
 50
306.594931
 51
231.936206
  0
LINE
  5
330
330
52D
100
AcDbEntity
  8
_0
  6
Continuous
 62
     7
370
    30
100
AcDbLine
 10
2.001865
 20
6.439208
 30
0.0
 11
2.420937
 21
6.439208
 31
0.0
  0
ARC
  5
331
330
52D
100
AcDbEntity
  8
_0
  6
Continuous
 62
     7
370
    30
100
AcDbCircle
 10
1.717324
 20
6.41669
 30
0.0
 40
0.3125
100
AcDbArc
 50
0.0
 51
51.936208
  0
ARC
  5
332
330
52D
100
AcDbEntity
  8
_0
  6
Continuous
 62
     7
370
    30
100
AcDbCircle
 10
2.702637
 20
6.404059
 30
0.0
 40
0.3125
100
AcDbArc
 50
126.594931
 51
180.0
  0
LINE
  5
333
330
52D
100
AcDbEntity
  8
_0
  6
Continuous
 62
     7
370
    30
100
AcDbLine
 10
2.22826
 20
5.939208
 30
0.0
 11
2.390135
 21
5.939208
 31
0.0
  0
LINE
  5
334
330
52D
100
AcDbEntity
  8
_0
  6
Continuous
 62
     7
370
    30
100
AcDbLine
 10
1.966
 20
3.000708
 30
0.0
 11
2.016
 21
3.000708
 31
0.0
  0
LINE
  5
335
330
52D
100
AcDbEntity
  8
_0
  6
Continuous
 62
     7
370
    30
100
AcDbLine
 10
1.966
 20
3.200708
 30
0.0
 11
2.016
 21
3.200708
 31
0.0
  0
ARC
  5
336
330
52D
100
AcDbEntity
  8
_0
  6
Continuous
 62
     7
370
    30
100
AcDbCircle
 10
2.016003
 20
3.100708
 30
0.0
 40
0.1000000000000001
100
AcDbArc
 50
270.0
 51
90.0
  0
ARC
  5
338
330
52D
100
AcDbEntity
  8
_0
  6
Continuous
 62
     7
370
    30
100
AcDbCircle
 10
2.295066
 20
4.542724
 30
0.0
 40
0.3025
100
AcDbArc
 50
121.756864
 51
180.0
  0
ARC
  5
339
330
52D
100
AcDbEntity
  8
_0
  6
Continuous
 62
     7
370
    30
100
AcDbCircle
 10
1.982566
 20
5.047583
 30
0.0
 40
0.29125
100
AcDbArc
 50
301.756864
 51
236.343644
  0
ARC
  5
33A
330
52D
100
AcDbEntity
  8
_0
  6
Continuous
 62
     7
370
    30
100
AcDbCircle
 10
1.653503
 20
4.55336
 30
0.0
 40
0.3025
100
AcDbArc
 50
0.0
 51
56.343644
  0
LINE
  5
33B
330
52D
100
AcDbEntity
  8
_0
  6
Continuous
 62
     7
370
    30
100
AcDbLine
 10
1.956
 20
4.430396
 30
0.0
 11
1.956
 21
4.553365
 31
0.0
  0
LINE
  5
33C
330
52D
100
AcDbEntity
  8
_0
  6
Continuous
 62
     7
370
    30
100
AcDbLine
 10
1.992563
 20
4.430396
 30
0.0
 11
1.992563
 21
4.542729
 31
0.0
  0
LINE
  5
33D
330
52D
100
AcDbEntity
  8
_0
  6
Continuous
 62
     7
370
    30
100
AcDbLine
 10
1.956
 20
3.712667
 30
0.0
 11
1.956
 21
4.055396
 31
0.0
  0
LINE
  5
33E
330
52D
100
AcDbEntity
  8
_0
  6
Continuous
 62
     7
370
    30
100
AcDbLine
 10
1.992563
 20
3.930396
 30
0.0
 11
1.992563
 21
4.055396
 31
0.0
  0
LWPOLYLINE
  5
33F
330
52D
100
AcDbEntity
  8
_0
  6
Continuous
 62
     7
370
    30
100
AcDbPolyline
 90
        9
 70
   128
 43
0.0
 10
1.956
 20
3.712667
 10
1.945156
 20
3.705312
 10
1.923615
 20
3.704594
 10
1.901646
 20
3.712604
 10
1.8795
 20
3.724677
 10
1.857417
 20
3.736083
 10
1.835667
 20
3.742146
 10
1.814479
 20
3.738167
 10
1.794125
 20
3.719458
  0
ARC
  5
340
330
52D
100
AcDbEntity
  8
_0
  6
Continuous
 62
     7
370
    30
100
AcDbCircle
 10
1.889199
 20
6.562168
 30
0.0
 40
0.3025
100
AcDbArc
 50
0.0
 51
56.343644
  0
ARC
  5
341
330
52D
100
AcDbEntity
  8
_0
  6
Continuous
 62
     7
370
    30
100
AcDbCircle
 10
2.218262
 20
7.056391
 30
0.0
 40
0.29125
100
AcDbArc
 50
301.756864
 51
236.343644
  0
ARC
  5
342
330
52D
100
AcDbEntity
  8
_0
  6
Continuous
 62
     7
370
    30
100
AcDbCircle
 10
2.530762
 20
6.551532
 30
0.0
 40
0.3025
100
AcDbArc
 50
121.756864
 51
180.0
  0
LINE
  5
343
330
52D
100
AcDbEntity
  8
_0
  6
Continuous
 62
     7
370
    30
100
AcDbLine
 10
2.22826
 20
6.439208
 30
0.0
 11
2.22826
 21
6.551531
 31
0.0
  0
LINE
  5
344
330
52D
100
AcDbEntity
  8
_0
  6
Continuous
 62
     7
370
    30
100
AcDbLine
 10
2.22826
 20
6.064208
 30
0.0
 11
2.22826
 21
6.439208
 31
0.0
  0
LINE
  5
345
330
52D
100
AcDbEntity
  8
_0
  6
Continuous
 62
     7
370
    30
100
AcDbLine
 10
2.191698
 20
6.064208
 30
0.0
 11
2.191698
 21
6.439208
 31
0.0
  0
LINE
  5
346
330
52D
100
AcDbEntity
  8
_0
  6
Continuous
 62
     7
370
    30
100
AcDbLine
 10
2.191698
 20
6.439208
 30
0.0
 11
2.191698
 21
6.562167
 31
0.0
  0
LINE
  5
347
330
52D
100
AcDbEntity
  8
_0
  6
Continuous
 62
     7
370
    30
100
AcDbLine
 10
2.22826
 20
5.939208
 30
0.0
 11
2.22826
 21
6.064208
 31
0.0
  0
LINE
  5
348
330
52D
100
AcDbEntity
  8
_0
  6
Continuous
 62
     7
370
    30
100
AcDbLine
 10
2.191698
 20
5.721479
 30
0.0
 11
2.191698
 21
6.064208
 31
0.0
  0
LWPOLYLINE
  5
349
330
52D
100
AcDbEntity
  8
_0
  6
Continuous
 62
     7
370
    30
100
AcDbPolyline
 90
        9
 70
   128
 43
0.0
 10
2.191698
 20
5.721479
 10
2.180844
 20
5.714115
 10
2.159312
 20
5.713396
 10
2.137344
 20
5.721417
 10
2.115198
 20
5.733479
 10
2.093115
 20
5.744896
 10
2.071365
 20
5.750958
 10
2.050177
 20
5.746979
 10
2.029823
 20
5.728271
  0
CIRCLE
  5
34A
330
52D
100
AcDbEntity
  8
HATCH
  6
Continuous
 62
     7
370
    30
100
AcDbCircle
 10
8.547343
 20
6.727969
 30
0.0
 40
0.0809374999999992
  0
CIRCLE
  5
34B
330
52D
100
AcDbEntity
  8
HATCH
  6
Continuous
 62
     7
370
    30
100
AcDbCircle
 10
8.348905
 20
6.727969
 30
0.0
 40
0.0809374999999992
  0
LINE
  5
34C
330
52D
100
AcDbEntity
  8
_0
  6
Continuous
 62
     7
370
    30
100
AcDbLine
 10
8.850292
 20
6.621854
 30
0.0
 11
8.547344
 21
6.621854
 31
0.0
  0
LINE
  5
34D
330
52D
100
AcDbEntity
  8
_0
  6
Continuous
 62
     7
370
    30
100
AcDbLine
 10
8.850292
 20
6.834083
 30
0.0
 11
8.547344
 21
6.834083
 31
0.0
  0
ARC
  5
34E
330
52D
100
AcDbEntity
  8
_0
  6
Continuous
 62
     7
370
    30
100
AcDbCircle
 10
8.062522
 20
6.727969
 30
0.0
 40
0.1061168901550458
100
AcDbArc
 50
90.0
 51
270.0
  0
ARC
  5
34F
330
52D
100
AcDbEntity
  8
_0
  6
Continuous
 62
     7
370
    30
100
AcDbCircle
 10
8.850288
 20
6.727969
 30
0.0
 40
0.1061168901550458
100
AcDbArc
 50
270.0
 51
90.0
  0
ARC
  5
350
330
52D
100
AcDbEntity
  8
_0
  6
Continuous
 62
     7
370
    30
100
AcDbCircle
 10
8.348905
 20
6.727969
 30
0.0
 40
0.1061168901550458
100
AcDbArc
 50
61.225
 51
298.775
  0
ARC
  5
351
330
52D
100
AcDbEntity
  8
_0
  6
Continuous
 62
     7
370
    30
100
AcDbCircle
 10
8.547343
 20
6.727969
 30
0.0
 40
0.1061168901550458
100
AcDbArc
 50
241.225
 51
118.775
  0
LINE
  5
352
330
52D
100
AcDbEntity
  8
_0
  6
Continuous
 62
     7
370
    30
100
AcDbLine
 10
8.348906
 20
6.834083
 30
0.0
 11
8.062521
 21
6.834083
 31
0.0
  0
LINE
  5
353
330
52D
100
AcDbEntity
  8
_0
  6
Continuous
 62
     7
370
    30
100
AcDbLine
 10
8.348906
 20
6.621854
 30
0.0
 11
8.062521
 21
6.621854
 31
0.0
  0
ARC
  5
354
330
52D
100
AcDbEntity
  8
_0
  6
Continuous
 62
     7
370
    30
100
AcDbCircle
 10
8.448124
 20
6.908634
 30
0.0
 40
0.1
100
AcDbArc
 50
241.225
 51
298.775
  0
ARC
  5
355
330
52D
100
AcDbEntity
  8
_0
  6
Continuous
 62
     7
370
    30
100
AcDbCircle
 10
8.448124
 20
6.547304
 30
0.0
 40
0.1
100
AcDbArc
 50
61.225
 51
118.775
  0
LINE
  5
356
330
52D
100
AcDbEntity
  8
HATCH
  6
Continuous
 62
     7
370
    30
100
AcDbLine
 10
8.268062
 20
6.724094
 30
0.0
 11
8.351031
 21
6.808875
 31
0.0
  0
LINE
  5
357
330
52D
100
AcDbEntity
  8
HATCH
  6
Continuous
 62
     7
370
    30
100
AcDbLine
 10
8.276479
 20
6.691833
 30
0.0
 11
8.383469
 21
6.801156
 31
0.0
  0
LINE
  5
358
330
52D
100
AcDbEntity
  8
HATCH
  6
Continuous
 62
     7
370
    30
100
AcDbLine
 10
8.293823
 20
6.668667
 30
0.0
 11
8.407
 21
6.784323
 31
0.0
  0
LINE
  5
359
330
52D
100
AcDbEntity
  8
HATCH
  6
Continuous
 62
     7
370
    30
100
AcDbLine
 10
8.318458
 20
6.652979
 30
0.0
 11
8.423219
 21
6.760031
 31
0.0
  0
LINE
  5
35A
330
52D
100
AcDbEntity
  8
HATCH
  6
Continuous
 62
     7
370
    30
100
AcDbLine
 10
8.352729
 20
6.647125
 30
0.0
 11
8.429813
 21
6.725885
 31
0.0
  0
LINE
  5
35B
330
52D
100
AcDbEntity
  8
HATCH
  6
Continuous
 62
     7
370
    30
100
AcDbLine
 10
8.551167
 20
6.647125
 30
0.0
 11
8.62825
 21
6.725885
 31
0.0
  0
LINE
  5
35C
330
52D
100
AcDbEntity
  8
HATCH
  6
Continuous
 62
     7
370
    30
100
AcDbLine
 10
8.516896
 20
6.652979
 30
0.0
 11
8.621656
 21
6.760031
 31
0.0
  0
LINE
  5
35D
330
52D
100
AcDbEntity
  8
HATCH
  6
Continuous
 62
     7
370
    30
100
AcDbLine
 10
8.49226
 20
6.668667
 30
0.0
 11
8.605437
 21
6.784323
 31
0.0
  0
LINE
  5
35E
330
52D
100
AcDbEntity
  8
HATCH
  6
Continuous
 62
     7
370
    30
100
AcDbLine
 10
8.474917
 20
6.691833
 30
0.0
 11
8.581906
 21
6.801156
 31
0.0
  0
LINE
  5
35F
330
52D
100
AcDbEntity
  8
HATCH
  6
Continuous
 62
     7
370
    30
100
AcDbLine
 10
8.4665
 20
6.724094
 30
0.0
 11
8.549469
 21
6.808875
 31
0.0
  0
LINE
  5
363
330
52D
100
AcDbEntity
  8
DIM
  6
Continuous
 62
     7
370
    13
100
AcDbLine
 10
2.470937
 20
6.064208
 30
0.0
 11
2.794792
 21
6.064208
 31
0.0
  0
LINE
  5
365
330
52D
100
AcDbEntity
  8
DIM
  6
Continuous
 62
     7
370
    13
100
AcDbLine
 10
2.470937
 20
6.439208
 30
0.0
 11
2.95749
 21
6.439208
 31
0.0
  0
LINE
  5
367
330
52D
100
AcDbEntity
  8
DIM
  6
Continuous
 62
     7
370
    13
100
AcDbLine
 10
2.440135
 20
5.939208
 30
0.0
 11
2.95749
 21
5.939208
 31
0.0
  0
LINE
  5
368
330
52D
100
AcDbEntity
  8
_0
  6
Continuous
 62
     7
370
    13
100
AcDbLine
 10
2.376573
 20
7.556396
 30
0.0
 11
3.574052
 21
7.556396
 31
0.0
  0
LINE
  5
37B
330
52D
100
AcDbEntity
  8
_0
  6
Continuous
 62
     7
370
    30
100
AcDbLine
 10
7.708771
 20
4.67376
 30
0.0
 11
7.462458
 21
4.67376
 31
0.0
  0
LINE
  5
37C
330
52D
100
AcDbEntity
  8
_0
  6
Continuous
 62
     7
370
    30
100
AcDbLine
 10
7.708771
 20
4.17376
 30
0.0
 11
7.210062
 21
4.17376
 31
0.0
  0
LINE
  5
37D
330
52D
100
AcDbEntity
  8
_0
  6
Continuous
 62
     7
370
    30
100
AcDbLine
 10
6.302552
 20
4.67376
 30
0.0
 11
5.293854
 21
4.67376
 31
0.0
  0
LINE
  5
37E
330
52D
100
AcDbEntity
  8
_0
  6
Continuous
 62
     7
370
    30
100
AcDbLine
 10
6.302552
 20
4.17376
 30
0.0
 11
5.830458
 21
4.17376
 31
0.0
  0
LINE
  5
37F
330
52D
100
AcDbEntity
  8
_0
  6
Continuous
 62
     7
370
    30
100
AcDbLine
 10
7.002219
 20
4.52376
 30
0.0
 11
7.002219
 21
4.37376
 31
0.0
  0
LINE
  5
380
330
52D
100
AcDbEntity
  8
_0
  6
Continuous
 62
     7
370
    30
100
AcDbLine
 10
7.40951
 20
4.52376
 30
0.0
 11
7.40951
 21
4.37376
 31
0.0
  0
LINE
  5
381
330
52D
100
AcDbEntity
  8
_0
  6
Continuous
 62
     7
370
    30
100
AcDbLine
 10
7.40951
 20
4.37376
 30
0.0
 11
7.379281
 21
4.37376
 31
0.0
  0
LINE
  5
382
330
52D
100
AcDbEntity
  8
_0
  6
Continuous
 62
     7
370
    30
100
AcDbLine
 10
7.210062
 20
4.17376
 30
0.0
 11
7.210062
 21
4.271792
 31
0.0
  0
LINE
  5
383
330
52D
100
AcDbEntity
  8
_0
  6
Continuous
 62
     7
370
    30
100
AcDbLine
 10
7.195437
 20
3.97376
 30
0.0
 11
7.195437
 21
4.276052
 31
0.0
  0
ARC
  5
384
330
52D
100
AcDbEntity
  8
_0
  6
Continuous
 62
     7
370
    30
100
AcDbCircle
 10
7.07444
 20
4.276048
 30
0.0
 40
0.121
100
AcDbArc
 50
0.0
 51
56.343644
  0
ARC
  5
385
330
52D
100
AcDbEntity
  8
_0
  6
Continuous
 62
     7
370
    30
100
AcDbCircle
 10
7.206065
 20
4.473737
 30
0.0
 40
0.1165
100
AcDbArc
 50
301.756864
 51
236.343644
  0
ARC
  5
386
330
52D
100
AcDbEntity
  8
_0
  6
Continuous
 62
     7
370
    30
100
AcDbCircle
 10
7.331065
 20
4.271793
 30
0.0
 40
0.121
100
AcDbArc
 50
121.756864
 51
180.0
  0
LINE
  5
387
330
52D
100
AcDbEntity
  8
_0
  6
Continuous
 62
     7
370
    30
100
AcDbLine
 10
7.130687
 20
4.203552
 30
0.0
 11
7.130687
 21
4.041271
 31
0.0
  0
LINE
  5
388
330
52D
100
AcDbEntity
  8
_0
  6
Continuous
 62
     7
370
    30
100
AcDbLine
 10
7.124062
 20
4.203
 30
0.0
 11
7.124062
 21
4.241031
 31
0.0
  0
LINE
  5
389
330
52D
100
AcDbEntity
  8
_0
  6
Continuous
 62
     7
370
    30
100
AcDbLine
 10
7.274812
 20
4.212802
 30
0.0
 11
7.274812
 21
4.17376
 31
0.0
  0
LINE
  5
38A
330
52D
100
AcDbEntity
  8
_0
  6
Continuous
 62
     7
370
    30
100
AcDbLine
 10
7.281438
 20
4.203
 30
0.0
 11
7.281438
 21
4.241031
 31
0.0
  0
ARC
  5
38B
330
52D
100
AcDbEntity
  8
_0
  6
Continuous
 62
     7
370
    30
100
AcDbCircle
 10
7.206065
 20
4.473737
 30
0.0
 40
0.2
100
AcDbArc
 50
306.594931
 51
231.936206
  0
LINE
  5
38C
330
52D
100
AcDbEntity
  8
_0
  6
Continuous
 62
     7
370
    30
100
AcDbLine
 10
7.124062
 20
4.241031
 30
0.0
 11
7.281438
 21
4.241031
 31
0.0
  0
ARC
  5
38D
330
52D
100
AcDbEntity
  8
_0
  6
Continuous
 62
     7
370
    30
100
AcDbCircle
 10
7.00569
 20
4.217856
 30
0.0
 40
0.125
100
AcDbArc
 50
0.0
 51
51.936208
  0
ARC
  5
38E
330
52D
100
AcDbEntity
  8
_0
  6
Continuous
 62
     7
370
    30
100
AcDbCircle
 10
7.399815
 20
4.212804
 30
0.0
 40
0.125
100
AcDbArc
 50
126.594931
 51
180.0
  0
LINE
  5
38F
330
52D
100
AcDbEntity
  8
_0
  6
Continuous
 62
     7
370
    30
100
AcDbLine
 10
7.281438
 20
4.203
 30
0.0
 11
7.124062
 21
4.203
 31
0.0
  0
LINE
  5
390
330
52D
100
AcDbEntity
  8
_0
  6
Continuous
 62
     7
370
    30
100
AcDbLine
 10
7.130687
 20
4.217854
 30
0.0
 11
7.130687
 21
3.97376
 31
0.0
  0
LINE
  5
391
330
52D
100
AcDbEntity
  8
_0
  6
Continuous
 62
     7
370
    30
100
AcDbLine
 10
7.195437
 20
3.97376
 30
0.0
 11
7.130687
 21
3.97376
 31
0.0
  0
LINE
  5
392
330
52D
100
AcDbEntity
  8
_0
  6
Continuous
 62
     7
370
    30
100
AcDbLine
 10
7.130687
 20
4.17376
 30
0.0
 11
6.700073
 21
4.17376
 31
0.0
  0
LINE
  5
393
330
52D
100
AcDbEntity
  8
_0
  6
Continuous
 62
     7
370
    30
100
AcDbLine
 10
7.265927
 20
4.37376
 30
0.0
 11
7.145802
 21
4.37376
 31
0.0
  0
LINE
  5
394
330
52D
100
AcDbEntity
  8
_0
  6
Continuous
 62
     7
370
    30
100
AcDbLine
 10
7.032844
 20
4.37376
 30
0.0
 11
7.002219
 21
4.37376
 31
0.0
  0
ARC
  5
395
330
52D
100
AcDbEntity
  8
_0
  6
Continuous
 62
     7
370
    30
100
AcDbCircle
 10
6.763259
 20
4.523762
 30
0.0
 40
0.2389610455142111
100
AcDbArc
 50
0.0
 51
38.881914
  0
ARC
  5
396
330
52D
100
AcDbEntity
  8
_0
  6
Continuous
 62
     7
370
    30
100
AcDbCircle
 10
7.648472
 20
4.523762
 30
0.0
 40
0.2389610455142111
100
AcDbArc
 50
141.118086
 51
180.0
  0
LINE
  5
397
330
52D
100
AcDbEntity
  8
_0
  6
Continuous
 62
     7
370
    30
100
AcDbLine
 10
6.949271
 20
4.67376
 30
0.0
 11
6.700073
 21
4.67376
 31
0.0
  0
LINE
  5
398
330
52D
100
AcDbEntity
  8
_0
  6
Continuous
 62
     7
370
    13
100
AcDbLine
 10
7.708771
 20
4.67376
 30
0.0
 11
7.708771
 21
4.465646
 31
0.0
  0
LINE
  5
399
330
52D
100
AcDbEntity
  8
_0
  6
Continuous
 62
     7
370
    13
100
AcDbLine
 10
7.708771
 20
4.410427
 30
0.0
 11
7.708771
 21
4.17376
 31
0.0
  0
LINE
  5
39A
330
52D
100
AcDbEntity
  8
_0
  6
Continuous
 62
     7
370
    13
100
AcDbLine
 10
7.72449
 20
4.447896
 30
0.0
 11
7.708771
 21
4.465646
 31
0.0
  0
LINE
  5
39B
330
52D
100
AcDbEntity
  8
_0
  6
Continuous
 62
     7
370
    13
100
AcDbLine
 10
7.671208
 20
4.455781
 30
0.0
 11
7.72449
 21
4.447896
 31
0.0
  0
LINE
  5
39C
330
52D
100
AcDbEntity
  8
_0
  6
Continuous
 62
     7
370
    13
100
AcDbLine
 10
7.748708
 20
4.410427
 30
0.0
 11
7.671208
 21
4.455781
 31
0.0
  0
LINE
  5
39D
330
52D
100
AcDbEntity
  8
_0
  6
Continuous
 62
     7
370
    13
100
AcDbLine
 10
7.692198
 20
4.430146
 30
0.0
 11
7.748708
 21
4.410427
 31
0.0
  0
LINE
  5
39E
330
52D
100
AcDbEntity
  8
_0
  6
Continuous
 62
     7
370
    13
100
AcDbLine
 10
7.708771
 20
4.410427
 30
0.0
 11
7.692198
 21
4.430146
 31
0.0
  0
LINE
  5
39F
330
52D
100
AcDbEntity
  8
_0
  6
Continuous
 62
     7
370
    13
100
AcDbLine
 10
6.700073
 20
4.410427
 30
0.0
 11
6.6835
 21
4.430146
 31
0.0
  0
LINE
  5
3A0
330
52D
100
AcDbEntity
  8
_0
  6
Continuous
 62
     7
370
    13
100
AcDbLine
 10
6.6835
 20
4.430146
 30
0.0
 11
6.74001
 21
4.410427
 31
0.0
  0
LINE
  5
3A1
330
52D
100
AcDbEntity
  8
_0
  6
Continuous
 62
     7
370
    13
100
AcDbLine
 10
6.74001
 20
4.410427
 30
0.0
 11
6.66251
 21
4.455781
 31
0.0
  0
LINE
  5
3A2
330
52D
100
AcDbEntity
  8
_0
  6
Continuous
 62
     7
370
    13
100
AcDbLine
 10
6.66251
 20
4.455781
 30
0.0
 11
6.715792
 21
4.447896
 31
0.0
  0
LINE
  5
3A3
330
52D
100
AcDbEntity
  8
_0
  6
Continuous
 62
     7
370
    13
100
AcDbLine
 10
6.715792
 20
4.447896
 30
0.0
 11
6.700073
 21
4.465646
 31
0.0
  0
LINE
  5
3A4
330
52D
100
AcDbEntity
  8
_0
  6
Continuous
 62
     7
370
    13
100
AcDbLine
 10
6.700073
 20
4.410427
 30
0.0
 11
6.700073
 21
4.17376
 31
0.0
  0
LINE
  5
3A5
330
52D
100
AcDbEntity
  8
_0
  6
Continuous
 62
     7
370
    13
100
AcDbLine
 10
6.700073
 20
4.67376
 30
0.0
 11
6.700073
 21
4.465646
 31
0.0
  0
LINE
  5
3A6
330
52D
100
AcDbEntity
  8
_0
  6
Continuous
 62
     7
370
    13
100
AcDbLine
 10
5.293854
 20
4.67376
 30
0.0
 11
5.293854
 21
4.439656
 31
0.0
  0
LINE
  5
3A7
330
52D
100
AcDbEntity
  8
_0
  6
Continuous
 62
     7
370
    13
100
AcDbLine
 10
5.293854
 20
4.384437
 30
0.0
 11
5.293854
 21
4.17376
 31
0.0
  0
LINE
  5
3A8
330
52D
100
AcDbEntity
  8
_0
  6
Continuous
 62
     7
370
    13
100
AcDbLine
 10
5.309573
 20
4.421906
 30
0.0
 11
5.293854
 21
4.439656
 31
0.0
  0
LINE
  5
3A9
330
52D
100
AcDbEntity
  8
_0
  6
Continuous
 62
     7
370
    13
100
AcDbLine
 10
5.256292
 20
4.429792
 30
0.0
 11
5.309573
 21
4.421906
 31
0.0
  0
LINE
  5
3AA
330
52D
100
AcDbEntity
  8
_0
  6
Continuous
 62
     7
370
    13
100
AcDbLine
 10
5.333792
 20
4.384437
 30
0.0
 11
5.256292
 21
4.429792
 31
0.0
  0
LINE
  5
3AB
330
52D
100
AcDbEntity
  8
_0
  6
Continuous
 62
     7
370
    13
100
AcDbLine
 10
5.277281
 20
4.404156
 30
0.0
 11
5.333792
 21
4.384437
 31
0.0
  0
LINE
  5
3AC
330
52D
100
AcDbEntity
  8
_0
  6
Continuous
 62
     7
370
    13
100
AcDbLine
 10
5.293854
 20
4.384437
 30
0.0
 11
5.277281
 21
4.404156
 31
0.0
  0
LINE
  5
3AD
330
52D
100
AcDbEntity
  8
_0
  6
Continuous
 62
     7
370
    13
100
AcDbLine
 10
6.302552
 20
4.384437
 30
0.0
 11
6.285979
 21
4.404156
 31
0.0
  0
LINE
  5
3AE
330
52D
100
AcDbEntity
  8
_0
  6
Continuous
 62
     7
370
    13
100
AcDbLine
 10
6.285979
 20
4.404156
 30
0.0
 11
6.34249
 21
4.384437
 31
0.0
  0
LINE
  5
3AF
330
52D
100
AcDbEntity
  8
_0
  6
Continuous
 62
     7
370
    13
100
AcDbLine
 10
6.34249
 20
4.384437
 30
0.0
 11
6.26499
 21
4.429792
 31
0.0
  0
LINE
  5
3B0
330
52D
100
AcDbEntity
  8
_0
  6
Continuous
 62
     7
370
    13
100
AcDbLine
 10
6.26499
 20
4.429792
 30
0.0
 11
6.318271
 21
4.421906
 31
0.0
  0
LINE
  5
3B1
330
52D
100
AcDbEntity
  8
_0
  6
Continuous
 62
     7
370
    13
100
AcDbLine
 10
6.318271
 20
4.421906
 30
0.0
 11
6.302552
 21
4.439656
 31
0.0
  0
LINE
  5
3B2
330
52D
100
AcDbEntity
  8
_0
  6
Continuous
 62
     7
370
    13
100
AcDbLine
 10
6.302552
 20
4.384437
 30
0.0
 11
6.302552
 21
4.17376
 31
0.0
  0
LINE
  5
3B3
330
52D
100
AcDbEntity
  8
_0
  6
Continuous
 62
     7
370
    13
100
AcDbLine
 10
6.302552
 20
4.67376
 30
0.0
 11
6.302552
 21
4.439656
 31
0.0
  0
ARC
  5
3B4
330
52D
100
AcDbEntity
  8
_0
  6
Continuous
 62
     7
370
    30
100
AcDbCircle
 10
5.798082
 20
4.782574
 30
0.0
 40
0.4076254343385214
100
AcDbArc
 50
195.482317
 51
344.517681
  0
LINE
  5
3B5
330
52D
100
AcDbEntity
  8
_0
  6
Continuous
 62
     7
370
    30
100
AcDbLine
 10
5.830458
 20
3.971635
 30
0.0
 11
5.830458
 21
4.641385
 31
0.0
  0
LINE
  5
3B6
330
52D
100
AcDbEntity
  8
_0
  6
Continuous
 62
     7
370
    30
100
AcDbLine
 10
5.765708
 20
4.641385
 30
0.0
 11
5.765708
 21
3.971635
 31
0.0
  0
LINE
  5
3B7
330
52D
100
AcDbEntity
  8
_0
  6
Continuous
 62
     7
370
    30
100
AcDbLine
 10
5.830458
 20
3.971635
 30
0.0
 11
5.765708
 21
3.971635
 31
0.0
  0
CIRCLE
  5
3B8
330
52D
100
AcDbEntity
  8
_0
  6
Continuous
 62
     7
370
    30
100
AcDbCircle
 10
5.798082
 20
4.641387
 30
0.0
 40
0.032375
  0
LINE
  5
3B9
330
52D
100
AcDbEntity
  8
_0
  6
Continuous
 62
     7
370
    30
100
AcDbLine
 10
5.765708
 20
4.17376
 30
0.0
 11
5.293854
 21
4.17376
 31
0.0
  0
LINE
  5
3BA
330
52D
100
AcDbEntity
  8
_0
  6
Continuous
 62
     7
370
    13
100
AcDbLine
 10
7.130687
 20
4.045562
 30
0.0
 11
6.902448
 21
3.969479
 31
0.0
  0
LINE
  5
3BC
330
52D
100
AcDbEntity
  8
_0
  6
Continuous
 62
     7
370
    13
100
AcDbLine
 10
6.005573
 20
3.969479
 30
0.0
 11
5.830458
 21
4.044531
 31
0.0
  0
LINE
  5
3C0
330
52D
100
AcDbEntity
  8
_0
  6
Continuous
 62
     7
370
    30
100
AcDbLine
 10
4.433292
 20
6.480885
 30
0.0
 11
4.416719
 21
6.500604
 31
0.0
  0
LINE
  5
3C1
330
52D
100
AcDbEntity
  8
_0
  6
Continuous
 62
     7
370
    30
100
AcDbLine
 10
4.416719
 20
6.500604
 30
0.0
 11
4.473229
 21
6.480885
 31
0.0
  0
LINE
  5
3C2
330
52D
100
AcDbEntity
  8
_0
  6
Continuous
 62
     7
370
    30
100
AcDbLine
 10
4.473229
 20
6.480885
 30
0.0
 11
4.395729
 21
6.52624
 31
0.0
  0
LINE
  5
3C3
330
52D
100
AcDbEntity
  8
_0
  6
Continuous
 62
     7
370
    30
100
AcDbLine
 10
4.395729
 20
6.52624
 30
0.0
 11
4.44901
 21
6.518354
 31
0.0
  0
LINE
  5
3C4
330
52D
100
AcDbEntity
  8
_0
  6
Continuous
 62
     7
370
    30
100
AcDbLine
 10
4.44901
 20
6.518354
 30
0.0
 11
4.433292
 21
6.536104
 31
0.0
  0
LINE
  5
3C5
330
52D
100
AcDbEntity
  8
_0
  6
Continuous
 62
     7
370
    30
100
AcDbLine
 10
4.433292
 20
6.480885
 30
0.0
 11
4.433292
 21
5.759688
 31
0.0
  0
LINE
  5
3C6
330
52D
100
AcDbEntity
  8
_0
  6
Continuous
 62
     7
370
    30
100
AcDbLine
 10
4.433292
 20
7.259688
 30
0.0
 11
4.433292
 21
6.536104
 31
0.0
  0
LINE
  5
3C7
330
52D
100
AcDbEntity
  8
_0
  6
Continuous
 62
     7
370
    30
100
AcDbLine
 10
6.848219
 20
6.491854
 30
0.0
 11
6.831635
 21
6.511573
 31
0.0
  0
LINE
  5
3C8
330
52D
100
AcDbEntity
  8
_0
  6
Continuous
 62
     7
370
    30
100
AcDbLine
 10
6.831635
 20
6.511573
 30
0.0
 11
6.888146
 21
6.491854
 31
0.0
  0
LINE
  5
3C9
330
52D
100
AcDbEntity
  8
_0
  6
Continuous
 62
     7
370
    30
100
AcDbLine
 10
6.888146
 20
6.491854
 30
0.0
 11
6.810646
 21
6.537208
 31
0.0
  0
LINE
  5
3CA
330
52D
100
AcDbEntity
  8
_0
  6
Continuous
 62
     7
370
    30
100
AcDbLine
 10
6.810646
 20
6.537208
 30
0.0
 11
6.863927
 21
6.529323
 31
0.0
  0
LINE
  5
3CB
330
52D
100
AcDbEntity
  8
_0
  6
Continuous
 62
     7
370
    30
100
AcDbLine
 10
6.863927
 20
6.529323
 30
0.0
 11
6.848219
 21
6.547063
 31
0.0
  0
LINE
  5
3CC
330
52D
100
AcDbEntity
  8
_0
  6
Continuous
 62
     7
370
    30
100
AcDbLine
 10
6.848219
 20
6.491854
 30
0.0
 11
6.848219
 21
5.759688
 31
0.0
  0
LINE
  5
3CD
330
52D
100
AcDbEntity
  8
_0
  6
Continuous
 62
     7
370
    30
100
AcDbLine
 10
6.848219
 20
7.259688
 30
0.0
 11
6.848219
 21
6.547063
 31
0.0
  0
LINE
  5
3CE
330
52D
100
AcDbEntity
  8
_0
  6
Continuous
 62
     7
370
    30
100
AcDbLine
 10
4.433292
 20
5.759688
 30
0.0
 11
5.61499
 21
5.759688
 31
0.0
  0
LINE
  5
3CF
330
52D
100
AcDbEntity
  8
_0
  6
Continuous
 62
     7
370
    30
100
AcDbLine
 10
5.670208
 20
5.759688
 30
0.0
 11
6.848219
 21
5.759688
 31
0.0
  0
LINE
  5
3D0
330
52D
100
AcDbEntity
  8
_0
  6
Continuous
 62
     7
370
    30
100
AcDbLine
 10
5.63274
 20
5.775406
 30
0.0
 11
5.61499
 21
5.759688
 31
0.0
  0
LINE
  5
3D1
330
52D
100
AcDbEntity
  8
_0
  6
Continuous
 62
     7
370
    30
100
AcDbLine
 10
5.624854
 20
5.722125
 30
0.0
 11
5.63274
 21
5.775406
 31
0.0
  0
LINE
  5
3D2
330
52D
100
AcDbEntity
  8
_0
  6
Continuous
 62
     7
370
    30
100
AcDbLine
 10
5.670208
 20
5.799625
 30
0.0
 11
5.624854
 21
5.722125
 31
0.0
  0
LINE
  5
3D3
330
52D
100
AcDbEntity
  8
_0
  6
Continuous
 62
     7
370
    30
100
AcDbLine
 10
5.65049
 20
5.743115
 30
0.0
 11
5.670208
 21
5.799625
 31
0.0
  0
LINE
  5
3D4
330
52D
100
AcDbEntity
  8
_0
  6
Continuous
 62
     7
370
    30
100
AcDbLine
 10
5.670208
 20
5.759688
 30
0.0
 11
5.65049
 21
5.743115
 31
0.0
  0
LINE
  5
3D5
330
52D
100
AcDbEntity
  8
_0
  6
Continuous
 62
     7
370
    30
100
AcDbLine
 10
5.670208
 20
7.259688
 30
0.0
 11
5.65049
 21
7.243115
 31
0.0
  0
LINE
  5
3D6
330
52D
100
AcDbEntity
  8
_0
  6
Continuous
 62
     7
370
    30
100
AcDbLine
 10
5.65049
 20
7.243115
 30
0.0
 11
5.670208
 21
7.299625
 31
0.0
  0
LINE
  5
3D7
330
52D
100
AcDbEntity
  8
_0
  6
Continuous
 62
     7
370
    30
100
AcDbLine
 10
5.670208
 20
7.299625
 30
0.0
 11
5.624854
 21
7.222125
 31
0.0
  0
LINE
  5
3D8
330
52D
100
AcDbEntity
  8
_0
  6
Continuous
 62
     7
370
    30
100
AcDbLine
 10
5.624854
 20
7.222125
 30
0.0
 11
5.63274
 21
7.275406
 31
0.0
  0
LINE
  5
3D9
330
52D
100
AcDbEntity
  8
_0
  6
Continuous
 62
     7
370
    30
100
AcDbLine
 10
5.63274
 20
7.275406
 30
0.0
 11
5.61499
 21
7.259688
 31
0.0
  0
LINE
  5
3DA
330
52D
100
AcDbEntity
  8
_0
  6
Continuous
 62
     7
370
    30
100
AcDbLine
 10
5.670208
 20
7.259688
 30
0.0
 11
6.848219
 21
7.259688
 31
0.0
  0
LINE
  5
3DB
330
52D
100
AcDbEntity
  8
_0
  6
Continuous
 62
     7
370
    30
100
AcDbLine
 10
4.433292
 20
7.259688
 30
0.0
 11
5.61499
 21
7.259688
 31
0.0
  0
LINE
  5
3DC
330
52D
100
AcDbEntity
  8
_0
  6
Continuous
 62
     7
370
    30
100
AcDbLine
 10
6.548573
 20
6.509688
 30
0.0
 11
6.302219
 21
6.509688
 31
0.0
  0
LWPOLYLINE
  5
3DD
330
52D
100
AcDbEntity
  8
_0
  6
Continuous
 62
     7
370
    30
100
AcDbPolyline
 90
       17
 70
   128
 43
0.0
 10
5.640755
 20
6.684687
 42
0.051099
 10
5.499205
 20
6.670183
 42
0.064948
 10
5.393268
 20
6.63343
 42
0.104203
 10
5.312121
 20
6.568969
 42
0.174705
 10
5.290755
 20
6.509687
 42
0.174705
 10
5.312121
 20
6.450404
 42
0.104203
 10
5.393268
 20
6.385943
 42
0.064948
 10
5.499205
 20
6.349191
 42
0.051099
 10
5.640755
 20
6.334687
 42
0.051099
 10
5.782306
 20
6.349191
 42
0.064948
 10
5.888243
 20
6.385943
 42
0.104203
 10
5.969389
 20
6.450404
 42
0.174705
 10
5.990755
 20
6.509687
 42
0.174705
 10
5.969389
 20
6.568969
 42
0.104203
 10
5.888243
 20
6.63343
 42
0.064948
 10
5.782306
 20
6.670183
 42
0.051099
 10
5.640755
 20
6.684687
  0
LINE
  5
3EE
330
52D
100
AcDbEntity
  8
_0
  6
Continuous
 62
     7
370
    30
100
AcDbLine
 10
5.68076
 20
6.644687
 30
0.0
 11
5.68076
 21
6.374687
 31
0.0
  0
LINE
  5
3EF
330
52D
100
AcDbEntity
  8
_0
  6
Continuous
 62
     7
370
    30
100
AcDbLine
 10
5.60076
 20
6.644687
 30
0.0
 11
5.60076
 21
6.374687
 31
0.0
  0
ARC
  5
3F0
330
52D
100
AcDbEntity
  8
_0
  6
Continuous
 62
     7
370
    30
100
AcDbCircle
 10
5.640755
 20
6.644687
 30
0.0
 40
0.0399999999999991
100
AcDbArc
 50
0.0
 51
180.0
  0
ARC
  5
3F1
330
52D
100
AcDbEntity
  8
_0
  6
Continuous
 62
     7
370
    30
100
AcDbCircle
 10
5.640755
 20
6.374687
 30
0.0
 40
0.0399999999999991
100
AcDbArc
 50
180.0
 51
0.0
  0
LINE
  5
3F2
330
52D
100
AcDbEntity
  8
_0
  6
Continuous
 62
     7
370
    30
100
AcDbLine
 10
5.64076
 20
6.334687
 30
0.0
 11
5.64076
 21
5.595813
 31
0.0
  0
LINE
  5
3F4
330
52D
100
AcDbEntity
  8
DIM
  6
Continuous
 62
     7
370
    13
100
AcDbLine
 10
5.69076
 20
6.684687
 30
0.0
 11
6.299948
 21
6.684687
 31
0.0
  0
LINE
  5
3F5
330
52D
100
AcDbEntity
  8
DIM
  6
Continuous
 62
     7
370
    13
100
AcDbLine
 10
5.69076
 20
6.334687
 30
0.0
 11
6.299948
 21
6.334687
 31
0.0
  0
LINE
  5
3F7
330
52D
100
AcDbEntity
  8
DIM
  6
Continuous
 62
     7
370
    13
100
AcDbLine
 10
5.99076
 20
6.559687
 30
0.0
 11
5.99076
 21
6.911156
 31
0.0
  0
LINE
  5
3F8
330
52D
100
AcDbEntity
  8
DIM
  6
Continuous
 62
     7
370
    13
100
AcDbLine
 10
5.29076
 20
6.559687
 30
0.0
 11
5.29076
 21
6.911156
 31
0.0
  0
LINE
  5
3FC
330
52D
100
AcDbEntity
  8
_0
  6
Continuous
 62
     7
370
    30
100
AcDbLine
 10
4.74526
 20
6.509688
 30
0.0
 11
5.29076
 21
6.509688
 31
0.0
  0
LINE
  5
3FF
330
52D
100
AcDbEntity
  8
_0
  6
Continuous
 62
     7
370
    30
100
AcDbLine
 10
6.11249
 20
6.509688
 30
0.0
 11
5.99076
 21
6.509688
 31
0.0
  0
LINE
  5
400
330
52D
100
AcDbEntity
  8
_0
  6
Continuous
 62
     7
370
    30
100
AcDbLine
 10
5.64076
 20
6.684687
 30
0.0
 11
5.64076
 21
6.826521
 31
0.0
  0
LINE
  5
401
330
52D
100
AcDbEntity
  8
_0
  6
Continuous
 62
     7
370
    30
100
AcDbLine
 10
9.065354
 20
2.389375
 30
0.0
 11
9.151292
 21
2.664375
 31
0.0
  0
LINE
  5
402
330
52D
100
AcDbEntity
  8
_0
  6
Continuous
 62
     7
370
    30
100
AcDbLine
 10
8.979417
 20
2.664375
 30
0.0
 11
9.065354
 21
2.389375
 31
0.0
  0
LINE
  5
403
330
52D
100
AcDbEntity
  8
_0
  6
Continuous
 62
     7
370
    30
100
AcDbLine
 10
9.151292
 20
2.664375
 30
0.0
 11
9.151292
 21
2.720875
 31
0.0
  0
LINE
  5
404
330
52D
100
AcDbEntity
  8
_0
  6
Continuous
 62
     7
370
    30
100
AcDbLine
 10
8.979417
 20
2.664375
 30
0.0
 11
8.979417
 21
2.833802
 31
0.0
  0
LINE
  5
405
330
52D
100
AcDbEntity
  8
_0
  6
Continuous
 62
     7
370
    30
100
AcDbLine
 10
8.537052
 20
2.389375
 30
0.0
 11
9.593646
 21
2.389375
 31
0.0
  0
SPLINE
  5
408
330
52D
100
AcDbEntity
  8
_0
  6
Continuous
 62
     7
370
    30
100
AcDbSpline
210
0.0
220
0.0
230
1.0
 70
     8
 71
     3
 72
     8
 73
     4
 74
     0
 42
0.0000000001
 43
0.00000001
 40
0.0
 40
0.0
 40
0.0
 40
0.0
 40
1.0
 40
1.0
 40
1.0
 40
1.0
 10
9.151291666666665
 20
3.36725
 30
0.0
 10
9.096822916666666
 20
3.4270625
 30
0.0
 10
9.032364583333333
 20
3.29353125
 30
0.0
 10
8.979416666666665
 20
3.36725
 30
0.0
  0
LWPOLYLINE
  5
40A
330
52D
100
AcDbEntity
  8
_0
  6
Continuous
 62
     7
370
    30
100
AcDbPolyline
 90
        6
 70
   128
 43
0.0
 10
9.074354
 20
3.36725
 10
9.064781
 20
3.372458
 10
9.042708
 20
3.383875
 10
9.020948
 20
3.389937
 10
8.999771
 20
3.385958
 10
8.979417
 20
3.36725
  0
LINE
  5
40B
330
52D
100
AcDbEntity
  8
_0
  6
Continuous
 62
     7
370
    30
100
AcDbLine
 10
8.641917
 20
3.071302
 30
0.0
 11
9.151292
 21
3.071302
 31
0.0
  0
LINE
  5
40C
330
52D
100
AcDbEntity
  8
_0
  6
Continuous
 62
     7
370
    30
100
AcDbLine
 10
8.879417
 20
2.883802
 30
0.0
 11
9.105198
 21
2.883802
 31
0.0
  0
LINE
  5
40D
330
52D
100
AcDbEntity
  8
_0
  6
Continuous
 62
     7
370
    30
100
AcDbLine
 10
8.945625
 20
2.833802
 30
0.0
 11
9.105198
 21
2.833802
 31
0.0
  0
ARC
  5
40E
330
52D
100
AcDbEntity
  8
_0
  6
Continuous
 62
     7
370
    30
100
AcDbCircle
 10
8.641912
 20
3.008801
 30
0.0
 40
0.0625
100
AcDbArc
 50
90.0
 51
255.70775
  0
LINE
  5
40F
330
52D
100
AcDbEntity
  8
_0
  6
Continuous
 62
     7
370
    30
100
AcDbLine
 10
8.879417
 20
2.883802
 30
0.0
 11
8.626479
 21
2.94824
 31
0.0
  0
LINE
  5
410
330
52D
100
AcDbEntity
  8
_0
  6
Continuous
 62
     7
370
    30
100
AcDbLine
 10
8.579896
 20
3.016573
 30
0.0
 11
9.151292
 21
3.071302
 31
0.0
  0
LINE
  5
411
330
52D
100
AcDbEntity
  8
_0
  6
Continuous
 62
     7
370
    30
100
AcDbLine
 10
8.979417
 20
3.071302
 30
0.0
 11
8.979417
 21
3.36725
 31
0.0
  0
ARC
  5
412
330
52D
100
AcDbEntity
  8
_0
  6
Continuous
 62
     7
370
    30
100
AcDbCircle
 10
8.963216
 20
2.947029
 30
0.0
 40
0.1062593976577051
100
AcDbArc
 50
90.0
 51
216.179942
  0
ARC
  5
413
330
52D
100
AcDbEntity
  8
_0
  6
Continuous
 62
     7
370
    30
100
AcDbCircle
 10
8.933413
 20
2.872303
 30
0.0
 40
0.0403908606108612
100
AcDbArc
 50
163.460272
 51
287.593739
  0
LINE
  5
414
330
52D
100
AcDbEntity
  8
_0
  6
Continuous
 62
     7
370
    30
100
AcDbLine
 10
9.651229
 20
2.817542
 30
0.0
 11
9.105198
 21
2.76525
 31
0.0
  0
LINE
  5
415
330
52D
100
AcDbEntity
  8
_0
  6
Continuous
 62
     7
370
    30
100
AcDbLine
 10
9.105198
 20
2.924437
 30
0.0
 11
9.604646
 21
2.885885
 31
0.0
  0
ARC
  5
416
330
52D
100
AcDbEntity
  8
_0
  6
Continuous
 62
     7
370
    30
100
AcDbCircle
 10
9.589213
 20
2.825318
 30
0.0
 40
0.0625
100
AcDbArc
 50
270.0
 51
75.70775
  0
LINE
  5
417
330
52D
100
AcDbEntity
  8
_0
  6
Continuous
 62
     7
370
    30
100
AcDbLine
 10
9.589208
 20
2.762823
 30
0.0
 11
9.151292
 21
2.720875
 31
0.0
  0
LINE
  5
418
330
52D
100
AcDbEntity
  8
_0
  6
Continuous
 62
     7
370
    30
100
AcDbLine
 10
9.151292
 20
2.720875
 30
0.0
 11
9.105198
 21
2.742271
 31
0.0
  0
LINE
  5
419
330
52D
100
AcDbEntity
  8
_0
  6
Continuous
 62
     7
370
    30
100
AcDbLine
 10
9.105198
 20
2.742271
 30
0.0
 11
9.105198
 21
2.924437
 31
0.0
  0
LINE
  5
41A
330
52D
100
AcDbEntity
  8
_0
  6
Continuous
 62
     7
370
    30
100
AcDbLine
 10
9.105198
 20
2.924437
 30
0.0
 11
9.061958
 21
2.98024
 31
0.0
  0
LINE
  5
41B
330
52D
100
AcDbEntity
  8
_0
  6
Continuous
 62
     7
370
    30
100
AcDbLine
 10
9.185417
 20
2.91824
 30
0.0
 11
9.185417
 21
3.027271
 31
0.0
  0
LINE
  5
41C
330
52D
100
AcDbEntity
  8
_0
  6
Continuous
 62
     7
370
    30
100
AcDbLine
 10
9.151292
 20
3.029521
 30
0.0
 11
9.151292
 21
3.36725
 31
0.0
  0
ARC
  5
41D
330
52D
100
AcDbEntity
  8
_0
  6
Continuous
 62
     7
370
    30
100
AcDbCircle
 10
9.160396
 20
2.907415
 30
0.0
 40
0.1224441012084149
100
AcDbArc
 50
78.206542
 51
191.119439
  0
LINE
  5
41E
330
52D
100
AcDbEntity
  8
DIM
  6
Continuous
 62
     7
370
    13
100
AcDbLine
 10
8.979417
 20
3.41725
 30
0.0
 11
8.979417
 21
3.550312
 31
0.0
  0
LINE
  5
41F
330
52D
100
AcDbEntity
  8
DIM
  6
Continuous
 62
     7
370
    13
100
AcDbLine
 10
9.151292
 20
3.41725
 30
0.0
 11
9.151292
 21
3.550312
 31
0.0
  0
LINE
  5
421
330
52D
100
AcDbEntity
  8
_0
  6
Continuous
 62
     7
370
    13
100
AcDbLine
 10
9.651708
 20
2.875323
 30
0.0
 11
9.651708
 21
3.185073
 31
0.0
  0
LINE
  5
422
330
52D
100
AcDbEntity
  8
DIM
  6
Continuous
 62
     7
370
    13
100
AcDbLine
 10
8.579417
 20
3.058802
 30
0.0
 11
8.579417
 21
3.730635
 31
0.0
  0
LINE
  5
424
330
52D
100
AcDbEntity
  8
DIM
  6
Continuous
 62
     7
370
    13
100
AcDbLine
 10
8.591917
 20
3.071302
 30
0.0
 11
8.325385
 21
3.071302
 31
0.0
  0
LINE
  5
425
330
52D
100
AcDbEntity
  8
DIM
  6
Continuous
 62
     7
370
    13
100
AcDbLine
 10
8.929135
 20
2.719271
 30
0.0
 11
8.325385
 21
2.719271
 31
0.0
  0
POINT
  5
429
330
52D
100
AcDbEntity
  8
_0
  6
Continuous
 62
     7
370
    30
100
AcDbPoint
 10
0.986906
 20
7.875
 30
0.0
  0
LINE
  5
42A
330
52D
100
AcDbEntity
  8
_0
  6
Continuous
 62
     7
370
    13
100
AcDbLine
 10
2.633146
 20
6.442698
 30
0.0
 11
2.633146
 21
6.839208
 31
0.0
  0
LINE
  5
42B
330
52D
100
AcDbEntity
  8
_0
  6
Continuous
 62
     7
370
    13
100
AcDbLine
 10
2.633146
 20
6.053104
 30
0.0
 11
2.633146
 21
5.664208
 31
0.0
  0
POINT
  5
42C
330
52D
100
AcDbEntity
  8
DEFPOINTS
  6
Continuous
 62
     7
370
    30
100
AcDbPoint
 10
2.470937
 20
6.439208
 30
0.0
  0
POINT
  5
42D
330
52D
100
AcDbEntity
  8
DEFPOINTS
  6
Continuous
 62
     7
370
    30
100
AcDbPoint
 10
2.470937
 20
6.064208
 30
0.0
  0
POINT
  5
42E
330
52D
100
AcDbEntity
  8
DEFPOINTS
  6
Continuous
 62
     7
370
    30
100
AcDbPoint
 10
2.633146
 20
6.064208
 30
0.0
  0
LINE
  5
42F
330
52D
100
AcDbEntity
  8
_0
  6
Continuous
 62
     7
370
    13
100
AcDbLine
 10
2.90274
 20
5.936229
 30
0.0
 11
2.90274
 21
6.434896
 31
0.0
  0
POINT
  5
430
330
52D
100
AcDbEntity
  8
DEFPOINTS
  6
Continuous
 62
     7
370
    30
100
AcDbPoint
 10
2.938448
 20
5.939344
 30
0.0
  0
POINT
  5
431
330
52D
100
AcDbEntity
  8
DEFPOINTS
  6
Continuous
 62
     7
370
    30
100
AcDbPoint
 10
2.899167
 20
6.438896
 30
0.0
  0
POINT
  5
432
330
52D
100
AcDbEntity
  8
DEFPOINTS
  6
Continuous
 62
     7
370
    30
100
AcDbPoint
 10
2.90274
 20
6.438896
 30
0.0
  0
LINE
  5
433
330
52D
100
AcDbEntity
  8
DIM
  6
Continuous
 62
     7
370
    13
100
AcDbLine
 10
1.987812
 20
6.57275
 30
0.0
 11
1.662042
 21
6.215719
 31
0.0
  0
LINE
  5
435
330
52D
100
AcDbEntity
  8
DIM
  6
Continuous
 62
     7
370
    30
100
AcDbLine
 10
2.95749
 20
5.939208
 30
0.0
 11
2.984875
 21
5.939208
 31
0.0
  0
LINE
  5
436
330
52D
100
AcDbEntity
  8
DIM
  6
Continuous
 62
     7
370
    13
100
AcDbLine
 10
3.300292
 20
5.939208
 30
0.0
 11
3.574052
 21
5.939208
 31
0.0
  0
LINE
  5
437
330
52D
100
AcDbEntity
  8
DIM
  6
Continuous
 62
     7
370
    13
100
AcDbLine
 10
3.449667
 20
5.944021
 30
0.0
 11
3.449667
 21
7.549125
 31
0.0
  0
LINE
  5
438
330
52D
100
AcDbEntity
  8
DEFPOINTS
  6
Continuous
 62
     7
370
    30
100
AcDbLine
 10
3.574042
 20
5.939208
 30
0.0
 11
3.574042
 21
5.939208
 31
0.0
  0
LINE
  5
439
330
52D
100
AcDbEntity
  8
DEFPOINTS
  6
Continuous
 62
     7
370
    30
100
AcDbLine
 10
3.574042
 20
7.556396
 30
0.0
 11
3.574042
 21
7.556396
 31
0.0
  0
LINE
  5
43A
330
52D
100
AcDbEntity
  8
DEFPOINTS
  6
Continuous
 62
     7
370
    30
100
AcDbLine
 10
3.449667
 20
7.556396
 30
0.0
 11
3.449667
 21
7.556396
 31
0.0
  0
LINE
  5
43B
330
52D
100
AcDbEntity
  8
DIM
  6
Continuous
 62
     7
370
    13
100
AcDbLine
 10
2.398031
 20
7.278479
 30
0.0
 11
1.662042
 21
6.215719
 31
0.0
  0
LINE
  5
43C
330
52D
100
AcDbEntity
  8
TEXT
  6
Continuous
 62
     7
370
    13
100
AcDbLine
 10
8.346385
 20
6.816156
 30
0.0
 11
8.346385
 21
7.366469
 31
0.0
  0
LINE
  5
43D
330
52D
100
AcDbEntity
  8
TEXT
  6
Continuous
 62
     7
370
    13
100
AcDbLine
 10
8.346385
 20
7.366469
 30
0.0
 11
8.452917
 21
7.366469
 31
0.0
  0
LINE
  5
440
330
52D
100
AcDbEntity
  8
TEXT
  6
Continuous
 62
     7
370
    13
100
AcDbLine
 10
1.925865
 20
3.825146
 30
0.0
 11
2.407
 21
3.825146
 31
0.0
  0
LINE
  5
445
330
52D
100
AcDbEntity
  8
TEXT
  6
Continuous
 62
     7
370
    13
100
AcDbLine
 10
6.244396
 20
7.261208
 30
0.0
 11
6.244396
 21
7.683708
 31
0.0
  0
LINE
  5
446
330
52D
100
AcDbEntity
  8
TEXT
  6
Continuous
 62
     7
370
    13
100
AcDbLine
 10
6.244396
 20
7.683708
 30
0.0
 11
6.335448
 21
7.683708
 31
0.0
  0
LINE
  5
447
330
52D
100
AcDbEntity
  8
TEXT
  6
Continuous
 62
     7
370
    30
100
AcDbLine
 10
4.74526
 20
6.826271
 30
0.0
 11
4.74526
 21
6.509688
 31
0.0
  0
LINE
  5
448
330
52D
100
AcDbEntity
  8
TEXT
  6
Continuous
 62
     7
370
    30
100
AcDbLine
 10
6.548573
 20
6.826271
 30
0.0
 11
6.548573
 21
6.509688
 31
0.0
  0
LINE
  5
449
330
52D
100
AcDbEntity
  8
TEXT
  6
Continuous
 62
     7
370
    30
100
AcDbLine
 10
5.393125
 20
5.595813
 30
0.0
 11
5.64076
 21
5.595813
 31
0.0
  0
LINE
  5
44A
330
52D
100
AcDbEntity
  8
TEXT
  6
Continuous
 62
     7
370
    30
100
AcDbLine
 10
5.393125
 20
7.433219
 30
0.0
 11
5.64076
 21
7.433219
 31
0.0
  0
LINE
  5
44B
330
52D
100
AcDbEntity
  8
DIM
  6
Continuous
 62
     7
370
    13
100
AcDbLine
 10
5.29201
 20
6.838458
 30
0.0
 11
5.99076
 21
6.838458
 31
0.0
  0
LINE
  5
44C
330
52D
100
AcDbEntity
  8
_0
  6
Continuous
 62
     7
370
    30
100
AcDbLine
 10
5.64076
 20
7.034583
 30
0.0
 11
5.64076
 21
7.433219
 31
0.0
  0
LINE
  5
44D
330
52D
100
AcDbEntity
  8
DIM
  6
Continuous
 62
     7
370
    13
100
AcDbLine
 10
6.218208
 20
6.334687
 30
0.0
 11
6.218208
 21
5.934687
 31
0.0
  0
LINE
  5
44E
330
52D
100
AcDbEntity
  8
DIM
  6
Continuous
 62
     7
370
    13
100
AcDbLine
 10
6.218208
 20
6.684667
 30
0.0
 11
6.218208
 21
7.084687
 31
0.0
  0
POINT
  5
44F
330
52D
100
AcDbEntity
  8
DEFPOINTS
  6
Continuous
 62
     7
370
    13
100
AcDbPoint
 10
6.299948
 20
6.334687
 30
0.0
  0
LINE
  5
450
330
52D
100
AcDbEntity
  8
TEXT
  6
Continuous
 62
     7
370
    13
100
AcDbLine
 10
6.977885
 20
4.633271
 30
0.0
 11
7.282302
 21
4.960365
 31
0.0
  0
LINE
  5
451
330
52D
100
AcDbEntity
  8
TEXT
  6
Continuous
 62
     7
370
    13
100
AcDbLine
 10
7.282302
 20
4.960365
 30
0.0
 11
7.367396
 21
4.960365
 31
0.0
  0
LINE
  5
452
330
52D
100
AcDbEntity
  8
TEXT
  6
Continuous
 62
     7
370
    13
100
AcDbLine
 10
7.425427
 20
4.636437
 30
0.0
 11
7.272771
 21
4.950125
 31
0.0
  0
LINE
  5
454
330
52D
100
AcDbEntity
  8
TEXT
  6
Continuous
 62
     7
370
    13
100
AcDbLine
 10
6.081
 20
4.5005
 30
0.0
 11
5.560594
 21
5.184073
 31
0.0
  0
LINE
  5
455
330
52D
100
AcDbEntity
  8
TEXT
  6
Continuous
 62
     7
370
    13
100
AcDbLine
 10
5.560594
 20
5.184073
 30
0.0
 11
5.452271
 21
5.184073
 31
0.0
  0
LINE
  5
456
330
52D
100
AcDbEntity
  8
DIM
  6
Continuous
 62
     7
370
    13
100
AcDbLine
 10
8.579417
 20
3.675156
 30
0.0
 11
9.651708
 21
3.675156
 31
0.0
  0
LINE
  5
457
330
52D
100
AcDbEntity
  8
DEFPOINTS
  6
Continuous
 62
     7
370
    30
100
AcDbLine
 10
9.651708
 20
3.675156
 30
0.0
 11
9.651708
 21
3.675156
 31
0.0
  0
LINE
  5
459
330
52D
100
AcDbEntity
  8
DIM
  6
Continuous
 62
     7
370
    13
100
AcDbLine
 10
8.979417
 20
3.480333
 30
0.0
 11
8.579417
 21
3.480333
 31
0.0
  0
LINE
  5
45A
330
52D
100
AcDbEntity
  8
DIM
  6
Continuous
 62
     7
370
    13
100
AcDbLine
 10
9.151292
 20
3.480333
 30
0.0
 11
9.551292
 21
3.480333
 31
0.0
  0
LINE
  5
45B
330
52D
100
AcDbEntity
  8
DEFPOINTS
  6
Continuous
 62
     7
370
    30
100
AcDbLine
 10
9.151292
 20
3.480333
 30
0.0
 11
9.151292
 21
3.480333
 31
0.0
  0
LINE
  5
45C
330
52D
100
AcDbEntity
  8
_0
  6
Continuous
 62
     7
370
    13
100
AcDbLine
 10
8.446969
 20
2.710427
 30
0.0
 11
8.446969
 21
2.319271
 31
0.0
  0
LINE
  5
45D
330
52D
100
AcDbEntity
  8
_0
  6
Continuous
 62
     7
370
    13
100
AcDbLine
 10
8.446969
 20
3.071302
 30
0.0
 11
8.446969
 21
3.471302
 31
0.0
  0
POINT
  5
45E
330
52D
100
AcDbEntity
  8
DEFPOINTS
  6
Continuous
 62
     7
370
    30
100
AcDbPoint
 10
8.325385
 20
2.719271
 30
0.0
  0
POINT
  5
45F
330
52D
100
AcDbEntity
  8
DEFPOINTS
  6
Continuous
 62
     7
370
    30
100
AcDbPoint
 10
8.325385
 20
3.071302
 30
0.0
  0
POINT
  5
460
330
52D
100
AcDbEntity
  8
DEFPOINTS
  6
Continuous
 62
     7
370
    30
100
AcDbPoint
 10
8.446969
 20
3.071302
 30
0.0
  0
POINT
  5
461
330
52D
100
AcDbEntity
  8
_0
  6
Continuous
 62
     7
370
    30
100
AcDbPoint
 10
0.625
 20
0.986906
 30
0.0
  0
POINT
  5
462
330
52D
100
AcDbEntity
  8
_0
  6
Continuous
 62
     7
370
    30
100
AcDbPoint
 10
0.986906
 20
7.875
 30
0.0
  0
LINE
  5
466
330
52D
100
AcDbEntity
  8
DIM
  6
Continuous
 62
     7
370
    30
100
AcDbLine
 10
5.339666
 20
3.58951
 30
0.0
 11
6.278578
 21
3.58951
 31
0.0
  0
LINE
  5
467
330
52D
100
AcDbEntity
  8
DIM
  6
Continuous
 62
     7
370
    30
100
AcDbLine
 10
6.786907
 20
3.58951
 30
0.0
 11
7.698908
 21
3.58951
 31
0.0
  0
LINE
  5
468
330
52D
100
AcDbEntity
  8
DIM
  6
Continuous
 62
     7
370
    30
100
AcDbLine
 10
5.432361
 20
3.306292
 30
0.0
 11
7.651066
 21
3.306292
 31
0.0
  0
LINE
  5
46A
330
52D
100
AcDbEntity
  8
DIM
  6
Continuous
 62
     7
370
    30
100
AcDbLine
 10
7.754974
 20
6.128344
 30
0.0
 11
9.163343
 21
6.128344
 31
0.0
  0
LINE
  5
46B
330
52D
100
AcDbEntity
  8
DIM
  6
Continuous
 62
     7
370
    30
100
AcDbLine
 10
7.784876
 20
5.885594
 30
0.0
 11
9.166653
 21
5.885594
 31
0.0
  0
INSERT
  5
46C
330
52D
100
AcDbEntity
  8
DIM
  6
Continuous
 62
     7
370
    30
100
AcDbBlockReference
  2
LARROW
 10
4.74526
 20
6.826271
 30
0.0
 41
12.0
 42
12.0
 43
12.0
 50
90.0
  0
INSERT
  5
46E
330
52D
100
AcDbEntity
  8
DIM
  6
Continuous
 62
     7
370
    30
100
AcDbBlockReference
  2
LARROW
 10
5.393125
 20
7.433219
 30
0.0
 41
12.0
 42
12.0
 43
12.0
 50
180.0
  0
INSERT
  5
470
330
52D
100
AcDbEntity
  8
DIM
  6
Continuous
 62
     7
370
    13
100
AcDbBlockReference
  2
LARROW_1
 10
6.244396
 20
7.261208
 30
0.0
 41
12.0
 42
12.0
 43
12.0
 50
270.0
  0
INSERT
  5
472
330
52D
100
AcDbEntity
  8
DIM
  6
Continuous
 62
     7
370
    13
100
AcDbBlockReference
  2
LARROW_1
 10
6.218208
 20
6.684667
 30
0.0
 41
12.0
 42
12.0
 43
12.0
 50
270.0
  0
INSERT
  5
474
330
52D
100
AcDbEntity
  8
DIM
  6
Continuous
 62
     7
370
    13
100
AcDbBlockReference
  2
LARROW_1
 10
6.218208
 20
6.334687
 30
0.0
 41
12.0
 42
12.0
 43
12.0
 50
90.0
  0
INSERT
  5
476
330
52D
100
AcDbEntity
  8
DIM
  6
Continuous
 62
     7
370
    30
100
AcDbBlockReference
  2
LARROW
 10
6.548573
 20
6.826271
 30
0.0
 41
12.0
 42
12.0
 43
12.0
 50
90.0
  0
INSERT
  5
478
330
52D
100
AcDbEntity
  8
DIM
  6
Continuous
 62
     7
370
    13
100
AcDbBlockReference
  2
LARROW_1
 10
5.29201
 20
6.838458
 30
0.0
 41
12.0
 42
12.0
 43
12.0
 50
180.0
  0
INSERT
  5
47A
330
52D
100
AcDbEntity
  8
DIM
  6
Continuous
 62
     7
370
    13
100
AcDbBlockReference
  2
LARROW_1
 10
5.99076
 20
6.838458
 30
0.0
 41
12.0
 42
12.0
 43
12.0
  0
INSERT
  5
47C
330
52D
100
AcDbEntity
  8
DIM
  6
Continuous
 62
     7
370
    30
100
AcDbBlockReference
  2
LARROW
 10
5.393125
 20
5.595813
 30
0.0
 41
12.0
 42
12.0
 43
12.0
 50
180.0
  0
INSERT
  5
47E
330
52D
100
AcDbEntity
  8
DIM
  6
Continuous
 62
     7
370
    13
100
AcDbBlockReference
  2
LARROW_1
 10
8.346385
 20
6.816156
 30
0.0
 41
12.0
 42
12.0
 43
12.0
 50
270.0
  0
INSERT
  5
480
330
52D
100
AcDbEntity
  8
DIM
  6
Continuous
 62
     7
370
    13
100
AcDbBlockReference
  2
LARROW_1
 10
6.081
 20
4.5005
 30
0.0
 41
12.0
 42
12.0
 43
12.0
 50
307.282128
  0
INSERT
  5
482
330
52D
100
AcDbEntity
  8
DIM
  6
Continuous
 62
     7
370
    13
100
AcDbBlockReference
  2
LARROW_1
 10
6.977885
 20
4.633271
 30
0.0
 41
12.0
 42
12.0
 43
12.0
 50
227.056562
  0
INSERT
  5
484
330
52D
100
AcDbEntity
  8
DIM
  6
Continuous
 62
     7
370
    13
100
AcDbBlockReference
  2
LARROW_1
 10
7.425427
 20
4.636437
 30
0.0
 41
12.000001
 42
12.000001
 43
12.000001
 50
295.949892
  0
INSERT
  5
486
330
52D
100
AcDbEntity
  8
DIM
  6
Continuous
 62
     7
370
    13
100
AcDbBlockReference
  2
LARROW_1
 10
8.579417
 20
3.675156
 30
0.0
 41
12.0
 42
12.0
 43
12.0
 50
180.0
  0
INSERT
  5
488
330
52D
100
AcDbEntity
  8
DIM
  6
Continuous
 62
     7
370
    13
100
AcDbBlockReference
  2
LARROW_1
 10
9.651708
 20
3.675156
 30
0.0
 41
12.0
 42
12.0
 43
12.0
  0
INSERT
  5
48A
330
52D
100
AcDbEntity
  8
DIM
  6
Continuous
 62
     7
370
    13
100
AcDbBlockReference
  2
LARROW_1
 10
8.979417
 20
3.480333
 30
0.0
 41
12.0
 42
12.0
 43
12.0
  0
INSERT
  5
48C
330
52D
100
AcDbEntity
  8
DIM
  6
Continuous
 62
     7
370
    13
100
AcDbBlockReference
  2
LARROW_1
 10
9.151292
 20
3.480333
 30
0.0
 41
12.0
 42
12.0
 43
12.0
 50
180.0
  0
INSERT
  5
48E
330
52D
100
AcDbEntity
  8
DIM
  6
Continuous
 62
     7
370
    13
100
AcDbBlockReference
  2
LARROW_1
 10
8.446969
 20
3.071302
 30
0.0
 41
12.0
 42
12.0
 43
12.0
 50
270.0
  0
INSERT
  5
490
330
52D
100
AcDbEntity
  8
DIM
  6
Continuous
 62
     7
370
    13
100
AcDbBlockReference
  2
LARROW_1
 10
8.446969
 20
2.710427
 30
0.0
 41
12.0
 42
12.0
 43
12.0
 50
90.0
  0
INSERT
  5
492
330
52D
100
AcDbEntity
  8
DIM
  6
Continuous
 62
     7
370
    13
100
AcDbBlockReference
  2
LARROW_1
 10
2.398031
 20
7.278479
 30
0.0
 41
12.000002
 42
12.000002
 43
12.000002
 50
55.296374
  0
INSERT
  5
494
330
52D
100
AcDbEntity
  8
DIM
  6
Continuous
 62
     7
370
    13
100
AcDbBlockReference
  2
LARROW_1
 10
1.987812
 20
6.57275
 30
0.0
 41
12.0
 42
12.0
 43
12.0
 50
47.621315
  0
INSERT
  5
496
330
52D
100
AcDbEntity
  8
DIM
  6
Continuous
 62
     7
370
    13
100
AcDbBlockReference
  2
LARROW_1
 10
2.633146
 20
6.442698
 30
0.0
 41
12.0
 42
12.0
 43
12.0
 50
270.0
  0
INSERT
  5
498
330
52D
100
AcDbEntity
  8
DIM
  6
Continuous
 62
     7
370
    13
100
AcDbBlockReference
  2
LARROW_1
 10
2.633146
 20
6.053104
 30
0.0
 41
12.0
 42
12.0
 43
12.0
 50
90.0
  0
INSERT
  5
49A
330
52D
100
AcDbEntity
  8
DIM
  6
Continuous
 62
     7
370
    13
100
AcDbBlockReference
  2
LARROW_1
 10
2.90274
 20
6.434896
 30
0.0
 41
12.0
 42
12.0
 43
12.0
 50
90.0
  0
INSERT
  5
49C
330
52D
100
AcDbEntity
  8
DIM
  6
Continuous
 62
     7
370
    30
100
AcDbBlockReference
  2
LARROW
 10
2.90274
 20
6.434896
 30
0.0
 41
12.0
 42
12.0
 43
12.0
 50
90.0
  0
INSERT
  5
49E
330
52D
100
AcDbEntity
  8
DIM
  6
Continuous
 62
     7
370
    13
100
AcDbBlockReference
  2
LARROW_1
 10
2.90274
 20
5.936229
 30
0.0
 41
12.0
 42
12.0
 43
12.0
 50
270.0
  0
INSERT
  5
4A0
330
52D
100
AcDbEntity
  8
DIM
  6
Continuous
 62
     7
370
    13
100
AcDbBlockReference
  2
LARROW_1
 10
3.449667
 20
5.944021
 30
0.0
 41
12.0
 42
12.0
 43
12.0
 50
270.0
  0
INSERT
  5
4A2
330
52D
100
AcDbEntity
  8
DIM
  6
Continuous
 62
     7
370
    13
100
AcDbBlockReference
  2
LARROW_1
 10
3.449667
 20
7.549125
 30
0.0
 41
12.0
 42
12.0
 43
12.0
 50
90.0
  0
INSERT
  5
4A4
330
52D
100
AcDbEntity
  8
DIM
  6
Continuous
 62
     7
370
    13
100
AcDbBlockReference
  2
LARROW_1
 10
1.925865
 20
3.825146
 30
0.0
 41
12.0
 42
12.0
 43
12.0
 50
180.0
  0
LWPOLYLINE
  5
4A6
330
52D
100
AcDbEntity
  8
TEXT
  6
Continuous
 62
     7
370
    13
100
AcDbPolyline
 90
        3
 70
   128
 43
0.0
 10
2.372896
 20
3.560542
 10
2.296562
 20
3.560542
 10
2.085125
 20
3.172969
  0
INSERT
  5
4A7
330
52D
100
AcDbEntity
  8
TEXT
  6
Continuous
 62
     7
370
    13
100
AcDbBlockReference
  2
LARROW_2
 10
2.085125
 20
3.172969
 30
0.0
 41
12.0
 42
12.0
 43
12.0
 50
241.385651
  0
LINE
  5
4B3
330
52D
100
AcDbEntity
  8
_0
  6
Continuous
 62
     7
370
    13
100
AcDbLine
 10
6.902448
 20
3.969479
 30
0.0
 11
6.834479
 21
3.969479
 31
0.0
  0
LINE
  5
4B4
330
52D
100
AcDbEntity
  8
_0
  6
Continuous
 62
     7
370
    13
100
AcDbLine
 10
6.100844
 20
3.969479
 30
0.0
 11
6.005573
 21
3.969479
 31
0.0
  0
INSERT
  5
4B5
330
52D
100
AcDbEntity
  8
DIM
  6
Continuous
 62
     7
370
    13
100
AcDbBlockReference
  2
LARROW_3
 10
5.830458
 20
4.044531
 30
0.0
 41
12.0
 42
12.0
 43
12.0
 50
156.800577
  0
INSERT
  5
4C0
330
52D
100
AcDbEntity
  8
DIM
  6
Continuous
 62
     7
370
    13
100
AcDbBlockReference
  2
LARROW_3
 10
7.130687
 20
4.045562
 30
0.0
 41
12.000001
 42
12.000001
 43
12.000001
 50
18.435736
  0
TEXT
  5
307
330
52D
100
AcDbEntity
  8
TITLE
  6
Continuous
 62
     7
370
    30
100
AcDbText
 10
3.239536
 20
0.935358
 30
0.0
 40
0.12
  1
TYPICAL AIRCRAFT COMBINED STATIC GROUND
 41
0.833333
  7
Style-Arial
 72
     1
 11
4.889422
 21
0.935358
 31
0.0
100
AcDbText
  0
TEXT
  5
308
330
52D
100
AcDbEntity
  8
BORDER
  6
Continuous
 62
     7
370
    30
100
AcDbText
 10
9.442508
 20
0.749784
 30
0.0
 40
0.12
  1
2-28a
 41
0.833333
  7
Style-Arial
 72
     1
 11
9.618117
 21
0.749784
 31
0.0
100
AcDbText
  0
TEXT
  5
309
330
52D
100
AcDbEntity
  8
BORDER
  6
Continuous
 62
     7
370
    30
100
AcDbText
 10
8.290644
 20
0.907475
 30
0.0
 40
0.12
  1
DATE
 41
0.833333
  7
Style-Arial
 72
     1
 11
8.473266
 21
0.907475
 31
0.0
100
AcDbText
  0
TEXT
  5
30A
330
52D
100
AcDbEntity
  8
BORDER
  6
Continuous
 62
     7
370
    30
100
AcDbText
 10
9.352736
 20
0.919442
 30
0.0
 40
0.12
  1
FIGURE
 41
0.833333
  7
Style-Arial
 72
     1
 11
9.612949
 21
0.919442
 31
0.0
100
AcDbText
  0
TEXT
  5
30C
330
52D
100
AcDbEntity
  8
BORDER
  6
Continuous
 62
     7
370
    30
100
AcDbText
 10
8.178221
 20
0.746792
 30
0.0
 40
0.12
  1
AUG 1992
 41
0.833333
  7
Style-Arial
 72
     1
 11
8.500668
 21
0.746792
 31
0.0
100
AcDbText
  0
TEXT
  5
360
330
52D
100
AcDbEntity
  8
TEXT
  6
Continuous
 62
     7
370
    30
100
AcDbText
 10
8.499544
 20
7.326547
 30
0.0
 40
0.12
  1
COPPER SLEEVE
 41
0.833333
  7
Style-Arial
 72
     1
 11
9.082166
 21
7.326547
 31
0.0
100
AcDbText
  0
TEXT
  5
361
330
52D
100
AcDbEntity
  8
TEXT
  6
Continuous
 62
     7
370
    30
100
AcDbText
 10
8.502235
 20
7.159964
 30
0.0
 40
0.12
  1
COMPRESSED
 41
0.833333
  7
Style-Arial
 72
     1
 11
8.995451
 21
7.159964
 31
0.0
100
AcDbText
  0
TEXT
  5
362
330
52D
100
AcDbEntity
  8
DIM
  6
Continuous
 62
     7
370
    30
100
AcDbText
 10
1.440793
 20
5.864723
 30
0.0
 40
0.12
  1
3/4"R
 50
50.164956
 41
0.833333
  7
Style-Arial
 72
     1
 11
1.550576
 21
5.996324
 31
0.0
100
AcDbText
  0
TEXT
  5
364
330
52D
100
AcDbEntity
  8
DIM
  6
Continuous
 62
     7
370
    30
100
AcDbText
 10
2.686771
 20
6.20545
 30
0.0
 40
0.12
  1
1"
 50
90.0
 41
0.833333
  7
Style-Arial
 72
     1
 11
2.686771
 21
6.265816
 31
0.0
100
AcDbText
  0
TEXT
  5
366
330
52D
100
AcDbEntity
  8
DIM
  6
Continuous
 62
     7
370
    30
100
AcDbText
 10
3.112969
 20
5.991502
 30
0.0
 40
0.12
  1
1-1/2"
 50
90.0
 41
0.833333
  7
Style-Arial
 72
     1
 11
3.112969
 21
6.17218
 31
0.0
100
AcDbText
  0
TEXT
  5
369
330
52D
100
AcDbEntity
  8
DIM
  6
Continuous
 62
     7
370
    30
100
AcDbText
 10
3.37001
 20
6.609459
 30
0.0
 40
0.12
  1
4-1/2"
 50
90.0
 41
0.833333
  7
Style-Arial
 72
     1
 11
3.37001
 21
6.790137
 31
0.0
100
AcDbText
  0
TEXT
  5
36A
330
52D
100
AcDbEntity
  8
TEXT
  6
Continuous
 62
     7
370
    30
100
AcDbText
 10
2.513735
 20
4.62218
 30
0.0
 40
0.12
  1
3/4" X 10'-0"
 41
0.833333
  7
Style-Arial
 72
     1
 11
2.895633
 21
4.62218
 31
0.0
100
AcDbText
  0
TEXT
  5
36B
330
52D
100
AcDbEntity
  8
TEXT
  6
Continuous
 62
     7
370
    30
100
AcDbText
 10
2.503422
 20
4.116469
 30
0.0
 40
0.12
  1
GALVANIZED STEEL 
 41
0.833333
  7
Style-Arial
 72
     1
 11
3.184291
 21
4.116469
 31
0.0
100
AcDbText
  0
TEXT
  5
36C
330
52D
100
AcDbEntity
  8
TEXT
  6
Continuous
 62
     7
370
    30
100
AcDbText
 10
2.501838
 20
3.9545
 30
0.0
 40
0.12
  1
OR COPPER-ZINC-
 41
0.833333
  7
Style-Arial
 72
     1
 11
3.128438
 21
3.9545
 31
0.0
100
AcDbText
  0
TEXT
  5
36D
330
52D
100
AcDbEntity
  8
TEXT
  6
Continuous
 62
     7
370
    30
100
AcDbText
 10
2.50767
 20
3.778312
 30
0.0
 40
0.12
  1
SILICONE ALLOY.
 41
0.833333
  7
Style-Arial
 72
     1
 11
3.091702
 21
3.778312
 31
0.0
100
AcDbText
  0
TEXT
  5
36E
330
52D
100
AcDbEntity
  8
TEXT
  6
Continuous
 62
     7
370
    30
100
AcDbText
 10
2.386135
 20
3.152254
 30
0.0
 40
0.12
  1
TO ROD. #2/0
 41
0.833333
  7
Style-Arial
 72
     1
 11
2.829161
 21
3.152254
 31
0.0
100
AcDbText
  0
TEXT
  5
36F
330
52D
100
AcDbEntity
  8
TEXT
  6
Continuous
 62
     7
370
    30
100
AcDbText
 10
2.386366
 20
2.811265
 30
0.0
 40
0.12
  1
BE USED FOR THE
 41
0.833333
  7
Style-Arial
 72
     1
 11
3.015406
 21
2.811265
 31
0.0
100
AcDbText
  0
TEXT
  5
370
330
52D
100
AcDbEntity
  8
TEXT
  6
Continuous
 62
     7
370
    30
100
AcDbText
 10
2.374814
 20
3.319594
 30
0.0
 40
0.12
  1
EXOTHERMIC WELD
 41
0.833333
  7
Style-Arial
 72
     1
 11
3.058122
 21
3.319594
 31
0.0
100
AcDbText
  0
TEXT
  5
371
330
52D
100
AcDbEntity
  8
LEGEND
  6
Continuous
 62
     7
370
    30
100
AcDbText
 10
2.906148
 20
2.087979
 30
0.0
 40
0.12
  1
AIRCRAFT THRUST ANCHORS.
 41
0.833333
  7
Style-Arial
 72
     1
 11
3.940333
 21
2.087979
 31
0.0
100
AcDbText
  0
TEXT
  5
372
330
52D
100
AcDbEntity
  8
LEGEND
  6
Continuous
 62
     7
370
    30
100
AcDbText
 10
2.745745
 20
1.82675
 30
0.0
 40
0.12
  1
2. THESE ANCHORS SHALL NOT BE
 41
0.833333
  7
Style-Arial
 72
     1
 11
3.94163
 21
1.82675
 31
0.0
100
AcDbText
  0
TEXT
  5
373
330
52D
100
AcDbEntity
  8
LEGEND
  6
Continuous
 62
     7
370
    30
100
AcDbText
 10
2.90687
 20
1.654958
 30
0.0
 40
0.12
  1
USED FOR ARMY ROTARY WING 
 41
0.833333
  7
Style-Arial
 72
     1
 11
4.00485
 21
1.654958
 31
0.0
100
AcDbText
  0
TEXT
  5
374
330
52D
100
AcDbEntity
  8
LEGEND
  6
Continuous
 62
     7
370
    30
100
AcDbText
 10
2.915933
 20
1.475844
 30
0.0
 40
0.12
  1
AIRCRAFT.
 41
0.833333
  7
Style-Arial
 72
     1
 11
3.278585
 21
1.475844
 31
0.0
100
AcDbText
  0
TEXT
  5
375
330
52D
100
AcDbEntity
  8
REF
  6
Continuous
 62
     7
370
    30
100
AcDbText
 10
1.903742
 20
1.184417
 30
0.0
 40
0.12
  1
REFERENCE: AFM 88-2, FACILITY DESIGN AND PLANNING
 41
0.833333
  7
Style-Arial
 72
     1
 11
3.851951
 21
1.184417
 31
0.0
100
AcDbText
  0
TEXT
  5
376
330
52D
100
AcDbEntity
  8
TEXT
  6
Continuous
 62
     7
370
    30
100
AcDbText
 10
7.772804
 20
6.165317
 30
0.0
 40
0.12
  1
DETAIL OF EYE AND
 41
0.833333
  7
Style-Arial
 72
     1
 11
8.456226
 21
6.165317
 31
0.0
100
AcDbText
  0
TEXT
  5
377
330
52D
100
AcDbEntity
  8
TEXT
  6
Continuous
 62
     7
370
    30
100
AcDbText
 10
8.164518
 20
5.701376
 30
0.0
 40
0.12
  1
NO SCALE
 41
0.833333
  7
Style-Arial
 72
     1
 11
8.514099
 21
5.701376
 31
0.0
100
AcDbText
  0
TEXT
  5
378
330
52D
100
AcDbEntity
  8
TEXT
  6
Continuous
 62
     7
370
    30
100
AcDbText
 10
8.721682
 20
1.670552
 30
0.0
 40
0.12
  1
NO SCALE
 41
0.833333
  7
Style-Arial
 72
     1
 11
9.071263
 21
1.670552
 31
0.0
100
AcDbText
  0
TEXT
  5
379
330
52D
100
AcDbEntity
  8
TEXT
  6
Continuous
 62
     7
370
    30
100
AcDbText
 10
8.774691
 20
1.87724
 30
0.0
 40
0.12
  1
ANCHOR
 41
0.833333
  7
Style-Arial
 72
     1
 11
9.07652
 21
1.87724
 31
0.0
100
AcDbText
  0
TEXT
  5
37A
330
52D
100
AcDbEntity
  8
TEXT
  6
Continuous
 62
     7
370
    30
100
AcDbText
 10
8.28767
 20
2.05424
 30
0.0
 40
0.12
  1
SCREW TYPE BOTTOM
 41
0.833333
  7
Style-Arial
 72
     1
 11
9.062632
 21
2.05424
 31
0.0
100
AcDbText
  0
TEXT
  5
3BB
330
52D
100
AcDbEntity
  8
_0
  6
Continuous
 62
     7
370
    30
100
AcDbText
 10
6.177236
 20
3.922369
 30
0.0
 40
0.12
  1
ANCHOR
 41
0.833333
  7
Style-Arial
 72
     1
 11
6.479065
 21
3.922369
 31
0.0
100
AcDbText
  0
TEXT
  5
3BD
330
52D
100
AcDbEntity
  8
TEXT
  6
Continuous
 62
     7
370
    30
100
AcDbText
 10
4.801513
 20
4.929083
 30
0.0
 40
0.12
  1
3-1/4" R
 41
0.833333
  7
Style-Arial
 72
     1
 11
5.054371
 21
4.929083
 31
0.0
100
AcDbText
  0
TEXT
  5
3BE
330
52D
100
AcDbEntity
  8
TEXT
  6
Continuous
 62
     7
370
    30
100
AcDbText
 10
7.385116
 20
4.895135
 30
0.0
 40
0.12
  1
EDGES ROUNDED
 41
0.833333
  7
Style-Arial
 72
     1
 11
7.998645
 21
4.895135
 31
0.0
100
AcDbText
  0
TEXT
  5
3BF
330
52D
100
AcDbEntity
  8
TEXT
  6
Continuous
 62
     7
370
    30
100
AcDbText
 10
6.19272
 20
3.090024
 30
0.0
 40
0.12
  1
NO SCALE
 41
0.833333
  7
Style-Arial
 72
     1
 11
6.542301
 21
3.090024
 31
0.0
100
AcDbText
  0
TEXT
  5
3F3
330
52D
100
AcDbEntity
  8
TEXT
  6
Continuous
 62
     7
370
    30
100
AcDbText
 10
6.360821
 20
7.637458
 30
0.0
 40
0.12
  1
PAVEMENT
 41
0.833333
  7
Style-Arial
 72
     1
 11
6.743786
 21
7.637458
 31
0.0
100
AcDbText
  0
TEXT
  5
3F6
330
52D
100
AcDbEntity
  8
DIM
  6
Continuous
 62
     7
370
    30
100
AcDbText
 10
6.265719
 20
6.446732
 30
0.0
 40
0.12
  1
3"
 50
90.0
 41
0.833333
  7
Style-Arial
 72
     1
 11
6.265719
 21
6.507097
 31
0.0
100
AcDbText
  0
TEXT
  5
3F9
330
52D
100
AcDbEntity
  8
DIM
  6
Continuous
 62
     7
370
    30
100
AcDbText
 10
5.409108
 20
6.901
 30
0.0
 40
0.12
  1
6" MAX
 41
0.833333
  7
Style-Arial
 72
     1
 11
5.643102
 21
6.901
 31
0.0
100
AcDbText
  0
TEXT
  5
3FA
330
52D
100
AcDbEntity
  8
TEXT
  6
Continuous
 62
     7
370
    30
100
AcDbText
 10
6.497111
 20
6.89975
 30
0.0
 40
0.12
  1
A
 41
0.833333
  7
Style-Arial
 72
     1
 11
6.543833
 21
6.89975
 31
0.0
100
AcDbText
  0
TEXT
  5
3FB
330
52D
100
AcDbEntity
  8
TEXT
  6
Continuous
 62
     7
370
    30
100
AcDbText
 10
4.687934
 20
6.89975
 30
0.0
 40
0.12
  1
A
 41
0.833333
  7
Style-Arial
 72
     1
 11
4.734656
 21
6.89975
 31
0.0
100
AcDbText
  0
TEXT
  5
3FD
330
52D
100
AcDbEntity
  8
TEXT
  6
Continuous
 62
     7
370
    30
100
AcDbText
 10
5.224356
 20
5.540229
 30
0.0
 40
0.12
  1
B
 41
0.833333
  7
Style-Arial
 72
     1
 11
5.267229
 21
5.540229
 31
0.0
100
AcDbText
  0
TEXT
  5
3FE
330
52D
100
AcDbEntity
  8
TEXT
  6
Continuous
 62
     7
370
    30
100
AcDbText
 10
5.224356
 20
7.373969
 30
0.0
 40
0.12
  1
B
 41
0.833333
  7
Style-Arial
 72
     1
 11
5.267229
 21
7.373969
 31
0.0
100
AcDbText
  0
TEXT
  5
406
330
52D
100
AcDbEntity
  8
TEXT
  6
Continuous
 62
     7
370
    30
100
AcDbText
 10
7.494848
 20
1.415271
 30
0.0
 40
0.12
  1
FOR USE WITH FLEXIBLE PAVEMENT
 41
0.833333
  7
Style-Arial
 72
     1
 11
8.751213
 21
1.415271
 31
0.0
100
AcDbText
  0
TEXT
  5
407
330
52D
100
AcDbEntity
  8
TEXT
  6
Continuous
 62
     7
370
    30
100
AcDbText
 10
7.501115
 20
1.221406
 30
0.0
 40
0.12
  1
IN FROST SUSCEPTIBLE SOILS
 41
0.833333
  7
Style-Arial
 72
     1
 11
8.549552
 21
1.221406
 31
0.0
100
AcDbText
  0
TEXT
  5
420
330
52D
100
AcDbEntity
  8
DIM
  6
Continuous
 62
     7
370
    30
100
AcDbText
 10
9.561871
 20
3.416375
 30
0.0
 40
0.12
  1
3/4"
 41
0.833333
  7
Style-Arial
 72
     1
 11
9.680468
 21
3.416375
 31
0.0
100
AcDbText
  0
TEXT
  5
423
330
52D
100
AcDbEntity
  8
DIM
  6
Continuous
 62
     7
370
    30
100
AcDbText
 10
8.853294
 20
3.703142
 30
0.0
 40
0.12
  1
6"% MIN.
 41
0.833333
  7
Style-Arial
 72
     1
 11
9.139804
 21
3.703142
 31
0.0
100
AcDbText
  0
TEXT
  5
426
330
52D
100
AcDbEntity
  8
DIM
  6
Continuous
 62
     7
370
    30
100
AcDbText
 10
8.549773
 20
2.773
 30
0.0
 40
0.12
  1
MIN
 50
90.0
 41
0.833333
  7
Style-Arial
 72
     1
 11
8.549773
 21
2.895332
 31
0.0
100
AcDbText
  0
TEXT
  5
427
330
52D
100
AcDbEntity
  8
DIM
  6
Continuous
 62
     7
370
    30
100
AcDbText
 10
8.374892
 20
2.726177
 30
0.0
 40
0.12
  1
1-1/2"
 50
90.0
 41
0.833333
  7
Style-Arial
 72
     1
 11
8.374892
 21
2.906855
 31
0.0
100
AcDbText
  0
TEXT
  5
428
330
52D
100
AcDbEntity
  8
TITLE
  6
Continuous
 62
     7
370
    30
100
AcDbText
 10
3.929591
 20
0.765583
 30
0.0
 40
0.12
  1
AND MOORING POINT
 41
0.833333
  7
Style-Arial
 72
     1
 11
4.66953
 21
0.765583
 31
0.0
100
AcDbText
  0
TEXT
  5
434
330
52D
100
AcDbEntity
  8
DIM
  6
Continuous
 62
     7
370
    30
100
AcDbText
 10
3.627104
 20
6.485272
 30
0.0
 40
0.12
  1
APPROX.
 50
90.0
 41
0.833333
  7
Style-Arial
 72
     1
 11
3.627104
 21
6.789807
 31
0.0
100
AcDbText
  0
TEXT
  5
43E
330
52D
100
AcDbEntity
  8
TEXT
  6
Continuous
 62
     7
370
    30
100
AcDbText
 10
2.504059
 20
4.443948
 30
0.0
 40
0.12
  1
COPPER, COPPER
 41
0.833333
  7
Style-Arial
 72
     1
 11
3.132069
 21
4.443948
 31
0.0
100
AcDbText
  0
TEXT
  5
43F
330
52D
100
AcDbEntity
  8
TEXT
  6
Continuous
 62
     7
370
    30
100
AcDbText
 10
2.51163
 20
4.277573
 30
0.0
 40
0.12
  1
CLAD STEEL,
 41
0.833333
  7
Style-Arial
 72
     1
 11
2.951912
 21
4.277573
 31
0.0
100
AcDbText
  0
TEXT
  5
441
330
52D
100
AcDbEntity
  8
TEXT
  6
Continuous
 62
     7
370
    30
100
AcDbText
 10
2.389176
 20
2.645328
 30
0.0
 40
0.12
  1
APRON TIE-DOWNS.
 41
0.833333
  7
Style-Arial
 72
     1
 11
3.070083
 21
2.645328
 31
0.0
100
AcDbText
  0
TEXT
  5
442
330
52D
100
AcDbEntity
  8
TEXT
  6
Continuous
 62
     7
370
    30
100
AcDbText
 10
2.38719
 20
3.495194
 30
0.0
 40
0.12
  1
#2 BARE COPPER
 41
0.833333
  7
Style-Arial
 72
     1
 11
2.988067
 21
3.495194
 31
0.0
100
AcDbText
  0
TEXT
  5
443
330
52D
100
AcDbEntity
  8
TEXT
  6
Continuous
 62
     7
370
    30
100
AcDbText
 10
2.37954
 20
2.98184
 30
0.0
 40
0.12
  1
COPPER SHALL
 41
0.833333
  7
Style-Arial
 72
     1
 11
2.912886
 21
2.98184
 31
0.0
100
AcDbText
  0
TEXT
  5
444
330
52D
100
AcDbEntity
  8
TEXT
  6
Continuous
 62
     7
370
    30
100
AcDbText
 10
8.504435
 20
6.985398
 30
0.0
 40
0.12
  1
ON ROD
 41
0.833333
  7
Style-Arial
 72
     1
 11
8.780159
 21
6.985398
 31
0.0
100
AcDbText
  0
TEXT
  5
453
330
52D
100
AcDbEntity
  8
TEXT
  6
Continuous
 62
     7
370
    30
100
AcDbText
 10
4.802286
 20
5.122187
 30
0.0
 40
0.12
  1
APPROX.
 41
0.833333
  7
Style-Arial
 72
     1
 11
5.106821
 21
5.122187
 31
0.0
100
AcDbText
  0
TEXT
  5
458
330
52D
100
AcDbEntity
  8
DIM
  6
Continuous
 62
     7
370
    30
100
AcDbText
 10
9.558295
 20
3.259531
 30
0.0
 40
0.12
  1
DIAM.
 41
0.833333
  7
Style-Arial
 72
     1
 11
9.746252
 21
3.259531
 31
0.0
100
AcDbText
  0
TEXT
  5
463
330
52D
100
AcDbEntity
  8
TEXT
  6
Continuous
 62
     7
370
    30
100
AcDbText
 10
5.369782
 20
3.617907
 30
0.0
 40
0.12
  1
SECTION A-A
 41
0.833333
  7
Style-Arial
 72
     1
 11
5.816314
 21
3.617907
 31
0.0
100
AcDbText
  0
TEXT
  5
464
330
52D
100
AcDbEntity
  8
TEXT
  6
Continuous
 62
     7
370
    30
100
AcDbText
 10
6.793278
 20
3.614915
 30
0.0
 40
0.12
  1
SECTION B-B
 41
0.833333
  7
Style-Arial
 72
     1
 11
7.235961
 21
3.614915
 31
0.0
100
AcDbText
  0
TEXT
  5
465
330
52D
100
AcDbEntity
  8
TEXT
  6
Continuous
 62
     7
370
    30
100
AcDbText
 10
5.45452
 20
3.335422
 30
0.0
 40
0.12
  1
DETAIL OF PAVEMENT RECESS.
 41
0.833333
  7
Style-Arial
 72
     1
 11
6.539352
 21
3.335422
 31
0.0
100
AcDbText
  0
TEXT
  5
469
330
52D
100
AcDbEntity
  8
TEXT
  6
Continuous
 62
     7
370
    30
100
AcDbText
 10
7.790372
 20
5.91312
 30
0.0
 40
0.12
  1
SLEEVE ASSEMBLY
 41
0.833333
  7
Style-Arial
 72
     1
 11
8.457788
 21
5.91312
 31
0.0
100
AcDbText
  0
TEXT
  5
4B2
330
52D
100
AcDbEntity
  8
LEGEND
  6
Continuous
 62
     7
370
    30
100
AcDbText
 10
2.18918
 20
2.272927
 30
0.0
 40
0.12
  1
NOTES: 1. ANCHORS ARE NOT DESIGNED AS
 41
0.833333
  7
Style-Arial
 72
     1
 11
3.718944
 21
2.272927
 31
0.0
100
AcDbText
  0
HATCH
  5
519
330
52D
100
AcDbEntity
  8
DIM
  6
Continuous
 62
     7
370
    53
100
AcDbHatch
 10
0.0
 20
0.0
 30
0.0
210
0.0
220
0.0
230
1.0
  2
SOLID
 70
     1
 71
     0
 91
        1
 92
        1
 93
        1
 72
     2
 10
2.045711960213394
 20
3.100708330783048
 40
0.0399999999999994
 50
0.0
 51
360.0
 73
     1
 97
        0
 75
     0
 76
     1
 98
        0
  0
ENDSEC
  0
SECTION
  2
OBJECTS
  0
DICTIONARY
  5
521
330
0
100
AcDbDictionary
281
     1
  3
ACAD_COLOR
350
540
  3
ACAD_GROUP
350
53D
  3
ACAD_LAYOUT
350
531
  3
ACAD_MATERIAL
350
53F
  3
ACAD_MLINESTYLE
350
52B
  3
ACAD_PLOTSETTINGS
350
53E
  3
ACAD_PLOTSTYLENAME
350
520
  3
ACAD_TABLESTYLE
350
561
  3
AcadDim
350
54D
  3
MicroStation
350
545
  0
DICTIONARY
  5
51D
330
51C
100
AcDbDictionary
280
     1
281
     1
  3
ACAD_LAYERFILTERS
360
544
  3
ACAD_LAYERSTATES
360
51E
  0
DICTIONARY
  5
55D
330
52D
100
AcDbDictionary
280
     1
281
     1
  3
ACAD_SORTENTS
360
55E
  0
DICTIONARY
  5
540
102
{ACAD_REACTORS
330
521
102
}
330
521
100
AcDbDictionary
281
     1
  0
DICTIONARY
  5
53D
102
{ACAD_REACTORS
330
521
102
}
330
521
100
AcDbDictionary
281
     1
  0
DICTIONARY
  5
531
102
{ACAD_REACTORS
330
521
102
}
330
521
100
AcDbDictionary
281
     1
  3
Layout1
350
535
  3
Model
350
530
  0
DICTIONARY
  5
53F
102
{ACAD_REACTORS
330
521
102
}
330
521
100
AcDbDictionary
281
     1
  0
DICTIONARY
  5
52B
102
{ACAD_REACTORS
330
521
102
}
330
521
100
AcDbDictionary
281
     1
  3
Standard
350
52A
  0
DICTIONARY
  5
53E
102
{ACAD_REACTORS
330
521
102
}
330
521
100
AcDbDictionary
281
     1
  0
ACDBDICTIONARYWDFLT
  5
520
102
{ACAD_REACTORS
330
521
102
}
330
521
100
AcDbDictionary
281
     1
  3
Normal
350
51F
100
AcDbDictionaryWithDefault
340
51F
  0
DICTIONARY
  5
561
102
{ACAD_REACTORS
330
521
102
}
330
521
100
AcDbDictionary
281
     1
  0
XRECORD
  5
54D
102
{ACAD_REACTORS
330
521
102
}
330
521
100
AcDbXrecord
280
     1
 90
   990106
  3
 
 60
     0
 61
     0
 62
     1
 63
     1
 64
     0
 65
     0
 66
     0
 67
     3
 68
     1
 69
     1
 70
     0
 71
     0
 72
     0
 40
0.0
170
     0
  0
DICTIONARY
  5
545
102
{ACAD_REACTORS
330
521
102
}
330
521
100
AcDbDictionary
281
     1
  3
ApplicationElement 1301
350
515
  3
ModelApplicationElement 0 1300
350
514
  0
DICTIONARY
  5
544
102
{ACAD_REACTORS
330
51D
102
}
330
51D
100
AcDbDictionary
281
     1
  0
DICTIONARY
  5
51E
102
{ACAD_REACTORS
330
51D
102
}
330
51D
100
AcDbDictionary
281
     1
  0
SORTENTSTABLE
  5
55E
102
{ACAD_REACTORS
330
55D
102
}
330
55D
100
AcDbSortentsTable
330
52D
331
307
  5
454
331
308
  5
455
331
309
  5
456
331
30A
  5
457
331
30B
  5
307
331
30C
  5
458
331
30D
  5
308
331
30E
  5
309
331
30F
  5
30A
331
310
  5
30B
331
311
  5
30C
331
312
  5
30D
331
313
  5
30E
331
314
  5
30F
331
315
  5
310
331
316
  5
311
331
317
  5
312
331
318
  5
313
331
319
  5
314
331
31A
  5
315
331
31B
  5
316
331
31C
  5
317
331
31D
  5
318
331
31E
  5
319
331
31F
  5
31A
331
320
  5
31B
331
321
  5
31C
331
322
  5
31D
331
323
  5
31E
331
325
  5
31F
331
326
  5
320
331
327
  5
321
331
328
  5
322
331
329
  5
323
331
32A
  5
325
331
32B
  5
326
331
32C
  5
327
331
32D
  5
328
331
32E
  5
329
331
32F
  5
32A
331
330
  5
32B
331
331
  5
32C
331
332
  5
32D
331
333
  5
32E
331
334
  5
32F
331
335
  5
330
331
336
  5
331
331
338
  5
332
331
339
  5
333
331
33A
  5
334
331
33B
  5
335
331
33C
  5
336
331
33D
  5
338
331
33E
  5
339
331
33F
  5
33A
331
340
  5
33B
331
341
  5
33C
331
342
  5
33D
331
343
  5
33E
331
344
  5
33F
331
345
  5
340
331
346
  5
341
331
347
  5
342
331
348
  5
343
331
349
  5
344
331
34A
  5
345
331
34B
  5
346
331
34C
  5
347
331
34D
  5
348
331
34E
  5
349
331
34F
  5
34A
331
350
  5
34B
331
351
  5
34C
331
352
  5
34D
331
353
  5
34E
331
354
  5
34F
331
355
  5
350
331
356
  5
351
331
357
  5
352
331
358
  5
353
331
359
  5
354
331
35A
  5
355
331
35B
  5
356
331
35C
  5
357
331
35D
  5
358
331
35E
  5
359
331
35F
  5
35A
331
360
  5
459
331
361
  5
45A
331
362
  5
45B
331
363
  5
35B
331
364
  5
45C
331
365
  5
35C
331
366
  5
45D
331
367
  5
35D
331
368
  5
35E
331
369
  5
45E
331
36A
  5
45F
331
36B
  5
460
331
36C
  5
461
331
36D
  5
462
331
36E
  5
463
331
36F
  5
464
331
370
  5
465
331
371
  5
466
331
372
  5
467
331
373
  5
468
331
374
  5
469
331
375
  5
46A
331
376
  5
46B
331
377
  5
46C
331
378
  5
46E
331
379
  5
470
331
37A
  5
472
331
37B
  5
35F
331
37C
  5
360
331
37D
  5
361
331
37E
  5
362
331
37F
  5
363
331
380
  5
364
331
381
  5
365
331
382
  5
366
331
383
  5
367
331
384
  5
368
331
385
  5
369
331
386
  5
36A
331
387
  5
36B
331
388
  5
36C
331
389
  5
36D
331
38A
  5
36E
331
38B
  5
36F
331
38C
  5
370
331
38D
  5
371
331
38E
  5
372
331
38F
  5
373
331
390
  5
374
331
391
  5
375
331
392
  5
376
331
393
  5
377
331
394
  5
378
331
395
  5
379
331
396
  5
37A
331
397
  5
37B
331
398
  5
37C
331
399
  5
37D
331
39A
  5
37E
331
39B
  5
37F
331
39C
  5
380
331
39D
  5
381
331
39E
  5
382
331
39F
  5
383
331
3A0
  5
384
331
3A1
  5
385
331
3A2
  5
386
331
3A3
  5
387
331
3A4
  5
388
331
3A5
  5
389
331
3A6
  5
38A
331
3A7
  5
38B
331
3A8
  5
38C
331
3A9
  5
38D
331
3AA
  5
38E
331
3AB
  5
38F
331
3AC
  5
390
331
3AD
  5
391
331
3AE
  5
392
331
3AF
  5
393
331
3B0
  5
394
331
3B1
  5
395
331
3B2
  5
396
331
3B3
  5
397
331
3B4
  5
398
331
3B5
  5
399
331
3B6
  5
39A
331
3B7
  5
39B
331
3B8
  5
39C
331
3B9
  5
39D
331
3BA
  5
39E
331
3BB
  5
474
331
3BC
  5
39F
331
3BD
  5
476
331
3BE
  5
478
331
3BF
  5
47A
331
3C0
  5
3A0
331
3C1
  5
3A1
331
3C2
  5
3A2
331
3C3
  5
3A3
331
3C4
  5
3A4
331
3C5
  5
3A5
331
3C6
  5
3A6
331
3C7
  5
3A7
331
3C8
  5
3A8
331
3C9
  5
3A9
331
3CA
  5
3AA
331
3CB
  5
3AB
331
3CC
  5
3AC
331
3CD
  5
3AD
331
3CE
  5
3AE
331
3CF
  5
3AF
331
3D0
  5
3B0
331
3D1
  5
3B1
331
3D2
  5
3B2
331
3D3
  5
3B3
331
3D4
  5
3B4
331
3D5
  5
3B5
331
3D6
  5
3B6
331
3D7
  5
3B7
331
3D8
  5
3B8
331
3D9
  5
3B9
331
3DA
  5
3BA
331
3DB
  5
3BB
331
3DC
  5
3BC
331
3DD
  5
3BD
331
3EE
  5
3BE
331
3EF
  5
3BF
331
3F0
  5
3C0
331
3F1
  5
3C1
331
3F2
  5
3C2
331
3F3
  5
47C
331
3F4
  5
3C3
331
3F5
  5
3C4
331
3F6
  5
47E
331
3F7
  5
3C5
331
3F8
  5
3C6
331
3F9
  5
480
331
3FA
  5
482
331
3FB
  5
484
331
3FC
  5
3C7
331
3FD
  5
486
331
3FE
  5
488
331
3FF
  5
3C8
331
400
  5
3C9
331
401
  5
3CA
331
402
  5
3CB
331
403
  5
3CC
331
404
  5
3CD
331
405
  5
3CE
331
406
  5
48A
331
407
  5
48C
331
408
  5
3CF
331
40A
  5
3D0
331
40B
  5
3D1
331
40C
  5
3D2
331
40D
  5
3D3
331
40E
  5
3D4
331
40F
  5
3D5
331
410
  5
3D6
331
411
  5
3D7
331
412
  5
3D8
331
413
  5
3D9
331
414
  5
3DA
331
415
  5
3DB
331
416
  5
3DC
331
417
  5
3DD
331
418
  5
3EE
331
419
  5
3EF
331
41A
  5
3F0
331
41B
  5
3F1
331
41C
  5
3F2
331
41D
  5
3F3
331
41E
  5
3F4
331
41F
  5
3F5
331
420
  5
48E
331
421
  5
3F6
331
422
  5
3F7
331
423
  5
490
331
424
  5
3F8
331
425
  5
3F9
331
426
  5
492
331
427
  5
494
331
428
  5
496
331
429
  5
3FA
331
42A
  5
3FB
331
42B
  5
3FC
331
42C
  5
3FD
331
42D
  5
3FE
331
42E
  5
3FF
331
42F
  5
400
331
430
  5
401
331
431
  5
402
331
432
  5
403
331
433
  5
404
331
434
  5
498
331
435
  5
405
331
436
  5
406
331
437
  5
407
331
438
  5
408
331
439
  5
40A
331
43A
  5
40B
331
43B
  5
40C
331
43C
  5
40D
331
43D
  5
40E
331
43E
  5
49A
331
43F
  5
49C
331
440
  5
40F
331
441
  5
49E
331
442
  5
4A0
331
443
  5
4A2
331
444
  5
4A4
331
445
  5
410
331
446
  5
411
331
447
  5
412
331
448
  5
413
331
449
  5
414
331
44A
  5
415
331
44B
  5
416
331
44C
  5
417
331
44D
  5
418
331
44E
  5
419
331
44F
  5
41A
331
450
  5
41B
331
451
  5
41C
331
452
  5
41D
331
453
  5
4A6
331
454
  5
41E
331
455
  5
41F
331
456
  5
420
331
457
  5
421
331
458
  5
4A7
331
459
  5
422
331
45A
  5
423
331
45B
  5
424
331
45C
  5
425
331
45D
  5
426
331
45E
  5
427
331
45F
  5
428
331
460
  5
429
331
461
  5
42A
331
462
  5
42B
331
463
  5
4B2
331
464
  5
4B3
331
465
  5
4B4
331
466
  5
42C
331
467
  5
42D
331
468
  5
42E
331
469
  5
4B5
331
46A
  5
42F
331
46B
  5
430
331
46C
  5
431
331
46E
  5
432
331
470
  5
433
331
472
  5
434
331
474
  5
435
331
476
  5
436
331
478
  5
437
331
47A
  5
438
331
47C
  5
439
331
47E
  5
43A
331
480
  5
43B
331
482
  5
43C
331
484
  5
43D
331
486
  5
43E
331
488
  5
43F
331
48A
  5
440
331
48C
  5
441
331
48E
  5
442
331
490
  5
443
331
492
  5
444
331
494
  5
445
331
496
  5
446
331
498
  5
447
331
49A
  5
448
331
49C
  5
449
331
49E
  5
44A
331
4A0
  5
44B
331
4A2
  5
44C
331
4A4
  5
44D
331
4A6
  5
44E
331
4A7
  5
44F
331
4B2
  5
4C0
331
4B3
  5
450
331
4B4
  5
451
331
4B5
  5
452
331
4C0
  5
453
  0
LAYOUT
  5
535
102
{ACAD_REACTORS
330
531
330
531
102
}
102
{ACAD_XDICTIONARY
360
536
102
}
330
531
100
AcDbPlotSettings
  1

  2
none_device
  4
Letter_(8.50_x_11.00_Inches)
  6

 40
6.35
 41
6.35
 42
6.350006
 43
6.350006
 44
215.899994
 45
279.399994
 46
0.0
 47
0.0
 48
0.0
 49
0.0
140
0.0
141
0.0
142
1.0
143
1.0
 70
   688
 72
     0
 73
     1
 74
     5
  7

 75
    16
 76
     0
 77
     2
 78
   300
147
1.0
148
0.0
149
0.0
100
AcDbLayout
  1
Layout1
 70
     1
 71
     1
 10
-0.25
 20
-0.25
 11
10.75
 21
8.25
 12
0.0
 22
0.0
 32
0.0
 14
1.049744
 24
0.799667
 34
-0.001526
 15
9.450623
 25
7.200577
 35
0.0
146
0.0
 13
0.0
 23
0.0
 33
0.0
 16
1.0
 26
0.0
 36
0.0
 17
0.0
 27
1.0
 37
0.0
 76
     0
330
532
1001
ACAD_PSEXT
1000
None
1000
None
1000
Not applicable
1000
The layout will not be plotted unless a new plotter configuration name is selected.
1070
     0
  0
LAYOUT
  5
530
102
{ACAD_REACTORS
330
531
330
531
102
}
330
531
100
AcDbPlotSettings
  1

  2
none_device
  4
ANSI_A_(8.50_x_11.00_Inches)
  6

 40
6.35
 41
19.049999
 42
6.350006
 43
19.049988
 44
215.899994
 45
279.399994
 46
0.0
 47
0.0
 48
0.0
 49
0.0
140
0.0
141
0.0
142
1.0
143
2.584895
 70
 11952
 72
     0
 73
     1
 74
     0
  7

 75
     0
 76
     0
 77
     2
 78
   300
147
0.386863
148
0.0
149
0.0
100
AcDbLayout
  1
Model
 70
     1
 71
     0
 10
0.0
 20
0.0
 11
12.0
 21
9.0
 12
0.0
 22
0.0
 32
0.0
 14
0.0
 24
0.0
 34
0.0
 15
0.0
 25
0.0
 35
0.0
146
0.0
 13
0.0
 23
0.0
 33
0.0
 16
1.0
 26
0.0
 36
0.0
 17
0.0
 27
1.0
 37
0.0
 76
     0
330
52D
331
49
  0
MLINESTYLE
  5
52A
102
{ACAD_REACTORS
330
52B
102
}
330
52B
100
AcDbMlineStyle
  2
STANDARD
 70
     0
  3

 62
   256
 51
90.0
 52
90.0
 71
     2
 49
0.5
 62
   256
  6
BYLAYER
 49
-0.5
 62
   256
  6
BYLAYER
  0
ACDBPLACEHOLDER
  5
51F
102
{ACAD_REACTORS
330
520
102
}
330
520
  0
XRECORD
  5
515
102
{ACAD_REACTORS
330
545
102
}
330
545
100
AcDbXrecord
280
     1
310
3E4F020000004D6F64656C6572000000000000000000000000000000000000000000000000000000000000000000000000000000000000000000000000000000000000000000000000000000000000000000000000000000000000000000000000000000000000000000000000000000000000000000000000000000000000
310
00000000000000000000000000000000000000000000000000000000000000000000000000000000000000000000000000000000000000000000000000000000000000000000000000000000000000000000000000000000000000000000000000000000000000000000000000000000000000000000000000000000000000
310
00
310
00000000000000000000000000000000000000000000000000000000000000000000000000000000000000000000000000000000000000000000000000000000000000000000000000000000000000000000000000000000000000000000000000000000000000000000000000000000000000000000000000000000000000
310
00000000000000000000000000000000000000000000000000000000000000000000000000000000000000000000000000000000000000000000000000000000000000000000000000000000000000000000000000000000000000000000000000000000000000000000000000000000000000000000000000000000000000
310
00
310
00000000000000000000000000000000000000000000000000000000000000000000000000000000000000000000000000000000000000000000000000000000000000000000000000000000000000000000000000000000000000000000000000000000000000000000000000000000000000000000000000000000000000
310
00000000000000000000000000000000000000000000000000000000000000000000000000000000000000000000000000000000000000000000000000000000000000000000000000000000000000000000000000000000000000000000000000000000000000000000000000000000000000000000000000000000000000
310
00
310
00000000000000000000000000000000000000000000000000000000000000000000000000000000000000000000000000000000000000000000000000000000000000000000000000000000000000000000000000000000000000000000000000000000000000000000000000000000000000000000000000000000000000
310
00000000000000000000000000000000000000000000000000000000000000000000000000000000000000000000000000000000000000000000000000000000000000000000000000000000000000000000000000000000000000000000000000000000000000000000000000000000000000000000000000000000000000
310
00
310
00000000000000000000000000000000000000000000000000000000000000000000000000000000000000000000000000000000000000000000000000000000000000000000000000000000000000000000000000000000000000000000000000000000000000000000000000000000000000000000000000000000000000
310
00000000000000000000000000000000000000000000000000000000000000000000000000000000000000000000000000000000000000000000000000000000000000000000000000000000000000000000000000000000000000000000000000000000000000000000000000000000000000000000000000000000000000
310
00
310
00000000000000000000000000000000000000000000000000000000000000000000000000000000000000000000000000000000000000000000000000000000000000000000000000000000000000000000000000000000000000000000000000000000000000000000000000000000000000000000000000000000000000
310
00000000000000000000000000000000000000000000000000000000000000000000000000000000000000000000000000000000000000000000000000000000000000000000000000000000000000000000000000000000000000000000000000000000000000000000000000000000000000000000000000000000000000
310
00
310
00000000000000000000000000000000000000000000000000000000000000000000000000000000000000000000000000000000000000000000000000000000000000000000000000000000000000000000000000000000000000000000000000000000000000000000000000000000000000000000000000000000000000
310
00000000000000000000000000000000000000000000000000000000000000000000000000000000000000000000000000000000000000000000000000000000000000000000000000000000000000000000000000000000000000000000000000000000000000000000000000000000000000000000000000000000000000
310
00
310
00000000000000000000000000000000000000000000000000000000000000000000000000000000000000000000000000000000000000000000000000000000000000000000000000000000000000000000000000000000000000000000000000000000000000000000000000000000000000000000000000000000000000
310
00000000000000000000000000000000000000000000000000000000000000000000000000000000000000000000000000000000000000000000000000000000000000000000000000000000000000000000000000000000000000000000000000000000000000000000000000000000000000000000000000000000000000
310
00
310
00000000000000000000000000000000000000000000000000000000000000000000000000000000000000000000000000000000000000000000000000000000000000000000000000000000000000000000000000000000000000000000000000000000000000000000000000000000000000000000000000000000000000
310
00000000000000000000000000000000000000000000000000000000000000000000000000000000000000000000000000000000000000000000000000000000000000000000000000000000000000000000000000000000000000000000000000000000000000000000000000000000000000000000000000000000000000
310
00
310
00000000000000000000000000000000000000000000000000000000000000000000000000000000000000000000000000000000000000000000000000000000000000000000000000000000000000000000000000000000000000000000000000000000000000000000000000000000000000000000000000000000000000
310
00000000000000000000000000000000000000000000000000000000000000000000000000000000000000000000000000000000000000000000000000000000000000000000000000000000000000000000000000000000000000000000000000000000000000000000000000000000000000000000000000000000000000
310
00
310
00000000000000000000000000000000000000000000000000000000000000000000000000000000000000000000000000000000000000000000000000000000000000000000000000000000000000000000000000000000000000000000000000000000000000000000000000000000000000000000000000000000000000
310
00000000000000000000000000000000000000000000000000000000000000000000000000000000000000000000000000000000000000000000000000000000000000000000000000000000000000000000000000000000000000000000000000000000000000000000000000000000000000000000000000000000000000
310
00
310
00000000000000000000000000000000000000000000000000000000000000000000000000000000000000000000000000000000000000000000000000000000000000000000000000000000000000000000000000000000000000000000000000000000000000000000000000000000000000000000000000000000000000
310
00000000000000000000000000000000000000000000000000000000000000000000000000000000000000000000000000000000000000000000000000000000000000000000000000000000000000000000000000000000000000000000000000000000000000000000000000000000000000000000000000000000000000
310
00
310
00000000000000000000000000000000000000000000000000000000000000000000000000000000000000000000000000000000000000000000000000000000000000000000000000000000000000000000000000000000000000000000000000000000000000000000000000000000000000000000000000000000000000
310
00000000000000000000000000000000000000000000000000000000000000000000000000000000000000000000000000000000000000000000000000000000000000000000000000000000000000000000000000000000000000000000000000000000000000000000000000000000000000000000000000000000000000
310
00
310
00000000000000000000000000000000000000000000000000000000000000000000000000000000000000000000000000000000000000000000000000000000000000000000000000000000000000000000000000000000000000000000000000000000000000000000000000000000000000
  0
XRECORD
  5
514
102
{ACAD_REACTORS
330
545
102
}
330
545
100
AcDbXrecord
280
     1
310
DF56060034040701D0009A9999999999B93F000000000000000000000000000000000400000009000000000000000200000064000000640000000100000001000000190000007B14AE47E17A843F00000000004060409A9999999999B93F00000000004C2D41000000000070F7400000000000942141000000000000000000
310
0000000000000000000000000000000AD482040000000000000000000000000000F03F000000000000000000000000000030402D431CEBE2362A3F00000000000008400000000000000000009807C000000000000000007C1A61B9A711364020000000050000000A000000200000002000000020000000000000000000F03F
310
00
310
0000000000F03F000000000000F03F333333333333D33F333333333333D33F333333333333D33F000000000000F43F000000000000F43F000000000000F03F0200000064000000000000000000000000000840000000000000F83F00000000000000000000000000000000008056409A9999999999B93F0000000000000000
310
00000000000000000000000000000000000000000000000000000000000000000000000000000000000000000000000000000000000000000000000000000000000000000000000000000000000000000000000000000000000000000000000000000000000000000000000000000000000000000000000000000000000000
310
00
310
0000000000000000000000000000000000000000000000000000000000000000000000000000000000000000000000000000000000000000000000000000000000000000000000000000000000000000000000000000000000000000000000000000000000000000000000000000000000000000000000009A9999999999A9
310
3F9100000000000000000000000000000035A781D547960F40000000000000F03F000000000000F03F666666666666164000000000104068F200000000000000000000000000000000000000000000000000000000000000000000000000000000000000000000000000000000000000000000000000000000000000000000
310
00
310
00000000000000000000000000000000000000000000000000000000000000000000000000000000000000000000000000000000000000000000000000000000000000000000000000000000000000000000000000000000000000000000000000000000000000000000000000000000000000000000000000000000000000
310
000000000000000000000000000000000000000000000000000000000000000000000000000000000000000000000000000000000000000000000000FF000000000000000000000000000000000000000000000000000000000000000000000000000000000000000000000000000000000000000000000000000000000000
310
00
310
0000000000000000000000000000000000000000000000000000000000000000000000000000000000000000000000000000000000000000000000000000000000000000
  0
DICTIONARY
  5
536
330
535
100
AcDbDictionary
280
     1
281
     1
  3
ADSK_XREC_LAYOUTTHUMBNAIL
360
537
  0
XRECORD
  5
537
102
{ACAD_REACTORS
330
536
102
}
330
536
100
AcDbXrecord
280
     1
310
28000000B40000008B0000000100080000000000BC61000000000000000000000001000000000000FFFFFF0000000000FFFFFF000000000000000000000000000000000000000000000000000000000000000000330000006600000099000000CC000000FF00000000330000333300006633000099330000CC330000FF3300
310
0000660000336600006666000099660000CC660000FF66000000990000339900006699000099990000CC990000FF99000000CC000033CC000066CC000099CC0000CCCC0000FFCC000000FF000033FF000066FF000099FF0000CCFF0000FFFF000000003300330033006600330099003300CC003300FF003300003333003333
310
33006633330099333300CC333300FF33330000663300336633006666330099663300CC663300FF66330000993300339933006699330099993300CC993300FF99330000CC330033CC330066CC330099CC3300CCCC3300FFCC330000FF330033FF330066FF330099FF3300CCFF3300FFFF330000006600330066006600660099
310
006600CC006600FF00660000336600333366006633660099336600CC336600FF33660000666600336666006666660099666600CC666600FF66660000996600339966006699660099996600CC996600FF99660000CC660033CC660066CC660099CC6600CCCC6600FFCC660000FF660033FF660066FF660099FF6600CCFF6600
310
FFFF660000009900330099006600990099009900CC009900FF00990000339900333399006633990099339900CC339900FF33990000669900336699006666990099669900CC669900FF66990000999900339999006699990099999900CC999900FF99990000CC990033CC990066CC990099CC9900CCCC9900FFCC990000FF99
310
0033FF990066FF990099FF9900CCFF9900FFFF99000000CC003300CC006600CC009900CC00CC00CC00FF00CC000033CC003333CC006633CC009933CC00CC33CC00FF33CC000066CC003366CC006666CC009966CC00CC66CC00FF66CC000099CC003399CC006699CC009999CC00CC99CC00FF99CC0000CCCC0033CCCC0066CC
310
CC0099CCCC00CCCCCC00FFCCCC0000FFCC0033FFCC0066FFCC0099FFCC00CCFFCC00FFFFCC000000FF003300FF006600FF009900FF00CC00FF00FF00FF000033FF003333FF006633FF009933FF00CC33FF00FF33FF000066FF003366FF006666FF009966FF00CC66FF00FF66FF000099FF003399FF006699FF009999FF00CC
310
99FF00FF99FF0000CCFF0033CCFF0066CCFF0099CCFF00CCCCFF00FFCCFF0000FFFF0033FFFF0066FFFF0099FFFF00CCFFFF00FFFFFF00000000000D0D0D001A1A1A00282828003535350043434300505050005D5D5D006B6B6B00787878008686860093939300A1A1A100AEAEAE00BBBBBB00C9C9C900D6D6D600E4E4E400
310
F1F1F100FFFFFF0000000000000000000000000000000000000000000000000000000000000000000000000000000000E2E2E2E2E2E2E2E2E2E2E2E2E2E2E2E2E2E2E2E2E2E2E2E2E2E2E2E2E2E2E2E2E2E2E2E2E2E2E2E2E2E2E2E2E2E2E2E2E2E2E2E2E2E2E2E2E2E2E2E2E2E2E2E2E2E2E2E2E2E2E2E2E2E2E2E2E2E2E2
310
E2E2E2E2E2E2E2E2E2E2E2E2E2E2E2E2E2E2E2E2E2E2E2E2E2E2E2E2E2E2E2E2E2E2E2E2E2E2E2E2E2E2E2E2E2E2E2E2E2E2E2E2E2E2E2E2E2E2E2E2E2E2E2E2E2E2E2E2E2E2E2E2E2E2E2E2E2E2E2E2E2E2E2E2E2E2E2E2E2E2E2E2E2E2E2E2E2E2E2E2EFF5F5F5F5F5F5F5F5F5F5F5F5F5F5F5F5F5F5F5F5F5F5F5F5F5F5
310
F5F5F5F5F5F5F5F5F5F5F5F5F5F5F5F5F5F5F5F5F5F5F5F5F5F5F5F5F5F5F5F5F5F5F5F5F5F5F5F5F5F5F5F5F5F5F5F5F5F5F5F5F5F5F5F5F5F5F5F5F5F5F5F5F5F5F5F5F5F5F5F5F5F5F5F5F5F5F5F5F5F5F5F5F5F5F5F5F5F5F5F5F5F5F5F5F5F5F5F5F5F5F5F5F5F5F5F5F5F5F5F5F5F5F5F5F5F5F5F5F5F5F5F5F5F5F5
310
F5F5F5F5F5F5F5F5F5F5F5F5F5F5F5F5F5F5F5F5F5F5F5F5E2E2EFF5F5F5F5F5F5F5F5F5F5F5F5F5F5F5F5F5F5F5F5F5F5F5F5F5F5F5F5F5F5F5F5F5F5F5F5F5F5F5F5F5F5F5F5F5F5F5F5F5F5F5F5F5F5F5F5F5F5F5F5F5F5F5F5F5F5F5F5F5F5F5F5F5F5F5F5F5F5F5F5F5F5F5F5F5F5F5F5F5F5F5F5F5F5F5F5F5F5F5F5
310
F5F5F5F5F5F5F5F5F5F5F5F5F5F5F5F5F5F5F5F5F5F5F5F5F5F5F5F5F5F5F5F5F5F5F5F5F5F5F5F5F5F5F5F5F5F5F5F5F5F5F5F5F5F5F5F5F5F5F5F5F5F5F5F5F5F5F5F5F5F5F5F5F5F5F5F5F5E2E2EFF5F5F5F5F5F5F5F5F5F5F5F5F5F5F5F5F5F5F5F5F5F5F5F5F5F5F5F5F5F5F5F5F5F5F5F5F5F5F5F5F5F5F5F5F5F5F5
310
F5F5F5F5F5F5F5F5F5F5F5F5F5F5F5F5F5F5F5F5F5F5F5F5F5F5F5F5F5F5F5F5F5F5F5F5F5F5F5F5F5F5F5F5F5F5F5F5F5F5F5F5F5F5F5F5F5F5F5F5F5F5F5F5F5F5F5F5F5F5F5F5F5F5F5F5F5F5F5F5F5F5F5F5F5F5F5F5F5F5F5F5F5F5F5F5F5F5F5F5F5F5F5F5F5F5F5F5F5F5F5F5F5F5F5F5F5F5F5F5F5F5F5F5F5F5F5
310
F5F5F5E2E2EFF5F5F5E2E2E2E2E2E2E2E2F5F5F5F5F5F5F5F5F5E2E2E2E2E2E2E2E2E2E2E2E2E2E2E2E2F5F5F5F5F5F5F5F5E2E2E2E2E2E2E2E2E2E2E2E2E2E2E2E2F5F5F5F5F5F5F5F5F5E2E2E2E2E2E2E2E2E2E2E2E2E2E2E2F5F5F5F5F5F5F5F5F5E2E2E2E2E2E2E2E2E2E2E2E2E2E2E2F5F5F5F5F5F5F5F5F5E2E2E2E2
310
E2E2E2E2E2E2E2E2E2E2E2E2F5F5F5F5F5F5F5F5E2E2E2E2E2E2E2E2E2E2E2E2E2E2E2E2F5F5F5F5F5F5F5F5F5E2E2E2E2E2E2E2E2F5F5F5E2E2EFF5F5F5E2F5F5F5F5F5F5F5F5F5F5F5F5F5F5F5F5F5F5F5F5F5F5F5F5F5F5F5F5F5F5F5F5F5F5F5F5F5F5F5F5F5F5F5F5F5F5F5F5F5F5F5F5F5F5F5F5F5F5F5F5F5F5F5F5
310
F5F5F5F5F5F5F5F5F5F5F5F5F5F5F5F5F5F5F5F5F5F5F5F5F5F5F5F5F5F5F5F5F5F5F5F5F5F5F5F5F5F5F5F5F5F5F5F5F5F5F5F5F5F5F5F5F5F5F5F5F5F5F5F5F5F5F5F5F5F5F5F5F5F5F5F5F5F5F5F5F5F5F5F5F5F5F5F5F5F5F5F5F5F5F5F5F5F5F5F5F5F5F5F5F5E2F5F5F5E2E2EFF5F5F5E2F5F5F5F5F5F5F5F5F5F5F5
310
F5F5F5F5F5F5F5F5F5F5F5F5F5F5F5F5F5F5F5F5F5F5F5F5F5F5F5F5F5F5F5F5F5F5F5F5F5F5F5F5F5F5F5F5F5F5F5F5F5F5F5F5F5F5F5F5F5F5F5F5F5F5F5F5F5F5F5F5F5F5F5F5F5F5F5F5F5F5F5F5F5F5F5F5F5F5F5F5F5F5F5F5F5F5F5F5F5F5F5F5F5F5F5F5F5F5F5F5F5F5F5F5F5F5F5F5F5F5F5F5F5F5F5F5F5F5F5
310
F5F5F5F5F5F5F5F5F5F5F5F5F5F5F5F5F5F5F5F5F5F5F5F5F5F5F5F5F5F5F5E2F5F5F5E2E2EFF5F5F5E2F5F5F5F5F5F5F5F5F5F5F5F5F5F5F5F5F5F5F5F5F5F5F5F5F5F5F5F5F5F5F5F5F5F5F5F5F5F5F5F5F5F5F5F5F5F5F5F5F5F5F5F5F5F5F5F5F5F5F5F5F5F5F5F5F5F5F5F5F5F5F5F5F5F5F5F5F5F5F5F5F5F5F5F5F5
310
F5F5F5F5F5F5F5F5F5F5F5F5F5F5F5F5F5F5F5F5F5F5F5F5F5F5F5F5F5F5F5F5F5F5F5F5F5F5F5F5F5F5F5F5F5F5F5F5F5F5F5F5F5F5F5F5F5F5F5F5F5F5F5F5F5F5F5F5F5F5F5F5F5F5F5F5F5F5F5F5F5F5F5F5E2F5F5F5E2E2EFF5F5F5E2F5F5F5F5F5F5F5F5F5F5F5F5F5F5F5F5F5F5F5F5F5F5F5F5F5F5F5F5F5F5F5F5
310
F5F5F5F5F5F5F5F5F5F5F5F5F5F5F5F5F5F5F5F5F5F5F5F5F5F5F5F5F5F5F5F5F5F5F5F5F5F5F5F5F5F5F5F5F5F5F5F5F5F5F5F5F5F5F5F5F5F5F5F5F5F5F5F5F5F5F5F5F5F5F5F5F5F5F5F5F5F5F5F5F5F5F5F5F5F5F5F5F5F5F5F5F5F5F5F5F5F5F5F5F5F5F5F5F5F5F5F5F5F5F5F5F5F5F5F5F5F5F5F5F5F5F5F5F5F5F5
310
F5F5F5F5F5F5F5F5F5F5E2F5F5F5E2E2EFF5F5F5E2F5F5F5F5F5F5F5F5F5F5F5F5F5F5F5F5F5F5F5F5F5F5F5F5F5F5F5F5F5F5F5F5F5F5F5F5F5F5F5F5F5F5F5F5F5F5F5F5F5F5F5F5F5F5F5F5F5F5F5F5F5F5F5F5F5F5F5F5F5F5F5F5F5F5F5F5F5F5F5F5F5F5F5F5F5F5F5F5F5F5F5F5F5F5F5F5F5F5F5F5F5F5F5F5F5F5
310
F5F5F5F5F5F5F5F5F5F5F5F5F5F5F5F5F5F5F5F5F5F5F5F5F5F5F5F5F5F5F5F5F5F5F5F5F5F5F5F5F5F5F5F5F5F5F5F5F5F5F5F5F5F5F5F5F5F5F5F5F5F5F5E2F5F5F5E2E2EFF5F5F5E2F5F5F5F5F5F5F5F5F5F5F5F5F5F5F5F5F5F5F5F5F5F5F5F5F5F5F5F5F5F5F5F5F5F5F5F5F5F5F5F5F5F5F5F5F5F5F5F5F5F5F5F5F5
310
F5F5F5F5F5F5F5F5F5F5F5F5F5F5F5F5F5F5F5F5F5F5F5F5F5F5F5F5F5F5F5F5F5F5F5F5F5F5F5F5F5F5F5F5F5F5F5F5F5F5F5F5F5F5F5F5F5F5F5F5F5F5F5F5F5F5F5F5F5F5F5F5F5F5F5F5F5F5F5F5F5F5F5F5F5F5F5F5F5F5F5F5F5F5F5F5F5F5F5F5F5F5F5F5F5F5F5F5F5F5F5F5F5F5F5F5E2F5F5F5E2E2EFF5F5F5E2
310
F5F5F5F5F5F5F5F5F5F5F5F5F5F5F5F5F5F5F5F5F5F5F5F5F5F5F5F5F5F5F5F5F5F5F5F5F5F5F5F5F5F5F5F5F5F5F5F5F5F5F5F5F5F5F5F5F5F5F5F5F5F5F5F5F5F5F5F5F5F5F5F5F5F5F5F5F5F5F5F5F5F5F5F5F5F5F5F5F5F5F5F5F5F5F5F5F5F5F5F5F5F5F5F5F5F5F5F5F5F5F5F5F5F5F5F5F5F5F5F5F5F5F5F5F5F5F5
310
F5F5F5F5F5F5F5F5F5F5F5F5F5F5F5F5F5F5F5F5F5F5F5F5F5F5F5F5F5F5F5F5F5F5F5F5F5F5F5F5F5F5E2F5F5F5E2E2EFF5F5F5E2F5F5F5F5F5F5F5F5F5F5F5F5F5F5F5F5F5F5F5F5F5F5F5F5F5F5F5F5F5F5F5F5F5F5F5F5F5F5F5F5F5F5F5F5F5F5F5F5F5F5F5F5F5F5F5F5F5F5F5F5F5F5F5F5F5F5F5F5F5F5F5F5F5F5
310
F5F5F5F5F5F5F5F5F5F5F5F5F5F5F5F5F5F5F5F5F5F5F5F5F5F5F5F5F5F5F5F5F5F5F5F5F5F5F5F5F5F5F5F5F5F5F5F5F5F5F5F5F5F5F5F5F5F5F5F5F5F5F5F5F5F5F5F5F5F5F5F5F5F5F5F5F5F5F5F5F5F5F5F5F5F5F5F5F5F5F5F5F5F5F5E2F5F5F5E2E2EFF5F5F5F5F5F5F5F5F5F5F5F5F5F5F5F5F5F5F5F5F5F5F5F5F5
310
F5F5F5F5F5F5F5F5F5F5F5F5F5F5F5F5F5F5F5F5F5F5F5F5F5F5F5F5F5F5F5F5F5F5F5F5F5F5F5F5F5F5F5F5F5F5F5F5F5F5F5F5F5F5F5F5F5F5F5F5F5F5F5F5F5F5F5F5F5F5F5F5F5F5F5F5F5F5F5F5F5F5F5F5F5F5F5F5F5F5F5F5F5F5F5F5F5F5F5F5F5F5F5F5F5F5F5F5F5F5F5F5F5F5F5F5F5F5F5F5F5F5F5F5F5F5F5
310
F5F5F5F5F5F5F5F5F5F5F5F5F5F5F5F5F5F5F5F5F5F5F5F5F5E2E2EFF5F5F5F5F5F5F5F5F5F5F5F5F5F5F5F5F5F5F5F5F5F5F5F5F5F5F5F5F5F5F5F5F5F5F5F5F5F5F5F5F5F5F5F5F5F5F5F5F5F5F5F5F5F5F5F5F5F5F5F5F5F5F5F5F5F5F5F5F5F5F5F5F5F5F5F5F5F5F5F5F5F5F5F5F5F5F5F5F5F5F5F5F5F5F5F5F5F5F5
310
F5F5F5F5F5F5F5F5F5F5F5F5F5F5F5F5F5F5F5F5F5F5F5F5F5F5F5F5F5F5F5F5F5F5F5F5F5F5F5F5F5F5F5F5F5F5F5F5F5F5F5F5F5F5F5F5F5F5F5F5F5F5F5F5F5F5F5F5F5F5F5F5F5F5F5F5F5F5E2E2EFF5F5F5F5F5F5F5F5F5F5F5F5F5F5F5F5F5F5F5F5F5F5F5F5F5F5F5F5F5F5F5F5F5F5F5F5F5F5F5F5F5F5F5F5F5F5
310
F5F5F5F5F5F5F5F5F5F5F5F5F5F5F5F5F5F5F5F5F5F5F5F5F5F5F5F5F5F5F5F5F5F5F5F5F5F5F5F5F5F5F5F5F5F5F5F5F5F5F5F5F5F5F5F5F5F5F5F5F5F5F5F5F5F5F5F5F5F5F5F5F5F5F5F5F5F5F5F5F5F5F5F5F5F5F5F5F5F5F5F5F5F5F5F5F5F5F5F5F5F5F5F5F5F5F5F5F5F5F5F5F5F5F5F5F5F5F5F5F5F5F5F5F5F5F5
310
F5F5F5F5E2E2EFF5F5F5F5F5F5F5F5F5F5F5F5F5F5F5F5F5F5F5F5F5F5F5F5F5F5F5F5F5F5F5F5F5F5F5F5F5F5F5F5F5F5F5F5F5F5F5F5F5F5F5F5F5F5F5F5F5F5F5F5F5F5F5F5F5F5F5F5F5F5F5F5F5F5F5F5F5F5F5F5F5F5F5F5F5F5F5F5F5F5F5F5F5F5F5F5F5F5F5F5F5F5F5F5F5F5F5F5F5F5F5F5F5F5F5F5F5F5F5F5
310
F5F5F5F5F5F5F5F5F5F5F5F5F5F5F5F5F5F5F5F5F5F5F5F5F5F5F5F5F5F5F5F5F5F5F5F5F5F5F5F5F5F5F5F5F5F5F5F5F5F5F5F5F5F5F5F5F5E2E2EFF5F5F5F5F5F5F5F5F5F5F5F5F5F5F5F5F5F5F5F5E2E2E2E2E2E2E2E2E2E2E2E2E2E2E2E2E2E2E2E2E2E2E2E2E2E2E2E2E2E2E2E2E2E2E2E2E2E2E2E2E2E2E2E2E2E2E2
310
E2E2E2E2E2E2E2E2E2E2E2E2E2E2E2E2E2E2E2E2E2E2E2E2E2E2E2E2E2E2E2E2E2E2E2E2E2E2E2E2E2E2E2E2E2E2E2E2E2E2E2E2E2E2E2E2E2E2E2E2E2E2E2E2E2E2E2E2E2E2E2E2E2E2E2E2E2E2E2E2E2E2E2E2E2E2E2E2E2E2F5F5F5F5F5F5F5F5F5F5F5F5F5F5F5F5F5F5F5F5E2E2EFF5F5F5F5F5F5F5F5F5F5F5F5F5F5
310
F5F5F5F5F5F5E2F5F5F5F5F5F5F5F5F5F5F5F5F5F5F5F5F5F5F5F5F5F5F5F5F5F5F5F5F5F5F5F5F5F5F5F5F5F5F5F5F5F5F5F5F5F5F5F5F5F5F5F5F5F5F5F5F5F5F5F5F5F5F5F5F5F5F5F5F5F5F5F5F5F5F5F5F5F5F5F5F5F5F5F5F5F5F5F5F5F5F5F5F5F5F5F5F5F5F5F5F5F5F5F5F5F5F5F5F5F5F5F5F5F5F5F5F5F5F5F5
310
F5F5F5F5F5F5F5F5F5F5F5F5F5F5F5E2F5F5F5F5F5F5F5F5F5F5F5F5F5F5F5F5F5F5F5F5E2E2EFF5F5F5F5F5F5F5F5F5F5F5F5F5F5F5F5F5F5F5F5E2F5F5F5F5F5F5F5F5F5F5F5F5F5F5F5F5F5F5F5F5F5F5F5F5F5F5F5F5F5F5F5F5F5F5F5F5F5F5F5F5F5F5F5F5F5F5F5F5F5F5F5F5F5F5F5F5F5F5F5F5F5F5F5F5F5F5F5
310
F5F5F5F5F5F5F5F5F5F5F5F5F5F5F5F5F5F5F5F5F5F5F5F5F5F5F5F5F5F5F5F5F5F5F5F5F5F5F5F5F5F5F5F5F5F5F5F5F5F5F5F5F5F5F5F5F5F5F5F5F5F5F5F5F5F5F5F5E2F5F5F5F5F5F5F5F5F5F5F5F5F5F5F5F5F5F5F5F5E2E2EFF5F5F5F5F5F5F5F5F5F5F5F5F5F5F5F5F5F5F5F5E2F5F5F5F5F5F5F5F5F5F5F5F5F5F5
310
F5F5F5F5F5F5F5F5F5F5F5F5F5F5F5F5F5F5F5F5F5F5F5F5F5F5F5F5F5F5F5F5F5F5F5F5F5F5F5F5F5F5F5F5F5F5F5F5F5F5F5F5F5F5F5F5F5F5F5F5F5F5F5F5F5F5F5F5F5F5F5F5F5F5F5F5F5F5F5F5F5F5F5F5F5F5F5F5F5F5F5F5F5F5F5F5F5F5F5F5F5F5F5F5F5F5F5F5F5F5F5F5F5F5F5F5F5F5F5F5F5E2F5F5F5F5F5
310
F5F5F5F5F5F5F5F5F5F5F5F5F5F5F5E2E2EFF5F5F5F5F5F5F5F5F5F5F5F5F5F5F5F5F5F5F5F5E2F5F5F5F5F5F5F5F5F5F5F5F5F5F5F5F5F5F5F5F5F5F5F5F5F5F5F5F5F5F5F5F5F5F5F5F5F5F5F5F5F5F5F5F5F5F5F5F5F5F5F5F5F5F5F5F5F5F5F5F5F5F5F5F5F5F5F5F5F5F5F5F5F5F5F5F5F5F5F5F5F5F5F5F5F5F5F5F5
310
F5F5F5F5F5F5F5F5F5F5F5F5F5F5F5F5F5F5F5F5F5F5F5F5F5F5F5F5F5F5F5F5F5F5F5F5F5F5F5F5F5F5F5F5F5F5F5E2F5F5F5F5F5F5F5F5F5F5F5F5F5F5F5F5F5F5F5F5E2E2EFF5F5F5E2F5F5F5F5F5F5F5F5F5F5F5F5F5F5F5F5E2F5F5F5F5F5F5F5F5F5F5F5F5F5F5F5F5F5F5F5F5F5F5F5F5F5F5F5F5F5F5F5F5F5F5F5
310
F5F5F5F5F5F5F5F5F5F5F5F5F5F5F5F5F5F5F5F5F5F5F5F5F5F5F5F5F5F5F5F5F5F5F5F5F5F5F5F5F5F5F5F5F5F5F5F5F5F5F5F5F5F5F5F5F5F5F5F5F5F5F5F5F5F5F5F5F5F5F5F5F5F5F5F5F5F5F5F5F5F5F5F5F5F5F5F5F5F5F5F5F5F5F5F5F5F5F5F5E2F5F5F5F5F5F5F5F5F5F5F5F5F5F5F5F5E2F5F5F5E2E2EFF5F5F5
310
E2F5F5F5F5F5F5F5F5F5F5F5F5F5F5F5F5E2F5F5F5F5F5F5F5F5F5F5F5F5F5F5F5F5F5F5F5F5F5F5F5F5F5F5F5F5F5F5F5F5F5F5F5F5F5F5F5F5F5F5F5F5F5F5F5F5F5F5F5F5F5F5F5F5F5F5F5F5F5F5F5F5F5F5F5F5F5F5F5F5F5F5F5F5F5F5F5F5F5F5F5F5F5F5F5F5F5F5F5F5F5F5F5F5F5F5F5F5F5F5F5F5F5F5F5F5F5
310
F5F5F5F5F5F5F5F5F5F5F5F5F5F5F5F5F5F5F5F5F5F5F5F5F5F5E2F5F5F5F5F5F5F5F5F5F5F5F5F5F5F5F5E2F5F5F5E2E2EFF5F5F5E2F5F5F5F5F5F5F5F5F5F5F5F5F5F5F5F5E2F5F5F5F5F5F5F5F5F5F5F5F5F5F5F5F5F5F5F5F5F5F5F5F5F5F5F5F5F5F5F5F5F5F5F5F5F5F5F5F5F5F5F5F5F5F5F5F5F5F5F5F5F5F5F5F5
310
F5F5F5F5F5F5F5F5F5F5F5F5F5F5F5F5F5F5F5F5F5F5F5F5F5F5F5F5F5F5F5F5F5F5F5F5F5F5F5F5F5F5F5F5F5F5F5F5F5F5F5F5F5F5F5F5F5F5F5F5F5F5F5F5F5F5F5F5F5F5F5F5F5F5F5F5F5F5F5E2F5F5F5F5F5F5F5F5F5F5F5F5F5F5F5F5E2F5F5F5E2E2EFF5F5F5E2F5F5F5F5F5F5F5F5F5F5F5F5F5F5F5F5E2F5F5F5
310
F5F5F5F5F5F5F5F5F5F5F5F5F5F5F5F5F5F5F5F5F5F5F5F5F5F5F5F5F5F5F5F5F5F5F5F5F5F5F5F5F5F5F5F5F5F5F5F5F5F5F5F5F5F5F5F5F5F5F5F5F5F5F5F5F5F5F5F5F5F5F5F5F5F5F5F5F5F5F5F5F5F5F5F5F5F5F5F5F5F5F5F5F5F5F5F5F5F5F5F5F5F5F5F5F5F5F5F5F5F5F5F5F5F5F5F5F5F5F5F5F5F5F5F5F5F5F5
310
F5F5F5F5F5E2F5F5F5F5F5F5F5F5F5F5F5F5F5F5F5F5E2F5F5F5E2E2EFF5F5F5E2F5F5F5F5F5F5F5F5F5F5F5F5F5F5F5F5E2F5F5F5F5F5F5F5F5F5F5F5F5F5F5F5F5F5F5F5F5F5F5F5F5F5F5F5F5F5F5F5F5F5F5F5F5F5F5F5F5F5F5F5F5F5F5F5F5F5F5F5F5F5F5F5F5F5F5F5F5F5F5F5F5F5F5F5F5F5F5F5F5F5F5F5F5F5
310
F5F5F5F5F5F5F5F5F5F5F5F5F5F5F5F5F5F5F5F5F5F5F5F5F5F5F5F5F5F5F5F5F5F5F5F5F5F5F5F5F5F5F5F5F5F5F5F5F5F5F5F5F5F5F5F5F5F5E2F5F5F5F5F5F5F5F5F5F5F5F5F5F5F5F5E2F5F5F5E2E2EFF5F5F5E2F5F5F5F5F5F5F5F5F5F5F5F5F5F5F5F5E2F5F5F5F5F5F5F5F5F5F5F5F5F5F5F5F5F5F5F5F5F5F5F5F5
310
F5F5F5F5F5F5F5F5F5F5F5F5F5F5F5F5F5F5F5F5F5F5F5F5F5F5F5F5F5F5F5F5F5F5F5F5F5F5F5F5F5F5F5F5F5F5F5F5F5F5F5F5F5F5F5F5F5F5F5F5F5F5F5F5F5F5F5F5F5F5F5F5F5F5F5F5F5F5F5F5F5F5F5F5F5F5F5F5F5F5F5F5F5F5F5F5F5F5F5F5F5F5F5F5F5F5F5F5F5F5F5E2F5F5F5F5F5F5F5F5F5F5F5F5F5F5F5
310
F5E2F5F5F5E2E2EFF5F5F5E2F5F5F5F5F5F5F5F5F5F5F5F5F5F5F5F5E2F5F5F5F5F5F5F5F5F5F5F5F5F5F5F5F5F5F5F5F5F5F5F5F5F5F5F5F5F5F5F5F5F5F5F5F5F5F5F5F5F5F5F5F5F5F5F5F5F5F5F5F5F5F5F5F5F5F5F5F5F5F5F5F5F5F5F5F5F5F5F5F5F5F5F5F5F5F5F5F5F5F5F5F5F5F5F5F5F5F5F5F5F5F5F5F5F5F5
310
F5F5F5F5F5F5F5F5F5F5F5F5F5F5F5F5F5F5F5F5F5F5F5F5F5F5F5F5F5F5F5F5F5F5F5F5F5E2F5F5F5F5F5F5F5F5F5F5F5F5F5F5F5F5E2F5F5F5E2E2EFF5F5F5E2F5F5F5F5F5F5F5F5F5F5F5F5F5F5F5F5E2F5F5F5F5F5F5F5F5F5F5F5F5F5F5F5F5F5F5F5F5F5F5F5F5F5F5F5F5F5F5F5F5F5F5F5F5F5F5F5F5F5F5F5F5F5
310
F5F5F5F5F5F5F5F5F5F5F5F5F5F5F5F5F5F5F5F5F5F5F5F5F5F5F5F5F5F5F5F5F5F5F5F5F5F5F5F5F5F5F5F5F5F5F5F5F5F5F5F5F5F5F5F5F5F5F5F5F5F5F5F5F5F5F5F5F5F5F5F5F5F5F5F5F5F5F5F5F5F5F5F5F5F5F5F5F5F5E2F5F5F5F5F5F5F5F5F5F5F5F5F5F5F5F5E2F5F5F5E2E2EFF5F5F5E2F5F5F5F5F5F5F5F5F5
310
F5F5F5F5F5F5F5E2F5F5F5F5F5F5F5F5F5F5F5F5F5F5F5F5F5F5F5F5F5F5F5F5F5F5F5F5F5F5F5F5F5F5F5F5F5F5F5F5F5F5F5F5F5F5F5F5F5F5F5F5F5F5F5F5F5F5F5F5F5F5F5F5F5F5F5F5F5F5F5F5F5F5F5F5F5F5F5F5F5F5F5F5F5F5F5F5F5F5F5F5F5F5F5F5F5F5F5F5F5F5F5F5F5F5F5F5F5F5F5F5F5F5F5F5F5F5F5
310
F5F5F5F5F5F5F5F5F5F5F5F5F5F5F5F5E2F5F5F5F5F5F5F5F5F5F5F5F5F5F5F5F5E2F5F5F5E2E2EFF5F5F5E2F5F5F5F5F5F5F5F5F5F5F5F5F5F5F5F5E2F5F5F5F5F5F5F5F5F5F5F5F5F5F5F5F5F5F5F5F5F5F5F5F5F5F5F5F5F5F5F5F5F5F5F5F5F5F5F5F5F5F5F5F5F5F5F5F5F5F5F5F5F5F5F5F5F5F5F5F5F5F5F5F5F5F5
310
F5F5F5F5F5F5F5F5F5F5F5F5F5F5F5F5F5F5F5F5F5F5F5F5F5F5F5F5F5F5F5F5F5F5F5F5F5F5F5F5F5F5F5F5F5F5F5F5F5F5F5F5F5F5F5F5F5F5F5F5F5F5F5F5F5F5F5F5F5E2F5F5F5F5F5F5F5F5F5F5F5F5F5F5F5F5E2F5F5F5E2E2EFF5F5F5E2F5F5F5F5F5F5F5F5F5F5F5F5F5F5F5F5E2F5F5F5F5F5F5F5F5F5F5F5F5F5
310
F5F5F5F5F5F5F5F5F5F5F5F5F5F5F5F5F5F5F5F5F5F5F5F5F5F5F5F5F5F5F5F5F5F5F5F5F5F5F5F5F5F5F5F5F5F5F5F5F5F5F5F5F5F5F5F5F5F5F5F5F5F5F5F5F5F5F5F5F5F5F5F5F5F5F5F5F5F5F5F5F5F5F5F5F5F5F5F5F5F5F5F5F5F5F5F5F5F5F5F5F5F5F5F5F5F5F5F5F5F5F5F5F5F5F5F5F5F5F5F5F5F5E2F5F5F5F5
310
F5F5F5F5F5F5F5F5F5F5F5F5E2F5F5F5E2E2EFF5F5F5E2F5F5F5F5F5F5F5F5F5F5F5F5F5F5F5F5E2F5F5F5F5F5F5F5F5F5F5F5F5F5F5F5F5F5F5F5F5F5F5F5F5F5F5F5F5F5F5F5F5F5F5F5F5F5F5F5F5F5F5F5F5F5F5F5F5F5F5F5F5F5F5F5F5F5F5F5F5F5F5F5F5F5F5F5F5F5F5F5F5F5F5F5F5F5F5F5F5F5F5F5F5F5F5F5
310
F5F5F5F5F5F5F5F5F5F5F5F5F5F5F5F5F5F5F5F5F5F5F5F5F5F5F5F5F5F5F5F5F5F5F5F5F5F5F5F5F5F5F5F5F5F5F5F5E2F5F5F5F5F5F5F5F5F5F5F5F5F5F5F5F5E2F5F5F5E2E2EFF5F5F5E2F5F5F5F5F5F5F5F5F5F5F5F5F5F5F5F5E2F5F5F5F5F5F5F5F5F5F5F5F5F5F5F5F5F5F5F5F5F5F5F5F5F5F5F5F5F5F5F5F5F5F5
310
F5F5F5F5F5F5F5F5F5F5F5F5F5F5F5F5F5F5F5F5F5F5F5F5F5F5F5F5F5F5F5F5F5F5F5F5F5F5F5F5F5F5F5F5F5F5F5F5F5F5F5F5F5F5F5F5F5F5F5F5F5F5F5F5F5F5F5F5F5F5F5F5F5F5F5F5F5F5F5F5F5F5F5F5F5F5F5F5F5F5F5F5F5F5F5F5F5F5F5F5F5E2F5F5F5F5F5F5F5F5F5F5F5F5F5F5F5F5E2F5F5F5E2E2EFF5F5
310
F5E2F5F5F5F5F5F5F5F5F5F5F5F5F5F5F5F5E2F5F5F5F5F5F5F5F5F5F5F5F5F5F5F5F5F5F5F5F5F5F5F5F5F5F5F5F5F5F5F5F5F5F5F5F5F5F5F5F5F5F5F5F5F5F5F5F5F5F5F5F5F5F5F5F5F5F5F5F5F5F5F5F5F5F5F5F5F5F5F5F5F5F5F5F5F5F5F5F5F5F5F5F5F5F5F5F5F5F5F5F5F5F5F5F5F5F5F5F5F5F5F5F5F5F5F5F5
310
F5F5F5F5F5F5F5F5F5F5F5F5F5F5F5F5F5F5F5F5F5F5F5F5F5F5F5E2F5F5F5F5F5F5F5F5F5F5F5F5F5F5F5F5E2F5F5F5E2E2EFF5F5F5E2F5F5F5F5F5F5F5F5F5F5F5F5F5F5F5F5E2F5F5F5F5F5F5F5F5F5F5F5F5F5F5F5F5F5F5F5F5F5F5F5F5F5F5F5F5F5F5F5F5F5F5F5F5F5F5F5F5F5F5F5F5F5F5F5F5F5F5F5F5F5F5F5
310
F5F5F5F5F5F5F5F5F5F5F5F5F5F5F5F5F5F5F5F5F5F5F5F5F5F5F5F5F5F5F5F5F5F5F5F5F5F5F5F5F5F5F5F5F5F5F5F5F5F5F5F5F5F5F5F5F5F5F5F5F5F5F5F5F5F5F5F5F5F5F5F5F5F5F5F5F5F5F5F5E2F5F5F5F5F5F5F5F5F5F5F5F5F5F5F5F5E2F5F5F5E2E2EFF5F5F5E2F5F5F5F5F5F5F5F5F5F5F5F5F5F5F5F5E2F5F5
310
F5F5F5F5F5F5F5F5F5F5F5F5F5F5F5F5F5F5F5F5F5F5F5F5F5F5F5F5F5F5F5F5F5F5F5F5F5F5F5F5F5F5F5F5F5F5F5F5F5F5F5F5F5F5F5F5F5F5F5F5F5F5F5F5F5F5F5F5F5F5F5F5F5F5F5F5F5F5F5F5F5F5F5F5F5F5F5F5F5F5F5F5F5F5F5F5F5F5F5F5F5F5F5F5F5F5F5F5F5F5F5F5F5F5F5F5F5F5F5F5F5F5F5F5F5F5F5
310
F5F5F5F5F5F5E2F5F5F5F5F5F5F5F5F5F5F5F5F5F5F5F5E2F5F5F5E2E2EFF5F5F5E2F5F5F5F5F5F5F5F5F5F5F5F5F5F5F5F5E2F5F5F5F5F5F5F5F5F5F5F5F5F5F5F5F5F5F5F5F5F5F5F5F5F5F5F5F5F5F5F5F5F5F5F5F5F5F5F5F5F5F5F5F5F5F5F5F5F5F5F5F5F5F5F5F5F5F5F5F5F5F5F5F5F5F5F5F5F5F5F5F5F5F5F5F5
310
F5F5F5F5F5F5F5F5F5F5F5F5F5F5F5F5F5F5F5F5F5F5F5F5F5F5F5F5F5F5F5F5F5F5F5F5F5F5F5F5F5F5F5F5F5F5F5F5F5F5F5F5F5F5F5F5F5F5F5E2F5F5F5F5F5F5F5F5F5F5F5F5F5F5F5F5E2F5F5F5E2E2EFF5F5F5F5F5F5F5F5F5F5F5F5F5F5F5F5F5F5F5F5E2F5F5F5F5F5F5F5F5F5F5F5F5F5F5F5F5F5F5F5F5F5F5F5
310
F5F5F5F5F5F5F5F5F5F5F5F5F5F5F5F5F5F5F5F5F5F5F5F5F5F5F5F5F5F5F5F5F5F5F5F5F5F5F5F5F5F5F5F5F5F5F5F5F5F5F5F5F5F5F5F5F5F5F5F5F5F5F5F5F5F5F5F5F5F5F5F5F5F5F5F5F5F5F5F5F5F5F5F5F5F5F5F5F5F5F5F5F5F5F5F5F5F5F5F5F5F5F5F5F5F5F5F5F5F5F5F5E2F5F5F5F5F5F5F5F5F5F5F5F5F5F5
310
F5F5F5F5F5F5E2E2EFF5F5F5F5F5F5F5F5F5F5F5F5F5F5F5F5F5F5F5F5E2F5F5F5F5F5F5F5F5F5F5F5F5F5F5F5F5F5F5F5F5F5F5F5F5F5F5F5F5F5F5F5F5F5F5F5F5F5F5F5F5F5F5F5F5F5F5F5F5F5F5F5F5F5F5F5F5F5F5F5F5F5F5F5F5F5F5F5F5F5F5F5F5F5F5F5F5F5F5F5F5F5F5F5F5F5F5F5F5F5F5F5F5F5F5F5F5F5
310
F5F5F5F5F5F5F5F5F5F5F5F5F5F5F5F5F5F5F5F5F5F5F5F5F5F5F5F5F5F5F5F5F5F5F5F5F5F5E2F5F5F5F5F5F5F5F5F5F5F5F5F5F5F5F5F5F5F5F5E2E2EFF5F5F5F5F5F5F5F5F5F5F5F5F5F5F5F5F5F5F5F5E2F5F5F5F5F5F5F5F5F5F5F5F5F5F5F5F5F5F5F5F5F5F5F5F5F5F5F5F5F5F5F5F5F5F5F5F5F5F5F5F5F5F5F5F5
310
F5F5F5F5F5F5F5F5F5F5F5F5F5F5F5F5F5F5F5F5F5F5F5F5F5F5F5F5F5F5F5F5F5F5F5F5F5F5F5F5F5F5F5F5F5F5F5F5F5F5F5F5F5F5F5F5F5F5F5F5F5F5F5F5F5F5F5F5F5F5F5F5F5F5F5F5F5F5F5F5F5F5F5F5F5F5F5F5F5F5F5E2F5F5F5F5F5F5F5F5F5F5F5F5F5F5F5F5F5F5F5F5E2E2EFF5F5F5F5F5F5F5F5F5F5F5F5
310
F5F5F5F5F5F5F5F5E2F5F5F5F5F5F5F5F5F5F5F5F5F5F5F5F5F5F5F5F5F5F5F5F5F5F5F5F5F5F5F5F5F5F5F5F5F5F5F5F5F5F5F5F5F5F5F5F5F5F5F5F5F5F5F5F5F5F5F5F5F5F5F5F5F5F5F5F5F5F5F5F5F5F5F5F5F5F5F5F5F5F5F5F5F5F5F5F5F5F5F5F5F5F5F5F5F5F5F5F5F5F5F5F5F5F5F5F5F5F5F5F5F5F5F5F5F5F5
310
F5F5F5F5F5F5F5F5F5F5F5F5F5F5F5F5F5E2F5F5F5F5F5F5F5F5F5F5F5F5F5F5F5F5F5F5F5F5E2E2EFF5F5F5F5F5F5F5F5F5F5F5F5F5F5F5F5F5F5F5F5E2F5F5F5F5F5F5F5F5F5F5F5F5F5F5F5F5F5F5F5F5F5F5F5F5F5F5F5F5F5F5F5F5F5F5F5F5F5F5F5F5F5F5F5F5F5F5F5F5F5F5F5F5F5F5F5F5F5F5F5F5F5F5F5F5F5
310
F5F5F5F5F5F5F5F5F5F5F5F5F5F5F5F5F5F5F5F5F5F5F5F5F5F5F5F5F5F5F5F5F5F5F5F5F5F5F5F5F5F5F5F5F5F5F5F5F5F5F5F5F5F5F5F5F5F5F5F5F5F5F5F5F5F5F5F5F5F5E2F5F5F5F5F5F5F5F5F5F5F5F5F5F5F5F5F5F5F5F5E2E2EFF5F5F5F5F5F5F5F5F5F5F5F5F5F5F5F5F5F5F5F5E2F5F5F5F5F5F5F5F5F5F5F5F5
310
F5F5F5F5F5F5F5F5F5F5F5F5F5F5F5F5F5F5F5F5F5F5F5F5F5F5F5F5F5F5F5F5F5F5F5F5F5F5F5F5F5F5F5F5F5F5F5F5F5F5F5F5F5F5F5F5F5F5F5F5F5F5F5F5F5F5F5F5F5F5F5F5F5F5F5F5F5F5F5F5F5F5F5F5F5F5F5F5F5F5F5F5F5F5F5F5F5F5F5F5F5F5F5F5F5F5F5F5F5F5F5F5F5F5F5F5F5F5F5F5F5F5F5E2F5F5F5
310
F5F5F5F5F5F5F5F5F5F5F5F5F5F5F5F5F5E2E2EFF5F5F5F5F5F5F5F5F5F5F5F5F5F5F5F5F5F5F5F5E2F5F5F5F5F5F5F5F5F5F5F5F5F5F5F5F5F5F5F5F5F5F5F5F5F5F5F5F5F5F5F5F5F5F5F5F5F5F5F5F5F5F5F5F5F5F5F5F5F5F5F5F5F5F5F5F5F5F5F5F5F5F5F5F5F5F5F5F5F5F5F5F5F5F5F5F5F5F5F5F5F5F5F5F5F5F5
310
F5F5F5F5F5F5F5F5F5F5F5F5F5F5F5F5F5F5F5F5F5F5F5F5F5F5F5F5F5F5F5F5F5F5F5F5F5F5F5F5F5F5F5F5F5F5F5F5F5E2F5F5F5F5F5F5F5F5F5F5F5F5F5F5F5F5F5F5F5F5E2E2EFF5F5F5F5F5F5F5F5F5F5F5F5F5F5F5F5F5F5F5F5E2F5F5F5F5F5F5F5F5F5F5F5F5F5F5F5F5F5F5F5F5F5F5F5F5F5F5F5F5F5F5F5F5F5
310
F5F5F5F5F5F5F5F5F5F5F5F5F5F5F5F5F5F5F5F5F5F5F5F5F5F5F5F5F5F5F5F5F5F5F5F5F5F5F5F5F5F5F5F5F5F5F5F5F5F5F5F5F5F5F5F5F5F5F5F5F5F5F5F5F5F5F5F5F5F5F5F5F5F5F5F5F5F5F5F5F5F5F5F5F5F5F5F5F5F5F5F5F5F5F5F5F5F5F5F5F5F5E2F5F5F5F5F5F5F5F5F5F5F5F5F5F5F5F5F5F5F5F5E2E2EFF5
310
F5F5F5F5F5F5F5F5F5F5F5F5F5F5F5F5F5F5F5E2F5F5F5F5F5F5F5F5F5F5F5F5F5F5F5F5F5F5F5F5F5F5F5F5F5F5F5F5F5F5F5F5F5F5F5F5F5F5F5F5F5F5F5F5F5F5F5F5F5F5F5F5F5F5F5F5F5F5F5F5F5F5F5F5F5F5F5F5F5F5F5F5F5F5F5F5F5F5F5F5F5F5F5F5F5F5F5F5F5F5F5F5F5F5F5F5F5F5F5F5F5F5F5F5F5F5F5
310
F5F5F5F5F5F5F5F5F5F5F5F5F5F5F5F5F5F5F5F5F5F5F5F5F5F5F5F5E2F5F5F5F5F5F5F5F5F5F5F5F5F5F5F5F5F5F5F5F5E2E2EFF5F5F5E2F5F5F5F5F5F5F5F5F5F5F5F5F5F5F5F5E2F5F5F5F5F5F5F5F5F5F5F5F5F5F5F5F5F5F5F5F5F5F5F5F5F5F5F5F5F5F5F5F5F5F5F5F5F5F5F5F5F5F5F5F5F5F5F5F5F5F5F5F5F5F5
310
F5F5F5F5F5F5F5F5F5F5F5F5F5F5F5F5F5F5F5F5F5F5F5F5F5F5F5F5F5F5F5F5F5F5F5F5F5F5F5F5F5F5F5F5F5F5F5F5F5F5F5F5F5F5F5F5F5F5F5F5F5F5F5F5F5F5F5F5F5F5F5F5F5F5F5F5F5F5F5F5F5E2F5F5F5F5F5F5F5F5F5F5F5F5F5F5F5F5E2F5F5F5E2E2EFF5F5F5E2F5F5F5F5F5F5F5F5F5F5F5F5F5F5F5F5E2F5
310
F5F5F5F5F5F5F5F5F5F5F5F5F5F5F5F5F5F5F5F5F5F5F5F5F5F5F5F5F5F5F5F5F5F5F5F5F5F5F5F5F5F5F5F5F5F5F5F5F5F5F5F5F5F5F5F5F5F5F5F5F5F5F5F5F5F5F5F5F5F5F5F5F5F5F5F5F5F5F5F5F5F5F5F5F5F5F5F5F5F5F5F5F5F5F5F5F5F5F5F5F5F5F5F5F5F5F5F5F5F5F5F5F5F5F5F5F5F5F5F5F5F5F5F5F5F5F5
310
F5F5F5F5F5F5F5E2F5F5F5F5F5F5F5F5F5F5F5F5F5F5F5F5E2F5F5F5E2E2EFF5F5F5E2F5F5F5F5F5F5F5F5F5F5F5F5F5F5F5F5E2F5F5F5F5F5F5F5F5F5F5F5F5F5F5F5F5F5F5F5F5F5F5F5F5F5F5F5F5F5F5F5F5F5F5F5F5F5F5F5F5F5F5F5F5F5F5F5F5F5F5F5F5F5F5F5F5F5F5F5F5F5F5F5F5F5F5F5F5F5F5F5F5F5F5F5
310
F5F5F5F5F5F5F5F5F5F5F5F5F5F5F5F5F5F5F5F5F5F5F5F5F5F5F5F5F5F5F5F5F5F5F5F5F5F5F5F5F5F5F5F5F5F5F5F5F5F5F5F5F5F5F5F5F5F5F5F5E2F5F5F5F5F5F5F5F5F5F5F5F5F5F5F5F5E2F5F5F5E2E2EFF5F5F5E2F5F5F5F5F5F5F5F5F5F5F5F5F5F5F5F5E2F5F5F5F5F5F5F5F5F5F5F5F5F5F5F5F5F5F5F5F5F5F5
310
F5F5F5F5F5F5F5F5F5F5F5F5F5F5F5F5F5F5F5F5F5F5F5F5F5F5F5F5F5F5F5F5F5F5F5F5F5F5F5F5F5F5F5F5F5F5F5F5F5F5F5F5F5F5F5F5F5F5F5F5F5F5F5F5F5F5F5F5F5F5F5F5F5F5F5F5F5F5F5F5F5F5F5F5F5F5F5F5F5F5F5F5F5F5F5F5F5F5F5F5F5F5F5F5F5F5F5F5F5F5F5F5F5E2F5F5F5F5F5F5F5F5F5F5F5F5F5
310
F5F5F5E2F5F5F5E2E2EFF5F5F5E2F5F5F5F5F5F5F5F5F5F5F5F5F5F5F5F5E2F5F5F5F5F5F5F5F5F5F5F5F5F5F5F5F5F5F5F5F5F5F5F5F5F5F5F5F5F5F5F5F5F5F5F5F5F5F5F5F5F5F5F5F5F5F5F5F5F5F5F5F5F5F5F5F5F5F5F5F5F5F5F5F5F5F5F5F5F5F5F5F5F5F5F5F5F5F5F5F5F5F5F5F5F5F5F5F5F5F5F5F5F5F5F5F5
310
F5F5F5F5F5F5F5F5F5F5F5F5F5F5F5F5F5F5F5F5F5F5F5F5F5F5F5F5F5F5F5F5F5F5F5F5F5F5F5E2F5F5F5F5F5F5F5F5F5F5F5F5F5F5F5F5E2F5F5F5E2E2EFF5F5F5E2F5F5F5F5F5F5F5F5F5F5F5F5F5F5F5F5E2F5F5F5F5F5F5F5F5F5F5F5F5F5F5F5F5F5F5F5F5F5F5F5F5F5F5F5F5F5F5F5F5F5F5F5F5F5F5F5F5F5F5F5
310
F5F5F5F5F5F5F5F5F5F5F5F5F5F5F5F5F5F5F5F5F5F5F5F5F5F5F5F5F5F5F5F5F5F5F5F5F5F5F5F5F5F5F5F5F5F5F5F5F5F5F5F5F5F5F5F5F5F5F5F5F5F5F5F5F5F5F5F5F5F5F5F5F5F5F5F5F5F5F5F5F5F5F5F5F5F5F5F5F5F5F5F5E2F5F5F5F5F5F5F5F5F5F5F5F5F5F5F5F5E2F5F5F5E2E2EFF5F5F5E2F5F5F5F5F5F5F5
310
F5F5F5F5F5F5F5F5F5E2F5F5F5F5F5F5F5F5F5F5F5F5F5F5F5F5F5F5F5F5F5F5F5F5F5F5F5F5F5F5F5F5F5F5F5F5F5F5F5F5F5F5F5F5F5F5F5F5F5F5F5F5F5F5F5F5F5F5F5F5F5F5F5F5F5F5F5F5F5F5F5F5F5F5F5F5F5F5F5F5F5F5F5F5F5F5F5F5F5F5F5F5F5F5F5F5F5F5F5F5F5F5F5F5F5F5F5F5F5F5F5F5F5F5F5F5F5
310
F5F5F5F5F5F5F5F5F5F5F5F5F5F5F5F5F5F5E2F5F5F5F5F5F5F5F5F5F5F5F5F5F5F5F5E2F5F5F5E2E2EFF5F5F5E2F5F5F5F5F5F5F5F5F5F5F5F5F5F5F5F5E2F5F5F5F5F5F5F5F5F5F5F5F5F5F5F5F5F5F5F5F5F5F5F5F5F5F5F5F5F5F5F5F5F5F5F5F5F5F5F5F5F5F5F5F5F5F5F5F5F5F5F5F5F5F5F5F5F5F5F5F5F5F5F5F5
310
F5F5F5F5F5F5F5F5F5F5F5F5F5F5F5F5F5F5F5F5F5F5F5F5F5F5F5F5F5F5F5F5F5F5F5F5F5F5F5F5F5F5F5F5F5F5F5F5F5F5F5F5F5F5F5F5F5F5F5F5F5F5F5F5F5F5F5F5F5F5F5E2F5F5F5F5F5F5F5F5F5F5F5F5F5F5F5F5E2F5F5F5E2E2EFF5F5F5E2F5F5F5F5F5F5F5F5F5F5F5F5F5F5F5F5E2F5F5F5F5F5F5F5F5F5F5F5
310
F5F5F5F5F5F5F5F5F5F5F5F5F5F5F5F5F5F5F5F5F5F5F5F5F5F5F5F5F5F5F5F5F5F5F5F5F5F5F5F5F5F5F5F5F5F5F5F5F5F5F5F5F5F5F5F5F5F5F5F5F5F5F5F5F5F5F5F5F5F5F5F5F5F5F5F5F5F5F5F5F5F5F5F5F5F5F5F5F5F5F5F5F5F5F5F5F5F5F5F5F5F5F5F5F5F5F5F5F5F5F5F5F5F5F5F5F5F5F5F5F5F5F5F5E2F5F5
310
F5F5F5F5F5F5F5F5F5F5F5F5F5F5E2F5F5F5E2E2EFF5F5F5E2F5F5F5F5F5F5F5F5F5F5F5F5F5F5F5F5E2F5F5F5F5F5F5F5F5F5F5F5F5F5F5F5F5F5F5F5F5F5F5F5F5F5F5F5F5F5F5F5F5F5F5F5F5F5F5F5F5F5F5F5F5F5F5F5F5F5F5F5F5F5F5F5F5F5F5F5F5F5F5F5F5F5F5F5F5F5F5F5F5F5F5F5F5F5F5F5F5F5F5F5F5F5
310
F5F5F5F5F5F5F5F5F5F5F5F5F5F5F5F5F5F5F5F5F5F5F5F5F5F5F5F5F5F5F5F5F5F5F5F5F5F5F5F5F5F5F5F5F5F5F5F5F5F5E2F5F5F5F5F5F5F5F5F5F5F5F5F5F5F5F5E2F5F5F5E2E2EFF5F5F5E2F5F5F5F5F5F5F5F5F5F5F5F5F5F5F5F5E2F5F5F5F5F5F5F5F5F5F5F5F5F5F5F5F5F5F5F5F5F5F5F5F5F5F5F5F5F5F5F5F5
310
F5F5F5F5F5F5F5F5F5F5F5F5F5F5F5F5F5F5F5F5F5F5F5F5F5F5F5F5F5F5F5F5F5F5F5F5F5F5F5F5F5F5F5F5F5F5F5F5F5F5F5F5F5F5F5F5F5F5F5F5F5F5F5F5F5F5F5F5F5F5F5F5F5F5F5F5F5F5F5F5F5F5F5F5F5F5F5F5F5F5F5F5F5F5F5F5F5F5F5F5F5F5F5E2F5F5F5F5F5F5F5F5F5F5F5F5F5F5F5F5E2F5F5F5E2E2EF
310
F5F5F5E2F5F5F5F5F5F5F5F5F5F5F5F5F5F5F5F5E2F5F5F5F5F5F5F5F5F5F5F5F5F5F5F5F5F5F5F5F5F5F5F5F5F5F5F5F5F5F5F5F5F5F5F5F5F5F5F5F5F5F5F5F5F5F5F5F5F5F5F5F5F5F5F5F5F5F5F5F5F5F5F5F5F5F5F5F5F5F5F5F5F5F5F5F5F5F5F5F5F5F5F5F5F5F5F5F5F5F5F5F5F5F5F5F5F5F5F5F5F5F5F5F5F5F5
310
F5F5F5F5F5F5F5F5F5F5F5F5F5F5F5F5F5F5F5F5F5F5F5F5F5F5F5F5F5E2F5F5F5F5F5F5F5F5F5F5F5F5F5F5F5F5E2F5F5F5E2E2EFF5F5F5E2F5F5F5F5F5F5F5F5F5F5F5F5F5F5F5F5E2F5F5F5F5F5F5F5F5F5F5F5F5F5F5F5F5F5F5F5F5F5F5F5F5F5F5F5F5F5F5F5F5F5F5F5F5F5F5F5F5F5F5F5F5F5F5F5F5F5F5F5F5F5
310
F5F5F5F5F5F5F5F5F5F5F5F5F5F5F5F5F5F5F5F5F5F5F5F5F5F5F5F5F5F5F5F5F5F5F5F5F5F5F5F5F5F5F5F5F5F5F5F5F5F5F5F5F5F5F5F5F5F5F5F5F5F5F5F5F5F5F5F5F5F5F5F5F5F5F5F5F5F5F5F5F5F5E2F5F5F5F5F5F5F5F5F5F5F5F5F5F5F5F5E2F5F5F5E2E2EFF5F5F5E2F5F5F5F5F5F5F5F5F5F5F5F5F5F5F5F5E2
310
F5F5F5F5F5F5F5F5F5F5F5F5F5F5F5F5F5F5F5F5F5F5F5F5F5F5F5F5F5F5F5F5F5F5F5F5F5F5F5F5F5F5F5F5F5F5F5F5F5F5F5F5F5F5F5F5F5F5F5F5F5F5F5F5F5F5F5F5F5F5F5F5F5F5F5F5F5F5F5F5F5F5F5F5F5F5F5F5F5F5F5F5F5F5F5F5F5F5F5F5F5F5F5F5F5F5F5F5F5F5F5F5F5F5F5F5F5F5F5F5F5F5F5F5F5F5F5
310
F5F5F5F5F5F5F5F5E2F5F5F5F5F5F5F5F5F5F5F5F5F5F5F5F5E2F5F5F5E2E2EFF5F5F5E2F5F5F5F5F5F5F5F5F5F5F5F5F5F5F5F5E2F5F5F5F5F5F5F5F5F5F5F5F5F5F5F5F5F5F5F5F5F5F5F5F5F5F5F5F5F5F5F5F5F5F5F5F5F5F5F5F5F5F5F5F5F5F5F5F5F5F5F5F5F5F5F5F5F5F5F5F5F5F5F5F5F5F5F5F5F5F5F5F5F5F5
310
F5F5F5F5F5F5F5F5F5F5F5F5F5F5F5F5F5F5F5F5F5F5F5F5F5F5F5F5F5F5F5F5F5F5F5F5F5F5F5F5F5F5F5F5F5F5F5F5F5F5F5F5F5F5F5F5F5F5F5F5F5E2F5F5F5F5F5F5F5F5F5F5F5F5F5F5F5F5E2F5F5F5E2E2EFF5F5F5E2F5F5F5F5F5F5F5F5F5F5F5F5F5F5F5F5E2F5F5F5F5F5F5F5F5F5F5F5F5F5F5F5F5F5F5F5F5F5
310
F5F5F5F5F5F5F5F5F5F5F5F5F5F5F5F5F5F5F5F5F5F5F5F5F5F5F5F5F5F5F5F5F5F5F5F5F5F5F5F5F5F5F5F5F5F5F5F5F5F5F5F5F5F5F5F5F5F5F5F5F5F5F5F5F5F5F5F5F5F5F5F5F5F5F5F5F5F5F5F5F5F5F5F5F5F5F5F5F5F5F5F5F5F5F5F5F5F5F5F5F5F5F5F5F5F5F5F5F5F5F5F5F5F5E2F5F5F5F5F5F5F5F5F5F5F5F5
310
F5F5F5F5E2F5F5F5E2E2EFF5F5F5E2F5F5F5F5F5F5F5F5F5F5F5F5F5F5F5F5E2F5F5F5F5F5F5F5F5F5F5F5F5F5F5F5F5F5F5F5F5F5F5F5F5F5F5F5F5F5F5F5F5F5F5F5F5F5F5F5F5F5F5F5F5F5F5F5F5F5F5F5F5F5F5F5F5F5F5F5F5F5F5F5F5F5F5F5F5F5F5F5F5F5F5F5F5F5F5F5F5F5F5F5F5F5F5F5F5F5F5F5F5F5F5F5
310
F5F5F5F5F5F5F5F5F5F5F5F5F5F5F5F5F5F5F5F5F5F5F5F5F5F5F5F5F5F5F5F5F5F5F5F5F5F5F5F5E2F5F5F5F5F5F5F5F5F5F5F5F5F5F5F5F5E2F5F5F5E2E2EFF5F5F5F5F5F5F5F5F5F5F5F5F5F5F5F5F5F5F5F5E2F5F5F5F5F5F5F5F5F5F5F5F5F5F5F5F5F5F5F5F5F5F5F5F5F5F5F5F5F5F5F5F5F5F5F5F5F5F5F5F5F5F5
310
F5F5F5F5F5F5F5F5F5F5F5F5F5F5F5F5F5F5F5F5F5F5F5F5F5F5F5F5F5F5F5F5F5F5F5F5F5F5F5F5F5F5F5F5F5F5F5F5F5F5F5F5F5F5F5F5F5F5F5F5F5F5F5F5F5F5F5F5F5F5F5F5F5F5F5F5F5F5F5F5F5F5F5F5F5F5F5F5F5F5F5F5F5E2F5F5F5F5F5F5F5F5F5F5F5F5F5F5F5F5F5F5F5F5E2E2EFF5F5F5F5F5F5F5F5F5F5
310
F5F5F5F5F5F5F5F5F5F5E2F5F5F5F5F5F5F5F5F5F5F5F5F5F5F5F5F5F5F5F5F5F5F5F5F5F5F5F5F5F5F5F5F5F5F5F5F5F5F5F5F5F5F5F5F5F5F5F5F5F5F5F5F5F5F5F5F5F5F5F5F5F5F5F5F5F5F5F5F5F5F5F5F5F5F5F5F5F5F5F5F5F5F5F5F5F5F5F5F5F5F5F5F5F5F5F5F5F5F5F5F5F5F5F5F5F5F5F5F5F5F5F5F5F5F5F5
310
F5F5F5F5F5F5F5F5F5F5F5F5F5F5F5F5F5F5F5E2F5F5F5F5F5F5F5F5F5F5F5F5F5F5F5F5F5F5F5F5E2E2EFF5F5F5F5F5F5F5F5F5F5F5F5F5F5F5F5F5F5F5F5E2F5F5F5F5F5F5F5F5F5F5F5F5F5F5F5F5F5F5F5F5F5F5F5F5F5F5F5F5F5F5F5F5F5F5F5F5F5F5F5F5F5F5F5F5F5F5F5F5F5F5F5F5F5F5F5F5F5F5F5F5F5F5F5
310
F5F5F5F5F5F5F5F5F5F5F5F5F5F5F5F5F5F5F5F5F5F5F5F5F5F5F5F5F5F5F5F5F5F5F5F5F5F5F5F5F5F5F5F5F5F5F5F5F5F5F5F5F5F5F5F5F5F5F5F5F5F5F5F5F5F5F5F5F5F5F5F5E2F5F5F5F5F5F5F5F5F5F5F5F5F5F5F5F5F5F5F5F5E2E2EFF5F5F5F5F5F5F5F5F5F5F5F5F5F5F5F5F5F5F5F5E2F5F5F5F5F5F5F5F5F5F5
310
F5F5F5F5F5F5F5F5F5F5F5F5F5F5F5F5F5F5F5F5F5F5F5F5F5F5F5F5F5F5F5F5F5F5F5F5F5F5F5F5F5F5F5F5F5F5F5F5F5F5F5F5F5F5F5F5F5F5F5F5F5F5F5F5F5F5F5F5F5F5F5F5F5F5F5F5F5F5F5F5F5F5F5F5F5F5F5F5F5F5F5F5F5F5F5F5F5F5F5F5F5F5F5F5F5F5F5F5F5F5F5F5F5F5F5F5F5F5F5F5F5F5F5F5F5E2F5
310
F5F5F5F5F5F5F5F5F5F5F5F5F5F5F5F5F5F5F5E2E2EFF5F5F5F5F5F5F5F5F5F5F5F5F5F5F5F5F5F5F5F5E2F5F5F5F5F5F5F5F5F5F5F5F5F5F5F5F5F5F5F5F5F5F5F5F5F5F5F5F5F5F5F5F5F5F5F5F5F5F5F5F5F5F5F5F5F5F5F5F5F5F5F5F5F5F5F5F5F5F5F5F5F5F5F5F5F5F5F5F5F5F5F5F5F5F5F5F5F5F5F5F5F5F5F5F5
310
F5F5F5F5F5F5F5F5F5F5F5F5F5F5F5F5F5F5F5F5F5F5F5F5F5F5F5F5F5F5F5F5F5F5F5F5F5F5F5F5F5F5F5F5F5F5F5F5F5F5F5E2F5F5F5F5F5F5F5F5F5F5F5F5F5F5F5F5F5F5F5F5E2E2EFF5F5F5F5F5F5F5F5F5F5F5F5F5F5F5F5F5F5F5F5E2F5F5F5F5F5F5F5F5F5F5F5F5F5F5F5F5F5F5F5F5F5F5F5F5F5F5F5F5F5F5F5
310
F5F5F5F5F5F5F5F5F5F5F5F5F5F5F5F5F5F5F5F5F5F5F5F5F5F5F5F5F5F5F5F5F5F5F5F5F5F5F5F5F5F5F5F5F5F5F5F5F5F5F5F5F5F5F5F5F5F5F5F5F5F5F5F5F5F5F5F5F5F5F5F5F5F5F5F5F5F5F5F5F5F5F5F5F5F5F5F5F5F5F5F5F5F5F5F5F5F5F5F5F5F5F5F5E2F5F5F5F5F5F5F5F5F5F5F5F5F5F5F5F5F5F5F5F5E2E2
310
EFF5F5F5F5F5F5F5F5F5F5F5F5F5F5F5F5F5F5F5F5E2F5F5F5F5F5F5F5F5F5F5F5F5F5F5F5F5F5F5F5F5F5F5F5F5F5F5F5F5F5F5F5F5F5F5F5F5F5F5F5F5F5F5F5F5F5F5F5F5F5F5F5F5F5F5F5F5F5F5F5F5F5F5F5F5F5F5F5F5F5F5F5F5F5F5F5F5F5F5F5F5F5F5F5F5F5F5F5F5F5F5F5F5F5F5F5F5F5F5F5F5F5F5F5F5F5
310
F5F5F5F5F5F5F5F5F5F5F5F5F5F5F5F5F5F5F5F5F5F5F5F5F5F5F5F5F5F5E2F5F5F5F5F5F5F5F5F5F5F5F5F5F5F5F5F5F5F5F5E2E2EFF5F5F5F5F5F5F5F5F5F5F5F5F5F5F5F5F5F5F5F5E2F5F5F5F5F5F5F5F5F5F5F5F5F5F5F5F5F5F5F5F5F5F5F5F5F5F5F5F5F5F5F5F5F5F5F5F5F5F5F5F5F5F5F5F5F5F5F5F5F5F5F5F5
310
F5F5F5F5F5F5F5F5F5F5F5F5F5F5F5F5F5F5F5F5F5F5F5F5F5F5F5F5F5F5F5F5F5F5F5F5F5F5F5F5F5F5F5F5F5F5F5F5F5F5F5F5F5F5F5F5F5F5F5F5F5F5F5F5F5F5F5F5F5F5F5F5F5F5F5F5F5F5F5F5F5F5F5E2F5F5F5F5F5F5F5F5F5F5F5F5F5F5F5F5F5F5F5F5E2E2EFF5F5F5F5F5F5F5F5F5F5F5F5F5F5F5F5F5F5F5F5
310
E2F5F5F5F5F5F5F5F5F5F5F5F5F5F5F5F5F5F5F5F5F5F5F5F5F5F5F5F5F5F5F5F5F5F5F5F5F5F5F5F5F5F5F5F5F5F5F5F5F5F5F5F5F5F5F5F5F5F5F5F5F5F5F5F5F5F5F5F5F5F5F5F5F5F5F5F5F5F5F5F5F5F5F5F5F5F5F5F5F5F5F5F5F5F5F5F5F5F5F5F5F5F5F5F5F5F5F5F5F5F5F5F5F5F5F5F5F5F5F5F5F5F5F5F5F5F5
310
F5F5F5F5F5F5F5F5F5E2F5F5F5F5F5F5F5F5F5F5F5F5F5F5F5F5F5F5F5F5E2E2EFF5F5F5E2F5F5F5F5F5F5F5F5F5F5F5F5F5F5F5F5E2F5F5F5F5F5F5F5F5F5F5F5F5F5F5F5F5F5F5F5F5F5F5F5F5F5F5F5F5F5F5F5F5F5F5F5F5F5F5F5F5F5F5F5F5F5F5F5F5F5F5F5F5F5F5F5F5F5F5F5F5F5F5F5F5F5F5F5F5F5F5F5F5F5
310
F5F5F5F5F5F5F5F5F5F5F5F5F5F5F5F5F5F5F5F5F5F5F5F5F5F5F5F5F5F5F5F5F5F5F5F5F5F5F5F5F5F5F5F5F5F5F5F5F5F5F5F5F5F5F5F5F5F5F5F5F5F5E2F5F5F5F5F5F5F5F5F5F5F5F5F5F5F5F5E2F5F5F5E2E2EFF5F5F5E2F5F5F5F5F5F5F5F5F5F5F5F5F5F5F5F5E2F5F5F5F5F5F5F5F5F5F5F5F5F5F5F5F5F5F5F5F5
310
F5F5F5F5F5F5F5F5F5F5F5F5F5F5F5F5F5F5F5F5F5F5F5F5F5F5F5F5F5F5F5F5F5F5F5F5F5F5F5F5F5F5F5F5F5F5F5F5F5F5F5F5F5F5F5F5F5F5F5F5F5F5F5F5F5F5F5F5F5F5F5F5F5F5F5F5F5F5F5F5F5F5F5F5F5F5F5F5F5F5F5F5F5F5F5F5F5F5F5F5F5F5F5F5F5F5F5F5F5F5F5F5F5F5F5E2F5F5F5F5F5F5F5F5F5F5F5
310
F5F5F5F5F5E2F5F5F5E2E2EFF5F5F5E2F5F5F5F5F5F5F5F5F5F5F5F5F5F5F5F5E2F5F5F5F5F5F5F5F5F5F5F5F5F5F5F5F5F5F5F5F5F5F5F5F5F5F5F5F5F5F5F5F5F5F5F5F5F5F5F5F5F5F5F5F5F5F5F5F5F5F5F5F5F5F5F5F5F5F5F5F5F5F5F5F5F5F5F5F5F5F5F5F5F5F5F5F5F5F5F5F5F5F5F5F5F5F5F5F5F5F5F5F5F5F5
310
F5F5F5F5F5F5F5F5F5F5F5F5F5F5F5F5F5F5F5F5F5F5F5F5F5F5F5F5F5F5F5F5F5F5F5F5F5F5F5F5F5E2F5F5F5F5F5F5F5F5F5F5F5F5F5F5F5F5E2F5F5F5E2E2EFF5F5F5E2F5F5F5F5F5F5F5F5F5F5F5F5F5F5F5F5E2F5F5F5F5F5F5F5F5F5F5F5F5F5F5F5F5F5F5F5F5F5F5F5F5F5F5F5F5F5F5F5F5F5F5F5F5F5F5F5F5F5
310
F5F5F5F5F5F5F5F5F5F5F5F5F5F5F5F5F5F5F5F5F5F5F5F5F5F5F5F5F5F5F5F5F5F5F5F5F5F5F5F5F5F5F5F5F5F5F5F5F5F5F5F5F5F5F5F5F5F5F5F5F5F5F5F5F5F5F5F5F5F5F5F5F5F5F5F5F5F5F5F5F5F5F5F5F5F5F5F5F5F5F5F5F5F5E2F5F5F5F5F5F5F5F5F5F5F5F5F5F5F5F5E2F5F5F5E2E2EFF5F5F5E2F5F5F5F5F5
310
F5F5F5F5F5F5F5F5F5F5F5E2F5F5F5F5F5F5F5F5F5F5F5F5F5F5F5F5F5F5F5F5F5F5F5F5F5F5F5F5F5F5F5F5F5F5F5F5F5F5F5F5F5F5F5F5F5F5F5F5F5F5F5F5F5F5F5F5F5F5F5F5F5F5F5F5F5F5F5F5F5F5F5F5F5F5F5F5F5F5F5F5F5F5F5F5F5F5F5F5F5F5F5F5F5F5F5F5F5F5F5F5F5F5F5F5F5F5F5F5F5F5F5F5F5F5F5
310
F5F5F5F5F5F5F5F5F5F5F5F5F5F5F5F5F5F5F5F5E2F5F5F5F5F5F5F5F5F5F5F5F5F5F5F5F5E2F5F5F5E2E2EFF5F5F5E2F5F5F5F5F5F5F5F5F5F5F5F5F5F5F5F5E2F5F5F5F5F5F5F5F5F5F5F5F5F5F5F5F5F5F5F5F5F5F5F5F5F5F5F5F5F5F5F5F5F5F5F5F5F5F5F5F5F5F5F5F5F5F5F5F5F5F5F5F5F5F5F5F5F5F5F5F5F5F5
310
F5F5F5F5F5F5F5F5F5F5F5F5F5F5F5F5F5F5F5F5F5F5F5F5F5F5F5F5F5F5F5F5F5F5F5F5F5F5F5F5F5F5F5F5F5F5F5F5F5F5F5F5F5F5F5F5F5F5F5F5F5F5F5F5F5F5F5F5F5F5F5F5F5E2F5F5F5F5F5F5F5F5F5F5F5F5F5F5F5F5E2F5F5F5E2E2EFF5F5F5E2F5F5F5F5F5F5F5F5F5F5F5F5F5F5F5F5E2F5F5F5F5F5F5F5F5F5
310
F5F5F5F5F5F5F5F5F5F5F5F5F5F5F5F5F5F5F5F5F5F5F5F5F5F5F5F5F5F5F5F5F5F5F5F5F5F5F5F5F5F5F5F5F5F5F5F5F5F5F5F5F5F5F5F5F5F5F5F5F5F5F5F5F5F5F5F5F5F5F5F5F5F5F5F5F5F5F5F5F5F5F5F5F5F5F5F5F5F5F5F5F5F5F5F5F5F5F5F5F5F5F5F5F5F5F5F5F5F5F5F5F5F5F5F5F5F5F5F5F5F5F5F5F5F5E2
310
F5F5F5F5F5F5F5F5F5F5F5F5F5F5F5F5E2F5F5F5E2E2EFF5F5F5E2F5F5F5F5F5F5F5F5F5F5F5F5F5F5F5F5E2F5F5F5F5F5F5F5F5F5F5F5F5F5F5F5F5F5F5F5F5F5F5F5F5F5F5F5F5F5F5F5F5F5F5F5F5F5F5F5F5F5F5F5F5F5F5F5F5F5F5F5F5F5F5F5F5F5F5F5F5F5F5F5F5F5F5F5F5F5F5F5F5F5F5F5F5F5F5F5F5F5F5F5
310
F5F5F5F5F5F5F5F5F5F5F5F5F5F5F5F5F5F5F5F5F5F5F5F5F5F5F5F5F5F5F5F5F5F5F5F5F5F5F5F5F5F5F5F5F5F5F5F5F5F5F5F5E2F5F5F5F5F5F5F5F5F5F5F5F5F5F5F5F5E2F5F5F5E2E2EFF5F5F5E2F5F5F5F5F5F5F5F5F5F5F5F5F5F5F5F5E2F5F5F5F5F5F5F5F5F5F5F5F5F5F5F5F5F5F5F5F5F5F5F5F5F5F5F5F5F5F5
310
F5F5F5F5F5F5F5F5F5F5F5F5F5F5F5F5F5F5F5F5F5F5F5F5F5F5F5F5F5F5F5F5F5F5F5F5F5F5F5F5F5F5F5F5F5F5F5F5F5F5F5F5F5F5F5F5F5F5F5F5F5F5F5F5F5F5F5F5F5F5F5F5F5F5F5F5F5F5F5F5F5F5F5F5F5F5F5F5F5F5F5F5F5F5F5F5F5F5F5F5F5F5F5F5F5E2F5F5F5F5F5F5F5F5F5F5F5F5F5F5F5F5E2F5F5F5E2
310
E2EFF5F5F5E2F5F5F5F5F5F5F5F5F5F5F5F5F5F5F5F5E2F5F5F5F5F5F5F5F5F5F5F5F5F5F5F5F5F5F5F5F5F5F5F5F5F5F5F5F5F5F5F5F5F5F5F5F5F5F5F5F5F5F5F5F5F5F5F5F5F5F5F5F5F5F5F5F5F5F5F5F5F5F5F5F5F5F5F5F5F5F5F5F5F5F5F5F5F5F5F5F5F5F5F5F5F5F5F5F5F5F5F5F5F5F5F5F5F5F5F5F5F5F5F5F5
310
F5F5F5F5F5F5F5F5F5F5F5F5F5F5F5F5F5F5F5F5F5F5F5F5F5F5F5F5F5F5F5E2F5F5F5F5F5F5F5F5F5F5F5F5F5F5F5F5E2F5F5F5E2E2EFF5F5F5E2F5F5F5F5F5F5F5F5F5F5F5F5F5F5F5F5E2F5F5F5F5F5F5F5F5F5F5F5F5F5F5F5F5F5F5F5F5F5F5F5F5F5F5F5F5F5F5F5F5F5F5F5F5F5F5F5F5F5F5F5F5F5F5F5F5F5F5F5
310
F5F5F5F5F5F5F5F5F5F5F5F5F5F5F5F5F5F5F5F5F5F5F5F5F5F5F5F5F5F5F5F5F5F5F5F5F5F5F5F5F5F5F5F5F5F5F5F5F5F5F5F5F5F5F5F5F5F5F5F5F5F5F5F5F5F5F5F5F5F5F5F5F5F5F5F5F5F5F5F5F5F5F5F5E2F5F5F5F5F5F5F5F5F5F5F5F5F5F5F5F5E2F5F5F5E2E2EFF5F5F5E2F5F5F5F5F5F5F5F5F5F5F5F5F5F5F5
310
F5E2F5F5F5F5F5F5F5F5F5F5F5F5F5F5F5F5F5F5F5F5F5F5F5F5F5F5F5F5F5F5F5F5F5F5F5F5F5F5F5F5F5F5F5F5F5F5F5F5F5F5F5F5F5F5F5F5F5F5F5F5F5F5F5F5F5F5F5F5F5F5F5F5F5F5F5F5F5F5F5F5F5F5F5F5F5F5F5F5F5F5F5F5F5F5F5F5F5F5F5F5F5F5F5F5F5F5F5F5F5F5F5F5F5F5F5F5F5F5F5F5F5F5F5F5F5
310
F5F5F5F5F5F5F5F5F5F5E2F5F5F5F5F5F5F5F5F5F5F5F5F5F5F5F5E2F5F5F5E2E2EFF5F5F5E2F5F5F5F5F5F5F5F5F5F5F5F5F5F5F5F5E2F5F5F5F5F5F5F5F5F5F5F5F5F5F5F5F5F5F5F5F5F5F5F5F5F5F5F5F5F5F5F5F5F5F5F5F5F5F5F5F5F5F5F5F5F5F5F5F5F5F5F5F5F5F5F5F5F5F5F5F5F5F5F5F5F5F5F5F5F5F5F5F5
310
F5F5F5F5F5F5F5F5F5F5F5F5F5F5F5F5F5F5F5F5F5F5F5F5F5F5F5F5F5F5F5F5F5F5F5F5F5F5F5F5F5F5F5F5F5F5F5F5F5F5F5F5F5F5F5F5F5F5F5F5F5F5F5E2F5F5F5F5F5F5F5F5F5F5F5F5F5F5F5F5E2F5F5F5E2E2EFF5F5F5E2F5F5F5F5F5F5F5F5F5F5F5F5F5F5F5F5E2F5F5F5F5F5F5F5F5F5F5F5F5F5F5F5F5F5F5F5
310
F5F5F5F5F5F5F5F5F5F5F5F5F5F5F5F5F5F5F5F5F5F5F5F5F5F5F5F5F5F5F5F5F5F5F5F5F5F5F5F5F5F5F5F5F5F5F5F5F5F5F5F5F5F5F5F5F5F5F5F5F5F5F5F5F5F5F5F5F5F5F5F5F5F5F5F5F5F5F5F5F5F5F5F5F5F5F5F5F5F5F5F5F5F5F5F5F5F5F5F5F5F5F5F5F5F5F5F5F5F5F5F5F5F5F5F5E2F5F5F5F5F5F5F5F5F5F5
310
F5F5F5F5F5F5E2F5F5F5E2E2EFF5F5F5E2F5F5F5F5F5F5F5F5F5F5F5F5F5F5F5F5E2F5F5F5F5F5F5F5F5F5F5F5F5F5F5F5F5F5F5F5F5F5F5F5F5F5F5F5F5F5F5F5F5F5F5F5F5F5F5F5F5F5F5F5F5F5F5F5F5F5F5F5F5F5F5F5F5F5F5F5F5F5F5F5F5F5F5F5F5F5F5F5F5F5F5F5F5F5F5F5F5F5F5F5F5F5F5F5F5F5F5F5F5F5
310
F5F5F5F5F5F5F5F5F5F5F5F5F5F5F5F5F5F5F5F5F5F5F5F5F5F5F5F5F5F5F5F5F5F5F5F5F5F5F5F5F5F5E2F5F5F5F5F5F5F5F5F5F5F5F5F5F5F5F5E2F5F5F5E2E2EFF5F5F5E2F5F5F5F5F5F5F5F5F5F5F5F5F5F5F5F5E2F5F5F5F5F5F5F5F5F5F5F5F5F5F5F5F5F5F5F5F5F5F5F5F5F5F5F5F5F5F5F5F5F5F5F5F5F5F5F5F5
310
F5F5F5F5F5F5F5F5F5F5F5F5F5F5F5F5F5F5F5F5F5F5F5F5F5F5F5F5F5F5F5F5F5F5F5F5F5F5F5F5F5F5F5F5F5F5F5F5F5F5F5F5F5F5F5F5F5F5F5F5F5F5F5F5F5F5F5F5F5F5F5F5F5F5F5F5F5F5F5F5F5F5F5F5F5F5F5F5F5F5F5F5F5F5F5E2F5F5F5F5F5F5F5F5F5F5F5F5F5F5F5F5E2F5F5F5E2E2EFF5F5F5E2F5F5F5F5
310
F5F5F5F5F5F5F5F5F5F5F5F5E2F5F5F5F5F5F5F5F5F5F5F5F5F5F5F5F5F5F5F5F5F5F5F5F5F5F5F5F5F5F5F5F5F5F5F5F5F5F5F5F5F5F5F5F5F5F5F5F5F5F5F5F5F5F5F5F5F5F5F5F5F5F5F5F5F5F5F5F5F5F5F5F5F5F5F5F5F5F5F5F5F5F5F5F5F5F5F5F5F5F5F5F5F5F5F5F5F5F5F5F5F5F5F5F5F5F5F5F5F5F5F5F5F5F5
310
F5F5F5F5F5F5F5F5F5F5F5F5F5F5F5F5F5F5F5F5F5E2F5F5F5F5F5F5F5F5F5F5F5F5F5F5F5F5E2F5F5F5E2E2EFF5F5F5F5F5F5F5F5F5F5F5F5F5F5F5F5F5F5F5F5E2F5F5F5F5F5F5F5F5F5F5F5F5F5F5F5F5F5F5F5F5F5F5F5F5F5F5F5F5F5F5F5F5F5F5F5F5F5F5F5F5F5F5F5F5F5F5F5F5F5F5F5F5F5F5F5F5F5F5F5F5F5
310
F5F5F5F5F5F5F5F5F5F5F5F5F5F5F5F5F5F5F5F5F5F5F5F5F5F5F5F5F5F5F5F5F5F5F5F5F5F5F5F5F5F5F5F5F5F5F5F5F5F5F5F5F5F5F5F5F5F5F5F5F5F5F5F5F5F5F5F5F5F5F5F5F5F5E2F5F5F5F5F5F5F5F5F5F5F5F5F5F5F5F5F5F5F5F5E2E2EFF5F5F5F5F5F5F5F5F5F5F5F5F5F5F5F5F5F5F5F5E2F5F5F5F5F5F5F5F5
310
F5F5F5F5F5F5F5F5F5F5F5F5F5F5F5F5F5F5F5F5F5F5F5F5F5F5F5F5F5F5F5F5F5F5F5F5F5F5F5F5F5F5F5F5F5F5F5F5F5F5F5F5F5F5F5F5F5F5F5F5F5F5F5F5F5F5F5F5F5F5F5F5F5F5F5F5F5F5F5F5F5F5F5F5F5F5F5F5F5F5F5F5F5F5F5F5F5F5F5F5F5F5F5F5F5F5F5F5F5F5F5F5F5F5F5F5F5F5F5F5F5F5F5F5F5F5F5
310
E2F5F5F5F5F5F5F5F5F5F5F5F5F5F5F5F5F5F5F5F5E2E2EFF5F5F5F5F5F5F5F5F5F5F5F5F5F5F5F5F5F5F5F5E2F5F5F5F5F5F5F5F5F5F5F5F5F5F5F5F5F5F5F5F5F5F5F5F5F5F5F5F5F5F5F5F5F5F5F5F5F5F5F5F5F5F5F5F5F5F5F5F5F5F5F5F5F5F5F5F5F5F5F5F5F5F5F5F5F5F5F5F5F5F5F5F5F5F5F5F5F5F5F5F5F5F5
310
F5F5F5F5F5F5F5F5F5F5F5F5F5F5F5F5F5F5F5F5F5F5F5F5F5F5F5F5F5F5F5F5F5F5F5F5F5F5F5F5F5F5F5F5F5F5F5F5F5F5F5F5F5E2F5F5F5F5F5F5F5F5F5F5F5F5F5F5F5F5F5F5F5F5E2E2EFF5F5F5F5F5F5F5F5F5F5F5F5F5F5F5F5F5F5F5F5E2F5F5F5F5F5F5F5F5F5F5F5F5F5F5F5F5F5F5F5F5F5F5F5F5F5F5F5F5F5
310
F5F5F5F5F5F5F5F5F5F5F5F5F5F5F5F5F5F5F5F5F5F5F5F5F5F5F5F5F5F5F5F5F5F5F5F5F5F5F5F5F5F5F5F5F5F5F5F5F5F5F5F5F5F5F5F5F5F5F5F5F5F5F5F5F5F5F5F5F5F5F5F5F5F5F5F5F5F5F5F5F5F5F5F5F5F5F5F5F5F5F5F5F5F5F5F5F5F5F5F5F5F5F5F5F5F5E2F5F5F5F5F5F5F5F5F5F5F5F5F5F5F5F5F5F5F5F5
310
E2E2EFF5F5F5F5F5F5F5F5F5F5F5F5F5F5F5F5F5F5F5F5E2F5F5F5F5F5F5F5F5F5F5F5F5F5F5F5F5F5F5F5F5F5F5F5F5F5F5F5F5F5F5F5F5F5F5F5F5F5F5F5F5F5F5F5F5F5F5F5F5F5F5F5F5F5F5F5F5F5F5F5F5F5F5F5F5F5F5F5F5F5F5F5F5F5F5F5F5F5F5F5F5F5F5F5F5F5F5F5F5F5F5F5F5F5F5F5F5F5F5F5F5F5F5F5
310
F5F5F5F5F5F5F5F5F5F5F5F5F5F5F5F5F5F5F5F5F5F5F5F5F5F5F5F5F5F5F5F5E2F5F5F5F5F5F5F5F5F5F5F5F5F5F5F5F5F5F5F5F5E2E2EFF5F5F5F5F5F5F5F5F5F5F5F5F5F5F5F5F5F5F5F5E2F5F5F5F5F5F5F5F5F5F5F5F5F5F5F5F5F5F5F5F5F5F5F5F5F5F5F5F5F5F5F5F5F5F5F5F5F5F5F5F5F5F5F5F5F5F5F5F5F5F5
310
F5F5F5F5F5F5F5F5F5F5F5F5F5F5F5F5F5F5F5F5F5F5F5F5F5F5F5F5F5F5F5F5F5F5F5F5F5F5F5F5F5F5F5F5F5F5F5F5F5F5F5F5F5F5F5F5F5F5F5F5F5F5F5F5F5F5F5F5F5F5F5F5F5F5F5F5F5F5F5F5F5F5F5F5F5E2F5F5F5F5F5F5F5F5F5F5F5F5F5F5F5F5F5F5F5F5E2E2EFF5F5F5F5F5F5F5F5F5F5F5F5F5F5F5F5F5F5
310
F5F5E2F5F5F5F5F5F5F5F5F5F5F5F5F5F5F5F5F5F5F5F5F5F5F5F5F5F5F5F5F5F5F5F5F5F5F5F5F5F5F5F5F5F5F5F5F5F5F5F5F5F5F5F5F5F5F5F5F5F5F5F5F5F5F5F5F5F5F5F5F5F5F5F5F5F5F5F5F5F5F5F5F5F5F5F5F5F5F5F5F5F5F5F5F5F5F5F5F5F5F5F5F5F5F5F5F5F5F5F5F5F5F5F5F5F5F5F5F5F5F5F5F5F5F5F5
310
F5F5F5F5F5F5F5F5F5F5F5E2F5F5F5F5F5F5F5F5F5F5F5F5F5F5F5F5F5F5F5F5E2E2EFF5F5F5F5F5F5F5F5F5F5F5F5F5F5F5F5F5F5F5F5E2F5F5F5F5F5F5F5F5F5F5F5F5F5F5F5F5F5F5F5F5F5F5F5F5F5F5F5F5F5F5F5F5F5F5F5F5F5F5F5F5F5F5F5F5F5F5F5F5F5F5F5F5F5F5F5F5F5F5F5F5F5F5F5F5F5F5F5F5F5F5F5
310
F5F5F5F5F5F5F5F5F5F5F5F5F5F5F5F5F5F5F5F5F5F5F5F5F5F5F5F5F5F5F5F5F5F5F5F5F5F5F5F5F5F5F5F5F5F5F5F5F5F5F5F5F5F5F5F5F5F5F5F5F5F5F5F5E2F5F5F5F5F5F5F5F5F5F5F5F5F5F5F5F5F5F5F5F5E2E2EFF5F5F5F5F5F5F5F5F5F5F5F5F5F5F5F5F5F5F5F5E2F5F5F5F5F5F5F5F5F5F5F5F5F5F5F5F5F5F5
310
F5F5F5F5F5F5F5F5F5F5F5F5F5F5F5F5F5F5F5F5F5F5F5F5F5F5F5F5F5F5F5F5F5F5F5F5F5F5F5F5F5F5F5F5F5F5F5F5F5F5F5F5F5F5F5F5F5F5F5F5F5F5F5F5F5F5F5F5F5F5F5F5F5F5F5F5F5F5F5F5F5F5F5F5F5F5F5F5F5F5F5F5F5F5F5F5F5F5F5F5F5F5F5F5F5F5F5F5F5F5F5F5F5F5F5F5F5E2F5F5F5F5F5F5F5F5F5
310
F5F5F5F5F5F5F5F5F5F5F5E2E2EFF5F5F5E2F5F5F5F5F5F5F5F5F5F5F5F5F5F5F5F5E2F5F5F5F5F5F5F5F5F5F5F5F5F5F5F5F5F5F5F5F5F5F5F5F5F5F5F5F5F5F5F5F5F5F5F5F5F5F5F5F5F5F5F5F5F5F5F5F5F5F5F5F5F5F5F5F5F5F5F5F5F5F5F5F5F5F5F5F5F5F5F5F5F5F5F5F5F5F5F5F5F5F5F5F5F5F5F5F5F5F5F5F5
310
F5F5F5F5F5F5F5F5F5F5F5F5F5F5F5F5F5F5F5F5F5F5F5F5F5F5F5F5F5F5F5F5F5F5F5F5F5F5F5F5F5F5F5E2F5F5F5F5F5F5F5F5F5F5F5F5F5F5F5F5E2F5F5F5E2E2EFF5F5F5E2F5F5F5F5F5F5F5F5F5F5F5F5F5F5F5F5E2F5F5F5F5F5F5F5F5F5F5F5F5F5F5F5F5F5F5F5F5F5F5F5F5F5F5F5F5F5F5F5F5F5F5F5F5F5F5F5
310
F5F5F5F5F5F5F5F5F5F5F5F5F5F5F5F5F5F5F5F5F5F5F5F5F5F5F5F5F5F5F5F5F5F5F5F5F5F5F5F5F5F5F5F5F5F5F5F5F5F5F5F5F5F5F5F5F5F5F5F5F5F5F5F5F5F5F5F5F5F5F5F5F5F5F5F5F5F5F5F5F5F5F5F5F5F5F5F5F5F5F5F5F5F5F5F5E2F5F5F5F5F5F5F5F5F5F5F5F5F5F5F5F5E2F5F5F5E2E2EFF5F5F5E2F5F5F5
310
F5F5F5F5F5F5F5F5F5F5F5F5F5E2F5F5F5F5F5F5F5F5F5F5F5F5F5F5F5F5F5F5F5F5F5F5F5F5F5F5F5F5F5F5F5F5F5F5F5F5F5F5F5F5F5F5F5F5F5F5F5F5F5F5F5F5F5F5F5F5F5F5F5F5F5F5F5F5F5F5F5F5F5F5F5F5F5F5F5F5F5F5F5F5F5F5F5F5F5F5F5F5F5F5F5F5F5F5F5F5F5F5F5F5F5F5F5F5F5F5F5F5F5F5F5F5F5
310
F5F5F5F5F5F5F5F5F5F5F5F5F5F5F5F5F5F5F5F5F5F5E2F5F5F5F5F5F5F5F5F5F5F5F5F5F5F5F5E2F5F5F5E2E2EFF5F5F5E2F5F5F5F5F5F5F5F5F5F5F5F5F5F5F5F5E2F5F5F5F5F5F5F5F5F5F5F5F5F5F5F5F5F5F5F5F5F5F5F5F5F5F5F5F5F5F5F5F5F5F5F5F5F5F5F5F5F5F5F5F5F5F5F5F5F5F5F5F5F5F5F5F5F5F5F5F5
310
F5F5F5F5F5F5F5F5F5F5F5F5F5F5F5F5F5F5F5F5F5F5F5F5F5F5F5F5F5F5F5F5F5F5F5F5F5F5F5F5F5F5F5F5F5F5F5F5F5F5F5F5F5F5F5F5F5F5F5F5F5F5F5F5F5F5F5F5F5F5F5F5F5F5F5E2F5F5F5F5F5F5F5F5F5F5F5F5F5F5F5F5E2F5F5F5E2E2EFF5F5F5E2F5F5F5F5F5F5F5F5F5F5F5F5F5F5F5F5E2F5F5F5F5F5F5F5
310
F5F5F5F5F5F5F5F5F5F5F5F5F5F5F5F5F5F5F5F5F5F5F5F5F5F5F5F5F5F5F5F5F5F5F5F5F5F5F5F5F5F5F5F5F5F5F5F5F5F5F5F5F5F5F5F5F5F5F5F5F5F5F5F5F5F5F5F5F5F5F5F5F5F5F5F5F5F5F5F5F5F5F5F5F5F5F5F5F5F5F5F5F5F5F5F5F5F5F5F5F5F5F5F5F5F5F5F5F5F5F5F5F5F5F5F5F5F5F5F5F5F5F5F5F5F5F5
310
F5E2F5F5F5F5F5F5F5F5F5F5F5F5F5F5F5F5E2F5F5F5E2E2EFF5F5F5E2F5F5F5F5F5F5F5F5F5F5F5F5F5F5F5F5E2F5F5F5F5F5F5F5F5F5F5F5F5F5F5F5F5F5F5F5F5F5F5F5F5F5F5F5F5F5F5F5F5F5F5F5F5F5F5F5F5F5F5F5F5F5F5F5F5F5F5F5F5F5F5F5F5F5F5F5F5F5F5F5F5F5F5F5F5F5F5F5F5F5F5F5F5F5F5F5F5F5
310
F5F5F5F5F5F5F5F5F5F5F5F5F5F5F5F5F5F5F5F5F5F5F5F5F5F5F5F5F5F5F5F5F5F5F5F5F5F5F5F5F5F5F5F5F5F5F5F5F5F5F5F5F5F5E2F5F5F5F5F5F5F5F5F5F5F5F5F5F5F5F5E2F5F5F5E2E2EFF5F5F5E2F5F5F5F5F5F5F5F5F5F5F5F5F5F5F5F5E2F5F5F5F5F5F5F5F5F5F5F5F5F5F5F5F5F5F5F5F5F5F5F5F5F5F5F5F5
310
F5F5F5F5F5F5F5F5F5F5F5F5F5F5F5F5F5F5F5F5F5F5F5F5F5F5F5F5F5F5F5F5F5F5F5F5F5F5F5F5F5F5F5F5F5F5F5F5F5F5F5F5F5F5F5F5F5F5F5F5F5F5F5F5F5F5F5F5F5F5F5F5F5F5F5F5F5F5F5F5F5F5F5F5F5F5F5F5F5F5F5F5F5F5F5F5F5F5F5F5F5F5F5F5F5F5F5E2F5F5F5F5F5F5F5F5F5F5F5F5F5F5F5F5E2F5F5
310
F5E2E2EFF5F5F5E2F5F5F5F5F5F5F5F5F5F5F5F5F5F5F5F5E2F5F5F5F5F5F5F5F5F5F5F5F5F5F5F5F5F5F5F5F5F5F5F5F5F5F5F5F5F5F5F5F5F5F5F5F5F5F5F5F5F5F5F5F5F5F5F5F5F5F5F5F5F5F5F5F5F5F5F5F5F5F5F5F5F5F5F5F5F5F5F5F5F5F5F5F5F5F5F5F5F5F5F5F5F5F5F5F5F5F5F5F5F5F5F5F5F5F5F5F5F5F5
310
F5F5F5F5F5F5F5F5F5F5F5F5F5F5F5F5F5F5F5F5F5F5F5F5F5F5F5F5F5F5F5F5F5E2F5F5F5F5F5F5F5F5F5F5F5F5F5F5F5F5E2F5F5F5E2E2EFF5F5F5E2F5F5F5F5F5F5F5F5F5F5F5F5F5F5F5F5E2F5F5F5F5F5F5F5F5F5F5F5F5F5F5F5F5F5F5F5F5F5F5F5F5F5F5F5F5F5F5F5F5F5F5F5F5F5F5F5F5F5F5F5F5F5F5F5F5F5
310
F5F5F5F5F5F5F5F5F5F5F5F5F5F5F5F5F5F5F5F5F5F5F5F5F5F5F5F5F5F5F5F5F5F5F5F5F5F5F5F5F5F5F5F5F5F5F5F5F5F5F5F5F5F5F5F5F5F5F5F5F5F5F5F5F5F5F5F5F5F5F5F5F5F5F5F5F5F5F5F5F5F5F5F5F5F5E2F5F5F5F5F5F5F5F5F5F5F5F5F5F5F5F5E2F5F5F5E2E2EFF5F5F5E2F5F5F5F5F5F5F5F5F5F5F5F5F5
310
F5F5F5E2F5F5F5F5F5F5F5F5F5F5F5F5F5F5F5F5F5F5F5F5F5F5F5F5F5F5F5F5F5F5F5F5F5F5F5F5F5F5F5F5F5F5F5F5F5F5F5F5F5F5F5F5F5F5F5F5F5F5F5F5F5F5F5F5F5F5F5F5F5F5F5F5F5F5F5F5F5F5F5F5F5F5F5F5F5F5F5F5F5F5F5F5F5F5F5F5F5F5F5F5F5F5F5F5F5F5F5F5F5F5F5F5F5F5F5F5F5F5F5F5F5F5F5
310
F5F5F5F5F5F5F5F5F5F5F5F5E2F5F5F5F5F5F5F5F5F5F5F5F5F5F5F5F5E2F5F5F5E2E2EFF5F5F5E2F5F5F5F5F5F5F5F5F5F5F5F5F5F5F5F5E2F5F5F5F5F5F5F5F5F5F5F5F5F5F5F5F5F5F5F5F5F5F5F5F5F5F5F5F5F5F5F5F5F5F5F5F5F5F5F5F5F5F5F5F5F5F5F5F5F5F5F5F5F5F5F5F5F5F5F5F5F5F5F5F5F5F5F5F5F5F5
310
F5F5F5F5F5F5F5F5F5F5F5F5F5F5F5F5F5F5F5F5F5F5F5F5F5F5F5F5F5F5F5F5F5F5F5F5F5F5F5F5F5F5F5F5F5F5F5F5F5F5F5F5F5F5F5F5F5F5F5F5F5F5F5F5F5E2F5F5F5F5F5F5F5F5F5F5F5F5F5F5F5F5E2F5F5F5E2E2EFF5F5F5E2F5F5F5F5F5F5F5F5F5F5F5F5F5F5F5F5E2F5F5F5F5F5F5F5F5F5F5F5F5F5F5F5F5F5
310
F5F5F5F5F5F5F5F5F5F5F5F5F5F5F5F5F5F5F5F5F5F5F5F5F5F5F5F5F5F5F5F5F5F5F5F5F5F5F5F5F5F5F5F5F5F5F5F5F5F5F5F5F5F5F5F5F5F5F5F5F5F5F5F5F5F5F5F5F5F5F5F5F5F5F5F5F5F5F5F5F5F5F5F5F5F5F5F5F5F5F5F5F5F5F5F5F5F5F5F5F5F5F5F5F5F5F5F5F5F5F5F5F5F5F5F5F5F5E2F5F5F5F5F5F5F5F5
310
F5F5F5F5F5F5F5F5E2F5F5F5E2E2EFF5F5F5E2F5F5F5F5F5F5F5F5F5F5F5F5F5F5F5F5E2F5F5F5F5F5F5F5F5F5F5F5F5F5F5F5F5F5F5F5F5F5F5F5F5F5F5F5F5F5F5F5F5F5F5F5F5F5F5F5F5F5F5F5F5F5F5F5F5F5F5F5F5F5F5F5F5F5F5F5F5F5F5F5F5F5F5F5F5F5F5F5F5F5F5F5F5F5F5F5F5F5F5F5F5F5F5F5F5F5F5F5
310
F5F5F5F5F5F5F5F5F5F5F5F5F5F5F5F5F5F5F5F5F5F5F5F5F5F5F5F5F5F5F5F5F5F5F5F5F5F5F5F5F5F5F5F5E2F5F5F5F5F5F5F5F5F5F5F5F5F5F5F5F5E2F5F5F5E2E2EFF5F5F5E2F5F5F5F5F5F5F5F5F5F5F5F5F5F5F5F5E2F5F5F5F5F5F5F5F5F5F5F5F5F5F5F5F5F5F5F5F5F5F5F5F5F5F5F5F5F5F5F5F5F5F5F5F5F5F5
310
F5F5F5F5F5F5F5F5F5F5F5F5F5F5F5F5F5F5F5F5F5F5F5F5F5F5F5F5F5F5F5F5F5F5F5F5F5F5F5F5F5F5F5F5F5F5F5F5F5F5F5F5F5F5F5F5F5F5F5F5F5F5F5F5F5F5F5F5F5F5F5F5F5F5F5F5F5F5F5F5F5F5F5F5F5F5F5F5F5F5F5F5F5F5F5F5F5E2F5F5F5F5F5F5F5F5F5F5F5F5F5F5F5F5E2F5F5F5E2E2EFF5F5F5E2F5F5
310
F5F5F5F5F5F5F5F5F5F5F5F5F5F5E2F5F5F5F5F5F5F5F5F5F5F5F5F5F5F5F5F5F5F5F5F5F5F5F5F5F5F5F5F5F5F5F5F5F5F5F5F5F5F5F5F5F5F5F5F5F5F5F5F5F5F5F5F5F5F5F5F5F5F5F5F5F5F5F5F5F5F5F5F5F5F5F5F5F5F5F5F5F5F5F5F5F5F5F5F5F5F5F5F5F5F5F5F5F5F5F5F5F5F5F5F5F5F5F5F5F5F5F5F5F5F5F5
310
F5F5F5F5F5F5F5F5F5F5F5F5F5F5F5F5F5F5F5F5F5F5F5E2F5F5F5F5F5F5F5F5F5F5F5F5F5F5F5F5E2F5F5F5E2E2EFF5F5F5E2F5F5F5F5F5F5F5F5F5F5F5F5F5F5F5F5E2F5F5F5F5F5F5F5F5F5F5F5F5F5F5F5F5F5F5F5F5F5F5F5F5F5F5F5F5F5F5F5F5F5F5F5F5F5F5F5F5F5F5F5F5F5F5F5F5F5F5F5F5F5F5F5F5F5F5F5
310
F5F5F5F5F5F5F5F5F5F5F5F5F5F5F5F5F5F5F5F5F5F5F5F5F5F5F5F5F5F5F5F5F5F5F5F5F5F5F5F5F5F5F5F5F5F5F5F5F5F5F5F5F5F5F5F5F5F5F5F5F5F5F5F5F5F5F5F5F5F5F5F5F5F5F5F5E2F5F5F5F5F5F5F5F5F5F5F5F5F5F5F5F5E2F5F5F5E2E2EFF5F5F5E2F5F5F5F5F5F5F5F5F5F5F5F5F5F5F5F5E2F5F5F5F5F5F5
310
F5F5F5F5F5F5F5F5F5F5F5F5F5F5F5F5F5F5F5F5F5F5F5F5F5F5F5F5F5F5F5F5F5F5F5F5F5F5F5F5F5F5F5F5F5F5F5F5F5F5F5F5F5F5F5F5F5F5F5F5F5F5F5F5F5F5F5F5F5F5F5F5F5F5F5F5F5F5F5F5F5F5F5F5F5F5F5F5F5F5F5F5F5F5F5F5F5F5F5F5F5F5F5F5F5F5F5F5F5F5F5F5F5F5F5F5F5F5F5F5F5F5F5F5F5F5F5
310
F5F5E2F5F5F5F5F5F5F5F5F5F5F5F5F5F5F5F5E2F5F5F5E2E2EFF5F5F5F5F5F5F5F5F5F5F5F5F5F5F5F5F5F5F5F5E2F5F5F5F5F5F5F5F5F5F5F5F5F5F5F5F5F5F5F5F5F5F5F5F5F5F5F5F5F5F5F5F5F5F5F5F5F5F5F5F5F5F5F5F5F5F5F5F5F5F5F5F5F5F5F5F5F5F5F5F5F5F5F5F5F5F5F5F5F5F5F5F5F5F5F5F5F5F5F5F5
310
F5F5F5F5F5F5F5F5F5F5F5F5F5F5F5F5F5F5F5F5F5F5F5F5F5F5F5F5F5F5F5F5F5F5F5F5F5F5F5F5F5F5F5F5F5F5F5F5F5F5F5F5F5F5F5E2F5F5F5F5F5F5F5F5F5F5F5F5F5F5F5F5F5F5F5F5E2E2EFF5F5F5F5F5F5F5F5F5F5F5F5F5F5F5F5F5F5F5F5E2F5F5F5F5F5F5F5F5F5F5F5F5F5F5F5F5F5F5F5F5F5F5F5F5F5F5F5
310
F5F5F5F5F5F5F5F5F5F5F5F5F5F5F5F5F5F5F5F5F5F5F5F5F5F5F5F5F5F5F5F5F5F5F5F5F5F5F5F5F5F5F5F5F5F5F5F5F5F5F5F5F5F5F5F5F5F5F5F5F5F5F5F5F5F5F5F5F5F5F5F5F5F5F5F5F5F5F5F5F5F5F5F5F5F5F5F5F5F5F5F5F5F5F5F5F5F5F5F5F5F5F5F5F5F5F5F5E2F5F5F5F5F5F5F5F5F5F5F5F5F5F5F5F5F5F5
310
F5F5E2E2EFF5F5F5F5F5F5F5F5F5F5F5F5F5F5F5F5F5F5F5F5E2F5F5F5F5F5F5F5F5F5F5F5F5F5F5F5F5F5F5F5F5F5F5F5F5F5F5F5F5F5F5F5F5F5F5F5F5F5F5F5F5F5F5F5F5F5F5F5F5F5F5F5F5F5F5F5F5F5F5F5F5F5F5F5F5F5F5F5F5F5F5F5F5F5F5F5F5F5F5F5F5F5F5F5F5F5F5F5F5F5F5F5F5F5F5F5F5F5F5F5F5F5
310
F5F5F5F5F5F5F5F5F5F5F5F5F5F5F5F5F5F5F5F5F5F5F5F5F5F5F5F5F5F5F5F5F5F5E2F5F5F5F5F5F5F5F5F5F5F5F5F5F5F5F5F5F5F5F5E2E2EFF5F5F5F5F5F5F5F5F5F5F5F5F5F5F5F5F5F5F5F5E2F5F5F5F5F5F5F5F5F5F5F5F5F5F5F5F5F5F5F5F5F5F5F5F5F5F5F5F5F5F5F5F5F5F5F5F5F5F5F5F5F5F5F5F5F5F5F5F5
310
F5F5F5F5F5F5F5F5F5F5F5F5F5F5F5F5F5F5F5F5F5F5F5F5F5F5F5F5F5F5F5F5F5F5F5F5F5F5F5F5F5F5F5F5F5F5F5F5F5F5F5F5F5F5F5F5F5F5F5F5F5F5F5F5F5F5F5F5F5F5F5F5F5F5F5F5F5F5F5F5F5F5F5F5F5F5F5E2F5F5F5F5F5F5F5F5F5F5F5F5F5F5F5F5F5F5F5F5E2E2EFF5F5F5F5F5F5F5F5F5F5F5F5F5F5F5F5
310
F5F5F5F5E2E2E2E2E2E2E2E2E2E2E2E2E2E2E2E2E2E2E2E2E2E2E2E2E2E2E2E2E2E2E2E2E2E2E2E2E2E2E2E2E2E2E2E2E2E2E2E2E2E2E2E2E2E2E2E2E2E2E2E2E2E2E2E2E2E2E2E2E2E2E2E2E2E2E2E2E2E2E2E2E2E2E2E2E2E2E2E2E2E2E2E2E2E2E2E2E2E2E2E2E2E2E2E2E2E2E2E2E2E2E2E2E2E2E2E2E2E2E2E2E2E2E2
310
E2E2E2E2E2E2E2E2E2E2E2E2E2E2F5F5F5F5F5F5F5F5F5F5F5F5F5F5F5F5F5F5F5F5E2E2EFF5F5F5F5F5F5F5F5F5F5F5F5F5F5F5F5F5F5F5F5F5F5F5F5F5F5F5F5F5F5F5F5F5F5F5F5F5F5F5F5F5F5F5F5F5F5F5F5F5F5F5F5F5F5F5F5F5F5F5F5F5F5F5F5F5F5F5F5F5F5F5F5F5F5F5F5F5F5F5F5F5F5F5F5F5F5F5F5F5F5
310
F5F5F5F5F5F5F5F5F5F5F5F5F5F5F5F5F5F5F5F5F5F5F5F5F5F5F5F5F5F5F5F5F5F5F5F5F5F5F5F5F5F5F5F5F5F5F5F5F5F5F5F5F5F5F5F5F5F5F5F5F5F5F5F5F5F5F5F5F5F5F5F5F5F5F5F5F5F5F5F5F5F5F5F5F5F5F5E2E2EFF5F5F5F5F5F5F5F5F5F5F5F5F5F5F5F5F5F5F5F5F5F5F5F5F5F5F5F5F5F5F5F5F5F5F5F5F5
310
F5F5F5F5F5F5F5F5F5F5F5F5F5F5F5F5F5F5F5F5F5F5F5F5F5F5F5F5F5F5F5F5F5F5F5F5F5F5F5F5F5F5F5F5F5F5F5F5F5F5F5F5F5F5F5F5F5F5F5F5F5F5F5F5F5F5F5F5F5F5F5F5F5F5F5F5F5F5F5F5F5F5F5F5F5F5F5F5F5F5F5F5F5F5F5F5F5F5F5F5F5F5F5F5F5F5F5F5F5F5F5F5F5F5F5F5F5F5F5F5F5F5F5F5F5F5F5
310
F5F5F5F5F5F5F5F5F5F5F5F5F5E2E2EFF5F5F5F5F5F5F5F5F5F5F5F5F5F5F5F5F5F5F5F5F5F5F5F5F5F5F5F5F5F5F5F5F5F5F5F5F5F5F5F5F5F5F5F5F5F5F5F5F5F5F5F5F5F5F5F5F5F5F5F5F5F5F5F5F5F5F5F5F5F5F5F5F5F5F5F5F5F5F5F5F5F5F5F5F5F5F5F5F5F5F5F5F5F5F5F5F5F5F5F5F5F5F5F5F5F5F5F5F5F5F5
310
F5F5F5F5F5F5F5F5F5F5F5F5F5F5F5F5F5F5F5F5F5F5F5F5F5F5F5F5F5F5F5F5F5F5F5F5F5F5F5F5F5F5F5F5F5F5F5F5F5F5F5F5F5F5F5F5F5F5F5F5F5F5F5F5F5F5E2E2EFF5F5F5F5F5F5F5F5F5F5F5F5F5F5F5F5F5F5F5F5F5F5F5F5F5F5F5F5F5F5F5F5F5F5F5F5F5F5F5F5F5F5F5F5F5F5F5F5F5F5F5F5F5F5F5F5F5F5
310
F5F5F5F5F5F5F5F5F5F5F5F5F5F5F5F5F5F5F5F5F5F5F5F5F5F5F5F5F5F5F5F5F5F5F5F5F5F5F5F5F5F5F5F5F5F5F5F5F5F5F5F5F5F5F5F5F5F5F5F5F5F5F5F5F5F5F5F5F5F5F5F5F5F5F5F5F5F5F5F5F5F5F5F5F5F5F5F5F5F5F5F5F5F5F5F5F5F5F5F5F5F5F5F5F5F5F5F5F5F5F5F5F5F5F5F5F5F5F5E2E2EFF5F5F5E2F5
310
F5F5F5F5F5F5F5F5F5F5F5F5F5F5F5F5F5F5F5F5F5F5F5F5F5F5F5F5F5F5F5F5F5F5F5F5F5F5F5F5F5F5F5F5F5F5F5F5F5F5F5F5F5F5F5F5F5F5F5F5F5F5F5F5F5F5F5F5F5F5F5F5F5F5F5F5F5F5F5F5F5F5F5F5F5F5F5F5F5F5F5F5F5F5F5F5F5F5F5F5F5F5F5F5F5F5F5F5F5F5F5F5F5F5F5F5F5F5F5F5F5F5F5F5F5F5F5
310
F5F5F5F5F5F5F5F5F5F5F5F5F5F5F5F5F5F5F5F5F5F5F5F5F5F5F5F5F5F5F5F5F5F5F5F5F5F5F5F5F5E2F5F5F5E2E2EFF5F5F5E2F5F5F5F5F5F5F5F5F5F5F5F5F5F5F5F5F5F5F5F5F5F5F5F5F5F5F5F5F5F5F5F5F5F5F5F5F5F5F5F5F5F5F5F5F5F5F5F5F5F5F5F5F5F5F5F5F5F5F5F5F5F5F5F5F5F5F5F5F5F5F5F5F5F5F5
310
F5F5F5F5F5F5F5F5F5F5F5F5F5F5F5F5F5F5F5F5F5F5F5F5F5F5F5F5F5F5F5F5F5F5F5F5F5F5F5F5F5F5F5F5F5F5F5F5F5F5F5F5F5F5F5F5F5F5F5F5F5F5F5F5F5F5F5F5F5F5F5F5F5F5F5F5F5F5F5F5F5F5F5F5F5F5F5F5F5F5F5F5F5F5E2F5F5F5E2E2EFF5F5F5E2F5F5F5F5F5F5F5F5F5F5F5F5F5F5F5F5F5F5F5F5F5F5
310
F5F5F5F5F5F5F5F5F5F5F5F5F5F5F5F5F5F5F5F5F5F5F5F5F5F5F5F5F5F5F5F5F5F5F5F5F5F5F5F5F5F5F5F5F5F5F5F5F5F5F5F5F5F5F5F5F5F5F5F5F5F5F5F5F5F5F5F5F5F5F5F5F5F5F5F5F5F5F5F5F5F5F5F5F5F5F5F5F5F5F5F5F5F5F5F5F5F5F5F5F5F5F5F5F5F5F5F5F5F5F5F5F5F5F5F5F5F5F5F5F5F5F5F5F5F5F5
310
F5F5F5F5F5F5F5F5F5F5F5F5F5F5F5F5F5F5F5F5E2F5F5F5E2E2EFF5F5F5E2F5F5F5F5F5F5F5F5F5F5F5F5F5F5F5F5F5F5F5F5F5F5F5F5F5F5F5F5F5F5F5F5F5F5F5F5F5F5F5F5F5F5F5F5F5F5F5F5F5F5F5F5F5F5F5F5F5F5F5F5F5F5F5F5F5F5F5F5F5F5F5F5F5F5F5F5F5F5F5F5F5F5F5F5F5F5F5F5F5F5F5F5F5F5F5F5
310
F5F5F5F5F5F5F5F5F5F5F5F5F5F5F5F5F5F5F5F5F5F5F5F5F5F5F5F5F5F5F5F5F5F5F5F5F5F5F5F5F5F5F5F5F5F5F5F5F5F5F5F5F5F5F5F5F5F5F5F5F5F5F5F5F5F5F5F5F5F5F5F5F5E2F5F5F5E2E2EFF5F5F5E2F5F5F5F5F5F5F5F5F5F5F5F5F5F5F5F5F5F5F5F5F5F5F5F5F5F5F5F5F5F5F5F5F5F5F5F5F5F5F5F5F5F5F5
310
F5F5F5F5F5F5F5F5F5F5F5F5F5F5F5F5F5F5F5F5F5F5F5F5F5F5F5F5F5F5F5F5F5F5F5F5F5F5F5F5F5F5F5F5F5F5F5F5F5F5F5F5F5F5F5F5F5F5F5F5F5F5F5F5F5F5F5F5F5F5F5F5F5F5F5F5F5F5F5F5F5F5F5F5F5F5F5F5F5F5F5F5F5F5F5F5F5F5F5F5F5F5F5F5F5F5F5F5F5F5F5F5F5F5F5F5F5F5F5F5F5F5F5F5F5F5E2
310
F5F5F5E2E2EFF5F5F5E2F5F5F5F5F5F5F5F5F5F5F5F5F5F5F5F5F5F5F5F5F5F5F5F5F5F5F5F5F5F5F5F5F5F5F5F5F5F5F5F5F5F5F5F5F5F5F5F5F5F5F5F5F5F5F5F5F5F5F5F5F5F5F5F5F5F5F5F5F5F5F5F5F5F5F5F5F5F5F5F5F5F5F5F5F5F5F5F5F5F5F5F5F5F5F5F5F5F5F5F5F5F5F5F5F5F5F5F5F5F5F5F5F5F5F5F5F5
310
F5F5F5F5F5F5F5F5F5F5F5F5F5F5F5F5F5F5F5F5F5F5F5F5F5F5F5F5F5F5F5F5F5F5F5F5F5F5F5F5F5F5F5F5F5F5F5F5F5F5F5F5E2F5F5F5E2E2EFF5F5F5E2F5F5F5F5F5F5F5F5F5F5F5F5F5F5F5F5F5F5F5F5F5F5F5F5F5F5F5F5F5F5F5F5F5F5F5F5F5F5F5F5F5F5F5F5F5F5F5F5F5F5F5F5F5F5F5F5F5F5F5F5F5F5F5F5
310
F5F5F5F5F5F5F5F5F5F5F5F5F5F5F5F5F5F5F5F5F5F5F5F5F5F5F5F5F5F5F5F5F5F5F5F5F5F5F5F5F5F5F5F5F5F5F5F5F5F5F5F5F5F5F5F5F5F5F5F5F5F5F5F5F5F5F5F5F5F5F5F5F5F5F5F5F5F5F5F5F5F5F5F5F5F5F5F5F5F5F5F5F5F5F5F5F5F5F5F5F5F5F5F5F5E2F5F5F5E2E2EFF5F5F5E2F5F5F5F5F5F5F5F5F5F5F5
310
F5F5F5F5F5F5F5F5F5F5F5F5F5F5F5F5F5F5F5F5F5F5F5F5F5F5F5F5F5F5F5F5F5F5F5F5F5F5F5F5F5F5F5F5F5F5F5F5F5F5F5F5F5F5F5F5F5F5F5F5F5F5F5F5F5F5F5F5F5F5F5F5F5F5F5F5F5F5F5F5F5F5F5F5F5F5F5F5F5F5F5F5F5F5F5F5F5F5F5F5F5F5F5F5F5F5F5F5F5F5F5F5F5F5F5F5F5F5F5F5F5F5F5F5F5F5F5
310
F5F5F5F5F5F5F5F5F5F5F5F5F5F5F5F5F5F5F5F5F5F5F5F5F5F5F5F5F5F5F5E2F5F5F5E2E2EFF5F5F5E2E2E2E2E2E2E2E2F5F5F5F5F5F5F5F5F5E2E2E2E2E2E2E2E2E2E2E2E2E2E2E2E2F5F5F5F5F5F5F5F5E2E2E2E2E2E2E2E2E2E2E2E2E2E2E2E2F5F5F5F5F5F5F5F5F5E2E2E2E2E2E2E2E2E2E2E2E2E2E2E2F5F5F5F5F5
310
F5F5F5F5E2E2E2E2E2E2E2E2E2E2E2E2E2E2E2F5F5F5F5F5F5F5F5F5E2E2E2E2E2E2E2E2E2E2E2E2E2E2E2E2F5F5F5F5F5F5F5F5E2E2E2E2E2E2E2E2E2E2E2E2E2E2E2E2F5F5F5F5F5F5F5F5F5E2E2E2E2E2E2E2E2F5F5F5E2E2EFF5F5F5F5F5F5F5F5F5F5F5F5F5F5F5F5F5F5F5F5F5F5F5F5F5F5F5F5F5F5F5F5F5F5F5F5
310
F5F5F5F5F5F5F5F5F5F5F5F5F5F5F5F5F5F5F5F5F5F5F5F5F5F5F5F5F5F5F5F5F5F5F5F5F5F5F5F5F5F5F5F5F5F5F5F5F5F5F5F5F5F5F5F5F5F5F5F5F5F5F5F5F5F5F5F5F5F5F5F5F5F5F5F5F5F5F5F5F5F5F5F5F5F5F5F5F5F5F5F5F5F5F5F5F5F5F5F5F5F5F5F5F5F5F5F5F5F5F5F5F5F5F5F5F5F5F5F5F5F5F5F5F5F5F5
310
F5F5F5F5F5F5F5F5F5F5F5F5F5F5E2E2EFF5F5F5F5F5F5F5F5F5F5F5F5F5F5F5F5F5F5F5F5F5F5F5F5F5F5F5F5F5F5F5F5F5F5F5F5F5F5F5F5F5F5F5F5F5F5F5F5F5F5F5F5F5F5F5F5F5F5F5F5F5F5F5F5F5F5F5F5F5F5F5F5F5F5F5F5F5F5F5F5F5F5F5F5F5F5F5F5F5F5F5F5F5F5F5F5F5F5F5F5F5F5F5F5F5F5F5F5F5F5
310
F5F5F5F5F5F5F5F5F5F5F5F5F5F5F5F5F5F5F5F5F5F5F5F5F5F5F5F5F5F5F5F5F5F5F5F5F5F5F5F5F5F5F5F5F5F5F5F5F5F5F5F5F5F5F5F5F5F5F5F5F5F5F5F5F5F5F5E2EFEFF5F5F5F5F5F5F5F5F5F5F5F5F5F5F5F5F5F5F5F5F5F5F5F5F5F5F5F5F5F5F5F5F5F5F5F5F5F5F5F5F5F5F5F5F5F5F5F5F5F5F5F5F5F5F5F5F5
310
F5F5F5F5F5F5F5F5F5F5F5F5F5F5F5F5F5F5F5F5F5F5F5F5F5F5F5F5F5F5F5F5F5F5F5F5F5F5F5F5F5F5F5F5F5F5F5F5F5F5F5F5F5F5F5F5F5F5F5F5F5F5F5F5F5F5F5F5F5F5F5F5F5F5F5F5F5F5F5F5F5F5F5F5F5F5F5F5F5F5F5F5F5F5F5F5F5F5F5F5F5F5F5F5F5F5F5F5F5F5F5F5F5F5F5F5F5F5F5F5E2EFEFE2E2E2E2
310
E2E2E2E2E2E2E2E2E2E2E2E2E2E2E2E2E2E2E2E2E2E2E2E2E2E2E2E2E2E2E2E2E2E2E2E2E2E2E2E2E2E2E2E2E2E2E2E2E2E2E2E2E2E2E2E2E2E2E2E2E2E2E2E2E2E2E2E2E2E2E2E2E2E2E2E2E2E2E2E2E2E2E2E2E2E2E2E2E2E2E2E2E2E2E2E2E2E2E2E2E2E2E2E2E2E2E2E2E2E2E2E2E2E2E2E2E2E2E2E2E2E2E2E2E2E2E2
310
E2E2E2E2E2E2E2E2E2E2E2E2E2E2E2E2E2E2E2E2E2E2E2E2E2E2E2E2E2E2E2E2E2E2E2E2E2E2E2E2E2E2E2E2E2E2E2EFEF
  0
ENDSEC
  0
EOF
