  0
SECTION
  2
HEADER
  9
$ACADVER
  1
AC1018
  9
$ACADMAINTVER
 70
     0
  9
$DWGCODEPAGE
  3
ANSI_1252
  9
$AUTHOR
  1
g6edxjah
  9
$LASTSAVEDBY
  1
g6edxjah
  9
$INSBASE
 10
0.0
 20
0.0
 30
0.0
  9
$EXTMIN
 10
11.043458
 20
-13.581542
 30
0.0
  9
$EXTMAX
 10
19.456542
 20
-2.418458
 30
0.0
  9
$LIMMIN
 10
-12.706709
 20
-35.956709
  9
$LIMMAX
 10
43.206709
 20
19.956709
  9
$ORTHOMODE
 70
     0
  9
$REGENMODE
 70
     1
  9
$FILLMODE
 70
     1
  9
$QTEXTMODE
 70
     0
  9
$MIRRTEXT
 70
     0
  9
$LTSCALE
 40
1.0
  9
$ATTMODE
 70
     1
  9
$TEXTSIZE
 40
0.140396
  9
$TRACEWID
 40
0.05
  9
$TEXTSTYLE
  7
Standard
  9
$CLAYER
  8
REF
  9
$CELTYPE
  6
Continuous
  9
$CECOLOR
 62
     7
  9
$CELTSCALE
 40
1.0
  9
$DISPSILH
 70
     0
  9
$DIMSCALE
 40
1.0
  9
$DIMASZ
 40
0.140396
  9
$DIMEXO
 40
0.070198
  9
$DIMDLI
 40
0.0
  9
$DIMRND
 40
0.0
  9
$DIMDLE
 40
0.0
  9
$DIMEXE
 40
0.070198
  9
$DIMTP
 40
0.0
  9
$DIMTM
 40
0.0
  9
$DIMTXT
 40
0.140396
  9
$DIMCEN
 40
0.09
  9
$DIMTSZ
 40
0.0
  9
$DIMTOL
 70
     0
  9
$DIMLIM
 70
     0
  9
$DIMTIH
 70
     0
  9
$DIMTOH
 70
     0
  9
$DIMSE1
 70
     0
  9
$DIMSE2
 70
     0
  9
$DIMTAD
 70
     1
  9
$DIMZIN
 70
    11
  9
$DIMBLK
  1
TerminatorOpen_0.5
  9
$DIMASO
 70
     1
  9
$DIMSHO
 70
     1
  9
$DIMPOST
  1

  9
$DIMAPOST
  1

  9
$DIMALT
 70
     0
  9
$DIMALTD
 70
     4
  9
$DIMALTF
 40
25.4
  9
$DIMLFAC
 40
1.0
  9
$DIMTOFL
 70
     0
  9
$DIMTVP
 40
0.0
  9
$DIMTIX
 70
     0
  9
$DIMSOXD
 70
     0
  9
$DIMSAH
 70
     0
  9
$DIMBLK1
  1

  9
$DIMBLK2
  1

  9
$DIMSTYLE
  2
Standard
  9
$DIMCLRD
 70
     0
  9
$DIMCLRE
 70
     0
  9
$DIMCLRT
 70
     0
  9
$DIMTFAC
 40
1.0
  9
$DIMGAP
 40
0.070198
  9
$DIMJUST
 70
     0
  9
$DIMSD1
 70
     0
  9
$DIMSD2
 70
     0
  9
$DIMTOLJ
 70
     0
  9
$DIMTZIN
 70
    11
  9
$DIMALTZ
 70
    15
  9
$DIMALTTZ
 70
    15
  9
$DIMUPT
 70
     0
  9
$DIMDEC
 70
     4
  9
$DIMTDEC
 70
     4
  9
$DIMALTU
 70
     2
  9
$DIMALTTD
 70
     4
  9
$DIMTXSTY
  7
Style-Arial
  9
$DIMAUNIT
 70
     0
  9
$DIMADEC
 70
     4
  9
$DIMALTRND
 40
0.0
  9
$DIMAZIN
 70
     3
  9
$DIMDSEP
 70
    46
  9
$DIMATFIT
 70
     1
  9
$DIMFRAC
 70
     0
  9
$DIMLDRBLK
  1
TerminatorOpen_0.5
  9
$DIMLUNIT
 70
     2
  9
$DIMLWD
 70
    -2
  9
$DIMLWE
 70
    -2
  9
$DIMTMOVE
 70
     0
  9
$LUNITS
 70
     2
  9
$LUPREC
 70
     4
  9
$SKETCHINC
 40
0.1
  9
$FILLETRAD
 40
0.0
  9
$AUNITS
 70
     0
  9
$AUPREC
 70
     4
  9
$MENU
  1
.
  9
$ELEVATION
 40
0.0
  9
$PELEVATION
 40
0.0
  9
$THICKNESS
 40
0.0
  9
$LIMCHECK
 70
     0
  9
$CHAMFERA
 40
0.0
  9
$CHAMFERB
 40
0.0
  9
$CHAMFERC
 40
0.0
  9
$CHAMFERD
 40
0.0
  9
$SKPOLY
 70
     0
  9
$TDCREATE
 40
2455344.593677708
  9
$TDUCREATE
 40
2455344.802011041
  9
$TDUPDATE
 40
2455344.593677708
  9
$TDUUPDATE
 40
2455344.802011041
  9
$TDINDWG
 40
0.0
  9
$TDUSRTIMER
 40
0.0006630093
  9
$USRTIMER
 70
     1
  9
$ANGBASE
 50
0.0
  9
$ANGDIR
 70
     0
  9
$PDMODE
 70
     0
  9
$PDSIZE
 40
0.0
  9
$PLINEWID
 40
0.0
  9
$SPLFRAME
 70
     0
  9
$SPLINETYPE
 70
     6
  9
$SPLINESEGS
 70
     8
  9
$HANDSEED
  5
632
  9
$SURFTAB1
 70
     6
  9
$SURFTAB2
 70
     6
  9
$SURFTYPE
 70
     6
  9
$SURFU
 70
     6
  9
$SURFV
 70
     6
  9
$UCSBASE
  2

  9
$UCSNAME
  2

  9
$UCSORG
 10
0.0
 20
0.0
 30
0.0
  9
$UCSXDIR
 10
1.0
 20
0.0
 30
0.0
  9
$UCSYDIR
 10
0.0
 20
1.0
 30
0.0
  9
$UCSORTHOREF
  2

  9
$UCSORTHOVIEW
 70
     0
  9
$UCSORGTOP
 10
0.0
 20
0.0
 30
0.0
  9
$UCSORGBOTTOM
 10
0.0
 20
0.0
 30
0.0
  9
$UCSORGLEFT
 10
0.0
 20
0.0
 30
0.0
  9
$UCSORGRIGHT
 10
0.0
 20
0.0
 30
0.0
  9
$UCSORGFRONT
 10
0.0
 20
0.0
 30
0.0
  9
$UCSORGBACK
 10
0.0
 20
0.0
 30
0.0
  9
$PUCSBASE
  2

  9
$PUCSNAME
  2

  9
$PUCSORG
 10
0.0
 20
0.0
 30
0.0
  9
$PUCSXDIR
 10
1.0
 20
0.0
 30
0.0
  9
$PUCSYDIR
 10
0.0
 20
1.0
 30
0.0
  9
$PUCSORTHOREF
  2

  9
$PUCSORTHOVIEW
 70
     0
  9
$PUCSORGTOP
 10
0.0
 20
0.0
 30
0.0
  9
$PUCSORGBOTTOM
 10
0.0
 20
0.0
 30
0.0
  9
$PUCSORGLEFT
 10
0.0
 20
0.0
 30
0.0
  9
$PUCSORGRIGHT
 10
0.0
 20
0.0
 30
0.0
  9
$PUCSORGFRONT
 10
0.0
 20
0.0
 30
0.0
  9
$PUCSORGBACK
 10
0.0
 20
0.0
 30
0.0
  9
$USERI1
 70
     0
  9
$USERI2
 70
     0
  9
$USERI3
 70
     0
  9
$USERI4
 70
     0
  9
$USERI5
 70
     0
  9
$USERR1
 40
0.0
  9
$USERR2
 40
0.0
  9
$USERR3
 40
0.0
  9
$USERR4
 40
0.0
  9
$USERR5
 40
0.0
  9
$WORLDVIEW
 70
     1
  9
$SHADEDGE
 70
     3
  9
$SHADEDIF
 70
    70
  9
$TILEMODE
 70
     1
  9
$MAXACTVP
 70
    64
  9
$PINSBASE
 10
0.0
 20
0.0
 30
0.0
  9
$PLIMCHECK
 70
     0
  9
$PEXTMIN
 10
1.049744
 20
0.799667
 30
-0.001526
  9
$PEXTMAX
 10
9.450623
 20
7.200577
 30
0.0
  9
$PLIMMIN
 10
-0.25
 20
-0.25
  9
$PLIMMAX
 10
10.75
 20
8.25
  9
$UNITMODE
 70
     0
  9
$VISRETAIN
 70
     1
  9
$PLINEGEN
 70
     0
  9
$PSLTSCALE
 70
     0
  9
$TREEDEPTH
 70
  3020
  9
$CMLSTYLE
  2
Standard
  9
$CMLJUST
 70
     0
  9
$CMLSCALE
 40
1.0
  9
$PROXYGRAPHICS
 70
     1
  9
$MEASUREMENT
 70
     0
  9
$CELWEIGHT
370
    13
  9
$ENDCAPS
280
     0
  9
$JOINSTYLE
280
     0
  9
$LWDISPLAY
290
     1
  9
$INSUNITS
 70
     2
  9
$HYPERLINKBASE
  1

  9
$STYLESHEET
  1

  9
$XEDIT
290
     1
  9
$CEPSNTYPE
380
     0
  9
$PSTYLEMODE
290
     1
  9
$FINGERPRINTGUID
  2
{02C0BBB5-38A7-4FBF-829E-00875EC88963}
  9
$VERSIONGUID
  2
{82C521FC-BF81-46B3-825E-420B6BD93A99}
  9
$EXTNAMES
290
     1
  9
$PSVPSCALE
 40
0.0
  9
$OLESTARTUP
290
     0
  9
$SORTENTS
280
   127
  9
$INDEXCTL
280
     0
  9
$HIDETEXT
280
     1
  9
$XCLIPFRAME
290
     0
  9
$HALOGAP
280
     0
  9
$OBSCOLOR
 70
   257
  9
$OBSLTYPE
280
     0
  9
$INTERSECTIONDISPLAY
280
     0
  9
$INTERSECTIONCOLOR
 70
   257
  9
$DIMASSOC
280
     1
  9
$PROJECTNAME
  1

  0
ENDSEC
  0
SECTION
  2
CLASSES
  0
CLASS
  1
ACDBDICTIONARYWDFLT
  2
AcDbDictionaryWithDefault
  3
ObjectDBX Classes
 90
        0
 91
        3
280
     0
281
     0
  0
CLASS
  1
SORTENTSTABLE
  2
AcDbSortentsTable
  3
ObjectDBX Classes
 90
        0
 91
        3
280
     0
281
     0
  0
ENDSEC
  0
SECTION
  2
TABLES
  0
TABLE
  2
VPORT
  5
609
330
0
100
AcDbSymbolTable
 70
     4
  0
VPORT
  5
49
330
609
100
AcDbSymbolTableRecord
100
AcDbViewportTableRecord
  2
*ACTIVE
 70
     0
 10
0.0
 20
0.0
 11
1.0
 21
1.0
 12
15.25
 22
-8.0
 13
0.0
 23
0.0
 14
0.083333
 24
0.083333
 15
0.083333
 25
0.083333
 16
0.0
 26
0.0
 36
1.0
 17
0.0
 27
0.0
 37
0.0
 40
11.609607
 41
1.884937
 42
50.0
 43
0.0
 44
0.0
 50
0.0
 51
0.0
 71
     0
 72
   100
 73
     1
 74
     2
 75
     0
 76
     0
 77
     0
 78
     1
281
     0
 65
     1
110
0.0
120
0.0
130
0.0
111
1.0
121
0.0
131
0.0
112
0.0
122
1.0
132
0.0
 79
     0
146
0.0
  0
ENDTAB
  0
TABLE
  2
LTYPE
  5
5F0
330
0
100
AcDbSymbolTable
 70
     1
  0
LTYPE
  5
5F1
330
5F0
100
AcDbSymbolTableRecord
100
AcDbLinetypeTableRecord
  2
ByBlock
 70
     0
  3

 72
    65
 73
     0
 40
0.0
  0
LTYPE
  5
5F2
330
5F0
100
AcDbSymbolTableRecord
100
AcDbLinetypeTableRecord
  2
ByLayer
 70
     0
  3

 72
    65
 73
     0
 40
0.0
  0
LTYPE
  5
5EF
330
5F0
100
AcDbSymbolTableRecord
100
AcDbLinetypeTableRecord
  2
Continuous
 70
     0
  3
Solid line
 72
    65
 73
     0
 40
0.0
  0
ENDTAB
  0
TABLE
  2
LAYER
  5
5E9
102
{ACAD_XDICTIONARY
360
5EA
102
}
330
0
100
AcDbSymbolTable
 70
    64
  0
LAYER
  5
5E8
330
5E9
100
AcDbSymbolTableRecord
100
AcDbLayerTableRecord
  2
0
 70
     0
 62
     7
  6
Continuous
370
    -3
390
5EC
  0
LAYER
  5
7
330
5E9
100
AcDbSymbolTableRecord
100
AcDbLayerTableRecord
  2
Level 1
 70
     0
 62
     7
  6
Continuous
370
     0
390
5EC
  0
LAYER
  5
8
330
5E9
100
AcDbSymbolTableRecord
100
AcDbLayerTableRecord
  2
2-19I
 70
     0
 62
     7
  6
Continuous
370
     0
390
5EC
1001
AcAecLayerStandard
1000

1000
2-19I
  0
LAYER
  5
9
330
5E9
100
AcDbSymbolTableRecord
100
AcDbLayerTableRecord
  2
DEFPOINTS
 70
     0
 62
     7
  6
Continuous
290
     0
370
     0
390
5EC
1001
AcAecLayerStandard
1000

1000
DEFPOINTS
  0
LAYER
  5
A
330
5E9
100
AcDbSymbolTableRecord
100
AcDbLayerTableRecord
  2
DIM
 70
     0
 62
     7
  6
Continuous
370
     0
390
5EC
1001
AcAecLayerStandard
1000

1000
DIM
  0
LAYER
  5
B
330
5E9
100
AcDbSymbolTableRecord
100
AcDbLayerTableRecord
  2
REF
 70
     0
 62
     7
  6
Continuous
370
     0
390
5EC
1001
AcAecLayerStandard
1000

1000
REF
  0
LAYER
  5
C
330
5E9
100
AcDbSymbolTableRecord
100
AcDbLayerTableRecord
  2
NOTES
 70
     0
 62
     7
  6
Continuous
370
     0
390
5EC
1001
AcAecLayerStandard
1000

1000
NOTES
  0
LAYER
  5
D
330
5E9
100
AcDbSymbolTableRecord
100
AcDbLayerTableRecord
  2
TITLE
 70
     0
 62
     7
  6
Continuous
370
     0
390
5EC
1001
AcAecLayerStandard
1000

1000
TITLE
  0
LAYER
  5
E
330
5E9
100
AcDbSymbolTableRecord
100
AcDbLayerTableRecord
  2
Level 8
 70
     0
 62
     7
  6
Continuous
370
     0
390
5EC
  0
LAYER
  5
F
330
5E9
100
AcDbSymbolTableRecord
100
AcDbLayerTableRecord
  2
Level 9
 70
     0
 62
     7
  6
Continuous
370
     0
390
5EC
  0
LAYER
  5
10
330
5E9
100
AcDbSymbolTableRecord
100
AcDbLayerTableRecord
  2
Level 10
 70
     0
 62
     7
  6
Continuous
370
     0
390
5EC
  0
LAYER
  5
11
330
5E9
100
AcDbSymbolTableRecord
100
AcDbLayerTableRecord
  2
Level 11
 70
     0
 62
     7
  6
Continuous
370
     0
390
5EC
  0
LAYER
  5
12
330
5E9
100
AcDbSymbolTableRecord
100
AcDbLayerTableRecord
  2
Level 12
 70
     0
 62
     7
  6
Continuous
370
     0
390
5EC
  0
LAYER
  5
13
330
5E9
100
AcDbSymbolTableRecord
100
AcDbLayerTableRecord
  2
Level 13
 70
     0
 62
     7
  6
Continuous
370
     0
390
5EC
  0
LAYER
  5
14
330
5E9
100
AcDbSymbolTableRecord
100
AcDbLayerTableRecord
  2
Level 14
 70
     0
 62
     7
  6
Continuous
370
     0
390
5EC
  0
LAYER
  5
15
330
5E9
100
AcDbSymbolTableRecord
100
AcDbLayerTableRecord
  2
Level 15
 70
     0
 62
     7
  6
Continuous
370
     0
390
5EC
  0
LAYER
  5
16
330
5E9
100
AcDbSymbolTableRecord
100
AcDbLayerTableRecord
  2
Level 16
 70
     0
 62
     7
  6
Continuous
370
     0
390
5EC
  0
LAYER
  5
17
330
5E9
100
AcDbSymbolTableRecord
100
AcDbLayerTableRecord
  2
Level 17
 70
     0
 62
     7
  6
Continuous
370
     0
390
5EC
  0
LAYER
  5
18
330
5E9
100
AcDbSymbolTableRecord
100
AcDbLayerTableRecord
  2
Level 18
 70
     0
 62
     7
  6
Continuous
370
     0
390
5EC
  0
LAYER
  5
19
330
5E9
100
AcDbSymbolTableRecord
100
AcDbLayerTableRecord
  2
Level 19
 70
     0
 62
     7
  6
Continuous
370
     0
390
5EC
  0
LAYER
  5
1A
330
5E9
100
AcDbSymbolTableRecord
100
AcDbLayerTableRecord
  2
Level 20
 70
     0
 62
     7
  6
Continuous
370
     0
390
5EC
  0
LAYER
  5
1B
330
5E9
100
AcDbSymbolTableRecord
100
AcDbLayerTableRecord
  2
Level 21
 70
     0
 62
     7
  6
Continuous
370
     0
390
5EC
  0
LAYER
  5
1C
330
5E9
100
AcDbSymbolTableRecord
100
AcDbLayerTableRecord
  2
Level 22
 70
     0
 62
     7
  6
Continuous
370
     0
390
5EC
  0
LAYER
  5
1D
330
5E9
100
AcDbSymbolTableRecord
100
AcDbLayerTableRecord
  2
Level 23
 70
     0
 62
     7
  6
Continuous
370
     0
390
5EC
  0
LAYER
  5
1E
330
5E9
100
AcDbSymbolTableRecord
100
AcDbLayerTableRecord
  2
Level 24
 70
     0
 62
     7
  6
Continuous
370
     0
390
5EC
  0
LAYER
  5
1F
330
5E9
100
AcDbSymbolTableRecord
100
AcDbLayerTableRecord
  2
Level 25
 70
     0
 62
     7
  6
Continuous
370
     0
390
5EC
  0
LAYER
  5
20
330
5E9
100
AcDbSymbolTableRecord
100
AcDbLayerTableRecord
  2
Level 26
 70
     0
 62
     7
  6
Continuous
370
     0
390
5EC
  0
LAYER
  5
21
330
5E9
100
AcDbSymbolTableRecord
100
AcDbLayerTableRecord
  2
Level 27
 70
     0
 62
     7
  6
Continuous
370
     0
390
5EC
  0
LAYER
  5
22
330
5E9
100
AcDbSymbolTableRecord
100
AcDbLayerTableRecord
  2
Level 28
 70
     0
 62
     7
  6
Continuous
370
     0
390
5EC
  0
LAYER
  5
23
330
5E9
100
AcDbSymbolTableRecord
100
AcDbLayerTableRecord
  2
Level 29
 70
     0
 62
     7
  6
Continuous
370
     0
390
5EC
  0
LAYER
  5
24
330
5E9
100
AcDbSymbolTableRecord
100
AcDbLayerTableRecord
  2
Level 30
 70
     0
 62
     7
  6
Continuous
370
     0
390
5EC
  0
LAYER
  5
25
330
5E9
100
AcDbSymbolTableRecord
100
AcDbLayerTableRecord
  2
Level 31
 70
     0
 62
     7
  6
Continuous
370
     0
390
5EC
  0
LAYER
  5
26
330
5E9
100
AcDbSymbolTableRecord
100
AcDbLayerTableRecord
  2
Level 32
 70
     0
 62
     7
  6
Continuous
370
     0
390
5EC
  0
LAYER
  5
27
330
5E9
100
AcDbSymbolTableRecord
100
AcDbLayerTableRecord
  2
Level 33
 70
     0
 62
     7
  6
Continuous
370
     0
390
5EC
  0
LAYER
  5
28
330
5E9
100
AcDbSymbolTableRecord
100
AcDbLayerTableRecord
  2
Level 34
 70
     0
 62
     7
  6
Continuous
370
     0
390
5EC
  0
LAYER
  5
29
330
5E9
100
AcDbSymbolTableRecord
100
AcDbLayerTableRecord
  2
Level 35
 70
     0
 62
     7
  6
Continuous
370
     0
390
5EC
  0
LAYER
  5
2A
330
5E9
100
AcDbSymbolTableRecord
100
AcDbLayerTableRecord
  2
Level 36
 70
     0
 62
     7
  6
Continuous
370
     0
390
5EC
  0
LAYER
  5
2B
330
5E9
100
AcDbSymbolTableRecord
100
AcDbLayerTableRecord
  2
Level 37
 70
     0
 62
     7
  6
Continuous
370
     0
390
5EC
  0
LAYER
  5
2C
330
5E9
100
AcDbSymbolTableRecord
100
AcDbLayerTableRecord
  2
Level 38
 70
     0
 62
     7
  6
Continuous
370
     0
390
5EC
  0
LAYER
  5
2D
330
5E9
100
AcDbSymbolTableRecord
100
AcDbLayerTableRecord
  2
Level 39
 70
     0
 62
     7
  6
Continuous
370
     0
390
5EC
  0
LAYER
  5
2E
330
5E9
100
AcDbSymbolTableRecord
100
AcDbLayerTableRecord
  2
Level 40
 70
     0
 62
     7
  6
Continuous
370
     0
390
5EC
  0
LAYER
  5
2F
330
5E9
100
AcDbSymbolTableRecord
100
AcDbLayerTableRecord
  2
Level 41
 70
     0
 62
     7
  6
Continuous
370
     0
390
5EC
  0
LAYER
  5
30
330
5E9
100
AcDbSymbolTableRecord
100
AcDbLayerTableRecord
  2
Level 42
 70
     0
 62
     7
  6
Continuous
370
     0
390
5EC
  0
LAYER
  5
31
330
5E9
100
AcDbSymbolTableRecord
100
AcDbLayerTableRecord
  2
Level 43
 70
     0
 62
     7
  6
Continuous
370
     0
390
5EC
  0
LAYER
  5
32
330
5E9
100
AcDbSymbolTableRecord
100
AcDbLayerTableRecord
  2
Level 44
 70
     0
 62
     7
  6
Continuous
370
     0
390
5EC
  0
LAYER
  5
33
330
5E9
100
AcDbSymbolTableRecord
100
AcDbLayerTableRecord
  2
Level 45
 70
     0
 62
     7
  6
Continuous
370
     0
390
5EC
  0
LAYER
  5
34
330
5E9
100
AcDbSymbolTableRecord
100
AcDbLayerTableRecord
  2
Level 46
 70
     0
 62
     7
  6
Continuous
370
     0
390
5EC
  0
LAYER
  5
35
330
5E9
100
AcDbSymbolTableRecord
100
AcDbLayerTableRecord
  2
Level 47
 70
     0
 62
     7
  6
Continuous
370
     0
390
5EC
  0
LAYER
  5
36
330
5E9
100
AcDbSymbolTableRecord
100
AcDbLayerTableRecord
  2
Level 48
 70
     0
 62
     7
  6
Continuous
370
     0
390
5EC
  0
LAYER
  5
37
330
5E9
100
AcDbSymbolTableRecord
100
AcDbLayerTableRecord
  2
Level 49
 70
     0
 62
     7
  6
Continuous
370
     0
390
5EC
  0
LAYER
  5
38
330
5E9
100
AcDbSymbolTableRecord
100
AcDbLayerTableRecord
  2
Level 50
 70
     0
 62
     7
  6
Continuous
370
     0
390
5EC
  0
LAYER
  5
39
330
5E9
100
AcDbSymbolTableRecord
100
AcDbLayerTableRecord
  2
Level 51
 70
     0
 62
     7
  6
Continuous
370
     0
390
5EC
  0
LAYER
  5
3A
330
5E9
100
AcDbSymbolTableRecord
100
AcDbLayerTableRecord
  2
Level 52
 70
     0
 62
     7
  6
Continuous
370
     0
390
5EC
  0
LAYER
  5
3B
330
5E9
100
AcDbSymbolTableRecord
100
AcDbLayerTableRecord
  2
Level 53
 70
     0
 62
     7
  6
Continuous
370
     0
390
5EC
  0
LAYER
  5
3C
330
5E9
100
AcDbSymbolTableRecord
100
AcDbLayerTableRecord
  2
Level 54
 70
     0
 62
     7
  6
Continuous
370
     0
390
5EC
  0
LAYER
  5
3D
330
5E9
100
AcDbSymbolTableRecord
100
AcDbLayerTableRecord
  2
Level 55
 70
     0
 62
     7
  6
Continuous
370
     0
390
5EC
  0
LAYER
  5
3E
330
5E9
100
AcDbSymbolTableRecord
100
AcDbLayerTableRecord
  2
Level 56
 70
     0
 62
     7
  6
Continuous
370
     0
390
5EC
  0
LAYER
  5
3F
330
5E9
100
AcDbSymbolTableRecord
100
AcDbLayerTableRecord
  2
Level 57
 70
     0
 62
     7
  6
Continuous
370
     0
390
5EC
  0
LAYER
  5
40
330
5E9
100
AcDbSymbolTableRecord
100
AcDbLayerTableRecord
  2
Level 58
 70
     0
 62
     7
  6
Continuous
370
     0
390
5EC
  0
LAYER
  5
41
330
5E9
100
AcDbSymbolTableRecord
100
AcDbLayerTableRecord
  2
Level 59
 70
     0
 62
     7
  6
Continuous
370
     0
390
5EC
  0
LAYER
  5
42
330
5E9
100
AcDbSymbolTableRecord
100
AcDbLayerTableRecord
  2
Level 60
 70
     0
 62
     7
  6
Continuous
370
     0
390
5EC
  0
LAYER
  5
43
330
5E9
100
AcDbSymbolTableRecord
100
AcDbLayerTableRecord
  2
Level 61
 70
     0
 62
     7
  6
Continuous
370
     0
390
5EC
  0
LAYER
  5
44
330
5E9
100
AcDbSymbolTableRecord
100
AcDbLayerTableRecord
  2
Level 62
 70
     0
 62
     7
  6
Continuous
370
     0
390
5EC
  0
LAYER
  5
45
330
5E9
100
AcDbSymbolTableRecord
100
AcDbLayerTableRecord
  2
_0
 70
     0
 62
     7
  6
Continuous
370
     0
390
5EC
1001
AcAecLayerStandard
1000

1000
0
  0
ENDTAB
  0
TABLE
  2
STYLE
  5
5F4
330
0
100
AcDbSymbolTable
 70
     2
  0
STYLE
  5
5F3
330
5F4
100
AcDbSymbolTableRecord
100
AcDbTextStyleTableRecord
  2
Standard
 70
     0
 40
0.0
 41
1.0
 50
0.0
 71
     0
 42
0.140396
  3
txt
  4

  0
STYLE
  5
613
330
5F4
100
AcDbSymbolTableRecord
100
AcDbTextStyleTableRecord
  2
Style-Arial
 70
     0
 40
0.0
 41
1.0
 50
0.0
 71
     0
 42
0.2
  3

  4

1001
ACAD
1000
Arial
1071
       39
  0
ENDTAB
  0
TABLE
  2
VIEW
  5
607
330
0
100
AcDbSymbolTable
 70
     0
  0
ENDTAB
  0
TABLE
  2
UCS
  5
608
330
0
100
AcDbSymbolTable
 70
     0
  0
ENDTAB
  0
TABLE
  2
APPID
  5
606
330
0
100
AcDbSymbolTable
 70
     3
  0
APPID
  5
60E
330
606
100
AcDbSymbolTableRecord
100
AcDbRegAppTableRecord
  2
ACAD
 70
     0
  0
APPID
  5
605
330
606
100
AcDbSymbolTableRecord
100
AcDbRegAppTableRecord
  2
ACAD_PSEXT
 70
     0
  0
APPID
  5
610
330
606
100
AcDbSymbolTableRecord
100
AcDbRegAppTableRecord
  2
AcAecLayerStandard
 70
     0
  0
ENDTAB
  0
TABLE
  2
DIMSTYLE
  5
5F6
330
0
100
AcDbSymbolTable
 70
     1
100
AcDbDimStyleTable
  0
DIMSTYLE
105
5F5
330
5F6
100
AcDbSymbolTableRecord
100
AcDbDimStyleTableRecord
  2
Standard
 70
     0
340
5F3
  0
ENDTAB
  0
TABLE
  2
BLOCK_RECORD
  5
5F9
330
0
100
AcDbSymbolTable
 70
     5
  0
BLOCK_RECORD
  5
5FA
102
{ACAD_XDICTIONARY
360
62D
102
}
330
5F9
100
AcDbSymbolTableRecord
100
AcDbBlockTableRecord
  2
*Model_Space
340
5FD
  0
BLOCK_RECORD
  5
5FF
330
5F9
100
AcDbSymbolTableRecord
100
AcDbBlockTableRecord
  2
*Paper_Space
340
602
  0
BLOCK_RECORD
  5
614
330
5F9
100
AcDbSymbolTableRecord
100
AcDbBlockTableRecord
  2
TerminatorOpen_0.5
340
0
  0
BLOCK_RECORD
  5
621
330
5F9
100
AcDbSymbolTableRecord
100
AcDbBlockTableRecord
  2
LARROW
340
0
102
{BLKREFS
331
4ED
331
4EF
331
4F1
331
4F3
331
4F5
331
4F7
331
4F9
331
4FB
331
4FF
331
501
331
503
331
505
331
507
331
509
331
50B
331
50D
331
50F
331
511
331
513
331
515
331
517
331
519
331
51B
331
51D
331
51F
331
521
331
523
331
525
331
527
331
531
331
533
331
535
331
537
331
539
331
53B
331
53D
331
53F
331
541
331
543
331
545
331
547
331
549
331
54B
331
54D
331
54F
331
551
331
553
331
555
331
557
331
559
331
55B
331
55D
331
55F
331
561
331
563
331
565
331
567
331
569
331
56B
331
56D
331
56F
331
571
331
573
331
575
331
577
331
579
102
}
  0
BLOCK_RECORD
  5
624
330
5F9
100
AcDbSymbolTableRecord
100
AcDbBlockTableRecord
  2
LARROW_1
340
0
102
{BLKREFS
331
4FD
102
}
  0
BLOCK_RECORD
  5
627
330
5F9
100
AcDbSymbolTableRecord
100
AcDbBlockTableRecord
  2
SARROW
340
0
102
{BLKREFS
331
529
331
52B
331
52D
331
52F
102
}
  0
BLOCK_RECORD
  5
62A
330
5F9
100
AcDbSymbolTableRecord
100
AcDbBlockTableRecord
  2
LARROW_2
340
0
102
{BLKREFS
331
57E
331
589
102
}
  0
ENDTAB
  0
ENDSEC
  0
SECTION
  2
BLOCKS
  0
BLOCK
  5
5FB
330
5FA
100
AcDbEntity
  8
0
100
AcDbBlockBegin
  2
*Model_Space
 70
     0
 71
     0
 10
0.0
 20
0.0
 30
0.0
  3
*Model_Space
  1

  0
ENDBLK
  5
5FC
330
5FA
100
AcDbEntity
  8
0
100
AcDbBlockEnd
  0
BLOCK
  5
600
330
5FF
100
AcDbEntity
 67
     1
  8
0
100
AcDbBlockBegin
  2
*Paper_Space
 70
     0
 71
     0
 10
0.0
 20
0.0
 30
0.0
  3
*Paper_Space
  1

  0
ENDBLK
  5
601
330
5FF
100
AcDbEntity
 67
     1
  8
0
100
AcDbBlockEnd
  0
BLOCK
  5
618
330
614
100
AcDbEntity
  8
0
100
AcDbBlockBegin
  2
TerminatorOpen_0.5
 70
     0
 71
     0
 10
0.0
 20
0.0
 30
0.0
  3
TerminatorOpen_0.5
  1

  0
LINE
  5
615
330
614
100
AcDbEntity
  8
0
  6
ByBlock
 62
     0
370
    -2
100
AcDbLine
 10
0.0
 20
0.0
 30
0.0
 11
-1.0
 21
0.0
 31
0.0
  0
LINE
  5
616
330
614
100
AcDbEntity
  8
0
  6
ByBlock
 62
     0
370
    -2
100
AcDbLine
 10
0.0
 20
0.0
 30
0.0
 11
-1.0
 21
0.25
 31
0.0
  0
LINE
  5
617
330
614
100
AcDbEntity
  8
0
  6
ByBlock
 62
     0
370
    -2
100
AcDbLine
 10
0.0
 20
0.0
 30
0.0
 11
-1.0
 21
-0.25
 31
0.0
  0
ENDBLK
  5
619
330
614
100
AcDbEntity
  8
0
100
AcDbBlockEnd
  0
BLOCK
  5
622
330
621
100
AcDbEntity
  8
0
100
AcDbBlockBegin
  2
LARROW
 70
     0
 71
     0
 10
0.0
 20
0.0
 30
0.0
  3
LARROW
  1

  0
LWPOLYLINE
  5
4EE
330
621
100
AcDbEntity
  8
REF
  6
Continuous
 62
     7
370
    13
100
AcDbPolyline
 90
       63
 70
   128
 43
0.0
 10
-0.013031
 20
0.001885
 10
0.0
 20
0.0
 10
-0.013021
 20
-0.001885
 10
-0.012615
 20
-0.001573
 10
-0.012042
 20
-0.00101
 10
-0.01176
 20
-0.00049
 10
-0.011687
 20
0.0
 10
-0.011792
 20
0.000552
 10
-0.012094
 20
0.001094
 10
-0.012677
 20
0.001625
 10
-0.013031
 20
0.001885
 10
-0.000385
 20
0.000021
 10
-0.012604
 20
-0.00176
 10
-0.012229
 20
-0.001479
 10
-0.011625
 20
-0.000906
 10
-0.011427
 20
-0.000167
 10
-0.011562
 20
0.000573
 10
-0.011917
 20
0.001083
 10
-0.012344
 20
0.0015
 10
-0.012635
 20
0.001729
 10
-0.001073
 20
0.000021
 10
-0.012052
 20
-0.001552
 10
-0.011667
 20
-0.001302
 10
-0.011469
 20
-0.000979
 10
-0.01125
 20
-0.000562
 10
-0.011135
 20
0.000021
 10
-0.011198
 20
0.0005
 10
-0.011427
 20
0.000875
 10
-0.011896
 20
0.001177
 10
-0.012208
 20
0.001542
 10
-0.001875
 20
0.000021
 10
-0.011448
 20
-0.001323
 10
-0.011021
 20
-0.000792
 10
-0.010896
 20
-0.000146
 10
-0.010958
 20
0.000573
 10
-0.011781
 20
0.001354
 10
-0.002771
 20
0.000063
 10
-0.010896
 20
-0.001073
 10
-0.010781
 20
-0.000698
 10
-0.010531
 20
-0.000094
 10
-0.010687
 20
0.000552
 10
-0.011333
 20
0.001125
 10
-0.003594
 20
0.000063
 10
-0.010604
 20
-0.000833
 10
-0.010375
 20
-0.000375
 10
-0.010271
 20
0.000115
 10
-0.01076
 20
0.000875
 10
-0.004573
 20
0.000063
 10
-0.010177
 20
-0.000625
 10
-0.010021
 20
-0.000281
 10
-0.009979
 20
0.000115
 10
-0.010375
 20
0.000667
 10
-0.00574
 20
0.000063
 10
-0.009823
 20
-0.000396
 10
-0.009708
 20
0.000135
 10
-0.010083
 20
0.000458
 10
-0.006698
 20
0.000063
 10
-0.009552
 20
-0.00024
 10
-0.009615
 20
0.000271
 10
-0.007677
 20
0.000063
 10
-0.009437
 20
-0.000073
 10
-0.00949
 20
0.000083
 10
-0.008885
 20
0.000083
  0
ENDBLK
  5
623
330
621
100
AcDbEntity
  8
0
100
AcDbBlockEnd
  0
BLOCK
  5
625
330
624
100
AcDbEntity
  8
0
100
AcDbBlockBegin
  2
LARROW_1
 70
     0
 71
     0
 10
0.0
 20
0.0
 30
0.0
  3
LARROW_1
  1

  0
LWPOLYLINE
  5
4FE
330
624
100
AcDbEntity
  8
REF
  6
Continuous
 62
     7
370
    30
100
AcDbPolyline
 90
       63
 70
   128
 43
0.0
 10
-0.013031
 20
0.001885
 10
0.0
 20
0.0
 10
-0.013021
 20
-0.001885
 10
-0.012615
 20
-0.001573
 10
-0.012042
 20
-0.00101
 10
-0.01176
 20
-0.00049
 10
-0.011688
 20
0.0
 10
-0.011792
 20
0.000552
 10
-0.012094
 20
0.001094
 10
-0.012677
 20
0.001625
 10
-0.013031
 20
0.001885
 10
-0.000385
 20
0.000021
 10
-0.012604
 20
-0.00176
 10
-0.012229
 20
-0.001479
 10
-0.011625
 20
-0.000906
 10
-0.011427
 20
-0.000167
 10
-0.011563
 20
0.000573
 10
-0.011917
 20
0.001083
 10
-0.012344
 20
0.0015
 10
-0.012635
 20
0.001729
 10
-0.001073
 20
0.000021
 10
-0.012052
 20
-0.001552
 10
-0.011667
 20
-0.001302
 10
-0.011469
 20
-0.000979
 10
-0.01125
 20
-0.000562
 10
-0.011135
 20
0.000021
 10
-0.011198
 20
0.0005
 10
-0.011427
 20
0.000875
 10
-0.011896
 20
0.001177
 10
-0.012208
 20
0.001542
 10
-0.001875
 20
0.000021
 10
-0.011448
 20
-0.001323
 10
-0.011021
 20
-0.000792
 10
-0.010896
 20
-0.000146
 10
-0.010958
 20
0.000573
 10
-0.011781
 20
0.001354
 10
-0.002771
 20
0.000063
 10
-0.010896
 20
-0.001073
 10
-0.010781
 20
-0.000698
 10
-0.010531
 20
-0.000094
 10
-0.010688
 20
0.000552
 10
-0.011333
 20
0.001125
 10
-0.003594
 20
0.000063
 10
-0.010604
 20
-0.000833
 10
-0.010375
 20
-0.000375
 10
-0.010271
 20
0.000115
 10
-0.01076
 20
0.000875
 10
-0.004573
 20
0.000063
 10
-0.010177
 20
-0.000625
 10
-0.010021
 20
-0.000281
 10
-0.009979
 20
0.000115
 10
-0.010375
 20
0.000667
 10
-0.00574
 20
0.000063
 10
-0.009823
 20
-0.000396
 10
-0.009708
 20
0.000135
 10
-0.010083
 20
0.000458
 10
-0.006698
 20
0.000063
 10
-0.009552
 20
-0.00024
 10
-0.009615
 20
0.000271
 10
-0.007677
 20
0.000063
 10
-0.009438
 20
-0.000073
 10
-0.00949
 20
0.000083
 10
-0.008885
 20
0.000083
  0
ENDBLK
  5
626
330
624
100
AcDbEntity
  8
0
100
AcDbBlockEnd
  0
BLOCK
  5
628
330
627
100
AcDbEntity
  8
0
100
AcDbBlockBegin
  2
SARROW
 70
     0
 71
     0
 10
0.0
 20
0.0
 30
0.0
  3
SARROW
  1

  0
LWPOLYLINE
  5
52A
330
627
100
AcDbEntity
  8
REF
  6
Continuous
 62
     7
370
    30
100
AcDbPolyline
 90
       31
 70
   128
 43
0.0
 10
0.0
 20
0.0
 10
-0.014083
 20
0.00375
 10
-0.014083
 20
-0.003833
 10
0.0
 20
0.0
 10
-0.013948
 20
0.00349
 10
-0.013979
 20
-0.003573
 10
-0.000625
 20
-0.00001
 10
-0.013688
 20
0.003146
 10
-0.013802
 20
-0.003229
 10
-0.001292
 20
-0.00001
 10
-0.013313
 20
0.002729
 10
-0.013458
 20
-0.002792
 10
-0.002063
 20
-0.000052
 10
-0.012969
 20
0.002365
 10
-0.013031
 20
-0.002375
 10
-0.002948
 20
-0.000073
 10
-0.012615
 20
0.001927
 10
-0.012802
 20
-0.002062
 10
-0.00399
 20
-0.000125
 10
-0.012208
 20
0.001469
 10
-0.012406
 20
-0.001646
 10
-0.005219
 20
-0.000125
 10
-0.01174
 20
0.000948
 10
-0.012052
 20
-0.001135
 10
-0.006344
 20
-0.000156
 10
-0.011302
 20
0.000479
 10
-0.011667
 20
-0.000792
 10
-0.007552
 20
-0.000219
 10
-0.011094
 20
0.000063
 10
-0.011333
 20
-0.0005
 10
-0.009552
 20
-0.00025
  0
ENDBLK
  5
629
330
627
100
AcDbEntity
  8
0
100
AcDbBlockEnd
  0
BLOCK
  5
62B
330
62A
100
AcDbEntity
  8
0
100
AcDbBlockBegin
  2
LARROW_2
 70
     0
 71
     0
 10
0.0
 20
0.0
 30
0.0
  3
LARROW_2
  1

  0
LINE
  5
57F
330
62A
100
AcDbEntity
  8
REF
  6
Continuous
 62
     7
370
    13
100
AcDbLine
 10
0.0
 20
0.0
 30
0.0
 11
-0.013031
 21
0.001885
 31
0.0
  0
LINE
  5
580
330
62A
100
AcDbEntity
  8
REF
  6
Continuous
 62
     7
370
    13
100
AcDbLine
 10
0.0
 20
0.0
 30
0.0
 11
-0.01302
 21
-0.001885
 31
0.0
  0
LWPOLYLINE
  5
581
330
62A
100
AcDbEntity
  8
REF
  6
Continuous
 62
     7
370
    13
100
AcDbPolyline
 90
        9
 70
   128
 43
0.0
 10
-0.013031
 20
0.001885
 10
-0.01225
 20
0.001292
 10
-0.011896
 20
0.000813
 10
-0.011719
 20
0.000364
 10
-0.011687
 20
-0.000052
 10
-0.01175
 20
-0.000458
 10
-0.011958
 20
-0.000896
 10
-0.012323
 20
-0.001354
 10
-0.01302
 20
-0.001885
  0
LINE
  5
582
330
62A
100
AcDbEntity
  8
REF
  6
Continuous
 62
     7
370
    13
100
AcDbLine
 10
0.0
 20
0.0
 30
0.0
 11
-0.01225
 21
0.001292
 31
0.0
  0
LINE
  5
583
330
62A
100
AcDbEntity
  8
REF
  6
Continuous
 62
     7
370
    13
100
AcDbLine
 10
0.0
 20
0.0
 30
0.0
 11
-0.011896
 21
0.000813
 31
0.0
  0
LINE
  5
584
330
62A
100
AcDbEntity
  8
REF
  6
Continuous
 62
     7
370
    13
100
AcDbLine
 10
0.0
 20
0.0
 30
0.0
 11
-0.011719
 21
0.000364
 31
0.0
  0
LINE
  5
585
330
62A
100
AcDbEntity
  8
REF
  6
Continuous
 62
     7
370
    13
100
AcDbLine
 10
0.0
 20
0.0
 30
0.0
 11
-0.01175
 21
-0.000458
 31
0.0
  0
LINE
  5
586
330
62A
100
AcDbEntity
  8
REF
  6
Continuous
 62
     7
370
    13
100
AcDbLine
 10
0.0
 20
0.0
 30
0.0
 11
-0.011958
 21
-0.000896
 31
0.0
  0
LINE
  5
587
330
62A
100
AcDbEntity
  8
REF
  6
Continuous
 62
     7
370
    13
100
AcDbLine
 10
0.0
 20
0.0
 30
0.0
 11
-0.012323
 21
-0.001354
 31
0.0
  0
LINE
  5
588
330
62A
100
AcDbEntity
  8
REF
  6
Continuous
 62
     7
370
    13
100
AcDbLine
 10
0.0
 20
0.0
 30
0.0
 11
-0.011677
 21
0.0
 31
0.0
  0
ENDBLK
  5
62C
330
62A
100
AcDbEntity
  8
0
100
AcDbBlockEnd
  0
ENDSEC
  0
SECTION
  2
ENTITIES
  0
LINE
  5
5D
330
5FA
100
AcDbEntity
  8
2-19I
  6
Continuous
 62
     7
370
    13
100
AcDbLine
 10
14.281448
 20
-10.447594
 30
0.0
 11
14.281448
 21
-10.720458
 31
0.0
  0
LINE
  5
5F
330
5FA
100
AcDbEntity
  8
2-19I
  6
Continuous
 62
     7
370
    13
100
AcDbLine
 10
14.131448
 20
-10.365344
 30
0.0
 11
14.131448
 21
-10.54751
 31
0.0
  0
LINE
  5
60
330
5FA
100
AcDbEntity
  8
2-19I
  6
Continuous
 62
     7
370
    13
100
AcDbLine
 10
14.231448
 20
-10.365344
 30
0.0
 11
14.231448
 21
-10.720458
 31
0.0
  0
LINE
  5
61
330
5FA
100
AcDbEntity
  8
2-19I
  6
Continuous
 62
     7
370
    30
100
AcDbLine
 10
17.71975
 20
-9.881219
 30
0.0
 11
17.71975
 21
-9.981219
 31
0.0
  0
LINE
  5
6B
330
5FA
100
AcDbEntity
  8
REF
  6
Continuous
 62
     7
370
    13
100
AcDbLine
 10
16.074365
 20
-9.481219
 30
0.0
 11
15.856521
 21
-9.481219
 31
0.0
  0
LINE
  5
6E
330
5FA
100
AcDbEntity
  8
REF
  6
Continuous
 62
     7
370
    13
100
AcDbLine
 10
18.023104
 20
-9.881219
 30
0.0
 11
18.320865
 21
-9.881219
 31
0.0
  0
LINE
  5
6F
330
5FA
100
AcDbEntity
  8
2-19I
  6
Continuous
 62
     7
370
    30
100
AcDbLine
 10
17.725708
 20
-9.881219
 30
0.0
 11
18.026323
 21
-9.981219
 31
0.0
  0
LINE
  5
70
330
5FA
100
AcDbEntity
  8
2-19I
  6
Continuous
 62
     7
370
    30
100
AcDbLine
 10
17.725708
 20
-10.110042
 30
0.0
 11
18.423448
 21
-10.110042
 31
0.0
  0
LINE
  5
71
330
5FA
100
AcDbEntity
  8
_0
  6
Continuous
 62
     7
370
    30
100
AcDbLine
 10
16.643125
 20
-9.934385
 30
0.0
 11
16.643125
 21
-10.110042
 31
0.0
  0
LINE
  5
72
330
5FA
100
AcDbEntity
  8
_0
  6
Continuous
 62
     7
370
    30
100
AcDbLine
 10
16.623125
 20
-9.934385
 30
0.0
 11
16.623125
 21
-10.110042
 31
0.0
  0
LINE
  5
73
330
5FA
100
AcDbEntity
  8
2-19I
  6
Continuous
 62
     7
370
    30
100
AcDbLine
 10
18.026323
 20
-9.981219
 30
0.0
 11
18.488073
 21
-9.981219
 31
0.0
  0
LINE
  5
74
330
5FA
100
AcDbEntity
  8
2-19I
  6
Continuous
 62
     7
370
    30
100
AcDbLine
 10
17.725708
 20
-9.881219
 30
0.0
 11
17.725708
 21
-10.110042
 31
0.0
  0
LINE
  5
75
330
5FA
100
AcDbEntity
  8
_0
  6
Continuous
 62
     7
370
    30
100
AcDbLine
 10
16.79626
 20
-9.881219
 30
0.0
 11
16.79626
 21
-9.981219
 31
0.0
  0
LINE
  5
76
330
5FA
100
AcDbEntity
  8
_0
  6
Continuous
 62
     7
370
    30
100
AcDbLine
 10
15.870552
 20
-9.934385
 30
0.0
 11
16.79626
 21
-9.934385
 31
0.0
  0
LINE
  5
77
330
5FA
100
AcDbEntity
  8
_0
  6
Continuous
 62
     7
370
    30
100
AcDbLine
 10
16.623125
 20
-10.110042
 30
0.0
 11
16.643125
 21
-10.110042
 31
0.0
  0
LINE
  5
78
330
5FA
100
AcDbEntity
  8
_0
  6
Continuous
 62
     7
370
    30
100
AcDbLine
 10
16.79626
 20
-9.981219
 30
0.0
 11
17.725708
 21
-9.981219
 31
0.0
  0
LINE
  5
79
330
5FA
100
AcDbEntity
  8
_0
  6
Continuous
 62
     7
370
    30
100
AcDbLine
 10
16.483125
 20
-9.481219
 30
0.0
 11
16.583125
 21
-9.481219
 31
0.0
  0
LINE
  5
7A
330
5FA
100
AcDbEntity
  8
_0
  6
Continuous
 62
     7
370
    30
100
AcDbLine
 10
16.458125
 20
-10.281219
 30
0.0
 11
16.608125
 21
-10.281219
 31
0.0
  0
LINE
  5
7B
330
5FA
100
AcDbEntity
  8
_0
  6
Continuous
 62
     7
370
    30
100
AcDbLine
 10
16.458125
 20
-9.506219
 30
0.0
 11
16.458125
 21
-9.881219
 31
0.0
  0
LINE
  5
7C
330
5FA
100
AcDbEntity
  8
_0
  6
Continuous
 62
     7
370
    30
100
AcDbLine
 10
16.458125
 20
-9.506219
 30
0.0
 11
16.483125
 21
-9.481219
 31
0.0
  0
LINE
  5
7D
330
5FA
100
AcDbEntity
  8
_0
  6
Continuous
 62
     7
370
    30
100
AcDbLine
 10
16.583125
 20
-9.481219
 30
0.0
 11
16.608125
 21
-9.506219
 31
0.0
  0
LINE
  5
7E
330
5FA
100
AcDbEntity
  8
_0
  6
Continuous
 62
     7
370
    30
100
AcDbLine
 10
16.458125
 20
-9.934385
 30
0.0
 11
16.458125
 21
-10.281219
 31
0.0
  0
LINE
  5
7F
330
5FA
100
AcDbEntity
  8
_0
  6
Continuous
 62
     7
370
    30
100
AcDbLine
 10
16.608125
 20
-9.934385
 30
0.0
 11
16.608125
 21
-10.281219
 31
0.0
  0
LINE
  5
80
330
5FA
100
AcDbEntity
  8
_0
  6
Continuous
 62
     7
370
    30
100
AcDbLine
 10
16.658125
 20
-9.56925
 30
0.0
 11
16.658125
 21
-9.685771
 31
0.0
  0
LINE
  5
81
330
5FA
100
AcDbEntity
  8
_0
  6
Continuous
 62
     7
370
    30
100
AcDbLine
 10
16.608125
 20
-9.506219
 30
0.0
 11
16.608125
 21
-9.881219
 31
0.0
  0
LINE
  5
82
330
5FA
100
AcDbEntity
  8
_0
  6
Continuous
 62
     7
370
    30
100
AcDbLine
 10
16.608125
 20
-9.56925
 30
0.0
 11
16.658125
 21
-9.56925
 31
0.0
  0
LINE
  5
83
330
5FA
100
AcDbEntity
  8
_0
  6
Continuous
 62
     7
370
    30
100
AcDbLine
 10
16.608125
 20
-9.685771
 30
0.0
 11
16.658125
 21
-9.685771
 31
0.0
  0
LINE
  5
84
330
5FA
100
AcDbEntity
  8
_0
  6
Continuous
 62
     7
370
    30
100
AcDbLine
 10
16.643125
 20
-9.685771
 30
0.0
 11
16.643125
 21
-9.881219
 31
0.0
  0
LINE
  5
85
330
5FA
100
AcDbEntity
  8
_0
  6
Continuous
 62
     7
370
    30
100
AcDbLine
 10
16.623125
 20
-9.685771
 30
0.0
 11
16.623125
 21
-9.881219
 31
0.0
  0
LINE
  5
86
330
5FA
100
AcDbEntity
  8
_0
  6
Continuous
 62
     7
370
    30
100
AcDbLine
 10
15.896156
 20
-9.881219
 30
0.0
 11
17.975708
 21
-9.881219
 31
0.0
  0
LINE
  5
88
330
5FA
100
AcDbEntity
  8
_0
  6
Continuous
 62
     7
370
    30
100
AcDbLine
 10
16.499056
 20
-4.451469
 30
0.0
 11
16.499056
 21
-4.855708
 31
0.0
  0
LINE
  5
8A
330
5FA
100
AcDbEntity
  8
2-19I
  6
Continuous
 62
     7
370
    13
100
AcDbLine
 10
17.810014
 20
-4.526794
 30
0.0
 11
17.810014
 21
-4.054188
 31
0.0
  0
LINE
  5
8C
330
5FA
100
AcDbEntity
  8
2-19I
  6
Continuous
 62
     7
370
    13
100
AcDbLine
 10
16.899056
 20
-4.451469
 30
0.0
 11
16.899056
 21
-4.054188
 31
0.0
  0
LINE
  5
8E
330
5FA
100
AcDbEntity
  8
2-19I
  6
Continuous
 62
     7
370
    13
100
AcDbLine
 10
16.499056
 20
-4.351469
 30
0.0
 11
16.499056
 21
-4.054188
 31
0.0
  0
LINE
  5
8F
330
5FA
100
AcDbEntity
  8
REF
  6
Continuous
 62
     7
370
    13
100
AcDbLine
 10
15.588087
 20
-4.851469
 30
0.0
 11
15.588087
 21
-4.054188
 31
0.0
  0
LINE
  5
90
330
5FA
100
AcDbEntity
  8
2-19I
  6
Continuous
 62
     7
370
    30
100
AcDbLine
 10
16.699056
 20
-5.315406
 30
0.0
 11
16.699056
 21
-4.57249
 31
0.0
  0
LINE
  5
91
330
5FA
100
AcDbEntity
  8
_0
  6
Continuous
 62
     7
370
    30
100
AcDbLine
 10
17.140962
 20
-5.001469
 30
0.0
 11
17.810014
 21
-5.001469
 31
0.0
  0
LINE
  5
92
330
5FA
100
AcDbEntity
  8
_0
  6
Continuous
 62
     7
370
    30
100
AcDbLine
 10
17.191056
 20
-4.901469
 30
0.0
 11
17.810014
 21
-4.901469
 31
0.0
  0
LINE
  5
93
330
5FA
100
AcDbEntity
  8
_0
  6
Continuous
 62
     7
370
    30
100
AcDbLine
 10
15.990275
 20
-5.001469
 30
0.0
 11
17.0979
 21
-5.001469
 31
0.0
  0
LINE
  5
94
330
5FA
100
AcDbEntity
  8
_0
  6
Continuous
 62
     7
370
    30
100
AcDbLine
 10
16.040368
 20
-4.901469
 30
0.0
 11
17.144848
 21
-4.901469
 31
0.0
  0
LINE
  5
96
330
5FA
100
AcDbEntity
  8
REF
  6
Continuous
 62
     7
370
    13
100
AcDbLine
 10
16.436879
 20
-4.601458
 30
0.0
 11
16.189764
 21
-4.601458
 31
0.0
  0
LINE
  5
99
330
5FA
100
AcDbEntity
  8
REF
  6
Continuous
 62
     7
370
    13
100
AcDbLine
 10
16.439056
 20
-5.501469
 30
0.0
 11
16.189764
 21
-5.501469
 31
0.0
  0
LINE
  5
A2
330
5FA
100
AcDbEntity
  8
2-19I
  6
Continuous
 62
     7
370
    30
100
AcDbLine
 10
16.661858
 20
-5.470771
 30
0.0
 11
16.670702
 21
-5.461927
 31
0.0
  0
LINE
  5
A3
330
5FA
100
AcDbEntity
  8
2-19I
  6
Continuous
 62
     7
370
    30
100
AcDbLine
 10
16.688379
 20
-5.44425
 30
0.0
 11
16.697212
 21
-5.435417
 31
0.0
  0
LINE
  5
A4
330
5FA
100
AcDbEntity
  8
2-19I
  6
Continuous
 62
     7
370
    30
100
AcDbLine
 10
16.714889
 20
-5.41774
 30
0.0
 11
16.723733
 21
-5.408896
 31
0.0
  0
LINE
  5
A5
330
5FA
100
AcDbEntity
  8
2-19I
  6
Continuous
 62
     7
370
    30
100
AcDbLine
 10
16.74141
 20
-5.391219
 30
0.0
 11
16.750254
 21
-5.382375
 31
0.0
  0
LINE
  5
A6
330
5FA
100
AcDbEntity
  8
2-19I
  6
Continuous
 62
     7
370
    30
100
AcDbLine
 10
16.646556
 20
-5.455458
 30
0.0
 11
16.655389
 21
-5.446615
 31
0.0
  0
LINE
  5
A7
330
5FA
100
AcDbEntity
  8
2-19I
  6
Continuous
 62
     7
370
    30
100
AcDbLine
 10
16.673066
 20
-5.428937
 30
0.0
 11
16.68191
 21
-5.420104
 31
0.0
  0
LINE
  5
A8
330
5FA
100
AcDbEntity
  8
2-19I
  6
Continuous
 62
     7
370
    30
100
AcDbLine
 10
16.699587
 20
-5.402427
 30
0.0
 11
16.70842
 21
-5.393583
 31
0.0
  0
LINE
  5
A9
330
5FA
100
AcDbEntity
  8
2-19I
  6
Continuous
 62
     7
370
    30
100
AcDbLine
 10
16.726098
 20
-5.375906
 30
0.0
 11
16.734941
 21
-5.367073
 31
0.0
  0
LINE
  5
AA
330
5FA
100
AcDbEntity
  8
2-19I
  6
Continuous
 62
     7
370
    30
100
AcDbLine
 10
16.631243
 20
-5.440146
 30
0.0
 11
16.640077
 21
-5.431312
 31
0.0
  0
LINE
  5
AB
330
5FA
100
AcDbEntity
  8
2-19I
  6
Continuous
 62
     7
370
    30
100
AcDbLine
 10
16.657754
 20
-5.413635
 30
0.0
 11
16.666598
 21
-5.404792
 31
0.0
  0
LINE
  5
AC
330
5FA
100
AcDbEntity
  8
2-19I
  6
Continuous
 62
     7
370
    30
100
AcDbLine
 10
16.684275
 20
-5.387115
 30
0.0
 11
16.693118
 21
-5.378281
 31
0.0
  0
LINE
  5
AD
330
5FA
100
AcDbEntity
  8
2-19I
  6
Continuous
 62
     7
370
    30
100
AcDbLine
 10
16.617858
 20
-5.422917
 30
0.0
 11
16.624775
 21
-5.416
 31
0.0
  0
LINE
  5
AE
330
5FA
100
AcDbEntity
  8
2-19I
  6
Continuous
 62
     7
370
    30
100
AcDbLine
 10
16.642452
 20
-5.398323
 30
0.0
 11
16.651285
 21
-5.389479
 31
0.0
  0
LINE
  5
AF
330
5FA
100
AcDbEntity
  8
2-19I
  6
Continuous
 62
     7
370
    30
100
AcDbLine
 10
16.668962
 20
-5.371802
 30
0.0
 11
16.677806
 21
-5.362969
 31
0.0
  0
LINE
  5
B0
330
5FA
100
AcDbEntity
  8
2-19I
  6
Continuous
 62
     7
370
    30
100
AcDbLine
 10
16.678723
 20
-5.484531
 30
0.0
 11
16.686014
 21
-5.47724
 31
0.0
  0
LINE
  5
B1
330
5FA
100
AcDbEntity
  8
2-19I
  6
Continuous
 62
     7
370
    30
100
AcDbLine
 10
16.703691
 20
-5.459562
 30
0.0
 11
16.712525
 21
-5.450719
 31
0.0
  0
LINE
  5
B2
330
5FA
100
AcDbEntity
  8
2-19I
  6
Continuous
 62
     7
370
    30
100
AcDbLine
 10
16.730202
 20
-5.433042
 30
0.0
 11
16.739045
 21
-5.424208
 31
0.0
  0
LINE
  5
B3
330
5FA
100
AcDbEntity
  8
2-19I
  6
Continuous
 62
     7
370
    30
100
AcDbLine
 10
16.756723
 20
-5.406531
 30
0.0
 11
16.765556
 21
-5.397687
 31
0.0
  0
LINE
  5
B4
330
5FA
100
AcDbEntity
  8
2-19I
  6
Continuous
 62
     7
370
    30
100
AcDbLine
 10
16.783233
 20
-5.38001
 30
0.0
 11
16.786087
 21
-5.377156
 31
0.0
  0
LINE
  5
B5
330
5FA
100
AcDbEntity
  8
2-19I
  6
Continuous
 62
     7
370
    30
100
AcDbLine
 10
16.718993
 20
-5.474865
 30
0.0
 11
16.727837
 21
-5.466031
 31
0.0
  0
LINE
  5
B6
330
5FA
100
AcDbEntity
  8
2-19I
  6
Continuous
 62
     7
370
    30
100
AcDbLine
 10
16.745514
 20
-5.448354
 30
0.0
 11
16.754348
 21
-5.43951
 31
0.0
  0
LINE
  5
B7
330
5FA
100
AcDbEntity
  8
2-19I
  6
Continuous
 62
     7
370
    30
100
AcDbLine
 10
16.772025
 20
-5.421833
 30
0.0
 11
16.780868
 21
-5.413
 31
0.0
  0
LINE
  5
B8
330
5FA
100
AcDbEntity
  8
2-19I
  6
Continuous
 62
     7
370
    30
100
AcDbLine
 10
16.798545
 20
-5.395323
 30
0.0
 11
16.807389
 21
-5.386479
 31
0.0
  0
LINE
  5
B9
330
5FA
100
AcDbEntity
  8
2-19I
  6
Continuous
 62
     7
370
    30
100
AcDbLine
 10
16.734306
 20
-5.490177
 30
0.0
 11
16.743139
 21
-5.481344
 31
0.0
  0
LINE
  5
BA
330
5FA
100
AcDbEntity
  8
2-19I
  6
Continuous
 62
     7
370
    30
100
AcDbLine
 10
16.760827
 20
-5.463667
 30
0.0
 11
16.76966
 21
-5.454823
 31
0.0
  0
LINE
  5
BB
330
5FA
100
AcDbEntity
  8
2-19I
  6
Continuous
 62
     7
370
    30
100
AcDbLine
 10
16.787337
 20
-5.437146
 30
0.0
 11
16.796181
 21
-5.428302
 31
0.0
  0
LINE
  5
BC
330
5FA
100
AcDbEntity
  8
2-19I
  6
Continuous
 62
     7
370
    30
100
AcDbLine
 10
16.813858
 20
-5.410625
 30
0.0
 11
16.82117
 21
-5.403313
 31
0.0
  0
LINE
  5
BD
330
5FA
100
AcDbEntity
  8
2-19I
  6
Continuous
 62
     7
370
    30
100
AcDbLine
 10
16.776129
 20
-5.478969
 30
0.0
 11
16.784973
 21
-5.470135
 31
0.0
  0
LINE
  5
BE
330
5FA
100
AcDbEntity
  8
2-19I
  6
Continuous
 62
     7
370
    30
100
AcDbLine
 10
16.80265
 20
-5.452458
 30
0.0
 11
16.811483
 21
-5.443615
 31
0.0
  0
LINE
  5
BF
330
5FA
100
AcDbEntity
  8
2-19I
  6
Continuous
 62
     7
370
    30
100
AcDbLine
 10
16.817962
 20
-5.46776
 30
0.0
 11
16.820316
 21
-5.465406
 31
0.0
  0
LINE
  5
C0
330
5FA
100
AcDbEntity
  8
2-19I
  6
Continuous
 62
     7
370
    30
100
AcDbLine
 10
16.80265
 20
-5.452458
 30
0.0
 11
16.790577
 21
-5.449219
 31
0.0
  0
LINE
  5
C1
330
5FA
100
AcDbEntity
  8
2-19I
  6
Continuous
 62
     7
370
    30
100
AcDbLine
 10
16.76642
 20
-5.44275
 30
0.0
 11
16.754348
 21
-5.43951
 31
0.0
  0
LINE
  5
C2
330
5FA
100
AcDbEntity
  8
2-19I
  6
Continuous
 62
     7
370
    30
100
AcDbLine
 10
16.730202
 20
-5.433042
 30
0.0
 11
16.718129
 21
-5.429812
 31
0.0
  0
LINE
  5
C3
330
5FA
100
AcDbEntity
  8
2-19I
  6
Continuous
 62
     7
370
    30
100
AcDbLine
 10
16.693983
 20
-5.423333
 30
0.0
 11
16.68191
 21
-5.420104
 31
0.0
  0
LINE
  5
C4
330
5FA
100
AcDbEntity
  8
2-19I
  6
Continuous
 62
     7
370
    30
100
AcDbLine
 10
16.657754
 20
-5.413635
 30
0.0
 11
16.645681
 21
-5.410396
 31
0.0
  0
LINE
  5
C5
330
5FA
100
AcDbEntity
  8
2-19I
  6
Continuous
 62
     7
370
    30
100
AcDbLine
 10
16.797045
 20
-5.473365
 30
0.0
 11
16.784973
 21
-5.470135
 31
0.0
  0
LINE
  5
C6
330
5FA
100
AcDbEntity
  8
2-19I
  6
Continuous
 62
     7
370
    30
100
AcDbLine
 10
16.760827
 20
-5.463667
 30
0.0
 11
16.748743
 21
-5.460427
 31
0.0
  0
LINE
  5
C7
330
5FA
100
AcDbEntity
  8
2-19I
  6
Continuous
 62
     7
370
    30
100
AcDbLine
 10
16.724598
 20
-5.453958
 30
0.0
 11
16.712525
 21
-5.450719
 31
0.0
  0
LINE
  5
C8
330
5FA
100
AcDbEntity
  8
2-19I
  6
Continuous
 62
     7
370
    30
100
AcDbLine
 10
16.688379
 20
-5.44425
 30
0.0
 11
16.676306
 21
-5.441021
 31
0.0
  0
LINE
  5
C9
330
5FA
100
AcDbEntity
  8
2-19I
  6
Continuous
 62
     7
370
    30
100
AcDbLine
 10
16.65216
 20
-5.434542
 30
0.0
 11
16.640077
 21
-5.431312
 31
0.0
  0
LINE
  5
CA
330
5FA
100
AcDbEntity
  8
2-19I
  6
Continuous
 62
     7
370
    30
100
AcDbLine
 10
16.755223
 20
-5.484573
 30
0.0
 11
16.743139
 21
-5.481344
 31
0.0
  0
LINE
  5
CB
330
5FA
100
AcDbEntity
  8
2-19I
  6
Continuous
 62
     7
370
    30
100
AcDbLine
 10
16.718993
 20
-5.474865
 30
0.0
 11
16.70692
 21
-5.471635
 31
0.0
  0
LINE
  5
CC
330
5FA
100
AcDbEntity
  8
2-19I
  6
Continuous
 62
     7
370
    30
100
AcDbLine
 10
16.682775
 20
-5.465167
 30
0.0
 11
16.670702
 21
-5.461927
 31
0.0
  0
LINE
  5
CD
330
5FA
100
AcDbEntity
  8
2-19I
  6
Continuous
 62
     7
370
    30
100
AcDbLine
 10
16.646556
 20
-5.455458
 30
0.0
 11
16.634473
 21
-5.452219
 31
0.0
  0
LINE
  5
CE
330
5FA
100
AcDbEntity
  8
2-19I
  6
Continuous
 62
     7
370
    30
100
AcDbLine
 10
16.808254
 20
-5.431542
 30
0.0
 11
16.796181
 21
-5.428302
 31
0.0
  0
LINE
  5
CF
330
5FA
100
AcDbEntity
  8
2-19I
  6
Continuous
 62
     7
370
    30
100
AcDbLine
 10
16.772025
 20
-5.421833
 30
0.0
 11
16.759952
 21
-5.418604
 31
0.0
  0
LINE
  5
D0
330
5FA
100
AcDbEntity
  8
2-19I
  6
Continuous
 62
     7
370
    30
100
AcDbLine
 10
16.735806
 20
-5.412135
 30
0.0
 11
16.723733
 21
-5.408896
 31
0.0
  0
LINE
  5
D1
330
5FA
100
AcDbEntity
  8
2-19I
  6
Continuous
 62
     7
370
    30
100
AcDbLine
 10
16.699587
 20
-5.402427
 30
0.0
 11
16.687514
 21
-5.399188
 31
0.0
  0
LINE
  5
D2
330
5FA
100
AcDbEntity
  8
2-19I
  6
Continuous
 62
     7
370
    30
100
AcDbLine
 10
16.663358
 20
-5.392719
 30
0.0
 11
16.651285
 21
-5.389479
 31
0.0
  0
LINE
  5
D3
330
5FA
100
AcDbEntity
  8
2-19I
  6
Continuous
 62
     7
370
    30
100
AcDbLine
 10
16.813858
 20
-5.410625
 30
0.0
 11
16.801785
 21
-5.407396
 31
0.0
  0
LINE
  5
D4
330
5FA
100
AcDbEntity
  8
2-19I
  6
Continuous
 62
     7
370
    30
100
AcDbLine
 10
16.777629
 20
-5.400927
 30
0.0
 11
16.765556
 21
-5.397687
 31
0.0
  0
LINE
  5
D5
330
5FA
100
AcDbEntity
  8
2-19I
  6
Continuous
 62
     7
370
    30
100
AcDbLine
 10
16.74141
 20
-5.391219
 30
0.0
 11
16.729337
 21
-5.387979
 31
0.0
  0
LINE
  5
D6
330
5FA
100
AcDbEntity
  8
2-19I
  6
Continuous
 62
     7
370
    30
100
AcDbLine
 10
16.705191
 20
-5.38151
 30
0.0
 11
16.693118
 21
-5.378281
 31
0.0
  0
LINE
  5
D7
330
5FA
100
AcDbEntity
  8
2-19I
  6
Continuous
 62
     7
370
    30
100
AcDbLine
 10
16.668962
 20
-5.371802
 30
0.0
 11
16.65917
 21
-5.369177
 31
0.0
  0
LINE
  5
D8
330
5FA
100
AcDbEntity
  8
2-19I
  6
Continuous
 62
     7
370
    30
100
AcDbLine
 10
16.812129
 20
-5.38775
 30
0.0
 11
16.807389
 21
-5.386479
 31
0.0
  0
LINE
  5
D9
330
5FA
100
AcDbEntity
  8
2-19I
  6
Continuous
 62
     7
370
    30
100
AcDbLine
 10
16.783233
 20
-5.38001
 30
0.0
 11
16.77116
 21
-5.376771
 31
0.0
  0
LINE
  5
DA
330
5FA
100
AcDbEntity
  8
2-19I
  6
Continuous
 62
     7
370
    30
100
AcDbLine
 10
16.747014
 20
-5.370302
 30
0.0
 11
16.734941
 21
-5.367073
 31
0.0
  0
LINE
  5
DB
330
5FA
100
AcDbEntity
  8
2-19I
  6
Continuous
 62
     7
370
    30
100
AcDbLine
 10
16.734577
 20
-5.491187
 30
0.0
 11
16.734306
 21
-5.490177
 31
0.0
  0
LINE
  5
DC
330
5FA
100
AcDbEntity
  8
2-19I
  6
Continuous
 62
     7
370
    30
100
AcDbLine
 10
16.727837
 20
-5.466031
 30
0.0
 11
16.724598
 21
-5.453958
 31
0.0
  0
LINE
  5
DD
330
5FA
100
AcDbEntity
  8
2-19I
  6
Continuous
 62
     7
370
    30
100
AcDbLine
 10
16.718129
 20
-5.429812
 30
0.0
 11
16.714889
 21
-5.41774
 31
0.0
  0
LINE
  5
DE
330
5FA
100
AcDbEntity
  8
2-19I
  6
Continuous
 62
     7
370
    30
100
AcDbLine
 10
16.70842
 20
-5.393583
 30
0.0
 11
16.705191
 21
-5.38151
 31
0.0
  0
LINE
  5
DF
330
5FA
100
AcDbEntity
  8
2-19I
  6
Continuous
 62
     7
370
    30
100
AcDbLine
 10
16.70692
 20
-5.471635
 30
0.0
 11
16.703691
 21
-5.459562
 31
0.0
  0
LINE
  5
E0
330
5FA
100
AcDbEntity
  8
2-19I
  6
Continuous
 62
     7
370
    30
100
AcDbLine
 10
16.697212
 20
-5.435417
 30
0.0
 11
16.693983
 21
-5.423333
 31
0.0
  0
LINE
  5
E1
330
5FA
100
AcDbEntity
  8
2-19I
  6
Continuous
 62
     7
370
    30
100
AcDbLine
 10
16.687514
 20
-5.399188
 30
0.0
 11
16.684275
 21
-5.387115
 31
0.0
  0
LINE
  5
E2
330
5FA
100
AcDbEntity
  8
2-19I
  6
Continuous
 62
     7
370
    30
100
AcDbLine
 10
16.677806
 20
-5.362969
 30
0.0
 11
16.677764
 21
-5.362802
 31
0.0
  0
LINE
  5
E3
330
5FA
100
AcDbEntity
  8
2-19I
  6
Continuous
 62
     7
370
    30
100
AcDbLine
 10
16.686014
 20
-5.47724
 30
0.0
 11
16.682775
 21
-5.465167
 31
0.0
  0
LINE
  5
E4
330
5FA
100
AcDbEntity
  8
2-19I
  6
Continuous
 62
     7
370
    30
100
AcDbLine
 10
16.676306
 20
-5.441021
 30
0.0
 11
16.673066
 21
-5.428937
 31
0.0
  0
LINE
  5
E5
330
5FA
100
AcDbEntity
  8
2-19I
  6
Continuous
 62
     7
370
    30
100
AcDbLine
 10
16.666598
 20
-5.404792
 30
0.0
 11
16.663358
 21
-5.392719
 31
0.0
  0
LINE
  5
E6
330
5FA
100
AcDbEntity
  8
2-19I
  6
Continuous
 62
     7
370
    30
100
AcDbLine
 10
16.663608
 20
-5.477281
 30
0.0
 11
16.661858
 21
-5.470771
 31
0.0
  0
LINE
  5
E7
330
5FA
100
AcDbEntity
  8
2-19I
  6
Continuous
 62
     7
370
    30
100
AcDbLine
 10
16.655389
 20
-5.446615
 30
0.0
 11
16.65216
 21
-5.434542
 31
0.0
  0
LINE
  5
E8
330
5FA
100
AcDbEntity
  8
2-19I
  6
Continuous
 62
     7
370
    30
100
AcDbLine
 10
16.645681
 20
-5.410396
 30
0.0
 11
16.642452
 21
-5.398323
 31
0.0
  0
LINE
  5
E9
330
5FA
100
AcDbEntity
  8
2-19I
  6
Continuous
 62
     7
370
    30
100
AcDbLine
 10
16.634473
 20
-5.452219
 30
0.0
 11
16.631243
 21
-5.440146
 31
0.0
  0
LINE
  5
EA
330
5FA
100
AcDbEntity
  8
2-19I
  6
Continuous
 62
     7
370
    30
100
AcDbLine
 10
16.624775
 20
-5.416
 30
0.0
 11
16.621629
 21
-5.404292
 31
0.0
  0
LINE
  5
EB
330
5FA
100
AcDbEntity
  8
2-19I
  6
Continuous
 62
     7
370
    30
100
AcDbLine
 10
16.756931
 20
-5.490979
 30
0.0
 11
16.755223
 21
-5.484573
 31
0.0
  0
LINE
  5
EC
330
5FA
100
AcDbEntity
  8
2-19I
  6
Continuous
 62
     7
370
    30
100
AcDbLine
 10
16.748743
 20
-5.460427
 30
0.0
 11
16.745514
 21
-5.448354
 31
0.0
  0
LINE
  5
ED
330
5FA
100
AcDbEntity
  8
2-19I
  6
Continuous
 62
     7
370
    30
100
AcDbLine
 10
16.739045
 20
-5.424208
 30
0.0
 11
16.735806
 21
-5.412135
 31
0.0
  0
LINE
  5
EE
330
5FA
100
AcDbEntity
  8
2-19I
  6
Continuous
 62
     7
370
    30
100
AcDbLine
 10
16.729337
 20
-5.387979
 30
0.0
 11
16.726098
 21
-5.375906
 31
0.0
  0
LINE
  5
EF
330
5FA
100
AcDbEntity
  8
2-19I
  6
Continuous
 62
     7
370
    30
100
AcDbLine
 10
16.777514
 20
-5.484135
 30
0.0
 11
16.776129
 21
-5.478969
 31
0.0
  0
LINE
  5
F0
330
5FA
100
AcDbEntity
  8
2-19I
  6
Continuous
 62
     7
370
    30
100
AcDbLine
 10
16.76966
 20
-5.454823
 30
0.0
 11
16.76642
 21
-5.44275
 31
0.0
  0
LINE
  5
F1
330
5FA
100
AcDbEntity
  8
2-19I
  6
Continuous
 62
     7
370
    30
100
AcDbLine
 10
16.759952
 20
-5.418604
 30
0.0
 11
16.756723
 21
-5.406531
 31
0.0
  0
LINE
  5
F2
330
5FA
100
AcDbEntity
  8
2-19I
  6
Continuous
 62
     7
370
    30
100
AcDbLine
 10
16.750254
 20
-5.382375
 30
0.0
 11
16.747014
 21
-5.370302
 31
0.0
  0
LINE
  5
F3
330
5FA
100
AcDbEntity
  8
2-19I
  6
Continuous
 62
     7
370
    30
100
AcDbLine
 10
16.798098
 20
-5.477302
 30
0.0
 11
16.797045
 21
-5.473365
 31
0.0
  0
LINE
  5
F4
330
5FA
100
AcDbEntity
  8
2-19I
  6
Continuous
 62
     7
370
    30
100
AcDbLine
 10
16.790577
 20
-5.449219
 30
0.0
 11
16.787337
 21
-5.437146
 31
0.0
  0
LINE
  5
F5
330
5FA
100
AcDbEntity
  8
2-19I
  6
Continuous
 62
     7
370
    30
100
AcDbLine
 10
16.780868
 20
-5.413
 30
0.0
 11
16.777629
 21
-5.400927
 31
0.0
  0
LINE
  5
F6
330
5FA
100
AcDbEntity
  8
2-19I
  6
Continuous
 62
     7
370
    30
100
AcDbLine
 10
16.77116
 20
-5.376771
 30
0.0
 11
16.769743
 21
-5.371479
 31
0.0
  0
LINE
  5
F7
330
5FA
100
AcDbEntity
  8
2-19I
  6
Continuous
 62
     7
370
    30
100
AcDbLine
 10
16.818681
 20
-5.470458
 30
0.0
 11
16.817962
 21
-5.46776
 31
0.0
  0
LINE
  5
F8
330
5FA
100
AcDbEntity
  8
2-19I
  6
Continuous
 62
     7
370
    30
100
AcDbLine
 10
16.811483
 20
-5.443615
 30
0.0
 11
16.808254
 21
-5.431542
 31
0.0
  0
LINE
  5
F9
330
5FA
100
AcDbEntity
  8
2-19I
  6
Continuous
 62
     7
370
    30
100
AcDbLine
 10
16.801785
 20
-5.407396
 30
0.0
 11
16.798545
 21
-5.395323
 31
0.0
  0
LWPOLYLINE
  5
FA
330
5FA
100
AcDbEntity
  8
_0
  6
Continuous
 62
     7
370
    30
100
AcDbPolyline
 90
       34
 70
   128
 43
0.0
 10
16.489056
 20
-5.001469
 10
16.489056
 20
-5.284875
 10
16.474056
 20
-5.284875
 10
16.474056
 20
-5.364385
 10
16.489056
 20
-5.364385
 10
16.489056
 20
-5.387792
 10
16.489052
 20
-5.387794
 42
0.641375
 10
16.489052
 20
-5.42584
 10
16.489056
 20
-5.425844
 10
16.489056
 20
-5.450854
 10
16.489052
 20
-5.450855
 42
0.641375
 10
16.489052
 20
-5.488901
 10
16.489056
 20
-5.488906
 10
16.489056
 20
-5.501469
 10
16.509056
 20
-5.501469
 10
16.509056
 20
-5.48751
 10
16.509052
 20
-5.487515
 42
0.547704
 10
16.509052
 20
-5.452242
 10
16.509056
 20
-5.45224
 10
16.509056
 20
-5.424458
 10
16.509052
 20
-5.424454
 42
0.547704
 10
16.509052
 20
-5.389181
 10
16.509056
 20
-5.389177
 10
16.509056
 20
-5.364385
 10
16.524056
 20
-5.364385
 10
16.524056
 20
-5.344625
 10
16.568254
 20
-5.344625
 10
16.666077
 20
-5.421927
 10
16.678483
 20
-5.406229
 10
16.575202
 20
-5.324625
 10
16.524056
 20
-5.324625
 10
16.524056
 20
-5.284875
 10
16.509056
 20
-5.284875
 10
16.509056
 20
-5.001469
  0
LWPOLYLINE
  5
104
330
5FA
100
AcDbEntity
  8
2-19I
  6
Continuous
 62
     7
370
    30
100
AcDbPolyline
 90
       11
 70
   128
 43
0.0
 10
16.617098
 20
-5.412615
 10
16.631712
 20
-5.385792
 10
16.669712
 20
-5.362802
 10
16.744733
 20
-5.362802
 10
16.810983
 20
-5.385792
 10
16.826577
 20
-5.412615
 10
16.819754
 20
-5.470104
 10
16.750577
 20
-5.493094
 10
16.675556
 20
-5.484146
 10
16.620014
 20
-5.452219
 10
16.617098
 20
-5.412615
  0
LINE
  5
105
330
5FA
100
AcDbEntity
  8
_0
  6
Continuous
 62
     7
370
    30
100
AcDbLine
 10
16.484056
 20
-4.547104
 30
0.0
 11
16.484056
 21
-4.586469
 31
0.0
  0
LINE
  5
106
330
5FA
100
AcDbEntity
  8
_0
  6
Continuous
 62
     7
370
    30
100
AcDbLine
 10
16.514056
 20
-4.547104
 30
0.0
 11
16.514056
 21
-4.586469
 31
0.0
  0
ARC
  5
107
330
5FA
100
AcDbEntity
  8
_0
  6
Continuous
 62
     7
370
    30
100
AcDbCircle
 10
16.499052
 20
-4.527109
 30
0.0
 40
0.0249999999999997
100
AcDbArc
 50
306.869897
 51
233.130103
  0
ARC
  5
108
330
5FA
100
AcDbEntity
  8
_0
  6
Continuous
 62
     7
370
    30
100
AcDbCircle
 10
16.499052
 20
-4.586472
 30
0.0
 40
0.0149999999999997
100
AcDbArc
 50
180.0
 51
0.0
  0
LINE
  5
109
330
5FA
100
AcDbEntity
  8
2-19I
  6
Continuous
 62
     7
370
    30
100
AcDbLine
 10
16.484056
 20
-4.501469
 30
0.0
 11
16.484056
 21
-4.507104
 31
0.0
  0
LINE
  5
10A
330
5FA
100
AcDbEntity
  8
_0
  6
Continuous
 62
     7
370
    30
100
AcDbLine
 10
16.514056
 20
-4.501469
 30
0.0
 11
16.514056
 21
-4.507104
 31
0.0
  0
LINE
  5
10B
330
5FA
100
AcDbEntity
  8
_0
  6
Continuous
 62
     7
370
    30
100
AcDbLine
 10
16.489056
 20
-4.597656
 30
0.0
 11
16.489056
 21
-4.901469
 31
0.0
  0
LINE
  5
10C
330
5FA
100
AcDbEntity
  8
_0
  6
Continuous
 62
     7
370
    30
100
AcDbLine
 10
16.509056
 20
-4.597656
 30
0.0
 11
16.509056
 21
-4.901469
 31
0.0
  0
LINE
  5
10D
330
5FA
100
AcDbEntity
  8
_0
  6
Continuous
 62
     7
370
    30
100
AcDbLine
 10
16.494056
 20
-4.401469
 30
0.0
 11
16.494056
 21
-4.501469
 31
0.0
  0
LINE
  5
10E
330
5FA
100
AcDbEntity
  8
_0
  6
Continuous
 62
     7
370
    30
100
AcDbLine
 10
16.504056
 20
-4.401469
 30
0.0
 11
16.504056
 21
-4.501469
 31
0.0
  0
LINE
  5
10F
330
5FA
100
AcDbEntity
  8
_0
  6
Continuous
 62
     7
370
    30
100
AcDbLine
 10
16.484056
 20
-4.501469
 30
0.0
 11
16.514056
 21
-4.501469
 31
0.0
  0
LINE
  5
110
330
5FA
100
AcDbEntity
  8
2-19I
  6
Continuous
 62
     7
370
    30
100
AcDbLine
 10
16.494056
 20
-4.401469
 30
0.0
 11
16.504056
 21
-4.401469
 31
0.0
  0
LINE
  5
111
330
5FA
100
AcDbEntity
  8
_0
  6
Continuous
 62
     7
370
    30
100
AcDbLine
 10
16.874056
 20
-4.64776
 30
0.0
 11
16.924056
 21
-4.64776
 31
0.0
  0
LINE
  5
112
330
5FA
100
AcDbEntity
  8
_0
  6
Continuous
 62
     7
370
    30
100
AcDbLine
 10
16.909056
 20
-5.001469
 30
0.0
 11
16.909056
 21
-5.081469
 31
0.0
  0
LINE
  5
113
330
5FA
100
AcDbEntity
  8
_0
  6
Continuous
 62
     7
370
    30
100
AcDbLine
 10
16.889056
 20
-5.001469
 30
0.0
 11
16.889056
 21
-5.101469
 31
0.0
  0
ARC
  5
114
330
5FA
100
AcDbEntity
  8
_0
  6
Continuous
 62
     7
370
    30
100
AcDbCircle
 10
16.989052
 20
-5.101472
 30
0.0
 40
0.1
100
AcDbArc
 50
180.0
 51
270.0
  0
ARC
  5
115
330
5FA
100
AcDbEntity
  8
_0
  6
Continuous
 62
     7
370
    30
100
AcDbCircle
 10
17.009052
 20
-5.081472
 30
0.0
 40
0.1
100
AcDbArc
 50
180.0
 51
270.0
  0
LINE
  5
116
330
5FA
100
AcDbEntity
  8
_0
  6
Continuous
 62
     7
370
    30
100
AcDbLine
 10
17.009056
 20
-5.181469
 30
0.0
 11
17.236452
 21
-5.181469
 31
0.0
  0
LINE
  5
117
330
5FA
100
AcDbEntity
  8
_0
  6
Continuous
 62
     7
370
    30
100
AcDbLine
 10
16.989056
 20
-5.201469
 30
0.0
 11
17.236452
 21
-5.201469
 31
0.0
  0
LINE
  5
118
330
5FA
100
AcDbEntity
  8
_0
  6
Continuous
 62
     7
370
    30
100
AcDbLine
 10
16.889056
 20
-4.706021
 30
0.0
 11
16.889056
 21
-4.901469
 31
0.0
  0
LINE
  5
119
330
5FA
100
AcDbEntity
  8
_0
  6
Continuous
 62
     7
370
    30
100
AcDbLine
 10
16.909056
 20
-4.706021
 30
0.0
 11
16.909056
 21
-4.901469
 31
0.0
  0
LINE
  5
11A
330
5FA
100
AcDbEntity
  8
_0
  6
Continuous
 62
     7
370
    30
100
AcDbLine
 10
16.874056
 20
-4.706021
 30
0.0
 11
16.924056
 21
-4.706021
 31
0.0
  0
LINE
  5
11B
330
5FA
100
AcDbEntity
  8
_0
  6
Continuous
 62
     7
370
    30
100
AcDbLine
 10
16.874056
 20
-4.5895
 30
0.0
 11
16.924056
 21
-4.5895
 31
0.0
  0
LINE
  5
11C
330
5FA
100
AcDbEntity
  8
_0
  6
Continuous
 62
     7
370
    30
100
AcDbLine
 10
16.874056
 20
-4.5895
 30
0.0
 11
16.874056
 21
-4.706021
 31
0.0
  0
LINE
  5
11D
330
5FA
100
AcDbEntity
  8
_0
  6
Continuous
 62
     7
370
    30
100
AcDbLine
 10
16.924056
 20
-4.5895
 30
0.0
 11
16.924056
 21
-4.706021
 31
0.0
  0
LINE
  5
11E
330
5FA
100
AcDbEntity
  8
_0
  6
Continuous
 62
     7
370
    30
100
AcDbLine
 10
16.974056
 20
-5.001469
 30
0.0
 11
16.974056
 21
-5.301469
 31
0.0
  0
LINE
  5
11F
330
5FA
100
AcDbEntity
  8
_0
  6
Continuous
 62
     7
370
    30
100
AcDbLine
 10
16.824056
 20
-5.001469
 30
0.0
 11
16.824056
 21
-5.301469
 31
0.0
  0
LINE
  5
120
330
5FA
100
AcDbEntity
  8
_0
  6
Continuous
 62
     7
370
    30
100
AcDbLine
 10
16.949056
 20
-4.501469
 30
0.0
 11
16.974056
 21
-4.526469
 31
0.0
  0
LINE
  5
121
330
5FA
100
AcDbEntity
  8
_0
  6
Continuous
 62
     7
370
    30
100
AcDbLine
 10
16.824056
 20
-4.526469
 30
0.0
 11
16.849056
 21
-4.501469
 31
0.0
  0
LINE
  5
122
330
5FA
100
AcDbEntity
  8
_0
  6
Continuous
 62
     7
370
    30
100
AcDbLine
 10
16.824056
 20
-4.526469
 30
0.0
 11
16.824056
 21
-4.901469
 31
0.0
  0
LINE
  5
123
330
5FA
100
AcDbEntity
  8
_0
  6
Continuous
 62
     7
370
    30
100
AcDbLine
 10
16.974056
 20
-4.526469
 30
0.0
 11
16.974056
 21
-4.901469
 31
0.0
  0
LINE
  5
124
330
5FA
100
AcDbEntity
  8
_0
  6
Continuous
 62
     7
370
    30
100
AcDbLine
 10
16.824056
 20
-5.301469
 30
0.0
 11
16.974056
 21
-5.301469
 31
0.0
  0
LINE
  5
125
330
5FA
100
AcDbEntity
  8
_0
  6
Continuous
 62
     7
370
    30
100
AcDbLine
 10
16.849056
 20
-4.501469
 30
0.0
 11
16.949056
 21
-4.501469
 31
0.0
  0
LINE
  5
126
330
5FA
100
AcDbEntity
  8
2-19I
  6
Continuous
 62
     7
370
    30
100
AcDbLine
 10
17.810014
 20
-4.901469
 30
0.0
 11
17.810014
 21
-5.001469
 31
0.0
  0
LINE
  5
127
330
5FA
100
AcDbEntity
  8
_0
  6
Continuous
 62
     7
370
    30
100
AcDbLine
 10
15.588087
 20
-5.001469
 30
0.0
 11
15.588087
 21
-4.901469
 31
0.0
  0
LINE
  5
128
330
5FA
100
AcDbEntity
  8
_0
  6
Continuous
 62
     7
370
    30
100
AcDbLine
 10
15.588087
 20
-5.001469
 30
0.0
 11
15.947212
 21
-5.001469
 31
0.0
  0
LINE
  5
129
330
5FA
100
AcDbEntity
  8
_0
  6
Continuous
 62
     7
370
    30
100
AcDbLine
 10
15.588087
 20
-4.901469
 30
0.0
 11
15.99415
 21
-4.901469
 31
0.0
  0
LINE
  5
132
330
5FA
100
AcDbEntity
  8
REF
  6
Continuous
 62
     7
370
    13
100
AcDbLine
 10
13.898813
 20
-9.117427
 30
0.0
 11
13.798312
 21
-9.117427
 31
0.0
  0
LINE
  5
133
330
5FA
100
AcDbEntity
  8
REF
  6
Continuous
 62
     7
370
    13
100
AcDbLine
 10
13.898813
 20
-9.833427
 30
0.0
 11
13.798312
 21
-9.833427
 31
0.0
  0
LINE
  5
137
330
5FA
100
AcDbEntity
  8
REF
  6
Continuous
 62
     7
370
    13
100
AcDbLine
 10
12.756448
 20
-9.750427
 30
0.0
 11
12.756448
 21
-9.98
 31
0.0
  0
LWPOLYLINE
  5
138
330
5FA
100
AcDbEntity
  8
2-19I
  6
Continuous
 62
     7
370
    30
100
AcDbPolyline
 90
        3
 70
   128
 43
0.0
 10
12.07225
 20
-9.073573
 10
12.07225
 20
-9.475427
 10
12.198469
 20
-9.475427
  0
LINE
  5
13A
330
5FA
100
AcDbEntity
  8
2-19I
  6
Continuous
 62
     7
370
    13
100
AcDbLine
 10
12.631448
 20
-9.250427
 30
0.0
 11
12.288646
 21
-9.250427
 31
0.0
  0
LINE
  5
13B
330
5FA
100
AcDbEntity
  8
2-19I
  6
Continuous
 62
     7
370
    13
100
AcDbLine
 10
12.706448
 20
-9.700427
 30
0.0
 11
12.288646
 21
-9.700427
 31
0.0
  0
LWPOLYLINE
  5
13C
330
5FA
100
AcDbEntity
  8
2-19I
  6
Continuous
 62
     7
370
    30
100
AcDbPolyline
 90
        3
 70
   128
 43
0.0
 10
13.493656
 20
-8.255
 10
13.493656
 20
-7.772031
 10
13.095844
 20
-7.772031
  0
LWPOLYLINE
  5
13D
330
5FA
100
AcDbEntity
  8
2-19I
  6
Continuous
 62
     7
370
    30
100
AcDbPolyline
 90
        3
 70
   128
 43
0.0
 10
13.102906
 20
-10.896823
 10
13.493656
 20
-10.896823
 10
13.493656
 20
-10.145167
  0
LWPOLYLINE
  5
13E
330
5FA
100
AcDbEntity
  8
2-19I
  6
Continuous
 62
     7
370
    30
100
AcDbPolyline
 90
        3
 70
   128
 43
0.0
 10
14.184042
 20
-9.475427
 10
14.915052
 20
-9.475427
 10
14.915052
 20
-9.1195
  0
LINE
  5
147
330
5FA
100
AcDbEntity
  8
2-19I
  6
Continuous
 62
     7
370
    30
100
AcDbLine
 10
12.805865
 20
-9.705427
 30
0.0
 11
12.775812
 21
-9.705427
 31
0.0
  0
LINE
  5
148
330
5FA
100
AcDbEntity
  8
2-19I
  6
Continuous
 62
     7
370
    30
100
AcDbLine
 10
12.805865
 20
-9.695427
 30
0.0
 11
12.775812
 21
-9.695427
 31
0.0
  0
CIRCLE
  5
149
330
5FA
100
AcDbEntity
  8
2-19I
  6
Continuous
 62
     7
370
    30
100
AcDbCircle
 10
12.756446
 20
-9.700427
 30
0.0
 40
0.02
  0
LINE
  5
14A
330
5FA
100
AcDbEntity
  8
2-19I
  6
Continuous
 62
     7
370
    30
100
AcDbLine
 10
12.805865
 20
-9.695427
 30
0.0
 11
12.805865
 21
-9.705427
 31
0.0
  0
LINE
  5
14B
330
5FA
100
AcDbEntity
  8
2-19I
  6
Continuous
 62
     7
370
    30
100
AcDbLine
 10
12.856448
 20
-9.275427
 30
0.0
 11
12.831448
 21
-9.275427
 31
0.0
  0
LINE
  5
14C
330
5FA
100
AcDbEntity
  8
2-19I
  6
Continuous
 62
     7
370
    30
100
AcDbLine
 10
12.856448
 20
-9.225427
 30
0.0
 11
12.831448
 21
-9.225427
 31
0.0
  0
LINE
  5
14D
330
5FA
100
AcDbEntity
  8
2-19I
  6
Continuous
 62
     7
370
    30
100
AcDbLine
 10
12.856448
 20
-9.225427
 30
0.0
 11
12.856448
 21
-9.275427
 31
0.0
  0
LINE
  5
14E
330
5FA
100
AcDbEntity
  8
2-19I
  6
Continuous
 62
     7
370
    30
100
AcDbLine
 10
12.681448
 20
-9.175427
 30
0.0
 11
12.681448
 21
-9.325427
 31
0.0
  0
LINE
  5
14F
330
5FA
100
AcDbEntity
  8
2-19I
  6
Continuous
 62
     7
370
    30
100
AcDbLine
 10
12.831448
 20
-9.325427
 30
0.0
 11
12.681448
 21
-9.325427
 31
0.0
  0
LINE
  5
150
330
5FA
100
AcDbEntity
  8
2-19I
  6
Continuous
 62
     7
370
    30
100
AcDbLine
 10
12.831448
 20
-9.175427
 30
0.0
 11
12.681448
 21
-9.175427
 31
0.0
  0
LINE
  5
151
330
5FA
100
AcDbEntity
  8
2-19I
  6
Continuous
 62
     7
370
    30
100
AcDbLine
 10
12.831448
 20
-9.175427
 30
0.0
 11
12.831448
 21
-9.325427
 31
0.0
  0
LINE
  5
152
330
5FA
100
AcDbEntity
  8
2-19I
  6
Continuous
 62
     7
370
    30
100
AcDbLine
 10
14.131448
 20
-9.825427
 30
0.0
 11
14.281448
 21
-9.850427
 31
0.0
  0
LINE
  5
153
330
5FA
100
AcDbEntity
  8
2-19I
  6
Continuous
 62
     7
370
    30
100
AcDbLine
 10
14.281448
 20
-9.100427
 30
0.0
 11
14.131448
 21
-9.125427
 31
0.0
  0
LINE
  5
154
330
5FA
100
AcDbEntity
  8
2-19I
  6
Continuous
 62
     7
370
    30
100
AcDbLine
 10
14.131448
 20
-9.833427
 30
0.0
 11
13.973375
 21
-9.833427
 31
0.0
  0
LINE
  5
155
330
5FA
100
AcDbEntity
  8
2-19I
  6
Continuous
 62
     7
370
    30
100
AcDbLine
 10
14.131448
 20
-9.117427
 30
0.0
 11
13.973375
 21
-9.117427
 31
0.0
  0
LINE
  5
156
330
5FA
100
AcDbEntity
  8
2-19I
  6
Continuous
 62
     7
370
    30
100
AcDbLine
 10
13.973375
 20
-9.117427
 30
0.0
 11
13.973375
 21
-9.833427
 31
0.0
  0
LINE
  5
157
330
5FA
100
AcDbEntity
  8
2-19I
  6
Continuous
 62
     7
370
    30
100
AcDbLine
 10
14.131448
 20
-9.825427
 30
0.0
 11
14.131448
 21
-10.315344
 31
0.0
  0
LINE
  5
158
330
5FA
100
AcDbEntity
  8
2-19I
  6
Continuous
 62
     7
370
    30
100
AcDbLine
 10
14.231448
 20
-9.842094
 30
0.0
 11
14.231448
 21
-10.315344
 31
0.0
  0
LINE
  5
159
330
5FA
100
AcDbEntity
  8
2-19I
  6
Continuous
 62
     7
370
    30
100
AcDbLine
 10
13.981448
 20
-9.125427
 30
0.0
 11
13.981448
 21
-9.825427
 31
0.0
  0
LINE
  5
15A
330
5FA
100
AcDbEntity
  8
2-19I
  6
Continuous
 62
     7
370
    30
100
AcDbLine
 10
14.131448
 20
-9.125427
 30
0.0
 11
13.981448
 21
-9.125427
 31
0.0
  0
LINE
  5
15B
330
5FA
100
AcDbEntity
  8
2-19I
  6
Continuous
 62
     7
370
    30
100
AcDbLine
 10
14.131448
 20
-9.825427
 30
0.0
 11
13.981448
 21
-9.825427
 31
0.0
  0
LINE
  5
15C
330
5FA
100
AcDbEntity
  8
2-19I
  6
Continuous
 62
     7
370
    30
100
AcDbLine
 10
14.281448
 20
-8.690302
 30
0.0
 11
14.281448
 21
-10.315344
 31
0.0
  0
LINE
  5
15D
330
5FA
100
AcDbEntity
  8
2-19I
  6
Continuous
 62
     7
370
    30
100
AcDbLine
 10
14.231448
 20
-8.690302
 30
0.0
 11
14.231448
 21
-9.10876
 31
0.0
  0
LINE
  5
15E
330
5FA
100
AcDbEntity
  8
2-19I
  6
Continuous
 62
     7
370
    30
100
AcDbLine
 10
14.131448
 20
-8.690302
 30
0.0
 11
14.131448
 21
-9.125427
 31
0.0
  0
LINE
  5
15F
330
5FA
100
AcDbEntity
  8
2-19I
  6
Continuous
 62
     7
370
    30
100
AcDbLine
 10
14.131448
 20
-10.000427
 30
0.0
 11
12.931448
 21
-10.000427
 31
0.0
  0
LINE
  5
160
330
5FA
100
AcDbEntity
  8
2-19I
  6
Continuous
 62
     7
370
    30
100
AcDbLine
 10
12.931448
 20
-8.950427
 30
0.0
 11
12.931448
 21
-10.000427
 31
0.0
  0
LINE
  5
161
330
5FA
100
AcDbEntity
  8
2-19I
  6
Continuous
 62
     7
370
    30
100
AcDbLine
 10
14.131448
 20
-8.950427
 30
0.0
 11
12.931448
 21
-8.950427
 31
0.0
  0
LINE
  5
167
330
5FA
100
AcDbEntity
  8
2-19I
  6
Continuous
 62
     7
370
    30
100
AcDbLine
 10
13.731295
 20
-5.806427
 30
0.0
 11
13.863025
 21
-5.982073
 31
0.0
  0
LINE
  5
168
330
5FA
100
AcDbEntity
  8
2-19I
  6
Continuous
 62
     7
370
    30
100
AcDbLine
 10
12.942077
 20
-5.81
 30
0.0
 11
12.813025
 21
-5.982073
 31
0.0
  0
CIRCLE
  5
16B
330
5FA
100
AcDbEntity
  8
2-19I
  6
Continuous
 62
     7
370
    30
100
AcDbCircle
 10
12.704223
 20
-5.277721
 30
0.0
 40
0.1562543147246997
  0
LINE
  5
16D
330
5FA
100
AcDbEntity
  8
REF
  6
Continuous
 62
     7
370
    13
100
AcDbLine
 10
12.813025
 20
-4.132073
 30
0.0
 11
12.813025
 21
-3.759948
 31
0.0
  0
LINE
  5
16E
330
5FA
100
AcDbEntity
  8
REF
  6
Continuous
 62
     7
370
    13
100
AcDbLine
 10
13.863025
 20
-4.007073
 30
0.0
 11
13.863025
 21
-3.759948
 31
0.0
  0
LINE
  5
170
330
5FA
100
AcDbEntity
  8
2-19I
  6
Continuous
 62
     7
370
    13
100
AcDbLine
 10
13.813025
 20
-4.232073
 30
0.0
 11
13.686108
 21
-4.232073
 31
0.0
  0
LINE
  5
173
330
5FA
100
AcDbEntity
  8
REF
  6
Continuous
 62
     7
370
    13
100
AcDbLine
 10
13.813025
 20
-6.307073
 30
0.0
 11
13.686108
 21
-6.307073
 31
0.0
  0
ARC
  5
175
330
5FA
100
AcDbEntity
  8
2-19I
  6
Continuous
 62
     7
370
    30
100
AcDbCircle
 10
12.513022
 20
-4.182073
 30
0.0
 40
0.3
100
AcDbArc
 50
146.278924
 51
180.0
  0
HATCH
  5
61D
330
5FA
100
AcDbEntity
  8
2-19I
  6
Continuous
 62
    20
370
    30
100
AcDbHatch
 10
0.0
 20
0.0
 30
0.0
210
0.0
220
0.0
230
1.0
  2
SOLID
 70
     1
 71
     1
 91
        1
 92
        1
 93
        1
 72
     2
 10
12.6458304675612
 20
-5.248406409932841
 40
0.0125000000000001
 50
0.0
 51
360.0
 73
     1
 97
        1
330
179
 75
     0
 76
     1
 98
        0
  0
CIRCLE
  5
179
102
{ACAD_REACTORS
330
61D
102
}
330
5FA
100
AcDbEntity
  8
2-19I
  6
Continuous
 62
     7
370
    30
100
AcDbCircle
 10
12.64583
 20
-5.248406
 30
0.0
 40
0.0125000000000001
  0
LWPOLYLINE
  5
61E
330
5FA
100
AcDbEntity
  8
2-19I
  6
Continuous
 62
     7
370
    30
100
AcDbPolyline
 90
        2
 70
   128
 43
0.0
 10
12.64583
 20
-5.248406
 10
12.64583
 20
-5.248406
  0
HATCH
  5
61F
330
5FA
100
AcDbEntity
  8
2-19I
  6
Continuous
 62
    20
370
    30
100
AcDbHatch
 10
0.0
 20
0.0
 30
0.0
210
0.0
220
0.0
230
1.0
  2
SOLID
 70
     1
 71
     1
 91
        1
 92
        1
 93
        1
 72
     2
 10
12.6458304675612
 20
-5.309296775435476
 40
0.0125000000000001
 50
0.0
 51
360.0
 73
     1
 97
        1
330
17C
 75
     0
 76
     1
 98
        0
  0
CIRCLE
  5
17C
102
{ACAD_REACTORS
330
61F
102
}
330
5FA
100
AcDbEntity
  8
2-19I
  6
Continuous
 62
     7
370
    30
100
AcDbCircle
 10
12.64583
 20
-5.309297
 30
0.0
 40
0.0125000000000001
  0
LWPOLYLINE
  5
620
330
5FA
100
AcDbEntity
  8
2-19I
  6
Continuous
 62
     7
370
    30
100
AcDbPolyline
 90
        2
 70
   128
 43
0.0
 10
12.64583
 20
-5.309297
 10
12.64583
 20
-5.309297
  0
LINE
  5
17E
330
5FA
100
AcDbEntity
  8
2-19I
  6
Continuous
 62
     7
370
    30
100
AcDbLine
 10
12.813025
 20
-5.247073
 30
0.0
 11
12.813025
 21
-4.182073
 31
0.0
  0
LINE
  5
17F
330
5FA
100
AcDbEntity
  8
2-19I
  6
Continuous
 62
     7
370
    30
100
AcDbLine
 10
12.788025
 20
-5.247073
 30
0.0
 11
12.788025
 21
-4.232073
 31
0.0
  0
LINE
  5
180
330
5FA
100
AcDbEntity
  8
2-19I
  6
Continuous
 62
     7
370
    30
100
AcDbLine
 10
12.813025
 20
-5.247073
 30
0.0
 11
12.763025
 21
-5.247073
 31
0.0
  0
LINE
  5
181
330
5FA
100
AcDbEntity
  8
2-19I
  6
Continuous
 62
     7
370
    30
100
AcDbLine
 10
12.813025
 20
-5.317073
 30
0.0
 11
12.763025
 21
-5.317073
 31
0.0
  0
LINE
  5
182
330
5FA
100
AcDbEntity
  8
2-19I
  6
Continuous
 62
     7
370
    30
100
AcDbLine
 10
12.763025
 20
-5.232073
 30
0.0
 11
12.688025
 21
-5.232073
 31
0.0
  0
LINE
  5
183
330
5FA
100
AcDbEntity
  8
2-19I
  6
Continuous
 62
     7
370
    30
100
AcDbLine
 10
12.763025
 20
-5.332073
 30
0.0
 11
12.688025
 21
-5.332073
 31
0.0
  0
LINE
  5
184
330
5FA
100
AcDbEntity
  8
2-19I
  6
Continuous
 62
     7
370
    30
100
AcDbLine
 10
12.688025
 20
-5.332073
 30
0.0
 11
12.688025
 21
-5.232073
 31
0.0
  0
LINE
  5
185
330
5FA
100
AcDbEntity
  8
2-19I
  6
Continuous
 62
     7
370
    30
100
AcDbLine
 10
12.763025
 20
-5.332073
 30
0.0
 11
12.763025
 21
-5.232073
 31
0.0
  0
ARC
  5
186
330
5FA
100
AcDbEntity
  8
2-19I
  6
Continuous
 62
     7
370
    30
100
AcDbCircle
 10
12.513022
 20
-6.307073
 30
0.0
 40
0.3
100
AcDbArc
 50
180.0
 51
0.0
  0
ARC
  5
187
330
5FA
100
AcDbEntity
  8
2-19I
  6
Continuous
 62
     7
370
    30
100
AcDbCircle
 10
12.513022
 20
-4.182073
 30
0.0
 40
0.3
100
AcDbArc
 50
0.0
 51
60.018717
  0
LINE
  5
188
330
5FA
100
AcDbEntity
  8
2-19I
  6
Continuous
 62
     7
370
    30
100
AcDbLine
 10
12.213025
 20
-6.307073
 30
0.0
 11
12.213025
 21
-4.182073
 31
0.0
  0
LINE
  5
189
330
5FA
100
AcDbEntity
  8
2-19I
  6
Continuous
 62
     7
370
    30
100
AcDbLine
 10
13.863025
 20
-6.307073
 30
0.0
 11
13.888025
 21
-6.307073
 31
0.0
  0
LINE
  5
18A
330
5FA
100
AcDbEntity
  8
2-19I
  6
Continuous
 62
     7
370
    30
100
AcDbLine
 10
13.863025
 20
-4.232073
 30
0.0
 11
13.888025
 21
-4.232073
 31
0.0
  0
LINE
  5
18B
330
5FA
100
AcDbEntity
  8
2-19I
  6
Continuous
 62
     7
370
    30
100
AcDbLine
 10
13.362025
 20
-5.314073
 30
0.0
 11
13.528302
 21
-5.535785
 31
0.0
  0
LINE
  5
18C
330
5FA
100
AcDbEntity
  8
2-19I
  6
Continuous
 62
     7
370
    30
100
AcDbLine
 10
13.314025
 20
-5.314073
 30
0.0
 11
13.108025
 21
-5.58874
 31
0.0
  0
CIRCLE
  5
18D
330
5FA
100
AcDbEntity
  8
2-19I
  6
Continuous
 62
     7
370
    30
100
AcDbCircle
 10
13.338022
 20
-5.282073
 30
0.0
 40
0.04
  0
LINE
  5
18E
330
5FA
100
AcDbEntity
  8
2-19I
  6
Continuous
 62
     7
370
    30
100
AcDbLine
 10
13.863025
 20
-4.582073
 30
0.0
 11
13.362025
 21
-5.250073
 31
0.0
  0
LINE
  5
18F
330
5FA
100
AcDbEntity
  8
2-19I
  6
Continuous
 62
     7
370
    30
100
AcDbLine
 10
12.928696
 20
-4.736301
 30
0.0
 11
13.314025
 21
-5.250073
 31
0.0
  0
LINE
  5
190
330
5FA
100
AcDbEntity
  8
2-19I
  6
Continuous
 62
     7
370
    30
100
AcDbLine
 10
12.788025
 20
-6.307073
 30
0.0
 11
12.813025
 21
-6.307073
 31
0.0
  0
LINE
  5
191
330
5FA
100
AcDbEntity
  8
2-19I
  6
Continuous
 62
     7
370
    30
100
AcDbLine
 10
12.788025
 20
-4.232073
 30
0.0
 11
12.813025
 21
-4.232073
 31
0.0
  0
ARC
  5
192
330
5FA
100
AcDbEntity
  8
2-19I
  6
Continuous
 62
     7
370
    30
100
AcDbCircle
 10
14.038022
 20
-6.432073
 30
0.0
 40
0.1749999999999999
100
AcDbArc
 50
180.0
 51
0.0
  0
ARC
  5
193
330
5FA
100
AcDbEntity
  8
2-19I
  6
Continuous
 62
     7
370
    30
100
AcDbCircle
 10
14.038022
 20
-4.057073
 30
0.0
 40
0.1749999999999999
100
AcDbArc
 50
0.0
 51
180.0
  0
LINE
  5
194
330
5FA
100
AcDbEntity
  8
2-19I
  6
Continuous
 62
     7
370
    30
100
AcDbLine
 10
12.813025
 20
-5.982073
 30
0.0
 11
13.863025
 21
-5.982073
 31
0.0
  0
LINE
  5
195
330
5FA
100
AcDbEntity
  8
2-19I
  6
Continuous
 62
     7
370
    30
100
AcDbLine
 10
12.788025
 20
-6.307073
 30
0.0
 11
12.788025
 21
-5.317073
 31
0.0
  0
LINE
  5
196
330
5FA
100
AcDbEntity
  8
2-19I
  6
Continuous
 62
     7
370
    30
100
AcDbLine
 10
12.813025
 20
-6.307073
 30
0.0
 11
12.813025
 21
-5.317073
 31
0.0
  0
LINE
  5
197
330
5FA
100
AcDbEntity
  8
2-19I
  6
Continuous
 62
     7
370
    30
100
AcDbLine
 10
13.863025
 20
-6.432073
 30
0.0
 11
13.863025
 21
-4.057073
 31
0.0
  0
LINE
  5
198
330
5FA
100
AcDbEntity
  8
2-19I
  6
Continuous
 62
     7
370
    30
100
AcDbLine
 10
13.888025
 20
-6.307073
 30
0.0
 11
13.888025
 21
-4.232073
 31
0.0
  0
LINE
  5
199
330
5FA
100
AcDbEntity
  8
2-19I
  6
Continuous
 62
     7
370
    30
100
AcDbLine
 10
14.213025
 20
-6.432073
 30
0.0
 11
14.213025
 21
-4.057073
 31
0.0
  0
LINE
  5
19A
330
5FA
100
AcDbEntity
  8
2-19I
  6
Continuous
 62
     7
370
    30
100
AcDbLine
 10
12.813025
 20
-4.582073
 30
0.0
 11
13.863025
 21
-4.582073
 31
0.0
  0
LINE
  5
19B
330
5FA
100
AcDbEntity
  8
DEFPOINTS
  6
Continuous
 62
     7
370
    30
100
AcDbLine
 10
11.625
 20
-3.413094
 30
0.0
 11
18.875
 21
-3.413094
 31
0.0
  0
LINE
  5
19C
330
5FA
100
AcDbEntity
  8
DEFPOINTS
  6
Continuous
 62
     7
370
    30
100
AcDbLine
 10
11.625
 20
-12.513094
 30
0.0
 11
11.625
 21
-3.413094
 31
0.0
  0
LINE
  5
19D
330
5FA
100
AcDbEntity
  8
DEFPOINTS
  6
Continuous
 62
     7
370
    30
100
AcDbLine
 10
11.625
 20
-12.513094
 30
0.0
 11
18.875
 21
-12.513094
 31
0.0
  0
LINE
  5
19E
330
5FA
100
AcDbEntity
  8
DEFPOINTS
  6
Continuous
 62
     7
370
    30
100
AcDbLine
 10
18.875
 20
-12.513094
 30
0.0
 11
18.875
 21
-3.413094
 31
0.0
  0
LINE
  5
19F
330
5FA
100
AcDbEntity
  8
DEFPOINTS
  6
Continuous
 62
     7
370
    30
100
AcDbLine
 10
11.625
 20
-12.013094
 30
0.0
 11
18.875
 21
-12.013094
 31
0.0
  0
LINE
  5
1A0
330
5FA
100
AcDbEntity
  8
DEFPOINTS
  6
Continuous
 62
     7
370
    30
100
AcDbLine
 10
17.775
 20
-12.513094
 30
0.0
 11
17.775
 21
-12.013094
 31
0.0
  0
LINE
  5
1A1
330
5FA
100
AcDbEntity
  8
DEFPOINTS
  6
Continuous
 62
     7
370
    30
100
AcDbLine
 10
16.675
 20
-12.513094
 30
0.0
 11
16.675
 21
-12.013094
 31
0.0
  0
LWPOLYLINE
  5
1A8
330
5FA
100
AcDbEntity
  8
_0
  6
Continuous
 62
     7
370
    30
100
AcDbPolyline
 90
        6
 70
   128
 43
0.0
 10
15.990275
 20
-5.001469
 10
16.005556
 20
-4.968698
 10
15.989066
 20
-4.951417
 10
16.035223
 20
-4.968698
 10
16.015441
 20
-4.947094
 10
16.040368
 20
-4.901469
  0
LWPOLYLINE
  5
1A9
330
5FA
100
AcDbEntity
  8
_0
  6
Continuous
 62
     7
370
    30
100
AcDbPolyline
 90
        6
 70
   128
 43
0.0
 10
15.947212
 20
-5.001469
 10
15.975879
 20
-4.938458
 10
15.9594
 20
-4.921167
 10
16.005556
 20
-4.938458
 10
15.985775
 20
-4.916854
 10
15.99415
 20
-4.901469
  0
LWPOLYLINE
  5
1AA
330
5FA
100
AcDbEntity
  8
_0
  6
Continuous
 62
     7
370
    30
100
AcDbPolyline
 90
        6
 70
   128
 43
0.0
 10
17.0979
 20
-5.001469
 10
17.126566
 20
-4.938458
 10
17.110087
 20
-4.921167
 10
17.156243
 20
-4.938458
 10
17.136462
 20
-4.916854
 10
17.144848
 20
-4.901469
  0
LWPOLYLINE
  5
1AB
330
5FA
100
AcDbEntity
  8
_0
  6
Continuous
 62
     7
370
    30
100
AcDbPolyline
 90
        6
 70
   128
 43
0.0
 10
17.140962
 20
-5.001469
 10
17.156243
 20
-4.968698
 10
17.139754
 20
-4.951417
 10
17.18591
 20
-4.968698
 10
17.166129
 20
-4.947094
 10
17.191056
 20
-4.901469
  0
POINT
  5
1AC
330
5FA
100
AcDbEntity
  8
NOTES
  6
Continuous
 62
     7
370
    30
100
AcDbPoint
 10
15.61291
 20
-4.956083
 30
0.0
  0
POINT
  5
1AD
330
5FA
100
AcDbEntity
  8
NOTES
  6
Continuous
 62
     7
370
    30
100
AcDbPoint
 10
15.63791
 20
-4.956083
 30
0.0
  0
POINT
  5
1AE
330
5FA
100
AcDbEntity
  8
NOTES
  6
Continuous
 62
     7
370
    30
100
AcDbPoint
 10
15.66291
 20
-4.956083
 30
0.0
  0
POINT
  5
1AF
330
5FA
100
AcDbEntity
  8
NOTES
  6
Continuous
 62
     7
370
    30
100
AcDbPoint
 10
15.68791
 20
-4.956083
 30
0.0
  0
POINT
  5
1B0
330
5FA
100
AcDbEntity
  8
NOTES
  6
Continuous
 62
     7
370
    30
100
AcDbPoint
 10
15.71291
 20
-4.956083
 30
0.0
  0
POINT
  5
1B1
330
5FA
100
AcDbEntity
  8
NOTES
  6
Continuous
 62
     7
370
    30
100
AcDbPoint
 10
15.73791
 20
-4.956083
 30
0.0
  0
POINT
  5
1B2
330
5FA
100
AcDbEntity
  8
NOTES
  6
Continuous
 62
     7
370
    30
100
AcDbPoint
 10
15.76291
 20
-4.956083
 30
0.0
  0
POINT
  5
1B3
330
5FA
100
AcDbEntity
  8
NOTES
  6
Continuous
 62
     7
370
    30
100
AcDbPoint
 10
15.78791
 20
-4.956083
 30
0.0
  0
POINT
  5
1B4
330
5FA
100
AcDbEntity
  8
NOTES
  6
Continuous
 62
     7
370
    30
100
AcDbPoint
 10
15.81291
 20
-4.956083
 30
0.0
  0
POINT
  5
1B5
330
5FA
100
AcDbEntity
  8
NOTES
  6
Continuous
 62
     7
370
    30
100
AcDbPoint
 10
15.83791
 20
-4.956083
 30
0.0
  0
POINT
  5
1B6
330
5FA
100
AcDbEntity
  8
NOTES
  6
Continuous
 62
     7
370
    30
100
AcDbPoint
 10
15.86291
 20
-4.956083
 30
0.0
  0
POINT
  5
1B7
330
5FA
100
AcDbEntity
  8
NOTES
  6
Continuous
 62
     7
370
    30
100
AcDbPoint
 10
15.88791
 20
-4.956083
 30
0.0
  0
POINT
  5
1B8
330
5FA
100
AcDbEntity
  8
NOTES
  6
Continuous
 62
     7
370
    30
100
AcDbPoint
 10
15.91291
 20
-4.956083
 30
0.0
  0
POINT
  5
1B9
330
5FA
100
AcDbEntity
  8
NOTES
  6
Continuous
 62
     7
370
    30
100
AcDbPoint
 10
15.93791
 20
-4.956083
 30
0.0
  0
POINT
  5
1BA
330
5FA
100
AcDbEntity
  8
NOTES
  6
Continuous
 62
     7
370
    30
100
AcDbPoint
 10
15.96291
 20
-4.956083
 30
0.0
  0
POINT
  5
1BB
330
5FA
100
AcDbEntity
  8
NOTES
  6
Continuous
 62
     7
370
    30
100
AcDbPoint
 10
17.18791
 20
-4.956083
 30
0.0
  0
POINT
  5
1BC
330
5FA
100
AcDbEntity
  8
NOTES
  6
Continuous
 62
     7
370
    30
100
AcDbPoint
 10
17.21291
 20
-4.956083
 30
0.0
  0
POINT
  5
1BD
330
5FA
100
AcDbEntity
  8
NOTES
  6
Continuous
 62
     7
370
    30
100
AcDbPoint
 10
17.23791
 20
-4.956083
 30
0.0
  0
POINT
  5
1BE
330
5FA
100
AcDbEntity
  8
NOTES
  6
Continuous
 62
     7
370
    30
100
AcDbPoint
 10
17.26291
 20
-4.956083
 30
0.0
  0
POINT
  5
1BF
330
5FA
100
AcDbEntity
  8
NOTES
  6
Continuous
 62
     7
370
    30
100
AcDbPoint
 10
17.28791
 20
-4.956083
 30
0.0
  0
POINT
  5
1C0
330
5FA
100
AcDbEntity
  8
NOTES
  6
Continuous
 62
     7
370
    30
100
AcDbPoint
 10
17.31291
 20
-4.956083
 30
0.0
  0
POINT
  5
1C1
330
5FA
100
AcDbEntity
  8
NOTES
  6
Continuous
 62
     7
370
    30
100
AcDbPoint
 10
17.33791
 20
-4.956083
 30
0.0
  0
POINT
  5
1C2
330
5FA
100
AcDbEntity
  8
NOTES
  6
Continuous
 62
     7
370
    30
100
AcDbPoint
 10
17.36291
 20
-4.956083
 30
0.0
  0
POINT
  5
1C3
330
5FA
100
AcDbEntity
  8
NOTES
  6
Continuous
 62
     7
370
    30
100
AcDbPoint
 10
17.38791
 20
-4.956083
 30
0.0
  0
POINT
  5
1C4
330
5FA
100
AcDbEntity
  8
NOTES
  6
Continuous
 62
     7
370
    30
100
AcDbPoint
 10
17.41291
 20
-4.956083
 30
0.0
  0
POINT
  5
1C5
330
5FA
100
AcDbEntity
  8
NOTES
  6
Continuous
 62
     7
370
    30
100
AcDbPoint
 10
17.43791
 20
-4.956083
 30
0.0
  0
POINT
  5
1C6
330
5FA
100
AcDbEntity
  8
NOTES
  6
Continuous
 62
     7
370
    30
100
AcDbPoint
 10
17.46291
 20
-4.956083
 30
0.0
  0
POINT
  5
1C7
330
5FA
100
AcDbEntity
  8
NOTES
  6
Continuous
 62
     7
370
    30
100
AcDbPoint
 10
17.48791
 20
-4.956083
 30
0.0
  0
POINT
  5
1C8
330
5FA
100
AcDbEntity
  8
NOTES
  6
Continuous
 62
     7
370
    30
100
AcDbPoint
 10
17.51291
 20
-4.956083
 30
0.0
  0
POINT
  5
1C9
330
5FA
100
AcDbEntity
  8
NOTES
  6
Continuous
 62
     7
370
    30
100
AcDbPoint
 10
17.53791
 20
-4.956083
 30
0.0
  0
POINT
  5
1CA
330
5FA
100
AcDbEntity
  8
NOTES
  6
Continuous
 62
     7
370
    30
100
AcDbPoint
 10
17.56291
 20
-4.956083
 30
0.0
  0
POINT
  5
1CB
330
5FA
100
AcDbEntity
  8
NOTES
  6
Continuous
 62
     7
370
    30
100
AcDbPoint
 10
17.58791
 20
-4.956083
 30
0.0
  0
POINT
  5
1CC
330
5FA
100
AcDbEntity
  8
NOTES
  6
Continuous
 62
     7
370
    30
100
AcDbPoint
 10
17.61291
 20
-4.956083
 30
0.0
  0
POINT
  5
1CD
330
5FA
100
AcDbEntity
  8
NOTES
  6
Continuous
 62
     7
370
    30
100
AcDbPoint
 10
17.63791
 20
-4.956083
 30
0.0
  0
POINT
  5
1CE
330
5FA
100
AcDbEntity
  8
NOTES
  6
Continuous
 62
     7
370
    30
100
AcDbPoint
 10
17.66291
 20
-4.956083
 30
0.0
  0
POINT
  5
1CF
330
5FA
100
AcDbEntity
  8
NOTES
  6
Continuous
 62
     7
370
    30
100
AcDbPoint
 10
17.68791
 20
-4.956083
 30
0.0
  0
POINT
  5
1D0
330
5FA
100
AcDbEntity
  8
NOTES
  6
Continuous
 62
     7
370
    30
100
AcDbPoint
 10
17.71291
 20
-4.956083
 30
0.0
  0
POINT
  5
1D1
330
5FA
100
AcDbEntity
  8
NOTES
  6
Continuous
 62
     7
370
    30
100
AcDbPoint
 10
17.73791
 20
-4.956083
 30
0.0
  0
POINT
  5
1D2
330
5FA
100
AcDbEntity
  8
NOTES
  6
Continuous
 62
     7
370
    30
100
AcDbPoint
 10
17.76291
 20
-4.956083
 30
0.0
  0
POINT
  5
1D3
330
5FA
100
AcDbEntity
  8
NOTES
  6
Continuous
 62
     7
370
    30
100
AcDbPoint
 10
17.78791
 20
-4.956083
 30
0.0
  0
POINT
  5
1D4
330
5FA
100
AcDbEntity
  8
NOTES
  6
Continuous
 62
     7
370
    30
100
AcDbPoint
 10
16.03791
 20
-4.956083
 30
0.0
  0
POINT
  5
1D5
330
5FA
100
AcDbEntity
  8
NOTES
  6
Continuous
 62
     7
370
    30
100
AcDbPoint
 10
16.06291
 20
-4.956083
 30
0.0
  0
POINT
  5
1D6
330
5FA
100
AcDbEntity
  8
NOTES
  6
Continuous
 62
     7
370
    30
100
AcDbPoint
 10
16.08791
 20
-4.956083
 30
0.0
  0
POINT
  5
1D7
330
5FA
100
AcDbEntity
  8
NOTES
  6
Continuous
 62
     7
370
    30
100
AcDbPoint
 10
16.11291
 20
-4.956083
 30
0.0
  0
POINT
  5
1D8
330
5FA
100
AcDbEntity
  8
NOTES
  6
Continuous
 62
     7
370
    30
100
AcDbPoint
 10
16.13791
 20
-4.956083
 30
0.0
  0
POINT
  5
1D9
330
5FA
100
AcDbEntity
  8
NOTES
  6
Continuous
 62
     7
370
    30
100
AcDbPoint
 10
16.16291
 20
-4.956083
 30
0.0
  0
POINT
  5
1DA
330
5FA
100
AcDbEntity
  8
NOTES
  6
Continuous
 62
     7
370
    30
100
AcDbPoint
 10
16.18791
 20
-4.956083
 30
0.0
  0
POINT
  5
1DB
330
5FA
100
AcDbEntity
  8
NOTES
  6
Continuous
 62
     7
370
    30
100
AcDbPoint
 10
16.21291
 20
-4.956083
 30
0.0
  0
POINT
  5
1DC
330
5FA
100
AcDbEntity
  8
NOTES
  6
Continuous
 62
     7
370
    30
100
AcDbPoint
 10
16.23791
 20
-4.956083
 30
0.0
  0
POINT
  5
1DD
330
5FA
100
AcDbEntity
  8
NOTES
  6
Continuous
 62
     7
370
    30
100
AcDbPoint
 10
16.26291
 20
-4.956083
 30
0.0
  0
POINT
  5
1DE
330
5FA
100
AcDbEntity
  8
NOTES
  6
Continuous
 62
     7
370
    30
100
AcDbPoint
 10
16.28791
 20
-4.956083
 30
0.0
  0
POINT
  5
1DF
330
5FA
100
AcDbEntity
  8
NOTES
  6
Continuous
 62
     7
370
    30
100
AcDbPoint
 10
16.31291
 20
-4.956083
 30
0.0
  0
POINT
  5
1E0
330
5FA
100
AcDbEntity
  8
NOTES
  6
Continuous
 62
     7
370
    30
100
AcDbPoint
 10
16.33791
 20
-4.956083
 30
0.0
  0
POINT
  5
1E1
330
5FA
100
AcDbEntity
  8
NOTES
  6
Continuous
 62
     7
370
    30
100
AcDbPoint
 10
16.36291
 20
-4.956083
 30
0.0
  0
POINT
  5
1E2
330
5FA
100
AcDbEntity
  8
NOTES
  6
Continuous
 62
     7
370
    30
100
AcDbPoint
 10
16.38791
 20
-4.956083
 30
0.0
  0
POINT
  5
1E3
330
5FA
100
AcDbEntity
  8
NOTES
  6
Continuous
 62
     7
370
    30
100
AcDbPoint
 10
16.41291
 20
-4.956083
 30
0.0
  0
POINT
  5
1E4
330
5FA
100
AcDbEntity
  8
NOTES
  6
Continuous
 62
     7
370
    30
100
AcDbPoint
 10
16.43791
 20
-4.956083
 30
0.0
  0
POINT
  5
1E5
330
5FA
100
AcDbEntity
  8
NOTES
  6
Continuous
 62
     7
370
    30
100
AcDbPoint
 10
16.46291
 20
-4.956083
 30
0.0
  0
POINT
  5
1E6
330
5FA
100
AcDbEntity
  8
NOTES
  6
Continuous
 62
     7
370
    30
100
AcDbPoint
 10
16.48791
 20
-4.956083
 30
0.0
  0
POINT
  5
1E7
330
5FA
100
AcDbEntity
  8
NOTES
  6
Continuous
 62
     7
370
    30
100
AcDbPoint
 10
16.51291
 20
-4.956083
 30
0.0
  0
POINT
  5
1E8
330
5FA
100
AcDbEntity
  8
NOTES
  6
Continuous
 62
     7
370
    30
100
AcDbPoint
 10
16.53791
 20
-4.956083
 30
0.0
  0
POINT
  5
1E9
330
5FA
100
AcDbEntity
  8
NOTES
  6
Continuous
 62
     7
370
    30
100
AcDbPoint
 10
16.56291
 20
-4.956083
 30
0.0
  0
POINT
  5
1EA
330
5FA
100
AcDbEntity
  8
NOTES
  6
Continuous
 62
     7
370
    30
100
AcDbPoint
 10
16.58791
 20
-4.956083
 30
0.0
  0
POINT
  5
1EB
330
5FA
100
AcDbEntity
  8
NOTES
  6
Continuous
 62
     7
370
    30
100
AcDbPoint
 10
16.61291
 20
-4.956083
 30
0.0
  0
POINT
  5
1EC
330
5FA
100
AcDbEntity
  8
NOTES
  6
Continuous
 62
     7
370
    30
100
AcDbPoint
 10
16.63791
 20
-4.956083
 30
0.0
  0
POINT
  5
1ED
330
5FA
100
AcDbEntity
  8
NOTES
  6
Continuous
 62
     7
370
    30
100
AcDbPoint
 10
16.66291
 20
-4.956083
 30
0.0
  0
POINT
  5
1EE
330
5FA
100
AcDbEntity
  8
NOTES
  6
Continuous
 62
     7
370
    30
100
AcDbPoint
 10
16.68791
 20
-4.956083
 30
0.0
  0
POINT
  5
1EF
330
5FA
100
AcDbEntity
  8
NOTES
  6
Continuous
 62
     7
370
    30
100
AcDbPoint
 10
16.71291
 20
-4.956083
 30
0.0
  0
POINT
  5
1F0
330
5FA
100
AcDbEntity
  8
NOTES
  6
Continuous
 62
     7
370
    30
100
AcDbPoint
 10
16.73791
 20
-4.956083
 30
0.0
  0
POINT
  5
1F1
330
5FA
100
AcDbEntity
  8
NOTES
  6
Continuous
 62
     7
370
    30
100
AcDbPoint
 10
16.76291
 20
-4.956083
 30
0.0
  0
POINT
  5
1F2
330
5FA
100
AcDbEntity
  8
NOTES
  6
Continuous
 62
     7
370
    30
100
AcDbPoint
 10
16.78791
 20
-4.956083
 30
0.0
  0
POINT
  5
1F3
330
5FA
100
AcDbEntity
  8
NOTES
  6
Continuous
 62
     7
370
    30
100
AcDbPoint
 10
16.81291
 20
-4.956083
 30
0.0
  0
POINT
  5
1F4
330
5FA
100
AcDbEntity
  8
NOTES
  6
Continuous
 62
     7
370
    30
100
AcDbPoint
 10
16.83791
 20
-4.956083
 30
0.0
  0
POINT
  5
1F5
330
5FA
100
AcDbEntity
  8
NOTES
  6
Continuous
 62
     7
370
    30
100
AcDbPoint
 10
16.86291
 20
-4.956083
 30
0.0
  0
POINT
  5
1F6
330
5FA
100
AcDbEntity
  8
NOTES
  6
Continuous
 62
     7
370
    30
100
AcDbPoint
 10
16.88791
 20
-4.956083
 30
0.0
  0
POINT
  5
1F7
330
5FA
100
AcDbEntity
  8
NOTES
  6
Continuous
 62
     7
370
    30
100
AcDbPoint
 10
16.91291
 20
-4.956083
 30
0.0
  0
POINT
  5
1F8
330
5FA
100
AcDbEntity
  8
NOTES
  6
Continuous
 62
     7
370
    30
100
AcDbPoint
 10
16.93791
 20
-4.956083
 30
0.0
  0
POINT
  5
1F9
330
5FA
100
AcDbEntity
  8
NOTES
  6
Continuous
 62
     7
370
    30
100
AcDbPoint
 10
16.96291
 20
-4.956083
 30
0.0
  0
POINT
  5
1FA
330
5FA
100
AcDbEntity
  8
NOTES
  6
Continuous
 62
     7
370
    30
100
AcDbPoint
 10
16.98791
 20
-4.956083
 30
0.0
  0
POINT
  5
1FB
330
5FA
100
AcDbEntity
  8
NOTES
  6
Continuous
 62
     7
370
    30
100
AcDbPoint
 10
17.01291
 20
-4.956083
 30
0.0
  0
POINT
  5
1FC
330
5FA
100
AcDbEntity
  8
NOTES
  6
Continuous
 62
     7
370
    30
100
AcDbPoint
 10
17.03791
 20
-4.956083
 30
0.0
  0
POINT
  5
1FD
330
5FA
100
AcDbEntity
  8
NOTES
  6
Continuous
 62
     7
370
    30
100
AcDbPoint
 10
17.06291
 20
-4.956083
 30
0.0
  0
POINT
  5
1FE
330
5FA
100
AcDbEntity
  8
NOTES
  6
Continuous
 62
     7
370
    30
100
AcDbPoint
 10
17.08791
 20
-4.956083
 30
0.0
  0
POINT
  5
1FF
330
5FA
100
AcDbEntity
  8
NOTES
  6
Continuous
 62
     7
370
    30
100
AcDbPoint
 10
17.11291
 20
-4.956083
 30
0.0
  0
POINT
  5
200
330
5FA
100
AcDbEntity
  8
NOTES
  6
Continuous
 62
     7
370
    30
100
AcDbPoint
 10
15.60041
 20
-4.931083
 30
0.0
  0
POINT
  5
201
330
5FA
100
AcDbEntity
  8
NOTES
  6
Continuous
 62
     7
370
    30
100
AcDbPoint
 10
15.62541
 20
-4.931083
 30
0.0
  0
POINT
  5
202
330
5FA
100
AcDbEntity
  8
NOTES
  6
Continuous
 62
     7
370
    30
100
AcDbPoint
 10
15.65041
 20
-4.931083
 30
0.0
  0
POINT
  5
203
330
5FA
100
AcDbEntity
  8
NOTES
  6
Continuous
 62
     7
370
    30
100
AcDbPoint
 10
15.67541
 20
-4.931083
 30
0.0
  0
POINT
  5
204
330
5FA
100
AcDbEntity
  8
NOTES
  6
Continuous
 62
     7
370
    30
100
AcDbPoint
 10
15.70041
 20
-4.931083
 30
0.0
  0
POINT
  5
205
330
5FA
100
AcDbEntity
  8
NOTES
  6
Continuous
 62
     7
370
    30
100
AcDbPoint
 10
15.72541
 20
-4.931083
 30
0.0
  0
POINT
  5
206
330
5FA
100
AcDbEntity
  8
NOTES
  6
Continuous
 62
     7
370
    30
100
AcDbPoint
 10
15.75041
 20
-4.931083
 30
0.0
  0
POINT
  5
207
330
5FA
100
AcDbEntity
  8
NOTES
  6
Continuous
 62
     7
370
    30
100
AcDbPoint
 10
15.77541
 20
-4.931083
 30
0.0
  0
POINT
  5
208
330
5FA
100
AcDbEntity
  8
NOTES
  6
Continuous
 62
     7
370
    30
100
AcDbPoint
 10
15.80041
 20
-4.931083
 30
0.0
  0
POINT
  5
209
330
5FA
100
AcDbEntity
  8
NOTES
  6
Continuous
 62
     7
370
    30
100
AcDbPoint
 10
15.82541
 20
-4.931083
 30
0.0
  0
POINT
  5
20A
330
5FA
100
AcDbEntity
  8
NOTES
  6
Continuous
 62
     7
370
    30
100
AcDbPoint
 10
15.85041
 20
-4.931083
 30
0.0
  0
POINT
  5
20B
330
5FA
100
AcDbEntity
  8
NOTES
  6
Continuous
 62
     7
370
    30
100
AcDbPoint
 10
15.87541
 20
-4.931083
 30
0.0
  0
POINT
  5
20C
330
5FA
100
AcDbEntity
  8
NOTES
  6
Continuous
 62
     7
370
    30
100
AcDbPoint
 10
15.90041
 20
-4.931083
 30
0.0
  0
POINT
  5
20D
330
5FA
100
AcDbEntity
  8
NOTES
  6
Continuous
 62
     7
370
    30
100
AcDbPoint
 10
15.92541
 20
-4.931083
 30
0.0
  0
POINT
  5
20E
330
5FA
100
AcDbEntity
  8
NOTES
  6
Continuous
 62
     7
370
    30
100
AcDbPoint
 10
15.95041
 20
-4.931083
 30
0.0
  0
POINT
  5
20F
330
5FA
100
AcDbEntity
  8
NOTES
  6
Continuous
 62
     7
370
    30
100
AcDbPoint
 10
17.17541
 20
-4.931083
 30
0.0
  0
POINT
  5
210
330
5FA
100
AcDbEntity
  8
NOTES
  6
Continuous
 62
     7
370
    30
100
AcDbPoint
 10
17.20041
 20
-4.931083
 30
0.0
  0
POINT
  5
211
330
5FA
100
AcDbEntity
  8
NOTES
  6
Continuous
 62
     7
370
    30
100
AcDbPoint
 10
17.22541
 20
-4.931083
 30
0.0
  0
POINT
  5
212
330
5FA
100
AcDbEntity
  8
NOTES
  6
Continuous
 62
     7
370
    30
100
AcDbPoint
 10
17.25041
 20
-4.931083
 30
0.0
  0
POINT
  5
213
330
5FA
100
AcDbEntity
  8
NOTES
  6
Continuous
 62
     7
370
    30
100
AcDbPoint
 10
17.27541
 20
-4.931083
 30
0.0
  0
POINT
  5
214
330
5FA
100
AcDbEntity
  8
NOTES
  6
Continuous
 62
     7
370
    30
100
AcDbPoint
 10
17.30041
 20
-4.931083
 30
0.0
  0
POINT
  5
215
330
5FA
100
AcDbEntity
  8
NOTES
  6
Continuous
 62
     7
370
    30
100
AcDbPoint
 10
17.32541
 20
-4.931083
 30
0.0
  0
POINT
  5
216
330
5FA
100
AcDbEntity
  8
NOTES
  6
Continuous
 62
     7
370
    30
100
AcDbPoint
 10
17.35041
 20
-4.931083
 30
0.0
  0
POINT
  5
217
330
5FA
100
AcDbEntity
  8
NOTES
  6
Continuous
 62
     7
370
    30
100
AcDbPoint
 10
17.37541
 20
-4.931083
 30
0.0
  0
POINT
  5
218
330
5FA
100
AcDbEntity
  8
NOTES
  6
Continuous
 62
     7
370
    30
100
AcDbPoint
 10
17.40041
 20
-4.931083
 30
0.0
  0
POINT
  5
219
330
5FA
100
AcDbEntity
  8
NOTES
  6
Continuous
 62
     7
370
    30
100
AcDbPoint
 10
17.42541
 20
-4.931083
 30
0.0
  0
POINT
  5
21A
330
5FA
100
AcDbEntity
  8
NOTES
  6
Continuous
 62
     7
370
    30
100
AcDbPoint
 10
17.45041
 20
-4.931083
 30
0.0
  0
POINT
  5
21B
330
5FA
100
AcDbEntity
  8
NOTES
  6
Continuous
 62
     7
370
    30
100
AcDbPoint
 10
17.47541
 20
-4.931083
 30
0.0
  0
POINT
  5
21C
330
5FA
100
AcDbEntity
  8
NOTES
  6
Continuous
 62
     7
370
    30
100
AcDbPoint
 10
17.50041
 20
-4.931083
 30
0.0
  0
POINT
  5
21D
330
5FA
100
AcDbEntity
  8
NOTES
  6
Continuous
 62
     7
370
    30
100
AcDbPoint
 10
17.52541
 20
-4.931083
 30
0.0
  0
POINT
  5
21E
330
5FA
100
AcDbEntity
  8
NOTES
  6
Continuous
 62
     7
370
    30
100
AcDbPoint
 10
17.55041
 20
-4.931083
 30
0.0
  0
POINT
  5
21F
330
5FA
100
AcDbEntity
  8
NOTES
  6
Continuous
 62
     7
370
    30
100
AcDbPoint
 10
17.57541
 20
-4.931083
 30
0.0
  0
POINT
  5
220
330
5FA
100
AcDbEntity
  8
NOTES
  6
Continuous
 62
     7
370
    30
100
AcDbPoint
 10
17.60041
 20
-4.931083
 30
0.0
  0
POINT
  5
221
330
5FA
100
AcDbEntity
  8
NOTES
  6
Continuous
 62
     7
370
    30
100
AcDbPoint
 10
17.62541
 20
-4.931083
 30
0.0
  0
POINT
  5
222
330
5FA
100
AcDbEntity
  8
NOTES
  6
Continuous
 62
     7
370
    30
100
AcDbPoint
 10
17.65041
 20
-4.931083
 30
0.0
  0
POINT
  5
223
330
5FA
100
AcDbEntity
  8
NOTES
  6
Continuous
 62
     7
370
    30
100
AcDbPoint
 10
17.67541
 20
-4.931083
 30
0.0
  0
POINT
  5
224
330
5FA
100
AcDbEntity
  8
NOTES
  6
Continuous
 62
     7
370
    30
100
AcDbPoint
 10
17.70041
 20
-4.931083
 30
0.0
  0
POINT
  5
225
330
5FA
100
AcDbEntity
  8
NOTES
  6
Continuous
 62
     7
370
    30
100
AcDbPoint
 10
17.72541
 20
-4.931083
 30
0.0
  0
POINT
  5
226
330
5FA
100
AcDbEntity
  8
NOTES
  6
Continuous
 62
     7
370
    30
100
AcDbPoint
 10
17.75041
 20
-4.931083
 30
0.0
  0
POINT
  5
227
330
5FA
100
AcDbEntity
  8
NOTES
  6
Continuous
 62
     7
370
    30
100
AcDbPoint
 10
17.77541
 20
-4.931083
 30
0.0
  0
POINT
  5
228
330
5FA
100
AcDbEntity
  8
NOTES
  6
Continuous
 62
     7
370
    30
100
AcDbPoint
 10
17.80041
 20
-4.931083
 30
0.0
  0
POINT
  5
229
330
5FA
100
AcDbEntity
  8
NOTES
  6
Continuous
 62
     7
370
    30
100
AcDbPoint
 10
16.02541
 20
-4.931083
 30
0.0
  0
POINT
  5
22A
330
5FA
100
AcDbEntity
  8
NOTES
  6
Continuous
 62
     7
370
    30
100
AcDbPoint
 10
16.05041
 20
-4.931083
 30
0.0
  0
POINT
  5
22B
330
5FA
100
AcDbEntity
  8
NOTES
  6
Continuous
 62
     7
370
    30
100
AcDbPoint
 10
16.07541
 20
-4.931083
 30
0.0
  0
POINT
  5
22C
330
5FA
100
AcDbEntity
  8
NOTES
  6
Continuous
 62
     7
370
    30
100
AcDbPoint
 10
16.10041
 20
-4.931083
 30
0.0
  0
POINT
  5
22D
330
5FA
100
AcDbEntity
  8
NOTES
  6
Continuous
 62
     7
370
    30
100
AcDbPoint
 10
16.12541
 20
-4.931083
 30
0.0
  0
POINT
  5
22E
330
5FA
100
AcDbEntity
  8
NOTES
  6
Continuous
 62
     7
370
    30
100
AcDbPoint
 10
16.15041
 20
-4.931083
 30
0.0
  0
POINT
  5
22F
330
5FA
100
AcDbEntity
  8
NOTES
  6
Continuous
 62
     7
370
    30
100
AcDbPoint
 10
16.17541
 20
-4.931083
 30
0.0
  0
POINT
  5
230
330
5FA
100
AcDbEntity
  8
NOTES
  6
Continuous
 62
     7
370
    30
100
AcDbPoint
 10
16.20041
 20
-4.931083
 30
0.0
  0
POINT
  5
231
330
5FA
100
AcDbEntity
  8
NOTES
  6
Continuous
 62
     7
370
    30
100
AcDbPoint
 10
16.22541
 20
-4.931083
 30
0.0
  0
POINT
  5
232
330
5FA
100
AcDbEntity
  8
NOTES
  6
Continuous
 62
     7
370
    30
100
AcDbPoint
 10
16.25041
 20
-4.931083
 30
0.0
  0
POINT
  5
233
330
5FA
100
AcDbEntity
  8
NOTES
  6
Continuous
 62
     7
370
    30
100
AcDbPoint
 10
16.27541
 20
-4.931083
 30
0.0
  0
POINT
  5
234
330
5FA
100
AcDbEntity
  8
NOTES
  6
Continuous
 62
     7
370
    30
100
AcDbPoint
 10
16.30041
 20
-4.931083
 30
0.0
  0
POINT
  5
235
330
5FA
100
AcDbEntity
  8
NOTES
  6
Continuous
 62
     7
370
    30
100
AcDbPoint
 10
16.32541
 20
-4.931083
 30
0.0
  0
POINT
  5
236
330
5FA
100
AcDbEntity
  8
NOTES
  6
Continuous
 62
     7
370
    30
100
AcDbPoint
 10
16.35041
 20
-4.931083
 30
0.0
  0
POINT
  5
237
330
5FA
100
AcDbEntity
  8
NOTES
  6
Continuous
 62
     7
370
    30
100
AcDbPoint
 10
16.37541
 20
-4.931083
 30
0.0
  0
POINT
  5
238
330
5FA
100
AcDbEntity
  8
NOTES
  6
Continuous
 62
     7
370
    30
100
AcDbPoint
 10
16.40041
 20
-4.931083
 30
0.0
  0
POINT
  5
239
330
5FA
100
AcDbEntity
  8
NOTES
  6
Continuous
 62
     7
370
    30
100
AcDbPoint
 10
16.42541
 20
-4.931083
 30
0.0
  0
POINT
  5
23A
330
5FA
100
AcDbEntity
  8
NOTES
  6
Continuous
 62
     7
370
    30
100
AcDbPoint
 10
16.45041
 20
-4.931083
 30
0.0
  0
POINT
  5
23B
330
5FA
100
AcDbEntity
  8
NOTES
  6
Continuous
 62
     7
370
    30
100
AcDbPoint
 10
16.47541
 20
-4.931083
 30
0.0
  0
POINT
  5
23C
330
5FA
100
AcDbEntity
  8
NOTES
  6
Continuous
 62
     7
370
    30
100
AcDbPoint
 10
16.50041
 20
-4.931083
 30
0.0
  0
POINT
  5
23D
330
5FA
100
AcDbEntity
  8
NOTES
  6
Continuous
 62
     7
370
    30
100
AcDbPoint
 10
16.52541
 20
-4.931083
 30
0.0
  0
POINT
  5
23E
330
5FA
100
AcDbEntity
  8
NOTES
  6
Continuous
 62
     7
370
    30
100
AcDbPoint
 10
16.55041
 20
-4.931083
 30
0.0
  0
POINT
  5
23F
330
5FA
100
AcDbEntity
  8
NOTES
  6
Continuous
 62
     7
370
    30
100
AcDbPoint
 10
16.57541
 20
-4.931083
 30
0.0
  0
POINT
  5
240
330
5FA
100
AcDbEntity
  8
NOTES
  6
Continuous
 62
     7
370
    30
100
AcDbPoint
 10
16.60041
 20
-4.931083
 30
0.0
  0
POINT
  5
241
330
5FA
100
AcDbEntity
  8
NOTES
  6
Continuous
 62
     7
370
    30
100
AcDbPoint
 10
16.62541
 20
-4.931083
 30
0.0
  0
POINT
  5
242
330
5FA
100
AcDbEntity
  8
NOTES
  6
Continuous
 62
     7
370
    30
100
AcDbPoint
 10
16.65041
 20
-4.931083
 30
0.0
  0
POINT
  5
243
330
5FA
100
AcDbEntity
  8
NOTES
  6
Continuous
 62
     7
370
    30
100
AcDbPoint
 10
16.67541
 20
-4.931083
 30
0.0
  0
POINT
  5
244
330
5FA
100
AcDbEntity
  8
NOTES
  6
Continuous
 62
     7
370
    30
100
AcDbPoint
 10
16.70041
 20
-4.931083
 30
0.0
  0
POINT
  5
245
330
5FA
100
AcDbEntity
  8
NOTES
  6
Continuous
 62
     7
370
    30
100
AcDbPoint
 10
16.72541
 20
-4.931083
 30
0.0
  0
POINT
  5
246
330
5FA
100
AcDbEntity
  8
NOTES
  6
Continuous
 62
     7
370
    30
100
AcDbPoint
 10
16.75041
 20
-4.931083
 30
0.0
  0
POINT
  5
247
330
5FA
100
AcDbEntity
  8
NOTES
  6
Continuous
 62
     7
370
    30
100
AcDbPoint
 10
16.77541
 20
-4.931083
 30
0.0
  0
POINT
  5
248
330
5FA
100
AcDbEntity
  8
NOTES
  6
Continuous
 62
     7
370
    30
100
AcDbPoint
 10
16.80041
 20
-4.931083
 30
0.0
  0
POINT
  5
249
330
5FA
100
AcDbEntity
  8
NOTES
  6
Continuous
 62
     7
370
    30
100
AcDbPoint
 10
16.82541
 20
-4.931083
 30
0.0
  0
POINT
  5
24A
330
5FA
100
AcDbEntity
  8
NOTES
  6
Continuous
 62
     7
370
    30
100
AcDbPoint
 10
16.85041
 20
-4.931083
 30
0.0
  0
POINT
  5
24B
330
5FA
100
AcDbEntity
  8
NOTES
  6
Continuous
 62
     7
370
    30
100
AcDbPoint
 10
16.87541
 20
-4.931083
 30
0.0
  0
POINT
  5
24C
330
5FA
100
AcDbEntity
  8
NOTES
  6
Continuous
 62
     7
370
    30
100
AcDbPoint
 10
16.90041
 20
-4.931083
 30
0.0
  0
POINT
  5
24D
330
5FA
100
AcDbEntity
  8
NOTES
  6
Continuous
 62
     7
370
    30
100
AcDbPoint
 10
16.92541
 20
-4.931083
 30
0.0
  0
POINT
  5
24E
330
5FA
100
AcDbEntity
  8
NOTES
  6
Continuous
 62
     7
370
    30
100
AcDbPoint
 10
16.95041
 20
-4.931083
 30
0.0
  0
POINT
  5
24F
330
5FA
100
AcDbEntity
  8
NOTES
  6
Continuous
 62
     7
370
    30
100
AcDbPoint
 10
16.97541
 20
-4.931083
 30
0.0
  0
POINT
  5
250
330
5FA
100
AcDbEntity
  8
NOTES
  6
Continuous
 62
     7
370
    30
100
AcDbPoint
 10
17.00041
 20
-4.931083
 30
0.0
  0
POINT
  5
251
330
5FA
100
AcDbEntity
  8
NOTES
  6
Continuous
 62
     7
370
    30
100
AcDbPoint
 10
17.02541
 20
-4.931083
 30
0.0
  0
POINT
  5
252
330
5FA
100
AcDbEntity
  8
NOTES
  6
Continuous
 62
     7
370
    30
100
AcDbPoint
 10
17.05041
 20
-4.931083
 30
0.0
  0
POINT
  5
253
330
5FA
100
AcDbEntity
  8
NOTES
  6
Continuous
 62
     7
370
    30
100
AcDbPoint
 10
17.07541
 20
-4.931083
 30
0.0
  0
POINT
  5
254
330
5FA
100
AcDbEntity
  8
NOTES
  6
Continuous
 62
     7
370
    30
100
AcDbPoint
 10
17.10041
 20
-4.931083
 30
0.0
  0
POINT
  5
255
330
5FA
100
AcDbEntity
  8
NOTES
  6
Continuous
 62
     7
370
    30
100
AcDbPoint
 10
15.61291
 20
-4.906083
 30
0.0
  0
POINT
  5
256
330
5FA
100
AcDbEntity
  8
NOTES
  6
Continuous
 62
     7
370
    30
100
AcDbPoint
 10
15.63791
 20
-4.906083
 30
0.0
  0
POINT
  5
257
330
5FA
100
AcDbEntity
  8
NOTES
  6
Continuous
 62
     7
370
    30
100
AcDbPoint
 10
15.66291
 20
-4.906083
 30
0.0
  0
POINT
  5
258
330
5FA
100
AcDbEntity
  8
NOTES
  6
Continuous
 62
     7
370
    30
100
AcDbPoint
 10
15.68791
 20
-4.906083
 30
0.0
  0
POINT
  5
259
330
5FA
100
AcDbEntity
  8
NOTES
  6
Continuous
 62
     7
370
    30
100
AcDbPoint
 10
15.71291
 20
-4.906083
 30
0.0
  0
POINT
  5
25A
330
5FA
100
AcDbEntity
  8
NOTES
  6
Continuous
 62
     7
370
    30
100
AcDbPoint
 10
15.73791
 20
-4.906083
 30
0.0
  0
POINT
  5
25B
330
5FA
100
AcDbEntity
  8
NOTES
  6
Continuous
 62
     7
370
    30
100
AcDbPoint
 10
15.76291
 20
-4.906083
 30
0.0
  0
POINT
  5
25C
330
5FA
100
AcDbEntity
  8
NOTES
  6
Continuous
 62
     7
370
    30
100
AcDbPoint
 10
15.78791
 20
-4.906083
 30
0.0
  0
POINT
  5
25D
330
5FA
100
AcDbEntity
  8
NOTES
  6
Continuous
 62
     7
370
    30
100
AcDbPoint
 10
15.81291
 20
-4.906083
 30
0.0
  0
POINT
  5
25E
330
5FA
100
AcDbEntity
  8
NOTES
  6
Continuous
 62
     7
370
    30
100
AcDbPoint
 10
15.83791
 20
-4.906083
 30
0.0
  0
POINT
  5
25F
330
5FA
100
AcDbEntity
  8
NOTES
  6
Continuous
 62
     7
370
    30
100
AcDbPoint
 10
15.86291
 20
-4.906083
 30
0.0
  0
POINT
  5
260
330
5FA
100
AcDbEntity
  8
NOTES
  6
Continuous
 62
     7
370
    30
100
AcDbPoint
 10
15.88791
 20
-4.906083
 30
0.0
  0
POINT
  5
261
330
5FA
100
AcDbEntity
  8
NOTES
  6
Continuous
 62
     7
370
    30
100
AcDbPoint
 10
15.91291
 20
-4.906083
 30
0.0
  0
POINT
  5
262
330
5FA
100
AcDbEntity
  8
NOTES
  6
Continuous
 62
     7
370
    30
100
AcDbPoint
 10
15.93791
 20
-4.906083
 30
0.0
  0
POINT
  5
263
330
5FA
100
AcDbEntity
  8
NOTES
  6
Continuous
 62
     7
370
    30
100
AcDbPoint
 10
15.96291
 20
-4.906083
 30
0.0
  0
POINT
  5
264
330
5FA
100
AcDbEntity
  8
NOTES
  6
Continuous
 62
     7
370
    30
100
AcDbPoint
 10
15.98791
 20
-4.906083
 30
0.0
  0
POINT
  5
265
330
5FA
100
AcDbEntity
  8
NOTES
  6
Continuous
 62
     7
370
    30
100
AcDbPoint
 10
17.21291
 20
-4.906083
 30
0.0
  0
POINT
  5
266
330
5FA
100
AcDbEntity
  8
NOTES
  6
Continuous
 62
     7
370
    30
100
AcDbPoint
 10
17.23791
 20
-4.906083
 30
0.0
  0
POINT
  5
267
330
5FA
100
AcDbEntity
  8
NOTES
  6
Continuous
 62
     7
370
    30
100
AcDbPoint
 10
17.26291
 20
-4.906083
 30
0.0
  0
POINT
  5
268
330
5FA
100
AcDbEntity
  8
NOTES
  6
Continuous
 62
     7
370
    30
100
AcDbPoint
 10
17.28791
 20
-4.906083
 30
0.0
  0
POINT
  5
269
330
5FA
100
AcDbEntity
  8
NOTES
  6
Continuous
 62
     7
370
    30
100
AcDbPoint
 10
17.31291
 20
-4.906083
 30
0.0
  0
POINT
  5
26A
330
5FA
100
AcDbEntity
  8
NOTES
  6
Continuous
 62
     7
370
    30
100
AcDbPoint
 10
17.33791
 20
-4.906083
 30
0.0
  0
POINT
  5
26B
330
5FA
100
AcDbEntity
  8
NOTES
  6
Continuous
 62
     7
370
    30
100
AcDbPoint
 10
17.36291
 20
-4.906083
 30
0.0
  0
POINT
  5
26C
330
5FA
100
AcDbEntity
  8
NOTES
  6
Continuous
 62
     7
370
    30
100
AcDbPoint
 10
17.38791
 20
-4.906083
 30
0.0
  0
POINT
  5
26D
330
5FA
100
AcDbEntity
  8
NOTES
  6
Continuous
 62
     7
370
    30
100
AcDbPoint
 10
17.41291
 20
-4.906083
 30
0.0
  0
POINT
  5
26E
330
5FA
100
AcDbEntity
  8
NOTES
  6
Continuous
 62
     7
370
    30
100
AcDbPoint
 10
17.43791
 20
-4.906083
 30
0.0
  0
POINT
  5
26F
330
5FA
100
AcDbEntity
  8
NOTES
  6
Continuous
 62
     7
370
    30
100
AcDbPoint
 10
17.46291
 20
-4.906083
 30
0.0
  0
POINT
  5
270
330
5FA
100
AcDbEntity
  8
NOTES
  6
Continuous
 62
     7
370
    30
100
AcDbPoint
 10
17.48791
 20
-4.906083
 30
0.0
  0
POINT
  5
271
330
5FA
100
AcDbEntity
  8
NOTES
  6
Continuous
 62
     7
370
    30
100
AcDbPoint
 10
17.51291
 20
-4.906083
 30
0.0
  0
POINT
  5
272
330
5FA
100
AcDbEntity
  8
NOTES
  6
Continuous
 62
     7
370
    30
100
AcDbPoint
 10
17.53791
 20
-4.906083
 30
0.0
  0
POINT
  5
273
330
5FA
100
AcDbEntity
  8
NOTES
  6
Continuous
 62
     7
370
    30
100
AcDbPoint
 10
17.56291
 20
-4.906083
 30
0.0
  0
POINT
  5
274
330
5FA
100
AcDbEntity
  8
NOTES
  6
Continuous
 62
     7
370
    30
100
AcDbPoint
 10
17.58791
 20
-4.906083
 30
0.0
  0
POINT
  5
275
330
5FA
100
AcDbEntity
  8
NOTES
  6
Continuous
 62
     7
370
    30
100
AcDbPoint
 10
17.61291
 20
-4.906083
 30
0.0
  0
POINT
  5
276
330
5FA
100
AcDbEntity
  8
NOTES
  6
Continuous
 62
     7
370
    30
100
AcDbPoint
 10
17.63791
 20
-4.906083
 30
0.0
  0
POINT
  5
277
330
5FA
100
AcDbEntity
  8
NOTES
  6
Continuous
 62
     7
370
    30
100
AcDbPoint
 10
17.66291
 20
-4.906083
 30
0.0
  0
POINT
  5
278
330
5FA
100
AcDbEntity
  8
NOTES
  6
Continuous
 62
     7
370
    30
100
AcDbPoint
 10
17.68791
 20
-4.906083
 30
0.0
  0
POINT
  5
279
330
5FA
100
AcDbEntity
  8
NOTES
  6
Continuous
 62
     7
370
    30
100
AcDbPoint
 10
17.71291
 20
-4.906083
 30
0.0
  0
POINT
  5
27A
330
5FA
100
AcDbEntity
  8
NOTES
  6
Continuous
 62
     7
370
    30
100
AcDbPoint
 10
17.73791
 20
-4.906083
 30
0.0
  0
POINT
  5
27B
330
5FA
100
AcDbEntity
  8
NOTES
  6
Continuous
 62
     7
370
    30
100
AcDbPoint
 10
17.76291
 20
-4.906083
 30
0.0
  0
POINT
  5
27C
330
5FA
100
AcDbEntity
  8
NOTES
  6
Continuous
 62
     7
370
    30
100
AcDbPoint
 10
17.78791
 20
-4.906083
 30
0.0
  0
POINT
  5
27D
330
5FA
100
AcDbEntity
  8
NOTES
  6
Continuous
 62
     7
370
    30
100
AcDbPoint
 10
16.03791
 20
-4.906083
 30
0.0
  0
POINT
  5
27E
330
5FA
100
AcDbEntity
  8
NOTES
  6
Continuous
 62
     7
370
    30
100
AcDbPoint
 10
16.06291
 20
-4.906083
 30
0.0
  0
POINT
  5
27F
330
5FA
100
AcDbEntity
  8
NOTES
  6
Continuous
 62
     7
370
    30
100
AcDbPoint
 10
16.08791
 20
-4.906083
 30
0.0
  0
POINT
  5
280
330
5FA
100
AcDbEntity
  8
NOTES
  6
Continuous
 62
     7
370
    30
100
AcDbPoint
 10
16.11291
 20
-4.906083
 30
0.0
  0
POINT
  5
281
330
5FA
100
AcDbEntity
  8
NOTES
  6
Continuous
 62
     7
370
    30
100
AcDbPoint
 10
16.13791
 20
-4.906083
 30
0.0
  0
POINT
  5
282
330
5FA
100
AcDbEntity
  8
NOTES
  6
Continuous
 62
     7
370
    30
100
AcDbPoint
 10
16.16291
 20
-4.906083
 30
0.0
  0
POINT
  5
283
330
5FA
100
AcDbEntity
  8
NOTES
  6
Continuous
 62
     7
370
    30
100
AcDbPoint
 10
16.18791
 20
-4.906083
 30
0.0
  0
POINT
  5
284
330
5FA
100
AcDbEntity
  8
NOTES
  6
Continuous
 62
     7
370
    30
100
AcDbPoint
 10
16.21291
 20
-4.906083
 30
0.0
  0
POINT
  5
285
330
5FA
100
AcDbEntity
  8
NOTES
  6
Continuous
 62
     7
370
    30
100
AcDbPoint
 10
16.23791
 20
-4.906083
 30
0.0
  0
POINT
  5
286
330
5FA
100
AcDbEntity
  8
NOTES
  6
Continuous
 62
     7
370
    30
100
AcDbPoint
 10
16.26291
 20
-4.906083
 30
0.0
  0
POINT
  5
287
330
5FA
100
AcDbEntity
  8
NOTES
  6
Continuous
 62
     7
370
    30
100
AcDbPoint
 10
16.28791
 20
-4.906083
 30
0.0
  0
POINT
  5
288
330
5FA
100
AcDbEntity
  8
NOTES
  6
Continuous
 62
     7
370
    30
100
AcDbPoint
 10
16.31291
 20
-4.906083
 30
0.0
  0
POINT
  5
289
330
5FA
100
AcDbEntity
  8
NOTES
  6
Continuous
 62
     7
370
    30
100
AcDbPoint
 10
16.33791
 20
-4.906083
 30
0.0
  0
POINT
  5
28A
330
5FA
100
AcDbEntity
  8
NOTES
  6
Continuous
 62
     7
370
    30
100
AcDbPoint
 10
16.36291
 20
-4.906083
 30
0.0
  0
POINT
  5
28B
330
5FA
100
AcDbEntity
  8
NOTES
  6
Continuous
 62
     7
370
    30
100
AcDbPoint
 10
16.38791
 20
-4.906083
 30
0.0
  0
POINT
  5
28C
330
5FA
100
AcDbEntity
  8
NOTES
  6
Continuous
 62
     7
370
    30
100
AcDbPoint
 10
16.41291
 20
-4.906083
 30
0.0
  0
POINT
  5
28D
330
5FA
100
AcDbEntity
  8
NOTES
  6
Continuous
 62
     7
370
    30
100
AcDbPoint
 10
16.43791
 20
-4.906083
 30
0.0
  0
POINT
  5
28E
330
5FA
100
AcDbEntity
  8
NOTES
  6
Continuous
 62
     7
370
    30
100
AcDbPoint
 10
16.46291
 20
-4.906083
 30
0.0
  0
POINT
  5
28F
330
5FA
100
AcDbEntity
  8
NOTES
  6
Continuous
 62
     7
370
    30
100
AcDbPoint
 10
16.48791
 20
-4.906083
 30
0.0
  0
POINT
  5
290
330
5FA
100
AcDbEntity
  8
NOTES
  6
Continuous
 62
     7
370
    30
100
AcDbPoint
 10
16.51291
 20
-4.906083
 30
0.0
  0
POINT
  5
291
330
5FA
100
AcDbEntity
  8
NOTES
  6
Continuous
 62
     7
370
    30
100
AcDbPoint
 10
16.53791
 20
-4.906083
 30
0.0
  0
POINT
  5
292
330
5FA
100
AcDbEntity
  8
NOTES
  6
Continuous
 62
     7
370
    30
100
AcDbPoint
 10
16.56291
 20
-4.906083
 30
0.0
  0
POINT
  5
293
330
5FA
100
AcDbEntity
  8
NOTES
  6
Continuous
 62
     7
370
    30
100
AcDbPoint
 10
16.58791
 20
-4.906083
 30
0.0
  0
POINT
  5
294
330
5FA
100
AcDbEntity
  8
NOTES
  6
Continuous
 62
     7
370
    30
100
AcDbPoint
 10
16.61291
 20
-4.906083
 30
0.0
  0
POINT
  5
295
330
5FA
100
AcDbEntity
  8
NOTES
  6
Continuous
 62
     7
370
    30
100
AcDbPoint
 10
16.63791
 20
-4.906083
 30
0.0
  0
POINT
  5
296
330
5FA
100
AcDbEntity
  8
NOTES
  6
Continuous
 62
     7
370
    30
100
AcDbPoint
 10
16.66291
 20
-4.906083
 30
0.0
  0
POINT
  5
297
330
5FA
100
AcDbEntity
  8
NOTES
  6
Continuous
 62
     7
370
    30
100
AcDbPoint
 10
16.68791
 20
-4.906083
 30
0.0
  0
POINT
  5
298
330
5FA
100
AcDbEntity
  8
NOTES
  6
Continuous
 62
     7
370
    30
100
AcDbPoint
 10
16.71291
 20
-4.906083
 30
0.0
  0
POINT
  5
299
330
5FA
100
AcDbEntity
  8
NOTES
  6
Continuous
 62
     7
370
    30
100
AcDbPoint
 10
16.73791
 20
-4.906083
 30
0.0
  0
POINT
  5
29A
330
5FA
100
AcDbEntity
  8
NOTES
  6
Continuous
 62
     7
370
    30
100
AcDbPoint
 10
16.76291
 20
-4.906083
 30
0.0
  0
POINT
  5
29B
330
5FA
100
AcDbEntity
  8
NOTES
  6
Continuous
 62
     7
370
    30
100
AcDbPoint
 10
16.78791
 20
-4.906083
 30
0.0
  0
POINT
  5
29C
330
5FA
100
AcDbEntity
  8
NOTES
  6
Continuous
 62
     7
370
    30
100
AcDbPoint
 10
16.81291
 20
-4.906083
 30
0.0
  0
POINT
  5
29D
330
5FA
100
AcDbEntity
  8
NOTES
  6
Continuous
 62
     7
370
    30
100
AcDbPoint
 10
16.83791
 20
-4.906083
 30
0.0
  0
POINT
  5
29E
330
5FA
100
AcDbEntity
  8
NOTES
  6
Continuous
 62
     7
370
    30
100
AcDbPoint
 10
16.86291
 20
-4.906083
 30
0.0
  0
POINT
  5
29F
330
5FA
100
AcDbEntity
  8
NOTES
  6
Continuous
 62
     7
370
    30
100
AcDbPoint
 10
16.88791
 20
-4.906083
 30
0.0
  0
POINT
  5
2A0
330
5FA
100
AcDbEntity
  8
NOTES
  6
Continuous
 62
     7
370
    30
100
AcDbPoint
 10
16.91291
 20
-4.906083
 30
0.0
  0
POINT
  5
2A1
330
5FA
100
AcDbEntity
  8
NOTES
  6
Continuous
 62
     7
370
    30
100
AcDbPoint
 10
16.93791
 20
-4.906083
 30
0.0
  0
POINT
  5
2A2
330
5FA
100
AcDbEntity
  8
NOTES
  6
Continuous
 62
     7
370
    30
100
AcDbPoint
 10
16.96291
 20
-4.906083
 30
0.0
  0
POINT
  5
2A3
330
5FA
100
AcDbEntity
  8
NOTES
  6
Continuous
 62
     7
370
    30
100
AcDbPoint
 10
16.98791
 20
-4.906083
 30
0.0
  0
POINT
  5
2A4
330
5FA
100
AcDbEntity
  8
NOTES
  6
Continuous
 62
     7
370
    30
100
AcDbPoint
 10
17.01291
 20
-4.906083
 30
0.0
  0
POINT
  5
2A5
330
5FA
100
AcDbEntity
  8
NOTES
  6
Continuous
 62
     7
370
    30
100
AcDbPoint
 10
17.03791
 20
-4.906083
 30
0.0
  0
POINT
  5
2A6
330
5FA
100
AcDbEntity
  8
NOTES
  6
Continuous
 62
     7
370
    30
100
AcDbPoint
 10
17.06291
 20
-4.906083
 30
0.0
  0
POINT
  5
2A7
330
5FA
100
AcDbEntity
  8
NOTES
  6
Continuous
 62
     7
370
    30
100
AcDbPoint
 10
17.08791
 20
-4.906083
 30
0.0
  0
POINT
  5
2A8
330
5FA
100
AcDbEntity
  8
NOTES
  6
Continuous
 62
     7
370
    30
100
AcDbPoint
 10
17.11291
 20
-4.906083
 30
0.0
  0
POINT
  5
2A9
330
5FA
100
AcDbEntity
  8
NOTES
  6
Continuous
 62
     7
370
    30
100
AcDbPoint
 10
17.13791
 20
-4.906083
 30
0.0
  0
POINT
  5
2AA
330
5FA
100
AcDbEntity
  8
NOTES
  6
Continuous
 62
     7
370
    30
100
AcDbPoint
 10
15.60041
 20
-4.981083
 30
0.0
  0
POINT
  5
2AB
330
5FA
100
AcDbEntity
  8
NOTES
  6
Continuous
 62
     7
370
    30
100
AcDbPoint
 10
15.62541
 20
-4.981083
 30
0.0
  0
POINT
  5
2AC
330
5FA
100
AcDbEntity
  8
NOTES
  6
Continuous
 62
     7
370
    30
100
AcDbPoint
 10
15.65041
 20
-4.981083
 30
0.0
  0
POINT
  5
2AD
330
5FA
100
AcDbEntity
  8
NOTES
  6
Continuous
 62
     7
370
    30
100
AcDbPoint
 10
15.67541
 20
-4.981083
 30
0.0
  0
POINT
  5
2AE
330
5FA
100
AcDbEntity
  8
NOTES
  6
Continuous
 62
     7
370
    30
100
AcDbPoint
 10
15.70041
 20
-4.981083
 30
0.0
  0
POINT
  5
2AF
330
5FA
100
AcDbEntity
  8
NOTES
  6
Continuous
 62
     7
370
    30
100
AcDbPoint
 10
15.72541
 20
-4.981083
 30
0.0
  0
POINT
  5
2B0
330
5FA
100
AcDbEntity
  8
NOTES
  6
Continuous
 62
     7
370
    30
100
AcDbPoint
 10
15.75041
 20
-4.981083
 30
0.0
  0
POINT
  5
2B1
330
5FA
100
AcDbEntity
  8
NOTES
  6
Continuous
 62
     7
370
    30
100
AcDbPoint
 10
15.77541
 20
-4.981083
 30
0.0
  0
POINT
  5
2B2
330
5FA
100
AcDbEntity
  8
NOTES
  6
Continuous
 62
     7
370
    30
100
AcDbPoint
 10
15.80041
 20
-4.981083
 30
0.0
  0
POINT
  5
2B3
330
5FA
100
AcDbEntity
  8
NOTES
  6
Continuous
 62
     7
370
    30
100
AcDbPoint
 10
15.82541
 20
-4.981083
 30
0.0
  0
POINT
  5
2B4
330
5FA
100
AcDbEntity
  8
NOTES
  6
Continuous
 62
     7
370
    30
100
AcDbPoint
 10
15.85041
 20
-4.981083
 30
0.0
  0
POINT
  5
2B5
330
5FA
100
AcDbEntity
  8
NOTES
  6
Continuous
 62
     7
370
    30
100
AcDbPoint
 10
15.87541
 20
-4.981083
 30
0.0
  0
POINT
  5
2B6
330
5FA
100
AcDbEntity
  8
NOTES
  6
Continuous
 62
     7
370
    30
100
AcDbPoint
 10
15.90041
 20
-4.981083
 30
0.0
  0
POINT
  5
2B7
330
5FA
100
AcDbEntity
  8
NOTES
  6
Continuous
 62
     7
370
    30
100
AcDbPoint
 10
15.92541
 20
-4.981083
 30
0.0
  0
POINT
  5
2B8
330
5FA
100
AcDbEntity
  8
NOTES
  6
Continuous
 62
     7
370
    30
100
AcDbPoint
 10
15.95041
 20
-4.981083
 30
0.0
  0
POINT
  5
2B9
330
5FA
100
AcDbEntity
  8
NOTES
  6
Continuous
 62
     7
370
    30
100
AcDbPoint
 10
17.17541
 20
-4.981083
 30
0.0
  0
POINT
  5
2BA
330
5FA
100
AcDbEntity
  8
NOTES
  6
Continuous
 62
     7
370
    30
100
AcDbPoint
 10
17.20041
 20
-4.981083
 30
0.0
  0
POINT
  5
2BB
330
5FA
100
AcDbEntity
  8
NOTES
  6
Continuous
 62
     7
370
    30
100
AcDbPoint
 10
17.22541
 20
-4.981083
 30
0.0
  0
POINT
  5
2BC
330
5FA
100
AcDbEntity
  8
NOTES
  6
Continuous
 62
     7
370
    30
100
AcDbPoint
 10
17.25041
 20
-4.981083
 30
0.0
  0
POINT
  5
2BD
330
5FA
100
AcDbEntity
  8
NOTES
  6
Continuous
 62
     7
370
    30
100
AcDbPoint
 10
17.27541
 20
-4.981083
 30
0.0
  0
POINT
  5
2BE
330
5FA
100
AcDbEntity
  8
NOTES
  6
Continuous
 62
     7
370
    30
100
AcDbPoint
 10
17.30041
 20
-4.981083
 30
0.0
  0
POINT
  5
2BF
330
5FA
100
AcDbEntity
  8
NOTES
  6
Continuous
 62
     7
370
    30
100
AcDbPoint
 10
17.32541
 20
-4.981083
 30
0.0
  0
POINT
  5
2C0
330
5FA
100
AcDbEntity
  8
NOTES
  6
Continuous
 62
     7
370
    30
100
AcDbPoint
 10
17.35041
 20
-4.981083
 30
0.0
  0
POINT
  5
2C1
330
5FA
100
AcDbEntity
  8
NOTES
  6
Continuous
 62
     7
370
    30
100
AcDbPoint
 10
17.37541
 20
-4.981083
 30
0.0
  0
POINT
  5
2C2
330
5FA
100
AcDbEntity
  8
NOTES
  6
Continuous
 62
     7
370
    30
100
AcDbPoint
 10
17.40041
 20
-4.981083
 30
0.0
  0
POINT
  5
2C3
330
5FA
100
AcDbEntity
  8
NOTES
  6
Continuous
 62
     7
370
    30
100
AcDbPoint
 10
17.42541
 20
-4.981083
 30
0.0
  0
POINT
  5
2C4
330
5FA
100
AcDbEntity
  8
NOTES
  6
Continuous
 62
     7
370
    30
100
AcDbPoint
 10
17.45041
 20
-4.981083
 30
0.0
  0
POINT
  5
2C5
330
5FA
100
AcDbEntity
  8
NOTES
  6
Continuous
 62
     7
370
    30
100
AcDbPoint
 10
17.47541
 20
-4.981083
 30
0.0
  0
POINT
  5
2C6
330
5FA
100
AcDbEntity
  8
NOTES
  6
Continuous
 62
     7
370
    30
100
AcDbPoint
 10
17.50041
 20
-4.981083
 30
0.0
  0
POINT
  5
2C7
330
5FA
100
AcDbEntity
  8
NOTES
  6
Continuous
 62
     7
370
    30
100
AcDbPoint
 10
17.52541
 20
-4.981083
 30
0.0
  0
POINT
  5
2C8
330
5FA
100
AcDbEntity
  8
NOTES
  6
Continuous
 62
     7
370
    30
100
AcDbPoint
 10
17.55041
 20
-4.981083
 30
0.0
  0
POINT
  5
2C9
330
5FA
100
AcDbEntity
  8
NOTES
  6
Continuous
 62
     7
370
    30
100
AcDbPoint
 10
17.57541
 20
-4.981083
 30
0.0
  0
POINT
  5
2CA
330
5FA
100
AcDbEntity
  8
NOTES
  6
Continuous
 62
     7
370
    30
100
AcDbPoint
 10
17.60041
 20
-4.981083
 30
0.0
  0
POINT
  5
2CB
330
5FA
100
AcDbEntity
  8
NOTES
  6
Continuous
 62
     7
370
    30
100
AcDbPoint
 10
17.62541
 20
-4.981083
 30
0.0
  0
POINT
  5
2CC
330
5FA
100
AcDbEntity
  8
NOTES
  6
Continuous
 62
     7
370
    30
100
AcDbPoint
 10
17.65041
 20
-4.981083
 30
0.0
  0
POINT
  5
2CD
330
5FA
100
AcDbEntity
  8
NOTES
  6
Continuous
 62
     7
370
    30
100
AcDbPoint
 10
17.67541
 20
-4.981083
 30
0.0
  0
POINT
  5
2CE
330
5FA
100
AcDbEntity
  8
NOTES
  6
Continuous
 62
     7
370
    30
100
AcDbPoint
 10
17.70041
 20
-4.981083
 30
0.0
  0
POINT
  5
2CF
330
5FA
100
AcDbEntity
  8
NOTES
  6
Continuous
 62
     7
370
    30
100
AcDbPoint
 10
17.72541
 20
-4.981083
 30
0.0
  0
POINT
  5
2D0
330
5FA
100
AcDbEntity
  8
NOTES
  6
Continuous
 62
     7
370
    30
100
AcDbPoint
 10
17.75041
 20
-4.981083
 30
0.0
  0
POINT
  5
2D1
330
5FA
100
AcDbEntity
  8
NOTES
  6
Continuous
 62
     7
370
    30
100
AcDbPoint
 10
17.77541
 20
-4.981083
 30
0.0
  0
POINT
  5
2D2
330
5FA
100
AcDbEntity
  8
NOTES
  6
Continuous
 62
     7
370
    30
100
AcDbPoint
 10
17.80041
 20
-4.981083
 30
0.0
  0
POINT
  5
2D3
330
5FA
100
AcDbEntity
  8
NOTES
  6
Continuous
 62
     7
370
    30
100
AcDbPoint
 10
16.00041
 20
-4.981083
 30
0.0
  0
POINT
  5
2D4
330
5FA
100
AcDbEntity
  8
NOTES
  6
Continuous
 62
     7
370
    30
100
AcDbPoint
 10
16.02541
 20
-4.981083
 30
0.0
  0
POINT
  5
2D5
330
5FA
100
AcDbEntity
  8
NOTES
  6
Continuous
 62
     7
370
    30
100
AcDbPoint
 10
16.05041
 20
-4.981083
 30
0.0
  0
POINT
  5
2D6
330
5FA
100
AcDbEntity
  8
NOTES
  6
Continuous
 62
     7
370
    30
100
AcDbPoint
 10
16.07541
 20
-4.981083
 30
0.0
  0
POINT
  5
2D7
330
5FA
100
AcDbEntity
  8
NOTES
  6
Continuous
 62
     7
370
    30
100
AcDbPoint
 10
16.10041
 20
-4.981083
 30
0.0
  0
POINT
  5
2D8
330
5FA
100
AcDbEntity
  8
NOTES
  6
Continuous
 62
     7
370
    30
100
AcDbPoint
 10
16.12541
 20
-4.981083
 30
0.0
  0
POINT
  5
2D9
330
5FA
100
AcDbEntity
  8
NOTES
  6
Continuous
 62
     7
370
    30
100
AcDbPoint
 10
16.15041
 20
-4.981083
 30
0.0
  0
POINT
  5
2DA
330
5FA
100
AcDbEntity
  8
NOTES
  6
Continuous
 62
     7
370
    30
100
AcDbPoint
 10
16.17541
 20
-4.981083
 30
0.0
  0
POINT
  5
2DB
330
5FA
100
AcDbEntity
  8
NOTES
  6
Continuous
 62
     7
370
    30
100
AcDbPoint
 10
16.20041
 20
-4.981083
 30
0.0
  0
POINT
  5
2DC
330
5FA
100
AcDbEntity
  8
NOTES
  6
Continuous
 62
     7
370
    30
100
AcDbPoint
 10
16.22541
 20
-4.981083
 30
0.0
  0
POINT
  5
2DD
330
5FA
100
AcDbEntity
  8
NOTES
  6
Continuous
 62
     7
370
    30
100
AcDbPoint
 10
16.25041
 20
-4.981083
 30
0.0
  0
POINT
  5
2DE
330
5FA
100
AcDbEntity
  8
NOTES
  6
Continuous
 62
     7
370
    30
100
AcDbPoint
 10
16.27541
 20
-4.981083
 30
0.0
  0
POINT
  5
2DF
330
5FA
100
AcDbEntity
  8
NOTES
  6
Continuous
 62
     7
370
    30
100
AcDbPoint
 10
16.30041
 20
-4.981083
 30
0.0
  0
POINT
  5
2E0
330
5FA
100
AcDbEntity
  8
NOTES
  6
Continuous
 62
     7
370
    30
100
AcDbPoint
 10
16.32541
 20
-4.981083
 30
0.0
  0
POINT
  5
2E1
330
5FA
100
AcDbEntity
  8
NOTES
  6
Continuous
 62
     7
370
    30
100
AcDbPoint
 10
16.35041
 20
-4.981083
 30
0.0
  0
POINT
  5
2E2
330
5FA
100
AcDbEntity
  8
NOTES
  6
Continuous
 62
     7
370
    30
100
AcDbPoint
 10
16.37541
 20
-4.981083
 30
0.0
  0
POINT
  5
2E3
330
5FA
100
AcDbEntity
  8
NOTES
  6
Continuous
 62
     7
370
    30
100
AcDbPoint
 10
16.40041
 20
-4.981083
 30
0.0
  0
POINT
  5
2E4
330
5FA
100
AcDbEntity
  8
NOTES
  6
Continuous
 62
     7
370
    30
100
AcDbPoint
 10
16.42541
 20
-4.981083
 30
0.0
  0
POINT
  5
2E5
330
5FA
100
AcDbEntity
  8
NOTES
  6
Continuous
 62
     7
370
    30
100
AcDbPoint
 10
16.45041
 20
-4.981083
 30
0.0
  0
POINT
  5
2E6
330
5FA
100
AcDbEntity
  8
NOTES
  6
Continuous
 62
     7
370
    30
100
AcDbPoint
 10
16.47541
 20
-4.981083
 30
0.0
  0
POINT
  5
2E7
330
5FA
100
AcDbEntity
  8
NOTES
  6
Continuous
 62
     7
370
    30
100
AcDbPoint
 10
16.50041
 20
-4.981083
 30
0.0
  0
POINT
  5
2E8
330
5FA
100
AcDbEntity
  8
NOTES
  6
Continuous
 62
     7
370
    30
100
AcDbPoint
 10
16.52541
 20
-4.981083
 30
0.0
  0
POINT
  5
2E9
330
5FA
100
AcDbEntity
  8
NOTES
  6
Continuous
 62
     7
370
    30
100
AcDbPoint
 10
16.55041
 20
-4.981083
 30
0.0
  0
POINT
  5
2EA
330
5FA
100
AcDbEntity
  8
NOTES
  6
Continuous
 62
     7
370
    30
100
AcDbPoint
 10
16.57541
 20
-4.981083
 30
0.0
  0
POINT
  5
2EB
330
5FA
100
AcDbEntity
  8
NOTES
  6
Continuous
 62
     7
370
    30
100
AcDbPoint
 10
16.60041
 20
-4.981083
 30
0.0
  0
POINT
  5
2EC
330
5FA
100
AcDbEntity
  8
NOTES
  6
Continuous
 62
     7
370
    30
100
AcDbPoint
 10
16.62541
 20
-4.981083
 30
0.0
  0
POINT
  5
2ED
330
5FA
100
AcDbEntity
  8
NOTES
  6
Continuous
 62
     7
370
    30
100
AcDbPoint
 10
16.65041
 20
-4.981083
 30
0.0
  0
POINT
  5
2EE
330
5FA
100
AcDbEntity
  8
NOTES
  6
Continuous
 62
     7
370
    30
100
AcDbPoint
 10
16.67541
 20
-4.981083
 30
0.0
  0
POINT
  5
2EF
330
5FA
100
AcDbEntity
  8
NOTES
  6
Continuous
 62
     7
370
    30
100
AcDbPoint
 10
16.70041
 20
-4.981083
 30
0.0
  0
POINT
  5
2F0
330
5FA
100
AcDbEntity
  8
NOTES
  6
Continuous
 62
     7
370
    30
100
AcDbPoint
 10
16.72541
 20
-4.981083
 30
0.0
  0
POINT
  5
2F1
330
5FA
100
AcDbEntity
  8
NOTES
  6
Continuous
 62
     7
370
    30
100
AcDbPoint
 10
16.75041
 20
-4.981083
 30
0.0
  0
POINT
  5
2F2
330
5FA
100
AcDbEntity
  8
NOTES
  6
Continuous
 62
     7
370
    30
100
AcDbPoint
 10
16.77541
 20
-4.981083
 30
0.0
  0
POINT
  5
2F3
330
5FA
100
AcDbEntity
  8
NOTES
  6
Continuous
 62
     7
370
    30
100
AcDbPoint
 10
16.80041
 20
-4.981083
 30
0.0
  0
POINT
  5
2F4
330
5FA
100
AcDbEntity
  8
NOTES
  6
Continuous
 62
     7
370
    30
100
AcDbPoint
 10
16.82541
 20
-4.981083
 30
0.0
  0
POINT
  5
2F5
330
5FA
100
AcDbEntity
  8
NOTES
  6
Continuous
 62
     7
370
    30
100
AcDbPoint
 10
16.85041
 20
-4.981083
 30
0.0
  0
POINT
  5
2F6
330
5FA
100
AcDbEntity
  8
NOTES
  6
Continuous
 62
     7
370
    30
100
AcDbPoint
 10
16.87541
 20
-4.981083
 30
0.0
  0
POINT
  5
2F7
330
5FA
100
AcDbEntity
  8
NOTES
  6
Continuous
 62
     7
370
    30
100
AcDbPoint
 10
16.90041
 20
-4.981083
 30
0.0
  0
POINT
  5
2F8
330
5FA
100
AcDbEntity
  8
NOTES
  6
Continuous
 62
     7
370
    30
100
AcDbPoint
 10
16.92541
 20
-4.981083
 30
0.0
  0
POINT
  5
2F9
330
5FA
100
AcDbEntity
  8
NOTES
  6
Continuous
 62
     7
370
    30
100
AcDbPoint
 10
16.95041
 20
-4.981083
 30
0.0
  0
POINT
  5
2FA
330
5FA
100
AcDbEntity
  8
NOTES
  6
Continuous
 62
     7
370
    30
100
AcDbPoint
 10
16.97541
 20
-4.981083
 30
0.0
  0
POINT
  5
2FB
330
5FA
100
AcDbEntity
  8
NOTES
  6
Continuous
 62
     7
370
    30
100
AcDbPoint
 10
17.00041
 20
-4.981083
 30
0.0
  0
POINT
  5
2FC
330
5FA
100
AcDbEntity
  8
NOTES
  6
Continuous
 62
     7
370
    30
100
AcDbPoint
 10
17.02541
 20
-4.981083
 30
0.0
  0
POINT
  5
2FD
330
5FA
100
AcDbEntity
  8
NOTES
  6
Continuous
 62
     7
370
    30
100
AcDbPoint
 10
17.05041
 20
-4.981083
 30
0.0
  0
POINT
  5
2FE
330
5FA
100
AcDbEntity
  8
NOTES
  6
Continuous
 62
     7
370
    30
100
AcDbPoint
 10
17.07541
 20
-4.981083
 30
0.0
  0
POINT
  5
2FF
330
5FA
100
AcDbEntity
  8
NOTES
  6
Continuous
 62
     7
370
    30
100
AcDbPoint
 10
17.10041
 20
-4.981083
 30
0.0
  0
LWPOLYLINE
  5
300
330
5FA
100
AcDbEntity
  8
2-19I
  6
Continuous
 62
     7
370
    30
100
AcDbPolyline
 90
        6
 70
   128
 43
0.0
 10
18.423448
 20
-10.110042
 10
18.445854
 20
-10.06201
 10
18.429365
 20
-10.044719
 10
18.475521
 20
-10.06201
 10
18.45574
 20
-10.040406
 10
18.488073
 20
-9.981219
  0
LINE
  5
301
330
5FA
100
AcDbEntity
  8
2-19I
  6
Continuous
 62
     7
370
    30
100
AcDbLine
 10
17.875708
 20
-9.881219
 30
0.0
 11
17.875708
 21
-10.110042
 31
0.0
  0
LINE
  5
302
330
5FA
100
AcDbEntity
  8
2-19I
  6
Continuous
 62
     7
370
    30
100
AcDbLine
 10
17.975708
 20
-9.881219
 30
0.0
 11
18.026323
 21
-9.981219
 31
0.0
  0
LINE
  5
303
330
5FA
100
AcDbEntity
  8
REF
  6
Continuous
 62
     7
370
    13
100
AcDbLine
 10
17.875708
 20
-9.831219
 30
0.0
 11
17.875708
 21
-9.357125
 31
0.0
  0
LINE
  5
304
330
5FA
100
AcDbEntity
  8
REF
  6
Continuous
 62
     7
370
    13
100
AcDbLine
 10
17.975708
 20
-9.831219
 30
0.0
 11
17.975708
 21
-9.357125
 31
0.0
  0
LINE
  5
306
330
5FA
100
AcDbEntity
  8
REF
  6
Continuous
 62
     7
370
    13
100
AcDbLine
 10
18.026323
 20
-9.931219
 30
0.0
 11
18.026323
 21
-9.51726
 31
0.0
  0
POINT
  5
308
330
5FA
100
AcDbEntity
  8
NOTES
  6
Continuous
 62
     7
370
    30
100
AcDbPoint
 10
17.73
 20
-10.013094
 30
0.0
  0
POINT
  5
309
330
5FA
100
AcDbEntity
  8
NOTES
  6
Continuous
 62
     7
370
    30
100
AcDbPoint
 10
17.755
 20
-10.013094
 30
0.0
  0
POINT
  5
30A
330
5FA
100
AcDbEntity
  8
NOTES
  6
Continuous
 62
     7
370
    30
100
AcDbPoint
 10
17.78
 20
-10.013094
 30
0.0
  0
POINT
  5
30B
330
5FA
100
AcDbEntity
  8
NOTES
  6
Continuous
 62
     7
370
    30
100
AcDbPoint
 10
17.805
 20
-10.013094
 30
0.0
  0
POINT
  5
30C
330
5FA
100
AcDbEntity
  8
NOTES
  6
Continuous
 62
     7
370
    30
100
AcDbPoint
 10
17.83
 20
-10.013094
 30
0.0
  0
POINT
  5
30D
330
5FA
100
AcDbEntity
  8
NOTES
  6
Continuous
 62
     7
370
    30
100
AcDbPoint
 10
17.855
 20
-10.013094
 30
0.0
  0
POINT
  5
30E
330
5FA
100
AcDbEntity
  8
NOTES
  6
Continuous
 62
     7
370
    30
100
AcDbPoint
 10
17.88
 20
-10.013094
 30
0.0
  0
POINT
  5
30F
330
5FA
100
AcDbEntity
  8
NOTES
  6
Continuous
 62
     7
370
    30
100
AcDbPoint
 10
17.905
 20
-10.013094
 30
0.0
  0
POINT
  5
310
330
5FA
100
AcDbEntity
  8
NOTES
  6
Continuous
 62
     7
370
    30
100
AcDbPoint
 10
17.93
 20
-10.013094
 30
0.0
  0
POINT
  5
311
330
5FA
100
AcDbEntity
  8
NOTES
  6
Continuous
 62
     7
370
    30
100
AcDbPoint
 10
17.955
 20
-10.013094
 30
0.0
  0
POINT
  5
312
330
5FA
100
AcDbEntity
  8
NOTES
  6
Continuous
 62
     7
370
    30
100
AcDbPoint
 10
17.98
 20
-10.013094
 30
0.0
  0
POINT
  5
313
330
5FA
100
AcDbEntity
  8
NOTES
  6
Continuous
 62
     7
370
    30
100
AcDbPoint
 10
18.005
 20
-10.013094
 30
0.0
  0
POINT
  5
314
330
5FA
100
AcDbEntity
  8
NOTES
  6
Continuous
 62
     7
370
    30
100
AcDbPoint
 10
18.03
 20
-10.013094
 30
0.0
  0
POINT
  5
315
330
5FA
100
AcDbEntity
  8
NOTES
  6
Continuous
 62
     7
370
    30
100
AcDbPoint
 10
18.055
 20
-10.013094
 30
0.0
  0
POINT
  5
316
330
5FA
100
AcDbEntity
  8
NOTES
  6
Continuous
 62
     7
370
    30
100
AcDbPoint
 10
18.08
 20
-10.013094
 30
0.0
  0
POINT
  5
317
330
5FA
100
AcDbEntity
  8
NOTES
  6
Continuous
 62
     7
370
    30
100
AcDbPoint
 10
18.105
 20
-10.013094
 30
0.0
  0
POINT
  5
318
330
5FA
100
AcDbEntity
  8
NOTES
  6
Continuous
 62
     7
370
    30
100
AcDbPoint
 10
18.13
 20
-10.013094
 30
0.0
  0
POINT
  5
319
330
5FA
100
AcDbEntity
  8
NOTES
  6
Continuous
 62
     7
370
    30
100
AcDbPoint
 10
18.155
 20
-10.013094
 30
0.0
  0
POINT
  5
31A
330
5FA
100
AcDbEntity
  8
NOTES
  6
Continuous
 62
     7
370
    30
100
AcDbPoint
 10
18.18
 20
-10.013094
 30
0.0
  0
POINT
  5
31B
330
5FA
100
AcDbEntity
  8
NOTES
  6
Continuous
 62
     7
370
    30
100
AcDbPoint
 10
18.205
 20
-10.013094
 30
0.0
  0
POINT
  5
31C
330
5FA
100
AcDbEntity
  8
NOTES
  6
Continuous
 62
     7
370
    30
100
AcDbPoint
 10
18.23
 20
-10.013094
 30
0.0
  0
POINT
  5
31D
330
5FA
100
AcDbEntity
  8
NOTES
  6
Continuous
 62
     7
370
    30
100
AcDbPoint
 10
18.255
 20
-10.013094
 30
0.0
  0
POINT
  5
31E
330
5FA
100
AcDbEntity
  8
NOTES
  6
Continuous
 62
     7
370
    30
100
AcDbPoint
 10
18.28
 20
-10.013094
 30
0.0
  0
POINT
  5
31F
330
5FA
100
AcDbEntity
  8
NOTES
  6
Continuous
 62
     7
370
    30
100
AcDbPoint
 10
18.305
 20
-10.013094
 30
0.0
  0
POINT
  5
320
330
5FA
100
AcDbEntity
  8
NOTES
  6
Continuous
 62
     7
370
    30
100
AcDbPoint
 10
18.33
 20
-10.013094
 30
0.0
  0
POINT
  5
321
330
5FA
100
AcDbEntity
  8
NOTES
  6
Continuous
 62
     7
370
    30
100
AcDbPoint
 10
18.355
 20
-10.013094
 30
0.0
  0
POINT
  5
322
330
5FA
100
AcDbEntity
  8
NOTES
  6
Continuous
 62
     7
370
    30
100
AcDbPoint
 10
18.38
 20
-10.013094
 30
0.0
  0
POINT
  5
323
330
5FA
100
AcDbEntity
  8
NOTES
  6
Continuous
 62
     7
370
    30
100
AcDbPoint
 10
18.405
 20
-10.013094
 30
0.0
  0
POINT
  5
324
330
5FA
100
AcDbEntity
  8
NOTES
  6
Continuous
 62
     7
370
    30
100
AcDbPoint
 10
18.43
 20
-10.013094
 30
0.0
  0
POINT
  5
325
330
5FA
100
AcDbEntity
  8
NOTES
  6
Continuous
 62
     7
370
    30
100
AcDbPoint
 10
18.455
 20
-10.013094
 30
0.0
  0
POINT
  5
326
330
5FA
100
AcDbEntity
  8
NOTES
  6
Continuous
 62
     7
370
    30
100
AcDbPoint
 10
17.7425
 20
-9.988094
 30
0.0
  0
POINT
  5
327
330
5FA
100
AcDbEntity
  8
NOTES
  6
Continuous
 62
     7
370
    30
100
AcDbPoint
 10
17.7675
 20
-9.988094
 30
0.0
  0
POINT
  5
328
330
5FA
100
AcDbEntity
  8
NOTES
  6
Continuous
 62
     7
370
    30
100
AcDbPoint
 10
17.7925
 20
-9.988094
 30
0.0
  0
POINT
  5
329
330
5FA
100
AcDbEntity
  8
NOTES
  6
Continuous
 62
     7
370
    30
100
AcDbPoint
 10
17.8175
 20
-9.988094
 30
0.0
  0
POINT
  5
32A
330
5FA
100
AcDbEntity
  8
NOTES
  6
Continuous
 62
     7
370
    30
100
AcDbPoint
 10
17.8425
 20
-9.988094
 30
0.0
  0
POINT
  5
32B
330
5FA
100
AcDbEntity
  8
NOTES
  6
Continuous
 62
     7
370
    30
100
AcDbPoint
 10
17.8675
 20
-9.988094
 30
0.0
  0
POINT
  5
32C
330
5FA
100
AcDbEntity
  8
NOTES
  6
Continuous
 62
     7
370
    30
100
AcDbPoint
 10
17.8925
 20
-9.988094
 30
0.0
  0
POINT
  5
32D
330
5FA
100
AcDbEntity
  8
NOTES
  6
Continuous
 62
     7
370
    30
100
AcDbPoint
 10
17.9175
 20
-9.988094
 30
0.0
  0
POINT
  5
32E
330
5FA
100
AcDbEntity
  8
NOTES
  6
Continuous
 62
     7
370
    30
100
AcDbPoint
 10
17.9425
 20
-9.988094
 30
0.0
  0
POINT
  5
32F
330
5FA
100
AcDbEntity
  8
NOTES
  6
Continuous
 62
     7
370
    30
100
AcDbPoint
 10
17.9675
 20
-9.988094
 30
0.0
  0
POINT
  5
330
330
5FA
100
AcDbEntity
  8
NOTES
  6
Continuous
 62
     7
370
    30
100
AcDbPoint
 10
17.9925
 20
-9.988094
 30
0.0
  0
POINT
  5
331
330
5FA
100
AcDbEntity
  8
NOTES
  6
Continuous
 62
     7
370
    30
100
AcDbPoint
 10
18.0175
 20
-9.988094
 30
0.0
  0
POINT
  5
332
330
5FA
100
AcDbEntity
  8
NOTES
  6
Continuous
 62
     7
370
    30
100
AcDbPoint
 10
18.0425
 20
-9.988094
 30
0.0
  0
POINT
  5
333
330
5FA
100
AcDbEntity
  8
NOTES
  6
Continuous
 62
     7
370
    30
100
AcDbPoint
 10
18.0675
 20
-9.988094
 30
0.0
  0
POINT
  5
334
330
5FA
100
AcDbEntity
  8
NOTES
  6
Continuous
 62
     7
370
    30
100
AcDbPoint
 10
18.0925
 20
-9.988094
 30
0.0
  0
POINT
  5
335
330
5FA
100
AcDbEntity
  8
NOTES
  6
Continuous
 62
     7
370
    30
100
AcDbPoint
 10
18.1175
 20
-9.988094
 30
0.0
  0
POINT
  5
336
330
5FA
100
AcDbEntity
  8
NOTES
  6
Continuous
 62
     7
370
    30
100
AcDbPoint
 10
18.1425
 20
-9.988094
 30
0.0
  0
POINT
  5
337
330
5FA
100
AcDbEntity
  8
NOTES
  6
Continuous
 62
     7
370
    30
100
AcDbPoint
 10
18.1675
 20
-9.988094
 30
0.0
  0
POINT
  5
338
330
5FA
100
AcDbEntity
  8
NOTES
  6
Continuous
 62
     7
370
    30
100
AcDbPoint
 10
18.1925
 20
-9.988094
 30
0.0
  0
POINT
  5
339
330
5FA
100
AcDbEntity
  8
NOTES
  6
Continuous
 62
     7
370
    30
100
AcDbPoint
 10
18.2175
 20
-9.988094
 30
0.0
  0
POINT
  5
33A
330
5FA
100
AcDbEntity
  8
NOTES
  6
Continuous
 62
     7
370
    30
100
AcDbPoint
 10
18.2425
 20
-9.988094
 30
0.0
  0
POINT
  5
33B
330
5FA
100
AcDbEntity
  8
NOTES
  6
Continuous
 62
     7
370
    30
100
AcDbPoint
 10
18.2675
 20
-9.988094
 30
0.0
  0
POINT
  5
33C
330
5FA
100
AcDbEntity
  8
NOTES
  6
Continuous
 62
     7
370
    30
100
AcDbPoint
 10
18.2925
 20
-9.988094
 30
0.0
  0
POINT
  5
33D
330
5FA
100
AcDbEntity
  8
NOTES
  6
Continuous
 62
     7
370
    30
100
AcDbPoint
 10
18.3175
 20
-9.988094
 30
0.0
  0
POINT
  5
33E
330
5FA
100
AcDbEntity
  8
NOTES
  6
Continuous
 62
     7
370
    30
100
AcDbPoint
 10
18.3425
 20
-9.988094
 30
0.0
  0
POINT
  5
33F
330
5FA
100
AcDbEntity
  8
NOTES
  6
Continuous
 62
     7
370
    30
100
AcDbPoint
 10
18.3675
 20
-9.988094
 30
0.0
  0
POINT
  5
340
330
5FA
100
AcDbEntity
  8
NOTES
  6
Continuous
 62
     7
370
    30
100
AcDbPoint
 10
18.3925
 20
-9.988094
 30
0.0
  0
POINT
  5
341
330
5FA
100
AcDbEntity
  8
NOTES
  6
Continuous
 62
     7
370
    30
100
AcDbPoint
 10
18.4175
 20
-9.988094
 30
0.0
  0
POINT
  5
342
330
5FA
100
AcDbEntity
  8
NOTES
  6
Continuous
 62
     7
370
    30
100
AcDbPoint
 10
18.4425
 20
-9.988094
 30
0.0
  0
POINT
  5
343
330
5FA
100
AcDbEntity
  8
NOTES
  6
Continuous
 62
     7
370
    30
100
AcDbPoint
 10
18.4675
 20
-9.988094
 30
0.0
  0
POINT
  5
344
330
5FA
100
AcDbEntity
  8
NOTES
  6
Continuous
 62
     7
370
    30
100
AcDbPoint
 10
16.805
 20
-9.963094
 30
0.0
  0
POINT
  5
345
330
5FA
100
AcDbEntity
  8
NOTES
  6
Continuous
 62
     7
370
    30
100
AcDbPoint
 10
16.83
 20
-9.963094
 30
0.0
  0
POINT
  5
346
330
5FA
100
AcDbEntity
  8
NOTES
  6
Continuous
 62
     7
370
    30
100
AcDbPoint
 10
16.855
 20
-9.963094
 30
0.0
  0
POINT
  5
347
330
5FA
100
AcDbEntity
  8
NOTES
  6
Continuous
 62
     7
370
    30
100
AcDbPoint
 10
16.88
 20
-9.963094
 30
0.0
  0
POINT
  5
348
330
5FA
100
AcDbEntity
  8
NOTES
  6
Continuous
 62
     7
370
    30
100
AcDbPoint
 10
16.905
 20
-9.963094
 30
0.0
  0
POINT
  5
349
330
5FA
100
AcDbEntity
  8
NOTES
  6
Continuous
 62
     7
370
    30
100
AcDbPoint
 10
16.93
 20
-9.963094
 30
0.0
  0
POINT
  5
34A
330
5FA
100
AcDbEntity
  8
NOTES
  6
Continuous
 62
     7
370
    30
100
AcDbPoint
 10
16.955
 20
-9.963094
 30
0.0
  0
POINT
  5
34B
330
5FA
100
AcDbEntity
  8
NOTES
  6
Continuous
 62
     7
370
    30
100
AcDbPoint
 10
16.98
 20
-9.963094
 30
0.0
  0
POINT
  5
34C
330
5FA
100
AcDbEntity
  8
NOTES
  6
Continuous
 62
     7
370
    30
100
AcDbPoint
 10
17.005
 20
-9.963094
 30
0.0
  0
POINT
  5
34D
330
5FA
100
AcDbEntity
  8
NOTES
  6
Continuous
 62
     7
370
    30
100
AcDbPoint
 10
17.03
 20
-9.963094
 30
0.0
  0
POINT
  5
34E
330
5FA
100
AcDbEntity
  8
NOTES
  6
Continuous
 62
     7
370
    30
100
AcDbPoint
 10
17.055
 20
-9.963094
 30
0.0
  0
POINT
  5
34F
330
5FA
100
AcDbEntity
  8
NOTES
  6
Continuous
 62
     7
370
    30
100
AcDbPoint
 10
17.08
 20
-9.963094
 30
0.0
  0
POINT
  5
350
330
5FA
100
AcDbEntity
  8
NOTES
  6
Continuous
 62
     7
370
    30
100
AcDbPoint
 10
17.105
 20
-9.963094
 30
0.0
  0
POINT
  5
351
330
5FA
100
AcDbEntity
  8
NOTES
  6
Continuous
 62
     7
370
    30
100
AcDbPoint
 10
17.13
 20
-9.963094
 30
0.0
  0
POINT
  5
352
330
5FA
100
AcDbEntity
  8
NOTES
  6
Continuous
 62
     7
370
    30
100
AcDbPoint
 10
17.155
 20
-9.963094
 30
0.0
  0
POINT
  5
353
330
5FA
100
AcDbEntity
  8
NOTES
  6
Continuous
 62
     7
370
    30
100
AcDbPoint
 10
17.18
 20
-9.963094
 30
0.0
  0
POINT
  5
354
330
5FA
100
AcDbEntity
  8
NOTES
  6
Continuous
 62
     7
370
    30
100
AcDbPoint
 10
17.205
 20
-9.963094
 30
0.0
  0
POINT
  5
355
330
5FA
100
AcDbEntity
  8
NOTES
  6
Continuous
 62
     7
370
    30
100
AcDbPoint
 10
17.23
 20
-9.963094
 30
0.0
  0
POINT
  5
356
330
5FA
100
AcDbEntity
  8
NOTES
  6
Continuous
 62
     7
370
    30
100
AcDbPoint
 10
17.255
 20
-9.963094
 30
0.0
  0
POINT
  5
357
330
5FA
100
AcDbEntity
  8
NOTES
  6
Continuous
 62
     7
370
    30
100
AcDbPoint
 10
17.28
 20
-9.963094
 30
0.0
  0
POINT
  5
358
330
5FA
100
AcDbEntity
  8
NOTES
  6
Continuous
 62
     7
370
    30
100
AcDbPoint
 10
17.305
 20
-9.963094
 30
0.0
  0
POINT
  5
359
330
5FA
100
AcDbEntity
  8
NOTES
  6
Continuous
 62
     7
370
    30
100
AcDbPoint
 10
17.33
 20
-9.963094
 30
0.0
  0
POINT
  5
35A
330
5FA
100
AcDbEntity
  8
NOTES
  6
Continuous
 62
     7
370
    30
100
AcDbPoint
 10
17.355
 20
-9.963094
 30
0.0
  0
POINT
  5
35B
330
5FA
100
AcDbEntity
  8
NOTES
  6
Continuous
 62
     7
370
    30
100
AcDbPoint
 10
17.38
 20
-9.963094
 30
0.0
  0
POINT
  5
35C
330
5FA
100
AcDbEntity
  8
NOTES
  6
Continuous
 62
     7
370
    30
100
AcDbPoint
 10
17.405
 20
-9.963094
 30
0.0
  0
POINT
  5
35D
330
5FA
100
AcDbEntity
  8
NOTES
  6
Continuous
 62
     7
370
    30
100
AcDbPoint
 10
17.43
 20
-9.963094
 30
0.0
  0
POINT
  5
35E
330
5FA
100
AcDbEntity
  8
NOTES
  6
Continuous
 62
     7
370
    30
100
AcDbPoint
 10
17.455
 20
-9.963094
 30
0.0
  0
POINT
  5
35F
330
5FA
100
AcDbEntity
  8
NOTES
  6
Continuous
 62
     7
370
    30
100
AcDbPoint
 10
17.48
 20
-9.963094
 30
0.0
  0
POINT
  5
360
330
5FA
100
AcDbEntity
  8
NOTES
  6
Continuous
 62
     7
370
    30
100
AcDbPoint
 10
17.505
 20
-9.963094
 30
0.0
  0
POINT
  5
361
330
5FA
100
AcDbEntity
  8
NOTES
  6
Continuous
 62
     7
370
    30
100
AcDbPoint
 10
17.53
 20
-9.963094
 30
0.0
  0
POINT
  5
362
330
5FA
100
AcDbEntity
  8
NOTES
  6
Continuous
 62
     7
370
    30
100
AcDbPoint
 10
17.555
 20
-9.963094
 30
0.0
  0
POINT
  5
363
330
5FA
100
AcDbEntity
  8
NOTES
  6
Continuous
 62
     7
370
    30
100
AcDbPoint
 10
17.58
 20
-9.963094
 30
0.0
  0
POINT
  5
364
330
5FA
100
AcDbEntity
  8
NOTES
  6
Continuous
 62
     7
370
    30
100
AcDbPoint
 10
17.605
 20
-9.963094
 30
0.0
  0
POINT
  5
365
330
5FA
100
AcDbEntity
  8
NOTES
  6
Continuous
 62
     7
370
    30
100
AcDbPoint
 10
17.63
 20
-9.963094
 30
0.0
  0
POINT
  5
366
330
5FA
100
AcDbEntity
  8
NOTES
  6
Continuous
 62
     7
370
    30
100
AcDbPoint
 10
17.655
 20
-9.963094
 30
0.0
  0
POINT
  5
367
330
5FA
100
AcDbEntity
  8
NOTES
  6
Continuous
 62
     7
370
    30
100
AcDbPoint
 10
17.68
 20
-9.963094
 30
0.0
  0
POINT
  5
368
330
5FA
100
AcDbEntity
  8
NOTES
  6
Continuous
 62
     7
370
    30
100
AcDbPoint
 10
17.705
 20
-9.963094
 30
0.0
  0
POINT
  5
369
330
5FA
100
AcDbEntity
  8
NOTES
  6
Continuous
 62
     7
370
    30
100
AcDbPoint
 10
17.73
 20
-9.963094
 30
0.0
  0
POINT
  5
36A
330
5FA
100
AcDbEntity
  8
NOTES
  6
Continuous
 62
     7
370
    30
100
AcDbPoint
 10
17.755
 20
-9.963094
 30
0.0
  0
POINT
  5
36B
330
5FA
100
AcDbEntity
  8
NOTES
  6
Continuous
 62
     7
370
    30
100
AcDbPoint
 10
17.78
 20
-9.963094
 30
0.0
  0
POINT
  5
36C
330
5FA
100
AcDbEntity
  8
NOTES
  6
Continuous
 62
     7
370
    30
100
AcDbPoint
 10
17.805
 20
-9.963094
 30
0.0
  0
POINT
  5
36D
330
5FA
100
AcDbEntity
  8
NOTES
  6
Continuous
 62
     7
370
    30
100
AcDbPoint
 10
17.83
 20
-9.963094
 30
0.0
  0
POINT
  5
36E
330
5FA
100
AcDbEntity
  8
NOTES
  6
Continuous
 62
     7
370
    30
100
AcDbPoint
 10
17.855
 20
-9.963094
 30
0.0
  0
POINT
  5
36F
330
5FA
100
AcDbEntity
  8
NOTES
  6
Continuous
 62
     7
370
    30
100
AcDbPoint
 10
17.88
 20
-9.963094
 30
0.0
  0
POINT
  5
370
330
5FA
100
AcDbEntity
  8
NOTES
  6
Continuous
 62
     7
370
    30
100
AcDbPoint
 10
17.905
 20
-9.963094
 30
0.0
  0
POINT
  5
371
330
5FA
100
AcDbEntity
  8
NOTES
  6
Continuous
 62
     7
370
    30
100
AcDbPoint
 10
17.93
 20
-9.963094
 30
0.0
  0
POINT
  5
372
330
5FA
100
AcDbEntity
  8
NOTES
  6
Continuous
 62
     7
370
    30
100
AcDbPoint
 10
17.955
 20
-9.963094
 30
0.0
  0
POINT
  5
373
330
5FA
100
AcDbEntity
  8
NOTES
  6
Continuous
 62
     7
370
    30
100
AcDbPoint
 10
16.8175
 20
-9.938094
 30
0.0
  0
POINT
  5
374
330
5FA
100
AcDbEntity
  8
NOTES
  6
Continuous
 62
     7
370
    30
100
AcDbPoint
 10
16.8425
 20
-9.938094
 30
0.0
  0
POINT
  5
375
330
5FA
100
AcDbEntity
  8
NOTES
  6
Continuous
 62
     7
370
    30
100
AcDbPoint
 10
16.8675
 20
-9.938094
 30
0.0
  0
POINT
  5
376
330
5FA
100
AcDbEntity
  8
NOTES
  6
Continuous
 62
     7
370
    30
100
AcDbPoint
 10
16.8925
 20
-9.938094
 30
0.0
  0
POINT
  5
377
330
5FA
100
AcDbEntity
  8
NOTES
  6
Continuous
 62
     7
370
    30
100
AcDbPoint
 10
16.9175
 20
-9.938094
 30
0.0
  0
POINT
  5
378
330
5FA
100
AcDbEntity
  8
NOTES
  6
Continuous
 62
     7
370
    30
100
AcDbPoint
 10
16.9425
 20
-9.938094
 30
0.0
  0
POINT
  5
379
330
5FA
100
AcDbEntity
  8
NOTES
  6
Continuous
 62
     7
370
    30
100
AcDbPoint
 10
16.9675
 20
-9.938094
 30
0.0
  0
POINT
  5
37A
330
5FA
100
AcDbEntity
  8
NOTES
  6
Continuous
 62
     7
370
    30
100
AcDbPoint
 10
16.9925
 20
-9.938094
 30
0.0
  0
POINT
  5
37B
330
5FA
100
AcDbEntity
  8
NOTES
  6
Continuous
 62
     7
370
    30
100
AcDbPoint
 10
17.0175
 20
-9.938094
 30
0.0
  0
POINT
  5
37C
330
5FA
100
AcDbEntity
  8
NOTES
  6
Continuous
 62
     7
370
    30
100
AcDbPoint
 10
17.0425
 20
-9.938094
 30
0.0
  0
POINT
  5
37D
330
5FA
100
AcDbEntity
  8
NOTES
  6
Continuous
 62
     7
370
    30
100
AcDbPoint
 10
17.0675
 20
-9.938094
 30
0.0
  0
POINT
  5
37E
330
5FA
100
AcDbEntity
  8
NOTES
  6
Continuous
 62
     7
370
    30
100
AcDbPoint
 10
17.0925
 20
-9.938094
 30
0.0
  0
POINT
  5
37F
330
5FA
100
AcDbEntity
  8
NOTES
  6
Continuous
 62
     7
370
    30
100
AcDbPoint
 10
17.1175
 20
-9.938094
 30
0.0
  0
POINT
  5
380
330
5FA
100
AcDbEntity
  8
NOTES
  6
Continuous
 62
     7
370
    30
100
AcDbPoint
 10
17.1425
 20
-9.938094
 30
0.0
  0
POINT
  5
381
330
5FA
100
AcDbEntity
  8
NOTES
  6
Continuous
 62
     7
370
    30
100
AcDbPoint
 10
17.1675
 20
-9.938094
 30
0.0
  0
POINT
  5
382
330
5FA
100
AcDbEntity
  8
NOTES
  6
Continuous
 62
     7
370
    30
100
AcDbPoint
 10
17.1925
 20
-9.938094
 30
0.0
  0
POINT
  5
383
330
5FA
100
AcDbEntity
  8
NOTES
  6
Continuous
 62
     7
370
    30
100
AcDbPoint
 10
17.2175
 20
-9.938094
 30
0.0
  0
POINT
  5
384
330
5FA
100
AcDbEntity
  8
NOTES
  6
Continuous
 62
     7
370
    30
100
AcDbPoint
 10
17.2425
 20
-9.938094
 30
0.0
  0
POINT
  5
385
330
5FA
100
AcDbEntity
  8
NOTES
  6
Continuous
 62
     7
370
    30
100
AcDbPoint
 10
17.2675
 20
-9.938094
 30
0.0
  0
POINT
  5
386
330
5FA
100
AcDbEntity
  8
NOTES
  6
Continuous
 62
     7
370
    30
100
AcDbPoint
 10
17.2925
 20
-9.938094
 30
0.0
  0
POINT
  5
387
330
5FA
100
AcDbEntity
  8
NOTES
  6
Continuous
 62
     7
370
    30
100
AcDbPoint
 10
17.3175
 20
-9.938094
 30
0.0
  0
POINT
  5
388
330
5FA
100
AcDbEntity
  8
NOTES
  6
Continuous
 62
     7
370
    30
100
AcDbPoint
 10
17.3425
 20
-9.938094
 30
0.0
  0
POINT
  5
389
330
5FA
100
AcDbEntity
  8
NOTES
  6
Continuous
 62
     7
370
    30
100
AcDbPoint
 10
17.3675
 20
-9.938094
 30
0.0
  0
POINT
  5
38A
330
5FA
100
AcDbEntity
  8
NOTES
  6
Continuous
 62
     7
370
    30
100
AcDbPoint
 10
17.3925
 20
-9.938094
 30
0.0
  0
POINT
  5
38B
330
5FA
100
AcDbEntity
  8
NOTES
  6
Continuous
 62
     7
370
    30
100
AcDbPoint
 10
17.4175
 20
-9.938094
 30
0.0
  0
POINT
  5
38C
330
5FA
100
AcDbEntity
  8
NOTES
  6
Continuous
 62
     7
370
    30
100
AcDbPoint
 10
17.4425
 20
-9.938094
 30
0.0
  0
POINT
  5
38D
330
5FA
100
AcDbEntity
  8
NOTES
  6
Continuous
 62
     7
370
    30
100
AcDbPoint
 10
17.4675
 20
-9.938094
 30
0.0
  0
POINT
  5
38E
330
5FA
100
AcDbEntity
  8
NOTES
  6
Continuous
 62
     7
370
    30
100
AcDbPoint
 10
17.4925
 20
-9.938094
 30
0.0
  0
POINT
  5
38F
330
5FA
100
AcDbEntity
  8
NOTES
  6
Continuous
 62
     7
370
    30
100
AcDbPoint
 10
17.5175
 20
-9.938094
 30
0.0
  0
POINT
  5
390
330
5FA
100
AcDbEntity
  8
NOTES
  6
Continuous
 62
     7
370
    30
100
AcDbPoint
 10
17.5425
 20
-9.938094
 30
0.0
  0
POINT
  5
391
330
5FA
100
AcDbEntity
  8
NOTES
  6
Continuous
 62
     7
370
    30
100
AcDbPoint
 10
17.5675
 20
-9.938094
 30
0.0
  0
POINT
  5
392
330
5FA
100
AcDbEntity
  8
NOTES
  6
Continuous
 62
     7
370
    30
100
AcDbPoint
 10
17.5925
 20
-9.938094
 30
0.0
  0
POINT
  5
393
330
5FA
100
AcDbEntity
  8
NOTES
  6
Continuous
 62
     7
370
    30
100
AcDbPoint
 10
17.6175
 20
-9.938094
 30
0.0
  0
POINT
  5
394
330
5FA
100
AcDbEntity
  8
NOTES
  6
Continuous
 62
     7
370
    30
100
AcDbPoint
 10
17.6425
 20
-9.938094
 30
0.0
  0
POINT
  5
395
330
5FA
100
AcDbEntity
  8
NOTES
  6
Continuous
 62
     7
370
    30
100
AcDbPoint
 10
17.6675
 20
-9.938094
 30
0.0
  0
POINT
  5
396
330
5FA
100
AcDbEntity
  8
NOTES
  6
Continuous
 62
     7
370
    30
100
AcDbPoint
 10
17.6925
 20
-9.938094
 30
0.0
  0
POINT
  5
397
330
5FA
100
AcDbEntity
  8
NOTES
  6
Continuous
 62
     7
370
    30
100
AcDbPoint
 10
17.7175
 20
-9.938094
 30
0.0
  0
POINT
  5
398
330
5FA
100
AcDbEntity
  8
NOTES
  6
Continuous
 62
     7
370
    30
100
AcDbPoint
 10
17.7425
 20
-9.938094
 30
0.0
  0
POINT
  5
399
330
5FA
100
AcDbEntity
  8
NOTES
  6
Continuous
 62
     7
370
    30
100
AcDbPoint
 10
17.7675
 20
-9.938094
 30
0.0
  0
POINT
  5
39A
330
5FA
100
AcDbEntity
  8
NOTES
  6
Continuous
 62
     7
370
    30
100
AcDbPoint
 10
17.7925
 20
-9.938094
 30
0.0
  0
POINT
  5
39B
330
5FA
100
AcDbEntity
  8
NOTES
  6
Continuous
 62
     7
370
    30
100
AcDbPoint
 10
17.8175
 20
-9.938094
 30
0.0
  0
POINT
  5
39C
330
5FA
100
AcDbEntity
  8
NOTES
  6
Continuous
 62
     7
370
    30
100
AcDbPoint
 10
17.8425
 20
-9.938094
 30
0.0
  0
POINT
  5
39D
330
5FA
100
AcDbEntity
  8
NOTES
  6
Continuous
 62
     7
370
    30
100
AcDbPoint
 10
17.8675
 20
-9.938094
 30
0.0
  0
POINT
  5
39E
330
5FA
100
AcDbEntity
  8
NOTES
  6
Continuous
 62
     7
370
    30
100
AcDbPoint
 10
17.8925
 20
-9.938094
 30
0.0
  0
POINT
  5
39F
330
5FA
100
AcDbEntity
  8
NOTES
  6
Continuous
 62
     7
370
    30
100
AcDbPoint
 10
16.805
 20
-9.913094
 30
0.0
  0
POINT
  5
3A0
330
5FA
100
AcDbEntity
  8
NOTES
  6
Continuous
 62
     7
370
    30
100
AcDbPoint
 10
16.83
 20
-9.913094
 30
0.0
  0
POINT
  5
3A1
330
5FA
100
AcDbEntity
  8
NOTES
  6
Continuous
 62
     7
370
    30
100
AcDbPoint
 10
16.855
 20
-9.913094
 30
0.0
  0
POINT
  5
3A2
330
5FA
100
AcDbEntity
  8
NOTES
  6
Continuous
 62
     7
370
    30
100
AcDbPoint
 10
16.88
 20
-9.913094
 30
0.0
  0
POINT
  5
3A3
330
5FA
100
AcDbEntity
  8
NOTES
  6
Continuous
 62
     7
370
    30
100
AcDbPoint
 10
16.905
 20
-9.913094
 30
0.0
  0
POINT
  5
3A4
330
5FA
100
AcDbEntity
  8
NOTES
  6
Continuous
 62
     7
370
    30
100
AcDbPoint
 10
16.93
 20
-9.913094
 30
0.0
  0
POINT
  5
3A5
330
5FA
100
AcDbEntity
  8
NOTES
  6
Continuous
 62
     7
370
    30
100
AcDbPoint
 10
16.955
 20
-9.913094
 30
0.0
  0
POINT
  5
3A6
330
5FA
100
AcDbEntity
  8
NOTES
  6
Continuous
 62
     7
370
    30
100
AcDbPoint
 10
16.98
 20
-9.913094
 30
0.0
  0
POINT
  5
3A7
330
5FA
100
AcDbEntity
  8
NOTES
  6
Continuous
 62
     7
370
    30
100
AcDbPoint
 10
17.005
 20
-9.913094
 30
0.0
  0
POINT
  5
3A8
330
5FA
100
AcDbEntity
  8
NOTES
  6
Continuous
 62
     7
370
    30
100
AcDbPoint
 10
17.03
 20
-9.913094
 30
0.0
  0
POINT
  5
3A9
330
5FA
100
AcDbEntity
  8
NOTES
  6
Continuous
 62
     7
370
    30
100
AcDbPoint
 10
17.055
 20
-9.913094
 30
0.0
  0
POINT
  5
3AA
330
5FA
100
AcDbEntity
  8
NOTES
  6
Continuous
 62
     7
370
    30
100
AcDbPoint
 10
17.08
 20
-9.913094
 30
0.0
  0
POINT
  5
3AB
330
5FA
100
AcDbEntity
  8
NOTES
  6
Continuous
 62
     7
370
    30
100
AcDbPoint
 10
17.105
 20
-9.913094
 30
0.0
  0
POINT
  5
3AC
330
5FA
100
AcDbEntity
  8
NOTES
  6
Continuous
 62
     7
370
    30
100
AcDbPoint
 10
17.13
 20
-9.913094
 30
0.0
  0
POINT
  5
3AD
330
5FA
100
AcDbEntity
  8
NOTES
  6
Continuous
 62
     7
370
    30
100
AcDbPoint
 10
17.155
 20
-9.913094
 30
0.0
  0
POINT
  5
3AE
330
5FA
100
AcDbEntity
  8
NOTES
  6
Continuous
 62
     7
370
    30
100
AcDbPoint
 10
17.18
 20
-9.913094
 30
0.0
  0
POINT
  5
3AF
330
5FA
100
AcDbEntity
  8
NOTES
  6
Continuous
 62
     7
370
    30
100
AcDbPoint
 10
17.205
 20
-9.913094
 30
0.0
  0
POINT
  5
3B0
330
5FA
100
AcDbEntity
  8
NOTES
  6
Continuous
 62
     7
370
    30
100
AcDbPoint
 10
17.23
 20
-9.913094
 30
0.0
  0
POINT
  5
3B1
330
5FA
100
AcDbEntity
  8
NOTES
  6
Continuous
 62
     7
370
    30
100
AcDbPoint
 10
17.255
 20
-9.913094
 30
0.0
  0
POINT
  5
3B2
330
5FA
100
AcDbEntity
  8
NOTES
  6
Continuous
 62
     7
370
    30
100
AcDbPoint
 10
17.28
 20
-9.913094
 30
0.0
  0
POINT
  5
3B3
330
5FA
100
AcDbEntity
  8
NOTES
  6
Continuous
 62
     7
370
    30
100
AcDbPoint
 10
17.305
 20
-9.913094
 30
0.0
  0
POINT
  5
3B4
330
5FA
100
AcDbEntity
  8
NOTES
  6
Continuous
 62
     7
370
    30
100
AcDbPoint
 10
17.33
 20
-9.913094
 30
0.0
  0
POINT
  5
3B5
330
5FA
100
AcDbEntity
  8
NOTES
  6
Continuous
 62
     7
370
    30
100
AcDbPoint
 10
17.355
 20
-9.913094
 30
0.0
  0
POINT
  5
3B6
330
5FA
100
AcDbEntity
  8
NOTES
  6
Continuous
 62
     7
370
    30
100
AcDbPoint
 10
17.38
 20
-9.913094
 30
0.0
  0
POINT
  5
3B7
330
5FA
100
AcDbEntity
  8
NOTES
  6
Continuous
 62
     7
370
    30
100
AcDbPoint
 10
17.405
 20
-9.913094
 30
0.0
  0
POINT
  5
3B8
330
5FA
100
AcDbEntity
  8
NOTES
  6
Continuous
 62
     7
370
    30
100
AcDbPoint
 10
17.43
 20
-9.913094
 30
0.0
  0
POINT
  5
3B9
330
5FA
100
AcDbEntity
  8
NOTES
  6
Continuous
 62
     7
370
    30
100
AcDbPoint
 10
17.455
 20
-9.913094
 30
0.0
  0
POINT
  5
3BA
330
5FA
100
AcDbEntity
  8
NOTES
  6
Continuous
 62
     7
370
    30
100
AcDbPoint
 10
17.48
 20
-9.913094
 30
0.0
  0
POINT
  5
3BB
330
5FA
100
AcDbEntity
  8
NOTES
  6
Continuous
 62
     7
370
    30
100
AcDbPoint
 10
17.505
 20
-9.913094
 30
0.0
  0
POINT
  5
3BC
330
5FA
100
AcDbEntity
  8
NOTES
  6
Continuous
 62
     7
370
    30
100
AcDbPoint
 10
17.53
 20
-9.913094
 30
0.0
  0
POINT
  5
3BD
330
5FA
100
AcDbEntity
  8
NOTES
  6
Continuous
 62
     7
370
    30
100
AcDbPoint
 10
17.555
 20
-9.913094
 30
0.0
  0
POINT
  5
3BE
330
5FA
100
AcDbEntity
  8
NOTES
  6
Continuous
 62
     7
370
    30
100
AcDbPoint
 10
17.58
 20
-9.913094
 30
0.0
  0
POINT
  5
3BF
330
5FA
100
AcDbEntity
  8
NOTES
  6
Continuous
 62
     7
370
    30
100
AcDbPoint
 10
17.605
 20
-9.913094
 30
0.0
  0
POINT
  5
3C0
330
5FA
100
AcDbEntity
  8
NOTES
  6
Continuous
 62
     7
370
    30
100
AcDbPoint
 10
17.63
 20
-9.913094
 30
0.0
  0
POINT
  5
3C1
330
5FA
100
AcDbEntity
  8
NOTES
  6
Continuous
 62
     7
370
    30
100
AcDbPoint
 10
17.655
 20
-9.913094
 30
0.0
  0
POINT
  5
3C2
330
5FA
100
AcDbEntity
  8
NOTES
  6
Continuous
 62
     7
370
    30
100
AcDbPoint
 10
17.68
 20
-9.913094
 30
0.0
  0
POINT
  5
3C3
330
5FA
100
AcDbEntity
  8
NOTES
  6
Continuous
 62
     7
370
    30
100
AcDbPoint
 10
17.705
 20
-9.913094
 30
0.0
  0
POINT
  5
3C4
330
5FA
100
AcDbEntity
  8
NOTES
  6
Continuous
 62
     7
370
    30
100
AcDbPoint
 10
17.73
 20
-9.913094
 30
0.0
  0
POINT
  5
3C5
330
5FA
100
AcDbEntity
  8
NOTES
  6
Continuous
 62
     7
370
    30
100
AcDbPoint
 10
17.755
 20
-9.913094
 30
0.0
  0
POINT
  5
3C6
330
5FA
100
AcDbEntity
  8
NOTES
  6
Continuous
 62
     7
370
    30
100
AcDbPoint
 10
17.78
 20
-9.913094
 30
0.0
  0
POINT
  5
3C7
330
5FA
100
AcDbEntity
  8
NOTES
  6
Continuous
 62
     7
370
    30
100
AcDbPoint
 10
17.805
 20
-9.913094
 30
0.0
  0
POINT
  5
3C8
330
5FA
100
AcDbEntity
  8
NOTES
  6
Continuous
 62
     7
370
    30
100
AcDbPoint
 10
16.8175
 20
-9.888094
 30
0.0
  0
POINT
  5
3C9
330
5FA
100
AcDbEntity
  8
NOTES
  6
Continuous
 62
     7
370
    30
100
AcDbPoint
 10
16.8425
 20
-9.888094
 30
0.0
  0
POINT
  5
3CA
330
5FA
100
AcDbEntity
  8
NOTES
  6
Continuous
 62
     7
370
    30
100
AcDbPoint
 10
16.8675
 20
-9.888094
 30
0.0
  0
POINT
  5
3CB
330
5FA
100
AcDbEntity
  8
NOTES
  6
Continuous
 62
     7
370
    30
100
AcDbPoint
 10
16.8925
 20
-9.888094
 30
0.0
  0
POINT
  5
3CC
330
5FA
100
AcDbEntity
  8
NOTES
  6
Continuous
 62
     7
370
    30
100
AcDbPoint
 10
16.9175
 20
-9.888094
 30
0.0
  0
POINT
  5
3CD
330
5FA
100
AcDbEntity
  8
NOTES
  6
Continuous
 62
     7
370
    30
100
AcDbPoint
 10
16.9425
 20
-9.888094
 30
0.0
  0
POINT
  5
3CE
330
5FA
100
AcDbEntity
  8
NOTES
  6
Continuous
 62
     7
370
    30
100
AcDbPoint
 10
16.9675
 20
-9.888094
 30
0.0
  0
POINT
  5
3CF
330
5FA
100
AcDbEntity
  8
NOTES
  6
Continuous
 62
     7
370
    30
100
AcDbPoint
 10
16.9925
 20
-9.888094
 30
0.0
  0
POINT
  5
3D0
330
5FA
100
AcDbEntity
  8
NOTES
  6
Continuous
 62
     7
370
    30
100
AcDbPoint
 10
17.0175
 20
-9.888094
 30
0.0
  0
POINT
  5
3D1
330
5FA
100
AcDbEntity
  8
NOTES
  6
Continuous
 62
     7
370
    30
100
AcDbPoint
 10
17.0425
 20
-9.888094
 30
0.0
  0
POINT
  5
3D2
330
5FA
100
AcDbEntity
  8
NOTES
  6
Continuous
 62
     7
370
    30
100
AcDbPoint
 10
17.0675
 20
-9.888094
 30
0.0
  0
POINT
  5
3D3
330
5FA
100
AcDbEntity
  8
NOTES
  6
Continuous
 62
     7
370
    30
100
AcDbPoint
 10
17.0925
 20
-9.888094
 30
0.0
  0
POINT
  5
3D4
330
5FA
100
AcDbEntity
  8
NOTES
  6
Continuous
 62
     7
370
    30
100
AcDbPoint
 10
17.1175
 20
-9.888094
 30
0.0
  0
POINT
  5
3D5
330
5FA
100
AcDbEntity
  8
NOTES
  6
Continuous
 62
     7
370
    30
100
AcDbPoint
 10
17.1425
 20
-9.888094
 30
0.0
  0
POINT
  5
3D6
330
5FA
100
AcDbEntity
  8
NOTES
  6
Continuous
 62
     7
370
    30
100
AcDbPoint
 10
17.1675
 20
-9.888094
 30
0.0
  0
POINT
  5
3D7
330
5FA
100
AcDbEntity
  8
NOTES
  6
Continuous
 62
     7
370
    30
100
AcDbPoint
 10
17.1925
 20
-9.888094
 30
0.0
  0
POINT
  5
3D8
330
5FA
100
AcDbEntity
  8
NOTES
  6
Continuous
 62
     7
370
    30
100
AcDbPoint
 10
17.2175
 20
-9.888094
 30
0.0
  0
POINT
  5
3D9
330
5FA
100
AcDbEntity
  8
NOTES
  6
Continuous
 62
     7
370
    30
100
AcDbPoint
 10
17.2425
 20
-9.888094
 30
0.0
  0
POINT
  5
3DA
330
5FA
100
AcDbEntity
  8
NOTES
  6
Continuous
 62
     7
370
    30
100
AcDbPoint
 10
17.2675
 20
-9.888094
 30
0.0
  0
POINT
  5
3DB
330
5FA
100
AcDbEntity
  8
NOTES
  6
Continuous
 62
     7
370
    30
100
AcDbPoint
 10
17.2925
 20
-9.888094
 30
0.0
  0
POINT
  5
3DC
330
5FA
100
AcDbEntity
  8
NOTES
  6
Continuous
 62
     7
370
    30
100
AcDbPoint
 10
17.3175
 20
-9.888094
 30
0.0
  0
POINT
  5
3DD
330
5FA
100
AcDbEntity
  8
NOTES
  6
Continuous
 62
     7
370
    30
100
AcDbPoint
 10
17.3425
 20
-9.888094
 30
0.0
  0
POINT
  5
3DE
330
5FA
100
AcDbEntity
  8
NOTES
  6
Continuous
 62
     7
370
    30
100
AcDbPoint
 10
17.3675
 20
-9.888094
 30
0.0
  0
POINT
  5
3DF
330
5FA
100
AcDbEntity
  8
NOTES
  6
Continuous
 62
     7
370
    30
100
AcDbPoint
 10
17.3925
 20
-9.888094
 30
0.0
  0
POINT
  5
3E0
330
5FA
100
AcDbEntity
  8
NOTES
  6
Continuous
 62
     7
370
    30
100
AcDbPoint
 10
17.4175
 20
-9.888094
 30
0.0
  0
POINT
  5
3E1
330
5FA
100
AcDbEntity
  8
NOTES
  6
Continuous
 62
     7
370
    30
100
AcDbPoint
 10
17.4425
 20
-9.888094
 30
0.0
  0
POINT
  5
3E2
330
5FA
100
AcDbEntity
  8
NOTES
  6
Continuous
 62
     7
370
    30
100
AcDbPoint
 10
17.4675
 20
-9.888094
 30
0.0
  0
POINT
  5
3E3
330
5FA
100
AcDbEntity
  8
NOTES
  6
Continuous
 62
     7
370
    30
100
AcDbPoint
 10
17.4925
 20
-9.888094
 30
0.0
  0
POINT
  5
3E4
330
5FA
100
AcDbEntity
  8
NOTES
  6
Continuous
 62
     7
370
    30
100
AcDbPoint
 10
17.5175
 20
-9.888094
 30
0.0
  0
POINT
  5
3E5
330
5FA
100
AcDbEntity
  8
NOTES
  6
Continuous
 62
     7
370
    30
100
AcDbPoint
 10
17.5425
 20
-9.888094
 30
0.0
  0
POINT
  5
3E6
330
5FA
100
AcDbEntity
  8
NOTES
  6
Continuous
 62
     7
370
    30
100
AcDbPoint
 10
17.5675
 20
-9.888094
 30
0.0
  0
POINT
  5
3E7
330
5FA
100
AcDbEntity
  8
NOTES
  6
Continuous
 62
     7
370
    30
100
AcDbPoint
 10
17.5925
 20
-9.888094
 30
0.0
  0
POINT
  5
3E8
330
5FA
100
AcDbEntity
  8
NOTES
  6
Continuous
 62
     7
370
    30
100
AcDbPoint
 10
17.6175
 20
-9.888094
 30
0.0
  0
POINT
  5
3E9
330
5FA
100
AcDbEntity
  8
NOTES
  6
Continuous
 62
     7
370
    30
100
AcDbPoint
 10
17.6425
 20
-9.888094
 30
0.0
  0
POINT
  5
3EA
330
5FA
100
AcDbEntity
  8
NOTES
  6
Continuous
 62
     7
370
    30
100
AcDbPoint
 10
17.6675
 20
-9.888094
 30
0.0
  0
POINT
  5
3EB
330
5FA
100
AcDbEntity
  8
NOTES
  6
Continuous
 62
     7
370
    30
100
AcDbPoint
 10
17.6925
 20
-9.888094
 30
0.0
  0
POINT
  5
3EC
330
5FA
100
AcDbEntity
  8
NOTES
  6
Continuous
 62
     7
370
    30
100
AcDbPoint
 10
17.7175
 20
-9.888094
 30
0.0
  0
POINT
  5
3ED
330
5FA
100
AcDbEntity
  8
NOTES
  6
Continuous
 62
     7
370
    30
100
AcDbPoint
 10
17.7425
 20
-9.888094
 30
0.0
  0
POINT
  5
3EE
330
5FA
100
AcDbEntity
  8
NOTES
  6
Continuous
 62
     7
370
    30
100
AcDbPoint
 10
17.7425
 20
-10.038094
 30
0.0
  0
POINT
  5
3EF
330
5FA
100
AcDbEntity
  8
NOTES
  6
Continuous
 62
     7
370
    30
100
AcDbPoint
 10
17.7675
 20
-10.038094
 30
0.0
  0
POINT
  5
3F0
330
5FA
100
AcDbEntity
  8
NOTES
  6
Continuous
 62
     7
370
    30
100
AcDbPoint
 10
17.7925
 20
-10.038094
 30
0.0
  0
POINT
  5
3F1
330
5FA
100
AcDbEntity
  8
NOTES
  6
Continuous
 62
     7
370
    30
100
AcDbPoint
 10
17.8175
 20
-10.038094
 30
0.0
  0
POINT
  5
3F2
330
5FA
100
AcDbEntity
  8
NOTES
  6
Continuous
 62
     7
370
    30
100
AcDbPoint
 10
17.8425
 20
-10.038094
 30
0.0
  0
POINT
  5
3F3
330
5FA
100
AcDbEntity
  8
NOTES
  6
Continuous
 62
     7
370
    30
100
AcDbPoint
 10
17.8675
 20
-10.038094
 30
0.0
  0
POINT
  5
3F4
330
5FA
100
AcDbEntity
  8
NOTES
  6
Continuous
 62
     7
370
    30
100
AcDbPoint
 10
17.8925
 20
-10.038094
 30
0.0
  0
POINT
  5
3F5
330
5FA
100
AcDbEntity
  8
NOTES
  6
Continuous
 62
     7
370
    30
100
AcDbPoint
 10
17.9175
 20
-10.038094
 30
0.0
  0
POINT
  5
3F6
330
5FA
100
AcDbEntity
  8
NOTES
  6
Continuous
 62
     7
370
    30
100
AcDbPoint
 10
17.9425
 20
-10.038094
 30
0.0
  0
POINT
  5
3F7
330
5FA
100
AcDbEntity
  8
NOTES
  6
Continuous
 62
     7
370
    30
100
AcDbPoint
 10
17.9675
 20
-10.038094
 30
0.0
  0
POINT
  5
3F8
330
5FA
100
AcDbEntity
  8
NOTES
  6
Continuous
 62
     7
370
    30
100
AcDbPoint
 10
17.9925
 20
-10.038094
 30
0.0
  0
POINT
  5
3F9
330
5FA
100
AcDbEntity
  8
NOTES
  6
Continuous
 62
     7
370
    30
100
AcDbPoint
 10
18.0175
 20
-10.038094
 30
0.0
  0
POINT
  5
3FA
330
5FA
100
AcDbEntity
  8
NOTES
  6
Continuous
 62
     7
370
    30
100
AcDbPoint
 10
18.0425
 20
-10.038094
 30
0.0
  0
POINT
  5
3FB
330
5FA
100
AcDbEntity
  8
NOTES
  6
Continuous
 62
     7
370
    30
100
AcDbPoint
 10
18.0675
 20
-10.038094
 30
0.0
  0
POINT
  5
3FC
330
5FA
100
AcDbEntity
  8
NOTES
  6
Continuous
 62
     7
370
    30
100
AcDbPoint
 10
18.0925
 20
-10.038094
 30
0.0
  0
POINT
  5
3FD
330
5FA
100
AcDbEntity
  8
NOTES
  6
Continuous
 62
     7
370
    30
100
AcDbPoint
 10
18.1175
 20
-10.038094
 30
0.0
  0
POINT
  5
3FE
330
5FA
100
AcDbEntity
  8
NOTES
  6
Continuous
 62
     7
370
    30
100
AcDbPoint
 10
18.1425
 20
-10.038094
 30
0.0
  0
POINT
  5
3FF
330
5FA
100
AcDbEntity
  8
NOTES
  6
Continuous
 62
     7
370
    30
100
AcDbPoint
 10
18.1675
 20
-10.038094
 30
0.0
  0
POINT
  5
400
330
5FA
100
AcDbEntity
  8
NOTES
  6
Continuous
 62
     7
370
    30
100
AcDbPoint
 10
18.1925
 20
-10.038094
 30
0.0
  0
POINT
  5
401
330
5FA
100
AcDbEntity
  8
NOTES
  6
Continuous
 62
     7
370
    30
100
AcDbPoint
 10
18.2175
 20
-10.038094
 30
0.0
  0
POINT
  5
402
330
5FA
100
AcDbEntity
  8
NOTES
  6
Continuous
 62
     7
370
    30
100
AcDbPoint
 10
18.2425
 20
-10.038094
 30
0.0
  0
POINT
  5
403
330
5FA
100
AcDbEntity
  8
NOTES
  6
Continuous
 62
     7
370
    30
100
AcDbPoint
 10
18.2675
 20
-10.038094
 30
0.0
  0
POINT
  5
404
330
5FA
100
AcDbEntity
  8
NOTES
  6
Continuous
 62
     7
370
    30
100
AcDbPoint
 10
18.2925
 20
-10.038094
 30
0.0
  0
POINT
  5
405
330
5FA
100
AcDbEntity
  8
NOTES
  6
Continuous
 62
     7
370
    30
100
AcDbPoint
 10
18.3175
 20
-10.038094
 30
0.0
  0
POINT
  5
406
330
5FA
100
AcDbEntity
  8
NOTES
  6
Continuous
 62
     7
370
    30
100
AcDbPoint
 10
18.3425
 20
-10.038094
 30
0.0
  0
POINT
  5
407
330
5FA
100
AcDbEntity
  8
NOTES
  6
Continuous
 62
     7
370
    30
100
AcDbPoint
 10
18.3675
 20
-10.038094
 30
0.0
  0
POINT
  5
408
330
5FA
100
AcDbEntity
  8
NOTES
  6
Continuous
 62
     7
370
    30
100
AcDbPoint
 10
18.3925
 20
-10.038094
 30
0.0
  0
POINT
  5
409
330
5FA
100
AcDbEntity
  8
NOTES
  6
Continuous
 62
     7
370
    30
100
AcDbPoint
 10
18.4175
 20
-10.038094
 30
0.0
  0
POINT
  5
40A
330
5FA
100
AcDbEntity
  8
NOTES
  6
Continuous
 62
     7
370
    30
100
AcDbPoint
 10
18.4425
 20
-10.038094
 30
0.0
  0
POINT
  5
40B
330
5FA
100
AcDbEntity
  8
NOTES
  6
Continuous
 62
     7
370
    30
100
AcDbPoint
 10
17.73
 20
-10.063094
 30
0.0
  0
POINT
  5
40C
330
5FA
100
AcDbEntity
  8
NOTES
  6
Continuous
 62
     7
370
    30
100
AcDbPoint
 10
17.755
 20
-10.063094
 30
0.0
  0
POINT
  5
40D
330
5FA
100
AcDbEntity
  8
NOTES
  6
Continuous
 62
     7
370
    30
100
AcDbPoint
 10
17.78
 20
-10.063094
 30
0.0
  0
POINT
  5
40E
330
5FA
100
AcDbEntity
  8
NOTES
  6
Continuous
 62
     7
370
    30
100
AcDbPoint
 10
17.805
 20
-10.063094
 30
0.0
  0
POINT
  5
40F
330
5FA
100
AcDbEntity
  8
NOTES
  6
Continuous
 62
     7
370
    30
100
AcDbPoint
 10
17.83
 20
-10.063094
 30
0.0
  0
POINT
  5
410
330
5FA
100
AcDbEntity
  8
NOTES
  6
Continuous
 62
     7
370
    30
100
AcDbPoint
 10
17.855
 20
-10.063094
 30
0.0
  0
POINT
  5
411
330
5FA
100
AcDbEntity
  8
NOTES
  6
Continuous
 62
     7
370
    30
100
AcDbPoint
 10
17.88
 20
-10.063094
 30
0.0
  0
POINT
  5
412
330
5FA
100
AcDbEntity
  8
NOTES
  6
Continuous
 62
     7
370
    30
100
AcDbPoint
 10
17.905
 20
-10.063094
 30
0.0
  0
POINT
  5
413
330
5FA
100
AcDbEntity
  8
NOTES
  6
Continuous
 62
     7
370
    30
100
AcDbPoint
 10
17.93
 20
-10.063094
 30
0.0
  0
POINT
  5
414
330
5FA
100
AcDbEntity
  8
NOTES
  6
Continuous
 62
     7
370
    30
100
AcDbPoint
 10
17.955
 20
-10.063094
 30
0.0
  0
POINT
  5
415
330
5FA
100
AcDbEntity
  8
NOTES
  6
Continuous
 62
     7
370
    30
100
AcDbPoint
 10
17.98
 20
-10.063094
 30
0.0
  0
POINT
  5
416
330
5FA
100
AcDbEntity
  8
NOTES
  6
Continuous
 62
     7
370
    30
100
AcDbPoint
 10
18.005
 20
-10.063094
 30
0.0
  0
POINT
  5
417
330
5FA
100
AcDbEntity
  8
NOTES
  6
Continuous
 62
     7
370
    30
100
AcDbPoint
 10
18.03
 20
-10.063094
 30
0.0
  0
POINT
  5
418
330
5FA
100
AcDbEntity
  8
NOTES
  6
Continuous
 62
     7
370
    30
100
AcDbPoint
 10
18.055
 20
-10.063094
 30
0.0
  0
POINT
  5
419
330
5FA
100
AcDbEntity
  8
NOTES
  6
Continuous
 62
     7
370
    30
100
AcDbPoint
 10
18.08
 20
-10.063094
 30
0.0
  0
POINT
  5
41A
330
5FA
100
AcDbEntity
  8
NOTES
  6
Continuous
 62
     7
370
    30
100
AcDbPoint
 10
18.105
 20
-10.063094
 30
0.0
  0
POINT
  5
41B
330
5FA
100
AcDbEntity
  8
NOTES
  6
Continuous
 62
     7
370
    30
100
AcDbPoint
 10
18.13
 20
-10.063094
 30
0.0
  0
POINT
  5
41C
330
5FA
100
AcDbEntity
  8
NOTES
  6
Continuous
 62
     7
370
    30
100
AcDbPoint
 10
18.155
 20
-10.063094
 30
0.0
  0
POINT
  5
41D
330
5FA
100
AcDbEntity
  8
NOTES
  6
Continuous
 62
     7
370
    30
100
AcDbPoint
 10
18.18
 20
-10.063094
 30
0.0
  0
POINT
  5
41E
330
5FA
100
AcDbEntity
  8
NOTES
  6
Continuous
 62
     7
370
    30
100
AcDbPoint
 10
18.205
 20
-10.063094
 30
0.0
  0
POINT
  5
41F
330
5FA
100
AcDbEntity
  8
NOTES
  6
Continuous
 62
     7
370
    30
100
AcDbPoint
 10
18.23
 20
-10.063094
 30
0.0
  0
POINT
  5
420
330
5FA
100
AcDbEntity
  8
NOTES
  6
Continuous
 62
     7
370
    30
100
AcDbPoint
 10
18.255
 20
-10.063094
 30
0.0
  0
POINT
  5
421
330
5FA
100
AcDbEntity
  8
NOTES
  6
Continuous
 62
     7
370
    30
100
AcDbPoint
 10
18.28
 20
-10.063094
 30
0.0
  0
POINT
  5
422
330
5FA
100
AcDbEntity
  8
NOTES
  6
Continuous
 62
     7
370
    30
100
AcDbPoint
 10
18.305
 20
-10.063094
 30
0.0
  0
POINT
  5
423
330
5FA
100
AcDbEntity
  8
NOTES
  6
Continuous
 62
     7
370
    30
100
AcDbPoint
 10
18.33
 20
-10.063094
 30
0.0
  0
POINT
  5
424
330
5FA
100
AcDbEntity
  8
NOTES
  6
Continuous
 62
     7
370
    30
100
AcDbPoint
 10
18.355
 20
-10.063094
 30
0.0
  0
POINT
  5
425
330
5FA
100
AcDbEntity
  8
NOTES
  6
Continuous
 62
     7
370
    30
100
AcDbPoint
 10
18.38
 20
-10.063094
 30
0.0
  0
POINT
  5
426
330
5FA
100
AcDbEntity
  8
NOTES
  6
Continuous
 62
     7
370
    30
100
AcDbPoint
 10
18.405
 20
-10.063094
 30
0.0
  0
POINT
  5
427
330
5FA
100
AcDbEntity
  8
NOTES
  6
Continuous
 62
     7
370
    30
100
AcDbPoint
 10
18.43
 20
-10.063094
 30
0.0
  0
POINT
  5
428
330
5FA
100
AcDbEntity
  8
NOTES
  6
Continuous
 62
     7
370
    30
100
AcDbPoint
 10
17.7425
 20
-10.088094
 30
0.0
  0
POINT
  5
429
330
5FA
100
AcDbEntity
  8
NOTES
  6
Continuous
 62
     7
370
    30
100
AcDbPoint
 10
17.7675
 20
-10.088094
 30
0.0
  0
POINT
  5
42A
330
5FA
100
AcDbEntity
  8
NOTES
  6
Continuous
 62
     7
370
    30
100
AcDbPoint
 10
17.7925
 20
-10.088094
 30
0.0
  0
POINT
  5
42B
330
5FA
100
AcDbEntity
  8
NOTES
  6
Continuous
 62
     7
370
    30
100
AcDbPoint
 10
17.8175
 20
-10.088094
 30
0.0
  0
POINT
  5
42C
330
5FA
100
AcDbEntity
  8
NOTES
  6
Continuous
 62
     7
370
    30
100
AcDbPoint
 10
17.8425
 20
-10.088094
 30
0.0
  0
POINT
  5
42D
330
5FA
100
AcDbEntity
  8
NOTES
  6
Continuous
 62
     7
370
    30
100
AcDbPoint
 10
17.8675
 20
-10.088094
 30
0.0
  0
POINT
  5
42E
330
5FA
100
AcDbEntity
  8
NOTES
  6
Continuous
 62
     7
370
    30
100
AcDbPoint
 10
17.8925
 20
-10.088094
 30
0.0
  0
POINT
  5
42F
330
5FA
100
AcDbEntity
  8
NOTES
  6
Continuous
 62
     7
370
    30
100
AcDbPoint
 10
17.9175
 20
-10.088094
 30
0.0
  0
POINT
  5
430
330
5FA
100
AcDbEntity
  8
NOTES
  6
Continuous
 62
     7
370
    30
100
AcDbPoint
 10
17.9425
 20
-10.088094
 30
0.0
  0
POINT
  5
431
330
5FA
100
AcDbEntity
  8
NOTES
  6
Continuous
 62
     7
370
    30
100
AcDbPoint
 10
17.9675
 20
-10.088094
 30
0.0
  0
POINT
  5
432
330
5FA
100
AcDbEntity
  8
NOTES
  6
Continuous
 62
     7
370
    30
100
AcDbPoint
 10
17.9925
 20
-10.088094
 30
0.0
  0
POINT
  5
433
330
5FA
100
AcDbEntity
  8
NOTES
  6
Continuous
 62
     7
370
    30
100
AcDbPoint
 10
18.0175
 20
-10.088094
 30
0.0
  0
POINT
  5
434
330
5FA
100
AcDbEntity
  8
NOTES
  6
Continuous
 62
     7
370
    30
100
AcDbPoint
 10
18.0425
 20
-10.088094
 30
0.0
  0
POINT
  5
435
330
5FA
100
AcDbEntity
  8
NOTES
  6
Continuous
 62
     7
370
    30
100
AcDbPoint
 10
18.0675
 20
-10.088094
 30
0.0
  0
POINT
  5
436
330
5FA
100
AcDbEntity
  8
NOTES
  6
Continuous
 62
     7
370
    30
100
AcDbPoint
 10
18.0925
 20
-10.088094
 30
0.0
  0
POINT
  5
437
330
5FA
100
AcDbEntity
  8
NOTES
  6
Continuous
 62
     7
370
    30
100
AcDbPoint
 10
18.1175
 20
-10.088094
 30
0.0
  0
POINT
  5
438
330
5FA
100
AcDbEntity
  8
NOTES
  6
Continuous
 62
     7
370
    30
100
AcDbPoint
 10
18.1425
 20
-10.088094
 30
0.0
  0
POINT
  5
439
330
5FA
100
AcDbEntity
  8
NOTES
  6
Continuous
 62
     7
370
    30
100
AcDbPoint
 10
18.1675
 20
-10.088094
 30
0.0
  0
POINT
  5
43A
330
5FA
100
AcDbEntity
  8
NOTES
  6
Continuous
 62
     7
370
    30
100
AcDbPoint
 10
18.1925
 20
-10.088094
 30
0.0
  0
POINT
  5
43B
330
5FA
100
AcDbEntity
  8
NOTES
  6
Continuous
 62
     7
370
    30
100
AcDbPoint
 10
18.2175
 20
-10.088094
 30
0.0
  0
POINT
  5
43C
330
5FA
100
AcDbEntity
  8
NOTES
  6
Continuous
 62
     7
370
    30
100
AcDbPoint
 10
18.2425
 20
-10.088094
 30
0.0
  0
POINT
  5
43D
330
5FA
100
AcDbEntity
  8
NOTES
  6
Continuous
 62
     7
370
    30
100
AcDbPoint
 10
18.2675
 20
-10.088094
 30
0.0
  0
POINT
  5
43E
330
5FA
100
AcDbEntity
  8
NOTES
  6
Continuous
 62
     7
370
    30
100
AcDbPoint
 10
18.2925
 20
-10.088094
 30
0.0
  0
POINT
  5
43F
330
5FA
100
AcDbEntity
  8
NOTES
  6
Continuous
 62
     7
370
    30
100
AcDbPoint
 10
18.3175
 20
-10.088094
 30
0.0
  0
POINT
  5
440
330
5FA
100
AcDbEntity
  8
NOTES
  6
Continuous
 62
     7
370
    30
100
AcDbPoint
 10
18.3425
 20
-10.088094
 30
0.0
  0
POINT
  5
441
330
5FA
100
AcDbEntity
  8
NOTES
  6
Continuous
 62
     7
370
    30
100
AcDbPoint
 10
18.3675
 20
-10.088094
 30
0.0
  0
POINT
  5
442
330
5FA
100
AcDbEntity
  8
NOTES
  6
Continuous
 62
     7
370
    30
100
AcDbPoint
 10
18.3925
 20
-10.088094
 30
0.0
  0
POINT
  5
443
330
5FA
100
AcDbEntity
  8
NOTES
  6
Continuous
 62
     7
370
    30
100
AcDbPoint
 10
18.4175
 20
-10.088094
 30
0.0
  0
LWPOLYLINE
  5
444
330
5FA
100
AcDbEntity
  8
_0
  6
Continuous
 62
     7
370
    13
100
AcDbPolyline
 90
        6
 70
   128
 43
0.0
 10
15.870552
 20
-9.934385
 10
15.878073
 20
-9.917854
 10
15.861583
 20
-9.900573
 10
15.90774
 20
-9.917854
 10
15.887958
 20
-9.89626
 10
15.896156
 20
-9.881219
  0
LINE
  5
445
330
5FA
100
AcDbEntity
  8
NOTES
  6
Continuous
 62
     7
370
    30
100
AcDbLine
 10
16.27574
 20
-9.934385
 30
0.0
 11
16.328906
 21
-9.881219
 31
0.0
  0
LINE
  5
446
330
5FA
100
AcDbEntity
  8
NOTES
  6
Continuous
 62
     7
370
    30
100
AcDbLine
 10
16.205031
 20
-9.934385
 30
0.0
 11
16.258187
 21
-9.881219
 31
0.0
  0
LINE
  5
447
330
5FA
100
AcDbEntity
  8
NOTES
  6
Continuous
 62
     7
370
    30
100
AcDbLine
 10
16.134323
 20
-9.934385
 30
0.0
 11
16.187479
 21
-9.881219
 31
0.0
  0
LINE
  5
448
330
5FA
100
AcDbEntity
  8
NOTES
  6
Continuous
 62
     7
370
    30
100
AcDbLine
 10
16.063615
 20
-9.934385
 30
0.0
 11
16.116771
 21
-9.881219
 31
0.0
  0
LINE
  5
449
330
5FA
100
AcDbEntity
  8
NOTES
  6
Continuous
 62
     7
370
    30
100
AcDbLine
 10
15.992906
 20
-9.934385
 30
0.0
 11
16.046062
 21
-9.881219
 31
0.0
  0
LINE
  5
44A
330
5FA
100
AcDbEntity
  8
NOTES
  6
Continuous
 62
     7
370
    30
100
AcDbLine
 10
15.922187
 20
-9.934385
 30
0.0
 11
15.975344
 21
-9.881219
 31
0.0
  0
LINE
  5
44B
330
5FA
100
AcDbEntity
  8
NOTES
  6
Continuous
 62
     7
370
    30
100
AcDbLine
 10
15.873156
 20
-9.912708
 30
0.0
 11
15.878833
 21
-9.907031
 31
0.0
  0
LINE
  5
44C
330
5FA
100
AcDbEntity
  8
NOTES
  6
Continuous
 62
     7
370
    30
100
AcDbLine
 10
15.88875
 20
-9.897115
 30
0.0
 11
15.904635
 21
-9.881219
 31
0.0
  0
LINE
  5
44D
330
5FA
100
AcDbEntity
  8
NOTES
  6
Continuous
 62
     7
370
    30
100
AcDbLine
 10
16.346458
 20
-9.934385
 30
0.0
 11
16.399615
 21
-9.881219
 31
0.0
  0
LINE
  5
44E
330
5FA
100
AcDbEntity
  8
NOTES
  6
Continuous
 62
     7
370
    30
100
AcDbLine
 10
16.417167
 20
-9.934385
 30
0.0
 11
16.470323
 21
-9.881219
 31
0.0
  0
LINE
  5
44F
330
5FA
100
AcDbEntity
  8
NOTES
  6
Continuous
 62
     7
370
    30
100
AcDbLine
 10
16.487875
 20
-9.934385
 30
0.0
 11
16.541031
 21
-9.881219
 31
0.0
  0
LINE
  5
450
330
5FA
100
AcDbEntity
  8
NOTES
  6
Continuous
 62
     7
370
    30
100
AcDbLine
 10
16.558583
 20
-9.934385
 30
0.0
 11
16.61175
 21
-9.881219
 31
0.0
  0
LINE
  5
451
330
5FA
100
AcDbEntity
  8
NOTES
  6
Continuous
 62
     7
370
    30
100
AcDbLine
 10
16.629302
 20
-9.934385
 30
0.0
 11
16.682458
 21
-9.881219
 31
0.0
  0
LINE
  5
452
330
5FA
100
AcDbEntity
  8
NOTES
  6
Continuous
 62
     7
370
    30
100
AcDbLine
 10
16.70001
 20
-9.934385
 30
0.0
 11
16.753167
 21
-9.881219
 31
0.0
  0
LINE
  5
453
330
5FA
100
AcDbEntity
  8
NOTES
  6
Continuous
 62
     7
370
    30
100
AcDbLine
 10
16.770719
 20
-9.934385
 30
0.0
 11
16.79626
 21
-9.908844
 31
0.0
  0
LINE
  5
455
330
5FA
100
AcDbEntity
  8
REF
  6
Continuous
 62
     7
370
    13
100
AcDbLine
 10
11.893917
 20
-9.992208
 30
0.0
 11
11.893917
 21
-9.476302
 31
0.0
  0
LINE
  5
456
330
5FA
100
AcDbEntity
  8
REF
  6
Continuous
 62
     7
370
    13
100
AcDbLine
 10
11.893917
 20
-8.953437
 30
0.0
 11
11.893917
 21
-9.476302
 31
0.0
  0
LINE
  5
457
330
5FA
100
AcDbEntity
  8
DIM
  6
Continuous
 62
     7
370
    30
100
AcDbLine
 10
11.897156
 20
-10.002365
 30
0.0
 11
11.897156
 21
-10.002365
 31
0.0
  0
LINE
  5
458
330
5FA
100
AcDbEntity
  8
DIM
  6
Continuous
 62
     7
370
    30
100
AcDbLine
 10
11.880469
 20
-8.95024
 30
0.0
 11
11.880469
 21
-8.95024
 31
0.0
  0
LINE
  5
459
330
5FA
100
AcDbEntity
  8
DIM
  6
Continuous
 62
     7
370
    30
100
AcDbLine
 10
11.893917
 20
-8.95024
 30
0.0
 11
11.893917
 21
-8.95024
 31
0.0
  0
LINE
  5
45A
330
5FA
100
AcDbEntity
  8
REF
  6
Continuous
 62
     7
370
    13
100
AcDbLine
 10
12.739073
 20
-9.929177
 30
0.0
 11
12.356448
 21
-9.929177
 31
0.0
  0
LINE
  5
45B
330
5FA
100
AcDbEntity
  8
REF
  6
Continuous
 62
     7
370
    13
100
AcDbLine
 10
12.933354
 20
-9.929177
 30
0.0
 11
14.131448
 21
-9.929177
 31
0.0
  0
LINE
  5
45C
330
5FA
100
AcDbEntity
  8
DIM
  6
Continuous
 62
     7
370
    30
100
AcDbLine
 10
12.756448
 20
-9.98001
 30
0.0
 11
12.756448
 21
-9.98001
 31
0.0
  0
LINE
  5
45D
330
5FA
100
AcDbEntity
  8
DIM
  6
Continuous
 62
     7
370
    30
100
AcDbLine
 10
12.931448
 20
-10.000427
 30
0.0
 11
12.931448
 21
-10.000427
 31
0.0
  0
LINE
  5
45E
330
5FA
100
AcDbEntity
  8
DIM
  6
Continuous
 62
     7
370
    30
100
AcDbLine
 10
12.931448
 20
-9.929177
 30
0.0
 11
12.931448
 21
-9.929177
 31
0.0
  0
LINE
  5
45F
330
5FA
100
AcDbEntity
  8
REF
  6
Continuous
 62
     7
370
    30
100
AcDbLine
 10
12.866552
 20
-8.950427
 30
0.0
 11
12.142365
 21
-8.950427
 31
0.0
  0
LINE
  5
460
330
5FA
100
AcDbEntity
  8
REF
  6
Continuous
 62
     7
370
    30
100
AcDbLine
 10
12.866552
 20
-10.000427
 30
0.0
 11
11.665854
 21
-10.000427
 31
0.0
  0
LINE
  5
461
330
5FA
100
AcDbEntity
  8
REF
  6
Continuous
 62
     7
370
    30
100
AcDbLine
 10
11.989396
 20
-8.950427
 30
0.0
 11
11.665854
 21
-8.950427
 31
0.0
  0
LINE
  5
462
330
5FA
100
AcDbEntity
  8
REF
  6
Continuous
 62
     7
370
    13
100
AcDbLine
 10
12.308771
 20
-9.695417
 30
0.0
 11
12.308771
 21
-9.264365
 31
0.0
  0
LWPOLYLINE
  5
463
330
5FA
100
AcDbEntity
  8
2-19I
  6
Continuous
 62
     7
370
    30
100
AcDbPolyline
 90
        2
 70
   128
 43
0.0
 10
12.369802
 20
-9.475427
 10
12.400083
 20
-9.475427
  0
LWPOLYLINE
  5
464
330
5FA
100
AcDbEntity
  8
2-19I
  6
Continuous
 62
     7
370
    30
100
AcDbPolyline
 90
        2
 70
   128
 43
0.0
 10
12.554437
 20
-9.475427
 10
13.028875
 20
-9.475427
  0
LINE
  5
465
330
5FA
100
AcDbEntity
  8
REF
  6
Continuous
 62
     7
370
    13
100
AcDbLine
 10
13.851854
 20
-9.833427
 30
0.0
 11
13.851854
 21
-9.115969
 31
0.0
  0
LINE
  5
466
330
5FA
100
AcDbEntity
  8
REF
  6
Continuous
 62
     7
370
    13
100
AcDbLine
 10
12.737802
 20
-9.720083
 30
0.0
 11
11.715458
 21
-10.471021
 31
0.0
  0
LINE
  5
467
330
5FA
100
AcDbEntity
  8
REF
  6
Continuous
 62
     7
370
    13
100
AcDbLine
 10
11.715458
 20
-10.471021
 30
0.0
 11
11.91199
 21
-10.471021
 31
0.0
  0
LINE
  5
469
330
5FA
100
AcDbEntity
  8
REF
  6
Continuous
 62
     7
370
    13
100
AcDbLine
 10
13.433234
 20
-8.360052
 30
0.0
 11
13.329869
 21
-8.360052
 31
0.0
  0
LINE
  5
46B
330
5FA
100
AcDbEntity
  8
REF
  6
Continuous
 62
     7
370
    13
100
AcDbLine
 10
13.600607
 20
-8.191902
 30
0.0
 11
13.68209
 21
-8.191902
 31
0.0
  0
LINE
  5
46C
330
5FA
100
AcDbEntity
  8
REF
  6
Continuous
 62
     7
370
    13
100
AcDbLine
 10
14.096095
 20
-9.785976
 30
0.0
 11
14.423301
 21
-9.908031
 31
0.0
  0
LINE
  5
46D
330
5FA
100
AcDbEntity
  8
REF
  6
Continuous
 62
     7
370
    13
100
AcDbLine
 10
14.423301
 20
-9.908031
 30
0.0
 11
14.646344
 21
-9.908031
 31
0.0
  0
LINE
  5
46E
330
5FA
100
AcDbEntity
  8
REF
  6
Continuous
 62
     7
370
    13
100
AcDbLine
 10
13.973375
 20
-9.857323
 30
0.0
 11
13.973375
 21
-10.296177
 31
0.0
  0
LINE
  5
46F
330
5FA
100
AcDbEntity
  8
REF
  6
Continuous
 62
     7
370
    13
100
AcDbLine
 10
13.975406
 20
-10.116177
 30
0.0
 11
13.573375
 21
-10.116177
 31
0.0
  0
LINE
  5
470
330
5FA
100
AcDbEntity
  8
REF
  6
Continuous
 62
     7
370
    13
100
AcDbLine
 10
14.293323
 20
-10.116177
 30
0.0
 11
14.681448
 21
-10.116177
 31
0.0
  0
LINE
  5
471
330
5FA
100
AcDbEntity
  8
DIM
  6
Continuous
 62
     7
370
    30
100
AcDbLine
 10
13.973375
 20
-9.794823
 30
0.0
 11
13.973375
 21
-9.794823
 31
0.0
  0
LINE
  5
472
330
5FA
100
AcDbEntity
  8
DIM
  6
Continuous
 62
     7
370
    30
100
AcDbLine
 10
14.281448
 20
-9.811823
 30
0.0
 11
14.281448
 21
-9.811823
 31
0.0
  0
LINE
  5
473
330
5FA
100
AcDbEntity
  8
DIM
  6
Continuous
 62
     7
370
    30
100
AcDbLine
 10
14.281448
 20
-10.116177
 30
0.0
 11
14.281448
 21
-10.116177
 31
0.0
  0
LINE
  5
474
330
5FA
100
AcDbEntity
  8
REF
  6
Continuous
 62
     7
370
    13
100
AcDbLine
 10
14.240344
 20
-9.172812
 30
0.0
 11
13.993229
 21
-9.172812
 31
0.0
  0
LINE
  5
475
330
5FA
100
AcDbEntity
  8
REF
  6
Continuous
 62
     7
370
    13
100
AcDbLine
 10
14.131448
 20
-10.20145
 30
0.0
 11
14.525365
 21
-10.295104
 31
0.0
  0
LINE
  5
476
330
5FA
100
AcDbEntity
  8
REF
  6
Continuous
 62
     7
370
    13
100
AcDbLine
 10
14.525365
 20
-10.295104
 30
0.0
 11
14.593031
 21
-10.295104
 31
0.0
  0
LINE
  5
477
330
5FA
100
AcDbEntity
  8
REF
  6
Continuous
 62
     7
370
    13
100
AcDbLine
 10
14.12024
 20
-10.463969
 30
0.0
 11
13.731448
 21
-10.463969
 31
0.0
  0
LINE
  5
478
330
5FA
100
AcDbEntity
  8
REF
  6
Continuous
 62
     7
370
    13
100
AcDbLine
 10
14.282729
 20
-10.463969
 30
0.0
 11
14.631448
 21
-10.463969
 31
0.0
  0
LINE
  5
479
330
5FA
100
AcDbEntity
  8
REF
  6
Continuous
 62
     7
370
    13
100
AcDbLine
 10
14.226208
 20
-10.64324
 30
0.0
 11
13.831448
 21
-10.64324
 31
0.0
  0
LINE
  5
47A
330
5FA
100
AcDbEntity
  8
REF
  6
Continuous
 62
     7
370
    13
100
AcDbLine
 10
14.293323
 20
-10.64324
 30
0.0
 11
14.681448
 21
-10.64324
 31
0.0
  0
LINE
  5
481
330
5FA
100
AcDbEntity
  8
Level 8
  6
Continuous
 62
     7
370
    13
100
AcDbLine
 10
16.480354
 20
-10.11376
 30
0.0
 11
16.073594
 21
-10.662042
 31
0.0
  0
LINE
  5
482
330
5FA
100
AcDbEntity
  8
Level 8
  6
Continuous
 62
     7
370
    13
100
AcDbLine
 10
16.073594
 20
-10.662042
 30
0.0
 11
15.998042
 21
-10.662042
 31
0.0
  0
LINE
  5
483
330
5FA
100
AcDbEntity
  8
Level 8
  6
Continuous
 62
     7
370
    13
100
AcDbLine
 10
16.649302
 20
-10.119396
 30
0.0
 11
16.649302
 21
-10.766115
 31
0.0
  0
LINE
  5
484
330
5FA
100
AcDbEntity
  8
Level 8
  6
Continuous
 62
     7
370
    13
100
AcDbLine
 10
16.649302
 20
-10.766115
 30
0.0
 11
16.701935
 21
-10.766115
 31
0.0
  0
LINE
  5
488
330
5FA
100
AcDbEntity
  8
Level 8
  6
Continuous
 62
     7
370
    13
100
AcDbLine
 10
16.199406
 20
-9.890531
 30
0.0
 11
16.441635
 21
-8.519854
 31
0.0
  0
LINE
  5
489
330
5FA
100
AcDbEntity
  8
Level 8
  6
Continuous
 62
     7
370
    13
100
AcDbLine
 10
16.441635
 20
-8.519854
 30
0.0
 11
16.328542
 21
-8.519854
 31
0.0
  0
LINE
  5
48A
330
5FA
100
AcDbEntity
  8
_0
  6
Continuous
 62
     7
370
    13
100
AcDbLine
 10
15.940104
 20
-9.476354
 30
0.0
 11
15.940104
 21
-9.152333
 31
0.0
  0
LINE
  5
48B
330
5FA
100
AcDbEntity
  8
_0
  6
Continuous
 62
     7
370
    13
100
AcDbLine
 10
15.940104
 20
-9.946271
 30
0.0
 11
15.940104
 21
-10.190365
 31
0.0
  0
LINE
  5
48D
330
5FA
100
AcDbEntity
  8
REF
  6
Continuous
 62
     7
370
    13
100
AcDbLine
 10
17.612042
 20
-9.988667
 30
0.0
 11
17.612042
 21
-10.605646
 31
0.0
  0
LINE
  5
48E
330
5FA
100
AcDbEntity
  8
REF
  6
Continuous
 62
     7
370
    13
100
AcDbLine
 10
17.612042
 20
-10.605646
 30
0.0
 11
17.772427
 21
-10.605646
 31
0.0
  0
LINE
  5
48F
330
5FA
100
AcDbEntity
  8
_0
  6
Continuous
 62
     7
370
    13
100
AcDbLine
 10
17.176792
 20
-9.981604
 30
0.0
 11
17.176792
 21
-10.380542
 31
0.0
  0
LINE
  5
490
330
5FA
100
AcDbEntity
  8
_0
  6
Continuous
 62
     7
370
    13
100
AcDbLine
 10
17.176792
 20
-9.879146
 30
0.0
 11
17.176792
 21
-9.480833
 31
0.0
  0
LINE
  5
491
330
5FA
100
AcDbEntity
  8
Level 8
  6
Continuous
 62
     7
370
    13
100
AcDbLine
 10
17.722833
 20
-9.875604
 30
0.0
 11
17.722833
 21
-9.197656
 31
0.0
  0
LINE
  5
492
330
5FA
100
AcDbEntity
  8
Level 8
  6
Continuous
 62
     7
370
    13
100
AcDbLine
 10
17.722833
 20
-9.197656
 30
0.0
 11
17.896187
 21
-9.197656
 31
0.0
  0
LINE
  5
493
330
5FA
100
AcDbEntity
  8
REF
  6
Continuous
 62
     7
370
    13
100
AcDbLine
 10
16.641448
 20
-9.569448
 30
0.0
 11
16.93251
 21
-8.397312
 31
0.0
  0
LINE
  5
494
330
5FA
100
AcDbEntity
  8
REF
  6
Continuous
 62
     7
370
    13
100
AcDbLine
 10
16.93251
 20
-8.397312
 30
0.0
 11
17.073885
 21
-8.397312
 31
0.0
  0
LINE
  5
495
330
5FA
100
AcDbEntity
  8
REF
  6
Continuous
 62
     7
370
    13
100
AcDbLine
 10
18.398656
 20
-9.881219
 30
0.0
 11
18.712927
 21
-9.881219
 31
0.0
  0
LINE
  5
496
330
5FA
100
AcDbEntity
  8
REF
  6
Continuous
 62
     7
370
    13
100
AcDbLine
 10
18.545292
 20
-9.988094
 30
0.0
 11
18.712927
 21
-9.988094
 31
0.0
  0
LINE
  5
497
330
5FA
100
AcDbEntity
  8
REF
  6
Continuous
 62
     7
370
    13
100
AcDbLine
 10
18.635052
 20
-9.886208
 30
0.0
 11
18.635052
 21
-9.621583
 31
0.0
  0
LINE
  5
498
330
5FA
100
AcDbEntity
  8
REF
  6
Continuous
 62
     7
370
    13
100
AcDbLine
 10
18.635052
 20
-9.985135
 30
0.0
 11
18.635052
 21
-10.388094
 31
0.0
  0
LINE
  5
499
330
5FA
100
AcDbEntity
  8
REF
  6
Continuous
 62
     7
370
    13
100
AcDbLine
 10
18.635052
 20
-10.388094
 30
0.0
 11
18.435052
 21
-10.388094
 31
0.0
  0
LINE
  5
49A
330
5FA
100
AcDbEntity
  8
REF
  6
Continuous
 62
     7
370
    13
100
AcDbLine
 10
17.872812
 20
-9.431312
 30
0.0
 11
17.475708
 21
-9.431312
 31
0.0
  0
LINE
  5
49B
330
5FA
100
AcDbEntity
  8
REF
  6
Continuous
 62
     7
370
    13
100
AcDbLine
 10
17.975708
 20
-9.431312
 30
0.0
 11
18.375708
 21
-9.431312
 31
0.0
  0
LINE
  5
49C
330
5FA
100
AcDbEntity
  8
REF
  6
Continuous
 62
     7
370
    13
100
AcDbLine
 10
17.968187
 20
-9.57601
 30
0.0
 11
17.575708
 21
-9.57601
 31
0.0
  0
LINE
  5
49D
330
5FA
100
AcDbEntity
  8
REF
  6
Continuous
 62
     7
370
    13
100
AcDbLine
 10
18.031771
 20
-9.57601
 30
0.0
 11
18.241385
 21
-9.57601
 31
0.0
  0
LINE
  5
49E
330
5FA
100
AcDbEntity
  8
REF
  6
Continuous
 62
     7
370
    13
100
AcDbLine
 10
12.829504
 20
-3.825906
 30
0.0
 11
13.846827
 21
-3.825906
 31
0.0
  0
LINE
  5
4A3
330
5FA
100
AcDbEntity
  8
Level 8
  6
Continuous
 62
     7
370
    13
100
AcDbLine
 10
12.634795
 20
-5.334542
 30
0.0
 11
12.46265
 21
-5.704427
 31
0.0
  0
LINE
  5
4A4
330
5FA
100
AcDbEntity
  8
REF
  6
Continuous
 62
     7
370
    13
100
AcDbLine
 10
12.46265
 20
-5.704427
 30
0.0
 11
12.46265
 21
-5.757969
 31
0.0
  0
LINE
  5
4A7
330
5FA
100
AcDbEntity
  8
Level 8
  6
Continuous
 62
     7
370
    13
100
AcDbLine
 10
12.696358
 20
-5.249187
 30
0.0
 11
12.36065
 21
-4.986354
 31
0.0
  0
LINE
  5
4A8
330
5FA
100
AcDbEntity
  8
Level 8
  6
Continuous
 62
     7
370
    13
100
AcDbLine
 10
12.36065
 20
-4.986354
 30
0.0
 11
12.36065
 21
-4.906031
 31
0.0
  0
LINE
  5
4A9
330
5FA
100
AcDbEntity
  8
Level 8
  6
Continuous
 62
     7
370
    13
100
AcDbLine
 10
12.817108
 20
-4.468312
 30
0.0
 11
12.992775
 21
-4.097135
 31
0.0
  0
LINE
  5
4AA
330
5FA
100
AcDbEntity
  8
Level 8
  6
Continuous
 62
     7
370
    13
100
AcDbLine
 10
12.992775
 20
-4.097135
 30
0.0
 11
13.057348
 21
-4.097135
 31
0.0
  0
LINE
  5
4AB
330
5FA
100
AcDbEntity
  8
Level 8
  6
Continuous
 62
     7
370
    13
100
AcDbLine
 10
13.857868
 20
-4.452958
 30
0.0
 11
13.689473
 21
-4.097135
 31
0.0
  0
LINE
  5
4AC
330
5FA
100
AcDbEntity
  8
Level 8
  6
Continuous
 62
     7
370
    13
100
AcDbLine
 10
13.689473
 20
-4.097135
 30
0.0
 11
13.6249
 21
-4.097135
 31
0.0
  0
LINE
  5
4B0
330
5FA
100
AcDbEntity
  8
REF
  6
Continuous
 62
     7
370
    13
100
AcDbLine
 10
12.718129
 20
-5.397635
 30
0.0
 11
12.966108
 21
-6.352698
 31
0.0
  0
LINE
  5
4B1
330
5FA
100
AcDbEntity
  8
REF
  6
Continuous
 62
     7
370
    13
100
AcDbLine
 10
12.966108
 20
-6.352698
 30
0.0
 11
13.014295
 21
-6.352698
 31
0.0
  0
LINE
  5
4B2
330
5FA
100
AcDbEntity
  8
REF
  6
Continuous
 62
     7
370
    13
100
AcDbLine
 10
13.75116
 20
-5.981646
 30
0.0
 11
13.75116
 21
-4.5825
 31
0.0
  0
LINE
  5
4B3
330
5FA
100
AcDbEntity
  8
DIM
  6
Continuous
 62
     7
370
    30
100
AcDbLine
 10
13.355723
 20
-4.580594
 30
0.0
 11
13.355723
 21
-4.580594
 31
0.0
  0
LINE
  5
4B4
330
5FA
100
AcDbEntity
  8
DIM
  6
Continuous
 62
     7
370
    30
100
AcDbLine
 10
13.75116
 20
-4.580594
 30
0.0
 11
13.75116
 21
-4.580594
 31
0.0
  0
LINE
  5
4B5
330
5FA
100
AcDbEntity
  8
REF
  6
Continuous
 62
     7
370
    13
100
AcDbLine
 10
13.753577
 20
-6.306708
 30
0.0
 11
13.753577
 21
-6.707073
 31
0.0
  0
LINE
  5
4B6
330
5FA
100
AcDbEntity
  8
REF
  6
Continuous
 62
     7
370
    13
100
AcDbLine
 10
13.75116
 20
-4.232708
 30
0.0
 11
13.75116
 21
-3.939708
 31
0.0
  0
LINE
  5
4B7
330
5FA
100
AcDbEntity
  8
REF
  6
Continuous
 62
     7
370
    30
100
AcDbLine
 10
13.108025
 20
-5.58874
 30
0.0
 11
12.942077
 21
-5.81
 31
0.0
  0
LINE
  5
4B8
330
5FA
100
AcDbEntity
  8
REF
  6
Continuous
 62
     7
370
    30
100
AcDbLine
 10
13.674518
 20
-5.73073
 30
0.0
 11
13.731295
 21
-5.806427
 31
0.0
  0
LINE
  5
4B9
330
5FA
100
AcDbEntity
  8
REF
  6
Continuous
 62
     7
370
    13
100
AcDbLine
 10
13.306483
 20
-5.28275
 30
0.0
 11
12.912587
 21
-5.659573
 31
0.0
  0
LINE
  5
4BA
330
5FA
100
AcDbEntity
  8
REF
  6
Continuous
 62
     7
370
    13
100
AcDbLine
 10
12.912587
 20
-5.659573
 30
0.0
 11
13.070191
 21
-5.659573
 31
0.0
  0
LINE
  5
4BB
330
5FA
100
AcDbEntity
  8
REF
  6
Continuous
 62
     7
370
    13
100
AcDbLine
 10
12.455077
 20
-6.604938
 30
0.0
 11
11.845087
 21
-6.604938
 31
0.0
  0
LINE
  5
4BC
330
5FA
100
AcDbEntity
  8
REF
  6
Continuous
 62
     7
370
    13
100
AcDbLine
 10
11.845087
 20
-6.604938
 30
0.0
 11
11.845087
 21
-6.149708
 31
0.0
  0
LINE
  5
4BD
330
5FA
100
AcDbEntity
  8
REF
  6
Continuous
 62
     7
370
    13
100
AcDbLine
 10
12.455077
 20
-3.892042
 30
0.0
 11
11.845087
 21
-3.892042
 31
0.0
  0
LINE
  5
4BE
330
5FA
100
AcDbEntity
  8
REF
  6
Continuous
 62
     7
370
    13
100
AcDbLine
 10
11.845087
 20
-3.892042
 30
0.0
 11
11.845087
 21
-4.002817
 31
0.0
  0
LINE
  5
4BF
330
5FA
100
AcDbEntity
  8
REF
  6
Continuous
 62
     7
370
    13
100
AcDbLine
 10
14.065837
 20
-3.892042
 30
0.0
 11
14.470504
 21
-3.892042
 31
0.0
  0
LINE
  5
4C0
330
5FA
100
AcDbEntity
  8
REF
  6
Continuous
 62
     7
370
    13
100
AcDbLine
 10
14.470504
 20
-3.892042
 30
0.0
 11
14.470504
 21
-4.070299
 31
0.0
  0
LINE
  5
4C1
330
5FA
100
AcDbEntity
  8
REF
  6
Continuous
 62
     7
370
    13
100
AcDbLine
 10
14.094098
 20
-6.604938
 30
0.0
 11
14.470504
 21
-6.604938
 31
0.0
  0
LINE
  5
4C2
330
5FA
100
AcDbEntity
  8
REF
  6
Continuous
 62
     7
370
    13
100
AcDbLine
 10
14.470504
 20
-6.604938
 30
0.0
 11
14.470504
 21
-6.313078
 31
0.0
  0
LINE
  5
4C7
330
5FA
100
AcDbEntity
  8
DIM
  6
Continuous
 62
     7
370
    30
100
AcDbLine
 10
16.215223
 20
-4.900854
 30
0.0
 11
16.215223
 21
-4.900854
 31
0.0
  0
LINE
  5
4C8
330
5FA
100
AcDbEntity
  8
DIM
  6
Continuous
 62
     7
370
    30
100
AcDbLine
 10
16.227275
 20
-4.900854
 30
0.0
 11
16.227275
 21
-4.900854
 31
0.0
  0
LINE
  5
4C9
330
5FA
100
AcDbEntity
  8
REF
  6
Continuous
 62
     7
370
    13
100
AcDbLine
 10
16.227275
 20
-4.946031
 30
0.0
 11
16.227275
 21
-5.501469
 31
0.0
  0
LINE
  5
4CA
330
5FA
100
AcDbEntity
  8
REF
  6
Continuous
 62
     7
370
    13
100
AcDbLine
 10
16.227275
 20
-4.61076
 30
0.0
 11
16.227275
 21
-4.294896
 31
0.0
  0
LINE
  5
4CC
330
5FA
100
AcDbEntity
  8
Level 8
  6
Continuous
 62
     7
370
    13
100
AcDbLine
 10
16.903702
 20
-4.580062
 30
0.0
 11
17.034827
 21
-3.542896
 31
0.0
  0
LINE
  5
4CD
330
5FA
100
AcDbEntity
  8
Level 8
  6
Continuous
 62
     7
370
    13
100
AcDbLine
 10
17.034827
 20
-3.542896
 30
0.0
 11
17.096858
 21
-3.542896
 31
0.0
  0
LINE
  5
4CE
330
5FA
100
AcDbEntity
  8
REF
  6
Continuous
 62
     7
370
    13
100
AcDbLine
 10
15.584431
 20
-4.177062
 30
0.0
 11
16.492254
 21
-4.177062
 31
0.0
  0
LINE
  5
4CF
330
5FA
100
AcDbEntity
  8
REF
  6
Continuous
 62
     7
370
    13
100
AcDbLine
 10
16.905545
 20
-4.172
 30
0.0
 11
17.802764
 21
-4.172
 31
0.0
  0
LINE
  5
4D0
330
5FA
100
AcDbEntity
  8
DIM
  6
Continuous
 62
     7
370
    30
100
AcDbLine
 10
17.810014
 20
-3.669125
 30
0.0
 11
17.810014
 21
-3.669125
 31
0.0
  0
LINE
  5
4D1
330
5FA
100
AcDbEntity
  8
REF
  6
Continuous
 62
     7
370
    13
100
AcDbLine
 10
16.479212
 20
-4.505687
 30
0.0
 11
16.1559
 21
-3.519729
 31
0.0
  0
LINE
  5
4D2
330
5FA
100
AcDbEntity
  8
REF
  6
Continuous
 62
     7
370
    13
100
AcDbLine
 10
16.1559
 20
-3.519729
 30
0.0
 11
15.916428
 21
-3.519729
 31
0.0
  0
LINE
  5
4D3
330
5FA
100
AcDbEntity
  8
REF
  6
Continuous
 62
     7
370
    13
100
AcDbLine
 10
16.474587
 20
-4.820958
 30
0.0
 11
16.210129
 21
-4.820958
 31
0.0
  0
LINE
  5
4D4
330
5FA
100
AcDbEntity
  8
REF
  6
Continuous
 62
     7
370
    13
100
AcDbLine
 10
16.721858
 20
-4.820958
 30
0.0
 11
16.98515
 21
-4.820958
 31
0.0
  0
LINE
  5
4D5
330
5FA
100
AcDbEntity
  8
Level 8
  6
Continuous
 62
     7
370
    13
100
AcDbLine
 10
16.497983
 20
-5.511729
 30
0.0
 11
16.497983
 21
-6.197052
 31
0.0
  0
LINE
  5
4D6
330
5FA
100
AcDbEntity
  8
Level 8
  6
Continuous
 62
     7
370
    13
100
AcDbLine
 10
16.497983
 20
-6.197052
 30
0.0
 11
16.268993
 21
-6.197052
 31
0.0
  0
LINE
  5
4D7
330
5FA
100
AcDbEntity
  8
Level 8
  6
Continuous
 62
     7
370
    13
100
AcDbLine
 10
16.706098
 20
-5.494063
 30
0.0
 11
16.706098
 21
-6.301125
 31
0.0
  0
LINE
  5
4D8
330
5FA
100
AcDbEntity
  8
Level 8
  6
Continuous
 62
     7
370
    13
100
AcDbLine
 10
16.706098
 20
-6.301125
 30
0.0
 11
16.893827
 21
-6.301125
 31
0.0
  0
LINE
  5
4D9
330
5FA
100
AcDbEntity
  8
Level 8
  6
Continuous
 62
     7
370
    13
100
AcDbLine
 10
17.274264
 20
-5.202917
 30
0.0
 11
17.93491
 21
-5.832458
 31
0.0
  0
LINE
  5
4DA
330
5FA
100
AcDbEntity
  8
Level 8
  6
Continuous
 62
     7
370
    13
100
AcDbLine
 10
17.93491
 20
-5.832458
 30
0.0
 11
17.799566
 21
-5.832458
 31
0.0
  0
LINE
  5
4DB
330
5FA
100
AcDbEntity
  8
Level 8
  6
Continuous
 62
     7
370
    13
100
AcDbLine
 10
17.013212
 20
-5.163312
 30
0.0
 11
17.476952
 21
-4.770604
 31
0.0
  0
LINE
  5
4DC
330
5FA
100
AcDbEntity
  8
Level 8
  6
Continuous
 62
     7
370
    13
100
AcDbLine
 10
17.476952
 20
-4.770604
 30
0.0
 11
17.591441
 21
-4.770604
 31
0.0
  0
LINE
  5
4DD
330
5FA
100
AcDbEntity
  8
_0
  6
Continuous
 62
     7
370
    13
100
AcDbLine
 10
11.25
 20
-13.375
 30
0.0
 11
11.043458
 21
-13.375
 31
0.0
  0
LINE
  5
4DE
330
5FA
100
AcDbEntity
  8
_0
  6
Continuous
 62
     7
370
    13
100
AcDbLine
 10
11.25
 20
-13.375
 30
0.0
 11
11.25
 21
-13.581542
 31
0.0
  0
LINE
  5
4DF
330
5FA
100
AcDbEntity
  8
_0
  6
Continuous
 62
     7
370
    13
100
AcDbLine
 10
19.25
 20
-13.375
 30
0.0
 11
19.25
 21
-13.581542
 31
0.0
  0
LINE
  5
4E0
330
5FA
100
AcDbEntity
  8
_0
  6
Continuous
 62
     7
370
    13
100
AcDbLine
 10
11.25
 20
-2.625
 30
0.0
 11
11.043458
 21
-2.625
 31
0.0
  0
LINE
  5
4E1
330
5FA
100
AcDbEntity
  8
_0
  6
Continuous
 62
     7
370
    13
100
AcDbLine
 10
19.456542
 20
-13.375
 30
0.0
 11
19.25
 21
-13.375
 31
0.0
  0
LINE
  5
4E2
330
5FA
100
AcDbEntity
  8
_0
  6
Continuous
 62
     7
370
    13
100
AcDbLine
 10
19.456542
 20
-2.625
 30
0.0
 11
19.25
 21
-2.625
 31
0.0
  0
LINE
  5
4E3
330
5FA
100
AcDbEntity
  8
_0
  6
Continuous
 62
     7
370
    13
100
AcDbLine
 10
11.25
 20
-2.418458
 30
0.0
 11
11.25
 21
-2.625
 31
0.0
  0
LINE
  5
4E4
330
5FA
100
AcDbEntity
  8
_0
  6
Continuous
 62
     7
370
    13
100
AcDbLine
 10
19.25
 20
-2.418458
 30
0.0
 11
19.25
 21
-2.625
 31
0.0
  0
LINE
  5
4E9
330
5FA
100
AcDbEntity
  8
REF
  6
Continuous
 62
     7
370
    30
100
AcDbLine
 10
13.034379
 20
-7.512229
 30
0.0
 11
13.582941
 21
-7.512229
 31
0.0
  0
LINE
  5
4EA
330
5FA
100
AcDbEntity
  8
REF
  6
Continuous
 62
     7
370
    30
100
AcDbLine
 10
16.029837
 20
-7.342625
 30
0.0
 11
17.435087
 21
-7.342625
 31
0.0
  0
LINE
  5
4EB
330
5FA
100
AcDbEntity
  8
REF
  6
Continuous
 62
     7
370
    30
100
AcDbLine
 10
12.928396
 20
-11.412885
 30
0.0
 11
13.939542
 21
-11.412885
 31
0.0
  0
LINE
  5
4EC
330
5FA
100
AcDbEntity
  8
REF
  6
Continuous
 62
     7
370
    30
100
AcDbLine
 10
16.121771
 20
-11.488217
 30
0.0
 11
17.548917
 21
-11.488217
 31
0.0
  0
INSERT
  5
4ED
330
5FA
100
AcDbEntity
  8
REF
  6
Continuous
 62
     7
370
    13
100
AcDbBlockReference
  2
LARROW
 10
12.455077
 20
-3.892042
 30
0.0
 41
12.0
 42
12.0
 43
12.0
  0
INSERT
  5
4EF
330
5FA
100
AcDbEntity
  8
REF
  6
Continuous
 62
     7
370
    13
100
AcDbBlockReference
  2
LARROW
 10
12.455077
 20
-6.604938
 30
0.0
 41
12.0
 42
12.0
 43
12.0
  0
INSERT
  5
4F1
330
5FA
100
AcDbEntity
  8
REF
  6
Continuous
 62
     7
370
    13
100
AcDbBlockReference
  2
LARROW
 10
12.829504
 20
-3.825906
 30
0.0
 41
12.0
 42
12.0
 43
12.0
 50
180.0
  0
INSERT
  5
4F3
330
5FA
100
AcDbEntity
  8
REF
  6
Continuous
 62
     7
370
    13
100
AcDbBlockReference
  2
LARROW
 10
13.846827
 20
-3.825906
 30
0.0
 41
12.0
 42
12.0
 43
12.0
  0
INSERT
  5
4F5
330
5FA
100
AcDbEntity
  8
REF
  6
Continuous
 62
     7
370
    13
100
AcDbBlockReference
  2
LARROW
 10
14.065837
 20
-3.892042
 30
0.0
 41
12.0
 42
12.0
 43
12.0
 50
180.0
  0
INSERT
  5
4F7
330
5FA
100
AcDbEntity
  8
REF
  6
Continuous
 62
     7
370
    13
100
AcDbBlockReference
  2
LARROW
 10
14.094098
 20
-6.604938
 30
0.0
 41
12.0
 42
12.0
 43
12.0
 50
180.0
  0
INSERT
  5
4F9
330
5FA
100
AcDbEntity
  8
REF
  6
Continuous
 62
     7
370
    13
100
AcDbBlockReference
  2
LARROW
 10
13.75116
 20
-4.232708
 30
0.0
 41
12.0
 42
12.0
 43
12.0
 50
270.0
  0
INSERT
  5
4FB
330
5FA
100
AcDbEntity
  8
REF
  6
Continuous
 62
     7
370
    13
100
AcDbBlockReference
  2
LARROW
 10
13.75116
 20
-4.5825
 30
0.0
 41
12.0
 42
12.0
 43
12.0
 50
90.0
  0
INSERT
  5
4FD
330
5FA
100
AcDbEntity
  8
REF
  6
Continuous
 62
     7
370
    30
100
AcDbBlockReference
  2
LARROW_1
 10
13.75116
 20
-5.981646
 30
0.0
 41
12.0
 42
12.0
 43
12.0
 50
270.0
  0
INSERT
  5
4FF
330
5FA
100
AcDbEntity
  8
REF
  6
Continuous
 62
     7
370
    13
100
AcDbBlockReference
  2
LARROW
 10
13.753577
 20
-6.306708
 30
0.0
 41
12.0
 42
12.0
 43
12.0
 50
90.0
  0
INSERT
  5
501
330
5FA
100
AcDbEntity
  8
REF
  6
Continuous
 62
     7
370
    13
100
AcDbBlockReference
  2
LARROW
 10
12.817108
 20
-4.468312
 30
0.0
 41
12.000002
 42
12.000002
 43
12.000002
 50
244.673245
  0
INSERT
  5
503
330
5FA
100
AcDbEntity
  8
REF
  6
Continuous
 62
     7
370
    13
100
AcDbBlockReference
  2
LARROW
 10
13.857868
 20
-4.452958
 30
0.0
 41
11.999999
 42
11.999999
 43
11.999999
 50
295.326198
  0
INSERT
  5
505
330
5FA
100
AcDbEntity
  8
REF
  6
Continuous
 62
     7
370
    13
100
AcDbBlockReference
  2
LARROW
 10
13.306483
 20
-5.28275
 30
0.0
 41
12.000001
 42
12.000001
 43
12.000001
 50
43.730989
  0
INSERT
  5
507
330
5FA
100
AcDbEntity
  8
REF
  6
Continuous
 62
     7
370
    13
100
AcDbBlockReference
  2
LARROW
 10
12.696358
 20
-5.249187
 30
0.0
 41
11.999998
 42
11.999998
 43
11.999998
 50
321.941842
  0
INSERT
  5
509
330
5FA
100
AcDbEntity
  8
REF
  6
Continuous
 62
     7
370
    13
100
AcDbBlockReference
  2
LARROW
 10
12.634795
 20
-5.334542
 30
0.0
 41
11.999999
 42
11.999999
 43
11.999999
 50
65.042582
  0
INSERT
  5
50B
330
5FA
100
AcDbEntity
  8
REF
  6
Continuous
 62
     7
370
    13
100
AcDbBlockReference
  2
LARROW
 10
12.718129
 20
-5.397635
 30
0.0
 41
12.000002
 42
12.000002
 43
12.000002
 50
104.555276
  0
INSERT
  5
50D
330
5FA
100
AcDbEntity
  8
REF
  6
Continuous
 62
     7
370
    13
100
AcDbBlockReference
  2
LARROW
 10
15.584431
 20
-4.177062
 30
0.0
 41
12.0
 42
12.0
 43
12.0
 50
180.0
  0
INSERT
  5
50F
330
5FA
100
AcDbEntity
  8
REF
  6
Continuous
 62
     7
370
    13
100
AcDbBlockReference
  2
LARROW
 10
16.492254
 20
-4.177062
 30
0.0
 41
12.0
 42
12.0
 43
12.0
  0
INSERT
  5
511
330
5FA
100
AcDbEntity
  8
REF
  6
Continuous
 62
     7
370
    13
100
AcDbBlockReference
  2
LARROW
 10
16.905545
 20
-4.172
 30
0.0
 41
12.0
 42
12.0
 43
12.0
 50
180.0
  0
INSERT
  5
513
330
5FA
100
AcDbEntity
  8
REF
  6
Continuous
 62
     7
370
    13
100
AcDbBlockReference
  2
LARROW
 10
17.802764
 20
-4.172
 30
0.0
 41
12.0
 42
12.0
 43
12.0
  0
INSERT
  5
515
330
5FA
100
AcDbEntity
  8
REF
  6
Continuous
 62
     7
370
    13
100
AcDbBlockReference
  2
LARROW
 10
16.479212
 20
-4.505687
 30
0.0
 41
12.000001
 42
12.000001
 43
12.000001
 50
288.155194
  0
INSERT
  5
517
330
5FA
100
AcDbEntity
  8
REF
  6
Continuous
 62
     7
370
    13
100
AcDbBlockReference
  2
LARROW
 10
16.903702
 20
-4.580062
 30
0.0
 41
12.0
 42
12.0
 43
12.0
 50
262.794548
  0
INSERT
  5
519
330
5FA
100
AcDbEntity
  8
REF
  6
Continuous
 62
     7
370
    13
100
AcDbBlockReference
  2
LARROW
 10
16.227275
 20
-4.61076
 30
0.0
 41
12.0
 42
12.0
 43
12.0
 50
270.0
  0
INSERT
  5
51B
330
5FA
100
AcDbEntity
  8
REF
  6
Continuous
 62
     7
370
    13
100
AcDbBlockReference
  2
LARROW
 10
16.227275
 20
-5.501469
 30
0.0
 41
12.0
 42
12.0
 43
12.0
 50
270.0
  0
INSERT
  5
51D
330
5FA
100
AcDbEntity
  8
REF
  6
Continuous
 62
     7
370
    13
100
AcDbBlockReference
  2
LARROW
 10
16.474587
 20
-4.820958
 30
0.0
 41
12.0
 42
12.0
 43
12.0
  0
INSERT
  5
51F
330
5FA
100
AcDbEntity
  8
REF
  6
Continuous
 62
     7
370
    13
100
AcDbBlockReference
  2
LARROW
 10
16.721858
 20
-4.820958
 30
0.0
 41
12.0
 42
12.0
 43
12.0
 50
180.0
  0
INSERT
  5
521
330
5FA
100
AcDbEntity
  8
REF
  6
Continuous
 62
     7
370
    13
100
AcDbBlockReference
  2
LARROW
 10
17.013212
 20
-5.163312
 30
0.0
 41
12.000001
 42
12.000001
 43
12.000001
 50
220.25891
  0
INSERT
  5
523
330
5FA
100
AcDbEntity
  8
REF
  6
Continuous
 62
     7
370
    13
100
AcDbBlockReference
  2
LARROW
 10
17.274264
 20
-5.202917
 30
0.0
 41
12.000001
 42
12.000001
 43
12.000001
 50
136.381026
  0
INSERT
  5
525
330
5FA
100
AcDbEntity
  8
REF
  6
Continuous
 62
     7
370
    13
100
AcDbBlockReference
  2
LARROW
 10
16.497983
 20
-5.511729
 30
0.0
 41
12.0
 42
12.0
 43
12.0
 50
90.0
  0
INSERT
  5
527
330
5FA
100
AcDbEntity
  8
REF
  6
Continuous
 62
     7
370
    13
100
AcDbBlockReference
  2
LARROW
 10
16.706098
 20
-5.494063
 30
0.0
 41
12.0
 42
12.0
 43
12.0
 50
90.0
  0
INSERT
  5
529
330
5FA
100
AcDbEntity
  8
REF
  6
Continuous
 62
     7
370
    30
100
AcDbBlockReference
  2
SARROW
 10
13.095844
 20
-7.772031
 30
0.0
 41
12.0
 42
12.0
 43
12.0
 50
180.0
  0
INSERT
  5
52B
330
5FA
100
AcDbEntity
  8
REF
  6
Continuous
 62
     7
370
    30
100
AcDbBlockReference
  2
SARROW
 10
13.102906
 20
-10.896823
 30
0.0
 41
12.0
 42
12.0
 43
12.0
 50
180.0
  0
INSERT
  5
52D
330
5FA
100
AcDbEntity
  8
REF
  6
Continuous
 62
     7
370
    30
100
AcDbBlockReference
  2
SARROW
 10
12.07225
 20
-9.073573
 30
0.0
 41
12.0
 42
12.0
 43
12.0
 50
90.0
  0
INSERT
  5
52F
330
5FA
100
AcDbEntity
  8
REF
  6
Continuous
 62
     7
370
    30
100
AcDbBlockReference
  2
SARROW
 10
14.915052
 20
-9.1195
 30
0.0
 41
12.0
 42
12.0
 43
12.0
 50
90.0
  0
INSERT
  5
531
330
5FA
100
AcDbEntity
  8
REF
  6
Continuous
 62
     7
370
    13
100
AcDbBlockReference
  2
LARROW
 10
11.893917
 20
-8.953437
 30
0.0
 41
12.0
 42
12.0
 43
12.0
 50
90.0
  0
INSERT
  5
533
330
5FA
100
AcDbEntity
  8
REF
  6
Continuous
 62
     7
370
    13
100
AcDbBlockReference
  2
LARROW
 10
11.893917
 20
-9.992208
 30
0.0
 41
12.0
 42
12.0
 43
12.0
 50
270.0
  0
INSERT
  5
535
330
5FA
100
AcDbEntity
  8
REF
  6
Continuous
 62
     7
370
    13
100
AcDbBlockReference
  2
LARROW
 10
12.308771
 20
-9.264365
 30
0.0
 41
12.0
 42
12.0
 43
12.0
 50
90.0
  0
INSERT
  5
537
330
5FA
100
AcDbEntity
  8
REF
  6
Continuous
 62
     7
370
    13
100
AcDbBlockReference
  2
LARROW
 10
12.308771
 20
-9.695417
 30
0.0
 41
12.0
 42
12.0
 43
12.0
 50
270.0
  0
INSERT
  5
539
330
5FA
100
AcDbEntity
  8
REF
  6
Continuous
 62
     7
370
    13
100
AcDbBlockReference
  2
LARROW
 10
12.737802
 20
-9.720083
 30
0.0
 41
12.000001
 42
12.000001
 43
12.000001
 50
36.298237
  0
INSERT
  5
53B
330
5FA
100
AcDbEntity
  8
REF
  6
Continuous
 62
     7
370
    13
100
AcDbBlockReference
  2
LARROW
 10
12.739073
 20
-9.929177
 30
0.0
 41
12.0
 42
12.0
 43
12.0
  0
INSERT
  5
53D
330
5FA
100
AcDbEntity
  8
REF
  6
Continuous
 62
     7
370
    13
100
AcDbBlockReference
  2
LARROW
 10
12.933354
 20
-9.929177
 30
0.0
 41
12.0
 42
12.0
 43
12.0
 50
180.0
  0
INSERT
  5
53F
330
5FA
100
AcDbEntity
  8
REF
  6
Continuous
 62
     7
370
    13
100
AcDbBlockReference
  2
LARROW
 10
12.843561
 20
-9.20294
 30
0.0
 41
12.000001
 42
12.000001
 43
12.000001
 50
235.304162
  0
INSERT
  5
541
330
5FA
100
AcDbEntity
  8
REF
  6
Continuous
 62
     7
370
    13
100
AcDbBlockReference
  2
LARROW
 10
13.39214
 20
-9.182605
 30
0.0
 41
12.0
 42
12.0
 43
12.0
 50
258.0
  0
INSERT
  5
543
330
5FA
100
AcDbEntity
  8
REF
  6
Continuous
 62
     7
370
    13
100
AcDbBlockReference
  2
LARROW
 10
13.851854
 20
-9.115969
 30
0.0
 41
12.0
 42
12.0
 43
12.0
 50
90.0
  0
INSERT
  5
545
330
5FA
100
AcDbEntity
  8
REF
  6
Continuous
 62
     7
370
    13
100
AcDbBlockReference
  2
LARROW
 10
13.851854
 20
-9.833427
 30
0.0
 41
12.0
 42
12.0
 43
12.0
 50
270.0
  0
INSERT
  5
547
330
5FA
100
AcDbEntity
  8
REF
  6
Continuous
 62
     7
370
    13
100
AcDbBlockReference
  2
LARROW
 10
14.240344
 20
-9.172812
 30
0.0
 41
12.0
 42
12.0
 43
12.0
  0
INSERT
  5
549
330
5FA
100
AcDbEntity
  8
REF
  6
Continuous
 62
     7
370
    13
100
AcDbBlockReference
  2
LARROW
 10
13.98189
 20
-9.745031
 30
0.0
 41
11.999999
 42
11.999999
 43
11.999999
 50
159.543312
  0
INSERT
  5
54B
330
5FA
100
AcDbEntity
  8
REF
  6
Continuous
 62
     7
370
    13
100
AcDbBlockReference
  2
LARROW
 10
13.975406
 20
-10.116177
 30
0.0
 41
12.0
 42
12.0
 43
12.0
  0
INSERT
  5
54D
330
5FA
100
AcDbEntity
  8
REF
  6
Continuous
 62
     7
370
    13
100
AcDbBlockReference
  2
LARROW
 10
14.293323
 20
-10.116177
 30
0.0
 41
12.0
 42
12.0
 43
12.0
 50
180.0
  0
INSERT
  5
54F
330
5FA
100
AcDbEntity
  8
REF
  6
Continuous
 62
     7
370
    13
100
AcDbBlockReference
  2
LARROW
 10
14.131448
 20
-9.929177
 30
0.0
 41
12.0
 42
12.0
 43
12.0
  0
INSERT
  5
551
330
5FA
100
AcDbEntity
  8
REF
  6
Continuous
 62
     7
370
    13
100
AcDbBlockReference
  2
LARROW
 10
14.13176
 20
-10.201752
 30
0.0
 41
12.0
 42
12.0
 43
12.0
 50
166.626118
  0
INSERT
  5
553
330
5FA
100
AcDbEntity
  8
REF
  6
Continuous
 62
     7
370
    13
100
AcDbBlockReference
  2
LARROW
 10
14.12024
 20
-10.463969
 30
0.0
 41
12.0
 42
12.0
 43
12.0
  0
INSERT
  5
555
330
5FA
100
AcDbEntity
  8
REF
  6
Continuous
 62
     7
370
    13
100
AcDbBlockReference
  2
LARROW
 10
14.282729
 20
-10.463969
 30
0.0
 41
12.0
 42
12.0
 43
12.0
 50
180.0
  0
INSERT
  5
557
330
5FA
100
AcDbEntity
  8
REF
  6
Continuous
 62
     7
370
    13
100
AcDbBlockReference
  2
LARROW
 10
14.293323
 20
-10.64324
 30
0.0
 41
12.0
 42
12.0
 43
12.0
 50
180.0
  0
INSERT
  5
559
330
5FA
100
AcDbEntity
  8
REF
  6
Continuous
 62
     7
370
    13
100
AcDbBlockReference
  2
LARROW
 10
14.226208
 20
-10.64324
 30
0.0
 41
12.0
 42
12.0
 43
12.0
  0
INSERT
  5
55B
330
5FA
100
AcDbEntity
  8
REF
  6
Continuous
 62
     7
370
    13
100
AcDbBlockReference
  2
LARROW
 10
15.940104
 20
-9.476354
 30
0.0
 41
12.0
 42
12.0
 43
12.0
 50
270.0
  0
INSERT
  5
55D
330
5FA
100
AcDbEntity
  8
REF
  6
Continuous
 62
     7
370
    13
100
AcDbBlockReference
  2
LARROW
 10
15.940104
 20
-9.946271
 30
0.0
 41
12.0
 42
12.0
 43
12.0
 50
90.0
  0
INSERT
  5
55F
330
5FA
100
AcDbEntity
  8
REF
  6
Continuous
 62
     7
370
    13
100
AcDbBlockReference
  2
LARROW
 10
16.199406
 20
-9.890531
 30
0.0
 41
11.999999
 42
11.999999
 43
11.999999
 50
259.978035
  0
INSERT
  5
561
330
5FA
100
AcDbEntity
  8
REF
  6
Continuous
 62
     7
370
    13
100
AcDbBlockReference
  2
LARROW
 10
16.641448
 20
-9.569448
 30
0.0
 41
12.000002
 42
12.000002
 43
12.000002
 50
256.054485
  0
INSERT
  5
563
330
5FA
100
AcDbEntity
  8
REF
  6
Continuous
 62
     7
370
    13
100
AcDbBlockReference
  2
LARROW
 10
17.176792
 20
-9.879146
 30
0.0
 41
12.0
 42
12.0
 43
12.0
 50
270.0
  0
INSERT
  5
565
330
5FA
100
AcDbEntity
  8
REF
  6
Continuous
 62
     7
370
    13
100
AcDbBlockReference
  2
LARROW
 10
17.176792
 20
-9.981604
 30
0.0
 41
12.0
 42
12.0
 43
12.0
 50
90.0
  0
INSERT
  5
567
330
5FA
100
AcDbEntity
  8
REF
  6
Continuous
 62
     7
370
    13
100
AcDbBlockReference
  2
LARROW
 10
16.480354
 20
-10.11376
 30
0.0
 41
12.000002
 42
12.000002
 43
12.000002
 50
53.42892
  0
INSERT
  5
569
330
5FA
100
AcDbEntity
  8
REF
  6
Continuous
 62
     7
370
    13
100
AcDbBlockReference
  2
LARROW
 10
16.649302
 20
-10.119396
 30
0.0
 41
12.0
 42
12.0
 43
12.0
 50
90.0
  0
INSERT
  5
56B
330
5FA
100
AcDbEntity
  8
REF
  6
Continuous
 62
     7
370
    13
100
AcDbBlockReference
  2
LARROW
 10
17.872812
 20
-9.431312
 30
0.0
 41
12.0
 42
12.0
 43
12.0
  0
INSERT
  5
56D
330
5FA
100
AcDbEntity
  8
REF
  6
Continuous
 62
     7
370
    13
100
AcDbBlockReference
  2
LARROW
 10
17.989385
 20
-9.431312
 30
0.0
 41
12.0
 42
12.0
 43
12.0
 50
180.0
  0
INSERT
  5
56F
330
5FA
100
AcDbEntity
  8
REF
  6
Continuous
 62
     7
370
    13
100
AcDbBlockReference
  2
LARROW
 10
18.031771
 20
-9.57601
 30
0.0
 41
12.0
 42
12.0
 43
12.0
 50
180.0
  0
INSERT
  5
571
330
5FA
100
AcDbEntity
  8
REF
  6
Continuous
 62
     7
370
    13
100
AcDbBlockReference
  2
LARROW
 10
17.968187
 20
-9.57601
 30
0.0
 41
12.0
 42
12.0
 43
12.0
  0
INSERT
  5
573
330
5FA
100
AcDbEntity
  8
REF
  6
Continuous
 62
     7
370
    13
100
AcDbBlockReference
  2
LARROW
 10
17.612042
 20
-9.988667
 30
0.0
 41
12.0
 42
12.0
 43
12.0
 50
90.0
  0
INSERT
  5
575
330
5FA
100
AcDbEntity
  8
REF
  6
Continuous
 62
     7
370
    13
100
AcDbBlockReference
  2
LARROW
 10
17.722833
 20
-9.875604
 30
0.0
 41
12.0
 42
12.0
 43
12.0
 50
270.0
  0
INSERT
  5
577
330
5FA
100
AcDbEntity
  8
REF
  6
Continuous
 62
     7
370
    13
100
AcDbBlockReference
  2
LARROW
 10
18.635052
 20
-9.886208
 30
0.0
 41
12.0
 42
12.0
 43
12.0
 50
270.0
  0
INSERT
  5
579
330
5FA
100
AcDbEntity
  8
REF
  6
Continuous
 62
     7
370
    13
100
AcDbBlockReference
  2
LARROW
 10
18.635052
 20
-9.985135
 30
0.0
 41
12.0
 42
12.0
 43
12.0
 50
90.0
  0
LINE
  5
57D
330
5FA
100
AcDbEntity
  8
REF
  6
Continuous
 62
     7
370
    13
100
AcDbLine
 10
18.314919
 20
-9.570791
 30
0.0
 11
17.992938
 21
-9.91526
 31
0.0
  0
INSERT
  5
57E
330
5FA
100
AcDbEntity
  8
REF
  6
Continuous
 62
     7
370
    13
100
AcDbBlockReference
  2
LARROW_2
 10
17.992938
 20
-9.91526
 30
0.0
 41
11.999998
 42
11.999998
 43
11.999998
 50
226.932569
  0
INSERT
  5
589
330
5FA
100
AcDbEntity
  8
REF
  6
Continuous
 62
     7
370
    13
100
AcDbBlockReference
  2
LARROW_2
 10
16.227275
 20
-4.946031
 30
0.0
 41
12.0
 42
12.0
 43
12.0
 50
90.0
  0
TEXT
  5
5B
330
5FA
100
AcDbEntity
  8
TITLE
  6
Continuous
 62
     7
370
    30
100
AcDbText
 10
13.047608
 20
-11.995698
 30
0.0
 40
0.140396
  1
AND MAINTENANCE FACILITIES.
  7
Style-Arial
 11
13.047608
 21
-11.9255
 31
0.0
100
AcDbText
 73
     2
  0
TEXT
  5
5C
330
5FA
100
AcDbEntity
  8
REF
  6
Continuous
 62
     7
370
    30
100
AcDbText
 10
14.724677
 20
-10.720177
 30
0.0
 40
0.140396
  1
1"
  7
Style-Arial
 11
14.724677
 21
-10.649979
 31
0.0
100
AcDbText
 73
     2
  0
TEXT
  5
5E
330
5FA
100
AcDbEntity
  8
REF
  6
Continuous
 62
     7
370
    30
100
AcDbText
 10
14.713375
 20
-10.54125
 30
0.0
 40
0.140396
  1
6"
  7
Style-Arial
 11
14.713375
 21
-10.471052
 31
0.0
100
AcDbText
 73
     2
  0
TEXT
  5
62
330
5FA
100
AcDbEntity
  8
Level 8
  6
Continuous
 62
     7
370
    30
100
AcDbText
 10
15.281936
 20
-8.960208
 30
0.0
 40
0.140396
  1
SURFACE
  7
Style-Arial
 11
15.281936
 21
-8.89001
 31
0.0
100
AcDbText
 73
     2
  0
TEXT
  5
63
330
5FA
100
AcDbEntity
  8
Level 8
  6
Continuous
 62
     7
370
    30
100
AcDbText
 10
15.1655
 20
-8.80199
 30
0.0
 40
0.140396
  1
BITUMINOUS
  7
Style-Arial
 11
15.1655
 21
-8.731792
 31
0.0
100
AcDbText
 73
     2
  0
TEXT
  5
64
330
5FA
100
AcDbEntity
  8
Level 8
  6
Continuous
 62
     7
370
    30
100
AcDbText
 10
15.092375
 20
-10.905927
 30
0.0
 40
0.140396
  1
CONCRETE
  7
Style-Arial
 11
15.092375
 21
-10.835729
 31
0.0
100
AcDbText
 73
     2
  0
TEXT
  5
65
330
5FA
100
AcDbEntity
  8
Level 8
  6
Continuous
 62
     7
370
    30
100
AcDbText
 10
16.74597
 20
-11.168149
 30
0.0
 40
0.140396
  1
SUPPLY
  7
Style-Arial
 11
16.74597
 21
-11.097951
 31
0.0
100
AcDbText
 73
     2
  0
TEXT
  5
66
330
5FA
100
AcDbEntity
  8
Level 8
  6
Continuous
 62
     7
370
    30
100
AcDbText
 10
17.308333
 20
-8.698479
 30
0.0
 40
0.140396
  1
ELECTRICAL
  7
Style-Arial
 11
17.308333
 21
-8.628281
 31
0.0
100
AcDbText
 73
     2
  0
TEXT
  5
67
330
5FA
100
AcDbEntity
  8
Level 8
  6
Continuous
 62
     7
370
    30
100
AcDbText
 10
15.167927
 20
-10.746552
 30
0.0
 40
0.140396
  1
PRECAST
  7
Style-Arial
 11
15.167927
 21
-10.676354
 31
0.0
100
AcDbText
 73
     2
  0
TEXT
  5
68
330
5FA
100
AcDbEntity
  8
Level 8
  6
Continuous
 62
     7
370
    30
100
AcDbText
 10
16.716155
 20
-10.84419
 30
0.0
 40
0.140396
  1
CONDUIT
  7
Style-Arial
 11
16.716155
 21
-10.773992
 31
0.0
100
AcDbText
 73
     2
  0
TEXT
  5
69
330
5FA
100
AcDbEntity
  8
Level 8
  6
Continuous
 62
     7
370
    30
100
AcDbText
 10
17.119677
 20
-8.519969
 30
0.0
 40
0.140396
  1
WEATHERPROOF
  7
Style-Arial
 11
17.119677
 21
-8.449771
 31
0.0
100
AcDbText
 73
     2
  0
TEXT
  5
6A
330
5FA
100
AcDbEntity
  8
REF
  6
Continuous
 62
     7
370
    30
100
AcDbText
 10
16.009538
 20
-9.758437
 30
0.0
 40
0.140396
  1
2'
 50
90.0
  7
Style-Arial
 11
15.93934
 21
-9.758437
 31
0.0
100
AcDbText
 73
     2
  0
TEXT
  5
6C
330
5FA
100
AcDbEntity
  8
REF
  6
Continuous
 62
     7
370
    30
100
AcDbText
 10
17.098844
 20
-9.792146
 30
0.0
 40
0.140396
  1
6" PCC
 50
90.0
  7
Style-Arial
 11
17.028646
 21
-9.792146
 31
0.0
100
AcDbText
 73
     2
  0
TEXT
  5
6D
330
5FA
100
AcDbEntity
  8
REF
  6
Continuous
 62
     7
370
    30
100
AcDbText
 10
18.239417
 20
-10.454937
 30
0.0
 40
0.140396
  1
6"
  7
Style-Arial
 11
18.239417
 21
-10.38474
 31
0.0
100
AcDbText
 73
     2
  0
TEXT
  5
87
330
5FA
100
AcDbEntity
  8
REF
  6
Continuous
 62
     7
370
    30
100
AcDbText
 10
16.527108
 20
-4.878625
 30
0.0
 40
0.140396
  1
1'
  7
Style-Arial
 11
16.527108
 21
-4.808427
 31
0.0
100
AcDbText
 73
     2
  0
TEXT
  5
89
330
5FA
100
AcDbEntity
  8
REF
  6
Continuous
 62
     7
370
    30
100
AcDbText
 10
17.26591
 20
-4.155729
 30
0.0
 40
0.140396
  1
4'
  7
Style-Arial
 11
17.26591
 21
-4.085531
 31
0.0
100
AcDbText
 73
     2
  0
TEXT
  5
8B
330
5FA
100
AcDbEntity
  8
REF
  6
Continuous
 62
     7
370
    30
100
AcDbText
 10
16.642881
 20
-4.242323
 30
0.0
 40
0.140396
  1
2'
  7
Style-Arial
 11
16.642881
 21
-4.172125
 31
0.0
100
AcDbText
 73
     2
  0
TEXT
  5
8D
330
5FA
100
AcDbEntity
  8
REF
  6
Continuous
 62
     7
370
    30
100
AcDbText
 10
16.011462
 20
-4.144927
 30
0.0
 40
0.140396
  1
4'
  7
Style-Arial
 11
16.011462
 21
-4.074729
 31
0.0
100
AcDbText
 73
     2
  0
TEXT
  5
95
330
5FA
100
AcDbEntity
  8
REF
  6
Continuous
 62
     7
370
    30
100
AcDbText
 10
16.146045
 20
-4.869646
 30
0.0
 40
0.140396
  1
1'-6"
 50
90.0
  7
Style-Arial
 11
16.075848
 21
-4.869646
 31
0.0
100
AcDbText
 73
     2
  0
TEXT
  5
97
330
5FA
100
AcDbEntity
  8
REF
  6
Continuous
 62
     7
370
    30
100
AcDbText
 10
16.439025
 20
-5.46224
 30
0.0
 40
0.140396
  1
BURY
 50
90.0
  7
Style-Arial
 11
16.368827
 21
-5.46224
 31
0.0
100
AcDbText
 73
     2
  0
TEXT
  5
98
330
5FA
100
AcDbEntity
  8
REF
  6
Continuous
 62
     7
370
    30
100
AcDbText
 10
16.154379
 20
-5.364552
 30
0.0
 40
0.140396
  1
MIN
 50
90.0
  7
Style-Arial
 11
16.084181
 21
-5.364552
 31
0.0
100
AcDbText
 73
     2
  0
TEXT
  5
9A
330
5FA
100
AcDbEntity
  8
Level 8
  6
Continuous
 62
     7
370
    30
100
AcDbText
 10
15.134833
 20
-6.272582
 30
0.0
 40
0.140396
  1
TO SUPPLY
  7
Style-Arial
 11
15.134833
 21
-6.202384
 31
0.0
100
AcDbText
 73
     2
  0
TEXT
  5
9B
330
5FA
100
AcDbEntity
  8
Level 8
  6
Continuous
 62
     7
370
    30
100
AcDbText
 10
16.950191
 20
-6.355073
 30
0.0
 40
0.140396
  1
2 CU FT
  7
Style-Arial
 11
16.950191
 21
-6.284875
 31
0.0
100
AcDbText
 73
     2
  0
TEXT
  5
9C
330
5FA
100
AcDbEntity
  8
Level 8
  6
Continuous
 62
     7
370
    30
100
AcDbText
 10
16.928764
 20
-5.91076
 30
0.0
 40
0.140396
  1
3 NO 10
  7
Style-Arial
 11
16.928764
 21
-5.840562
 31
0.0
100
AcDbText
 73
     2
  0
TEXT
  5
9D
330
5FA
100
AcDbEntity
  8
Level 8
  6
Continuous
 62
     7
370
    30
100
AcDbText
 10
17.660862
 20
-4.862684
 30
0.0
 40
0.140396
  1
CONDUIT
  7
Style-Arial
 11
17.660862
 21
-4.792486
 31
0.0
100
AcDbText
 73
     2
  0
TEXT
  5
9E
330
5FA
100
AcDbEntity
  8
Level 8
  6
Continuous
 62
     7
370
    30
100
AcDbText
 10
17.33541
 20
-3.805625
 30
0.0
 40
0.140396
  1
ELECTRICAL
  7
Style-Arial
 11
17.33541
 21
-3.735427
 31
0.0
100
AcDbText
 73
     2
  0
TEXT
  5
9F
330
5FA
100
AcDbEntity
  8
Level 8
  6
Continuous
 62
     7
370
    30
100
AcDbText
 10
14.460532
 20
-3.800396
 30
0.0
 40
0.140396
  1
WATER HYDRANT
  7
Style-Arial
 11
14.460532
 21
-3.730198
 31
0.0
100
AcDbText
 73
     2
  0
TEXT
  5
A0
330
5FA
100
AcDbEntity
  8
Level 8
  6
Continuous
 62
     7
370
    30
100
AcDbText
 10
17.160514
 20
-3.640062
 30
0.0
 40
0.140396
  1
WEATHERPROOF
  7
Style-Arial
 11
17.160514
 21
-3.569865
 31
0.0
100
AcDbText
 73
     2
  0
TEXT
  5
A1
330
5FA
100
AcDbEntity
  8
Level 8
  6
Continuous
 62
     7
370
    30
100
AcDbText
 10
14.444859
 20
-3.595419
 30
0.0
 40
0.140396
  1
FROST-PROOF
  7
Style-Arial
 11
14.444859
 21
-3.525221
 31
0.0
100
AcDbText
 73
     2
  0
TEXT
  5
12A
330
5FA
100
AcDbEntity
  8
Level 8
  6
Continuous
 62
     7
370
    30
100
AcDbText
 10
13.729604
 20
-8.609385
 30
0.0
 40
0.140396
  1
PAD
  7
Style-Arial
 11
13.729604
 21
-8.539188
 31
0.0
100
AcDbText
 73
     2
  0
TEXT
  5
12B
330
5FA
100
AcDbEntity
  8
Level 8
  6
Continuous
 62
     7
370
    30
100
AcDbText
 10
13.718615
 20
-8.435656
 30
0.0
 40
0.140396
  1
EQUIPMENT
  7
Style-Arial
 11
13.718615
 21
-8.365458
 31
0.0
100
AcDbText
 73
     2
  0
TEXT
  5
12C
330
5FA
100
AcDbEntity
  8
Level 8
  6
Continuous
 62
     7
370
    30
100
AcDbText
 10
13.718604
 20
-8.265302
 30
0.0
 40
0.140396
  1
CLEANING
  7
Style-Arial
 11
13.718604
 21
-8.195104
 31
0.0
100
AcDbText
 73
     2
  0
TEXT
  5
12D
330
5FA
100
AcDbEntity
  8
REF
  6
Continuous
 62
     7
370
    30
100
AcDbText
 10
14.711219
 20
-10.189156
 30
0.0
 40
0.140396
  1
1'-4"
  7
Style-Arial
 11
14.711219
 21
-10.118958
 31
0.0
100
AcDbText
 73
     2
  0
TEXT
  5
12E
330
5FA
100
AcDbEntity
  8
Level 8
  6
Continuous
 62
     7
370
    30
100
AcDbText
 10
14.745906
 20
-9.968677
 30
0.0
 40
0.140396
  1
EXP. JT.
  7
Style-Arial
 11
14.745906
 21
-9.898479
 31
0.0
100
AcDbText
 73
     2
  0
TEXT
  5
12F
330
5FA
100
AcDbEntity
  8
Level 8
  6
Continuous
 62
     7
370
    30
100
AcDbText
 10
14.62926
 20
-10.376906
 30
0.0
 40
0.140396
  1
CURB
  7
Style-Arial
 11
14.62926
 21
-10.306708
 31
0.0
100
AcDbText
 73
     2
  0
TEXT
  5
130
330
5FA
100
AcDbEntity
  8
Level 8
  6
Continuous
 62
     7
370
    30
100
AcDbText
 10
14.174198
 20
-9.762222
 30
0.0
 40
0.140396
  1
RAMP
 50
90.0
  7
Style-Arial
 11
14.104
 21
-9.762222
 31
0.0
100
AcDbText
 73
     2
  0
TEXT
  5
131
330
5FA
100
AcDbEntity
  8
REF
  6
Continuous
 62
     7
370
    30
100
AcDbText
 10
13.801667
 20
-9.522406
 30
0.0
 40
0.140396
  1
5'
 50
90.0
  7
Style-Arial
 11
13.731469
 21
-9.522406
 31
0.0
100
AcDbText
 73
     2
  0
TEXT
  5
134
330
5FA
100
AcDbEntity
  8
REF
  6
Continuous
 62
     7
370
    30
100
AcDbText
 10
11.837875
 20
-9.59874
 30
0.0
 40
0.140396
  1
10'
 50
90.0
  7
Style-Arial
 11
11.767677
 21
-9.59874
 31
0.0
100
AcDbText
 73
     2
  0
TEXT
  5
135
330
5FA
100
AcDbEntity
  8
REF
  6
Continuous
 62
     7
370
    30
100
AcDbText
 10
13.463281
 20
-9.904208
 30
0.0
 40
0.140396
  1
8'
  7
Style-Arial
 11
13.463281
 21
-9.83401
 31
0.0
100
AcDbText
 73
     2
  0
TEXT
  5
136
330
5FA
100
AcDbEntity
  8
REF
  6
Continuous
 62
     7
370
    13
100
AcDbText
 10
12.765969
 20
-9.977896
 30
0.0
 40
0.140396
  1
1'
  7
Style-Arial
 11
12.765969
 21
-9.907698
 31
0.0
100
AcDbText
 73
     2
  0
TEXT
  5
139
330
5FA
100
AcDbEntity
  8
REF
  6
Continuous
 62
     7
370
    30
100
AcDbText
 10
12.526312
 20
-9.46351
 30
0.0
 40
0.140396
  1
2'
 50
90.0
  7
Style-Arial
 11
12.456115
 21
-9.46351
 31
0.0
100
AcDbText
 73
     2
  0
TEXT
  5
13F
330
5FA
100
AcDbEntity
  8
Level 8
  6
Continuous
 62
     7
370
    30
100
AcDbText
 10
12.937894
 20
-10.953542
 30
0.0
 40
0.140396
  1
B
  7
Style-Arial
 11
12.937894
 21
-10.883344
 31
0.0
100
AcDbText
 73
     2
  0
TEXT
  5
140
330
5FA
100
AcDbEntity
  8
Level 8
  6
Continuous
 62
     7
370
    30
100
AcDbText
 10
14.828404
 20
-9.073158
 30
0.0
 40
0.140396
  1
A
  7
Style-Arial
 11
14.828404
 21
-9.00296
 31
0.0
100
AcDbText
 73
     2
  0
TEXT
  5
141
330
5FA
100
AcDbEntity
  8
Level 8
  6
Continuous
 62
     7
370
    30
100
AcDbText
 10
12.930087
 20
-7.854802
 30
0.0
 40
0.140396
  1
B
  7
Style-Arial
 11
12.930087
 21
-7.784604
 31
0.0
100
AcDbText
 73
     2
  0
TEXT
  5
142
330
5FA
100
AcDbEntity
  8
Level 8
  6
Continuous
 62
     7
370
    30
100
AcDbText
 10
12.002428
 20
-9.033313
 30
0.0
 40
0.140396
  1
A
  7
Style-Arial
 11
12.002428
 21
-8.963115
 31
0.0
100
AcDbText
 73
     2
  0
TEXT
  5
143
330
5FA
100
AcDbEntity
  8
Level 8
  6
Continuous
 62
     7
370
    30
100
AcDbText
 10
11.727074
 20
-10.765125
 30
0.0
 40
0.140396
  1
WATER HYDRANT
  7
Style-Arial
 11
11.727074
 21
-10.694927
 31
0.0
100
AcDbText
 73
     2
  0
TEXT
  5
144
330
5FA
100
AcDbEntity
  8
Level 8
  6
Continuous
 62
     7
370
    30
100
AcDbText
 10
12.007427
 20
-8.790583
 30
0.0
 40
0.140396
  1
OUTLET
  7
Style-Arial
 11
12.007427
 21
-8.720385
 31
0.0
100
AcDbText
 73
     2
  0
TEXT
  5
145
330
5FA
100
AcDbEntity
  8
Level 8
  6
Continuous
 62
     7
370
    30
100
AcDbText
 10
11.641115
 20
-8.414677
 30
0.0
 40
0.140396
  1
WEATHERPROOF
  7
Style-Arial
 11
11.641115
 21
-8.344479
 31
0.0
100
AcDbText
 73
     2
  0
TEXT
  5
146
330
5FA
100
AcDbEntity
  8
Level 8
  6
Continuous
 62
     7
370
    30
100
AcDbText
 10
11.912113
 20
-10.552387
 30
0.0
 40
0.140396
  1
FROST-PROOF
  7
Style-Arial
 11
11.912113
 21
-10.482189
 31
0.0
100
AcDbText
 73
     2
  0
TEXT
  5
162
330
5FA
100
AcDbEntity
  8
Level 8
  6
Continuous
 62
     7
370
    30
100
AcDbText
 10
13.062031
 20
-4.166844
 30
0.0
 40
0.140396
  1
CURB
  7
Style-Arial
 11
13.062031
 21
-4.096646
 31
0.0
100
AcDbText
 73
     2
  0
TEXT
  5
163
330
5FA
100
AcDbEntity
  8
Level 8
  6
Continuous
 62
     7
370
    30
100
AcDbText
 10
13.069685
 20
-4.891646
 30
0.0
 40
0.140396
  1
AREA
  7
Style-Arial
 11
13.069685
 21
-4.821448
 31
0.0
100
AcDbText
 73
     2
  0
TEXT
  5
164
330
5FA
100
AcDbEntity
  8
Level 8
  6
Continuous
 62
     7
370
    30
100
AcDbText
 10
12.836641
 20
-4.739729
 30
0.0
 40
0.140396
  1
WASHING
  7
Style-Arial
 11
12.836641
 21
-4.669531
 31
0.0
100
AcDbText
 73
     2
  0
TEXT
  5
165
330
5FA
100
AcDbEntity
  8
Level 8
  6
Continuous
 62
     7
370
    30
100
AcDbText
 10
13.105941
 20
-5.934399
 30
0.0
 40
0.140396
  1
INLET
  7
Style-Arial
 11
13.105941
 21
-5.864201
 31
0.0
100
AcDbText
 73
     2
  0
TEXT
  5
166
330
5FA
100
AcDbEntity
  8
Level 8
  6
Continuous
 62
     7
370
    30
100
AcDbText
 10
13.086573
 20
-5.742012
 30
0.0
 40
0.140396
  1
DROP
  7
Style-Arial
 11
13.086573
 21
-5.671814
 31
0.0
100
AcDbText
 73
     2
  0
TEXT
  5
169
330
5FA
100
AcDbEntity
  8
Level 8
  6
Continuous
 62
     7
370
    30
100
AcDbText
 10
12.9014
 20
-6.959604
 30
0.0
 40
0.140396
  1
SERVICE
  7
Style-Arial
 11
12.9014
 21
-6.889406
 31
0.0
100
AcDbText
 73
     2
  0
TEXT
  5
16A
330
5FA
100
AcDbEntity
  8
Level 8
  6
Continuous
 62
     7
370
    30
100
AcDbText
 10
12.891743
 20
-6.809417
 30
0.0
 40
0.140396
  1
"A" FOR
  7
Style-Arial
 11
12.891743
 21
-6.739219
 31
0.0
100
AcDbText
 73
     2
  0
TEXT
  5
16C
330
5FA
100
AcDbEntity
  8
REF
  6
Continuous
 62
     7
370
    30
100
AcDbText
 10
13.217441
 20
-3.784479
 30
0.0
 40
0.140396
  1
75'
  7
Style-Arial
 11
13.217441
 21
-3.714281
 31
0.0
100
AcDbText
 73
     2
  0
TEXT
  5
16F
330
5FA
100
AcDbEntity
  8
REF
  6
Continuous
 62
     7
370
    30
100
AcDbText
 10
13.809118
 20
-4.544542
 30
0.0
 40
0.140396
  1
25'
 50
90.0
  7
Style-Arial
 11
13.73892
 21
-4.544542
 31
0.0
100
AcDbText
 73
     2
  0
TEXT
  5
171
330
5FA
100
AcDbEntity
  8
REF
  6
Continuous
 62
     7
370
    30
100
AcDbText
 10
13.723056
 20
-5.45999
 30
0.0
 40
0.140396
  1
100'
 50
90.0
  7
Style-Arial
 11
13.652858
 21
-5.45999
 31
0.0
100
AcDbText
 73
     2
  0
TEXT
  5
172
330
5FA
100
AcDbEntity
  8
REF
  6
Continuous
 62
     7
370
    30
100
AcDbText
 10
13.799962
 20
-6.260615
 30
0.0
 40
0.140396
  1
25'
 50
90.0
  7
Style-Arial
 11
13.729764
 21
-6.260615
 31
0.0
100
AcDbText
 73
     2
  0
TEXT
  5
174
330
5FA
100
AcDbEntity
  8
Level 8
  6
Continuous
 62
     7
370
    30
100
AcDbText
 10
12.079181
 20
-6.208035
 30
0.0
 40
0.140396
  1
SURFACE TREATMENT
 50
90.0
  7
Style-Arial
 11
12.008983
 21
-6.208035
 31
0.0
100
AcDbText
 73
     2
  0
TEXT
  5
176
330
5FA
100
AcDbEntity
  8
Level 8
  6
Continuous
 62
     7
370
    30
100
AcDbText
 10
12.619056
 20
-6.426594
 30
0.0
 40
0.140396
  1
POINT
 50
90.0
  7
Style-Arial
 11
12.548858
 21
-6.426594
 31
0.0
100
AcDbText
 73
     2
  0
TEXT
  5
177
330
5FA
100
AcDbEntity
  8
Level 8
  6
Continuous
 62
     7
370
    30
100
AcDbText
 10
12.743931
 20
-4.655229
 30
0.0
 40
0.140396
  1
PAD
 50
90.0
  7
Style-Arial
 11
12.673733
 21
-4.655229
 31
0.0
100
AcDbText
 73
     2
  0
TEXT
  5
1A2
330
5FA
100
AcDbEntity
  8
DEFPOINTS
  6
Continuous
 62
     7
370
    30
100
AcDbText
 10
17.965744
 20
-12.249958
 30
0.0
 40
0.140396
  1
FIGURE
  7
Style-Arial
 11
17.965744
 21
-12.17976
 31
0.0
100
AcDbText
 73
     2
  0
TEXT
  5
1A3
330
5FA
100
AcDbEntity
  8
DEFPOINTS
  6
Continuous
 62
     7
370
    30
100
AcDbText
 10
18.117736
 20
-12.416625
 30
0.0
 40
0.140396
  1
2-19l
  7
Style-Arial
 11
18.117736
 21
-12.346427
 31
0.0
100
AcDbText
 73
     2
  0
TEXT
  5
1A4
330
5FA
100
AcDbEntity
  8
DEFPOINTS
  6
Continuous
 62
     7
370
    30
100
AcDbText
 10
16.953023
 20
-12.249958
 30
0.0
 40
0.140396
  1
DATE
  7
Style-Arial
 11
16.953023
 21
-12.17976
 31
0.0
100
AcDbText
 73
     2
  0
TEXT
  5
1A5
330
5FA
100
AcDbEntity
  8
DEFPOINTS
  6
Continuous
 62
     7
370
    30
100
AcDbText
 10
16.762775
 20
-12.439308
 30
0.0
 40
0.140396
  1
AUG 1992
  7
Style-Arial
 11
16.762775
 21
-12.36911
 31
0.0
100
AcDbText
 73
     2
  0
TEXT
  5
1A6
330
5FA
100
AcDbEntity
  8
Level 9
  6
Continuous
 62
     7
370
    30
100
AcDbText
 10
12.722066
 20
-12.333292
 30
0.0
 40
0.140396
  1
ARMY HELICOPTER WASHRACK
  7
Style-Arial
 11
12.722066
 21
-12.263094
 31
0.0
100
AcDbText
 73
     2
  0
TEXT
  5
1A7
330
5FA
100
AcDbEntity
  8
TITLE
  6
Continuous
 62
     7
370
    30
100
AcDbText
 10
11.724156
 20
-11.811052
 30
0.0
 40
0.140396
  1
REFERENCE: TM 5-823-4, ARMY AIRFIELD-HELIPORT OPERATIONAL
  7
Style-Arial
 11
11.724156
 21
-11.740854
 31
0.0
100
AcDbText
 73
     2
  0
TEXT
  5
305
330
5FA
100
AcDbEntity
  8
REF
  6
Continuous
 62
     7
370
    30
100
AcDbText
 10
17.311438
 20
-9.477365
 30
0.0
 40
0.140396
  1
6"
  7
Style-Arial
 11
17.311438
 21
-9.407167
 31
0.0
100
AcDbText
 73
     2
  0
TEXT
  5
307
330
5FA
100
AcDbEntity
  8
REF
  6
Continuous
 62
     7
370
    30
100
AcDbText
 10
17.376812
 20
-9.636573
 30
0.0
 40
0.140396
  1
1"
  7
Style-Arial
 11
17.376812
 21
-9.566375
 31
0.0
100
AcDbText
 73
     2
  0
TEXT
  5
454
330
5FA
100
AcDbEntity
  8
Level 8
  6
Continuous
 62
     7
370
    30
100
AcDbText
 10
11.860198
 20
-8.590813
 30
0.0
 40
0.140396
  1
ELECTRICAL
  7
Style-Arial
 11
11.860198
 21
-8.520615
 31
0.0
100
AcDbText
 73
     2
  0
TEXT
  5
47B
330
5FA
100
AcDbEntity
  8
Level 8
  6
Continuous
 62
     7
370
    30
100
AcDbText
 10
17.807417
 20
-10.660229
 30
0.0
 40
0.140396
  1
CLEANING
  7
Style-Arial
 11
17.807417
 21
-10.590031
 31
0.0
100
AcDbText
 73
     2
  0
TEXT
  5
47C
330
5FA
100
AcDbEntity
  8
Level 8
  6
Continuous
 62
     7
370
    30
100
AcDbText
 10
17.711322
 20
-10.830583
 30
0.0
 40
0.140396
  1
EQUIPMENT
  7
Style-Arial
 11
17.711322
 21
-10.760385
 31
0.0
100
AcDbText
 73
     2
  0
TEXT
  5
47D
330
5FA
100
AcDbEntity
  8
Level 8
  6
Continuous
 62
     7
370
    30
100
AcDbText
 10
18.084233
 20
-11.011396
 30
0.0
 40
0.140396
  1
PAD
  7
Style-Arial
 11
18.084233
 21
-10.941198
 31
0.0
100
AcDbText
 73
     2
  0
TEXT
  5
47E
330
5FA
100
AcDbEntity
  8
Level 8
  6
Continuous
 62
     7
370
    30
100
AcDbText
 10
16.732378
 20
-11.004659
 30
0.0
 40
0.140396
  1
TO
  7
Style-Arial
 11
16.732378
 21
-10.934461
 31
0.0
100
AcDbText
 73
     2
  0
TEXT
  5
47F
330
5FA
100
AcDbEntity
  8
Level 8
  6
Continuous
 62
     7
370
    30
100
AcDbText
 10
15.196667
 20
-10.586417
 30
0.0
 40
0.140396
  1
SQUARE
  7
Style-Arial
 11
15.196667
 21
-10.516219
 31
0.0
100
AcDbText
 73
     2
  0
TEXT
  5
480
330
5FA
100
AcDbEntity
  8
Level 8
  6
Continuous
 62
     7
370
    30
100
AcDbText
 10
15.110917
 20
-11.066396
 30
0.0
 40
0.140396
  1
PEDESTAL
  7
Style-Arial
 11
15.110917
 21
-10.996198
 31
0.0
100
AcDbText
 73
     2
  0
TEXT
  5
485
330
5FA
100
AcDbEntity
  8
Level 8
  6
Continuous
 62
     7
370
    30
100
AcDbText
 10
15.435573
 20
-8.589673
 30
0.0
 40
0.140396
  1
DOUBLE
  7
Style-Arial
 11
15.435573
 21
-8.519475
 31
0.0
100
AcDbText
 73
     2
  0
TEXT
  5
486
330
5FA
100
AcDbEntity
  8
Level 8
  6
Continuous
 62
     7
370
    30
100
AcDbText
 10
15.135026
 20
-9.110938
 30
0.0
 40
0.140396
  1
TREATMENT
  7
Style-Arial
 11
15.135026
 21
-9.04074
 31
0.0
100
AcDbText
 73
     2
  0
TEXT
  5
487
330
5FA
100
AcDbEntity
  8
Level 8
  6
Continuous
 62
     7
370
    30
100
AcDbText
 10
17.49699
 20
-8.87775
 30
0.0
 40
0.140396
  1
OUTLET
  7
Style-Arial
 11
17.49699
 21
-8.807552
 31
0.0
100
AcDbText
 73
     2
  0
TEXT
  5
48C
330
5FA
100
AcDbEntity
  8
Level 8
  6
Continuous
 62
     7
370
    30
100
AcDbText
 10
17.924198
 20
-9.26099
 30
0.0
 40
0.140396
  1
EXP. JT.
  7
Style-Arial
 11
17.924198
 21
-9.190792
 31
0.0
100
AcDbText
 73
     2
  0
TEXT
  5
49F
330
5FA
100
AcDbEntity
  8
Level 8
  6
Continuous
 62
     7
370
    30
100
AcDbText
 10
11.901848
 20
-6.140553
 30
0.0
 40
0.140396
  1
DOUBLE BITUMINOUS
 50
90.0
  7
Style-Arial
 11
11.83165
 21
-6.140553
 31
0.0
100
AcDbText
 73
     2
  0
TEXT
  5
4A0
330
5FA
100
AcDbEntity
  8
Level 8
  6
Continuous
 62
     7
370
    30
100
AcDbText
 10
14.457629
 20
-6.247586
 30
0.0
 40
0.140396
  1
DOUBLE BITUMINOUS
 50
90.0
  7
Style-Arial
 11
14.387431
 21
-6.247586
 31
0.0
100
AcDbText
 73
     2
  0
TEXT
  5
4A1
330
5FA
100
AcDbEntity
  8
Level 8
  6
Continuous
 62
     7
370
    30
100
AcDbText
 10
14.626045
 20
-6.289652
 30
0.0
 40
0.140396
  1
SURFACE TREATMENT
 50
90.0
  7
Style-Arial
 11
14.555848
 21
-6.289652
 31
0.0
100
AcDbText
 73
     2
  0
TEXT
  5
4A2
330
5FA
100
AcDbEntity
  8
Level 8
  6
Continuous
 62
     7
370
    30
100
AcDbText
 10
12.43041
 20
-6.464583
 30
0.0
 40
0.140396
  1
SERVICE 
 50
90.0
  7
Style-Arial
 11
12.360212
 21
-6.464583
 31
0.0
100
AcDbText
 73
     2
  0
TEXT
  5
4A5
330
5FA
100
AcDbEntity
  8
Level 8
  6
Continuous
 62
     7
370
    30
100
AcDbText
 10
12.593285
 20
-4.966758
 30
0.0
 40
0.140396
  1
EQUIPMENT 
 50
90.0
  7
Style-Arial
 11
12.523087
 21
-4.966758
 31
0.0
100
AcDbText
 73
     2
  0
TEXT
  5
4A6
330
5FA
100
AcDbEntity
  8
Level 8
  6
Continuous
 62
     7
370
    30
100
AcDbText
 10
12.420118
 20
-4.906783
 30
0.0
 40
0.140396
  1
CLEANING
 50
90.0
  7
Style-Arial
 11
12.34992
 21
-4.906783
 31
0.0
100
AcDbText
 73
     2
  0
TEXT
  5
4AD
330
5FA
100
AcDbEntity
  8
Level 8
  6
Continuous
 62
     7
370
    30
100
AcDbText
 10
12.961462
 20
-6.637948
 30
0.0
 40
0.140396
  1
DETAIL
  7
Style-Arial
 11
12.961462
 21
-6.56775
 31
0.0
100
AcDbText
 73
     2
  0
TEXT
  5
4AE
330
5FA
100
AcDbEntity
  8
Level 8
  6
Continuous
 62
     7
370
    30
100
AcDbText
 10
13.002931
 20
-7.115146
 30
0.0
 40
0.140396
  1
POINT
  7
Style-Arial
 11
13.002931
 21
-7.044948
 31
0.0
100
AcDbText
 73
     2
  0
TEXT
  5
4AF
330
5FA
100
AcDbEntity
  8
Level 8
  6
Continuous
 62
     7
370
    30
100
AcDbText
 10
13.094639
 20
-6.45324
 30
0.0
 40
0.140396
  1
SEE
  7
Style-Arial
 11
13.094639
 21
-6.383042
 31
0.0
100
AcDbText
 73
     2
  0
TEXT
  5
4C3
330
5FA
100
AcDbEntity
  8
Level 8
  6
Continuous
 62
     7
370
    30
100
AcDbText
 10
16.943129
 20
-6.52826
 30
0.0
 40
0.140396
  1
CRUSHED STONE
  7
Style-Arial
 11
16.943129
 21
-6.458062
 31
0.0
100
AcDbText
 73
     2
  0
TEXT
  5
4C4
330
5FA
100
AcDbEntity
  8
Level 8
  6
Continuous
 62
     7
370
    30
100
AcDbText
 10
16.893441
 20
-6.1085
 30
0.0
 40
0.140396
  1
TO SUPPLY
  7
Style-Arial
 11
16.893441
 21
-6.038302
 31
0.0
100
AcDbText
 73
     2
  0
TEXT
  5
4C5
330
5FA
100
AcDbEntity
  8
Level 8
  6
Continuous
 62
     7
370
    30
100
AcDbText
 10
17.495806
 20
-3.987875
 30
0.0
 40
0.140396
  1
OUTLET
  7
Style-Arial
 11
17.495806
 21
-3.917677
 31
0.0
100
AcDbText
 73
     2
  0
TEXT
  5
4C6
330
5FA
100
AcDbEntity
  8
Level 8
  6
Continuous
 62
     7
370
    30
100
AcDbText
 10
17.679355
 20
-4.694707
 30
0.0
 40
0.140396
  1
3/4"
  7
Style-Arial
 11
17.679355
 21
-4.624509
 31
0.0
100
AcDbText
 73
     2
  0
TEXT
  5
4CB
330
5FA
100
AcDbEntity
  8
REF
  6
Continuous
 62
     7
370
    30
100
AcDbText
 10
15.977098
 20
-5.302458
 30
0.0
 40
0.140396
  1
3'
 50
90.0
  7
Style-Arial
 11
15.9069
 21
-5.302458
 31
0.0
100
AcDbText
 73
     2
  0
TEXT
  5
4E5
330
5FA
100
AcDbEntity
  8
Level 8
  6
Continuous
 62
     7
370
    30
100
AcDbText
 10
13.074419
 20
-7.45751
 30
0.0
 40
0.140396
  1
PLAN
  7
Style-Arial
 11
13.074419
 21
-7.387313
 31
0.0
100
AcDbText
 73
     2
  0
TEXT
  5
4E6
330
5FA
100
AcDbEntity
  8
Level 8
  6
Continuous
 62
     7
370
    30
100
AcDbText
 10
16.091127
 20
-7.27024
 30
0.0
 40
0.140396
  1
SECTION B-B
  7
Style-Arial
 11
16.091127
 21
-7.200042
 31
0.0
100
AcDbText
 73
     2
  0
TEXT
  5
4E7
330
5FA
100
AcDbEntity
  8
Level 8
  6
Continuous
 62
     7
370
    30
100
AcDbText
 10
12.998242
 20
-11.349958
 30
0.0
 40
0.140396
  1
DETAIL A
  7
Style-Arial
 11
12.998242
 21
-11.27976
 31
0.0
100
AcDbText
 73
     2
  0
TEXT
  5
4E8
330
5FA
100
AcDbEntity
  8
Level 8
  6
Continuous
 62
     7
370
    30
100
AcDbText
 10
16.216736
 20
-11.447199
 30
0.0
 40
0.140396
  1
SECTION A-A
  7
Style-Arial
 11
16.216736
 21
-11.377002
 31
0.0
100
AcDbText
 73
     2
  0
TEXT
  5
57B
330
5FA
100
AcDbEntity
  8
REF
  6
Continuous
 62
     7
370
    40
100
AcDbText
 10
18.319636
 20
-9.597563
 30
0.0
 40
0.140396
  1
CURB
  7
Style-Arial
 11
18.319636
 21
-9.527365
 31
0.0
100
AcDbText
 73
     2
  0
LINE
  5
5E3
330
5FA
100
AcDbEntity
  8
REF
  6
Continuous
 62
     7
370
    13
100
AcDbLine
 10
13.600607
 20
-8.191902
 30
0.0
 11
13.392031
 21
-9.183094
 31
0.0
  0
LINE
  5
5E4
330
5FA
100
AcDbEntity
  8
REF
  6
Continuous
 62
     7
370
    13
100
AcDbLine
 10
12.842708
 20
-9.202479
 30
0.0
 11
13.433234
 21
-8.360052
 31
0.0
  0
ENDSEC
  0
SECTION
  2
OBJECTS
  0
DICTIONARY
  5
5EE
330
0
100
AcDbDictionary
281
     1
  3
ACAD_COLOR
350
60D
  3
ACAD_GROUP
350
60A
  3
ACAD_LAYOUT
350
5FE
  3
ACAD_MATERIAL
350
60C
  3
ACAD_MLINESTYLE
350
5F8
  3
ACAD_PLOTSETTINGS
350
60B
  3
ACAD_PLOTSTYLENAME
350
5ED
  3
ACAD_TABLESTYLE
350
631
  3
AcadDim
350
61A
  3
MicroStation
350
612
  0
DICTIONARY
  5
5EA
330
5E9
100
AcDbDictionary
280
     1
281
     1
  3
ACAD_LAYERFILTERS
360
611
  3
ACAD_LAYERSTATES
360
5EB
  0
DICTIONARY
  5
62D
330
5FA
100
AcDbDictionary
280
     1
281
     1
  3
ACAD_SORTENTS
360
62E
  0
DICTIONARY
  5
60D
102
{ACAD_REACTORS
330
5EE
102
}
330
5EE
100
AcDbDictionary
281
     1
  0
DICTIONARY
  5
60A
102
{ACAD_REACTORS
330
5EE
102
}
330
5EE
100
AcDbDictionary
281
     1
  0
DICTIONARY
  5
5FE
102
{ACAD_REACTORS
330
5EE
102
}
330
5EE
100
AcDbDictionary
281
     1
  3
Layout1
350
602
  3
Model
350
5FD
  0
DICTIONARY
  5
60C
102
{ACAD_REACTORS
330
5EE
102
}
330
5EE
100
AcDbDictionary
281
     1
  0
DICTIONARY
  5
5F8
102
{ACAD_REACTORS
330
5EE
102
}
330
5EE
100
AcDbDictionary
281
     1
  3
Standard
350
5F7
  0
DICTIONARY
  5
60B
102
{ACAD_REACTORS
330
5EE
102
}
330
5EE
100
AcDbDictionary
281
     1
  0
ACDBDICTIONARYWDFLT
  5
5ED
102
{ACAD_REACTORS
330
5EE
102
}
330
5EE
100
AcDbDictionary
281
     1
  3
Normal
350
5EC
100
AcDbDictionaryWithDefault
340
5EC
  0
DICTIONARY
  5
631
102
{ACAD_REACTORS
330
5EE
102
}
330
5EE
100
AcDbDictionary
281
     1
  0
XRECORD
  5
61A
102
{ACAD_REACTORS
330
5EE
102
}
330
5EE
100
AcDbXrecord
280
     1
 90
   990106
  3
 
 60
     0
 61
     0
 62
     1
 63
     1
 64
     0
 65
     0
 66
     0
 67
     3
 68
     1
 69
     1
 70
     0
 71
     0
 72
     0
 40
0.0
170
     0
  0
DICTIONARY
  5
612
102
{ACAD_REACTORS
330
5EE
102
}
330
5EE
100
AcDbDictionary
281
     1
  3
ApplicationElement 1502
350
5DE
  3
ApplicationElement 1506
350
5E2
  3
ApplicationElement 1509
350
5E5
  3
ApplicationElement 1510
350
5E6
  3
ModelApplicationElement 0 1501
350
5DD
  0
DICTIONARY
  5
611
102
{ACAD_REACTORS
330
5EA
102
}
330
5EA
100
AcDbDictionary
281
     1
  0
DICTIONARY
  5
5EB
102
{ACAD_REACTORS
330
5EA
102
}
330
5EA
100
AcDbDictionary
281
     1
  0
SORTENTSTABLE
  5
62E
102
{ACAD_REACTORS
330
62D
102
}
330
62D
100
AcDbSortentsTable
330
5FA
331
5B
  5
4D3
331
5C
  5
4D4
331
5D
  5
5B
331
5E
  5
4D5
331
5F
  5
5C
331
60
  5
5D
331
61
  5
5E
331
62
  5
4D6
331
63
  5
4D7
331
64
  5
4D8
331
65
  5
4D9
331
66
  5
4DA
331
67
  5
4DB
331
68
  5
4DC
331
69
  5
4DD
331
6A
  5
4DE
331
6B
  5
5F
331
6C
  5
4DF
331
6D
  5
4E0
331
6E
  5
60
331
6F
  5
61
331
70
  5
62
331
71
  5
63
331
72
  5
64
331
73
  5
65
331
74
  5
66
331
75
  5
67
331
76
  5
68
331
77
  5
69
331
78
  5
6A
331
79
  5
6B
331
7A
  5
6C
331
7B
  5
6D
331
7C
  5
6E
331
7D
  5
6F
331
7E
  5
70
331
7F
  5
71
331
80
  5
72
331
81
  5
73
331
82
  5
74
331
83
  5
75
331
84
  5
76
331
85
  5
77
331
86
  5
78
331
87
  5
4E1
331
88
  5
79
331
89
  5
4E2
331
8A
  5
7A
331
8B
  5
4E3
331
8C
  5
7B
331
8D
  5
4E4
331
8E
  5
7C
331
8F
  5
7D
331
90
  5
7E
331
91
  5
7F
331
92
  5
80
331
93
  5
81
331
94
  5
82
331
95
  5
4E5
331
96
  5
83
331
97
  5
4E6
331
98
  5
4E7
331
99
  5
84
331
9A
  5
4E8
331
9B
  5
4E9
331
9C
  5
4EA
331
9D
  5
4EB
331
9E
  5
4EC
331
9F
  5
4ED
331
A0
  5
4EF
331
A1
  5
4F1
331
A2
  5
85
331
A3
  5
86
331
A4
  5
87
331
A5
  5
88
331
A6
  5
89
331
A7
  5
8A
331
A8
  5
8B
331
A9
  5
8C
331
AA
  5
8D
331
AB
  5
8E
331
AC
  5
8F
331
AD
  5
90
331
AE
  5
91
331
AF
  5
92
331
B0
  5
93
331
B1
  5
94
331
B2
  5
95
331
B3
  5
96
331
B4
  5
97
331
B5
  5
98
331
B6
  5
99
331
B7
  5
9A
331
B8
  5
9B
331
B9
  5
9C
331
BA
  5
9D
331
BB
  5
9E
331
BC
  5
9F
331
BD
  5
A0
331
BE
  5
A1
331
BF
  5
A2
331
C0
  5
A3
331
C1
  5
A4
331
C2
  5
A5
331
C3
  5
A6
331
C4
  5
A7
331
C5
  5
A8
331
C6
  5
A9
331
C7
  5
AA
331
C8
  5
AB
331
C9
  5
AC
331
CA
  5
AD
331
CB
  5
AE
331
CC
  5
AF
331
CD
  5
B0
331
CE
  5
B1
331
CF
  5
B2
331
D0
  5
B3
331
D1
  5
B4
331
D2
  5
B5
331
D3
  5
B6
331
D4
  5
B7
331
D5
  5
B8
331
D6
  5
B9
331
D7
  5
BA
331
D8
  5
BB
331
D9
  5
BC
331
DA
  5
BD
331
DB
  5
BE
331
DC
  5
BF
331
DD
  5
C0
331
DE
  5
C1
331
DF
  5
C2
331
E0
  5
C3
331
E1
  5
C4
331
E2
  5
C5
331
E3
  5
C6
331
E4
  5
C7
331
E5
  5
C8
331
E6
  5
C9
331
E7
  5
CA
331
E8
  5
CB
331
E9
  5
CC
331
EA
  5
CD
331
EB
  5
CE
331
EC
  5
CF
331
ED
  5
D0
331
EE
  5
D1
331
EF
  5
D2
331
F0
  5
D3
331
F1
  5
D4
331
F2
  5
D5
331
F3
  5
D6
331
F4
  5
D7
331
F5
  5
D8
331
F6
  5
D9
331
F7
  5
DA
331
F8
  5
DB
331
F9
  5
DC
331
FA
  5
DD
331
104
  5
DE
331
105
  5
DF
331
106
  5
E0
331
107
  5
E1
331
108
  5
E2
331
109
  5
E3
331
10A
  5
E4
331
10B
  5
E5
331
10C
  5
E6
331
10D
  5
E7
331
10E
  5
E8
331
10F
  5
E9
331
110
  5
EA
331
111
  5
EB
331
112
  5
EC
331
113
  5
ED
331
114
  5
EE
331
115
  5
EF
331
116
  5
F0
331
117
  5
F1
331
118
  5
F2
331
119
  5
F3
331
11A
  5
F4
331
11B
  5
F5
331
11C
  5
F6
331
11D
  5
F7
331
11E
  5
F8
331
11F
  5
F9
331
120
  5
FA
331
121
  5
104
331
122
  5
105
331
123
  5
106
331
124
  5
107
331
125
  5
108
331
126
  5
109
331
127
  5
10A
331
128
  5
10B
331
129
  5
10C
331
12A
  5
4F3
331
12B
  5
4F5
331
12C
  5
4F7
331
12D
  5
4F9
331
12E
  5
4FB
331
12F
  5
4FD
331
130
  5
4FF
331
131
  5
501
331
132
  5
10D
331
133
  5
10E
331
134
  5
503
331
135
  5
505
331
136
  5
507
331
137
  5
10F
331
138
  5
110
331
139
  5
509
331
13A
  5
111
331
13B
  5
112
331
13C
  5
113
331
13D
  5
114
331
13E
  5
115
331
13F
  5
50B
331
140
  5
50D
331
141
  5
50F
331
142
  5
511
331
143
  5
513
331
144
  5
515
331
145
  5
517
331
146
  5
519
331
147
  5
116
331
148
  5
117
331
149
  5
118
331
14A
  5
119
331
14B
  5
11A
331
14C
  5
11B
331
14D
  5
11C
331
14E
  5
11D
331
14F
  5
11E
331
150
  5
11F
331
151
  5
120
331
152
  5
121
331
153
  5
122
331
154
  5
123
331
155
  5
124
331
156
  5
125
331
157
  5
126
331
158
  5
127
331
159
  5
128
331
15A
  5
129
331
15B
  5
12A
331
15C
  5
12B
331
15D
  5
12C
331
15E
  5
12D
331
15F
  5
12E
331
160
  5
12F
331
161
  5
130
331
162
  5
51B
331
163
  5
51D
331
164
  5
51F
331
165
  5
521
331
166
  5
523
331
167
  5
131
331
168
  5
132
331
169
  5
525
331
16A
  5
527
331
16B
  5
133
331
16C
  5
529
331
16D
  5
134
331
16E
  5
135
331
16F
  5
52B
331
170
  5
136
331
171
  5
52D
331
172
  5
52F
331
173
  5
137
331
174
  5
531
331
175
  5
138
331
176
  5
533
331
177
  5
535
331
17E
  5
13B
331
17F
  5
13C
331
180
  5
13D
331
181
  5
13E
331
182
  5
13F
331
183
  5
140
331
184
  5
141
331
185
  5
142
331
186
  5
143
331
187
  5
144
331
188
  5
145
331
189
  5
146
331
18A
  5
147
331
18B
  5
148
331
18C
  5
149
331
18D
  5
14A
331
18E
  5
14B
331
18F
  5
14C
331
190
  5
14D
331
191
  5
14E
331
192
  5
14F
331
193
  5
150
331
194
  5
151
331
195
  5
152
331
196
  5
153
331
197
  5
154
331
198
  5
155
331
199
  5
156
331
19A
  5
157
331
19B
  5
158
331
19C
  5
159
331
19D
  5
15A
331
19E
  5
15B
331
19F
  5
15C
331
1A0
  5
15D
331
1A1
  5
15E
331
1A2
  5
537
331
1A3
  5
539
331
1A4
  5
53B
331
1A5
  5
53D
331
1A6
  5
53F
331
1A7
  5
541
331
1A8
  5
15F
331
1A9
  5
160
331
1AA
  5
161
331
1AB
  5
162
331
1AC
  5
163
331
1AD
  5
164
331
1AE
  5
165
331
1AF
  5
166
331
1B0
  5
167
331
1B1
  5
168
331
1B2
  5
169
331
1B3
  5
16A
331
1B4
  5
16B
331
1B5
  5
16C
331
1B6
  5
16D
331
1B7
  5
16E
331
1B8
  5
16F
331
1B9
  5
170
331
1BA
  5
171
331
1BB
  5
172
331
1BC
  5
173
331
1BD
  5
174
331
1BE
  5
175
331
1BF
  5
176
331
1C0
  5
177
331
1C1
  5
178
331
1C2
  5
17B
331
1C3
  5
17E
331
1C4
  5
17F
331
1C5
  5
180
331
1C6
  5
181
331
1C7
  5
182
331
1C8
  5
183
331
1C9
  5
184
331
1CA
  5
185
331
1CB
  5
186
331
1CC
  5
187
331
1CD
  5
188
331
1CE
  5
189
331
1CF
  5
18A
331
1D0
  5
18B
331
1D1
  5
18C
331
1D2
  5
18D
331
1D3
  5
18E
331
1D4
  5
18F
331
1D5
  5
190
331
1D6
  5
191
331
1D7
  5
192
331
1D8
  5
193
331
1D9
  5
194
331
1DA
  5
195
331
1DB
  5
196
331
1DC
  5
197
331
1DD
  5
198
331
1DE
  5
199
331
1DF
  5
19A
331
1E0
  5
19B
331
1E1
  5
19C
331
1E2
  5
19D
331
1E3
  5
19E
331
1E4
  5
19F
331
1E5
  5
1A0
331
1E6
  5
1A1
331
1E7
  5
1A2
331
1E8
  5
1A3
331
1E9
  5
1A4
331
1EA
  5
1A5
331
1EB
  5
1A6
331
1EC
  5
1A7
331
1ED
  5
1A8
331
1EE
  5
1A9
331
1EF
  5
1AA
331
1F0
  5
1AB
331
1F1
  5
1AC
331
1F2
  5
1AD
331
1F3
  5
1AE
331
1F4
  5
1AF
331
1F5
  5
1B0
331
1F6
  5
1B1
331
1F7
  5
1B2
331
1F8
  5
1B3
331
1F9
  5
1B4
331
1FA
  5
1B5
331
1FB
  5
1B6
331
1FC
  5
1B7
331
1FD
  5
1B8
331
1FE
  5
1B9
331
1FF
  5
1BA
331
200
  5
1BB
331
201
  5
1BC
331
202
  5
1BD
331
203
  5
1BE
331
204
  5
1BF
331
205
  5
1C0
331
206
  5
1C1
331
207
  5
1C2
331
208
  5
1C3
331
209
  5
1C4
331
20A
  5
1C5
331
20B
  5
1C6
331
20C
  5
1C7
331
20D
  5
1C8
331
20E
  5
1C9
331
20F
  5
1CA
331
210
  5
1CB
331
211
  5
1CC
331
212
  5
1CD
331
213
  5
1CE
331
214
  5
1CF
331
215
  5
1D0
331
216
  5
1D1
331
217
  5
1D2
331
218
  5
1D3
331
219
  5
1D4
331
21A
  5
1D5
331
21B
  5
1D6
331
21C
  5
1D7
331
21D
  5
1D8
331
21E
  5
1D9
331
21F
  5
1DA
331
220
  5
1DB
331
221
  5
1DC
331
222
  5
1DD
331
223
  5
1DE
331
224
  5
1DF
331
225
  5
1E0
331
226
  5
1E1
331
227
  5
1E2
331
228
  5
1E3
331
229
  5
1E4
331
22A
  5
1E5
331
22B
  5
1E6
331
22C
  5
1E7
331
22D
  5
1E8
331
22E
  5
1E9
331
22F
  5
1EA
331
230
  5
1EB
331
231
  5
1EC
331
232
  5
1ED
331
233
  5
1EE
331
234
  5
1EF
331
235
  5
1F0
331
236
  5
1F1
331
237
  5
1F2
331
238
  5
1F3
331
239
  5
1F4
331
23A
  5
1F5
331
23B
  5
1F6
331
23C
  5
1F7
331
23D
  5
1F8
331
23E
  5
1F9
331
23F
  5
1FA
331
240
  5
1FB
331
241
  5
1FC
331
242
  5
1FD
331
243
  5
1FE
331
244
  5
1FF
331
245
  5
200
331
246
  5
201
331
247
  5
202
331
248
  5
203
331
249
  5
204
331
24A
  5
205
331
24B
  5
206
331
24C
  5
207
331
24D
  5
208
331
24E
  5
209
331
24F
  5
20A
331
250
  5
20B
331
251
  5
20C
331
252
  5
20D
331
253
  5
20E
331
254
  5
20F
331
255
  5
210
331
256
  5
211
331
257
  5
212
331
258
  5
213
331
259
  5
214
331
25A
  5
215
331
25B
  5
216
331
25C
  5
217
331
25D
  5
218
331
25E
  5
219
331
25F
  5
21A
331
260
  5
21B
331
261
  5
21C
331
262
  5
21D
331
263
  5
21E
331
264
  5
21F
331
265
  5
220
331
266
  5
221
331
267
  5
222
331
268
  5
223
331
269
  5
224
331
26A
  5
225
331
26B
  5
226
331
26C
  5
227
331
26D
  5
228
331
26E
  5
229
331
26F
  5
22A
331
270
  5
22B
331
271
  5
22C
331
272
  5
22D
331
273
  5
22E
331
274
  5
22F
331
275
  5
230
331
276
  5
231
331
277
  5
232
331
278
  5
233
331
279
  5
234
331
27A
  5
235
331
27B
  5
236
331
27C
  5
237
331
27D
  5
238
331
27E
  5
239
331
27F
  5
23A
331
280
  5
23B
331
281
  5
23C
331
282
  5
23D
331
283
  5
23E
331
284
  5
23F
331
285
  5
240
331
286
  5
241
331
287
  5
242
331
288
  5
243
331
289
  5
244
331
28A
  5
245
331
28B
  5
246
331
28C
  5
247
331
28D
  5
248
331
28E
  5
249
331
28F
  5
24A
331
290
  5
24B
331
291
  5
24C
331
292
  5
24D
331
293
  5
24E
331
294
  5
24F
331
295
  5
250
331
296
  5
251
331
297
  5
252
331
298
  5
253
331
299
  5
254
331
29A
  5
255
331
29B
  5
256
331
29C
  5
257
331
29D
  5
258
331
29E
  5
259
331
29F
  5
25A
331
2A0
  5
25B
331
2A1
  5
25C
331
2A2
  5
25D
331
2A3
  5
25E
331
2A4
  5
25F
331
2A5
  5
260
331
2A6
  5
261
331
2A7
  5
262
331
2A8
  5
263
331
2A9
  5
264
331
2AA
  5
265
331
2AB
  5
266
331
2AC
  5
267
331
2AD
  5
268
331
2AE
  5
269
331
2AF
  5
26A
331
2B0
  5
26B
331
2B1
  5
26C
331
2B2
  5
26D
331
2B3
  5
26E
331
2B4
  5
26F
331
2B5
  5
270
331
2B6
  5
271
331
2B7
  5
272
331
2B8
  5
273
331
2B9
  5
274
331
2BA
  5
275
331
2BB
  5
276
331
2BC
  5
277
331
2BD
  5
278
331
2BE
  5
279
331
2BF
  5
27A
331
2C0
  5
27B
331
2C1
  5
27C
331
2C2
  5
27D
331
2C3
  5
27E
331
2C4
  5
27F
331
2C5
  5
280
331
2C6
  5
281
331
2C7
  5
282
331
2C8
  5
283
331
2C9
  5
284
331
2CA
  5
285
331
2CB
  5
286
331
2CC
  5
287
331
2CD
  5
288
331
2CE
  5
289
331
2CF
  5
28A
331
2D0
  5
28B
331
2D1
  5
28C
331
2D2
  5
28D
331
2D3
  5
28E
331
2D4
  5
28F
331
2D5
  5
290
331
2D6
  5
291
331
2D7
  5
292
331
2D8
  5
293
331
2D9
  5
294
331
2DA
  5
295
331
2DB
  5
296
331
2DC
  5
297
331
2DD
  5
298
331
2DE
  5
299
331
2DF
  5
29A
331
2E0
  5
29B
331
2E1
  5
29C
331
2E2
  5
29D
331
2E3
  5
29E
331
2E4
  5
29F
331
2E5
  5
2A0
331
2E6
  5
2A1
331
2E7
  5
2A2
331
2E8
  5
2A3
331
2E9
  5
2A4
331
2EA
  5
2A5
331
2EB
  5
2A6
331
2EC
  5
2A7
331
2ED
  5
2A8
331
2EE
  5
2A9
331
2EF
  5
2AA
331
2F0
  5
2AB
331
2F1
  5
2AC
331
2F2
  5
2AD
331
2F3
  5
2AE
331
2F4
  5
2AF
331
2F5
  5
2B0
331
2F6
  5
2B1
331
2F7
  5
2B2
331
2F8
  5
2B3
331
2F9
  5
2B4
331
2FA
  5
2B5
331
2FB
  5
2B6
331
2FC
  5
2B7
331
2FD
  5
2B8
331
2FE
  5
2B9
331
2FF
  5
2BA
331
300
  5
2BB
331
301
  5
2BC
331
302
  5
2BD
331
303
  5
2BE
331
304
  5
2BF
331
305
  5
543
331
306
  5
2C0
331
307
  5
545
331
308
  5
2C1
331
309
  5
2C2
331
30A
  5
2C3
331
30B
  5
2C4
331
30C
  5
2C5
331
30D
  5
2C6
331
30E
  5
2C7
331
30F
  5
2C8
331
310
  5
2C9
331
311
  5
2CA
331
312
  5
2CB
331
313
  5
2CC
331
314
  5
2CD
331
315
  5
2CE
331
316
  5
2CF
331
317
  5
2D0
331
318
  5
2D1
331
319
  5
2D2
331
31A
  5
2D3
331
31B
  5
2D4
331
31C
  5
2D5
331
31D
  5
2D6
331
31E
  5
2D7
331
31F
  5
2D8
331
320
  5
2D9
331
321
  5
2DA
331
322
  5
2DB
331
323
  5
2DC
331
324
  5
2DD
331
325
  5
2DE
331
326
  5
2DF
331
327
  5
2E0
331
328
  5
2E1
331
329
  5
2E2
331
32A
  5
2E3
331
32B
  5
2E4
331
32C
  5
2E5
331
32D
  5
2E6
331
32E
  5
2E7
331
32F
  5
2E8
331
330
  5
2E9
331
331
  5
2EA
331
332
  5
2EB
331
333
  5
2EC
331
334
  5
2ED
331
335
  5
2EE
331
336
  5
2EF
331
337
  5
2F0
331
338
  5
2F1
331
339
  5
2F2
331
33A
  5
2F3
331
33B
  5
2F4
331
33C
  5
2F5
331
33D
  5
2F6
331
33E
  5
2F7
331
33F
  5
2F8
331
340
  5
2F9
331
341
  5
2FA
331
342
  5
2FB
331
343
  5
2FC
331
344
  5
2FD
331
345
  5
2FE
331
346
  5
2FF
331
347
  5
300
331
348
  5
301
331
349
  5
302
331
34A
  5
303
331
34B
  5
304
331
34C
  5
305
331
34D
  5
306
331
34E
  5
307
331
34F
  5
308
331
350
  5
309
331
351
  5
30A
331
352
  5
30B
331
353
  5
30C
331
354
  5
30D
331
355
  5
30E
331
356
  5
30F
331
357
  5
310
331
358
  5
311
331
359
  5
312
331
35A
  5
313
331
35B
  5
314
331
35C
  5
315
331
35D
  5
316
331
35E
  5
317
331
35F
  5
318
331
360
  5
319
331
361
  5
31A
331
362
  5
31B
331
363
  5
31C
331
364
  5
31D
331
365
  5
31E
331
366
  5
31F
331
367
  5
320
331
368
  5
321
331
369
  5
322
331
36A
  5
323
331
36B
  5
324
331
36C
  5
325
331
36D
  5
326
331
36E
  5
327
331
36F
  5
328
331
370
  5
329
331
371
  5
32A
331
372
  5
32B
331
373
  5
32C
331
374
  5
32D
331
375
  5
32E
331
376
  5
32F
331
377
  5
330
331
378
  5
331
331
379
  5
332
331
37A
  5
333
331
37B
  5
334
331
37C
  5
335
331
37D
  5
336
331
37E
  5
337
331
37F
  5
338
331
380
  5
339
331
381
  5
33A
331
382
  5
33B
331
383
  5
33C
331
384
  5
33D
331
385
  5
33E
331
386
  5
33F
331
387
  5
340
331
388
  5
341
331
389
  5
342
331
38A
  5
343
331
38B
  5
344
331
38C
  5
345
331
38D
  5
346
331
38E
  5
347
331
38F
  5
348
331
390
  5
349
331
391
  5
34A
331
392
  5
34B
331
393
  5
34C
331
394
  5
34D
331
395
  5
34E
331
396
  5
34F
331
397
  5
350
331
398
  5
351
331
399
  5
352
331
39A
  5
353
331
39B
  5
354
331
39C
  5
355
331
39D
  5
356
331
39E
  5
357
331
39F
  5
358
331
3A0
  5
359
331
3A1
  5
35A
331
3A2
  5
35B
331
3A3
  5
35C
331
3A4
  5
35D
331
3A5
  5
35E
331
3A6
  5
35F
331
3A7
  5
360
331
3A8
  5
361
331
3A9
  5
362
331
3AA
  5
363
331
3AB
  5
364
331
3AC
  5
365
331
3AD
  5
366
331
3AE
  5
367
331
3AF
  5
368
331
3B0
  5
369
331
3B1
  5
36A
331
3B2
  5
36B
331
3B3
  5
36C
331
3B4
  5
36D
331
3B5
  5
36E
331
3B6
  5
36F
331
3B7
  5
370
331
3B8
  5
371
331
3B9
  5
372
331
3BA
  5
373
331
3BB
  5
374
331
3BC
  5
375
331
3BD
  5
376
331
3BE
  5
377
331
3BF
  5
378
331
3C0
  5
379
331
3C1
  5
37A
331
3C2
  5
37B
331
3C3
  5
37C
331
3C4
  5
37D
331
3C5
  5
37E
331
3C6
  5
37F
331
3C7
  5
380
331
3C8
  5
381
331
3C9
  5
382
331
3CA
  5
383
331
3CB
  5
384
331
3CC
  5
385
331
3CD
  5
386
331
3CE
  5
387
331
3CF
  5
388
331
3D0
  5
389
331
3D1
  5
38A
331
3D2
  5
38B
331
3D3
  5
38C
331
3D4
  5
38D
331
3D5
  5
38E
331
3D6
  5
38F
331
3D7
  5
390
331
3D8
  5
391
331
3D9
  5
392
331
3DA
  5
393
331
3DB
  5
394
331
3DC
  5
395
331
3DD
  5
396
331
3DE
  5
397
331
3DF
  5
398
331
3E0
  5
399
331
3E1
  5
39A
331
3E2
  5
39B
331
3E3
  5
39C
331
3E4
  5
39D
331
3E5
  5
39E
331
3E6
  5
39F
331
3E7
  5
3A0
331
3E8
  5
3A1
331
3E9
  5
3A2
331
3EA
  5
3A3
331
3EB
  5
3A4
331
3EC
  5
3A5
331
3ED
  5
3A6
331
3EE
  5
3A7
331
3EF
  5
3A8
331
3F0
  5
3A9
331
3F1
  5
3AA
331
3F2
  5
3AB
331
3F3
  5
3AC
331
3F4
  5
3AD
331
3F5
  5
3AE
331
3F6
  5
3AF
331
3F7
  5
3B0
331
3F8
  5
3B1
331
3F9
  5
3B2
331
3FA
  5
3B3
331
3FB
  5
3B4
331
3FC
  5
3B5
331
3FD
  5
3B6
331
3FE
  5
3B7
331
3FF
  5
3B8
331
400
  5
3B9
331
401
  5
3BA
331
402
  5
3BB
331
403
  5
3BC
331
404
  5
3BD
331
405
  5
3BE
331
406
  5
3BF
331
407
  5
3C0
331
408
  5
3C1
331
409
  5
3C2
331
40A
  5
3C3
331
40B
  5
3C4
331
40C
  5
3C5
331
40D
  5
3C6
331
40E
  5
3C7
331
40F
  5
3C8
331
410
  5
3C9
331
411
  5
3CA
331
412
  5
3CB
331
413
  5
3CC
331
414
  5
3CD
331
415
  5
3CE
331
416
  5
3CF
331
417
  5
3D0
331
418
  5
3D1
331
419
  5
3D2
331
41A
  5
3D3
331
41B
  5
3D4
331
41C
  5
3D5
331
41D
  5
3D6
331
41E
  5
3D7
331
41F
  5
3D8
331
420
  5
3D9
331
421
  5
3DA
331
422
  5
3DB
331
423
  5
3DC
331
424
  5
3DD
331
425
  5
3DE
331
426
  5
3DF
331
427
  5
3E0
331
428
  5
3E1
331
429
  5
3E2
331
42A
  5
3E3
331
42B
  5
3E4
331
42C
  5
3E5
331
42D
  5
3E6
331
42E
  5
3E7
331
42F
  5
3E8
331
430
  5
3E9
331
431
  5
3EA
331
432
  5
3EB
331
433
  5
3EC
331
434
  5
3ED
331
435
  5
3EE
331
436
  5
3EF
331
437
  5
3F0
331
438
  5
3F1
331
439
  5
3F2
331
43A
  5
3F3
331
43B
  5
3F4
331
43C
  5
3F5
331
43D
  5
3F6
331
43E
  5
3F7
331
43F
  5
3F8
331
440
  5
3F9
331
441
  5
3FA
331
442
  5
3FB
331
443
  5
3FC
331
444
  5
3FD
331
445
  5
3FE
331
446
  5
3FF
331
447
  5
400
331
448
  5
401
331
449
  5
402
331
44A
  5
403
331
44B
  5
404
331
44C
  5
405
331
44D
  5
406
331
44E
  5
407
331
44F
  5
408
331
450
  5
409
331
451
  5
40A
331
452
  5
40B
331
453
  5
40C
331
454
  5
547
331
455
  5
40D
331
456
  5
40E
331
457
  5
40F
331
458
  5
410
331
459
  5
411
331
45A
  5
412
331
45B
  5
413
331
45C
  5
414
331
45D
  5
415
331
45E
  5
416
331
45F
  5
417
331
460
  5
418
331
461
  5
419
331
462
  5
41A
331
463
  5
41B
331
464
  5
41C
331
465
  5
41D
331
466
  5
41E
331
467
  5
41F
331
469
  5
420
331
46B
  5
421
331
46C
  5
422
331
46D
  5
423
331
46E
  5
424
331
46F
  5
425
331
470
  5
426
331
471
  5
427
331
472
  5
428
331
473
  5
429
331
474
  5
42A
331
475
  5
42B
331
476
  5
42C
331
477
  5
42D
331
478
  5
42E
331
479
  5
42F
331
47A
  5
430
331
47B
  5
549
331
47C
  5
54B
331
47D
  5
54D
331
47E
  5
54F
331
47F
  5
551
331
480
  5
553
331
481
  5
431
331
482
  5
432
331
483
  5
433
331
484
  5
434
331
485
  5
555
331
486
  5
557
331
487
  5
559
331
488
  5
435
331
489
  5
436
331
48A
  5
437
331
48B
  5
438
331
48C
  5
55B
331
48D
  5
439
331
48E
  5
43A
331
48F
  5
43B
331
490
  5
43C
331
491
  5
43D
331
492
  5
43E
331
493
  5
43F
331
494
  5
440
331
495
  5
441
331
496
  5
442
331
497
  5
443
331
498
  5
444
331
499
  5
445
331
49A
  5
446
331
49B
  5
447
331
49C
  5
448
331
49D
  5
449
331
49E
  5
44A
331
49F
  5
55D
331
4A0
  5
55F
331
4A1
  5
561
331
4A2
  5
563
331
4A3
  5
44B
331
4A4
  5
44C
331
4A5
  5
565
331
4A6
  5
567
331
4A7
  5
44D
331
4A8
  5
44E
331
4A9
  5
44F
331
4AA
  5
450
331
4AB
  5
451
331
4AC
  5
452
331
4AD
  5
569
331
4AE
  5
56B
331
4AF
  5
56D
331
4B0
  5
453
331
4B1
  5
454
331
4B2
  5
455
331
4B3
  5
456
331
4B4
  5
457
331
4B5
  5
458
331
4B6
  5
459
331
4B7
  5
45A
331
4B8
  5
45B
331
4B9
  5
45C
331
4BA
  5
45D
331
4BB
  5
45E
331
4BC
  5
45F
331
4BD
  5
460
331
4BE
  5
461
331
4BF
  5
462
331
4C0
  5
463
331
4C1
  5
464
331
4C2
  5
465
331
4C3
  5
56F
331
4C4
  5
571
331
4C5
  5
573
331
4C6
  5
575
331
4C7
  5
466
331
4C8
  5
467
331
4C9
  5
469
331
4CA
  5
46B
331
4CB
  5
577
331
4CC
  5
46C
331
4CD
  5
46D
331
4CE
  5
46E
331
4CF
  5
46F
331
4D0
  5
470
331
4D1
  5
471
331
4D2
  5
472
331
4D3
  5
473
331
4D4
  5
474
331
4D5
  5
475
331
4D6
  5
476
331
4D7
  5
477
331
4D8
  5
478
331
4D9
  5
479
331
4DA
  5
47A
331
4DB
  5
47B
331
4DC
  5
47C
331
4DD
  5
47D
331
4DE
  5
47E
331
4DF
  5
47F
331
4E0
  5
480
331
4E1
  5
481
331
4E2
  5
482
331
4E3
  5
483
331
4E4
  5
484
331
4E5
  5
579
331
4E6
  5
57B
331
4E7
  5
57D
331
4E8
  5
57E
331
4E9
  5
485
331
4EA
  5
486
331
4EB
  5
487
331
4EC
  5
488
331
4ED
  5
489
331
4EF
  5
48A
331
4F1
  5
48B
331
4F3
  5
48C
331
4F5
  5
48D
331
4F7
  5
48E
331
4F9
  5
48F
331
4FB
  5
490
331
4FD
  5
491
331
4FF
  5
492
331
501
  5
493
331
503
  5
494
331
505
  5
495
331
507
  5
496
331
509
  5
497
331
50B
  5
498
331
50D
  5
499
331
50F
  5
49A
331
511
  5
49B
331
513
  5
49C
331
515
  5
49D
331
517
  5
49E
331
519
  5
49F
331
51B
  5
4A0
331
51D
  5
4A1
331
51F
  5
4A2
331
521
  5
4A3
331
523
  5
4A4
331
525
  5
4A5
331
527
  5
4A6
331
529
  5
4A7
331
52B
  5
4A8
331
52D
  5
4A9
331
52F
  5
4AA
331
531
  5
4AB
331
533
  5
4AC
331
535
  5
4AD
331
537
  5
4AE
331
539
  5
4AF
331
53B
  5
4B0
331
53D
  5
4B1
331
53F
  5
4B2
331
541
  5
4B3
331
543
  5
4B4
331
545
  5
4B5
331
547
  5
4B6
331
549
  5
4B7
331
54B
  5
4B8
331
54D
  5
4B9
331
54F
  5
4BA
331
551
  5
4BB
331
553
  5
4BC
331
555
  5
4BD
331
557
  5
4BE
331
559
  5
4BF
331
55B
  5
4C0
331
55D
  5
4C1
331
55F
  5
4C2
331
561
  5
4C3
331
563
  5
4C4
331
565
  5
4C5
331
567
  5
4C6
331
569
  5
4C7
331
56B
  5
4C8
331
56D
  5
4C9
331
56F
  5
4CA
331
571
  5
4CB
331
573
  5
4CC
331
575
  5
4CD
331
577
  5
4CE
331
579
  5
4CF
331
57B
  5
589
331
57D
  5
4D0
331
57E
  5
4D1
331
589
  5
4D2
  0
LAYOUT
  5
602
102
{ACAD_REACTORS
330
5FE
330
5FE
102
}
102
{ACAD_XDICTIONARY
360
603
102
}
330
5FE
100
AcDbPlotSettings
  1

  2
none_device
  4
Letter_(8.50_x_11.00_Inches)
  6

 40
6.35
 41
6.35
 42
6.350006
 43
6.350006
 44
215.899994
 45
279.399994
 46
0.0
 47
0.0
 48
0.0
 49
0.0
140
0.0
141
0.0
142
1.0
143
1.0
 70
   688
 72
     0
 73
     1
 74
     5
  7

 75
    16
 76
     0
 77
     2
 78
   300
147
1.0
148
0.0
149
0.0
100
AcDbLayout
  1
Layout1
 70
     1
 71
     1
 10
-0.25
 20
-0.25
 11
10.75
 21
8.25
 12
0.0
 22
0.0
 32
0.0
 14
1.049744
 24
0.799667
 34
-0.001526
 15
9.450623
 25
7.200577
 35
0.0
146
0.0
 13
0.0
 23
0.0
 33
0.0
 16
1.0
 26
0.0
 36
0.0
 17
0.0
 27
1.0
 37
0.0
 76
     0
330
5FF
1001
ACAD_PSEXT
1000
None
1000
None
1000
Not applicable
1000
The layout will not be plotted unless a new plotter configuration name is selected.
1070
     0
  0
LAYOUT
  5
5FD
102
{ACAD_REACTORS
330
5FE
330
5FE
102
}
330
5FE
100
AcDbPlotSettings
  1

  2
none_device
  4
ANSI_A_(8.50_x_11.00_Inches)
  6

 40
6.35
 41
19.049999
 42
6.350006
 43
19.049988
 44
215.899994
 45
279.399994
 46
0.0
 47
0.0
 48
0.0
 49
0.0
140
0.0
141
0.0
142
1.0
143
2.584895
 70
 11952
 72
     0
 73
     1
 74
     0
  7

 75
     0
 76
     0
 77
     2
 78
   300
147
0.386863
148
0.0
149
0.0
100
AcDbLayout
  1
Model
 70
     1
 71
     0
 10
0.0
 20
0.0
 11
12.0
 21
9.0
 12
0.0
 22
0.0
 32
0.0
 14
0.0
 24
0.0
 34
0.0
 15
0.0
 25
0.0
 35
0.0
146
0.0
 13
0.0
 23
0.0
 33
0.0
 16
1.0
 26
0.0
 36
0.0
 17
0.0
 27
1.0
 37
0.0
 76
     0
330
5FA
331
49
  0
MLINESTYLE
  5
5F7
102
{ACAD_REACTORS
330
5F8
102
}
330
5F8
100
AcDbMlineStyle
  2
STANDARD
 70
     0
  3

 62
   256
 51
90.0
 52
90.0
 71
     2
 49
0.5
 62
   256
  6
BYLAYER
 49
-0.5
 62
   256
  6
BYLAYER
  0
ACDBPLACEHOLDER
  5
5EC
102
{ACAD_REACTORS
330
5ED
102
}
330
5ED
  0
XRECORD
  5
5DE
102
{ACAD_REACTORS
330
612
102
}
330
612
100
AcDbXrecord
280
     1
310
3E4F020000004D6F64656C6572000000000000000000000000000000000000000000000000000000000000000000000000000000000000000000000000000000000000000000000000000000000000000000000000000000000000000000000000000000000000000000000000000000000000000000000000000000000000
310
00000000000000000000000000000000000000000000000000000000000000000000000000000000000000000000000000000000000000000000000000000000000000000000000000000000000000000000000000000000000000000000000000000000000000000000000000000000000000000000000000000000000000
310
00
310
00000000000000000000000000000000000000000000000000000000000000000000000000000000000000000000000000000000000000000000000000000000000000000000000000000000000000000000000000000000000000000000000000000000000000000000000000000000000000000000000000000000000000
310
00000000000000000000000000000000000000000000000000000000000000000000000000000000000000000000000000000000000000000000000000000000000000000000000000000000000000000000000000000000000000000000000000000000000000000000000000000000000000000000000000000000000000
310
00
310
00000000000000000000000000000000000000000000000000000000000000000000000000000000000000000000000000000000000000000000000000000000000000000000000000000000000000000000000000000000000000000000000000000000000000000000000000000000000000000000000000000000000000
310
00000000000000000000000000000000000000000000000000000000000000000000000000000000000000000000000000000000000000000000000000000000000000000000000000000000000000000000000000000000000000000000000000000000000000000000000000000000000000000000000000000000000000
310
00
310
00000000000000000000000000000000000000000000000000000000000000000000000000000000000000000000000000000000000000000000000000000000000000000000000000000000000000000000000000000000000000000000000000000000000000000000000000000000000000000000000000000000000000
310
00000000000000000000000000000000000000000000000000000000000000000000000000000000000000000000000000000000000000000000000000000000000000000000000000000000000000000000000000000000000000000000000000000000000000000000000000000000000000000000000000000000000000
310
00
310
00000000000000000000000000000000000000000000000000000000000000000000000000000000000000000000000000000000000000000000000000000000000000000000000000000000000000000000000000000000000000000000000000000000000000000000000000000000000000000000000000000000000000
310
00000000000000000000000000000000000000000000000000000000000000000000000000000000000000000000000000000000000000000000000000000000000000000000000000000000000000000000000000000000000000000000000000000000000000000000000000000000000000000000000000000000000000
310
00
310
00000000000000000000000000000000000000000000000000000000000000000000000000000000000000000000000000000000000000000000000000000000000000000000000000000000000000000000000000000000000000000000000000000000000000000000000000000000000000000000000000000000000000
310
00000000000000000000000000000000000000000000000000000000000000000000000000000000000000000000000000000000000000000000000000000000000000000000000000000000000000000000000000000000000000000000000000000000000000000000000000000000000000000000000000000000000000
310
00
310
00000000000000000000000000000000000000000000000000000000000000000000000000000000000000000000000000000000000000000000000000000000000000000000000000000000000000000000000000000000000000000000000000000000000000000000000000000000000000000000000000000000000000
310
00000000000000000000000000000000000000000000000000000000000000000000000000000000000000000000000000000000000000000000000000000000000000000000000000000000000000000000000000000000000000000000000000000000000000000000000000000000000000000000000000000000000000
310
00
310
00000000000000000000000000000000000000000000000000000000000000000000000000000000000000000000000000000000000000000000000000000000000000000000000000000000000000000000000000000000000000000000000000000000000000000000000000000000000000000000000000000000000000
310
00000000000000000000000000000000000000000000000000000000000000000000000000000000000000000000000000000000000000000000000000000000000000000000000000000000000000000000000000000000000000000000000000000000000000000000000000000000000000000000000000000000000000
310
00
310
00000000000000000000000000000000000000000000000000000000000000000000000000000000000000000000000000000000000000000000000000000000000000000000000000000000000000000000000000000000000000000000000000000000000000000000000000000000000000000000000000000000000000
310
00000000000000000000000000000000000000000000000000000000000000000000000000000000000000000000000000000000000000000000000000000000000000000000000000000000000000000000000000000000000000000000000000000000000000000000000000000000000000000000000000000000000000
310
00
310
00000000000000000000000000000000000000000000000000000000000000000000000000000000000000000000000000000000000000000000000000000000000000000000000000000000000000000000000000000000000000000000000000000000000000000000000000000000000000000000000000000000000000
310
00000000000000000000000000000000000000000000000000000000000000000000000000000000000000000000000000000000000000000000000000000000000000000000000000000000000000000000000000000000000000000000000000000000000000000000000000000000000000000000000000000000000000
310
00
310
00000000000000000000000000000000000000000000000000000000000000000000000000000000000000000000000000000000000000000000000000000000000000000000000000000000000000000000000000000000000000000000000000000000000000000000000000000000000000000000000000000000000000
310
00000000000000000000000000000000000000000000000000000000000000000000000000000000000000000000000000000000000000000000000000000000000000000000000000000000000000000000000000000000000000000000000000000000000000000000000000000000000000000000000000000000000000
310
00
310
00000000000000000000000000000000000000000000000000000000000000000000000000000000000000000000000000000000000000000000000000000000000000000000000000000000000000000000000000000000000000000000000000000000000000000000000000000000000000000000000000000000000000
310
00000000000000000000000000000000000000000000000000000000000000000000000000000000000000000000000000000000000000000000000000000000000000000000000000000000000000000000000000000000000000000000000000000000000000000000000000000000000000000000000000000000000000
310
00
310
00000000000000000000000000000000000000000000000000000000000000000000000000000000000000000000000000000000000000000000000000000000000000000000000000000000000000000000000000000000000000000000000000000000000000000000000000000000000000000000000000000000000000
310
00000000000000000000000000000000000000000000000000000000000000000000000000000000000000000000000000000000000000000000000000000000000000000000000000000000000000000000000000000000000000000000000000000000000000000000000000000000000000000000000000000000000000
310
00
310
00000000000000000000000000000000000000000000000000000000000000000000000000000000000000000000000000000000000000000000000000000000000000000000000000000000000000000000000000000000000000000000000000000000000000000000000000000000000000
  0
XRECORD
  5
5E2
102
{ACAD_REACTORS
330
612
102
}
330
612
100
AcDbXrecord
280
     1
310
3E4F020000004D6F64656C6572000000000000000000000000000000000000000000000000000000000000000000000000000000000000000000000000000000000000000000000000000000000000000000000000000000000000000000000000000000000000000000000000000000000000000000000000000000000000
310
00000000000000000000000000000000000000000000000000000000000000000000000000000000000000000000000000000000000000000000000000000000000000000000000000000000000000000000000000000000000000000000000000000000000000000000000000000000000000000000000000000000000000
310
00
310
00000000000000000000000000000000000000000000000000000000000000000000000000000000000000000000000000000000000000000000000000000000000000000000000000000000000000000000000000000000000000000000000000000000000000000000000000000000000000000000000000000000000000
310
00000000000000000000000000000000000000000000000000000000000000000000000000000000000000000000000000000000000000000000000000000000000000000000000000000000000000000000000000000000000000000000000000000000000000000000000000000000000000000000000000000000000000
310
00
310
00000000000000000000000000000000000000000000000000000000000000000000000000000000000000000000000000000000000000000000000000000000000000000000000000000000000000000000000000000000000000000000000000000000000000000000000000000000000000000000000000000000000000
310
00000000000000000000000000000000000000000000000000000000000000000000000000000000000000000000000000000000000000000000000000000000000000000000000000000000000000000000000000000000000000000000000000000000000000000000000000000000000000000000000000000000000000
310
00
310
00000000000000000000000000000000000000000000000000000000000000000000000000000000000000000000000000000000000000000000000000000000000000000000000000000000000000000000000000000000000000000000000000000000000000000000000000000000000000000000000000000000000000
310
00000000000000000000000000000000000000000000000000000000000000000000000000000000000000000000000000000000000000000000000000000000000000000000000000000000000000000000000000000000000000000000000000000000000000000000000000000000000000000000000000000000000000
310
00
310
00000000000000000000000000000000000000000000000000000000000000000000000000000000000000000000000000000000000000000000000000000000000000000000000000000000000000000000000000000000000000000000000000000000000000000000000000000000000000000000000000000000000000
310
00000000000000000000000000000000000000000000000000000000000000000000000000000000000000000000000000000000000000000000000000000000000000000000000000000000000000000000000000000000000000000000000000000000000000000000000000000000000000000000000000000000000000
310
00
310
00000000000000000000000000000000000000000000000000000000000000000000000000000000000000000000000000000000000000000000000000000000000000000000000000000000000000000000000000000000000000000000000000000000000000000000000000000000000000000000000000000000000000
310
00000000000000000000000000000000000000000000000000000000000000000000000000000000000000000000000000000000000000000000000000000000000000000000000000000000000000000000000000000000000000000000000000000000000000000000000000000000000000000000000000000000000000
310
00
310
00000000000000000000000000000000000000000000000000000000000000000000000000000000000000000000000000000000000000000000000000000000000000000000000000000000000000000000000000000000000000000000000000000000000000000000000000000000000000000000000000000000000000
310
00000000000000000000000000000000000000000000000000000000000000000000000000000000000000000000000000000000000000000000000000000000000000000000000000000000000000000000000000000000000000000000000000000000000000000000000000000000000000000000000000000000000000
310
00
310
00000000000000000000000000000000000000000000000000000000000000000000000000000000000000000000000000000000000000000000000000000000000000000000000000000000000000000000000000000000000000000000000000000000000000000000000000000000000000000000000000000000000000
310
00000000000000000000000000000000000000000000000000000000000000000000000000000000000000000000000000000000000000000000000000000000000000000000000000000000000000000000000000000000000000000000000000000000000000000000000000000000000000000000000000000000000000
310
00
310
00000000000000000000000000000000000000000000000000000000000000000000000000000000000000000000000000000000000000000000000000000000000000000000000000000000000000000000000000000000000000000000000000000000000000000000000000000000000000000000000000000000000000
310
00000000000000000000000000000000000000000000000000000000000000000000000000000000000000000000000000000000000000000000000000000000000000000000000000000000000000000000000000000000000000000000000000000000000000000000000000000000000000000000000000000000000000
310
00
310
00000000000000000000000000000000000000000000000000000000000000000000000000000000000000000000000000000000000000000000000000000000000000000000000000000000000000000000000000000000000000000000000000000000000000000000000000000000000000000000000000000000000000
310
00000000000000000000000000000000000000000000000000000000000000000000000000000000000000000000000000000000000000000000000000000000000000000000000000000000000000000000000000000000000000000000000000000000000000000000000000000000000000000000000000000000000000
310
00
310
00000000000000000000000000000000000000000000000000000000000000000000000000000000000000000000000000000000000000000000000000000000000000000000000000000000000000000000000000000000000000000000000000000000000000000000000000000000000000000000000000000000000000
310
00000000000000000000000000000000000000000000000000000000000000000000000000000000000000000000000000000000000000000000000000000000000000000000000000000000000000000000000000000000000000000000000000000000000000000000000000000000000000000000000000000000000000
310
00
310
00000000000000000000000000000000000000000000000000000000000000000000000000000000000000000000000000000000000000000000000000000000000000000000000000000000000000000000000000000000000000000000000000000000000000000000000000000000000000000000000000000000000000
310
00000000000000000000000000000000000000000000000000000000000000000000000000000000000000000000000000000000000000000000000000000000000000000000000000000000000000000000000000000000000000000000000000000000000000000000000000000000000000000000000000000000000000
310
00
310
00000000000000000000000000000000000000000000000000000000000000000000000000000000000000000000000000000000000000000000000000000000000000000000000000000000000000000000000000000000000000000000000000000000000000000000000000000000000000000000000000000000000000
310
00000000000000000000000000000000000000000000000000000000000000000000000000000000000000000000000000000000000000000000000000000000000000000000000000000000000000000000000000000000000000000000000000000000000000000000000000000000000000000000000000000000000000
310
00
310
00000000000000000000000000000000000000000000000000000000000000000000000000000000000000000000000000000000000000000000000000000000000000000000000000000000000000000000000000000000000000000000000000000000000000000000000000000000000000
  0
XRECORD
  5
5E5
102
{ACAD_REACTORS
330
612
102
}
330
612
100
AcDbXrecord
280
     1
310
3E4F020000004D6F64656C6572000000000000000000000000000000000000000000000000000000000000000000000000000000000000000000000000000000000000000000000000000000000000000000000000000000000000000000000000000000000000000000000000000000000000000000000000000000000000
310
00000000000000000000000000000000000000000000000000000000000000000000000000000000000000000000000000000000000000000000000000000000000000000000000000000000000000000000000000000000000000000000000000000000000000000000000000000000000000000000000000000000000000
310
00
310
00000000000000000000000000000000000000000000000000000000000000000000000000000000000000000000000000000000000000000000000000000000000000000000000000000000000000000000000000000000000000000000000000000000000000000000000000000000000000000000000000000000000000
310
00000000000000000000000000000000000000000000000000000000000000000000000000000000000000000000000000000000000000000000000000000000000000000000000000000000000000000000000000000000000000000000000000000000000000000000000000000000000000000000000000000000000000
310
00
310
00000000000000000000000000000000000000000000000000000000000000000000000000000000000000000000000000000000000000000000000000000000000000000000000000000000000000000000000000000000000000000000000000000000000000000000000000000000000000000000000000000000000000
310
00000000000000000000000000000000000000000000000000000000000000000000000000000000000000000000000000000000000000000000000000000000000000000000000000000000000000000000000000000000000000000000000000000000000000000000000000000000000000000000000000000000000000
310
00
310
00000000000000000000000000000000000000000000000000000000000000000000000000000000000000000000000000000000000000000000000000000000000000000000000000000000000000000000000000000000000000000000000000000000000000000000000000000000000000000000000000000000000000
310
00000000000000000000000000000000000000000000000000000000000000000000000000000000000000000000000000000000000000000000000000000000000000000000000000000000000000000000000000000000000000000000000000000000000000000000000000000000000000000000000000000000000000
310
00
310
00000000000000000000000000000000000000000000000000000000000000000000000000000000000000000000000000000000000000000000000000000000000000000000000000000000000000000000000000000000000000000000000000000000000000000000000000000000000000000000000000000000000000
310
00000000000000000000000000000000000000000000000000000000000000000000000000000000000000000000000000000000000000000000000000000000000000000000000000000000000000000000000000000000000000000000000000000000000000000000000000000000000000000000000000000000000000
310
00
310
00000000000000000000000000000000000000000000000000000000000000000000000000000000000000000000000000000000000000000000000000000000000000000000000000000000000000000000000000000000000000000000000000000000000000000000000000000000000000000000000000000000000000
310
00000000000000000000000000000000000000000000000000000000000000000000000000000000000000000000000000000000000000000000000000000000000000000000000000000000000000000000000000000000000000000000000000000000000000000000000000000000000000000000000000000000000000
310
00
310
00000000000000000000000000000000000000000000000000000000000000000000000000000000000000000000000000000000000000000000000000000000000000000000000000000000000000000000000000000000000000000000000000000000000000000000000000000000000000000000000000000000000000
310
00000000000000000000000000000000000000000000000000000000000000000000000000000000000000000000000000000000000000000000000000000000000000000000000000000000000000000000000000000000000000000000000000000000000000000000000000000000000000000000000000000000000000
310
00
310
00000000000000000000000000000000000000000000000000000000000000000000000000000000000000000000000000000000000000000000000000000000000000000000000000000000000000000000000000000000000000000000000000000000000000000000000000000000000000000000000000000000000000
310
00000000000000000000000000000000000000000000000000000000000000000000000000000000000000000000000000000000000000000000000000000000000000000000000000000000000000000000000000000000000000000000000000000000000000000000000000000000000000000000000000000000000000
310
00
310
00000000000000000000000000000000000000000000000000000000000000000000000000000000000000000000000000000000000000000000000000000000000000000000000000000000000000000000000000000000000000000000000000000000000000000000000000000000000000000000000000000000000000
310
00000000000000000000000000000000000000000000000000000000000000000000000000000000000000000000000000000000000000000000000000000000000000000000000000000000000000000000000000000000000000000000000000000000000000000000000000000000000000000000000000000000000000
310
00
310
00000000000000000000000000000000000000000000000000000000000000000000000000000000000000000000000000000000000000000000000000000000000000000000000000000000000000000000000000000000000000000000000000000000000000000000000000000000000000000000000000000000000000
310
00000000000000000000000000000000000000000000000000000000000000000000000000000000000000000000000000000000000000000000000000000000000000000000000000000000000000000000000000000000000000000000000000000000000000000000000000000000000000000000000000000000000000
310
00
310
00000000000000000000000000000000000000000000000000000000000000000000000000000000000000000000000000000000000000000000000000000000000000000000000000000000000000000000000000000000000000000000000000000000000000000000000000000000000000000000000000000000000000
310
00000000000000000000000000000000000000000000000000000000000000000000000000000000000000000000000000000000000000000000000000000000000000000000000000000000000000000000000000000000000000000000000000000000000000000000000000000000000000000000000000000000000000
310
00
310
00000000000000000000000000000000000000000000000000000000000000000000000000000000000000000000000000000000000000000000000000000000000000000000000000000000000000000000000000000000000000000000000000000000000000000000000000000000000000000000000000000000000000
310
00000000000000000000000000000000000000000000000000000000000000000000000000000000000000000000000000000000000000000000000000000000000000000000000000000000000000000000000000000000000000000000000000000000000000000000000000000000000000000000000000000000000000
310
00
310
00000000000000000000000000000000000000000000000000000000000000000000000000000000000000000000000000000000000000000000000000000000000000000000000000000000000000000000000000000000000000000000000000000000000000000000000000000000000000000000000000000000000000
310
00000000000000000000000000000000000000000000000000000000000000000000000000000000000000000000000000000000000000000000000000000000000000000000000000000000000000000000000000000000000000000000000000000000000000000000000000000000000000000000000000000000000000
310
00
310
00000000000000000000000000000000000000000000000000000000000000000000000000000000000000000000000000000000000000000000000000000000000000000000000000000000000000000000000000000000000000000000000000000000000000000000000000000000000000
  0
XRECORD
  5
5E6
102
{ACAD_REACTORS
330
612
102
}
330
612
100
AcDbXrecord
280
     1
310
3E4F020000004D6F64656C6572000000000000000000000000000000000000000000000000000000000000000000000000000000000000000000000000000000000000000000000000000000000000000000000000000000000000000000000000000000000000000000000000000000000000000000000000000000000000
310
00000000000000000000000000000000000000000000000000000000000000000000000000000000000000000000000000000000000000000000000000000000000000000000000000000000000000000000000000000000000000000000000000000000000000000000000000000000000000000000000000000000000000
310
00
310
00000000000000000000000000000000000000000000000000000000000000000000000000000000000000000000000000000000000000000000000000000000000000000000000000000000000000000000000000000000000000000000000000000000000000000000000000000000000000000000000000000000000000
310
00000000000000000000000000000000000000000000000000000000000000000000000000000000000000000000000000000000000000000000000000000000000000000000000000000000000000000000000000000000000000000000000000000000000000000000000000000000000000000000000000000000000000
310
00
310
00000000000000000000000000000000000000000000000000000000000000000000000000000000000000000000000000000000000000000000000000000000000000000000000000000000000000000000000000000000000000000000000000000000000000000000000000000000000000000000000000000000000000
310
00000000000000000000000000000000000000000000000000000000000000000000000000000000000000000000000000000000000000000000000000000000000000000000000000000000000000000000000000000000000000000000000000000000000000000000000000000000000000000000000000000000000000
310
00
310
00000000000000000000000000000000000000000000000000000000000000000000000000000000000000000000000000000000000000000000000000000000000000000000000000000000000000000000000000000000000000000000000000000000000000000000000000000000000000000000000000000000000000
310
00000000000000000000000000000000000000000000000000000000000000000000000000000000000000000000000000000000000000000000000000000000000000000000000000000000000000000000000000000000000000000000000000000000000000000000000000000000000000000000000000000000000000
310
00
310
00000000000000000000000000000000000000000000000000000000000000000000000000000000000000000000000000000000000000000000000000000000000000000000000000000000000000000000000000000000000000000000000000000000000000000000000000000000000000000000000000000000000000
310
00000000000000000000000000000000000000000000000000000000000000000000000000000000000000000000000000000000000000000000000000000000000000000000000000000000000000000000000000000000000000000000000000000000000000000000000000000000000000000000000000000000000000
310
00
310
00000000000000000000000000000000000000000000000000000000000000000000000000000000000000000000000000000000000000000000000000000000000000000000000000000000000000000000000000000000000000000000000000000000000000000000000000000000000000000000000000000000000000
310
00000000000000000000000000000000000000000000000000000000000000000000000000000000000000000000000000000000000000000000000000000000000000000000000000000000000000000000000000000000000000000000000000000000000000000000000000000000000000000000000000000000000000
310
00
310
00000000000000000000000000000000000000000000000000000000000000000000000000000000000000000000000000000000000000000000000000000000000000000000000000000000000000000000000000000000000000000000000000000000000000000000000000000000000000000000000000000000000000
310
00000000000000000000000000000000000000000000000000000000000000000000000000000000000000000000000000000000000000000000000000000000000000000000000000000000000000000000000000000000000000000000000000000000000000000000000000000000000000000000000000000000000000
310
00
310
00000000000000000000000000000000000000000000000000000000000000000000000000000000000000000000000000000000000000000000000000000000000000000000000000000000000000000000000000000000000000000000000000000000000000000000000000000000000000000000000000000000000000
310
00000000000000000000000000000000000000000000000000000000000000000000000000000000000000000000000000000000000000000000000000000000000000000000000000000000000000000000000000000000000000000000000000000000000000000000000000000000000000000000000000000000000000
310
00
310
00000000000000000000000000000000000000000000000000000000000000000000000000000000000000000000000000000000000000000000000000000000000000000000000000000000000000000000000000000000000000000000000000000000000000000000000000000000000000000000000000000000000000
310
00000000000000000000000000000000000000000000000000000000000000000000000000000000000000000000000000000000000000000000000000000000000000000000000000000000000000000000000000000000000000000000000000000000000000000000000000000000000000000000000000000000000000
310
00
310
00000000000000000000000000000000000000000000000000000000000000000000000000000000000000000000000000000000000000000000000000000000000000000000000000000000000000000000000000000000000000000000000000000000000000000000000000000000000000000000000000000000000000
310
00000000000000000000000000000000000000000000000000000000000000000000000000000000000000000000000000000000000000000000000000000000000000000000000000000000000000000000000000000000000000000000000000000000000000000000000000000000000000000000000000000000000000
310
00
310
00000000000000000000000000000000000000000000000000000000000000000000000000000000000000000000000000000000000000000000000000000000000000000000000000000000000000000000000000000000000000000000000000000000000000000000000000000000000000000000000000000000000000
310
00000000000000000000000000000000000000000000000000000000000000000000000000000000000000000000000000000000000000000000000000000000000000000000000000000000000000000000000000000000000000000000000000000000000000000000000000000000000000000000000000000000000000
310
00
310
00000000000000000000000000000000000000000000000000000000000000000000000000000000000000000000000000000000000000000000000000000000000000000000000000000000000000000000000000000000000000000000000000000000000000000000000000000000000000000000000000000000000000
310
00000000000000000000000000000000000000000000000000000000000000000000000000000000000000000000000000000000000000000000000000000000000000000000000000000000000000000000000000000000000000000000000000000000000000000000000000000000000000000000000000000000000000
310
00
310
00000000000000000000000000000000000000000000000000000000000000000000000000000000000000000000000000000000000000000000000000000000000000000000000000000000000000000000000000000000000000000000000000000000000000000000000000000000000000000000000000000000000000
310
00000000000000000000000000000000000000000000000000000000000000000000000000000000000000000000000000000000000000000000000000000000000000000000000000000000000000000000000000000000000000000000000000000000000000000000000000000000000000000000000000000000000000
310
00
310
00000000000000000000000000000000000000000000000000000000000000000000000000000000000000000000000000000000000000000000000000000000000000000000000000000000000000000000000000000000000000000000000000000000000000000000000000000000000000
  0
XRECORD
  5
5DD
102
{ACAD_REACTORS
330
612
102
}
330
612
100
AcDbXrecord
280
     1
310
DF56060034040701D0009A9999999999B93F000000000000000000000000000000000400000009000000000000000200000064000000640000000100000001000000190000007B14AE47E17A843F00000000004060409A9999999999B93F00000000004C2D41000000000070F7400000000000942141000000000000000000
310
0000000000000000000000000000000AD482040000000000000000000000000000F03F000000000000000000000000000030402D431CEBE2362A3F00000000000008400000000000000000009807C000000000000000007C1A61B9A711364020000000050000000A000000200000002000000020000000000000000000F03F
310
00
310
0000000000F03F000000000000F03F333333333333D33F333333333333D33F333333333333D33F000000000000F43F000000000000F43F000000000000F03F0200000064000000000000000000000000000840000000000000F83F00000000000000000000000000000000008056409A9999999999B93F0000000000000000
310
00000000000000000000000000000000000000000000000000000000000000000000000000000000000000000000000000000000000000000000000000000000000000000000000000000000000000000000000000000000000000000000000000000000000000000000000000000000000000000000000000000000000000
310
00
310
0000000000000000000000000000000000000000000000000000000000000000000000000000000000000000000000000000000000000000000000000000000000000000000000000000000000000000000000000000000000000000000000000000000000000000000000000000000000000000000000009A9999999999A9
310
3F9100000000000000000000000000000035A781D547960F40000000000000F03F000000000000F03F666666666666164000000000104068F200000000000000000000000000000000000000000000000000000000000000000000000000000000000000000000000000000000000000000000000000000000000000000000
310
00
310
00000000000000000000000000000000000000000000000000000000000000000000000000000000000000000000000000000000000000000000000000000000000000000000000000000000000000000000000000000000000000000000000000000000000000000000000000000000000000000000000000000000000000
310
000000000000000000000000000000000000000000000000000000000000000000000000000000000000000000000000000000000000000000000000FF000000000000000000000000000000000000000000000000000000000000000000000000000000000000000000000000000000000000000000000000000000000000
310
00
310
0000000000000000000000000000000000000000000000000000000000000000000000000000000000000000000000000000000000000000000000000000000000000000
  0
DICTIONARY
  5
603
330
602
100
AcDbDictionary
280
     1
281
     1
  3
ADSK_XREC_LAYOUTTHUMBNAIL
360
604
  0
XRECORD
  5
604
102
{ACAD_REACTORS
330
603
102
}
330
603
100
AcDbXrecord
280
     1
310
28000000B40000008B0000000100080000000000BC61000000000000000000000001000000000000FFFFFF0000000000FFFFFF000000000000000000000000000000000000000000000000000000000000000000330000006600000099000000CC000000FF00000000330000333300006633000099330000CC330000FF3300
310
0000660000336600006666000099660000CC660000FF66000000990000339900006699000099990000CC990000FF99000000CC000033CC000066CC000099CC0000CCCC0000FFCC000000FF000033FF000066FF000099FF0000CCFF0000FFFF000000003300330033006600330099003300CC003300FF003300003333003333
310
33006633330099333300CC333300FF33330000663300336633006666330099663300CC663300FF66330000993300339933006699330099993300CC993300FF99330000CC330033CC330066CC330099CC3300CCCC3300FFCC330000FF330033FF330066FF330099FF3300CCFF3300FFFF330000006600330066006600660099
310
006600CC006600FF00660000336600333366006633660099336600CC336600FF33660000666600336666006666660099666600CC666600FF66660000996600339966006699660099996600CC996600FF99660000CC660033CC660066CC660099CC6600CCCC6600FFCC660000FF660033FF660066FF660099FF6600CCFF6600
310
FFFF660000009900330099006600990099009900CC009900FF00990000339900333399006633990099339900CC339900FF33990000669900336699006666990099669900CC669900FF66990000999900339999006699990099999900CC999900FF99990000CC990033CC990066CC990099CC9900CCCC9900FFCC990000FF99
310
0033FF990066FF990099FF9900CCFF9900FFFF99000000CC003300CC006600CC009900CC00CC00CC00FF00CC000033CC003333CC006633CC009933CC00CC33CC00FF33CC000066CC003366CC006666CC009966CC00CC66CC00FF66CC000099CC003399CC006699CC009999CC00CC99CC00FF99CC0000CCCC0033CCCC0066CC
310
CC0099CCCC00CCCCCC00FFCCCC0000FFCC0033FFCC0066FFCC0099FFCC00CCFFCC00FFFFCC000000FF003300FF006600FF009900FF00CC00FF00FF00FF000033FF003333FF006633FF009933FF00CC33FF00FF33FF000066FF003366FF006666FF009966FF00CC66FF00FF66FF000099FF003399FF006699FF009999FF00CC
310
99FF00FF99FF0000CCFF0033CCFF0066CCFF0099CCFF00CCCCFF00FFCCFF0000FFFF0033FFFF0066FFFF0099FFFF00CCFFFF00FFFFFF00000000000D0D0D001A1A1A00282828003535350043434300505050005D5D5D006B6B6B00787878008686860093939300A1A1A100AEAEAE00BBBBBB00C9C9C900D6D6D600E4E4E400
310
F1F1F100FFFFFF0000000000000000000000000000000000000000000000000000000000000000000000000000000000E2E2E2E2E2E2E2E2E2E2E2E2E2E2E2E2E2E2E2E2E2E2E2E2E2E2E2E2E2E2E2E2E2E2E2E2E2E2E2E2E2E2E2E2E2E2E2E2E2E2E2E2E2E2E2E2E2E2E2E2E2E2E2E2E2E2E2E2E2E2E2E2E2E2E2E2E2E2E2
310
E2E2E2E2E2E2E2E2E2E2E2E2E2E2E2E2E2E2E2E2E2E2E2E2E2E2E2E2E2E2E2E2E2E2E2E2E2E2E2E2E2E2E2E2E2E2E2E2E2E2E2E2E2E2E2E2E2E2E2E2E2E2E2E2E2E2E2E2E2E2E2E2E2E2E2E2E2E2E2E2E2E2E2E2E2E2E2E2E2E2E2E2E2E2E2E2E2E2E2E2EFF5F5F5F5F5F5F5F5F5F5F5F5F5F5F5F5F5F5F5F5F5F5F5F5F5F5
310
F5F5F5F5F5F5F5F5F5F5F5F5F5F5F5F5F5F5F5F5F5F5F5F5F5F5F5F5F5F5F5F5F5F5F5F5F5F5F5F5F5F5F5F5F5F5F5F5F5F5F5F5F5F5F5F5F5F5F5F5F5F5F5F5F5F5F5F5F5F5F5F5F5F5F5F5F5F5F5F5F5F5F5F5F5F5F5F5F5F5F5F5F5F5F5F5F5F5F5F5F5F5F5F5F5F5F5F5F5F5F5F5F5F5F5F5F5F5F5F5F5F5F5F5F5F5F5
310
F5F5F5F5F5F5F5F5F5F5F5F5F5F5F5F5F5F5F5F5F5F5F5F5E2E2EFF5F5F5F5F5F5F5F5F5F5F5F5F5F5F5F5F5F5F5F5F5F5F5F5F5F5F5F5F5F5F5F5F5F5F5F5F5F5F5F5F5F5F5F5F5F5F5F5F5F5F5F5F5F5F5F5F5F5F5F5F5F5F5F5F5F5F5F5F5F5F5F5F5F5F5F5F5F5F5F5F5F5F5F5F5F5F5F5F5F5F5F5F5F5F5F5F5F5F5F5
310
F5F5F5F5F5F5F5F5F5F5F5F5F5F5F5F5F5F5F5F5F5F5F5F5F5F5F5F5F5F5F5F5F5F5F5F5F5F5F5F5F5F5F5F5F5F5F5F5F5F5F5F5F5F5F5F5F5F5F5F5F5F5F5F5F5F5F5F5F5F5F5F5F5F5F5F5F5E2E2EFF5F5F5F5F5F5F5F5F5F5F5F5F5F5F5F5F5F5F5F5F5F5F5F5F5F5F5F5F5F5F5F5F5F5F5F5F5F5F5F5F5F5F5F5F5F5F5
310
F5F5F5F5F5F5F5F5F5F5F5F5F5F5F5F5F5F5F5F5F5F5F5F5F5F5F5F5F5F5F5F5F5F5F5F5F5F5F5F5F5F5F5F5F5F5F5F5F5F5F5F5F5F5F5F5F5F5F5F5F5F5F5F5F5F5F5F5F5F5F5F5F5F5F5F5F5F5F5F5F5F5F5F5F5F5F5F5F5F5F5F5F5F5F5F5F5F5F5F5F5F5F5F5F5F5F5F5F5F5F5F5F5F5F5F5F5F5F5F5F5F5F5F5F5F5F5
310
F5F5F5E2E2EFF5F5F5E2E2E2E2E2E2E2E2F5F5F5F5F5F5F5F5F5E2E2E2E2E2E2E2E2E2E2E2E2E2E2E2E2F5F5F5F5F5F5F5F5E2E2E2E2E2E2E2E2E2E2E2E2E2E2E2E2F5F5F5F5F5F5F5F5F5E2E2E2E2E2E2E2E2E2E2E2E2E2E2E2F5F5F5F5F5F5F5F5F5E2E2E2E2E2E2E2E2E2E2E2E2E2E2E2F5F5F5F5F5F5F5F5F5E2E2E2E2
310
E2E2E2E2E2E2E2E2E2E2E2E2F5F5F5F5F5F5F5F5E2E2E2E2E2E2E2E2E2E2E2E2E2E2E2E2F5F5F5F5F5F5F5F5F5E2E2E2E2E2E2E2E2F5F5F5E2E2EFF5F5F5E2F5F5F5F5F5F5F5F5F5F5F5F5F5F5F5F5F5F5F5F5F5F5F5F5F5F5F5F5F5F5F5F5F5F5F5F5F5F5F5F5F5F5F5F5F5F5F5F5F5F5F5F5F5F5F5F5F5F5F5F5F5F5F5F5
310
F5F5F5F5F5F5F5F5F5F5F5F5F5F5F5F5F5F5F5F5F5F5F5F5F5F5F5F5F5F5F5F5F5F5F5F5F5F5F5F5F5F5F5F5F5F5F5F5F5F5F5F5F5F5F5F5F5F5F5F5F5F5F5F5F5F5F5F5F5F5F5F5F5F5F5F5F5F5F5F5F5F5F5F5F5F5F5F5F5F5F5F5F5F5F5F5F5F5F5F5F5F5F5F5F5E2F5F5F5E2E2EFF5F5F5E2F5F5F5F5F5F5F5F5F5F5F5
310
F5F5F5F5F5F5F5F5F5F5F5F5F5F5F5F5F5F5F5F5F5F5F5F5F5F5F5F5F5F5F5F5F5F5F5F5F5F5F5F5F5F5F5F5F5F5F5F5F5F5F5F5F5F5F5F5F5F5F5F5F5F5F5F5F5F5F5F5F5F5F5F5F5F5F5F5F5F5F5F5F5F5F5F5F5F5F5F5F5F5F5F5F5F5F5F5F5F5F5F5F5F5F5F5F5F5F5F5F5F5F5F5F5F5F5F5F5F5F5F5F5F5F5F5F5F5F5
310
F5F5F5F5F5F5F5F5F5F5F5F5F5F5F5F5F5F5F5F5F5F5F5F5F5F5F5F5F5F5F5E2F5F5F5E2E2EFF5F5F5E2F5F5F5F5F5F5F5F5F5F5F5F5F5F5F5F5F5F5F5F5F5F5F5F5F5F5F5F5F5F5F5F5F5F5F5F5F5F5F5F5F5F5F5F5F5F5F5F5F5F5F5F5F5F5F5F5F5F5F5F5F5F5F5F5F5F5F5F5F5F5F5F5F5F5F5F5F5F5F5F5F5F5F5F5F5
310
F5F5F5F5F5F5F5F5F5F5F5F5F5F5F5F5F5F5F5F5F5F5F5F5F5F5F5F5F5F5F5F5F5F5F5F5F5F5F5F5F5F5F5F5F5F5F5F5F5F5F5F5F5F5F5F5F5F5F5F5F5F5F5F5F5F5F5F5F5F5F5F5F5F5F5F5F5F5F5F5F5F5F5F5E2F5F5F5E2E2EFF5F5F5E2F5F5F5F5F5F5F5F5F5F5F5F5F5F5F5F5F5F5F5F5F5F5F5F5F5F5F5F5F5F5F5F5
310
F5F5F5F5F5F5F5F5F5F5F5F5F5F5F5F5F5F5F5F5F5F5F5F5F5F5F5F5F5F5F5F5F5F5F5F5F5F5F5F5F5F5F5F5F5F5F5F5F5F5F5F5F5F5F5F5F5F5F5F5F5F5F5F5F5F5F5F5F5F5F5F5F5F5F5F5F5F5F5F5F5F5F5F5F5F5F5F5F5F5F5F5F5F5F5F5F5F5F5F5F5F5F5F5F5F5F5F5F5F5F5F5F5F5F5F5F5F5F5F5F5F5F5F5F5F5F5
310
F5F5F5F5F5F5F5F5F5F5E2F5F5F5E2E2EFF5F5F5E2F5F5F5F5F5F5F5F5F5F5F5F5F5F5F5F5F5F5F5F5F5F5F5F5F5F5F5F5F5F5F5F5F5F5F5F5F5F5F5F5F5F5F5F5F5F5F5F5F5F5F5F5F5F5F5F5F5F5F5F5F5F5F5F5F5F5F5F5F5F5F5F5F5F5F5F5F5F5F5F5F5F5F5F5F5F5F5F5F5F5F5F5F5F5F5F5F5F5F5F5F5F5F5F5F5F5
310
F5F5F5F5F5F5F5F5F5F5F5F5F5F5F5F5F5F5F5F5F5F5F5F5F5F5F5F5F5F5F5F5F5F5F5F5F5F5F5F5F5F5F5F5F5F5F5F5F5F5F5F5F5F5F5F5F5F5F5F5F5F5F5E2F5F5F5E2E2EFF5F5F5E2F5F5F5F5F5F5F5F5F5F5F5F5F5F5F5F5F5F5F5F5F5F5F5F5F5F5F5F5F5F5F5F5F5F5F5F5F5F5F5F5F5F5F5F5F5F5F5F5F5F5F5F5F5
310
F5F5F5F5F5F5F5F5F5F5F5F5F5F5F5F5F5F5F5F5F5F5F5F5F5F5F5F5F5F5F5F5F5F5F5F5F5F5F5F5F5F5F5F5F5F5F5F5F5F5F5F5F5F5F5F5F5F5F5F5F5F5F5F5F5F5F5F5F5F5F5F5F5F5F5F5F5F5F5F5F5F5F5F5F5F5F5F5F5F5F5F5F5F5F5F5F5F5F5F5F5F5F5F5F5F5F5F5F5F5F5F5F5F5F5F5E2F5F5F5E2E2EFF5F5F5E2
310
F5F5F5F5F5F5F5F5F5F5F5F5F5F5F5F5F5F5F5F5F5F5F5F5F5F5F5F5F5F5F5F5F5F5F5F5F5F5F5F5F5F5F5F5F5F5F5F5F5F5F5F5F5F5F5F5F5F5F5F5F5F5F5F5F5F5F5F5F5F5F5F5F5F5F5F5F5F5F5F5F5F5F5F5F5F5F5F5F5F5F5F5F5F5F5F5F5F5F5F5F5F5F5F5F5F5F5F5F5F5F5F5F5F5F5F5F5F5F5F5F5F5F5F5F5F5F5
310
F5F5F5F5F5F5F5F5F5F5F5F5F5F5F5F5F5F5F5F5F5F5F5F5F5F5F5F5F5F5F5F5F5F5F5F5F5F5F5F5F5F5E2F5F5F5E2E2EFF5F5F5E2F5F5F5F5F5F5F5F5F5F5F5F5F5F5F5F5F5F5F5F5F5F5F5F5F5F5F5F5F5F5F5F5F5F5F5F5F5F5F5F5F5F5F5F5F5F5F5F5F5F5F5F5F5F5F5F5F5F5F5F5F5F5F5F5F5F5F5F5F5F5F5F5F5F5
310
F5F5F5F5F5F5F5F5F5F5F5F5F5F5F5F5F5F5F5F5F5F5F5F5F5F5F5F5F5F5F5F5F5F5F5F5F5F5F5F5F5F5F5F5F5F5F5F5F5F5F5F5F5F5F5F5F5F5F5F5F5F5F5F5F5F5F5F5F5F5F5F5F5F5F5F5F5F5F5F5F5F5F5F5F5F5F5F5F5F5F5F5F5F5F5E2F5F5F5E2E2EFF5F5F5F5F5F5F5F5F5F5F5F5F5F5F5F5F5F5F5F5F5F5F5F5F5
310
F5F5F5F5F5F5F5F5F5F5F5F5F5F5F5F5F5F5F5F5F5F5F5F5F5F5F5F5F5F5F5F5F5F5F5F5F5F5F5F5F5F5F5F5F5F5F5F5F5F5F5F5F5F5F5F5F5F5F5F5F5F5F5F5F5F5F5F5F5F5F5F5F5F5F5F5F5F5F5F5F5F5F5F5F5F5F5F5F5F5F5F5F5F5F5F5F5F5F5F5F5F5F5F5F5F5F5F5F5F5F5F5F5F5F5F5F5F5F5F5F5F5F5F5F5F5F5
310
F5F5F5F5F5F5F5F5F5F5F5F5F5F5F5F5F5F5F5F5F5F5F5F5F5E2E2EFF5F5F5F5F5F5F5F5F5F5F5F5F5F5F5F5F5F5F5F5F5F5F5F5F5F5F5F5F5F5F5F5F5F5F5F5F5F5F5F5F5F5F5F5F5F5F5F5F5F5F5F5F5F5F5F5F5F5F5F5F5F5F5F5F5F5F5F5F5F5F5F5F5F5F5F5F5F5F5F5F5F5F5F5F5F5F5F5F5F5F5F5F5F5F5F5F5F5F5
310
F5F5F5F5F5F5F5F5F5F5F5F5F5F5F5F5F5F5F5F5F5F5F5F5F5F5F5F5F5F5F5F5F5F5F5F5F5F5F5F5F5F5F5F5F5F5F5F5F5F5F5F5F5F5F5F5F5F5F5F5F5F5F5F5F5F5F5F5F5F5F5F5F5F5F5F5F5F5E2E2EFF5F5F5F5F5F5F5F5F5F5F5F5F5F5F5F5F5F5F5F5F5F5F5F5F5F5F5F5F5F5F5F5F5F5F5F5F5F5F5F5F5F5F5F5F5F5
310
F5F5F5F5F5F5F5F5F5F5F5F5F5F5F5F5F5F5F5F5F5F5F5F5F5F5F5F5F5F5F5F5F5F5F5F5F5F5F5F5F5F5F5F5F5F5F5F5F5F5F5F5F5F5F5F5F5F5F5F5F5F5F5F5F5F5F5F5F5F5F5F5F5F5F5F5F5F5F5F5F5F5F5F5F5F5F5F5F5F5F5F5F5F5F5F5F5F5F5F5F5F5F5F5F5F5F5F5F5F5F5F5F5F5F5F5F5F5F5F5F5F5F5F5F5F5F5
310
F5F5F5F5E2E2EFF5F5F5F5F5F5F5F5F5F5F5F5F5F5F5F5F5F5F5F5F5F5F5F5F5F5F5F5F5F5F5F5F5F5F5F5F5F5F5F5F5F5F5F5F5F5F5F5F5F5F5F5F5F5F5F5F5F5F5F5F5F5F5F5F5F5F5F5F5F5F5F5F5F5F5F5F5F5F5F5F5F5F5F5F5F5F5F5F5F5F5F5F5F5F5F5F5F5F5F5F5F5F5F5F5F5F5F5F5F5F5F5F5F5F5F5F5F5F5F5
310
F5F5F5F5F5F5F5F5F5F5F5F5F5F5F5F5F5F5F5F5F5F5F5F5F5F5F5F5F5F5F5F5F5F5F5F5F5F5F5F5F5F5F5F5F5F5F5F5F5F5F5F5F5F5F5F5F5E2E2EFF5F5F5F5F5F5F5F5F5F5F5F5F5F5F5F5F5F5F5F5E2E2E2E2E2E2E2E2E2E2E2E2E2E2E2E2E2E2E2E2E2E2E2E2E2E2E2E2E2E2E2E2E2E2E2E2E2E2E2E2E2E2E2E2E2E2E2
310
E2E2E2E2E2E2E2E2E2E2E2E2E2E2E2E2E2E2E2E2E2E2E2E2E2E2E2E2E2E2E2E2E2E2E2E2E2E2E2E2E2E2E2E2E2E2E2E2E2E2E2E2E2E2E2E2E2E2E2E2E2E2E2E2E2E2E2E2E2E2E2E2E2E2E2E2E2E2E2E2E2E2E2E2E2E2E2E2E2E2F5F5F5F5F5F5F5F5F5F5F5F5F5F5F5F5F5F5F5F5E2E2EFF5F5F5F5F5F5F5F5F5F5F5F5F5F5
310
F5F5F5F5F5F5E2F5F5F5F5F5F5F5F5F5F5F5F5F5F5F5F5F5F5F5F5F5F5F5F5F5F5F5F5F5F5F5F5F5F5F5F5F5F5F5F5F5F5F5F5F5F5F5F5F5F5F5F5F5F5F5F5F5F5F5F5F5F5F5F5F5F5F5F5F5F5F5F5F5F5F5F5F5F5F5F5F5F5F5F5F5F5F5F5F5F5F5F5F5F5F5F5F5F5F5F5F5F5F5F5F5F5F5F5F5F5F5F5F5F5F5F5F5F5F5F5
310
F5F5F5F5F5F5F5F5F5F5F5F5F5F5F5E2F5F5F5F5F5F5F5F5F5F5F5F5F5F5F5F5F5F5F5F5E2E2EFF5F5F5F5F5F5F5F5F5F5F5F5F5F5F5F5F5F5F5F5E2F5F5F5F5F5F5F5F5F5F5F5F5F5F5F5F5F5F5F5F5F5F5F5F5F5F5F5F5F5F5F5F5F5F5F5F5F5F5F5F5F5F5F5F5F5F5F5F5F5F5F5F5F5F5F5F5F5F5F5F5F5F5F5F5F5F5F5
310
F5F5F5F5F5F5F5F5F5F5F5F5F5F5F5F5F5F5F5F5F5F5F5F5F5F5F5F5F5F5F5F5F5F5F5F5F5F5F5F5F5F5F5F5F5F5F5F5F5F5F5F5F5F5F5F5F5F5F5F5F5F5F5F5F5F5F5F5E2F5F5F5F5F5F5F5F5F5F5F5F5F5F5F5F5F5F5F5F5E2E2EFF5F5F5F5F5F5F5F5F5F5F5F5F5F5F5F5F5F5F5F5E2F5F5F5F5F5F5F5F5F5F5F5F5F5F5
310
F5F5F5F5F5F5F5F5F5F5F5F5F5F5F5F5F5F5F5F5F5F5F5F5F5F5F5F5F5F5F5F5F5F5F5F5F5F5F5F5F5F5F5F5F5F5F5F5F5F5F5F5F5F5F5F5F5F5F5F5F5F5F5F5F5F5F5F5F5F5F5F5F5F5F5F5F5F5F5F5F5F5F5F5F5F5F5F5F5F5F5F5F5F5F5F5F5F5F5F5F5F5F5F5F5F5F5F5F5F5F5F5F5F5F5F5F5F5F5F5F5E2F5F5F5F5F5
310
F5F5F5F5F5F5F5F5F5F5F5F5F5F5F5E2E2EFF5F5F5F5F5F5F5F5F5F5F5F5F5F5F5F5F5F5F5F5E2F5F5F5F5F5F5F5F5F5F5F5F5F5F5F5F5F5F5F5F5F5F5F5F5F5F5F5F5F5F5F5F5F5F5F5F5F5F5F5F5F5F5F5F5F5F5F5F5F5F5F5F5F5F5F5F5F5F5F5F5F5F5F5F5F5F5F5F5F5F5F5F5F5F5F5F5F5F5F5F5F5F5F5F5F5F5F5F5
310
F5F5F5F5F5F5F5F5F5F5F5F5F5F5F5F5F5F5F5F5F5F5F5F5F5F5F5F5F5F5F5F5F5F5F5F5F5F5F5F5F5F5F5F5F5F5F5E2F5F5F5F5F5F5F5F5F5F5F5F5F5F5F5F5F5F5F5F5E2E2EFF5F5F5E2F5F5F5F5F5F5F5F5F5F5F5F5F5F5F5F5E2F5F5F5F5F5F5F5F5F5F5F5F5F5F5F5F5F5F5F5F5F5F5F5F5F5F5F5F5F5F5F5F5F5F5F5
310
F5F5F5F5F5F5F5F5F5F5F5F5F5F5F5F5F5F5F5F5F5F5F5F5F5F5F5F5F5F5F5F5F5F5F5F5F5F5F5F5F5F5F5F5F5F5F5F5F5F5F5F5F5F5F5F5F5F5F5F5F5F5F5F5F5F5F5F5F5F5F5F5F5F5F5F5F5F5F5F5F5F5F5F5F5F5F5F5F5F5F5F5F5F5F5F5F5F5F5F5E2F5F5F5F5F5F5F5F5F5F5F5F5F5F5F5F5E2F5F5F5E2E2EFF5F5F5
310
E2F5F5F5F5F5F5F5F5F5F5F5F5F5F5F5F5E2F5F5F5F5F5F5F5F5F5F5F5F5F5F5F5F5F5F5F5F5F5F5F5F5F5F5F5F5F5F5F5F5F5F5F5F5F5F5F5F5F5F5F5F5F5F5F5F5F5F5F5F5F5F5F5F5F5F5F5F5F5F5F5F5F5F5F5F5F5F5F5F5F5F5F5F5F5F5F5F5F5F5F5F5F5F5F5F5F5F5F5F5F5F5F5F5F5F5F5F5F5F5F5F5F5F5F5F5F5
310
F5F5F5F5F5F5F5F5F5F5F5F5F5F5F5F5F5F5F5F5F5F5F5F5F5F5E2F5F5F5F5F5F5F5F5F5F5F5F5F5F5F5F5E2F5F5F5E2E2EFF5F5F5E2F5F5F5F5F5F5F5F5F5F5F5F5F5F5F5F5E2F5F5F5F5F5F5F5F5F5F5F5F5F5F5F5F5F5F5F5F5F5F5F5F5F5F5F5F5F5F5F5F5F5F5F5F5F5F5F5F5F5F5F5F5F5F5F5F5F5F5F5F5F5F5F5F5
310
F5F5F5F5F5F5F5F5F5F5F5F5F5F5F5F5F5F5F5F5F5F5F5F5F5F5F5F5F5F5F5F5F5F5F5F5F5F5F5F5F5F5F5F5F5F5F5F5F5F5F5F5F5F5F5F5F5F5F5F5F5F5F5F5F5F5F5F5F5F5F5F5F5F5F5F5F5F5F5E2F5F5F5F5F5F5F5F5F5F5F5F5F5F5F5F5E2F5F5F5E2E2EFF5F5F5E2F5F5F5F5F5F5F5F5F5F5F5F5F5F5F5F5E2F5F5F5
310
F5F5F5F5F5F5F5F5F5F5F5F5F5F5F5F5F5F5F5F5F5F5F5F5F5F5F5F5F5F5F5F5F5F5F5F5F5F5F5F5F5F5F5F5F5F5F5F5F5F5F5F5F5F5F5F5F5F5F5F5F5F5F5F5F5F5F5F5F5F5F5F5F5F5F5F5F5F5F5F5F5F5F5F5F5F5F5F5F5F5F5F5F5F5F5F5F5F5F5F5F5F5F5F5F5F5F5F5F5F5F5F5F5F5F5F5F5F5F5F5F5F5F5F5F5F5F5
310
F5F5F5F5F5E2F5F5F5F5F5F5F5F5F5F5F5F5F5F5F5F5E2F5F5F5E2E2EFF5F5F5E2F5F5F5F5F5F5F5F5F5F5F5F5F5F5F5F5E2F5F5F5F5F5F5F5F5F5F5F5F5F5F5F5F5F5F5F5F5F5F5F5F5F5F5F5F5F5F5F5F5F5F5F5F5F5F5F5F5F5F5F5F5F5F5F5F5F5F5F5F5F5F5F5F5F5F5F5F5F5F5F5F5F5F5F5F5F5F5F5F5F5F5F5F5F5
310
F5F5F5F5F5F5F5F5F5F5F5F5F5F5F5F5F5F5F5F5F5F5F5F5F5F5F5F5F5F5F5F5F5F5F5F5F5F5F5F5F5F5F5F5F5F5F5F5F5F5F5F5F5F5F5F5F5F5E2F5F5F5F5F5F5F5F5F5F5F5F5F5F5F5F5E2F5F5F5E2E2EFF5F5F5E2F5F5F5F5F5F5F5F5F5F5F5F5F5F5F5F5E2F5F5F5F5F5F5F5F5F5F5F5F5F5F5F5F5F5F5F5F5F5F5F5F5
310
F5F5F5F5F5F5F5F5F5F5F5F5F5F5F5F5F5F5F5F5F5F5F5F5F5F5F5F5F5F5F5F5F5F5F5F5F5F5F5F5F5F5F5F5F5F5F5F5F5F5F5F5F5F5F5F5F5F5F5F5F5F5F5F5F5F5F5F5F5F5F5F5F5F5F5F5F5F5F5F5F5F5F5F5F5F5F5F5F5F5F5F5F5F5F5F5F5F5F5F5F5F5F5F5F5F5F5F5F5F5F5E2F5F5F5F5F5F5F5F5F5F5F5F5F5F5F5
310
F5E2F5F5F5E2E2EFF5F5F5E2F5F5F5F5F5F5F5F5F5F5F5F5F5F5F5F5E2F5F5F5F5F5F5F5F5F5F5F5F5F5F5F5F5F5F5F5F5F5F5F5F5F5F5F5F5F5F5F5F5F5F5F5F5F5F5F5F5F5F5F5F5F5F5F5F5F5F5F5F5F5F5F5F5F5F5F5F5F5F5F5F5F5F5F5F5F5F5F5F5F5F5F5F5F5F5F5F5F5F5F5F5F5F5F5F5F5F5F5F5F5F5F5F5F5F5
310
F5F5F5F5F5F5F5F5F5F5F5F5F5F5F5F5F5F5F5F5F5F5F5F5F5F5F5F5F5F5F5F5F5F5F5F5F5E2F5F5F5F5F5F5F5F5F5F5F5F5F5F5F5F5E2F5F5F5E2E2EFF5F5F5E2F5F5F5F5F5F5F5F5F5F5F5F5F5F5F5F5E2F5F5F5F5F5F5F5F5F5F5F5F5F5F5F5F5F5F5F5F5F5F5F5F5F5F5F5F5F5F5F5F5F5F5F5F5F5F5F5F5F5F5F5F5F5
310
F5F5F5F5F5F5F5F5F5F5F5F5F5F5F5F5F5F5F5F5F5F5F5F5F5F5F5F5F5F5F5F5F5F5F5F5F5F5F5F5F5F5F5F5F5F5F5F5F5F5F5F5F5F5F5F5F5F5F5F5F5F5F5F5F5F5F5F5F5F5F5F5F5F5F5F5F5F5F5F5F5F5F5F5F5F5F5F5F5F5E2F5F5F5F5F5F5F5F5F5F5F5F5F5F5F5F5E2F5F5F5E2E2EFF5F5F5E2F5F5F5F5F5F5F5F5F5
310
F5F5F5F5F5F5F5E2F5F5F5F5F5F5F5F5F5F5F5F5F5F5F5F5F5F5F5F5F5F5F5F5F5F5F5F5F5F5F5F5F5F5F5F5F5F5F5F5F5F5F5F5F5F5F5F5F5F5F5F5F5F5F5F5F5F5F5F5F5F5F5F5F5F5F5F5F5F5F5F5F5F5F5F5F5F5F5F5F5F5F5F5F5F5F5F5F5F5F5F5F5F5F5F5F5F5F5F5F5F5F5F5F5F5F5F5F5F5F5F5F5F5F5F5F5F5F5
310
F5F5F5F5F5F5F5F5F5F5F5F5F5F5F5F5E2F5F5F5F5F5F5F5F5F5F5F5F5F5F5F5F5E2F5F5F5E2E2EFF5F5F5E2F5F5F5F5F5F5F5F5F5F5F5F5F5F5F5F5E2F5F5F5F5F5F5F5F5F5F5F5F5F5F5F5F5F5F5F5F5F5F5F5F5F5F5F5F5F5F5F5F5F5F5F5F5F5F5F5F5F5F5F5F5F5F5F5F5F5F5F5F5F5F5F5F5F5F5F5F5F5F5F5F5F5F5
310
F5F5F5F5F5F5F5F5F5F5F5F5F5F5F5F5F5F5F5F5F5F5F5F5F5F5F5F5F5F5F5F5F5F5F5F5F5F5F5F5F5F5F5F5F5F5F5F5F5F5F5F5F5F5F5F5F5F5F5F5F5F5F5F5F5F5F5F5F5E2F5F5F5F5F5F5F5F5F5F5F5F5F5F5F5F5E2F5F5F5E2E2EFF5F5F5E2F5F5F5F5F5F5F5F5F5F5F5F5F5F5F5F5E2F5F5F5F5F5F5F5F5F5F5F5F5F5
310
F5F5F5F5F5F5F5F5F5F5F5F5F5F5F5F5F5F5F5F5F5F5F5F5F5F5F5F5F5F5F5F5F5F5F5F5F5F5F5F5F5F5F5F5F5F5F5F5F5F5F5F5F5F5F5F5F5F5F5F5F5F5F5F5F5F5F5F5F5F5F5F5F5F5F5F5F5F5F5F5F5F5F5F5F5F5F5F5F5F5F5F5F5F5F5F5F5F5F5F5F5F5F5F5F5F5F5F5F5F5F5F5F5F5F5F5F5F5F5F5F5F5E2F5F5F5F5
310
F5F5F5F5F5F5F5F5F5F5F5F5E2F5F5F5E2E2EFF5F5F5E2F5F5F5F5F5F5F5F5F5F5F5F5F5F5F5F5E2F5F5F5F5F5F5F5F5F5F5F5F5F5F5F5F5F5F5F5F5F5F5F5F5F5F5F5F5F5F5F5F5F5F5F5F5F5F5F5F5F5F5F5F5F5F5F5F5F5F5F5F5F5F5F5F5F5F5F5F5F5F5F5F5F5F5F5F5F5F5F5F5F5F5F5F5F5F5F5F5F5F5F5F5F5F5F5
310
F5F5F5F5F5F5F5F5F5F5F5F5F5F5F5F5F5F5F5F5F5F5F5F5F5F5F5F5F5F5F5F5F5F5F5F5F5F5F5F5F5F5F5F5F5F5F5F5E2F5F5F5F5F5F5F5F5F5F5F5F5F5F5F5F5E2F5F5F5E2E2EFF5F5F5E2F5F5F5F5F5F5F5F5F5F5F5F5F5F5F5F5E2F5F5F5F5F5F5F5F5F5F5F5F5F5F5F5F5F5F5F5F5F5F5F5F5F5F5F5F5F5F5F5F5F5F5
310
F5F5F5F5F5F5F5F5F5F5F5F5F5F5F5F5F5F5F5F5F5F5F5F5F5F5F5F5F5F5F5F5F5F5F5F5F5F5F5F5F5F5F5F5F5F5F5F5F5F5F5F5F5F5F5F5F5F5F5F5F5F5F5F5F5F5F5F5F5F5F5F5F5F5F5F5F5F5F5F5F5F5F5F5F5F5F5F5F5F5F5F5F5F5F5F5F5F5F5F5F5E2F5F5F5F5F5F5F5F5F5F5F5F5F5F5F5F5E2F5F5F5E2E2EFF5F5
310
F5E2F5F5F5F5F5F5F5F5F5F5F5F5F5F5F5F5E2F5F5F5F5F5F5F5F5F5F5F5F5F5F5F5F5F5F5F5F5F5F5F5F5F5F5F5F5F5F5F5F5F5F5F5F5F5F5F5F5F5F5F5F5F5F5F5F5F5F5F5F5F5F5F5F5F5F5F5F5F5F5F5F5F5F5F5F5F5F5F5F5F5F5F5F5F5F5F5F5F5F5F5F5F5F5F5F5F5F5F5F5F5F5F5F5F5F5F5F5F5F5F5F5F5F5F5F5
310
F5F5F5F5F5F5F5F5F5F5F5F5F5F5F5F5F5F5F5F5F5F5F5F5F5F5F5E2F5F5F5F5F5F5F5F5F5F5F5F5F5F5F5F5E2F5F5F5E2E2EFF5F5F5E2F5F5F5F5F5F5F5F5F5F5F5F5F5F5F5F5E2F5F5F5F5F5F5F5F5F5F5F5F5F5F5F5F5F5F5F5F5F5F5F5F5F5F5F5F5F5F5F5F5F5F5F5F5F5F5F5F5F5F5F5F5F5F5F5F5F5F5F5F5F5F5F5
310
F5F5F5F5F5F5F5F5F5F5F5F5F5F5F5F5F5F5F5F5F5F5F5F5F5F5F5F5F5F5F5F5F5F5F5F5F5F5F5F5F5F5F5F5F5F5F5F5F5F5F5F5F5F5F5F5F5F5F5F5F5F5F5F5F5F5F5F5F5F5F5F5F5F5F5F5F5F5F5F5E2F5F5F5F5F5F5F5F5F5F5F5F5F5F5F5F5E2F5F5F5E2E2EFF5F5F5E2F5F5F5F5F5F5F5F5F5F5F5F5F5F5F5F5E2F5F5
310
F5F5F5F5F5F5F5F5F5F5F5F5F5F5F5F5F5F5F5F5F5F5F5F5F5F5F5F5F5F5F5F5F5F5F5F5F5F5F5F5F5F5F5F5F5F5F5F5F5F5F5F5F5F5F5F5F5F5F5F5F5F5F5F5F5F5F5F5F5F5F5F5F5F5F5F5F5F5F5F5F5F5F5F5F5F5F5F5F5F5F5F5F5F5F5F5F5F5F5F5F5F5F5F5F5F5F5F5F5F5F5F5F5F5F5F5F5F5F5F5F5F5F5F5F5F5F5
310
F5F5F5F5F5F5E2F5F5F5F5F5F5F5F5F5F5F5F5F5F5F5F5E2F5F5F5E2E2EFF5F5F5E2F5F5F5F5F5F5F5F5F5F5F5F5F5F5F5F5E2F5F5F5F5F5F5F5F5F5F5F5F5F5F5F5F5F5F5F5F5F5F5F5F5F5F5F5F5F5F5F5F5F5F5F5F5F5F5F5F5F5F5F5F5F5F5F5F5F5F5F5F5F5F5F5F5F5F5F5F5F5F5F5F5F5F5F5F5F5F5F5F5F5F5F5F5
310
F5F5F5F5F5F5F5F5F5F5F5F5F5F5F5F5F5F5F5F5F5F5F5F5F5F5F5F5F5F5F5F5F5F5F5F5F5F5F5F5F5F5F5F5F5F5F5F5F5F5F5F5F5F5F5F5F5F5F5E2F5F5F5F5F5F5F5F5F5F5F5F5F5F5F5F5E2F5F5F5E2E2EFF5F5F5F5F5F5F5F5F5F5F5F5F5F5F5F5F5F5F5F5E2F5F5F5F5F5F5F5F5F5F5F5F5F5F5F5F5F5F5F5F5F5F5F5
310
F5F5F5F5F5F5F5F5F5F5F5F5F5F5F5F5F5F5F5F5F5F5F5F5F5F5F5F5F5F5F5F5F5F5F5F5F5F5F5F5F5F5F5F5F5F5F5F5F5F5F5F5F5F5F5F5F5F5F5F5F5F5F5F5F5F5F5F5F5F5F5F5F5F5F5F5F5F5F5F5F5F5F5F5F5F5F5F5F5F5F5F5F5F5F5F5F5F5F5F5F5F5F5F5F5F5F5F5F5F5F5F5E2F5F5F5F5F5F5F5F5F5F5F5F5F5F5
310
F5F5F5F5F5F5E2E2EFF5F5F5F5F5F5F5F5F5F5F5F5F5F5F5F5F5F5F5F5E2F5F5F5F5F5F5F5F5F5F5F5F5F5F5F5F5F5F5F5F5F5F5F5F5F5F5F5F5F5F5F5F5F5F5F5F5F5F5F5F5F5F5F5F5F5F5F5F5F5F5F5F5F5F5F5F5F5F5F5F5F5F5F5F5F5F5F5F5F5F5F5F5F5F5F5F5F5F5F5F5F5F5F5F5F5F5F5F5F5F5F5F5F5F5F5F5F5
310
F5F5F5F5F5F5F5F5F5F5F5F5F5F5F5F5F5F5F5F5F5F5F5F5F5F5F5F5F5F5F5F5F5F5F5F5F5F5E2F5F5F5F5F5F5F5F5F5F5F5F5F5F5F5F5F5F5F5F5E2E2EFF5F5F5F5F5F5F5F5F5F5F5F5F5F5F5F5F5F5F5F5E2F5F5F5F5F5F5F5F5F5F5F5F5F5F5F5F5F5F5F5F5F5F5F5F5F5F5F5F5F5F5F5F5F5F5F5F5F5F5F5F5F5F5F5F5
310
F5F5F5F5F5F5F5F5F5F5F5F5F5F5F5F5F5F5F5F5F5F5F5F5F5F5F5F5F5F5F5F5F5F5F5F5F5F5F5F5F5F5F5F5F5F5F5F5F5F5F5F5F5F5F5F5F5F5F5F5F5F5F5F5F5F5F5F5F5F5F5F5F5F5F5F5F5F5F5F5F5F5F5F5F5F5F5F5F5F5F5E2F5F5F5F5F5F5F5F5F5F5F5F5F5F5F5F5F5F5F5F5E2E2EFF5F5F5F5F5F5F5F5F5F5F5F5
310
F5F5F5F5F5F5F5F5E2F5F5F5F5F5F5F5F5F5F5F5F5F5F5F5F5F5F5F5F5F5F5F5F5F5F5F5F5F5F5F5F5F5F5F5F5F5F5F5F5F5F5F5F5F5F5F5F5F5F5F5F5F5F5F5F5F5F5F5F5F5F5F5F5F5F5F5F5F5F5F5F5F5F5F5F5F5F5F5F5F5F5F5F5F5F5F5F5F5F5F5F5F5F5F5F5F5F5F5F5F5F5F5F5F5F5F5F5F5F5F5F5F5F5F5F5F5F5
310
F5F5F5F5F5F5F5F5F5F5F5F5F5F5F5F5F5E2F5F5F5F5F5F5F5F5F5F5F5F5F5F5F5F5F5F5F5F5E2E2EFF5F5F5F5F5F5F5F5F5F5F5F5F5F5F5F5F5F5F5F5E2F5F5F5F5F5F5F5F5F5F5F5F5F5F5F5F5F5F5F5F5F5F5F5F5F5F5F5F5F5F5F5F5F5F5F5F5F5F5F5F5F5F5F5F5F5F5F5F5F5F5F5F5F5F5F5F5F5F5F5F5F5F5F5F5F5
310
F5F5F5F5F5F5F5F5F5F5F5F5F5F5F5F5F5F5F5F5F5F5F5F5F5F5F5F5F5F5F5F5F5F5F5F5F5F5F5F5F5F5F5F5F5F5F5F5F5F5F5F5F5F5F5F5F5F5F5F5F5F5F5F5F5F5F5F5F5F5E2F5F5F5F5F5F5F5F5F5F5F5F5F5F5F5F5F5F5F5F5E2E2EFF5F5F5F5F5F5F5F5F5F5F5F5F5F5F5F5F5F5F5F5E2F5F5F5F5F5F5F5F5F5F5F5F5
310
F5F5F5F5F5F5F5F5F5F5F5F5F5F5F5F5F5F5F5F5F5F5F5F5F5F5F5F5F5F5F5F5F5F5F5F5F5F5F5F5F5F5F5F5F5F5F5F5F5F5F5F5F5F5F5F5F5F5F5F5F5F5F5F5F5F5F5F5F5F5F5F5F5F5F5F5F5F5F5F5F5F5F5F5F5F5F5F5F5F5F5F5F5F5F5F5F5F5F5F5F5F5F5F5F5F5F5F5F5F5F5F5F5F5F5F5F5F5F5F5F5F5F5E2F5F5F5
310
F5F5F5F5F5F5F5F5F5F5F5F5F5F5F5F5F5E2E2EFF5F5F5F5F5F5F5F5F5F5F5F5F5F5F5F5F5F5F5F5E2F5F5F5F5F5F5F5F5F5F5F5F5F5F5F5F5F5F5F5F5F5F5F5F5F5F5F5F5F5F5F5F5F5F5F5F5F5F5F5F5F5F5F5F5F5F5F5F5F5F5F5F5F5F5F5F5F5F5F5F5F5F5F5F5F5F5F5F5F5F5F5F5F5F5F5F5F5F5F5F5F5F5F5F5F5F5
310
F5F5F5F5F5F5F5F5F5F5F5F5F5F5F5F5F5F5F5F5F5F5F5F5F5F5F5F5F5F5F5F5F5F5F5F5F5F5F5F5F5F5F5F5F5F5F5F5F5E2F5F5F5F5F5F5F5F5F5F5F5F5F5F5F5F5F5F5F5F5E2E2EFF5F5F5F5F5F5F5F5F5F5F5F5F5F5F5F5F5F5F5F5E2F5F5F5F5F5F5F5F5F5F5F5F5F5F5F5F5F5F5F5F5F5F5F5F5F5F5F5F5F5F5F5F5F5
310
F5F5F5F5F5F5F5F5F5F5F5F5F5F5F5F5F5F5F5F5F5F5F5F5F5F5F5F5F5F5F5F5F5F5F5F5F5F5F5F5F5F5F5F5F5F5F5F5F5F5F5F5F5F5F5F5F5F5F5F5F5F5F5F5F5F5F5F5F5F5F5F5F5F5F5F5F5F5F5F5F5F5F5F5F5F5F5F5F5F5F5F5F5F5F5F5F5F5F5F5F5F5E2F5F5F5F5F5F5F5F5F5F5F5F5F5F5F5F5F5F5F5F5E2E2EFF5
310
F5F5F5F5F5F5F5F5F5F5F5F5F5F5F5F5F5F5F5E2F5F5F5F5F5F5F5F5F5F5F5F5F5F5F5F5F5F5F5F5F5F5F5F5F5F5F5F5F5F5F5F5F5F5F5F5F5F5F5F5F5F5F5F5F5F5F5F5F5F5F5F5F5F5F5F5F5F5F5F5F5F5F5F5F5F5F5F5F5F5F5F5F5F5F5F5F5F5F5F5F5F5F5F5F5F5F5F5F5F5F5F5F5F5F5F5F5F5F5F5F5F5F5F5F5F5F5
310
F5F5F5F5F5F5F5F5F5F5F5F5F5F5F5F5F5F5F5F5F5F5F5F5F5F5F5F5E2F5F5F5F5F5F5F5F5F5F5F5F5F5F5F5F5F5F5F5F5E2E2EFF5F5F5E2F5F5F5F5F5F5F5F5F5F5F5F5F5F5F5F5E2F5F5F5F5F5F5F5F5F5F5F5F5F5F5F5F5F5F5F5F5F5F5F5F5F5F5F5F5F5F5F5F5F5F5F5F5F5F5F5F5F5F5F5F5F5F5F5F5F5F5F5F5F5F5
310
F5F5F5F5F5F5F5F5F5F5F5F5F5F5F5F5F5F5F5F5F5F5F5F5F5F5F5F5F5F5F5F5F5F5F5F5F5F5F5F5F5F5F5F5F5F5F5F5F5F5F5F5F5F5F5F5F5F5F5F5F5F5F5F5F5F5F5F5F5F5F5F5F5F5F5F5F5F5F5F5F5E2F5F5F5F5F5F5F5F5F5F5F5F5F5F5F5F5E2F5F5F5E2E2EFF5F5F5E2F5F5F5F5F5F5F5F5F5F5F5F5F5F5F5F5E2F5
310
F5F5F5F5F5F5F5F5F5F5F5F5F5F5F5F5F5F5F5F5F5F5F5F5F5F5F5F5F5F5F5F5F5F5F5F5F5F5F5F5F5F5F5F5F5F5F5F5F5F5F5F5F5F5F5F5F5F5F5F5F5F5F5F5F5F5F5F5F5F5F5F5F5F5F5F5F5F5F5F5F5F5F5F5F5F5F5F5F5F5F5F5F5F5F5F5F5F5F5F5F5F5F5F5F5F5F5F5F5F5F5F5F5F5F5F5F5F5F5F5F5F5F5F5F5F5F5
310
F5F5F5F5F5F5F5E2F5F5F5F5F5F5F5F5F5F5F5F5F5F5F5F5E2F5F5F5E2E2EFF5F5F5E2F5F5F5F5F5F5F5F5F5F5F5F5F5F5F5F5E2F5F5F5F5F5F5F5F5F5F5F5F5F5F5F5F5F5F5F5F5F5F5F5F5F5F5F5F5F5F5F5F5F5F5F5F5F5F5F5F5F5F5F5F5F5F5F5F5F5F5F5F5F5F5F5F5F5F5F5F5F5F5F5F5F5F5F5F5F5F5F5F5F5F5F5
310
F5F5F5F5F5F5F5F5F5F5F5F5F5F5F5F5F5F5F5F5F5F5F5F5F5F5F5F5F5F5F5F5F5F5F5F5F5F5F5F5F5F5F5F5F5F5F5F5F5F5F5F5F5F5F5F5F5F5F5F5E2F5F5F5F5F5F5F5F5F5F5F5F5F5F5F5F5E2F5F5F5E2E2EFF5F5F5E2F5F5F5F5F5F5F5F5F5F5F5F5F5F5F5F5E2F5F5F5F5F5F5F5F5F5F5F5F5F5F5F5F5F5F5F5F5F5F5
310
F5F5F5F5F5F5F5F5F5F5F5F5F5F5F5F5F5F5F5F5F5F5F5F5F5F5F5F5F5F5F5F5F5F5F5F5F5F5F5F5F5F5F5F5F5F5F5F5F5F5F5F5F5F5F5F5F5F5F5F5F5F5F5F5F5F5F5F5F5F5F5F5F5F5F5F5F5F5F5F5F5F5F5F5F5F5F5F5F5F5F5F5F5F5F5F5F5F5F5F5F5F5F5F5F5F5F5F5F5F5F5F5F5E2F5F5F5F5F5F5F5F5F5F5F5F5F5
310
F5F5F5E2F5F5F5E2E2EFF5F5F5E2F5F5F5F5F5F5F5F5F5F5F5F5F5F5F5F5E2F5F5F5F5F5F5F5F5F5F5F5F5F5F5F5F5F5F5F5F5F5F5F5F5F5F5F5F5F5F5F5F5F5F5F5F5F5F5F5F5F5F5F5F5F5F5F5F5F5F5F5F5F5F5F5F5F5F5F5F5F5F5F5F5F5F5F5F5F5F5F5F5F5F5F5F5F5F5F5F5F5F5F5F5F5F5F5F5F5F5F5F5F5F5F5F5
310
F5F5F5F5F5F5F5F5F5F5F5F5F5F5F5F5F5F5F5F5F5F5F5F5F5F5F5F5F5F5F5F5F5F5F5F5F5F5F5E2F5F5F5F5F5F5F5F5F5F5F5F5F5F5F5F5E2F5F5F5E2E2EFF5F5F5E2F5F5F5F5F5F5F5F5F5F5F5F5F5F5F5F5E2F5F5F5F5F5F5F5F5F5F5F5F5F5F5F5F5F5F5F5F5F5F5F5F5F5F5F5F5F5F5F5F5F5F5F5F5F5F5F5F5F5F5F5
310
F5F5F5F5F5F5F5F5F5F5F5F5F5F5F5F5F5F5F5F5F5F5F5F5F5F5F5F5F5F5F5F5F5F5F5F5F5F5F5F5F5F5F5F5F5F5F5F5F5F5F5F5F5F5F5F5F5F5F5F5F5F5F5F5F5F5F5F5F5F5F5F5F5F5F5F5F5F5F5F5F5F5F5F5F5F5F5F5F5F5F5F5E2F5F5F5F5F5F5F5F5F5F5F5F5F5F5F5F5E2F5F5F5E2E2EFF5F5F5E2F5F5F5F5F5F5F5
310
F5F5F5F5F5F5F5F5F5E2F5F5F5F5F5F5F5F5F5F5F5F5F5F5F5F5F5F5F5F5F5F5F5F5F5F5F5F5F5F5F5F5F5F5F5F5F5F5F5F5F5F5F5F5F5F5F5F5F5F5F5F5F5F5F5F5F5F5F5F5F5F5F5F5F5F5F5F5F5F5F5F5F5F5F5F5F5F5F5F5F5F5F5F5F5F5F5F5F5F5F5F5F5F5F5F5F5F5F5F5F5F5F5F5F5F5F5F5F5F5F5F5F5F5F5F5F5
310
F5F5F5F5F5F5F5F5F5F5F5F5F5F5F5F5F5F5E2F5F5F5F5F5F5F5F5F5F5F5F5F5F5F5F5E2F5F5F5E2E2EFF5F5F5E2F5F5F5F5F5F5F5F5F5F5F5F5F5F5F5F5E2F5F5F5F5F5F5F5F5F5F5F5F5F5F5F5F5F5F5F5F5F5F5F5F5F5F5F5F5F5F5F5F5F5F5F5F5F5F5F5F5F5F5F5F5F5F5F5F5F5F5F5F5F5F5F5F5F5F5F5F5F5F5F5F5
310
F5F5F5F5F5F5F5F5F5F5F5F5F5F5F5F5F5F5F5F5F5F5F5F5F5F5F5F5F5F5F5F5F5F5F5F5F5F5F5F5F5F5F5F5F5F5F5F5F5F5F5F5F5F5F5F5F5F5F5F5F5F5F5F5F5F5F5F5F5F5F5E2F5F5F5F5F5F5F5F5F5F5F5F5F5F5F5F5E2F5F5F5E2E2EFF5F5F5E2F5F5F5F5F5F5F5F5F5F5F5F5F5F5F5F5E2F5F5F5F5F5F5F5F5F5F5F5
310
F5F5F5F5F5F5F5F5F5F5F5F5F5F5F5F5F5F5F5F5F5F5F5F5F5F5F5F5F5F5F5F5F5F5F5F5F5F5F5F5F5F5F5F5F5F5F5F5F5F5F5F5F5F5F5F5F5F5F5F5F5F5F5F5F5F5F5F5F5F5F5F5F5F5F5F5F5F5F5F5F5F5F5F5F5F5F5F5F5F5F5F5F5F5F5F5F5F5F5F5F5F5F5F5F5F5F5F5F5F5F5F5F5F5F5F5F5F5F5F5F5F5F5F5E2F5F5
310
F5F5F5F5F5F5F5F5F5F5F5F5F5F5E2F5F5F5E2E2EFF5F5F5E2F5F5F5F5F5F5F5F5F5F5F5F5F5F5F5F5E2F5F5F5F5F5F5F5F5F5F5F5F5F5F5F5F5F5F5F5F5F5F5F5F5F5F5F5F5F5F5F5F5F5F5F5F5F5F5F5F5F5F5F5F5F5F5F5F5F5F5F5F5F5F5F5F5F5F5F5F5F5F5F5F5F5F5F5F5F5F5F5F5F5F5F5F5F5F5F5F5F5F5F5F5F5
310
F5F5F5F5F5F5F5F5F5F5F5F5F5F5F5F5F5F5F5F5F5F5F5F5F5F5F5F5F5F5F5F5F5F5F5F5F5F5F5F5F5F5F5F5F5F5F5F5F5F5E2F5F5F5F5F5F5F5F5F5F5F5F5F5F5F5F5E2F5F5F5E2E2EFF5F5F5E2F5F5F5F5F5F5F5F5F5F5F5F5F5F5F5F5E2F5F5F5F5F5F5F5F5F5F5F5F5F5F5F5F5F5F5F5F5F5F5F5F5F5F5F5F5F5F5F5F5
310
F5F5F5F5F5F5F5F5F5F5F5F5F5F5F5F5F5F5F5F5F5F5F5F5F5F5F5F5F5F5F5F5F5F5F5F5F5F5F5F5F5F5F5F5F5F5F5F5F5F5F5F5F5F5F5F5F5F5F5F5F5F5F5F5F5F5F5F5F5F5F5F5F5F5F5F5F5F5F5F5F5F5F5F5F5F5F5F5F5F5F5F5F5F5F5F5F5F5F5F5F5F5F5E2F5F5F5F5F5F5F5F5F5F5F5F5F5F5F5F5E2F5F5F5E2E2EF
310
F5F5F5E2F5F5F5F5F5F5F5F5F5F5F5F5F5F5F5F5E2F5F5F5F5F5F5F5F5F5F5F5F5F5F5F5F5F5F5F5F5F5F5F5F5F5F5F5F5F5F5F5F5F5F5F5F5F5F5F5F5F5F5F5F5F5F5F5F5F5F5F5F5F5F5F5F5F5F5F5F5F5F5F5F5F5F5F5F5F5F5F5F5F5F5F5F5F5F5F5F5F5F5F5F5F5F5F5F5F5F5F5F5F5F5F5F5F5F5F5F5F5F5F5F5F5F5
310
F5F5F5F5F5F5F5F5F5F5F5F5F5F5F5F5F5F5F5F5F5F5F5F5F5F5F5F5F5E2F5F5F5F5F5F5F5F5F5F5F5F5F5F5F5F5E2F5F5F5E2E2EFF5F5F5E2F5F5F5F5F5F5F5F5F5F5F5F5F5F5F5F5E2F5F5F5F5F5F5F5F5F5F5F5F5F5F5F5F5F5F5F5F5F5F5F5F5F5F5F5F5F5F5F5F5F5F5F5F5F5F5F5F5F5F5F5F5F5F5F5F5F5F5F5F5F5
310
F5F5F5F5F5F5F5F5F5F5F5F5F5F5F5F5F5F5F5F5F5F5F5F5F5F5F5F5F5F5F5F5F5F5F5F5F5F5F5F5F5F5F5F5F5F5F5F5F5F5F5F5F5F5F5F5F5F5F5F5F5F5F5F5F5F5F5F5F5F5F5F5F5F5F5F5F5F5F5F5F5F5E2F5F5F5F5F5F5F5F5F5F5F5F5F5F5F5F5E2F5F5F5E2E2EFF5F5F5E2F5F5F5F5F5F5F5F5F5F5F5F5F5F5F5F5E2
310
F5F5F5F5F5F5F5F5F5F5F5F5F5F5F5F5F5F5F5F5F5F5F5F5F5F5F5F5F5F5F5F5F5F5F5F5F5F5F5F5F5F5F5F5F5F5F5F5F5F5F5F5F5F5F5F5F5F5F5F5F5F5F5F5F5F5F5F5F5F5F5F5F5F5F5F5F5F5F5F5F5F5F5F5F5F5F5F5F5F5F5F5F5F5F5F5F5F5F5F5F5F5F5F5F5F5F5F5F5F5F5F5F5F5F5F5F5F5F5F5F5F5F5F5F5F5F5
310
F5F5F5F5F5F5F5F5E2F5F5F5F5F5F5F5F5F5F5F5F5F5F5F5F5E2F5F5F5E2E2EFF5F5F5E2F5F5F5F5F5F5F5F5F5F5F5F5F5F5F5F5E2F5F5F5F5F5F5F5F5F5F5F5F5F5F5F5F5F5F5F5F5F5F5F5F5F5F5F5F5F5F5F5F5F5F5F5F5F5F5F5F5F5F5F5F5F5F5F5F5F5F5F5F5F5F5F5F5F5F5F5F5F5F5F5F5F5F5F5F5F5F5F5F5F5F5
310
F5F5F5F5F5F5F5F5F5F5F5F5F5F5F5F5F5F5F5F5F5F5F5F5F5F5F5F5F5F5F5F5F5F5F5F5F5F5F5F5F5F5F5F5F5F5F5F5F5F5F5F5F5F5F5F5F5F5F5F5F5E2F5F5F5F5F5F5F5F5F5F5F5F5F5F5F5F5E2F5F5F5E2E2EFF5F5F5E2F5F5F5F5F5F5F5F5F5F5F5F5F5F5F5F5E2F5F5F5F5F5F5F5F5F5F5F5F5F5F5F5F5F5F5F5F5F5
310
F5F5F5F5F5F5F5F5F5F5F5F5F5F5F5F5F5F5F5F5F5F5F5F5F5F5F5F5F5F5F5F5F5F5F5F5F5F5F5F5F5F5F5F5F5F5F5F5F5F5F5F5F5F5F5F5F5F5F5F5F5F5F5F5F5F5F5F5F5F5F5F5F5F5F5F5F5F5F5F5F5F5F5F5F5F5F5F5F5F5F5F5F5F5F5F5F5F5F5F5F5F5F5F5F5F5F5F5F5F5F5F5F5F5E2F5F5F5F5F5F5F5F5F5F5F5F5
310
F5F5F5F5E2F5F5F5E2E2EFF5F5F5E2F5F5F5F5F5F5F5F5F5F5F5F5F5F5F5F5E2F5F5F5F5F5F5F5F5F5F5F5F5F5F5F5F5F5F5F5F5F5F5F5F5F5F5F5F5F5F5F5F5F5F5F5F5F5F5F5F5F5F5F5F5F5F5F5F5F5F5F5F5F5F5F5F5F5F5F5F5F5F5F5F5F5F5F5F5F5F5F5F5F5F5F5F5F5F5F5F5F5F5F5F5F5F5F5F5F5F5F5F5F5F5F5
310
F5F5F5F5F5F5F5F5F5F5F5F5F5F5F5F5F5F5F5F5F5F5F5F5F5F5F5F5F5F5F5F5F5F5F5F5F5F5F5F5E2F5F5F5F5F5F5F5F5F5F5F5F5F5F5F5F5E2F5F5F5E2E2EFF5F5F5F5F5F5F5F5F5F5F5F5F5F5F5F5F5F5F5F5E2F5F5F5F5F5F5F5F5F5F5F5F5F5F5F5F5F5F5F5F5F5F5F5F5F5F5F5F5F5F5F5F5F5F5F5F5F5F5F5F5F5F5
310
F5F5F5F5F5F5F5F5F5F5F5F5F5F5F5F5F5F5F5F5F5F5F5F5F5F5F5F5F5F5F5F5F5F5F5F5F5F5F5F5F5F5F5F5F5F5F5F5F5F5F5F5F5F5F5F5F5F5F5F5F5F5F5F5F5F5F5F5F5F5F5F5F5F5F5F5F5F5F5F5F5F5F5F5F5F5F5F5F5F5F5F5F5E2F5F5F5F5F5F5F5F5F5F5F5F5F5F5F5F5F5F5F5F5E2E2EFF5F5F5F5F5F5F5F5F5F5
310
F5F5F5F5F5F5F5F5F5F5E2F5F5F5F5F5F5F5F5F5F5F5F5F5F5F5F5F5F5F5F5F5F5F5F5F5F5F5F5F5F5F5F5F5F5F5F5F5F5F5F5F5F5F5F5F5F5F5F5F5F5F5F5F5F5F5F5F5F5F5F5F5F5F5F5F5F5F5F5F5F5F5F5F5F5F5F5F5F5F5F5F5F5F5F5F5F5F5F5F5F5F5F5F5F5F5F5F5F5F5F5F5F5F5F5F5F5F5F5F5F5F5F5F5F5F5F5
310
F5F5F5F5F5F5F5F5F5F5F5F5F5F5F5F5F5F5F5E2F5F5F5F5F5F5F5F5F5F5F5F5F5F5F5F5F5F5F5F5E2E2EFF5F5F5F5F5F5F5F5F5F5F5F5F5F5F5F5F5F5F5F5E2F5F5F5F5F5F5F5F5F5F5F5F5F5F5F5F5F5F5F5F5F5F5F5F5F5F5F5F5F5F5F5F5F5F5F5F5F5F5F5F5F5F5F5F5F5F5F5F5F5F5F5F5F5F5F5F5F5F5F5F5F5F5F5
310
F5F5F5F5F5F5F5F5F5F5F5F5F5F5F5F5F5F5F5F5F5F5F5F5F5F5F5F5F5F5F5F5F5F5F5F5F5F5F5F5F5F5F5F5F5F5F5F5F5F5F5F5F5F5F5F5F5F5F5F5F5F5F5F5F5F5F5F5F5F5F5F5E2F5F5F5F5F5F5F5F5F5F5F5F5F5F5F5F5F5F5F5F5E2E2EFF5F5F5F5F5F5F5F5F5F5F5F5F5F5F5F5F5F5F5F5E2F5F5F5F5F5F5F5F5F5F5
310
F5F5F5F5F5F5F5F5F5F5F5F5F5F5F5F5F5F5F5F5F5F5F5F5F5F5F5F5F5F5F5F5F5F5F5F5F5F5F5F5F5F5F5F5F5F5F5F5F5F5F5F5F5F5F5F5F5F5F5F5F5F5F5F5F5F5F5F5F5F5F5F5F5F5F5F5F5F5F5F5F5F5F5F5F5F5F5F5F5F5F5F5F5F5F5F5F5F5F5F5F5F5F5F5F5F5F5F5F5F5F5F5F5F5F5F5F5F5F5F5F5F5F5F5F5E2F5
310
F5F5F5F5F5F5F5F5F5F5F5F5F5F5F5F5F5F5F5E2E2EFF5F5F5F5F5F5F5F5F5F5F5F5F5F5F5F5F5F5F5F5E2F5F5F5F5F5F5F5F5F5F5F5F5F5F5F5F5F5F5F5F5F5F5F5F5F5F5F5F5F5F5F5F5F5F5F5F5F5F5F5F5F5F5F5F5F5F5F5F5F5F5F5F5F5F5F5F5F5F5F5F5F5F5F5F5F5F5F5F5F5F5F5F5F5F5F5F5F5F5F5F5F5F5F5F5
310
F5F5F5F5F5F5F5F5F5F5F5F5F5F5F5F5F5F5F5F5F5F5F5F5F5F5F5F5F5F5F5F5F5F5F5F5F5F5F5F5F5F5F5F5F5F5F5F5F5F5F5E2F5F5F5F5F5F5F5F5F5F5F5F5F5F5F5F5F5F5F5F5E2E2EFF5F5F5F5F5F5F5F5F5F5F5F5F5F5F5F5F5F5F5F5E2F5F5F5F5F5F5F5F5F5F5F5F5F5F5F5F5F5F5F5F5F5F5F5F5F5F5F5F5F5F5F5
310
F5F5F5F5F5F5F5F5F5F5F5F5F5F5F5F5F5F5F5F5F5F5F5F5F5F5F5F5F5F5F5F5F5F5F5F5F5F5F5F5F5F5F5F5F5F5F5F5F5F5F5F5F5F5F5F5F5F5F5F5F5F5F5F5F5F5F5F5F5F5F5F5F5F5F5F5F5F5F5F5F5F5F5F5F5F5F5F5F5F5F5F5F5F5F5F5F5F5F5F5F5F5F5F5E2F5F5F5F5F5F5F5F5F5F5F5F5F5F5F5F5F5F5F5F5E2E2
310
EFF5F5F5F5F5F5F5F5F5F5F5F5F5F5F5F5F5F5F5F5E2F5F5F5F5F5F5F5F5F5F5F5F5F5F5F5F5F5F5F5F5F5F5F5F5F5F5F5F5F5F5F5F5F5F5F5F5F5F5F5F5F5F5F5F5F5F5F5F5F5F5F5F5F5F5F5F5F5F5F5F5F5F5F5F5F5F5F5F5F5F5F5F5F5F5F5F5F5F5F5F5F5F5F5F5F5F5F5F5F5F5F5F5F5F5F5F5F5F5F5F5F5F5F5F5F5
310
F5F5F5F5F5F5F5F5F5F5F5F5F5F5F5F5F5F5F5F5F5F5F5F5F5F5F5F5F5F5E2F5F5F5F5F5F5F5F5F5F5F5F5F5F5F5F5F5F5F5F5E2E2EFF5F5F5F5F5F5F5F5F5F5F5F5F5F5F5F5F5F5F5F5E2F5F5F5F5F5F5F5F5F5F5F5F5F5F5F5F5F5F5F5F5F5F5F5F5F5F5F5F5F5F5F5F5F5F5F5F5F5F5F5F5F5F5F5F5F5F5F5F5F5F5F5F5
310
F5F5F5F5F5F5F5F5F5F5F5F5F5F5F5F5F5F5F5F5F5F5F5F5F5F5F5F5F5F5F5F5F5F5F5F5F5F5F5F5F5F5F5F5F5F5F5F5F5F5F5F5F5F5F5F5F5F5F5F5F5F5F5F5F5F5F5F5F5F5F5F5F5F5F5F5F5F5F5F5F5F5F5E2F5F5F5F5F5F5F5F5F5F5F5F5F5F5F5F5F5F5F5F5E2E2EFF5F5F5F5F5F5F5F5F5F5F5F5F5F5F5F5F5F5F5F5
310
E2F5F5F5F5F5F5F5F5F5F5F5F5F5F5F5F5F5F5F5F5F5F5F5F5F5F5F5F5F5F5F5F5F5F5F5F5F5F5F5F5F5F5F5F5F5F5F5F5F5F5F5F5F5F5F5F5F5F5F5F5F5F5F5F5F5F5F5F5F5F5F5F5F5F5F5F5F5F5F5F5F5F5F5F5F5F5F5F5F5F5F5F5F5F5F5F5F5F5F5F5F5F5F5F5F5F5F5F5F5F5F5F5F5F5F5F5F5F5F5F5F5F5F5F5F5F5
310
F5F5F5F5F5F5F5F5F5E2F5F5F5F5F5F5F5F5F5F5F5F5F5F5F5F5F5F5F5F5E2E2EFF5F5F5E2F5F5F5F5F5F5F5F5F5F5F5F5F5F5F5F5E2F5F5F5F5F5F5F5F5F5F5F5F5F5F5F5F5F5F5F5F5F5F5F5F5F5F5F5F5F5F5F5F5F5F5F5F5F5F5F5F5F5F5F5F5F5F5F5F5F5F5F5F5F5F5F5F5F5F5F5F5F5F5F5F5F5F5F5F5F5F5F5F5F5
310
F5F5F5F5F5F5F5F5F5F5F5F5F5F5F5F5F5F5F5F5F5F5F5F5F5F5F5F5F5F5F5F5F5F5F5F5F5F5F5F5F5F5F5F5F5F5F5F5F5F5F5F5F5F5F5F5F5F5F5F5F5F5E2F5F5F5F5F5F5F5F5F5F5F5F5F5F5F5F5E2F5F5F5E2E2EFF5F5F5E2F5F5F5F5F5F5F5F5F5F5F5F5F5F5F5F5E2F5F5F5F5F5F5F5F5F5F5F5F5F5F5F5F5F5F5F5F5
310
F5F5F5F5F5F5F5F5F5F5F5F5F5F5F5F5F5F5F5F5F5F5F5F5F5F5F5F5F5F5F5F5F5F5F5F5F5F5F5F5F5F5F5F5F5F5F5F5F5F5F5F5F5F5F5F5F5F5F5F5F5F5F5F5F5F5F5F5F5F5F5F5F5F5F5F5F5F5F5F5F5F5F5F5F5F5F5F5F5F5F5F5F5F5F5F5F5F5F5F5F5F5F5F5F5F5F5F5F5F5F5F5F5F5F5E2F5F5F5F5F5F5F5F5F5F5F5
310
F5F5F5F5F5E2F5F5F5E2E2EFF5F5F5E2F5F5F5F5F5F5F5F5F5F5F5F5F5F5F5F5E2F5F5F5F5F5F5F5F5F5F5F5F5F5F5F5F5F5F5F5F5F5F5F5F5F5F5F5F5F5F5F5F5F5F5F5F5F5F5F5F5F5F5F5F5F5F5F5F5F5F5F5F5F5F5F5F5F5F5F5F5F5F5F5F5F5F5F5F5F5F5F5F5F5F5F5F5F5F5F5F5F5F5F5F5F5F5F5F5F5F5F5F5F5F5
310
F5F5F5F5F5F5F5F5F5F5F5F5F5F5F5F5F5F5F5F5F5F5F5F5F5F5F5F5F5F5F5F5F5F5F5F5F5F5F5F5F5E2F5F5F5F5F5F5F5F5F5F5F5F5F5F5F5F5E2F5F5F5E2E2EFF5F5F5E2F5F5F5F5F5F5F5F5F5F5F5F5F5F5F5F5E2F5F5F5F5F5F5F5F5F5F5F5F5F5F5F5F5F5F5F5F5F5F5F5F5F5F5F5F5F5F5F5F5F5F5F5F5F5F5F5F5F5
310
F5F5F5F5F5F5F5F5F5F5F5F5F5F5F5F5F5F5F5F5F5F5F5F5F5F5F5F5F5F5F5F5F5F5F5F5F5F5F5F5F5F5F5F5F5F5F5F5F5F5F5F5F5F5F5F5F5F5F5F5F5F5F5F5F5F5F5F5F5F5F5F5F5F5F5F5F5F5F5F5F5F5F5F5F5F5F5F5F5F5F5F5F5F5E2F5F5F5F5F5F5F5F5F5F5F5F5F5F5F5F5E2F5F5F5E2E2EFF5F5F5E2F5F5F5F5F5
310
F5F5F5F5F5F5F5F5F5F5F5E2F5F5F5F5F5F5F5F5F5F5F5F5F5F5F5F5F5F5F5F5F5F5F5F5F5F5F5F5F5F5F5F5F5F5F5F5F5F5F5F5F5F5F5F5F5F5F5F5F5F5F5F5F5F5F5F5F5F5F5F5F5F5F5F5F5F5F5F5F5F5F5F5F5F5F5F5F5F5F5F5F5F5F5F5F5F5F5F5F5F5F5F5F5F5F5F5F5F5F5F5F5F5F5F5F5F5F5F5F5F5F5F5F5F5F5
310
F5F5F5F5F5F5F5F5F5F5F5F5F5F5F5F5F5F5F5F5E2F5F5F5F5F5F5F5F5F5F5F5F5F5F5F5F5E2F5F5F5E2E2EFF5F5F5E2F5F5F5F5F5F5F5F5F5F5F5F5F5F5F5F5E2F5F5F5F5F5F5F5F5F5F5F5F5F5F5F5F5F5F5F5F5F5F5F5F5F5F5F5F5F5F5F5F5F5F5F5F5F5F5F5F5F5F5F5F5F5F5F5F5F5F5F5F5F5F5F5F5F5F5F5F5F5F5
310
F5F5F5F5F5F5F5F5F5F5F5F5F5F5F5F5F5F5F5F5F5F5F5F5F5F5F5F5F5F5F5F5F5F5F5F5F5F5F5F5F5F5F5F5F5F5F5F5F5F5F5F5F5F5F5F5F5F5F5F5F5F5F5F5F5F5F5F5F5F5F5F5F5E2F5F5F5F5F5F5F5F5F5F5F5F5F5F5F5F5E2F5F5F5E2E2EFF5F5F5E2F5F5F5F5F5F5F5F5F5F5F5F5F5F5F5F5E2F5F5F5F5F5F5F5F5F5
310
F5F5F5F5F5F5F5F5F5F5F5F5F5F5F5F5F5F5F5F5F5F5F5F5F5F5F5F5F5F5F5F5F5F5F5F5F5F5F5F5F5F5F5F5F5F5F5F5F5F5F5F5F5F5F5F5F5F5F5F5F5F5F5F5F5F5F5F5F5F5F5F5F5F5F5F5F5F5F5F5F5F5F5F5F5F5F5F5F5F5F5F5F5F5F5F5F5F5F5F5F5F5F5F5F5F5F5F5F5F5F5F5F5F5F5F5F5F5F5F5F5F5F5F5F5F5E2
310
F5F5F5F5F5F5F5F5F5F5F5F5F5F5F5F5E2F5F5F5E2E2EFF5F5F5E2F5F5F5F5F5F5F5F5F5F5F5F5F5F5F5F5E2F5F5F5F5F5F5F5F5F5F5F5F5F5F5F5F5F5F5F5F5F5F5F5F5F5F5F5F5F5F5F5F5F5F5F5F5F5F5F5F5F5F5F5F5F5F5F5F5F5F5F5F5F5F5F5F5F5F5F5F5F5F5F5F5F5F5F5F5F5F5F5F5F5F5F5F5F5F5F5F5F5F5F5
310
F5F5F5F5F5F5F5F5F5F5F5F5F5F5F5F5F5F5F5F5F5F5F5F5F5F5F5F5F5F5F5F5F5F5F5F5F5F5F5F5F5F5F5F5F5F5F5F5F5F5F5F5E2F5F5F5F5F5F5F5F5F5F5F5F5F5F5F5F5E2F5F5F5E2E2EFF5F5F5E2F5F5F5F5F5F5F5F5F5F5F5F5F5F5F5F5E2F5F5F5F5F5F5F5F5F5F5F5F5F5F5F5F5F5F5F5F5F5F5F5F5F5F5F5F5F5F5
310
F5F5F5F5F5F5F5F5F5F5F5F5F5F5F5F5F5F5F5F5F5F5F5F5F5F5F5F5F5F5F5F5F5F5F5F5F5F5F5F5F5F5F5F5F5F5F5F5F5F5F5F5F5F5F5F5F5F5F5F5F5F5F5F5F5F5F5F5F5F5F5F5F5F5F5F5F5F5F5F5F5F5F5F5F5F5F5F5F5F5F5F5F5F5F5F5F5F5F5F5F5F5F5F5F5E2F5F5F5F5F5F5F5F5F5F5F5F5F5F5F5F5E2F5F5F5E2
310
E2EFF5F5F5E2F5F5F5F5F5F5F5F5F5F5F5F5F5F5F5F5E2F5F5F5F5F5F5F5F5F5F5F5F5F5F5F5F5F5F5F5F5F5F5F5F5F5F5F5F5F5F5F5F5F5F5F5F5F5F5F5F5F5F5F5F5F5F5F5F5F5F5F5F5F5F5F5F5F5F5F5F5F5F5F5F5F5F5F5F5F5F5F5F5F5F5F5F5F5F5F5F5F5F5F5F5F5F5F5F5F5F5F5F5F5F5F5F5F5F5F5F5F5F5F5F5
310
F5F5F5F5F5F5F5F5F5F5F5F5F5F5F5F5F5F5F5F5F5F5F5F5F5F5F5F5F5F5F5E2F5F5F5F5F5F5F5F5F5F5F5F5F5F5F5F5E2F5F5F5E2E2EFF5F5F5E2F5F5F5F5F5F5F5F5F5F5F5F5F5F5F5F5E2F5F5F5F5F5F5F5F5F5F5F5F5F5F5F5F5F5F5F5F5F5F5F5F5F5F5F5F5F5F5F5F5F5F5F5F5F5F5F5F5F5F5F5F5F5F5F5F5F5F5F5
310
F5F5F5F5F5F5F5F5F5F5F5F5F5F5F5F5F5F5F5F5F5F5F5F5F5F5F5F5F5F5F5F5F5F5F5F5F5F5F5F5F5F5F5F5F5F5F5F5F5F5F5F5F5F5F5F5F5F5F5F5F5F5F5F5F5F5F5F5F5F5F5F5F5F5F5F5F5F5F5F5F5F5F5F5E2F5F5F5F5F5F5F5F5F5F5F5F5F5F5F5F5E2F5F5F5E2E2EFF5F5F5E2F5F5F5F5F5F5F5F5F5F5F5F5F5F5F5
310
F5E2F5F5F5F5F5F5F5F5F5F5F5F5F5F5F5F5F5F5F5F5F5F5F5F5F5F5F5F5F5F5F5F5F5F5F5F5F5F5F5F5F5F5F5F5F5F5F5F5F5F5F5F5F5F5F5F5F5F5F5F5F5F5F5F5F5F5F5F5F5F5F5F5F5F5F5F5F5F5F5F5F5F5F5F5F5F5F5F5F5F5F5F5F5F5F5F5F5F5F5F5F5F5F5F5F5F5F5F5F5F5F5F5F5F5F5F5F5F5F5F5F5F5F5F5F5
310
F5F5F5F5F5F5F5F5F5F5E2F5F5F5F5F5F5F5F5F5F5F5F5F5F5F5F5E2F5F5F5E2E2EFF5F5F5E2F5F5F5F5F5F5F5F5F5F5F5F5F5F5F5F5E2F5F5F5F5F5F5F5F5F5F5F5F5F5F5F5F5F5F5F5F5F5F5F5F5F5F5F5F5F5F5F5F5F5F5F5F5F5F5F5F5F5F5F5F5F5F5F5F5F5F5F5F5F5F5F5F5F5F5F5F5F5F5F5F5F5F5F5F5F5F5F5F5
310
F5F5F5F5F5F5F5F5F5F5F5F5F5F5F5F5F5F5F5F5F5F5F5F5F5F5F5F5F5F5F5F5F5F5F5F5F5F5F5F5F5F5F5F5F5F5F5F5F5F5F5F5F5F5F5F5F5F5F5F5F5F5F5E2F5F5F5F5F5F5F5F5F5F5F5F5F5F5F5F5E2F5F5F5E2E2EFF5F5F5E2F5F5F5F5F5F5F5F5F5F5F5F5F5F5F5F5E2F5F5F5F5F5F5F5F5F5F5F5F5F5F5F5F5F5F5F5
310
F5F5F5F5F5F5F5F5F5F5F5F5F5F5F5F5F5F5F5F5F5F5F5F5F5F5F5F5F5F5F5F5F5F5F5F5F5F5F5F5F5F5F5F5F5F5F5F5F5F5F5F5F5F5F5F5F5F5F5F5F5F5F5F5F5F5F5F5F5F5F5F5F5F5F5F5F5F5F5F5F5F5F5F5F5F5F5F5F5F5F5F5F5F5F5F5F5F5F5F5F5F5F5F5F5F5F5F5F5F5F5F5F5F5F5F5E2F5F5F5F5F5F5F5F5F5F5
310
F5F5F5F5F5F5E2F5F5F5E2E2EFF5F5F5E2F5F5F5F5F5F5F5F5F5F5F5F5F5F5F5F5E2F5F5F5F5F5F5F5F5F5F5F5F5F5F5F5F5F5F5F5F5F5F5F5F5F5F5F5F5F5F5F5F5F5F5F5F5F5F5F5F5F5F5F5F5F5F5F5F5F5F5F5F5F5F5F5F5F5F5F5F5F5F5F5F5F5F5F5F5F5F5F5F5F5F5F5F5F5F5F5F5F5F5F5F5F5F5F5F5F5F5F5F5F5
310
F5F5F5F5F5F5F5F5F5F5F5F5F5F5F5F5F5F5F5F5F5F5F5F5F5F5F5F5F5F5F5F5F5F5F5F5F5F5F5F5F5F5E2F5F5F5F5F5F5F5F5F5F5F5F5F5F5F5F5E2F5F5F5E2E2EFF5F5F5E2F5F5F5F5F5F5F5F5F5F5F5F5F5F5F5F5E2F5F5F5F5F5F5F5F5F5F5F5F5F5F5F5F5F5F5F5F5F5F5F5F5F5F5F5F5F5F5F5F5F5F5F5F5F5F5F5F5
310
F5F5F5F5F5F5F5F5F5F5F5F5F5F5F5F5F5F5F5F5F5F5F5F5F5F5F5F5F5F5F5F5F5F5F5F5F5F5F5F5F5F5F5F5F5F5F5F5F5F5F5F5F5F5F5F5F5F5F5F5F5F5F5F5F5F5F5F5F5F5F5F5F5F5F5F5F5F5F5F5F5F5F5F5F5F5F5F5F5F5F5F5F5F5F5E2F5F5F5F5F5F5F5F5F5F5F5F5F5F5F5F5E2F5F5F5E2E2EFF5F5F5E2F5F5F5F5
310
F5F5F5F5F5F5F5F5F5F5F5F5E2F5F5F5F5F5F5F5F5F5F5F5F5F5F5F5F5F5F5F5F5F5F5F5F5F5F5F5F5F5F5F5F5F5F5F5F5F5F5F5F5F5F5F5F5F5F5F5F5F5F5F5F5F5F5F5F5F5F5F5F5F5F5F5F5F5F5F5F5F5F5F5F5F5F5F5F5F5F5F5F5F5F5F5F5F5F5F5F5F5F5F5F5F5F5F5F5F5F5F5F5F5F5F5F5F5F5F5F5F5F5F5F5F5F5
310
F5F5F5F5F5F5F5F5F5F5F5F5F5F5F5F5F5F5F5F5F5E2F5F5F5F5F5F5F5F5F5F5F5F5F5F5F5F5E2F5F5F5E2E2EFF5F5F5F5F5F5F5F5F5F5F5F5F5F5F5F5F5F5F5F5E2F5F5F5F5F5F5F5F5F5F5F5F5F5F5F5F5F5F5F5F5F5F5F5F5F5F5F5F5F5F5F5F5F5F5F5F5F5F5F5F5F5F5F5F5F5F5F5F5F5F5F5F5F5F5F5F5F5F5F5F5F5
310
F5F5F5F5F5F5F5F5F5F5F5F5F5F5F5F5F5F5F5F5F5F5F5F5F5F5F5F5F5F5F5F5F5F5F5F5F5F5F5F5F5F5F5F5F5F5F5F5F5F5F5F5F5F5F5F5F5F5F5F5F5F5F5F5F5F5F5F5F5F5F5F5F5F5E2F5F5F5F5F5F5F5F5F5F5F5F5F5F5F5F5F5F5F5F5E2E2EFF5F5F5F5F5F5F5F5F5F5F5F5F5F5F5F5F5F5F5F5E2F5F5F5F5F5F5F5F5
310
F5F5F5F5F5F5F5F5F5F5F5F5F5F5F5F5F5F5F5F5F5F5F5F5F5F5F5F5F5F5F5F5F5F5F5F5F5F5F5F5F5F5F5F5F5F5F5F5F5F5F5F5F5F5F5F5F5F5F5F5F5F5F5F5F5F5F5F5F5F5F5F5F5F5F5F5F5F5F5F5F5F5F5F5F5F5F5F5F5F5F5F5F5F5F5F5F5F5F5F5F5F5F5F5F5F5F5F5F5F5F5F5F5F5F5F5F5F5F5F5F5F5F5F5F5F5F5
310
E2F5F5F5F5F5F5F5F5F5F5F5F5F5F5F5F5F5F5F5F5E2E2EFF5F5F5F5F5F5F5F5F5F5F5F5F5F5F5F5F5F5F5F5E2F5F5F5F5F5F5F5F5F5F5F5F5F5F5F5F5F5F5F5F5F5F5F5F5F5F5F5F5F5F5F5F5F5F5F5F5F5F5F5F5F5F5F5F5F5F5F5F5F5F5F5F5F5F5F5F5F5F5F5F5F5F5F5F5F5F5F5F5F5F5F5F5F5F5F5F5F5F5F5F5F5F5
310
F5F5F5F5F5F5F5F5F5F5F5F5F5F5F5F5F5F5F5F5F5F5F5F5F5F5F5F5F5F5F5F5F5F5F5F5F5F5F5F5F5F5F5F5F5F5F5F5F5F5F5F5F5E2F5F5F5F5F5F5F5F5F5F5F5F5F5F5F5F5F5F5F5F5E2E2EFF5F5F5F5F5F5F5F5F5F5F5F5F5F5F5F5F5F5F5F5E2F5F5F5F5F5F5F5F5F5F5F5F5F5F5F5F5F5F5F5F5F5F5F5F5F5F5F5F5F5
310
F5F5F5F5F5F5F5F5F5F5F5F5F5F5F5F5F5F5F5F5F5F5F5F5F5F5F5F5F5F5F5F5F5F5F5F5F5F5F5F5F5F5F5F5F5F5F5F5F5F5F5F5F5F5F5F5F5F5F5F5F5F5F5F5F5F5F5F5F5F5F5F5F5F5F5F5F5F5F5F5F5F5F5F5F5F5F5F5F5F5F5F5F5F5F5F5F5F5F5F5F5F5F5F5F5F5E2F5F5F5F5F5F5F5F5F5F5F5F5F5F5F5F5F5F5F5F5
310
E2E2EFF5F5F5F5F5F5F5F5F5F5F5F5F5F5F5F5F5F5F5F5E2F5F5F5F5F5F5F5F5F5F5F5F5F5F5F5F5F5F5F5F5F5F5F5F5F5F5F5F5F5F5F5F5F5F5F5F5F5F5F5F5F5F5F5F5F5F5F5F5F5F5F5F5F5F5F5F5F5F5F5F5F5F5F5F5F5F5F5F5F5F5F5F5F5F5F5F5F5F5F5F5F5F5F5F5F5F5F5F5F5F5F5F5F5F5F5F5F5F5F5F5F5F5F5
310
F5F5F5F5F5F5F5F5F5F5F5F5F5F5F5F5F5F5F5F5F5F5F5F5F5F5F5F5F5F5F5F5E2F5F5F5F5F5F5F5F5F5F5F5F5F5F5F5F5F5F5F5F5E2E2EFF5F5F5F5F5F5F5F5F5F5F5F5F5F5F5F5F5F5F5F5E2F5F5F5F5F5F5F5F5F5F5F5F5F5F5F5F5F5F5F5F5F5F5F5F5F5F5F5F5F5F5F5F5F5F5F5F5F5F5F5F5F5F5F5F5F5F5F5F5F5F5
310
F5F5F5F5F5F5F5F5F5F5F5F5F5F5F5F5F5F5F5F5F5F5F5F5F5F5F5F5F5F5F5F5F5F5F5F5F5F5F5F5F5F5F5F5F5F5F5F5F5F5F5F5F5F5F5F5F5F5F5F5F5F5F5F5F5F5F5F5F5F5F5F5F5F5F5F5F5F5F5F5F5F5F5F5F5E2F5F5F5F5F5F5F5F5F5F5F5F5F5F5F5F5F5F5F5F5E2E2EFF5F5F5F5F5F5F5F5F5F5F5F5F5F5F5F5F5F5
310
F5F5E2F5F5F5F5F5F5F5F5F5F5F5F5F5F5F5F5F5F5F5F5F5F5F5F5F5F5F5F5F5F5F5F5F5F5F5F5F5F5F5F5F5F5F5F5F5F5F5F5F5F5F5F5F5F5F5F5F5F5F5F5F5F5F5F5F5F5F5F5F5F5F5F5F5F5F5F5F5F5F5F5F5F5F5F5F5F5F5F5F5F5F5F5F5F5F5F5F5F5F5F5F5F5F5F5F5F5F5F5F5F5F5F5F5F5F5F5F5F5F5F5F5F5F5F5
310
F5F5F5F5F5F5F5F5F5F5F5E2F5F5F5F5F5F5F5F5F5F5F5F5F5F5F5F5F5F5F5F5E2E2EFF5F5F5F5F5F5F5F5F5F5F5F5F5F5F5F5F5F5F5F5E2F5F5F5F5F5F5F5F5F5F5F5F5F5F5F5F5F5F5F5F5F5F5F5F5F5F5F5F5F5F5F5F5F5F5F5F5F5F5F5F5F5F5F5F5F5F5F5F5F5F5F5F5F5F5F5F5F5F5F5F5F5F5F5F5F5F5F5F5F5F5F5
310
F5F5F5F5F5F5F5F5F5F5F5F5F5F5F5F5F5F5F5F5F5F5F5F5F5F5F5F5F5F5F5F5F5F5F5F5F5F5F5F5F5F5F5F5F5F5F5F5F5F5F5F5F5F5F5F5F5F5F5F5F5F5F5F5E2F5F5F5F5F5F5F5F5F5F5F5F5F5F5F5F5F5F5F5F5E2E2EFF5F5F5F5F5F5F5F5F5F5F5F5F5F5F5F5F5F5F5F5E2F5F5F5F5F5F5F5F5F5F5F5F5F5F5F5F5F5F5
310
F5F5F5F5F5F5F5F5F5F5F5F5F5F5F5F5F5F5F5F5F5F5F5F5F5F5F5F5F5F5F5F5F5F5F5F5F5F5F5F5F5F5F5F5F5F5F5F5F5F5F5F5F5F5F5F5F5F5F5F5F5F5F5F5F5F5F5F5F5F5F5F5F5F5F5F5F5F5F5F5F5F5F5F5F5F5F5F5F5F5F5F5F5F5F5F5F5F5F5F5F5F5F5F5F5F5F5F5F5F5F5F5F5F5F5F5F5E2F5F5F5F5F5F5F5F5F5
310
F5F5F5F5F5F5F5F5F5F5F5E2E2EFF5F5F5E2F5F5F5F5F5F5F5F5F5F5F5F5F5F5F5F5E2F5F5F5F5F5F5F5F5F5F5F5F5F5F5F5F5F5F5F5F5F5F5F5F5F5F5F5F5F5F5F5F5F5F5F5F5F5F5F5F5F5F5F5F5F5F5F5F5F5F5F5F5F5F5F5F5F5F5F5F5F5F5F5F5F5F5F5F5F5F5F5F5F5F5F5F5F5F5F5F5F5F5F5F5F5F5F5F5F5F5F5F5
310
F5F5F5F5F5F5F5F5F5F5F5F5F5F5F5F5F5F5F5F5F5F5F5F5F5F5F5F5F5F5F5F5F5F5F5F5F5F5F5F5F5F5F5E2F5F5F5F5F5F5F5F5F5F5F5F5F5F5F5F5E2F5F5F5E2E2EFF5F5F5E2F5F5F5F5F5F5F5F5F5F5F5F5F5F5F5F5E2F5F5F5F5F5F5F5F5F5F5F5F5F5F5F5F5F5F5F5F5F5F5F5F5F5F5F5F5F5F5F5F5F5F5F5F5F5F5F5
310
F5F5F5F5F5F5F5F5F5F5F5F5F5F5F5F5F5F5F5F5F5F5F5F5F5F5F5F5F5F5F5F5F5F5F5F5F5F5F5F5F5F5F5F5F5F5F5F5F5F5F5F5F5F5F5F5F5F5F5F5F5F5F5F5F5F5F5F5F5F5F5F5F5F5F5F5F5F5F5F5F5F5F5F5F5F5F5F5F5F5F5F5F5F5F5F5E2F5F5F5F5F5F5F5F5F5F5F5F5F5F5F5F5E2F5F5F5E2E2EFF5F5F5E2F5F5F5
310
F5F5F5F5F5F5F5F5F5F5F5F5F5E2F5F5F5F5F5F5F5F5F5F5F5F5F5F5F5F5F5F5F5F5F5F5F5F5F5F5F5F5F5F5F5F5F5F5F5F5F5F5F5F5F5F5F5F5F5F5F5F5F5F5F5F5F5F5F5F5F5F5F5F5F5F5F5F5F5F5F5F5F5F5F5F5F5F5F5F5F5F5F5F5F5F5F5F5F5F5F5F5F5F5F5F5F5F5F5F5F5F5F5F5F5F5F5F5F5F5F5F5F5F5F5F5F5
310
F5F5F5F5F5F5F5F5F5F5F5F5F5F5F5F5F5F5F5F5F5F5E2F5F5F5F5F5F5F5F5F5F5F5F5F5F5F5F5E2F5F5F5E2E2EFF5F5F5E2F5F5F5F5F5F5F5F5F5F5F5F5F5F5F5F5E2F5F5F5F5F5F5F5F5F5F5F5F5F5F5F5F5F5F5F5F5F5F5F5F5F5F5F5F5F5F5F5F5F5F5F5F5F5F5F5F5F5F5F5F5F5F5F5F5F5F5F5F5F5F5F5F5F5F5F5F5
310
F5F5F5F5F5F5F5F5F5F5F5F5F5F5F5F5F5F5F5F5F5F5F5F5F5F5F5F5F5F5F5F5F5F5F5F5F5F5F5F5F5F5F5F5F5F5F5F5F5F5F5F5F5F5F5F5F5F5F5F5F5F5F5F5F5F5F5F5F5F5F5F5F5F5F5E2F5F5F5F5F5F5F5F5F5F5F5F5F5F5F5F5E2F5F5F5E2E2EFF5F5F5E2F5F5F5F5F5F5F5F5F5F5F5F5F5F5F5F5E2F5F5F5F5F5F5F5
310
F5F5F5F5F5F5F5F5F5F5F5F5F5F5F5F5F5F5F5F5F5F5F5F5F5F5F5F5F5F5F5F5F5F5F5F5F5F5F5F5F5F5F5F5F5F5F5F5F5F5F5F5F5F5F5F5F5F5F5F5F5F5F5F5F5F5F5F5F5F5F5F5F5F5F5F5F5F5F5F5F5F5F5F5F5F5F5F5F5F5F5F5F5F5F5F5F5F5F5F5F5F5F5F5F5F5F5F5F5F5F5F5F5F5F5F5F5F5F5F5F5F5F5F5F5F5F5
310
F5E2F5F5F5F5F5F5F5F5F5F5F5F5F5F5F5F5E2F5F5F5E2E2EFF5F5F5E2F5F5F5F5F5F5F5F5F5F5F5F5F5F5F5F5E2F5F5F5F5F5F5F5F5F5F5F5F5F5F5F5F5F5F5F5F5F5F5F5F5F5F5F5F5F5F5F5F5F5F5F5F5F5F5F5F5F5F5F5F5F5F5F5F5F5F5F5F5F5F5F5F5F5F5F5F5F5F5F5F5F5F5F5F5F5F5F5F5F5F5F5F5F5F5F5F5F5
310
F5F5F5F5F5F5F5F5F5F5F5F5F5F5F5F5F5F5F5F5F5F5F5F5F5F5F5F5F5F5F5F5F5F5F5F5F5F5F5F5F5F5F5F5F5F5F5F5F5F5F5F5F5F5E2F5F5F5F5F5F5F5F5F5F5F5F5F5F5F5F5E2F5F5F5E2E2EFF5F5F5E2F5F5F5F5F5F5F5F5F5F5F5F5F5F5F5F5E2F5F5F5F5F5F5F5F5F5F5F5F5F5F5F5F5F5F5F5F5F5F5F5F5F5F5F5F5
310
F5F5F5F5F5F5F5F5F5F5F5F5F5F5F5F5F5F5F5F5F5F5F5F5F5F5F5F5F5F5F5F5F5F5F5F5F5F5F5F5F5F5F5F5F5F5F5F5F5F5F5F5F5F5F5F5F5F5F5F5F5F5F5F5F5F5F5F5F5F5F5F5F5F5F5F5F5F5F5F5F5F5F5F5F5F5F5F5F5F5F5F5F5F5F5F5F5F5F5F5F5F5F5F5F5F5F5E2F5F5F5F5F5F5F5F5F5F5F5F5F5F5F5F5E2F5F5
310
F5E2E2EFF5F5F5E2F5F5F5F5F5F5F5F5F5F5F5F5F5F5F5F5E2F5F5F5F5F5F5F5F5F5F5F5F5F5F5F5F5F5F5F5F5F5F5F5F5F5F5F5F5F5F5F5F5F5F5F5F5F5F5F5F5F5F5F5F5F5F5F5F5F5F5F5F5F5F5F5F5F5F5F5F5F5F5F5F5F5F5F5F5F5F5F5F5F5F5F5F5F5F5F5F5F5F5F5F5F5F5F5F5F5F5F5F5F5F5F5F5F5F5F5F5F5F5
310
F5F5F5F5F5F5F5F5F5F5F5F5F5F5F5F5F5F5F5F5F5F5F5F5F5F5F5F5F5F5F5F5F5E2F5F5F5F5F5F5F5F5F5F5F5F5F5F5F5F5E2F5F5F5E2E2EFF5F5F5E2F5F5F5F5F5F5F5F5F5F5F5F5F5F5F5F5E2F5F5F5F5F5F5F5F5F5F5F5F5F5F5F5F5F5F5F5F5F5F5F5F5F5F5F5F5F5F5F5F5F5F5F5F5F5F5F5F5F5F5F5F5F5F5F5F5F5
310
F5F5F5F5F5F5F5F5F5F5F5F5F5F5F5F5F5F5F5F5F5F5F5F5F5F5F5F5F5F5F5F5F5F5F5F5F5F5F5F5F5F5F5F5F5F5F5F5F5F5F5F5F5F5F5F5F5F5F5F5F5F5F5F5F5F5F5F5F5F5F5F5F5F5F5F5F5F5F5F5F5F5F5F5F5F5E2F5F5F5F5F5F5F5F5F5F5F5F5F5F5F5F5E2F5F5F5E2E2EFF5F5F5E2F5F5F5F5F5F5F5F5F5F5F5F5F5
310
F5F5F5E2F5F5F5F5F5F5F5F5F5F5F5F5F5F5F5F5F5F5F5F5F5F5F5F5F5F5F5F5F5F5F5F5F5F5F5F5F5F5F5F5F5F5F5F5F5F5F5F5F5F5F5F5F5F5F5F5F5F5F5F5F5F5F5F5F5F5F5F5F5F5F5F5F5F5F5F5F5F5F5F5F5F5F5F5F5F5F5F5F5F5F5F5F5F5F5F5F5F5F5F5F5F5F5F5F5F5F5F5F5F5F5F5F5F5F5F5F5F5F5F5F5F5F5
310
F5F5F5F5F5F5F5F5F5F5F5F5E2F5F5F5F5F5F5F5F5F5F5F5F5F5F5F5F5E2F5F5F5E2E2EFF5F5F5E2F5F5F5F5F5F5F5F5F5F5F5F5F5F5F5F5E2F5F5F5F5F5F5F5F5F5F5F5F5F5F5F5F5F5F5F5F5F5F5F5F5F5F5F5F5F5F5F5F5F5F5F5F5F5F5F5F5F5F5F5F5F5F5F5F5F5F5F5F5F5F5F5F5F5F5F5F5F5F5F5F5F5F5F5F5F5F5
310
F5F5F5F5F5F5F5F5F5F5F5F5F5F5F5F5F5F5F5F5F5F5F5F5F5F5F5F5F5F5F5F5F5F5F5F5F5F5F5F5F5F5F5F5F5F5F5F5F5F5F5F5F5F5F5F5F5F5F5F5F5F5F5F5F5E2F5F5F5F5F5F5F5F5F5F5F5F5F5F5F5F5E2F5F5F5E2E2EFF5F5F5E2F5F5F5F5F5F5F5F5F5F5F5F5F5F5F5F5E2F5F5F5F5F5F5F5F5F5F5F5F5F5F5F5F5F5
310
F5F5F5F5F5F5F5F5F5F5F5F5F5F5F5F5F5F5F5F5F5F5F5F5F5F5F5F5F5F5F5F5F5F5F5F5F5F5F5F5F5F5F5F5F5F5F5F5F5F5F5F5F5F5F5F5F5F5F5F5F5F5F5F5F5F5F5F5F5F5F5F5F5F5F5F5F5F5F5F5F5F5F5F5F5F5F5F5F5F5F5F5F5F5F5F5F5F5F5F5F5F5F5F5F5F5F5F5F5F5F5F5F5F5F5F5F5F5E2F5F5F5F5F5F5F5F5
310
F5F5F5F5F5F5F5F5E2F5F5F5E2E2EFF5F5F5E2F5F5F5F5F5F5F5F5F5F5F5F5F5F5F5F5E2F5F5F5F5F5F5F5F5F5F5F5F5F5F5F5F5F5F5F5F5F5F5F5F5F5F5F5F5F5F5F5F5F5F5F5F5F5F5F5F5F5F5F5F5F5F5F5F5F5F5F5F5F5F5F5F5F5F5F5F5F5F5F5F5F5F5F5F5F5F5F5F5F5F5F5F5F5F5F5F5F5F5F5F5F5F5F5F5F5F5F5
310
F5F5F5F5F5F5F5F5F5F5F5F5F5F5F5F5F5F5F5F5F5F5F5F5F5F5F5F5F5F5F5F5F5F5F5F5F5F5F5F5F5F5F5F5E2F5F5F5F5F5F5F5F5F5F5F5F5F5F5F5F5E2F5F5F5E2E2EFF5F5F5E2F5F5F5F5F5F5F5F5F5F5F5F5F5F5F5F5E2F5F5F5F5F5F5F5F5F5F5F5F5F5F5F5F5F5F5F5F5F5F5F5F5F5F5F5F5F5F5F5F5F5F5F5F5F5F5
310
F5F5F5F5F5F5F5F5F5F5F5F5F5F5F5F5F5F5F5F5F5F5F5F5F5F5F5F5F5F5F5F5F5F5F5F5F5F5F5F5F5F5F5F5F5F5F5F5F5F5F5F5F5F5F5F5F5F5F5F5F5F5F5F5F5F5F5F5F5F5F5F5F5F5F5F5F5F5F5F5F5F5F5F5F5F5F5F5F5F5F5F5F5F5F5F5F5E2F5F5F5F5F5F5F5F5F5F5F5F5F5F5F5F5E2F5F5F5E2E2EFF5F5F5E2F5F5
310
F5F5F5F5F5F5F5F5F5F5F5F5F5F5E2F5F5F5F5F5F5F5F5F5F5F5F5F5F5F5F5F5F5F5F5F5F5F5F5F5F5F5F5F5F5F5F5F5F5F5F5F5F5F5F5F5F5F5F5F5F5F5F5F5F5F5F5F5F5F5F5F5F5F5F5F5F5F5F5F5F5F5F5F5F5F5F5F5F5F5F5F5F5F5F5F5F5F5F5F5F5F5F5F5F5F5F5F5F5F5F5F5F5F5F5F5F5F5F5F5F5F5F5F5F5F5F5
310
F5F5F5F5F5F5F5F5F5F5F5F5F5F5F5F5F5F5F5F5F5F5F5E2F5F5F5F5F5F5F5F5F5F5F5F5F5F5F5F5E2F5F5F5E2E2EFF5F5F5E2F5F5F5F5F5F5F5F5F5F5F5F5F5F5F5F5E2F5F5F5F5F5F5F5F5F5F5F5F5F5F5F5F5F5F5F5F5F5F5F5F5F5F5F5F5F5F5F5F5F5F5F5F5F5F5F5F5F5F5F5F5F5F5F5F5F5F5F5F5F5F5F5F5F5F5F5
310
F5F5F5F5F5F5F5F5F5F5F5F5F5F5F5F5F5F5F5F5F5F5F5F5F5F5F5F5F5F5F5F5F5F5F5F5F5F5F5F5F5F5F5F5F5F5F5F5F5F5F5F5F5F5F5F5F5F5F5F5F5F5F5F5F5F5F5F5F5F5F5F5F5F5F5F5E2F5F5F5F5F5F5F5F5F5F5F5F5F5F5F5F5E2F5F5F5E2E2EFF5F5F5E2F5F5F5F5F5F5F5F5F5F5F5F5F5F5F5F5E2F5F5F5F5F5F5
310
F5F5F5F5F5F5F5F5F5F5F5F5F5F5F5F5F5F5F5F5F5F5F5F5F5F5F5F5F5F5F5F5F5F5F5F5F5F5F5F5F5F5F5F5F5F5F5F5F5F5F5F5F5F5F5F5F5F5F5F5F5F5F5F5F5F5F5F5F5F5F5F5F5F5F5F5F5F5F5F5F5F5F5F5F5F5F5F5F5F5F5F5F5F5F5F5F5F5F5F5F5F5F5F5F5F5F5F5F5F5F5F5F5F5F5F5F5F5F5F5F5F5F5F5F5F5F5
310
F5F5E2F5F5F5F5F5F5F5F5F5F5F5F5F5F5F5F5E2F5F5F5E2E2EFF5F5F5F5F5F5F5F5F5F5F5F5F5F5F5F5F5F5F5F5E2F5F5F5F5F5F5F5F5F5F5F5F5F5F5F5F5F5F5F5F5F5F5F5F5F5F5F5F5F5F5F5F5F5F5F5F5F5F5F5F5F5F5F5F5F5F5F5F5F5F5F5F5F5F5F5F5F5F5F5F5F5F5F5F5F5F5F5F5F5F5F5F5F5F5F5F5F5F5F5F5
310
F5F5F5F5F5F5F5F5F5F5F5F5F5F5F5F5F5F5F5F5F5F5F5F5F5F5F5F5F5F5F5F5F5F5F5F5F5F5F5F5F5F5F5F5F5F5F5F5F5F5F5F5F5F5F5E2F5F5F5F5F5F5F5F5F5F5F5F5F5F5F5F5F5F5F5F5E2E2EFF5F5F5F5F5F5F5F5F5F5F5F5F5F5F5F5F5F5F5F5E2F5F5F5F5F5F5F5F5F5F5F5F5F5F5F5F5F5F5F5F5F5F5F5F5F5F5F5
310
F5F5F5F5F5F5F5F5F5F5F5F5F5F5F5F5F5F5F5F5F5F5F5F5F5F5F5F5F5F5F5F5F5F5F5F5F5F5F5F5F5F5F5F5F5F5F5F5F5F5F5F5F5F5F5F5F5F5F5F5F5F5F5F5F5F5F5F5F5F5F5F5F5F5F5F5F5F5F5F5F5F5F5F5F5F5F5F5F5F5F5F5F5F5F5F5F5F5F5F5F5F5F5F5F5F5F5F5E2F5F5F5F5F5F5F5F5F5F5F5F5F5F5F5F5F5F5
310
F5F5E2E2EFF5F5F5F5F5F5F5F5F5F5F5F5F5F5F5F5F5F5F5F5E2F5F5F5F5F5F5F5F5F5F5F5F5F5F5F5F5F5F5F5F5F5F5F5F5F5F5F5F5F5F5F5F5F5F5F5F5F5F5F5F5F5F5F5F5F5F5F5F5F5F5F5F5F5F5F5F5F5F5F5F5F5F5F5F5F5F5F5F5F5F5F5F5F5F5F5F5F5F5F5F5F5F5F5F5F5F5F5F5F5F5F5F5F5F5F5F5F5F5F5F5F5
310
F5F5F5F5F5F5F5F5F5F5F5F5F5F5F5F5F5F5F5F5F5F5F5F5F5F5F5F5F5F5F5F5F5F5E2F5F5F5F5F5F5F5F5F5F5F5F5F5F5F5F5F5F5F5F5E2E2EFF5F5F5F5F5F5F5F5F5F5F5F5F5F5F5F5F5F5F5F5E2F5F5F5F5F5F5F5F5F5F5F5F5F5F5F5F5F5F5F5F5F5F5F5F5F5F5F5F5F5F5F5F5F5F5F5F5F5F5F5F5F5F5F5F5F5F5F5F5
310
F5F5F5F5F5F5F5F5F5F5F5F5F5F5F5F5F5F5F5F5F5F5F5F5F5F5F5F5F5F5F5F5F5F5F5F5F5F5F5F5F5F5F5F5F5F5F5F5F5F5F5F5F5F5F5F5F5F5F5F5F5F5F5F5F5F5F5F5F5F5F5F5F5F5F5F5F5F5F5F5F5F5F5F5F5F5F5E2F5F5F5F5F5F5F5F5F5F5F5F5F5F5F5F5F5F5F5F5E2E2EFF5F5F5F5F5F5F5F5F5F5F5F5F5F5F5F5
310
F5F5F5F5E2E2E2E2E2E2E2E2E2E2E2E2E2E2E2E2E2E2E2E2E2E2E2E2E2E2E2E2E2E2E2E2E2E2E2E2E2E2E2E2E2E2E2E2E2E2E2E2E2E2E2E2E2E2E2E2E2E2E2E2E2E2E2E2E2E2E2E2E2E2E2E2E2E2E2E2E2E2E2E2E2E2E2E2E2E2E2E2E2E2E2E2E2E2E2E2E2E2E2E2E2E2E2E2E2E2E2E2E2E2E2E2E2E2E2E2E2E2E2E2E2E2E2
310
E2E2E2E2E2E2E2E2E2E2E2E2E2E2F5F5F5F5F5F5F5F5F5F5F5F5F5F5F5F5F5F5F5F5E2E2EFF5F5F5F5F5F5F5F5F5F5F5F5F5F5F5F5F5F5F5F5F5F5F5F5F5F5F5F5F5F5F5F5F5F5F5F5F5F5F5F5F5F5F5F5F5F5F5F5F5F5F5F5F5F5F5F5F5F5F5F5F5F5F5F5F5F5F5F5F5F5F5F5F5F5F5F5F5F5F5F5F5F5F5F5F5F5F5F5F5F5
310
F5F5F5F5F5F5F5F5F5F5F5F5F5F5F5F5F5F5F5F5F5F5F5F5F5F5F5F5F5F5F5F5F5F5F5F5F5F5F5F5F5F5F5F5F5F5F5F5F5F5F5F5F5F5F5F5F5F5F5F5F5F5F5F5F5F5F5F5F5F5F5F5F5F5F5F5F5F5F5F5F5F5F5F5F5F5F5E2E2EFF5F5F5F5F5F5F5F5F5F5F5F5F5F5F5F5F5F5F5F5F5F5F5F5F5F5F5F5F5F5F5F5F5F5F5F5F5
310
F5F5F5F5F5F5F5F5F5F5F5F5F5F5F5F5F5F5F5F5F5F5F5F5F5F5F5F5F5F5F5F5F5F5F5F5F5F5F5F5F5F5F5F5F5F5F5F5F5F5F5F5F5F5F5F5F5F5F5F5F5F5F5F5F5F5F5F5F5F5F5F5F5F5F5F5F5F5F5F5F5F5F5F5F5F5F5F5F5F5F5F5F5F5F5F5F5F5F5F5F5F5F5F5F5F5F5F5F5F5F5F5F5F5F5F5F5F5F5F5F5F5F5F5F5F5F5
310
F5F5F5F5F5F5F5F5F5F5F5F5F5E2E2EFF5F5F5F5F5F5F5F5F5F5F5F5F5F5F5F5F5F5F5F5F5F5F5F5F5F5F5F5F5F5F5F5F5F5F5F5F5F5F5F5F5F5F5F5F5F5F5F5F5F5F5F5F5F5F5F5F5F5F5F5F5F5F5F5F5F5F5F5F5F5F5F5F5F5F5F5F5F5F5F5F5F5F5F5F5F5F5F5F5F5F5F5F5F5F5F5F5F5F5F5F5F5F5F5F5F5F5F5F5F5F5
310
F5F5F5F5F5F5F5F5F5F5F5F5F5F5F5F5F5F5F5F5F5F5F5F5F5F5F5F5F5F5F5F5F5F5F5F5F5F5F5F5F5F5F5F5F5F5F5F5F5F5F5F5F5F5F5F5F5F5F5F5F5F5F5F5F5F5E2E2EFF5F5F5F5F5F5F5F5F5F5F5F5F5F5F5F5F5F5F5F5F5F5F5F5F5F5F5F5F5F5F5F5F5F5F5F5F5F5F5F5F5F5F5F5F5F5F5F5F5F5F5F5F5F5F5F5F5F5
310
F5F5F5F5F5F5F5F5F5F5F5F5F5F5F5F5F5F5F5F5F5F5F5F5F5F5F5F5F5F5F5F5F5F5F5F5F5F5F5F5F5F5F5F5F5F5F5F5F5F5F5F5F5F5F5F5F5F5F5F5F5F5F5F5F5F5F5F5F5F5F5F5F5F5F5F5F5F5F5F5F5F5F5F5F5F5F5F5F5F5F5F5F5F5F5F5F5F5F5F5F5F5F5F5F5F5F5F5F5F5F5F5F5F5F5F5F5F5F5E2E2EFF5F5F5E2F5
310
F5F5F5F5F5F5F5F5F5F5F5F5F5F5F5F5F5F5F5F5F5F5F5F5F5F5F5F5F5F5F5F5F5F5F5F5F5F5F5F5F5F5F5F5F5F5F5F5F5F5F5F5F5F5F5F5F5F5F5F5F5F5F5F5F5F5F5F5F5F5F5F5F5F5F5F5F5F5F5F5F5F5F5F5F5F5F5F5F5F5F5F5F5F5F5F5F5F5F5F5F5F5F5F5F5F5F5F5F5F5F5F5F5F5F5F5F5F5F5F5F5F5F5F5F5F5F5
310
F5F5F5F5F5F5F5F5F5F5F5F5F5F5F5F5F5F5F5F5F5F5F5F5F5F5F5F5F5F5F5F5F5F5F5F5F5F5F5F5F5E2F5F5F5E2E2EFF5F5F5E2F5F5F5F5F5F5F5F5F5F5F5F5F5F5F5F5F5F5F5F5F5F5F5F5F5F5F5F5F5F5F5F5F5F5F5F5F5F5F5F5F5F5F5F5F5F5F5F5F5F5F5F5F5F5F5F5F5F5F5F5F5F5F5F5F5F5F5F5F5F5F5F5F5F5F5
310
F5F5F5F5F5F5F5F5F5F5F5F5F5F5F5F5F5F5F5F5F5F5F5F5F5F5F5F5F5F5F5F5F5F5F5F5F5F5F5F5F5F5F5F5F5F5F5F5F5F5F5F5F5F5F5F5F5F5F5F5F5F5F5F5F5F5F5F5F5F5F5F5F5F5F5F5F5F5F5F5F5F5F5F5F5F5F5F5F5F5F5F5F5F5E2F5F5F5E2E2EFF5F5F5E2F5F5F5F5F5F5F5F5F5F5F5F5F5F5F5F5F5F5F5F5F5F5
310
F5F5F5F5F5F5F5F5F5F5F5F5F5F5F5F5F5F5F5F5F5F5F5F5F5F5F5F5F5F5F5F5F5F5F5F5F5F5F5F5F5F5F5F5F5F5F5F5F5F5F5F5F5F5F5F5F5F5F5F5F5F5F5F5F5F5F5F5F5F5F5F5F5F5F5F5F5F5F5F5F5F5F5F5F5F5F5F5F5F5F5F5F5F5F5F5F5F5F5F5F5F5F5F5F5F5F5F5F5F5F5F5F5F5F5F5F5F5F5F5F5F5F5F5F5F5F5
310
F5F5F5F5F5F5F5F5F5F5F5F5F5F5F5F5F5F5F5F5E2F5F5F5E2E2EFF5F5F5E2F5F5F5F5F5F5F5F5F5F5F5F5F5F5F5F5F5F5F5F5F5F5F5F5F5F5F5F5F5F5F5F5F5F5F5F5F5F5F5F5F5F5F5F5F5F5F5F5F5F5F5F5F5F5F5F5F5F5F5F5F5F5F5F5F5F5F5F5F5F5F5F5F5F5F5F5F5F5F5F5F5F5F5F5F5F5F5F5F5F5F5F5F5F5F5F5
310
F5F5F5F5F5F5F5F5F5F5F5F5F5F5F5F5F5F5F5F5F5F5F5F5F5F5F5F5F5F5F5F5F5F5F5F5F5F5F5F5F5F5F5F5F5F5F5F5F5F5F5F5F5F5F5F5F5F5F5F5F5F5F5F5F5F5F5F5F5F5F5F5F5E2F5F5F5E2E2EFF5F5F5E2F5F5F5F5F5F5F5F5F5F5F5F5F5F5F5F5F5F5F5F5F5F5F5F5F5F5F5F5F5F5F5F5F5F5F5F5F5F5F5F5F5F5F5
310
F5F5F5F5F5F5F5F5F5F5F5F5F5F5F5F5F5F5F5F5F5F5F5F5F5F5F5F5F5F5F5F5F5F5F5F5F5F5F5F5F5F5F5F5F5F5F5F5F5F5F5F5F5F5F5F5F5F5F5F5F5F5F5F5F5F5F5F5F5F5F5F5F5F5F5F5F5F5F5F5F5F5F5F5F5F5F5F5F5F5F5F5F5F5F5F5F5F5F5F5F5F5F5F5F5F5F5F5F5F5F5F5F5F5F5F5F5F5F5F5F5F5F5F5F5F5E2
310
F5F5F5E2E2EFF5F5F5E2F5F5F5F5F5F5F5F5F5F5F5F5F5F5F5F5F5F5F5F5F5F5F5F5F5F5F5F5F5F5F5F5F5F5F5F5F5F5F5F5F5F5F5F5F5F5F5F5F5F5F5F5F5F5F5F5F5F5F5F5F5F5F5F5F5F5F5F5F5F5F5F5F5F5F5F5F5F5F5F5F5F5F5F5F5F5F5F5F5F5F5F5F5F5F5F5F5F5F5F5F5F5F5F5F5F5F5F5F5F5F5F5F5F5F5F5F5
310
F5F5F5F5F5F5F5F5F5F5F5F5F5F5F5F5F5F5F5F5F5F5F5F5F5F5F5F5F5F5F5F5F5F5F5F5F5F5F5F5F5F5F5F5F5F5F5F5F5F5F5F5E2F5F5F5E2E2EFF5F5F5E2F5F5F5F5F5F5F5F5F5F5F5F5F5F5F5F5F5F5F5F5F5F5F5F5F5F5F5F5F5F5F5F5F5F5F5F5F5F5F5F5F5F5F5F5F5F5F5F5F5F5F5F5F5F5F5F5F5F5F5F5F5F5F5F5
310
F5F5F5F5F5F5F5F5F5F5F5F5F5F5F5F5F5F5F5F5F5F5F5F5F5F5F5F5F5F5F5F5F5F5F5F5F5F5F5F5F5F5F5F5F5F5F5F5F5F5F5F5F5F5F5F5F5F5F5F5F5F5F5F5F5F5F5F5F5F5F5F5F5F5F5F5F5F5F5F5F5F5F5F5F5F5F5F5F5F5F5F5F5F5F5F5F5F5F5F5F5F5F5F5F5E2F5F5F5E2E2EFF5F5F5E2F5F5F5F5F5F5F5F5F5F5F5
310
F5F5F5F5F5F5F5F5F5F5F5F5F5F5F5F5F5F5F5F5F5F5F5F5F5F5F5F5F5F5F5F5F5F5F5F5F5F5F5F5F5F5F5F5F5F5F5F5F5F5F5F5F5F5F5F5F5F5F5F5F5F5F5F5F5F5F5F5F5F5F5F5F5F5F5F5F5F5F5F5F5F5F5F5F5F5F5F5F5F5F5F5F5F5F5F5F5F5F5F5F5F5F5F5F5F5F5F5F5F5F5F5F5F5F5F5F5F5F5F5F5F5F5F5F5F5F5
310
F5F5F5F5F5F5F5F5F5F5F5F5F5F5F5F5F5F5F5F5F5F5F5F5F5F5F5F5F5F5F5E2F5F5F5E2E2EFF5F5F5E2E2E2E2E2E2E2E2F5F5F5F5F5F5F5F5F5E2E2E2E2E2E2E2E2E2E2E2E2E2E2E2E2F5F5F5F5F5F5F5F5E2E2E2E2E2E2E2E2E2E2E2E2E2E2E2E2F5F5F5F5F5F5F5F5F5E2E2E2E2E2E2E2E2E2E2E2E2E2E2E2F5F5F5F5F5
310
F5F5F5F5E2E2E2E2E2E2E2E2E2E2E2E2E2E2E2F5F5F5F5F5F5F5F5F5E2E2E2E2E2E2E2E2E2E2E2E2E2E2E2E2F5F5F5F5F5F5F5F5E2E2E2E2E2E2E2E2E2E2E2E2E2E2E2E2F5F5F5F5F5F5F5F5F5E2E2E2E2E2E2E2E2F5F5F5E2E2EFF5F5F5F5F5F5F5F5F5F5F5F5F5F5F5F5F5F5F5F5F5F5F5F5F5F5F5F5F5F5F5F5F5F5F5F5
310
F5F5F5F5F5F5F5F5F5F5F5F5F5F5F5F5F5F5F5F5F5F5F5F5F5F5F5F5F5F5F5F5F5F5F5F5F5F5F5F5F5F5F5F5F5F5F5F5F5F5F5F5F5F5F5F5F5F5F5F5F5F5F5F5F5F5F5F5F5F5F5F5F5F5F5F5F5F5F5F5F5F5F5F5F5F5F5F5F5F5F5F5F5F5F5F5F5F5F5F5F5F5F5F5F5F5F5F5F5F5F5F5F5F5F5F5F5F5F5F5F5F5F5F5F5F5F5
310
F5F5F5F5F5F5F5F5F5F5F5F5F5F5E2E2EFF5F5F5F5F5F5F5F5F5F5F5F5F5F5F5F5F5F5F5F5F5F5F5F5F5F5F5F5F5F5F5F5F5F5F5F5F5F5F5F5F5F5F5F5F5F5F5F5F5F5F5F5F5F5F5F5F5F5F5F5F5F5F5F5F5F5F5F5F5F5F5F5F5F5F5F5F5F5F5F5F5F5F5F5F5F5F5F5F5F5F5F5F5F5F5F5F5F5F5F5F5F5F5F5F5F5F5F5F5F5
310
F5F5F5F5F5F5F5F5F5F5F5F5F5F5F5F5F5F5F5F5F5F5F5F5F5F5F5F5F5F5F5F5F5F5F5F5F5F5F5F5F5F5F5F5F5F5F5F5F5F5F5F5F5F5F5F5F5F5F5F5F5F5F5F5F5F5F5E2EFEFF5F5F5F5F5F5F5F5F5F5F5F5F5F5F5F5F5F5F5F5F5F5F5F5F5F5F5F5F5F5F5F5F5F5F5F5F5F5F5F5F5F5F5F5F5F5F5F5F5F5F5F5F5F5F5F5F5
310
F5F5F5F5F5F5F5F5F5F5F5F5F5F5F5F5F5F5F5F5F5F5F5F5F5F5F5F5F5F5F5F5F5F5F5F5F5F5F5F5F5F5F5F5F5F5F5F5F5F5F5F5F5F5F5F5F5F5F5F5F5F5F5F5F5F5F5F5F5F5F5F5F5F5F5F5F5F5F5F5F5F5F5F5F5F5F5F5F5F5F5F5F5F5F5F5F5F5F5F5F5F5F5F5F5F5F5F5F5F5F5F5F5F5F5F5F5F5F5F5E2EFEFE2E2E2E2
310
E2E2E2E2E2E2E2E2E2E2E2E2E2E2E2E2E2E2E2E2E2E2E2E2E2E2E2E2E2E2E2E2E2E2E2E2E2E2E2E2E2E2E2E2E2E2E2E2E2E2E2E2E2E2E2E2E2E2E2E2E2E2E2E2E2E2E2E2E2E2E2E2E2E2E2E2E2E2E2E2E2E2E2E2E2E2E2E2E2E2E2E2E2E2E2E2E2E2E2E2E2E2E2E2E2E2E2E2E2E2E2E2E2E2E2E2E2E2E2E2E2E2E2E2E2E2E2
310
E2E2E2E2E2E2E2E2E2E2E2E2E2E2E2E2E2E2E2E2E2E2E2E2E2E2E2E2E2E2E2E2E2E2E2E2E2E2E2E2E2E2E2E2E2E2E2EFEF
  0
ENDSEC
  0
EOF
