  0
SECTION
  2
HEADER
  9
$ACADVER
  1
AC1018
  9
$ACADMAINTVER
 70
     0
  9
$DWGCODEPAGE
  3
ANSI_1252
  9
$AUTHOR
  1
g6edxjah
  9
$LASTSAVEDBY
  1
g6edxjah
  9
$INSBASE
 10
0.0
 20
0.0
 30
0.0
  9
$EXTMIN
 10
33.043458
 20
-0.081542
 30
0.0
  9
$EXTMAX
 10
41.456542
 20
11.081542
 30
0.0
  9
$LIMMIN
 10
9.293291
 20
-22.456709
  9
$LIMMAX
 10
65.206709
 20
33.456709
  9
$ORTHOMODE
 70
     0
  9
$REGENMODE
 70
     1
  9
$FILLMODE
 70
     1
  9
$QTEXTMODE
 70
     0
  9
$MIRRTEXT
 70
     0
  9
$LTSCALE
 40
1.0
  9
$ATTMODE
 70
     1
  9
$TEXTSIZE
 40
0.12
  9
$TRACEWID
 40
0.05
  9
$TEXTSTYLE
  7
Standard
  9
$CLAYER
  8
DIM
  9
$CELTYPE
  6
Continuous
  9
$CECOLOR
 62
     7
  9
$CELTSCALE
 40
1.0
  9
$DISPSILH
 70
     0
  9
$DIMSCALE
 40
1.0
  9
$DIMASZ
 40
0.12
  9
$DIMEXO
 40
0.06
  9
$DIMDLI
 40
0.0
  9
$DIMRND
 40
0.0
  9
$DIMDLE
 40
0.0
  9
$DIMEXE
 40
0.06
  9
$DIMTP
 40
0.0
  9
$DIMTM
 40
0.0
  9
$DIMTXT
 40
0.12
  9
$DIMCEN
 40
0.09
  9
$DIMTSZ
 40
0.0
  9
$DIMTOL
 70
     0
  9
$DIMLIM
 70
     0
  9
$DIMTIH
 70
     0
  9
$DIMTOH
 70
     0
  9
$DIMSE1
 70
     0
  9
$DIMSE2
 70
     0
  9
$DIMTAD
 70
     1
  9
$DIMZIN
 70
    11
  9
$DIMBLK
  1
TerminatorOpen_0.5
  9
$DIMASO
 70
     1
  9
$DIMSHO
 70
     1
  9
$DIMPOST
  1

  9
$DIMAPOST
  1

  9
$DIMALT
 70
     0
  9
$DIMALTD
 70
     4
  9
$DIMALTF
 40
25.4
  9
$DIMLFAC
 40
1.0
  9
$DIMTOFL
 70
     0
  9
$DIMTVP
 40
0.0
  9
$DIMTIX
 70
     0
  9
$DIMSOXD
 70
     0
  9
$DIMSAH
 70
     0
  9
$DIMBLK1
  1

  9
$DIMBLK2
  1

  9
$DIMSTYLE
  2
Standard
  9
$DIMCLRD
 70
     0
  9
$DIMCLRE
 70
     0
  9
$DIMCLRT
 70
     0
  9
$DIMTFAC
 40
1.0
  9
$DIMGAP
 40
0.06
  9
$DIMJUST
 70
     0
  9
$DIMSD1
 70
     0
  9
$DIMSD2
 70
     0
  9
$DIMTOLJ
 70
     0
  9
$DIMTZIN
 70
    11
  9
$DIMALTZ
 70
    15
  9
$DIMALTTZ
 70
    15
  9
$DIMUPT
 70
     0
  9
$DIMDEC
 70
     4
  9
$DIMTDEC
 70
     4
  9
$DIMALTU
 70
     2
  9
$DIMALTTD
 70
     4
  9
$DIMTXSTY
  7
Style-Arial
  9
$DIMAUNIT
 70
     0
  9
$DIMADEC
 70
     4
  9
$DIMALTRND
 40
0.0
  9
$DIMAZIN
 70
     3
  9
$DIMDSEP
 70
    46
  9
$DIMATFIT
 70
     1
  9
$DIMFRAC
 70
     0
  9
$DIMLDRBLK
  1
TerminatorOpen_0.5
  9
$DIMLUNIT
 70
     2
  9
$DIMLWD
 70
    -2
  9
$DIMLWE
 70
    -2
  9
$DIMTMOVE
 70
     0
  9
$LUNITS
 70
     2
  9
$LUPREC
 70
     4
  9
$SKETCHINC
 40
0.1
  9
$FILLETRAD
 40
0.0
  9
$AUNITS
 70
     0
  9
$AUPREC
 70
     4
  9
$MENU
  1
.
  9
$ELEVATION
 40
0.0
  9
$PELEVATION
 40
0.0
  9
$THICKNESS
 40
0.0
  9
$LIMCHECK
 70
     0
  9
$CHAMFERA
 40
0.0
  9
$CHAMFERB
 40
0.0
  9
$CHAMFERC
 40
0.0
  9
$CHAMFERD
 40
0.0
  9
$SKPOLY
 70
     0
  9
$TDCREATE
 40
2455341.423638565
  9
$TDUCREATE
 40
2455341.631971898
  9
$TDUPDATE
 40
2455341.423638565
  9
$TDUUPDATE
 40
2455341.631971898
  9
$TDINDWG
 40
0.0
  9
$TDUSRTIMER
 40
0.0006630093
  9
$USRTIMER
 70
     1
  9
$ANGBASE
 50
0.0
  9
$ANGDIR
 70
     0
  9
$PDMODE
 70
     0
  9
$PDSIZE
 40
0.0
  9
$PLINEWID
 40
0.0
  9
$SPLFRAME
 70
     0
  9
$SPLINETYPE
 70
     6
  9
$SPLINESEGS
 70
     8
  9
$HANDSEED
  5
44F
  9
$SURFTAB1
 70
     6
  9
$SURFTAB2
 70
     6
  9
$SURFTYPE
 70
     6
  9
$SURFU
 70
     6
  9
$SURFV
 70
     6
  9
$UCSBASE
  2

  9
$UCSNAME
  2

  9
$UCSORG
 10
0.0
 20
0.0
 30
0.0
  9
$UCSXDIR
 10
1.0
 20
0.0
 30
0.0
  9
$UCSYDIR
 10
0.0
 20
1.0
 30
0.0
  9
$UCSORTHOREF
  2

  9
$UCSORTHOVIEW
 70
     0
  9
$UCSORGTOP
 10
0.0
 20
0.0
 30
0.0
  9
$UCSORGBOTTOM
 10
0.0
 20
0.0
 30
0.0
  9
$UCSORGLEFT
 10
0.0
 20
0.0
 30
0.0
  9
$UCSORGRIGHT
 10
0.0
 20
0.0
 30
0.0
  9
$UCSORGFRONT
 10
0.0
 20
0.0
 30
0.0
  9
$UCSORGBACK
 10
0.0
 20
0.0
 30
0.0
  9
$PUCSBASE
  2

  9
$PUCSNAME
  2

  9
$PUCSORG
 10
0.0
 20
0.0
 30
0.0
  9
$PUCSXDIR
 10
1.0
 20
0.0
 30
0.0
  9
$PUCSYDIR
 10
0.0
 20
1.0
 30
0.0
  9
$PUCSORTHOREF
  2

  9
$PUCSORTHOVIEW
 70
     0
  9
$PUCSORGTOP
 10
0.0
 20
0.0
 30
0.0
  9
$PUCSORGBOTTOM
 10
0.0
 20
0.0
 30
0.0
  9
$PUCSORGLEFT
 10
0.0
 20
0.0
 30
0.0
  9
$PUCSORGRIGHT
 10
0.0
 20
0.0
 30
0.0
  9
$PUCSORGFRONT
 10
0.0
 20
0.0
 30
0.0
  9
$PUCSORGBACK
 10
0.0
 20
0.0
 30
0.0
  9
$USERI1
 70
     0
  9
$USERI2
 70
     0
  9
$USERI3
 70
     0
  9
$USERI4
 70
     0
  9
$USERI5
 70
     0
  9
$USERR1
 40
0.0
  9
$USERR2
 40
0.0
  9
$USERR3
 40
0.0
  9
$USERR4
 40
0.0
  9
$USERR5
 40
0.0
  9
$WORLDVIEW
 70
     1
  9
$SHADEDGE
 70
     3
  9
$SHADEDIF
 70
    70
  9
$TILEMODE
 70
     1
  9
$MAXACTVP
 70
    64
  9
$PINSBASE
 10
0.0
 20
0.0
 30
0.0
  9
$PLIMCHECK
 70
     0
  9
$PEXTMIN
 10
1.049744
 20
0.799667
 30
-0.001526
  9
$PEXTMAX
 10
9.450623
 20
7.200577
 30
0.0
  9
$PLIMMIN
 10
-0.25
 20
-0.25
  9
$PLIMMAX
 10
10.75
 20
8.25
  9
$UNITMODE
 70
     0
  9
$VISRETAIN
 70
     1
  9
$PLINEGEN
 70
     0
  9
$PSLTSCALE
 70
     0
  9
$TREEDEPTH
 70
  3020
  9
$CMLSTYLE
  2
Standard
  9
$CMLJUST
 70
     0
  9
$CMLSCALE
 40
1.0
  9
$PROXYGRAPHICS
 70
     1
  9
$MEASUREMENT
 70
     0
  9
$CELWEIGHT
370
    53
  9
$ENDCAPS
280
     0
  9
$JOINSTYLE
280
     0
  9
$LWDISPLAY
290
     1
  9
$INSUNITS
 70
     2
  9
$HYPERLINKBASE
  1

  9
$STYLESHEET
  1

  9
$XEDIT
290
     1
  9
$CEPSNTYPE
380
     0
  9
$PSTYLEMODE
290
     1
  9
$FINGERPRINTGUID
  2
{02C0BBB5-38A7-4FBF-829E-00875EC88963}
  9
$VERSIONGUID
  2
{82C521FC-BF81-46B3-825E-420B6BD93A99}
  9
$EXTNAMES
290
     1
  9
$PSVPSCALE
 40
0.0
  9
$OLESTARTUP
290
     0
  9
$SORTENTS
280
   127
  9
$INDEXCTL
280
     0
  9
$HIDETEXT
280
     1
  9
$XCLIPFRAME
290
     0
  9
$HALOGAP
280
     0
  9
$OBSCOLOR
 70
   257
  9
$OBSLTYPE
280
     0
  9
$INTERSECTIONDISPLAY
280
     0
  9
$INTERSECTIONCOLOR
 70
   257
  9
$DIMASSOC
280
     1
  9
$PROJECTNAME
  1

  0
ENDSEC
  0
SECTION
  2
CLASSES
  0
CLASS
  1
ACDBDICTIONARYWDFLT
  2
AcDbDictionaryWithDefault
  3
ObjectDBX Classes
 90
        0
 91
        3
280
     0
281
     0
  0
CLASS
  1
SORTENTSTABLE
  2
AcDbSortentsTable
  3
ObjectDBX Classes
 90
        0
 91
        3
280
     0
281
     0
  0
ENDSEC
  0
SECTION
  2
TABLES
  0
TABLE
  2
VPORT
  5
433
330
0
100
AcDbSymbolTable
 70
     4
  0
VPORT
  5
49
330
433
100
AcDbSymbolTableRecord
100
AcDbViewportTableRecord
  2
*ACTIVE
 70
     0
 10
0.0
 20
0.0
 11
1.0
 21
1.0
 12
37.257516
 22
5.448856
 13
0.0
 23
0.0
 14
0.083333
 24
0.083333
 15
0.083333
 25
0.083333
 16
0.0
 26
0.0
 36
1.0
 17
0.0
 27
0.0
 37
0.0
 40
11.621018
 41
1.884937
 42
50.0
 43
0.0
 44
0.0
 50
0.0
 51
359.921342
 71
     0
 72
   100
 73
     1
 74
     2
 75
     0
 76
     0
 77
     0
 78
     1
281
     0
 65
     1
110
0.0
120
0.0
130
0.0
111
1.0
121
0.0
131
0.0
112
0.0
122
1.0
132
0.0
 79
     0
146
0.0
  0
ENDTAB
  0
TABLE
  2
LTYPE
  5
41A
330
0
100
AcDbSymbolTable
 70
     1
  0
LTYPE
  5
41B
330
41A
100
AcDbSymbolTableRecord
100
AcDbLinetypeTableRecord
  2
ByBlock
 70
     0
  3

 72
    65
 73
     0
 40
0.0
  0
LTYPE
  5
41C
330
41A
100
AcDbSymbolTableRecord
100
AcDbLinetypeTableRecord
  2
ByLayer
 70
     0
  3

 72
    65
 73
     0
 40
0.0
  0
LTYPE
  5
419
330
41A
100
AcDbSymbolTableRecord
100
AcDbLinetypeTableRecord
  2
Continuous
 70
     0
  3
Solid line
 72
    65
 73
     0
 40
0.0
  0
ENDTAB
  0
TABLE
  2
LAYER
  5
413
102
{ACAD_XDICTIONARY
360
414
102
}
330
0
100
AcDbSymbolTable
 70
    64
  0
LAYER
  5
412
330
413
100
AcDbSymbolTableRecord
100
AcDbLayerTableRecord
  2
0
 70
     0
 62
     7
  6
Continuous
370
    -3
390
416
  0
LAYER
  5
7
330
413
100
AcDbSymbolTableRecord
100
AcDbLayerTableRecord
  2
Level 1
 70
     0
 62
     7
  6
Continuous
370
     0
390
416
  0
LAYER
  5
8
330
413
100
AcDbSymbolTableRecord
100
AcDbLayerTableRecord
  2
2-15A
 70
     0
 62
     7
  6
Continuous
370
     0
390
416
1001
AcAecLayerStandard
1000

1000
2-15A
  0
LAYER
  5
9
330
413
100
AcDbSymbolTableRecord
100
AcDbLayerTableRecord
  2
2-13A
 70
     0
 62
     7
  6
Continuous
370
     0
390
416
1001
AcAecLayerStandard
1000

1000
2-13A
  0
LAYER
  5
A
330
413
100
AcDbSymbolTableRecord
100
AcDbLayerTableRecord
  2
DEFPOINTS
 70
     0
 62
     7
  6
Continuous
290
     0
370
     0
390
416
1001
AcAecLayerStandard
1000

1000
DEFPOINTS
  0
LAYER
  5
B
330
413
100
AcDbSymbolTableRecord
100
AcDbLayerTableRecord
  2
DIM
 70
     0
 62
     7
  6
Continuous
370
     0
390
416
1001
AcAecLayerStandard
1000

1000
DIM
  0
LAYER
  5
C
330
413
100
AcDbSymbolTableRecord
100
AcDbLayerTableRecord
  2
HATCH
 70
     0
 62
     7
  6
Continuous
370
     0
390
416
1001
AcAecLayerStandard
1000

1000
HATCH
  0
LAYER
  5
D
330
413
100
AcDbSymbolTableRecord
100
AcDbLayerTableRecord
  2
REF
 70
     0
 62
     7
  6
Continuous
370
     0
390
416
1001
AcAecLayerStandard
1000

1000
REF
  0
LAYER
  5
E
330
413
100
AcDbSymbolTableRecord
100
AcDbLayerTableRecord
  2
NOTES
 70
     0
 62
     7
  6
Continuous
370
     0
390
416
1001
AcAecLayerStandard
1000

1000
NOTES
  0
LAYER
  5
F
330
413
100
AcDbSymbolTableRecord
100
AcDbLayerTableRecord
  2
TITLE
 70
     0
 62
     7
  6
Continuous
370
     0
390
416
1001
AcAecLayerStandard
1000

1000
TITLE
  0
LAYER
  5
10
330
413
100
AcDbSymbolTableRecord
100
AcDbLayerTableRecord
  2
Level 10
 70
     0
 62
     7
  6
Continuous
370
     0
390
416
  0
LAYER
  5
11
330
413
100
AcDbSymbolTableRecord
100
AcDbLayerTableRecord
  2
Level 11
 70
     0
 62
     7
  6
Continuous
370
     0
390
416
  0
LAYER
  5
12
330
413
100
AcDbSymbolTableRecord
100
AcDbLayerTableRecord
  2
Level 12
 70
     0
 62
     7
  6
Continuous
370
     0
390
416
  0
LAYER
  5
13
330
413
100
AcDbSymbolTableRecord
100
AcDbLayerTableRecord
  2
Level 13
 70
     0
 62
     7
  6
Continuous
370
     0
390
416
  0
LAYER
  5
14
330
413
100
AcDbSymbolTableRecord
100
AcDbLayerTableRecord
  2
Level 14
 70
     0
 62
     7
  6
Continuous
370
     0
390
416
  0
LAYER
  5
15
330
413
100
AcDbSymbolTableRecord
100
AcDbLayerTableRecord
  2
Level 15
 70
     0
 62
     7
  6
Continuous
370
     0
390
416
  0
LAYER
  5
16
330
413
100
AcDbSymbolTableRecord
100
AcDbLayerTableRecord
  2
Level 16
 70
     0
 62
     7
  6
Continuous
370
     0
390
416
  0
LAYER
  5
17
330
413
100
AcDbSymbolTableRecord
100
AcDbLayerTableRecord
  2
Level 17
 70
     0
 62
     7
  6
Continuous
370
     0
390
416
  0
LAYER
  5
18
330
413
100
AcDbSymbolTableRecord
100
AcDbLayerTableRecord
  2
Level 18
 70
     0
 62
     7
  6
Continuous
370
     0
390
416
  0
LAYER
  5
19
330
413
100
AcDbSymbolTableRecord
100
AcDbLayerTableRecord
  2
Level 19
 70
     0
 62
     7
  6
Continuous
370
     0
390
416
  0
LAYER
  5
1A
330
413
100
AcDbSymbolTableRecord
100
AcDbLayerTableRecord
  2
Level 20
 70
     0
 62
     7
  6
Continuous
370
     0
390
416
  0
LAYER
  5
1B
330
413
100
AcDbSymbolTableRecord
100
AcDbLayerTableRecord
  2
Level 21
 70
     0
 62
     7
  6
Continuous
370
     0
390
416
  0
LAYER
  5
1C
330
413
100
AcDbSymbolTableRecord
100
AcDbLayerTableRecord
  2
Level 22
 70
     0
 62
     7
  6
Continuous
370
     0
390
416
  0
LAYER
  5
1D
330
413
100
AcDbSymbolTableRecord
100
AcDbLayerTableRecord
  2
Level 23
 70
     0
 62
     7
  6
Continuous
370
     0
390
416
  0
LAYER
  5
1E
330
413
100
AcDbSymbolTableRecord
100
AcDbLayerTableRecord
  2
Level 24
 70
     0
 62
     7
  6
Continuous
370
     0
390
416
  0
LAYER
  5
1F
330
413
100
AcDbSymbolTableRecord
100
AcDbLayerTableRecord
  2
Level 25
 70
     0
 62
     7
  6
Continuous
370
     0
390
416
  0
LAYER
  5
20
330
413
100
AcDbSymbolTableRecord
100
AcDbLayerTableRecord
  2
Level 26
 70
     0
 62
     7
  6
Continuous
370
     0
390
416
  0
LAYER
  5
21
330
413
100
AcDbSymbolTableRecord
100
AcDbLayerTableRecord
  2
Level 27
 70
     0
 62
     7
  6
Continuous
370
     0
390
416
  0
LAYER
  5
22
330
413
100
AcDbSymbolTableRecord
100
AcDbLayerTableRecord
  2
Level 28
 70
     0
 62
     7
  6
Continuous
370
     0
390
416
  0
LAYER
  5
23
330
413
100
AcDbSymbolTableRecord
100
AcDbLayerTableRecord
  2
Level 29
 70
     0
 62
     7
  6
Continuous
370
     0
390
416
  0
LAYER
  5
24
330
413
100
AcDbSymbolTableRecord
100
AcDbLayerTableRecord
  2
Level 30
 70
     0
 62
     7
  6
Continuous
370
     0
390
416
  0
LAYER
  5
25
330
413
100
AcDbSymbolTableRecord
100
AcDbLayerTableRecord
  2
Level 31
 70
     0
 62
     7
  6
Continuous
370
     0
390
416
  0
LAYER
  5
26
330
413
100
AcDbSymbolTableRecord
100
AcDbLayerTableRecord
  2
Level 32
 70
     0
 62
     7
  6
Continuous
370
     0
390
416
  0
LAYER
  5
27
330
413
100
AcDbSymbolTableRecord
100
AcDbLayerTableRecord
  2
Level 33
 70
     0
 62
     7
  6
Continuous
370
     0
390
416
  0
LAYER
  5
28
330
413
100
AcDbSymbolTableRecord
100
AcDbLayerTableRecord
  2
Level 34
 70
     0
 62
     7
  6
Continuous
370
     0
390
416
  0
LAYER
  5
29
330
413
100
AcDbSymbolTableRecord
100
AcDbLayerTableRecord
  2
Level 35
 70
     0
 62
     7
  6
Continuous
370
     0
390
416
  0
LAYER
  5
2A
330
413
100
AcDbSymbolTableRecord
100
AcDbLayerTableRecord
  2
Level 36
 70
     0
 62
     7
  6
Continuous
370
     0
390
416
  0
LAYER
  5
2B
330
413
100
AcDbSymbolTableRecord
100
AcDbLayerTableRecord
  2
Level 37
 70
     0
 62
     7
  6
Continuous
370
     0
390
416
  0
LAYER
  5
2C
330
413
100
AcDbSymbolTableRecord
100
AcDbLayerTableRecord
  2
Level 38
 70
     0
 62
     7
  6
Continuous
370
     0
390
416
  0
LAYER
  5
2D
330
413
100
AcDbSymbolTableRecord
100
AcDbLayerTableRecord
  2
Level 39
 70
     0
 62
     7
  6
Continuous
370
     0
390
416
  0
LAYER
  5
2E
330
413
100
AcDbSymbolTableRecord
100
AcDbLayerTableRecord
  2
Level 40
 70
     0
 62
     7
  6
Continuous
370
     0
390
416
  0
LAYER
  5
2F
330
413
100
AcDbSymbolTableRecord
100
AcDbLayerTableRecord
  2
Level 41
 70
     0
 62
     7
  6
Continuous
370
     0
390
416
  0
LAYER
  5
30
330
413
100
AcDbSymbolTableRecord
100
AcDbLayerTableRecord
  2
Level 42
 70
     0
 62
     7
  6
Continuous
370
     0
390
416
  0
LAYER
  5
31
330
413
100
AcDbSymbolTableRecord
100
AcDbLayerTableRecord
  2
Level 43
 70
     0
 62
     7
  6
Continuous
370
     0
390
416
  0
LAYER
  5
32
330
413
100
AcDbSymbolTableRecord
100
AcDbLayerTableRecord
  2
Level 44
 70
     0
 62
     7
  6
Continuous
370
     0
390
416
  0
LAYER
  5
33
330
413
100
AcDbSymbolTableRecord
100
AcDbLayerTableRecord
  2
Level 45
 70
     0
 62
     7
  6
Continuous
370
     0
390
416
  0
LAYER
  5
34
330
413
100
AcDbSymbolTableRecord
100
AcDbLayerTableRecord
  2
Level 46
 70
     0
 62
     7
  6
Continuous
370
     0
390
416
  0
LAYER
  5
35
330
413
100
AcDbSymbolTableRecord
100
AcDbLayerTableRecord
  2
Level 47
 70
     0
 62
     7
  6
Continuous
370
     0
390
416
  0
LAYER
  5
36
330
413
100
AcDbSymbolTableRecord
100
AcDbLayerTableRecord
  2
Level 48
 70
     0
 62
     7
  6
Continuous
370
     0
390
416
  0
LAYER
  5
37
330
413
100
AcDbSymbolTableRecord
100
AcDbLayerTableRecord
  2
Level 49
 70
     0
 62
     7
  6
Continuous
370
     0
390
416
  0
LAYER
  5
38
330
413
100
AcDbSymbolTableRecord
100
AcDbLayerTableRecord
  2
Level 50
 70
     0
 62
     7
  6
Continuous
370
     0
390
416
  0
LAYER
  5
39
330
413
100
AcDbSymbolTableRecord
100
AcDbLayerTableRecord
  2
Level 51
 70
     0
 62
     7
  6
Continuous
370
     0
390
416
  0
LAYER
  5
3A
330
413
100
AcDbSymbolTableRecord
100
AcDbLayerTableRecord
  2
Level 52
 70
     0
 62
     7
  6
Continuous
370
     0
390
416
  0
LAYER
  5
3B
330
413
100
AcDbSymbolTableRecord
100
AcDbLayerTableRecord
  2
Level 53
 70
     0
 62
     7
  6
Continuous
370
     0
390
416
  0
LAYER
  5
3C
330
413
100
AcDbSymbolTableRecord
100
AcDbLayerTableRecord
  2
Level 54
 70
     0
 62
     7
  6
Continuous
370
     0
390
416
  0
LAYER
  5
3D
330
413
100
AcDbSymbolTableRecord
100
AcDbLayerTableRecord
  2
Level 55
 70
     0
 62
     7
  6
Continuous
370
     0
390
416
  0
LAYER
  5
3E
330
413
100
AcDbSymbolTableRecord
100
AcDbLayerTableRecord
  2
Level 56
 70
     0
 62
     7
  6
Continuous
370
     0
390
416
  0
LAYER
  5
3F
330
413
100
AcDbSymbolTableRecord
100
AcDbLayerTableRecord
  2
Level 57
 70
     0
 62
     7
  6
Continuous
370
     0
390
416
  0
LAYER
  5
40
330
413
100
AcDbSymbolTableRecord
100
AcDbLayerTableRecord
  2
Level 58
 70
     0
 62
     7
  6
Continuous
370
     0
390
416
  0
LAYER
  5
41
330
413
100
AcDbSymbolTableRecord
100
AcDbLayerTableRecord
  2
Level 59
 70
     0
 62
     7
  6
Continuous
370
     0
390
416
  0
LAYER
  5
42
330
413
100
AcDbSymbolTableRecord
100
AcDbLayerTableRecord
  2
Level 60
 70
     0
 62
     7
  6
Continuous
370
     0
390
416
  0
LAYER
  5
43
330
413
100
AcDbSymbolTableRecord
100
AcDbLayerTableRecord
  2
Level 61
 70
     0
 62
     7
  6
Continuous
370
     0
390
416
  0
LAYER
  5
44
330
413
100
AcDbSymbolTableRecord
100
AcDbLayerTableRecord
  2
Level 62
 70
     0
 62
     7
  6
Continuous
370
     0
390
416
  0
LAYER
  5
45
330
413
100
AcDbSymbolTableRecord
100
AcDbLayerTableRecord
  2
_0
 70
     0
 62
     7
  6
Continuous
370
     0
390
416
1001
AcAecLayerStandard
1000

1000
0
  0
ENDTAB
  0
TABLE
  2
STYLE
  5
41E
330
0
100
AcDbSymbolTable
 70
     2
  0
STYLE
  5
41D
330
41E
100
AcDbSymbolTableRecord
100
AcDbTextStyleTableRecord
  2
Standard
 70
     0
 40
0.0
 41
1.0
 50
0.0
 71
     0
 42
0.12
  3
txt
  4

  0
STYLE
  5
43D
330
41E
100
AcDbSymbolTableRecord
100
AcDbTextStyleTableRecord
  2
Style-Arial
 70
     0
 40
0.0
 41
1.0
 50
0.0
 71
     0
 42
0.2
  3

  4

1001
ACAD
1000
Arial
1071
       39
  0
ENDTAB
  0
TABLE
  2
VIEW
  5
431
330
0
100
AcDbSymbolTable
 70
     0
  0
ENDTAB
  0
TABLE
  2
UCS
  5
432
330
0
100
AcDbSymbolTable
 70
     0
  0
ENDTAB
  0
TABLE
  2
APPID
  5
430
330
0
100
AcDbSymbolTable
 70
     3
  0
APPID
  5
438
330
430
100
AcDbSymbolTableRecord
100
AcDbRegAppTableRecord
  2
ACAD
 70
     0
  0
APPID
  5
42F
330
430
100
AcDbSymbolTableRecord
100
AcDbRegAppTableRecord
  2
ACAD_PSEXT
 70
     0
  0
APPID
  5
43A
330
430
100
AcDbSymbolTableRecord
100
AcDbRegAppTableRecord
  2
AcAecLayerStandard
 70
     0
  0
ENDTAB
  0
TABLE
  2
DIMSTYLE
  5
420
330
0
100
AcDbSymbolTable
 70
     1
100
AcDbDimStyleTable
  0
DIMSTYLE
105
41F
330
420
100
AcDbSymbolTableRecord
100
AcDbDimStyleTableRecord
  2
Standard
 70
     0
340
41D
  0
ENDTAB
  0
TABLE
  2
BLOCK_RECORD
  5
423
330
0
100
AcDbSymbolTable
 70
     2
  0
BLOCK_RECORD
  5
424
102
{ACAD_XDICTIONARY
360
44A
102
}
330
423
100
AcDbSymbolTableRecord
100
AcDbBlockTableRecord
  2
*Model_Space
340
427
  0
BLOCK_RECORD
  5
429
330
423
100
AcDbSymbolTableRecord
100
AcDbBlockTableRecord
  2
*Paper_Space
340
42C
  0
BLOCK_RECORD
  5
43E
330
423
100
AcDbSymbolTableRecord
100
AcDbBlockTableRecord
  2
TerminatorOpen_0.5
340
0
  0
BLOCK_RECORD
  5
447
330
423
100
AcDbSymbolTableRecord
100
AcDbBlockTableRecord
  2
LARROW
340
0
102
{BLKREFS
331
CE
331
D2
331
D4
331
FE
331
100
331
106
331
108
331
10E
331
110
331
11B
331
120
331
122
331
128
331
365
331
368
331
36D
331
370
331
375
331
378
331
385
331
387
331
395
331
397
331
399
331
39B
331
3A8
331
3B3
331
3B5
331
3B7
102
}
  0
ENDTAB
  0
ENDSEC
  0
SECTION
  2
BLOCKS
  0
BLOCK
  5
425
330
424
100
AcDbEntity
  8
0
100
AcDbBlockBegin
  2
*Model_Space
 70
     0
 71
     0
 10
0.0
 20
0.0
 30
0.0
  3
*Model_Space
  1

  0
ENDBLK
  5
426
330
424
100
AcDbEntity
  8
0
100
AcDbBlockEnd
  0
BLOCK
  5
42A
330
429
100
AcDbEntity
 67
     1
  8
0
100
AcDbBlockBegin
  2
*Paper_Space
 70
     0
 71
     0
 10
0.0
 20
0.0
 30
0.0
  3
*Paper_Space
  1

  0
ENDBLK
  5
42B
330
429
100
AcDbEntity
 67
     1
  8
0
100
AcDbBlockEnd
  0
BLOCK
  5
442
330
43E
100
AcDbEntity
  8
0
100
AcDbBlockBegin
  2
TerminatorOpen_0.5
 70
     0
 71
     0
 10
0.0
 20
0.0
 30
0.0
  3
TerminatorOpen_0.5
  1

  0
LINE
  5
43F
330
43E
100
AcDbEntity
  8
0
  6
ByBlock
 62
     0
370
    -2
100
AcDbLine
 10
0.0
 20
0.0
 30
0.0
 11
-1.0
 21
0.0
 31
0.0
  0
LINE
  5
440
330
43E
100
AcDbEntity
  8
0
  6
ByBlock
 62
     0
370
    -2
100
AcDbLine
 10
0.0
 20
0.0
 30
0.0
 11
-1.0
 21
0.25
 31
0.0
  0
LINE
  5
441
330
43E
100
AcDbEntity
  8
0
  6
ByBlock
 62
     0
370
    -2
100
AcDbLine
 10
0.0
 20
0.0
 30
0.0
 11
-1.0
 21
-0.25
 31
0.0
  0
ENDBLK
  5
443
330
43E
100
AcDbEntity
  8
0
100
AcDbBlockEnd
  0
BLOCK
  5
448
330
447
100
AcDbEntity
  8
0
100
AcDbBlockBegin
  2
LARROW
 70
     0
 71
     0
 10
0.0
 20
0.0
 30
0.0
  3
LARROW
  1

  0
LWPOLYLINE
  5
CF
330
447
100
AcDbEntity
  8
DIM
  6
Continuous
 62
     7
370
     0
100
AcDbPolyline
 90
       63
 70
   128
 43
0.0
 10
-0.013031
 20
0.001885
 10
0.0
 20
0.0
 10
-0.013021
 20
-0.001886
 10
-0.012614
 20
-0.001573
 10
-0.012042
 20
-0.00101
 10
-0.01176
 20
-0.00049
 10
-0.011688
 20
0.0
 10
-0.011792
 20
0.000552
 10
-0.012093
 20
0.001094
 10
-0.012677
 20
0.001625
 10
-0.013031
 20
0.001885
 10
-0.000385
 20
0.000021
 10
-0.012605
 20
-0.00176
 10
-0.01223
 20
-0.001479
 10
-0.011625
 20
-0.000906
 10
-0.011427
 20
-0.000167
 10
-0.011562
 20
0.000573
 10
-0.011917
 20
0.001083
 10
-0.012343
 20
0.0015
 10
-0.012636
 20
0.001729
 10
-0.001073
 20
0.000021
 10
-0.012052
 20
-0.001552
 10
-0.011667
 20
-0.001302
 10
-0.011469
 20
-0.000979
 10
-0.01125
 20
-0.000562
 10
-0.011135
 20
0.000021
 10
-0.011198
 20
0.0005
 10
-0.011428
 20
0.000875
 10
-0.011895
 20
0.001177
 10
-0.012208
 20
0.001541
 10
-0.001875
 20
0.000021
 10
-0.011448
 20
-0.001323
 10
-0.011021
 20
-0.000792
 10
-0.010896
 20
-0.000146
 10
-0.010958
 20
0.000573
 10
-0.011781
 20
0.001354
 10
-0.002771
 20
0.000063
 10
-0.010896
 20
-0.001073
 10
-0.010781
 20
-0.000698
 10
-0.010531
 20
-0.000093
 10
-0.010687
 20
0.000552
 10
-0.011333
 20
0.001125
 10
-0.003594
 20
0.000063
 10
-0.010604
 20
-0.000833
 10
-0.010375
 20
-0.000375
 10
-0.010271
 20
0.000114
 10
-0.010761
 20
0.000875
 10
-0.004573
 20
0.000062
 10
-0.010177
 20
-0.000625
 10
-0.010021
 20
-0.000281
 10
-0.009979
 20
0.000114
 10
-0.010375
 20
0.000667
 10
-0.005739
 20
0.000062
 10
-0.009823
 20
-0.000395
 10
-0.009708
 20
0.000135
 10
-0.010083
 20
0.000459
 10
-0.006698
 20
0.000062
 10
-0.009552
 20
-0.00024
 10
-0.009614
 20
0.000271
 10
-0.007677
 20
0.000062
 10
-0.009438
 20
-0.000073
 10
-0.00949
 20
0.000083
 10
-0.008885
 20
0.000083
  0
ENDBLK
  5
449
330
447
100
AcDbEntity
  8
0
100
AcDbBlockEnd
  0
ENDSEC
  0
SECTION
  2
ENTITIES
  0
LINE
  5
5E
330
424
100
AcDbEntity
  8
2-13A
  6
Continuous
 62
     7
370
    30
100
AcDbLine
 10
33.625
 20
10.086906
 30
0.0
 11
40.875
 21
10.086906
 31
0.0
  0
LINE
  5
5F
330
424
100
AcDbEntity
  8
2-13A
  6
Continuous
 62
     7
370
    30
100
AcDbLine
 10
33.625
 20
0.986906
 30
0.0
 11
33.625
 21
10.086906
 31
0.0
  0
LINE
  5
60
330
424
100
AcDbEntity
  8
2-13A
  6
Continuous
 62
     7
370
    30
100
AcDbLine
 10
33.625
 20
0.986906
 30
0.0
 11
40.875
 21
0.986906
 31
0.0
  0
LINE
  5
61
330
424
100
AcDbEntity
  8
2-13A
  6
Continuous
 62
     7
370
    30
100
AcDbLine
 10
40.875
 20
0.986906
 30
0.0
 11
40.875
 21
10.086906
 31
0.0
  0
LINE
  5
62
330
424
100
AcDbEntity
  8
2-13A
  6
Continuous
 62
     7
370
    30
100
AcDbLine
 10
33.625
 20
1.486906
 30
0.0
 11
40.875
 21
1.486906
 31
0.0
  0
LINE
  5
63
330
424
100
AcDbEntity
  8
2-13A
  6
Continuous
 62
     7
370
    30
100
AcDbLine
 10
39.775
 20
0.986906
 30
0.0
 11
39.775
 21
1.486906
 31
0.0
  0
LINE
  5
64
330
424
100
AcDbEntity
  8
2-13A
  6
Continuous
 62
     7
370
    30
100
AcDbLine
 10
38.675
 20
0.986906
 30
0.0
 11
38.675
 21
1.486906
 31
0.0
  0
LINE
  5
6D
330
424
100
AcDbEntity
  8
_0
  6
Continuous
 62
     7
370
    30
100
AcDbLine
 10
33.25
 20
0.125
 30
0.0
 11
33.043458
 21
0.125
 31
0.0
  0
LINE
  5
6E
330
424
100
AcDbEntity
  8
_0
  6
Continuous
 62
     7
370
    30
100
AcDbLine
 10
33.25
 20
0.125
 30
0.0
 11
33.25
 21
-0.081542
 31
0.0
  0
LINE
  5
6F
330
424
100
AcDbEntity
  8
_0
  6
Continuous
 62
     7
370
    30
100
AcDbLine
 10
41.25
 20
0.125
 30
0.0
 11
41.25
 21
-0.081542
 31
0.0
  0
LINE
  5
70
330
424
100
AcDbEntity
  8
_0
  6
Continuous
 62
     7
370
    30
100
AcDbLine
 10
33.25
 20
10.875
 30
0.0
 11
33.043458
 21
10.875
 31
0.0
  0
LINE
  5
71
330
424
100
AcDbEntity
  8
_0
  6
Continuous
 62
     7
370
    30
100
AcDbLine
 10
41.456542
 20
0.125
 30
0.0
 11
41.25
 21
0.125
 31
0.0
  0
LINE
  5
72
330
424
100
AcDbEntity
  8
_0
  6
Continuous
 62
     7
370
    30
100
AcDbLine
 10
41.456542
 20
10.875
 30
0.0
 11
41.25
 21
10.875
 31
0.0
  0
LINE
  5
73
330
424
100
AcDbEntity
  8
_0
  6
Continuous
 62
     7
370
    30
100
AcDbLine
 10
33.25
 20
11.081542
 30
0.0
 11
33.25
 21
10.875
 31
0.0
  0
LINE
  5
74
330
424
100
AcDbEntity
  8
_0
  6
Continuous
 62
     7
370
    30
100
AcDbLine
 10
41.25
 20
11.081542
 30
0.0
 11
41.25
 21
10.875
 31
0.0
  0
LWPOLYLINE
  5
77
330
424
100
AcDbEntity
  8
NOTES
  6
Continuous
 62
     7
370
     0
100
AcDbPolyline
 90
        3
 70
   129
 43
0.0
 10
34.056
 20
8.25525
 10
34.100375
 20
8.2155
 10
34.124125
 20
8.259875
  0
LWPOLYLINE
  5
78
330
424
100
AcDbEntity
  8
NOTES
  6
Continuous
 62
     7
370
     0
100
AcDbPolyline
 90
        3
 70
   129
 43
0.0
 10
34.247458
 20
8.114219
 10
34.287208
 20
8.157094
 10
34.329708
 20
8.109594
  0
LINE
  5
79
330
424
100
AcDbEntity
  8
NOTES
  6
Continuous
 62
     7
370
     0
100
AcDbLine
 10
34.366375
 20
7.651854
 30
0.0
 11
34.36075
 21
7.662729
 31
0.0
  0
LINE
  5
7A
330
424
100
AcDbEntity
  8
NOTES
  6
Continuous
 62
     7
370
     0
100
AcDbLine
 10
33.940031
 20
8.31976
 30
0.0
 11
33.946281
 21
8.33001
 31
0.0
  0
LINE
  5
7B
330
424
100
AcDbEntity
  8
NOTES
  6
Continuous
 62
     7
370
     0
100
AcDbLine
 10
34.358688
 20
7.84876
 30
0.0
 11
34.357687
 21
7.859135
 31
0.0
  0
LINE
  5
7C
330
424
100
AcDbEntity
  8
NOTES
  6
Continuous
 62
     7
370
     0
100
AcDbLine
 10
34.163771
 20
8.254687
 30
0.0
 11
34.165271
 21
8.264062
 31
0.0
  0
LINE
  5
7D
330
424
100
AcDbEntity
  8
NOTES
  6
Continuous
 62
     7
370
     0
100
AcDbLine
 10
34.292448
 20
7.521958
 30
0.0
 11
34.297073
 21
7.531708
 31
0.0
  0
LWPOLYLINE
  5
7E
330
424
100
AcDbEntity
  8
NOTES
  6
Continuous
 62
     7
370
     0
100
AcDbPolyline
 90
        3
 70
   129
 43
0.0
 10
34.257708
 20
7.754292
 10
34.291083
 20
7.798667
 10
34.328958
 20
7.755917
  0
LINE
  5
7F
330
424
100
AcDbEntity
  8
NOTES
  6
Continuous
 62
     7
370
     0
100
AcDbLine
 10
34.112323
 20
8.296958
 30
0.0
 11
34.113323
 21
8.306083
 31
0.0
  0
LINE
  5
80
330
424
100
AcDbEntity
  8
NOTES
  6
Continuous
 62
     7
370
     0
100
AcDbLine
 10
35.019323
 20
6.610708
 30
0.0
 11
35.020823
 21
6.620083
 31
0.0
  0
LINE
  5
81
330
424
100
AcDbEntity
  8
NOTES
  6
Continuous
 62
     7
370
     0
100
AcDbLine
 10
35.424948
 20
6.586083
 30
0.0
 11
35.421573
 21
6.598583
 31
0.0
  0
LWPOLYLINE
  5
82
330
424
100
AcDbEntity
  8
NOTES
  6
Continuous
 62
     7
370
     0
100
AcDbPolyline
 90
        3
 70
   129
 43
0.0
 10
35.395302
 20
7.542948
 10
35.428677
 20
7.587323
 10
35.466552
 20
7.544573
  0
LWPOLYLINE
  5
83
330
424
100
AcDbEntity
  8
NOTES
  6
Continuous
 62
     7
370
     0
100
AcDbPolyline
 90
        3
 70
   129
 43
0.0
 10
35.575573
 20
8.120458
 10
35.534323
 20
8.167958
 10
35.501198
 20
8.128583
  0
LWPOLYLINE
  5
84
330
424
100
AcDbEntity
  8
NOTES
  6
Continuous
 62
     7
370
     0
100
AcDbPolyline
 90
        3
 70
   129
 43
0.0
 10
35.29101
 20
7.756427
 10
35.33076
 20
7.799302
 10
35.37326
 20
7.751802
  0
LINE
  5
85
330
424
100
AcDbEntity
  8
NOTES
  6
Continuous
 62
     7
370
     0
100
AcDbLine
 10
35.478542
 20
8.292448
 30
0.0
 11
35.484792
 21
8.302698
 31
0.0
  0
LINE
  5
86
330
424
100
AcDbEntity
  8
NOTES
  6
Continuous
 62
     7
370
     0
100
AcDbLine
 10
35.33201
 20
8.043406
 30
0.0
 11
35.33101
 21
8.053781
 31
0.0
  0
LINE
  5
87
330
424
100
AcDbEntity
  8
NOTES
  6
Continuous
 62
     7
370
     0
100
AcDbLine
 10
35.424948
 20
7.871083
 30
0.0
 11
35.421573
 21
7.883583
 31
0.0
  0
LINE
  5
88
330
424
100
AcDbEntity
  8
NOTES
  6
Continuous
 62
     7
370
     0
100
AcDbLine
 10
35.437448
 20
7.655458
 30
0.0
 11
35.434073
 21
7.664458
 31
0.0
  0
LINE
  5
89
330
424
100
AcDbEntity
  8
NOTES
  6
Continuous
 62
     7
370
     0
100
AcDbLine
 10
35.253448
 20
7.521958
 30
0.0
 11
35.258073
 21
7.531708
 31
0.0
  0
LWPOLYLINE
  5
8A
330
424
100
AcDbEntity
  8
NOTES
  6
Continuous
 62
     7
370
     0
100
AcDbPolyline
 90
        3
 70
   129
 43
0.0
 10
35.274073
 20
8.288208
 10
35.307448
 20
8.332583
 10
35.345323
 20
8.289833
  0
LWPOLYLINE
  5
8B
330
424
100
AcDbEntity
  8
NOTES
  6
Continuous
 62
     7
370
     0
100
AcDbPolyline
 90
        3
 70
   129
 43
0.0
 10
35.981198
 20
8.283583
 10
36.025573
 20
8.243833
 10
36.049323
 20
8.288208
  0
LWPOLYLINE
  5
8C
330
424
100
AcDbEntity
  8
NOTES
  6
Continuous
 62
     7
370
     0
100
AcDbPolyline
 90
        3
 70
   129
 43
0.0
 10
36.436573
 20
8.120458
 10
36.395323
 20
8.167958
 10
36.362198
 20
8.128583
  0
LINE
  5
8D
330
424
100
AcDbEntity
  8
NOTES
  6
Continuous
 62
     7
370
     0
100
AcDbLine
 10
36.200323
 20
8.255458
 30
0.0
 11
36.206573
 21
8.265708
 31
0.0
  0
LINE
  5
8E
330
424
100
AcDbEntity
  8
NOTES
  6
Continuous
 62
     7
370
     0
100
AcDbLine
 10
36.729385
 20
7.777906
 30
0.0
 11
36.729385
 21
7.790406
 31
0.0
  0
LWPOLYLINE
  5
8F
330
424
100
AcDbEntity
  8
NOTES
  6
Continuous
 62
     7
370
     0
100
AcDbPolyline
 90
        3
 70
   129
 43
0.0
 10
36.135073
 20
8.288208
 10
36.168448
 20
8.332583
 10
36.206323
 20
8.289833
  0
LINE
  5
90
330
424
100
AcDbEntity
  8
NOTES
  6
Continuous
 62
     7
370
     0
100
AcDbLine
 10
35.984323
 20
8.296958
 30
0.0
 11
35.985323
 21
8.306083
 31
0.0
  0
LINE
  5
91
330
424
100
AcDbEntity
  8
NOTES
  6
Continuous
 62
     7
370
     0
100
AcDbLine
 10
37.246948
 20
6.586083
 30
0.0
 11
37.243573
 21
6.598583
 31
0.0
  0
LWPOLYLINE
  5
92
330
424
100
AcDbEntity
  8
NOTES
  6
Continuous
 62
     7
370
     0
100
AcDbPolyline
 90
        3
 70
   129
 43
0.0
 10
36.696906
 20
8.121104
 10
36.747531
 20
8.127604
 10
36.705031
 20
8.156104
  0
LWPOLYLINE
  5
93
330
424
100
AcDbEntity
  8
NOTES
  6
Continuous
 62
     7
370
     0
100
AcDbPolyline
 90
        3
 70
   129
 43
0.0
 10
36.443177
 20
8.293583
 10
36.500052
 20
8.271333
 10
36.470052
 20
8.332958
  0
LINE
  5
94
330
424
100
AcDbEntity
  8
NOTES
  6
Continuous
 62
     7
370
     0
100
AcDbLine
 10
36.682198
 20
8.157958
 30
0.0
 11
36.676573
 21
8.168833
 31
0.0
  0
LINE
  5
95
330
424
100
AcDbEntity
  8
NOTES
  6
Continuous
 62
     7
370
     0
100
AcDbLine
 10
36.77926
 20
7.833802
 30
0.0
 11
36.78076
 21
7.843177
 31
0.0
  0
LWPOLYLINE
  5
96
330
424
100
AcDbEntity
  8
NOTES
  6
Continuous
 62
     7
370
     0
100
AcDbPolyline
 90
        3
 70
   129
 43
0.0
 10
37.678187
 20
7.769208
 10
37.722563
 20
7.729458
 10
37.746313
 20
7.773833
  0
LWPOLYLINE
  5
97
330
424
100
AcDbEntity
  8
NOTES
  6
Continuous
 62
     7
370
     0
100
AcDbPolyline
 90
        3
 70
   129
 43
0.0
 10
37.758417
 20
8.226083
 10
37.802792
 20
8.186333
 10
37.826542
 20
8.230708
  0
LWPOLYLINE
  5
98
330
424
100
AcDbEntity
  8
NOTES
  6
Continuous
 62
     7
370
     0
100
AcDbPolyline
 90
        3
 70
   128
 43
0.0
 10
37.5725
 20
7.94675
 10
37.573573
 20
7.946333
 10
37.5725
 20
7.948542
  0
LINE
  5
99
330
424
100
AcDbEntity
  8
NOTES
  6
Continuous
 62
     7
370
     0
100
AcDbLine
 10
37.687979
 20
8.201094
 30
0.0
 11
37.682354
 21
8.211969
 31
0.0
  0
LINE
  5
9A
330
424
100
AcDbEntity
  8
NOTES
  6
Continuous
 62
     7
370
     0
100
AcDbLine
 10
38.072323
 20
8.255458
 30
0.0
 11
38.078573
 21
8.265708
 31
0.0
  0
LINE
  5
9B
330
424
100
AcDbEntity
  8
NOTES
  6
Continuous
 62
     7
370
     0
100
AcDbLine
 10
37.752323
 20
7.895708
 30
0.0
 11
37.753823
 21
7.905083
 31
0.0
  0
LWPOLYLINE
  5
9C
330
424
100
AcDbEntity
  8
NOTES
  6
Continuous
 62
     7
370
     0
100
AcDbPolyline
 90
        3
 70
   129
 43
0.0
 10
38.007073
 20
8.288208
 10
38.040448
 20
8.332583
 10
38.078323
 20
8.289833
  0
LINE
  5
9D
330
424
100
AcDbEntity
  8
NOTES
  6
Continuous
 62
     7
370
     0
100
AcDbLine
 10
37.806323
 20
8.296958
 30
0.0
 11
37.807323
 21
8.306083
 31
0.0
  0
LWPOLYLINE
  5
9E
330
424
100
AcDbEntity
  8
NOTES
  6
Continuous
 62
     7
370
     0
100
AcDbPolyline
 90
        3
 70
   129
 43
0.0
 10
38.594385
 20
8.275896
 10
38.553135
 20
8.323396
 10
38.52001
 20
8.284021
  0
LWPOLYLINE
  5
9F
330
424
100
AcDbEntity
  8
NOTES
  6
Continuous
 62
     7
370
     0
100
AcDbPolyline
 90
        3
 70
   128
 43
0.0
 10
39.2225
 20
7.600146
 10
39.204323
 20
7.582333
 10
39.2225
 20
7.583771
  0
LINE
  5
A0
330
424
100
AcDbEntity
  8
NOTES
  6
Continuous
 62
     7
370
     0
100
AcDbLine
 10
38.933323
 20
8.255458
 30
0.0
 11
38.939573
 21
8.265708
 31
0.0
  0
LINE
  5
A1
330
424
100
AcDbEntity
  8
NOTES
  6
Continuous
 62
     7
370
     0
100
AcDbLine
 10
39.136448
 20
7.437958
 30
0.0
 11
39.138323
 21
7.450083
 31
0.0
  0
LWPOLYLINE
  5
A2
330
424
100
AcDbEntity
  8
NOTES
  6
Continuous
 62
     7
370
     0
100
AcDbPolyline
 90
        3
 70
   129
 43
0.0
 10
38.868073
 20
8.288208
 10
38.901448
 20
8.332583
 10
38.939323
 20
8.289833
  0
LINE
  5
A3
330
424
100
AcDbEntity
  8
NOTES
  6
Continuous
 62
     7
370
     0
100
AcDbLine
 10
38.667323
 20
8.296958
 30
0.0
 11
38.668323
 21
8.306083
 31
0.0
  0
LWPOLYLINE
  5
A4
330
424
100
AcDbEntity
  8
NOTES
  6
Continuous
 62
     7
370
     0
100
AcDbPolyline
 90
        3
 70
   129
 43
0.0
 10
40.130573
 20
8.120458
 10
40.089323
 20
8.167958
 10
40.056198
 20
8.128583
  0
LINE
  5
A5
330
424
100
AcDbEntity
  8
NOTES
  6
Continuous
 62
     7
370
     0
100
AcDbLine
 10
39.979948
 20
7.871083
 30
0.0
 11
39.976573
 21
7.883583
 31
0.0
  0
LINE
  5
A6
330
424
100
AcDbEntity
  8
NOTES
  6
Continuous
 62
     7
370
     0
100
AcDbLine
 10
39.992448
 20
7.655458
 30
0.0
 11
39.989073
 21
7.664458
 31
0.0
  0
LINE
  5
A7
330
424
100
AcDbEntity
  8
NOTES
  6
Continuous
 62
     7
370
     0
100
AcDbLine
 10
40.376198
 20
8.157958
 30
0.0
 11
40.370573
 21
8.168833
 31
0.0
  0
LINE
  5
A8
330
424
100
AcDbEntity
  8
NOTES
  6
Continuous
 62
     7
370
    30
100
AcDbLine
 10
37.2025
 20
6.864656
 30
0.0
 11
37.2025
 21
6.051312
 31
0.0
  0
LINE
  5
A9
330
424
100
AcDbEntity
  8
NOTES
  6
Continuous
 62
     7
370
    30
100
AcDbLine
 10
37.2425
 20
6.864656
 30
0.0
 11
37.2425
 21
6.057292
 31
0.0
  0
LWPOLYLINE
  5
AA
330
424
100
AcDbEntity
  8
NOTES
  6
Continuous
 62
     7
370
    30
100
AcDbPolyline
 90
       10
 70
   128
 43
0.0
 10
36.766125
 20
5.955
 10
36.873406
 20
5.980833
 10
37.014219
 20
6.006667
 10
37.134917
 20
6.041104
 10
37.248906
 20
6.058323
 10
37.302552
 20
6.066927
 10
37.443365
 20
6.075542
 10
37.503708
 20
6.084146
 10
37.61099
 20
6.066927
 10
37.651229
 20
6.058323
  0
LINE
  5
AB
330
424
100
AcDbEntity
  8
NOTES
  6
Continuous
 62
     7
370
    30
100
AcDbLine
 10
34.75249
 20
6.864656
 30
0.0
 11
34.75249
 21
6.544656
 31
0.0
  0
LINE
  5
AC
330
424
100
AcDbEntity
  8
NOTES
  6
Continuous
 62
     7
370
    30
100
AcDbLine
 10
34.8925
 20
6.864656
 30
0.0
 11
34.8925
 21
6.544656
 31
0.0
  0
LINE
  5
AD
330
424
100
AcDbEntity
  8
NOTES
  6
Continuous
 62
     7
370
    30
100
AcDbLine
 10
34.75249
 20
6.544656
 30
0.0
 11
34.81326
 21
6.544656
 31
0.0
  0
LINE
  5
AE
330
424
100
AcDbEntity
  8
NOTES
  6
Continuous
 62
     7
370
    30
100
AcDbLine
 10
34.83174
 20
6.544656
 30
0.0
 11
34.8925
 21
6.544656
 31
0.0
  0
LWPOLYLINE
  5
AF
330
424
100
AcDbEntity
  8
NOTES
  6
Continuous
 62
     7
370
    30
100
AcDbPolyline
 90
        7
 70
   128
 43
0.0
 10
34.81326
 20
6.544656
 10
34.778375
 20
6.457354
 10
34.804021
 20
6.404667
 10
34.832854
 20
6.352823
 10
34.832854
 20
6.320125
 10
34.871729
 20
6.295167
 10
34.926198
 20
6.274177
  0
LWPOLYLINE
  5
B0
330
424
100
AcDbEntity
  8
NOTES
  6
Continuous
 62
     7
370
    30
100
AcDbPolyline
 90
        7
 70
   128
 43
0.0
 10
34.83174
 20
6.544656
 10
34.797115
 20
6.458042
 10
34.819229
 20
6.412583
 10
34.85
 20
6.357271
 10
34.85
 20
6.329479
 10
34.879531
 20
6.310531
 10
34.932365
 20
6.290167
  0
LINE
  5
B1
330
424
100
AcDbEntity
  8
NOTES
  6
Continuous
 62
     7
370
    30
100
AcDbLine
 10
39.2225
 20
6.409625
 30
0.0
 11
39.677531
 21
6.864656
 31
0.0
  0
LINE
  5
B2
330
424
100
AcDbEntity
  8
NOTES
  6
Continuous
 62
     7
370
    30
100
AcDbLine
 10
39.2225
 20
6.480333
 30
0.0
 11
39.606823
 21
6.864656
 31
0.0
  0
LINE
  5
B3
330
424
100
AcDbEntity
  8
NOTES
  6
Continuous
 62
     7
370
    30
100
AcDbLine
 10
39.2225
 20
6.551062
 30
0.0
 11
39.536094
 21
6.864656
 31
0.0
  0
LINE
  5
B4
330
424
100
AcDbEntity
  8
NOTES
  6
Continuous
 62
     7
370
    30
100
AcDbLine
 10
39.2225
 20
6.621771
 30
0.0
 11
39.465385
 21
6.864656
 31
0.0
  0
LINE
  5
B5
330
424
100
AcDbEntity
  8
NOTES
  6
Continuous
 62
     7
370
    30
100
AcDbLine
 10
39.2225
 20
6.692479
 30
0.0
 11
39.394677
 21
6.864656
 31
0.0
  0
LINE
  5
B6
330
424
100
AcDbEntity
  8
NOTES
  6
Continuous
 62
     7
370
    30
100
AcDbLine
 10
39.2225
 20
6.763187
 30
0.0
 11
39.323969
 21
6.864656
 31
0.0
  0
LINE
  5
B7
330
424
100
AcDbEntity
  8
NOTES
  6
Continuous
 62
     7
370
    30
100
AcDbLine
 10
39.598125
 20
5.936729
 30
0.0
 11
39.891475
 21
6.230079
 31
0.0
  0
LINE
  5
B8
330
424
100
AcDbEntity
  8
NOTES
  6
Continuous
 62
     7
370
    30
100
AcDbLine
 10
39.657875
 20
5.925771
 30
0.0
 11
40.0225
 21
6.290396
 31
0.0
  0
LINE
  5
B9
330
424
100
AcDbEntity
  8
NOTES
  6
Continuous
 62
     7
370
    30
100
AcDbLine
 10
39.720302
 20
5.91749
 30
0.0
 11
40.0225
 21
6.219688
 31
0.0
  0
LINE
  5
BA
330
424
100
AcDbEntity
  8
NOTES
  6
Continuous
 62
     7
370
    30
100
AcDbLine
 10
39.786302
 20
5.912781
 30
0.0
 11
40.0225
 21
6.148979
 31
0.0
  0
LINE
  5
BB
330
424
100
AcDbEntity
  8
NOTES
  6
Continuous
 62
     7
370
    30
100
AcDbLine
 10
39.852323
 20
5.908073
 30
0.0
 11
40.0225
 21
6.07825
 31
0.0
  0
LINE
  5
BC
330
424
100
AcDbEntity
  8
NOTES
  6
Continuous
 62
     7
370
    30
100
AcDbLine
 10
39.900146
 20
5.885187
 30
0.0
 11
40.0225
 21
6.007542
 31
0.0
  0
LINE
  5
BD
330
424
100
AcDbEntity
  8
NOTES
  6
Continuous
 62
     7
370
    30
100
AcDbLine
 10
39.947302
 20
5.861635
 30
0.0
 11
40.0225
 21
5.936833
 31
0.0
  0
LINE
  5
C4
330
424
100
AcDbEntity
  8
DIM
  6
Continuous
 62
     7
370
    30
100
AcDbLine
 10
34.176917
 20
9.274708
 30
0.0
 11
35.52876
 21
9.274708
 31
0.0
  0
LINE
  5
C5
330
424
100
AcDbEntity
  8
DIM
  6
Continuous
 62
     7
370
    30
100
AcDbLine
 10
34.503062
 20
9.070958
 30
0.0
 11
35.065542
 21
9.070958
 31
0.0
  0
LINE
  5
C6
330
424
100
AcDbEntity
  8
DIM
  6
Continuous
 62
     7
370
    30
100
AcDbLine
 10
36.508135
 20
9.274708
 30
0.0
 11
37.883615
 21
9.274708
 31
0.0
  0
LINE
  5
C7
330
424
100
AcDbEntity
  8
DIM
  6
Continuous
 62
     7
370
    30
100
AcDbLine
 10
39.036938
 20
9.274708
 30
0.0
 11
40.057917
 21
9.274708
 31
0.0
  0
LINE
  5
C8
330
424
100
AcDbEntity
  8
DIM
  6
Continuous
 62
     7
370
    30
100
AcDbLine
 10
36.867375
 20
9.070958
 30
0.0
 11
37.40149
 21
9.070958
 31
0.0
  0
LINE
  5
C9
330
424
100
AcDbEntity
  8
DIM
  6
Continuous
 62
     7
370
    30
100
AcDbLine
 10
39.23074
 20
9.070958
 30
0.0
 11
39.779042
 21
9.070958
 31
0.0
  0
LWPOLYLINE
  5
CD
330
424
100
AcDbEntity
  8
DIM
  6
Continuous
 62
     7
370
     0
100
AcDbPolyline
 90
        3
 70
   128
 43
0.0
 10
35.472198
 20
8.65174
 10
35.410385
 20
8.65174
 10
35.250677
 20
8.364656
  0
INSERT
  5
CE
330
424
100
AcDbEntity
  8
DIM
  6
Continuous
 62
     7
370
     0
100
AcDbBlockReference
  2
LARROW
 10
35.250677
 20
8.364656
 30
0.0
 41
11.999998
 42
11.999998
 43
11.999998
 50
240.912223
  0
LWPOLYLINE
  5
D0
330
424
100
AcDbEntity
  8
DIM
  6
Continuous
 62
     7
370
     0
100
AcDbPolyline
 90
        3
 70
   128
 43
0.0
 10
38.755385
 20
8.561063
 10
38.82249
 20
8.561063
 10
39.089188
 20
8.364656
  0
LWPOLYLINE
  5
D1
330
424
100
AcDbEntity
  8
DIM
  6
Continuous
 62
     7
370
     0
100
AcDbPolyline
 90
        3
 70
   128
 43
0.0
 10
38.056719
 20
8.702969
 10
37.989615
 20
8.702969
 10
37.722417
 20
8.364656
  0
INSERT
  5
D2
330
424
100
AcDbEntity
  8
DIM
  6
Continuous
 62
     7
370
     0
100
AcDbBlockReference
  2
LARROW
 10
37.722417
 20
8.364656
 30
0.0
 41
12.0
 42
12.0
 43
12.0
 50
231.698462
  0
INSERT
  5
D4
330
424
100
AcDbEntity
  8
DIM
  6
Continuous
 62
     7
370
     0
100
AcDbBlockReference
  2
LARROW
 10
39.089188
 20
8.364656
 30
0.0
 41
12.000001
 42
12.000001
 43
12.000001
 50
323.630692
  0
LWPOLYLINE
  5
D9
330
424
100
AcDbEntity
  8
NOTES
  6
Continuous
 62
     7
370
     0
100
AcDbPolyline
 90
        3
 70
   129
 43
0.0
 10
40.47299
 20
8.266375
 10
40.529865
 20
8.244125
 10
40.499865
 20
8.30575
  0
LWPOLYLINE
  5
DA
330
424
100
AcDbEntity
  8
NOTES
  6
Continuous
 62
     7
370
     0
100
AcDbPolyline
 90
        3
 70
   129
 43
0.0
 10
40.175271
 20
8.275927
 10
40.232146
 20
8.253677
 10
40.202146
 20
8.315302
  0
LINE
  5
DB
330
424
100
AcDbEntity
  8
NOTES
  6
Continuous
 62
     7
370
     0
100
AcDbLine
 10
40.36875
 20
8.282187
 30
0.0
 11
40.363125
 21
8.293062
 31
0.0
  0
LINE
  5
DC
330
424
100
AcDbEntity
  8
NOTES
  6
Continuous
 62
     7
370
     0
100
AcDbLine
 10
40.227333
 20
8.100615
 30
0.0
 11
40.221708
 21
8.11149
 31
0.0
  0
LINE
  5
DD
330
424
100
AcDbEntity
  8
NOTES
  6
Continuous
 62
     7
370
     0
100
AcDbLine
 10
40.048708
 20
8.263073
 30
0.0
 11
40.043083
 21
8.273948
 31
0.0
  0
LINE
  5
DE
330
424
100
AcDbEntity
  8
NOTES
  6
Continuous
 62
     7
370
     0
100
AcDbLine
 10
39.128115
 20
7.895854
 30
0.0
 11
39.12999
 21
7.907979
 31
0.0
  0
LINE
  5
DF
330
424
100
AcDbEntity
  8
NOTES
  6
Continuous
 62
     7
370
     0
100
AcDbLine
 10
39.141
 20
8.21624
 30
0.0
 11
39.142875
 21
8.228365
 31
0.0
  0
LINE
  5
E0
330
424
100
AcDbEntity
  8
NOTES
  6
Continuous
 62
     7
370
     0
100
AcDbLine
 10
38.789448
 20
8.305302
 30
0.0
 11
38.791323
 21
8.317427
 31
0.0
  0
LWPOLYLINE
  5
E1
330
424
100
AcDbEntity
  8
NOTES
  6
Continuous
 62
     7
370
     0
100
AcDbPolyline
 90
        3
 70
   129
 43
0.0
 10
39.163156
 20
8.078698
 10
39.121906
 20
8.126198
 10
39.088781
 20
8.086823
  0
LWPOLYLINE
  5
E2
330
424
100
AcDbEntity
  8
NOTES
  6
Continuous
 62
     7
370
     0
100
AcDbPolyline
 90
        3
 70
   129
 43
0.0
 10
39.171531
 20
7.745802
 10
39.130281
 20
7.793302
 10
39.097156
 20
7.753927
  0
LINE
  5
E5
330
424
100
AcDbEntity
  8
NOTES
  6
Continuous
 62
     7
370
    30
100
AcDbLine
 10
39.2725
 20
5.964656
 30
0.0
 11
39.544969
 21
6.237125
 31
0.0
  0
LINE
  5
E6
330
424
100
AcDbEntity
  8
NOTES
  6
Continuous
 62
     7
370
    30
100
AcDbLine
 10
39.868057
 20
6.560213
 30
0.0
 11
40.0225
 21
6.714656
 31
0.0
  0
LINE
  5
E7
330
424
100
AcDbEntity
  8
NOTES
  6
Continuous
 62
     7
370
    30
100
AcDbLine
 10
39.2225
 20
5.985375
 30
0.0
 11
39.47425
 21
6.237125
 31
0.0
  0
LINE
  5
E8
330
424
100
AcDbEntity
  8
NOTES
  6
Continuous
 62
     7
370
    30
100
AcDbLine
 10
39.804198
 20
6.567073
 30
0.0
 11
40.0225
 21
6.785375
 31
0.0
  0
LINE
  5
E9
330
424
100
AcDbEntity
  8
NOTES
  6
Continuous
 62
     7
370
    30
100
AcDbLine
 10
39.2225
 20
6.056083
 30
0.0
 11
39.403542
 21
6.237125
 31
0.0
  0
LINE
  5
EA
330
424
100
AcDbEntity
  8
NOTES
  6
Continuous
 62
     7
370
    30
100
AcDbLine
 10
39.73349
 20
6.567073
 30
0.0
 11
40.0225
 21
6.856083
 31
0.0
  0
LINE
  5
EB
330
424
100
AcDbEntity
  8
NOTES
  6
Continuous
 62
     7
370
    30
100
AcDbLine
 10
39.662781
 20
6.567073
 30
0.0
 11
39.960365
 21
6.864656
 31
0.0
  0
LINE
  5
EC
330
424
100
AcDbEntity
  8
NOTES
  6
Continuous
 62
     7
370
    30
100
AcDbLine
 10
39.2225
 20
6.126792
 30
0.0
 11
39.367938
 21
6.272229
 31
0.0
  0
LINE
  5
ED
330
424
100
AcDbEntity
  8
NOTES
  6
Continuous
 62
     7
370
    30
100
AcDbLine
 10
39.592073
 20
6.567073
 30
0.0
 11
39.889656
 21
6.864656
 31
0.0
  0
LINE
  5
EE
330
424
100
AcDbEntity
  8
NOTES
  6
Continuous
 62
     7
370
    30
100
AcDbLine
 10
39.2225
 20
6.1975
 30
0.0
 11
39.362349
 21
6.337349
 31
0.0
  0
LINE
  5
EF
330
424
100
AcDbEntity
  8
NOTES
  6
Continuous
 62
     7
370
    30
100
AcDbLine
 10
39.521365
 20
6.567073
 30
0.0
 11
39.818948
 21
6.864656
 31
0.0
  0
LINE
  5
F0
330
424
100
AcDbEntity
  8
NOTES
  6
Continuous
 62
     7
370
    30
100
AcDbLine
 10
39.2225
 20
6.268208
 30
0.0
 11
39.36259
 21
6.408299
 31
0.0
  0
LINE
  5
F1
330
424
100
AcDbEntity
  8
NOTES
  6
Continuous
 62
     7
370
    30
100
AcDbLine
 10
39.450656
 20
6.567073
 30
0.0
 11
39.74824
 21
6.864656
 31
0.0
  0
LINE
  5
F2
330
424
100
AcDbEntity
  8
NOTES
  6
Continuous
 62
     7
370
    30
100
AcDbLine
 10
39.2225
 20
6.338917
 30
0.0
 11
39.391156
 21
6.507573
 31
0.0
  0
LINE
  5
F3
330
424
100
AcDbEntity
  8
NOTES
  6
Continuous
 62
     7
370
    30
100
AcDbLine
 10
39.331573
 20
5.95301
 30
0.0
 11
39.615687
 21
6.237125
 31
0.0
  0
LINE
  5
F4
330
424
100
AcDbEntity
  8
NOTES
  6
Continuous
 62
     7
370
    30
100
AcDbLine
 10
39.909939
 20
6.531377
 30
0.0
 11
40.0225
 21
6.643937
 31
0.0
  0
LINE
  5
F5
330
424
100
AcDbEntity
  8
NOTES
  6
Continuous
 62
     7
370
    30
100
AcDbLine
 10
39.413333
 20
5.964062
 30
0.0
 11
39.686396
 21
6.237125
 31
0.0
  0
LINE
  5
F6
330
424
100
AcDbEntity
  8
NOTES
  6
Continuous
 62
     7
370
    30
100
AcDbLine
 10
39.909049
 20
6.459778
 30
0.0
 11
40.0225
 21
6.573229
 31
0.0
  0
LINE
  5
F7
330
424
100
AcDbEntity
  8
NOTES
  6
Continuous
 62
     7
370
    30
100
AcDbLine
 10
39.484708
 20
5.964729
 30
0.0
 11
39.757104
 21
6.237125
 31
0.0
  0
LINE
  5
F8
330
424
100
AcDbEntity
  8
NOTES
  6
Continuous
 62
     7
370
    30
100
AcDbLine
 10
39.928888
 20
6.408909
 30
0.0
 11
40.0225
 21
6.502521
 31
0.0
  0
LINE
  5
F9
330
424
100
AcDbEntity
  8
NOTES
  6
Continuous
 62
     7
370
    30
100
AcDbLine
 10
39.543833
 20
5.953146
 30
0.0
 11
39.827813
 21
6.237125
 31
0.0
  0
LINE
  5
FA
330
424
100
AcDbEntity
  8
NOTES
  6
Continuous
 62
     7
370
    30
100
AcDbLine
 10
39.953272
 20
6.362584
 30
0.0
 11
40.0225
 21
6.431812
 31
0.0
  0
LINE
  5
FB
330
424
100
AcDbEntity
  8
DIM
  6
Continuous
 62
     7
370
     0
100
AcDbLine
 10
34.4725
 20
8.462187
 30
0.0
 11
34.4725
 21
8.785208
 31
0.0
  0
LINE
  5
FC
330
424
100
AcDbEntity
  8
DIM
  6
Continuous
 62
     7
370
     0
100
AcDbLine
 10
35.1725
 20
8.462187
 30
0.0
 11
35.1725
 21
8.785208
 31
0.0
  0
LINE
  5
FD
330
424
100
AcDbEntity
  8
DIM
  6
Continuous
 62
     7
370
     0
100
AcDbLine
 10
34.4725
 20
8.685052
 30
0.0
 11
35.1725
 21
8.685052
 31
0.0
  0
INSERT
  5
FE
330
424
100
AcDbEntity
  8
DIM
  6
Continuous
 62
     7
370
     0
100
AcDbBlockReference
  2
LARROW
 10
34.4725
 20
8.685052
 30
0.0
 41
12.0
 42
12.0
 43
12.0
 50
180.0
  0
INSERT
  5
100
330
424
100
AcDbEntity
  8
DIM
  6
Continuous
 62
     7
370
     0
100
AcDbBlockReference
  2
LARROW
 10
35.1725
 20
8.685052
 30
0.0
 41
12.0
 42
12.0
 43
12.0
  0
LINE
  5
103
330
424
100
AcDbEntity
  8
DIM
  6
Continuous
 62
     7
370
     0
100
AcDbLine
 10
36.8725
 20
8.444667
 30
0.0
 11
36.8725
 21
8.785208
 31
0.0
  0
LINE
  5
104
330
424
100
AcDbEntity
  8
DIM
  6
Continuous
 62
     7
370
     0
100
AcDbLine
 10
37.5725
 20
8.444667
 30
0.0
 11
37.5725
 21
8.785208
 31
0.0
  0
LINE
  5
105
330
424
100
AcDbEntity
  8
DIM
  6
Continuous
 62
     7
370
     0
100
AcDbLine
 10
36.8725
 20
8.685052
 30
0.0
 11
37.5725
 21
8.685052
 31
0.0
  0
INSERT
  5
106
330
424
100
AcDbEntity
  8
DIM
  6
Continuous
 62
     7
370
     0
100
AcDbBlockReference
  2
LARROW
 10
36.8725
 20
8.685052
 30
0.0
 41
12.0
 42
12.0
 43
12.0
 50
180.0
  0
INSERT
  5
108
330
424
100
AcDbEntity
  8
DIM
  6
Continuous
 62
     7
370
     0
100
AcDbBlockReference
  2
LARROW
 10
37.5725
 20
8.685052
 30
0.0
 41
12.0
 42
12.0
 43
12.0
  0
LINE
  5
10B
330
424
100
AcDbEntity
  8
DIM
  6
Continuous
 62
     7
370
     0
100
AcDbLine
 10
39.2725
 20
8.444667
 30
0.0
 11
39.2725
 21
8.785208
 31
0.0
  0
LINE
  5
10C
330
424
100
AcDbEntity
  8
DIM
  6
Continuous
 62
     7
370
     0
100
AcDbLine
 10
39.9725
 20
8.444667
 30
0.0
 11
39.9725
 21
8.785208
 31
0.0
  0
LINE
  5
10D
330
424
100
AcDbEntity
  8
DIM
  6
Continuous
 62
     7
370
     0
100
AcDbLine
 10
39.2725
 20
8.685052
 30
0.0
 11
39.9725
 21
8.685052
 31
0.0
  0
INSERT
  5
10E
330
424
100
AcDbEntity
  8
DIM
  6
Continuous
 62
     7
370
     0
100
AcDbBlockReference
  2
LARROW
 10
39.2725
 20
8.685052
 30
0.0
 41
12.0
 42
12.0
 43
12.0
 50
180.0
  0
INSERT
  5
110
330
424
100
AcDbEntity
  8
DIM
  6
Continuous
 62
     7
370
     0
100
AcDbBlockReference
  2
LARROW
 10
39.9725
 20
8.685052
 30
0.0
 41
12.0
 42
12.0
 43
12.0
  0
LINE
  5
113
330
424
100
AcDbEntity
  8
NOTES
  6
Continuous
 62
     7
370
     0
100
AcDbLine
 10
34.080438
 20
8.094896
 30
0.0
 11
34.086687
 21
8.105146
 31
0.0
  0
LINE
  5
114
330
424
100
AcDbEntity
  8
NOTES
  6
Continuous
 62
     7
370
     0
100
AcDbLine
 10
34.32276
 20
8.326792
 30
0.0
 11
34.32901
 21
8.337042
 31
0.0
  0
LINE
  5
119
330
424
100
AcDbEntity
  8
DIM
  6
Continuous
 62
     7
370
     0
100
AcDbLine
 10
35.405135
 20
6.654687
 30
0.0
 11
35.283458
 21
6.654687
 31
0.0
  0
LINE
  5
11A
330
424
100
AcDbEntity
  8
DIM
  6
Continuous
 62
     7
370
     0
100
AcDbLine
 10
35.283458
 20
6.654687
 30
0.0
 11
34.8925
 21
6.616448
 31
0.0
  0
INSERT
  5
11B
330
424
100
AcDbEntity
  8
DIM
  6
Continuous
 62
     7
370
     0
100
AcDbBlockReference
  2
LARROW
 10
34.8925
 20
6.616448
 30
0.0
 41
12.0
 42
12.0
 43
12.0
 50
185.586333
  0
LINE
  5
11D
330
424
100
AcDbEntity
  8
DIM
  6
Continuous
 62
     7
370
     0
100
AcDbLine
 10
39.2725
 20
5.427688
 30
0.0
 11
39.2725
 21
5.878385
 31
0.0
  0
LINE
  5
11E
330
424
100
AcDbEntity
  8
DIM
  6
Continuous
 62
     7
370
     0
100
AcDbLine
 10
39.9725
 20
5.427688
 30
0.0
 11
39.9725
 21
5.776229
 31
0.0
  0
LINE
  5
11F
330
424
100
AcDbEntity
  8
DIM
  6
Continuous
 62
     7
370
     0
100
AcDbLine
 10
39.2725
 20
5.524115
 30
0.0
 11
39.9725
 21
5.524115
 31
0.0
  0
INSERT
  5
120
330
424
100
AcDbEntity
  8
DIM
  6
Continuous
 62
     7
370
     0
100
AcDbBlockReference
  2
LARROW
 10
39.2725
 20
5.524115
 30
0.0
 41
12.0
 42
12.0
 43
12.0
 50
180.0
  0
INSERT
  5
122
330
424
100
AcDbEntity
  8
DIM
  6
Continuous
 62
     7
370
     0
100
AcDbBlockReference
  2
LARROW
 10
39.9725
 20
5.524115
 30
0.0
 41
12.0
 42
12.0
 43
12.0
  0
LINE
  5
127
330
424
100
AcDbEntity
  8
DIM
  6
Continuous
 62
     7
370
     0
100
AcDbLine
 10
37.523583
 20
6.433458
 30
0.0
 11
37.2425
 21
6.338771
 31
0.0
  0
INSERT
  5
128
330
424
100
AcDbEntity
  8
DIM
  6
Continuous
 62
     7
370
     0
100
AcDbBlockReference
  2
LARROW
 10
37.2425
 20
6.338771
 30
0.0
 41
11.999998
 42
11.999998
 43
11.999998
 50
198.616931
  0
LINE
  5
12B
330
424
100
AcDbEntity
  8
DIM
  6
Continuous
 62
     7
370
     0
100
AcDbLine
 10
37.610417
 20
6.433458
 30
0.0
 11
37.523583
 21
6.433458
 31
0.0
  0
LINE
  5
12D
330
424
100
AcDbEntity
  8
NOTES
  6
Continuous
 62
     7
370
    30
100
AcDbLine
 10
34.4225
 20
6.864656
 30
0.0
 11
35.2225
 21
6.864656
 31
0.0
  0
LINE
  5
12E
330
424
100
AcDbEntity
  8
NOTES
  6
Continuous
 62
     7
370
    30
100
AcDbLine
 10
36.8225
 20
6.864656
 30
0.0
 11
37.6225
 21
6.864656
 31
0.0
  0
LINE
  5
12F
330
424
100
AcDbEntity
  8
NOTES
  6
Continuous
 62
     7
370
    30
100
AcDbLine
 10
39.2225
 20
6.864656
 30
0.0
 11
40.0225
 21
6.864656
 31
0.0
  0
LINE
  5
130
330
424
100
AcDbEntity
  8
NOTES
  6
Continuous
 62
     7
370
    30
100
AcDbLine
 10
33.89249
 20
8.364656
 30
0.0
 11
34.4225
 21
8.364656
 31
0.0
  0
LINE
  5
131
330
424
100
AcDbEntity
  8
NOTES
  6
Continuous
 62
     7
370
    30
100
AcDbLine
 10
34.4225
 20
8.364656
 30
0.0
 11
34.4225
 21
6.864656
 31
0.0
  0
LINE
  5
132
330
424
100
AcDbEntity
  8
NOTES
  6
Continuous
 62
     7
370
    30
100
AcDbLine
 10
35.8725
 20
8.364656
 30
0.0
 11
35.2225
 21
8.364656
 31
0.0
  0
LINE
  5
133
330
424
100
AcDbEntity
  8
NOTES
  6
Continuous
 62
     7
370
    30
100
AcDbLine
 10
35.2225
 20
8.364656
 30
0.0
 11
35.2225
 21
6.864656
 31
0.0
  0
LINE
  5
134
330
424
100
AcDbEntity
  8
NOTES
  6
Continuous
 62
     7
370
    30
100
AcDbLine
 10
36.1225
 20
8.364656
 30
0.0
 11
36.8225
 21
8.364656
 31
0.0
  0
LINE
  5
135
330
424
100
AcDbEntity
  8
NOTES
  6
Continuous
 62
     7
370
    30
100
AcDbLine
 10
36.8225
 20
8.364656
 30
0.0
 11
36.8225
 21
6.864656
 31
0.0
  0
LINE
  5
136
330
424
100
AcDbEntity
  8
NOTES
  6
Continuous
 62
     7
370
    30
100
AcDbLine
 10
37.6225
 20
8.364656
 30
0.0
 11
38.2725
 21
8.364656
 31
0.0
  0
LINE
  5
137
330
424
100
AcDbEntity
  8
NOTES
  6
Continuous
 62
     7
370
    30
100
AcDbLine
 10
37.6225
 20
6.864656
 30
0.0
 11
37.6225
 21
8.364656
 31
0.0
  0
LINE
  5
138
330
424
100
AcDbEntity
  8
NOTES
  6
Continuous
 62
     7
370
    30
100
AcDbLine
 10
38.5725
 20
8.364656
 30
0.0
 11
39.2225
 21
8.364656
 31
0.0
  0
LINE
  5
139
330
424
100
AcDbEntity
  8
NOTES
  6
Continuous
 62
     7
370
    30
100
AcDbLine
 10
39.2225
 20
8.364656
 30
0.0
 11
39.2225
 21
6.864656
 31
0.0
  0
LINE
  5
13A
330
424
100
AcDbEntity
  8
NOTES
  6
Continuous
 62
     7
370
    30
100
AcDbLine
 10
40.0225
 20
8.364656
 30
0.0
 11
40.502521
 21
8.364656
 31
0.0
  0
LINE
  5
13B
330
424
100
AcDbEntity
  8
NOTES
  6
Continuous
 62
     7
370
    30
100
AcDbLine
 10
34.8225
 20
7.084656
 30
0.0
 11
34.4225
 21
7.344656
 31
0.0
  0
LINE
  5
13C
330
424
100
AcDbEntity
  8
NOTES
  6
Continuous
 62
     7
370
    30
100
AcDbLine
 10
34.8225
 20
7.084656
 30
0.0
 11
35.2225
 21
7.344656
 31
0.0
  0
LINE
  5
13D
330
424
100
AcDbEntity
  8
NOTES
  6
Continuous
 62
     7
370
    30
100
AcDbLine
 10
35.1625
 20
7.389656
 30
0.0
 11
34.542333
 21
7.854781
 31
0.0
  0
LINE
  5
13E
330
424
100
AcDbEntity
  8
NOTES
  6
Continuous
 62
     7
370
    30
100
AcDbLine
 10
34.4825
 20
7.389656
 30
0.0
 11
35.102667
 21
7.854781
 31
0.0
  0
LINE
  5
13F
330
424
100
AcDbEntity
  8
NOTES
  6
Continuous
 62
     7
370
    30
100
AcDbLine
 10
35.117812
 20
7.348167
 30
0.0
 11
34.4825
 21
7.824656
 31
0.0
  0
LINE
  5
140
330
424
100
AcDbEntity
  8
NOTES
  6
Continuous
 62
     7
370
    30
100
AcDbLine
 10
34.527187
 20
7.348167
 30
0.0
 11
35.1625
 21
7.824656
 31
0.0
  0
LINE
  5
141
330
424
100
AcDbEntity
  8
NOTES
  6
Continuous
 62
     7
370
    30
100
AcDbLine
 10
34.8225
 20
7.156219
 30
0.0
 11
35.117812
 21
7.348167
 31
0.0
  0
LINE
  5
142
330
424
100
AcDbEntity
  8
NOTES
  6
Continuous
 62
     7
370
    30
100
AcDbLine
 10
34.8225
 20
7.156219
 30
0.0
 11
34.527187
 21
7.348167
 31
0.0
  0
LINE
  5
143
330
424
100
AcDbEntity
  8
NOTES
  6
Continuous
 62
     7
370
    30
100
AcDbLine
 10
34.4825
 20
8.236594
 30
0.0
 11
34.4825
 21
7.305656
 31
0.0
  0
LINE
  5
144
330
424
100
AcDbEntity
  8
NOTES
  6
Continuous
 62
     7
370
    30
100
AcDbLine
 10
35.1625
 20
8.236583
 30
0.0
 11
35.1625
 21
7.305656
 31
0.0
  0
LINE
  5
145
330
424
100
AcDbEntity
  8
NOTES
  6
Continuous
 62
     7
370
    30
100
AcDbLine
 10
34.4825
 20
7.891729
 30
0.0
 11
35.1625
 21
8.236583
 31
0.0
  0
LINE
  5
146
330
424
100
AcDbEntity
  8
NOTES
  6
Continuous
 62
     7
370
    30
100
AcDbLine
 10
34.4825
 20
8.236594
 30
0.0
 11
35.1625
 21
7.891719
 31
0.0
  0
LINE
  5
147
330
424
100
AcDbEntity
  8
NOTES
  6
Continuous
 62
     7
370
    30
100
AcDbLine
 10
34.542333
 20
7.854781
 30
0.0
 11
35.1625
 21
8.169302
 31
0.0
  0
LINE
  5
148
330
424
100
AcDbEntity
  8
NOTES
  6
Continuous
 62
     7
370
    30
100
AcDbLine
 10
34.4825
 20
8.169302
 30
0.0
 11
35.102667
 21
7.854781
 31
0.0
  0
LWPOLYLINE
  5
149
330
424
100
AcDbEntity
  8
NOTES
  6
Continuous
 62
     7
370
    30
100
AcDbPolyline
 90
        9
 70
   128
 43
0.0
 10
34.4225
 20
8.284896
 10
34.4725
 20
8.278344
 10
34.562635
 20
8.265375
 10
34.693833
 20
8.247729
 10
34.819448
 20
8.239885
 10
34.950635
 20
8.247677
 10
35.07625
 20
8.264479
 10
35.1725
 20
8.278396
 10
35.2225
 20
8.284708
  0
LWPOLYLINE
  5
14A
330
424
100
AcDbEntity
  8
NOTES
  6
Continuous
 62
     7
370
    30
100
AcDbPolyline
 90
        9
 70
   128
 43
0.0
 10
34.4225
 20
8.244604
 10
34.467062
 20
8.23876
 10
34.557125
 20
8.225802
 10
34.689917
 20
8.207948
 10
34.819385
 20
8.199865
 10
34.954469
 20
8.207885
 10
35.08176
 20
8.224906
 10
35.177865
 20
8.238802
 10
35.2225
 20
8.244448
  0
LINE
  5
14B
330
424
100
AcDbEntity
  8
NOTES
  6
Continuous
 62
     7
370
    30
100
AcDbLine
 10
34.4795
 20
8.236969
 30
0.0
 11
34.4795
 21
7.307604
 31
0.0
  0
LINE
  5
14C
330
424
100
AcDbEntity
  8
NOTES
  6
Continuous
 62
     7
370
    30
100
AcDbLine
 10
34.4765
 20
8.237406
 30
0.0
 11
34.4765
 21
7.309552
 31
0.0
  0
LINE
  5
14D
330
424
100
AcDbEntity
  8
NOTES
  6
Continuous
 62
     7
370
    30
100
AcDbLine
 10
34.4735
 20
8.237833
 30
0.0
 11
34.4735
 21
7.31151
 31
0.0
  0
LINE
  5
14E
330
424
100
AcDbEntity
  8
NOTES
  6
Continuous
 62
     7
370
    30
100
AcDbLine
 10
34.4705
 20
8.238271
 30
0.0
 11
34.4705
 21
7.313458
 31
0.0
  0
LINE
  5
14F
330
424
100
AcDbEntity
  8
NOTES
  6
Continuous
 62
     7
370
    30
100
AcDbLine
 10
34.4675
 20
8.238698
 30
0.0
 11
34.4675
 21
7.315406
 31
0.0
  0
LINE
  5
150
330
424
100
AcDbEntity
  8
NOTES
  6
Continuous
 62
     7
370
    30
100
AcDbLine
 10
34.4645
 20
8.239094
 30
0.0
 11
34.4645
 21
7.317354
 31
0.0
  0
LINE
  5
151
330
424
100
AcDbEntity
  8
NOTES
  6
Continuous
 62
     7
370
    30
100
AcDbLine
 10
34.4615
 20
8.23949
 30
0.0
 11
34.4615
 21
7.319302
 31
0.0
  0
LINE
  5
152
330
424
100
AcDbEntity
  8
NOTES
  6
Continuous
 62
     7
370
    30
100
AcDbLine
 10
34.4585
 20
8.239885
 30
0.0
 11
34.4585
 21
7.32126
 31
0.0
  0
LINE
  5
153
330
424
100
AcDbEntity
  8
NOTES
  6
Continuous
 62
     7
370
    30
100
AcDbLine
 10
34.4555
 20
8.240281
 30
0.0
 11
34.4555
 21
7.323208
 31
0.0
  0
LINE
  5
154
330
424
100
AcDbEntity
  8
NOTES
  6
Continuous
 62
     7
370
    30
100
AcDbLine
 10
34.4525
 20
8.240667
 30
0.0
 11
34.4525
 21
7.325156
 31
0.0
  0
LINE
  5
155
330
424
100
AcDbEntity
  8
NOTES
  6
Continuous
 62
     7
370
    30
100
AcDbLine
 10
34.4495
 20
8.241062
 30
0.0
 11
34.4495
 21
7.327104
 31
0.0
  0
LINE
  5
156
330
424
100
AcDbEntity
  8
NOTES
  6
Continuous
 62
     7
370
    30
100
AcDbLine
 10
34.4465
 20
8.241458
 30
0.0
 11
34.4465
 21
7.329052
 31
0.0
  0
LINE
  5
157
330
424
100
AcDbEntity
  8
NOTES
  6
Continuous
 62
     7
370
    30
100
AcDbLine
 10
34.4435
 20
8.241854
 30
0.0
 11
34.4435
 21
7.33101
 31
0.0
  0
LINE
  5
158
330
424
100
AcDbEntity
  8
NOTES
  6
Continuous
 62
     7
370
    30
100
AcDbLine
 10
34.4405
 20
8.24224
 30
0.0
 11
34.4405
 21
7.332958
 31
0.0
  0
LINE
  5
159
330
424
100
AcDbEntity
  8
NOTES
  6
Continuous
 62
     7
370
    30
100
AcDbLine
 10
34.4375
 20
8.242635
 30
0.0
 11
34.4375
 21
7.334906
 31
0.0
  0
LINE
  5
15A
330
424
100
AcDbEntity
  8
NOTES
  6
Continuous
 62
     7
370
    30
100
AcDbLine
 10
34.4345
 20
8.243031
 30
0.0
 11
34.4345
 21
7.336854
 31
0.0
  0
LINE
  5
15B
330
424
100
AcDbEntity
  8
NOTES
  6
Continuous
 62
     7
370
    30
100
AcDbLine
 10
34.4315
 20
8.243427
 30
0.0
 11
34.4315
 21
7.338802
 31
0.0
  0
LINE
  5
15C
330
424
100
AcDbEntity
  8
NOTES
  6
Continuous
 62
     7
370
    30
100
AcDbLine
 10
34.4285
 20
8.243812
 30
0.0
 11
34.4285
 21
7.34076
 31
0.0
  0
LINE
  5
15D
330
424
100
AcDbEntity
  8
NOTES
  6
Continuous
 62
     7
370
    30
100
AcDbLine
 10
34.4255
 20
8.244208
 30
0.0
 11
34.4255
 21
7.342708
 31
0.0
  0
LINE
  5
15E
330
424
100
AcDbEntity
  8
NOTES
  6
Continuous
 62
     7
370
    30
100
AcDbLine
 10
35.1655
 20
8.236583
 30
0.0
 11
35.1655
 21
7.307604
 31
0.0
  0
LINE
  5
15F
330
424
100
AcDbEntity
  8
NOTES
  6
Continuous
 62
     7
370
    30
100
AcDbLine
 10
35.1685
 20
8.237448
 30
0.0
 11
35.1685
 21
7.309552
 31
0.0
  0
LINE
  5
160
330
424
100
AcDbEntity
  8
NOTES
  6
Continuous
 62
     7
370
    30
100
AcDbLine
 10
35.1715
 20
8.237885
 30
0.0
 11
35.1715
 21
7.31151
 31
0.0
  0
LINE
  5
161
330
424
100
AcDbEntity
  8
NOTES
  6
Continuous
 62
     7
370
    30
100
AcDbLine
 10
35.1745
 20
8.238312
 30
0.0
 11
35.1745
 21
7.313458
 31
0.0
  0
LINE
  5
162
330
424
100
AcDbEntity
  8
NOTES
  6
Continuous
 62
     7
370
    30
100
AcDbLine
 10
35.1775
 20
8.23876
 30
0.0
 11
35.1775
 21
7.315406
 31
0.0
  0
LINE
  5
163
330
424
100
AcDbEntity
  8
NOTES
  6
Continuous
 62
     7
370
    30
100
AcDbLine
 10
35.1805
 20
8.239135
 30
0.0
 11
35.1805
 21
7.317354
 31
0.0
  0
LINE
  5
164
330
424
100
AcDbEntity
  8
NOTES
  6
Continuous
 62
     7
370
    30
100
AcDbLine
 10
35.1835
 20
8.23951
 30
0.0
 11
35.1835
 21
7.319302
 31
0.0
  0
LINE
  5
165
330
424
100
AcDbEntity
  8
NOTES
  6
Continuous
 62
     7
370
    30
100
AcDbLine
 10
35.1865
 20
8.239896
 30
0.0
 11
35.1865
 21
7.32126
 31
0.0
  0
LINE
  5
166
330
424
100
AcDbEntity
  8
NOTES
  6
Continuous
 62
     7
370
    30
100
AcDbLine
 10
35.1895
 20
8.240271
 30
0.0
 11
35.1895
 21
7.323208
 31
0.0
  0
LINE
  5
167
330
424
100
AcDbEntity
  8
NOTES
  6
Continuous
 62
     7
370
    30
100
AcDbLine
 10
35.1925
 20
8.240656
 30
0.0
 11
35.1925
 21
7.325156
 31
0.0
  0
LINE
  5
168
330
424
100
AcDbEntity
  8
NOTES
  6
Continuous
 62
     7
370
    30
100
AcDbLine
 10
35.1955
 20
8.241031
 30
0.0
 11
35.1955
 21
7.327104
 31
0.0
  0
LINE
  5
169
330
424
100
AcDbEntity
  8
NOTES
  6
Continuous
 62
     7
370
    30
100
AcDbLine
 10
35.1985
 20
8.241417
 30
0.0
 11
35.1985
 21
7.329052
 31
0.0
  0
LINE
  5
16A
330
424
100
AcDbEntity
  8
NOTES
  6
Continuous
 62
     7
370
    30
100
AcDbLine
 10
35.2015
 20
8.241792
 30
0.0
 11
35.2015
 21
7.33101
 31
0.0
  0
LINE
  5
16B
330
424
100
AcDbEntity
  8
NOTES
  6
Continuous
 62
     7
370
    30
100
AcDbLine
 10
35.2045
 20
8.242167
 30
0.0
 11
35.2045
 21
7.332958
 31
0.0
  0
LINE
  5
16C
330
424
100
AcDbEntity
  8
NOTES
  6
Continuous
 62
     7
370
    30
100
AcDbLine
 10
35.2075
 20
8.242552
 30
0.0
 11
35.2075
 21
7.334906
 31
0.0
  0
LINE
  5
16D
330
424
100
AcDbEntity
  8
NOTES
  6
Continuous
 62
     7
370
    30
100
AcDbLine
 10
35.2105
 20
8.242927
 30
0.0
 11
35.2105
 21
7.336854
 31
0.0
  0
LINE
  5
16E
330
424
100
AcDbEntity
  8
NOTES
  6
Continuous
 62
     7
370
    30
100
AcDbLine
 10
35.2135
 20
8.243313
 30
0.0
 11
35.2135
 21
7.338802
 31
0.0
  0
LINE
  5
16F
330
424
100
AcDbEntity
  8
NOTES
  6
Continuous
 62
     7
370
    30
100
AcDbLine
 10
35.2165
 20
8.243688
 30
0.0
 11
35.2165
 21
7.34076
 31
0.0
  0
LINE
  5
170
330
424
100
AcDbEntity
  8
NOTES
  6
Continuous
 62
     7
370
    30
100
AcDbLine
 10
35.2195
 20
8.244073
 30
0.0
 11
35.2195
 21
7.342708
 31
0.0
  0
LINE
  5
171
330
424
100
AcDbEntity
  8
NOTES
  6
Continuous
 62
     7
370
    30
100
AcDbLine
 10
34.820865
 20
7.087167
 30
0.0
 11
35.1625
 21
7.309229
 31
0.0
  0
LINE
  5
172
330
424
100
AcDbEntity
  8
NOTES
  6
Continuous
 62
     7
370
    30
100
AcDbLine
 10
34.819229
 20
7.089677
 30
0.0
 11
35.1625
 21
7.312802
 31
0.0
  0
LINE
  5
173
330
424
100
AcDbEntity
  8
NOTES
  6
Continuous
 62
     7
370
    30
100
AcDbLine
 10
34.817594
 20
7.092198
 30
0.0
 11
35.1625
 21
7.316385
 31
0.0
  0
LINE
  5
174
330
424
100
AcDbEntity
  8
NOTES
  6
Continuous
 62
     7
370
    30
100
AcDbLine
 10
34.815958
 20
7.094708
 30
0.0
 11
35.1625
 21
7.319958
 31
0.0
  0
LINE
  5
175
330
424
100
AcDbEntity
  8
NOTES
  6
Continuous
 62
     7
370
    30
100
AcDbLine
 10
34.814323
 20
7.097229
 30
0.0
 11
35.1625
 21
7.323542
 31
0.0
  0
LINE
  5
176
330
424
100
AcDbEntity
  8
NOTES
  6
Continuous
 62
     7
370
    30
100
AcDbLine
 10
34.812687
 20
7.09974
 30
0.0
 11
35.1625
 21
7.327115
 31
0.0
  0
LINE
  5
177
330
424
100
AcDbEntity
  8
NOTES
  6
Continuous
 62
     7
370
    30
100
AcDbLine
 10
34.811052
 20
7.10226
 30
0.0
 11
35.1625
 21
7.330698
 31
0.0
  0
LINE
  5
178
330
424
100
AcDbEntity
  8
NOTES
  6
Continuous
 62
     7
370
    30
100
AcDbLine
 10
34.809417
 20
7.104771
 30
0.0
 11
35.1625
 21
7.334271
 31
0.0
  0
LINE
  5
179
330
424
100
AcDbEntity
  8
NOTES
  6
Continuous
 62
     7
370
    30
100
AcDbLine
 10
34.807781
 20
7.107292
 30
0.0
 11
35.1625
 21
7.337854
 31
0.0
  0
LINE
  5
17A
330
424
100
AcDbEntity
  8
NOTES
  6
Continuous
 62
     7
370
    30
100
AcDbLine
 10
34.806146
 20
7.109802
 30
0.0
 11
35.1625
 21
7.341437
 31
0.0
  0
LINE
  5
17B
330
424
100
AcDbEntity
  8
NOTES
  6
Continuous
 62
     7
370
    30
100
AcDbLine
 10
34.80451
 20
7.112323
 30
0.0
 11
35.1625
 21
7.345021
 31
0.0
  0
LINE
  5
17C
330
424
100
AcDbEntity
  8
NOTES
  6
Continuous
 62
     7
370
    30
100
AcDbLine
 10
34.802875
 20
7.114833
 30
0.0
 11
35.1625
 21
7.348594
 31
0.0
  0
LINE
  5
17D
330
424
100
AcDbEntity
  8
NOTES
  6
Continuous
 62
     7
370
    30
100
AcDbLine
 10
34.80124
 20
7.117354
 30
0.0
 11
35.1625
 21
7.352177
 31
0.0
  0
LINE
  5
17E
330
424
100
AcDbEntity
  8
NOTES
  6
Continuous
 62
     7
370
    30
100
AcDbLine
 10
34.799604
 20
7.119865
 30
0.0
 11
35.1625
 21
7.35575
 31
0.0
  0
LINE
  5
17F
330
424
100
AcDbEntity
  8
NOTES
  6
Continuous
 62
     7
370
    30
100
AcDbLine
 10
34.797969
 20
7.122385
 30
0.0
 11
35.1625
 21
7.359333
 31
0.0
  0
LINE
  5
180
330
424
100
AcDbEntity
  8
NOTES
  6
Continuous
 62
     7
370
    30
100
AcDbLine
 10
34.796333
 20
7.124896
 30
0.0
 11
35.1625
 21
7.362906
 31
0.0
  0
LINE
  5
181
330
424
100
AcDbEntity
  8
NOTES
  6
Continuous
 62
     7
370
    30
100
AcDbLine
 10
34.794698
 20
7.127417
 30
0.0
 11
35.1625
 21
7.36649
 31
0.0
  0
LINE
  5
182
330
424
100
AcDbEntity
  8
NOTES
  6
Continuous
 62
     7
370
    30
100
AcDbLine
 10
34.793062
 20
7.129927
 30
0.0
 11
35.1625
 21
7.370062
 31
0.0
  0
LINE
  5
183
330
424
100
AcDbEntity
  8
NOTES
  6
Continuous
 62
     7
370
    30
100
AcDbLine
 10
34.791427
 20
7.132437
 30
0.0
 11
35.1625
 21
7.373635
 31
0.0
  0
LINE
  5
184
330
424
100
AcDbEntity
  8
NOTES
  6
Continuous
 62
     7
370
    30
100
AcDbLine
 10
34.824125
 20
7.087167
 30
0.0
 11
34.4825
 21
7.309219
 31
0.0
  0
LINE
  5
185
330
424
100
AcDbEntity
  8
NOTES
  6
Continuous
 62
     7
370
    30
100
AcDbLine
 10
34.82576
 20
7.089677
 30
0.0
 11
34.4825
 21
7.312792
 31
0.0
  0
LINE
  5
186
330
424
100
AcDbEntity
  8
NOTES
  6
Continuous
 62
     7
370
    30
100
AcDbLine
 10
34.827396
 20
7.092198
 30
0.0
 11
34.4825
 21
7.316385
 31
0.0
  0
LINE
  5
187
330
424
100
AcDbEntity
  8
NOTES
  6
Continuous
 62
     7
370
    30
100
AcDbLine
 10
34.829031
 20
7.094708
 30
0.0
 11
34.483604
 21
7.319229
 31
0.0
  0
LINE
  5
188
330
424
100
AcDbEntity
  8
NOTES
  6
Continuous
 62
     7
370
    30
100
AcDbLine
 10
34.830667
 20
7.097229
 30
0.0
 11
34.486167
 21
7.321156
 31
0.0
  0
LINE
  5
189
330
424
100
AcDbEntity
  8
NOTES
  6
Continuous
 62
     7
370
    30
100
AcDbLine
 10
34.832302
 20
7.09974
 30
0.0
 11
34.488719
 21
7.323062
 31
0.0
  0
LINE
  5
18A
330
424
100
AcDbEntity
  8
NOTES
  6
Continuous
 62
     7
370
    30
100
AcDbLine
 10
34.833937
 20
7.10226
 30
0.0
 11
34.491281
 21
7.32499
 31
0.0
  0
LINE
  5
18B
330
424
100
AcDbEntity
  8
NOTES
  6
Continuous
 62
     7
370
    30
100
AcDbLine
 10
34.835573
 20
7.104771
 30
0.0
 11
34.493833
 21
7.326906
 31
0.0
  0
LINE
  5
18C
330
424
100
AcDbEntity
  8
NOTES
  6
Continuous
 62
     7
370
    30
100
AcDbLine
 10
34.837208
 20
7.107292
 30
0.0
 11
34.496396
 21
7.328823
 31
0.0
  0
LINE
  5
18D
330
424
100
AcDbEntity
  8
NOTES
  6
Continuous
 62
     7
370
    30
100
AcDbLine
 10
34.838844
 20
7.109802
 30
0.0
 11
34.498948
 21
7.33074
 31
0.0
  0
LINE
  5
18E
330
424
100
AcDbEntity
  8
NOTES
  6
Continuous
 62
     7
370
    30
100
AcDbLine
 10
34.840479
 20
7.112323
 30
0.0
 11
34.50151
 21
7.332656
 31
0.0
  0
LINE
  5
18F
330
424
100
AcDbEntity
  8
NOTES
  6
Continuous
 62
     7
370
    30
100
AcDbLine
 10
34.842115
 20
7.114833
 30
0.0
 11
34.504062
 21
7.334573
 31
0.0
  0
LINE
  5
190
330
424
100
AcDbEntity
  8
NOTES
  6
Continuous
 62
     7
370
    30
100
AcDbLine
 10
34.84375
 20
7.117354
 30
0.0
 11
34.506615
 21
7.33649
 31
0.0
  0
LINE
  5
191
330
424
100
AcDbEntity
  8
NOTES
  6
Continuous
 62
     7
370
    30
100
AcDbLine
 10
34.845385
 20
7.119865
 30
0.0
 11
34.509167
 21
7.338406
 31
0.0
  0
LINE
  5
192
330
424
100
AcDbEntity
  8
NOTES
  6
Continuous
 62
     7
370
    30
100
AcDbLine
 10
34.847021
 20
7.122385
 30
0.0
 11
34.511729
 21
7.340323
 31
0.0
  0
LINE
  5
193
330
424
100
AcDbEntity
  8
NOTES
  6
Continuous
 62
     7
370
    30
100
AcDbLine
 10
34.848656
 20
7.124896
 30
0.0
 11
34.514281
 21
7.34224
 31
0.0
  0
LINE
  5
194
330
424
100
AcDbEntity
  8
NOTES
  6
Continuous
 62
     7
370
    30
100
AcDbLine
 10
34.850292
 20
7.127417
 30
0.0
 11
34.516844
 21
7.344156
 31
0.0
  0
LINE
  5
195
330
424
100
AcDbEntity
  8
NOTES
  6
Continuous
 62
     7
370
    30
100
AcDbLine
 10
34.851927
 20
7.129927
 30
0.0
 11
34.519396
 21
7.346073
 31
0.0
  0
LINE
  5
196
330
424
100
AcDbEntity
  8
NOTES
  6
Continuous
 62
     7
370
    30
100
AcDbLine
 10
34.853562
 20
7.132437
 30
0.0
 11
34.521948
 21
7.34799
 31
0.0
  0
LINE
  5
197
330
424
100
AcDbEntity
  8
NOTES
  6
Continuous
 62
     7
370
    30
100
AcDbLine
 10
34.4825
 20
7.318406
 30
0.0
 11
35.16201
 21
7.828042
 31
0.0
  0
LINE
  5
198
330
424
100
AcDbEntity
  8
NOTES
  6
Continuous
 62
     7
370
    30
100
AcDbLine
 10
34.4825
 20
7.322146
 30
0.0
 11
35.159031
 21
7.829552
 31
0.0
  0
LINE
  5
199
330
424
100
AcDbEntity
  8
NOTES
  6
Continuous
 62
     7
370
    30
100
AcDbLine
 10
34.4825
 20
7.325906
 30
0.0
 11
35.156042
 21
7.831062
 31
0.0
  0
LINE
  5
19A
330
424
100
AcDbEntity
  8
NOTES
  6
Continuous
 62
     7
370
    30
100
AcDbLine
 10
34.4825
 20
7.329646
 30
0.0
 11
35.153062
 21
7.832573
 31
0.0
  0
LINE
  5
19B
330
424
100
AcDbEntity
  8
NOTES
  6
Continuous
 62
     7
370
    30
100
AcDbLine
 10
34.4825
 20
7.333396
 30
0.0
 11
35.150083
 21
7.834094
 31
0.0
  0
LINE
  5
19C
330
424
100
AcDbEntity
  8
NOTES
  6
Continuous
 62
     7
370
    30
100
AcDbLine
 10
34.4825
 20
7.337146
 30
0.0
 11
35.147094
 21
7.835604
 31
0.0
  0
LINE
  5
19D
330
424
100
AcDbEntity
  8
NOTES
  6
Continuous
 62
     7
370
    30
100
AcDbLine
 10
34.4825
 20
7.340896
 30
0.0
 11
35.144115
 21
7.837115
 31
0.0
  0
LINE
  5
19E
330
424
100
AcDbEntity
  8
NOTES
  6
Continuous
 62
     7
370
    30
100
AcDbLine
 10
34.4825
 20
7.344656
 30
0.0
 11
35.141125
 21
7.838635
 31
0.0
  0
LINE
  5
19F
330
424
100
AcDbEntity
  8
NOTES
  6
Continuous
 62
     7
370
    30
100
AcDbLine
 10
34.4825
 20
7.348396
 30
0.0
 11
35.138146
 21
7.840146
 31
0.0
  0
LINE
  5
1A0
330
424
100
AcDbEntity
  8
NOTES
  6
Continuous
 62
     7
370
    30
100
AcDbLine
 10
34.4825
 20
7.352146
 30
0.0
 11
35.135167
 21
7.841656
 31
0.0
  0
LINE
  5
1A1
330
424
100
AcDbEntity
  8
NOTES
  6
Continuous
 62
     7
370
    30
100
AcDbLine
 10
34.4825
 20
7.355896
 30
0.0
 11
35.132188
 21
7.843167
 31
0.0
  0
LINE
  5
1A2
330
424
100
AcDbEntity
  8
NOTES
  6
Continuous
 62
     7
370
    30
100
AcDbLine
 10
34.4825
 20
7.359646
 30
0.0
 11
35.129208
 21
7.844677
 31
0.0
  0
LINE
  5
1A3
330
424
100
AcDbEntity
  8
NOTES
  6
Continuous
 62
     7
370
    30
100
AcDbLine
 10
34.4825
 20
7.363406
 30
0.0
 11
35.126219
 21
7.846198
 31
0.0
  0
LINE
  5
1A4
330
424
100
AcDbEntity
  8
NOTES
  6
Continuous
 62
     7
370
    30
100
AcDbLine
 10
34.4825
 20
7.367146
 30
0.0
 11
35.123229
 21
7.847708
 31
0.0
  0
LINE
  5
1A5
330
424
100
AcDbEntity
  8
NOTES
  6
Continuous
 62
     7
370
    30
100
AcDbLine
 10
34.4825
 20
7.370896
 30
0.0
 11
35.12025
 21
7.849219
 31
0.0
  0
LINE
  5
1A6
330
424
100
AcDbEntity
  8
NOTES
  6
Continuous
 62
     7
370
    30
100
AcDbLine
 10
34.4825
 20
7.374646
 30
0.0
 11
35.117271
 21
7.850729
 31
0.0
  0
LINE
  5
1A7
330
424
100
AcDbEntity
  8
NOTES
  6
Continuous
 62
     7
370
    30
100
AcDbLine
 10
34.4825
 20
7.378396
 30
0.0
 11
35.114292
 21
7.85224
 31
0.0
  0
LINE
  5
1A8
330
424
100
AcDbEntity
  8
NOTES
  6
Continuous
 62
     7
370
    30
100
AcDbLine
 10
34.4825
 20
7.382156
 30
0.0
 11
35.111302
 21
7.85376
 31
0.0
  0
LINE
  5
1A9
330
424
100
AcDbEntity
  8
NOTES
  6
Continuous
 62
     7
370
    30
100
AcDbLine
 10
34.4825
 20
7.385896
 30
0.0
 11
35.108323
 21
7.855271
 31
0.0
  0
LINE
  5
1AA
330
424
100
AcDbEntity
  8
NOTES
  6
Continuous
 62
     7
370
    30
100
AcDbLine
 10
35.123042
 20
7.34799
 30
0.0
 11
34.482969
 21
7.828052
 31
0.0
  0
LINE
  5
1AB
330
424
100
AcDbEntity
  8
NOTES
  6
Continuous
 62
     7
370
    30
100
AcDbLine
 10
35.125719
 20
7.349729
 30
0.0
 11
34.485948
 21
7.829562
 31
0.0
  0
LINE
  5
1AC
330
424
100
AcDbEntity
  8
NOTES
  6
Continuous
 62
     7
370
    30
100
AcDbLine
 10
35.128396
 20
7.351469
 30
0.0
 11
34.488937
 21
7.831073
 31
0.0
  0
LINE
  5
1AD
330
424
100
AcDbEntity
  8
NOTES
  6
Continuous
 62
     7
370
    30
100
AcDbLine
 10
35.131073
 20
7.353208
 30
0.0
 11
34.491917
 21
7.832583
 31
0.0
  0
LINE
  5
1AE
330
424
100
AcDbEntity
  8
NOTES
  6
Continuous
 62
     7
370
    30
100
AcDbLine
 10
35.13375
 20
7.354948
 30
0.0
 11
34.494896
 21
7.834094
 31
0.0
  0
LINE
  5
1AF
330
424
100
AcDbEntity
  8
NOTES
  6
Continuous
 62
     7
370
    30
100
AcDbLine
 10
35.136427
 20
7.356687
 30
0.0
 11
34.497875
 21
7.835615
 31
0.0
  0
LINE
  5
1B0
330
424
100
AcDbEntity
  8
NOTES
  6
Continuous
 62
     7
370
    30
100
AcDbLine
 10
35.139104
 20
7.358427
 30
0.0
 11
34.500865
 21
7.837125
 31
0.0
  0
LINE
  5
1B1
330
424
100
AcDbEntity
  8
NOTES
  6
Continuous
 62
     7
370
    30
100
AcDbLine
 10
35.141792
 20
7.360177
 30
0.0
 11
34.503844
 21
7.838635
 31
0.0
  0
LINE
  5
1B2
330
424
100
AcDbEntity
  8
NOTES
  6
Continuous
 62
     7
370
    30
100
AcDbLine
 10
35.144469
 20
7.361917
 30
0.0
 11
34.506833
 21
7.840156
 31
0.0
  0
LINE
  5
1B3
330
424
100
AcDbEntity
  8
NOTES
  6
Continuous
 62
     7
370
    30
100
AcDbLine
 10
35.147146
 20
7.363656
 30
0.0
 11
34.509812
 21
7.841667
 31
0.0
  0
LINE
  5
1B4
330
424
100
AcDbEntity
  8
NOTES
  6
Continuous
 62
     7
370
    30
100
AcDbLine
 10
35.149823
 20
7.365396
 30
0.0
 11
34.512792
 21
7.843177
 31
0.0
  0
LINE
  5
1B5
330
424
100
AcDbEntity
  8
NOTES
  6
Continuous
 62
     7
370
    30
100
AcDbLine
 10
35.1525
 20
7.367135
 30
0.0
 11
34.515771
 21
7.844688
 31
0.0
  0
LINE
  5
1B6
330
424
100
AcDbEntity
  8
NOTES
  6
Continuous
 62
     7
370
    30
100
AcDbLine
 10
35.155187
 20
7.368885
 30
0.0
 11
34.51876
 21
7.846208
 31
0.0
  0
LINE
  5
1B7
330
424
100
AcDbEntity
  8
NOTES
  6
Continuous
 62
     7
370
    30
100
AcDbLine
 10
35.157865
 20
7.370625
 30
0.0
 11
34.52174
 21
7.847719
 31
0.0
  0
LINE
  5
1B8
330
424
100
AcDbEntity
  8
NOTES
  6
Continuous
 62
     7
370
    30
100
AcDbLine
 10
35.160542
 20
7.372365
 30
0.0
 11
34.524729
 21
7.849229
 31
0.0
  0
LINE
  5
1B9
330
424
100
AcDbEntity
  8
NOTES
  6
Continuous
 62
     7
370
    30
100
AcDbLine
 10
35.1625
 20
7.374635
 30
0.0
 11
34.527708
 21
7.85074
 31
0.0
  0
LINE
  5
1BA
330
424
100
AcDbEntity
  8
NOTES
  6
Continuous
 62
     7
370
    30
100
AcDbLine
 10
35.1625
 20
7.378385
 30
0.0
 11
34.530687
 21
7.85225
 31
0.0
  0
LINE
  5
1BB
330
424
100
AcDbEntity
  8
NOTES
  6
Continuous
 62
     7
370
    30
100
AcDbLine
 10
35.1625
 20
7.382146
 30
0.0
 11
34.533677
 21
7.853771
 31
0.0
  0
LINE
  5
1BC
330
424
100
AcDbEntity
  8
NOTES
  6
Continuous
 62
     7
370
    30
100
AcDbLine
 10
35.1625
 20
7.385896
 30
0.0
 11
34.536656
 21
7.855281
 31
0.0
  0
LINE
  5
1BD
330
424
100
AcDbEntity
  8
NOTES
  6
Continuous
 62
     7
370
    30
100
AcDbLine
 10
34.4825
 20
8.233229
 30
0.0
 11
35.1625
 21
7.888354
 31
0.0
  0
LINE
  5
1BE
330
424
100
AcDbEntity
  8
NOTES
  6
Continuous
 62
     7
370
    30
100
AcDbLine
 10
34.4825
 20
8.229865
 30
0.0
 11
35.1625
 21
7.88499
 31
0.0
  0
LINE
  5
1BF
330
424
100
AcDbEntity
  8
NOTES
  6
Continuous
 62
     7
370
    30
100
AcDbLine
 10
34.4825
 20
8.2265
 30
0.0
 11
35.1625
 21
7.881625
 31
0.0
  0
LINE
  5
1C0
330
424
100
AcDbEntity
  8
NOTES
  6
Continuous
 62
     7
370
    30
100
AcDbLine
 10
34.4825
 20
8.223125
 30
0.0
 11
35.1625
 21
7.87825
 31
0.0
  0
LINE
  5
1C1
330
424
100
AcDbEntity
  8
NOTES
  6
Continuous
 62
     7
370
    30
100
AcDbLine
 10
34.4825
 20
8.21976
 30
0.0
 11
35.1625
 21
7.874885
 31
0.0
  0
LINE
  5
1C2
330
424
100
AcDbEntity
  8
NOTES
  6
Continuous
 62
     7
370
    30
100
AcDbLine
 10
34.4825
 20
8.216396
 30
0.0
 11
35.1625
 21
7.871521
 31
0.0
  0
LINE
  5
1C3
330
424
100
AcDbEntity
  8
NOTES
  6
Continuous
 62
     7
370
    30
100
AcDbLine
 10
34.4825
 20
8.213042
 30
0.0
 11
35.1625
 21
7.868167
 31
0.0
  0
LINE
  5
1C4
330
424
100
AcDbEntity
  8
NOTES
  6
Continuous
 62
     7
370
    30
100
AcDbLine
 10
34.4825
 20
8.209677
 30
0.0
 11
35.1625
 21
7.864802
 31
0.0
  0
LINE
  5
1C5
330
424
100
AcDbEntity
  8
NOTES
  6
Continuous
 62
     7
370
    30
100
AcDbLine
 10
34.4825
 20
8.206312
 30
0.0
 11
35.1625
 21
7.861438
 31
0.0
  0
LINE
  5
1C6
330
424
100
AcDbEntity
  8
NOTES
  6
Continuous
 62
     7
370
    30
100
AcDbLine
 10
34.4825
 20
8.202948
 30
0.0
 11
35.1625
 21
7.858073
 31
0.0
  0
LINE
  5
1C7
330
424
100
AcDbEntity
  8
NOTES
  6
Continuous
 62
     7
370
    30
100
AcDbLine
 10
34.4825
 20
8.199583
 30
0.0
 11
35.1625
 21
7.854708
 31
0.0
  0
LINE
  5
1C8
330
424
100
AcDbEntity
  8
NOTES
  6
Continuous
 62
     7
370
    30
100
AcDbLine
 10
34.4825
 20
8.196219
 30
0.0
 11
35.1625
 21
7.851344
 31
0.0
  0
LINE
  5
1C9
330
424
100
AcDbEntity
  8
NOTES
  6
Continuous
 62
     7
370
    30
100
AcDbLine
 10
34.4825
 20
8.192854
 30
0.0
 11
35.1625
 21
7.847979
 31
0.0
  0
LINE
  5
1CA
330
424
100
AcDbEntity
  8
NOTES
  6
Continuous
 62
     7
370
    30
100
AcDbLine
 10
34.4825
 20
8.1895
 30
0.0
 11
35.1625
 21
7.844625
 31
0.0
  0
LINE
  5
1CB
330
424
100
AcDbEntity
  8
NOTES
  6
Continuous
 62
     7
370
    30
100
AcDbLine
 10
34.4825
 20
8.186125
 30
0.0
 11
35.1625
 21
7.84125
 31
0.0
  0
LINE
  5
1CC
330
424
100
AcDbEntity
  8
NOTES
  6
Continuous
 62
     7
370
    30
100
AcDbLine
 10
34.4825
 20
8.182771
 30
0.0
 11
35.1625
 21
7.837896
 31
0.0
  0
LINE
  5
1CD
330
424
100
AcDbEntity
  8
NOTES
  6
Continuous
 62
     7
370
    30
100
AcDbLine
 10
34.4825
 20
8.179406
 30
0.0
 11
35.1625
 21
7.834531
 31
0.0
  0
LINE
  5
1CE
330
424
100
AcDbEntity
  8
NOTES
  6
Continuous
 62
     7
370
    30
100
AcDbLine
 10
34.4825
 20
8.176042
 30
0.0
 11
35.1625
 21
7.831167
 31
0.0
  0
LINE
  5
1CF
330
424
100
AcDbEntity
  8
NOTES
  6
Continuous
 62
     7
370
    30
100
AcDbLine
 10
34.4825
 20
8.172667
 30
0.0
 11
35.1625
 21
7.827792
 31
0.0
  0
LINE
  5
1D0
330
424
100
AcDbEntity
  8
NOTES
  6
Continuous
 62
     7
370
    30
100
AcDbLine
 10
34.4825
 20
7.888365
 30
0.0
 11
35.1625
 21
8.233219
 31
0.0
  0
LINE
  5
1D1
330
424
100
AcDbEntity
  8
NOTES
  6
Continuous
 62
     7
370
    30
100
AcDbLine
 10
34.4825
 20
7.885
 30
0.0
 11
35.1625
 21
8.229854
 31
0.0
  0
LINE
  5
1D2
330
424
100
AcDbEntity
  8
NOTES
  6
Continuous
 62
     7
370
    30
100
AcDbLine
 10
34.4825
 20
7.881635
 30
0.0
 11
35.1625
 21
8.22649
 31
0.0
  0
LINE
  5
1D3
330
424
100
AcDbEntity
  8
NOTES
  6
Continuous
 62
     7
370
    30
100
AcDbLine
 10
34.4825
 20
7.878271
 30
0.0
 11
35.1625
 21
8.223125
 31
0.0
  0
LINE
  5
1D4
330
424
100
AcDbEntity
  8
NOTES
  6
Continuous
 62
     7
370
    30
100
AcDbLine
 10
34.4825
 20
7.874906
 30
0.0
 11
35.1625
 21
8.21976
 31
0.0
  0
LINE
  5
1D5
330
424
100
AcDbEntity
  8
NOTES
  6
Continuous
 62
     7
370
    30
100
AcDbLine
 10
34.4825
 20
7.871542
 30
0.0
 11
35.1625
 21
8.216396
 31
0.0
  0
LINE
  5
1D6
330
424
100
AcDbEntity
  8
NOTES
  6
Continuous
 62
     7
370
    30
100
AcDbLine
 10
34.4825
 20
7.868177
 30
0.0
 11
35.1625
 21
8.213031
 31
0.0
  0
LINE
  5
1D7
330
424
100
AcDbEntity
  8
NOTES
  6
Continuous
 62
     7
370
    30
100
AcDbLine
 10
34.4825
 20
7.864823
 30
0.0
 11
35.1625
 21
8.209677
 31
0.0
  0
LINE
  5
1D8
330
424
100
AcDbEntity
  8
NOTES
  6
Continuous
 62
     7
370
    30
100
AcDbLine
 10
34.4825
 20
7.861458
 30
0.0
 11
35.1625
 21
8.206312
 31
0.0
  0
LINE
  5
1D9
330
424
100
AcDbEntity
  8
NOTES
  6
Continuous
 62
     7
370
    30
100
AcDbLine
 10
34.4825
 20
7.858094
 30
0.0
 11
35.1625
 21
8.202948
 31
0.0
  0
LINE
  5
1DA
330
424
100
AcDbEntity
  8
NOTES
  6
Continuous
 62
     7
370
    30
100
AcDbLine
 10
34.4825
 20
7.854729
 30
0.0
 11
35.1625
 21
8.199583
 31
0.0
  0
LINE
  5
1DB
330
424
100
AcDbEntity
  8
NOTES
  6
Continuous
 62
     7
370
    30
100
AcDbLine
 10
34.4825
 20
7.851354
 30
0.0
 11
35.1625
 21
8.196208
 31
0.0
  0
LINE
  5
1DC
330
424
100
AcDbEntity
  8
NOTES
  6
Continuous
 62
     7
370
    30
100
AcDbLine
 10
34.4825
 20
7.84799
 30
0.0
 11
35.1625
 21
8.192844
 31
0.0
  0
LINE
  5
1DD
330
424
100
AcDbEntity
  8
NOTES
  6
Continuous
 62
     7
370
    30
100
AcDbLine
 10
34.4825
 20
7.844635
 30
0.0
 11
35.1625
 21
8.189479
 31
0.0
  0
LINE
  5
1DE
330
424
100
AcDbEntity
  8
NOTES
  6
Continuous
 62
     7
370
    30
100
AcDbLine
 10
34.4825
 20
7.841281
 30
0.0
 11
35.1625
 21
8.186135
 31
0.0
  0
LINE
  5
1DF
330
424
100
AcDbEntity
  8
NOTES
  6
Continuous
 62
     7
370
    30
100
AcDbLine
 10
34.4825
 20
7.837906
 30
0.0
 11
35.1625
 21
8.18276
 31
0.0
  0
LINE
  5
1E0
330
424
100
AcDbEntity
  8
NOTES
  6
Continuous
 62
     7
370
    30
100
AcDbLine
 10
34.4825
 20
7.834542
 30
0.0
 11
35.1625
 21
8.179396
 31
0.0
  0
LINE
  5
1E1
330
424
100
AcDbEntity
  8
NOTES
  6
Continuous
 62
     7
370
    30
100
AcDbLine
 10
34.4825
 20
7.831177
 30
0.0
 11
35.1625
 21
8.176031
 31
0.0
  0
LINE
  5
1E2
330
424
100
AcDbEntity
  8
NOTES
  6
Continuous
 62
     7
370
    30
100
AcDbLine
 10
34.4825
 20
7.827812
 30
0.0
 11
35.1625
 21
8.172667
 31
0.0
  0
LWPOLYLINE
  5
1E3
330
424
100
AcDbEntity
  8
NOTES
  6
Continuous
 62
     7
370
    30
100
AcDbPolyline
 90
        9
 70
   128
 43
0.0
 10
34.4225
 20
8.281896
 10
34.4725
 20
8.275344
 10
34.562635
 20
8.262375
 10
34.693833
 20
8.244729
 10
34.819448
 20
8.236885
 10
34.950635
 20
8.244677
 10
35.07625
 20
8.261479
 10
35.1725
 20
8.275396
 10
35.2225
 20
8.281708
  0
LWPOLYLINE
  5
1E4
330
424
100
AcDbEntity
  8
NOTES
  6
Continuous
 62
     7
370
    30
100
AcDbPolyline
 90
        9
 70
   128
 43
0.0
 10
34.4225
 20
8.278896
 10
34.4725
 20
8.272344
 10
34.562635
 20
8.259375
 10
34.693833
 20
8.241729
 10
34.819448
 20
8.233885
 10
34.950635
 20
8.241677
 10
35.07625
 20
8.258479
 10
35.1725
 20
8.272396
 10
35.2225
 20
8.278708
  0
LWPOLYLINE
  5
1E5
330
424
100
AcDbEntity
  8
NOTES
  6
Continuous
 62
     7
370
    30
100
AcDbPolyline
 90
        9
 70
   128
 43
0.0
 10
34.4225
 20
8.275896
 10
34.4725
 20
8.269344
 10
34.562635
 20
8.256375
 10
34.693833
 20
8.238729
 10
34.819448
 20
8.230885
 10
34.950635
 20
8.238677
 10
35.07625
 20
8.255479
 10
35.1725
 20
8.269396
 10
35.2225
 20
8.275708
  0
LWPOLYLINE
  5
1E6
330
424
100
AcDbEntity
  8
NOTES
  6
Continuous
 62
     7
370
    30
100
AcDbPolyline
 90
        9
 70
   128
 43
0.0
 10
34.4225
 20
8.272896
 10
34.4725
 20
8.266344
 10
34.562635
 20
8.253375
 10
34.693833
 20
8.235729
 10
34.819448
 20
8.227885
 10
34.950635
 20
8.235677
 10
35.07625
 20
8.252479
 10
35.1725
 20
8.266396
 10
35.2225
 20
8.272708
  0
LWPOLYLINE
  5
1E7
330
424
100
AcDbEntity
  8
NOTES
  6
Continuous
 62
     7
370
    30
100
AcDbPolyline
 90
        9
 70
   128
 43
0.0
 10
34.4225
 20
8.269896
 10
34.4725
 20
8.263344
 10
34.562635
 20
8.250375
 10
34.693833
 20
8.232729
 10
34.819448
 20
8.224885
 10
34.950635
 20
8.232677
 10
35.07625
 20
8.249479
 10
35.1725
 20
8.263396
 10
35.2225
 20
8.269708
  0
LWPOLYLINE
  5
1E8
330
424
100
AcDbEntity
  8
NOTES
  6
Continuous
 62
     7
370
    30
100
AcDbPolyline
 90
        9
 70
   128
 43
0.0
 10
34.4225
 20
8.266896
 10
34.4725
 20
8.260344
 10
34.562635
 20
8.247375
 10
34.693833
 20
8.229729
 10
34.819448
 20
8.221885
 10
34.950635
 20
8.229677
 10
35.07625
 20
8.246479
 10
35.1725
 20
8.260396
 10
35.2225
 20
8.266708
  0
LWPOLYLINE
  5
1E9
330
424
100
AcDbEntity
  8
NOTES
  6
Continuous
 62
     7
370
    30
100
AcDbPolyline
 90
        9
 70
   128
 43
0.0
 10
34.4225
 20
8.263896
 10
34.4725
 20
8.257344
 10
34.562635
 20
8.244375
 10
34.693833
 20
8.226729
 10
34.819448
 20
8.218885
 10
34.950635
 20
8.226677
 10
35.07625
 20
8.243479
 10
35.1725
 20
8.257396
 10
35.2225
 20
8.263708
  0
LWPOLYLINE
  5
1EA
330
424
100
AcDbEntity
  8
NOTES
  6
Continuous
 62
     7
370
    30
100
AcDbPolyline
 90
        9
 70
   128
 43
0.0
 10
34.4225
 20
8.260896
 10
34.4725
 20
8.254344
 10
34.562635
 20
8.241375
 10
34.693833
 20
8.223729
 10
34.819448
 20
8.215885
 10
34.950635
 20
8.223677
 10
35.07625
 20
8.240479
 10
35.1725
 20
8.254396
 10
35.2225
 20
8.260708
  0
LWPOLYLINE
  5
1EB
330
424
100
AcDbEntity
  8
NOTES
  6
Continuous
 62
     7
370
    30
100
AcDbPolyline
 90
        9
 70
   128
 43
0.0
 10
34.4225
 20
8.257896
 10
34.4725
 20
8.251344
 10
34.562635
 20
8.238375
 10
34.693833
 20
8.220729
 10
34.819448
 20
8.212885
 10
34.950635
 20
8.220677
 10
35.07625
 20
8.237479
 10
35.1725
 20
8.251396
 10
35.2225
 20
8.257708
  0
LWPOLYLINE
  5
1EC
330
424
100
AcDbEntity
  8
NOTES
  6
Continuous
 62
     7
370
    30
100
AcDbPolyline
 90
        9
 70
   128
 43
0.0
 10
34.4225
 20
8.254896
 10
34.4725
 20
8.248344
 10
34.562635
 20
8.235375
 10
34.693833
 20
8.217729
 10
34.819448
 20
8.209885
 10
34.950635
 20
8.217677
 10
35.07625
 20
8.234479
 10
35.1725
 20
8.248396
 10
35.2225
 20
8.254708
  0
LWPOLYLINE
  5
1ED
330
424
100
AcDbEntity
  8
NOTES
  6
Continuous
 62
     7
370
    30
100
AcDbPolyline
 90
        9
 70
   128
 43
0.0
 10
34.4225
 20
8.251896
 10
34.4725
 20
8.245344
 10
34.562635
 20
8.232375
 10
34.693833
 20
8.214729
 10
34.819448
 20
8.206885
 10
34.950635
 20
8.214677
 10
35.07625
 20
8.231479
 10
35.1725
 20
8.245396
 10
35.2225
 20
8.251708
  0
LWPOLYLINE
  5
1EE
330
424
100
AcDbEntity
  8
NOTES
  6
Continuous
 62
     7
370
    30
100
AcDbPolyline
 90
        9
 70
   128
 43
0.0
 10
34.4225
 20
8.248896
 10
34.4725
 20
8.242344
 10
34.562635
 20
8.229375
 10
34.693833
 20
8.211729
 10
34.819448
 20
8.203885
 10
34.950635
 20
8.211677
 10
35.07625
 20
8.228479
 10
35.1725
 20
8.242396
 10
35.2225
 20
8.248708
  0
LWPOLYLINE
  5
1EF
330
424
100
AcDbEntity
  8
NOTES
  6
Continuous
 62
     7
370
    30
100
AcDbPolyline
 90
        9
 70
   128
 43
0.0
 10
34.4225
 20
8.245896
 10
34.4725
 20
8.239344
 10
34.562635
 20
8.226375
 10
34.693833
 20
8.208729
 10
34.819448
 20
8.200885
 10
34.950635
 20
8.208677
 10
35.07625
 20
8.225479
 10
35.1725
 20
8.239396
 10
35.2225
 20
8.245708
  0
LINE
  5
1F0
330
424
100
AcDbEntity
  8
NOTES
  6
Continuous
 62
     7
370
    30
100
AcDbLine
 10
39.6225
 20
7.084656
 30
0.0
 11
39.2225
 21
7.344656
 31
0.0
  0
LINE
  5
1F1
330
424
100
AcDbEntity
  8
NOTES
  6
Continuous
 62
     7
370
    30
100
AcDbLine
 10
39.6225
 20
7.084656
 30
0.0
 11
40.0225
 21
7.344656
 31
0.0
  0
LINE
  5
1F2
330
424
100
AcDbEntity
  8
NOTES
  6
Continuous
 62
     7
370
    30
100
AcDbLine
 10
39.9625
 20
7.389656
 30
0.0
 11
39.342333
 21
7.854781
 31
0.0
  0
LINE
  5
1F3
330
424
100
AcDbEntity
  8
NOTES
  6
Continuous
 62
     7
370
    30
100
AcDbLine
 10
39.2825
 20
7.389656
 30
0.0
 11
39.902667
 21
7.854781
 31
0.0
  0
LINE
  5
1F4
330
424
100
AcDbEntity
  8
NOTES
  6
Continuous
 62
     7
370
    30
100
AcDbLine
 10
39.917812
 20
7.348167
 30
0.0
 11
39.2825
 21
7.824656
 31
0.0
  0
LINE
  5
1F5
330
424
100
AcDbEntity
  8
NOTES
  6
Continuous
 62
     7
370
    30
100
AcDbLine
 10
39.327188
 20
7.348167
 30
0.0
 11
39.9625
 21
7.824656
 31
0.0
  0
LINE
  5
1F6
330
424
100
AcDbEntity
  8
NOTES
  6
Continuous
 62
     7
370
    30
100
AcDbLine
 10
39.6225
 20
7.156219
 30
0.0
 11
39.917812
 21
7.348167
 31
0.0
  0
LINE
  5
1F7
330
424
100
AcDbEntity
  8
NOTES
  6
Continuous
 62
     7
370
    30
100
AcDbLine
 10
39.6225
 20
7.156219
 30
0.0
 11
39.327188
 21
7.348167
 31
0.0
  0
LINE
  5
1F8
330
424
100
AcDbEntity
  8
NOTES
  6
Continuous
 62
     7
370
    30
100
AcDbLine
 10
39.2825
 20
8.236594
 30
0.0
 11
39.2825
 21
7.305656
 31
0.0
  0
LINE
  5
1F9
330
424
100
AcDbEntity
  8
NOTES
  6
Continuous
 62
     7
370
    30
100
AcDbLine
 10
39.9625
 20
8.236583
 30
0.0
 11
39.9625
 21
7.305656
 31
0.0
  0
LINE
  5
1FA
330
424
100
AcDbEntity
  8
NOTES
  6
Continuous
 62
     7
370
    30
100
AcDbLine
 10
39.2825
 20
7.891729
 30
0.0
 11
39.9625
 21
8.236583
 31
0.0
  0
LINE
  5
1FB
330
424
100
AcDbEntity
  8
NOTES
  6
Continuous
 62
     7
370
    30
100
AcDbLine
 10
39.2825
 20
8.236594
 30
0.0
 11
39.9625
 21
7.891719
 31
0.0
  0
LINE
  5
1FC
330
424
100
AcDbEntity
  8
NOTES
  6
Continuous
 62
     7
370
    30
100
AcDbLine
 10
39.342333
 20
7.854781
 30
0.0
 11
39.9625
 21
8.169302
 31
0.0
  0
LINE
  5
1FD
330
424
100
AcDbEntity
  8
NOTES
  6
Continuous
 62
     7
370
    30
100
AcDbLine
 10
39.2825
 20
8.169302
 30
0.0
 11
39.902667
 21
7.854781
 31
0.0
  0
LWPOLYLINE
  5
1FE
330
424
100
AcDbEntity
  8
NOTES
  6
Continuous
 62
     7
370
    30
100
AcDbPolyline
 90
        9
 70
   128
 43
0.0
 10
39.2225
 20
8.284896
 10
39.2725
 20
8.278344
 10
39.362635
 20
8.265375
 10
39.493833
 20
8.247729
 10
39.619448
 20
8.239885
 10
39.750635
 20
8.247677
 10
39.87625
 20
8.264479
 10
39.9725
 20
8.278396
 10
40.0225
 20
8.284708
  0
LWPOLYLINE
  5
1FF
330
424
100
AcDbEntity
  8
NOTES
  6
Continuous
 62
     7
370
    30
100
AcDbPolyline
 90
        9
 70
   128
 43
0.0
 10
39.2225
 20
8.244604
 10
39.267063
 20
8.23876
 10
39.357125
 20
8.225802
 10
39.489917
 20
8.207948
 10
39.619385
 20
8.199865
 10
39.754469
 20
8.207885
 10
39.88176
 20
8.224906
 10
39.977865
 20
8.238802
 10
40.0225
 20
8.244448
  0
LINE
  5
200
330
424
100
AcDbEntity
  8
NOTES
  6
Continuous
 62
     7
370
    30
100
AcDbLine
 10
39.2795
 20
8.236969
 30
0.0
 11
39.2795
 21
7.307604
 31
0.0
  0
LINE
  5
201
330
424
100
AcDbEntity
  8
NOTES
  6
Continuous
 62
     7
370
    30
100
AcDbLine
 10
39.2765
 20
8.237406
 30
0.0
 11
39.2765
 21
7.309552
 31
0.0
  0
LINE
  5
202
330
424
100
AcDbEntity
  8
NOTES
  6
Continuous
 62
     7
370
    30
100
AcDbLine
 10
39.2735
 20
8.237833
 30
0.0
 11
39.2735
 21
7.31151
 31
0.0
  0
LINE
  5
203
330
424
100
AcDbEntity
  8
NOTES
  6
Continuous
 62
     7
370
    30
100
AcDbLine
 10
39.2705
 20
8.238271
 30
0.0
 11
39.2705
 21
7.313458
 31
0.0
  0
LINE
  5
204
330
424
100
AcDbEntity
  8
NOTES
  6
Continuous
 62
     7
370
    30
100
AcDbLine
 10
39.2675
 20
8.238698
 30
0.0
 11
39.2675
 21
7.315406
 31
0.0
  0
LINE
  5
205
330
424
100
AcDbEntity
  8
NOTES
  6
Continuous
 62
     7
370
    30
100
AcDbLine
 10
39.2645
 20
8.239094
 30
0.0
 11
39.2645
 21
7.317354
 31
0.0
  0
LINE
  5
206
330
424
100
AcDbEntity
  8
NOTES
  6
Continuous
 62
     7
370
    30
100
AcDbLine
 10
39.2615
 20
8.23949
 30
0.0
 11
39.2615
 21
7.319302
 31
0.0
  0
LINE
  5
207
330
424
100
AcDbEntity
  8
NOTES
  6
Continuous
 62
     7
370
    30
100
AcDbLine
 10
39.2585
 20
8.239885
 30
0.0
 11
39.2585
 21
7.32126
 31
0.0
  0
LINE
  5
208
330
424
100
AcDbEntity
  8
NOTES
  6
Continuous
 62
     7
370
    30
100
AcDbLine
 10
39.2555
 20
8.240281
 30
0.0
 11
39.2555
 21
7.323208
 31
0.0
  0
LINE
  5
209
330
424
100
AcDbEntity
  8
NOTES
  6
Continuous
 62
     7
370
    30
100
AcDbLine
 10
39.2525
 20
8.240667
 30
0.0
 11
39.2525
 21
7.325156
 31
0.0
  0
LINE
  5
20A
330
424
100
AcDbEntity
  8
NOTES
  6
Continuous
 62
     7
370
    30
100
AcDbLine
 10
39.2495
 20
8.241062
 30
0.0
 11
39.2495
 21
7.327104
 31
0.0
  0
LINE
  5
20B
330
424
100
AcDbEntity
  8
NOTES
  6
Continuous
 62
     7
370
    30
100
AcDbLine
 10
39.2465
 20
8.241458
 30
0.0
 11
39.2465
 21
7.329052
 31
0.0
  0
LINE
  5
20C
330
424
100
AcDbEntity
  8
NOTES
  6
Continuous
 62
     7
370
    30
100
AcDbLine
 10
39.2435
 20
8.241854
 30
0.0
 11
39.2435
 21
7.33101
 31
0.0
  0
LINE
  5
20D
330
424
100
AcDbEntity
  8
NOTES
  6
Continuous
 62
     7
370
    30
100
AcDbLine
 10
39.2405
 20
8.24224
 30
0.0
 11
39.2405
 21
7.332958
 31
0.0
  0
LINE
  5
20E
330
424
100
AcDbEntity
  8
NOTES
  6
Continuous
 62
     7
370
    30
100
AcDbLine
 10
39.2375
 20
8.242635
 30
0.0
 11
39.2375
 21
7.334906
 31
0.0
  0
LINE
  5
20F
330
424
100
AcDbEntity
  8
NOTES
  6
Continuous
 62
     7
370
    30
100
AcDbLine
 10
39.2345
 20
8.243031
 30
0.0
 11
39.2345
 21
7.336854
 31
0.0
  0
LINE
  5
210
330
424
100
AcDbEntity
  8
NOTES
  6
Continuous
 62
     7
370
    30
100
AcDbLine
 10
39.2315
 20
8.243427
 30
0.0
 11
39.2315
 21
7.338802
 31
0.0
  0
LINE
  5
211
330
424
100
AcDbEntity
  8
NOTES
  6
Continuous
 62
     7
370
    30
100
AcDbLine
 10
39.2285
 20
8.243812
 30
0.0
 11
39.2285
 21
7.34076
 31
0.0
  0
LINE
  5
212
330
424
100
AcDbEntity
  8
NOTES
  6
Continuous
 62
     7
370
    30
100
AcDbLine
 10
39.2255
 20
8.244208
 30
0.0
 11
39.2255
 21
7.342708
 31
0.0
  0
LINE
  5
213
330
424
100
AcDbEntity
  8
NOTES
  6
Continuous
 62
     7
370
    30
100
AcDbLine
 10
39.9655
 20
8.236583
 30
0.0
 11
39.9655
 21
7.307604
 31
0.0
  0
LINE
  5
214
330
424
100
AcDbEntity
  8
NOTES
  6
Continuous
 62
     7
370
    30
100
AcDbLine
 10
39.9685
 20
8.237448
 30
0.0
 11
39.9685
 21
7.309552
 31
0.0
  0
LINE
  5
215
330
424
100
AcDbEntity
  8
NOTES
  6
Continuous
 62
     7
370
    30
100
AcDbLine
 10
39.9715
 20
8.237885
 30
0.0
 11
39.9715
 21
7.31151
 31
0.0
  0
LINE
  5
216
330
424
100
AcDbEntity
  8
NOTES
  6
Continuous
 62
     7
370
    30
100
AcDbLine
 10
39.9745
 20
8.238312
 30
0.0
 11
39.9745
 21
7.313458
 31
0.0
  0
LINE
  5
217
330
424
100
AcDbEntity
  8
NOTES
  6
Continuous
 62
     7
370
    30
100
AcDbLine
 10
39.9775
 20
8.23876
 30
0.0
 11
39.9775
 21
7.315406
 31
0.0
  0
LINE
  5
218
330
424
100
AcDbEntity
  8
NOTES
  6
Continuous
 62
     7
370
    30
100
AcDbLine
 10
39.9805
 20
8.239135
 30
0.0
 11
39.9805
 21
7.317354
 31
0.0
  0
LINE
  5
219
330
424
100
AcDbEntity
  8
NOTES
  6
Continuous
 62
     7
370
    30
100
AcDbLine
 10
39.9835
 20
8.23951
 30
0.0
 11
39.9835
 21
7.319302
 31
0.0
  0
LINE
  5
21A
330
424
100
AcDbEntity
  8
NOTES
  6
Continuous
 62
     7
370
    30
100
AcDbLine
 10
39.9865
 20
8.239896
 30
0.0
 11
39.9865
 21
7.32126
 31
0.0
  0
LINE
  5
21B
330
424
100
AcDbEntity
  8
NOTES
  6
Continuous
 62
     7
370
    30
100
AcDbLine
 10
39.9895
 20
8.240271
 30
0.0
 11
39.9895
 21
7.323208
 31
0.0
  0
LINE
  5
21C
330
424
100
AcDbEntity
  8
NOTES
  6
Continuous
 62
     7
370
    30
100
AcDbLine
 10
39.9925
 20
8.240656
 30
0.0
 11
39.9925
 21
7.325156
 31
0.0
  0
LINE
  5
21D
330
424
100
AcDbEntity
  8
NOTES
  6
Continuous
 62
     7
370
    30
100
AcDbLine
 10
39.9955
 20
8.241031
 30
0.0
 11
39.9955
 21
7.327104
 31
0.0
  0
LINE
  5
21E
330
424
100
AcDbEntity
  8
NOTES
  6
Continuous
 62
     7
370
    30
100
AcDbLine
 10
39.9985
 20
8.241417
 30
0.0
 11
39.9985
 21
7.329052
 31
0.0
  0
LINE
  5
21F
330
424
100
AcDbEntity
  8
NOTES
  6
Continuous
 62
     7
370
    30
100
AcDbLine
 10
40.0015
 20
8.241792
 30
0.0
 11
40.0015
 21
7.33101
 31
0.0
  0
LINE
  5
220
330
424
100
AcDbEntity
  8
NOTES
  6
Continuous
 62
     7
370
    30
100
AcDbLine
 10
40.0045
 20
8.242167
 30
0.0
 11
40.0045
 21
7.332958
 31
0.0
  0
LINE
  5
221
330
424
100
AcDbEntity
  8
NOTES
  6
Continuous
 62
     7
370
    30
100
AcDbLine
 10
40.0075
 20
8.242552
 30
0.0
 11
40.0075
 21
7.334906
 31
0.0
  0
LINE
  5
222
330
424
100
AcDbEntity
  8
NOTES
  6
Continuous
 62
     7
370
    30
100
AcDbLine
 10
40.0105
 20
8.242927
 30
0.0
 11
40.0105
 21
7.336854
 31
0.0
  0
LINE
  5
223
330
424
100
AcDbEntity
  8
NOTES
  6
Continuous
 62
     7
370
    30
100
AcDbLine
 10
40.0135
 20
8.243313
 30
0.0
 11
40.0135
 21
7.338802
 31
0.0
  0
LINE
  5
224
330
424
100
AcDbEntity
  8
NOTES
  6
Continuous
 62
     7
370
    30
100
AcDbLine
 10
40.0165
 20
8.243688
 30
0.0
 11
40.0165
 21
7.34076
 31
0.0
  0
LINE
  5
225
330
424
100
AcDbEntity
  8
NOTES
  6
Continuous
 62
     7
370
    30
100
AcDbLine
 10
40.0195
 20
8.244073
 30
0.0
 11
40.0195
 21
7.342708
 31
0.0
  0
LINE
  5
226
330
424
100
AcDbEntity
  8
NOTES
  6
Continuous
 62
     7
370
    30
100
AcDbLine
 10
39.620865
 20
7.087167
 30
0.0
 11
39.9625
 21
7.309229
 31
0.0
  0
LINE
  5
227
330
424
100
AcDbEntity
  8
NOTES
  6
Continuous
 62
     7
370
    30
100
AcDbLine
 10
39.619229
 20
7.089677
 30
0.0
 11
39.9625
 21
7.312802
 31
0.0
  0
LINE
  5
228
330
424
100
AcDbEntity
  8
NOTES
  6
Continuous
 62
     7
370
    30
100
AcDbLine
 10
39.617594
 20
7.092198
 30
0.0
 11
39.9625
 21
7.316385
 31
0.0
  0
LINE
  5
229
330
424
100
AcDbEntity
  8
NOTES
  6
Continuous
 62
     7
370
    30
100
AcDbLine
 10
39.615958
 20
7.094708
 30
0.0
 11
39.9625
 21
7.319958
 31
0.0
  0
LINE
  5
22A
330
424
100
AcDbEntity
  8
NOTES
  6
Continuous
 62
     7
370
    30
100
AcDbLine
 10
39.614323
 20
7.097229
 30
0.0
 11
39.9625
 21
7.323542
 31
0.0
  0
LINE
  5
22B
330
424
100
AcDbEntity
  8
NOTES
  6
Continuous
 62
     7
370
    30
100
AcDbLine
 10
39.612687
 20
7.09974
 30
0.0
 11
39.9625
 21
7.327115
 31
0.0
  0
LINE
  5
22C
330
424
100
AcDbEntity
  8
NOTES
  6
Continuous
 62
     7
370
    30
100
AcDbLine
 10
39.611052
 20
7.10226
 30
0.0
 11
39.9625
 21
7.330698
 31
0.0
  0
LINE
  5
22D
330
424
100
AcDbEntity
  8
NOTES
  6
Continuous
 62
     7
370
    30
100
AcDbLine
 10
39.609417
 20
7.104771
 30
0.0
 11
39.9625
 21
7.334271
 31
0.0
  0
LINE
  5
22E
330
424
100
AcDbEntity
  8
NOTES
  6
Continuous
 62
     7
370
    30
100
AcDbLine
 10
39.607781
 20
7.107292
 30
0.0
 11
39.9625
 21
7.337854
 31
0.0
  0
LINE
  5
22F
330
424
100
AcDbEntity
  8
NOTES
  6
Continuous
 62
     7
370
    30
100
AcDbLine
 10
39.606146
 20
7.109802
 30
0.0
 11
39.9625
 21
7.341437
 31
0.0
  0
LINE
  5
230
330
424
100
AcDbEntity
  8
NOTES
  6
Continuous
 62
     7
370
    30
100
AcDbLine
 10
39.60451
 20
7.112323
 30
0.0
 11
39.9625
 21
7.345021
 31
0.0
  0
LINE
  5
231
330
424
100
AcDbEntity
  8
NOTES
  6
Continuous
 62
     7
370
    30
100
AcDbLine
 10
39.602875
 20
7.114833
 30
0.0
 11
39.9625
 21
7.348594
 31
0.0
  0
LINE
  5
232
330
424
100
AcDbEntity
  8
NOTES
  6
Continuous
 62
     7
370
    30
100
AcDbLine
 10
39.60124
 20
7.117354
 30
0.0
 11
39.9625
 21
7.352177
 31
0.0
  0
LINE
  5
233
330
424
100
AcDbEntity
  8
NOTES
  6
Continuous
 62
     7
370
    30
100
AcDbLine
 10
39.599604
 20
7.119865
 30
0.0
 11
39.9625
 21
7.35575
 31
0.0
  0
LINE
  5
234
330
424
100
AcDbEntity
  8
NOTES
  6
Continuous
 62
     7
370
    30
100
AcDbLine
 10
39.597969
 20
7.122385
 30
0.0
 11
39.9625
 21
7.359333
 31
0.0
  0
LINE
  5
235
330
424
100
AcDbEntity
  8
NOTES
  6
Continuous
 62
     7
370
    30
100
AcDbLine
 10
39.596333
 20
7.124896
 30
0.0
 11
39.9625
 21
7.362906
 31
0.0
  0
LINE
  5
236
330
424
100
AcDbEntity
  8
NOTES
  6
Continuous
 62
     7
370
    30
100
AcDbLine
 10
39.594698
 20
7.127417
 30
0.0
 11
39.9625
 21
7.36649
 31
0.0
  0
LINE
  5
237
330
424
100
AcDbEntity
  8
NOTES
  6
Continuous
 62
     7
370
    30
100
AcDbLine
 10
39.593063
 20
7.129927
 30
0.0
 11
39.9625
 21
7.370062
 31
0.0
  0
LINE
  5
238
330
424
100
AcDbEntity
  8
NOTES
  6
Continuous
 62
     7
370
    30
100
AcDbLine
 10
39.591427
 20
7.132437
 30
0.0
 11
39.9625
 21
7.373635
 31
0.0
  0
LINE
  5
239
330
424
100
AcDbEntity
  8
NOTES
  6
Continuous
 62
     7
370
    30
100
AcDbLine
 10
39.624125
 20
7.087167
 30
0.0
 11
39.2825
 21
7.309219
 31
0.0
  0
LINE
  5
23A
330
424
100
AcDbEntity
  8
NOTES
  6
Continuous
 62
     7
370
    30
100
AcDbLine
 10
39.62576
 20
7.089677
 30
0.0
 11
39.2825
 21
7.312792
 31
0.0
  0
LINE
  5
23B
330
424
100
AcDbEntity
  8
NOTES
  6
Continuous
 62
     7
370
    30
100
AcDbLine
 10
39.627396
 20
7.092198
 30
0.0
 11
39.2825
 21
7.316385
 31
0.0
  0
LINE
  5
23C
330
424
100
AcDbEntity
  8
NOTES
  6
Continuous
 62
     7
370
    30
100
AcDbLine
 10
39.629031
 20
7.094708
 30
0.0
 11
39.283604
 21
7.319229
 31
0.0
  0
LINE
  5
23D
330
424
100
AcDbEntity
  8
NOTES
  6
Continuous
 62
     7
370
    30
100
AcDbLine
 10
39.630667
 20
7.097229
 30
0.0
 11
39.286167
 21
7.321156
 31
0.0
  0
LINE
  5
23E
330
424
100
AcDbEntity
  8
NOTES
  6
Continuous
 62
     7
370
    30
100
AcDbLine
 10
39.632302
 20
7.09974
 30
0.0
 11
39.288719
 21
7.323062
 31
0.0
  0
LINE
  5
23F
330
424
100
AcDbEntity
  8
NOTES
  6
Continuous
 62
     7
370
    30
100
AcDbLine
 10
39.633938
 20
7.10226
 30
0.0
 11
39.291281
 21
7.32499
 31
0.0
  0
LINE
  5
240
330
424
100
AcDbEntity
  8
NOTES
  6
Continuous
 62
     7
370
    30
100
AcDbLine
 10
39.635573
 20
7.104771
 30
0.0
 11
39.293833
 21
7.326906
 31
0.0
  0
LINE
  5
241
330
424
100
AcDbEntity
  8
NOTES
  6
Continuous
 62
     7
370
    30
100
AcDbLine
 10
39.637208
 20
7.107292
 30
0.0
 11
39.296396
 21
7.328823
 31
0.0
  0
LINE
  5
242
330
424
100
AcDbEntity
  8
NOTES
  6
Continuous
 62
     7
370
    30
100
AcDbLine
 10
39.638844
 20
7.109802
 30
0.0
 11
39.298948
 21
7.33074
 31
0.0
  0
LINE
  5
243
330
424
100
AcDbEntity
  8
NOTES
  6
Continuous
 62
     7
370
    30
100
AcDbLine
 10
39.640479
 20
7.112323
 30
0.0
 11
39.30151
 21
7.332656
 31
0.0
  0
LINE
  5
244
330
424
100
AcDbEntity
  8
NOTES
  6
Continuous
 62
     7
370
    30
100
AcDbLine
 10
39.642115
 20
7.114833
 30
0.0
 11
39.304063
 21
7.334573
 31
0.0
  0
LINE
  5
245
330
424
100
AcDbEntity
  8
NOTES
  6
Continuous
 62
     7
370
    30
100
AcDbLine
 10
39.64375
 20
7.117354
 30
0.0
 11
39.306615
 21
7.33649
 31
0.0
  0
LINE
  5
246
330
424
100
AcDbEntity
  8
NOTES
  6
Continuous
 62
     7
370
    30
100
AcDbLine
 10
39.645385
 20
7.119865
 30
0.0
 11
39.309167
 21
7.338406
 31
0.0
  0
LINE
  5
247
330
424
100
AcDbEntity
  8
NOTES
  6
Continuous
 62
     7
370
    30
100
AcDbLine
 10
39.647021
 20
7.122385
 30
0.0
 11
39.311729
 21
7.340323
 31
0.0
  0
LINE
  5
248
330
424
100
AcDbEntity
  8
NOTES
  6
Continuous
 62
     7
370
    30
100
AcDbLine
 10
39.648656
 20
7.124896
 30
0.0
 11
39.314281
 21
7.34224
 31
0.0
  0
LINE
  5
249
330
424
100
AcDbEntity
  8
NOTES
  6
Continuous
 62
     7
370
    30
100
AcDbLine
 10
39.650292
 20
7.127417
 30
0.0
 11
39.316844
 21
7.344156
 31
0.0
  0
LINE
  5
24A
330
424
100
AcDbEntity
  8
NOTES
  6
Continuous
 62
     7
370
    30
100
AcDbLine
 10
39.651927
 20
7.129927
 30
0.0
 11
39.319396
 21
7.346073
 31
0.0
  0
LINE
  5
24B
330
424
100
AcDbEntity
  8
NOTES
  6
Continuous
 62
     7
370
    30
100
AcDbLine
 10
39.653562
 20
7.132437
 30
0.0
 11
39.321948
 21
7.34799
 31
0.0
  0
LINE
  5
24C
330
424
100
AcDbEntity
  8
NOTES
  6
Continuous
 62
     7
370
    30
100
AcDbLine
 10
39.2825
 20
7.318406
 30
0.0
 11
39.96201
 21
7.828042
 31
0.0
  0
LINE
  5
24D
330
424
100
AcDbEntity
  8
NOTES
  6
Continuous
 62
     7
370
    30
100
AcDbLine
 10
39.2825
 20
7.322146
 30
0.0
 11
39.959031
 21
7.829552
 31
0.0
  0
LINE
  5
24E
330
424
100
AcDbEntity
  8
NOTES
  6
Continuous
 62
     7
370
    30
100
AcDbLine
 10
39.2825
 20
7.325906
 30
0.0
 11
39.956042
 21
7.831062
 31
0.0
  0
LINE
  5
24F
330
424
100
AcDbEntity
  8
NOTES
  6
Continuous
 62
     7
370
    30
100
AcDbLine
 10
39.2825
 20
7.329646
 30
0.0
 11
39.953063
 21
7.832573
 31
0.0
  0
LINE
  5
250
330
424
100
AcDbEntity
  8
NOTES
  6
Continuous
 62
     7
370
    30
100
AcDbLine
 10
39.2825
 20
7.333396
 30
0.0
 11
39.950083
 21
7.834094
 31
0.0
  0
LINE
  5
251
330
424
100
AcDbEntity
  8
NOTES
  6
Continuous
 62
     7
370
    30
100
AcDbLine
 10
39.2825
 20
7.337146
 30
0.0
 11
39.947094
 21
7.835604
 31
0.0
  0
LINE
  5
252
330
424
100
AcDbEntity
  8
NOTES
  6
Continuous
 62
     7
370
    30
100
AcDbLine
 10
39.2825
 20
7.340896
 30
0.0
 11
39.944115
 21
7.837115
 31
0.0
  0
LINE
  5
253
330
424
100
AcDbEntity
  8
NOTES
  6
Continuous
 62
     7
370
    30
100
AcDbLine
 10
39.2825
 20
7.344656
 30
0.0
 11
39.941125
 21
7.838635
 31
0.0
  0
LINE
  5
254
330
424
100
AcDbEntity
  8
NOTES
  6
Continuous
 62
     7
370
    30
100
AcDbLine
 10
39.2825
 20
7.348396
 30
0.0
 11
39.938146
 21
7.840146
 31
0.0
  0
LINE
  5
255
330
424
100
AcDbEntity
  8
NOTES
  6
Continuous
 62
     7
370
    30
100
AcDbLine
 10
39.2825
 20
7.352146
 30
0.0
 11
39.935167
 21
7.841656
 31
0.0
  0
LINE
  5
256
330
424
100
AcDbEntity
  8
NOTES
  6
Continuous
 62
     7
370
    30
100
AcDbLine
 10
39.2825
 20
7.355896
 30
0.0
 11
39.932187
 21
7.843167
 31
0.0
  0
LINE
  5
257
330
424
100
AcDbEntity
  8
NOTES
  6
Continuous
 62
     7
370
    30
100
AcDbLine
 10
39.2825
 20
7.359646
 30
0.0
 11
39.929208
 21
7.844677
 31
0.0
  0
LINE
  5
258
330
424
100
AcDbEntity
  8
NOTES
  6
Continuous
 62
     7
370
    30
100
AcDbLine
 10
39.2825
 20
7.363406
 30
0.0
 11
39.926219
 21
7.846198
 31
0.0
  0
LINE
  5
259
330
424
100
AcDbEntity
  8
NOTES
  6
Continuous
 62
     7
370
    30
100
AcDbLine
 10
39.2825
 20
7.367146
 30
0.0
 11
39.923229
 21
7.847708
 31
0.0
  0
LINE
  5
25A
330
424
100
AcDbEntity
  8
NOTES
  6
Continuous
 62
     7
370
    30
100
AcDbLine
 10
39.2825
 20
7.370896
 30
0.0
 11
39.92025
 21
7.849219
 31
0.0
  0
LINE
  5
25B
330
424
100
AcDbEntity
  8
NOTES
  6
Continuous
 62
     7
370
    30
100
AcDbLine
 10
39.2825
 20
7.374646
 30
0.0
 11
39.917271
 21
7.850729
 31
0.0
  0
LINE
  5
25C
330
424
100
AcDbEntity
  8
NOTES
  6
Continuous
 62
     7
370
    30
100
AcDbLine
 10
39.2825
 20
7.378396
 30
0.0
 11
39.914292
 21
7.85224
 31
0.0
  0
LINE
  5
25D
330
424
100
AcDbEntity
  8
NOTES
  6
Continuous
 62
     7
370
    30
100
AcDbLine
 10
39.2825
 20
7.382156
 30
0.0
 11
39.911302
 21
7.85376
 31
0.0
  0
LINE
  5
25E
330
424
100
AcDbEntity
  8
NOTES
  6
Continuous
 62
     7
370
    30
100
AcDbLine
 10
39.2825
 20
7.385896
 30
0.0
 11
39.908323
 21
7.855271
 31
0.0
  0
LINE
  5
25F
330
424
100
AcDbEntity
  8
NOTES
  6
Continuous
 62
     7
370
    30
100
AcDbLine
 10
39.923042
 20
7.34799
 30
0.0
 11
39.282969
 21
7.828052
 31
0.0
  0
LINE
  5
260
330
424
100
AcDbEntity
  8
NOTES
  6
Continuous
 62
     7
370
    30
100
AcDbLine
 10
39.925719
 20
7.349729
 30
0.0
 11
39.285948
 21
7.829562
 31
0.0
  0
LINE
  5
261
330
424
100
AcDbEntity
  8
NOTES
  6
Continuous
 62
     7
370
    30
100
AcDbLine
 10
39.928396
 20
7.351469
 30
0.0
 11
39.288937
 21
7.831073
 31
0.0
  0
LINE
  5
262
330
424
100
AcDbEntity
  8
NOTES
  6
Continuous
 62
     7
370
    30
100
AcDbLine
 10
39.931073
 20
7.353208
 30
0.0
 11
39.291917
 21
7.832583
 31
0.0
  0
LINE
  5
263
330
424
100
AcDbEntity
  8
NOTES
  6
Continuous
 62
     7
370
    30
100
AcDbLine
 10
39.93375
 20
7.354948
 30
0.0
 11
39.294896
 21
7.834094
 31
0.0
  0
LINE
  5
264
330
424
100
AcDbEntity
  8
NOTES
  6
Continuous
 62
     7
370
    30
100
AcDbLine
 10
39.936427
 20
7.356687
 30
0.0
 11
39.297875
 21
7.835615
 31
0.0
  0
LINE
  5
265
330
424
100
AcDbEntity
  8
NOTES
  6
Continuous
 62
     7
370
    30
100
AcDbLine
 10
39.939104
 20
7.358427
 30
0.0
 11
39.300865
 21
7.837125
 31
0.0
  0
LINE
  5
266
330
424
100
AcDbEntity
  8
NOTES
  6
Continuous
 62
     7
370
    30
100
AcDbLine
 10
39.941792
 20
7.360177
 30
0.0
 11
39.303844
 21
7.838635
 31
0.0
  0
LINE
  5
267
330
424
100
AcDbEntity
  8
NOTES
  6
Continuous
 62
     7
370
    30
100
AcDbLine
 10
39.944469
 20
7.361917
 30
0.0
 11
39.306833
 21
7.840156
 31
0.0
  0
LINE
  5
268
330
424
100
AcDbEntity
  8
NOTES
  6
Continuous
 62
     7
370
    30
100
AcDbLine
 10
39.947146
 20
7.363656
 30
0.0
 11
39.309812
 21
7.841667
 31
0.0
  0
LINE
  5
269
330
424
100
AcDbEntity
  8
NOTES
  6
Continuous
 62
     7
370
    30
100
AcDbLine
 10
39.949823
 20
7.365396
 30
0.0
 11
39.312792
 21
7.843177
 31
0.0
  0
LINE
  5
26A
330
424
100
AcDbEntity
  8
NOTES
  6
Continuous
 62
     7
370
    30
100
AcDbLine
 10
39.9525
 20
7.367135
 30
0.0
 11
39.315771
 21
7.844688
 31
0.0
  0
LINE
  5
26B
330
424
100
AcDbEntity
  8
NOTES
  6
Continuous
 62
     7
370
    30
100
AcDbLine
 10
39.955188
 20
7.368885
 30
0.0
 11
39.31876
 21
7.846208
 31
0.0
  0
LINE
  5
26C
330
424
100
AcDbEntity
  8
NOTES
  6
Continuous
 62
     7
370
    30
100
AcDbLine
 10
39.957865
 20
7.370625
 30
0.0
 11
39.32174
 21
7.847719
 31
0.0
  0
LINE
  5
26D
330
424
100
AcDbEntity
  8
NOTES
  6
Continuous
 62
     7
370
    30
100
AcDbLine
 10
39.960542
 20
7.372365
 30
0.0
 11
39.324729
 21
7.849229
 31
0.0
  0
LINE
  5
26E
330
424
100
AcDbEntity
  8
NOTES
  6
Continuous
 62
     7
370
    30
100
AcDbLine
 10
39.9625
 20
7.374635
 30
0.0
 11
39.327708
 21
7.85074
 31
0.0
  0
LINE
  5
26F
330
424
100
AcDbEntity
  8
NOTES
  6
Continuous
 62
     7
370
    30
100
AcDbLine
 10
39.9625
 20
7.378385
 30
0.0
 11
39.330687
 21
7.85225
 31
0.0
  0
LINE
  5
270
330
424
100
AcDbEntity
  8
NOTES
  6
Continuous
 62
     7
370
    30
100
AcDbLine
 10
39.9625
 20
7.382146
 30
0.0
 11
39.333677
 21
7.853771
 31
0.0
  0
LINE
  5
271
330
424
100
AcDbEntity
  8
NOTES
  6
Continuous
 62
     7
370
    30
100
AcDbLine
 10
39.9625
 20
7.385896
 30
0.0
 11
39.336656
 21
7.855281
 31
0.0
  0
LINE
  5
272
330
424
100
AcDbEntity
  8
NOTES
  6
Continuous
 62
     7
370
    30
100
AcDbLine
 10
39.2825
 20
8.233229
 30
0.0
 11
39.9625
 21
7.888354
 31
0.0
  0
LINE
  5
273
330
424
100
AcDbEntity
  8
NOTES
  6
Continuous
 62
     7
370
    30
100
AcDbLine
 10
39.2825
 20
8.229865
 30
0.0
 11
39.9625
 21
7.88499
 31
0.0
  0
LINE
  5
274
330
424
100
AcDbEntity
  8
NOTES
  6
Continuous
 62
     7
370
    30
100
AcDbLine
 10
39.2825
 20
8.2265
 30
0.0
 11
39.9625
 21
7.881625
 31
0.0
  0
LINE
  5
275
330
424
100
AcDbEntity
  8
NOTES
  6
Continuous
 62
     7
370
    30
100
AcDbLine
 10
39.2825
 20
8.223125
 30
0.0
 11
39.9625
 21
7.87825
 31
0.0
  0
LINE
  5
276
330
424
100
AcDbEntity
  8
NOTES
  6
Continuous
 62
     7
370
    30
100
AcDbLine
 10
39.2825
 20
8.21976
 30
0.0
 11
39.9625
 21
7.874885
 31
0.0
  0
LINE
  5
277
330
424
100
AcDbEntity
  8
NOTES
  6
Continuous
 62
     7
370
    30
100
AcDbLine
 10
39.2825
 20
8.216396
 30
0.0
 11
39.9625
 21
7.871521
 31
0.0
  0
LINE
  5
278
330
424
100
AcDbEntity
  8
NOTES
  6
Continuous
 62
     7
370
    30
100
AcDbLine
 10
39.2825
 20
8.213042
 30
0.0
 11
39.9625
 21
7.868167
 31
0.0
  0
LINE
  5
279
330
424
100
AcDbEntity
  8
NOTES
  6
Continuous
 62
     7
370
    30
100
AcDbLine
 10
39.2825
 20
8.209677
 30
0.0
 11
39.9625
 21
7.864802
 31
0.0
  0
LINE
  5
27A
330
424
100
AcDbEntity
  8
NOTES
  6
Continuous
 62
     7
370
    30
100
AcDbLine
 10
39.2825
 20
8.206312
 30
0.0
 11
39.9625
 21
7.861438
 31
0.0
  0
LINE
  5
27B
330
424
100
AcDbEntity
  8
NOTES
  6
Continuous
 62
     7
370
    30
100
AcDbLine
 10
39.2825
 20
8.202948
 30
0.0
 11
39.9625
 21
7.858073
 31
0.0
  0
LINE
  5
27C
330
424
100
AcDbEntity
  8
NOTES
  6
Continuous
 62
     7
370
    30
100
AcDbLine
 10
39.2825
 20
8.199583
 30
0.0
 11
39.9625
 21
7.854708
 31
0.0
  0
LINE
  5
27D
330
424
100
AcDbEntity
  8
NOTES
  6
Continuous
 62
     7
370
    30
100
AcDbLine
 10
39.2825
 20
8.196219
 30
0.0
 11
39.9625
 21
7.851344
 31
0.0
  0
LINE
  5
27E
330
424
100
AcDbEntity
  8
NOTES
  6
Continuous
 62
     7
370
    30
100
AcDbLine
 10
39.2825
 20
8.192854
 30
0.0
 11
39.9625
 21
7.847979
 31
0.0
  0
LINE
  5
27F
330
424
100
AcDbEntity
  8
NOTES
  6
Continuous
 62
     7
370
    30
100
AcDbLine
 10
39.2825
 20
8.1895
 30
0.0
 11
39.9625
 21
7.844625
 31
0.0
  0
LINE
  5
280
330
424
100
AcDbEntity
  8
NOTES
  6
Continuous
 62
     7
370
    30
100
AcDbLine
 10
39.2825
 20
8.186125
 30
0.0
 11
39.9625
 21
7.84125
 31
0.0
  0
LINE
  5
281
330
424
100
AcDbEntity
  8
NOTES
  6
Continuous
 62
     7
370
    30
100
AcDbLine
 10
39.2825
 20
8.182771
 30
0.0
 11
39.9625
 21
7.837896
 31
0.0
  0
LINE
  5
282
330
424
100
AcDbEntity
  8
NOTES
  6
Continuous
 62
     7
370
    30
100
AcDbLine
 10
39.2825
 20
8.179406
 30
0.0
 11
39.9625
 21
7.834531
 31
0.0
  0
LINE
  5
283
330
424
100
AcDbEntity
  8
NOTES
  6
Continuous
 62
     7
370
    30
100
AcDbLine
 10
39.2825
 20
8.176042
 30
0.0
 11
39.9625
 21
7.831167
 31
0.0
  0
LINE
  5
284
330
424
100
AcDbEntity
  8
NOTES
  6
Continuous
 62
     7
370
    30
100
AcDbLine
 10
39.2825
 20
8.172667
 30
0.0
 11
39.9625
 21
7.827792
 31
0.0
  0
LINE
  5
285
330
424
100
AcDbEntity
  8
NOTES
  6
Continuous
 62
     7
370
    30
100
AcDbLine
 10
39.2825
 20
7.888365
 30
0.0
 11
39.9625
 21
8.233219
 31
0.0
  0
LINE
  5
286
330
424
100
AcDbEntity
  8
NOTES
  6
Continuous
 62
     7
370
    30
100
AcDbLine
 10
39.2825
 20
7.885
 30
0.0
 11
39.9625
 21
8.229854
 31
0.0
  0
LINE
  5
287
330
424
100
AcDbEntity
  8
NOTES
  6
Continuous
 62
     7
370
    30
100
AcDbLine
 10
39.2825
 20
7.881635
 30
0.0
 11
39.9625
 21
8.22649
 31
0.0
  0
LINE
  5
288
330
424
100
AcDbEntity
  8
NOTES
  6
Continuous
 62
     7
370
    30
100
AcDbLine
 10
39.2825
 20
7.878271
 30
0.0
 11
39.9625
 21
8.223125
 31
0.0
  0
LINE
  5
289
330
424
100
AcDbEntity
  8
NOTES
  6
Continuous
 62
     7
370
    30
100
AcDbLine
 10
39.2825
 20
7.874906
 30
0.0
 11
39.9625
 21
8.21976
 31
0.0
  0
LINE
  5
28A
330
424
100
AcDbEntity
  8
NOTES
  6
Continuous
 62
     7
370
    30
100
AcDbLine
 10
39.2825
 20
7.871542
 30
0.0
 11
39.9625
 21
8.216396
 31
0.0
  0
LINE
  5
28B
330
424
100
AcDbEntity
  8
NOTES
  6
Continuous
 62
     7
370
    30
100
AcDbLine
 10
39.2825
 20
7.868177
 30
0.0
 11
39.9625
 21
8.213031
 31
0.0
  0
LINE
  5
28C
330
424
100
AcDbEntity
  8
NOTES
  6
Continuous
 62
     7
370
    30
100
AcDbLine
 10
39.2825
 20
7.864823
 30
0.0
 11
39.9625
 21
8.209677
 31
0.0
  0
LINE
  5
28D
330
424
100
AcDbEntity
  8
NOTES
  6
Continuous
 62
     7
370
    30
100
AcDbLine
 10
39.2825
 20
7.861458
 30
0.0
 11
39.9625
 21
8.206312
 31
0.0
  0
LINE
  5
28E
330
424
100
AcDbEntity
  8
NOTES
  6
Continuous
 62
     7
370
    30
100
AcDbLine
 10
39.2825
 20
7.858094
 30
0.0
 11
39.9625
 21
8.202948
 31
0.0
  0
LINE
  5
28F
330
424
100
AcDbEntity
  8
NOTES
  6
Continuous
 62
     7
370
    30
100
AcDbLine
 10
39.2825
 20
7.854729
 30
0.0
 11
39.9625
 21
8.199583
 31
0.0
  0
LINE
  5
290
330
424
100
AcDbEntity
  8
NOTES
  6
Continuous
 62
     7
370
    30
100
AcDbLine
 10
39.2825
 20
7.851354
 30
0.0
 11
39.9625
 21
8.196208
 31
0.0
  0
LINE
  5
291
330
424
100
AcDbEntity
  8
NOTES
  6
Continuous
 62
     7
370
    30
100
AcDbLine
 10
39.2825
 20
7.84799
 30
0.0
 11
39.9625
 21
8.192844
 31
0.0
  0
LINE
  5
292
330
424
100
AcDbEntity
  8
NOTES
  6
Continuous
 62
     7
370
    30
100
AcDbLine
 10
39.2825
 20
7.844635
 30
0.0
 11
39.9625
 21
8.189479
 31
0.0
  0
LINE
  5
293
330
424
100
AcDbEntity
  8
NOTES
  6
Continuous
 62
     7
370
    30
100
AcDbLine
 10
39.2825
 20
7.841281
 30
0.0
 11
39.9625
 21
8.186135
 31
0.0
  0
LINE
  5
294
330
424
100
AcDbEntity
  8
NOTES
  6
Continuous
 62
     7
370
    30
100
AcDbLine
 10
39.2825
 20
7.837906
 30
0.0
 11
39.9625
 21
8.18276
 31
0.0
  0
LINE
  5
295
330
424
100
AcDbEntity
  8
NOTES
  6
Continuous
 62
     7
370
    30
100
AcDbLine
 10
39.2825
 20
7.834542
 30
0.0
 11
39.9625
 21
8.179396
 31
0.0
  0
LINE
  5
296
330
424
100
AcDbEntity
  8
NOTES
  6
Continuous
 62
     7
370
    30
100
AcDbLine
 10
39.2825
 20
7.831177
 30
0.0
 11
39.9625
 21
8.176031
 31
0.0
  0
LINE
  5
297
330
424
100
AcDbEntity
  8
NOTES
  6
Continuous
 62
     7
370
    30
100
AcDbLine
 10
39.2825
 20
7.827812
 30
0.0
 11
39.9625
 21
8.172667
 31
0.0
  0
LWPOLYLINE
  5
298
330
424
100
AcDbEntity
  8
NOTES
  6
Continuous
 62
     7
370
    30
100
AcDbPolyline
 90
        9
 70
   128
 43
0.0
 10
39.2225
 20
8.281896
 10
39.2725
 20
8.275344
 10
39.362635
 20
8.262375
 10
39.493833
 20
8.244729
 10
39.619448
 20
8.236885
 10
39.750635
 20
8.244677
 10
39.87625
 20
8.261479
 10
39.9725
 20
8.275396
 10
40.0225
 20
8.281708
  0
LWPOLYLINE
  5
299
330
424
100
AcDbEntity
  8
NOTES
  6
Continuous
 62
     7
370
    30
100
AcDbPolyline
 90
        9
 70
   128
 43
0.0
 10
39.2225
 20
8.278896
 10
39.2725
 20
8.272344
 10
39.362635
 20
8.259375
 10
39.493833
 20
8.241729
 10
39.619448
 20
8.233885
 10
39.750635
 20
8.241677
 10
39.87625
 20
8.258479
 10
39.9725
 20
8.272396
 10
40.0225
 20
8.278708
  0
LWPOLYLINE
  5
29A
330
424
100
AcDbEntity
  8
NOTES
  6
Continuous
 62
     7
370
    30
100
AcDbPolyline
 90
        9
 70
   128
 43
0.0
 10
39.2225
 20
8.275896
 10
39.2725
 20
8.269344
 10
39.362635
 20
8.256375
 10
39.493833
 20
8.238729
 10
39.619448
 20
8.230885
 10
39.750635
 20
8.238677
 10
39.87625
 20
8.255479
 10
39.9725
 20
8.269396
 10
40.0225
 20
8.275708
  0
LWPOLYLINE
  5
29B
330
424
100
AcDbEntity
  8
NOTES
  6
Continuous
 62
     7
370
    30
100
AcDbPolyline
 90
        9
 70
   128
 43
0.0
 10
39.2225
 20
8.272896
 10
39.2725
 20
8.266344
 10
39.362635
 20
8.253375
 10
39.493833
 20
8.235729
 10
39.619448
 20
8.227885
 10
39.750635
 20
8.235677
 10
39.87625
 20
8.252479
 10
39.9725
 20
8.266396
 10
40.0225
 20
8.272708
  0
LWPOLYLINE
  5
29C
330
424
100
AcDbEntity
  8
NOTES
  6
Continuous
 62
     7
370
    30
100
AcDbPolyline
 90
        9
 70
   128
 43
0.0
 10
39.2225
 20
8.269896
 10
39.2725
 20
8.263344
 10
39.362635
 20
8.250375
 10
39.493833
 20
8.232729
 10
39.619448
 20
8.224885
 10
39.750635
 20
8.232677
 10
39.87625
 20
8.249479
 10
39.9725
 20
8.263396
 10
40.0225
 20
8.269708
  0
LWPOLYLINE
  5
29D
330
424
100
AcDbEntity
  8
NOTES
  6
Continuous
 62
     7
370
    30
100
AcDbPolyline
 90
        9
 70
   128
 43
0.0
 10
39.2225
 20
8.266896
 10
39.2725
 20
8.260344
 10
39.362635
 20
8.247375
 10
39.493833
 20
8.229729
 10
39.619448
 20
8.221885
 10
39.750635
 20
8.229677
 10
39.87625
 20
8.246479
 10
39.9725
 20
8.260396
 10
40.0225
 20
8.266708
  0
LWPOLYLINE
  5
29E
330
424
100
AcDbEntity
  8
NOTES
  6
Continuous
 62
     7
370
    30
100
AcDbPolyline
 90
        9
 70
   128
 43
0.0
 10
39.2225
 20
8.263896
 10
39.2725
 20
8.257344
 10
39.362635
 20
8.244375
 10
39.493833
 20
8.226729
 10
39.619448
 20
8.218885
 10
39.750635
 20
8.226677
 10
39.87625
 20
8.243479
 10
39.9725
 20
8.257396
 10
40.0225
 20
8.263708
  0
LWPOLYLINE
  5
29F
330
424
100
AcDbEntity
  8
NOTES
  6
Continuous
 62
     7
370
    30
100
AcDbPolyline
 90
        9
 70
   128
 43
0.0
 10
39.2225
 20
8.260896
 10
39.2725
 20
8.254344
 10
39.362635
 20
8.241375
 10
39.493833
 20
8.223729
 10
39.619448
 20
8.215885
 10
39.750635
 20
8.223677
 10
39.87625
 20
8.240479
 10
39.9725
 20
8.254396
 10
40.0225
 20
8.260708
  0
LWPOLYLINE
  5
2A0
330
424
100
AcDbEntity
  8
NOTES
  6
Continuous
 62
     7
370
    30
100
AcDbPolyline
 90
        9
 70
   128
 43
0.0
 10
39.2225
 20
8.257896
 10
39.2725
 20
8.251344
 10
39.362635
 20
8.238375
 10
39.493833
 20
8.220729
 10
39.619448
 20
8.212885
 10
39.750635
 20
8.220677
 10
39.87625
 20
8.237479
 10
39.9725
 20
8.251396
 10
40.0225
 20
8.257708
  0
LWPOLYLINE
  5
2A1
330
424
100
AcDbEntity
  8
NOTES
  6
Continuous
 62
     7
370
    30
100
AcDbPolyline
 90
        9
 70
   128
 43
0.0
 10
39.2225
 20
8.254896
 10
39.2725
 20
8.248344
 10
39.362635
 20
8.235375
 10
39.493833
 20
8.217729
 10
39.619448
 20
8.209885
 10
39.750635
 20
8.217677
 10
39.87625
 20
8.234479
 10
39.9725
 20
8.248396
 10
40.0225
 20
8.254708
  0
LWPOLYLINE
  5
2A2
330
424
100
AcDbEntity
  8
NOTES
  6
Continuous
 62
     7
370
    30
100
AcDbPolyline
 90
        9
 70
   128
 43
0.0
 10
39.2225
 20
8.251896
 10
39.2725
 20
8.245344
 10
39.362635
 20
8.232375
 10
39.493833
 20
8.214729
 10
39.619448
 20
8.206885
 10
39.750635
 20
8.214677
 10
39.87625
 20
8.231479
 10
39.9725
 20
8.245396
 10
40.0225
 20
8.251708
  0
LWPOLYLINE
  5
2A3
330
424
100
AcDbEntity
  8
NOTES
  6
Continuous
 62
     7
370
    30
100
AcDbPolyline
 90
        9
 70
   128
 43
0.0
 10
39.2225
 20
8.248896
 10
39.2725
 20
8.242344
 10
39.362635
 20
8.229375
 10
39.493833
 20
8.211729
 10
39.619448
 20
8.203885
 10
39.750635
 20
8.211677
 10
39.87625
 20
8.228479
 10
39.9725
 20
8.242396
 10
40.0225
 20
8.248708
  0
LWPOLYLINE
  5
2A4
330
424
100
AcDbEntity
  8
NOTES
  6
Continuous
 62
     7
370
    30
100
AcDbPolyline
 90
        9
 70
   128
 43
0.0
 10
39.2225
 20
8.245896
 10
39.2725
 20
8.239344
 10
39.362635
 20
8.226375
 10
39.493833
 20
8.208729
 10
39.619448
 20
8.200885
 10
39.750635
 20
8.208677
 10
39.87625
 20
8.225479
 10
39.9725
 20
8.239396
 10
40.0225
 20
8.245708
  0
LINE
  5
2A5
330
424
100
AcDbEntity
  8
NOTES
  6
Continuous
 62
     7
370
    30
100
AcDbLine
 10
37.2225
 20
7.084656
 30
0.0
 11
36.8225
 21
7.344656
 31
0.0
  0
LINE
  5
2A6
330
424
100
AcDbEntity
  8
NOTES
  6
Continuous
 62
     7
370
    30
100
AcDbLine
 10
37.2225
 20
7.084656
 30
0.0
 11
37.6225
 21
7.344656
 31
0.0
  0
LINE
  5
2A7
330
424
100
AcDbEntity
  8
NOTES
  6
Continuous
 62
     7
370
    30
100
AcDbLine
 10
37.5625
 20
7.389656
 30
0.0
 11
36.942333
 21
7.854781
 31
0.0
  0
LINE
  5
2A8
330
424
100
AcDbEntity
  8
NOTES
  6
Continuous
 62
     7
370
    30
100
AcDbLine
 10
36.8825
 20
7.389656
 30
0.0
 11
37.502667
 21
7.854781
 31
0.0
  0
LINE
  5
2A9
330
424
100
AcDbEntity
  8
NOTES
  6
Continuous
 62
     7
370
    30
100
AcDbLine
 10
37.517812
 20
7.348167
 30
0.0
 11
36.8825
 21
7.824656
 31
0.0
  0
LINE
  5
2AA
330
424
100
AcDbEntity
  8
NOTES
  6
Continuous
 62
     7
370
    30
100
AcDbLine
 10
36.927188
 20
7.348167
 30
0.0
 11
37.5625
 21
7.824656
 31
0.0
  0
LINE
  5
2AB
330
424
100
AcDbEntity
  8
NOTES
  6
Continuous
 62
     7
370
    30
100
AcDbLine
 10
37.2225
 20
7.156219
 30
0.0
 11
37.517812
 21
7.348167
 31
0.0
  0
LINE
  5
2AC
330
424
100
AcDbEntity
  8
NOTES
  6
Continuous
 62
     7
370
    30
100
AcDbLine
 10
37.2225
 20
7.156219
 30
0.0
 11
36.927188
 21
7.348167
 31
0.0
  0
LINE
  5
2AD
330
424
100
AcDbEntity
  8
NOTES
  6
Continuous
 62
     7
370
    30
100
AcDbLine
 10
36.8825
 20
8.236594
 30
0.0
 11
36.8825
 21
7.305656
 31
0.0
  0
LINE
  5
2AE
330
424
100
AcDbEntity
  8
NOTES
  6
Continuous
 62
     7
370
    30
100
AcDbLine
 10
37.5625
 20
8.236583
 30
0.0
 11
37.5625
 21
7.305656
 31
0.0
  0
LINE
  5
2AF
330
424
100
AcDbEntity
  8
NOTES
  6
Continuous
 62
     7
370
    30
100
AcDbLine
 10
36.8825
 20
7.891729
 30
0.0
 11
37.5625
 21
8.236583
 31
0.0
  0
LINE
  5
2B0
330
424
100
AcDbEntity
  8
NOTES
  6
Continuous
 62
     7
370
    30
100
AcDbLine
 10
36.8825
 20
8.236594
 30
0.0
 11
37.5625
 21
7.891719
 31
0.0
  0
LINE
  5
2B1
330
424
100
AcDbEntity
  8
NOTES
  6
Continuous
 62
     7
370
    30
100
AcDbLine
 10
36.942333
 20
7.854781
 30
0.0
 11
37.5625
 21
8.169302
 31
0.0
  0
LINE
  5
2B2
330
424
100
AcDbEntity
  8
NOTES
  6
Continuous
 62
     7
370
    30
100
AcDbLine
 10
36.8825
 20
8.169302
 30
0.0
 11
37.502667
 21
7.854781
 31
0.0
  0
LWPOLYLINE
  5
2B3
330
424
100
AcDbEntity
  8
NOTES
  6
Continuous
 62
     7
370
    30
100
AcDbPolyline
 90
        9
 70
   128
 43
0.0
 10
36.8225
 20
8.284896
 10
36.8725
 20
8.278344
 10
36.962635
 20
8.265375
 10
37.093833
 20
8.247729
 10
37.219448
 20
8.239885
 10
37.350635
 20
8.247677
 10
37.47625
 20
8.264479
 10
37.5725
 20
8.278396
 10
37.6225
 20
8.284708
  0
LWPOLYLINE
  5
2B4
330
424
100
AcDbEntity
  8
NOTES
  6
Continuous
 62
     7
370
    30
100
AcDbPolyline
 90
        9
 70
   128
 43
0.0
 10
36.8225
 20
8.244604
 10
36.867062
 20
8.23876
 10
36.957125
 20
8.225802
 10
37.089917
 20
8.207948
 10
37.219385
 20
8.199865
 10
37.354469
 20
8.207885
 10
37.48176
 20
8.224906
 10
37.577865
 20
8.238802
 10
37.6225
 20
8.244448
  0
LINE
  5
2B5
330
424
100
AcDbEntity
  8
NOTES
  6
Continuous
 62
     7
370
    30
100
AcDbLine
 10
36.8795
 20
8.236969
 30
0.0
 11
36.8795
 21
7.307604
 31
0.0
  0
LINE
  5
2B6
330
424
100
AcDbEntity
  8
NOTES
  6
Continuous
 62
     7
370
    30
100
AcDbLine
 10
36.8765
 20
8.237406
 30
0.0
 11
36.8765
 21
7.309552
 31
0.0
  0
LINE
  5
2B7
330
424
100
AcDbEntity
  8
NOTES
  6
Continuous
 62
     7
370
    30
100
AcDbLine
 10
36.8735
 20
8.237833
 30
0.0
 11
36.8735
 21
7.31151
 31
0.0
  0
LINE
  5
2B8
330
424
100
AcDbEntity
  8
NOTES
  6
Continuous
 62
     7
370
    30
100
AcDbLine
 10
36.8705
 20
8.238271
 30
0.0
 11
36.8705
 21
7.313458
 31
0.0
  0
LINE
  5
2B9
330
424
100
AcDbEntity
  8
NOTES
  6
Continuous
 62
     7
370
    30
100
AcDbLine
 10
36.8675
 20
8.238698
 30
0.0
 11
36.8675
 21
7.315406
 31
0.0
  0
LINE
  5
2BA
330
424
100
AcDbEntity
  8
NOTES
  6
Continuous
 62
     7
370
    30
100
AcDbLine
 10
36.8645
 20
8.239094
 30
0.0
 11
36.8645
 21
7.317354
 31
0.0
  0
LINE
  5
2BB
330
424
100
AcDbEntity
  8
NOTES
  6
Continuous
 62
     7
370
    30
100
AcDbLine
 10
36.8615
 20
8.23949
 30
0.0
 11
36.8615
 21
7.319302
 31
0.0
  0
LINE
  5
2BC
330
424
100
AcDbEntity
  8
NOTES
  6
Continuous
 62
     7
370
    30
100
AcDbLine
 10
36.8585
 20
8.239885
 30
0.0
 11
36.8585
 21
7.32126
 31
0.0
  0
LINE
  5
2BD
330
424
100
AcDbEntity
  8
NOTES
  6
Continuous
 62
     7
370
    30
100
AcDbLine
 10
36.8555
 20
8.240281
 30
0.0
 11
36.8555
 21
7.323208
 31
0.0
  0
LINE
  5
2BE
330
424
100
AcDbEntity
  8
NOTES
  6
Continuous
 62
     7
370
    30
100
AcDbLine
 10
36.8525
 20
8.240667
 30
0.0
 11
36.8525
 21
7.325156
 31
0.0
  0
LINE
  5
2BF
330
424
100
AcDbEntity
  8
NOTES
  6
Continuous
 62
     7
370
    30
100
AcDbLine
 10
36.8495
 20
8.241062
 30
0.0
 11
36.8495
 21
7.327104
 31
0.0
  0
LINE
  5
2C0
330
424
100
AcDbEntity
  8
NOTES
  6
Continuous
 62
     7
370
    30
100
AcDbLine
 10
36.8465
 20
8.241458
 30
0.0
 11
36.8465
 21
7.329052
 31
0.0
  0
LINE
  5
2C1
330
424
100
AcDbEntity
  8
NOTES
  6
Continuous
 62
     7
370
    30
100
AcDbLine
 10
36.8435
 20
8.241854
 30
0.0
 11
36.8435
 21
7.33101
 31
0.0
  0
LINE
  5
2C2
330
424
100
AcDbEntity
  8
NOTES
  6
Continuous
 62
     7
370
    30
100
AcDbLine
 10
36.8405
 20
8.24224
 30
0.0
 11
36.8405
 21
7.332958
 31
0.0
  0
LINE
  5
2C3
330
424
100
AcDbEntity
  8
NOTES
  6
Continuous
 62
     7
370
    30
100
AcDbLine
 10
36.8375
 20
8.242635
 30
0.0
 11
36.8375
 21
7.334906
 31
0.0
  0
LINE
  5
2C4
330
424
100
AcDbEntity
  8
NOTES
  6
Continuous
 62
     7
370
    30
100
AcDbLine
 10
36.8345
 20
8.243031
 30
0.0
 11
36.8345
 21
7.336854
 31
0.0
  0
LINE
  5
2C5
330
424
100
AcDbEntity
  8
NOTES
  6
Continuous
 62
     7
370
    30
100
AcDbLine
 10
36.8315
 20
8.243427
 30
0.0
 11
36.8315
 21
7.338802
 31
0.0
  0
LINE
  5
2C6
330
424
100
AcDbEntity
  8
NOTES
  6
Continuous
 62
     7
370
    30
100
AcDbLine
 10
36.8285
 20
8.243812
 30
0.0
 11
36.8285
 21
7.34076
 31
0.0
  0
LINE
  5
2C7
330
424
100
AcDbEntity
  8
NOTES
  6
Continuous
 62
     7
370
    30
100
AcDbLine
 10
36.8255
 20
8.244208
 30
0.0
 11
36.8255
 21
7.342708
 31
0.0
  0
LINE
  5
2C8
330
424
100
AcDbEntity
  8
NOTES
  6
Continuous
 62
     7
370
    30
100
AcDbLine
 10
37.5655
 20
8.236583
 30
0.0
 11
37.5655
 21
7.307604
 31
0.0
  0
LINE
  5
2C9
330
424
100
AcDbEntity
  8
NOTES
  6
Continuous
 62
     7
370
    30
100
AcDbLine
 10
37.5685
 20
8.237448
 30
0.0
 11
37.5685
 21
7.309552
 31
0.0
  0
LINE
  5
2CA
330
424
100
AcDbEntity
  8
NOTES
  6
Continuous
 62
     7
370
    30
100
AcDbLine
 10
37.5715
 20
8.237885
 30
0.0
 11
37.5715
 21
7.31151
 31
0.0
  0
LINE
  5
2CB
330
424
100
AcDbEntity
  8
NOTES
  6
Continuous
 62
     7
370
    30
100
AcDbLine
 10
37.5745
 20
8.238312
 30
0.0
 11
37.5745
 21
7.313458
 31
0.0
  0
LINE
  5
2CC
330
424
100
AcDbEntity
  8
NOTES
  6
Continuous
 62
     7
370
    30
100
AcDbLine
 10
37.5775
 20
8.23876
 30
0.0
 11
37.5775
 21
7.315406
 31
0.0
  0
LINE
  5
2CD
330
424
100
AcDbEntity
  8
NOTES
  6
Continuous
 62
     7
370
    30
100
AcDbLine
 10
37.5805
 20
8.239135
 30
0.0
 11
37.5805
 21
7.317354
 31
0.0
  0
LINE
  5
2CE
330
424
100
AcDbEntity
  8
NOTES
  6
Continuous
 62
     7
370
    30
100
AcDbLine
 10
37.5835
 20
8.23951
 30
0.0
 11
37.5835
 21
7.319302
 31
0.0
  0
LINE
  5
2CF
330
424
100
AcDbEntity
  8
NOTES
  6
Continuous
 62
     7
370
    30
100
AcDbLine
 10
37.5865
 20
8.239896
 30
0.0
 11
37.5865
 21
7.32126
 31
0.0
  0
LINE
  5
2D0
330
424
100
AcDbEntity
  8
NOTES
  6
Continuous
 62
     7
370
    30
100
AcDbLine
 10
37.5895
 20
8.240271
 30
0.0
 11
37.5895
 21
7.323208
 31
0.0
  0
LINE
  5
2D1
330
424
100
AcDbEntity
  8
NOTES
  6
Continuous
 62
     7
370
    30
100
AcDbLine
 10
37.5925
 20
8.240656
 30
0.0
 11
37.5925
 21
7.325156
 31
0.0
  0
LINE
  5
2D2
330
424
100
AcDbEntity
  8
NOTES
  6
Continuous
 62
     7
370
    30
100
AcDbLine
 10
37.5955
 20
8.241031
 30
0.0
 11
37.5955
 21
7.327104
 31
0.0
  0
LINE
  5
2D3
330
424
100
AcDbEntity
  8
NOTES
  6
Continuous
 62
     7
370
    30
100
AcDbLine
 10
37.5985
 20
8.241417
 30
0.0
 11
37.5985
 21
7.329052
 31
0.0
  0
LINE
  5
2D4
330
424
100
AcDbEntity
  8
NOTES
  6
Continuous
 62
     7
370
    30
100
AcDbLine
 10
37.6015
 20
8.241792
 30
0.0
 11
37.6015
 21
7.33101
 31
0.0
  0
LINE
  5
2D5
330
424
100
AcDbEntity
  8
NOTES
  6
Continuous
 62
     7
370
    30
100
AcDbLine
 10
37.6045
 20
8.242167
 30
0.0
 11
37.6045
 21
7.332958
 31
0.0
  0
LINE
  5
2D6
330
424
100
AcDbEntity
  8
NOTES
  6
Continuous
 62
     7
370
    30
100
AcDbLine
 10
37.6075
 20
8.242552
 30
0.0
 11
37.6075
 21
7.334906
 31
0.0
  0
LINE
  5
2D7
330
424
100
AcDbEntity
  8
NOTES
  6
Continuous
 62
     7
370
    30
100
AcDbLine
 10
37.6105
 20
8.242927
 30
0.0
 11
37.6105
 21
7.336854
 31
0.0
  0
LINE
  5
2D8
330
424
100
AcDbEntity
  8
NOTES
  6
Continuous
 62
     7
370
    30
100
AcDbLine
 10
37.6135
 20
8.243313
 30
0.0
 11
37.6135
 21
7.338802
 31
0.0
  0
LINE
  5
2D9
330
424
100
AcDbEntity
  8
NOTES
  6
Continuous
 62
     7
370
    30
100
AcDbLine
 10
37.6165
 20
8.243688
 30
0.0
 11
37.6165
 21
7.34076
 31
0.0
  0
LINE
  5
2DA
330
424
100
AcDbEntity
  8
NOTES
  6
Continuous
 62
     7
370
    30
100
AcDbLine
 10
37.6195
 20
8.244073
 30
0.0
 11
37.6195
 21
7.342708
 31
0.0
  0
LINE
  5
2DB
330
424
100
AcDbEntity
  8
NOTES
  6
Continuous
 62
     7
370
    30
100
AcDbLine
 10
37.220865
 20
7.087167
 30
0.0
 11
37.5625
 21
7.309229
 31
0.0
  0
LINE
  5
2DC
330
424
100
AcDbEntity
  8
NOTES
  6
Continuous
 62
     7
370
    30
100
AcDbLine
 10
37.219229
 20
7.089677
 30
0.0
 11
37.5625
 21
7.312802
 31
0.0
  0
LINE
  5
2DD
330
424
100
AcDbEntity
  8
NOTES
  6
Continuous
 62
     7
370
    30
100
AcDbLine
 10
37.217594
 20
7.092198
 30
0.0
 11
37.5625
 21
7.316385
 31
0.0
  0
LINE
  5
2DE
330
424
100
AcDbEntity
  8
NOTES
  6
Continuous
 62
     7
370
    30
100
AcDbLine
 10
37.215958
 20
7.094708
 30
0.0
 11
37.5625
 21
7.319958
 31
0.0
  0
LINE
  5
2DF
330
424
100
AcDbEntity
  8
NOTES
  6
Continuous
 62
     7
370
    30
100
AcDbLine
 10
37.214323
 20
7.097229
 30
0.0
 11
37.5625
 21
7.323542
 31
0.0
  0
LINE
  5
2E0
330
424
100
AcDbEntity
  8
NOTES
  6
Continuous
 62
     7
370
    30
100
AcDbLine
 10
37.212688
 20
7.09974
 30
0.0
 11
37.5625
 21
7.327115
 31
0.0
  0
LINE
  5
2E1
330
424
100
AcDbEntity
  8
NOTES
  6
Continuous
 62
     7
370
    30
100
AcDbLine
 10
37.211052
 20
7.10226
 30
0.0
 11
37.5625
 21
7.330698
 31
0.0
  0
LINE
  5
2E2
330
424
100
AcDbEntity
  8
NOTES
  6
Continuous
 62
     7
370
    30
100
AcDbLine
 10
37.209417
 20
7.104771
 30
0.0
 11
37.5625
 21
7.334271
 31
0.0
  0
LINE
  5
2E3
330
424
100
AcDbEntity
  8
NOTES
  6
Continuous
 62
     7
370
    30
100
AcDbLine
 10
37.207781
 20
7.107292
 30
0.0
 11
37.5625
 21
7.337854
 31
0.0
  0
LINE
  5
2E4
330
424
100
AcDbEntity
  8
NOTES
  6
Continuous
 62
     7
370
    30
100
AcDbLine
 10
37.206146
 20
7.109802
 30
0.0
 11
37.5625
 21
7.341437
 31
0.0
  0
LINE
  5
2E5
330
424
100
AcDbEntity
  8
NOTES
  6
Continuous
 62
     7
370
    30
100
AcDbLine
 10
37.20451
 20
7.112323
 30
0.0
 11
37.5625
 21
7.345021
 31
0.0
  0
LINE
  5
2E6
330
424
100
AcDbEntity
  8
NOTES
  6
Continuous
 62
     7
370
    30
100
AcDbLine
 10
37.202875
 20
7.114833
 30
0.0
 11
37.5625
 21
7.348594
 31
0.0
  0
LINE
  5
2E7
330
424
100
AcDbEntity
  8
NOTES
  6
Continuous
 62
     7
370
    30
100
AcDbLine
 10
37.20124
 20
7.117354
 30
0.0
 11
37.5625
 21
7.352177
 31
0.0
  0
LINE
  5
2E8
330
424
100
AcDbEntity
  8
NOTES
  6
Continuous
 62
     7
370
    30
100
AcDbLine
 10
37.199604
 20
7.119865
 30
0.0
 11
37.5625
 21
7.35575
 31
0.0
  0
LINE
  5
2E9
330
424
100
AcDbEntity
  8
NOTES
  6
Continuous
 62
     7
370
    30
100
AcDbLine
 10
37.197969
 20
7.122385
 30
0.0
 11
37.5625
 21
7.359333
 31
0.0
  0
LINE
  5
2EA
330
424
100
AcDbEntity
  8
NOTES
  6
Continuous
 62
     7
370
    30
100
AcDbLine
 10
37.196333
 20
7.124896
 30
0.0
 11
37.5625
 21
7.362906
 31
0.0
  0
LINE
  5
2EB
330
424
100
AcDbEntity
  8
NOTES
  6
Continuous
 62
     7
370
    30
100
AcDbLine
 10
37.194698
 20
7.127417
 30
0.0
 11
37.5625
 21
7.36649
 31
0.0
  0
LINE
  5
2EC
330
424
100
AcDbEntity
  8
NOTES
  6
Continuous
 62
     7
370
    30
100
AcDbLine
 10
37.193062
 20
7.129927
 30
0.0
 11
37.5625
 21
7.370062
 31
0.0
  0
LINE
  5
2ED
330
424
100
AcDbEntity
  8
NOTES
  6
Continuous
 62
     7
370
    30
100
AcDbLine
 10
37.191427
 20
7.132437
 30
0.0
 11
37.5625
 21
7.373635
 31
0.0
  0
LINE
  5
2EE
330
424
100
AcDbEntity
  8
NOTES
  6
Continuous
 62
     7
370
    30
100
AcDbLine
 10
37.224125
 20
7.087167
 30
0.0
 11
36.8825
 21
7.309219
 31
0.0
  0
LINE
  5
2EF
330
424
100
AcDbEntity
  8
NOTES
  6
Continuous
 62
     7
370
    30
100
AcDbLine
 10
37.22576
 20
7.089677
 30
0.0
 11
36.8825
 21
7.312792
 31
0.0
  0
LINE
  5
2F0
330
424
100
AcDbEntity
  8
NOTES
  6
Continuous
 62
     7
370
    30
100
AcDbLine
 10
37.227396
 20
7.092198
 30
0.0
 11
36.8825
 21
7.316385
 31
0.0
  0
LINE
  5
2F1
330
424
100
AcDbEntity
  8
NOTES
  6
Continuous
 62
     7
370
    30
100
AcDbLine
 10
37.229031
 20
7.094708
 30
0.0
 11
36.883604
 21
7.319229
 31
0.0
  0
LINE
  5
2F2
330
424
100
AcDbEntity
  8
NOTES
  6
Continuous
 62
     7
370
    30
100
AcDbLine
 10
37.230667
 20
7.097229
 30
0.0
 11
36.886167
 21
7.321156
 31
0.0
  0
LINE
  5
2F3
330
424
100
AcDbEntity
  8
NOTES
  6
Continuous
 62
     7
370
    30
100
AcDbLine
 10
37.232302
 20
7.09974
 30
0.0
 11
36.888719
 21
7.323062
 31
0.0
  0
LINE
  5
2F4
330
424
100
AcDbEntity
  8
NOTES
  6
Continuous
 62
     7
370
    30
100
AcDbLine
 10
37.233937
 20
7.10226
 30
0.0
 11
36.891281
 21
7.32499
 31
0.0
  0
LINE
  5
2F5
330
424
100
AcDbEntity
  8
NOTES
  6
Continuous
 62
     7
370
    30
100
AcDbLine
 10
37.235573
 20
7.104771
 30
0.0
 11
36.893833
 21
7.326906
 31
0.0
  0
LINE
  5
2F6
330
424
100
AcDbEntity
  8
NOTES
  6
Continuous
 62
     7
370
    30
100
AcDbLine
 10
37.237208
 20
7.107292
 30
0.0
 11
36.896396
 21
7.328823
 31
0.0
  0
LINE
  5
2F7
330
424
100
AcDbEntity
  8
NOTES
  6
Continuous
 62
     7
370
    30
100
AcDbLine
 10
37.238844
 20
7.109802
 30
0.0
 11
36.898948
 21
7.33074
 31
0.0
  0
LINE
  5
2F8
330
424
100
AcDbEntity
  8
NOTES
  6
Continuous
 62
     7
370
    30
100
AcDbLine
 10
37.240479
 20
7.112323
 30
0.0
 11
36.90151
 21
7.332656
 31
0.0
  0
LINE
  5
2F9
330
424
100
AcDbEntity
  8
NOTES
  6
Continuous
 62
     7
370
    30
100
AcDbLine
 10
37.242115
 20
7.114833
 30
0.0
 11
36.904063
 21
7.334573
 31
0.0
  0
LINE
  5
2FA
330
424
100
AcDbEntity
  8
NOTES
  6
Continuous
 62
     7
370
    30
100
AcDbLine
 10
37.24375
 20
7.117354
 30
0.0
 11
36.906615
 21
7.33649
 31
0.0
  0
LINE
  5
2FB
330
424
100
AcDbEntity
  8
NOTES
  6
Continuous
 62
     7
370
    30
100
AcDbLine
 10
37.245385
 20
7.119865
 30
0.0
 11
36.909167
 21
7.338406
 31
0.0
  0
LINE
  5
2FC
330
424
100
AcDbEntity
  8
NOTES
  6
Continuous
 62
     7
370
    30
100
AcDbLine
 10
37.247021
 20
7.122385
 30
0.0
 11
36.911729
 21
7.340323
 31
0.0
  0
LINE
  5
2FD
330
424
100
AcDbEntity
  8
NOTES
  6
Continuous
 62
     7
370
    30
100
AcDbLine
 10
37.248656
 20
7.124896
 30
0.0
 11
36.914281
 21
7.34224
 31
0.0
  0
LINE
  5
2FE
330
424
100
AcDbEntity
  8
NOTES
  6
Continuous
 62
     7
370
    30
100
AcDbLine
 10
37.250292
 20
7.127417
 30
0.0
 11
36.916844
 21
7.344156
 31
0.0
  0
LINE
  5
2FF
330
424
100
AcDbEntity
  8
NOTES
  6
Continuous
 62
     7
370
    30
100
AcDbLine
 10
37.251927
 20
7.129927
 30
0.0
 11
36.919396
 21
7.346073
 31
0.0
  0
LINE
  5
300
330
424
100
AcDbEntity
  8
NOTES
  6
Continuous
 62
     7
370
    30
100
AcDbLine
 10
37.253563
 20
7.132437
 30
0.0
 11
36.921948
 21
7.34799
 31
0.0
  0
LINE
  5
301
330
424
100
AcDbEntity
  8
NOTES
  6
Continuous
 62
     7
370
    30
100
AcDbLine
 10
36.8825
 20
7.318406
 30
0.0
 11
37.56201
 21
7.828042
 31
0.0
  0
LINE
  5
302
330
424
100
AcDbEntity
  8
NOTES
  6
Continuous
 62
     7
370
    30
100
AcDbLine
 10
36.8825
 20
7.322146
 30
0.0
 11
37.559031
 21
7.829552
 31
0.0
  0
LINE
  5
303
330
424
100
AcDbEntity
  8
NOTES
  6
Continuous
 62
     7
370
    30
100
AcDbLine
 10
36.8825
 20
7.325906
 30
0.0
 11
37.556042
 21
7.831062
 31
0.0
  0
LINE
  5
304
330
424
100
AcDbEntity
  8
NOTES
  6
Continuous
 62
     7
370
    30
100
AcDbLine
 10
36.8825
 20
7.329646
 30
0.0
 11
37.553062
 21
7.832573
 31
0.0
  0
LINE
  5
305
330
424
100
AcDbEntity
  8
NOTES
  6
Continuous
 62
     7
370
    30
100
AcDbLine
 10
36.8825
 20
7.333396
 30
0.0
 11
37.550083
 21
7.834094
 31
0.0
  0
LINE
  5
306
330
424
100
AcDbEntity
  8
NOTES
  6
Continuous
 62
     7
370
    30
100
AcDbLine
 10
36.8825
 20
7.337146
 30
0.0
 11
37.547094
 21
7.835604
 31
0.0
  0
LINE
  5
307
330
424
100
AcDbEntity
  8
NOTES
  6
Continuous
 62
     7
370
    30
100
AcDbLine
 10
36.8825
 20
7.340896
 30
0.0
 11
37.544115
 21
7.837115
 31
0.0
  0
LINE
  5
308
330
424
100
AcDbEntity
  8
NOTES
  6
Continuous
 62
     7
370
    30
100
AcDbLine
 10
36.8825
 20
7.344656
 30
0.0
 11
37.541125
 21
7.838635
 31
0.0
  0
LINE
  5
309
330
424
100
AcDbEntity
  8
NOTES
  6
Continuous
 62
     7
370
    30
100
AcDbLine
 10
36.8825
 20
7.348396
 30
0.0
 11
37.538146
 21
7.840146
 31
0.0
  0
LINE
  5
30A
330
424
100
AcDbEntity
  8
NOTES
  6
Continuous
 62
     7
370
    30
100
AcDbLine
 10
36.8825
 20
7.352146
 30
0.0
 11
37.535167
 21
7.841656
 31
0.0
  0
LINE
  5
30B
330
424
100
AcDbEntity
  8
NOTES
  6
Continuous
 62
     7
370
    30
100
AcDbLine
 10
36.8825
 20
7.355896
 30
0.0
 11
37.532187
 21
7.843167
 31
0.0
  0
LINE
  5
30C
330
424
100
AcDbEntity
  8
NOTES
  6
Continuous
 62
     7
370
    30
100
AcDbLine
 10
36.8825
 20
7.359646
 30
0.0
 11
37.529208
 21
7.844677
 31
0.0
  0
LINE
  5
30D
330
424
100
AcDbEntity
  8
NOTES
  6
Continuous
 62
     7
370
    30
100
AcDbLine
 10
36.8825
 20
7.363406
 30
0.0
 11
37.526219
 21
7.846198
 31
0.0
  0
LINE
  5
30E
330
424
100
AcDbEntity
  8
NOTES
  6
Continuous
 62
     7
370
    30
100
AcDbLine
 10
36.8825
 20
7.367146
 30
0.0
 11
37.523229
 21
7.847708
 31
0.0
  0
LINE
  5
30F
330
424
100
AcDbEntity
  8
NOTES
  6
Continuous
 62
     7
370
    30
100
AcDbLine
 10
36.8825
 20
7.370896
 30
0.0
 11
37.52025
 21
7.849219
 31
0.0
  0
LINE
  5
310
330
424
100
AcDbEntity
  8
NOTES
  6
Continuous
 62
     7
370
    30
100
AcDbLine
 10
36.8825
 20
7.374646
 30
0.0
 11
37.517271
 21
7.850729
 31
0.0
  0
LINE
  5
311
330
424
100
AcDbEntity
  8
NOTES
  6
Continuous
 62
     7
370
    30
100
AcDbLine
 10
36.8825
 20
7.378396
 30
0.0
 11
37.514292
 21
7.85224
 31
0.0
  0
LINE
  5
312
330
424
100
AcDbEntity
  8
NOTES
  6
Continuous
 62
     7
370
    30
100
AcDbLine
 10
36.8825
 20
7.382156
 30
0.0
 11
37.511302
 21
7.85376
 31
0.0
  0
LINE
  5
313
330
424
100
AcDbEntity
  8
NOTES
  6
Continuous
 62
     7
370
    30
100
AcDbLine
 10
36.8825
 20
7.385896
 30
0.0
 11
37.508323
 21
7.855271
 31
0.0
  0
LINE
  5
314
330
424
100
AcDbEntity
  8
NOTES
  6
Continuous
 62
     7
370
    30
100
AcDbLine
 10
37.523042
 20
7.34799
 30
0.0
 11
36.882969
 21
7.828052
 31
0.0
  0
LINE
  5
315
330
424
100
AcDbEntity
  8
NOTES
  6
Continuous
 62
     7
370
    30
100
AcDbLine
 10
37.525719
 20
7.349729
 30
0.0
 11
36.885948
 21
7.829562
 31
0.0
  0
LINE
  5
316
330
424
100
AcDbEntity
  8
NOTES
  6
Continuous
 62
     7
370
    30
100
AcDbLine
 10
37.528396
 20
7.351469
 30
0.0
 11
36.888937
 21
7.831073
 31
0.0
  0
LINE
  5
317
330
424
100
AcDbEntity
  8
NOTES
  6
Continuous
 62
     7
370
    30
100
AcDbLine
 10
37.531073
 20
7.353208
 30
0.0
 11
36.891917
 21
7.832583
 31
0.0
  0
LINE
  5
318
330
424
100
AcDbEntity
  8
NOTES
  6
Continuous
 62
     7
370
    30
100
AcDbLine
 10
37.53375
 20
7.354948
 30
0.0
 11
36.894896
 21
7.834094
 31
0.0
  0
LINE
  5
319
330
424
100
AcDbEntity
  8
NOTES
  6
Continuous
 62
     7
370
    30
100
AcDbLine
 10
37.536427
 20
7.356687
 30
0.0
 11
36.897875
 21
7.835615
 31
0.0
  0
LINE
  5
31A
330
424
100
AcDbEntity
  8
NOTES
  6
Continuous
 62
     7
370
    30
100
AcDbLine
 10
37.539104
 20
7.358427
 30
0.0
 11
36.900865
 21
7.837125
 31
0.0
  0
LINE
  5
31B
330
424
100
AcDbEntity
  8
NOTES
  6
Continuous
 62
     7
370
    30
100
AcDbLine
 10
37.541792
 20
7.360177
 30
0.0
 11
36.903844
 21
7.838635
 31
0.0
  0
LINE
  5
31C
330
424
100
AcDbEntity
  8
NOTES
  6
Continuous
 62
     7
370
    30
100
AcDbLine
 10
37.544469
 20
7.361917
 30
0.0
 11
36.906833
 21
7.840156
 31
0.0
  0
LINE
  5
31D
330
424
100
AcDbEntity
  8
NOTES
  6
Continuous
 62
     7
370
    30
100
AcDbLine
 10
37.547146
 20
7.363656
 30
0.0
 11
36.909813
 21
7.841667
 31
0.0
  0
LINE
  5
31E
330
424
100
AcDbEntity
  8
NOTES
  6
Continuous
 62
     7
370
    30
100
AcDbLine
 10
37.549823
 20
7.365396
 30
0.0
 11
36.912792
 21
7.843177
 31
0.0
  0
LINE
  5
31F
330
424
100
AcDbEntity
  8
NOTES
  6
Continuous
 62
     7
370
    30
100
AcDbLine
 10
37.5525
 20
7.367135
 30
0.0
 11
36.915771
 21
7.844688
 31
0.0
  0
LINE
  5
320
330
424
100
AcDbEntity
  8
NOTES
  6
Continuous
 62
     7
370
    30
100
AcDbLine
 10
37.555187
 20
7.368885
 30
0.0
 11
36.91876
 21
7.846208
 31
0.0
  0
LINE
  5
321
330
424
100
AcDbEntity
  8
NOTES
  6
Continuous
 62
     7
370
    30
100
AcDbLine
 10
37.557865
 20
7.370625
 30
0.0
 11
36.92174
 21
7.847719
 31
0.0
  0
LINE
  5
322
330
424
100
AcDbEntity
  8
NOTES
  6
Continuous
 62
     7
370
    30
100
AcDbLine
 10
37.560542
 20
7.372365
 30
0.0
 11
36.924729
 21
7.849229
 31
0.0
  0
LINE
  5
323
330
424
100
AcDbEntity
  8
NOTES
  6
Continuous
 62
     7
370
    30
100
AcDbLine
 10
37.5625
 20
7.374635
 30
0.0
 11
36.927708
 21
7.85074
 31
0.0
  0
LINE
  5
324
330
424
100
AcDbEntity
  8
NOTES
  6
Continuous
 62
     7
370
    30
100
AcDbLine
 10
37.5625
 20
7.378385
 30
0.0
 11
36.930687
 21
7.85225
 31
0.0
  0
LINE
  5
325
330
424
100
AcDbEntity
  8
NOTES
  6
Continuous
 62
     7
370
    30
100
AcDbLine
 10
37.5625
 20
7.382146
 30
0.0
 11
36.933677
 21
7.853771
 31
0.0
  0
LINE
  5
326
330
424
100
AcDbEntity
  8
NOTES
  6
Continuous
 62
     7
370
    30
100
AcDbLine
 10
37.5625
 20
7.385896
 30
0.0
 11
36.936656
 21
7.855281
 31
0.0
  0
LINE
  5
327
330
424
100
AcDbEntity
  8
NOTES
  6
Continuous
 62
     7
370
    30
100
AcDbLine
 10
36.8825
 20
8.233229
 30
0.0
 11
37.5625
 21
7.888354
 31
0.0
  0
LINE
  5
328
330
424
100
AcDbEntity
  8
NOTES
  6
Continuous
 62
     7
370
    30
100
AcDbLine
 10
36.8825
 20
8.229865
 30
0.0
 11
37.5625
 21
7.88499
 31
0.0
  0
LINE
  5
329
330
424
100
AcDbEntity
  8
NOTES
  6
Continuous
 62
     7
370
    30
100
AcDbLine
 10
36.8825
 20
8.2265
 30
0.0
 11
37.5625
 21
7.881625
 31
0.0
  0
LINE
  5
32A
330
424
100
AcDbEntity
  8
NOTES
  6
Continuous
 62
     7
370
    30
100
AcDbLine
 10
36.8825
 20
8.223125
 30
0.0
 11
37.5625
 21
7.87825
 31
0.0
  0
LINE
  5
32B
330
424
100
AcDbEntity
  8
NOTES
  6
Continuous
 62
     7
370
    30
100
AcDbLine
 10
36.8825
 20
8.21976
 30
0.0
 11
37.5625
 21
7.874885
 31
0.0
  0
LINE
  5
32C
330
424
100
AcDbEntity
  8
NOTES
  6
Continuous
 62
     7
370
    30
100
AcDbLine
 10
36.8825
 20
8.216396
 30
0.0
 11
37.5625
 21
7.871521
 31
0.0
  0
LINE
  5
32D
330
424
100
AcDbEntity
  8
NOTES
  6
Continuous
 62
     7
370
    30
100
AcDbLine
 10
36.8825
 20
8.213042
 30
0.0
 11
37.5625
 21
7.868167
 31
0.0
  0
LINE
  5
32E
330
424
100
AcDbEntity
  8
NOTES
  6
Continuous
 62
     7
370
    30
100
AcDbLine
 10
36.8825
 20
8.209677
 30
0.0
 11
37.5625
 21
7.864802
 31
0.0
  0
LINE
  5
32F
330
424
100
AcDbEntity
  8
NOTES
  6
Continuous
 62
     7
370
    30
100
AcDbLine
 10
36.8825
 20
8.206312
 30
0.0
 11
37.5625
 21
7.861438
 31
0.0
  0
LINE
  5
330
330
424
100
AcDbEntity
  8
NOTES
  6
Continuous
 62
     7
370
    30
100
AcDbLine
 10
36.8825
 20
8.202948
 30
0.0
 11
37.5625
 21
7.858073
 31
0.0
  0
LINE
  5
331
330
424
100
AcDbEntity
  8
NOTES
  6
Continuous
 62
     7
370
    30
100
AcDbLine
 10
36.8825
 20
8.199583
 30
0.0
 11
37.5625
 21
7.854708
 31
0.0
  0
LINE
  5
332
330
424
100
AcDbEntity
  8
NOTES
  6
Continuous
 62
     7
370
    30
100
AcDbLine
 10
36.8825
 20
8.196219
 30
0.0
 11
37.5625
 21
7.851344
 31
0.0
  0
LINE
  5
333
330
424
100
AcDbEntity
  8
NOTES
  6
Continuous
 62
     7
370
    30
100
AcDbLine
 10
36.8825
 20
8.192854
 30
0.0
 11
37.5625
 21
7.847979
 31
0.0
  0
LINE
  5
334
330
424
100
AcDbEntity
  8
NOTES
  6
Continuous
 62
     7
370
    30
100
AcDbLine
 10
36.8825
 20
8.1895
 30
0.0
 11
37.5625
 21
7.844625
 31
0.0
  0
LINE
  5
335
330
424
100
AcDbEntity
  8
NOTES
  6
Continuous
 62
     7
370
    30
100
AcDbLine
 10
36.8825
 20
8.186125
 30
0.0
 11
37.5625
 21
7.84125
 31
0.0
  0
LINE
  5
336
330
424
100
AcDbEntity
  8
NOTES
  6
Continuous
 62
     7
370
    30
100
AcDbLine
 10
36.8825
 20
8.182771
 30
0.0
 11
37.5625
 21
7.837896
 31
0.0
  0
LINE
  5
337
330
424
100
AcDbEntity
  8
NOTES
  6
Continuous
 62
     7
370
    30
100
AcDbLine
 10
36.8825
 20
8.179406
 30
0.0
 11
37.5625
 21
7.834531
 31
0.0
  0
LINE
  5
338
330
424
100
AcDbEntity
  8
NOTES
  6
Continuous
 62
     7
370
    30
100
AcDbLine
 10
36.8825
 20
8.176042
 30
0.0
 11
37.5625
 21
7.831167
 31
0.0
  0
LINE
  5
339
330
424
100
AcDbEntity
  8
NOTES
  6
Continuous
 62
     7
370
    30
100
AcDbLine
 10
36.8825
 20
8.172667
 30
0.0
 11
37.5625
 21
7.827792
 31
0.0
  0
LINE
  5
33A
330
424
100
AcDbEntity
  8
NOTES
  6
Continuous
 62
     7
370
    30
100
AcDbLine
 10
36.8825
 20
7.888365
 30
0.0
 11
37.5625
 21
8.233219
 31
0.0
  0
LINE
  5
33B
330
424
100
AcDbEntity
  8
NOTES
  6
Continuous
 62
     7
370
    30
100
AcDbLine
 10
36.8825
 20
7.885
 30
0.0
 11
37.5625
 21
8.229854
 31
0.0
  0
LINE
  5
33C
330
424
100
AcDbEntity
  8
NOTES
  6
Continuous
 62
     7
370
    30
100
AcDbLine
 10
36.8825
 20
7.881635
 30
0.0
 11
37.5625
 21
8.22649
 31
0.0
  0
LINE
  5
33D
330
424
100
AcDbEntity
  8
NOTES
  6
Continuous
 62
     7
370
    30
100
AcDbLine
 10
36.8825
 20
7.878271
 30
0.0
 11
37.5625
 21
8.223125
 31
0.0
  0
LINE
  5
33E
330
424
100
AcDbEntity
  8
NOTES
  6
Continuous
 62
     7
370
    30
100
AcDbLine
 10
36.8825
 20
7.874906
 30
0.0
 11
37.5625
 21
8.21976
 31
0.0
  0
LINE
  5
33F
330
424
100
AcDbEntity
  8
NOTES
  6
Continuous
 62
     7
370
    30
100
AcDbLine
 10
36.8825
 20
7.871542
 30
0.0
 11
37.5625
 21
8.216396
 31
0.0
  0
LINE
  5
340
330
424
100
AcDbEntity
  8
NOTES
  6
Continuous
 62
     7
370
    30
100
AcDbLine
 10
36.8825
 20
7.868177
 30
0.0
 11
37.5625
 21
8.213031
 31
0.0
  0
LINE
  5
341
330
424
100
AcDbEntity
  8
NOTES
  6
Continuous
 62
     7
370
    30
100
AcDbLine
 10
36.8825
 20
7.864823
 30
0.0
 11
37.5625
 21
8.209677
 31
0.0
  0
LINE
  5
342
330
424
100
AcDbEntity
  8
NOTES
  6
Continuous
 62
     7
370
    30
100
AcDbLine
 10
36.8825
 20
7.861458
 30
0.0
 11
37.5625
 21
8.206312
 31
0.0
  0
LINE
  5
343
330
424
100
AcDbEntity
  8
NOTES
  6
Continuous
 62
     7
370
    30
100
AcDbLine
 10
36.8825
 20
7.858094
 30
0.0
 11
37.5625
 21
8.202948
 31
0.0
  0
LINE
  5
344
330
424
100
AcDbEntity
  8
NOTES
  6
Continuous
 62
     7
370
    30
100
AcDbLine
 10
36.8825
 20
7.854729
 30
0.0
 11
37.5625
 21
8.199583
 31
0.0
  0
LINE
  5
345
330
424
100
AcDbEntity
  8
NOTES
  6
Continuous
 62
     7
370
    30
100
AcDbLine
 10
36.8825
 20
7.851354
 30
0.0
 11
37.5625
 21
8.196208
 31
0.0
  0
LINE
  5
346
330
424
100
AcDbEntity
  8
NOTES
  6
Continuous
 62
     7
370
    30
100
AcDbLine
 10
36.8825
 20
7.84799
 30
0.0
 11
37.5625
 21
8.192844
 31
0.0
  0
LINE
  5
347
330
424
100
AcDbEntity
  8
NOTES
  6
Continuous
 62
     7
370
    30
100
AcDbLine
 10
36.8825
 20
7.844635
 30
0.0
 11
37.5625
 21
8.189479
 31
0.0
  0
LINE
  5
348
330
424
100
AcDbEntity
  8
NOTES
  6
Continuous
 62
     7
370
    30
100
AcDbLine
 10
36.8825
 20
7.841281
 30
0.0
 11
37.5625
 21
8.186135
 31
0.0
  0
LINE
  5
349
330
424
100
AcDbEntity
  8
NOTES
  6
Continuous
 62
     7
370
    30
100
AcDbLine
 10
36.8825
 20
7.837906
 30
0.0
 11
37.5625
 21
8.18276
 31
0.0
  0
LINE
  5
34A
330
424
100
AcDbEntity
  8
NOTES
  6
Continuous
 62
     7
370
    30
100
AcDbLine
 10
36.8825
 20
7.834542
 30
0.0
 11
37.5625
 21
8.179396
 31
0.0
  0
LINE
  5
34B
330
424
100
AcDbEntity
  8
NOTES
  6
Continuous
 62
     7
370
    30
100
AcDbLine
 10
36.8825
 20
7.831177
 30
0.0
 11
37.5625
 21
8.176031
 31
0.0
  0
LINE
  5
34C
330
424
100
AcDbEntity
  8
NOTES
  6
Continuous
 62
     7
370
    30
100
AcDbLine
 10
36.8825
 20
7.827812
 30
0.0
 11
37.5625
 21
8.172667
 31
0.0
  0
LWPOLYLINE
  5
34D
330
424
100
AcDbEntity
  8
NOTES
  6
Continuous
 62
     7
370
    30
100
AcDbPolyline
 90
        9
 70
   128
 43
0.0
 10
36.8225
 20
8.281896
 10
36.8725
 20
8.275344
 10
36.962635
 20
8.262375
 10
37.093833
 20
8.244729
 10
37.219448
 20
8.236885
 10
37.350635
 20
8.244677
 10
37.47625
 20
8.261479
 10
37.5725
 20
8.275396
 10
37.6225
 20
8.281708
  0
LWPOLYLINE
  5
34E
330
424
100
AcDbEntity
  8
NOTES
  6
Continuous
 62
     7
370
    30
100
AcDbPolyline
 90
        9
 70
   128
 43
0.0
 10
36.8225
 20
8.278896
 10
36.8725
 20
8.272344
 10
36.962635
 20
8.259375
 10
37.093833
 20
8.241729
 10
37.219448
 20
8.233885
 10
37.350635
 20
8.241677
 10
37.47625
 20
8.258479
 10
37.5725
 20
8.272396
 10
37.6225
 20
8.278708
  0
LWPOLYLINE
  5
34F
330
424
100
AcDbEntity
  8
NOTES
  6
Continuous
 62
     7
370
    30
100
AcDbPolyline
 90
        9
 70
   128
 43
0.0
 10
36.8225
 20
8.275896
 10
36.8725
 20
8.269344
 10
36.962635
 20
8.256375
 10
37.093833
 20
8.238729
 10
37.219448
 20
8.230885
 10
37.350635
 20
8.238677
 10
37.47625
 20
8.255479
 10
37.5725
 20
8.269396
 10
37.6225
 20
8.275708
  0
LWPOLYLINE
  5
350
330
424
100
AcDbEntity
  8
NOTES
  6
Continuous
 62
     7
370
    30
100
AcDbPolyline
 90
        9
 70
   128
 43
0.0
 10
36.8225
 20
8.272896
 10
36.8725
 20
8.266344
 10
36.962635
 20
8.253375
 10
37.093833
 20
8.235729
 10
37.219448
 20
8.227885
 10
37.350635
 20
8.235677
 10
37.47625
 20
8.252479
 10
37.5725
 20
8.266396
 10
37.6225
 20
8.272708
  0
LWPOLYLINE
  5
351
330
424
100
AcDbEntity
  8
NOTES
  6
Continuous
 62
     7
370
    30
100
AcDbPolyline
 90
        9
 70
   128
 43
0.0
 10
36.8225
 20
8.269896
 10
36.8725
 20
8.263344
 10
36.962635
 20
8.250375
 10
37.093833
 20
8.232729
 10
37.219448
 20
8.224885
 10
37.350635
 20
8.232677
 10
37.47625
 20
8.249479
 10
37.5725
 20
8.263396
 10
37.6225
 20
8.269708
  0
LWPOLYLINE
  5
352
330
424
100
AcDbEntity
  8
NOTES
  6
Continuous
 62
     7
370
    30
100
AcDbPolyline
 90
        9
 70
   128
 43
0.0
 10
36.8225
 20
8.266896
 10
36.8725
 20
8.260344
 10
36.962635
 20
8.247375
 10
37.093833
 20
8.229729
 10
37.219448
 20
8.221885
 10
37.350635
 20
8.229677
 10
37.47625
 20
8.246479
 10
37.5725
 20
8.260396
 10
37.6225
 20
8.266708
  0
LWPOLYLINE
  5
353
330
424
100
AcDbEntity
  8
NOTES
  6
Continuous
 62
     7
370
    30
100
AcDbPolyline
 90
        9
 70
   128
 43
0.0
 10
36.8225
 20
8.263896
 10
36.8725
 20
8.257344
 10
36.962635
 20
8.244375
 10
37.093833
 20
8.226729
 10
37.219448
 20
8.218885
 10
37.350635
 20
8.226677
 10
37.47625
 20
8.243479
 10
37.5725
 20
8.257396
 10
37.6225
 20
8.263708
  0
LWPOLYLINE
  5
354
330
424
100
AcDbEntity
  8
NOTES
  6
Continuous
 62
     7
370
    30
100
AcDbPolyline
 90
        9
 70
   128
 43
0.0
 10
36.8225
 20
8.260896
 10
36.8725
 20
8.254344
 10
36.962635
 20
8.241375
 10
37.093833
 20
8.223729
 10
37.219448
 20
8.215885
 10
37.350635
 20
8.223677
 10
37.47625
 20
8.240479
 10
37.5725
 20
8.254396
 10
37.6225
 20
8.260708
  0
LWPOLYLINE
  5
355
330
424
100
AcDbEntity
  8
NOTES
  6
Continuous
 62
     7
370
    30
100
AcDbPolyline
 90
        9
 70
   128
 43
0.0
 10
36.8225
 20
8.257896
 10
36.8725
 20
8.251344
 10
36.962635
 20
8.238375
 10
37.093833
 20
8.220729
 10
37.219448
 20
8.212885
 10
37.350635
 20
8.220677
 10
37.47625
 20
8.237479
 10
37.5725
 20
8.251396
 10
37.6225
 20
8.257708
  0
LWPOLYLINE
  5
356
330
424
100
AcDbEntity
  8
NOTES
  6
Continuous
 62
     7
370
    30
100
AcDbPolyline
 90
        9
 70
   128
 43
0.0
 10
36.8225
 20
8.254896
 10
36.8725
 20
8.248344
 10
36.962635
 20
8.235375
 10
37.093833
 20
8.217729
 10
37.219448
 20
8.209885
 10
37.350635
 20
8.217677
 10
37.47625
 20
8.234479
 10
37.5725
 20
8.248396
 10
37.6225
 20
8.254708
  0
LWPOLYLINE
  5
357
330
424
100
AcDbEntity
  8
NOTES
  6
Continuous
 62
     7
370
    30
100
AcDbPolyline
 90
        9
 70
   128
 43
0.0
 10
36.8225
 20
8.251896
 10
36.8725
 20
8.245344
 10
36.962635
 20
8.232375
 10
37.093833
 20
8.214729
 10
37.219448
 20
8.206885
 10
37.350635
 20
8.214677
 10
37.47625
 20
8.231479
 10
37.5725
 20
8.245396
 10
37.6225
 20
8.251708
  0
LWPOLYLINE
  5
358
330
424
100
AcDbEntity
  8
NOTES
  6
Continuous
 62
     7
370
    30
100
AcDbPolyline
 90
        9
 70
   128
 43
0.0
 10
36.8225
 20
8.248896
 10
36.8725
 20
8.242344
 10
36.962635
 20
8.229375
 10
37.093833
 20
8.211729
 10
37.219448
 20
8.203885
 10
37.350635
 20
8.211677
 10
37.47625
 20
8.228479
 10
37.5725
 20
8.242396
 10
37.6225
 20
8.248708
  0
LWPOLYLINE
  5
359
330
424
100
AcDbEntity
  8
NOTES
  6
Continuous
 62
     7
370
    30
100
AcDbPolyline
 90
        9
 70
   128
 43
0.0
 10
36.8225
 20
8.245896
 10
36.8725
 20
8.239344
 10
36.962635
 20
8.226375
 10
37.093833
 20
8.208729
 10
37.219448
 20
8.200885
 10
37.350635
 20
8.208677
 10
37.47625
 20
8.225479
 10
37.5725
 20
8.239396
 10
37.6225
 20
8.245708
  0
LINE
  5
35A
330
424
100
AcDbEntity
  8
NOTES
  6
Continuous
 62
     7
370
    30
100
AcDbLine
 10
40.0225
 20
6.864656
 30
0.0
 11
40.0225
 21
8.364656
 31
0.0
  0
LINE
  5
35B
330
424
100
AcDbEntity
  8
NOTES
  6
Continuous
 62
     7
370
    30
100
AcDbLine
 10
39.2225
 20
6.864656
 30
0.0
 11
39.2225
 21
5.972479
 31
0.0
  0
LINE
  5
35C
330
424
100
AcDbEntity
  8
NOTES
  6
Continuous
 62
     7
370
    30
100
AcDbLine
 10
40.0225
 20
6.864656
 30
0.0
 11
40.0225
 21
5.824083
 31
0.0
  0
LWPOLYLINE
  5
35D
330
424
100
AcDbEntity
  8
NOTES
  6
Continuous
 62
     7
370
    30
100
AcDbPolyline
 90
        9
 70
   128
 43
0.0
 10
39.2225
 20
5.972479
 10
39.339833
 20
5.954125
 10
39.40824
 20
5.963375
 10
39.491042
 20
5.963375
 10
39.555844
 20
5.94951
 10
39.617052
 20
5.93101
 10
39.725052
 20
5.917146
 10
39.854667
 20
5.907906
 10
40.0225
 20
5.824083
  0
LINE
  5
35E
330
424
100
AcDbEntity
  8
NOTES
  6
Continuous
 62
     7
370
    30
100
AcDbLine
 10
39.2225
 20
6.83351
 30
0.0
 11
39.253646
 21
6.864656
 31
0.0
  0
LINE
  5
35F
330
424
100
AcDbEntity
  8
NOTES
  6
Continuous
 62
     7
370
    30
100
AcDbLine
 10
40.001125
 20
5.83476
 30
0.0
 11
40.0225
 21
5.856135
 31
0.0
  0
LINE
  5
361
330
424
100
AcDbEntity
  8
NOTES
  6
Continuous
 62
     7
370
     0
100
AcDbLine
 10
34.353979
 20
8.008115
 30
0.0
 11
34.360229
 21
8.018365
 31
0.0
  0
LINE
  5
362
330
424
100
AcDbEntity
  8
NOTES
  6
Continuous
 62
     7
370
     0
100
AcDbLine
 10
34.347896
 20
8.219094
 30
0.0
 11
34.354146
 21
8.229344
 31
0.0
  0
LINE
  5
364
330
424
100
AcDbEntity
  8
DIM
  6
Continuous
 62
     7
370
     0
100
AcDbLine
 10
34.228333
 20
8.304656
 30
0.0
 11
34.228333
 21
6.864656
 31
0.0
  0
INSERT
  5
365
330
424
100
AcDbEntity
  8
DIM
  6
Continuous
 62
     7
370
     0
100
AcDbBlockReference
  2
LARROW
 10
34.228333
 20
6.864656
 30
0.0
 41
12.0
 42
12.0
 43
12.0
 50
270.0
  0
LINE
  5
367
330
424
100
AcDbEntity
  8
DIM
  6
Continuous
 62
     7
370
     0
100
AcDbLine
 10
34.1545
 20
6.864656
 30
0.0
 11
34.388104
 21
6.864656
 31
0.0
  0
INSERT
  5
368
330
424
100
AcDbEntity
  8
DIM
  6
Continuous
 62
     7
370
     0
100
AcDbBlockReference
  2
LARROW
 10
34.228333
 20
8.304656
 30
0.0
 41
12.0
 42
12.0
 43
12.0
 50
90.0
  0
LINE
  5
36A
330
424
100
AcDbEntity
  8
DIM
  6
Continuous
 62
     7
370
     0
100
AcDbLine
 10
34.1545
 20
8.304656
 30
0.0
 11
34.388104
 21
8.304656
 31
0.0
  0
LINE
  5
36B
330
424
100
AcDbEntity
  8
DIM
  6
Continuous
 62
     7
370
     0
100
AcDbLine
 10
36.628333
 20
8.304656
 30
0.0
 11
36.628333
 21
7.945908
 31
0.0
  0
LINE
  5
36C
330
424
100
AcDbEntity
  8
DIM
  6
Continuous
 62
     7
370
     0
100
AcDbLine
 10
36.5545
 20
6.864656
 30
0.0
 11
36.788104
 21
6.864656
 31
0.0
  0
INSERT
  5
36D
330
424
100
AcDbEntity
  8
DIM
  6
Continuous
 62
     7
370
     0
100
AcDbBlockReference
  2
LARROW
 10
36.628333
 20
6.864656
 30
0.0
 41
12.0
 42
12.0
 43
12.0
 50
270.0
  0
INSERT
  5
370
330
424
100
AcDbEntity
  8
DIM
  6
Continuous
 62
     7
370
     0
100
AcDbBlockReference
  2
LARROW
 10
36.628333
 20
8.304656
 30
0.0
 41
12.0
 42
12.0
 43
12.0
 50
90.0
  0
LINE
  5
372
330
424
100
AcDbEntity
  8
DIM
  6
Continuous
 62
     7
370
     0
100
AcDbLine
 10
36.5545
 20
8.304656
 30
0.0
 11
36.788104
 21
8.304656
 31
0.0
  0
LINE
  5
373
330
424
100
AcDbEntity
  8
DIM
  6
Continuous
 62
     7
370
     0
100
AcDbLine
 10
39.028333
 20
8.304656
 30
0.0
 11
39.028333
 21
8.060338
 31
0.0
  0
LINE
  5
374
330
424
100
AcDbEntity
  8
DIM
  6
Continuous
 62
     7
370
     0
100
AcDbLine
 10
38.9545
 20
6.864656
 30
0.0
 11
39.188104
 21
6.864656
 31
0.0
  0
INSERT
  5
375
330
424
100
AcDbEntity
  8
DIM
  6
Continuous
 62
     7
370
     0
100
AcDbBlockReference
  2
LARROW
 10
39.028333
 20
6.864656
 30
0.0
 41
12.0
 42
12.0
 43
12.0
 50
270.0
  0
INSERT
  5
378
330
424
100
AcDbEntity
  8
DIM
  6
Continuous
 62
     7
370
     0
100
AcDbBlockReference
  2
LARROW
 10
39.028333
 20
8.304656
 30
0.0
 41
12.0
 42
12.0
 43
12.0
 50
90.0
  0
LINE
  5
37A
330
424
100
AcDbEntity
  8
DIM
  6
Continuous
 62
     7
370
     0
100
AcDbLine
 10
38.9545
 20
8.304656
 30
0.0
 11
39.188104
 21
8.304656
 31
0.0
  0
LINE
  5
383
330
424
100
AcDbEntity
  8
DIM
  6
Continuous
 62
     7
370
     0
100
AcDbLine
 10
35.499844
 20
7.325969
 30
0.0
 11
35.2225
 21
7.359656
 31
0.0
  0
LINE
  5
384
330
424
100
AcDbEntity
  8
DIM
  6
Continuous
 62
     7
370
     0
100
AcDbLine
 10
35.496063
 20
7.992469
 30
0.0
 11
35.2225
 21
7.969052
 31
0.0
  0
INSERT
  5
385
330
424
100
AcDbEntity
  8
DIM
  6
Continuous
 62
     7
370
     0
100
AcDbBlockReference
  2
LARROW
 10
35.2225
 20
7.359656
 30
0.0
 41
12.000001
 42
12.000001
 43
12.000001
 50
173.074508
  0
INSERT
  5
387
330
424
100
AcDbEntity
  8
DIM
  6
Continuous
 62
     7
370
     0
100
AcDbBlockReference
  2
LARROW
 10
35.2225
 20
7.969052
 30
0.0
 41
12.000002
 42
12.000002
 43
12.000002
 50
184.892538
  0
LINE
  5
391
330
424
100
AcDbEntity
  8
DIM
  6
Continuous
 62
     7
370
     0
100
AcDbLine
 10
37.883187
 20
7.490937
 30
0.0
 11
37.6225
 21
7.398875
 31
0.0
  0
LINE
  5
392
330
424
100
AcDbEntity
  8
DIM
  6
Continuous
 62
     7
370
     0
100
AcDbLine
 10
37.883187
 20
8.060896
 30
0.0
 11
37.6225
 21
8.001375
 31
0.0
  0
LINE
  5
393
330
424
100
AcDbEntity
  8
DIM
  6
Continuous
 62
     7
370
     0
100
AcDbLine
 10
39.036196
 20
8.006305
 30
0.0
 11
39.2225
 21
7.949531
 31
0.0
  0
LINE
  5
394
330
424
100
AcDbEntity
  8
DIM
  6
Continuous
 62
     7
370
     0
100
AcDbLine
 10
38.863323
 20
7.272268
 30
0.0
 11
39.2225
 21
7.416042
 31
0.0
  0
INSERT
  5
395
330
424
100
AcDbEntity
  8
DIM
  6
Continuous
 62
     7
370
     0
100
AcDbBlockReference
  2
LARROW
 10
37.6225
 20
8.001375
 30
0.0
 41
12.000001
 42
12.000001
 43
12.000001
 50
192.861449
  0
INSERT
  5
397
330
424
100
AcDbEntity
  8
DIM
  6
Continuous
 62
     7
370
     0
100
AcDbBlockReference
  2
LARROW
 10
37.6225
 20
7.398875
 30
0.0
 41
12.0
 42
12.0
 43
12.0
 50
199.450823
  0
INSERT
  5
399
330
424
100
AcDbEntity
  8
DIM
  6
Continuous
 62
     7
370
     0
100
AcDbBlockReference
  2
LARROW
 10
39.2225
 20
7.416042
 30
0.0
 41
12.000001
 42
12.000001
 43
12.000001
 50
21.815492
  0
INSERT
  5
39B
330
424
100
AcDbEntity
  8
DIM
  6
Continuous
 62
     7
370
     0
100
AcDbBlockReference
  2
LARROW
 10
39.2225
 20
7.949531
 30
0.0
 41
12.0
 42
12.0
 43
12.0
 50
343.052068
  0
LWPOLYLINE
  5
39D
330
424
100
AcDbEntity
  8
NOTES
  6
Continuous
 62
     7
370
     0
100
AcDbPolyline
 90
        3
 70
   129
 43
0.0
 10
40.072177
 20
7.745437
 10
40.116552
 20
7.705687
 10
40.140302
 20
7.750062
  0
LWPOLYLINE
  5
39E
330
424
100
AcDbEntity
  8
NOTES
  6
Continuous
 62
     7
370
     0
100
AcDbPolyline
 90
        3
 70
   129
 43
0.0
 10
40.165177
 20
7.506573
 10
40.209552
 20
7.466823
 10
40.233302
 20
7.511198
  0
LINE
  5
39F
330
424
100
AcDbEntity
  8
NOTES
  6
Continuous
 62
     7
370
     0
100
AcDbLine
 10
40.134333
 20
7.999562
 30
0.0
 11
40.128708
 21
8.010438
 31
0.0
  0
LINE
  5
3A0
330
424
100
AcDbEntity
  8
NOTES
  6
Continuous
 62
     7
370
     0
100
AcDbLine
 10
40.105719
 20
7.613719
 30
0.0
 11
40.100094
 21
7.624594
 31
0.0
  0
LINE
  5
3A1
330
424
100
AcDbEntity
  8
NOTES
  6
Continuous
 62
     7
370
     0
100
AcDbLine
 10
40.23449
 20
7.779073
 30
0.0
 11
40.228865
 21
7.789948
 31
0.0
  0
LINE
  5
3A2
330
424
100
AcDbEntity
  8
NOTES
  6
Continuous
 62
     7
370
     0
100
AcDbLine
 10
40.205875
 20
7.93525
 30
0.0
 11
40.20025
 21
7.946125
 31
0.0
  0
LINE
  5
3A3
330
424
100
AcDbEntity
  8
NOTES
  6
Continuous
 62
     7
370
     0
100
AcDbLine
 10
40.105719
 20
7.384042
 30
0.0
 11
40.100094
 21
7.394917
 31
0.0
  0
LWPOLYLINE
  5
3A7
330
424
100
AcDbEntity
  8
DIM
  6
Continuous
 62
     7
370
     0
100
AcDbPolyline
 90
        3
 70
   128
 43
0.0
 10
34.971396
 20
5.991042
 10
35.105948
 20
5.991042
 10
34.926198
 20
6.274177
  0
INSERT
  5
3A8
330
424
100
AcDbEntity
  8
DIM
  6
Continuous
 62
     7
370
     0
100
AcDbBlockReference
  2
LARROW
 10
34.926198
 20
6.274177
 30
0.0
 41
12.000003
 42
12.000003
 43
12.000003
 50
122.409636
  0
LWPOLYLINE
  5
3B0
330
424
100
AcDbEntity
  8
DIM
  6
Continuous
 62
     7
370
     0
100
AcDbPolyline
 90
        3
 70
   128
 43
0.0
 10
34.201385
 20
6.574458
 10
34.300906
 20
6.574458
 10
34.519854
 20
6.868406
  0
LWPOLYLINE
  5
3B1
330
424
100
AcDbEntity
  8
DIM
  6
Continuous
 62
     7
370
     0
100
AcDbPolyline
 90
        3
 70
   128
 43
0.0
 10
37.97326
 20
6.715042
 10
37.883688
 20
6.727823
 10
37.6225
 20
6.864656
  0
INSERT
  5
3B3
330
424
100
AcDbEntity
  8
DIM
  6
Continuous
 62
     7
370
     0
100
AcDbBlockReference
  2
LARROW
 10
34.519854
 20
6.868406
 30
0.0
 41
12.000001
 42
12.000001
 43
12.000001
 50
53.319321
  0
INSERT
  5
3B5
330
424
100
AcDbEntity
  8
DIM
  6
Continuous
 62
     7
370
     0
100
AcDbBlockReference
  2
LARROW
 10
37.6225
 20
6.864656
 30
0.0
 41
12.000001
 42
12.000001
 43
12.000001
 50
152.350436
  0
INSERT
  5
3B7
330
424
100
AcDbEntity
  8
DIM
  6
Continuous
 62
     7
370
     0
100
AcDbBlockReference
  2
LARROW
 10
39.2225
 20
6.864656
 30
0.0
 41
11.999998
 42
11.999998
 43
11.999998
 50
25.233722
  0
TEXT
  5
5B
330
424
100
AcDbEntity
  8
REF
  6
Continuous
 62
     7
370
    30
100
AcDbText
 10
34.041719
 20
4.143354
 30
0.0
 40
0.12
  1
DEPTH & WIDTH : AS RECOMMENDED BY MANUFACTURER PER TYPE
  7
Style-Arial
 11
34.041719
 21
4.203354
 31
0.0
100
AcDbText
 73
     2
  0
TEXT
  5
5C
330
424
100
AcDbEntity
  8
NOTES
  6
Continuous
 62
     7
370
    30
100
AcDbText
 10
34.799208
 20
1.802958
 30
0.0
 40
0.12
  1
REFERENCE : TM 5-825-3/AFM 88-6, CHAPTER 3,
  7
Style-Arial
 11
34.799208
 21
1.862958
 31
0.0
100
AcDbText
 73
     2
  0
TEXT
  5
5D
330
424
100
AcDbEntity
  8
NOTES
  6
Continuous
 62
     7
370
    30
100
AcDbText
 10
35.412606
 20
1.616163
 30
0.0
 40
0.12
  1
            RIGID PAVEMENTS FOR AIRFIELDS
  7
Style-Arial
 11
35.412606
 21
1.676163
 31
0.0
100
AcDbText
 73
     2
  0
TEXT
  5
65
330
424
100
AcDbEntity
  8
2-13A
  6
Continuous
 62
     7
370
    30
100
AcDbText
 10
40.038294
 20
1.259742
 30
0.0
 40
0.12
  1
FIGURE
  7
Style-Arial
 11
40.038294
 21
1.319742
 31
0.0
100
AcDbText
 73
     2
  0
TEXT
  5
66
330
424
100
AcDbEntity
  8
2-13A
  6
Continuous
 62
     7
370
    30
100
AcDbText
 10
40.13116
 20
1.093317
 30
0.0
 40
0.12
  1
2-13c
  7
Style-Arial
 11
40.13116
 21
1.153317
 31
0.0
100
AcDbText
 73
     2
  0
TEXT
  5
67
330
424
100
AcDbEntity
  8
2-13A
  6
Continuous
 62
     7
370
    30
100
AcDbText
 10
38.957557
 20
1.259823
 30
0.0
 40
0.12
  1
DATE
  7
Style-Arial
 11
38.957557
 21
1.319823
 31
0.0
100
AcDbText
 73
     2
  0
TEXT
  5
68
330
424
100
AcDbEntity
  8
2-13A
  6
Continuous
 62
     7
370
    30
100
AcDbText
 10
38.805852
 20
1.09291
 30
0.0
 40
0.12
  1
AUG 1992
  7
Style-Arial
 11
38.805852
 21
1.15291
 31
0.0
100
AcDbText
 73
     2
  0
TEXT
  5
69
330
424
100
AcDbEntity
  8
REF
  6
Continuous
 62
     7
370
    30
100
AcDbText
 10
34.785227
 20
3.721865
 30
0.0
 40
0.12
  1
               1.5 INCHES)
  7
Style-Arial
 11
34.785227
 21
3.781865
 31
0.0
100
AcDbText
 73
     2
  0
TEXT
  5
6A
330
424
100
AcDbEntity
  8
REF
  6
Continuous
 62
     7
370
    30
100
AcDbText
 10
34.031521
 20
3.30899
 30
0.0
 40
0.12
  1
TOP OF PREFORMED SEAL WILL BE 1/8 - 1/4 INCH BELOW
  7
Style-Arial
 11
34.031521
 21
3.36899
 31
0.0
100
AcDbText
 73
     2
  0
TEXT
  5
6B
330
424
100
AcDbEntity
  8
REF
  6
Continuous
 62
     7
370
    30
100
AcDbText
 10
34.052385
 20
2.667875
 30
0.0
 40
0.12
  1
COMPRESSION SEAL MUST BE IN COMPRESSION AT ALL TIMES.
  7
Style-Arial
 11
34.052385
 21
2.727875
 31
0.0
100
AcDbText
 73
     2
  0
TEXT
  5
6C
330
424
100
AcDbEntity
  8
REF
  6
Continuous
 62
     7
370
    30
100
AcDbText
 10
34.031521
 20
3.070625
 30
0.0
 40
0.12
  1
PAVEMENT SURFACE
  7
Style-Arial
 11
34.031521
 21
3.130625
 31
0.0
100
AcDbText
 73
     2
  0
TEXT
  5
BE
330
424
100
AcDbEntity
  8
DIM
  6
Continuous
 62
     7
370
    30
100
AcDbText
 10
34.244781
 20
9.301562
 30
0.0
 40
0.12
  1
CONTRACTION
  7
Style-Arial
 11
34.244781
 21
9.361562
 31
0.0
100
AcDbText
 73
     2
  0
TEXT
  5
BF
330
424
100
AcDbEntity
  8
DIM
  6
Continuous
 62
     7
370
    30
100
AcDbText
 10
34.551844
 20
9.099219
 30
0.0
 40
0.12
  1
JOINT
  7
Style-Arial
 11
34.551844
 21
9.159219
 31
0.0
100
AcDbText
 73
     2
  0
TEXT
  5
C0
330
424
100
AcDbEntity
  8
DIM
  6
Continuous
 62
     7
370
    30
100
AcDbText
 10
36.556354
 20
9.313698
 30
0.0
 40
0.12
  1
CONSTRUCTION
  7
Style-Arial
 11
36.556354
 21
9.373698
 31
0.0
100
AcDbText
 73
     2
  0
TEXT
  5
C1
330
424
100
AcDbEntity
  8
DIM
  6
Continuous
 62
     7
370
    30
100
AcDbText
 10
39.090354
 20
9.31199
 30
0.0
 40
0.12
  1
EXPANSION
  7
Style-Arial
 11
39.090354
 21
9.37199
 31
0.0
100
AcDbText
 73
     2
  0
TEXT
  5
C2
330
424
100
AcDbEntity
  8
DIM
  6
Continuous
 62
     7
370
    30
100
AcDbText
 10
36.903281
 20
9.099219
 30
0.0
 40
0.12
  1
JOINT
  7
Style-Arial
 11
36.903281
 21
9.159219
 31
0.0
100
AcDbText
 73
     2
  0
TEXT
  5
C3
330
424
100
AcDbEntity
  8
DIM
  6
Continuous
 62
     7
370
    30
100
AcDbText
 10
39.275687
 20
9.095792
 30
0.0
 40
0.12
  1
JOINT
  7
Style-Arial
 11
39.275687
 21
9.155792
 31
0.0
100
AcDbText
 73
     2
  0
MTEXT
  5
CA
330
424
100
AcDbEntity
  8
DIM
  6
Continuous
 62
     7
370
    13
100
AcDbMText
 10
38.08825
 20
8.613412
 30
0.0
 40
0.12
 41
0.0
 71
     4
 72
     1
  1
PAVEMENT\PSURFACE\P
  7
Style-Arial
 73
     2
 44
0.779643
  0
MTEXT
  5
D6
330
424
100
AcDbEntity
  8
DIM
  6
Continuous
 62
     7
370
    13
100
AcDbMText
 10
35.546219
 20
8.633683
 30
0.0
 40
0.12
 41
0.0
 71
     4
 72
     1
  1
PAVEMENT\PSURFACE\P
  7
Style-Arial
 73
     2
 44
0.779643
  0
TEXT
  5
E3
330
424
100
AcDbEntity
  8
DIM
  6
Continuous
 62
     7
370
    30
100
AcDbText
 10
39.397476
 20
6.413466
 30
0.0
 40
0.12
  1
JOINT
  7
Style-Arial
 11
39.397476
 21
6.473466
 31
0.0
100
AcDbText
 73
     2
  0
TEXT
  5
E4
330
424
100
AcDbEntity
  8
DIM
  6
Continuous
 62
     7
370
    30
100
AcDbText
 10
39.380917
 20
6.254886
 30
0.0
 40
0.12
  1
FILLER
  7
Style-Arial
 11
39.380917
 21
6.314886
 31
0.0
100
AcDbText
 73
     2
  0
TEXT
  5
102
330
424
100
AcDbEntity
  8
DIM
  6
Continuous
 62
     7
370
    13
100
AcDbText
 10
34.748357
 20
8.702781
 30
0.0
 40
0.12
  1
W
  7
Style-Arial
 11
34.748357
 21
8.762781
 31
0.0
100
AcDbText
 73
     2
  0
TEXT
  5
10A
330
424
100
AcDbEntity
  8
DIM
  6
Continuous
 62
     7
370
    13
100
AcDbText
 10
37.158536
 20
8.702781
 30
0.0
 40
0.12
  1
W
  7
Style-Arial
 11
37.158536
 21
8.762781
 31
0.0
100
AcDbText
 73
     2
  0
TEXT
  5
112
330
424
100
AcDbEntity
  8
DIM
  6
Continuous
 62
     7
370
    13
100
AcDbText
 10
39.550392
 20
8.702781
 30
0.0
 40
0.12
  1
W
  7
Style-Arial
 11
39.550392
 21
8.762781
 31
0.0
100
AcDbText
 73
     2
  0
MTEXT
  5
115
330
424
100
AcDbEntity
  8
DIM
  6
Continuous
 62
     7
370
    13
100
AcDbMText
 10
35.472729
 20
6.481944
 30
0.0
 40
0.12
 41
0.0
 71
     4
 72
     1
  1
INITAL\PSAWCUT (     )\POR INSERT\P
  7
Style-Arial
 73
     2
 44
0.779643
  0
MTEXT
  5
124
330
424
100
AcDbEntity
  8
DIM
  6
Continuous
 62
     7
370
    13
100
AcDbMText
 10
39.560386
 20
5.553781
 30
0.0
 40
0.12
 41
0.0
 71
     4
 72
     1
  1
{\A0;\S3#4;}"
  7
Style-Arial
 73
     2
 44
1.382053
  0
TEXT
  5
125
330
424
100
AcDbEntity
  8
DIM
  6
Continuous
 62
     7
370
    13
100
AcDbText
 10
39.511219
 20
5.351219
 30
0.0
 40
0.12
  1
MIN.
  7
Style-Arial
 11
39.511219
 21
5.411219
 31
0.0
100
AcDbText
 73
     2
  0
MTEXT
  5
126
330
424
100
AcDbEntity
  8
DIM
  6
Continuous
 62
     7
370
    13
100
AcDbMText
 10
36.285185
 20
6.487926
 30
0.0
 40
0.12
 41
0.0
 71
     4
 72
     1
  1
{\A0;\S1#8;}"
  7
Style-Arial
 73
     2
 44
1.382053
  0
TEXT
  5
12A
330
424
100
AcDbEntity
  8
DIM
  6
Continuous
 62
     7
370
    13
100
AcDbText
 10
37.651094
 20
6.371531
 30
0.0
 40
0.12
  1
BUTTED
  7
Style-Arial
 11
37.651094
 21
6.431531
 31
0.0
100
AcDbText
 73
     2
  0
TEXT
  5
12C
330
424
100
AcDbEntity
  8
DIM
  6
Continuous
 62
     7
370
    13
100
AcDbText
 10
37.677927
 20
6.206958
 30
0.0
 40
0.12
  1
JOINT
  7
Style-Arial
 11
37.677927
 21
6.266958
 31
0.0
100
AcDbText
 73
     2
  0
TEXT
  5
360
330
424
100
AcDbEntity
  8
REF
  6
Continuous
 62
     7
370
    30
100
AcDbText
 10
34.78245
 20
3.929927
 30
0.0
 40
0.12
  1
               OF SEAL BEING USED, (DEPTH NOT LESS THAN
  7
Style-Arial
 11
34.78245
 21
3.989927
 31
0.0
100
AcDbText
 73
     2
  0
TEXT
  5
363
330
424
100
AcDbEntity
  8
DIM
  6
Continuous
 62
     7
370
    30
100
AcDbText
 10
34.202292
 20
7.578885
 30
0.0
 40
0.12
  1
D
 50
90.0
  7
Style-Arial
 11
34.142292
 21
7.578885
 31
0.0
100
AcDbText
 73
     2
  0
TEXT
  5
36F
330
424
100
AcDbEntity
  8
DIM
  6
Continuous
 62
     7
370
    30
100
AcDbText
 10
36.602292
 20
7.578885
 30
0.0
 40
0.12
  1
D
 50
90.0
  7
Style-Arial
 11
36.542292
 21
7.578885
 31
0.0
100
AcDbText
 73
     2
  0
TEXT
  5
377
330
424
100
AcDbEntity
  8
DIM
  6
Continuous
 62
     7
370
    30
100
AcDbText
 10
39.002292
 20
7.578885
 30
0.0
 40
0.12
  1
D
 50
90.0
  7
Style-Arial
 11
38.942292
 21
7.578885
 31
0.0
100
AcDbText
 73
     2
  0
MTEXT
  5
37B
330
424
100
AcDbEntity
  8
DIM
  6
Continuous
 62
     7
370
    13
100
AcDbMText
 10
35.536906
 20
7.821673
 30
0.0
 40
0.12
 41
0.0
 71
     4
 72
     1
  1
PREFORMED\PCOMPRESSION\PSEAL\P
  7
Style-Arial
 73
     2
 44
0.779643
  0
MTEXT
  5
37F
330
424
100
AcDbEntity
  8
DIM
  6
Continuous
 62
     7
370
    13
100
AcDbMText
 10
35.549167
 20
7.16385
 30
0.0
 40
0.12
 41
0.0
 71
     4
 72
     1
  1
LUBRICATE\P  AS\PSPECIFIED\P
  7
Style-Arial
 73
     2
 44
0.779643
  0
MTEXT
  5
389
330
424
100
AcDbEntity
  8
DIM
  6
Continuous
 62
     7
370
    13
100
AcDbMText
 10
37.946312
 20
7.899506
 30
0.0
 40
0.12
 41
0.0
 71
     4
 72
     1
  1
PREFORMED\PCOMPRESSION\PSEAL\P
  7
Style-Arial
 73
     2
 44
0.779643
  0
MTEXT
  5
38D
330
424
100
AcDbEntity
  8
DIM
  6
Continuous
 62
     7
370
    13
100
AcDbMText
 10
37.943427
 20
7.338985
 30
0.0
 40
0.12
 41
0.0
 71
     4
 72
     1
  1
LUBRICATE\P  AS\PSPECIFIED\P
  7
Style-Arial
 73
     2
 44
0.779643
  0
TEXT
  5
3A4
330
424
100
AcDbEntity
  8
Level 10
  6
Continuous
 62
     7
370
    30
100
AcDbText
 10
34.232347
 20
1.053244
 30
0.0
 40
0.12
  1
COMPRESSION SEAL) FOR RIGID PAVEMENT
  7
Style-Arial
 11
34.232347
 21
1.113244
 31
0.0
100
AcDbText
 73
     2
  0
TEXT
  5
3A5
330
424
100
AcDbEntity
  8
Level 10
  6
Continuous
 62
     7
370
    30
100
AcDbText
 10
34.464336
 20
1.27838
 30
0.0
 40
0.12
  1
JOINT SEALANT DETAILS (PREFORMED
  7
Style-Arial
 11
34.464336
 21
1.33838
 31
0.0
100
AcDbText
 73
     2
  0
TEXT
  5
3A6
330
424
100
AcDbEntity
  8
DIM
  6
Continuous
 62
     7
370
    13
100
AcDbText
 10
34.33774
 20
5.93726
 30
0.0
 40
0.12
  1
CRACK
  7
Style-Arial
 11
34.33774
 21
5.99726
 31
0.0
100
AcDbText
 73
     2
  0
MTEXT
  5
3AA
330
424
100
AcDbEntity
  8
DIM
  6
Continuous
 62
     7
370
    13
100
AcDbMText
 10
33.829221
 20
6.4816
 30
0.0
 40
0.12
 41
0.0
 71
     4
 72
     1
  1
JOINT\PBOTTOM\P
  7
Style-Arial
 73
     2
 44
0.779643
  0
MTEXT
  5
3AD
330
424
100
AcDbEntity
  8
DIM
  6
Continuous
 62
     7
370
    13
100
AcDbMText
 10
38.071055
 20
6.678943
 30
0.0
 40
0.12
 41
0.0
 71
     4
 72
     1
  1
JOINT\PBOTTOM\P
  7
Style-Arial
 73
     2
 44
0.779643
  0
LINE
  5
40D
330
424
100
AcDbEntity
  8
DIM
  6
Continuous
 62
     7
370
     0
100
AcDbLine
 10
36.628333
 20
7.735523
 30
0.0
 11
36.628333
 21
6.864656
 31
0.0
  0
LINE
  5
40E
330
424
100
AcDbEntity
  8
DIM
  6
Continuous
 62
     7
370
     0
100
AcDbLine
 10
39.028333
 20
7.802331
 30
0.0
 11
39.028333
 21
6.864656
 31
0.0
  0
LWPOLYLINE
  5
3B2
330
424
100
AcDbEntity
  8
DIM
  6
Continuous
 62
     7
370
     0
100
AcDbPolyline
 90
        2
 70
   128
 43
0.0
 10
38.870016
 20
6.698536
 10
39.2225
 20
6.864656
  0
LINE
  5
40F
330
424
100
AcDbEntity
  8
NOTES
  6
Continuous
 62
     7
370
    30
100
AcDbLine
 10
39.964695
 20
6.303299
 30
0.0
 11
40.0225
 21
6.361104
 31
0.0
  0
ENDSEC
  0
SECTION
  2
OBJECTS
  0
DICTIONARY
  5
418
330
0
100
AcDbDictionary
281
     1
  3
ACAD_COLOR
350
437
  3
ACAD_GROUP
350
434
  3
ACAD_LAYOUT
350
428
  3
ACAD_MATERIAL
350
436
  3
ACAD_MLINESTYLE
350
422
  3
ACAD_PLOTSETTINGS
350
435
  3
ACAD_PLOTSTYLENAME
350
417
  3
ACAD_TABLESTYLE
350
44E
  3
AcadDim
350
444
  3
MicroStation
350
43C
  0
DICTIONARY
  5
414
330
413
100
AcDbDictionary
280
     1
281
     1
  3
ACAD_LAYERFILTERS
360
43B
  3
ACAD_LAYERSTATES
360
415
  0
DICTIONARY
  5
44A
330
424
100
AcDbDictionary
280
     1
281
     1
  3
ACAD_SORTENTS
360
44B
  0
DICTIONARY
  5
437
102
{ACAD_REACTORS
330
418
102
}
330
418
100
AcDbDictionary
281
     1
  0
DICTIONARY
  5
434
102
{ACAD_REACTORS
330
418
102
}
330
418
100
AcDbDictionary
281
     1
  0
DICTIONARY
  5
428
102
{ACAD_REACTORS
330
418
102
}
330
418
100
AcDbDictionary
281
     1
  3
Layout1
350
42C
  3
Model
350
427
  0
DICTIONARY
  5
436
102
{ACAD_REACTORS
330
418
102
}
330
418
100
AcDbDictionary
281
     1
  0
DICTIONARY
  5
422
102
{ACAD_REACTORS
330
418
102
}
330
418
100
AcDbDictionary
281
     1
  3
Standard
350
421
  0
DICTIONARY
  5
435
102
{ACAD_REACTORS
330
418
102
}
330
418
100
AcDbDictionary
281
     1
  0
ACDBDICTIONARYWDFLT
  5
417
102
{ACAD_REACTORS
330
418
102
}
330
418
100
AcDbDictionary
281
     1
  3
Normal
350
416
100
AcDbDictionaryWithDefault
340
416
  0
DICTIONARY
  5
44E
102
{ACAD_REACTORS
330
418
102
}
330
418
100
AcDbDictionary
281
     1
  0
XRECORD
  5
444
102
{ACAD_REACTORS
330
418
102
}
330
418
100
AcDbXrecord
280
     1
 90
   990106
  3
 
 60
     0
 61
     0
 62
     1
 63
     1
 64
     0
 65
     0
 66
     0
 67
     3
 68
     1
 69
     1
 70
     0
 71
     0
 72
     0
 40
0.0
170
     0
  0
DICTIONARY
  5
43C
102
{ACAD_REACTORS
330
418
102
}
330
418
100
AcDbDictionary
281
     1
  3
ApplicationElement 1027
350
403
  3
ApplicationElement 1040
350
410
  3
ModelApplicationElement 0 1026
350
402
  0
DICTIONARY
  5
43B
102
{ACAD_REACTORS
330
414
102
}
330
414
100
AcDbDictionary
281
     1
  0
DICTIONARY
  5
415
102
{ACAD_REACTORS
330
414
102
}
330
414
100
AcDbDictionary
281
     1
  0
SORTENTSTABLE
  5
44B
102
{ACAD_REACTORS
330
44A
102
}
330
44A
100
AcDbSortentsTable
330
424
331
5B
  5
370
331
5C
  5
372
331
5D
  5
373
331
5E
  5
5B
331
5F
  5
5C
331
60
  5
5D
331
61
  5
5E
331
62
  5
5F
331
63
  5
60
331
64
  5
61
331
65
  5
374
331
66
  5
375
331
67
  5
377
331
68
  5
378
331
69
  5
37A
331
6A
  5
37B
331
6B
  5
37F
331
6C
  5
383
331
6D
  5
62
331
6E
  5
63
331
6F
  5
64
331
70
  5
65
331
71
  5
66
331
72
  5
67
331
73
  5
68
331
74
  5
69
331
77
  5
6A
331
78
  5
6B
331
79
  5
6C
331
7A
  5
6D
331
7B
  5
6E
331
7C
  5
6F
331
7D
  5
70
331
7E
  5
71
331
7F
  5
72
331
80
  5
73
331
81
  5
74
331
82
  5
77
331
83
  5
78
331
84
  5
79
331
85
  5
7A
331
86
  5
7B
331
87
  5
7C
331
88
  5
7D
331
89
  5
7E
331
8A
  5
7F
331
8B
  5
80
331
8C
  5
81
331
8D
  5
82
331
8E
  5
83
331
8F
  5
84
331
90
  5
85
331
91
  5
86
331
92
  5
87
331
93
  5
88
331
94
  5
89
331
95
  5
8A
331
96
  5
8B
331
97
  5
8C
331
98
  5
8D
331
99
  5
8E
331
9A
  5
8F
331
9B
  5
90
331
9C
  5
91
331
9D
  5
92
331
9E
  5
93
331
9F
  5
94
331
A0
  5
95
331
A1
  5
96
331
A2
  5
97
331
A3
  5
98
331
A4
  5
99
331
A5
  5
9A
331
A6
  5
9B
331
A7
  5
9C
331
A8
  5
9D
331
A9
  5
9E
331
AA
  5
9F
331
AB
  5
A0
331
AC
  5
A1
331
AD
  5
A2
331
AE
  5
A3
331
AF
  5
A4
331
B0
  5
A5
331
B1
  5
A6
331
B2
  5
A7
331
B3
  5
A8
331
B4
  5
A9
331
B5
  5
AA
331
B6
  5
AB
331
B7
  5
AC
331
B8
  5
AD
331
B9
  5
AE
331
BA
  5
AF
331
BB
  5
B0
331
BC
  5
B1
331
BD
  5
B2
331
BE
  5
384
331
BF
  5
385
331
C0
  5
387
331
C1
  5
389
331
C2
  5
38D
331
C3
  5
391
331
C4
  5
B3
331
C5
  5
B4
331
C6
  5
B5
331
C7
  5
B6
331
C8
  5
B7
331
C9
  5
B8
331
CA
  5
392
331
CD
  5
B9
331
CE
  5
BA
331
D0
  5
BB
331
D1
  5
BC
331
D2
  5
BD
331
D4
  5
BE
331
D6
  5
393
331
D9
  5
BF
331
DA
  5
C0
331
DB
  5
C1
331
DC
  5
C2
331
DD
  5
C3
331
DE
  5
C4
331
DF
  5
C5
331
E0
  5
C6
331
E1
  5
C7
331
E2
  5
C8
331
E3
  5
394
331
E4
  5
395
331
E5
  5
C9
331
E6
  5
CA
331
E7
  5
CD
331
E8
  5
CE
331
E9
  5
D0
331
EA
  5
D1
331
EB
  5
D2
331
EC
  5
D4
331
ED
  5
D6
331
EE
  5
D9
331
EF
  5
DA
331
F0
  5
DB
331
F1
  5
DC
331
F2
  5
DD
331
F3
  5
DE
331
F4
  5
DF
331
F5
  5
E0
331
F6
  5
E1
331
F7
  5
E2
331
F8
  5
E3
331
F9
  5
E4
331
FA
  5
E5
331
FB
  5
E6
331
FC
  5
E7
331
FD
  5
E8
331
FE
  5
E9
331
100
  5
EA
331
102
  5
397
331
103
  5
EB
331
104
  5
EC
331
105
  5
ED
331
106
  5
EE
331
108
  5
EF
331
10A
  5
399
331
10B
  5
F0
331
10C
  5
F1
331
10D
  5
F2
331
10E
  5
F3
331
110
  5
F4
331
112
  5
39B
331
113
  5
F5
331
114
  5
F6
331
115
  5
39D
331
119
  5
F7
331
11A
  5
F8
331
11B
  5
F9
331
11D
  5
FA
331
11E
  5
FB
331
11F
  5
FC
331
120
  5
FD
331
122
  5
FE
331
124
  5
39E
331
125
  5
39F
331
126
  5
3A0
331
127
  5
100
331
128
  5
102
331
12A
  5
3A1
331
12B
  5
103
331
12C
  5
3A2
331
12D
  5
104
331
12E
  5
105
331
12F
  5
106
331
130
  5
108
331
131
  5
10A
331
132
  5
10B
331
133
  5
10C
331
134
  5
10D
331
135
  5
10E
331
136
  5
110
331
137
  5
112
331
138
  5
113
331
139
  5
114
331
13A
  5
115
331
13B
  5
119
331
13C
  5
11A
331
13D
  5
11B
331
13E
  5
11D
331
13F
  5
11E
331
140
  5
11F
331
141
  5
120
331
142
  5
122
331
143
  5
124
331
144
  5
125
331
145
  5
126
331
146
  5
127
331
147
  5
128
331
148
  5
12A
331
149
  5
12B
331
14A
  5
12C
331
14B
  5
12D
331
14C
  5
12E
331
14D
  5
12F
331
14E
  5
130
331
14F
  5
131
331
150
  5
132
331
151
  5
133
331
152
  5
134
331
153
  5
135
331
154
  5
136
331
155
  5
137
331
156
  5
138
331
157
  5
139
331
158
  5
13A
331
159
  5
13B
331
15A
  5
13C
331
15B
  5
13D
331
15C
  5
13E
331
15D
  5
13F
331
15E
  5
140
331
15F
  5
141
331
160
  5
142
331
161
  5
143
331
162
  5
144
331
163
  5
145
331
164
  5
146
331
165
  5
147
331
166
  5
148
331
167
  5
149
331
168
  5
14A
331
169
  5
14B
331
16A
  5
14C
331
16B
  5
14D
331
16C
  5
14E
331
16D
  5
14F
331
16E
  5
150
331
16F
  5
151
331
170
  5
152
331
171
  5
153
331
172
  5
154
331
173
  5
155
331
174
  5
156
331
175
  5
157
331
176
  5
158
331
177
  5
159
331
178
  5
15A
331
179
  5
15B
331
17A
  5
15C
331
17B
  5
15D
331
17C
  5
15E
331
17D
  5
15F
331
17E
  5
160
331
17F
  5
161
331
180
  5
162
331
181
  5
163
331
182
  5
164
331
183
  5
165
331
184
  5
166
331
185
  5
167
331
186
  5
168
331
187
  5
169
331
188
  5
16A
331
189
  5
16B
331
18A
  5
16C
331
18B
  5
16D
331
18C
  5
16E
331
18D
  5
16F
331
18E
  5
170
331
18F
  5
171
331
190
  5
172
331
191
  5
173
331
192
  5
174
331
193
  5
175
331
194
  5
176
331
195
  5
177
331
196
  5
178
331
197
  5
179
331
198
  5
17A
331
199
  5
17B
331
19A
  5
17C
331
19B
  5
17D
331
19C
  5
17E
331
19D
  5
17F
331
19E
  5
180
331
19F
  5
181
331
1A0
  5
182
331
1A1
  5
183
331
1A2
  5
184
331
1A3
  5
185
331
1A4
  5
186
331
1A5
  5
187
331
1A6
  5
188
331
1A7
  5
189
331
1A8
  5
18A
331
1A9
  5
18B
331
1AA
  5
18C
331
1AB
  5
18D
331
1AC
  5
18E
331
1AD
  5
18F
331
1AE
  5
190
331
1AF
  5
191
331
1B0
  5
192
331
1B1
  5
193
331
1B2
  5
194
331
1B3
  5
195
331
1B4
  5
196
331
1B5
  5
197
331
1B6
  5
198
331
1B7
  5
199
331
1B8
  5
19A
331
1B9
  5
19B
331
1BA
  5
19C
331
1BB
  5
19D
331
1BC
  5
19E
331
1BD
  5
19F
331
1BE
  5
1A0
331
1BF
  5
1A1
331
1C0
  5
1A2
331
1C1
  5
1A3
331
1C2
  5
1A4
331
1C3
  5
1A5
331
1C4
  5
1A6
331
1C5
  5
1A7
331
1C6
  5
1A8
331
1C7
  5
1A9
331
1C8
  5
1AA
331
1C9
  5
1AB
331
1CA
  5
1AC
331
1CB
  5
1AD
331
1CC
  5
1AE
331
1CD
  5
1AF
331
1CE
  5
1B0
331
1CF
  5
1B1
331
1D0
  5
1B2
331
1D1
  5
1B3
331
1D2
  5
1B4
331
1D3
  5
1B5
331
1D4
  5
1B6
331
1D5
  5
1B7
331
1D6
  5
1B8
331
1D7
  5
1B9
331
1D8
  5
1BA
331
1D9
  5
1BB
331
1DA
  5
1BC
331
1DB
  5
1BD
331
1DC
  5
1BE
331
1DD
  5
1BF
331
1DE
  5
1C0
331
1DF
  5
1C1
331
1E0
  5
1C2
331
1E1
  5
1C3
331
1E2
  5
1C4
331
1E3
  5
1C5
331
1E4
  5
1C6
331
1E5
  5
1C7
331
1E6
  5
1C8
331
1E7
  5
1C9
331
1E8
  5
1CA
331
1E9
  5
1CB
331
1EA
  5
1CC
331
1EB
  5
1CD
331
1EC
  5
1CE
331
1ED
  5
1CF
331
1EE
  5
1D0
331
1EF
  5
1D1
331
1F0
  5
1D2
331
1F1
  5
1D3
331
1F2
  5
1D4
331
1F3
  5
1D5
331
1F4
  5
1D6
331
1F5
  5
1D7
331
1F6
  5
1D8
331
1F7
  5
1D9
331
1F8
  5
1DA
331
1F9
  5
1DB
331
1FA
  5
1DC
331
1FB
  5
1DD
331
1FC
  5
1DE
331
1FD
  5
1DF
331
1FE
  5
1E0
331
1FF
  5
1E1
331
200
  5
1E2
331
201
  5
1E3
331
202
  5
1E4
331
203
  5
1E5
331
204
  5
1E6
331
205
  5
1E7
331
206
  5
1E8
331
207
  5
1E9
331
208
  5
1EA
331
209
  5
1EB
331
20A
  5
1EC
331
20B
  5
1ED
331
20C
  5
1EE
331
20D
  5
1EF
331
20E
  5
1F0
331
20F
  5
1F1
331
210
  5
1F2
331
211
  5
1F3
331
212
  5
1F4
331
213
  5
1F5
331
214
  5
1F6
331
215
  5
1F7
331
216
  5
1F8
331
217
  5
1F9
331
218
  5
1FA
331
219
  5
1FB
331
21A
  5
1FC
331
21B
  5
1FD
331
21C
  5
1FE
331
21D
  5
1FF
331
21E
  5
200
331
21F
  5
201
331
220
  5
202
331
221
  5
203
331
222
  5
204
331
223
  5
205
331
224
  5
206
331
225
  5
207
331
226
  5
208
331
227
  5
209
331
228
  5
20A
331
229
  5
20B
331
22A
  5
20C
331
22B
  5
20D
331
22C
  5
20E
331
22D
  5
20F
331
22E
  5
210
331
22F
  5
211
331
230
  5
212
331
231
  5
213
331
232
  5
214
331
233
  5
215
331
234
  5
216
331
235
  5
217
331
236
  5
218
331
237
  5
219
331
238
  5
21A
331
239
  5
21B
331
23A
  5
21C
331
23B
  5
21D
331
23C
  5
21E
331
23D
  5
21F
331
23E
  5
220
331
23F
  5
221
331
240
  5
222
331
241
  5
223
331
242
  5
224
331
243
  5
225
331
244
  5
226
331
245
  5
227
331
246
  5
228
331
247
  5
229
331
248
  5
22A
331
249
  5
22B
331
24A
  5
22C
331
24B
  5
22D
331
24C
  5
22E
331
24D
  5
22F
331
24E
  5
230
331
24F
  5
231
331
250
  5
232
331
251
  5
233
331
252
  5
234
331
253
  5
235
331
254
  5
236
331
255
  5
237
331
256
  5
238
331
257
  5
239
331
258
  5
23A
331
259
  5
23B
331
25A
  5
23C
331
25B
  5
23D
331
25C
  5
23E
331
25D
  5
23F
331
25E
  5
240
331
25F
  5
241
331
260
  5
242
331
261
  5
243
331
262
  5
244
331
263
  5
245
331
264
  5
246
331
265
  5
247
331
266
  5
248
331
267
  5
249
331
268
  5
24A
331
269
  5
24B
331
26A
  5
24C
331
26B
  5
24D
331
26C
  5
24E
331
26D
  5
24F
331
26E
  5
250
331
26F
  5
251
331
270
  5
252
331
271
  5
253
331
272
  5
254
331
273
  5
255
331
274
  5
256
331
275
  5
257
331
276
  5
258
331
277
  5
259
331
278
  5
25A
331
279
  5
25B
331
27A
  5
25C
331
27B
  5
25D
331
27C
  5
25E
331
27D
  5
25F
331
27E
  5
260
331
27F
  5
261
331
280
  5
262
331
281
  5
263
331
282
  5
264
331
283
  5
265
331
284
  5
266
331
285
  5
267
331
286
  5
268
331
287
  5
269
331
288
  5
26A
331
289
  5
26B
331
28A
  5
26C
331
28B
  5
26D
331
28C
  5
26E
331
28D
  5
26F
331
28E
  5
270
331
28F
  5
271
331
290
  5
272
331
291
  5
273
331
292
  5
274
331
293
  5
275
331
294
  5
276
331
295
  5
277
331
296
  5
278
331
297
  5
279
331
298
  5
27A
331
299
  5
27B
331
29A
  5
27C
331
29B
  5
27D
331
29C
  5
27E
331
29D
  5
27F
331
29E
  5
280
331
29F
  5
281
331
2A0
  5
282
331
2A1
  5
283
331
2A2
  5
284
331
2A3
  5
285
331
2A4
  5
286
331
2A5
  5
287
331
2A6
  5
288
331
2A7
  5
289
331
2A8
  5
28A
331
2A9
  5
28B
331
2AA
  5
28C
331
2AB
  5
28D
331
2AC
  5
28E
331
2AD
  5
28F
331
2AE
  5
290
331
2AF
  5
291
331
2B0
  5
292
331
2B1
  5
293
331
2B2
  5
294
331
2B3
  5
295
331
2B4
  5
296
331
2B5
  5
297
331
2B6
  5
298
331
2B7
  5
299
331
2B8
  5
29A
331
2B9
  5
29B
331
2BA
  5
29C
331
2BB
  5
29D
331
2BC
  5
29E
331
2BD
  5
29F
331
2BE
  5
2A0
331
2BF
  5
2A1
331
2C0
  5
2A2
331
2C1
  5
2A3
331
2C2
  5
2A4
331
2C3
  5
2A5
331
2C4
  5
2A6
331
2C5
  5
2A7
331
2C6
  5
2A8
331
2C7
  5
2A9
331
2C8
  5
2AA
331
2C9
  5
2AB
331
2CA
  5
2AC
331
2CB
  5
2AD
331
2CC
  5
2AE
331
2CD
  5
2AF
331
2CE
  5
2B0
331
2CF
  5
2B1
331
2D0
  5
2B2
331
2D1
  5
2B3
331
2D2
  5
2B4
331
2D3
  5
2B5
331
2D4
  5
2B6
331
2D5
  5
2B7
331
2D6
  5
2B8
331
2D7
  5
2B9
331
2D8
  5
2BA
331
2D9
  5
2BB
331
2DA
  5
2BC
331
2DB
  5
2BD
331
2DC
  5
2BE
331
2DD
  5
2BF
331
2DE
  5
2C0
331
2DF
  5
2C1
331
2E0
  5
2C2
331
2E1
  5
2C3
331
2E2
  5
2C4
331
2E3
  5
2C5
331
2E4
  5
2C6
331
2E5
  5
2C7
331
2E6
  5
2C8
331
2E7
  5
2C9
331
2E8
  5
2CA
331
2E9
  5
2CB
331
2EA
  5
2CC
331
2EB
  5
2CD
331
2EC
  5
2CE
331
2ED
  5
2CF
331
2EE
  5
2D0
331
2EF
  5
2D1
331
2F0
  5
2D2
331
2F1
  5
2D3
331
2F2
  5
2D4
331
2F3
  5
2D5
331
2F4
  5
2D6
331
2F5
  5
2D7
331
2F6
  5
2D8
331
2F7
  5
2D9
331
2F8
  5
2DA
331
2F9
  5
2DB
331
2FA
  5
2DC
331
2FB
  5
2DD
331
2FC
  5
2DE
331
2FD
  5
2DF
331
2FE
  5
2E0
331
2FF
  5
2E1
331
300
  5
2E2
331
301
  5
2E3
331
302
  5
2E4
331
303
  5
2E5
331
304
  5
2E6
331
305
  5
2E7
331
306
  5
2E8
331
307
  5
2E9
331
308
  5
2EA
331
309
  5
2EB
331
30A
  5
2EC
331
30B
  5
2ED
331
30C
  5
2EE
331
30D
  5
2EF
331
30E
  5
2F0
331
30F
  5
2F1
331
310
  5
2F2
331
311
  5
2F3
331
312
  5
2F4
331
313
  5
2F5
331
314
  5
2F6
331
315
  5
2F7
331
316
  5
2F8
331
317
  5
2F9
331
318
  5
2FA
331
319
  5
2FB
331
31A
  5
2FC
331
31B
  5
2FD
331
31C
  5
2FE
331
31D
  5
2FF
331
31E
  5
300
331
31F
  5
301
331
320
  5
302
331
321
  5
303
331
322
  5
304
331
323
  5
305
331
324
  5
306
331
325
  5
307
331
326
  5
308
331
327
  5
309
331
328
  5
30A
331
329
  5
30B
331
32A
  5
30C
331
32B
  5
30D
331
32C
  5
30E
331
32D
  5
30F
331
32E
  5
310
331
32F
  5
311
331
330
  5
312
331
331
  5
313
331
332
  5
314
331
333
  5
315
331
334
  5
316
331
335
  5
317
331
336
  5
318
331
337
  5
319
331
338
  5
31A
331
339
  5
31B
331
33A
  5
31C
331
33B
  5
31D
331
33C
  5
31E
331
33D
  5
31F
331
33E
  5
320
331
33F
  5
321
331
340
  5
322
331
341
  5
323
331
342
  5
324
331
343
  5
325
331
344
  5
326
331
345
  5
327
331
346
  5
328
331
347
  5
329
331
348
  5
32A
331
349
  5
32B
331
34A
  5
32C
331
34B
  5
32D
331
34C
  5
32E
331
34D
  5
32F
331
34E
  5
330
331
34F
  5
331
331
350
  5
332
331
351
  5
333
331
352
  5
334
331
353
  5
335
331
354
  5
336
331
355
  5
337
331
356
  5
338
331
357
  5
339
331
358
  5
33A
331
359
  5
33B
331
35A
  5
33C
331
35B
  5
33D
331
35C
  5
33E
331
35D
  5
33F
331
35E
  5
340
331
35F
  5
341
331
360
  5
3A3
331
361
  5
342
331
362
  5
343
331
363
  5
3A4
331
364
  5
344
331
365
  5
345
331
367
  5
346
331
368
  5
347
331
36A
  5
348
331
36B
  5
349
331
36C
  5
34A
331
36D
  5
34B
331
36F
  5
3A5
331
370
  5
34C
331
372
  5
34D
331
373
  5
34E
331
374
  5
34F
331
375
  5
350
331
377
  5
3A6
331
378
  5
351
331
37A
  5
352
331
37B
  5
3A7
331
37F
  5
3A8
331
383
  5
353
331
384
  5
354
331
385
  5
355
331
387
  5
356
331
389
  5
3AA
331
38D
  5
3AD
331
391
  5
357
331
392
  5
358
331
393
  5
359
331
394
  5
35A
331
395
  5
35B
331
397
  5
35C
331
399
  5
35D
331
39B
  5
35E
331
39D
  5
35F
331
39E
  5
360
331
39F
  5
361
331
3A0
  5
362
331
3A1
  5
363
331
3A2
  5
364
331
3A3
  5
365
331
3A4
  5
3B0
331
3A5
  5
3B1
331
3A6
  5
3B2
331
3A7
  5
367
331
3A8
  5
368
331
3AA
  5
3B3
331
3AD
  5
3B5
331
3B0
  5
36A
331
3B1
  5
36B
331
3B2
  5
40E
331
3B3
  5
36C
331
3B5
  5
36D
331
3B7
  5
36F
331
40D
  5
3B7
331
40E
  5
40D
  0
LAYOUT
  5
42C
102
{ACAD_REACTORS
330
428
330
428
102
}
102
{ACAD_XDICTIONARY
360
42D
102
}
330
428
100
AcDbPlotSettings
  1

  2
none_device
  4
Letter_(8.50_x_11.00_Inches)
  6

 40
6.35
 41
6.35
 42
6.350006
 43
6.350006
 44
215.899994
 45
279.399994
 46
0.0
 47
0.0
 48
0.0
 49
0.0
140
0.0
141
0.0
142
1.0
143
1.0
 70
   688
 72
     0
 73
     1
 74
     5
  7

 75
    16
 76
     0
 77
     2
 78
   300
147
1.0
148
0.0
149
0.0
100
AcDbLayout
  1
Layout1
 70
     1
 71
     1
 10
-0.25
 20
-0.25
 11
10.75
 21
8.25
 12
0.0
 22
0.0
 32
0.0
 14
1.049744
 24
0.799667
 34
-0.001526
 15
9.450623
 25
7.200577
 35
0.0
146
0.0
 13
0.0
 23
0.0
 33
0.0
 16
1.0
 26
0.0
 36
0.0
 17
0.0
 27
1.0
 37
0.0
 76
     0
330
429
1001
ACAD_PSEXT
1000
None
1000
None
1000
Not applicable
1000
The layout will not be plotted unless a new plotter configuration name is selected.
1070
     0
  0
LAYOUT
  5
427
102
{ACAD_REACTORS
330
428
330
428
102
}
330
428
100
AcDbPlotSettings
  1

  2
none_device
  4
ANSI_A_(8.50_x_11.00_Inches)
  6

 40
6.35
 41
19.049999
 42
6.350006
 43
19.049988
 44
215.899994
 45
279.399994
 46
0.0
 47
0.0
 48
0.0
 49
0.0
140
0.0
141
0.0
142
1.0
143
2.584895
 70
 11952
 72
     0
 73
     1
 74
     0
  7

 75
     0
 76
     0
 77
     2
 78
   300
147
0.386863
148
0.0
149
0.0
100
AcDbLayout
  1
Model
 70
     1
 71
     0
 10
0.0
 20
0.0
 11
12.0
 21
9.0
 12
0.0
 22
0.0
 32
0.0
 14
0.0
 24
0.0
 34
0.0
 15
0.0
 25
0.0
 35
0.0
146
0.0
 13
0.0
 23
0.0
 33
0.0
 16
1.0
 26
0.0
 36
0.0
 17
0.0
 27
1.0
 37
0.0
 76
     0
330
424
331
49
  0
MLINESTYLE
  5
421
102
{ACAD_REACTORS
330
422
102
}
330
422
100
AcDbMlineStyle
  2
STANDARD
 70
     0
  3

 62
   256
 51
90.0
 52
90.0
 71
     2
 49
0.5
 62
   256
  6
BYLAYER
 49
-0.5
 62
   256
  6
BYLAYER
  0
ACDBPLACEHOLDER
  5
416
102
{ACAD_REACTORS
330
417
102
}
330
417
  0
XRECORD
  5
403
102
{ACAD_REACTORS
330
43C
102
}
330
43C
100
AcDbXrecord
280
     1
310
3E4F020000004D6F64656C6572000000000000000000000000000000000000000000000000000000000000000000000000000000000000000000000000000000000000000000000000000000000000000000000000000000000000000000000000000000000000000000000000000000000000000000000000000000000000
310
00000000000000000000000000000000000000000000000000000000000000000000000000000000000000000000000000000000000000000000000000000000000000000000000000000000000000000000000000000000000000000000000000000000000000000000000000000000000000000000000000000000000000
310
00
310
00000000000000000000000000000000000000000000000000000000000000000000000000000000000000000000000000000000000000000000000000000000000000000000000000000000000000000000000000000000000000000000000000000000000000000000000000000000000000000000000000000000000000
310
00000000000000000000000000000000000000000000000000000000000000000000000000000000000000000000000000000000000000000000000000000000000000000000000000000000000000000000000000000000000000000000000000000000000000000000000000000000000000000000000000000000000000
310
00
310
00000000000000000000000000000000000000000000000000000000000000000000000000000000000000000000000000000000000000000000000000000000000000000000000000000000000000000000000000000000000000000000000000000000000000000000000000000000000000000000000000000000000000
310
00000000000000000000000000000000000000000000000000000000000000000000000000000000000000000000000000000000000000000000000000000000000000000000000000000000000000000000000000000000000000000000000000000000000000000000000000000000000000000000000000000000000000
310
00
310
00000000000000000000000000000000000000000000000000000000000000000000000000000000000000000000000000000000000000000000000000000000000000000000000000000000000000000000000000000000000000000000000000000000000000000000000000000000000000000000000000000000000000
310
00000000000000000000000000000000000000000000000000000000000000000000000000000000000000000000000000000000000000000000000000000000000000000000000000000000000000000000000000000000000000000000000000000000000000000000000000000000000000000000000000000000000000
310
00
310
00000000000000000000000000000000000000000000000000000000000000000000000000000000000000000000000000000000000000000000000000000000000000000000000000000000000000000000000000000000000000000000000000000000000000000000000000000000000000000000000000000000000000
310
00000000000000000000000000000000000000000000000000000000000000000000000000000000000000000000000000000000000000000000000000000000000000000000000000000000000000000000000000000000000000000000000000000000000000000000000000000000000000000000000000000000000000
310
00
310
00000000000000000000000000000000000000000000000000000000000000000000000000000000000000000000000000000000000000000000000000000000000000000000000000000000000000000000000000000000000000000000000000000000000000000000000000000000000000000000000000000000000000
310
00000000000000000000000000000000000000000000000000000000000000000000000000000000000000000000000000000000000000000000000000000000000000000000000000000000000000000000000000000000000000000000000000000000000000000000000000000000000000000000000000000000000000
310
00
310
00000000000000000000000000000000000000000000000000000000000000000000000000000000000000000000000000000000000000000000000000000000000000000000000000000000000000000000000000000000000000000000000000000000000000000000000000000000000000000000000000000000000000
310
00000000000000000000000000000000000000000000000000000000000000000000000000000000000000000000000000000000000000000000000000000000000000000000000000000000000000000000000000000000000000000000000000000000000000000000000000000000000000000000000000000000000000
310
00
310
00000000000000000000000000000000000000000000000000000000000000000000000000000000000000000000000000000000000000000000000000000000000000000000000000000000000000000000000000000000000000000000000000000000000000000000000000000000000000000000000000000000000000
310
00000000000000000000000000000000000000000000000000000000000000000000000000000000000000000000000000000000000000000000000000000000000000000000000000000000000000000000000000000000000000000000000000000000000000000000000000000000000000000000000000000000000000
310
00
310
00000000000000000000000000000000000000000000000000000000000000000000000000000000000000000000000000000000000000000000000000000000000000000000000000000000000000000000000000000000000000000000000000000000000000000000000000000000000000000000000000000000000000
310
00000000000000000000000000000000000000000000000000000000000000000000000000000000000000000000000000000000000000000000000000000000000000000000000000000000000000000000000000000000000000000000000000000000000000000000000000000000000000000000000000000000000000
310
00
310
00000000000000000000000000000000000000000000000000000000000000000000000000000000000000000000000000000000000000000000000000000000000000000000000000000000000000000000000000000000000000000000000000000000000000000000000000000000000000000000000000000000000000
310
00000000000000000000000000000000000000000000000000000000000000000000000000000000000000000000000000000000000000000000000000000000000000000000000000000000000000000000000000000000000000000000000000000000000000000000000000000000000000000000000000000000000000
310
00
310
00000000000000000000000000000000000000000000000000000000000000000000000000000000000000000000000000000000000000000000000000000000000000000000000000000000000000000000000000000000000000000000000000000000000000000000000000000000000000000000000000000000000000
310
00000000000000000000000000000000000000000000000000000000000000000000000000000000000000000000000000000000000000000000000000000000000000000000000000000000000000000000000000000000000000000000000000000000000000000000000000000000000000000000000000000000000000
310
00
310
00000000000000000000000000000000000000000000000000000000000000000000000000000000000000000000000000000000000000000000000000000000000000000000000000000000000000000000000000000000000000000000000000000000000000000000000000000000000000000000000000000000000000
310
00000000000000000000000000000000000000000000000000000000000000000000000000000000000000000000000000000000000000000000000000000000000000000000000000000000000000000000000000000000000000000000000000000000000000000000000000000000000000000000000000000000000000
310
00
310
00000000000000000000000000000000000000000000000000000000000000000000000000000000000000000000000000000000000000000000000000000000000000000000000000000000000000000000000000000000000000000000000000000000000000000000000000000000000000000000000000000000000000
310
00000000000000000000000000000000000000000000000000000000000000000000000000000000000000000000000000000000000000000000000000000000000000000000000000000000000000000000000000000000000000000000000000000000000000000000000000000000000000000000000000000000000000
310
00
310
00000000000000000000000000000000000000000000000000000000000000000000000000000000000000000000000000000000000000000000000000000000000000000000000000000000000000000000000000000000000000000000000000000000000000000000000000000000000000
  0
XRECORD
  5
410
102
{ACAD_REACTORS
330
43C
102
}
330
43C
100
AcDbXrecord
280
     1
310
3E4F020000004D6F64656C6572000000000000000000000000000000000000000000000000000000000000000000000000000000000000000000000000000000000000000000000000000000000000000000000000000000000000000000000000000000000000000000000000000000000000000000000000000000000000
310
00000000000000000000000000000000000000000000000000000000000000000000000000000000000000000000000000000000000000000000000000000000000000000000000000000000000000000000000000000000000000000000000000000000000000000000000000000000000000000000000000000000000000
310
00
310
00000000000000000000000000000000000000000000000000000000000000000000000000000000000000000000000000000000000000000000000000000000000000000000000000000000000000000000000000000000000000000000000000000000000000000000000000000000000000000000000000000000000000
310
00000000000000000000000000000000000000000000000000000000000000000000000000000000000000000000000000000000000000000000000000000000000000000000000000000000000000000000000000000000000000000000000000000000000000000000000000000000000000000000000000000000000000
310
00
310
00000000000000000000000000000000000000000000000000000000000000000000000000000000000000000000000000000000000000000000000000000000000000000000000000000000000000000000000000000000000000000000000000000000000000000000000000000000000000000000000000000000000000
310
00000000000000000000000000000000000000000000000000000000000000000000000000000000000000000000000000000000000000000000000000000000000000000000000000000000000000000000000000000000000000000000000000000000000000000000000000000000000000000000000000000000000000
310
00
310
00000000000000000000000000000000000000000000000000000000000000000000000000000000000000000000000000000000000000000000000000000000000000000000000000000000000000000000000000000000000000000000000000000000000000000000000000000000000000000000000000000000000000
310
00000000000000000000000000000000000000000000000000000000000000000000000000000000000000000000000000000000000000000000000000000000000000000000000000000000000000000000000000000000000000000000000000000000000000000000000000000000000000000000000000000000000000
310
00
310
00000000000000000000000000000000000000000000000000000000000000000000000000000000000000000000000000000000000000000000000000000000000000000000000000000000000000000000000000000000000000000000000000000000000000000000000000000000000000000000000000000000000000
310
00000000000000000000000000000000000000000000000000000000000000000000000000000000000000000000000000000000000000000000000000000000000000000000000000000000000000000000000000000000000000000000000000000000000000000000000000000000000000000000000000000000000000
310
00
310
00000000000000000000000000000000000000000000000000000000000000000000000000000000000000000000000000000000000000000000000000000000000000000000000000000000000000000000000000000000000000000000000000000000000000000000000000000000000000000000000000000000000000
310
00000000000000000000000000000000000000000000000000000000000000000000000000000000000000000000000000000000000000000000000000000000000000000000000000000000000000000000000000000000000000000000000000000000000000000000000000000000000000000000000000000000000000
310
00
310
00000000000000000000000000000000000000000000000000000000000000000000000000000000000000000000000000000000000000000000000000000000000000000000000000000000000000000000000000000000000000000000000000000000000000000000000000000000000000000000000000000000000000
310
00000000000000000000000000000000000000000000000000000000000000000000000000000000000000000000000000000000000000000000000000000000000000000000000000000000000000000000000000000000000000000000000000000000000000000000000000000000000000000000000000000000000000
310
00
310
00000000000000000000000000000000000000000000000000000000000000000000000000000000000000000000000000000000000000000000000000000000000000000000000000000000000000000000000000000000000000000000000000000000000000000000000000000000000000000000000000000000000000
310
00000000000000000000000000000000000000000000000000000000000000000000000000000000000000000000000000000000000000000000000000000000000000000000000000000000000000000000000000000000000000000000000000000000000000000000000000000000000000000000000000000000000000
310
00
310
00000000000000000000000000000000000000000000000000000000000000000000000000000000000000000000000000000000000000000000000000000000000000000000000000000000000000000000000000000000000000000000000000000000000000000000000000000000000000000000000000000000000000
310
00000000000000000000000000000000000000000000000000000000000000000000000000000000000000000000000000000000000000000000000000000000000000000000000000000000000000000000000000000000000000000000000000000000000000000000000000000000000000000000000000000000000000
310
00
310
00000000000000000000000000000000000000000000000000000000000000000000000000000000000000000000000000000000000000000000000000000000000000000000000000000000000000000000000000000000000000000000000000000000000000000000000000000000000000000000000000000000000000
310
00000000000000000000000000000000000000000000000000000000000000000000000000000000000000000000000000000000000000000000000000000000000000000000000000000000000000000000000000000000000000000000000000000000000000000000000000000000000000000000000000000000000000
310
00
310
00000000000000000000000000000000000000000000000000000000000000000000000000000000000000000000000000000000000000000000000000000000000000000000000000000000000000000000000000000000000000000000000000000000000000000000000000000000000000000000000000000000000000
310
00000000000000000000000000000000000000000000000000000000000000000000000000000000000000000000000000000000000000000000000000000000000000000000000000000000000000000000000000000000000000000000000000000000000000000000000000000000000000000000000000000000000000
310
00
310
00000000000000000000000000000000000000000000000000000000000000000000000000000000000000000000000000000000000000000000000000000000000000000000000000000000000000000000000000000000000000000000000000000000000000000000000000000000000000000000000000000000000000
310
00000000000000000000000000000000000000000000000000000000000000000000000000000000000000000000000000000000000000000000000000000000000000000000000000000000000000000000000000000000000000000000000000000000000000000000000000000000000000000000000000000000000000
310
00
310
00000000000000000000000000000000000000000000000000000000000000000000000000000000000000000000000000000000000000000000000000000000000000000000000000000000000000000000000000000000000000000000000000000000000000000000000000000000000000000000000000000000000000
310
00000000000000000000000000000000000000000000000000000000000000000000000000000000000000000000000000000000000000000000000000000000000000000000000000000000000000000000000000000000000000000000000000000000000000000000000000000000000000000000000000000000000000
310
00
310
00000000000000000000000000000000000000000000000000000000000000000000000000000000000000000000000000000000000000000000000000000000000000000000000000000000000000000000000000000000000000000000000000000000000000000000000000000000000000
  0
XRECORD
  5
402
102
{ACAD_REACTORS
330
43C
102
}
330
43C
100
AcDbXrecord
280
     1
310
DF56060034040701D0009A9999999999B93F000000000000000000000000000000000400000009000000000000000200000064000000640000000100000001000000190000007B14AE47E17A843F00000000004060409A9999999999B93F00000000004C2D41000000000070F7400000000000942141000000000000000000
310
0000000000000000000000000000000AD482040000000000000000000000000000F03F000000000000000000000000000030402D431CEBE2362A3F00000000000008400000000000000000009807C000000000000000007C1A61B9A711364020000000050000000A000000200000002000000020000000000000000000F03F
310
00
310
0000000000F03F000000000000F03F333333333333D33F333333333333D33F333333333333D33F000000000000F43F000000000000F43F000000000000F03F0200000064000000000000000000000000000840000000000000F83F00000000000000000000000000000000008056409A9999999999B93F0000000000000000
310
00000000000000000000000000000000000000000000000000000000000000000000000000000000000000000000000000000000000000000000000000000000000000000000000000000000000000000000000000000000000000000000000000000000000000000000000000000000000000000000000000000000000000
310
00
310
0000000000000000000000000000000000000000000000000000000000000000000000000000000000000000000000000000000000000000000000000000000000000000000000000000000000000000000000000000000000000000000000000000000000000000000000000000000000000000000000009A9999999999A9
310
3F9100000000000000000000000000000035A781D547960F40000000000000F03F000000000000F03F666666666666164000000000104068F200000000000000000000000000000000000000000000000000000000000000000000000000000000000000000000000000000000000000000000000000000000000000000000
310
00
310
00000000000000000000000000000000000000000000000000000000000000000000000000000000000000000000000000000000000000000000000000000000000000000000000000000000000000000000000000000000000000000000000000000000000000000000000000000000000000000000000000000000000000
310
000000000000000000000000000000000000000000000000000000000000000000000000000000000000000000000000000000000000000000000000FF000000000000000000000000000000000000000000000000000000000000000000000000000000000000000000000000000000000000000000000000000000000000
310
00
310
0000000000000000000000000000000000000000000000000000000000000000000000000000000000000000000000000000000000000000000000000000000000000000
  0
DICTIONARY
  5
42D
330
42C
100
AcDbDictionary
280
     1
281
     1
  3
ADSK_XREC_LAYOUTTHUMBNAIL
360
42E
  0
XRECORD
  5
42E
102
{ACAD_REACTORS
330
42D
102
}
330
42D
100
AcDbXrecord
280
     1
310
28000000B40000008B0000000100080000000000BC61000000000000000000000001000000000000FFFFFF0000000000FFFFFF000000000000000000000000000000000000000000000000000000000000000000330000006600000099000000CC000000FF00000000330000333300006633000099330000CC330000FF3300
310
0000660000336600006666000099660000CC660000FF66000000990000339900006699000099990000CC990000FF99000000CC000033CC000066CC000099CC0000CCCC0000FFCC000000FF000033FF000066FF000099FF0000CCFF0000FFFF000000003300330033006600330099003300CC003300FF003300003333003333
310
33006633330099333300CC333300FF33330000663300336633006666330099663300CC663300FF66330000993300339933006699330099993300CC993300FF99330000CC330033CC330066CC330099CC3300CCCC3300FFCC330000FF330033FF330066FF330099FF3300CCFF3300FFFF330000006600330066006600660099
310
006600CC006600FF00660000336600333366006633660099336600CC336600FF33660000666600336666006666660099666600CC666600FF66660000996600339966006699660099996600CC996600FF99660000CC660033CC660066CC660099CC6600CCCC6600FFCC660000FF660033FF660066FF660099FF6600CCFF6600
310
FFFF660000009900330099006600990099009900CC009900FF00990000339900333399006633990099339900CC339900FF33990000669900336699006666990099669900CC669900FF66990000999900339999006699990099999900CC999900FF99990000CC990033CC990066CC990099CC9900CCCC9900FFCC990000FF99
310
0033FF990066FF990099FF9900CCFF9900FFFF99000000CC003300CC006600CC009900CC00CC00CC00FF00CC000033CC003333CC006633CC009933CC00CC33CC00FF33CC000066CC003366CC006666CC009966CC00CC66CC00FF66CC000099CC003399CC006699CC009999CC00CC99CC00FF99CC0000CCCC0033CCCC0066CC
310
CC0099CCCC00CCCCCC00FFCCCC0000FFCC0033FFCC0066FFCC0099FFCC00CCFFCC00FFFFCC000000FF003300FF006600FF009900FF00CC00FF00FF00FF000033FF003333FF006633FF009933FF00CC33FF00FF33FF000066FF003366FF006666FF009966FF00CC66FF00FF66FF000099FF003399FF006699FF009999FF00CC
310
99FF00FF99FF0000CCFF0033CCFF0066CCFF0099CCFF00CCCCFF00FFCCFF0000FFFF0033FFFF0066FFFF0099FFFF00CCFFFF00FFFFFF00000000000D0D0D001A1A1A00282828003535350043434300505050005D5D5D006B6B6B00787878008686860093939300A1A1A100AEAEAE00BBBBBB00C9C9C900D6D6D600E4E4E400
310
F1F1F100FFFFFF0000000000000000000000000000000000000000000000000000000000000000000000000000000000E2E2E2E2E2E2E2E2E2E2E2E2E2E2E2E2E2E2E2E2E2E2E2E2E2E2E2E2E2E2E2E2E2E2E2E2E2E2E2E2E2E2E2E2E2E2E2E2E2E2E2E2E2E2E2E2E2E2E2E2E2E2E2E2E2E2E2E2E2E2E2E2E2E2E2E2E2E2E2
310
E2E2E2E2E2E2E2E2E2E2E2E2E2E2E2E2E2E2E2E2E2E2E2E2E2E2E2E2E2E2E2E2E2E2E2E2E2E2E2E2E2E2E2E2E2E2E2E2E2E2E2E2E2E2E2E2E2E2E2E2E2E2E2E2E2E2E2E2E2E2E2E2E2E2E2E2E2E2E2E2E2E2E2E2E2E2E2E2E2E2E2E2E2E2E2E2E2E2E2E2EFF5F5F5F5F5F5F5F5F5F5F5F5F5F5F5F5F5F5F5F5F5F5F5F5F5F5
310
F5F5F5F5F5F5F5F5F5F5F5F5F5F5F5F5F5F5F5F5F5F5F5F5F5F5F5F5F5F5F5F5F5F5F5F5F5F5F5F5F5F5F5F5F5F5F5F5F5F5F5F5F5F5F5F5F5F5F5F5F5F5F5F5F5F5F5F5F5F5F5F5F5F5F5F5F5F5F5F5F5F5F5F5F5F5F5F5F5F5F5F5F5F5F5F5F5F5F5F5F5F5F5F5F5F5F5F5F5F5F5F5F5F5F5F5F5F5F5F5F5F5F5F5F5F5F5
310
F5F5F5F5F5F5F5F5F5F5F5F5F5F5F5F5F5F5F5F5F5F5F5F5E2E2EFF5F5F5F5F5F5F5F5F5F5F5F5F5F5F5F5F5F5F5F5F5F5F5F5F5F5F5F5F5F5F5F5F5F5F5F5F5F5F5F5F5F5F5F5F5F5F5F5F5F5F5F5F5F5F5F5F5F5F5F5F5F5F5F5F5F5F5F5F5F5F5F5F5F5F5F5F5F5F5F5F5F5F5F5F5F5F5F5F5F5F5F5F5F5F5F5F5F5F5F5
310
F5F5F5F5F5F5F5F5F5F5F5F5F5F5F5F5F5F5F5F5F5F5F5F5F5F5F5F5F5F5F5F5F5F5F5F5F5F5F5F5F5F5F5F5F5F5F5F5F5F5F5F5F5F5F5F5F5F5F5F5F5F5F5F5F5F5F5F5F5F5F5F5F5F5F5F5F5E2E2EFF5F5F5F5F5F5F5F5F5F5F5F5F5F5F5F5F5F5F5F5F5F5F5F5F5F5F5F5F5F5F5F5F5F5F5F5F5F5F5F5F5F5F5F5F5F5F5
310
F5F5F5F5F5F5F5F5F5F5F5F5F5F5F5F5F5F5F5F5F5F5F5F5F5F5F5F5F5F5F5F5F5F5F5F5F5F5F5F5F5F5F5F5F5F5F5F5F5F5F5F5F5F5F5F5F5F5F5F5F5F5F5F5F5F5F5F5F5F5F5F5F5F5F5F5F5F5F5F5F5F5F5F5F5F5F5F5F5F5F5F5F5F5F5F5F5F5F5F5F5F5F5F5F5F5F5F5F5F5F5F5F5F5F5F5F5F5F5F5F5F5F5F5F5F5F5
310
F5F5F5E2E2EFF5F5F5E2E2E2E2E2E2E2E2F5F5F5F5F5F5F5F5F5E2E2E2E2E2E2E2E2E2E2E2E2E2E2E2E2F5F5F5F5F5F5F5F5E2E2E2E2E2E2E2E2E2E2E2E2E2E2E2E2F5F5F5F5F5F5F5F5F5E2E2E2E2E2E2E2E2E2E2E2E2E2E2E2F5F5F5F5F5F5F5F5F5E2E2E2E2E2E2E2E2E2E2E2E2E2E2E2F5F5F5F5F5F5F5F5F5E2E2E2E2
310
E2E2E2E2E2E2E2E2E2E2E2E2F5F5F5F5F5F5F5F5E2E2E2E2E2E2E2E2E2E2E2E2E2E2E2E2F5F5F5F5F5F5F5F5F5E2E2E2E2E2E2E2E2F5F5F5E2E2EFF5F5F5E2F5F5F5F5F5F5F5F5F5F5F5F5F5F5F5F5F5F5F5F5F5F5F5F5F5F5F5F5F5F5F5F5F5F5F5F5F5F5F5F5F5F5F5F5F5F5F5F5F5F5F5F5F5F5F5F5F5F5F5F5F5F5F5F5
310
F5F5F5F5F5F5F5F5F5F5F5F5F5F5F5F5F5F5F5F5F5F5F5F5F5F5F5F5F5F5F5F5F5F5F5F5F5F5F5F5F5F5F5F5F5F5F5F5F5F5F5F5F5F5F5F5F5F5F5F5F5F5F5F5F5F5F5F5F5F5F5F5F5F5F5F5F5F5F5F5F5F5F5F5F5F5F5F5F5F5F5F5F5F5F5F5F5F5F5F5F5F5F5F5F5E2F5F5F5E2E2EFF5F5F5E2F5F5F5F5F5F5F5F5F5F5F5
310
F5F5F5F5F5F5F5F5F5F5F5F5F5F5F5F5F5F5F5F5F5F5F5F5F5F5F5F5F5F5F5F5F5F5F5F5F5F5F5F5F5F5F5F5F5F5F5F5F5F5F5F5F5F5F5F5F5F5F5F5F5F5F5F5F5F5F5F5F5F5F5F5F5F5F5F5F5F5F5F5F5F5F5F5F5F5F5F5F5F5F5F5F5F5F5F5F5F5F5F5F5F5F5F5F5F5F5F5F5F5F5F5F5F5F5F5F5F5F5F5F5F5F5F5F5F5F5
310
F5F5F5F5F5F5F5F5F5F5F5F5F5F5F5F5F5F5F5F5F5F5F5F5F5F5F5F5F5F5F5E2F5F5F5E2E2EFF5F5F5E2F5F5F5F5F5F5F5F5F5F5F5F5F5F5F5F5F5F5F5F5F5F5F5F5F5F5F5F5F5F5F5F5F5F5F5F5F5F5F5F5F5F5F5F5F5F5F5F5F5F5F5F5F5F5F5F5F5F5F5F5F5F5F5F5F5F5F5F5F5F5F5F5F5F5F5F5F5F5F5F5F5F5F5F5F5
310
F5F5F5F5F5F5F5F5F5F5F5F5F5F5F5F5F5F5F5F5F5F5F5F5F5F5F5F5F5F5F5F5F5F5F5F5F5F5F5F5F5F5F5F5F5F5F5F5F5F5F5F5F5F5F5F5F5F5F5F5F5F5F5F5F5F5F5F5F5F5F5F5F5F5F5F5F5F5F5F5F5F5F5F5E2F5F5F5E2E2EFF5F5F5E2F5F5F5F5F5F5F5F5F5F5F5F5F5F5F5F5F5F5F5F5F5F5F5F5F5F5F5F5F5F5F5F5
310
F5F5F5F5F5F5F5F5F5F5F5F5F5F5F5F5F5F5F5F5F5F5F5F5F5F5F5F5F5F5F5F5F5F5F5F5F5F5F5F5F5F5F5F5F5F5F5F5F5F5F5F5F5F5F5F5F5F5F5F5F5F5F5F5F5F5F5F5F5F5F5F5F5F5F5F5F5F5F5F5F5F5F5F5F5F5F5F5F5F5F5F5F5F5F5F5F5F5F5F5F5F5F5F5F5F5F5F5F5F5F5F5F5F5F5F5F5F5F5F5F5F5F5F5F5F5F5
310
F5F5F5F5F5F5F5F5F5F5E2F5F5F5E2E2EFF5F5F5E2F5F5F5F5F5F5F5F5F5F5F5F5F5F5F5F5F5F5F5F5F5F5F5F5F5F5F5F5F5F5F5F5F5F5F5F5F5F5F5F5F5F5F5F5F5F5F5F5F5F5F5F5F5F5F5F5F5F5F5F5F5F5F5F5F5F5F5F5F5F5F5F5F5F5F5F5F5F5F5F5F5F5F5F5F5F5F5F5F5F5F5F5F5F5F5F5F5F5F5F5F5F5F5F5F5F5
310
F5F5F5F5F5F5F5F5F5F5F5F5F5F5F5F5F5F5F5F5F5F5F5F5F5F5F5F5F5F5F5F5F5F5F5F5F5F5F5F5F5F5F5F5F5F5F5F5F5F5F5F5F5F5F5F5F5F5F5F5F5F5F5E2F5F5F5E2E2EFF5F5F5E2F5F5F5F5F5F5F5F5F5F5F5F5F5F5F5F5F5F5F5F5F5F5F5F5F5F5F5F5F5F5F5F5F5F5F5F5F5F5F5F5F5F5F5F5F5F5F5F5F5F5F5F5F5
310
F5F5F5F5F5F5F5F5F5F5F5F5F5F5F5F5F5F5F5F5F5F5F5F5F5F5F5F5F5F5F5F5F5F5F5F5F5F5F5F5F5F5F5F5F5F5F5F5F5F5F5F5F5F5F5F5F5F5F5F5F5F5F5F5F5F5F5F5F5F5F5F5F5F5F5F5F5F5F5F5F5F5F5F5F5F5F5F5F5F5F5F5F5F5F5F5F5F5F5F5F5F5F5F5F5F5F5F5F5F5F5F5F5F5F5F5E2F5F5F5E2E2EFF5F5F5E2
310
F5F5F5F5F5F5F5F5F5F5F5F5F5F5F5F5F5F5F5F5F5F5F5F5F5F5F5F5F5F5F5F5F5F5F5F5F5F5F5F5F5F5F5F5F5F5F5F5F5F5F5F5F5F5F5F5F5F5F5F5F5F5F5F5F5F5F5F5F5F5F5F5F5F5F5F5F5F5F5F5F5F5F5F5F5F5F5F5F5F5F5F5F5F5F5F5F5F5F5F5F5F5F5F5F5F5F5F5F5F5F5F5F5F5F5F5F5F5F5F5F5F5F5F5F5F5F5
310
F5F5F5F5F5F5F5F5F5F5F5F5F5F5F5F5F5F5F5F5F5F5F5F5F5F5F5F5F5F5F5F5F5F5F5F5F5F5F5F5F5F5E2F5F5F5E2E2EFF5F5F5E2F5F5F5F5F5F5F5F5F5F5F5F5F5F5F5F5F5F5F5F5F5F5F5F5F5F5F5F5F5F5F5F5F5F5F5F5F5F5F5F5F5F5F5F5F5F5F5F5F5F5F5F5F5F5F5F5F5F5F5F5F5F5F5F5F5F5F5F5F5F5F5F5F5F5
310
F5F5F5F5F5F5F5F5F5F5F5F5F5F5F5F5F5F5F5F5F5F5F5F5F5F5F5F5F5F5F5F5F5F5F5F5F5F5F5F5F5F5F5F5F5F5F5F5F5F5F5F5F5F5F5F5F5F5F5F5F5F5F5F5F5F5F5F5F5F5F5F5F5F5F5F5F5F5F5F5F5F5F5F5F5F5F5F5F5F5F5F5F5F5F5E2F5F5F5E2E2EFF5F5F5F5F5F5F5F5F5F5F5F5F5F5F5F5F5F5F5F5F5F5F5F5F5
310
F5F5F5F5F5F5F5F5F5F5F5F5F5F5F5F5F5F5F5F5F5F5F5F5F5F5F5F5F5F5F5F5F5F5F5F5F5F5F5F5F5F5F5F5F5F5F5F5F5F5F5F5F5F5F5F5F5F5F5F5F5F5F5F5F5F5F5F5F5F5F5F5F5F5F5F5F5F5F5F5F5F5F5F5F5F5F5F5F5F5F5F5F5F5F5F5F5F5F5F5F5F5F5F5F5F5F5F5F5F5F5F5F5F5F5F5F5F5F5F5F5F5F5F5F5F5F5
310
F5F5F5F5F5F5F5F5F5F5F5F5F5F5F5F5F5F5F5F5F5F5F5F5F5E2E2EFF5F5F5F5F5F5F5F5F5F5F5F5F5F5F5F5F5F5F5F5F5F5F5F5F5F5F5F5F5F5F5F5F5F5F5F5F5F5F5F5F5F5F5F5F5F5F5F5F5F5F5F5F5F5F5F5F5F5F5F5F5F5F5F5F5F5F5F5F5F5F5F5F5F5F5F5F5F5F5F5F5F5F5F5F5F5F5F5F5F5F5F5F5F5F5F5F5F5F5
310
F5F5F5F5F5F5F5F5F5F5F5F5F5F5F5F5F5F5F5F5F5F5F5F5F5F5F5F5F5F5F5F5F5F5F5F5F5F5F5F5F5F5F5F5F5F5F5F5F5F5F5F5F5F5F5F5F5F5F5F5F5F5F5F5F5F5F5F5F5F5F5F5F5F5F5F5F5F5E2E2EFF5F5F5F5F5F5F5F5F5F5F5F5F5F5F5F5F5F5F5F5F5F5F5F5F5F5F5F5F5F5F5F5F5F5F5F5F5F5F5F5F5F5F5F5F5F5
310
F5F5F5F5F5F5F5F5F5F5F5F5F5F5F5F5F5F5F5F5F5F5F5F5F5F5F5F5F5F5F5F5F5F5F5F5F5F5F5F5F5F5F5F5F5F5F5F5F5F5F5F5F5F5F5F5F5F5F5F5F5F5F5F5F5F5F5F5F5F5F5F5F5F5F5F5F5F5F5F5F5F5F5F5F5F5F5F5F5F5F5F5F5F5F5F5F5F5F5F5F5F5F5F5F5F5F5F5F5F5F5F5F5F5F5F5F5F5F5F5F5F5F5F5F5F5F5
310
F5F5F5F5E2E2EFF5F5F5F5F5F5F5F5F5F5F5F5F5F5F5F5F5F5F5F5F5F5F5F5F5F5F5F5F5F5F5F5F5F5F5F5F5F5F5F5F5F5F5F5F5F5F5F5F5F5F5F5F5F5F5F5F5F5F5F5F5F5F5F5F5F5F5F5F5F5F5F5F5F5F5F5F5F5F5F5F5F5F5F5F5F5F5F5F5F5F5F5F5F5F5F5F5F5F5F5F5F5F5F5F5F5F5F5F5F5F5F5F5F5F5F5F5F5F5F5
310
F5F5F5F5F5F5F5F5F5F5F5F5F5F5F5F5F5F5F5F5F5F5F5F5F5F5F5F5F5F5F5F5F5F5F5F5F5F5F5F5F5F5F5F5F5F5F5F5F5F5F5F5F5F5F5F5F5E2E2EFF5F5F5F5F5F5F5F5F5F5F5F5F5F5F5F5F5F5F5F5E2E2E2E2E2E2E2E2E2E2E2E2E2E2E2E2E2E2E2E2E2E2E2E2E2E2E2E2E2E2E2E2E2E2E2E2E2E2E2E2E2E2E2E2E2E2E2
310
E2E2E2E2E2E2E2E2E2E2E2E2E2E2E2E2E2E2E2E2E2E2E2E2E2E2E2E2E2E2E2E2E2E2E2E2E2E2E2E2E2E2E2E2E2E2E2E2E2E2E2E2E2E2E2E2E2E2E2E2E2E2E2E2E2E2E2E2E2E2E2E2E2E2E2E2E2E2E2E2E2E2E2E2E2E2E2E2E2E2F5F5F5F5F5F5F5F5F5F5F5F5F5F5F5F5F5F5F5F5E2E2EFF5F5F5F5F5F5F5F5F5F5F5F5F5F5
310
F5F5F5F5F5F5E2F5F5F5F5F5F5F5F5F5F5F5F5F5F5F5F5F5F5F5F5F5F5F5F5F5F5F5F5F5F5F5F5F5F5F5F5F5F5F5F5F5F5F5F5F5F5F5F5F5F5F5F5F5F5F5F5F5F5F5F5F5F5F5F5F5F5F5F5F5F5F5F5F5F5F5F5F5F5F5F5F5F5F5F5F5F5F5F5F5F5F5F5F5F5F5F5F5F5F5F5F5F5F5F5F5F5F5F5F5F5F5F5F5F5F5F5F5F5F5F5
310
F5F5F5F5F5F5F5F5F5F5F5F5F5F5F5E2F5F5F5F5F5F5F5F5F5F5F5F5F5F5F5F5F5F5F5F5E2E2EFF5F5F5F5F5F5F5F5F5F5F5F5F5F5F5F5F5F5F5F5E2F5F5F5F5F5F5F5F5F5F5F5F5F5F5F5F5F5F5F5F5F5F5F5F5F5F5F5F5F5F5F5F5F5F5F5F5F5F5F5F5F5F5F5F5F5F5F5F5F5F5F5F5F5F5F5F5F5F5F5F5F5F5F5F5F5F5F5
310
F5F5F5F5F5F5F5F5F5F5F5F5F5F5F5F5F5F5F5F5F5F5F5F5F5F5F5F5F5F5F5F5F5F5F5F5F5F5F5F5F5F5F5F5F5F5F5F5F5F5F5F5F5F5F5F5F5F5F5F5F5F5F5F5F5F5F5F5E2F5F5F5F5F5F5F5F5F5F5F5F5F5F5F5F5F5F5F5F5E2E2EFF5F5F5F5F5F5F5F5F5F5F5F5F5F5F5F5F5F5F5F5E2F5F5F5F5F5F5F5F5F5F5F5F5F5F5
310
F5F5F5F5F5F5F5F5F5F5F5F5F5F5F5F5F5F5F5F5F5F5F5F5F5F5F5F5F5F5F5F5F5F5F5F5F5F5F5F5F5F5F5F5F5F5F5F5F5F5F5F5F5F5F5F5F5F5F5F5F5F5F5F5F5F5F5F5F5F5F5F5F5F5F5F5F5F5F5F5F5F5F5F5F5F5F5F5F5F5F5F5F5F5F5F5F5F5F5F5F5F5F5F5F5F5F5F5F5F5F5F5F5F5F5F5F5F5F5F5F5E2F5F5F5F5F5
310
F5F5F5F5F5F5F5F5F5F5F5F5F5F5F5E2E2EFF5F5F5F5F5F5F5F5F5F5F5F5F5F5F5F5F5F5F5F5E2F5F5F5F5F5F5F5F5F5F5F5F5F5F5F5F5F5F5F5F5F5F5F5F5F5F5F5F5F5F5F5F5F5F5F5F5F5F5F5F5F5F5F5F5F5F5F5F5F5F5F5F5F5F5F5F5F5F5F5F5F5F5F5F5F5F5F5F5F5F5F5F5F5F5F5F5F5F5F5F5F5F5F5F5F5F5F5F5
310
F5F5F5F5F5F5F5F5F5F5F5F5F5F5F5F5F5F5F5F5F5F5F5F5F5F5F5F5F5F5F5F5F5F5F5F5F5F5F5F5F5F5F5F5F5F5F5E2F5F5F5F5F5F5F5F5F5F5F5F5F5F5F5F5F5F5F5F5E2E2EFF5F5F5E2F5F5F5F5F5F5F5F5F5F5F5F5F5F5F5F5E2F5F5F5F5F5F5F5F5F5F5F5F5F5F5F5F5F5F5F5F5F5F5F5F5F5F5F5F5F5F5F5F5F5F5F5
310
F5F5F5F5F5F5F5F5F5F5F5F5F5F5F5F5F5F5F5F5F5F5F5F5F5F5F5F5F5F5F5F5F5F5F5F5F5F5F5F5F5F5F5F5F5F5F5F5F5F5F5F5F5F5F5F5F5F5F5F5F5F5F5F5F5F5F5F5F5F5F5F5F5F5F5F5F5F5F5F5F5F5F5F5F5F5F5F5F5F5F5F5F5F5F5F5F5F5F5F5E2F5F5F5F5F5F5F5F5F5F5F5F5F5F5F5F5E2F5F5F5E2E2EFF5F5F5
310
E2F5F5F5F5F5F5F5F5F5F5F5F5F5F5F5F5E2F5F5F5F5F5F5F5F5F5F5F5F5F5F5F5F5F5F5F5F5F5F5F5F5F5F5F5F5F5F5F5F5F5F5F5F5F5F5F5F5F5F5F5F5F5F5F5F5F5F5F5F5F5F5F5F5F5F5F5F5F5F5F5F5F5F5F5F5F5F5F5F5F5F5F5F5F5F5F5F5F5F5F5F5F5F5F5F5F5F5F5F5F5F5F5F5F5F5F5F5F5F5F5F5F5F5F5F5F5
310
F5F5F5F5F5F5F5F5F5F5F5F5F5F5F5F5F5F5F5F5F5F5F5F5F5F5E2F5F5F5F5F5F5F5F5F5F5F5F5F5F5F5F5E2F5F5F5E2E2EFF5F5F5E2F5F5F5F5F5F5F5F5F5F5F5F5F5F5F5F5E2F5F5F5F5F5F5F5F5F5F5F5F5F5F5F5F5F5F5F5F5F5F5F5F5F5F5F5F5F5F5F5F5F5F5F5F5F5F5F5F5F5F5F5F5F5F5F5F5F5F5F5F5F5F5F5F5
310
F5F5F5F5F5F5F5F5F5F5F5F5F5F5F5F5F5F5F5F5F5F5F5F5F5F5F5F5F5F5F5F5F5F5F5F5F5F5F5F5F5F5F5F5F5F5F5F5F5F5F5F5F5F5F5F5F5F5F5F5F5F5F5F5F5F5F5F5F5F5F5F5F5F5F5F5F5F5F5E2F5F5F5F5F5F5F5F5F5F5F5F5F5F5F5F5E2F5F5F5E2E2EFF5F5F5E2F5F5F5F5F5F5F5F5F5F5F5F5F5F5F5F5E2F5F5F5
310
F5F5F5F5F5F5F5F5F5F5F5F5F5F5F5F5F5F5F5F5F5F5F5F5F5F5F5F5F5F5F5F5F5F5F5F5F5F5F5F5F5F5F5F5F5F5F5F5F5F5F5F5F5F5F5F5F5F5F5F5F5F5F5F5F5F5F5F5F5F5F5F5F5F5F5F5F5F5F5F5F5F5F5F5F5F5F5F5F5F5F5F5F5F5F5F5F5F5F5F5F5F5F5F5F5F5F5F5F5F5F5F5F5F5F5F5F5F5F5F5F5F5F5F5F5F5F5
310
F5F5F5F5F5E2F5F5F5F5F5F5F5F5F5F5F5F5F5F5F5F5E2F5F5F5E2E2EFF5F5F5E2F5F5F5F5F5F5F5F5F5F5F5F5F5F5F5F5E2F5F5F5F5F5F5F5F5F5F5F5F5F5F5F5F5F5F5F5F5F5F5F5F5F5F5F5F5F5F5F5F5F5F5F5F5F5F5F5F5F5F5F5F5F5F5F5F5F5F5F5F5F5F5F5F5F5F5F5F5F5F5F5F5F5F5F5F5F5F5F5F5F5F5F5F5F5
310
F5F5F5F5F5F5F5F5F5F5F5F5F5F5F5F5F5F5F5F5F5F5F5F5F5F5F5F5F5F5F5F5F5F5F5F5F5F5F5F5F5F5F5F5F5F5F5F5F5F5F5F5F5F5F5F5F5F5E2F5F5F5F5F5F5F5F5F5F5F5F5F5F5F5F5E2F5F5F5E2E2EFF5F5F5E2F5F5F5F5F5F5F5F5F5F5F5F5F5F5F5F5E2F5F5F5F5F5F5F5F5F5F5F5F5F5F5F5F5F5F5F5F5F5F5F5F5
310
F5F5F5F5F5F5F5F5F5F5F5F5F5F5F5F5F5F5F5F5F5F5F5F5F5F5F5F5F5F5F5F5F5F5F5F5F5F5F5F5F5F5F5F5F5F5F5F5F5F5F5F5F5F5F5F5F5F5F5F5F5F5F5F5F5F5F5F5F5F5F5F5F5F5F5F5F5F5F5F5F5F5F5F5F5F5F5F5F5F5F5F5F5F5F5F5F5F5F5F5F5F5F5F5F5F5F5F5F5F5F5E2F5F5F5F5F5F5F5F5F5F5F5F5F5F5F5
310
F5E2F5F5F5E2E2EFF5F5F5E2F5F5F5F5F5F5F5F5F5F5F5F5F5F5F5F5E2F5F5F5F5F5F5F5F5F5F5F5F5F5F5F5F5F5F5F5F5F5F5F5F5F5F5F5F5F5F5F5F5F5F5F5F5F5F5F5F5F5F5F5F5F5F5F5F5F5F5F5F5F5F5F5F5F5F5F5F5F5F5F5F5F5F5F5F5F5F5F5F5F5F5F5F5F5F5F5F5F5F5F5F5F5F5F5F5F5F5F5F5F5F5F5F5F5F5
310
F5F5F5F5F5F5F5F5F5F5F5F5F5F5F5F5F5F5F5F5F5F5F5F5F5F5F5F5F5F5F5F5F5F5F5F5F5E2F5F5F5F5F5F5F5F5F5F5F5F5F5F5F5F5E2F5F5F5E2E2EFF5F5F5E2F5F5F5F5F5F5F5F5F5F5F5F5F5F5F5F5E2F5F5F5F5F5F5F5F5F5F5F5F5F5F5F5F5F5F5F5F5F5F5F5F5F5F5F5F5F5F5F5F5F5F5F5F5F5F5F5F5F5F5F5F5F5
310
F5F5F5F5F5F5F5F5F5F5F5F5F5F5F5F5F5F5F5F5F5F5F5F5F5F5F5F5F5F5F5F5F5F5F5F5F5F5F5F5F5F5F5F5F5F5F5F5F5F5F5F5F5F5F5F5F5F5F5F5F5F5F5F5F5F5F5F5F5F5F5F5F5F5F5F5F5F5F5F5F5F5F5F5F5F5F5F5F5F5E2F5F5F5F5F5F5F5F5F5F5F5F5F5F5F5F5E2F5F5F5E2E2EFF5F5F5E2F5F5F5F5F5F5F5F5F5
310
F5F5F5F5F5F5F5E2F5F5F5F5F5F5F5F5F5F5F5F5F5F5F5F5F5F5F5F5F5F5F5F5F5F5F5F5F5F5F5F5F5F5F5F5F5F5F5F5F5F5F5F5F5F5F5F5F5F5F5F5F5F5F5F5F5F5F5F5F5F5F5F5F5F5F5F5F5F5F5F5F5F5F5F5F5F5F5F5F5F5F5F5F5F5F5F5F5F5F5F5F5F5F5F5F5F5F5F5F5F5F5F5F5F5F5F5F5F5F5F5F5F5F5F5F5F5F5
310
F5F5F5F5F5F5F5F5F5F5F5F5F5F5F5F5E2F5F5F5F5F5F5F5F5F5F5F5F5F5F5F5F5E2F5F5F5E2E2EFF5F5F5E2F5F5F5F5F5F5F5F5F5F5F5F5F5F5F5F5E2F5F5F5F5F5F5F5F5F5F5F5F5F5F5F5F5F5F5F5F5F5F5F5F5F5F5F5F5F5F5F5F5F5F5F5F5F5F5F5F5F5F5F5F5F5F5F5F5F5F5F5F5F5F5F5F5F5F5F5F5F5F5F5F5F5F5
310
F5F5F5F5F5F5F5F5F5F5F5F5F5F5F5F5F5F5F5F5F5F5F5F5F5F5F5F5F5F5F5F5F5F5F5F5F5F5F5F5F5F5F5F5F5F5F5F5F5F5F5F5F5F5F5F5F5F5F5F5F5F5F5F5F5F5F5F5F5E2F5F5F5F5F5F5F5F5F5F5F5F5F5F5F5F5E2F5F5F5E2E2EFF5F5F5E2F5F5F5F5F5F5F5F5F5F5F5F5F5F5F5F5E2F5F5F5F5F5F5F5F5F5F5F5F5F5
310
F5F5F5F5F5F5F5F5F5F5F5F5F5F5F5F5F5F5F5F5F5F5F5F5F5F5F5F5F5F5F5F5F5F5F5F5F5F5F5F5F5F5F5F5F5F5F5F5F5F5F5F5F5F5F5F5F5F5F5F5F5F5F5F5F5F5F5F5F5F5F5F5F5F5F5F5F5F5F5F5F5F5F5F5F5F5F5F5F5F5F5F5F5F5F5F5F5F5F5F5F5F5F5F5F5F5F5F5F5F5F5F5F5F5F5F5F5F5F5F5F5F5E2F5F5F5F5
310
F5F5F5F5F5F5F5F5F5F5F5F5E2F5F5F5E2E2EFF5F5F5E2F5F5F5F5F5F5F5F5F5F5F5F5F5F5F5F5E2F5F5F5F5F5F5F5F5F5F5F5F5F5F5F5F5F5F5F5F5F5F5F5F5F5F5F5F5F5F5F5F5F5F5F5F5F5F5F5F5F5F5F5F5F5F5F5F5F5F5F5F5F5F5F5F5F5F5F5F5F5F5F5F5F5F5F5F5F5F5F5F5F5F5F5F5F5F5F5F5F5F5F5F5F5F5F5
310
F5F5F5F5F5F5F5F5F5F5F5F5F5F5F5F5F5F5F5F5F5F5F5F5F5F5F5F5F5F5F5F5F5F5F5F5F5F5F5F5F5F5F5F5F5F5F5F5E2F5F5F5F5F5F5F5F5F5F5F5F5F5F5F5F5E2F5F5F5E2E2EFF5F5F5E2F5F5F5F5F5F5F5F5F5F5F5F5F5F5F5F5E2F5F5F5F5F5F5F5F5F5F5F5F5F5F5F5F5F5F5F5F5F5F5F5F5F5F5F5F5F5F5F5F5F5F5
310
F5F5F5F5F5F5F5F5F5F5F5F5F5F5F5F5F5F5F5F5F5F5F5F5F5F5F5F5F5F5F5F5F5F5F5F5F5F5F5F5F5F5F5F5F5F5F5F5F5F5F5F5F5F5F5F5F5F5F5F5F5F5F5F5F5F5F5F5F5F5F5F5F5F5F5F5F5F5F5F5F5F5F5F5F5F5F5F5F5F5F5F5F5F5F5F5F5F5F5F5F5E2F5F5F5F5F5F5F5F5F5F5F5F5F5F5F5F5E2F5F5F5E2E2EFF5F5
310
F5E2F5F5F5F5F5F5F5F5F5F5F5F5F5F5F5F5E2F5F5F5F5F5F5F5F5F5F5F5F5F5F5F5F5F5F5F5F5F5F5F5F5F5F5F5F5F5F5F5F5F5F5F5F5F5F5F5F5F5F5F5F5F5F5F5F5F5F5F5F5F5F5F5F5F5F5F5F5F5F5F5F5F5F5F5F5F5F5F5F5F5F5F5F5F5F5F5F5F5F5F5F5F5F5F5F5F5F5F5F5F5F5F5F5F5F5F5F5F5F5F5F5F5F5F5F5
310
F5F5F5F5F5F5F5F5F5F5F5F5F5F5F5F5F5F5F5F5F5F5F5F5F5F5F5E2F5F5F5F5F5F5F5F5F5F5F5F5F5F5F5F5E2F5F5F5E2E2EFF5F5F5E2F5F5F5F5F5F5F5F5F5F5F5F5F5F5F5F5E2F5F5F5F5F5F5F5F5F5F5F5F5F5F5F5F5F5F5F5F5F5F5F5F5F5F5F5F5F5F5F5F5F5F5F5F5F5F5F5F5F5F5F5F5F5F5F5F5F5F5F5F5F5F5F5
310
F5F5F5F5F5F5F5F5F5F5F5F5F5F5F5F5F5F5F5F5F5F5F5F5F5F5F5F5F5F5F5F5F5F5F5F5F5F5F5F5F5F5F5F5F5F5F5F5F5F5F5F5F5F5F5F5F5F5F5F5F5F5F5F5F5F5F5F5F5F5F5F5F5F5F5F5F5F5F5F5E2F5F5F5F5F5F5F5F5F5F5F5F5F5F5F5F5E2F5F5F5E2E2EFF5F5F5E2F5F5F5F5F5F5F5F5F5F5F5F5F5F5F5F5E2F5F5
310
F5F5F5F5F5F5F5F5F5F5F5F5F5F5F5F5F5F5F5F5F5F5F5F5F5F5F5F5F5F5F5F5F5F5F5F5F5F5F5F5F5F5F5F5F5F5F5F5F5F5F5F5F5F5F5F5F5F5F5F5F5F5F5F5F5F5F5F5F5F5F5F5F5F5F5F5F5F5F5F5F5F5F5F5F5F5F5F5F5F5F5F5F5F5F5F5F5F5F5F5F5F5F5F5F5F5F5F5F5F5F5F5F5F5F5F5F5F5F5F5F5F5F5F5F5F5F5
310
F5F5F5F5F5F5E2F5F5F5F5F5F5F5F5F5F5F5F5F5F5F5F5E2F5F5F5E2E2EFF5F5F5E2F5F5F5F5F5F5F5F5F5F5F5F5F5F5F5F5E2F5F5F5F5F5F5F5F5F5F5F5F5F5F5F5F5F5F5F5F5F5F5F5F5F5F5F5F5F5F5F5F5F5F5F5F5F5F5F5F5F5F5F5F5F5F5F5F5F5F5F5F5F5F5F5F5F5F5F5F5F5F5F5F5F5F5F5F5F5F5F5F5F5F5F5F5
310
F5F5F5F5F5F5F5F5F5F5F5F5F5F5F5F5F5F5F5F5F5F5F5F5F5F5F5F5F5F5F5F5F5F5F5F5F5F5F5F5F5F5F5F5F5F5F5F5F5F5F5F5F5F5F5F5F5F5F5E2F5F5F5F5F5F5F5F5F5F5F5F5F5F5F5F5E2F5F5F5E2E2EFF5F5F5F5F5F5F5F5F5F5F5F5F5F5F5F5F5F5F5F5E2F5F5F5F5F5F5F5F5F5F5F5F5F5F5F5F5F5F5F5F5F5F5F5
310
F5F5F5F5F5F5F5F5F5F5F5F5F5F5F5F5F5F5F5F5F5F5F5F5F5F5F5F5F5F5F5F5F5F5F5F5F5F5F5F5F5F5F5F5F5F5F5F5F5F5F5F5F5F5F5F5F5F5F5F5F5F5F5F5F5F5F5F5F5F5F5F5F5F5F5F5F5F5F5F5F5F5F5F5F5F5F5F5F5F5F5F5F5F5F5F5F5F5F5F5F5F5F5F5F5F5F5F5F5F5F5F5E2F5F5F5F5F5F5F5F5F5F5F5F5F5F5
310
F5F5F5F5F5F5E2E2EFF5F5F5F5F5F5F5F5F5F5F5F5F5F5F5F5F5F5F5F5E2F5F5F5F5F5F5F5F5F5F5F5F5F5F5F5F5F5F5F5F5F5F5F5F5F5F5F5F5F5F5F5F5F5F5F5F5F5F5F5F5F5F5F5F5F5F5F5F5F5F5F5F5F5F5F5F5F5F5F5F5F5F5F5F5F5F5F5F5F5F5F5F5F5F5F5F5F5F5F5F5F5F5F5F5F5F5F5F5F5F5F5F5F5F5F5F5F5
310
F5F5F5F5F5F5F5F5F5F5F5F5F5F5F5F5F5F5F5F5F5F5F5F5F5F5F5F5F5F5F5F5F5F5F5F5F5F5E2F5F5F5F5F5F5F5F5F5F5F5F5F5F5F5F5F5F5F5F5E2E2EFF5F5F5F5F5F5F5F5F5F5F5F5F5F5F5F5F5F5F5F5E2F5F5F5F5F5F5F5F5F5F5F5F5F5F5F5F5F5F5F5F5F5F5F5F5F5F5F5F5F5F5F5F5F5F5F5F5F5F5F5F5F5F5F5F5
310
F5F5F5F5F5F5F5F5F5F5F5F5F5F5F5F5F5F5F5F5F5F5F5F5F5F5F5F5F5F5F5F5F5F5F5F5F5F5F5F5F5F5F5F5F5F5F5F5F5F5F5F5F5F5F5F5F5F5F5F5F5F5F5F5F5F5F5F5F5F5F5F5F5F5F5F5F5F5F5F5F5F5F5F5F5F5F5F5F5F5F5E2F5F5F5F5F5F5F5F5F5F5F5F5F5F5F5F5F5F5F5F5E2E2EFF5F5F5F5F5F5F5F5F5F5F5F5
310
F5F5F5F5F5F5F5F5E2F5F5F5F5F5F5F5F5F5F5F5F5F5F5F5F5F5F5F5F5F5F5F5F5F5F5F5F5F5F5F5F5F5F5F5F5F5F5F5F5F5F5F5F5F5F5F5F5F5F5F5F5F5F5F5F5F5F5F5F5F5F5F5F5F5F5F5F5F5F5F5F5F5F5F5F5F5F5F5F5F5F5F5F5F5F5F5F5F5F5F5F5F5F5F5F5F5F5F5F5F5F5F5F5F5F5F5F5F5F5F5F5F5F5F5F5F5F5
310
F5F5F5F5F5F5F5F5F5F5F5F5F5F5F5F5F5E2F5F5F5F5F5F5F5F5F5F5F5F5F5F5F5F5F5F5F5F5E2E2EFF5F5F5F5F5F5F5F5F5F5F5F5F5F5F5F5F5F5F5F5E2F5F5F5F5F5F5F5F5F5F5F5F5F5F5F5F5F5F5F5F5F5F5F5F5F5F5F5F5F5F5F5F5F5F5F5F5F5F5F5F5F5F5F5F5F5F5F5F5F5F5F5F5F5F5F5F5F5F5F5F5F5F5F5F5F5
310
F5F5F5F5F5F5F5F5F5F5F5F5F5F5F5F5F5F5F5F5F5F5F5F5F5F5F5F5F5F5F5F5F5F5F5F5F5F5F5F5F5F5F5F5F5F5F5F5F5F5F5F5F5F5F5F5F5F5F5F5F5F5F5F5F5F5F5F5F5F5E2F5F5F5F5F5F5F5F5F5F5F5F5F5F5F5F5F5F5F5F5E2E2EFF5F5F5F5F5F5F5F5F5F5F5F5F5F5F5F5F5F5F5F5E2F5F5F5F5F5F5F5F5F5F5F5F5
310
F5F5F5F5F5F5F5F5F5F5F5F5F5F5F5F5F5F5F5F5F5F5F5F5F5F5F5F5F5F5F5F5F5F5F5F5F5F5F5F5F5F5F5F5F5F5F5F5F5F5F5F5F5F5F5F5F5F5F5F5F5F5F5F5F5F5F5F5F5F5F5F5F5F5F5F5F5F5F5F5F5F5F5F5F5F5F5F5F5F5F5F5F5F5F5F5F5F5F5F5F5F5F5F5F5F5F5F5F5F5F5F5F5F5F5F5F5F5F5F5F5F5F5E2F5F5F5
310
F5F5F5F5F5F5F5F5F5F5F5F5F5F5F5F5F5E2E2EFF5F5F5F5F5F5F5F5F5F5F5F5F5F5F5F5F5F5F5F5E2F5F5F5F5F5F5F5F5F5F5F5F5F5F5F5F5F5F5F5F5F5F5F5F5F5F5F5F5F5F5F5F5F5F5F5F5F5F5F5F5F5F5F5F5F5F5F5F5F5F5F5F5F5F5F5F5F5F5F5F5F5F5F5F5F5F5F5F5F5F5F5F5F5F5F5F5F5F5F5F5F5F5F5F5F5F5
310
F5F5F5F5F5F5F5F5F5F5F5F5F5F5F5F5F5F5F5F5F5F5F5F5F5F5F5F5F5F5F5F5F5F5F5F5F5F5F5F5F5F5F5F5F5F5F5F5F5E2F5F5F5F5F5F5F5F5F5F5F5F5F5F5F5F5F5F5F5F5E2E2EFF5F5F5F5F5F5F5F5F5F5F5F5F5F5F5F5F5F5F5F5E2F5F5F5F5F5F5F5F5F5F5F5F5F5F5F5F5F5F5F5F5F5F5F5F5F5F5F5F5F5F5F5F5F5
310
F5F5F5F5F5F5F5F5F5F5F5F5F5F5F5F5F5F5F5F5F5F5F5F5F5F5F5F5F5F5F5F5F5F5F5F5F5F5F5F5F5F5F5F5F5F5F5F5F5F5F5F5F5F5F5F5F5F5F5F5F5F5F5F5F5F5F5F5F5F5F5F5F5F5F5F5F5F5F5F5F5F5F5F5F5F5F5F5F5F5F5F5F5F5F5F5F5F5F5F5F5F5E2F5F5F5F5F5F5F5F5F5F5F5F5F5F5F5F5F5F5F5F5E2E2EFF5
310
F5F5F5F5F5F5F5F5F5F5F5F5F5F5F5F5F5F5F5E2F5F5F5F5F5F5F5F5F5F5F5F5F5F5F5F5F5F5F5F5F5F5F5F5F5F5F5F5F5F5F5F5F5F5F5F5F5F5F5F5F5F5F5F5F5F5F5F5F5F5F5F5F5F5F5F5F5F5F5F5F5F5F5F5F5F5F5F5F5F5F5F5F5F5F5F5F5F5F5F5F5F5F5F5F5F5F5F5F5F5F5F5F5F5F5F5F5F5F5F5F5F5F5F5F5F5F5
310
F5F5F5F5F5F5F5F5F5F5F5F5F5F5F5F5F5F5F5F5F5F5F5F5F5F5F5F5E2F5F5F5F5F5F5F5F5F5F5F5F5F5F5F5F5F5F5F5F5E2E2EFF5F5F5E2F5F5F5F5F5F5F5F5F5F5F5F5F5F5F5F5E2F5F5F5F5F5F5F5F5F5F5F5F5F5F5F5F5F5F5F5F5F5F5F5F5F5F5F5F5F5F5F5F5F5F5F5F5F5F5F5F5F5F5F5F5F5F5F5F5F5F5F5F5F5F5
310
F5F5F5F5F5F5F5F5F5F5F5F5F5F5F5F5F5F5F5F5F5F5F5F5F5F5F5F5F5F5F5F5F5F5F5F5F5F5F5F5F5F5F5F5F5F5F5F5F5F5F5F5F5F5F5F5F5F5F5F5F5F5F5F5F5F5F5F5F5F5F5F5F5F5F5F5F5F5F5F5F5E2F5F5F5F5F5F5F5F5F5F5F5F5F5F5F5F5E2F5F5F5E2E2EFF5F5F5E2F5F5F5F5F5F5F5F5F5F5F5F5F5F5F5F5E2F5
310
F5F5F5F5F5F5F5F5F5F5F5F5F5F5F5F5F5F5F5F5F5F5F5F5F5F5F5F5F5F5F5F5F5F5F5F5F5F5F5F5F5F5F5F5F5F5F5F5F5F5F5F5F5F5F5F5F5F5F5F5F5F5F5F5F5F5F5F5F5F5F5F5F5F5F5F5F5F5F5F5F5F5F5F5F5F5F5F5F5F5F5F5F5F5F5F5F5F5F5F5F5F5F5F5F5F5F5F5F5F5F5F5F5F5F5F5F5F5F5F5F5F5F5F5F5F5F5
310
F5F5F5F5F5F5F5E2F5F5F5F5F5F5F5F5F5F5F5F5F5F5F5F5E2F5F5F5E2E2EFF5F5F5E2F5F5F5F5F5F5F5F5F5F5F5F5F5F5F5F5E2F5F5F5F5F5F5F5F5F5F5F5F5F5F5F5F5F5F5F5F5F5F5F5F5F5F5F5F5F5F5F5F5F5F5F5F5F5F5F5F5F5F5F5F5F5F5F5F5F5F5F5F5F5F5F5F5F5F5F5F5F5F5F5F5F5F5F5F5F5F5F5F5F5F5F5
310
F5F5F5F5F5F5F5F5F5F5F5F5F5F5F5F5F5F5F5F5F5F5F5F5F5F5F5F5F5F5F5F5F5F5F5F5F5F5F5F5F5F5F5F5F5F5F5F5F5F5F5F5F5F5F5F5F5F5F5F5E2F5F5F5F5F5F5F5F5F5F5F5F5F5F5F5F5E2F5F5F5E2E2EFF5F5F5E2F5F5F5F5F5F5F5F5F5F5F5F5F5F5F5F5E2F5F5F5F5F5F5F5F5F5F5F5F5F5F5F5F5F5F5F5F5F5F5
310
F5F5F5F5F5F5F5F5F5F5F5F5F5F5F5F5F5F5F5F5F5F5F5F5F5F5F5F5F5F5F5F5F5F5F5F5F5F5F5F5F5F5F5F5F5F5F5F5F5F5F5F5F5F5F5F5F5F5F5F5F5F5F5F5F5F5F5F5F5F5F5F5F5F5F5F5F5F5F5F5F5F5F5F5F5F5F5F5F5F5F5F5F5F5F5F5F5F5F5F5F5F5F5F5F5F5F5F5F5F5F5F5F5E2F5F5F5F5F5F5F5F5F5F5F5F5F5
310
F5F5F5E2F5F5F5E2E2EFF5F5F5E2F5F5F5F5F5F5F5F5F5F5F5F5F5F5F5F5E2F5F5F5F5F5F5F5F5F5F5F5F5F5F5F5F5F5F5F5F5F5F5F5F5F5F5F5F5F5F5F5F5F5F5F5F5F5F5F5F5F5F5F5F5F5F5F5F5F5F5F5F5F5F5F5F5F5F5F5F5F5F5F5F5F5F5F5F5F5F5F5F5F5F5F5F5F5F5F5F5F5F5F5F5F5F5F5F5F5F5F5F5F5F5F5F5
310
F5F5F5F5F5F5F5F5F5F5F5F5F5F5F5F5F5F5F5F5F5F5F5F5F5F5F5F5F5F5F5F5F5F5F5F5F5F5F5E2F5F5F5F5F5F5F5F5F5F5F5F5F5F5F5F5E2F5F5F5E2E2EFF5F5F5E2F5F5F5F5F5F5F5F5F5F5F5F5F5F5F5F5E2F5F5F5F5F5F5F5F5F5F5F5F5F5F5F5F5F5F5F5F5F5F5F5F5F5F5F5F5F5F5F5F5F5F5F5F5F5F5F5F5F5F5F5
310
F5F5F5F5F5F5F5F5F5F5F5F5F5F5F5F5F5F5F5F5F5F5F5F5F5F5F5F5F5F5F5F5F5F5F5F5F5F5F5F5F5F5F5F5F5F5F5F5F5F5F5F5F5F5F5F5F5F5F5F5F5F5F5F5F5F5F5F5F5F5F5F5F5F5F5F5F5F5F5F5F5F5F5F5F5F5F5F5F5F5F5F5E2F5F5F5F5F5F5F5F5F5F5F5F5F5F5F5F5E2F5F5F5E2E2EFF5F5F5E2F5F5F5F5F5F5F5
310
F5F5F5F5F5F5F5F5F5E2F5F5F5F5F5F5F5F5F5F5F5F5F5F5F5F5F5F5F5F5F5F5F5F5F5F5F5F5F5F5F5F5F5F5F5F5F5F5F5F5F5F5F5F5F5F5F5F5F5F5F5F5F5F5F5F5F5F5F5F5F5F5F5F5F5F5F5F5F5F5F5F5F5F5F5F5F5F5F5F5F5F5F5F5F5F5F5F5F5F5F5F5F5F5F5F5F5F5F5F5F5F5F5F5F5F5F5F5F5F5F5F5F5F5F5F5F5
310
F5F5F5F5F5F5F5F5F5F5F5F5F5F5F5F5F5F5E2F5F5F5F5F5F5F5F5F5F5F5F5F5F5F5F5E2F5F5F5E2E2EFF5F5F5E2F5F5F5F5F5F5F5F5F5F5F5F5F5F5F5F5E2F5F5F5F5F5F5F5F5F5F5F5F5F5F5F5F5F5F5F5F5F5F5F5F5F5F5F5F5F5F5F5F5F5F5F5F5F5F5F5F5F5F5F5F5F5F5F5F5F5F5F5F5F5F5F5F5F5F5F5F5F5F5F5F5
310
F5F5F5F5F5F5F5F5F5F5F5F5F5F5F5F5F5F5F5F5F5F5F5F5F5F5F5F5F5F5F5F5F5F5F5F5F5F5F5F5F5F5F5F5F5F5F5F5F5F5F5F5F5F5F5F5F5F5F5F5F5F5F5F5F5F5F5F5F5F5F5E2F5F5F5F5F5F5F5F5F5F5F5F5F5F5F5F5E2F5F5F5E2E2EFF5F5F5E2F5F5F5F5F5F5F5F5F5F5F5F5F5F5F5F5E2F5F5F5F5F5F5F5F5F5F5F5
310
F5F5F5F5F5F5F5F5F5F5F5F5F5F5F5F5F5F5F5F5F5F5F5F5F5F5F5F5F5F5F5F5F5F5F5F5F5F5F5F5F5F5F5F5F5F5F5F5F5F5F5F5F5F5F5F5F5F5F5F5F5F5F5F5F5F5F5F5F5F5F5F5F5F5F5F5F5F5F5F5F5F5F5F5F5F5F5F5F5F5F5F5F5F5F5F5F5F5F5F5F5F5F5F5F5F5F5F5F5F5F5F5F5F5F5F5F5F5F5F5F5F5F5F5E2F5F5
310
F5F5F5F5F5F5F5F5F5F5F5F5F5F5E2F5F5F5E2E2EFF5F5F5E2F5F5F5F5F5F5F5F5F5F5F5F5F5F5F5F5E2F5F5F5F5F5F5F5F5F5F5F5F5F5F5F5F5F5F5F5F5F5F5F5F5F5F5F5F5F5F5F5F5F5F5F5F5F5F5F5F5F5F5F5F5F5F5F5F5F5F5F5F5F5F5F5F5F5F5F5F5F5F5F5F5F5F5F5F5F5F5F5F5F5F5F5F5F5F5F5F5F5F5F5F5F5
310
F5F5F5F5F5F5F5F5F5F5F5F5F5F5F5F5F5F5F5F5F5F5F5F5F5F5F5F5F5F5F5F5F5F5F5F5F5F5F5F5F5F5F5F5F5F5F5F5F5F5E2F5F5F5F5F5F5F5F5F5F5F5F5F5F5F5F5E2F5F5F5E2E2EFF5F5F5E2F5F5F5F5F5F5F5F5F5F5F5F5F5F5F5F5E2F5F5F5F5F5F5F5F5F5F5F5F5F5F5F5F5F5F5F5F5F5F5F5F5F5F5F5F5F5F5F5F5
310
F5F5F5F5F5F5F5F5F5F5F5F5F5F5F5F5F5F5F5F5F5F5F5F5F5F5F5F5F5F5F5F5F5F5F5F5F5F5F5F5F5F5F5F5F5F5F5F5F5F5F5F5F5F5F5F5F5F5F5F5F5F5F5F5F5F5F5F5F5F5F5F5F5F5F5F5F5F5F5F5F5F5F5F5F5F5F5F5F5F5F5F5F5F5F5F5F5F5F5F5F5F5F5E2F5F5F5F5F5F5F5F5F5F5F5F5F5F5F5F5E2F5F5F5E2E2EF
310
F5F5F5E2F5F5F5F5F5F5F5F5F5F5F5F5F5F5F5F5E2F5F5F5F5F5F5F5F5F5F5F5F5F5F5F5F5F5F5F5F5F5F5F5F5F5F5F5F5F5F5F5F5F5F5F5F5F5F5F5F5F5F5F5F5F5F5F5F5F5F5F5F5F5F5F5F5F5F5F5F5F5F5F5F5F5F5F5F5F5F5F5F5F5F5F5F5F5F5F5F5F5F5F5F5F5F5F5F5F5F5F5F5F5F5F5F5F5F5F5F5F5F5F5F5F5F5
310
F5F5F5F5F5F5F5F5F5F5F5F5F5F5F5F5F5F5F5F5F5F5F5F5F5F5F5F5F5E2F5F5F5F5F5F5F5F5F5F5F5F5F5F5F5F5E2F5F5F5E2E2EFF5F5F5E2F5F5F5F5F5F5F5F5F5F5F5F5F5F5F5F5E2F5F5F5F5F5F5F5F5F5F5F5F5F5F5F5F5F5F5F5F5F5F5F5F5F5F5F5F5F5F5F5F5F5F5F5F5F5F5F5F5F5F5F5F5F5F5F5F5F5F5F5F5F5
310
F5F5F5F5F5F5F5F5F5F5F5F5F5F5F5F5F5F5F5F5F5F5F5F5F5F5F5F5F5F5F5F5F5F5F5F5F5F5F5F5F5F5F5F5F5F5F5F5F5F5F5F5F5F5F5F5F5F5F5F5F5F5F5F5F5F5F5F5F5F5F5F5F5F5F5F5F5F5F5F5F5F5E2F5F5F5F5F5F5F5F5F5F5F5F5F5F5F5F5E2F5F5F5E2E2EFF5F5F5E2F5F5F5F5F5F5F5F5F5F5F5F5F5F5F5F5E2
310
F5F5F5F5F5F5F5F5F5F5F5F5F5F5F5F5F5F5F5F5F5F5F5F5F5F5F5F5F5F5F5F5F5F5F5F5F5F5F5F5F5F5F5F5F5F5F5F5F5F5F5F5F5F5F5F5F5F5F5F5F5F5F5F5F5F5F5F5F5F5F5F5F5F5F5F5F5F5F5F5F5F5F5F5F5F5F5F5F5F5F5F5F5F5F5F5F5F5F5F5F5F5F5F5F5F5F5F5F5F5F5F5F5F5F5F5F5F5F5F5F5F5F5F5F5F5F5
310
F5F5F5F5F5F5F5F5E2F5F5F5F5F5F5F5F5F5F5F5F5F5F5F5F5E2F5F5F5E2E2EFF5F5F5E2F5F5F5F5F5F5F5F5F5F5F5F5F5F5F5F5E2F5F5F5F5F5F5F5F5F5F5F5F5F5F5F5F5F5F5F5F5F5F5F5F5F5F5F5F5F5F5F5F5F5F5F5F5F5F5F5F5F5F5F5F5F5F5F5F5F5F5F5F5F5F5F5F5F5F5F5F5F5F5F5F5F5F5F5F5F5F5F5F5F5F5
310
F5F5F5F5F5F5F5F5F5F5F5F5F5F5F5F5F5F5F5F5F5F5F5F5F5F5F5F5F5F5F5F5F5F5F5F5F5F5F5F5F5F5F5F5F5F5F5F5F5F5F5F5F5F5F5F5F5F5F5F5F5E2F5F5F5F5F5F5F5F5F5F5F5F5F5F5F5F5E2F5F5F5E2E2EFF5F5F5E2F5F5F5F5F5F5F5F5F5F5F5F5F5F5F5F5E2F5F5F5F5F5F5F5F5F5F5F5F5F5F5F5F5F5F5F5F5F5
310
F5F5F5F5F5F5F5F5F5F5F5F5F5F5F5F5F5F5F5F5F5F5F5F5F5F5F5F5F5F5F5F5F5F5F5F5F5F5F5F5F5F5F5F5F5F5F5F5F5F5F5F5F5F5F5F5F5F5F5F5F5F5F5F5F5F5F5F5F5F5F5F5F5F5F5F5F5F5F5F5F5F5F5F5F5F5F5F5F5F5F5F5F5F5F5F5F5F5F5F5F5F5F5F5F5F5F5F5F5F5F5F5F5F5E2F5F5F5F5F5F5F5F5F5F5F5F5
310
F5F5F5F5E2F5F5F5E2E2EFF5F5F5E2F5F5F5F5F5F5F5F5F5F5F5F5F5F5F5F5E2F5F5F5F5F5F5F5F5F5F5F5F5F5F5F5F5F5F5F5F5F5F5F5F5F5F5F5F5F5F5F5F5F5F5F5F5F5F5F5F5F5F5F5F5F5F5F5F5F5F5F5F5F5F5F5F5F5F5F5F5F5F5F5F5F5F5F5F5F5F5F5F5F5F5F5F5F5F5F5F5F5F5F5F5F5F5F5F5F5F5F5F5F5F5F5
310
F5F5F5F5F5F5F5F5F5F5F5F5F5F5F5F5F5F5F5F5F5F5F5F5F5F5F5F5F5F5F5F5F5F5F5F5F5F5F5F5E2F5F5F5F5F5F5F5F5F5F5F5F5F5F5F5F5E2F5F5F5E2E2EFF5F5F5F5F5F5F5F5F5F5F5F5F5F5F5F5F5F5F5F5E2F5F5F5F5F5F5F5F5F5F5F5F5F5F5F5F5F5F5F5F5F5F5F5F5F5F5F5F5F5F5F5F5F5F5F5F5F5F5F5F5F5F5
310
F5F5F5F5F5F5F5F5F5F5F5F5F5F5F5F5F5F5F5F5F5F5F5F5F5F5F5F5F5F5F5F5F5F5F5F5F5F5F5F5F5F5F5F5F5F5F5F5F5F5F5F5F5F5F5F5F5F5F5F5F5F5F5F5F5F5F5F5F5F5F5F5F5F5F5F5F5F5F5F5F5F5F5F5F5F5F5F5F5F5F5F5F5E2F5F5F5F5F5F5F5F5F5F5F5F5F5F5F5F5F5F5F5F5E2E2EFF5F5F5F5F5F5F5F5F5F5
310
F5F5F5F5F5F5F5F5F5F5E2F5F5F5F5F5F5F5F5F5F5F5F5F5F5F5F5F5F5F5F5F5F5F5F5F5F5F5F5F5F5F5F5F5F5F5F5F5F5F5F5F5F5F5F5F5F5F5F5F5F5F5F5F5F5F5F5F5F5F5F5F5F5F5F5F5F5F5F5F5F5F5F5F5F5F5F5F5F5F5F5F5F5F5F5F5F5F5F5F5F5F5F5F5F5F5F5F5F5F5F5F5F5F5F5F5F5F5F5F5F5F5F5F5F5F5F5
310
F5F5F5F5F5F5F5F5F5F5F5F5F5F5F5F5F5F5F5E2F5F5F5F5F5F5F5F5F5F5F5F5F5F5F5F5F5F5F5F5E2E2EFF5F5F5F5F5F5F5F5F5F5F5F5F5F5F5F5F5F5F5F5E2F5F5F5F5F5F5F5F5F5F5F5F5F5F5F5F5F5F5F5F5F5F5F5F5F5F5F5F5F5F5F5F5F5F5F5F5F5F5F5F5F5F5F5F5F5F5F5F5F5F5F5F5F5F5F5F5F5F5F5F5F5F5F5
310
F5F5F5F5F5F5F5F5F5F5F5F5F5F5F5F5F5F5F5F5F5F5F5F5F5F5F5F5F5F5F5F5F5F5F5F5F5F5F5F5F5F5F5F5F5F5F5F5F5F5F5F5F5F5F5F5F5F5F5F5F5F5F5F5F5F5F5F5F5F5F5F5E2F5F5F5F5F5F5F5F5F5F5F5F5F5F5F5F5F5F5F5F5E2E2EFF5F5F5F5F5F5F5F5F5F5F5F5F5F5F5F5F5F5F5F5E2F5F5F5F5F5F5F5F5F5F5
310
F5F5F5F5F5F5F5F5F5F5F5F5F5F5F5F5F5F5F5F5F5F5F5F5F5F5F5F5F5F5F5F5F5F5F5F5F5F5F5F5F5F5F5F5F5F5F5F5F5F5F5F5F5F5F5F5F5F5F5F5F5F5F5F5F5F5F5F5F5F5F5F5F5F5F5F5F5F5F5F5F5F5F5F5F5F5F5F5F5F5F5F5F5F5F5F5F5F5F5F5F5F5F5F5F5F5F5F5F5F5F5F5F5F5F5F5F5F5F5F5F5F5F5F5F5E2F5
310
F5F5F5F5F5F5F5F5F5F5F5F5F5F5F5F5F5F5F5E2E2EFF5F5F5F5F5F5F5F5F5F5F5F5F5F5F5F5F5F5F5F5E2F5F5F5F5F5F5F5F5F5F5F5F5F5F5F5F5F5F5F5F5F5F5F5F5F5F5F5F5F5F5F5F5F5F5F5F5F5F5F5F5F5F5F5F5F5F5F5F5F5F5F5F5F5F5F5F5F5F5F5F5F5F5F5F5F5F5F5F5F5F5F5F5F5F5F5F5F5F5F5F5F5F5F5F5
310
F5F5F5F5F5F5F5F5F5F5F5F5F5F5F5F5F5F5F5F5F5F5F5F5F5F5F5F5F5F5F5F5F5F5F5F5F5F5F5F5F5F5F5F5F5F5F5F5F5F5F5E2F5F5F5F5F5F5F5F5F5F5F5F5F5F5F5F5F5F5F5F5E2E2EFF5F5F5F5F5F5F5F5F5F5F5F5F5F5F5F5F5F5F5F5E2F5F5F5F5F5F5F5F5F5F5F5F5F5F5F5F5F5F5F5F5F5F5F5F5F5F5F5F5F5F5F5
310
F5F5F5F5F5F5F5F5F5F5F5F5F5F5F5F5F5F5F5F5F5F5F5F5F5F5F5F5F5F5F5F5F5F5F5F5F5F5F5F5F5F5F5F5F5F5F5F5F5F5F5F5F5F5F5F5F5F5F5F5F5F5F5F5F5F5F5F5F5F5F5F5F5F5F5F5F5F5F5F5F5F5F5F5F5F5F5F5F5F5F5F5F5F5F5F5F5F5F5F5F5F5F5F5E2F5F5F5F5F5F5F5F5F5F5F5F5F5F5F5F5F5F5F5F5E2E2
310
EFF5F5F5F5F5F5F5F5F5F5F5F5F5F5F5F5F5F5F5F5E2F5F5F5F5F5F5F5F5F5F5F5F5F5F5F5F5F5F5F5F5F5F5F5F5F5F5F5F5F5F5F5F5F5F5F5F5F5F5F5F5F5F5F5F5F5F5F5F5F5F5F5F5F5F5F5F5F5F5F5F5F5F5F5F5F5F5F5F5F5F5F5F5F5F5F5F5F5F5F5F5F5F5F5F5F5F5F5F5F5F5F5F5F5F5F5F5F5F5F5F5F5F5F5F5F5
310
F5F5F5F5F5F5F5F5F5F5F5F5F5F5F5F5F5F5F5F5F5F5F5F5F5F5F5F5F5F5E2F5F5F5F5F5F5F5F5F5F5F5F5F5F5F5F5F5F5F5F5E2E2EFF5F5F5F5F5F5F5F5F5F5F5F5F5F5F5F5F5F5F5F5E2F5F5F5F5F5F5F5F5F5F5F5F5F5F5F5F5F5F5F5F5F5F5F5F5F5F5F5F5F5F5F5F5F5F5F5F5F5F5F5F5F5F5F5F5F5F5F5F5F5F5F5F5
310
F5F5F5F5F5F5F5F5F5F5F5F5F5F5F5F5F5F5F5F5F5F5F5F5F5F5F5F5F5F5F5F5F5F5F5F5F5F5F5F5F5F5F5F5F5F5F5F5F5F5F5F5F5F5F5F5F5F5F5F5F5F5F5F5F5F5F5F5F5F5F5F5F5F5F5F5F5F5F5F5F5F5F5E2F5F5F5F5F5F5F5F5F5F5F5F5F5F5F5F5F5F5F5F5E2E2EFF5F5F5F5F5F5F5F5F5F5F5F5F5F5F5F5F5F5F5F5
310
E2F5F5F5F5F5F5F5F5F5F5F5F5F5F5F5F5F5F5F5F5F5F5F5F5F5F5F5F5F5F5F5F5F5F5F5F5F5F5F5F5F5F5F5F5F5F5F5F5F5F5F5F5F5F5F5F5F5F5F5F5F5F5F5F5F5F5F5F5F5F5F5F5F5F5F5F5F5F5F5F5F5F5F5F5F5F5F5F5F5F5F5F5F5F5F5F5F5F5F5F5F5F5F5F5F5F5F5F5F5F5F5F5F5F5F5F5F5F5F5F5F5F5F5F5F5F5
310
F5F5F5F5F5F5F5F5F5E2F5F5F5F5F5F5F5F5F5F5F5F5F5F5F5F5F5F5F5F5E2E2EFF5F5F5E2F5F5F5F5F5F5F5F5F5F5F5F5F5F5F5F5E2F5F5F5F5F5F5F5F5F5F5F5F5F5F5F5F5F5F5F5F5F5F5F5F5F5F5F5F5F5F5F5F5F5F5F5F5F5F5F5F5F5F5F5F5F5F5F5F5F5F5F5F5F5F5F5F5F5F5F5F5F5F5F5F5F5F5F5F5F5F5F5F5F5
310
F5F5F5F5F5F5F5F5F5F5F5F5F5F5F5F5F5F5F5F5F5F5F5F5F5F5F5F5F5F5F5F5F5F5F5F5F5F5F5F5F5F5F5F5F5F5F5F5F5F5F5F5F5F5F5F5F5F5F5F5F5F5E2F5F5F5F5F5F5F5F5F5F5F5F5F5F5F5F5E2F5F5F5E2E2EFF5F5F5E2F5F5F5F5F5F5F5F5F5F5F5F5F5F5F5F5E2F5F5F5F5F5F5F5F5F5F5F5F5F5F5F5F5F5F5F5F5
310
F5F5F5F5F5F5F5F5F5F5F5F5F5F5F5F5F5F5F5F5F5F5F5F5F5F5F5F5F5F5F5F5F5F5F5F5F5F5F5F5F5F5F5F5F5F5F5F5F5F5F5F5F5F5F5F5F5F5F5F5F5F5F5F5F5F5F5F5F5F5F5F5F5F5F5F5F5F5F5F5F5F5F5F5F5F5F5F5F5F5F5F5F5F5F5F5F5F5F5F5F5F5F5F5F5F5F5F5F5F5F5F5F5F5F5E2F5F5F5F5F5F5F5F5F5F5F5
310
F5F5F5F5F5E2F5F5F5E2E2EFF5F5F5E2F5F5F5F5F5F5F5F5F5F5F5F5F5F5F5F5E2F5F5F5F5F5F5F5F5F5F5F5F5F5F5F5F5F5F5F5F5F5F5F5F5F5F5F5F5F5F5F5F5F5F5F5F5F5F5F5F5F5F5F5F5F5F5F5F5F5F5F5F5F5F5F5F5F5F5F5F5F5F5F5F5F5F5F5F5F5F5F5F5F5F5F5F5F5F5F5F5F5F5F5F5F5F5F5F5F5F5F5F5F5F5
310
F5F5F5F5F5F5F5F5F5F5F5F5F5F5F5F5F5F5F5F5F5F5F5F5F5F5F5F5F5F5F5F5F5F5F5F5F5F5F5F5F5E2F5F5F5F5F5F5F5F5F5F5F5F5F5F5F5F5E2F5F5F5E2E2EFF5F5F5E2F5F5F5F5F5F5F5F5F5F5F5F5F5F5F5F5E2F5F5F5F5F5F5F5F5F5F5F5F5F5F5F5F5F5F5F5F5F5F5F5F5F5F5F5F5F5F5F5F5F5F5F5F5F5F5F5F5F5
310
F5F5F5F5F5F5F5F5F5F5F5F5F5F5F5F5F5F5F5F5F5F5F5F5F5F5F5F5F5F5F5F5F5F5F5F5F5F5F5F5F5F5F5F5F5F5F5F5F5F5F5F5F5F5F5F5F5F5F5F5F5F5F5F5F5F5F5F5F5F5F5F5F5F5F5F5F5F5F5F5F5F5F5F5F5F5F5F5F5F5F5F5F5F5E2F5F5F5F5F5F5F5F5F5F5F5F5F5F5F5F5E2F5F5F5E2E2EFF5F5F5E2F5F5F5F5F5
310
F5F5F5F5F5F5F5F5F5F5F5E2F5F5F5F5F5F5F5F5F5F5F5F5F5F5F5F5F5F5F5F5F5F5F5F5F5F5F5F5F5F5F5F5F5F5F5F5F5F5F5F5F5F5F5F5F5F5F5F5F5F5F5F5F5F5F5F5F5F5F5F5F5F5F5F5F5F5F5F5F5F5F5F5F5F5F5F5F5F5F5F5F5F5F5F5F5F5F5F5F5F5F5F5F5F5F5F5F5F5F5F5F5F5F5F5F5F5F5F5F5F5F5F5F5F5F5
310
F5F5F5F5F5F5F5F5F5F5F5F5F5F5F5F5F5F5F5F5E2F5F5F5F5F5F5F5F5F5F5F5F5F5F5F5F5E2F5F5F5E2E2EFF5F5F5E2F5F5F5F5F5F5F5F5F5F5F5F5F5F5F5F5E2F5F5F5F5F5F5F5F5F5F5F5F5F5F5F5F5F5F5F5F5F5F5F5F5F5F5F5F5F5F5F5F5F5F5F5F5F5F5F5F5F5F5F5F5F5F5F5F5F5F5F5F5F5F5F5F5F5F5F5F5F5F5
310
F5F5F5F5F5F5F5F5F5F5F5F5F5F5F5F5F5F5F5F5F5F5F5F5F5F5F5F5F5F5F5F5F5F5F5F5F5F5F5F5F5F5F5F5F5F5F5F5F5F5F5F5F5F5F5F5F5F5F5F5F5F5F5F5F5F5F5F5F5F5F5F5F5E2F5F5F5F5F5F5F5F5F5F5F5F5F5F5F5F5E2F5F5F5E2E2EFF5F5F5E2F5F5F5F5F5F5F5F5F5F5F5F5F5F5F5F5E2F5F5F5F5F5F5F5F5F5
310
F5F5F5F5F5F5F5F5F5F5F5F5F5F5F5F5F5F5F5F5F5F5F5F5F5F5F5F5F5F5F5F5F5F5F5F5F5F5F5F5F5F5F5F5F5F5F5F5F5F5F5F5F5F5F5F5F5F5F5F5F5F5F5F5F5F5F5F5F5F5F5F5F5F5F5F5F5F5F5F5F5F5F5F5F5F5F5F5F5F5F5F5F5F5F5F5F5F5F5F5F5F5F5F5F5F5F5F5F5F5F5F5F5F5F5F5F5F5F5F5F5F5F5F5F5F5E2
310
F5F5F5F5F5F5F5F5F5F5F5F5F5F5F5F5E2F5F5F5E2E2EFF5F5F5E2F5F5F5F5F5F5F5F5F5F5F5F5F5F5F5F5E2F5F5F5F5F5F5F5F5F5F5F5F5F5F5F5F5F5F5F5F5F5F5F5F5F5F5F5F5F5F5F5F5F5F5F5F5F5F5F5F5F5F5F5F5F5F5F5F5F5F5F5F5F5F5F5F5F5F5F5F5F5F5F5F5F5F5F5F5F5F5F5F5F5F5F5F5F5F5F5F5F5F5F5
310
F5F5F5F5F5F5F5F5F5F5F5F5F5F5F5F5F5F5F5F5F5F5F5F5F5F5F5F5F5F5F5F5F5F5F5F5F5F5F5F5F5F5F5F5F5F5F5F5F5F5F5F5E2F5F5F5F5F5F5F5F5F5F5F5F5F5F5F5F5E2F5F5F5E2E2EFF5F5F5E2F5F5F5F5F5F5F5F5F5F5F5F5F5F5F5F5E2F5F5F5F5F5F5F5F5F5F5F5F5F5F5F5F5F5F5F5F5F5F5F5F5F5F5F5F5F5F5
310
F5F5F5F5F5F5F5F5F5F5F5F5F5F5F5F5F5F5F5F5F5F5F5F5F5F5F5F5F5F5F5F5F5F5F5F5F5F5F5F5F5F5F5F5F5F5F5F5F5F5F5F5F5F5F5F5F5F5F5F5F5F5F5F5F5F5F5F5F5F5F5F5F5F5F5F5F5F5F5F5F5F5F5F5F5F5F5F5F5F5F5F5F5F5F5F5F5F5F5F5F5F5F5F5F5E2F5F5F5F5F5F5F5F5F5F5F5F5F5F5F5F5E2F5F5F5E2
310
E2EFF5F5F5E2F5F5F5F5F5F5F5F5F5F5F5F5F5F5F5F5E2F5F5F5F5F5F5F5F5F5F5F5F5F5F5F5F5F5F5F5F5F5F5F5F5F5F5F5F5F5F5F5F5F5F5F5F5F5F5F5F5F5F5F5F5F5F5F5F5F5F5F5F5F5F5F5F5F5F5F5F5F5F5F5F5F5F5F5F5F5F5F5F5F5F5F5F5F5F5F5F5F5F5F5F5F5F5F5F5F5F5F5F5F5F5F5F5F5F5F5F5F5F5F5F5
310
F5F5F5F5F5F5F5F5F5F5F5F5F5F5F5F5F5F5F5F5F5F5F5F5F5F5F5F5F5F5F5E2F5F5F5F5F5F5F5F5F5F5F5F5F5F5F5F5E2F5F5F5E2E2EFF5F5F5E2F5F5F5F5F5F5F5F5F5F5F5F5F5F5F5F5E2F5F5F5F5F5F5F5F5F5F5F5F5F5F5F5F5F5F5F5F5F5F5F5F5F5F5F5F5F5F5F5F5F5F5F5F5F5F5F5F5F5F5F5F5F5F5F5F5F5F5F5
310
F5F5F5F5F5F5F5F5F5F5F5F5F5F5F5F5F5F5F5F5F5F5F5F5F5F5F5F5F5F5F5F5F5F5F5F5F5F5F5F5F5F5F5F5F5F5F5F5F5F5F5F5F5F5F5F5F5F5F5F5F5F5F5F5F5F5F5F5F5F5F5F5F5F5F5F5F5F5F5F5F5F5F5F5E2F5F5F5F5F5F5F5F5F5F5F5F5F5F5F5F5E2F5F5F5E2E2EFF5F5F5E2F5F5F5F5F5F5F5F5F5F5F5F5F5F5F5
310
F5E2F5F5F5F5F5F5F5F5F5F5F5F5F5F5F5F5F5F5F5F5F5F5F5F5F5F5F5F5F5F5F5F5F5F5F5F5F5F5F5F5F5F5F5F5F5F5F5F5F5F5F5F5F5F5F5F5F5F5F5F5F5F5F5F5F5F5F5F5F5F5F5F5F5F5F5F5F5F5F5F5F5F5F5F5F5F5F5F5F5F5F5F5F5F5F5F5F5F5F5F5F5F5F5F5F5F5F5F5F5F5F5F5F5F5F5F5F5F5F5F5F5F5F5F5F5
310
F5F5F5F5F5F5F5F5F5F5E2F5F5F5F5F5F5F5F5F5F5F5F5F5F5F5F5E2F5F5F5E2E2EFF5F5F5E2F5F5F5F5F5F5F5F5F5F5F5F5F5F5F5F5E2F5F5F5F5F5F5F5F5F5F5F5F5F5F5F5F5F5F5F5F5F5F5F5F5F5F5F5F5F5F5F5F5F5F5F5F5F5F5F5F5F5F5F5F5F5F5F5F5F5F5F5F5F5F5F5F5F5F5F5F5F5F5F5F5F5F5F5F5F5F5F5F5
310
F5F5F5F5F5F5F5F5F5F5F5F5F5F5F5F5F5F5F5F5F5F5F5F5F5F5F5F5F5F5F5F5F5F5F5F5F5F5F5F5F5F5F5F5F5F5F5F5F5F5F5F5F5F5F5F5F5F5F5F5F5F5F5E2F5F5F5F5F5F5F5F5F5F5F5F5F5F5F5F5E2F5F5F5E2E2EFF5F5F5E2F5F5F5F5F5F5F5F5F5F5F5F5F5F5F5F5E2F5F5F5F5F5F5F5F5F5F5F5F5F5F5F5F5F5F5F5
310
F5F5F5F5F5F5F5F5F5F5F5F5F5F5F5F5F5F5F5F5F5F5F5F5F5F5F5F5F5F5F5F5F5F5F5F5F5F5F5F5F5F5F5F5F5F5F5F5F5F5F5F5F5F5F5F5F5F5F5F5F5F5F5F5F5F5F5F5F5F5F5F5F5F5F5F5F5F5F5F5F5F5F5F5F5F5F5F5F5F5F5F5F5F5F5F5F5F5F5F5F5F5F5F5F5F5F5F5F5F5F5F5F5F5F5F5E2F5F5F5F5F5F5F5F5F5F5
310
F5F5F5F5F5F5E2F5F5F5E2E2EFF5F5F5E2F5F5F5F5F5F5F5F5F5F5F5F5F5F5F5F5E2F5F5F5F5F5F5F5F5F5F5F5F5F5F5F5F5F5F5F5F5F5F5F5F5F5F5F5F5F5F5F5F5F5F5F5F5F5F5F5F5F5F5F5F5F5F5F5F5F5F5F5F5F5F5F5F5F5F5F5F5F5F5F5F5F5F5F5F5F5F5F5F5F5F5F5F5F5F5F5F5F5F5F5F5F5F5F5F5F5F5F5F5F5
310
F5F5F5F5F5F5F5F5F5F5F5F5F5F5F5F5F5F5F5F5F5F5F5F5F5F5F5F5F5F5F5F5F5F5F5F5F5F5F5F5F5F5E2F5F5F5F5F5F5F5F5F5F5F5F5F5F5F5F5E2F5F5F5E2E2EFF5F5F5E2F5F5F5F5F5F5F5F5F5F5F5F5F5F5F5F5E2F5F5F5F5F5F5F5F5F5F5F5F5F5F5F5F5F5F5F5F5F5F5F5F5F5F5F5F5F5F5F5F5F5F5F5F5F5F5F5F5
310
F5F5F5F5F5F5F5F5F5F5F5F5F5F5F5F5F5F5F5F5F5F5F5F5F5F5F5F5F5F5F5F5F5F5F5F5F5F5F5F5F5F5F5F5F5F5F5F5F5F5F5F5F5F5F5F5F5F5F5F5F5F5F5F5F5F5F5F5F5F5F5F5F5F5F5F5F5F5F5F5F5F5F5F5F5F5F5F5F5F5F5F5F5F5F5E2F5F5F5F5F5F5F5F5F5F5F5F5F5F5F5F5E2F5F5F5E2E2EFF5F5F5E2F5F5F5F5
310
F5F5F5F5F5F5F5F5F5F5F5F5E2F5F5F5F5F5F5F5F5F5F5F5F5F5F5F5F5F5F5F5F5F5F5F5F5F5F5F5F5F5F5F5F5F5F5F5F5F5F5F5F5F5F5F5F5F5F5F5F5F5F5F5F5F5F5F5F5F5F5F5F5F5F5F5F5F5F5F5F5F5F5F5F5F5F5F5F5F5F5F5F5F5F5F5F5F5F5F5F5F5F5F5F5F5F5F5F5F5F5F5F5F5F5F5F5F5F5F5F5F5F5F5F5F5F5
310
F5F5F5F5F5F5F5F5F5F5F5F5F5F5F5F5F5F5F5F5F5E2F5F5F5F5F5F5F5F5F5F5F5F5F5F5F5F5E2F5F5F5E2E2EFF5F5F5F5F5F5F5F5F5F5F5F5F5F5F5F5F5F5F5F5E2F5F5F5F5F5F5F5F5F5F5F5F5F5F5F5F5F5F5F5F5F5F5F5F5F5F5F5F5F5F5F5F5F5F5F5F5F5F5F5F5F5F5F5F5F5F5F5F5F5F5F5F5F5F5F5F5F5F5F5F5F5
310
F5F5F5F5F5F5F5F5F5F5F5F5F5F5F5F5F5F5F5F5F5F5F5F5F5F5F5F5F5F5F5F5F5F5F5F5F5F5F5F5F5F5F5F5F5F5F5F5F5F5F5F5F5F5F5F5F5F5F5F5F5F5F5F5F5F5F5F5F5F5F5F5F5F5E2F5F5F5F5F5F5F5F5F5F5F5F5F5F5F5F5F5F5F5F5E2E2EFF5F5F5F5F5F5F5F5F5F5F5F5F5F5F5F5F5F5F5F5E2F5F5F5F5F5F5F5F5
310
F5F5F5F5F5F5F5F5F5F5F5F5F5F5F5F5F5F5F5F5F5F5F5F5F5F5F5F5F5F5F5F5F5F5F5F5F5F5F5F5F5F5F5F5F5F5F5F5F5F5F5F5F5F5F5F5F5F5F5F5F5F5F5F5F5F5F5F5F5F5F5F5F5F5F5F5F5F5F5F5F5F5F5F5F5F5F5F5F5F5F5F5F5F5F5F5F5F5F5F5F5F5F5F5F5F5F5F5F5F5F5F5F5F5F5F5F5F5F5F5F5F5F5F5F5F5F5
310
E2F5F5F5F5F5F5F5F5F5F5F5F5F5F5F5F5F5F5F5F5E2E2EFF5F5F5F5F5F5F5F5F5F5F5F5F5F5F5F5F5F5F5F5E2F5F5F5F5F5F5F5F5F5F5F5F5F5F5F5F5F5F5F5F5F5F5F5F5F5F5F5F5F5F5F5F5F5F5F5F5F5F5F5F5F5F5F5F5F5F5F5F5F5F5F5F5F5F5F5F5F5F5F5F5F5F5F5F5F5F5F5F5F5F5F5F5F5F5F5F5F5F5F5F5F5F5
310
F5F5F5F5F5F5F5F5F5F5F5F5F5F5F5F5F5F5F5F5F5F5F5F5F5F5F5F5F5F5F5F5F5F5F5F5F5F5F5F5F5F5F5F5F5F5F5F5F5F5F5F5F5E2F5F5F5F5F5F5F5F5F5F5F5F5F5F5F5F5F5F5F5F5E2E2EFF5F5F5F5F5F5F5F5F5F5F5F5F5F5F5F5F5F5F5F5E2F5F5F5F5F5F5F5F5F5F5F5F5F5F5F5F5F5F5F5F5F5F5F5F5F5F5F5F5F5
310
F5F5F5F5F5F5F5F5F5F5F5F5F5F5F5F5F5F5F5F5F5F5F5F5F5F5F5F5F5F5F5F5F5F5F5F5F5F5F5F5F5F5F5F5F5F5F5F5F5F5F5F5F5F5F5F5F5F5F5F5F5F5F5F5F5F5F5F5F5F5F5F5F5F5F5F5F5F5F5F5F5F5F5F5F5F5F5F5F5F5F5F5F5F5F5F5F5F5F5F5F5F5F5F5F5F5E2F5F5F5F5F5F5F5F5F5F5F5F5F5F5F5F5F5F5F5F5
310
E2E2EFF5F5F5F5F5F5F5F5F5F5F5F5F5F5F5F5F5F5F5F5E2F5F5F5F5F5F5F5F5F5F5F5F5F5F5F5F5F5F5F5F5F5F5F5F5F5F5F5F5F5F5F5F5F5F5F5F5F5F5F5F5F5F5F5F5F5F5F5F5F5F5F5F5F5F5F5F5F5F5F5F5F5F5F5F5F5F5F5F5F5F5F5F5F5F5F5F5F5F5F5F5F5F5F5F5F5F5F5F5F5F5F5F5F5F5F5F5F5F5F5F5F5F5F5
310
F5F5F5F5F5F5F5F5F5F5F5F5F5F5F5F5F5F5F5F5F5F5F5F5F5F5F5F5F5F5F5F5E2F5F5F5F5F5F5F5F5F5F5F5F5F5F5F5F5F5F5F5F5E2E2EFF5F5F5F5F5F5F5F5F5F5F5F5F5F5F5F5F5F5F5F5E2F5F5F5F5F5F5F5F5F5F5F5F5F5F5F5F5F5F5F5F5F5F5F5F5F5F5F5F5F5F5F5F5F5F5F5F5F5F5F5F5F5F5F5F5F5F5F5F5F5F5
310
F5F5F5F5F5F5F5F5F5F5F5F5F5F5F5F5F5F5F5F5F5F5F5F5F5F5F5F5F5F5F5F5F5F5F5F5F5F5F5F5F5F5F5F5F5F5F5F5F5F5F5F5F5F5F5F5F5F5F5F5F5F5F5F5F5F5F5F5F5F5F5F5F5F5F5F5F5F5F5F5F5F5F5F5F5E2F5F5F5F5F5F5F5F5F5F5F5F5F5F5F5F5F5F5F5F5E2E2EFF5F5F5F5F5F5F5F5F5F5F5F5F5F5F5F5F5F5
310
F5F5E2F5F5F5F5F5F5F5F5F5F5F5F5F5F5F5F5F5F5F5F5F5F5F5F5F5F5F5F5F5F5F5F5F5F5F5F5F5F5F5F5F5F5F5F5F5F5F5F5F5F5F5F5F5F5F5F5F5F5F5F5F5F5F5F5F5F5F5F5F5F5F5F5F5F5F5F5F5F5F5F5F5F5F5F5F5F5F5F5F5F5F5F5F5F5F5F5F5F5F5F5F5F5F5F5F5F5F5F5F5F5F5F5F5F5F5F5F5F5F5F5F5F5F5F5
310
F5F5F5F5F5F5F5F5F5F5F5E2F5F5F5F5F5F5F5F5F5F5F5F5F5F5F5F5F5F5F5F5E2E2EFF5F5F5F5F5F5F5F5F5F5F5F5F5F5F5F5F5F5F5F5E2F5F5F5F5F5F5F5F5F5F5F5F5F5F5F5F5F5F5F5F5F5F5F5F5F5F5F5F5F5F5F5F5F5F5F5F5F5F5F5F5F5F5F5F5F5F5F5F5F5F5F5F5F5F5F5F5F5F5F5F5F5F5F5F5F5F5F5F5F5F5F5
310
F5F5F5F5F5F5F5F5F5F5F5F5F5F5F5F5F5F5F5F5F5F5F5F5F5F5F5F5F5F5F5F5F5F5F5F5F5F5F5F5F5F5F5F5F5F5F5F5F5F5F5F5F5F5F5F5F5F5F5F5F5F5F5F5E2F5F5F5F5F5F5F5F5F5F5F5F5F5F5F5F5F5F5F5F5E2E2EFF5F5F5F5F5F5F5F5F5F5F5F5F5F5F5F5F5F5F5F5E2F5F5F5F5F5F5F5F5F5F5F5F5F5F5F5F5F5F5
310
F5F5F5F5F5F5F5F5F5F5F5F5F5F5F5F5F5F5F5F5F5F5F5F5F5F5F5F5F5F5F5F5F5F5F5F5F5F5F5F5F5F5F5F5F5F5F5F5F5F5F5F5F5F5F5F5F5F5F5F5F5F5F5F5F5F5F5F5F5F5F5F5F5F5F5F5F5F5F5F5F5F5F5F5F5F5F5F5F5F5F5F5F5F5F5F5F5F5F5F5F5F5F5F5F5F5F5F5F5F5F5F5F5F5F5F5F5E2F5F5F5F5F5F5F5F5F5
310
F5F5F5F5F5F5F5F5F5F5F5E2E2EFF5F5F5E2F5F5F5F5F5F5F5F5F5F5F5F5F5F5F5F5E2F5F5F5F5F5F5F5F5F5F5F5F5F5F5F5F5F5F5F5F5F5F5F5F5F5F5F5F5F5F5F5F5F5F5F5F5F5F5F5F5F5F5F5F5F5F5F5F5F5F5F5F5F5F5F5F5F5F5F5F5F5F5F5F5F5F5F5F5F5F5F5F5F5F5F5F5F5F5F5F5F5F5F5F5F5F5F5F5F5F5F5F5
310
F5F5F5F5F5F5F5F5F5F5F5F5F5F5F5F5F5F5F5F5F5F5F5F5F5F5F5F5F5F5F5F5F5F5F5F5F5F5F5F5F5F5F5E2F5F5F5F5F5F5F5F5F5F5F5F5F5F5F5F5E2F5F5F5E2E2EFF5F5F5E2F5F5F5F5F5F5F5F5F5F5F5F5F5F5F5F5E2F5F5F5F5F5F5F5F5F5F5F5F5F5F5F5F5F5F5F5F5F5F5F5F5F5F5F5F5F5F5F5F5F5F5F5F5F5F5F5
310
F5F5F5F5F5F5F5F5F5F5F5F5F5F5F5F5F5F5F5F5F5F5F5F5F5F5F5F5F5F5F5F5F5F5F5F5F5F5F5F5F5F5F5F5F5F5F5F5F5F5F5F5F5F5F5F5F5F5F5F5F5F5F5F5F5F5F5F5F5F5F5F5F5F5F5F5F5F5F5F5F5F5F5F5F5F5F5F5F5F5F5F5F5F5F5F5E2F5F5F5F5F5F5F5F5F5F5F5F5F5F5F5F5E2F5F5F5E2E2EFF5F5F5E2F5F5F5
310
F5F5F5F5F5F5F5F5F5F5F5F5F5E2F5F5F5F5F5F5F5F5F5F5F5F5F5F5F5F5F5F5F5F5F5F5F5F5F5F5F5F5F5F5F5F5F5F5F5F5F5F5F5F5F5F5F5F5F5F5F5F5F5F5F5F5F5F5F5F5F5F5F5F5F5F5F5F5F5F5F5F5F5F5F5F5F5F5F5F5F5F5F5F5F5F5F5F5F5F5F5F5F5F5F5F5F5F5F5F5F5F5F5F5F5F5F5F5F5F5F5F5F5F5F5F5F5
310
F5F5F5F5F5F5F5F5F5F5F5F5F5F5F5F5F5F5F5F5F5F5E2F5F5F5F5F5F5F5F5F5F5F5F5F5F5F5F5E2F5F5F5E2E2EFF5F5F5E2F5F5F5F5F5F5F5F5F5F5F5F5F5F5F5F5E2F5F5F5F5F5F5F5F5F5F5F5F5F5F5F5F5F5F5F5F5F5F5F5F5F5F5F5F5F5F5F5F5F5F5F5F5F5F5F5F5F5F5F5F5F5F5F5F5F5F5F5F5F5F5F5F5F5F5F5F5
310
F5F5F5F5F5F5F5F5F5F5F5F5F5F5F5F5F5F5F5F5F5F5F5F5F5F5F5F5F5F5F5F5F5F5F5F5F5F5F5F5F5F5F5F5F5F5F5F5F5F5F5F5F5F5F5F5F5F5F5F5F5F5F5F5F5F5F5F5F5F5F5F5F5F5F5E2F5F5F5F5F5F5F5F5F5F5F5F5F5F5F5F5E2F5F5F5E2E2EFF5F5F5E2F5F5F5F5F5F5F5F5F5F5F5F5F5F5F5F5E2F5F5F5F5F5F5F5
310
F5F5F5F5F5F5F5F5F5F5F5F5F5F5F5F5F5F5F5F5F5F5F5F5F5F5F5F5F5F5F5F5F5F5F5F5F5F5F5F5F5F5F5F5F5F5F5F5F5F5F5F5F5F5F5F5F5F5F5F5F5F5F5F5F5F5F5F5F5F5F5F5F5F5F5F5F5F5F5F5F5F5F5F5F5F5F5F5F5F5F5F5F5F5F5F5F5F5F5F5F5F5F5F5F5F5F5F5F5F5F5F5F5F5F5F5F5F5F5F5F5F5F5F5F5F5F5
310
F5E2F5F5F5F5F5F5F5F5F5F5F5F5F5F5F5F5E2F5F5F5E2E2EFF5F5F5E2F5F5F5F5F5F5F5F5F5F5F5F5F5F5F5F5E2F5F5F5F5F5F5F5F5F5F5F5F5F5F5F5F5F5F5F5F5F5F5F5F5F5F5F5F5F5F5F5F5F5F5F5F5F5F5F5F5F5F5F5F5F5F5F5F5F5F5F5F5F5F5F5F5F5F5F5F5F5F5F5F5F5F5F5F5F5F5F5F5F5F5F5F5F5F5F5F5F5
310
F5F5F5F5F5F5F5F5F5F5F5F5F5F5F5F5F5F5F5F5F5F5F5F5F5F5F5F5F5F5F5F5F5F5F5F5F5F5F5F5F5F5F5F5F5F5F5F5F5F5F5F5F5F5E2F5F5F5F5F5F5F5F5F5F5F5F5F5F5F5F5E2F5F5F5E2E2EFF5F5F5E2F5F5F5F5F5F5F5F5F5F5F5F5F5F5F5F5E2F5F5F5F5F5F5F5F5F5F5F5F5F5F5F5F5F5F5F5F5F5F5F5F5F5F5F5F5
310
F5F5F5F5F5F5F5F5F5F5F5F5F5F5F5F5F5F5F5F5F5F5F5F5F5F5F5F5F5F5F5F5F5F5F5F5F5F5F5F5F5F5F5F5F5F5F5F5F5F5F5F5F5F5F5F5F5F5F5F5F5F5F5F5F5F5F5F5F5F5F5F5F5F5F5F5F5F5F5F5F5F5F5F5F5F5F5F5F5F5F5F5F5F5F5F5F5F5F5F5F5F5F5F5F5F5F5E2F5F5F5F5F5F5F5F5F5F5F5F5F5F5F5F5E2F5F5
310
F5E2E2EFF5F5F5E2F5F5F5F5F5F5F5F5F5F5F5F5F5F5F5F5E2F5F5F5F5F5F5F5F5F5F5F5F5F5F5F5F5F5F5F5F5F5F5F5F5F5F5F5F5F5F5F5F5F5F5F5F5F5F5F5F5F5F5F5F5F5F5F5F5F5F5F5F5F5F5F5F5F5F5F5F5F5F5F5F5F5F5F5F5F5F5F5F5F5F5F5F5F5F5F5F5F5F5F5F5F5F5F5F5F5F5F5F5F5F5F5F5F5F5F5F5F5F5
310
F5F5F5F5F5F5F5F5F5F5F5F5F5F5F5F5F5F5F5F5F5F5F5F5F5F5F5F5F5F5F5F5F5E2F5F5F5F5F5F5F5F5F5F5F5F5F5F5F5F5E2F5F5F5E2E2EFF5F5F5E2F5F5F5F5F5F5F5F5F5F5F5F5F5F5F5F5E2F5F5F5F5F5F5F5F5F5F5F5F5F5F5F5F5F5F5F5F5F5F5F5F5F5F5F5F5F5F5F5F5F5F5F5F5F5F5F5F5F5F5F5F5F5F5F5F5F5
310
F5F5F5F5F5F5F5F5F5F5F5F5F5F5F5F5F5F5F5F5F5F5F5F5F5F5F5F5F5F5F5F5F5F5F5F5F5F5F5F5F5F5F5F5F5F5F5F5F5F5F5F5F5F5F5F5F5F5F5F5F5F5F5F5F5F5F5F5F5F5F5F5F5F5F5F5F5F5F5F5F5F5F5F5F5F5E2F5F5F5F5F5F5F5F5F5F5F5F5F5F5F5F5E2F5F5F5E2E2EFF5F5F5E2F5F5F5F5F5F5F5F5F5F5F5F5F5
310
F5F5F5E2F5F5F5F5F5F5F5F5F5F5F5F5F5F5F5F5F5F5F5F5F5F5F5F5F5F5F5F5F5F5F5F5F5F5F5F5F5F5F5F5F5F5F5F5F5F5F5F5F5F5F5F5F5F5F5F5F5F5F5F5F5F5F5F5F5F5F5F5F5F5F5F5F5F5F5F5F5F5F5F5F5F5F5F5F5F5F5F5F5F5F5F5F5F5F5F5F5F5F5F5F5F5F5F5F5F5F5F5F5F5F5F5F5F5F5F5F5F5F5F5F5F5F5
310
F5F5F5F5F5F5F5F5F5F5F5F5E2F5F5F5F5F5F5F5F5F5F5F5F5F5F5F5F5E2F5F5F5E2E2EFF5F5F5E2F5F5F5F5F5F5F5F5F5F5F5F5F5F5F5F5E2F5F5F5F5F5F5F5F5F5F5F5F5F5F5F5F5F5F5F5F5F5F5F5F5F5F5F5F5F5F5F5F5F5F5F5F5F5F5F5F5F5F5F5F5F5F5F5F5F5F5F5F5F5F5F5F5F5F5F5F5F5F5F5F5F5F5F5F5F5F5
310
F5F5F5F5F5F5F5F5F5F5F5F5F5F5F5F5F5F5F5F5F5F5F5F5F5F5F5F5F5F5F5F5F5F5F5F5F5F5F5F5F5F5F5F5F5F5F5F5F5F5F5F5F5F5F5F5F5F5F5F5F5F5F5F5F5E2F5F5F5F5F5F5F5F5F5F5F5F5F5F5F5F5E2F5F5F5E2E2EFF5F5F5E2F5F5F5F5F5F5F5F5F5F5F5F5F5F5F5F5E2F5F5F5F5F5F5F5F5F5F5F5F5F5F5F5F5F5
310
F5F5F5F5F5F5F5F5F5F5F5F5F5F5F5F5F5F5F5F5F5F5F5F5F5F5F5F5F5F5F5F5F5F5F5F5F5F5F5F5F5F5F5F5F5F5F5F5F5F5F5F5F5F5F5F5F5F5F5F5F5F5F5F5F5F5F5F5F5F5F5F5F5F5F5F5F5F5F5F5F5F5F5F5F5F5F5F5F5F5F5F5F5F5F5F5F5F5F5F5F5F5F5F5F5F5F5F5F5F5F5F5F5F5F5F5F5F5E2F5F5F5F5F5F5F5F5
310
F5F5F5F5F5F5F5F5E2F5F5F5E2E2EFF5F5F5E2F5F5F5F5F5F5F5F5F5F5F5F5F5F5F5F5E2F5F5F5F5F5F5F5F5F5F5F5F5F5F5F5F5F5F5F5F5F5F5F5F5F5F5F5F5F5F5F5F5F5F5F5F5F5F5F5F5F5F5F5F5F5F5F5F5F5F5F5F5F5F5F5F5F5F5F5F5F5F5F5F5F5F5F5F5F5F5F5F5F5F5F5F5F5F5F5F5F5F5F5F5F5F5F5F5F5F5F5
310
F5F5F5F5F5F5F5F5F5F5F5F5F5F5F5F5F5F5F5F5F5F5F5F5F5F5F5F5F5F5F5F5F5F5F5F5F5F5F5F5F5F5F5F5E2F5F5F5F5F5F5F5F5F5F5F5F5F5F5F5F5E2F5F5F5E2E2EFF5F5F5E2F5F5F5F5F5F5F5F5F5F5F5F5F5F5F5F5E2F5F5F5F5F5F5F5F5F5F5F5F5F5F5F5F5F5F5F5F5F5F5F5F5F5F5F5F5F5F5F5F5F5F5F5F5F5F5
310
F5F5F5F5F5F5F5F5F5F5F5F5F5F5F5F5F5F5F5F5F5F5F5F5F5F5F5F5F5F5F5F5F5F5F5F5F5F5F5F5F5F5F5F5F5F5F5F5F5F5F5F5F5F5F5F5F5F5F5F5F5F5F5F5F5F5F5F5F5F5F5F5F5F5F5F5F5F5F5F5F5F5F5F5F5F5F5F5F5F5F5F5F5F5F5F5F5E2F5F5F5F5F5F5F5F5F5F5F5F5F5F5F5F5E2F5F5F5E2E2EFF5F5F5E2F5F5
310
F5F5F5F5F5F5F5F5F5F5F5F5F5F5E2F5F5F5F5F5F5F5F5F5F5F5F5F5F5F5F5F5F5F5F5F5F5F5F5F5F5F5F5F5F5F5F5F5F5F5F5F5F5F5F5F5F5F5F5F5F5F5F5F5F5F5F5F5F5F5F5F5F5F5F5F5F5F5F5F5F5F5F5F5F5F5F5F5F5F5F5F5F5F5F5F5F5F5F5F5F5F5F5F5F5F5F5F5F5F5F5F5F5F5F5F5F5F5F5F5F5F5F5F5F5F5F5
310
F5F5F5F5F5F5F5F5F5F5F5F5F5F5F5F5F5F5F5F5F5F5F5E2F5F5F5F5F5F5F5F5F5F5F5F5F5F5F5F5E2F5F5F5E2E2EFF5F5F5E2F5F5F5F5F5F5F5F5F5F5F5F5F5F5F5F5E2F5F5F5F5F5F5F5F5F5F5F5F5F5F5F5F5F5F5F5F5F5F5F5F5F5F5F5F5F5F5F5F5F5F5F5F5F5F5F5F5F5F5F5F5F5F5F5F5F5F5F5F5F5F5F5F5F5F5F5
310
F5F5F5F5F5F5F5F5F5F5F5F5F5F5F5F5F5F5F5F5F5F5F5F5F5F5F5F5F5F5F5F5F5F5F5F5F5F5F5F5F5F5F5F5F5F5F5F5F5F5F5F5F5F5F5F5F5F5F5F5F5F5F5F5F5F5F5F5F5F5F5F5F5F5F5F5E2F5F5F5F5F5F5F5F5F5F5F5F5F5F5F5F5E2F5F5F5E2E2EFF5F5F5E2F5F5F5F5F5F5F5F5F5F5F5F5F5F5F5F5E2F5F5F5F5F5F5
310
F5F5F5F5F5F5F5F5F5F5F5F5F5F5F5F5F5F5F5F5F5F5F5F5F5F5F5F5F5F5F5F5F5F5F5F5F5F5F5F5F5F5F5F5F5F5F5F5F5F5F5F5F5F5F5F5F5F5F5F5F5F5F5F5F5F5F5F5F5F5F5F5F5F5F5F5F5F5F5F5F5F5F5F5F5F5F5F5F5F5F5F5F5F5F5F5F5F5F5F5F5F5F5F5F5F5F5F5F5F5F5F5F5F5F5F5F5F5F5F5F5F5F5F5F5F5F5
310
F5F5E2F5F5F5F5F5F5F5F5F5F5F5F5F5F5F5F5E2F5F5F5E2E2EFF5F5F5F5F5F5F5F5F5F5F5F5F5F5F5F5F5F5F5F5E2F5F5F5F5F5F5F5F5F5F5F5F5F5F5F5F5F5F5F5F5F5F5F5F5F5F5F5F5F5F5F5F5F5F5F5F5F5F5F5F5F5F5F5F5F5F5F5F5F5F5F5F5F5F5F5F5F5F5F5F5F5F5F5F5F5F5F5F5F5F5F5F5F5F5F5F5F5F5F5F5
310
F5F5F5F5F5F5F5F5F5F5F5F5F5F5F5F5F5F5F5F5F5F5F5F5F5F5F5F5F5F5F5F5F5F5F5F5F5F5F5F5F5F5F5F5F5F5F5F5F5F5F5F5F5F5F5E2F5F5F5F5F5F5F5F5F5F5F5F5F5F5F5F5F5F5F5F5E2E2EFF5F5F5F5F5F5F5F5F5F5F5F5F5F5F5F5F5F5F5F5E2F5F5F5F5F5F5F5F5F5F5F5F5F5F5F5F5F5F5F5F5F5F5F5F5F5F5F5
310
F5F5F5F5F5F5F5F5F5F5F5F5F5F5F5F5F5F5F5F5F5F5F5F5F5F5F5F5F5F5F5F5F5F5F5F5F5F5F5F5F5F5F5F5F5F5F5F5F5F5F5F5F5F5F5F5F5F5F5F5F5F5F5F5F5F5F5F5F5F5F5F5F5F5F5F5F5F5F5F5F5F5F5F5F5F5F5F5F5F5F5F5F5F5F5F5F5F5F5F5F5F5F5F5F5F5F5F5E2F5F5F5F5F5F5F5F5F5F5F5F5F5F5F5F5F5F5
310
F5F5E2E2EFF5F5F5F5F5F5F5F5F5F5F5F5F5F5F5F5F5F5F5F5E2F5F5F5F5F5F5F5F5F5F5F5F5F5F5F5F5F5F5F5F5F5F5F5F5F5F5F5F5F5F5F5F5F5F5F5F5F5F5F5F5F5F5F5F5F5F5F5F5F5F5F5F5F5F5F5F5F5F5F5F5F5F5F5F5F5F5F5F5F5F5F5F5F5F5F5F5F5F5F5F5F5F5F5F5F5F5F5F5F5F5F5F5F5F5F5F5F5F5F5F5F5
310
F5F5F5F5F5F5F5F5F5F5F5F5F5F5F5F5F5F5F5F5F5F5F5F5F5F5F5F5F5F5F5F5F5F5E2F5F5F5F5F5F5F5F5F5F5F5F5F5F5F5F5F5F5F5F5E2E2EFF5F5F5F5F5F5F5F5F5F5F5F5F5F5F5F5F5F5F5F5E2F5F5F5F5F5F5F5F5F5F5F5F5F5F5F5F5F5F5F5F5F5F5F5F5F5F5F5F5F5F5F5F5F5F5F5F5F5F5F5F5F5F5F5F5F5F5F5F5
310
F5F5F5F5F5F5F5F5F5F5F5F5F5F5F5F5F5F5F5F5F5F5F5F5F5F5F5F5F5F5F5F5F5F5F5F5F5F5F5F5F5F5F5F5F5F5F5F5F5F5F5F5F5F5F5F5F5F5F5F5F5F5F5F5F5F5F5F5F5F5F5F5F5F5F5F5F5F5F5F5F5F5F5F5F5F5F5E2F5F5F5F5F5F5F5F5F5F5F5F5F5F5F5F5F5F5F5F5E2E2EFF5F5F5F5F5F5F5F5F5F5F5F5F5F5F5F5
310
F5F5F5F5E2E2E2E2E2E2E2E2E2E2E2E2E2E2E2E2E2E2E2E2E2E2E2E2E2E2E2E2E2E2E2E2E2E2E2E2E2E2E2E2E2E2E2E2E2E2E2E2E2E2E2E2E2E2E2E2E2E2E2E2E2E2E2E2E2E2E2E2E2E2E2E2E2E2E2E2E2E2E2E2E2E2E2E2E2E2E2E2E2E2E2E2E2E2E2E2E2E2E2E2E2E2E2E2E2E2E2E2E2E2E2E2E2E2E2E2E2E2E2E2E2E2E2
310
E2E2E2E2E2E2E2E2E2E2E2E2E2E2F5F5F5F5F5F5F5F5F5F5F5F5F5F5F5F5F5F5F5F5E2E2EFF5F5F5F5F5F5F5F5F5F5F5F5F5F5F5F5F5F5F5F5F5F5F5F5F5F5F5F5F5F5F5F5F5F5F5F5F5F5F5F5F5F5F5F5F5F5F5F5F5F5F5F5F5F5F5F5F5F5F5F5F5F5F5F5F5F5F5F5F5F5F5F5F5F5F5F5F5F5F5F5F5F5F5F5F5F5F5F5F5F5
310
F5F5F5F5F5F5F5F5F5F5F5F5F5F5F5F5F5F5F5F5F5F5F5F5F5F5F5F5F5F5F5F5F5F5F5F5F5F5F5F5F5F5F5F5F5F5F5F5F5F5F5F5F5F5F5F5F5F5F5F5F5F5F5F5F5F5F5F5F5F5F5F5F5F5F5F5F5F5F5F5F5F5F5F5F5F5F5E2E2EFF5F5F5F5F5F5F5F5F5F5F5F5F5F5F5F5F5F5F5F5F5F5F5F5F5F5F5F5F5F5F5F5F5F5F5F5F5
310
F5F5F5F5F5F5F5F5F5F5F5F5F5F5F5F5F5F5F5F5F5F5F5F5F5F5F5F5F5F5F5F5F5F5F5F5F5F5F5F5F5F5F5F5F5F5F5F5F5F5F5F5F5F5F5F5F5F5F5F5F5F5F5F5F5F5F5F5F5F5F5F5F5F5F5F5F5F5F5F5F5F5F5F5F5F5F5F5F5F5F5F5F5F5F5F5F5F5F5F5F5F5F5F5F5F5F5F5F5F5F5F5F5F5F5F5F5F5F5F5F5F5F5F5F5F5F5
310
F5F5F5F5F5F5F5F5F5F5F5F5F5E2E2EFF5F5F5F5F5F5F5F5F5F5F5F5F5F5F5F5F5F5F5F5F5F5F5F5F5F5F5F5F5F5F5F5F5F5F5F5F5F5F5F5F5F5F5F5F5F5F5F5F5F5F5F5F5F5F5F5F5F5F5F5F5F5F5F5F5F5F5F5F5F5F5F5F5F5F5F5F5F5F5F5F5F5F5F5F5F5F5F5F5F5F5F5F5F5F5F5F5F5F5F5F5F5F5F5F5F5F5F5F5F5F5
310
F5F5F5F5F5F5F5F5F5F5F5F5F5F5F5F5F5F5F5F5F5F5F5F5F5F5F5F5F5F5F5F5F5F5F5F5F5F5F5F5F5F5F5F5F5F5F5F5F5F5F5F5F5F5F5F5F5F5F5F5F5F5F5F5F5F5E2E2EFF5F5F5F5F5F5F5F5F5F5F5F5F5F5F5F5F5F5F5F5F5F5F5F5F5F5F5F5F5F5F5F5F5F5F5F5F5F5F5F5F5F5F5F5F5F5F5F5F5F5F5F5F5F5F5F5F5F5
310
F5F5F5F5F5F5F5F5F5F5F5F5F5F5F5F5F5F5F5F5F5F5F5F5F5F5F5F5F5F5F5F5F5F5F5F5F5F5F5F5F5F5F5F5F5F5F5F5F5F5F5F5F5F5F5F5F5F5F5F5F5F5F5F5F5F5F5F5F5F5F5F5F5F5F5F5F5F5F5F5F5F5F5F5F5F5F5F5F5F5F5F5F5F5F5F5F5F5F5F5F5F5F5F5F5F5F5F5F5F5F5F5F5F5F5F5F5F5F5E2E2EFF5F5F5E2F5
310
F5F5F5F5F5F5F5F5F5F5F5F5F5F5F5F5F5F5F5F5F5F5F5F5F5F5F5F5F5F5F5F5F5F5F5F5F5F5F5F5F5F5F5F5F5F5F5F5F5F5F5F5F5F5F5F5F5F5F5F5F5F5F5F5F5F5F5F5F5F5F5F5F5F5F5F5F5F5F5F5F5F5F5F5F5F5F5F5F5F5F5F5F5F5F5F5F5F5F5F5F5F5F5F5F5F5F5F5F5F5F5F5F5F5F5F5F5F5F5F5F5F5F5F5F5F5F5
310
F5F5F5F5F5F5F5F5F5F5F5F5F5F5F5F5F5F5F5F5F5F5F5F5F5F5F5F5F5F5F5F5F5F5F5F5F5F5F5F5F5E2F5F5F5E2E2EFF5F5F5E2F5F5F5F5F5F5F5F5F5F5F5F5F5F5F5F5F5F5F5F5F5F5F5F5F5F5F5F5F5F5F5F5F5F5F5F5F5F5F5F5F5F5F5F5F5F5F5F5F5F5F5F5F5F5F5F5F5F5F5F5F5F5F5F5F5F5F5F5F5F5F5F5F5F5F5
310
F5F5F5F5F5F5F5F5F5F5F5F5F5F5F5F5F5F5F5F5F5F5F5F5F5F5F5F5F5F5F5F5F5F5F5F5F5F5F5F5F5F5F5F5F5F5F5F5F5F5F5F5F5F5F5F5F5F5F5F5F5F5F5F5F5F5F5F5F5F5F5F5F5F5F5F5F5F5F5F5F5F5F5F5F5F5F5F5F5F5F5F5F5F5E2F5F5F5E2E2EFF5F5F5E2F5F5F5F5F5F5F5F5F5F5F5F5F5F5F5F5F5F5F5F5F5F5
310
F5F5F5F5F5F5F5F5F5F5F5F5F5F5F5F5F5F5F5F5F5F5F5F5F5F5F5F5F5F5F5F5F5F5F5F5F5F5F5F5F5F5F5F5F5F5F5F5F5F5F5F5F5F5F5F5F5F5F5F5F5F5F5F5F5F5F5F5F5F5F5F5F5F5F5F5F5F5F5F5F5F5F5F5F5F5F5F5F5F5F5F5F5F5F5F5F5F5F5F5F5F5F5F5F5F5F5F5F5F5F5F5F5F5F5F5F5F5F5F5F5F5F5F5F5F5F5
310
F5F5F5F5F5F5F5F5F5F5F5F5F5F5F5F5F5F5F5F5E2F5F5F5E2E2EFF5F5F5E2F5F5F5F5F5F5F5F5F5F5F5F5F5F5F5F5F5F5F5F5F5F5F5F5F5F5F5F5F5F5F5F5F5F5F5F5F5F5F5F5F5F5F5F5F5F5F5F5F5F5F5F5F5F5F5F5F5F5F5F5F5F5F5F5F5F5F5F5F5F5F5F5F5F5F5F5F5F5F5F5F5F5F5F5F5F5F5F5F5F5F5F5F5F5F5F5
310
F5F5F5F5F5F5F5F5F5F5F5F5F5F5F5F5F5F5F5F5F5F5F5F5F5F5F5F5F5F5F5F5F5F5F5F5F5F5F5F5F5F5F5F5F5F5F5F5F5F5F5F5F5F5F5F5F5F5F5F5F5F5F5F5F5F5F5F5F5F5F5F5F5E2F5F5F5E2E2EFF5F5F5E2F5F5F5F5F5F5F5F5F5F5F5F5F5F5F5F5F5F5F5F5F5F5F5F5F5F5F5F5F5F5F5F5F5F5F5F5F5F5F5F5F5F5F5
310
F5F5F5F5F5F5F5F5F5F5F5F5F5F5F5F5F5F5F5F5F5F5F5F5F5F5F5F5F5F5F5F5F5F5F5F5F5F5F5F5F5F5F5F5F5F5F5F5F5F5F5F5F5F5F5F5F5F5F5F5F5F5F5F5F5F5F5F5F5F5F5F5F5F5F5F5F5F5F5F5F5F5F5F5F5F5F5F5F5F5F5F5F5F5F5F5F5F5F5F5F5F5F5F5F5F5F5F5F5F5F5F5F5F5F5F5F5F5F5F5F5F5F5F5F5F5E2
310
F5F5F5E2E2EFF5F5F5E2F5F5F5F5F5F5F5F5F5F5F5F5F5F5F5F5F5F5F5F5F5F5F5F5F5F5F5F5F5F5F5F5F5F5F5F5F5F5F5F5F5F5F5F5F5F5F5F5F5F5F5F5F5F5F5F5F5F5F5F5F5F5F5F5F5F5F5F5F5F5F5F5F5F5F5F5F5F5F5F5F5F5F5F5F5F5F5F5F5F5F5F5F5F5F5F5F5F5F5F5F5F5F5F5F5F5F5F5F5F5F5F5F5F5F5F5F5
310
F5F5F5F5F5F5F5F5F5F5F5F5F5F5F5F5F5F5F5F5F5F5F5F5F5F5F5F5F5F5F5F5F5F5F5F5F5F5F5F5F5F5F5F5F5F5F5F5F5F5F5F5E2F5F5F5E2E2EFF5F5F5E2F5F5F5F5F5F5F5F5F5F5F5F5F5F5F5F5F5F5F5F5F5F5F5F5F5F5F5F5F5F5F5F5F5F5F5F5F5F5F5F5F5F5F5F5F5F5F5F5F5F5F5F5F5F5F5F5F5F5F5F5F5F5F5F5
310
F5F5F5F5F5F5F5F5F5F5F5F5F5F5F5F5F5F5F5F5F5F5F5F5F5F5F5F5F5F5F5F5F5F5F5F5F5F5F5F5F5F5F5F5F5F5F5F5F5F5F5F5F5F5F5F5F5F5F5F5F5F5F5F5F5F5F5F5F5F5F5F5F5F5F5F5F5F5F5F5F5F5F5F5F5F5F5F5F5F5F5F5F5F5F5F5F5F5F5F5F5F5F5F5F5E2F5F5F5E2E2EFF5F5F5E2F5F5F5F5F5F5F5F5F5F5F5
310
F5F5F5F5F5F5F5F5F5F5F5F5F5F5F5F5F5F5F5F5F5F5F5F5F5F5F5F5F5F5F5F5F5F5F5F5F5F5F5F5F5F5F5F5F5F5F5F5F5F5F5F5F5F5F5F5F5F5F5F5F5F5F5F5F5F5F5F5F5F5F5F5F5F5F5F5F5F5F5F5F5F5F5F5F5F5F5F5F5F5F5F5F5F5F5F5F5F5F5F5F5F5F5F5F5F5F5F5F5F5F5F5F5F5F5F5F5F5F5F5F5F5F5F5F5F5F5
310
F5F5F5F5F5F5F5F5F5F5F5F5F5F5F5F5F5F5F5F5F5F5F5F5F5F5F5F5F5F5F5E2F5F5F5E2E2EFF5F5F5E2E2E2E2E2E2E2E2F5F5F5F5F5F5F5F5F5E2E2E2E2E2E2E2E2E2E2E2E2E2E2E2E2F5F5F5F5F5F5F5F5E2E2E2E2E2E2E2E2E2E2E2E2E2E2E2E2F5F5F5F5F5F5F5F5F5E2E2E2E2E2E2E2E2E2E2E2E2E2E2E2F5F5F5F5F5
310
F5F5F5F5E2E2E2E2E2E2E2E2E2E2E2E2E2E2E2F5F5F5F5F5F5F5F5F5E2E2E2E2E2E2E2E2E2E2E2E2E2E2E2E2F5F5F5F5F5F5F5F5E2E2E2E2E2E2E2E2E2E2E2E2E2E2E2E2F5F5F5F5F5F5F5F5F5E2E2E2E2E2E2E2E2F5F5F5E2E2EFF5F5F5F5F5F5F5F5F5F5F5F5F5F5F5F5F5F5F5F5F5F5F5F5F5F5F5F5F5F5F5F5F5F5F5F5
310
F5F5F5F5F5F5F5F5F5F5F5F5F5F5F5F5F5F5F5F5F5F5F5F5F5F5F5F5F5F5F5F5F5F5F5F5F5F5F5F5F5F5F5F5F5F5F5F5F5F5F5F5F5F5F5F5F5F5F5F5F5F5F5F5F5F5F5F5F5F5F5F5F5F5F5F5F5F5F5F5F5F5F5F5F5F5F5F5F5F5F5F5F5F5F5F5F5F5F5F5F5F5F5F5F5F5F5F5F5F5F5F5F5F5F5F5F5F5F5F5F5F5F5F5F5F5F5
310
F5F5F5F5F5F5F5F5F5F5F5F5F5F5E2E2EFF5F5F5F5F5F5F5F5F5F5F5F5F5F5F5F5F5F5F5F5F5F5F5F5F5F5F5F5F5F5F5F5F5F5F5F5F5F5F5F5F5F5F5F5F5F5F5F5F5F5F5F5F5F5F5F5F5F5F5F5F5F5F5F5F5F5F5F5F5F5F5F5F5F5F5F5F5F5F5F5F5F5F5F5F5F5F5F5F5F5F5F5F5F5F5F5F5F5F5F5F5F5F5F5F5F5F5F5F5F5
310
F5F5F5F5F5F5F5F5F5F5F5F5F5F5F5F5F5F5F5F5F5F5F5F5F5F5F5F5F5F5F5F5F5F5F5F5F5F5F5F5F5F5F5F5F5F5F5F5F5F5F5F5F5F5F5F5F5F5F5F5F5F5F5F5F5F5F5E2EFEFF5F5F5F5F5F5F5F5F5F5F5F5F5F5F5F5F5F5F5F5F5F5F5F5F5F5F5F5F5F5F5F5F5F5F5F5F5F5F5F5F5F5F5F5F5F5F5F5F5F5F5F5F5F5F5F5F5
310
F5F5F5F5F5F5F5F5F5F5F5F5F5F5F5F5F5F5F5F5F5F5F5F5F5F5F5F5F5F5F5F5F5F5F5F5F5F5F5F5F5F5F5F5F5F5F5F5F5F5F5F5F5F5F5F5F5F5F5F5F5F5F5F5F5F5F5F5F5F5F5F5F5F5F5F5F5F5F5F5F5F5F5F5F5F5F5F5F5F5F5F5F5F5F5F5F5F5F5F5F5F5F5F5F5F5F5F5F5F5F5F5F5F5F5F5F5F5F5F5E2EFEFE2E2E2E2
310
E2E2E2E2E2E2E2E2E2E2E2E2E2E2E2E2E2E2E2E2E2E2E2E2E2E2E2E2E2E2E2E2E2E2E2E2E2E2E2E2E2E2E2E2E2E2E2E2E2E2E2E2E2E2E2E2E2E2E2E2E2E2E2E2E2E2E2E2E2E2E2E2E2E2E2E2E2E2E2E2E2E2E2E2E2E2E2E2E2E2E2E2E2E2E2E2E2E2E2E2E2E2E2E2E2E2E2E2E2E2E2E2E2E2E2E2E2E2E2E2E2E2E2E2E2E2E2
310
E2E2E2E2E2E2E2E2E2E2E2E2E2E2E2E2E2E2E2E2E2E2E2E2E2E2E2E2E2E2E2E2E2E2E2E2E2E2E2E2E2E2E2E2E2E2E2EFEF
  0
ENDSEC
  0
EOF
