  0
SECTION
  2
HEADER
  9
$ACADVER
  1
AC1018
  9
$ACADMAINTVER
 70
     0
  9
$DWGCODEPAGE
  3
ANSI_1252
  9
$AUTHOR
  1
g6edxjah
  9
$LASTSAVEDBY
  1
g6edxjah
  9
$INSBASE
 10
0.0
 20
0.0
 30
0.0
  9
$EXTMIN
 10
22.043458
 20
-0.081542
 30
0.0
  9
$EXTMAX
 10
30.456542
 20
11.081542
 30
0.0
  9
$LIMMIN
 10
-1.706709
 20
-22.456709
  9
$LIMMAX
 10
54.206709
 20
33.456709
  9
$ORTHOMODE
 70
     0
  9
$REGENMODE
 70
     1
  9
$FILLMODE
 70
     1
  9
$QTEXTMODE
 70
     0
  9
$MIRRTEXT
 70
     0
  9
$LTSCALE
 40
1.0
  9
$ATTMODE
 70
     1
  9
$TEXTSIZE
 40
0.12
  9
$TRACEWID
 40
0.05
  9
$TEXTSTYLE
  7
Standard
  9
$CLAYER
  8
DIM
  9
$CELTYPE
  6
Continuous
  9
$CECOLOR
 62
     7
  9
$CELTSCALE
 40
1.0
  9
$DISPSILH
 70
     0
  9
$DIMSCALE
 40
1.0
  9
$DIMASZ
 40
0.12
  9
$DIMEXO
 40
0.06
  9
$DIMDLI
 40
0.0
  9
$DIMRND
 40
0.0
  9
$DIMDLE
 40
0.0
  9
$DIMEXE
 40
0.06
  9
$DIMTP
 40
0.0
  9
$DIMTM
 40
0.0
  9
$DIMTXT
 40
0.12
  9
$DIMCEN
 40
0.09
  9
$DIMTSZ
 40
0.0
  9
$DIMTOL
 70
     0
  9
$DIMLIM
 70
     0
  9
$DIMTIH
 70
     0
  9
$DIMTOH
 70
     0
  9
$DIMSE1
 70
     0
  9
$DIMSE2
 70
     0
  9
$DIMTAD
 70
     1
  9
$DIMZIN
 70
    11
  9
$DIMBLK
  1
TerminatorOpen_0.5
  9
$DIMASO
 70
     1
  9
$DIMSHO
 70
     1
  9
$DIMPOST
  1

  9
$DIMAPOST
  1

  9
$DIMALT
 70
     0
  9
$DIMALTD
 70
     4
  9
$DIMALTF
 40
25.4
  9
$DIMLFAC
 40
1.0
  9
$DIMTOFL
 70
     0
  9
$DIMTVP
 40
0.0
  9
$DIMTIX
 70
     0
  9
$DIMSOXD
 70
     0
  9
$DIMSAH
 70
     0
  9
$DIMBLK1
  1

  9
$DIMBLK2
  1

  9
$DIMSTYLE
  2
Standard
  9
$DIMCLRD
 70
     0
  9
$DIMCLRE
 70
     0
  9
$DIMCLRT
 70
     0
  9
$DIMTFAC
 40
1.0
  9
$DIMGAP
 40
0.06
  9
$DIMJUST
 70
     0
  9
$DIMSD1
 70
     0
  9
$DIMSD2
 70
     0
  9
$DIMTOLJ
 70
     0
  9
$DIMTZIN
 70
    11
  9
$DIMALTZ
 70
    15
  9
$DIMALTTZ
 70
    15
  9
$DIMUPT
 70
     0
  9
$DIMDEC
 70
     4
  9
$DIMTDEC
 70
     4
  9
$DIMALTU
 70
     2
  9
$DIMALTTD
 70
     4
  9
$DIMTXSTY
  7
Style-Arial
  9
$DIMAUNIT
 70
     0
  9
$DIMADEC
 70
     4
  9
$DIMALTRND
 40
0.0
  9
$DIMAZIN
 70
     3
  9
$DIMDSEP
 70
    46
  9
$DIMATFIT
 70
     1
  9
$DIMFRAC
 70
     0
  9
$DIMLDRBLK
  1
TerminatorOpen_0.5
  9
$DIMLUNIT
 70
     2
  9
$DIMLWD
 70
    -2
  9
$DIMLWE
 70
    -2
  9
$DIMTMOVE
 70
     0
  9
$LUNITS
 70
     2
  9
$LUPREC
 70
     4
  9
$SKETCHINC
 40
0.1
  9
$FILLETRAD
 40
0.0
  9
$AUNITS
 70
     0
  9
$AUPREC
 70
     4
  9
$MENU
  1
.
  9
$ELEVATION
 40
0.0
  9
$PELEVATION
 40
0.0
  9
$THICKNESS
 40
0.0
  9
$LIMCHECK
 70
     0
  9
$CHAMFERA
 40
0.0
  9
$CHAMFERB
 40
0.0
  9
$CHAMFERC
 40
0.0
  9
$CHAMFERD
 40
0.0
  9
$SKPOLY
 70
     0
  9
$TDCREATE
 40
2455341.418225116
  9
$TDUCREATE
 40
2455341.626558449
  9
$TDUPDATE
 40
2455341.418225301
  9
$TDUUPDATE
 40
2455341.626558634
  9
$TDINDWG
 40
0.0
  9
$TDUSRTIMER
 40
0.0006630093
  9
$USRTIMER
 70
     1
  9
$ANGBASE
 50
0.0
  9
$ANGDIR
 70
     0
  9
$PDMODE
 70
     0
  9
$PDSIZE
 40
0.0
  9
$PLINEWID
 40
0.0
  9
$SPLFRAME
 70
     0
  9
$SPLINETYPE
 70
     6
  9
$SPLINESEGS
 70
     8
  9
$HANDSEED
  5
44D
  9
$SURFTAB1
 70
     6
  9
$SURFTAB2
 70
     6
  9
$SURFTYPE
 70
     6
  9
$SURFU
 70
     6
  9
$SURFV
 70
     6
  9
$UCSBASE
  2

  9
$UCSNAME
  2

  9
$UCSORG
 10
0.0
 20
0.0
 30
0.0
  9
$UCSXDIR
 10
1.0
 20
0.0
 30
0.0
  9
$UCSYDIR
 10
0.0
 20
1.0
 30
0.0
  9
$UCSORTHOREF
  2

  9
$UCSORTHOVIEW
 70
     0
  9
$UCSORGTOP
 10
0.0
 20
0.0
 30
0.0
  9
$UCSORGBOTTOM
 10
0.0
 20
0.0
 30
0.0
  9
$UCSORGLEFT
 10
0.0
 20
0.0
 30
0.0
  9
$UCSORGRIGHT
 10
0.0
 20
0.0
 30
0.0
  9
$UCSORGFRONT
 10
0.0
 20
0.0
 30
0.0
  9
$UCSORGBACK
 10
0.0
 20
0.0
 30
0.0
  9
$PUCSBASE
  2

  9
$PUCSNAME
  2

  9
$PUCSORG
 10
0.0
 20
0.0
 30
0.0
  9
$PUCSXDIR
 10
1.0
 20
0.0
 30
0.0
  9
$PUCSYDIR
 10
0.0
 20
1.0
 30
0.0
  9
$PUCSORTHOREF
  2

  9
$PUCSORTHOVIEW
 70
     0
  9
$PUCSORGTOP
 10
0.0
 20
0.0
 30
0.0
  9
$PUCSORGBOTTOM
 10
0.0
 20
0.0
 30
0.0
  9
$PUCSORGLEFT
 10
0.0
 20
0.0
 30
0.0
  9
$PUCSORGRIGHT
 10
0.0
 20
0.0
 30
0.0
  9
$PUCSORGFRONT
 10
0.0
 20
0.0
 30
0.0
  9
$PUCSORGBACK
 10
0.0
 20
0.0
 30
0.0
  9
$USERI1
 70
     0
  9
$USERI2
 70
     0
  9
$USERI3
 70
     0
  9
$USERI4
 70
     0
  9
$USERI5
 70
     0
  9
$USERR1
 40
0.0
  9
$USERR2
 40
0.0
  9
$USERR3
 40
0.0
  9
$USERR4
 40
0.0
  9
$USERR5
 40
0.0
  9
$WORLDVIEW
 70
     1
  9
$SHADEDGE
 70
     3
  9
$SHADEDIF
 70
    70
  9
$TILEMODE
 70
     1
  9
$MAXACTVP
 70
    64
  9
$PINSBASE
 10
0.0
 20
0.0
 30
0.0
  9
$PLIMCHECK
 70
     0
  9
$PEXTMIN
 10
1.049744
 20
0.799667
 30
-0.001526
  9
$PEXTMAX
 10
9.450623
 20
7.200577
 30
0.0
  9
$PLIMMIN
 10
-0.25
 20
-0.25
  9
$PLIMMAX
 10
10.75
 20
8.25
  9
$UNITMODE
 70
     0
  9
$VISRETAIN
 70
     1
  9
$PLINEGEN
 70
     0
  9
$PSLTSCALE
 70
     0
  9
$TREEDEPTH
 70
  3020
  9
$CMLSTYLE
  2
Standard
  9
$CMLJUST
 70
     0
  9
$CMLSCALE
 40
1.0
  9
$PROXYGRAPHICS
 70
     1
  9
$MEASUREMENT
 70
     0
  9
$CELWEIGHT
370
     0
  9
$ENDCAPS
280
     0
  9
$JOINSTYLE
280
     0
  9
$LWDISPLAY
290
     1
  9
$INSUNITS
 70
     2
  9
$HYPERLINKBASE
  1

  9
$STYLESHEET
  1

  9
$XEDIT
290
     1
  9
$CEPSNTYPE
380
     0
  9
$PSTYLEMODE
290
     1
  9
$FINGERPRINTGUID
  2
{02C0BBB5-38A7-4FBF-829E-00875EC88963}
  9
$VERSIONGUID
  2
{82C521FC-BF81-46B3-825E-420B6BD93A99}
  9
$EXTNAMES
290
     1
  9
$PSVPSCALE
 40
0.0
  9
$OLESTARTUP
290
     0
  9
$SORTENTS
280
   127
  9
$INDEXCTL
280
     0
  9
$HIDETEXT
280
     1
  9
$XCLIPFRAME
290
     0
  9
$HALOGAP
280
     0
  9
$OBSCOLOR
 70
   257
  9
$OBSLTYPE
280
     0
  9
$INTERSECTIONDISPLAY
280
     0
  9
$INTERSECTIONCOLOR
 70
   257
  9
$DIMASSOC
280
     1
  9
$PROJECTNAME
  1

  0
ENDSEC
  0
SECTION
  2
CLASSES
  0
CLASS
  1
ACDBDICTIONARYWDFLT
  2
AcDbDictionaryWithDefault
  3
ObjectDBX Classes
 90
        0
 91
        3
280
     0
281
     0
  0
CLASS
  1
SORTENTSTABLE
  2
AcDbSortentsTable
  3
ObjectDBX Classes
 90
        0
 91
        3
280
     0
281
     0
  0
ENDSEC
  0
SECTION
  2
TABLES
  0
TABLE
  2
VPORT
  5
431
330
0
100
AcDbSymbolTable
 70
     4
  0
VPORT
  5
49
330
431
100
AcDbSymbolTableRecord
100
AcDbViewportTableRecord
  2
*ACTIVE
 70
     0
 10
0.0
 20
0.0
 11
1.0
 21
1.0
 12
26.25
 22
5.5
 13
0.0
 23
0.0
 14
0.083333
 24
0.083333
 15
0.083333
 25
0.083333
 16
0.0
 26
0.0
 36
1.0
 17
0.0
 27
0.0
 37
0.0
 40
11.609607
 41
1.884937
 42
50.0
 43
0.0
 44
0.0
 50
0.0
 51
0.0
 71
     0
 72
   100
 73
     1
 74
     2
 75
     0
 76
     0
 77
     0
 78
     1
281
     0
 65
     1
110
0.0
120
0.0
130
0.0
111
1.0
121
0.0
131
0.0
112
0.0
122
1.0
132
0.0
 79
     0
146
0.0
  0
ENDTAB
  0
TABLE
  2
LTYPE
  5
418
330
0
100
AcDbSymbolTable
 70
     1
  0
LTYPE
  5
419
330
418
100
AcDbSymbolTableRecord
100
AcDbLinetypeTableRecord
  2
ByBlock
 70
     0
  3

 72
    65
 73
     0
 40
0.0
  0
LTYPE
  5
41A
330
418
100
AcDbSymbolTableRecord
100
AcDbLinetypeTableRecord
  2
ByLayer
 70
     0
  3

 72
    65
 73
     0
 40
0.0
  0
LTYPE
  5
417
330
418
100
AcDbSymbolTableRecord
100
AcDbLinetypeTableRecord
  2
Continuous
 70
     0
  3
Solid line
 72
    65
 73
     0
 40
0.0
  0
ENDTAB
  0
TABLE
  2
LAYER
  5
411
102
{ACAD_XDICTIONARY
360
412
102
}
330
0
100
AcDbSymbolTable
 70
    64
  0
LAYER
  5
410
330
411
100
AcDbSymbolTableRecord
100
AcDbLayerTableRecord
  2
0
 70
     0
 62
     7
  6
Continuous
370
    -3
390
414
  0
LAYER
  5
7
330
411
100
AcDbSymbolTableRecord
100
AcDbLayerTableRecord
  2
Level 1
 70
     0
 62
     7
  6
Continuous
370
     0
390
414
  0
LAYER
  5
8
330
411
100
AcDbSymbolTableRecord
100
AcDbLayerTableRecord
  2
2-15A
 70
     0
 62
     7
  6
Continuous
370
     0
390
414
1001
AcAecLayerStandard
1000

1000
2-15A
  0
LAYER
  5
9
330
411
100
AcDbSymbolTableRecord
100
AcDbLayerTableRecord
  2
2-13A
 70
     0
 62
     7
  6
Continuous
370
     0
390
414
1001
AcAecLayerStandard
1000

1000
2-13A
  0
LAYER
  5
A
330
411
100
AcDbSymbolTableRecord
100
AcDbLayerTableRecord
  2
DEFPOINTS
 70
     0
 62
     7
  6
Continuous
290
     0
370
     0
390
414
1001
AcAecLayerStandard
1000

1000
DEFPOINTS
  0
LAYER
  5
B
330
411
100
AcDbSymbolTableRecord
100
AcDbLayerTableRecord
  2
DIM
 70
     0
 62
     7
  6
Continuous
370
     0
390
414
1001
AcAecLayerStandard
1000

1000
DIM
  0
LAYER
  5
C
330
411
100
AcDbSymbolTableRecord
100
AcDbLayerTableRecord
  2
HATCH
 70
     0
 62
     7
  6
Continuous
370
     0
390
414
1001
AcAecLayerStandard
1000

1000
HATCH
  0
LAYER
  5
D
330
411
100
AcDbSymbolTableRecord
100
AcDbLayerTableRecord
  2
REF
 70
     0
 62
     7
  6
Continuous
370
     0
390
414
1001
AcAecLayerStandard
1000

1000
REF
  0
LAYER
  5
E
330
411
100
AcDbSymbolTableRecord
100
AcDbLayerTableRecord
  2
NOTES
 70
     0
 62
     7
  6
Continuous
370
     0
390
414
1001
AcAecLayerStandard
1000

1000
NOTES
  0
LAYER
  5
F
330
411
100
AcDbSymbolTableRecord
100
AcDbLayerTableRecord
  2
TITLE
 70
     0
 62
     7
  6
Continuous
370
     0
390
414
1001
AcAecLayerStandard
1000

1000
TITLE
  0
LAYER
  5
10
330
411
100
AcDbSymbolTableRecord
100
AcDbLayerTableRecord
  2
Level 10
 70
     0
 62
     7
  6
Continuous
370
     0
390
414
  0
LAYER
  5
11
330
411
100
AcDbSymbolTableRecord
100
AcDbLayerTableRecord
  2
Level 11
 70
     0
 62
     7
  6
Continuous
370
     0
390
414
  0
LAYER
  5
12
330
411
100
AcDbSymbolTableRecord
100
AcDbLayerTableRecord
  2
Level 12
 70
     0
 62
     7
  6
Continuous
370
     0
390
414
  0
LAYER
  5
13
330
411
100
AcDbSymbolTableRecord
100
AcDbLayerTableRecord
  2
Level 13
 70
     0
 62
     7
  6
Continuous
370
     0
390
414
  0
LAYER
  5
14
330
411
100
AcDbSymbolTableRecord
100
AcDbLayerTableRecord
  2
Level 14
 70
     0
 62
     7
  6
Continuous
370
     0
390
414
  0
LAYER
  5
15
330
411
100
AcDbSymbolTableRecord
100
AcDbLayerTableRecord
  2
Level 15
 70
     0
 62
     7
  6
Continuous
370
     0
390
414
  0
LAYER
  5
16
330
411
100
AcDbSymbolTableRecord
100
AcDbLayerTableRecord
  2
Level 16
 70
     0
 62
     7
  6
Continuous
370
     0
390
414
  0
LAYER
  5
17
330
411
100
AcDbSymbolTableRecord
100
AcDbLayerTableRecord
  2
Level 17
 70
     0
 62
     7
  6
Continuous
370
     0
390
414
  0
LAYER
  5
18
330
411
100
AcDbSymbolTableRecord
100
AcDbLayerTableRecord
  2
Level 18
 70
     0
 62
     7
  6
Continuous
370
     0
390
414
  0
LAYER
  5
19
330
411
100
AcDbSymbolTableRecord
100
AcDbLayerTableRecord
  2
Level 19
 70
     0
 62
     7
  6
Continuous
370
     0
390
414
  0
LAYER
  5
1A
330
411
100
AcDbSymbolTableRecord
100
AcDbLayerTableRecord
  2
Level 20
 70
     0
 62
     7
  6
Continuous
370
     0
390
414
  0
LAYER
  5
1B
330
411
100
AcDbSymbolTableRecord
100
AcDbLayerTableRecord
  2
Level 21
 70
     0
 62
     7
  6
Continuous
370
     0
390
414
  0
LAYER
  5
1C
330
411
100
AcDbSymbolTableRecord
100
AcDbLayerTableRecord
  2
Level 22
 70
     0
 62
     7
  6
Continuous
370
     0
390
414
  0
LAYER
  5
1D
330
411
100
AcDbSymbolTableRecord
100
AcDbLayerTableRecord
  2
Level 23
 70
     0
 62
     7
  6
Continuous
370
     0
390
414
  0
LAYER
  5
1E
330
411
100
AcDbSymbolTableRecord
100
AcDbLayerTableRecord
  2
Level 24
 70
     0
 62
     7
  6
Continuous
370
     0
390
414
  0
LAYER
  5
1F
330
411
100
AcDbSymbolTableRecord
100
AcDbLayerTableRecord
  2
Level 25
 70
     0
 62
     7
  6
Continuous
370
     0
390
414
  0
LAYER
  5
20
330
411
100
AcDbSymbolTableRecord
100
AcDbLayerTableRecord
  2
Level 26
 70
     0
 62
     7
  6
Continuous
370
     0
390
414
  0
LAYER
  5
21
330
411
100
AcDbSymbolTableRecord
100
AcDbLayerTableRecord
  2
Level 27
 70
     0
 62
     7
  6
Continuous
370
     0
390
414
  0
LAYER
  5
22
330
411
100
AcDbSymbolTableRecord
100
AcDbLayerTableRecord
  2
Level 28
 70
     0
 62
     7
  6
Continuous
370
     0
390
414
  0
LAYER
  5
23
330
411
100
AcDbSymbolTableRecord
100
AcDbLayerTableRecord
  2
Level 29
 70
     0
 62
     7
  6
Continuous
370
     0
390
414
  0
LAYER
  5
24
330
411
100
AcDbSymbolTableRecord
100
AcDbLayerTableRecord
  2
Level 30
 70
     0
 62
     7
  6
Continuous
370
     0
390
414
  0
LAYER
  5
25
330
411
100
AcDbSymbolTableRecord
100
AcDbLayerTableRecord
  2
Level 31
 70
     0
 62
     7
  6
Continuous
370
     0
390
414
  0
LAYER
  5
26
330
411
100
AcDbSymbolTableRecord
100
AcDbLayerTableRecord
  2
Level 32
 70
     0
 62
     7
  6
Continuous
370
     0
390
414
  0
LAYER
  5
27
330
411
100
AcDbSymbolTableRecord
100
AcDbLayerTableRecord
  2
Level 33
 70
     0
 62
     7
  6
Continuous
370
     0
390
414
  0
LAYER
  5
28
330
411
100
AcDbSymbolTableRecord
100
AcDbLayerTableRecord
  2
Level 34
 70
     0
 62
     7
  6
Continuous
370
     0
390
414
  0
LAYER
  5
29
330
411
100
AcDbSymbolTableRecord
100
AcDbLayerTableRecord
  2
Level 35
 70
     0
 62
     7
  6
Continuous
370
     0
390
414
  0
LAYER
  5
2A
330
411
100
AcDbSymbolTableRecord
100
AcDbLayerTableRecord
  2
Level 36
 70
     0
 62
     7
  6
Continuous
370
     0
390
414
  0
LAYER
  5
2B
330
411
100
AcDbSymbolTableRecord
100
AcDbLayerTableRecord
  2
Level 37
 70
     0
 62
     7
  6
Continuous
370
     0
390
414
  0
LAYER
  5
2C
330
411
100
AcDbSymbolTableRecord
100
AcDbLayerTableRecord
  2
Level 38
 70
     0
 62
     7
  6
Continuous
370
     0
390
414
  0
LAYER
  5
2D
330
411
100
AcDbSymbolTableRecord
100
AcDbLayerTableRecord
  2
Level 39
 70
     0
 62
     7
  6
Continuous
370
     0
390
414
  0
LAYER
  5
2E
330
411
100
AcDbSymbolTableRecord
100
AcDbLayerTableRecord
  2
Level 40
 70
     0
 62
     7
  6
Continuous
370
     0
390
414
  0
LAYER
  5
2F
330
411
100
AcDbSymbolTableRecord
100
AcDbLayerTableRecord
  2
Level 41
 70
     0
 62
     7
  6
Continuous
370
     0
390
414
  0
LAYER
  5
30
330
411
100
AcDbSymbolTableRecord
100
AcDbLayerTableRecord
  2
Level 42
 70
     0
 62
     7
  6
Continuous
370
     0
390
414
  0
LAYER
  5
31
330
411
100
AcDbSymbolTableRecord
100
AcDbLayerTableRecord
  2
Level 43
 70
     0
 62
     7
  6
Continuous
370
     0
390
414
  0
LAYER
  5
32
330
411
100
AcDbSymbolTableRecord
100
AcDbLayerTableRecord
  2
Level 44
 70
     0
 62
     7
  6
Continuous
370
     0
390
414
  0
LAYER
  5
33
330
411
100
AcDbSymbolTableRecord
100
AcDbLayerTableRecord
  2
Level 45
 70
     0
 62
     7
  6
Continuous
370
     0
390
414
  0
LAYER
  5
34
330
411
100
AcDbSymbolTableRecord
100
AcDbLayerTableRecord
  2
Level 46
 70
     0
 62
     7
  6
Continuous
370
     0
390
414
  0
LAYER
  5
35
330
411
100
AcDbSymbolTableRecord
100
AcDbLayerTableRecord
  2
Level 47
 70
     0
 62
     7
  6
Continuous
370
     0
390
414
  0
LAYER
  5
36
330
411
100
AcDbSymbolTableRecord
100
AcDbLayerTableRecord
  2
Level 48
 70
     0
 62
     7
  6
Continuous
370
     0
390
414
  0
LAYER
  5
37
330
411
100
AcDbSymbolTableRecord
100
AcDbLayerTableRecord
  2
Level 49
 70
     0
 62
     7
  6
Continuous
370
     0
390
414
  0
LAYER
  5
38
330
411
100
AcDbSymbolTableRecord
100
AcDbLayerTableRecord
  2
Level 50
 70
     0
 62
     7
  6
Continuous
370
     0
390
414
  0
LAYER
  5
39
330
411
100
AcDbSymbolTableRecord
100
AcDbLayerTableRecord
  2
Level 51
 70
     0
 62
     7
  6
Continuous
370
     0
390
414
  0
LAYER
  5
3A
330
411
100
AcDbSymbolTableRecord
100
AcDbLayerTableRecord
  2
Level 52
 70
     0
 62
     7
  6
Continuous
370
     0
390
414
  0
LAYER
  5
3B
330
411
100
AcDbSymbolTableRecord
100
AcDbLayerTableRecord
  2
Level 53
 70
     0
 62
     7
  6
Continuous
370
     0
390
414
  0
LAYER
  5
3C
330
411
100
AcDbSymbolTableRecord
100
AcDbLayerTableRecord
  2
Level 54
 70
     0
 62
     7
  6
Continuous
370
     0
390
414
  0
LAYER
  5
3D
330
411
100
AcDbSymbolTableRecord
100
AcDbLayerTableRecord
  2
Level 55
 70
     0
 62
     7
  6
Continuous
370
     0
390
414
  0
LAYER
  5
3E
330
411
100
AcDbSymbolTableRecord
100
AcDbLayerTableRecord
  2
Level 56
 70
     0
 62
     7
  6
Continuous
370
     0
390
414
  0
LAYER
  5
3F
330
411
100
AcDbSymbolTableRecord
100
AcDbLayerTableRecord
  2
Level 57
 70
     0
 62
     7
  6
Continuous
370
     0
390
414
  0
LAYER
  5
40
330
411
100
AcDbSymbolTableRecord
100
AcDbLayerTableRecord
  2
Level 58
 70
     0
 62
     7
  6
Continuous
370
     0
390
414
  0
LAYER
  5
41
330
411
100
AcDbSymbolTableRecord
100
AcDbLayerTableRecord
  2
Level 59
 70
     0
 62
     7
  6
Continuous
370
     0
390
414
  0
LAYER
  5
42
330
411
100
AcDbSymbolTableRecord
100
AcDbLayerTableRecord
  2
Level 60
 70
     0
 62
     7
  6
Continuous
370
     0
390
414
  0
LAYER
  5
43
330
411
100
AcDbSymbolTableRecord
100
AcDbLayerTableRecord
  2
Level 61
 70
     0
 62
     7
  6
Continuous
370
     0
390
414
  0
LAYER
  5
44
330
411
100
AcDbSymbolTableRecord
100
AcDbLayerTableRecord
  2
Level 62
 70
     0
 62
     7
  6
Continuous
370
     0
390
414
  0
LAYER
  5
45
330
411
100
AcDbSymbolTableRecord
100
AcDbLayerTableRecord
  2
_0
 70
     0
 62
     7
  6
Continuous
370
     0
390
414
1001
AcAecLayerStandard
1000

1000
0
  0
ENDTAB
  0
TABLE
  2
STYLE
  5
41C
330
0
100
AcDbSymbolTable
 70
     2
  0
STYLE
  5
41B
330
41C
100
AcDbSymbolTableRecord
100
AcDbTextStyleTableRecord
  2
Standard
 70
     0
 40
0.0
 41
1.0
 50
0.0
 71
     0
 42
0.12
  3
txt
  4

  0
STYLE
  5
43B
330
41C
100
AcDbSymbolTableRecord
100
AcDbTextStyleTableRecord
  2
Style-Arial
 70
     0
 40
0.0
 41
1.0
 50
0.0
 71
     0
 42
0.2
  3

  4

1001
ACAD
1000
Arial
1071
       39
  0
ENDTAB
  0
TABLE
  2
VIEW
  5
42F
330
0
100
AcDbSymbolTable
 70
     0
  0
ENDTAB
  0
TABLE
  2
UCS
  5
430
330
0
100
AcDbSymbolTable
 70
     0
  0
ENDTAB
  0
TABLE
  2
APPID
  5
42E
330
0
100
AcDbSymbolTable
 70
     3
  0
APPID
  5
436
330
42E
100
AcDbSymbolTableRecord
100
AcDbRegAppTableRecord
  2
ACAD
 70
     0
  0
APPID
  5
42D
330
42E
100
AcDbSymbolTableRecord
100
AcDbRegAppTableRecord
  2
ACAD_PSEXT
 70
     0
  0
APPID
  5
438
330
42E
100
AcDbSymbolTableRecord
100
AcDbRegAppTableRecord
  2
AcAecLayerStandard
 70
     0
  0
ENDTAB
  0
TABLE
  2
DIMSTYLE
  5
41E
330
0
100
AcDbSymbolTable
 70
     1
100
AcDbDimStyleTable
  0
DIMSTYLE
105
41D
330
41E
100
AcDbSymbolTableRecord
100
AcDbDimStyleTableRecord
  2
Standard
 70
     0
340
41B
  0
ENDTAB
  0
TABLE
  2
BLOCK_RECORD
  5
421
330
0
100
AcDbSymbolTable
 70
     2
  0
BLOCK_RECORD
  5
422
102
{ACAD_XDICTIONARY
360
448
102
}
330
421
100
AcDbSymbolTableRecord
100
AcDbBlockTableRecord
  2
*Model_Space
340
425
  0
BLOCK_RECORD
  5
427
330
421
100
AcDbSymbolTableRecord
100
AcDbBlockTableRecord
  2
*Paper_Space
340
42A
  0
BLOCK_RECORD
  5
43C
330
421
100
AcDbSymbolTableRecord
100
AcDbBlockTableRecord
  2
TerminatorOpen_0.5
340
0
  0
BLOCK_RECORD
  5
445
330
421
100
AcDbSymbolTableRecord
100
AcDbBlockTableRecord
  2
LARROW
340
0
102
{BLKREFS
331
F8
331
FC
331
FE
331
10F
331
137
331
139
331
13F
331
141
331
147
331
149
331
151
331
153
331
157
331
159
331
15F
331
161
331
165
331
167
331
16D
331
16F
331
379
331
381
331
387
331
38E
331
390
331
392
331
39B
331
39D
331
39F
331
3A1
331
3A3
331
40C
102
}
  0
ENDTAB
  0
ENDSEC
  0
SECTION
  2
BLOCKS
  0
BLOCK
  5
423
330
422
100
AcDbEntity
  8
0
100
AcDbBlockBegin
  2
*Model_Space
 70
     0
 71
     0
 10
0.0
 20
0.0
 30
0.0
  3
*Model_Space
  1

  0
ENDBLK
  5
424
330
422
100
AcDbEntity
  8
0
100
AcDbBlockEnd
  0
BLOCK
  5
428
330
427
100
AcDbEntity
 67
     1
  8
0
100
AcDbBlockBegin
  2
*Paper_Space
 70
     0
 71
     0
 10
0.0
 20
0.0
 30
0.0
  3
*Paper_Space
  1

  0
ENDBLK
  5
429
330
427
100
AcDbEntity
 67
     1
  8
0
100
AcDbBlockEnd
  0
BLOCK
  5
440
330
43C
100
AcDbEntity
  8
0
100
AcDbBlockBegin
  2
TerminatorOpen_0.5
 70
     0
 71
     0
 10
0.0
 20
0.0
 30
0.0
  3
TerminatorOpen_0.5
  1

  0
LINE
  5
43D
330
43C
100
AcDbEntity
  8
0
  6
ByBlock
 62
     0
370
    -2
100
AcDbLine
 10
0.0
 20
0.0
 30
0.0
 11
-1.0
 21
0.0
 31
0.0
  0
LINE
  5
43E
330
43C
100
AcDbEntity
  8
0
  6
ByBlock
 62
     0
370
    -2
100
AcDbLine
 10
0.0
 20
0.0
 30
0.0
 11
-1.0
 21
0.25
 31
0.0
  0
LINE
  5
43F
330
43C
100
AcDbEntity
  8
0
  6
ByBlock
 62
     0
370
    -2
100
AcDbLine
 10
0.0
 20
0.0
 30
0.0
 11
-1.0
 21
-0.25
 31
0.0
  0
ENDBLK
  5
441
330
43C
100
AcDbEntity
  8
0
100
AcDbBlockEnd
  0
BLOCK
  5
446
330
445
100
AcDbEntity
  8
0
100
AcDbBlockBegin
  2
LARROW
 70
     0
 71
     0
 10
0.0
 20
0.0
 30
0.0
  3
LARROW
  1

  0
LWPOLYLINE
  5
F9
330
445
100
AcDbEntity
  8
DIM
  6
Continuous
 62
     7
370
     0
100
AcDbPolyline
 90
       63
 70
   128
 43
0.0
 10
-0.013031
 20
0.001885
 10
0.0
 20
0.0
 10
-0.013021
 20
-0.001886
 10
-0.012614
 20
-0.001573
 10
-0.012042
 20
-0.00101
 10
-0.01176
 20
-0.00049
 10
-0.011688
 20
0.0
 10
-0.011792
 20
0.000552
 10
-0.012093
 20
0.001094
 10
-0.012677
 20
0.001625
 10
-0.013031
 20
0.001885
 10
-0.000385
 20
0.000021
 10
-0.012605
 20
-0.00176
 10
-0.01223
 20
-0.001479
 10
-0.011625
 20
-0.000906
 10
-0.011427
 20
-0.000167
 10
-0.011562
 20
0.000573
 10
-0.011917
 20
0.001083
 10
-0.012343
 20
0.0015
 10
-0.012636
 20
0.001729
 10
-0.001073
 20
0.000021
 10
-0.012052
 20
-0.001552
 10
-0.011667
 20
-0.001302
 10
-0.011469
 20
-0.000979
 10
-0.01125
 20
-0.000562
 10
-0.011135
 20
0.000021
 10
-0.011198
 20
0.0005
 10
-0.011428
 20
0.000875
 10
-0.011895
 20
0.001177
 10
-0.012208
 20
0.001541
 10
-0.001875
 20
0.000021
 10
-0.011448
 20
-0.001323
 10
-0.011021
 20
-0.000792
 10
-0.010896
 20
-0.000146
 10
-0.010958
 20
0.000573
 10
-0.011781
 20
0.001354
 10
-0.002771
 20
0.000063
 10
-0.010896
 20
-0.001073
 10
-0.010781
 20
-0.000698
 10
-0.010531
 20
-0.000093
 10
-0.010687
 20
0.000552
 10
-0.011333
 20
0.001125
 10
-0.003594
 20
0.000063
 10
-0.010604
 20
-0.000833
 10
-0.010375
 20
-0.000375
 10
-0.010271
 20
0.000114
 10
-0.010761
 20
0.000875
 10
-0.004573
 20
0.000062
 10
-0.010177
 20
-0.000625
 10
-0.010021
 20
-0.000281
 10
-0.009979
 20
0.000114
 10
-0.010375
 20
0.000667
 10
-0.005739
 20
0.000062
 10
-0.009823
 20
-0.000395
 10
-0.009708
 20
0.000135
 10
-0.010083
 20
0.000459
 10
-0.006698
 20
0.000062
 10
-0.009552
 20
-0.00024
 10
-0.009614
 20
0.000271
 10
-0.007677
 20
0.000062
 10
-0.009438
 20
-0.000073
 10
-0.00949
 20
0.000083
 10
-0.008885
 20
0.000083
  0
ENDBLK
  5
447
330
445
100
AcDbEntity
  8
0
100
AcDbBlockEnd
  0
ENDSEC
  0
SECTION
  2
ENTITIES
  0
LINE
  5
5B
330
422
100
AcDbEntity
  8
DEFPOINTS
  6
Continuous
 62
     7
370
    30
100
AcDbLine
 10
22.625
 20
10.086906
 30
0.0
 11
29.875
 21
10.086906
 31
0.0
  0
LINE
  5
5C
330
422
100
AcDbEntity
  8
DEFPOINTS
  6
Continuous
 62
     7
370
    30
100
AcDbLine
 10
22.625
 20
0.986906
 30
0.0
 11
22.625
 21
10.086906
 31
0.0
  0
LINE
  5
5D
330
422
100
AcDbEntity
  8
DEFPOINTS
  6
Continuous
 62
     7
370
    30
100
AcDbLine
 10
22.625
 20
0.986906
 30
0.0
 11
29.875
 21
0.986906
 31
0.0
  0
LINE
  5
5E
330
422
100
AcDbEntity
  8
DEFPOINTS
  6
Continuous
 62
     7
370
    30
100
AcDbLine
 10
29.875
 20
0.986906
 30
0.0
 11
29.875
 21
10.086906
 31
0.0
  0
LINE
  5
5F
330
422
100
AcDbEntity
  8
DEFPOINTS
  6
Continuous
 62
     7
370
    30
100
AcDbLine
 10
22.625
 20
1.486906
 30
0.0
 11
29.875
 21
1.486906
 31
0.0
  0
LINE
  5
60
330
422
100
AcDbEntity
  8
DEFPOINTS
  6
Continuous
 62
     7
370
    30
100
AcDbLine
 10
28.775
 20
0.986906
 30
0.0
 11
28.775
 21
1.486906
 31
0.0
  0
LINE
  5
61
330
422
100
AcDbEntity
  8
DEFPOINTS
  6
Continuous
 62
     7
370
    30
100
AcDbLine
 10
27.675
 20
0.986906
 30
0.0
 11
27.675
 21
1.486906
 31
0.0
  0
LINE
  5
6A
330
422
100
AcDbEntity
  8
NOTES
  6
Continuous
 62
     7
370
    30
100
AcDbLine
 10
26.33374
 20
3.590198
 30
0.0
 11
26.33374
 21
2.62725
 31
0.0
  0
LINE
  5
6B
330
422
100
AcDbEntity
  8
NOTES
  6
Continuous
 62
     7
370
    30
100
AcDbLine
 10
27.656635
 20
3.184844
 30
0.0
 11
24.742969
 21
3.184844
 31
0.0
  0
LINE
  5
6C
330
422
100
AcDbEntity
  8
NOTES
  6
Continuous
 62
     7
370
    30
100
AcDbLine
 10
27.656635
 20
3.590198
 30
0.0
 11
27.656635
 21
2.62725
 31
0.0
  0
LINE
  5
6D
330
422
100
AcDbEntity
  8
NOTES
  6
Continuous
 62
     7
370
    30
100
AcDbLine
 10
24.742969
 20
2.62725
 30
0.0
 11
27.656635
 21
2.62725
 31
0.0
  0
LINE
  5
6E
330
422
100
AcDbEntity
  8
NOTES
  6
Continuous
 62
     7
370
    30
100
AcDbLine
 10
24.742969
 20
3.590198
 30
0.0
 11
24.742969
 21
2.62725
 31
0.0
  0
LINE
  5
6F
330
422
100
AcDbEntity
  8
NOTES
  6
Continuous
 62
     7
370
    30
100
AcDbLine
 10
27.656635
 20
3.590198
 30
0.0
 11
24.742969
 21
3.590198
 31
0.0
  0
LINE
  5
70
330
422
100
AcDbEntity
  8
NOTES
  6
Continuous
 62
     7
370
    30
100
AcDbLine
 10
26.873135
 20
3.386552
 30
0.0
 11
26.873135
 21
2.634625
 31
0.0
  0
LINE
  5
71
330
422
100
AcDbEntity
  8
NOTES
  6
Continuous
 62
     7
370
    30
100
AcDbLine
 10
26.33374
 20
3.386552
 30
0.0
 11
27.656635
 21
3.386552
 31
0.0
  0
LINE
  5
83
330
422
100
AcDbEntity
  8
_0
  6
Continuous
 62
     7
370
    30
100
AcDbLine
 10
22.25
 20
0.125
 30
0.0
 11
22.043458
 21
0.125
 31
0.0
  0
LINE
  5
84
330
422
100
AcDbEntity
  8
_0
  6
Continuous
 62
     7
370
    30
100
AcDbLine
 10
22.25
 20
0.125
 30
0.0
 11
22.25
 21
-0.081542
 31
0.0
  0
LINE
  5
85
330
422
100
AcDbEntity
  8
_0
  6
Continuous
 62
     7
370
    30
100
AcDbLine
 10
30.25
 20
0.125
 30
0.0
 11
30.25
 21
-0.081542
 31
0.0
  0
LINE
  5
86
330
422
100
AcDbEntity
  8
_0
  6
Continuous
 62
     7
370
    30
100
AcDbLine
 10
22.25
 20
10.875
 30
0.0
 11
22.043458
 21
10.875
 31
0.0
  0
LINE
  5
87
330
422
100
AcDbEntity
  8
_0
  6
Continuous
 62
     7
370
    30
100
AcDbLine
 10
30.456542
 20
0.125
 30
0.0
 11
30.25
 21
0.125
 31
0.0
  0
LINE
  5
88
330
422
100
AcDbEntity
  8
_0
  6
Continuous
 62
     7
370
    30
100
AcDbLine
 10
30.456542
 20
10.875
 30
0.0
 11
30.25
 21
10.875
 31
0.0
  0
LINE
  5
89
330
422
100
AcDbEntity
  8
_0
  6
Continuous
 62
     7
370
    30
100
AcDbLine
 10
22.25
 20
11.081542
 30
0.0
 11
22.25
 21
10.875
 31
0.0
  0
LINE
  5
8A
330
422
100
AcDbEntity
  8
_0
  6
Continuous
 62
     7
370
    30
100
AcDbLine
 10
30.25
 20
11.081542
 30
0.0
 11
30.25
 21
10.875
 31
0.0
  0
ARC
  5
90
330
422
100
AcDbEntity
  8
NOTES
  6
Continuous
 62
     7
370
    30
100
AcDbCircle
 10
23.8225
 20
9.311035
 30
0.0
 40
1.065503303382679
100
AcDbArc
 50
250.823258
 51
289.176742
  0
LWPOLYLINE
  5
91
330
422
100
AcDbEntity
  8
NOTES
  6
Continuous
 62
     7
370
     0
100
AcDbPolyline
 90
        2
 70
   128
 43
0.0
 10
23.664573
 20
7.185458
 10
23.639219
 20
7.214656
  0
LWPOLYLINE
  5
92
330
422
100
AcDbEntity
  8
NOTES
  6
Continuous
 62
     7
370
     0
100
AcDbPolyline
 90
        3
 70
   128
 43
0.0
 10
23.607927
 20
7.214656
 10
23.590198
 20
7.193583
 10
23.664573
 20
7.185458
  0
LWPOLYLINE
  5
93
330
422
100
AcDbEntity
  8
NOTES
  6
Continuous
 62
     7
370
     0
100
AcDbPolyline
 90
        3
 70
   129
 43
0.0
 10
23.778177
 20
6.90724
 10
23.781302
 20
6.962865
 10
23.719802
 20
6.902615
  0
LINE
  5
94
330
422
100
AcDbEntity
  8
NOTES
  6
Continuous
 62
     7
370
     0
100
AcDbLine
 10
23.428323
 20
7.320458
 30
0.0
 11
23.434573
 21
7.330708
 31
0.0
  0
LINE
  5
95
330
422
100
AcDbEntity
  8
NOTES
  6
Continuous
 62
     7
370
     0
100
AcDbLine
 10
23.513948
 20
6.936083
 30
0.0
 11
23.510573
 21
6.948583
 31
0.0
  0
LWPOLYLINE
  5
96
330
422
100
AcDbEntity
  8
NOTES
  6
Continuous
 62
     7
370
     0
100
AcDbPolyline
 90
        3
 70
   129
 43
0.0
 10
23.363073
 20
7.353208
 10
23.396448
 20
7.397583
 10
23.434323
 20
7.354833
  0
LWPOLYLINE
  5
97
330
422
100
AcDbEntity
  8
NOTES
  6
Continuous
 62
     7
370
     0
100
AcDbPolyline
 90
        3
 70
   129
 43
0.0
 10
23.106
 20
8.25525
 10
23.150375
 20
8.2155
 10
23.174125
 20
8.259875
  0
LWPOLYLINE
  5
98
330
422
100
AcDbEntity
  8
NOTES
  6
Continuous
 62
     7
370
     0
100
AcDbPolyline
 90
        3
 70
   129
 43
0.0
 10
23.136281
 20
7.806865
 10
23.176031
 20
7.84974
 10
23.218531
 20
7.80224
  0
LINE
  5
99
330
422
100
AcDbEntity
  8
NOTES
  6
Continuous
 62
     7
370
     0
100
AcDbLine
 10
23.416375
 20
7.651854
 30
0.0
 11
23.41075
 21
7.662729
 31
0.0
  0
LINE
  5
9A
330
422
100
AcDbEntity
  8
NOTES
  6
Continuous
 62
     7
370
     0
100
AcDbLine
 10
23.43449
 20
8.332083
 30
0.0
 11
23.44074
 21
8.342333
 31
0.0
  0
LINE
  5
9B
330
422
100
AcDbEntity
  8
NOTES
  6
Continuous
 62
     7
370
     0
100
AcDbLine
 10
23.408687
 20
7.84876
 30
0.0
 11
23.407687
 21
7.859135
 31
0.0
  0
LINE
  5
9C
330
422
100
AcDbEntity
  8
NOTES
  6
Continuous
 62
     7
370
     0
100
AcDbLine
 10
23.213771
 20
8.254687
 30
0.0
 11
23.215271
 21
8.264062
 31
0.0
  0
LINE
  5
9D
330
422
100
AcDbEntity
  8
NOTES
  6
Continuous
 62
     7
370
     0
100
AcDbLine
 10
23.342448
 20
7.521958
 30
0.0
 11
23.347073
 21
7.531708
 31
0.0
  0
LWPOLYLINE
  5
9E
330
422
100
AcDbEntity
  8
NOTES
  6
Continuous
 62
     7
370
     0
100
AcDbPolyline
 90
        3
 70
   129
 43
0.0
 10
23.150917
 20
7.517625
 10
23.184292
 20
7.562
 10
23.222167
 20
7.51925
  0
LINE
  5
9F
330
422
100
AcDbEntity
  8
NOTES
  6
Continuous
 62
     7
370
     0
100
AcDbLine
 10
23.162323
 20
8.296958
 30
0.0
 11
23.163323
 21
8.306083
 31
0.0
  0
LWPOLYLINE
  5
A0
330
422
100
AcDbEntity
  8
NOTES
  6
Continuous
 62
     7
370
     0
100
AcDbPolyline
 90
        3
 70
   129
 43
0.0
 10
23.524906
 20
7.06176
 10
23.575531
 20
7.06826
 10
23.533031
 20
7.09676
  0
LWPOLYLINE
  5
A1
330
422
100
AcDbEntity
  8
NOTES
  6
Continuous
 62
     7
370
     0
100
AcDbPolyline
 90
        3
 70
   129
 43
0.0
 10
23.986333
 20
7.039729
 10
24.026083
 20
7.082604
 10
24.068583
 20
7.035104
  0
LINE
  5
A2
330
422
100
AcDbEntity
  8
NOTES
  6
Continuous
 62
     7
370
     0
100
AcDbLine
 10
23.951646
 20
7.15425
 30
0.0
 11
23.952646
 21
7.163375
 31
0.0
  0
LINE
  5
A3
330
422
100
AcDbEntity
  8
NOTES
  6
Continuous
 62
     7
370
     0
100
AcDbLine
 10
23.696469
 20
6.956573
 30
0.0
 11
23.696469
 21
6.968198
 31
0.0
  0
LINE
  5
A4
330
422
100
AcDbEntity
  8
NOTES
  6
Continuous
 62
     7
370
     0
100
AcDbLine
 10
24.285219
 20
8.021552
 30
0.0
 11
24.291469
 21
8.031802
 31
0.0
  0
LINE
  5
A5
330
422
100
AcDbEntity
  8
NOTES
  6
Continuous
 62
     7
370
     0
100
AcDbLine
 10
24.231198
 20
7.077583
 30
0.0
 11
24.230198
 21
7.087958
 31
0.0
  0
LINE
  5
A6
330
422
100
AcDbEntity
  8
NOTES
  6
Continuous
 62
     7
370
     0
100
AcDbLine
 10
23.911083
 20
7.073333
 30
0.0
 11
23.912583
 21
7.082708
 31
0.0
  0
LINE
  5
A7
330
422
100
AcDbEntity
  8
NOTES
  6
Continuous
 62
     7
370
     0
100
AcDbLine
 10
24.114885
 20
6.924823
 30
0.0
 11
24.11151
 21
6.937323
 31
0.0
  0
LINE
  5
A8
330
422
100
AcDbEntity
  8
NOTES
  6
Continuous
 62
     7
370
     0
100
AcDbLine
 10
24.321896
 20
7.226385
 30
0.0
 11
24.326521
 21
7.236135
 31
0.0
  0
LINE
  5
A9
330
422
100
AcDbEntity
  8
NOTES
  6
Continuous
 62
     7
370
     0
100
AcDbLine
 10
23.739406
 20
6.817083
 30
0.0
 11
23.739406
 21
6.829583
 31
0.0
  0
LWPOLYLINE
  5
AA
330
422
100
AcDbEntity
  8
NOTES
  6
Continuous
 62
     7
370
     0
100
AcDbPolyline
 90
        3
 70
   129
 43
0.0
 10
24.019583
 20
7.450823
 10
24.052958
 20
7.495198
 10
24.090833
 20
7.452448
  0
LWPOLYLINE
  5
AB
330
422
100
AcDbEntity
  8
NOTES
  6
Continuous
 62
     7
370
     0
100
AcDbPolyline
 90
        3
 70
   129
 43
0.0
 10
24.676052
 20
8.276646
 10
24.634802
 20
8.324146
 10
24.601677
 20
8.284771
  0
LWPOLYLINE
  5
AC
330
422
100
AcDbEntity
  8
NOTES
  6
Continuous
 62
     7
370
     0
100
AcDbPolyline
 90
        3
 70
   129
 43
0.0
 10
24.190198
 20
7.762583
 10
24.229948
 20
7.805458
 10
24.272448
 20
7.757958
  0
LINE
  5
AD
330
422
100
AcDbEntity
  8
NOTES
  6
Continuous
 62
     7
370
     0
100
AcDbLine
 10
24.339323
 20
8.255458
 30
0.0
 11
24.345573
 21
8.265708
 31
0.0
  0
LINE
  5
AE
330
422
100
AcDbEntity
  8
NOTES
  6
Continuous
 62
     7
370
     0
100
AcDbLine
 10
24.267448
 20
7.913302
 30
0.0
 11
24.269323
 21
7.925427
 31
0.0
  0
LINE
  5
AF
330
422
100
AcDbEntity
  8
NOTES
  6
Continuous
 62
     7
370
     0
100
AcDbLine
 10
24.231198
 20
8.012583
 30
0.0
 11
24.230198
 21
8.022958
 31
0.0
  0
LINE
  5
B0
330
422
100
AcDbEntity
  8
NOTES
  6
Continuous
 62
     7
370
     0
100
AcDbLine
 10
24.456677
 20
8.285302
 30
0.0
 11
24.453302
 21
8.297802
 31
0.0
  0
LINE
  5
B1
330
422
100
AcDbEntity
  8
NOTES
  6
Continuous
 62
     7
370
     0
100
AcDbLine
 10
24.437448
 20
7.655458
 30
0.0
 11
24.434073
 21
7.664458
 31
0.0
  0
LWPOLYLINE
  5
B2
330
422
100
AcDbEntity
  8
NOTES
  6
Continuous
 62
     7
370
     0
100
AcDbPolyline
 90
        3
 70
   129
 43
0.0
 10
24.274073
 20
8.288208
 10
24.307448
 20
8.332583
 10
24.345323
 20
8.289833
  0
LWPOLYLINE
  5
B3
330
422
100
AcDbEntity
  8
NOTES
  6
Continuous
 62
     7
370
     0
100
AcDbPolyline
 90
        3
 70
   129
 43
0.0
 10
24.981198
 20
8.283583
 10
25.025573
 20
8.243833
 10
25.049323
 20
8.288208
  0
LWPOLYLINE
  5
B4
330
422
100
AcDbEntity
  8
NOTES
  6
Continuous
 62
     7
370
     0
100
AcDbPolyline
 90
        3
 70
   129
 43
0.0
 10
25.486573
 20
8.120458
 10
25.445323
 20
8.167958
 10
25.412198
 20
8.128583
  0
LINE
  5
B5
330
422
100
AcDbEntity
  8
NOTES
  6
Continuous
 62
     7
370
     0
100
AcDbLine
 10
25.250323
 20
8.255458
 30
0.0
 11
25.256573
 21
8.265708
 31
0.0
  0
LINE
  5
B6
330
422
100
AcDbEntity
  8
NOTES
  6
Continuous
 62
     7
370
     0
100
AcDbLine
 10
25.779385
 20
7.777906
 30
0.0
 11
25.779385
 21
7.790406
 31
0.0
  0
LWPOLYLINE
  5
B7
330
422
100
AcDbEntity
  8
NOTES
  6
Continuous
 62
     7
370
     0
100
AcDbPolyline
 90
        3
 70
   129
 43
0.0
 10
25.185073
 20
8.288208
 10
25.218448
 20
8.332583
 10
25.256323
 20
8.289833
  0
LINE
  5
B8
330
422
100
AcDbEntity
  8
NOTES
  6
Continuous
 62
     7
370
     0
100
AcDbLine
 10
24.984323
 20
8.296958
 30
0.0
 11
24.985323
 21
8.306083
 31
0.0
  0
LWPOLYLINE
  5
B9
330
422
100
AcDbEntity
  8
NOTES
  6
Continuous
 62
     7
370
     0
100
AcDbPolyline
 90
        2
 70
   128
 43
0.0
 10
26.326531
 20
7.425937
 10
26.301177
 20
7.455135
  0
LWPOLYLINE
  5
BA
330
422
100
AcDbEntity
  8
NOTES
  6
Continuous
 62
     7
370
     0
100
AcDbPolyline
 90
        3
 70
   129
 43
0.0
 10
25.902406
 20
7.391469
 10
25.942156
 20
7.434344
 10
25.984656
 20
7.386844
  0
LINE
  5
BB
330
422
100
AcDbEntity
  8
NOTES
  6
Continuous
 62
     7
370
     0
100
AcDbLine
 10
26.554021
 20
7.435333
 30
0.0
 11
26.554021
 21
7.447833
 31
0.0
  0
LINE
  5
BC
330
422
100
AcDbEntity
  8
NOTES
  6
Continuous
 62
     7
370
     0
100
AcDbLine
 10
26.111323
 20
7.342948
 30
0.0
 11
26.110323
 21
7.353323
 31
0.0
  0
LINE
  5
BD
330
422
100
AcDbEntity
  8
NOTES
  6
Continuous
 62
     7
370
     0
100
AcDbLine
 10
26.246948
 20
6.936083
 30
0.0
 11
26.243573
 21
6.948583
 31
0.0
  0
LWPOLYLINE
  5
BE
330
422
100
AcDbEntity
  8
NOTES
  6
Continuous
 62
     7
370
     0
100
AcDbPolyline
 90
        3
 70
   129
 43
0.0
 10
25.685323
 20
7.459833
 10
25.735948
 20
7.466333
 10
25.693448
 20
7.494833
  0
LWPOLYLINE
  5
BF
330
422
100
AcDbEntity
  8
NOTES
  6
Continuous
 62
     7
370
     0
100
AcDbPolyline
 90
        3
 70
   129
 43
0.0
 10
25.493177
 20
8.293583
 10
25.550052
 20
8.271333
 10
25.520052
 20
8.332958
  0
LINE
  5
C0
330
422
100
AcDbEntity
  8
NOTES
  6
Continuous
 62
     7
370
     0
100
AcDbLine
 10
25.732198
 20
8.157958
 30
0.0
 11
25.726573
 21
8.168833
 31
0.0
  0
LINE
  5
C1
330
422
100
AcDbEntity
  8
NOTES
  6
Continuous
 62
     7
370
     0
100
AcDbLine
 10
25.82926
 20
7.833802
 30
0.0
 11
25.83076
 21
7.843177
 31
0.0
  0
LINE
  5
C2
330
422
100
AcDbEntity
  8
NOTES
  6
Continuous
 62
     7
370
     0
100
AcDbLine
 10
25.833448
 20
7.646958
 30
0.0
 11
25.833448
 21
7.659458
 31
0.0
  0
LWPOLYLINE
  5
C3
330
422
100
AcDbEntity
  8
NOTES
  6
Continuous
 62
     7
370
     0
100
AcDbPolyline
 90
        3
 70
   129
 43
0.0
 10
26.617521
 20
7.816562
 10
26.661896
 20
7.776813
 10
26.685646
 20
7.821187
  0
LWPOLYLINE
  5
C4
330
422
100
AcDbEntity
  8
NOTES
  6
Continuous
 62
     7
370
     0
100
AcDbPolyline
 90
        3
 70
   129
 43
0.0
 10
26.058177
 20
7.473083
 10
26.115052
 20
7.450833
 10
26.085052
 20
7.512458
  0
LWPOLYLINE
  5
C5
330
422
100
AcDbEntity
  8
NOTES
  6
Continuous
 62
     7
370
     0
100
AcDbPolyline
 90
        3
 70
   129
 43
0.0
 10
26.803198
 20
8.283583
 10
26.847573
 20
8.243833
 10
26.871323
 20
8.288208
  0
LWPOLYLINE
  5
C6
330
422
100
AcDbEntity
  8
NOTES
  6
Continuous
 62
     7
370
     0
100
AcDbPolyline
 90
        3
 70
   129
 43
0.0
 10
26.402531
 20
7.44576
 10
26.453156
 20
7.45226
 10
26.410656
 20
7.48076
  0
LWPOLYLINE
  5
C7
330
422
100
AcDbEntity
  8
NOTES
  6
Continuous
 62
     7
370
     0
100
AcDbPolyline
 90
        3
 70
   128
 43
0.0
 10
26.5725
 20
7.94675
 10
26.573573
 20
7.946333
 10
26.5725
 20
7.948542
  0
LINE
  5
C8
330
422
100
AcDbEntity
  8
NOTES
  6
Continuous
 62
     7
370
     0
100
AcDbLine
 10
26.643198
 20
8.157958
 30
0.0
 11
26.637573
 21
8.168833
 31
0.0
  0
LINE
  5
C9
330
422
100
AcDbEntity
  8
NOTES
  6
Continuous
 62
     7
370
     0
100
AcDbLine
 10
27.072323
 20
8.255458
 30
0.0
 11
27.078573
 21
8.265708
 31
0.0
  0
LINE
  5
CA
330
422
100
AcDbEntity
  8
NOTES
  6
Continuous
 62
     7
370
     0
100
AcDbLine
 10
26.752323
 20
7.895708
 30
0.0
 11
26.753823
 21
7.905083
 31
0.0
  0
LINE
  5
CB
330
422
100
AcDbEntity
  8
NOTES
  6
Continuous
 62
     7
370
     0
100
AcDbLine
 10
26.744448
 20
7.646958
 30
0.0
 11
26.744448
 21
7.659458
 31
0.0
  0
LWPOLYLINE
  5
CC
330
422
100
AcDbEntity
  8
NOTES
  6
Continuous
 62
     7
370
     0
100
AcDbPolyline
 90
        3
 70
   129
 43
0.0
 10
27.007073
 20
8.288208
 10
27.040448
 20
8.332583
 10
27.078323
 20
8.289833
  0
LINE
  5
CD
330
422
100
AcDbEntity
  8
NOTES
  6
Continuous
 62
     7
370
     0
100
AcDbLine
 10
26.806323
 20
8.296958
 30
0.0
 11
26.807323
 21
8.306083
 31
0.0
  0
LWPOLYLINE
  5
CE
330
422
100
AcDbEntity
  8
NOTES
  6
Continuous
 62
     7
370
     0
100
AcDbPolyline
 90
        3
 70
   129
 43
0.0
 10
27.714198
 20
8.283583
 10
27.758573
 20
8.243833
 10
27.782323
 20
8.288208
  0
LWPOLYLINE
  5
CF
330
422
100
AcDbEntity
  8
NOTES
  6
Continuous
 62
     7
370
     0
100
AcDbPolyline
 90
        3
 70
   129
 43
0.0
 10
27.644385
 20
8.275896
 10
27.603135
 20
8.323396
 10
27.57001
 20
8.284021
  0
LINE
  5
D0
330
422
100
AcDbEntity
  8
NOTES
  6
Continuous
 62
     7
370
     0
100
AcDbLine
 10
27.983323
 20
8.255458
 30
0.0
 11
27.989573
 21
8.265708
 31
0.0
  0
LWPOLYLINE
  5
D1
330
422
100
AcDbEntity
  8
NOTES
  6
Continuous
 62
     7
370
     0
100
AcDbPolyline
 90
        3
 70
   129
 43
0.0
 10
27.918073
 20
8.288208
 10
27.951448
 20
8.332583
 10
27.989323
 20
8.289833
  0
LINE
  5
D2
330
422
100
AcDbEntity
  8
NOTES
  6
Continuous
 62
     7
370
     0
100
AcDbLine
 10
27.717323
 20
8.296958
 30
0.0
 11
27.718323
 21
8.306083
 31
0.0
  0
LINE
  5
D3
330
422
100
AcDbEntity
  8
NOTES
  6
Continuous
 62
     7
370
     0
100
AcDbLine
 10
28.979948
 20
7.286083
 30
0.0
 11
28.976573
 21
7.298583
 31
0.0
  0
LWPOLYLINE
  5
D4
330
422
100
AcDbEntity
  8
NOTES
  6
Continuous
 62
     7
370
     0
100
AcDbPolyline
 90
        3
 70
   129
 43
0.0
 10
29.130573
 20
8.120458
 10
29.089323
 20
8.167958
 10
29.056198
 20
8.128583
  0
LINE
  5
D5
330
422
100
AcDbEntity
  8
NOTES
  6
Continuous
 62
     7
370
     0
100
AcDbLine
 10
28.979948
 20
7.871083
 30
0.0
 11
28.976573
 21
7.883583
 31
0.0
  0
LINE
  5
D6
330
422
100
AcDbEntity
  8
NOTES
  6
Continuous
 62
     7
370
     0
100
AcDbLine
 10
28.992448
 20
7.655458
 30
0.0
 11
28.989073
 21
7.664458
 31
0.0
  0
LINE
  5
D7
330
422
100
AcDbEntity
  8
NOTES
  6
Continuous
 62
     7
370
     0
100
AcDbLine
 10
29.376198
 20
8.157958
 30
0.0
 11
29.370573
 21
8.168833
 31
0.0
  0
LINE
  5
D8
330
422
100
AcDbEntity
  8
NOTES
  6
Continuous
 62
     7
370
    30
100
AcDbLine
 10
28.9725
 20
7.564656
 30
0.0
 11
28.9725
 21
6.564656
 31
0.0
  0
LWPOLYLINE
  5
D9
330
422
100
AcDbEntity
  8
NOTES
  6
Continuous
 62
     7
370
    30
100
AcDbPolyline
 90
       10
 70
   128
 43
0.0
 10
28.2725
 20
6.664656
 10
28.339833
 20
6.654125
 10
28.40824
 20
6.663375
 10
28.491042
 20
6.663375
 10
28.555844
 20
6.64951
 10
28.617052
 20
6.63101
 10
28.725052
 20
6.617146
 10
28.854667
 20
6.607906
 10
28.919469
 20
6.575542
 10
28.9725
 20
6.564656
  0
LWPOLYLINE
  5
DA
330
422
100
AcDbEntity
  8
NOTES
  6
Continuous
 62
     7
370
     0
100
AcDbPolyline
 90
        4
 70
   128
 43
0.0
 10
24.046073
 20
7.193687
 10
24.028271
 20
7.214187
 10
23.995146
 20
7.174812
 10
24.045469
 20
7.169313
  0
LINE
  5
DB
330
422
100
AcDbEntity
  8
NOTES
  6
Continuous
 62
     7
370
    30
100
AcDbLine
 10
28.2725
 20
7.159625
 30
0.0
 11
28.677531
 21
7.564656
 31
0.0
  0
LINE
  5
DC
330
422
100
AcDbEntity
  8
NOTES
  6
Continuous
 62
     7
370
    30
100
AcDbLine
 10
28.2725
 20
7.230333
 30
0.0
 11
28.606823
 21
7.564656
 31
0.0
  0
LINE
  5
DD
330
422
100
AcDbEntity
  8
NOTES
  6
Continuous
 62
     7
370
    30
100
AcDbLine
 10
28.2725
 20
7.301062
 30
0.0
 11
28.536094
 21
7.564656
 31
0.0
  0
LINE
  5
DE
330
422
100
AcDbEntity
  8
NOTES
  6
Continuous
 62
     7
370
    30
100
AcDbLine
 10
28.2725
 20
7.371771
 30
0.0
 11
28.465385
 21
7.564656
 31
0.0
  0
LINE
  5
DF
330
422
100
AcDbEntity
  8
NOTES
  6
Continuous
 62
     7
370
    30
100
AcDbLine
 10
28.2725
 20
7.442479
 30
0.0
 11
28.394677
 21
7.564656
 31
0.0
  0
LINE
  5
E0
330
422
100
AcDbEntity
  8
NOTES
  6
Continuous
 62
     7
370
    30
100
AcDbLine
 10
28.2725
 20
7.513187
 30
0.0
 11
28.323969
 21
7.564656
 31
0.0
  0
LINE
  5
E1
330
422
100
AcDbEntity
  8
NOTES
  6
Continuous
 62
     7
370
    30
100
AcDbLine
 10
28.595208
 20
6.633812
 30
0.0
 11
28.9725
 21
7.011104
 31
0.0
  0
LINE
  5
E2
330
422
100
AcDbEntity
  8
NOTES
  6
Continuous
 62
     7
370
    30
100
AcDbLine
 10
28.657875
 20
6.625771
 30
0.0
 11
28.9725
 21
6.940396
 31
0.0
  0
LINE
  5
E3
330
422
100
AcDbEntity
  8
NOTES
  6
Continuous
 62
     7
370
    30
100
AcDbLine
 10
28.720302
 20
6.61749
 30
0.0
 11
28.9725
 21
6.869687
 31
0.0
  0
LINE
  5
E4
330
422
100
AcDbEntity
  8
NOTES
  6
Continuous
 62
     7
370
    30
100
AcDbLine
 10
28.786302
 20
6.612781
 30
0.0
 11
28.9725
 21
6.798979
 31
0.0
  0
LINE
  5
E5
330
422
100
AcDbEntity
  8
NOTES
  6
Continuous
 62
     7
370
    30
100
AcDbLine
 10
28.852323
 20
6.608073
 30
0.0
 11
28.9725
 21
6.72825
 31
0.0
  0
LINE
  5
E6
330
422
100
AcDbEntity
  8
NOTES
  6
Continuous
 62
     7
370
    30
100
AcDbLine
 10
28.900146
 20
6.585187
 30
0.0
 11
28.9725
 21
6.657542
 31
0.0
  0
LINE
  5
E7
330
422
100
AcDbEntity
  8
NOTES
  6
Continuous
 62
     7
370
    30
100
AcDbLine
 10
28.954104
 20
6.568437
 30
0.0
 11
28.9725
 21
6.586833
 31
0.0
  0
LINE
  5
EE
330
422
100
AcDbEntity
  8
DIM
  6
Continuous
 62
     7
370
    30
100
AcDbLine
 10
23.176917
 20
9.274708
 30
0.0
 11
24.52876
 21
9.274708
 31
0.0
  0
LINE
  5
EF
330
422
100
AcDbEntity
  8
DIM
  6
Continuous
 62
     7
370
    30
100
AcDbLine
 10
23.503062
 20
9.070958
 30
0.0
 11
24.065542
 21
9.070958
 31
0.0
  0
LINE
  5
F0
330
422
100
AcDbEntity
  8
DIM
  6
Continuous
 62
     7
370
    30
100
AcDbLine
 10
25.508135
 20
9.274708
 30
0.0
 11
26.883615
 21
9.274708
 31
0.0
  0
LINE
  5
F1
330
422
100
AcDbEntity
  8
DIM
  6
Continuous
 62
     7
370
    30
100
AcDbLine
 10
28.036938
 20
9.274708
 30
0.0
 11
29.057917
 21
9.274708
 31
0.0
  0
LINE
  5
F2
330
422
100
AcDbEntity
  8
DIM
  6
Continuous
 62
     7
370
    30
100
AcDbLine
 10
25.867375
 20
9.070958
 30
0.0
 11
26.40149
 21
9.070958
 31
0.0
  0
LINE
  5
F3
330
422
100
AcDbEntity
  8
DIM
  6
Continuous
 62
     7
370
    30
100
AcDbLine
 10
28.23074
 20
9.070958
 30
0.0
 11
28.779042
 21
9.070958
 31
0.0
  0
LWPOLYLINE
  5
F7
330
422
100
AcDbEntity
  8
DIM
  6
Continuous
 62
     7
370
     0
100
AcDbPolyline
 90
        3
 70
   128
 43
0.0
 10
24.472198
 20
8.65174
 10
24.410385
 20
8.65174
 10
24.250677
 20
8.364656
  0
INSERT
  5
F8
330
422
100
AcDbEntity
  8
DIM
  6
Continuous
 62
     7
370
     0
100
AcDbBlockReference
  2
LARROW
 10
24.250677
 20
8.364656
 30
0.0
 41
11.999998
 42
11.999998
 43
11.999998
 50
240.912223
  0
LWPOLYLINE
  5
FA
330
422
100
AcDbEntity
  8
DIM
  6
Continuous
 62
     7
370
     0
100
AcDbPolyline
 90
        3
 70
   128
 43
0.0
 10
27.888878
 20
8.561063
 10
27.955982
 20
8.561063
 10
28.22268
 20
8.364656
  0
LWPOLYLINE
  5
FB
330
422
100
AcDbEntity
  8
DIM
  6
Continuous
 62
     7
370
     0
100
AcDbPolyline
 90
        3
 70
   128
 43
0.0
 10
27.056719
 20
8.702969
 10
26.989615
 20
8.702969
 10
26.722417
 20
8.364656
  0
INSERT
  5
FC
330
422
100
AcDbEntity
  8
DIM
  6
Continuous
 62
     7
370
     0
100
AcDbBlockReference
  2
LARROW
 10
26.722417
 20
8.364656
 30
0.0
 41
12.0
 42
12.0
 43
12.0
 50
231.698462
  0
INSERT
  5
FE
330
422
100
AcDbEntity
  8
DIM
  6
Continuous
 62
     7
370
     0
100
AcDbBlockReference
  2
LARROW
 10
28.220848
 20
8.364656
 30
0.0
 41
12.000001
 42
12.000001
 43
12.000001
 50
323.630692
  0
INSERT
  5
10F
330
422
100
AcDbEntity
  8
DIM
  6
Continuous
 62
     7
370
     0
100
AcDbBlockReference
  2
LARROW
 10
28.9725
 20
7.838552
 30
0.0
 41
12.000001
 42
12.000001
 43
12.000001
 50
150.827064
  0
LWPOLYLINE
  5
111
330
422
100
AcDbEntity
  8
NOTES
  6
Continuous
 62
     7
370
     0
100
AcDbPolyline
 90
        3
 70
   129
 43
0.0
 10
29.47299
 20
8.266375
 10
29.529865
 20
8.244125
 10
29.499865
 20
8.30575
  0
LWPOLYLINE
  5
112
330
422
100
AcDbEntity
  8
NOTES
  6
Continuous
 62
     7
370
     0
100
AcDbPolyline
 90
        3
 70
   129
 43
0.0
 10
29.175271
 20
8.275927
 10
29.232146
 20
8.253677
 10
29.202146
 20
8.315302
  0
LINE
  5
113
330
422
100
AcDbEntity
  8
NOTES
  6
Continuous
 62
     7
370
     0
100
AcDbLine
 10
29.36875
 20
8.282187
 30
0.0
 11
29.363125
 21
8.293062
 31
0.0
  0
LINE
  5
114
330
422
100
AcDbEntity
  8
NOTES
  6
Continuous
 62
     7
370
     0
100
AcDbLine
 10
29.227333
 20
8.100615
 30
0.0
 11
29.221708
 21
8.11149
 31
0.0
  0
LINE
  5
115
330
422
100
AcDbEntity
  8
NOTES
  6
Continuous
 62
     7
370
     0
100
AcDbLine
 10
29.048708
 20
8.263073
 30
0.0
 11
29.043083
 21
8.273948
 31
0.0
  0
LINE
  5
116
330
422
100
AcDbEntity
  8
NOTES
  6
Continuous
 62
     7
370
     0
100
AcDbLine
 10
28.215062
 20
7.932302
 30
0.0
 11
28.216938
 21
7.944427
 31
0.0
  0
LINE
  5
117
330
422
100
AcDbEntity
  8
NOTES
  6
Continuous
 62
     7
370
     0
100
AcDbLine
 10
28.213521
 20
7.846104
 30
0.0
 11
28.215396
 21
7.858229
 31
0.0
  0
LINE
  5
118
330
422
100
AcDbEntity
  8
NOTES
  6
Continuous
 62
     7
370
     0
100
AcDbLine
 10
28.112021
 20
8.240708
 30
0.0
 11
28.113896
 21
8.252833
 31
0.0
  0
LINE
  5
119
330
422
100
AcDbEntity
  8
NOTES
  6
Continuous
 62
     7
370
     0
100
AcDbLine
 10
27.839448
 20
8.305302
 30
0.0
 11
27.841323
 21
8.317427
 31
0.0
  0
LWPOLYLINE
  5
11A
330
422
100
AcDbEntity
  8
NOTES
  6
Continuous
 62
     7
370
     0
100
AcDbPolyline
 90
        3
 70
   129
 43
0.0
 10
28.240635
 20
8.107458
 10
28.199385
 20
8.154958
 10
28.16626
 20
8.115583
  0
LWPOLYLINE
  5
11B
330
422
100
AcDbEntity
  8
NOTES
  6
Continuous
 62
     7
370
     0
100
AcDbPolyline
 90
        3
 70
   129
 43
0.0
 10
28.028208
 20
7.700365
 10
27.986958
 20
7.747865
 10
27.953833
 20
7.70849
  0
LINE
  5
11E
330
422
100
AcDbEntity
  8
NOTES
  6
Continuous
 62
     7
370
    30
100
AcDbLine
 10
28.2725
 20
6.664656
 30
0.0
 11
28.544969
 21
6.937125
 31
0.0
  0
LINE
  5
11F
330
422
100
AcDbEntity
  8
NOTES
  6
Continuous
 62
     7
370
    30
100
AcDbLine
 10
28.846208
 20
7.238365
 30
0.0
 11
28.9725
 21
7.364656
 31
0.0
  0
LINE
  5
120
330
422
100
AcDbEntity
  8
NOTES
  6
Continuous
 62
     7
370
    30
100
AcDbLine
 10
28.2725
 20
6.735375
 30
0.0
 11
28.47425
 21
6.937125
 31
0.0
  0
LINE
  5
121
330
422
100
AcDbEntity
  8
NOTES
  6
Continuous
 62
     7
370
    30
100
AcDbLine
 10
28.804198
 20
7.267073
 30
0.0
 11
28.9725
 21
7.435375
 31
0.0
  0
LINE
  5
122
330
422
100
AcDbEntity
  8
NOTES
  6
Continuous
 62
     7
370
    30
100
AcDbLine
 10
28.2725
 20
6.806083
 30
0.0
 11
28.403542
 21
6.937125
 31
0.0
  0
LINE
  5
123
330
422
100
AcDbEntity
  8
NOTES
  6
Continuous
 62
     7
370
    30
100
AcDbLine
 10
28.73349
 20
7.267073
 30
0.0
 11
28.9725
 21
7.506083
 31
0.0
  0
LINE
  5
124
330
422
100
AcDbEntity
  8
NOTES
  6
Continuous
 62
     7
370
    30
100
AcDbLine
 10
28.662781
 20
7.267073
 30
0.0
 11
28.960365
 21
7.564656
 31
0.0
  0
LINE
  5
125
330
422
100
AcDbEntity
  8
NOTES
  6
Continuous
 62
     7
370
    30
100
AcDbLine
 10
28.2725
 20
6.876792
 30
0.0
 11
28.391156
 21
6.995448
 31
0.0
  0
LINE
  5
126
330
422
100
AcDbEntity
  8
NOTES
  6
Continuous
 62
     7
370
    30
100
AcDbLine
 10
28.592073
 20
7.267073
 30
0.0
 11
28.889656
 21
7.564656
 31
0.0
  0
LINE
  5
127
330
422
100
AcDbEntity
  8
NOTES
  6
Continuous
 62
     7
370
    30
100
AcDbLine
 10
28.2725
 20
6.9475
 30
0.0
 11
28.391156
 21
7.066156
 31
0.0
  0
LINE
  5
128
330
422
100
AcDbEntity
  8
NOTES
  6
Continuous
 62
     7
370
    30
100
AcDbLine
 10
28.521365
 20
7.267073
 30
0.0
 11
28.818948
 21
7.564656
 31
0.0
  0
LINE
  5
129
330
422
100
AcDbEntity
  8
NOTES
  6
Continuous
 62
     7
370
    30
100
AcDbLine
 10
28.2725
 20
7.018208
 30
0.0
 11
28.391156
 21
7.136865
 31
0.0
  0
LINE
  5
12A
330
422
100
AcDbEntity
  8
NOTES
  6
Continuous
 62
     7
370
    30
100
AcDbLine
 10
28.450656
 20
7.267073
 30
0.0
 11
28.74824
 21
7.564656
 31
0.0
  0
LINE
  5
12B
330
422
100
AcDbEntity
  8
NOTES
  6
Continuous
 62
     7
370
    30
100
AcDbLine
 10
28.2725
 20
7.088917
 30
0.0
 11
28.391156
 21
7.207573
 31
0.0
  0
LINE
  5
12C
330
422
100
AcDbEntity
  8
NOTES
  6
Continuous
 62
     7
370
    30
100
AcDbLine
 10
28.331573
 20
6.65301
 30
0.0
 11
28.615687
 21
6.937125
 31
0.0
  0
LINE
  5
12D
330
422
100
AcDbEntity
  8
NOTES
  6
Continuous
 62
     7
370
    30
100
AcDbLine
 10
28.846208
 20
7.167646
 30
0.0
 11
28.9725
 21
7.293938
 31
0.0
  0
LINE
  5
12E
330
422
100
AcDbEntity
  8
NOTES
  6
Continuous
 62
     7
370
    30
100
AcDbLine
 10
28.413333
 20
6.664062
 30
0.0
 11
28.686396
 21
6.937125
 31
0.0
  0
LINE
  5
12F
330
422
100
AcDbEntity
  8
NOTES
  6
Continuous
 62
     7
370
    30
100
AcDbLine
 10
28.846208
 20
7.096938
 30
0.0
 11
28.9725
 21
7.223229
 31
0.0
  0
LINE
  5
130
330
422
100
AcDbEntity
  8
NOTES
  6
Continuous
 62
     7
370
    30
100
AcDbLine
 10
28.484708
 20
6.664729
 30
0.0
 11
28.757104
 21
6.937125
 31
0.0
  0
LINE
  5
131
330
422
100
AcDbEntity
  8
NOTES
  6
Continuous
 62
     7
370
    30
100
AcDbLine
 10
28.922417
 20
7.102438
 30
0.0
 11
28.9725
 21
7.152521
 31
0.0
  0
LINE
  5
132
330
422
100
AcDbEntity
  8
NOTES
  6
Continuous
 62
     7
370
    30
100
AcDbLine
 10
28.543833
 20
6.653146
 30
0.0
 11
28.827813
 21
6.937125
 31
0.0
  0
LINE
  5
133
330
422
100
AcDbEntity
  8
NOTES
  6
Continuous
 62
     7
370
    30
100
AcDbLine
 10
28.959705
 20
7.069018
 30
0.0
 11
28.9725
 21
7.081812
 31
0.0
  0
LINE
  5
134
330
422
100
AcDbEntity
  8
DIM
  6
Continuous
 62
     7
370
     0
100
AcDbLine
 10
23.4725
 20
8.444667
 30
0.0
 11
23.4725
 21
8.785208
 31
0.0
  0
LINE
  5
135
330
422
100
AcDbEntity
  8
DIM
  6
Continuous
 62
     7
370
     0
100
AcDbLine
 10
24.1725
 20
8.444667
 30
0.0
 11
24.1725
 21
8.785208
 31
0.0
  0
LINE
  5
136
330
422
100
AcDbEntity
  8
DIM
  6
Continuous
 62
     7
370
     0
100
AcDbLine
 10
23.4725
 20
8.685052
 30
0.0
 11
24.1725
 21
8.685052
 31
0.0
  0
INSERT
  5
137
330
422
100
AcDbEntity
  8
DIM
  6
Continuous
 62
     7
370
     0
100
AcDbBlockReference
  2
LARROW
 10
23.4725
 20
8.685052
 30
0.0
 41
12.0
 42
12.0
 43
12.0
 50
180.0
  0
INSERT
  5
139
330
422
100
AcDbEntity
  8
DIM
  6
Continuous
 62
     7
370
     0
100
AcDbBlockReference
  2
LARROW
 10
24.1725
 20
8.685052
 30
0.0
 41
12.0
 42
12.0
 43
12.0
  0
LINE
  5
13C
330
422
100
AcDbEntity
  8
DIM
  6
Continuous
 62
     7
370
     0
100
AcDbLine
 10
25.8725
 20
8.444667
 30
0.0
 11
25.8725
 21
8.785208
 31
0.0
  0
LINE
  5
13D
330
422
100
AcDbEntity
  8
DIM
  6
Continuous
 62
     7
370
     0
100
AcDbLine
 10
26.5725
 20
8.444667
 30
0.0
 11
26.5725
 21
8.785208
 31
0.0
  0
LINE
  5
13E
330
422
100
AcDbEntity
  8
DIM
  6
Continuous
 62
     7
370
     0
100
AcDbLine
 10
25.8725
 20
8.685052
 30
0.0
 11
26.5725
 21
8.685052
 31
0.0
  0
INSERT
  5
13F
330
422
100
AcDbEntity
  8
DIM
  6
Continuous
 62
     7
370
     0
100
AcDbBlockReference
  2
LARROW
 10
25.8725
 20
8.685052
 30
0.0
 41
12.0
 42
12.0
 43
12.0
 50
180.0
  0
INSERT
  5
141
330
422
100
AcDbEntity
  8
DIM
  6
Continuous
 62
     7
370
     0
100
AcDbBlockReference
  2
LARROW
 10
26.5725
 20
8.685052
 30
0.0
 41
12.0
 42
12.0
 43
12.0
  0
LINE
  5
144
330
422
100
AcDbEntity
  8
DIM
  6
Continuous
 62
     7
370
     0
100
AcDbLine
 10
28.2725
 20
8.444667
 30
0.0
 11
28.2725
 21
8.785208
 31
0.0
  0
LINE
  5
145
330
422
100
AcDbEntity
  8
DIM
  6
Continuous
 62
     7
370
     0
100
AcDbLine
 10
28.9725
 20
8.444667
 30
0.0
 11
28.9725
 21
8.785208
 31
0.0
  0
LINE
  5
146
330
422
100
AcDbEntity
  8
DIM
  6
Continuous
 62
     7
370
     0
100
AcDbLine
 10
28.2725
 20
8.685052
 30
0.0
 11
28.9725
 21
8.685052
 31
0.0
  0
INSERT
  5
147
330
422
100
AcDbEntity
  8
DIM
  6
Continuous
 62
     7
370
     0
100
AcDbBlockReference
  2
LARROW
 10
28.2725
 20
8.685052
 30
0.0
 41
12.0
 42
12.0
 43
12.0
 50
180.0
  0
INSERT
  5
149
330
422
100
AcDbEntity
  8
DIM
  6
Continuous
 62
     7
370
     0
100
AcDbBlockReference
  2
LARROW
 10
28.9725
 20
8.685052
 30
0.0
 41
12.0
 42
12.0
 43
12.0
  0
LINE
  5
14C
330
422
100
AcDbEntity
  8
DIM
  6
Continuous
 62
     7
370
     0
100
AcDbLine
 10
23.278333
 20
8.304656
 30
0.0
 11
23.438104
 21
8.304656
 31
0.0
  0
LINE
  5
14D
330
422
100
AcDbEntity
  8
NOTES
  6
Continuous
 62
     7
370
     0
100
AcDbLine
 10
23.306906
 20
8.32151
 30
0.0
 11
23.313156
 21
8.33176
 31
0.0
  0
LINE
  5
14E
330
422
100
AcDbEntity
  8
NOTES
  6
Continuous
 62
     7
370
     0
100
AcDbLine
 10
23.37276
 20
8.326792
 30
0.0
 11
23.37901
 21
8.337042
 31
0.0
  0
LINE
  5
150
330
422
100
AcDbEntity
  8
DIM
  6
Continuous
 62
     7
370
     0
100
AcDbLine
 10
23.319
 20
8.304656
 30
0.0
 11
23.319
 21
7.644656
 31
0.0
  0
INSERT
  5
151
330
422
100
AcDbEntity
  8
DIM
  6
Continuous
 62
     7
370
     0
100
AcDbBlockReference
  2
LARROW
 10
23.319
 20
8.304656
 30
0.0
 41
12.0
 42
12.0
 43
12.0
 50
90.0
  0
INSERT
  5
153
330
422
100
AcDbEntity
  8
DIM
  6
Continuous
 62
     7
370
     0
100
AcDbBlockReference
  2
LARROW
 10
23.319
 20
7.644656
 30
0.0
 41
12.0
 42
12.0
 43
12.0
 50
270.0
  0
LINE
  5
155
330
422
100
AcDbEntity
  8
DIM
  6
Continuous
 62
     7
370
     0
100
AcDbLine
 10
23.002229
 20
6.894656
 30
0.0
 11
23.438104
 21
6.894656
 31
0.0
  0
LINE
  5
156
330
422
100
AcDbEntity
  8
DIM
  6
Continuous
 62
     7
370
     0
100
AcDbLine
 10
23.062542
 20
8.364656
 30
0.0
 11
23.062542
 21
6.894656
 31
0.0
  0
INSERT
  5
157
330
422
100
AcDbEntity
  8
DIM
  6
Continuous
 62
     7
370
     0
100
AcDbBlockReference
  2
LARROW
 10
23.062542
 20
6.894656
 30
0.0
 41
12.0
 42
12.0
 43
12.0
 50
270.0
  0
INSERT
  5
159
330
422
100
AcDbEntity
  8
DIM
  6
Continuous
 62
     7
370
     0
100
AcDbBlockReference
  2
LARROW
 10
23.062542
 20
8.364656
 30
0.0
 41
12.0
 42
12.0
 43
12.0
 50
90.0
  0
LINE
  5
15C
330
422
100
AcDbEntity
  8
DIM
  6
Continuous
 62
     7
370
     0
100
AcDbLine
 10
25.678333
 20
8.304656
 30
0.0
 11
25.838104
 21
8.304656
 31
0.0
  0
LINE
  5
15E
330
422
100
AcDbEntity
  8
DIM
  6
Continuous
 62
     7
370
     0
100
AcDbLine
 10
25.719
 20
8.304656
 30
0.0
 11
25.719
 21
7.644656
 31
0.0
  0
INSERT
  5
15F
330
422
100
AcDbEntity
  8
DIM
  6
Continuous
 62
     7
370
     0
100
AcDbBlockReference
  2
LARROW
 10
25.719
 20
8.304656
 30
0.0
 41
12.0
 42
12.0
 43
12.0
 50
90.0
  0
INSERT
  5
161
330
422
100
AcDbEntity
  8
DIM
  6
Continuous
 62
     7
370
     0
100
AcDbBlockReference
  2
LARROW
 10
25.719
 20
7.644656
 30
0.0
 41
12.0
 42
12.0
 43
12.0
 50
270.0
  0
LINE
  5
163
330
422
100
AcDbEntity
  8
DIM
  6
Continuous
 62
     7
370
     0
100
AcDbLine
 10
28.078333
 20
8.304656
 30
0.0
 11
28.238104
 21
8.304656
 31
0.0
  0
LINE
  5
164
330
422
100
AcDbEntity
  8
DIM
  6
Continuous
 62
     7
370
     0
100
AcDbLine
 10
28.119
 20
8.304656
 30
0.0
 11
28.119
 21
7.644656
 31
0.0
  0
INSERT
  5
165
330
422
100
AcDbEntity
  8
DIM
  6
Continuous
 62
     7
370
     0
100
AcDbBlockReference
  2
LARROW
 10
28.119
 20
8.304656
 30
0.0
 41
12.0
 42
12.0
 43
12.0
 50
90.0
  0
INSERT
  5
167
330
422
100
AcDbEntity
  8
DIM
  6
Continuous
 62
     7
370
     0
100
AcDbBlockReference
  2
LARROW
 10
28.119
 20
7.644656
 30
0.0
 41
12.0
 42
12.0
 43
12.0
 50
270.0
  0
LINE
  5
16A
330
422
100
AcDbEntity
  8
DIM
  6
Continuous
 62
     7
370
     0
100
AcDbLine
 10
28.2725
 20
6.127687
 30
0.0
 11
28.2725
 21
6.578385
 31
0.0
  0
LINE
  5
16B
330
422
100
AcDbEntity
  8
DIM
  6
Continuous
 62
     7
370
     0
100
AcDbLine
 10
28.9725
 20
6.127687
 30
0.0
 11
28.9725
 21
6.476229
 31
0.0
  0
LINE
  5
16C
330
422
100
AcDbEntity
  8
DIM
  6
Continuous
 62
     7
370
     0
100
AcDbLine
 10
28.2725
 20
6.224115
 30
0.0
 11
28.9725
 21
6.224115
 31
0.0
  0
INSERT
  5
16D
330
422
100
AcDbEntity
  8
DIM
  6
Continuous
 62
     7
370
     0
100
AcDbBlockReference
  2
LARROW
 10
28.2725
 20
6.224115
 30
0.0
 41
12.0
 42
12.0
 43
12.0
 50
180.0
  0
INSERT
  5
16F
330
422
100
AcDbEntity
  8
DIM
  6
Continuous
 62
     7
370
     0
100
AcDbBlockReference
  2
LARROW
 10
28.9725
 20
6.224115
 30
0.0
 41
12.0
 42
12.0
 43
12.0
  0
LWPOLYLINE
  5
173
330
422
100
AcDbEntity
  8
DIM
  6
Continuous
 62
     7
370
     0
100
AcDbPolyline
 90
        2
 70
   128
 43
0.0
 10
29.140294
 20
7.744879
 10
28.9725
 20
7.838552
  0
LWPOLYLINE
  5
174
330
422
100
AcDbEntity
  8
NOTES
  6
Continuous
 62
     7
370
    30
100
AcDbPolyline
 90
        3
 70
   128
 43
0.0
 10
28.2725
 20
7.564656
 10
28.2725
 20
8.364656
 10
27.5725
 20
8.364656
  0
LWPOLYLINE
  5
175
330
422
100
AcDbEntity
  8
NOTES
  6
Continuous
 62
     7
370
    30
100
AcDbPolyline
 90
        3
 70
   128
 43
0.0
 10
29.502521
 20
8.364656
 10
28.9725
 20
8.364656
 10
28.9725
 20
7.564656
  0
LINE
  5
176
330
422
100
AcDbEntity
  8
NOTES
  6
Continuous
 62
     7
370
    30
100
AcDbLine
 10
28.2725
 20
7.564656
 30
0.0
 11
28.9725
 21
7.564656
 31
0.0
  0
LWPOLYLINE
  5
177
330
422
100
AcDbEntity
  8
NOTES
  6
Continuous
 62
     7
370
    30
100
AcDbPolyline
 90
        3
 70
   128
 43
0.0
 10
25.8725
 20
7.564656
 10
25.8725
 20
8.364656
 10
25.1725
 20
8.364656
  0
LWPOLYLINE
  5
178
330
422
100
AcDbEntity
  8
NOTES
  6
Continuous
 62
     7
370
    30
100
AcDbPolyline
 90
        3
 70
   128
 43
0.0
 10
27.2725
 20
8.364656
 10
26.5725
 20
8.364656
 10
26.5725
 20
7.564656
  0
LWPOLYLINE
  5
179
330
422
100
AcDbEntity
  8
NOTES
  6
Continuous
 62
     7
370
    30
100
AcDbPolyline
 90
       10
 70
   128
 43
0.0
 10
25.766125
 20
6.655
 10
25.873406
 20
6.680833
 10
26.014219
 20
6.706667
 10
26.134917
 20
6.741104
 10
26.248906
 20
6.758323
 10
26.302552
 20
6.766927
 10
26.443365
 20
6.775542
 10
26.503708
 20
6.784146
 10
26.61099
 20
6.766927
 10
26.651229
 20
6.758323
  0
LINE
  5
17A
330
422
100
AcDbEntity
  8
NOTES
  6
Continuous
 62
     7
370
    30
100
AcDbLine
 10
26.2425
 20
7.564656
 30
0.0
 11
26.2425
 21
6.757292
 31
0.0
  0
LINE
  5
17B
330
422
100
AcDbEntity
  8
NOTES
  6
Continuous
 62
     7
370
    30
100
AcDbLine
 10
26.2025
 20
7.564656
 30
0.0
 11
26.2025
 21
6.751313
 31
0.0
  0
LINE
  5
17C
330
422
100
AcDbEntity
  8
NOTES
  6
Continuous
 62
     7
370
    30
100
AcDbLine
 10
25.8725
 20
7.564656
 30
0.0
 11
26.5725
 21
7.564656
 31
0.0
  0
LWPOLYLINE
  5
17D
330
422
100
AcDbEntity
  8
NOTES
  6
Continuous
 62
     7
370
    30
100
AcDbPolyline
 90
        3
 70
   128
 43
0.0
 10
23.4725
 20
7.564656
 10
23.4725
 20
8.364656
 10
22.94249
 20
8.364656
  0
LWPOLYLINE
  5
17E
330
422
100
AcDbEntity
  8
NOTES
  6
Continuous
 62
     7
370
    30
100
AcDbPolyline
 90
        3
 70
   128
 43
0.0
 10
24.8725
 20
8.364656
 10
24.1725
 20
8.364656
 10
24.1725
 20
7.564656
  0
LINE
  5
17F
330
422
100
AcDbEntity
  8
NOTES
  6
Continuous
 62
     7
370
    30
100
AcDbLine
 10
23.472666
 20
7.568655
 30
0.0
 11
24.172239
 21
7.544226
 31
0.0
  0
LINE
  5
180
330
422
100
AcDbEntity
  8
NOTES
  6
Continuous
 62
     7
370
    30
100
AcDbLine
 10
23.75249
 20
7.564656
 30
0.0
 11
23.75249
 21
7.244656
 31
0.0
  0
LINE
  5
181
330
422
100
AcDbEntity
  8
NOTES
  6
Continuous
 62
     7
370
    30
100
AcDbLine
 10
23.8925
 20
7.564656
 30
0.0
 11
23.8925
 21
7.244656
 31
0.0
  0
LWPOLYLINE
  5
187
330
422
100
AcDbEntity
  8
NOTES
  6
Continuous
 62
     7
370
    30
100
AcDbPolyline
 90
        7
 70
   128
 43
0.0
 10
23.81326
 20
7.244656
 10
23.778375
 20
7.157354
 10
23.804021
 20
7.104667
 10
23.832854
 20
7.052823
 10
23.832854
 20
7.020125
 10
23.871729
 20
6.995167
 10
23.926198
 20
6.974177
  0
LWPOLYLINE
  5
188
330
422
100
AcDbEntity
  8
NOTES
  6
Continuous
 62
     7
370
    30
100
AcDbPolyline
 90
        7
 70
   128
 43
0.0
 10
23.83174
 20
7.244656
 10
23.797115
 20
7.158042
 10
23.819229
 20
7.112583
 10
23.85
 20
7.057271
 10
23.85
 20
7.029479
 10
23.879531
 20
7.010531
 10
23.932365
 20
6.990167
  0
LINE
  5
189
330
422
100
AcDbEntity
  8
NOTES
  6
Continuous
 62
     7
370
    30
100
AcDbLine
 10
23.83174
 20
7.244656
 30
0.0
 11
23.8925
 21
7.244656
 31
0.0
  0
LINE
  5
18A
330
422
100
AcDbEntity
  8
NOTES
  6
Continuous
 62
     7
370
    30
100
AcDbLine
 10
23.75249
 20
7.244656
 30
0.0
 11
23.81326
 21
7.244656
 31
0.0
  0
LINE
  5
18B
330
422
100
AcDbEntity
  8
NOTES
  6
Continuous
 62
     7
370
    30
100
AcDbLine
 10
23.4725
 20
7.644656
 30
0.0
 11
24.1725
 21
7.644656
 31
0.0
  0
LINE
  5
18C
330
422
100
AcDbEntity
  8
NOTES
  6
Continuous
 62
     7
370
    30
100
AcDbLine
 10
23.4725
 20
7.649656
 30
0.0
 11
24.1725
 21
7.649656
 31
0.0
  0
LINE
  5
18D
330
422
100
AcDbEntity
  8
NOTES
  6
Continuous
 62
     7
370
    30
100
AcDbLine
 10
23.4725
 20
7.654656
 30
0.0
 11
24.1725
 21
7.654656
 31
0.0
  0
LINE
  5
18E
330
422
100
AcDbEntity
  8
NOTES
  6
Continuous
 62
     7
370
    30
100
AcDbLine
 10
23.4725
 20
7.659656
 30
0.0
 11
24.1725
 21
7.659656
 31
0.0
  0
LINE
  5
18F
330
422
100
AcDbEntity
  8
NOTES
  6
Continuous
 62
     7
370
    30
100
AcDbLine
 10
23.4725
 20
7.664656
 30
0.0
 11
24.1725
 21
7.664656
 31
0.0
  0
LINE
  5
190
330
422
100
AcDbEntity
  8
NOTES
  6
Continuous
 62
     7
370
    30
100
AcDbLine
 10
23.4725
 20
7.669656
 30
0.0
 11
24.1725
 21
7.669656
 31
0.0
  0
LINE
  5
191
330
422
100
AcDbEntity
  8
NOTES
  6
Continuous
 62
     7
370
    30
100
AcDbLine
 10
23.4725
 20
7.674656
 30
0.0
 11
24.1725
 21
7.674656
 31
0.0
  0
LINE
  5
192
330
422
100
AcDbEntity
  8
NOTES
  6
Continuous
 62
     7
370
    30
100
AcDbLine
 10
23.4725
 20
7.679656
 30
0.0
 11
24.1725
 21
7.679656
 31
0.0
  0
LINE
  5
193
330
422
100
AcDbEntity
  8
NOTES
  6
Continuous
 62
     7
370
    30
100
AcDbLine
 10
23.4725
 20
7.684656
 30
0.0
 11
24.1725
 21
7.684656
 31
0.0
  0
LINE
  5
194
330
422
100
AcDbEntity
  8
NOTES
  6
Continuous
 62
     7
370
    30
100
AcDbLine
 10
23.4725
 20
7.689656
 30
0.0
 11
24.1725
 21
7.689656
 31
0.0
  0
LINE
  5
195
330
422
100
AcDbEntity
  8
NOTES
  6
Continuous
 62
     7
370
    30
100
AcDbLine
 10
23.4725
 20
7.694656
 30
0.0
 11
24.1725
 21
7.694656
 31
0.0
  0
LINE
  5
196
330
422
100
AcDbEntity
  8
NOTES
  6
Continuous
 62
     7
370
    30
100
AcDbLine
 10
23.4725
 20
7.699656
 30
0.0
 11
24.1725
 21
7.699656
 31
0.0
  0
LINE
  5
197
330
422
100
AcDbEntity
  8
NOTES
  6
Continuous
 62
     7
370
    30
100
AcDbLine
 10
23.4725
 20
7.704656
 30
0.0
 11
24.1725
 21
7.704656
 31
0.0
  0
LINE
  5
198
330
422
100
AcDbEntity
  8
NOTES
  6
Continuous
 62
     7
370
    30
100
AcDbLine
 10
23.4725
 20
7.709656
 30
0.0
 11
24.1725
 21
7.709656
 31
0.0
  0
LINE
  5
199
330
422
100
AcDbEntity
  8
NOTES
  6
Continuous
 62
     7
370
    30
100
AcDbLine
 10
23.4725
 20
7.714656
 30
0.0
 11
24.1725
 21
7.714656
 31
0.0
  0
LINE
  5
19A
330
422
100
AcDbEntity
  8
NOTES
  6
Continuous
 62
     7
370
    30
100
AcDbLine
 10
23.4725
 20
7.719656
 30
0.0
 11
24.1725
 21
7.719656
 31
0.0
  0
LINE
  5
19B
330
422
100
AcDbEntity
  8
NOTES
  6
Continuous
 62
     7
370
    30
100
AcDbLine
 10
23.4725
 20
7.724656
 30
0.0
 11
24.1725
 21
7.724656
 31
0.0
  0
LINE
  5
19C
330
422
100
AcDbEntity
  8
NOTES
  6
Continuous
 62
     7
370
    30
100
AcDbLine
 10
23.4725
 20
7.729656
 30
0.0
 11
24.1725
 21
7.729656
 31
0.0
  0
LINE
  5
19D
330
422
100
AcDbEntity
  8
NOTES
  6
Continuous
 62
     7
370
    30
100
AcDbLine
 10
23.4725
 20
7.734656
 30
0.0
 11
24.1725
 21
7.734656
 31
0.0
  0
LINE
  5
19E
330
422
100
AcDbEntity
  8
NOTES
  6
Continuous
 62
     7
370
    30
100
AcDbLine
 10
23.4725
 20
7.739656
 30
0.0
 11
24.1725
 21
7.739656
 31
0.0
  0
LINE
  5
19F
330
422
100
AcDbEntity
  8
NOTES
  6
Continuous
 62
     7
370
    30
100
AcDbLine
 10
23.4725
 20
7.744656
 30
0.0
 11
24.1725
 21
7.744656
 31
0.0
  0
LINE
  5
1A0
330
422
100
AcDbEntity
  8
NOTES
  6
Continuous
 62
     7
370
    30
100
AcDbLine
 10
23.4725
 20
7.749656
 30
0.0
 11
24.1725
 21
7.749656
 31
0.0
  0
LINE
  5
1A1
330
422
100
AcDbEntity
  8
NOTES
  6
Continuous
 62
     7
370
    30
100
AcDbLine
 10
23.4725
 20
7.754656
 30
0.0
 11
24.1725
 21
7.754656
 31
0.0
  0
LINE
  5
1A2
330
422
100
AcDbEntity
  8
NOTES
  6
Continuous
 62
     7
370
    30
100
AcDbLine
 10
23.4725
 20
7.759656
 30
0.0
 11
24.1725
 21
7.759656
 31
0.0
  0
LINE
  5
1A3
330
422
100
AcDbEntity
  8
NOTES
  6
Continuous
 62
     7
370
    30
100
AcDbLine
 10
23.4725
 20
7.764656
 30
0.0
 11
24.1725
 21
7.764656
 31
0.0
  0
LINE
  5
1A4
330
422
100
AcDbEntity
  8
NOTES
  6
Continuous
 62
     7
370
    30
100
AcDbLine
 10
23.4725
 20
7.769656
 30
0.0
 11
24.1725
 21
7.769656
 31
0.0
  0
LINE
  5
1A5
330
422
100
AcDbEntity
  8
NOTES
  6
Continuous
 62
     7
370
    30
100
AcDbLine
 10
23.4725
 20
7.774656
 30
0.0
 11
24.1725
 21
7.774656
 31
0.0
  0
LINE
  5
1A6
330
422
100
AcDbEntity
  8
NOTES
  6
Continuous
 62
     7
370
    30
100
AcDbLine
 10
23.4725
 20
7.779656
 30
0.0
 11
24.1725
 21
7.779656
 31
0.0
  0
LINE
  5
1A7
330
422
100
AcDbEntity
  8
NOTES
  6
Continuous
 62
     7
370
    30
100
AcDbLine
 10
23.4725
 20
7.784656
 30
0.0
 11
24.1725
 21
7.784656
 31
0.0
  0
LINE
  5
1A8
330
422
100
AcDbEntity
  8
NOTES
  6
Continuous
 62
     7
370
    30
100
AcDbLine
 10
23.4725
 20
7.789656
 30
0.0
 11
24.1725
 21
7.789656
 31
0.0
  0
LINE
  5
1A9
330
422
100
AcDbEntity
  8
NOTES
  6
Continuous
 62
     7
370
    30
100
AcDbLine
 10
23.4725
 20
7.794656
 30
0.0
 11
24.1725
 21
7.794656
 31
0.0
  0
LINE
  5
1AA
330
422
100
AcDbEntity
  8
NOTES
  6
Continuous
 62
     7
370
    30
100
AcDbLine
 10
23.4725
 20
7.799656
 30
0.0
 11
24.1725
 21
7.799656
 31
0.0
  0
LINE
  5
1AB
330
422
100
AcDbEntity
  8
NOTES
  6
Continuous
 62
     7
370
    30
100
AcDbLine
 10
23.4725
 20
7.804656
 30
0.0
 11
24.1725
 21
7.804656
 31
0.0
  0
LINE
  5
1AC
330
422
100
AcDbEntity
  8
NOTES
  6
Continuous
 62
     7
370
    30
100
AcDbLine
 10
23.4725
 20
7.809656
 30
0.0
 11
24.1725
 21
7.809656
 31
0.0
  0
LINE
  5
1AD
330
422
100
AcDbEntity
  8
NOTES
  6
Continuous
 62
     7
370
    30
100
AcDbLine
 10
23.4725
 20
7.814656
 30
0.0
 11
24.1725
 21
7.814656
 31
0.0
  0
LINE
  5
1AE
330
422
100
AcDbEntity
  8
NOTES
  6
Continuous
 62
     7
370
    30
100
AcDbLine
 10
23.4725
 20
7.819656
 30
0.0
 11
24.1725
 21
7.819656
 31
0.0
  0
LINE
  5
1AF
330
422
100
AcDbEntity
  8
NOTES
  6
Continuous
 62
     7
370
    30
100
AcDbLine
 10
23.4725
 20
7.824656
 30
0.0
 11
24.1725
 21
7.824656
 31
0.0
  0
LINE
  5
1B0
330
422
100
AcDbEntity
  8
NOTES
  6
Continuous
 62
     7
370
    30
100
AcDbLine
 10
23.4725
 20
7.829656
 30
0.0
 11
24.1725
 21
7.829656
 31
0.0
  0
LINE
  5
1B1
330
422
100
AcDbEntity
  8
NOTES
  6
Continuous
 62
     7
370
    30
100
AcDbLine
 10
23.4725
 20
7.834656
 30
0.0
 11
24.1725
 21
7.834656
 31
0.0
  0
LINE
  5
1B2
330
422
100
AcDbEntity
  8
NOTES
  6
Continuous
 62
     7
370
    30
100
AcDbLine
 10
23.4725
 20
7.839656
 30
0.0
 11
24.1725
 21
7.839656
 31
0.0
  0
LINE
  5
1B3
330
422
100
AcDbEntity
  8
NOTES
  6
Continuous
 62
     7
370
    30
100
AcDbLine
 10
23.4725
 20
7.844656
 30
0.0
 11
24.1725
 21
7.844656
 31
0.0
  0
LINE
  5
1B4
330
422
100
AcDbEntity
  8
NOTES
  6
Continuous
 62
     7
370
    30
100
AcDbLine
 10
23.4725
 20
7.849656
 30
0.0
 11
24.1725
 21
7.849656
 31
0.0
  0
LINE
  5
1B5
330
422
100
AcDbEntity
  8
NOTES
  6
Continuous
 62
     7
370
    30
100
AcDbLine
 10
23.4725
 20
7.854656
 30
0.0
 11
24.1725
 21
7.854656
 31
0.0
  0
LINE
  5
1B6
330
422
100
AcDbEntity
  8
NOTES
  6
Continuous
 62
     7
370
    30
100
AcDbLine
 10
23.4725
 20
7.859656
 30
0.0
 11
24.1725
 21
7.859656
 31
0.0
  0
LINE
  5
1B7
330
422
100
AcDbEntity
  8
NOTES
  6
Continuous
 62
     7
370
    30
100
AcDbLine
 10
23.4725
 20
7.864656
 30
0.0
 11
24.1725
 21
7.864656
 31
0.0
  0
LINE
  5
1B8
330
422
100
AcDbEntity
  8
NOTES
  6
Continuous
 62
     7
370
    30
100
AcDbLine
 10
23.4725
 20
7.869656
 30
0.0
 11
24.1725
 21
7.869656
 31
0.0
  0
LINE
  5
1B9
330
422
100
AcDbEntity
  8
NOTES
  6
Continuous
 62
     7
370
    30
100
AcDbLine
 10
23.4725
 20
7.874656
 30
0.0
 11
24.1725
 21
7.874656
 31
0.0
  0
LINE
  5
1BA
330
422
100
AcDbEntity
  8
NOTES
  6
Continuous
 62
     7
370
    30
100
AcDbLine
 10
23.4725
 20
7.879656
 30
0.0
 11
24.1725
 21
7.879656
 31
0.0
  0
LINE
  5
1BB
330
422
100
AcDbEntity
  8
NOTES
  6
Continuous
 62
     7
370
    30
100
AcDbLine
 10
23.4725
 20
7.884656
 30
0.0
 11
24.1725
 21
7.884656
 31
0.0
  0
LINE
  5
1BC
330
422
100
AcDbEntity
  8
NOTES
  6
Continuous
 62
     7
370
    30
100
AcDbLine
 10
23.4725
 20
7.889656
 30
0.0
 11
24.1725
 21
7.889656
 31
0.0
  0
LINE
  5
1BD
330
422
100
AcDbEntity
  8
NOTES
  6
Continuous
 62
     7
370
    30
100
AcDbLine
 10
23.4725
 20
7.894656
 30
0.0
 11
24.1725
 21
7.894656
 31
0.0
  0
LINE
  5
1BE
330
422
100
AcDbEntity
  8
NOTES
  6
Continuous
 62
     7
370
    30
100
AcDbLine
 10
23.4725
 20
7.899656
 30
0.0
 11
24.1725
 21
7.899656
 31
0.0
  0
LINE
  5
1BF
330
422
100
AcDbEntity
  8
NOTES
  6
Continuous
 62
     7
370
    30
100
AcDbLine
 10
23.4725
 20
7.904656
 30
0.0
 11
24.1725
 21
7.904656
 31
0.0
  0
LINE
  5
1C0
330
422
100
AcDbEntity
  8
NOTES
  6
Continuous
 62
     7
370
    30
100
AcDbLine
 10
23.4725
 20
7.909656
 30
0.0
 11
24.1725
 21
7.909656
 31
0.0
  0
LINE
  5
1C1
330
422
100
AcDbEntity
  8
NOTES
  6
Continuous
 62
     7
370
    30
100
AcDbLine
 10
23.4725
 20
7.914656
 30
0.0
 11
24.1725
 21
7.914656
 31
0.0
  0
LINE
  5
1C2
330
422
100
AcDbEntity
  8
NOTES
  6
Continuous
 62
     7
370
    30
100
AcDbLine
 10
23.4725
 20
7.919656
 30
0.0
 11
24.1725
 21
7.919656
 31
0.0
  0
LINE
  5
1C3
330
422
100
AcDbEntity
  8
NOTES
  6
Continuous
 62
     7
370
    30
100
AcDbLine
 10
23.4725
 20
7.924656
 30
0.0
 11
24.1725
 21
7.924656
 31
0.0
  0
LINE
  5
1C4
330
422
100
AcDbEntity
  8
NOTES
  6
Continuous
 62
     7
370
    30
100
AcDbLine
 10
23.4725
 20
7.929656
 30
0.0
 11
24.1725
 21
7.929656
 31
0.0
  0
LINE
  5
1C5
330
422
100
AcDbEntity
  8
NOTES
  6
Continuous
 62
     7
370
    30
100
AcDbLine
 10
23.4725
 20
7.934656
 30
0.0
 11
24.1725
 21
7.934656
 31
0.0
  0
LINE
  5
1C6
330
422
100
AcDbEntity
  8
NOTES
  6
Continuous
 62
     7
370
    30
100
AcDbLine
 10
23.4725
 20
7.939656
 30
0.0
 11
24.1725
 21
7.939656
 31
0.0
  0
LINE
  5
1C7
330
422
100
AcDbEntity
  8
NOTES
  6
Continuous
 62
     7
370
    30
100
AcDbLine
 10
23.4725
 20
7.944656
 30
0.0
 11
24.1725
 21
7.944656
 31
0.0
  0
LINE
  5
1C8
330
422
100
AcDbEntity
  8
NOTES
  6
Continuous
 62
     7
370
    30
100
AcDbLine
 10
23.4725
 20
7.949656
 30
0.0
 11
24.1725
 21
7.949656
 31
0.0
  0
LINE
  5
1C9
330
422
100
AcDbEntity
  8
NOTES
  6
Continuous
 62
     7
370
    30
100
AcDbLine
 10
23.4725
 20
7.954656
 30
0.0
 11
24.1725
 21
7.954656
 31
0.0
  0
LINE
  5
1CA
330
422
100
AcDbEntity
  8
NOTES
  6
Continuous
 62
     7
370
    30
100
AcDbLine
 10
23.4725
 20
7.959656
 30
0.0
 11
24.1725
 21
7.959656
 31
0.0
  0
LINE
  5
1CB
330
422
100
AcDbEntity
  8
NOTES
  6
Continuous
 62
     7
370
    30
100
AcDbLine
 10
23.4725
 20
7.964656
 30
0.0
 11
24.1725
 21
7.964656
 31
0.0
  0
LINE
  5
1CC
330
422
100
AcDbEntity
  8
NOTES
  6
Continuous
 62
     7
370
    30
100
AcDbLine
 10
23.4725
 20
7.969656
 30
0.0
 11
24.1725
 21
7.969656
 31
0.0
  0
LINE
  5
1CD
330
422
100
AcDbEntity
  8
NOTES
  6
Continuous
 62
     7
370
    30
100
AcDbLine
 10
23.4725
 20
7.974656
 30
0.0
 11
24.1725
 21
7.974656
 31
0.0
  0
LINE
  5
1CE
330
422
100
AcDbEntity
  8
NOTES
  6
Continuous
 62
     7
370
    30
100
AcDbLine
 10
23.4725
 20
7.979656
 30
0.0
 11
24.1725
 21
7.979656
 31
0.0
  0
LINE
  5
1CF
330
422
100
AcDbEntity
  8
NOTES
  6
Continuous
 62
     7
370
    30
100
AcDbLine
 10
23.4725
 20
7.984656
 30
0.0
 11
24.1725
 21
7.984656
 31
0.0
  0
LINE
  5
1D0
330
422
100
AcDbEntity
  8
NOTES
  6
Continuous
 62
     7
370
    30
100
AcDbLine
 10
23.4725
 20
7.989656
 30
0.0
 11
24.1725
 21
7.989656
 31
0.0
  0
LINE
  5
1D1
330
422
100
AcDbEntity
  8
NOTES
  6
Continuous
 62
     7
370
    30
100
AcDbLine
 10
23.4725
 20
7.994656
 30
0.0
 11
24.1725
 21
7.994656
 31
0.0
  0
LINE
  5
1D2
330
422
100
AcDbEntity
  8
NOTES
  6
Continuous
 62
     7
370
    30
100
AcDbLine
 10
23.4725
 20
7.999656
 30
0.0
 11
24.1725
 21
7.999656
 31
0.0
  0
LINE
  5
1D3
330
422
100
AcDbEntity
  8
NOTES
  6
Continuous
 62
     7
370
    30
100
AcDbLine
 10
23.4725
 20
8.004656
 30
0.0
 11
24.1725
 21
8.004656
 31
0.0
  0
LINE
  5
1D4
330
422
100
AcDbEntity
  8
NOTES
  6
Continuous
 62
     7
370
    30
100
AcDbLine
 10
23.4725
 20
8.009656
 30
0.0
 11
24.1725
 21
8.009656
 31
0.0
  0
LINE
  5
1D5
330
422
100
AcDbEntity
  8
NOTES
  6
Continuous
 62
     7
370
    30
100
AcDbLine
 10
23.4725
 20
8.014656
 30
0.0
 11
24.1725
 21
8.014656
 31
0.0
  0
LINE
  5
1D6
330
422
100
AcDbEntity
  8
NOTES
  6
Continuous
 62
     7
370
    30
100
AcDbLine
 10
23.4725
 20
8.019656
 30
0.0
 11
24.1725
 21
8.019656
 31
0.0
  0
LINE
  5
1D7
330
422
100
AcDbEntity
  8
NOTES
  6
Continuous
 62
     7
370
    30
100
AcDbLine
 10
23.4725
 20
8.024656
 30
0.0
 11
24.1725
 21
8.024656
 31
0.0
  0
LINE
  5
1D8
330
422
100
AcDbEntity
  8
NOTES
  6
Continuous
 62
     7
370
    30
100
AcDbLine
 10
23.4725
 20
8.029656
 30
0.0
 11
24.1725
 21
8.029656
 31
0.0
  0
LINE
  5
1D9
330
422
100
AcDbEntity
  8
NOTES
  6
Continuous
 62
     7
370
    30
100
AcDbLine
 10
23.4725
 20
8.034656
 30
0.0
 11
24.1725
 21
8.034656
 31
0.0
  0
LINE
  5
1DA
330
422
100
AcDbEntity
  8
NOTES
  6
Continuous
 62
     7
370
    30
100
AcDbLine
 10
23.4725
 20
8.039656
 30
0.0
 11
24.1725
 21
8.039656
 31
0.0
  0
LINE
  5
1DB
330
422
100
AcDbEntity
  8
NOTES
  6
Continuous
 62
     7
370
    30
100
AcDbLine
 10
23.4725
 20
8.044656
 30
0.0
 11
24.1725
 21
8.044656
 31
0.0
  0
LINE
  5
1DC
330
422
100
AcDbEntity
  8
NOTES
  6
Continuous
 62
     7
370
    30
100
AcDbLine
 10
23.4725
 20
8.049656
 30
0.0
 11
24.1725
 21
8.049656
 31
0.0
  0
LINE
  5
1DD
330
422
100
AcDbEntity
  8
NOTES
  6
Continuous
 62
     7
370
    30
100
AcDbLine
 10
23.4725
 20
8.054656
 30
0.0
 11
24.1725
 21
8.054656
 31
0.0
  0
LINE
  5
1DE
330
422
100
AcDbEntity
  8
NOTES
  6
Continuous
 62
     7
370
    30
100
AcDbLine
 10
23.4725
 20
8.059656
 30
0.0
 11
24.1725
 21
8.059656
 31
0.0
  0
LINE
  5
1DF
330
422
100
AcDbEntity
  8
NOTES
  6
Continuous
 62
     7
370
    30
100
AcDbLine
 10
23.4725
 20
8.064656
 30
0.0
 11
24.1725
 21
8.064656
 31
0.0
  0
LINE
  5
1E0
330
422
100
AcDbEntity
  8
NOTES
  6
Continuous
 62
     7
370
    30
100
AcDbLine
 10
23.4725
 20
8.069656
 30
0.0
 11
24.1725
 21
8.069656
 31
0.0
  0
LINE
  5
1E1
330
422
100
AcDbEntity
  8
NOTES
  6
Continuous
 62
     7
370
    30
100
AcDbLine
 10
23.4725
 20
8.074656
 30
0.0
 11
24.1725
 21
8.074656
 31
0.0
  0
LINE
  5
1E2
330
422
100
AcDbEntity
  8
NOTES
  6
Continuous
 62
     7
370
    30
100
AcDbLine
 10
23.4725
 20
8.079656
 30
0.0
 11
24.1725
 21
8.079656
 31
0.0
  0
LINE
  5
1E3
330
422
100
AcDbEntity
  8
NOTES
  6
Continuous
 62
     7
370
    30
100
AcDbLine
 10
23.4725
 20
8.084656
 30
0.0
 11
24.1725
 21
8.084656
 31
0.0
  0
LINE
  5
1E4
330
422
100
AcDbEntity
  8
NOTES
  6
Continuous
 62
     7
370
    30
100
AcDbLine
 10
23.4725
 20
8.089656
 30
0.0
 11
24.1725
 21
8.089656
 31
0.0
  0
LINE
  5
1E5
330
422
100
AcDbEntity
  8
NOTES
  6
Continuous
 62
     7
370
    30
100
AcDbLine
 10
23.4725
 20
8.094656
 30
0.0
 11
24.1725
 21
8.094656
 31
0.0
  0
LINE
  5
1E6
330
422
100
AcDbEntity
  8
NOTES
  6
Continuous
 62
     7
370
    30
100
AcDbLine
 10
23.4725
 20
8.099656
 30
0.0
 11
24.1725
 21
8.099656
 31
0.0
  0
LINE
  5
1E7
330
422
100
AcDbEntity
  8
NOTES
  6
Continuous
 62
     7
370
    30
100
AcDbLine
 10
23.4725
 20
8.104656
 30
0.0
 11
24.1725
 21
8.104656
 31
0.0
  0
LINE
  5
1E8
330
422
100
AcDbEntity
  8
NOTES
  6
Continuous
 62
     7
370
    30
100
AcDbLine
 10
23.4725
 20
8.109656
 30
0.0
 11
24.1725
 21
8.109656
 31
0.0
  0
LINE
  5
1E9
330
422
100
AcDbEntity
  8
NOTES
  6
Continuous
 62
     7
370
    30
100
AcDbLine
 10
23.4725
 20
8.114656
 30
0.0
 11
24.1725
 21
8.114656
 31
0.0
  0
LINE
  5
1EA
330
422
100
AcDbEntity
  8
NOTES
  6
Continuous
 62
     7
370
    30
100
AcDbLine
 10
23.4725
 20
8.119656
 30
0.0
 11
24.1725
 21
8.119656
 31
0.0
  0
LINE
  5
1EB
330
422
100
AcDbEntity
  8
NOTES
  6
Continuous
 62
     7
370
    30
100
AcDbLine
 10
23.4725
 20
8.124656
 30
0.0
 11
24.1725
 21
8.124656
 31
0.0
  0
LINE
  5
1EC
330
422
100
AcDbEntity
  8
NOTES
  6
Continuous
 62
     7
370
    30
100
AcDbLine
 10
23.4725
 20
8.129656
 30
0.0
 11
24.1725
 21
8.129656
 31
0.0
  0
LINE
  5
1ED
330
422
100
AcDbEntity
  8
NOTES
  6
Continuous
 62
     7
370
    30
100
AcDbLine
 10
23.4725
 20
8.134656
 30
0.0
 11
24.1725
 21
8.134656
 31
0.0
  0
LINE
  5
1EE
330
422
100
AcDbEntity
  8
NOTES
  6
Continuous
 62
     7
370
    30
100
AcDbLine
 10
23.4725
 20
8.139656
 30
0.0
 11
24.1725
 21
8.139656
 31
0.0
  0
LINE
  5
1EF
330
422
100
AcDbEntity
  8
NOTES
  6
Continuous
 62
     7
370
    30
100
AcDbLine
 10
23.4725
 20
8.144656
 30
0.0
 11
24.1725
 21
8.144656
 31
0.0
  0
LINE
  5
1F0
330
422
100
AcDbEntity
  8
NOTES
  6
Continuous
 62
     7
370
    30
100
AcDbLine
 10
23.4725
 20
8.149656
 30
0.0
 11
24.1725
 21
8.149656
 31
0.0
  0
LINE
  5
1F1
330
422
100
AcDbEntity
  8
NOTES
  6
Continuous
 62
     7
370
    30
100
AcDbLine
 10
23.4725
 20
8.154656
 30
0.0
 11
24.1725
 21
8.154656
 31
0.0
  0
LINE
  5
1F2
330
422
100
AcDbEntity
  8
NOTES
  6
Continuous
 62
     7
370
    30
100
AcDbLine
 10
23.4725
 20
8.159656
 30
0.0
 11
24.1725
 21
8.159656
 31
0.0
  0
LINE
  5
1F3
330
422
100
AcDbEntity
  8
NOTES
  6
Continuous
 62
     7
370
    30
100
AcDbLine
 10
23.4725
 20
8.164656
 30
0.0
 11
24.1725
 21
8.164656
 31
0.0
  0
LINE
  5
1F4
330
422
100
AcDbEntity
  8
NOTES
  6
Continuous
 62
     7
370
    30
100
AcDbLine
 10
23.4725
 20
8.169656
 30
0.0
 11
24.1725
 21
8.169656
 31
0.0
  0
LINE
  5
1F5
330
422
100
AcDbEntity
  8
NOTES
  6
Continuous
 62
     7
370
    30
100
AcDbLine
 10
23.4725
 20
8.174656
 30
0.0
 11
24.1725
 21
8.174656
 31
0.0
  0
LINE
  5
1F6
330
422
100
AcDbEntity
  8
NOTES
  6
Continuous
 62
     7
370
    30
100
AcDbLine
 10
23.4725
 20
8.179656
 30
0.0
 11
24.1725
 21
8.179656
 31
0.0
  0
LINE
  5
1F7
330
422
100
AcDbEntity
  8
NOTES
  6
Continuous
 62
     7
370
    30
100
AcDbLine
 10
23.4725
 20
8.184656
 30
0.0
 11
24.1725
 21
8.184656
 31
0.0
  0
LINE
  5
1F8
330
422
100
AcDbEntity
  8
NOTES
  6
Continuous
 62
     7
370
    30
100
AcDbLine
 10
23.4725
 20
8.189656
 30
0.0
 11
24.1725
 21
8.189656
 31
0.0
  0
LINE
  5
1F9
330
422
100
AcDbEntity
  8
NOTES
  6
Continuous
 62
     7
370
    30
100
AcDbLine
 10
23.4725
 20
8.194656
 30
0.0
 11
24.1725
 21
8.194656
 31
0.0
  0
LINE
  5
1FA
330
422
100
AcDbEntity
  8
NOTES
  6
Continuous
 62
     7
370
    30
100
AcDbLine
 10
23.4725
 20
8.199656
 30
0.0
 11
24.1725
 21
8.199656
 31
0.0
  0
LINE
  5
1FB
330
422
100
AcDbEntity
  8
NOTES
  6
Continuous
 62
     7
370
    30
100
AcDbLine
 10
23.4725
 20
8.204656
 30
0.0
 11
24.1725
 21
8.204656
 31
0.0
  0
LINE
  5
1FC
330
422
100
AcDbEntity
  8
NOTES
  6
Continuous
 62
     7
370
    30
100
AcDbLine
 10
23.4725
 20
8.209656
 30
0.0
 11
24.1725
 21
8.209656
 31
0.0
  0
LINE
  5
1FD
330
422
100
AcDbEntity
  8
NOTES
  6
Continuous
 62
     7
370
    30
100
AcDbLine
 10
23.4725
 20
8.214656
 30
0.0
 11
24.1725
 21
8.214656
 31
0.0
  0
LINE
  5
1FE
330
422
100
AcDbEntity
  8
NOTES
  6
Continuous
 62
     7
370
    30
100
AcDbLine
 10
23.4725
 20
8.219656
 30
0.0
 11
24.1725
 21
8.219656
 31
0.0
  0
LINE
  5
1FF
330
422
100
AcDbEntity
  8
NOTES
  6
Continuous
 62
     7
370
    30
100
AcDbLine
 10
23.4725
 20
8.224656
 30
0.0
 11
24.1725
 21
8.224656
 31
0.0
  0
LINE
  5
200
330
422
100
AcDbEntity
  8
NOTES
  6
Continuous
 62
     7
370
    30
100
AcDbLine
 10
23.4725
 20
8.229656
 30
0.0
 11
24.1725
 21
8.229656
 31
0.0
  0
LINE
  5
201
330
422
100
AcDbEntity
  8
NOTES
  6
Continuous
 62
     7
370
    30
100
AcDbLine
 10
23.4725
 20
8.234656
 30
0.0
 11
24.1725
 21
8.234656
 31
0.0
  0
LINE
  5
202
330
422
100
AcDbEntity
  8
NOTES
  6
Continuous
 62
     7
370
    30
100
AcDbLine
 10
23.4725
 20
8.239656
 30
0.0
 11
24.1725
 21
8.239656
 31
0.0
  0
LINE
  5
203
330
422
100
AcDbEntity
  8
NOTES
  6
Continuous
 62
     7
370
    30
100
AcDbLine
 10
23.4725
 20
8.244656
 30
0.0
 11
24.1725
 21
8.244656
 31
0.0
  0
LINE
  5
204
330
422
100
AcDbEntity
  8
NOTES
  6
Continuous
 62
     7
370
    30
100
AcDbLine
 10
23.4725
 20
8.284656
 30
0.0
 11
23.536417
 21
8.284656
 31
0.0
  0
LINE
  5
205
330
422
100
AcDbEntity
  8
NOTES
  6
Continuous
 62
     7
370
    30
100
AcDbLine
 10
23.4725
 20
8.289656
 30
0.0
 11
23.519052
 21
8.289656
 31
0.0
  0
LINE
  5
206
330
422
100
AcDbEntity
  8
NOTES
  6
Continuous
 62
     7
370
    30
100
AcDbLine
 10
23.4725
 20
8.294656
 30
0.0
 11
23.502698
 21
8.294656
 31
0.0
  0
LINE
  5
207
330
422
100
AcDbEntity
  8
NOTES
  6
Continuous
 62
     7
370
    30
100
AcDbLine
 10
23.4725
 20
8.299656
 30
0.0
 11
23.487219
 21
8.299656
 31
0.0
  0
LINE
  5
208
330
422
100
AcDbEntity
  8
NOTES
  6
Continuous
 62
     7
370
    30
100
AcDbLine
 10
23.4725
 20
8.259656
 30
0.0
 11
23.649583
 21
8.259656
 31
0.0
  0
LINE
  5
209
330
422
100
AcDbEntity
  8
NOTES
  6
Continuous
 62
     7
370
    30
100
AcDbLine
 10
23.995417
 20
8.259656
 30
0.0
 11
24.1725
 21
8.259656
 31
0.0
  0
LINE
  5
20A
330
422
100
AcDbEntity
  8
NOTES
  6
Continuous
 62
     7
370
    30
100
AcDbLine
 10
23.4725
 20
8.264656
 30
0.0
 11
23.621531
 21
8.264656
 31
0.0
  0
LINE
  5
20B
330
422
100
AcDbEntity
  8
NOTES
  6
Continuous
 62
     7
370
    30
100
AcDbLine
 10
24.023469
 20
8.264656
 30
0.0
 11
24.1725
 21
8.264656
 31
0.0
  0
LINE
  5
20C
330
422
100
AcDbEntity
  8
NOTES
  6
Continuous
 62
     7
370
    30
100
AcDbLine
 10
23.4725
 20
8.269656
 30
0.0
 11
23.597052
 21
8.269656
 31
0.0
  0
LINE
  5
20D
330
422
100
AcDbEntity
  8
NOTES
  6
Continuous
 62
     7
370
    30
100
AcDbLine
 10
24.047948
 20
8.269656
 30
0.0
 11
24.1725
 21
8.269656
 31
0.0
  0
LINE
  5
20E
330
422
100
AcDbEntity
  8
NOTES
  6
Continuous
 62
     7
370
    30
100
AcDbLine
 10
23.4725
 20
8.274656
 30
0.0
 11
23.575083
 21
8.274656
 31
0.0
  0
LINE
  5
20F
330
422
100
AcDbEntity
  8
NOTES
  6
Continuous
 62
     7
370
    30
100
AcDbLine
 10
24.069917
 20
8.274656
 30
0.0
 11
24.1725
 21
8.274656
 31
0.0
  0
LINE
  5
210
330
422
100
AcDbEntity
  8
NOTES
  6
Continuous
 62
     7
370
    30
100
AcDbLine
 10
23.4725
 20
8.279656
 30
0.0
 11
23.555
 21
8.279656
 31
0.0
  0
LINE
  5
211
330
422
100
AcDbEntity
  8
NOTES
  6
Continuous
 62
     7
370
    30
100
AcDbLine
 10
24.09
 20
8.279656
 30
0.0
 11
24.1725
 21
8.279656
 31
0.0
  0
LINE
  5
212
330
422
100
AcDbEntity
  8
NOTES
  6
Continuous
 62
     7
370
    30
100
AcDbLine
 10
24.108583
 20
8.284656
 30
0.0
 11
24.1725
 21
8.284656
 31
0.0
  0
LINE
  5
213
330
422
100
AcDbEntity
  8
NOTES
  6
Continuous
 62
     7
370
    30
100
AcDbLine
 10
24.125948
 20
8.289656
 30
0.0
 11
24.1725
 21
8.289656
 31
0.0
  0
LINE
  5
214
330
422
100
AcDbEntity
  8
NOTES
  6
Continuous
 62
     7
370
    30
100
AcDbLine
 10
24.142302
 20
8.294656
 30
0.0
 11
24.1725
 21
8.294656
 31
0.0
  0
LINE
  5
215
330
422
100
AcDbEntity
  8
NOTES
  6
Continuous
 62
     7
370
    30
100
AcDbLine
 10
24.157781
 20
8.299656
 30
0.0
 11
24.1725
 21
8.299656
 31
0.0
  0
LINE
  5
216
330
422
100
AcDbEntity
  8
NOTES
  6
Continuous
 62
     7
370
    30
100
AcDbLine
 10
23.4725
 20
8.254656
 30
0.0
 11
23.683354
 21
8.254656
 31
0.0
  0
LINE
  5
217
330
422
100
AcDbEntity
  8
NOTES
  6
Continuous
 62
     7
370
    30
100
AcDbLine
 10
23.961646
 20
8.254656
 30
0.0
 11
24.1725
 21
8.254656
 31
0.0
  0
LINE
  5
218
330
422
100
AcDbEntity
  8
NOTES
  6
Continuous
 62
     7
370
    30
100
AcDbLine
 10
23.4725
 20
8.249656
 30
0.0
 11
23.728833
 21
8.249656
 31
0.0
  0
LINE
  5
219
330
422
100
AcDbEntity
  8
NOTES
  6
Continuous
 62
     7
370
    30
100
AcDbLine
 10
23.916167
 20
8.249656
 30
0.0
 11
24.1725
 21
8.249656
 31
0.0
  0
ARC
  5
21A
330
422
100
AcDbEntity
  8
NOTES
  6
Continuous
 62
     7
370
    30
100
AcDbCircle
 10
26.2225
 20
9.311035
 30
0.0
 40
1.065503303382679
100
AcDbArc
 50
250.823258
 51
289.176742
  0
LINE
  5
21B
330
422
100
AcDbEntity
  8
NOTES
  6
Continuous
 62
     7
370
    30
100
AcDbLine
 10
25.8725
 20
7.644656
 30
0.0
 11
26.5725
 21
7.644656
 31
0.0
  0
LINE
  5
21C
330
422
100
AcDbEntity
  8
NOTES
  6
Continuous
 62
     7
370
    30
100
AcDbLine
 10
25.8725
 20
7.649656
 30
0.0
 11
26.5725
 21
7.649656
 31
0.0
  0
LINE
  5
21D
330
422
100
AcDbEntity
  8
NOTES
  6
Continuous
 62
     7
370
    30
100
AcDbLine
 10
25.8725
 20
7.654656
 30
0.0
 11
26.5725
 21
7.654656
 31
0.0
  0
LINE
  5
21E
330
422
100
AcDbEntity
  8
NOTES
  6
Continuous
 62
     7
370
    30
100
AcDbLine
 10
25.8725
 20
7.659656
 30
0.0
 11
26.5725
 21
7.659656
 31
0.0
  0
LINE
  5
21F
330
422
100
AcDbEntity
  8
NOTES
  6
Continuous
 62
     7
370
    30
100
AcDbLine
 10
25.8725
 20
7.664656
 30
0.0
 11
26.5725
 21
7.664656
 31
0.0
  0
LINE
  5
220
330
422
100
AcDbEntity
  8
NOTES
  6
Continuous
 62
     7
370
    30
100
AcDbLine
 10
25.8725
 20
7.669656
 30
0.0
 11
26.5725
 21
7.669656
 31
0.0
  0
LINE
  5
221
330
422
100
AcDbEntity
  8
NOTES
  6
Continuous
 62
     7
370
    30
100
AcDbLine
 10
25.8725
 20
7.674656
 30
0.0
 11
26.5725
 21
7.674656
 31
0.0
  0
LINE
  5
222
330
422
100
AcDbEntity
  8
NOTES
  6
Continuous
 62
     7
370
    30
100
AcDbLine
 10
25.8725
 20
7.679656
 30
0.0
 11
26.5725
 21
7.679656
 31
0.0
  0
LINE
  5
223
330
422
100
AcDbEntity
  8
NOTES
  6
Continuous
 62
     7
370
    30
100
AcDbLine
 10
25.8725
 20
7.684656
 30
0.0
 11
26.5725
 21
7.684656
 31
0.0
  0
LINE
  5
224
330
422
100
AcDbEntity
  8
NOTES
  6
Continuous
 62
     7
370
    30
100
AcDbLine
 10
25.8725
 20
7.689656
 30
0.0
 11
26.5725
 21
7.689656
 31
0.0
  0
LINE
  5
225
330
422
100
AcDbEntity
  8
NOTES
  6
Continuous
 62
     7
370
    30
100
AcDbLine
 10
25.8725
 20
7.694656
 30
0.0
 11
26.5725
 21
7.694656
 31
0.0
  0
LINE
  5
226
330
422
100
AcDbEntity
  8
NOTES
  6
Continuous
 62
     7
370
    30
100
AcDbLine
 10
25.8725
 20
7.699656
 30
0.0
 11
26.5725
 21
7.699656
 31
0.0
  0
LINE
  5
227
330
422
100
AcDbEntity
  8
NOTES
  6
Continuous
 62
     7
370
    30
100
AcDbLine
 10
25.8725
 20
7.704656
 30
0.0
 11
26.5725
 21
7.704656
 31
0.0
  0
LINE
  5
228
330
422
100
AcDbEntity
  8
NOTES
  6
Continuous
 62
     7
370
    30
100
AcDbLine
 10
25.8725
 20
7.709656
 30
0.0
 11
26.5725
 21
7.709656
 31
0.0
  0
LINE
  5
229
330
422
100
AcDbEntity
  8
NOTES
  6
Continuous
 62
     7
370
    30
100
AcDbLine
 10
25.8725
 20
7.714656
 30
0.0
 11
26.5725
 21
7.714656
 31
0.0
  0
LINE
  5
22A
330
422
100
AcDbEntity
  8
NOTES
  6
Continuous
 62
     7
370
    30
100
AcDbLine
 10
25.8725
 20
7.719656
 30
0.0
 11
26.5725
 21
7.719656
 31
0.0
  0
LINE
  5
22B
330
422
100
AcDbEntity
  8
NOTES
  6
Continuous
 62
     7
370
    30
100
AcDbLine
 10
25.8725
 20
7.724656
 30
0.0
 11
26.5725
 21
7.724656
 31
0.0
  0
LINE
  5
22C
330
422
100
AcDbEntity
  8
NOTES
  6
Continuous
 62
     7
370
    30
100
AcDbLine
 10
25.8725
 20
7.729656
 30
0.0
 11
26.5725
 21
7.729656
 31
0.0
  0
LINE
  5
22D
330
422
100
AcDbEntity
  8
NOTES
  6
Continuous
 62
     7
370
    30
100
AcDbLine
 10
25.8725
 20
7.734656
 30
0.0
 11
26.5725
 21
7.734656
 31
0.0
  0
LINE
  5
22E
330
422
100
AcDbEntity
  8
NOTES
  6
Continuous
 62
     7
370
    30
100
AcDbLine
 10
25.8725
 20
7.739656
 30
0.0
 11
26.5725
 21
7.739656
 31
0.0
  0
LINE
  5
22F
330
422
100
AcDbEntity
  8
NOTES
  6
Continuous
 62
     7
370
    30
100
AcDbLine
 10
25.8725
 20
7.744656
 30
0.0
 11
26.5725
 21
7.744656
 31
0.0
  0
LINE
  5
230
330
422
100
AcDbEntity
  8
NOTES
  6
Continuous
 62
     7
370
    30
100
AcDbLine
 10
25.8725
 20
7.749656
 30
0.0
 11
26.5725
 21
7.749656
 31
0.0
  0
LINE
  5
231
330
422
100
AcDbEntity
  8
NOTES
  6
Continuous
 62
     7
370
    30
100
AcDbLine
 10
25.8725
 20
7.754656
 30
0.0
 11
26.5725
 21
7.754656
 31
0.0
  0
LINE
  5
232
330
422
100
AcDbEntity
  8
NOTES
  6
Continuous
 62
     7
370
    30
100
AcDbLine
 10
25.8725
 20
7.759656
 30
0.0
 11
26.5725
 21
7.759656
 31
0.0
  0
LINE
  5
233
330
422
100
AcDbEntity
  8
NOTES
  6
Continuous
 62
     7
370
    30
100
AcDbLine
 10
25.8725
 20
7.764656
 30
0.0
 11
26.5725
 21
7.764656
 31
0.0
  0
LINE
  5
234
330
422
100
AcDbEntity
  8
NOTES
  6
Continuous
 62
     7
370
    30
100
AcDbLine
 10
25.8725
 20
7.769656
 30
0.0
 11
26.5725
 21
7.769656
 31
0.0
  0
LINE
  5
235
330
422
100
AcDbEntity
  8
NOTES
  6
Continuous
 62
     7
370
    30
100
AcDbLine
 10
25.8725
 20
7.774656
 30
0.0
 11
26.5725
 21
7.774656
 31
0.0
  0
LINE
  5
236
330
422
100
AcDbEntity
  8
NOTES
  6
Continuous
 62
     7
370
    30
100
AcDbLine
 10
25.8725
 20
7.779656
 30
0.0
 11
26.5725
 21
7.779656
 31
0.0
  0
LINE
  5
237
330
422
100
AcDbEntity
  8
NOTES
  6
Continuous
 62
     7
370
    30
100
AcDbLine
 10
25.8725
 20
7.784656
 30
0.0
 11
26.5725
 21
7.784656
 31
0.0
  0
LINE
  5
238
330
422
100
AcDbEntity
  8
NOTES
  6
Continuous
 62
     7
370
    30
100
AcDbLine
 10
25.8725
 20
7.789656
 30
0.0
 11
26.5725
 21
7.789656
 31
0.0
  0
LINE
  5
239
330
422
100
AcDbEntity
  8
NOTES
  6
Continuous
 62
     7
370
    30
100
AcDbLine
 10
25.8725
 20
7.794656
 30
0.0
 11
26.5725
 21
7.794656
 31
0.0
  0
LINE
  5
23A
330
422
100
AcDbEntity
  8
NOTES
  6
Continuous
 62
     7
370
    30
100
AcDbLine
 10
25.8725
 20
7.799656
 30
0.0
 11
26.5725
 21
7.799656
 31
0.0
  0
LINE
  5
23B
330
422
100
AcDbEntity
  8
NOTES
  6
Continuous
 62
     7
370
    30
100
AcDbLine
 10
25.8725
 20
7.804656
 30
0.0
 11
26.5725
 21
7.804656
 31
0.0
  0
LINE
  5
23C
330
422
100
AcDbEntity
  8
NOTES
  6
Continuous
 62
     7
370
    30
100
AcDbLine
 10
25.8725
 20
7.809656
 30
0.0
 11
26.5725
 21
7.809656
 31
0.0
  0
LINE
  5
23D
330
422
100
AcDbEntity
  8
NOTES
  6
Continuous
 62
     7
370
    30
100
AcDbLine
 10
25.8725
 20
7.814656
 30
0.0
 11
26.5725
 21
7.814656
 31
0.0
  0
LINE
  5
23E
330
422
100
AcDbEntity
  8
NOTES
  6
Continuous
 62
     7
370
    30
100
AcDbLine
 10
25.8725
 20
7.819656
 30
0.0
 11
26.5725
 21
7.819656
 31
0.0
  0
LINE
  5
23F
330
422
100
AcDbEntity
  8
NOTES
  6
Continuous
 62
     7
370
    30
100
AcDbLine
 10
25.8725
 20
7.824656
 30
0.0
 11
26.5725
 21
7.824656
 31
0.0
  0
LINE
  5
240
330
422
100
AcDbEntity
  8
NOTES
  6
Continuous
 62
     7
370
    30
100
AcDbLine
 10
25.8725
 20
7.829656
 30
0.0
 11
26.5725
 21
7.829656
 31
0.0
  0
LINE
  5
241
330
422
100
AcDbEntity
  8
NOTES
  6
Continuous
 62
     7
370
    30
100
AcDbLine
 10
25.8725
 20
7.834656
 30
0.0
 11
26.5725
 21
7.834656
 31
0.0
  0
LINE
  5
242
330
422
100
AcDbEntity
  8
NOTES
  6
Continuous
 62
     7
370
    30
100
AcDbLine
 10
25.8725
 20
7.839656
 30
0.0
 11
26.5725
 21
7.839656
 31
0.0
  0
LINE
  5
243
330
422
100
AcDbEntity
  8
NOTES
  6
Continuous
 62
     7
370
    30
100
AcDbLine
 10
25.8725
 20
7.844656
 30
0.0
 11
26.5725
 21
7.844656
 31
0.0
  0
LINE
  5
244
330
422
100
AcDbEntity
  8
NOTES
  6
Continuous
 62
     7
370
    30
100
AcDbLine
 10
25.8725
 20
7.849656
 30
0.0
 11
26.5725
 21
7.849656
 31
0.0
  0
LINE
  5
245
330
422
100
AcDbEntity
  8
NOTES
  6
Continuous
 62
     7
370
    30
100
AcDbLine
 10
25.8725
 20
7.854656
 30
0.0
 11
26.5725
 21
7.854656
 31
0.0
  0
LINE
  5
246
330
422
100
AcDbEntity
  8
NOTES
  6
Continuous
 62
     7
370
    30
100
AcDbLine
 10
25.8725
 20
7.859656
 30
0.0
 11
26.5725
 21
7.859656
 31
0.0
  0
LINE
  5
247
330
422
100
AcDbEntity
  8
NOTES
  6
Continuous
 62
     7
370
    30
100
AcDbLine
 10
25.8725
 20
7.864656
 30
0.0
 11
26.5725
 21
7.864656
 31
0.0
  0
LINE
  5
248
330
422
100
AcDbEntity
  8
NOTES
  6
Continuous
 62
     7
370
    30
100
AcDbLine
 10
25.8725
 20
7.869656
 30
0.0
 11
26.5725
 21
7.869656
 31
0.0
  0
LINE
  5
249
330
422
100
AcDbEntity
  8
NOTES
  6
Continuous
 62
     7
370
    30
100
AcDbLine
 10
25.8725
 20
7.874656
 30
0.0
 11
26.5725
 21
7.874656
 31
0.0
  0
LINE
  5
24A
330
422
100
AcDbEntity
  8
NOTES
  6
Continuous
 62
     7
370
    30
100
AcDbLine
 10
25.8725
 20
7.879656
 30
0.0
 11
26.5725
 21
7.879656
 31
0.0
  0
LINE
  5
24B
330
422
100
AcDbEntity
  8
NOTES
  6
Continuous
 62
     7
370
    30
100
AcDbLine
 10
25.8725
 20
7.884656
 30
0.0
 11
26.5725
 21
7.884656
 31
0.0
  0
LINE
  5
24C
330
422
100
AcDbEntity
  8
NOTES
  6
Continuous
 62
     7
370
    30
100
AcDbLine
 10
25.8725
 20
7.889656
 30
0.0
 11
26.5725
 21
7.889656
 31
0.0
  0
LINE
  5
24D
330
422
100
AcDbEntity
  8
NOTES
  6
Continuous
 62
     7
370
    30
100
AcDbLine
 10
25.8725
 20
7.894656
 30
0.0
 11
26.5725
 21
7.894656
 31
0.0
  0
LINE
  5
24E
330
422
100
AcDbEntity
  8
NOTES
  6
Continuous
 62
     7
370
    30
100
AcDbLine
 10
25.8725
 20
7.899656
 30
0.0
 11
26.5725
 21
7.899656
 31
0.0
  0
LINE
  5
24F
330
422
100
AcDbEntity
  8
NOTES
  6
Continuous
 62
     7
370
    30
100
AcDbLine
 10
25.8725
 20
7.904656
 30
0.0
 11
26.5725
 21
7.904656
 31
0.0
  0
LINE
  5
250
330
422
100
AcDbEntity
  8
NOTES
  6
Continuous
 62
     7
370
    30
100
AcDbLine
 10
25.8725
 20
7.909656
 30
0.0
 11
26.5725
 21
7.909656
 31
0.0
  0
LINE
  5
251
330
422
100
AcDbEntity
  8
NOTES
  6
Continuous
 62
     7
370
    30
100
AcDbLine
 10
25.8725
 20
7.914656
 30
0.0
 11
26.5725
 21
7.914656
 31
0.0
  0
LINE
  5
252
330
422
100
AcDbEntity
  8
NOTES
  6
Continuous
 62
     7
370
    30
100
AcDbLine
 10
25.8725
 20
7.919656
 30
0.0
 11
26.5725
 21
7.919656
 31
0.0
  0
LINE
  5
253
330
422
100
AcDbEntity
  8
NOTES
  6
Continuous
 62
     7
370
    30
100
AcDbLine
 10
25.8725
 20
7.924656
 30
0.0
 11
26.5725
 21
7.924656
 31
0.0
  0
LINE
  5
254
330
422
100
AcDbEntity
  8
NOTES
  6
Continuous
 62
     7
370
    30
100
AcDbLine
 10
25.8725
 20
7.929656
 30
0.0
 11
26.5725
 21
7.929656
 31
0.0
  0
LINE
  5
255
330
422
100
AcDbEntity
  8
NOTES
  6
Continuous
 62
     7
370
    30
100
AcDbLine
 10
25.8725
 20
7.934656
 30
0.0
 11
26.5725
 21
7.934656
 31
0.0
  0
LINE
  5
256
330
422
100
AcDbEntity
  8
NOTES
  6
Continuous
 62
     7
370
    30
100
AcDbLine
 10
25.8725
 20
7.939656
 30
0.0
 11
26.5725
 21
7.939656
 31
0.0
  0
LINE
  5
257
330
422
100
AcDbEntity
  8
NOTES
  6
Continuous
 62
     7
370
    30
100
AcDbLine
 10
25.8725
 20
7.944656
 30
0.0
 11
26.5725
 21
7.944656
 31
0.0
  0
LINE
  5
258
330
422
100
AcDbEntity
  8
NOTES
  6
Continuous
 62
     7
370
    30
100
AcDbLine
 10
25.8725
 20
7.949656
 30
0.0
 11
26.5725
 21
7.949656
 31
0.0
  0
LINE
  5
259
330
422
100
AcDbEntity
  8
NOTES
  6
Continuous
 62
     7
370
    30
100
AcDbLine
 10
25.8725
 20
7.954656
 30
0.0
 11
26.5725
 21
7.954656
 31
0.0
  0
LINE
  5
25A
330
422
100
AcDbEntity
  8
NOTES
  6
Continuous
 62
     7
370
    30
100
AcDbLine
 10
25.8725
 20
7.959656
 30
0.0
 11
26.5725
 21
7.959656
 31
0.0
  0
LINE
  5
25B
330
422
100
AcDbEntity
  8
NOTES
  6
Continuous
 62
     7
370
    30
100
AcDbLine
 10
25.8725
 20
7.964656
 30
0.0
 11
26.5725
 21
7.964656
 31
0.0
  0
LINE
  5
25C
330
422
100
AcDbEntity
  8
NOTES
  6
Continuous
 62
     7
370
    30
100
AcDbLine
 10
25.8725
 20
7.969656
 30
0.0
 11
26.5725
 21
7.969656
 31
0.0
  0
LINE
  5
25D
330
422
100
AcDbEntity
  8
NOTES
  6
Continuous
 62
     7
370
    30
100
AcDbLine
 10
25.8725
 20
7.974656
 30
0.0
 11
26.5725
 21
7.974656
 31
0.0
  0
LINE
  5
25E
330
422
100
AcDbEntity
  8
NOTES
  6
Continuous
 62
     7
370
    30
100
AcDbLine
 10
25.8725
 20
7.979656
 30
0.0
 11
26.5725
 21
7.979656
 31
0.0
  0
LINE
  5
25F
330
422
100
AcDbEntity
  8
NOTES
  6
Continuous
 62
     7
370
    30
100
AcDbLine
 10
25.8725
 20
7.984656
 30
0.0
 11
26.5725
 21
7.984656
 31
0.0
  0
LINE
  5
260
330
422
100
AcDbEntity
  8
NOTES
  6
Continuous
 62
     7
370
    30
100
AcDbLine
 10
25.8725
 20
7.989656
 30
0.0
 11
26.5725
 21
7.989656
 31
0.0
  0
LINE
  5
261
330
422
100
AcDbEntity
  8
NOTES
  6
Continuous
 62
     7
370
    30
100
AcDbLine
 10
25.8725
 20
7.994656
 30
0.0
 11
26.5725
 21
7.994656
 31
0.0
  0
LINE
  5
262
330
422
100
AcDbEntity
  8
NOTES
  6
Continuous
 62
     7
370
    30
100
AcDbLine
 10
25.8725
 20
7.999656
 30
0.0
 11
26.5725
 21
7.999656
 31
0.0
  0
LINE
  5
263
330
422
100
AcDbEntity
  8
NOTES
  6
Continuous
 62
     7
370
    30
100
AcDbLine
 10
25.8725
 20
8.004656
 30
0.0
 11
26.5725
 21
8.004656
 31
0.0
  0
LINE
  5
264
330
422
100
AcDbEntity
  8
NOTES
  6
Continuous
 62
     7
370
    30
100
AcDbLine
 10
25.8725
 20
8.009656
 30
0.0
 11
26.5725
 21
8.009656
 31
0.0
  0
LINE
  5
265
330
422
100
AcDbEntity
  8
NOTES
  6
Continuous
 62
     7
370
    30
100
AcDbLine
 10
25.8725
 20
8.014656
 30
0.0
 11
26.5725
 21
8.014656
 31
0.0
  0
LINE
  5
266
330
422
100
AcDbEntity
  8
NOTES
  6
Continuous
 62
     7
370
    30
100
AcDbLine
 10
25.8725
 20
8.019656
 30
0.0
 11
26.5725
 21
8.019656
 31
0.0
  0
LINE
  5
267
330
422
100
AcDbEntity
  8
NOTES
  6
Continuous
 62
     7
370
    30
100
AcDbLine
 10
25.8725
 20
8.024656
 30
0.0
 11
26.5725
 21
8.024656
 31
0.0
  0
LINE
  5
268
330
422
100
AcDbEntity
  8
NOTES
  6
Continuous
 62
     7
370
    30
100
AcDbLine
 10
25.8725
 20
8.029656
 30
0.0
 11
26.5725
 21
8.029656
 31
0.0
  0
LINE
  5
269
330
422
100
AcDbEntity
  8
NOTES
  6
Continuous
 62
     7
370
    30
100
AcDbLine
 10
25.8725
 20
8.034656
 30
0.0
 11
26.5725
 21
8.034656
 31
0.0
  0
LINE
  5
26A
330
422
100
AcDbEntity
  8
NOTES
  6
Continuous
 62
     7
370
    30
100
AcDbLine
 10
25.8725
 20
8.039656
 30
0.0
 11
26.5725
 21
8.039656
 31
0.0
  0
LINE
  5
26B
330
422
100
AcDbEntity
  8
NOTES
  6
Continuous
 62
     7
370
    30
100
AcDbLine
 10
25.8725
 20
8.044656
 30
0.0
 11
26.5725
 21
8.044656
 31
0.0
  0
LINE
  5
26C
330
422
100
AcDbEntity
  8
NOTES
  6
Continuous
 62
     7
370
    30
100
AcDbLine
 10
25.8725
 20
8.049656
 30
0.0
 11
26.5725
 21
8.049656
 31
0.0
  0
LINE
  5
26D
330
422
100
AcDbEntity
  8
NOTES
  6
Continuous
 62
     7
370
    30
100
AcDbLine
 10
25.8725
 20
8.054656
 30
0.0
 11
26.5725
 21
8.054656
 31
0.0
  0
LINE
  5
26E
330
422
100
AcDbEntity
  8
NOTES
  6
Continuous
 62
     7
370
    30
100
AcDbLine
 10
25.8725
 20
8.059656
 30
0.0
 11
26.5725
 21
8.059656
 31
0.0
  0
LINE
  5
26F
330
422
100
AcDbEntity
  8
NOTES
  6
Continuous
 62
     7
370
    30
100
AcDbLine
 10
25.8725
 20
8.064656
 30
0.0
 11
26.5725
 21
8.064656
 31
0.0
  0
LINE
  5
270
330
422
100
AcDbEntity
  8
NOTES
  6
Continuous
 62
     7
370
    30
100
AcDbLine
 10
25.8725
 20
8.069656
 30
0.0
 11
26.5725
 21
8.069656
 31
0.0
  0
LINE
  5
271
330
422
100
AcDbEntity
  8
NOTES
  6
Continuous
 62
     7
370
    30
100
AcDbLine
 10
25.8725
 20
8.074656
 30
0.0
 11
26.5725
 21
8.074656
 31
0.0
  0
LINE
  5
272
330
422
100
AcDbEntity
  8
NOTES
  6
Continuous
 62
     7
370
    30
100
AcDbLine
 10
25.8725
 20
8.079656
 30
0.0
 11
26.5725
 21
8.079656
 31
0.0
  0
LINE
  5
273
330
422
100
AcDbEntity
  8
NOTES
  6
Continuous
 62
     7
370
    30
100
AcDbLine
 10
25.8725
 20
8.084656
 30
0.0
 11
26.5725
 21
8.084656
 31
0.0
  0
LINE
  5
274
330
422
100
AcDbEntity
  8
NOTES
  6
Continuous
 62
     7
370
    30
100
AcDbLine
 10
25.8725
 20
8.089656
 30
0.0
 11
26.5725
 21
8.089656
 31
0.0
  0
LINE
  5
275
330
422
100
AcDbEntity
  8
NOTES
  6
Continuous
 62
     7
370
    30
100
AcDbLine
 10
25.8725
 20
8.094656
 30
0.0
 11
26.5725
 21
8.094656
 31
0.0
  0
LINE
  5
276
330
422
100
AcDbEntity
  8
NOTES
  6
Continuous
 62
     7
370
    30
100
AcDbLine
 10
25.8725
 20
8.099656
 30
0.0
 11
26.5725
 21
8.099656
 31
0.0
  0
LINE
  5
277
330
422
100
AcDbEntity
  8
NOTES
  6
Continuous
 62
     7
370
    30
100
AcDbLine
 10
25.8725
 20
8.104656
 30
0.0
 11
26.5725
 21
8.104656
 31
0.0
  0
LINE
  5
278
330
422
100
AcDbEntity
  8
NOTES
  6
Continuous
 62
     7
370
    30
100
AcDbLine
 10
25.8725
 20
8.109656
 30
0.0
 11
26.5725
 21
8.109656
 31
0.0
  0
LINE
  5
279
330
422
100
AcDbEntity
  8
NOTES
  6
Continuous
 62
     7
370
    30
100
AcDbLine
 10
25.8725
 20
8.114656
 30
0.0
 11
26.5725
 21
8.114656
 31
0.0
  0
LINE
  5
27A
330
422
100
AcDbEntity
  8
NOTES
  6
Continuous
 62
     7
370
    30
100
AcDbLine
 10
25.8725
 20
8.119656
 30
0.0
 11
26.5725
 21
8.119656
 31
0.0
  0
LINE
  5
27B
330
422
100
AcDbEntity
  8
NOTES
  6
Continuous
 62
     7
370
    30
100
AcDbLine
 10
25.8725
 20
8.124656
 30
0.0
 11
26.5725
 21
8.124656
 31
0.0
  0
LINE
  5
27C
330
422
100
AcDbEntity
  8
NOTES
  6
Continuous
 62
     7
370
    30
100
AcDbLine
 10
25.8725
 20
8.129656
 30
0.0
 11
26.5725
 21
8.129656
 31
0.0
  0
LINE
  5
27D
330
422
100
AcDbEntity
  8
NOTES
  6
Continuous
 62
     7
370
    30
100
AcDbLine
 10
25.8725
 20
8.134656
 30
0.0
 11
26.5725
 21
8.134656
 31
0.0
  0
LINE
  5
27E
330
422
100
AcDbEntity
  8
NOTES
  6
Continuous
 62
     7
370
    30
100
AcDbLine
 10
25.8725
 20
8.139656
 30
0.0
 11
26.5725
 21
8.139656
 31
0.0
  0
LINE
  5
27F
330
422
100
AcDbEntity
  8
NOTES
  6
Continuous
 62
     7
370
    30
100
AcDbLine
 10
25.8725
 20
8.144656
 30
0.0
 11
26.5725
 21
8.144656
 31
0.0
  0
LINE
  5
280
330
422
100
AcDbEntity
  8
NOTES
  6
Continuous
 62
     7
370
    30
100
AcDbLine
 10
25.8725
 20
8.149656
 30
0.0
 11
26.5725
 21
8.149656
 31
0.0
  0
LINE
  5
281
330
422
100
AcDbEntity
  8
NOTES
  6
Continuous
 62
     7
370
    30
100
AcDbLine
 10
25.8725
 20
8.154656
 30
0.0
 11
26.5725
 21
8.154656
 31
0.0
  0
LINE
  5
282
330
422
100
AcDbEntity
  8
NOTES
  6
Continuous
 62
     7
370
    30
100
AcDbLine
 10
25.8725
 20
8.159656
 30
0.0
 11
26.5725
 21
8.159656
 31
0.0
  0
LINE
  5
283
330
422
100
AcDbEntity
  8
NOTES
  6
Continuous
 62
     7
370
    30
100
AcDbLine
 10
25.8725
 20
8.164656
 30
0.0
 11
26.5725
 21
8.164656
 31
0.0
  0
LINE
  5
284
330
422
100
AcDbEntity
  8
NOTES
  6
Continuous
 62
     7
370
    30
100
AcDbLine
 10
25.8725
 20
8.169656
 30
0.0
 11
26.5725
 21
8.169656
 31
0.0
  0
LINE
  5
285
330
422
100
AcDbEntity
  8
NOTES
  6
Continuous
 62
     7
370
    30
100
AcDbLine
 10
25.8725
 20
8.174656
 30
0.0
 11
26.5725
 21
8.174656
 31
0.0
  0
LINE
  5
286
330
422
100
AcDbEntity
  8
NOTES
  6
Continuous
 62
     7
370
    30
100
AcDbLine
 10
25.8725
 20
8.179656
 30
0.0
 11
26.5725
 21
8.179656
 31
0.0
  0
LINE
  5
287
330
422
100
AcDbEntity
  8
NOTES
  6
Continuous
 62
     7
370
    30
100
AcDbLine
 10
25.8725
 20
8.184656
 30
0.0
 11
26.5725
 21
8.184656
 31
0.0
  0
LINE
  5
288
330
422
100
AcDbEntity
  8
NOTES
  6
Continuous
 62
     7
370
    30
100
AcDbLine
 10
25.8725
 20
8.189656
 30
0.0
 11
26.5725
 21
8.189656
 31
0.0
  0
LINE
  5
289
330
422
100
AcDbEntity
  8
NOTES
  6
Continuous
 62
     7
370
    30
100
AcDbLine
 10
25.8725
 20
8.194656
 30
0.0
 11
26.5725
 21
8.194656
 31
0.0
  0
LINE
  5
28A
330
422
100
AcDbEntity
  8
NOTES
  6
Continuous
 62
     7
370
    30
100
AcDbLine
 10
25.8725
 20
8.199656
 30
0.0
 11
26.5725
 21
8.199656
 31
0.0
  0
LINE
  5
28B
330
422
100
AcDbEntity
  8
NOTES
  6
Continuous
 62
     7
370
    30
100
AcDbLine
 10
25.8725
 20
8.204656
 30
0.0
 11
26.5725
 21
8.204656
 31
0.0
  0
LINE
  5
28C
330
422
100
AcDbEntity
  8
NOTES
  6
Continuous
 62
     7
370
    30
100
AcDbLine
 10
25.8725
 20
8.209656
 30
0.0
 11
26.5725
 21
8.209656
 31
0.0
  0
LINE
  5
28D
330
422
100
AcDbEntity
  8
NOTES
  6
Continuous
 62
     7
370
    30
100
AcDbLine
 10
25.8725
 20
8.214656
 30
0.0
 11
26.5725
 21
8.214656
 31
0.0
  0
LINE
  5
28E
330
422
100
AcDbEntity
  8
NOTES
  6
Continuous
 62
     7
370
    30
100
AcDbLine
 10
25.8725
 20
8.219656
 30
0.0
 11
26.5725
 21
8.219656
 31
0.0
  0
LINE
  5
28F
330
422
100
AcDbEntity
  8
NOTES
  6
Continuous
 62
     7
370
    30
100
AcDbLine
 10
25.8725
 20
8.224656
 30
0.0
 11
26.5725
 21
8.224656
 31
0.0
  0
LINE
  5
290
330
422
100
AcDbEntity
  8
NOTES
  6
Continuous
 62
     7
370
    30
100
AcDbLine
 10
25.8725
 20
8.229656
 30
0.0
 11
26.5725
 21
8.229656
 31
0.0
  0
LINE
  5
291
330
422
100
AcDbEntity
  8
NOTES
  6
Continuous
 62
     7
370
    30
100
AcDbLine
 10
25.8725
 20
8.234656
 30
0.0
 11
26.5725
 21
8.234656
 31
0.0
  0
LINE
  5
292
330
422
100
AcDbEntity
  8
NOTES
  6
Continuous
 62
     7
370
    30
100
AcDbLine
 10
25.8725
 20
8.239656
 30
0.0
 11
26.5725
 21
8.239656
 31
0.0
  0
LINE
  5
293
330
422
100
AcDbEntity
  8
NOTES
  6
Continuous
 62
     7
370
    30
100
AcDbLine
 10
25.8725
 20
8.244656
 30
0.0
 11
26.5725
 21
8.244656
 31
0.0
  0
LINE
  5
294
330
422
100
AcDbEntity
  8
NOTES
  6
Continuous
 62
     7
370
    30
100
AcDbLine
 10
25.8725
 20
8.284656
 30
0.0
 11
25.936417
 21
8.284656
 31
0.0
  0
LINE
  5
295
330
422
100
AcDbEntity
  8
NOTES
  6
Continuous
 62
     7
370
    30
100
AcDbLine
 10
25.8725
 20
8.289656
 30
0.0
 11
25.919052
 21
8.289656
 31
0.0
  0
LINE
  5
296
330
422
100
AcDbEntity
  8
NOTES
  6
Continuous
 62
     7
370
    30
100
AcDbLine
 10
25.8725
 20
8.294656
 30
0.0
 11
25.902698
 21
8.294656
 31
0.0
  0
LINE
  5
297
330
422
100
AcDbEntity
  8
NOTES
  6
Continuous
 62
     7
370
    30
100
AcDbLine
 10
25.8725
 20
8.299656
 30
0.0
 11
25.887219
 21
8.299656
 31
0.0
  0
LINE
  5
298
330
422
100
AcDbEntity
  8
NOTES
  6
Continuous
 62
     7
370
    30
100
AcDbLine
 10
25.8725
 20
8.259656
 30
0.0
 11
26.049583
 21
8.259656
 31
0.0
  0
LINE
  5
299
330
422
100
AcDbEntity
  8
NOTES
  6
Continuous
 62
     7
370
    30
100
AcDbLine
 10
26.395417
 20
8.259656
 30
0.0
 11
26.5725
 21
8.259656
 31
0.0
  0
LINE
  5
29A
330
422
100
AcDbEntity
  8
NOTES
  6
Continuous
 62
     7
370
    30
100
AcDbLine
 10
25.8725
 20
8.264656
 30
0.0
 11
26.021531
 21
8.264656
 31
0.0
  0
LINE
  5
29B
330
422
100
AcDbEntity
  8
NOTES
  6
Continuous
 62
     7
370
    30
100
AcDbLine
 10
26.423469
 20
8.264656
 30
0.0
 11
26.5725
 21
8.264656
 31
0.0
  0
LINE
  5
29C
330
422
100
AcDbEntity
  8
NOTES
  6
Continuous
 62
     7
370
    30
100
AcDbLine
 10
25.8725
 20
8.269656
 30
0.0
 11
25.997052
 21
8.269656
 31
0.0
  0
LINE
  5
29D
330
422
100
AcDbEntity
  8
NOTES
  6
Continuous
 62
     7
370
    30
100
AcDbLine
 10
26.447948
 20
8.269656
 30
0.0
 11
26.5725
 21
8.269656
 31
0.0
  0
LINE
  5
29E
330
422
100
AcDbEntity
  8
NOTES
  6
Continuous
 62
     7
370
    30
100
AcDbLine
 10
25.8725
 20
8.274656
 30
0.0
 11
25.975083
 21
8.274656
 31
0.0
  0
LINE
  5
29F
330
422
100
AcDbEntity
  8
NOTES
  6
Continuous
 62
     7
370
    30
100
AcDbLine
 10
26.469917
 20
8.274656
 30
0.0
 11
26.5725
 21
8.274656
 31
0.0
  0
LINE
  5
2A0
330
422
100
AcDbEntity
  8
NOTES
  6
Continuous
 62
     7
370
    30
100
AcDbLine
 10
25.8725
 20
8.279656
 30
0.0
 11
25.955
 21
8.279656
 31
0.0
  0
LINE
  5
2A1
330
422
100
AcDbEntity
  8
NOTES
  6
Continuous
 62
     7
370
    30
100
AcDbLine
 10
26.49
 20
8.279656
 30
0.0
 11
26.5725
 21
8.279656
 31
0.0
  0
LINE
  5
2A2
330
422
100
AcDbEntity
  8
NOTES
  6
Continuous
 62
     7
370
    30
100
AcDbLine
 10
26.508583
 20
8.284656
 30
0.0
 11
26.5725
 21
8.284656
 31
0.0
  0
LINE
  5
2A3
330
422
100
AcDbEntity
  8
NOTES
  6
Continuous
 62
     7
370
    30
100
AcDbLine
 10
26.525948
 20
8.289656
 30
0.0
 11
26.5725
 21
8.289656
 31
0.0
  0
LINE
  5
2A4
330
422
100
AcDbEntity
  8
NOTES
  6
Continuous
 62
     7
370
    30
100
AcDbLine
 10
26.542302
 20
8.294656
 30
0.0
 11
26.5725
 21
8.294656
 31
0.0
  0
LINE
  5
2A5
330
422
100
AcDbEntity
  8
NOTES
  6
Continuous
 62
     7
370
    30
100
AcDbLine
 10
26.557781
 20
8.299656
 30
0.0
 11
26.5725
 21
8.299656
 31
0.0
  0
LINE
  5
2A6
330
422
100
AcDbEntity
  8
NOTES
  6
Continuous
 62
     7
370
    30
100
AcDbLine
 10
25.8725
 20
8.254656
 30
0.0
 11
26.083354
 21
8.254656
 31
0.0
  0
LINE
  5
2A7
330
422
100
AcDbEntity
  8
NOTES
  6
Continuous
 62
     7
370
    30
100
AcDbLine
 10
26.361646
 20
8.254656
 30
0.0
 11
26.5725
 21
8.254656
 31
0.0
  0
LINE
  5
2A8
330
422
100
AcDbEntity
  8
NOTES
  6
Continuous
 62
     7
370
    30
100
AcDbLine
 10
25.8725
 20
8.249656
 30
0.0
 11
26.128833
 21
8.249656
 31
0.0
  0
LINE
  5
2A9
330
422
100
AcDbEntity
  8
NOTES
  6
Continuous
 62
     7
370
    30
100
AcDbLine
 10
26.316167
 20
8.249656
 30
0.0
 11
26.5725
 21
8.249656
 31
0.0
  0
ARC
  5
2AA
330
422
100
AcDbEntity
  8
NOTES
  6
Continuous
 62
     7
370
    30
100
AcDbCircle
 10
28.6225
 20
9.311035
 30
0.0
 40
1.065503303382679
100
AcDbArc
 50
250.823258
 51
289.176742
  0
LINE
  5
2AB
330
422
100
AcDbEntity
  8
NOTES
  6
Continuous
 62
     7
370
    30
100
AcDbLine
 10
28.2725
 20
7.644656
 30
0.0
 11
28.9725
 21
7.644656
 31
0.0
  0
LINE
  5
2AC
330
422
100
AcDbEntity
  8
NOTES
  6
Continuous
 62
     7
370
    30
100
AcDbLine
 10
28.2725
 20
7.649656
 30
0.0
 11
28.9725
 21
7.649656
 31
0.0
  0
LINE
  5
2AD
330
422
100
AcDbEntity
  8
NOTES
  6
Continuous
 62
     7
370
    30
100
AcDbLine
 10
28.2725
 20
7.654656
 30
0.0
 11
28.9725
 21
7.654656
 31
0.0
  0
LINE
  5
2AE
330
422
100
AcDbEntity
  8
NOTES
  6
Continuous
 62
     7
370
    30
100
AcDbLine
 10
28.2725
 20
7.659656
 30
0.0
 11
28.9725
 21
7.659656
 31
0.0
  0
LINE
  5
2AF
330
422
100
AcDbEntity
  8
NOTES
  6
Continuous
 62
     7
370
    30
100
AcDbLine
 10
28.2725
 20
7.664656
 30
0.0
 11
28.9725
 21
7.664656
 31
0.0
  0
LINE
  5
2B0
330
422
100
AcDbEntity
  8
NOTES
  6
Continuous
 62
     7
370
    30
100
AcDbLine
 10
28.2725
 20
7.669656
 30
0.0
 11
28.9725
 21
7.669656
 31
0.0
  0
LINE
  5
2B1
330
422
100
AcDbEntity
  8
NOTES
  6
Continuous
 62
     7
370
    30
100
AcDbLine
 10
28.2725
 20
7.674656
 30
0.0
 11
28.9725
 21
7.674656
 31
0.0
  0
LINE
  5
2B2
330
422
100
AcDbEntity
  8
NOTES
  6
Continuous
 62
     7
370
    30
100
AcDbLine
 10
28.2725
 20
7.679656
 30
0.0
 11
28.9725
 21
7.679656
 31
0.0
  0
LINE
  5
2B3
330
422
100
AcDbEntity
  8
NOTES
  6
Continuous
 62
     7
370
    30
100
AcDbLine
 10
28.2725
 20
7.684656
 30
0.0
 11
28.9725
 21
7.684656
 31
0.0
  0
LINE
  5
2B4
330
422
100
AcDbEntity
  8
NOTES
  6
Continuous
 62
     7
370
    30
100
AcDbLine
 10
28.2725
 20
7.689656
 30
0.0
 11
28.9725
 21
7.689656
 31
0.0
  0
LINE
  5
2B5
330
422
100
AcDbEntity
  8
NOTES
  6
Continuous
 62
     7
370
    30
100
AcDbLine
 10
28.2725
 20
7.694656
 30
0.0
 11
28.9725
 21
7.694656
 31
0.0
  0
LINE
  5
2B6
330
422
100
AcDbEntity
  8
NOTES
  6
Continuous
 62
     7
370
    30
100
AcDbLine
 10
28.2725
 20
7.699656
 30
0.0
 11
28.9725
 21
7.699656
 31
0.0
  0
LINE
  5
2B7
330
422
100
AcDbEntity
  8
NOTES
  6
Continuous
 62
     7
370
    30
100
AcDbLine
 10
28.2725
 20
7.704656
 30
0.0
 11
28.9725
 21
7.704656
 31
0.0
  0
LINE
  5
2B8
330
422
100
AcDbEntity
  8
NOTES
  6
Continuous
 62
     7
370
    30
100
AcDbLine
 10
28.2725
 20
7.709656
 30
0.0
 11
28.9725
 21
7.709656
 31
0.0
  0
LINE
  5
2B9
330
422
100
AcDbEntity
  8
NOTES
  6
Continuous
 62
     7
370
    30
100
AcDbLine
 10
28.2725
 20
7.714656
 30
0.0
 11
28.9725
 21
7.714656
 31
0.0
  0
LINE
  5
2BA
330
422
100
AcDbEntity
  8
NOTES
  6
Continuous
 62
     7
370
    30
100
AcDbLine
 10
28.2725
 20
7.719656
 30
0.0
 11
28.9725
 21
7.719656
 31
0.0
  0
LINE
  5
2BB
330
422
100
AcDbEntity
  8
NOTES
  6
Continuous
 62
     7
370
    30
100
AcDbLine
 10
28.2725
 20
7.724656
 30
0.0
 11
28.9725
 21
7.724656
 31
0.0
  0
LINE
  5
2BC
330
422
100
AcDbEntity
  8
NOTES
  6
Continuous
 62
     7
370
    30
100
AcDbLine
 10
28.2725
 20
7.729656
 30
0.0
 11
28.9725
 21
7.729656
 31
0.0
  0
LINE
  5
2BD
330
422
100
AcDbEntity
  8
NOTES
  6
Continuous
 62
     7
370
    30
100
AcDbLine
 10
28.2725
 20
7.734656
 30
0.0
 11
28.9725
 21
7.734656
 31
0.0
  0
LINE
  5
2BE
330
422
100
AcDbEntity
  8
NOTES
  6
Continuous
 62
     7
370
    30
100
AcDbLine
 10
28.2725
 20
7.739656
 30
0.0
 11
28.9725
 21
7.739656
 31
0.0
  0
LINE
  5
2BF
330
422
100
AcDbEntity
  8
NOTES
  6
Continuous
 62
     7
370
    30
100
AcDbLine
 10
28.2725
 20
7.744656
 30
0.0
 11
28.9725
 21
7.744656
 31
0.0
  0
LINE
  5
2C0
330
422
100
AcDbEntity
  8
NOTES
  6
Continuous
 62
     7
370
    30
100
AcDbLine
 10
28.2725
 20
7.749656
 30
0.0
 11
28.9725
 21
7.749656
 31
0.0
  0
LINE
  5
2C1
330
422
100
AcDbEntity
  8
NOTES
  6
Continuous
 62
     7
370
    30
100
AcDbLine
 10
28.2725
 20
7.754656
 30
0.0
 11
28.9725
 21
7.754656
 31
0.0
  0
LINE
  5
2C2
330
422
100
AcDbEntity
  8
NOTES
  6
Continuous
 62
     7
370
    30
100
AcDbLine
 10
28.2725
 20
7.759656
 30
0.0
 11
28.9725
 21
7.759656
 31
0.0
  0
LINE
  5
2C3
330
422
100
AcDbEntity
  8
NOTES
  6
Continuous
 62
     7
370
    30
100
AcDbLine
 10
28.2725
 20
7.764656
 30
0.0
 11
28.9725
 21
7.764656
 31
0.0
  0
LINE
  5
2C4
330
422
100
AcDbEntity
  8
NOTES
  6
Continuous
 62
     7
370
    30
100
AcDbLine
 10
28.2725
 20
7.769656
 30
0.0
 11
28.9725
 21
7.769656
 31
0.0
  0
LINE
  5
2C5
330
422
100
AcDbEntity
  8
NOTES
  6
Continuous
 62
     7
370
    30
100
AcDbLine
 10
28.2725
 20
7.774656
 30
0.0
 11
28.9725
 21
7.774656
 31
0.0
  0
LINE
  5
2C6
330
422
100
AcDbEntity
  8
NOTES
  6
Continuous
 62
     7
370
    30
100
AcDbLine
 10
28.2725
 20
7.779656
 30
0.0
 11
28.9725
 21
7.779656
 31
0.0
  0
LINE
  5
2C7
330
422
100
AcDbEntity
  8
NOTES
  6
Continuous
 62
     7
370
    30
100
AcDbLine
 10
28.2725
 20
7.784656
 30
0.0
 11
28.9725
 21
7.784656
 31
0.0
  0
LINE
  5
2C8
330
422
100
AcDbEntity
  8
NOTES
  6
Continuous
 62
     7
370
    30
100
AcDbLine
 10
28.2725
 20
7.789656
 30
0.0
 11
28.9725
 21
7.789656
 31
0.0
  0
LINE
  5
2C9
330
422
100
AcDbEntity
  8
NOTES
  6
Continuous
 62
     7
370
    30
100
AcDbLine
 10
28.2725
 20
7.794656
 30
0.0
 11
28.9725
 21
7.794656
 31
0.0
  0
LINE
  5
2CA
330
422
100
AcDbEntity
  8
NOTES
  6
Continuous
 62
     7
370
    30
100
AcDbLine
 10
28.2725
 20
7.799656
 30
0.0
 11
28.9725
 21
7.799656
 31
0.0
  0
LINE
  5
2CB
330
422
100
AcDbEntity
  8
NOTES
  6
Continuous
 62
     7
370
    30
100
AcDbLine
 10
28.2725
 20
7.804656
 30
0.0
 11
28.9725
 21
7.804656
 31
0.0
  0
LINE
  5
2CC
330
422
100
AcDbEntity
  8
NOTES
  6
Continuous
 62
     7
370
    30
100
AcDbLine
 10
28.2725
 20
7.809656
 30
0.0
 11
28.9725
 21
7.809656
 31
0.0
  0
LINE
  5
2CD
330
422
100
AcDbEntity
  8
NOTES
  6
Continuous
 62
     7
370
    30
100
AcDbLine
 10
28.2725
 20
7.814656
 30
0.0
 11
28.9725
 21
7.814656
 31
0.0
  0
LINE
  5
2CE
330
422
100
AcDbEntity
  8
NOTES
  6
Continuous
 62
     7
370
    30
100
AcDbLine
 10
28.2725
 20
7.819656
 30
0.0
 11
28.9725
 21
7.819656
 31
0.0
  0
LINE
  5
2CF
330
422
100
AcDbEntity
  8
NOTES
  6
Continuous
 62
     7
370
    30
100
AcDbLine
 10
28.2725
 20
7.824656
 30
0.0
 11
28.9725
 21
7.824656
 31
0.0
  0
LINE
  5
2D0
330
422
100
AcDbEntity
  8
NOTES
  6
Continuous
 62
     7
370
    30
100
AcDbLine
 10
28.2725
 20
7.829656
 30
0.0
 11
28.9725
 21
7.829656
 31
0.0
  0
LINE
  5
2D1
330
422
100
AcDbEntity
  8
NOTES
  6
Continuous
 62
     7
370
    30
100
AcDbLine
 10
28.2725
 20
7.834656
 30
0.0
 11
28.9725
 21
7.834656
 31
0.0
  0
LINE
  5
2D2
330
422
100
AcDbEntity
  8
NOTES
  6
Continuous
 62
     7
370
    30
100
AcDbLine
 10
28.2725
 20
7.839656
 30
0.0
 11
28.9725
 21
7.839656
 31
0.0
  0
LINE
  5
2D3
330
422
100
AcDbEntity
  8
NOTES
  6
Continuous
 62
     7
370
    30
100
AcDbLine
 10
28.2725
 20
7.844656
 30
0.0
 11
28.9725
 21
7.844656
 31
0.0
  0
LINE
  5
2D4
330
422
100
AcDbEntity
  8
NOTES
  6
Continuous
 62
     7
370
    30
100
AcDbLine
 10
28.2725
 20
7.849656
 30
0.0
 11
28.9725
 21
7.849656
 31
0.0
  0
LINE
  5
2D5
330
422
100
AcDbEntity
  8
NOTES
  6
Continuous
 62
     7
370
    30
100
AcDbLine
 10
28.2725
 20
7.854656
 30
0.0
 11
28.9725
 21
7.854656
 31
0.0
  0
LINE
  5
2D6
330
422
100
AcDbEntity
  8
NOTES
  6
Continuous
 62
     7
370
    30
100
AcDbLine
 10
28.2725
 20
7.859656
 30
0.0
 11
28.9725
 21
7.859656
 31
0.0
  0
LINE
  5
2D7
330
422
100
AcDbEntity
  8
NOTES
  6
Continuous
 62
     7
370
    30
100
AcDbLine
 10
28.2725
 20
7.864656
 30
0.0
 11
28.9725
 21
7.864656
 31
0.0
  0
LINE
  5
2D8
330
422
100
AcDbEntity
  8
NOTES
  6
Continuous
 62
     7
370
    30
100
AcDbLine
 10
28.2725
 20
7.869656
 30
0.0
 11
28.9725
 21
7.869656
 31
0.0
  0
LINE
  5
2D9
330
422
100
AcDbEntity
  8
NOTES
  6
Continuous
 62
     7
370
    30
100
AcDbLine
 10
28.2725
 20
7.874656
 30
0.0
 11
28.9725
 21
7.874656
 31
0.0
  0
LINE
  5
2DA
330
422
100
AcDbEntity
  8
NOTES
  6
Continuous
 62
     7
370
    30
100
AcDbLine
 10
28.2725
 20
7.879656
 30
0.0
 11
28.9725
 21
7.879656
 31
0.0
  0
LINE
  5
2DB
330
422
100
AcDbEntity
  8
NOTES
  6
Continuous
 62
     7
370
    30
100
AcDbLine
 10
28.2725
 20
7.884656
 30
0.0
 11
28.9725
 21
7.884656
 31
0.0
  0
LINE
  5
2DC
330
422
100
AcDbEntity
  8
NOTES
  6
Continuous
 62
     7
370
    30
100
AcDbLine
 10
28.2725
 20
7.889656
 30
0.0
 11
28.9725
 21
7.889656
 31
0.0
  0
LINE
  5
2DD
330
422
100
AcDbEntity
  8
NOTES
  6
Continuous
 62
     7
370
    30
100
AcDbLine
 10
28.2725
 20
7.894656
 30
0.0
 11
28.9725
 21
7.894656
 31
0.0
  0
LINE
  5
2DE
330
422
100
AcDbEntity
  8
NOTES
  6
Continuous
 62
     7
370
    30
100
AcDbLine
 10
28.2725
 20
7.899656
 30
0.0
 11
28.9725
 21
7.899656
 31
0.0
  0
LINE
  5
2DF
330
422
100
AcDbEntity
  8
NOTES
  6
Continuous
 62
     7
370
    30
100
AcDbLine
 10
28.2725
 20
7.904656
 30
0.0
 11
28.9725
 21
7.904656
 31
0.0
  0
LINE
  5
2E0
330
422
100
AcDbEntity
  8
NOTES
  6
Continuous
 62
     7
370
    30
100
AcDbLine
 10
28.2725
 20
7.909656
 30
0.0
 11
28.9725
 21
7.909656
 31
0.0
  0
LINE
  5
2E1
330
422
100
AcDbEntity
  8
NOTES
  6
Continuous
 62
     7
370
    30
100
AcDbLine
 10
28.2725
 20
7.914656
 30
0.0
 11
28.9725
 21
7.914656
 31
0.0
  0
LINE
  5
2E2
330
422
100
AcDbEntity
  8
NOTES
  6
Continuous
 62
     7
370
    30
100
AcDbLine
 10
28.2725
 20
7.919656
 30
0.0
 11
28.9725
 21
7.919656
 31
0.0
  0
LINE
  5
2E3
330
422
100
AcDbEntity
  8
NOTES
  6
Continuous
 62
     7
370
    30
100
AcDbLine
 10
28.2725
 20
7.924656
 30
0.0
 11
28.9725
 21
7.924656
 31
0.0
  0
LINE
  5
2E4
330
422
100
AcDbEntity
  8
NOTES
  6
Continuous
 62
     7
370
    30
100
AcDbLine
 10
28.2725
 20
7.929656
 30
0.0
 11
28.9725
 21
7.929656
 31
0.0
  0
LINE
  5
2E5
330
422
100
AcDbEntity
  8
NOTES
  6
Continuous
 62
     7
370
    30
100
AcDbLine
 10
28.2725
 20
7.934656
 30
0.0
 11
28.9725
 21
7.934656
 31
0.0
  0
LINE
  5
2E6
330
422
100
AcDbEntity
  8
NOTES
  6
Continuous
 62
     7
370
    30
100
AcDbLine
 10
28.2725
 20
7.939656
 30
0.0
 11
28.9725
 21
7.939656
 31
0.0
  0
LINE
  5
2E7
330
422
100
AcDbEntity
  8
NOTES
  6
Continuous
 62
     7
370
    30
100
AcDbLine
 10
28.2725
 20
7.944656
 30
0.0
 11
28.9725
 21
7.944656
 31
0.0
  0
LINE
  5
2E8
330
422
100
AcDbEntity
  8
NOTES
  6
Continuous
 62
     7
370
    30
100
AcDbLine
 10
28.2725
 20
7.949656
 30
0.0
 11
28.9725
 21
7.949656
 31
0.0
  0
LINE
  5
2E9
330
422
100
AcDbEntity
  8
NOTES
  6
Continuous
 62
     7
370
    30
100
AcDbLine
 10
28.2725
 20
7.954656
 30
0.0
 11
28.9725
 21
7.954656
 31
0.0
  0
LINE
  5
2EA
330
422
100
AcDbEntity
  8
NOTES
  6
Continuous
 62
     7
370
    30
100
AcDbLine
 10
28.2725
 20
7.959656
 30
0.0
 11
28.9725
 21
7.959656
 31
0.0
  0
LINE
  5
2EB
330
422
100
AcDbEntity
  8
NOTES
  6
Continuous
 62
     7
370
    30
100
AcDbLine
 10
28.2725
 20
7.964656
 30
0.0
 11
28.9725
 21
7.964656
 31
0.0
  0
LINE
  5
2EC
330
422
100
AcDbEntity
  8
NOTES
  6
Continuous
 62
     7
370
    30
100
AcDbLine
 10
28.2725
 20
7.969656
 30
0.0
 11
28.9725
 21
7.969656
 31
0.0
  0
LINE
  5
2ED
330
422
100
AcDbEntity
  8
NOTES
  6
Continuous
 62
     7
370
    30
100
AcDbLine
 10
28.2725
 20
7.974656
 30
0.0
 11
28.9725
 21
7.974656
 31
0.0
  0
LINE
  5
2EE
330
422
100
AcDbEntity
  8
NOTES
  6
Continuous
 62
     7
370
    30
100
AcDbLine
 10
28.2725
 20
7.979656
 30
0.0
 11
28.9725
 21
7.979656
 31
0.0
  0
LINE
  5
2EF
330
422
100
AcDbEntity
  8
NOTES
  6
Continuous
 62
     7
370
    30
100
AcDbLine
 10
28.2725
 20
7.984656
 30
0.0
 11
28.9725
 21
7.984656
 31
0.0
  0
LINE
  5
2F0
330
422
100
AcDbEntity
  8
NOTES
  6
Continuous
 62
     7
370
    30
100
AcDbLine
 10
28.2725
 20
7.989656
 30
0.0
 11
28.9725
 21
7.989656
 31
0.0
  0
LINE
  5
2F1
330
422
100
AcDbEntity
  8
NOTES
  6
Continuous
 62
     7
370
    30
100
AcDbLine
 10
28.2725
 20
7.994656
 30
0.0
 11
28.9725
 21
7.994656
 31
0.0
  0
LINE
  5
2F2
330
422
100
AcDbEntity
  8
NOTES
  6
Continuous
 62
     7
370
    30
100
AcDbLine
 10
28.2725
 20
7.999656
 30
0.0
 11
28.9725
 21
7.999656
 31
0.0
  0
LINE
  5
2F3
330
422
100
AcDbEntity
  8
NOTES
  6
Continuous
 62
     7
370
    30
100
AcDbLine
 10
28.2725
 20
8.004656
 30
0.0
 11
28.9725
 21
8.004656
 31
0.0
  0
LINE
  5
2F4
330
422
100
AcDbEntity
  8
NOTES
  6
Continuous
 62
     7
370
    30
100
AcDbLine
 10
28.2725
 20
8.009656
 30
0.0
 11
28.9725
 21
8.009656
 31
0.0
  0
LINE
  5
2F5
330
422
100
AcDbEntity
  8
NOTES
  6
Continuous
 62
     7
370
    30
100
AcDbLine
 10
28.2725
 20
8.014656
 30
0.0
 11
28.9725
 21
8.014656
 31
0.0
  0
LINE
  5
2F6
330
422
100
AcDbEntity
  8
NOTES
  6
Continuous
 62
     7
370
    30
100
AcDbLine
 10
28.2725
 20
8.019656
 30
0.0
 11
28.9725
 21
8.019656
 31
0.0
  0
LINE
  5
2F7
330
422
100
AcDbEntity
  8
NOTES
  6
Continuous
 62
     7
370
    30
100
AcDbLine
 10
28.2725
 20
8.024656
 30
0.0
 11
28.9725
 21
8.024656
 31
0.0
  0
LINE
  5
2F8
330
422
100
AcDbEntity
  8
NOTES
  6
Continuous
 62
     7
370
    30
100
AcDbLine
 10
28.2725
 20
8.029656
 30
0.0
 11
28.9725
 21
8.029656
 31
0.0
  0
LINE
  5
2F9
330
422
100
AcDbEntity
  8
NOTES
  6
Continuous
 62
     7
370
    30
100
AcDbLine
 10
28.2725
 20
8.034656
 30
0.0
 11
28.9725
 21
8.034656
 31
0.0
  0
LINE
  5
2FA
330
422
100
AcDbEntity
  8
NOTES
  6
Continuous
 62
     7
370
    30
100
AcDbLine
 10
28.2725
 20
8.039656
 30
0.0
 11
28.9725
 21
8.039656
 31
0.0
  0
LINE
  5
2FB
330
422
100
AcDbEntity
  8
NOTES
  6
Continuous
 62
     7
370
    30
100
AcDbLine
 10
28.2725
 20
8.044656
 30
0.0
 11
28.9725
 21
8.044656
 31
0.0
  0
LINE
  5
2FC
330
422
100
AcDbEntity
  8
NOTES
  6
Continuous
 62
     7
370
    30
100
AcDbLine
 10
28.2725
 20
8.049656
 30
0.0
 11
28.9725
 21
8.049656
 31
0.0
  0
LINE
  5
2FD
330
422
100
AcDbEntity
  8
NOTES
  6
Continuous
 62
     7
370
    30
100
AcDbLine
 10
28.2725
 20
8.054656
 30
0.0
 11
28.9725
 21
8.054656
 31
0.0
  0
LINE
  5
2FE
330
422
100
AcDbEntity
  8
NOTES
  6
Continuous
 62
     7
370
    30
100
AcDbLine
 10
28.2725
 20
8.059656
 30
0.0
 11
28.9725
 21
8.059656
 31
0.0
  0
LINE
  5
2FF
330
422
100
AcDbEntity
  8
NOTES
  6
Continuous
 62
     7
370
    30
100
AcDbLine
 10
28.2725
 20
8.064656
 30
0.0
 11
28.9725
 21
8.064656
 31
0.0
  0
LINE
  5
300
330
422
100
AcDbEntity
  8
NOTES
  6
Continuous
 62
     7
370
    30
100
AcDbLine
 10
28.2725
 20
8.069656
 30
0.0
 11
28.9725
 21
8.069656
 31
0.0
  0
LINE
  5
301
330
422
100
AcDbEntity
  8
NOTES
  6
Continuous
 62
     7
370
    30
100
AcDbLine
 10
28.2725
 20
8.074656
 30
0.0
 11
28.9725
 21
8.074656
 31
0.0
  0
LINE
  5
302
330
422
100
AcDbEntity
  8
NOTES
  6
Continuous
 62
     7
370
    30
100
AcDbLine
 10
28.2725
 20
8.079656
 30
0.0
 11
28.9725
 21
8.079656
 31
0.0
  0
LINE
  5
303
330
422
100
AcDbEntity
  8
NOTES
  6
Continuous
 62
     7
370
    30
100
AcDbLine
 10
28.2725
 20
8.084656
 30
0.0
 11
28.9725
 21
8.084656
 31
0.0
  0
LINE
  5
304
330
422
100
AcDbEntity
  8
NOTES
  6
Continuous
 62
     7
370
    30
100
AcDbLine
 10
28.2725
 20
8.089656
 30
0.0
 11
28.9725
 21
8.089656
 31
0.0
  0
LINE
  5
305
330
422
100
AcDbEntity
  8
NOTES
  6
Continuous
 62
     7
370
    30
100
AcDbLine
 10
28.2725
 20
8.094656
 30
0.0
 11
28.9725
 21
8.094656
 31
0.0
  0
LINE
  5
306
330
422
100
AcDbEntity
  8
NOTES
  6
Continuous
 62
     7
370
    30
100
AcDbLine
 10
28.2725
 20
8.099656
 30
0.0
 11
28.9725
 21
8.099656
 31
0.0
  0
LINE
  5
307
330
422
100
AcDbEntity
  8
NOTES
  6
Continuous
 62
     7
370
    30
100
AcDbLine
 10
28.2725
 20
8.104656
 30
0.0
 11
28.9725
 21
8.104656
 31
0.0
  0
LINE
  5
308
330
422
100
AcDbEntity
  8
NOTES
  6
Continuous
 62
     7
370
    30
100
AcDbLine
 10
28.2725
 20
8.109656
 30
0.0
 11
28.9725
 21
8.109656
 31
0.0
  0
LINE
  5
309
330
422
100
AcDbEntity
  8
NOTES
  6
Continuous
 62
     7
370
    30
100
AcDbLine
 10
28.2725
 20
8.114656
 30
0.0
 11
28.9725
 21
8.114656
 31
0.0
  0
LINE
  5
30A
330
422
100
AcDbEntity
  8
NOTES
  6
Continuous
 62
     7
370
    30
100
AcDbLine
 10
28.2725
 20
8.119656
 30
0.0
 11
28.9725
 21
8.119656
 31
0.0
  0
LINE
  5
30B
330
422
100
AcDbEntity
  8
NOTES
  6
Continuous
 62
     7
370
    30
100
AcDbLine
 10
28.2725
 20
8.124656
 30
0.0
 11
28.9725
 21
8.124656
 31
0.0
  0
LINE
  5
30C
330
422
100
AcDbEntity
  8
NOTES
  6
Continuous
 62
     7
370
    30
100
AcDbLine
 10
28.2725
 20
8.129656
 30
0.0
 11
28.9725
 21
8.129656
 31
0.0
  0
LINE
  5
30D
330
422
100
AcDbEntity
  8
NOTES
  6
Continuous
 62
     7
370
    30
100
AcDbLine
 10
28.2725
 20
8.134656
 30
0.0
 11
28.9725
 21
8.134656
 31
0.0
  0
LINE
  5
30E
330
422
100
AcDbEntity
  8
NOTES
  6
Continuous
 62
     7
370
    30
100
AcDbLine
 10
28.2725
 20
8.139656
 30
0.0
 11
28.9725
 21
8.139656
 31
0.0
  0
LINE
  5
30F
330
422
100
AcDbEntity
  8
NOTES
  6
Continuous
 62
     7
370
    30
100
AcDbLine
 10
28.2725
 20
8.144656
 30
0.0
 11
28.9725
 21
8.144656
 31
0.0
  0
LINE
  5
310
330
422
100
AcDbEntity
  8
NOTES
  6
Continuous
 62
     7
370
    30
100
AcDbLine
 10
28.2725
 20
8.149656
 30
0.0
 11
28.9725
 21
8.149656
 31
0.0
  0
LINE
  5
311
330
422
100
AcDbEntity
  8
NOTES
  6
Continuous
 62
     7
370
    30
100
AcDbLine
 10
28.2725
 20
8.154656
 30
0.0
 11
28.9725
 21
8.154656
 31
0.0
  0
LINE
  5
312
330
422
100
AcDbEntity
  8
NOTES
  6
Continuous
 62
     7
370
    30
100
AcDbLine
 10
28.2725
 20
8.159656
 30
0.0
 11
28.9725
 21
8.159656
 31
0.0
  0
LINE
  5
313
330
422
100
AcDbEntity
  8
NOTES
  6
Continuous
 62
     7
370
    30
100
AcDbLine
 10
28.2725
 20
8.164656
 30
0.0
 11
28.9725
 21
8.164656
 31
0.0
  0
LINE
  5
314
330
422
100
AcDbEntity
  8
NOTES
  6
Continuous
 62
     7
370
    30
100
AcDbLine
 10
28.2725
 20
8.169656
 30
0.0
 11
28.9725
 21
8.169656
 31
0.0
  0
LINE
  5
315
330
422
100
AcDbEntity
  8
NOTES
  6
Continuous
 62
     7
370
    30
100
AcDbLine
 10
28.2725
 20
8.174656
 30
0.0
 11
28.9725
 21
8.174656
 31
0.0
  0
LINE
  5
316
330
422
100
AcDbEntity
  8
NOTES
  6
Continuous
 62
     7
370
    30
100
AcDbLine
 10
28.2725
 20
8.179656
 30
0.0
 11
28.9725
 21
8.179656
 31
0.0
  0
LINE
  5
317
330
422
100
AcDbEntity
  8
NOTES
  6
Continuous
 62
     7
370
    30
100
AcDbLine
 10
28.2725
 20
8.184656
 30
0.0
 11
28.9725
 21
8.184656
 31
0.0
  0
LINE
  5
318
330
422
100
AcDbEntity
  8
NOTES
  6
Continuous
 62
     7
370
    30
100
AcDbLine
 10
28.2725
 20
8.189656
 30
0.0
 11
28.9725
 21
8.189656
 31
0.0
  0
LINE
  5
319
330
422
100
AcDbEntity
  8
NOTES
  6
Continuous
 62
     7
370
    30
100
AcDbLine
 10
28.2725
 20
8.194656
 30
0.0
 11
28.9725
 21
8.194656
 31
0.0
  0
LINE
  5
31A
330
422
100
AcDbEntity
  8
NOTES
  6
Continuous
 62
     7
370
    30
100
AcDbLine
 10
28.2725
 20
8.199656
 30
0.0
 11
28.9725
 21
8.199656
 31
0.0
  0
LINE
  5
31B
330
422
100
AcDbEntity
  8
NOTES
  6
Continuous
 62
     7
370
    30
100
AcDbLine
 10
28.2725
 20
8.204656
 30
0.0
 11
28.9725
 21
8.204656
 31
0.0
  0
LINE
  5
31C
330
422
100
AcDbEntity
  8
NOTES
  6
Continuous
 62
     7
370
    30
100
AcDbLine
 10
28.2725
 20
8.209656
 30
0.0
 11
28.9725
 21
8.209656
 31
0.0
  0
LINE
  5
31D
330
422
100
AcDbEntity
  8
NOTES
  6
Continuous
 62
     7
370
    30
100
AcDbLine
 10
28.2725
 20
8.214656
 30
0.0
 11
28.9725
 21
8.214656
 31
0.0
  0
LINE
  5
31E
330
422
100
AcDbEntity
  8
NOTES
  6
Continuous
 62
     7
370
    30
100
AcDbLine
 10
28.2725
 20
8.219656
 30
0.0
 11
28.9725
 21
8.219656
 31
0.0
  0
LINE
  5
31F
330
422
100
AcDbEntity
  8
NOTES
  6
Continuous
 62
     7
370
    30
100
AcDbLine
 10
28.2725
 20
8.224656
 30
0.0
 11
28.9725
 21
8.224656
 31
0.0
  0
LINE
  5
320
330
422
100
AcDbEntity
  8
NOTES
  6
Continuous
 62
     7
370
    30
100
AcDbLine
 10
28.2725
 20
8.229656
 30
0.0
 11
28.9725
 21
8.229656
 31
0.0
  0
LINE
  5
321
330
422
100
AcDbEntity
  8
NOTES
  6
Continuous
 62
     7
370
    30
100
AcDbLine
 10
28.2725
 20
8.234656
 30
0.0
 11
28.9725
 21
8.234656
 31
0.0
  0
LINE
  5
322
330
422
100
AcDbEntity
  8
NOTES
  6
Continuous
 62
     7
370
    30
100
AcDbLine
 10
28.2725
 20
8.239656
 30
0.0
 11
28.9725
 21
8.239656
 31
0.0
  0
LINE
  5
323
330
422
100
AcDbEntity
  8
NOTES
  6
Continuous
 62
     7
370
    30
100
AcDbLine
 10
28.2725
 20
8.244656
 30
0.0
 11
28.9725
 21
8.244656
 31
0.0
  0
LINE
  5
324
330
422
100
AcDbEntity
  8
NOTES
  6
Continuous
 62
     7
370
    30
100
AcDbLine
 10
28.2725
 20
8.284656
 30
0.0
 11
28.336417
 21
8.284656
 31
0.0
  0
LINE
  5
325
330
422
100
AcDbEntity
  8
NOTES
  6
Continuous
 62
     7
370
    30
100
AcDbLine
 10
28.2725
 20
8.289656
 30
0.0
 11
28.319052
 21
8.289656
 31
0.0
  0
LINE
  5
326
330
422
100
AcDbEntity
  8
NOTES
  6
Continuous
 62
     7
370
    30
100
AcDbLine
 10
28.2725
 20
8.294656
 30
0.0
 11
28.302698
 21
8.294656
 31
0.0
  0
LINE
  5
327
330
422
100
AcDbEntity
  8
NOTES
  6
Continuous
 62
     7
370
    30
100
AcDbLine
 10
28.2725
 20
8.299656
 30
0.0
 11
28.287219
 21
8.299656
 31
0.0
  0
LINE
  5
328
330
422
100
AcDbEntity
  8
NOTES
  6
Continuous
 62
     7
370
    30
100
AcDbLine
 10
28.2725
 20
8.259656
 30
0.0
 11
28.449583
 21
8.259656
 31
0.0
  0
LINE
  5
329
330
422
100
AcDbEntity
  8
NOTES
  6
Continuous
 62
     7
370
    30
100
AcDbLine
 10
28.795417
 20
8.259656
 30
0.0
 11
28.9725
 21
8.259656
 31
0.0
  0
LINE
  5
32A
330
422
100
AcDbEntity
  8
NOTES
  6
Continuous
 62
     7
370
    30
100
AcDbLine
 10
28.2725
 20
8.264656
 30
0.0
 11
28.421531
 21
8.264656
 31
0.0
  0
LINE
  5
32B
330
422
100
AcDbEntity
  8
NOTES
  6
Continuous
 62
     7
370
    30
100
AcDbLine
 10
28.823469
 20
8.264656
 30
0.0
 11
28.9725
 21
8.264656
 31
0.0
  0
LINE
  5
32C
330
422
100
AcDbEntity
  8
NOTES
  6
Continuous
 62
     7
370
    30
100
AcDbLine
 10
28.2725
 20
8.269656
 30
0.0
 11
28.397052
 21
8.269656
 31
0.0
  0
LINE
  5
32D
330
422
100
AcDbEntity
  8
NOTES
  6
Continuous
 62
     7
370
    30
100
AcDbLine
 10
28.847948
 20
8.269656
 30
0.0
 11
28.9725
 21
8.269656
 31
0.0
  0
LINE
  5
32E
330
422
100
AcDbEntity
  8
NOTES
  6
Continuous
 62
     7
370
    30
100
AcDbLine
 10
28.2725
 20
8.274656
 30
0.0
 11
28.375083
 21
8.274656
 31
0.0
  0
LINE
  5
32F
330
422
100
AcDbEntity
  8
NOTES
  6
Continuous
 62
     7
370
    30
100
AcDbLine
 10
28.869917
 20
8.274656
 30
0.0
 11
28.9725
 21
8.274656
 31
0.0
  0
LINE
  5
330
330
422
100
AcDbEntity
  8
NOTES
  6
Continuous
 62
     7
370
    30
100
AcDbLine
 10
28.2725
 20
8.279656
 30
0.0
 11
28.355
 21
8.279656
 31
0.0
  0
LINE
  5
331
330
422
100
AcDbEntity
  8
NOTES
  6
Continuous
 62
     7
370
    30
100
AcDbLine
 10
28.89
 20
8.279656
 30
0.0
 11
28.9725
 21
8.279656
 31
0.0
  0
LINE
  5
332
330
422
100
AcDbEntity
  8
NOTES
  6
Continuous
 62
     7
370
    30
100
AcDbLine
 10
28.908583
 20
8.284656
 30
0.0
 11
28.9725
 21
8.284656
 31
0.0
  0
LINE
  5
333
330
422
100
AcDbEntity
  8
NOTES
  6
Continuous
 62
     7
370
    30
100
AcDbLine
 10
28.925948
 20
8.289656
 30
0.0
 11
28.9725
 21
8.289656
 31
0.0
  0
LINE
  5
334
330
422
100
AcDbEntity
  8
NOTES
  6
Continuous
 62
     7
370
    30
100
AcDbLine
 10
28.942302
 20
8.294656
 30
0.0
 11
28.9725
 21
8.294656
 31
0.0
  0
LINE
  5
335
330
422
100
AcDbEntity
  8
NOTES
  6
Continuous
 62
     7
370
    30
100
AcDbLine
 10
28.957781
 20
8.299656
 30
0.0
 11
28.9725
 21
8.299656
 31
0.0
  0
LINE
  5
336
330
422
100
AcDbEntity
  8
NOTES
  6
Continuous
 62
     7
370
    30
100
AcDbLine
 10
28.2725
 20
8.254656
 30
0.0
 11
28.483354
 21
8.254656
 31
0.0
  0
LINE
  5
337
330
422
100
AcDbEntity
  8
NOTES
  6
Continuous
 62
     7
370
    30
100
AcDbLine
 10
28.761646
 20
8.254656
 30
0.0
 11
28.9725
 21
8.254656
 31
0.0
  0
LINE
  5
338
330
422
100
AcDbEntity
  8
NOTES
  6
Continuous
 62
     7
370
    30
100
AcDbLine
 10
28.2725
 20
8.249656
 30
0.0
 11
28.528833
 21
8.249656
 31
0.0
  0
LINE
  5
339
330
422
100
AcDbEntity
  8
NOTES
  6
Continuous
 62
     7
370
    30
100
AcDbLine
 10
28.716167
 20
8.249656
 30
0.0
 11
28.9725
 21
8.249656
 31
0.0
  0
LINE
  5
33C
330
422
100
AcDbEntity
  8
NOTES
  6
Continuous
 62
     7
370
    30
100
AcDbLine
 10
24.1725
 20
7.564656
 30
0.0
 11
24.0925
 21
7.644656
 31
0.0
  0
LINE
  5
33D
330
422
100
AcDbEntity
  8
NOTES
  6
Continuous
 62
     7
370
    30
100
AcDbLine
 10
24.1225
 20
7.564656
 30
0.0
 11
24.0425
 21
7.644656
 31
0.0
  0
LINE
  5
33E
330
422
100
AcDbEntity
  8
NOTES
  6
Continuous
 62
     7
370
    30
100
AcDbLine
 10
24.0725
 20
7.564656
 30
0.0
 11
23.9925
 21
7.644656
 31
0.0
  0
LINE
  5
33F
330
422
100
AcDbEntity
  8
NOTES
  6
Continuous
 62
     7
370
    30
100
AcDbLine
 10
24.0225
 20
7.564656
 30
0.0
 11
23.9425
 21
7.644656
 31
0.0
  0
LINE
  5
340
330
422
100
AcDbEntity
  8
NOTES
  6
Continuous
 62
     7
370
    30
100
AcDbLine
 10
23.9725
 20
7.564656
 30
0.0
 11
23.8925
 21
7.644656
 31
0.0
  0
LINE
  5
341
330
422
100
AcDbEntity
  8
NOTES
  6
Continuous
 62
     7
370
    30
100
AcDbLine
 10
23.9225
 20
7.564656
 30
0.0
 11
23.8425
 21
7.644656
 31
0.0
  0
LINE
  5
342
330
422
100
AcDbEntity
  8
NOTES
  6
Continuous
 62
     7
370
    30
100
AcDbLine
 10
23.8725
 20
7.564656
 30
0.0
 11
23.7925
 21
7.644656
 31
0.0
  0
LINE
  5
343
330
422
100
AcDbEntity
  8
NOTES
  6
Continuous
 62
     7
370
    30
100
AcDbLine
 10
23.8225
 20
7.564656
 30
0.0
 11
23.7425
 21
7.644656
 31
0.0
  0
LINE
  5
344
330
422
100
AcDbEntity
  8
NOTES
  6
Continuous
 62
     7
370
    30
100
AcDbLine
 10
23.7725
 20
7.564656
 30
0.0
 11
23.6925
 21
7.644656
 31
0.0
  0
LINE
  5
345
330
422
100
AcDbEntity
  8
NOTES
  6
Continuous
 62
     7
370
    30
100
AcDbLine
 10
23.7225
 20
7.564656
 30
0.0
 11
23.6425
 21
7.644656
 31
0.0
  0
LINE
  5
346
330
422
100
AcDbEntity
  8
NOTES
  6
Continuous
 62
     7
370
    30
100
AcDbLine
 10
23.6725
 20
7.564656
 30
0.0
 11
23.5925
 21
7.644656
 31
0.0
  0
LINE
  5
347
330
422
100
AcDbEntity
  8
NOTES
  6
Continuous
 62
     7
370
    30
100
AcDbLine
 10
23.6225
 20
7.564656
 30
0.0
 11
23.5425
 21
7.644656
 31
0.0
  0
LINE
  5
348
330
422
100
AcDbEntity
  8
NOTES
  6
Continuous
 62
     7
370
    30
100
AcDbLine
 10
23.5725
 20
7.564656
 30
0.0
 11
23.4925
 21
7.644656
 31
0.0
  0
LINE
  5
349
330
422
100
AcDbEntity
  8
NOTES
  6
Continuous
 62
     7
370
    30
100
AcDbLine
 10
23.5225
 20
7.564656
 30
0.0
 11
23.4725
 21
7.614656
 31
0.0
  0
LINE
  5
34A
330
422
100
AcDbEntity
  8
NOTES
  6
Continuous
 62
     7
370
    30
100
AcDbLine
 10
24.1725
 20
7.614656
 30
0.0
 11
24.1425
 21
7.644656
 31
0.0
  0
LINE
  5
34B
330
422
100
AcDbEntity
  8
NOTES
  6
Continuous
 62
     7
370
    30
100
AcDbLine
 10
26.5725
 20
7.564656
 30
0.0
 11
26.4925
 21
7.644656
 31
0.0
  0
LINE
  5
34C
330
422
100
AcDbEntity
  8
NOTES
  6
Continuous
 62
     7
370
    30
100
AcDbLine
 10
26.5225
 20
7.564656
 30
0.0
 11
26.4425
 21
7.644656
 31
0.0
  0
LINE
  5
34D
330
422
100
AcDbEntity
  8
NOTES
  6
Continuous
 62
     7
370
    30
100
AcDbLine
 10
26.4725
 20
7.564656
 30
0.0
 11
26.3925
 21
7.644656
 31
0.0
  0
LINE
  5
34E
330
422
100
AcDbEntity
  8
NOTES
  6
Continuous
 62
     7
370
    30
100
AcDbLine
 10
26.4225
 20
7.564656
 30
0.0
 11
26.3425
 21
7.644656
 31
0.0
  0
LINE
  5
34F
330
422
100
AcDbEntity
  8
NOTES
  6
Continuous
 62
     7
370
    30
100
AcDbLine
 10
26.3725
 20
7.564656
 30
0.0
 11
26.2925
 21
7.644656
 31
0.0
  0
LINE
  5
350
330
422
100
AcDbEntity
  8
NOTES
  6
Continuous
 62
     7
370
    30
100
AcDbLine
 10
26.3225
 20
7.564656
 30
0.0
 11
26.2425
 21
7.644656
 31
0.0
  0
LINE
  5
351
330
422
100
AcDbEntity
  8
NOTES
  6
Continuous
 62
     7
370
    30
100
AcDbLine
 10
26.2725
 20
7.564656
 30
0.0
 11
26.1925
 21
7.644656
 31
0.0
  0
LINE
  5
352
330
422
100
AcDbEntity
  8
NOTES
  6
Continuous
 62
     7
370
    30
100
AcDbLine
 10
26.2225
 20
7.564656
 30
0.0
 11
26.1425
 21
7.644656
 31
0.0
  0
LINE
  5
353
330
422
100
AcDbEntity
  8
NOTES
  6
Continuous
 62
     7
370
    30
100
AcDbLine
 10
26.1725
 20
7.564656
 30
0.0
 11
26.0925
 21
7.644656
 31
0.0
  0
LINE
  5
354
330
422
100
AcDbEntity
  8
NOTES
  6
Continuous
 62
     7
370
    30
100
AcDbLine
 10
26.1225
 20
7.564656
 30
0.0
 11
26.0425
 21
7.644656
 31
0.0
  0
LINE
  5
355
330
422
100
AcDbEntity
  8
NOTES
  6
Continuous
 62
     7
370
    30
100
AcDbLine
 10
26.0725
 20
7.564656
 30
0.0
 11
25.9925
 21
7.644656
 31
0.0
  0
LINE
  5
356
330
422
100
AcDbEntity
  8
NOTES
  6
Continuous
 62
     7
370
    30
100
AcDbLine
 10
26.0225
 20
7.564656
 30
0.0
 11
25.9425
 21
7.644656
 31
0.0
  0
LINE
  5
357
330
422
100
AcDbEntity
  8
NOTES
  6
Continuous
 62
     7
370
    30
100
AcDbLine
 10
25.9725
 20
7.564656
 30
0.0
 11
25.8925
 21
7.644656
 31
0.0
  0
LINE
  5
358
330
422
100
AcDbEntity
  8
NOTES
  6
Continuous
 62
     7
370
    30
100
AcDbLine
 10
25.9225
 20
7.564656
 30
0.0
 11
25.8725
 21
7.614656
 31
0.0
  0
LINE
  5
359
330
422
100
AcDbEntity
  8
NOTES
  6
Continuous
 62
     7
370
    30
100
AcDbLine
 10
26.5725
 20
7.614656
 30
0.0
 11
26.5425
 21
7.644656
 31
0.0
  0
LINE
  5
35A
330
422
100
AcDbEntity
  8
NOTES
  6
Continuous
 62
     7
370
    30
100
AcDbLine
 10
26.5725
 20
7.564656
 30
0.0
 11
26.4925
 21
7.644656
 31
0.0
  0
LINE
  5
35B
330
422
100
AcDbEntity
  8
NOTES
  6
Continuous
 62
     7
370
    30
100
AcDbLine
 10
26.5225
 20
7.564656
 30
0.0
 11
26.4425
 21
7.644656
 31
0.0
  0
LINE
  5
35C
330
422
100
AcDbEntity
  8
NOTES
  6
Continuous
 62
     7
370
    30
100
AcDbLine
 10
26.4725
 20
7.564656
 30
0.0
 11
26.3925
 21
7.644656
 31
0.0
  0
LINE
  5
35D
330
422
100
AcDbEntity
  8
NOTES
  6
Continuous
 62
     7
370
    30
100
AcDbLine
 10
26.4225
 20
7.564656
 30
0.0
 11
26.3425
 21
7.644656
 31
0.0
  0
LINE
  5
35E
330
422
100
AcDbEntity
  8
NOTES
  6
Continuous
 62
     7
370
    30
100
AcDbLine
 10
26.3725
 20
7.564656
 30
0.0
 11
26.2925
 21
7.644656
 31
0.0
  0
LINE
  5
35F
330
422
100
AcDbEntity
  8
NOTES
  6
Continuous
 62
     7
370
    30
100
AcDbLine
 10
26.3225
 20
7.564656
 30
0.0
 11
26.2425
 21
7.644656
 31
0.0
  0
LINE
  5
360
330
422
100
AcDbEntity
  8
NOTES
  6
Continuous
 62
     7
370
    30
100
AcDbLine
 10
26.2725
 20
7.564656
 30
0.0
 11
26.1925
 21
7.644656
 31
0.0
  0
LINE
  5
361
330
422
100
AcDbEntity
  8
NOTES
  6
Continuous
 62
     7
370
    30
100
AcDbLine
 10
26.2225
 20
7.564656
 30
0.0
 11
26.1425
 21
7.644656
 31
0.0
  0
LINE
  5
362
330
422
100
AcDbEntity
  8
NOTES
  6
Continuous
 62
     7
370
    30
100
AcDbLine
 10
26.1725
 20
7.564656
 30
0.0
 11
26.0925
 21
7.644656
 31
0.0
  0
LINE
  5
363
330
422
100
AcDbEntity
  8
NOTES
  6
Continuous
 62
     7
370
    30
100
AcDbLine
 10
26.1225
 20
7.564656
 30
0.0
 11
26.0425
 21
7.644656
 31
0.0
  0
LINE
  5
364
330
422
100
AcDbEntity
  8
NOTES
  6
Continuous
 62
     7
370
    30
100
AcDbLine
 10
26.0725
 20
7.564656
 30
0.0
 11
25.9925
 21
7.644656
 31
0.0
  0
LINE
  5
365
330
422
100
AcDbEntity
  8
NOTES
  6
Continuous
 62
     7
370
    30
100
AcDbLine
 10
26.0225
 20
7.564656
 30
0.0
 11
25.9425
 21
7.644656
 31
0.0
  0
LINE
  5
366
330
422
100
AcDbEntity
  8
NOTES
  6
Continuous
 62
     7
370
    30
100
AcDbLine
 10
25.9725
 20
7.564656
 30
0.0
 11
25.8925
 21
7.644656
 31
0.0
  0
LINE
  5
367
330
422
100
AcDbEntity
  8
NOTES
  6
Continuous
 62
     7
370
    30
100
AcDbLine
 10
25.9225
 20
7.564656
 30
0.0
 11
25.8725
 21
7.614656
 31
0.0
  0
LINE
  5
368
330
422
100
AcDbEntity
  8
NOTES
  6
Continuous
 62
     7
370
    30
100
AcDbLine
 10
26.5725
 20
7.614656
 30
0.0
 11
26.5425
 21
7.644656
 31
0.0
  0
LINE
  5
369
330
422
100
AcDbEntity
  8
NOTES
  6
Continuous
 62
     7
370
    30
100
AcDbLine
 10
28.9725
 20
7.564656
 30
0.0
 11
28.8925
 21
7.644656
 31
0.0
  0
LINE
  5
36A
330
422
100
AcDbEntity
  8
NOTES
  6
Continuous
 62
     7
370
    30
100
AcDbLine
 10
28.9225
 20
7.564656
 30
0.0
 11
28.8425
 21
7.644656
 31
0.0
  0
LINE
  5
36B
330
422
100
AcDbEntity
  8
NOTES
  6
Continuous
 62
     7
370
    30
100
AcDbLine
 10
28.8725
 20
7.564656
 30
0.0
 11
28.7925
 21
7.644656
 31
0.0
  0
LINE
  5
36C
330
422
100
AcDbEntity
  8
NOTES
  6
Continuous
 62
     7
370
    30
100
AcDbLine
 10
28.8225
 20
7.564656
 30
0.0
 11
28.7425
 21
7.644656
 31
0.0
  0
LINE
  5
36D
330
422
100
AcDbEntity
  8
NOTES
  6
Continuous
 62
     7
370
    30
100
AcDbLine
 10
28.7725
 20
7.564656
 30
0.0
 11
28.6925
 21
7.644656
 31
0.0
  0
LINE
  5
36E
330
422
100
AcDbEntity
  8
NOTES
  6
Continuous
 62
     7
370
    30
100
AcDbLine
 10
28.7225
 20
7.564656
 30
0.0
 11
28.6425
 21
7.644656
 31
0.0
  0
LINE
  5
36F
330
422
100
AcDbEntity
  8
NOTES
  6
Continuous
 62
     7
370
    30
100
AcDbLine
 10
28.6725
 20
7.564656
 30
0.0
 11
28.5925
 21
7.644656
 31
0.0
  0
LINE
  5
370
330
422
100
AcDbEntity
  8
NOTES
  6
Continuous
 62
     7
370
    30
100
AcDbLine
 10
28.6225
 20
7.564656
 30
0.0
 11
28.5425
 21
7.644656
 31
0.0
  0
LINE
  5
371
330
422
100
AcDbEntity
  8
NOTES
  6
Continuous
 62
     7
370
    30
100
AcDbLine
 10
28.5725
 20
7.564656
 30
0.0
 11
28.4925
 21
7.644656
 31
0.0
  0
LINE
  5
372
330
422
100
AcDbEntity
  8
NOTES
  6
Continuous
 62
     7
370
    30
100
AcDbLine
 10
28.5225
 20
7.564656
 30
0.0
 11
28.4425
 21
7.644656
 31
0.0
  0
LINE
  5
373
330
422
100
AcDbEntity
  8
NOTES
  6
Continuous
 62
     7
370
    30
100
AcDbLine
 10
28.4725
 20
7.564656
 30
0.0
 11
28.3925
 21
7.644656
 31
0.0
  0
LINE
  5
374
330
422
100
AcDbEntity
  8
NOTES
  6
Continuous
 62
     7
370
    30
100
AcDbLine
 10
28.4225
 20
7.564656
 30
0.0
 11
28.3425
 21
7.644656
 31
0.0
  0
LINE
  5
375
330
422
100
AcDbEntity
  8
NOTES
  6
Continuous
 62
     7
370
    30
100
AcDbLine
 10
28.3725
 20
7.564656
 30
0.0
 11
28.2925
 21
7.644656
 31
0.0
  0
LINE
  5
376
330
422
100
AcDbEntity
  8
NOTES
  6
Continuous
 62
     7
370
    30
100
AcDbLine
 10
28.3225
 20
7.564656
 30
0.0
 11
28.2725
 21
7.614656
 31
0.0
  0
LINE
  5
377
330
422
100
AcDbEntity
  8
NOTES
  6
Continuous
 62
     7
370
    30
100
AcDbLine
 10
28.9725
 20
7.614656
 30
0.0
 11
28.9425
 21
7.644656
 31
0.0
  0
LINE
  5
378
330
422
100
AcDbEntity
  8
DIM
  6
Continuous
 62
     7
370
     0
100
AcDbLine
 10
26.523583
 20
7.133458
 30
0.0
 11
26.2425
 21
7.038771
 31
0.0
  0
INSERT
  5
379
330
422
100
AcDbEntity
  8
DIM
  6
Continuous
 62
     7
370
     0
100
AcDbBlockReference
  2
LARROW
 10
26.2425
 20
7.038771
 30
0.0
 41
11.999998
 42
11.999998
 43
11.999998
 50
198.616931
  0
LINE
  5
37C
330
422
100
AcDbEntity
  8
DIM
  6
Continuous
 62
     7
370
     0
100
AcDbLine
 10
26.610417
 20
7.133458
 30
0.0
 11
26.523583
 21
7.133458
 31
0.0
  0
LWPOLYLINE
  5
380
330
422
100
AcDbEntity
  8
DIM
  6
Continuous
 62
     7
370
     0
100
AcDbPolyline
 90
        3
 70
   128
 43
0.0
 10
24.398469
 20
7.147177
 10
24.325333
 20
7.147177
 10
23.8925
 20
7.365677
  0
INSERT
  5
381
330
422
100
AcDbEntity
  8
DIM
  6
Continuous
 62
     7
370
     0
100
AcDbBlockReference
  2
LARROW
 10
23.8925
 20
7.365677
 30
0.0
 41
11.999998
 42
11.999998
 43
11.999998
 50
153.214756
  0
LWPOLYLINE
  5
386
330
422
100
AcDbEntity
  8
DIM
  6
Continuous
 62
     7
370
     0
100
AcDbPolyline
 90
        3
 70
   128
 43
0.0
 10
23.971396
 20
6.691042
 10
24.105948
 20
6.691042
 10
23.926198
 20
6.974177
  0
INSERT
  5
387
330
422
100
AcDbEntity
  8
DIM
  6
Continuous
 62
     7
370
     0
100
AcDbBlockReference
  2
LARROW
 10
23.926198
 20
6.974177
 30
0.0
 41
12.000003
 42
12.000003
 43
12.000003
 50
122.409636
  0
LINE
  5
389
330
422
100
AcDbEntity
  8
DIM
  6
Continuous
 62
     7
370
     0
100
AcDbLine
 10
24.419833
 20
8.15724
 30
0.0
 11
24.1725
 21
8.136521
 31
0.0
  0
LINE
  5
38A
330
422
100
AcDbEntity
  8
DIM
  6
Continuous
 62
     7
370
     0
100
AcDbLine
 10
24.47801
 20
7.681896
 30
0.0
 11
24.1725
 21
7.611844
 31
0.0
  0
LINE
  5
38C
330
422
100
AcDbEntity
  8
DIM
  6
Continuous
 62
     7
370
     0
100
AcDbLine
 10
24.444167
 20
7.36526
 30
0.0
 11
24.391885
 21
7.36526
 31
0.0
  0
LINE
  5
38D
330
422
100
AcDbEntity
  8
DIM
  6
Continuous
 62
     7
370
     0
100
AcDbLine
 10
24.391885
 20
7.36526
 30
0.0
 11
24.065823
 21
7.564656
 31
0.0
  0
INSERT
  5
38E
330
422
100
AcDbEntity
  8
DIM
  6
Continuous
 62
     7
370
     0
100
AcDbBlockReference
  2
LARROW
 10
24.1725
 20
8.136521
 30
0.0
 41
12.000001
 42
12.000001
 43
12.000001
 50
184.788402
  0
INSERT
  5
390
330
422
100
AcDbEntity
  8
DIM
  6
Continuous
 62
     7
370
     0
100
AcDbBlockReference
  2
LARROW
 10
24.1725
 20
7.611844
 30
0.0
 41
11.999998
 42
11.999998
 43
11.999998
 50
192.914414
  0
INSERT
  5
392
330
422
100
AcDbEntity
  8
DIM
  6
Continuous
 62
     7
370
     0
100
AcDbBlockReference
  2
LARROW
 10
24.065823
 20
7.564656
 30
0.0
 41
11.999999
 42
11.999999
 43
11.999999
 50
148.553105
  0
LINE
  5
394
330
422
100
AcDbEntity
  8
NOTES
  6
Continuous
 62
     7
370
    30
100
AcDbLine
 10
28.2725
 20
7.564656
 30
0.0
 11
28.2725
 21
6.564656
 31
0.0
  0
LWPOLYLINE
  5
396
330
422
100
AcDbEntity
  8
DIM
  6
Continuous
 62
     7
370
     0
100
AcDbPolyline
 90
        3
 70
   128
 43
0.0
 10
27.040844
 20
8.173823
 10
26.955802
 20
8.173823
 10
26.5725
 20
8.003052
  0
LWPOLYLINE
  5
397
330
422
100
AcDbEntity
  8
DIM
  6
Continuous
 62
     7
370
     0
100
AcDbPolyline
 90
        3
 70
   128
 43
0.0
 10
26.886958
 20
7.648573
 10
26.818115
 20
7.648573
 10
26.5725
 20
7.602042
  0
LWPOLYLINE
  5
398
330
422
100
AcDbEntity
  8
DIM
  6
Continuous
 62
     7
370
     0
100
AcDbPolyline
 90
        3
 70
   128
 43
0.0
 10
27.506552
 20
7.49776
 10
27.842667
 20
7.49776
 10
28.2725
 20
7.62274
  0
LWPOLYLINE
  5
39A
330
422
100
AcDbEntity
  8
DIM
  6
Continuous
 62
     7
370
     0
100
AcDbPolyline
 90
        3
 70
   128
 43
0.0
 10
26.834312
 20
7.31575
 10
26.761427
 20
7.31575
 10
26.5725
 20
7.564656
  0
INSERT
  5
39B
330
422
100
AcDbEntity
  8
DIM
  6
Continuous
 62
     7
370
     0
100
AcDbBlockReference
  2
LARROW
 10
26.5725
 20
8.003052
 30
0.0
 41
12.000001
 42
12.000001
 43
12.000001
 50
204.014199
  0
INSERT
  5
39D
330
422
100
AcDbEntity
  8
DIM
  6
Continuous
 62
     7
370
     0
100
AcDbBlockReference
  2
LARROW
 10
26.5725
 20
7.602042
 30
0.0
 41
12.0
 42
12.0
 43
12.0
 50
190.727461
  0
INSERT
  5
39F
330
422
100
AcDbEntity
  8
DIM
  6
Continuous
 62
     7
370
     0
100
AcDbBlockReference
  2
LARROW
 10
26.5725
 20
7.564656
 30
0.0
 41
12.0
 42
12.0
 43
12.0
 50
127.199541
  0
INSERT
  5
3A1
330
422
100
AcDbEntity
  8
DIM
  6
Continuous
 62
     7
370
     0
100
AcDbBlockReference
  2
LARROW
 10
28.2725
 20
7.564656
 30
0.0
 41
11.999998
 42
11.999998
 43
11.999998
 50
40.998346
  0
INSERT
  5
3A3
330
422
100
AcDbEntity
  8
DIM
  6
Continuous
 62
     7
370
     0
100
AcDbBlockReference
  2
LARROW
 10
28.2725
 20
7.62274
 30
0.0
 41
12.000001
 42
12.000001
 43
12.000001
 50
16.212424
  0
LINE
  5
3A5
330
422
100
AcDbEntity
  8
DIM
  6
Continuous
 62
     7
370
     0
100
AcDbLine
 10
23.278333
 20
7.644656
 30
0.0
 11
23.438104
 21
7.644656
 31
0.0
  0
LINE
  5
3A6
330
422
100
AcDbEntity
  8
DIM
  6
Continuous
 62
     7
370
     0
100
AcDbLine
 10
25.678333
 20
7.644656
 30
0.0
 11
25.838104
 21
7.644656
 31
0.0
  0
LINE
  5
3A7
330
422
100
AcDbEntity
  8
DIM
  6
Continuous
 62
     7
370
     0
100
AcDbLine
 10
28.078333
 20
7.644656
 30
0.0
 11
28.238104
 21
7.644656
 31
0.0
  0
TEXT
  5
62
330
422
100
AcDbEntity
  8
DEFPOINTS
  6
Continuous
 62
     7
370
    30
100
AcDbText
 10
29.029225
 20
1.26024
 30
0.0
 40
0.12
  1
FIGURE
  7
Style-Arial
 11
29.029225
 21
1.32024
 31
0.0
100
AcDbText
 73
     2
  0
TEXT
  5
63
330
422
100
AcDbEntity
  8
DEFPOINTS
  6
Continuous
 62
     7
370
    30
100
AcDbText
 10
29.13465
 20
1.093573
 30
0.0
 40
0.12
  1
2-13b
  7
Style-Arial
 11
29.13465
 21
1.153573
 31
0.0
100
AcDbText
 73
     2
  0
TEXT
  5
64
330
422
100
AcDbEntity
  8
DEFPOINTS
  6
Continuous
 62
     7
370
    30
100
AcDbText
 10
27.977962
 20
1.26024
 30
0.0
 40
0.12
  1
DATE
  7
Style-Arial
 11
27.977962
 21
1.32024
 31
0.0
100
AcDbText
 73
     2
  0
TEXT
  5
65
330
422
100
AcDbEntity
  8
DEFPOINTS
  6
Continuous
 62
     7
370
    30
100
AcDbText
 10
27.789982
 20
1.093573
 30
0.0
 40
0.12
  1
AUG 1992
  7
Style-Arial
 11
27.789982
 21
1.153573
 31
0.0
100
AcDbText
 73
     2
  0
TEXT
  5
66
330
422
100
AcDbEntity
  8
Level 11
  6
Continuous
 62
     7
370
    30
100
AcDbText
 10
23.743292
 20
1.036167
 30
0.0
 40
0.12
  1
PAVEMENTS (SEPARATING TAPE)
  7
Style-Arial
 11
23.743292
 21
1.096167
 31
0.0
100
AcDbText
 73
     2
  0
TEXT
  5
67
330
422
100
AcDbEntity
  8
Level 11
  6
Continuous
 62
     7
370
    30
100
AcDbText
 10
23.506874
 20
1.289115
 30
0.0
 40
0.12
  1
POURED SEALANT DETAILS FOR RIGID
  7
Style-Arial
 11
23.506874
 21
1.349115
 31
0.0
100
AcDbText
 73
     2
  0
TEXT
  5
68
330
422
100
AcDbEntity
  8
TITLE
  6
Continuous
 62
     7
370
    30
100
AcDbText
 10
23.329384
 20
1.57624
 30
0.0
 40
0.12
  1
            RIGID PAVEMENTS FOR AIRFIELDS
  7
Style-Arial
 11
23.329384
 21
1.63624
 31
0.0
100
AcDbText
 73
     2
  0
TEXT
  5
69
330
422
100
AcDbEntity
  8
TITLE
  6
Continuous
 62
     7
370
    30
100
AcDbText
 10
22.714906
 20
1.766031
 30
0.0
 40
0.12
  1
REFERENCE : TM 5-825-3/AFM 88-6, CHAPTER 3,
  7
Style-Arial
 11
22.714906
 21
1.826031
 31
0.0
100
AcDbText
 73
     2
  0
TEXT
  5
76
330
422
100
AcDbEntity
  8
NOTES
  6
Continuous
 62
     7
370
    30
100
AcDbText
 10
26.621242
 20
3.418271
 30
0.0
 40
0.12
  1
WIDTH, IN.
  7
Style-Arial
 11
26.621242
 21
3.478271
 31
0.0
100
AcDbText
 73
     2
  0
TEXT
  5
77
330
422
100
AcDbEntity
  8
NOTES
  6
Continuous
 62
     7
370
    30
100
AcDbText
 10
25.382537
 20
2.649031
 30
0.0
 40
0.12
  1
> 50
  7
Style-Arial
 11
25.382537
 21
2.709031
 31
0.0
100
AcDbText
 73
     2
  0
TEXT
  5
78
330
422
100
AcDbEntity
  8
NOTES
  6
Continuous
 62
     7
370
    30
100
AcDbText
 10
25.422831
 20
2.820896
 30
0.0
 40
0.12
  1
25-50
  7
Style-Arial
 11
25.422831
 21
2.880896
 31
0.0
100
AcDbText
 73
     2
  0
TEXT
  5
79
330
422
100
AcDbEntity
  8
NOTES
  6
Continuous
 62
     7
370
    30
100
AcDbText
 10
25.38161
 20
2.999281
 30
0.0
 40
0.12
  1
< 25
  7
Style-Arial
 11
25.38161
 21
3.059281
 31
0.0
100
AcDbText
 73
     2
  0
TEXT
  5
7A
330
422
100
AcDbEntity
  8
NOTES
  6
Continuous
 62
     7
370
    30
100
AcDbText
 10
25.491302
 20
3.213182
 30
0.0
 40
0.12
  1
FT
  7
Style-Arial
 11
25.491302
 21
3.273182
 31
0.0
100
AcDbText
 73
     2
  0
TEXT
  5
7B
330
422
100
AcDbEntity
  8
NOTES
  6
Continuous
 62
     7
370
    30
100
AcDbText
 10
24.892035
 20
3.418937
 30
0.0
 40
0.12
  1
JOINT SPACING
  7
Style-Arial
 11
24.892035
 21
3.478937
 31
0.0
100
AcDbText
 73
     2
  0
TEXT
  5
7C
330
422
100
AcDbEntity
  8
NOTES
  6
Continuous
 62
     7
370
    30
100
AcDbText
 10
26.064047
 20
3.622125
 30
0.0
 40
0.12
  1
TABLE
  7
Style-Arial
 11
26.064047
 21
3.682125
 31
0.0
100
AcDbText
 73
     2
  0
TEXT
  5
7D
330
422
100
AcDbEntity
  8
NOTES
  6
Continuous
 62
     7
370
    30
100
AcDbText
 10
22.628594
 20
4.035073
 30
0.0
 40
0.12
  1
 * DESIGNER MAY WANT TO CONSIDER REQUIRING 1/4 SLAB THICKNESS
  7
Style-Arial
 11
22.628594
 21
4.095073
 31
0.0
100
AcDbText
 73
     2
  0
TEXT
  5
7E
330
422
100
AcDbEntity
  8
NOTES
  6
Continuous
 62
     7
370
    30
100
AcDbText
 10
22.749573
 20
4.258219
 30
0.0
 40
0.12
  1
    c. 1/6 SLAB THICKNESS FOR PAVEMENTS MORE THAN 18 INCHES *
  7
Style-Arial
 11
22.749573
 21
4.318219
 31
0.0
100
AcDbText
 73
     2
  0
TEXT
  5
7F
330
422
100
AcDbEntity
  8
NOTES
  6
Continuous
 62
     7
370
    30
100
AcDbText
 10
22.749573
 20
4.450687
 30
0.0
 40
0.12
  1
    b. 3 INCHES FOR PAVEMENTS 12-18 INCHES *
  7
Style-Arial
 11
22.749573
 21
4.510687
 31
0.0
100
AcDbText
 73
     2
  0
TEXT
  5
80
330
422
100
AcDbEntity
  8
NOTES
  6
Continuous
 62
     7
370
    30
100
AcDbText
 10
22.749573
 20
4.669688
 30
0.0
 40
0.12
  1
    a. 1/4 SLAB THICKNESS FOR PAVEMENTS LESS THAN 12 INCHES
  7
Style-Arial
 11
22.749573
 21
4.729687
 31
0.0
100
AcDbText
 73
     2
  0
TEXT
  5
81
330
422
100
AcDbEntity
  8
NOTES
  6
Continuous
 62
     7
370
    30
100
AcDbText
 10
22.749573
 20
5.250552
 30
0.0
 40
0.12
  1
D = DEPTH OF SEALANT (1.0 TO 1.5 x W)
  7
Style-Arial
 11
22.749573
 21
5.310552
 31
0.0
100
AcDbText
 73
     2
  0
TEXT
  5
82
330
422
100
AcDbEntity
  8
NOTES
  6
Continuous
 62
     7
370
    30
100
AcDbText
 10
22.749573
 20
5.470219
 30
0.0
 40
0.12
  1
W = WIDTH OF SEALANT RESERVOIR (SEE TABLE)
  7
Style-Arial
 11
22.749573
 21
5.530219
 31
0.0
100
AcDbText
 73
     2
  0
TEXT
  5
8D
330
422
100
AcDbEntity
  8
NOTES
  6
Continuous
 62
     7
370
    30
100
AcDbText
 10
22.743146
 20
2.088177
 30
0.0
 40
0.12
  1
NOTE: TOP OF SEALANT WILL BE 1/8-IN. TO 1/4-IN. BELOW TOP OF PAV'T.
  7
Style-Arial
 11
22.743146
 21
2.148177
 31
0.0
100
AcDbText
 73
     2
  0
TEXT
  5
8E
330
422
100
AcDbEntity
  8
NOTES
  6
Continuous
 62
     7
370
    30
100
AcDbText
 10
23.059323
 20
4.86526
 30
0.0
 40
0.12
  1
 FORMER (CONTRACTION JOINT)
  7
Style-Arial
 11
23.059323
 21
4.92526
 31
0.0
100
AcDbText
 73
     2
  0
TEXT
  5
8F
330
422
100
AcDbEntity
  8
NOTES
  6
Continuous
 62
     7
370
    30
100
AcDbText
 10
22.749573
 20
5.044979
 30
0.0
 40
0.12
  1
T = DEPTH OF INITIAL SAWCUT OR INSERT TYPE JOINT
  7
Style-Arial
 11
22.749573
 21
5.104979
 31
0.0
100
AcDbText
 73
     2
  0
TEXT
  5
E8
330
422
100
AcDbEntity
  8
DIM
  6
Continuous
 62
     7
370
    30
100
AcDbText
 10
23.244781
 20
9.301562
 30
0.0
 40
0.12
  1
CONTRACTION
  7
Style-Arial
 11
23.244781
 21
9.361562
 31
0.0
100
AcDbText
 73
     2
  0
TEXT
  5
E9
330
422
100
AcDbEntity
  8
DIM
  6
Continuous
 62
     7
370
    30
100
AcDbText
 10
23.551844
 20
9.099219
 30
0.0
 40
0.12
  1
JOINT
  7
Style-Arial
 11
23.551844
 21
9.159219
 31
0.0
100
AcDbText
 73
     2
  0
TEXT
  5
EA
330
422
100
AcDbEntity
  8
DIM
  6
Continuous
 62
     7
370
    30
100
AcDbText
 10
25.556354
 20
9.313698
 30
0.0
 40
0.12
  1
CONSTRUCTION
  7
Style-Arial
 11
25.556354
 21
9.373698
 31
0.0
100
AcDbText
 73
     2
  0
TEXT
  5
EB
330
422
100
AcDbEntity
  8
DIM
  6
Continuous
 62
     7
370
    30
100
AcDbText
 10
28.090354
 20
9.31199
 30
0.0
 40
0.12
  1
EXPANSION
  7
Style-Arial
 11
28.090354
 21
9.37199
 31
0.0
100
AcDbText
 73
     2
  0
TEXT
  5
EC
330
422
100
AcDbEntity
  8
DIM
  6
Continuous
 62
     7
370
    30
100
AcDbText
 10
25.903281
 20
9.099219
 30
0.0
 40
0.12
  1
JOINT
  7
Style-Arial
 11
25.903281
 21
9.159219
 31
0.0
100
AcDbText
 73
     2
  0
TEXT
  5
ED
330
422
100
AcDbEntity
  8
DIM
  6
Continuous
 62
     7
370
    30
100
AcDbText
 10
28.275688
 20
9.095792
 30
0.0
 40
0.12
  1
JOINT
  7
Style-Arial
 11
28.275688
 21
9.155792
 31
0.0
100
AcDbText
 73
     2
  0
MTEXT
  5
F4
330
422
100
AcDbEntity
  8
DIM
  6
Continuous
 62
     7
370
    13
100
AcDbMText
 10
27.08825
 20
8.613412
 30
0.0
 40
0.12
 41
0.0
 71
     4
 72
     1
  1
PAVEMENT\PSURFACE\P
  7
Style-Arial
 73
     2
 44
0.779643
  0
MTEXT
  5
100
330
422
100
AcDbEntity
  8
DIM
  6
Continuous
 62
     7
370
    13
100
AcDbMText
 10
24.546219
 20
8.633683
 30
0.0
 40
0.12
 41
0.0
 71
     4
 72
     1
  1
PAVEMENT\PSURFACE\P
  7
Style-Arial
 73
     2
 44
0.779643
  0
MTEXT
  5
103
330
422
100
AcDbEntity
  8
DIM
  6
Continuous
 62
     7
370
    13
100
AcDbMText
 10
24.475711
 20
8.005016
 30
0.0
 40
0.12
 41
0.0
 71
     4
 72
     1
  1
POURED\PJOINT\PSEALER\P
  7
Style-Arial
 73
     2
 44
0.779643
  0
MTEXT
  5
107
330
422
100
AcDbEntity
  8
DIM
  6
Continuous
 62
     7
370
    13
100
AcDbMText
 10
27.088357
 20
8.002537
 30
0.0
 40
0.12
 41
0.0
 71
     4
 72
     1
  1
POURED\PJOINT\PSEALER\P
  7
Style-Arial
 73
     2
 44
0.779643
  0
MTEXT
  5
10B
330
422
100
AcDbEntity
  8
DIM
  6
Continuous
 62
     7
370
    13
100
AcDbMText
 10
29.159394
 20
7.531058
 30
0.0
 40
0.12
 41
0.0
 71
     4
 72
     1
  1
POURED\PJOINT\PSEALER\P
  7
Style-Arial
 73
     2
 44
0.779643
  0
TEXT
  5
11C
330
422
100
AcDbEntity
  8
DIM
  6
Continuous
 62
     7
370
    30
100
AcDbText
 10
28.387131
 20
7.099292
 30
0.0
 40
0.12
  1
JOINT
  7
Style-Arial
 11
28.387131
 21
7.159292
 31
0.0
100
AcDbText
 73
     2
  0
TEXT
  5
11D
330
422
100
AcDbEntity
  8
DIM
  6
Continuous
 62
     7
370
    30
100
AcDbText
 10
28.393872
 20
6.954948
 30
0.0
 40
0.12
  1
FILLER
  7
Style-Arial
 11
28.393872
 21
7.014948
 31
0.0
100
AcDbText
 73
     2
  0
TEXT
  5
13B
330
422
100
AcDbEntity
  8
DIM
  6
Continuous
 62
     7
370
    13
100
AcDbText
 10
23.74447
 20
8.702781
 30
0.0
 40
0.12
  1
W
  7
Style-Arial
 11
23.74447
 21
8.762781
 31
0.0
100
AcDbText
 73
     2
  0
TEXT
  5
143
330
422
100
AcDbEntity
  8
DIM
  6
Continuous
 62
     7
370
    13
100
AcDbText
 10
26.147385
 20
8.702781
 30
0.0
 40
0.12
  1
W
  7
Style-Arial
 11
26.147385
 21
8.762781
 31
0.0
100
AcDbText
 73
     2
  0
TEXT
  5
14B
330
422
100
AcDbEntity
  8
DIM
  6
Continuous
 62
     7
370
    13
100
AcDbText
 10
28.540583
 20
8.702781
 30
0.0
 40
0.12
  1
W
  7
Style-Arial
 11
28.540583
 21
8.762781
 31
0.0
100
AcDbText
 73
     2
  0
TEXT
  5
14F
330
422
100
AcDbEntity
  8
DIM
  6
Continuous
 62
     7
370
    30
100
AcDbText
 10
23.306344
 20
7.966615
 30
0.0
 40
0.12
  1
D
 50
90.0
  7
Style-Arial
 11
23.246344
 21
7.966615
 31
0.0
100
AcDbText
 73
     2
  0
TEXT
  5
15B
330
422
100
AcDbEntity
  8
DIM
  6
Continuous
 62
     7
370
    30
100
AcDbText
 10
23.016896
 20
7.60425
 30
0.0
 40
0.12
  1
T
 50
90.0
  7
Style-Arial
 11
22.956896
 21
7.60425
 31
0.0
100
AcDbText
 73
     2
  0
TEXT
  5
15D
330
422
100
AcDbEntity
  8
DIM
  6
Continuous
 62
     7
370
    30
100
AcDbText
 10
25.691562
 20
7.960292
 30
0.0
 40
0.12
  1
D
 50
90.0
  7
Style-Arial
 11
25.631562
 21
7.960292
 31
0.0
100
AcDbText
 73
     2
  0
TEXT
  5
169
330
422
100
AcDbEntity
  8
DIM
  6
Continuous
 62
     7
370
    30
100
AcDbText
 10
28.085437
 20
7.953656
 30
0.0
 40
0.12
  1
D
 50
90.0
  7
Style-Arial
 11
28.025437
 21
7.953656
 31
0.0
100
AcDbText
 73
     2
  0
MTEXT
  5
171
330
422
100
AcDbEntity
  8
DIM
  6
Continuous
 62
     7
370
    13
100
AcDbMText
 10
28.52115
 20
6.281185
 30
0.0
 40
0.12
 41
0.0
 71
     4
 72
     1
  1
{\A0;\S3#4;}"
  7
Style-Arial
 73
     2
 44
1.382053
  0
TEXT
  5
172
330
422
100
AcDbEntity
  8
DIM
  6
Continuous
 62
     7
370
    13
100
AcDbText
 10
28.511219
 20
6.051219
 30
0.0
 40
0.12
  1
MIN.
  7
Style-Arial
 11
28.511219
 21
6.111219
 31
0.0
100
AcDbText
 73
     2
  0
MTEXT
  5
182
330
422
100
AcDbEntity
  8
DIM
  6
Continuous
 62
     7
370
    13
100
AcDbMText
 10
24.437635
 20
6.979214
 30
0.0
 40
0.12
 41
0.0
 71
     4
 72
     1
  1
INITAL\PSAWCUT (     )\POR INSERT\P
  7
Style-Arial
 73
     2
 44
0.779643
  0
TEXT
  5
33A
330
422
100
AcDbEntity
  8
DIM
  6
Continuous
 62
     7
370
    13
100
AcDbText
 10
22.765336
 20
6.449333
 30
0.0
 40
0.12
  1
JOINT
  7
Style-Arial
 11
22.765336
 21
6.509333
 31
0.0
100
AcDbText
 73
     2
  0
TEXT
  5
37B
330
422
100
AcDbEntity
  8
DIM
  6
Continuous
 62
     7
370
    13
100
AcDbText
 10
26.651094
 20
7.071531
 30
0.0
 40
0.12
  1
BUTTED
  7
Style-Arial
 11
26.651094
 21
7.131531
 31
0.0
100
AcDbText
 73
     2
  0
TEXT
  5
37D
330
422
100
AcDbEntity
  8
DIM
  6
Continuous
 62
     7
370
    13
100
AcDbText
 10
26.677927
 20
6.906958
 30
0.0
 40
0.12
  1
JOINT
  7
Style-Arial
 11
26.677927
 21
6.966958
 31
0.0
100
AcDbText
 73
     2
  0
TEXT
  5
37E
330
422
100
AcDbEntity
  8
DIM
  6
Continuous
 62
     7
370
    13
100
AcDbText
 10
26.918021
 20
7.58101
 30
0.0
 40
0.12
  1
SEPARATING
  7
Style-Arial
 11
26.918021
 21
7.64101
 31
0.0
100
AcDbText
 73
     2
  0
TEXT
  5
37F
330
422
100
AcDbEntity
  8
DIM
  6
Continuous
 62
     7
370
    13
100
AcDbText
 10
27.118698
 20
7.445719
 30
0.0
 40
0.12
  1
TAPE
  7
Style-Arial
 11
27.118698
 21
7.505719
 31
0.0
100
AcDbText
 73
     2
  0
TEXT
  5
383
330
422
100
AcDbEntity
  8
DIM
  6
Continuous
 62
     7
370
    13
100
AcDbText
 10
24.6425
 20
7.463156
 30
0.0
 40
0.12
  1
TAPE
  7
Style-Arial
 11
24.6425
 21
7.523156
 31
0.0
100
AcDbText
 73
     2
  0
TEXT
  5
384
330
422
100
AcDbEntity
  8
DIM
  6
Continuous
 62
     7
370
    13
100
AcDbText
 10
24.522125
 20
7.626167
 30
0.0
 40
0.12
  1
SEPARATING
  7
Style-Arial
 11
24.522125
 21
7.686167
 31
0.0
100
AcDbText
 73
     2
  0
TEXT
  5
385
330
422
100
AcDbEntity
  8
DIM
  6
Continuous
 62
     7
370
    13
100
AcDbText
 10
23.408968
 20
6.611668
 30
0.0
 40
0.12
  1
CRACK
  7
Style-Arial
 11
23.408968
 21
6.671668
 31
0.0
100
AcDbText
 73
     2
  0
TEXT
  5
38B
330
422
100
AcDbEntity
  8
DIM
  6
Continuous
 62
     7
370
    13
100
AcDbText
 10
24.478562
 20
7.300177
 30
0.0
 40
0.12
  1
JOINT BOTTOM
  7
Style-Arial
 11
24.478562
 21
7.360177
 31
0.0
100
AcDbText
 73
     2
  0
TEXT
  5
395
330
422
100
AcDbEntity
  8
DIM
  6
Continuous
 62
     7
370
    13
100
AcDbText
 10
26.790842
 20
7.256083
 30
0.0
 40
0.12
  1
JOINT BOTTOM
  7
Style-Arial
 11
26.790842
 21
7.316083
 31
0.0
100
AcDbText
 73
     2
  0
MTEXT
  5
3FD
330
422
100
AcDbEntity
  8
DIM
  6
Continuous
 62
     7
370
    13
100
AcDbMText
 10
25.256668
 20
6.920037
 30
0.0
 40
0.12
 41
0.0
 71
     4
 72
     1
  1
{\A0;\S1#8;}"
  7
Style-Arial
 73
     2
 44
1.382053
  0
TEXT
  5
401
330
422
100
AcDbEntity
  8
DIM
  6
Continuous
 62
     7
370
    13
100
AcDbText
 10
22.657503
 20
6.27821
 30
0.0
 40
0.12
  1
BOTTOM
  7
Style-Arial
 11
22.657503
 21
6.33821
 31
0.0
100
AcDbText
 73
     2
  0
LWPOLYLINE
  5
399
330
422
100
AcDbEntity
  8
DIM
  6
Continuous
 62
     7
370
     0
100
AcDbPolyline
 90
        2
 70
   128
 43
0.0
 10
28.046906
 20
7.368562
 10
28.2725
 20
7.564656
  0
TEXT
  5
75
330
422
100
AcDbEntity
  8
NOTES
  6
Continuous
 62
     7
370
    30
100
AcDbText
 10
26.467177
 20
3.225833
 30
0.0
 40
0.12
  1
MIN 
  7
Style-Arial
 11
26.467177
 21
3.285833
 31
0.0
100
AcDbText
 73
     2
  0
TEXT
  5
402
330
422
100
AcDbEntity
  8
NOTES
  6
Continuous
 62
     7
370
    30
100
AcDbText
 10
27.104255
 20
3.225833
 30
0.0
 40
0.12
  1
MAX
  7
Style-Arial
 11
27.104255
 21
3.285833
 31
0.0
100
AcDbText
 73
     2
  0
TEXT
  5
403
330
422
100
AcDbEntity
  8
NOTES
  6
Continuous
 62
     7
370
    30
100
AcDbText
 10
26.493542
 20
3.010229
 30
0.0
 40
0.12
  1
1/2 
  7
Style-Arial
 11
26.493542
 21
3.070229
 31
0.0
100
AcDbText
 73
     2
  0
TEXT
  5
74
330
422
100
AcDbEntity
  8
NOTES
  6
Continuous
 62
     7
370
    30
100
AcDbText
 10
27.180499
 20
3.010229
 30
0.0
 40
0.12
  1
5/8
  7
Style-Arial
 11
27.180499
 21
3.070229
 31
0.0
100
AcDbText
 73
     2
  0
TEXT
  5
404
330
422
100
AcDbEntity
  8
NOTES
  6
Continuous
 62
     7
370
    30
100
AcDbText
 10
26.50468
 20
2.820896
 30
0.0
 40
0.12
  1
3/4 
  7
Style-Arial
 11
26.50468
 21
2.880896
 31
0.0
100
AcDbText
 73
     2
  0
TEXT
  5
73
330
422
100
AcDbEntity
  8
NOTES
  6
Continuous
 62
     7
370
    30
100
AcDbText
 10
27.146293
 20
2.820896
 30
0.0
 40
0.12
  1
 7/8
  7
Style-Arial
 11
27.146293
 21
2.880896
 31
0.0
100
AcDbText
 73
     2
  0
TEXT
  5
405
330
422
100
AcDbEntity
  8
NOTES
  6
Continuous
 62
     7
370
    30
100
AcDbText
 10
26.504449
 20
2.654677
 30
0.0
 40
0.12
  1
1.0
  7
Style-Arial
 11
26.504449
 21
2.714677
 31
0.0
100
AcDbText
 73
     2
  0
TEXT
  5
72
330
422
100
AcDbEntity
  8
NOTES
  6
Continuous
 62
     7
370
    30
100
AcDbText
 10
27.114322
 20
2.654677
 30
0.0
 40
0.12
  1
1-1/8
  7
Style-Arial
 11
27.114322
 21
2.714677
 31
0.0
100
AcDbText
 73
     2
  0
LINE
  5
409
330
422
100
AcDbEntity
  8
DIM
  6
Continuous
 62
     7
370
     0
100
AcDbLine
 10
23.587141
 20
7.564656
 30
0.0
 11
23.531133
 21
6.772512
 31
0.0
  0
LINE
  5
40A
330
422
100
AcDbEntity
  8
DIM
  6
Continuous
 62
     7
370
     0
100
AcDbLine
 10
23.49951
 20
6.325261
 30
0.0
 11
23.387006
 21
6.325225
 31
0.0
  0
LINE
  5
40B
330
422
100
AcDbEntity
  8
DIM
  6
Continuous
 62
     7
370
     0
100
AcDbLine
 10
23.517884
 20
6.585137
 30
0.0
 11
23.49951
 21
6.325261
 31
0.0
  0
INSERT
  5
40C
330
422
100
AcDbEntity
  8
DIM
  6
Continuous
 62
     7
370
     0
100
AcDbBlockReference
  2
LARROW
 10
23.587142
 20
7.564694
 30
0.0
 41
12.0
 42
12.0
 43
12.0
 50
86.0
  0
ENDSEC
  0
SECTION
  2
OBJECTS
  0
DICTIONARY
  5
416
330
0
100
AcDbDictionary
281
     1
  3
ACAD_COLOR
350
435
  3
ACAD_GROUP
350
432
  3
ACAD_LAYOUT
350
426
  3
ACAD_MATERIAL
350
434
  3
ACAD_MLINESTYLE
350
420
  3
ACAD_PLOTSETTINGS
350
433
  3
ACAD_PLOTSTYLENAME
350
415
  3
ACAD_TABLESTYLE
350
44C
  3
AcadDim
350
442
  3
MicroStation
350
43A
  0
DICTIONARY
  5
412
330
411
100
AcDbDictionary
280
     1
281
     1
  3
ACAD_LAYERFILTERS
360
439
  3
ACAD_LAYERSTATES
360
413
  0
DICTIONARY
  5
448
330
422
100
AcDbDictionary
280
     1
281
     1
  3
ACAD_SORTENTS
360
449
  0
DICTIONARY
  5
435
102
{ACAD_REACTORS
330
416
102
}
330
416
100
AcDbDictionary
281
     1
  0
DICTIONARY
  5
432
102
{ACAD_REACTORS
330
416
102
}
330
416
100
AcDbDictionary
281
     1
  0
DICTIONARY
  5
426
102
{ACAD_REACTORS
330
416
102
}
330
416
100
AcDbDictionary
281
     1
  3
Layout1
350
42A
  3
Model
350
425
  0
DICTIONARY
  5
434
102
{ACAD_REACTORS
330
416
102
}
330
416
100
AcDbDictionary
281
     1
  0
DICTIONARY
  5
420
102
{ACAD_REACTORS
330
416
102
}
330
416
100
AcDbDictionary
281
     1
  3
Standard
350
41F
  0
DICTIONARY
  5
433
102
{ACAD_REACTORS
330
416
102
}
330
416
100
AcDbDictionary
281
     1
  0
ACDBDICTIONARYWDFLT
  5
415
102
{ACAD_REACTORS
330
416
102
}
330
416
100
AcDbDictionary
281
     1
  3
Normal
350
414
100
AcDbDictionaryWithDefault
340
414
  0
DICTIONARY
  5
44C
102
{ACAD_REACTORS
330
416
102
}
330
416
100
AcDbDictionary
281
     1
  0
XRECORD
  5
442
102
{ACAD_REACTORS
330
416
102
}
330
416
100
AcDbXrecord
280
     1
 90
   990106
  3
 
 60
     0
 61
     0
 62
     1
 63
     1
 64
     0
 65
     0
 66
     0
 67
     3
 68
     1
 69
     1
 70
     0
 71
     0
 72
     0
 40
0.0
170
     0
  0
DICTIONARY
  5
43A
102
{ACAD_REACTORS
330
416
102
}
330
416
100
AcDbDictionary
281
     1
  3
ApplicationElement 1010
350
3F2
  3
ApplicationElement 1020
350
3FC
  3
ApplicationElement 1030
350
406
  3
ApplicationElement 1038
350
40E
  3
ModelApplicationElement 0 1009
350
3F1
  0
DICTIONARY
  5
439
102
{ACAD_REACTORS
330
412
102
}
330
412
100
AcDbDictionary
281
     1
  0
DICTIONARY
  5
413
102
{ACAD_REACTORS
330
412
102
}
330
412
100
AcDbDictionary
281
     1
  0
SORTENTSTABLE
  5
449
102
{ACAD_REACTORS
330
448
102
}
330
448
100
AcDbSortentsTable
330
422
331
62
  5
35F
331
63
  5
360
331
64
  5
361
331
65
  5
362
331
66
  5
363
331
67
  5
364
331
68
  5
365
331
69
  5
366
331
6A
  5
62
331
6B
  5
63
331
6C
  5
64
331
6D
  5
65
331
6E
  5
66
331
6F
  5
67
331
70
  5
68
331
71
  5
69
331
72
  5
405
331
73
  5
403
331
74
  5
401
331
75
  5
3A6
331
76
  5
367
331
77
  5
368
331
78
  5
369
331
79
  5
36A
331
7A
  5
36B
331
7B
  5
36C
331
7C
  5
36D
331
7D
  5
36E
331
7E
  5
36F
331
7F
  5
370
331
80
  5
371
331
81
  5
372
331
82
  5
373
331
83
  5
6A
331
84
  5
6B
331
85
  5
6C
331
86
  5
6D
331
87
  5
6E
331
88
  5
6F
331
89
  5
70
331
8A
  5
71
331
8D
  5
374
331
8E
  5
375
331
8F
  5
376
331
90
  5
72
331
91
  5
73
331
92
  5
74
331
93
  5
75
331
94
  5
76
331
95
  5
77
331
96
  5
78
331
97
  5
79
331
98
  5
7A
331
99
  5
7B
331
9A
  5
7C
331
9B
  5
7D
331
9C
  5
7E
331
9D
  5
7F
331
9E
  5
80
331
9F
  5
81
331
A0
  5
82
331
A1
  5
83
331
A2
  5
84
331
A3
  5
85
331
A4
  5
86
331
A5
  5
87
331
A6
  5
88
331
A7
  5
89
331
A8
  5
8A
331
A9
  5
8D
331
AA
  5
8E
331
AB
  5
8F
331
AC
  5
90
331
AD
  5
91
331
AE
  5
92
331
AF
  5
93
331
B0
  5
94
331
B1
  5
95
331
B2
  5
96
331
B3
  5
97
331
B4
  5
98
331
B5
  5
99
331
B6
  5
9A
331
B7
  5
9B
331
B8
  5
9C
331
B9
  5
9D
331
BA
  5
9E
331
BB
  5
9F
331
BC
  5
A0
331
BD
  5
A1
331
BE
  5
A2
331
BF
  5
A3
331
C0
  5
A4
331
C1
  5
A5
331
C2
  5
A6
331
C3
  5
A7
331
C4
  5
A8
331
C5
  5
A9
331
C6
  5
AA
331
C7
  5
AB
331
C8
  5
AC
331
C9
  5
AD
331
CA
  5
AE
331
CB
  5
AF
331
CC
  5
B0
331
CD
  5
B1
331
CE
  5
B2
331
CF
  5
B3
331
D0
  5
B4
331
D1
  5
B5
331
D2
  5
B6
331
D3
  5
B7
331
D4
  5
B8
331
D5
  5
B9
331
D6
  5
BA
331
D7
  5
BB
331
D8
  5
BC
331
D9
  5
BD
331
DA
  5
BE
331
DB
  5
BF
331
DC
  5
C0
331
DD
  5
C1
331
DE
  5
C2
331
DF
  5
C3
331
E0
  5
C4
331
E1
  5
C5
331
E2
  5
C6
331
E3
  5
C7
331
E4
  5
C8
331
E5
  5
C9
331
E6
  5
CA
331
E7
  5
CB
331
E8
  5
377
331
E9
  5
378
331
EA
  5
379
331
EB
  5
37B
331
EC
  5
37C
331
ED
  5
37D
331
EE
  5
CC
331
EF
  5
CD
331
F0
  5
CE
331
F1
  5
CF
331
F2
  5
D0
331
F3
  5
D1
331
F4
  5
37E
331
F7
  5
D2
331
F8
  5
D3
331
FA
  5
D4
331
FB
  5
D5
331
FC
  5
D6
331
FE
  5
D7
331
100
  5
37F
331
103
  5
380
331
107
  5
381
331
10B
  5
383
331
10F
  5
D8
331
111
  5
D9
331
112
  5
DA
331
113
  5
DB
331
114
  5
DC
331
115
  5
DD
331
116
  5
DE
331
117
  5
DF
331
118
  5
E0
331
119
  5
E1
331
11A
  5
E2
331
11B
  5
E3
331
11C
  5
384
331
11D
  5
385
331
11E
  5
E4
331
11F
  5
E5
331
120
  5
E6
331
121
  5
E7
331
122
  5
E8
331
123
  5
E9
331
124
  5
EA
331
125
  5
EB
331
126
  5
EC
331
127
  5
ED
331
128
  5
EE
331
129
  5
EF
331
12A
  5
F0
331
12B
  5
F1
331
12C
  5
F2
331
12D
  5
F3
331
12E
  5
F4
331
12F
  5
F7
331
130
  5
F8
331
131
  5
FA
331
132
  5
FB
331
133
  5
FC
331
134
  5
FE
331
135
  5
100
331
136
  5
103
331
137
  5
107
331
139
  5
10B
331
13B
  5
386
331
13C
  5
10F
331
13D
  5
111
331
13E
  5
112
331
13F
  5
113
331
141
  5
114
331
143
  5
387
331
144
  5
115
331
145
  5
116
331
146
  5
117
331
147
  5
118
331
149
  5
119
331
14B
  5
389
331
14C
  5
11A
331
14D
  5
11B
331
14E
  5
11C
331
14F
  5
38A
331
150
  5
11D
331
151
  5
11E
331
153
  5
11F
331
155
  5
120
331
156
  5
121
331
157
  5
122
331
159
  5
123
331
15B
  5
38B
331
15C
  5
124
331
15D
  5
38C
331
15E
  5
125
331
15F
  5
126
331
161
  5
127
331
163
  5
128
331
164
  5
129
331
165
  5
12A
331
167
  5
12B
331
169
  5
38D
331
16A
  5
12C
331
16B
  5
12D
331
16C
  5
12E
331
16D
  5
12F
331
16F
  5
130
331
171
  5
38E
331
172
  5
390
331
173
  5
131
331
174
  5
132
331
175
  5
133
331
176
  5
134
331
177
  5
135
331
178
  5
136
331
179
  5
137
331
17A
  5
139
331
17B
  5
13B
331
17C
  5
13C
331
17D
  5
13D
331
17E
  5
13E
331
17F
  5
13F
331
180
  5
141
331
181
  5
143
331
182
  5
392
331
187
  5
144
331
188
  5
145
331
189
  5
146
331
18A
  5
147
331
18B
  5
149
331
18C
  5
14B
331
18D
  5
14C
331
18E
  5
14D
331
18F
  5
14E
331
190
  5
14F
331
191
  5
150
331
192
  5
151
331
193
  5
153
331
194
  5
155
331
195
  5
156
331
196
  5
157
331
197
  5
159
331
198
  5
15B
331
199
  5
15C
331
19A
  5
15D
331
19B
  5
15E
331
19C
  5
15F
331
19D
  5
161
331
19E
  5
163
331
19F
  5
164
331
1A0
  5
165
331
1A1
  5
167
331
1A2
  5
169
331
1A3
  5
16A
331
1A4
  5
16B
331
1A5
  5
16C
331
1A6
  5
16D
331
1A7
  5
16F
331
1A8
  5
171
331
1A9
  5
172
331
1AA
  5
173
331
1AB
  5
174
331
1AC
  5
175
331
1AD
  5
176
331
1AE
  5
177
331
1AF
  5
178
331
1B0
  5
179
331
1B1
  5
17A
331
1B2
  5
17B
331
1B3
  5
17C
331
1B4
  5
17D
331
1B5
  5
17E
331
1B6
  5
17F
331
1B7
  5
180
331
1B8
  5
181
331
1B9
  5
182
331
1BA
  5
187
331
1BB
  5
188
331
1BC
  5
189
331
1BD
  5
18A
331
1BE
  5
18B
331
1BF
  5
18C
331
1C0
  5
18D
331
1C1
  5
18E
331
1C2
  5
18F
331
1C3
  5
190
331
1C4
  5
191
331
1C5
  5
192
331
1C6
  5
193
331
1C7
  5
194
331
1C8
  5
195
331
1C9
  5
196
331
1CA
  5
197
331
1CB
  5
198
331
1CC
  5
199
331
1CD
  5
19A
331
1CE
  5
19B
331
1CF
  5
19C
331
1D0
  5
19D
331
1D1
  5
19E
331
1D2
  5
19F
331
1D3
  5
1A0
331
1D4
  5
1A1
331
1D5
  5
1A2
331
1D6
  5
1A3
331
1D7
  5
1A4
331
1D8
  5
1A5
331
1D9
  5
1A6
331
1DA
  5
1A7
331
1DB
  5
1A8
331
1DC
  5
1A9
331
1DD
  5
1AA
331
1DE
  5
1AB
331
1DF
  5
1AC
331
1E0
  5
1AD
331
1E1
  5
1AE
331
1E2
  5
1AF
331
1E3
  5
1B0
331
1E4
  5
1B1
331
1E5
  5
1B2
331
1E6
  5
1B3
331
1E7
  5
1B4
331
1E8
  5
1B5
331
1E9
  5
1B6
331
1EA
  5
1B7
331
1EB
  5
1B8
331
1EC
  5
1B9
331
1ED
  5
1BA
331
1EE
  5
1BB
331
1EF
  5
1BC
331
1F0
  5
1BD
331
1F1
  5
1BE
331
1F2
  5
1BF
331
1F3
  5
1C0
331
1F4
  5
1C1
331
1F5
  5
1C2
331
1F6
  5
1C3
331
1F7
  5
1C4
331
1F8
  5
1C5
331
1F9
  5
1C6
331
1FA
  5
1C7
331
1FB
  5
1C8
331
1FC
  5
1C9
331
1FD
  5
1CA
331
1FE
  5
1CB
331
1FF
  5
1CC
331
200
  5
1CD
331
201
  5
1CE
331
202
  5
1CF
331
203
  5
1D0
331
204
  5
1D1
331
205
  5
1D2
331
206
  5
1D3
331
207
  5
1D4
331
208
  5
1D5
331
209
  5
1D6
331
20A
  5
1D7
331
20B
  5
1D8
331
20C
  5
1D9
331
20D
  5
1DA
331
20E
  5
1DB
331
20F
  5
1DC
331
210
  5
1DD
331
211
  5
1DE
331
212
  5
1DF
331
213
  5
1E0
331
214
  5
1E1
331
215
  5
1E2
331
216
  5
1E3
331
217
  5
1E4
331
218
  5
1E5
331
219
  5
1E6
331
21A
  5
1E7
331
21B
  5
1E8
331
21C
  5
1E9
331
21D
  5
1EA
331
21E
  5
1EB
331
21F
  5
1EC
331
220
  5
1ED
331
221
  5
1EE
331
222
  5
1EF
331
223
  5
1F0
331
224
  5
1F1
331
225
  5
1F2
331
226
  5
1F3
331
227
  5
1F4
331
228
  5
1F5
331
229
  5
1F6
331
22A
  5
1F7
331
22B
  5
1F8
331
22C
  5
1F9
331
22D
  5
1FA
331
22E
  5
1FB
331
22F
  5
1FC
331
230
  5
1FD
331
231
  5
1FE
331
232
  5
1FF
331
233
  5
200
331
234
  5
201
331
235
  5
202
331
236
  5
203
331
237
  5
204
331
238
  5
205
331
239
  5
206
331
23A
  5
207
331
23B
  5
208
331
23C
  5
209
331
23D
  5
20A
331
23E
  5
20B
331
23F
  5
20C
331
240
  5
20D
331
241
  5
20E
331
242
  5
20F
331
243
  5
210
331
244
  5
211
331
245
  5
212
331
246
  5
213
331
247
  5
214
331
248
  5
215
331
249
  5
216
331
24A
  5
217
331
24B
  5
218
331
24C
  5
219
331
24D
  5
21A
331
24E
  5
21B
331
24F
  5
21C
331
250
  5
21D
331
251
  5
21E
331
252
  5
21F
331
253
  5
220
331
254
  5
221
331
255
  5
222
331
256
  5
223
331
257
  5
224
331
258
  5
225
331
259
  5
226
331
25A
  5
227
331
25B
  5
228
331
25C
  5
229
331
25D
  5
22A
331
25E
  5
22B
331
25F
  5
22C
331
260
  5
22D
331
261
  5
22E
331
262
  5
22F
331
263
  5
230
331
264
  5
231
331
265
  5
232
331
266
  5
233
331
267
  5
234
331
268
  5
235
331
269
  5
236
331
26A
  5
237
331
26B
  5
238
331
26C
  5
239
331
26D
  5
23A
331
26E
  5
23B
331
26F
  5
23C
331
270
  5
23D
331
271
  5
23E
331
272
  5
23F
331
273
  5
240
331
274
  5
241
331
275
  5
242
331
276
  5
243
331
277
  5
244
331
278
  5
245
331
279
  5
246
331
27A
  5
247
331
27B
  5
248
331
27C
  5
249
331
27D
  5
24A
331
27E
  5
24B
331
27F
  5
24C
331
280
  5
24D
331
281
  5
24E
331
282
  5
24F
331
283
  5
250
331
284
  5
251
331
285
  5
252
331
286
  5
253
331
287
  5
254
331
288
  5
255
331
289
  5
256
331
28A
  5
257
331
28B
  5
258
331
28C
  5
259
331
28D
  5
25A
331
28E
  5
25B
331
28F
  5
25C
331
290
  5
25D
331
291
  5
25E
331
292
  5
25F
331
293
  5
260
331
294
  5
261
331
295
  5
262
331
296
  5
263
331
297
  5
264
331
298
  5
265
331
299
  5
266
331
29A
  5
267
331
29B
  5
268
331
29C
  5
269
331
29D
  5
26A
331
29E
  5
26B
331
29F
  5
26C
331
2A0
  5
26D
331
2A1
  5
26E
331
2A2
  5
26F
331
2A3
  5
270
331
2A4
  5
271
331
2A5
  5
272
331
2A6
  5
273
331
2A7
  5
274
331
2A8
  5
275
331
2A9
  5
276
331
2AA
  5
277
331
2AB
  5
278
331
2AC
  5
279
331
2AD
  5
27A
331
2AE
  5
27B
331
2AF
  5
27C
331
2B0
  5
27D
331
2B1
  5
27E
331
2B2
  5
27F
331
2B3
  5
280
331
2B4
  5
281
331
2B5
  5
282
331
2B6
  5
283
331
2B7
  5
284
331
2B8
  5
285
331
2B9
  5
286
331
2BA
  5
287
331
2BB
  5
288
331
2BC
  5
289
331
2BD
  5
28A
331
2BE
  5
28B
331
2BF
  5
28C
331
2C0
  5
28D
331
2C1
  5
28E
331
2C2
  5
28F
331
2C3
  5
290
331
2C4
  5
291
331
2C5
  5
292
331
2C6
  5
293
331
2C7
  5
294
331
2C8
  5
295
331
2C9
  5
296
331
2CA
  5
297
331
2CB
  5
298
331
2CC
  5
299
331
2CD
  5
29A
331
2CE
  5
29B
331
2CF
  5
29C
331
2D0
  5
29D
331
2D1
  5
29E
331
2D2
  5
29F
331
2D3
  5
2A0
331
2D4
  5
2A1
331
2D5
  5
2A2
331
2D6
  5
2A3
331
2D7
  5
2A4
331
2D8
  5
2A5
331
2D9
  5
2A6
331
2DA
  5
2A7
331
2DB
  5
2A8
331
2DC
  5
2A9
331
2DD
  5
2AA
331
2DE
  5
2AB
331
2DF
  5
2AC
331
2E0
  5
2AD
331
2E1
  5
2AE
331
2E2
  5
2AF
331
2E3
  5
2B0
331
2E4
  5
2B1
331
2E5
  5
2B2
331
2E6
  5
2B3
331
2E7
  5
2B4
331
2E8
  5
2B5
331
2E9
  5
2B6
331
2EA
  5
2B7
331
2EB
  5
2B8
331
2EC
  5
2B9
331
2ED
  5
2BA
331
2EE
  5
2BB
331
2EF
  5
2BC
331
2F0
  5
2BD
331
2F1
  5
2BE
331
2F2
  5
2BF
331
2F3
  5
2C0
331
2F4
  5
2C1
331
2F5
  5
2C2
331
2F6
  5
2C3
331
2F7
  5
2C4
331
2F8
  5
2C5
331
2F9
  5
2C6
331
2FA
  5
2C7
331
2FB
  5
2C8
331
2FC
  5
2C9
331
2FD
  5
2CA
331
2FE
  5
2CB
331
2FF
  5
2CC
331
300
  5
2CD
331
301
  5
2CE
331
302
  5
2CF
331
303
  5
2D0
331
304
  5
2D1
331
305
  5
2D2
331
306
  5
2D3
331
307
  5
2D4
331
308
  5
2D5
331
309
  5
2D6
331
30A
  5
2D7
331
30B
  5
2D8
331
30C
  5
2D9
331
30D
  5
2DA
331
30E
  5
2DB
331
30F
  5
2DC
331
310
  5
2DD
331
311
  5
2DE
331
312
  5
2DF
331
313
  5
2E0
331
314
  5
2E1
331
315
  5
2E2
331
316
  5
2E3
331
317
  5
2E4
331
318
  5
2E5
331
319
  5
2E6
331
31A
  5
2E7
331
31B
  5
2E8
331
31C
  5
2E9
331
31D
  5
2EA
331
31E
  5
2EB
331
31F
  5
2EC
331
320
  5
2ED
331
321
  5
2EE
331
322
  5
2EF
331
323
  5
2F0
331
324
  5
2F1
331
325
  5
2F2
331
326
  5
2F3
331
327
  5
2F4
331
328
  5
2F5
331
329
  5
2F6
331
32A
  5
2F7
331
32B
  5
2F8
331
32C
  5
2F9
331
32D
  5
2FA
331
32E
  5
2FB
331
32F
  5
2FC
331
330
  5
2FD
331
331
  5
2FE
331
332
  5
2FF
331
333
  5
300
331
334
  5
301
331
335
  5
302
331
336
  5
303
331
337
  5
304
331
338
  5
305
331
339
  5
306
331
33A
  5
394
331
33C
  5
307
331
33D
  5
308
331
33E
  5
309
331
33F
  5
30A
331
340
  5
30B
331
341
  5
30C
331
342
  5
30D
331
343
  5
30E
331
344
  5
30F
331
345
  5
310
331
346
  5
311
331
347
  5
312
331
348
  5
313
331
349
  5
314
331
34A
  5
315
331
34B
  5
316
331
34C
  5
317
331
34D
  5
318
331
34E
  5
319
331
34F
  5
31A
331
350
  5
31B
331
351
  5
31C
331
352
  5
31D
331
353
  5
31E
331
354
  5
31F
331
355
  5
320
331
356
  5
321
331
357
  5
322
331
358
  5
323
331
359
  5
324
331
35A
  5
325
331
35B
  5
326
331
35C
  5
327
331
35D
  5
328
331
35E
  5
329
331
35F
  5
32A
331
360
  5
32B
331
361
  5
32C
331
362
  5
32D
331
363
  5
32E
331
364
  5
32F
331
365
  5
330
331
366
  5
331
331
367
  5
332
331
368
  5
333
331
369
  5
334
331
36A
  5
335
331
36B
  5
336
331
36C
  5
337
331
36D
  5
338
331
36E
  5
339
331
36F
  5
33A
331
370
  5
33C
331
371
  5
33D
331
372
  5
33E
331
373
  5
33F
331
374
  5
340
331
375
  5
341
331
376
  5
342
331
377
  5
343
331
378
  5
344
331
379
  5
345
331
37B
  5
395
331
37C
  5
346
331
37D
  5
396
331
37E
  5
397
331
37F
  5
398
331
380
  5
347
331
381
  5
348
331
383
  5
399
331
384
  5
39A
331
385
  5
39B
331
386
  5
349
331
387
  5
34A
331
389
  5
34B
331
38A
  5
34C
331
38B
  5
39D
331
38C
  5
34D
331
38D
  5
34E
331
38E
  5
34F
331
390
  5
350
331
392
  5
351
331
394
  5
352
331
395
  5
39F
331
396
  5
353
331
397
  5
354
331
398
  5
355
331
399
  5
3A5
331
39A
  5
356
331
39B
  5
357
331
39D
  5
358
331
39F
  5
359
331
3A1
  5
35A
331
3A3
  5
35B
331
3A5
  5
35C
331
3A6
  5
35D
331
3A7
  5
35E
331
3FD
  5
3A1
331
401
  5
3A3
331
402
  5
3A7
331
403
  5
3FD
331
404
  5
402
331
405
  5
404
  0
LAYOUT
  5
42A
102
{ACAD_REACTORS
330
426
330
426
102
}
102
{ACAD_XDICTIONARY
360
42B
102
}
330
426
100
AcDbPlotSettings
  1

  2
none_device
  4
Letter_(8.50_x_11.00_Inches)
  6

 40
6.35
 41
6.35
 42
6.350006
 43
6.350006
 44
215.899994
 45
279.399994
 46
0.0
 47
0.0
 48
0.0
 49
0.0
140
0.0
141
0.0
142
1.0
143
1.0
 70
   688
 72
     0
 73
     1
 74
     5
  7

 75
    16
 76
     0
 77
     2
 78
   300
147
1.0
148
0.0
149
0.0
100
AcDbLayout
  1
Layout1
 70
     1
 71
     1
 10
-0.25
 20
-0.25
 11
10.75
 21
8.25
 12
0.0
 22
0.0
 32
0.0
 14
1.049744
 24
0.799667
 34
-0.001526
 15
9.450623
 25
7.200577
 35
0.0
146
0.0
 13
0.0
 23
0.0
 33
0.0
 16
1.0
 26
0.0
 36
0.0
 17
0.0
 27
1.0
 37
0.0
 76
     0
330
427
1001
ACAD_PSEXT
1000
None
1000
None
1000
Not applicable
1000
The layout will not be plotted unless a new plotter configuration name is selected.
1070
     0
  0
LAYOUT
  5
425
102
{ACAD_REACTORS
330
426
330
426
102
}
330
426
100
AcDbPlotSettings
  1

  2
none_device
  4
ANSI_A_(8.50_x_11.00_Inches)
  6

 40
6.35
 41
19.049999
 42
6.350006
 43
19.049988
 44
215.899994
 45
279.399994
 46
0.0
 47
0.0
 48
0.0
 49
0.0
140
0.0
141
0.0
142
1.0
143
2.584895
 70
 11952
 72
     0
 73
     1
 74
     0
  7

 75
     0
 76
     0
 77
     2
 78
   300
147
0.386863
148
0.0
149
0.0
100
AcDbLayout
  1
Model
 70
     1
 71
     0
 10
0.0
 20
0.0
 11
12.0
 21
9.0
 12
0.0
 22
0.0
 32
0.0
 14
0.0
 24
0.0
 34
0.0
 15
0.0
 25
0.0
 35
0.0
146
0.0
 13
0.0
 23
0.0
 33
0.0
 16
1.0
 26
0.0
 36
0.0
 17
0.0
 27
1.0
 37
0.0
 76
     0
330
422
331
49
  0
MLINESTYLE
  5
41F
102
{ACAD_REACTORS
330
420
102
}
330
420
100
AcDbMlineStyle
  2
STANDARD
 70
     0
  3

 62
   256
 51
90.0
 52
90.0
 71
     2
 49
0.5
 62
   256
  6
BYLAYER
 49
-0.5
 62
   256
  6
BYLAYER
  0
ACDBPLACEHOLDER
  5
414
102
{ACAD_REACTORS
330
415
102
}
330
415
  0
XRECORD
  5
3F2
102
{ACAD_REACTORS
330
43A
102
}
330
43A
100
AcDbXrecord
280
     1
310
3E4F020000004D6F64656C6572000000000000000000000000000000000000000000000000000000000000000000000000000000000000000000000000000000000000000000000000000000000000000000000000000000000000000000000000000000000000000000000000000000000000000000000000000000000000
310
00000000000000000000000000000000000000000000000000000000000000000000000000000000000000000000000000000000000000000000000000000000000000000000000000000000000000000000000000000000000000000000000000000000000000000000000000000000000000000000000000000000000000
310
00
310
00000000000000000000000000000000000000000000000000000000000000000000000000000000000000000000000000000000000000000000000000000000000000000000000000000000000000000000000000000000000000000000000000000000000000000000000000000000000000000000000000000000000000
310
00000000000000000000000000000000000000000000000000000000000000000000000000000000000000000000000000000000000000000000000000000000000000000000000000000000000000000000000000000000000000000000000000000000000000000000000000000000000000000000000000000000000000
310
00
310
00000000000000000000000000000000000000000000000000000000000000000000000000000000000000000000000000000000000000000000000000000000000000000000000000000000000000000000000000000000000000000000000000000000000000000000000000000000000000000000000000000000000000
310
00000000000000000000000000000000000000000000000000000000000000000000000000000000000000000000000000000000000000000000000000000000000000000000000000000000000000000000000000000000000000000000000000000000000000000000000000000000000000000000000000000000000000
310
00
310
00000000000000000000000000000000000000000000000000000000000000000000000000000000000000000000000000000000000000000000000000000000000000000000000000000000000000000000000000000000000000000000000000000000000000000000000000000000000000000000000000000000000000
310
00000000000000000000000000000000000000000000000000000000000000000000000000000000000000000000000000000000000000000000000000000000000000000000000000000000000000000000000000000000000000000000000000000000000000000000000000000000000000000000000000000000000000
310
00
310
00000000000000000000000000000000000000000000000000000000000000000000000000000000000000000000000000000000000000000000000000000000000000000000000000000000000000000000000000000000000000000000000000000000000000000000000000000000000000000000000000000000000000
310
00000000000000000000000000000000000000000000000000000000000000000000000000000000000000000000000000000000000000000000000000000000000000000000000000000000000000000000000000000000000000000000000000000000000000000000000000000000000000000000000000000000000000
310
00
310
00000000000000000000000000000000000000000000000000000000000000000000000000000000000000000000000000000000000000000000000000000000000000000000000000000000000000000000000000000000000000000000000000000000000000000000000000000000000000000000000000000000000000
310
00000000000000000000000000000000000000000000000000000000000000000000000000000000000000000000000000000000000000000000000000000000000000000000000000000000000000000000000000000000000000000000000000000000000000000000000000000000000000000000000000000000000000
310
00
310
00000000000000000000000000000000000000000000000000000000000000000000000000000000000000000000000000000000000000000000000000000000000000000000000000000000000000000000000000000000000000000000000000000000000000000000000000000000000000000000000000000000000000
310
00000000000000000000000000000000000000000000000000000000000000000000000000000000000000000000000000000000000000000000000000000000000000000000000000000000000000000000000000000000000000000000000000000000000000000000000000000000000000000000000000000000000000
310
00
310
00000000000000000000000000000000000000000000000000000000000000000000000000000000000000000000000000000000000000000000000000000000000000000000000000000000000000000000000000000000000000000000000000000000000000000000000000000000000000000000000000000000000000
310
00000000000000000000000000000000000000000000000000000000000000000000000000000000000000000000000000000000000000000000000000000000000000000000000000000000000000000000000000000000000000000000000000000000000000000000000000000000000000000000000000000000000000
310
00
310
00000000000000000000000000000000000000000000000000000000000000000000000000000000000000000000000000000000000000000000000000000000000000000000000000000000000000000000000000000000000000000000000000000000000000000000000000000000000000000000000000000000000000
310
00000000000000000000000000000000000000000000000000000000000000000000000000000000000000000000000000000000000000000000000000000000000000000000000000000000000000000000000000000000000000000000000000000000000000000000000000000000000000000000000000000000000000
310
00
310
00000000000000000000000000000000000000000000000000000000000000000000000000000000000000000000000000000000000000000000000000000000000000000000000000000000000000000000000000000000000000000000000000000000000000000000000000000000000000000000000000000000000000
310
00000000000000000000000000000000000000000000000000000000000000000000000000000000000000000000000000000000000000000000000000000000000000000000000000000000000000000000000000000000000000000000000000000000000000000000000000000000000000000000000000000000000000
310
00
310
00000000000000000000000000000000000000000000000000000000000000000000000000000000000000000000000000000000000000000000000000000000000000000000000000000000000000000000000000000000000000000000000000000000000000000000000000000000000000000000000000000000000000
310
00000000000000000000000000000000000000000000000000000000000000000000000000000000000000000000000000000000000000000000000000000000000000000000000000000000000000000000000000000000000000000000000000000000000000000000000000000000000000000000000000000000000000
310
00
310
00000000000000000000000000000000000000000000000000000000000000000000000000000000000000000000000000000000000000000000000000000000000000000000000000000000000000000000000000000000000000000000000000000000000000000000000000000000000000000000000000000000000000
310
00000000000000000000000000000000000000000000000000000000000000000000000000000000000000000000000000000000000000000000000000000000000000000000000000000000000000000000000000000000000000000000000000000000000000000000000000000000000000000000000000000000000000
310
00
310
00000000000000000000000000000000000000000000000000000000000000000000000000000000000000000000000000000000000000000000000000000000000000000000000000000000000000000000000000000000000000000000000000000000000000000000000000000000000000000000000000000000000000
310
00000000000000000000000000000000000000000000000000000000000000000000000000000000000000000000000000000000000000000000000000000000000000000000000000000000000000000000000000000000000000000000000000000000000000000000000000000000000000000000000000000000000000
310
00
310
00000000000000000000000000000000000000000000000000000000000000000000000000000000000000000000000000000000000000000000000000000000000000000000000000000000000000000000000000000000000000000000000000000000000000000000000000000000000000
  0
XRECORD
  5
3FC
102
{ACAD_REACTORS
330
43A
102
}
330
43A
100
AcDbXrecord
280
     1
310
3E4F020000004D6F64656C6572000000000000000000000000000000000000000000000000000000000000000000000000000000000000000000000000000000000000000000000000000000000000000000000000000000000000000000000000000000000000000000000000000000000000000000000000000000000000
310
00000000000000000000000000000000000000000000000000000000000000000000000000000000000000000000000000000000000000000000000000000000000000000000000000000000000000000000000000000000000000000000000000000000000000000000000000000000000000000000000000000000000000
310
00
310
00000000000000000000000000000000000000000000000000000000000000000000000000000000000000000000000000000000000000000000000000000000000000000000000000000000000000000000000000000000000000000000000000000000000000000000000000000000000000000000000000000000000000
310
00000000000000000000000000000000000000000000000000000000000000000000000000000000000000000000000000000000000000000000000000000000000000000000000000000000000000000000000000000000000000000000000000000000000000000000000000000000000000000000000000000000000000
310
00
310
00000000000000000000000000000000000000000000000000000000000000000000000000000000000000000000000000000000000000000000000000000000000000000000000000000000000000000000000000000000000000000000000000000000000000000000000000000000000000000000000000000000000000
310
00000000000000000000000000000000000000000000000000000000000000000000000000000000000000000000000000000000000000000000000000000000000000000000000000000000000000000000000000000000000000000000000000000000000000000000000000000000000000000000000000000000000000
310
00
310
00000000000000000000000000000000000000000000000000000000000000000000000000000000000000000000000000000000000000000000000000000000000000000000000000000000000000000000000000000000000000000000000000000000000000000000000000000000000000000000000000000000000000
310
00000000000000000000000000000000000000000000000000000000000000000000000000000000000000000000000000000000000000000000000000000000000000000000000000000000000000000000000000000000000000000000000000000000000000000000000000000000000000000000000000000000000000
310
00
310
00000000000000000000000000000000000000000000000000000000000000000000000000000000000000000000000000000000000000000000000000000000000000000000000000000000000000000000000000000000000000000000000000000000000000000000000000000000000000000000000000000000000000
310
00000000000000000000000000000000000000000000000000000000000000000000000000000000000000000000000000000000000000000000000000000000000000000000000000000000000000000000000000000000000000000000000000000000000000000000000000000000000000000000000000000000000000
310
00
310
00000000000000000000000000000000000000000000000000000000000000000000000000000000000000000000000000000000000000000000000000000000000000000000000000000000000000000000000000000000000000000000000000000000000000000000000000000000000000000000000000000000000000
310
00000000000000000000000000000000000000000000000000000000000000000000000000000000000000000000000000000000000000000000000000000000000000000000000000000000000000000000000000000000000000000000000000000000000000000000000000000000000000000000000000000000000000
310
00
310
00000000000000000000000000000000000000000000000000000000000000000000000000000000000000000000000000000000000000000000000000000000000000000000000000000000000000000000000000000000000000000000000000000000000000000000000000000000000000000000000000000000000000
310
00000000000000000000000000000000000000000000000000000000000000000000000000000000000000000000000000000000000000000000000000000000000000000000000000000000000000000000000000000000000000000000000000000000000000000000000000000000000000000000000000000000000000
310
00
310
00000000000000000000000000000000000000000000000000000000000000000000000000000000000000000000000000000000000000000000000000000000000000000000000000000000000000000000000000000000000000000000000000000000000000000000000000000000000000000000000000000000000000
310
00000000000000000000000000000000000000000000000000000000000000000000000000000000000000000000000000000000000000000000000000000000000000000000000000000000000000000000000000000000000000000000000000000000000000000000000000000000000000000000000000000000000000
310
00
310
00000000000000000000000000000000000000000000000000000000000000000000000000000000000000000000000000000000000000000000000000000000000000000000000000000000000000000000000000000000000000000000000000000000000000000000000000000000000000000000000000000000000000
310
00000000000000000000000000000000000000000000000000000000000000000000000000000000000000000000000000000000000000000000000000000000000000000000000000000000000000000000000000000000000000000000000000000000000000000000000000000000000000000000000000000000000000
310
00
310
00000000000000000000000000000000000000000000000000000000000000000000000000000000000000000000000000000000000000000000000000000000000000000000000000000000000000000000000000000000000000000000000000000000000000000000000000000000000000000000000000000000000000
310
00000000000000000000000000000000000000000000000000000000000000000000000000000000000000000000000000000000000000000000000000000000000000000000000000000000000000000000000000000000000000000000000000000000000000000000000000000000000000000000000000000000000000
310
00
310
00000000000000000000000000000000000000000000000000000000000000000000000000000000000000000000000000000000000000000000000000000000000000000000000000000000000000000000000000000000000000000000000000000000000000000000000000000000000000000000000000000000000000
310
00000000000000000000000000000000000000000000000000000000000000000000000000000000000000000000000000000000000000000000000000000000000000000000000000000000000000000000000000000000000000000000000000000000000000000000000000000000000000000000000000000000000000
310
00
310
00000000000000000000000000000000000000000000000000000000000000000000000000000000000000000000000000000000000000000000000000000000000000000000000000000000000000000000000000000000000000000000000000000000000000000000000000000000000000000000000000000000000000
310
00000000000000000000000000000000000000000000000000000000000000000000000000000000000000000000000000000000000000000000000000000000000000000000000000000000000000000000000000000000000000000000000000000000000000000000000000000000000000000000000000000000000000
310
00
310
00000000000000000000000000000000000000000000000000000000000000000000000000000000000000000000000000000000000000000000000000000000000000000000000000000000000000000000000000000000000000000000000000000000000000000000000000000000000000000000000000000000000000
310
00000000000000000000000000000000000000000000000000000000000000000000000000000000000000000000000000000000000000000000000000000000000000000000000000000000000000000000000000000000000000000000000000000000000000000000000000000000000000000000000000000000000000
310
00
310
00000000000000000000000000000000000000000000000000000000000000000000000000000000000000000000000000000000000000000000000000000000000000000000000000000000000000000000000000000000000000000000000000000000000000000000000000000000000000
  0
XRECORD
  5
406
102
{ACAD_REACTORS
330
43A
102
}
330
43A
100
AcDbXrecord
280
     1
310
3E4F020000004D6F64656C6572000000000000000000000000000000000000000000000000000000000000000000000000000000000000000000000000000000000000000000000000000000000000000000000000000000000000000000000000000000000000000000000000000000000000000000000000000000000000
310
00000000000000000000000000000000000000000000000000000000000000000000000000000000000000000000000000000000000000000000000000000000000000000000000000000000000000000000000000000000000000000000000000000000000000000000000000000000000000000000000000000000000000
310
00
310
00000000000000000000000000000000000000000000000000000000000000000000000000000000000000000000000000000000000000000000000000000000000000000000000000000000000000000000000000000000000000000000000000000000000000000000000000000000000000000000000000000000000000
310
00000000000000000000000000000000000000000000000000000000000000000000000000000000000000000000000000000000000000000000000000000000000000000000000000000000000000000000000000000000000000000000000000000000000000000000000000000000000000000000000000000000000000
310
00
310
00000000000000000000000000000000000000000000000000000000000000000000000000000000000000000000000000000000000000000000000000000000000000000000000000000000000000000000000000000000000000000000000000000000000000000000000000000000000000000000000000000000000000
310
00000000000000000000000000000000000000000000000000000000000000000000000000000000000000000000000000000000000000000000000000000000000000000000000000000000000000000000000000000000000000000000000000000000000000000000000000000000000000000000000000000000000000
310
00
310
00000000000000000000000000000000000000000000000000000000000000000000000000000000000000000000000000000000000000000000000000000000000000000000000000000000000000000000000000000000000000000000000000000000000000000000000000000000000000000000000000000000000000
310
00000000000000000000000000000000000000000000000000000000000000000000000000000000000000000000000000000000000000000000000000000000000000000000000000000000000000000000000000000000000000000000000000000000000000000000000000000000000000000000000000000000000000
310
00
310
00000000000000000000000000000000000000000000000000000000000000000000000000000000000000000000000000000000000000000000000000000000000000000000000000000000000000000000000000000000000000000000000000000000000000000000000000000000000000000000000000000000000000
310
00000000000000000000000000000000000000000000000000000000000000000000000000000000000000000000000000000000000000000000000000000000000000000000000000000000000000000000000000000000000000000000000000000000000000000000000000000000000000000000000000000000000000
310
00
310
00000000000000000000000000000000000000000000000000000000000000000000000000000000000000000000000000000000000000000000000000000000000000000000000000000000000000000000000000000000000000000000000000000000000000000000000000000000000000000000000000000000000000
310
00000000000000000000000000000000000000000000000000000000000000000000000000000000000000000000000000000000000000000000000000000000000000000000000000000000000000000000000000000000000000000000000000000000000000000000000000000000000000000000000000000000000000
310
00
310
00000000000000000000000000000000000000000000000000000000000000000000000000000000000000000000000000000000000000000000000000000000000000000000000000000000000000000000000000000000000000000000000000000000000000000000000000000000000000000000000000000000000000
310
00000000000000000000000000000000000000000000000000000000000000000000000000000000000000000000000000000000000000000000000000000000000000000000000000000000000000000000000000000000000000000000000000000000000000000000000000000000000000000000000000000000000000
310
00
310
00000000000000000000000000000000000000000000000000000000000000000000000000000000000000000000000000000000000000000000000000000000000000000000000000000000000000000000000000000000000000000000000000000000000000000000000000000000000000000000000000000000000000
310
00000000000000000000000000000000000000000000000000000000000000000000000000000000000000000000000000000000000000000000000000000000000000000000000000000000000000000000000000000000000000000000000000000000000000000000000000000000000000000000000000000000000000
310
00
310
00000000000000000000000000000000000000000000000000000000000000000000000000000000000000000000000000000000000000000000000000000000000000000000000000000000000000000000000000000000000000000000000000000000000000000000000000000000000000000000000000000000000000
310
00000000000000000000000000000000000000000000000000000000000000000000000000000000000000000000000000000000000000000000000000000000000000000000000000000000000000000000000000000000000000000000000000000000000000000000000000000000000000000000000000000000000000
310
00
310
00000000000000000000000000000000000000000000000000000000000000000000000000000000000000000000000000000000000000000000000000000000000000000000000000000000000000000000000000000000000000000000000000000000000000000000000000000000000000000000000000000000000000
310
00000000000000000000000000000000000000000000000000000000000000000000000000000000000000000000000000000000000000000000000000000000000000000000000000000000000000000000000000000000000000000000000000000000000000000000000000000000000000000000000000000000000000
310
00
310
00000000000000000000000000000000000000000000000000000000000000000000000000000000000000000000000000000000000000000000000000000000000000000000000000000000000000000000000000000000000000000000000000000000000000000000000000000000000000000000000000000000000000
310
00000000000000000000000000000000000000000000000000000000000000000000000000000000000000000000000000000000000000000000000000000000000000000000000000000000000000000000000000000000000000000000000000000000000000000000000000000000000000000000000000000000000000
310
00
310
00000000000000000000000000000000000000000000000000000000000000000000000000000000000000000000000000000000000000000000000000000000000000000000000000000000000000000000000000000000000000000000000000000000000000000000000000000000000000000000000000000000000000
310
00000000000000000000000000000000000000000000000000000000000000000000000000000000000000000000000000000000000000000000000000000000000000000000000000000000000000000000000000000000000000000000000000000000000000000000000000000000000000000000000000000000000000
310
00
310
00000000000000000000000000000000000000000000000000000000000000000000000000000000000000000000000000000000000000000000000000000000000000000000000000000000000000000000000000000000000000000000000000000000000000000000000000000000000000000000000000000000000000
310
00000000000000000000000000000000000000000000000000000000000000000000000000000000000000000000000000000000000000000000000000000000000000000000000000000000000000000000000000000000000000000000000000000000000000000000000000000000000000000000000000000000000000
310
00
310
00000000000000000000000000000000000000000000000000000000000000000000000000000000000000000000000000000000000000000000000000000000000000000000000000000000000000000000000000000000000000000000000000000000000000000000000000000000000000
  0
XRECORD
  5
40E
102
{ACAD_REACTORS
330
43A
102
}
330
43A
100
AcDbXrecord
280
     1
310
3E4F020000004D6F64656C6572000000000000000000000000000000000000000000000000000000000000000000000000000000000000000000000000000000000000000000000000000000000000000000000000000000000000000000000000000000000000000000000000000000000000000000000000000000000000
310
00000000000000000000000000000000000000000000000000000000000000000000000000000000000000000000000000000000000000000000000000000000000000000000000000000000000000000000000000000000000000000000000000000000000000000000000000000000000000000000000000000000000000
310
00
310
00000000000000000000000000000000000000000000000000000000000000000000000000000000000000000000000000000000000000000000000000000000000000000000000000000000000000000000000000000000000000000000000000000000000000000000000000000000000000000000000000000000000000
310
00000000000000000000000000000000000000000000000000000000000000000000000000000000000000000000000000000000000000000000000000000000000000000000000000000000000000000000000000000000000000000000000000000000000000000000000000000000000000000000000000000000000000
310
00
310
00000000000000000000000000000000000000000000000000000000000000000000000000000000000000000000000000000000000000000000000000000000000000000000000000000000000000000000000000000000000000000000000000000000000000000000000000000000000000000000000000000000000000
310
00000000000000000000000000000000000000000000000000000000000000000000000000000000000000000000000000000000000000000000000000000000000000000000000000000000000000000000000000000000000000000000000000000000000000000000000000000000000000000000000000000000000000
310
00
310
00000000000000000000000000000000000000000000000000000000000000000000000000000000000000000000000000000000000000000000000000000000000000000000000000000000000000000000000000000000000000000000000000000000000000000000000000000000000000000000000000000000000000
310
00000000000000000000000000000000000000000000000000000000000000000000000000000000000000000000000000000000000000000000000000000000000000000000000000000000000000000000000000000000000000000000000000000000000000000000000000000000000000000000000000000000000000
310
00
310
00000000000000000000000000000000000000000000000000000000000000000000000000000000000000000000000000000000000000000000000000000000000000000000000000000000000000000000000000000000000000000000000000000000000000000000000000000000000000000000000000000000000000
310
00000000000000000000000000000000000000000000000000000000000000000000000000000000000000000000000000000000000000000000000000000000000000000000000000000000000000000000000000000000000000000000000000000000000000000000000000000000000000000000000000000000000000
310
00
310
00000000000000000000000000000000000000000000000000000000000000000000000000000000000000000000000000000000000000000000000000000000000000000000000000000000000000000000000000000000000000000000000000000000000000000000000000000000000000000000000000000000000000
310
00000000000000000000000000000000000000000000000000000000000000000000000000000000000000000000000000000000000000000000000000000000000000000000000000000000000000000000000000000000000000000000000000000000000000000000000000000000000000000000000000000000000000
310
00
310
00000000000000000000000000000000000000000000000000000000000000000000000000000000000000000000000000000000000000000000000000000000000000000000000000000000000000000000000000000000000000000000000000000000000000000000000000000000000000000000000000000000000000
310
00000000000000000000000000000000000000000000000000000000000000000000000000000000000000000000000000000000000000000000000000000000000000000000000000000000000000000000000000000000000000000000000000000000000000000000000000000000000000000000000000000000000000
310
00
310
00000000000000000000000000000000000000000000000000000000000000000000000000000000000000000000000000000000000000000000000000000000000000000000000000000000000000000000000000000000000000000000000000000000000000000000000000000000000000000000000000000000000000
310
00000000000000000000000000000000000000000000000000000000000000000000000000000000000000000000000000000000000000000000000000000000000000000000000000000000000000000000000000000000000000000000000000000000000000000000000000000000000000000000000000000000000000
310
00
310
00000000000000000000000000000000000000000000000000000000000000000000000000000000000000000000000000000000000000000000000000000000000000000000000000000000000000000000000000000000000000000000000000000000000000000000000000000000000000000000000000000000000000
310
00000000000000000000000000000000000000000000000000000000000000000000000000000000000000000000000000000000000000000000000000000000000000000000000000000000000000000000000000000000000000000000000000000000000000000000000000000000000000000000000000000000000000
310
00
310
00000000000000000000000000000000000000000000000000000000000000000000000000000000000000000000000000000000000000000000000000000000000000000000000000000000000000000000000000000000000000000000000000000000000000000000000000000000000000000000000000000000000000
310
00000000000000000000000000000000000000000000000000000000000000000000000000000000000000000000000000000000000000000000000000000000000000000000000000000000000000000000000000000000000000000000000000000000000000000000000000000000000000000000000000000000000000
310
00
310
00000000000000000000000000000000000000000000000000000000000000000000000000000000000000000000000000000000000000000000000000000000000000000000000000000000000000000000000000000000000000000000000000000000000000000000000000000000000000000000000000000000000000
310
00000000000000000000000000000000000000000000000000000000000000000000000000000000000000000000000000000000000000000000000000000000000000000000000000000000000000000000000000000000000000000000000000000000000000000000000000000000000000000000000000000000000000
310
00
310
00000000000000000000000000000000000000000000000000000000000000000000000000000000000000000000000000000000000000000000000000000000000000000000000000000000000000000000000000000000000000000000000000000000000000000000000000000000000000000000000000000000000000
310
00000000000000000000000000000000000000000000000000000000000000000000000000000000000000000000000000000000000000000000000000000000000000000000000000000000000000000000000000000000000000000000000000000000000000000000000000000000000000000000000000000000000000
310
00
310
00000000000000000000000000000000000000000000000000000000000000000000000000000000000000000000000000000000000000000000000000000000000000000000000000000000000000000000000000000000000000000000000000000000000000000000000000000000000000000000000000000000000000
310
00000000000000000000000000000000000000000000000000000000000000000000000000000000000000000000000000000000000000000000000000000000000000000000000000000000000000000000000000000000000000000000000000000000000000000000000000000000000000000000000000000000000000
310
00
310
00000000000000000000000000000000000000000000000000000000000000000000000000000000000000000000000000000000000000000000000000000000000000000000000000000000000000000000000000000000000000000000000000000000000000000000000000000000000000
  0
XRECORD
  5
3F1
102
{ACAD_REACTORS
330
43A
102
}
330
43A
100
AcDbXrecord
280
     1
310
DF56060034040701D0009A9999999999B93F000000000000000000000000000000000400000009000000000000000200000064000000640000000100000001000000190000007B14AE47E17A843F00000000004060409A9999999999B93F00000000004C2D41000000000070F7400000000000942141000000000000000000
310
0000000000000000000000000000000AD482040000000000000000000000000000F03F000000000000000000000000000030402D431CEBE2362A3F00000000000008400000000000000000009807C000000000000000007C1A61B9A711364020000000050000000A000000200000002000000020000000000000000000F03F
310
00
310
0000000000F03F000000000000F03F333333333333D33F333333333333D33F333333333333D33F000000000000F43F000000000000F43F000000000000F03F0200000064000000000000000000000000000840000000000000F83F00000000000000000000000000000000008056409A9999999999B93F0000000000000000
310
00000000000000000000000000000000000000000000000000000000000000000000000000000000000000000000000000000000000000000000000000000000000000000000000000000000000000000000000000000000000000000000000000000000000000000000000000000000000000000000000000000000000000
310
00
310
0000000000000000000000000000000000000000000000000000000000000000000000000000000000000000000000000000000000000000000000000000000000000000000000000000000000000000000000000000000000000000000000000000000000000000000000000000000000000000000000009A9999999999A9
310
3F9100000000000000000000000000000035A781D547960F40000000000000F03F000000000000F03F666666666666164000000000104068F200000000000000000000000000000000000000000000000000000000000000000000000000000000000000000000000000000000000000000000000000000000000000000000
310
00
310
00000000000000000000000000000000000000000000000000000000000000000000000000000000000000000000000000000000000000000000000000000000000000000000000000000000000000000000000000000000000000000000000000000000000000000000000000000000000000000000000000000000000000
310
000000000000000000000000000000000000000000000000000000000000000000000000000000000000000000000000000000000000000000000000FF000000000000000000000000000000000000000000000000000000000000000000000000000000000000000000000000000000000000000000000000000000000000
310
00
310
0000000000000000000000000000000000000000000000000000000000000000000000000000000000000000000000000000000000000000000000000000000000000000
  0
DICTIONARY
  5
42B
330
42A
100
AcDbDictionary
280
     1
281
     1
  3
ADSK_XREC_LAYOUTTHUMBNAIL
360
42C
  0
XRECORD
  5
42C
102
{ACAD_REACTORS
330
42B
102
}
330
42B
100
AcDbXrecord
280
     1
310
28000000B40000008B0000000100080000000000BC61000000000000000000000001000000000000FFFFFF0000000000FFFFFF000000000000000000000000000000000000000000000000000000000000000000330000006600000099000000CC000000FF00000000330000333300006633000099330000CC330000FF3300
310
0000660000336600006666000099660000CC660000FF66000000990000339900006699000099990000CC990000FF99000000CC000033CC000066CC000099CC0000CCCC0000FFCC000000FF000033FF000066FF000099FF0000CCFF0000FFFF000000003300330033006600330099003300CC003300FF003300003333003333
310
33006633330099333300CC333300FF33330000663300336633006666330099663300CC663300FF66330000993300339933006699330099993300CC993300FF99330000CC330033CC330066CC330099CC3300CCCC3300FFCC330000FF330033FF330066FF330099FF3300CCFF3300FFFF330000006600330066006600660099
310
006600CC006600FF00660000336600333366006633660099336600CC336600FF33660000666600336666006666660099666600CC666600FF66660000996600339966006699660099996600CC996600FF99660000CC660033CC660066CC660099CC6600CCCC6600FFCC660000FF660033FF660066FF660099FF6600CCFF6600
310
FFFF660000009900330099006600990099009900CC009900FF00990000339900333399006633990099339900CC339900FF33990000669900336699006666990099669900CC669900FF66990000999900339999006699990099999900CC999900FF99990000CC990033CC990066CC990099CC9900CCCC9900FFCC990000FF99
310
0033FF990066FF990099FF9900CCFF9900FFFF99000000CC003300CC006600CC009900CC00CC00CC00FF00CC000033CC003333CC006633CC009933CC00CC33CC00FF33CC000066CC003366CC006666CC009966CC00CC66CC00FF66CC000099CC003399CC006699CC009999CC00CC99CC00FF99CC0000CCCC0033CCCC0066CC
310
CC0099CCCC00CCCCCC00FFCCCC0000FFCC0033FFCC0066FFCC0099FFCC00CCFFCC00FFFFCC000000FF003300FF006600FF009900FF00CC00FF00FF00FF000033FF003333FF006633FF009933FF00CC33FF00FF33FF000066FF003366FF006666FF009966FF00CC66FF00FF66FF000099FF003399FF006699FF009999FF00CC
310
99FF00FF99FF0000CCFF0033CCFF0066CCFF0099CCFF00CCCCFF00FFCCFF0000FFFF0033FFFF0066FFFF0099FFFF00CCFFFF00FFFFFF00000000000D0D0D001A1A1A00282828003535350043434300505050005D5D5D006B6B6B00787878008686860093939300A1A1A100AEAEAE00BBBBBB00C9C9C900D6D6D600E4E4E400
310
F1F1F100FFFFFF0000000000000000000000000000000000000000000000000000000000000000000000000000000000E2E2E2E2E2E2E2E2E2E2E2E2E2E2E2E2E2E2E2E2E2E2E2E2E2E2E2E2E2E2E2E2E2E2E2E2E2E2E2E2E2E2E2E2E2E2E2E2E2E2E2E2E2E2E2E2E2E2E2E2E2E2E2E2E2E2E2E2E2E2E2E2E2E2E2E2E2E2E2
310
E2E2E2E2E2E2E2E2E2E2E2E2E2E2E2E2E2E2E2E2E2E2E2E2E2E2E2E2E2E2E2E2E2E2E2E2E2E2E2E2E2E2E2E2E2E2E2E2E2E2E2E2E2E2E2E2E2E2E2E2E2E2E2E2E2E2E2E2E2E2E2E2E2E2E2E2E2E2E2E2E2E2E2E2E2E2E2E2E2E2E2E2E2E2E2E2E2E2E2E2EFF5F5F5F5F5F5F5F5F5F5F5F5F5F5F5F5F5F5F5F5F5F5F5F5F5F5
310
F5F5F5F5F5F5F5F5F5F5F5F5F5F5F5F5F5F5F5F5F5F5F5F5F5F5F5F5F5F5F5F5F5F5F5F5F5F5F5F5F5F5F5F5F5F5F5F5F5F5F5F5F5F5F5F5F5F5F5F5F5F5F5F5F5F5F5F5F5F5F5F5F5F5F5F5F5F5F5F5F5F5F5F5F5F5F5F5F5F5F5F5F5F5F5F5F5F5F5F5F5F5F5F5F5F5F5F5F5F5F5F5F5F5F5F5F5F5F5F5F5F5F5F5F5F5F5
310
F5F5F5F5F5F5F5F5F5F5F5F5F5F5F5F5F5F5F5F5F5F5F5F5E2E2EFF5F5F5F5F5F5F5F5F5F5F5F5F5F5F5F5F5F5F5F5F5F5F5F5F5F5F5F5F5F5F5F5F5F5F5F5F5F5F5F5F5F5F5F5F5F5F5F5F5F5F5F5F5F5F5F5F5F5F5F5F5F5F5F5F5F5F5F5F5F5F5F5F5F5F5F5F5F5F5F5F5F5F5F5F5F5F5F5F5F5F5F5F5F5F5F5F5F5F5F5
310
F5F5F5F5F5F5F5F5F5F5F5F5F5F5F5F5F5F5F5F5F5F5F5F5F5F5F5F5F5F5F5F5F5F5F5F5F5F5F5F5F5F5F5F5F5F5F5F5F5F5F5F5F5F5F5F5F5F5F5F5F5F5F5F5F5F5F5F5F5F5F5F5F5F5F5F5F5E2E2EFF5F5F5F5F5F5F5F5F5F5F5F5F5F5F5F5F5F5F5F5F5F5F5F5F5F5F5F5F5F5F5F5F5F5F5F5F5F5F5F5F5F5F5F5F5F5F5
310
F5F5F5F5F5F5F5F5F5F5F5F5F5F5F5F5F5F5F5F5F5F5F5F5F5F5F5F5F5F5F5F5F5F5F5F5F5F5F5F5F5F5F5F5F5F5F5F5F5F5F5F5F5F5F5F5F5F5F5F5F5F5F5F5F5F5F5F5F5F5F5F5F5F5F5F5F5F5F5F5F5F5F5F5F5F5F5F5F5F5F5F5F5F5F5F5F5F5F5F5F5F5F5F5F5F5F5F5F5F5F5F5F5F5F5F5F5F5F5F5F5F5F5F5F5F5F5
310
F5F5F5E2E2EFF5F5F5E2E2E2E2E2E2E2E2F5F5F5F5F5F5F5F5F5E2E2E2E2E2E2E2E2E2E2E2E2E2E2E2E2F5F5F5F5F5F5F5F5E2E2E2E2E2E2E2E2E2E2E2E2E2E2E2E2F5F5F5F5F5F5F5F5F5E2E2E2E2E2E2E2E2E2E2E2E2E2E2E2F5F5F5F5F5F5F5F5F5E2E2E2E2E2E2E2E2E2E2E2E2E2E2E2F5F5F5F5F5F5F5F5F5E2E2E2E2
310
E2E2E2E2E2E2E2E2E2E2E2E2F5F5F5F5F5F5F5F5E2E2E2E2E2E2E2E2E2E2E2E2E2E2E2E2F5F5F5F5F5F5F5F5F5E2E2E2E2E2E2E2E2F5F5F5E2E2EFF5F5F5E2F5F5F5F5F5F5F5F5F5F5F5F5F5F5F5F5F5F5F5F5F5F5F5F5F5F5F5F5F5F5F5F5F5F5F5F5F5F5F5F5F5F5F5F5F5F5F5F5F5F5F5F5F5F5F5F5F5F5F5F5F5F5F5F5
310
F5F5F5F5F5F5F5F5F5F5F5F5F5F5F5F5F5F5F5F5F5F5F5F5F5F5F5F5F5F5F5F5F5F5F5F5F5F5F5F5F5F5F5F5F5F5F5F5F5F5F5F5F5F5F5F5F5F5F5F5F5F5F5F5F5F5F5F5F5F5F5F5F5F5F5F5F5F5F5F5F5F5F5F5F5F5F5F5F5F5F5F5F5F5F5F5F5F5F5F5F5F5F5F5F5E2F5F5F5E2E2EFF5F5F5E2F5F5F5F5F5F5F5F5F5F5F5
310
F5F5F5F5F5F5F5F5F5F5F5F5F5F5F5F5F5F5F5F5F5F5F5F5F5F5F5F5F5F5F5F5F5F5F5F5F5F5F5F5F5F5F5F5F5F5F5F5F5F5F5F5F5F5F5F5F5F5F5F5F5F5F5F5F5F5F5F5F5F5F5F5F5F5F5F5F5F5F5F5F5F5F5F5F5F5F5F5F5F5F5F5F5F5F5F5F5F5F5F5F5F5F5F5F5F5F5F5F5F5F5F5F5F5F5F5F5F5F5F5F5F5F5F5F5F5F5
310
F5F5F5F5F5F5F5F5F5F5F5F5F5F5F5F5F5F5F5F5F5F5F5F5F5F5F5F5F5F5F5E2F5F5F5E2E2EFF5F5F5E2F5F5F5F5F5F5F5F5F5F5F5F5F5F5F5F5F5F5F5F5F5F5F5F5F5F5F5F5F5F5F5F5F5F5F5F5F5F5F5F5F5F5F5F5F5F5F5F5F5F5F5F5F5F5F5F5F5F5F5F5F5F5F5F5F5F5F5F5F5F5F5F5F5F5F5F5F5F5F5F5F5F5F5F5F5
310
F5F5F5F5F5F5F5F5F5F5F5F5F5F5F5F5F5F5F5F5F5F5F5F5F5F5F5F5F5F5F5F5F5F5F5F5F5F5F5F5F5F5F5F5F5F5F5F5F5F5F5F5F5F5F5F5F5F5F5F5F5F5F5F5F5F5F5F5F5F5F5F5F5F5F5F5F5F5F5F5F5F5F5F5E2F5F5F5E2E2EFF5F5F5E2F5F5F5F5F5F5F5F5F5F5F5F5F5F5F5F5F5F5F5F5F5F5F5F5F5F5F5F5F5F5F5F5
310
F5F5F5F5F5F5F5F5F5F5F5F5F5F5F5F5F5F5F5F5F5F5F5F5F5F5F5F5F5F5F5F5F5F5F5F5F5F5F5F5F5F5F5F5F5F5F5F5F5F5F5F5F5F5F5F5F5F5F5F5F5F5F5F5F5F5F5F5F5F5F5F5F5F5F5F5F5F5F5F5F5F5F5F5F5F5F5F5F5F5F5F5F5F5F5F5F5F5F5F5F5F5F5F5F5F5F5F5F5F5F5F5F5F5F5F5F5F5F5F5F5F5F5F5F5F5F5
310
F5F5F5F5F5F5F5F5F5F5E2F5F5F5E2E2EFF5F5F5E2F5F5F5F5F5F5F5F5F5F5F5F5F5F5F5F5F5F5F5F5F5F5F5F5F5F5F5F5F5F5F5F5F5F5F5F5F5F5F5F5F5F5F5F5F5F5F5F5F5F5F5F5F5F5F5F5F5F5F5F5F5F5F5F5F5F5F5F5F5F5F5F5F5F5F5F5F5F5F5F5F5F5F5F5F5F5F5F5F5F5F5F5F5F5F5F5F5F5F5F5F5F5F5F5F5F5
310
F5F5F5F5F5F5F5F5F5F5F5F5F5F5F5F5F5F5F5F5F5F5F5F5F5F5F5F5F5F5F5F5F5F5F5F5F5F5F5F5F5F5F5F5F5F5F5F5F5F5F5F5F5F5F5F5F5F5F5F5F5F5F5E2F5F5F5E2E2EFF5F5F5E2F5F5F5F5F5F5F5F5F5F5F5F5F5F5F5F5F5F5F5F5F5F5F5F5F5F5F5F5F5F5F5F5F5F5F5F5F5F5F5F5F5F5F5F5F5F5F5F5F5F5F5F5F5
310
F5F5F5F5F5F5F5F5F5F5F5F5F5F5F5F5F5F5F5F5F5F5F5F5F5F5F5F5F5F5F5F5F5F5F5F5F5F5F5F5F5F5F5F5F5F5F5F5F5F5F5F5F5F5F5F5F5F5F5F5F5F5F5F5F5F5F5F5F5F5F5F5F5F5F5F5F5F5F5F5F5F5F5F5F5F5F5F5F5F5F5F5F5F5F5F5F5F5F5F5F5F5F5F5F5F5F5F5F5F5F5F5F5F5F5F5E2F5F5F5E2E2EFF5F5F5E2
310
F5F5F5F5F5F5F5F5F5F5F5F5F5F5F5F5F5F5F5F5F5F5F5F5F5F5F5F5F5F5F5F5F5F5F5F5F5F5F5F5F5F5F5F5F5F5F5F5F5F5F5F5F5F5F5F5F5F5F5F5F5F5F5F5F5F5F5F5F5F5F5F5F5F5F5F5F5F5F5F5F5F5F5F5F5F5F5F5F5F5F5F5F5F5F5F5F5F5F5F5F5F5F5F5F5F5F5F5F5F5F5F5F5F5F5F5F5F5F5F5F5F5F5F5F5F5F5
310
F5F5F5F5F5F5F5F5F5F5F5F5F5F5F5F5F5F5F5F5F5F5F5F5F5F5F5F5F5F5F5F5F5F5F5F5F5F5F5F5F5F5E2F5F5F5E2E2EFF5F5F5E2F5F5F5F5F5F5F5F5F5F5F5F5F5F5F5F5F5F5F5F5F5F5F5F5F5F5F5F5F5F5F5F5F5F5F5F5F5F5F5F5F5F5F5F5F5F5F5F5F5F5F5F5F5F5F5F5F5F5F5F5F5F5F5F5F5F5F5F5F5F5F5F5F5F5
310
F5F5F5F5F5F5F5F5F5F5F5F5F5F5F5F5F5F5F5F5F5F5F5F5F5F5F5F5F5F5F5F5F5F5F5F5F5F5F5F5F5F5F5F5F5F5F5F5F5F5F5F5F5F5F5F5F5F5F5F5F5F5F5F5F5F5F5F5F5F5F5F5F5F5F5F5F5F5F5F5F5F5F5F5F5F5F5F5F5F5F5F5F5F5F5E2F5F5F5E2E2EFF5F5F5F5F5F5F5F5F5F5F5F5F5F5F5F5F5F5F5F5F5F5F5F5F5
310
F5F5F5F5F5F5F5F5F5F5F5F5F5F5F5F5F5F5F5F5F5F5F5F5F5F5F5F5F5F5F5F5F5F5F5F5F5F5F5F5F5F5F5F5F5F5F5F5F5F5F5F5F5F5F5F5F5F5F5F5F5F5F5F5F5F5F5F5F5F5F5F5F5F5F5F5F5F5F5F5F5F5F5F5F5F5F5F5F5F5F5F5F5F5F5F5F5F5F5F5F5F5F5F5F5F5F5F5F5F5F5F5F5F5F5F5F5F5F5F5F5F5F5F5F5F5F5
310
F5F5F5F5F5F5F5F5F5F5F5F5F5F5F5F5F5F5F5F5F5F5F5F5F5E2E2EFF5F5F5F5F5F5F5F5F5F5F5F5F5F5F5F5F5F5F5F5F5F5F5F5F5F5F5F5F5F5F5F5F5F5F5F5F5F5F5F5F5F5F5F5F5F5F5F5F5F5F5F5F5F5F5F5F5F5F5F5F5F5F5F5F5F5F5F5F5F5F5F5F5F5F5F5F5F5F5F5F5F5F5F5F5F5F5F5F5F5F5F5F5F5F5F5F5F5F5
310
F5F5F5F5F5F5F5F5F5F5F5F5F5F5F5F5F5F5F5F5F5F5F5F5F5F5F5F5F5F5F5F5F5F5F5F5F5F5F5F5F5F5F5F5F5F5F5F5F5F5F5F5F5F5F5F5F5F5F5F5F5F5F5F5F5F5F5F5F5F5F5F5F5F5F5F5F5F5E2E2EFF5F5F5F5F5F5F5F5F5F5F5F5F5F5F5F5F5F5F5F5F5F5F5F5F5F5F5F5F5F5F5F5F5F5F5F5F5F5F5F5F5F5F5F5F5F5
310
F5F5F5F5F5F5F5F5F5F5F5F5F5F5F5F5F5F5F5F5F5F5F5F5F5F5F5F5F5F5F5F5F5F5F5F5F5F5F5F5F5F5F5F5F5F5F5F5F5F5F5F5F5F5F5F5F5F5F5F5F5F5F5F5F5F5F5F5F5F5F5F5F5F5F5F5F5F5F5F5F5F5F5F5F5F5F5F5F5F5F5F5F5F5F5F5F5F5F5F5F5F5F5F5F5F5F5F5F5F5F5F5F5F5F5F5F5F5F5F5F5F5F5F5F5F5F5
310
F5F5F5F5E2E2EFF5F5F5F5F5F5F5F5F5F5F5F5F5F5F5F5F5F5F5F5F5F5F5F5F5F5F5F5F5F5F5F5F5F5F5F5F5F5F5F5F5F5F5F5F5F5F5F5F5F5F5F5F5F5F5F5F5F5F5F5F5F5F5F5F5F5F5F5F5F5F5F5F5F5F5F5F5F5F5F5F5F5F5F5F5F5F5F5F5F5F5F5F5F5F5F5F5F5F5F5F5F5F5F5F5F5F5F5F5F5F5F5F5F5F5F5F5F5F5F5
310
F5F5F5F5F5F5F5F5F5F5F5F5F5F5F5F5F5F5F5F5F5F5F5F5F5F5F5F5F5F5F5F5F5F5F5F5F5F5F5F5F5F5F5F5F5F5F5F5F5F5F5F5F5F5F5F5F5E2E2EFF5F5F5F5F5F5F5F5F5F5F5F5F5F5F5F5F5F5F5F5E2E2E2E2E2E2E2E2E2E2E2E2E2E2E2E2E2E2E2E2E2E2E2E2E2E2E2E2E2E2E2E2E2E2E2E2E2E2E2E2E2E2E2E2E2E2E2
310
E2E2E2E2E2E2E2E2E2E2E2E2E2E2E2E2E2E2E2E2E2E2E2E2E2E2E2E2E2E2E2E2E2E2E2E2E2E2E2E2E2E2E2E2E2E2E2E2E2E2E2E2E2E2E2E2E2E2E2E2E2E2E2E2E2E2E2E2E2E2E2E2E2E2E2E2E2E2E2E2E2E2E2E2E2E2E2E2E2E2F5F5F5F5F5F5F5F5F5F5F5F5F5F5F5F5F5F5F5F5E2E2EFF5F5F5F5F5F5F5F5F5F5F5F5F5F5
310
F5F5F5F5F5F5E2F5F5F5F5F5F5F5F5F5F5F5F5F5F5F5F5F5F5F5F5F5F5F5F5F5F5F5F5F5F5F5F5F5F5F5F5F5F5F5F5F5F5F5F5F5F5F5F5F5F5F5F5F5F5F5F5F5F5F5F5F5F5F5F5F5F5F5F5F5F5F5F5F5F5F5F5F5F5F5F5F5F5F5F5F5F5F5F5F5F5F5F5F5F5F5F5F5F5F5F5F5F5F5F5F5F5F5F5F5F5F5F5F5F5F5F5F5F5F5F5
310
F5F5F5F5F5F5F5F5F5F5F5F5F5F5F5E2F5F5F5F5F5F5F5F5F5F5F5F5F5F5F5F5F5F5F5F5E2E2EFF5F5F5F5F5F5F5F5F5F5F5F5F5F5F5F5F5F5F5F5E2F5F5F5F5F5F5F5F5F5F5F5F5F5F5F5F5F5F5F5F5F5F5F5F5F5F5F5F5F5F5F5F5F5F5F5F5F5F5F5F5F5F5F5F5F5F5F5F5F5F5F5F5F5F5F5F5F5F5F5F5F5F5F5F5F5F5F5
310
F5F5F5F5F5F5F5F5F5F5F5F5F5F5F5F5F5F5F5F5F5F5F5F5F5F5F5F5F5F5F5F5F5F5F5F5F5F5F5F5F5F5F5F5F5F5F5F5F5F5F5F5F5F5F5F5F5F5F5F5F5F5F5F5F5F5F5F5E2F5F5F5F5F5F5F5F5F5F5F5F5F5F5F5F5F5F5F5F5E2E2EFF5F5F5F5F5F5F5F5F5F5F5F5F5F5F5F5F5F5F5F5E2F5F5F5F5F5F5F5F5F5F5F5F5F5F5
310
F5F5F5F5F5F5F5F5F5F5F5F5F5F5F5F5F5F5F5F5F5F5F5F5F5F5F5F5F5F5F5F5F5F5F5F5F5F5F5F5F5F5F5F5F5F5F5F5F5F5F5F5F5F5F5F5F5F5F5F5F5F5F5F5F5F5F5F5F5F5F5F5F5F5F5F5F5F5F5F5F5F5F5F5F5F5F5F5F5F5F5F5F5F5F5F5F5F5F5F5F5F5F5F5F5F5F5F5F5F5F5F5F5F5F5F5F5F5F5F5F5E2F5F5F5F5F5
310
F5F5F5F5F5F5F5F5F5F5F5F5F5F5F5E2E2EFF5F5F5F5F5F5F5F5F5F5F5F5F5F5F5F5F5F5F5F5E2F5F5F5F5F5F5F5F5F5F5F5F5F5F5F5F5F5F5F5F5F5F5F5F5F5F5F5F5F5F5F5F5F5F5F5F5F5F5F5F5F5F5F5F5F5F5F5F5F5F5F5F5F5F5F5F5F5F5F5F5F5F5F5F5F5F5F5F5F5F5F5F5F5F5F5F5F5F5F5F5F5F5F5F5F5F5F5F5
310
F5F5F5F5F5F5F5F5F5F5F5F5F5F5F5F5F5F5F5F5F5F5F5F5F5F5F5F5F5F5F5F5F5F5F5F5F5F5F5F5F5F5F5F5F5F5F5E2F5F5F5F5F5F5F5F5F5F5F5F5F5F5F5F5F5F5F5F5E2E2EFF5F5F5E2F5F5F5F5F5F5F5F5F5F5F5F5F5F5F5F5E2F5F5F5F5F5F5F5F5F5F5F5F5F5F5F5F5F5F5F5F5F5F5F5F5F5F5F5F5F5F5F5F5F5F5F5
310
F5F5F5F5F5F5F5F5F5F5F5F5F5F5F5F5F5F5F5F5F5F5F5F5F5F5F5F5F5F5F5F5F5F5F5F5F5F5F5F5F5F5F5F5F5F5F5F5F5F5F5F5F5F5F5F5F5F5F5F5F5F5F5F5F5F5F5F5F5F5F5F5F5F5F5F5F5F5F5F5F5F5F5F5F5F5F5F5F5F5F5F5F5F5F5F5F5F5F5F5E2F5F5F5F5F5F5F5F5F5F5F5F5F5F5F5F5E2F5F5F5E2E2EFF5F5F5
310
E2F5F5F5F5F5F5F5F5F5F5F5F5F5F5F5F5E2F5F5F5F5F5F5F5F5F5F5F5F5F5F5F5F5F5F5F5F5F5F5F5F5F5F5F5F5F5F5F5F5F5F5F5F5F5F5F5F5F5F5F5F5F5F5F5F5F5F5F5F5F5F5F5F5F5F5F5F5F5F5F5F5F5F5F5F5F5F5F5F5F5F5F5F5F5F5F5F5F5F5F5F5F5F5F5F5F5F5F5F5F5F5F5F5F5F5F5F5F5F5F5F5F5F5F5F5F5
310
F5F5F5F5F5F5F5F5F5F5F5F5F5F5F5F5F5F5F5F5F5F5F5F5F5F5E2F5F5F5F5F5F5F5F5F5F5F5F5F5F5F5F5E2F5F5F5E2E2EFF5F5F5E2F5F5F5F5F5F5F5F5F5F5F5F5F5F5F5F5E2F5F5F5F5F5F5F5F5F5F5F5F5F5F5F5F5F5F5F5F5F5F5F5F5F5F5F5F5F5F5F5F5F5F5F5F5F5F5F5F5F5F5F5F5F5F5F5F5F5F5F5F5F5F5F5F5
310
F5F5F5F5F5F5F5F5F5F5F5F5F5F5F5F5F5F5F5F5F5F5F5F5F5F5F5F5F5F5F5F5F5F5F5F5F5F5F5F5F5F5F5F5F5F5F5F5F5F5F5F5F5F5F5F5F5F5F5F5F5F5F5F5F5F5F5F5F5F5F5F5F5F5F5F5F5F5F5E2F5F5F5F5F5F5F5F5F5F5F5F5F5F5F5F5E2F5F5F5E2E2EFF5F5F5E2F5F5F5F5F5F5F5F5F5F5F5F5F5F5F5F5E2F5F5F5
310
F5F5F5F5F5F5F5F5F5F5F5F5F5F5F5F5F5F5F5F5F5F5F5F5F5F5F5F5F5F5F5F5F5F5F5F5F5F5F5F5F5F5F5F5F5F5F5F5F5F5F5F5F5F5F5F5F5F5F5F5F5F5F5F5F5F5F5F5F5F5F5F5F5F5F5F5F5F5F5F5F5F5F5F5F5F5F5F5F5F5F5F5F5F5F5F5F5F5F5F5F5F5F5F5F5F5F5F5F5F5F5F5F5F5F5F5F5F5F5F5F5F5F5F5F5F5F5
310
F5F5F5F5F5E2F5F5F5F5F5F5F5F5F5F5F5F5F5F5F5F5E2F5F5F5E2E2EFF5F5F5E2F5F5F5F5F5F5F5F5F5F5F5F5F5F5F5F5E2F5F5F5F5F5F5F5F5F5F5F5F5F5F5F5F5F5F5F5F5F5F5F5F5F5F5F5F5F5F5F5F5F5F5F5F5F5F5F5F5F5F5F5F5F5F5F5F5F5F5F5F5F5F5F5F5F5F5F5F5F5F5F5F5F5F5F5F5F5F5F5F5F5F5F5F5F5
310
F5F5F5F5F5F5F5F5F5F5F5F5F5F5F5F5F5F5F5F5F5F5F5F5F5F5F5F5F5F5F5F5F5F5F5F5F5F5F5F5F5F5F5F5F5F5F5F5F5F5F5F5F5F5F5F5F5F5E2F5F5F5F5F5F5F5F5F5F5F5F5F5F5F5F5E2F5F5F5E2E2EFF5F5F5E2F5F5F5F5F5F5F5F5F5F5F5F5F5F5F5F5E2F5F5F5F5F5F5F5F5F5F5F5F5F5F5F5F5F5F5F5F5F5F5F5F5
310
F5F5F5F5F5F5F5F5F5F5F5F5F5F5F5F5F5F5F5F5F5F5F5F5F5F5F5F5F5F5F5F5F5F5F5F5F5F5F5F5F5F5F5F5F5F5F5F5F5F5F5F5F5F5F5F5F5F5F5F5F5F5F5F5F5F5F5F5F5F5F5F5F5F5F5F5F5F5F5F5F5F5F5F5F5F5F5F5F5F5F5F5F5F5F5F5F5F5F5F5F5F5F5F5F5F5F5F5F5F5F5E2F5F5F5F5F5F5F5F5F5F5F5F5F5F5F5
310
F5E2F5F5F5E2E2EFF5F5F5E2F5F5F5F5F5F5F5F5F5F5F5F5F5F5F5F5E2F5F5F5F5F5F5F5F5F5F5F5F5F5F5F5F5F5F5F5F5F5F5F5F5F5F5F5F5F5F5F5F5F5F5F5F5F5F5F5F5F5F5F5F5F5F5F5F5F5F5F5F5F5F5F5F5F5F5F5F5F5F5F5F5F5F5F5F5F5F5F5F5F5F5F5F5F5F5F5F5F5F5F5F5F5F5F5F5F5F5F5F5F5F5F5F5F5F5
310
F5F5F5F5F5F5F5F5F5F5F5F5F5F5F5F5F5F5F5F5F5F5F5F5F5F5F5F5F5F5F5F5F5F5F5F5F5E2F5F5F5F5F5F5F5F5F5F5F5F5F5F5F5F5E2F5F5F5E2E2EFF5F5F5E2F5F5F5F5F5F5F5F5F5F5F5F5F5F5F5F5E2F5F5F5F5F5F5F5F5F5F5F5F5F5F5F5F5F5F5F5F5F5F5F5F5F5F5F5F5F5F5F5F5F5F5F5F5F5F5F5F5F5F5F5F5F5
310
F5F5F5F5F5F5F5F5F5F5F5F5F5F5F5F5F5F5F5F5F5F5F5F5F5F5F5F5F5F5F5F5F5F5F5F5F5F5F5F5F5F5F5F5F5F5F5F5F5F5F5F5F5F5F5F5F5F5F5F5F5F5F5F5F5F5F5F5F5F5F5F5F5F5F5F5F5F5F5F5F5F5F5F5F5F5F5F5F5F5E2F5F5F5F5F5F5F5F5F5F5F5F5F5F5F5F5E2F5F5F5E2E2EFF5F5F5E2F5F5F5F5F5F5F5F5F5
310
F5F5F5F5F5F5F5E2F5F5F5F5F5F5F5F5F5F5F5F5F5F5F5F5F5F5F5F5F5F5F5F5F5F5F5F5F5F5F5F5F5F5F5F5F5F5F5F5F5F5F5F5F5F5F5F5F5F5F5F5F5F5F5F5F5F5F5F5F5F5F5F5F5F5F5F5F5F5F5F5F5F5F5F5F5F5F5F5F5F5F5F5F5F5F5F5F5F5F5F5F5F5F5F5F5F5F5F5F5F5F5F5F5F5F5F5F5F5F5F5F5F5F5F5F5F5F5
310
F5F5F5F5F5F5F5F5F5F5F5F5F5F5F5F5E2F5F5F5F5F5F5F5F5F5F5F5F5F5F5F5F5E2F5F5F5E2E2EFF5F5F5E2F5F5F5F5F5F5F5F5F5F5F5F5F5F5F5F5E2F5F5F5F5F5F5F5F5F5F5F5F5F5F5F5F5F5F5F5F5F5F5F5F5F5F5F5F5F5F5F5F5F5F5F5F5F5F5F5F5F5F5F5F5F5F5F5F5F5F5F5F5F5F5F5F5F5F5F5F5F5F5F5F5F5F5
310
F5F5F5F5F5F5F5F5F5F5F5F5F5F5F5F5F5F5F5F5F5F5F5F5F5F5F5F5F5F5F5F5F5F5F5F5F5F5F5F5F5F5F5F5F5F5F5F5F5F5F5F5F5F5F5F5F5F5F5F5F5F5F5F5F5F5F5F5F5E2F5F5F5F5F5F5F5F5F5F5F5F5F5F5F5F5E2F5F5F5E2E2EFF5F5F5E2F5F5F5F5F5F5F5F5F5F5F5F5F5F5F5F5E2F5F5F5F5F5F5F5F5F5F5F5F5F5
310
F5F5F5F5F5F5F5F5F5F5F5F5F5F5F5F5F5F5F5F5F5F5F5F5F5F5F5F5F5F5F5F5F5F5F5F5F5F5F5F5F5F5F5F5F5F5F5F5F5F5F5F5F5F5F5F5F5F5F5F5F5F5F5F5F5F5F5F5F5F5F5F5F5F5F5F5F5F5F5F5F5F5F5F5F5F5F5F5F5F5F5F5F5F5F5F5F5F5F5F5F5F5F5F5F5F5F5F5F5F5F5F5F5F5F5F5F5F5F5F5F5F5E2F5F5F5F5
310
F5F5F5F5F5F5F5F5F5F5F5F5E2F5F5F5E2E2EFF5F5F5E2F5F5F5F5F5F5F5F5F5F5F5F5F5F5F5F5E2F5F5F5F5F5F5F5F5F5F5F5F5F5F5F5F5F5F5F5F5F5F5F5F5F5F5F5F5F5F5F5F5F5F5F5F5F5F5F5F5F5F5F5F5F5F5F5F5F5F5F5F5F5F5F5F5F5F5F5F5F5F5F5F5F5F5F5F5F5F5F5F5F5F5F5F5F5F5F5F5F5F5F5F5F5F5F5
310
F5F5F5F5F5F5F5F5F5F5F5F5F5F5F5F5F5F5F5F5F5F5F5F5F5F5F5F5F5F5F5F5F5F5F5F5F5F5F5F5F5F5F5F5F5F5F5F5E2F5F5F5F5F5F5F5F5F5F5F5F5F5F5F5F5E2F5F5F5E2E2EFF5F5F5E2F5F5F5F5F5F5F5F5F5F5F5F5F5F5F5F5E2F5F5F5F5F5F5F5F5F5F5F5F5F5F5F5F5F5F5F5F5F5F5F5F5F5F5F5F5F5F5F5F5F5F5
310
F5F5F5F5F5F5F5F5F5F5F5F5F5F5F5F5F5F5F5F5F5F5F5F5F5F5F5F5F5F5F5F5F5F5F5F5F5F5F5F5F5F5F5F5F5F5F5F5F5F5F5F5F5F5F5F5F5F5F5F5F5F5F5F5F5F5F5F5F5F5F5F5F5F5F5F5F5F5F5F5F5F5F5F5F5F5F5F5F5F5F5F5F5F5F5F5F5F5F5F5F5E2F5F5F5F5F5F5F5F5F5F5F5F5F5F5F5F5E2F5F5F5E2E2EFF5F5
310
F5E2F5F5F5F5F5F5F5F5F5F5F5F5F5F5F5F5E2F5F5F5F5F5F5F5F5F5F5F5F5F5F5F5F5F5F5F5F5F5F5F5F5F5F5F5F5F5F5F5F5F5F5F5F5F5F5F5F5F5F5F5F5F5F5F5F5F5F5F5F5F5F5F5F5F5F5F5F5F5F5F5F5F5F5F5F5F5F5F5F5F5F5F5F5F5F5F5F5F5F5F5F5F5F5F5F5F5F5F5F5F5F5F5F5F5F5F5F5F5F5F5F5F5F5F5F5
310
F5F5F5F5F5F5F5F5F5F5F5F5F5F5F5F5F5F5F5F5F5F5F5F5F5F5F5E2F5F5F5F5F5F5F5F5F5F5F5F5F5F5F5F5E2F5F5F5E2E2EFF5F5F5E2F5F5F5F5F5F5F5F5F5F5F5F5F5F5F5F5E2F5F5F5F5F5F5F5F5F5F5F5F5F5F5F5F5F5F5F5F5F5F5F5F5F5F5F5F5F5F5F5F5F5F5F5F5F5F5F5F5F5F5F5F5F5F5F5F5F5F5F5F5F5F5F5
310
F5F5F5F5F5F5F5F5F5F5F5F5F5F5F5F5F5F5F5F5F5F5F5F5F5F5F5F5F5F5F5F5F5F5F5F5F5F5F5F5F5F5F5F5F5F5F5F5F5F5F5F5F5F5F5F5F5F5F5F5F5F5F5F5F5F5F5F5F5F5F5F5F5F5F5F5F5F5F5F5E2F5F5F5F5F5F5F5F5F5F5F5F5F5F5F5F5E2F5F5F5E2E2EFF5F5F5E2F5F5F5F5F5F5F5F5F5F5F5F5F5F5F5F5E2F5F5
310
F5F5F5F5F5F5F5F5F5F5F5F5F5F5F5F5F5F5F5F5F5F5F5F5F5F5F5F5F5F5F5F5F5F5F5F5F5F5F5F5F5F5F5F5F5F5F5F5F5F5F5F5F5F5F5F5F5F5F5F5F5F5F5F5F5F5F5F5F5F5F5F5F5F5F5F5F5F5F5F5F5F5F5F5F5F5F5F5F5F5F5F5F5F5F5F5F5F5F5F5F5F5F5F5F5F5F5F5F5F5F5F5F5F5F5F5F5F5F5F5F5F5F5F5F5F5F5
310
F5F5F5F5F5F5E2F5F5F5F5F5F5F5F5F5F5F5F5F5F5F5F5E2F5F5F5E2E2EFF5F5F5E2F5F5F5F5F5F5F5F5F5F5F5F5F5F5F5F5E2F5F5F5F5F5F5F5F5F5F5F5F5F5F5F5F5F5F5F5F5F5F5F5F5F5F5F5F5F5F5F5F5F5F5F5F5F5F5F5F5F5F5F5F5F5F5F5F5F5F5F5F5F5F5F5F5F5F5F5F5F5F5F5F5F5F5F5F5F5F5F5F5F5F5F5F5
310
F5F5F5F5F5F5F5F5F5F5F5F5F5F5F5F5F5F5F5F5F5F5F5F5F5F5F5F5F5F5F5F5F5F5F5F5F5F5F5F5F5F5F5F5F5F5F5F5F5F5F5F5F5F5F5F5F5F5F5E2F5F5F5F5F5F5F5F5F5F5F5F5F5F5F5F5E2F5F5F5E2E2EFF5F5F5F5F5F5F5F5F5F5F5F5F5F5F5F5F5F5F5F5E2F5F5F5F5F5F5F5F5F5F5F5F5F5F5F5F5F5F5F5F5F5F5F5
310
F5F5F5F5F5F5F5F5F5F5F5F5F5F5F5F5F5F5F5F5F5F5F5F5F5F5F5F5F5F5F5F5F5F5F5F5F5F5F5F5F5F5F5F5F5F5F5F5F5F5F5F5F5F5F5F5F5F5F5F5F5F5F5F5F5F5F5F5F5F5F5F5F5F5F5F5F5F5F5F5F5F5F5F5F5F5F5F5F5F5F5F5F5F5F5F5F5F5F5F5F5F5F5F5F5F5F5F5F5F5F5F5E2F5F5F5F5F5F5F5F5F5F5F5F5F5F5
310
F5F5F5F5F5F5E2E2EFF5F5F5F5F5F5F5F5F5F5F5F5F5F5F5F5F5F5F5F5E2F5F5F5F5F5F5F5F5F5F5F5F5F5F5F5F5F5F5F5F5F5F5F5F5F5F5F5F5F5F5F5F5F5F5F5F5F5F5F5F5F5F5F5F5F5F5F5F5F5F5F5F5F5F5F5F5F5F5F5F5F5F5F5F5F5F5F5F5F5F5F5F5F5F5F5F5F5F5F5F5F5F5F5F5F5F5F5F5F5F5F5F5F5F5F5F5F5
310
F5F5F5F5F5F5F5F5F5F5F5F5F5F5F5F5F5F5F5F5F5F5F5F5F5F5F5F5F5F5F5F5F5F5F5F5F5F5E2F5F5F5F5F5F5F5F5F5F5F5F5F5F5F5F5F5F5F5F5E2E2EFF5F5F5F5F5F5F5F5F5F5F5F5F5F5F5F5F5F5F5F5E2F5F5F5F5F5F5F5F5F5F5F5F5F5F5F5F5F5F5F5F5F5F5F5F5F5F5F5F5F5F5F5F5F5F5F5F5F5F5F5F5F5F5F5F5
310
F5F5F5F5F5F5F5F5F5F5F5F5F5F5F5F5F5F5F5F5F5F5F5F5F5F5F5F5F5F5F5F5F5F5F5F5F5F5F5F5F5F5F5F5F5F5F5F5F5F5F5F5F5F5F5F5F5F5F5F5F5F5F5F5F5F5F5F5F5F5F5F5F5F5F5F5F5F5F5F5F5F5F5F5F5F5F5F5F5F5F5E2F5F5F5F5F5F5F5F5F5F5F5F5F5F5F5F5F5F5F5F5E2E2EFF5F5F5F5F5F5F5F5F5F5F5F5
310
F5F5F5F5F5F5F5F5E2F5F5F5F5F5F5F5F5F5F5F5F5F5F5F5F5F5F5F5F5F5F5F5F5F5F5F5F5F5F5F5F5F5F5F5F5F5F5F5F5F5F5F5F5F5F5F5F5F5F5F5F5F5F5F5F5F5F5F5F5F5F5F5F5F5F5F5F5F5F5F5F5F5F5F5F5F5F5F5F5F5F5F5F5F5F5F5F5F5F5F5F5F5F5F5F5F5F5F5F5F5F5F5F5F5F5F5F5F5F5F5F5F5F5F5F5F5F5
310
F5F5F5F5F5F5F5F5F5F5F5F5F5F5F5F5F5E2F5F5F5F5F5F5F5F5F5F5F5F5F5F5F5F5F5F5F5F5E2E2EFF5F5F5F5F5F5F5F5F5F5F5F5F5F5F5F5F5F5F5F5E2F5F5F5F5F5F5F5F5F5F5F5F5F5F5F5F5F5F5F5F5F5F5F5F5F5F5F5F5F5F5F5F5F5F5F5F5F5F5F5F5F5F5F5F5F5F5F5F5F5F5F5F5F5F5F5F5F5F5F5F5F5F5F5F5F5
310
F5F5F5F5F5F5F5F5F5F5F5F5F5F5F5F5F5F5F5F5F5F5F5F5F5F5F5F5F5F5F5F5F5F5F5F5F5F5F5F5F5F5F5F5F5F5F5F5F5F5F5F5F5F5F5F5F5F5F5F5F5F5F5F5F5F5F5F5F5F5E2F5F5F5F5F5F5F5F5F5F5F5F5F5F5F5F5F5F5F5F5E2E2EFF5F5F5F5F5F5F5F5F5F5F5F5F5F5F5F5F5F5F5F5E2F5F5F5F5F5F5F5F5F5F5F5F5
310
F5F5F5F5F5F5F5F5F5F5F5F5F5F5F5F5F5F5F5F5F5F5F5F5F5F5F5F5F5F5F5F5F5F5F5F5F5F5F5F5F5F5F5F5F5F5F5F5F5F5F5F5F5F5F5F5F5F5F5F5F5F5F5F5F5F5F5F5F5F5F5F5F5F5F5F5F5F5F5F5F5F5F5F5F5F5F5F5F5F5F5F5F5F5F5F5F5F5F5F5F5F5F5F5F5F5F5F5F5F5F5F5F5F5F5F5F5F5F5F5F5F5F5E2F5F5F5
310
F5F5F5F5F5F5F5F5F5F5F5F5F5F5F5F5F5E2E2EFF5F5F5F5F5F5F5F5F5F5F5F5F5F5F5F5F5F5F5F5E2F5F5F5F5F5F5F5F5F5F5F5F5F5F5F5F5F5F5F5F5F5F5F5F5F5F5F5F5F5F5F5F5F5F5F5F5F5F5F5F5F5F5F5F5F5F5F5F5F5F5F5F5F5F5F5F5F5F5F5F5F5F5F5F5F5F5F5F5F5F5F5F5F5F5F5F5F5F5F5F5F5F5F5F5F5F5
310
F5F5F5F5F5F5F5F5F5F5F5F5F5F5F5F5F5F5F5F5F5F5F5F5F5F5F5F5F5F5F5F5F5F5F5F5F5F5F5F5F5F5F5F5F5F5F5F5F5E2F5F5F5F5F5F5F5F5F5F5F5F5F5F5F5F5F5F5F5F5E2E2EFF5F5F5F5F5F5F5F5F5F5F5F5F5F5F5F5F5F5F5F5E2F5F5F5F5F5F5F5F5F5F5F5F5F5F5F5F5F5F5F5F5F5F5F5F5F5F5F5F5F5F5F5F5F5
310
F5F5F5F5F5F5F5F5F5F5F5F5F5F5F5F5F5F5F5F5F5F5F5F5F5F5F5F5F5F5F5F5F5F5F5F5F5F5F5F5F5F5F5F5F5F5F5F5F5F5F5F5F5F5F5F5F5F5F5F5F5F5F5F5F5F5F5F5F5F5F5F5F5F5F5F5F5F5F5F5F5F5F5F5F5F5F5F5F5F5F5F5F5F5F5F5F5F5F5F5F5F5E2F5F5F5F5F5F5F5F5F5F5F5F5F5F5F5F5F5F5F5F5E2E2EFF5
310
F5F5F5F5F5F5F5F5F5F5F5F5F5F5F5F5F5F5F5E2F5F5F5F5F5F5F5F5F5F5F5F5F5F5F5F5F5F5F5F5F5F5F5F5F5F5F5F5F5F5F5F5F5F5F5F5F5F5F5F5F5F5F5F5F5F5F5F5F5F5F5F5F5F5F5F5F5F5F5F5F5F5F5F5F5F5F5F5F5F5F5F5F5F5F5F5F5F5F5F5F5F5F5F5F5F5F5F5F5F5F5F5F5F5F5F5F5F5F5F5F5F5F5F5F5F5F5
310
F5F5F5F5F5F5F5F5F5F5F5F5F5F5F5F5F5F5F5F5F5F5F5F5F5F5F5F5E2F5F5F5F5F5F5F5F5F5F5F5F5F5F5F5F5F5F5F5F5E2E2EFF5F5F5E2F5F5F5F5F5F5F5F5F5F5F5F5F5F5F5F5E2F5F5F5F5F5F5F5F5F5F5F5F5F5F5F5F5F5F5F5F5F5F5F5F5F5F5F5F5F5F5F5F5F5F5F5F5F5F5F5F5F5F5F5F5F5F5F5F5F5F5F5F5F5F5
310
F5F5F5F5F5F5F5F5F5F5F5F5F5F5F5F5F5F5F5F5F5F5F5F5F5F5F5F5F5F5F5F5F5F5F5F5F5F5F5F5F5F5F5F5F5F5F5F5F5F5F5F5F5F5F5F5F5F5F5F5F5F5F5F5F5F5F5F5F5F5F5F5F5F5F5F5F5F5F5F5F5E2F5F5F5F5F5F5F5F5F5F5F5F5F5F5F5F5E2F5F5F5E2E2EFF5F5F5E2F5F5F5F5F5F5F5F5F5F5F5F5F5F5F5F5E2F5
310
F5F5F5F5F5F5F5F5F5F5F5F5F5F5F5F5F5F5F5F5F5F5F5F5F5F5F5F5F5F5F5F5F5F5F5F5F5F5F5F5F5F5F5F5F5F5F5F5F5F5F5F5F5F5F5F5F5F5F5F5F5F5F5F5F5F5F5F5F5F5F5F5F5F5F5F5F5F5F5F5F5F5F5F5F5F5F5F5F5F5F5F5F5F5F5F5F5F5F5F5F5F5F5F5F5F5F5F5F5F5F5F5F5F5F5F5F5F5F5F5F5F5F5F5F5F5F5
310
F5F5F5F5F5F5F5E2F5F5F5F5F5F5F5F5F5F5F5F5F5F5F5F5E2F5F5F5E2E2EFF5F5F5E2F5F5F5F5F5F5F5F5F5F5F5F5F5F5F5F5E2F5F5F5F5F5F5F5F5F5F5F5F5F5F5F5F5F5F5F5F5F5F5F5F5F5F5F5F5F5F5F5F5F5F5F5F5F5F5F5F5F5F5F5F5F5F5F5F5F5F5F5F5F5F5F5F5F5F5F5F5F5F5F5F5F5F5F5F5F5F5F5F5F5F5F5
310
F5F5F5F5F5F5F5F5F5F5F5F5F5F5F5F5F5F5F5F5F5F5F5F5F5F5F5F5F5F5F5F5F5F5F5F5F5F5F5F5F5F5F5F5F5F5F5F5F5F5F5F5F5F5F5F5F5F5F5F5E2F5F5F5F5F5F5F5F5F5F5F5F5F5F5F5F5E2F5F5F5E2E2EFF5F5F5E2F5F5F5F5F5F5F5F5F5F5F5F5F5F5F5F5E2F5F5F5F5F5F5F5F5F5F5F5F5F5F5F5F5F5F5F5F5F5F5
310
F5F5F5F5F5F5F5F5F5F5F5F5F5F5F5F5F5F5F5F5F5F5F5F5F5F5F5F5F5F5F5F5F5F5F5F5F5F5F5F5F5F5F5F5F5F5F5F5F5F5F5F5F5F5F5F5F5F5F5F5F5F5F5F5F5F5F5F5F5F5F5F5F5F5F5F5F5F5F5F5F5F5F5F5F5F5F5F5F5F5F5F5F5F5F5F5F5F5F5F5F5F5F5F5F5F5F5F5F5F5F5F5F5E2F5F5F5F5F5F5F5F5F5F5F5F5F5
310
F5F5F5E2F5F5F5E2E2EFF5F5F5E2F5F5F5F5F5F5F5F5F5F5F5F5F5F5F5F5E2F5F5F5F5F5F5F5F5F5F5F5F5F5F5F5F5F5F5F5F5F5F5F5F5F5F5F5F5F5F5F5F5F5F5F5F5F5F5F5F5F5F5F5F5F5F5F5F5F5F5F5F5F5F5F5F5F5F5F5F5F5F5F5F5F5F5F5F5F5F5F5F5F5F5F5F5F5F5F5F5F5F5F5F5F5F5F5F5F5F5F5F5F5F5F5F5
310
F5F5F5F5F5F5F5F5F5F5F5F5F5F5F5F5F5F5F5F5F5F5F5F5F5F5F5F5F5F5F5F5F5F5F5F5F5F5F5E2F5F5F5F5F5F5F5F5F5F5F5F5F5F5F5F5E2F5F5F5E2E2EFF5F5F5E2F5F5F5F5F5F5F5F5F5F5F5F5F5F5F5F5E2F5F5F5F5F5F5F5F5F5F5F5F5F5F5F5F5F5F5F5F5F5F5F5F5F5F5F5F5F5F5F5F5F5F5F5F5F5F5F5F5F5F5F5
310
F5F5F5F5F5F5F5F5F5F5F5F5F5F5F5F5F5F5F5F5F5F5F5F5F5F5F5F5F5F5F5F5F5F5F5F5F5F5F5F5F5F5F5F5F5F5F5F5F5F5F5F5F5F5F5F5F5F5F5F5F5F5F5F5F5F5F5F5F5F5F5F5F5F5F5F5F5F5F5F5F5F5F5F5F5F5F5F5F5F5F5F5E2F5F5F5F5F5F5F5F5F5F5F5F5F5F5F5F5E2F5F5F5E2E2EFF5F5F5E2F5F5F5F5F5F5F5
310
F5F5F5F5F5F5F5F5F5E2F5F5F5F5F5F5F5F5F5F5F5F5F5F5F5F5F5F5F5F5F5F5F5F5F5F5F5F5F5F5F5F5F5F5F5F5F5F5F5F5F5F5F5F5F5F5F5F5F5F5F5F5F5F5F5F5F5F5F5F5F5F5F5F5F5F5F5F5F5F5F5F5F5F5F5F5F5F5F5F5F5F5F5F5F5F5F5F5F5F5F5F5F5F5F5F5F5F5F5F5F5F5F5F5F5F5F5F5F5F5F5F5F5F5F5F5F5
310
F5F5F5F5F5F5F5F5F5F5F5F5F5F5F5F5F5F5E2F5F5F5F5F5F5F5F5F5F5F5F5F5F5F5F5E2F5F5F5E2E2EFF5F5F5E2F5F5F5F5F5F5F5F5F5F5F5F5F5F5F5F5E2F5F5F5F5F5F5F5F5F5F5F5F5F5F5F5F5F5F5F5F5F5F5F5F5F5F5F5F5F5F5F5F5F5F5F5F5F5F5F5F5F5F5F5F5F5F5F5F5F5F5F5F5F5F5F5F5F5F5F5F5F5F5F5F5
310
F5F5F5F5F5F5F5F5F5F5F5F5F5F5F5F5F5F5F5F5F5F5F5F5F5F5F5F5F5F5F5F5F5F5F5F5F5F5F5F5F5F5F5F5F5F5F5F5F5F5F5F5F5F5F5F5F5F5F5F5F5F5F5F5F5F5F5F5F5F5F5E2F5F5F5F5F5F5F5F5F5F5F5F5F5F5F5F5E2F5F5F5E2E2EFF5F5F5E2F5F5F5F5F5F5F5F5F5F5F5F5F5F5F5F5E2F5F5F5F5F5F5F5F5F5F5F5
310
F5F5F5F5F5F5F5F5F5F5F5F5F5F5F5F5F5F5F5F5F5F5F5F5F5F5F5F5F5F5F5F5F5F5F5F5F5F5F5F5F5F5F5F5F5F5F5F5F5F5F5F5F5F5F5F5F5F5F5F5F5F5F5F5F5F5F5F5F5F5F5F5F5F5F5F5F5F5F5F5F5F5F5F5F5F5F5F5F5F5F5F5F5F5F5F5F5F5F5F5F5F5F5F5F5F5F5F5F5F5F5F5F5F5F5F5F5F5F5F5F5F5F5F5E2F5F5
310
F5F5F5F5F5F5F5F5F5F5F5F5F5F5E2F5F5F5E2E2EFF5F5F5E2F5F5F5F5F5F5F5F5F5F5F5F5F5F5F5F5E2F5F5F5F5F5F5F5F5F5F5F5F5F5F5F5F5F5F5F5F5F5F5F5F5F5F5F5F5F5F5F5F5F5F5F5F5F5F5F5F5F5F5F5F5F5F5F5F5F5F5F5F5F5F5F5F5F5F5F5F5F5F5F5F5F5F5F5F5F5F5F5F5F5F5F5F5F5F5F5F5F5F5F5F5F5
310
F5F5F5F5F5F5F5F5F5F5F5F5F5F5F5F5F5F5F5F5F5F5F5F5F5F5F5F5F5F5F5F5F5F5F5F5F5F5F5F5F5F5F5F5F5F5F5F5F5F5E2F5F5F5F5F5F5F5F5F5F5F5F5F5F5F5F5E2F5F5F5E2E2EFF5F5F5E2F5F5F5F5F5F5F5F5F5F5F5F5F5F5F5F5E2F5F5F5F5F5F5F5F5F5F5F5F5F5F5F5F5F5F5F5F5F5F5F5F5F5F5F5F5F5F5F5F5
310
F5F5F5F5F5F5F5F5F5F5F5F5F5F5F5F5F5F5F5F5F5F5F5F5F5F5F5F5F5F5F5F5F5F5F5F5F5F5F5F5F5F5F5F5F5F5F5F5F5F5F5F5F5F5F5F5F5F5F5F5F5F5F5F5F5F5F5F5F5F5F5F5F5F5F5F5F5F5F5F5F5F5F5F5F5F5F5F5F5F5F5F5F5F5F5F5F5F5F5F5F5F5F5E2F5F5F5F5F5F5F5F5F5F5F5F5F5F5F5F5E2F5F5F5E2E2EF
310
F5F5F5E2F5F5F5F5F5F5F5F5F5F5F5F5F5F5F5F5E2F5F5F5F5F5F5F5F5F5F5F5F5F5F5F5F5F5F5F5F5F5F5F5F5F5F5F5F5F5F5F5F5F5F5F5F5F5F5F5F5F5F5F5F5F5F5F5F5F5F5F5F5F5F5F5F5F5F5F5F5F5F5F5F5F5F5F5F5F5F5F5F5F5F5F5F5F5F5F5F5F5F5F5F5F5F5F5F5F5F5F5F5F5F5F5F5F5F5F5F5F5F5F5F5F5F5
310
F5F5F5F5F5F5F5F5F5F5F5F5F5F5F5F5F5F5F5F5F5F5F5F5F5F5F5F5F5E2F5F5F5F5F5F5F5F5F5F5F5F5F5F5F5F5E2F5F5F5E2E2EFF5F5F5E2F5F5F5F5F5F5F5F5F5F5F5F5F5F5F5F5E2F5F5F5F5F5F5F5F5F5F5F5F5F5F5F5F5F5F5F5F5F5F5F5F5F5F5F5F5F5F5F5F5F5F5F5F5F5F5F5F5F5F5F5F5F5F5F5F5F5F5F5F5F5
310
F5F5F5F5F5F5F5F5F5F5F5F5F5F5F5F5F5F5F5F5F5F5F5F5F5F5F5F5F5F5F5F5F5F5F5F5F5F5F5F5F5F5F5F5F5F5F5F5F5F5F5F5F5F5F5F5F5F5F5F5F5F5F5F5F5F5F5F5F5F5F5F5F5F5F5F5F5F5F5F5F5F5E2F5F5F5F5F5F5F5F5F5F5F5F5F5F5F5F5E2F5F5F5E2E2EFF5F5F5E2F5F5F5F5F5F5F5F5F5F5F5F5F5F5F5F5E2
310
F5F5F5F5F5F5F5F5F5F5F5F5F5F5F5F5F5F5F5F5F5F5F5F5F5F5F5F5F5F5F5F5F5F5F5F5F5F5F5F5F5F5F5F5F5F5F5F5F5F5F5F5F5F5F5F5F5F5F5F5F5F5F5F5F5F5F5F5F5F5F5F5F5F5F5F5F5F5F5F5F5F5F5F5F5F5F5F5F5F5F5F5F5F5F5F5F5F5F5F5F5F5F5F5F5F5F5F5F5F5F5F5F5F5F5F5F5F5F5F5F5F5F5F5F5F5F5
310
F5F5F5F5F5F5F5F5E2F5F5F5F5F5F5F5F5F5F5F5F5F5F5F5F5E2F5F5F5E2E2EFF5F5F5E2F5F5F5F5F5F5F5F5F5F5F5F5F5F5F5F5E2F5F5F5F5F5F5F5F5F5F5F5F5F5F5F5F5F5F5F5F5F5F5F5F5F5F5F5F5F5F5F5F5F5F5F5F5F5F5F5F5F5F5F5F5F5F5F5F5F5F5F5F5F5F5F5F5F5F5F5F5F5F5F5F5F5F5F5F5F5F5F5F5F5F5
310
F5F5F5F5F5F5F5F5F5F5F5F5F5F5F5F5F5F5F5F5F5F5F5F5F5F5F5F5F5F5F5F5F5F5F5F5F5F5F5F5F5F5F5F5F5F5F5F5F5F5F5F5F5F5F5F5F5F5F5F5F5E2F5F5F5F5F5F5F5F5F5F5F5F5F5F5F5F5E2F5F5F5E2E2EFF5F5F5E2F5F5F5F5F5F5F5F5F5F5F5F5F5F5F5F5E2F5F5F5F5F5F5F5F5F5F5F5F5F5F5F5F5F5F5F5F5F5
310
F5F5F5F5F5F5F5F5F5F5F5F5F5F5F5F5F5F5F5F5F5F5F5F5F5F5F5F5F5F5F5F5F5F5F5F5F5F5F5F5F5F5F5F5F5F5F5F5F5F5F5F5F5F5F5F5F5F5F5F5F5F5F5F5F5F5F5F5F5F5F5F5F5F5F5F5F5F5F5F5F5F5F5F5F5F5F5F5F5F5F5F5F5F5F5F5F5F5F5F5F5F5F5F5F5F5F5F5F5F5F5F5F5F5E2F5F5F5F5F5F5F5F5F5F5F5F5
310
F5F5F5F5E2F5F5F5E2E2EFF5F5F5E2F5F5F5F5F5F5F5F5F5F5F5F5F5F5F5F5E2F5F5F5F5F5F5F5F5F5F5F5F5F5F5F5F5F5F5F5F5F5F5F5F5F5F5F5F5F5F5F5F5F5F5F5F5F5F5F5F5F5F5F5F5F5F5F5F5F5F5F5F5F5F5F5F5F5F5F5F5F5F5F5F5F5F5F5F5F5F5F5F5F5F5F5F5F5F5F5F5F5F5F5F5F5F5F5F5F5F5F5F5F5F5F5
310
F5F5F5F5F5F5F5F5F5F5F5F5F5F5F5F5F5F5F5F5F5F5F5F5F5F5F5F5F5F5F5F5F5F5F5F5F5F5F5F5E2F5F5F5F5F5F5F5F5F5F5F5F5F5F5F5F5E2F5F5F5E2E2EFF5F5F5F5F5F5F5F5F5F5F5F5F5F5F5F5F5F5F5F5E2F5F5F5F5F5F5F5F5F5F5F5F5F5F5F5F5F5F5F5F5F5F5F5F5F5F5F5F5F5F5F5F5F5F5F5F5F5F5F5F5F5F5
310
F5F5F5F5F5F5F5F5F5F5F5F5F5F5F5F5F5F5F5F5F5F5F5F5F5F5F5F5F5F5F5F5F5F5F5F5F5F5F5F5F5F5F5F5F5F5F5F5F5F5F5F5F5F5F5F5F5F5F5F5F5F5F5F5F5F5F5F5F5F5F5F5F5F5F5F5F5F5F5F5F5F5F5F5F5F5F5F5F5F5F5F5F5E2F5F5F5F5F5F5F5F5F5F5F5F5F5F5F5F5F5F5F5F5E2E2EFF5F5F5F5F5F5F5F5F5F5
310
F5F5F5F5F5F5F5F5F5F5E2F5F5F5F5F5F5F5F5F5F5F5F5F5F5F5F5F5F5F5F5F5F5F5F5F5F5F5F5F5F5F5F5F5F5F5F5F5F5F5F5F5F5F5F5F5F5F5F5F5F5F5F5F5F5F5F5F5F5F5F5F5F5F5F5F5F5F5F5F5F5F5F5F5F5F5F5F5F5F5F5F5F5F5F5F5F5F5F5F5F5F5F5F5F5F5F5F5F5F5F5F5F5F5F5F5F5F5F5F5F5F5F5F5F5F5F5
310
F5F5F5F5F5F5F5F5F5F5F5F5F5F5F5F5F5F5F5E2F5F5F5F5F5F5F5F5F5F5F5F5F5F5F5F5F5F5F5F5E2E2EFF5F5F5F5F5F5F5F5F5F5F5F5F5F5F5F5F5F5F5F5E2F5F5F5F5F5F5F5F5F5F5F5F5F5F5F5F5F5F5F5F5F5F5F5F5F5F5F5F5F5F5F5F5F5F5F5F5F5F5F5F5F5F5F5F5F5F5F5F5F5F5F5F5F5F5F5F5F5F5F5F5F5F5F5
310
F5F5F5F5F5F5F5F5F5F5F5F5F5F5F5F5F5F5F5F5F5F5F5F5F5F5F5F5F5F5F5F5F5F5F5F5F5F5F5F5F5F5F5F5F5F5F5F5F5F5F5F5F5F5F5F5F5F5F5F5F5F5F5F5F5F5F5F5F5F5F5F5E2F5F5F5F5F5F5F5F5F5F5F5F5F5F5F5F5F5F5F5F5E2E2EFF5F5F5F5F5F5F5F5F5F5F5F5F5F5F5F5F5F5F5F5E2F5F5F5F5F5F5F5F5F5F5
310
F5F5F5F5F5F5F5F5F5F5F5F5F5F5F5F5F5F5F5F5F5F5F5F5F5F5F5F5F5F5F5F5F5F5F5F5F5F5F5F5F5F5F5F5F5F5F5F5F5F5F5F5F5F5F5F5F5F5F5F5F5F5F5F5F5F5F5F5F5F5F5F5F5F5F5F5F5F5F5F5F5F5F5F5F5F5F5F5F5F5F5F5F5F5F5F5F5F5F5F5F5F5F5F5F5F5F5F5F5F5F5F5F5F5F5F5F5F5F5F5F5F5F5F5F5E2F5
310
F5F5F5F5F5F5F5F5F5F5F5F5F5F5F5F5F5F5F5E2E2EFF5F5F5F5F5F5F5F5F5F5F5F5F5F5F5F5F5F5F5F5E2F5F5F5F5F5F5F5F5F5F5F5F5F5F5F5F5F5F5F5F5F5F5F5F5F5F5F5F5F5F5F5F5F5F5F5F5F5F5F5F5F5F5F5F5F5F5F5F5F5F5F5F5F5F5F5F5F5F5F5F5F5F5F5F5F5F5F5F5F5F5F5F5F5F5F5F5F5F5F5F5F5F5F5F5
310
F5F5F5F5F5F5F5F5F5F5F5F5F5F5F5F5F5F5F5F5F5F5F5F5F5F5F5F5F5F5F5F5F5F5F5F5F5F5F5F5F5F5F5F5F5F5F5F5F5F5F5E2F5F5F5F5F5F5F5F5F5F5F5F5F5F5F5F5F5F5F5F5E2E2EFF5F5F5F5F5F5F5F5F5F5F5F5F5F5F5F5F5F5F5F5E2F5F5F5F5F5F5F5F5F5F5F5F5F5F5F5F5F5F5F5F5F5F5F5F5F5F5F5F5F5F5F5
310
F5F5F5F5F5F5F5F5F5F5F5F5F5F5F5F5F5F5F5F5F5F5F5F5F5F5F5F5F5F5F5F5F5F5F5F5F5F5F5F5F5F5F5F5F5F5F5F5F5F5F5F5F5F5F5F5F5F5F5F5F5F5F5F5F5F5F5F5F5F5F5F5F5F5F5F5F5F5F5F5F5F5F5F5F5F5F5F5F5F5F5F5F5F5F5F5F5F5F5F5F5F5F5F5E2F5F5F5F5F5F5F5F5F5F5F5F5F5F5F5F5F5F5F5F5E2E2
310
EFF5F5F5F5F5F5F5F5F5F5F5F5F5F5F5F5F5F5F5F5E2F5F5F5F5F5F5F5F5F5F5F5F5F5F5F5F5F5F5F5F5F5F5F5F5F5F5F5F5F5F5F5F5F5F5F5F5F5F5F5F5F5F5F5F5F5F5F5F5F5F5F5F5F5F5F5F5F5F5F5F5F5F5F5F5F5F5F5F5F5F5F5F5F5F5F5F5F5F5F5F5F5F5F5F5F5F5F5F5F5F5F5F5F5F5F5F5F5F5F5F5F5F5F5F5F5
310
F5F5F5F5F5F5F5F5F5F5F5F5F5F5F5F5F5F5F5F5F5F5F5F5F5F5F5F5F5F5E2F5F5F5F5F5F5F5F5F5F5F5F5F5F5F5F5F5F5F5F5E2E2EFF5F5F5F5F5F5F5F5F5F5F5F5F5F5F5F5F5F5F5F5E2F5F5F5F5F5F5F5F5F5F5F5F5F5F5F5F5F5F5F5F5F5F5F5F5F5F5F5F5F5F5F5F5F5F5F5F5F5F5F5F5F5F5F5F5F5F5F5F5F5F5F5F5
310
F5F5F5F5F5F5F5F5F5F5F5F5F5F5F5F5F5F5F5F5F5F5F5F5F5F5F5F5F5F5F5F5F5F5F5F5F5F5F5F5F5F5F5F5F5F5F5F5F5F5F5F5F5F5F5F5F5F5F5F5F5F5F5F5F5F5F5F5F5F5F5F5F5F5F5F5F5F5F5F5F5F5F5E2F5F5F5F5F5F5F5F5F5F5F5F5F5F5F5F5F5F5F5F5E2E2EFF5F5F5F5F5F5F5F5F5F5F5F5F5F5F5F5F5F5F5F5
310
E2F5F5F5F5F5F5F5F5F5F5F5F5F5F5F5F5F5F5F5F5F5F5F5F5F5F5F5F5F5F5F5F5F5F5F5F5F5F5F5F5F5F5F5F5F5F5F5F5F5F5F5F5F5F5F5F5F5F5F5F5F5F5F5F5F5F5F5F5F5F5F5F5F5F5F5F5F5F5F5F5F5F5F5F5F5F5F5F5F5F5F5F5F5F5F5F5F5F5F5F5F5F5F5F5F5F5F5F5F5F5F5F5F5F5F5F5F5F5F5F5F5F5F5F5F5F5
310
F5F5F5F5F5F5F5F5F5E2F5F5F5F5F5F5F5F5F5F5F5F5F5F5F5F5F5F5F5F5E2E2EFF5F5F5E2F5F5F5F5F5F5F5F5F5F5F5F5F5F5F5F5E2F5F5F5F5F5F5F5F5F5F5F5F5F5F5F5F5F5F5F5F5F5F5F5F5F5F5F5F5F5F5F5F5F5F5F5F5F5F5F5F5F5F5F5F5F5F5F5F5F5F5F5F5F5F5F5F5F5F5F5F5F5F5F5F5F5F5F5F5F5F5F5F5F5
310
F5F5F5F5F5F5F5F5F5F5F5F5F5F5F5F5F5F5F5F5F5F5F5F5F5F5F5F5F5F5F5F5F5F5F5F5F5F5F5F5F5F5F5F5F5F5F5F5F5F5F5F5F5F5F5F5F5F5F5F5F5F5E2F5F5F5F5F5F5F5F5F5F5F5F5F5F5F5F5E2F5F5F5E2E2EFF5F5F5E2F5F5F5F5F5F5F5F5F5F5F5F5F5F5F5F5E2F5F5F5F5F5F5F5F5F5F5F5F5F5F5F5F5F5F5F5F5
310
F5F5F5F5F5F5F5F5F5F5F5F5F5F5F5F5F5F5F5F5F5F5F5F5F5F5F5F5F5F5F5F5F5F5F5F5F5F5F5F5F5F5F5F5F5F5F5F5F5F5F5F5F5F5F5F5F5F5F5F5F5F5F5F5F5F5F5F5F5F5F5F5F5F5F5F5F5F5F5F5F5F5F5F5F5F5F5F5F5F5F5F5F5F5F5F5F5F5F5F5F5F5F5F5F5F5F5F5F5F5F5F5F5F5F5E2F5F5F5F5F5F5F5F5F5F5F5
310
F5F5F5F5F5E2F5F5F5E2E2EFF5F5F5E2F5F5F5F5F5F5F5F5F5F5F5F5F5F5F5F5E2F5F5F5F5F5F5F5F5F5F5F5F5F5F5F5F5F5F5F5F5F5F5F5F5F5F5F5F5F5F5F5F5F5F5F5F5F5F5F5F5F5F5F5F5F5F5F5F5F5F5F5F5F5F5F5F5F5F5F5F5F5F5F5F5F5F5F5F5F5F5F5F5F5F5F5F5F5F5F5F5F5F5F5F5F5F5F5F5F5F5F5F5F5F5
310
F5F5F5F5F5F5F5F5F5F5F5F5F5F5F5F5F5F5F5F5F5F5F5F5F5F5F5F5F5F5F5F5F5F5F5F5F5F5F5F5F5E2F5F5F5F5F5F5F5F5F5F5F5F5F5F5F5F5E2F5F5F5E2E2EFF5F5F5E2F5F5F5F5F5F5F5F5F5F5F5F5F5F5F5F5E2F5F5F5F5F5F5F5F5F5F5F5F5F5F5F5F5F5F5F5F5F5F5F5F5F5F5F5F5F5F5F5F5F5F5F5F5F5F5F5F5F5
310
F5F5F5F5F5F5F5F5F5F5F5F5F5F5F5F5F5F5F5F5F5F5F5F5F5F5F5F5F5F5F5F5F5F5F5F5F5F5F5F5F5F5F5F5F5F5F5F5F5F5F5F5F5F5F5F5F5F5F5F5F5F5F5F5F5F5F5F5F5F5F5F5F5F5F5F5F5F5F5F5F5F5F5F5F5F5F5F5F5F5F5F5F5F5E2F5F5F5F5F5F5F5F5F5F5F5F5F5F5F5F5E2F5F5F5E2E2EFF5F5F5E2F5F5F5F5F5
310
F5F5F5F5F5F5F5F5F5F5F5E2F5F5F5F5F5F5F5F5F5F5F5F5F5F5F5F5F5F5F5F5F5F5F5F5F5F5F5F5F5F5F5F5F5F5F5F5F5F5F5F5F5F5F5F5F5F5F5F5F5F5F5F5F5F5F5F5F5F5F5F5F5F5F5F5F5F5F5F5F5F5F5F5F5F5F5F5F5F5F5F5F5F5F5F5F5F5F5F5F5F5F5F5F5F5F5F5F5F5F5F5F5F5F5F5F5F5F5F5F5F5F5F5F5F5F5
310
F5F5F5F5F5F5F5F5F5F5F5F5F5F5F5F5F5F5F5F5E2F5F5F5F5F5F5F5F5F5F5F5F5F5F5F5F5E2F5F5F5E2E2EFF5F5F5E2F5F5F5F5F5F5F5F5F5F5F5F5F5F5F5F5E2F5F5F5F5F5F5F5F5F5F5F5F5F5F5F5F5F5F5F5F5F5F5F5F5F5F5F5F5F5F5F5F5F5F5F5F5F5F5F5F5F5F5F5F5F5F5F5F5F5F5F5F5F5F5F5F5F5F5F5F5F5F5
310
F5F5F5F5F5F5F5F5F5F5F5F5F5F5F5F5F5F5F5F5F5F5F5F5F5F5F5F5F5F5F5F5F5F5F5F5F5F5F5F5F5F5F5F5F5F5F5F5F5F5F5F5F5F5F5F5F5F5F5F5F5F5F5F5F5F5F5F5F5F5F5F5F5E2F5F5F5F5F5F5F5F5F5F5F5F5F5F5F5F5E2F5F5F5E2E2EFF5F5F5E2F5F5F5F5F5F5F5F5F5F5F5F5F5F5F5F5E2F5F5F5F5F5F5F5F5F5
310
F5F5F5F5F5F5F5F5F5F5F5F5F5F5F5F5F5F5F5F5F5F5F5F5F5F5F5F5F5F5F5F5F5F5F5F5F5F5F5F5F5F5F5F5F5F5F5F5F5F5F5F5F5F5F5F5F5F5F5F5F5F5F5F5F5F5F5F5F5F5F5F5F5F5F5F5F5F5F5F5F5F5F5F5F5F5F5F5F5F5F5F5F5F5F5F5F5F5F5F5F5F5F5F5F5F5F5F5F5F5F5F5F5F5F5F5F5F5F5F5F5F5F5F5F5F5E2
310
F5F5F5F5F5F5F5F5F5F5F5F5F5F5F5F5E2F5F5F5E2E2EFF5F5F5E2F5F5F5F5F5F5F5F5F5F5F5F5F5F5F5F5E2F5F5F5F5F5F5F5F5F5F5F5F5F5F5F5F5F5F5F5F5F5F5F5F5F5F5F5F5F5F5F5F5F5F5F5F5F5F5F5F5F5F5F5F5F5F5F5F5F5F5F5F5F5F5F5F5F5F5F5F5F5F5F5F5F5F5F5F5F5F5F5F5F5F5F5F5F5F5F5F5F5F5F5
310
F5F5F5F5F5F5F5F5F5F5F5F5F5F5F5F5F5F5F5F5F5F5F5F5F5F5F5F5F5F5F5F5F5F5F5F5F5F5F5F5F5F5F5F5F5F5F5F5F5F5F5F5E2F5F5F5F5F5F5F5F5F5F5F5F5F5F5F5F5E2F5F5F5E2E2EFF5F5F5E2F5F5F5F5F5F5F5F5F5F5F5F5F5F5F5F5E2F5F5F5F5F5F5F5F5F5F5F5F5F5F5F5F5F5F5F5F5F5F5F5F5F5F5F5F5F5F5
310
F5F5F5F5F5F5F5F5F5F5F5F5F5F5F5F5F5F5F5F5F5F5F5F5F5F5F5F5F5F5F5F5F5F5F5F5F5F5F5F5F5F5F5F5F5F5F5F5F5F5F5F5F5F5F5F5F5F5F5F5F5F5F5F5F5F5F5F5F5F5F5F5F5F5F5F5F5F5F5F5F5F5F5F5F5F5F5F5F5F5F5F5F5F5F5F5F5F5F5F5F5F5F5F5F5E2F5F5F5F5F5F5F5F5F5F5F5F5F5F5F5F5E2F5F5F5E2
310
E2EFF5F5F5E2F5F5F5F5F5F5F5F5F5F5F5F5F5F5F5F5E2F5F5F5F5F5F5F5F5F5F5F5F5F5F5F5F5F5F5F5F5F5F5F5F5F5F5F5F5F5F5F5F5F5F5F5F5F5F5F5F5F5F5F5F5F5F5F5F5F5F5F5F5F5F5F5F5F5F5F5F5F5F5F5F5F5F5F5F5F5F5F5F5F5F5F5F5F5F5F5F5F5F5F5F5F5F5F5F5F5F5F5F5F5F5F5F5F5F5F5F5F5F5F5F5
310
F5F5F5F5F5F5F5F5F5F5F5F5F5F5F5F5F5F5F5F5F5F5F5F5F5F5F5F5F5F5F5E2F5F5F5F5F5F5F5F5F5F5F5F5F5F5F5F5E2F5F5F5E2E2EFF5F5F5E2F5F5F5F5F5F5F5F5F5F5F5F5F5F5F5F5E2F5F5F5F5F5F5F5F5F5F5F5F5F5F5F5F5F5F5F5F5F5F5F5F5F5F5F5F5F5F5F5F5F5F5F5F5F5F5F5F5F5F5F5F5F5F5F5F5F5F5F5
310
F5F5F5F5F5F5F5F5F5F5F5F5F5F5F5F5F5F5F5F5F5F5F5F5F5F5F5F5F5F5F5F5F5F5F5F5F5F5F5F5F5F5F5F5F5F5F5F5F5F5F5F5F5F5F5F5F5F5F5F5F5F5F5F5F5F5F5F5F5F5F5F5F5F5F5F5F5F5F5F5F5F5F5F5E2F5F5F5F5F5F5F5F5F5F5F5F5F5F5F5F5E2F5F5F5E2E2EFF5F5F5E2F5F5F5F5F5F5F5F5F5F5F5F5F5F5F5
310
F5E2F5F5F5F5F5F5F5F5F5F5F5F5F5F5F5F5F5F5F5F5F5F5F5F5F5F5F5F5F5F5F5F5F5F5F5F5F5F5F5F5F5F5F5F5F5F5F5F5F5F5F5F5F5F5F5F5F5F5F5F5F5F5F5F5F5F5F5F5F5F5F5F5F5F5F5F5F5F5F5F5F5F5F5F5F5F5F5F5F5F5F5F5F5F5F5F5F5F5F5F5F5F5F5F5F5F5F5F5F5F5F5F5F5F5F5F5F5F5F5F5F5F5F5F5F5
310
F5F5F5F5F5F5F5F5F5F5E2F5F5F5F5F5F5F5F5F5F5F5F5F5F5F5F5E2F5F5F5E2E2EFF5F5F5E2F5F5F5F5F5F5F5F5F5F5F5F5F5F5F5F5E2F5F5F5F5F5F5F5F5F5F5F5F5F5F5F5F5F5F5F5F5F5F5F5F5F5F5F5F5F5F5F5F5F5F5F5F5F5F5F5F5F5F5F5F5F5F5F5F5F5F5F5F5F5F5F5F5F5F5F5F5F5F5F5F5F5F5F5F5F5F5F5F5
310
F5F5F5F5F5F5F5F5F5F5F5F5F5F5F5F5F5F5F5F5F5F5F5F5F5F5F5F5F5F5F5F5F5F5F5F5F5F5F5F5F5F5F5F5F5F5F5F5F5F5F5F5F5F5F5F5F5F5F5F5F5F5F5E2F5F5F5F5F5F5F5F5F5F5F5F5F5F5F5F5E2F5F5F5E2E2EFF5F5F5E2F5F5F5F5F5F5F5F5F5F5F5F5F5F5F5F5E2F5F5F5F5F5F5F5F5F5F5F5F5F5F5F5F5F5F5F5
310
F5F5F5F5F5F5F5F5F5F5F5F5F5F5F5F5F5F5F5F5F5F5F5F5F5F5F5F5F5F5F5F5F5F5F5F5F5F5F5F5F5F5F5F5F5F5F5F5F5F5F5F5F5F5F5F5F5F5F5F5F5F5F5F5F5F5F5F5F5F5F5F5F5F5F5F5F5F5F5F5F5F5F5F5F5F5F5F5F5F5F5F5F5F5F5F5F5F5F5F5F5F5F5F5F5F5F5F5F5F5F5F5F5F5F5F5E2F5F5F5F5F5F5F5F5F5F5
310
F5F5F5F5F5F5E2F5F5F5E2E2EFF5F5F5E2F5F5F5F5F5F5F5F5F5F5F5F5F5F5F5F5E2F5F5F5F5F5F5F5F5F5F5F5F5F5F5F5F5F5F5F5F5F5F5F5F5F5F5F5F5F5F5F5F5F5F5F5F5F5F5F5F5F5F5F5F5F5F5F5F5F5F5F5F5F5F5F5F5F5F5F5F5F5F5F5F5F5F5F5F5F5F5F5F5F5F5F5F5F5F5F5F5F5F5F5F5F5F5F5F5F5F5F5F5F5
310
F5F5F5F5F5F5F5F5F5F5F5F5F5F5F5F5F5F5F5F5F5F5F5F5F5F5F5F5F5F5F5F5F5F5F5F5F5F5F5F5F5F5E2F5F5F5F5F5F5F5F5F5F5F5F5F5F5F5F5E2F5F5F5E2E2EFF5F5F5E2F5F5F5F5F5F5F5F5F5F5F5F5F5F5F5F5E2F5F5F5F5F5F5F5F5F5F5F5F5F5F5F5F5F5F5F5F5F5F5F5F5F5F5F5F5F5F5F5F5F5F5F5F5F5F5F5F5
310
F5F5F5F5F5F5F5F5F5F5F5F5F5F5F5F5F5F5F5F5F5F5F5F5F5F5F5F5F5F5F5F5F5F5F5F5F5F5F5F5F5F5F5F5F5F5F5F5F5F5F5F5F5F5F5F5F5F5F5F5F5F5F5F5F5F5F5F5F5F5F5F5F5F5F5F5F5F5F5F5F5F5F5F5F5F5F5F5F5F5F5F5F5F5F5E2F5F5F5F5F5F5F5F5F5F5F5F5F5F5F5F5E2F5F5F5E2E2EFF5F5F5E2F5F5F5F5
310
F5F5F5F5F5F5F5F5F5F5F5F5E2F5F5F5F5F5F5F5F5F5F5F5F5F5F5F5F5F5F5F5F5F5F5F5F5F5F5F5F5F5F5F5F5F5F5F5F5F5F5F5F5F5F5F5F5F5F5F5F5F5F5F5F5F5F5F5F5F5F5F5F5F5F5F5F5F5F5F5F5F5F5F5F5F5F5F5F5F5F5F5F5F5F5F5F5F5F5F5F5F5F5F5F5F5F5F5F5F5F5F5F5F5F5F5F5F5F5F5F5F5F5F5F5F5F5
310
F5F5F5F5F5F5F5F5F5F5F5F5F5F5F5F5F5F5F5F5F5E2F5F5F5F5F5F5F5F5F5F5F5F5F5F5F5F5E2F5F5F5E2E2EFF5F5F5F5F5F5F5F5F5F5F5F5F5F5F5F5F5F5F5F5E2F5F5F5F5F5F5F5F5F5F5F5F5F5F5F5F5F5F5F5F5F5F5F5F5F5F5F5F5F5F5F5F5F5F5F5F5F5F5F5F5F5F5F5F5F5F5F5F5F5F5F5F5F5F5F5F5F5F5F5F5F5
310
F5F5F5F5F5F5F5F5F5F5F5F5F5F5F5F5F5F5F5F5F5F5F5F5F5F5F5F5F5F5F5F5F5F5F5F5F5F5F5F5F5F5F5F5F5F5F5F5F5F5F5F5F5F5F5F5F5F5F5F5F5F5F5F5F5F5F5F5F5F5F5F5F5F5E2F5F5F5F5F5F5F5F5F5F5F5F5F5F5F5F5F5F5F5F5E2E2EFF5F5F5F5F5F5F5F5F5F5F5F5F5F5F5F5F5F5F5F5E2F5F5F5F5F5F5F5F5
310
F5F5F5F5F5F5F5F5F5F5F5F5F5F5F5F5F5F5F5F5F5F5F5F5F5F5F5F5F5F5F5F5F5F5F5F5F5F5F5F5F5F5F5F5F5F5F5F5F5F5F5F5F5F5F5F5F5F5F5F5F5F5F5F5F5F5F5F5F5F5F5F5F5F5F5F5F5F5F5F5F5F5F5F5F5F5F5F5F5F5F5F5F5F5F5F5F5F5F5F5F5F5F5F5F5F5F5F5F5F5F5F5F5F5F5F5F5F5F5F5F5F5F5F5F5F5F5
310
E2F5F5F5F5F5F5F5F5F5F5F5F5F5F5F5F5F5F5F5F5E2E2EFF5F5F5F5F5F5F5F5F5F5F5F5F5F5F5F5F5F5F5F5E2F5F5F5F5F5F5F5F5F5F5F5F5F5F5F5F5F5F5F5F5F5F5F5F5F5F5F5F5F5F5F5F5F5F5F5F5F5F5F5F5F5F5F5F5F5F5F5F5F5F5F5F5F5F5F5F5F5F5F5F5F5F5F5F5F5F5F5F5F5F5F5F5F5F5F5F5F5F5F5F5F5F5
310
F5F5F5F5F5F5F5F5F5F5F5F5F5F5F5F5F5F5F5F5F5F5F5F5F5F5F5F5F5F5F5F5F5F5F5F5F5F5F5F5F5F5F5F5F5F5F5F5F5F5F5F5F5E2F5F5F5F5F5F5F5F5F5F5F5F5F5F5F5F5F5F5F5F5E2E2EFF5F5F5F5F5F5F5F5F5F5F5F5F5F5F5F5F5F5F5F5E2F5F5F5F5F5F5F5F5F5F5F5F5F5F5F5F5F5F5F5F5F5F5F5F5F5F5F5F5F5
310
F5F5F5F5F5F5F5F5F5F5F5F5F5F5F5F5F5F5F5F5F5F5F5F5F5F5F5F5F5F5F5F5F5F5F5F5F5F5F5F5F5F5F5F5F5F5F5F5F5F5F5F5F5F5F5F5F5F5F5F5F5F5F5F5F5F5F5F5F5F5F5F5F5F5F5F5F5F5F5F5F5F5F5F5F5F5F5F5F5F5F5F5F5F5F5F5F5F5F5F5F5F5F5F5F5F5E2F5F5F5F5F5F5F5F5F5F5F5F5F5F5F5F5F5F5F5F5
310
E2E2EFF5F5F5F5F5F5F5F5F5F5F5F5F5F5F5F5F5F5F5F5E2F5F5F5F5F5F5F5F5F5F5F5F5F5F5F5F5F5F5F5F5F5F5F5F5F5F5F5F5F5F5F5F5F5F5F5F5F5F5F5F5F5F5F5F5F5F5F5F5F5F5F5F5F5F5F5F5F5F5F5F5F5F5F5F5F5F5F5F5F5F5F5F5F5F5F5F5F5F5F5F5F5F5F5F5F5F5F5F5F5F5F5F5F5F5F5F5F5F5F5F5F5F5F5
310
F5F5F5F5F5F5F5F5F5F5F5F5F5F5F5F5F5F5F5F5F5F5F5F5F5F5F5F5F5F5F5F5E2F5F5F5F5F5F5F5F5F5F5F5F5F5F5F5F5F5F5F5F5E2E2EFF5F5F5F5F5F5F5F5F5F5F5F5F5F5F5F5F5F5F5F5E2F5F5F5F5F5F5F5F5F5F5F5F5F5F5F5F5F5F5F5F5F5F5F5F5F5F5F5F5F5F5F5F5F5F5F5F5F5F5F5F5F5F5F5F5F5F5F5F5F5F5
310
F5F5F5F5F5F5F5F5F5F5F5F5F5F5F5F5F5F5F5F5F5F5F5F5F5F5F5F5F5F5F5F5F5F5F5F5F5F5F5F5F5F5F5F5F5F5F5F5F5F5F5F5F5F5F5F5F5F5F5F5F5F5F5F5F5F5F5F5F5F5F5F5F5F5F5F5F5F5F5F5F5F5F5F5F5E2F5F5F5F5F5F5F5F5F5F5F5F5F5F5F5F5F5F5F5F5E2E2EFF5F5F5F5F5F5F5F5F5F5F5F5F5F5F5F5F5F5
310
F5F5E2F5F5F5F5F5F5F5F5F5F5F5F5F5F5F5F5F5F5F5F5F5F5F5F5F5F5F5F5F5F5F5F5F5F5F5F5F5F5F5F5F5F5F5F5F5F5F5F5F5F5F5F5F5F5F5F5F5F5F5F5F5F5F5F5F5F5F5F5F5F5F5F5F5F5F5F5F5F5F5F5F5F5F5F5F5F5F5F5F5F5F5F5F5F5F5F5F5F5F5F5F5F5F5F5F5F5F5F5F5F5F5F5F5F5F5F5F5F5F5F5F5F5F5F5
310
F5F5F5F5F5F5F5F5F5F5F5E2F5F5F5F5F5F5F5F5F5F5F5F5F5F5F5F5F5F5F5F5E2E2EFF5F5F5F5F5F5F5F5F5F5F5F5F5F5F5F5F5F5F5F5E2F5F5F5F5F5F5F5F5F5F5F5F5F5F5F5F5F5F5F5F5F5F5F5F5F5F5F5F5F5F5F5F5F5F5F5F5F5F5F5F5F5F5F5F5F5F5F5F5F5F5F5F5F5F5F5F5F5F5F5F5F5F5F5F5F5F5F5F5F5F5F5
310
F5F5F5F5F5F5F5F5F5F5F5F5F5F5F5F5F5F5F5F5F5F5F5F5F5F5F5F5F5F5F5F5F5F5F5F5F5F5F5F5F5F5F5F5F5F5F5F5F5F5F5F5F5F5F5F5F5F5F5F5F5F5F5F5E2F5F5F5F5F5F5F5F5F5F5F5F5F5F5F5F5F5F5F5F5E2E2EFF5F5F5F5F5F5F5F5F5F5F5F5F5F5F5F5F5F5F5F5E2F5F5F5F5F5F5F5F5F5F5F5F5F5F5F5F5F5F5
310
F5F5F5F5F5F5F5F5F5F5F5F5F5F5F5F5F5F5F5F5F5F5F5F5F5F5F5F5F5F5F5F5F5F5F5F5F5F5F5F5F5F5F5F5F5F5F5F5F5F5F5F5F5F5F5F5F5F5F5F5F5F5F5F5F5F5F5F5F5F5F5F5F5F5F5F5F5F5F5F5F5F5F5F5F5F5F5F5F5F5F5F5F5F5F5F5F5F5F5F5F5F5F5F5F5F5F5F5F5F5F5F5F5F5F5F5F5E2F5F5F5F5F5F5F5F5F5
310
F5F5F5F5F5F5F5F5F5F5F5E2E2EFF5F5F5E2F5F5F5F5F5F5F5F5F5F5F5F5F5F5F5F5E2F5F5F5F5F5F5F5F5F5F5F5F5F5F5F5F5F5F5F5F5F5F5F5F5F5F5F5F5F5F5F5F5F5F5F5F5F5F5F5F5F5F5F5F5F5F5F5F5F5F5F5F5F5F5F5F5F5F5F5F5F5F5F5F5F5F5F5F5F5F5F5F5F5F5F5F5F5F5F5F5F5F5F5F5F5F5F5F5F5F5F5F5
310
F5F5F5F5F5F5F5F5F5F5F5F5F5F5F5F5F5F5F5F5F5F5F5F5F5F5F5F5F5F5F5F5F5F5F5F5F5F5F5F5F5F5F5E2F5F5F5F5F5F5F5F5F5F5F5F5F5F5F5F5E2F5F5F5E2E2EFF5F5F5E2F5F5F5F5F5F5F5F5F5F5F5F5F5F5F5F5E2F5F5F5F5F5F5F5F5F5F5F5F5F5F5F5F5F5F5F5F5F5F5F5F5F5F5F5F5F5F5F5F5F5F5F5F5F5F5F5
310
F5F5F5F5F5F5F5F5F5F5F5F5F5F5F5F5F5F5F5F5F5F5F5F5F5F5F5F5F5F5F5F5F5F5F5F5F5F5F5F5F5F5F5F5F5F5F5F5F5F5F5F5F5F5F5F5F5F5F5F5F5F5F5F5F5F5F5F5F5F5F5F5F5F5F5F5F5F5F5F5F5F5F5F5F5F5F5F5F5F5F5F5F5F5F5F5E2F5F5F5F5F5F5F5F5F5F5F5F5F5F5F5F5E2F5F5F5E2E2EFF5F5F5E2F5F5F5
310
F5F5F5F5F5F5F5F5F5F5F5F5F5E2F5F5F5F5F5F5F5F5F5F5F5F5F5F5F5F5F5F5F5F5F5F5F5F5F5F5F5F5F5F5F5F5F5F5F5F5F5F5F5F5F5F5F5F5F5F5F5F5F5F5F5F5F5F5F5F5F5F5F5F5F5F5F5F5F5F5F5F5F5F5F5F5F5F5F5F5F5F5F5F5F5F5F5F5F5F5F5F5F5F5F5F5F5F5F5F5F5F5F5F5F5F5F5F5F5F5F5F5F5F5F5F5F5
310
F5F5F5F5F5F5F5F5F5F5F5F5F5F5F5F5F5F5F5F5F5F5E2F5F5F5F5F5F5F5F5F5F5F5F5F5F5F5F5E2F5F5F5E2E2EFF5F5F5E2F5F5F5F5F5F5F5F5F5F5F5F5F5F5F5F5E2F5F5F5F5F5F5F5F5F5F5F5F5F5F5F5F5F5F5F5F5F5F5F5F5F5F5F5F5F5F5F5F5F5F5F5F5F5F5F5F5F5F5F5F5F5F5F5F5F5F5F5F5F5F5F5F5F5F5F5F5
310
F5F5F5F5F5F5F5F5F5F5F5F5F5F5F5F5F5F5F5F5F5F5F5F5F5F5F5F5F5F5F5F5F5F5F5F5F5F5F5F5F5F5F5F5F5F5F5F5F5F5F5F5F5F5F5F5F5F5F5F5F5F5F5F5F5F5F5F5F5F5F5F5F5F5F5E2F5F5F5F5F5F5F5F5F5F5F5F5F5F5F5F5E2F5F5F5E2E2EFF5F5F5E2F5F5F5F5F5F5F5F5F5F5F5F5F5F5F5F5E2F5F5F5F5F5F5F5
310
F5F5F5F5F5F5F5F5F5F5F5F5F5F5F5F5F5F5F5F5F5F5F5F5F5F5F5F5F5F5F5F5F5F5F5F5F5F5F5F5F5F5F5F5F5F5F5F5F5F5F5F5F5F5F5F5F5F5F5F5F5F5F5F5F5F5F5F5F5F5F5F5F5F5F5F5F5F5F5F5F5F5F5F5F5F5F5F5F5F5F5F5F5F5F5F5F5F5F5F5F5F5F5F5F5F5F5F5F5F5F5F5F5F5F5F5F5F5F5F5F5F5F5F5F5F5F5
310
F5E2F5F5F5F5F5F5F5F5F5F5F5F5F5F5F5F5E2F5F5F5E2E2EFF5F5F5E2F5F5F5F5F5F5F5F5F5F5F5F5F5F5F5F5E2F5F5F5F5F5F5F5F5F5F5F5F5F5F5F5F5F5F5F5F5F5F5F5F5F5F5F5F5F5F5F5F5F5F5F5F5F5F5F5F5F5F5F5F5F5F5F5F5F5F5F5F5F5F5F5F5F5F5F5F5F5F5F5F5F5F5F5F5F5F5F5F5F5F5F5F5F5F5F5F5F5
310
F5F5F5F5F5F5F5F5F5F5F5F5F5F5F5F5F5F5F5F5F5F5F5F5F5F5F5F5F5F5F5F5F5F5F5F5F5F5F5F5F5F5F5F5F5F5F5F5F5F5F5F5F5F5E2F5F5F5F5F5F5F5F5F5F5F5F5F5F5F5F5E2F5F5F5E2E2EFF5F5F5E2F5F5F5F5F5F5F5F5F5F5F5F5F5F5F5F5E2F5F5F5F5F5F5F5F5F5F5F5F5F5F5F5F5F5F5F5F5F5F5F5F5F5F5F5F5
310
F5F5F5F5F5F5F5F5F5F5F5F5F5F5F5F5F5F5F5F5F5F5F5F5F5F5F5F5F5F5F5F5F5F5F5F5F5F5F5F5F5F5F5F5F5F5F5F5F5F5F5F5F5F5F5F5F5F5F5F5F5F5F5F5F5F5F5F5F5F5F5F5F5F5F5F5F5F5F5F5F5F5F5F5F5F5F5F5F5F5F5F5F5F5F5F5F5F5F5F5F5F5F5F5F5F5F5E2F5F5F5F5F5F5F5F5F5F5F5F5F5F5F5F5E2F5F5
310
F5E2E2EFF5F5F5E2F5F5F5F5F5F5F5F5F5F5F5F5F5F5F5F5E2F5F5F5F5F5F5F5F5F5F5F5F5F5F5F5F5F5F5F5F5F5F5F5F5F5F5F5F5F5F5F5F5F5F5F5F5F5F5F5F5F5F5F5F5F5F5F5F5F5F5F5F5F5F5F5F5F5F5F5F5F5F5F5F5F5F5F5F5F5F5F5F5F5F5F5F5F5F5F5F5F5F5F5F5F5F5F5F5F5F5F5F5F5F5F5F5F5F5F5F5F5F5
310
F5F5F5F5F5F5F5F5F5F5F5F5F5F5F5F5F5F5F5F5F5F5F5F5F5F5F5F5F5F5F5F5F5E2F5F5F5F5F5F5F5F5F5F5F5F5F5F5F5F5E2F5F5F5E2E2EFF5F5F5E2F5F5F5F5F5F5F5F5F5F5F5F5F5F5F5F5E2F5F5F5F5F5F5F5F5F5F5F5F5F5F5F5F5F5F5F5F5F5F5F5F5F5F5F5F5F5F5F5F5F5F5F5F5F5F5F5F5F5F5F5F5F5F5F5F5F5
310
F5F5F5F5F5F5F5F5F5F5F5F5F5F5F5F5F5F5F5F5F5F5F5F5F5F5F5F5F5F5F5F5F5F5F5F5F5F5F5F5F5F5F5F5F5F5F5F5F5F5F5F5F5F5F5F5F5F5F5F5F5F5F5F5F5F5F5F5F5F5F5F5F5F5F5F5F5F5F5F5F5F5F5F5F5F5E2F5F5F5F5F5F5F5F5F5F5F5F5F5F5F5F5E2F5F5F5E2E2EFF5F5F5E2F5F5F5F5F5F5F5F5F5F5F5F5F5
310
F5F5F5E2F5F5F5F5F5F5F5F5F5F5F5F5F5F5F5F5F5F5F5F5F5F5F5F5F5F5F5F5F5F5F5F5F5F5F5F5F5F5F5F5F5F5F5F5F5F5F5F5F5F5F5F5F5F5F5F5F5F5F5F5F5F5F5F5F5F5F5F5F5F5F5F5F5F5F5F5F5F5F5F5F5F5F5F5F5F5F5F5F5F5F5F5F5F5F5F5F5F5F5F5F5F5F5F5F5F5F5F5F5F5F5F5F5F5F5F5F5F5F5F5F5F5F5
310
F5F5F5F5F5F5F5F5F5F5F5F5E2F5F5F5F5F5F5F5F5F5F5F5F5F5F5F5F5E2F5F5F5E2E2EFF5F5F5E2F5F5F5F5F5F5F5F5F5F5F5F5F5F5F5F5E2F5F5F5F5F5F5F5F5F5F5F5F5F5F5F5F5F5F5F5F5F5F5F5F5F5F5F5F5F5F5F5F5F5F5F5F5F5F5F5F5F5F5F5F5F5F5F5F5F5F5F5F5F5F5F5F5F5F5F5F5F5F5F5F5F5F5F5F5F5F5
310
F5F5F5F5F5F5F5F5F5F5F5F5F5F5F5F5F5F5F5F5F5F5F5F5F5F5F5F5F5F5F5F5F5F5F5F5F5F5F5F5F5F5F5F5F5F5F5F5F5F5F5F5F5F5F5F5F5F5F5F5F5F5F5F5F5E2F5F5F5F5F5F5F5F5F5F5F5F5F5F5F5F5E2F5F5F5E2E2EFF5F5F5E2F5F5F5F5F5F5F5F5F5F5F5F5F5F5F5F5E2F5F5F5F5F5F5F5F5F5F5F5F5F5F5F5F5F5
310
F5F5F5F5F5F5F5F5F5F5F5F5F5F5F5F5F5F5F5F5F5F5F5F5F5F5F5F5F5F5F5F5F5F5F5F5F5F5F5F5F5F5F5F5F5F5F5F5F5F5F5F5F5F5F5F5F5F5F5F5F5F5F5F5F5F5F5F5F5F5F5F5F5F5F5F5F5F5F5F5F5F5F5F5F5F5F5F5F5F5F5F5F5F5F5F5F5F5F5F5F5F5F5F5F5F5F5F5F5F5F5F5F5F5F5F5F5F5E2F5F5F5F5F5F5F5F5
310
F5F5F5F5F5F5F5F5E2F5F5F5E2E2EFF5F5F5E2F5F5F5F5F5F5F5F5F5F5F5F5F5F5F5F5E2F5F5F5F5F5F5F5F5F5F5F5F5F5F5F5F5F5F5F5F5F5F5F5F5F5F5F5F5F5F5F5F5F5F5F5F5F5F5F5F5F5F5F5F5F5F5F5F5F5F5F5F5F5F5F5F5F5F5F5F5F5F5F5F5F5F5F5F5F5F5F5F5F5F5F5F5F5F5F5F5F5F5F5F5F5F5F5F5F5F5F5
310
F5F5F5F5F5F5F5F5F5F5F5F5F5F5F5F5F5F5F5F5F5F5F5F5F5F5F5F5F5F5F5F5F5F5F5F5F5F5F5F5F5F5F5F5E2F5F5F5F5F5F5F5F5F5F5F5F5F5F5F5F5E2F5F5F5E2E2EFF5F5F5E2F5F5F5F5F5F5F5F5F5F5F5F5F5F5F5F5E2F5F5F5F5F5F5F5F5F5F5F5F5F5F5F5F5F5F5F5F5F5F5F5F5F5F5F5F5F5F5F5F5F5F5F5F5F5F5
310
F5F5F5F5F5F5F5F5F5F5F5F5F5F5F5F5F5F5F5F5F5F5F5F5F5F5F5F5F5F5F5F5F5F5F5F5F5F5F5F5F5F5F5F5F5F5F5F5F5F5F5F5F5F5F5F5F5F5F5F5F5F5F5F5F5F5F5F5F5F5F5F5F5F5F5F5F5F5F5F5F5F5F5F5F5F5F5F5F5F5F5F5F5F5F5F5F5E2F5F5F5F5F5F5F5F5F5F5F5F5F5F5F5F5E2F5F5F5E2E2EFF5F5F5E2F5F5
310
F5F5F5F5F5F5F5F5F5F5F5F5F5F5E2F5F5F5F5F5F5F5F5F5F5F5F5F5F5F5F5F5F5F5F5F5F5F5F5F5F5F5F5F5F5F5F5F5F5F5F5F5F5F5F5F5F5F5F5F5F5F5F5F5F5F5F5F5F5F5F5F5F5F5F5F5F5F5F5F5F5F5F5F5F5F5F5F5F5F5F5F5F5F5F5F5F5F5F5F5F5F5F5F5F5F5F5F5F5F5F5F5F5F5F5F5F5F5F5F5F5F5F5F5F5F5F5
310
F5F5F5F5F5F5F5F5F5F5F5F5F5F5F5F5F5F5F5F5F5F5F5E2F5F5F5F5F5F5F5F5F5F5F5F5F5F5F5F5E2F5F5F5E2E2EFF5F5F5E2F5F5F5F5F5F5F5F5F5F5F5F5F5F5F5F5E2F5F5F5F5F5F5F5F5F5F5F5F5F5F5F5F5F5F5F5F5F5F5F5F5F5F5F5F5F5F5F5F5F5F5F5F5F5F5F5F5F5F5F5F5F5F5F5F5F5F5F5F5F5F5F5F5F5F5F5
310
F5F5F5F5F5F5F5F5F5F5F5F5F5F5F5F5F5F5F5F5F5F5F5F5F5F5F5F5F5F5F5F5F5F5F5F5F5F5F5F5F5F5F5F5F5F5F5F5F5F5F5F5F5F5F5F5F5F5F5F5F5F5F5F5F5F5F5F5F5F5F5F5F5F5F5F5E2F5F5F5F5F5F5F5F5F5F5F5F5F5F5F5F5E2F5F5F5E2E2EFF5F5F5E2F5F5F5F5F5F5F5F5F5F5F5F5F5F5F5F5E2F5F5F5F5F5F5
310
F5F5F5F5F5F5F5F5F5F5F5F5F5F5F5F5F5F5F5F5F5F5F5F5F5F5F5F5F5F5F5F5F5F5F5F5F5F5F5F5F5F5F5F5F5F5F5F5F5F5F5F5F5F5F5F5F5F5F5F5F5F5F5F5F5F5F5F5F5F5F5F5F5F5F5F5F5F5F5F5F5F5F5F5F5F5F5F5F5F5F5F5F5F5F5F5F5F5F5F5F5F5F5F5F5F5F5F5F5F5F5F5F5F5F5F5F5F5F5F5F5F5F5F5F5F5F5
310
F5F5E2F5F5F5F5F5F5F5F5F5F5F5F5F5F5F5F5E2F5F5F5E2E2EFF5F5F5F5F5F5F5F5F5F5F5F5F5F5F5F5F5F5F5F5E2F5F5F5F5F5F5F5F5F5F5F5F5F5F5F5F5F5F5F5F5F5F5F5F5F5F5F5F5F5F5F5F5F5F5F5F5F5F5F5F5F5F5F5F5F5F5F5F5F5F5F5F5F5F5F5F5F5F5F5F5F5F5F5F5F5F5F5F5F5F5F5F5F5F5F5F5F5F5F5F5
310
F5F5F5F5F5F5F5F5F5F5F5F5F5F5F5F5F5F5F5F5F5F5F5F5F5F5F5F5F5F5F5F5F5F5F5F5F5F5F5F5F5F5F5F5F5F5F5F5F5F5F5F5F5F5F5E2F5F5F5F5F5F5F5F5F5F5F5F5F5F5F5F5F5F5F5F5E2E2EFF5F5F5F5F5F5F5F5F5F5F5F5F5F5F5F5F5F5F5F5E2F5F5F5F5F5F5F5F5F5F5F5F5F5F5F5F5F5F5F5F5F5F5F5F5F5F5F5
310
F5F5F5F5F5F5F5F5F5F5F5F5F5F5F5F5F5F5F5F5F5F5F5F5F5F5F5F5F5F5F5F5F5F5F5F5F5F5F5F5F5F5F5F5F5F5F5F5F5F5F5F5F5F5F5F5F5F5F5F5F5F5F5F5F5F5F5F5F5F5F5F5F5F5F5F5F5F5F5F5F5F5F5F5F5F5F5F5F5F5F5F5F5F5F5F5F5F5F5F5F5F5F5F5F5F5F5F5E2F5F5F5F5F5F5F5F5F5F5F5F5F5F5F5F5F5F5
310
F5F5E2E2EFF5F5F5F5F5F5F5F5F5F5F5F5F5F5F5F5F5F5F5F5E2F5F5F5F5F5F5F5F5F5F5F5F5F5F5F5F5F5F5F5F5F5F5F5F5F5F5F5F5F5F5F5F5F5F5F5F5F5F5F5F5F5F5F5F5F5F5F5F5F5F5F5F5F5F5F5F5F5F5F5F5F5F5F5F5F5F5F5F5F5F5F5F5F5F5F5F5F5F5F5F5F5F5F5F5F5F5F5F5F5F5F5F5F5F5F5F5F5F5F5F5F5
310
F5F5F5F5F5F5F5F5F5F5F5F5F5F5F5F5F5F5F5F5F5F5F5F5F5F5F5F5F5F5F5F5F5F5E2F5F5F5F5F5F5F5F5F5F5F5F5F5F5F5F5F5F5F5F5E2E2EFF5F5F5F5F5F5F5F5F5F5F5F5F5F5F5F5F5F5F5F5E2F5F5F5F5F5F5F5F5F5F5F5F5F5F5F5F5F5F5F5F5F5F5F5F5F5F5F5F5F5F5F5F5F5F5F5F5F5F5F5F5F5F5F5F5F5F5F5F5
310
F5F5F5F5F5F5F5F5F5F5F5F5F5F5F5F5F5F5F5F5F5F5F5F5F5F5F5F5F5F5F5F5F5F5F5F5F5F5F5F5F5F5F5F5F5F5F5F5F5F5F5F5F5F5F5F5F5F5F5F5F5F5F5F5F5F5F5F5F5F5F5F5F5F5F5F5F5F5F5F5F5F5F5F5F5F5F5E2F5F5F5F5F5F5F5F5F5F5F5F5F5F5F5F5F5F5F5F5E2E2EFF5F5F5F5F5F5F5F5F5F5F5F5F5F5F5F5
310
F5F5F5F5E2E2E2E2E2E2E2E2E2E2E2E2E2E2E2E2E2E2E2E2E2E2E2E2E2E2E2E2E2E2E2E2E2E2E2E2E2E2E2E2E2E2E2E2E2E2E2E2E2E2E2E2E2E2E2E2E2E2E2E2E2E2E2E2E2E2E2E2E2E2E2E2E2E2E2E2E2E2E2E2E2E2E2E2E2E2E2E2E2E2E2E2E2E2E2E2E2E2E2E2E2E2E2E2E2E2E2E2E2E2E2E2E2E2E2E2E2E2E2E2E2E2E2
310
E2E2E2E2E2E2E2E2E2E2E2E2E2E2F5F5F5F5F5F5F5F5F5F5F5F5F5F5F5F5F5F5F5F5E2E2EFF5F5F5F5F5F5F5F5F5F5F5F5F5F5F5F5F5F5F5F5F5F5F5F5F5F5F5F5F5F5F5F5F5F5F5F5F5F5F5F5F5F5F5F5F5F5F5F5F5F5F5F5F5F5F5F5F5F5F5F5F5F5F5F5F5F5F5F5F5F5F5F5F5F5F5F5F5F5F5F5F5F5F5F5F5F5F5F5F5F5
310
F5F5F5F5F5F5F5F5F5F5F5F5F5F5F5F5F5F5F5F5F5F5F5F5F5F5F5F5F5F5F5F5F5F5F5F5F5F5F5F5F5F5F5F5F5F5F5F5F5F5F5F5F5F5F5F5F5F5F5F5F5F5F5F5F5F5F5F5F5F5F5F5F5F5F5F5F5F5F5F5F5F5F5F5F5F5F5E2E2EFF5F5F5F5F5F5F5F5F5F5F5F5F5F5F5F5F5F5F5F5F5F5F5F5F5F5F5F5F5F5F5F5F5F5F5F5F5
310
F5F5F5F5F5F5F5F5F5F5F5F5F5F5F5F5F5F5F5F5F5F5F5F5F5F5F5F5F5F5F5F5F5F5F5F5F5F5F5F5F5F5F5F5F5F5F5F5F5F5F5F5F5F5F5F5F5F5F5F5F5F5F5F5F5F5F5F5F5F5F5F5F5F5F5F5F5F5F5F5F5F5F5F5F5F5F5F5F5F5F5F5F5F5F5F5F5F5F5F5F5F5F5F5F5F5F5F5F5F5F5F5F5F5F5F5F5F5F5F5F5F5F5F5F5F5F5
310
F5F5F5F5F5F5F5F5F5F5F5F5F5E2E2EFF5F5F5F5F5F5F5F5F5F5F5F5F5F5F5F5F5F5F5F5F5F5F5F5F5F5F5F5F5F5F5F5F5F5F5F5F5F5F5F5F5F5F5F5F5F5F5F5F5F5F5F5F5F5F5F5F5F5F5F5F5F5F5F5F5F5F5F5F5F5F5F5F5F5F5F5F5F5F5F5F5F5F5F5F5F5F5F5F5F5F5F5F5F5F5F5F5F5F5F5F5F5F5F5F5F5F5F5F5F5F5
310
F5F5F5F5F5F5F5F5F5F5F5F5F5F5F5F5F5F5F5F5F5F5F5F5F5F5F5F5F5F5F5F5F5F5F5F5F5F5F5F5F5F5F5F5F5F5F5F5F5F5F5F5F5F5F5F5F5F5F5F5F5F5F5F5F5F5E2E2EFF5F5F5F5F5F5F5F5F5F5F5F5F5F5F5F5F5F5F5F5F5F5F5F5F5F5F5F5F5F5F5F5F5F5F5F5F5F5F5F5F5F5F5F5F5F5F5F5F5F5F5F5F5F5F5F5F5F5
310
F5F5F5F5F5F5F5F5F5F5F5F5F5F5F5F5F5F5F5F5F5F5F5F5F5F5F5F5F5F5F5F5F5F5F5F5F5F5F5F5F5F5F5F5F5F5F5F5F5F5F5F5F5F5F5F5F5F5F5F5F5F5F5F5F5F5F5F5F5F5F5F5F5F5F5F5F5F5F5F5F5F5F5F5F5F5F5F5F5F5F5F5F5F5F5F5F5F5F5F5F5F5F5F5F5F5F5F5F5F5F5F5F5F5F5F5F5F5F5E2E2EFF5F5F5E2F5
310
F5F5F5F5F5F5F5F5F5F5F5F5F5F5F5F5F5F5F5F5F5F5F5F5F5F5F5F5F5F5F5F5F5F5F5F5F5F5F5F5F5F5F5F5F5F5F5F5F5F5F5F5F5F5F5F5F5F5F5F5F5F5F5F5F5F5F5F5F5F5F5F5F5F5F5F5F5F5F5F5F5F5F5F5F5F5F5F5F5F5F5F5F5F5F5F5F5F5F5F5F5F5F5F5F5F5F5F5F5F5F5F5F5F5F5F5F5F5F5F5F5F5F5F5F5F5F5
310
F5F5F5F5F5F5F5F5F5F5F5F5F5F5F5F5F5F5F5F5F5F5F5F5F5F5F5F5F5F5F5F5F5F5F5F5F5F5F5F5F5E2F5F5F5E2E2EFF5F5F5E2F5F5F5F5F5F5F5F5F5F5F5F5F5F5F5F5F5F5F5F5F5F5F5F5F5F5F5F5F5F5F5F5F5F5F5F5F5F5F5F5F5F5F5F5F5F5F5F5F5F5F5F5F5F5F5F5F5F5F5F5F5F5F5F5F5F5F5F5F5F5F5F5F5F5F5
310
F5F5F5F5F5F5F5F5F5F5F5F5F5F5F5F5F5F5F5F5F5F5F5F5F5F5F5F5F5F5F5F5F5F5F5F5F5F5F5F5F5F5F5F5F5F5F5F5F5F5F5F5F5F5F5F5F5F5F5F5F5F5F5F5F5F5F5F5F5F5F5F5F5F5F5F5F5F5F5F5F5F5F5F5F5F5F5F5F5F5F5F5F5F5E2F5F5F5E2E2EFF5F5F5E2F5F5F5F5F5F5F5F5F5F5F5F5F5F5F5F5F5F5F5F5F5F5
310
F5F5F5F5F5F5F5F5F5F5F5F5F5F5F5F5F5F5F5F5F5F5F5F5F5F5F5F5F5F5F5F5F5F5F5F5F5F5F5F5F5F5F5F5F5F5F5F5F5F5F5F5F5F5F5F5F5F5F5F5F5F5F5F5F5F5F5F5F5F5F5F5F5F5F5F5F5F5F5F5F5F5F5F5F5F5F5F5F5F5F5F5F5F5F5F5F5F5F5F5F5F5F5F5F5F5F5F5F5F5F5F5F5F5F5F5F5F5F5F5F5F5F5F5F5F5F5
310
F5F5F5F5F5F5F5F5F5F5F5F5F5F5F5F5F5F5F5F5E2F5F5F5E2E2EFF5F5F5E2F5F5F5F5F5F5F5F5F5F5F5F5F5F5F5F5F5F5F5F5F5F5F5F5F5F5F5F5F5F5F5F5F5F5F5F5F5F5F5F5F5F5F5F5F5F5F5F5F5F5F5F5F5F5F5F5F5F5F5F5F5F5F5F5F5F5F5F5F5F5F5F5F5F5F5F5F5F5F5F5F5F5F5F5F5F5F5F5F5F5F5F5F5F5F5F5
310
F5F5F5F5F5F5F5F5F5F5F5F5F5F5F5F5F5F5F5F5F5F5F5F5F5F5F5F5F5F5F5F5F5F5F5F5F5F5F5F5F5F5F5F5F5F5F5F5F5F5F5F5F5F5F5F5F5F5F5F5F5F5F5F5F5F5F5F5F5F5F5F5F5E2F5F5F5E2E2EFF5F5F5E2F5F5F5F5F5F5F5F5F5F5F5F5F5F5F5F5F5F5F5F5F5F5F5F5F5F5F5F5F5F5F5F5F5F5F5F5F5F5F5F5F5F5F5
310
F5F5F5F5F5F5F5F5F5F5F5F5F5F5F5F5F5F5F5F5F5F5F5F5F5F5F5F5F5F5F5F5F5F5F5F5F5F5F5F5F5F5F5F5F5F5F5F5F5F5F5F5F5F5F5F5F5F5F5F5F5F5F5F5F5F5F5F5F5F5F5F5F5F5F5F5F5F5F5F5F5F5F5F5F5F5F5F5F5F5F5F5F5F5F5F5F5F5F5F5F5F5F5F5F5F5F5F5F5F5F5F5F5F5F5F5F5F5F5F5F5F5F5F5F5F5E2
310
F5F5F5E2E2EFF5F5F5E2F5F5F5F5F5F5F5F5F5F5F5F5F5F5F5F5F5F5F5F5F5F5F5F5F5F5F5F5F5F5F5F5F5F5F5F5F5F5F5F5F5F5F5F5F5F5F5F5F5F5F5F5F5F5F5F5F5F5F5F5F5F5F5F5F5F5F5F5F5F5F5F5F5F5F5F5F5F5F5F5F5F5F5F5F5F5F5F5F5F5F5F5F5F5F5F5F5F5F5F5F5F5F5F5F5F5F5F5F5F5F5F5F5F5F5F5F5
310
F5F5F5F5F5F5F5F5F5F5F5F5F5F5F5F5F5F5F5F5F5F5F5F5F5F5F5F5F5F5F5F5F5F5F5F5F5F5F5F5F5F5F5F5F5F5F5F5F5F5F5F5E2F5F5F5E2E2EFF5F5F5E2F5F5F5F5F5F5F5F5F5F5F5F5F5F5F5F5F5F5F5F5F5F5F5F5F5F5F5F5F5F5F5F5F5F5F5F5F5F5F5F5F5F5F5F5F5F5F5F5F5F5F5F5F5F5F5F5F5F5F5F5F5F5F5F5
310
F5F5F5F5F5F5F5F5F5F5F5F5F5F5F5F5F5F5F5F5F5F5F5F5F5F5F5F5F5F5F5F5F5F5F5F5F5F5F5F5F5F5F5F5F5F5F5F5F5F5F5F5F5F5F5F5F5F5F5F5F5F5F5F5F5F5F5F5F5F5F5F5F5F5F5F5F5F5F5F5F5F5F5F5F5F5F5F5F5F5F5F5F5F5F5F5F5F5F5F5F5F5F5F5F5E2F5F5F5E2E2EFF5F5F5E2F5F5F5F5F5F5F5F5F5F5F5
310
F5F5F5F5F5F5F5F5F5F5F5F5F5F5F5F5F5F5F5F5F5F5F5F5F5F5F5F5F5F5F5F5F5F5F5F5F5F5F5F5F5F5F5F5F5F5F5F5F5F5F5F5F5F5F5F5F5F5F5F5F5F5F5F5F5F5F5F5F5F5F5F5F5F5F5F5F5F5F5F5F5F5F5F5F5F5F5F5F5F5F5F5F5F5F5F5F5F5F5F5F5F5F5F5F5F5F5F5F5F5F5F5F5F5F5F5F5F5F5F5F5F5F5F5F5F5F5
310
F5F5F5F5F5F5F5F5F5F5F5F5F5F5F5F5F5F5F5F5F5F5F5F5F5F5F5F5F5F5F5E2F5F5F5E2E2EFF5F5F5E2E2E2E2E2E2E2E2F5F5F5F5F5F5F5F5F5E2E2E2E2E2E2E2E2E2E2E2E2E2E2E2E2F5F5F5F5F5F5F5F5E2E2E2E2E2E2E2E2E2E2E2E2E2E2E2E2F5F5F5F5F5F5F5F5F5E2E2E2E2E2E2E2E2E2E2E2E2E2E2E2F5F5F5F5F5
310
F5F5F5F5E2E2E2E2E2E2E2E2E2E2E2E2E2E2E2F5F5F5F5F5F5F5F5F5E2E2E2E2E2E2E2E2E2E2E2E2E2E2E2E2F5F5F5F5F5F5F5F5E2E2E2E2E2E2E2E2E2E2E2E2E2E2E2E2F5F5F5F5F5F5F5F5F5E2E2E2E2E2E2E2E2F5F5F5E2E2EFF5F5F5F5F5F5F5F5F5F5F5F5F5F5F5F5F5F5F5F5F5F5F5F5F5F5F5F5F5F5F5F5F5F5F5F5
310
F5F5F5F5F5F5F5F5F5F5F5F5F5F5F5F5F5F5F5F5F5F5F5F5F5F5F5F5F5F5F5F5F5F5F5F5F5F5F5F5F5F5F5F5F5F5F5F5F5F5F5F5F5F5F5F5F5F5F5F5F5F5F5F5F5F5F5F5F5F5F5F5F5F5F5F5F5F5F5F5F5F5F5F5F5F5F5F5F5F5F5F5F5F5F5F5F5F5F5F5F5F5F5F5F5F5F5F5F5F5F5F5F5F5F5F5F5F5F5F5F5F5F5F5F5F5F5
310
F5F5F5F5F5F5F5F5F5F5F5F5F5F5E2E2EFF5F5F5F5F5F5F5F5F5F5F5F5F5F5F5F5F5F5F5F5F5F5F5F5F5F5F5F5F5F5F5F5F5F5F5F5F5F5F5F5F5F5F5F5F5F5F5F5F5F5F5F5F5F5F5F5F5F5F5F5F5F5F5F5F5F5F5F5F5F5F5F5F5F5F5F5F5F5F5F5F5F5F5F5F5F5F5F5F5F5F5F5F5F5F5F5F5F5F5F5F5F5F5F5F5F5F5F5F5F5
310
F5F5F5F5F5F5F5F5F5F5F5F5F5F5F5F5F5F5F5F5F5F5F5F5F5F5F5F5F5F5F5F5F5F5F5F5F5F5F5F5F5F5F5F5F5F5F5F5F5F5F5F5F5F5F5F5F5F5F5F5F5F5F5F5F5F5F5E2EFEFF5F5F5F5F5F5F5F5F5F5F5F5F5F5F5F5F5F5F5F5F5F5F5F5F5F5F5F5F5F5F5F5F5F5F5F5F5F5F5F5F5F5F5F5F5F5F5F5F5F5F5F5F5F5F5F5F5
310
F5F5F5F5F5F5F5F5F5F5F5F5F5F5F5F5F5F5F5F5F5F5F5F5F5F5F5F5F5F5F5F5F5F5F5F5F5F5F5F5F5F5F5F5F5F5F5F5F5F5F5F5F5F5F5F5F5F5F5F5F5F5F5F5F5F5F5F5F5F5F5F5F5F5F5F5F5F5F5F5F5F5F5F5F5F5F5F5F5F5F5F5F5F5F5F5F5F5F5F5F5F5F5F5F5F5F5F5F5F5F5F5F5F5F5F5F5F5F5F5E2EFEFE2E2E2E2
310
E2E2E2E2E2E2E2E2E2E2E2E2E2E2E2E2E2E2E2E2E2E2E2E2E2E2E2E2E2E2E2E2E2E2E2E2E2E2E2E2E2E2E2E2E2E2E2E2E2E2E2E2E2E2E2E2E2E2E2E2E2E2E2E2E2E2E2E2E2E2E2E2E2E2E2E2E2E2E2E2E2E2E2E2E2E2E2E2E2E2E2E2E2E2E2E2E2E2E2E2E2E2E2E2E2E2E2E2E2E2E2E2E2E2E2E2E2E2E2E2E2E2E2E2E2E2E2
310
E2E2E2E2E2E2E2E2E2E2E2E2E2E2E2E2E2E2E2E2E2E2E2E2E2E2E2E2E2E2E2E2E2E2E2E2E2E2E2E2E2E2E2E2E2E2E2EFEF
  0
ENDSEC
  0
EOF
