  0
SECTION
  2
HEADER
  9
$ACADVER
  1
AC1018
  9
$ACADMAINTVER
 70
     0
  9
$DWGCODEPAGE
  3
ANSI_1252
  9
$AUTHOR
  1
g6edxjah
  9
$LASTSAVEDBY
  1
g6edxjah
  9
$INSBASE
 10
0.0
 20
0.0
 30
0.0
  9
$EXTMIN
 10
-4.021982
 20
-48.426837
 30
-0.000328
  9
$EXTMAX
 10
50.693898
 20
-7.289042
 30
0.0
  9
$LIMMIN
 10
-113.574898
 20
-164.768796
  9
$LIMMAX
 10
160.246814
 20
109.052917
  9
$ORTHOMODE
 70
     0
  9
$REGENMODE
 70
     1
  9
$FILLMODE
 70
     1
  9
$QTEXTMODE
 70
     0
  9
$MIRRTEXT
 70
     0
  9
$LTSCALE
 40
1.0
  9
$ATTMODE
 70
     1
  9
$TEXTSIZE
 40
0.166302
  9
$TRACEWID
 40
0.05
  9
$TEXTSTYLE
  7
Standard
  9
$CLAYER
  8
Level 10
  9
$CELTYPE
  6
Continuous
  9
$CECOLOR
 62
     7
  9
$CELTSCALE
 40
1.0
  9
$DISPSILH
 70
     0
  9
$DIMSCALE
 40
1.0
  9
$DIMASZ
 40
0.166302
  9
$DIMEXO
 40
0.083151
  9
$DIMDLI
 40
0.0
  9
$DIMRND
 40
0.0
  9
$DIMDLE
 40
0.0
  9
$DIMEXE
 40
0.083151
  9
$DIMTP
 40
0.0
  9
$DIMTM
 40
0.0
  9
$DIMTXT
 40
0.166302
  9
$DIMCEN
 40
0.09
  9
$DIMTSZ
 40
0.0
  9
$DIMTOL
 70
     0
  9
$DIMLIM
 70
     0
  9
$DIMTIH
 70
     1
  9
$DIMTOH
 70
     1
  9
$DIMSE1
 70
     0
  9
$DIMSE2
 70
     0
  9
$DIMTAD
 70
     0
  9
$DIMZIN
 70
    11
  9
$DIMBLK
  1
TerminatorOpen_0.5
  9
$DIMASO
 70
     1
  9
$DIMSHO
 70
     1
  9
$DIMPOST
  1

  9
$DIMAPOST
  1

  9
$DIMALT
 70
     0
  9
$DIMALTD
 70
     2
  9
$DIMALTF
 40
25.4
  9
$DIMLFAC
 40
1.0
  9
$DIMTOFL
 70
     0
  9
$DIMTVP
 40
0.0
  9
$DIMTIX
 70
     0
  9
$DIMSOXD
 70
     0
  9
$DIMSAH
 70
     0
  9
$DIMBLK1
  1

  9
$DIMBLK2
  1

  9
$DIMSTYLE
  2
Standard
  9
$DIMCLRD
 70
     0
  9
$DIMCLRE
 70
     0
  9
$DIMCLRT
 70
     0
  9
$DIMTFAC
 40
1.0
  9
$DIMGAP
 40
0.083151
  9
$DIMJUST
 70
     0
  9
$DIMSD1
 70
     0
  9
$DIMSD2
 70
     0
  9
$DIMTOLJ
 70
     0
  9
$DIMTZIN
 70
    11
  9
$DIMALTZ
 70
    15
  9
$DIMALTTZ
 70
    15
  9
$DIMUPT
 70
     1
  9
$DIMDEC
 70
     2
  9
$DIMTDEC
 70
     2
  9
$DIMALTU
 70
     2
  9
$DIMALTTD
 70
     2
  9
$DIMTXSTY
  7
Style-Arial
  9
$DIMAUNIT
 70
     0
  9
$DIMADEC
 70
     4
  9
$DIMALTRND
 40
0.0
  9
$DIMAZIN
 70
     3
  9
$DIMDSEP
 70
    46
  9
$DIMATFIT
 70
     1
  9
$DIMFRAC
 70
     0
  9
$DIMLDRBLK
  1
TerminatorOpen_0.5
  9
$DIMLUNIT
 70
     2
  9
$DIMLWD
 70
    -2
  9
$DIMLWE
 70
    -2
  9
$DIMTMOVE
 70
     0
  9
$LUNITS
 70
     2
  9
$LUPREC
 70
     2
  9
$SKETCHINC
 40
0.1
  9
$FILLETRAD
 40
0.0
  9
$AUNITS
 70
     0
  9
$AUPREC
 70
     4
  9
$MENU
  1
.
  9
$ELEVATION
 40
0.0
  9
$PELEVATION
 40
0.0
  9
$THICKNESS
 40
0.0
  9
$LIMCHECK
 70
     0
  9
$CHAMFERA
 40
0.0
  9
$CHAMFERB
 40
0.0
  9
$CHAMFERC
 40
0.0
  9
$CHAMFERD
 40
0.0
  9
$SKPOLY
 70
     0
  9
$TDCREATE
 40
2455397.608510857
  9
$TDUCREATE
 40
2455397.81684419
  9
$TDUPDATE
 40
2455397.60851103
  9
$TDUUPDATE
 40
2455397.816844363
  9
$TDINDWG
 40
0.0
  9
$TDUSRTIMER
 40
0.0006630093
  9
$USRTIMER
 70
     1
  9
$ANGBASE
 50
0.0
  9
$ANGDIR
 70
     0
  9
$PDMODE
 70
     0
  9
$PDSIZE
 40
0.0
  9
$PLINEWID
 40
0.0
  9
$SPLFRAME
 70
     0
  9
$SPLINETYPE
 70
     6
  9
$SPLINESEGS
 70
     8
  9
$HANDSEED
  5
474
  9
$SURFTAB1
 70
     6
  9
$SURFTAB2
 70
     6
  9
$SURFTYPE
 70
     6
  9
$SURFU
 70
     6
  9
$SURFV
 70
     6
  9
$UCSBASE
  2

  9
$UCSNAME
  2

  9
$UCSORG
 10
0.0
 20
0.0
 30
0.0
  9
$UCSXDIR
 10
1.0
 20
0.0
 30
0.0
  9
$UCSYDIR
 10
0.0
 20
1.0
 30
0.0
  9
$UCSORTHOREF
  2

  9
$UCSORTHOVIEW
 70
     0
  9
$UCSORGTOP
 10
0.0
 20
0.0
 30
0.0
  9
$UCSORGBOTTOM
 10
0.0
 20
0.0
 30
0.0
  9
$UCSORGLEFT
 10
0.0
 20
0.0
 30
0.0
  9
$UCSORGRIGHT
 10
0.0
 20
0.0
 30
0.0
  9
$UCSORGFRONT
 10
0.0
 20
0.0
 30
0.0
  9
$UCSORGBACK
 10
0.0
 20
0.0
 30
0.0
  9
$PUCSBASE
  2

  9
$PUCSNAME
  2

  9
$PUCSORG
 10
0.0
 20
0.0
 30
0.0
  9
$PUCSXDIR
 10
1.0
 20
0.0
 30
0.0
  9
$PUCSYDIR
 10
0.0
 20
1.0
 30
0.0
  9
$PUCSORTHOREF
  2

  9
$PUCSORTHOVIEW
 70
     0
  9
$PUCSORGTOP
 10
0.0
 20
0.0
 30
0.0
  9
$PUCSORGBOTTOM
 10
0.0
 20
0.0
 30
0.0
  9
$PUCSORGLEFT
 10
0.0
 20
0.0
 30
0.0
  9
$PUCSORGRIGHT
 10
0.0
 20
0.0
 30
0.0
  9
$PUCSORGFRONT
 10
0.0
 20
0.0
 30
0.0
  9
$PUCSORGBACK
 10
0.0
 20
0.0
 30
0.0
  9
$USERI1
 70
     0
  9
$USERI2
 70
     0
  9
$USERI3
 70
     0
  9
$USERI4
 70
     0
  9
$USERI5
 70
     0
  9
$USERR1
 40
0.0
  9
$USERR2
 40
0.0
  9
$USERR3
 40
0.0
  9
$USERR4
 40
0.0
  9
$USERR5
 40
0.0
  9
$WORLDVIEW
 70
     1
  9
$SHADEDGE
 70
     3
  9
$SHADEDIF
 70
    70
  9
$TILEMODE
 70
     1
  9
$MAXACTVP
 70
    64
  9
$PINSBASE
 10
0.0
 20
0.0
 30
0.0
  9
$PLIMCHECK
 70
     0
  9
$PEXTMIN
 10
1.049744
 20
0.799667
 30
-0.001526
  9
$PEXTMAX
 10
9.450623
 20
7.200577
 30
0.0
  9
$PLIMMIN
 10
-0.25
 20
-0.25
  9
$PLIMMAX
 10
10.75
 20
8.25
  9
$UNITMODE
 70
     0
  9
$VISRETAIN
 70
     1
  9
$PLINEGEN
 70
     0
  9
$PSLTSCALE
 70
     0
  9
$TREEDEPTH
 70
  3020
  9
$CMLSTYLE
  2
STANDARD
  9
$CMLJUST
 70
     0
  9
$CMLSCALE
 40
1.0
  9
$PROXYGRAPHICS
 70
     1
  9
$MEASUREMENT
 70
     0
  9
$CELWEIGHT
370
     0
  9
$ENDCAPS
280
     0
  9
$JOINSTYLE
280
     0
  9
$LWDISPLAY
290
     1
  9
$INSUNITS
 70
     2
  9
$HYPERLINKBASE
  1

  9
$STYLESHEET
  1

  9
$XEDIT
290
     1
  9
$CEPSNTYPE
380
     0
  9
$PSTYLEMODE
290
     1
  9
$FINGERPRINTGUID
  2
{02C0BBB5-38A7-4FBF-829E-00875EC88963}
  9
$VERSIONGUID
  2
{82C521FC-BF81-46B3-825E-420B6BD93A99}
  9
$EXTNAMES
290
     1
  9
$PSVPSCALE
 40
0.0
  9
$OLESTARTUP
290
     0
  9
$SORTENTS
280
   127
  9
$INDEXCTL
280
     0
  9
$HIDETEXT
280
     1
  9
$XCLIPFRAME
290
     0
  9
$HALOGAP
280
     0
  9
$OBSCOLOR
 70
   257
  9
$OBSLTYPE
280
     0
  9
$INTERSECTIONDISPLAY
280
     0
  9
$INTERSECTIONCOLOR
 70
   257
  9
$DIMASSOC
280
     1
  9
$PROJECTNAME
  1

  0
ENDSEC
  0
SECTION
  2
CLASSES
  0
CLASS
  1
ACDBDICTIONARYWDFLT
  2
AcDbDictionaryWithDefault
  3
ObjectDBX Classes
 90
        0
 91
        3
280
     0
281
     0
  0
CLASS
  1
SORTENTSTABLE
  2
AcDbSortentsTable
  3
ObjectDBX Classes
 90
        0
 91
        3
280
     0
281
     0
  0
ENDSEC
  0
SECTION
  2
TABLES
  0
TABLE
  2
VPORT
  5
449
330
0
100
AcDbSymbolTable
 70
     4
  0
VPORT
  5
49
330
449
100
AcDbSymbolTableRecord
100
AcDbViewportTableRecord
  2
*ACTIVE
 70
     0
 10
0.0
 20
0.0
 11
1.0
 21
1.0
 12
23.368071
 22
-27.857948
 13
0.0
 23
0.0
 14
0.083333
 24
0.083333
 15
0.083333
 25
0.083333
 16
0.0
 26
0.0
 36
1.0
 17
0.0
 27
0.0
 37
0.0
 40
42.782653
 41
1.884332
 42
50.0
 43
0.0
 44
0.0
 50
0.0
 51
0.0
 71
     0
 72
   100
 73
     1
 74
     2
 75
     0
 76
     0
 77
     0
 78
     1
281
     0
 65
     1
110
0.0
120
0.0
130
0.0
111
1.0
121
0.0
131
0.0
112
0.0
122
1.0
132
0.0
 79
     0
146
0.0
  0
ENDTAB
  0
TABLE
  2
LTYPE
  5
430
330
0
100
AcDbSymbolTable
 70
     2
  0
LTYPE
  5
431
330
430
100
AcDbSymbolTableRecord
100
AcDbLinetypeTableRecord
  2
ByBlock
 70
     0
  3

 72
    65
 73
     0
 40
0.0
  0
LTYPE
  5
432
330
430
100
AcDbSymbolTableRecord
100
AcDbLinetypeTableRecord
  2
ByLayer
 70
     0
  3

 72
    65
 73
     0
 40
0.0
  0
LTYPE
  5
42F
330
430
100
AcDbSymbolTableRecord
100
AcDbLinetypeTableRecord
  2
Continuous
 70
     0
  3
Solid line
 72
    65
 73
     0
 40
0.0
  0
LTYPE
  5
3C9
330
430
100
AcDbSymbolTableRecord
100
AcDbLinetypeTableRecord
  2
DGN Style 3
 70
     0
  3

 72
    65
 73
     2
 40
1.128634
 49
0.806167
 74
     0
 49
-0.322467
 74
     0
  0
ENDTAB
  0
TABLE
  2
LAYER
  5
429
102
{ACAD_XDICTIONARY
360
42A
102
}
330
0
100
AcDbSymbolTable
 70
    64
  0
LAYER
  5
428
330
429
100
AcDbSymbolTableRecord
100
AcDbLayerTableRecord
  2
0
 70
     0
 62
     7
  6
Continuous
370
    -3
390
42C
  0
LAYER
  5
7
330
429
100
AcDbSymbolTableRecord
100
AcDbLayerTableRecord
  2
Level 1
 70
     0
 62
     7
  6
Continuous
370
     0
390
42C
  0
LAYER
  5
8
330
429
100
AcDbSymbolTableRecord
100
AcDbLayerTableRecord
  2
Level 2
 70
     0
 62
     7
  6
Continuous
370
     0
390
42C
  0
LAYER
  5
9
330
429
100
AcDbSymbolTableRecord
100
AcDbLayerTableRecord
  2
Level 3
 70
     0
 62
     7
  6
Continuous
370
     0
390
42C
  0
LAYER
  5
A
330
429
100
AcDbSymbolTableRecord
100
AcDbLayerTableRecord
  2
Level 4
 70
     0
 62
     7
  6
Continuous
370
     0
390
42C
  0
LAYER
  5
B
330
429
100
AcDbSymbolTableRecord
100
AcDbLayerTableRecord
  2
Level 5
 70
     0
 62
     7
  6
Continuous
370
     0
390
42C
  0
LAYER
  5
C
330
429
100
AcDbSymbolTableRecord
100
AcDbLayerTableRecord
  2
Level 6
 70
     0
 62
     7
  6
Continuous
370
     0
390
42C
  0
LAYER
  5
D
330
429
100
AcDbSymbolTableRecord
100
AcDbLayerTableRecord
  2
Level 7
 70
     0
 62
     7
  6
Continuous
370
     0
390
42C
  0
LAYER
  5
E
330
429
100
AcDbSymbolTableRecord
100
AcDbLayerTableRecord
  2
Level 8
 70
     0
 62
     7
  6
Continuous
370
     0
390
42C
  0
LAYER
  5
F
330
429
100
AcDbSymbolTableRecord
100
AcDbLayerTableRecord
  2
Level 9
 70
     0
 62
     7
  6
Continuous
370
     0
390
42C
  0
LAYER
  5
10
330
429
100
AcDbSymbolTableRecord
100
AcDbLayerTableRecord
  2
Level 10
 70
     0
 62
     7
  6
Continuous
370
     0
390
42C
  0
LAYER
  5
11
330
429
100
AcDbSymbolTableRecord
100
AcDbLayerTableRecord
  2
Level 11
 70
     0
 62
     7
  6
Continuous
370
     0
390
42C
  0
LAYER
  5
12
330
429
100
AcDbSymbolTableRecord
100
AcDbLayerTableRecord
  2
Level 12
 70
     0
 62
     7
  6
Continuous
370
     0
390
42C
  0
LAYER
  5
13
330
429
100
AcDbSymbolTableRecord
100
AcDbLayerTableRecord
  2
Level 13
 70
     0
 62
     7
  6
Continuous
370
     0
390
42C
  0
LAYER
  5
14
330
429
100
AcDbSymbolTableRecord
100
AcDbLayerTableRecord
  2
Level 14
 70
     0
 62
     7
  6
Continuous
370
     0
390
42C
  0
LAYER
  5
15
330
429
100
AcDbSymbolTableRecord
100
AcDbLayerTableRecord
  2
Level 15
 70
     0
 62
     7
  6
Continuous
370
     0
390
42C
  0
LAYER
  5
16
330
429
100
AcDbSymbolTableRecord
100
AcDbLayerTableRecord
  2
Level 16
 70
     0
 62
     7
  6
Continuous
370
     0
390
42C
  0
LAYER
  5
17
330
429
100
AcDbSymbolTableRecord
100
AcDbLayerTableRecord
  2
Level 17
 70
     0
 62
     7
  6
Continuous
370
     0
390
42C
  0
LAYER
  5
18
330
429
100
AcDbSymbolTableRecord
100
AcDbLayerTableRecord
  2
Level 18
 70
     0
 62
     7
  6
Continuous
370
     0
390
42C
  0
LAYER
  5
19
330
429
100
AcDbSymbolTableRecord
100
AcDbLayerTableRecord
  2
Level 19
 70
     0
 62
     7
  6
Continuous
370
     0
390
42C
  0
LAYER
  5
1A
330
429
100
AcDbSymbolTableRecord
100
AcDbLayerTableRecord
  2
Level 20
 70
     0
 62
     7
  6
Continuous
370
     0
390
42C
  0
LAYER
  5
1B
330
429
100
AcDbSymbolTableRecord
100
AcDbLayerTableRecord
  2
Level 21
 70
     0
 62
     7
  6
Continuous
370
     0
390
42C
  0
LAYER
  5
1C
330
429
100
AcDbSymbolTableRecord
100
AcDbLayerTableRecord
  2
Level 22
 70
     0
 62
     7
  6
Continuous
370
     0
390
42C
  0
LAYER
  5
1D
330
429
100
AcDbSymbolTableRecord
100
AcDbLayerTableRecord
  2
Level 23
 70
     0
 62
     7
  6
Continuous
370
     0
390
42C
  0
LAYER
  5
1E
330
429
100
AcDbSymbolTableRecord
100
AcDbLayerTableRecord
  2
Level 24
 70
     0
 62
     7
  6
Continuous
370
     0
390
42C
  0
LAYER
  5
1F
330
429
100
AcDbSymbolTableRecord
100
AcDbLayerTableRecord
  2
Level 25
 70
     0
 62
     7
  6
Continuous
370
     0
390
42C
  0
LAYER
  5
20
330
429
100
AcDbSymbolTableRecord
100
AcDbLayerTableRecord
  2
Level 26
 70
     0
 62
     7
  6
Continuous
370
     0
390
42C
  0
LAYER
  5
21
330
429
100
AcDbSymbolTableRecord
100
AcDbLayerTableRecord
  2
Level 27
 70
     0
 62
     7
  6
Continuous
370
     0
390
42C
  0
LAYER
  5
22
330
429
100
AcDbSymbolTableRecord
100
AcDbLayerTableRecord
  2
Level 28
 70
     0
 62
     7
  6
Continuous
370
     0
390
42C
  0
LAYER
  5
23
330
429
100
AcDbSymbolTableRecord
100
AcDbLayerTableRecord
  2
Level 29
 70
     0
 62
     7
  6
Continuous
370
     0
390
42C
  0
LAYER
  5
24
330
429
100
AcDbSymbolTableRecord
100
AcDbLayerTableRecord
  2
Level 30
 70
     0
 62
     7
  6
Continuous
370
     0
390
42C
  0
LAYER
  5
25
330
429
100
AcDbSymbolTableRecord
100
AcDbLayerTableRecord
  2
Level 31
 70
     0
 62
     7
  6
Continuous
370
     0
390
42C
  0
LAYER
  5
26
330
429
100
AcDbSymbolTableRecord
100
AcDbLayerTableRecord
  2
Level 32
 70
     0
 62
     7
  6
Continuous
370
     0
390
42C
  0
LAYER
  5
27
330
429
100
AcDbSymbolTableRecord
100
AcDbLayerTableRecord
  2
Level 33
 70
     0
 62
     7
  6
Continuous
370
     0
390
42C
  0
LAYER
  5
28
330
429
100
AcDbSymbolTableRecord
100
AcDbLayerTableRecord
  2
Level 34
 70
     0
 62
     7
  6
Continuous
370
     0
390
42C
  0
LAYER
  5
29
330
429
100
AcDbSymbolTableRecord
100
AcDbLayerTableRecord
  2
Level 35
 70
     0
 62
     7
  6
Continuous
370
     0
390
42C
  0
LAYER
  5
2A
330
429
100
AcDbSymbolTableRecord
100
AcDbLayerTableRecord
  2
Level 36
 70
     0
 62
     7
  6
Continuous
370
     0
390
42C
  0
LAYER
  5
2B
330
429
100
AcDbSymbolTableRecord
100
AcDbLayerTableRecord
  2
Level 37
 70
     0
 62
     7
  6
Continuous
370
     0
390
42C
  0
LAYER
  5
2C
330
429
100
AcDbSymbolTableRecord
100
AcDbLayerTableRecord
  2
Level 38
 70
     0
 62
     7
  6
Continuous
370
     0
390
42C
  0
LAYER
  5
2D
330
429
100
AcDbSymbolTableRecord
100
AcDbLayerTableRecord
  2
Level 39
 70
     0
 62
     7
  6
Continuous
370
     0
390
42C
  0
LAYER
  5
2E
330
429
100
AcDbSymbolTableRecord
100
AcDbLayerTableRecord
  2
Level 40
 70
     0
 62
     7
  6
Continuous
370
     0
390
42C
  0
LAYER
  5
2F
330
429
100
AcDbSymbolTableRecord
100
AcDbLayerTableRecord
  2
Level 41
 70
     0
 62
     7
  6
Continuous
370
     0
390
42C
  0
LAYER
  5
30
330
429
100
AcDbSymbolTableRecord
100
AcDbLayerTableRecord
  2
Level 42
 70
     0
 62
     7
  6
Continuous
370
     0
390
42C
  0
LAYER
  5
31
330
429
100
AcDbSymbolTableRecord
100
AcDbLayerTableRecord
  2
Level 43
 70
     0
 62
     7
  6
Continuous
370
     0
390
42C
  0
LAYER
  5
32
330
429
100
AcDbSymbolTableRecord
100
AcDbLayerTableRecord
  2
Level 44
 70
     0
 62
     7
  6
Continuous
370
     0
390
42C
  0
LAYER
  5
33
330
429
100
AcDbSymbolTableRecord
100
AcDbLayerTableRecord
  2
Level 45
 70
     0
 62
     7
  6
Continuous
370
     0
390
42C
  0
LAYER
  5
34
330
429
100
AcDbSymbolTableRecord
100
AcDbLayerTableRecord
  2
Level 46
 70
     0
 62
     7
  6
Continuous
370
     0
390
42C
  0
LAYER
  5
35
330
429
100
AcDbSymbolTableRecord
100
AcDbLayerTableRecord
  2
Level 47
 70
     0
 62
     7
  6
Continuous
370
     0
390
42C
  0
LAYER
  5
36
330
429
100
AcDbSymbolTableRecord
100
AcDbLayerTableRecord
  2
Level 48
 70
     0
 62
     7
  6
Continuous
370
     0
390
42C
  0
LAYER
  5
37
330
429
100
AcDbSymbolTableRecord
100
AcDbLayerTableRecord
  2
Level 49
 70
     0
 62
     7
  6
Continuous
370
     0
390
42C
  0
LAYER
  5
38
330
429
100
AcDbSymbolTableRecord
100
AcDbLayerTableRecord
  2
Level 50
 70
     0
 62
     7
  6
Continuous
370
     0
390
42C
  0
LAYER
  5
39
330
429
100
AcDbSymbolTableRecord
100
AcDbLayerTableRecord
  2
Level 51
 70
     0
 62
     7
  6
Continuous
370
     0
390
42C
  0
LAYER
  5
3A
330
429
100
AcDbSymbolTableRecord
100
AcDbLayerTableRecord
  2
Level 52
 70
     0
 62
     7
  6
Continuous
370
     0
390
42C
  0
LAYER
  5
3B
330
429
100
AcDbSymbolTableRecord
100
AcDbLayerTableRecord
  2
Level 53
 70
     0
 62
     7
  6
Continuous
370
     0
390
42C
  0
LAYER
  5
3C
330
429
100
AcDbSymbolTableRecord
100
AcDbLayerTableRecord
  2
Level 54
 70
     0
 62
     7
  6
Continuous
370
     0
390
42C
  0
LAYER
  5
3D
330
429
100
AcDbSymbolTableRecord
100
AcDbLayerTableRecord
  2
Level 55
 70
     0
 62
     7
  6
Continuous
370
     0
390
42C
  0
LAYER
  5
3E
330
429
100
AcDbSymbolTableRecord
100
AcDbLayerTableRecord
  2
Level 56
 70
     0
 62
     7
  6
Continuous
370
     0
390
42C
  0
LAYER
  5
3F
330
429
100
AcDbSymbolTableRecord
100
AcDbLayerTableRecord
  2
Level 57
 70
     0
 62
     7
  6
Continuous
370
     0
390
42C
  0
LAYER
  5
40
330
429
100
AcDbSymbolTableRecord
100
AcDbLayerTableRecord
  2
Level 58
 70
     0
 62
     7
  6
Continuous
370
     0
390
42C
  0
LAYER
  5
41
330
429
100
AcDbSymbolTableRecord
100
AcDbLayerTableRecord
  2
Level 59
 70
     0
 62
     7
  6
Continuous
370
     0
390
42C
  0
LAYER
  5
42
330
429
100
AcDbSymbolTableRecord
100
AcDbLayerTableRecord
  2
Level 60
 70
     0
 62
     7
  6
Continuous
370
     0
390
42C
  0
LAYER
  5
43
330
429
100
AcDbSymbolTableRecord
100
AcDbLayerTableRecord
  2
Level 61
 70
     0
 62
     7
  6
Continuous
370
     0
390
42C
  0
LAYER
  5
44
330
429
100
AcDbSymbolTableRecord
100
AcDbLayerTableRecord
  2
Level 62
 70
     0
 62
     7
  6
Continuous
370
     0
390
42C
  0
LAYER
  5
45
330
429
100
AcDbSymbolTableRecord
100
AcDbLayerTableRecord
  2
Level 63
 70
     0
 62
     7
  6
Continuous
370
     0
390
42C
  0
ENDTAB
  0
TABLE
  2
STYLE
  5
434
330
0
100
AcDbSymbolTable
 70
     8
  0
STYLE
  5
39A
330
434
100
AcDbSymbolTableRecord
100
AcDbTextStyleTableRecord
  2
Standard
 70
     0
 40
0.0
 41
1.0
 50
0.0
 71
     0
 42
0.166302
  3
txt.shx
  4

  0
STYLE
  5
3B9
330
434
100
AcDbSymbolTableRecord
100
AcDbTextStyleTableRecord
  2
Style-Arial
 70
     0
 40
0.0
 41
1.0
 50
0.0
 71
     0
 42
0.2
  3

  4

1001
ACAD
1000
Arial
1071
        0
  0
STYLE
  5
3CD
330
434
100
AcDbSymbolTableRecord
100
AcDbTextStyleTableRecord
  2
Style-WORKING
 70
     0
 40
0.0
 41
1.0
 50
0.0
 71
     0
 42
0.2
  3
WORKING.shx
  4

  0
STYLE
  5
3CE
330
434
100
AcDbSymbolTableRecord
100
AcDbTextStyleTableRecord
  2
Style-FANCY
 70
     0
 40
0.0
 41
1.0
 50
0.0
 71
     0
 42
0.2
  3
FANCY.shx
  4

  0
STYLE
  5
3CF
330
434
100
AcDbSymbolTableRecord
100
AcDbTextStyleTableRecord
  2
Style-CHAR_FAST_FONT
 70
     0
 40
0.0
 41
1.0
 50
0.0
 71
     0
 42
0.2
  3
CHAR_FAST_FONT.shx
  4

  0
STYLE
  5
3D0
330
434
100
AcDbSymbolTableRecord
100
AcDbTextStyleTableRecord
  2
Style-ITALICS
 70
     0
 40
0.0
 41
1.0
 50
0.0
 71
     0
 42
0.2
  3
ITALICS.shx
  4

  0
STYLE
  5
3D1
330
434
100
AcDbSymbolTableRecord
100
AcDbTextStyleTableRecord
  2
Style-ENGINEERING
 70
     0
 40
0.0
 41
1.0
 50
0.0
 71
     0
 42
0.2
  3
ENGINEERING.shx
  4

  0
ENDTAB
  0
TABLE
  2
VIEW
  5
447
330
0
100
AcDbSymbolTable
 70
     0
  0
ENDTAB
  0
TABLE
  2
UCS
  5
448
330
0
100
AcDbSymbolTable
 70
     0
  0
ENDTAB
  0
TABLE
  2
APPID
  5
446
330
0
100
AcDbSymbolTable
 70
     7
  0
APPID
  5
44E
330
446
100
AcDbSymbolTableRecord
100
AcDbRegAppTableRecord
  2
ACAD
 70
     0
  0
APPID
  5
445
330
446
100
AcDbSymbolTableRecord
100
AcDbRegAppTableRecord
  2
ACAD_PSEXT
 70
     0
  0
APPID
  5
45A
330
446
100
AcDbSymbolTableRecord
100
AcDbRegAppTableRecord
  2
AVE_ENTITY_MATERIAL
 70
     0
  0
APPID
  5
45B
330
446
100
AcDbSymbolTableRecord
100
AcDbRegAppTableRecord
  2
AVE_MATERIAL
 70
     0
  0
APPID
  5
45C
330
446
100
AcDbSymbolTableRecord
100
AcDbRegAppTableRecord
  2
AVE_FINISH
 70
     0
  0
APPID
  5
45D
330
446
100
AcDbSymbolTableRecord
100
AcDbRegAppTableRecord
  2
AVE_GLOBAL
 70
     0
  0
APPID
  5
45E
330
446
100
AcDbSymbolTableRecord
100
AcDbRegAppTableRecord
  2
AVE_RENDER
 70
     0
  0
ENDTAB
  0
TABLE
  2
DIMSTYLE
  5
436
330
0
100
AcDbSymbolTable
 70
     2
100
AcDbDimStyleTable
  0
DIMSTYLE
105
39C
330
436
100
AcDbSymbolTableRecord
100
AcDbDimStyleTableRecord
  2
Standard
 70
     0
 42
0.0625
147
0.09
340
39A
  0
ENDTAB
  0
TABLE
  2
BLOCK_RECORD
  5
439
330
0
100
AcDbSymbolTable
 70
     5
  0
BLOCK_RECORD
  5
43A
102
{ACAD_XDICTIONARY
360
46D
102
}
330
439
100
AcDbSymbolTableRecord
100
AcDbBlockTableRecord
  2
*Model_Space
340
43D
  0
BLOCK_RECORD
  5
43F
330
439
100
AcDbSymbolTableRecord
100
AcDbBlockTableRecord
  2
*Paper_Space
340
442
  0
BLOCK_RECORD
  5
3BA
330
439
100
AcDbSymbolTableRecord
100
AcDbBlockTableRecord
  2
TerminatorOpen_0.5
340
0
  0
BLOCK_RECORD
  5
3C3
330
439
100
AcDbSymbolTableRecord
100
AcDbBlockTableRecord
  2
SQUIG
340
0
102
{BLKREFS
331
BA
331
BC
331
BE
331
186
331
188
331
18A
331
18C
102
}
  0
BLOCK_RECORD
  5
3C6
330
439
100
AcDbSymbolTableRecord
100
AcDbBlockTableRecord
  2
LARROW
340
0
102
{BLKREFS
331
D3
331
DF
331
16C
331
177
331
1A3
331
1AF
331
1FA
331
321
102
}
  0
BLOCK_RECORD
  5
3CA
330
439
100
AcDbSymbolTableRecord
100
AcDbBlockTableRecord
  2
LARROW_1
340
0
102
{BLKREFS
331
1F8
331
2A8
331
2AA
331
2AC
331
2AE
331
2B0
331
2B2
331
2B4
331
2B6
331
2B8
331
2BA
331
2BC
331
2BE
331
2C0
331
2C2
331
2C4
331
2C6
331
2C8
331
2CA
331
2CC
331
2CE
331
2D0
331
2D2
331
2D4
331
2D6
331
2D8
331
2DA
331
2DC
331
2DE
331
2E0
331
2E2
331
2E4
331
2E6
331
2E8
331
2EA
331
2EC
331
2EE
331
2F0
331
2F2
331
2F4
331
2F6
331
2F8
331
2FA
331
31F
102
}
  0
BLOCK_RECORD
  5
45F
330
439
100
AcDbSymbolTableRecord
100
AcDbBlockTableRecord
  2
AVE_RENDER
340
0
102
{BLKREFS
331
462
331
463
331
464
331
465
331
466
331
467
331
468
331
469
102
}
  0
ENDTAB
  0
ENDSEC
  0
SECTION
  2
BLOCKS
  0
BLOCK
  5
43B
330
43A
100
AcDbEntity
  8
0
100
AcDbBlockBegin
  2
*Model_Space
 70
     0
 71
     0
 10
0.0
 20
0.0
 30
0.0
  3
*Model_Space
  1

  0
ENDBLK
  5
43C
330
43A
100
AcDbEntity
  8
0
100
AcDbBlockEnd
  0
BLOCK
  5
440
330
43F
100
AcDbEntity
 67
     1
  8
0
100
AcDbBlockBegin
  2
*Paper_Space
 70
     0
 71
     0
 10
0.0
 20
0.0
 30
0.0
  3
*Paper_Space
  1

  0
ENDBLK
  5
441
330
43F
100
AcDbEntity
 67
     1
  8
0
100
AcDbBlockEnd
  0
BLOCK
  5
452
330
3BA
100
AcDbEntity
  8
0
100
AcDbBlockBegin
  2
TerminatorOpen_0.5
 70
     0
 71
     0
 10
0.0
 20
0.0
 30
0.0
  3
TerminatorOpen_0.5
  1

  0
LINE
  5
3BB
330
3BA
100
AcDbEntity
  8
0
  6
ByBlock
 62
     0
370
    -2
100
AcDbLine
 10
0.0
 20
0.0
 30
0.0
 11
-1.0
 21
0.0
 31
0.0
  0
LINE
  5
3BC
330
3BA
100
AcDbEntity
  8
0
  6
ByBlock
 62
     0
370
    -2
100
AcDbLine
 10
0.0
 20
0.0
 30
0.0
 11
-1.0
 21
0.25
 31
0.0
  0
LINE
  5
3BD
330
3BA
100
AcDbEntity
  8
0
  6
ByBlock
 62
     0
370
    -2
100
AcDbLine
 10
0.0
 20
0.0
 30
0.0
 11
-1.0
 21
-0.25
 31
0.0
  0
ENDBLK
  5
453
330
3BA
100
AcDbEntity
  8
0
100
AcDbBlockEnd
  0
BLOCK
  5
454
330
3C3
100
AcDbEntity
  8
0
100
AcDbBlockBegin
  2
SQUIG
 70
     0
 71
     0
 10
0.0
 20
0.0
 30
0.0
  3
SQUIG
  1

  0
SPLINE
  5
BB
330
3C3
100
AcDbEntity
  8
Level 46
  6
Continuous
 62
     7
370
     0
100
AcDbSpline
210
0.0
220
0.0
230
1.0
 70
     8
 71
     3
 72
    44
 73
    40
 74
     0
 42
0.0000000001
 43
0.00000001
 40
0.0
 40
0.0
 40
0.0
 40
0.0
 40
0.0554522033394483
 40
0.0554522033394483
 40
0.0554522033394483
 40
0.1167524692003142
 40
0.1167524692003142
 40
0.1167524692003142
 40
0.1798436984813156
 40
0.1798436984813156
 40
0.1798436984813156
 40
0.238739730440177
 40
0.238739730440177
 40
0.238739730440177
 40
0.3226725554550689
 40
0.3226725554550689
 40
0.3226725554550689
 40
0.4010041434266383
 40
0.4010041434266383
 40
0.4010041434266383
 40
0.4891614083315051
 40
0.4891614083315051
 40
0.4891614083315051
 40
0.5937091521012332
 40
0.5937091521012332
 40
0.5937091521012332
 40
0.6510948445466923
 40
0.6510948445466923
 40
0.6510948445466923
 40
0.7377865119042053
 40
0.7377865119042053
 40
0.7377865119042053
 40
0.8103205693041249
 40
0.8103205693041249
 40
0.8103205693041249
 40
0.8919219337459499
 40
0.8919219337459499
 40
0.8919219337459499
 40
1.0
 40
1.0
 40
1.0
 40
1.0
 10
0.0
 20
0.0
 30
0.0
 10
0.0006976154217553
 20
0.000131383402347
 30
0.0
 10
0.0013960354036964
 20
0.0001681751464405
 30
0.0
 10
0.0020937463438313
 20
0.0001770830241051
 30
0.0
 10
0.0028650388001923
 20
0.0001869303383003
 30
0.0
 10
0.0036355996133584
 20
0.0001111589093841
 30
0.0
 10
0.0044062423056752
 20
-0.0000416665939071
 30
0.0
 10
0.0051994002816134
 20
-0.0001989570841313
 30
0.0
 10
0.0058873196394429
 20
-0.0005174054036117
 30
0.0
 10
0.0065729051888439
 20
-0.0010520814961541
 30
0.0
 10
0.007212903313595
 20
-0.0015512047592905
 30
0.0
 10
0.0075559070626683
 20
-0.0021864907290228
 30
0.0
 10
0.0078749862484406
 20
-0.0028645783311128
 30
0.0
 10
0.0083297064829726
 20
-0.0038309220075547
 30
0.0
 10
0.0085563388421965
 20
-0.005069902618497
 30
0.0
 10
0.0080208193271156
 20
-0.0060416561165286
 30
0.0
 10
0.0075210375790493
 20
-0.0069485598768184
 30
0.0
 10
0.0067642398408809
 20
-0.0076799938314299
 30
0.0
 10
0.0057812399046093
 20
-0.0079895693816853
 30
0.0
 10
0.0046749354362912
 20
-0.0083379771504878
 30
0.0
 10
0.0035481363778562
 20
-0.0083143769813636
 30
0.0
 10
0.0024479123920418
 20
-0.0082083189996975
 30
0.0
 10
0.0011431312661483
 20
-0.0080825423810159
 30
0.0
 10
-0.0001583983379971
 20
-0.0079280582871059
 30
0.0
 10
-0.0014479141382715
 20
-0.0074895702548001
 30
0.0
 10
-0.0021557224031836
 20
-0.0072488865398237
 30
0.0
 10
-0.002768050919298
 20
-0.0069092643441454
 30
0.0
 10
-0.0033333275125675
 20
-0.0064062388132157
 30
0.0
 10
-0.0041872820141236
 20
-0.0056463260171623
 30
0.0
 10
-0.0048495395242507
 20
-0.0048280234388746
 30
0.0
 10
-0.0054270738563991
 20
-0.0038749932333597
 30
0.0
 10
-0.0059102910983253
 20
-0.003077602322125
 30
0.0
 10
-0.0063774261825928
 20
-0.0022922215566753
 30
0.0
 10
-0.0066562383766584
 20
-0.0014166641928413
 30
0.0
 10
-0.0069699042086042
 20
-0.0004316555210937
 30
0.0
 10
-0.0072388014742033
 20
0.0005589686175919
 30
0.0
 10
-0.0075208202002306
 20
0.0015520806230392
 30
0.0
 10
-0.0078943438387744
 20
0.0028674216820599
 30
0.0
 10
-0.008265653049419
 20
0.0042069461443706
 30
0.0
 10
-0.0085312351024776
 20
0.0055208236926899
 30
0.0
  0
ENDBLK
  5
455
330
3C3
100
AcDbEntity
  8
0
100
AcDbBlockEnd
  0
BLOCK
  5
456
330
3C6
100
AcDbEntity
  8
0
100
AcDbBlockBegin
  2
LARROW
 70
     0
 71
     0
 10
0.0
 20
0.0
 30
0.0
  3
LARROW
  1

  0
LINE
  5
D4
330
3C6
100
AcDbEntity
  8
Level 46
  6
Continuous
 62
     7
370
     0
100
AcDbLine
 10
0.0
 20
0.0
 30
0.0
 11
-0.013031
 21
0.001886
 31
0.0
  0
LINE
  5
D5
330
3C6
100
AcDbEntity
  8
Level 46
  6
Continuous
 62
     7
370
     0
100
AcDbLine
 10
0.0
 20
0.0
 30
0.0
 11
-0.013021
 21
-0.001886
 31
0.0
  0
LWPOLYLINE
  5
D6
330
3C6
100
AcDbEntity
  8
Level 46
  6
Continuous
 62
     7
370
     0
100
AcDbPolyline
 90
        9
 70
   128
 43
0.0
 10
-0.013031
 20
0.001886
 10
-0.01225
 20
0.001292
 10
-0.011896
 20
0.000812
 10
-0.011719
 20
0.000365
 10
-0.011687
 20
-0.000052
 10
-0.01175
 20
-0.000458
 10
-0.011958
 20
-0.000896
 10
-0.012323
 20
-0.001354
 10
-0.013021
 20
-0.001886
  0
LINE
  5
D7
330
3C6
100
AcDbEntity
  8
Level 46
  6
Continuous
 62
     7
370
     0
100
AcDbLine
 10
0.0
 20
0.0
 30
0.0
 11
-0.01225
 21
0.001292
 31
0.0
  0
LINE
  5
D8
330
3C6
100
AcDbEntity
  8
Level 46
  6
Continuous
 62
     7
370
     0
100
AcDbLine
 10
0.0
 20
0.0
 30
0.0
 11
-0.011896
 21
0.000812
 31
0.0
  0
LINE
  5
D9
330
3C6
100
AcDbEntity
  8
Level 46
  6
Continuous
 62
     7
370
     0
100
AcDbLine
 10
0.0
 20
0.0
 30
0.0
 11
-0.011719
 21
0.000365
 31
0.0
  0
LINE
  5
DA
330
3C6
100
AcDbEntity
  8
Level 46
  6
Continuous
 62
     7
370
     0
100
AcDbLine
 10
0.0
 20
0.0
 30
0.0
 11
-0.01175
 21
-0.000458
 31
0.0
  0
LINE
  5
DB
330
3C6
100
AcDbEntity
  8
Level 46
  6
Continuous
 62
     7
370
     0
100
AcDbLine
 10
0.0
 20
0.0
 30
0.0
 11
-0.011958
 21
-0.000896
 31
0.0
  0
LINE
  5
DC
330
3C6
100
AcDbEntity
  8
Level 46
  6
Continuous
 62
     7
370
     0
100
AcDbLine
 10
0.0
 20
0.0
 30
0.0
 11
-0.012323
 21
-0.001354
 31
0.0
  0
LINE
  5
DD
330
3C6
100
AcDbEntity
  8
Level 46
  6
Continuous
 62
     7
370
     0
100
AcDbLine
 10
0.0
 20
0.0
 30
0.0
 11
-0.011677
 21
0.0
 31
0.0
  0
ENDBLK
  5
457
330
3C6
100
AcDbEntity
  8
0
100
AcDbBlockEnd
  0
BLOCK
  5
458
330
3CA
100
AcDbEntity
  8
0
100
AcDbBlockBegin
  2
LARROW_1
 70
     0
 71
     0
 10
0.0
 20
0.0
 30
0.0
  3
LARROW_1
  1

  0
LWPOLYLINE
  5
1F9
330
3CA
100
AcDbEntity
  8
Level 46
  6
Continuous
 62
     7
370
     0
100
AcDbPolyline
 90
       63
 70
   128
 43
0.0
 10
-0.013031
 20
0.001885
 10
0.0
 20
0.0
 10
-0.013021
 20
-0.001885
 10
-0.012615
 20
-0.001573
 10
-0.012042
 20
-0.00101
 10
-0.01176
 20
-0.00049
 10
-0.011687
 20
0.0
 10
-0.011792
 20
0.000552
 10
-0.012094
 20
0.001094
 10
-0.012677
 20
0.001625
 10
-0.013031
 20
0.001885
 10
-0.000385
 20
0.000021
 10
-0.012604
 20
-0.00176
 10
-0.012229
 20
-0.001479
 10
-0.011625
 20
-0.000906
 10
-0.011427
 20
-0.000167
 10
-0.011562
 20
0.000573
 10
-0.011917
 20
0.001083
 10
-0.012344
 20
0.0015
 10
-0.012635
 20
0.001729
 10
-0.001073
 20
0.000021
 10
-0.012052
 20
-0.001552
 10
-0.011667
 20
-0.001302
 10
-0.011469
 20
-0.000979
 10
-0.01125
 20
-0.000562
 10
-0.011135
 20
0.000021
 10
-0.011198
 20
0.0005
 10
-0.011427
 20
0.000875
 10
-0.011896
 20
0.001177
 10
-0.012208
 20
0.001542
 10
-0.001875
 20
0.000021
 10
-0.011448
 20
-0.001323
 10
-0.011021
 20
-0.000792
 10
-0.010896
 20
-0.000146
 10
-0.010958
 20
0.000573
 10
-0.011781
 20
0.001354
 10
-0.002771
 20
0.000062
 10
-0.010896
 20
-0.001073
 10
-0.010781
 20
-0.000698
 10
-0.010531
 20
-0.000094
 10
-0.010687
 20
0.000552
 10
-0.011333
 20
0.001125
 10
-0.003594
 20
0.000062
 10
-0.010604
 20
-0.000833
 10
-0.010375
 20
-0.000375
 10
-0.010271
 20
0.000115
 10
-0.01076
 20
0.000875
 10
-0.004573
 20
0.000062
 10
-0.010177
 20
-0.000625
 10
-0.010021
 20
-0.000281
 10
-0.009979
 20
0.000115
 10
-0.010375
 20
0.000667
 10
-0.00574
 20
0.000062
 10
-0.009823
 20
-0.000396
 10
-0.009708
 20
0.000135
 10
-0.010083
 20
0.000458
 10
-0.006698
 20
0.000062
 10
-0.009552
 20
-0.00024
 10
-0.009615
 20
0.000271
 10
-0.007677
 20
0.000062
 10
-0.009437
 20
-0.000073
 10
-0.00949
 20
0.000083
 10
-0.008885
 20
0.000083
  0
ENDBLK
  5
459
330
3CA
100
AcDbEntity
  8
0
100
AcDbBlockEnd
  0
BLOCK
  5
460
330
45F
100
AcDbEntity
  8
0
100
AcDbBlockBegin
  2
AVE_RENDER
 70
     0
 71
     0
 10
0.0
 20
0.0
 30
0.0
  3
AVE_RENDER
  1
AVE_RENDER
  0
ENDBLK
  5
461
330
45F
100
AcDbEntity
  8
0
100
AcDbBlockEnd
  0
ENDSEC
  0
SECTION
  2
ENTITIES
  0
INSERT
  5
462
330
43A
100
AcDbEntity
  8
0
 62
     1
100
AcDbBlockReference
  2
AVE_RENDER
 10
0.0
 20
0.0
 30
0.0
1001
AVE_RENDER
1002
{
1070
     7
1000
Pref
1070
    50
1070
    20
1070
     1
1070
     0
1000

1070
    10
1070
     1
1070
    10
1040
1.0
1070
     1
1040
0.7
1040
1.0
1040
0.2
1040
2.0
1010
-1.0
1020
-1.0
1030
-1.0
1040
0.3
1070
    49
1070
     0
1070
     0
1010
1.0
1020
1.0
1030
1.0
1040
45.0
1070
     1
1070
     0
1000
WCS
1040
0.0
1070
     0
1040
10.0
1002
}
  0
INSERT
  5
463
330
43A
100
AcDbEntity
  8
0
 62
     3
100
AcDbBlockReference
  2
AVE_RENDER
 10
0.0
 20
0.0
 30
0.0
1001
AVE_RENDER
1002
{
1070
     0
1000
Full Opt
1070
     0
1070
     1
1070
     1
1070
     1
1070
     0
1070
     0
1070
     0
1070
     1
1070
     1
1040
0.0001
1040
0.0001
1002
}
  0
INSERT
  5
464
330
43A
100
AcDbEntity
  8
0
 62
     4
100
AcDbBlockReference
  2
AVE_RENDER
 10
0.0
 20
0.0
 30
0.0
1001
AVE_RENDER
1002
{
1070
     0
1000
Quick Opt
1070
     0
1070
     1
1070
     1
1070
     1
1070
     0
1070
     0
1070
     1
1002
}
  0
INSERT
  5
465
330
43A
100
AcDbEntity
  8
0
 62
     5
100
AcDbBlockReference
  2
AVE_RENDER
 10
0.0
 20
0.0
 30
0.0
1001
AVE_RENDER
1002
{
1070
     1
1000
Scanl Opt
1070
     2
1070
     0
1070
     2
1040
2.0
1040
4.0
1070
     0
1070
     1
1070
     0
1040
0.03
1002
}
  0
INSERT
  5
466
330
43A
100
AcDbEntity
  8
0
 62
     6
100
AcDbBlockReference
  2
AVE_RENDER
 10
0.0
 20
0.0
 30
0.0
1001
AVE_RENDER
1002
{
1070
     2
1000
Raytr Opt
1070
     2
1070
     0
1070
     2
1040
2.0
1040
4.0
1070
     0
1070
     1
1070
     1
1040
0.03
1070
     3
1040
0.03
1002
}
  0
INSERT
  5
467
330
43A
100
AcDbEntity
  8
0
 62
     7
100
AcDbBlockReference
  2
AVE_RENDER
 10
0.0
 20
0.0
 30
0.0
1001
AVE_RENDER
1002
{
1070
     0
1000
RFile Opt
1070
     1
1070
   640
1070
   480
1070
 10000
1070
     1
1070
     8
1070
     8
1070
     0
1070
     0
1070
     0
1070
     0
1070
     0
1070
     0
1070
     0
1002
}
  0
INSERT
  5
468
330
43A
100
AcDbEntity
  8
0
 62
     8
100
AcDbBlockReference
  2
AVE_RENDER
 10
0.0
 20
0.0
 30
0.0
1001
AVE_RENDER
1002
{
1070
     0
1000
Fog Opt
1070
     0
1070
     0
1040
0.0
1040
1.0
1040
0.0
1040
1.0
1010
0.498039
1020
0.498039
1030
0.498039
1002
}
  0
INSERT
  5
469
330
43A
100
AcDbEntity
  8
0
 62
     9
100
AcDbBlockReference
  2
AVE_RENDER
 10
0.0
 20
0.0
 30
0.0
1001
AVE_RENDER
1002
{
1070
     0
1000
BG Opt
1070
     0
1070
     1
1010
0.0
1020
0.0
1030
0.0
1010
1.0
1020
0.0
1030
0.0
1010
0.0
1020
1.0
1030
0.0
1010
0.0
1020
0.0
1030
1.0
1040
0.5
1040
0.33
1040
0.0
1000

1070
     1
1000

1070
     0
1070
     1
1040
0.0
1040
0.0
1040
0.0
1040
0.0
1070
     1
1002
}
  0
LINE
  5
5B
330
43A
100
AcDbEntity
  8
Level 46
  6
Continuous
 62
     7
370
     0
100
AcDbLine
 10
15.645833
 20
-12.333333
 30
0.0
 11
15.645833
 21
-13.306854
 31
0.0
  0
LINE
  5
5C
330
43A
100
AcDbEntity
  8
Level 10
  6
Continuous
 62
     7
370
    13
100
AcDbLine
 10
15.419292
 20
-13.375
 30
0.0
 11
15.645833
 21
-13.375
 31
0.0
  0
LINE
  5
5D
330
43A
100
AcDbEntity
  8
Level 10
  6
Continuous
 62
     7
370
    13
100
AcDbLine
 10
15.642521
 20
-13.472646
 30
0.0
 11
15.598354
 21
-13.489917
 31
0.0
  0
LINE
  5
5E
330
43A
100
AcDbEntity
  8
Level 10
  6
Continuous
 62
     7
370
    13
100
AcDbLine
 10
15.422604
 20
-13.472646
 30
0.0
 11
15.466771
 21
-13.489917
 31
0.0
  0
LINE
  5
5F
330
43A
100
AcDbEntity
  8
Level 10
  6
Continuous
 62
     7
370
    13
100
AcDbLine
 10
15.506521
 20
-13.548125
 30
0.0
 11
15.506521
 21
-13.788271
 31
0.0
  0
LINE
  5
60
330
43A
100
AcDbEntity
  8
Level 10
  6
Continuous
 62
     7
370
    13
100
AcDbLine
 10
15.558604
 20
-13.548125
 30
0.0
 11
15.558604
 21
-13.788271
 31
0.0
  0
LINE
  5
61
330
43A
100
AcDbEntity
  8
Level 10
  6
Continuous
 62
     7
370
    13
100
AcDbLine
 10
15.419292
 20
-13.375
 30
0.0
 11
15.419292
 21
-13.467802
 31
0.0
  0
LINE
  5
62
330
43A
100
AcDbEntity
  8
Level 10
  6
Continuous
 62
     7
370
    13
100
AcDbLine
 10
15.645833
 20
-13.375
 30
0.0
 11
15.645833
 21
-13.467802
 31
0.0
  0
LINE
  5
63
330
43A
100
AcDbEntity
  8
Level 10
  6
Continuous
 62
     7
370
    13
100
AcDbLine
 10
15.761729
 20
-13.886302
 30
0.0
 11
15.761729
 21
-13.927083
 31
0.0
  0
LINE
  5
64
330
43A
100
AcDbEntity
  8
Level 10
  6
Continuous
 62
     7
370
    13
100
AcDbLine
 10
15.303396
 20
-13.927083
 30
0.0
 11
15.303396
 21
-13.886302
 31
0.0
  0
LINE
  5
65
330
43A
100
AcDbEntity
  8
Level 10
  6
Continuous
 62
     7
370
    13
100
AcDbLine
 10
15.307521
 20
-13.881208
 30
0.0
 11
15.457021
 21
-13.849406
 31
0.0
  0
LINE
  5
66
330
43A
100
AcDbEntity
  8
Level 10
  6
Continuous
 62
     7
370
    13
100
AcDbLine
 10
15.757604
 20
-13.881208
 30
0.0
 11
15.608104
 21
-13.849406
 31
0.0
  0
ARC
  5
67
330
43A
100
AcDbEntity
  8
Level 10
  6
Continuous
 62
     7
370
    13
100
AcDbCircle
 10
-15.308604
 20
-13.8863
 30
0.0
 40
0.005208333333337
210
0.0
220
0.0
230
-1.0
100
AcDbArc
 50
0.0
 51
77.991153
  0
ARC
  5
68
330
43A
100
AcDbEntity
  8
Level 10
  6
Continuous
 62
     7
370
    13
100
AcDbCircle
 10
15.308604
 20
-13.921875
 30
0.0
 40
0.005208333333337
100
AcDbArc
 50
180.0
 51
270.0
  0
ARC
  5
69
330
43A
100
AcDbEntity
  8
Level 10
  6
Continuous
 62
     7
370
    13
100
AcDbCircle
 10
-15.756521
 20
-13.8863
 30
0.0
 40
0.0052083333333413
210
0.0
220
0.0
230
-1.0
100
AcDbArc
 50
102.008847
 51
180.0
  0
ARC
  5
6A
330
43A
100
AcDbEntity
  8
Level 10
  6
Continuous
 62
     7
370
    13
100
AcDbCircle
 10
15.756521
 20
-13.921875
 30
0.0
 40
0.005208333333337
100
AcDbArc
 50
270.0
 51
0.0
  0
ARC
  5
6B
330
43A
100
AcDbEntity
  8
Level 10
  6
Continuous
 62
     7
370
    13
100
AcDbCircle
 10
15.444021
 20
-13.788272
 30
0.0
 40
0.0625000006090051
100
AcDbArc
 50
282.009525
 51
0.0
  0
ARC
  5
6C
330
43A
100
AcDbEntity
  8
Level 10
  6
Continuous
 62
     7
370
    13
100
AcDbCircle
 10
-15.621104
 20
-13.788272
 30
0.0
 40
0.0625000006090051
210
0.0
220
0.0
230
-1.0
100
AcDbArc
 50
282.009525
 51
0.0
  0
ARC
  5
6D
330
43A
100
AcDbEntity
  8
Level 10
  6
Continuous
 62
     7
370
    13
100
AcDbCircle
 10
-15.450542
 20
-13.40625
 30
0.0
 40
0.0312500000001249
210
0.0
220
0.0
230
-1.0
100
AcDbArc
 50
0.0
 51
90.0
  0
ARC
  5
6E
330
43A
100
AcDbEntity
  8
Level 10
  6
Continuous
 62
     7
370
    13
100
AcDbCircle
 10
-15.614583
 20
-13.40625
 30
0.0
 40
0.0312500000001249
210
0.0
220
0.0
230
-1.0
100
AcDbArc
 50
90.0
 51
180.0
  0
ARC
  5
6F
330
43A
100
AcDbEntity
  8
Level 10
  6
Continuous
 62
     7
370
    13
100
AcDbCircle
 10
15.444021
 20
-13.548124
 30
0.0
 40
0.0625000006088473
100
AcDbArc
 50
0.0
 51
68.651825
  0
ARC
  5
70
330
43A
100
AcDbEntity
  8
Level 10
  6
Continuous
 62
     7
370
    13
100
AcDbCircle
 10
-15.621104
 20
-13.548124
 30
0.0
 40
0.0625000006088473
210
0.0
220
0.0
230
-1.0
100
AcDbArc
 50
0.0
 51
68.651825
  0
ARC
  5
71
330
43A
100
AcDbEntity
  8
Level 10
  6
Continuous
 62
     7
370
    13
100
AcDbCircle
 10
15.4245
 20
-13.467798
 30
0.0
 40
0.005208333333337
100
AcDbArc
 50
180.0
 51
248.646442
  0
ARC
  5
72
330
43A
100
AcDbEntity
  8
Level 10
  6
Continuous
 62
     7
370
    13
100
AcDbCircle
 10
15.640625
 20
-13.467798
 30
0.0
 40
0.005208333333323
100
AcDbArc
 50
291.353558
 51
0.0
  0
LINE
  5
73
330
43A
100
AcDbEntity
  8
Level 10
  6
Continuous
 62
     7
370
    13
100
AcDbLine
 10
15.303396
 20
-13.927083
 30
0.0
 11
15.761729
 21
-13.927083
 31
0.0
  0
LINE
  5
74
330
43A
100
AcDbEntity
  8
Level 10
  6
Continuous
 62
     7
370
    13
100
AcDbLine
 10
14.912771
 20
-14.0
 30
0.0
 11
16.079438
 21
-14.0
 31
0.0
  0
LINE
  5
75
330
43A
100
AcDbEntity
  8
Level 10
  6
Continuous
 62
     7
370
    13
100
AcDbLine
 10
15.298187
 20
-13.927083
 30
0.0
 11
15.298187
 21
-13.890625
 31
0.0
  0
LINE
  5
76
330
43A
100
AcDbEntity
  8
Level 10
  6
Continuous
 62
     7
370
    13
100
AcDbLine
 10
15.766937
 20
-13.890625
 30
0.0
 11
15.766937
 21
-13.927083
 31
0.0
  0
LINE
  5
77
330
43A
100
AcDbEntity
  8
Level 10
  6
Continuous
 62
     7
370
    13
100
AcDbLine
 10
14.912771
 20
-14.0
 30
0.0
 11
14.912771
 21
-13.963542
 31
0.0
  0
LINE
  5
78
330
43A
100
AcDbEntity
  8
Level 10
  6
Continuous
 62
     7
370
    13
100
AcDbLine
 10
16.079438
 20
-13.963542
 30
0.0
 11
16.079438
 21
-14.0
 31
0.0
  0
LINE
  5
79
330
43A
100
AcDbEntity
  8
Level 10
  6
Continuous
 62
     7
370
    13
100
AcDbLine
 10
15.852417
 20
-13.937052
 30
0.0
 11
16.079438
 21
-13.963542
 31
0.0
  0
LINE
  5
7A
330
43A
100
AcDbEntity
  8
Level 10
  6
Continuous
 62
     7
370
    13
100
AcDbLine
 10
15.761729
 20
-13.927083
 30
0.0
 11
15.766937
 21
-13.927083
 31
0.0
  0
LINE
  5
7B
330
43A
100
AcDbEntity
  8
Level 10
  6
Continuous
 62
     7
370
    13
100
AcDbLine
 10
15.204135
 20
-13.935979
 30
0.0
 11
14.912771
 21
-13.963542
 31
0.0
  0
LINE
  5
7C
330
43A
100
AcDbEntity
  8
Level 10
  6
Continuous
 62
     7
370
    13
100
AcDbLine
 10
15.303396
 20
-13.927083
 30
0.0
 11
15.298187
 21
-13.927083
 31
0.0
  0
ARC
  5
7D
330
43A
100
AcDbEntity
  8
Level 10
  6
Continuous
 62
     7
370
    13
100
AcDbCircle
 10
15.766937
 20
-13.927083
 30
0.0
 40
0.0364583329289616
100
AcDbArc
 50
37.424786
 51
90.0
  0
ARC
  5
7E
330
43A
100
AcDbEntity
  8
Level 10
  6
Continuous
 62
     7
370
    13
100
AcDbCircle
 10
-15.86207
 20
-13.854284
 30
0.0
 40
0.0833333333333924
210
0.0
220
0.0
230
-1.0
100
AcDbArc
 50
276.654425
 51
322.575214
  0
ARC
  5
7F
330
43A
100
AcDbEntity
  8
Level 10
  6
Continuous
 62
     7
370
    13
100
AcDbCircle
 10
15.298187
 20
-13.927083
 30
0.0
 40
0.0364583333333333
100
AcDbArc
 50
90.0
 51
137.609239
  0
ARC
  5
80
330
43A
100
AcDbEntity
  8
Level 10
  6
Continuous
 62
     7
370
    13
100
AcDbCircle
 10
15.194327
 20
-13.832276
 30
0.0
 40
0.104166666688621
100
AcDbArc
 50
275.403792
 51
317.609239
  0
LINE
  5
81
330
43A
100
AcDbEntity
  8
Level 10
  6
Continuous
 62
     7
370
    13
100
AcDbLine
 10
20.580708
 20
-13.375
 30
0.0
 11
20.354167
 21
-13.375
 31
0.0
  0
LINE
  5
82
330
43A
100
AcDbEntity
  8
Level 10
  6
Continuous
 62
     7
370
    13
100
AcDbLine
 10
20.357479
 20
-13.472646
 30
0.0
 11
20.401646
 21
-13.489917
 31
0.0
  0
LINE
  5
83
330
43A
100
AcDbEntity
  8
Level 10
  6
Continuous
 62
     7
370
    13
100
AcDbLine
 10
20.577396
 20
-13.472646
 30
0.0
 11
20.533229
 21
-13.489917
 31
0.0
  0
LINE
  5
84
330
43A
100
AcDbEntity
  8
Level 10
  6
Continuous
 62
     7
370
    13
100
AcDbLine
 10
20.493479
 20
-13.548125
 30
0.0
 11
20.493479
 21
-13.788271
 31
0.0
  0
LINE
  5
85
330
43A
100
AcDbEntity
  8
Level 10
  6
Continuous
 62
     7
370
    13
100
AcDbLine
 10
20.441396
 20
-13.548125
 30
0.0
 11
20.441396
 21
-13.788271
 31
0.0
  0
LINE
  5
86
330
43A
100
AcDbEntity
  8
Level 10
  6
Continuous
 62
     7
370
    13
100
AcDbLine
 10
20.580708
 20
-13.375
 30
0.0
 11
20.580708
 21
-13.467802
 31
0.0
  0
LINE
  5
87
330
43A
100
AcDbEntity
  8
Level 10
  6
Continuous
 62
     7
370
    13
100
AcDbLine
 10
20.354167
 20
-13.375
 30
0.0
 11
20.354167
 21
-13.467802
 31
0.0
  0
LINE
  5
88
330
43A
100
AcDbEntity
  8
Level 10
  6
Continuous
 62
     7
370
    13
100
AcDbLine
 10
20.238271
 20
-13.886302
 30
0.0
 11
20.238271
 21
-13.927083
 31
0.0
  0
LINE
  5
89
330
43A
100
AcDbEntity
  8
Level 10
  6
Continuous
 62
     7
370
    13
100
AcDbLine
 10
20.696604
 20
-13.927083
 30
0.0
 11
20.696604
 21
-13.886302
 31
0.0
  0
LINE
  5
8A
330
43A
100
AcDbEntity
  8
Level 10
  6
Continuous
 62
     7
370
    13
100
AcDbLine
 10
20.692479
 20
-13.881208
 30
0.0
 11
20.542979
 21
-13.849406
 31
0.0
  0
LINE
  5
8B
330
43A
100
AcDbEntity
  8
Level 10
  6
Continuous
 62
     7
370
    13
100
AcDbLine
 10
20.242396
 20
-13.881208
 30
0.0
 11
20.391896
 21
-13.849406
 31
0.0
  0
ARC
  5
8C
330
43A
100
AcDbEntity
  8
Level 10
  6
Continuous
 62
     7
370
    13
100
AcDbCircle
 10
20.691396
 20
-13.8863
 30
0.0
 40
0.0052083333333407
100
AcDbArc
 50
0.0
 51
77.991153
  0
ARC
  5
8D
330
43A
100
AcDbEntity
  8
Level 10
  6
Continuous
 62
     7
370
    13
100
AcDbCircle
 10
-20.691396
 20
-13.921875
 30
0.0
 40
0.0052083333333407
210
0.0
220
0.0
230
-1.0
100
AcDbArc
 50
180.0
 51
270.0
  0
ARC
  5
8E
330
43A
100
AcDbEntity
  8
Level 10
  6
Continuous
 62
     7
370
    13
100
AcDbCircle
 10
20.243479
 20
-13.8863
 30
0.0
 40
0.0052083333333448
100
AcDbArc
 50
102.008847
 51
180.0
  0
ARC
  5
8F
330
43A
100
AcDbEntity
  8
Level 10
  6
Continuous
 62
     7
370
    13
100
AcDbCircle
 10
-20.243479
 20
-13.921875
 30
0.0
 40
0.0052083333333407
210
0.0
220
0.0
230
-1.0
100
AcDbArc
 50
270.0
 51
0.0
  0
ARC
  5
90
330
43A
100
AcDbEntity
  8
Level 10
  6
Continuous
 62
     7
370
    13
100
AcDbCircle
 10
-20.555979
 20
-13.788272
 30
0.0
 40
0.0625000012178523
210
0.0
220
0.0
230
-1.0
100
AcDbArc
 50
282.009525
 51
0.0
  0
ARC
  5
91
330
43A
100
AcDbEntity
  8
Level 10
  6
Continuous
 62
     7
370
    13
100
AcDbCircle
 10
20.378896
 20
-13.788272
 30
0.0
 40
0.0625000012178522
100
AcDbArc
 50
282.009525
 51
0.0
  0
ARC
  5
92
330
43A
100
AcDbEntity
  8
Level 10
  6
Continuous
 62
     7
370
    13
100
AcDbCircle
 10
20.549458
 20
-13.40625
 30
0.0
 40
0.0312500000002498
100
AcDbArc
 50
0.0
 51
90.0
  0
ARC
  5
93
330
43A
100
AcDbEntity
  8
Level 10
  6
Continuous
 62
     7
370
    13
100
AcDbCircle
 10
20.385417
 20
-13.40625
 30
0.0
 40
0.0312500000002498
100
AcDbArc
 50
90.0
 51
180.0
  0
ARC
  5
94
330
43A
100
AcDbEntity
  8
Level 10
  6
Continuous
 62
     7
370
    13
100
AcDbCircle
 10
-20.555979
 20
-13.548124
 30
0.0
 40
0.0625000012176944
210
0.0
220
0.0
230
-1.0
100
AcDbArc
 50
0.0
 51
68.651825
  0
ARC
  5
95
330
43A
100
AcDbEntity
  8
Level 10
  6
Continuous
 62
     7
370
    13
100
AcDbCircle
 10
20.378896
 20
-13.548124
 30
0.0
 40
0.0625000012176944
100
AcDbArc
 50
0.0
 51
68.651825
  0
ARC
  5
96
330
43A
100
AcDbEntity
  8
Level 10
  6
Continuous
 62
     7
370
    13
100
AcDbCircle
 10
-20.5755
 20
-13.467798
 30
0.0
 40
0.0052083333333407
210
0.0
220
0.0
230
-1.0
100
AcDbArc
 50
180.0
 51
248.646442
  0
ARC
  5
97
330
43A
100
AcDbEntity
  8
Level 10
  6
Continuous
 62
     7
370
    13
100
AcDbCircle
 10
-20.359375
 20
-13.467798
 30
0.0
 40
0.0052083333333267
210
0.0
220
0.0
230
-1.0
100
AcDbArc
 50
291.353558
 51
360.0
  0
LINE
  5
98
330
43A
100
AcDbEntity
  8
Level 10
  6
Continuous
 62
     7
370
    13
100
AcDbLine
 10
20.696604
 20
-13.927083
 30
0.0
 11
20.238271
 21
-13.927083
 31
0.0
  0
LINE
  5
99
330
43A
100
AcDbEntity
  8
Level 10
  6
Continuous
 62
     7
370
    13
100
AcDbLine
 10
21.087229
 20
-14.0
 30
0.0
 11
19.920562
 21
-14.0
 31
0.0
  0
LINE
  5
9A
330
43A
100
AcDbEntity
  8
Level 10
  6
Continuous
 62
     7
370
    13
100
AcDbLine
 10
20.701812
 20
-13.927083
 30
0.0
 11
20.701812
 21
-13.890625
 31
0.0
  0
LINE
  5
9B
330
43A
100
AcDbEntity
  8
Level 10
  6
Continuous
 62
     7
370
    13
100
AcDbLine
 10
20.233062
 20
-13.890625
 30
0.0
 11
20.233062
 21
-13.927083
 31
0.0
  0
LINE
  5
9C
330
43A
100
AcDbEntity
  8
Level 10
  6
Continuous
 62
     7
370
    13
100
AcDbLine
 10
21.087229
 20
-14.0
 30
0.0
 11
21.087229
 21
-13.963542
 31
0.0
  0
LINE
  5
9D
330
43A
100
AcDbEntity
  8
Level 10
  6
Continuous
 62
     7
370
    13
100
AcDbLine
 10
19.920562
 20
-13.963542
 30
0.0
 11
19.920562
 21
-14.0
 31
0.0
  0
LINE
  5
9E
330
43A
100
AcDbEntity
  8
Level 10
  6
Continuous
 62
     7
370
    13
100
AcDbLine
 10
20.147583
 20
-13.937052
 30
0.0
 11
19.920562
 21
-13.963542
 31
0.0
  0
LINE
  5
9F
330
43A
100
AcDbEntity
  8
Level 10
  6
Continuous
 62
     7
370
    13
100
AcDbLine
 10
20.238271
 20
-13.927083
 30
0.0
 11
20.233062
 21
-13.927083
 31
0.0
  0
LINE
  5
A0
330
43A
100
AcDbEntity
  8
Level 10
  6
Continuous
 62
     7
370
    13
100
AcDbLine
 10
20.795865
 20
-13.935979
 30
0.0
 11
21.087229
 21
-13.963542
 31
0.0
  0
LINE
  5
A1
330
43A
100
AcDbEntity
  8
Level 10
  6
Continuous
 62
     7
370
    13
100
AcDbLine
 10
20.696604
 20
-13.927083
 30
0.0
 11
20.701812
 21
-13.927083
 31
0.0
  0
ARC
  5
A2
330
43A
100
AcDbEntity
  8
Level 10
  6
Continuous
 62
     7
370
    13
100
AcDbCircle
 10
-20.233062
 20
-13.927083
 30
0.0
 40
0.0364583329289615
210
0.0
220
0.0
230
-1.0
100
AcDbArc
 50
37.424786
 51
90.0
  0
ARC
  5
A3
330
43A
100
AcDbEntity
  8
Level 10
  6
Continuous
 62
     7
370
    13
100
AcDbCircle
 10
20.13793
 20
-13.854284
 30
0.0
 40
0.0833333333334513
100
AcDbArc
 50
276.654425
 51
322.575214
  0
ARC
  5
A4
330
43A
100
AcDbEntity
  8
Level 10
  6
Continuous
 62
     7
370
    13
100
AcDbCircle
 10
-20.701812
 20
-13.927083
 30
0.0
 40
0.0364583333333334
210
0.0
220
0.0
230
-1.0
100
AcDbArc
 50
90.0
 51
137.609239
  0
ARC
  5
A5
330
43A
100
AcDbEntity
  8
Level 10
  6
Continuous
 62
     7
370
    13
100
AcDbCircle
 10
-20.805673
 20
-13.832276
 30
0.0
 40
0.1041666667105756
210
0.0
220
0.0
230
-1.0
100
AcDbArc
 50
275.403792
 51
317.609239
  0
LINE
  5
A6
330
43A
100
AcDbEntity
  8
Level 10
  6
Continuous
 62
     7
370
    13
100
AcDbLine
 10
13.75
 20
-14.0
 30
0.0
 11
22.25
 21
-14.0
 31
0.0
  0
LINE
  5
A7
330
43A
100
AcDbEntity
  8
Level 10
  6
Continuous
 62
     7
370
    13
100
AcDbLine
 10
22.25
 20
-14.0
 30
0.0
 11
22.75
 21
-14.0
 31
0.0
  0
LINE
  5
A8
330
43A
100
AcDbEntity
  8
Level 10
  6
Continuous
 62
     7
370
    13
100
AcDbLine
 10
13.25
 20
-14.0
 30
0.0
 11
13.75
 21
-14.0
 31
0.0
  0
LINE
  5
A9
330
43A
100
AcDbEntity
  8
Level 10
  6
Continuous
 62
     7
370
    13
100
AcDbLine
 10
22.75
 20
-14.0
 30
0.0
 11
26.189635
 21
-15.719823
 31
0.0
  0
LINE
  5
AA
330
43A
100
AcDbEntity
  8
Level 10
  6
Continuous
 62
     7
370
    13
100
AcDbLine
 10
13.25
 20
-14.0
 30
0.0
 11
9.810365
 21
-15.719823
 31
0.0
  0
LINE
  5
AB
330
43A
100
AcDbEntity
  8
Level 46
  6
Continuous
 62
     7
370
     0
100
AcDbLine
 10
18.0
 20
-12.083333
 30
0.0
 11
18.0
 21
-10.833333
 31
0.0
  0
LINE
  5
AC
330
43A
100
AcDbEntity
  8
Level 10
  6
Continuous
 62
     7
370
    13
100
AcDbLine
 10
8.0
 20
-15.74999
 30
0.0
 11
2.157344
 21
-17.697542
 31
0.0
  0
LINE
  5
AD
330
43A
100
AcDbEntity
  8
Level 10
  6
Continuous
 62
     7
370
    13
100
AcDbLine
 10
28.0
 20
-15.74999
 30
0.0
 11
31.875031
 21
-17.041667
 31
0.0
  0
LINE
  5
B1
330
43A
100
AcDbEntity
  8
Level 46
  6
Continuous
 62
     7
370
     0
100
AcDbLine
 10
20.354167
 20
-12.333333
 30
0.0
 11
20.354167
 21
-13.306854
 31
0.0
  0
LINE
  5
B2
330
43A
100
AcDbEntity
  8
Level 46
  6
Continuous
 62
     7
370
     0
100
AcDbLine
 10
15.645833
 20
-12.5
 30
0.0
 11
20.354167
 21
-12.5
 31
0.0
  0
LINE
  5
B3
330
43A
100
AcDbEntity
  8
Level 46
  6
Continuous
 62
     7
370
     0
100
AcDbLine
 10
22.25
 20
-11.833333
 30
0.0
 11
22.75
 21
-11.833333
 31
0.0
  0
LINE
  5
B4
330
43A
100
AcDbEntity
  8
Level 46
  6
Continuous
 62
     7
370
     0
100
AcDbLine
 10
18.0
 20
-11.833333
 30
0.0
 11
22.25
 21
-11.833333
 31
0.0
  0
LINE
  5
B5
330
43A
100
AcDbEntity
  8
Level 46
  6
Continuous
 62
     7
370
     0
100
AcDbLine
 10
13.25
 20
-11.833333
 30
0.0
 11
13.75
 21
-11.833333
 31
0.0
  0
LINE
  5
B6
330
43A
100
AcDbEntity
  8
Level 46
  6
Continuous
 62
     7
370
     0
100
AcDbLine
 10
13.75
 20
-11.833333
 30
0.0
 11
18.0
 21
-11.833333
 31
0.0
  0
LINE
  5
B7
330
43A
100
AcDbEntity
  8
Level 46
  6
Continuous
 62
     7
370
     0
100
AcDbLine
 10
18.0
 20
-15.583333
 30
0.0
 11
18.0
 21
-16.587656
 31
0.0
  0
LINE
  5
B8
330
43A
100
AcDbEntity
  8
Level 46
  6
Continuous
 62
     7
370
     0
100
AcDbLine
 10
18.0
 20
-14.0
 30
0.0
 11
18.0
 21
-14.583333
 31
0.0
  0
LINE
  5
B9
330
43A
100
AcDbEntity
  8
Level 46
  6
Continuous
 62
     7
370
     0
100
AcDbLine
 10
18.0
 20
-14.583333
 30
0.0
 11
18.0
 21
-15.583333
 31
0.0
  0
INSERT
  5
BA
330
43A
100
AcDbEntity
  8
Level 46
  6
Continuous
 62
     7
370
     0
100
AcDbBlockReference
  2
SQUIG
 10
18.04151
 20
-15.163937
 30
0.0
 41
16.000028
 42
16.000028
 43
16.000028
 50
180.0
  0
INSERT
  5
BC
330
43A
100
AcDbEntity
  8
Level 46
  6
Continuous
 62
     7
370
     0
100
AcDbBlockReference
  2
SQUIG
 10
18.041865
 20
-14.335646
 30
0.0
 41
16.000028
 42
16.000028
 43
16.000028
 50
180.0
  0
INSERT
  5
BE
330
43A
100
AcDbEntity
  8
Level 46
  6
Continuous
 62
     7
370
     0
100
AcDbBlockReference
  2
SQUIG
 10
18.058927
 20
-16.143906
 30
0.0
 41
16.000028
 42
16.000028
 43
16.000028
 50
180.0
  0
ARC
  5
C1
330
43A
100
AcDbEntity
  8
Level 46
  6
Continuous
 62
     7
370
     0
100
AcDbCircle
 10
-18.500394
 20
-18.637756
 30
0.0
 40
2.532623389067558
210
0.0
220
0.0
230
-1.0
100
AcDbArc
 50
79.961361
 51
88.882475
  0
ARC
  5
C2
330
43A
100
AcDbEntity
  8
Level 46
  6
Continuous
 62
     7
370
     0
100
AcDbCircle
 10
-18.314334
 20
-15.993357
 30
0.0
 40
0.8731376204228082
210
0.0
220
0.0
230
-1.0
100
AcDbArc
 50
71.792231
 51
96.842094
  0
ARC
  5
C3
330
43A
100
AcDbEntity
  8
Level 46
  6
Continuous
 62
     7
370
     0
100
AcDbCircle
 10
17.913958
 20
-12.542543
 30
0.0
 40
1.797659361145256
100
AcDbArc
 50
274.08015
 51
285.885317
  0
LINE
  5
C9
330
43A
100
AcDbEntity
  8
Level 46
  6
Continuous
 62
     7
370
     0
100
AcDbLine
 10
24.25
 20
-14.5
 30
0.0
 11
25.083333
 21
-14.5
 31
0.0
  0
POINT
  5
CA
330
43A
100
AcDbEntity
  8
Level 46
  6
Continuous
 62
     7
370
     0
100
AcDbPoint
 10
25.25
 20
-14.5
 30
0.0
  0
LINE
  5
CB
330
43A
100
AcDbEntity
  8
Level 46
  6
Continuous
 62
     7
370
     0
100
AcDbLine
 10
25.083333
 20
-14.5
 30
0.0
 11
25.083333
 21
-14.916667
 31
0.0
  0
LINE
  5
CC
330
43A
100
AcDbEntity
  8
Level 46
  6
Continuous
 62
     7
370
     0
100
AcDbLine
 10
11.75
 20
-14.5
 30
0.0
 11
10.916667
 21
-14.5
 31
0.0
  0
POINT
  5
CD
330
43A
100
AcDbEntity
  8
Level 46
  6
Continuous
 62
     7
370
     0
100
AcDbPoint
 10
10.166667
 20
-14.0
 30
0.0
  0
LINE
  5
CE
330
43A
100
AcDbEntity
  8
Level 46
  6
Continuous
 62
     7
370
     0
100
AcDbLine
 10
10.916667
 20
-14.5
 30
0.0
 11
10.916667
 21
-14.916667
 31
0.0
  0
LINE
  5
CF
330
43A
100
AcDbEntity
  8
Level 46
  6
Continuous
 62
     7
370
     0
100
AcDbLine
 10
8.0
 20
-11.166667
 30
0.0
 11
18.0
 21
-11.166667
 31
0.0
  0
ARC
  5
D0
330
43A
100
AcDbEntity
  8
Level 46
  6
Continuous
 62
     7
370
     0
100
AcDbCircle
 10
-14.625491
 20
-13.920293
 30
0.0
 40
1.022899072955709
210
0.0
220
0.0
230
-1.0
100
AcDbArc
 50
91.903544
 51
151.468833
  0
LINE
  5
D2
330
43A
100
AcDbEntity
  8
Level 46
  6
Continuous
 62
     7
370
     0
100
AcDbLine
 10
23.246323
 20
-15.585448
 30
0.0
 11
24.246177
 21
-15.602094
 31
0.0
  0
INSERT
  5
D3
330
43A
100
AcDbEntity
  8
Level 46
  6
Continuous
 62
     7
370
     0
100
AcDbBlockReference
  2
LARROW
 10
24.246177
 20
-15.602094
 30
0.0
 41
16.000026
 42
16.000026
 43
16.000026
 50
350.812932
  0
LINE
  5
DE
330
43A
100
AcDbEntity
  8
Level 46
  6
Continuous
 62
     7
370
     0
100
AcDbLine
 10
12.7795
 20
-15.609177
 30
0.0
 11
11.779635
 21
-15.625833
 31
0.0
  0
INSERT
  5
DF
330
43A
100
AcDbEntity
  8
Level 46
  6
Continuous
 62
     7
370
     0
100
AcDbBlockReference
  2
LARROW
 10
11.779635
 20
-15.625833
 30
0.0
 41
16.000028
 42
16.000028
 43
16.000028
 50
189.194314
  0
LINE
  5
EC
330
43A
100
AcDbEntity
  8
Level 46
  6
Continuous
 62
     7
370
     0
100
AcDbLine
 10
29.333604
 20
-16.095396
 30
0.0
 11
30.583604
 21
-16.095396
 31
0.0
  0
LINE
  5
ED
330
43A
100
AcDbEntity
  8
Level 46
  6
Continuous
 62
     7
370
     0
100
AcDbLine
 10
30.583604
 20
-16.095396
 30
0.0
 11
30.583604
 21
-16.512062
 31
0.0
  0
LINE
  5
F0
330
43A
100
AcDbEntity
  8
Level 46
  6
Continuous
 62
     7
370
     0
100
AcDbLine
 10
5.427927
 20
-16.09049
 30
0.0
 11
6.677927
 21
-16.09049
 31
0.0
  0
LINE
  5
F1
330
43A
100
AcDbEntity
  8
Level 46
  6
Continuous
 62
     7
370
     0
100
AcDbLine
 10
5.427927
 20
-16.09049
 30
0.0
 11
5.427927
 21
-16.507156
 31
0.0
  0
LINE
  5
F4
330
43A
100
AcDbEntity
  8
Level 10
  6
Continuous
 62
     7
370
     0
100
AcDbLine
 10
13.823344
 20
-14.0
 30
0.0
 11
14.638135
 21
-14.119063
 31
0.0
  0
LINE
  5
F5
330
43A
100
AcDbEntity
  8
Level 10
  6
Continuous
 62
     7
370
     0
100
AcDbLine
 10
14.638135
 20
-14.119063
 30
0.0
 11
15.433167
 21
-14.173385
 31
0.0
  0
LINE
  5
F6
330
43A
100
AcDbEntity
  8
Level 10
  6
Continuous
 62
     7
370
     0
100
AcDbLine
 10
15.433167
 20
-14.173385
 30
0.0
 11
15.981302
 21
-14.242521
 31
0.0
  0
LINE
  5
F7
330
43A
100
AcDbEntity
  8
Level 10
  6
Continuous
 62
     7
370
     0
100
AcDbLine
 10
15.981302
 20
-14.242521
 30
0.0
 11
16.717083
 21
-14.286958
 31
0.0
  0
LINE
  5
F8
330
43A
100
AcDbEntity
  8
Level 10
  6
Continuous
 62
     7
370
     0
100
AcDbLine
 10
16.717083
 20
-14.286958
 30
0.0
 11
17.289906
 21
-14.257333
 31
0.0
  0
LINE
  5
F9
330
43A
100
AcDbEntity
  8
Level 10
  6
Continuous
 62
     7
370
     0
100
AcDbLine
 10
17.289906
 20
-14.257333
 30
0.0
 11
17.778781
 21
-14.331406
 31
0.0
  0
LINE
  5
FA
330
43A
100
AcDbEntity
  8
Level 10
  6
Continuous
 62
     7
370
     0
100
AcDbLine
 10
14.366531
 20
-14.277083
 30
0.0
 11
15.230708
 21
-14.356094
 31
0.0
  0
LINE
  5
FB
330
43A
100
AcDbEntity
  8
Level 10
  6
Continuous
 62
     7
370
     0
100
AcDbLine
 10
15.230708
 20
-14.356094
 30
0.0
 11
16.099812
 21
-14.430167
 31
0.0
  0
LINE
  5
FC
330
43A
100
AcDbEntity
  8
Level 10
  6
Continuous
 62
     7
370
     0
100
AcDbLine
 10
14.20851
 20
-14.395604
 30
0.0
 11
14.973927
 21
-14.469677
 31
0.0
  0
LINE
  5
FD
330
43A
100
AcDbEntity
  8
Level 10
  6
Continuous
 62
     7
370
     0
100
AcDbLine
 10
15.610948
 20
-14.0
 30
0.0
 11
16.58375
 21
-14.133885
 31
0.0
  0
LINE
  5
FE
330
43A
100
AcDbEntity
  8
Level 10
  6
Continuous
 62
     7
370
     0
100
AcDbLine
 10
16.58375
 20
-14.133885
 30
0.0
 11
16.998552
 21
-14.10425
 31
0.0
  0
LINE
  5
FF
330
43A
100
AcDbEntity
  8
Level 10
  6
Continuous
 62
     7
370
     0
100
AcDbLine
 10
16.998552
 20
-14.10425
 30
0.0
 11
17.467677
 21
-14.099312
 31
0.0
  0
LINE
  5
100
330
43A
100
AcDbEntity
  8
Level 10
  6
Continuous
 62
     7
370
     0
100
AcDbLine
 10
17.467677
 20
-14.099312
 30
0.0
 11
17.892354
 21
-14.153635
 31
0.0
  0
LINE
  5
101
330
43A
100
AcDbEntity
  8
Level 46
  6
Continuous
 62
     7
370
    53
100
AcDbLine
 10
11.692602
 20
-18.471312
 30
0.0
 11
24.450402
 21
-18.471312
 31
0.0
  0
LINE
  5
102
330
43A
100
AcDbEntity
  8
Level 46
  6
Continuous
 62
     7
370
     0
100
AcDbLine
 10
13.75
 20
-11.666667
 30
0.0
 11
13.75
 21
-13.833333
 31
0.0
  0
LINE
  5
103
330
43A
100
AcDbEntity
  8
Level 46
  6
Continuous
 62
     7
370
     0
100
AcDbLine
 10
22.25
 20
-11.666667
 30
0.0
 11
22.25
 21
-13.833333
 31
0.0
  0
LINE
  5
104
330
43A
100
AcDbEntity
  8
Level 10
  6
Continuous
 62
     7
370
    13
100
AcDbLine
 10
22.25
 20
-14.0
 30
0.0
 11
22.25
 21
-14.583333
 31
0.0
  0
LINE
  5
105
330
43A
100
AcDbEntity
  8
Level 10
  6
Continuous
 62
     7
370
    13
100
AcDbLine
 10
13.75
 20
-14.0
 30
0.0
 11
13.75
 21
-14.583333
 31
0.0
  0
LWPOLYLINE
  5
106
330
43A
100
AcDbEntity
  8
Level 10
  6
Continuous
 62
     7
370
     0
100
AcDbPolyline
 90
        2
 70
   128
 43
0.0
 10
22.084812
 20
-14.0
 10
22.241427
 20
-14.046292
  0
LWPOLYLINE
  5
107
330
43A
100
AcDbEntity
  8
Level 10
  6
Continuous
 62
     7
370
     0
100
AcDbPolyline
 90
        5
 70
   128
 43
0.0
 10
20.623125
 20
-14.0
 10
21.205833
 20
-14.072083
 10
21.660135
 20
-14.096781
 10
22.094687
 20
-14.136281
 10
22.246698
 20
-14.185229
  0
LWPOLYLINE
  5
108
330
43A
100
AcDbEntity
  8
Level 10
  6
Continuous
 62
     7
370
     0
100
AcDbPolyline
 90
        4
 70
   128
 43
0.0
 10
21.156771
 20
-14.2205
 10
21.623292
 20
-14.269823
 10
22.060125
 20
-14.333812
 10
22.241521
 20
-14.416625
  0
LINE
  5
10B
330
43A
100
AcDbEntity
  8
Level 10
  6
Continuous
 62
     7
370
     0
100
AcDbLine
 10
13.764208
 20
-14.177542
 30
0.0
 11
14.366531
 21
-14.277083
 31
0.0
  0
LINE
  5
10C
330
43A
100
AcDbEntity
  8
Level 10
  6
Continuous
 62
     7
370
     0
100
AcDbLine
 10
13.757219
 20
-14.379875
 30
0.0
 11
14.20851
 21
-14.395604
 31
0.0
  0
LINE
  5
10D
330
43A
100
AcDbEntity
  8
Level 46
  6
Continuous
 62
     7
370
     0
100
AcDbLine
 10
15.645833
 20
-23.75
 30
0.0
 11
15.645833
 21
-24.806854
 31
0.0
  0
LINE
  5
10E
330
43A
100
AcDbEntity
  8
Level 10
  6
Continuous
 62
     7
370
    13
100
AcDbLine
 10
15.419292
 20
-24.875
 30
0.0
 11
15.645833
 21
-24.875
 31
0.0
  0
LINE
  5
10F
330
43A
100
AcDbEntity
  8
Level 10
  6
Continuous
 62
     7
370
    13
100
AcDbLine
 10
15.642521
 20
-24.972646
 30
0.0
 11
15.598354
 21
-24.989917
 31
0.0
  0
LINE
  5
110
330
43A
100
AcDbEntity
  8
Level 10
  6
Continuous
 62
     7
370
    13
100
AcDbLine
 10
15.422604
 20
-24.972646
 30
0.0
 11
15.466771
 21
-24.989917
 31
0.0
  0
LINE
  5
111
330
43A
100
AcDbEntity
  8
Level 10
  6
Continuous
 62
     7
370
    13
100
AcDbLine
 10
15.506521
 20
-25.048125
 30
0.0
 11
15.506521
 21
-25.288271
 31
0.0
  0
LINE
  5
112
330
43A
100
AcDbEntity
  8
Level 10
  6
Continuous
 62
     7
370
    13
100
AcDbLine
 10
15.558604
 20
-25.048125
 30
0.0
 11
15.558604
 21
-25.288271
 31
0.0
  0
LINE
  5
113
330
43A
100
AcDbEntity
  8
Level 10
  6
Continuous
 62
     7
370
    13
100
AcDbLine
 10
15.419292
 20
-24.875
 30
0.0
 11
15.419292
 21
-24.967802
 31
0.0
  0
LINE
  5
114
330
43A
100
AcDbEntity
  8
Level 10
  6
Continuous
 62
     7
370
    13
100
AcDbLine
 10
15.645833
 20
-24.875
 30
0.0
 11
15.645833
 21
-24.967802
 31
0.0
  0
LINE
  5
115
330
43A
100
AcDbEntity
  8
Level 10
  6
Continuous
 62
     7
370
    13
100
AcDbLine
 10
15.761729
 20
-25.386302
 30
0.0
 11
15.761729
 21
-25.427083
 31
0.0
  0
LINE
  5
116
330
43A
100
AcDbEntity
  8
Level 10
  6
Continuous
 62
     7
370
    13
100
AcDbLine
 10
15.303396
 20
-25.427083
 30
0.0
 11
15.303396
 21
-25.386302
 31
0.0
  0
LINE
  5
117
330
43A
100
AcDbEntity
  8
Level 10
  6
Continuous
 62
     7
370
    13
100
AcDbLine
 10
15.307521
 20
-25.381208
 30
0.0
 11
15.457021
 21
-25.349406
 31
0.0
  0
LINE
  5
118
330
43A
100
AcDbEntity
  8
Level 10
  6
Continuous
 62
     7
370
    13
100
AcDbLine
 10
15.757604
 20
-25.381208
 30
0.0
 11
15.608104
 21
-25.349406
 31
0.0
  0
ARC
  5
119
330
43A
100
AcDbEntity
  8
Level 10
  6
Continuous
 62
     7
370
    13
100
AcDbCircle
 10
-15.308604
 20
-25.3863
 30
0.0
 40
0.005208333333337
210
0.0
220
0.0
230
-1.0
100
AcDbArc
 50
0.0
 51
77.991153
  0
ARC
  5
11A
330
43A
100
AcDbEntity
  8
Level 10
  6
Continuous
 62
     7
370
    13
100
AcDbCircle
 10
15.308604
 20
-25.421875
 30
0.0
 40
0.005208333333337
100
AcDbArc
 50
180.0
 51
270.0
  0
ARC
  5
11B
330
43A
100
AcDbEntity
  8
Level 10
  6
Continuous
 62
     7
370
    13
100
AcDbCircle
 10
-15.756521
 20
-25.3863
 30
0.0
 40
0.0052083333333413
210
0.0
220
0.0
230
-1.0
100
AcDbArc
 50
102.008847
 51
180.0
  0
ARC
  5
11C
330
43A
100
AcDbEntity
  8
Level 10
  6
Continuous
 62
     7
370
    13
100
AcDbCircle
 10
15.756521
 20
-25.421875
 30
0.0
 40
0.005208333333337
100
AcDbArc
 50
270.0
 51
0.0
  0
ARC
  5
11D
330
43A
100
AcDbEntity
  8
Level 10
  6
Continuous
 62
     7
370
    13
100
AcDbCircle
 10
15.444021
 20
-25.288272
 30
0.0
 40
0.0625000006090051
100
AcDbArc
 50
282.009525
 51
0.0
  0
ARC
  5
11E
330
43A
100
AcDbEntity
  8
Level 10
  6
Continuous
 62
     7
370
    13
100
AcDbCircle
 10
-15.621104
 20
-25.288272
 30
0.0
 40
0.0625000006090051
210
0.0
220
0.0
230
-1.0
100
AcDbArc
 50
282.009525
 51
0.0
  0
ARC
  5
11F
330
43A
100
AcDbEntity
  8
Level 10
  6
Continuous
 62
     7
370
    13
100
AcDbCircle
 10
-15.450542
 20
-24.90625
 30
0.0
 40
0.0312500000001249
210
0.0
220
0.0
230
-1.0
100
AcDbArc
 50
0.0
 51
90.0
  0
ARC
  5
120
330
43A
100
AcDbEntity
  8
Level 10
  6
Continuous
 62
     7
370
    13
100
AcDbCircle
 10
-15.614583
 20
-24.90625
 30
0.0
 40
0.0312500000001249
210
0.0
220
0.0
230
-1.0
100
AcDbArc
 50
90.0
 51
180.0
  0
ARC
  5
121
330
43A
100
AcDbEntity
  8
Level 10
  6
Continuous
 62
     7
370
    13
100
AcDbCircle
 10
15.444021
 20
-25.048124
 30
0.0
 40
0.0625000006088473
100
AcDbArc
 50
0.0
 51
68.651825
  0
ARC
  5
122
330
43A
100
AcDbEntity
  8
Level 10
  6
Continuous
 62
     7
370
    13
100
AcDbCircle
 10
-15.621104
 20
-25.048124
 30
0.0
 40
0.0625000006088473
210
0.0
220
0.0
230
-1.0
100
AcDbArc
 50
0.0
 51
68.651825
  0
ARC
  5
123
330
43A
100
AcDbEntity
  8
Level 10
  6
Continuous
 62
     7
370
    13
100
AcDbCircle
 10
15.4245
 20
-24.967798
 30
0.0
 40
0.005208333333337
100
AcDbArc
 50
180.0
 51
248.646442
  0
ARC
  5
124
330
43A
100
AcDbEntity
  8
Level 10
  6
Continuous
 62
     7
370
    13
100
AcDbCircle
 10
15.640625
 20
-24.967798
 30
0.0
 40
0.005208333333323
100
AcDbArc
 50
291.353558
 51
0.0
  0
LINE
  5
125
330
43A
100
AcDbEntity
  8
Level 10
  6
Continuous
 62
     7
370
    13
100
AcDbLine
 10
15.303396
 20
-25.427083
 30
0.0
 11
15.761729
 21
-25.427083
 31
0.0
  0
LINE
  5
126
330
43A
100
AcDbEntity
  8
Level 10
  6
Continuous
 62
     7
370
    13
100
AcDbLine
 10
14.912771
 20
-25.5
 30
0.0
 11
16.079438
 21
-25.5
 31
0.0
  0
LINE
  5
127
330
43A
100
AcDbEntity
  8
Level 10
  6
Continuous
 62
     7
370
    13
100
AcDbLine
 10
15.298187
 20
-25.427083
 30
0.0
 11
15.298187
 21
-25.390625
 31
0.0
  0
LINE
  5
128
330
43A
100
AcDbEntity
  8
Level 10
  6
Continuous
 62
     7
370
    13
100
AcDbLine
 10
15.766937
 20
-25.390625
 30
0.0
 11
15.766937
 21
-25.427083
 31
0.0
  0
LINE
  5
129
330
43A
100
AcDbEntity
  8
Level 10
  6
Continuous
 62
     7
370
    13
100
AcDbLine
 10
14.912771
 20
-25.5
 30
0.0
 11
14.912771
 21
-25.463542
 31
0.0
  0
LINE
  5
12A
330
43A
100
AcDbEntity
  8
Level 10
  6
Continuous
 62
     7
370
    13
100
AcDbLine
 10
16.079438
 20
-25.463542
 30
0.0
 11
16.079438
 21
-25.5
 31
0.0
  0
LINE
  5
12B
330
43A
100
AcDbEntity
  8
Level 10
  6
Continuous
 62
     7
370
    13
100
AcDbLine
 10
15.852417
 20
-25.437052
 30
0.0
 11
16.079438
 21
-25.463542
 31
0.0
  0
LINE
  5
12C
330
43A
100
AcDbEntity
  8
Level 10
  6
Continuous
 62
     7
370
    13
100
AcDbLine
 10
15.761729
 20
-25.427083
 30
0.0
 11
15.766937
 21
-25.427083
 31
0.0
  0
LINE
  5
12D
330
43A
100
AcDbEntity
  8
Level 10
  6
Continuous
 62
     7
370
    13
100
AcDbLine
 10
15.204135
 20
-25.435979
 30
0.0
 11
14.912771
 21
-25.463542
 31
0.0
  0
LINE
  5
12E
330
43A
100
AcDbEntity
  8
Level 10
  6
Continuous
 62
     7
370
    13
100
AcDbLine
 10
15.303396
 20
-25.427083
 30
0.0
 11
15.298187
 21
-25.427083
 31
0.0
  0
ARC
  5
12F
330
43A
100
AcDbEntity
  8
Level 10
  6
Continuous
 62
     7
370
    13
100
AcDbCircle
 10
15.766937
 20
-25.427083
 30
0.0
 40
0.0364583329289616
100
AcDbArc
 50
37.424786
 51
90.0
  0
ARC
  5
130
330
43A
100
AcDbEntity
  8
Level 10
  6
Continuous
 62
     7
370
    13
100
AcDbCircle
 10
-15.86207
 20
-25.354284
 30
0.0
 40
0.0833333333333924
210
0.0
220
0.0
230
-1.0
100
AcDbArc
 50
276.654425
 51
322.575214
  0
ARC
  5
131
330
43A
100
AcDbEntity
  8
Level 10
  6
Continuous
 62
     7
370
    13
100
AcDbCircle
 10
15.298187
 20
-25.427083
 30
0.0
 40
0.0364583333333333
100
AcDbArc
 50
90.0
 51
137.609239
  0
ARC
  5
132
330
43A
100
AcDbEntity
  8
Level 10
  6
Continuous
 62
     7
370
    13
100
AcDbCircle
 10
15.194327
 20
-25.332276
 30
0.0
 40
0.104166666688621
100
AcDbArc
 50
275.403792
 51
317.609239
  0
LINE
  5
133
330
43A
100
AcDbEntity
  8
Level 10
  6
Continuous
 62
     7
370
    13
100
AcDbLine
 10
20.580708
 20
-24.875
 30
0.0
 11
20.354167
 21
-24.875
 31
0.0
  0
LINE
  5
134
330
43A
100
AcDbEntity
  8
Level 10
  6
Continuous
 62
     7
370
    13
100
AcDbLine
 10
20.357479
 20
-24.972646
 30
0.0
 11
20.401646
 21
-24.989917
 31
0.0
  0
LINE
  5
135
330
43A
100
AcDbEntity
  8
Level 10
  6
Continuous
 62
     7
370
    13
100
AcDbLine
 10
20.577396
 20
-24.972646
 30
0.0
 11
20.533229
 21
-24.989917
 31
0.0
  0
LINE
  5
136
330
43A
100
AcDbEntity
  8
Level 10
  6
Continuous
 62
     7
370
    13
100
AcDbLine
 10
20.493479
 20
-25.048125
 30
0.0
 11
20.493479
 21
-25.288271
 31
0.0
  0
LINE
  5
137
330
43A
100
AcDbEntity
  8
Level 10
  6
Continuous
 62
     7
370
    13
100
AcDbLine
 10
20.441396
 20
-25.048125
 30
0.0
 11
20.441396
 21
-25.288271
 31
0.0
  0
LINE
  5
138
330
43A
100
AcDbEntity
  8
Level 10
  6
Continuous
 62
     7
370
    13
100
AcDbLine
 10
20.580708
 20
-24.875
 30
0.0
 11
20.580708
 21
-24.967802
 31
0.0
  0
LINE
  5
139
330
43A
100
AcDbEntity
  8
Level 10
  6
Continuous
 62
     7
370
    13
100
AcDbLine
 10
20.354167
 20
-24.875
 30
0.0
 11
20.354167
 21
-24.967802
 31
0.0
  0
LINE
  5
13A
330
43A
100
AcDbEntity
  8
Level 10
  6
Continuous
 62
     7
370
    13
100
AcDbLine
 10
20.238271
 20
-25.386302
 30
0.0
 11
20.238271
 21
-25.427083
 31
0.0
  0
LINE
  5
13B
330
43A
100
AcDbEntity
  8
Level 10
  6
Continuous
 62
     7
370
    13
100
AcDbLine
 10
20.696604
 20
-25.427083
 30
0.0
 11
20.696604
 21
-25.386302
 31
0.0
  0
LINE
  5
13C
330
43A
100
AcDbEntity
  8
Level 10
  6
Continuous
 62
     7
370
    13
100
AcDbLine
 10
20.692479
 20
-25.381208
 30
0.0
 11
20.542979
 21
-25.349406
 31
0.0
  0
LINE
  5
13D
330
43A
100
AcDbEntity
  8
Level 10
  6
Continuous
 62
     7
370
    13
100
AcDbLine
 10
20.242396
 20
-25.381208
 30
0.0
 11
20.391896
 21
-25.349406
 31
0.0
  0
ARC
  5
13E
330
43A
100
AcDbEntity
  8
Level 10
  6
Continuous
 62
     7
370
    13
100
AcDbCircle
 10
20.691396
 20
-25.3863
 30
0.0
 40
0.0052083333333407
100
AcDbArc
 50
0.0
 51
77.991153
  0
ARC
  5
13F
330
43A
100
AcDbEntity
  8
Level 10
  6
Continuous
 62
     7
370
    13
100
AcDbCircle
 10
-20.691396
 20
-25.421875
 30
0.0
 40
0.0052083333333407
210
0.0
220
0.0
230
-1.0
100
AcDbArc
 50
180.0
 51
270.0
  0
ARC
  5
140
330
43A
100
AcDbEntity
  8
Level 10
  6
Continuous
 62
     7
370
    13
100
AcDbCircle
 10
20.243479
 20
-25.3863
 30
0.0
 40
0.0052083333333448
100
AcDbArc
 50
102.008847
 51
180.0
  0
ARC
  5
141
330
43A
100
AcDbEntity
  8
Level 10
  6
Continuous
 62
     7
370
    13
100
AcDbCircle
 10
-20.243479
 20
-25.421875
 30
0.0
 40
0.0052083333333407
210
0.0
220
0.0
230
-1.0
100
AcDbArc
 50
270.0
 51
0.0
  0
ARC
  5
142
330
43A
100
AcDbEntity
  8
Level 10
  6
Continuous
 62
     7
370
    13
100
AcDbCircle
 10
-20.555979
 20
-25.288272
 30
0.0
 40
0.0625000012178523
210
0.0
220
0.0
230
-1.0
100
AcDbArc
 50
282.009525
 51
0.0
  0
ARC
  5
143
330
43A
100
AcDbEntity
  8
Level 10
  6
Continuous
 62
     7
370
    13
100
AcDbCircle
 10
20.378896
 20
-25.288272
 30
0.0
 40
0.0625000012178522
100
AcDbArc
 50
282.009525
 51
0.0
  0
ARC
  5
144
330
43A
100
AcDbEntity
  8
Level 10
  6
Continuous
 62
     7
370
    13
100
AcDbCircle
 10
20.549458
 20
-24.90625
 30
0.0
 40
0.0312500000002498
100
AcDbArc
 50
0.0
 51
90.0
  0
ARC
  5
145
330
43A
100
AcDbEntity
  8
Level 10
  6
Continuous
 62
     7
370
    13
100
AcDbCircle
 10
20.385417
 20
-24.90625
 30
0.0
 40
0.0312500000002498
100
AcDbArc
 50
90.0
 51
180.0
  0
ARC
  5
146
330
43A
100
AcDbEntity
  8
Level 10
  6
Continuous
 62
     7
370
    13
100
AcDbCircle
 10
-20.555979
 20
-25.048124
 30
0.0
 40
0.0625000012176944
210
0.0
220
0.0
230
-1.0
100
AcDbArc
 50
0.0
 51
68.651825
  0
ARC
  5
147
330
43A
100
AcDbEntity
  8
Level 10
  6
Continuous
 62
     7
370
    13
100
AcDbCircle
 10
20.378896
 20
-25.048124
 30
0.0
 40
0.0625000012176944
100
AcDbArc
 50
0.0
 51
68.651825
  0
ARC
  5
148
330
43A
100
AcDbEntity
  8
Level 10
  6
Continuous
 62
     7
370
    13
100
AcDbCircle
 10
-20.5755
 20
-24.967798
 30
0.0
 40
0.0052083333333407
210
0.0
220
0.0
230
-1.0
100
AcDbArc
 50
180.0
 51
248.646442
  0
ARC
  5
149
330
43A
100
AcDbEntity
  8
Level 10
  6
Continuous
 62
     7
370
    13
100
AcDbCircle
 10
-20.359375
 20
-24.967798
 30
0.0
 40
0.0052083333333267
210
0.0
220
0.0
230
-1.0
100
AcDbArc
 50
291.353558
 51
360.0
  0
LINE
  5
14A
330
43A
100
AcDbEntity
  8
Level 10
  6
Continuous
 62
     7
370
    13
100
AcDbLine
 10
20.696604
 20
-25.427083
 30
0.0
 11
20.238271
 21
-25.427083
 31
0.0
  0
LINE
  5
14B
330
43A
100
AcDbEntity
  8
Level 10
  6
Continuous
 62
     7
370
    13
100
AcDbLine
 10
21.087229
 20
-25.5
 30
0.0
 11
19.920562
 21
-25.5
 31
0.0
  0
LINE
  5
14C
330
43A
100
AcDbEntity
  8
Level 10
  6
Continuous
 62
     7
370
    13
100
AcDbLine
 10
20.701812
 20
-25.427083
 30
0.0
 11
20.701812
 21
-25.390625
 31
0.0
  0
LINE
  5
14D
330
43A
100
AcDbEntity
  8
Level 10
  6
Continuous
 62
     7
370
    13
100
AcDbLine
 10
20.233062
 20
-25.390625
 30
0.0
 11
20.233062
 21
-25.427083
 31
0.0
  0
LINE
  5
14E
330
43A
100
AcDbEntity
  8
Level 10
  6
Continuous
 62
     7
370
    13
100
AcDbLine
 10
21.087229
 20
-25.5
 30
0.0
 11
21.087229
 21
-25.463542
 31
0.0
  0
LINE
  5
14F
330
43A
100
AcDbEntity
  8
Level 10
  6
Continuous
 62
     7
370
    13
100
AcDbLine
 10
19.920562
 20
-25.463542
 30
0.0
 11
19.920562
 21
-25.5
 31
0.0
  0
LINE
  5
150
330
43A
100
AcDbEntity
  8
Level 10
  6
Continuous
 62
     7
370
    13
100
AcDbLine
 10
20.147583
 20
-25.437052
 30
0.0
 11
19.920562
 21
-25.463542
 31
0.0
  0
LINE
  5
151
330
43A
100
AcDbEntity
  8
Level 10
  6
Continuous
 62
     7
370
    13
100
AcDbLine
 10
20.238271
 20
-25.427083
 30
0.0
 11
20.233062
 21
-25.427083
 31
0.0
  0
LINE
  5
152
330
43A
100
AcDbEntity
  8
Level 10
  6
Continuous
 62
     7
370
    13
100
AcDbLine
 10
20.795865
 20
-25.435979
 30
0.0
 11
21.087229
 21
-25.463542
 31
0.0
  0
LINE
  5
153
330
43A
100
AcDbEntity
  8
Level 10
  6
Continuous
 62
     7
370
    13
100
AcDbLine
 10
20.696604
 20
-25.427083
 30
0.0
 11
20.701812
 21
-25.427083
 31
0.0
  0
ARC
  5
154
330
43A
100
AcDbEntity
  8
Level 10
  6
Continuous
 62
     7
370
    13
100
AcDbCircle
 10
-20.233062
 20
-25.427083
 30
0.0
 40
0.0364583329289615
210
0.0
220
0.0
230
-1.0
100
AcDbArc
 50
37.424786
 51
90.0
  0
ARC
  5
155
330
43A
100
AcDbEntity
  8
Level 10
  6
Continuous
 62
     7
370
    13
100
AcDbCircle
 10
20.13793
 20
-25.354284
 30
0.0
 40
0.0833333333334513
100
AcDbArc
 50
276.654425
 51
322.575214
  0
ARC
  5
156
330
43A
100
AcDbEntity
  8
Level 10
  6
Continuous
 62
     7
370
    13
100
AcDbCircle
 10
-20.701812
 20
-25.427083
 30
0.0
 40
0.0364583333333334
210
0.0
220
0.0
230
-1.0
100
AcDbArc
 50
90.0
 51
137.609239
  0
ARC
  5
157
330
43A
100
AcDbEntity
  8
Level 10
  6
Continuous
 62
     7
370
    13
100
AcDbCircle
 10
-20.805673
 20
-25.332276
 30
0.0
 40
0.1041666667105756
210
0.0
220
0.0
230
-1.0
100
AcDbArc
 50
275.403792
 51
317.609239
  0
LINE
  5
158
330
43A
100
AcDbEntity
  8
Level 10
  6
Continuous
 62
     7
370
    13
100
AcDbLine
 10
13.75
 20
-25.5
 30
0.0
 11
22.25
 21
-25.5
 31
0.0
  0
LINE
  5
159
330
43A
100
AcDbEntity
  8
Level 10
  6
Continuous
 62
     7
370
    13
100
AcDbLine
 10
22.25
 20
-25.5
 30
0.0
 11
22.75
 21
-25.5
 31
0.0
  0
LINE
  5
15A
330
43A
100
AcDbEntity
  8
Level 10
  6
Continuous
 62
     7
370
    13
100
AcDbLine
 10
13.25
 20
-25.5
 30
0.0
 11
13.75
 21
-25.5
 31
0.0
  0
LINE
  5
15B
330
43A
100
AcDbEntity
  8
Level 10
  6
Continuous
 62
     7
370
    13
100
AcDbLine
 10
13.75
 20
-26.083333
 30
0.0
 11
22.25
 21
-26.083333
 31
0.0
  0
LINE
  5
15C
330
43A
100
AcDbEntity
  8
Level 10
  6
Continuous
 62
     7
370
    13
100
AcDbLine
 10
18.0
 20
-26.75
 30
0.0
 11
28.0
 21
-26.916656
 31
0.0
  0
LINE
  5
15D
330
43A
100
AcDbEntity
  8
Level 10
  6
Continuous
 62
     7
370
    13
100
AcDbLine
 10
22.75
 20
-25.5
 30
0.0
 11
25.499969
 21
-26.87499
 31
0.0
  0
LINE
  5
15E
330
43A
100
AcDbEntity
  8
Level 10
  6
Continuous
 62
     7
370
    13
100
AcDbLine
 10
13.25
 20
-25.5
 30
0.0
 11
10.500031
 21
-26.87499
 31
0.0
  0
LINE
  5
15F
330
43A
100
AcDbEntity
  8
Level 46
  6
Continuous
 62
     7
370
     0
100
AcDbLine
 10
18.0
 20
-23.583333
 30
0.0
 11
18.0
 21
-22.333333
 31
0.0
  0
LINE
  5
160
330
43A
100
AcDbEntity
  8
Level 10
  6
Continuous
 62
     7
370
    13
100
AcDbLine
 10
18.0
 20
-26.75
 30
0.0
 11
8.0
 21
-26.916646
 31
0.0
  0
LINE
  5
161
330
43A
100
AcDbEntity
  8
Level 10
  6
Continuous
 62
     7
370
    13
100
AcDbLine
 10
8.0
 20
-26.916646
 30
0.0
 11
1.323281
 21
-29.142219
 31
0.0
  0
LINE
  5
166
330
43A
100
AcDbEntity
  8
Level 46
  6
Continuous
 62
     7
370
     0
100
AcDbLine
 10
20.354167
 20
-23.75
 30
0.0
 11
20.354167
 21
-24.806854
 31
0.0
  0
LINE
  5
167
330
43A
100
AcDbEntity
  8
Level 46
  6
Continuous
 62
     7
370
     0
100
AcDbLine
 10
15.645833
 20
-24.0
 30
0.0
 11
20.354167
 21
-24.0
 31
0.0
  0
LINE
  5
168
330
43A
100
AcDbEntity
  8
Level 46
  6
Continuous
 62
     7
370
     0
100
AcDbLine
 10
22.25
 20
-23.333333
 30
0.0
 11
22.75
 21
-23.333333
 31
0.0
  0
LINE
  5
169
330
43A
100
AcDbEntity
  8
Level 46
  6
Continuous
 62
     7
370
     0
100
AcDbLine
 10
18.0
 20
-23.333333
 30
0.0
 11
22.25
 21
-23.333333
 31
0.0
  0
LINE
  5
16A
330
43A
100
AcDbEntity
  8
Level 46
  6
Continuous
 62
     7
370
     0
100
AcDbLine
 10
13.25
 20
-23.333333
 30
0.0
 11
13.75
 21
-23.333333
 31
0.0
  0
LINE
  5
16B
330
43A
100
AcDbEntity
  8
Level 46
  6
Continuous
 62
     7
370
     0
100
AcDbLine
 10
13.75
 20
-23.333333
 30
0.0
 11
18.0
 21
-23.333333
 31
0.0
  0
INSERT
  5
16C
330
43A
100
AcDbEntity
  8
Level 46
  6
Continuous
 62
     7
370
     0
100
AcDbBlockReference
  2
LARROW
 10
13.25
 20
-23.333333
 30
0.0
 41
12.000019
 42
12.000019
 43
12.000019
 50
180.0
  0
INSERT
  5
177
330
43A
100
AcDbEntity
  8
Level 46
  6
Continuous
 62
     7
370
     0
100
AcDbBlockReference
  2
LARROW
 10
13.75
 20
-23.333333
 30
0.0
 41
12.000019
 42
12.000019
 43
12.000019
  0
LINE
  5
182
330
43A
100
AcDbEntity
  8
Level 46
  6
Continuous
 62
     7
370
     0
100
AcDbLine
 10
18.0
 20
-27.249948
 30
0.0
 11
18.0
 21
-28.254271
 31
0.0
  0
LINE
  5
183
330
43A
100
AcDbEntity
  8
Level 46
  6
Continuous
 62
     7
370
     0
100
AcDbLine
 10
18.0
 20
-26.75
 30
0.0
 11
18.0
 21
-27.249948
 31
0.0
  0
LINE
  5
184
330
43A
100
AcDbEntity
  8
Level 46
  6
Continuous
 62
     7
370
     0
100
AcDbLine
 10
18.0
 20
-25.5
 30
0.0
 11
18.0
 21
-26.083333
 31
0.0
  0
LINE
  5
185
330
43A
100
AcDbEntity
  8
Level 46
  6
Continuous
 62
     7
370
     0
100
AcDbLine
 10
18.0
 20
-26.083333
 30
0.0
 11
18.0
 21
-26.75
 31
0.0
  0
INSERT
  5
186
330
43A
100
AcDbEntity
  8
Level 46
  6
Continuous
 62
     7
370
     0
100
AcDbBlockReference
  2
SQUIG
 10
18.045302
 20
-26.478177
 30
0.0
 41
16.000028
 42
16.000028
 43
16.000028
 50
180.0
  0
INSERT
  5
188
330
43A
100
AcDbEntity
  8
Level 46
  6
Continuous
 62
     7
370
     0
100
AcDbBlockReference
  2
SQUIG
 10
18.041865
 20
-25.835646
 30
0.0
 41
16.000028
 42
16.000028
 43
16.000028
 50
180.0
  0
INSERT
  5
18A
330
43A
100
AcDbEntity
  8
Level 46
  6
Continuous
 62
     7
370
     0
100
AcDbBlockReference
  2
SQUIG
 10
18.051823
 20
-27.061729
 30
0.0
 41
16.000028
 42
16.000028
 43
16.000028
 50
180.0
  0
INSERT
  5
18C
330
43A
100
AcDbEntity
  8
Level 46
  6
Continuous
 62
     7
370
     0
100
AcDbBlockReference
  2
SQUIG
 10
18.058927
 20
-27.795469
 30
0.0
 41
16.000028
 42
16.000028
 43
16.000028
 50
180.0
  0
ARC
  5
18F
330
43A
100
AcDbEntity
  8
Level 46
  6
Continuous
 62
     7
370
     0
100
AcDbCircle
 10
-18.500394
 20
-30.289319
 30
0.0
 40
2.532623389067558
210
0.0
220
0.0
230
-1.0
100
AcDbArc
 50
79.961361
 51
88.882475
  0
ARC
  5
190
330
43A
100
AcDbEntity
  8
Level 46
  6
Continuous
 62
     7
370
     0
100
AcDbCircle
 10
-18.604362
 20
-30.589282
 30
0.0
 40
3.57056437060984
210
0.0
220
0.0
230
-1.0
100
AcDbArc
 50
81.0978
 51
87.43255
  0
ARC
  5
191
330
43A
100
AcDbEntity
  8
Level 46
  6
Continuous
 62
     7
370
     0
100
AcDbCircle
 10
-18.318126
 20
-27.307596
 30
0.0
 40
0.8731376204228082
210
0.0
220
0.0
230
-1.0
100
AcDbArc
 50
71.792231
 51
96.842094
  0
ARC
  5
192
330
43A
100
AcDbEntity
  8
Level 46
  6
Continuous
 62
     7
370
     0
100
AcDbCircle
 10
17.913958
 20
-24.042543
 30
0.0
 40
1.797659361145256
100
AcDbArc
 50
274.08015
 51
285.885317
  0
LINE
  5
198
330
43A
100
AcDbEntity
  8
Level 46
  6
Continuous
 62
     7
370
     0
100
AcDbLine
 10
24.25
 20
-26.0
 30
0.0
 11
25.083333
 21
-26.0
 31
0.0
  0
POINT
  5
199
330
43A
100
AcDbEntity
  8
Level 46
  6
Continuous
 62
     7
370
     0
100
AcDbPoint
 10
25.25
 20
-26.0
 30
0.0
  0
LINE
  5
19A
330
43A
100
AcDbEntity
  8
Level 46
  6
Continuous
 62
     7
370
     0
100
AcDbLine
 10
25.083333
 20
-26.0
 30
0.0
 11
25.083333
 21
-26.416667
 31
0.0
  0
LINE
  5
19B
330
43A
100
AcDbEntity
  8
Level 46
  6
Continuous
 62
     7
370
     0
100
AcDbLine
 10
11.75
 20
-26.0
 30
0.0
 11
10.916667
 21
-26.0
 31
0.0
  0
POINT
  5
19C
330
43A
100
AcDbEntity
  8
Level 46
  6
Continuous
 62
     7
370
     0
100
AcDbPoint
 10
10.166667
 20
-25.5
 30
0.0
  0
LINE
  5
19D
330
43A
100
AcDbEntity
  8
Level 46
  6
Continuous
 62
     7
370
     0
100
AcDbLine
 10
10.916667
 20
-26.0
 30
0.0
 11
10.916667
 21
-26.416667
 31
0.0
  0
LINE
  5
19E
330
43A
100
AcDbEntity
  8
Level 46
  6
Continuous
 62
     7
370
     0
100
AcDbLine
 10
18.0
 20
-22.666667
 30
0.0
 11
28.0
 21
-22.666667
 31
0.0
  0
LINE
  5
19F
330
43A
100
AcDbEntity
  8
Level 46
  6
Continuous
 62
     7
370
     0
100
AcDbLine
 10
8.0
 20
-22.666667
 30
0.0
 11
18.0
 21
-22.666667
 31
0.0
  0
ARC
  5
1A0
330
43A
100
AcDbEntity
  8
Level 46
  6
Continuous
 62
     7
370
     0
100
AcDbCircle
 10
-14.651546
 20
-25.378084
 30
0.0
 40
0.9801576564459611
210
0.0
220
0.0
230
-1.0
100
AcDbArc
 50
90.463144
 51
152.909233
  0
LINE
  5
1A2
330
43A
100
AcDbEntity
  8
Level 46
  6
Continuous
 62
     7
370
     0
100
AcDbLine
 10
22.692146
 20
-26.735427
 30
0.0
 11
23.692
 21
-26.752073
 31
0.0
  0
INSERT
  5
1A3
330
43A
100
AcDbEntity
  8
Level 46
  6
Continuous
 62
     7
370
     0
100
AcDbBlockReference
  2
LARROW
 10
23.692
 20
-26.752073
 30
0.0
 41
16.000026
 42
16.000026
 43
16.000026
 50
350.812932
  0
LINE
  5
1AE
330
43A
100
AcDbEntity
  8
Level 46
  6
Continuous
 62
     7
370
     0
100
AcDbLine
 10
13.160469
 20
-26.668677
 30
0.0
 11
12.160604
 21
-26.685333
 31
0.0
  0
INSERT
  5
1AF
330
43A
100
AcDbEntity
  8
Level 46
  6
Continuous
 62
     7
370
     0
100
AcDbBlockReference
  2
LARROW
 10
12.160604
 20
-26.685333
 30
0.0
 41
16.000028
 42
16.000028
 43
16.000028
 50
189.194314
  0
LINE
  5
1BC
330
43A
100
AcDbEntity
  8
Level 46
  6
Continuous
 62
     7
370
     0
100
AcDbLine
 10
5.427927
 20
-27.257146
 30
0.0
 11
6.677927
 21
-27.257146
 31
0.0
  0
LINE
  5
1BD
330
43A
100
AcDbEntity
  8
Level 46
  6
Continuous
 62
     7
370
     0
100
AcDbLine
 10
5.427927
 20
-27.257146
 30
0.0
 11
5.427927
 21
-27.673813
 31
0.0
  0
LINE
  5
1C0
330
43A
100
AcDbEntity
  8
Level 10
  6
Continuous
 62
     7
370
     0
100
AcDbLine
 10
13.823344
 20
-25.5
 30
0.0
 11
14.638135
 21
-25.619062
 31
0.0
  0
LINE
  5
1C1
330
43A
100
AcDbEntity
  8
Level 10
  6
Continuous
 62
     7
370
     0
100
AcDbLine
 10
14.638135
 20
-25.619062
 30
0.0
 11
15.433167
 21
-25.673385
 31
0.0
  0
LINE
  5
1C2
330
43A
100
AcDbEntity
  8
Level 10
  6
Continuous
 62
     7
370
     0
100
AcDbLine
 10
15.433167
 20
-25.673385
 30
0.0
 11
15.981302
 21
-25.742521
 31
0.0
  0
LINE
  5
1C3
330
43A
100
AcDbEntity
  8
Level 10
  6
Continuous
 62
     7
370
     0
100
AcDbLine
 10
15.981302
 20
-25.742521
 30
0.0
 11
16.717083
 21
-25.786958
 31
0.0
  0
LINE
  5
1C4
330
43A
100
AcDbEntity
  8
Level 10
  6
Continuous
 62
     7
370
     0
100
AcDbLine
 10
16.717083
 20
-25.786958
 30
0.0
 11
17.289906
 21
-25.757333
 31
0.0
  0
LINE
  5
1C5
330
43A
100
AcDbEntity
  8
Level 10
  6
Continuous
 62
     7
370
     0
100
AcDbLine
 10
17.289906
 20
-25.757333
 30
0.0
 11
17.778781
 21
-25.831406
 31
0.0
  0
LINE
  5
1C6
330
43A
100
AcDbEntity
  8
Level 10
  6
Continuous
 62
     7
370
     0
100
AcDbLine
 10
14.366531
 20
-25.777083
 30
0.0
 11
15.230708
 21
-25.856094
 31
0.0
  0
LINE
  5
1C7
330
43A
100
AcDbEntity
  8
Level 10
  6
Continuous
 62
     7
370
     0
100
AcDbLine
 10
15.230708
 20
-25.856094
 30
0.0
 11
16.099812
 21
-25.930167
 31
0.0
  0
LINE
  5
1C8
330
43A
100
AcDbEntity
  8
Level 10
  6
Continuous
 62
     7
370
     0
100
AcDbLine
 10
16.099812
 20
-25.930167
 30
0.0
 11
16.628198
 21
-26.009177
 31
0.0
  0
LINE
  5
1C9
330
43A
100
AcDbEntity
  8
Level 10
  6
Continuous
 62
     7
370
     0
100
AcDbLine
 10
16.628198
 20
-26.009177
 30
0.0
 11
17.354104
 21
-26.048687
 31
0.0
  0
LINE
  5
1CA
330
43A
100
AcDbEntity
  8
Level 10
  6
Continuous
 62
     7
370
     0
100
AcDbLine
 10
17.354104
 20
-26.048687
 30
0.0
 11
17.828156
 21
-26.083333
 31
0.0
  0
LINE
  5
1CB
330
43A
100
AcDbEntity
  8
Level 10
  6
Continuous
 62
     7
370
     0
100
AcDbLine
 10
14.20851
 20
-25.895604
 30
0.0
 11
14.973927
 21
-25.969677
 31
0.0
  0
LINE
  5
1CC
330
43A
100
AcDbEntity
  8
Level 10
  6
Continuous
 62
     7
370
     0
100
AcDbLine
 10
14.973927
 20
-25.969677
 30
0.0
 11
15.44799
 21
-26.038802
 31
0.0
  0
LINE
  5
1CD
330
43A
100
AcDbEntity
  8
Level 10
  6
Continuous
 62
     7
370
     0
100
AcDbLine
 10
15.44799
 20
-26.038802
 30
0.0
 11
15.788719
 21
-26.04374
 31
0.0
  0
LINE
  5
1CE
330
43A
100
AcDbEntity
  8
Level 10
  6
Continuous
 62
     7
370
     0
100
AcDbLine
 10
15.788719
 20
-26.04374
 30
0.0
 11
16.233146
 21
-26.083333
 31
0.0
  0
LINE
  5
1CF
330
43A
100
AcDbEntity
  8
Level 10
  6
Continuous
 62
     7
370
     0
100
AcDbLine
 10
14.055438
 20
-26.028927
 30
0.0
 11
14.598625
 21
-26.083333
 31
0.0
  0
LINE
  5
1D0
330
43A
100
AcDbEntity
  8
Level 10
  6
Continuous
 62
     7
370
     0
100
AcDbLine
 10
15.610948
 20
-25.5
 30
0.0
 11
16.58375
 21
-25.633885
 31
0.0
  0
LINE
  5
1D1
330
43A
100
AcDbEntity
  8
Level 10
  6
Continuous
 62
     7
370
     0
100
AcDbLine
 10
16.58375
 20
-25.633885
 30
0.0
 11
16.998552
 21
-25.60425
 31
0.0
  0
LINE
  5
1D2
330
43A
100
AcDbEntity
  8
Level 10
  6
Continuous
 62
     7
370
     0
100
AcDbLine
 10
16.998552
 20
-25.60425
 30
0.0
 11
17.467677
 21
-25.599312
 31
0.0
  0
LINE
  5
1D3
330
43A
100
AcDbEntity
  8
Level 10
  6
Continuous
 62
     7
370
     0
100
AcDbLine
 10
17.467677
 20
-25.599312
 30
0.0
 11
17.892354
 21
-25.653635
 31
0.0
  0
LWPOLYLINE
  5
1D4
330
43A
100
AcDbEntity
  8
Level 10
  6
Continuous
 62
     7
370
     0
100
AcDbPolyline
 90
        5
 70
   128
 43
0.0
 10
20.835469
 20
-25.947385
 10
21.215708
 20
-25.907885
 10
21.615698
 20
-25.967135
 10
21.976177
 20
-26.026396
 10
22.228021
 20
-26.083333
  0
LINE
  5
1D5
330
43A
100
AcDbEntity
  8
Level 46
  6
Continuous
 62
     7
370
    53
100
AcDbLine
 10
11.961
 20
-29.971312
 30
0.0
 11
24.242576
 21
-29.971312
 31
0.0
  0
LINE
  5
1D6
330
43A
100
AcDbEntity
  8
Level 10
  6
Continuous
 62
     7
370
    13
100
AcDbLine
 10
18.0
 20
-27.249948
 30
0.0
 11
6.421208
 21
-27.442906
 31
0.0
  0
LINE
  5
1D7
330
43A
100
AcDbEntity
  8
Level 10
  6
Continuous
 62
     7
370
    13
100
AcDbLine
 10
18.0
 20
-27.249948
 30
0.0
 11
29.578729
 21
-27.442896
 31
0.0
  0
LINE
  5
1D8
330
43A
100
AcDbEntity
  8
Level 10
  6
DGN Style 3
 62
     7
370
    13
100
AcDbLine
 10
18.0
 20
-28.249948
 30
0.0
 11
3.263365
 21
-28.495521
 31
0.0
  0
LINE
  5
1D9
330
43A
100
AcDbEntity
  8
Level 10
  6
DGN Style 3
 62
     7
370
    13
100
AcDbLine
 10
18.0
 20
-28.249948
 30
0.0
 11
32.736583
 21
-28.49551
 31
0.0
  0
LINE
  5
1DB
330
43A
100
AcDbEntity
  8
Level 46
  6
Continuous
 62
     7
370
     0
100
AcDbLine
 10
13.75
 20
-23.083333
 30
0.0
 11
13.75
 21
-25.333333
 31
0.0
  0
LINE
  5
1DC
330
43A
100
AcDbEntity
  8
Level 46
  6
Continuous
 62
     7
370
     0
100
AcDbLine
 10
22.25
 20
-23.083333
 30
0.0
 11
22.25
 21
-25.333333
 31
0.0
  0
LINE
  5
1DD
330
43A
100
AcDbEntity
  8
Level 10
  6
Continuous
 62
     7
370
    13
100
AcDbLine
 10
22.25
 20
-25.5
 30
0.0
 11
22.25
 21
-26.083333
 31
0.0
  0
LINE
  5
1DE
330
43A
100
AcDbEntity
  8
Level 10
  6
Continuous
 62
     7
370
    13
100
AcDbLine
 10
13.75
 20
-25.5
 30
0.0
 11
13.75
 21
-26.083333
 31
0.0
  0
LWPOLYLINE
  5
1DF
330
43A
100
AcDbEntity
  8
Level 10
  6
Continuous
 62
     7
370
     0
100
AcDbPolyline
 90
        2
 70
   128
 43
0.0
 10
22.084812
 20
-25.5
 10
22.241427
 20
-25.546292
  0
LWPOLYLINE
  5
1E0
330
43A
100
AcDbEntity
  8
Level 10
  6
Continuous
 62
     7
370
     0
100
AcDbPolyline
 90
        5
 70
   128
 43
0.0
 10
20.623125
 20
-25.5
 10
21.205833
 20
-25.572083
 10
21.660135
 20
-25.596781
 10
22.094687
 20
-25.636281
 10
22.246698
 20
-25.685229
  0
LWPOLYLINE
  5
1E1
330
43A
100
AcDbEntity
  8
Level 10
  6
Continuous
 62
     7
370
     0
100
AcDbPolyline
 90
        4
 70
   128
 43
0.0
 10
21.146573
 20
-25.749865
 10
21.600875
 20
-25.79924
 10
22.060125
 20
-25.833813
 10
22.241521
 20
-25.916625
  0
LINE
  5
1E4
330
43A
100
AcDbEntity
  8
Level 10
  6
Continuous
 62
     7
370
     0
100
AcDbLine
 10
13.764208
 20
-25.677542
 30
0.0
 11
14.366531
 21
-25.777083
 31
0.0
  0
LINE
  5
1E5
330
43A
100
AcDbEntity
  8
Level 10
  6
Continuous
 62
     7
370
     0
100
AcDbLine
 10
13.757219
 20
-25.879875
 30
0.0
 11
14.20851
 21
-25.895604
 31
0.0
  0
LINE
  5
1E6
330
43A
100
AcDbEntity
  8
Level 10
  6
Continuous
 62
     7
370
     0
100
AcDbLine
 10
13.764198
 20
-26.010802
 30
0.0
 11
14.055438
 21
-26.028927
 31
0.0
  0
LINE
  5
1E7
330
43A
100
AcDbEntity
  8
Level 10
  6
DGN Style 3
 62
     7
370
    13
100
AcDbLine
 10
18.0
 20
-16.587656
 30
0.0
 11
4.960063
 21
-16.804958
 31
0.0
  0
LINE
  5
1E8
330
43A
100
AcDbEntity
  8
Level 10
  6
DGN Style 3
 62
     7
370
    13
100
AcDbLine
 10
18.0
 20
-16.587656
 30
0.0
 11
31.039938
 21
-16.804969
 31
0.0
  0
LINE
  5
1E9
330
43A
100
AcDbEntity
  8
Level 46
  6
Continuous
 62
     7
370
     0
100
AcDbLine
 10
28.0
 20
-15.583323
 30
0.0
 11
28.0
 21
-10.833333
 31
0.0
  0
LINE
  5
1EA
330
43A
100
AcDbEntity
  8
Level 46
  6
Continuous
 62
     7
370
     0
100
AcDbLine
 10
8.0
 20
-15.49999
 30
0.0
 11
8.0
 21
-10.833333
 31
0.0
  0
LINE
  5
1EC
330
43A
100
AcDbEntity
  8
Level 10
  6
Continuous
 62
     7
370
    13
100
AcDbLine
 10
18.0
 20
-15.583333
 30
0.0
 11
28.0
 21
-15.74999
 31
0.0
  0
LINE
  5
1EE
330
43A
100
AcDbEntity
  8
Level 10
  6
Continuous
 62
     7
370
    13
100
AcDbLine
 10
18.0
 20
-15.583333
 30
0.0
 11
8.0
 21
-15.74999
 31
0.0
  0
LINE
  5
1EF
330
43A
100
AcDbEntity
  8
Level 10
  6
Continuous
 62
     7
370
    13
100
AcDbLine
 10
31.875031
 20
-17.041667
 30
0.0
 11
37.875031
 21
-17.041667
 31
0.0
  0
LINE
  5
1F0
330
43A
100
AcDbEntity
  8
Level 46
  6
Continuous
 62
     7
370
     0
100
AcDbLine
 10
31.875031
 20
-16.875
 30
0.0
 11
31.875031
 21
-10.791667
 31
0.0
  0
LINE
  5
1F1
330
43A
100
AcDbEntity
  8
Level 10
  6
Continuous
 62
     7
370
    13
100
AcDbLine
 10
40.399552
 20
-16.200146
 30
0.0
 11
37.875031
 21
-17.041667
 31
0.0
  0
LINE
  5
1F2
330
43A
100
AcDbEntity
  8
Level 46
  6
Continuous
 62
     7
370
     0
100
AcDbLine
 10
38.284906
 20
-16.306615
 30
0.0
 11
39.534906
 21
-16.306615
 31
0.0
  0
LINE
  5
1F3
330
43A
100
AcDbEntity
  8
Level 46
  6
Continuous
 62
     7
370
     0
100
AcDbLine
 10
38.284906
 20
-16.306615
 30
0.0
 11
38.284906
 21
-16.723281
 31
0.0
  0
LINE
  5
1F6
330
43A
100
AcDbEntity
  8
Level 46
  6
Continuous
 62
     7
370
     0
100
AcDbLine
 10
18.0
 20
-11.166667
 30
0.0
 11
28.0
 21
-11.166667
 31
0.0
  0
LINE
  5
1F7
330
43A
100
AcDbEntity
  8
Level 46
  6
Continuous
 62
     7
370
     0
100
AcDbLine
 10
31.875031
 20
-11.125
 30
0.0
 11
37.875031
 21
-11.125
 31
0.0
  0
INSERT
  5
1F8
330
43A
100
AcDbEntity
  8
Level 46
  6
Continuous
 62
     7
370
     0
100
AcDbBlockReference
  2
LARROW_1
 10
37.875031
 20
-11.125
 30
0.0
 41
16.000028
 42
16.000028
 43
16.000028
  0
INSERT
  5
1FA
330
43A
100
AcDbEntity
  8
Level 46
  6
Continuous
 62
     7
370
     0
100
AcDbBlockReference
  2
LARROW
 10
31.875031
 20
-11.125
 30
0.0
 41
16.000028
 42
16.000028
 43
16.000028
 50
180.0
  0
LINE
  5
207
330
43A
100
AcDbEntity
  8
Level 1
  6
Continuous
 62
     7
370
    13
100
AcDbLine
 10
-4.021875
 20
-7.289365
 30
0.0
 11
-4.021875
 21
-44.622698
 31
0.0
  0
LINE
  5
208
330
43A
100
AcDbEntity
  8
Level 1
  6
Continuous
 62
     7
370
    13
100
AcDbLine
 10
-4.021875
 20
-35.340365
 30
0.0
 11
-2.021875
 21
-35.340365
 31
0.0
  0
LINE
  5
209
330
43A
100
AcDbEntity
  8
Level 1
  6
Continuous
 62
     7
370
    13
100
AcDbLine
 10
-4.021875
 20
-26.024865
 30
0.0
 11
-2.021875
 21
-26.024865
 31
0.0
  0
LINE
  5
20A
330
43A
100
AcDbEntity
  8
Level 1
  6
Continuous
 62
     7
370
    13
100
AcDbLine
 10
-4.021875
 20
-16.692031
 30
0.0
 11
-2.021875
 21
-16.692031
 31
0.0
  0
LINE
  5
20B
330
43A
100
AcDbEntity
  8
Level 1
  6
Continuous
 62
     7
370
   140
100
AcDbLine
 10
-2.021875
 20
-7.964365
 30
0.0
 11
-2.021875
 21
-43.962698
 31
0.0
  0
LINE
  5
20C
330
43A
100
AcDbEntity
  8
Level 1
  6
Continuous
 62
     7
370
    13
100
AcDbLine
 10
-4.021875
 20
-44.622698
 30
0.0
 11
49.311458
 21
-44.622698
 31
0.0
  0
LINE
  5
20D
330
43A
100
AcDbEntity
  8
Level 1
  6
Continuous
 62
     7
370
   140
100
AcDbLine
 10
-2.021875
 20
-43.962698
 30
0.0
 11
48.642292
 21
-43.962698
 31
0.0
  0
LINE
  5
20E
330
43A
100
AcDbEntity
  8
Level 1
  6
Continuous
 62
     7
370
    13
100
AcDbLine
 10
6.550958
 20
-44.622698
 30
0.0
 11
6.550958
 21
-43.962698
 31
0.0
  0
LINE
  5
20F
330
43A
100
AcDbEntity
  8
Level 1
  6
Continuous
 62
     7
370
    13
100
AcDbLine
 10
17.217292
 20
-44.622698
 30
0.0
 11
17.217292
 21
-43.962698
 31
0.0
  0
LINE
  5
210
330
43A
100
AcDbEntity
  8
Level 1
  6
Continuous
 62
     7
370
    13
100
AcDbLine
 10
28.016625
 20
-44.622698
 30
0.0
 11
28.016625
 21
-43.962698
 31
0.0
  0
LINE
  5
211
330
43A
100
AcDbEntity
  8
Level 1
  6
Continuous
 62
     7
370
    13
100
AcDbLine
 10
38.553958
 20
-43.962698
 30
0.0
 11
38.553958
 21
-44.621365
 31
0.0
  0
LINE
  5
212
330
43A
100
AcDbEntity
  8
Level 1
  6
Continuous
 62
     7
370
    40
100
AcDbLine
 10
40.935625
 20
-42.296031
 30
0.0
 11
48.642292
 21
-42.296031
 31
0.0
  0
LINE
  5
213
330
43A
100
AcDbEntity
  8
Level 1
  6
Continuous
 62
     7
370
   140
100
AcDbLine
 10
48.642292
 20
-7.964365
 30
0.0
 11
48.642292
 21
-43.962698
 31
0.0
  0
LINE
  5
214
330
43A
100
AcDbEntity
  8
Level 1
  6
Continuous
 62
     7
370
    13
100
AcDbLine
 10
49.311458
 20
-7.289365
 30
0.0
 11
49.311458
 21
-44.622698
 31
0.0
  0
LINE
  5
215
330
43A
100
AcDbEntity
  8
Level 1
  6
Continuous
 62
     7
370
    13
100
AcDbLine
 10
49.311458
 20
-16.558698
 30
0.0
 11
48.645792
 21
-16.558698
 31
0.0
  0
LINE
  5
216
330
43A
100
AcDbEntity
  8
Level 1
  6
Continuous
 62
     7
370
    13
100
AcDbLine
 10
49.311458
 20
-26.024865
 30
0.0
 11
48.651792
 21
-26.024865
 31
0.0
  0
LINE
  5
217
330
43A
100
AcDbEntity
  8
Level 1
  6
Continuous
 62
     7
370
    13
100
AcDbLine
 10
49.311458
 20
-35.357698
 30
0.0
 11
48.645792
 21
-35.357698
 31
0.0
  0
LINE
  5
218
330
43A
100
AcDbEntity
  8
Level 1
  6
Continuous
 62
     7
370
   140
100
AcDbLine
 10
-2.021875
 20
-7.964365
 30
0.0
 11
48.642292
 21
-7.964365
 31
0.0
  0
LINE
  5
219
330
43A
100
AcDbEntity
  8
Level 1
  6
Continuous
 62
     7
370
    13
100
AcDbLine
 10
-4.021875
 20
-7.289365
 30
0.0
 11
49.311458
 21
-7.289365
 31
0.0
  0
LINE
  5
21A
330
43A
100
AcDbEntity
  8
Level 1
  6
Continuous
 62
     7
370
    13
100
AcDbLine
 10
38.549458
 20
-7.289365
 30
0.0
 11
38.549458
 21
-7.964365
 31
0.0
  0
LINE
  5
21B
330
43A
100
AcDbEntity
  8
Level 1
  6
Continuous
 62
     7
370
    13
100
AcDbLine
 10
27.883458
 20
-7.289365
 30
0.0
 11
27.883458
 21
-7.964365
 31
0.0
  0
LINE
  5
21C
330
43A
100
AcDbEntity
  8
Level 1
  6
Continuous
 62
     7
370
    13
100
AcDbLine
 10
17.217292
 20
-7.289365
 30
0.0
 11
17.217292
 21
-7.964365
 31
0.0
  0
LINE
  5
21D
330
43A
100
AcDbEntity
  8
Level 1
  6
Continuous
 62
     7
370
    13
100
AcDbLine
 10
6.553792
 20
-7.964365
 30
0.0
 11
6.553792
 21
-7.290365
 31
0.0
  0
LINE
  5
21E
330
43A
100
AcDbEntity
  8
Level 1
  6
Continuous
 62
     7
370
    80
100
AcDbLine
 10
37.975958
 20
-43.962698
 30
0.0
 11
37.975958
 21
-35.327031
 31
0.0
  0
LINE
  5
21F
330
43A
100
AcDbEntity
  8
Level 1
  6
Continuous
 62
     7
370
    40
100
AcDbLine
 10
39.310958
 20
-38.462865
 30
0.0
 11
39.310958
 21
-36.463198
 31
0.0
  0
LINE
  5
220
330
43A
100
AcDbEntity
  8
Level 1
  6
Continuous
 62
     7
370
    40
100
AcDbLine
 10
37.975958
 20
-36.796365
 30
0.0
 11
48.642292
 21
-36.796365
 31
0.0
  0
LINE
  5
221
330
43A
100
AcDbEntity
  8
Level 1
  6
Continuous
 62
     7
370
    40
100
AcDbLine
 10
37.975958
 20
-37.129698
 30
0.0
 11
48.642292
 21
-37.129698
 31
0.0
  0
LINE
  5
222
330
43A
100
AcDbEntity
  8
Level 1
  6
Continuous
 62
     7
370
    40
100
AcDbLine
 10
37.975958
 20
-37.463031
 30
0.0
 11
48.642292
 21
-37.463031
 31
0.0
  0
LINE
  5
223
330
43A
100
AcDbEntity
  8
Level 1
  6
Continuous
 62
     7
370
    40
100
AcDbLine
 10
37.972625
 20
-37.796198
 30
0.0
 11
48.642292
 21
-37.796198
 31
0.0
  0
LINE
  5
224
330
43A
100
AcDbEntity
  8
Level 1
  6
Continuous
 62
     7
370
    40
100
AcDbLine
 10
37.972625
 20
-38.129531
 30
0.0
 11
48.642292
 21
-38.129531
 31
0.0
  0
LINE
  5
225
330
43A
100
AcDbEntity
  8
Level 1
  6
Continuous
 62
     7
370
    40
100
AcDbLine
 10
37.972625
 20
-38.462865
 30
0.0
 11
48.642292
 21
-38.462865
 31
0.0
  0
LINE
  5
226
330
43A
100
AcDbEntity
  8
Level 1
  6
Continuous
 62
     7
370
    40
100
AcDbLine
 10
46.296792
 20
-38.462865
 30
0.0
 11
46.296792
 21
-36.463031
 31
0.0
  0
LINE
  5
227
330
43A
100
AcDbEntity
  8
Level 1
  6
Continuous
 62
     7
370
    40
100
AcDbLine
 10
47.308958
 20
-38.462865
 30
0.0
 11
47.308958
 21
-36.463031
 31
0.0
  0
LINE
  5
228
330
43A
100
AcDbEntity
  8
Level 1
  6
Continuous
 62
     7
370
    40
100
AcDbLine
 10
37.977792
 20
-39.796198
 30
0.0
 11
48.642292
 21
-39.796198
 31
0.0
  0
LINE
  5
229
330
43A
100
AcDbEntity
  8
Level 1
  6
Continuous
 62
     7
370
    40
100
AcDbLine
 10
40.951292
 20
-39.796198
 30
0.0
 11
40.951292
 21
-43.957365
 31
0.0
  0
LINE
  5
22A
330
43A
100
AcDbEntity
  8
Level 1
  6
Continuous
 62
     7
370
    40
100
AcDbLine
 10
37.974458
 20
-40.629198
 30
0.0
 11
40.951292
 21
-40.629198
 31
0.0
  0
LINE
  5
22B
330
43A
100
AcDbEntity
  8
Level 1
  6
Continuous
 62
     7
370
    40
100
AcDbLine
 10
37.974458
 20
-41.462365
 30
0.0
 11
40.951292
 21
-41.462365
 31
0.0
  0
LINE
  5
22C
330
43A
100
AcDbEntity
  8
Level 1
  6
Continuous
 62
     7
370
    40
100
AcDbLine
 10
37.963792
 20
-42.295865
 30
0.0
 11
40.951292
 21
-42.295865
 31
0.0
  0
LINE
  5
22D
330
43A
100
AcDbEntity
  8
Level 1
  6
Continuous
 62
     7
370
    40
100
AcDbLine
 10
37.977792
 20
-43.129198
 30
0.0
 11
40.951292
 21
-43.129198
 31
0.0
  0
LINE
  5
22E
330
43A
100
AcDbEntity
  8
Level 1
  6
Continuous
 62
     7
370
    40
100
AcDbLine
 10
40.960625
 20
-42.577198
 30
0.0
 11
45.060625
 21
-42.577198
 31
0.0
  0
LINE
  5
22F
330
43A
100
AcDbEntity
  8
Level 1
  6
Continuous
 62
     7
370
    40
100
AcDbLine
 10
45.057958
 20
-42.879198
 30
0.0
 11
45.057958
 21
-42.296031
 31
0.0
  0
LINE
  5
230
330
43A
100
AcDbEntity
  8
Level 1
  6
Continuous
 62
     7
370
    40
100
AcDbLine
 10
44.142458
 20
-43.962698
 30
0.0
 11
44.142458
 21
-42.879198
 31
0.0
  0
LINE
  5
231
330
43A
100
AcDbEntity
  8
Level 1
  6
Continuous
 62
     7
370
    40
100
AcDbLine
 10
40.952125
 20
-43.428865
 30
0.0
 11
44.141458
 21
-43.428865
 31
0.0
  0
LINE
  5
232
330
43A
100
AcDbEntity
  8
Level 1
  6
Continuous
 62
     7
370
     0
100
AcDbLine
 10
36.380458
 20
-42.266865
 30
0.0
 11
37.578958
 21
-42.266865
 31
0.0
  0
LINE
  5
233
330
43A
100
AcDbEntity
  8
Level 1
  6
Continuous
 62
     7
370
     0
100
AcDbLine
 10
36.294458
 20
-43.550865
 30
0.0
 11
36.294458
 21
-42.360031
 31
0.0
  0
LINE
  5
234
330
43A
100
AcDbEntity
  8
Level 1
  6
Continuous
 62
     7
370
     0
100
AcDbLine
 10
37.578958
 20
-43.644031
 30
0.0
 11
36.380458
 21
-43.644031
 31
0.0
  0
LINE
  5
235
330
43A
100
AcDbEntity
  8
Level 1
  6
Continuous
 62
     7
370
     0
100
AcDbLine
 10
37.665125
 20
-42.360031
 30
0.0
 11
37.665125
 21
-43.550865
 31
0.0
  0
ELLIPSE
  5
236
330
43A
100
AcDbEntity
  8
Level 1
  6
Continuous
 62
     7
370
     0
100
AcDbEllipse
 10
36.380663
 20
-43.551112
 30
0.0
 11
0.0
 21
0.09282153782880362
 31
0.0
210
0.0
220
0.0
230
1.0
 40
0.927549
 41
1.570796326794897
 42
3.141592653589793
  0
ELLIPSE
  5
237
330
43A
100
AcDbEntity
  8
Level 1
  6
Continuous
 62
     7
370
     0
100
AcDbEllipse
 10
36.380663
 20
-42.359903
 30
0.0
 11
0.0
 21
0.09282153782880362
 31
0.0
210
0.0
220
0.0
230
-1.0
 40
0.927549
 41
4.71238898038469
 42
6.283185307179586
  0
ELLIPSE
  5
238
330
43A
100
AcDbEntity
  8
Level 1
  6
Continuous
 62
     7
370
     0
100
AcDbEllipse
 10
37.578839
 20
-42.359903
 30
0.0
 11
0.0
 21
0.09282153782880362
 31
0.0
210
0.0
220
0.0
230
-1.0
 40
0.927549
 41
0.0
 42
1.570796326794897
  0
ELLIPSE
  5
239
330
43A
100
AcDbEntity
  8
Level 1
  6
Continuous
 62
     7
370
     0
100
AcDbEllipse
 10
37.578839
 20
-43.551112
 30
0.0
 11
0.0
 21
0.09282153782880483
 31
0.0
210
0.0
220
0.0
230
-1.0
 40
0.927549
 41
1.570796326794897
 42
3.141592653589793
  0
LINE
  5
23A
330
43A
100
AcDbEntity
  8
Level 1
  6
Continuous
 62
     7
370
    30
100
AcDbLine
 10
36.237125
 20
-43.550865
 30
0.0
 11
36.237125
 21
-42.360031
 31
0.0
  0
LINE
  5
23B
330
43A
100
AcDbEntity
  8
Level 1
  6
Continuous
 62
     7
370
    30
100
AcDbLine
 10
36.380458
 20
-42.205198
 30
0.0
 11
37.578958
 21
-42.205198
 31
0.0
  0
LINE
  5
23C
330
43A
100
AcDbEntity
  8
Level 1
  6
Continuous
 62
     7
370
    30
100
AcDbLine
 10
37.722458
 20
-42.360031
 30
0.0
 11
37.722458
 21
-43.550865
 31
0.0
  0
LINE
  5
23D
330
43A
100
AcDbEntity
  8
Level 1
  6
Continuous
 62
     7
370
    30
100
AcDbLine
 10
37.578958
 20
-43.705531
 30
0.0
 11
36.380458
 21
-43.705531
 31
0.0
  0
ELLIPSE
  5
23E
330
43A
100
AcDbEntity
  8
Level 1
  6
Continuous
 62
     7
370
    30
100
AcDbEllipse
 10
37.578839
 20
-43.551112
 30
0.0
 11
0.0
 21
0.1547024908531901
 31
0.0
210
0.0
220
0.0
230
-1.0
 40
0.927549
 41
1.570796326794897
 42
3.141592653589793
  0
ELLIPSE
  5
23F
330
43A
100
AcDbEntity
  8
Level 1
  6
Continuous
 62
     7
370
    30
100
AcDbEllipse
 10
36.380663
 20
-43.551112
 30
0.0
 11
0.0
 21
-0.154702490853189
 31
0.0
210
0.0
220
0.0
230
1.0
 40
0.927549
 41
4.71238898038469
 42
6.283185307179586
  0
ELLIPSE
  5
240
330
43A
100
AcDbEntity
  8
Level 1
  6
Continuous
 62
     7
370
    30
100
AcDbEllipse
 10
36.380663
 20
-42.359903
 30
0.0
 11
0.0
 21
-0.1547024908531901
 31
0.0
210
0.0
220
0.0
230
-1.0
 40
0.927549
 41
1.570796326794897
 42
3.141592653589793
  0
ELLIPSE
  5
241
330
43A
100
AcDbEntity
  8
Level 1
  6
Continuous
 62
     7
370
    30
100
AcDbEllipse
 10
37.578839
 20
-42.359903
 30
0.0
 11
0.0
 21
0.154702490853189
 31
0.0
210
0.0
220
0.0
230
-1.0
 40
0.927549
 41
0.0
 42
1.570796326794897
  0
TEXT
  5
242
330
43A
100
AcDbEntity
  8
Level 1
  6
Continuous
 62
     7
370
    40
100
AcDbText
 10
36.359783
 20
-42.611198
 30
0.0
 40
0.216333
  1
C
 41
0.927662
  7
Style-WORKING
 72
     1
 11
36.430859
 21
-42.503031
 31
0.0
100
AcDbText
 73
     2
  0
TEXT
  5
245
330
43A
100
AcDbEntity
  8
Level 1
  6
Continuous
 62
     7
370
    40
100
AcDbText
 10
36.352022
 20
-42.916031
 30
0.0
 40
0.216832
  1
A
 41
0.927976
  7
Style-WORKING
 72
     1
 11
36.429574
 21
-42.807615
 31
0.0
100
AcDbText
 73
     2
  0
TEXT
  5
246
330
43A
100
AcDbEntity
  8
Level 1
  6
Continuous
 62
     7
370
    40
100
AcDbText
 10
36.365407
 20
-43.214531
 30
0.0
 40
0.216334
  1
D
 41
0.927658
  7
Style-WORKING
 72
     1
 11
36.432302
 21
-43.106364
 31
0.0
100
AcDbText
 73
     2
  0
TEXT
  5
249
330
43A
100
AcDbEntity
  8
Level 1
  6
Continuous
 62
     7
370
    40
100
AcDbText
 10
36.37255
 20
-43.579725
 30
0.0
 40
0.216665
  1
D
 41
0.928715
  7
Style-WORKING
 72
     1
 11
36.439623
 21
-43.471393
 31
0.0
100
AcDbText
 73
     2
  0
TEXT
  5
24A
330
43A
100
AcDbEntity
  8
Level 46
  6
Continuous
 62
     6
370
    40
100
AcDbText
 10
44.996958
 20
-45.628031
 30
0.0
 40
0.2335
  1
CORPS TEXT STANDARDS
  7
Style-FANCY
 11
44.996958
 21
-45.511281
 31
0.0
100
AcDbText
 73
     2
  0
TEXT
  5
24B
330
43A
100
AcDbEntity
  8
Level 46
  6
Continuous
 62
     6
370
     0
100
AcDbText
 10
45.052292
 20
-48.178365
 30
0.0
 40
0.12
  1
N0.'S ARE WRICO EQUIVALENTS
  7
Style-FANCY
 11
45.052292
 21
-48.118365
 31
0.0
100
AcDbText
 73
     2
  0
TEXT
  5
24C
330
43A
100
AcDbEntity
  8
Level 46
  6
Continuous
 62
     6
370
     0
100
AcDbText
 10
45.045292
 20
-48.366531
 30
0.0
 40
0.12
  1
FOR DRAFTING'S REFERENCE
  7
Style-FANCY
 11
45.045292
 21
-48.306531
 31
0.0
100
AcDbText
 73
     2
  0
LINE
  5
24D
330
43A
100
AcDbEntity
  8
Level 46
  6
Continuous
 62
     6
370
    40
100
AcDbLine
 10
45.004458
 20
-45.713198
 30
0.0
 11
49.384458
 21
-45.713198
 31
0.0
  0
LINE
  5
260
330
43A
100
AcDbEntity
  8
Level 1
  6
Continuous
 62
     7
370
    40
100
AcDbLine
 10
37.975958
 20
-36.127031
 30
0.0
 11
48.642292
 21
-36.127031
 31
0.0
  0
LINE
  5
261
330
43A
100
AcDbEntity
  8
Level 1
  6
Continuous
 62
     7
370
    80
100
AcDbLine
 10
37.975958
 20
-35.327031
 30
0.0
 11
48.642292
 21
-35.327031
 31
0.0
  0
LINE
  5
267
330
43A
100
AcDbEntity
  8
Level 1
  6
Continuous
 62
     7
370
    40
100
AcDbLine
 10
37.975958
 20
-36.463031
 30
0.0
 11
39.310958
 21
-36.463031
 31
0.0
  0
LINE
  5
268
330
43A
100
AcDbEntity
  8
Level 1
  6
Continuous
 62
     7
370
    40
100
AcDbLine
 10
39.310958
 20
-36.463031
 30
0.0
 11
46.296792
 21
-36.463031
 31
0.0
  0
LINE
  5
269
330
43A
100
AcDbEntity
  8
Level 1
  6
Continuous
 62
     7
370
    40
100
AcDbLine
 10
46.296792
 20
-36.463031
 30
0.0
 11
48.642292
 21
-36.463031
 31
0.0
  0
TEXT
  5
273
330
43A
100
AcDbEntity
  8
Level 1
  6
Continuous
 62
     7
370
    40
100
AcDbText
 10
48.850924
 20
-40.149698
 30
0.0
 40
0.267167
  1
A
  7
Style-CHAR_FAST_FONT
 72
     1
 11
48.939979
 21
-40.016114
 31
0.0
100
AcDbText
 73
     2
  0
TEXT
  5
274
330
43A
100
AcDbEntity
  8
Level 1
  6
Continuous
 62
     7
370
    40
100
AcDbText
 10
48.92609
 20
-30.778865
 30
0.0
 40
0.267167
  1
B
  7
Style-CHAR_FAST_FONT
 72
     1
 11
49.015146
 21
-30.645281
 31
0.0
100
AcDbText
 73
     2
  0
TEXT
  5
275
330
43A
100
AcDbEntity
  8
Level 1
  6
Continuous
 62
     7
370
    40
100
AcDbText
 10
48.905924
 20
-21.473865
 30
0.0
 40
0.267167
  1
C
  7
Style-CHAR_FAST_FONT
 72
     1
 11
48.994979
 21
-21.340281
 31
0.0
100
AcDbText
 73
     2
  0
TEXT
  5
276
330
43A
100
AcDbEntity
  8
Level 1
  6
Continuous
 62
     7
370
    40
100
AcDbText
 10
48.88559
 20
-12.126531
 30
0.0
 40
0.267167
  1
D
  7
Style-CHAR_FAST_FONT
 72
     1
 11
48.974646
 21
-11.992948
 31
0.0
100
AcDbText
 73
     2
  0
TEXT
  5
277
330
43A
100
AcDbEntity
  8
Level 1
  6
Continuous
 62
     7
370
    40
100
AcDbText
 10
43.79403
 20
-7.740031
 30
0.0
 40
0.267167
  1
1
  7
Style-CHAR_FAST_FONT
 72
     1
 11
43.884146
 21
-7.606448
 31
0.0
100
AcDbText
 73
     2
  0
TEXT
  5
278
330
43A
100
AcDbEntity
  8
Level 1
  6
Continuous
 62
     7
370
    40
100
AcDbText
 10
33.114424
 20
-7.726031
 30
0.0
 40
0.267167
  1
2
  7
Style-CHAR_FAST_FONT
 72
     1
 11
33.203479
 21
-7.592448
 31
0.0
100
AcDbText
 73
     2
  0
TEXT
  5
279
330
43A
100
AcDbEntity
  8
Level 1
  6
Continuous
 62
     7
370
    40
100
AcDbText
 10
22.439257
 20
-7.710531
 30
0.0
 40
0.267167
  1
3
  7
Style-CHAR_FAST_FONT
 72
     1
 11
22.528313
 21
-7.576948
 31
0.0
100
AcDbText
 73
     2
  0
TEXT
  5
27A
330
43A
100
AcDbEntity
  8
Level 1
  6
Continuous
 62
     7
370
    40
100
AcDbText
 10
11.787924
 20
-7.722531
 30
0.0
 40
0.267167
  1
4
  7
Style-CHAR_FAST_FONT
 72
     1
 11
11.876979
 21
-7.588948
 31
0.0
100
AcDbText
 73
     2
  0
TEXT
  5
27B
330
43A
100
AcDbEntity
  8
Level 1
  6
Continuous
 62
     7
370
    40
100
AcDbText
 10
1.13909
 20
-7.710698
 30
0.0
 40
0.267167
  1
5
  7
Style-CHAR_FAST_FONT
 72
     1
 11
1.228146
 21
-7.577114
 31
0.0
100
AcDbText
 73
     2
  0
TEXT
  5
27C
330
43A
100
AcDbEntity
  8
Level 1
  6
Continuous
 62
     7
370
    40
100
AcDbText
 10
-2.64391
 20
-12.122198
 30
0.0
 40
0.267167
  1
D
  7
Style-CHAR_FAST_FONT
 72
     1
 11
-2.554854
 21
-11.988614
 31
0.0
100
AcDbText
 73
     2
  0
TEXT
  5
27D
330
43A
100
AcDbEntity
  8
Level 1
  6
Continuous
 62
     7
370
    40
100
AcDbText
 10
-2.64141
 20
-21.465365
 30
0.0
 40
0.267167
  1
C
  7
Style-CHAR_FAST_FONT
 72
     1
 11
-2.552354
 21
-21.331781
 31
0.0
100
AcDbText
 73
     2
  0
TEXT
  5
27E
330
43A
100
AcDbEntity
  8
Level 1
  6
Continuous
 62
     7
370
    40
100
AcDbText
 10
-2.706743
 20
-30.737365
 30
0.0
 40
0.267167
  1
B
  7
Style-CHAR_FAST_FONT
 72
     1
 11
-2.617687
 21
-30.603781
 31
0.0
100
AcDbText
 73
     2
  0
TEXT
  5
27F
330
43A
100
AcDbEntity
  8
Level 1
  6
Continuous
 62
     7
370
    40
100
AcDbText
 10
-2.657576
 20
-40.193865
 30
0.0
 40
0.267167
  1
A
  7
Style-CHAR_FAST_FONT
 72
     1
 11
-2.568521
 21
-40.060281
 31
0.0
100
AcDbText
 73
     2
  0
TEXT
  5
280
330
43A
100
AcDbEntity
  8
Level 1
  6
Continuous
 62
     7
370
    40
100
AcDbText
 10
1.135424
 20
-44.461198
 30
0.0
 40
0.267167
  1
5
  7
Style-CHAR_FAST_FONT
 72
     1
 11
1.224479
 21
-44.327614
 31
0.0
100
AcDbText
 73
     2
  0
TEXT
  5
281
330
43A
100
AcDbEntity
  8
Level 1
  6
Continuous
 62
     7
370
    40
100
AcDbText
 10
11.78309
 20
-44.477865
 30
0.0
 40
0.267167
  1
4
  7
Style-CHAR_FAST_FONT
 72
     1
 11
11.872146
 21
-44.344281
 31
0.0
100
AcDbText
 73
     2
  0
TEXT
  5
282
330
43A
100
AcDbEntity
  8
Level 1
  6
Continuous
 62
     7
370
    40
100
AcDbText
 10
22.41459
 20
-44.444365
 30
0.0
 40
0.267167
  1
3
  7
Style-CHAR_FAST_FONT
 72
     1
 11
22.503646
 21
-44.310781
 31
0.0
100
AcDbText
 73
     2
  0
TEXT
  5
283
330
43A
100
AcDbEntity
  8
Level 1
  6
Continuous
 62
     7
370
    40
100
AcDbText
 10
33.085257
 20
-44.461031
 30
0.0
 40
0.267167
  1
2
  7
Style-CHAR_FAST_FONT
 72
     1
 11
33.174313
 21
-44.327448
 31
0.0
100
AcDbText
 73
     2
  0
TEXT
  5
284
330
43A
100
AcDbEntity
  8
Level 1
  6
Continuous
 62
     7
370
    40
100
AcDbText
 10
43.80503
 20
-44.477531
 30
0.0
 40
0.267167
  1
1
  7
Style-CHAR_FAST_FONT
 72
     1
 11
43.895146
 21
-44.343948
 31
0.0
100
AcDbText
 73
     2
  0
LINE
  5
287
330
43A
100
AcDbEntity
  8
Level 1
  6
Continuous
 62
     7
370
    40
100
AcDbLine
 10
48.642292
 20
-43.962698
 30
0.0
 11
48.642292
 21
-42.879198
 31
0.0
  0
LINE
  5
288
330
43A
100
AcDbEntity
  8
Level 1
  6
Continuous
 62
     7
370
    40
100
AcDbLine
 10
47.308958
 20
-43.962698
 30
0.0
 11
47.308958
 21
-42.296031
 31
0.0
  0
LINE
  5
289
330
43A
100
AcDbEntity
  8
Level 1
  6
Continuous
 62
     7
370
    40
100
AcDbLine
 10
40.952125
 20
-42.879198
 30
0.0
 11
47.308958
 21
-42.879198
 31
0.0
  0
LINE
  5
28A
330
43A
100
AcDbEntity
  8
Level 1
  6
Continuous
 62
     7
370
    40
100
AcDbLine
 10
47.308958
 20
-43.962698
 30
0.0
 11
48.642292
 21
-43.962698
 31
0.0
  0
MTEXT
  5
28B
330
43A
100
AcDbEntity
  8
Level 46
  6
Continuous
 62
     6
370
    13
100
AcDbMText
 10
45.024792
 20
-47.568031
 30
0.0
 40
0.208
 41
0.0
 71
     4
 72
     1
  1
Freehand\PObject Notes\P
  7
Style-ITALICS
 73
     2
 44
0.907728
  0
MTEXT
  5
28E
330
43A
100
AcDbEntity
  8
Level 46
  6
Continuous
 62
     6
370
    13
100
AcDbMText
 10
46.872625
 20
-47.624753
 30
0.0
 40
0.166333
 41
0.0
 71
     4
 72
     1
  1
ARCH. FREEHAND\PGENERAL NOTES\P
  7
Style-FANCY
 73
     2
 44
0.90785
  0
MTEXT
  5
291
330
43A
100
AcDbEntity
  8
Level 46
  6
Continuous
 62
     6
370
    13
100
AcDbMText
 10
49.193958
 20
-47.61942
 30
0.0
 40
0.166333
 41
0.0
 71
     4
 72
     1
  1
\H1.000000x;\W0.874751;EQUAL TILE\PNOTES\P
  7
Style-ENGINEERING
 73
     2
 44
0.90785
  0
MTEXT
  5
294
330
43A
100
AcDbEntity
  8
Level 46
  6
Continuous
 62
     6
370
     0
100
AcDbMText
 10
45.045125
 20
-46.154698
 30
0.0
 40
0.12
 41
0.0
 71
     4
 72
     1
  1
90-\P-(RARELY USED)\P
  7
Style-FANCY
 73
     2
 44
0.919844
  0
MTEXT
  5
297
330
43A
100
AcDbEntity
  8
Level 46
  6
Continuous
 62
     6
370
    30
100
AcDbMText
 10
46.931792
 20
-46.118865
 30
0.0
 40
0.16
 41
0.0
 71
     4
 72
     1
  1
120\P.\P
  7
Style-FANCY
 73
     2
 44
0.919844
  0
MTEXT
  5
29A
330
43A
100
AcDbEntity
  8
Level 40
  6
Continuous
 62
     6
370
    40
100
AcDbMText
 10
47.688125
 20
-46.081392
 30
0.0
 40
0.187167
 41
0.0
 71
     4
 72
     1
  1
140\PMATCH LINES\P
  7
Style-FANCY
 73
     2
 44
0.908051
  0
MTEXT
  5
29D
330
43A
100
AcDbEntity
  8
Level 47
  6
Continuous
 62
     6
370
    40
100
AcDbMText
 10
44.981792
 20
-46.859948
 30
0.0
 40
0.2335
 41
0.0
 71
     4
 72
     1
  1
175--\P-SUB TITLES\P
  7
Style-FANCY
 73
     2
 44
0.901847
  0
MTEXT
  5
2A0
330
43A
100
AcDbEntity
  8
Level 47
  6
Continuous
 62
     6
370
    53
100
AcDbMText
 10
47.571125
 20
-46.832059
 30
0.0
 40
0.267167
 41
0.0
 71
     4
 72
     1
  1
200--\P-MAIN TITLES\P
  7
Style-FANCY
 73
     2
 44
0.911582
  0
INSERT
  5
2A8
330
43A
100
AcDbEntity
  8
Level 46
  6
Continuous
 62
     7
370
     0
100
AcDbBlockReference
  2
LARROW_1
 10
8.0
 20
-22.666667
 30
0.0
 41
16.0
 42
16.0
 43
16.0
 50
180.0
  0
INSERT
  5
2AA
330
43A
100
AcDbEntity
  8
Level 46
  6
Continuous
 62
     7
370
     0
100
AcDbBlockReference
  2
LARROW_1
 10
18.0
 20
-22.666667
 30
0.0
 41
16.0
 42
16.0
 43
16.0
  0
INSERT
  5
2AC
330
43A
100
AcDbEntity
  8
Level 46
  6
Continuous
 62
     7
370
     0
100
AcDbBlockReference
  2
LARROW_1
 10
18.0
 20
-22.666667
 30
0.0
 41
16.0
 42
16.0
 43
16.0
 50
180.0
  0
INSERT
  5
2AE
330
43A
100
AcDbEntity
  8
Level 46
  6
Continuous
 62
     7
370
     0
100
AcDbBlockReference
  2
LARROW_1
 10
13.75
 20
-23.333333
 30
0.0
 41
16.0
 42
16.0
 43
16.0
 50
180.0
  0
INSERT
  5
2B0
330
43A
100
AcDbEntity
  8
Level 46
  6
Continuous
 62
     7
370
     0
100
AcDbBlockReference
  2
LARROW_1
 10
18.0
 20
-23.333333
 30
0.0
 41
16.0
 42
16.0
 43
16.0
  0
INSERT
  5
2B2
330
43A
100
AcDbEntity
  8
Level 46
  6
Continuous
 62
     7
370
     0
100
AcDbBlockReference
  2
LARROW_1
 10
15.645833
 20
-24.0
 30
0.0
 41
16.0
 42
16.0
 43
16.0
 50
180.0
  0
INSERT
  5
2B4
330
43A
100
AcDbEntity
  8
Level 46
  6
Continuous
 62
     7
370
     0
100
AcDbBlockReference
  2
LARROW_1
 10
20.354167
 20
-24.0
 30
0.0
 41
16.0
 42
16.0
 43
16.0
  0
INSERT
  5
2B6
330
43A
100
AcDbEntity
  8
Level 46
  6
Continuous
 62
     7
370
     0
100
AcDbBlockReference
  2
LARROW_1
 10
18.0
 20
-23.333333
 30
0.0
 41
16.0
 42
16.0
 43
16.0
 50
180.0
  0
INSERT
  5
2B8
330
43A
100
AcDbEntity
  8
Level 46
  6
Continuous
 62
     7
370
     0
100
AcDbBlockReference
  2
LARROW_1
 10
22.25
 20
-23.333333
 30
0.0
 41
16.0
 42
16.0
 43
16.0
  0
INSERT
  5
2BA
330
43A
100
AcDbEntity
  8
Level 46
  6
Continuous
 62
     7
370
     0
100
AcDbBlockReference
  2
LARROW_1
 10
22.25
 20
-23.333333
 30
0.0
 41
16.0
 42
16.0
 43
16.0
 50
180.0
  0
INSERT
  5
2BC
330
43A
100
AcDbEntity
  8
Level 46
  6
Continuous
 62
     7
370
     0
100
AcDbBlockReference
  2
LARROW_1
 10
22.75
 20
-23.333333
 30
0.0
 41
16.0
 42
16.0
 43
16.0
  0
INSERT
  5
2BE
330
43A
100
AcDbEntity
  8
Level 46
  6
Continuous
 62
     7
370
     0
100
AcDbBlockReference
  2
LARROW_1
 10
28.0
 20
-22.666667
 30
0.0
 41
16.0
 42
16.0
 43
16.0
  0
INSERT
  5
2C0
330
43A
100
AcDbEntity
  8
Level 46
  6
Continuous
 62
     7
370
     0
100
AcDbBlockReference
  2
LARROW_1
 10
15.524167
 20
-24.931719
 30
0.0
 41
16.000001
 42
16.000001
 43
16.000001
 50
297.090769
  0
INSERT
  5
2C2
330
43A
100
AcDbEntity
  8
Level 46
  6
Continuous
 62
     7
370
     0
100
AcDbBlockReference
  2
LARROW_1
 10
18.0
 20
-25.5
 30
0.0
 41
16.0
 42
16.0
 43
16.0
 50
90.0
  0
INSERT
  5
2C4
330
43A
100
AcDbEntity
  8
Level 46
  6
Continuous
 62
     7
370
     0
100
AcDbBlockReference
  2
LARROW_1
 10
18.0
 20
-26.083333
 30
0.0
 41
16.0
 42
16.0
 43
16.0
 50
270.0
  0
INSERT
  5
2C6
330
43A
100
AcDbEntity
  8
Level 46
  6
Continuous
 62
     7
370
     0
100
AcDbBlockReference
  2
LARROW_1
 10
18.0
 20
-26.083333
 30
0.0
 41
16.0
 42
16.0
 43
16.0
 50
90.0
  0
INSERT
  5
2C8
330
43A
100
AcDbEntity
  8
Level 46
  6
Continuous
 62
     7
370
     0
100
AcDbBlockReference
  2
LARROW_1
 10
18.0
 20
-26.75
 30
0.0
 41
16.0
 42
16.0
 43
16.0
 50
270.0
  0
INSERT
  5
2CA
330
43A
100
AcDbEntity
  8
Level 46
  6
Continuous
 62
     7
370
     0
100
AcDbBlockReference
  2
LARROW_1
 10
18.0
 20
-26.75
 30
0.0
 41
16.0
 42
16.0
 43
16.0
 50
90.0
  0
INSERT
  5
2CC
330
43A
100
AcDbEntity
  8
Level 46
  6
Continuous
 62
     7
370
     0
100
AcDbBlockReference
  2
LARROW_1
 10
18.0
 20
-27.249948
 30
0.0
 41
16.0
 42
16.0
 43
16.0
 50
270.0
  0
INSERT
  5
2CE
330
43A
100
AcDbEntity
  8
Level 46
  6
Continuous
 62
     7
370
     0
100
AcDbBlockReference
  2
LARROW_1
 10
18.0
 20
-27.249948
 30
0.0
 41
16.0
 42
16.0
 43
16.0
 50
90.0
  0
INSERT
  5
2D0
330
43A
100
AcDbEntity
  8
Level 46
  6
Continuous
 62
     7
370
     0
100
AcDbBlockReference
  2
LARROW_1
 10
18.0
 20
-28.254271
 30
0.0
 41
16.0
 42
16.0
 43
16.0
 50
270.0
  0
INSERT
  5
2D2
330
43A
100
AcDbEntity
  8
Level 46
  6
Continuous
 62
     7
370
     0
100
AcDbBlockReference
  2
LARROW_1
 10
18.0
 20
-16.587656
 30
0.0
 41
16.0
 42
16.0
 43
16.0
 50
270.0
  0
INSERT
  5
2D4
330
43A
100
AcDbEntity
  8
Level 46
  6
Continuous
 62
     7
370
     0
100
AcDbBlockReference
  2
LARROW_1
 10
18.0
 20
-15.583333
 30
0.0
 41
16.0
 42
16.0
 43
16.0
 50
90.0
  0
INSERT
  5
2D6
330
43A
100
AcDbEntity
  8
Level 46
  6
Continuous
 62
     7
370
     0
100
AcDbBlockReference
  2
LARROW_1
 10
18.0
 20
-15.583333
 30
0.0
 41
16.0
 42
16.0
 43
16.0
 50
270.0
  0
INSERT
  5
2D8
330
43A
100
AcDbEntity
  8
Level 46
  6
Continuous
 62
     7
370
     0
100
AcDbBlockReference
  2
LARROW_1
 10
18.0
 20
-14.583333
 30
0.0
 41
16.0
 42
16.0
 43
16.0
 50
90.0
  0
INSERT
  5
2DA
330
43A
100
AcDbEntity
  8
Level 46
  6
Continuous
 62
     7
370
     0
100
AcDbBlockReference
  2
LARROW_1
 10
18.0
 20
-14.583333
 30
0.0
 41
16.0
 42
16.0
 43
16.0
 50
270.0
  0
INSERT
  5
2DC
330
43A
100
AcDbEntity
  8
Level 46
  6
Continuous
 62
     7
370
     0
100
AcDbBlockReference
  2
LARROW_1
 10
18.0
 20
-14.0
 30
0.0
 41
16.0
 42
16.0
 43
16.0
 50
90.0
  0
INSERT
  5
2DE
330
43A
100
AcDbEntity
  8
Level 46
  6
Continuous
 62
     7
370
     0
100
AcDbBlockReference
  2
LARROW_1
 10
15.524167
 20
-13.431719
 30
0.0
 41
16.000001
 42
16.000001
 43
16.000001
 50
303.252849
  0
INSERT
  5
2E0
330
43A
100
AcDbEntity
  8
Level 46
  6
Continuous
 62
     7
370
     0
100
AcDbBlockReference
  2
LARROW_1
 10
20.354167
 20
-12.5
 30
0.0
 41
16.0
 42
16.0
 43
16.0
  0
INSERT
  5
2E2
330
43A
100
AcDbEntity
  8
Level 46
  6
Continuous
 62
     7
370
     0
100
AcDbBlockReference
  2
LARROW_1
 10
15.645833
 20
-12.5
 30
0.0
 41
16.0
 42
16.0
 43
16.0
 50
180.0
  0
INSERT
  5
2E4
330
43A
100
AcDbEntity
  8
Level 46
  6
Continuous
 62
     7
370
     0
100
AcDbBlockReference
  2
LARROW_1
 10
18.0
 20
-11.166667
 30
0.0
 41
16.0
 42
16.0
 43
16.0
 50
180.0
  0
INSERT
  5
2E6
330
43A
100
AcDbEntity
  8
Level 46
  6
Continuous
 62
     7
370
     0
100
AcDbBlockReference
  2
LARROW_1
 10
18.0
 20
-11.166667
 30
0.0
 41
16.0
 42
16.0
 43
16.0
  0
INSERT
  5
2E8
330
43A
100
AcDbEntity
  8
Level 46
  6
Continuous
 62
     7
370
     0
100
AcDbBlockReference
  2
LARROW_1
 10
8.0
 20
-11.166667
 30
0.0
 41
16.0
 42
16.0
 43
16.0
 50
180.0
  0
INSERT
  5
2EA
330
43A
100
AcDbEntity
  8
Level 46
  6
Continuous
 62
     7
370
     0
100
AcDbBlockReference
  2
LARROW_1
 10
18.0
 20
-11.833333
 30
0.0
 41
16.0
 42
16.0
 43
16.0
 50
180.0
  0
INSERT
  5
2EC
330
43A
100
AcDbEntity
  8
Level 46
  6
Continuous
 62
     7
370
     0
100
AcDbBlockReference
  2
LARROW_1
 10
18.0
 20
-11.833333
 30
0.0
 41
16.0
 42
16.0
 43
16.0
  0
INSERT
  5
2EE
330
43A
100
AcDbEntity
  8
Level 46
  6
Continuous
 62
     7
370
     0
100
AcDbBlockReference
  2
LARROW_1
 10
13.75
 20
-11.833333
 30
0.0
 41
16.0
 42
16.0
 43
16.0
 50
180.0
  0
INSERT
  5
2F0
330
43A
100
AcDbEntity
  8
Level 46
  6
Continuous
 62
     7
370
     0
100
AcDbBlockReference
  2
LARROW_1
 10
13.75
 20
-11.833333
 30
0.0
 41
16.0
 42
16.0
 43
16.0
  0
INSERT
  5
2F2
330
43A
100
AcDbEntity
  8
Level 46
  6
Continuous
 62
     7
370
     0
100
AcDbBlockReference
  2
LARROW_1
 10
13.25
 20
-11.833333
 30
0.0
 41
16.0
 42
16.0
 43
16.0
 50
180.0
  0
INSERT
  5
2F4
330
43A
100
AcDbEntity
  8
Level 46
  6
Continuous
 62
     7
370
     0
100
AcDbBlockReference
  2
LARROW_1
 10
28.0
 20
-11.166667
 30
0.0
 41
16.0
 42
16.0
 43
16.0
  0
INSERT
  5
2F6
330
43A
100
AcDbEntity
  8
Level 46
  6
Continuous
 62
     7
370
     0
100
AcDbBlockReference
  2
LARROW_1
 10
22.75
 20
-11.833333
 30
0.0
 41
16.0
 42
16.0
 43
16.0
  0
INSERT
  5
2F8
330
43A
100
AcDbEntity
  8
Level 46
  6
Continuous
 62
     7
370
     0
100
AcDbBlockReference
  2
LARROW_1
 10
22.25
 20
-11.833333
 30
0.0
 41
16.0
 42
16.0
 43
16.0
 50
180.0
  0
INSERT
  5
2FA
330
43A
100
AcDbEntity
  8
Level 46
  6
Continuous
 62
     7
370
     0
100
AcDbBlockReference
  2
LARROW_1
 10
22.25
 20
-11.833333
 30
0.0
 41
16.0
 42
16.0
 43
16.0
  0
LINE
  5
2FD
330
43A
100
AcDbEntity
  8
Level 46
  6
Continuous
 62
     7
370
     0
100
AcDbLine
 10
22.75
 20
-11.666667
 30
0.0
 11
22.75
 21
-13.833333
 31
0.0
  0
LINE
  5
2FE
330
43A
100
AcDbEntity
  8
Level 46
  6
Continuous
 62
     7
370
     0
100
AcDbLine
 10
13.25
 20
-11.666667
 30
0.0
 11
13.25
 21
-13.833333
 31
0.0
  0
LINE
  5
303
330
43A
100
AcDbEntity
  8
Level 46
  6
Continuous
 62
     7
370
     0
100
AcDbLine
 10
37.875031
 20
-16.875
 30
0.0
 11
37.875031
 21
-10.791667
 31
0.0
  0
LINE
  5
306
330
43A
100
AcDbEntity
  8
Level 10
  6
Continuous
 62
     7
370
    13
100
AcDbLine
 10
13.75
 20
-14.583333
 30
0.0
 11
22.25
 21
-14.583333
 31
0.0
  0
LWPOLYLINE
  5
307
330
43A
100
AcDbEntity
  8
Level 10
  6
Continuous
 62
     7
370
     0
100
AcDbPolyline
 90
        5
 70
   128
 43
0.0
 10
20.959531
 20
-14.391219
 10
21.215708
 20
-14.407885
 10
21.668802
 20
-14.455708
 10
21.941896
 20
-14.489854
 10
22.25
 20
-14.554469
  0
LWPOLYLINE
  5
308
330
43A
100
AcDbEntity
  8
Level 10
  6
Continuous
 62
     7
370
     0
100
AcDbPolyline
 90
        4
 70
   128
 43
0.0
 10
21.565188
 20
-14.583333
 10
21.407094
 20
-14.554344
 10
21.035396
 20
-14.512615
 10
20.523354
 20
-14.512615
  0
LWPOLYLINE
  5
309
330
43A
100
AcDbEntity
  8
Level 10
  6
Continuous
 62
     7
370
     0
100
AcDbPolyline
 90
        4
 70
   128
 43
0.0
 10
16.099812
 20
-14.430167
 10
16.698219
 20
-14.442437
 10
17.286115
 20
-14.408292
 10
17.74126
 20
-14.465198
  0
LWPOLYLINE
  5
30A
330
43A
100
AcDbEntity
  8
Level 10
  6
Continuous
 62
     7
370
     0
100
AcDbPolyline
 90
        3
 70
   128
 43
0.0
 10
14.973927
 20
-14.469677
 10
15.99274
 20
-14.55624
 10
16.538635
 20
-14.583333
  0
LWPOLYLINE
  5
30B
330
43A
100
AcDbEntity
  8
Level 10
  6
Continuous
 62
     7
370
     0
100
AcDbPolyline
 90
        3
 70
   128
 43
0.0
 10
13.76251
 20
-14.537271
 10
14.149385
 20
-14.548656
 10
14.453698
 20
-14.583333
  0
LINE
  5
30C
330
43A
100
AcDbEntity
  8
Level 46
  6
Continuous
 62
     7
370
     0
100
AcDbLine
 10
22.75
 20
-23.083333
 30
0.0
 11
22.75
 21
-25.333333
 31
0.0
  0
LINE
  5
30D
330
43A
100
AcDbEntity
  8
Level 46
  6
Continuous
 62
     7
370
     0
100
AcDbLine
 10
13.25
 20
-23.083333
 30
0.0
 11
13.25
 21
-25.333333
 31
0.0
  0
LINE
  5
311
330
43A
100
AcDbEntity
  8
Level 46
  6
Continuous
 62
     7
370
     0
100
AcDbLine
 10
8.0
 20
-26.749979
 30
0.0
 11
8.0
 21
-22.333333
 31
0.0
  0
LINE
  5
312
330
43A
100
AcDbEntity
  8
Level 46
  6
Continuous
 62
     7
370
     0
100
AcDbLine
 10
28.0
 20
-26.74999
 30
0.0
 11
28.0
 21
-22.333333
 31
0.0
  0
LINE
  5
313
330
43A
100
AcDbEntity
  8
Level 10
  6
Continuous
 62
     7
370
    13
100
AcDbLine
 10
28.0
 20
-26.916656
 30
0.0
 11
33.387979
 21
-28.712646
 31
0.0
  0
LINE
  5
314
330
43A
100
AcDbEntity
  8
Level 46
  6
Continuous
 62
     7
370
     0
100
AcDbLine
 10
29.333604
 20
-27.262062
 30
0.0
 11
30.583604
 21
-27.262062
 31
0.0
  0
LINE
  5
315
330
43A
100
AcDbEntity
  8
Level 46
  6
Continuous
 62
     7
370
     0
100
AcDbLine
 10
30.583604
 20
-27.262062
 30
0.0
 11
30.583604
 21
-27.678729
 31
0.0
  0
LINE
  5
318
330
43A
100
AcDbEntity
  8
Level 10
  6
Continuous
 62
     7
370
    13
100
AcDbLine
 10
33.387979
 20
-28.712646
 30
0.0
 11
39.387979
 21
-28.712646
 31
0.0
  0
LINE
  5
319
330
43A
100
AcDbEntity
  8
Level 46
  6
Continuous
 62
     7
370
     0
100
AcDbLine
 10
33.387979
 20
-28.545979
 30
0.0
 11
33.387979
 21
-22.333333
 31
0.0
  0
LINE
  5
31A
330
43A
100
AcDbEntity
  8
Level 10
  6
Continuous
 62
     7
370
    13
100
AcDbLine
 10
41.9125
 20
-27.871125
 30
0.0
 11
39.387979
 21
-28.712646
 31
0.0
  0
LINE
  5
31B
330
43A
100
AcDbEntity
  8
Level 46
  6
Continuous
 62
     7
370
     0
100
AcDbLine
 10
39.797854
 20
-27.977594
 30
0.0
 11
41.047854
 21
-27.977594
 31
0.0
  0
LINE
  5
31C
330
43A
100
AcDbEntity
  8
Level 46
  6
Continuous
 62
     7
370
     0
100
AcDbLine
 10
39.797854
 20
-27.977594
 30
0.0
 11
39.797854
 21
-28.39426
 31
0.0
  0
INSERT
  5
31F
330
43A
100
AcDbEntity
  8
Level 46
  6
Continuous
 62
     7
370
     0
100
AcDbBlockReference
  2
LARROW_1
 10
39.387979
 20
-22.666667
 30
0.0
 41
16.000028
 42
16.000028
 43
16.000028
  0
INSERT
  5
321
330
43A
100
AcDbEntity
  8
Level 46
  6
Continuous
 62
     7
370
     0
100
AcDbBlockReference
  2
LARROW
 10
33.387979
 20
-22.666667
 30
0.0
 41
16.000028
 42
16.000028
 43
16.000028
 50
180.0
  0
LINE
  5
32D
330
43A
100
AcDbEntity
  8
Level 46
  6
Continuous
 62
     7
370
     0
100
AcDbLine
 10
39.387979
 20
-28.545979
 30
0.0
 11
39.387979
 21
-22.333333
 31
0.0
  0
LINE
  5
32F
330
43A
100
AcDbEntity
  8
Level 46
  6
Continuous
 62
     7
370
     0
100
AcDbLine
 10
33.387979
 20
-22.666667
 30
0.0
 11
39.387979
 21
-22.666667
 31
0.0
  0
TEXT
  5
AE
330
43A
100
AcDbEntity
  8
Level 46
  6
Continuous
 62
     7
370
    13
100
AcDbText
 10
17.958219
 20
-10.823646
 30
0.0
 40
0.166302
  1
L
  7
Style-Arial
 11
17.958219
 21
-10.657344
 31
0.0
100
AcDbText
 73
     3
  0
TEXT
  5
AF
330
43A
100
AcDbEntity
  8
Level 46
  6
Continuous
 62
     7
370
    13
100
AcDbText
 10
17.917656
 20
-10.765302
 30
0.0
 40
0.166302
  1
C
  7
Style-Arial
 11
17.917656
 21
-10.599
 31
0.0
100
AcDbText
 73
     3
  0
TEXT
  5
B0
330
43A
100
AcDbEntity
  8
Level 46
  6
Continuous
 62
     7
370
    13
100
AcDbText
 10
18.497833
 20
-15.18649
 30
0.0
 40
0.166302
  1
12"(MIN.) BALLAST
  7
Style-Arial
 11
18.497833
 21
-15.020188
 31
0.0
100
AcDbText
 73
     3
  0
TEXT
  5
C0
330
43A
100
AcDbEntity
  8
Level 46
  6
Continuous
 62
     7
370
    13
100
AcDbText
 10
18.506635
 20
-16.151492
 30
0.0
 40
0.166302
  1
12" COMPACTED SUBGRADE (95%)
  7
Style-Arial
 11
18.506635
 21
-15.98519
 31
0.0
100
AcDbText
 73
     3
  0
TEXT
  5
C4
330
43A
100
AcDbEntity
  8
Level 46
  6
Continuous
 62
     7
370
    13
100
AcDbText
 10
14.133269
 20
-12.946161
 30
0.0
 40
0.166302
  1
RAIL
  7
Style-Arial
 11
14.133269
 21
-12.779859
 31
0.0
100
AcDbText
 73
     3
  0
TEXT
  5
C5
330
43A
100
AcDbEntity
  8
Level 46
  6
Continuous
 62
     7
370
    13
100
AcDbText
 10
25.184437
 20
-14.866833
 30
0.0
 40
0.166302
  1
1
  7
Style-Arial
 11
25.184437
 21
-14.700531
 31
0.0
100
AcDbText
 73
     3
  0
TEXT
  5
C6
330
43A
100
AcDbEntity
  8
Level 46
  6
Continuous
 62
     7
370
    13
100
AcDbText
 10
10.760458
 20
-14.854958
 30
0.0
 40
0.166302
  1
1
  7
Style-Arial
 11
10.760458
 21
-14.688656
 31
0.0
100
AcDbText
 73
     3
  0
TEXT
  5
C7
330
43A
100
AcDbEntity
  8
Level 46
  6
Continuous
 62
     7
370
    13
100
AcDbText
 10
24.677646
 20
-14.455744
 30
0.0
 40
0.166302
  1
2
  7
Style-Arial
 11
24.677646
 21
-14.289442
 31
0.0
100
AcDbText
 73
     3
  0
TEXT
  5
C8
330
43A
100
AcDbEntity
  8
Level 46
  6
Continuous
 62
     7
370
    13
100
AcDbText
 10
11.226338
 20
-14.457818
 30
0.0
 40
0.166302
  1
2
  7
Style-Arial
 11
11.226338
 21
-14.291516
 31
0.0
100
AcDbText
 73
     3
  0
TEXT
  5
EA
330
43A
100
AcDbEntity
  8
Level 46
  6
Continuous
 62
     7
370
    13
100
AcDbText
 10
12.206004
 20
-15.588796
 30
0.0
 40
0.166302
  1
2%
 50
0.954375
  7
Style-Arial
 11
12.203234
 21
-15.422517
 31
0.0
100
AcDbText
 73
     3
  0
TEXT
  5
EB
330
43A
100
AcDbEntity
  8
Level 46
  6
Continuous
 62
     7
370
    13
100
AcDbText
 10
23.518314
 20
-15.540534
 30
0.0
 40
0.166302
  1
2%
 50
359.046214
  7
Style-Arial
 11
23.521082
 21
-15.374255
 31
0.0
100
AcDbText
 73
     3
  0
TEXT
  5
EE
330
43A
100
AcDbEntity
  8
Level 46
  6
Continuous
 62
     7
370
    13
100
AcDbText
 10
30.673281
 20
-16.475812
 30
0.0
 40
0.166302
  1
1
  7
Style-Arial
 11
30.673281
 21
-16.30951
 31
0.0
100
AcDbText
 73
     3
  0
TEXT
  5
EF
330
43A
100
AcDbEntity
  8
Level 46
  6
Continuous
 62
     7
370
    13
100
AcDbText
 10
29.894823
 20
-16.023547
 30
0.0
 40
0.166302
  1
3
  7
Style-Arial
 11
29.894823
 21
-15.857245
 31
0.0
100
AcDbText
 73
     3
  0
TEXT
  5
F2
330
43A
100
AcDbEntity
  8
Level 46
  6
Continuous
 62
     7
370
    13
100
AcDbText
 10
6.01376
 20
-16.031932
 30
0.0
 40
0.166302
  1
3
  7
Style-Arial
 11
6.01376
 21
-15.86563
 31
0.0
100
AcDbText
 73
     3
  0
TEXT
  5
F3
330
43A
100
AcDbEntity
  8
Level 46
  6
Continuous
 62
     7
370
    13
100
AcDbText
 10
5.286052
 20
-16.44676
 30
0.0
 40
0.166302
  1
1
  7
Style-Arial
 11
5.286052
 21
-16.280458
 31
0.0
100
AcDbText
 73
     3
  0
TEXT
  5
109
330
43A
100
AcDbEntity
  8
Level 46
  6
Continuous
 62
     7
370
    13
100
AcDbText
 10
20.073072
 20
-11.788088
 30
0.0
 40
0.166302
  1
4'-3"
  7
Style-Arial
 11
20.073072
 21
-11.621786
 31
0.0
100
AcDbText
 73
     3
  0
TEXT
  5
10A
330
43A
100
AcDbEntity
  8
Level 46
  6
Continuous
 62
     7
370
    13
100
AcDbText
 10
15.720125
 20
-11.78433
 30
0.0
 40
0.166302
  1
4'-3"
  7
Style-Arial
 11
15.720125
 21
-11.618028
 31
0.0
100
AcDbText
 73
     3
  0
TEXT
  5
1EB
330
43A
100
AcDbEntity
  8
Level 46
  6
Continuous
 62
     7
370
    13
100
AcDbText
 10
18.519073
 20
-14.335323
 30
0.0
 40
0.166302
  1
7" THICK WOOD TIE
  7
Style-Arial
 11
18.519073
 21
-14.169021
 31
0.0
100
AcDbText
 73
     3
  0
TEXT
  5
1ED
330
43A
100
AcDbEntity
  8
Level 46
  6
Continuous
 62
     7
370
    13
100
AcDbText
 10
23.092136
 20
-11.079155
 30
0.0
 40
0.166302
  1
10'-0"
  7
Style-Arial
 11
23.092136
 21
-10.912853
 31
0.0
100
AcDbText
 73
     3
  0
TEXT
  5
1F4
330
43A
100
AcDbEntity
  8
Level 46
  6
Continuous
 62
     7
370
    13
100
AcDbText
 10
38.87074
 20
-16.239371
 30
0.0
 40
0.166302
  1
3
  7
Style-Arial
 11
38.87074
 21
-16.073068
 31
0.0
100
AcDbText
 73
     3
  0
TEXT
  5
1F5
330
43A
100
AcDbEntity
  8
Level 46
  6
Continuous
 62
     7
370
    13
100
AcDbText
 10
38.143031
 20
-16.662885
 30
0.0
 40
0.166302
  1
1
  7
Style-Arial
 11
38.143031
 21
-16.496583
 31
0.0
100
AcDbText
 73
     3
  0
TEXT
  5
205
330
43A
100
AcDbEntity
  8
Level 46
  6
Continuous
 62
     7
370
    13
100
AcDbText
 10
12.673708
 20
-11.091992
 30
0.0
 40
0.166302
  1
10'-0"
  7
Style-Arial
 11
12.673708
 21
-10.92569
 31
0.0
100
AcDbText
 73
     3
  0
TEXT
  5
206
330
43A
100
AcDbEntity
  8
Level 46
  6
Continuous
 62
     7
370
    13
100
AcDbText
 10
34.786727
 20
-11.038929
 30
0.0
 40
0.166302
  1
6'-0"
  7
Style-Arial
 11
34.786727
 21
-10.872627
 31
0.0
100
AcDbText
 73
     3
  0
MTEXT
  5
2FC
330
43A
100
AcDbEntity
  8
Level 46
  6
Continuous
 62
     7
370
    13
100
AcDbMText
 10
17.028439
 20
-12.283445
 30
0.0
 40
0.166302
 41
0.0
 71
     1
 72
     1
  1
4'-8{\A0;\S1#2;}" RAIL GAUGE
  7
Style-Arial
 73
     2
 44
1.387603
  0
TEXT
  5
2FF
330
43A
100
AcDbEntity
  8
Level 46
  6
Continuous
 62
     7
370
    13
100
AcDbText
 10
22.419375
 20
-11.747589
 30
0.0
 40
0.166302
  1
6"
  7
Style-Arial
 11
22.419375
 21
-11.581287
 31
0.0
100
AcDbText
 73
     3
  0
TEXT
  5
300
330
43A
100
AcDbEntity
  8
Level 46
  6
Continuous
 62
     7
370
    13
100
AcDbText
 10
22.280448
 20
-12.147615
 30
0.0
 40
0.166302
  1
MIN.
  7
Style-Arial
 11
22.280448
 21
-11.981312
 31
0.0
100
AcDbText
 73
     3
  0
TEXT
  5
301
330
43A
100
AcDbEntity
  8
Level 46
  6
Continuous
 62
     7
370
    13
100
AcDbText
 10
13.444167
 20
-11.736823
 30
0.0
 40
0.166302
  1
6"
  7
Style-Arial
 11
13.444167
 21
-11.570521
 31
0.0
100
AcDbText
 73
     3
  0
TEXT
  5
302
330
43A
100
AcDbEntity
  8
Level 46
  6
Continuous
 62
     7
370
    13
100
AcDbText
 10
13.285219
 20
-12.147615
 30
0.0
 40
0.166302
  1
MIN.
  7
Style-Arial
 11
13.285219
 21
-11.981312
 31
0.0
100
AcDbText
 73
     3
  0
TEXT
  5
162
330
43A
100
AcDbEntity
  8
Level 46
  6
Continuous
 62
     7
370
    13
100
AcDbText
 10
17.953125
 20
-22.344031
 30
0.0
 40
0.166302
  1
L
  7
Style-Arial
 11
17.953125
 21
-22.177729
 31
0.0
100
AcDbText
 73
     3
  0
TEXT
  5
163
330
43A
100
AcDbEntity
  8
Level 46
  6
Continuous
 62
     7
370
    13
100
AcDbText
 10
17.892187
 20
-22.285698
 30
0.0
 40
0.166302
  1
C
  7
Style-Arial
 11
17.892187
 21
-22.119396
 31
0.0
100
AcDbText
 73
     3
  0
MTEXT
  5
164
330
43A
100
AcDbEntity
  8
Level 46
  6
Continuous
 62
     7
370
    13
100
AcDbMText
 10
17.006516
 20
-23.780527
 30
0.0
 40
0.166302
 41
0.0
 71
     1
 72
     1
  1
4'-8{\A0;\S1#2;}" RAIL GAUGE
  7
Style-Arial
 73
     2
 44
1.387603
  0
TEXT
  5
165
330
43A
100
AcDbEntity
  8
Level 46
  6
Continuous
 62
     7
370
    13
100
AcDbText
 10
18.466557
 20
-25.84607
 30
0.0
 40
0.166302
  1
7" THICK WOOD TIE
  7
Style-Arial
 11
18.466557
 21
-25.679768
 31
0.0
100
AcDbText
 73
     3
  0
TEXT
  5
18E
330
43A
100
AcDbEntity
  8
Level 46
  6
Continuous
 62
     7
370
    13
100
AcDbText
 10
18.506635
 20
-27.83052
 30
0.0
 40
0.166302
  1
12" COMPACTED SUBGRADE (95%)
  7
Style-Arial
 11
18.506635
 21
-27.664218
 31
0.0
100
AcDbText
 73
     3
  0
TEXT
  5
193
330
43A
100
AcDbEntity
  8
Level 46
  6
Continuous
 62
     7
370
    13
100
AcDbText
 10
14.0505
 20
-24.466099
 30
0.0
 40
0.166302
  1
RAIL
  7
Style-Arial
 11
14.0505
 21
-24.299797
 31
0.0
100
AcDbText
 73
     3
  0
TEXT
  5
194
330
43A
100
AcDbEntity
  8
Level 46
  6
Continuous
 62
     7
370
    13
100
AcDbText
 10
25.217927
 20
-26.400333
 30
0.0
 40
0.166302
  1
1
  7
Style-Arial
 11
25.217927
 21
-26.234031
 31
0.0
100
AcDbText
 73
     3
  0
TEXT
  5
195
330
43A
100
AcDbEntity
  8
Level 46
  6
Continuous
 62
     7
370
    13
100
AcDbText
 10
10.760458
 20
-26.354958
 30
0.0
 40
0.166302
  1
1
  7
Style-Arial
 11
10.760458
 21
-26.188656
 31
0.0
100
AcDbText
 73
     3
  0
TEXT
  5
196
330
43A
100
AcDbEntity
  8
Level 46
  6
Continuous
 62
     7
370
    13
100
AcDbText
 10
24.64975
 20
-25.887568
 30
0.0
 40
0.166302
  1
2
  7
Style-Arial
 11
24.64975
 21
-25.721266
 31
0.0
100
AcDbText
 73
     3
  0
TEXT
  5
197
330
43A
100
AcDbEntity
  8
Level 46
  6
Continuous
 62
     7
370
    13
100
AcDbText
 10
11.290177
 20
-25.947453
 30
0.0
 40
0.166302
  1
2
  7
Style-Arial
 11
11.290177
 21
-25.781151
 31
0.0
100
AcDbText
 73
     3
  0
TEXT
  5
1BA
330
43A
100
AcDbEntity
  8
Level 46
  6
Continuous
 62
     7
370
    13
100
AcDbText
 10
12.608073
 20
-26.628941
 30
0.0
 40
0.166302
  1
2%
 50
0.954375
  7
Style-Arial
 11
12.605303
 21
-26.462662
 31
0.0
100
AcDbText
 73
     3
  0
TEXT
  5
1BB
330
43A
100
AcDbEntity
  8
Level 46
  6
Continuous
 62
     7
370
    13
100
AcDbText
 10
22.966918
 20
-26.708008
 30
0.0
 40
0.166302
  1
2%
 50
359.046214
  7
Style-Arial
 11
22.969686
 21
-26.541729
 31
0.0
100
AcDbText
 73
     3
  0
TEXT
  5
1BE
330
43A
100
AcDbEntity
  8
Level 46
  6
Continuous
 62
     7
370
    13
100
AcDbText
 10
6.01376
 20
-27.171478
 30
0.0
 40
0.166302
  1
3
  7
Style-Arial
 11
6.01376
 21
-27.005176
 31
0.0
100
AcDbText
 73
     3
  0
TEXT
  5
1BF
330
43A
100
AcDbEntity
  8
Level 46
  6
Continuous
 62
     7
370
    13
100
AcDbText
 10
5.286052
 20
-27.613417
 30
0.0
 40
0.166302
  1
1
  7
Style-Arial
 11
5.286052
 21
-27.447115
 31
0.0
100
AcDbText
 73
     3
  0
TEXT
  5
1DA
330
43A
100
AcDbEntity
  8
Level 46
  6
Continuous
 62
     7
370
    13
100
AcDbText
 10
18.512115
 20
-27.0921
 30
0.0
 40
0.166302
  1
6" SUBBALLAST
  7
Style-Arial
 11
18.512115
 21
-26.925798
 31
0.0
100
AcDbText
 73
     3
  0
TEXT
  5
1E2
330
43A
100
AcDbEntity
  8
Level 46
  6
Continuous
 62
     7
370
    13
100
AcDbText
 10
20.147958
 20
-23.271846
 30
0.0
 40
0.166302
  1
4'-3"
  7
Style-Arial
 11
20.147958
 21
-23.105544
 31
0.0
100
AcDbText
 73
     3
  0
TEXT
  5
1E3
330
43A
100
AcDbEntity
  8
Level 46
  6
Continuous
 62
     7
370
    13
100
AcDbText
 10
15.498479
 20
-23.279489
 30
0.0
 40
0.166302
  1
4'-3"
  7
Style-Arial
 11
15.498479
 21
-23.113187
 31
0.0
100
AcDbText
 73
     3
  0
TEXT
  5
304
330
43A
100
AcDbEntity
  8
Level 46
  6
Continuous
 62
     7
370
    13
100
AcDbText
 10
22.28851
 20
-23.630292
 30
0.0
 40
0.166302
  1
MIN.
  7
Style-Arial
 11
22.28851
 21
-23.46399
 31
0.0
100
AcDbText
 73
     3
  0
TEXT
  5
305
330
43A
100
AcDbEntity
  8
Level 46
  6
Continuous
 62
     7
370
    13
100
AcDbText
 10
22.440812
 20
-23.252172
 30
0.0
 40
0.166302
  1
6"
  7
Style-Arial
 11
22.440812
 21
-23.08587
 31
0.0
100
AcDbText
 73
     3
  0
TEXT
  5
30E
330
43A
100
AcDbEntity
  8
Level 46
  6
Continuous
 62
     7
370
    13
100
AcDbText
 10
13.432677
 20
-23.280236
 30
0.0
 40
0.166302
  1
6"
  7
Style-Arial
 11
13.432677
 21
-23.113934
 31
0.0
100
AcDbText
 73
     3
  0
TEXT
  5
30F
330
43A
100
AcDbEntity
  8
Level 46
  6
Continuous
 62
     7
370
    13
100
AcDbText
 10
13.280375
 20
-23.641667
 30
0.0
 40
0.166302
  1
MIN.
  7
Style-Arial
 11
13.280375
 21
-23.475365
 31
0.0
100
AcDbText
 73
     3
  0
TEXT
  5
310
330
43A
100
AcDbEntity
  8
Level 46
  6
Continuous
 62
     7
370
    13
100
AcDbText
 10
18.49025
 20
-26.516809
 30
0.0
 40
0.166302
  1
8"(MIN.) BALLAST
  7
Style-Arial
 11
18.49025
 21
-26.350507
 31
0.0
100
AcDbText
 73
     3
  0
TEXT
  5
316
330
43A
100
AcDbEntity
  8
Level 46
  6
Continuous
 62
     7
370
    13
100
AcDbText
 10
30.673281
 20
-27.642479
 30
0.0
 40
0.166302
  1
1
  7
Style-Arial
 11
30.673281
 21
-27.476177
 31
0.0
100
AcDbText
 73
     3
  0
TEXT
  5
317
330
43A
100
AcDbEntity
  8
Level 46
  6
Continuous
 62
     7
370
    13
100
AcDbText
 10
29.894823
 20
-27.182025
 30
0.0
 40
0.166302
  1
3
  7
Style-Arial
 11
29.894823
 21
-27.015723
 31
0.0
100
AcDbText
 73
     3
  0
TEXT
  5
31D
330
43A
100
AcDbEntity
  8
Level 46
  6
Continuous
 62
     7
370
    13
100
AcDbText
 10
40.334582
 20
-27.90762
 30
0.0
 40
0.166302
  1
3
  7
Style-Arial
 11
40.334582
 21
-27.741318
 31
0.0
100
AcDbText
 73
     3
  0
TEXT
  5
31E
330
43A
100
AcDbEntity
  8
Level 46
  6
Continuous
 62
     7
370
    13
100
AcDbText
 10
39.655979
 20
-28.333865
 30
0.0
 40
0.166302
  1
1
  7
Style-Arial
 11
39.655979
 21
-28.167562
 31
0.0
100
AcDbText
 73
     3
  0
TEXT
  5
32C
330
43A
100
AcDbEntity
  8
Level 46
  6
Continuous
 62
     7
370
    13
100
AcDbText
 10
36.176401
 20
-22.606409
 30
0.0
 40
0.166302
  1
6'-0"
  7
Style-Arial
 11
36.176401
 21
-22.440107
 31
0.0
100
AcDbText
 73
     3
  0
TEXT
  5
32E
330
43A
100
AcDbEntity
  8
Level 46
  6
Continuous
 62
     7
370
    13
100
AcDbText
 10
22.804125
 20
-22.591191
 30
0.0
 40
0.166302
  1
10'-0"
  7
Style-Arial
 11
22.804125
 21
-22.424889
 31
0.0
100
AcDbText
 73
     3
  0
TEXT
  5
330
330
43A
100
AcDbEntity
  8
Level 46
  6
Continuous
 62
     7
370
    13
100
AcDbText
 10
12.608562
 20
-22.593682
 30
0.0
 40
0.166302
  1
10'-0"
  7
Style-Arial
 11
12.608562
 21
-22.42738
 31
0.0
100
AcDbText
 73
     3
  0
TEXT
  5
D1
330
43A
100
AcDbEntity
  8
Level 46
  6
Continuous
 62
     7
370
    13
100
AcDbText
 10
18.021729
 20
-18.877802
 30
0.0
 40
0.166302
  1
NO SCALE
  7
Style-Arial
 11
18.021729
 21
-18.7115
 31
0.0
100
AcDbText
 73
     3
  0
TEXT
  5
1A1
330
43A
100
AcDbEntity
  8
Level 46
  6
Continuous
 62
     7
370
    13
100
AcDbText
 10
18.021729
 20
-30.377802
 30
0.0
 40
0.166302
  1
NO SCALE
  7
Style-Arial
 11
18.021729
 21
-30.2115
 31
0.0
100
AcDbText
 73
     3
  0
TEXT
  5
332
330
43A
100
AcDbEntity
  8
Level 46
  6
Continuous
 62
     7
370
    53
100
AcDbText
 10
11.730401
 20
-18.295397
 30
0.0
 40
0.332604
  1
TYPICAL RAILROAD TRACK SECTION W/O SUBBALLAST
  7
Style-Arial
 11
11.730401
 21
-17.962792
 31
0.0
100
AcDbText
 73
     3
  0
TEXT
  5
333
330
43A
100
AcDbEntity
  8
Level 46
  6
Continuous
 62
     7
370
    53
100
AcDbText
 10
12.033996
 20
-29.817646
 30
0.0
 40
0.332604
  1
TYPICAL RAILROAD TRACK SECTION W/SUBBALLAST
  7
Style-Arial
 11
12.033996
 21
-29.485042
 31
0.0
100
AcDbText
 73
     3
  0
TEXT
  5
2A3
330
43A
100
AcDbEntity
  8
Level 2
  6
Continuous
 62
     7
370
    53
100
AcDbText
 10
41.679243
 20
-41.641469
 30
0.0
 40
0.332604
  1
TYPICAL RAILROAD TRACK
  7
Style-Arial
 11
41.679243
 21
-41.308865
 31
0.0
100
AcDbText
 73
     3
  0
TEXT
  5
2A4
330
43A
100
AcDbEntity
  8
Level 2
  6
Continuous
 62
     7
370
    53
100
AcDbText
 10
43.657732
 20
-42.151048
 30
0.0
 40
0.332604
  1
SECTIONS
  7
Style-Arial
 11
43.657732
 21
-41.818443
 31
0.0
100
AcDbText
 73
     3
  0
TEXT
  5
331
330
43A
100
AcDbEntity
  8
Level 1
  6
Continuous
 62
     7
370
    30
100
AcDbText
 10
45.192661
 20
-42.780948
 30
0.0
 40
0.166302
  1
DECEMBER 1997
  7
Style-Arial
 11
45.192661
 21
-42.614646
 31
0.0
100
AcDbText
 73
     3
  0
TEXT
  5
2A5
330
43A
100
AcDbEntity
  8
Level 2
  6
Continuous
 62
     7
370
    40
100
AcDbText
 10
47.367276
 20
-43.585578
 30
0.0
 40
0.332604
  1
C1.01
  7
Style-Arial
 11
47.367276
 21
-43.252974
 31
0.0
100
AcDbText
 73
     3
  0
TEXT
  5
2A6
330
43A
100
AcDbEntity
  8
Level 2
  6
Continuous
 62
     7
370
    30
100
AcDbText
 10
42.865306
 20
-42.517023
 30
0.0
 40
0.166302
  1
4:3
  7
Style-Arial
 11
42.865306
 21
-42.35072
 31
0.0
100
AcDbText
 73
     3
  0
TEXT
  5
334
330
43A
100
AcDbEntity
  8
Level 2
  6
Continuous
 62
     7
370
    30
100
AcDbText
 10
42.368087
 20
-42.806523
 30
0.0
 40
0.166302
  1
C101.DGN
  7
Style-Arial
 11
42.368087
 21
-42.64022
 31
0.0
100
AcDbText
 73
     3
  0
TEXT
  5
259
330
43A
100
AcDbEntity
  8
Level 1
  6
Continuous
 62
     7
370
    30
100
AcDbText
 10
47.389458
 20
-42.512693
 30
0.0
 40
0.166302
  1
Sheet
  7
Style-Arial
 11
47.389458
 21
-42.346391
 31
0.0
100
AcDbText
 73
     3
  0
TEXT
  5
25A
330
43A
100
AcDbEntity
  8
Level 1
  6
Continuous
 62
     7
370
    30
100
AcDbText
 10
47.384958
 20
-42.69758
 30
0.0
 40
0.166302
  1
reference
  7
Style-Arial
 11
47.384958
 21
-42.531277
 31
0.0
100
AcDbText
 73
     3
  0
TEXT
  5
25B
330
43A
100
AcDbEntity
  8
Level 1
  6
Continuous
 62
     7
370
    30
100
AcDbText
 10
47.380625
 20
-42.888295
 30
0.0
 40
0.166302
  1
number:
  7
Style-Arial
 11
47.380625
 21
-42.721993
 31
0.0
100
AcDbText
 73
     3
  0
TEXT
  5
25C
330
43A
100
AcDbEntity
  8
Level 1
  6
Continuous
 62
     7
370
    30
100
AcDbText
 10
45.119792
 20
-42.525799
 30
0.0
 40
0.166302
  1
Date:
  7
Style-Arial
 11
45.119792
 21
-42.359497
 31
0.0
100
AcDbText
 73
     3
  0
TEXT
  5
25D
330
43A
100
AcDbEntity
  8
Level 1
  6
Continuous
 62
     7
370
    30
100
AcDbText
 10
44.217786
 20
-43.106917
 30
0.0
 40
0.166302
  1
Drawing Code:
  7
Style-Arial
 11
44.217786
 21
-42.940615
 31
0.0
100
AcDbText
 73
     3
  0
TEXT
  5
257
330
43A
100
AcDbEntity
  8
Level 1
  6
Continuous
 62
     7
370
    30
100
AcDbText
 10
41.055792
 20
-42.526742
 30
0.0
 40
0.166302
  1
Plot Scale Ratio:
  7
Style-Arial
 11
41.055792
 21
-42.36044
 31
0.0
100
AcDbText
 73
     3
  0
TEXT
  5
258
330
43A
100
AcDbEntity
  8
Level 1
  6
Continuous
 62
     7
370
    30
100
AcDbText
 10
41.061292
 20
-42.820852
 30
0.0
 40
0.166302
  1
Design File:
  7
Style-Arial
 11
41.061292
 21
-42.65455
 31
0.0
100
AcDbText
 73
     3
  0
TEXT
  5
255
330
43A
100
AcDbEntity
  8
Level 1
  6
Continuous
 62
     7
370
    30
100
AcDbText
 10
41.071792
 20
-43.10397
 30
0.0
 40
0.166302
  1
Spec. No.:
  7
Style-Arial
 11
41.071792
 21
-42.937668
 31
0.0
100
AcDbText
 73
     3
  0
TEXT
  5
285
330
43A
100
AcDbEntity
  8
Level 1
  6
Continuous
 62
     7
370
    30
100
AcDbText
 10
41.075625
 20
-43.366519
 30
0.0
 40
0.166302
  1
DACA 45
  7
Style-Arial
 11
41.075625
 21
-43.200217
 31
0.0
100
AcDbText
 73
     3
  0
TEXT
  5
256
330
43A
100
AcDbEntity
  8
Level 1
  6
Continuous
 62
     7
370
    30
100
AcDbText
 10
41.062292
 20
-43.661966
 30
0.0
 40
0.166302
  1
Contract No.:
  7
Style-Arial
 11
41.062292
 21
-43.495664
 31
0.0
100
AcDbText
 73
     3
  0
TEXT
  5
286
330
43A
100
AcDbEntity
  8
Level 1
  6
Continuous
 62
     7
370
    30
100
AcDbText
 10
41.065958
 20
-43.896462
 30
0.0
 40
0.166302
  1
DACA 45
  7
Style-Arial
 11
41.065958
 21
-43.73016
 31
0.0
100
AcDbText
 73
     3
  0
TEXT
  5
254
330
43A
100
AcDbEntity
  8
Level 1
  6
Continuous
 62
     7
370
    30
100
AcDbText
 10
40.095776
 20
-43.895962
 30
0.0
 40
0.166302
  1
Section
  7
Style-Arial
 11
40.095776
 21
-43.72966
 31
0.0
100
AcDbText
 73
     3
  0
TEXT
  5
253
330
43A
100
AcDbEntity
  8
Level 1
  6
Continuous
 62
     7
370
    30
100
AcDbText
 10
38.126792
 20
-43.910015
 30
0.0
 40
0.166302
  1
Chief:
  7
Style-Arial
 11
38.126792
 21
-43.743713
 31
0.0
100
AcDbText
 73
     3
  0
TEXT
  5
336
330
43A
100
AcDbEntity
  8
Level 2
  6
Continuous
 62
     7
370
    13
100
AcDbText
 10
39.393166
 20
-43.903132
 30
0.0
 40
0.166302
  1
X
  7
Style-Arial
 11
39.393166
 21
-43.73683
 31
0.0
100
AcDbText
 73
     3
  0
TEXT
  5
252
330
43A
100
AcDbEntity
  8
Level 1
  6
Continuous
 62
     7
370
    30
100
AcDbText
 10
38.191318
 20
-43.345636
 30
0.0
 40
0.166302
  1
Submitted by:
  7
Style-Arial
 11
38.191318
 21
-43.179334
 31
0.0
100
AcDbText
 73
     3
  0
TEXT
  5
24E
330
43A
100
AcDbEntity
  8
Level 1
  6
Continuous
 62
     7
370
    30
100
AcDbText
 10
38.113625
 20
-40.047667
 30
0.0
 40
0.166302
  1
Designed by:
  7
Style-Arial
 11
38.113625
 21
-39.881365
 31
0.0
100
AcDbText
 73
     3
  0
TEXT
  5
25E
330
43A
100
AcDbEntity
  8
Level 2
  6
Continuous
 62
     7
370
    30
100
AcDbText
 10
39.775205
 20
-40.479667
 30
0.0
 40
0.166302
  1
X
  7
Style-Arial
 11
39.775205
 21
-40.313365
 31
0.0
100
AcDbText
 73
     3
  0
TEXT
  5
24F
330
43A
100
AcDbEntity
  8
Level 1
  6
Continuous
 62
     7
370
    30
100
AcDbText
 10
38.135625
 20
-40.852108
 30
0.0
 40
0.166302
  1
Drawn by:
  7
Style-Arial
 11
38.135625
 21
-40.685806
 31
0.0
100
AcDbText
 73
     3
  0
TEXT
  5
335
330
43A
100
AcDbEntity
  8
Level 2
  6
Continuous
 62
     7
370
    30
100
AcDbText
 10
39.779538
 20
-41.317167
 30
0.0
 40
0.166302
  1
X
  7
Style-Arial
 11
39.779538
 21
-41.150865
 31
0.0
100
AcDbText
 73
     3
  0
TEXT
  5
250
330
43A
100
AcDbEntity
  8
Level 1
  6
Continuous
 62
     7
370
    30
100
AcDbText
 10
38.144292
 20
-41.707106
 30
0.0
 40
0.166302
  1
Checked by:
  7
Style-Arial
 11
38.144292
 21
-41.540804
 31
0.0
100
AcDbText
 73
     3
  0
TEXT
  5
25F
330
43A
100
AcDbEntity
  8
Level 2
  6
Continuous
 62
     7
370
    30
100
AcDbText
 10
39.779538
 20
-42.150333
 30
0.0
 40
0.166302
  1
X
  7
Style-Arial
 11
39.779538
 21
-41.984031
 31
0.0
100
AcDbText
 73
     3
  0
TEXT
  5
251
330
43A
100
AcDbEntity
  8
Level 1
  6
Continuous
 62
     7
370
    30
100
AcDbText
 10
38.144292
 20
-42.519697
 30
0.0
 40
0.166302
  1
Reviewed by:
  7
Style-Arial
 11
38.144292
 21
-42.353395
 31
0.0
100
AcDbText
 73
     3
  0
TEXT
  5
2A7
330
43A
100
AcDbEntity
  8
Level 2
  6
Continuous
 62
     7
370
    30
100
AcDbText
 10
39.779538
 20
-42.983833
 30
0.0
 40
0.166302
  1
X
  7
Style-Arial
 11
39.779538
 21
-42.817531
 31
0.0
100
AcDbText
 73
     3
  0
TEXT
  5
262
330
43A
100
AcDbEntity
  8
Level 1
  6
Continuous
 62
     7
370
    30
100
AcDbText
 10
38.275958
 20
-36.683713
 30
0.0
 40
0.166302
  1
Symbol
  7
Style-Arial
 11
38.275958
 21
-36.51741
 31
0.0
100
AcDbText
 73
     3
  0
TEXT
  5
263
330
43A
100
AcDbEntity
  8
Level 1
  6
Continuous
 62
     7
370
    30
100
AcDbText
 10
46.577394
 20
-36.690885
 30
0.0
 40
0.166302
  1
Date
  7
Style-Arial
 11
46.577394
 21
-36.524583
 31
0.0
100
AcDbText
 73
     3
  0
TEXT
  5
265
330
43A
100
AcDbEntity
  8
Level 1
  6
Continuous
 62
     7
370
    30
100
AcDbText
 10
42.629342
 20
-36.349356
 30
0.0
 40
0.166302
  1
Revisions
  7
Style-Arial
 11
42.629342
 21
-36.183054
 31
0.0
100
AcDbText
 73
     3
  0
TEXT
  5
266
330
43A
100
AcDbEntity
  8
Level 1
  6
Continuous
 62
     7
370
    30
100
AcDbText
 10
42.470914
 20
-36.684719
 30
0.0
 40
0.166302
  1
Descriptions
  7
Style-Arial
 11
42.470914
 21
-36.518417
 31
0.0
100
AcDbText
 73
     3
  0
TEXT
  5
26B
330
43A
100
AcDbEntity
  8
Level 1
  6
Continuous
 62
     7
370
    30
100
AcDbText
 10
42.448847
 20
-38.899968
 30
0.0
 40
0.166302
  1
U.S. ARMY ENGINEER DISTRICT
  7
Style-Arial
 11
42.448847
 21
-38.733666
 31
0.0
100
AcDbText
 73
     3
  0
TEXT
  5
26C
330
43A
100
AcDbEntity
  8
Level 1
  6
Continuous
 62
     7
370
    30
100
AcDbText
 10
42.908074
 20
-39.19244
 30
0.0
 40
0.166302
  1
CORPS OF ENGINEERS
  7
Style-Arial
 11
42.908074
 21
-39.026138
 31
0.0
100
AcDbText
 73
     3
  0
TEXT
  5
26D
330
43A
100
AcDbEntity
  8
Level 1
  6
Continuous
 62
     7
370
    30
100
AcDbText
 10
43.115129
 20
-39.486881
 30
0.0
 40
0.166302
  1
OMAHA, NEBRASKA
  7
Style-Arial
 11
43.115129
 21
-39.320579
 31
0.0
100
AcDbText
 73
     3
  0
TEXT
  5
264
330
43A
100
AcDbEntity
  8
Level 1
  6
Continuous
 62
     7
370
    30
100
AcDbText
 10
47.482813
 20
-36.692948
 30
0.0
 40
0.166302
  1
Approved
  7
Style-Arial
 11
47.482813
 21
-36.526646
 31
0.0
100
AcDbText
 73
     3
  0
TEXT
  5
26E
330
43A
100
AcDbEntity
  8
Level 1
  6
Continuous
 62
     7
370
    30
100
AcDbText
 10
41.047292
 20
-40.036493
 30
0.0
 40
0.166302
  1
X
  7
Style-Arial
 11
41.047292
 21
-39.870191
 31
0.0
100
AcDbText
 73
     3
  0
TEXT
  5
272
330
43A
100
AcDbEntity
  8
Level 1
  6
Continuous
 62
     7
370
    53
100
AcDbText
 10
44.769023
 20
-40.56575
 30
0.0
 40
0.166302
  1
X
  7
Style-Arial
 11
44.769023
 21
-40.399448
 31
0.0
100
AcDbText
 73
     3
  0
TEXT
  5
271
330
43A
100
AcDbEntity
  8
Level 3
  6
Continuous
 62
     7
370
    40
100
AcDbText
 10
44.765512
 20
-40.979583
 30
0.0
 40
0.166302
  1
X
  7
Style-Arial
 11
44.765512
 21
-40.813281
 31
0.0
100
AcDbText
 73
     3
  0
TEXT
  5
26F
330
43A
100
AcDbEntity
  8
Level 1
  6
Continuous
 62
     7
370
    30
100
AcDbText
 10
48.369455
 20
-40.033667
 30
0.0
 40
0.166302
  1
X
  7
Style-Arial
 11
48.369455
 21
-39.867365
 31
0.0
100
AcDbText
 73
     3
  0
TEXT
  5
270
330
43A
100
AcDbEntity
  8
Level 1
  6
Continuous
 62
     7
370
    40
100
AcDbText
 10
45.592222
 20
-43.684341
 30
0.0
 40
0.249453
  1
X
  7
Style-Arial
 11
45.592222
 21
-43.434888
 31
0.0
100
AcDbText
 73
     3
  0
TEXT
  5
26A
330
43A
100
AcDbEntity
  8
Level 1
  6
Continuous
 62
     7
370
    40
100
AcDbText
 10
40.482832
 20
-35.861235
 30
0.0
 40
0.249453
  1
$$ - THINK VALUE ENGINEERING - $$
  7
Style-Arial
 11
40.482832
 21
-35.611782
 31
0.0
100
AcDbText
 73
     3
  0
TEXT
  5
243
330
43A
100
AcDbEntity
  8
Level 1
  6
Continuous
 62
     7
370
     0
100
AcDbText
 10
36.519792
 20
-42.627538
 30
0.0
 40
0.166302
  1
OMPUTER
  7
Style-Arial
 11
36.519792
 21
-42.461235
 31
0.0
100
AcDbText
 73
     3
  0
TEXT
  5
244
330
43A
100
AcDbEntity
  8
Level 1
  6
Continuous
 62
     7
370
     0
100
AcDbText
 10
36.548668
 20
-42.913988
 30
0.0
 40
0.166302
  1
IDED
  7
Style-Arial
 11
36.548668
 21
-42.747686
 31
0.0
100
AcDbText
 73
     3
  0
TEXT
  5
247
330
43A
100
AcDbEntity
  8
Level 1
  6
Continuous
 62
     7
370
     0
100
AcDbText
 10
36.531591
 20
-43.212584
 30
0.0
 40
0.166302
  1
ESIGN &
  7
Style-Arial
 11
36.531591
 21
-43.046282
 31
0.0
100
AcDbText
 73
     3
  0
TEXT
  5
248
330
43A
100
AcDbEntity
  8
Level 1
  6
Continuous
 62
     7
370
     0
100
AcDbText
 10
36.539717
 20
-43.566481
 30
0.0
 40
0.166302
  1
RAFTING
  7
Style-Arial
 11
36.539717
 21
-43.400179
 31
0.0
100
AcDbText
 73
     3
  0
VIEWPORT
  5
3E6
330
43F
100
AcDbEntity
 67
     1
  8
0
100
AcDbViewport
 10
5.250183
 20
4.000122
 30
0.0
 40
8.400879
 41
6.400909
 68
     1
 69
     1
 12
5.250183
 22
4.000122
 13
0.0
 23
0.0
 14
0.5
 24
0.5
 15
0.0
 25
0.0
 16
0.0
 26
0.0
 36
1.0
 17
0.0
 27
0.0
 37
0.0
 42
50.0
 43
0.0
 44
0.0
 45
6.400909
 50
0.0
 51
0.0
 72
   100
 90
   557120
  1

281
     0
 71
     1
 74
     0
110
0.0
120
0.0
130
0.0
111
1.0
121
0.0
131
0.0
112
0.0
122
1.0
132
0.0
 79
     0
146
0.0
170
     0
  0
ENDSEC
  0
SECTION
  2
OBJECTS
  0
DICTIONARY
  5
42E
330
0
100
AcDbDictionary
281
     1
  3
ACAD_COLOR
350
44D
  3
ACAD_GROUP
350
44A
  3
ACAD_LAYOUT
350
43E
  3
ACAD_MATERIAL
350
44C
  3
ACAD_MLINESTYLE
350
438
  3
ACAD_PLOTSETTINGS
350
44B
  3
ACAD_PLOTSTYLENAME
350
42D
  3
ACAD_TABLESTYLE
350
473
  3
AcadDim
350
46A
  3
MicroStation
350
450
  0
DICTIONARY
  5
42A
330
429
100
AcDbDictionary
280
     1
281
     1
  3
ACAD_LAYERFILTERS
360
451
  3
ACAD_LAYERSTATES
360
42B
  0
DICTIONARY
  5
46D
330
43A
100
AcDbDictionary
280
     1
281
     1
  3
ACAD_SORTENTS
360
46E
  0
DICTIONARY
  5
44D
102
{ACAD_REACTORS
330
42E
102
}
330
42E
100
AcDbDictionary
281
     1
  0
DICTIONARY
  5
44A
102
{ACAD_REACTORS
330
42E
102
}
330
42E
100
AcDbDictionary
281
     1
  0
DICTIONARY
  5
43E
102
{ACAD_REACTORS
330
42E
102
}
330
42E
100
AcDbDictionary
281
     1
  3
Layout1
350
442
  3
Model
350
43D
  0
DICTIONARY
  5
44C
102
{ACAD_REACTORS
330
42E
102
}
330
42E
100
AcDbDictionary
281
     1
  0
DICTIONARY
  5
438
102
{ACAD_REACTORS
330
42E
102
}
330
42E
100
AcDbDictionary
281
     1
  3
STANDARD
350
39E
  0
DICTIONARY
  5
44B
102
{ACAD_REACTORS
330
42E
102
}
330
42E
100
AcDbDictionary
281
     1
  0
ACDBDICTIONARYWDFLT
  5
42D
102
{ACAD_REACTORS
330
42E
102
}
330
42E
100
AcDbDictionary
281
     1
  3
Normal
350
42C
100
AcDbDictionaryWithDefault
340
42C
  0
DICTIONARY
  5
473
102
{ACAD_REACTORS
330
42E
102
}
330
42E
100
AcDbDictionary
281
     1
  0
XRECORD
  5
46A
102
{ACAD_REACTORS
330
42E
102
}
330
42E
100
AcDbXrecord
280
     1
 90
   990106
  3
 
 60
     0
 61
     0
 62
     1
 63
     1
 64
     0
 65
     0
 66
     0
 67
     3
 68
     1
 69
     1
 70
     0
 71
     0
 72
     0
 40
0.0
170
     0
  0
DICTIONARY
  5
450
102
{ACAD_REACTORS
330
42E
102
}
330
42E
100
AcDbDictionary
281
     1
  3
ApplicationElement 909
350
38D
  3
ModelApplicationElement 0 908
350
38C
  0
DICTIONARY
  5
451
102
{ACAD_REACTORS
330
42A
102
}
330
42A
100
AcDbDictionary
281
     1
  0
DICTIONARY
  5
42B
102
{ACAD_REACTORS
330
42A
102
}
330
42A
100
AcDbDictionary
281
     1
  0
SORTENTSTABLE
  5
46E
102
{ACAD_REACTORS
330
46D
102
}
330
46D
100
AcDbSortentsTable
330
43A
331
AE
  5
286
331
AF
  5
287
331
B0
  5
288
331
B1
  5
AE
331
B2
  5
AF
331
B3
  5
B0
331
B4
  5
B1
331
B5
  5
B2
331
B6
  5
B3
331
B7
  5
B4
331
B8
  5
B5
331
B9
  5
B6
331
BA
  5
B7
331
BC
  5
B8
331
BE
  5
B9
331
C0
  5
289
331
C1
  5
BA
331
C2
  5
BC
331
C3
  5
BE
331
C4
  5
28A
331
C5
  5
28B
331
C6
  5
28E
331
C7
  5
291
331
C8
  5
294
331
C9
  5
C0
331
CA
  5
C1
331
CB
  5
C2
331
CC
  5
C3
331
CD
  5
C4
331
CE
  5
C5
331
CF
  5
C6
331
D0
  5
C7
331
D1
  5
2F6
331
D2
  5
C8
331
D3
  5
C9
331
DE
  5
CA
331
DF
  5
CB
331
EA
  5
297
331
EB
  5
29A
331
EC
  5
CC
331
ED
  5
CD
331
EE
  5
29D
331
EF
  5
2A0
331
F0
  5
CE
331
F1
  5
CF
331
F2
  5
2A3
331
F3
  5
2A4
331
F4
  5
D0
331
F5
  5
D1
331
F6
  5
D2
331
F7
  5
D3
331
F8
  5
DE
331
F9
  5
DF
331
FA
  5
EA
331
FB
  5
EB
331
FC
  5
EC
331
FD
  5
ED
331
FE
  5
EE
331
FF
  5
EF
331
100
  5
F0
331
101
  5
F1
331
102
  5
F2
331
103
  5
F3
331
104
  5
F4
331
105
  5
F5
331
106
  5
F6
331
107
  5
F7
331
108
  5
F8
331
109
  5
2A5
331
10A
  5
2A6
331
10B
  5
F9
331
10C
  5
FA
331
10D
  5
FB
331
10E
  5
FC
331
10F
  5
FD
331
110
  5
FE
331
111
  5
FF
331
112
  5
100
331
113
  5
101
331
114
  5
102
331
115
  5
103
331
116
  5
104
331
117
  5
105
331
118
  5
106
331
119
  5
107
331
11A
  5
108
331
11B
  5
109
331
11C
  5
10A
331
11D
  5
10B
331
11E
  5
10C
331
11F
  5
10D
331
120
  5
10E
331
121
  5
10F
331
122
  5
110
331
123
  5
111
331
124
  5
112
331
125
  5
113
331
126
  5
114
331
127
  5
115
331
128
  5
116
331
129
  5
117
331
12A
  5
118
331
12B
  5
119
331
12C
  5
11A
331
12D
  5
11B
331
12E
  5
11C
331
12F
  5
11D
331
130
  5
11E
331
131
  5
11F
331
132
  5
120
331
133
  5
121
331
134
  5
122
331
135
  5
123
331
136
  5
124
331
137
  5
125
331
138
  5
126
331
139
  5
127
331
13A
  5
128
331
13B
  5
129
331
13C
  5
12A
331
13D
  5
12B
331
13E
  5
12C
331
13F
  5
12D
331
140
  5
12E
331
141
  5
12F
331
142
  5
130
331
143
  5
131
331
144
  5
132
331
145
  5
133
331
146
  5
134
331
147
  5
135
331
148
  5
136
331
149
  5
137
331
14A
  5
138
331
14B
  5
139
331
14C
  5
13A
331
14D
  5
13B
331
14E
  5
13C
331
14F
  5
13D
331
150
  5
13E
331
151
  5
13F
331
152
  5
140
331
153
  5
141
331
154
  5
142
331
155
  5
143
331
156
  5
144
331
157
  5
145
331
158
  5
146
331
159
  5
147
331
15A
  5
148
331
15B
  5
149
331
15C
  5
14A
331
15D
  5
14B
331
15E
  5
14C
331
15F
  5
14D
331
160
  5
14E
331
161
  5
14F
331
162
  5
2BC
331
163
  5
2BE
331
164
  5
2C0
331
165
  5
2C2
331
166
  5
150
331
167
  5
151
331
168
  5
152
331
169
  5
153
331
16A
  5
154
331
16B
  5
155
331
16C
  5
156
331
177
  5
157
331
182
  5
158
331
183
  5
159
331
184
  5
15A
331
185
  5
15B
331
186
  5
15C
331
188
  5
15D
331
18A
  5
15E
331
18C
  5
15F
331
18E
  5
2C4
331
18F
  5
160
331
190
  5
161
331
191
  5
162
331
192
  5
163
331
193
  5
2C6
331
194
  5
2C8
331
195
  5
2CA
331
196
  5
2CC
331
197
  5
2CE
331
198
  5
164
331
199
  5
165
331
19A
  5
166
331
19B
  5
167
331
19C
  5
168
331
19D
  5
169
331
19E
  5
16A
331
19F
  5
16B
331
1A0
  5
16C
331
1A1
  5
2F8
331
1A2
  5
177
331
1A3
  5
182
331
1AE
  5
183
331
1AF
  5
184
331
1BA
  5
2D0
331
1BB
  5
2D2
331
1BC
  5
185
331
1BD
  5
186
331
1BE
  5
2D4
331
1BF
  5
2D6
331
1C0
  5
188
331
1C1
  5
18A
331
1C2
  5
18C
331
1C3
  5
18E
331
1C4
  5
18F
331
1C5
  5
190
331
1C6
  5
191
331
1C7
  5
192
331
1C8
  5
193
331
1C9
  5
194
331
1CA
  5
195
331
1CB
  5
196
331
1CC
  5
197
331
1CD
  5
198
331
1CE
  5
199
331
1CF
  5
19A
331
1D0
  5
19B
331
1D1
  5
19C
331
1D2
  5
19D
331
1D3
  5
19E
331
1D4
  5
19F
331
1D5
  5
1A0
331
1D6
  5
1A1
331
1D7
  5
1A2
331
1D8
  5
1A3
331
1D9
  5
1AE
331
1DA
  5
2D8
331
1DB
  5
1AF
331
1DC
  5
1BA
331
1DD
  5
1BB
331
1DE
  5
1BC
331
1DF
  5
1BD
331
1E0
  5
1BE
331
1E1
  5
1BF
331
1E2
  5
2DA
331
1E3
  5
2DC
331
1E4
  5
1C0
331
1E5
  5
1C1
331
1E6
  5
1C2
331
1E7
  5
1C3
331
1E8
  5
1C4
331
1E9
  5
1C5
331
1EA
  5
1C6
331
1EB
  5
2A7
331
1EC
  5
1C7
331
1ED
  5
2A8
331
1EE
  5
1C8
331
1EF
  5
1C9
331
1F0
  5
1CA
331
1F1
  5
1CB
331
1F2
  5
1CC
331
1F3
  5
1CD
331
1F4
  5
2AA
331
1F5
  5
2AC
331
1F6
  5
1CE
331
1F7
  5
1CF
331
1F8
  5
1D0
331
1FA
  5
1D1
331
205
  5
2AE
331
206
  5
2B0
331
207
  5
1D2
331
208
  5
1D3
331
209
  5
1D4
331
20A
  5
1D5
331
20B
  5
1D6
331
20C
  5
1D7
331
20D
  5
1D8
331
20E
  5
1D9
331
20F
  5
1DA
331
210
  5
1DB
331
211
  5
1DC
331
212
  5
1DD
331
213
  5
1DE
331
214
  5
1DF
331
215
  5
1E0
331
216
  5
1E1
331
217
  5
1E2
331
218
  5
1E3
331
219
  5
1E4
331
21A
  5
1E5
331
21B
  5
1E6
331
21C
  5
1E7
331
21D
  5
1E8
331
21E
  5
1E9
331
21F
  5
1EA
331
220
  5
1EB
331
221
  5
1EC
331
222
  5
1ED
331
223
  5
1EE
331
224
  5
1EF
331
225
  5
1F0
331
226
  5
1F1
331
227
  5
1F2
331
228
  5
1F3
331
229
  5
1F4
331
22A
  5
1F5
331
22B
  5
1F6
331
22C
  5
1F7
331
22D
  5
1F8
331
22E
  5
1FA
331
22F
  5
205
331
230
  5
206
331
231
  5
207
331
232
  5
208
331
233
  5
209
331
234
  5
20A
331
235
  5
20B
331
236
  5
20C
331
237
  5
20D
331
238
  5
20E
331
239
  5
20F
331
23A
  5
210
331
23B
  5
211
331
23C
  5
212
331
23D
  5
213
331
23E
  5
214
331
23F
  5
215
331
240
  5
216
331
241
  5
217
331
242
  5
218
331
243
  5
333
331
244
  5
334
331
245
  5
219
331
246
  5
21A
331
247
  5
335
331
248
  5
336
331
249
  5
21B
331
24A
  5
21C
331
24B
  5
21D
331
24C
  5
21E
331
24D
  5
21F
331
24E
  5
312
331
24F
  5
314
331
250
  5
316
331
251
  5
318
331
252
  5
311
331
253
  5
30F
331
254
  5
30E
331
255
  5
30A
331
256
  5
30C
331
257
  5
308
331
258
  5
309
331
259
  5
303
331
25A
  5
304
331
25B
  5
305
331
25C
  5
306
331
25D
  5
307
331
25E
  5
313
331
25F
  5
317
331
260
  5
220
331
261
  5
221
331
262
  5
31A
331
263
  5
31B
331
264
  5
32C
331
265
  5
31C
331
266
  5
31D
331
267
  5
222
331
268
  5
223
331
269
  5
224
331
26A
  5
332
331
26B
  5
31E
331
26C
  5
31F
331
26D
  5
321
331
26E
  5
32D
331
26F
  5
330
331
270
  5
331
331
271
  5
32F
331
272
  5
32E
331
273
  5
225
331
274
  5
226
331
275
  5
227
331
276
  5
228
331
277
  5
229
331
278
  5
22A
331
279
  5
22B
331
27A
  5
22C
331
27B
  5
22D
331
27C
  5
22E
331
27D
  5
22F
331
27E
  5
230
331
27F
  5
231
331
280
  5
232
331
281
  5
233
331
282
  5
234
331
283
  5
235
331
284
  5
236
331
285
  5
30B
331
286
  5
30D
331
287
  5
237
331
288
  5
238
331
289
  5
239
331
28A
  5
23A
331
28B
  5
23B
331
28E
  5
23C
331
291
  5
23D
331
294
  5
23E
331
297
  5
23F
331
29A
  5
240
331
29D
  5
241
331
2A0
  5
242
331
2A3
  5
2FD
331
2A4
  5
2FE
331
2A5
  5
300
331
2A6
  5
301
331
2A7
  5
319
331
2A8
  5
243
331
2AA
  5
244
331
2AC
  5
245
331
2AE
  5
246
331
2B0
  5
247
331
2B2
  5
248
331
2B4
  5
249
331
2B6
  5
24A
331
2B8
  5
24B
331
2BA
  5
24C
331
2BC
  5
24D
331
2BE
  5
24E
331
2C0
  5
24F
331
2C2
  5
250
331
2C4
  5
251
331
2C6
  5
252
331
2C8
  5
253
331
2CA
  5
254
331
2CC
  5
255
331
2CE
  5
256
331
2D0
  5
257
331
2D2
  5
258
331
2D4
  5
259
331
2D6
  5
25A
331
2D8
  5
25B
331
2DA
  5
25C
331
2DC
  5
25D
331
2DE
  5
25E
331
2E0
  5
25F
331
2E2
  5
260
331
2E4
  5
261
331
2E6
  5
262
331
2E8
  5
263
331
2EA
  5
264
331
2EC
  5
265
331
2EE
  5
266
331
2F0
  5
267
331
2F2
  5
268
331
2F4
  5
269
331
2F6
  5
26A
331
2F8
  5
26B
331
2FA
  5
26C
331
2FC
  5
2B2
331
2FD
  5
26D
331
2FE
  5
26E
331
2FF
  5
2B4
331
300
  5
2B6
331
301
  5
2B8
331
302
  5
2BA
331
303
  5
26F
331
304
  5
2DE
331
305
  5
2E0
331
306
  5
270
331
307
  5
271
331
308
  5
272
331
309
  5
273
331
30A
  5
274
331
30B
  5
275
331
30C
  5
276
331
30D
  5
277
331
30E
  5
2E2
331
30F
  5
2E4
331
310
  5
2E6
331
311
  5
278
331
312
  5
279
331
313
  5
27A
331
314
  5
27B
331
315
  5
27C
331
316
  5
2E8
331
317
  5
2EA
331
318
  5
27D
331
319
  5
27E
331
31A
  5
27F
331
31B
  5
280
331
31C
  5
281
331
31D
  5
2EC
331
31E
  5
2EE
331
31F
  5
282
331
321
  5
283
331
32C
  5
2F0
331
32D
  5
284
331
32E
  5
2F2
331
32F
  5
285
331
330
  5
2F4
331
331
  5
2FF
331
332
  5
2FA
331
333
  5
2FC
331
334
  5
302
331
335
  5
315
331
336
  5
310
  0
LAYOUT
  5
442
102
{ACAD_REACTORS
330
43E
330
43E
102
}
102
{ACAD_XDICTIONARY
360
443
102
}
330
43E
100
AcDbPlotSettings
  1

  2
none_device
  4
Letter_(8.50_x_11.00_Inches)
  6

 40
6.35
 41
6.35
 42
6.350006
 43
6.350006
 44
215.899994
 45
279.399994
 46
0.0
 47
0.0
 48
0.0
 49
0.0
140
0.0
141
0.0
142
1.0
143
1.0
 70
   688
 72
     0
 73
     1
 74
     5
  7

 75
    16
 76
     0
 77
     2
 78
   300
147
1.0
148
0.0
149
0.0
100
AcDbLayout
  1
Layout1
 70
     1
 71
     1
 10
-0.25
 20
-0.25
 11
10.75
 21
8.25
 12
0.0
 22
0.0
 32
0.0
 14
1.049744
 24
0.799667
 34
-0.001526
 15
9.450623
 25
7.200577
 35
0.0
146
0.0
 13
0.0
 23
0.0
 33
0.0
 16
1.0
 26
0.0
 36
0.0
 17
0.0
 27
1.0
 37
0.0
 76
     0
330
43F
331
3E6
1001
ACAD_PSEXT
1000
None
1000
None
1000
Not applicable
1000
The layout will not be plotted unless a new plotter configuration name is selected.
1070
     0
  0
LAYOUT
  5
43D
102
{ACAD_REACTORS
330
43E
330
43E
102
}
330
43E
100
AcDbPlotSettings
  1

  2
none_device
  4
ANSI_A_(8.50_x_11.00_Inches)
  6

 40
6.35
 41
19.049999
 42
6.350006
 43
19.049988
 44
215.899994
 45
279.399994
 46
0.0
 47
0.0
 48
0.0
 49
0.0
140
0.0
141
0.0
142
1.0
143
2.584895
 70
 11952
 72
     0
 73
     1
 74
     0
  7

 75
     0
 76
     0
 77
     2
 78
   300
147
0.386863
148
0.0
149
0.0
100
AcDbLayout
  1
Model
 70
     1
 71
     0
 10
0.0
 20
0.0
 11
12.0
 21
9.0
 12
0.0
 22
0.0
 32
0.0
 14
0.0
 24
0.0
 34
0.0
 15
0.0
 25
0.0
 35
0.0
146
0.0
 13
0.0
 23
0.0
 33
0.0
 16
1.0
 26
0.0
 36
0.0
 17
0.0
 27
1.0
 37
0.0
 76
     0
330
43A
331
49
  0
MLINESTYLE
  5
39E
102
{ACAD_REACTORS
330
438
102
}
330
438
100
AcDbMlineStyle
  2
STANDARD
 70
     0
  3

 62
   256
 51
90.0
 52
90.0
 71
     2
 49
0.5
 62
   256
  6
BYLAYER
 49
-0.5
 62
   256
  6
BYLAYER
  0
ACDBPLACEHOLDER
  5
42C
102
{ACAD_REACTORS
330
42D
102
}
330
42D
  0
XRECORD
  5
38D
102
{ACAD_REACTORS
330
450
102
}
330
450
100
AcDbXrecord
280
     1
310
3E4F020000004D6F64656C6572000000000000000000000000000000000000000000000000000000000000000000000000000000000000000000000000000000000000000000000000000000000000000000000000000000000000000000000000000000000000000000000000000000000000000000000000000000000000
310
00000000000000000000000000000000000000000000000000000000000000000000000000000000000000000000000000000000000000000000000000000000000000000000000000000000000000000000000000000000000000000000000000000000000000000000000000000000000000000000000000000000000000
310
00
310
00000000000000000000000000000000000000000000000000000000000000000000000000000000000000000000000000000000000000000000000000000000000000000000000000000000000000000000000000000000000000000000000000000000000000000000000000000000000000000000000000000000000000
310
00000000000000000000000000000000000000000000000000000000000000000000000000000000000000000000000000000000000000000000000000000000000000000000000000000000000000000000000000000000000000000000000000000000000000000000000000000000000000000000000000000000000000
310
00
310
00000000000000000000000000000000000000000000000000000000000000000000000000000000000000000000000000000000000000000000000000000000000000000000000000000000000000000000000000000000000000000000000000000000000000000000000000000000000000000000000000000000000000
310
00000000000000000000000000000000000000000000000000000000000000000000000000000000000000000000000000000000000000000000000000000000000000000000000000000000000000000000000000000000000000000000000000000000000000000000000000000000000000000000000000000000000000
310
00
310
00000000000000000000000000000000000000000000000000000000000000000000000000000000000000000000000000000000000000000000000000000000000000000000000000000000000000000000000000000000000000000000000000000000000000000000000000000000000000000000000000000000000000
310
00000000000000000000000000000000000000000000000000000000000000000000000000000000000000000000000000000000000000000000000000000000000000000000000000000000000000000000000000000000000000000000000000000000000000000000000000000000000000000000000000000000000000
310
00
310
00000000000000000000000000000000000000000000000000000000000000000000000000000000000000000000000000000000000000000000000000000000000000000000000000000000000000000000000000000000000000000000000000000000000000000000000000000000000000000000000000000000000000
310
00000000000000000000000000000000000000000000000000000000000000000000000000000000000000000000000000000000000000000000000000000000000000000000000000000000000000000000000000000000000000000000000000000000000000000000000000000000000000000000000000000000000000
310
00
310
00000000000000000000000000000000000000000000000000000000000000000000000000000000000000000000000000000000000000000000000000000000000000000000000000000000000000000000000000000000000000000000000000000000000000000000000000000000000000000000000000000000000000
310
00000000000000000000000000000000000000000000000000000000000000000000000000000000000000000000000000000000000000000000000000000000000000000000000000000000000000000000000000000000000000000000000000000000000000000000000000000000000000000000000000000000000000
310
00
310
00000000000000000000000000000000000000000000000000000000000000000000000000000000000000000000000000000000000000000000000000000000000000000000000000000000000000000000000000000000000000000000000000000000000000000000000000000000000000000000000000000000000000
310
00000000000000000000000000000000000000000000000000000000000000000000000000000000000000000000000000000000000000000000000000000000000000000000000000000000000000000000000000000000000000000000000000000000000000000000000000000000000000000000000000000000000000
310
00
310
00000000000000000000000000000000000000000000000000000000000000000000000000000000000000000000000000000000000000000000000000000000000000000000000000000000000000000000000000000000000000000000000000000000000000000000000000000000000000000000000000000000000000
310
00000000000000000000000000000000000000000000000000000000000000000000000000000000000000000000000000000000000000000000000000000000000000000000000000000000000000000000000000000000000000000000000000000000000000000000000000000000000000000000000000000000000000
310
00
310
00000000000000000000000000000000000000000000000000000000000000000000000000000000000000000000000000000000000000000000000000000000000000000000000000000000000000000000000000000000000000000000000000000000000000000000000000000000000000000000000000000000000000
310
00000000000000000000000000000000000000000000000000000000000000000000000000000000000000000000000000000000000000000000000000000000000000000000000000000000000000000000000000000000000000000000000000000000000000000000000000000000000000000000000000000000000000
310
00
310
00000000000000000000000000000000000000000000000000000000000000000000000000000000000000000000000000000000000000000000000000000000000000000000000000000000000000000000000000000000000000000000000000000000000000000000000000000000000000000000000000000000000000
310
00000000000000000000000000000000000000000000000000000000000000000000000000000000000000000000000000000000000000000000000000000000000000000000000000000000000000000000000000000000000000000000000000000000000000000000000000000000000000000000000000000000000000
310
00
310
00000000000000000000000000000000000000000000000000000000000000000000000000000000000000000000000000000000000000000000000000000000000000000000000000000000000000000000000000000000000000000000000000000000000000000000000000000000000000000000000000000000000000
310
00000000000000000000000000000000000000000000000000000000000000000000000000000000000000000000000000000000000000000000000000000000000000000000000000000000000000000000000000000000000000000000000000000000000000000000000000000000000000000000000000000000000000
310
00
310
00000000000000000000000000000000000000000000000000000000000000000000000000000000000000000000000000000000000000000000000000000000000000000000000000000000000000000000000000000000000000000000000000000000000000000000000000000000000000000000000000000000000000
310
00000000000000000000000000000000000000000000000000000000000000000000000000000000000000000000000000000000000000000000000000000000000000000000000000000000000000000000000000000000000000000000000000000000000000000000000000000000000000000000000000000000000000
310
00
310
00000000000000000000000000000000000000000000000000000000000000000000000000000000000000000000000000000000000000000000000000000000000000000000000000000000000000000000000000000000000000000000000000000000000000000000000000000000000000000000000000000000000000
310
00000000000000000000000000000000000000000000000000000000000000000000000000000000000000000000000000000000000000000000000000000000000000000000000000000000000000000000000000000000000000000000000000000000000000000000000000000000000000000000000000000000000000
310
00
310
00000000000000000000000000000000000000000000000000000000000000000000000000000000000000000000000000000000000000000000000000000000000000000000000000000000000000000000000000000000000000000000000000000000000000000000000000000000000000
  0
XRECORD
  5
38C
102
{ACAD_REACTORS
330
450
102
}
330
450
100
AcDbXrecord
280
     1
310
DF56060034040701D0009A9999999999B93F000000000000000000000000000000000400000009000000000000000200000064000000640000000100000001000000190000007B14AE47E17A843F00000000004060409A9999999999B93F00000000004C2D41000000000070F7400000000000942141000000000000000000
310
0000000000000000000000000000000AD482040000000000000000000000000000F03F000000000000000000000000000030402D431CEBE2362A3F00000000000008400000000000000000009807C000000000000000007C1A61B9A711364020000000050000000A000000200000002000000020000000000000000000F03F
310
00
310
0000000000F03F000000000000F03F333333333333D33F333333333333D33F333333333333D33F000000000000F43F000000000000F43F000000000000F03F0200000064000000000000000000000000000840000000000000F83F00000000000000000000000000000000008056409A9999999999B93F0000000000000000
310
00000000000000000000000000000000000000000000000000000000000000000000000000000000000000000000000000000000000000000000000000000000000000000000000000000000000000000000000000000000000000000000000000000000000000000000000000000000000000000000000000000000000000
310
00
310
0000000000000000000000000000000000000000000000000000000000000000000000000000000000000000000000000000000000000000000000000000000000000000000000000000000000000000000000000000000000000000000000000000000000000000000000000000000000000000000000009A9999999999A9
310
3F9100000000000000000000000000000035A781D547960F40000000000000F03F000000000000F03F666666666666164000000000104068F200000000000000000000000000000000000000000000000000000000000000000000000000000000000000000000000000000000000000000000000000000000000000000000
310
00
310
00000000000000000000000000000000000000000000000000000000000000000000000000000000000000000000000000000000000000000000000000000000000000000000000000000000000000000000000000000000000000000000000000000000000000000000000000000000000000000000000000000000000000
310
000000000000000000000000000000000000000000000000000000000000000000000000000000000000000000000000000000000000000000000000FF000000000000000000000000000000000000000000000000000000000000000000000000000000000000000000000000000000000000000000000000000000000000
310
00
310
0000000000000000000000000000000000000000000000000000000000000000000000000000000000000000000000000000000000000000000000000000000000000000
  0
DICTIONARY
  5
443
330
442
100
AcDbDictionary
280
     1
281
     1
  3
ADSK_XREC_LAYOUTTHUMBNAIL
360
444
  0
XRECORD
  5
444
102
{ACAD_REACTORS
330
443
102
}
330
443
100
AcDbXrecord
280
     1
310
28000000B40000008B0000000100080000000000BC61000000000000000000000001000000000000FFFFFF0000000000FFFFFF000000000000000000000000000000000000000000000000000000000000000000330000006600000099000000CC000000FF00000000330000333300006633000099330000CC330000FF3300
310
0000660000336600006666000099660000CC660000FF66000000990000339900006699000099990000CC990000FF99000000CC000033CC000066CC000099CC0000CCCC0000FFCC000000FF000033FF000066FF000099FF0000CCFF0000FFFF000000003300330033006600330099003300CC003300FF003300003333003333
310
33006633330099333300CC333300FF33330000663300336633006666330099663300CC663300FF66330000993300339933006699330099993300CC993300FF99330000CC330033CC330066CC330099CC3300CCCC3300FFCC330000FF330033FF330066FF330099FF3300CCFF3300FFFF330000006600330066006600660099
310
006600CC006600FF00660000336600333366006633660099336600CC336600FF33660000666600336666006666660099666600CC666600FF66660000996600339966006699660099996600CC996600FF99660000CC660033CC660066CC660099CC6600CCCC6600FFCC660000FF660033FF660066FF660099FF6600CCFF6600
310
FFFF660000009900330099006600990099009900CC009900FF00990000339900333399006633990099339900CC339900FF33990000669900336699006666990099669900CC669900FF66990000999900339999006699990099999900CC999900FF99990000CC990033CC990066CC990099CC9900CCCC9900FFCC990000FF99
310
0033FF990066FF990099FF9900CCFF9900FFFF99000000CC003300CC006600CC009900CC00CC00CC00FF00CC000033CC003333CC006633CC009933CC00CC33CC00FF33CC000066CC003366CC006666CC009966CC00CC66CC00FF66CC000099CC003399CC006699CC009999CC00CC99CC00FF99CC0000CCCC0033CCCC0066CC
310
CC0099CCCC00CCCCCC00FFCCCC0000FFCC0033FFCC0066FFCC0099FFCC00CCFFCC00FFFFCC000000FF003300FF006600FF009900FF00CC00FF00FF00FF000033FF003333FF006633FF009933FF00CC33FF00FF33FF000066FF003366FF006666FF009966FF00CC66FF00FF66FF000099FF003399FF006699FF009999FF00CC
310
99FF00FF99FF0000CCFF0033CCFF0066CCFF0099CCFF00CCCCFF00FFCCFF0000FFFF0033FFFF0066FFFF0099FFFF00CCFFFF00FFFFFF00000000000D0D0D001A1A1A00282828003535350043434300505050005D5D5D006B6B6B00787878008686860093939300A1A1A100AEAEAE00BBBBBB00C9C9C900D6D6D600E4E4E400
310
F1F1F100FFFFFF0000000000000000000000000000000000000000000000000000000000000000000000000000000000E2E2E2E2E2E2E2E2E2E2E2E2E2E2E2E2E2E2E2E2E2E2E2E2E2E2E2E2E2E2E2E2E2E2E2E2E2E2E2E2E2E2E2E2E2E2E2E2E2E2E2E2E2E2E2E2E2E2E2E2E2E2E2E2E2E2E2E2E2E2E2E2E2E2E2E2E2E2E2
310
E2E2E2E2E2E2E2E2E2E2E2E2E2E2E2E2E2E2E2E2E2E2E2E2E2E2E2E2E2E2E2E2E2E2E2E2E2E2E2E2E2E2E2E2E2E2E2E2E2E2E2E2E2E2E2E2E2E2E2E2E2E2E2E2E2E2E2E2E2E2E2E2E2E2E2E2E2E2E2E2E2E2E2E2E2E2E2E2E2E2E2E2E2E2E2E2E2E2E2E2EFF5F5F5F5F5F5F5F5F5F5F5F5F5F5F5F5F5F5F5F5F5F5F5F5F5F5
310
F5F5F5F5F5F5F5F5F5F5F5F5F5F5F5F5F5F5F5F5F5F5F5F5F5F5F5F5F5F5F5F5F5F5F5F5F5F5F5F5F5F5F5F5F5F5F5F5F5F5F5F5F5F5F5F5F5F5F5F5F5F5F5F5F5F5F5F5F5F5F5F5F5F5F5F5F5F5F5F5F5F5F5F5F5F5F5F5F5F5F5F5F5F5F5F5F5F5F5F5F5F5F5F5F5F5F5F5F5F5F5F5F5F5F5F5F5F5F5F5F5F5F5F5F5F5F5
310
F5F5F5F5F5F5F5F5F5F5F5F5F5F5F5F5F5F5F5F5F5F5F5F5E2E2EFF5F5F5F5F5F5F5F5F5F5F5F5F5F5F5F5F5F5F5F5F5F5F5F5F5F5F5F5F5F5F5F5F5F5F5F5F5F5F5F5F5F5F5F5F5F5F5F5F5F5F5F5F5F5F5F5F5F5F5F5F5F5F5F5F5F5F5F5F5F5F5F5F5F5F5F5F5F5F5F5F5F5F5F5F5F5F5F5F5F5F5F5F5F5F5F5F5F5F5F5
310
F5F5F5F5F5F5F5F5F5F5F5F5F5F5F5F5F5F5F5F5F5F5F5F5F5F5F5F5F5F5F5F5F5F5F5F5F5F5F5F5F5F5F5F5F5F5F5F5F5F5F5F5F5F5F5F5F5F5F5F5F5F5F5F5F5F5F5F5F5F5F5F5F5F5F5F5F5E2E2EFF5F5F5F5F5F5F5F5F5F5F5F5F5F5F5F5F5F5F5F5F5F5F5F5F5F5F5F5F5F5F5F5F5F5F5F5F5F5F5F5F5F5F5F5F5F5F5
310
F5F5F5F5F5F5F5F5F5F5F5F5F5F5F5F5F5F5F5F5F5F5F5F5F5F5F5F5F5F5F5F5F5F5F5F5F5F5F5F5F5F5F5F5F5F5F5F5F5F5F5F5F5F5F5F5F5F5F5F5F5F5F5F5F5F5F5F5F5F5F5F5F5F5F5F5F5F5F5F5F5F5F5F5F5F5F5F5F5F5F5F5F5F5F5F5F5F5F5F5F5F5F5F5F5F5F5F5F5F5F5F5F5F5F5F5F5F5F5F5F5F5F5F5F5F5F5
310
F5F5F5E2E2EFF5F5F5E2E2E2E2E2E2E2E2F5F5F5F5F5F5F5F5F5E2E2E2E2E2E2E2E2E2E2E2E2E2E2E2E2F5F5F5F5F5F5F5F5E2E2E2E2E2E2E2E2E2E2E2E2E2E2E2E2F5F5F5F5F5F5F5F5F5E2E2E2E2E2E2E2E2E2E2E2E2E2E2E2F5F5F5F5F5F5F5F5F5E2E2E2E2E2E2E2E2E2E2E2E2E2E2E2F5F5F5F5F5F5F5F5F5E2E2E2E2
310
E2E2E2E2E2E2E2E2E2E2E2E2F5F5F5F5F5F5F5F5E2E2E2E2E2E2E2E2E2E2E2E2E2E2E2E2F5F5F5F5F5F5F5F5F5E2E2E2E2E2E2E2E2F5F5F5E2E2EFF5F5F5E2F5F5F5F5F5F5F5F5F5F5F5F5F5F5F5F5F5F5F5F5F5F5F5F5F5F5F5F5F5F5F5F5F5F5F5F5F5F5F5F5F5F5F5F5F5F5F5F5F5F5F5F5F5F5F5F5F5F5F5F5F5F5F5F5
310
F5F5F5F5F5F5F5F5F5F5F5F5F5F5F5F5F5F5F5F5F5F5F5F5F5F5F5F5F5F5F5F5F5F5F5F5F5F5F5F5F5F5F5F5F5F5F5F5F5F5F5F5F5F5F5F5F5F5F5F5F5F5F5F5F5F5F5F5F5F5F5F5F5F5F5F5F5F5F5F5F5F5F5F5F5F5F5F5F5F5F5F5F5F5F5F5F5F5F5F5F5F5F5F5F5E2F5F5F5E2E2EFF5F5F5E2F5F5F5F5F5F5F5F5F5F5F5
310
F5F5F5F5F5F5F5F5F5F5F5F5F5F5F5F5F5F5F5F5F5F5F5F5F5F5F5F5F5F5F5F5F5F5F5F5F5F5F5F5F5F5F5F5F5F5F5F5F5F5F5F5F5F5F5F5F5F5F5F5F5F5F5F5F5F5F5F5F5F5F5F5F5F5F5F5F5F5F5F5F5F5F5F5F5F5F5F5F5F5F5F5F5F5F5F5F5F5F5F5F5F5F5F5F5F5F5F5F5F5F5F5F5F5F5F5F5F5F5F5F5F5F5F5F5F5F5
310
F5F5F5F5F5F5F5F5F5F5F5F5F5F5F5F5F5F5F5F5F5F5F5F5F5F5F5F5F5F5F5E2F5F5F5E2E2EFF5F5F5E2F5F5F5F5F5F5F5F5F5F5F5F5F5F5F5F5F5F5F5F5F5F5F5F5F5F5F5F5F5F5F5F5F5F5F5F5F5F5F5F5F5F5F5F5F5F5F5F5F5F5F5F5F5F5F5F5F5F5F5F5F5F5F5F5F5F5F5F5F5F5F5F5F5F5F5F5F5F5F5F5F5F5F5F5F5
310
F5F5F5F5F5F5F5F5F5F5F5F5F5F5F5F5F5F5F5F5F5F5F5F5F5F5F5F5F5F5F5F5F5F5F5F5F5F5F5F5F5F5F5F5F5F5F5F5F5F5F5F5F5F5F5F5F5F5F5F5F5F5F5F5F5F5F5F5F5F5F5F5F5F5F5F5F5F5F5F5F5F5F5F5E2F5F5F5E2E2EFF5F5F5E2F5F5F5F5F5F5F5F5F5F5F5F5F5F5F5F5F5F5F5F5F5F5F5F5F5F5F5F5F5F5F5F5
310
F5F5F5F5F5F5F5F5F5F5F5F5F5F5F5F5F5F5F5F5F5F5F5F5F5F5F5F5F5F5F5F5F5F5F5F5F5F5F5F5F5F5F5F5F5F5F5F5F5F5F5F5F5F5F5F5F5F5F5F5F5F5F5F5F5F5F5F5F5F5F5F5F5F5F5F5F5F5F5F5F5F5F5F5F5F5F5F5F5F5F5F5F5F5F5F5F5F5F5F5F5F5F5F5F5F5F5F5F5F5F5F5F5F5F5F5F5F5F5F5F5F5F5F5F5F5F5
310
F5F5F5F5F5F5F5F5F5F5E2F5F5F5E2E2EFF5F5F5E2F5F5F5F5F5F5F5F5F5F5F5F5F5F5F5F5F5F5F5F5F5F5F5F5F5F5F5F5F5F5F5F5F5F5F5F5F5F5F5F5F5F5F5F5F5F5F5F5F5F5F5F5F5F5F5F5F5F5F5F5F5F5F5F5F5F5F5F5F5F5F5F5F5F5F5F5F5F5F5F5F5F5F5F5F5F5F5F5F5F5F5F5F5F5F5F5F5F5F5F5F5F5F5F5F5F5
310
F5F5F5F5F5F5F5F5F5F5F5F5F5F5F5F5F5F5F5F5F5F5F5F5F5F5F5F5F5F5F5F5F5F5F5F5F5F5F5F5F5F5F5F5F5F5F5F5F5F5F5F5F5F5F5F5F5F5F5F5F5F5F5E2F5F5F5E2E2EFF5F5F5E2F5F5F5F5F5F5F5F5F5F5F5F5F5F5F5F5F5F5F5F5F5F5F5F5F5F5F5F5F5F5F5F5F5F5F5F5F5F5F5F5F5F5F5F5F5F5F5F5F5F5F5F5F5
310
F5F5F5F5F5F5F5F5F5F5F5F5F5F5F5F5F5F5F5F5F5F5F5F5F5F5F5F5F5F5F5F5F5F5F5F5F5F5F5F5F5F5F5F5F5F5F5F5F5F5F5F5F5F5F5F5F5F5F5F5F5F5F5F5F5F5F5F5F5F5F5F5F5F5F5F5F5F5F5F5F5F5F5F5F5F5F5F5F5F5F5F5F5F5F5F5F5F5F5F5F5F5F5F5F5F5F5F5F5F5F5F5F5F5F5F5E2F5F5F5E2E2EFF5F5F5E2
310
F5F5F5F5F5F5F5F5F5F5F5F5F5F5F5F5F5F5F5F5F5F5F5F5F5F5F5F5F5F5F5F5F5F5F5F5F5F5F5F5F5F5F5F5F5F5F5F5F5F5F5F5F5F5F5F5F5F5F5F5F5F5F5F5F5F5F5F5F5F5F5F5F5F5F5F5F5F5F5F5F5F5F5F5F5F5F5F5F5F5F5F5F5F5F5F5F5F5F5F5F5F5F5F5F5F5F5F5F5F5F5F5F5F5F5F5F5F5F5F5F5F5F5F5F5F5F5
310
F5F5F5F5F5F5F5F5F5F5F5F5F5F5F5F5F5F5F5F5F5F5F5F5F5F5F5F5F5F5F5F5F5F5F5F5F5F5F5F5F5F5E2F5F5F5E2E2EFF5F5F5E2F5F5F5F5F5F5F5F5F5F5F5F5F5F5F5F5F5F5F5F5F5F5F5F5F5F5F5F5F5F5F5F5F5F5F5F5F5F5F5F5F5F5F5F5F5F5F5F5F5F5F5F5F5F5F5F5F5F5F5F5F5F5F5F5F5F5F5F5F5F5F5F5F5F5
310
F5F5F5F5F5F5F5F5F5F5F5F5F5F5F5F5F5F5F5F5F5F5F5F5F5F5F5F5F5F5F5F5F5F5F5F5F5F5F5F5F5F5F5F5F5F5F5F5F5F5F5F5F5F5F5F5F5F5F5F5F5F5F5F5F5F5F5F5F5F5F5F5F5F5F5F5F5F5F5F5F5F5F5F5F5F5F5F5F5F5F5F5F5F5F5E2F5F5F5E2E2EFF5F5F5F5F5F5F5F5F5F5F5F5F5F5F5F5F5F5F5F5F5F5F5F5F5
310
F5F5F5F5F5F5F5F5F5F5F5F5F5F5F5F5F5F5F5F5F5F5F5F5F5F5F5F5F5F5F5F5F5F5F5F5F5F5F5F5F5F5F5F5F5F5F5F5F5F5F5F5F5F5F5F5F5F5F5F5F5F5F5F5F5F5F5F5F5F5F5F5F5F5F5F5F5F5F5F5F5F5F5F5F5F5F5F5F5F5F5F5F5F5F5F5F5F5F5F5F5F5F5F5F5F5F5F5F5F5F5F5F5F5F5F5F5F5F5F5F5F5F5F5F5F5F5
310
F5F5F5F5F5F5F5F5F5F5F5F5F5F5F5F5F5F5F5F5F5F5F5F5F5E2E2EFF5F5F5F5F5F5F5F5F5F5F5F5F5F5F5F5F5F5F5F5F5F5F5F5F5F5F5F5F5F5F5F5F5F5F5F5F5F5F5F5F5F5F5F5F5F5F5F5F5F5F5F5F5F5F5F5F5F5F5F5F5F5F5F5F5F5F5F5F5F5F5F5F5F5F5F5F5F5F5F5F5F5F5F5F5F5F5F5F5F5F5F5F5F5F5F5F5F5F5
310
F5F5F5F5F5F5F5F5F5F5F5F5F5F5F5F5F5F5F5F5F5F5F5F5F5F5F5F5F5F5F5F5F5F5F5F5F5F5F5F5F5F5F5F5F5F5F5F5F5F5F5F5F5F5F5F5F5F5F5F5F5F5F5F5F5F5F5F5F5F5F5F5F5F5F5F5F5F5E2E2EFF5F5F5F5F5F5F5F5F5F5F5F5F5F5F5F5F5F5F5F5F5F5F5F5F5F5F5F5F5F5F5F5F5F5F5F5F5F5F5F5F5F5F5F5F5F5
310
F5F5F5F5F5F5F5F5F5F5F5F5F5F5F5F5F5F5F5F5F5F5F5F5F5F5F5F5F5F5F5F5F5F5F5F5F5F5F5F5F5F5F5F5F5F5F5F5F5F5F5F5F5F5F5F5F5F5F5F5F5F5F5F5F5F5F5F5F5F5F5F5F5F5F5F5F5F5F5F5F5F5F5F5F5F5F5F5F5F5F5F5F5F5F5F5F5F5F5F5F5F5F5F5F5F5F5F5F5F5F5F5F5F5F5F5F5F5F5F5F5F5F5F5F5F5F5
310
F5F5F5F5E2E2EFF5F5F5F5F5F5F5F5F5F5F5F5F5F5F5F5F5F5F5F5F5F5F5F5F5F5F5F5F5F5F5F5F5F5F5F5F5F5F5F5F5F5F5F5F5F5F5F5F5F5F5F5F5F5F5F5F5F5F5F5F5F5F5F5F5F5F5F5F5F5F5F5F5F5F5F5F5F5F5F5F5F5F5F5F5F5F5F5F5F5F5F5F5F5F5F5F5F5F5F5F5F5F5F5F5F5F5F5F5F5F5F5F5F5F5F5F5F5F5F5
310
F5F5F5F5F5F5F5F5F5F5F5F5F5F5F5F5F5F5F5F5F5F5F5F5F5F5F5F5F5F5F5F5F5F5F5F5F5F5F5F5F5F5F5F5F5F5F5F5F5F5F5F5F5F5F5F5F5E2E2EFF5F5F5F5F5F5F5F5F5F5F5F5F5F5F5F5F5F5F5F5E2E2E2E2E2E2E2E2E2E2E2E2E2E2E2E2E2E2E2E2E2E2E2E2E2E2E2E2E2E2E2E2E2E2E2E2E2E2E2E2E2E2E2E2E2E2E2
310
E2E2E2E2E2E2E2E2E2E2E2E2E2E2E2E2E2E2E2E2E2E2E2E2E2E2E2E2E2E2E2E2E2E2E2E2E2E2E2E2E2E2E2E2E2E2E2E2E2E2E2E2E2E2E2E2E2E2E2E2E2E2E2E2E2E2E2E2E2E2E2E2E2E2E2E2E2E2E2E2E2E2E2E2E2E2E2E2E2E2F5F5F5F5F5F5F5F5F5F5F5F5F5F5F5F5F5F5F5F5E2E2EFF5F5F5F5F5F5F5F5F5F5F5F5F5F5
310
F5F5F5F5F5F5E2F5F5F5F5F5F5F5F5F5F5F5F5F5F5F5F5F5F5F5F5F5F5F5F5F5F5F5F5F5F5F5F5F5F5F5F5F5F5F5F5F5F5F5F5F5F5F5F5F5F5F5F5F5F5F5F5F5F5F5F5F5F5F5F5F5F5F5F5F5F5F5F5F5F5F5F5F5F5F5F5F5F5F5F5F5F5F5F5F5F5F5F5F5F5F5F5F5F5F5F5F5F5F5F5F5F5F5F5F5F5F5F5F5F5F5F5F5F5F5F5
310
F5F5F5F5F5F5F5F5F5F5F5F5F5F5F5E2F5F5F5F5F5F5F5F5F5F5F5F5F5F5F5F5F5F5F5F5E2E2EFF5F5F5F5F5F5F5F5F5F5F5F5F5F5F5F5F5F5F5F5E2F5F5F5F5F5F5F5F5F5F5F5F5F5F5F5F5F5F5F5F5F5F5F5F5F5F5F5F5F5F5F5F5F5F5F5F5F5F5F5F5F5F5F5F5F5F5F5F5F5F5F5F5F5F5F5F5F5F5F5F5F5F5F5F5F5F5F5
310
F5F5F5F5F5F5F5F5F5F5F5F5F5F5F5F5F5F5F5F5F5F5F5F5F5F5F5F5F5F5F5F5F5F5F5F5F5F5F5F5F5F5F5F5F5F5F5F5F5F5F5F5F5F5F5F5F5F5F5F5F5F5F5F5F5F5F5F5E2F5F5F5F5F5F5F5F5F5F5F5F5F5F5F5F5F5F5F5F5E2E2EFF5F5F5F5F5F5F5F5F5F5F5F5F5F5F5F5F5F5F5F5E2F5F5F5F5F5F5F5F5F5F5F5F5F5F5
310
F5F5F5F5F5F5F5F5F5F5F5F5F5F5F5F5F5F5F5F5F5F5F5F5F5F5F5F5F5F5F5F5F5F5F5F5F5F5F5F5F5F5F5F5F5F5F5F5F5F5F5F5F5F5F5F5F5F5F5F5F5F5F5F5F5F5F5F5F5F5F5F5F5F5F5F5F5F5F5F5F5F5F5F5F5F5F5F5F5F5F5F5F5F5F5F5F5F5F5F5F5F5F5F5F5F5F5F5F5F5F5F5F5F5F5F5F5F5F5F5F5E2F5F5F5F5F5
310
F5F5F5F5F5F5F5F5F5F5F5F5F5F5F5E2E2EFF5F5F5F5F5F5F5F5F5F5F5F5F5F5F5F5F5F5F5F5E2F5F5F5F5F5F5F5F5F5F5F5F5F5F5F5F5F5F5F5F5F5F5F5F5F5F5F5F5F5F5F5F5F5F5F5F5F5F5F5F5F5F5F5F5F5F5F5F5F5F5F5F5F5F5F5F5F5F5F5F5F5F5F5F5F5F5F5F5F5F5F5F5F5F5F5F5F5F5F5F5F5F5F5F5F5F5F5F5
310
F5F5F5F5F5F5F5F5F5F5F5F5F5F5F5F5F5F5F5F5F5F5F5F5F5F5F5F5F5F5F5F5F5F5F5F5F5F5F5F5F5F5F5F5F5F5F5E2F5F5F5F5F5F5F5F5F5F5F5F5F5F5F5F5F5F5F5F5E2E2EFF5F5F5E2F5F5F5F5F5F5F5F5F5F5F5F5F5F5F5F5E2F5F5F5F5F5F5F5F5F5F5F5F5F5F5F5F5F5F5F5F5F5F5F5F5F5F5F5F5F5F5F5F5F5F5F5
310
F5F5F5F5F5F5F5F5F5F5F5F5F5F5F5F5F5F5F5F5F5F5F5F5F5F5F5F5F5F5F5F5F5F5F5F5F5F5F5F5F5F5F5F5F5F5F5F5F5F5F5F5F5F5F5F5F5F5F5F5F5F5F5F5F5F5F5F5F5F5F5F5F5F5F5F5F5F5F5F5F5F5F5F5F5F5F5F5F5F5F5F5F5F5F5F5F5F5F5F5E2F5F5F5F5F5F5F5F5F5F5F5F5F5F5F5F5E2F5F5F5E2E2EFF5F5F5
310
E2F5F5F5F5F5F5F5F5F5F5F5F5F5F5F5F5E2F5F5F5F5F5F5F5F5F5F5F5F5F5F5F5F5F5F5F5F5F5F5F5F5F5F5F5F5F5F5F5F5F5F5F5F5F5F5F5F5F5F5F5F5F5F5F5F5F5F5F5F5F5F5F5F5F5F5F5F5F5F5F5F5F5F5F5F5F5F5F5F5F5F5F5F5F5F5F5F5F5F5F5F5F5F5F5F5F5F5F5F5F5F5F5F5F5F5F5F5F5F5F5F5F5F5F5F5F5
310
F5F5F5F5F5F5F5F5F5F5F5F5F5F5F5F5F5F5F5F5F5F5F5F5F5F5E2F5F5F5F5F5F5F5F5F5F5F5F5F5F5F5F5E2F5F5F5E2E2EFF5F5F5E2F5F5F5F5F5F5F5F5F5F5F5F5F5F5F5F5E2F5F5F5F5F5F5F5F5F5F5F5F5F5F5F5F5F5F5F5F5F5F5F5F5F5F5F5F5F5F5F5F5F5F5F5F5F5F5F5F5F5F5F5F5F5F5F5F5F5F5F5F5F5F5F5F5
310
F5F5F5F5F5F5F5F5F5F5F5F5F5F5F5F5F5F5F5F5F5F5F5F5F5F5F5F5F5F5F5F5F5F5F5F5F5F5F5F5F5F5F5F5F5F5F5F5F5F5F5F5F5F5F5F5F5F5F5F5F5F5F5F5F5F5F5F5F5F5F5F5F5F5F5F5F5F5F5E2F5F5F5F5F5F5F5F5F5F5F5F5F5F5F5F5E2F5F5F5E2E2EFF5F5F5E2F5F5F5F5F5F5F5F5F5F5F5F5F5F5F5F5E2F5F5F5
310
F5F5F5F5F5F5F5F5F5F5F5F5F5F5F5F5F5F5F5F5F5F5F5F5F5F5F5F5F5F5F5F5F5F5F5F5F5F5F5F5F5F5F5F5F5F5F5F5F5F5F5F5F5F5F5F5F5F5F5F5F5F5F5F5F5F5F5F5F5F5F5F5F5F5F5F5F5F5F5F5F5F5F5F5F5F5F5F5F5F5F5F5F5F5F5F5F5F5F5F5F5F5F5F5F5F5F5F5F5F5F5F5F5F5F5F5F5F5F5F5F5F5F5F5F5F5F5
310
F5F5F5F5F5E2F5F5F5F5F5F5F5F5F5F5F5F5F5F5F5F5E2F5F5F5E2E2EFF5F5F5E2F5F5F5F5F5F5F5F5F5F5F5F5F5F5F5F5E2F5F5F5F5F5F5F5F5F5F5F5F5F5F5F5F5F5F5F5F5F5F5F5F5F5F5F5F5F5F5F5F5F5F5F5F5F5F5F5F5F5F5F5F5F5F5F5F5F5F5F5F5F5F5F5F5F5F5F5F5F5F5F5F5F5F5F5F5F5F5F5F5F5F5F5F5F5
310
F5F5F5F5F5F5F5F5F5F5F5F5F5F5F5F5F5F5F5F5F5F5F5F5F5F5F5F5F5F5F5F5F5F5F5F5F5F5F5F5F5F5F5F5F5F5F5F5F5F5F5F5F5F5F5F5F5F5E2F5F5F5F5F5F5F5F5F5F5F5F5F5F5F5F5E2F5F5F5E2E2EFF5F5F5E2F5F5F5F5F5F5F5F5F5F5F5F5F5F5F5F5E2F5F5F5F5F5F5F5F5F5F5F5F5F5F5F5F5F5F5F5F5F5F5F5F5
310
F5F5F5F5F5F5F5F5F5F5F5F5F5F5F5F5F5F5F5F5F5F5F5F5F5F5F5F5F5F5F5F5F5F5F5F5F5F5F5F5F5F5F5F5F5F5F5F5F5F5F5F5F5F5F5F5F5F5F5F5F5F5F5F5F5F5F5F5F5F5F5F5F5F5F5F5F5F5F5F5F5F5F5F5F5F5F5F5F5F5F5F5F5F5F5F5F5F5F5F5F5F5F5F5F5F5F5F5F5F5F5E2F5F5F5F5F5F5F5F5F5F5F5F5F5F5F5
310
F5E2F5F5F5E2E2EFF5F5F5E2F5F5F5F5F5F5F5F5F5F5F5F5F5F5F5F5E2F5F5F5F5F5F5F5F5F5F5F5F5F5F5F5F5F5F5F5F5F5F5F5F5F5F5F5F5F5F5F5F5F5F5F5F5F5F5F5F5F5F5F5F5F5F5F5F5F5F5F5F5F5F5F5F5F5F5F5F5F5F5F5F5F5F5F5F5F5F5F5F5F5F5F5F5F5F5F5F5F5F5F5F5F5F5F5F5F5F5F5F5F5F5F5F5F5F5
310
F5F5F5F5F5F5F5F5F5F5F5F5F5F5F5F5F5F5F5F5F5F5F5F5F5F5F5F5F5F5F5F5F5F5F5F5F5E2F5F5F5F5F5F5F5F5F5F5F5F5F5F5F5F5E2F5F5F5E2E2EFF5F5F5E2F5F5F5F5F5F5F5F5F5F5F5F5F5F5F5F5E2F5F5F5F5F5F5F5F5F5F5F5F5F5F5F5F5F5F5F5F5F5F5F5F5F5F5F5F5F5F5F5F5F5F5F5F5F5F5F5F5F5F5F5F5F5
310
F5F5F5F5F5F5F5F5F5F5F5F5F5F5F5F5F5F5F5F5F5F5F5F5F5F5F5F5F5F5F5F5F5F5F5F5F5F5F5F5F5F5F5F5F5F5F5F5F5F5F5F5F5F5F5F5F5F5F5F5F5F5F5F5F5F5F5F5F5F5F5F5F5F5F5F5F5F5F5F5F5F5F5F5F5F5F5F5F5F5E2F5F5F5F5F5F5F5F5F5F5F5F5F5F5F5F5E2F5F5F5E2E2EFF5F5F5E2F5F5F5F5F5F5F5F5F5
310
F5F5F5F5F5F5F5E2F5F5F5F5F5F5F5F5F5F5F5F5F5F5F5F5F5F5F5F5F5F5F5F5F5F5F5F5F5F5F5F5F5F5F5F5F5F5F5F5F5F5F5F5F5F5F5F5F5F5F5F5F5F5F5F5F5F5F5F5F5F5F5F5F5F5F5F5F5F5F5F5F5F5F5F5F5F5F5F5F5F5F5F5F5F5F5F5F5F5F5F5F5F5F5F5F5F5F5F5F5F5F5F5F5F5F5F5F5F5F5F5F5F5F5F5F5F5F5
310
F5F5F5F5F5F5F5F5F5F5F5F5F5F5F5F5E2F5F5F5F5F5F5F5F5F5F5F5F5F5F5F5F5E2F5F5F5E2E2EFF5F5F5E2F5F5F5F5F5F5F5F5F5F5F5F5F5F5F5F5E2F5F5F5F5F5F5F5F5F5F5F5F5F5F5F5F5F5F5F5F5F5F5F5F5F5F5F5F5F5F5F5F5F5F5F5F5F5F5F5F5F5F5F5F5F5F5F5F5F5F5F5F5F5F5F5F5F5F5F5F5F5F5F5F5F5F5
310
F5F5F5F5F5F5F5F5F5F5F5F5F5F5F5F5F5F5F5F5F5F5F5F5F5F5F5F5F5F5F5F5F5F5F5F5F5F5F5F5F5F5F5F5F5F5F5F5F5F5F5F5F5F5F5F5F5F5F5F5F5F5F5F5F5F5F5F5F5E2F5F5F5F5F5F5F5F5F5F5F5F5F5F5F5F5E2F5F5F5E2E2EFF5F5F5E2F5F5F5F5F5F5F5F5F5F5F5F5F5F5F5F5E2F5F5F5F5F5F5F5F5F5F5F5F5F5
310
F5F5F5F5F5F5F5F5F5F5F5F5F5F5F5F5F5F5F5F5F5F5F5F5F5F5F5F5F5F5F5F5F5F5F5F5F5F5F5F5F5F5F5F5F5F5F5F5F5F5F5F5F5F5F5F5F5F5F5F5F5F5F5F5F5F5F5F5F5F5F5F5F5F5F5F5F5F5F5F5F5F5F5F5F5F5F5F5F5F5F5F5F5F5F5F5F5F5F5F5F5F5F5F5F5F5F5F5F5F5F5F5F5F5F5F5F5F5F5F5F5F5E2F5F5F5F5
310
F5F5F5F5F5F5F5F5F5F5F5F5E2F5F5F5E2E2EFF5F5F5E2F5F5F5F5F5F5F5F5F5F5F5F5F5F5F5F5E2F5F5F5F5F5F5F5F5F5F5F5F5F5F5F5F5F5F5F5F5F5F5F5F5F5F5F5F5F5F5F5F5F5F5F5F5F5F5F5F5F5F5F5F5F5F5F5F5F5F5F5F5F5F5F5F5F5F5F5F5F5F5F5F5F5F5F5F5F5F5F5F5F5F5F5F5F5F5F5F5F5F5F5F5F5F5F5
310
F5F5F5F5F5F5F5F5F5F5F5F5F5F5F5F5F5F5F5F5F5F5F5F5F5F5F5F5F5F5F5F5F5F5F5F5F5F5F5F5F5F5F5F5F5F5F5F5E2F5F5F5F5F5F5F5F5F5F5F5F5F5F5F5F5E2F5F5F5E2E2EFF5F5F5E2F5F5F5F5F5F5F5F5F5F5F5F5F5F5F5F5E2F5F5F5F5F5F5F5F5F5F5F5F5F5F5F5F5F5F5F5F5F5F5F5F5F5F5F5F5F5F5F5F5F5F5
310
F5F5F5F5F5F5F5F5F5F5F5F5F5F5F5F5F5F5F5F5F5F5F5F5F5F5F5F5F5F5F5F5F5F5F5F5F5F5F5F5F5F5F5F5F5F5F5F5F5F5F5F5F5F5F5F5F5F5F5F5F5F5F5F5F5F5F5F5F5F5F5F5F5F5F5F5F5F5F5F5F5F5F5F5F5F5F5F5F5F5F5F5F5F5F5F5F5F5F5F5F5E2F5F5F5F5F5F5F5F5F5F5F5F5F5F5F5F5E2F5F5F5E2E2EFF5F5
310
F5E2F5F5F5F5F5F5F5F5F5F5F5F5F5F5F5F5E2F5F5F5F5F5F5F5F5F5F5F5F5F5F5F5F5F5F5F5F5F5F5F5F5F5F5F5F5F5F5F5F5F5F5F5F5F5F5F5F5F5F5F5F5F5F5F5F5F5F5F5F5F5F5F5F5F5F5F5F5F5F5F5F5F5F5F5F5F5F5F5F5F5F5F5F5F5F5F5F5F5F5F5F5F5F5F5F5F5F5F5F5F5F5F5F5F5F5F5F5F5F5F5F5F5F5F5F5
310
F5F5F5F5F5F5F5F5F5F5F5F5F5F5F5F5F5F5F5F5F5F5F5F5F5F5F5E2F5F5F5F5F5F5F5F5F5F5F5F5F5F5F5F5E2F5F5F5E2E2EFF5F5F5E2F5F5F5F5F5F5F5F5F5F5F5F5F5F5F5F5E2F5F5F5F5F5F5F5F5F5F5F5F5F5F5F5F5F5F5F5F5F5F5F5F5F5F5F5F5F5F5F5F5F5F5F5F5F5F5F5F5F5F5F5F5F5F5F5F5F5F5F5F5F5F5F5
310
F5F5F5F5F5F5F5F5F5F5F5F5F5F5F5F5F5F5F5F5F5F5F5F5F5F5F5F5F5F5F5F5F5F5F5F5F5F5F5F5F5F5F5F5F5F5F5F5F5F5F5F5F5F5F5F5F5F5F5F5F5F5F5F5F5F5F5F5F5F5F5F5F5F5F5F5F5F5F5F5E2F5F5F5F5F5F5F5F5F5F5F5F5F5F5F5F5E2F5F5F5E2E2EFF5F5F5E2F5F5F5F5F5F5F5F5F5F5F5F5F5F5F5F5E2F5F5
310
F5F5F5F5F5F5F5F5F5F5F5F5F5F5F5F5F5F5F5F5F5F5F5F5F5F5F5F5F5F5F5F5F5F5F5F5F5F5F5F5F5F5F5F5F5F5F5F5F5F5F5F5F5F5F5F5F5F5F5F5F5F5F5F5F5F5F5F5F5F5F5F5F5F5F5F5F5F5F5F5F5F5F5F5F5F5F5F5F5F5F5F5F5F5F5F5F5F5F5F5F5F5F5F5F5F5F5F5F5F5F5F5F5F5F5F5F5F5F5F5F5F5F5F5F5F5F5
310
F5F5F5F5F5F5E2F5F5F5F5F5F5F5F5F5F5F5F5F5F5F5F5E2F5F5F5E2E2EFF5F5F5E2F5F5F5F5F5F5F5F5F5F5F5F5F5F5F5F5E2F5F5F5F5F5F5F5F5F5F5F5F5F5F5F5F5F5F5F5F5F5F5F5F5F5F5F5F5F5F5F5F5F5F5F5F5F5F5F5F5F5F5F5F5F5F5F5F5F5F5F5F5F5F5F5F5F5F5F5F5F5F5F5F5F5F5F5F5F5F5F5F5F5F5F5F5
310
F5F5F5F5F5F5F5F5F5F5F5F5F5F5F5F5F5F5F5F5F5F5F5F5F5F5F5F5F5F5F5F5F5F5F5F5F5F5F5F5F5F5F5F5F5F5F5F5F5F5F5F5F5F5F5F5F5F5F5E2F5F5F5F5F5F5F5F5F5F5F5F5F5F5F5F5E2F5F5F5E2E2EFF5F5F5F5F5F5F5F5F5F5F5F5F5F5F5F5F5F5F5F5E2F5F5F5F5F5F5F5F5F5F5F5F5F5F5F5F5F5F5F5F5F5F5F5
310
F5F5F5F5F5F5F5F5F5F5F5F5F5F5F5F5F5F5F5F5F5F5F5F5F5F5F5F5F5F5F5F5F5F5F5F5F5F5F5F5F5F5F5F5F5F5F5F5F5F5F5F5F5F5F5F5F5F5F5F5F5F5F5F5F5F5F5F5F5F5F5F5F5F5F5F5F5F5F5F5F5F5F5F5F5F5F5F5F5F5F5F5F5F5F5F5F5F5F5F5F5F5F5F5F5F5F5F5F5F5F5F5E2F5F5F5F5F5F5F5F5F5F5F5F5F5F5
310
F5F5F5F5F5F5E2E2EFF5F5F5F5F5F5F5F5F5F5F5F5F5F5F5F5F5F5F5F5E2F5F5F5F5F5F5F5F5F5F5F5F5F5F5F5F5F5F5F5F5F5F5F5F5F5F5F5F5F5F5F5F5F5F5F5F5F5F5F5F5F5F5F5F5F5F5F5F5F5F5F5F5F5F5F5F5F5F5F5F5F5F5F5F5F5F5F5F5F5F5F5F5F5F5F5F5F5F5F5F5F5F5F5F5F5F5F5F5F5F5F5F5F5F5F5F5F5
310
F5F5F5F5F5F5F5F5F5F5F5F5F5F5F5F5F5F5F5F5F5F5F5F5F5F5F5F5F5F5F5F5F5F5F5F5F5F5E2F5F5F5F5F5F5F5F5F5F5F5F5F5F5F5F5F5F5F5F5E2E2EFF5F5F5F5F5F5F5F5F5F5F5F5F5F5F5F5F5F5F5F5E2F5F5F5F5F5F5F5F5F5F5F5F5F5F5F5F5F5F5F5F5F5F5F5F5F5F5F5F5F5F5F5F5F5F5F5F5F5F5F5F5F5F5F5F5
310
F5F5F5F5F5F5F5F5F5F5F5F5F5F5F5F5F5F5F5F5F5F5F5F5F5F5F5F5F5F5F5F5F5F5F5F5F5F5F5F5F5F5F5F5F5F5F5F5F5F5F5F5F5F5F5F5F5F5F5F5F5F5F5F5F5F5F5F5F5F5F5F5F5F5F5F5F5F5F5F5F5F5F5F5F5F5F5F5F5F5F5E2F5F5F5F5F5F5F5F5F5F5F5F5F5F5F5F5F5F5F5F5E2E2EFF5F5F5F5F5F5F5F5F5F5F5F5
310
F5F5F5F5F5F5F5F5E2F5F5F5F5F5F5F5F5F5F5F5F5F5F5F5F5F5F5F5F5F5F5F5F5F5F5F5F5F5F5F5F5F5F5F5F5F5F5F5F5F5F5F5F5F5F5F5F5F5F5F5F5F5F5F5F5F5F5F5F5F5F5F5F5F5F5F5F5F5F5F5F5F5F5F5F5F5F5F5F5F5F5F5F5F5F5F5F5F5F5F5F5F5F5F5F5F5F5F5F5F5F5F5F5F5F5F5F5F5F5F5F5F5F5F5F5F5F5
310
F5F5F5F5F5F5F5F5F5F5F5F5F5F5F5F5F5E2F5F5F5F5F5F5F5F5F5F5F5F5F5F5F5F5F5F5F5F5E2E2EFF5F5F5F5F5F5F5F5F5F5F5F5F5F5F5F5F5F5F5F5E2F5F5F5F5F5F5F5F5F5F5F5F5F5F5F5F5F5F5F5F5F5F5F5F5F5F5F5F5F5F5F5F5F5F5F5F5F5F5F5F5F5F5F5F5F5F5F5F5F5F5F5F5F5F5F5F5F5F5F5F5F5F5F5F5F5
310
F5F5F5F5F5F5F5F5F5F5F5F5F5F5F5F5F5F5F5F5F5F5F5F5F5F5F5F5F5F5F5F5F5F5F5F5F5F5F5F5F5F5F5F5F5F5F5F5F5F5F5F5F5F5F5F5F5F5F5F5F5F5F5F5F5F5F5F5F5F5E2F5F5F5F5F5F5F5F5F5F5F5F5F5F5F5F5F5F5F5F5E2E2EFF5F5F5F5F5F5F5F5F5F5F5F5F5F5F5F5F5F5F5F5E2F5F5F5F5F5F5F5F5F5F5F5F5
310
F5F5F5F5F5F5F5F5F5F5F5F5F5F5F5F5F5F5F5F5F5F5F5F5F5F5F5F5F5F5F5F5F5F5F5F5F5F5F5F5F5F5F5F5F5F5F5F5F5F5F5F5F5F5F5F5F5F5F5F5F5F5F5F5F5F5F5F5F5F5F5F5F5F5F5F5F5F5F5F5F5F5F5F5F5F5F5F5F5F5F5F5F5F5F5F5F5F5F5F5F5F5F5F5F5F5F5F5F5F5F5F5F5F5F5F5F5F5F5F5F5F5F5E2F5F5F5
310
F5F5F5F5F5F5F5F5F5F5F5F5F5F5F5F5F5E2E2EFF5F5F5F5F5F5F5F5F5F5F5F5F5F5F5F5F5F5F5F5E2F5F5F5F5F5F5F5F5F5F5F5F5F5F5F5F5F5F5F5F5F5F5F5F5F5F5F5F5F5F5F5F5F5F5F5F5F5F5F5F5F5F5F5F5F5F5F5F5F5F5F5F5F5F5F5F5F5F5F5F5F5F5F5F5F5F5F5F5F5F5F5F5F5F5F5F5F5F5F5F5F5F5F5F5F5F5
310
F5F5F5F5F5F5F5F5F5F5F5F5F5F5F5F5F5F5F5F5F5F5F5F5F5F5F5F5F5F5F5F5F5F5F5F5F5F5F5F5F5F5F5F5F5F5F5F5F5E2F5F5F5F5F5F5F5F5F5F5F5F5F5F5F5F5F5F5F5F5E2E2EFF5F5F5F5F5F5F5F5F5F5F5F5F5F5F5F5F5F5F5F5E2F5F5F5F5F5F5F5F5F5F5F5F5F5F5F5F5F5F5F5F5F5F5F5F5F5F5F5F5F5F5F5F5F5
310
F5F5F5F5F5F5F5F5F5F5F5F5F5F5F5F5F5F5F5F5F5F5F5F5F5F5F5F5F5F5F5F5F5F5F5F5F5F5F5F5F5F5F5F5F5F5F5F5F5F5F5F5F5F5F5F5F5F5F5F5F5F5F5F5F5F5F5F5F5F5F5F5F5F5F5F5F5F5F5F5F5F5F5F5F5F5F5F5F5F5F5F5F5F5F5F5F5F5F5F5F5F5E2F5F5F5F5F5F5F5F5F5F5F5F5F5F5F5F5F5F5F5F5E2E2EFF5
310
F5F5F5F5F5F5F5F5F5F5F5F5F5F5F5F5F5F5F5E2F5F5F5F5F5F5F5F5F5F5F5F5F5F5F5F5F5F5F5F5F5F5F5F5F5F5F5F5F5F5F5F5F5F5F5F5F5F5F5F5F5F5F5F5F5F5F5F5F5F5F5F5F5F5F5F5F5F5F5F5F5F5F5F5F5F5F5F5F5F5F5F5F5F5F5F5F5F5F5F5F5F5F5F5F5F5F5F5F5F5F5F5F5F5F5F5F5F5F5F5F5F5F5F5F5F5F5
310
F5F5F5F5F5F5F5F5F5F5F5F5F5F5F5F5F5F5F5F5F5F5F5F5F5F5F5F5E2F5F5F5F5F5F5F5F5F5F5F5F5F5F5F5F5F5F5F5F5E2E2EFF5F5F5E2F5F5F5F5F5F5F5F5F5F5F5F5F5F5F5F5E2F5F5F5F5F5F5F5F5F5F5F5F5F5F5F5F5F5F5F5F5F5F5F5F5F5F5F5F5F5F5F5F5F5F5F5F5F5F5F5F5F5F5F5F5F5F5F5F5F5F5F5F5F5F5
310
F5F5F5F5F5F5F5F5F5F5F5F5F5F5F5F5F5F5F5F5F5F5F5F5F5F5F5F5F5F5F5F5F5F5F5F5F5F5F5F5F5F5F5F5F5F5F5F5F5F5F5F5F5F5F5F5F5F5F5F5F5F5F5F5F5F5F5F5F5F5F5F5F5F5F5F5F5F5F5F5F5E2F5F5F5F5F5F5F5F5F5F5F5F5F5F5F5F5E2F5F5F5E2E2EFF5F5F5E2F5F5F5F5F5F5F5F5F5F5F5F5F5F5F5F5E2F5
310
F5F5F5F5F5F5F5F5F5F5F5F5F5F5F5F5F5F5F5F5F5F5F5F5F5F5F5F5F5F5F5F5F5F5F5F5F5F5F5F5F5F5F5F5F5F5F5F5F5F5F5F5F5F5F5F5F5F5F5F5F5F5F5F5F5F5F5F5F5F5F5F5F5F5F5F5F5F5F5F5F5F5F5F5F5F5F5F5F5F5F5F5F5F5F5F5F5F5F5F5F5F5F5F5F5F5F5F5F5F5F5F5F5F5F5F5F5F5F5F5F5F5F5F5F5F5F5
310
F5F5F5F5F5F5F5E2F5F5F5F5F5F5F5F5F5F5F5F5F5F5F5F5E2F5F5F5E2E2EFF5F5F5E2F5F5F5F5F5F5F5F5F5F5F5F5F5F5F5F5E2F5F5F5F5F5F5F5F5F5F5F5F5F5F5F5F5F5F5F5F5F5F5F5F5F5F5F5F5F5F5F5F5F5F5F5F5F5F5F5F5F5F5F5F5F5F5F5F5F5F5F5F5F5F5F5F5F5F5F5F5F5F5F5F5F5F5F5F5F5F5F5F5F5F5F5
310
F5F5F5F5F5F5F5F5F5F5F5F5F5F5F5F5F5F5F5F5F5F5F5F5F5F5F5F5F5F5F5F5F5F5F5F5F5F5F5F5F5F5F5F5F5F5F5F5F5F5F5F5F5F5F5F5F5F5F5F5E2F5F5F5F5F5F5F5F5F5F5F5F5F5F5F5F5E2F5F5F5E2E2EFF5F5F5E2F5F5F5F5F5F5F5F5F5F5F5F5F5F5F5F5E2F5F5F5F5F5F5F5F5F5F5F5F5F5F5F5F5F5F5F5F5F5F5
310
F5F5F5F5F5F5F5F5F5F5F5F5F5F5F5F5F5F5F5F5F5F5F5F5F5F5F5F5F5F5F5F5F5F5F5F5F5F5F5F5F5F5F5F5F5F5F5F5F5F5F5F5F5F5F5F5F5F5F5F5F5F5F5F5F5F5F5F5F5F5F5F5F5F5F5F5F5F5F5F5F5F5F5F5F5F5F5F5F5F5F5F5F5F5F5F5F5F5F5F5F5F5F5F5F5F5F5F5F5F5F5F5F5E2F5F5F5F5F5F5F5F5F5F5F5F5F5
310
F5F5F5E2F5F5F5E2E2EFF5F5F5E2F5F5F5F5F5F5F5F5F5F5F5F5F5F5F5F5E2F5F5F5F5F5F5F5F5F5F5F5F5F5F5F5F5F5F5F5F5F5F5F5F5F5F5F5F5F5F5F5F5F5F5F5F5F5F5F5F5F5F5F5F5F5F5F5F5F5F5F5F5F5F5F5F5F5F5F5F5F5F5F5F5F5F5F5F5F5F5F5F5F5F5F5F5F5F5F5F5F5F5F5F5F5F5F5F5F5F5F5F5F5F5F5F5
310
F5F5F5F5F5F5F5F5F5F5F5F5F5F5F5F5F5F5F5F5F5F5F5F5F5F5F5F5F5F5F5F5F5F5F5F5F5F5F5E2F5F5F5F5F5F5F5F5F5F5F5F5F5F5F5F5E2F5F5F5E2E2EFF5F5F5E2F5F5F5F5F5F5F5F5F5F5F5F5F5F5F5F5E2F5F5F5F5F5F5F5F5F5F5F5F5F5F5F5F5F5F5F5F5F5F5F5F5F5F5F5F5F5F5F5F5F5F5F5F5F5F5F5F5F5F5F5
310
F5F5F5F5F5F5F5F5F5F5F5F5F5F5F5F5F5F5F5F5F5F5F5F5F5F5F5F5F5F5F5F5F5F5F5F5F5F5F5F5F5F5F5F5F5F5F5F5F5F5F5F5F5F5F5F5F5F5F5F5F5F5F5F5F5F5F5F5F5F5F5F5F5F5F5F5F5F5F5F5F5F5F5F5F5F5F5F5F5F5F5F5E2F5F5F5F5F5F5F5F5F5F5F5F5F5F5F5F5E2F5F5F5E2E2EFF5F5F5E2F5F5F5F5F5F5F5
310
F5F5F5F5F5F5F5F5F5E2F5F5F5F5F5F5F5F5F5F5F5F5F5F5F5F5F5F5F5F5F5F5F5F5F5F5F5F5F5F5F5F5F5F5F5F5F5F5F5F5F5F5F5F5F5F5F5F5F5F5F5F5F5F5F5F5F5F5F5F5F5F5F5F5F5F5F5F5F5F5F5F5F5F5F5F5F5F5F5F5F5F5F5F5F5F5F5F5F5F5F5F5F5F5F5F5F5F5F5F5F5F5F5F5F5F5F5F5F5F5F5F5F5F5F5F5F5
310
F5F5F5F5F5F5F5F5F5F5F5F5F5F5F5F5F5F5E2F5F5F5F5F5F5F5F5F5F5F5F5F5F5F5F5E2F5F5F5E2E2EFF5F5F5E2F5F5F5F5F5F5F5F5F5F5F5F5F5F5F5F5E2F5F5F5F5F5F5F5F5F5F5F5F5F5F5F5F5F5F5F5F5F5F5F5F5F5F5F5F5F5F5F5F5F5F5F5F5F5F5F5F5F5F5F5F5F5F5F5F5F5F5F5F5F5F5F5F5F5F5F5F5F5F5F5F5
310
F5F5F5F5F5F5F5F5F5F5F5F5F5F5F5F5F5F5F5F5F5F5F5F5F5F5F5F5F5F5F5F5F5F5F5F5F5F5F5F5F5F5F5F5F5F5F5F5F5F5F5F5F5F5F5F5F5F5F5F5F5F5F5F5F5F5F5F5F5F5F5E2F5F5F5F5F5F5F5F5F5F5F5F5F5F5F5F5E2F5F5F5E2E2EFF5F5F5E2F5F5F5F5F5F5F5F5F5F5F5F5F5F5F5F5E2F5F5F5F5F5F5F5F5F5F5F5
310
F5F5F5F5F5F5F5F5F5F5F5F5F5F5F5F5F5F5F5F5F5F5F5F5F5F5F5F5F5F5F5F5F5F5F5F5F5F5F5F5F5F5F5F5F5F5F5F5F5F5F5F5F5F5F5F5F5F5F5F5F5F5F5F5F5F5F5F5F5F5F5F5F5F5F5F5F5F5F5F5F5F5F5F5F5F5F5F5F5F5F5F5F5F5F5F5F5F5F5F5F5F5F5F5F5F5F5F5F5F5F5F5F5F5F5F5F5F5F5F5F5F5F5F5E2F5F5
310
F5F5F5F5F5F5F5F5F5F5F5F5F5F5E2F5F5F5E2E2EFF5F5F5E2F5F5F5F5F5F5F5F5F5F5F5F5F5F5F5F5E2F5F5F5F5F5F5F5F5F5F5F5F5F5F5F5F5F5F5F5F5F5F5F5F5F5F5F5F5F5F5F5F5F5F5F5F5F5F5F5F5F5F5F5F5F5F5F5F5F5F5F5F5F5F5F5F5F5F5F5F5F5F5F5F5F5F5F5F5F5F5F5F5F5F5F5F5F5F5F5F5F5F5F5F5F5
310
F5F5F5F5F5F5F5F5F5F5F5F5F5F5F5F5F5F5F5F5F5F5F5F5F5F5F5F5F5F5F5F5F5F5F5F5F5F5F5F5F5F5F5F5F5F5F5F5F5F5E2F5F5F5F5F5F5F5F5F5F5F5F5F5F5F5F5E2F5F5F5E2E2EFF5F5F5E2F5F5F5F5F5F5F5F5F5F5F5F5F5F5F5F5E2F5F5F5F5F5F5F5F5F5F5F5F5F5F5F5F5F5F5F5F5F5F5F5F5F5F5F5F5F5F5F5F5
310
F5F5F5F5F5F5F5F5F5F5F5F5F5F5F5F5F5F5F5F5F5F5F5F5F5F5F5F5F5F5F5F5F5F5F5F5F5F5F5F5F5F5F5F5F5F5F5F5F5F5F5F5F5F5F5F5F5F5F5F5F5F5F5F5F5F5F5F5F5F5F5F5F5F5F5F5F5F5F5F5F5F5F5F5F5F5F5F5F5F5F5F5F5F5F5F5F5F5F5F5F5F5F5E2F5F5F5F5F5F5F5F5F5F5F5F5F5F5F5F5E2F5F5F5E2E2EF
310
F5F5F5E2F5F5F5F5F5F5F5F5F5F5F5F5F5F5F5F5E2F5F5F5F5F5F5F5F5F5F5F5F5F5F5F5F5F5F5F5F5F5F5F5F5F5F5F5F5F5F5F5F5F5F5F5F5F5F5F5F5F5F5F5F5F5F5F5F5F5F5F5F5F5F5F5F5F5F5F5F5F5F5F5F5F5F5F5F5F5F5F5F5F5F5F5F5F5F5F5F5F5F5F5F5F5F5F5F5F5F5F5F5F5F5F5F5F5F5F5F5F5F5F5F5F5F5
310
F5F5F5F5F5F5F5F5F5F5F5F5F5F5F5F5F5F5F5F5F5F5F5F5F5F5F5F5F5E2F5F5F5F5F5F5F5F5F5F5F5F5F5F5F5F5E2F5F5F5E2E2EFF5F5F5E2F5F5F5F5F5F5F5F5F5F5F5F5F5F5F5F5E2F5F5F5F5F5F5F5F5F5F5F5F5F5F5F5F5F5F5F5F5F5F5F5F5F5F5F5F5F5F5F5F5F5F5F5F5F5F5F5F5F5F5F5F5F5F5F5F5F5F5F5F5F5
310
F5F5F5F5F5F5F5F5F5F5F5F5F5F5F5F5F5F5F5F5F5F5F5F5F5F5F5F5F5F5F5F5F5F5F5F5F5F5F5F5F5F5F5F5F5F5F5F5F5F5F5F5F5F5F5F5F5F5F5F5F5F5F5F5F5F5F5F5F5F5F5F5F5F5F5F5F5F5F5F5F5F5E2F5F5F5F5F5F5F5F5F5F5F5F5F5F5F5F5E2F5F5F5E2E2EFF5F5F5E2F5F5F5F5F5F5F5F5F5F5F5F5F5F5F5F5E2
310
F5F5F5F5F5F5F5F5F5F5F5F5F5F5F5F5F5F5F5F5F5F5F5F5F5F5F5F5F5F5F5F5F5F5F5F5F5F5F5F5F5F5F5F5F5F5F5F5F5F5F5F5F5F5F5F5F5F5F5F5F5F5F5F5F5F5F5F5F5F5F5F5F5F5F5F5F5F5F5F5F5F5F5F5F5F5F5F5F5F5F5F5F5F5F5F5F5F5F5F5F5F5F5F5F5F5F5F5F5F5F5F5F5F5F5F5F5F5F5F5F5F5F5F5F5F5F5
310
F5F5F5F5F5F5F5F5E2F5F5F5F5F5F5F5F5F5F5F5F5F5F5F5F5E2F5F5F5E2E2EFF5F5F5E2F5F5F5F5F5F5F5F5F5F5F5F5F5F5F5F5E2F5F5F5F5F5F5F5F5F5F5F5F5F5F5F5F5F5F5F5F5F5F5F5F5F5F5F5F5F5F5F5F5F5F5F5F5F5F5F5F5F5F5F5F5F5F5F5F5F5F5F5F5F5F5F5F5F5F5F5F5F5F5F5F5F5F5F5F5F5F5F5F5F5F5
310
F5F5F5F5F5F5F5F5F5F5F5F5F5F5F5F5F5F5F5F5F5F5F5F5F5F5F5F5F5F5F5F5F5F5F5F5F5F5F5F5F5F5F5F5F5F5F5F5F5F5F5F5F5F5F5F5F5F5F5F5F5E2F5F5F5F5F5F5F5F5F5F5F5F5F5F5F5F5E2F5F5F5E2E2EFF5F5F5E2F5F5F5F5F5F5F5F5F5F5F5F5F5F5F5F5E2F5F5F5F5F5F5F5F5F5F5F5F5F5F5F5F5F5F5F5F5F5
310
F5F5F5F5F5F5F5F5F5F5F5F5F5F5F5F5F5F5F5F5F5F5F5F5F5F5F5F5F5F5F5F5F5F5F5F5F5F5F5F5F5F5F5F5F5F5F5F5F5F5F5F5F5F5F5F5F5F5F5F5F5F5F5F5F5F5F5F5F5F5F5F5F5F5F5F5F5F5F5F5F5F5F5F5F5F5F5F5F5F5F5F5F5F5F5F5F5F5F5F5F5F5F5F5F5F5F5F5F5F5F5F5F5F5E2F5F5F5F5F5F5F5F5F5F5F5F5
310
F5F5F5F5E2F5F5F5E2E2EFF5F5F5E2F5F5F5F5F5F5F5F5F5F5F5F5F5F5F5F5E2F5F5F5F5F5F5F5F5F5F5F5F5F5F5F5F5F5F5F5F5F5F5F5F5F5F5F5F5F5F5F5F5F5F5F5F5F5F5F5F5F5F5F5F5F5F5F5F5F5F5F5F5F5F5F5F5F5F5F5F5F5F5F5F5F5F5F5F5F5F5F5F5F5F5F5F5F5F5F5F5F5F5F5F5F5F5F5F5F5F5F5F5F5F5F5
310
F5F5F5F5F5F5F5F5F5F5F5F5F5F5F5F5F5F5F5F5F5F5F5F5F5F5F5F5F5F5F5F5F5F5F5F5F5F5F5F5E2F5F5F5F5F5F5F5F5F5F5F5F5F5F5F5F5E2F5F5F5E2E2EFF5F5F5F5F5F5F5F5F5F5F5F5F5F5F5F5F5F5F5F5E2F5F5F5F5F5F5F5F5F5F5F5F5F5F5F5F5F5F5F5F5F5F5F5F5F5F5F5F5F5F5F5F5F5F5F5F5F5F5F5F5F5F5
310
F5F5F5F5F5F5F5F5F5F5F5F5F5F5F5F5F5F5F5F5F5F5F5F5F5F5F5F5F5F5F5F5F5F5F5F5F5F5F5F5F5F5F5F5F5F5F5F5F5F5F5F5F5F5F5F5F5F5F5F5F5F5F5F5F5F5F5F5F5F5F5F5F5F5F5F5F5F5F5F5F5F5F5F5F5F5F5F5F5F5F5F5F5E2F5F5F5F5F5F5F5F5F5F5F5F5F5F5F5F5F5F5F5F5E2E2EFF5F5F5F5F5F5F5F5F5F5
310
F5F5F5F5F5F5F5F5F5F5E2F5F5F5F5F5F5F5F5F5F5F5F5F5F5F5F5F5F5F5F5F5F5F5F5F5F5F5F5F5F5F5F5F5F5F5F5F5F5F5F5F5F5F5F5F5F5F5F5F5F5F5F5F5F5F5F5F5F5F5F5F5F5F5F5F5F5F5F5F5F5F5F5F5F5F5F5F5F5F5F5F5F5F5F5F5F5F5F5F5F5F5F5F5F5F5F5F5F5F5F5F5F5F5F5F5F5F5F5F5F5F5F5F5F5F5F5
310
F5F5F5F5F5F5F5F5F5F5F5F5F5F5F5F5F5F5F5E2F5F5F5F5F5F5F5F5F5F5F5F5F5F5F5F5F5F5F5F5E2E2EFF5F5F5F5F5F5F5F5F5F5F5F5F5F5F5F5F5F5F5F5E2F5F5F5F5F5F5F5F5F5F5F5F5F5F5F5F5F5F5F5F5F5F5F5F5F5F5F5F5F5F5F5F5F5F5F5F5F5F5F5F5F5F5F5F5F5F5F5F5F5F5F5F5F5F5F5F5F5F5F5F5F5F5F5
310
F5F5F5F5F5F5F5F5F5F5F5F5F5F5F5F5F5F5F5F5F5F5F5F5F5F5F5F5F5F5F5F5F5F5F5F5F5F5F5F5F5F5F5F5F5F5F5F5F5F5F5F5F5F5F5F5F5F5F5F5F5F5F5F5F5F5F5F5F5F5F5F5E2F5F5F5F5F5F5F5F5F5F5F5F5F5F5F5F5F5F5F5F5E2E2EFF5F5F5F5F5F5F5F5F5F5F5F5F5F5F5F5F5F5F5F5E2F5F5F5F5F5F5F5F5F5F5
310
F5F5F5F5F5F5F5F5F5F5F5F5F5F5F5F5F5F5F5F5F5F5F5F5F5F5F5F5F5F5F5F5F5F5F5F5F5F5F5F5F5F5F5F5F5F5F5F5F5F5F5F5F5F5F5F5F5F5F5F5F5F5F5F5F5F5F5F5F5F5F5F5F5F5F5F5F5F5F5F5F5F5F5F5F5F5F5F5F5F5F5F5F5F5F5F5F5F5F5F5F5F5F5F5F5F5F5F5F5F5F5F5F5F5F5F5F5F5F5F5F5F5F5F5F5E2F5
310
F5F5F5F5F5F5F5F5F5F5F5F5F5F5F5F5F5F5F5E2E2EFF5F5F5F5F5F5F5F5F5F5F5F5F5F5F5F5F5F5F5F5E2F5F5F5F5F5F5F5F5F5F5F5F5F5F5F5F5F5F5F5F5F5F5F5F5F5F5F5F5F5F5F5F5F5F5F5F5F5F5F5F5F5F5F5F5F5F5F5F5F5F5F5F5F5F5F5F5F5F5F5F5F5F5F5F5F5F5F5F5F5F5F5F5F5F5F5F5F5F5F5F5F5F5F5F5
310
F5F5F5F5F5F5F5F5F5F5F5F5F5F5F5F5F5F5F5F5F5F5F5F5F5F5F5F5F5F5F5F5F5F5F5F5F5F5F5F5F5F5F5F5F5F5F5F5F5F5F5E2F5F5F5F5F5F5F5F5F5F5F5F5F5F5F5F5F5F5F5F5E2E2EFF5F5F5F5F5F5F5F5F5F5F5F5F5F5F5F5F5F5F5F5E2F5F5F5F5F5F5F5F5F5F5F5F5F5F5F5F5F5F5F5F5F5F5F5F5F5F5F5F5F5F5F5
310
F5F5F5F5F5F5F5F5F5F5F5F5F5F5F5F5F5F5F5F5F5F5F5F5F5F5F5F5F5F5F5F5F5F5F5F5F5F5F5F5F5F5F5F5F5F5F5F5F5F5F5F5F5F5F5F5F5F5F5F5F5F5F5F5F5F5F5F5F5F5F5F5F5F5F5F5F5F5F5F5F5F5F5F5F5F5F5F5F5F5F5F5F5F5F5F5F5F5F5F5F5F5F5F5E2F5F5F5F5F5F5F5F5F5F5F5F5F5F5F5F5F5F5F5F5E2E2
310
EFF5F5F5F5F5F5F5F5F5F5F5F5F5F5F5F5F5F5F5F5E2F5F5F5F5F5F5F5F5F5F5F5F5F5F5F5F5F5F5F5F5F5F5F5F5F5F5F5F5F5F5F5F5F5F5F5F5F5F5F5F5F5F5F5F5F5F5F5F5F5F5F5F5F5F5F5F5F5F5F5F5F5F5F5F5F5F5F5F5F5F5F5F5F5F5F5F5F5F5F5F5F5F5F5F5F5F5F5F5F5F5F5F5F5F5F5F5F5F5F5F5F5F5F5F5F5
310
F5F5F5F5F5F5F5F5F5F5F5F5F5F5F5F5F5F5F5F5F5F5F5F5F5F5F5F5F5F5E2F5F5F5F5F5F5F5F5F5F5F5F5F5F5F5F5F5F5F5F5E2E2EFF5F5F5F5F5F5F5F5F5F5F5F5F5F5F5F5F5F5F5F5E2F5F5F5F5F5F5F5F5F5F5F5F5F5F5F5F5F5F5F5F5F5F5F5F5F5F5F5F5F5F5F5F5F5F5F5F5F5F5F5F5F5F5F5F5F5F5F5F5F5F5F5F5
310
F5F5F5F5F5F5F5F5F5F5F5F5F5F5F5F5F5F5F5F5F5F5F5F5F5F5F5F5F5F5F5F5F5F5F5F5F5F5F5F5F5F5F5F5F5F5F5F5F5F5F5F5F5F5F5F5F5F5F5F5F5F5F5F5F5F5F5F5F5F5F5F5F5F5F5F5F5F5F5F5F5F5F5E2F5F5F5F5F5F5F5F5F5F5F5F5F5F5F5F5F5F5F5F5E2E2EFF5F5F5F5F5F5F5F5F5F5F5F5F5F5F5F5F5F5F5F5
310
E2F5F5F5F5F5F5F5F5F5F5F5F5F5F5F5F5F5F5F5F5F5F5F5F5F5F5F5F5F5F5F5F5F5F5F5F5F5F5F5F5F5F5F5F5F5F5F5F5F5F5F5F5F5F5F5F5F5F5F5F5F5F5F5F5F5F5F5F5F5F5F5F5F5F5F5F5F5F5F5F5F5F5F5F5F5F5F5F5F5F5F5F5F5F5F5F5F5F5F5F5F5F5F5F5F5F5F5F5F5F5F5F5F5F5F5F5F5F5F5F5F5F5F5F5F5F5
310
F5F5F5F5F5F5F5F5F5E2F5F5F5F5F5F5F5F5F5F5F5F5F5F5F5F5F5F5F5F5E2E2EFF5F5F5E2F5F5F5F5F5F5F5F5F5F5F5F5F5F5F5F5E2F5F5F5F5F5F5F5F5F5F5F5F5F5F5F5F5F5F5F5F5F5F5F5F5F5F5F5F5F5F5F5F5F5F5F5F5F5F5F5F5F5F5F5F5F5F5F5F5F5F5F5F5F5F5F5F5F5F5F5F5F5F5F5F5F5F5F5F5F5F5F5F5F5
310
F5F5F5F5F5F5F5F5F5F5F5F5F5F5F5F5F5F5F5F5F5F5F5F5F5F5F5F5F5F5F5F5F5F5F5F5F5F5F5F5F5F5F5F5F5F5F5F5F5F5F5F5F5F5F5F5F5F5F5F5F5F5E2F5F5F5F5F5F5F5F5F5F5F5F5F5F5F5F5E2F5F5F5E2E2EFF5F5F5E2F5F5F5F5F5F5F5F5F5F5F5F5F5F5F5F5E2F5F5F5F5F5F5F5F5F5F5F5F5F5F5F5F5F5F5F5F5
310
F5F5F5F5F5F5F5F5F5F5F5F5F5F5F5F5F5F5F5F5F5F5F5F5F5F5F5F5F5F5F5F5F5F5F5F5F5F5F5F5F5F5F5F5F5F5F5F5F5F5F5F5F5F5F5F5F5F5F5F5F5F5F5F5F5F5F5F5F5F5F5F5F5F5F5F5F5F5F5F5F5F5F5F5F5F5F5F5F5F5F5F5F5F5F5F5F5F5F5F5F5F5F5F5F5F5F5F5F5F5F5F5F5F5F5E2F5F5F5F5F5F5F5F5F5F5F5
310
F5F5F5F5F5E2F5F5F5E2E2EFF5F5F5E2F5F5F5F5F5F5F5F5F5F5F5F5F5F5F5F5E2F5F5F5F5F5F5F5F5F5F5F5F5F5F5F5F5F5F5F5F5F5F5F5F5F5F5F5F5F5F5F5F5F5F5F5F5F5F5F5F5F5F5F5F5F5F5F5F5F5F5F5F5F5F5F5F5F5F5F5F5F5F5F5F5F5F5F5F5F5F5F5F5F5F5F5F5F5F5F5F5F5F5F5F5F5F5F5F5F5F5F5F5F5F5
310
F5F5F5F5F5F5F5F5F5F5F5F5F5F5F5F5F5F5F5F5F5F5F5F5F5F5F5F5F5F5F5F5F5F5F5F5F5F5F5F5F5E2F5F5F5F5F5F5F5F5F5F5F5F5F5F5F5F5E2F5F5F5E2E2EFF5F5F5E2F5F5F5F5F5F5F5F5F5F5F5F5F5F5F5F5E2F5F5F5F5F5F5F5F5F5F5F5F5F5F5F5F5F5F5F5F5F5F5F5F5F5F5F5F5F5F5F5F5F5F5F5F5F5F5F5F5F5
310
F5F5F5F5F5F5F5F5F5F5F5F5F5F5F5F5F5F5F5F5F5F5F5F5F5F5F5F5F5F5F5F5F5F5F5F5F5F5F5F5F5F5F5F5F5F5F5F5F5F5F5F5F5F5F5F5F5F5F5F5F5F5F5F5F5F5F5F5F5F5F5F5F5F5F5F5F5F5F5F5F5F5F5F5F5F5F5F5F5F5F5F5F5F5E2F5F5F5F5F5F5F5F5F5F5F5F5F5F5F5F5E2F5F5F5E2E2EFF5F5F5E2F5F5F5F5F5
310
F5F5F5F5F5F5F5F5F5F5F5E2F5F5F5F5F5F5F5F5F5F5F5F5F5F5F5F5F5F5F5F5F5F5F5F5F5F5F5F5F5F5F5F5F5F5F5F5F5F5F5F5F5F5F5F5F5F5F5F5F5F5F5F5F5F5F5F5F5F5F5F5F5F5F5F5F5F5F5F5F5F5F5F5F5F5F5F5F5F5F5F5F5F5F5F5F5F5F5F5F5F5F5F5F5F5F5F5F5F5F5F5F5F5F5F5F5F5F5F5F5F5F5F5F5F5F5
310
F5F5F5F5F5F5F5F5F5F5F5F5F5F5F5F5F5F5F5F5E2F5F5F5F5F5F5F5F5F5F5F5F5F5F5F5F5E2F5F5F5E2E2EFF5F5F5E2F5F5F5F5F5F5F5F5F5F5F5F5F5F5F5F5E2F5F5F5F5F5F5F5F5F5F5F5F5F5F5F5F5F5F5F5F5F5F5F5F5F5F5F5F5F5F5F5F5F5F5F5F5F5F5F5F5F5F5F5F5F5F5F5F5F5F5F5F5F5F5F5F5F5F5F5F5F5F5
310
F5F5F5F5F5F5F5F5F5F5F5F5F5F5F5F5F5F5F5F5F5F5F5F5F5F5F5F5F5F5F5F5F5F5F5F5F5F5F5F5F5F5F5F5F5F5F5F5F5F5F5F5F5F5F5F5F5F5F5F5F5F5F5F5F5F5F5F5F5F5F5F5F5E2F5F5F5F5F5F5F5F5F5F5F5F5F5F5F5F5E2F5F5F5E2E2EFF5F5F5E2F5F5F5F5F5F5F5F5F5F5F5F5F5F5F5F5E2F5F5F5F5F5F5F5F5F5
310
F5F5F5F5F5F5F5F5F5F5F5F5F5F5F5F5F5F5F5F5F5F5F5F5F5F5F5F5F5F5F5F5F5F5F5F5F5F5F5F5F5F5F5F5F5F5F5F5F5F5F5F5F5F5F5F5F5F5F5F5F5F5F5F5F5F5F5F5F5F5F5F5F5F5F5F5F5F5F5F5F5F5F5F5F5F5F5F5F5F5F5F5F5F5F5F5F5F5F5F5F5F5F5F5F5F5F5F5F5F5F5F5F5F5F5F5F5F5F5F5F5F5F5F5F5F5E2
310
F5F5F5F5F5F5F5F5F5F5F5F5F5F5F5F5E2F5F5F5E2E2EFF5F5F5E2F5F5F5F5F5F5F5F5F5F5F5F5F5F5F5F5E2F5F5F5F5F5F5F5F5F5F5F5F5F5F5F5F5F5F5F5F5F5F5F5F5F5F5F5F5F5F5F5F5F5F5F5F5F5F5F5F5F5F5F5F5F5F5F5F5F5F5F5F5F5F5F5F5F5F5F5F5F5F5F5F5F5F5F5F5F5F5F5F5F5F5F5F5F5F5F5F5F5F5F5
310
F5F5F5F5F5F5F5F5F5F5F5F5F5F5F5F5F5F5F5F5F5F5F5F5F5F5F5F5F5F5F5F5F5F5F5F5F5F5F5F5F5F5F5F5F5F5F5F5F5F5F5F5E2F5F5F5F5F5F5F5F5F5F5F5F5F5F5F5F5E2F5F5F5E2E2EFF5F5F5E2F5F5F5F5F5F5F5F5F5F5F5F5F5F5F5F5E2F5F5F5F5F5F5F5F5F5F5F5F5F5F5F5F5F5F5F5F5F5F5F5F5F5F5F5F5F5F5
310
F5F5F5F5F5F5F5F5F5F5F5F5F5F5F5F5F5F5F5F5F5F5F5F5F5F5F5F5F5F5F5F5F5F5F5F5F5F5F5F5F5F5F5F5F5F5F5F5F5F5F5F5F5F5F5F5F5F5F5F5F5F5F5F5F5F5F5F5F5F5F5F5F5F5F5F5F5F5F5F5F5F5F5F5F5F5F5F5F5F5F5F5F5F5F5F5F5F5F5F5F5F5F5F5F5E2F5F5F5F5F5F5F5F5F5F5F5F5F5F5F5F5E2F5F5F5E2
310
E2EFF5F5F5E2F5F5F5F5F5F5F5F5F5F5F5F5F5F5F5F5E2F5F5F5F5F5F5F5F5F5F5F5F5F5F5F5F5F5F5F5F5F5F5F5F5F5F5F5F5F5F5F5F5F5F5F5F5F5F5F5F5F5F5F5F5F5F5F5F5F5F5F5F5F5F5F5F5F5F5F5F5F5F5F5F5F5F5F5F5F5F5F5F5F5F5F5F5F5F5F5F5F5F5F5F5F5F5F5F5F5F5F5F5F5F5F5F5F5F5F5F5F5F5F5F5
310
F5F5F5F5F5F5F5F5F5F5F5F5F5F5F5F5F5F5F5F5F5F5F5F5F5F5F5F5F5F5F5E2F5F5F5F5F5F5F5F5F5F5F5F5F5F5F5F5E2F5F5F5E2E2EFF5F5F5E2F5F5F5F5F5F5F5F5F5F5F5F5F5F5F5F5E2F5F5F5F5F5F5F5F5F5F5F5F5F5F5F5F5F5F5F5F5F5F5F5F5F5F5F5F5F5F5F5F5F5F5F5F5F5F5F5F5F5F5F5F5F5F5F5F5F5F5F5
310
F5F5F5F5F5F5F5F5F5F5F5F5F5F5F5F5F5F5F5F5F5F5F5F5F5F5F5F5F5F5F5F5F5F5F5F5F5F5F5F5F5F5F5F5F5F5F5F5F5F5F5F5F5F5F5F5F5F5F5F5F5F5F5F5F5F5F5F5F5F5F5F5F5F5F5F5F5F5F5F5F5F5F5F5E2F5F5F5F5F5F5F5F5F5F5F5F5F5F5F5F5E2F5F5F5E2E2EFF5F5F5E2F5F5F5F5F5F5F5F5F5F5F5F5F5F5F5
310
F5E2F5F5F5F5F5F5F5F5F5F5F5F5F5F5F5F5F5F5F5F5F5F5F5F5F5F5F5F5F5F5F5F5F5F5F5F5F5F5F5F5F5F5F5F5F5F5F5F5F5F5F5F5F5F5F5F5F5F5F5F5F5F5F5F5F5F5F5F5F5F5F5F5F5F5F5F5F5F5F5F5F5F5F5F5F5F5F5F5F5F5F5F5F5F5F5F5F5F5F5F5F5F5F5F5F5F5F5F5F5F5F5F5F5F5F5F5F5F5F5F5F5F5F5F5F5
310
F5F5F5F5F5F5F5F5F5F5E2F5F5F5F5F5F5F5F5F5F5F5F5F5F5F5F5E2F5F5F5E2E2EFF5F5F5E2F5F5F5F5F5F5F5F5F5F5F5F5F5F5F5F5E2F5F5F5F5F5F5F5F5F5F5F5F5F5F5F5F5F5F5F5F5F5F5F5F5F5F5F5F5F5F5F5F5F5F5F5F5F5F5F5F5F5F5F5F5F5F5F5F5F5F5F5F5F5F5F5F5F5F5F5F5F5F5F5F5F5F5F5F5F5F5F5F5
310
F5F5F5F5F5F5F5F5F5F5F5F5F5F5F5F5F5F5F5F5F5F5F5F5F5F5F5F5F5F5F5F5F5F5F5F5F5F5F5F5F5F5F5F5F5F5F5F5F5F5F5F5F5F5F5F5F5F5F5F5F5F5F5E2F5F5F5F5F5F5F5F5F5F5F5F5F5F5F5F5E2F5F5F5E2E2EFF5F5F5E2F5F5F5F5F5F5F5F5F5F5F5F5F5F5F5F5E2F5F5F5F5F5F5F5F5F5F5F5F5F5F5F5F5F5F5F5
310
F5F5F5F5F5F5F5F5F5F5F5F5F5F5F5F5F5F5F5F5F5F5F5F5F5F5F5F5F5F5F5F5F5F5F5F5F5F5F5F5F5F5F5F5F5F5F5F5F5F5F5F5F5F5F5F5F5F5F5F5F5F5F5F5F5F5F5F5F5F5F5F5F5F5F5F5F5F5F5F5F5F5F5F5F5F5F5F5F5F5F5F5F5F5F5F5F5F5F5F5F5F5F5F5F5F5F5F5F5F5F5F5F5F5F5F5E2F5F5F5F5F5F5F5F5F5F5
310
F5F5F5F5F5F5E2F5F5F5E2E2EFF5F5F5E2F5F5F5F5F5F5F5F5F5F5F5F5F5F5F5F5E2F5F5F5F5F5F5F5F5F5F5F5F5F5F5F5F5F5F5F5F5F5F5F5F5F5F5F5F5F5F5F5F5F5F5F5F5F5F5F5F5F5F5F5F5F5F5F5F5F5F5F5F5F5F5F5F5F5F5F5F5F5F5F5F5F5F5F5F5F5F5F5F5F5F5F5F5F5F5F5F5F5F5F5F5F5F5F5F5F5F5F5F5F5
310
F5F5F5F5F5F5F5F5F5F5F5F5F5F5F5F5F5F5F5F5F5F5F5F5F5F5F5F5F5F5F5F5F5F5F5F5F5F5F5F5F5F5E2F5F5F5F5F5F5F5F5F5F5F5F5F5F5F5F5E2F5F5F5E2E2EFF5F5F5E2F5F5F5F5F5F5F5F5F5F5F5F5F5F5F5F5E2F5F5F5F5F5F5F5F5F5F5F5F5F5F5F5F5F5F5F5F5F5F5F5F5F5F5F5F5F5F5F5F5F5F5F5F5F5F5F5F5
310
F5F5F5F5F5F5F5F5F5F5F5F5F5F5F5F5F5F5F5F5F5F5F5F5F5F5F5F5F5F5F5F5F5F5F5F5F5F5F5F5F5F5F5F5F5F5F5F5F5F5F5F5F5F5F5F5F5F5F5F5F5F5F5F5F5F5F5F5F5F5F5F5F5F5F5F5F5F5F5F5F5F5F5F5F5F5F5F5F5F5F5F5F5F5F5E2F5F5F5F5F5F5F5F5F5F5F5F5F5F5F5F5E2F5F5F5E2E2EFF5F5F5E2F5F5F5F5
310
F5F5F5F5F5F5F5F5F5F5F5F5E2F5F5F5F5F5F5F5F5F5F5F5F5F5F5F5F5F5F5F5F5F5F5F5F5F5F5F5F5F5F5F5F5F5F5F5F5F5F5F5F5F5F5F5F5F5F5F5F5F5F5F5F5F5F5F5F5F5F5F5F5F5F5F5F5F5F5F5F5F5F5F5F5F5F5F5F5F5F5F5F5F5F5F5F5F5F5F5F5F5F5F5F5F5F5F5F5F5F5F5F5F5F5F5F5F5F5F5F5F5F5F5F5F5F5
310
F5F5F5F5F5F5F5F5F5F5F5F5F5F5F5F5F5F5F5F5F5E2F5F5F5F5F5F5F5F5F5F5F5F5F5F5F5F5E2F5F5F5E2E2EFF5F5F5F5F5F5F5F5F5F5F5F5F5F5F5F5F5F5F5F5E2F5F5F5F5F5F5F5F5F5F5F5F5F5F5F5F5F5F5F5F5F5F5F5F5F5F5F5F5F5F5F5F5F5F5F5F5F5F5F5F5F5F5F5F5F5F5F5F5F5F5F5F5F5F5F5F5F5F5F5F5F5
310
F5F5F5F5F5F5F5F5F5F5F5F5F5F5F5F5F5F5F5F5F5F5F5F5F5F5F5F5F5F5F5F5F5F5F5F5F5F5F5F5F5F5F5F5F5F5F5F5F5F5F5F5F5F5F5F5F5F5F5F5F5F5F5F5F5F5F5F5F5F5F5F5F5F5E2F5F5F5F5F5F5F5F5F5F5F5F5F5F5F5F5F5F5F5F5E2E2EFF5F5F5F5F5F5F5F5F5F5F5F5F5F5F5F5F5F5F5F5E2F5F5F5F5F5F5F5F5
310
F5F5F5F5F5F5F5F5F5F5F5F5F5F5F5F5F5F5F5F5F5F5F5F5F5F5F5F5F5F5F5F5F5F5F5F5F5F5F5F5F5F5F5F5F5F5F5F5F5F5F5F5F5F5F5F5F5F5F5F5F5F5F5F5F5F5F5F5F5F5F5F5F5F5F5F5F5F5F5F5F5F5F5F5F5F5F5F5F5F5F5F5F5F5F5F5F5F5F5F5F5F5F5F5F5F5F5F5F5F5F5F5F5F5F5F5F5F5F5F5F5F5F5F5F5F5F5
310
E2F5F5F5F5F5F5F5F5F5F5F5F5F5F5F5F5F5F5F5F5E2E2EFF5F5F5F5F5F5F5F5F5F5F5F5F5F5F5F5F5F5F5F5E2F5F5F5F5F5F5F5F5F5F5F5F5F5F5F5F5F5F5F5F5F5F5F5F5F5F5F5F5F5F5F5F5F5F5F5F5F5F5F5F5F5F5F5F5F5F5F5F5F5F5F5F5F5F5F5F5F5F5F5F5F5F5F5F5F5F5F5F5F5F5F5F5F5F5F5F5F5F5F5F5F5F5
310
F5F5F5F5F5F5F5F5F5F5F5F5F5F5F5F5F5F5F5F5F5F5F5F5F5F5F5F5F5F5F5F5F5F5F5F5F5F5F5F5F5F5F5F5F5F5F5F5F5F5F5F5F5E2F5F5F5F5F5F5F5F5F5F5F5F5F5F5F5F5F5F5F5F5E2E2EFF5F5F5F5F5F5F5F5F5F5F5F5F5F5F5F5F5F5F5F5E2F5F5F5F5F5F5F5F5F5F5F5F5F5F5F5F5F5F5F5F5F5F5F5F5F5F5F5F5F5
310
F5F5F5F5F5F5F5F5F5F5F5F5F5F5F5F5F5F5F5F5F5F5F5F5F5F5F5F5F5F5F5F5F5F5F5F5F5F5F5F5F5F5F5F5F5F5F5F5F5F5F5F5F5F5F5F5F5F5F5F5F5F5F5F5F5F5F5F5F5F5F5F5F5F5F5F5F5F5F5F5F5F5F5F5F5F5F5F5F5F5F5F5F5F5F5F5F5F5F5F5F5F5F5F5F5F5E2F5F5F5F5F5F5F5F5F5F5F5F5F5F5F5F5F5F5F5F5
310
E2E2EFF5F5F5F5F5F5F5F5F5F5F5F5F5F5F5F5F5F5F5F5E2F5F5F5F5F5F5F5F5F5F5F5F5F5F5F5F5F5F5F5F5F5F5F5F5F5F5F5F5F5F5F5F5F5F5F5F5F5F5F5F5F5F5F5F5F5F5F5F5F5F5F5F5F5F5F5F5F5F5F5F5F5F5F5F5F5F5F5F5F5F5F5F5F5F5F5F5F5F5F5F5F5F5F5F5F5F5F5F5F5F5F5F5F5F5F5F5F5F5F5F5F5F5F5
310
F5F5F5F5F5F5F5F5F5F5F5F5F5F5F5F5F5F5F5F5F5F5F5F5F5F5F5F5F5F5F5F5E2F5F5F5F5F5F5F5F5F5F5F5F5F5F5F5F5F5F5F5F5E2E2EFF5F5F5F5F5F5F5F5F5F5F5F5F5F5F5F5F5F5F5F5E2F5F5F5F5F5F5F5F5F5F5F5F5F5F5F5F5F5F5F5F5F5F5F5F5F5F5F5F5F5F5F5F5F5F5F5F5F5F5F5F5F5F5F5F5F5F5F5F5F5F5
310
F5F5F5F5F5F5F5F5F5F5F5F5F5F5F5F5F5F5F5F5F5F5F5F5F5F5F5F5F5F5F5F5F5F5F5F5F5F5F5F5F5F5F5F5F5F5F5F5F5F5F5F5F5F5F5F5F5F5F5F5F5F5F5F5F5F5F5F5F5F5F5F5F5F5F5F5F5F5F5F5F5F5F5F5F5E2F5F5F5F5F5F5F5F5F5F5F5F5F5F5F5F5F5F5F5F5E2E2EFF5F5F5F5F5F5F5F5F5F5F5F5F5F5F5F5F5F5
310
F5F5E2F5F5F5F5F5F5F5F5F5F5F5F5F5F5F5F5F5F5F5F5F5F5F5F5F5F5F5F5F5F5F5F5F5F5F5F5F5F5F5F5F5F5F5F5F5F5F5F5F5F5F5F5F5F5F5F5F5F5F5F5F5F5F5F5F5F5F5F5F5F5F5F5F5F5F5F5F5F5F5F5F5F5F5F5F5F5F5F5F5F5F5F5F5F5F5F5F5F5F5F5F5F5F5F5F5F5F5F5F5F5F5F5F5F5F5F5F5F5F5F5F5F5F5F5
310
F5F5F5F5F5F5F5F5F5F5F5E2F5F5F5F5F5F5F5F5F5F5F5F5F5F5F5F5F5F5F5F5E2E2EFF5F5F5F5F5F5F5F5F5F5F5F5F5F5F5F5F5F5F5F5E2F5F5F5F5F5F5F5F5F5F5F5F5F5F5F5F5F5F5F5F5F5F5F5F5F5F5F5F5F5F5F5F5F5F5F5F5F5F5F5F5F5F5F5F5F5F5F5F5F5F5F5F5F5F5F5F5F5F5F5F5F5F5F5F5F5F5F5F5F5F5F5
310
F5F5F5F5F5F5F5F5F5F5F5F5F5F5F5F5F5F5F5F5F5F5F5F5F5F5F5F5F5F5F5F5F5F5F5F5F5F5F5F5F5F5F5F5F5F5F5F5F5F5F5F5F5F5F5F5F5F5F5F5F5F5F5F5E2F5F5F5F5F5F5F5F5F5F5F5F5F5F5F5F5F5F5F5F5E2E2EFF5F5F5F5F5F5F5F5F5F5F5F5F5F5F5F5F5F5F5F5E2F5F5F5F5F5F5F5F5F5F5F5F5F5F5F5F5F5F5
310
F5F5F5F5F5F5F5F5F5F5F5F5F5F5F5F5F5F5F5F5F5F5F5F5F5F5F5F5F5F5F5F5F5F5F5F5F5F5F5F5F5F5F5F5F5F5F5F5F5F5F5F5F5F5F5F5F5F5F5F5F5F5F5F5F5F5F5F5F5F5F5F5F5F5F5F5F5F5F5F5F5F5F5F5F5F5F5F5F5F5F5F5F5F5F5F5F5F5F5F5F5F5F5F5F5F5F5F5F5F5F5F5F5F5F5F5F5E2F5F5F5F5F5F5F5F5F5
310
F5F5F5F5F5F5F5F5F5F5F5E2E2EFF5F5F5E2F5F5F5F5F5F5F5F5F5F5F5F5F5F5F5F5E2F5F5F5F5F5F5F5F5F5F5F5F5F5F5F5F5F5F5F5F5F5F5F5F5F5F5F5F5F5F5F5F5F5F5F5F5F5F5F5F5F5F5F5F5F5F5F5F5F5F5F5F5F5F5F5F5F5F5F5F5F5F5F5F5F5F5F5F5F5F5F5F5F5F5F5F5F5F5F5F5F5F5F5F5F5F5F5F5F5F5F5F5
310
F5F5F5F5F5F5F5F5F5F5F5F5F5F5F5F5F5F5F5F5F5F5F5F5F5F5F5F5F5F5F5F5F5F5F5F5F5F5F5F5F5F5F5E2F5F5F5F5F5F5F5F5F5F5F5F5F5F5F5F5E2F5F5F5E2E2EFF5F5F5E2F5F5F5F5F5F5F5F5F5F5F5F5F5F5F5F5E2F5F5F5F5F5F5F5F5F5F5F5F5F5F5F5F5F5F5F5F5F5F5F5F5F5F5F5F5F5F5F5F5F5F5F5F5F5F5F5
310
F5F5F5F5F5F5F5F5F5F5F5F5F5F5F5F5F5F5F5F5F5F5F5F5F5F5F5F5F5F5F5F5F5F5F5F5F5F5F5F5F5F5F5F5F5F5F5F5F5F5F5F5F5F5F5F5F5F5F5F5F5F5F5F5F5F5F5F5F5F5F5F5F5F5F5F5F5F5F5F5F5F5F5F5F5F5F5F5F5F5F5F5F5F5F5F5E2F5F5F5F5F5F5F5F5F5F5F5F5F5F5F5F5E2F5F5F5E2E2EFF5F5F5E2F5F5F5
310
F5F5F5F5F5F5F5F5F5F5F5F5F5E2F5F5F5F5F5F5F5F5F5F5F5F5F5F5F5F5F5F5F5F5F5F5F5F5F5F5F5F5F5F5F5F5F5F5F5F5F5F5F5F5F5F5F5F5F5F5F5F5F5F5F5F5F5F5F5F5F5F5F5F5F5F5F5F5F5F5F5F5F5F5F5F5F5F5F5F5F5F5F5F5F5F5F5F5F5F5F5F5F5F5F5F5F5F5F5F5F5F5F5F5F5F5F5F5F5F5F5F5F5F5F5F5F5
310
F5F5F5F5F5F5F5F5F5F5F5F5F5F5F5F5F5F5F5F5F5F5E2F5F5F5F5F5F5F5F5F5F5F5F5F5F5F5F5E2F5F5F5E2E2EFF5F5F5E2F5F5F5F5F5F5F5F5F5F5F5F5F5F5F5F5E2F5F5F5F5F5F5F5F5F5F5F5F5F5F5F5F5F5F5F5F5F5F5F5F5F5F5F5F5F5F5F5F5F5F5F5F5F5F5F5F5F5F5F5F5F5F5F5F5F5F5F5F5F5F5F5F5F5F5F5F5
310
F5F5F5F5F5F5F5F5F5F5F5F5F5F5F5F5F5F5F5F5F5F5F5F5F5F5F5F5F5F5F5F5F5F5F5F5F5F5F5F5F5F5F5F5F5F5F5F5F5F5F5F5F5F5F5F5F5F5F5F5F5F5F5F5F5F5F5F5F5F5F5F5F5F5F5E2F5F5F5F5F5F5F5F5F5F5F5F5F5F5F5F5E2F5F5F5E2E2EFF5F5F5E2F5F5F5F5F5F5F5F5F5F5F5F5F5F5F5F5E2F5F5F5F5F5F5F5
310
F5F5F5F5F5F5F5F5F5F5F5F5F5F5F5F5F5F5F5F5F5F5F5F5F5F5F5F5F5F5F5F5F5F5F5F5F5F5F5F5F5F5F5F5F5F5F5F5F5F5F5F5F5F5F5F5F5F5F5F5F5F5F5F5F5F5F5F5F5F5F5F5F5F5F5F5F5F5F5F5F5F5F5F5F5F5F5F5F5F5F5F5F5F5F5F5F5F5F5F5F5F5F5F5F5F5F5F5F5F5F5F5F5F5F5F5F5F5F5F5F5F5F5F5F5F5F5
310
F5E2F5F5F5F5F5F5F5F5F5F5F5F5F5F5F5F5E2F5F5F5E2E2EFF5F5F5E2F5F5F5F5F5F5F5F5F5F5F5F5F5F5F5F5E2F5F5F5F5F5F5F5F5F5F5F5F5F5F5F5F5F5F5F5F5F5F5F5F5F5F5F5F5F5F5F5F5F5F5F5F5F5F5F5F5F5F5F5F5F5F5F5F5F5F5F5F5F5F5F5F5F5F5F5F5F5F5F5F5F5F5F5F5F5F5F5F5F5F5F5F5F5F5F5F5F5
310
F5F5F5F5F5F5F5F5F5F5F5F5F5F5F5F5F5F5F5F5F5F5F5F5F5F5F5F5F5F5F5F5F5F5F5F5F5F5F5F5F5F5F5F5F5F5F5F5F5F5F5F5F5F5E2F5F5F5F5F5F5F5F5F5F5F5F5F5F5F5F5E2F5F5F5E2E2EFF5F5F5E2F5F5F5F5F5F5F5F5F5F5F5F5F5F5F5F5E2F5F5F5F5F5F5F5F5F5F5F5F5F5F5F5F5F5F5F5F5F5F5F5F5F5F5F5F5
310
F5F5F5F5F5F5F5F5F5F5F5F5F5F5F5F5F5F5F5F5F5F5F5F5F5F5F5F5F5F5F5F5F5F5F5F5F5F5F5F5F5F5F5F5F5F5F5F5F5F5F5F5F5F5F5F5F5F5F5F5F5F5F5F5F5F5F5F5F5F5F5F5F5F5F5F5F5F5F5F5F5F5F5F5F5F5F5F5F5F5F5F5F5F5F5F5F5F5F5F5F5F5F5F5F5F5F5E2F5F5F5F5F5F5F5F5F5F5F5F5F5F5F5F5E2F5F5
310
F5E2E2EFF5F5F5E2F5F5F5F5F5F5F5F5F5F5F5F5F5F5F5F5E2F5F5F5F5F5F5F5F5F5F5F5F5F5F5F5F5F5F5F5F5F5F5F5F5F5F5F5F5F5F5F5F5F5F5F5F5F5F5F5F5F5F5F5F5F5F5F5F5F5F5F5F5F5F5F5F5F5F5F5F5F5F5F5F5F5F5F5F5F5F5F5F5F5F5F5F5F5F5F5F5F5F5F5F5F5F5F5F5F5F5F5F5F5F5F5F5F5F5F5F5F5F5
310
F5F5F5F5F5F5F5F5F5F5F5F5F5F5F5F5F5F5F5F5F5F5F5F5F5F5F5F5F5F5F5F5F5E2F5F5F5F5F5F5F5F5F5F5F5F5F5F5F5F5E2F5F5F5E2E2EFF5F5F5E2F5F5F5F5F5F5F5F5F5F5F5F5F5F5F5F5E2F5F5F5F5F5F5F5F5F5F5F5F5F5F5F5F5F5F5F5F5F5F5F5F5F5F5F5F5F5F5F5F5F5F5F5F5F5F5F5F5F5F5F5F5F5F5F5F5F5
310
F5F5F5F5F5F5F5F5F5F5F5F5F5F5F5F5F5F5F5F5F5F5F5F5F5F5F5F5F5F5F5F5F5F5F5F5F5F5F5F5F5F5F5F5F5F5F5F5F5F5F5F5F5F5F5F5F5F5F5F5F5F5F5F5F5F5F5F5F5F5F5F5F5F5F5F5F5F5F5F5F5F5F5F5F5F5E2F5F5F5F5F5F5F5F5F5F5F5F5F5F5F5F5E2F5F5F5E2E2EFF5F5F5E2F5F5F5F5F5F5F5F5F5F5F5F5F5
310
F5F5F5E2F5F5F5F5F5F5F5F5F5F5F5F5F5F5F5F5F5F5F5F5F5F5F5F5F5F5F5F5F5F5F5F5F5F5F5F5F5F5F5F5F5F5F5F5F5F5F5F5F5F5F5F5F5F5F5F5F5F5F5F5F5F5F5F5F5F5F5F5F5F5F5F5F5F5F5F5F5F5F5F5F5F5F5F5F5F5F5F5F5F5F5F5F5F5F5F5F5F5F5F5F5F5F5F5F5F5F5F5F5F5F5F5F5F5F5F5F5F5F5F5F5F5F5
310
F5F5F5F5F5F5F5F5F5F5F5F5E2F5F5F5F5F5F5F5F5F5F5F5F5F5F5F5F5E2F5F5F5E2E2EFF5F5F5E2F5F5F5F5F5F5F5F5F5F5F5F5F5F5F5F5E2F5F5F5F5F5F5F5F5F5F5F5F5F5F5F5F5F5F5F5F5F5F5F5F5F5F5F5F5F5F5F5F5F5F5F5F5F5F5F5F5F5F5F5F5F5F5F5F5F5F5F5F5F5F5F5F5F5F5F5F5F5F5F5F5F5F5F5F5F5F5
310
F5F5F5F5F5F5F5F5F5F5F5F5F5F5F5F5F5F5F5F5F5F5F5F5F5F5F5F5F5F5F5F5F5F5F5F5F5F5F5F5F5F5F5F5F5F5F5F5F5F5F5F5F5F5F5F5F5F5F5F5F5F5F5F5F5E2F5F5F5F5F5F5F5F5F5F5F5F5F5F5F5F5E2F5F5F5E2E2EFF5F5F5E2F5F5F5F5F5F5F5F5F5F5F5F5F5F5F5F5E2F5F5F5F5F5F5F5F5F5F5F5F5F5F5F5F5F5
310
F5F5F5F5F5F5F5F5F5F5F5F5F5F5F5F5F5F5F5F5F5F5F5F5F5F5F5F5F5F5F5F5F5F5F5F5F5F5F5F5F5F5F5F5F5F5F5F5F5F5F5F5F5F5F5F5F5F5F5F5F5F5F5F5F5F5F5F5F5F5F5F5F5F5F5F5F5F5F5F5F5F5F5F5F5F5F5F5F5F5F5F5F5F5F5F5F5F5F5F5F5F5F5F5F5F5F5F5F5F5F5F5F5F5F5F5F5F5E2F5F5F5F5F5F5F5F5
310
F5F5F5F5F5F5F5F5E2F5F5F5E2E2EFF5F5F5E2F5F5F5F5F5F5F5F5F5F5F5F5F5F5F5F5E2F5F5F5F5F5F5F5F5F5F5F5F5F5F5F5F5F5F5F5F5F5F5F5F5F5F5F5F5F5F5F5F5F5F5F5F5F5F5F5F5F5F5F5F5F5F5F5F5F5F5F5F5F5F5F5F5F5F5F5F5F5F5F5F5F5F5F5F5F5F5F5F5F5F5F5F5F5F5F5F5F5F5F5F5F5F5F5F5F5F5F5
310
F5F5F5F5F5F5F5F5F5F5F5F5F5F5F5F5F5F5F5F5F5F5F5F5F5F5F5F5F5F5F5F5F5F5F5F5F5F5F5F5F5F5F5F5E2F5F5F5F5F5F5F5F5F5F5F5F5F5F5F5F5E2F5F5F5E2E2EFF5F5F5E2F5F5F5F5F5F5F5F5F5F5F5F5F5F5F5F5E2F5F5F5F5F5F5F5F5F5F5F5F5F5F5F5F5F5F5F5F5F5F5F5F5F5F5F5F5F5F5F5F5F5F5F5F5F5F5
310
F5F5F5F5F5F5F5F5F5F5F5F5F5F5F5F5F5F5F5F5F5F5F5F5F5F5F5F5F5F5F5F5F5F5F5F5F5F5F5F5F5F5F5F5F5F5F5F5F5F5F5F5F5F5F5F5F5F5F5F5F5F5F5F5F5F5F5F5F5F5F5F5F5F5F5F5F5F5F5F5F5F5F5F5F5F5F5F5F5F5F5F5F5F5F5F5F5E2F5F5F5F5F5F5F5F5F5F5F5F5F5F5F5F5E2F5F5F5E2E2EFF5F5F5E2F5F5
310
F5F5F5F5F5F5F5F5F5F5F5F5F5F5E2F5F5F5F5F5F5F5F5F5F5F5F5F5F5F5F5F5F5F5F5F5F5F5F5F5F5F5F5F5F5F5F5F5F5F5F5F5F5F5F5F5F5F5F5F5F5F5F5F5F5F5F5F5F5F5F5F5F5F5F5F5F5F5F5F5F5F5F5F5F5F5F5F5F5F5F5F5F5F5F5F5F5F5F5F5F5F5F5F5F5F5F5F5F5F5F5F5F5F5F5F5F5F5F5F5F5F5F5F5F5F5F5
310
F5F5F5F5F5F5F5F5F5F5F5F5F5F5F5F5F5F5F5F5F5F5F5E2F5F5F5F5F5F5F5F5F5F5F5F5F5F5F5F5E2F5F5F5E2E2EFF5F5F5E2F5F5F5F5F5F5F5F5F5F5F5F5F5F5F5F5E2F5F5F5F5F5F5F5F5F5F5F5F5F5F5F5F5F5F5F5F5F5F5F5F5F5F5F5F5F5F5F5F5F5F5F5F5F5F5F5F5F5F5F5F5F5F5F5F5F5F5F5F5F5F5F5F5F5F5F5
310
F5F5F5F5F5F5F5F5F5F5F5F5F5F5F5F5F5F5F5F5F5F5F5F5F5F5F5F5F5F5F5F5F5F5F5F5F5F5F5F5F5F5F5F5F5F5F5F5F5F5F5F5F5F5F5F5F5F5F5F5F5F5F5F5F5F5F5F5F5F5F5F5F5F5F5F5E2F5F5F5F5F5F5F5F5F5F5F5F5F5F5F5F5E2F5F5F5E2E2EFF5F5F5E2F5F5F5F5F5F5F5F5F5F5F5F5F5F5F5F5E2F5F5F5F5F5F5
310
F5F5F5F5F5F5F5F5F5F5F5F5F5F5F5F5F5F5F5F5F5F5F5F5F5F5F5F5F5F5F5F5F5F5F5F5F5F5F5F5F5F5F5F5F5F5F5F5F5F5F5F5F5F5F5F5F5F5F5F5F5F5F5F5F5F5F5F5F5F5F5F5F5F5F5F5F5F5F5F5F5F5F5F5F5F5F5F5F5F5F5F5F5F5F5F5F5F5F5F5F5F5F5F5F5F5F5F5F5F5F5F5F5F5F5F5F5F5F5F5F5F5F5F5F5F5F5
310
F5F5E2F5F5F5F5F5F5F5F5F5F5F5F5F5F5F5F5E2F5F5F5E2E2EFF5F5F5F5F5F5F5F5F5F5F5F5F5F5F5F5F5F5F5F5E2F5F5F5F5F5F5F5F5F5F5F5F5F5F5F5F5F5F5F5F5F5F5F5F5F5F5F5F5F5F5F5F5F5F5F5F5F5F5F5F5F5F5F5F5F5F5F5F5F5F5F5F5F5F5F5F5F5F5F5F5F5F5F5F5F5F5F5F5F5F5F5F5F5F5F5F5F5F5F5F5
310
F5F5F5F5F5F5F5F5F5F5F5F5F5F5F5F5F5F5F5F5F5F5F5F5F5F5F5F5F5F5F5F5F5F5F5F5F5F5F5F5F5F5F5F5F5F5F5F5F5F5F5F5F5F5F5E2F5F5F5F5F5F5F5F5F5F5F5F5F5F5F5F5F5F5F5F5E2E2EFF5F5F5F5F5F5F5F5F5F5F5F5F5F5F5F5F5F5F5F5E2F5F5F5F5F5F5F5F5F5F5F5F5F5F5F5F5F5F5F5F5F5F5F5F5F5F5F5
310
F5F5F5F5F5F5F5F5F5F5F5F5F5F5F5F5F5F5F5F5F5F5F5F5F5F5F5F5F5F5F5F5F5F5F5F5F5F5F5F5F5F5F5F5F5F5F5F5F5F5F5F5F5F5F5F5F5F5F5F5F5F5F5F5F5F5F5F5F5F5F5F5F5F5F5F5F5F5F5F5F5F5F5F5F5F5F5F5F5F5F5F5F5F5F5F5F5F5F5F5F5F5F5F5F5F5F5F5E2F5F5F5F5F5F5F5F5F5F5F5F5F5F5F5F5F5F5
310
F5F5E2E2EFF5F5F5F5F5F5F5F5F5F5F5F5F5F5F5F5F5F5F5F5E2F5F5F5F5F5F5F5F5F5F5F5F5F5F5F5F5F5F5F5F5F5F5F5F5F5F5F5F5F5F5F5F5F5F5F5F5F5F5F5F5F5F5F5F5F5F5F5F5F5F5F5F5F5F5F5F5F5F5F5F5F5F5F5F5F5F5F5F5F5F5F5F5F5F5F5F5F5F5F5F5F5F5F5F5F5F5F5F5F5F5F5F5F5F5F5F5F5F5F5F5F5
310
F5F5F5F5F5F5F5F5F5F5F5F5F5F5F5F5F5F5F5F5F5F5F5F5F5F5F5F5F5F5F5F5F5F5E2F5F5F5F5F5F5F5F5F5F5F5F5F5F5F5F5F5F5F5F5E2E2EFF5F5F5F5F5F5F5F5F5F5F5F5F5F5F5F5F5F5F5F5E2F5F5F5F5F5F5F5F5F5F5F5F5F5F5F5F5F5F5F5F5F5F5F5F5F5F5F5F5F5F5F5F5F5F5F5F5F5F5F5F5F5F5F5F5F5F5F5F5
310
F5F5F5F5F5F5F5F5F5F5F5F5F5F5F5F5F5F5F5F5F5F5F5F5F5F5F5F5F5F5F5F5F5F5F5F5F5F5F5F5F5F5F5F5F5F5F5F5F5F5F5F5F5F5F5F5F5F5F5F5F5F5F5F5F5F5F5F5F5F5F5F5F5F5F5F5F5F5F5F5F5F5F5F5F5F5F5E2F5F5F5F5F5F5F5F5F5F5F5F5F5F5F5F5F5F5F5F5E2E2EFF5F5F5F5F5F5F5F5F5F5F5F5F5F5F5F5
310
F5F5F5F5E2E2E2E2E2E2E2E2E2E2E2E2E2E2E2E2E2E2E2E2E2E2E2E2E2E2E2E2E2E2E2E2E2E2E2E2E2E2E2E2E2E2E2E2E2E2E2E2E2E2E2E2E2E2E2E2E2E2E2E2E2E2E2E2E2E2E2E2E2E2E2E2E2E2E2E2E2E2E2E2E2E2E2E2E2E2E2E2E2E2E2E2E2E2E2E2E2E2E2E2E2E2E2E2E2E2E2E2E2E2E2E2E2E2E2E2E2E2E2E2E2E2E2
310
E2E2E2E2E2E2E2E2E2E2E2E2E2E2F5F5F5F5F5F5F5F5F5F5F5F5F5F5F5F5F5F5F5F5E2E2EFF5F5F5F5F5F5F5F5F5F5F5F5F5F5F5F5F5F5F5F5F5F5F5F5F5F5F5F5F5F5F5F5F5F5F5F5F5F5F5F5F5F5F5F5F5F5F5F5F5F5F5F5F5F5F5F5F5F5F5F5F5F5F5F5F5F5F5F5F5F5F5F5F5F5F5F5F5F5F5F5F5F5F5F5F5F5F5F5F5F5
310
F5F5F5F5F5F5F5F5F5F5F5F5F5F5F5F5F5F5F5F5F5F5F5F5F5F5F5F5F5F5F5F5F5F5F5F5F5F5F5F5F5F5F5F5F5F5F5F5F5F5F5F5F5F5F5F5F5F5F5F5F5F5F5F5F5F5F5F5F5F5F5F5F5F5F5F5F5F5F5F5F5F5F5F5F5F5F5E2E2EFF5F5F5F5F5F5F5F5F5F5F5F5F5F5F5F5F5F5F5F5F5F5F5F5F5F5F5F5F5F5F5F5F5F5F5F5F5
310
F5F5F5F5F5F5F5F5F5F5F5F5F5F5F5F5F5F5F5F5F5F5F5F5F5F5F5F5F5F5F5F5F5F5F5F5F5F5F5F5F5F5F5F5F5F5F5F5F5F5F5F5F5F5F5F5F5F5F5F5F5F5F5F5F5F5F5F5F5F5F5F5F5F5F5F5F5F5F5F5F5F5F5F5F5F5F5F5F5F5F5F5F5F5F5F5F5F5F5F5F5F5F5F5F5F5F5F5F5F5F5F5F5F5F5F5F5F5F5F5F5F5F5F5F5F5F5
310
F5F5F5F5F5F5F5F5F5F5F5F5F5E2E2EFF5F5F5F5F5F5F5F5F5F5F5F5F5F5F5F5F5F5F5F5F5F5F5F5F5F5F5F5F5F5F5F5F5F5F5F5F5F5F5F5F5F5F5F5F5F5F5F5F5F5F5F5F5F5F5F5F5F5F5F5F5F5F5F5F5F5F5F5F5F5F5F5F5F5F5F5F5F5F5F5F5F5F5F5F5F5F5F5F5F5F5F5F5F5F5F5F5F5F5F5F5F5F5F5F5F5F5F5F5F5F5
310
F5F5F5F5F5F5F5F5F5F5F5F5F5F5F5F5F5F5F5F5F5F5F5F5F5F5F5F5F5F5F5F5F5F5F5F5F5F5F5F5F5F5F5F5F5F5F5F5F5F5F5F5F5F5F5F5F5F5F5F5F5F5F5F5F5F5E2E2EFF5F5F5F5F5F5F5F5F5F5F5F5F5F5F5F5F5F5F5F5F5F5F5F5F5F5F5F5F5F5F5F5F5F5F5F5F5F5F5F5F5F5F5F5F5F5F5F5F5F5F5F5F5F5F5F5F5F5
310
F5F5F5F5F5F5F5F5F5F5F5F5F5F5F5F5F5F5F5F5F5F5F5F5F5F5F5F5F5F5F5F5F5F5F5F5F5F5F5F5F5F5F5F5F5F5F5F5F5F5F5F5F5F5F5F5F5F5F5F5F5F5F5F5F5F5F5F5F5F5F5F5F5F5F5F5F5F5F5F5F5F5F5F5F5F5F5F5F5F5F5F5F5F5F5F5F5F5F5F5F5F5F5F5F5F5F5F5F5F5F5F5F5F5F5F5F5F5F5E2E2EFF5F5F5E2F5
310
F5F5F5F5F5F5F5F5F5F5F5F5F5F5F5F5F5F5F5F5F5F5F5F5F5F5F5F5F5F5F5F5F5F5F5F5F5F5F5F5F5F5F5F5F5F5F5F5F5F5F5F5F5F5F5F5F5F5F5F5F5F5F5F5F5F5F5F5F5F5F5F5F5F5F5F5F5F5F5F5F5F5F5F5F5F5F5F5F5F5F5F5F5F5F5F5F5F5F5F5F5F5F5F5F5F5F5F5F5F5F5F5F5F5F5F5F5F5F5F5F5F5F5F5F5F5F5
310
F5F5F5F5F5F5F5F5F5F5F5F5F5F5F5F5F5F5F5F5F5F5F5F5F5F5F5F5F5F5F5F5F5F5F5F5F5F5F5F5F5E2F5F5F5E2E2EFF5F5F5E2F5F5F5F5F5F5F5F5F5F5F5F5F5F5F5F5F5F5F5F5F5F5F5F5F5F5F5F5F5F5F5F5F5F5F5F5F5F5F5F5F5F5F5F5F5F5F5F5F5F5F5F5F5F5F5F5F5F5F5F5F5F5F5F5F5F5F5F5F5F5F5F5F5F5F5
310
F5F5F5F5F5F5F5F5F5F5F5F5F5F5F5F5F5F5F5F5F5F5F5F5F5F5F5F5F5F5F5F5F5F5F5F5F5F5F5F5F5F5F5F5F5F5F5F5F5F5F5F5F5F5F5F5F5F5F5F5F5F5F5F5F5F5F5F5F5F5F5F5F5F5F5F5F5F5F5F5F5F5F5F5F5F5F5F5F5F5F5F5F5F5E2F5F5F5E2E2EFF5F5F5E2F5F5F5F5F5F5F5F5F5F5F5F5F5F5F5F5F5F5F5F5F5F5
310
F5F5F5F5F5F5F5F5F5F5F5F5F5F5F5F5F5F5F5F5F5F5F5F5F5F5F5F5F5F5F5F5F5F5F5F5F5F5F5F5F5F5F5F5F5F5F5F5F5F5F5F5F5F5F5F5F5F5F5F5F5F5F5F5F5F5F5F5F5F5F5F5F5F5F5F5F5F5F5F5F5F5F5F5F5F5F5F5F5F5F5F5F5F5F5F5F5F5F5F5F5F5F5F5F5F5F5F5F5F5F5F5F5F5F5F5F5F5F5F5F5F5F5F5F5F5F5
310
F5F5F5F5F5F5F5F5F5F5F5F5F5F5F5F5F5F5F5F5E2F5F5F5E2E2EFF5F5F5E2F5F5F5F5F5F5F5F5F5F5F5F5F5F5F5F5F5F5F5F5F5F5F5F5F5F5F5F5F5F5F5F5F5F5F5F5F5F5F5F5F5F5F5F5F5F5F5F5F5F5F5F5F5F5F5F5F5F5F5F5F5F5F5F5F5F5F5F5F5F5F5F5F5F5F5F5F5F5F5F5F5F5F5F5F5F5F5F5F5F5F5F5F5F5F5F5
310
F5F5F5F5F5F5F5F5F5F5F5F5F5F5F5F5F5F5F5F5F5F5F5F5F5F5F5F5F5F5F5F5F5F5F5F5F5F5F5F5F5F5F5F5F5F5F5F5F5F5F5F5F5F5F5F5F5F5F5F5F5F5F5F5F5F5F5F5F5F5F5F5F5E2F5F5F5E2E2EFF5F5F5E2F5F5F5F5F5F5F5F5F5F5F5F5F5F5F5F5F5F5F5F5F5F5F5F5F5F5F5F5F5F5F5F5F5F5F5F5F5F5F5F5F5F5F5
310
F5F5F5F5F5F5F5F5F5F5F5F5F5F5F5F5F5F5F5F5F5F5F5F5F5F5F5F5F5F5F5F5F5F5F5F5F5F5F5F5F5F5F5F5F5F5F5F5F5F5F5F5F5F5F5F5F5F5F5F5F5F5F5F5F5F5F5F5F5F5F5F5F5F5F5F5F5F5F5F5F5F5F5F5F5F5F5F5F5F5F5F5F5F5F5F5F5F5F5F5F5F5F5F5F5F5F5F5F5F5F5F5F5F5F5F5F5F5F5F5F5F5F5F5F5F5E2
310
F5F5F5E2E2EFF5F5F5E2F5F5F5F5F5F5F5F5F5F5F5F5F5F5F5F5F5F5F5F5F5F5F5F5F5F5F5F5F5F5F5F5F5F5F5F5F5F5F5F5F5F5F5F5F5F5F5F5F5F5F5F5F5F5F5F5F5F5F5F5F5F5F5F5F5F5F5F5F5F5F5F5F5F5F5F5F5F5F5F5F5F5F5F5F5F5F5F5F5F5F5F5F5F5F5F5F5F5F5F5F5F5F5F5F5F5F5F5F5F5F5F5F5F5F5F5F5
310
F5F5F5F5F5F5F5F5F5F5F5F5F5F5F5F5F5F5F5F5F5F5F5F5F5F5F5F5F5F5F5F5F5F5F5F5F5F5F5F5F5F5F5F5F5F5F5F5F5F5F5F5E2F5F5F5E2E2EFF5F5F5E2F5F5F5F5F5F5F5F5F5F5F5F5F5F5F5F5F5F5F5F5F5F5F5F5F5F5F5F5F5F5F5F5F5F5F5F5F5F5F5F5F5F5F5F5F5F5F5F5F5F5F5F5F5F5F5F5F5F5F5F5F5F5F5F5
310
F5F5F5F5F5F5F5F5F5F5F5F5F5F5F5F5F5F5F5F5F5F5F5F5F5F5F5F5F5F5F5F5F5F5F5F5F5F5F5F5F5F5F5F5F5F5F5F5F5F5F5F5F5F5F5F5F5F5F5F5F5F5F5F5F5F5F5F5F5F5F5F5F5F5F5F5F5F5F5F5F5F5F5F5F5F5F5F5F5F5F5F5F5F5F5F5F5F5F5F5F5F5F5F5F5E2F5F5F5E2E2EFF5F5F5E2F5F5F5F5F5F5F5F5F5F5F5
310
F5F5F5F5F5F5F5F5F5F5F5F5F5F5F5F5F5F5F5F5F5F5F5F5F5F5F5F5F5F5F5F5F5F5F5F5F5F5F5F5F5F5F5F5F5F5F5F5F5F5F5F5F5F5F5F5F5F5F5F5F5F5F5F5F5F5F5F5F5F5F5F5F5F5F5F5F5F5F5F5F5F5F5F5F5F5F5F5F5F5F5F5F5F5F5F5F5F5F5F5F5F5F5F5F5F5F5F5F5F5F5F5F5F5F5F5F5F5F5F5F5F5F5F5F5F5F5
310
F5F5F5F5F5F5F5F5F5F5F5F5F5F5F5F5F5F5F5F5F5F5F5F5F5F5F5F5F5F5F5E2F5F5F5E2E2EFF5F5F5E2E2E2E2E2E2E2E2F5F5F5F5F5F5F5F5F5E2E2E2E2E2E2E2E2E2E2E2E2E2E2E2E2F5F5F5F5F5F5F5F5E2E2E2E2E2E2E2E2E2E2E2E2E2E2E2E2F5F5F5F5F5F5F5F5F5E2E2E2E2E2E2E2E2E2E2E2E2E2E2E2F5F5F5F5F5
310
F5F5F5F5E2E2E2E2E2E2E2E2E2E2E2E2E2E2E2F5F5F5F5F5F5F5F5F5E2E2E2E2E2E2E2E2E2E2E2E2E2E2E2E2F5F5F5F5F5F5F5F5E2E2E2E2E2E2E2E2E2E2E2E2E2E2E2E2F5F5F5F5F5F5F5F5F5E2E2E2E2E2E2E2E2F5F5F5E2E2EFF5F5F5F5F5F5F5F5F5F5F5F5F5F5F5F5F5F5F5F5F5F5F5F5F5F5F5F5F5F5F5F5F5F5F5F5
310
F5F5F5F5F5F5F5F5F5F5F5F5F5F5F5F5F5F5F5F5F5F5F5F5F5F5F5F5F5F5F5F5F5F5F5F5F5F5F5F5F5F5F5F5F5F5F5F5F5F5F5F5F5F5F5F5F5F5F5F5F5F5F5F5F5F5F5F5F5F5F5F5F5F5F5F5F5F5F5F5F5F5F5F5F5F5F5F5F5F5F5F5F5F5F5F5F5F5F5F5F5F5F5F5F5F5F5F5F5F5F5F5F5F5F5F5F5F5F5F5F5F5F5F5F5F5F5
310
F5F5F5F5F5F5F5F5F5F5F5F5F5F5E2E2EFF5F5F5F5F5F5F5F5F5F5F5F5F5F5F5F5F5F5F5F5F5F5F5F5F5F5F5F5F5F5F5F5F5F5F5F5F5F5F5F5F5F5F5F5F5F5F5F5F5F5F5F5F5F5F5F5F5F5F5F5F5F5F5F5F5F5F5F5F5F5F5F5F5F5F5F5F5F5F5F5F5F5F5F5F5F5F5F5F5F5F5F5F5F5F5F5F5F5F5F5F5F5F5F5F5F5F5F5F5F5
310
F5F5F5F5F5F5F5F5F5F5F5F5F5F5F5F5F5F5F5F5F5F5F5F5F5F5F5F5F5F5F5F5F5F5F5F5F5F5F5F5F5F5F5F5F5F5F5F5F5F5F5F5F5F5F5F5F5F5F5F5F5F5F5F5F5F5F5E2EFEFF5F5F5F5F5F5F5F5F5F5F5F5F5F5F5F5F5F5F5F5F5F5F5F5F5F5F5F5F5F5F5F5F5F5F5F5F5F5F5F5F5F5F5F5F5F5F5F5F5F5F5F5F5F5F5F5F5
310
F5F5F5F5F5F5F5F5F5F5F5F5F5F5F5F5F5F5F5F5F5F5F5F5F5F5F5F5F5F5F5F5F5F5F5F5F5F5F5F5F5F5F5F5F5F5F5F5F5F5F5F5F5F5F5F5F5F5F5F5F5F5F5F5F5F5F5F5F5F5F5F5F5F5F5F5F5F5F5F5F5F5F5F5F5F5F5F5F5F5F5F5F5F5F5F5F5F5F5F5F5F5F5F5F5F5F5F5F5F5F5F5F5F5F5F5F5F5F5F5E2EFEFE2E2E2E2
310
E2E2E2E2E2E2E2E2E2E2E2E2E2E2E2E2E2E2E2E2E2E2E2E2E2E2E2E2E2E2E2E2E2E2E2E2E2E2E2E2E2E2E2E2E2E2E2E2E2E2E2E2E2E2E2E2E2E2E2E2E2E2E2E2E2E2E2E2E2E2E2E2E2E2E2E2E2E2E2E2E2E2E2E2E2E2E2E2E2E2E2E2E2E2E2E2E2E2E2E2E2E2E2E2E2E2E2E2E2E2E2E2E2E2E2E2E2E2E2E2E2E2E2E2E2E2E2
310
E2E2E2E2E2E2E2E2E2E2E2E2E2E2E2E2E2E2E2E2E2E2E2E2E2E2E2E2E2E2E2E2E2E2E2E2E2E2E2E2E2E2E2E2E2E2E2EFEF
  0
ENDSEC
  0
EOF
