  0
SECTION
  2
HEADER
  9
$ACADVER
  1
AC1018
  9
$ACADMAINTVER
 70
     0
  9
$DWGCODEPAGE
  3
ANSI_1252
  9
$AUTHOR
  1
g6edxjah
  9
$LASTSAVEDBY
  1
g6edxjah
  9
$INSBASE
 10
0.0
 20
0.0
 30
0.0
  9
$EXTMIN
 10
0.043458
 20
-0.081542
 30
0.0
  9
$EXTMAX
 10
8.456542
 20
11.081542
 30
0.0
  9
$LIMMIN
 10
-23.706709
 20
-22.456709
  9
$LIMMAX
 10
32.206709
 20
33.456709
  9
$ORTHOMODE
 70
     0
  9
$REGENMODE
 70
     1
  9
$FILLMODE
 70
     1
  9
$QTEXTMODE
 70
     0
  9
$MIRRTEXT
 70
     0
  9
$LTSCALE
 40
1.0
  9
$ATTMODE
 70
     1
  9
$TEXTSIZE
 40
0.12
  9
$TRACEWID
 40
0.05
  9
$TEXTSTYLE
  7
Standard
  9
$CLAYER
  8
DIM
  9
$CELTYPE
  6
Continuous
  9
$CECOLOR
 62
     7
  9
$CELTSCALE
 40
1.0
  9
$DISPSILH
 70
     0
  9
$DIMSCALE
 40
1.0
  9
$DIMASZ
 40
0.12
  9
$DIMEXO
 40
0.06
  9
$DIMDLI
 40
0.0
  9
$DIMRND
 40
0.0
  9
$DIMDLE
 40
0.0
  9
$DIMEXE
 40
0.06
  9
$DIMTP
 40
0.0
  9
$DIMTM
 40
0.0
  9
$DIMTXT
 40
0.12
  9
$DIMCEN
 40
0.09
  9
$DIMTSZ
 40
0.0
  9
$DIMTOL
 70
     0
  9
$DIMLIM
 70
     0
  9
$DIMTIH
 70
     0
  9
$DIMTOH
 70
     0
  9
$DIMSE1
 70
     0
  9
$DIMSE2
 70
     0
  9
$DIMTAD
 70
     1
  9
$DIMZIN
 70
    11
  9
$DIMBLK
  1
TerminatorOpen_0.5
  9
$DIMASO
 70
     1
  9
$DIMSHO
 70
     1
  9
$DIMPOST
  1

  9
$DIMAPOST
  1

  9
$DIMALT
 70
     0
  9
$DIMALTD
 70
     4
  9
$DIMALTF
 40
25.4
  9
$DIMLFAC
 40
1.0
  9
$DIMTOFL
 70
     0
  9
$DIMTVP
 40
0.0
  9
$DIMTIX
 70
     0
  9
$DIMSOXD
 70
     0
  9
$DIMSAH
 70
     0
  9
$DIMBLK1
  1

  9
$DIMBLK2
  1

  9
$DIMSTYLE
  2
Standard
  9
$DIMCLRD
 70
     0
  9
$DIMCLRE
 70
     0
  9
$DIMCLRT
 70
     0
  9
$DIMTFAC
 40
1.0
  9
$DIMGAP
 40
0.06
  9
$DIMJUST
 70
     0
  9
$DIMSD1
 70
     0
  9
$DIMSD2
 70
     0
  9
$DIMTOLJ
 70
     0
  9
$DIMTZIN
 70
    11
  9
$DIMALTZ
 70
    15
  9
$DIMALTTZ
 70
    15
  9
$DIMUPT
 70
     0
  9
$DIMDEC
 70
     4
  9
$DIMTDEC
 70
     4
  9
$DIMALTU
 70
     2
  9
$DIMALTTD
 70
     4
  9
$DIMTXSTY
  7
Style-Arial
  9
$DIMAUNIT
 70
     0
  9
$DIMADEC
 70
     4
  9
$DIMALTRND
 40
0.0
  9
$DIMAZIN
 70
     3
  9
$DIMDSEP
 70
    46
  9
$DIMATFIT
 70
     1
  9
$DIMFRAC
 70
     0
  9
$DIMLDRBLK
  1
TerminatorOpen_0.5
  9
$DIMLUNIT
 70
     2
  9
$DIMLWD
 70
    -2
  9
$DIMLWE
 70
    -2
  9
$DIMTMOVE
 70
     0
  9
$LUNITS
 70
     2
  9
$LUPREC
 70
     4
  9
$SKETCHINC
 40
0.1
  9
$FILLETRAD
 40
0.0
  9
$AUNITS
 70
     0
  9
$AUPREC
 70
     4
  9
$MENU
  1
.
  9
$ELEVATION
 40
0.0
  9
$PELEVATION
 40
0.0
  9
$THICKNESS
 40
0.0
  9
$LIMCHECK
 70
     0
  9
$CHAMFERA
 40
0.0
  9
$CHAMFERB
 40
0.0
  9
$CHAMFERC
 40
0.0
  9
$CHAMFERD
 40
0.0
  9
$SKPOLY
 70
     0
  9
$TDCREATE
 40
2455337.3690675
  9
$TDUCREATE
 40
2455337.577400833
  9
$TDUPDATE
 40
2455337.369067685
  9
$TDUUPDATE
 40
2455337.577401019
  9
$TDINDWG
 40
0.0
  9
$TDUSRTIMER
 40
0.0006630093
  9
$USRTIMER
 70
     1
  9
$ANGBASE
 50
0.0
  9
$ANGDIR
 70
     0
  9
$PDMODE
 70
     0
  9
$PDSIZE
 40
0.0
  9
$PLINEWID
 40
0.0
  9
$SPLFRAME
 70
     0
  9
$SPLINETYPE
 70
     6
  9
$SPLINESEGS
 70
     8
  9
$HANDSEED
  5
6DF
  9
$SURFTAB1
 70
     6
  9
$SURFTAB2
 70
     6
  9
$SURFTYPE
 70
     6
  9
$SURFU
 70
     6
  9
$SURFV
 70
     6
  9
$UCSBASE
  2

  9
$UCSNAME
  2

  9
$UCSORG
 10
0.0
 20
0.0
 30
0.0
  9
$UCSXDIR
 10
1.0
 20
0.0
 30
0.0
  9
$UCSYDIR
 10
0.0
 20
1.0
 30
0.0
  9
$UCSORTHOREF
  2

  9
$UCSORTHOVIEW
 70
     0
  9
$UCSORGTOP
 10
0.0
 20
0.0
 30
0.0
  9
$UCSORGBOTTOM
 10
0.0
 20
0.0
 30
0.0
  9
$UCSORGLEFT
 10
0.0
 20
0.0
 30
0.0
  9
$UCSORGRIGHT
 10
0.0
 20
0.0
 30
0.0
  9
$UCSORGFRONT
 10
0.0
 20
0.0
 30
0.0
  9
$UCSORGBACK
 10
0.0
 20
0.0
 30
0.0
  9
$PUCSBASE
  2

  9
$PUCSNAME
  2

  9
$PUCSORG
 10
0.0
 20
0.0
 30
0.0
  9
$PUCSXDIR
 10
1.0
 20
0.0
 30
0.0
  9
$PUCSYDIR
 10
0.0
 20
1.0
 30
0.0
  9
$PUCSORTHOREF
  2

  9
$PUCSORTHOVIEW
 70
     0
  9
$PUCSORGTOP
 10
0.0
 20
0.0
 30
0.0
  9
$PUCSORGBOTTOM
 10
0.0
 20
0.0
 30
0.0
  9
$PUCSORGLEFT
 10
0.0
 20
0.0
 30
0.0
  9
$PUCSORGRIGHT
 10
0.0
 20
0.0
 30
0.0
  9
$PUCSORGFRONT
 10
0.0
 20
0.0
 30
0.0
  9
$PUCSORGBACK
 10
0.0
 20
0.0
 30
0.0
  9
$USERI1
 70
     0
  9
$USERI2
 70
     0
  9
$USERI3
 70
     0
  9
$USERI4
 70
     0
  9
$USERI5
 70
     0
  9
$USERR1
 40
0.0
  9
$USERR2
 40
0.0
  9
$USERR3
 40
0.0
  9
$USERR4
 40
0.0
  9
$USERR5
 40
0.0
  9
$WORLDVIEW
 70
     1
  9
$SHADEDGE
 70
     3
  9
$SHADEDIF
 70
    70
  9
$TILEMODE
 70
     1
  9
$MAXACTVP
 70
    64
  9
$PINSBASE
 10
0.0
 20
0.0
 30
0.0
  9
$PLIMCHECK
 70
     0
  9
$PEXTMIN
 10
1.049744
 20
0.799667
 30
-0.001526
  9
$PEXTMAX
 10
9.450623
 20
7.200577
 30
0.0
  9
$PLIMMIN
 10
-0.25
 20
-0.25
  9
$PLIMMAX
 10
10.75
 20
8.25
  9
$UNITMODE
 70
     0
  9
$VISRETAIN
 70
     1
  9
$PLINEGEN
 70
     0
  9
$PSLTSCALE
 70
     0
  9
$TREEDEPTH
 70
  3020
  9
$CMLSTYLE
  2
Standard
  9
$CMLJUST
 70
     0
  9
$CMLSCALE
 40
1.0
  9
$PROXYGRAPHICS
 70
     1
  9
$MEASUREMENT
 70
     0
  9
$CELWEIGHT
370
    53
  9
$ENDCAPS
280
     0
  9
$JOINSTYLE
280
     0
  9
$LWDISPLAY
290
     1
  9
$INSUNITS
 70
     2
  9
$HYPERLINKBASE
  1

  9
$STYLESHEET
  1

  9
$XEDIT
290
     1
  9
$CEPSNTYPE
380
     0
  9
$PSTYLEMODE
290
     1
  9
$FINGERPRINTGUID
  2
{02C0BBB5-38A7-4FBF-829E-00875EC88963}
  9
$VERSIONGUID
  2
{82C521FC-BF81-46B3-825E-420B6BD93A99}
  9
$EXTNAMES
290
     1
  9
$PSVPSCALE
 40
0.0
  9
$OLESTARTUP
290
     0
  9
$SORTENTS
280
   127
  9
$INDEXCTL
280
     0
  9
$HIDETEXT
280
     1
  9
$XCLIPFRAME
290
     0
  9
$HALOGAP
280
     0
  9
$OBSCOLOR
 70
   257
  9
$OBSLTYPE
280
     0
  9
$INTERSECTIONDISPLAY
280
     0
  9
$INTERSECTIONCOLOR
 70
   257
  9
$DIMASSOC
280
     1
  9
$PROJECTNAME
  1

  0
ENDSEC
  0
SECTION
  2
CLASSES
  0
CLASS
  1
ACDBDICTIONARYWDFLT
  2
AcDbDictionaryWithDefault
  3
ObjectDBX Classes
 90
        0
 91
        3
280
     0
281
     0
  0
CLASS
  1
SORTENTSTABLE
  2
AcDbSortentsTable
  3
ObjectDBX Classes
 90
        0
 91
        3
280
     0
281
     0
  0
ENDSEC
  0
SECTION
  2
TABLES
  0
TABLE
  2
VPORT
  5
6C3
330
0
100
AcDbSymbolTable
 70
     4
  0
VPORT
  5
49
330
6C3
100
AcDbSymbolTableRecord
100
AcDbViewportTableRecord
  2
*ACTIVE
 70
     0
 10
0.0
 20
0.0
 11
1.0
 21
1.0
 12
4.25
 22
5.5
 13
0.0
 23
0.0
 14
0.083333
 24
0.083333
 15
0.083333
 25
0.083333
 16
0.0
 26
0.0
 36
1.0
 17
0.0
 27
0.0
 37
0.0
 40
11.609607
 41
1.884937
 42
50.0
 43
0.0
 44
0.0
 50
0.0
 51
0.0
 71
     0
 72
   100
 73
     1
 74
     2
 75
     0
 76
     0
 77
     0
 78
     1
281
     0
 65
     1
110
0.0
120
0.0
130
0.0
111
1.0
121
0.0
131
0.0
112
0.0
122
1.0
132
0.0
 79
     0
146
0.0
  0
ENDTAB
  0
TABLE
  2
LTYPE
  5
6AA
330
0
100
AcDbSymbolTable
 70
     1
  0
LTYPE
  5
6AB
330
6AA
100
AcDbSymbolTableRecord
100
AcDbLinetypeTableRecord
  2
ByBlock
 70
     0
  3

 72
    65
 73
     0
 40
0.0
  0
LTYPE
  5
6AC
330
6AA
100
AcDbSymbolTableRecord
100
AcDbLinetypeTableRecord
  2
ByLayer
 70
     0
  3

 72
    65
 73
     0
 40
0.0
  0
LTYPE
  5
6A9
330
6AA
100
AcDbSymbolTableRecord
100
AcDbLinetypeTableRecord
  2
Continuous
 70
     0
  3
Solid line
 72
    65
 73
     0
 40
0.0
  0
ENDTAB
  0
TABLE
  2
LAYER
  5
6A3
102
{ACAD_XDICTIONARY
360
6A4
102
}
330
0
100
AcDbSymbolTable
 70
    64
  0
LAYER
  5
6A2
330
6A3
100
AcDbSymbolTableRecord
100
AcDbLayerTableRecord
  2
0
 70
     0
 62
     7
  6
Continuous
370
    -3
390
6A6
  0
LAYER
  5
7
330
6A3
100
AcDbSymbolTableRecord
100
AcDbLayerTableRecord
  2
Level 1
 70
     0
 62
     7
  6
Continuous
370
     0
390
6A6
  0
LAYER
  5
8
330
6A3
100
AcDbSymbolTableRecord
100
AcDbLayerTableRecord
  2
2-5B
 70
     0
 62
     7
  6
Continuous
370
     0
390
6A6
1001
AcAecLayerStandard
1000

1000
2-5B
  0
LAYER
  5
9
330
6A3
100
AcDbSymbolTableRecord
100
AcDbLayerTableRecord
  2
BORDER
 70
     0
 62
     7
  6
Continuous
370
     0
390
6A6
1001
AcAecLayerStandard
1000

1000
BORDER
  0
LAYER
  5
A
330
6A3
100
AcDbSymbolTableRecord
100
AcDbLayerTableRecord
  2
DEFPOINTS
 70
     0
 62
     7
  6
Continuous
290
     0
370
     0
390
6A6
1001
AcAecLayerStandard
1000

1000
DEFPOINTS
  0
LAYER
  5
B
330
6A3
100
AcDbSymbolTableRecord
100
AcDbLayerTableRecord
  2
DIM
 70
     0
 62
     7
  6
Continuous
370
     0
390
6A6
1001
AcAecLayerStandard
1000

1000
DIM
  0
LAYER
  5
C
330
6A3
100
AcDbSymbolTableRecord
100
AcDbLayerTableRecord
  2
HATCH
 70
     0
 62
     7
  6
Continuous
370
     0
390
6A6
1001
AcAecLayerStandard
1000

1000
HATCH
  0
LAYER
  5
D
330
6A3
100
AcDbSymbolTableRecord
100
AcDbLayerTableRecord
  2
NOTES
 70
     0
 62
     7
  6
Continuous
370
     0
390
6A6
1001
AcAecLayerStandard
1000

1000
NOTES
  0
LAYER
  5
E
330
6A3
100
AcDbSymbolTableRecord
100
AcDbLayerTableRecord
  2
REF
 70
     0
 62
     7
  6
Continuous
370
     0
390
6A6
1001
AcAecLayerStandard
1000

1000
REF
  0
LAYER
  5
F
330
6A3
100
AcDbSymbolTableRecord
100
AcDbLayerTableRecord
  2
TEXT
 70
     0
 62
     7
  6
Continuous
370
     0
390
6A6
1001
AcAecLayerStandard
1000

1000
TEXT
  0
LAYER
  5
10
330
6A3
100
AcDbSymbolTableRecord
100
AcDbLayerTableRecord
  2
TITLE
 70
     0
 62
     7
  6
Continuous
370
     0
390
6A6
1001
AcAecLayerStandard
1000

1000
TITLE
  0
LAYER
  5
11
330
6A3
100
AcDbSymbolTableRecord
100
AcDbLayerTableRecord
  2
Level 11
 70
     0
 62
     7
  6
Continuous
370
     0
390
6A6
  0
LAYER
  5
12
330
6A3
100
AcDbSymbolTableRecord
100
AcDbLayerTableRecord
  2
Level 12
 70
     0
 62
     7
  6
Continuous
370
     0
390
6A6
  0
LAYER
  5
13
330
6A3
100
AcDbSymbolTableRecord
100
AcDbLayerTableRecord
  2
Level 13
 70
     0
 62
     7
  6
Continuous
370
     0
390
6A6
  0
LAYER
  5
14
330
6A3
100
AcDbSymbolTableRecord
100
AcDbLayerTableRecord
  2
Level 14
 70
     0
 62
     7
  6
Continuous
370
     0
390
6A6
  0
LAYER
  5
15
330
6A3
100
AcDbSymbolTableRecord
100
AcDbLayerTableRecord
  2
Level 15
 70
     0
 62
     7
  6
Continuous
370
     0
390
6A6
  0
LAYER
  5
16
330
6A3
100
AcDbSymbolTableRecord
100
AcDbLayerTableRecord
  2
Level 16
 70
     0
 62
     7
  6
Continuous
370
     0
390
6A6
  0
LAYER
  5
17
330
6A3
100
AcDbSymbolTableRecord
100
AcDbLayerTableRecord
  2
Level 17
 70
     0
 62
     7
  6
Continuous
370
     0
390
6A6
  0
LAYER
  5
18
330
6A3
100
AcDbSymbolTableRecord
100
AcDbLayerTableRecord
  2
Level 18
 70
     0
 62
     7
  6
Continuous
370
     0
390
6A6
  0
LAYER
  5
19
330
6A3
100
AcDbSymbolTableRecord
100
AcDbLayerTableRecord
  2
Level 19
 70
     0
 62
     7
  6
Continuous
370
     0
390
6A6
  0
LAYER
  5
1A
330
6A3
100
AcDbSymbolTableRecord
100
AcDbLayerTableRecord
  2
Level 20
 70
     0
 62
     7
  6
Continuous
370
     0
390
6A6
  0
LAYER
  5
1B
330
6A3
100
AcDbSymbolTableRecord
100
AcDbLayerTableRecord
  2
Level 21
 70
     0
 62
     7
  6
Continuous
370
     0
390
6A6
  0
LAYER
  5
1C
330
6A3
100
AcDbSymbolTableRecord
100
AcDbLayerTableRecord
  2
Level 22
 70
     0
 62
     7
  6
Continuous
370
     0
390
6A6
  0
LAYER
  5
1D
330
6A3
100
AcDbSymbolTableRecord
100
AcDbLayerTableRecord
  2
Level 23
 70
     0
 62
     7
  6
Continuous
370
     0
390
6A6
  0
LAYER
  5
1E
330
6A3
100
AcDbSymbolTableRecord
100
AcDbLayerTableRecord
  2
Level 24
 70
     0
 62
     7
  6
Continuous
370
     0
390
6A6
  0
LAYER
  5
1F
330
6A3
100
AcDbSymbolTableRecord
100
AcDbLayerTableRecord
  2
Level 25
 70
     0
 62
     7
  6
Continuous
370
     0
390
6A6
  0
LAYER
  5
20
330
6A3
100
AcDbSymbolTableRecord
100
AcDbLayerTableRecord
  2
Level 26
 70
     0
 62
     7
  6
Continuous
370
     0
390
6A6
  0
LAYER
  5
21
330
6A3
100
AcDbSymbolTableRecord
100
AcDbLayerTableRecord
  2
Level 27
 70
     0
 62
     7
  6
Continuous
370
     0
390
6A6
  0
LAYER
  5
22
330
6A3
100
AcDbSymbolTableRecord
100
AcDbLayerTableRecord
  2
Level 28
 70
     0
 62
     7
  6
Continuous
370
     0
390
6A6
  0
LAYER
  5
23
330
6A3
100
AcDbSymbolTableRecord
100
AcDbLayerTableRecord
  2
Level 29
 70
     0
 62
     7
  6
Continuous
370
     0
390
6A6
  0
LAYER
  5
24
330
6A3
100
AcDbSymbolTableRecord
100
AcDbLayerTableRecord
  2
Level 30
 70
     0
 62
     7
  6
Continuous
370
     0
390
6A6
  0
LAYER
  5
25
330
6A3
100
AcDbSymbolTableRecord
100
AcDbLayerTableRecord
  2
Level 31
 70
     0
 62
     7
  6
Continuous
370
     0
390
6A6
  0
LAYER
  5
26
330
6A3
100
AcDbSymbolTableRecord
100
AcDbLayerTableRecord
  2
Level 32
 70
     0
 62
     7
  6
Continuous
370
     0
390
6A6
  0
LAYER
  5
27
330
6A3
100
AcDbSymbolTableRecord
100
AcDbLayerTableRecord
  2
Level 33
 70
     0
 62
     7
  6
Continuous
370
     0
390
6A6
  0
LAYER
  5
28
330
6A3
100
AcDbSymbolTableRecord
100
AcDbLayerTableRecord
  2
Level 34
 70
     0
 62
     7
  6
Continuous
370
     0
390
6A6
  0
LAYER
  5
29
330
6A3
100
AcDbSymbolTableRecord
100
AcDbLayerTableRecord
  2
Level 35
 70
     0
 62
     7
  6
Continuous
370
     0
390
6A6
  0
LAYER
  5
2A
330
6A3
100
AcDbSymbolTableRecord
100
AcDbLayerTableRecord
  2
Level 36
 70
     0
 62
     7
  6
Continuous
370
     0
390
6A6
  0
LAYER
  5
2B
330
6A3
100
AcDbSymbolTableRecord
100
AcDbLayerTableRecord
  2
Level 37
 70
     0
 62
     7
  6
Continuous
370
     0
390
6A6
  0
LAYER
  5
2C
330
6A3
100
AcDbSymbolTableRecord
100
AcDbLayerTableRecord
  2
Level 38
 70
     0
 62
     7
  6
Continuous
370
     0
390
6A6
  0
LAYER
  5
2D
330
6A3
100
AcDbSymbolTableRecord
100
AcDbLayerTableRecord
  2
Level 39
 70
     0
 62
     7
  6
Continuous
370
     0
390
6A6
  0
LAYER
  5
2E
330
6A3
100
AcDbSymbolTableRecord
100
AcDbLayerTableRecord
  2
Level 40
 70
     0
 62
     7
  6
Continuous
370
     0
390
6A6
  0
LAYER
  5
2F
330
6A3
100
AcDbSymbolTableRecord
100
AcDbLayerTableRecord
  2
Level 41
 70
     0
 62
     7
  6
Continuous
370
     0
390
6A6
  0
LAYER
  5
30
330
6A3
100
AcDbSymbolTableRecord
100
AcDbLayerTableRecord
  2
Level 42
 70
     0
 62
     7
  6
Continuous
370
     0
390
6A6
  0
LAYER
  5
31
330
6A3
100
AcDbSymbolTableRecord
100
AcDbLayerTableRecord
  2
Level 43
 70
     0
 62
     7
  6
Continuous
370
     0
390
6A6
  0
LAYER
  5
32
330
6A3
100
AcDbSymbolTableRecord
100
AcDbLayerTableRecord
  2
Level 44
 70
     0
 62
     7
  6
Continuous
370
     0
390
6A6
  0
LAYER
  5
33
330
6A3
100
AcDbSymbolTableRecord
100
AcDbLayerTableRecord
  2
Level 45
 70
     0
 62
     7
  6
Continuous
370
     0
390
6A6
  0
LAYER
  5
34
330
6A3
100
AcDbSymbolTableRecord
100
AcDbLayerTableRecord
  2
Level 46
 70
     0
 62
     7
  6
Continuous
370
     0
390
6A6
  0
LAYER
  5
35
330
6A3
100
AcDbSymbolTableRecord
100
AcDbLayerTableRecord
  2
Level 47
 70
     0
 62
     7
  6
Continuous
370
     0
390
6A6
  0
LAYER
  5
36
330
6A3
100
AcDbSymbolTableRecord
100
AcDbLayerTableRecord
  2
Level 48
 70
     0
 62
     7
  6
Continuous
370
     0
390
6A6
  0
LAYER
  5
37
330
6A3
100
AcDbSymbolTableRecord
100
AcDbLayerTableRecord
  2
Level 49
 70
     0
 62
     7
  6
Continuous
370
     0
390
6A6
  0
LAYER
  5
38
330
6A3
100
AcDbSymbolTableRecord
100
AcDbLayerTableRecord
  2
Level 50
 70
     0
 62
     7
  6
Continuous
370
     0
390
6A6
  0
LAYER
  5
39
330
6A3
100
AcDbSymbolTableRecord
100
AcDbLayerTableRecord
  2
Level 51
 70
     0
 62
     7
  6
Continuous
370
     0
390
6A6
  0
LAYER
  5
3A
330
6A3
100
AcDbSymbolTableRecord
100
AcDbLayerTableRecord
  2
Level 52
 70
     0
 62
     7
  6
Continuous
370
     0
390
6A6
  0
LAYER
  5
3B
330
6A3
100
AcDbSymbolTableRecord
100
AcDbLayerTableRecord
  2
Level 53
 70
     0
 62
     7
  6
Continuous
370
     0
390
6A6
  0
LAYER
  5
3C
330
6A3
100
AcDbSymbolTableRecord
100
AcDbLayerTableRecord
  2
Level 54
 70
     0
 62
     7
  6
Continuous
370
     0
390
6A6
  0
LAYER
  5
3D
330
6A3
100
AcDbSymbolTableRecord
100
AcDbLayerTableRecord
  2
Level 55
 70
     0
 62
     7
  6
Continuous
370
     0
390
6A6
  0
LAYER
  5
3E
330
6A3
100
AcDbSymbolTableRecord
100
AcDbLayerTableRecord
  2
Level 56
 70
     0
 62
     7
  6
Continuous
370
     0
390
6A6
  0
LAYER
  5
3F
330
6A3
100
AcDbSymbolTableRecord
100
AcDbLayerTableRecord
  2
Level 57
 70
     0
 62
     7
  6
Continuous
370
     0
390
6A6
  0
LAYER
  5
40
330
6A3
100
AcDbSymbolTableRecord
100
AcDbLayerTableRecord
  2
Level 58
 70
     0
 62
     7
  6
Continuous
370
     0
390
6A6
  0
LAYER
  5
41
330
6A3
100
AcDbSymbolTableRecord
100
AcDbLayerTableRecord
  2
Level 59
 70
     0
 62
     7
  6
Continuous
370
     0
390
6A6
  0
LAYER
  5
42
330
6A3
100
AcDbSymbolTableRecord
100
AcDbLayerTableRecord
  2
Level 60
 70
     0
 62
     7
  6
Continuous
370
     0
390
6A6
  0
LAYER
  5
43
330
6A3
100
AcDbSymbolTableRecord
100
AcDbLayerTableRecord
  2
Level 61
 70
     0
 62
     7
  6
Continuous
370
     0
390
6A6
  0
LAYER
  5
44
330
6A3
100
AcDbSymbolTableRecord
100
AcDbLayerTableRecord
  2
Level 62
 70
     0
 62
     7
  6
Continuous
370
     0
390
6A6
  0
LAYER
  5
45
330
6A3
100
AcDbSymbolTableRecord
100
AcDbLayerTableRecord
  2
_0
 70
     0
 62
     7
  6
Continuous
370
     0
390
6A6
1001
AcAecLayerStandard
1000

1000
0
  0
ENDTAB
  0
TABLE
  2
STYLE
  5
6AE
330
0
100
AcDbSymbolTable
 70
     2
  0
STYLE
  5
6AD
330
6AE
100
AcDbSymbolTableRecord
100
AcDbTextStyleTableRecord
  2
Standard
 70
     0
 40
0.0
 41
1.0
 50
0.0
 71
     0
 42
0.12
  3
txt
  4

  0
STYLE
  5
6CD
330
6AE
100
AcDbSymbolTableRecord
100
AcDbTextStyleTableRecord
  2
Style-Arial
 70
     0
 40
0.0
 41
1.0
 50
0.0
 71
     0
 42
0.2
  3

  4

1001
ACAD
1000
Arial
1071
       39
  0
ENDTAB
  0
TABLE
  2
VIEW
  5
6C1
330
0
100
AcDbSymbolTable
 70
     0
  0
ENDTAB
  0
TABLE
  2
UCS
  5
6C2
330
0
100
AcDbSymbolTable
 70
     0
  0
ENDTAB
  0
TABLE
  2
APPID
  5
6C0
330
0
100
AcDbSymbolTable
 70
     3
  0
APPID
  5
6C8
330
6C0
100
AcDbSymbolTableRecord
100
AcDbRegAppTableRecord
  2
ACAD
 70
     0
  0
APPID
  5
6BF
330
6C0
100
AcDbSymbolTableRecord
100
AcDbRegAppTableRecord
  2
ACAD_PSEXT
 70
     0
  0
APPID
  5
6CA
330
6C0
100
AcDbSymbolTableRecord
100
AcDbRegAppTableRecord
  2
AcAecLayerStandard
 70
     0
  0
ENDTAB
  0
TABLE
  2
DIMSTYLE
  5
6B0
330
0
100
AcDbSymbolTable
 70
     1
100
AcDbDimStyleTable
  0
DIMSTYLE
105
6AF
330
6B0
100
AcDbSymbolTableRecord
100
AcDbDimStyleTableRecord
  2
Standard
 70
     0
340
6AD
  0
ENDTAB
  0
TABLE
  2
BLOCK_RECORD
  5
6B3
330
0
100
AcDbSymbolTable
 70
     2
  0
BLOCK_RECORD
  5
6B4
102
{ACAD_XDICTIONARY
360
6DA
102
}
330
6B3
100
AcDbSymbolTableRecord
100
AcDbBlockTableRecord
  2
*Model_Space
340
6B7
  0
BLOCK_RECORD
  5
6B9
330
6B3
100
AcDbSymbolTableRecord
100
AcDbBlockTableRecord
  2
*Paper_Space
340
6BC
  0
BLOCK_RECORD
  5
6CE
330
6B3
100
AcDbSymbolTableRecord
100
AcDbBlockTableRecord
  2
TerminatorOpen_0.5
340
0
  0
BLOCK_RECORD
  5
6D7
330
6B3
100
AcDbSymbolTableRecord
100
AcDbBlockTableRecord
  2
LARROW
340
0
102
{BLKREFS
331
62C
331
62E
331
630
331
632
331
634
331
636
331
638
331
63A
102
}
  0
ENDTAB
  0
ENDSEC
  0
SECTION
  2
BLOCKS
  0
BLOCK
  5
6B5
330
6B4
100
AcDbEntity
  8
0
100
AcDbBlockBegin
  2
*Model_Space
 70
     0
 71
     0
 10
0.0
 20
0.0
 30
0.0
  3
*Model_Space
  1

  0
ENDBLK
  5
6B6
330
6B4
100
AcDbEntity
  8
0
100
AcDbBlockEnd
  0
BLOCK
  5
6BA
330
6B9
100
AcDbEntity
 67
     1
  8
0
100
AcDbBlockBegin
  2
*Paper_Space
 70
     0
 71
     0
 10
0.0
 20
0.0
 30
0.0
  3
*Paper_Space
  1

  0
ENDBLK
  5
6BB
330
6B9
100
AcDbEntity
 67
     1
  8
0
100
AcDbBlockEnd
  0
BLOCK
  5
6D2
330
6CE
100
AcDbEntity
  8
0
100
AcDbBlockBegin
  2
TerminatorOpen_0.5
 70
     0
 71
     0
 10
0.0
 20
0.0
 30
0.0
  3
TerminatorOpen_0.5
  1

  0
LINE
  5
6CF
330
6CE
100
AcDbEntity
  8
0
  6
ByBlock
 62
     0
370
    -2
100
AcDbLine
 10
0.0
 20
0.0
 30
0.0
 11
-1.0
 21
0.0
 31
0.0
  0
LINE
  5
6D0
330
6CE
100
AcDbEntity
  8
0
  6
ByBlock
 62
     0
370
    -2
100
AcDbLine
 10
0.0
 20
0.0
 30
0.0
 11
-1.0
 21
0.25
 31
0.0
  0
LINE
  5
6D1
330
6CE
100
AcDbEntity
  8
0
  6
ByBlock
 62
     0
370
    -2
100
AcDbLine
 10
0.0
 20
0.0
 30
0.0
 11
-1.0
 21
-0.25
 31
0.0
  0
ENDBLK
  5
6D3
330
6CE
100
AcDbEntity
  8
0
100
AcDbBlockEnd
  0
BLOCK
  5
6D8
330
6D7
100
AcDbEntity
  8
0
100
AcDbBlockBegin
  2
LARROW
 70
     0
 71
     0
 10
0.0
 20
0.0
 30
0.0
  3
LARROW
  1

  0
LWPOLYLINE
  5
62D
330
6D7
100
AcDbEntity
  8
DIM
  6
Continuous
 62
     7
370
    13
100
AcDbPolyline
 90
       63
 70
   128
 43
0.0
 10
-0.013031
 20
0.001886
 10
0.0
 20
0.0
 10
-0.013021
 20
-0.001886
 10
-0.012615
 20
-0.001573
 10
-0.012042
 20
-0.00101
 10
-0.011761
 20
-0.00049
 10
-0.011687
 20
0.0
 10
-0.011792
 20
0.000552
 10
-0.012094
 20
0.001094
 10
-0.012677
 20
0.001625
 10
-0.013031
 20
0.001886
 10
-0.000385
 20
0.000021
 10
-0.012605
 20
-0.00176
 10
-0.012229
 20
-0.001479
 10
-0.011625
 20
-0.000906
 10
-0.011427
 20
-0.000167
 10
-0.011562
 20
0.000573
 10
-0.011917
 20
0.001083
 10
-0.012344
 20
0.0015
 10
-0.012635
 20
0.001729
 10
-0.001073
 20
0.000021
 10
-0.012052
 20
-0.001553
 10
-0.011667
 20
-0.001302
 10
-0.011469
 20
-0.000979
 10
-0.01125
 20
-0.000562
 10
-0.011135
 20
0.000021
 10
-0.011198
 20
0.0005
 10
-0.011427
 20
0.000875
 10
-0.011896
 20
0.001177
 10
-0.012208
 20
0.001541
 10
-0.001875
 20
0.000021
 10
-0.011448
 20
-0.001323
 10
-0.011021
 20
-0.000792
 10
-0.010896
 20
-0.000146
 10
-0.010959
 20
0.000573
 10
-0.011782
 20
0.001354
 10
-0.002771
 20
0.000063
 10
-0.010896
 20
-0.001073
 10
-0.010781
 20
-0.000698
 10
-0.010531
 20
-0.000094
 10
-0.010687
 20
0.000552
 10
-0.011334
 20
0.001125
 10
-0.003594
 20
0.000062
 10
-0.010604
 20
-0.000833
 10
-0.010375
 20
-0.000375
 10
-0.010271
 20
0.000114
 10
-0.01076
 20
0.000875
 10
-0.004573
 20
0.000063
 10
-0.010177
 20
-0.000625
 10
-0.010021
 20
-0.000282
 10
-0.009979
 20
0.000115
 10
-0.010375
 20
0.000666
 10
-0.00574
 20
0.000063
 10
-0.009823
 20
-0.000396
 10
-0.009708
 20
0.000136
 10
-0.010083
 20
0.000458
 10
-0.006698
 20
0.000062
 10
-0.009552
 20
-0.00024
 10
-0.009615
 20
0.000271
 10
-0.007677
 20
0.000062
 10
-0.009437
 20
-0.000073
 10
-0.00949
 20
0.000083
 10
-0.008885
 20
0.000084
  0
ENDBLK
  5
6D9
330
6D7
100
AcDbEntity
  8
0
100
AcDbBlockEnd
  0
ENDSEC
  0
SECTION
  2
ENTITIES
  0
LINE
  5
5B
330
6B4
100
AcDbEntity
  8
_0
  6
Continuous
 62
     7
370
    30
100
AcDbLine
 10
8.25
 20
10.875
 30
0.0
 11
8.456542
 21
10.875
 31
0.0
  0
LINE
  5
5C
330
6B4
100
AcDbEntity
  8
_0
  6
Continuous
 62
     7
370
    30
100
AcDbLine
 10
8.25
 20
10.875
 30
0.0
 11
8.25
 21
11.081542
 31
0.0
  0
LINE
  5
5D
330
6B4
100
AcDbEntity
  8
_0
  6
Continuous
 62
     7
370
    30
100
AcDbLine
 10
0.25
 20
10.875
 30
0.0
 11
0.25
 21
11.081542
 31
0.0
  0
LINE
  5
5E
330
6B4
100
AcDbEntity
  8
_0
  6
Continuous
 62
     7
370
    30
100
AcDbLine
 10
8.25
 20
0.125
 30
0.0
 11
8.456542
 21
0.125
 31
0.0
  0
LINE
  5
5F
330
6B4
100
AcDbEntity
  8
_0
  6
Continuous
 62
     7
370
    30
100
AcDbLine
 10
0.043458
 20
10.875
 30
0.0
 11
0.25
 21
10.875
 31
0.0
  0
LINE
  5
60
330
6B4
100
AcDbEntity
  8
_0
  6
Continuous
 62
     7
370
    30
100
AcDbLine
 10
0.043458
 20
0.125
 30
0.0
 11
0.25
 21
0.125
 31
0.0
  0
LINE
  5
61
330
6B4
100
AcDbEntity
  8
_0
  6
Continuous
 62
     7
370
    30
100
AcDbLine
 10
8.25
 20
-0.081542
 30
0.0
 11
8.25
 21
0.125
 31
0.0
  0
LINE
  5
62
330
6B4
100
AcDbEntity
  8
_0
  6
Continuous
 62
     7
370
    30
100
AcDbLine
 10
0.25
 20
-0.081542
 30
0.0
 11
0.25
 21
0.125
 31
0.0
  0
POINT
  5
63
330
6B4
100
AcDbEntity
  8
_0
  6
Continuous
 62
     7
370
    30
100
AcDbPoint
 10
0.625
 20
0.913094
 30
0.0
  0
POINT
  5
64
330
6B4
100
AcDbEntity
  8
_0
  6
Continuous
 62
     7
370
    30
100
AcDbPoint
 10
0.625
 20
0.913094
 30
0.0
  0
CIRCLE
  5
9E
330
6B4
100
AcDbEntity
  8
_0
  6
Continuous
 62
     7
370
    30
100
AcDbCircle
 10
4.052474
 20
9.02717
 30
0.0
 40
0.3563108027375412
  0
LWPOLYLINE
  5
9F
330
6B4
100
AcDbEntity
  8
_0
  6
Continuous
 62
     7
370
    13
100
AcDbPolyline
 90
        8
 70
   128
 43
0.0
 10
6.559355
 20
9.077043
 10
6.559355
 20
8.172834
 10
6.621626
 20
8.111814
 10
6.41673
 20
8.075199
 10
6.677511
 20
8.075199
 10
6.509865
 20
8.026376
 10
6.559355
 20
7.965355
 10
6.559355
 20
7.077043
  0
LWPOLYLINE
  5
A0
330
6B4
100
AcDbEntity
  8
_0
  6
Continuous
 62
     7
370
    13
100
AcDbPolyline
 90
        8
 70
   128
 43
0.0
 10
1.559355
 20
9.077043
 10
1.559355
 20
8.172834
 10
1.621626
 20
8.111814
 10
1.41673
 20
8.075199
 10
1.677511
 20
8.075199
 10
1.509865
 20
8.026376
 10
1.559355
 20
7.965355
 10
1.559355
 20
7.077043
  0
LWPOLYLINE
  5
A3
330
6B4
100
AcDbEntity
  8
_0
  6
Continuous
 62
     7
370
    30
100
AcDbPolyline
 90
       11
 70
   128
 43
0.0
 10
4.049751
 20
7.977043
 10
4.05649
 20
7.948761
 10
4.070938
 20
7.809928
 10
4.042042
 20
7.746824
 10
4.027594
 20
7.576439
 10
4.070938
 20
7.532261
 10
4.080573
 20
7.418668
 10
4.046865
 20
7.330324
 10
4.075751
 20
7.248282
 10
4.046865
 20
7.122074
 10
4.066501
 20
7.077043
  0
LWPOLYLINE
  5
A4
330
6B4
100
AcDbEntity
  8
_0
  6
Continuous
 62
     7
370
    30
100
AcDbPolyline
 90
        8
 70
   128
 43
0.0
 10
4.059355
 20
8.556564
 10
4.075751
 20
8.497782
 10
4.05649
 20
8.453605
 10
4.042042
 20
8.396814
 10
4.032417
 20
8.333709
 10
4.066126
 20
8.295845
 10
4.042042
 20
8.201189
 10
4.025928
 20
8.177043
  0
LINE
  5
A6
330
6B4
100
AcDbEntity
  8
2-5B
  6
Continuous
 62
     7
370
    30
100
AcDbLine
 10
4.034355
 20
8.577043
 30
0.0
 11
4.034355
 21
8.556564
 31
0.0
  0
LINE
  5
A7
330
6B4
100
AcDbEntity
  8
2-5B
  6
Continuous
 62
     7
370
    30
100
AcDbLine
 10
4.084355
 20
8.577043
 30
0.0
 11
4.084355
 21
8.556564
 31
0.0
  0
LINE
  5
A8
330
6B4
100
AcDbEntity
  8
2-5B
  6
Continuous
 62
     7
370
    30
100
AcDbLine
 10
4.034355
 20
8.556564
 30
0.0
 11
4.084355
 21
8.556564
 31
0.0
  0
LINE
  5
A9
330
6B4
100
AcDbEntity
  8
_0
  6
Continuous
 62
     7
370
    30
100
AcDbLine
 10
4.159355
 20
9.077043
 30
0.0
 11
6.559355
 21
9.077043
 31
0.0
  0
LINE
  5
AA
330
6B4
100
AcDbEntity
  8
_0
  6
Continuous
 62
     7
370
    30
100
AcDbLine
 10
3.959355
 20
9.047782
 30
0.0
 11
4.159355
 21
9.047782
 31
0.0
  0
LINE
  5
AB
330
6B4
100
AcDbEntity
  8
2-5B
  6
Continuous
 62
     7
370
    30
100
AcDbLine
 10
3.959355
 20
8.577043
 30
0.0
 11
4.159355
 21
8.577043
 31
0.0
  0
LINE
  5
AC
330
6B4
100
AcDbEntity
  8
_0
  6
Continuous
 62
     7
370
    30
100
AcDbLine
 10
3.959355
 20
9.077043
 30
0.0
 11
3.959355
 21
8.577043
 31
0.0
  0
LINE
  5
AD
330
6B4
100
AcDbEntity
  8
_0
  6
Continuous
 62
     7
370
    30
100
AcDbLine
 10
4.159355
 20
9.077043
 30
0.0
 11
4.159355
 21
8.577043
 31
0.0
  0
LINE
  5
AE
330
6B4
100
AcDbEntity
  8
DIM
  6
Continuous
 62
     7
370
    13
100
AcDbLine
 10
3.941719
 20
8.077043
 30
0.0
 11
2.592761
 21
8.077043
 31
0.0
  0
LINE
  5
AF
330
6B4
100
AcDbEntity
  8
_0
  6
Continuous
 62
     7
370
    30
100
AcDbLine
 10
3.059355
 20
7.977043
 30
0.0
 11
3.059355
 21
8.177043
 31
0.0
  0
LINE
  5
B0
330
6B4
100
AcDbEntity
  8
_0
  6
Continuous
 62
     7
370
    30
100
AcDbLine
 10
5.059355
 20
7.977043
 30
0.0
 11
5.059355
 21
8.177043
 31
0.0
  0
LINE
  5
B1
330
6B4
100
AcDbEntity
  8
NOTES
  6
Continuous
 62
     7
370
    30
100
AcDbLine
 10
1.559355
 20
4.356605
 30
0.0
 11
6.559355
 21
4.356605
 31
0.0
  0
LINE
  5
B2
330
6B4
100
AcDbEntity
  8
NOTES
  6
Continuous
 62
     7
370
    30
100
AcDbLine
 10
1.559355
 20
5.056605
 30
0.0
 11
6.559355
 21
5.056605
 31
0.0
  0
LINE
  5
B3
330
6B4
100
AcDbEntity
  8
NOTES
  6
Continuous
 62
     7
370
    30
100
AcDbLine
 10
1.559355
 20
5.556605
 30
0.0
 11
6.559355
 21
5.556605
 31
0.0
  0
LINE
  5
B4
330
6B4
100
AcDbEntity
  8
NOTES
  6
Continuous
 62
     7
370
    30
100
AcDbLine
 10
1.559355
 20
6.477043
 30
0.0
 11
6.559355
 21
6.477043
 31
0.0
  0
LINE
  5
B5
330
6B4
100
AcDbEntity
  8
NOTES
  6
Continuous
 62
     7
370
    30
100
AcDbLine
 10
1.559355
 20
6.777043
 30
0.0
 11
6.559355
 21
6.777043
 31
0.0
  0
LINE
  5
B6
330
6B4
100
AcDbEntity
  8
_0
  6
Continuous
 62
     7
370
    30
100
AcDbLine
 10
1.559355
 20
7.077043
 30
0.0
 11
6.559355
 21
7.077043
 31
0.0
  0
LINE
  5
B7
330
6B4
100
AcDbEntity
  8
_0
  6
Continuous
 62
     7
370
    30
100
AcDbLine
 10
3.059355
 20
7.977043
 30
0.0
 11
5.059355
 21
7.977043
 31
0.0
  0
LINE
  5
B8
330
6B4
100
AcDbEntity
  8
_0
  6
Continuous
 62
     7
370
    30
100
AcDbLine
 10
3.059355
 20
8.177043
 30
0.0
 11
5.059355
 21
8.177043
 31
0.0
  0
LINE
  5
B9
330
6B4
100
AcDbEntity
  8
_0
  6
Continuous
 62
     7
370
    30
100
AcDbLine
 10
1.559355
 20
9.077043
 30
0.0
 11
3.959355
 21
9.077043
 31
0.0
  0
LINE
  5
C0
330
6B4
100
AcDbEntity
  8
BORDER
  6
Continuous
 62
     7
370
    30
100
AcDbLine
 10
5.675
 20
0.913094
 30
0.0
 11
5.675
 21
1.413094
 31
0.0
  0
LINE
  5
C1
330
6B4
100
AcDbEntity
  8
BORDER
  6
Continuous
 62
     7
370
    30
100
AcDbLine
 10
6.775
 20
0.913094
 30
0.0
 11
6.775
 21
1.413094
 31
0.0
  0
LINE
  5
C2
330
6B4
100
AcDbEntity
  8
BORDER
  6
Continuous
 62
     7
370
    30
100
AcDbLine
 10
0.625
 20
1.413094
 30
0.0
 11
7.875
 21
1.413094
 31
0.0
  0
LINE
  5
C3
330
6B4
100
AcDbEntity
  8
BORDER
  6
Continuous
 62
     7
370
    30
100
AcDbLine
 10
7.875
 20
0.913094
 30
0.0
 11
7.875
 21
10.013094
 31
0.0
  0
LINE
  5
C4
330
6B4
100
AcDbEntity
  8
BORDER
  6
Continuous
 62
     7
370
    30
100
AcDbLine
 10
0.625
 20
0.913094
 30
0.0
 11
7.875
 21
0.913094
 31
0.0
  0
LINE
  5
C5
330
6B4
100
AcDbEntity
  8
BORDER
  6
Continuous
 62
     7
370
    30
100
AcDbLine
 10
0.625
 20
0.913094
 30
0.0
 11
0.625
 21
10.013094
 31
0.0
  0
LINE
  5
C6
330
6B4
100
AcDbEntity
  8
BORDER
  6
Continuous
 62
     7
370
    30
100
AcDbLine
 10
0.625
 20
10.013094
 30
0.0
 11
7.875
 21
10.013094
 31
0.0
  0
POINT
  5
C7
330
6B4
100
AcDbEntity
  8
HATCH
  6
Continuous
 62
     7
370
    30
100
AcDbPoint
 10
1.57498
 20
8.633293
 30
0.0
  0
POINT
  5
C8
330
6B4
100
AcDbEntity
  8
HATCH
  6
Continuous
 62
     7
370
    30
100
AcDbPoint
 10
1.60623
 20
8.633293
 30
0.0
  0
POINT
  5
C9
330
6B4
100
AcDbEntity
  8
HATCH
  6
Continuous
 62
     7
370
    30
100
AcDbPoint
 10
1.63748
 20
8.633293
 30
0.0
  0
POINT
  5
CA
330
6B4
100
AcDbEntity
  8
HATCH
  6
Continuous
 62
     7
370
    30
100
AcDbPoint
 10
1.66873
 20
8.633293
 30
0.0
  0
POINT
  5
CB
330
6B4
100
AcDbEntity
  8
HATCH
  6
Continuous
 62
     7
370
    30
100
AcDbPoint
 10
1.69998
 20
8.633293
 30
0.0
  0
POINT
  5
CC
330
6B4
100
AcDbEntity
  8
HATCH
  6
Continuous
 62
     7
370
    30
100
AcDbPoint
 10
1.73123
 20
8.633293
 30
0.0
  0
POINT
  5
CD
330
6B4
100
AcDbEntity
  8
HATCH
  6
Continuous
 62
     7
370
    30
100
AcDbPoint
 10
1.76248
 20
8.633293
 30
0.0
  0
POINT
  5
CE
330
6B4
100
AcDbEntity
  8
HATCH
  6
Continuous
 62
     7
370
    30
100
AcDbPoint
 10
1.79373
 20
8.633293
 30
0.0
  0
POINT
  5
CF
330
6B4
100
AcDbEntity
  8
HATCH
  6
Continuous
 62
     7
370
    30
100
AcDbPoint
 10
1.82498
 20
8.633293
 30
0.0
  0
POINT
  5
D0
330
6B4
100
AcDbEntity
  8
HATCH
  6
Continuous
 62
     7
370
    30
100
AcDbPoint
 10
1.85623
 20
8.633293
 30
0.0
  0
POINT
  5
D1
330
6B4
100
AcDbEntity
  8
HATCH
  6
Continuous
 62
     7
370
    30
100
AcDbPoint
 10
1.88748
 20
8.633293
 30
0.0
  0
POINT
  5
D2
330
6B4
100
AcDbEntity
  8
HATCH
  6
Continuous
 62
     7
370
    30
100
AcDbPoint
 10
1.91873
 20
8.633293
 30
0.0
  0
POINT
  5
D3
330
6B4
100
AcDbEntity
  8
HATCH
  6
Continuous
 62
     7
370
    30
100
AcDbPoint
 10
1.94998
 20
8.633293
 30
0.0
  0
POINT
  5
D4
330
6B4
100
AcDbEntity
  8
HATCH
  6
Continuous
 62
     7
370
    30
100
AcDbPoint
 10
1.98123
 20
8.633293
 30
0.0
  0
POINT
  5
D5
330
6B4
100
AcDbEntity
  8
HATCH
  6
Continuous
 62
     7
370
    30
100
AcDbPoint
 10
2.01248
 20
8.633293
 30
0.0
  0
POINT
  5
D6
330
6B4
100
AcDbEntity
  8
HATCH
  6
Continuous
 62
     7
370
    30
100
AcDbPoint
 10
2.04373
 20
8.633293
 30
0.0
  0
POINT
  5
D7
330
6B4
100
AcDbEntity
  8
HATCH
  6
Continuous
 62
     7
370
    30
100
AcDbPoint
 10
2.07498
 20
8.633293
 30
0.0
  0
POINT
  5
D8
330
6B4
100
AcDbEntity
  8
HATCH
  6
Continuous
 62
     7
370
    30
100
AcDbPoint
 10
2.10623
 20
8.633293
 30
0.0
  0
POINT
  5
D9
330
6B4
100
AcDbEntity
  8
HATCH
  6
Continuous
 62
     7
370
    30
100
AcDbPoint
 10
2.13748
 20
8.633293
 30
0.0
  0
POINT
  5
DA
330
6B4
100
AcDbEntity
  8
HATCH
  6
Continuous
 62
     7
370
    30
100
AcDbPoint
 10
2.16873
 20
8.633293
 30
0.0
  0
POINT
  5
DB
330
6B4
100
AcDbEntity
  8
HATCH
  6
Continuous
 62
     7
370
    30
100
AcDbPoint
 10
2.19998
 20
8.633293
 30
0.0
  0
POINT
  5
DC
330
6B4
100
AcDbEntity
  8
HATCH
  6
Continuous
 62
     7
370
    30
100
AcDbPoint
 10
2.23123
 20
8.633293
 30
0.0
  0
POINT
  5
DD
330
6B4
100
AcDbEntity
  8
HATCH
  6
Continuous
 62
     7
370
    30
100
AcDbPoint
 10
1.590605
 20
8.664543
 30
0.0
  0
POINT
  5
DE
330
6B4
100
AcDbEntity
  8
HATCH
  6
Continuous
 62
     7
370
    30
100
AcDbPoint
 10
1.621855
 20
8.664543
 30
0.0
  0
POINT
  5
DF
330
6B4
100
AcDbEntity
  8
HATCH
  6
Continuous
 62
     7
370
    30
100
AcDbPoint
 10
1.653105
 20
8.664543
 30
0.0
  0
POINT
  5
E0
330
6B4
100
AcDbEntity
  8
HATCH
  6
Continuous
 62
     7
370
    30
100
AcDbPoint
 10
1.684355
 20
8.664543
 30
0.0
  0
POINT
  5
E1
330
6B4
100
AcDbEntity
  8
HATCH
  6
Continuous
 62
     7
370
    30
100
AcDbPoint
 10
1.715605
 20
8.664543
 30
0.0
  0
POINT
  5
E2
330
6B4
100
AcDbEntity
  8
HATCH
  6
Continuous
 62
     7
370
    30
100
AcDbPoint
 10
1.746855
 20
8.664543
 30
0.0
  0
POINT
  5
E3
330
6B4
100
AcDbEntity
  8
HATCH
  6
Continuous
 62
     7
370
    30
100
AcDbPoint
 10
1.778105
 20
8.664543
 30
0.0
  0
POINT
  5
E4
330
6B4
100
AcDbEntity
  8
HATCH
  6
Continuous
 62
     7
370
    30
100
AcDbPoint
 10
1.809355
 20
8.664543
 30
0.0
  0
POINT
  5
E5
330
6B4
100
AcDbEntity
  8
HATCH
  6
Continuous
 62
     7
370
    30
100
AcDbPoint
 10
1.840605
 20
8.664543
 30
0.0
  0
POINT
  5
E6
330
6B4
100
AcDbEntity
  8
HATCH
  6
Continuous
 62
     7
370
    30
100
AcDbPoint
 10
1.871855
 20
8.664543
 30
0.0
  0
POINT
  5
E7
330
6B4
100
AcDbEntity
  8
HATCH
  6
Continuous
 62
     7
370
    30
100
AcDbPoint
 10
1.903105
 20
8.664543
 30
0.0
  0
POINT
  5
E8
330
6B4
100
AcDbEntity
  8
HATCH
  6
Continuous
 62
     7
370
    30
100
AcDbPoint
 10
1.934355
 20
8.664543
 30
0.0
  0
POINT
  5
E9
330
6B4
100
AcDbEntity
  8
HATCH
  6
Continuous
 62
     7
370
    30
100
AcDbPoint
 10
1.965605
 20
8.664543
 30
0.0
  0
POINT
  5
EA
330
6B4
100
AcDbEntity
  8
HATCH
  6
Continuous
 62
     7
370
    30
100
AcDbPoint
 10
1.996855
 20
8.664543
 30
0.0
  0
POINT
  5
EB
330
6B4
100
AcDbEntity
  8
HATCH
  6
Continuous
 62
     7
370
    30
100
AcDbPoint
 10
2.028105
 20
8.664543
 30
0.0
  0
POINT
  5
EC
330
6B4
100
AcDbEntity
  8
HATCH
  6
Continuous
 62
     7
370
    30
100
AcDbPoint
 10
2.059355
 20
8.664543
 30
0.0
  0
POINT
  5
ED
330
6B4
100
AcDbEntity
  8
HATCH
  6
Continuous
 62
     7
370
    30
100
AcDbPoint
 10
2.090605
 20
8.664543
 30
0.0
  0
POINT
  5
EE
330
6B4
100
AcDbEntity
  8
HATCH
  6
Continuous
 62
     7
370
    30
100
AcDbPoint
 10
2.121855
 20
8.664543
 30
0.0
  0
POINT
  5
EF
330
6B4
100
AcDbEntity
  8
HATCH
  6
Continuous
 62
     7
370
    30
100
AcDbPoint
 10
2.153105
 20
8.664543
 30
0.0
  0
POINT
  5
F0
330
6B4
100
AcDbEntity
  8
HATCH
  6
Continuous
 62
     7
370
    30
100
AcDbPoint
 10
2.184355
 20
8.664543
 30
0.0
  0
POINT
  5
F1
330
6B4
100
AcDbEntity
  8
HATCH
  6
Continuous
 62
     7
370
    30
100
AcDbPoint
 10
2.215605
 20
8.664543
 30
0.0
  0
POINT
  5
F2
330
6B4
100
AcDbEntity
  8
HATCH
  6
Continuous
 62
     7
370
    30
100
AcDbPoint
 10
2.246855
 20
8.664543
 30
0.0
  0
POINT
  5
F3
330
6B4
100
AcDbEntity
  8
HATCH
  6
Continuous
 62
     7
370
    30
100
AcDbPoint
 10
1.57498
 20
8.695793
 30
0.0
  0
POINT
  5
F4
330
6B4
100
AcDbEntity
  8
HATCH
  6
Continuous
 62
     7
370
    30
100
AcDbPoint
 10
1.60623
 20
8.695793
 30
0.0
  0
POINT
  5
F5
330
6B4
100
AcDbEntity
  8
HATCH
  6
Continuous
 62
     7
370
    30
100
AcDbPoint
 10
1.63748
 20
8.695793
 30
0.0
  0
POINT
  5
F6
330
6B4
100
AcDbEntity
  8
HATCH
  6
Continuous
 62
     7
370
    30
100
AcDbPoint
 10
1.66873
 20
8.695793
 30
0.0
  0
POINT
  5
F7
330
6B4
100
AcDbEntity
  8
HATCH
  6
Continuous
 62
     7
370
    30
100
AcDbPoint
 10
1.69998
 20
8.695793
 30
0.0
  0
POINT
  5
F8
330
6B4
100
AcDbEntity
  8
HATCH
  6
Continuous
 62
     7
370
    30
100
AcDbPoint
 10
1.73123
 20
8.695793
 30
0.0
  0
POINT
  5
F9
330
6B4
100
AcDbEntity
  8
HATCH
  6
Continuous
 62
     7
370
    30
100
AcDbPoint
 10
1.76248
 20
8.695793
 30
0.0
  0
POINT
  5
FA
330
6B4
100
AcDbEntity
  8
HATCH
  6
Continuous
 62
     7
370
    30
100
AcDbPoint
 10
1.79373
 20
8.695793
 30
0.0
  0
POINT
  5
FB
330
6B4
100
AcDbEntity
  8
HATCH
  6
Continuous
 62
     7
370
    30
100
AcDbPoint
 10
1.82498
 20
8.695793
 30
0.0
  0
POINT
  5
FC
330
6B4
100
AcDbEntity
  8
HATCH
  6
Continuous
 62
     7
370
    30
100
AcDbPoint
 10
1.85623
 20
8.695793
 30
0.0
  0
POINT
  5
FD
330
6B4
100
AcDbEntity
  8
HATCH
  6
Continuous
 62
     7
370
    30
100
AcDbPoint
 10
1.88748
 20
8.695793
 30
0.0
  0
POINT
  5
FE
330
6B4
100
AcDbEntity
  8
HATCH
  6
Continuous
 62
     7
370
    30
100
AcDbPoint
 10
1.91873
 20
8.695793
 30
0.0
  0
POINT
  5
FF
330
6B4
100
AcDbEntity
  8
HATCH
  6
Continuous
 62
     7
370
    30
100
AcDbPoint
 10
1.94998
 20
8.695793
 30
0.0
  0
POINT
  5
100
330
6B4
100
AcDbEntity
  8
HATCH
  6
Continuous
 62
     7
370
    30
100
AcDbPoint
 10
1.98123
 20
8.695793
 30
0.0
  0
POINT
  5
101
330
6B4
100
AcDbEntity
  8
HATCH
  6
Continuous
 62
     7
370
    30
100
AcDbPoint
 10
2.01248
 20
8.695793
 30
0.0
  0
POINT
  5
102
330
6B4
100
AcDbEntity
  8
HATCH
  6
Continuous
 62
     7
370
    30
100
AcDbPoint
 10
2.04373
 20
8.695793
 30
0.0
  0
POINT
  5
103
330
6B4
100
AcDbEntity
  8
HATCH
  6
Continuous
 62
     7
370
    30
100
AcDbPoint
 10
2.07498
 20
8.695793
 30
0.0
  0
POINT
  5
104
330
6B4
100
AcDbEntity
  8
HATCH
  6
Continuous
 62
     7
370
    30
100
AcDbPoint
 10
2.10623
 20
8.695793
 30
0.0
  0
POINT
  5
105
330
6B4
100
AcDbEntity
  8
HATCH
  6
Continuous
 62
     7
370
    30
100
AcDbPoint
 10
2.13748
 20
8.695793
 30
0.0
  0
POINT
  5
106
330
6B4
100
AcDbEntity
  8
HATCH
  6
Continuous
 62
     7
370
    30
100
AcDbPoint
 10
2.16873
 20
8.695793
 30
0.0
  0
POINT
  5
107
330
6B4
100
AcDbEntity
  8
HATCH
  6
Continuous
 62
     7
370
    30
100
AcDbPoint
 10
2.19998
 20
8.695793
 30
0.0
  0
POINT
  5
108
330
6B4
100
AcDbEntity
  8
HATCH
  6
Continuous
 62
     7
370
    30
100
AcDbPoint
 10
2.23123
 20
8.695793
 30
0.0
  0
POINT
  5
109
330
6B4
100
AcDbEntity
  8
HATCH
  6
Continuous
 62
     7
370
    30
100
AcDbPoint
 10
2.26248
 20
8.695793
 30
0.0
  0
POINT
  5
10A
330
6B4
100
AcDbEntity
  8
HATCH
  6
Continuous
 62
     7
370
    30
100
AcDbPoint
 10
1.590605
 20
8.727043
 30
0.0
  0
POINT
  5
10B
330
6B4
100
AcDbEntity
  8
HATCH
  6
Continuous
 62
     7
370
    30
100
AcDbPoint
 10
1.621855
 20
8.727043
 30
0.0
  0
POINT
  5
10C
330
6B4
100
AcDbEntity
  8
HATCH
  6
Continuous
 62
     7
370
    30
100
AcDbPoint
 10
1.653105
 20
8.727043
 30
0.0
  0
POINT
  5
10D
330
6B4
100
AcDbEntity
  8
HATCH
  6
Continuous
 62
     7
370
    30
100
AcDbPoint
 10
1.684355
 20
8.727043
 30
0.0
  0
POINT
  5
10E
330
6B4
100
AcDbEntity
  8
HATCH
  6
Continuous
 62
     7
370
    30
100
AcDbPoint
 10
1.715605
 20
8.727043
 30
0.0
  0
POINT
  5
10F
330
6B4
100
AcDbEntity
  8
HATCH
  6
Continuous
 62
     7
370
    30
100
AcDbPoint
 10
1.746855
 20
8.727043
 30
0.0
  0
POINT
  5
110
330
6B4
100
AcDbEntity
  8
HATCH
  6
Continuous
 62
     7
370
    30
100
AcDbPoint
 10
1.778105
 20
8.727043
 30
0.0
  0
POINT
  5
111
330
6B4
100
AcDbEntity
  8
HATCH
  6
Continuous
 62
     7
370
    30
100
AcDbPoint
 10
1.809355
 20
8.727043
 30
0.0
  0
POINT
  5
112
330
6B4
100
AcDbEntity
  8
HATCH
  6
Continuous
 62
     7
370
    30
100
AcDbPoint
 10
1.840605
 20
8.727043
 30
0.0
  0
POINT
  5
113
330
6B4
100
AcDbEntity
  8
HATCH
  6
Continuous
 62
     7
370
    30
100
AcDbPoint
 10
1.871855
 20
8.727043
 30
0.0
  0
POINT
  5
114
330
6B4
100
AcDbEntity
  8
HATCH
  6
Continuous
 62
     7
370
    30
100
AcDbPoint
 10
1.903105
 20
8.727043
 30
0.0
  0
POINT
  5
115
330
6B4
100
AcDbEntity
  8
HATCH
  6
Continuous
 62
     7
370
    30
100
AcDbPoint
 10
1.934355
 20
8.727043
 30
0.0
  0
POINT
  5
116
330
6B4
100
AcDbEntity
  8
HATCH
  6
Continuous
 62
     7
370
    30
100
AcDbPoint
 10
1.965605
 20
8.727043
 30
0.0
  0
POINT
  5
117
330
6B4
100
AcDbEntity
  8
HATCH
  6
Continuous
 62
     7
370
    30
100
AcDbPoint
 10
1.996855
 20
8.727043
 30
0.0
  0
POINT
  5
118
330
6B4
100
AcDbEntity
  8
HATCH
  6
Continuous
 62
     7
370
    30
100
AcDbPoint
 10
2.028105
 20
8.727043
 30
0.0
  0
POINT
  5
119
330
6B4
100
AcDbEntity
  8
HATCH
  6
Continuous
 62
     7
370
    30
100
AcDbPoint
 10
2.059355
 20
8.727043
 30
0.0
  0
POINT
  5
11A
330
6B4
100
AcDbEntity
  8
HATCH
  6
Continuous
 62
     7
370
    30
100
AcDbPoint
 10
2.090605
 20
8.727043
 30
0.0
  0
POINT
  5
11B
330
6B4
100
AcDbEntity
  8
HATCH
  6
Continuous
 62
     7
370
    30
100
AcDbPoint
 10
2.121855
 20
8.727043
 30
0.0
  0
POINT
  5
11C
330
6B4
100
AcDbEntity
  8
HATCH
  6
Continuous
 62
     7
370
    30
100
AcDbPoint
 10
2.153105
 20
8.727043
 30
0.0
  0
POINT
  5
11D
330
6B4
100
AcDbEntity
  8
HATCH
  6
Continuous
 62
     7
370
    30
100
AcDbPoint
 10
2.184355
 20
8.727043
 30
0.0
  0
POINT
  5
11E
330
6B4
100
AcDbEntity
  8
HATCH
  6
Continuous
 62
     7
370
    30
100
AcDbPoint
 10
2.215605
 20
8.727043
 30
0.0
  0
POINT
  5
11F
330
6B4
100
AcDbEntity
  8
HATCH
  6
Continuous
 62
     7
370
    30
100
AcDbPoint
 10
2.246855
 20
8.727043
 30
0.0
  0
POINT
  5
120
330
6B4
100
AcDbEntity
  8
HATCH
  6
Continuous
 62
     7
370
    30
100
AcDbPoint
 10
1.57498
 20
8.758293
 30
0.0
  0
POINT
  5
121
330
6B4
100
AcDbEntity
  8
HATCH
  6
Continuous
 62
     7
370
    30
100
AcDbPoint
 10
1.60623
 20
8.758293
 30
0.0
  0
POINT
  5
122
330
6B4
100
AcDbEntity
  8
HATCH
  6
Continuous
 62
     7
370
    30
100
AcDbPoint
 10
1.63748
 20
8.758293
 30
0.0
  0
POINT
  5
123
330
6B4
100
AcDbEntity
  8
HATCH
  6
Continuous
 62
     7
370
    30
100
AcDbPoint
 10
1.66873
 20
8.758293
 30
0.0
  0
POINT
  5
124
330
6B4
100
AcDbEntity
  8
HATCH
  6
Continuous
 62
     7
370
    30
100
AcDbPoint
 10
1.69998
 20
8.758293
 30
0.0
  0
POINT
  5
125
330
6B4
100
AcDbEntity
  8
HATCH
  6
Continuous
 62
     7
370
    30
100
AcDbPoint
 10
1.73123
 20
8.758293
 30
0.0
  0
POINT
  5
126
330
6B4
100
AcDbEntity
  8
HATCH
  6
Continuous
 62
     7
370
    30
100
AcDbPoint
 10
1.76248
 20
8.758293
 30
0.0
  0
POINT
  5
127
330
6B4
100
AcDbEntity
  8
HATCH
  6
Continuous
 62
     7
370
    30
100
AcDbPoint
 10
1.79373
 20
8.758293
 30
0.0
  0
POINT
  5
128
330
6B4
100
AcDbEntity
  8
HATCH
  6
Continuous
 62
     7
370
    30
100
AcDbPoint
 10
1.82498
 20
8.758293
 30
0.0
  0
POINT
  5
129
330
6B4
100
AcDbEntity
  8
HATCH
  6
Continuous
 62
     7
370
    30
100
AcDbPoint
 10
1.85623
 20
8.758293
 30
0.0
  0
POINT
  5
12A
330
6B4
100
AcDbEntity
  8
HATCH
  6
Continuous
 62
     7
370
    30
100
AcDbPoint
 10
1.88748
 20
8.758293
 30
0.0
  0
POINT
  5
12B
330
6B4
100
AcDbEntity
  8
HATCH
  6
Continuous
 62
     7
370
    30
100
AcDbPoint
 10
1.91873
 20
8.758293
 30
0.0
  0
POINT
  5
12C
330
6B4
100
AcDbEntity
  8
HATCH
  6
Continuous
 62
     7
370
    30
100
AcDbPoint
 10
1.94998
 20
8.758293
 30
0.0
  0
POINT
  5
12D
330
6B4
100
AcDbEntity
  8
HATCH
  6
Continuous
 62
     7
370
    30
100
AcDbPoint
 10
1.98123
 20
8.758293
 30
0.0
  0
POINT
  5
12E
330
6B4
100
AcDbEntity
  8
HATCH
  6
Continuous
 62
     7
370
    30
100
AcDbPoint
 10
2.01248
 20
8.758293
 30
0.0
  0
POINT
  5
12F
330
6B4
100
AcDbEntity
  8
HATCH
  6
Continuous
 62
     7
370
    30
100
AcDbPoint
 10
2.04373
 20
8.758293
 30
0.0
  0
POINT
  5
130
330
6B4
100
AcDbEntity
  8
HATCH
  6
Continuous
 62
     7
370
    30
100
AcDbPoint
 10
2.07498
 20
8.758293
 30
0.0
  0
POINT
  5
131
330
6B4
100
AcDbEntity
  8
HATCH
  6
Continuous
 62
     7
370
    30
100
AcDbPoint
 10
2.10623
 20
8.758293
 30
0.0
  0
POINT
  5
132
330
6B4
100
AcDbEntity
  8
HATCH
  6
Continuous
 62
     7
370
    30
100
AcDbPoint
 10
2.13748
 20
8.758293
 30
0.0
  0
POINT
  5
133
330
6B4
100
AcDbEntity
  8
HATCH
  6
Continuous
 62
     7
370
    30
100
AcDbPoint
 10
2.16873
 20
8.758293
 30
0.0
  0
POINT
  5
134
330
6B4
100
AcDbEntity
  8
HATCH
  6
Continuous
 62
     7
370
    30
100
AcDbPoint
 10
2.19998
 20
8.758293
 30
0.0
  0
POINT
  5
135
330
6B4
100
AcDbEntity
  8
HATCH
  6
Continuous
 62
     7
370
    30
100
AcDbPoint
 10
2.23123
 20
8.758293
 30
0.0
  0
POINT
  5
136
330
6B4
100
AcDbEntity
  8
HATCH
  6
Continuous
 62
     7
370
    30
100
AcDbPoint
 10
2.26248
 20
8.758293
 30
0.0
  0
POINT
  5
137
330
6B4
100
AcDbEntity
  8
HATCH
  6
Continuous
 62
     7
370
    30
100
AcDbPoint
 10
1.590605
 20
8.789543
 30
0.0
  0
POINT
  5
138
330
6B4
100
AcDbEntity
  8
HATCH
  6
Continuous
 62
     7
370
    30
100
AcDbPoint
 10
1.621855
 20
8.789543
 30
0.0
  0
POINT
  5
139
330
6B4
100
AcDbEntity
  8
HATCH
  6
Continuous
 62
     7
370
    30
100
AcDbPoint
 10
1.653105
 20
8.789543
 30
0.0
  0
POINT
  5
13A
330
6B4
100
AcDbEntity
  8
HATCH
  6
Continuous
 62
     7
370
    30
100
AcDbPoint
 10
1.684355
 20
8.789543
 30
0.0
  0
POINT
  5
13B
330
6B4
100
AcDbEntity
  8
HATCH
  6
Continuous
 62
     7
370
    30
100
AcDbPoint
 10
1.715605
 20
8.789543
 30
0.0
  0
POINT
  5
13C
330
6B4
100
AcDbEntity
  8
HATCH
  6
Continuous
 62
     7
370
    30
100
AcDbPoint
 10
1.746855
 20
8.789543
 30
0.0
  0
POINT
  5
13D
330
6B4
100
AcDbEntity
  8
HATCH
  6
Continuous
 62
     7
370
    30
100
AcDbPoint
 10
1.778105
 20
8.789543
 30
0.0
  0
POINT
  5
13E
330
6B4
100
AcDbEntity
  8
HATCH
  6
Continuous
 62
     7
370
    30
100
AcDbPoint
 10
1.809355
 20
8.789543
 30
0.0
  0
POINT
  5
13F
330
6B4
100
AcDbEntity
  8
HATCH
  6
Continuous
 62
     7
370
    30
100
AcDbPoint
 10
1.840605
 20
8.789543
 30
0.0
  0
POINT
  5
140
330
6B4
100
AcDbEntity
  8
HATCH
  6
Continuous
 62
     7
370
    30
100
AcDbPoint
 10
1.871855
 20
8.789543
 30
0.0
  0
POINT
  5
141
330
6B4
100
AcDbEntity
  8
HATCH
  6
Continuous
 62
     7
370
    30
100
AcDbPoint
 10
1.903105
 20
8.789543
 30
0.0
  0
POINT
  5
142
330
6B4
100
AcDbEntity
  8
HATCH
  6
Continuous
 62
     7
370
    30
100
AcDbPoint
 10
1.934355
 20
8.789543
 30
0.0
  0
POINT
  5
143
330
6B4
100
AcDbEntity
  8
HATCH
  6
Continuous
 62
     7
370
    30
100
AcDbPoint
 10
1.965605
 20
8.789543
 30
0.0
  0
POINT
  5
144
330
6B4
100
AcDbEntity
  8
HATCH
  6
Continuous
 62
     7
370
    30
100
AcDbPoint
 10
1.996855
 20
8.789543
 30
0.0
  0
POINT
  5
145
330
6B4
100
AcDbEntity
  8
HATCH
  6
Continuous
 62
     7
370
    30
100
AcDbPoint
 10
2.028105
 20
8.789543
 30
0.0
  0
POINT
  5
146
330
6B4
100
AcDbEntity
  8
HATCH
  6
Continuous
 62
     7
370
    30
100
AcDbPoint
 10
2.059355
 20
8.789543
 30
0.0
  0
POINT
  5
147
330
6B4
100
AcDbEntity
  8
HATCH
  6
Continuous
 62
     7
370
    30
100
AcDbPoint
 10
2.090605
 20
8.789543
 30
0.0
  0
POINT
  5
148
330
6B4
100
AcDbEntity
  8
HATCH
  6
Continuous
 62
     7
370
    30
100
AcDbPoint
 10
2.121855
 20
8.789543
 30
0.0
  0
POINT
  5
149
330
6B4
100
AcDbEntity
  8
HATCH
  6
Continuous
 62
     7
370
    30
100
AcDbPoint
 10
2.153105
 20
8.789543
 30
0.0
  0
POINT
  5
14A
330
6B4
100
AcDbEntity
  8
HATCH
  6
Continuous
 62
     7
370
    30
100
AcDbPoint
 10
2.184355
 20
8.789543
 30
0.0
  0
POINT
  5
14B
330
6B4
100
AcDbEntity
  8
HATCH
  6
Continuous
 62
     7
370
    30
100
AcDbPoint
 10
2.215605
 20
8.789543
 30
0.0
  0
POINT
  5
14C
330
6B4
100
AcDbEntity
  8
HATCH
  6
Continuous
 62
     7
370
    30
100
AcDbPoint
 10
2.246855
 20
8.789543
 30
0.0
  0
POINT
  5
14D
330
6B4
100
AcDbEntity
  8
HATCH
  6
Continuous
 62
     7
370
    30
100
AcDbPoint
 10
2.278105
 20
8.789543
 30
0.0
  0
POINT
  5
14E
330
6B4
100
AcDbEntity
  8
HATCH
  6
Continuous
 62
     7
370
    30
100
AcDbPoint
 10
1.57498
 20
8.820793
 30
0.0
  0
POINT
  5
14F
330
6B4
100
AcDbEntity
  8
HATCH
  6
Continuous
 62
     7
370
    30
100
AcDbPoint
 10
1.60623
 20
8.820793
 30
0.0
  0
POINT
  5
150
330
6B4
100
AcDbEntity
  8
HATCH
  6
Continuous
 62
     7
370
    30
100
AcDbPoint
 10
1.63748
 20
8.820793
 30
0.0
  0
POINT
  5
151
330
6B4
100
AcDbEntity
  8
HATCH
  6
Continuous
 62
     7
370
    30
100
AcDbPoint
 10
1.66873
 20
8.820793
 30
0.0
  0
POINT
  5
152
330
6B4
100
AcDbEntity
  8
HATCH
  6
Continuous
 62
     7
370
    30
100
AcDbPoint
 10
1.69998
 20
8.820793
 30
0.0
  0
POINT
  5
153
330
6B4
100
AcDbEntity
  8
HATCH
  6
Continuous
 62
     7
370
    30
100
AcDbPoint
 10
1.73123
 20
8.820793
 30
0.0
  0
POINT
  5
154
330
6B4
100
AcDbEntity
  8
HATCH
  6
Continuous
 62
     7
370
    30
100
AcDbPoint
 10
1.76248
 20
8.820793
 30
0.0
  0
POINT
  5
155
330
6B4
100
AcDbEntity
  8
HATCH
  6
Continuous
 62
     7
370
    30
100
AcDbPoint
 10
1.79373
 20
8.820793
 30
0.0
  0
POINT
  5
156
330
6B4
100
AcDbEntity
  8
HATCH
  6
Continuous
 62
     7
370
    30
100
AcDbPoint
 10
1.82498
 20
8.820793
 30
0.0
  0
POINT
  5
157
330
6B4
100
AcDbEntity
  8
HATCH
  6
Continuous
 62
     7
370
    30
100
AcDbPoint
 10
1.85623
 20
8.820793
 30
0.0
  0
POINT
  5
158
330
6B4
100
AcDbEntity
  8
HATCH
  6
Continuous
 62
     7
370
    30
100
AcDbPoint
 10
1.88748
 20
8.820793
 30
0.0
  0
POINT
  5
159
330
6B4
100
AcDbEntity
  8
HATCH
  6
Continuous
 62
     7
370
    30
100
AcDbPoint
 10
1.91873
 20
8.820793
 30
0.0
  0
POINT
  5
15A
330
6B4
100
AcDbEntity
  8
HATCH
  6
Continuous
 62
     7
370
    30
100
AcDbPoint
 10
1.94998
 20
8.820793
 30
0.0
  0
POINT
  5
15B
330
6B4
100
AcDbEntity
  8
HATCH
  6
Continuous
 62
     7
370
    30
100
AcDbPoint
 10
1.98123
 20
8.820793
 30
0.0
  0
POINT
  5
15C
330
6B4
100
AcDbEntity
  8
HATCH
  6
Continuous
 62
     7
370
    30
100
AcDbPoint
 10
2.01248
 20
8.820793
 30
0.0
  0
POINT
  5
15D
330
6B4
100
AcDbEntity
  8
HATCH
  6
Continuous
 62
     7
370
    30
100
AcDbPoint
 10
2.04373
 20
8.820793
 30
0.0
  0
POINT
  5
15E
330
6B4
100
AcDbEntity
  8
HATCH
  6
Continuous
 62
     7
370
    30
100
AcDbPoint
 10
2.07498
 20
8.820793
 30
0.0
  0
POINT
  5
15F
330
6B4
100
AcDbEntity
  8
HATCH
  6
Continuous
 62
     7
370
    30
100
AcDbPoint
 10
2.10623
 20
8.820793
 30
0.0
  0
POINT
  5
160
330
6B4
100
AcDbEntity
  8
HATCH
  6
Continuous
 62
     7
370
    30
100
AcDbPoint
 10
2.13748
 20
8.820793
 30
0.0
  0
POINT
  5
161
330
6B4
100
AcDbEntity
  8
HATCH
  6
Continuous
 62
     7
370
    30
100
AcDbPoint
 10
2.16873
 20
8.820793
 30
0.0
  0
POINT
  5
162
330
6B4
100
AcDbEntity
  8
HATCH
  6
Continuous
 62
     7
370
    30
100
AcDbPoint
 10
2.19998
 20
8.820793
 30
0.0
  0
POINT
  5
163
330
6B4
100
AcDbEntity
  8
HATCH
  6
Continuous
 62
     7
370
    30
100
AcDbPoint
 10
2.23123
 20
8.820793
 30
0.0
  0
POINT
  5
164
330
6B4
100
AcDbEntity
  8
HATCH
  6
Continuous
 62
     7
370
    30
100
AcDbPoint
 10
2.26248
 20
8.820793
 30
0.0
  0
POINT
  5
165
330
6B4
100
AcDbEntity
  8
HATCH
  6
Continuous
 62
     7
370
    30
100
AcDbPoint
 10
2.29373
 20
8.820793
 30
0.0
  0
POINT
  5
166
330
6B4
100
AcDbEntity
  8
HATCH
  6
Continuous
 62
     7
370
    30
100
AcDbPoint
 10
1.590605
 20
8.852043
 30
0.0
  0
POINT
  5
167
330
6B4
100
AcDbEntity
  8
HATCH
  6
Continuous
 62
     7
370
    30
100
AcDbPoint
 10
1.621855
 20
8.852043
 30
0.0
  0
POINT
  5
168
330
6B4
100
AcDbEntity
  8
HATCH
  6
Continuous
 62
     7
370
    30
100
AcDbPoint
 10
1.653105
 20
8.852043
 30
0.0
  0
POINT
  5
169
330
6B4
100
AcDbEntity
  8
HATCH
  6
Continuous
 62
     7
370
    30
100
AcDbPoint
 10
1.684355
 20
8.852043
 30
0.0
  0
POINT
  5
16A
330
6B4
100
AcDbEntity
  8
HATCH
  6
Continuous
 62
     7
370
    30
100
AcDbPoint
 10
1.715605
 20
8.852043
 30
0.0
  0
POINT
  5
16B
330
6B4
100
AcDbEntity
  8
HATCH
  6
Continuous
 62
     7
370
    30
100
AcDbPoint
 10
1.746855
 20
8.852043
 30
0.0
  0
POINT
  5
16C
330
6B4
100
AcDbEntity
  8
HATCH
  6
Continuous
 62
     7
370
    30
100
AcDbPoint
 10
1.778105
 20
8.852043
 30
0.0
  0
POINT
  5
16D
330
6B4
100
AcDbEntity
  8
HATCH
  6
Continuous
 62
     7
370
    30
100
AcDbPoint
 10
1.809355
 20
8.852043
 30
0.0
  0
POINT
  5
16E
330
6B4
100
AcDbEntity
  8
HATCH
  6
Continuous
 62
     7
370
    30
100
AcDbPoint
 10
1.840605
 20
8.852043
 30
0.0
  0
POINT
  5
16F
330
6B4
100
AcDbEntity
  8
HATCH
  6
Continuous
 62
     7
370
    30
100
AcDbPoint
 10
1.871855
 20
8.852043
 30
0.0
  0
POINT
  5
170
330
6B4
100
AcDbEntity
  8
HATCH
  6
Continuous
 62
     7
370
    30
100
AcDbPoint
 10
1.903105
 20
8.852043
 30
0.0
  0
POINT
  5
171
330
6B4
100
AcDbEntity
  8
HATCH
  6
Continuous
 62
     7
370
    30
100
AcDbPoint
 10
1.934355
 20
8.852043
 30
0.0
  0
POINT
  5
172
330
6B4
100
AcDbEntity
  8
HATCH
  6
Continuous
 62
     7
370
    30
100
AcDbPoint
 10
1.965605
 20
8.852043
 30
0.0
  0
POINT
  5
173
330
6B4
100
AcDbEntity
  8
HATCH
  6
Continuous
 62
     7
370
    30
100
AcDbPoint
 10
1.996855
 20
8.852043
 30
0.0
  0
POINT
  5
174
330
6B4
100
AcDbEntity
  8
HATCH
  6
Continuous
 62
     7
370
    30
100
AcDbPoint
 10
2.028105
 20
8.852043
 30
0.0
  0
POINT
  5
175
330
6B4
100
AcDbEntity
  8
HATCH
  6
Continuous
 62
     7
370
    30
100
AcDbPoint
 10
2.059355
 20
8.852043
 30
0.0
  0
POINT
  5
176
330
6B4
100
AcDbEntity
  8
HATCH
  6
Continuous
 62
     7
370
    30
100
AcDbPoint
 10
2.090605
 20
8.852043
 30
0.0
  0
POINT
  5
177
330
6B4
100
AcDbEntity
  8
HATCH
  6
Continuous
 62
     7
370
    30
100
AcDbPoint
 10
2.121855
 20
8.852043
 30
0.0
  0
POINT
  5
178
330
6B4
100
AcDbEntity
  8
HATCH
  6
Continuous
 62
     7
370
    30
100
AcDbPoint
 10
2.153105
 20
8.852043
 30
0.0
  0
POINT
  5
179
330
6B4
100
AcDbEntity
  8
HATCH
  6
Continuous
 62
     7
370
    30
100
AcDbPoint
 10
2.184355
 20
8.852043
 30
0.0
  0
POINT
  5
17A
330
6B4
100
AcDbEntity
  8
HATCH
  6
Continuous
 62
     7
370
    30
100
AcDbPoint
 10
2.215605
 20
8.852043
 30
0.0
  0
POINT
  5
17B
330
6B4
100
AcDbEntity
  8
HATCH
  6
Continuous
 62
     7
370
    30
100
AcDbPoint
 10
2.246855
 20
8.852043
 30
0.0
  0
POINT
  5
17C
330
6B4
100
AcDbEntity
  8
HATCH
  6
Continuous
 62
     7
370
    30
100
AcDbPoint
 10
2.278105
 20
8.852043
 30
0.0
  0
POINT
  5
17D
330
6B4
100
AcDbEntity
  8
HATCH
  6
Continuous
 62
     7
370
    30
100
AcDbPoint
 10
2.309355
 20
8.852043
 30
0.0
  0
POINT
  5
17E
330
6B4
100
AcDbEntity
  8
HATCH
  6
Continuous
 62
     7
370
    30
100
AcDbPoint
 10
1.57498
 20
8.883293
 30
0.0
  0
POINT
  5
17F
330
6B4
100
AcDbEntity
  8
HATCH
  6
Continuous
 62
     7
370
    30
100
AcDbPoint
 10
1.60623
 20
8.883293
 30
0.0
  0
POINT
  5
180
330
6B4
100
AcDbEntity
  8
HATCH
  6
Continuous
 62
     7
370
    30
100
AcDbPoint
 10
1.63748
 20
8.883293
 30
0.0
  0
POINT
  5
181
330
6B4
100
AcDbEntity
  8
HATCH
  6
Continuous
 62
     7
370
    30
100
AcDbPoint
 10
1.66873
 20
8.883293
 30
0.0
  0
POINT
  5
182
330
6B4
100
AcDbEntity
  8
HATCH
  6
Continuous
 62
     7
370
    30
100
AcDbPoint
 10
1.69998
 20
8.883293
 30
0.0
  0
POINT
  5
183
330
6B4
100
AcDbEntity
  8
HATCH
  6
Continuous
 62
     7
370
    30
100
AcDbPoint
 10
1.73123
 20
8.883293
 30
0.0
  0
POINT
  5
184
330
6B4
100
AcDbEntity
  8
HATCH
  6
Continuous
 62
     7
370
    30
100
AcDbPoint
 10
1.76248
 20
8.883293
 30
0.0
  0
POINT
  5
185
330
6B4
100
AcDbEntity
  8
HATCH
  6
Continuous
 62
     7
370
    30
100
AcDbPoint
 10
1.79373
 20
8.883293
 30
0.0
  0
POINT
  5
186
330
6B4
100
AcDbEntity
  8
HATCH
  6
Continuous
 62
     7
370
    30
100
AcDbPoint
 10
1.82498
 20
8.883293
 30
0.0
  0
POINT
  5
187
330
6B4
100
AcDbEntity
  8
HATCH
  6
Continuous
 62
     7
370
    30
100
AcDbPoint
 10
1.85623
 20
8.883293
 30
0.0
  0
POINT
  5
188
330
6B4
100
AcDbEntity
  8
HATCH
  6
Continuous
 62
     7
370
    30
100
AcDbPoint
 10
1.88748
 20
8.883293
 30
0.0
  0
POINT
  5
189
330
6B4
100
AcDbEntity
  8
HATCH
  6
Continuous
 62
     7
370
    30
100
AcDbPoint
 10
1.91873
 20
8.883293
 30
0.0
  0
POINT
  5
18A
330
6B4
100
AcDbEntity
  8
HATCH
  6
Continuous
 62
     7
370
    30
100
AcDbPoint
 10
1.94998
 20
8.883293
 30
0.0
  0
POINT
  5
18B
330
6B4
100
AcDbEntity
  8
HATCH
  6
Continuous
 62
     7
370
    30
100
AcDbPoint
 10
1.98123
 20
8.883293
 30
0.0
  0
POINT
  5
18C
330
6B4
100
AcDbEntity
  8
HATCH
  6
Continuous
 62
     7
370
    30
100
AcDbPoint
 10
2.01248
 20
8.883293
 30
0.0
  0
POINT
  5
18D
330
6B4
100
AcDbEntity
  8
HATCH
  6
Continuous
 62
     7
370
    30
100
AcDbPoint
 10
2.04373
 20
8.883293
 30
0.0
  0
POINT
  5
18E
330
6B4
100
AcDbEntity
  8
HATCH
  6
Continuous
 62
     7
370
    30
100
AcDbPoint
 10
2.07498
 20
8.883293
 30
0.0
  0
POINT
  5
18F
330
6B4
100
AcDbEntity
  8
HATCH
  6
Continuous
 62
     7
370
    30
100
AcDbPoint
 10
2.10623
 20
8.883293
 30
0.0
  0
POINT
  5
190
330
6B4
100
AcDbEntity
  8
HATCH
  6
Continuous
 62
     7
370
    30
100
AcDbPoint
 10
2.13748
 20
8.883293
 30
0.0
  0
POINT
  5
191
330
6B4
100
AcDbEntity
  8
HATCH
  6
Continuous
 62
     7
370
    30
100
AcDbPoint
 10
2.16873
 20
8.883293
 30
0.0
  0
POINT
  5
192
330
6B4
100
AcDbEntity
  8
HATCH
  6
Continuous
 62
     7
370
    30
100
AcDbPoint
 10
2.19998
 20
8.883293
 30
0.0
  0
POINT
  5
193
330
6B4
100
AcDbEntity
  8
HATCH
  6
Continuous
 62
     7
370
    30
100
AcDbPoint
 10
2.23123
 20
8.883293
 30
0.0
  0
POINT
  5
194
330
6B4
100
AcDbEntity
  8
HATCH
  6
Continuous
 62
     7
370
    30
100
AcDbPoint
 10
2.26248
 20
8.883293
 30
0.0
  0
POINT
  5
195
330
6B4
100
AcDbEntity
  8
HATCH
  6
Continuous
 62
     7
370
    30
100
AcDbPoint
 10
2.29373
 20
8.883293
 30
0.0
  0
POINT
  5
196
330
6B4
100
AcDbEntity
  8
HATCH
  6
Continuous
 62
     7
370
    30
100
AcDbPoint
 10
2.32498
 20
8.883293
 30
0.0
  0
POINT
  5
197
330
6B4
100
AcDbEntity
  8
HATCH
  6
Continuous
 62
     7
370
    30
100
AcDbPoint
 10
2.44998
 20
8.883293
 30
0.0
  0
POINT
  5
198
330
6B4
100
AcDbEntity
  8
HATCH
  6
Continuous
 62
     7
370
    30
100
AcDbPoint
 10
1.590605
 20
8.914543
 30
0.0
  0
POINT
  5
199
330
6B4
100
AcDbEntity
  8
HATCH
  6
Continuous
 62
     7
370
    30
100
AcDbPoint
 10
1.621855
 20
8.914543
 30
0.0
  0
POINT
  5
19A
330
6B4
100
AcDbEntity
  8
HATCH
  6
Continuous
 62
     7
370
    30
100
AcDbPoint
 10
1.653105
 20
8.914543
 30
0.0
  0
POINT
  5
19B
330
6B4
100
AcDbEntity
  8
HATCH
  6
Continuous
 62
     7
370
    30
100
AcDbPoint
 10
1.684355
 20
8.914543
 30
0.0
  0
POINT
  5
19C
330
6B4
100
AcDbEntity
  8
HATCH
  6
Continuous
 62
     7
370
    30
100
AcDbPoint
 10
1.715605
 20
8.914543
 30
0.0
  0
POINT
  5
19D
330
6B4
100
AcDbEntity
  8
HATCH
  6
Continuous
 62
     7
370
    30
100
AcDbPoint
 10
1.746855
 20
8.914543
 30
0.0
  0
POINT
  5
19E
330
6B4
100
AcDbEntity
  8
HATCH
  6
Continuous
 62
     7
370
    30
100
AcDbPoint
 10
1.778105
 20
8.914543
 30
0.0
  0
POINT
  5
19F
330
6B4
100
AcDbEntity
  8
HATCH
  6
Continuous
 62
     7
370
    30
100
AcDbPoint
 10
1.809355
 20
8.914543
 30
0.0
  0
POINT
  5
1A0
330
6B4
100
AcDbEntity
  8
HATCH
  6
Continuous
 62
     7
370
    30
100
AcDbPoint
 10
1.840605
 20
8.914543
 30
0.0
  0
POINT
  5
1A1
330
6B4
100
AcDbEntity
  8
HATCH
  6
Continuous
 62
     7
370
    30
100
AcDbPoint
 10
1.871855
 20
8.914543
 30
0.0
  0
POINT
  5
1A2
330
6B4
100
AcDbEntity
  8
HATCH
  6
Continuous
 62
     7
370
    30
100
AcDbPoint
 10
1.903105
 20
8.914543
 30
0.0
  0
POINT
  5
1A3
330
6B4
100
AcDbEntity
  8
HATCH
  6
Continuous
 62
     7
370
    30
100
AcDbPoint
 10
1.934355
 20
8.914543
 30
0.0
  0
POINT
  5
1A4
330
6B4
100
AcDbEntity
  8
HATCH
  6
Continuous
 62
     7
370
    30
100
AcDbPoint
 10
1.965605
 20
8.914543
 30
0.0
  0
POINT
  5
1A5
330
6B4
100
AcDbEntity
  8
HATCH
  6
Continuous
 62
     7
370
    30
100
AcDbPoint
 10
1.996855
 20
8.914543
 30
0.0
  0
POINT
  5
1A6
330
6B4
100
AcDbEntity
  8
HATCH
  6
Continuous
 62
     7
370
    30
100
AcDbPoint
 10
2.028105
 20
8.914543
 30
0.0
  0
POINT
  5
1A7
330
6B4
100
AcDbEntity
  8
HATCH
  6
Continuous
 62
     7
370
    30
100
AcDbPoint
 10
2.059355
 20
8.914543
 30
0.0
  0
POINT
  5
1A8
330
6B4
100
AcDbEntity
  8
HATCH
  6
Continuous
 62
     7
370
    30
100
AcDbPoint
 10
2.090605
 20
8.914543
 30
0.0
  0
POINT
  5
1A9
330
6B4
100
AcDbEntity
  8
HATCH
  6
Continuous
 62
     7
370
    30
100
AcDbPoint
 10
2.121855
 20
8.914543
 30
0.0
  0
POINT
  5
1AA
330
6B4
100
AcDbEntity
  8
HATCH
  6
Continuous
 62
     7
370
    30
100
AcDbPoint
 10
2.153105
 20
8.914543
 30
0.0
  0
POINT
  5
1AB
330
6B4
100
AcDbEntity
  8
HATCH
  6
Continuous
 62
     7
370
    30
100
AcDbPoint
 10
2.184355
 20
8.914543
 30
0.0
  0
POINT
  5
1AC
330
6B4
100
AcDbEntity
  8
HATCH
  6
Continuous
 62
     7
370
    30
100
AcDbPoint
 10
2.215605
 20
8.914543
 30
0.0
  0
POINT
  5
1AD
330
6B4
100
AcDbEntity
  8
HATCH
  6
Continuous
 62
     7
370
    30
100
AcDbPoint
 10
2.246855
 20
8.914543
 30
0.0
  0
POINT
  5
1AE
330
6B4
100
AcDbEntity
  8
HATCH
  6
Continuous
 62
     7
370
    30
100
AcDbPoint
 10
2.278105
 20
8.914543
 30
0.0
  0
POINT
  5
1AF
330
6B4
100
AcDbEntity
  8
HATCH
  6
Continuous
 62
     7
370
    30
100
AcDbPoint
 10
2.309355
 20
8.914543
 30
0.0
  0
POINT
  5
1B0
330
6B4
100
AcDbEntity
  8
HATCH
  6
Continuous
 62
     7
370
    30
100
AcDbPoint
 10
2.340605
 20
8.914543
 30
0.0
  0
POINT
  5
1B1
330
6B4
100
AcDbEntity
  8
HATCH
  6
Continuous
 62
     7
370
    30
100
AcDbPoint
 10
1.57498
 20
8.945793
 30
0.0
  0
POINT
  5
1B2
330
6B4
100
AcDbEntity
  8
HATCH
  6
Continuous
 62
     7
370
    30
100
AcDbPoint
 10
1.60623
 20
8.945793
 30
0.0
  0
POINT
  5
1B3
330
6B4
100
AcDbEntity
  8
HATCH
  6
Continuous
 62
     7
370
    30
100
AcDbPoint
 10
1.63748
 20
8.945793
 30
0.0
  0
POINT
  5
1B4
330
6B4
100
AcDbEntity
  8
HATCH
  6
Continuous
 62
     7
370
    30
100
AcDbPoint
 10
1.66873
 20
8.945793
 30
0.0
  0
POINT
  5
1B5
330
6B4
100
AcDbEntity
  8
HATCH
  6
Continuous
 62
     7
370
    30
100
AcDbPoint
 10
1.69998
 20
8.945793
 30
0.0
  0
POINT
  5
1B6
330
6B4
100
AcDbEntity
  8
HATCH
  6
Continuous
 62
     7
370
    30
100
AcDbPoint
 10
1.73123
 20
8.945793
 30
0.0
  0
POINT
  5
1B7
330
6B4
100
AcDbEntity
  8
HATCH
  6
Continuous
 62
     7
370
    30
100
AcDbPoint
 10
1.76248
 20
8.945793
 30
0.0
  0
POINT
  5
1B8
330
6B4
100
AcDbEntity
  8
HATCH
  6
Continuous
 62
     7
370
    30
100
AcDbPoint
 10
1.79373
 20
8.945793
 30
0.0
  0
POINT
  5
1B9
330
6B4
100
AcDbEntity
  8
HATCH
  6
Continuous
 62
     7
370
    30
100
AcDbPoint
 10
1.82498
 20
8.945793
 30
0.0
  0
POINT
  5
1BA
330
6B4
100
AcDbEntity
  8
HATCH
  6
Continuous
 62
     7
370
    30
100
AcDbPoint
 10
1.85623
 20
8.945793
 30
0.0
  0
POINT
  5
1BB
330
6B4
100
AcDbEntity
  8
HATCH
  6
Continuous
 62
     7
370
    30
100
AcDbPoint
 10
1.88748
 20
8.945793
 30
0.0
  0
POINT
  5
1BC
330
6B4
100
AcDbEntity
  8
HATCH
  6
Continuous
 62
     7
370
    30
100
AcDbPoint
 10
1.91873
 20
8.945793
 30
0.0
  0
POINT
  5
1BD
330
6B4
100
AcDbEntity
  8
HATCH
  6
Continuous
 62
     7
370
    30
100
AcDbPoint
 10
1.94998
 20
8.945793
 30
0.0
  0
POINT
  5
1BE
330
6B4
100
AcDbEntity
  8
HATCH
  6
Continuous
 62
     7
370
    30
100
AcDbPoint
 10
1.98123
 20
8.945793
 30
0.0
  0
POINT
  5
1BF
330
6B4
100
AcDbEntity
  8
HATCH
  6
Continuous
 62
     7
370
    30
100
AcDbPoint
 10
2.01248
 20
8.945793
 30
0.0
  0
POINT
  5
1C0
330
6B4
100
AcDbEntity
  8
HATCH
  6
Continuous
 62
     7
370
    30
100
AcDbPoint
 10
2.04373
 20
8.945793
 30
0.0
  0
POINT
  5
1C1
330
6B4
100
AcDbEntity
  8
HATCH
  6
Continuous
 62
     7
370
    30
100
AcDbPoint
 10
2.07498
 20
8.945793
 30
0.0
  0
POINT
  5
1C2
330
6B4
100
AcDbEntity
  8
HATCH
  6
Continuous
 62
     7
370
    30
100
AcDbPoint
 10
2.10623
 20
8.945793
 30
0.0
  0
POINT
  5
1C3
330
6B4
100
AcDbEntity
  8
HATCH
  6
Continuous
 62
     7
370
    30
100
AcDbPoint
 10
2.13748
 20
8.945793
 30
0.0
  0
POINT
  5
1C4
330
6B4
100
AcDbEntity
  8
HATCH
  6
Continuous
 62
     7
370
    30
100
AcDbPoint
 10
2.16873
 20
8.945793
 30
0.0
  0
POINT
  5
1C5
330
6B4
100
AcDbEntity
  8
HATCH
  6
Continuous
 62
     7
370
    30
100
AcDbPoint
 10
2.19998
 20
8.945793
 30
0.0
  0
POINT
  5
1C6
330
6B4
100
AcDbEntity
  8
HATCH
  6
Continuous
 62
     7
370
    30
100
AcDbPoint
 10
2.23123
 20
8.945793
 30
0.0
  0
POINT
  5
1C7
330
6B4
100
AcDbEntity
  8
HATCH
  6
Continuous
 62
     7
370
    30
100
AcDbPoint
 10
2.26248
 20
8.945793
 30
0.0
  0
POINT
  5
1C8
330
6B4
100
AcDbEntity
  8
HATCH
  6
Continuous
 62
     7
370
    30
100
AcDbPoint
 10
2.29373
 20
8.945793
 30
0.0
  0
POINT
  5
1C9
330
6B4
100
AcDbEntity
  8
HATCH
  6
Continuous
 62
     7
370
    30
100
AcDbPoint
 10
2.32498
 20
8.945793
 30
0.0
  0
POINT
  5
1CA
330
6B4
100
AcDbEntity
  8
HATCH
  6
Continuous
 62
     7
370
    30
100
AcDbPoint
 10
2.35623
 20
8.945793
 30
0.0
  0
POINT
  5
1CB
330
6B4
100
AcDbEntity
  8
HATCH
  6
Continuous
 62
     7
370
    30
100
AcDbPoint
 10
1.590605
 20
8.977043
 30
0.0
  0
POINT
  5
1CC
330
6B4
100
AcDbEntity
  8
HATCH
  6
Continuous
 62
     7
370
    30
100
AcDbPoint
 10
1.621855
 20
8.977043
 30
0.0
  0
POINT
  5
1CD
330
6B4
100
AcDbEntity
  8
HATCH
  6
Continuous
 62
     7
370
    30
100
AcDbPoint
 10
1.653105
 20
8.977043
 30
0.0
  0
POINT
  5
1CE
330
6B4
100
AcDbEntity
  8
HATCH
  6
Continuous
 62
     7
370
    30
100
AcDbPoint
 10
1.684355
 20
8.977043
 30
0.0
  0
POINT
  5
1CF
330
6B4
100
AcDbEntity
  8
HATCH
  6
Continuous
 62
     7
370
    30
100
AcDbPoint
 10
1.715605
 20
8.977043
 30
0.0
  0
POINT
  5
1D0
330
6B4
100
AcDbEntity
  8
HATCH
  6
Continuous
 62
     7
370
    30
100
AcDbPoint
 10
1.746855
 20
8.977043
 30
0.0
  0
POINT
  5
1D1
330
6B4
100
AcDbEntity
  8
HATCH
  6
Continuous
 62
     7
370
    30
100
AcDbPoint
 10
1.778105
 20
8.977043
 30
0.0
  0
POINT
  5
1D2
330
6B4
100
AcDbEntity
  8
HATCH
  6
Continuous
 62
     7
370
    30
100
AcDbPoint
 10
1.809355
 20
8.977043
 30
0.0
  0
POINT
  5
1D3
330
6B4
100
AcDbEntity
  8
HATCH
  6
Continuous
 62
     7
370
    30
100
AcDbPoint
 10
1.840605
 20
8.977043
 30
0.0
  0
POINT
  5
1D4
330
6B4
100
AcDbEntity
  8
HATCH
  6
Continuous
 62
     7
370
    30
100
AcDbPoint
 10
1.871855
 20
8.977043
 30
0.0
  0
POINT
  5
1D5
330
6B4
100
AcDbEntity
  8
HATCH
  6
Continuous
 62
     7
370
    30
100
AcDbPoint
 10
1.903105
 20
8.977043
 30
0.0
  0
POINT
  5
1D6
330
6B4
100
AcDbEntity
  8
HATCH
  6
Continuous
 62
     7
370
    30
100
AcDbPoint
 10
1.934355
 20
8.977043
 30
0.0
  0
POINT
  5
1D7
330
6B4
100
AcDbEntity
  8
HATCH
  6
Continuous
 62
     7
370
    30
100
AcDbPoint
 10
1.965605
 20
8.977043
 30
0.0
  0
POINT
  5
1D8
330
6B4
100
AcDbEntity
  8
HATCH
  6
Continuous
 62
     7
370
    30
100
AcDbPoint
 10
1.996855
 20
8.977043
 30
0.0
  0
POINT
  5
1D9
330
6B4
100
AcDbEntity
  8
HATCH
  6
Continuous
 62
     7
370
    30
100
AcDbPoint
 10
2.028105
 20
8.977043
 30
0.0
  0
POINT
  5
1DA
330
6B4
100
AcDbEntity
  8
HATCH
  6
Continuous
 62
     7
370
    30
100
AcDbPoint
 10
2.059355
 20
8.977043
 30
0.0
  0
POINT
  5
1DB
330
6B4
100
AcDbEntity
  8
HATCH
  6
Continuous
 62
     7
370
    30
100
AcDbPoint
 10
2.090605
 20
8.977043
 30
0.0
  0
POINT
  5
1DC
330
6B4
100
AcDbEntity
  8
HATCH
  6
Continuous
 62
     7
370
    30
100
AcDbPoint
 10
2.121855
 20
8.977043
 30
0.0
  0
POINT
  5
1DD
330
6B4
100
AcDbEntity
  8
HATCH
  6
Continuous
 62
     7
370
    30
100
AcDbPoint
 10
2.153105
 20
8.977043
 30
0.0
  0
POINT
  5
1DE
330
6B4
100
AcDbEntity
  8
HATCH
  6
Continuous
 62
     7
370
    30
100
AcDbPoint
 10
2.184355
 20
8.977043
 30
0.0
  0
POINT
  5
1DF
330
6B4
100
AcDbEntity
  8
HATCH
  6
Continuous
 62
     7
370
    30
100
AcDbPoint
 10
2.215605
 20
8.977043
 30
0.0
  0
POINT
  5
1E0
330
6B4
100
AcDbEntity
  8
HATCH
  6
Continuous
 62
     7
370
    30
100
AcDbPoint
 10
2.246855
 20
8.977043
 30
0.0
  0
POINT
  5
1E1
330
6B4
100
AcDbEntity
  8
HATCH
  6
Continuous
 62
     7
370
    30
100
AcDbPoint
 10
2.278105
 20
8.977043
 30
0.0
  0
POINT
  5
1E2
330
6B4
100
AcDbEntity
  8
HATCH
  6
Continuous
 62
     7
370
    30
100
AcDbPoint
 10
2.309355
 20
8.977043
 30
0.0
  0
POINT
  5
1E3
330
6B4
100
AcDbEntity
  8
HATCH
  6
Continuous
 62
     7
370
    30
100
AcDbPoint
 10
2.340605
 20
8.977043
 30
0.0
  0
POINT
  5
1E4
330
6B4
100
AcDbEntity
  8
HATCH
  6
Continuous
 62
     7
370
    30
100
AcDbPoint
 10
2.371855
 20
8.977043
 30
0.0
  0
POINT
  5
1E5
330
6B4
100
AcDbEntity
  8
HATCH
  6
Continuous
 62
     7
370
    30
100
AcDbPoint
 10
2.403105
 20
8.977043
 30
0.0
  0
POINT
  5
1E6
330
6B4
100
AcDbEntity
  8
HATCH
  6
Continuous
 62
     7
370
    30
100
AcDbPoint
 10
2.434355
 20
8.977043
 30
0.0
  0
POINT
  5
1E7
330
6B4
100
AcDbEntity
  8
HATCH
  6
Continuous
 62
     7
370
    30
100
AcDbPoint
 10
1.57498
 20
9.008293
 30
0.0
  0
POINT
  5
1E8
330
6B4
100
AcDbEntity
  8
HATCH
  6
Continuous
 62
     7
370
    30
100
AcDbPoint
 10
1.60623
 20
9.008293
 30
0.0
  0
POINT
  5
1E9
330
6B4
100
AcDbEntity
  8
HATCH
  6
Continuous
 62
     7
370
    30
100
AcDbPoint
 10
1.63748
 20
9.008293
 30
0.0
  0
POINT
  5
1EA
330
6B4
100
AcDbEntity
  8
HATCH
  6
Continuous
 62
     7
370
    30
100
AcDbPoint
 10
1.66873
 20
9.008293
 30
0.0
  0
POINT
  5
1EB
330
6B4
100
AcDbEntity
  8
HATCH
  6
Continuous
 62
     7
370
    30
100
AcDbPoint
 10
1.69998
 20
9.008293
 30
0.0
  0
POINT
  5
1EC
330
6B4
100
AcDbEntity
  8
HATCH
  6
Continuous
 62
     7
370
    30
100
AcDbPoint
 10
1.73123
 20
9.008293
 30
0.0
  0
POINT
  5
1ED
330
6B4
100
AcDbEntity
  8
HATCH
  6
Continuous
 62
     7
370
    30
100
AcDbPoint
 10
1.76248
 20
9.008293
 30
0.0
  0
POINT
  5
1EE
330
6B4
100
AcDbEntity
  8
HATCH
  6
Continuous
 62
     7
370
    30
100
AcDbPoint
 10
1.79373
 20
9.008293
 30
0.0
  0
POINT
  5
1EF
330
6B4
100
AcDbEntity
  8
HATCH
  6
Continuous
 62
     7
370
    30
100
AcDbPoint
 10
1.82498
 20
9.008293
 30
0.0
  0
POINT
  5
1F0
330
6B4
100
AcDbEntity
  8
HATCH
  6
Continuous
 62
     7
370
    30
100
AcDbPoint
 10
1.85623
 20
9.008293
 30
0.0
  0
POINT
  5
1F1
330
6B4
100
AcDbEntity
  8
HATCH
  6
Continuous
 62
     7
370
    30
100
AcDbPoint
 10
1.88748
 20
9.008293
 30
0.0
  0
POINT
  5
1F2
330
6B4
100
AcDbEntity
  8
HATCH
  6
Continuous
 62
     7
370
    30
100
AcDbPoint
 10
1.91873
 20
9.008293
 30
0.0
  0
POINT
  5
1F3
330
6B4
100
AcDbEntity
  8
HATCH
  6
Continuous
 62
     7
370
    30
100
AcDbPoint
 10
1.94998
 20
9.008293
 30
0.0
  0
POINT
  5
1F4
330
6B4
100
AcDbEntity
  8
HATCH
  6
Continuous
 62
     7
370
    30
100
AcDbPoint
 10
1.98123
 20
9.008293
 30
0.0
  0
POINT
  5
1F5
330
6B4
100
AcDbEntity
  8
HATCH
  6
Continuous
 62
     7
370
    30
100
AcDbPoint
 10
2.01248
 20
9.008293
 30
0.0
  0
POINT
  5
1F6
330
6B4
100
AcDbEntity
  8
HATCH
  6
Continuous
 62
     7
370
    30
100
AcDbPoint
 10
2.04373
 20
9.008293
 30
0.0
  0
POINT
  5
1F7
330
6B4
100
AcDbEntity
  8
HATCH
  6
Continuous
 62
     7
370
    30
100
AcDbPoint
 10
2.07498
 20
9.008293
 30
0.0
  0
POINT
  5
1F8
330
6B4
100
AcDbEntity
  8
HATCH
  6
Continuous
 62
     7
370
    30
100
AcDbPoint
 10
2.10623
 20
9.008293
 30
0.0
  0
POINT
  5
1F9
330
6B4
100
AcDbEntity
  8
HATCH
  6
Continuous
 62
     7
370
    30
100
AcDbPoint
 10
2.13748
 20
9.008293
 30
0.0
  0
POINT
  5
1FA
330
6B4
100
AcDbEntity
  8
HATCH
  6
Continuous
 62
     7
370
    30
100
AcDbPoint
 10
2.16873
 20
9.008293
 30
0.0
  0
POINT
  5
1FB
330
6B4
100
AcDbEntity
  8
HATCH
  6
Continuous
 62
     7
370
    30
100
AcDbPoint
 10
2.19998
 20
9.008293
 30
0.0
  0
POINT
  5
1FC
330
6B4
100
AcDbEntity
  8
HATCH
  6
Continuous
 62
     7
370
    30
100
AcDbPoint
 10
2.23123
 20
9.008293
 30
0.0
  0
POINT
  5
1FD
330
6B4
100
AcDbEntity
  8
HATCH
  6
Continuous
 62
     7
370
    30
100
AcDbPoint
 10
2.26248
 20
9.008293
 30
0.0
  0
POINT
  5
1FE
330
6B4
100
AcDbEntity
  8
HATCH
  6
Continuous
 62
     7
370
    30
100
AcDbPoint
 10
2.29373
 20
9.008293
 30
0.0
  0
POINT
  5
1FF
330
6B4
100
AcDbEntity
  8
HATCH
  6
Continuous
 62
     7
370
    30
100
AcDbPoint
 10
2.32498
 20
9.008293
 30
0.0
  0
POINT
  5
200
330
6B4
100
AcDbEntity
  8
HATCH
  6
Continuous
 62
     7
370
    30
100
AcDbPoint
 10
2.35623
 20
9.008293
 30
0.0
  0
POINT
  5
201
330
6B4
100
AcDbEntity
  8
HATCH
  6
Continuous
 62
     7
370
    30
100
AcDbPoint
 10
2.38748
 20
9.008293
 30
0.0
  0
POINT
  5
202
330
6B4
100
AcDbEntity
  8
HATCH
  6
Continuous
 62
     7
370
    30
100
AcDbPoint
 10
2.41873
 20
9.008293
 30
0.0
  0
POINT
  5
203
330
6B4
100
AcDbEntity
  8
HATCH
  6
Continuous
 62
     7
370
    30
100
AcDbPoint
 10
2.44998
 20
9.008293
 30
0.0
  0
POINT
  5
204
330
6B4
100
AcDbEntity
  8
HATCH
  6
Continuous
 62
     7
370
    30
100
AcDbPoint
 10
2.48123
 20
9.008293
 30
0.0
  0
POINT
  5
205
330
6B4
100
AcDbEntity
  8
HATCH
  6
Continuous
 62
     7
370
    30
100
AcDbPoint
 10
1.590605
 20
9.039543
 30
0.0
  0
POINT
  5
206
330
6B4
100
AcDbEntity
  8
HATCH
  6
Continuous
 62
     7
370
    30
100
AcDbPoint
 10
1.621855
 20
9.039543
 30
0.0
  0
POINT
  5
207
330
6B4
100
AcDbEntity
  8
HATCH
  6
Continuous
 62
     7
370
    30
100
AcDbPoint
 10
1.653105
 20
9.039543
 30
0.0
  0
POINT
  5
208
330
6B4
100
AcDbEntity
  8
HATCH
  6
Continuous
 62
     7
370
    30
100
AcDbPoint
 10
1.684355
 20
9.039543
 30
0.0
  0
POINT
  5
209
330
6B4
100
AcDbEntity
  8
HATCH
  6
Continuous
 62
     7
370
    30
100
AcDbPoint
 10
1.715605
 20
9.039543
 30
0.0
  0
POINT
  5
20A
330
6B4
100
AcDbEntity
  8
HATCH
  6
Continuous
 62
     7
370
    30
100
AcDbPoint
 10
1.746855
 20
9.039543
 30
0.0
  0
POINT
  5
20B
330
6B4
100
AcDbEntity
  8
HATCH
  6
Continuous
 62
     7
370
    30
100
AcDbPoint
 10
1.778105
 20
9.039543
 30
0.0
  0
POINT
  5
20C
330
6B4
100
AcDbEntity
  8
HATCH
  6
Continuous
 62
     7
370
    30
100
AcDbPoint
 10
1.809355
 20
9.039543
 30
0.0
  0
POINT
  5
20D
330
6B4
100
AcDbEntity
  8
HATCH
  6
Continuous
 62
     7
370
    30
100
AcDbPoint
 10
1.840605
 20
9.039543
 30
0.0
  0
POINT
  5
20E
330
6B4
100
AcDbEntity
  8
HATCH
  6
Continuous
 62
     7
370
    30
100
AcDbPoint
 10
1.871855
 20
9.039543
 30
0.0
  0
POINT
  5
20F
330
6B4
100
AcDbEntity
  8
HATCH
  6
Continuous
 62
     7
370
    30
100
AcDbPoint
 10
1.903105
 20
9.039543
 30
0.0
  0
POINT
  5
210
330
6B4
100
AcDbEntity
  8
HATCH
  6
Continuous
 62
     7
370
    30
100
AcDbPoint
 10
1.934355
 20
9.039543
 30
0.0
  0
POINT
  5
211
330
6B4
100
AcDbEntity
  8
HATCH
  6
Continuous
 62
     7
370
    30
100
AcDbPoint
 10
1.965605
 20
9.039543
 30
0.0
  0
POINT
  5
212
330
6B4
100
AcDbEntity
  8
HATCH
  6
Continuous
 62
     7
370
    30
100
AcDbPoint
 10
1.996855
 20
9.039543
 30
0.0
  0
POINT
  5
213
330
6B4
100
AcDbEntity
  8
HATCH
  6
Continuous
 62
     7
370
    30
100
AcDbPoint
 10
2.028105
 20
9.039543
 30
0.0
  0
POINT
  5
214
330
6B4
100
AcDbEntity
  8
HATCH
  6
Continuous
 62
     7
370
    30
100
AcDbPoint
 10
2.059355
 20
9.039543
 30
0.0
  0
POINT
  5
215
330
6B4
100
AcDbEntity
  8
HATCH
  6
Continuous
 62
     7
370
    30
100
AcDbPoint
 10
2.090605
 20
9.039543
 30
0.0
  0
POINT
  5
216
330
6B4
100
AcDbEntity
  8
HATCH
  6
Continuous
 62
     7
370
    30
100
AcDbPoint
 10
2.121855
 20
9.039543
 30
0.0
  0
POINT
  5
217
330
6B4
100
AcDbEntity
  8
HATCH
  6
Continuous
 62
     7
370
    30
100
AcDbPoint
 10
2.153105
 20
9.039543
 30
0.0
  0
POINT
  5
218
330
6B4
100
AcDbEntity
  8
HATCH
  6
Continuous
 62
     7
370
    30
100
AcDbPoint
 10
2.184355
 20
9.039543
 30
0.0
  0
POINT
  5
219
330
6B4
100
AcDbEntity
  8
HATCH
  6
Continuous
 62
     7
370
    30
100
AcDbPoint
 10
2.215605
 20
9.039543
 30
0.0
  0
POINT
  5
21A
330
6B4
100
AcDbEntity
  8
HATCH
  6
Continuous
 62
     7
370
    30
100
AcDbPoint
 10
2.246855
 20
9.039543
 30
0.0
  0
POINT
  5
21B
330
6B4
100
AcDbEntity
  8
HATCH
  6
Continuous
 62
     7
370
    30
100
AcDbPoint
 10
2.278105
 20
9.039543
 30
0.0
  0
POINT
  5
21C
330
6B4
100
AcDbEntity
  8
HATCH
  6
Continuous
 62
     7
370
    30
100
AcDbPoint
 10
2.309355
 20
9.039543
 30
0.0
  0
POINT
  5
21D
330
6B4
100
AcDbEntity
  8
HATCH
  6
Continuous
 62
     7
370
    30
100
AcDbPoint
 10
2.340605
 20
9.039543
 30
0.0
  0
POINT
  5
21E
330
6B4
100
AcDbEntity
  8
HATCH
  6
Continuous
 62
     7
370
    30
100
AcDbPoint
 10
2.371855
 20
9.039543
 30
0.0
  0
POINT
  5
21F
330
6B4
100
AcDbEntity
  8
HATCH
  6
Continuous
 62
     7
370
    30
100
AcDbPoint
 10
2.403105
 20
9.039543
 30
0.0
  0
POINT
  5
220
330
6B4
100
AcDbEntity
  8
HATCH
  6
Continuous
 62
     7
370
    30
100
AcDbPoint
 10
2.434355
 20
9.039543
 30
0.0
  0
POINT
  5
221
330
6B4
100
AcDbEntity
  8
HATCH
  6
Continuous
 62
     7
370
    30
100
AcDbPoint
 10
2.465605
 20
9.039543
 30
0.0
  0
POINT
  5
222
330
6B4
100
AcDbEntity
  8
HATCH
  6
Continuous
 62
     7
370
    30
100
AcDbPoint
 10
2.496855
 20
9.039543
 30
0.0
  0
POINT
  5
223
330
6B4
100
AcDbEntity
  8
HATCH
  6
Continuous
 62
     7
370
    30
100
AcDbPoint
 10
2.528105
 20
9.039543
 30
0.0
  0
POINT
  5
224
330
6B4
100
AcDbEntity
  8
HATCH
  6
Continuous
 62
     7
370
    30
100
AcDbPoint
 10
1.57498
 20
9.070793
 30
0.0
  0
POINT
  5
225
330
6B4
100
AcDbEntity
  8
HATCH
  6
Continuous
 62
     7
370
    30
100
AcDbPoint
 10
1.60623
 20
9.070793
 30
0.0
  0
POINT
  5
226
330
6B4
100
AcDbEntity
  8
HATCH
  6
Continuous
 62
     7
370
    30
100
AcDbPoint
 10
1.63748
 20
9.070793
 30
0.0
  0
POINT
  5
227
330
6B4
100
AcDbEntity
  8
HATCH
  6
Continuous
 62
     7
370
    30
100
AcDbPoint
 10
1.66873
 20
9.070793
 30
0.0
  0
POINT
  5
228
330
6B4
100
AcDbEntity
  8
HATCH
  6
Continuous
 62
     7
370
    30
100
AcDbPoint
 10
1.69998
 20
9.070793
 30
0.0
  0
POINT
  5
229
330
6B4
100
AcDbEntity
  8
HATCH
  6
Continuous
 62
     7
370
    30
100
AcDbPoint
 10
1.73123
 20
9.070793
 30
0.0
  0
POINT
  5
22A
330
6B4
100
AcDbEntity
  8
HATCH
  6
Continuous
 62
     7
370
    30
100
AcDbPoint
 10
1.76248
 20
9.070793
 30
0.0
  0
POINT
  5
22B
330
6B4
100
AcDbEntity
  8
HATCH
  6
Continuous
 62
     7
370
    30
100
AcDbPoint
 10
1.79373
 20
9.070793
 30
0.0
  0
POINT
  5
22C
330
6B4
100
AcDbEntity
  8
HATCH
  6
Continuous
 62
     7
370
    30
100
AcDbPoint
 10
1.82498
 20
9.070793
 30
0.0
  0
POINT
  5
22D
330
6B4
100
AcDbEntity
  8
HATCH
  6
Continuous
 62
     7
370
    30
100
AcDbPoint
 10
1.85623
 20
9.070793
 30
0.0
  0
POINT
  5
22E
330
6B4
100
AcDbEntity
  8
HATCH
  6
Continuous
 62
     7
370
    30
100
AcDbPoint
 10
1.88748
 20
9.070793
 30
0.0
  0
POINT
  5
22F
330
6B4
100
AcDbEntity
  8
HATCH
  6
Continuous
 62
     7
370
    30
100
AcDbPoint
 10
1.91873
 20
9.070793
 30
0.0
  0
POINT
  5
230
330
6B4
100
AcDbEntity
  8
HATCH
  6
Continuous
 62
     7
370
    30
100
AcDbPoint
 10
1.94998
 20
9.070793
 30
0.0
  0
POINT
  5
231
330
6B4
100
AcDbEntity
  8
HATCH
  6
Continuous
 62
     7
370
    30
100
AcDbPoint
 10
1.98123
 20
9.070793
 30
0.0
  0
POINT
  5
232
330
6B4
100
AcDbEntity
  8
HATCH
  6
Continuous
 62
     7
370
    30
100
AcDbPoint
 10
2.01248
 20
9.070793
 30
0.0
  0
POINT
  5
233
330
6B4
100
AcDbEntity
  8
HATCH
  6
Continuous
 62
     7
370
    30
100
AcDbPoint
 10
2.04373
 20
9.070793
 30
0.0
  0
POINT
  5
234
330
6B4
100
AcDbEntity
  8
HATCH
  6
Continuous
 62
     7
370
    30
100
AcDbPoint
 10
2.07498
 20
9.070793
 30
0.0
  0
POINT
  5
235
330
6B4
100
AcDbEntity
  8
HATCH
  6
Continuous
 62
     7
370
    30
100
AcDbPoint
 10
2.10623
 20
9.070793
 30
0.0
  0
POINT
  5
236
330
6B4
100
AcDbEntity
  8
HATCH
  6
Continuous
 62
     7
370
    30
100
AcDbPoint
 10
2.13748
 20
9.070793
 30
0.0
  0
POINT
  5
237
330
6B4
100
AcDbEntity
  8
HATCH
  6
Continuous
 62
     7
370
    30
100
AcDbPoint
 10
2.16873
 20
9.070793
 30
0.0
  0
POINT
  5
238
330
6B4
100
AcDbEntity
  8
HATCH
  6
Continuous
 62
     7
370
    30
100
AcDbPoint
 10
2.19998
 20
9.070793
 30
0.0
  0
POINT
  5
239
330
6B4
100
AcDbEntity
  8
HATCH
  6
Continuous
 62
     7
370
    30
100
AcDbPoint
 10
2.23123
 20
9.070793
 30
0.0
  0
POINT
  5
23A
330
6B4
100
AcDbEntity
  8
HATCH
  6
Continuous
 62
     7
370
    30
100
AcDbPoint
 10
2.26248
 20
9.070793
 30
0.0
  0
POINT
  5
23B
330
6B4
100
AcDbEntity
  8
HATCH
  6
Continuous
 62
     7
370
    30
100
AcDbPoint
 10
2.29373
 20
9.070793
 30
0.0
  0
POINT
  5
23C
330
6B4
100
AcDbEntity
  8
HATCH
  6
Continuous
 62
     7
370
    30
100
AcDbPoint
 10
2.32498
 20
9.070793
 30
0.0
  0
POINT
  5
23D
330
6B4
100
AcDbEntity
  8
HATCH
  6
Continuous
 62
     7
370
    30
100
AcDbPoint
 10
2.35623
 20
9.070793
 30
0.0
  0
POINT
  5
23E
330
6B4
100
AcDbEntity
  8
HATCH
  6
Continuous
 62
     7
370
    30
100
AcDbPoint
 10
2.38748
 20
9.070793
 30
0.0
  0
POINT
  5
23F
330
6B4
100
AcDbEntity
  8
HATCH
  6
Continuous
 62
     7
370
    30
100
AcDbPoint
 10
2.41873
 20
9.070793
 30
0.0
  0
POINT
  5
240
330
6B4
100
AcDbEntity
  8
HATCH
  6
Continuous
 62
     7
370
    30
100
AcDbPoint
 10
2.44998
 20
9.070793
 30
0.0
  0
POINT
  5
241
330
6B4
100
AcDbEntity
  8
HATCH
  6
Continuous
 62
     7
370
    30
100
AcDbPoint
 10
2.48123
 20
9.070793
 30
0.0
  0
POINT
  5
242
330
6B4
100
AcDbEntity
  8
HATCH
  6
Continuous
 62
     7
370
    30
100
AcDbPoint
 10
2.51248
 20
9.070793
 30
0.0
  0
POINT
  5
243
330
6B4
100
AcDbEntity
  8
HATCH
  6
Continuous
 62
     7
370
    30
100
AcDbPoint
 10
2.54373
 20
9.070793
 30
0.0
  0
POINT
  5
244
330
6B4
100
AcDbEntity
  8
HATCH
  6
Continuous
 62
     7
370
    30
100
AcDbPoint
 10
1.590605
 20
8.602043
 30
0.0
  0
POINT
  5
245
330
6B4
100
AcDbEntity
  8
HATCH
  6
Continuous
 62
     7
370
    30
100
AcDbPoint
 10
1.621855
 20
8.602043
 30
0.0
  0
POINT
  5
246
330
6B4
100
AcDbEntity
  8
HATCH
  6
Continuous
 62
     7
370
    30
100
AcDbPoint
 10
1.653105
 20
8.602043
 30
0.0
  0
POINT
  5
247
330
6B4
100
AcDbEntity
  8
HATCH
  6
Continuous
 62
     7
370
    30
100
AcDbPoint
 10
1.684355
 20
8.602043
 30
0.0
  0
POINT
  5
248
330
6B4
100
AcDbEntity
  8
HATCH
  6
Continuous
 62
     7
370
    30
100
AcDbPoint
 10
1.715605
 20
8.602043
 30
0.0
  0
POINT
  5
249
330
6B4
100
AcDbEntity
  8
HATCH
  6
Continuous
 62
     7
370
    30
100
AcDbPoint
 10
1.746855
 20
8.602043
 30
0.0
  0
POINT
  5
24A
330
6B4
100
AcDbEntity
  8
HATCH
  6
Continuous
 62
     7
370
    30
100
AcDbPoint
 10
1.778105
 20
8.602043
 30
0.0
  0
POINT
  5
24B
330
6B4
100
AcDbEntity
  8
HATCH
  6
Continuous
 62
     7
370
    30
100
AcDbPoint
 10
1.809355
 20
8.602043
 30
0.0
  0
POINT
  5
24C
330
6B4
100
AcDbEntity
  8
HATCH
  6
Continuous
 62
     7
370
    30
100
AcDbPoint
 10
1.840605
 20
8.602043
 30
0.0
  0
POINT
  5
24D
330
6B4
100
AcDbEntity
  8
HATCH
  6
Continuous
 62
     7
370
    30
100
AcDbPoint
 10
1.871855
 20
8.602043
 30
0.0
  0
POINT
  5
24E
330
6B4
100
AcDbEntity
  8
HATCH
  6
Continuous
 62
     7
370
    30
100
AcDbPoint
 10
1.903105
 20
8.602043
 30
0.0
  0
POINT
  5
24F
330
6B4
100
AcDbEntity
  8
HATCH
  6
Continuous
 62
     7
370
    30
100
AcDbPoint
 10
1.934355
 20
8.602043
 30
0.0
  0
POINT
  5
250
330
6B4
100
AcDbEntity
  8
HATCH
  6
Continuous
 62
     7
370
    30
100
AcDbPoint
 10
1.965605
 20
8.602043
 30
0.0
  0
POINT
  5
251
330
6B4
100
AcDbEntity
  8
HATCH
  6
Continuous
 62
     7
370
    30
100
AcDbPoint
 10
1.996855
 20
8.602043
 30
0.0
  0
POINT
  5
252
330
6B4
100
AcDbEntity
  8
HATCH
  6
Continuous
 62
     7
370
    30
100
AcDbPoint
 10
2.028105
 20
8.602043
 30
0.0
  0
POINT
  5
253
330
6B4
100
AcDbEntity
  8
HATCH
  6
Continuous
 62
     7
370
    30
100
AcDbPoint
 10
2.059355
 20
8.602043
 30
0.0
  0
POINT
  5
254
330
6B4
100
AcDbEntity
  8
HATCH
  6
Continuous
 62
     7
370
    30
100
AcDbPoint
 10
2.090605
 20
8.602043
 30
0.0
  0
POINT
  5
255
330
6B4
100
AcDbEntity
  8
HATCH
  6
Continuous
 62
     7
370
    30
100
AcDbPoint
 10
2.121855
 20
8.602043
 30
0.0
  0
POINT
  5
256
330
6B4
100
AcDbEntity
  8
HATCH
  6
Continuous
 62
     7
370
    30
100
AcDbPoint
 10
2.153105
 20
8.602043
 30
0.0
  0
POINT
  5
257
330
6B4
100
AcDbEntity
  8
HATCH
  6
Continuous
 62
     7
370
    30
100
AcDbPoint
 10
2.184355
 20
8.602043
 30
0.0
  0
POINT
  5
258
330
6B4
100
AcDbEntity
  8
HATCH
  6
Continuous
 62
     7
370
    30
100
AcDbPoint
 10
2.215605
 20
8.602043
 30
0.0
  0
POINT
  5
259
330
6B4
100
AcDbEntity
  8
HATCH
  6
Continuous
 62
     7
370
    30
100
AcDbPoint
 10
1.57498
 20
8.570793
 30
0.0
  0
POINT
  5
25A
330
6B4
100
AcDbEntity
  8
HATCH
  6
Continuous
 62
     7
370
    30
100
AcDbPoint
 10
1.60623
 20
8.570793
 30
0.0
  0
POINT
  5
25B
330
6B4
100
AcDbEntity
  8
HATCH
  6
Continuous
 62
     7
370
    30
100
AcDbPoint
 10
1.63748
 20
8.570793
 30
0.0
  0
POINT
  5
25C
330
6B4
100
AcDbEntity
  8
HATCH
  6
Continuous
 62
     7
370
    30
100
AcDbPoint
 10
1.66873
 20
8.570793
 30
0.0
  0
POINT
  5
25D
330
6B4
100
AcDbEntity
  8
HATCH
  6
Continuous
 62
     7
370
    30
100
AcDbPoint
 10
1.69998
 20
8.570793
 30
0.0
  0
POINT
  5
25E
330
6B4
100
AcDbEntity
  8
HATCH
  6
Continuous
 62
     7
370
    30
100
AcDbPoint
 10
1.73123
 20
8.570793
 30
0.0
  0
POINT
  5
25F
330
6B4
100
AcDbEntity
  8
HATCH
  6
Continuous
 62
     7
370
    30
100
AcDbPoint
 10
1.76248
 20
8.570793
 30
0.0
  0
POINT
  5
260
330
6B4
100
AcDbEntity
  8
HATCH
  6
Continuous
 62
     7
370
    30
100
AcDbPoint
 10
1.79373
 20
8.570793
 30
0.0
  0
POINT
  5
261
330
6B4
100
AcDbEntity
  8
HATCH
  6
Continuous
 62
     7
370
    30
100
AcDbPoint
 10
1.82498
 20
8.570793
 30
0.0
  0
POINT
  5
262
330
6B4
100
AcDbEntity
  8
HATCH
  6
Continuous
 62
     7
370
    30
100
AcDbPoint
 10
1.85623
 20
8.570793
 30
0.0
  0
POINT
  5
263
330
6B4
100
AcDbEntity
  8
HATCH
  6
Continuous
 62
     7
370
    30
100
AcDbPoint
 10
1.88748
 20
8.570793
 30
0.0
  0
POINT
  5
264
330
6B4
100
AcDbEntity
  8
HATCH
  6
Continuous
 62
     7
370
    30
100
AcDbPoint
 10
1.91873
 20
8.570793
 30
0.0
  0
POINT
  5
265
330
6B4
100
AcDbEntity
  8
HATCH
  6
Continuous
 62
     7
370
    30
100
AcDbPoint
 10
1.94998
 20
8.570793
 30
0.0
  0
POINT
  5
266
330
6B4
100
AcDbEntity
  8
HATCH
  6
Continuous
 62
     7
370
    30
100
AcDbPoint
 10
1.98123
 20
8.570793
 30
0.0
  0
POINT
  5
267
330
6B4
100
AcDbEntity
  8
HATCH
  6
Continuous
 62
     7
370
    30
100
AcDbPoint
 10
2.01248
 20
8.570793
 30
0.0
  0
POINT
  5
268
330
6B4
100
AcDbEntity
  8
HATCH
  6
Continuous
 62
     7
370
    30
100
AcDbPoint
 10
2.04373
 20
8.570793
 30
0.0
  0
POINT
  5
269
330
6B4
100
AcDbEntity
  8
HATCH
  6
Continuous
 62
     7
370
    30
100
AcDbPoint
 10
2.07498
 20
8.570793
 30
0.0
  0
POINT
  5
26A
330
6B4
100
AcDbEntity
  8
HATCH
  6
Continuous
 62
     7
370
    30
100
AcDbPoint
 10
2.10623
 20
8.570793
 30
0.0
  0
POINT
  5
26B
330
6B4
100
AcDbEntity
  8
HATCH
  6
Continuous
 62
     7
370
    30
100
AcDbPoint
 10
2.13748
 20
8.570793
 30
0.0
  0
POINT
  5
26C
330
6B4
100
AcDbEntity
  8
HATCH
  6
Continuous
 62
     7
370
    30
100
AcDbPoint
 10
2.16873
 20
8.570793
 30
0.0
  0
POINT
  5
26D
330
6B4
100
AcDbEntity
  8
HATCH
  6
Continuous
 62
     7
370
    30
100
AcDbPoint
 10
2.19998
 20
8.570793
 30
0.0
  0
POINT
  5
26E
330
6B4
100
AcDbEntity
  8
HATCH
  6
Continuous
 62
     7
370
    30
100
AcDbPoint
 10
1.590605
 20
8.539543
 30
0.0
  0
POINT
  5
26F
330
6B4
100
AcDbEntity
  8
HATCH
  6
Continuous
 62
     7
370
    30
100
AcDbPoint
 10
1.621855
 20
8.539543
 30
0.0
  0
POINT
  5
270
330
6B4
100
AcDbEntity
  8
HATCH
  6
Continuous
 62
     7
370
    30
100
AcDbPoint
 10
1.653105
 20
8.539543
 30
0.0
  0
POINT
  5
271
330
6B4
100
AcDbEntity
  8
HATCH
  6
Continuous
 62
     7
370
    30
100
AcDbPoint
 10
1.684355
 20
8.539543
 30
0.0
  0
POINT
  5
272
330
6B4
100
AcDbEntity
  8
HATCH
  6
Continuous
 62
     7
370
    30
100
AcDbPoint
 10
1.715605
 20
8.539543
 30
0.0
  0
POINT
  5
273
330
6B4
100
AcDbEntity
  8
HATCH
  6
Continuous
 62
     7
370
    30
100
AcDbPoint
 10
1.746855
 20
8.539543
 30
0.0
  0
POINT
  5
274
330
6B4
100
AcDbEntity
  8
HATCH
  6
Continuous
 62
     7
370
    30
100
AcDbPoint
 10
1.778105
 20
8.539543
 30
0.0
  0
POINT
  5
275
330
6B4
100
AcDbEntity
  8
HATCH
  6
Continuous
 62
     7
370
    30
100
AcDbPoint
 10
1.809355
 20
8.539543
 30
0.0
  0
POINT
  5
276
330
6B4
100
AcDbEntity
  8
HATCH
  6
Continuous
 62
     7
370
    30
100
AcDbPoint
 10
1.840605
 20
8.539543
 30
0.0
  0
POINT
  5
277
330
6B4
100
AcDbEntity
  8
HATCH
  6
Continuous
 62
     7
370
    30
100
AcDbPoint
 10
1.871855
 20
8.539543
 30
0.0
  0
POINT
  5
278
330
6B4
100
AcDbEntity
  8
HATCH
  6
Continuous
 62
     7
370
    30
100
AcDbPoint
 10
1.903105
 20
8.539543
 30
0.0
  0
POINT
  5
279
330
6B4
100
AcDbEntity
  8
HATCH
  6
Continuous
 62
     7
370
    30
100
AcDbPoint
 10
1.934355
 20
8.539543
 30
0.0
  0
POINT
  5
27A
330
6B4
100
AcDbEntity
  8
HATCH
  6
Continuous
 62
     7
370
    30
100
AcDbPoint
 10
1.965605
 20
8.539543
 30
0.0
  0
POINT
  5
27B
330
6B4
100
AcDbEntity
  8
HATCH
  6
Continuous
 62
     7
370
    30
100
AcDbPoint
 10
1.996855
 20
8.539543
 30
0.0
  0
POINT
  5
27C
330
6B4
100
AcDbEntity
  8
HATCH
  6
Continuous
 62
     7
370
    30
100
AcDbPoint
 10
2.028105
 20
8.539543
 30
0.0
  0
POINT
  5
27D
330
6B4
100
AcDbEntity
  8
HATCH
  6
Continuous
 62
     7
370
    30
100
AcDbPoint
 10
2.059355
 20
8.539543
 30
0.0
  0
POINT
  5
27E
330
6B4
100
AcDbEntity
  8
HATCH
  6
Continuous
 62
     7
370
    30
100
AcDbPoint
 10
2.090605
 20
8.539543
 30
0.0
  0
POINT
  5
27F
330
6B4
100
AcDbEntity
  8
HATCH
  6
Continuous
 62
     7
370
    30
100
AcDbPoint
 10
2.121855
 20
8.539543
 30
0.0
  0
POINT
  5
280
330
6B4
100
AcDbEntity
  8
HATCH
  6
Continuous
 62
     7
370
    30
100
AcDbPoint
 10
2.153105
 20
8.539543
 30
0.0
  0
POINT
  5
281
330
6B4
100
AcDbEntity
  8
HATCH
  6
Continuous
 62
     7
370
    30
100
AcDbPoint
 10
2.184355
 20
8.539543
 30
0.0
  0
POINT
  5
282
330
6B4
100
AcDbEntity
  8
HATCH
  6
Continuous
 62
     7
370
    30
100
AcDbPoint
 10
2.215605
 20
8.539543
 30
0.0
  0
POINT
  5
283
330
6B4
100
AcDbEntity
  8
HATCH
  6
Continuous
 62
     7
370
    30
100
AcDbPoint
 10
1.57498
 20
8.508293
 30
0.0
  0
POINT
  5
284
330
6B4
100
AcDbEntity
  8
HATCH
  6
Continuous
 62
     7
370
    30
100
AcDbPoint
 10
1.60623
 20
8.508293
 30
0.0
  0
POINT
  5
285
330
6B4
100
AcDbEntity
  8
HATCH
  6
Continuous
 62
     7
370
    30
100
AcDbPoint
 10
1.63748
 20
8.508293
 30
0.0
  0
POINT
  5
286
330
6B4
100
AcDbEntity
  8
HATCH
  6
Continuous
 62
     7
370
    30
100
AcDbPoint
 10
1.66873
 20
8.508293
 30
0.0
  0
POINT
  5
287
330
6B4
100
AcDbEntity
  8
HATCH
  6
Continuous
 62
     7
370
    30
100
AcDbPoint
 10
1.69998
 20
8.508293
 30
0.0
  0
POINT
  5
288
330
6B4
100
AcDbEntity
  8
HATCH
  6
Continuous
 62
     7
370
    30
100
AcDbPoint
 10
1.73123
 20
8.508293
 30
0.0
  0
POINT
  5
289
330
6B4
100
AcDbEntity
  8
HATCH
  6
Continuous
 62
     7
370
    30
100
AcDbPoint
 10
1.76248
 20
8.508293
 30
0.0
  0
POINT
  5
28A
330
6B4
100
AcDbEntity
  8
HATCH
  6
Continuous
 62
     7
370
    30
100
AcDbPoint
 10
1.79373
 20
8.508293
 30
0.0
  0
POINT
  5
28B
330
6B4
100
AcDbEntity
  8
HATCH
  6
Continuous
 62
     7
370
    30
100
AcDbPoint
 10
1.82498
 20
8.508293
 30
0.0
  0
POINT
  5
28C
330
6B4
100
AcDbEntity
  8
HATCH
  6
Continuous
 62
     7
370
    30
100
AcDbPoint
 10
1.85623
 20
8.508293
 30
0.0
  0
POINT
  5
28D
330
6B4
100
AcDbEntity
  8
HATCH
  6
Continuous
 62
     7
370
    30
100
AcDbPoint
 10
1.88748
 20
8.508293
 30
0.0
  0
POINT
  5
28E
330
6B4
100
AcDbEntity
  8
HATCH
  6
Continuous
 62
     7
370
    30
100
AcDbPoint
 10
1.91873
 20
8.508293
 30
0.0
  0
POINT
  5
28F
330
6B4
100
AcDbEntity
  8
HATCH
  6
Continuous
 62
     7
370
    30
100
AcDbPoint
 10
1.94998
 20
8.508293
 30
0.0
  0
POINT
  5
290
330
6B4
100
AcDbEntity
  8
HATCH
  6
Continuous
 62
     7
370
    30
100
AcDbPoint
 10
1.98123
 20
8.508293
 30
0.0
  0
POINT
  5
291
330
6B4
100
AcDbEntity
  8
HATCH
  6
Continuous
 62
     7
370
    30
100
AcDbPoint
 10
2.01248
 20
8.508293
 30
0.0
  0
POINT
  5
292
330
6B4
100
AcDbEntity
  8
HATCH
  6
Continuous
 62
     7
370
    30
100
AcDbPoint
 10
2.04373
 20
8.508293
 30
0.0
  0
POINT
  5
293
330
6B4
100
AcDbEntity
  8
HATCH
  6
Continuous
 62
     7
370
    30
100
AcDbPoint
 10
2.07498
 20
8.508293
 30
0.0
  0
POINT
  5
294
330
6B4
100
AcDbEntity
  8
HATCH
  6
Continuous
 62
     7
370
    30
100
AcDbPoint
 10
2.10623
 20
8.508293
 30
0.0
  0
POINT
  5
295
330
6B4
100
AcDbEntity
  8
HATCH
  6
Continuous
 62
     7
370
    30
100
AcDbPoint
 10
2.13748
 20
8.508293
 30
0.0
  0
POINT
  5
296
330
6B4
100
AcDbEntity
  8
HATCH
  6
Continuous
 62
     7
370
    30
100
AcDbPoint
 10
2.16873
 20
8.508293
 30
0.0
  0
POINT
  5
297
330
6B4
100
AcDbEntity
  8
HATCH
  6
Continuous
 62
     7
370
    30
100
AcDbPoint
 10
2.19998
 20
8.508293
 30
0.0
  0
POINT
  5
298
330
6B4
100
AcDbEntity
  8
HATCH
  6
Continuous
 62
     7
370
    30
100
AcDbPoint
 10
1.590605
 20
8.477043
 30
0.0
  0
POINT
  5
299
330
6B4
100
AcDbEntity
  8
HATCH
  6
Continuous
 62
     7
370
    30
100
AcDbPoint
 10
1.621855
 20
8.477043
 30
0.0
  0
POINT
  5
29A
330
6B4
100
AcDbEntity
  8
HATCH
  6
Continuous
 62
     7
370
    30
100
AcDbPoint
 10
1.653105
 20
8.477043
 30
0.0
  0
POINT
  5
29B
330
6B4
100
AcDbEntity
  8
HATCH
  6
Continuous
 62
     7
370
    30
100
AcDbPoint
 10
1.684355
 20
8.477043
 30
0.0
  0
POINT
  5
29C
330
6B4
100
AcDbEntity
  8
HATCH
  6
Continuous
 62
     7
370
    30
100
AcDbPoint
 10
1.715605
 20
8.477043
 30
0.0
  0
POINT
  5
29D
330
6B4
100
AcDbEntity
  8
HATCH
  6
Continuous
 62
     7
370
    30
100
AcDbPoint
 10
1.746855
 20
8.477043
 30
0.0
  0
POINT
  5
29E
330
6B4
100
AcDbEntity
  8
HATCH
  6
Continuous
 62
     7
370
    30
100
AcDbPoint
 10
1.778105
 20
8.477043
 30
0.0
  0
POINT
  5
29F
330
6B4
100
AcDbEntity
  8
HATCH
  6
Continuous
 62
     7
370
    30
100
AcDbPoint
 10
1.809355
 20
8.477043
 30
0.0
  0
POINT
  5
2A0
330
6B4
100
AcDbEntity
  8
HATCH
  6
Continuous
 62
     7
370
    30
100
AcDbPoint
 10
1.840605
 20
8.477043
 30
0.0
  0
POINT
  5
2A1
330
6B4
100
AcDbEntity
  8
HATCH
  6
Continuous
 62
     7
370
    30
100
AcDbPoint
 10
1.871855
 20
8.477043
 30
0.0
  0
POINT
  5
2A2
330
6B4
100
AcDbEntity
  8
HATCH
  6
Continuous
 62
     7
370
    30
100
AcDbPoint
 10
1.903105
 20
8.477043
 30
0.0
  0
POINT
  5
2A3
330
6B4
100
AcDbEntity
  8
HATCH
  6
Continuous
 62
     7
370
    30
100
AcDbPoint
 10
1.934355
 20
8.477043
 30
0.0
  0
POINT
  5
2A4
330
6B4
100
AcDbEntity
  8
HATCH
  6
Continuous
 62
     7
370
    30
100
AcDbPoint
 10
1.965605
 20
8.477043
 30
0.0
  0
POINT
  5
2A5
330
6B4
100
AcDbEntity
  8
HATCH
  6
Continuous
 62
     7
370
    30
100
AcDbPoint
 10
1.996855
 20
8.477043
 30
0.0
  0
POINT
  5
2A6
330
6B4
100
AcDbEntity
  8
HATCH
  6
Continuous
 62
     7
370
    30
100
AcDbPoint
 10
2.028105
 20
8.477043
 30
0.0
  0
POINT
  5
2A7
330
6B4
100
AcDbEntity
  8
HATCH
  6
Continuous
 62
     7
370
    30
100
AcDbPoint
 10
2.059355
 20
8.477043
 30
0.0
  0
POINT
  5
2A8
330
6B4
100
AcDbEntity
  8
HATCH
  6
Continuous
 62
     7
370
    30
100
AcDbPoint
 10
2.090605
 20
8.477043
 30
0.0
  0
POINT
  5
2A9
330
6B4
100
AcDbEntity
  8
HATCH
  6
Continuous
 62
     7
370
    30
100
AcDbPoint
 10
2.121855
 20
8.477043
 30
0.0
  0
POINT
  5
2AA
330
6B4
100
AcDbEntity
  8
HATCH
  6
Continuous
 62
     7
370
    30
100
AcDbPoint
 10
2.153105
 20
8.477043
 30
0.0
  0
POINT
  5
2AB
330
6B4
100
AcDbEntity
  8
HATCH
  6
Continuous
 62
     7
370
    30
100
AcDbPoint
 10
2.184355
 20
8.477043
 30
0.0
  0
POINT
  5
2AC
330
6B4
100
AcDbEntity
  8
HATCH
  6
Continuous
 62
     7
370
    30
100
AcDbPoint
 10
2.215605
 20
8.477043
 30
0.0
  0
POINT
  5
2AD
330
6B4
100
AcDbEntity
  8
HATCH
  6
Continuous
 62
     7
370
    30
100
AcDbPoint
 10
1.57498
 20
8.445793
 30
0.0
  0
POINT
  5
2AE
330
6B4
100
AcDbEntity
  8
HATCH
  6
Continuous
 62
     7
370
    30
100
AcDbPoint
 10
1.60623
 20
8.445793
 30
0.0
  0
POINT
  5
2AF
330
6B4
100
AcDbEntity
  8
HATCH
  6
Continuous
 62
     7
370
    30
100
AcDbPoint
 10
1.63748
 20
8.445793
 30
0.0
  0
POINT
  5
2B0
330
6B4
100
AcDbEntity
  8
HATCH
  6
Continuous
 62
     7
370
    30
100
AcDbPoint
 10
1.66873
 20
8.445793
 30
0.0
  0
POINT
  5
2B1
330
6B4
100
AcDbEntity
  8
HATCH
  6
Continuous
 62
     7
370
    30
100
AcDbPoint
 10
1.69998
 20
8.445793
 30
0.0
  0
POINT
  5
2B2
330
6B4
100
AcDbEntity
  8
HATCH
  6
Continuous
 62
     7
370
    30
100
AcDbPoint
 10
1.73123
 20
8.445793
 30
0.0
  0
POINT
  5
2B3
330
6B4
100
AcDbEntity
  8
HATCH
  6
Continuous
 62
     7
370
    30
100
AcDbPoint
 10
1.76248
 20
8.445793
 30
0.0
  0
POINT
  5
2B4
330
6B4
100
AcDbEntity
  8
HATCH
  6
Continuous
 62
     7
370
    30
100
AcDbPoint
 10
1.79373
 20
8.445793
 30
0.0
  0
POINT
  5
2B5
330
6B4
100
AcDbEntity
  8
HATCH
  6
Continuous
 62
     7
370
    30
100
AcDbPoint
 10
1.82498
 20
8.445793
 30
0.0
  0
POINT
  5
2B6
330
6B4
100
AcDbEntity
  8
HATCH
  6
Continuous
 62
     7
370
    30
100
AcDbPoint
 10
1.85623
 20
8.445793
 30
0.0
  0
POINT
  5
2B7
330
6B4
100
AcDbEntity
  8
HATCH
  6
Continuous
 62
     7
370
    30
100
AcDbPoint
 10
1.88748
 20
8.445793
 30
0.0
  0
POINT
  5
2B8
330
6B4
100
AcDbEntity
  8
HATCH
  6
Continuous
 62
     7
370
    30
100
AcDbPoint
 10
1.91873
 20
8.445793
 30
0.0
  0
POINT
  5
2B9
330
6B4
100
AcDbEntity
  8
HATCH
  6
Continuous
 62
     7
370
    30
100
AcDbPoint
 10
1.94998
 20
8.445793
 30
0.0
  0
POINT
  5
2BA
330
6B4
100
AcDbEntity
  8
HATCH
  6
Continuous
 62
     7
370
    30
100
AcDbPoint
 10
1.98123
 20
8.445793
 30
0.0
  0
POINT
  5
2BB
330
6B4
100
AcDbEntity
  8
HATCH
  6
Continuous
 62
     7
370
    30
100
AcDbPoint
 10
2.01248
 20
8.445793
 30
0.0
  0
POINT
  5
2BC
330
6B4
100
AcDbEntity
  8
HATCH
  6
Continuous
 62
     7
370
    30
100
AcDbPoint
 10
2.04373
 20
8.445793
 30
0.0
  0
POINT
  5
2BD
330
6B4
100
AcDbEntity
  8
HATCH
  6
Continuous
 62
     7
370
    30
100
AcDbPoint
 10
2.07498
 20
8.445793
 30
0.0
  0
POINT
  5
2BE
330
6B4
100
AcDbEntity
  8
HATCH
  6
Continuous
 62
     7
370
    30
100
AcDbPoint
 10
2.10623
 20
8.445793
 30
0.0
  0
POINT
  5
2BF
330
6B4
100
AcDbEntity
  8
HATCH
  6
Continuous
 62
     7
370
    30
100
AcDbPoint
 10
2.13748
 20
8.445793
 30
0.0
  0
POINT
  5
2C0
330
6B4
100
AcDbEntity
  8
HATCH
  6
Continuous
 62
     7
370
    30
100
AcDbPoint
 10
2.16873
 20
8.445793
 30
0.0
  0
POINT
  5
2C1
330
6B4
100
AcDbEntity
  8
HATCH
  6
Continuous
 62
     7
370
    30
100
AcDbPoint
 10
2.19998
 20
8.445793
 30
0.0
  0
POINT
  5
2C2
330
6B4
100
AcDbEntity
  8
HATCH
  6
Continuous
 62
     7
370
    30
100
AcDbPoint
 10
1.590605
 20
8.414543
 30
0.0
  0
POINT
  5
2C3
330
6B4
100
AcDbEntity
  8
HATCH
  6
Continuous
 62
     7
370
    30
100
AcDbPoint
 10
1.621855
 20
8.414543
 30
0.0
  0
POINT
  5
2C4
330
6B4
100
AcDbEntity
  8
HATCH
  6
Continuous
 62
     7
370
    30
100
AcDbPoint
 10
1.653105
 20
8.414543
 30
0.0
  0
POINT
  5
2C5
330
6B4
100
AcDbEntity
  8
HATCH
  6
Continuous
 62
     7
370
    30
100
AcDbPoint
 10
1.684355
 20
8.414543
 30
0.0
  0
POINT
  5
2C6
330
6B4
100
AcDbEntity
  8
HATCH
  6
Continuous
 62
     7
370
    30
100
AcDbPoint
 10
1.715605
 20
8.414543
 30
0.0
  0
POINT
  5
2C7
330
6B4
100
AcDbEntity
  8
HATCH
  6
Continuous
 62
     7
370
    30
100
AcDbPoint
 10
1.746855
 20
8.414543
 30
0.0
  0
POINT
  5
2C8
330
6B4
100
AcDbEntity
  8
HATCH
  6
Continuous
 62
     7
370
    30
100
AcDbPoint
 10
1.778105
 20
8.414543
 30
0.0
  0
POINT
  5
2C9
330
6B4
100
AcDbEntity
  8
HATCH
  6
Continuous
 62
     7
370
    30
100
AcDbPoint
 10
1.809355
 20
8.414543
 30
0.0
  0
POINT
  5
2CA
330
6B4
100
AcDbEntity
  8
HATCH
  6
Continuous
 62
     7
370
    30
100
AcDbPoint
 10
1.840605
 20
8.414543
 30
0.0
  0
POINT
  5
2CB
330
6B4
100
AcDbEntity
  8
HATCH
  6
Continuous
 62
     7
370
    30
100
AcDbPoint
 10
1.871855
 20
8.414543
 30
0.0
  0
POINT
  5
2CC
330
6B4
100
AcDbEntity
  8
HATCH
  6
Continuous
 62
     7
370
    30
100
AcDbPoint
 10
1.903105
 20
8.414543
 30
0.0
  0
POINT
  5
2CD
330
6B4
100
AcDbEntity
  8
HATCH
  6
Continuous
 62
     7
370
    30
100
AcDbPoint
 10
1.934355
 20
8.414543
 30
0.0
  0
POINT
  5
2CE
330
6B4
100
AcDbEntity
  8
HATCH
  6
Continuous
 62
     7
370
    30
100
AcDbPoint
 10
1.965605
 20
8.414543
 30
0.0
  0
POINT
  5
2CF
330
6B4
100
AcDbEntity
  8
HATCH
  6
Continuous
 62
     7
370
    30
100
AcDbPoint
 10
1.996855
 20
8.414543
 30
0.0
  0
POINT
  5
2D0
330
6B4
100
AcDbEntity
  8
HATCH
  6
Continuous
 62
     7
370
    30
100
AcDbPoint
 10
2.028105
 20
8.414543
 30
0.0
  0
POINT
  5
2D1
330
6B4
100
AcDbEntity
  8
HATCH
  6
Continuous
 62
     7
370
    30
100
AcDbPoint
 10
2.059355
 20
8.414543
 30
0.0
  0
POINT
  5
2D2
330
6B4
100
AcDbEntity
  8
HATCH
  6
Continuous
 62
     7
370
    30
100
AcDbPoint
 10
2.090605
 20
8.414543
 30
0.0
  0
POINT
  5
2D3
330
6B4
100
AcDbEntity
  8
HATCH
  6
Continuous
 62
     7
370
    30
100
AcDbPoint
 10
2.121855
 20
8.414543
 30
0.0
  0
POINT
  5
2D4
330
6B4
100
AcDbEntity
  8
HATCH
  6
Continuous
 62
     7
370
    30
100
AcDbPoint
 10
2.153105
 20
8.414543
 30
0.0
  0
POINT
  5
2D5
330
6B4
100
AcDbEntity
  8
HATCH
  6
Continuous
 62
     7
370
    30
100
AcDbPoint
 10
2.184355
 20
8.414543
 30
0.0
  0
POINT
  5
2D6
330
6B4
100
AcDbEntity
  8
HATCH
  6
Continuous
 62
     7
370
    30
100
AcDbPoint
 10
2.215605
 20
8.414543
 30
0.0
  0
POINT
  5
2D7
330
6B4
100
AcDbEntity
  8
HATCH
  6
Continuous
 62
     7
370
    30
100
AcDbPoint
 10
1.57498
 20
8.383293
 30
0.0
  0
POINT
  5
2D8
330
6B4
100
AcDbEntity
  8
HATCH
  6
Continuous
 62
     7
370
    30
100
AcDbPoint
 10
1.60623
 20
8.383293
 30
0.0
  0
POINT
  5
2D9
330
6B4
100
AcDbEntity
  8
HATCH
  6
Continuous
 62
     7
370
    30
100
AcDbPoint
 10
1.63748
 20
8.383293
 30
0.0
  0
POINT
  5
2DA
330
6B4
100
AcDbEntity
  8
HATCH
  6
Continuous
 62
     7
370
    30
100
AcDbPoint
 10
1.66873
 20
8.383293
 30
0.0
  0
POINT
  5
2DB
330
6B4
100
AcDbEntity
  8
HATCH
  6
Continuous
 62
     7
370
    30
100
AcDbPoint
 10
1.69998
 20
8.383293
 30
0.0
  0
POINT
  5
2DC
330
6B4
100
AcDbEntity
  8
HATCH
  6
Continuous
 62
     7
370
    30
100
AcDbPoint
 10
1.73123
 20
8.383293
 30
0.0
  0
POINT
  5
2DD
330
6B4
100
AcDbEntity
  8
HATCH
  6
Continuous
 62
     7
370
    30
100
AcDbPoint
 10
1.76248
 20
8.383293
 30
0.0
  0
POINT
  5
2DE
330
6B4
100
AcDbEntity
  8
HATCH
  6
Continuous
 62
     7
370
    30
100
AcDbPoint
 10
1.79373
 20
8.383293
 30
0.0
  0
POINT
  5
2DF
330
6B4
100
AcDbEntity
  8
HATCH
  6
Continuous
 62
     7
370
    30
100
AcDbPoint
 10
1.82498
 20
8.383293
 30
0.0
  0
POINT
  5
2E0
330
6B4
100
AcDbEntity
  8
HATCH
  6
Continuous
 62
     7
370
    30
100
AcDbPoint
 10
1.85623
 20
8.383293
 30
0.0
  0
POINT
  5
2E1
330
6B4
100
AcDbEntity
  8
HATCH
  6
Continuous
 62
     7
370
    30
100
AcDbPoint
 10
1.88748
 20
8.383293
 30
0.0
  0
POINT
  5
2E2
330
6B4
100
AcDbEntity
  8
HATCH
  6
Continuous
 62
     7
370
    30
100
AcDbPoint
 10
1.91873
 20
8.383293
 30
0.0
  0
POINT
  5
2E3
330
6B4
100
AcDbEntity
  8
HATCH
  6
Continuous
 62
     7
370
    30
100
AcDbPoint
 10
1.94998
 20
8.383293
 30
0.0
  0
POINT
  5
2E4
330
6B4
100
AcDbEntity
  8
HATCH
  6
Continuous
 62
     7
370
    30
100
AcDbPoint
 10
1.98123
 20
8.383293
 30
0.0
  0
POINT
  5
2E5
330
6B4
100
AcDbEntity
  8
HATCH
  6
Continuous
 62
     7
370
    30
100
AcDbPoint
 10
2.01248
 20
8.383293
 30
0.0
  0
POINT
  5
2E6
330
6B4
100
AcDbEntity
  8
HATCH
  6
Continuous
 62
     7
370
    30
100
AcDbPoint
 10
2.04373
 20
8.383293
 30
0.0
  0
POINT
  5
2E7
330
6B4
100
AcDbEntity
  8
HATCH
  6
Continuous
 62
     7
370
    30
100
AcDbPoint
 10
2.07498
 20
8.383293
 30
0.0
  0
POINT
  5
2E8
330
6B4
100
AcDbEntity
  8
HATCH
  6
Continuous
 62
     7
370
    30
100
AcDbPoint
 10
2.10623
 20
8.383293
 30
0.0
  0
POINT
  5
2E9
330
6B4
100
AcDbEntity
  8
HATCH
  6
Continuous
 62
     7
370
    30
100
AcDbPoint
 10
2.13748
 20
8.383293
 30
0.0
  0
POINT
  5
2EA
330
6B4
100
AcDbEntity
  8
HATCH
  6
Continuous
 62
     7
370
    30
100
AcDbPoint
 10
2.16873
 20
8.383293
 30
0.0
  0
POINT
  5
2EB
330
6B4
100
AcDbEntity
  8
HATCH
  6
Continuous
 62
     7
370
    30
100
AcDbPoint
 10
2.19998
 20
8.383293
 30
0.0
  0
POINT
  5
2EC
330
6B4
100
AcDbEntity
  8
HATCH
  6
Continuous
 62
     7
370
    30
100
AcDbPoint
 10
2.23123
 20
8.383293
 30
0.0
  0
POINT
  5
2ED
330
6B4
100
AcDbEntity
  8
HATCH
  6
Continuous
 62
     7
370
    30
100
AcDbPoint
 10
1.590605
 20
8.352043
 30
0.0
  0
POINT
  5
2EE
330
6B4
100
AcDbEntity
  8
HATCH
  6
Continuous
 62
     7
370
    30
100
AcDbPoint
 10
1.621855
 20
8.352043
 30
0.0
  0
POINT
  5
2EF
330
6B4
100
AcDbEntity
  8
HATCH
  6
Continuous
 62
     7
370
    30
100
AcDbPoint
 10
1.653105
 20
8.352043
 30
0.0
  0
POINT
  5
2F0
330
6B4
100
AcDbEntity
  8
HATCH
  6
Continuous
 62
     7
370
    30
100
AcDbPoint
 10
1.684355
 20
8.352043
 30
0.0
  0
POINT
  5
2F1
330
6B4
100
AcDbEntity
  8
HATCH
  6
Continuous
 62
     7
370
    30
100
AcDbPoint
 10
1.715605
 20
8.352043
 30
0.0
  0
POINT
  5
2F2
330
6B4
100
AcDbEntity
  8
HATCH
  6
Continuous
 62
     7
370
    30
100
AcDbPoint
 10
1.746855
 20
8.352043
 30
0.0
  0
POINT
  5
2F3
330
6B4
100
AcDbEntity
  8
HATCH
  6
Continuous
 62
     7
370
    30
100
AcDbPoint
 10
1.778105
 20
8.352043
 30
0.0
  0
POINT
  5
2F4
330
6B4
100
AcDbEntity
  8
HATCH
  6
Continuous
 62
     7
370
    30
100
AcDbPoint
 10
1.809355
 20
8.352043
 30
0.0
  0
POINT
  5
2F5
330
6B4
100
AcDbEntity
  8
HATCH
  6
Continuous
 62
     7
370
    30
100
AcDbPoint
 10
1.840605
 20
8.352043
 30
0.0
  0
POINT
  5
2F6
330
6B4
100
AcDbEntity
  8
HATCH
  6
Continuous
 62
     7
370
    30
100
AcDbPoint
 10
1.871855
 20
8.352043
 30
0.0
  0
POINT
  5
2F7
330
6B4
100
AcDbEntity
  8
HATCH
  6
Continuous
 62
     7
370
    30
100
AcDbPoint
 10
1.903105
 20
8.352043
 30
0.0
  0
POINT
  5
2F8
330
6B4
100
AcDbEntity
  8
HATCH
  6
Continuous
 62
     7
370
    30
100
AcDbPoint
 10
1.934355
 20
8.352043
 30
0.0
  0
POINT
  5
2F9
330
6B4
100
AcDbEntity
  8
HATCH
  6
Continuous
 62
     7
370
    30
100
AcDbPoint
 10
1.965605
 20
8.352043
 30
0.0
  0
POINT
  5
2FA
330
6B4
100
AcDbEntity
  8
HATCH
  6
Continuous
 62
     7
370
    30
100
AcDbPoint
 10
1.996855
 20
8.352043
 30
0.0
  0
POINT
  5
2FB
330
6B4
100
AcDbEntity
  8
HATCH
  6
Continuous
 62
     7
370
    30
100
AcDbPoint
 10
2.028105
 20
8.352043
 30
0.0
  0
POINT
  5
2FC
330
6B4
100
AcDbEntity
  8
HATCH
  6
Continuous
 62
     7
370
    30
100
AcDbPoint
 10
2.059355
 20
8.352043
 30
0.0
  0
POINT
  5
2FD
330
6B4
100
AcDbEntity
  8
HATCH
  6
Continuous
 62
     7
370
    30
100
AcDbPoint
 10
2.090605
 20
8.352043
 30
0.0
  0
POINT
  5
2FE
330
6B4
100
AcDbEntity
  8
HATCH
  6
Continuous
 62
     7
370
    30
100
AcDbPoint
 10
2.121855
 20
8.352043
 30
0.0
  0
POINT
  5
2FF
330
6B4
100
AcDbEntity
  8
HATCH
  6
Continuous
 62
     7
370
    30
100
AcDbPoint
 10
2.153105
 20
8.352043
 30
0.0
  0
POINT
  5
300
330
6B4
100
AcDbEntity
  8
HATCH
  6
Continuous
 62
     7
370
    30
100
AcDbPoint
 10
2.184355
 20
8.352043
 30
0.0
  0
POINT
  5
301
330
6B4
100
AcDbEntity
  8
HATCH
  6
Continuous
 62
     7
370
    30
100
AcDbPoint
 10
2.215605
 20
8.352043
 30
0.0
  0
POINT
  5
302
330
6B4
100
AcDbEntity
  8
HATCH
  6
Continuous
 62
     7
370
    30
100
AcDbPoint
 10
1.57498
 20
8.320793
 30
0.0
  0
POINT
  5
303
330
6B4
100
AcDbEntity
  8
HATCH
  6
Continuous
 62
     7
370
    30
100
AcDbPoint
 10
1.60623
 20
8.320793
 30
0.0
  0
POINT
  5
304
330
6B4
100
AcDbEntity
  8
HATCH
  6
Continuous
 62
     7
370
    30
100
AcDbPoint
 10
1.63748
 20
8.320793
 30
0.0
  0
POINT
  5
305
330
6B4
100
AcDbEntity
  8
HATCH
  6
Continuous
 62
     7
370
    30
100
AcDbPoint
 10
1.66873
 20
8.320793
 30
0.0
  0
POINT
  5
306
330
6B4
100
AcDbEntity
  8
HATCH
  6
Continuous
 62
     7
370
    30
100
AcDbPoint
 10
1.69998
 20
8.320793
 30
0.0
  0
POINT
  5
307
330
6B4
100
AcDbEntity
  8
HATCH
  6
Continuous
 62
     7
370
    30
100
AcDbPoint
 10
1.73123
 20
8.320793
 30
0.0
  0
POINT
  5
308
330
6B4
100
AcDbEntity
  8
HATCH
  6
Continuous
 62
     7
370
    30
100
AcDbPoint
 10
1.76248
 20
8.320793
 30
0.0
  0
POINT
  5
309
330
6B4
100
AcDbEntity
  8
HATCH
  6
Continuous
 62
     7
370
    30
100
AcDbPoint
 10
1.79373
 20
8.320793
 30
0.0
  0
POINT
  5
30A
330
6B4
100
AcDbEntity
  8
HATCH
  6
Continuous
 62
     7
370
    30
100
AcDbPoint
 10
1.82498
 20
8.320793
 30
0.0
  0
POINT
  5
30B
330
6B4
100
AcDbEntity
  8
HATCH
  6
Continuous
 62
     7
370
    30
100
AcDbPoint
 10
1.85623
 20
8.320793
 30
0.0
  0
POINT
  5
30C
330
6B4
100
AcDbEntity
  8
HATCH
  6
Continuous
 62
     7
370
    30
100
AcDbPoint
 10
1.88748
 20
8.320793
 30
0.0
  0
POINT
  5
30D
330
6B4
100
AcDbEntity
  8
HATCH
  6
Continuous
 62
     7
370
    30
100
AcDbPoint
 10
1.91873
 20
8.320793
 30
0.0
  0
POINT
  5
30E
330
6B4
100
AcDbEntity
  8
HATCH
  6
Continuous
 62
     7
370
    30
100
AcDbPoint
 10
1.94998
 20
8.320793
 30
0.0
  0
POINT
  5
30F
330
6B4
100
AcDbEntity
  8
HATCH
  6
Continuous
 62
     7
370
    30
100
AcDbPoint
 10
1.98123
 20
8.320793
 30
0.0
  0
POINT
  5
310
330
6B4
100
AcDbEntity
  8
HATCH
  6
Continuous
 62
     7
370
    30
100
AcDbPoint
 10
2.01248
 20
8.320793
 30
0.0
  0
POINT
  5
311
330
6B4
100
AcDbEntity
  8
HATCH
  6
Continuous
 62
     7
370
    30
100
AcDbPoint
 10
2.04373
 20
8.320793
 30
0.0
  0
POINT
  5
312
330
6B4
100
AcDbEntity
  8
HATCH
  6
Continuous
 62
     7
370
    30
100
AcDbPoint
 10
2.07498
 20
8.320793
 30
0.0
  0
POINT
  5
313
330
6B4
100
AcDbEntity
  8
HATCH
  6
Continuous
 62
     7
370
    30
100
AcDbPoint
 10
2.10623
 20
8.320793
 30
0.0
  0
POINT
  5
314
330
6B4
100
AcDbEntity
  8
HATCH
  6
Continuous
 62
     7
370
    30
100
AcDbPoint
 10
2.13748
 20
8.320793
 30
0.0
  0
POINT
  5
315
330
6B4
100
AcDbEntity
  8
HATCH
  6
Continuous
 62
     7
370
    30
100
AcDbPoint
 10
2.19998
 20
8.320793
 30
0.0
  0
POINT
  5
316
330
6B4
100
AcDbEntity
  8
HATCH
  6
Continuous
 62
     7
370
    30
100
AcDbPoint
 10
2.23123
 20
8.320793
 30
0.0
  0
POINT
  5
317
330
6B4
100
AcDbEntity
  8
HATCH
  6
Continuous
 62
     7
370
    30
100
AcDbPoint
 10
2.26248
 20
8.320793
 30
0.0
  0
POINT
  5
318
330
6B4
100
AcDbEntity
  8
HATCH
  6
Continuous
 62
     7
370
    30
100
AcDbPoint
 10
1.590605
 20
8.289543
 30
0.0
  0
POINT
  5
319
330
6B4
100
AcDbEntity
  8
HATCH
  6
Continuous
 62
     7
370
    30
100
AcDbPoint
 10
1.621855
 20
8.289543
 30
0.0
  0
POINT
  5
31A
330
6B4
100
AcDbEntity
  8
HATCH
  6
Continuous
 62
     7
370
    30
100
AcDbPoint
 10
1.653105
 20
8.289543
 30
0.0
  0
POINT
  5
31B
330
6B4
100
AcDbEntity
  8
HATCH
  6
Continuous
 62
     7
370
    30
100
AcDbPoint
 10
1.684355
 20
8.289543
 30
0.0
  0
POINT
  5
31C
330
6B4
100
AcDbEntity
  8
HATCH
  6
Continuous
 62
     7
370
    30
100
AcDbPoint
 10
1.715605
 20
8.289543
 30
0.0
  0
POINT
  5
31D
330
6B4
100
AcDbEntity
  8
HATCH
  6
Continuous
 62
     7
370
    30
100
AcDbPoint
 10
1.746855
 20
8.289543
 30
0.0
  0
POINT
  5
31E
330
6B4
100
AcDbEntity
  8
HATCH
  6
Continuous
 62
     7
370
    30
100
AcDbPoint
 10
1.778105
 20
8.289543
 30
0.0
  0
POINT
  5
31F
330
6B4
100
AcDbEntity
  8
HATCH
  6
Continuous
 62
     7
370
    30
100
AcDbPoint
 10
1.809355
 20
8.289543
 30
0.0
  0
POINT
  5
320
330
6B4
100
AcDbEntity
  8
HATCH
  6
Continuous
 62
     7
370
    30
100
AcDbPoint
 10
1.840605
 20
8.289543
 30
0.0
  0
POINT
  5
321
330
6B4
100
AcDbEntity
  8
HATCH
  6
Continuous
 62
     7
370
    30
100
AcDbPoint
 10
1.871855
 20
8.289543
 30
0.0
  0
POINT
  5
322
330
6B4
100
AcDbEntity
  8
HATCH
  6
Continuous
 62
     7
370
    30
100
AcDbPoint
 10
1.903105
 20
8.289543
 30
0.0
  0
POINT
  5
323
330
6B4
100
AcDbEntity
  8
HATCH
  6
Continuous
 62
     7
370
    30
100
AcDbPoint
 10
1.934355
 20
8.289543
 30
0.0
  0
POINT
  5
324
330
6B4
100
AcDbEntity
  8
HATCH
  6
Continuous
 62
     7
370
    30
100
AcDbPoint
 10
1.965605
 20
8.289543
 30
0.0
  0
POINT
  5
325
330
6B4
100
AcDbEntity
  8
HATCH
  6
Continuous
 62
     7
370
    30
100
AcDbPoint
 10
1.996855
 20
8.289543
 30
0.0
  0
POINT
  5
326
330
6B4
100
AcDbEntity
  8
HATCH
  6
Continuous
 62
     7
370
    30
100
AcDbPoint
 10
2.028105
 20
8.289543
 30
0.0
  0
POINT
  5
327
330
6B4
100
AcDbEntity
  8
HATCH
  6
Continuous
 62
     7
370
    30
100
AcDbPoint
 10
2.059355
 20
8.289543
 30
0.0
  0
POINT
  5
328
330
6B4
100
AcDbEntity
  8
HATCH
  6
Continuous
 62
     7
370
    30
100
AcDbPoint
 10
2.090605
 20
8.289543
 30
0.0
  0
POINT
  5
329
330
6B4
100
AcDbEntity
  8
HATCH
  6
Continuous
 62
     7
370
    30
100
AcDbPoint
 10
1.69998
 20
8.258293
 30
0.0
  0
POINT
  5
32A
330
6B4
100
AcDbEntity
  8
HATCH
  6
Continuous
 62
     7
370
    30
100
AcDbPoint
 10
1.73123
 20
8.258293
 30
0.0
  0
POINT
  5
32B
330
6B4
100
AcDbEntity
  8
HATCH
  6
Continuous
 62
     7
370
    30
100
AcDbPoint
 10
1.76248
 20
8.258293
 30
0.0
  0
POINT
  5
32C
330
6B4
100
AcDbEntity
  8
HATCH
  6
Continuous
 62
     7
370
    30
100
AcDbPoint
 10
1.79373
 20
8.258293
 30
0.0
  0
POINT
  5
32D
330
6B4
100
AcDbEntity
  8
HATCH
  6
Continuous
 62
     7
370
    30
100
AcDbPoint
 10
1.82498
 20
8.258293
 30
0.0
  0
POINT
  5
32E
330
6B4
100
AcDbEntity
  8
HATCH
  6
Continuous
 62
     7
370
    30
100
AcDbPoint
 10
1.85623
 20
8.258293
 30
0.0
  0
POINT
  5
32F
330
6B4
100
AcDbEntity
  8
HATCH
  6
Continuous
 62
     7
370
    30
100
AcDbPoint
 10
1.88748
 20
8.258293
 30
0.0
  0
POINT
  5
330
330
6B4
100
AcDbEntity
  8
HATCH
  6
Continuous
 62
     7
370
    30
100
AcDbPoint
 10
1.91873
 20
8.258293
 30
0.0
  0
POINT
  5
331
330
6B4
100
AcDbEntity
  8
HATCH
  6
Continuous
 62
     7
370
    30
100
AcDbPoint
 10
1.94998
 20
8.258293
 30
0.0
  0
POINT
  5
332
330
6B4
100
AcDbEntity
  8
HATCH
  6
Continuous
 62
     7
370
    30
100
AcDbPoint
 10
1.98123
 20
8.258293
 30
0.0
  0
POINT
  5
333
330
6B4
100
AcDbEntity
  8
HATCH
  6
Continuous
 62
     7
370
    30
100
AcDbPoint
 10
2.01248
 20
8.258293
 30
0.0
  0
POINT
  5
334
330
6B4
100
AcDbEntity
  8
HATCH
  6
Continuous
 62
     7
370
    30
100
AcDbPoint
 10
2.04373
 20
8.258293
 30
0.0
  0
POINT
  5
335
330
6B4
100
AcDbEntity
  8
HATCH
  6
Continuous
 62
     7
370
    30
100
AcDbPoint
 10
2.07498
 20
8.258293
 30
0.0
  0
POINT
  5
336
330
6B4
100
AcDbEntity
  8
HATCH
  6
Continuous
 62
     7
370
    30
100
AcDbPoint
 10
1.871855
 20
8.227043
 30
0.0
  0
POINT
  5
337
330
6B4
100
AcDbEntity
  8
HATCH
  6
Continuous
 62
     7
370
    30
100
AcDbPoint
 10
1.903105
 20
8.227043
 30
0.0
  0
POINT
  5
338
330
6B4
100
AcDbEntity
  8
HATCH
  6
Continuous
 62
     7
370
    30
100
AcDbPoint
 10
1.934355
 20
8.227043
 30
0.0
  0
POINT
  5
339
330
6B4
100
AcDbEntity
  8
HATCH
  6
Continuous
 62
     7
370
    30
100
AcDbPoint
 10
1.965605
 20
8.227043
 30
0.0
  0
POINT
  5
33A
330
6B4
100
AcDbEntity
  8
HATCH
  6
Continuous
 62
     7
370
    30
100
AcDbPoint
 10
1.996855
 20
8.227043
 30
0.0
  0
POINT
  5
33B
330
6B4
100
AcDbEntity
  8
HATCH
  6
Continuous
 62
     7
370
    30
100
AcDbPoint
 10
2.028105
 20
8.227043
 30
0.0
  0
POINT
  5
33C
330
6B4
100
AcDbEntity
  8
HATCH
  6
Continuous
 62
     7
370
    30
100
AcDbPoint
 10
6.54373
 20
7.520793
 30
0.0
  0
POINT
  5
33D
330
6B4
100
AcDbEntity
  8
HATCH
  6
Continuous
 62
     7
370
    30
100
AcDbPoint
 10
6.51248
 20
7.520793
 30
0.0
  0
POINT
  5
33E
330
6B4
100
AcDbEntity
  8
HATCH
  6
Continuous
 62
     7
370
    30
100
AcDbPoint
 10
6.48123
 20
7.520793
 30
0.0
  0
POINT
  5
33F
330
6B4
100
AcDbEntity
  8
HATCH
  6
Continuous
 62
     7
370
    30
100
AcDbPoint
 10
6.44998
 20
7.520793
 30
0.0
  0
POINT
  5
340
330
6B4
100
AcDbEntity
  8
HATCH
  6
Continuous
 62
     7
370
    30
100
AcDbPoint
 10
6.41873
 20
7.520793
 30
0.0
  0
POINT
  5
341
330
6B4
100
AcDbEntity
  8
HATCH
  6
Continuous
 62
     7
370
    30
100
AcDbPoint
 10
6.38748
 20
7.520793
 30
0.0
  0
POINT
  5
342
330
6B4
100
AcDbEntity
  8
HATCH
  6
Continuous
 62
     7
370
    30
100
AcDbPoint
 10
6.35623
 20
7.520793
 30
0.0
  0
POINT
  5
343
330
6B4
100
AcDbEntity
  8
HATCH
  6
Continuous
 62
     7
370
    30
100
AcDbPoint
 10
6.32498
 20
7.520793
 30
0.0
  0
POINT
  5
344
330
6B4
100
AcDbEntity
  8
HATCH
  6
Continuous
 62
     7
370
    30
100
AcDbPoint
 10
6.29373
 20
7.520793
 30
0.0
  0
POINT
  5
345
330
6B4
100
AcDbEntity
  8
HATCH
  6
Continuous
 62
     7
370
    30
100
AcDbPoint
 10
6.26248
 20
7.520793
 30
0.0
  0
POINT
  5
346
330
6B4
100
AcDbEntity
  8
HATCH
  6
Continuous
 62
     7
370
    30
100
AcDbPoint
 10
6.23123
 20
7.520793
 30
0.0
  0
POINT
  5
347
330
6B4
100
AcDbEntity
  8
HATCH
  6
Continuous
 62
     7
370
    30
100
AcDbPoint
 10
6.19998
 20
7.520793
 30
0.0
  0
POINT
  5
348
330
6B4
100
AcDbEntity
  8
HATCH
  6
Continuous
 62
     7
370
    30
100
AcDbPoint
 10
6.16873
 20
7.520793
 30
0.0
  0
POINT
  5
349
330
6B4
100
AcDbEntity
  8
HATCH
  6
Continuous
 62
     7
370
    30
100
AcDbPoint
 10
6.13748
 20
7.520793
 30
0.0
  0
POINT
  5
34A
330
6B4
100
AcDbEntity
  8
HATCH
  6
Continuous
 62
     7
370
    30
100
AcDbPoint
 10
6.10623
 20
7.520793
 30
0.0
  0
POINT
  5
34B
330
6B4
100
AcDbEntity
  8
HATCH
  6
Continuous
 62
     7
370
    30
100
AcDbPoint
 10
6.07498
 20
7.520793
 30
0.0
  0
POINT
  5
34C
330
6B4
100
AcDbEntity
  8
HATCH
  6
Continuous
 62
     7
370
    30
100
AcDbPoint
 10
6.04373
 20
7.520793
 30
0.0
  0
POINT
  5
34D
330
6B4
100
AcDbEntity
  8
HATCH
  6
Continuous
 62
     7
370
    30
100
AcDbPoint
 10
6.01248
 20
7.520793
 30
0.0
  0
POINT
  5
34E
330
6B4
100
AcDbEntity
  8
HATCH
  6
Continuous
 62
     7
370
    30
100
AcDbPoint
 10
5.98123
 20
7.520793
 30
0.0
  0
POINT
  5
34F
330
6B4
100
AcDbEntity
  8
HATCH
  6
Continuous
 62
     7
370
    30
100
AcDbPoint
 10
5.94998
 20
7.520793
 30
0.0
  0
POINT
  5
350
330
6B4
100
AcDbEntity
  8
HATCH
  6
Continuous
 62
     7
370
    30
100
AcDbPoint
 10
5.91873
 20
7.520793
 30
0.0
  0
POINT
  5
351
330
6B4
100
AcDbEntity
  8
HATCH
  6
Continuous
 62
     7
370
    30
100
AcDbPoint
 10
5.88748
 20
7.520793
 30
0.0
  0
POINT
  5
352
330
6B4
100
AcDbEntity
  8
HATCH
  6
Continuous
 62
     7
370
    30
100
AcDbPoint
 10
5.85623
 20
7.520793
 30
0.0
  0
POINT
  5
353
330
6B4
100
AcDbEntity
  8
HATCH
  6
Continuous
 62
     7
370
    30
100
AcDbPoint
 10
5.82498
 20
7.520793
 30
0.0
  0
POINT
  5
354
330
6B4
100
AcDbEntity
  8
HATCH
  6
Continuous
 62
     7
370
    30
100
AcDbPoint
 10
5.79373
 20
7.520793
 30
0.0
  0
POINT
  5
355
330
6B4
100
AcDbEntity
  8
HATCH
  6
Continuous
 62
     7
370
    30
100
AcDbPoint
 10
6.528105
 20
7.489543
 30
0.0
  0
POINT
  5
356
330
6B4
100
AcDbEntity
  8
HATCH
  6
Continuous
 62
     7
370
    30
100
AcDbPoint
 10
6.496855
 20
7.489543
 30
0.0
  0
POINT
  5
357
330
6B4
100
AcDbEntity
  8
HATCH
  6
Continuous
 62
     7
370
    30
100
AcDbPoint
 10
6.465605
 20
7.489543
 30
0.0
  0
POINT
  5
358
330
6B4
100
AcDbEntity
  8
HATCH
  6
Continuous
 62
     7
370
    30
100
AcDbPoint
 10
6.434355
 20
7.489543
 30
0.0
  0
POINT
  5
359
330
6B4
100
AcDbEntity
  8
HATCH
  6
Continuous
 62
     7
370
    30
100
AcDbPoint
 10
6.403105
 20
7.489543
 30
0.0
  0
POINT
  5
35A
330
6B4
100
AcDbEntity
  8
HATCH
  6
Continuous
 62
     7
370
    30
100
AcDbPoint
 10
6.371855
 20
7.489543
 30
0.0
  0
POINT
  5
35B
330
6B4
100
AcDbEntity
  8
HATCH
  6
Continuous
 62
     7
370
    30
100
AcDbPoint
 10
6.340605
 20
7.489543
 30
0.0
  0
POINT
  5
35C
330
6B4
100
AcDbEntity
  8
HATCH
  6
Continuous
 62
     7
370
    30
100
AcDbPoint
 10
6.309355
 20
7.489543
 30
0.0
  0
POINT
  5
35D
330
6B4
100
AcDbEntity
  8
HATCH
  6
Continuous
 62
     7
370
    30
100
AcDbPoint
 10
6.278105
 20
7.489543
 30
0.0
  0
POINT
  5
35E
330
6B4
100
AcDbEntity
  8
HATCH
  6
Continuous
 62
     7
370
    30
100
AcDbPoint
 10
6.246855
 20
7.489543
 30
0.0
  0
POINT
  5
35F
330
6B4
100
AcDbEntity
  8
HATCH
  6
Continuous
 62
     7
370
    30
100
AcDbPoint
 10
6.215605
 20
7.489543
 30
0.0
  0
POINT
  5
360
330
6B4
100
AcDbEntity
  8
HATCH
  6
Continuous
 62
     7
370
    30
100
AcDbPoint
 10
6.184355
 20
7.489543
 30
0.0
  0
POINT
  5
361
330
6B4
100
AcDbEntity
  8
HATCH
  6
Continuous
 62
     7
370
    30
100
AcDbPoint
 10
6.153105
 20
7.489543
 30
0.0
  0
POINT
  5
362
330
6B4
100
AcDbEntity
  8
HATCH
  6
Continuous
 62
     7
370
    30
100
AcDbPoint
 10
6.121855
 20
7.489543
 30
0.0
  0
POINT
  5
363
330
6B4
100
AcDbEntity
  8
HATCH
  6
Continuous
 62
     7
370
    30
100
AcDbPoint
 10
6.090605
 20
7.489543
 30
0.0
  0
POINT
  5
364
330
6B4
100
AcDbEntity
  8
HATCH
  6
Continuous
 62
     7
370
    30
100
AcDbPoint
 10
6.059355
 20
7.489543
 30
0.0
  0
POINT
  5
365
330
6B4
100
AcDbEntity
  8
HATCH
  6
Continuous
 62
     7
370
    30
100
AcDbPoint
 10
6.028105
 20
7.489543
 30
0.0
  0
POINT
  5
366
330
6B4
100
AcDbEntity
  8
HATCH
  6
Continuous
 62
     7
370
    30
100
AcDbPoint
 10
5.996855
 20
7.489543
 30
0.0
  0
POINT
  5
367
330
6B4
100
AcDbEntity
  8
HATCH
  6
Continuous
 62
     7
370
    30
100
AcDbPoint
 10
5.965605
 20
7.489543
 30
0.0
  0
POINT
  5
368
330
6B4
100
AcDbEntity
  8
HATCH
  6
Continuous
 62
     7
370
    30
100
AcDbPoint
 10
5.934355
 20
7.489543
 30
0.0
  0
POINT
  5
369
330
6B4
100
AcDbEntity
  8
HATCH
  6
Continuous
 62
     7
370
    30
100
AcDbPoint
 10
5.903105
 20
7.489543
 30
0.0
  0
POINT
  5
36A
330
6B4
100
AcDbEntity
  8
HATCH
  6
Continuous
 62
     7
370
    30
100
AcDbPoint
 10
5.871855
 20
7.489543
 30
0.0
  0
POINT
  5
36B
330
6B4
100
AcDbEntity
  8
HATCH
  6
Continuous
 62
     7
370
    30
100
AcDbPoint
 10
5.840605
 20
7.489543
 30
0.0
  0
POINT
  5
36C
330
6B4
100
AcDbEntity
  8
HATCH
  6
Continuous
 62
     7
370
    30
100
AcDbPoint
 10
5.809355
 20
7.489543
 30
0.0
  0
POINT
  5
36D
330
6B4
100
AcDbEntity
  8
HATCH
  6
Continuous
 62
     7
370
    30
100
AcDbPoint
 10
5.778105
 20
7.489543
 30
0.0
  0
POINT
  5
36E
330
6B4
100
AcDbEntity
  8
HATCH
  6
Continuous
 62
     7
370
    30
100
AcDbPoint
 10
6.54373
 20
7.458293
 30
0.0
  0
POINT
  5
36F
330
6B4
100
AcDbEntity
  8
HATCH
  6
Continuous
 62
     7
370
    30
100
AcDbPoint
 10
6.51248
 20
7.458293
 30
0.0
  0
POINT
  5
370
330
6B4
100
AcDbEntity
  8
HATCH
  6
Continuous
 62
     7
370
    30
100
AcDbPoint
 10
6.48123
 20
7.458293
 30
0.0
  0
POINT
  5
371
330
6B4
100
AcDbEntity
  8
HATCH
  6
Continuous
 62
     7
370
    30
100
AcDbPoint
 10
6.44998
 20
7.458293
 30
0.0
  0
POINT
  5
372
330
6B4
100
AcDbEntity
  8
HATCH
  6
Continuous
 62
     7
370
    30
100
AcDbPoint
 10
6.41873
 20
7.458293
 30
0.0
  0
POINT
  5
373
330
6B4
100
AcDbEntity
  8
HATCH
  6
Continuous
 62
     7
370
    30
100
AcDbPoint
 10
6.38748
 20
7.458293
 30
0.0
  0
POINT
  5
374
330
6B4
100
AcDbEntity
  8
HATCH
  6
Continuous
 62
     7
370
    30
100
AcDbPoint
 10
6.35623
 20
7.458293
 30
0.0
  0
POINT
  5
375
330
6B4
100
AcDbEntity
  8
HATCH
  6
Continuous
 62
     7
370
    30
100
AcDbPoint
 10
6.32498
 20
7.458293
 30
0.0
  0
POINT
  5
376
330
6B4
100
AcDbEntity
  8
HATCH
  6
Continuous
 62
     7
370
    30
100
AcDbPoint
 10
6.29373
 20
7.458293
 30
0.0
  0
POINT
  5
377
330
6B4
100
AcDbEntity
  8
HATCH
  6
Continuous
 62
     7
370
    30
100
AcDbPoint
 10
6.26248
 20
7.458293
 30
0.0
  0
POINT
  5
378
330
6B4
100
AcDbEntity
  8
HATCH
  6
Continuous
 62
     7
370
    30
100
AcDbPoint
 10
6.23123
 20
7.458293
 30
0.0
  0
POINT
  5
379
330
6B4
100
AcDbEntity
  8
HATCH
  6
Continuous
 62
     7
370
    30
100
AcDbPoint
 10
6.19998
 20
7.458293
 30
0.0
  0
POINT
  5
37A
330
6B4
100
AcDbEntity
  8
HATCH
  6
Continuous
 62
     7
370
    30
100
AcDbPoint
 10
6.16873
 20
7.458293
 30
0.0
  0
POINT
  5
37B
330
6B4
100
AcDbEntity
  8
HATCH
  6
Continuous
 62
     7
370
    30
100
AcDbPoint
 10
6.13748
 20
7.458293
 30
0.0
  0
POINT
  5
37C
330
6B4
100
AcDbEntity
  8
HATCH
  6
Continuous
 62
     7
370
    30
100
AcDbPoint
 10
6.10623
 20
7.458293
 30
0.0
  0
POINT
  5
37D
330
6B4
100
AcDbEntity
  8
HATCH
  6
Continuous
 62
     7
370
    30
100
AcDbPoint
 10
6.07498
 20
7.458293
 30
0.0
  0
POINT
  5
37E
330
6B4
100
AcDbEntity
  8
HATCH
  6
Continuous
 62
     7
370
    30
100
AcDbPoint
 10
6.04373
 20
7.458293
 30
0.0
  0
POINT
  5
37F
330
6B4
100
AcDbEntity
  8
HATCH
  6
Continuous
 62
     7
370
    30
100
AcDbPoint
 10
6.01248
 20
7.458293
 30
0.0
  0
POINT
  5
380
330
6B4
100
AcDbEntity
  8
HATCH
  6
Continuous
 62
     7
370
    30
100
AcDbPoint
 10
5.98123
 20
7.458293
 30
0.0
  0
POINT
  5
381
330
6B4
100
AcDbEntity
  8
HATCH
  6
Continuous
 62
     7
370
    30
100
AcDbPoint
 10
5.94998
 20
7.458293
 30
0.0
  0
POINT
  5
382
330
6B4
100
AcDbEntity
  8
HATCH
  6
Continuous
 62
     7
370
    30
100
AcDbPoint
 10
5.91873
 20
7.458293
 30
0.0
  0
POINT
  5
383
330
6B4
100
AcDbEntity
  8
HATCH
  6
Continuous
 62
     7
370
    30
100
AcDbPoint
 10
5.88748
 20
7.458293
 30
0.0
  0
POINT
  5
384
330
6B4
100
AcDbEntity
  8
HATCH
  6
Continuous
 62
     7
370
    30
100
AcDbPoint
 10
5.85623
 20
7.458293
 30
0.0
  0
POINT
  5
385
330
6B4
100
AcDbEntity
  8
HATCH
  6
Continuous
 62
     7
370
    30
100
AcDbPoint
 10
5.82498
 20
7.458293
 30
0.0
  0
POINT
  5
386
330
6B4
100
AcDbEntity
  8
HATCH
  6
Continuous
 62
     7
370
    30
100
AcDbPoint
 10
5.79373
 20
7.458293
 30
0.0
  0
POINT
  5
387
330
6B4
100
AcDbEntity
  8
HATCH
  6
Continuous
 62
     7
370
    30
100
AcDbPoint
 10
5.76248
 20
7.458293
 30
0.0
  0
POINT
  5
388
330
6B4
100
AcDbEntity
  8
HATCH
  6
Continuous
 62
     7
370
    30
100
AcDbPoint
 10
6.528105
 20
7.427043
 30
0.0
  0
POINT
  5
389
330
6B4
100
AcDbEntity
  8
HATCH
  6
Continuous
 62
     7
370
    30
100
AcDbPoint
 10
6.496855
 20
7.427043
 30
0.0
  0
POINT
  5
38A
330
6B4
100
AcDbEntity
  8
HATCH
  6
Continuous
 62
     7
370
    30
100
AcDbPoint
 10
6.465605
 20
7.427043
 30
0.0
  0
POINT
  5
38B
330
6B4
100
AcDbEntity
  8
HATCH
  6
Continuous
 62
     7
370
    30
100
AcDbPoint
 10
6.434355
 20
7.427043
 30
0.0
  0
POINT
  5
38C
330
6B4
100
AcDbEntity
  8
HATCH
  6
Continuous
 62
     7
370
    30
100
AcDbPoint
 10
6.403105
 20
7.427043
 30
0.0
  0
POINT
  5
38D
330
6B4
100
AcDbEntity
  8
HATCH
  6
Continuous
 62
     7
370
    30
100
AcDbPoint
 10
6.371855
 20
7.427043
 30
0.0
  0
POINT
  5
38E
330
6B4
100
AcDbEntity
  8
HATCH
  6
Continuous
 62
     7
370
    30
100
AcDbPoint
 10
6.340605
 20
7.427043
 30
0.0
  0
POINT
  5
38F
330
6B4
100
AcDbEntity
  8
HATCH
  6
Continuous
 62
     7
370
    30
100
AcDbPoint
 10
6.309355
 20
7.427043
 30
0.0
  0
POINT
  5
390
330
6B4
100
AcDbEntity
  8
HATCH
  6
Continuous
 62
     7
370
    30
100
AcDbPoint
 10
6.278105
 20
7.427043
 30
0.0
  0
POINT
  5
391
330
6B4
100
AcDbEntity
  8
HATCH
  6
Continuous
 62
     7
370
    30
100
AcDbPoint
 10
6.246855
 20
7.427043
 30
0.0
  0
POINT
  5
392
330
6B4
100
AcDbEntity
  8
HATCH
  6
Continuous
 62
     7
370
    30
100
AcDbPoint
 10
6.215605
 20
7.427043
 30
0.0
  0
POINT
  5
393
330
6B4
100
AcDbEntity
  8
HATCH
  6
Continuous
 62
     7
370
    30
100
AcDbPoint
 10
6.184355
 20
7.427043
 30
0.0
  0
POINT
  5
394
330
6B4
100
AcDbEntity
  8
HATCH
  6
Continuous
 62
     7
370
    30
100
AcDbPoint
 10
6.153105
 20
7.427043
 30
0.0
  0
POINT
  5
395
330
6B4
100
AcDbEntity
  8
HATCH
  6
Continuous
 62
     7
370
    30
100
AcDbPoint
 10
6.121855
 20
7.427043
 30
0.0
  0
POINT
  5
396
330
6B4
100
AcDbEntity
  8
HATCH
  6
Continuous
 62
     7
370
    30
100
AcDbPoint
 10
6.090605
 20
7.427043
 30
0.0
  0
POINT
  5
397
330
6B4
100
AcDbEntity
  8
HATCH
  6
Continuous
 62
     7
370
    30
100
AcDbPoint
 10
6.059355
 20
7.427043
 30
0.0
  0
POINT
  5
398
330
6B4
100
AcDbEntity
  8
HATCH
  6
Continuous
 62
     7
370
    30
100
AcDbPoint
 10
6.028105
 20
7.427043
 30
0.0
  0
POINT
  5
399
330
6B4
100
AcDbEntity
  8
HATCH
  6
Continuous
 62
     7
370
    30
100
AcDbPoint
 10
5.996855
 20
7.427043
 30
0.0
  0
POINT
  5
39A
330
6B4
100
AcDbEntity
  8
HATCH
  6
Continuous
 62
     7
370
    30
100
AcDbPoint
 10
5.965605
 20
7.427043
 30
0.0
  0
POINT
  5
39B
330
6B4
100
AcDbEntity
  8
HATCH
  6
Continuous
 62
     7
370
    30
100
AcDbPoint
 10
5.934355
 20
7.427043
 30
0.0
  0
POINT
  5
39C
330
6B4
100
AcDbEntity
  8
HATCH
  6
Continuous
 62
     7
370
    30
100
AcDbPoint
 10
5.903105
 20
7.427043
 30
0.0
  0
POINT
  5
39D
330
6B4
100
AcDbEntity
  8
HATCH
  6
Continuous
 62
     7
370
    30
100
AcDbPoint
 10
5.871855
 20
7.427043
 30
0.0
  0
POINT
  5
39E
330
6B4
100
AcDbEntity
  8
HATCH
  6
Continuous
 62
     7
370
    30
100
AcDbPoint
 10
5.840605
 20
7.427043
 30
0.0
  0
POINT
  5
39F
330
6B4
100
AcDbEntity
  8
HATCH
  6
Continuous
 62
     7
370
    30
100
AcDbPoint
 10
5.809355
 20
7.427043
 30
0.0
  0
POINT
  5
3A0
330
6B4
100
AcDbEntity
  8
HATCH
  6
Continuous
 62
     7
370
    30
100
AcDbPoint
 10
5.778105
 20
7.427043
 30
0.0
  0
POINT
  5
3A1
330
6B4
100
AcDbEntity
  8
HATCH
  6
Continuous
 62
     7
370
    30
100
AcDbPoint
 10
5.746855
 20
7.427043
 30
0.0
  0
POINT
  5
3A2
330
6B4
100
AcDbEntity
  8
HATCH
  6
Continuous
 62
     7
370
    30
100
AcDbPoint
 10
5.715605
 20
7.427043
 30
0.0
  0
POINT
  5
3A3
330
6B4
100
AcDbEntity
  8
HATCH
  6
Continuous
 62
     7
370
    30
100
AcDbPoint
 10
6.54373
 20
7.395793
 30
0.0
  0
POINT
  5
3A4
330
6B4
100
AcDbEntity
  8
HATCH
  6
Continuous
 62
     7
370
    30
100
AcDbPoint
 10
6.51248
 20
7.395793
 30
0.0
  0
POINT
  5
3A5
330
6B4
100
AcDbEntity
  8
HATCH
  6
Continuous
 62
     7
370
    30
100
AcDbPoint
 10
6.48123
 20
7.395793
 30
0.0
  0
POINT
  5
3A6
330
6B4
100
AcDbEntity
  8
HATCH
  6
Continuous
 62
     7
370
    30
100
AcDbPoint
 10
6.44998
 20
7.395793
 30
0.0
  0
POINT
  5
3A7
330
6B4
100
AcDbEntity
  8
HATCH
  6
Continuous
 62
     7
370
    30
100
AcDbPoint
 10
6.41873
 20
7.395793
 30
0.0
  0
POINT
  5
3A8
330
6B4
100
AcDbEntity
  8
HATCH
  6
Continuous
 62
     7
370
    30
100
AcDbPoint
 10
6.38748
 20
7.395793
 30
0.0
  0
POINT
  5
3A9
330
6B4
100
AcDbEntity
  8
HATCH
  6
Continuous
 62
     7
370
    30
100
AcDbPoint
 10
6.35623
 20
7.395793
 30
0.0
  0
POINT
  5
3AA
330
6B4
100
AcDbEntity
  8
HATCH
  6
Continuous
 62
     7
370
    30
100
AcDbPoint
 10
6.32498
 20
7.395793
 30
0.0
  0
POINT
  5
3AB
330
6B4
100
AcDbEntity
  8
HATCH
  6
Continuous
 62
     7
370
    30
100
AcDbPoint
 10
6.29373
 20
7.395793
 30
0.0
  0
POINT
  5
3AC
330
6B4
100
AcDbEntity
  8
HATCH
  6
Continuous
 62
     7
370
    30
100
AcDbPoint
 10
6.26248
 20
7.395793
 30
0.0
  0
POINT
  5
3AD
330
6B4
100
AcDbEntity
  8
HATCH
  6
Continuous
 62
     7
370
    30
100
AcDbPoint
 10
6.23123
 20
7.395793
 30
0.0
  0
POINT
  5
3AE
330
6B4
100
AcDbEntity
  8
HATCH
  6
Continuous
 62
     7
370
    30
100
AcDbPoint
 10
6.19998
 20
7.395793
 30
0.0
  0
POINT
  5
3AF
330
6B4
100
AcDbEntity
  8
HATCH
  6
Continuous
 62
     7
370
    30
100
AcDbPoint
 10
6.16873
 20
7.395793
 30
0.0
  0
POINT
  5
3B0
330
6B4
100
AcDbEntity
  8
HATCH
  6
Continuous
 62
     7
370
    30
100
AcDbPoint
 10
6.13748
 20
7.395793
 30
0.0
  0
POINT
  5
3B1
330
6B4
100
AcDbEntity
  8
HATCH
  6
Continuous
 62
     7
370
    30
100
AcDbPoint
 10
6.10623
 20
7.395793
 30
0.0
  0
POINT
  5
3B2
330
6B4
100
AcDbEntity
  8
HATCH
  6
Continuous
 62
     7
370
    30
100
AcDbPoint
 10
6.07498
 20
7.395793
 30
0.0
  0
POINT
  5
3B3
330
6B4
100
AcDbEntity
  8
HATCH
  6
Continuous
 62
     7
370
    30
100
AcDbPoint
 10
6.04373
 20
7.395793
 30
0.0
  0
POINT
  5
3B4
330
6B4
100
AcDbEntity
  8
HATCH
  6
Continuous
 62
     7
370
    30
100
AcDbPoint
 10
6.01248
 20
7.395793
 30
0.0
  0
POINT
  5
3B5
330
6B4
100
AcDbEntity
  8
HATCH
  6
Continuous
 62
     7
370
    30
100
AcDbPoint
 10
5.98123
 20
7.395793
 30
0.0
  0
POINT
  5
3B6
330
6B4
100
AcDbEntity
  8
HATCH
  6
Continuous
 62
     7
370
    30
100
AcDbPoint
 10
5.94998
 20
7.395793
 30
0.0
  0
POINT
  5
3B7
330
6B4
100
AcDbEntity
  8
HATCH
  6
Continuous
 62
     7
370
    30
100
AcDbPoint
 10
5.91873
 20
7.395793
 30
0.0
  0
POINT
  5
3B8
330
6B4
100
AcDbEntity
  8
HATCH
  6
Continuous
 62
     7
370
    30
100
AcDbPoint
 10
5.88748
 20
7.395793
 30
0.0
  0
POINT
  5
3B9
330
6B4
100
AcDbEntity
  8
HATCH
  6
Continuous
 62
     7
370
    30
100
AcDbPoint
 10
5.85623
 20
7.395793
 30
0.0
  0
POINT
  5
3BA
330
6B4
100
AcDbEntity
  8
HATCH
  6
Continuous
 62
     7
370
    30
100
AcDbPoint
 10
5.82498
 20
7.395793
 30
0.0
  0
POINT
  5
3BB
330
6B4
100
AcDbEntity
  8
HATCH
  6
Continuous
 62
     7
370
    30
100
AcDbPoint
 10
5.79373
 20
7.395793
 30
0.0
  0
POINT
  5
3BC
330
6B4
100
AcDbEntity
  8
HATCH
  6
Continuous
 62
     7
370
    30
100
AcDbPoint
 10
5.76248
 20
7.395793
 30
0.0
  0
POINT
  5
3BD
330
6B4
100
AcDbEntity
  8
HATCH
  6
Continuous
 62
     7
370
    30
100
AcDbPoint
 10
5.73123
 20
7.395793
 30
0.0
  0
POINT
  5
3BE
330
6B4
100
AcDbEntity
  8
HATCH
  6
Continuous
 62
     7
370
    30
100
AcDbPoint
 10
5.69998
 20
7.395793
 30
0.0
  0
POINT
  5
3BF
330
6B4
100
AcDbEntity
  8
HATCH
  6
Continuous
 62
     7
370
    30
100
AcDbPoint
 10
6.528105
 20
7.364543
 30
0.0
  0
POINT
  5
3C0
330
6B4
100
AcDbEntity
  8
HATCH
  6
Continuous
 62
     7
370
    30
100
AcDbPoint
 10
6.496855
 20
7.364543
 30
0.0
  0
POINT
  5
3C1
330
6B4
100
AcDbEntity
  8
HATCH
  6
Continuous
 62
     7
370
    30
100
AcDbPoint
 10
6.465605
 20
7.364543
 30
0.0
  0
POINT
  5
3C2
330
6B4
100
AcDbEntity
  8
HATCH
  6
Continuous
 62
     7
370
    30
100
AcDbPoint
 10
6.434355
 20
7.364543
 30
0.0
  0
POINT
  5
3C3
330
6B4
100
AcDbEntity
  8
HATCH
  6
Continuous
 62
     7
370
    30
100
AcDbPoint
 10
6.403105
 20
7.364543
 30
0.0
  0
POINT
  5
3C4
330
6B4
100
AcDbEntity
  8
HATCH
  6
Continuous
 62
     7
370
    30
100
AcDbPoint
 10
6.371855
 20
7.364543
 30
0.0
  0
POINT
  5
3C5
330
6B4
100
AcDbEntity
  8
HATCH
  6
Continuous
 62
     7
370
    30
100
AcDbPoint
 10
6.340605
 20
7.364543
 30
0.0
  0
POINT
  5
3C6
330
6B4
100
AcDbEntity
  8
HATCH
  6
Continuous
 62
     7
370
    30
100
AcDbPoint
 10
6.309355
 20
7.364543
 30
0.0
  0
POINT
  5
3C7
330
6B4
100
AcDbEntity
  8
HATCH
  6
Continuous
 62
     7
370
    30
100
AcDbPoint
 10
6.278105
 20
7.364543
 30
0.0
  0
POINT
  5
3C8
330
6B4
100
AcDbEntity
  8
HATCH
  6
Continuous
 62
     7
370
    30
100
AcDbPoint
 10
6.246855
 20
7.364543
 30
0.0
  0
POINT
  5
3C9
330
6B4
100
AcDbEntity
  8
HATCH
  6
Continuous
 62
     7
370
    30
100
AcDbPoint
 10
6.215605
 20
7.364543
 30
0.0
  0
POINT
  5
3CA
330
6B4
100
AcDbEntity
  8
HATCH
  6
Continuous
 62
     7
370
    30
100
AcDbPoint
 10
6.184355
 20
7.364543
 30
0.0
  0
POINT
  5
3CB
330
6B4
100
AcDbEntity
  8
HATCH
  6
Continuous
 62
     7
370
    30
100
AcDbPoint
 10
6.153105
 20
7.364543
 30
0.0
  0
POINT
  5
3CC
330
6B4
100
AcDbEntity
  8
HATCH
  6
Continuous
 62
     7
370
    30
100
AcDbPoint
 10
6.121855
 20
7.364543
 30
0.0
  0
POINT
  5
3CD
330
6B4
100
AcDbEntity
  8
HATCH
  6
Continuous
 62
     7
370
    30
100
AcDbPoint
 10
6.090605
 20
7.364543
 30
0.0
  0
POINT
  5
3CE
330
6B4
100
AcDbEntity
  8
HATCH
  6
Continuous
 62
     7
370
    30
100
AcDbPoint
 10
6.059355
 20
7.364543
 30
0.0
  0
POINT
  5
3CF
330
6B4
100
AcDbEntity
  8
HATCH
  6
Continuous
 62
     7
370
    30
100
AcDbPoint
 10
6.028105
 20
7.364543
 30
0.0
  0
POINT
  5
3D0
330
6B4
100
AcDbEntity
  8
HATCH
  6
Continuous
 62
     7
370
    30
100
AcDbPoint
 10
5.996855
 20
7.364543
 30
0.0
  0
POINT
  5
3D1
330
6B4
100
AcDbEntity
  8
HATCH
  6
Continuous
 62
     7
370
    30
100
AcDbPoint
 10
5.965605
 20
7.364543
 30
0.0
  0
POINT
  5
3D2
330
6B4
100
AcDbEntity
  8
HATCH
  6
Continuous
 62
     7
370
    30
100
AcDbPoint
 10
5.934355
 20
7.364543
 30
0.0
  0
POINT
  5
3D3
330
6B4
100
AcDbEntity
  8
HATCH
  6
Continuous
 62
     7
370
    30
100
AcDbPoint
 10
5.903105
 20
7.364543
 30
0.0
  0
POINT
  5
3D4
330
6B4
100
AcDbEntity
  8
HATCH
  6
Continuous
 62
     7
370
    30
100
AcDbPoint
 10
5.871855
 20
7.364543
 30
0.0
  0
POINT
  5
3D5
330
6B4
100
AcDbEntity
  8
HATCH
  6
Continuous
 62
     7
370
    30
100
AcDbPoint
 10
5.840605
 20
7.364543
 30
0.0
  0
POINT
  5
3D6
330
6B4
100
AcDbEntity
  8
HATCH
  6
Continuous
 62
     7
370
    30
100
AcDbPoint
 10
5.809355
 20
7.364543
 30
0.0
  0
POINT
  5
3D7
330
6B4
100
AcDbEntity
  8
HATCH
  6
Continuous
 62
     7
370
    30
100
AcDbPoint
 10
5.778105
 20
7.364543
 30
0.0
  0
POINT
  5
3D8
330
6B4
100
AcDbEntity
  8
HATCH
  6
Continuous
 62
     7
370
    30
100
AcDbPoint
 10
5.746855
 20
7.364543
 30
0.0
  0
POINT
  5
3D9
330
6B4
100
AcDbEntity
  8
HATCH
  6
Continuous
 62
     7
370
    30
100
AcDbPoint
 10
5.715605
 20
7.364543
 30
0.0
  0
POINT
  5
3DA
330
6B4
100
AcDbEntity
  8
HATCH
  6
Continuous
 62
     7
370
    30
100
AcDbPoint
 10
5.684355
 20
7.364543
 30
0.0
  0
POINT
  5
3DB
330
6B4
100
AcDbEntity
  8
HATCH
  6
Continuous
 62
     7
370
    30
100
AcDbPoint
 10
6.54373
 20
7.333293
 30
0.0
  0
POINT
  5
3DC
330
6B4
100
AcDbEntity
  8
HATCH
  6
Continuous
 62
     7
370
    30
100
AcDbPoint
 10
6.51248
 20
7.333293
 30
0.0
  0
POINT
  5
3DD
330
6B4
100
AcDbEntity
  8
HATCH
  6
Continuous
 62
     7
370
    30
100
AcDbPoint
 10
6.48123
 20
7.333293
 30
0.0
  0
POINT
  5
3DE
330
6B4
100
AcDbEntity
  8
HATCH
  6
Continuous
 62
     7
370
    30
100
AcDbPoint
 10
6.44998
 20
7.333293
 30
0.0
  0
POINT
  5
3DF
330
6B4
100
AcDbEntity
  8
HATCH
  6
Continuous
 62
     7
370
    30
100
AcDbPoint
 10
6.41873
 20
7.333293
 30
0.0
  0
POINT
  5
3E0
330
6B4
100
AcDbEntity
  8
HATCH
  6
Continuous
 62
     7
370
    30
100
AcDbPoint
 10
6.38748
 20
7.333293
 30
0.0
  0
POINT
  5
3E1
330
6B4
100
AcDbEntity
  8
HATCH
  6
Continuous
 62
     7
370
    30
100
AcDbPoint
 10
6.35623
 20
7.333293
 30
0.0
  0
POINT
  5
3E2
330
6B4
100
AcDbEntity
  8
HATCH
  6
Continuous
 62
     7
370
    30
100
AcDbPoint
 10
6.32498
 20
7.333293
 30
0.0
  0
POINT
  5
3E3
330
6B4
100
AcDbEntity
  8
HATCH
  6
Continuous
 62
     7
370
    30
100
AcDbPoint
 10
6.29373
 20
7.333293
 30
0.0
  0
POINT
  5
3E4
330
6B4
100
AcDbEntity
  8
HATCH
  6
Continuous
 62
     7
370
    30
100
AcDbPoint
 10
6.26248
 20
7.333293
 30
0.0
  0
POINT
  5
3E5
330
6B4
100
AcDbEntity
  8
HATCH
  6
Continuous
 62
     7
370
    30
100
AcDbPoint
 10
6.23123
 20
7.333293
 30
0.0
  0
POINT
  5
3E6
330
6B4
100
AcDbEntity
  8
HATCH
  6
Continuous
 62
     7
370
    30
100
AcDbPoint
 10
6.19998
 20
7.333293
 30
0.0
  0
POINT
  5
3E7
330
6B4
100
AcDbEntity
  8
HATCH
  6
Continuous
 62
     7
370
    30
100
AcDbPoint
 10
6.16873
 20
7.333293
 30
0.0
  0
POINT
  5
3E8
330
6B4
100
AcDbEntity
  8
HATCH
  6
Continuous
 62
     7
370
    30
100
AcDbPoint
 10
6.13748
 20
7.333293
 30
0.0
  0
POINT
  5
3E9
330
6B4
100
AcDbEntity
  8
HATCH
  6
Continuous
 62
     7
370
    30
100
AcDbPoint
 10
6.10623
 20
7.333293
 30
0.0
  0
POINT
  5
3EA
330
6B4
100
AcDbEntity
  8
HATCH
  6
Continuous
 62
     7
370
    30
100
AcDbPoint
 10
6.07498
 20
7.333293
 30
0.0
  0
POINT
  5
3EB
330
6B4
100
AcDbEntity
  8
HATCH
  6
Continuous
 62
     7
370
    30
100
AcDbPoint
 10
6.04373
 20
7.333293
 30
0.0
  0
POINT
  5
3EC
330
6B4
100
AcDbEntity
  8
HATCH
  6
Continuous
 62
     7
370
    30
100
AcDbPoint
 10
6.01248
 20
7.333293
 30
0.0
  0
POINT
  5
3ED
330
6B4
100
AcDbEntity
  8
HATCH
  6
Continuous
 62
     7
370
    30
100
AcDbPoint
 10
5.98123
 20
7.333293
 30
0.0
  0
POINT
  5
3EE
330
6B4
100
AcDbEntity
  8
HATCH
  6
Continuous
 62
     7
370
    30
100
AcDbPoint
 10
5.94998
 20
7.333293
 30
0.0
  0
POINT
  5
3EF
330
6B4
100
AcDbEntity
  8
HATCH
  6
Continuous
 62
     7
370
    30
100
AcDbPoint
 10
5.91873
 20
7.333293
 30
0.0
  0
POINT
  5
3F0
330
6B4
100
AcDbEntity
  8
HATCH
  6
Continuous
 62
     7
370
    30
100
AcDbPoint
 10
5.88748
 20
7.333293
 30
0.0
  0
POINT
  5
3F1
330
6B4
100
AcDbEntity
  8
HATCH
  6
Continuous
 62
     7
370
    30
100
AcDbPoint
 10
5.85623
 20
7.333293
 30
0.0
  0
POINT
  5
3F2
330
6B4
100
AcDbEntity
  8
HATCH
  6
Continuous
 62
     7
370
    30
100
AcDbPoint
 10
5.82498
 20
7.333293
 30
0.0
  0
POINT
  5
3F3
330
6B4
100
AcDbEntity
  8
HATCH
  6
Continuous
 62
     7
370
    30
100
AcDbPoint
 10
5.79373
 20
7.333293
 30
0.0
  0
POINT
  5
3F4
330
6B4
100
AcDbEntity
  8
HATCH
  6
Continuous
 62
     7
370
    30
100
AcDbPoint
 10
5.76248
 20
7.333293
 30
0.0
  0
POINT
  5
3F5
330
6B4
100
AcDbEntity
  8
HATCH
  6
Continuous
 62
     7
370
    30
100
AcDbPoint
 10
5.73123
 20
7.333293
 30
0.0
  0
POINT
  5
3F6
330
6B4
100
AcDbEntity
  8
HATCH
  6
Continuous
 62
     7
370
    30
100
AcDbPoint
 10
5.69998
 20
7.333293
 30
0.0
  0
POINT
  5
3F7
330
6B4
100
AcDbEntity
  8
HATCH
  6
Continuous
 62
     7
370
    30
100
AcDbPoint
 10
5.66873
 20
7.333293
 30
0.0
  0
POINT
  5
3F8
330
6B4
100
AcDbEntity
  8
HATCH
  6
Continuous
 62
     7
370
    30
100
AcDbPoint
 10
6.528105
 20
7.302043
 30
0.0
  0
POINT
  5
3F9
330
6B4
100
AcDbEntity
  8
HATCH
  6
Continuous
 62
     7
370
    30
100
AcDbPoint
 10
6.496855
 20
7.302043
 30
0.0
  0
POINT
  5
3FA
330
6B4
100
AcDbEntity
  8
HATCH
  6
Continuous
 62
     7
370
    30
100
AcDbPoint
 10
6.465605
 20
7.302043
 30
0.0
  0
POINT
  5
3FB
330
6B4
100
AcDbEntity
  8
HATCH
  6
Continuous
 62
     7
370
    30
100
AcDbPoint
 10
6.434355
 20
7.302043
 30
0.0
  0
POINT
  5
3FC
330
6B4
100
AcDbEntity
  8
HATCH
  6
Continuous
 62
     7
370
    30
100
AcDbPoint
 10
6.403105
 20
7.302043
 30
0.0
  0
POINT
  5
3FD
330
6B4
100
AcDbEntity
  8
HATCH
  6
Continuous
 62
     7
370
    30
100
AcDbPoint
 10
6.371855
 20
7.302043
 30
0.0
  0
POINT
  5
3FE
330
6B4
100
AcDbEntity
  8
HATCH
  6
Continuous
 62
     7
370
    30
100
AcDbPoint
 10
6.340605
 20
7.302043
 30
0.0
  0
POINT
  5
3FF
330
6B4
100
AcDbEntity
  8
HATCH
  6
Continuous
 62
     7
370
    30
100
AcDbPoint
 10
6.309355
 20
7.302043
 30
0.0
  0
POINT
  5
400
330
6B4
100
AcDbEntity
  8
HATCH
  6
Continuous
 62
     7
370
    30
100
AcDbPoint
 10
6.278105
 20
7.302043
 30
0.0
  0
POINT
  5
401
330
6B4
100
AcDbEntity
  8
HATCH
  6
Continuous
 62
     7
370
    30
100
AcDbPoint
 10
6.246855
 20
7.302043
 30
0.0
  0
POINT
  5
402
330
6B4
100
AcDbEntity
  8
HATCH
  6
Continuous
 62
     7
370
    30
100
AcDbPoint
 10
6.215605
 20
7.302043
 30
0.0
  0
POINT
  5
403
330
6B4
100
AcDbEntity
  8
HATCH
  6
Continuous
 62
     7
370
    30
100
AcDbPoint
 10
6.184355
 20
7.302043
 30
0.0
  0
POINT
  5
404
330
6B4
100
AcDbEntity
  8
HATCH
  6
Continuous
 62
     7
370
    30
100
AcDbPoint
 10
6.153105
 20
7.302043
 30
0.0
  0
POINT
  5
405
330
6B4
100
AcDbEntity
  8
HATCH
  6
Continuous
 62
     7
370
    30
100
AcDbPoint
 10
6.121855
 20
7.302043
 30
0.0
  0
POINT
  5
406
330
6B4
100
AcDbEntity
  8
HATCH
  6
Continuous
 62
     7
370
    30
100
AcDbPoint
 10
6.090605
 20
7.302043
 30
0.0
  0
POINT
  5
407
330
6B4
100
AcDbEntity
  8
HATCH
  6
Continuous
 62
     7
370
    30
100
AcDbPoint
 10
6.059355
 20
7.302043
 30
0.0
  0
POINT
  5
408
330
6B4
100
AcDbEntity
  8
HATCH
  6
Continuous
 62
     7
370
    30
100
AcDbPoint
 10
6.028105
 20
7.302043
 30
0.0
  0
POINT
  5
409
330
6B4
100
AcDbEntity
  8
HATCH
  6
Continuous
 62
     7
370
    30
100
AcDbPoint
 10
5.996855
 20
7.302043
 30
0.0
  0
POINT
  5
40A
330
6B4
100
AcDbEntity
  8
HATCH
  6
Continuous
 62
     7
370
    30
100
AcDbPoint
 10
5.965605
 20
7.302043
 30
0.0
  0
POINT
  5
40B
330
6B4
100
AcDbEntity
  8
HATCH
  6
Continuous
 62
     7
370
    30
100
AcDbPoint
 10
5.934355
 20
7.302043
 30
0.0
  0
POINT
  5
40C
330
6B4
100
AcDbEntity
  8
HATCH
  6
Continuous
 62
     7
370
    30
100
AcDbPoint
 10
5.903105
 20
7.302043
 30
0.0
  0
POINT
  5
40D
330
6B4
100
AcDbEntity
  8
HATCH
  6
Continuous
 62
     7
370
    30
100
AcDbPoint
 10
5.871855
 20
7.302043
 30
0.0
  0
POINT
  5
40E
330
6B4
100
AcDbEntity
  8
HATCH
  6
Continuous
 62
     7
370
    30
100
AcDbPoint
 10
5.840605
 20
7.302043
 30
0.0
  0
POINT
  5
40F
330
6B4
100
AcDbEntity
  8
HATCH
  6
Continuous
 62
     7
370
    30
100
AcDbPoint
 10
5.809355
 20
7.302043
 30
0.0
  0
POINT
  5
410
330
6B4
100
AcDbEntity
  8
HATCH
  6
Continuous
 62
     7
370
    30
100
AcDbPoint
 10
5.778105
 20
7.302043
 30
0.0
  0
POINT
  5
411
330
6B4
100
AcDbEntity
  8
HATCH
  6
Continuous
 62
     7
370
    30
100
AcDbPoint
 10
5.746855
 20
7.302043
 30
0.0
  0
POINT
  5
412
330
6B4
100
AcDbEntity
  8
HATCH
  6
Continuous
 62
     7
370
    30
100
AcDbPoint
 10
5.715605
 20
7.302043
 30
0.0
  0
POINT
  5
413
330
6B4
100
AcDbEntity
  8
HATCH
  6
Continuous
 62
     7
370
    30
100
AcDbPoint
 10
5.684355
 20
7.302043
 30
0.0
  0
POINT
  5
414
330
6B4
100
AcDbEntity
  8
HATCH
  6
Continuous
 62
     7
370
    30
100
AcDbPoint
 10
5.653105
 20
7.302043
 30
0.0
  0
POINT
  5
415
330
6B4
100
AcDbEntity
  8
HATCH
  6
Continuous
 62
     7
370
    30
100
AcDbPoint
 10
6.54373
 20
7.270793
 30
0.0
  0
POINT
  5
416
330
6B4
100
AcDbEntity
  8
HATCH
  6
Continuous
 62
     7
370
    30
100
AcDbPoint
 10
6.51248
 20
7.270793
 30
0.0
  0
POINT
  5
417
330
6B4
100
AcDbEntity
  8
HATCH
  6
Continuous
 62
     7
370
    30
100
AcDbPoint
 10
6.48123
 20
7.270793
 30
0.0
  0
POINT
  5
418
330
6B4
100
AcDbEntity
  8
HATCH
  6
Continuous
 62
     7
370
    30
100
AcDbPoint
 10
6.44998
 20
7.270793
 30
0.0
  0
POINT
  5
419
330
6B4
100
AcDbEntity
  8
HATCH
  6
Continuous
 62
     7
370
    30
100
AcDbPoint
 10
6.41873
 20
7.270793
 30
0.0
  0
POINT
  5
41A
330
6B4
100
AcDbEntity
  8
HATCH
  6
Continuous
 62
     7
370
    30
100
AcDbPoint
 10
6.38748
 20
7.270793
 30
0.0
  0
POINT
  5
41B
330
6B4
100
AcDbEntity
  8
HATCH
  6
Continuous
 62
     7
370
    30
100
AcDbPoint
 10
6.35623
 20
7.270793
 30
0.0
  0
POINT
  5
41C
330
6B4
100
AcDbEntity
  8
HATCH
  6
Continuous
 62
     7
370
    30
100
AcDbPoint
 10
6.32498
 20
7.270793
 30
0.0
  0
POINT
  5
41D
330
6B4
100
AcDbEntity
  8
HATCH
  6
Continuous
 62
     7
370
    30
100
AcDbPoint
 10
6.29373
 20
7.270793
 30
0.0
  0
POINT
  5
41E
330
6B4
100
AcDbEntity
  8
HATCH
  6
Continuous
 62
     7
370
    30
100
AcDbPoint
 10
6.26248
 20
7.270793
 30
0.0
  0
POINT
  5
41F
330
6B4
100
AcDbEntity
  8
HATCH
  6
Continuous
 62
     7
370
    30
100
AcDbPoint
 10
6.23123
 20
7.270793
 30
0.0
  0
POINT
  5
420
330
6B4
100
AcDbEntity
  8
HATCH
  6
Continuous
 62
     7
370
    30
100
AcDbPoint
 10
6.19998
 20
7.270793
 30
0.0
  0
POINT
  5
421
330
6B4
100
AcDbEntity
  8
HATCH
  6
Continuous
 62
     7
370
    30
100
AcDbPoint
 10
6.16873
 20
7.270793
 30
0.0
  0
POINT
  5
422
330
6B4
100
AcDbEntity
  8
HATCH
  6
Continuous
 62
     7
370
    30
100
AcDbPoint
 10
6.13748
 20
7.270793
 30
0.0
  0
POINT
  5
423
330
6B4
100
AcDbEntity
  8
HATCH
  6
Continuous
 62
     7
370
    30
100
AcDbPoint
 10
6.10623
 20
7.270793
 30
0.0
  0
POINT
  5
424
330
6B4
100
AcDbEntity
  8
HATCH
  6
Continuous
 62
     7
370
    30
100
AcDbPoint
 10
6.07498
 20
7.270793
 30
0.0
  0
POINT
  5
425
330
6B4
100
AcDbEntity
  8
HATCH
  6
Continuous
 62
     7
370
    30
100
AcDbPoint
 10
6.04373
 20
7.270793
 30
0.0
  0
POINT
  5
426
330
6B4
100
AcDbEntity
  8
HATCH
  6
Continuous
 62
     7
370
    30
100
AcDbPoint
 10
6.01248
 20
7.270793
 30
0.0
  0
POINT
  5
427
330
6B4
100
AcDbEntity
  8
HATCH
  6
Continuous
 62
     7
370
    30
100
AcDbPoint
 10
5.98123
 20
7.270793
 30
0.0
  0
POINT
  5
428
330
6B4
100
AcDbEntity
  8
HATCH
  6
Continuous
 62
     7
370
    30
100
AcDbPoint
 10
5.94998
 20
7.270793
 30
0.0
  0
POINT
  5
429
330
6B4
100
AcDbEntity
  8
HATCH
  6
Continuous
 62
     7
370
    30
100
AcDbPoint
 10
5.91873
 20
7.270793
 30
0.0
  0
POINT
  5
42A
330
6B4
100
AcDbEntity
  8
HATCH
  6
Continuous
 62
     7
370
    30
100
AcDbPoint
 10
5.88748
 20
7.270793
 30
0.0
  0
POINT
  5
42B
330
6B4
100
AcDbEntity
  8
HATCH
  6
Continuous
 62
     7
370
    30
100
AcDbPoint
 10
5.85623
 20
7.270793
 30
0.0
  0
POINT
  5
42C
330
6B4
100
AcDbEntity
  8
HATCH
  6
Continuous
 62
     7
370
    30
100
AcDbPoint
 10
5.82498
 20
7.270793
 30
0.0
  0
POINT
  5
42D
330
6B4
100
AcDbEntity
  8
HATCH
  6
Continuous
 62
     7
370
    30
100
AcDbPoint
 10
5.79373
 20
7.270793
 30
0.0
  0
POINT
  5
42E
330
6B4
100
AcDbEntity
  8
HATCH
  6
Continuous
 62
     7
370
    30
100
AcDbPoint
 10
5.76248
 20
7.270793
 30
0.0
  0
POINT
  5
42F
330
6B4
100
AcDbEntity
  8
HATCH
  6
Continuous
 62
     7
370
    30
100
AcDbPoint
 10
5.73123
 20
7.270793
 30
0.0
  0
POINT
  5
430
330
6B4
100
AcDbEntity
  8
HATCH
  6
Continuous
 62
     7
370
    30
100
AcDbPoint
 10
5.69998
 20
7.270793
 30
0.0
  0
POINT
  5
431
330
6B4
100
AcDbEntity
  8
HATCH
  6
Continuous
 62
     7
370
    30
100
AcDbPoint
 10
5.66873
 20
7.270793
 30
0.0
  0
POINT
  5
432
330
6B4
100
AcDbEntity
  8
HATCH
  6
Continuous
 62
     7
370
    30
100
AcDbPoint
 10
5.63748
 20
7.270793
 30
0.0
  0
POINT
  5
433
330
6B4
100
AcDbEntity
  8
HATCH
  6
Continuous
 62
     7
370
    30
100
AcDbPoint
 10
6.528105
 20
7.239543
 30
0.0
  0
POINT
  5
434
330
6B4
100
AcDbEntity
  8
HATCH
  6
Continuous
 62
     7
370
    30
100
AcDbPoint
 10
6.496855
 20
7.239543
 30
0.0
  0
POINT
  5
435
330
6B4
100
AcDbEntity
  8
HATCH
  6
Continuous
 62
     7
370
    30
100
AcDbPoint
 10
6.465605
 20
7.239543
 30
0.0
  0
POINT
  5
436
330
6B4
100
AcDbEntity
  8
HATCH
  6
Continuous
 62
     7
370
    30
100
AcDbPoint
 10
6.434355
 20
7.239543
 30
0.0
  0
POINT
  5
437
330
6B4
100
AcDbEntity
  8
HATCH
  6
Continuous
 62
     7
370
    30
100
AcDbPoint
 10
6.403105
 20
7.239543
 30
0.0
  0
POINT
  5
438
330
6B4
100
AcDbEntity
  8
HATCH
  6
Continuous
 62
     7
370
    30
100
AcDbPoint
 10
6.371855
 20
7.239543
 30
0.0
  0
POINT
  5
439
330
6B4
100
AcDbEntity
  8
HATCH
  6
Continuous
 62
     7
370
    30
100
AcDbPoint
 10
6.340605
 20
7.239543
 30
0.0
  0
POINT
  5
43A
330
6B4
100
AcDbEntity
  8
HATCH
  6
Continuous
 62
     7
370
    30
100
AcDbPoint
 10
6.309355
 20
7.239543
 30
0.0
  0
POINT
  5
43B
330
6B4
100
AcDbEntity
  8
HATCH
  6
Continuous
 62
     7
370
    30
100
AcDbPoint
 10
6.278105
 20
7.239543
 30
0.0
  0
POINT
  5
43C
330
6B4
100
AcDbEntity
  8
HATCH
  6
Continuous
 62
     7
370
    30
100
AcDbPoint
 10
6.246855
 20
7.239543
 30
0.0
  0
POINT
  5
43D
330
6B4
100
AcDbEntity
  8
HATCH
  6
Continuous
 62
     7
370
    30
100
AcDbPoint
 10
6.215605
 20
7.239543
 30
0.0
  0
POINT
  5
43E
330
6B4
100
AcDbEntity
  8
HATCH
  6
Continuous
 62
     7
370
    30
100
AcDbPoint
 10
6.184355
 20
7.239543
 30
0.0
  0
POINT
  5
43F
330
6B4
100
AcDbEntity
  8
HATCH
  6
Continuous
 62
     7
370
    30
100
AcDbPoint
 10
6.153105
 20
7.239543
 30
0.0
  0
POINT
  5
440
330
6B4
100
AcDbEntity
  8
HATCH
  6
Continuous
 62
     7
370
    30
100
AcDbPoint
 10
6.121855
 20
7.239543
 30
0.0
  0
POINT
  5
441
330
6B4
100
AcDbEntity
  8
HATCH
  6
Continuous
 62
     7
370
    30
100
AcDbPoint
 10
6.090605
 20
7.239543
 30
0.0
  0
POINT
  5
442
330
6B4
100
AcDbEntity
  8
HATCH
  6
Continuous
 62
     7
370
    30
100
AcDbPoint
 10
6.059355
 20
7.239543
 30
0.0
  0
POINT
  5
443
330
6B4
100
AcDbEntity
  8
HATCH
  6
Continuous
 62
     7
370
    30
100
AcDbPoint
 10
6.028105
 20
7.239543
 30
0.0
  0
POINT
  5
444
330
6B4
100
AcDbEntity
  8
HATCH
  6
Continuous
 62
     7
370
    30
100
AcDbPoint
 10
5.996855
 20
7.239543
 30
0.0
  0
POINT
  5
445
330
6B4
100
AcDbEntity
  8
HATCH
  6
Continuous
 62
     7
370
    30
100
AcDbPoint
 10
5.965605
 20
7.239543
 30
0.0
  0
POINT
  5
446
330
6B4
100
AcDbEntity
  8
HATCH
  6
Continuous
 62
     7
370
    30
100
AcDbPoint
 10
5.934355
 20
7.239543
 30
0.0
  0
POINT
  5
447
330
6B4
100
AcDbEntity
  8
HATCH
  6
Continuous
 62
     7
370
    30
100
AcDbPoint
 10
5.903105
 20
7.239543
 30
0.0
  0
POINT
  5
448
330
6B4
100
AcDbEntity
  8
HATCH
  6
Continuous
 62
     7
370
    30
100
AcDbPoint
 10
5.871855
 20
7.239543
 30
0.0
  0
POINT
  5
449
330
6B4
100
AcDbEntity
  8
HATCH
  6
Continuous
 62
     7
370
    30
100
AcDbPoint
 10
5.840605
 20
7.239543
 30
0.0
  0
POINT
  5
44A
330
6B4
100
AcDbEntity
  8
HATCH
  6
Continuous
 62
     7
370
    30
100
AcDbPoint
 10
5.809355
 20
7.239543
 30
0.0
  0
POINT
  5
44B
330
6B4
100
AcDbEntity
  8
HATCH
  6
Continuous
 62
     7
370
    30
100
AcDbPoint
 10
5.778105
 20
7.239543
 30
0.0
  0
POINT
  5
44C
330
6B4
100
AcDbEntity
  8
HATCH
  6
Continuous
 62
     7
370
    30
100
AcDbPoint
 10
5.746855
 20
7.239543
 30
0.0
  0
POINT
  5
44D
330
6B4
100
AcDbEntity
  8
HATCH
  6
Continuous
 62
     7
370
    30
100
AcDbPoint
 10
5.715605
 20
7.239543
 30
0.0
  0
POINT
  5
44E
330
6B4
100
AcDbEntity
  8
HATCH
  6
Continuous
 62
     7
370
    30
100
AcDbPoint
 10
5.684355
 20
7.239543
 30
0.0
  0
POINT
  5
44F
330
6B4
100
AcDbEntity
  8
HATCH
  6
Continuous
 62
     7
370
    30
100
AcDbPoint
 10
5.653105
 20
7.239543
 30
0.0
  0
POINT
  5
450
330
6B4
100
AcDbEntity
  8
HATCH
  6
Continuous
 62
     7
370
    30
100
AcDbPoint
 10
5.621855
 20
7.239543
 30
0.0
  0
POINT
  5
451
330
6B4
100
AcDbEntity
  8
HATCH
  6
Continuous
 62
     7
370
    30
100
AcDbPoint
 10
6.54373
 20
7.208293
 30
0.0
  0
POINT
  5
452
330
6B4
100
AcDbEntity
  8
HATCH
  6
Continuous
 62
     7
370
    30
100
AcDbPoint
 10
6.51248
 20
7.208293
 30
0.0
  0
POINT
  5
453
330
6B4
100
AcDbEntity
  8
HATCH
  6
Continuous
 62
     7
370
    30
100
AcDbPoint
 10
6.48123
 20
7.208293
 30
0.0
  0
POINT
  5
454
330
6B4
100
AcDbEntity
  8
HATCH
  6
Continuous
 62
     7
370
    30
100
AcDbPoint
 10
6.44998
 20
7.208293
 30
0.0
  0
POINT
  5
455
330
6B4
100
AcDbEntity
  8
HATCH
  6
Continuous
 62
     7
370
    30
100
AcDbPoint
 10
6.41873
 20
7.208293
 30
0.0
  0
POINT
  5
456
330
6B4
100
AcDbEntity
  8
HATCH
  6
Continuous
 62
     7
370
    30
100
AcDbPoint
 10
6.38748
 20
7.208293
 30
0.0
  0
POINT
  5
457
330
6B4
100
AcDbEntity
  8
HATCH
  6
Continuous
 62
     7
370
    30
100
AcDbPoint
 10
6.35623
 20
7.208293
 30
0.0
  0
POINT
  5
458
330
6B4
100
AcDbEntity
  8
HATCH
  6
Continuous
 62
     7
370
    30
100
AcDbPoint
 10
6.32498
 20
7.208293
 30
0.0
  0
POINT
  5
459
330
6B4
100
AcDbEntity
  8
HATCH
  6
Continuous
 62
     7
370
    30
100
AcDbPoint
 10
6.29373
 20
7.208293
 30
0.0
  0
POINT
  5
45A
330
6B4
100
AcDbEntity
  8
HATCH
  6
Continuous
 62
     7
370
    30
100
AcDbPoint
 10
6.26248
 20
7.208293
 30
0.0
  0
POINT
  5
45B
330
6B4
100
AcDbEntity
  8
HATCH
  6
Continuous
 62
     7
370
    30
100
AcDbPoint
 10
6.23123
 20
7.208293
 30
0.0
  0
POINT
  5
45C
330
6B4
100
AcDbEntity
  8
HATCH
  6
Continuous
 62
     7
370
    30
100
AcDbPoint
 10
6.19998
 20
7.208293
 30
0.0
  0
POINT
  5
45D
330
6B4
100
AcDbEntity
  8
HATCH
  6
Continuous
 62
     7
370
    30
100
AcDbPoint
 10
6.16873
 20
7.208293
 30
0.0
  0
POINT
  5
45E
330
6B4
100
AcDbEntity
  8
HATCH
  6
Continuous
 62
     7
370
    30
100
AcDbPoint
 10
6.13748
 20
7.208293
 30
0.0
  0
POINT
  5
45F
330
6B4
100
AcDbEntity
  8
HATCH
  6
Continuous
 62
     7
370
    30
100
AcDbPoint
 10
6.10623
 20
7.208293
 30
0.0
  0
POINT
  5
460
330
6B4
100
AcDbEntity
  8
HATCH
  6
Continuous
 62
     7
370
    30
100
AcDbPoint
 10
6.07498
 20
7.208293
 30
0.0
  0
POINT
  5
461
330
6B4
100
AcDbEntity
  8
HATCH
  6
Continuous
 62
     7
370
    30
100
AcDbPoint
 10
6.04373
 20
7.208293
 30
0.0
  0
POINT
  5
462
330
6B4
100
AcDbEntity
  8
HATCH
  6
Continuous
 62
     7
370
    30
100
AcDbPoint
 10
6.01248
 20
7.208293
 30
0.0
  0
POINT
  5
463
330
6B4
100
AcDbEntity
  8
HATCH
  6
Continuous
 62
     7
370
    30
100
AcDbPoint
 10
5.98123
 20
7.208293
 30
0.0
  0
POINT
  5
464
330
6B4
100
AcDbEntity
  8
HATCH
  6
Continuous
 62
     7
370
    30
100
AcDbPoint
 10
5.94998
 20
7.208293
 30
0.0
  0
POINT
  5
465
330
6B4
100
AcDbEntity
  8
HATCH
  6
Continuous
 62
     7
370
    30
100
AcDbPoint
 10
5.91873
 20
7.208293
 30
0.0
  0
POINT
  5
466
330
6B4
100
AcDbEntity
  8
HATCH
  6
Continuous
 62
     7
370
    30
100
AcDbPoint
 10
5.88748
 20
7.208293
 30
0.0
  0
POINT
  5
467
330
6B4
100
AcDbEntity
  8
HATCH
  6
Continuous
 62
     7
370
    30
100
AcDbPoint
 10
5.85623
 20
7.208293
 30
0.0
  0
POINT
  5
468
330
6B4
100
AcDbEntity
  8
HATCH
  6
Continuous
 62
     7
370
    30
100
AcDbPoint
 10
5.82498
 20
7.208293
 30
0.0
  0
POINT
  5
469
330
6B4
100
AcDbEntity
  8
HATCH
  6
Continuous
 62
     7
370
    30
100
AcDbPoint
 10
5.79373
 20
7.208293
 30
0.0
  0
POINT
  5
46A
330
6B4
100
AcDbEntity
  8
HATCH
  6
Continuous
 62
     7
370
    30
100
AcDbPoint
 10
5.76248
 20
7.208293
 30
0.0
  0
POINT
  5
46B
330
6B4
100
AcDbEntity
  8
HATCH
  6
Continuous
 62
     7
370
    30
100
AcDbPoint
 10
5.73123
 20
7.208293
 30
0.0
  0
POINT
  5
46C
330
6B4
100
AcDbEntity
  8
HATCH
  6
Continuous
 62
     7
370
    30
100
AcDbPoint
 10
5.69998
 20
7.208293
 30
0.0
  0
POINT
  5
46D
330
6B4
100
AcDbEntity
  8
HATCH
  6
Continuous
 62
     7
370
    30
100
AcDbPoint
 10
5.66873
 20
7.208293
 30
0.0
  0
POINT
  5
46E
330
6B4
100
AcDbEntity
  8
HATCH
  6
Continuous
 62
     7
370
    30
100
AcDbPoint
 10
5.63748
 20
7.208293
 30
0.0
  0
POINT
  5
46F
330
6B4
100
AcDbEntity
  8
HATCH
  6
Continuous
 62
     7
370
    30
100
AcDbPoint
 10
5.60623
 20
7.208293
 30
0.0
  0
POINT
  5
470
330
6B4
100
AcDbEntity
  8
HATCH
  6
Continuous
 62
     7
370
    30
100
AcDbPoint
 10
6.528105
 20
7.177043
 30
0.0
  0
POINT
  5
471
330
6B4
100
AcDbEntity
  8
HATCH
  6
Continuous
 62
     7
370
    30
100
AcDbPoint
 10
6.496855
 20
7.177043
 30
0.0
  0
POINT
  5
472
330
6B4
100
AcDbEntity
  8
HATCH
  6
Continuous
 62
     7
370
    30
100
AcDbPoint
 10
6.465605
 20
7.177043
 30
0.0
  0
POINT
  5
473
330
6B4
100
AcDbEntity
  8
HATCH
  6
Continuous
 62
     7
370
    30
100
AcDbPoint
 10
6.434355
 20
7.177043
 30
0.0
  0
POINT
  5
474
330
6B4
100
AcDbEntity
  8
HATCH
  6
Continuous
 62
     7
370
    30
100
AcDbPoint
 10
6.403105
 20
7.177043
 30
0.0
  0
POINT
  5
475
330
6B4
100
AcDbEntity
  8
HATCH
  6
Continuous
 62
     7
370
    30
100
AcDbPoint
 10
6.371855
 20
7.177043
 30
0.0
  0
POINT
  5
476
330
6B4
100
AcDbEntity
  8
HATCH
  6
Continuous
 62
     7
370
    30
100
AcDbPoint
 10
6.340605
 20
7.177043
 30
0.0
  0
POINT
  5
477
330
6B4
100
AcDbEntity
  8
HATCH
  6
Continuous
 62
     7
370
    30
100
AcDbPoint
 10
6.309355
 20
7.177043
 30
0.0
  0
POINT
  5
478
330
6B4
100
AcDbEntity
  8
HATCH
  6
Continuous
 62
     7
370
    30
100
AcDbPoint
 10
6.278105
 20
7.177043
 30
0.0
  0
POINT
  5
479
330
6B4
100
AcDbEntity
  8
HATCH
  6
Continuous
 62
     7
370
    30
100
AcDbPoint
 10
6.246855
 20
7.177043
 30
0.0
  0
POINT
  5
47A
330
6B4
100
AcDbEntity
  8
HATCH
  6
Continuous
 62
     7
370
    30
100
AcDbPoint
 10
6.215605
 20
7.177043
 30
0.0
  0
POINT
  5
47B
330
6B4
100
AcDbEntity
  8
HATCH
  6
Continuous
 62
     7
370
    30
100
AcDbPoint
 10
6.184355
 20
7.177043
 30
0.0
  0
POINT
  5
47C
330
6B4
100
AcDbEntity
  8
HATCH
  6
Continuous
 62
     7
370
    30
100
AcDbPoint
 10
6.153105
 20
7.177043
 30
0.0
  0
POINT
  5
47D
330
6B4
100
AcDbEntity
  8
HATCH
  6
Continuous
 62
     7
370
    30
100
AcDbPoint
 10
6.121855
 20
7.177043
 30
0.0
  0
POINT
  5
47E
330
6B4
100
AcDbEntity
  8
HATCH
  6
Continuous
 62
     7
370
    30
100
AcDbPoint
 10
6.090605
 20
7.177043
 30
0.0
  0
POINT
  5
47F
330
6B4
100
AcDbEntity
  8
HATCH
  6
Continuous
 62
     7
370
    30
100
AcDbPoint
 10
6.059355
 20
7.177043
 30
0.0
  0
POINT
  5
480
330
6B4
100
AcDbEntity
  8
HATCH
  6
Continuous
 62
     7
370
    30
100
AcDbPoint
 10
6.028105
 20
7.177043
 30
0.0
  0
POINT
  5
481
330
6B4
100
AcDbEntity
  8
HATCH
  6
Continuous
 62
     7
370
    30
100
AcDbPoint
 10
5.996855
 20
7.177043
 30
0.0
  0
POINT
  5
482
330
6B4
100
AcDbEntity
  8
HATCH
  6
Continuous
 62
     7
370
    30
100
AcDbPoint
 10
5.965605
 20
7.177043
 30
0.0
  0
POINT
  5
483
330
6B4
100
AcDbEntity
  8
HATCH
  6
Continuous
 62
     7
370
    30
100
AcDbPoint
 10
5.934355
 20
7.177043
 30
0.0
  0
POINT
  5
484
330
6B4
100
AcDbEntity
  8
HATCH
  6
Continuous
 62
     7
370
    30
100
AcDbPoint
 10
5.903105
 20
7.177043
 30
0.0
  0
POINT
  5
485
330
6B4
100
AcDbEntity
  8
HATCH
  6
Continuous
 62
     7
370
    30
100
AcDbPoint
 10
5.871855
 20
7.177043
 30
0.0
  0
POINT
  5
486
330
6B4
100
AcDbEntity
  8
HATCH
  6
Continuous
 62
     7
370
    30
100
AcDbPoint
 10
5.840605
 20
7.177043
 30
0.0
  0
POINT
  5
487
330
6B4
100
AcDbEntity
  8
HATCH
  6
Continuous
 62
     7
370
    30
100
AcDbPoint
 10
5.809355
 20
7.177043
 30
0.0
  0
POINT
  5
488
330
6B4
100
AcDbEntity
  8
HATCH
  6
Continuous
 62
     7
370
    30
100
AcDbPoint
 10
5.778105
 20
7.177043
 30
0.0
  0
POINT
  5
489
330
6B4
100
AcDbEntity
  8
HATCH
  6
Continuous
 62
     7
370
    30
100
AcDbPoint
 10
5.746855
 20
7.177043
 30
0.0
  0
POINT
  5
48A
330
6B4
100
AcDbEntity
  8
HATCH
  6
Continuous
 62
     7
370
    30
100
AcDbPoint
 10
5.715605
 20
7.177043
 30
0.0
  0
POINT
  5
48B
330
6B4
100
AcDbEntity
  8
HATCH
  6
Continuous
 62
     7
370
    30
100
AcDbPoint
 10
5.684355
 20
7.177043
 30
0.0
  0
POINT
  5
48C
330
6B4
100
AcDbEntity
  8
HATCH
  6
Continuous
 62
     7
370
    30
100
AcDbPoint
 10
5.653105
 20
7.177043
 30
0.0
  0
POINT
  5
48D
330
6B4
100
AcDbEntity
  8
HATCH
  6
Continuous
 62
     7
370
    30
100
AcDbPoint
 10
5.621855
 20
7.177043
 30
0.0
  0
POINT
  5
48E
330
6B4
100
AcDbEntity
  8
HATCH
  6
Continuous
 62
     7
370
    30
100
AcDbPoint
 10
5.590605
 20
7.177043
 30
0.0
  0
POINT
  5
48F
330
6B4
100
AcDbEntity
  8
HATCH
  6
Continuous
 62
     7
370
    30
100
AcDbPoint
 10
5.559355
 20
7.177043
 30
0.0
  0
POINT
  5
490
330
6B4
100
AcDbEntity
  8
HATCH
  6
Continuous
 62
     7
370
    30
100
AcDbPoint
 10
6.54373
 20
7.145793
 30
0.0
  0
POINT
  5
491
330
6B4
100
AcDbEntity
  8
HATCH
  6
Continuous
 62
     7
370
    30
100
AcDbPoint
 10
6.51248
 20
7.145793
 30
0.0
  0
POINT
  5
492
330
6B4
100
AcDbEntity
  8
HATCH
  6
Continuous
 62
     7
370
    30
100
AcDbPoint
 10
6.48123
 20
7.145793
 30
0.0
  0
POINT
  5
493
330
6B4
100
AcDbEntity
  8
HATCH
  6
Continuous
 62
     7
370
    30
100
AcDbPoint
 10
6.44998
 20
7.145793
 30
0.0
  0
POINT
  5
494
330
6B4
100
AcDbEntity
  8
HATCH
  6
Continuous
 62
     7
370
    30
100
AcDbPoint
 10
6.41873
 20
7.145793
 30
0.0
  0
POINT
  5
495
330
6B4
100
AcDbEntity
  8
HATCH
  6
Continuous
 62
     7
370
    30
100
AcDbPoint
 10
6.38748
 20
7.145793
 30
0.0
  0
POINT
  5
496
330
6B4
100
AcDbEntity
  8
HATCH
  6
Continuous
 62
     7
370
    30
100
AcDbPoint
 10
6.35623
 20
7.145793
 30
0.0
  0
POINT
  5
497
330
6B4
100
AcDbEntity
  8
HATCH
  6
Continuous
 62
     7
370
    30
100
AcDbPoint
 10
6.32498
 20
7.145793
 30
0.0
  0
POINT
  5
498
330
6B4
100
AcDbEntity
  8
HATCH
  6
Continuous
 62
     7
370
    30
100
AcDbPoint
 10
6.29373
 20
7.145793
 30
0.0
  0
POINT
  5
499
330
6B4
100
AcDbEntity
  8
HATCH
  6
Continuous
 62
     7
370
    30
100
AcDbPoint
 10
6.26248
 20
7.145793
 30
0.0
  0
POINT
  5
49A
330
6B4
100
AcDbEntity
  8
HATCH
  6
Continuous
 62
     7
370
    30
100
AcDbPoint
 10
6.23123
 20
7.145793
 30
0.0
  0
POINT
  5
49B
330
6B4
100
AcDbEntity
  8
HATCH
  6
Continuous
 62
     7
370
    30
100
AcDbPoint
 10
6.19998
 20
7.145793
 30
0.0
  0
POINT
  5
49C
330
6B4
100
AcDbEntity
  8
HATCH
  6
Continuous
 62
     7
370
    30
100
AcDbPoint
 10
6.16873
 20
7.145793
 30
0.0
  0
POINT
  5
49D
330
6B4
100
AcDbEntity
  8
HATCH
  6
Continuous
 62
     7
370
    30
100
AcDbPoint
 10
6.13748
 20
7.145793
 30
0.0
  0
POINT
  5
49E
330
6B4
100
AcDbEntity
  8
HATCH
  6
Continuous
 62
     7
370
    30
100
AcDbPoint
 10
6.10623
 20
7.145793
 30
0.0
  0
POINT
  5
49F
330
6B4
100
AcDbEntity
  8
HATCH
  6
Continuous
 62
     7
370
    30
100
AcDbPoint
 10
6.07498
 20
7.145793
 30
0.0
  0
POINT
  5
4A0
330
6B4
100
AcDbEntity
  8
HATCH
  6
Continuous
 62
     7
370
    30
100
AcDbPoint
 10
6.04373
 20
7.145793
 30
0.0
  0
POINT
  5
4A1
330
6B4
100
AcDbEntity
  8
HATCH
  6
Continuous
 62
     7
370
    30
100
AcDbPoint
 10
6.01248
 20
7.145793
 30
0.0
  0
POINT
  5
4A2
330
6B4
100
AcDbEntity
  8
HATCH
  6
Continuous
 62
     7
370
    30
100
AcDbPoint
 10
5.98123
 20
7.145793
 30
0.0
  0
POINT
  5
4A3
330
6B4
100
AcDbEntity
  8
HATCH
  6
Continuous
 62
     7
370
    30
100
AcDbPoint
 10
5.94998
 20
7.145793
 30
0.0
  0
POINT
  5
4A4
330
6B4
100
AcDbEntity
  8
HATCH
  6
Continuous
 62
     7
370
    30
100
AcDbPoint
 10
5.91873
 20
7.145793
 30
0.0
  0
POINT
  5
4A5
330
6B4
100
AcDbEntity
  8
HATCH
  6
Continuous
 62
     7
370
    30
100
AcDbPoint
 10
5.88748
 20
7.145793
 30
0.0
  0
POINT
  5
4A6
330
6B4
100
AcDbEntity
  8
HATCH
  6
Continuous
 62
     7
370
    30
100
AcDbPoint
 10
5.85623
 20
7.145793
 30
0.0
  0
POINT
  5
4A7
330
6B4
100
AcDbEntity
  8
HATCH
  6
Continuous
 62
     7
370
    30
100
AcDbPoint
 10
5.82498
 20
7.145793
 30
0.0
  0
POINT
  5
4A8
330
6B4
100
AcDbEntity
  8
HATCH
  6
Continuous
 62
     7
370
    30
100
AcDbPoint
 10
5.79373
 20
7.145793
 30
0.0
  0
POINT
  5
4A9
330
6B4
100
AcDbEntity
  8
HATCH
  6
Continuous
 62
     7
370
    30
100
AcDbPoint
 10
5.76248
 20
7.145793
 30
0.0
  0
POINT
  5
4AA
330
6B4
100
AcDbEntity
  8
HATCH
  6
Continuous
 62
     7
370
    30
100
AcDbPoint
 10
5.73123
 20
7.145793
 30
0.0
  0
POINT
  5
4AB
330
6B4
100
AcDbEntity
  8
HATCH
  6
Continuous
 62
     7
370
    30
100
AcDbPoint
 10
5.69998
 20
7.145793
 30
0.0
  0
POINT
  5
4AC
330
6B4
100
AcDbEntity
  8
HATCH
  6
Continuous
 62
     7
370
    30
100
AcDbPoint
 10
5.66873
 20
7.145793
 30
0.0
  0
POINT
  5
4AD
330
6B4
100
AcDbEntity
  8
HATCH
  6
Continuous
 62
     7
370
    30
100
AcDbPoint
 10
5.63748
 20
7.145793
 30
0.0
  0
POINT
  5
4AE
330
6B4
100
AcDbEntity
  8
HATCH
  6
Continuous
 62
     7
370
    30
100
AcDbPoint
 10
5.60623
 20
7.145793
 30
0.0
  0
POINT
  5
4AF
330
6B4
100
AcDbEntity
  8
HATCH
  6
Continuous
 62
     7
370
    30
100
AcDbPoint
 10
5.57498
 20
7.145793
 30
0.0
  0
POINT
  5
4B0
330
6B4
100
AcDbEntity
  8
HATCH
  6
Continuous
 62
     7
370
    30
100
AcDbPoint
 10
5.54373
 20
7.145793
 30
0.0
  0
POINT
  5
4B1
330
6B4
100
AcDbEntity
  8
HATCH
  6
Continuous
 62
     7
370
    30
100
AcDbPoint
 10
6.528105
 20
7.114543
 30
0.0
  0
POINT
  5
4B2
330
6B4
100
AcDbEntity
  8
HATCH
  6
Continuous
 62
     7
370
    30
100
AcDbPoint
 10
6.496855
 20
7.114543
 30
0.0
  0
POINT
  5
4B3
330
6B4
100
AcDbEntity
  8
HATCH
  6
Continuous
 62
     7
370
    30
100
AcDbPoint
 10
6.465605
 20
7.114543
 30
0.0
  0
POINT
  5
4B4
330
6B4
100
AcDbEntity
  8
HATCH
  6
Continuous
 62
     7
370
    30
100
AcDbPoint
 10
6.434355
 20
7.114543
 30
0.0
  0
POINT
  5
4B5
330
6B4
100
AcDbEntity
  8
HATCH
  6
Continuous
 62
     7
370
    30
100
AcDbPoint
 10
6.403105
 20
7.114543
 30
0.0
  0
POINT
  5
4B6
330
6B4
100
AcDbEntity
  8
HATCH
  6
Continuous
 62
     7
370
    30
100
AcDbPoint
 10
6.371855
 20
7.114543
 30
0.0
  0
POINT
  5
4B7
330
6B4
100
AcDbEntity
  8
HATCH
  6
Continuous
 62
     7
370
    30
100
AcDbPoint
 10
6.340605
 20
7.114543
 30
0.0
  0
POINT
  5
4B8
330
6B4
100
AcDbEntity
  8
HATCH
  6
Continuous
 62
     7
370
    30
100
AcDbPoint
 10
6.309355
 20
7.114543
 30
0.0
  0
POINT
  5
4B9
330
6B4
100
AcDbEntity
  8
HATCH
  6
Continuous
 62
     7
370
    30
100
AcDbPoint
 10
6.278105
 20
7.114543
 30
0.0
  0
POINT
  5
4BA
330
6B4
100
AcDbEntity
  8
HATCH
  6
Continuous
 62
     7
370
    30
100
AcDbPoint
 10
6.246855
 20
7.114543
 30
0.0
  0
POINT
  5
4BB
330
6B4
100
AcDbEntity
  8
HATCH
  6
Continuous
 62
     7
370
    30
100
AcDbPoint
 10
6.215605
 20
7.114543
 30
0.0
  0
POINT
  5
4BC
330
6B4
100
AcDbEntity
  8
HATCH
  6
Continuous
 62
     7
370
    30
100
AcDbPoint
 10
6.184355
 20
7.114543
 30
0.0
  0
POINT
  5
4BD
330
6B4
100
AcDbEntity
  8
HATCH
  6
Continuous
 62
     7
370
    30
100
AcDbPoint
 10
6.153105
 20
7.114543
 30
0.0
  0
POINT
  5
4BE
330
6B4
100
AcDbEntity
  8
HATCH
  6
Continuous
 62
     7
370
    30
100
AcDbPoint
 10
6.121855
 20
7.114543
 30
0.0
  0
POINT
  5
4BF
330
6B4
100
AcDbEntity
  8
HATCH
  6
Continuous
 62
     7
370
    30
100
AcDbPoint
 10
6.090605
 20
7.114543
 30
0.0
  0
POINT
  5
4C0
330
6B4
100
AcDbEntity
  8
HATCH
  6
Continuous
 62
     7
370
    30
100
AcDbPoint
 10
6.059355
 20
7.114543
 30
0.0
  0
POINT
  5
4C1
330
6B4
100
AcDbEntity
  8
HATCH
  6
Continuous
 62
     7
370
    30
100
AcDbPoint
 10
6.028105
 20
7.114543
 30
0.0
  0
POINT
  5
4C2
330
6B4
100
AcDbEntity
  8
HATCH
  6
Continuous
 62
     7
370
    30
100
AcDbPoint
 10
5.996855
 20
7.114543
 30
0.0
  0
POINT
  5
4C3
330
6B4
100
AcDbEntity
  8
HATCH
  6
Continuous
 62
     7
370
    30
100
AcDbPoint
 10
5.965605
 20
7.114543
 30
0.0
  0
POINT
  5
4C4
330
6B4
100
AcDbEntity
  8
HATCH
  6
Continuous
 62
     7
370
    30
100
AcDbPoint
 10
5.934355
 20
7.114543
 30
0.0
  0
POINT
  5
4C5
330
6B4
100
AcDbEntity
  8
HATCH
  6
Continuous
 62
     7
370
    30
100
AcDbPoint
 10
5.903105
 20
7.114543
 30
0.0
  0
POINT
  5
4C6
330
6B4
100
AcDbEntity
  8
HATCH
  6
Continuous
 62
     7
370
    30
100
AcDbPoint
 10
5.871855
 20
7.114543
 30
0.0
  0
POINT
  5
4C7
330
6B4
100
AcDbEntity
  8
HATCH
  6
Continuous
 62
     7
370
    30
100
AcDbPoint
 10
5.840605
 20
7.114543
 30
0.0
  0
POINT
  5
4C8
330
6B4
100
AcDbEntity
  8
HATCH
  6
Continuous
 62
     7
370
    30
100
AcDbPoint
 10
5.809355
 20
7.114543
 30
0.0
  0
POINT
  5
4C9
330
6B4
100
AcDbEntity
  8
HATCH
  6
Continuous
 62
     7
370
    30
100
AcDbPoint
 10
5.778105
 20
7.114543
 30
0.0
  0
POINT
  5
4CA
330
6B4
100
AcDbEntity
  8
HATCH
  6
Continuous
 62
     7
370
    30
100
AcDbPoint
 10
5.746855
 20
7.114543
 30
0.0
  0
POINT
  5
4CB
330
6B4
100
AcDbEntity
  8
HATCH
  6
Continuous
 62
     7
370
    30
100
AcDbPoint
 10
5.715605
 20
7.114543
 30
0.0
  0
POINT
  5
4CC
330
6B4
100
AcDbEntity
  8
HATCH
  6
Continuous
 62
     7
370
    30
100
AcDbPoint
 10
5.684355
 20
7.114543
 30
0.0
  0
POINT
  5
4CD
330
6B4
100
AcDbEntity
  8
HATCH
  6
Continuous
 62
     7
370
    30
100
AcDbPoint
 10
5.653105
 20
7.114543
 30
0.0
  0
POINT
  5
4CE
330
6B4
100
AcDbEntity
  8
HATCH
  6
Continuous
 62
     7
370
    30
100
AcDbPoint
 10
5.621855
 20
7.114543
 30
0.0
  0
POINT
  5
4CF
330
6B4
100
AcDbEntity
  8
HATCH
  6
Continuous
 62
     7
370
    30
100
AcDbPoint
 10
5.590605
 20
7.114543
 30
0.0
  0
POINT
  5
4D0
330
6B4
100
AcDbEntity
  8
HATCH
  6
Continuous
 62
     7
370
    30
100
AcDbPoint
 10
5.559355
 20
7.114543
 30
0.0
  0
POINT
  5
4D1
330
6B4
100
AcDbEntity
  8
HATCH
  6
Continuous
 62
     7
370
    30
100
AcDbPoint
 10
6.54373
 20
7.083293
 30
0.0
  0
POINT
  5
4D2
330
6B4
100
AcDbEntity
  8
HATCH
  6
Continuous
 62
     7
370
    30
100
AcDbPoint
 10
6.51248
 20
7.083293
 30
0.0
  0
POINT
  5
4D3
330
6B4
100
AcDbEntity
  8
HATCH
  6
Continuous
 62
     7
370
    30
100
AcDbPoint
 10
6.48123
 20
7.083293
 30
0.0
  0
POINT
  5
4D4
330
6B4
100
AcDbEntity
  8
HATCH
  6
Continuous
 62
     7
370
    30
100
AcDbPoint
 10
6.44998
 20
7.083293
 30
0.0
  0
POINT
  5
4D5
330
6B4
100
AcDbEntity
  8
HATCH
  6
Continuous
 62
     7
370
    30
100
AcDbPoint
 10
6.41873
 20
7.083293
 30
0.0
  0
POINT
  5
4D6
330
6B4
100
AcDbEntity
  8
HATCH
  6
Continuous
 62
     7
370
    30
100
AcDbPoint
 10
6.38748
 20
7.083293
 30
0.0
  0
POINT
  5
4D7
330
6B4
100
AcDbEntity
  8
HATCH
  6
Continuous
 62
     7
370
    30
100
AcDbPoint
 10
6.35623
 20
7.083293
 30
0.0
  0
POINT
  5
4D8
330
6B4
100
AcDbEntity
  8
HATCH
  6
Continuous
 62
     7
370
    30
100
AcDbPoint
 10
6.32498
 20
7.083293
 30
0.0
  0
POINT
  5
4D9
330
6B4
100
AcDbEntity
  8
HATCH
  6
Continuous
 62
     7
370
    30
100
AcDbPoint
 10
6.29373
 20
7.083293
 30
0.0
  0
POINT
  5
4DA
330
6B4
100
AcDbEntity
  8
HATCH
  6
Continuous
 62
     7
370
    30
100
AcDbPoint
 10
6.26248
 20
7.083293
 30
0.0
  0
POINT
  5
4DB
330
6B4
100
AcDbEntity
  8
HATCH
  6
Continuous
 62
     7
370
    30
100
AcDbPoint
 10
6.23123
 20
7.083293
 30
0.0
  0
POINT
  5
4DC
330
6B4
100
AcDbEntity
  8
HATCH
  6
Continuous
 62
     7
370
    30
100
AcDbPoint
 10
6.19998
 20
7.083293
 30
0.0
  0
POINT
  5
4DD
330
6B4
100
AcDbEntity
  8
HATCH
  6
Continuous
 62
     7
370
    30
100
AcDbPoint
 10
6.16873
 20
7.083293
 30
0.0
  0
POINT
  5
4DE
330
6B4
100
AcDbEntity
  8
HATCH
  6
Continuous
 62
     7
370
    30
100
AcDbPoint
 10
6.13748
 20
7.083293
 30
0.0
  0
POINT
  5
4DF
330
6B4
100
AcDbEntity
  8
HATCH
  6
Continuous
 62
     7
370
    30
100
AcDbPoint
 10
6.10623
 20
7.083293
 30
0.0
  0
POINT
  5
4E0
330
6B4
100
AcDbEntity
  8
HATCH
  6
Continuous
 62
     7
370
    30
100
AcDbPoint
 10
6.07498
 20
7.083293
 30
0.0
  0
POINT
  5
4E1
330
6B4
100
AcDbEntity
  8
HATCH
  6
Continuous
 62
     7
370
    30
100
AcDbPoint
 10
6.04373
 20
7.083293
 30
0.0
  0
POINT
  5
4E2
330
6B4
100
AcDbEntity
  8
HATCH
  6
Continuous
 62
     7
370
    30
100
AcDbPoint
 10
6.01248
 20
7.083293
 30
0.0
  0
POINT
  5
4E3
330
6B4
100
AcDbEntity
  8
HATCH
  6
Continuous
 62
     7
370
    30
100
AcDbPoint
 10
5.98123
 20
7.083293
 30
0.0
  0
POINT
  5
4E4
330
6B4
100
AcDbEntity
  8
HATCH
  6
Continuous
 62
     7
370
    30
100
AcDbPoint
 10
5.94998
 20
7.083293
 30
0.0
  0
POINT
  5
4E5
330
6B4
100
AcDbEntity
  8
HATCH
  6
Continuous
 62
     7
370
    30
100
AcDbPoint
 10
5.91873
 20
7.083293
 30
0.0
  0
POINT
  5
4E6
330
6B4
100
AcDbEntity
  8
HATCH
  6
Continuous
 62
     7
370
    30
100
AcDbPoint
 10
5.88748
 20
7.083293
 30
0.0
  0
POINT
  5
4E7
330
6B4
100
AcDbEntity
  8
HATCH
  6
Continuous
 62
     7
370
    30
100
AcDbPoint
 10
5.85623
 20
7.083293
 30
0.0
  0
POINT
  5
4E8
330
6B4
100
AcDbEntity
  8
HATCH
  6
Continuous
 62
     7
370
    30
100
AcDbPoint
 10
5.82498
 20
7.083293
 30
0.0
  0
POINT
  5
4E9
330
6B4
100
AcDbEntity
  8
HATCH
  6
Continuous
 62
     7
370
    30
100
AcDbPoint
 10
5.79373
 20
7.083293
 30
0.0
  0
POINT
  5
4EA
330
6B4
100
AcDbEntity
  8
HATCH
  6
Continuous
 62
     7
370
    30
100
AcDbPoint
 10
5.76248
 20
7.083293
 30
0.0
  0
POINT
  5
4EB
330
6B4
100
AcDbEntity
  8
HATCH
  6
Continuous
 62
     7
370
    30
100
AcDbPoint
 10
5.73123
 20
7.083293
 30
0.0
  0
POINT
  5
4EC
330
6B4
100
AcDbEntity
  8
HATCH
  6
Continuous
 62
     7
370
    30
100
AcDbPoint
 10
5.69998
 20
7.083293
 30
0.0
  0
POINT
  5
4ED
330
6B4
100
AcDbEntity
  8
HATCH
  6
Continuous
 62
     7
370
    30
100
AcDbPoint
 10
5.66873
 20
7.083293
 30
0.0
  0
POINT
  5
4EE
330
6B4
100
AcDbEntity
  8
HATCH
  6
Continuous
 62
     7
370
    30
100
AcDbPoint
 10
5.63748
 20
7.083293
 30
0.0
  0
POINT
  5
4EF
330
6B4
100
AcDbEntity
  8
HATCH
  6
Continuous
 62
     7
370
    30
100
AcDbPoint
 10
5.60623
 20
7.083293
 30
0.0
  0
POINT
  5
4F0
330
6B4
100
AcDbEntity
  8
HATCH
  6
Continuous
 62
     7
370
    30
100
AcDbPoint
 10
5.57498
 20
7.083293
 30
0.0
  0
POINT
  5
4F1
330
6B4
100
AcDbEntity
  8
HATCH
  6
Continuous
 62
     7
370
    30
100
AcDbPoint
 10
6.528105
 20
7.552043
 30
0.0
  0
POINT
  5
4F2
330
6B4
100
AcDbEntity
  8
HATCH
  6
Continuous
 62
     7
370
    30
100
AcDbPoint
 10
6.496855
 20
7.552043
 30
0.0
  0
POINT
  5
4F3
330
6B4
100
AcDbEntity
  8
HATCH
  6
Continuous
 62
     7
370
    30
100
AcDbPoint
 10
6.465605
 20
7.552043
 30
0.0
  0
POINT
  5
4F4
330
6B4
100
AcDbEntity
  8
HATCH
  6
Continuous
 62
     7
370
    30
100
AcDbPoint
 10
6.434355
 20
7.552043
 30
0.0
  0
POINT
  5
4F5
330
6B4
100
AcDbEntity
  8
HATCH
  6
Continuous
 62
     7
370
    30
100
AcDbPoint
 10
6.403105
 20
7.552043
 30
0.0
  0
POINT
  5
4F6
330
6B4
100
AcDbEntity
  8
HATCH
  6
Continuous
 62
     7
370
    30
100
AcDbPoint
 10
6.371855
 20
7.552043
 30
0.0
  0
POINT
  5
4F7
330
6B4
100
AcDbEntity
  8
HATCH
  6
Continuous
 62
     7
370
    30
100
AcDbPoint
 10
6.340605
 20
7.552043
 30
0.0
  0
POINT
  5
4F8
330
6B4
100
AcDbEntity
  8
HATCH
  6
Continuous
 62
     7
370
    30
100
AcDbPoint
 10
6.309355
 20
7.552043
 30
0.0
  0
POINT
  5
4F9
330
6B4
100
AcDbEntity
  8
HATCH
  6
Continuous
 62
     7
370
    30
100
AcDbPoint
 10
6.278105
 20
7.552043
 30
0.0
  0
POINT
  5
4FA
330
6B4
100
AcDbEntity
  8
HATCH
  6
Continuous
 62
     7
370
    30
100
AcDbPoint
 10
6.246855
 20
7.552043
 30
0.0
  0
POINT
  5
4FB
330
6B4
100
AcDbEntity
  8
HATCH
  6
Continuous
 62
     7
370
    30
100
AcDbPoint
 10
6.215605
 20
7.552043
 30
0.0
  0
POINT
  5
4FC
330
6B4
100
AcDbEntity
  8
HATCH
  6
Continuous
 62
     7
370
    30
100
AcDbPoint
 10
6.184355
 20
7.552043
 30
0.0
  0
POINT
  5
4FD
330
6B4
100
AcDbEntity
  8
HATCH
  6
Continuous
 62
     7
370
    30
100
AcDbPoint
 10
6.153105
 20
7.552043
 30
0.0
  0
POINT
  5
4FE
330
6B4
100
AcDbEntity
  8
HATCH
  6
Continuous
 62
     7
370
    30
100
AcDbPoint
 10
6.121855
 20
7.552043
 30
0.0
  0
POINT
  5
4FF
330
6B4
100
AcDbEntity
  8
HATCH
  6
Continuous
 62
     7
370
    30
100
AcDbPoint
 10
6.090605
 20
7.552043
 30
0.0
  0
POINT
  5
500
330
6B4
100
AcDbEntity
  8
HATCH
  6
Continuous
 62
     7
370
    30
100
AcDbPoint
 10
6.059355
 20
7.552043
 30
0.0
  0
POINT
  5
501
330
6B4
100
AcDbEntity
  8
HATCH
  6
Continuous
 62
     7
370
    30
100
AcDbPoint
 10
6.028105
 20
7.552043
 30
0.0
  0
POINT
  5
502
330
6B4
100
AcDbEntity
  8
HATCH
  6
Continuous
 62
     7
370
    30
100
AcDbPoint
 10
5.996855
 20
7.552043
 30
0.0
  0
POINT
  5
503
330
6B4
100
AcDbEntity
  8
HATCH
  6
Continuous
 62
     7
370
    30
100
AcDbPoint
 10
5.965605
 20
7.552043
 30
0.0
  0
POINT
  5
504
330
6B4
100
AcDbEntity
  8
HATCH
  6
Continuous
 62
     7
370
    30
100
AcDbPoint
 10
5.934355
 20
7.552043
 30
0.0
  0
POINT
  5
505
330
6B4
100
AcDbEntity
  8
HATCH
  6
Continuous
 62
     7
370
    30
100
AcDbPoint
 10
5.903105
 20
7.552043
 30
0.0
  0
POINT
  5
506
330
6B4
100
AcDbEntity
  8
HATCH
  6
Continuous
 62
     7
370
    30
100
AcDbPoint
 10
5.871855
 20
7.552043
 30
0.0
  0
POINT
  5
507
330
6B4
100
AcDbEntity
  8
HATCH
  6
Continuous
 62
     7
370
    30
100
AcDbPoint
 10
5.840605
 20
7.552043
 30
0.0
  0
POINT
  5
508
330
6B4
100
AcDbEntity
  8
HATCH
  6
Continuous
 62
     7
370
    30
100
AcDbPoint
 10
5.809355
 20
7.552043
 30
0.0
  0
POINT
  5
509
330
6B4
100
AcDbEntity
  8
HATCH
  6
Continuous
 62
     7
370
    30
100
AcDbPoint
 10
6.54373
 20
7.583293
 30
0.0
  0
POINT
  5
50A
330
6B4
100
AcDbEntity
  8
HATCH
  6
Continuous
 62
     7
370
    30
100
AcDbPoint
 10
6.51248
 20
7.583293
 30
0.0
  0
POINT
  5
50B
330
6B4
100
AcDbEntity
  8
HATCH
  6
Continuous
 62
     7
370
    30
100
AcDbPoint
 10
6.48123
 20
7.583293
 30
0.0
  0
POINT
  5
50C
330
6B4
100
AcDbEntity
  8
HATCH
  6
Continuous
 62
     7
370
    30
100
AcDbPoint
 10
6.44998
 20
7.583293
 30
0.0
  0
POINT
  5
50D
330
6B4
100
AcDbEntity
  8
HATCH
  6
Continuous
 62
     7
370
    30
100
AcDbPoint
 10
6.41873
 20
7.583293
 30
0.0
  0
POINT
  5
50E
330
6B4
100
AcDbEntity
  8
HATCH
  6
Continuous
 62
     7
370
    30
100
AcDbPoint
 10
6.38748
 20
7.583293
 30
0.0
  0
POINT
  5
50F
330
6B4
100
AcDbEntity
  8
HATCH
  6
Continuous
 62
     7
370
    30
100
AcDbPoint
 10
6.35623
 20
7.583293
 30
0.0
  0
POINT
  5
510
330
6B4
100
AcDbEntity
  8
HATCH
  6
Continuous
 62
     7
370
    30
100
AcDbPoint
 10
6.32498
 20
7.583293
 30
0.0
  0
POINT
  5
511
330
6B4
100
AcDbEntity
  8
HATCH
  6
Continuous
 62
     7
370
    30
100
AcDbPoint
 10
6.29373
 20
7.583293
 30
0.0
  0
POINT
  5
512
330
6B4
100
AcDbEntity
  8
HATCH
  6
Continuous
 62
     7
370
    30
100
AcDbPoint
 10
6.26248
 20
7.583293
 30
0.0
  0
POINT
  5
513
330
6B4
100
AcDbEntity
  8
HATCH
  6
Continuous
 62
     7
370
    30
100
AcDbPoint
 10
6.23123
 20
7.583293
 30
0.0
  0
POINT
  5
514
330
6B4
100
AcDbEntity
  8
HATCH
  6
Continuous
 62
     7
370
    30
100
AcDbPoint
 10
6.19998
 20
7.583293
 30
0.0
  0
POINT
  5
515
330
6B4
100
AcDbEntity
  8
HATCH
  6
Continuous
 62
     7
370
    30
100
AcDbPoint
 10
6.16873
 20
7.583293
 30
0.0
  0
POINT
  5
516
330
6B4
100
AcDbEntity
  8
HATCH
  6
Continuous
 62
     7
370
    30
100
AcDbPoint
 10
6.13748
 20
7.583293
 30
0.0
  0
POINT
  5
517
330
6B4
100
AcDbEntity
  8
HATCH
  6
Continuous
 62
     7
370
    30
100
AcDbPoint
 10
6.10623
 20
7.583293
 30
0.0
  0
POINT
  5
518
330
6B4
100
AcDbEntity
  8
HATCH
  6
Continuous
 62
     7
370
    30
100
AcDbPoint
 10
6.07498
 20
7.583293
 30
0.0
  0
POINT
  5
519
330
6B4
100
AcDbEntity
  8
HATCH
  6
Continuous
 62
     7
370
    30
100
AcDbPoint
 10
6.04373
 20
7.583293
 30
0.0
  0
POINT
  5
51A
330
6B4
100
AcDbEntity
  8
HATCH
  6
Continuous
 62
     7
370
    30
100
AcDbPoint
 10
6.01248
 20
7.583293
 30
0.0
  0
POINT
  5
51B
330
6B4
100
AcDbEntity
  8
HATCH
  6
Continuous
 62
     7
370
    30
100
AcDbPoint
 10
5.98123
 20
7.583293
 30
0.0
  0
POINT
  5
51C
330
6B4
100
AcDbEntity
  8
HATCH
  6
Continuous
 62
     7
370
    30
100
AcDbPoint
 10
5.94998
 20
7.583293
 30
0.0
  0
POINT
  5
51D
330
6B4
100
AcDbEntity
  8
HATCH
  6
Continuous
 62
     7
370
    30
100
AcDbPoint
 10
5.91873
 20
7.583293
 30
0.0
  0
POINT
  5
51E
330
6B4
100
AcDbEntity
  8
HATCH
  6
Continuous
 62
     7
370
    30
100
AcDbPoint
 10
5.88748
 20
7.583293
 30
0.0
  0
POINT
  5
51F
330
6B4
100
AcDbEntity
  8
HATCH
  6
Continuous
 62
     7
370
    30
100
AcDbPoint
 10
5.85623
 20
7.583293
 30
0.0
  0
POINT
  5
520
330
6B4
100
AcDbEntity
  8
HATCH
  6
Continuous
 62
     7
370
    30
100
AcDbPoint
 10
5.82498
 20
7.583293
 30
0.0
  0
POINT
  5
521
330
6B4
100
AcDbEntity
  8
HATCH
  6
Continuous
 62
     7
370
    30
100
AcDbPoint
 10
5.79373
 20
7.583293
 30
0.0
  0
POINT
  5
522
330
6B4
100
AcDbEntity
  8
HATCH
  6
Continuous
 62
     7
370
    30
100
AcDbPoint
 10
6.528105
 20
7.614543
 30
0.0
  0
POINT
  5
523
330
6B4
100
AcDbEntity
  8
HATCH
  6
Continuous
 62
     7
370
    30
100
AcDbPoint
 10
6.496855
 20
7.614543
 30
0.0
  0
POINT
  5
524
330
6B4
100
AcDbEntity
  8
HATCH
  6
Continuous
 62
     7
370
    30
100
AcDbPoint
 10
6.465605
 20
7.614543
 30
0.0
  0
POINT
  5
525
330
6B4
100
AcDbEntity
  8
HATCH
  6
Continuous
 62
     7
370
    30
100
AcDbPoint
 10
6.434355
 20
7.614543
 30
0.0
  0
POINT
  5
526
330
6B4
100
AcDbEntity
  8
HATCH
  6
Continuous
 62
     7
370
    30
100
AcDbPoint
 10
6.403105
 20
7.614543
 30
0.0
  0
POINT
  5
527
330
6B4
100
AcDbEntity
  8
HATCH
  6
Continuous
 62
     7
370
    30
100
AcDbPoint
 10
6.371855
 20
7.614543
 30
0.0
  0
POINT
  5
528
330
6B4
100
AcDbEntity
  8
HATCH
  6
Continuous
 62
     7
370
    30
100
AcDbPoint
 10
6.340605
 20
7.614543
 30
0.0
  0
POINT
  5
529
330
6B4
100
AcDbEntity
  8
HATCH
  6
Continuous
 62
     7
370
    30
100
AcDbPoint
 10
6.309355
 20
7.614543
 30
0.0
  0
POINT
  5
52A
330
6B4
100
AcDbEntity
  8
HATCH
  6
Continuous
 62
     7
370
    30
100
AcDbPoint
 10
6.278105
 20
7.614543
 30
0.0
  0
POINT
  5
52B
330
6B4
100
AcDbEntity
  8
HATCH
  6
Continuous
 62
     7
370
    30
100
AcDbPoint
 10
6.246855
 20
7.614543
 30
0.0
  0
POINT
  5
52C
330
6B4
100
AcDbEntity
  8
HATCH
  6
Continuous
 62
     7
370
    30
100
AcDbPoint
 10
6.215605
 20
7.614543
 30
0.0
  0
POINT
  5
52D
330
6B4
100
AcDbEntity
  8
HATCH
  6
Continuous
 62
     7
370
    30
100
AcDbPoint
 10
6.184355
 20
7.614543
 30
0.0
  0
POINT
  5
52E
330
6B4
100
AcDbEntity
  8
HATCH
  6
Continuous
 62
     7
370
    30
100
AcDbPoint
 10
6.153105
 20
7.614543
 30
0.0
  0
POINT
  5
52F
330
6B4
100
AcDbEntity
  8
HATCH
  6
Continuous
 62
     7
370
    30
100
AcDbPoint
 10
6.121855
 20
7.614543
 30
0.0
  0
POINT
  5
530
330
6B4
100
AcDbEntity
  8
HATCH
  6
Continuous
 62
     7
370
    30
100
AcDbPoint
 10
6.090605
 20
7.614543
 30
0.0
  0
POINT
  5
531
330
6B4
100
AcDbEntity
  8
HATCH
  6
Continuous
 62
     7
370
    30
100
AcDbPoint
 10
6.059355
 20
7.614543
 30
0.0
  0
POINT
  5
532
330
6B4
100
AcDbEntity
  8
HATCH
  6
Continuous
 62
     7
370
    30
100
AcDbPoint
 10
6.028105
 20
7.614543
 30
0.0
  0
POINT
  5
533
330
6B4
100
AcDbEntity
  8
HATCH
  6
Continuous
 62
     7
370
    30
100
AcDbPoint
 10
5.996855
 20
7.614543
 30
0.0
  0
POINT
  5
534
330
6B4
100
AcDbEntity
  8
HATCH
  6
Continuous
 62
     7
370
    30
100
AcDbPoint
 10
5.965605
 20
7.614543
 30
0.0
  0
POINT
  5
535
330
6B4
100
AcDbEntity
  8
HATCH
  6
Continuous
 62
     7
370
    30
100
AcDbPoint
 10
5.934355
 20
7.614543
 30
0.0
  0
POINT
  5
536
330
6B4
100
AcDbEntity
  8
HATCH
  6
Continuous
 62
     7
370
    30
100
AcDbPoint
 10
5.903105
 20
7.614543
 30
0.0
  0
POINT
  5
537
330
6B4
100
AcDbEntity
  8
HATCH
  6
Continuous
 62
     7
370
    30
100
AcDbPoint
 10
5.871855
 20
7.614543
 30
0.0
  0
POINT
  5
538
330
6B4
100
AcDbEntity
  8
HATCH
  6
Continuous
 62
     7
370
    30
100
AcDbPoint
 10
5.840605
 20
7.614543
 30
0.0
  0
POINT
  5
539
330
6B4
100
AcDbEntity
  8
HATCH
  6
Continuous
 62
     7
370
    30
100
AcDbPoint
 10
5.809355
 20
7.614543
 30
0.0
  0
POINT
  5
53A
330
6B4
100
AcDbEntity
  8
HATCH
  6
Continuous
 62
     7
370
    30
100
AcDbPoint
 10
6.54373
 20
7.645793
 30
0.0
  0
POINT
  5
53B
330
6B4
100
AcDbEntity
  8
HATCH
  6
Continuous
 62
     7
370
    30
100
AcDbPoint
 10
6.51248
 20
7.645793
 30
0.0
  0
POINT
  5
53C
330
6B4
100
AcDbEntity
  8
HATCH
  6
Continuous
 62
     7
370
    30
100
AcDbPoint
 10
6.48123
 20
7.645793
 30
0.0
  0
POINT
  5
53D
330
6B4
100
AcDbEntity
  8
HATCH
  6
Continuous
 62
     7
370
    30
100
AcDbPoint
 10
6.44998
 20
7.645793
 30
0.0
  0
POINT
  5
53E
330
6B4
100
AcDbEntity
  8
HATCH
  6
Continuous
 62
     7
370
    30
100
AcDbPoint
 10
6.41873
 20
7.645793
 30
0.0
  0
POINT
  5
53F
330
6B4
100
AcDbEntity
  8
HATCH
  6
Continuous
 62
     7
370
    30
100
AcDbPoint
 10
6.38748
 20
7.645793
 30
0.0
  0
POINT
  5
540
330
6B4
100
AcDbEntity
  8
HATCH
  6
Continuous
 62
     7
370
    30
100
AcDbPoint
 10
6.35623
 20
7.645793
 30
0.0
  0
POINT
  5
541
330
6B4
100
AcDbEntity
  8
HATCH
  6
Continuous
 62
     7
370
    30
100
AcDbPoint
 10
6.32498
 20
7.645793
 30
0.0
  0
POINT
  5
542
330
6B4
100
AcDbEntity
  8
HATCH
  6
Continuous
 62
     7
370
    30
100
AcDbPoint
 10
6.29373
 20
7.645793
 30
0.0
  0
POINT
  5
543
330
6B4
100
AcDbEntity
  8
HATCH
  6
Continuous
 62
     7
370
    30
100
AcDbPoint
 10
6.26248
 20
7.645793
 30
0.0
  0
POINT
  5
544
330
6B4
100
AcDbEntity
  8
HATCH
  6
Continuous
 62
     7
370
    30
100
AcDbPoint
 10
6.23123
 20
7.645793
 30
0.0
  0
POINT
  5
545
330
6B4
100
AcDbEntity
  8
HATCH
  6
Continuous
 62
     7
370
    30
100
AcDbPoint
 10
6.19998
 20
7.645793
 30
0.0
  0
POINT
  5
546
330
6B4
100
AcDbEntity
  8
HATCH
  6
Continuous
 62
     7
370
    30
100
AcDbPoint
 10
6.16873
 20
7.645793
 30
0.0
  0
POINT
  5
547
330
6B4
100
AcDbEntity
  8
HATCH
  6
Continuous
 62
     7
370
    30
100
AcDbPoint
 10
6.13748
 20
7.645793
 30
0.0
  0
POINT
  5
548
330
6B4
100
AcDbEntity
  8
HATCH
  6
Continuous
 62
     7
370
    30
100
AcDbPoint
 10
6.10623
 20
7.645793
 30
0.0
  0
POINT
  5
549
330
6B4
100
AcDbEntity
  8
HATCH
  6
Continuous
 62
     7
370
    30
100
AcDbPoint
 10
6.07498
 20
7.645793
 30
0.0
  0
POINT
  5
54A
330
6B4
100
AcDbEntity
  8
HATCH
  6
Continuous
 62
     7
370
    30
100
AcDbPoint
 10
6.04373
 20
7.645793
 30
0.0
  0
POINT
  5
54B
330
6B4
100
AcDbEntity
  8
HATCH
  6
Continuous
 62
     7
370
    30
100
AcDbPoint
 10
6.01248
 20
7.645793
 30
0.0
  0
POINT
  5
54C
330
6B4
100
AcDbEntity
  8
HATCH
  6
Continuous
 62
     7
370
    30
100
AcDbPoint
 10
5.98123
 20
7.645793
 30
0.0
  0
POINT
  5
54D
330
6B4
100
AcDbEntity
  8
HATCH
  6
Continuous
 62
     7
370
    30
100
AcDbPoint
 10
5.94998
 20
7.645793
 30
0.0
  0
POINT
  5
54E
330
6B4
100
AcDbEntity
  8
HATCH
  6
Continuous
 62
     7
370
    30
100
AcDbPoint
 10
5.91873
 20
7.645793
 30
0.0
  0
POINT
  5
54F
330
6B4
100
AcDbEntity
  8
HATCH
  6
Continuous
 62
     7
370
    30
100
AcDbPoint
 10
5.88748
 20
7.645793
 30
0.0
  0
POINT
  5
550
330
6B4
100
AcDbEntity
  8
HATCH
  6
Continuous
 62
     7
370
    30
100
AcDbPoint
 10
5.85623
 20
7.645793
 30
0.0
  0
POINT
  5
551
330
6B4
100
AcDbEntity
  8
HATCH
  6
Continuous
 62
     7
370
    30
100
AcDbPoint
 10
5.82498
 20
7.645793
 30
0.0
  0
POINT
  5
552
330
6B4
100
AcDbEntity
  8
HATCH
  6
Continuous
 62
     7
370
    30
100
AcDbPoint
 10
6.528105
 20
7.677043
 30
0.0
  0
POINT
  5
553
330
6B4
100
AcDbEntity
  8
HATCH
  6
Continuous
 62
     7
370
    30
100
AcDbPoint
 10
6.496855
 20
7.677043
 30
0.0
  0
POINT
  5
554
330
6B4
100
AcDbEntity
  8
HATCH
  6
Continuous
 62
     7
370
    30
100
AcDbPoint
 10
6.465605
 20
7.677043
 30
0.0
  0
POINT
  5
555
330
6B4
100
AcDbEntity
  8
HATCH
  6
Continuous
 62
     7
370
    30
100
AcDbPoint
 10
6.434355
 20
7.677043
 30
0.0
  0
POINT
  5
556
330
6B4
100
AcDbEntity
  8
HATCH
  6
Continuous
 62
     7
370
    30
100
AcDbPoint
 10
6.403105
 20
7.677043
 30
0.0
  0
POINT
  5
557
330
6B4
100
AcDbEntity
  8
HATCH
  6
Continuous
 62
     7
370
    30
100
AcDbPoint
 10
6.371855
 20
7.677043
 30
0.0
  0
POINT
  5
558
330
6B4
100
AcDbEntity
  8
HATCH
  6
Continuous
 62
     7
370
    30
100
AcDbPoint
 10
6.340605
 20
7.677043
 30
0.0
  0
POINT
  5
559
330
6B4
100
AcDbEntity
  8
HATCH
  6
Continuous
 62
     7
370
    30
100
AcDbPoint
 10
6.309355
 20
7.677043
 30
0.0
  0
POINT
  5
55A
330
6B4
100
AcDbEntity
  8
HATCH
  6
Continuous
 62
     7
370
    30
100
AcDbPoint
 10
6.278105
 20
7.677043
 30
0.0
  0
POINT
  5
55B
330
6B4
100
AcDbEntity
  8
HATCH
  6
Continuous
 62
     7
370
    30
100
AcDbPoint
 10
6.246855
 20
7.677043
 30
0.0
  0
POINT
  5
55C
330
6B4
100
AcDbEntity
  8
HATCH
  6
Continuous
 62
     7
370
    30
100
AcDbPoint
 10
6.215605
 20
7.677043
 30
0.0
  0
POINT
  5
55D
330
6B4
100
AcDbEntity
  8
HATCH
  6
Continuous
 62
     7
370
    30
100
AcDbPoint
 10
6.184355
 20
7.677043
 30
0.0
  0
POINT
  5
55E
330
6B4
100
AcDbEntity
  8
HATCH
  6
Continuous
 62
     7
370
    30
100
AcDbPoint
 10
6.153105
 20
7.677043
 30
0.0
  0
POINT
  5
55F
330
6B4
100
AcDbEntity
  8
HATCH
  6
Continuous
 62
     7
370
    30
100
AcDbPoint
 10
6.121855
 20
7.677043
 30
0.0
  0
POINT
  5
560
330
6B4
100
AcDbEntity
  8
HATCH
  6
Continuous
 62
     7
370
    30
100
AcDbPoint
 10
6.090605
 20
7.677043
 30
0.0
  0
POINT
  5
561
330
6B4
100
AcDbEntity
  8
HATCH
  6
Continuous
 62
     7
370
    30
100
AcDbPoint
 10
6.059355
 20
7.677043
 30
0.0
  0
POINT
  5
562
330
6B4
100
AcDbEntity
  8
HATCH
  6
Continuous
 62
     7
370
    30
100
AcDbPoint
 10
6.028105
 20
7.677043
 30
0.0
  0
POINT
  5
563
330
6B4
100
AcDbEntity
  8
HATCH
  6
Continuous
 62
     7
370
    30
100
AcDbPoint
 10
5.996855
 20
7.677043
 30
0.0
  0
POINT
  5
564
330
6B4
100
AcDbEntity
  8
HATCH
  6
Continuous
 62
     7
370
    30
100
AcDbPoint
 10
5.965605
 20
7.677043
 30
0.0
  0
POINT
  5
565
330
6B4
100
AcDbEntity
  8
HATCH
  6
Continuous
 62
     7
370
    30
100
AcDbPoint
 10
5.934355
 20
7.677043
 30
0.0
  0
POINT
  5
566
330
6B4
100
AcDbEntity
  8
HATCH
  6
Continuous
 62
     7
370
    30
100
AcDbPoint
 10
5.903105
 20
7.677043
 30
0.0
  0
POINT
  5
567
330
6B4
100
AcDbEntity
  8
HATCH
  6
Continuous
 62
     7
370
    30
100
AcDbPoint
 10
5.871855
 20
7.677043
 30
0.0
  0
POINT
  5
568
330
6B4
100
AcDbEntity
  8
HATCH
  6
Continuous
 62
     7
370
    30
100
AcDbPoint
 10
5.840605
 20
7.677043
 30
0.0
  0
POINT
  5
569
330
6B4
100
AcDbEntity
  8
HATCH
  6
Continuous
 62
     7
370
    30
100
AcDbPoint
 10
5.809355
 20
7.677043
 30
0.0
  0
POINT
  5
56A
330
6B4
100
AcDbEntity
  8
HATCH
  6
Continuous
 62
     7
370
    30
100
AcDbPoint
 10
6.54373
 20
7.708293
 30
0.0
  0
POINT
  5
56B
330
6B4
100
AcDbEntity
  8
HATCH
  6
Continuous
 62
     7
370
    30
100
AcDbPoint
 10
6.51248
 20
7.708293
 30
0.0
  0
POINT
  5
56C
330
6B4
100
AcDbEntity
  8
HATCH
  6
Continuous
 62
     7
370
    30
100
AcDbPoint
 10
6.48123
 20
7.708293
 30
0.0
  0
POINT
  5
56D
330
6B4
100
AcDbEntity
  8
HATCH
  6
Continuous
 62
     7
370
    30
100
AcDbPoint
 10
6.44998
 20
7.708293
 30
0.0
  0
POINT
  5
56E
330
6B4
100
AcDbEntity
  8
HATCH
  6
Continuous
 62
     7
370
    30
100
AcDbPoint
 10
6.41873
 20
7.708293
 30
0.0
  0
POINT
  5
56F
330
6B4
100
AcDbEntity
  8
HATCH
  6
Continuous
 62
     7
370
    30
100
AcDbPoint
 10
6.38748
 20
7.708293
 30
0.0
  0
POINT
  5
570
330
6B4
100
AcDbEntity
  8
HATCH
  6
Continuous
 62
     7
370
    30
100
AcDbPoint
 10
6.35623
 20
7.708293
 30
0.0
  0
POINT
  5
571
330
6B4
100
AcDbEntity
  8
HATCH
  6
Continuous
 62
     7
370
    30
100
AcDbPoint
 10
6.32498
 20
7.708293
 30
0.0
  0
POINT
  5
572
330
6B4
100
AcDbEntity
  8
HATCH
  6
Continuous
 62
     7
370
    30
100
AcDbPoint
 10
6.29373
 20
7.708293
 30
0.0
  0
POINT
  5
573
330
6B4
100
AcDbEntity
  8
HATCH
  6
Continuous
 62
     7
370
    30
100
AcDbPoint
 10
6.26248
 20
7.708293
 30
0.0
  0
POINT
  5
574
330
6B4
100
AcDbEntity
  8
HATCH
  6
Continuous
 62
     7
370
    30
100
AcDbPoint
 10
6.23123
 20
7.708293
 30
0.0
  0
POINT
  5
575
330
6B4
100
AcDbEntity
  8
HATCH
  6
Continuous
 62
     7
370
    30
100
AcDbPoint
 10
6.19998
 20
7.708293
 30
0.0
  0
POINT
  5
576
330
6B4
100
AcDbEntity
  8
HATCH
  6
Continuous
 62
     7
370
    30
100
AcDbPoint
 10
6.16873
 20
7.708293
 30
0.0
  0
POINT
  5
577
330
6B4
100
AcDbEntity
  8
HATCH
  6
Continuous
 62
     7
370
    30
100
AcDbPoint
 10
6.13748
 20
7.708293
 30
0.0
  0
POINT
  5
578
330
6B4
100
AcDbEntity
  8
HATCH
  6
Continuous
 62
     7
370
    30
100
AcDbPoint
 10
6.10623
 20
7.708293
 30
0.0
  0
POINT
  5
579
330
6B4
100
AcDbEntity
  8
HATCH
  6
Continuous
 62
     7
370
    30
100
AcDbPoint
 10
6.07498
 20
7.708293
 30
0.0
  0
POINT
  5
57A
330
6B4
100
AcDbEntity
  8
HATCH
  6
Continuous
 62
     7
370
    30
100
AcDbPoint
 10
6.04373
 20
7.708293
 30
0.0
  0
POINT
  5
57B
330
6B4
100
AcDbEntity
  8
HATCH
  6
Continuous
 62
     7
370
    30
100
AcDbPoint
 10
6.01248
 20
7.708293
 30
0.0
  0
POINT
  5
57C
330
6B4
100
AcDbEntity
  8
HATCH
  6
Continuous
 62
     7
370
    30
100
AcDbPoint
 10
5.98123
 20
7.708293
 30
0.0
  0
POINT
  5
57D
330
6B4
100
AcDbEntity
  8
HATCH
  6
Continuous
 62
     7
370
    30
100
AcDbPoint
 10
5.94998
 20
7.708293
 30
0.0
  0
POINT
  5
57E
330
6B4
100
AcDbEntity
  8
HATCH
  6
Continuous
 62
     7
370
    30
100
AcDbPoint
 10
5.91873
 20
7.708293
 30
0.0
  0
POINT
  5
57F
330
6B4
100
AcDbEntity
  8
HATCH
  6
Continuous
 62
     7
370
    30
100
AcDbPoint
 10
5.88748
 20
7.708293
 30
0.0
  0
POINT
  5
580
330
6B4
100
AcDbEntity
  8
HATCH
  6
Continuous
 62
     7
370
    30
100
AcDbPoint
 10
5.85623
 20
7.708293
 30
0.0
  0
POINT
  5
581
330
6B4
100
AcDbEntity
  8
HATCH
  6
Continuous
 62
     7
370
    30
100
AcDbPoint
 10
5.82498
 20
7.708293
 30
0.0
  0
POINT
  5
582
330
6B4
100
AcDbEntity
  8
HATCH
  6
Continuous
 62
     7
370
    30
100
AcDbPoint
 10
6.528105
 20
7.739543
 30
0.0
  0
POINT
  5
583
330
6B4
100
AcDbEntity
  8
HATCH
  6
Continuous
 62
     7
370
    30
100
AcDbPoint
 10
6.496855
 20
7.739543
 30
0.0
  0
POINT
  5
584
330
6B4
100
AcDbEntity
  8
HATCH
  6
Continuous
 62
     7
370
    30
100
AcDbPoint
 10
6.465605
 20
7.739543
 30
0.0
  0
POINT
  5
585
330
6B4
100
AcDbEntity
  8
HATCH
  6
Continuous
 62
     7
370
    30
100
AcDbPoint
 10
6.434355
 20
7.739543
 30
0.0
  0
POINT
  5
586
330
6B4
100
AcDbEntity
  8
HATCH
  6
Continuous
 62
     7
370
    30
100
AcDbPoint
 10
6.403105
 20
7.739543
 30
0.0
  0
POINT
  5
587
330
6B4
100
AcDbEntity
  8
HATCH
  6
Continuous
 62
     7
370
    30
100
AcDbPoint
 10
6.371855
 20
7.739543
 30
0.0
  0
POINT
  5
588
330
6B4
100
AcDbEntity
  8
HATCH
  6
Continuous
 62
     7
370
    30
100
AcDbPoint
 10
6.340605
 20
7.739543
 30
0.0
  0
POINT
  5
589
330
6B4
100
AcDbEntity
  8
HATCH
  6
Continuous
 62
     7
370
    30
100
AcDbPoint
 10
6.309355
 20
7.739543
 30
0.0
  0
POINT
  5
58A
330
6B4
100
AcDbEntity
  8
HATCH
  6
Continuous
 62
     7
370
    30
100
AcDbPoint
 10
6.278105
 20
7.739543
 30
0.0
  0
POINT
  5
58B
330
6B4
100
AcDbEntity
  8
HATCH
  6
Continuous
 62
     7
370
    30
100
AcDbPoint
 10
6.246855
 20
7.739543
 30
0.0
  0
POINT
  5
58C
330
6B4
100
AcDbEntity
  8
HATCH
  6
Continuous
 62
     7
370
    30
100
AcDbPoint
 10
6.215605
 20
7.739543
 30
0.0
  0
POINT
  5
58D
330
6B4
100
AcDbEntity
  8
HATCH
  6
Continuous
 62
     7
370
    30
100
AcDbPoint
 10
6.184355
 20
7.739543
 30
0.0
  0
POINT
  5
58E
330
6B4
100
AcDbEntity
  8
HATCH
  6
Continuous
 62
     7
370
    30
100
AcDbPoint
 10
6.153105
 20
7.739543
 30
0.0
  0
POINT
  5
58F
330
6B4
100
AcDbEntity
  8
HATCH
  6
Continuous
 62
     7
370
    30
100
AcDbPoint
 10
6.121855
 20
7.739543
 30
0.0
  0
POINT
  5
590
330
6B4
100
AcDbEntity
  8
HATCH
  6
Continuous
 62
     7
370
    30
100
AcDbPoint
 10
6.090605
 20
7.739543
 30
0.0
  0
POINT
  5
591
330
6B4
100
AcDbEntity
  8
HATCH
  6
Continuous
 62
     7
370
    30
100
AcDbPoint
 10
6.059355
 20
7.739543
 30
0.0
  0
POINT
  5
592
330
6B4
100
AcDbEntity
  8
HATCH
  6
Continuous
 62
     7
370
    30
100
AcDbPoint
 10
6.028105
 20
7.739543
 30
0.0
  0
POINT
  5
593
330
6B4
100
AcDbEntity
  8
HATCH
  6
Continuous
 62
     7
370
    30
100
AcDbPoint
 10
5.996855
 20
7.739543
 30
0.0
  0
POINT
  5
594
330
6B4
100
AcDbEntity
  8
HATCH
  6
Continuous
 62
     7
370
    30
100
AcDbPoint
 10
5.965605
 20
7.739543
 30
0.0
  0
POINT
  5
595
330
6B4
100
AcDbEntity
  8
HATCH
  6
Continuous
 62
     7
370
    30
100
AcDbPoint
 10
5.934355
 20
7.739543
 30
0.0
  0
POINT
  5
596
330
6B4
100
AcDbEntity
  8
HATCH
  6
Continuous
 62
     7
370
    30
100
AcDbPoint
 10
5.903105
 20
7.739543
 30
0.0
  0
POINT
  5
597
330
6B4
100
AcDbEntity
  8
HATCH
  6
Continuous
 62
     7
370
    30
100
AcDbPoint
 10
5.871855
 20
7.739543
 30
0.0
  0
POINT
  5
598
330
6B4
100
AcDbEntity
  8
HATCH
  6
Continuous
 62
     7
370
    30
100
AcDbPoint
 10
5.840605
 20
7.739543
 30
0.0
  0
POINT
  5
599
330
6B4
100
AcDbEntity
  8
HATCH
  6
Continuous
 62
     7
370
    30
100
AcDbPoint
 10
6.54373
 20
7.770793
 30
0.0
  0
POINT
  5
59A
330
6B4
100
AcDbEntity
  8
HATCH
  6
Continuous
 62
     7
370
    30
100
AcDbPoint
 10
6.51248
 20
7.770793
 30
0.0
  0
POINT
  5
59B
330
6B4
100
AcDbEntity
  8
HATCH
  6
Continuous
 62
     7
370
    30
100
AcDbPoint
 10
6.48123
 20
7.770793
 30
0.0
  0
POINT
  5
59C
330
6B4
100
AcDbEntity
  8
HATCH
  6
Continuous
 62
     7
370
    30
100
AcDbPoint
 10
6.44998
 20
7.770793
 30
0.0
  0
POINT
  5
59D
330
6B4
100
AcDbEntity
  8
HATCH
  6
Continuous
 62
     7
370
    30
100
AcDbPoint
 10
6.41873
 20
7.770793
 30
0.0
  0
POINT
  5
59E
330
6B4
100
AcDbEntity
  8
HATCH
  6
Continuous
 62
     7
370
    30
100
AcDbPoint
 10
6.38748
 20
7.770793
 30
0.0
  0
POINT
  5
59F
330
6B4
100
AcDbEntity
  8
HATCH
  6
Continuous
 62
     7
370
    30
100
AcDbPoint
 10
6.35623
 20
7.770793
 30
0.0
  0
POINT
  5
5A0
330
6B4
100
AcDbEntity
  8
HATCH
  6
Continuous
 62
     7
370
    30
100
AcDbPoint
 10
6.32498
 20
7.770793
 30
0.0
  0
POINT
  5
5A1
330
6B4
100
AcDbEntity
  8
HATCH
  6
Continuous
 62
     7
370
    30
100
AcDbPoint
 10
6.29373
 20
7.770793
 30
0.0
  0
POINT
  5
5A2
330
6B4
100
AcDbEntity
  8
HATCH
  6
Continuous
 62
     7
370
    30
100
AcDbPoint
 10
6.26248
 20
7.770793
 30
0.0
  0
POINT
  5
5A3
330
6B4
100
AcDbEntity
  8
HATCH
  6
Continuous
 62
     7
370
    30
100
AcDbPoint
 10
6.23123
 20
7.770793
 30
0.0
  0
POINT
  5
5A4
330
6B4
100
AcDbEntity
  8
HATCH
  6
Continuous
 62
     7
370
    30
100
AcDbPoint
 10
6.19998
 20
7.770793
 30
0.0
  0
POINT
  5
5A5
330
6B4
100
AcDbEntity
  8
HATCH
  6
Continuous
 62
     7
370
    30
100
AcDbPoint
 10
6.16873
 20
7.770793
 30
0.0
  0
POINT
  5
5A6
330
6B4
100
AcDbEntity
  8
HATCH
  6
Continuous
 62
     7
370
    30
100
AcDbPoint
 10
6.13748
 20
7.770793
 30
0.0
  0
POINT
  5
5A7
330
6B4
100
AcDbEntity
  8
HATCH
  6
Continuous
 62
     7
370
    30
100
AcDbPoint
 10
6.10623
 20
7.770793
 30
0.0
  0
POINT
  5
5A8
330
6B4
100
AcDbEntity
  8
HATCH
  6
Continuous
 62
     7
370
    30
100
AcDbPoint
 10
6.07498
 20
7.770793
 30
0.0
  0
POINT
  5
5A9
330
6B4
100
AcDbEntity
  8
HATCH
  6
Continuous
 62
     7
370
    30
100
AcDbPoint
 10
6.04373
 20
7.770793
 30
0.0
  0
POINT
  5
5AA
330
6B4
100
AcDbEntity
  8
HATCH
  6
Continuous
 62
     7
370
    30
100
AcDbPoint
 10
6.01248
 20
7.770793
 30
0.0
  0
POINT
  5
5AB
330
6B4
100
AcDbEntity
  8
HATCH
  6
Continuous
 62
     7
370
    30
100
AcDbPoint
 10
5.98123
 20
7.770793
 30
0.0
  0
POINT
  5
5AC
330
6B4
100
AcDbEntity
  8
HATCH
  6
Continuous
 62
     7
370
    30
100
AcDbPoint
 10
5.94998
 20
7.770793
 30
0.0
  0
POINT
  5
5AD
330
6B4
100
AcDbEntity
  8
HATCH
  6
Continuous
 62
     7
370
    30
100
AcDbPoint
 10
5.91873
 20
7.770793
 30
0.0
  0
POINT
  5
5AE
330
6B4
100
AcDbEntity
  8
HATCH
  6
Continuous
 62
     7
370
    30
100
AcDbPoint
 10
5.88748
 20
7.770793
 30
0.0
  0
POINT
  5
5AF
330
6B4
100
AcDbEntity
  8
HATCH
  6
Continuous
 62
     7
370
    30
100
AcDbPoint
 10
5.85623
 20
7.770793
 30
0.0
  0
POINT
  5
5B0
330
6B4
100
AcDbEntity
  8
HATCH
  6
Continuous
 62
     7
370
    30
100
AcDbPoint
 10
5.82498
 20
7.770793
 30
0.0
  0
POINT
  5
5B1
330
6B4
100
AcDbEntity
  8
HATCH
  6
Continuous
 62
     7
370
    30
100
AcDbPoint
 10
6.528105
 20
7.802043
 30
0.0
  0
POINT
  5
5B2
330
6B4
100
AcDbEntity
  8
HATCH
  6
Continuous
 62
     7
370
    30
100
AcDbPoint
 10
6.496855
 20
7.802043
 30
0.0
  0
POINT
  5
5B3
330
6B4
100
AcDbEntity
  8
HATCH
  6
Continuous
 62
     7
370
    30
100
AcDbPoint
 10
6.465605
 20
7.802043
 30
0.0
  0
POINT
  5
5B4
330
6B4
100
AcDbEntity
  8
HATCH
  6
Continuous
 62
     7
370
    30
100
AcDbPoint
 10
6.434355
 20
7.802043
 30
0.0
  0
POINT
  5
5B5
330
6B4
100
AcDbEntity
  8
HATCH
  6
Continuous
 62
     7
370
    30
100
AcDbPoint
 10
6.403105
 20
7.802043
 30
0.0
  0
POINT
  5
5B6
330
6B4
100
AcDbEntity
  8
HATCH
  6
Continuous
 62
     7
370
    30
100
AcDbPoint
 10
6.371855
 20
7.802043
 30
0.0
  0
POINT
  5
5B7
330
6B4
100
AcDbEntity
  8
HATCH
  6
Continuous
 62
     7
370
    30
100
AcDbPoint
 10
6.340605
 20
7.802043
 30
0.0
  0
POINT
  5
5B8
330
6B4
100
AcDbEntity
  8
HATCH
  6
Continuous
 62
     7
370
    30
100
AcDbPoint
 10
6.309355
 20
7.802043
 30
0.0
  0
POINT
  5
5B9
330
6B4
100
AcDbEntity
  8
HATCH
  6
Continuous
 62
     7
370
    30
100
AcDbPoint
 10
6.278105
 20
7.802043
 30
0.0
  0
POINT
  5
5BA
330
6B4
100
AcDbEntity
  8
HATCH
  6
Continuous
 62
     7
370
    30
100
AcDbPoint
 10
6.246855
 20
7.802043
 30
0.0
  0
POINT
  5
5BB
330
6B4
100
AcDbEntity
  8
HATCH
  6
Continuous
 62
     7
370
    30
100
AcDbPoint
 10
6.215605
 20
7.802043
 30
0.0
  0
POINT
  5
5BC
330
6B4
100
AcDbEntity
  8
HATCH
  6
Continuous
 62
     7
370
    30
100
AcDbPoint
 10
6.184355
 20
7.802043
 30
0.0
  0
POINT
  5
5BD
330
6B4
100
AcDbEntity
  8
HATCH
  6
Continuous
 62
     7
370
    30
100
AcDbPoint
 10
6.153105
 20
7.802043
 30
0.0
  0
POINT
  5
5BE
330
6B4
100
AcDbEntity
  8
HATCH
  6
Continuous
 62
     7
370
    30
100
AcDbPoint
 10
6.121855
 20
7.802043
 30
0.0
  0
POINT
  5
5BF
330
6B4
100
AcDbEntity
  8
HATCH
  6
Continuous
 62
     7
370
    30
100
AcDbPoint
 10
6.090605
 20
7.802043
 30
0.0
  0
POINT
  5
5C0
330
6B4
100
AcDbEntity
  8
HATCH
  6
Continuous
 62
     7
370
    30
100
AcDbPoint
 10
6.059355
 20
7.802043
 30
0.0
  0
POINT
  5
5C1
330
6B4
100
AcDbEntity
  8
HATCH
  6
Continuous
 62
     7
370
    30
100
AcDbPoint
 10
6.028105
 20
7.802043
 30
0.0
  0
POINT
  5
5C2
330
6B4
100
AcDbEntity
  8
HATCH
  6
Continuous
 62
     7
370
    30
100
AcDbPoint
 10
5.996855
 20
7.802043
 30
0.0
  0
POINT
  5
5C3
330
6B4
100
AcDbEntity
  8
HATCH
  6
Continuous
 62
     7
370
    30
100
AcDbPoint
 10
5.965605
 20
7.802043
 30
0.0
  0
POINT
  5
5C4
330
6B4
100
AcDbEntity
  8
HATCH
  6
Continuous
 62
     7
370
    30
100
AcDbPoint
 10
5.934355
 20
7.802043
 30
0.0
  0
POINT
  5
5C5
330
6B4
100
AcDbEntity
  8
HATCH
  6
Continuous
 62
     7
370
    30
100
AcDbPoint
 10
5.903105
 20
7.802043
 30
0.0
  0
POINT
  5
5C6
330
6B4
100
AcDbEntity
  8
HATCH
  6
Continuous
 62
     7
370
    30
100
AcDbPoint
 10
5.871855
 20
7.802043
 30
0.0
  0
POINT
  5
5C7
330
6B4
100
AcDbEntity
  8
HATCH
  6
Continuous
 62
     7
370
    30
100
AcDbPoint
 10
5.840605
 20
7.802043
 30
0.0
  0
POINT
  5
5C8
330
6B4
100
AcDbEntity
  8
HATCH
  6
Continuous
 62
     7
370
    30
100
AcDbPoint
 10
6.54373
 20
7.833293
 30
0.0
  0
POINT
  5
5C9
330
6B4
100
AcDbEntity
  8
HATCH
  6
Continuous
 62
     7
370
    30
100
AcDbPoint
 10
6.51248
 20
7.833293
 30
0.0
  0
POINT
  5
5CA
330
6B4
100
AcDbEntity
  8
HATCH
  6
Continuous
 62
     7
370
    30
100
AcDbPoint
 10
6.48123
 20
7.833293
 30
0.0
  0
POINT
  5
5CB
330
6B4
100
AcDbEntity
  8
HATCH
  6
Continuous
 62
     7
370
    30
100
AcDbPoint
 10
6.44998
 20
7.833293
 30
0.0
  0
POINT
  5
5CC
330
6B4
100
AcDbEntity
  8
HATCH
  6
Continuous
 62
     7
370
    30
100
AcDbPoint
 10
6.41873
 20
7.833293
 30
0.0
  0
POINT
  5
5CD
330
6B4
100
AcDbEntity
  8
HATCH
  6
Continuous
 62
     7
370
    30
100
AcDbPoint
 10
6.38748
 20
7.833293
 30
0.0
  0
POINT
  5
5CE
330
6B4
100
AcDbEntity
  8
HATCH
  6
Continuous
 62
     7
370
    30
100
AcDbPoint
 10
6.35623
 20
7.833293
 30
0.0
  0
POINT
  5
5CF
330
6B4
100
AcDbEntity
  8
HATCH
  6
Continuous
 62
     7
370
    30
100
AcDbPoint
 10
6.32498
 20
7.833293
 30
0.0
  0
POINT
  5
5D0
330
6B4
100
AcDbEntity
  8
HATCH
  6
Continuous
 62
     7
370
    30
100
AcDbPoint
 10
6.29373
 20
7.833293
 30
0.0
  0
POINT
  5
5D1
330
6B4
100
AcDbEntity
  8
HATCH
  6
Continuous
 62
     7
370
    30
100
AcDbPoint
 10
6.26248
 20
7.833293
 30
0.0
  0
POINT
  5
5D2
330
6B4
100
AcDbEntity
  8
HATCH
  6
Continuous
 62
     7
370
    30
100
AcDbPoint
 10
6.23123
 20
7.833293
 30
0.0
  0
POINT
  5
5D3
330
6B4
100
AcDbEntity
  8
HATCH
  6
Continuous
 62
     7
370
    30
100
AcDbPoint
 10
6.19998
 20
7.833293
 30
0.0
  0
POINT
  5
5D4
330
6B4
100
AcDbEntity
  8
HATCH
  6
Continuous
 62
     7
370
    30
100
AcDbPoint
 10
6.16873
 20
7.833293
 30
0.0
  0
POINT
  5
5D5
330
6B4
100
AcDbEntity
  8
HATCH
  6
Continuous
 62
     7
370
    30
100
AcDbPoint
 10
6.13748
 20
7.833293
 30
0.0
  0
POINT
  5
5D6
330
6B4
100
AcDbEntity
  8
HATCH
  6
Continuous
 62
     7
370
    30
100
AcDbPoint
 10
6.10623
 20
7.833293
 30
0.0
  0
POINT
  5
5D7
330
6B4
100
AcDbEntity
  8
HATCH
  6
Continuous
 62
     7
370
    30
100
AcDbPoint
 10
6.07498
 20
7.833293
 30
0.0
  0
POINT
  5
5D8
330
6B4
100
AcDbEntity
  8
HATCH
  6
Continuous
 62
     7
370
    30
100
AcDbPoint
 10
6.04373
 20
7.833293
 30
0.0
  0
POINT
  5
5D9
330
6B4
100
AcDbEntity
  8
HATCH
  6
Continuous
 62
     7
370
    30
100
AcDbPoint
 10
6.01248
 20
7.833293
 30
0.0
  0
POINT
  5
5DA
330
6B4
100
AcDbEntity
  8
HATCH
  6
Continuous
 62
     7
370
    30
100
AcDbPoint
 10
5.98123
 20
7.833293
 30
0.0
  0
POINT
  5
5DB
330
6B4
100
AcDbEntity
  8
HATCH
  6
Continuous
 62
     7
370
    30
100
AcDbPoint
 10
5.91873
 20
7.833293
 30
0.0
  0
POINT
  5
5DC
330
6B4
100
AcDbEntity
  8
HATCH
  6
Continuous
 62
     7
370
    30
100
AcDbPoint
 10
5.88748
 20
7.833293
 30
0.0
  0
POINT
  5
5DD
330
6B4
100
AcDbEntity
  8
HATCH
  6
Continuous
 62
     7
370
    30
100
AcDbPoint
 10
5.85623
 20
7.833293
 30
0.0
  0
POINT
  5
5DE
330
6B4
100
AcDbEntity
  8
HATCH
  6
Continuous
 62
     7
370
    30
100
AcDbPoint
 10
6.528105
 20
7.864543
 30
0.0
  0
POINT
  5
5DF
330
6B4
100
AcDbEntity
  8
HATCH
  6
Continuous
 62
     7
370
    30
100
AcDbPoint
 10
6.496855
 20
7.864543
 30
0.0
  0
POINT
  5
5E0
330
6B4
100
AcDbEntity
  8
HATCH
  6
Continuous
 62
     7
370
    30
100
AcDbPoint
 10
6.465605
 20
7.864543
 30
0.0
  0
POINT
  5
5E1
330
6B4
100
AcDbEntity
  8
HATCH
  6
Continuous
 62
     7
370
    30
100
AcDbPoint
 10
6.434355
 20
7.864543
 30
0.0
  0
POINT
  5
5E2
330
6B4
100
AcDbEntity
  8
HATCH
  6
Continuous
 62
     7
370
    30
100
AcDbPoint
 10
6.403105
 20
7.864543
 30
0.0
  0
POINT
  5
5E3
330
6B4
100
AcDbEntity
  8
HATCH
  6
Continuous
 62
     7
370
    30
100
AcDbPoint
 10
6.371855
 20
7.864543
 30
0.0
  0
POINT
  5
5E4
330
6B4
100
AcDbEntity
  8
HATCH
  6
Continuous
 62
     7
370
    30
100
AcDbPoint
 10
6.340605
 20
7.864543
 30
0.0
  0
POINT
  5
5E5
330
6B4
100
AcDbEntity
  8
HATCH
  6
Continuous
 62
     7
370
    30
100
AcDbPoint
 10
6.309355
 20
7.864543
 30
0.0
  0
POINT
  5
5E6
330
6B4
100
AcDbEntity
  8
HATCH
  6
Continuous
 62
     7
370
    30
100
AcDbPoint
 10
6.278105
 20
7.864543
 30
0.0
  0
POINT
  5
5E7
330
6B4
100
AcDbEntity
  8
HATCH
  6
Continuous
 62
     7
370
    30
100
AcDbPoint
 10
6.246855
 20
7.864543
 30
0.0
  0
POINT
  5
5E8
330
6B4
100
AcDbEntity
  8
HATCH
  6
Continuous
 62
     7
370
    30
100
AcDbPoint
 10
6.215605
 20
7.864543
 30
0.0
  0
POINT
  5
5E9
330
6B4
100
AcDbEntity
  8
HATCH
  6
Continuous
 62
     7
370
    30
100
AcDbPoint
 10
6.184355
 20
7.864543
 30
0.0
  0
POINT
  5
5EA
330
6B4
100
AcDbEntity
  8
HATCH
  6
Continuous
 62
     7
370
    30
100
AcDbPoint
 10
6.153105
 20
7.864543
 30
0.0
  0
POINT
  5
5EB
330
6B4
100
AcDbEntity
  8
HATCH
  6
Continuous
 62
     7
370
    30
100
AcDbPoint
 10
6.121855
 20
7.864543
 30
0.0
  0
POINT
  5
5EC
330
6B4
100
AcDbEntity
  8
HATCH
  6
Continuous
 62
     7
370
    30
100
AcDbPoint
 10
6.090605
 20
7.864543
 30
0.0
  0
POINT
  5
5ED
330
6B4
100
AcDbEntity
  8
HATCH
  6
Continuous
 62
     7
370
    30
100
AcDbPoint
 10
6.059355
 20
7.864543
 30
0.0
  0
POINT
  5
5EE
330
6B4
100
AcDbEntity
  8
HATCH
  6
Continuous
 62
     7
370
    30
100
AcDbPoint
 10
6.028105
 20
7.864543
 30
0.0
  0
POINT
  5
5EF
330
6B4
100
AcDbEntity
  8
HATCH
  6
Continuous
 62
     7
370
    30
100
AcDbPoint
 10
6.41873
 20
7.895793
 30
0.0
  0
POINT
  5
5F0
330
6B4
100
AcDbEntity
  8
HATCH
  6
Continuous
 62
     7
370
    30
100
AcDbPoint
 10
6.38748
 20
7.895793
 30
0.0
  0
POINT
  5
5F1
330
6B4
100
AcDbEntity
  8
HATCH
  6
Continuous
 62
     7
370
    30
100
AcDbPoint
 10
6.35623
 20
7.895793
 30
0.0
  0
POINT
  5
5F2
330
6B4
100
AcDbEntity
  8
HATCH
  6
Continuous
 62
     7
370
    30
100
AcDbPoint
 10
6.32498
 20
7.895793
 30
0.0
  0
POINT
  5
5F3
330
6B4
100
AcDbEntity
  8
HATCH
  6
Continuous
 62
     7
370
    30
100
AcDbPoint
 10
6.29373
 20
7.895793
 30
0.0
  0
POINT
  5
5F4
330
6B4
100
AcDbEntity
  8
HATCH
  6
Continuous
 62
     7
370
    30
100
AcDbPoint
 10
6.26248
 20
7.895793
 30
0.0
  0
POINT
  5
5F5
330
6B4
100
AcDbEntity
  8
HATCH
  6
Continuous
 62
     7
370
    30
100
AcDbPoint
 10
6.23123
 20
7.895793
 30
0.0
  0
POINT
  5
5F6
330
6B4
100
AcDbEntity
  8
HATCH
  6
Continuous
 62
     7
370
    30
100
AcDbPoint
 10
6.19998
 20
7.895793
 30
0.0
  0
POINT
  5
5F7
330
6B4
100
AcDbEntity
  8
HATCH
  6
Continuous
 62
     7
370
    30
100
AcDbPoint
 10
6.16873
 20
7.895793
 30
0.0
  0
POINT
  5
5F8
330
6B4
100
AcDbEntity
  8
HATCH
  6
Continuous
 62
     7
370
    30
100
AcDbPoint
 10
6.13748
 20
7.895793
 30
0.0
  0
POINT
  5
5F9
330
6B4
100
AcDbEntity
  8
HATCH
  6
Continuous
 62
     7
370
    30
100
AcDbPoint
 10
6.10623
 20
7.895793
 30
0.0
  0
POINT
  5
5FA
330
6B4
100
AcDbEntity
  8
HATCH
  6
Continuous
 62
     7
370
    30
100
AcDbPoint
 10
6.07498
 20
7.895793
 30
0.0
  0
POINT
  5
5FB
330
6B4
100
AcDbEntity
  8
HATCH
  6
Continuous
 62
     7
370
    30
100
AcDbPoint
 10
6.04373
 20
7.895793
 30
0.0
  0
POINT
  5
5FC
330
6B4
100
AcDbEntity
  8
HATCH
  6
Continuous
 62
     7
370
    30
100
AcDbPoint
 10
6.246855
 20
7.927043
 30
0.0
  0
POINT
  5
5FD
330
6B4
100
AcDbEntity
  8
HATCH
  6
Continuous
 62
     7
370
    30
100
AcDbPoint
 10
6.215605
 20
7.927043
 30
0.0
  0
POINT
  5
5FE
330
6B4
100
AcDbEntity
  8
HATCH
  6
Continuous
 62
     7
370
    30
100
AcDbPoint
 10
6.184355
 20
7.927043
 30
0.0
  0
POINT
  5
5FF
330
6B4
100
AcDbEntity
  8
HATCH
  6
Continuous
 62
     7
370
    30
100
AcDbPoint
 10
6.153105
 20
7.927043
 30
0.0
  0
POINT
  5
600
330
6B4
100
AcDbEntity
  8
HATCH
  6
Continuous
 62
     7
370
    30
100
AcDbPoint
 10
6.121855
 20
7.927043
 30
0.0
  0
POINT
  5
601
330
6B4
100
AcDbEntity
  8
HATCH
  6
Continuous
 62
     7
370
    30
100
AcDbPoint
 10
6.090605
 20
7.927043
 30
0.0
  0
LINE
  5
602
330
6B4
100
AcDbEntity
  8
TEXT
  6
Continuous
 62
     7
370
    13
100
AcDbLine
 10
4.002501
 20
9.151043
 30
0.0
 11
3.586438
 21
9.413824
 31
0.0
  0
LINE
  5
603
330
6B4
100
AcDbEntity
  8
TEXT
  6
Continuous
 62
     7
370
    13
100
AcDbLine
 10
3.586438
 20
9.413824
 30
0.0
 11
3.506271
 21
9.413824
 31
0.0
  0
LINE
  5
606
330
6B4
100
AcDbEntity
  8
TEXT
  6
Continuous
 62
     7
370
    13
100
AcDbLine
 10
3.947823
 20
7.965293
 30
0.0
 11
3.947823
 21
7.444032
 31
0.0
  0
LINE
  5
607
330
6B4
100
AcDbEntity
  8
TEXT
  6
Continuous
 62
     7
370
    13
100
AcDbLine
 10
3.947823
 20
7.444032
 30
0.0
 11
3.708782
 21
7.444032
 31
0.0
  0
LINE
  5
608
330
6B4
100
AcDbEntity
  8
TEXT
  6
Continuous
 62
     7
370
    13
100
AcDbLine
 10
4.588219
 20
8.192439
 30
0.0
 11
4.999021
 21
9.582761
 31
0.0
  0
LINE
  5
609
330
6B4
100
AcDbEntity
  8
TEXT
  6
Continuous
 62
     7
370
    13
100
AcDbLine
 10
4.999021
 20
9.582761
 30
0.0
 11
5.18823
 21
9.582761
 31
0.0
  0
LINE
  5
60A
330
6B4
100
AcDbEntity
  8
DIM
  6
Continuous
 62
     7
370
    13
100
AcDbLine
 10
6.621855
 20
7.077043
 30
0.0
 11
7.188126
 21
7.077043
 31
0.0
  0
LINE
  5
60B
330
6B4
100
AcDbEntity
  8
DIM
  6
Continuous
 62
     7
370
    13
100
AcDbLine
 10
6.621855
 20
9.077043
 30
0.0
 11
7.188126
 21
9.077043
 31
0.0
  0
LINE
  5
60C
330
6B4
100
AcDbEntity
  8
DIM
  6
Continuous
 62
     7
370
    13
100
AcDbLine
 10
7.008126
 20
7.08173
 30
0.0
 11
7.008126
 21
9.079084
 31
0.0
  0
LINE
  5
60D
330
6B4
100
AcDbEntity
  8
DEFPOINTS
  6
Continuous
 62
     7
370
    30
100
AcDbLine
 10
6.559355
 20
7.077043
 30
0.0
 11
6.559355
 21
7.077043
 31
0.0
  0
LINE
  5
60E
330
6B4
100
AcDbEntity
  8
DEFPOINTS
  6
Continuous
 62
     7
370
    30
100
AcDbLine
 10
6.559355
 20
9.077043
 30
0.0
 11
6.559355
 21
9.077043
 31
0.0
  0
LINE
  5
60F
330
6B4
100
AcDbEntity
  8
DEFPOINTS
  6
Continuous
 62
     7
370
    30
100
AcDbLine
 10
7.008126
 20
9.077043
 30
0.0
 11
7.008126
 21
9.077043
 31
0.0
  0
LINE
  5
610
330
6B4
100
AcDbEntity
  8
DIM
  6
Continuous
 62
     7
370
    13
100
AcDbLine
 10
2.750876
 20
8.077293
 30
0.0
 11
2.750876
 21
9.066636
 31
0.0
  0
LINE
  5
611
330
6B4
100
AcDbEntity
  8
DEFPOINTS
  6
Continuous
 62
     7
370
    30
100
AcDbLine
 10
3.059355
 20
8.077043
 30
0.0
 11
3.059355
 21
8.077043
 31
0.0
  0
LINE
  5
612
330
6B4
100
AcDbEntity
  8
DEFPOINTS
  6
Continuous
 62
     7
370
    30
100
AcDbLine
 10
2.945865
 20
9.076459
 30
0.0
 11
2.945865
 21
9.076459
 31
0.0
  0
LINE
  5
613
330
6B4
100
AcDbEntity
  8
DEFPOINTS
  6
Continuous
 62
     7
370
    30
100
AcDbLine
 10
2.750876
 20
9.076459
 30
0.0
 11
2.750876
 21
9.076459
 31
0.0
  0
LINE
  5
614
330
6B4
100
AcDbEntity
  8
TEXT
  6
Continuous
 62
     7
370
    13
100
AcDbLine
 10
4.301323
 20
7.971511
 30
0.0
 11
4.301323
 21
7.479366
 31
0.0
  0
LINE
  5
615
330
6B4
100
AcDbEntity
  8
TEXT
  6
Continuous
 62
     7
370
    13
100
AcDbLine
 10
4.301323
 20
7.479366
 30
0.0
 11
4.388928
 21
7.479366
 31
0.0
  0
POINT
  5
616
330
6B4
100
AcDbEntity
  8
_0
  6
Continuous
 62
     7
370
    30
100
AcDbPoint
 10
0.625
 20
0.913094
 30
0.0
  0
POINT
  5
617
330
6B4
100
AcDbEntity
  8
_0
  6
Continuous
 62
     7
370
    30
100
AcDbPoint
 10
0.625
 20
0.913094
 30
0.0
  0
POINT
  5
618
330
6B4
100
AcDbEntity
  8
_0
  6
Continuous
 62
     7
370
    30
100
AcDbPoint
 10
0.625
 20
0.913094
 30
0.0
  0
POINT
  5
619
330
6B4
100
AcDbEntity
  8
_0
  6
Continuous
 62
     7
370
    30
100
AcDbPoint
 10
0.625
 20
0.913094
 30
0.0
  0
POINT
  5
61A
330
6B4
100
AcDbEntity
  8
_0
  6
Continuous
 62
     7
370
    30
100
AcDbPoint
 10
0.625
 20
0.913094
 30
0.0
  0
POINT
  5
61B
330
6B4
100
AcDbEntity
  8
_0
  6
Continuous
 62
     7
370
    30
100
AcDbPoint
 10
0.625
 20
0.913094
 30
0.0
  0
POINT
  5
61C
330
6B4
100
AcDbEntity
  8
_0
  6
Continuous
 62
     7
370
    30
100
AcDbPoint
 10
0.625
 20
0.913094
 30
0.0
  0
POINT
  5
61D
330
6B4
100
AcDbEntity
  8
_0
  6
Continuous
 62
     7
370
    30
100
AcDbPoint
 10
0.625
 20
0.913094
 30
0.0
  0
POINT
  5
61E
330
6B4
100
AcDbEntity
  8
_0
  6
Continuous
 62
     7
370
    30
100
AcDbPoint
 10
0.625
 20
0.913094
 30
0.0
  0
POINT
  5
61F
330
6B4
100
AcDbEntity
  8
_0
  6
Continuous
 62
     7
370
    30
100
AcDbPoint
 10
0.625
 20
0.913094
 30
0.0
  0
POINT
  5
620
330
6B4
100
AcDbEntity
  8
_0
  6
Continuous
 62
     7
370
    30
100
AcDbPoint
 10
0.625
 20
0.913094
 30
0.0
  0
POINT
  5
621
330
6B4
100
AcDbEntity
  8
_0
  6
Continuous
 62
     7
370
    30
100
AcDbPoint
 10
0.625
 20
0.913094
 30
0.0
  0
POINT
  5
622
330
6B4
100
AcDbEntity
  8
_0
  6
Continuous
 62
     7
370
    30
100
AcDbPoint
 10
0.625
 20
0.986906
 30
0.0
  0
POINT
  5
623
330
6B4
100
AcDbEntity
  8
_0
  6
Continuous
 62
     7
370
    30
100
AcDbPoint
 10
0.625
 20
0.986906
 30
0.0
  0
POINT
  5
624
330
6B4
100
AcDbEntity
  8
DEFPOINTS
  6
Continuous
 62
     7
370
    30
100
AcDbPoint
 10
4.009355
 20
6.308907
 30
0.0
  0
POINT
  5
625
330
6B4
100
AcDbEntity
  8
_0
  6
Continuous
 62
     7
370
    30
100
AcDbPoint
 10
0.625
 20
0.986906
 30
0.0
  0
POINT
  5
626
330
6B4
100
AcDbEntity
  8
_0
  6
Continuous
 62
     7
370
    30
100
AcDbPoint
 10
0.625
 20
0.986906
 30
0.0
  0
POINT
  5
627
330
6B4
100
AcDbEntity
  8
_0
  6
Continuous
 62
     7
370
    30
100
AcDbPoint
 10
0.625
 20
0.986906
 30
0.0
  0
POINT
  5
628
330
6B4
100
AcDbEntity
  8
_0
  6
Continuous
 62
     7
370
    30
100
AcDbPoint
 10
0.625
 20
0.986906
 30
0.0
  0
POINT
  5
629
330
6B4
100
AcDbEntity
  8
_0
  6
Continuous
 62
     7
370
    30
100
AcDbPoint
 10
0.625
 20
0.986906
 30
0.0
  0
POINT
  5
62A
330
6B4
100
AcDbEntity
  8
_0
  6
Continuous
 62
     7
370
    30
100
AcDbPoint
 10
0.625
 20
0.986906
 30
0.0
  0
INSERT
  5
62C
330
6B4
100
AcDbEntity
  8
DIM
  6
Continuous
 62
     7
370
    13
100
AcDbBlockReference
  2
LARROW
 10
4.588219
 20
8.192439
 30
0.0
 41
12.000002
 42
12.000002
 43
12.000002
 50
253.539042
  0
INSERT
  5
62E
330
6B4
100
AcDbEntity
  8
DIM
  6
Continuous
 62
     7
370
    13
100
AcDbBlockReference
  2
LARROW
 10
4.002501
 20
9.151043
 30
0.0
 41
12.000001
 42
12.000001
 43
12.000001
 50
327.723863
  0
INSERT
  5
630
330
6B4
100
AcDbEntity
  8
DIM
  6
Continuous
 62
     7
370
    13
100
AcDbBlockReference
  2
LARROW
 10
2.750876
 20
9.066636
 30
0.0
 41
12.0
 42
12.0
 43
12.0
 50
90.0
  0
INSERT
  5
632
330
6B4
100
AcDbEntity
  8
DIM
  6
Continuous
 62
     7
370
    13
100
AcDbBlockReference
  2
LARROW
 10
2.750876
 20
8.077293
 30
0.0
 41
12.0
 42
12.0
 43
12.0
 50
270.0
  0
INSERT
  5
634
330
6B4
100
AcDbEntity
  8
DIM
  6
Continuous
 62
     7
370
    13
100
AcDbBlockReference
  2
LARROW
 10
3.947823
 20
7.965293
 30
0.0
 41
12.0
 42
12.0
 43
12.0
 50
90.0
  0
INSERT
  5
636
330
6B4
100
AcDbEntity
  8
DIM
  6
Continuous
 62
     7
370
    13
100
AcDbBlockReference
  2
LARROW
 10
4.301323
 20
7.971511
 30
0.0
 41
12.0
 42
12.0
 43
12.0
 50
90.0
  0
INSERT
  5
638
330
6B4
100
AcDbEntity
  8
DIM
  6
Continuous
 62
     7
370
    13
100
AcDbBlockReference
  2
LARROW
 10
7.008126
 20
9.079084
 30
0.0
 41
12.0
 42
12.0
 43
12.0
 50
90.0
  0
INSERT
  5
63A
330
6B4
100
AcDbEntity
  8
DIM
  6
Continuous
 62
     7
370
    13
100
AcDbBlockReference
  2
LARROW
 10
7.008126
 20
7.08173
 30
0.0
 41
12.0
 42
12.0
 43
12.0
 50
270.0
  0
LINE
  5
643
330
6B4
100
AcDbEntity
  8
DIM
  6
Continuous
 62
     7
370
    30
100
AcDbLine
 10
2.54748
 20
8.853897
 30
0.0
 11
2.54748
 21
8.685043
 31
0.0
  0
LINE
  5
644
330
6B4
100
AcDbEntity
  8
DIM
  6
Continuous
 62
     7
370
    30
100
AcDbLine
 10
2.550448
 20
8.43273
 30
0.0
 11
2.550448
 21
8.263876
 31
0.0
  0
TEXT
  5
65
330
6B4
100
AcDbEntity
  8
REF
  6
Continuous
 62
     7
370
    30
100
AcDbText
 10
0.839542
 20
1.446406
 30
0.0
 40
0.12
  1
           RIGID PAVEMENTS FOR AIRFIELDS
  7
Style-Arial
 11
0.839542
 21
1.506406
 31
0.0
100
AcDbText
 73
     2
  0
TEXT
  5
66
330
6B4
100
AcDbEntity
  8
REF
  6
Continuous
 62
     7
370
    30
100
AcDbText
 10
0.720251
 20
1.704751
 30
0.0
 40
0.12
  1
REFERENCE: TM 5-825-3/AFM 88-6, CHAPTER 3,
  7
Style-Arial
 11
0.720251
 21
1.764751
 31
0.0
100
AcDbText
 73
     2
  0
TEXT
  5
67
330
6B4
100
AcDbEntity
  8
NOTES
  6
Continuous
 62
     7
370
    30
100
AcDbText
 10
4.411896
 20
1.972376
 30
0.0
 40
0.12
  1
STRENGTH PIPE
  7
Style-Arial
 11
4.411896
 21
2.032376
 31
0.0
100
AcDbText
 73
     2
  0
TEXT
  5
68
330
6B4
100
AcDbEntity
  8
2-5B
  6
Continuous
 62
     7
370
    30
100
AcDbText
 10
4.385167
 20
2.360449
 30
0.0
 40
0.12
  1
STRENGTH PIPE
  7
Style-Arial
 11
4.385167
 21
2.420449
 31
0.0
100
AcDbText
 73
     2
  0
TEXT
  5
69
330
6B4
100
AcDbEntity
  8
2-5B
  6
Continuous
 62
     7
370
    30
100
AcDbText
 10
4.385167
 20
3.716949
 30
0.0
 40
0.12
  1
1-IN. BAR
  7
Style-Arial
 11
4.385167
 21
3.776949
 31
0.0
100
AcDbText
 73
     2
  0
TEXT
  5
6A
330
6B4
100
AcDbEntity
  8
2-5B
  6
Continuous
 62
     7
370
    30
100
AcDbText
 10
5.010519
 20
4.019064
 30
0.0
 40
0.12
  1
3/4-IN. BAR
  7
Style-Arial
 11
5.010519
 21
4.079064
 31
0.0
100
AcDbText
 73
     2
  0
TEXT
  5
6B
330
6B4
100
AcDbEntity
  8
NOTES
  6
Continuous
 62
     7
370
    30
100
AcDbText
 10
3.866875
 20
2.164657
 30
0.0
 40
0.12
  1
18
  7
Style-Arial
 11
3.866875
 21
2.224657
 31
0.0
100
AcDbText
 73
     2
  0
TEXT
  5
6C
330
6B4
100
AcDbEntity
  8
2-5B
  6
Continuous
 62
     7
370
    30
100
AcDbText
 10
3.866875
 20
2.539657
 30
0.0
 40
0.12
  1
18
  7
Style-Arial
 11
3.866875
 21
2.599657
 31
0.0
100
AcDbText
 73
     2
  0
TEXT
  5
6D
330
6B4
100
AcDbEntity
  8
2-5B
  6
Continuous
 62
     7
370
    30
100
AcDbText
 10
3.866875
 20
3.040699
 30
0.0
 40
0.12
  1
18
  7
Style-Arial
 11
3.866875
 21
3.100699
 31
0.0
100
AcDbText
 73
     2
  0
TEXT
  5
6E
330
6B4
100
AcDbEntity
  8
2-5B
  6
Continuous
 62
     7
370
    30
100
AcDbText
 10
3.866875
 20
3.718043
 30
0.0
 40
0.12
  1
12
  7
Style-Arial
 11
3.866875
 21
3.778043
 31
0.0
100
AcDbText
 73
     2
  0
TEXT
  5
6F
330
6B4
100
AcDbEntity
  8
2-5B
  6
Continuous
 62
     7
370
    30
100
AcDbText
 10
3.866875
 20
3.414459
 30
0.0
 40
0.12
  1
15
  7
Style-Arial
 11
3.866875
 21
3.474459
 31
0.0
100
AcDbText
 73
     2
  0
TEXT
  5
70
330
6B4
100
AcDbEntity
  8
2-5B
  6
Continuous
 62
     7
370
    30
100
AcDbText
 10
3.866875
 20
4.022324
 30
0.0
 40
0.12
  1
12
  7
Style-Arial
 11
3.866875
 21
4.082324
 31
0.0
100
AcDbText
 73
     2
  0
TEXT
  5
71
330
6B4
100
AcDbEntity
  8
2-5B
  6
Continuous
 62
     7
370
    30
100
AcDbText
 10
2.855542
 20
4.022324
 30
0.0
 40
0.12
  1
16
  7
Style-Arial
 11
2.855542
 21
4.082324
 31
0.0
100
AcDbText
 73
     2
  0
TEXT
  5
72
330
6B4
100
AcDbEntity
  8
2-5B
  6
Continuous
 62
     7
370
    30
100
AcDbText
 10
2.873982
 20
3.414459
 30
0.0
 40
0.12
  1
20
  7
Style-Arial
 11
2.873982
 21
3.474459
 31
0.0
100
AcDbText
 73
     2
  0
TEXT
  5
73
330
6B4
100
AcDbEntity
  8
2-5B
  6
Continuous
 62
     7
370
    30
100
AcDbText
 10
2.855542
 20
3.718043
 30
0.0
 40
0.12
  1
16
  7
Style-Arial
 11
2.855542
 21
3.778043
 31
0.0
100
AcDbText
 73
     2
  0
TEXT
  5
74
330
6B4
100
AcDbEntity
  8
2-5B
  6
Continuous
 62
     7
370
    30
100
AcDbText
 10
2.873982
 20
3.040699
 30
0.0
 40
0.12
  1
20
  7
Style-Arial
 11
2.873982
 21
3.100699
 31
0.0
100
AcDbText
 73
     2
  0
TEXT
  5
75
330
6B4
100
AcDbEntity
  8
2-5B
  6
Continuous
 62
     7
370
    30
100
AcDbText
 10
2.88437
 20
2.539657
 30
0.0
 40
0.12
  1
24
  7
Style-Arial
 11
2.88437
 21
2.599657
 31
0.0
100
AcDbText
 73
     2
  0
TEXT
  5
76
330
6B4
100
AcDbEntity
  8
NOTES
  6
Continuous
 62
     7
370
    30
100
AcDbText
 10
2.873972
 20
2.164657
 30
0.0
 40
0.12
  1
30
  7
Style-Arial
 11
2.873972
 21
2.224657
 31
0.0
100
AcDbText
 73
     2
  0
TEXT
  5
77
330
6B4
100
AcDbEntity
  8
NOTES
  6
Continuous
 62
     7
370
    30
100
AcDbText
 10
1.891103
 20
2.164657
 30
0.0
 40
0.12
  1
>26
  7
Style-Arial
 11
1.891103
 21
2.224657
 31
0.0
100
AcDbText
 73
     2
  0
TEXT
  5
78
330
6B4
100
AcDbEntity
  8
2-5B
  6
Continuous
 62
     7
370
    30
100
AcDbText
 10
1.91283
 20
2.539657
 30
0.0
 40
0.12
  1
21 TO 25.5
  7
Style-Arial
 11
1.91283
 21
2.599657
 31
0.0
100
AcDbText
 73
     2
  0
TEXT
  5
79
330
6B4
100
AcDbEntity
  8
2-5B
  6
Continuous
 62
     7
370
    30
100
AcDbText
 10
1.92275
 20
3.040699
 30
0.0
 40
0.12
  1
16 TO 20.5
  7
Style-Arial
 11
1.92275
 21
3.100699
 31
0.0
100
AcDbText
 73
     2
  0
TEXT
  5
7A
330
6B4
100
AcDbEntity
  8
2-5B
  6
Continuous
 62
     7
370
    30
100
AcDbText
 10
1.91283
 20
3.414459
 30
0.0
 40
0.12
  1
12 TO 15.5
  7
Style-Arial
 11
1.91283
 21
3.474459
 31
0.0
100
AcDbText
 73
     2
  0
TEXT
  5
7B
330
6B4
100
AcDbEntity
  8
2-5B
  6
Continuous
 62
     7
370
    30
100
AcDbText
 10
1.906685
 20
3.718043
 30
0.0
 40
0.12
  1
8 TO 11.5
  7
Style-Arial
 11
1.906685
 21
3.778043
 31
0.0
100
AcDbText
 73
     2
  0
TEXT
  5
7C
330
6B4
100
AcDbEntity
  8
2-5B
  6
Continuous
 62
     7
370
    30
100
AcDbText
 10
1.887811
 20
4.022324
 30
0.0
 40
0.12
  1
<8
  7
Style-Arial
 11
1.887811
 21
4.082324
 31
0.0
100
AcDbText
 73
     2
  0
TEXT
  5
7D
330
6B4
100
AcDbEntity
  8
NOTES
  6
Continuous
 62
     7
370
    30
100
AcDbText
 10
4.790292
 20
4.451991
 30
0.0
 40
0.12
  1
DOWEL DIA. & TYPE
  7
Style-Arial
 11
4.790292
 21
4.511991
 31
0.0
100
AcDbText
 73
     2
  0
TEXT
  5
7E
330
6B4
100
AcDbEntity
  8
NOTES
  6
Continuous
 62
     7
370
    30
100
AcDbText
 10
3.593896
 20
4.382209
 30
0.0
 40
0.12
  1
IN.
  7
Style-Arial
 11
3.593896
 21
4.442209
 31
0.0
100
AcDbText
 73
     2
  0
TEXT
  5
7F
330
6B4
100
AcDbEntity
  8
NOTES
  6
Continuous
 62
     7
370
    30
100
AcDbText
 10
3.593886
 20
4.55423
 30
0.0
 40
0.12
  1
SPACING
  7
Style-Arial
 11
3.593886
 21
4.61423
 31
0.0
100
AcDbText
 73
     2
  0
TEXT
  5
80
330
6B4
100
AcDbEntity
  8
NOTES
  6
Continuous
 62
     7
370
    30
100
AcDbText
 10
3.606344
 20
4.720657
 30
0.0
 40
0.12
  1
DOWEL
  7
Style-Arial
 11
3.606344
 21
4.780657
 31
0.0
100
AcDbText
 73
     2
  0
TEXT
  5
81
330
6B4
100
AcDbEntity
  8
NOTES
  6
Continuous
 62
     7
370
    30
100
AcDbText
 10
3.600126
 20
4.885928
 30
0.0
 40
0.12
  1
MAXIMUM
  7
Style-Arial
 11
3.600126
 21
4.945928
 31
0.0
100
AcDbText
 73
     2
  0
TEXT
  5
82
330
6B4
100
AcDbEntity
  8
NOTES
  6
Continuous
 62
     7
370
    30
100
AcDbText
 10
2.626303
 20
4.369761
 30
0.0
 40
0.12
  1
IN.
  7
Style-Arial
 11
2.626303
 21
4.429761
 31
0.0
100
AcDbText
 73
     2
  0
TEXT
  5
83
330
6B4
100
AcDbEntity
  8
NOTES
  6
Continuous
 62
     7
370
    30
100
AcDbText
 10
2.632511
 20
4.541782
 30
0.0
 40
0.12
  1
LENGTH
  7
Style-Arial
 11
2.632511
 21
4.601782
 31
0.0
100
AcDbText
 73
     2
  0
TEXT
  5
84
330
6B4
100
AcDbEntity
  8
NOTES
  6
Continuous
 62
     7
370
    30
100
AcDbText
 10
2.632511
 20
4.720668
 30
0.0
 40
0.12
  1
DOWEL
  7
Style-Arial
 11
2.632511
 21
4.780668
 31
0.0
100
AcDbText
 73
     2
  0
TEXT
  5
85
330
6B4
100
AcDbEntity
  8
NOTES
  6
Continuous
 62
     7
370
    30
100
AcDbText
 10
2.632521
 20
4.885303
 30
0.0
 40
0.12
  1
MINIMUM
  7
Style-Arial
 11
2.632521
 21
4.945303
 31
0.0
100
AcDbText
 73
     2
  0
TEXT
  5
86
330
6B4
100
AcDbEntity
  8
NOTES
  6
Continuous
 62
     7
370
    30
100
AcDbText
 10
1.572396
 20
4.433324
 30
0.0
 40
0.12
  1
IN.
  7
Style-Arial
 11
1.572396
 21
4.493324
 31
0.0
100
AcDbText
 73
     2
  0
TEXT
  5
87
330
6B4
100
AcDbEntity
  8
NOTES
  6
Continuous
 62
     7
370
    30
100
AcDbText
 10
1.55373
 20
4.656907
 30
0.0
 40
0.12
  1
THICKNESS
  7
Style-Arial
 11
1.55373
 21
4.716907
 31
0.0
100
AcDbText
 73
     2
  0
TEXT
  5
88
330
6B4
100
AcDbEntity
  8
NOTES
  6
Continuous
 62
     7
370
    30
100
AcDbText
 10
1.559959
 20
4.860668
 30
0.0
 40
0.12
  1
PAVEMENT
  7
Style-Arial
 11
1.559959
 21
4.920668
 31
0.0
100
AcDbText
 73
     2
  0
TEXT
  5
89
330
6B4
100
AcDbEntity
  8
NOTES
  6
Continuous
 62
     7
370
    30
100
AcDbText
 10
1.499292
 20
5.17723
 30
0.0
 40
0.12
  1
20-FOOT MAXIMUM SPACING FOR AIR FORCE PAVEMENTS.
  7
Style-Arial
 11
1.499292
 21
5.23723
 31
0.0
100
AcDbText
 73
     2
  0
TEXT
  5
8A
330
6B4
100
AcDbEntity
  8
NOTES
  6
Continuous
 62
     7
370
    30
100
AcDbText
 10
1.387803
 20
5.270564
 30
0.0
 40
0.12
  1
*
  7
Style-Arial
 11
1.387803
 21
5.330564
 31
0.0
100
AcDbText
 73
     2
  0
TEXT
  5
8B
330
6B4
100
AcDbEntity
  8
NOTES
  6
Continuous
 62
     7
370
    30
100
AcDbText
 10
3.949469
 20
5.677345
 30
0.0
 40
0.12
  1
20 TO 25
  7
Style-Arial
 11
3.949469
 21
5.737345
 31
0.0
100
AcDbText
 73
     2
  0
TEXT
  5
8C
330
6B4
100
AcDbEntity
  8
NOTES
  6
Continuous
 62
     7
370
    30
100
AcDbText
 10
3.949469
 20
5.927345
 30
0.0
 40
0.12
  1
15 TO 20
  7
Style-Arial
 11
3.949469
 21
5.987345
 31
0.0
100
AcDbText
 73
     2
  0
TEXT
  5
8D
330
6B4
100
AcDbEntity
  8
NOTES
  6
Continuous
 62
     7
370
    30
100
AcDbText
 10
3.949469
 20
6.177345
 30
0.0
 40
0.12
  1
12-1/2 TO 15
  7
Style-Arial
 11
3.949469
 21
6.237345
 31
0.0
100
AcDbText
 73
     2
  0
TEXT
  5
8E
330
6B4
100
AcDbEntity
  8
NOTES
  6
Continuous
 62
     7
370
    30
100
AcDbText
 10
1.86399
 20
5.660782
 30
0.0
 40
0.12
  1
OVER 12
  7
Style-Arial
 11
1.86399
 21
5.720782
 31
0.0
100
AcDbText
 73
     2
  0
TEXT
  5
8F
330
6B4
100
AcDbEntity
  8
NOTES
  6
Continuous
 62
     7
370
    30
100
AcDbText
 10
1.86399
 20
5.910782
 30
0.0
 40
0.12
  1
9 TO 12
  7
Style-Arial
 11
1.86399
 21
5.970782
 31
0.0
100
AcDbText
 73
     2
  0
TEXT
  5
90
330
6B4
100
AcDbEntity
  8
NOTES
  6
Continuous
 62
     7
370
    30
100
AcDbText
 10
1.86399
 20
6.160782
 30
0.0
 40
0.12
  1
LESS THAN 9
  7
Style-Arial
 11
1.86399
 21
6.220782
 31
0.0
100
AcDbText
 73
     2
  0
TEXT
  5
91
330
6B4
100
AcDbEntity
  8
NOTES
  6
Continuous
 62
     7
370
    30
100
AcDbText
 10
3.986792
 20
6.537689
 30
0.0
 40
0.12
  1
SPACING, FT.
  7
Style-Arial
 11
3.986792
 21
6.597689
 31
0.0
100
AcDbText
 73
     2
  0
TEXT
  5
92
330
6B4
100
AcDbEntity
  8
NOTES
  6
Continuous
 62
     7
370
    30
100
AcDbText
 10
1.560448
 20
6.529366
 30
0.0
 40
0.12
  1
PAV'T THICKNESS, IN.
  7
Style-Arial
 11
1.560448
 21
6.589366
 31
0.0
100
AcDbText
 73
     2
  0
TEXT
  5
93
330
6B4
100
AcDbEntity
  8
TEXT
  6
Continuous
 62
     7
370
    30
100
AcDbText
 10
1.733396
 20
6.843543
 30
0.0
 40
0.12
  1
D* DENOTES DOWEL DIAMETER
  7
Style-Arial
 11
1.733396
 21
6.903543
 31
0.0
100
AcDbText
 73
     2
  0
TEXT
  5
94
330
6B4
100
AcDbEntity
  8
TEXT
  6
Continuous
 62
     7
370
    30
100
AcDbText
 10
1.610938
 20
7.119105
 30
0.0
 40
0.12
  1
OF RUNWAYS
  7
Style-Arial
 11
1.610938
 21
7.179105
 31
0.0
100
AcDbText
 73
     2
  0
TEXT
  5
95
330
6B4
100
AcDbEntity
  8
TEXT
  6
Continuous
 62
     7
370
    30
100
AcDbText
 10
1.610761
 20
7.297605
 30
0.0
 40
0.12
  1
BACK FROM ENDS
  7
Style-Arial
 11
1.610761
 21
7.357605
 31
0.0
100
AcDbText
 73
     2
  0
TEXT
  5
96
330
6B4
100
AcDbEntity
  8
TEXT
  6
Continuous
 62
     7
370
    30
100
AcDbText
 10
1.616938
 20
7.672897
 30
0.0
 40
0.12
  1
USE ONLY IN THE LAST
  7
Style-Arial
 11
1.616938
 21
7.732897
 31
0.0
100
AcDbText
 73
     2
  0
TEXT
  5
97
330
6B4
100
AcDbEntity
  8
TEXT
  6
Continuous
 62
     7
370
    30
100
AcDbText
 10
4.473032
 20
7.156876
 30
0.0
 40
0.12
  1
OF DOWEL
  7
Style-Arial
 11
4.473032
 21
7.216876
 31
0.0
100
AcDbText
 73
     2
  0
TEXT
  5
98
330
6B4
100
AcDbEntity
  8
TEXT
  6
Continuous
 62
     7
370
    30
100
AcDbText
 10
4.473032
 20
7.358939
 30
0.0
 40
0.12
  1
ONE END
  7
Style-Arial
 11
4.473032
 21
7.418939
 31
0.0
100
AcDbText
 73
     2
  0
TEXT
  5
99
330
6B4
100
AcDbEntity
  8
TEXT
  6
Continuous
 62
     7
370
    30
100
AcDbText
 10
5.26748
 20
9.289386
 30
0.0
 40
0.12
  1
DOWEL MAY BE USED
  7
Style-Arial
 11
5.26748
 21
9.349386
 31
0.0
100
AcDbText
 73
     2
  0
TEXT
  5
9A
330
6B4
100
AcDbEntity
  8
TEXT
  6
Continuous
 62
     7
370
    30
100
AcDbText
 10
5.242594
 20
9.455168
 30
0.0
 40
0.12
  1
THREADED SPLIT-TYPE
  7
Style-Arial
 11
5.242594
 21
9.515168
 31
0.0
100
AcDbText
 73
     2
  0
TEXT
  5
9B
330
6B4
100
AcDbEntity
  8
TEXT
  6
Continuous
 62
     7
370
    30
100
AcDbText
 10
5.242594
 20
9.627939
 30
0.0
 40
0.12
  1
EITHER ONE PIECE OR
  7
Style-Arial
 11
5.242594
 21
9.687939
 31
0.0
100
AcDbText
 73
     2
  0
TEXT
  5
9C
330
6B4
100
AcDbEntity
  8
TEXT
  6
Continuous
 62
     7
370
    30
100
AcDbText
 10
1.763405
 20
9.160991
 30
0.0
 40
0.12
  1
DETAIL NO. 2-13
  7
Style-Arial
 11
1.763405
 21
9.220991
 31
0.0
100
AcDbText
 73
     2
  0
TEXT
  5
9D
330
6B4
100
AcDbEntity
  8
TEXT
  6
Continuous
 62
     7
370
    30
100
AcDbText
 10
1.758238
 20
9.33272
 30
0.0
 40
0.12
  1
SEE JOINT SEALANT
  7
Style-Arial
 11
1.758238
 21
9.39272
 31
0.0
100
AcDbText
 73
     2
  0
TEXT
  5
A1
330
6B4
100
AcDbEntity
  8
DIM
  6
Continuous
 62
     7
370
    30
100
AcDbText
 10
6.981792
 20
8.161032
 30
0.0
 40
0.12
  1
d
 50
90.0
  7
Style-Arial
 11
6.921792
 21
8.161032
 31
0.0
100
AcDbText
 73
     2
  0
TEXT
  5
A2
330
6B4
100
AcDbEntity
  8
DIM
  6
Continuous
 62
     7
370
    30
100
AcDbText
 10
6.90998
 20
8.058251
 30
0.0
 40
0.12
  1
h
 50
90.0
  7
Style-Arial
 11
6.84998
 21
8.058251
 31
0.0
100
AcDbText
 73
     2
  0
TEXT
  5
BA
330
6B4
100
AcDbEntity
  8
TITLE
  6
Continuous
 62
     7
370
    30
100
AcDbText
 10
1.91678
 20
1.22775
 30
0.0
 40
0.12
  1
CONTRACTION JOINT (TRANSVERSE)
  7
Style-Arial
 11
1.91678
 21
1.28775
 31
0.0
100
AcDbText
 73
     2
  0
TEXT
  5
BB
330
6B4
100
AcDbEntity
  8
TITLE
  6
Continuous
 62
     7
370
    30
100
AcDbText
 10
1.938386
 20
0.992042
 30
0.0
 40
0.12
  1
FOR PLAIN CONCRETE PAVEMENTS
  7
Style-Arial
 11
1.938386
 21
1.052042
 31
0.0
100
AcDbText
 73
     2
  0
TEXT
  5
BC
330
6B4
100
AcDbEntity
  8
BORDER
  6
Continuous
 62
     7
370
    30
100
AcDbText
 10
5.851267
 20
1.01976
 30
0.0
 40
0.12
  1
AUG 1992
  7
Style-Arial
 11
5.851267
 21
1.07976
 31
0.0
100
AcDbText
 73
     2
  0
TEXT
  5
BD
330
6B4
100
AcDbEntity
  8
BORDER
  6
Continuous
 62
     7
370
    30
100
AcDbText
 10
5.994833
 20
1.205094
 30
0.0
 40
0.12
  1
DATE
  7
Style-Arial
 11
5.994833
 21
1.265094
 31
0.0
100
AcDbText
 73
     2
  0
TEXT
  5
BE
330
6B4
100
AcDbEntity
  8
2-5B
  6
Continuous
 62
     7
370
    30
100
AcDbText
 10
7.137274
 20
1.01976
 30
0.0
 40
0.12
  1
2-5a
  7
Style-Arial
 11
7.137274
 21
1.07976
 31
0.0
100
AcDbText
 73
     2
  0
TEXT
  5
BF
330
6B4
100
AcDbEntity
  8
2-5B
  6
Continuous
 62
     7
370
    30
100
AcDbText
 10
6.982298
 20
1.186427
 30
0.0
 40
0.12
  1
FIGURE
  7
Style-Arial
 11
6.982298
 21
1.246427
 31
0.0
100
AcDbText
 73
     2
  0
TEXT
  5
604
330
6B4
100
AcDbEntity
  8
TEXT
  6
Continuous
 62
     7
370
    30
100
AcDbText
 10
4.473032
 20
7.538345
 30
0.0
 40
0.12
  1
PAINT & OIL
  7
Style-Arial
 11
4.473032
 21
7.598345
 31
0.0
100
AcDbText
 73
     2
  0
TEXT
  5
605
330
6B4
100
AcDbEntity
  8
TEXT
  6
Continuous
 62
     7
370
    30
100
AcDbText
 10
1.616657
 20
7.478189
 30
0.0
 40
0.12
  1
3 TRANSVERSE JOINTS
  7
Style-Arial
 11
1.616657
 21
7.538189
 31
0.0
100
AcDbText
 73
     2
  0
TEXT
  5
62B
330
6B4
100
AcDbEntity
  8
TEXT
  6
Continuous
 62
     7
370
    30
100
AcDbText
 10
3.534335
 20
9.739751
 30
0.0
 40
0.12
  1
TRANSVERSE
  7
Style-Arial
 11
3.534335
 21
9.799751
 31
0.0
100
AcDbText
 73
     2
  0
TEXT
  5
63C
330
6B4
100
AcDbEntity
  8
DIM
  6
Continuous
 62
     7
370
    30
100
AcDbText
 10
2.510084
 20
8.711741
 30
0.0
 40
0.12
  1
D*
 50
90.0
  7
Style-Arial
 11
2.450084
 21
8.711741
 31
0.0
100
AcDbText
 73
     2
  0
TEXT
  5
63D
330
6B4
100
AcDbEntity
  8
DIM
  6
Continuous
 62
     7
370
    30
100
AcDbText
 10
2.43298
 20
8.25498
 30
0.0
 40
0.12
  1
h
 50
90.0
  7
Style-Arial
 11
2.37298
 21
8.25498
 31
0.0
100
AcDbText
 73
     2
  0
TEXT
  5
63E
330
6B4
100
AcDbEntity
  8
DIM
  6
Continuous
 62
     7
370
    30
100
AcDbText
 10
2.518928
 20
8.340991
 30
0.0
 40
0.12
  1
d
 50
90.0
  7
Style-Arial
 11
2.458928
 21
8.340991
 31
0.0
100
AcDbText
 73
     2
  0
TEXT
  5
63F
330
6B4
100
AcDbEntity
  8
DIM
  6
Continuous
 62
     7
370
    30
100
AcDbText
 10
2.686361
 20
8.552685
 30
0.0
 40
0.12
  1
-
 50
90.0
  7
Style-Arial
 11
2.626361
 21
8.552685
 31
0.0
100
AcDbText
 73
     2
  0
TEXT
  5
640
330
6B4
100
AcDbEntity
  8
DIM
  6
Continuous
 62
     7
370
    30
100
AcDbText
 10
2.701146
 20
8.729834
 30
0.0
 40
0.12
  1
2
 50
90.0
  7
Style-Arial
 11
2.641146
 21
8.729834
 31
0.0
100
AcDbText
 73
     2
  0
TEXT
  5
641
330
6B4
100
AcDbEntity
  8
DIM
  6
Continuous
 62
     7
370
    30
100
AcDbText
 10
2.704115
 20
8.314584
 30
0.0
 40
0.12
  1
2
 50
90.0
  7
Style-Arial
 11
2.644115
 21
8.314584
 31
0.0
100
AcDbText
 73
     2
  0
TEXT
  5
642
330
6B4
100
AcDbEntity
  8
DIM
  6
Continuous
 62
     7
370
    30
100
AcDbText
 10
2.628834
 20
8.531136
 30
0.0
 40
0.12
  1
+
 50
90.0
  7
Style-Arial
 11
2.568834
 21
8.531136
 31
0.0
100
AcDbText
 73
     2
  0
TEXT
  5
645
330
6B4
100
AcDbEntity
  8
NOTES
  6
Continuous
 62
     7
370
    30
100
AcDbText
 10
2.697136
 20
5.741939
 30
0.0
 40
0.12
  1
*
  7
Style-Arial
 11
2.697136
 21
5.801939
 31
0.0
100
AcDbText
 73
     2
  0
TEXT
  5
646
330
6B4
100
AcDbEntity
  8
2-5B
  6
Continuous
 62
     7
370
    30
100
AcDbText
 10
4.417573
 20
2.905584
 30
0.0
 40
0.12
  1
EXTRA-STRENGTH PIPE
  7
Style-Arial
 11
4.417573
 21
2.965584
 31
0.0
100
AcDbText
 73
     2
  0
TEXT
  5
647
330
6B4
100
AcDbEntity
  8
2-5B
  6
Continuous
 62
     7
370
    30
100
AcDbText
 10
6.602251
 20
3.082397
 30
0.0
 40
0.12
  1
2
  7
Style-Arial
 11
6.602251
 21
3.142397
 31
0.0
100
AcDbText
 73
     2
  0
TEXT
  5
648
330
6B4
100
AcDbEntity
  8
2-5B
  6
Continuous
 62
     7
370
    30
100
AcDbText
 10
6.606876
 20
3.485366
 30
0.0
 40
0.12
  1
4
  7
Style-Arial
 11
6.606876
 21
3.545366
 31
0.0
100
AcDbText
 73
     2
  0
TEXT
  5
649
330
6B4
100
AcDbEntity
  8
2-5B
  6
Continuous
 62
     7
370
    30
100
AcDbText
 10
4.417573
 20
3.29447
 30
0.0
 40
0.12
  1
EXTRA-STRENGTH PIPE
  7
Style-Arial
 11
4.417573
 21
3.35447
 31
0.0
100
AcDbText
 73
     2
  0
TEXT
  5
64A
330
6B4
100
AcDbEntity
  8
2-5B
  6
Continuous
 62
     7
370
    30
100
AcDbText
 10
4.385167
 20
3.482324
 30
0.0
 40
0.12
  1
1-1/4-IN. BAR OR 1-1/  IN.
  7
Style-Arial
 11
4.385167
 21
3.542324
 31
0.0
100
AcDbText
 73
     2
  0
TEXT
  5
64B
330
6B4
100
AcDbEntity
  8
2-5B
  6
Continuous
 62
     7
370
    30
100
AcDbText
 10
4.385167
 20
3.080126
 30
0.0
 40
0.12
  1
1-1/2-IN. BAR OR 1-1/  IN.
  7
Style-Arial
 11
4.385167
 21
3.140126
 31
0.0
100
AcDbText
 73
     2
  0
TEXT
  5
64C
330
6B4
100
AcDbEntity
  8
2-5B
  6
Continuous
 62
     7
370
    30
100
AcDbText
 10
4.385167
 20
2.539845
 30
0.0
 40
0.12
  1
2-INCH BAR OR 2-INCH EXTRA
  7
Style-Arial
 11
4.385167
 21
2.599845
 31
0.0
100
AcDbText
 73
     2
  0
TEXT
  5
64D
330
6B4
100
AcDbEntity
  8
NOTES
  6
Continuous
 62
     7
370
    30
100
AcDbText
 10
4.411896
 20
2.137647
 30
0.0
 40
0.12
  1
3-INCH BAR OR 3-INCH EXTRA
  7
Style-Arial
 11
4.411896
 21
2.197647
 31
0.0
100
AcDbText
 73
     2
  0
LWPOLYLINE
  5
69D
330
6B4
100
AcDbEntity
  8
DIM
  6
Continuous
 62
     7
370
    53
100
AcDbPolyline
 90
        4
 70
   129
 43
0.0
 10
3.959355
 20
9.047782
 10
4.159355
 20
9.047782
 10
4.159355
 20
8.577043
 10
3.959355
 20
8.577043
  0
SOLID
  5
6A0
330
6B4
100
AcDbEntity
  8
DIM
  6
Continuous
 62
     7
370
    53
100
AcDbTrace
 10
-3.96164
 20
9.046933
 30
0.0
 11
-4.16164
 21
9.046933
 31
0.0
 12
-3.96164
 22
8.576193
 32
0.0
 13
-4.16164
 23
8.576193
 33
0.0
210
0.0
220
0.0
230
-1.0
  0
ENDSEC
  0
SECTION
  2
OBJECTS
  0
DICTIONARY
  5
6A8
330
0
100
AcDbDictionary
281
     1
  3
ACAD_COLOR
350
6C7
  3
ACAD_GROUP
350
6C4
  3
ACAD_LAYOUT
350
6B8
  3
ACAD_MATERIAL
350
6C6
  3
ACAD_MLINESTYLE
350
6B2
  3
ACAD_PLOTSETTINGS
350
6C5
  3
ACAD_PLOTSTYLENAME
350
6A7
  3
ACAD_TABLESTYLE
350
6DE
  3
AcadDim
350
6D4
  3
MicroStation
350
6CC
  0
DICTIONARY
  5
6A4
330
6A3
100
AcDbDictionary
280
     1
281
     1
  3
ACAD_LAYERFILTERS
360
6CB
  3
ACAD_LAYERSTATES
360
6A5
  0
DICTIONARY
  5
6DA
330
6B4
100
AcDbDictionary
280
     1
281
     1
  3
ACAD_SORTENTS
360
6DB
  0
DICTIONARY
  5
6C7
102
{ACAD_REACTORS
330
6A8
102
}
330
6A8
100
AcDbDictionary
281
     1
  0
DICTIONARY
  5
6C4
102
{ACAD_REACTORS
330
6A8
102
}
330
6A8
100
AcDbDictionary
281
     1
  0
DICTIONARY
  5
6B8
102
{ACAD_REACTORS
330
6A8
102
}
330
6A8
100
AcDbDictionary
281
     1
  3
Layout1
350
6BC
  3
Model
350
6B7
  0
DICTIONARY
  5
6C6
102
{ACAD_REACTORS
330
6A8
102
}
330
6A8
100
AcDbDictionary
281
     1
  0
DICTIONARY
  5
6B2
102
{ACAD_REACTORS
330
6A8
102
}
330
6A8
100
AcDbDictionary
281
     1
  3
Standard
350
6B1
  0
DICTIONARY
  5
6C5
102
{ACAD_REACTORS
330
6A8
102
}
330
6A8
100
AcDbDictionary
281
     1
  0
ACDBDICTIONARYWDFLT
  5
6A7
102
{ACAD_REACTORS
330
6A8
102
}
330
6A8
100
AcDbDictionary
281
     1
  3
Normal
350
6A6
100
AcDbDictionaryWithDefault
340
6A6
  0
DICTIONARY
  5
6DE
102
{ACAD_REACTORS
330
6A8
102
}
330
6A8
100
AcDbDictionary
281
     1
  0
XRECORD
  5
6D4
102
{ACAD_REACTORS
330
6A8
102
}
330
6A8
100
AcDbXrecord
280
     1
 90
   990106
  3
 
 60
     0
 61
     0
 62
     1
 63
     1
 64
     0
 65
     0
 66
     0
 67
     3
 68
     1
 69
     1
 70
     0
 71
     0
 72
     0
 40
0.0
170
     0
  0
DICTIONARY
  5
6CC
102
{ACAD_REACTORS
330
6A8
102
}
330
6A8
100
AcDbDictionary
281
     1
  3
ApplicationElement 1691
350
69B
  3
ApplicationElement 1692
350
69C
  3
ModelApplicationElement 0 1690
350
69A
  0
DICTIONARY
  5
6CB
102
{ACAD_REACTORS
330
6A4
102
}
330
6A4
100
AcDbDictionary
281
     1
  0
DICTIONARY
  5
6A5
102
{ACAD_REACTORS
330
6A4
102
}
330
6A4
100
AcDbDictionary
281
     1
  0
SORTENTSTABLE
  5
6DB
102
{ACAD_REACTORS
330
6DA
102
}
330
6DA
100
AcDbSortentsTable
330
6B4
331
65
  5
5F2
331
66
  5
5F3
331
67
  5
5F4
331
68
  5
5F5
331
69
  5
5F6
331
6A
  5
5F7
331
6B
  5
5F8
331
6C
  5
5F9
331
6D
  5
5FA
331
6E
  5
5FB
331
6F
  5
5FC
331
70
  5
5FD
331
71
  5
5FE
331
72
  5
5FF
331
73
  5
600
331
74
  5
601
331
75
  5
602
331
76
  5
603
331
77
  5
604
331
78
  5
605
331
79
  5
606
331
7A
  5
607
331
7B
  5
608
331
7C
  5
609
331
7D
  5
60A
331
7E
  5
60B
331
7F
  5
60C
331
80
  5
60D
331
81
  5
60E
331
82
  5
60F
331
83
  5
610
331
84
  5
611
331
85
  5
612
331
86
  5
613
331
87
  5
614
331
88
  5
615
331
89
  5
616
331
8A
  5
617
331
8B
  5
618
331
8C
  5
619
331
8D
  5
61A
331
8E
  5
61B
331
8F
  5
61C
331
90
  5
61D
331
91
  5
61E
331
92
  5
61F
331
93
  5
620
331
94
  5
621
331
95
  5
622
331
96
  5
623
331
97
  5
624
331
98
  5
625
331
99
  5
626
331
9A
  5
627
331
9B
  5
628
331
9C
  5
629
331
9D
  5
62A
331
9E
  5
65
331
9F
  5
66
331
A0
  5
67
331
A1
  5
62B
331
A2
  5
62C
331
A3
  5
68
331
A4
  5
69
331
A6
  5
6A
331
A7
  5
6B
331
A8
  5
6C
331
A9
  5
6D
331
AA
  5
6E
331
AB
  5
6F
331
AC
  5
70
331
AD
  5
71
331
AE
  5
72
331
AF
  5
73
331
B0
  5
74
331
B1
  5
75
331
B2
  5
76
331
B3
  5
77
331
B4
  5
78
331
B5
  5
79
331
B6
  5
7A
331
B7
  5
7B
331
B8
  5
7C
331
B9
  5
7D
331
BA
  5
62E
331
BB
  5
630
331
BC
  5
632
331
BD
  5
634
331
BE
  5
636
331
BF
  5
638
331
C0
  5
7E
331
C1
  5
7F
331
C2
  5
80
331
C3
  5
81
331
C4
  5
82
331
C5
  5
83
331
C6
  5
84
331
C7
  5
85
331
C8
  5
86
331
C9
  5
87
331
CA
  5
88
331
CB
  5
89
331
CC
  5
8A
331
CD
  5
8B
331
CE
  5
8C
331
CF
  5
8D
331
D0
  5
8E
331
D1
  5
8F
331
D2
  5
90
331
D3
  5
91
331
D4
  5
92
331
D5
  5
93
331
D6
  5
94
331
D7
  5
95
331
D8
  5
96
331
D9
  5
97
331
DA
  5
98
331
DB
  5
99
331
DC
  5
9A
331
DD
  5
9B
331
DE
  5
9C
331
DF
  5
9D
331
E0
  5
9E
331
E1
  5
9F
331
E2
  5
A0
331
E3
  5
A1
331
E4
  5
A2
331
E5
  5
A3
331
E6
  5
A4
331
E7
  5
A6
331
E8
  5
A7
331
E9
  5
A8
331
EA
  5
A9
331
EB
  5
AA
331
EC
  5
AB
331
ED
  5
AC
331
EE
  5
AD
331
EF
  5
AE
331
F0
  5
AF
331
F1
  5
B0
331
F2
  5
B1
331
F3
  5
B2
331
F4
  5
B3
331
F5
  5
B4
331
F6
  5
B5
331
F7
  5
B6
331
F8
  5
B7
331
F9
  5
B8
331
FA
  5
B9
331
FB
  5
BA
331
FC
  5
BB
331
FD
  5
BC
331
FE
  5
BD
331
FF
  5
BE
331
100
  5
BF
331
101
  5
C0
331
102
  5
C1
331
103
  5
C2
331
104
  5
C3
331
105
  5
C4
331
106
  5
C5
331
107
  5
C6
331
108
  5
C7
331
109
  5
C8
331
10A
  5
C9
331
10B
  5
CA
331
10C
  5
CB
331
10D
  5
CC
331
10E
  5
CD
331
10F
  5
CE
331
110
  5
CF
331
111
  5
D0
331
112
  5
D1
331
113
  5
D2
331
114
  5
D3
331
115
  5
D4
331
116
  5
D5
331
117
  5
D6
331
118
  5
D7
331
119
  5
D8
331
11A
  5
D9
331
11B
  5
DA
331
11C
  5
DB
331
11D
  5
DC
331
11E
  5
DD
331
11F
  5
DE
331
120
  5
DF
331
121
  5
E0
331
122
  5
E1
331
123
  5
E2
331
124
  5
E3
331
125
  5
E4
331
126
  5
E5
331
127
  5
E6
331
128
  5
E7
331
129
  5
E8
331
12A
  5
E9
331
12B
  5
EA
331
12C
  5
EB
331
12D
  5
EC
331
12E
  5
ED
331
12F
  5
EE
331
130
  5
EF
331
131
  5
F0
331
132
  5
F1
331
133
  5
F2
331
134
  5
F3
331
135
  5
F4
331
136
  5
F5
331
137
  5
F6
331
138
  5
F7
331
139
  5
F8
331
13A
  5
F9
331
13B
  5
FA
331
13C
  5
FB
331
13D
  5
FC
331
13E
  5
FD
331
13F
  5
FE
331
140
  5
FF
331
141
  5
100
331
142
  5
101
331
143
  5
102
331
144
  5
103
331
145
  5
104
331
146
  5
105
331
147
  5
106
331
148
  5
107
331
149
  5
108
331
14A
  5
109
331
14B
  5
10A
331
14C
  5
10B
331
14D
  5
10C
331
14E
  5
10D
331
14F
  5
10E
331
150
  5
10F
331
151
  5
110
331
152
  5
111
331
153
  5
112
331
154
  5
113
331
155
  5
114
331
156
  5
115
331
157
  5
116
331
158
  5
117
331
159
  5
118
331
15A
  5
119
331
15B
  5
11A
331
15C
  5
11B
331
15D
  5
11C
331
15E
  5
11D
331
15F
  5
11E
331
160
  5
11F
331
161
  5
120
331
162
  5
121
331
163
  5
122
331
164
  5
123
331
165
  5
124
331
166
  5
125
331
167
  5
126
331
168
  5
127
331
169
  5
128
331
16A
  5
129
331
16B
  5
12A
331
16C
  5
12B
331
16D
  5
12C
331
16E
  5
12D
331
16F
  5
12E
331
170
  5
12F
331
171
  5
130
331
172
  5
131
331
173
  5
132
331
174
  5
133
331
175
  5
134
331
176
  5
135
331
177
  5
136
331
178
  5
137
331
179
  5
138
331
17A
  5
139
331
17B
  5
13A
331
17C
  5
13B
331
17D
  5
13C
331
17E
  5
13D
331
17F
  5
13E
331
180
  5
13F
331
181
  5
140
331
182
  5
141
331
183
  5
142
331
184
  5
143
331
185
  5
144
331
186
  5
145
331
187
  5
146
331
188
  5
147
331
189
  5
148
331
18A
  5
149
331
18B
  5
14A
331
18C
  5
14B
331
18D
  5
14C
331
18E
  5
14D
331
18F
  5
14E
331
190
  5
14F
331
191
  5
150
331
192
  5
151
331
193
  5
152
331
194
  5
153
331
195
  5
154
331
196
  5
155
331
197
  5
156
331
198
  5
157
331
199
  5
158
331
19A
  5
159
331
19B
  5
15A
331
19C
  5
15B
331
19D
  5
15C
331
19E
  5
15D
331
19F
  5
15E
331
1A0
  5
15F
331
1A1
  5
160
331
1A2
  5
161
331
1A3
  5
162
331
1A4
  5
163
331
1A5
  5
164
331
1A6
  5
165
331
1A7
  5
166
331
1A8
  5
167
331
1A9
  5
168
331
1AA
  5
169
331
1AB
  5
16A
331
1AC
  5
16B
331
1AD
  5
16C
331
1AE
  5
16D
331
1AF
  5
16E
331
1B0
  5
16F
331
1B1
  5
170
331
1B2
  5
171
331
1B3
  5
172
331
1B4
  5
173
331
1B5
  5
174
331
1B6
  5
175
331
1B7
  5
176
331
1B8
  5
177
331
1B9
  5
178
331
1BA
  5
179
331
1BB
  5
17A
331
1BC
  5
17B
331
1BD
  5
17C
331
1BE
  5
17D
331
1BF
  5
17E
331
1C0
  5
17F
331
1C1
  5
180
331
1C2
  5
181
331
1C3
  5
182
331
1C4
  5
183
331
1C5
  5
184
331
1C6
  5
185
331
1C7
  5
186
331
1C8
  5
187
331
1C9
  5
188
331
1CA
  5
189
331
1CB
  5
18A
331
1CC
  5
18B
331
1CD
  5
18C
331
1CE
  5
18D
331
1CF
  5
18E
331
1D0
  5
18F
331
1D1
  5
190
331
1D2
  5
191
331
1D3
  5
192
331
1D4
  5
193
331
1D5
  5
194
331
1D6
  5
195
331
1D7
  5
196
331
1D8
  5
197
331
1D9
  5
198
331
1DA
  5
199
331
1DB
  5
19A
331
1DC
  5
19B
331
1DD
  5
19C
331
1DE
  5
19D
331
1DF
  5
19E
331
1E0
  5
19F
331
1E1
  5
1A0
331
1E2
  5
1A1
331
1E3
  5
1A2
331
1E4
  5
1A3
331
1E5
  5
1A4
331
1E6
  5
1A5
331
1E7
  5
1A6
331
1E8
  5
1A7
331
1E9
  5
1A8
331
1EA
  5
1A9
331
1EB
  5
1AA
331
1EC
  5
1AB
331
1ED
  5
1AC
331
1EE
  5
1AD
331
1EF
  5
1AE
331
1F0
  5
1AF
331
1F1
  5
1B0
331
1F2
  5
1B1
331
1F3
  5
1B2
331
1F4
  5
1B3
331
1F5
  5
1B4
331
1F6
  5
1B5
331
1F7
  5
1B6
331
1F8
  5
1B7
331
1F9
  5
1B8
331
1FA
  5
1B9
331
1FB
  5
1BA
331
1FC
  5
1BB
331
1FD
  5
1BC
331
1FE
  5
1BD
331
1FF
  5
1BE
331
200
  5
1BF
331
201
  5
1C0
331
202
  5
1C1
331
203
  5
1C2
331
204
  5
1C3
331
205
  5
1C4
331
206
  5
1C5
331
207
  5
1C6
331
208
  5
1C7
331
209
  5
1C8
331
20A
  5
1C9
331
20B
  5
1CA
331
20C
  5
1CB
331
20D
  5
1CC
331
20E
  5
1CD
331
20F
  5
1CE
331
210
  5
1CF
331
211
  5
1D0
331
212
  5
1D1
331
213
  5
1D2
331
214
  5
1D3
331
215
  5
1D4
331
216
  5
1D5
331
217
  5
1D6
331
218
  5
1D7
331
219
  5
1D8
331
21A
  5
1D9
331
21B
  5
1DA
331
21C
  5
1DB
331
21D
  5
1DC
331
21E
  5
1DD
331
21F
  5
1DE
331
220
  5
1DF
331
221
  5
1E0
331
222
  5
1E1
331
223
  5
1E2
331
224
  5
1E3
331
225
  5
1E4
331
226
  5
1E5
331
227
  5
1E6
331
228
  5
1E7
331
229
  5
1E8
331
22A
  5
1E9
331
22B
  5
1EA
331
22C
  5
1EB
331
22D
  5
1EC
331
22E
  5
1ED
331
22F
  5
1EE
331
230
  5
1EF
331
231
  5
1F0
331
232
  5
1F1
331
233
  5
1F2
331
234
  5
1F3
331
235
  5
1F4
331
236
  5
1F5
331
237
  5
1F6
331
238
  5
1F7
331
239
  5
1F8
331
23A
  5
1F9
331
23B
  5
1FA
331
23C
  5
1FB
331
23D
  5
1FC
331
23E
  5
1FD
331
23F
  5
1FE
331
240
  5
1FF
331
241
  5
200
331
242
  5
201
331
243
  5
202
331
244
  5
203
331
245
  5
204
331
246
  5
205
331
247
  5
206
331
248
  5
207
331
249
  5
208
331
24A
  5
209
331
24B
  5
20A
331
24C
  5
20B
331
24D
  5
20C
331
24E
  5
20D
331
24F
  5
20E
331
250
  5
20F
331
251
  5
210
331
252
  5
211
331
253
  5
212
331
254
  5
213
331
255
  5
214
331
256
  5
215
331
257
  5
216
331
258
  5
217
331
259
  5
218
331
25A
  5
219
331
25B
  5
21A
331
25C
  5
21B
331
25D
  5
21C
331
25E
  5
21D
331
25F
  5
21E
331
260
  5
21F
331
261
  5
220
331
262
  5
221
331
263
  5
222
331
264
  5
223
331
265
  5
224
331
266
  5
225
331
267
  5
226
331
268
  5
227
331
269
  5
228
331
26A
  5
229
331
26B
  5
22A
331
26C
  5
22B
331
26D
  5
22C
331
26E
  5
22D
331
26F
  5
22E
331
270
  5
22F
331
271
  5
230
331
272
  5
231
331
273
  5
232
331
274
  5
233
331
275
  5
234
331
276
  5
235
331
277
  5
236
331
278
  5
237
331
279
  5
238
331
27A
  5
239
331
27B
  5
23A
331
27C
  5
23B
331
27D
  5
23C
331
27E
  5
23D
331
27F
  5
23E
331
280
  5
23F
331
281
  5
240
331
282
  5
241
331
283
  5
242
331
284
  5
243
331
285
  5
244
331
286
  5
245
331
287
  5
246
331
288
  5
247
331
289
  5
248
331
28A
  5
249
331
28B
  5
24A
331
28C
  5
24B
331
28D
  5
24C
331
28E
  5
24D
331
28F
  5
24E
331
290
  5
24F
331
291
  5
250
331
292
  5
251
331
293
  5
252
331
294
  5
253
331
295
  5
254
331
296
  5
255
331
297
  5
256
331
298
  5
257
331
299
  5
258
331
29A
  5
259
331
29B
  5
25A
331
29C
  5
25B
331
29D
  5
25C
331
29E
  5
25D
331
29F
  5
25E
331
2A0
  5
25F
331
2A1
  5
260
331
2A2
  5
261
331
2A3
  5
262
331
2A4
  5
263
331
2A5
  5
264
331
2A6
  5
265
331
2A7
  5
266
331
2A8
  5
267
331
2A9
  5
268
331
2AA
  5
269
331
2AB
  5
26A
331
2AC
  5
26B
331
2AD
  5
26C
331
2AE
  5
26D
331
2AF
  5
26E
331
2B0
  5
26F
331
2B1
  5
270
331
2B2
  5
271
331
2B3
  5
272
331
2B4
  5
273
331
2B5
  5
274
331
2B6
  5
275
331
2B7
  5
276
331
2B8
  5
277
331
2B9
  5
278
331
2BA
  5
279
331
2BB
  5
27A
331
2BC
  5
27B
331
2BD
  5
27C
331
2BE
  5
27D
331
2BF
  5
27E
331
2C0
  5
27F
331
2C1
  5
280
331
2C2
  5
281
331
2C3
  5
282
331
2C4
  5
283
331
2C5
  5
284
331
2C6
  5
285
331
2C7
  5
286
331
2C8
  5
287
331
2C9
  5
288
331
2CA
  5
289
331
2CB
  5
28A
331
2CC
  5
28B
331
2CD
  5
28C
331
2CE
  5
28D
331
2CF
  5
28E
331
2D0
  5
28F
331
2D1
  5
290
331
2D2
  5
291
331
2D3
  5
292
331
2D4
  5
293
331
2D5
  5
294
331
2D6
  5
295
331
2D7
  5
296
331
2D8
  5
297
331
2D9
  5
298
331
2DA
  5
299
331
2DB
  5
29A
331
2DC
  5
29B
331
2DD
  5
29C
331
2DE
  5
29D
331
2DF
  5
29E
331
2E0
  5
29F
331
2E1
  5
2A0
331
2E2
  5
2A1
331
2E3
  5
2A2
331
2E4
  5
2A3
331
2E5
  5
2A4
331
2E6
  5
2A5
331
2E7
  5
2A6
331
2E8
  5
2A7
331
2E9
  5
2A8
331
2EA
  5
2A9
331
2EB
  5
2AA
331
2EC
  5
2AB
331
2ED
  5
2AC
331
2EE
  5
2AD
331
2EF
  5
2AE
331
2F0
  5
2AF
331
2F1
  5
2B0
331
2F2
  5
2B1
331
2F3
  5
2B2
331
2F4
  5
2B3
331
2F5
  5
2B4
331
2F6
  5
2B5
331
2F7
  5
2B6
331
2F8
  5
2B7
331
2F9
  5
2B8
331
2FA
  5
2B9
331
2FB
  5
2BA
331
2FC
  5
2BB
331
2FD
  5
2BC
331
2FE
  5
2BD
331
2FF
  5
2BE
331
300
  5
2BF
331
301
  5
2C0
331
302
  5
2C1
331
303
  5
2C2
331
304
  5
2C3
331
305
  5
2C4
331
306
  5
2C5
331
307
  5
2C6
331
308
  5
2C7
331
309
  5
2C8
331
30A
  5
2C9
331
30B
  5
2CA
331
30C
  5
2CB
331
30D
  5
2CC
331
30E
  5
2CD
331
30F
  5
2CE
331
310
  5
2CF
331
311
  5
2D0
331
312
  5
2D1
331
313
  5
2D2
331
314
  5
2D3
331
315
  5
2D4
331
316
  5
2D5
331
317
  5
2D6
331
318
  5
2D7
331
319
  5
2D8
331
31A
  5
2D9
331
31B
  5
2DA
331
31C
  5
2DB
331
31D
  5
2DC
331
31E
  5
2DD
331
31F
  5
2DE
331
320
  5
2DF
331
321
  5
2E0
331
322
  5
2E1
331
323
  5
2E2
331
324
  5
2E3
331
325
  5
2E4
331
326
  5
2E5
331
327
  5
2E6
331
328
  5
2E7
331
329
  5
2E8
331
32A
  5
2E9
331
32B
  5
2EA
331
32C
  5
2EB
331
32D
  5
2EC
331
32E
  5
2ED
331
32F
  5
2EE
331
330
  5
2EF
331
331
  5
2F0
331
332
  5
2F1
331
333
  5
2F2
331
334
  5
2F3
331
335
  5
2F4
331
336
  5
2F5
331
337
  5
2F6
331
338
  5
2F7
331
339
  5
2F8
331
33A
  5
2F9
331
33B
  5
2FA
331
33C
  5
2FB
331
33D
  5
2FC
331
33E
  5
2FD
331
33F
  5
2FE
331
340
  5
2FF
331
341
  5
300
331
342
  5
301
331
343
  5
302
331
344
  5
303
331
345
  5
304
331
346
  5
305
331
347
  5
306
331
348
  5
307
331
349
  5
308
331
34A
  5
309
331
34B
  5
30A
331
34C
  5
30B
331
34D
  5
30C
331
34E
  5
30D
331
34F
  5
30E
331
350
  5
30F
331
351
  5
310
331
352
  5
311
331
353
  5
312
331
354
  5
313
331
355
  5
314
331
356
  5
315
331
357
  5
316
331
358
  5
317
331
359
  5
318
331
35A
  5
319
331
35B
  5
31A
331
35C
  5
31B
331
35D
  5
31C
331
35E
  5
31D
331
35F
  5
31E
331
360
  5
31F
331
361
  5
320
331
362
  5
321
331
363
  5
322
331
364
  5
323
331
365
  5
324
331
366
  5
325
331
367
  5
326
331
368
  5
327
331
369
  5
328
331
36A
  5
329
331
36B
  5
32A
331
36C
  5
32B
331
36D
  5
32C
331
36E
  5
32D
331
36F
  5
32E
331
370
  5
32F
331
371
  5
330
331
372
  5
331
331
373
  5
332
331
374
  5
333
331
375
  5
334
331
376
  5
335
331
377
  5
336
331
378
  5
337
331
379
  5
338
331
37A
  5
339
331
37B
  5
33A
331
37C
  5
33B
331
37D
  5
33C
331
37E
  5
33D
331
37F
  5
33E
331
380
  5
33F
331
381
  5
340
331
382
  5
341
331
383
  5
342
331
384
  5
343
331
385
  5
344
331
386
  5
345
331
387
  5
346
331
388
  5
347
331
389
  5
348
331
38A
  5
349
331
38B
  5
34A
331
38C
  5
34B
331
38D
  5
34C
331
38E
  5
34D
331
38F
  5
34E
331
390
  5
34F
331
391
  5
350
331
392
  5
351
331
393
  5
352
331
394
  5
353
331
395
  5
354
331
396
  5
355
331
397
  5
356
331
398
  5
357
331
399
  5
358
331
39A
  5
359
331
39B
  5
35A
331
39C
  5
35B
331
39D
  5
35C
331
39E
  5
35D
331
39F
  5
35E
331
3A0
  5
35F
331
3A1
  5
360
331
3A2
  5
361
331
3A3
  5
362
331
3A4
  5
363
331
3A5
  5
364
331
3A6
  5
365
331
3A7
  5
366
331
3A8
  5
367
331
3A9
  5
368
331
3AA
  5
369
331
3AB
  5
36A
331
3AC
  5
36B
331
3AD
  5
36C
331
3AE
  5
36D
331
3AF
  5
36E
331
3B0
  5
36F
331
3B1
  5
370
331
3B2
  5
371
331
3B3
  5
372
331
3B4
  5
373
331
3B5
  5
374
331
3B6
  5
375
331
3B7
  5
376
331
3B8
  5
377
331
3B9
  5
378
331
3BA
  5
379
331
3BB
  5
37A
331
3BC
  5
37B
331
3BD
  5
37C
331
3BE
  5
37D
331
3BF
  5
37E
331
3C0
  5
37F
331
3C1
  5
380
331
3C2
  5
381
331
3C3
  5
382
331
3C4
  5
383
331
3C5
  5
384
331
3C6
  5
385
331
3C7
  5
386
331
3C8
  5
387
331
3C9
  5
388
331
3CA
  5
389
331
3CB
  5
38A
331
3CC
  5
38B
331
3CD
  5
38C
331
3CE
  5
38D
331
3CF
  5
38E
331
3D0
  5
38F
331
3D1
  5
390
331
3D2
  5
391
331
3D3
  5
392
331
3D4
  5
393
331
3D5
  5
394
331
3D6
  5
395
331
3D7
  5
396
331
3D8
  5
397
331
3D9
  5
398
331
3DA
  5
399
331
3DB
  5
39A
331
3DC
  5
39B
331
3DD
  5
39C
331
3DE
  5
39D
331
3DF
  5
39E
331
3E0
  5
39F
331
3E1
  5
3A0
331
3E2
  5
3A1
331
3E3
  5
3A2
331
3E4
  5
3A3
331
3E5
  5
3A4
331
3E6
  5
3A5
331
3E7
  5
3A6
331
3E8
  5
3A7
331
3E9
  5
3A8
331
3EA
  5
3A9
331
3EB
  5
3AA
331
3EC
  5
3AB
331
3ED
  5
3AC
331
3EE
  5
3AD
331
3EF
  5
3AE
331
3F0
  5
3AF
331
3F1
  5
3B0
331
3F2
  5
3B1
331
3F3
  5
3B2
331
3F4
  5
3B3
331
3F5
  5
3B4
331
3F6
  5
3B5
331
3F7
  5
3B6
331
3F8
  5
3B7
331
3F9
  5
3B8
331
3FA
  5
3B9
331
3FB
  5
3BA
331
3FC
  5
3BB
331
3FD
  5
3BC
331
3FE
  5
3BD
331
3FF
  5
3BE
331
400
  5
3BF
331
401
  5
3C0
331
402
  5
3C1
331
403
  5
3C2
331
404
  5
3C3
331
405
  5
3C4
331
406
  5
3C5
331
407
  5
3C6
331
408
  5
3C7
331
409
  5
3C8
331
40A
  5
3C9
331
40B
  5
3CA
331
40C
  5
3CB
331
40D
  5
3CC
331
40E
  5
3CD
331
40F
  5
3CE
331
410
  5
3CF
331
411
  5
3D0
331
412
  5
3D1
331
413
  5
3D2
331
414
  5
3D3
331
415
  5
3D4
331
416
  5
3D5
331
417
  5
3D6
331
418
  5
3D7
331
419
  5
3D8
331
41A
  5
3D9
331
41B
  5
3DA
331
41C
  5
3DB
331
41D
  5
3DC
331
41E
  5
3DD
331
41F
  5
3DE
331
420
  5
3DF
331
421
  5
3E0
331
422
  5
3E1
331
423
  5
3E2
331
424
  5
3E3
331
425
  5
3E4
331
426
  5
3E5
331
427
  5
3E6
331
428
  5
3E7
331
429
  5
3E8
331
42A
  5
3E9
331
42B
  5
3EA
331
42C
  5
3EB
331
42D
  5
3EC
331
42E
  5
3ED
331
42F
  5
3EE
331
430
  5
3EF
331
431
  5
3F0
331
432
  5
3F1
331
433
  5
3F2
331
434
  5
3F3
331
435
  5
3F4
331
436
  5
3F5
331
437
  5
3F6
331
438
  5
3F7
331
439
  5
3F8
331
43A
  5
3F9
331
43B
  5
3FA
331
43C
  5
3FB
331
43D
  5
3FC
331
43E
  5
3FD
331
43F
  5
3FE
331
440
  5
3FF
331
441
  5
400
331
442
  5
401
331
443
  5
402
331
444
  5
403
331
445
  5
404
331
446
  5
405
331
447
  5
406
331
448
  5
407
331
449
  5
408
331
44A
  5
409
331
44B
  5
40A
331
44C
  5
40B
331
44D
  5
40C
331
44E
  5
40D
331
44F
  5
40E
331
450
  5
40F
331
451
  5
410
331
452
  5
411
331
453
  5
412
331
454
  5
413
331
455
  5
414
331
456
  5
415
331
457
  5
416
331
458
  5
417
331
459
  5
418
331
45A
  5
419
331
45B
  5
41A
331
45C
  5
41B
331
45D
  5
41C
331
45E
  5
41D
331
45F
  5
41E
331
460
  5
41F
331
461
  5
420
331
462
  5
421
331
463
  5
422
331
464
  5
423
331
465
  5
424
331
466
  5
425
331
467
  5
426
331
468
  5
427
331
469
  5
428
331
46A
  5
429
331
46B
  5
42A
331
46C
  5
42B
331
46D
  5
42C
331
46E
  5
42D
331
46F
  5
42E
331
470
  5
42F
331
471
  5
430
331
472
  5
431
331
473
  5
432
331
474
  5
433
331
475
  5
434
331
476
  5
435
331
477
  5
436
331
478
  5
437
331
479
  5
438
331
47A
  5
439
331
47B
  5
43A
331
47C
  5
43B
331
47D
  5
43C
331
47E
  5
43D
331
47F
  5
43E
331
480
  5
43F
331
481
  5
440
331
482
  5
441
331
483
  5
442
331
484
  5
443
331
485
  5
444
331
486
  5
445
331
487
  5
446
331
488
  5
447
331
489
  5
448
331
48A
  5
449
331
48B
  5
44A
331
48C
  5
44B
331
48D
  5
44C
331
48E
  5
44D
331
48F
  5
44E
331
490
  5
44F
331
491
  5
450
331
492
  5
451
331
493
  5
452
331
494
  5
453
331
495
  5
454
331
496
  5
455
331
497
  5
456
331
498
  5
457
331
499
  5
458
331
49A
  5
459
331
49B
  5
45A
331
49C
  5
45B
331
49D
  5
45C
331
49E
  5
45D
331
49F
  5
45E
331
4A0
  5
45F
331
4A1
  5
460
331
4A2
  5
461
331
4A3
  5
462
331
4A4
  5
463
331
4A5
  5
464
331
4A6
  5
465
331
4A7
  5
466
331
4A8
  5
467
331
4A9
  5
468
331
4AA
  5
469
331
4AB
  5
46A
331
4AC
  5
46B
331
4AD
  5
46C
331
4AE
  5
46D
331
4AF
  5
46E
331
4B0
  5
46F
331
4B1
  5
470
331
4B2
  5
471
331
4B3
  5
472
331
4B4
  5
473
331
4B5
  5
474
331
4B6
  5
475
331
4B7
  5
476
331
4B8
  5
477
331
4B9
  5
478
331
4BA
  5
479
331
4BB
  5
47A
331
4BC
  5
47B
331
4BD
  5
47C
331
4BE
  5
47D
331
4BF
  5
47E
331
4C0
  5
47F
331
4C1
  5
480
331
4C2
  5
481
331
4C3
  5
482
331
4C4
  5
483
331
4C5
  5
484
331
4C6
  5
485
331
4C7
  5
486
331
4C8
  5
487
331
4C9
  5
488
331
4CA
  5
489
331
4CB
  5
48A
331
4CC
  5
48B
331
4CD
  5
48C
331
4CE
  5
48D
331
4CF
  5
48E
331
4D0
  5
48F
331
4D1
  5
490
331
4D2
  5
491
331
4D3
  5
492
331
4D4
  5
493
331
4D5
  5
494
331
4D6
  5
495
331
4D7
  5
496
331
4D8
  5
497
331
4D9
  5
498
331
4DA
  5
499
331
4DB
  5
49A
331
4DC
  5
49B
331
4DD
  5
49C
331
4DE
  5
49D
331
4DF
  5
49E
331
4E0
  5
49F
331
4E1
  5
4A0
331
4E2
  5
4A1
331
4E3
  5
4A2
331
4E4
  5
4A3
331
4E5
  5
4A4
331
4E6
  5
4A5
331
4E7
  5
4A6
331
4E8
  5
4A7
331
4E9
  5
4A8
331
4EA
  5
4A9
331
4EB
  5
4AA
331
4EC
  5
4AB
331
4ED
  5
4AC
331
4EE
  5
4AD
331
4EF
  5
4AE
331
4F0
  5
4AF
331
4F1
  5
4B0
331
4F2
  5
4B1
331
4F3
  5
4B2
331
4F4
  5
4B3
331
4F5
  5
4B4
331
4F6
  5
4B5
331
4F7
  5
4B6
331
4F8
  5
4B7
331
4F9
  5
4B8
331
4FA
  5
4B9
331
4FB
  5
4BA
331
4FC
  5
4BB
331
4FD
  5
4BC
331
4FE
  5
4BD
331
4FF
  5
4BE
331
500
  5
4BF
331
501
  5
4C0
331
502
  5
4C1
331
503
  5
4C2
331
504
  5
4C3
331
505
  5
4C4
331
506
  5
4C5
331
507
  5
4C6
331
508
  5
4C7
331
509
  5
4C8
331
50A
  5
4C9
331
50B
  5
4CA
331
50C
  5
4CB
331
50D
  5
4CC
331
50E
  5
4CD
331
50F
  5
4CE
331
510
  5
4CF
331
511
  5
4D0
331
512
  5
4D1
331
513
  5
4D2
331
514
  5
4D3
331
515
  5
4D4
331
516
  5
4D5
331
517
  5
4D6
331
518
  5
4D7
331
519
  5
4D8
331
51A
  5
4D9
331
51B
  5
4DA
331
51C
  5
4DB
331
51D
  5
4DC
331
51E
  5
4DD
331
51F
  5
4DE
331
520
  5
4DF
331
521
  5
4E0
331
522
  5
4E1
331
523
  5
4E2
331
524
  5
4E3
331
525
  5
4E4
331
526
  5
4E5
331
527
  5
4E6
331
528
  5
4E7
331
529
  5
4E8
331
52A
  5
4E9
331
52B
  5
4EA
331
52C
  5
4EB
331
52D
  5
4EC
331
52E
  5
4ED
331
52F
  5
4EE
331
530
  5
4EF
331
531
  5
4F0
331
532
  5
4F1
331
533
  5
4F2
331
534
  5
4F3
331
535
  5
4F4
331
536
  5
4F5
331
537
  5
4F6
331
538
  5
4F7
331
539
  5
4F8
331
53A
  5
4F9
331
53B
  5
4FA
331
53C
  5
4FB
331
53D
  5
4FC
331
53E
  5
4FD
331
53F
  5
4FE
331
540
  5
4FF
331
541
  5
500
331
542
  5
501
331
543
  5
502
331
544
  5
503
331
545
  5
504
331
546
  5
505
331
547
  5
506
331
548
  5
507
331
549
  5
508
331
54A
  5
509
331
54B
  5
50A
331
54C
  5
50B
331
54D
  5
50C
331
54E
  5
50D
331
54F
  5
50E
331
550
  5
50F
331
551
  5
510
331
552
  5
511
331
553
  5
512
331
554
  5
513
331
555
  5
514
331
556
  5
515
331
557
  5
516
331
558
  5
517
331
559
  5
518
331
55A
  5
519
331
55B
  5
51A
331
55C
  5
51B
331
55D
  5
51C
331
55E
  5
51D
331
55F
  5
51E
331
560
  5
51F
331
561
  5
520
331
562
  5
521
331
563
  5
522
331
564
  5
523
331
565
  5
524
331
566
  5
525
331
567
  5
526
331
568
  5
527
331
569
  5
528
331
56A
  5
529
331
56B
  5
52A
331
56C
  5
52B
331
56D
  5
52C
331
56E
  5
52D
331
56F
  5
52E
331
570
  5
52F
331
571
  5
530
331
572
  5
531
331
573
  5
532
331
574
  5
533
331
575
  5
534
331
576
  5
535
331
577
  5
536
331
578
  5
537
331
579
  5
538
331
57A
  5
539
331
57B
  5
53A
331
57C
  5
53B
331
57D
  5
53C
331
57E
  5
53D
331
57F
  5
53E
331
580
  5
53F
331
581
  5
540
331
582
  5
541
331
583
  5
542
331
584
  5
543
331
585
  5
544
331
586
  5
545
331
587
  5
546
331
588
  5
547
331
589
  5
548
331
58A
  5
549
331
58B
  5
54A
331
58C
  5
54B
331
58D
  5
54C
331
58E
  5
54D
331
58F
  5
54E
331
590
  5
54F
331
591
  5
550
331
592
  5
551
331
593
  5
552
331
594
  5
553
331
595
  5
554
331
596
  5
555
331
597
  5
556
331
598
  5
557
331
599
  5
558
331
59A
  5
559
331
59B
  5
55A
331
59C
  5
55B
331
59D
  5
55C
331
59E
  5
55D
331
59F
  5
55E
331
5A0
  5
55F
331
5A1
  5
560
331
5A2
  5
561
331
5A3
  5
562
331
5A4
  5
563
331
5A5
  5
564
331
5A6
  5
565
331
5A7
  5
566
331
5A8
  5
567
331
5A9
  5
568
331
5AA
  5
569
331
5AB
  5
56A
331
5AC
  5
56B
331
5AD
  5
56C
331
5AE
  5
56D
331
5AF
  5
56E
331
5B0
  5
56F
331
5B1
  5
570
331
5B2
  5
571
331
5B3
  5
572
331
5B4
  5
573
331
5B5
  5
574
331
5B6
  5
575
331
5B7
  5
576
331
5B8
  5
577
331
5B9
  5
578
331
5BA
  5
579
331
5BB
  5
57A
331
5BC
  5
57B
331
5BD
  5
57C
331
5BE
  5
57D
331
5BF
  5
57E
331
5C0
  5
57F
331
5C1
  5
580
331
5C2
  5
581
331
5C3
  5
582
331
5C4
  5
583
331
5C5
  5
584
331
5C6
  5
585
331
5C7
  5
586
331
5C8
  5
587
331
5C9
  5
588
331
5CA
  5
589
331
5CB
  5
58A
331
5CC
  5
58B
331
5CD
  5
58C
331
5CE
  5
58D
331
5CF
  5
58E
331
5D0
  5
58F
331
5D1
  5
590
331
5D2
  5
591
331
5D3
  5
592
331
5D4
  5
593
331
5D5
  5
594
331
5D6
  5
595
331
5D7
  5
596
331
5D8
  5
597
331
5D9
  5
598
331
5DA
  5
599
331
5DB
  5
59A
331
5DC
  5
59B
331
5DD
  5
59C
331
5DE
  5
59D
331
5DF
  5
59E
331
5E0
  5
59F
331
5E1
  5
5A0
331
5E2
  5
5A1
331
5E3
  5
5A2
331
5E4
  5
5A3
331
5E5
  5
5A4
331
5E6
  5
5A5
331
5E7
  5
5A6
331
5E8
  5
5A7
331
5E9
  5
5A8
331
5EA
  5
5A9
331
5EB
  5
5AA
331
5EC
  5
5AB
331
5ED
  5
5AC
331
5EE
  5
5AD
331
5EF
  5
5AE
331
5F0
  5
5AF
331
5F1
  5
5B0
331
5F2
  5
5B1
331
5F3
  5
5B2
331
5F4
  5
5B3
331
5F5
  5
5B4
331
5F6
  5
5B5
331
5F7
  5
5B6
331
5F8
  5
5B7
331
5F9
  5
5B8
331
5FA
  5
5B9
331
5FB
  5
5BA
331
5FC
  5
5BB
331
5FD
  5
5BC
331
5FE
  5
5BD
331
5FF
  5
5BE
331
600
  5
5BF
331
601
  5
5C0
331
602
  5
5C1
331
603
  5
5C2
331
604
  5
63A
331
605
  5
63C
331
606
  5
5C3
331
607
  5
5C4
331
608
  5
5C5
331
609
  5
5C6
331
60A
  5
5C7
331
60B
  5
5C8
331
60C
  5
5C9
331
60D
  5
5CA
331
60E
  5
5CB
331
60F
  5
5CC
331
610
  5
5CD
331
611
  5
5CE
331
612
  5
5CF
331
613
  5
5D0
331
614
  5
5D1
331
615
  5
5D2
331
616
  5
5D3
331
617
  5
5D4
331
618
  5
5D5
331
619
  5
5D6
331
61A
  5
5D7
331
61B
  5
5D8
331
61C
  5
5D9
331
61D
  5
5DA
331
61E
  5
5DB
331
61F
  5
5DC
331
620
  5
5DD
331
621
  5
5DE
331
622
  5
5DF
331
623
  5
5E0
331
624
  5
5E1
331
625
  5
5E2
331
626
  5
5E3
331
627
  5
5E4
331
628
  5
5E5
331
629
  5
5E6
331
62A
  5
5E7
331
62B
  5
63D
331
62C
  5
5E8
331
62E
  5
5E9
331
630
  5
5EA
331
632
  5
5EB
331
634
  5
5EC
331
636
  5
5ED
331
638
  5
5EE
331
63A
  5
5EF
331
63C
  5
63E
331
63D
  5
63F
331
63E
  5
640
331
63F
  5
641
331
640
  5
642
331
641
  5
643
331
642
  5
644
331
643
  5
5F0
331
644
  5
5F1
  0
LAYOUT
  5
6BC
102
{ACAD_REACTORS
330
6B8
330
6B8
102
}
102
{ACAD_XDICTIONARY
360
6BD
102
}
330
6B8
100
AcDbPlotSettings
  1

  2
none_device
  4
Letter_(8.50_x_11.00_Inches)
  6

 40
6.35
 41
6.35
 42
6.350006
 43
6.350006
 44
215.899994
 45
279.399994
 46
0.0
 47
0.0
 48
0.0
 49
0.0
140
0.0
141
0.0
142
1.0
143
1.0
 70
   688
 72
     0
 73
     1
 74
     5
  7

 75
    16
 76
     0
 77
     2
 78
   300
147
1.0
148
0.0
149
0.0
100
AcDbLayout
  1
Layout1
 70
     1
 71
     1
 10
-0.25
 20
-0.25
 11
10.75
 21
8.25
 12
0.0
 22
0.0
 32
0.0
 14
1.049744
 24
0.799667
 34
-0.001526
 15
9.450623
 25
7.200577
 35
0.0
146
0.0
 13
0.0
 23
0.0
 33
0.0
 16
1.0
 26
0.0
 36
0.0
 17
0.0
 27
1.0
 37
0.0
 76
     0
330
6B9
1001
ACAD_PSEXT
1000
None
1000
None
1000
Not applicable
1000
The layout will not be plotted unless a new plotter configuration name is selected.
1070
     0
  0
LAYOUT
  5
6B7
102
{ACAD_REACTORS
330
6B8
330
6B8
102
}
330
6B8
100
AcDbPlotSettings
  1

  2
none_device
  4
ANSI_A_(8.50_x_11.00_Inches)
  6

 40
6.35
 41
19.049999
 42
6.350006
 43
19.049988
 44
215.899994
 45
279.399994
 46
0.0
 47
0.0
 48
0.0
 49
0.0
140
0.0
141
0.0
142
1.0
143
2.584895
 70
 11952
 72
     0
 73
     1
 74
     0
  7

 75
     0
 76
     0
 77
     2
 78
   300
147
0.386863
148
0.0
149
0.0
100
AcDbLayout
  1
Model
 70
     1
 71
     0
 10
0.0
 20
0.0
 11
12.0
 21
9.0
 12
0.0
 22
0.0
 32
0.0
 14
0.0
 24
0.0
 34
0.0
 15
0.0
 25
0.0
 35
0.0
146
0.0
 13
0.0
 23
0.0
 33
0.0
 16
1.0
 26
0.0
 36
0.0
 17
0.0
 27
1.0
 37
0.0
 76
     0
330
6B4
331
49
  0
MLINESTYLE
  5
6B1
102
{ACAD_REACTORS
330
6B2
102
}
330
6B2
100
AcDbMlineStyle
  2
STANDARD
 70
     0
  3

 62
   256
 51
90.0
 52
90.0
 71
     2
 49
0.5
 62
   256
  6
BYLAYER
 49
-0.5
 62
   256
  6
BYLAYER
  0
ACDBPLACEHOLDER
  5
6A6
102
{ACAD_REACTORS
330
6A7
102
}
330
6A7
  0
XRECORD
  5
69B
102
{ACAD_REACTORS
330
6CC
102
}
330
6CC
100
AcDbXrecord
280
     1
310
3E4F020000004D6F64656C6572000000000000000000000000000000000000000000000000000000000000000000000000000000000000000000000000000000000000000000000000000000000000000000000000000000000000000000000000000000000000000000000000000000000000000000000000000000000000
310
00000000000000000000000000000000000000000000000000000000000000000000000000000000000000000000000000000000000000000000000000000000000000000000000000000000000000000000000000000000000000000000000000000000000000000000000000000000000000000000000000000000000000
310
00
310
00000000000000000000000000000000000000000000000000000000000000000000000000000000000000000000000000000000000000000000000000000000000000000000000000000000000000000000000000000000000000000000000000000000000000000000000000000000000000000000000000000000000000
310
00000000000000000000000000000000000000000000000000000000000000000000000000000000000000000000000000000000000000000000000000000000000000000000000000000000000000000000000000000000000000000000000000000000000000000000000000000000000000000000000000000000000000
310
00
310
00000000000000000000000000000000000000000000000000000000000000000000000000000000000000000000000000000000000000000000000000000000000000000000000000000000000000000000000000000000000000000000000000000000000000000000000000000000000000000000000000000000000000
310
00000000000000000000000000000000000000000000000000000000000000000000000000000000000000000000000000000000000000000000000000000000000000000000000000000000000000000000000000000000000000000000000000000000000000000000000000000000000000000000000000000000000000
310
00
310
00000000000000000000000000000000000000000000000000000000000000000000000000000000000000000000000000000000000000000000000000000000000000000000000000000000000000000000000000000000000000000000000000000000000000000000000000000000000000000000000000000000000000
310
00000000000000000000000000000000000000000000000000000000000000000000000000000000000000000000000000000000000000000000000000000000000000000000000000000000000000000000000000000000000000000000000000000000000000000000000000000000000000000000000000000000000000
310
00
310
00000000000000000000000000000000000000000000000000000000000000000000000000000000000000000000000000000000000000000000000000000000000000000000000000000000000000000000000000000000000000000000000000000000000000000000000000000000000000000000000000000000000000
310
00000000000000000000000000000000000000000000000000000000000000000000000000000000000000000000000000000000000000000000000000000000000000000000000000000000000000000000000000000000000000000000000000000000000000000000000000000000000000000000000000000000000000
310
00
310
00000000000000000000000000000000000000000000000000000000000000000000000000000000000000000000000000000000000000000000000000000000000000000000000000000000000000000000000000000000000000000000000000000000000000000000000000000000000000000000000000000000000000
310
00000000000000000000000000000000000000000000000000000000000000000000000000000000000000000000000000000000000000000000000000000000000000000000000000000000000000000000000000000000000000000000000000000000000000000000000000000000000000000000000000000000000000
310
00
310
00000000000000000000000000000000000000000000000000000000000000000000000000000000000000000000000000000000000000000000000000000000000000000000000000000000000000000000000000000000000000000000000000000000000000000000000000000000000000000000000000000000000000
310
00000000000000000000000000000000000000000000000000000000000000000000000000000000000000000000000000000000000000000000000000000000000000000000000000000000000000000000000000000000000000000000000000000000000000000000000000000000000000000000000000000000000000
310
00
310
00000000000000000000000000000000000000000000000000000000000000000000000000000000000000000000000000000000000000000000000000000000000000000000000000000000000000000000000000000000000000000000000000000000000000000000000000000000000000000000000000000000000000
310
00000000000000000000000000000000000000000000000000000000000000000000000000000000000000000000000000000000000000000000000000000000000000000000000000000000000000000000000000000000000000000000000000000000000000000000000000000000000000000000000000000000000000
310
00
310
00000000000000000000000000000000000000000000000000000000000000000000000000000000000000000000000000000000000000000000000000000000000000000000000000000000000000000000000000000000000000000000000000000000000000000000000000000000000000000000000000000000000000
310
00000000000000000000000000000000000000000000000000000000000000000000000000000000000000000000000000000000000000000000000000000000000000000000000000000000000000000000000000000000000000000000000000000000000000000000000000000000000000000000000000000000000000
310
00
310
00000000000000000000000000000000000000000000000000000000000000000000000000000000000000000000000000000000000000000000000000000000000000000000000000000000000000000000000000000000000000000000000000000000000000000000000000000000000000000000000000000000000000
310
00000000000000000000000000000000000000000000000000000000000000000000000000000000000000000000000000000000000000000000000000000000000000000000000000000000000000000000000000000000000000000000000000000000000000000000000000000000000000000000000000000000000000
310
00
310
00000000000000000000000000000000000000000000000000000000000000000000000000000000000000000000000000000000000000000000000000000000000000000000000000000000000000000000000000000000000000000000000000000000000000000000000000000000000000000000000000000000000000
310
00000000000000000000000000000000000000000000000000000000000000000000000000000000000000000000000000000000000000000000000000000000000000000000000000000000000000000000000000000000000000000000000000000000000000000000000000000000000000000000000000000000000000
310
00
310
00000000000000000000000000000000000000000000000000000000000000000000000000000000000000000000000000000000000000000000000000000000000000000000000000000000000000000000000000000000000000000000000000000000000000000000000000000000000000000000000000000000000000
310
00000000000000000000000000000000000000000000000000000000000000000000000000000000000000000000000000000000000000000000000000000000000000000000000000000000000000000000000000000000000000000000000000000000000000000000000000000000000000000000000000000000000000
310
00
310
00000000000000000000000000000000000000000000000000000000000000000000000000000000000000000000000000000000000000000000000000000000000000000000000000000000000000000000000000000000000000000000000000000000000000000000000000000000000000000000000000000000000000
310
00000000000000000000000000000000000000000000000000000000000000000000000000000000000000000000000000000000000000000000000000000000000000000000000000000000000000000000000000000000000000000000000000000000000000000000000000000000000000000000000000000000000000
310
00
310
00000000000000000000000000000000000000000000000000000000000000000000000000000000000000000000000000000000000000000000000000000000000000000000000000000000000000000000000000000000000000000000000000000000000000000000000000000000000000
  0
XRECORD
  5
69C
102
{ACAD_REACTORS
330
6CC
102
}
330
6CC
100
AcDbXrecord
280
     1
310
3E4F020000004D6F64656C6572000000000000000000000000000000000000000000000000000000000000000000000000000000000000000000000000000000000000000000000000000000000000000000000000000000000000000000000000000000000000000000000000000000000000000000000000000000000000
310
00000000000000000000000000000000000000000000000000000000000000000000000000000000000000000000000000000000000000000000000000000000000000000000000000000000000000000000000000000000000000000000000000000000000000000000000000000000000000000000000000000000000000
310
00
310
00000000000000000000000000000000000000000000000000000000000000000000000000000000000000000000000000000000000000000000000000000000000000000000000000000000000000000000000000000000000000000000000000000000000000000000000000000000000000000000000000000000000000
310
00000000000000000000000000000000000000000000000000000000000000000000000000000000000000000000000000000000000000000000000000000000000000000000000000000000000000000000000000000000000000000000000000000000000000000000000000000000000000000000000000000000000000
310
00
310
00000000000000000000000000000000000000000000000000000000000000000000000000000000000000000000000000000000000000000000000000000000000000000000000000000000000000000000000000000000000000000000000000000000000000000000000000000000000000000000000000000000000000
310
00000000000000000000000000000000000000000000000000000000000000000000000000000000000000000000000000000000000000000000000000000000000000000000000000000000000000000000000000000000000000000000000000000000000000000000000000000000000000000000000000000000000000
310
00
310
00000000000000000000000000000000000000000000000000000000000000000000000000000000000000000000000000000000000000000000000000000000000000000000000000000000000000000000000000000000000000000000000000000000000000000000000000000000000000000000000000000000000000
310
00000000000000000000000000000000000000000000000000000000000000000000000000000000000000000000000000000000000000000000000000000000000000000000000000000000000000000000000000000000000000000000000000000000000000000000000000000000000000000000000000000000000000
310
00
310
00000000000000000000000000000000000000000000000000000000000000000000000000000000000000000000000000000000000000000000000000000000000000000000000000000000000000000000000000000000000000000000000000000000000000000000000000000000000000000000000000000000000000
310
00000000000000000000000000000000000000000000000000000000000000000000000000000000000000000000000000000000000000000000000000000000000000000000000000000000000000000000000000000000000000000000000000000000000000000000000000000000000000000000000000000000000000
310
00
310
00000000000000000000000000000000000000000000000000000000000000000000000000000000000000000000000000000000000000000000000000000000000000000000000000000000000000000000000000000000000000000000000000000000000000000000000000000000000000000000000000000000000000
310
00000000000000000000000000000000000000000000000000000000000000000000000000000000000000000000000000000000000000000000000000000000000000000000000000000000000000000000000000000000000000000000000000000000000000000000000000000000000000000000000000000000000000
310
00
310
00000000000000000000000000000000000000000000000000000000000000000000000000000000000000000000000000000000000000000000000000000000000000000000000000000000000000000000000000000000000000000000000000000000000000000000000000000000000000000000000000000000000000
310
00000000000000000000000000000000000000000000000000000000000000000000000000000000000000000000000000000000000000000000000000000000000000000000000000000000000000000000000000000000000000000000000000000000000000000000000000000000000000000000000000000000000000
310
00
310
00000000000000000000000000000000000000000000000000000000000000000000000000000000000000000000000000000000000000000000000000000000000000000000000000000000000000000000000000000000000000000000000000000000000000000000000000000000000000000000000000000000000000
310
00000000000000000000000000000000000000000000000000000000000000000000000000000000000000000000000000000000000000000000000000000000000000000000000000000000000000000000000000000000000000000000000000000000000000000000000000000000000000000000000000000000000000
310
00
310
00000000000000000000000000000000000000000000000000000000000000000000000000000000000000000000000000000000000000000000000000000000000000000000000000000000000000000000000000000000000000000000000000000000000000000000000000000000000000000000000000000000000000
310
00000000000000000000000000000000000000000000000000000000000000000000000000000000000000000000000000000000000000000000000000000000000000000000000000000000000000000000000000000000000000000000000000000000000000000000000000000000000000000000000000000000000000
310
00
310
00000000000000000000000000000000000000000000000000000000000000000000000000000000000000000000000000000000000000000000000000000000000000000000000000000000000000000000000000000000000000000000000000000000000000000000000000000000000000000000000000000000000000
310
00000000000000000000000000000000000000000000000000000000000000000000000000000000000000000000000000000000000000000000000000000000000000000000000000000000000000000000000000000000000000000000000000000000000000000000000000000000000000000000000000000000000000
310
00
310
00000000000000000000000000000000000000000000000000000000000000000000000000000000000000000000000000000000000000000000000000000000000000000000000000000000000000000000000000000000000000000000000000000000000000000000000000000000000000000000000000000000000000
310
00000000000000000000000000000000000000000000000000000000000000000000000000000000000000000000000000000000000000000000000000000000000000000000000000000000000000000000000000000000000000000000000000000000000000000000000000000000000000000000000000000000000000
310
00
310
00000000000000000000000000000000000000000000000000000000000000000000000000000000000000000000000000000000000000000000000000000000000000000000000000000000000000000000000000000000000000000000000000000000000000000000000000000000000000000000000000000000000000
310
00000000000000000000000000000000000000000000000000000000000000000000000000000000000000000000000000000000000000000000000000000000000000000000000000000000000000000000000000000000000000000000000000000000000000000000000000000000000000000000000000000000000000
310
00
310
00000000000000000000000000000000000000000000000000000000000000000000000000000000000000000000000000000000000000000000000000000000000000000000000000000000000000000000000000000000000000000000000000000000000000000000000000000000000000000000000000000000000000
310
00000000000000000000000000000000000000000000000000000000000000000000000000000000000000000000000000000000000000000000000000000000000000000000000000000000000000000000000000000000000000000000000000000000000000000000000000000000000000000000000000000000000000
310
00
310
00000000000000000000000000000000000000000000000000000000000000000000000000000000000000000000000000000000000000000000000000000000000000000000000000000000000000000000000000000000000000000000000000000000000000000000000000000000000000
  0
XRECORD
  5
69A
102
{ACAD_REACTORS
330
6CC
102
}
330
6CC
100
AcDbXrecord
280
     1
310
DF56060034040701D0009A9999999999B93F000000000000000000000000000000000400000009000000000000000200000064000000640000000100000001000000190000007B14AE47E17A843F00000000004060409A9999999999B93F00000000004C2D41000000000070F7400000000000942141000000000000000000
310
0000000000000000000000000000000AD482040000000000000000000000000000F03F000000000000000000000000000030402D431CEBE2362A3F00000000000008400000000000000000009807C000000000000000007C1A61B9A711364020000000050000000A000000200000002000000020000000000000000000F03F
310
00
310
0000000000F03F000000000000F03F333333333333D33F333333333333D33F333333333333D33F000000000000F43F000000000000F43F000000000000F03F0200000064000000000000000000000000000840000000000000F83F00000000000000000000000000000000008056409A9999999999B93F0000000000000000
310
00000000000000000000000000000000000000000000000000000000000000000000000000000000000000000000000000000000000000000000000000000000000000000000000000000000000000000000000000000000000000000000000000000000000000000000000000000000000000000000000000000000000000
310
00
310
0000000000000000000000000000000000000000000000000000000000000000000000000000000000000000000000000000000000000000000000000000000000000000000000000000000000000000000000000000000000000000000000000000000000000000000000000000000000000000000000009A9999999999A9
310
3F9100000000000000000000000000000035A781D547960F40000000000000F03F000000000000F03F666666666666164000000000104068F200000000000000000000000000000000000000000000000000000000000000000000000000000000000000000000000000000000000000000000000000000000000000000000
310
00
310
00000000000000000000000000000000000000000000000000000000000000000000000000000000000000000000000000000000000000000000000000000000000000000000000000000000000000000000000000000000000000000000000000000000000000000000000000000000000000000000000000000000000000
310
000000000000000000000000000000000000000000000000000000000000000000000000000000000000000000000000000000000000000000000000FF000000000000000000000000000000000000000000000000000000000000000000000000000000000000000000000000000000000000000000000000000000000000
310
00
310
0000000000000000000000000000000000000000000000000000000000000000000000000000000000000000000000000000000000000000000000000000000000000000
  0
DICTIONARY
  5
6BD
330
6BC
100
AcDbDictionary
280
     1
281
     1
  3
ADSK_XREC_LAYOUTTHUMBNAIL
360
6BE
  0
XRECORD
  5
6BE
102
{ACAD_REACTORS
330
6BD
102
}
330
6BD
100
AcDbXrecord
280
     1
310
28000000B40000008B0000000100080000000000BC61000000000000000000000001000000000000FFFFFF0000000000FFFFFF000000000000000000000000000000000000000000000000000000000000000000330000006600000099000000CC000000FF00000000330000333300006633000099330000CC330000FF3300
310
0000660000336600006666000099660000CC660000FF66000000990000339900006699000099990000CC990000FF99000000CC000033CC000066CC000099CC0000CCCC0000FFCC000000FF000033FF000066FF000099FF0000CCFF0000FFFF000000003300330033006600330099003300CC003300FF003300003333003333
310
33006633330099333300CC333300FF33330000663300336633006666330099663300CC663300FF66330000993300339933006699330099993300CC993300FF99330000CC330033CC330066CC330099CC3300CCCC3300FFCC330000FF330033FF330066FF330099FF3300CCFF3300FFFF330000006600330066006600660099
310
006600CC006600FF00660000336600333366006633660099336600CC336600FF33660000666600336666006666660099666600CC666600FF66660000996600339966006699660099996600CC996600FF99660000CC660033CC660066CC660099CC6600CCCC6600FFCC660000FF660033FF660066FF660099FF6600CCFF6600
310
FFFF660000009900330099006600990099009900CC009900FF00990000339900333399006633990099339900CC339900FF33990000669900336699006666990099669900CC669900FF66990000999900339999006699990099999900CC999900FF99990000CC990033CC990066CC990099CC9900CCCC9900FFCC990000FF99
310
0033FF990066FF990099FF9900CCFF9900FFFF99000000CC003300CC006600CC009900CC00CC00CC00FF00CC000033CC003333CC006633CC009933CC00CC33CC00FF33CC000066CC003366CC006666CC009966CC00CC66CC00FF66CC000099CC003399CC006699CC009999CC00CC99CC00FF99CC0000CCCC0033CCCC0066CC
310
CC0099CCCC00CCCCCC00FFCCCC0000FFCC0033FFCC0066FFCC0099FFCC00CCFFCC00FFFFCC000000FF003300FF006600FF009900FF00CC00FF00FF00FF000033FF003333FF006633FF009933FF00CC33FF00FF33FF000066FF003366FF006666FF009966FF00CC66FF00FF66FF000099FF003399FF006699FF009999FF00CC
310
99FF00FF99FF0000CCFF0033CCFF0066CCFF0099CCFF00CCCCFF00FFCCFF0000FFFF0033FFFF0066FFFF0099FFFF00CCFFFF00FFFFFF00000000000D0D0D001A1A1A00282828003535350043434300505050005D5D5D006B6B6B00787878008686860093939300A1A1A100AEAEAE00BBBBBB00C9C9C900D6D6D600E4E4E400
310
F1F1F100FFFFFF0000000000000000000000000000000000000000000000000000000000000000000000000000000000E2E2E2E2E2E2E2E2E2E2E2E2E2E2E2E2E2E2E2E2E2E2E2E2E2E2E2E2E2E2E2E2E2E2E2E2E2E2E2E2E2E2E2E2E2E2E2E2E2E2E2E2E2E2E2E2E2E2E2E2E2E2E2E2E2E2E2E2E2E2E2E2E2E2E2E2E2E2E2
310
E2E2E2E2E2E2E2E2E2E2E2E2E2E2E2E2E2E2E2E2E2E2E2E2E2E2E2E2E2E2E2E2E2E2E2E2E2E2E2E2E2E2E2E2E2E2E2E2E2E2E2E2E2E2E2E2E2E2E2E2E2E2E2E2E2E2E2E2E2E2E2E2E2E2E2E2E2E2E2E2E2E2E2E2E2E2E2E2E2E2E2E2E2E2E2E2E2E2E2E2EFF5F5F5F5F5F5F5F5F5F5F5F5F5F5F5F5F5F5F5F5F5F5F5F5F5F5
310
F5F5F5F5F5F5F5F5F5F5F5F5F5F5F5F5F5F5F5F5F5F5F5F5F5F5F5F5F5F5F5F5F5F5F5F5F5F5F5F5F5F5F5F5F5F5F5F5F5F5F5F5F5F5F5F5F5F5F5F5F5F5F5F5F5F5F5F5F5F5F5F5F5F5F5F5F5F5F5F5F5F5F5F5F5F5F5F5F5F5F5F5F5F5F5F5F5F5F5F5F5F5F5F5F5F5F5F5F5F5F5F5F5F5F5F5F5F5F5F5F5F5F5F5F5F5F5
310
F5F5F5F5F5F5F5F5F5F5F5F5F5F5F5F5F5F5F5F5F5F5F5F5E2E2EFF5F5F5F5F5F5F5F5F5F5F5F5F5F5F5F5F5F5F5F5F5F5F5F5F5F5F5F5F5F5F5F5F5F5F5F5F5F5F5F5F5F5F5F5F5F5F5F5F5F5F5F5F5F5F5F5F5F5F5F5F5F5F5F5F5F5F5F5F5F5F5F5F5F5F5F5F5F5F5F5F5F5F5F5F5F5F5F5F5F5F5F5F5F5F5F5F5F5F5F5
310
F5F5F5F5F5F5F5F5F5F5F5F5F5F5F5F5F5F5F5F5F5F5F5F5F5F5F5F5F5F5F5F5F5F5F5F5F5F5F5F5F5F5F5F5F5F5F5F5F5F5F5F5F5F5F5F5F5F5F5F5F5F5F5F5F5F5F5F5F5F5F5F5F5F5F5F5F5E2E2EFF5F5F5F5F5F5F5F5F5F5F5F5F5F5F5F5F5F5F5F5F5F5F5F5F5F5F5F5F5F5F5F5F5F5F5F5F5F5F5F5F5F5F5F5F5F5F5
310
F5F5F5F5F5F5F5F5F5F5F5F5F5F5F5F5F5F5F5F5F5F5F5F5F5F5F5F5F5F5F5F5F5F5F5F5F5F5F5F5F5F5F5F5F5F5F5F5F5F5F5F5F5F5F5F5F5F5F5F5F5F5F5F5F5F5F5F5F5F5F5F5F5F5F5F5F5F5F5F5F5F5F5F5F5F5F5F5F5F5F5F5F5F5F5F5F5F5F5F5F5F5F5F5F5F5F5F5F5F5F5F5F5F5F5F5F5F5F5F5F5F5F5F5F5F5F5
310
F5F5F5E2E2EFF5F5F5E2E2E2E2E2E2E2E2F5F5F5F5F5F5F5F5F5E2E2E2E2E2E2E2E2E2E2E2E2E2E2E2E2F5F5F5F5F5F5F5F5E2E2E2E2E2E2E2E2E2E2E2E2E2E2E2E2F5F5F5F5F5F5F5F5F5E2E2E2E2E2E2E2E2E2E2E2E2E2E2E2F5F5F5F5F5F5F5F5F5E2E2E2E2E2E2E2E2E2E2E2E2E2E2E2F5F5F5F5F5F5F5F5F5E2E2E2E2
310
E2E2E2E2E2E2E2E2E2E2E2E2F5F5F5F5F5F5F5F5E2E2E2E2E2E2E2E2E2E2E2E2E2E2E2E2F5F5F5F5F5F5F5F5F5E2E2E2E2E2E2E2E2F5F5F5E2E2EFF5F5F5E2F5F5F5F5F5F5F5F5F5F5F5F5F5F5F5F5F5F5F5F5F5F5F5F5F5F5F5F5F5F5F5F5F5F5F5F5F5F5F5F5F5F5F5F5F5F5F5F5F5F5F5F5F5F5F5F5F5F5F5F5F5F5F5F5
310
F5F5F5F5F5F5F5F5F5F5F5F5F5F5F5F5F5F5F5F5F5F5F5F5F5F5F5F5F5F5F5F5F5F5F5F5F5F5F5F5F5F5F5F5F5F5F5F5F5F5F5F5F5F5F5F5F5F5F5F5F5F5F5F5F5F5F5F5F5F5F5F5F5F5F5F5F5F5F5F5F5F5F5F5F5F5F5F5F5F5F5F5F5F5F5F5F5F5F5F5F5F5F5F5F5E2F5F5F5E2E2EFF5F5F5E2F5F5F5F5F5F5F5F5F5F5F5
310
F5F5F5F5F5F5F5F5F5F5F5F5F5F5F5F5F5F5F5F5F5F5F5F5F5F5F5F5F5F5F5F5F5F5F5F5F5F5F5F5F5F5F5F5F5F5F5F5F5F5F5F5F5F5F5F5F5F5F5F5F5F5F5F5F5F5F5F5F5F5F5F5F5F5F5F5F5F5F5F5F5F5F5F5F5F5F5F5F5F5F5F5F5F5F5F5F5F5F5F5F5F5F5F5F5F5F5F5F5F5F5F5F5F5F5F5F5F5F5F5F5F5F5F5F5F5F5
310
F5F5F5F5F5F5F5F5F5F5F5F5F5F5F5F5F5F5F5F5F5F5F5F5F5F5F5F5F5F5F5E2F5F5F5E2E2EFF5F5F5E2F5F5F5F5F5F5F5F5F5F5F5F5F5F5F5F5F5F5F5F5F5F5F5F5F5F5F5F5F5F5F5F5F5F5F5F5F5F5F5F5F5F5F5F5F5F5F5F5F5F5F5F5F5F5F5F5F5F5F5F5F5F5F5F5F5F5F5F5F5F5F5F5F5F5F5F5F5F5F5F5F5F5F5F5F5
310
F5F5F5F5F5F5F5F5F5F5F5F5F5F5F5F5F5F5F5F5F5F5F5F5F5F5F5F5F5F5F5F5F5F5F5F5F5F5F5F5F5F5F5F5F5F5F5F5F5F5F5F5F5F5F5F5F5F5F5F5F5F5F5F5F5F5F5F5F5F5F5F5F5F5F5F5F5F5F5F5F5F5F5F5E2F5F5F5E2E2EFF5F5F5E2F5F5F5F5F5F5F5F5F5F5F5F5F5F5F5F5F5F5F5F5F5F5F5F5F5F5F5F5F5F5F5F5
310
F5F5F5F5F5F5F5F5F5F5F5F5F5F5F5F5F5F5F5F5F5F5F5F5F5F5F5F5F5F5F5F5F5F5F5F5F5F5F5F5F5F5F5F5F5F5F5F5F5F5F5F5F5F5F5F5F5F5F5F5F5F5F5F5F5F5F5F5F5F5F5F5F5F5F5F5F5F5F5F5F5F5F5F5F5F5F5F5F5F5F5F5F5F5F5F5F5F5F5F5F5F5F5F5F5F5F5F5F5F5F5F5F5F5F5F5F5F5F5F5F5F5F5F5F5F5F5
310
F5F5F5F5F5F5F5F5F5F5E2F5F5F5E2E2EFF5F5F5E2F5F5F5F5F5F5F5F5F5F5F5F5F5F5F5F5F5F5F5F5F5F5F5F5F5F5F5F5F5F5F5F5F5F5F5F5F5F5F5F5F5F5F5F5F5F5F5F5F5F5F5F5F5F5F5F5F5F5F5F5F5F5F5F5F5F5F5F5F5F5F5F5F5F5F5F5F5F5F5F5F5F5F5F5F5F5F5F5F5F5F5F5F5F5F5F5F5F5F5F5F5F5F5F5F5F5
310
F5F5F5F5F5F5F5F5F5F5F5F5F5F5F5F5F5F5F5F5F5F5F5F5F5F5F5F5F5F5F5F5F5F5F5F5F5F5F5F5F5F5F5F5F5F5F5F5F5F5F5F5F5F5F5F5F5F5F5F5F5F5F5E2F5F5F5E2E2EFF5F5F5E2F5F5F5F5F5F5F5F5F5F5F5F5F5F5F5F5F5F5F5F5F5F5F5F5F5F5F5F5F5F5F5F5F5F5F5F5F5F5F5F5F5F5F5F5F5F5F5F5F5F5F5F5F5
310
F5F5F5F5F5F5F5F5F5F5F5F5F5F5F5F5F5F5F5F5F5F5F5F5F5F5F5F5F5F5F5F5F5F5F5F5F5F5F5F5F5F5F5F5F5F5F5F5F5F5F5F5F5F5F5F5F5F5F5F5F5F5F5F5F5F5F5F5F5F5F5F5F5F5F5F5F5F5F5F5F5F5F5F5F5F5F5F5F5F5F5F5F5F5F5F5F5F5F5F5F5F5F5F5F5F5F5F5F5F5F5F5F5F5F5F5E2F5F5F5E2E2EFF5F5F5E2
310
F5F5F5F5F5F5F5F5F5F5F5F5F5F5F5F5F5F5F5F5F5F5F5F5F5F5F5F5F5F5F5F5F5F5F5F5F5F5F5F5F5F5F5F5F5F5F5F5F5F5F5F5F5F5F5F5F5F5F5F5F5F5F5F5F5F5F5F5F5F5F5F5F5F5F5F5F5F5F5F5F5F5F5F5F5F5F5F5F5F5F5F5F5F5F5F5F5F5F5F5F5F5F5F5F5F5F5F5F5F5F5F5F5F5F5F5F5F5F5F5F5F5F5F5F5F5F5
310
F5F5F5F5F5F5F5F5F5F5F5F5F5F5F5F5F5F5F5F5F5F5F5F5F5F5F5F5F5F5F5F5F5F5F5F5F5F5F5F5F5F5E2F5F5F5E2E2EFF5F5F5E2F5F5F5F5F5F5F5F5F5F5F5F5F5F5F5F5F5F5F5F5F5F5F5F5F5F5F5F5F5F5F5F5F5F5F5F5F5F5F5F5F5F5F5F5F5F5F5F5F5F5F5F5F5F5F5F5F5F5F5F5F5F5F5F5F5F5F5F5F5F5F5F5F5F5
310
F5F5F5F5F5F5F5F5F5F5F5F5F5F5F5F5F5F5F5F5F5F5F5F5F5F5F5F5F5F5F5F5F5F5F5F5F5F5F5F5F5F5F5F5F5F5F5F5F5F5F5F5F5F5F5F5F5F5F5F5F5F5F5F5F5F5F5F5F5F5F5F5F5F5F5F5F5F5F5F5F5F5F5F5F5F5F5F5F5F5F5F5F5F5F5E2F5F5F5E2E2EFF5F5F5F5F5F5F5F5F5F5F5F5F5F5F5F5F5F5F5F5F5F5F5F5F5
310
F5F5F5F5F5F5F5F5F5F5F5F5F5F5F5F5F5F5F5F5F5F5F5F5F5F5F5F5F5F5F5F5F5F5F5F5F5F5F5F5F5F5F5F5F5F5F5F5F5F5F5F5F5F5F5F5F5F5F5F5F5F5F5F5F5F5F5F5F5F5F5F5F5F5F5F5F5F5F5F5F5F5F5F5F5F5F5F5F5F5F5F5F5F5F5F5F5F5F5F5F5F5F5F5F5F5F5F5F5F5F5F5F5F5F5F5F5F5F5F5F5F5F5F5F5F5F5
310
F5F5F5F5F5F5F5F5F5F5F5F5F5F5F5F5F5F5F5F5F5F5F5F5F5E2E2EFF5F5F5F5F5F5F5F5F5F5F5F5F5F5F5F5F5F5F5F5F5F5F5F5F5F5F5F5F5F5F5F5F5F5F5F5F5F5F5F5F5F5F5F5F5F5F5F5F5F5F5F5F5F5F5F5F5F5F5F5F5F5F5F5F5F5F5F5F5F5F5F5F5F5F5F5F5F5F5F5F5F5F5F5F5F5F5F5F5F5F5F5F5F5F5F5F5F5F5
310
F5F5F5F5F5F5F5F5F5F5F5F5F5F5F5F5F5F5F5F5F5F5F5F5F5F5F5F5F5F5F5F5F5F5F5F5F5F5F5F5F5F5F5F5F5F5F5F5F5F5F5F5F5F5F5F5F5F5F5F5F5F5F5F5F5F5F5F5F5F5F5F5F5F5F5F5F5F5E2E2EFF5F5F5F5F5F5F5F5F5F5F5F5F5F5F5F5F5F5F5F5F5F5F5F5F5F5F5F5F5F5F5F5F5F5F5F5F5F5F5F5F5F5F5F5F5F5
310
F5F5F5F5F5F5F5F5F5F5F5F5F5F5F5F5F5F5F5F5F5F5F5F5F5F5F5F5F5F5F5F5F5F5F5F5F5F5F5F5F5F5F5F5F5F5F5F5F5F5F5F5F5F5F5F5F5F5F5F5F5F5F5F5F5F5F5F5F5F5F5F5F5F5F5F5F5F5F5F5F5F5F5F5F5F5F5F5F5F5F5F5F5F5F5F5F5F5F5F5F5F5F5F5F5F5F5F5F5F5F5F5F5F5F5F5F5F5F5F5F5F5F5F5F5F5F5
310
F5F5F5F5E2E2EFF5F5F5F5F5F5F5F5F5F5F5F5F5F5F5F5F5F5F5F5F5F5F5F5F5F5F5F5F5F5F5F5F5F5F5F5F5F5F5F5F5F5F5F5F5F5F5F5F5F5F5F5F5F5F5F5F5F5F5F5F5F5F5F5F5F5F5F5F5F5F5F5F5F5F5F5F5F5F5F5F5F5F5F5F5F5F5F5F5F5F5F5F5F5F5F5F5F5F5F5F5F5F5F5F5F5F5F5F5F5F5F5F5F5F5F5F5F5F5F5
310
F5F5F5F5F5F5F5F5F5F5F5F5F5F5F5F5F5F5F5F5F5F5F5F5F5F5F5F5F5F5F5F5F5F5F5F5F5F5F5F5F5F5F5F5F5F5F5F5F5F5F5F5F5F5F5F5F5E2E2EFF5F5F5F5F5F5F5F5F5F5F5F5F5F5F5F5F5F5F5F5E2E2E2E2E2E2E2E2E2E2E2E2E2E2E2E2E2E2E2E2E2E2E2E2E2E2E2E2E2E2E2E2E2E2E2E2E2E2E2E2E2E2E2E2E2E2E2
310
E2E2E2E2E2E2E2E2E2E2E2E2E2E2E2E2E2E2E2E2E2E2E2E2E2E2E2E2E2E2E2E2E2E2E2E2E2E2E2E2E2E2E2E2E2E2E2E2E2E2E2E2E2E2E2E2E2E2E2E2E2E2E2E2E2E2E2E2E2E2E2E2E2E2E2E2E2E2E2E2E2E2E2E2E2E2E2E2E2E2F5F5F5F5F5F5F5F5F5F5F5F5F5F5F5F5F5F5F5F5E2E2EFF5F5F5F5F5F5F5F5F5F5F5F5F5F5
310
F5F5F5F5F5F5E2F5F5F5F5F5F5F5F5F5F5F5F5F5F5F5F5F5F5F5F5F5F5F5F5F5F5F5F5F5F5F5F5F5F5F5F5F5F5F5F5F5F5F5F5F5F5F5F5F5F5F5F5F5F5F5F5F5F5F5F5F5F5F5F5F5F5F5F5F5F5F5F5F5F5F5F5F5F5F5F5F5F5F5F5F5F5F5F5F5F5F5F5F5F5F5F5F5F5F5F5F5F5F5F5F5F5F5F5F5F5F5F5F5F5F5F5F5F5F5F5
310
F5F5F5F5F5F5F5F5F5F5F5F5F5F5F5E2F5F5F5F5F5F5F5F5F5F5F5F5F5F5F5F5F5F5F5F5E2E2EFF5F5F5F5F5F5F5F5F5F5F5F5F5F5F5F5F5F5F5F5E2F5F5F5F5F5F5F5F5F5F5F5F5F5F5F5F5F5F5F5F5F5F5F5F5F5F5F5F5F5F5F5F5F5F5F5F5F5F5F5F5F5F5F5F5F5F5F5F5F5F5F5F5F5F5F5F5F5F5F5F5F5F5F5F5F5F5F5
310
F5F5F5F5F5F5F5F5F5F5F5F5F5F5F5F5F5F5F5F5F5F5F5F5F5F5F5F5F5F5F5F5F5F5F5F5F5F5F5F5F5F5F5F5F5F5F5F5F5F5F5F5F5F5F5F5F5F5F5F5F5F5F5F5F5F5F5F5E2F5F5F5F5F5F5F5F5F5F5F5F5F5F5F5F5F5F5F5F5E2E2EFF5F5F5F5F5F5F5F5F5F5F5F5F5F5F5F5F5F5F5F5E2F5F5F5F5F5F5F5F5F5F5F5F5F5F5
310
F5F5F5F5F5F5F5F5F5F5F5F5F5F5F5F5F5F5F5F5F5F5F5F5F5F5F5F5F5F5F5F5F5F5F5F5F5F5F5F5F5F5F5F5F5F5F5F5F5F5F5F5F5F5F5F5F5F5F5F5F5F5F5F5F5F5F5F5F5F5F5F5F5F5F5F5F5F5F5F5F5F5F5F5F5F5F5F5F5F5F5F5F5F5F5F5F5F5F5F5F5F5F5F5F5F5F5F5F5F5F5F5F5F5F5F5F5F5F5F5F5E2F5F5F5F5F5
310
F5F5F5F5F5F5F5F5F5F5F5F5F5F5F5E2E2EFF5F5F5F5F5F5F5F5F5F5F5F5F5F5F5F5F5F5F5F5E2F5F5F5F5F5F5F5F5F5F5F5F5F5F5F5F5F5F5F5F5F5F5F5F5F5F5F5F5F5F5F5F5F5F5F5F5F5F5F5F5F5F5F5F5F5F5F5F5F5F5F5F5F5F5F5F5F5F5F5F5F5F5F5F5F5F5F5F5F5F5F5F5F5F5F5F5F5F5F5F5F5F5F5F5F5F5F5F5
310
F5F5F5F5F5F5F5F5F5F5F5F5F5F5F5F5F5F5F5F5F5F5F5F5F5F5F5F5F5F5F5F5F5F5F5F5F5F5F5F5F5F5F5F5F5F5F5E2F5F5F5F5F5F5F5F5F5F5F5F5F5F5F5F5F5F5F5F5E2E2EFF5F5F5E2F5F5F5F5F5F5F5F5F5F5F5F5F5F5F5F5E2F5F5F5F5F5F5F5F5F5F5F5F5F5F5F5F5F5F5F5F5F5F5F5F5F5F5F5F5F5F5F5F5F5F5F5
310
F5F5F5F5F5F5F5F5F5F5F5F5F5F5F5F5F5F5F5F5F5F5F5F5F5F5F5F5F5F5F5F5F5F5F5F5F5F5F5F5F5F5F5F5F5F5F5F5F5F5F5F5F5F5F5F5F5F5F5F5F5F5F5F5F5F5F5F5F5F5F5F5F5F5F5F5F5F5F5F5F5F5F5F5F5F5F5F5F5F5F5F5F5F5F5F5F5F5F5F5E2F5F5F5F5F5F5F5F5F5F5F5F5F5F5F5F5E2F5F5F5E2E2EFF5F5F5
310
E2F5F5F5F5F5F5F5F5F5F5F5F5F5F5F5F5E2F5F5F5F5F5F5F5F5F5F5F5F5F5F5F5F5F5F5F5F5F5F5F5F5F5F5F5F5F5F5F5F5F5F5F5F5F5F5F5F5F5F5F5F5F5F5F5F5F5F5F5F5F5F5F5F5F5F5F5F5F5F5F5F5F5F5F5F5F5F5F5F5F5F5F5F5F5F5F5F5F5F5F5F5F5F5F5F5F5F5F5F5F5F5F5F5F5F5F5F5F5F5F5F5F5F5F5F5F5
310
F5F5F5F5F5F5F5F5F5F5F5F5F5F5F5F5F5F5F5F5F5F5F5F5F5F5E2F5F5F5F5F5F5F5F5F5F5F5F5F5F5F5F5E2F5F5F5E2E2EFF5F5F5E2F5F5F5F5F5F5F5F5F5F5F5F5F5F5F5F5E2F5F5F5F5F5F5F5F5F5F5F5F5F5F5F5F5F5F5F5F5F5F5F5F5F5F5F5F5F5F5F5F5F5F5F5F5F5F5F5F5F5F5F5F5F5F5F5F5F5F5F5F5F5F5F5F5
310
F5F5F5F5F5F5F5F5F5F5F5F5F5F5F5F5F5F5F5F5F5F5F5F5F5F5F5F5F5F5F5F5F5F5F5F5F5F5F5F5F5F5F5F5F5F5F5F5F5F5F5F5F5F5F5F5F5F5F5F5F5F5F5F5F5F5F5F5F5F5F5F5F5F5F5F5F5F5F5E2F5F5F5F5F5F5F5F5F5F5F5F5F5F5F5F5E2F5F5F5E2E2EFF5F5F5E2F5F5F5F5F5F5F5F5F5F5F5F5F5F5F5F5E2F5F5F5
310
F5F5F5F5F5F5F5F5F5F5F5F5F5F5F5F5F5F5F5F5F5F5F5F5F5F5F5F5F5F5F5F5F5F5F5F5F5F5F5F5F5F5F5F5F5F5F5F5F5F5F5F5F5F5F5F5F5F5F5F5F5F5F5F5F5F5F5F5F5F5F5F5F5F5F5F5F5F5F5F5F5F5F5F5F5F5F5F5F5F5F5F5F5F5F5F5F5F5F5F5F5F5F5F5F5F5F5F5F5F5F5F5F5F5F5F5F5F5F5F5F5F5F5F5F5F5F5
310
F5F5F5F5F5E2F5F5F5F5F5F5F5F5F5F5F5F5F5F5F5F5E2F5F5F5E2E2EFF5F5F5E2F5F5F5F5F5F5F5F5F5F5F5F5F5F5F5F5E2F5F5F5F5F5F5F5F5F5F5F5F5F5F5F5F5F5F5F5F5F5F5F5F5F5F5F5F5F5F5F5F5F5F5F5F5F5F5F5F5F5F5F5F5F5F5F5F5F5F5F5F5F5F5F5F5F5F5F5F5F5F5F5F5F5F5F5F5F5F5F5F5F5F5F5F5F5
310
F5F5F5F5F5F5F5F5F5F5F5F5F5F5F5F5F5F5F5F5F5F5F5F5F5F5F5F5F5F5F5F5F5F5F5F5F5F5F5F5F5F5F5F5F5F5F5F5F5F5F5F5F5F5F5F5F5F5E2F5F5F5F5F5F5F5F5F5F5F5F5F5F5F5F5E2F5F5F5E2E2EFF5F5F5E2F5F5F5F5F5F5F5F5F5F5F5F5F5F5F5F5E2F5F5F5F5F5F5F5F5F5F5F5F5F5F5F5F5F5F5F5F5F5F5F5F5
310
F5F5F5F5F5F5F5F5F5F5F5F5F5F5F5F5F5F5F5F5F5F5F5F5F5F5F5F5F5F5F5F5F5F5F5F5F5F5F5F5F5F5F5F5F5F5F5F5F5F5F5F5F5F5F5F5F5F5F5F5F5F5F5F5F5F5F5F5F5F5F5F5F5F5F5F5F5F5F5F5F5F5F5F5F5F5F5F5F5F5F5F5F5F5F5F5F5F5F5F5F5F5F5F5F5F5F5F5F5F5F5E2F5F5F5F5F5F5F5F5F5F5F5F5F5F5F5
310
F5E2F5F5F5E2E2EFF5F5F5E2F5F5F5F5F5F5F5F5F5F5F5F5F5F5F5F5E2F5F5F5F5F5F5F5F5F5F5F5F5F5F5F5F5F5F5F5F5F5F5F5F5F5F5F5F5F5F5F5F5F5F5F5F5F5F5F5F5F5F5F5F5F5F5F5F5F5F5F5F5F5F5F5F5F5F5F5F5F5F5F5F5F5F5F5F5F5F5F5F5F5F5F5F5F5F5F5F5F5F5F5F5F5F5F5F5F5F5F5F5F5F5F5F5F5F5
310
F5F5F5F5F5F5F5F5F5F5F5F5F5F5F5F5F5F5F5F5F5F5F5F5F5F5F5F5F5F5F5F5F5F5F5F5F5E2F5F5F5F5F5F5F5F5F5F5F5F5F5F5F5F5E2F5F5F5E2E2EFF5F5F5E2F5F5F5F5F5F5F5F5F5F5F5F5F5F5F5F5E2F5F5F5F5F5F5F5F5F5F5F5F5F5F5F5F5F5F5F5F5F5F5F5F5F5F5F5F5F5F5F5F5F5F5F5F5F5F5F5F5F5F5F5F5F5
310
F5F5F5F5F5F5F5F5F5F5F5F5F5F5F5F5F5F5F5F5F5F5F5F5F5F5F5F5F5F5F5F5F5F5F5F5F5F5F5F5F5F5F5F5F5F5F5F5F5F5F5F5F5F5F5F5F5F5F5F5F5F5F5F5F5F5F5F5F5F5F5F5F5F5F5F5F5F5F5F5F5F5F5F5F5F5F5F5F5F5E2F5F5F5F5F5F5F5F5F5F5F5F5F5F5F5F5E2F5F5F5E2E2EFF5F5F5E2F5F5F5F5F5F5F5F5F5
310
F5F5F5F5F5F5F5E2F5F5F5F5F5F5F5F5F5F5F5F5F5F5F5F5F5F5F5F5F5F5F5F5F5F5F5F5F5F5F5F5F5F5F5F5F5F5F5F5F5F5F5F5F5F5F5F5F5F5F5F5F5F5F5F5F5F5F5F5F5F5F5F5F5F5F5F5F5F5F5F5F5F5F5F5F5F5F5F5F5F5F5F5F5F5F5F5F5F5F5F5F5F5F5F5F5F5F5F5F5F5F5F5F5F5F5F5F5F5F5F5F5F5F5F5F5F5F5
310
F5F5F5F5F5F5F5F5F5F5F5F5F5F5F5F5E2F5F5F5F5F5F5F5F5F5F5F5F5F5F5F5F5E2F5F5F5E2E2EFF5F5F5E2F5F5F5F5F5F5F5F5F5F5F5F5F5F5F5F5E2F5F5F5F5F5F5F5F5F5F5F5F5F5F5F5F5F5F5F5F5F5F5F5F5F5F5F5F5F5F5F5F5F5F5F5F5F5F5F5F5F5F5F5F5F5F5F5F5F5F5F5F5F5F5F5F5F5F5F5F5F5F5F5F5F5F5
310
F5F5F5F5F5F5F5F5F5F5F5F5F5F5F5F5F5F5F5F5F5F5F5F5F5F5F5F5F5F5F5F5F5F5F5F5F5F5F5F5F5F5F5F5F5F5F5F5F5F5F5F5F5F5F5F5F5F5F5F5F5F5F5F5F5F5F5F5F5E2F5F5F5F5F5F5F5F5F5F5F5F5F5F5F5F5E2F5F5F5E2E2EFF5F5F5E2F5F5F5F5F5F5F5F5F5F5F5F5F5F5F5F5E2F5F5F5F5F5F5F5F5F5F5F5F5F5
310
F5F5F5F5F5F5F5F5F5F5F5F5F5F5F5F5F5F5F5F5F5F5F5F5F5F5F5F5F5F5F5F5F5F5F5F5F5F5F5F5F5F5F5F5F5F5F5F5F5F5F5F5F5F5F5F5F5F5F5F5F5F5F5F5F5F5F5F5F5F5F5F5F5F5F5F5F5F5F5F5F5F5F5F5F5F5F5F5F5F5F5F5F5F5F5F5F5F5F5F5F5F5F5F5F5F5F5F5F5F5F5F5F5F5F5F5F5F5F5F5F5F5E2F5F5F5F5
310
F5F5F5F5F5F5F5F5F5F5F5F5E2F5F5F5E2E2EFF5F5F5E2F5F5F5F5F5F5F5F5F5F5F5F5F5F5F5F5E2F5F5F5F5F5F5F5F5F5F5F5F5F5F5F5F5F5F5F5F5F5F5F5F5F5F5F5F5F5F5F5F5F5F5F5F5F5F5F5F5F5F5F5F5F5F5F5F5F5F5F5F5F5F5F5F5F5F5F5F5F5F5F5F5F5F5F5F5F5F5F5F5F5F5F5F5F5F5F5F5F5F5F5F5F5F5F5
310
F5F5F5F5F5F5F5F5F5F5F5F5F5F5F5F5F5F5F5F5F5F5F5F5F5F5F5F5F5F5F5F5F5F5F5F5F5F5F5F5F5F5F5F5F5F5F5F5E2F5F5F5F5F5F5F5F5F5F5F5F5F5F5F5F5E2F5F5F5E2E2EFF5F5F5E2F5F5F5F5F5F5F5F5F5F5F5F5F5F5F5F5E2F5F5F5F5F5F5F5F5F5F5F5F5F5F5F5F5F5F5F5F5F5F5F5F5F5F5F5F5F5F5F5F5F5F5
310
F5F5F5F5F5F5F5F5F5F5F5F5F5F5F5F5F5F5F5F5F5F5F5F5F5F5F5F5F5F5F5F5F5F5F5F5F5F5F5F5F5F5F5F5F5F5F5F5F5F5F5F5F5F5F5F5F5F5F5F5F5F5F5F5F5F5F5F5F5F5F5F5F5F5F5F5F5F5F5F5F5F5F5F5F5F5F5F5F5F5F5F5F5F5F5F5F5F5F5F5F5E2F5F5F5F5F5F5F5F5F5F5F5F5F5F5F5F5E2F5F5F5E2E2EFF5F5
310
F5E2F5F5F5F5F5F5F5F5F5F5F5F5F5F5F5F5E2F5F5F5F5F5F5F5F5F5F5F5F5F5F5F5F5F5F5F5F5F5F5F5F5F5F5F5F5F5F5F5F5F5F5F5F5F5F5F5F5F5F5F5F5F5F5F5F5F5F5F5F5F5F5F5F5F5F5F5F5F5F5F5F5F5F5F5F5F5F5F5F5F5F5F5F5F5F5F5F5F5F5F5F5F5F5F5F5F5F5F5F5F5F5F5F5F5F5F5F5F5F5F5F5F5F5F5F5
310
F5F5F5F5F5F5F5F5F5F5F5F5F5F5F5F5F5F5F5F5F5F5F5F5F5F5F5E2F5F5F5F5F5F5F5F5F5F5F5F5F5F5F5F5E2F5F5F5E2E2EFF5F5F5E2F5F5F5F5F5F5F5F5F5F5F5F5F5F5F5F5E2F5F5F5F5F5F5F5F5F5F5F5F5F5F5F5F5F5F5F5F5F5F5F5F5F5F5F5F5F5F5F5F5F5F5F5F5F5F5F5F5F5F5F5F5F5F5F5F5F5F5F5F5F5F5F5
310
F5F5F5F5F5F5F5F5F5F5F5F5F5F5F5F5F5F5F5F5F5F5F5F5F5F5F5F5F5F5F5F5F5F5F5F5F5F5F5F5F5F5F5F5F5F5F5F5F5F5F5F5F5F5F5F5F5F5F5F5F5F5F5F5F5F5F5F5F5F5F5F5F5F5F5F5F5F5F5F5E2F5F5F5F5F5F5F5F5F5F5F5F5F5F5F5F5E2F5F5F5E2E2EFF5F5F5E2F5F5F5F5F5F5F5F5F5F5F5F5F5F5F5F5E2F5F5
310
F5F5F5F5F5F5F5F5F5F5F5F5F5F5F5F5F5F5F5F5F5F5F5F5F5F5F5F5F5F5F5F5F5F5F5F5F5F5F5F5F5F5F5F5F5F5F5F5F5F5F5F5F5F5F5F5F5F5F5F5F5F5F5F5F5F5F5F5F5F5F5F5F5F5F5F5F5F5F5F5F5F5F5F5F5F5F5F5F5F5F5F5F5F5F5F5F5F5F5F5F5F5F5F5F5F5F5F5F5F5F5F5F5F5F5F5F5F5F5F5F5F5F5F5F5F5F5
310
F5F5F5F5F5F5E2F5F5F5F5F5F5F5F5F5F5F5F5F5F5F5F5E2F5F5F5E2E2EFF5F5F5E2F5F5F5F5F5F5F5F5F5F5F5F5F5F5F5F5E2F5F5F5F5F5F5F5F5F5F5F5F5F5F5F5F5F5F5F5F5F5F5F5F5F5F5F5F5F5F5F5F5F5F5F5F5F5F5F5F5F5F5F5F5F5F5F5F5F5F5F5F5F5F5F5F5F5F5F5F5F5F5F5F5F5F5F5F5F5F5F5F5F5F5F5F5
310
F5F5F5F5F5F5F5F5F5F5F5F5F5F5F5F5F5F5F5F5F5F5F5F5F5F5F5F5F5F5F5F5F5F5F5F5F5F5F5F5F5F5F5F5F5F5F5F5F5F5F5F5F5F5F5F5F5F5F5E2F5F5F5F5F5F5F5F5F5F5F5F5F5F5F5F5E2F5F5F5E2E2EFF5F5F5F5F5F5F5F5F5F5F5F5F5F5F5F5F5F5F5F5E2F5F5F5F5F5F5F5F5F5F5F5F5F5F5F5F5F5F5F5F5F5F5F5
310
F5F5F5F5F5F5F5F5F5F5F5F5F5F5F5F5F5F5F5F5F5F5F5F5F5F5F5F5F5F5F5F5F5F5F5F5F5F5F5F5F5F5F5F5F5F5F5F5F5F5F5F5F5F5F5F5F5F5F5F5F5F5F5F5F5F5F5F5F5F5F5F5F5F5F5F5F5F5F5F5F5F5F5F5F5F5F5F5F5F5F5F5F5F5F5F5F5F5F5F5F5F5F5F5F5F5F5F5F5F5F5F5E2F5F5F5F5F5F5F5F5F5F5F5F5F5F5
310
F5F5F5F5F5F5E2E2EFF5F5F5F5F5F5F5F5F5F5F5F5F5F5F5F5F5F5F5F5E2F5F5F5F5F5F5F5F5F5F5F5F5F5F5F5F5F5F5F5F5F5F5F5F5F5F5F5F5F5F5F5F5F5F5F5F5F5F5F5F5F5F5F5F5F5F5F5F5F5F5F5F5F5F5F5F5F5F5F5F5F5F5F5F5F5F5F5F5F5F5F5F5F5F5F5F5F5F5F5F5F5F5F5F5F5F5F5F5F5F5F5F5F5F5F5F5F5
310
F5F5F5F5F5F5F5F5F5F5F5F5F5F5F5F5F5F5F5F5F5F5F5F5F5F5F5F5F5F5F5F5F5F5F5F5F5F5E2F5F5F5F5F5F5F5F5F5F5F5F5F5F5F5F5F5F5F5F5E2E2EFF5F5F5F5F5F5F5F5F5F5F5F5F5F5F5F5F5F5F5F5E2F5F5F5F5F5F5F5F5F5F5F5F5F5F5F5F5F5F5F5F5F5F5F5F5F5F5F5F5F5F5F5F5F5F5F5F5F5F5F5F5F5F5F5F5
310
F5F5F5F5F5F5F5F5F5F5F5F5F5F5F5F5F5F5F5F5F5F5F5F5F5F5F5F5F5F5F5F5F5F5F5F5F5F5F5F5F5F5F5F5F5F5F5F5F5F5F5F5F5F5F5F5F5F5F5F5F5F5F5F5F5F5F5F5F5F5F5F5F5F5F5F5F5F5F5F5F5F5F5F5F5F5F5F5F5F5F5E2F5F5F5F5F5F5F5F5F5F5F5F5F5F5F5F5F5F5F5F5E2E2EFF5F5F5F5F5F5F5F5F5F5F5F5
310
F5F5F5F5F5F5F5F5E2F5F5F5F5F5F5F5F5F5F5F5F5F5F5F5F5F5F5F5F5F5F5F5F5F5F5F5F5F5F5F5F5F5F5F5F5F5F5F5F5F5F5F5F5F5F5F5F5F5F5F5F5F5F5F5F5F5F5F5F5F5F5F5F5F5F5F5F5F5F5F5F5F5F5F5F5F5F5F5F5F5F5F5F5F5F5F5F5F5F5F5F5F5F5F5F5F5F5F5F5F5F5F5F5F5F5F5F5F5F5F5F5F5F5F5F5F5F5
310
F5F5F5F5F5F5F5F5F5F5F5F5F5F5F5F5F5E2F5F5F5F5F5F5F5F5F5F5F5F5F5F5F5F5F5F5F5F5E2E2EFF5F5F5F5F5F5F5F5F5F5F5F5F5F5F5F5F5F5F5F5E2F5F5F5F5F5F5F5F5F5F5F5F5F5F5F5F5F5F5F5F5F5F5F5F5F5F5F5F5F5F5F5F5F5F5F5F5F5F5F5F5F5F5F5F5F5F5F5F5F5F5F5F5F5F5F5F5F5F5F5F5F5F5F5F5F5
310
F5F5F5F5F5F5F5F5F5F5F5F5F5F5F5F5F5F5F5F5F5F5F5F5F5F5F5F5F5F5F5F5F5F5F5F5F5F5F5F5F5F5F5F5F5F5F5F5F5F5F5F5F5F5F5F5F5F5F5F5F5F5F5F5F5F5F5F5F5F5E2F5F5F5F5F5F5F5F5F5F5F5F5F5F5F5F5F5F5F5F5E2E2EFF5F5F5F5F5F5F5F5F5F5F5F5F5F5F5F5F5F5F5F5E2F5F5F5F5F5F5F5F5F5F5F5F5
310
F5F5F5F5F5F5F5F5F5F5F5F5F5F5F5F5F5F5F5F5F5F5F5F5F5F5F5F5F5F5F5F5F5F5F5F5F5F5F5F5F5F5F5F5F5F5F5F5F5F5F5F5F5F5F5F5F5F5F5F5F5F5F5F5F5F5F5F5F5F5F5F5F5F5F5F5F5F5F5F5F5F5F5F5F5F5F5F5F5F5F5F5F5F5F5F5F5F5F5F5F5F5F5F5F5F5F5F5F5F5F5F5F5F5F5F5F5F5F5F5F5F5F5E2F5F5F5
310
F5F5F5F5F5F5F5F5F5F5F5F5F5F5F5F5F5E2E2EFF5F5F5F5F5F5F5F5F5F5F5F5F5F5F5F5F5F5F5F5E2F5F5F5F5F5F5F5F5F5F5F5F5F5F5F5F5F5F5F5F5F5F5F5F5F5F5F5F5F5F5F5F5F5F5F5F5F5F5F5F5F5F5F5F5F5F5F5F5F5F5F5F5F5F5F5F5F5F5F5F5F5F5F5F5F5F5F5F5F5F5F5F5F5F5F5F5F5F5F5F5F5F5F5F5F5F5
310
F5F5F5F5F5F5F5F5F5F5F5F5F5F5F5F5F5F5F5F5F5F5F5F5F5F5F5F5F5F5F5F5F5F5F5F5F5F5F5F5F5F5F5F5F5F5F5F5F5E2F5F5F5F5F5F5F5F5F5F5F5F5F5F5F5F5F5F5F5F5E2E2EFF5F5F5F5F5F5F5F5F5F5F5F5F5F5F5F5F5F5F5F5E2F5F5F5F5F5F5F5F5F5F5F5F5F5F5F5F5F5F5F5F5F5F5F5F5F5F5F5F5F5F5F5F5F5
310
F5F5F5F5F5F5F5F5F5F5F5F5F5F5F5F5F5F5F5F5F5F5F5F5F5F5F5F5F5F5F5F5F5F5F5F5F5F5F5F5F5F5F5F5F5F5F5F5F5F5F5F5F5F5F5F5F5F5F5F5F5F5F5F5F5F5F5F5F5F5F5F5F5F5F5F5F5F5F5F5F5F5F5F5F5F5F5F5F5F5F5F5F5F5F5F5F5F5F5F5F5F5E2F5F5F5F5F5F5F5F5F5F5F5F5F5F5F5F5F5F5F5F5E2E2EFF5
310
F5F5F5F5F5F5F5F5F5F5F5F5F5F5F5F5F5F5F5E2F5F5F5F5F5F5F5F5F5F5F5F5F5F5F5F5F5F5F5F5F5F5F5F5F5F5F5F5F5F5F5F5F5F5F5F5F5F5F5F5F5F5F5F5F5F5F5F5F5F5F5F5F5F5F5F5F5F5F5F5F5F5F5F5F5F5F5F5F5F5F5F5F5F5F5F5F5F5F5F5F5F5F5F5F5F5F5F5F5F5F5F5F5F5F5F5F5F5F5F5F5F5F5F5F5F5F5
310
F5F5F5F5F5F5F5F5F5F5F5F5F5F5F5F5F5F5F5F5F5F5F5F5F5F5F5F5E2F5F5F5F5F5F5F5F5F5F5F5F5F5F5F5F5F5F5F5F5E2E2EFF5F5F5E2F5F5F5F5F5F5F5F5F5F5F5F5F5F5F5F5E2F5F5F5F5F5F5F5F5F5F5F5F5F5F5F5F5F5F5F5F5F5F5F5F5F5F5F5F5F5F5F5F5F5F5F5F5F5F5F5F5F5F5F5F5F5F5F5F5F5F5F5F5F5F5
310
F5F5F5F5F5F5F5F5F5F5F5F5F5F5F5F5F5F5F5F5F5F5F5F5F5F5F5F5F5F5F5F5F5F5F5F5F5F5F5F5F5F5F5F5F5F5F5F5F5F5F5F5F5F5F5F5F5F5F5F5F5F5F5F5F5F5F5F5F5F5F5F5F5F5F5F5F5F5F5F5F5E2F5F5F5F5F5F5F5F5F5F5F5F5F5F5F5F5E2F5F5F5E2E2EFF5F5F5E2F5F5F5F5F5F5F5F5F5F5F5F5F5F5F5F5E2F5
310
F5F5F5F5F5F5F5F5F5F5F5F5F5F5F5F5F5F5F5F5F5F5F5F5F5F5F5F5F5F5F5F5F5F5F5F5F5F5F5F5F5F5F5F5F5F5F5F5F5F5F5F5F5F5F5F5F5F5F5F5F5F5F5F5F5F5F5F5F5F5F5F5F5F5F5F5F5F5F5F5F5F5F5F5F5F5F5F5F5F5F5F5F5F5F5F5F5F5F5F5F5F5F5F5F5F5F5F5F5F5F5F5F5F5F5F5F5F5F5F5F5F5F5F5F5F5F5
310
F5F5F5F5F5F5F5E2F5F5F5F5F5F5F5F5F5F5F5F5F5F5F5F5E2F5F5F5E2E2EFF5F5F5E2F5F5F5F5F5F5F5F5F5F5F5F5F5F5F5F5E2F5F5F5F5F5F5F5F5F5F5F5F5F5F5F5F5F5F5F5F5F5F5F5F5F5F5F5F5F5F5F5F5F5F5F5F5F5F5F5F5F5F5F5F5F5F5F5F5F5F5F5F5F5F5F5F5F5F5F5F5F5F5F5F5F5F5F5F5F5F5F5F5F5F5F5
310
F5F5F5F5F5F5F5F5F5F5F5F5F5F5F5F5F5F5F5F5F5F5F5F5F5F5F5F5F5F5F5F5F5F5F5F5F5F5F5F5F5F5F5F5F5F5F5F5F5F5F5F5F5F5F5F5F5F5F5F5E2F5F5F5F5F5F5F5F5F5F5F5F5F5F5F5F5E2F5F5F5E2E2EFF5F5F5E2F5F5F5F5F5F5F5F5F5F5F5F5F5F5F5F5E2F5F5F5F5F5F5F5F5F5F5F5F5F5F5F5F5F5F5F5F5F5F5
310
F5F5F5F5F5F5F5F5F5F5F5F5F5F5F5F5F5F5F5F5F5F5F5F5F5F5F5F5F5F5F5F5F5F5F5F5F5F5F5F5F5F5F5F5F5F5F5F5F5F5F5F5F5F5F5F5F5F5F5F5F5F5F5F5F5F5F5F5F5F5F5F5F5F5F5F5F5F5F5F5F5F5F5F5F5F5F5F5F5F5F5F5F5F5F5F5F5F5F5F5F5F5F5F5F5F5F5F5F5F5F5F5F5E2F5F5F5F5F5F5F5F5F5F5F5F5F5
310
F5F5F5E2F5F5F5E2E2EFF5F5F5E2F5F5F5F5F5F5F5F5F5F5F5F5F5F5F5F5E2F5F5F5F5F5F5F5F5F5F5F5F5F5F5F5F5F5F5F5F5F5F5F5F5F5F5F5F5F5F5F5F5F5F5F5F5F5F5F5F5F5F5F5F5F5F5F5F5F5F5F5F5F5F5F5F5F5F5F5F5F5F5F5F5F5F5F5F5F5F5F5F5F5F5F5F5F5F5F5F5F5F5F5F5F5F5F5F5F5F5F5F5F5F5F5F5
310
F5F5F5F5F5F5F5F5F5F5F5F5F5F5F5F5F5F5F5F5F5F5F5F5F5F5F5F5F5F5F5F5F5F5F5F5F5F5F5E2F5F5F5F5F5F5F5F5F5F5F5F5F5F5F5F5E2F5F5F5E2E2EFF5F5F5E2F5F5F5F5F5F5F5F5F5F5F5F5F5F5F5F5E2F5F5F5F5F5F5F5F5F5F5F5F5F5F5F5F5F5F5F5F5F5F5F5F5F5F5F5F5F5F5F5F5F5F5F5F5F5F5F5F5F5F5F5
310
F5F5F5F5F5F5F5F5F5F5F5F5F5F5F5F5F5F5F5F5F5F5F5F5F5F5F5F5F5F5F5F5F5F5F5F5F5F5F5F5F5F5F5F5F5F5F5F5F5F5F5F5F5F5F5F5F5F5F5F5F5F5F5F5F5F5F5F5F5F5F5F5F5F5F5F5F5F5F5F5F5F5F5F5F5F5F5F5F5F5F5F5E2F5F5F5F5F5F5F5F5F5F5F5F5F5F5F5F5E2F5F5F5E2E2EFF5F5F5E2F5F5F5F5F5F5F5
310
F5F5F5F5F5F5F5F5F5E2F5F5F5F5F5F5F5F5F5F5F5F5F5F5F5F5F5F5F5F5F5F5F5F5F5F5F5F5F5F5F5F5F5F5F5F5F5F5F5F5F5F5F5F5F5F5F5F5F5F5F5F5F5F5F5F5F5F5F5F5F5F5F5F5F5F5F5F5F5F5F5F5F5F5F5F5F5F5F5F5F5F5F5F5F5F5F5F5F5F5F5F5F5F5F5F5F5F5F5F5F5F5F5F5F5F5F5F5F5F5F5F5F5F5F5F5F5
310
F5F5F5F5F5F5F5F5F5F5F5F5F5F5F5F5F5F5E2F5F5F5F5F5F5F5F5F5F5F5F5F5F5F5F5E2F5F5F5E2E2EFF5F5F5E2F5F5F5F5F5F5F5F5F5F5F5F5F5F5F5F5E2F5F5F5F5F5F5F5F5F5F5F5F5F5F5F5F5F5F5F5F5F5F5F5F5F5F5F5F5F5F5F5F5F5F5F5F5F5F5F5F5F5F5F5F5F5F5F5F5F5F5F5F5F5F5F5F5F5F5F5F5F5F5F5F5
310
F5F5F5F5F5F5F5F5F5F5F5F5F5F5F5F5F5F5F5F5F5F5F5F5F5F5F5F5F5F5F5F5F5F5F5F5F5F5F5F5F5F5F5F5F5F5F5F5F5F5F5F5F5F5F5F5F5F5F5F5F5F5F5F5F5F5F5F5F5F5F5E2F5F5F5F5F5F5F5F5F5F5F5F5F5F5F5F5E2F5F5F5E2E2EFF5F5F5E2F5F5F5F5F5F5F5F5F5F5F5F5F5F5F5F5E2F5F5F5F5F5F5F5F5F5F5F5
310
F5F5F5F5F5F5F5F5F5F5F5F5F5F5F5F5F5F5F5F5F5F5F5F5F5F5F5F5F5F5F5F5F5F5F5F5F5F5F5F5F5F5F5F5F5F5F5F5F5F5F5F5F5F5F5F5F5F5F5F5F5F5F5F5F5F5F5F5F5F5F5F5F5F5F5F5F5F5F5F5F5F5F5F5F5F5F5F5F5F5F5F5F5F5F5F5F5F5F5F5F5F5F5F5F5F5F5F5F5F5F5F5F5F5F5F5F5F5F5F5F5F5F5F5E2F5F5
310
F5F5F5F5F5F5F5F5F5F5F5F5F5F5E2F5F5F5E2E2EFF5F5F5E2F5F5F5F5F5F5F5F5F5F5F5F5F5F5F5F5E2F5F5F5F5F5F5F5F5F5F5F5F5F5F5F5F5F5F5F5F5F5F5F5F5F5F5F5F5F5F5F5F5F5F5F5F5F5F5F5F5F5F5F5F5F5F5F5F5F5F5F5F5F5F5F5F5F5F5F5F5F5F5F5F5F5F5F5F5F5F5F5F5F5F5F5F5F5F5F5F5F5F5F5F5F5
310
F5F5F5F5F5F5F5F5F5F5F5F5F5F5F5F5F5F5F5F5F5F5F5F5F5F5F5F5F5F5F5F5F5F5F5F5F5F5F5F5F5F5F5F5F5F5F5F5F5F5E2F5F5F5F5F5F5F5F5F5F5F5F5F5F5F5F5E2F5F5F5E2E2EFF5F5F5E2F5F5F5F5F5F5F5F5F5F5F5F5F5F5F5F5E2F5F5F5F5F5F5F5F5F5F5F5F5F5F5F5F5F5F5F5F5F5F5F5F5F5F5F5F5F5F5F5F5
310
F5F5F5F5F5F5F5F5F5F5F5F5F5F5F5F5F5F5F5F5F5F5F5F5F5F5F5F5F5F5F5F5F5F5F5F5F5F5F5F5F5F5F5F5F5F5F5F5F5F5F5F5F5F5F5F5F5F5F5F5F5F5F5F5F5F5F5F5F5F5F5F5F5F5F5F5F5F5F5F5F5F5F5F5F5F5F5F5F5F5F5F5F5F5F5F5F5F5F5F5F5F5F5E2F5F5F5F5F5F5F5F5F5F5F5F5F5F5F5F5E2F5F5F5E2E2EF
310
F5F5F5E2F5F5F5F5F5F5F5F5F5F5F5F5F5F5F5F5E2F5F5F5F5F5F5F5F5F5F5F5F5F5F5F5F5F5F5F5F5F5F5F5F5F5F5F5F5F5F5F5F5F5F5F5F5F5F5F5F5F5F5F5F5F5F5F5F5F5F5F5F5F5F5F5F5F5F5F5F5F5F5F5F5F5F5F5F5F5F5F5F5F5F5F5F5F5F5F5F5F5F5F5F5F5F5F5F5F5F5F5F5F5F5F5F5F5F5F5F5F5F5F5F5F5F5
310
F5F5F5F5F5F5F5F5F5F5F5F5F5F5F5F5F5F5F5F5F5F5F5F5F5F5F5F5F5E2F5F5F5F5F5F5F5F5F5F5F5F5F5F5F5F5E2F5F5F5E2E2EFF5F5F5E2F5F5F5F5F5F5F5F5F5F5F5F5F5F5F5F5E2F5F5F5F5F5F5F5F5F5F5F5F5F5F5F5F5F5F5F5F5F5F5F5F5F5F5F5F5F5F5F5F5F5F5F5F5F5F5F5F5F5F5F5F5F5F5F5F5F5F5F5F5F5
310
F5F5F5F5F5F5F5F5F5F5F5F5F5F5F5F5F5F5F5F5F5F5F5F5F5F5F5F5F5F5F5F5F5F5F5F5F5F5F5F5F5F5F5F5F5F5F5F5F5F5F5F5F5F5F5F5F5F5F5F5F5F5F5F5F5F5F5F5F5F5F5F5F5F5F5F5F5F5F5F5F5F5E2F5F5F5F5F5F5F5F5F5F5F5F5F5F5F5F5E2F5F5F5E2E2EFF5F5F5E2F5F5F5F5F5F5F5F5F5F5F5F5F5F5F5F5E2
310
F5F5F5F5F5F5F5F5F5F5F5F5F5F5F5F5F5F5F5F5F5F5F5F5F5F5F5F5F5F5F5F5F5F5F5F5F5F5F5F5F5F5F5F5F5F5F5F5F5F5F5F5F5F5F5F5F5F5F5F5F5F5F5F5F5F5F5F5F5F5F5F5F5F5F5F5F5F5F5F5F5F5F5F5F5F5F5F5F5F5F5F5F5F5F5F5F5F5F5F5F5F5F5F5F5F5F5F5F5F5F5F5F5F5F5F5F5F5F5F5F5F5F5F5F5F5F5
310
F5F5F5F5F5F5F5F5E2F5F5F5F5F5F5F5F5F5F5F5F5F5F5F5F5E2F5F5F5E2E2EFF5F5F5E2F5F5F5F5F5F5F5F5F5F5F5F5F5F5F5F5E2F5F5F5F5F5F5F5F5F5F5F5F5F5F5F5F5F5F5F5F5F5F5F5F5F5F5F5F5F5F5F5F5F5F5F5F5F5F5F5F5F5F5F5F5F5F5F5F5F5F5F5F5F5F5F5F5F5F5F5F5F5F5F5F5F5F5F5F5F5F5F5F5F5F5
310
F5F5F5F5F5F5F5F5F5F5F5F5F5F5F5F5F5F5F5F5F5F5F5F5F5F5F5F5F5F5F5F5F5F5F5F5F5F5F5F5F5F5F5F5F5F5F5F5F5F5F5F5F5F5F5F5F5F5F5F5F5E2F5F5F5F5F5F5F5F5F5F5F5F5F5F5F5F5E2F5F5F5E2E2EFF5F5F5E2F5F5F5F5F5F5F5F5F5F5F5F5F5F5F5F5E2F5F5F5F5F5F5F5F5F5F5F5F5F5F5F5F5F5F5F5F5F5
310
F5F5F5F5F5F5F5F5F5F5F5F5F5F5F5F5F5F5F5F5F5F5F5F5F5F5F5F5F5F5F5F5F5F5F5F5F5F5F5F5F5F5F5F5F5F5F5F5F5F5F5F5F5F5F5F5F5F5F5F5F5F5F5F5F5F5F5F5F5F5F5F5F5F5F5F5F5F5F5F5F5F5F5F5F5F5F5F5F5F5F5F5F5F5F5F5F5F5F5F5F5F5F5F5F5F5F5F5F5F5F5F5F5F5E2F5F5F5F5F5F5F5F5F5F5F5F5
310
F5F5F5F5E2F5F5F5E2E2EFF5F5F5E2F5F5F5F5F5F5F5F5F5F5F5F5F5F5F5F5E2F5F5F5F5F5F5F5F5F5F5F5F5F5F5F5F5F5F5F5F5F5F5F5F5F5F5F5F5F5F5F5F5F5F5F5F5F5F5F5F5F5F5F5F5F5F5F5F5F5F5F5F5F5F5F5F5F5F5F5F5F5F5F5F5F5F5F5F5F5F5F5F5F5F5F5F5F5F5F5F5F5F5F5F5F5F5F5F5F5F5F5F5F5F5F5
310
F5F5F5F5F5F5F5F5F5F5F5F5F5F5F5F5F5F5F5F5F5F5F5F5F5F5F5F5F5F5F5F5F5F5F5F5F5F5F5F5E2F5F5F5F5F5F5F5F5F5F5F5F5F5F5F5F5E2F5F5F5E2E2EFF5F5F5F5F5F5F5F5F5F5F5F5F5F5F5F5F5F5F5F5E2F5F5F5F5F5F5F5F5F5F5F5F5F5F5F5F5F5F5F5F5F5F5F5F5F5F5F5F5F5F5F5F5F5F5F5F5F5F5F5F5F5F5
310
F5F5F5F5F5F5F5F5F5F5F5F5F5F5F5F5F5F5F5F5F5F5F5F5F5F5F5F5F5F5F5F5F5F5F5F5F5F5F5F5F5F5F5F5F5F5F5F5F5F5F5F5F5F5F5F5F5F5F5F5F5F5F5F5F5F5F5F5F5F5F5F5F5F5F5F5F5F5F5F5F5F5F5F5F5F5F5F5F5F5F5F5F5E2F5F5F5F5F5F5F5F5F5F5F5F5F5F5F5F5F5F5F5F5E2E2EFF5F5F5F5F5F5F5F5F5F5
310
F5F5F5F5F5F5F5F5F5F5E2F5F5F5F5F5F5F5F5F5F5F5F5F5F5F5F5F5F5F5F5F5F5F5F5F5F5F5F5F5F5F5F5F5F5F5F5F5F5F5F5F5F5F5F5F5F5F5F5F5F5F5F5F5F5F5F5F5F5F5F5F5F5F5F5F5F5F5F5F5F5F5F5F5F5F5F5F5F5F5F5F5F5F5F5F5F5F5F5F5F5F5F5F5F5F5F5F5F5F5F5F5F5F5F5F5F5F5F5F5F5F5F5F5F5F5F5
310
F5F5F5F5F5F5F5F5F5F5F5F5F5F5F5F5F5F5F5E2F5F5F5F5F5F5F5F5F5F5F5F5F5F5F5F5F5F5F5F5E2E2EFF5F5F5F5F5F5F5F5F5F5F5F5F5F5F5F5F5F5F5F5E2F5F5F5F5F5F5F5F5F5F5F5F5F5F5F5F5F5F5F5F5F5F5F5F5F5F5F5F5F5F5F5F5F5F5F5F5F5F5F5F5F5F5F5F5F5F5F5F5F5F5F5F5F5F5F5F5F5F5F5F5F5F5F5
310
F5F5F5F5F5F5F5F5F5F5F5F5F5F5F5F5F5F5F5F5F5F5F5F5F5F5F5F5F5F5F5F5F5F5F5F5F5F5F5F5F5F5F5F5F5F5F5F5F5F5F5F5F5F5F5F5F5F5F5F5F5F5F5F5F5F5F5F5F5F5F5F5E2F5F5F5F5F5F5F5F5F5F5F5F5F5F5F5F5F5F5F5F5E2E2EFF5F5F5F5F5F5F5F5F5F5F5F5F5F5F5F5F5F5F5F5E2F5F5F5F5F5F5F5F5F5F5
310
F5F5F5F5F5F5F5F5F5F5F5F5F5F5F5F5F5F5F5F5F5F5F5F5F5F5F5F5F5F5F5F5F5F5F5F5F5F5F5F5F5F5F5F5F5F5F5F5F5F5F5F5F5F5F5F5F5F5F5F5F5F5F5F5F5F5F5F5F5F5F5F5F5F5F5F5F5F5F5F5F5F5F5F5F5F5F5F5F5F5F5F5F5F5F5F5F5F5F5F5F5F5F5F5F5F5F5F5F5F5F5F5F5F5F5F5F5F5F5F5F5F5F5F5F5E2F5
310
F5F5F5F5F5F5F5F5F5F5F5F5F5F5F5F5F5F5F5E2E2EFF5F5F5F5F5F5F5F5F5F5F5F5F5F5F5F5F5F5F5F5E2F5F5F5F5F5F5F5F5F5F5F5F5F5F5F5F5F5F5F5F5F5F5F5F5F5F5F5F5F5F5F5F5F5F5F5F5F5F5F5F5F5F5F5F5F5F5F5F5F5F5F5F5F5F5F5F5F5F5F5F5F5F5F5F5F5F5F5F5F5F5F5F5F5F5F5F5F5F5F5F5F5F5F5F5
310
F5F5F5F5F5F5F5F5F5F5F5F5F5F5F5F5F5F5F5F5F5F5F5F5F5F5F5F5F5F5F5F5F5F5F5F5F5F5F5F5F5F5F5F5F5F5F5F5F5F5F5E2F5F5F5F5F5F5F5F5F5F5F5F5F5F5F5F5F5F5F5F5E2E2EFF5F5F5F5F5F5F5F5F5F5F5F5F5F5F5F5F5F5F5F5E2F5F5F5F5F5F5F5F5F5F5F5F5F5F5F5F5F5F5F5F5F5F5F5F5F5F5F5F5F5F5F5
310
F5F5F5F5F5F5F5F5F5F5F5F5F5F5F5F5F5F5F5F5F5F5F5F5F5F5F5F5F5F5F5F5F5F5F5F5F5F5F5F5F5F5F5F5F5F5F5F5F5F5F5F5F5F5F5F5F5F5F5F5F5F5F5F5F5F5F5F5F5F5F5F5F5F5F5F5F5F5F5F5F5F5F5F5F5F5F5F5F5F5F5F5F5F5F5F5F5F5F5F5F5F5F5F5E2F5F5F5F5F5F5F5F5F5F5F5F5F5F5F5F5F5F5F5F5E2E2
310
EFF5F5F5F5F5F5F5F5F5F5F5F5F5F5F5F5F5F5F5F5E2F5F5F5F5F5F5F5F5F5F5F5F5F5F5F5F5F5F5F5F5F5F5F5F5F5F5F5F5F5F5F5F5F5F5F5F5F5F5F5F5F5F5F5F5F5F5F5F5F5F5F5F5F5F5F5F5F5F5F5F5F5F5F5F5F5F5F5F5F5F5F5F5F5F5F5F5F5F5F5F5F5F5F5F5F5F5F5F5F5F5F5F5F5F5F5F5F5F5F5F5F5F5F5F5F5
310
F5F5F5F5F5F5F5F5F5F5F5F5F5F5F5F5F5F5F5F5F5F5F5F5F5F5F5F5F5F5E2F5F5F5F5F5F5F5F5F5F5F5F5F5F5F5F5F5F5F5F5E2E2EFF5F5F5F5F5F5F5F5F5F5F5F5F5F5F5F5F5F5F5F5E2F5F5F5F5F5F5F5F5F5F5F5F5F5F5F5F5F5F5F5F5F5F5F5F5F5F5F5F5F5F5F5F5F5F5F5F5F5F5F5F5F5F5F5F5F5F5F5F5F5F5F5F5
310
F5F5F5F5F5F5F5F5F5F5F5F5F5F5F5F5F5F5F5F5F5F5F5F5F5F5F5F5F5F5F5F5F5F5F5F5F5F5F5F5F5F5F5F5F5F5F5F5F5F5F5F5F5F5F5F5F5F5F5F5F5F5F5F5F5F5F5F5F5F5F5F5F5F5F5F5F5F5F5F5F5F5F5E2F5F5F5F5F5F5F5F5F5F5F5F5F5F5F5F5F5F5F5F5E2E2EFF5F5F5F5F5F5F5F5F5F5F5F5F5F5F5F5F5F5F5F5
310
E2F5F5F5F5F5F5F5F5F5F5F5F5F5F5F5F5F5F5F5F5F5F5F5F5F5F5F5F5F5F5F5F5F5F5F5F5F5F5F5F5F5F5F5F5F5F5F5F5F5F5F5F5F5F5F5F5F5F5F5F5F5F5F5F5F5F5F5F5F5F5F5F5F5F5F5F5F5F5F5F5F5F5F5F5F5F5F5F5F5F5F5F5F5F5F5F5F5F5F5F5F5F5F5F5F5F5F5F5F5F5F5F5F5F5F5F5F5F5F5F5F5F5F5F5F5F5
310
F5F5F5F5F5F5F5F5F5E2F5F5F5F5F5F5F5F5F5F5F5F5F5F5F5F5F5F5F5F5E2E2EFF5F5F5E2F5F5F5F5F5F5F5F5F5F5F5F5F5F5F5F5E2F5F5F5F5F5F5F5F5F5F5F5F5F5F5F5F5F5F5F5F5F5F5F5F5F5F5F5F5F5F5F5F5F5F5F5F5F5F5F5F5F5F5F5F5F5F5F5F5F5F5F5F5F5F5F5F5F5F5F5F5F5F5F5F5F5F5F5F5F5F5F5F5F5
310
F5F5F5F5F5F5F5F5F5F5F5F5F5F5F5F5F5F5F5F5F5F5F5F5F5F5F5F5F5F5F5F5F5F5F5F5F5F5F5F5F5F5F5F5F5F5F5F5F5F5F5F5F5F5F5F5F5F5F5F5F5F5E2F5F5F5F5F5F5F5F5F5F5F5F5F5F5F5F5E2F5F5F5E2E2EFF5F5F5E2F5F5F5F5F5F5F5F5F5F5F5F5F5F5F5F5E2F5F5F5F5F5F5F5F5F5F5F5F5F5F5F5F5F5F5F5F5
310
F5F5F5F5F5F5F5F5F5F5F5F5F5F5F5F5F5F5F5F5F5F5F5F5F5F5F5F5F5F5F5F5F5F5F5F5F5F5F5F5F5F5F5F5F5F5F5F5F5F5F5F5F5F5F5F5F5F5F5F5F5F5F5F5F5F5F5F5F5F5F5F5F5F5F5F5F5F5F5F5F5F5F5F5F5F5F5F5F5F5F5F5F5F5F5F5F5F5F5F5F5F5F5F5F5F5F5F5F5F5F5F5F5F5F5E2F5F5F5F5F5F5F5F5F5F5F5
310
F5F5F5F5F5E2F5F5F5E2E2EFF5F5F5E2F5F5F5F5F5F5F5F5F5F5F5F5F5F5F5F5E2F5F5F5F5F5F5F5F5F5F5F5F5F5F5F5F5F5F5F5F5F5F5F5F5F5F5F5F5F5F5F5F5F5F5F5F5F5F5F5F5F5F5F5F5F5F5F5F5F5F5F5F5F5F5F5F5F5F5F5F5F5F5F5F5F5F5F5F5F5F5F5F5F5F5F5F5F5F5F5F5F5F5F5F5F5F5F5F5F5F5F5F5F5F5
310
F5F5F5F5F5F5F5F5F5F5F5F5F5F5F5F5F5F5F5F5F5F5F5F5F5F5F5F5F5F5F5F5F5F5F5F5F5F5F5F5F5E2F5F5F5F5F5F5F5F5F5F5F5F5F5F5F5F5E2F5F5F5E2E2EFF5F5F5E2F5F5F5F5F5F5F5F5F5F5F5F5F5F5F5F5E2F5F5F5F5F5F5F5F5F5F5F5F5F5F5F5F5F5F5F5F5F5F5F5F5F5F5F5F5F5F5F5F5F5F5F5F5F5F5F5F5F5
310
F5F5F5F5F5F5F5F5F5F5F5F5F5F5F5F5F5F5F5F5F5F5F5F5F5F5F5F5F5F5F5F5F5F5F5F5F5F5F5F5F5F5F5F5F5F5F5F5F5F5F5F5F5F5F5F5F5F5F5F5F5F5F5F5F5F5F5F5F5F5F5F5F5F5F5F5F5F5F5F5F5F5F5F5F5F5F5F5F5F5F5F5F5F5E2F5F5F5F5F5F5F5F5F5F5F5F5F5F5F5F5E2F5F5F5E2E2EFF5F5F5E2F5F5F5F5F5
310
F5F5F5F5F5F5F5F5F5F5F5E2F5F5F5F5F5F5F5F5F5F5F5F5F5F5F5F5F5F5F5F5F5F5F5F5F5F5F5F5F5F5F5F5F5F5F5F5F5F5F5F5F5F5F5F5F5F5F5F5F5F5F5F5F5F5F5F5F5F5F5F5F5F5F5F5F5F5F5F5F5F5F5F5F5F5F5F5F5F5F5F5F5F5F5F5F5F5F5F5F5F5F5F5F5F5F5F5F5F5F5F5F5F5F5F5F5F5F5F5F5F5F5F5F5F5F5
310
F5F5F5F5F5F5F5F5F5F5F5F5F5F5F5F5F5F5F5F5E2F5F5F5F5F5F5F5F5F5F5F5F5F5F5F5F5E2F5F5F5E2E2EFF5F5F5E2F5F5F5F5F5F5F5F5F5F5F5F5F5F5F5F5E2F5F5F5F5F5F5F5F5F5F5F5F5F5F5F5F5F5F5F5F5F5F5F5F5F5F5F5F5F5F5F5F5F5F5F5F5F5F5F5F5F5F5F5F5F5F5F5F5F5F5F5F5F5F5F5F5F5F5F5F5F5F5
310
F5F5F5F5F5F5F5F5F5F5F5F5F5F5F5F5F5F5F5F5F5F5F5F5F5F5F5F5F5F5F5F5F5F5F5F5F5F5F5F5F5F5F5F5F5F5F5F5F5F5F5F5F5F5F5F5F5F5F5F5F5F5F5F5F5F5F5F5F5F5F5F5F5E2F5F5F5F5F5F5F5F5F5F5F5F5F5F5F5F5E2F5F5F5E2E2EFF5F5F5E2F5F5F5F5F5F5F5F5F5F5F5F5F5F5F5F5E2F5F5F5F5F5F5F5F5F5
310
F5F5F5F5F5F5F5F5F5F5F5F5F5F5F5F5F5F5F5F5F5F5F5F5F5F5F5F5F5F5F5F5F5F5F5F5F5F5F5F5F5F5F5F5F5F5F5F5F5F5F5F5F5F5F5F5F5F5F5F5F5F5F5F5F5F5F5F5F5F5F5F5F5F5F5F5F5F5F5F5F5F5F5F5F5F5F5F5F5F5F5F5F5F5F5F5F5F5F5F5F5F5F5F5F5F5F5F5F5F5F5F5F5F5F5F5F5F5F5F5F5F5F5F5F5F5E2
310
F5F5F5F5F5F5F5F5F5F5F5F5F5F5F5F5E2F5F5F5E2E2EFF5F5F5E2F5F5F5F5F5F5F5F5F5F5F5F5F5F5F5F5E2F5F5F5F5F5F5F5F5F5F5F5F5F5F5F5F5F5F5F5F5F5F5F5F5F5F5F5F5F5F5F5F5F5F5F5F5F5F5F5F5F5F5F5F5F5F5F5F5F5F5F5F5F5F5F5F5F5F5F5F5F5F5F5F5F5F5F5F5F5F5F5F5F5F5F5F5F5F5F5F5F5F5F5
310
F5F5F5F5F5F5F5F5F5F5F5F5F5F5F5F5F5F5F5F5F5F5F5F5F5F5F5F5F5F5F5F5F5F5F5F5F5F5F5F5F5F5F5F5F5F5F5F5F5F5F5F5E2F5F5F5F5F5F5F5F5F5F5F5F5F5F5F5F5E2F5F5F5E2E2EFF5F5F5E2F5F5F5F5F5F5F5F5F5F5F5F5F5F5F5F5E2F5F5F5F5F5F5F5F5F5F5F5F5F5F5F5F5F5F5F5F5F5F5F5F5F5F5F5F5F5F5
310
F5F5F5F5F5F5F5F5F5F5F5F5F5F5F5F5F5F5F5F5F5F5F5F5F5F5F5F5F5F5F5F5F5F5F5F5F5F5F5F5F5F5F5F5F5F5F5F5F5F5F5F5F5F5F5F5F5F5F5F5F5F5F5F5F5F5F5F5F5F5F5F5F5F5F5F5F5F5F5F5F5F5F5F5F5F5F5F5F5F5F5F5F5F5F5F5F5F5F5F5F5F5F5F5F5E2F5F5F5F5F5F5F5F5F5F5F5F5F5F5F5F5E2F5F5F5E2
310
E2EFF5F5F5E2F5F5F5F5F5F5F5F5F5F5F5F5F5F5F5F5E2F5F5F5F5F5F5F5F5F5F5F5F5F5F5F5F5F5F5F5F5F5F5F5F5F5F5F5F5F5F5F5F5F5F5F5F5F5F5F5F5F5F5F5F5F5F5F5F5F5F5F5F5F5F5F5F5F5F5F5F5F5F5F5F5F5F5F5F5F5F5F5F5F5F5F5F5F5F5F5F5F5F5F5F5F5F5F5F5F5F5F5F5F5F5F5F5F5F5F5F5F5F5F5F5
310
F5F5F5F5F5F5F5F5F5F5F5F5F5F5F5F5F5F5F5F5F5F5F5F5F5F5F5F5F5F5F5E2F5F5F5F5F5F5F5F5F5F5F5F5F5F5F5F5E2F5F5F5E2E2EFF5F5F5E2F5F5F5F5F5F5F5F5F5F5F5F5F5F5F5F5E2F5F5F5F5F5F5F5F5F5F5F5F5F5F5F5F5F5F5F5F5F5F5F5F5F5F5F5F5F5F5F5F5F5F5F5F5F5F5F5F5F5F5F5F5F5F5F5F5F5F5F5
310
F5F5F5F5F5F5F5F5F5F5F5F5F5F5F5F5F5F5F5F5F5F5F5F5F5F5F5F5F5F5F5F5F5F5F5F5F5F5F5F5F5F5F5F5F5F5F5F5F5F5F5F5F5F5F5F5F5F5F5F5F5F5F5F5F5F5F5F5F5F5F5F5F5F5F5F5F5F5F5F5F5F5F5F5E2F5F5F5F5F5F5F5F5F5F5F5F5F5F5F5F5E2F5F5F5E2E2EFF5F5F5E2F5F5F5F5F5F5F5F5F5F5F5F5F5F5F5
310
F5E2F5F5F5F5F5F5F5F5F5F5F5F5F5F5F5F5F5F5F5F5F5F5F5F5F5F5F5F5F5F5F5F5F5F5F5F5F5F5F5F5F5F5F5F5F5F5F5F5F5F5F5F5F5F5F5F5F5F5F5F5F5F5F5F5F5F5F5F5F5F5F5F5F5F5F5F5F5F5F5F5F5F5F5F5F5F5F5F5F5F5F5F5F5F5F5F5F5F5F5F5F5F5F5F5F5F5F5F5F5F5F5F5F5F5F5F5F5F5F5F5F5F5F5F5F5
310
F5F5F5F5F5F5F5F5F5F5E2F5F5F5F5F5F5F5F5F5F5F5F5F5F5F5F5E2F5F5F5E2E2EFF5F5F5E2F5F5F5F5F5F5F5F5F5F5F5F5F5F5F5F5E2F5F5F5F5F5F5F5F5F5F5F5F5F5F5F5F5F5F5F5F5F5F5F5F5F5F5F5F5F5F5F5F5F5F5F5F5F5F5F5F5F5F5F5F5F5F5F5F5F5F5F5F5F5F5F5F5F5F5F5F5F5F5F5F5F5F5F5F5F5F5F5F5
310
F5F5F5F5F5F5F5F5F5F5F5F5F5F5F5F5F5F5F5F5F5F5F5F5F5F5F5F5F5F5F5F5F5F5F5F5F5F5F5F5F5F5F5F5F5F5F5F5F5F5F5F5F5F5F5F5F5F5F5F5F5F5F5E2F5F5F5F5F5F5F5F5F5F5F5F5F5F5F5F5E2F5F5F5E2E2EFF5F5F5E2F5F5F5F5F5F5F5F5F5F5F5F5F5F5F5F5E2F5F5F5F5F5F5F5F5F5F5F5F5F5F5F5F5F5F5F5
310
F5F5F5F5F5F5F5F5F5F5F5F5F5F5F5F5F5F5F5F5F5F5F5F5F5F5F5F5F5F5F5F5F5F5F5F5F5F5F5F5F5F5F5F5F5F5F5F5F5F5F5F5F5F5F5F5F5F5F5F5F5F5F5F5F5F5F5F5F5F5F5F5F5F5F5F5F5F5F5F5F5F5F5F5F5F5F5F5F5F5F5F5F5F5F5F5F5F5F5F5F5F5F5F5F5F5F5F5F5F5F5F5F5F5F5F5E2F5F5F5F5F5F5F5F5F5F5
310
F5F5F5F5F5F5E2F5F5F5E2E2EFF5F5F5E2F5F5F5F5F5F5F5F5F5F5F5F5F5F5F5F5E2F5F5F5F5F5F5F5F5F5F5F5F5F5F5F5F5F5F5F5F5F5F5F5F5F5F5F5F5F5F5F5F5F5F5F5F5F5F5F5F5F5F5F5F5F5F5F5F5F5F5F5F5F5F5F5F5F5F5F5F5F5F5F5F5F5F5F5F5F5F5F5F5F5F5F5F5F5F5F5F5F5F5F5F5F5F5F5F5F5F5F5F5F5
310
F5F5F5F5F5F5F5F5F5F5F5F5F5F5F5F5F5F5F5F5F5F5F5F5F5F5F5F5F5F5F5F5F5F5F5F5F5F5F5F5F5F5E2F5F5F5F5F5F5F5F5F5F5F5F5F5F5F5F5E2F5F5F5E2E2EFF5F5F5E2F5F5F5F5F5F5F5F5F5F5F5F5F5F5F5F5E2F5F5F5F5F5F5F5F5F5F5F5F5F5F5F5F5F5F5F5F5F5F5F5F5F5F5F5F5F5F5F5F5F5F5F5F5F5F5F5F5
310
F5F5F5F5F5F5F5F5F5F5F5F5F5F5F5F5F5F5F5F5F5F5F5F5F5F5F5F5F5F5F5F5F5F5F5F5F5F5F5F5F5F5F5F5F5F5F5F5F5F5F5F5F5F5F5F5F5F5F5F5F5F5F5F5F5F5F5F5F5F5F5F5F5F5F5F5F5F5F5F5F5F5F5F5F5F5F5F5F5F5F5F5F5F5F5E2F5F5F5F5F5F5F5F5F5F5F5F5F5F5F5F5E2F5F5F5E2E2EFF5F5F5E2F5F5F5F5
310
F5F5F5F5F5F5F5F5F5F5F5F5E2F5F5F5F5F5F5F5F5F5F5F5F5F5F5F5F5F5F5F5F5F5F5F5F5F5F5F5F5F5F5F5F5F5F5F5F5F5F5F5F5F5F5F5F5F5F5F5F5F5F5F5F5F5F5F5F5F5F5F5F5F5F5F5F5F5F5F5F5F5F5F5F5F5F5F5F5F5F5F5F5F5F5F5F5F5F5F5F5F5F5F5F5F5F5F5F5F5F5F5F5F5F5F5F5F5F5F5F5F5F5F5F5F5F5
310
F5F5F5F5F5F5F5F5F5F5F5F5F5F5F5F5F5F5F5F5F5E2F5F5F5F5F5F5F5F5F5F5F5F5F5F5F5F5E2F5F5F5E2E2EFF5F5F5F5F5F5F5F5F5F5F5F5F5F5F5F5F5F5F5F5E2F5F5F5F5F5F5F5F5F5F5F5F5F5F5F5F5F5F5F5F5F5F5F5F5F5F5F5F5F5F5F5F5F5F5F5F5F5F5F5F5F5F5F5F5F5F5F5F5F5F5F5F5F5F5F5F5F5F5F5F5F5
310
F5F5F5F5F5F5F5F5F5F5F5F5F5F5F5F5F5F5F5F5F5F5F5F5F5F5F5F5F5F5F5F5F5F5F5F5F5F5F5F5F5F5F5F5F5F5F5F5F5F5F5F5F5F5F5F5F5F5F5F5F5F5F5F5F5F5F5F5F5F5F5F5F5F5E2F5F5F5F5F5F5F5F5F5F5F5F5F5F5F5F5F5F5F5F5E2E2EFF5F5F5F5F5F5F5F5F5F5F5F5F5F5F5F5F5F5F5F5E2F5F5F5F5F5F5F5F5
310
F5F5F5F5F5F5F5F5F5F5F5F5F5F5F5F5F5F5F5F5F5F5F5F5F5F5F5F5F5F5F5F5F5F5F5F5F5F5F5F5F5F5F5F5F5F5F5F5F5F5F5F5F5F5F5F5F5F5F5F5F5F5F5F5F5F5F5F5F5F5F5F5F5F5F5F5F5F5F5F5F5F5F5F5F5F5F5F5F5F5F5F5F5F5F5F5F5F5F5F5F5F5F5F5F5F5F5F5F5F5F5F5F5F5F5F5F5F5F5F5F5F5F5F5F5F5F5
310
E2F5F5F5F5F5F5F5F5F5F5F5F5F5F5F5F5F5F5F5F5E2E2EFF5F5F5F5F5F5F5F5F5F5F5F5F5F5F5F5F5F5F5F5E2F5F5F5F5F5F5F5F5F5F5F5F5F5F5F5F5F5F5F5F5F5F5F5F5F5F5F5F5F5F5F5F5F5F5F5F5F5F5F5F5F5F5F5F5F5F5F5F5F5F5F5F5F5F5F5F5F5F5F5F5F5F5F5F5F5F5F5F5F5F5F5F5F5F5F5F5F5F5F5F5F5F5
310
F5F5F5F5F5F5F5F5F5F5F5F5F5F5F5F5F5F5F5F5F5F5F5F5F5F5F5F5F5F5F5F5F5F5F5F5F5F5F5F5F5F5F5F5F5F5F5F5F5F5F5F5F5E2F5F5F5F5F5F5F5F5F5F5F5F5F5F5F5F5F5F5F5F5E2E2EFF5F5F5F5F5F5F5F5F5F5F5F5F5F5F5F5F5F5F5F5E2F5F5F5F5F5F5F5F5F5F5F5F5F5F5F5F5F5F5F5F5F5F5F5F5F5F5F5F5F5
310
F5F5F5F5F5F5F5F5F5F5F5F5F5F5F5F5F5F5F5F5F5F5F5F5F5F5F5F5F5F5F5F5F5F5F5F5F5F5F5F5F5F5F5F5F5F5F5F5F5F5F5F5F5F5F5F5F5F5F5F5F5F5F5F5F5F5F5F5F5F5F5F5F5F5F5F5F5F5F5F5F5F5F5F5F5F5F5F5F5F5F5F5F5F5F5F5F5F5F5F5F5F5F5F5F5F5E2F5F5F5F5F5F5F5F5F5F5F5F5F5F5F5F5F5F5F5F5
310
E2E2EFF5F5F5F5F5F5F5F5F5F5F5F5F5F5F5F5F5F5F5F5E2F5F5F5F5F5F5F5F5F5F5F5F5F5F5F5F5F5F5F5F5F5F5F5F5F5F5F5F5F5F5F5F5F5F5F5F5F5F5F5F5F5F5F5F5F5F5F5F5F5F5F5F5F5F5F5F5F5F5F5F5F5F5F5F5F5F5F5F5F5F5F5F5F5F5F5F5F5F5F5F5F5F5F5F5F5F5F5F5F5F5F5F5F5F5F5F5F5F5F5F5F5F5F5
310
F5F5F5F5F5F5F5F5F5F5F5F5F5F5F5F5F5F5F5F5F5F5F5F5F5F5F5F5F5F5F5F5E2F5F5F5F5F5F5F5F5F5F5F5F5F5F5F5F5F5F5F5F5E2E2EFF5F5F5F5F5F5F5F5F5F5F5F5F5F5F5F5F5F5F5F5E2F5F5F5F5F5F5F5F5F5F5F5F5F5F5F5F5F5F5F5F5F5F5F5F5F5F5F5F5F5F5F5F5F5F5F5F5F5F5F5F5F5F5F5F5F5F5F5F5F5F5
310
F5F5F5F5F5F5F5F5F5F5F5F5F5F5F5F5F5F5F5F5F5F5F5F5F5F5F5F5F5F5F5F5F5F5F5F5F5F5F5F5F5F5F5F5F5F5F5F5F5F5F5F5F5F5F5F5F5F5F5F5F5F5F5F5F5F5F5F5F5F5F5F5F5F5F5F5F5F5F5F5F5F5F5F5F5E2F5F5F5F5F5F5F5F5F5F5F5F5F5F5F5F5F5F5F5F5E2E2EFF5F5F5F5F5F5F5F5F5F5F5F5F5F5F5F5F5F5
310
F5F5E2F5F5F5F5F5F5F5F5F5F5F5F5F5F5F5F5F5F5F5F5F5F5F5F5F5F5F5F5F5F5F5F5F5F5F5F5F5F5F5F5F5F5F5F5F5F5F5F5F5F5F5F5F5F5F5F5F5F5F5F5F5F5F5F5F5F5F5F5F5F5F5F5F5F5F5F5F5F5F5F5F5F5F5F5F5F5F5F5F5F5F5F5F5F5F5F5F5F5F5F5F5F5F5F5F5F5F5F5F5F5F5F5F5F5F5F5F5F5F5F5F5F5F5F5
310
F5F5F5F5F5F5F5F5F5F5F5E2F5F5F5F5F5F5F5F5F5F5F5F5F5F5F5F5F5F5F5F5E2E2EFF5F5F5F5F5F5F5F5F5F5F5F5F5F5F5F5F5F5F5F5E2F5F5F5F5F5F5F5F5F5F5F5F5F5F5F5F5F5F5F5F5F5F5F5F5F5F5F5F5F5F5F5F5F5F5F5F5F5F5F5F5F5F5F5F5F5F5F5F5F5F5F5F5F5F5F5F5F5F5F5F5F5F5F5F5F5F5F5F5F5F5F5
310
F5F5F5F5F5F5F5F5F5F5F5F5F5F5F5F5F5F5F5F5F5F5F5F5F5F5F5F5F5F5F5F5F5F5F5F5F5F5F5F5F5F5F5F5F5F5F5F5F5F5F5F5F5F5F5F5F5F5F5F5F5F5F5F5E2F5F5F5F5F5F5F5F5F5F5F5F5F5F5F5F5F5F5F5F5E2E2EFF5F5F5F5F5F5F5F5F5F5F5F5F5F5F5F5F5F5F5F5E2F5F5F5F5F5F5F5F5F5F5F5F5F5F5F5F5F5F5
310
F5F5F5F5F5F5F5F5F5F5F5F5F5F5F5F5F5F5F5F5F5F5F5F5F5F5F5F5F5F5F5F5F5F5F5F5F5F5F5F5F5F5F5F5F5F5F5F5F5F5F5F5F5F5F5F5F5F5F5F5F5F5F5F5F5F5F5F5F5F5F5F5F5F5F5F5F5F5F5F5F5F5F5F5F5F5F5F5F5F5F5F5F5F5F5F5F5F5F5F5F5F5F5F5F5F5F5F5F5F5F5F5F5F5F5F5F5E2F5F5F5F5F5F5F5F5F5
310
F5F5F5F5F5F5F5F5F5F5F5E2E2EFF5F5F5E2F5F5F5F5F5F5F5F5F5F5F5F5F5F5F5F5E2F5F5F5F5F5F5F5F5F5F5F5F5F5F5F5F5F5F5F5F5F5F5F5F5F5F5F5F5F5F5F5F5F5F5F5F5F5F5F5F5F5F5F5F5F5F5F5F5F5F5F5F5F5F5F5F5F5F5F5F5F5F5F5F5F5F5F5F5F5F5F5F5F5F5F5F5F5F5F5F5F5F5F5F5F5F5F5F5F5F5F5F5
310
F5F5F5F5F5F5F5F5F5F5F5F5F5F5F5F5F5F5F5F5F5F5F5F5F5F5F5F5F5F5F5F5F5F5F5F5F5F5F5F5F5F5F5E2F5F5F5F5F5F5F5F5F5F5F5F5F5F5F5F5E2F5F5F5E2E2EFF5F5F5E2F5F5F5F5F5F5F5F5F5F5F5F5F5F5F5F5E2F5F5F5F5F5F5F5F5F5F5F5F5F5F5F5F5F5F5F5F5F5F5F5F5F5F5F5F5F5F5F5F5F5F5F5F5F5F5F5
310
F5F5F5F5F5F5F5F5F5F5F5F5F5F5F5F5F5F5F5F5F5F5F5F5F5F5F5F5F5F5F5F5F5F5F5F5F5F5F5F5F5F5F5F5F5F5F5F5F5F5F5F5F5F5F5F5F5F5F5F5F5F5F5F5F5F5F5F5F5F5F5F5F5F5F5F5F5F5F5F5F5F5F5F5F5F5F5F5F5F5F5F5F5F5F5F5E2F5F5F5F5F5F5F5F5F5F5F5F5F5F5F5F5E2F5F5F5E2E2EFF5F5F5E2F5F5F5
310
F5F5F5F5F5F5F5F5F5F5F5F5F5E2F5F5F5F5F5F5F5F5F5F5F5F5F5F5F5F5F5F5F5F5F5F5F5F5F5F5F5F5F5F5F5F5F5F5F5F5F5F5F5F5F5F5F5F5F5F5F5F5F5F5F5F5F5F5F5F5F5F5F5F5F5F5F5F5F5F5F5F5F5F5F5F5F5F5F5F5F5F5F5F5F5F5F5F5F5F5F5F5F5F5F5F5F5F5F5F5F5F5F5F5F5F5F5F5F5F5F5F5F5F5F5F5F5
310
F5F5F5F5F5F5F5F5F5F5F5F5F5F5F5F5F5F5F5F5F5F5E2F5F5F5F5F5F5F5F5F5F5F5F5F5F5F5F5E2F5F5F5E2E2EFF5F5F5E2F5F5F5F5F5F5F5F5F5F5F5F5F5F5F5F5E2F5F5F5F5F5F5F5F5F5F5F5F5F5F5F5F5F5F5F5F5F5F5F5F5F5F5F5F5F5F5F5F5F5F5F5F5F5F5F5F5F5F5F5F5F5F5F5F5F5F5F5F5F5F5F5F5F5F5F5F5
310
F5F5F5F5F5F5F5F5F5F5F5F5F5F5F5F5F5F5F5F5F5F5F5F5F5F5F5F5F5F5F5F5F5F5F5F5F5F5F5F5F5F5F5F5F5F5F5F5F5F5F5F5F5F5F5F5F5F5F5F5F5F5F5F5F5F5F5F5F5F5F5F5F5F5F5E2F5F5F5F5F5F5F5F5F5F5F5F5F5F5F5F5E2F5F5F5E2E2EFF5F5F5E2F5F5F5F5F5F5F5F5F5F5F5F5F5F5F5F5E2F5F5F5F5F5F5F5
310
F5F5F5F5F5F5F5F5F5F5F5F5F5F5F5F5F5F5F5F5F5F5F5F5F5F5F5F5F5F5F5F5F5F5F5F5F5F5F5F5F5F5F5F5F5F5F5F5F5F5F5F5F5F5F5F5F5F5F5F5F5F5F5F5F5F5F5F5F5F5F5F5F5F5F5F5F5F5F5F5F5F5F5F5F5F5F5F5F5F5F5F5F5F5F5F5F5F5F5F5F5F5F5F5F5F5F5F5F5F5F5F5F5F5F5F5F5F5F5F5F5F5F5F5F5F5F5
310
F5E2F5F5F5F5F5F5F5F5F5F5F5F5F5F5F5F5E2F5F5F5E2E2EFF5F5F5E2F5F5F5F5F5F5F5F5F5F5F5F5F5F5F5F5E2F5F5F5F5F5F5F5F5F5F5F5F5F5F5F5F5F5F5F5F5F5F5F5F5F5F5F5F5F5F5F5F5F5F5F5F5F5F5F5F5F5F5F5F5F5F5F5F5F5F5F5F5F5F5F5F5F5F5F5F5F5F5F5F5F5F5F5F5F5F5F5F5F5F5F5F5F5F5F5F5F5
310
F5F5F5F5F5F5F5F5F5F5F5F5F5F5F5F5F5F5F5F5F5F5F5F5F5F5F5F5F5F5F5F5F5F5F5F5F5F5F5F5F5F5F5F5F5F5F5F5F5F5F5F5F5F5E2F5F5F5F5F5F5F5F5F5F5F5F5F5F5F5F5E2F5F5F5E2E2EFF5F5F5E2F5F5F5F5F5F5F5F5F5F5F5F5F5F5F5F5E2F5F5F5F5F5F5F5F5F5F5F5F5F5F5F5F5F5F5F5F5F5F5F5F5F5F5F5F5
310
F5F5F5F5F5F5F5F5F5F5F5F5F5F5F5F5F5F5F5F5F5F5F5F5F5F5F5F5F5F5F5F5F5F5F5F5F5F5F5F5F5F5F5F5F5F5F5F5F5F5F5F5F5F5F5F5F5F5F5F5F5F5F5F5F5F5F5F5F5F5F5F5F5F5F5F5F5F5F5F5F5F5F5F5F5F5F5F5F5F5F5F5F5F5F5F5F5F5F5F5F5F5F5F5F5F5F5E2F5F5F5F5F5F5F5F5F5F5F5F5F5F5F5F5E2F5F5
310
F5E2E2EFF5F5F5E2F5F5F5F5F5F5F5F5F5F5F5F5F5F5F5F5E2F5F5F5F5F5F5F5F5F5F5F5F5F5F5F5F5F5F5F5F5F5F5F5F5F5F5F5F5F5F5F5F5F5F5F5F5F5F5F5F5F5F5F5F5F5F5F5F5F5F5F5F5F5F5F5F5F5F5F5F5F5F5F5F5F5F5F5F5F5F5F5F5F5F5F5F5F5F5F5F5F5F5F5F5F5F5F5F5F5F5F5F5F5F5F5F5F5F5F5F5F5F5
310
F5F5F5F5F5F5F5F5F5F5F5F5F5F5F5F5F5F5F5F5F5F5F5F5F5F5F5F5F5F5F5F5F5E2F5F5F5F5F5F5F5F5F5F5F5F5F5F5F5F5E2F5F5F5E2E2EFF5F5F5E2F5F5F5F5F5F5F5F5F5F5F5F5F5F5F5F5E2F5F5F5F5F5F5F5F5F5F5F5F5F5F5F5F5F5F5F5F5F5F5F5F5F5F5F5F5F5F5F5F5F5F5F5F5F5F5F5F5F5F5F5F5F5F5F5F5F5
310
F5F5F5F5F5F5F5F5F5F5F5F5F5F5F5F5F5F5F5F5F5F5F5F5F5F5F5F5F5F5F5F5F5F5F5F5F5F5F5F5F5F5F5F5F5F5F5F5F5F5F5F5F5F5F5F5F5F5F5F5F5F5F5F5F5F5F5F5F5F5F5F5F5F5F5F5F5F5F5F5F5F5F5F5F5F5E2F5F5F5F5F5F5F5F5F5F5F5F5F5F5F5F5E2F5F5F5E2E2EFF5F5F5E2F5F5F5F5F5F5F5F5F5F5F5F5F5
310
F5F5F5E2F5F5F5F5F5F5F5F5F5F5F5F5F5F5F5F5F5F5F5F5F5F5F5F5F5F5F5F5F5F5F5F5F5F5F5F5F5F5F5F5F5F5F5F5F5F5F5F5F5F5F5F5F5F5F5F5F5F5F5F5F5F5F5F5F5F5F5F5F5F5F5F5F5F5F5F5F5F5F5F5F5F5F5F5F5F5F5F5F5F5F5F5F5F5F5F5F5F5F5F5F5F5F5F5F5F5F5F5F5F5F5F5F5F5F5F5F5F5F5F5F5F5F5
310
F5F5F5F5F5F5F5F5F5F5F5F5E2F5F5F5F5F5F5F5F5F5F5F5F5F5F5F5F5E2F5F5F5E2E2EFF5F5F5E2F5F5F5F5F5F5F5F5F5F5F5F5F5F5F5F5E2F5F5F5F5F5F5F5F5F5F5F5F5F5F5F5F5F5F5F5F5F5F5F5F5F5F5F5F5F5F5F5F5F5F5F5F5F5F5F5F5F5F5F5F5F5F5F5F5F5F5F5F5F5F5F5F5F5F5F5F5F5F5F5F5F5F5F5F5F5F5
310
F5F5F5F5F5F5F5F5F5F5F5F5F5F5F5F5F5F5F5F5F5F5F5F5F5F5F5F5F5F5F5F5F5F5F5F5F5F5F5F5F5F5F5F5F5F5F5F5F5F5F5F5F5F5F5F5F5F5F5F5F5F5F5F5F5E2F5F5F5F5F5F5F5F5F5F5F5F5F5F5F5F5E2F5F5F5E2E2EFF5F5F5E2F5F5F5F5F5F5F5F5F5F5F5F5F5F5F5F5E2F5F5F5F5F5F5F5F5F5F5F5F5F5F5F5F5F5
310
F5F5F5F5F5F5F5F5F5F5F5F5F5F5F5F5F5F5F5F5F5F5F5F5F5F5F5F5F5F5F5F5F5F5F5F5F5F5F5F5F5F5F5F5F5F5F5F5F5F5F5F5F5F5F5F5F5F5F5F5F5F5F5F5F5F5F5F5F5F5F5F5F5F5F5F5F5F5F5F5F5F5F5F5F5F5F5F5F5F5F5F5F5F5F5F5F5F5F5F5F5F5F5F5F5F5F5F5F5F5F5F5F5F5F5F5F5F5E2F5F5F5F5F5F5F5F5
310
F5F5F5F5F5F5F5F5E2F5F5F5E2E2EFF5F5F5E2F5F5F5F5F5F5F5F5F5F5F5F5F5F5F5F5E2F5F5F5F5F5F5F5F5F5F5F5F5F5F5F5F5F5F5F5F5F5F5F5F5F5F5F5F5F5F5F5F5F5F5F5F5F5F5F5F5F5F5F5F5F5F5F5F5F5F5F5F5F5F5F5F5F5F5F5F5F5F5F5F5F5F5F5F5F5F5F5F5F5F5F5F5F5F5F5F5F5F5F5F5F5F5F5F5F5F5F5
310
F5F5F5F5F5F5F5F5F5F5F5F5F5F5F5F5F5F5F5F5F5F5F5F5F5F5F5F5F5F5F5F5F5F5F5F5F5F5F5F5F5F5F5F5E2F5F5F5F5F5F5F5F5F5F5F5F5F5F5F5F5E2F5F5F5E2E2EFF5F5F5E2F5F5F5F5F5F5F5F5F5F5F5F5F5F5F5F5E2F5F5F5F5F5F5F5F5F5F5F5F5F5F5F5F5F5F5F5F5F5F5F5F5F5F5F5F5F5F5F5F5F5F5F5F5F5F5
310
F5F5F5F5F5F5F5F5F5F5F5F5F5F5F5F5F5F5F5F5F5F5F5F5F5F5F5F5F5F5F5F5F5F5F5F5F5F5F5F5F5F5F5F5F5F5F5F5F5F5F5F5F5F5F5F5F5F5F5F5F5F5F5F5F5F5F5F5F5F5F5F5F5F5F5F5F5F5F5F5F5F5F5F5F5F5F5F5F5F5F5F5F5F5F5F5F5E2F5F5F5F5F5F5F5F5F5F5F5F5F5F5F5F5E2F5F5F5E2E2EFF5F5F5E2F5F5
310
F5F5F5F5F5F5F5F5F5F5F5F5F5F5E2F5F5F5F5F5F5F5F5F5F5F5F5F5F5F5F5F5F5F5F5F5F5F5F5F5F5F5F5F5F5F5F5F5F5F5F5F5F5F5F5F5F5F5F5F5F5F5F5F5F5F5F5F5F5F5F5F5F5F5F5F5F5F5F5F5F5F5F5F5F5F5F5F5F5F5F5F5F5F5F5F5F5F5F5F5F5F5F5F5F5F5F5F5F5F5F5F5F5F5F5F5F5F5F5F5F5F5F5F5F5F5F5
310
F5F5F5F5F5F5F5F5F5F5F5F5F5F5F5F5F5F5F5F5F5F5F5E2F5F5F5F5F5F5F5F5F5F5F5F5F5F5F5F5E2F5F5F5E2E2EFF5F5F5E2F5F5F5F5F5F5F5F5F5F5F5F5F5F5F5F5E2F5F5F5F5F5F5F5F5F5F5F5F5F5F5F5F5F5F5F5F5F5F5F5F5F5F5F5F5F5F5F5F5F5F5F5F5F5F5F5F5F5F5F5F5F5F5F5F5F5F5F5F5F5F5F5F5F5F5F5
310
F5F5F5F5F5F5F5F5F5F5F5F5F5F5F5F5F5F5F5F5F5F5F5F5F5F5F5F5F5F5F5F5F5F5F5F5F5F5F5F5F5F5F5F5F5F5F5F5F5F5F5F5F5F5F5F5F5F5F5F5F5F5F5F5F5F5F5F5F5F5F5F5F5F5F5F5E2F5F5F5F5F5F5F5F5F5F5F5F5F5F5F5F5E2F5F5F5E2E2EFF5F5F5E2F5F5F5F5F5F5F5F5F5F5F5F5F5F5F5F5E2F5F5F5F5F5F5
310
F5F5F5F5F5F5F5F5F5F5F5F5F5F5F5F5F5F5F5F5F5F5F5F5F5F5F5F5F5F5F5F5F5F5F5F5F5F5F5F5F5F5F5F5F5F5F5F5F5F5F5F5F5F5F5F5F5F5F5F5F5F5F5F5F5F5F5F5F5F5F5F5F5F5F5F5F5F5F5F5F5F5F5F5F5F5F5F5F5F5F5F5F5F5F5F5F5F5F5F5F5F5F5F5F5F5F5F5F5F5F5F5F5F5F5F5F5F5F5F5F5F5F5F5F5F5F5
310
F5F5E2F5F5F5F5F5F5F5F5F5F5F5F5F5F5F5F5E2F5F5F5E2E2EFF5F5F5F5F5F5F5F5F5F5F5F5F5F5F5F5F5F5F5F5E2F5F5F5F5F5F5F5F5F5F5F5F5F5F5F5F5F5F5F5F5F5F5F5F5F5F5F5F5F5F5F5F5F5F5F5F5F5F5F5F5F5F5F5F5F5F5F5F5F5F5F5F5F5F5F5F5F5F5F5F5F5F5F5F5F5F5F5F5F5F5F5F5F5F5F5F5F5F5F5F5
310
F5F5F5F5F5F5F5F5F5F5F5F5F5F5F5F5F5F5F5F5F5F5F5F5F5F5F5F5F5F5F5F5F5F5F5F5F5F5F5F5F5F5F5F5F5F5F5F5F5F5F5F5F5F5F5E2F5F5F5F5F5F5F5F5F5F5F5F5F5F5F5F5F5F5F5F5E2E2EFF5F5F5F5F5F5F5F5F5F5F5F5F5F5F5F5F5F5F5F5E2F5F5F5F5F5F5F5F5F5F5F5F5F5F5F5F5F5F5F5F5F5F5F5F5F5F5F5
310
F5F5F5F5F5F5F5F5F5F5F5F5F5F5F5F5F5F5F5F5F5F5F5F5F5F5F5F5F5F5F5F5F5F5F5F5F5F5F5F5F5F5F5F5F5F5F5F5F5F5F5F5F5F5F5F5F5F5F5F5F5F5F5F5F5F5F5F5F5F5F5F5F5F5F5F5F5F5F5F5F5F5F5F5F5F5F5F5F5F5F5F5F5F5F5F5F5F5F5F5F5F5F5F5F5F5F5F5E2F5F5F5F5F5F5F5F5F5F5F5F5F5F5F5F5F5F5
310
F5F5E2E2EFF5F5F5F5F5F5F5F5F5F5F5F5F5F5F5F5F5F5F5F5E2F5F5F5F5F5F5F5F5F5F5F5F5F5F5F5F5F5F5F5F5F5F5F5F5F5F5F5F5F5F5F5F5F5F5F5F5F5F5F5F5F5F5F5F5F5F5F5F5F5F5F5F5F5F5F5F5F5F5F5F5F5F5F5F5F5F5F5F5F5F5F5F5F5F5F5F5F5F5F5F5F5F5F5F5F5F5F5F5F5F5F5F5F5F5F5F5F5F5F5F5F5
310
F5F5F5F5F5F5F5F5F5F5F5F5F5F5F5F5F5F5F5F5F5F5F5F5F5F5F5F5F5F5F5F5F5F5E2F5F5F5F5F5F5F5F5F5F5F5F5F5F5F5F5F5F5F5F5E2E2EFF5F5F5F5F5F5F5F5F5F5F5F5F5F5F5F5F5F5F5F5E2F5F5F5F5F5F5F5F5F5F5F5F5F5F5F5F5F5F5F5F5F5F5F5F5F5F5F5F5F5F5F5F5F5F5F5F5F5F5F5F5F5F5F5F5F5F5F5F5
310
F5F5F5F5F5F5F5F5F5F5F5F5F5F5F5F5F5F5F5F5F5F5F5F5F5F5F5F5F5F5F5F5F5F5F5F5F5F5F5F5F5F5F5F5F5F5F5F5F5F5F5F5F5F5F5F5F5F5F5F5F5F5F5F5F5F5F5F5F5F5F5F5F5F5F5F5F5F5F5F5F5F5F5F5F5F5F5E2F5F5F5F5F5F5F5F5F5F5F5F5F5F5F5F5F5F5F5F5E2E2EFF5F5F5F5F5F5F5F5F5F5F5F5F5F5F5F5
310
F5F5F5F5E2E2E2E2E2E2E2E2E2E2E2E2E2E2E2E2E2E2E2E2E2E2E2E2E2E2E2E2E2E2E2E2E2E2E2E2E2E2E2E2E2E2E2E2E2E2E2E2E2E2E2E2E2E2E2E2E2E2E2E2E2E2E2E2E2E2E2E2E2E2E2E2E2E2E2E2E2E2E2E2E2E2E2E2E2E2E2E2E2E2E2E2E2E2E2E2E2E2E2E2E2E2E2E2E2E2E2E2E2E2E2E2E2E2E2E2E2E2E2E2E2E2E2
310
E2E2E2E2E2E2E2E2E2E2E2E2E2E2F5F5F5F5F5F5F5F5F5F5F5F5F5F5F5F5F5F5F5F5E2E2EFF5F5F5F5F5F5F5F5F5F5F5F5F5F5F5F5F5F5F5F5F5F5F5F5F5F5F5F5F5F5F5F5F5F5F5F5F5F5F5F5F5F5F5F5F5F5F5F5F5F5F5F5F5F5F5F5F5F5F5F5F5F5F5F5F5F5F5F5F5F5F5F5F5F5F5F5F5F5F5F5F5F5F5F5F5F5F5F5F5F5
310
F5F5F5F5F5F5F5F5F5F5F5F5F5F5F5F5F5F5F5F5F5F5F5F5F5F5F5F5F5F5F5F5F5F5F5F5F5F5F5F5F5F5F5F5F5F5F5F5F5F5F5F5F5F5F5F5F5F5F5F5F5F5F5F5F5F5F5F5F5F5F5F5F5F5F5F5F5F5F5F5F5F5F5F5F5F5F5E2E2EFF5F5F5F5F5F5F5F5F5F5F5F5F5F5F5F5F5F5F5F5F5F5F5F5F5F5F5F5F5F5F5F5F5F5F5F5F5
310
F5F5F5F5F5F5F5F5F5F5F5F5F5F5F5F5F5F5F5F5F5F5F5F5F5F5F5F5F5F5F5F5F5F5F5F5F5F5F5F5F5F5F5F5F5F5F5F5F5F5F5F5F5F5F5F5F5F5F5F5F5F5F5F5F5F5F5F5F5F5F5F5F5F5F5F5F5F5F5F5F5F5F5F5F5F5F5F5F5F5F5F5F5F5F5F5F5F5F5F5F5F5F5F5F5F5F5F5F5F5F5F5F5F5F5F5F5F5F5F5F5F5F5F5F5F5F5
310
F5F5F5F5F5F5F5F5F5F5F5F5F5E2E2EFF5F5F5F5F5F5F5F5F5F5F5F5F5F5F5F5F5F5F5F5F5F5F5F5F5F5F5F5F5F5F5F5F5F5F5F5F5F5F5F5F5F5F5F5F5F5F5F5F5F5F5F5F5F5F5F5F5F5F5F5F5F5F5F5F5F5F5F5F5F5F5F5F5F5F5F5F5F5F5F5F5F5F5F5F5F5F5F5F5F5F5F5F5F5F5F5F5F5F5F5F5F5F5F5F5F5F5F5F5F5F5
310
F5F5F5F5F5F5F5F5F5F5F5F5F5F5F5F5F5F5F5F5F5F5F5F5F5F5F5F5F5F5F5F5F5F5F5F5F5F5F5F5F5F5F5F5F5F5F5F5F5F5F5F5F5F5F5F5F5F5F5F5F5F5F5F5F5F5E2E2EFF5F5F5F5F5F5F5F5F5F5F5F5F5F5F5F5F5F5F5F5F5F5F5F5F5F5F5F5F5F5F5F5F5F5F5F5F5F5F5F5F5F5F5F5F5F5F5F5F5F5F5F5F5F5F5F5F5F5
310
F5F5F5F5F5F5F5F5F5F5F5F5F5F5F5F5F5F5F5F5F5F5F5F5F5F5F5F5F5F5F5F5F5F5F5F5F5F5F5F5F5F5F5F5F5F5F5F5F5F5F5F5F5F5F5F5F5F5F5F5F5F5F5F5F5F5F5F5F5F5F5F5F5F5F5F5F5F5F5F5F5F5F5F5F5F5F5F5F5F5F5F5F5F5F5F5F5F5F5F5F5F5F5F5F5F5F5F5F5F5F5F5F5F5F5F5F5F5F5E2E2EFF5F5F5E2F5
310
F5F5F5F5F5F5F5F5F5F5F5F5F5F5F5F5F5F5F5F5F5F5F5F5F5F5F5F5F5F5F5F5F5F5F5F5F5F5F5F5F5F5F5F5F5F5F5F5F5F5F5F5F5F5F5F5F5F5F5F5F5F5F5F5F5F5F5F5F5F5F5F5F5F5F5F5F5F5F5F5F5F5F5F5F5F5F5F5F5F5F5F5F5F5F5F5F5F5F5F5F5F5F5F5F5F5F5F5F5F5F5F5F5F5F5F5F5F5F5F5F5F5F5F5F5F5F5
310
F5F5F5F5F5F5F5F5F5F5F5F5F5F5F5F5F5F5F5F5F5F5F5F5F5F5F5F5F5F5F5F5F5F5F5F5F5F5F5F5F5E2F5F5F5E2E2EFF5F5F5E2F5F5F5F5F5F5F5F5F5F5F5F5F5F5F5F5F5F5F5F5F5F5F5F5F5F5F5F5F5F5F5F5F5F5F5F5F5F5F5F5F5F5F5F5F5F5F5F5F5F5F5F5F5F5F5F5F5F5F5F5F5F5F5F5F5F5F5F5F5F5F5F5F5F5F5
310
F5F5F5F5F5F5F5F5F5F5F5F5F5F5F5F5F5F5F5F5F5F5F5F5F5F5F5F5F5F5F5F5F5F5F5F5F5F5F5F5F5F5F5F5F5F5F5F5F5F5F5F5F5F5F5F5F5F5F5F5F5F5F5F5F5F5F5F5F5F5F5F5F5F5F5F5F5F5F5F5F5F5F5F5F5F5F5F5F5F5F5F5F5F5E2F5F5F5E2E2EFF5F5F5E2F5F5F5F5F5F5F5F5F5F5F5F5F5F5F5F5F5F5F5F5F5F5
310
F5F5F5F5F5F5F5F5F5F5F5F5F5F5F5F5F5F5F5F5F5F5F5F5F5F5F5F5F5F5F5F5F5F5F5F5F5F5F5F5F5F5F5F5F5F5F5F5F5F5F5F5F5F5F5F5F5F5F5F5F5F5F5F5F5F5F5F5F5F5F5F5F5F5F5F5F5F5F5F5F5F5F5F5F5F5F5F5F5F5F5F5F5F5F5F5F5F5F5F5F5F5F5F5F5F5F5F5F5F5F5F5F5F5F5F5F5F5F5F5F5F5F5F5F5F5F5
310
F5F5F5F5F5F5F5F5F5F5F5F5F5F5F5F5F5F5F5F5E2F5F5F5E2E2EFF5F5F5E2F5F5F5F5F5F5F5F5F5F5F5F5F5F5F5F5F5F5F5F5F5F5F5F5F5F5F5F5F5F5F5F5F5F5F5F5F5F5F5F5F5F5F5F5F5F5F5F5F5F5F5F5F5F5F5F5F5F5F5F5F5F5F5F5F5F5F5F5F5F5F5F5F5F5F5F5F5F5F5F5F5F5F5F5F5F5F5F5F5F5F5F5F5F5F5F5
310
F5F5F5F5F5F5F5F5F5F5F5F5F5F5F5F5F5F5F5F5F5F5F5F5F5F5F5F5F5F5F5F5F5F5F5F5F5F5F5F5F5F5F5F5F5F5F5F5F5F5F5F5F5F5F5F5F5F5F5F5F5F5F5F5F5F5F5F5F5F5F5F5F5E2F5F5F5E2E2EFF5F5F5E2F5F5F5F5F5F5F5F5F5F5F5F5F5F5F5F5F5F5F5F5F5F5F5F5F5F5F5F5F5F5F5F5F5F5F5F5F5F5F5F5F5F5F5
310
F5F5F5F5F5F5F5F5F5F5F5F5F5F5F5F5F5F5F5F5F5F5F5F5F5F5F5F5F5F5F5F5F5F5F5F5F5F5F5F5F5F5F5F5F5F5F5F5F5F5F5F5F5F5F5F5F5F5F5F5F5F5F5F5F5F5F5F5F5F5F5F5F5F5F5F5F5F5F5F5F5F5F5F5F5F5F5F5F5F5F5F5F5F5F5F5F5F5F5F5F5F5F5F5F5F5F5F5F5F5F5F5F5F5F5F5F5F5F5F5F5F5F5F5F5F5E2
310
F5F5F5E2E2EFF5F5F5E2F5F5F5F5F5F5F5F5F5F5F5F5F5F5F5F5F5F5F5F5F5F5F5F5F5F5F5F5F5F5F5F5F5F5F5F5F5F5F5F5F5F5F5F5F5F5F5F5F5F5F5F5F5F5F5F5F5F5F5F5F5F5F5F5F5F5F5F5F5F5F5F5F5F5F5F5F5F5F5F5F5F5F5F5F5F5F5F5F5F5F5F5F5F5F5F5F5F5F5F5F5F5F5F5F5F5F5F5F5F5F5F5F5F5F5F5F5
310
F5F5F5F5F5F5F5F5F5F5F5F5F5F5F5F5F5F5F5F5F5F5F5F5F5F5F5F5F5F5F5F5F5F5F5F5F5F5F5F5F5F5F5F5F5F5F5F5F5F5F5F5E2F5F5F5E2E2EFF5F5F5E2F5F5F5F5F5F5F5F5F5F5F5F5F5F5F5F5F5F5F5F5F5F5F5F5F5F5F5F5F5F5F5F5F5F5F5F5F5F5F5F5F5F5F5F5F5F5F5F5F5F5F5F5F5F5F5F5F5F5F5F5F5F5F5F5
310
F5F5F5F5F5F5F5F5F5F5F5F5F5F5F5F5F5F5F5F5F5F5F5F5F5F5F5F5F5F5F5F5F5F5F5F5F5F5F5F5F5F5F5F5F5F5F5F5F5F5F5F5F5F5F5F5F5F5F5F5F5F5F5F5F5F5F5F5F5F5F5F5F5F5F5F5F5F5F5F5F5F5F5F5F5F5F5F5F5F5F5F5F5F5F5F5F5F5F5F5F5F5F5F5F5E2F5F5F5E2E2EFF5F5F5E2F5F5F5F5F5F5F5F5F5F5F5
310
F5F5F5F5F5F5F5F5F5F5F5F5F5F5F5F5F5F5F5F5F5F5F5F5F5F5F5F5F5F5F5F5F5F5F5F5F5F5F5F5F5F5F5F5F5F5F5F5F5F5F5F5F5F5F5F5F5F5F5F5F5F5F5F5F5F5F5F5F5F5F5F5F5F5F5F5F5F5F5F5F5F5F5F5F5F5F5F5F5F5F5F5F5F5F5F5F5F5F5F5F5F5F5F5F5F5F5F5F5F5F5F5F5F5F5F5F5F5F5F5F5F5F5F5F5F5F5
310
F5F5F5F5F5F5F5F5F5F5F5F5F5F5F5F5F5F5F5F5F5F5F5F5F5F5F5F5F5F5F5E2F5F5F5E2E2EFF5F5F5E2E2E2E2E2E2E2E2F5F5F5F5F5F5F5F5F5E2E2E2E2E2E2E2E2E2E2E2E2E2E2E2E2F5F5F5F5F5F5F5F5E2E2E2E2E2E2E2E2E2E2E2E2E2E2E2E2F5F5F5F5F5F5F5F5F5E2E2E2E2E2E2E2E2E2E2E2E2E2E2E2F5F5F5F5F5
310
F5F5F5F5E2E2E2E2E2E2E2E2E2E2E2E2E2E2E2F5F5F5F5F5F5F5F5F5E2E2E2E2E2E2E2E2E2E2E2E2E2E2E2E2F5F5F5F5F5F5F5F5E2E2E2E2E2E2E2E2E2E2E2E2E2E2E2E2F5F5F5F5F5F5F5F5F5E2E2E2E2E2E2E2E2F5F5F5E2E2EFF5F5F5F5F5F5F5F5F5F5F5F5F5F5F5F5F5F5F5F5F5F5F5F5F5F5F5F5F5F5F5F5F5F5F5F5
310
F5F5F5F5F5F5F5F5F5F5F5F5F5F5F5F5F5F5F5F5F5F5F5F5F5F5F5F5F5F5F5F5F5F5F5F5F5F5F5F5F5F5F5F5F5F5F5F5F5F5F5F5F5F5F5F5F5F5F5F5F5F5F5F5F5F5F5F5F5F5F5F5F5F5F5F5F5F5F5F5F5F5F5F5F5F5F5F5F5F5F5F5F5F5F5F5F5F5F5F5F5F5F5F5F5F5F5F5F5F5F5F5F5F5F5F5F5F5F5F5F5F5F5F5F5F5F5
310
F5F5F5F5F5F5F5F5F5F5F5F5F5F5E2E2EFF5F5F5F5F5F5F5F5F5F5F5F5F5F5F5F5F5F5F5F5F5F5F5F5F5F5F5F5F5F5F5F5F5F5F5F5F5F5F5F5F5F5F5F5F5F5F5F5F5F5F5F5F5F5F5F5F5F5F5F5F5F5F5F5F5F5F5F5F5F5F5F5F5F5F5F5F5F5F5F5F5F5F5F5F5F5F5F5F5F5F5F5F5F5F5F5F5F5F5F5F5F5F5F5F5F5F5F5F5F5
310
F5F5F5F5F5F5F5F5F5F5F5F5F5F5F5F5F5F5F5F5F5F5F5F5F5F5F5F5F5F5F5F5F5F5F5F5F5F5F5F5F5F5F5F5F5F5F5F5F5F5F5F5F5F5F5F5F5F5F5F5F5F5F5F5F5F5F5E2EFEFF5F5F5F5F5F5F5F5F5F5F5F5F5F5F5F5F5F5F5F5F5F5F5F5F5F5F5F5F5F5F5F5F5F5F5F5F5F5F5F5F5F5F5F5F5F5F5F5F5F5F5F5F5F5F5F5F5
310
F5F5F5F5F5F5F5F5F5F5F5F5F5F5F5F5F5F5F5F5F5F5F5F5F5F5F5F5F5F5F5F5F5F5F5F5F5F5F5F5F5F5F5F5F5F5F5F5F5F5F5F5F5F5F5F5F5F5F5F5F5F5F5F5F5F5F5F5F5F5F5F5F5F5F5F5F5F5F5F5F5F5F5F5F5F5F5F5F5F5F5F5F5F5F5F5F5F5F5F5F5F5F5F5F5F5F5F5F5F5F5F5F5F5F5F5F5F5F5F5E2EFEFE2E2E2E2
310
E2E2E2E2E2E2E2E2E2E2E2E2E2E2E2E2E2E2E2E2E2E2E2E2E2E2E2E2E2E2E2E2E2E2E2E2E2E2E2E2E2E2E2E2E2E2E2E2E2E2E2E2E2E2E2E2E2E2E2E2E2E2E2E2E2E2E2E2E2E2E2E2E2E2E2E2E2E2E2E2E2E2E2E2E2E2E2E2E2E2E2E2E2E2E2E2E2E2E2E2E2E2E2E2E2E2E2E2E2E2E2E2E2E2E2E2E2E2E2E2E2E2E2E2E2E2E2
310
E2E2E2E2E2E2E2E2E2E2E2E2E2E2E2E2E2E2E2E2E2E2E2E2E2E2E2E2E2E2E2E2E2E2E2E2E2E2E2E2E2E2E2E2E2E2E2EFEF
  0
ENDSEC
  0
EOF
