  0
SECTION
  2
HEADER
  9
$ACADVER
  1
AC1018
  9
$ACADMAINTVER
 70
     0
  9
$DWGCODEPAGE
  3
ANSI_1252
  9
$AUTHOR
  1
g6edxjah
  9
$LASTSAVEDBY
  1
g6edxjah
  9
$INSBASE
 10
0.0
 20
0.0
 30
0.0
  9
$EXTMIN
 10
59.958052
 20
-13.073812
 30
0.0
  9
$EXTMAX
 10
68.458052
 20
-2.073812
 30
0.0
  9
$LIMMIN
 10
36.405175
 20
-35.37669
  9
$LIMMAX
 10
92.01093
 20
20.229065
  9
$ORTHOMODE
 70
     0
  9
$REGENMODE
 70
     1
  9
$FILLMODE
 70
     1
  9
$QTEXTMODE
 70
     0
  9
$MIRRTEXT
 70
     0
  9
$LTSCALE
 40
1.0
  9
$ATTMODE
 70
     1
  9
$TEXTSIZE
 40
0.09
  9
$TRACEWID
 40
0.05
  9
$TEXTSTYLE
  7
Standard
  9
$CLAYER
  8
TEXT
  9
$CELTYPE
  6
Continuous
  9
$CECOLOR
 62
     7
  9
$CELTSCALE
 40
1.0
  9
$DISPSILH
 70
     0
  9
$DIMSCALE
 40
1.0
  9
$DIMASZ
 40
0.09
  9
$DIMEXO
 40
0.045
  9
$DIMDLI
 40
0.0
  9
$DIMRND
 40
0.0
  9
$DIMDLE
 40
0.0
  9
$DIMEXE
 40
0.045
  9
$DIMTP
 40
0.0
  9
$DIMTM
 40
0.0
  9
$DIMTXT
 40
0.09
  9
$DIMCEN
 40
0.09
  9
$DIMTSZ
 40
0.0
  9
$DIMTOL
 70
     0
  9
$DIMLIM
 70
     0
  9
$DIMTIH
 70
     0
  9
$DIMTOH
 70
     0
  9
$DIMSE1
 70
     0
  9
$DIMSE2
 70
     0
  9
$DIMTAD
 70
     1
  9
$DIMZIN
 70
    11
  9
$DIMBLK
  1
TerminatorOpen_0.5
  9
$DIMASO
 70
     1
  9
$DIMSHO
 70
     1
  9
$DIMPOST
  1

  9
$DIMAPOST
  1

  9
$DIMALT
 70
     0
  9
$DIMALTD
 70
     4
  9
$DIMALTF
 40
25.4
  9
$DIMLFAC
 40
1.0
  9
$DIMTOFL
 70
     0
  9
$DIMTVP
 40
0.0
  9
$DIMTIX
 70
     0
  9
$DIMSOXD
 70
     0
  9
$DIMSAH
 70
     0
  9
$DIMBLK1
  1

  9
$DIMBLK2
  1

  9
$DIMSTYLE
  2
Standard
  9
$DIMCLRD
 70
     0
  9
$DIMCLRE
 70
     0
  9
$DIMCLRT
 70
     0
  9
$DIMTFAC
 40
1.0
  9
$DIMGAP
 40
0.045
  9
$DIMJUST
 70
     0
  9
$DIMSD1
 70
     0
  9
$DIMSD2
 70
     0
  9
$DIMTOLJ
 70
     0
  9
$DIMTZIN
 70
    11
  9
$DIMALTZ
 70
    15
  9
$DIMALTTZ
 70
    15
  9
$DIMUPT
 70
     0
  9
$DIMDEC
 70
     4
  9
$DIMTDEC
 70
     4
  9
$DIMALTU
 70
     2
  9
$DIMALTTD
 70
     4
  9
$DIMTXSTY
  7
Style-Arial
  9
$DIMAUNIT
 70
     0
  9
$DIMADEC
 70
     4
  9
$DIMALTRND
 40
0.0
  9
$DIMAZIN
 70
     3
  9
$DIMDSEP
 70
    46
  9
$DIMATFIT
 70
     1
  9
$DIMFRAC
 70
     0
  9
$DIMLDRBLK
  1
TerminatorOpen_0.5
  9
$DIMLUNIT
 70
     2
  9
$DIMLWD
 70
    -2
  9
$DIMLWE
 70
    -2
  9
$DIMTMOVE
 70
     0
  9
$LUNITS
 70
     2
  9
$LUPREC
 70
     4
  9
$SKETCHINC
 40
0.1
  9
$FILLETRAD
 40
0.0
  9
$AUNITS
 70
     0
  9
$AUPREC
 70
     4
  9
$MENU
  1
.
  9
$ELEVATION
 40
0.0
  9
$PELEVATION
 40
0.0
  9
$THICKNESS
 40
0.0
  9
$LIMCHECK
 70
     0
  9
$CHAMFERA
 40
0.0
  9
$CHAMFERB
 40
0.0
  9
$CHAMFERC
 40
0.0
  9
$CHAMFERD
 40
0.0
  9
$SKPOLY
 70
     0
  9
$TDCREATE
 40
2455337.372466551
  9
$TDUCREATE
 40
2455337.580799884
  9
$TDUPDATE
 40
2455337.372466551
  9
$TDUUPDATE
 40
2455337.580799884
  9
$TDINDWG
 40
0.0
  9
$TDUSRTIMER
 40
0.0006630093
  9
$USRTIMER
 70
     1
  9
$ANGBASE
 50
0.0
  9
$ANGDIR
 70
     0
  9
$PDMODE
 70
     0
  9
$PDSIZE
 40
0.0
  9
$PLINEWID
 40
0.0
  9
$SPLFRAME
 70
     0
  9
$SPLINETYPE
 70
     6
  9
$SPLINESEGS
 70
     8
  9
$HANDSEED
  5
3BD
  9
$SURFTAB1
 70
     6
  9
$SURFTAB2
 70
     6
  9
$SURFTYPE
 70
     6
  9
$SURFU
 70
     6
  9
$SURFV
 70
     6
  9
$UCSBASE
  2

  9
$UCSNAME
  2

  9
$UCSORG
 10
0.0
 20
0.0
 30
0.0
  9
$UCSXDIR
 10
1.0
 20
0.0
 30
0.0
  9
$UCSYDIR
 10
0.0
 20
1.0
 30
0.0
  9
$UCSORTHOREF
  2

  9
$UCSORTHOVIEW
 70
     0
  9
$UCSORGTOP
 10
0.0
 20
0.0
 30
0.0
  9
$UCSORGBOTTOM
 10
0.0
 20
0.0
 30
0.0
  9
$UCSORGLEFT
 10
0.0
 20
0.0
 30
0.0
  9
$UCSORGRIGHT
 10
0.0
 20
0.0
 30
0.0
  9
$UCSORGFRONT
 10
0.0
 20
0.0
 30
0.0
  9
$UCSORGBACK
 10
0.0
 20
0.0
 30
0.0
  9
$PUCSBASE
  2

  9
$PUCSNAME
  2

  9
$PUCSORG
 10
0.0
 20
0.0
 30
0.0
  9
$PUCSXDIR
 10
1.0
 20
0.0
 30
0.0
  9
$PUCSYDIR
 10
0.0
 20
1.0
 30
0.0
  9
$PUCSORTHOREF
  2

  9
$PUCSORTHOVIEW
 70
     0
  9
$PUCSORGTOP
 10
0.0
 20
0.0
 30
0.0
  9
$PUCSORGBOTTOM
 10
0.0
 20
0.0
 30
0.0
  9
$PUCSORGLEFT
 10
0.0
 20
0.0
 30
0.0
  9
$PUCSORGRIGHT
 10
0.0
 20
0.0
 30
0.0
  9
$PUCSORGFRONT
 10
0.0
 20
0.0
 30
0.0
  9
$PUCSORGBACK
 10
0.0
 20
0.0
 30
0.0
  9
$USERI1
 70
     0
  9
$USERI2
 70
     0
  9
$USERI3
 70
     0
  9
$USERI4
 70
     0
  9
$USERI5
 70
     0
  9
$USERR1
 40
0.0
  9
$USERR2
 40
0.0
  9
$USERR3
 40
0.0
  9
$USERR4
 40
0.0
  9
$USERR5
 40
0.0
  9
$WORLDVIEW
 70
     1
  9
$SHADEDGE
 70
     3
  9
$SHADEDIF
 70
    70
  9
$TILEMODE
 70
     1
  9
$MAXACTVP
 70
    64
  9
$PINSBASE
 10
0.0
 20
0.0
 30
0.0
  9
$PLIMCHECK
 70
     0
  9
$PEXTMIN
 10
1.049744
 20
0.799667
 30
-0.001526
  9
$PEXTMAX
 10
9.450623
 20
7.200577
 30
0.0
  9
$PLIMMIN
 10
-0.25
 20
-0.25
  9
$PLIMMAX
 10
10.75
 20
8.25
  9
$UNITMODE
 70
     0
  9
$VISRETAIN
 70
     1
  9
$PLINEGEN
 70
     0
  9
$PSLTSCALE
 70
     0
  9
$TREEDEPTH
 70
  3020
  9
$CMLSTYLE
  2
Standard
  9
$CMLJUST
 70
     0
  9
$CMLSCALE
 40
1.0
  9
$PROXYGRAPHICS
 70
     1
  9
$MEASUREMENT
 70
     0
  9
$CELWEIGHT
370
    53
  9
$ENDCAPS
280
     0
  9
$JOINSTYLE
280
     0
  9
$LWDISPLAY
290
     1
  9
$INSUNITS
 70
     2
  9
$HYPERLINKBASE
  1

  9
$STYLESHEET
  1

  9
$XEDIT
290
     1
  9
$CEPSNTYPE
380
     0
  9
$PSTYLEMODE
290
     1
  9
$FINGERPRINTGUID
  2
{02C0BBB5-38A7-4FBF-829E-00875EC88963}
  9
$VERSIONGUID
  2
{82C521FC-BF81-46B3-825E-420B6BD93A99}
  9
$EXTNAMES
290
     1
  9
$PSVPSCALE
 40
0.0
  9
$OLESTARTUP
290
     0
  9
$SORTENTS
280
   127
  9
$INDEXCTL
280
     0
  9
$HIDETEXT
280
     1
  9
$XCLIPFRAME
290
     0
  9
$HALOGAP
280
     0
  9
$OBSCOLOR
 70
   257
  9
$OBSLTYPE
280
     0
  9
$INTERSECTIONDISPLAY
280
     0
  9
$INTERSECTIONCOLOR
 70
   257
  9
$DIMASSOC
280
     1
  9
$PROJECTNAME
  1

  0
ENDSEC
  0
SECTION
  2
CLASSES
  0
CLASS
  1
ACDBDICTIONARYWDFLT
  2
AcDbDictionaryWithDefault
  3
ObjectDBX Classes
 90
        0
 91
        3
280
     0
281
     0
  0
CLASS
  1
SORTENTSTABLE
  2
AcDbSortentsTable
  3
ObjectDBX Classes
 90
        0
 91
        3
280
     0
281
     0
  0
ENDSEC
  0
SECTION
  2
TABLES
  0
TABLE
  2
VPORT
  5
39D
330
0
100
AcDbSymbolTable
 70
     4
  0
VPORT
  5
49
330
39D
100
AcDbSymbolTableRecord
100
AcDbViewportTableRecord
  2
*ACTIVE
 70
     0
 10
0.0
 20
0.0
 11
1.0
 21
1.0
 12
64.208052
 22
-7.573812
 13
0.0
 23
0.0
 14
0.083333
 24
0.083333
 15
0.083333
 25
0.083333
 16
0.0
 26
0.0
 36
1.0
 17
0.0
 27
0.0
 37
0.0
 40
11.44
 41
1.884937
 42
50.0
 43
0.0
 44
0.0
 50
0.0
 51
0.0
 71
     0
 72
   100
 73
     1
 74
     2
 75
     0
 76
     0
 77
     0
 78
     1
281
     0
 65
     1
110
0.0
120
0.0
130
0.0
111
1.0
121
0.0
131
0.0
112
0.0
122
1.0
132
0.0
 79
     0
146
0.0
  0
ENDTAB
  0
TABLE
  2
LTYPE
  5
384
330
0
100
AcDbSymbolTable
 70
     1
  0
LTYPE
  5
385
330
384
100
AcDbSymbolTableRecord
100
AcDbLinetypeTableRecord
  2
ByBlock
 70
     0
  3

 72
    65
 73
     0
 40
0.0
  0
LTYPE
  5
386
330
384
100
AcDbSymbolTableRecord
100
AcDbLinetypeTableRecord
  2
ByLayer
 70
     0
  3

 72
    65
 73
     0
 40
0.0
  0
LTYPE
  5
383
330
384
100
AcDbSymbolTableRecord
100
AcDbLinetypeTableRecord
  2
Continuous
 70
     0
  3
Solid line
 72
    65
 73
     0
 40
0.0
  0
ENDTAB
  0
TABLE
  2
LAYER
  5
37D
102
{ACAD_XDICTIONARY
360
37E
102
}
330
0
100
AcDbSymbolTable
 70
    64
  0
LAYER
  5
37C
330
37D
100
AcDbSymbolTableRecord
100
AcDbLayerTableRecord
  2
0
 70
     0
 62
     7
  6
Continuous
370
    -3
390
380
  0
LAYER
  5
7
330
37D
100
AcDbSymbolTableRecord
100
AcDbLayerTableRecord
  2
Level 1
 70
     0
 62
     7
  6
Continuous
370
     0
390
380
  0
LAYER
  5
8
330
37D
100
AcDbSymbolTableRecord
100
AcDbLayerTableRecord
  2
2-4A
 70
     0
 62
     7
  6
Continuous
370
     0
390
380
1001
AcAecLayerStandard
1000

1000
2-4A
  0
LAYER
  5
9
330
37D
100
AcDbSymbolTableRecord
100
AcDbLayerTableRecord
  2
BORDER
 70
     0
 62
     7
  6
Continuous
370
     0
390
380
1001
AcAecLayerStandard
1000

1000
BORDER
  0
LAYER
  5
A
330
37D
100
AcDbSymbolTableRecord
100
AcDbLayerTableRecord
  2
DEFPOINTS
 70
     0
 62
     7
  6
Continuous
290
     0
370
     0
390
380
1001
AcAecLayerStandard
1000

1000
DEFPOINTS
  0
LAYER
  5
B
330
37D
100
AcDbSymbolTableRecord
100
AcDbLayerTableRecord
  2
REF
 70
     0
 62
     7
  6
Continuous
370
     0
390
380
1001
AcAecLayerStandard
1000

1000
REF
  0
LAYER
  5
C
330
37D
100
AcDbSymbolTableRecord
100
AcDbLayerTableRecord
  2
TEXT
 70
     0
 62
     7
  6
Continuous
370
     0
390
380
1001
AcAecLayerStandard
1000

1000
TEXT
  0
LAYER
  5
D
330
37D
100
AcDbSymbolTableRecord
100
AcDbLayerTableRecord
  2
TITLE
 70
     0
 62
     7
  6
Continuous
370
     0
390
380
1001
AcAecLayerStandard
1000

1000
TITLE
  0
LAYER
  5
E
330
37D
100
AcDbSymbolTableRecord
100
AcDbLayerTableRecord
  2
Level 8
 70
     0
 62
     7
  6
Continuous
370
     0
390
380
  0
LAYER
  5
F
330
37D
100
AcDbSymbolTableRecord
100
AcDbLayerTableRecord
  2
Level 9
 70
     0
 62
     7
  6
Continuous
370
     0
390
380
  0
LAYER
  5
10
330
37D
100
AcDbSymbolTableRecord
100
AcDbLayerTableRecord
  2
Level 10
 70
     0
 62
     7
  6
Continuous
370
     0
390
380
  0
LAYER
  5
11
330
37D
100
AcDbSymbolTableRecord
100
AcDbLayerTableRecord
  2
Level 11
 70
     0
 62
     7
  6
Continuous
370
     0
390
380
  0
LAYER
  5
12
330
37D
100
AcDbSymbolTableRecord
100
AcDbLayerTableRecord
  2
Level 12
 70
     0
 62
     7
  6
Continuous
370
     0
390
380
  0
LAYER
  5
13
330
37D
100
AcDbSymbolTableRecord
100
AcDbLayerTableRecord
  2
Level 13
 70
     0
 62
     7
  6
Continuous
370
     0
390
380
  0
LAYER
  5
14
330
37D
100
AcDbSymbolTableRecord
100
AcDbLayerTableRecord
  2
Level 14
 70
     0
 62
     7
  6
Continuous
370
     0
390
380
  0
LAYER
  5
15
330
37D
100
AcDbSymbolTableRecord
100
AcDbLayerTableRecord
  2
Level 15
 70
     0
 62
     7
  6
Continuous
370
     0
390
380
  0
LAYER
  5
16
330
37D
100
AcDbSymbolTableRecord
100
AcDbLayerTableRecord
  2
Level 16
 70
     0
 62
     7
  6
Continuous
370
     0
390
380
  0
LAYER
  5
17
330
37D
100
AcDbSymbolTableRecord
100
AcDbLayerTableRecord
  2
Level 17
 70
     0
 62
     7
  6
Continuous
370
     0
390
380
  0
LAYER
  5
18
330
37D
100
AcDbSymbolTableRecord
100
AcDbLayerTableRecord
  2
Level 18
 70
     0
 62
     7
  6
Continuous
370
     0
390
380
  0
LAYER
  5
19
330
37D
100
AcDbSymbolTableRecord
100
AcDbLayerTableRecord
  2
Level 19
 70
     0
 62
     7
  6
Continuous
370
     0
390
380
  0
LAYER
  5
1A
330
37D
100
AcDbSymbolTableRecord
100
AcDbLayerTableRecord
  2
Level 20
 70
     0
 62
     7
  6
Continuous
370
     0
390
380
  0
LAYER
  5
1B
330
37D
100
AcDbSymbolTableRecord
100
AcDbLayerTableRecord
  2
Level 21
 70
     0
 62
     7
  6
Continuous
370
     0
390
380
  0
LAYER
  5
1C
330
37D
100
AcDbSymbolTableRecord
100
AcDbLayerTableRecord
  2
Level 22
 70
     0
 62
     7
  6
Continuous
370
     0
390
380
  0
LAYER
  5
1D
330
37D
100
AcDbSymbolTableRecord
100
AcDbLayerTableRecord
  2
Level 23
 70
     0
 62
     7
  6
Continuous
370
     0
390
380
  0
LAYER
  5
1E
330
37D
100
AcDbSymbolTableRecord
100
AcDbLayerTableRecord
  2
Level 24
 70
     0
 62
     7
  6
Continuous
370
     0
390
380
  0
LAYER
  5
1F
330
37D
100
AcDbSymbolTableRecord
100
AcDbLayerTableRecord
  2
Level 25
 70
     0
 62
     7
  6
Continuous
370
     0
390
380
  0
LAYER
  5
20
330
37D
100
AcDbSymbolTableRecord
100
AcDbLayerTableRecord
  2
Level 26
 70
     0
 62
     7
  6
Continuous
370
     0
390
380
  0
LAYER
  5
21
330
37D
100
AcDbSymbolTableRecord
100
AcDbLayerTableRecord
  2
Level 27
 70
     0
 62
     7
  6
Continuous
370
     0
390
380
  0
LAYER
  5
22
330
37D
100
AcDbSymbolTableRecord
100
AcDbLayerTableRecord
  2
Level 28
 70
     0
 62
     7
  6
Continuous
370
     0
390
380
  0
LAYER
  5
23
330
37D
100
AcDbSymbolTableRecord
100
AcDbLayerTableRecord
  2
Level 29
 70
     0
 62
     7
  6
Continuous
370
     0
390
380
  0
LAYER
  5
24
330
37D
100
AcDbSymbolTableRecord
100
AcDbLayerTableRecord
  2
Level 30
 70
     0
 62
     7
  6
Continuous
370
     0
390
380
  0
LAYER
  5
25
330
37D
100
AcDbSymbolTableRecord
100
AcDbLayerTableRecord
  2
Level 31
 70
     0
 62
     7
  6
Continuous
370
     0
390
380
  0
LAYER
  5
26
330
37D
100
AcDbSymbolTableRecord
100
AcDbLayerTableRecord
  2
Level 32
 70
     0
 62
     7
  6
Continuous
370
     0
390
380
  0
LAYER
  5
27
330
37D
100
AcDbSymbolTableRecord
100
AcDbLayerTableRecord
  2
Level 33
 70
     0
 62
     7
  6
Continuous
370
     0
390
380
  0
LAYER
  5
28
330
37D
100
AcDbSymbolTableRecord
100
AcDbLayerTableRecord
  2
Level 34
 70
     0
 62
     7
  6
Continuous
370
     0
390
380
  0
LAYER
  5
29
330
37D
100
AcDbSymbolTableRecord
100
AcDbLayerTableRecord
  2
Level 35
 70
     0
 62
     7
  6
Continuous
370
     0
390
380
  0
LAYER
  5
2A
330
37D
100
AcDbSymbolTableRecord
100
AcDbLayerTableRecord
  2
Level 36
 70
     0
 62
     7
  6
Continuous
370
     0
390
380
  0
LAYER
  5
2B
330
37D
100
AcDbSymbolTableRecord
100
AcDbLayerTableRecord
  2
Level 37
 70
     0
 62
     7
  6
Continuous
370
     0
390
380
  0
LAYER
  5
2C
330
37D
100
AcDbSymbolTableRecord
100
AcDbLayerTableRecord
  2
Level 38
 70
     0
 62
     7
  6
Continuous
370
     0
390
380
  0
LAYER
  5
2D
330
37D
100
AcDbSymbolTableRecord
100
AcDbLayerTableRecord
  2
Level 39
 70
     0
 62
     7
  6
Continuous
370
     0
390
380
  0
LAYER
  5
2E
330
37D
100
AcDbSymbolTableRecord
100
AcDbLayerTableRecord
  2
Level 40
 70
     0
 62
     7
  6
Continuous
370
     0
390
380
  0
LAYER
  5
2F
330
37D
100
AcDbSymbolTableRecord
100
AcDbLayerTableRecord
  2
Level 41
 70
     0
 62
     7
  6
Continuous
370
     0
390
380
  0
LAYER
  5
30
330
37D
100
AcDbSymbolTableRecord
100
AcDbLayerTableRecord
  2
Level 42
 70
     0
 62
     7
  6
Continuous
370
     0
390
380
  0
LAYER
  5
31
330
37D
100
AcDbSymbolTableRecord
100
AcDbLayerTableRecord
  2
Level 43
 70
     0
 62
     7
  6
Continuous
370
     0
390
380
  0
LAYER
  5
32
330
37D
100
AcDbSymbolTableRecord
100
AcDbLayerTableRecord
  2
Level 44
 70
     0
 62
     7
  6
Continuous
370
     0
390
380
  0
LAYER
  5
33
330
37D
100
AcDbSymbolTableRecord
100
AcDbLayerTableRecord
  2
Level 45
 70
     0
 62
     7
  6
Continuous
370
     0
390
380
  0
LAYER
  5
34
330
37D
100
AcDbSymbolTableRecord
100
AcDbLayerTableRecord
  2
Level 46
 70
     0
 62
     7
  6
Continuous
370
     0
390
380
  0
LAYER
  5
35
330
37D
100
AcDbSymbolTableRecord
100
AcDbLayerTableRecord
  2
Level 47
 70
     0
 62
     7
  6
Continuous
370
     0
390
380
  0
LAYER
  5
36
330
37D
100
AcDbSymbolTableRecord
100
AcDbLayerTableRecord
  2
Level 48
 70
     0
 62
     7
  6
Continuous
370
     0
390
380
  0
LAYER
  5
37
330
37D
100
AcDbSymbolTableRecord
100
AcDbLayerTableRecord
  2
Level 49
 70
     0
 62
     7
  6
Continuous
370
     0
390
380
  0
LAYER
  5
38
330
37D
100
AcDbSymbolTableRecord
100
AcDbLayerTableRecord
  2
Level 50
 70
     0
 62
     7
  6
Continuous
370
     0
390
380
  0
LAYER
  5
39
330
37D
100
AcDbSymbolTableRecord
100
AcDbLayerTableRecord
  2
Level 51
 70
     0
 62
     7
  6
Continuous
370
     0
390
380
  0
LAYER
  5
3A
330
37D
100
AcDbSymbolTableRecord
100
AcDbLayerTableRecord
  2
Level 52
 70
     0
 62
     7
  6
Continuous
370
     0
390
380
  0
LAYER
  5
3B
330
37D
100
AcDbSymbolTableRecord
100
AcDbLayerTableRecord
  2
Level 53
 70
     0
 62
     7
  6
Continuous
370
     0
390
380
  0
LAYER
  5
3C
330
37D
100
AcDbSymbolTableRecord
100
AcDbLayerTableRecord
  2
Level 54
 70
     0
 62
     7
  6
Continuous
370
     0
390
380
  0
LAYER
  5
3D
330
37D
100
AcDbSymbolTableRecord
100
AcDbLayerTableRecord
  2
Level 55
 70
     0
 62
     7
  6
Continuous
370
     0
390
380
  0
LAYER
  5
3E
330
37D
100
AcDbSymbolTableRecord
100
AcDbLayerTableRecord
  2
Level 56
 70
     0
 62
     7
  6
Continuous
370
     0
390
380
  0
LAYER
  5
3F
330
37D
100
AcDbSymbolTableRecord
100
AcDbLayerTableRecord
  2
Level 57
 70
     0
 62
     7
  6
Continuous
370
     0
390
380
  0
LAYER
  5
40
330
37D
100
AcDbSymbolTableRecord
100
AcDbLayerTableRecord
  2
Level 58
 70
     0
 62
     7
  6
Continuous
370
     0
390
380
  0
LAYER
  5
41
330
37D
100
AcDbSymbolTableRecord
100
AcDbLayerTableRecord
  2
Level 59
 70
     0
 62
     7
  6
Continuous
370
     0
390
380
  0
LAYER
  5
42
330
37D
100
AcDbSymbolTableRecord
100
AcDbLayerTableRecord
  2
Level 60
 70
     0
 62
     7
  6
Continuous
370
     0
390
380
  0
LAYER
  5
43
330
37D
100
AcDbSymbolTableRecord
100
AcDbLayerTableRecord
  2
Level 61
 70
     0
 62
     7
  6
Continuous
370
     0
390
380
  0
LAYER
  5
44
330
37D
100
AcDbSymbolTableRecord
100
AcDbLayerTableRecord
  2
Level 62
 70
     0
 62
     7
  6
Continuous
370
     0
390
380
  0
LAYER
  5
45
330
37D
100
AcDbSymbolTableRecord
100
AcDbLayerTableRecord
  2
_0
 70
     0
 62
     7
  6
Continuous
370
     0
390
380
1001
AcAecLayerStandard
1000

1000
0
  0
ENDTAB
  0
TABLE
  2
STYLE
  5
388
330
0
100
AcDbSymbolTable
 70
     3
  0
STYLE
  5
387
330
388
100
AcDbSymbolTableRecord
100
AcDbTextStyleTableRecord
  2
Standard
 70
     0
 40
0.0
 41
1.0
 50
0.0
 71
     0
 42
0.09
  3
txt
  4

  0
STYLE
  5
3A7
330
388
100
AcDbSymbolTableRecord
100
AcDbTextStyleTableRecord
  2
Style-Arial
 70
     0
 40
0.0
 41
1.0
 50
0.0
 71
     0
 42
0.2
  3

  4

1001
ACAD
1000
Arial
1071
       39
  0
STYLE
  5
3B7
330
388
100
AcDbSymbolTableRecord
100
AcDbTextStyleTableRecord
  2
Style-FANCY
 70
     0
 40
0.0
 41
1.0
 50
0.0
 71
     0
 42
0.2
  3
FANCY.shx
  4

  0
ENDTAB
  0
TABLE
  2
VIEW
  5
39B
330
0
100
AcDbSymbolTable
 70
     0
  0
ENDTAB
  0
TABLE
  2
UCS
  5
39C
330
0
100
AcDbSymbolTable
 70
     0
  0
ENDTAB
  0
TABLE
  2
APPID
  5
39A
330
0
100
AcDbSymbolTable
 70
     3
  0
APPID
  5
3A2
330
39A
100
AcDbSymbolTableRecord
100
AcDbRegAppTableRecord
  2
ACAD
 70
     0
  0
APPID
  5
399
330
39A
100
AcDbSymbolTableRecord
100
AcDbRegAppTableRecord
  2
ACAD_PSEXT
 70
     0
  0
APPID
  5
3A4
330
39A
100
AcDbSymbolTableRecord
100
AcDbRegAppTableRecord
  2
AcAecLayerStandard
 70
     0
  0
ENDTAB
  0
TABLE
  2
DIMSTYLE
  5
38A
330
0
100
AcDbSymbolTable
 70
     1
100
AcDbDimStyleTable
  0
DIMSTYLE
105
389
330
38A
100
AcDbSymbolTableRecord
100
AcDbDimStyleTableRecord
  2
Standard
 70
     0
340
387
  0
ENDTAB
  0
TABLE
  2
BLOCK_RECORD
  5
38D
330
0
100
AcDbSymbolTable
 70
     3
  0
BLOCK_RECORD
  5
38E
102
{ACAD_XDICTIONARY
360
3B8
102
}
330
38D
100
AcDbSymbolTableRecord
100
AcDbBlockTableRecord
  2
*Model_Space
340
391
  0
BLOCK_RECORD
  5
393
330
38D
100
AcDbSymbolTableRecord
100
AcDbBlockTableRecord
  2
*Paper_Space
340
396
  0
BLOCK_RECORD
  5
3A8
330
38D
100
AcDbSymbolTableRecord
100
AcDbBlockTableRecord
  2
TerminatorOpen_0.5
340
0
  0
BLOCK_RECORD
  5
3B1
330
38D
100
AcDbSymbolTableRecord
100
AcDbBlockTableRecord
  2
LARROW
340
0
102
{BLKREFS
331
2D5
331
2D7
331
2D9
331
2DD
331
2DF
331
2E1
331
2E3
331
2E7
331
2E9
331
2EB
102
}
  0
BLOCK_RECORD
  5
3B4
330
38D
100
AcDbSymbolTableRecord
100
AcDbBlockTableRecord
  2
LARROW_1
340
0
102
{BLKREFS
331
2F6
331
30F
331
31A
102
}
  0
ENDTAB
  0
ENDSEC
  0
SECTION
  2
BLOCKS
  0
BLOCK
  5
38F
330
38E
100
AcDbEntity
  8
0
100
AcDbBlockBegin
  2
*Model_Space
 70
     0
 71
     0
 10
0.0
 20
0.0
 30
0.0
  3
*Model_Space
  1

  0
ENDBLK
  5
390
330
38E
100
AcDbEntity
  8
0
100
AcDbBlockEnd
  0
BLOCK
  5
394
330
393
100
AcDbEntity
 67
     1
  8
0
100
AcDbBlockBegin
  2
*Paper_Space
 70
     0
 71
     0
 10
0.0
 20
0.0
 30
0.0
  3
*Paper_Space
  1

  0
ENDBLK
  5
395
330
393
100
AcDbEntity
 67
     1
  8
0
100
AcDbBlockEnd
  0
BLOCK
  5
3AC
330
3A8
100
AcDbEntity
  8
0
100
AcDbBlockBegin
  2
TerminatorOpen_0.5
 70
     0
 71
     0
 10
0.0
 20
0.0
 30
0.0
  3
TerminatorOpen_0.5
  1

  0
LINE
  5
3A9
330
3A8
100
AcDbEntity
  8
0
  6
ByBlock
 62
     0
370
    -2
100
AcDbLine
 10
0.0
 20
0.0
 30
0.0
 11
-1.0
 21
0.0
 31
0.0
  0
LINE
  5
3AA
330
3A8
100
AcDbEntity
  8
0
  6
ByBlock
 62
     0
370
    -2
100
AcDbLine
 10
0.0
 20
0.0
 30
0.0
 11
-1.0
 21
0.25
 31
0.0
  0
LINE
  5
3AB
330
3A8
100
AcDbEntity
  8
0
  6
ByBlock
 62
     0
370
    -2
100
AcDbLine
 10
0.0
 20
0.0
 30
0.0
 11
-1.0
 21
-0.25
 31
0.0
  0
ENDBLK
  5
3AD
330
3A8
100
AcDbEntity
  8
0
100
AcDbBlockEnd
  0
BLOCK
  5
3B2
330
3B1
100
AcDbEntity
  8
0
100
AcDbBlockBegin
  2
LARROW
 70
     0
 71
     0
 10
0.0
 20
0.0
 30
0.0
  3
LARROW
  1

  0
LWPOLYLINE
  5
2D6
330
3B1
100
AcDbEntity
  8
REF
  6
Continuous
 62
     7
370
    13
100
AcDbPolyline
 90
       63
 70
   128
 43
0.0
 10
-0.013031
 20
0.001886
 10
0.0
 20
0.0
 10
-0.013021
 20
-0.001885
 10
-0.012614
 20
-0.001573
 10
-0.012042
 20
-0.00101
 10
-0.01176
 20
-0.00049
 10
-0.011688
 20
0.0
 10
-0.011792
 20
0.000552
 10
-0.012094
 20
0.001094
 10
-0.012677
 20
0.001625
 10
-0.013031
 20
0.001886
 10
-0.000385
 20
0.000021
 10
-0.012604
 20
-0.00176
 10
-0.012229
 20
-0.00148
 10
-0.011625
 20
-0.000907
 10
-0.011427
 20
-0.000167
 10
-0.011562
 20
0.000573
 10
-0.011917
 20
0.001083
 10
-0.012344
 20
0.0015
 10
-0.012636
 20
0.001729
 10
-0.001073
 20
0.000021
 10
-0.012052
 20
-0.001552
 10
-0.011666
 20
-0.001302
 10
-0.011469
 20
-0.000979
 10
-0.01125
 20
-0.000562
 10
-0.011135
 20
0.000021
 10
-0.011198
 20
0.0005
 10
-0.011427
 20
0.000875
 10
-0.011896
 20
0.001177
 10
-0.012209
 20
0.001542
 10
-0.001875
 20
0.000021
 10
-0.011448
 20
-0.001323
 10
-0.011021
 20
-0.000792
 10
-0.010896
 20
-0.000146
 10
-0.010959
 20
0.000573
 10
-0.011782
 20
0.001354
 10
-0.002771
 20
0.000063
 10
-0.010896
 20
-0.001073
 10
-0.010781
 20
-0.000698
 10
-0.010531
 20
-0.000094
 10
-0.010688
 20
0.000552
 10
-0.011333
 20
0.001125
 10
-0.003594
 20
0.000062
 10
-0.010604
 20
-0.000834
 10
-0.010375
 20
-0.000375
 10
-0.010271
 20
0.000115
 10
-0.010761
 20
0.000875
 10
-0.004573
 20
0.000062
 10
-0.010178
 20
-0.000625
 10
-0.010021
 20
-0.000281
 10
-0.009979
 20
0.000115
 10
-0.010375
 20
0.000667
 10
-0.00574
 20
0.000062
 10
-0.009823
 20
-0.000396
 10
-0.009709
 20
0.000136
 10
-0.010083
 20
0.000459
 10
-0.006698
 20
0.000063
 10
-0.009552
 20
-0.00024
 10
-0.009614
 20
0.000271
 10
-0.007677
 20
0.000063
 10
-0.009438
 20
-0.000073
 10
-0.009489
 20
0.000084
 10
-0.008885
 20
0.000083
  0
ENDBLK
  5
3B3
330
3B1
100
AcDbEntity
  8
0
100
AcDbBlockEnd
  0
BLOCK
  5
3B5
330
3B4
100
AcDbEntity
  8
0
100
AcDbBlockBegin
  2
LARROW_1
 70
     0
 71
     0
 10
0.0
 20
0.0
 30
0.0
  3
LARROW_1
  1

  0
LINE
  5
2F7
330
3B4
100
AcDbEntity
  8
TEXT
  6
Continuous
 62
     7
370
    13
100
AcDbLine
 10
0.0
 20
0.0
 30
0.0
 11
-0.013032
 21
0.001886
 31
0.0
  0
LINE
  5
2F8
330
3B4
100
AcDbEntity
  8
TEXT
  6
Continuous
 62
     7
370
    13
100
AcDbLine
 10
0.0
 20
0.0
 30
0.0
 11
-0.01302
 21
-0.001885
 31
0.0
  0
LWPOLYLINE
  5
2F9
330
3B4
100
AcDbEntity
  8
TEXT
  6
Continuous
 62
     7
370
    13
100
AcDbPolyline
 90
        9
 70
   128
 43
0.0
 10
-0.013032
 20
0.001886
 10
-0.01225
 20
0.001292
 10
-0.011896
 20
0.000813
 10
-0.011718
 20
0.000365
 10
-0.011688
 20
-0.000052
 10
-0.01175
 20
-0.000458
 10
-0.011959
 20
-0.000896
 10
-0.012323
 20
-0.001354
 10
-0.01302
 20
-0.001885
  0
LINE
  5
2FA
330
3B4
100
AcDbEntity
  8
TEXT
  6
Continuous
 62
     7
370
    13
100
AcDbLine
 10
0.0
 20
0.0
 30
0.0
 11
-0.01225
 21
0.001292
 31
0.0
  0
LINE
  5
2FB
330
3B4
100
AcDbEntity
  8
TEXT
  6
Continuous
 62
     7
370
    13
100
AcDbLine
 10
0.0
 20
0.0
 30
0.0
 11
-0.011896
 21
0.000813
 31
0.0
  0
LINE
  5
2FC
330
3B4
100
AcDbEntity
  8
TEXT
  6
Continuous
 62
     7
370
    13
100
AcDbLine
 10
0.0
 20
0.0
 30
0.0
 11
-0.011718
 21
0.000365
 31
0.0
  0
LINE
  5
2FD
330
3B4
100
AcDbEntity
  8
TEXT
  6
Continuous
 62
     7
370
    13
100
AcDbLine
 10
0.0
 20
0.0
 30
0.0
 11
-0.01175
 21
-0.000458
 31
0.0
  0
LINE
  5
2FE
330
3B4
100
AcDbEntity
  8
TEXT
  6
Continuous
 62
     7
370
    13
100
AcDbLine
 10
0.0
 20
0.0
 30
0.0
 11
-0.011959
 21
-0.000896
 31
0.0
  0
LINE
  5
2FF
330
3B4
100
AcDbEntity
  8
TEXT
  6
Continuous
 62
     7
370
    13
100
AcDbLine
 10
0.0
 20
0.0
 30
0.0
 11
-0.012323
 21
-0.001354
 31
0.0
  0
LINE
  5
300
330
3B4
100
AcDbEntity
  8
TEXT
  6
Continuous
 62
     7
370
    13
100
AcDbLine
 10
0.0
 20
0.0
 30
0.0
 11
-0.011677
 21
0.0
 31
0.0
  0
ENDBLK
  5
3B6
330
3B4
100
AcDbEntity
  8
0
100
AcDbBlockEnd
  0
ENDSEC
  0
SECTION
  2
ENTITIES
  0
POINT
  5
5B
330
38E
100
AcDbEntity
  8
Level 1
  6
Continuous
 62
     7
370
    30
100
AcDbPoint
 10
60.583052
 20
-12.086906
 30
0.0
  0
POINT
  5
5C
330
38E
100
AcDbEntity
  8
Level 1
  6
Continuous
 62
     7
370
    30
100
AcDbPoint
 10
60.583052
 20
-12.086906
 30
0.0
  0
LINE
  5
5F
330
38E
100
AcDbEntity
  8
2-4A
  6
Continuous
 62
     7
370
    30
100
AcDbLine
 10
66.058719
 20
-6.406844
 30
0.0
 11
66.115719
 21
-6.481844
 31
0.0
  0
LINE
  5
60
330
38E
100
AcDbEntity
  8
2-4A
  6
Continuous
 62
     7
370
    30
100
AcDbLine
 10
65.928219
 20
-6.331844
 30
0.0
 11
65.874219
 21
-6.256844
 31
0.0
  0
LINE
  5
61
330
38E
100
AcDbEntity
  8
2-4A
  6
Continuous
 62
     7
370
    30
100
AcDbLine
 10
65.905719
 20
-6.406844
 30
0.0
 11
65.956719
 21
-6.481844
 31
0.0
  0
LINE
  5
62
330
38E
100
AcDbEntity
  8
2-4A
  6
Continuous
 62
     7
370
    30
100
AcDbLine
 10
65.707719
 20
-6.331844
 30
0.0
 11
65.662719
 21
-6.256844
 31
0.0
  0
LINE
  5
63
330
38E
100
AcDbEntity
  8
2-4A
  6
Continuous
 62
     7
370
    30
100
AcDbLine
 10
65.676219
 20
-6.406844
 30
0.0
 11
65.718219
 21
-6.481844
 31
0.0
  0
LINE
  5
64
330
38E
100
AcDbEntity
  8
2-4A
  6
Continuous
 62
     7
370
    30
100
AcDbLine
 10
65.560719
 20
-6.331844
 30
0.0
 11
65.521719
 21
-6.256844
 31
0.0
  0
LINE
  5
65
330
38E
100
AcDbEntity
  8
2-4A
  6
Continuous
 62
     7
370
    30
100
AcDbLine
 10
65.446719
 20
-6.406844
 30
0.0
 11
65.479719
 21
-6.481844
 31
0.0
  0
LINE
  5
66
330
38E
100
AcDbEntity
  8
2-4A
  6
Continuous
 62
     7
370
    30
100
AcDbLine
 10
65.340219
 20
-6.331844
 30
0.0
 11
65.310219
 21
-6.256844
 31
0.0
  0
LINE
  5
67
330
38E
100
AcDbEntity
  8
2-4A
  6
Continuous
 62
     7
370
    30
100
AcDbLine
 10
65.293719
 20
-6.406844
 30
0.0
 11
65.320719
 21
-6.481844
 31
0.0
  0
LINE
  5
68
330
38E
100
AcDbEntity
  8
2-4A
  6
Continuous
 62
     7
370
    30
100
AcDbLine
 10
65.119719
 20
-6.331844
 30
0.0
 11
65.098719
 21
-6.256844
 31
0.0
  0
LINE
  5
69
330
38E
100
AcDbEntity
  8
2-4A
  6
Continuous
 62
     7
370
    30
100
AcDbLine
 10
65.064219
 20
-6.406844
 30
0.0
 11
65.082219
 21
-6.481844
 31
0.0
  0
LINE
  5
6A
330
38E
100
AcDbEntity
  8
2-4A
  6
Continuous
 62
     7
370
    30
100
AcDbLine
 10
64.972719
 20
-6.331844
 30
0.0
 11
64.957719
 21
-6.256844
 31
0.0
  0
LINE
  5
6B
330
38E
100
AcDbEntity
  8
2-4A
  6
Continuous
 62
     7
370
    30
100
AcDbLine
 10
64.834719
 20
-6.406844
 30
0.0
 11
64.843719
 21
-6.481844
 31
0.0
  0
LINE
  5
6C
330
38E
100
AcDbEntity
  8
2-4A
  6
Continuous
 62
     7
370
    30
100
AcDbLine
 10
64.752219
 20
-6.331844
 30
0.0
 11
64.746219
 21
-6.256844
 31
0.0
  0
LINE
  5
6D
330
38E
100
AcDbEntity
  8
2-4A
  6
Continuous
 62
     7
370
    30
100
AcDbLine
 10
64.681719
 20
-6.406844
 30
0.0
 11
64.684719
 21
-6.481844
 31
0.0
  0
LINE
  5
6E
330
38E
100
AcDbEntity
  8
2-4A
  6
Continuous
 62
     7
370
    30
100
AcDbLine
 10
64.675719
 20
-6.256844
 30
0.0
 11
64.678719
 21
-6.331844
 31
0.0
  0
LINE
  5
6F
330
38E
100
AcDbEntity
  8
2-4A
  6
Continuous
 62
     7
370
    30
100
AcDbLine
 10
64.740219
 20
-6.181844
 30
0.0
 11
64.734219
 21
-6.106844
 31
0.0
  0
LINE
  5
70
330
38E
100
AcDbEntity
  8
2-4A
  6
Continuous
 62
     7
370
    30
100
AcDbLine
 10
64.816719
 20
-6.256844
 30
0.0
 11
64.825719
 21
-6.331844
 31
0.0
  0
LINE
  5
71
330
38E
100
AcDbEntity
  8
2-4A
  6
Continuous
 62
     7
370
    30
100
AcDbLine
 10
64.942719
 20
-6.181844
 30
0.0
 11
64.927719
 21
-6.106844
 31
0.0
  0
LINE
  5
72
330
38E
100
AcDbEntity
  8
2-4A
  6
Continuous
 62
     7
370
    30
100
AcDbLine
 10
65.028219
 20
-6.256844
 30
0.0
 11
65.046219
 21
-6.331844
 31
0.0
  0
LINE
  5
73
330
38E
100
AcDbEntity
  8
2-4A
  6
Continuous
 62
     7
370
    30
100
AcDbLine
 10
65.077719
 20
-6.181844
 30
0.0
 11
65.056719
 21
-6.106844
 31
0.0
  0
LINE
  5
74
330
38E
100
AcDbEntity
  8
2-4A
  6
Continuous
 62
     7
370
    30
100
AcDbLine
 10
65.239719
 20
-6.256844
 30
0.0
 11
65.266719
 21
-6.331844
 31
0.0
  0
LINE
  5
75
330
38E
100
AcDbEntity
  8
2-4A
  6
Continuous
 62
     7
370
    30
100
AcDbLine
 10
65.280219
 20
-6.181844
 30
0.0
 11
65.250219
 21
-6.106844
 31
0.0
  0
LINE
  5
76
330
38E
100
AcDbEntity
  8
2-4A
  6
Continuous
 62
     7
370
    30
100
AcDbLine
 10
65.380719
 20
-6.256844
 30
0.0
 11
65.413719
 21
-6.331844
 31
0.0
  0
LINE
  5
77
330
38E
100
AcDbEntity
  8
2-4A
  6
Continuous
 62
     7
370
    30
100
AcDbLine
 10
65.482719
 20
-6.181844
 30
0.0
 11
65.443719
 21
-6.106844
 31
0.0
  0
LINE
  5
78
330
38E
100
AcDbEntity
  8
2-4A
  6
Continuous
 62
     7
370
    30
100
AcDbLine
 10
65.592219
 20
-6.256844
 30
0.0
 11
65.634219
 21
-6.331844
 31
0.0
  0
LINE
  5
79
330
38E
100
AcDbEntity
  8
2-4A
  6
Continuous
 62
     7
370
    30
100
AcDbLine
 10
65.617719
 20
-6.181844
 30
0.0
 11
65.572719
 21
-6.106844
 31
0.0
  0
LINE
  5
7A
330
38E
100
AcDbEntity
  8
2-4A
  6
Continuous
 62
     7
370
    30
100
AcDbLine
 10
65.803719
 20
-6.256844
 30
0.0
 11
65.854719
 21
-6.331844
 31
0.0
  0
LINE
  5
7B
330
38E
100
AcDbEntity
  8
2-4A
  6
Continuous
 62
     7
370
    30
100
AcDbLine
 10
65.820219
 20
-6.181844
 30
0.0
 11
65.766219
 21
-6.106844
 31
0.0
  0
LINE
  5
7C
330
38E
100
AcDbEntity
  8
2-4A
  6
Continuous
 62
     7
370
    30
100
AcDbLine
 10
65.944719
 20
-6.256844
 30
0.0
 11
66.001719
 21
-6.331844
 31
0.0
  0
LINE
  5
7D
330
38E
100
AcDbEntity
  8
2-4A
  6
Continuous
 62
     7
370
    30
100
AcDbLine
 10
64.531719
 20
-6.331844
 30
0.0
 11
64.534719
 21
-6.256844
 31
0.0
  0
LINE
  5
7E
330
38E
100
AcDbEntity
  8
2-4A
  6
Continuous
 62
     7
370
    30
100
AcDbLine
 10
64.452219
 20
-6.406844
 30
0.0
 11
64.446219
 21
-6.481844
 31
0.0
  0
LINE
  5
7F
330
38E
100
AcDbEntity
  8
2-4A
  6
Continuous
 62
     7
370
    30
100
AcDbLine
 10
64.384719
 20
-6.331844
 30
0.0
 11
64.393719
 21
-6.256844
 31
0.0
  0
LINE
  5
80
330
38E
100
AcDbEntity
  8
2-4A
  6
Continuous
 62
     7
370
    30
100
AcDbLine
 10
64.222719
 20
-6.406844
 30
0.0
 11
64.207719
 21
-6.481844
 31
0.0
  0
LINE
  5
81
330
38E
100
AcDbEntity
  8
2-4A
  6
Continuous
 62
     7
370
    30
100
AcDbLine
 10
64.164219
 20
-6.331844
 30
0.0
 11
64.182219
 21
-6.256844
 31
0.0
  0
LINE
  5
82
330
38E
100
AcDbEntity
  8
2-4A
  6
Continuous
 62
     7
370
    30
100
AcDbLine
 10
64.069719
 20
-6.406844
 30
0.0
 11
64.048719
 21
-6.481844
 31
0.0
  0
LINE
  5
83
330
38E
100
AcDbEntity
  8
2-4A
  6
Continuous
 62
     7
370
    30
100
AcDbLine
 10
63.916719
 20
-6.406844
 30
0.0
 11
63.889719
 21
-6.481844
 31
0.0
  0
LINE
  5
84
330
38E
100
AcDbEntity
  8
2-4A
  6
Continuous
 62
     7
370
    30
100
AcDbLine
 10
63.840219
 20
-6.406844
 30
0.0
 11
63.810219
 21
-6.481844
 31
0.0
  0
LINE
  5
85
330
38E
100
AcDbEntity
  8
2-4A
  6
Continuous
 62
     7
370
    30
100
AcDbLine
 10
63.862719
 20
-6.181844
 30
0.0
 11
63.895719
 21
-6.106844
 31
0.0
  0
LINE
  5
86
330
38E
100
AcDbEntity
  8
2-4A
  6
Continuous
 62
     7
370
    30
100
AcDbLine
 10
63.900219
 20
-6.256844
 30
0.0
 11
63.870219
 21
-6.331844
 31
0.0
  0
LINE
  5
87
330
38E
100
AcDbEntity
  8
2-4A
  6
Continuous
 62
     7
370
    30
100
AcDbLine
 10
63.970719
 20
-6.256844
 30
0.0
 11
63.943719
 21
-6.331844
 31
0.0
  0
LINE
  5
88
330
38E
100
AcDbEntity
  8
2-4A
  6
Continuous
 62
     7
370
    30
100
AcDbLine
 10
64.111719
 20
-6.256844
 30
0.0
 11
64.090719
 21
-6.331844
 31
0.0
  0
LINE
  5
89
330
38E
100
AcDbEntity
  8
2-4A
  6
Continuous
 62
     7
370
    30
100
AcDbLine
 10
64.200219
 20
-6.181844
 30
0.0
 11
64.218219
 21
-6.106844
 31
0.0
  0
LINE
  5
8A
330
38E
100
AcDbEntity
  8
2-4A
  6
Continuous
 62
     7
370
    30
100
AcDbLine
 10
64.252719
 20
-6.256844
 30
0.0
 11
64.237719
 21
-6.331844
 31
0.0
  0
LINE
  5
8B
330
38E
100
AcDbEntity
  8
2-4A
  6
Continuous
 62
     7
370
    30
100
AcDbLine
 10
64.402719
 20
-6.181844
 30
0.0
 11
64.411719
 21
-6.106844
 31
0.0
  0
LINE
  5
8C
330
38E
100
AcDbEntity
  8
2-4A
  6
Continuous
 62
     7
370
    30
100
AcDbLine
 10
64.464219
 20
-6.256844
 30
0.0
 11
64.458219
 21
-6.331844
 31
0.0
  0
LINE
  5
8D
330
38E
100
AcDbEntity
  8
2-4A
  6
Continuous
 62
     7
370
    30
100
AcDbLine
 10
64.537719
 20
-6.181844
 30
0.0
 11
64.540719
 21
-6.106844
 31
0.0
  0
LINE
  5
8E
330
38E
100
AcDbEntity
  8
2-4A
  6
Continuous
 62
     7
370
    30
100
AcDbLine
 10
63.688719
 20
-6.256844
 30
0.0
 11
63.649719
 21
-6.331844
 31
0.0
  0
LINE
  5
8F
330
38E
100
AcDbEntity
  8
2-4A
  6
Continuous
 62
     7
370
    30
100
AcDbLine
 10
63.660219
 20
-6.181844
 30
0.0
 11
63.702219
 21
-6.106844
 31
0.0
  0
LINE
  5
90
330
38E
100
AcDbEntity
  8
2-4A
  6
Continuous
 62
     7
370
    30
100
AcDbLine
 10
63.592719
 20
-6.181844
 30
0.0
 11
63.637719
 21
-6.106844
 31
0.0
  0
LINE
  5
91
330
38E
100
AcDbEntity
  8
2-4A
  6
Continuous
 62
     7
370
    30
100
AcDbLine
 10
63.406719
 20
-6.256844
 30
0.0
 11
63.355719
 21
-6.331844
 31
0.0
  0
LINE
  5
92
330
38E
100
AcDbEntity
  8
2-4A
  6
Continuous
 62
     7
370
    30
100
AcDbLine
 10
63.390219
 20
-6.181844
 30
0.0
 11
63.444219
 21
-6.106844
 31
0.0
  0
LINE
  5
93
330
38E
100
AcDbEntity
  8
2-4A
  6
Continuous
 62
     7
370
    30
100
AcDbLine
 10
63.265719
 20
-6.256844
 30
0.0
 11
63.208719
 21
-6.331844
 31
0.0
  0
LINE
  5
94
330
38E
100
AcDbEntity
  8
2-4A
  6
Continuous
 62
     7
370
    30
100
AcDbLine
 10
63.151719
 20
-6.406844
 30
0.0
 11
63.094719
 21
-6.481844
 31
0.0
  0
LINE
  5
95
330
38E
100
AcDbEntity
  8
2-4A
  6
Continuous
 62
     7
370
    30
100
AcDbLine
 10
63.282219
 20
-6.331844
 30
0.0
 11
63.336219
 21
-6.256844
 31
0.0
  0
LINE
  5
96
330
38E
100
AcDbEntity
  8
2-4A
  6
Continuous
 62
     7
370
    30
100
AcDbLine
 10
63.304719
 20
-6.406844
 30
0.0
 11
63.253719
 21
-6.481844
 31
0.0
  0
LINE
  5
97
330
38E
100
AcDbEntity
  8
2-4A
  6
Continuous
 62
     7
370
    30
100
AcDbLine
 10
63.502719
 20
-6.331844
 30
0.0
 11
63.547719
 21
-6.256844
 31
0.0
  0
LINE
  5
98
330
38E
100
AcDbEntity
  8
2-4A
  6
Continuous
 62
     7
370
    30
100
AcDbLine
 10
63.576219
 20
-6.331844
 30
0.0
 11
63.618219
 21
-6.256844
 31
0.0
  0
LINE
  5
99
330
38E
100
AcDbEntity
  8
2-4A
  6
Continuous
 62
     7
370
    30
100
AcDbLine
 10
63.610719
 20
-6.406844
 30
0.0
 11
63.571719
 21
-6.481844
 31
0.0
  0
LINE
  5
9A
330
38E
100
AcDbEntity
  8
2-4A
  6
Continuous
 62
     7
370
    30
100
AcDbLine
 10
63.796719
 20
-6.331844
 30
0.0
 11
63.829719
 21
-6.256844
 31
0.0
  0
LINE
  5
9B
330
38E
100
AcDbEntity
  8
2-4A
  6
Continuous
 62
     7
370
    30
100
AcDbLine
 10
65.830719
 20
-6.106844
 30
0.0
 11
65.887719
 21
-6.181844
 31
0.0
  0
LINE
  5
9C
330
38E
100
AcDbEntity
  8
2-4A
  6
Continuous
 62
     7
370
    30
100
AcDbLine
 10
66.036219
 20
-6.481844
 30
0.0
 11
65.982219
 21
-6.406844
 31
0.0
  0
LINE
  5
9D
330
38E
100
AcDbEntity
  8
2-4A
  6
Continuous
 62
     7
370
    30
100
AcDbLine
 10
65.701719
 20
-6.106844
 30
0.0
 11
65.752719
 21
-6.181844
 31
0.0
  0
LINE
  5
9E
330
38E
100
AcDbEntity
  8
2-4A
  6
Continuous
 62
     7
370
    30
100
AcDbLine
 10
65.797719
 20
-6.481844
 30
0.0
 11
65.752719
 21
-6.406844
 31
0.0
  0
LINE
  5
9F
330
38E
100
AcDbEntity
  8
2-4A
  6
Continuous
 62
     7
370
    30
100
AcDbLine
 10
65.508219
 20
-6.106844
 30
0.0
 11
65.550219
 21
-6.181844
 31
0.0
  0
LINE
  5
A0
330
38E
100
AcDbEntity
  8
2-4A
  6
Continuous
 62
     7
370
    30
100
AcDbLine
 10
65.638719
 20
-6.481844
 30
0.0
 11
65.599719
 21
-6.406844
 31
0.0
  0
LINE
  5
A1
330
38E
100
AcDbEntity
  8
2-4A
  6
Continuous
 62
     7
370
    30
100
AcDbLine
 10
65.314719
 20
-6.106844
 30
0.0
 11
65.347719
 21
-6.181844
 31
0.0
  0
LINE
  5
A2
330
38E
100
AcDbEntity
  8
2-4A
  6
Continuous
 62
     7
370
    30
100
AcDbLine
 10
65.400219
 20
-6.481844
 30
0.0
 11
65.370219
 21
-6.406844
 31
0.0
  0
LINE
  5
A3
330
38E
100
AcDbEntity
  8
2-4A
  6
Continuous
 62
     7
370
    30
100
AcDbLine
 10
65.185719
 20
-6.106844
 30
0.0
 11
65.212719
 21
-6.181844
 31
0.0
  0
LINE
  5
A4
330
38E
100
AcDbEntity
  8
2-4A
  6
Continuous
 62
     7
370
    30
100
AcDbLine
 10
65.161719
 20
-6.481844
 30
0.0
 11
65.140719
 21
-6.406844
 31
0.0
  0
LINE
  5
A5
330
38E
100
AcDbEntity
  8
2-4A
  6
Continuous
 62
     7
370
    30
100
AcDbLine
 10
64.992219
 20
-6.106844
 30
0.0
 11
65.010219
 21
-6.181844
 31
0.0
  0
LINE
  5
A6
330
38E
100
AcDbEntity
  8
2-4A
  6
Continuous
 62
     7
370
    30
100
AcDbLine
 10
65.002719
 20
-6.481844
 30
0.0
 11
64.987719
 21
-6.406844
 31
0.0
  0
LINE
  5
A7
330
38E
100
AcDbEntity
  8
2-4A
  6
Continuous
 62
     7
370
    30
100
AcDbLine
 10
64.798719
 20
-6.106844
 30
0.0
 11
64.807719
 21
-6.181844
 31
0.0
  0
LINE
  5
A8
330
38E
100
AcDbEntity
  8
2-4A
  6
Continuous
 62
     7
370
    30
100
AcDbLine
 10
64.764219
 20
-6.481844
 30
0.0
 11
64.758219
 21
-6.406844
 31
0.0
  0
LINE
  5
A9
330
38E
100
AcDbEntity
  8
2-4A
  6
Continuous
 62
     7
370
    30
100
AcDbLine
 10
64.669719
 20
-6.106844
 30
0.0
 11
64.672719
 21
-6.181844
 31
0.0
  0
LINE
  5
AA
330
38E
100
AcDbEntity
  8
2-4A
  6
Continuous
 62
     7
370
    30
100
AcDbLine
 10
64.525719
 20
-6.481844
 30
0.0
 11
64.528719
 21
-6.406844
 31
0.0
  0
LINE
  5
AB
330
38E
100
AcDbEntity
  8
2-4A
  6
Continuous
 62
     7
370
    30
100
AcDbLine
 10
64.476219
 20
-6.106844
 30
0.0
 11
64.470219
 21
-6.181844
 31
0.0
  0
LINE
  5
AC
330
38E
100
AcDbEntity
  8
2-4A
  6
Continuous
 62
     7
370
    30
100
AcDbLine
 10
64.366719
 20
-6.481844
 30
0.0
 11
64.375719
 21
-6.406844
 31
0.0
  0
LINE
  5
AD
330
38E
100
AcDbEntity
  8
2-4A
  6
Continuous
 62
     7
370
    30
100
AcDbLine
 10
64.282719
 20
-6.106844
 30
0.0
 11
64.267719
 21
-6.181844
 31
0.0
  0
LINE
  5
AE
330
38E
100
AcDbEntity
  8
2-4A
  6
Continuous
 62
     7
370
    30
100
AcDbLine
 10
64.128219
 20
-6.481844
 30
0.0
 11
64.146219
 21
-6.406844
 31
0.0
  0
LINE
  5
AF
330
38E
100
AcDbEntity
  8
2-4A
  6
Continuous
 62
     7
370
    30
100
AcDbLine
 10
64.153719
 20
-6.106844
 30
0.0
 11
64.132719
 21
-6.181844
 31
0.0
  0
LINE
  5
B0
330
38E
100
AcDbEntity
  8
2-4A
  6
Continuous
 62
     7
370
    30
100
AcDbLine
 10
64.024719
 20
-6.106844
 30
0.0
 11
63.997719
 21
-6.181844
 31
0.0
  0
LINE
  5
B1
330
38E
100
AcDbEntity
  8
2-4A
  6
Continuous
 62
     7
370
    30
100
AcDbLine
 10
63.960219
 20
-6.106844
 30
0.0
 11
63.930219
 21
-6.181844
 31
0.0
  0
LINE
  5
B2
330
38E
100
AcDbEntity
  8
2-4A
  6
Continuous
 62
     7
370
    30
100
AcDbLine
 10
63.730719
 20
-6.481844
 30
0.0
 11
63.763719
 21
-6.406844
 31
0.0
  0
LINE
  5
B3
330
38E
100
AcDbEntity
  8
2-4A
  6
Continuous
 62
     7
370
    30
100
AcDbLine
 10
63.766719
 20
-6.106844
 30
0.0
 11
63.727719
 21
-6.181844
 31
0.0
  0
LINE
  5
B4
330
38E
100
AcDbEntity
  8
2-4A
  6
Continuous
 62
     7
370
    30
100
AcDbLine
 10
63.492219
 20
-6.481844
 30
0.0
 11
63.534219
 21
-6.406844
 31
0.0
  0
LINE
  5
B5
330
38E
100
AcDbEntity
  8
2-4A
  6
Continuous
 62
     7
370
    30
100
AcDbLine
 10
63.412719
 20
-6.481844
 30
0.0
 11
63.457719
 21
-6.406844
 31
0.0
  0
LINE
  5
B6
330
38E
100
AcDbEntity
  8
2-4A
  6
Continuous
 62
     7
370
    30
100
AcDbLine
 10
63.508719
 20
-6.106844
 30
0.0
 11
63.457719
 21
-6.181844
 31
0.0
  0
LINE
  5
B7
330
38E
100
AcDbEntity
  8
2-4A
  6
Continuous
 62
     7
370
    30
100
AcDbLine
 10
63.174219
 20
-6.481844
 30
0.0
 11
63.228219
 21
-6.406844
 31
0.0
  0
LINE
  5
B8
330
38E
100
AcDbEntity
  8
2-4A
  6
Continuous
 62
     7
370
    30
100
AcDbLine
 10
63.379719
 20
-6.106844
 30
0.0
 11
63.322719
 21
-6.181844
 31
0.0
  0
LINE
  5
B9
330
38E
100
AcDbEntity
  8
Level 1
  6
Continuous
 62
     7
370
    30
100
AcDbLine
 10
65.565219
 20
-5.994344
 30
0.0
 11
66.141219
 21
-6.894344
 31
0.0
  0
LINE
  5
BA
330
38E
100
AcDbEntity
  8
Level 1
  6
Continuous
 62
     7
370
    30
100
AcDbLine
 10
65.757219
 20
-6.894344
 30
0.0
 11
65.325219
 21
-5.994344
 31
0.0
  0
LINE
  5
BB
330
38E
100
AcDbEntity
  8
Level 1
  6
Continuous
 62
     7
370
    30
100
AcDbLine
 10
65.085219
 20
-5.994344
 30
0.0
 11
65.373219
 21
-6.894344
 31
0.0
  0
LINE
  5
BC
330
38E
100
AcDbEntity
  8
Level 1
  6
Continuous
 62
     7
370
    30
100
AcDbLine
 10
64.989219
 20
-6.894344
 30
0.0
 11
64.845219
 21
-5.994344
 31
0.0
  0
LINE
  5
BD
330
38E
100
AcDbEntity
  8
Level 1
  6
Continuous
 62
     7
370
    30
100
AcDbLine
 10
64.365219
 20
-5.994344
 30
0.0
 11
64.221219
 21
-6.894344
 31
0.0
  0
LINE
  5
BE
330
38E
100
AcDbEntity
  8
Level 1
  6
Continuous
 62
     7
370
    30
100
AcDbLine
 10
63.837219
 20
-6.894344
 30
0.0
 11
64.125219
 21
-5.994344
 31
0.0
  0
LINE
  5
BF
330
38E
100
AcDbEntity
  8
Level 1
  6
Continuous
 62
     7
370
    30
100
AcDbLine
 10
63.885219
 20
-5.994344
 30
0.0
 11
63.453219
 21
-6.894344
 31
0.0
  0
LINE
  5
C0
330
38E
100
AcDbEntity
  8
Level 1
  6
Continuous
 62
     7
370
    30
100
AcDbLine
 10
63.069219
 20
-6.894344
 30
0.0
 11
63.645219
 21
-5.994344
 31
0.0
  0
LINE
  5
C1
330
38E
100
AcDbEntity
  8
Level 1
  6
Continuous
 62
     7
370
    30
100
AcDbLine
 10
63.069219
 20
-7.144344
 30
0.0
 11
63.069219
 21
-7.076521
 31
0.0
  0
LINE
  5
C2
330
38E
100
AcDbEntity
  8
Level 1
  6
Continuous
 62
     7
370
    30
100
AcDbLine
 10
63.453219
 20
-7.144344
 30
0.0
 11
63.453219
 21
-7.076521
 31
0.0
  0
LINE
  5
C3
330
38E
100
AcDbEntity
  8
Level 1
  6
Continuous
 62
     7
370
    30
100
AcDbLine
 10
63.837219
 20
-7.144344
 30
0.0
 11
63.837219
 21
-7.076521
 31
0.0
  0
LINE
  5
C4
330
38E
100
AcDbEntity
  8
Level 1
  6
Continuous
 62
     7
370
    30
100
AcDbLine
 10
64.221219
 20
-7.144344
 30
0.0
 11
64.221219
 21
-7.076521
 31
0.0
  0
LINE
  5
C5
330
38E
100
AcDbEntity
  8
Level 1
  6
Continuous
 62
     7
370
    30
100
AcDbLine
 10
66.141219
 20
-7.144344
 30
0.0
 11
66.141219
 21
-7.076521
 31
0.0
  0
LINE
  5
C6
330
38E
100
AcDbEntity
  8
Level 1
  6
Continuous
 62
     7
370
    30
100
AcDbLine
 10
65.757219
 20
-7.144344
 30
0.0
 11
65.757219
 21
-7.076521
 31
0.0
  0
LINE
  5
C7
330
38E
100
AcDbEntity
  8
Level 1
  6
Continuous
 62
     7
370
    30
100
AcDbLine
 10
65.373219
 20
-7.144344
 30
0.0
 11
65.373219
 21
-7.076521
 31
0.0
  0
LINE
  5
C8
330
38E
100
AcDbEntity
  8
Level 1
  6
Continuous
 62
     7
370
    30
100
AcDbLine
 10
64.989219
 20
-7.144344
 30
0.0
 11
64.989219
 21
-7.076521
 31
0.0
  0
LINE
  5
C9
330
38E
100
AcDbEntity
  8
Level 1
  6
Continuous
 62
     7
370
    30
100
AcDbLine
 10
65.101833
 20
-9.532219
 30
0.0
 11
65.101833
 21
-9.435521
 31
0.0
  0
LINE
  5
CA
330
38E
100
AcDbEntity
  8
Level 1
  6
Continuous
 62
     7
370
    30
100
AcDbLine
 10
64.621833
 20
-9.532219
 30
0.0
 11
64.621833
 21
-8.535521
 31
0.0
  0
LINE
  5
CB
330
38E
100
AcDbEntity
  8
Level 1
  6
Continuous
 62
     7
370
    30
100
AcDbLine
 10
64.141833
 20
-9.532219
 30
0.0
 11
64.141833
 21
-9.435521
 31
0.0
  0
LINE
  5
CC
330
38E
100
AcDbEntity
  8
2-4A
  6
Continuous
 62
     7
370
    30
100
AcDbLine
 10
65.956365
 20
-8.948021
 30
0.0
 11
66.006312
 21
-9.023021
 31
0.0
  0
LINE
  5
CD
330
38E
100
AcDbEntity
  8
2-4A
  6
Continuous
 62
     7
370
    30
100
AcDbLine
 10
65.857823
 20
-8.798021
 30
0.0
 11
65.907771
 21
-8.873021
 31
0.0
  0
LINE
  5
CE
330
38E
100
AcDbEntity
  8
2-4A
  6
Continuous
 62
     7
370
    30
100
AcDbLine
 10
65.746802
 20
-8.648021
 30
0.0
 11
65.79675
 21
-8.723021
 31
0.0
  0
LINE
  5
CF
330
38E
100
AcDbEntity
  8
2-4A
  6
Continuous
 62
     7
370
    30
100
AcDbLine
 10
65.615729
 20
-9.023021
 30
0.0
 11
65.580781
 21
-8.948021
 31
0.0
  0
LINE
  5
D0
330
38E
100
AcDbEntity
  8
2-4A
  6
Continuous
 62
     7
370
    30
100
AcDbLine
 10
65.534708
 20
-8.873021
 30
0.0
 11
65.49976
 21
-8.798021
 31
0.0
  0
LINE
  5
D1
330
38E
100
AcDbEntity
  8
2-4A
  6
Continuous
 62
     7
370
    30
100
AcDbLine
 10
65.464812
 20
-8.723021
 30
0.0
 11
65.429865
 21
-8.648021
 31
0.0
  0
LINE
  5
D2
330
38E
100
AcDbEntity
  8
2-4A
  6
Continuous
 62
     7
370
    30
100
AcDbLine
 10
65.218229
 20
-9.023021
 30
0.0
 11
65.198281
 21
-8.948021
 31
0.0
  0
LINE
  5
D3
330
38E
100
AcDbEntity
  8
2-4A
  6
Continuous
 62
     7
370
    30
100
AcDbLine
 10
65.167208
 20
-8.873021
 30
0.0
 11
65.14726
 21
-8.798021
 31
0.0
  0
LINE
  5
D4
330
38E
100
AcDbEntity
  8
2-4A
  6
Continuous
 62
     7
370
    30
100
AcDbLine
 10
65.12175
 20
-8.723021
 30
0.0
 11
65.101802
 21
-8.648021
 31
0.0
  0
LINE
  5
D5
330
38E
100
AcDbEntity
  8
2-4A
  6
Continuous
 62
     7
370
    30
100
AcDbLine
 10
63.285531
 20
-8.948021
 30
0.0
 11
63.2355
 21
-9.023021
 31
0.0
  0
LINE
  5
D6
330
38E
100
AcDbEntity
  8
2-4A
  6
Continuous
 62
     7
370
    30
100
AcDbLine
 10
63.391135
 20
-8.798021
 30
0.0
 11
63.341115
 21
-8.873021
 31
0.0
  0
LINE
  5
D7
330
38E
100
AcDbEntity
  8
2-4A
  6
Continuous
 62
     7
370
    30
100
AcDbLine
 10
63.49675
 20
-8.648021
 30
0.0
 11
63.446729
 21
-8.723021
 31
0.0
  0
LINE
  5
D8
330
38E
100
AcDbEntity
  8
2-4A
  6
Continuous
 62
     7
370
    30
100
AcDbLine
 10
63.813688
 20
-8.648021
 30
0.0
 11
63.778667
 21
-8.723021
 31
0.0
  0
LINE
  5
D9
330
38E
100
AcDbEntity
  8
2-4A
  6
Continuous
 62
     7
370
    30
100
AcDbLine
 10
63.738083
 20
-8.798021
 30
0.0
 11
63.703052
 21
-8.873021
 31
0.0
  0
LINE
  5
DA
330
38E
100
AcDbEntity
  8
2-4A
  6
Continuous
 62
     7
370
    30
100
AcDbLine
 10
63.668031
 20
-8.948021
 30
0.0
 11
63.633
 21
-9.023021
 31
0.0
  0
LINE
  5
DB
330
38E
100
AcDbEntity
  8
2-4A
  6
Continuous
 62
     7
370
    30
100
AcDbLine
 10
64.050531
 20
-8.948021
 30
0.0
 11
64.0305
 21
-9.023021
 31
0.0
  0
LINE
  5
DC
330
38E
100
AcDbEntity
  8
2-4A
  6
Continuous
 62
     7
370
    30
100
AcDbLine
 10
64.096135
 20
-8.798021
 30
0.0
 11
64.076115
 21
-8.873021
 31
0.0
  0
LINE
  5
DD
330
38E
100
AcDbEntity
  8
2-4A
  6
Continuous
 62
     7
370
    30
100
AcDbLine
 10
64.14175
 20
-8.648021
 30
0.0
 11
64.121729
 21
-8.723021
 31
0.0
  0
LINE
  5
DE
330
38E
100
AcDbEntity
  8
2-4A
  6
Continuous
 62
     7
370
    30
100
AcDbLine
 10
64.469813
 20
-8.648021
 30
0.0
 11
64.464781
 21
-8.723021
 31
0.0
  0
LINE
  5
DF
330
38E
100
AcDbEntity
  8
2-4A
  6
Continuous
 62
     7
370
    30
100
AcDbLine
 10
64.448635
 20
-8.798021
 30
0.0
 11
64.443615
 21
-8.873021
 31
0.0
  0
LINE
  5
E0
330
38E
100
AcDbEntity
  8
2-4A
  6
Continuous
 62
     7
370
    30
100
AcDbLine
 10
64.433031
 20
-8.948021
 30
0.0
 11
64.428
 21
-9.023021
 31
0.0
  0
LINE
  5
E1
330
38E
100
AcDbEntity
  8
2-4A
  6
Continuous
 62
     7
370
    30
100
AcDbLine
 10
64.804406
 20
-8.948021
 30
0.0
 11
64.814385
 21
-9.023021
 31
0.0
  0
LINE
  5
E2
330
38E
100
AcDbEntity
  8
2-4A
  6
Continuous
 62
     7
370
    30
100
AcDbLine
 10
64.806698
 20
-8.798021
 30
0.0
 11
64.816677
 21
-8.873021
 31
0.0
  0
LINE
  5
E3
330
38E
100
AcDbEntity
  8
2-4A
  6
Continuous
 62
     7
370
    30
100
AcDbLine
 10
64.78675
 20
-8.648021
 30
0.0
 11
64.796729
 21
-8.723021
 31
0.0
  0
LINE
  5
E4
330
38E
100
AcDbEntity
  8
Level 1
  6
Continuous
 62
     7
370
    30
100
AcDbLine
 10
62.701833
 20
-9.885521
 30
0.0
 11
66.541833
 21
-9.885521
 31
0.0
  0
LINE
  5
E5
330
38E
100
AcDbEntity
  8
Level 1
  6
Continuous
 62
     7
370
    30
100
AcDbLine
 10
62.685219
 20
-7.144344
 30
0.0
 11
66.525219
 21
-7.144344
 31
0.0
  0
LINE
  5
F1
330
38E
100
AcDbEntity
  8
TEXT
  6
Continuous
 62
     7
370
    13
100
AcDbLine
 10
63.004177
 20
-8.835521
 30
0.0
 11
62.884073
 21
-8.835521
 31
0.0
  0
LINE
  5
F2
330
38E
100
AcDbEntity
  8
TEXT
  6
Continuous
 62
     7
370
    13
100
AcDbLine
 10
63.124177
 20
-8.685521
 30
0.0
 11
62.884177
 21
-8.985521
 31
0.0
  0
LINE
  5
F3
330
38E
100
AcDbEntity
  8
TEXT
  6
Continuous
 62
     7
370
    13
100
AcDbLine
 10
62.99574
 20
-8.985521
 30
0.0
 11
62.884177
 21
-8.985521
 31
0.0
  0
LINE
  5
F4
330
38E
100
AcDbEntity
  8
TEXT
  6
Continuous
 62
     7
370
    13
100
AcDbLine
 10
63.23574
 20
-8.685521
 30
0.0
 11
63.124177
 21
-8.685521
 31
0.0
  0
LINE
  5
F5
330
38E
100
AcDbEntity
  8
2-4A
  6
Continuous
 62
     7
370
    30
100
AcDbLine
 10
66.087802
 20
-8.948021
 30
0.0
 11
66.14526
 21
-9.023021
 31
0.0
  0
LINE
  5
F6
330
38E
100
AcDbEntity
  8
2-4A
  6
Continuous
 62
     7
370
    30
100
AcDbLine
 10
65.969219
 20
-8.873021
 30
0.0
 11
65.91424
 21
-8.798021
 31
0.0
  0
LINE
  5
F7
330
38E
100
AcDbEntity
  8
2-4A
  6
Continuous
 62
     7
370
    30
100
AcDbLine
 10
65.896552
 20
-8.948021
 30
0.0
 11
65.94651
 21
-9.023021
 31
0.0
  0
LINE
  5
F8
330
38E
100
AcDbEntity
  8
2-4A
  6
Continuous
 62
     7
370
    30
100
AcDbLine
 10
65.832948
 20
-8.948021
 30
0.0
 11
65.880417
 21
-9.023021
 31
0.0
  0
LINE
  5
F9
330
38E
100
AcDbEntity
  8
2-4A
  6
Continuous
 62
     7
370
    30
100
AcDbLine
 10
65.662854
 20
-8.873021
 30
0.0
 11
65.620406
 21
-8.798021
 31
0.0
  0
LINE
  5
FA
330
38E
100
AcDbEntity
  8
2-4A
  6
Continuous
 62
     7
370
    30
100
AcDbLine
 10
65.641698
 20
-8.948021
 30
0.0
 11
65.681667
 21
-9.023021
 31
0.0
  0
LINE
  5
FB
330
38E
100
AcDbEntity
  8
2-4A
  6
Continuous
 62
     7
370
    30
100
AcDbLine
 10
65.479104
 20
-8.873021
 30
0.0
 11
65.444156
 21
-8.798021
 31
0.0
  0
LINE
  5
FC
330
38E
100
AcDbEntity
  8
2-4A
  6
Continuous
 62
     7
370
    30
100
AcDbLine
 10
65.450448
 20
-8.948021
 30
0.0
 11
65.482917
 21
-9.023021
 31
0.0
  0
LINE
  5
FD
330
38E
100
AcDbEntity
  8
2-4A
  6
Continuous
 62
     7
370
    30
100
AcDbLine
 10
65.295354
 20
-8.873021
 30
0.0
 11
65.267906
 21
-8.798021
 31
0.0
  0
LINE
  5
FE
330
38E
100
AcDbEntity
  8
2-4A
  6
Continuous
 62
     7
370
    30
100
AcDbLine
 10
65.259198
 20
-8.948021
 30
0.0
 11
65.284167
 21
-9.023021
 31
0.0
  0
LINE
  5
FF
330
38E
100
AcDbEntity
  8
2-4A
  6
Continuous
 62
     7
370
    30
100
AcDbLine
 10
65.972906
 20
-8.798021
 30
0.0
 11
66.030354
 21
-8.873021
 31
0.0
  0
LINE
  5
100
330
38E
100
AcDbEntity
  8
2-4A
  6
Continuous
 62
     7
370
    30
100
AcDbLine
 10
65.859271
 20
-8.723021
 30
0.0
 11
65.804292
 21
-8.648021
 31
0.0
  0
LINE
  5
101
330
38E
100
AcDbEntity
  8
2-4A
  6
Continuous
 62
     7
370
    30
100
AcDbLine
 10
65.796656
 20
-8.798021
 30
0.0
 11
65.846604
 21
-8.873021
 31
0.0
  0
LINE
  5
102
330
38E
100
AcDbEntity
  8
2-4A
  6
Continuous
 62
     7
370
    30
100
AcDbLine
 10
65.73799
 20
-8.798021
 30
0.0
 11
65.785469
 21
-8.873021
 31
0.0
  0
LINE
  5
103
330
38E
100
AcDbEntity
  8
2-4A
  6
Continuous
 62
     7
370
    30
100
AcDbLine
 10
65.577958
 20
-8.723021
 30
0.0
 11
65.53551
 21
-8.648021
 31
0.0
  0
LINE
  5
104
330
38E
100
AcDbEntity
  8
2-4A
  6
Continuous
 62
     7
370
    30
100
AcDbLine
 10
65.56174
 20
-8.798021
 30
0.0
 11
65.601719
 21
-8.873021
 31
0.0
  0
LINE
  5
105
330
38E
100
AcDbEntity
  8
2-4A
  6
Continuous
 62
     7
370
    30
100
AcDbLine
 10
65.409208
 20
-8.723021
 30
0.0
 11
65.37426
 21
-8.648021
 31
0.0
  0
LINE
  5
106
330
38E
100
AcDbEntity
  8
2-4A
  6
Continuous
 62
     7
370
    30
100
AcDbLine
 10
65.38549
 20
-8.798021
 30
0.0
 11
65.417969
 21
-8.873021
 31
0.0
  0
LINE
  5
107
330
38E
100
AcDbEntity
  8
2-4A
  6
Continuous
 62
     7
370
    30
100
AcDbLine
 10
65.240458
 20
-8.723021
 30
0.0
 11
65.21301
 21
-8.648021
 31
0.0
  0
LINE
  5
108
330
38E
100
AcDbEntity
  8
2-4A
  6
Continuous
 62
     7
370
    30
100
AcDbLine
 10
65.111604
 20
-8.873021
 30
0.0
 11
65.091656
 21
-8.798021
 31
0.0
  0
LINE
  5
109
330
38E
100
AcDbEntity
  8
2-4A
  6
Continuous
 62
     7
370
    30
100
AcDbLine
 10
65.067948
 20
-8.948021
 30
0.0
 11
65.085417
 21
-9.023021
 31
0.0
  0
LINE
  5
10A
330
38E
100
AcDbEntity
  8
2-4A
  6
Continuous
 62
     7
370
    30
100
AcDbLine
 10
64.927854
 20
-8.873021
 30
0.0
 11
64.915406
 21
-8.798021
 31
0.0
  0
LINE
  5
10B
330
38E
100
AcDbEntity
  8
2-4A
  6
Continuous
 62
     7
370
    30
100
AcDbLine
 10
64.876698
 20
-8.948021
 30
0.0
 11
64.886667
 21
-9.023021
 31
0.0
  0
LINE
  5
10C
330
38E
100
AcDbEntity
  8
2-4A
  6
Continuous
 62
     7
370
    30
100
AcDbLine
 10
64.744104
 20
-8.873021
 30
0.0
 11
64.739156
 21
-8.798021
 31
0.0
  0
LINE
  5
10D
330
38E
100
AcDbEntity
  8
2-4A
  6
Continuous
 62
     7
370
    30
100
AcDbLine
 10
64.685448
 20
-8.948021
 30
0.0
 11
64.687917
 21
-9.023021
 31
0.0
  0
LINE
  5
10E
330
38E
100
AcDbEntity
  8
2-4A
  6
Continuous
 62
     7
370
    30
100
AcDbLine
 10
64.560354
 20
-8.873021
 30
0.0
 11
64.562906
 21
-8.798021
 31
0.0
  0
LINE
  5
10F
330
38E
100
AcDbEntity
  8
2-4A
  6
Continuous
 62
     7
370
    30
100
AcDbLine
 10
65.20924
 20
-8.798021
 30
0.0
 11
65.234219
 21
-8.873021
 31
0.0
  0
LINE
  5
110
330
38E
100
AcDbEntity
  8
2-4A
  6
Continuous
 62
     7
370
    30
100
AcDbLine
 10
65.071708
 20
-8.723021
 30
0.0
 11
65.05176
 21
-8.648021
 31
0.0
  0
LINE
  5
111
330
38E
100
AcDbEntity
  8
2-4A
  6
Continuous
 62
     7
370
    30
100
AcDbLine
 10
65.03299
 20
-8.798021
 30
0.0
 11
65.050469
 21
-8.873021
 31
0.0
  0
LINE
  5
112
330
38E
100
AcDbEntity
  8
2-4A
  6
Continuous
 62
     7
370
    30
100
AcDbLine
 10
64.902958
 20
-8.723021
 30
0.0
 11
64.89051
 21
-8.648021
 31
0.0
  0
LINE
  5
113
330
38E
100
AcDbEntity
  8
2-4A
  6
Continuous
 62
     7
370
    30
100
AcDbLine
 10
64.85674
 20
-8.798021
 30
0.0
 11
64.866719
 21
-8.873021
 31
0.0
  0
LINE
  5
114
330
38E
100
AcDbEntity
  8
2-4A
  6
Continuous
 62
     7
370
    30
100
AcDbLine
 10
64.734208
 20
-8.723021
 30
0.0
 11
64.72926
 21
-8.648021
 31
0.0
  0
LINE
  5
115
330
38E
100
AcDbEntity
  8
2-4A
  6
Continuous
 62
     7
370
    30
100
AcDbLine
 10
64.68049
 20
-8.798021
 30
0.0
 11
64.682969
 21
-8.873021
 31
0.0
  0
LINE
  5
116
330
38E
100
AcDbEntity
  8
2-4A
  6
Continuous
 62
     7
370
    30
100
AcDbLine
 10
64.565458
 20
-8.723021
 30
0.0
 11
64.56801
 21
-8.648021
 31
0.0
  0
LINE
  5
117
330
38E
100
AcDbEntity
  8
2-4A
  6
Continuous
 62
     7
370
    30
100
AcDbLine
 10
64.50424
 20
-8.798021
 30
0.0
 11
64.499219
 21
-8.873021
 31
0.0
  0
LINE
  5
118
330
38E
100
AcDbEntity
  8
2-4A
  6
Continuous
 62
     7
370
    30
100
AcDbLine
 10
64.494198
 20
-8.948021
 30
0.0
 11
64.489167
 21
-9.023021
 31
0.0
  0
LINE
  5
119
330
38E
100
AcDbEntity
  8
2-4A
  6
Continuous
 62
     7
370
    30
100
AcDbLine
 10
64.376604
 20
-8.873021
 30
0.0
 11
64.386656
 21
-8.798021
 31
0.0
  0
LINE
  5
11A
330
38E
100
AcDbEntity
  8
2-4A
  6
Continuous
 62
     7
370
    30
100
AcDbLine
 10
64.302948
 20
-8.948021
 30
0.0
 11
64.290417
 21
-9.023021
 31
0.0
  0
LINE
  5
11B
330
38E
100
AcDbEntity
  8
2-4A
  6
Continuous
 62
     7
370
    30
100
AcDbLine
 10
64.192854
 20
-8.873021
 30
0.0
 11
64.210406
 21
-8.798021
 31
0.0
  0
LINE
  5
11C
330
38E
100
AcDbEntity
  8
2-4A
  6
Continuous
 62
     7
370
    30
100
AcDbLine
 10
64.111698
 20
-8.948021
 30
0.0
 11
64.091667
 21
-9.023021
 31
0.0
  0
LINE
  5
11D
330
38E
100
AcDbEntity
  8
2-4A
  6
Continuous
 62
     7
370
    30
100
AcDbLine
 10
64.009104
 20
-8.873021
 30
0.0
 11
64.034156
 21
-8.798021
 31
0.0
  0
LINE
  5
11E
330
38E
100
AcDbEntity
  8
2-4A
  6
Continuous
 62
     7
370
    30
100
AcDbLine
 10
63.920448
 20
-8.948021
 30
0.0
 11
63.892917
 21
-9.023021
 31
0.0
  0
LINE
  5
11F
330
38E
100
AcDbEntity
  8
2-4A
  6
Continuous
 62
     7
370
    30
100
AcDbLine
 10
63.825354
 20
-8.873021
 30
0.0
 11
63.857906
 21
-8.798021
 31
0.0
  0
LINE
  5
120
330
38E
100
AcDbEntity
  8
2-4A
  6
Continuous
 62
     7
370
    30
100
AcDbLine
 10
64.396708
 20
-8.723021
 30
0.0
 11
64.40676
 21
-8.648021
 31
0.0
  0
LINE
  5
121
330
38E
100
AcDbEntity
  8
2-4A
  6
Continuous
 62
     7
370
    30
100
AcDbLine
 10
64.32799
 20
-8.798021
 30
0.0
 11
64.315469
 21
-8.873021
 31
0.0
  0
LINE
  5
122
330
38E
100
AcDbEntity
  8
2-4A
  6
Continuous
 62
     7
370
    30
100
AcDbLine
 10
64.227958
 20
-8.723021
 30
0.0
 11
64.24551
 21
-8.648021
 31
0.0
  0
LINE
  5
123
330
38E
100
AcDbEntity
  8
2-4A
  6
Continuous
 62
     7
370
    30
100
AcDbLine
 10
64.15174
 20
-8.798021
 30
0.0
 11
64.131719
 21
-8.873021
 31
0.0
  0
LINE
  5
124
330
38E
100
AcDbEntity
  8
2-4A
  6
Continuous
 62
     7
370
    30
100
AcDbLine
 10
64.059208
 20
-8.723021
 30
0.0
 11
64.08426
 21
-8.648021
 31
0.0
  0
LINE
  5
125
330
38E
100
AcDbEntity
  8
2-4A
  6
Continuous
 62
     7
370
    30
100
AcDbLine
 10
63.97549
 20
-8.798021
 30
0.0
 11
63.947969
 21
-8.873021
 31
0.0
  0
LINE
  5
126
330
38E
100
AcDbEntity
  8
2-4A
  6
Continuous
 62
     7
370
    30
100
AcDbLine
 10
63.890458
 20
-8.723021
 30
0.0
 11
63.92301
 21
-8.648021
 31
0.0
  0
LINE
  5
127
330
38E
100
AcDbEntity
  8
2-4A
  6
Continuous
 62
     7
370
    30
100
AcDbLine
 10
63.79924
 20
-8.798021
 30
0.0
 11
63.764219
 21
-8.873021
 31
0.0
  0
LINE
  5
128
330
38E
100
AcDbEntity
  8
2-4A
  6
Continuous
 62
     7
370
    30
100
AcDbLine
 10
63.155448
 20
-8.948021
 30
0.0
 11
63.097917
 21
-9.023021
 31
0.0
  0
LINE
  5
129
330
38E
100
AcDbEntity
  8
2-4A
  6
Continuous
 62
     7
370
    30
100
AcDbLine
 10
63.274104
 20
-8.873021
 30
0.0
 11
63.329156
 21
-8.798021
 31
0.0
  0
LINE
  5
12A
330
38E
100
AcDbEntity
  8
2-4A
  6
Continuous
 62
     7
370
    30
100
AcDbLine
 10
63.346698
 20
-8.948021
 30
0.0
 11
63.296667
 21
-9.023021
 31
0.0
  0
LINE
  5
12B
330
38E
100
AcDbEntity
  8
2-4A
  6
Continuous
 62
     7
370
    30
100
AcDbLine
 10
63.457854
 20
-8.873021
 30
0.0
 11
63.505406
 21
-8.798021
 31
0.0
  0
LINE
  5
12C
330
38E
100
AcDbEntity
  8
2-4A
  6
Continuous
 62
     7
370
    30
100
AcDbLine
 10
63.537948
 20
-8.948021
 30
0.0
 11
63.495417
 21
-9.023021
 31
0.0
  0
LINE
  5
12D
330
38E
100
AcDbEntity
  8
2-4A
  6
Continuous
 62
     7
370
    30
100
AcDbLine
 10
63.641604
 20
-8.873021
 30
0.0
 11
63.681656
 21
-8.798021
 31
0.0
  0
LINE
  5
12E
330
38E
100
AcDbEntity
  8
2-4A
  6
Continuous
 62
     7
370
    30
100
AcDbLine
 10
63.729198
 20
-8.948021
 30
0.0
 11
63.694167
 21
-9.023021
 31
0.0
  0
LINE
  5
12F
330
38E
100
AcDbEntity
  8
2-4A
  6
Continuous
 62
     7
370
    30
100
AcDbLine
 10
63.27049
 20
-8.798021
 30
0.0
 11
63.212969
 21
-8.873021
 31
0.0
  0
LINE
  5
130
330
38E
100
AcDbEntity
  8
2-4A
  6
Continuous
 62
     7
370
    30
100
AcDbLine
 10
63.384208
 20
-8.723021
 30
0.0
 11
63.43926
 21
-8.648021
 31
0.0
  0
LINE
  5
131
330
38E
100
AcDbEntity
  8
2-4A
  6
Continuous
 62
     7
370
    30
100
AcDbLine
 10
63.44674
 20
-8.798021
 30
0.0
 11
63.396719
 21
-8.873021
 31
0.0
  0
LINE
  5
132
330
38E
100
AcDbEntity
  8
2-4A
  6
Continuous
 62
     7
370
    30
100
AcDbLine
 10
63.552958
 20
-8.723021
 30
0.0
 11
63.60051
 21
-8.648021
 31
0.0
  0
LINE
  5
133
330
38E
100
AcDbEntity
  8
2-4A
  6
Continuous
 62
     7
370
    30
100
AcDbLine
 10
63.62299
 20
-8.798021
 30
0.0
 11
63.580469
 21
-8.873021
 31
0.0
  0
LINE
  5
134
330
38E
100
AcDbEntity
  8
2-4A
  6
Continuous
 62
     7
370
    30
100
AcDbLine
 10
63.721708
 20
-8.723021
 30
0.0
 11
63.76176
 21
-8.648021
 31
0.0
  0
LINE
  5
135
330
38E
100
AcDbEntity
  8
2-4A
  6
Continuous
 62
     7
370
    30
100
AcDbLine
 10
65.85801
 20
-8.648021
 30
0.0
 11
65.915458
 21
-8.723021
 31
0.0
  0
LINE
  5
136
330
38E
100
AcDbEntity
  8
2-4A
  6
Continuous
 62
     7
370
    30
100
AcDbLine
 10
66.079167
 20
-9.023021
 30
0.0
 11
66.024198
 21
-8.948021
 31
0.0
  0
LINE
  5
137
330
38E
100
AcDbEntity
  8
2-4A
  6
Continuous
 62
     7
370
    30
100
AcDbLine
 10
65.69676
 20
-8.648021
 30
0.0
 11
65.746708
 21
-8.723021
 31
0.0
  0
LINE
  5
138
330
38E
100
AcDbEntity
  8
2-4A
  6
Continuous
 62
     7
370
    30
100
AcDbLine
 10
65.643042
 20
-8.648021
 30
0.0
 11
65.690521
 21
-8.723021
 31
0.0
  0
LINE
  5
139
330
38E
100
AcDbEntity
  8
2-4A
  6
Continuous
 62
     7
370
    30
100
AcDbLine
 10
65.74776
 20
-9.023021
 30
0.0
 11
65.705302
 21
-8.948021
 31
0.0
  0
LINE
  5
13A
330
38E
100
AcDbEntity
  8
2-4A
  6
Continuous
 62
     7
370
    30
100
AcDbLine
 10
65.481792
 20
-8.648021
 30
0.0
 11
65.521771
 21
-8.723021
 31
0.0
  0
LINE
  5
13B
330
38E
100
AcDbEntity
  8
2-4A
  6
Continuous
 62
     7
370
    30
100
AcDbLine
 10
65.54901
 20
-9.023021
 30
0.0
 11
65.514052
 21
-8.948021
 31
0.0
  0
LINE
  5
13C
330
38E
100
AcDbEntity
  8
2-4A
  6
Continuous
 62
     7
370
    30
100
AcDbLine
 10
65.320542
 20
-8.648021
 30
0.0
 11
65.353021
 21
-8.723021
 31
0.0
  0
LINE
  5
13D
330
38E
100
AcDbEntity
  8
2-4A
  6
Continuous
 62
     7
370
    30
100
AcDbLine
 10
65.35026
 20
-9.023021
 30
0.0
 11
65.322802
 21
-8.948021
 31
0.0
  0
LINE
  5
13E
330
38E
100
AcDbEntity
  8
2-4A
  6
Continuous
 62
     7
370
    30
100
AcDbLine
 10
65.159292
 20
-8.648021
 30
0.0
 11
65.184271
 21
-8.723021
 31
0.0
  0
LINE
  5
13F
330
38E
100
AcDbEntity
  8
2-4A
  6
Continuous
 62
     7
370
    30
100
AcDbLine
 10
65.15151
 20
-9.023021
 30
0.0
 11
65.131552
 21
-8.948021
 31
0.0
  0
LINE
  5
140
330
38E
100
AcDbEntity
  8
2-4A
  6
Continuous
 62
     7
370
    30
100
AcDbLine
 10
64.998042
 20
-8.648021
 30
0.0
 11
65.015521
 21
-8.723021
 31
0.0
  0
LINE
  5
141
330
38E
100
AcDbEntity
  8
2-4A
  6
Continuous
 62
     7
370
    30
100
AcDbLine
 10
64.95276
 20
-9.023021
 30
0.0
 11
64.940302
 21
-8.948021
 31
0.0
  0
LINE
  5
142
330
38E
100
AcDbEntity
  8
2-4A
  6
Continuous
 62
     7
370
    30
100
AcDbLine
 10
64.836792
 20
-8.648021
 30
0.0
 11
64.846771
 21
-8.723021
 31
0.0
  0
LINE
  5
143
330
38E
100
AcDbEntity
  8
2-4A
  6
Continuous
 62
     7
370
    30
100
AcDbLine
 10
64.75401
 20
-9.023021
 30
0.0
 11
64.749052
 21
-8.948021
 31
0.0
  0
LINE
  5
144
330
38E
100
AcDbEntity
  8
2-4A
  6
Continuous
 62
     7
370
    30
100
AcDbLine
 10
64.675542
 20
-8.648021
 30
0.0
 11
64.678021
 21
-8.723021
 31
0.0
  0
LINE
  5
145
330
38E
100
AcDbEntity
  8
2-4A
  6
Continuous
 62
     7
370
    30
100
AcDbLine
 10
64.55526
 20
-9.023021
 30
0.0
 11
64.557802
 21
-8.948021
 31
0.0
  0
LINE
  5
146
330
38E
100
AcDbEntity
  8
2-4A
  6
Continuous
 62
     7
370
    30
100
AcDbLine
 10
64.514292
 20
-8.648021
 30
0.0
 11
64.509271
 21
-8.723021
 31
0.0
  0
LINE
  5
147
330
38E
100
AcDbEntity
  8
2-4A
  6
Continuous
 62
     7
370
    30
100
AcDbLine
 10
64.35651
 20
-9.023021
 30
0.0
 11
64.366552
 21
-8.948021
 31
0.0
  0
LINE
  5
148
330
38E
100
AcDbEntity
  8
2-4A
  6
Continuous
 62
     7
370
    30
100
AcDbLine
 10
64.353042
 20
-8.648021
 30
0.0
 11
64.340521
 21
-8.723021
 31
0.0
  0
LINE
  5
149
330
38E
100
AcDbEntity
  8
2-4A
  6
Continuous
 62
     7
370
    30
100
AcDbLine
 10
64.15776
 20
-9.023021
 30
0.0
 11
64.175302
 21
-8.948021
 31
0.0
  0
LINE
  5
14A
330
38E
100
AcDbEntity
  8
2-4A
  6
Continuous
 62
     7
370
    30
100
AcDbLine
 10
64.191792
 20
-8.648021
 30
0.0
 11
64.171771
 21
-8.723021
 31
0.0
  0
LINE
  5
14B
330
38E
100
AcDbEntity
  8
2-4A
  6
Continuous
 62
     7
370
    30
100
AcDbLine
 10
63.95901
 20
-9.023021
 30
0.0
 11
63.984052
 21
-8.948021
 31
0.0
  0
LINE
  5
14C
330
38E
100
AcDbEntity
  8
2-4A
  6
Continuous
 62
     7
370
    30
100
AcDbLine
 10
64.030542
 20
-8.648021
 30
0.0
 11
64.003021
 21
-8.723021
 31
0.0
  0
LINE
  5
14D
330
38E
100
AcDbEntity
  8
2-4A
  6
Continuous
 62
     7
370
    30
100
AcDbLine
 10
63.76026
 20
-9.023021
 30
0.0
 11
63.792802
 21
-8.948021
 31
0.0
  0
LINE
  5
14E
330
38E
100
AcDbEntity
  8
2-4A
  6
Continuous
 62
     7
370
    30
100
AcDbLine
 10
63.869292
 20
-8.648021
 30
0.0
 11
63.834271
 21
-8.723021
 31
0.0
  0
LINE
  5
14F
330
38E
100
AcDbEntity
  8
2-4A
  6
Continuous
 62
     7
370
    30
100
AcDbLine
 10
63.56151
 20
-9.023021
 30
0.0
 11
63.601552
 21
-8.948021
 31
0.0
  0
LINE
  5
150
330
38E
100
AcDbEntity
  8
2-4A
  6
Continuous
 62
     7
370
    30
100
AcDbLine
 10
63.708042
 20
-8.648021
 30
0.0
 11
63.665521
 21
-8.723021
 31
0.0
  0
LINE
  5
151
330
38E
100
AcDbEntity
  8
2-4A
  6
Continuous
 62
     7
370
    30
100
AcDbLine
 10
63.36276
 20
-9.023021
 30
0.0
 11
63.410302
 21
-8.948021
 31
0.0
  0
LINE
  5
152
330
38E
100
AcDbEntity
  8
2-4A
  6
Continuous
 62
     7
370
    30
100
AcDbLine
 10
63.546792
 20
-8.648021
 30
0.0
 11
63.496771
 21
-8.723021
 31
0.0
  0
LINE
  5
153
330
38E
100
AcDbEntity
  8
2-4A
  6
Continuous
 62
     7
370
    30
100
AcDbLine
 10
63.16401
 20
-9.023021
 30
0.0
 11
63.219052
 21
-8.948021
 31
0.0
  0
LINE
  5
154
330
38E
100
AcDbEntity
  8
2-4A
  6
Continuous
 62
     7
370
    30
100
AcDbLine
 10
63.385542
 20
-8.648021
 30
0.0
 11
63.328021
 21
-8.723021
 31
0.0
  0
LINE
  5
155
330
38E
100
AcDbEntity
  8
Level 1
  6
Continuous
 62
     7
370
    30
100
AcDbLine
 10
64.141833
 20
-9.435521
 30
0.0
 11
64.321833
 21
-8.535521
 31
0.0
  0
LINE
  5
156
330
38E
100
AcDbEntity
  8
Level 1
  6
Continuous
 62
     7
370
    30
100
AcDbLine
 10
65.101833
 20
-9.435521
 30
0.0
 11
64.921833
 21
-8.535521
 31
0.0
  0
LINE
  5
157
330
38E
100
AcDbEntity
  8
Level 1
  6
Continuous
 62
     7
370
    30
100
AcDbLine
 10
65.581833
 20
-9.435521
 30
0.0
 11
65.221833
 21
-8.535521
 31
0.0
  0
LINE
  5
158
330
38E
100
AcDbEntity
  8
Level 1
  6
Continuous
 62
     7
370
    30
100
AcDbLine
 10
66.541833
 20
-9.435521
 30
0.0
 11
65.821833
 21
-8.535521
 31
0.0
  0
LINE
  5
159
330
38E
100
AcDbEntity
  8
Level 1
  6
Continuous
 62
     7
370
    30
100
AcDbLine
 10
64.621833
 20
-9.885521
 30
0.0
 11
64.621833
 21
-9.712667
 31
0.0
  0
LINE
  5
15A
330
38E
100
AcDbEntity
  8
Level 1
  6
Continuous
 62
     7
370
    30
100
AcDbLine
 10
64.021833
 20
-8.535521
 30
0.0
 11
63.661833
 21
-9.435521
 31
0.0
  0
LINE
  5
15B
330
38E
100
AcDbEntity
  8
Level 1
  6
Continuous
 62
     7
370
    30
100
AcDbLine
 10
63.721833
 20
-8.535521
 30
0.0
 11
63.181833
 21
-9.435521
 31
0.0
  0
LINE
  5
15C
330
38E
100
AcDbEntity
  8
Level 1
  6
Continuous
 62
     7
370
    30
100
AcDbLine
 10
63.421833
 20
-8.535521
 30
0.0
 11
62.701833
 21
-9.435521
 31
0.0
  0
LINE
  5
15D
330
38E
100
AcDbEntity
  8
Level 1
  6
Continuous
 62
     7
370
    30
100
AcDbLine
 10
62.701833
 20
-9.885521
 30
0.0
 11
62.701833
 21
-9.435521
 31
0.0
  0
LINE
  5
15E
330
38E
100
AcDbEntity
  8
Level 1
  6
Continuous
 62
     7
370
    30
100
AcDbLine
 10
63.181833
 20
-9.885521
 30
0.0
 11
63.181833
 21
-9.712667
 31
0.0
  0
LINE
  5
15F
330
38E
100
AcDbEntity
  8
Level 1
  6
Continuous
 62
     7
370
    30
100
AcDbLine
 10
63.661833
 20
-9.885521
 30
0.0
 11
63.661833
 21
-9.712667
 31
0.0
  0
LINE
  5
160
330
38E
100
AcDbEntity
  8
Level 1
  6
Continuous
 62
     7
370
    30
100
AcDbLine
 10
64.141833
 20
-9.885521
 30
0.0
 11
64.141833
 21
-9.712667
 31
0.0
  0
LINE
  5
161
330
38E
100
AcDbEntity
  8
Level 1
  6
Continuous
 62
     7
370
    30
100
AcDbLine
 10
66.541833
 20
-9.885521
 30
0.0
 11
66.541833
 21
-9.435521
 31
0.0
  0
LINE
  5
162
330
38E
100
AcDbEntity
  8
Level 1
  6
Continuous
 62
     7
370
    30
100
AcDbLine
 10
66.061833
 20
-9.885521
 30
0.0
 11
66.061833
 21
-9.712667
 31
0.0
  0
LINE
  5
163
330
38E
100
AcDbEntity
  8
Level 1
  6
Continuous
 62
     7
370
    30
100
AcDbLine
 10
65.581833
 20
-9.885521
 30
0.0
 11
65.581833
 21
-9.712667
 31
0.0
  0
LINE
  5
164
330
38E
100
AcDbEntity
  8
Level 1
  6
Continuous
 62
     7
370
    30
100
AcDbLine
 10
65.101833
 20
-9.885521
 30
0.0
 11
65.101833
 21
-9.712667
 31
0.0
  0
LINE
  5
165
330
38E
100
AcDbEntity
  8
Level 1
  6
Continuous
 62
     7
370
    30
100
AcDbLine
 10
62.701833
 20
-9.435521
 30
0.0
 11
66.541833
 21
-9.435521
 31
0.0
  0
LINE
  5
166
330
38E
100
AcDbEntity
  8
2-4A
  6
Continuous
 62
     7
370
    30
100
AcDbLine
 10
62.821833
 20
-9.285521
 30
0.0
 11
66.421833
 21
-9.285521
 31
0.0
  0
LINE
  5
167
330
38E
100
AcDbEntity
  8
2-4A
  6
Continuous
 62
     7
370
    30
100
AcDbLine
 10
62.941833
 20
-9.135521
 30
0.0
 11
66.301833
 21
-9.135521
 31
0.0
  0
LINE
  5
168
330
38E
100
AcDbEntity
  8
2-4A
  6
Continuous
 62
     7
370
    30
100
AcDbLine
 10
63.061833
 20
-8.985521
 30
0.0
 11
66.181833
 21
-8.985521
 31
0.0
  0
LINE
  5
169
330
38E
100
AcDbEntity
  8
2-4A
  6
Continuous
 62
     7
370
    30
100
AcDbLine
 10
63.181833
 20
-8.835521
 30
0.0
 11
66.061833
 21
-8.835521
 31
0.0
  0
LINE
  5
16A
330
38E
100
AcDbEntity
  8
2-4A
  6
Continuous
 62
     7
370
    30
100
AcDbLine
 10
63.301833
 20
-8.685521
 30
0.0
 11
65.941833
 21
-8.685521
 31
0.0
  0
LINE
  5
16B
330
38E
100
AcDbEntity
  8
Level 1
  6
Continuous
 62
     7
370
    30
100
AcDbLine
 10
63.421833
 20
-8.535521
 30
0.0
 11
65.821833
 21
-8.535521
 31
0.0
  0
SOLID
  5
16C
330
38E
100
AcDbEntity
  8
2-4A
  6
Continuous
 62
     7
370
    30
100
AcDbTrace
 10
63.251031
 20
-6.522677
 30
0.0
 11
63.250302
 21
-6.539333
 31
0.0
 12
63.300625
 22
-6.533187
 32
0.0
 13
63.300625
 23
-6.533187
 33
0.0
  0
LINE
  5
16D
330
38E
100
AcDbEntity
  8
Level 1
  6
Continuous
 62
     7
370
    30
100
AcDbLine
 10
63.405219
 20
-5.994344
 30
0.0
 11
65.805219
 21
-5.994344
 31
0.0
  0
LINE
  5
16E
330
38E
100
AcDbEntity
  8
2-4A
  6
Continuous
 62
     7
370
    30
100
AcDbLine
 10
63.285219
 20
-6.144344
 30
0.0
 11
65.925219
 21
-6.144344
 31
0.0
  0
LINE
  5
16F
330
38E
100
AcDbEntity
  8
2-4A
  6
Continuous
 62
     7
370
    30
100
AcDbLine
 10
63.165219
 20
-6.294344
 30
0.0
 11
66.045219
 21
-6.294344
 31
0.0
  0
LINE
  5
170
330
38E
100
AcDbEntity
  8
2-4A
  6
Continuous
 62
     7
370
    30
100
AcDbLine
 10
63.045219
 20
-6.444344
 30
0.0
 11
66.165219
 21
-6.444344
 31
0.0
  0
LINE
  5
171
330
38E
100
AcDbEntity
  8
2-4A
  6
Continuous
 62
     7
370
    30
100
AcDbLine
 10
62.925219
 20
-6.594344
 30
0.0
 11
66.285219
 21
-6.594344
 31
0.0
  0
LINE
  5
172
330
38E
100
AcDbEntity
  8
2-4A
  6
Continuous
 62
     7
370
    30
100
AcDbLine
 10
62.805219
 20
-6.744344
 30
0.0
 11
66.405219
 21
-6.744344
 31
0.0
  0
LINE
  5
173
330
38E
100
AcDbEntity
  8
Level 1
  6
Continuous
 62
     7
370
    30
100
AcDbLine
 10
62.685219
 20
-6.894344
 30
0.0
 11
66.525219
 21
-6.894344
 31
0.0
  0
LINE
  5
174
330
38E
100
AcDbEntity
  8
Level 1
  6
Continuous
 62
     7
370
    30
100
AcDbLine
 10
66.525219
 20
-7.144344
 30
0.0
 11
66.525219
 21
-6.894344
 31
0.0
  0
LINE
  5
175
330
38E
100
AcDbEntity
  8
Level 1
  6
Continuous
 62
     7
370
    30
100
AcDbLine
 10
62.685219
 20
-7.144344
 30
0.0
 11
62.685219
 21
-6.894344
 31
0.0
  0
LINE
  5
176
330
38E
100
AcDbEntity
  8
Level 1
  6
Continuous
 62
     7
370
    30
100
AcDbLine
 10
63.405219
 20
-5.994344
 30
0.0
 11
62.685219
 21
-6.894344
 31
0.0
  0
LINE
  5
177
330
38E
100
AcDbEntity
  8
Level 1
  6
Continuous
 62
     7
370
    30
100
AcDbLine
 10
64.605219
 20
-7.144344
 30
0.0
 11
64.605219
 21
-7.076521
 31
0.0
  0
LINE
  5
178
330
38E
100
AcDbEntity
  8
Level 1
  6
Continuous
 62
     7
370
    30
100
AcDbLine
 10
66.525219
 20
-6.894344
 30
0.0
 11
65.805219
 21
-5.994344
 31
0.0
  0
LINE
  5
179
330
38E
100
AcDbEntity
  8
Level 1
  6
Continuous
 62
     7
370
    13
100
AcDbLine
 10
63.219135
 20
-6.144344
 30
0.0
 11
63.107563
 21
-6.144344
 31
0.0
  0
LINE
  5
17A
330
38E
100
AcDbEntity
  8
Level 1
  6
Continuous
 62
     7
370
    13
100
AcDbLine
 10
62.979135
 20
-6.444344
 30
0.0
 11
62.867562
 21
-6.444344
 31
0.0
  0
LINE
  5
17B
330
38E
100
AcDbEntity
  8
Level 1
  6
Continuous
 62
     7
370
    13
100
AcDbLine
 10
63.107563
 20
-6.144344
 30
0.0
 11
62.867562
 21
-6.444344
 31
0.0
  0
CIRCLE
  5
17D
330
38E
100
AcDbEntity
  8
2-4A
  6
Continuous
 62
     7
370
    13
100
AcDbCircle
 10
66.046473
 20
-4.730957
 30
0.0
 40
0.1143841377037358
  0
LINE
  5
180
330
38E
100
AcDbEntity
  8
2-4A
  6
Continuous
 62
     7
370
    13
100
AcDbLine
 10
66.285521
 20
-3.624719
 30
0.0
 11
66.368271
 21
-3.558521
 31
0.0
  0
LINE
  5
181
330
38E
100
AcDbEntity
  8
2-4A
  6
Continuous
 62
     7
370
    13
100
AcDbLine
 10
66.765521
 20
-4.224719
 30
0.0
 11
66.848271
 21
-4.158521
 31
0.0
  0
LINE
  5
182
330
38E
100
AcDbEntity
  8
2-4A
  6
Continuous
 62
     7
370
    13
100
AcDbLine
 10
63.548812
 20
-3.805958
 30
0.0
 11
63.308812
 21
-4.105958
 31
0.0
  0
LINE
  5
183
330
38E
100
AcDbEntity
  8
2-4A
  6
Continuous
 62
     7
370
    13
100
AcDbLine
 10
63.420385
 20
-4.105958
 30
0.0
 11
63.308812
 21
-4.105958
 31
0.0
  0
LINE
  5
184
330
38E
100
AcDbEntity
  8
2-4A
  6
Continuous
 62
     7
370
    13
100
AcDbLine
 10
63.660385
 20
-3.805958
 30
0.0
 11
63.548812
 21
-3.805958
 31
0.0
  0
LWPOLYLINE
  5
186
330
38E
100
AcDbEntity
  8
Level 1
  6
Continuous
 62
     7
370
    30
100
AcDbPolyline
 90
        8
 70
   128
 43
0.0
 10
66.796469
 20
-4.805958
 10
66.796469
 20
-4.734219
 10
66.804896
 20
-4.729062
 10
66.783677
 20
-4.724938
 10
66.808833
 20
-4.717729
 10
66.77974
 20
-4.715667
 10
66.796469
 20
-4.712573
 10
66.796469
 20
-4.655958
  0
LWPOLYLINE
  5
187
330
38E
100
AcDbEntity
  8
Level 1
  6
Continuous
 62
     7
370
    30
100
AcDbPolyline
 90
        8
 70
   128
 43
0.0
 10
66.296469
 20
-4.805958
 10
66.296469
 20
-4.734219
 10
66.304896
 20
-4.729062
 10
66.283677
 20
-4.724938
 10
66.308833
 20
-4.717729
 10
66.27974
 20
-4.715667
 10
66.296469
 20
-4.712573
 10
66.296469
 20
-4.655958
  0
LWPOLYLINE
  5
188
330
38E
100
AcDbEntity
  8
Level 1
  6
Continuous
 62
     7
370
    30
100
AcDbPolyline
 90
        8
 70
   128
 43
0.0
 10
65.796469
 20
-4.805958
 10
65.796469
 20
-4.734219
 10
65.804896
 20
-4.729062
 10
65.783677
 20
-4.724938
 10
65.808833
 20
-4.717729
 10
65.77974
 20
-4.715667
 10
65.796469
 20
-4.712573
 10
65.796469
 20
-4.655958
  0
LWPOLYLINE
  5
189
330
38E
100
AcDbEntity
  8
Level 1
  6
Continuous
 62
     7
370
    30
100
AcDbPolyline
 90
        8
 70
   128
 43
0.0
 10
64.796469
 20
-4.805958
 10
64.796469
 20
-4.734219
 10
64.804896
 20
-4.729062
 10
64.783677
 20
-4.724938
 10
64.808833
 20
-4.717729
 10
64.77974
 20
-4.715667
 10
64.796469
 20
-4.712573
 10
64.796469
 20
-4.655958
  0
LWPOLYLINE
  5
18A
330
38E
100
AcDbEntity
  8
Level 1
  6
Continuous
 62
     7
370
    30
100
AcDbPolyline
 90
        8
 70
   128
 43
0.0
 10
64.296469
 20
-4.805958
 10
64.296469
 20
-4.734219
 10
64.304896
 20
-4.729062
 10
64.283677
 20
-4.724938
 10
64.308833
 20
-4.717729
 10
64.27974
 20
-4.715667
 10
64.296469
 20
-4.712573
 10
64.296469
 20
-4.655958
  0
LWPOLYLINE
  5
18B
330
38E
100
AcDbEntity
  8
Level 1
  6
Continuous
 62
     7
370
    30
100
AcDbPolyline
 90
        8
 70
   128
 43
0.0
 10
63.796469
 20
-4.805958
 10
63.796469
 20
-4.734219
 10
63.804896
 20
-4.729062
 10
63.783677
 20
-4.724938
 10
63.808833
 20
-4.717729
 10
63.77974
 20
-4.715667
 10
63.796469
 20
-4.712573
 10
63.796469
 20
-4.655958
  0
LWPOLYLINE
  5
18C
330
38E
100
AcDbEntity
  8
Level 1
  6
Continuous
 62
     7
370
    30
100
AcDbPolyline
 90
        8
 70
   128
 43
0.0
 10
63.296469
 20
-4.805958
 10
63.296469
 20
-4.734219
 10
63.304896
 20
-4.729062
 10
63.283677
 20
-4.724938
 10
63.308833
 20
-4.717729
 10
63.27974
 20
-4.715667
 10
63.296469
 20
-4.712573
 10
63.296469
 20
-4.655958
  0
LINE
  5
18D
330
38E
100
AcDbEntity
  8
Level 1
  6
Continuous
 62
     7
370
    30
100
AcDbLine
 10
65.046469
 20
-4.805958
 30
0.0
 11
65.046469
 21
-4.655958
 31
0.0
  0
LWPOLYLINE
  5
18E
330
38E
100
AcDbEntity
  8
Level 1
  6
Continuous
 62
     7
370
    30
100
AcDbPolyline
 90
        8
 70
   128
 43
0.0
 10
65.296469
 20
-4.805958
 10
65.296469
 20
-4.734219
 10
65.304896
 20
-4.729062
 10
65.283677
 20
-4.724938
 10
65.308833
 20
-4.717729
 10
65.27974
 20
-4.715667
 10
65.296469
 20
-4.712573
 10
65.296469
 20
-4.655958
  0
LINE
  5
18F
330
38E
100
AcDbEntity
  8
2-4A
  6
Continuous
 62
     7
370
    30
100
AcDbLine
 10
64.535812
 20
-3.768458
 30
0.0
 11
64.589635
 21
-3.768458
 31
0.0
  0
LINE
  5
190
330
38E
100
AcDbEntity
  8
2-4A
  6
Continuous
 62
     7
370
    30
100
AcDbLine
 10
64.547698
 20
-3.730958
 30
0.0
 11
64.60025
 21
-3.730958
 31
0.0
  0
LINE
  5
191
330
38E
100
AcDbEntity
  8
2-4A
  6
Continuous
 62
     7
370
    30
100
AcDbLine
 10
64.559583
 20
-3.693458
 30
0.0
 11
64.610865
 21
-3.693458
 31
0.0
  0
LINE
  5
192
330
38E
100
AcDbEntity
  8
2-4A
  6
Continuous
 62
     7
370
    30
100
AcDbLine
 10
64.405833
 20
-3.693458
 30
0.0
 11
64.457115
 21
-3.693458
 31
0.0
  0
LINE
  5
193
330
38E
100
AcDbEntity
  8
2-4A
  6
Continuous
 62
     7
370
    30
100
AcDbLine
 10
64.390198
 20
-3.730958
 30
0.0
 11
64.44275
 21
-3.730958
 31
0.0
  0
LINE
  5
194
330
38E
100
AcDbEntity
  8
2-4A
  6
Continuous
 62
     7
370
    30
100
AcDbLine
 10
64.374562
 20
-3.768458
 30
0.0
 11
64.428385
 21
-3.768458
 31
0.0
  0
LINE
  5
195
330
38E
100
AcDbEntity
  8
2-4A
  6
Continuous
 62
     7
370
    30
100
AcDbLine
 10
64.213313
 20
-3.768458
 30
0.0
 11
64.267135
 21
-3.768458
 31
0.0
  0
LINE
  5
196
330
38E
100
AcDbEntity
  8
2-4A
  6
Continuous
 62
     7
370
    30
100
AcDbLine
 10
64.232698
 20
-3.730958
 30
0.0
 11
64.28525
 21
-3.730958
 31
0.0
  0
LINE
  5
197
330
38E
100
AcDbEntity
  8
2-4A
  6
Continuous
 62
     7
370
    30
100
AcDbLine
 10
64.252083
 20
-3.693458
 30
0.0
 11
64.303365
 21
-3.693458
 31
0.0
  0
LINE
  5
198
330
38E
100
AcDbEntity
  8
2-4A
  6
Continuous
 62
     7
370
    30
100
AcDbLine
 10
64.098333
 20
-3.693458
 30
0.0
 11
64.149615
 21
-3.693458
 31
0.0
  0
LINE
  5
199
330
38E
100
AcDbEntity
  8
2-4A
  6
Continuous
 62
     7
370
    30
100
AcDbLine
 10
64.075198
 20
-3.730958
 30
0.0
 11
64.12775
 21
-3.730958
 31
0.0
  0
LINE
  5
19A
330
38E
100
AcDbEntity
  8
2-4A
  6
Continuous
 62
     7
370
    30
100
AcDbLine
 10
64.052062
 20
-3.768458
 30
0.0
 11
64.105885
 21
-3.768458
 31
0.0
  0
LINE
  5
19B
330
38E
100
AcDbEntity
  8
2-4A
  6
Continuous
 62
     7
370
    30
100
AcDbLine
 10
65.180813
 20
-3.768458
 30
0.0
 11
65.234635
 21
-3.768458
 31
0.0
  0
LINE
  5
19C
330
38E
100
AcDbEntity
  8
2-4A
  6
Continuous
 62
     7
370
    30
100
AcDbLine
 10
65.177698
 20
-3.730958
 30
0.0
 11
65.23025
 21
-3.730958
 31
0.0
  0
LINE
  5
19D
330
38E
100
AcDbEntity
  8
2-4A
  6
Continuous
 62
     7
370
    30
100
AcDbLine
 10
65.174583
 20
-3.693458
 30
0.0
 11
65.225865
 21
-3.693458
 31
0.0
  0
LINE
  5
19E
330
38E
100
AcDbEntity
  8
2-4A
  6
Continuous
 62
     7
370
    30
100
AcDbLine
 10
65.020833
 20
-3.693458
 30
0.0
 11
65.072115
 21
-3.693458
 31
0.0
  0
LINE
  5
19F
330
38E
100
AcDbEntity
  8
2-4A
  6
Continuous
 62
     7
370
    30
100
AcDbLine
 10
65.020198
 20
-3.730958
 30
0.0
 11
65.07275
 21
-3.730958
 31
0.0
  0
LINE
  5
1A0
330
38E
100
AcDbEntity
  8
2-4A
  6
Continuous
 62
     7
370
    30
100
AcDbLine
 10
65.019562
 20
-3.768458
 30
0.0
 11
65.073385
 21
-3.768458
 31
0.0
  0
LINE
  5
1A1
330
38E
100
AcDbEntity
  8
2-4A
  6
Continuous
 62
     7
370
    30
100
AcDbLine
 10
64.858312
 20
-3.768458
 30
0.0
 11
64.912135
 21
-3.768458
 31
0.0
  0
LINE
  5
1A2
330
38E
100
AcDbEntity
  8
2-4A
  6
Continuous
 62
     7
370
    30
100
AcDbLine
 10
64.862698
 20
-3.730958
 30
0.0
 11
64.91525
 21
-3.730958
 31
0.0
  0
LINE
  5
1A3
330
38E
100
AcDbEntity
  8
2-4A
  6
Continuous
 62
     7
370
    30
100
AcDbLine
 10
64.867083
 20
-3.693458
 30
0.0
 11
64.918365
 21
-3.693458
 31
0.0
  0
LINE
  5
1A4
330
38E
100
AcDbEntity
  8
2-4A
  6
Continuous
 62
     7
370
    30
100
AcDbLine
 10
64.713333
 20
-3.693458
 30
0.0
 11
64.764615
 21
-3.693458
 31
0.0
  0
LINE
  5
1A5
330
38E
100
AcDbEntity
  8
2-4A
  6
Continuous
 62
     7
370
    30
100
AcDbLine
 10
64.705198
 20
-3.730958
 30
0.0
 11
64.75775
 21
-3.730958
 31
0.0
  0
LINE
  5
1A6
330
38E
100
AcDbEntity
  8
2-4A
  6
Continuous
 62
     7
370
    30
100
AcDbLine
 10
64.697063
 20
-3.768458
 30
0.0
 11
64.750885
 21
-3.768458
 31
0.0
  0
LINE
  5
1A7
330
38E
100
AcDbEntity
  8
2-4A
  6
Continuous
 62
     7
370
    30
100
AcDbLine
 10
65.342062
 20
-3.768458
 30
0.0
 11
65.395885
 21
-3.768458
 31
0.0
  0
LINE
  5
1A8
330
38E
100
AcDbEntity
  8
2-4A
  6
Continuous
 62
     7
370
    30
100
AcDbLine
 10
65.335198
 20
-3.730958
 30
0.0
 11
65.38775
 21
-3.730958
 31
0.0
  0
LINE
  5
1A9
330
38E
100
AcDbEntity
  8
2-4A
  6
Continuous
 62
     7
370
    30
100
AcDbLine
 10
65.328333
 20
-3.693458
 30
0.0
 11
65.379615
 21
-3.693458
 31
0.0
  0
LINE
  5
1AA
330
38E
100
AcDbEntity
  8
2-4A
  6
Continuous
 62
     7
370
    30
100
AcDbLine
 10
65.482083
 20
-3.693458
 30
0.0
 11
65.533365
 21
-3.693458
 31
0.0
  0
LINE
  5
1AB
330
38E
100
AcDbEntity
  8
2-4A
  6
Continuous
 62
     7
370
    30
100
AcDbLine
 10
65.492698
 20
-3.730958
 30
0.0
 11
65.54525
 21
-3.730958
 31
0.0
  0
LINE
  5
1AC
330
38E
100
AcDbEntity
  8
2-4A
  6
Continuous
 62
     7
370
    30
100
AcDbLine
 10
65.503312
 20
-3.768458
 30
0.0
 11
65.557135
 21
-3.768458
 31
0.0
  0
LINE
  5
1AD
330
38E
100
AcDbEntity
  8
2-4A
  6
Continuous
 62
     7
370
    30
100
AcDbLine
 10
65.664563
 20
-3.768458
 30
0.0
 11
65.718385
 21
-3.768458
 31
0.0
  0
LINE
  5
1AE
330
38E
100
AcDbEntity
  8
2-4A
  6
Continuous
 62
     7
370
    30
100
AcDbLine
 10
65.650198
 20
-3.730958
 30
0.0
 11
65.70275
 21
-3.730958
 31
0.0
  0
LINE
  5
1AF
330
38E
100
AcDbEntity
  8
2-4A
  6
Continuous
 62
     7
370
    30
100
AcDbLine
 10
65.635833
 20
-3.693458
 30
0.0
 11
65.687115
 21
-3.693458
 31
0.0
  0
LINE
  5
1B0
330
38E
100
AcDbEntity
  8
2-4A
  6
Continuous
 62
     7
370
    30
100
AcDbLine
 10
65.789583
 20
-3.693458
 30
0.0
 11
65.840865
 21
-3.693458
 31
0.0
  0
LINE
  5
1B1
330
38E
100
AcDbEntity
  8
2-4A
  6
Continuous
 62
     7
370
    30
100
AcDbLine
 10
65.807698
 20
-3.730958
 30
0.0
 11
65.86025
 21
-3.730958
 31
0.0
  0
LINE
  5
1B2
330
38E
100
AcDbEntity
  8
2-4A
  6
Continuous
 62
     7
370
    30
100
AcDbLine
 10
65.825812
 20
-3.768458
 30
0.0
 11
65.879635
 21
-3.768458
 31
0.0
  0
LINE
  5
1B3
330
38E
100
AcDbEntity
  8
2-4A
  6
Continuous
 62
     7
370
    30
100
AcDbLine
 10
65.987062
 20
-3.768458
 30
0.0
 11
66.040885
 21
-3.768458
 31
0.0
  0
LINE
  5
1B4
330
38E
100
AcDbEntity
  8
2-4A
  6
Continuous
 62
     7
370
    30
100
AcDbLine
 10
65.965198
 20
-3.730958
 30
0.0
 11
66.01775
 21
-3.730958
 31
0.0
  0
LINE
  5
1B5
330
38E
100
AcDbEntity
  8
2-4A
  6
Continuous
 62
     7
370
    30
100
AcDbLine
 10
65.943333
 20
-3.693458
 30
0.0
 11
65.994615
 21
-3.693458
 31
0.0
  0
LINE
  5
1B6
330
38E
100
AcDbEntity
  8
2-4A
  6
Continuous
 62
     7
370
    30
100
AcDbLine
 10
66.097083
 20
-3.693458
 30
0.0
 11
66.148365
 21
-3.693458
 31
0.0
  0
LINE
  5
1B7
330
38E
100
AcDbEntity
  8
2-4A
  6
Continuous
 62
     7
370
    30
100
AcDbLine
 10
66.122698
 20
-3.730958
 30
0.0
 11
66.17525
 21
-3.730958
 31
0.0
  0
LINE
  5
1B8
330
38E
100
AcDbEntity
  8
2-4A
  6
Continuous
 62
     7
370
    30
100
AcDbLine
 10
66.148313
 20
-3.768458
 30
0.0
 11
66.202135
 21
-3.768458
 31
0.0
  0
LINE
  5
1B9
330
38E
100
AcDbEntity
  8
2-4A
  6
Continuous
 62
     7
370
    30
100
AcDbLine
 10
66.199531
 20
-3.843458
 30
0.0
 11
66.255906
 21
-3.843458
 31
0.0
  0
LINE
  5
1BA
330
38E
100
AcDbEntity
  8
2-4A
  6
Continuous
 62
     7
370
    30
100
AcDbLine
 10
66.353208
 20
-4.068458
 30
0.0
 11
66.41724
 21
-4.068458
 31
0.0
  0
LINE
  5
1BB
330
38E
100
AcDbEntity
  8
2-4A
  6
Continuous
 62
     7
370
    30
100
AcDbLine
 10
66.327594
 20
-4.030958
 30
0.0
 11
66.390344
 21
-4.030958
 31
0.0
  0
LINE
  5
1BC
330
38E
100
AcDbEntity
  8
2-4A
  6
Continuous
 62
     7
370
    30
100
AcDbLine
 10
66.30199
 20
-3.993458
 30
0.0
 11
66.363458
 21
-3.993458
 31
0.0
  0
LINE
  5
1BD
330
38E
100
AcDbEntity
  8
2-4A
  6
Continuous
 62
     7
370
    30
100
AcDbLine
 10
66.25076
 20
-3.918458
 30
0.0
 11
66.309687
 21
-3.918458
 31
0.0
  0
LINE
  5
1BE
330
38E
100
AcDbEntity
  8
2-4A
  6
Continuous
 62
     7
370
    30
100
AcDbLine
 10
66.225146
 20
-3.880958
 30
0.0
 11
66.282802
 21
-3.880958
 31
0.0
  0
LINE
  5
1BF
330
38E
100
AcDbEntity
  8
2-4A
  6
Continuous
 62
     7
370
    30
100
AcDbLine
 10
66.404438
 20
-4.143458
 30
0.0
 11
66.47101
 21
-4.143458
 31
0.0
  0
LINE
  5
1C0
330
38E
100
AcDbEntity
  8
2-4A
  6
Continuous
 62
     7
370
    30
100
AcDbLine
 10
66.430052
 20
-4.180958
 30
0.0
 11
66.497896
 21
-4.180958
 31
0.0
  0
LINE
  5
1C1
330
38E
100
AcDbEntity
  8
2-4A
  6
Continuous
 62
     7
370
    30
100
AcDbLine
 10
66.455656
 20
-4.218458
 30
0.0
 11
66.524781
 21
-4.218458
 31
0.0
  0
LINE
  5
1C2
330
38E
100
AcDbEntity
  8
2-4A
  6
Continuous
 62
     7
370
    30
100
AcDbLine
 10
66.575187
 20
-4.393458
 30
0.0
 11
66.65026
 21
-4.393458
 31
0.0
  0
LINE
  5
1C3
330
38E
100
AcDbEntity
  8
2-4A
  6
Continuous
 62
     7
370
    30
100
AcDbLine
 10
66.600802
 20
-4.430958
 30
0.0
 11
66.677146
 21
-4.430958
 31
0.0
  0
LINE
  5
1C4
330
38E
100
AcDbEntity
  8
2-4A
  6
Continuous
 62
     7
370
    30
100
AcDbLine
 10
66.626406
 20
-4.468458
 30
0.0
 11
66.704031
 21
-4.468458
 31
0.0
  0
LINE
  5
1C5
330
38E
100
AcDbEntity
  8
2-4A
  6
Continuous
 62
     7
370
    30
100
AcDbLine
 10
66.677635
 20
-4.543458
 30
0.0
 11
66.757812
 21
-4.543458
 31
0.0
  0
LINE
  5
1C6
330
38E
100
AcDbEntity
  8
2-4A
  6
Continuous
 62
     7
370
    30
100
AcDbLine
 10
66.70325
 20
-4.580958
 30
0.0
 11
66.784698
 21
-4.580958
 31
0.0
  0
LINE
  5
1C7
330
38E
100
AcDbEntity
  8
2-4A
  6
Continuous
 62
     7
370
    30
100
AcDbLine
 10
66.728865
 20
-4.618458
 30
0.0
 11
66.811583
 21
-4.618458
 31
0.0
  0
LINE
  5
1C8
330
38E
100
AcDbEntity
  8
2-4A
  6
Continuous
 62
     7
370
    30
100
AcDbLine
 10
66.512448
 20
-4.068458
 30
0.0
 11
66.569896
 21
-4.143458
 31
0.0
  0
LINE
  5
1C9
330
38E
100
AcDbEntity
  8
2-4A
  6
Continuous
 62
     7
370
    30
100
AcDbLine
 10
66.393865
 20
-3.993458
 30
0.0
 11
66.338885
 21
-3.918458
 31
0.0
  0
LINE
  5
1CA
330
38E
100
AcDbEntity
  8
2-4A
  6
Continuous
 62
     7
370
    30
100
AcDbLine
 10
66.321198
 20
-4.068458
 30
0.0
 11
66.371146
 21
-4.143458
 31
0.0
  0
LINE
  5
1CB
330
38E
100
AcDbEntity
  8
2-4A
  6
Continuous
 62
     7
370
    30
100
AcDbLine
 10
66.257583
 20
-4.068458
 30
0.0
 11
66.305062
 21
-4.143458
 31
0.0
  0
LINE
  5
1CC
330
38E
100
AcDbEntity
  8
2-4A
  6
Continuous
 62
     7
370
    30
100
AcDbLine
 10
66.0875
 20
-3.993458
 30
0.0
 11
66.045052
 21
-3.918458
 31
0.0
  0
LINE
  5
1CD
330
38E
100
AcDbEntity
  8
2-4A
  6
Continuous
 62
     7
370
    30
100
AcDbLine
 10
66.066333
 20
-4.068458
 30
0.0
 11
66.106313
 21
-4.143458
 31
0.0
  0
LINE
  5
1CE
330
38E
100
AcDbEntity
  8
2-4A
  6
Continuous
 62
     7
370
    30
100
AcDbLine
 10
65.90375
 20
-3.993458
 30
0.0
 11
65.868802
 21
-3.918458
 31
0.0
  0
LINE
  5
1CF
330
38E
100
AcDbEntity
  8
2-4A
  6
Continuous
 62
     7
370
    30
100
AcDbLine
 10
65.875083
 20
-4.068458
 30
0.0
 11
65.907562
 21
-4.143458
 31
0.0
  0
LINE
  5
1D0
330
38E
100
AcDbEntity
  8
2-4A
  6
Continuous
 62
     7
370
    30
100
AcDbLine
 10
65.72
 20
-3.993458
 30
0.0
 11
65.692552
 21
-3.918458
 31
0.0
  0
LINE
  5
1D1
330
38E
100
AcDbEntity
  8
2-4A
  6
Continuous
 62
     7
370
    30
100
AcDbLine
 10
65.683833
 20
-4.068458
 30
0.0
 11
65.708812
 21
-4.143458
 31
0.0
  0
LINE
  5
1D2
330
38E
100
AcDbEntity
  8
2-4A
  6
Continuous
 62
     7
370
    30
100
AcDbLine
 10
66.397552
 20
-3.918458
 30
0.0
 11
66.455
 21
-3.993458
 31
0.0
  0
LINE
  5
1D3
330
38E
100
AcDbEntity
  8
2-4A
  6
Continuous
 62
     7
370
    30
100
AcDbLine
 10
66.283906
 20
-3.843458
 30
0.0
 11
66.228938
 21
-3.768458
 31
0.0
  0
LINE
  5
1D4
330
38E
100
AcDbEntity
  8
2-4A
  6
Continuous
 62
     7
370
    30
100
AcDbLine
 10
66.221302
 20
-3.918458
 30
0.0
 11
66.27125
 21
-3.993458
 31
0.0
  0
LINE
  5
1D5
330
38E
100
AcDbEntity
  8
2-4A
  6
Continuous
 62
     7
370
    30
100
AcDbLine
 10
66.162635
 20
-3.918458
 30
0.0
 11
66.210115
 21
-3.993458
 31
0.0
  0
LINE
  5
1D6
330
38E
100
AcDbEntity
  8
2-4A
  6
Continuous
 62
     7
370
    30
100
AcDbLine
 10
66.002594
 20
-3.843458
 30
0.0
 11
65.960146
 21
-3.768458
 31
0.0
  0
LINE
  5
1D7
330
38E
100
AcDbEntity
  8
2-4A
  6
Continuous
 62
     7
370
    30
100
AcDbLine
 10
65.986385
 20
-3.918458
 30
0.0
 11
66.026365
 21
-3.993458
 31
0.0
  0
LINE
  5
1D8
330
38E
100
AcDbEntity
  8
2-4A
  6
Continuous
 62
     7
370
    30
100
AcDbLine
 10
65.833844
 20
-3.843458
 30
0.0
 11
65.798896
 21
-3.768458
 31
0.0
  0
LINE
  5
1D9
330
38E
100
AcDbEntity
  8
2-4A
  6
Continuous
 62
     7
370
    30
100
AcDbLine
 10
65.810135
 20
-3.918458
 30
0.0
 11
65.842615
 21
-3.993458
 31
0.0
  0
LINE
  5
1DA
330
38E
100
AcDbEntity
  8
2-4A
  6
Continuous
 62
     7
370
    30
100
AcDbLine
 10
65.665094
 20
-3.843458
 30
0.0
 11
65.637646
 21
-3.768458
 31
0.0
  0
LINE
  5
1DB
330
38E
100
AcDbEntity
  8
2-4A
  6
Continuous
 62
     7
370
    30
100
AcDbLine
 10
65.53625
 20
-3.993458
 30
0.0
 11
65.516302
 21
-3.918458
 31
0.0
  0
LINE
  5
1DC
330
38E
100
AcDbEntity
  8
2-4A
  6
Continuous
 62
     7
370
    30
100
AcDbLine
 10
65.492583
 20
-4.068458
 30
0.0
 11
65.510063
 21
-4.143458
 31
0.0
  0
LINE
  5
1DD
330
38E
100
AcDbEntity
  8
2-4A
  6
Continuous
 62
     7
370
    30
100
AcDbLine
 10
65.3525
 20
-3.993458
 30
0.0
 11
65.340052
 21
-3.918458
 31
0.0
  0
LINE
  5
1DE
330
38E
100
AcDbEntity
  8
2-4A
  6
Continuous
 62
     7
370
    30
100
AcDbLine
 10
65.301333
 20
-4.068458
 30
0.0
 11
65.311312
 21
-4.143458
 31
0.0
  0
LINE
  5
1DF
330
38E
100
AcDbEntity
  8
2-4A
  6
Continuous
 62
     7
370
    30
100
AcDbLine
 10
65.16875
 20
-3.993458
 30
0.0
 11
65.163802
 21
-3.918458
 31
0.0
  0
LINE
  5
1E0
330
38E
100
AcDbEntity
  8
2-4A
  6
Continuous
 62
     7
370
    30
100
AcDbLine
 10
65.110083
 20
-4.068458
 30
0.0
 11
65.112562
 21
-4.143458
 31
0.0
  0
LINE
  5
1E1
330
38E
100
AcDbEntity
  8
2-4A
  6
Continuous
 62
     7
370
    30
100
AcDbLine
 10
64.985
 20
-3.993458
 30
0.0
 11
64.987552
 21
-3.918458
 31
0.0
  0
LINE
  5
1E2
330
38E
100
AcDbEntity
  8
2-4A
  6
Continuous
 62
     7
370
    30
100
AcDbLine
 10
65.633885
 20
-3.918458
 30
0.0
 11
65.658865
 21
-3.993458
 31
0.0
  0
LINE
  5
1E3
330
38E
100
AcDbEntity
  8
2-4A
  6
Continuous
 62
     7
370
    30
100
AcDbLine
 10
65.496344
 20
-3.843458
 30
0.0
 11
65.476396
 21
-3.768458
 31
0.0
  0
LINE
  5
1E4
330
38E
100
AcDbEntity
  8
2-4A
  6
Continuous
 62
     7
370
    30
100
AcDbLine
 10
65.457635
 20
-3.918458
 30
0.0
 11
65.475115
 21
-3.993458
 31
0.0
  0
LINE
  5
1E5
330
38E
100
AcDbEntity
  8
2-4A
  6
Continuous
 62
     7
370
    30
100
AcDbLine
 10
65.327594
 20
-3.843458
 30
0.0
 11
65.315146
 21
-3.768458
 31
0.0
  0
LINE
  5
1E6
330
38E
100
AcDbEntity
  8
2-4A
  6
Continuous
 62
     7
370
    30
100
AcDbLine
 10
65.281385
 20
-3.918458
 30
0.0
 11
65.291365
 21
-3.993458
 31
0.0
  0
LINE
  5
1E7
330
38E
100
AcDbEntity
  8
2-4A
  6
Continuous
 62
     7
370
    30
100
AcDbLine
 10
65.158844
 20
-3.843458
 30
0.0
 11
65.153896
 21
-3.768458
 31
0.0
  0
LINE
  5
1E8
330
38E
100
AcDbEntity
  8
2-4A
  6
Continuous
 62
     7
370
    30
100
AcDbLine
 10
65.105135
 20
-3.918458
 30
0.0
 11
65.107615
 21
-3.993458
 31
0.0
  0
LINE
  5
1E9
330
38E
100
AcDbEntity
  8
2-4A
  6
Continuous
 62
     7
370
    30
100
AcDbLine
 10
64.990094
 20
-3.843458
 30
0.0
 11
64.992646
 21
-3.768458
 31
0.0
  0
LINE
  5
1EA
330
38E
100
AcDbEntity
  8
2-4A
  6
Continuous
 62
     7
370
    30
100
AcDbLine
 10
64.928885
 20
-3.918458
 30
0.0
 11
64.923865
 21
-3.993458
 31
0.0
  0
LINE
  5
1EB
330
38E
100
AcDbEntity
  8
2-4A
  6
Continuous
 62
     7
370
    30
100
AcDbLine
 10
64.918833
 20
-4.068458
 30
0.0
 11
64.913812
 21
-4.143458
 31
0.0
  0
LINE
  5
1EC
330
38E
100
AcDbEntity
  8
2-4A
  6
Continuous
 62
     7
370
    30
100
AcDbLine
 10
64.80125
 20
-3.993458
 30
0.0
 11
64.811302
 21
-3.918458
 31
0.0
  0
LINE
  5
1ED
330
38E
100
AcDbEntity
  8
2-4A
  6
Continuous
 62
     7
370
    30
100
AcDbLine
 10
64.727583
 20
-4.068458
 30
0.0
 11
64.715063
 21
-4.143458
 31
0.0
  0
LINE
  5
1EE
330
38E
100
AcDbEntity
  8
2-4A
  6
Continuous
 62
     7
370
    30
100
AcDbLine
 10
64.6175
 20
-3.993458
 30
0.0
 11
64.635052
 21
-3.918458
 31
0.0
  0
LINE
  5
1EF
330
38E
100
AcDbEntity
  8
2-4A
  6
Continuous
 62
     7
370
    30
100
AcDbLine
 10
64.536333
 20
-4.068458
 30
0.0
 11
64.516312
 21
-4.143458
 31
0.0
  0
LINE
  5
1F0
330
38E
100
AcDbEntity
  8
2-4A
  6
Continuous
 62
     7
370
    30
100
AcDbLine
 10
64.43375
 20
-3.993458
 30
0.0
 11
64.458802
 21
-3.918458
 31
0.0
  0
LINE
  5
1F1
330
38E
100
AcDbEntity
  8
2-4A
  6
Continuous
 62
     7
370
    30
100
AcDbLine
 10
64.345083
 20
-4.068458
 30
0.0
 11
64.317562
 21
-4.143458
 31
0.0
  0
LINE
  5
1F2
330
38E
100
AcDbEntity
  8
2-4A
  6
Continuous
 62
     7
370
    30
100
AcDbLine
 10
64.25
 20
-3.993458
 30
0.0
 11
64.282552
 21
-3.918458
 31
0.0
  0
LINE
  5
1F3
330
38E
100
AcDbEntity
  8
2-4A
  6
Continuous
 62
     7
370
    30
100
AcDbLine
 10
64.821344
 20
-3.843458
 30
0.0
 11
64.831396
 21
-3.768458
 31
0.0
  0
LINE
  5
1F4
330
38E
100
AcDbEntity
  8
2-4A
  6
Continuous
 62
     7
370
    30
100
AcDbLine
 10
64.752635
 20
-3.918458
 30
0.0
 11
64.740115
 21
-3.993458
 31
0.0
  0
LINE
  5
1F5
330
38E
100
AcDbEntity
  8
2-4A
  6
Continuous
 62
     7
370
    30
100
AcDbLine
 10
64.652594
 20
-3.843458
 30
0.0
 11
64.670146
 21
-3.768458
 31
0.0
  0
LINE
  5
1F6
330
38E
100
AcDbEntity
  8
2-4A
  6
Continuous
 62
     7
370
    30
100
AcDbLine
 10
64.576385
 20
-3.918458
 30
0.0
 11
64.556365
 21
-3.993458
 31
0.0
  0
LINE
  5
1F7
330
38E
100
AcDbEntity
  8
2-4A
  6
Continuous
 62
     7
370
    30
100
AcDbLine
 10
64.483844
 20
-3.843458
 30
0.0
 11
64.508896
 21
-3.768458
 31
0.0
  0
LINE
  5
1F8
330
38E
100
AcDbEntity
  8
2-4A
  6
Continuous
 62
     7
370
    30
100
AcDbLine
 10
64.400135
 20
-3.918458
 30
0.0
 11
64.372615
 21
-3.993458
 31
0.0
  0
LINE
  5
1F9
330
38E
100
AcDbEntity
  8
2-4A
  6
Continuous
 62
     7
370
    30
100
AcDbLine
 10
64.315094
 20
-3.843458
 30
0.0
 11
64.347646
 21
-3.768458
 31
0.0
  0
LINE
  5
1FA
330
38E
100
AcDbEntity
  8
2-4A
  6
Continuous
 62
     7
370
    30
100
AcDbLine
 10
64.223885
 20
-3.918458
 30
0.0
 11
64.188865
 21
-3.993458
 31
0.0
  0
LINE
  5
1FB
330
38E
100
AcDbEntity
  8
2-4A
  6
Continuous
 62
     7
370
    30
100
AcDbLine
 10
63.580083
 20
-4.068458
 30
0.0
 11
63.522562
 21
-4.143458
 31
0.0
  0
LINE
  5
1FC
330
38E
100
AcDbEntity
  8
2-4A
  6
Continuous
 62
     7
370
    30
100
AcDbLine
 10
63.69875
 20
-3.993458
 30
0.0
 11
63.753802
 21
-3.918458
 31
0.0
  0
LINE
  5
1FD
330
38E
100
AcDbEntity
  8
2-4A
  6
Continuous
 62
     7
370
    30
100
AcDbLine
 10
63.771333
 20
-4.068458
 30
0.0
 11
63.721312
 21
-4.143458
 31
0.0
  0
LINE
  5
1FE
330
38E
100
AcDbEntity
  8
2-4A
  6
Continuous
 62
     7
370
    30
100
AcDbLine
 10
63.8825
 20
-3.993458
 30
0.0
 11
63.930052
 21
-3.918458
 31
0.0
  0
LINE
  5
1FF
330
38E
100
AcDbEntity
  8
2-4A
  6
Continuous
 62
     7
370
    30
100
AcDbLine
 10
63.962583
 20
-4.068458
 30
0.0
 11
63.920063
 21
-4.143458
 31
0.0
  0
LINE
  5
200
330
38E
100
AcDbEntity
  8
2-4A
  6
Continuous
 62
     7
370
    30
100
AcDbLine
 10
64.06625
 20
-3.993458
 30
0.0
 11
64.106302
 21
-3.918458
 31
0.0
  0
LINE
  5
201
330
38E
100
AcDbEntity
  8
2-4A
  6
Continuous
 62
     7
370
    30
100
AcDbLine
 10
64.153833
 20
-4.068458
 30
0.0
 11
64.118813
 21
-4.143458
 31
0.0
  0
LINE
  5
202
330
38E
100
AcDbEntity
  8
2-4A
  6
Continuous
 62
     7
370
    30
100
AcDbLine
 10
63.695135
 20
-3.918458
 30
0.0
 11
63.637615
 21
-3.993458
 31
0.0
  0
LINE
  5
203
330
38E
100
AcDbEntity
  8
2-4A
  6
Continuous
 62
     7
370
    30
100
AcDbLine
 10
63.808844
 20
-3.843458
 30
0.0
 11
63.863896
 21
-3.768458
 31
0.0
  0
LINE
  5
204
330
38E
100
AcDbEntity
  8
2-4A
  6
Continuous
 62
     7
370
    30
100
AcDbLine
 10
63.871385
 20
-3.918458
 30
0.0
 11
63.821365
 21
-3.993458
 31
0.0
  0
LINE
  5
205
330
38E
100
AcDbEntity
  8
2-4A
  6
Continuous
 62
     7
370
    30
100
AcDbLine
 10
63.977594
 20
-3.843458
 30
0.0
 11
64.025146
 21
-3.768458
 31
0.0
  0
LINE
  5
206
330
38E
100
AcDbEntity
  8
2-4A
  6
Continuous
 62
     7
370
    30
100
AcDbLine
 10
64.047635
 20
-3.918458
 30
0.0
 11
64.005115
 21
-3.993458
 31
0.0
  0
LINE
  5
207
330
38E
100
AcDbEntity
  8
2-4A
  6
Continuous
 62
     7
370
    30
100
AcDbLine
 10
64.146344
 20
-3.843458
 30
0.0
 11
64.186396
 21
-3.768458
 31
0.0
  0
LINE
  5
208
330
38E
100
AcDbEntity
  8
2-4A
  6
Continuous
 62
     7
370
    30
100
AcDbLine
 10
66.282646
 20
-3.768458
 30
0.0
 11
66.340094
 21
-3.843458
 31
0.0
  0
LINE
  5
209
330
38E
100
AcDbEntity
  8
2-4A
  6
Continuous
 62
     7
370
    30
100
AcDbLine
 10
66.503812
 20
-4.143458
 30
0.0
 11
66.448833
 21
-4.068458
 31
0.0
  0
LINE
  5
20A
330
38E
100
AcDbEntity
  8
2-4A
  6
Continuous
 62
     7
370
    30
100
AcDbLine
 10
66.121396
 20
-3.768458
 30
0.0
 11
66.171344
 21
-3.843458
 31
0.0
  0
LINE
  5
20B
330
38E
100
AcDbEntity
  8
2-4A
  6
Continuous
 62
     7
370
    30
100
AcDbLine
 10
66.067687
 20
-3.768458
 30
0.0
 11
66.115156
 21
-3.843458
 31
0.0
  0
LINE
  5
20C
330
38E
100
AcDbEntity
  8
2-4A
  6
Continuous
 62
     7
370
    30
100
AcDbLine
 10
66.172396
 20
-4.143458
 30
0.0
 11
66.129948
 21
-4.068458
 31
0.0
  0
LINE
  5
20D
330
38E
100
AcDbEntity
  8
2-4A
  6
Continuous
 62
     7
370
    30
100
AcDbLine
 10
65.906437
 20
-3.768458
 30
0.0
 11
65.946406
 21
-3.843458
 31
0.0
  0
LINE
  5
20E
330
38E
100
AcDbEntity
  8
2-4A
  6
Continuous
 62
     7
370
    30
100
AcDbLine
 10
65.973646
 20
-4.143458
 30
0.0
 11
65.938698
 21
-4.068458
 31
0.0
  0
LINE
  5
20F
330
38E
100
AcDbEntity
  8
2-4A
  6
Continuous
 62
     7
370
    30
100
AcDbLine
 10
65.745188
 20
-3.768458
 30
0.0
 11
65.777656
 21
-3.843458
 31
0.0
  0
LINE
  5
210
330
38E
100
AcDbEntity
  8
2-4A
  6
Continuous
 62
     7
370
    30
100
AcDbLine
 10
65.774896
 20
-4.143458
 30
0.0
 11
65.747448
 21
-4.068458
 31
0.0
  0
LINE
  5
211
330
38E
100
AcDbEntity
  8
2-4A
  6
Continuous
 62
     7
370
    30
100
AcDbLine
 10
65.583938
 20
-3.768458
 30
0.0
 11
65.608906
 21
-3.843458
 31
0.0
  0
LINE
  5
212
330
38E
100
AcDbEntity
  8
2-4A
  6
Continuous
 62
     7
370
    30
100
AcDbLine
 10
65.576146
 20
-4.143458
 30
0.0
 11
65.556198
 21
-4.068458
 31
0.0
  0
LINE
  5
213
330
38E
100
AcDbEntity
  8
2-4A
  6
Continuous
 62
     7
370
    30
100
AcDbLine
 10
65.422687
 20
-3.768458
 30
0.0
 11
65.440156
 21
-3.843458
 31
0.0
  0
LINE
  5
214
330
38E
100
AcDbEntity
  8
2-4A
  6
Continuous
 62
     7
370
    30
100
AcDbLine
 10
65.377396
 20
-4.143458
 30
0.0
 11
65.364948
 21
-4.068458
 31
0.0
  0
LINE
  5
215
330
38E
100
AcDbEntity
  8
2-4A
  6
Continuous
 62
     7
370
    30
100
AcDbLine
 10
65.261437
 20
-3.768458
 30
0.0
 11
65.271406
 21
-3.843458
 31
0.0
  0
LINE
  5
216
330
38E
100
AcDbEntity
  8
2-4A
  6
Continuous
 62
     7
370
    30
100
AcDbLine
 10
65.178646
 20
-4.143458
 30
0.0
 11
65.173698
 21
-4.068458
 31
0.0
  0
LINE
  5
217
330
38E
100
AcDbEntity
  8
2-4A
  6
Continuous
 62
     7
370
    30
100
AcDbLine
 10
65.100188
 20
-3.768458
 30
0.0
 11
65.102656
 21
-3.843458
 31
0.0
  0
LINE
  5
218
330
38E
100
AcDbEntity
  8
2-4A
  6
Continuous
 62
     7
370
    30
100
AcDbLine
 10
63.944583
 20
-3.693458
 30
0.0
 11
63.995865
 21
-3.693458
 31
0.0
  0
LINE
  5
219
330
38E
100
AcDbEntity
  8
2-4A
  6
Continuous
 62
     7
370
    30
100
AcDbLine
 10
63.917698
 20
-3.730958
 30
0.0
 11
63.97025
 21
-3.730958
 31
0.0
  0
LINE
  5
21A
330
38E
100
AcDbEntity
  8
2-4A
  6
Continuous
 62
     7
370
    30
100
AcDbLine
 10
63.890812
 20
-3.768458
 30
0.0
 11
63.944635
 21
-3.768458
 31
0.0
  0
LINE
  5
21B
330
38E
100
AcDbEntity
  8
2-4A
  6
Continuous
 62
     7
370
    30
100
AcDbLine
 10
63.837031
 20
-3.843458
 30
0.0
 11
63.893406
 21
-3.843458
 31
0.0
  0
LINE
  5
21C
330
38E
100
AcDbEntity
  8
2-4A
  6
Continuous
 62
     7
370
    30
100
AcDbLine
 10
63.810146
 20
-3.880958
 30
0.0
 11
63.867802
 21
-3.880958
 31
0.0
  0
LINE
  5
21D
330
38E
100
AcDbEntity
  8
2-4A
  6
Continuous
 62
     7
370
    30
100
AcDbLine
 10
63.78326
 20
-3.918458
 30
0.0
 11
63.842187
 21
-3.918458
 31
0.0
  0
LINE
  5
21E
330
38E
100
AcDbEntity
  8
2-4A
  6
Continuous
 62
     7
370
    30
100
AcDbLine
 10
63.72949
 20
-3.993458
 30
0.0
 11
63.790958
 21
-3.993458
 31
0.0
  0
LINE
  5
21F
330
38E
100
AcDbEntity
  8
2-4A
  6
Continuous
 62
     7
370
    30
100
AcDbLine
 10
63.702594
 20
-4.030958
 30
0.0
 11
63.765344
 21
-4.030958
 31
0.0
  0
LINE
  5
220
330
38E
100
AcDbEntity
  8
2-4A
  6
Continuous
 62
     7
370
    30
100
AcDbLine
 10
63.675708
 20
-4.068458
 30
0.0
 11
63.73974
 21
-4.068458
 31
0.0
  0
LINE
  5
221
330
38E
100
AcDbEntity
  8
2-4A
  6
Continuous
 62
     7
370
    30
100
AcDbLine
 10
63.621938
 20
-4.143458
 30
0.0
 11
63.68851
 21
-4.143458
 31
0.0
  0
LINE
  5
222
330
38E
100
AcDbEntity
  8
2-4A
  6
Continuous
 62
     7
370
    30
100
AcDbLine
 10
63.595052
 20
-4.180958
 30
0.0
 11
63.662896
 21
-4.180958
 31
0.0
  0
LINE
  5
223
330
38E
100
AcDbEntity
  8
2-4A
  6
Continuous
 62
     7
370
    30
100
AcDbLine
 10
63.568156
 20
-4.218458
 30
0.0
 11
63.637281
 21
-4.218458
 31
0.0
  0
LINE
  5
224
330
38E
100
AcDbEntity
  8
2-4A
  6
Continuous
 62
     7
370
    30
100
AcDbLine
 10
63.442687
 20
-4.393458
 30
0.0
 11
63.51776
 21
-4.393458
 31
0.0
  0
LINE
  5
225
330
38E
100
AcDbEntity
  8
2-4A
  6
Continuous
 62
     7
370
    30
100
AcDbLine
 10
63.415802
 20
-4.430958
 30
0.0
 11
63.492146
 21
-4.430958
 31
0.0
  0
LINE
  5
226
330
38E
100
AcDbEntity
  8
2-4A
  6
Continuous
 62
     7
370
    30
100
AcDbLine
 10
63.388906
 20
-4.468458
 30
0.0
 11
63.466531
 21
-4.468458
 31
0.0
  0
LINE
  5
227
330
38E
100
AcDbEntity
  8
2-4A
  6
Continuous
 62
     7
370
    30
100
AcDbLine
 10
63.335135
 20
-4.543458
 30
0.0
 11
63.415312
 21
-4.543458
 31
0.0
  0
LINE
  5
228
330
38E
100
AcDbEntity
  8
2-4A
  6
Continuous
 62
     7
370
    30
100
AcDbLine
 10
63.30825
 20
-4.580958
 30
0.0
 11
63.389698
 21
-4.580958
 31
0.0
  0
LINE
  5
229
330
38E
100
AcDbEntity
  8
2-4A
  6
Continuous
 62
     7
370
    30
100
AcDbLine
 10
63.281365
 20
-4.618458
 30
0.0
 11
63.364083
 21
-4.618458
 31
0.0
  0
LINE
  5
22A
330
38E
100
AcDbEntity
  8
2-4A
  6
Continuous
 62
     7
370
    30
100
AcDbLine
 10
64.979896
 20
-4.143458
 30
0.0
 11
64.982448
 21
-4.068458
 31
0.0
  0
LINE
  5
22B
330
38E
100
AcDbEntity
  8
2-4A
  6
Continuous
 62
     7
370
    30
100
AcDbLine
 10
64.938937
 20
-3.768458
 30
0.0
 11
64.933906
 21
-3.843458
 31
0.0
  0
LINE
  5
22C
330
38E
100
AcDbEntity
  8
2-4A
  6
Continuous
 62
     7
370
    30
100
AcDbLine
 10
64.781146
 20
-4.143458
 30
0.0
 11
64.791198
 21
-4.068458
 31
0.0
  0
LINE
  5
22D
330
38E
100
AcDbEntity
  8
2-4A
  6
Continuous
 62
     7
370
    30
100
AcDbLine
 10
64.777687
 20
-3.768458
 30
0.0
 11
64.765156
 21
-3.843458
 31
0.0
  0
LINE
  5
22E
330
38E
100
AcDbEntity
  8
2-4A
  6
Continuous
 62
     7
370
    30
100
AcDbLine
 10
64.582396
 20
-4.143458
 30
0.0
 11
64.599948
 21
-4.068458
 31
0.0
  0
LINE
  5
22F
330
38E
100
AcDbEntity
  8
2-4A
  6
Continuous
 62
     7
370
    30
100
AcDbLine
 10
64.616438
 20
-3.768458
 30
0.0
 11
64.596406
 21
-3.843458
 31
0.0
  0
LINE
  5
230
330
38E
100
AcDbEntity
  8
2-4A
  6
Continuous
 62
     7
370
    30
100
AcDbLine
 10
64.383646
 20
-4.143458
 30
0.0
 11
64.408698
 21
-4.068458
 31
0.0
  0
LINE
  5
231
330
38E
100
AcDbEntity
  8
2-4A
  6
Continuous
 62
     7
370
    30
100
AcDbLine
 10
64.455187
 20
-3.768458
 30
0.0
 11
64.427656
 21
-3.843458
 31
0.0
  0
LINE
  5
232
330
38E
100
AcDbEntity
  8
2-4A
  6
Continuous
 62
     7
370
    30
100
AcDbLine
 10
64.184896
 20
-4.143458
 30
0.0
 11
64.217448
 21
-4.068458
 31
0.0
  0
LINE
  5
233
330
38E
100
AcDbEntity
  8
2-4A
  6
Continuous
 62
     7
370
    30
100
AcDbLine
 10
64.293937
 20
-3.768458
 30
0.0
 11
64.258906
 21
-3.843458
 31
0.0
  0
LINE
  5
234
330
38E
100
AcDbEntity
  8
2-4A
  6
Continuous
 62
     7
370
    30
100
AcDbLine
 10
63.986146
 20
-4.143458
 30
0.0
 11
64.026198
 21
-4.068458
 31
0.0
  0
LINE
  5
235
330
38E
100
AcDbEntity
  8
2-4A
  6
Continuous
 62
     7
370
    30
100
AcDbLine
 10
64.132688
 20
-3.768458
 30
0.0
 11
64.090156
 21
-3.843458
 31
0.0
  0
LINE
  5
236
330
38E
100
AcDbEntity
  8
2-4A
  6
Continuous
 62
     7
370
    30
100
AcDbLine
 10
63.787396
 20
-4.143458
 30
0.0
 11
63.834948
 21
-4.068458
 31
0.0
  0
LINE
  5
237
330
38E
100
AcDbEntity
  8
2-4A
  6
Continuous
 62
     7
370
    30
100
AcDbLine
 10
63.971438
 20
-3.768458
 30
0.0
 11
63.921406
 21
-3.843458
 31
0.0
  0
LINE
  5
238
330
38E
100
AcDbEntity
  8
2-4A
  6
Continuous
 62
     7
370
    30
100
AcDbLine
 10
63.588646
 20
-4.143458
 30
0.0
 11
63.643698
 21
-4.068458
 31
0.0
  0
LINE
  5
239
330
38E
100
AcDbEntity
  8
2-4A
  6
Continuous
 62
     7
370
    30
100
AcDbLine
 10
63.810187
 20
-3.768458
 30
0.0
 11
63.752656
 21
-3.843458
 31
0.0
  0
LINE
  5
23A
330
38E
100
AcDbEntity
  8
Level 1
  6
Continuous
 62
     7
370
    30
100
AcDbLine
 10
66.726469
 20
-4.255958
 30
0.0
 11
66.726469
 21
-4.355958
 31
0.0
  0
LINE
  5
23B
330
38E
100
AcDbEntity
  8
Level 1
  6
Continuous
 62
     7
370
    30
100
AcDbLine
 10
66.516469
 20
-4.255958
 30
0.0
 11
66.516469
 21
-4.355958
 31
0.0
  0
LINE
  5
23C
330
38E
100
AcDbEntity
  8
Level 1
  6
Continuous
 62
     7
370
    30
100
AcDbLine
 10
66.306469
 20
-4.255958
 30
0.0
 11
66.306469
 21
-4.355958
 31
0.0
  0
LINE
  5
23D
330
38E
100
AcDbEntity
  8
Level 1
  6
Continuous
 62
     7
370
    30
100
AcDbLine
 10
66.096469
 20
-4.255958
 30
0.0
 11
66.096469
 21
-4.355958
 31
0.0
  0
LINE
  5
23E
330
38E
100
AcDbEntity
  8
Level 1
  6
Continuous
 62
     7
370
    30
100
AcDbLine
 10
65.886469
 20
-4.255958
 30
0.0
 11
65.886469
 21
-4.355958
 31
0.0
  0
LINE
  5
23F
330
38E
100
AcDbEntity
  8
Level 1
  6
Continuous
 62
     7
370
    30
100
AcDbLine
 10
65.676469
 20
-4.255958
 30
0.0
 11
65.676469
 21
-4.355958
 31
0.0
  0
LINE
  5
240
330
38E
100
AcDbEntity
  8
Level 1
  6
Continuous
 62
     7
370
    30
100
AcDbLine
 10
65.466469
 20
-4.255958
 30
0.0
 11
65.466469
 21
-4.355958
 31
0.0
  0
LINE
  5
241
330
38E
100
AcDbEntity
  8
Level 1
  6
Continuous
 62
     7
370
    30
100
AcDbLine
 10
65.256469
 20
-4.255958
 30
0.0
 11
65.256469
 21
-4.355958
 31
0.0
  0
LINE
  5
242
330
38E
100
AcDbEntity
  8
Level 1
  6
Continuous
 62
     7
370
    30
100
AcDbLine
 10
64.836469
 20
-4.255958
 30
0.0
 11
64.836469
 21
-4.355958
 31
0.0
  0
LINE
  5
243
330
38E
100
AcDbEntity
  8
Level 1
  6
Continuous
 62
     7
370
    30
100
AcDbLine
 10
64.626469
 20
-4.255958
 30
0.0
 11
64.626469
 21
-4.355958
 31
0.0
  0
LINE
  5
244
330
38E
100
AcDbEntity
  8
Level 1
  6
Continuous
 62
     7
370
    30
100
AcDbLine
 10
64.416469
 20
-4.255958
 30
0.0
 11
64.416469
 21
-4.355958
 31
0.0
  0
LINE
  5
245
330
38E
100
AcDbEntity
  8
Level 1
  6
Continuous
 62
     7
370
    30
100
AcDbLine
 10
64.206469
 20
-4.255958
 30
0.0
 11
64.206469
 21
-4.355958
 31
0.0
  0
LINE
  5
246
330
38E
100
AcDbEntity
  8
Level 1
  6
Continuous
 62
     7
370
    30
100
AcDbLine
 10
63.996469
 20
-4.255958
 30
0.0
 11
63.996469
 21
-4.355958
 31
0.0
  0
LINE
  5
247
330
38E
100
AcDbEntity
  8
Level 1
  6
Continuous
 62
     7
370
    30
100
AcDbLine
 10
63.786469
 20
-4.255958
 30
0.0
 11
63.786469
 21
-4.355958
 31
0.0
  0
LINE
  5
248
330
38E
100
AcDbEntity
  8
Level 1
  6
Continuous
 62
     7
370
    30
100
AcDbLine
 10
63.576469
 20
-4.255958
 30
0.0
 11
63.576469
 21
-4.355958
 31
0.0
  0
LINE
  5
249
330
38E
100
AcDbEntity
  8
Level 1
  6
Continuous
 62
     7
370
    30
100
AcDbLine
 10
63.366469
 20
-4.255958
 30
0.0
 11
63.366469
 21
-4.355958
 31
0.0
  0
LINE
  5
24A
330
38E
100
AcDbEntity
  8
Level 1
  6
Continuous
 62
     7
370
    30
100
AcDbLine
 10
63.286469
 20
-4.355958
 30
0.0
 11
63.046469
 21
-4.655958
 31
0.0
  0
LINE
  5
24B
330
38E
100
AcDbEntity
  8
2-4A
  6
Continuous
 62
     7
370
    30
100
AcDbLine
 10
63.576469
 20
-4.255958
 30
0.0
 11
63.996469
 21
-3.655958
 31
0.0
  0
LINE
  5
24C
330
38E
100
AcDbEntity
  8
Level 1
  6
Continuous
 62
     7
370
    30
100
AcDbLine
 10
63.726469
 20
-4.355958
 30
0.0
 11
63.546469
 21
-4.655958
 31
0.0
  0
LINE
  5
24D
330
38E
100
AcDbEntity
  8
Level 1
  6
Continuous
 62
     7
370
    30
100
AcDbLine
 10
63.996469
 20
-4.255958
 30
0.0
 11
64.296469
 21
-3.655958
 31
0.0
  0
LINE
  5
24E
330
38E
100
AcDbEntity
  8
Level 1
  6
Continuous
 62
     7
370
    30
100
AcDbLine
 10
64.166469
 20
-4.355958
 30
0.0
 11
64.046469
 21
-4.655958
 31
0.0
  0
LINE
  5
24F
330
38E
100
AcDbEntity
  8
Level 1
  6
Continuous
 62
     7
370
    30
100
AcDbLine
 10
64.416469
 20
-4.255958
 30
0.0
 11
64.596469
 21
-3.655958
 31
0.0
  0
LINE
  5
250
330
38E
100
AcDbEntity
  8
Level 1
  6
Continuous
 62
     7
370
    30
100
AcDbLine
 10
64.626469
 20
-4.255958
 30
0.0
 11
64.746469
 21
-3.655958
 31
0.0
  0
LINE
  5
251
330
38E
100
AcDbEntity
  8
Level 1
  6
Continuous
 62
     7
370
    30
100
AcDbLine
 10
64.826469
 20
-4.355958
 30
0.0
 11
64.796469
 21
-4.655958
 31
0.0
  0
LINE
  5
252
330
38E
100
AcDbEntity
  8
Level 1
  6
Continuous
 62
     7
370
    30
100
AcDbLine
 10
65.266469
 20
-4.355958
 30
0.0
 11
65.296469
 21
-4.655958
 31
0.0
  0
LINE
  5
253
330
38E
100
AcDbEntity
  8
Level 1
  6
Continuous
 62
     7
370
    30
100
AcDbLine
 10
65.466469
 20
-4.255958
 30
0.0
 11
65.346469
 21
-3.655958
 31
0.0
  0
LINE
  5
254
330
38E
100
AcDbEntity
  8
Level 1
  6
Continuous
 62
     7
370
    30
100
AcDbLine
 10
65.706469
 20
-4.355958
 30
0.0
 11
65.796469
 21
-4.655958
 31
0.0
  0
LINE
  5
255
330
38E
100
AcDbEntity
  8
Level 1
  6
Continuous
 62
     7
370
    30
100
AcDbLine
 10
65.886469
 20
-4.255958
 30
0.0
 11
65.646469
 21
-3.655958
 31
0.0
  0
LINE
  5
256
330
38E
100
AcDbEntity
  8
Level 1
  6
Continuous
 62
     7
370
    30
100
AcDbLine
 10
66.146469
 20
-4.355958
 30
0.0
 11
66.296469
 21
-4.655958
 31
0.0
  0
LINE
  5
257
330
38E
100
AcDbEntity
  8
Level 1
  6
Continuous
 62
     7
370
    30
100
AcDbLine
 10
66.306469
 20
-4.255958
 30
0.0
 11
65.946469
 21
-3.655958
 31
0.0
  0
LINE
  5
258
330
38E
100
AcDbEntity
  8
2-4A
  6
Continuous
 62
     7
370
    30
100
AcDbLine
 10
66.586469
 20
-4.355958
 30
0.0
 11
66.796469
 21
-4.655958
 31
0.0
  0
LINE
  5
259
330
38E
100
AcDbEntity
  8
Level 1
  6
Continuous
 62
     7
370
    30
100
AcDbLine
 10
66.726469
 20
-4.255958
 30
0.0
 11
66.246469
 21
-3.655958
 31
0.0
  0
LINE
  5
25A
330
38E
100
AcDbEntity
  8
Level 1
  6
Continuous
 62
     7
370
    30
100
AcDbLine
 10
67.046469
 20
-4.655958
 30
0.0
 11
66.806469
 21
-4.355958
 31
0.0
  0
LINE
  5
25B
330
38E
100
AcDbEntity
  8
2-4A
  6
Continuous
 62
     7
370
    30
100
AcDbLine
 10
66.096469
 20
-3.655958
 30
0.0
 11
66.516469
 21
-4.255958
 31
0.0
  0
LINE
  5
25C
330
38E
100
AcDbEntity
  8
Level 1
  6
Continuous
 62
     7
370
    30
100
AcDbLine
 10
66.546469
 20
-4.655958
 30
0.0
 11
66.366469
 21
-4.355958
 31
0.0
  0
LINE
  5
25D
330
38E
100
AcDbEntity
  8
Level 1
  6
Continuous
 62
     7
370
    30
100
AcDbLine
 10
65.796469
 20
-3.655958
 30
0.0
 11
66.096469
 21
-4.255958
 31
0.0
  0
LINE
  5
25E
330
38E
100
AcDbEntity
  8
Level 1
  6
Continuous
 62
     7
370
    30
100
AcDbLine
 10
66.046469
 20
-4.655958
 30
0.0
 11
65.926469
 21
-4.355958
 31
0.0
  0
LINE
  5
25F
330
38E
100
AcDbEntity
  8
Level 1
  6
Continuous
 62
     7
370
    30
100
AcDbLine
 10
65.496469
 20
-3.655958
 30
0.0
 11
65.676469
 21
-4.255958
 31
0.0
  0
LINE
  5
260
330
38E
100
AcDbEntity
  8
Level 1
  6
Continuous
 62
     7
370
    30
100
AcDbLine
 10
65.546469
 20
-4.655958
 30
0.0
 11
65.486469
 21
-4.355958
 31
0.0
  0
LINE
  5
261
330
38E
100
AcDbEntity
  8
Level 1
  6
Continuous
 62
     7
370
    30
100
AcDbLine
 10
65.196469
 20
-3.655958
 30
0.0
 11
65.256469
 21
-4.255958
 31
0.0
  0
LINE
  5
262
330
38E
100
AcDbEntity
  8
Level 1
  6
Continuous
 62
     7
370
    30
100
AcDbLine
 10
65.046469
 20
-4.655958
 30
0.0
 11
65.046469
 21
-3.655958
 31
0.0
  0
LINE
  5
263
330
38E
100
AcDbEntity
  8
2-4A
  6
Continuous
 62
     7
370
    30
100
AcDbLine
 10
64.896469
 20
-3.655958
 30
0.0
 11
64.836469
 21
-4.255958
 31
0.0
  0
LINE
  5
264
330
38E
100
AcDbEntity
  8
Level 1
  6
Continuous
 62
     7
370
    30
100
AcDbLine
 10
64.546469
 20
-4.655958
 30
0.0
 11
64.606469
 21
-4.355958
 31
0.0
  0
LINE
  5
265
330
38E
100
AcDbEntity
  8
Level 1
  6
Continuous
 62
     7
370
    30
100
AcDbLine
 10
64.296469
 20
-4.655958
 30
0.0
 11
64.386469
 21
-4.355958
 31
0.0
  0
LINE
  5
266
330
38E
100
AcDbEntity
  8
Level 1
  6
Continuous
 62
     7
370
    30
100
AcDbLine
 10
64.446469
 20
-3.655958
 30
0.0
 11
64.206469
 21
-4.255958
 31
0.0
  0
LINE
  5
267
330
38E
100
AcDbEntity
  8
Level 1
  6
Continuous
 62
     7
370
    30
100
AcDbLine
 10
63.796469
 20
-4.655958
 30
0.0
 11
63.946469
 21
-4.355958
 31
0.0
  0
LINE
  5
268
330
38E
100
AcDbEntity
  8
Level 1
  6
Continuous
 62
     7
370
    30
100
AcDbLine
 10
64.146469
 20
-3.655958
 30
0.0
 11
63.786469
 21
-4.255958
 31
0.0
  0
LINE
  5
269
330
38E
100
AcDbEntity
  8
2-4A
  6
Continuous
 62
     7
370
    30
100
AcDbLine
 10
63.296469
 20
-4.655958
 30
0.0
 11
63.506469
 21
-4.355958
 31
0.0
  0
LINE
  5
26A
330
38E
100
AcDbEntity
  8
Level 1
  6
Continuous
 62
     7
370
    30
100
AcDbLine
 10
63.846469
 20
-3.655958
 30
0.0
 11
63.366469
 21
-4.255958
 31
0.0
  0
LINE
  5
26B
330
38E
100
AcDbEntity
  8
Level 1
  6
Continuous
 62
     7
370
    30
100
AcDbLine
 10
63.046469
 20
-4.805958
 30
0.0
 11
63.046469
 21
-4.655958
 31
0.0
  0
LINE
  5
26C
330
38E
100
AcDbEntity
  8
Level 1
  6
Continuous
 62
     7
370
    30
100
AcDbLine
 10
63.546469
 20
-4.805958
 30
0.0
 11
63.546469
 21
-4.655958
 31
0.0
  0
LINE
  5
26D
330
38E
100
AcDbEntity
  8
Level 1
  6
Continuous
 62
     7
370
    30
100
AcDbLine
 10
64.046469
 20
-4.805958
 30
0.0
 11
64.046469
 21
-4.655958
 31
0.0
  0
LINE
  5
26E
330
38E
100
AcDbEntity
  8
Level 1
  6
Continuous
 62
     7
370
    30
100
AcDbLine
 10
64.546469
 20
-4.805958
 30
0.0
 11
64.546469
 21
-4.655958
 31
0.0
  0
LINE
  5
26F
330
38E
100
AcDbEntity
  8
Level 1
  6
Continuous
 62
     7
370
    30
100
AcDbLine
 10
67.046469
 20
-4.805958
 30
0.0
 11
67.046469
 21
-4.655958
 31
0.0
  0
LINE
  5
270
330
38E
100
AcDbEntity
  8
Level 1
  6
Continuous
 62
     7
370
    30
100
AcDbLine
 10
66.546469
 20
-4.805958
 30
0.0
 11
66.546469
 21
-4.655958
 31
0.0
  0
LINE
  5
271
330
38E
100
AcDbEntity
  8
Level 1
  6
Continuous
 62
     7
370
    30
100
AcDbLine
 10
66.046469
 20
-4.805958
 30
0.0
 11
66.046469
 21
-4.655958
 31
0.0
  0
LINE
  5
272
330
38E
100
AcDbEntity
  8
Level 1
  6
Continuous
 62
     7
370
    30
100
AcDbLine
 10
65.546469
 20
-4.805958
 30
0.0
 11
65.546469
 21
-4.655958
 31
0.0
  0
LINE
  5
273
330
38E
100
AcDbEntity
  8
Level 1
  6
Continuous
 62
     7
370
    30
100
AcDbLine
 10
63.046469
 20
-4.805958
 30
0.0
 11
67.046469
 21
-4.805958
 31
0.0
  0
LINE
  5
274
330
38E
100
AcDbEntity
  8
Level 1
  6
Continuous
 62
     7
370
    30
100
AcDbLine
 10
63.046469
 20
-4.655958
 30
0.0
 11
67.046469
 21
-4.655958
 31
0.0
  0
LINE
  5
275
330
38E
100
AcDbEntity
  8
2-4A
  6
Continuous
 62
     7
370
    30
100
AcDbLine
 10
63.166469
 20
-4.505958
 30
0.0
 11
66.926469
 21
-4.505958
 31
0.0
  0
LINE
  5
276
330
38E
100
AcDbEntity
  8
Level 1
  6
Continuous
 62
     7
370
    30
100
AcDbLine
 10
63.286469
 20
-4.355958
 30
0.0
 11
66.806469
 21
-4.355958
 31
0.0
  0
LINE
  5
277
330
38E
100
AcDbEntity
  8
Level 1
  6
Continuous
 62
     7
370
    30
100
AcDbLine
 10
63.366469
 20
-4.255958
 30
0.0
 11
66.726469
 21
-4.255958
 31
0.0
  0
LINE
  5
278
330
38E
100
AcDbEntity
  8
2-4A
  6
Continuous
 62
     7
370
    30
100
AcDbLine
 10
63.486469
 20
-4.105958
 30
0.0
 11
66.606469
 21
-4.105958
 31
0.0
  0
LINE
  5
279
330
38E
100
AcDbEntity
  8
2-4A
  6
Continuous
 62
     7
370
    30
100
AcDbLine
 10
63.606469
 20
-3.955958
 30
0.0
 11
66.486469
 21
-3.955958
 31
0.0
  0
LINE
  5
27A
330
38E
100
AcDbEntity
  8
2-4A
  6
Continuous
 62
     7
370
    30
100
AcDbLine
 10
63.726469
 20
-3.805958
 30
0.0
 11
66.366469
 21
-3.805958
 31
0.0
  0
LINE
  5
27B
330
38E
100
AcDbEntity
  8
Level 1
  6
Continuous
 62
     7
370
    30
100
AcDbLine
 10
63.846469
 20
-3.655958
 30
0.0
 11
66.246469
 21
-3.655958
 31
0.0
  0
LINE
  5
281
330
38E
100
AcDbEntity
  8
BORDER
  6
Continuous
 62
     7
370
    30
100
AcDbLine
 10
65.633052
 20
-12.086906
 30
0.0
 11
65.633052
 21
-11.586906
 31
0.0
  0
LINE
  5
282
330
38E
100
AcDbEntity
  8
BORDER
  6
Continuous
 62
     7
370
    30
100
AcDbLine
 10
66.733052
 20
-12.086906
 30
0.0
 11
66.733052
 21
-11.586906
 31
0.0
  0
LINE
  5
283
330
38E
100
AcDbEntity
  8
BORDER
  6
Continuous
 62
     7
370
    30
100
AcDbLine
 10
60.583052
 20
-11.586906
 30
0.0
 11
67.833052
 21
-11.586906
 31
0.0
  0
LINE
  5
284
330
38E
100
AcDbEntity
  8
BORDER
  6
Continuous
 62
     7
370
    30
100
AcDbLine
 10
67.833052
 20
-12.086906
 30
0.0
 11
67.833052
 21
-2.986906
 31
0.0
  0
LINE
  5
285
330
38E
100
AcDbEntity
  8
BORDER
  6
Continuous
 62
     7
370
    30
100
AcDbLine
 10
60.583052
 20
-12.086906
 30
0.0
 11
67.833052
 21
-12.086906
 31
0.0
  0
LINE
  5
286
330
38E
100
AcDbEntity
  8
BORDER
  6
Continuous
 62
     7
370
    30
100
AcDbLine
 10
60.583052
 20
-12.086906
 30
0.0
 11
60.583052
 21
-2.986906
 31
0.0
  0
LINE
  5
287
330
38E
100
AcDbEntity
  8
BORDER
  6
Continuous
 62
     7
370
    30
100
AcDbLine
 10
60.583052
 20
-2.986906
 30
0.0
 11
67.833052
 21
-2.986906
 31
0.0
  0
LINE
  5
289
330
38E
100
AcDbEntity
  8
Level 1
  6
Continuous
 62
     7
370
    13
100
AcDbLine
 10
66.075115
 20
-9.127323
 30
0.0
 11
66.366823
 21
-8.81826
 31
0.0
  0
LINE
  5
28A
330
38E
100
AcDbEntity
  8
Level 1
  6
Continuous
 62
     7
370
    13
100
AcDbLine
 10
66.366823
 20
-8.81826
 30
0.0
 11
66.486708
 21
-8.81826
 31
0.0
  0
LINE
  5
28B
330
38E
100
AcDbEntity
  8
TEXT
  6
Continuous
 62
     7
370
    13
100
AcDbLine
 10
66.061833
 20
-9.787833
 30
0.0
 11
66.372323
 21
-9.626531
 31
0.0
  0
LINE
  5
28C
330
38E
100
AcDbEntity
  8
TEXT
  6
Continuous
 62
     7
370
    13
100
AcDbLine
 10
66.372323
 20
-9.626531
 30
0.0
 11
65.959354
 21
-9.626531
 31
0.0
  0
LWPOLYLINE
  5
28D
330
38E
100
AcDbEntity
  8
Level 1
  6
Continuous
 62
     7
370
    30
100
AcDbPolyline
 90
        4
 70
   128
 43
0.0
 10
65.521833
 20
-8.535521
 10
66.061833
 20
-9.435521
 10
66.061833
 20
-9.478344
 10
66.061833
 20
-9.532219
  0
LINE
  5
28E
330
38E
100
AcDbEntity
  8
Level 1
  6
Continuous
 62
     7
370
    30
100
AcDbLine
 10
65.581833
 20
-9.532219
 30
0.0
 11
65.581833
 21
-9.435521
 31
0.0
  0
LINE
  5
28F
330
38E
100
AcDbEntity
  8
Level 1
  6
Continuous
 62
     7
370
    30
100
AcDbLine
 10
63.661833
 20
-9.532219
 30
0.0
 11
63.661833
 21
-9.435521
 31
0.0
  0
LINE
  5
290
330
38E
100
AcDbEntity
  8
Level 1
  6
Continuous
 62
     7
370
    30
100
AcDbLine
 10
63.181833
 20
-9.532219
 30
0.0
 11
63.181833
 21
-9.435521
 31
0.0
  0
LINE
  5
291
330
38E
100
AcDbEntity
  8
TEXT
  6
Continuous
 62
     7
370
    13
100
AcDbLine
 10
63.181833
 20
-9.790469
 30
0.0
 11
62.825385
 21
-9.626885
 31
0.0
  0
LINE
  5
292
330
38E
100
AcDbEntity
  8
TEXT
  6
Continuous
 62
     7
370
    13
100
AcDbLine
 10
62.825385
 20
-9.626885
 30
0.0
 11
63.349406
 21
-9.626885
 31
0.0
  0
LINE
  5
294
330
38E
100
AcDbEntity
  8
TEXT
  6
Continuous
 62
     7
370
    13
100
AcDbLine
 10
62.884073
 20
-8.835521
 30
0.0
 11
62.634594
 21
-8.713656
 31
0.0
  0
LINE
  5
299
330
38E
100
AcDbEntity
  8
Level 1
  6
Continuous
 62
     7
370
    13
100
AcDbLine
 10
66.366823
 20
-6.279406
 30
0.0
 11
66.486708
 21
-6.279406
 31
0.0
  0
LINE
  5
29D
330
38E
100
AcDbEntity
  8
Level 1
  6
Continuous
 62
     7
370
    13
100
AcDbLine
 10
66.084187
 20
-6.578844
 30
0.0
 11
66.366823
 21
-6.279406
 31
0.0
  0
LINE
  5
2A0
330
38E
100
AcDbEntity
  8
TEXT
  6
Continuous
 62
     7
370
    13
100
AcDbLine
 10
63.132865
 20
-6.751458
 30
0.0
 11
62.746531
 21
-6.999719
 31
0.0
  0
LINE
  5
2A1
330
38E
100
AcDbEntity
  8
TEXT
  6
Continuous
 62
     7
370
    13
100
AcDbLine
 10
62.745094
 20
-6.999115
 30
0.0
 11
63.267937
 21
-6.999115
 31
0.0
  0
LINE
  5
2A2
330
38E
100
AcDbEntity
  8
Level 1
  6
Continuous
 62
     7
370
    30
100
AcDbLine
 10
63.069219
 20
-6.919083
 30
0.0
 11
63.069219
 21
-6.894344
 31
0.0
  0
LINE
  5
2A3
330
38E
100
AcDbEntity
  8
TEXT
  6
Continuous
 62
     7
370
    13
100
AcDbLine
 10
66.066844
 20
-6.771312
 30
0.0
 11
66.508365
 21
-7.000677
 31
0.0
  0
LINE
  5
2A4
330
38E
100
AcDbEntity
  8
TEXT
  6
Continuous
 62
     7
370
    13
100
AcDbLine
 10
66.508365
 20
-7.000677
 30
0.0
 11
65.969875
 21
-7.000677
 31
0.0
  0
LINE
  5
2A5
330
38E
100
AcDbEntity
  8
Level 1
  6
Continuous
 62
     7
370
    30
100
AcDbLine
 10
63.453219
 20
-6.919083
 30
0.0
 11
63.453219
 21
-6.894344
 31
0.0
  0
LINE
  5
2A6
330
38E
100
AcDbEntity
  8
Level 1
  6
Continuous
 62
     7
370
    30
100
AcDbLine
 10
63.837219
 20
-6.919083
 30
0.0
 11
63.837219
 21
-6.894344
 31
0.0
  0
LINE
  5
2A7
330
38E
100
AcDbEntity
  8
Level 1
  6
Continuous
 62
     7
370
    30
100
AcDbLine
 10
64.221219
 20
-6.919083
 30
0.0
 11
64.221219
 21
-6.894344
 31
0.0
  0
LINE
  5
2A8
330
38E
100
AcDbEntity
  8
Level 1
  6
Continuous
 62
     7
370
    30
100
AcDbLine
 10
64.605219
 20
-6.919083
 30
0.0
 11
64.605219
 21
-5.994344
 31
0.0
  0
LINE
  5
2A9
330
38E
100
AcDbEntity
  8
Level 1
  6
Continuous
 62
     7
370
    30
100
AcDbLine
 10
64.989219
 20
-6.919083
 30
0.0
 11
64.989219
 21
-6.894344
 31
0.0
  0
LINE
  5
2AA
330
38E
100
AcDbEntity
  8
Level 1
  6
Continuous
 62
     7
370
    30
100
AcDbLine
 10
65.373219
 20
-6.919083
 30
0.0
 11
65.373219
 21
-6.894344
 31
0.0
  0
LINE
  5
2AB
330
38E
100
AcDbEntity
  8
Level 1
  6
Continuous
 62
     7
370
    30
100
AcDbLine
 10
65.757219
 20
-6.919083
 30
0.0
 11
65.757219
 21
-6.894344
 31
0.0
  0
LINE
  5
2AC
330
38E
100
AcDbEntity
  8
Level 1
  6
Continuous
 62
     7
370
    30
100
AcDbLine
 10
66.141219
 20
-6.919083
 30
0.0
 11
66.141219
 21
-6.894344
 31
0.0
  0
LINE
  5
2AE
330
38E
100
AcDbEntity
  8
TEXT
  6
Continuous
 62
     7
370
    13
100
AcDbLine
 10
62.701833
 20
-9.808323
 30
0.0
 11
61.999156
 21
-9.443312
 31
0.0
  0
LINE
  5
2AF
330
38E
100
AcDbEntity
  8
TEXT
  6
Continuous
 62
     7
370
    13
100
AcDbLine
 10
61.999156
 20
-9.443312
 30
0.0
 11
61.780719
 21
-9.443312
 31
0.0
  0
LINE
  5
2B0
330
38E
100
AcDbEntity
  8
TEXT
  6
Continuous
 62
     7
370
    13
100
AcDbLine
 10
62.25401
 20
-6.931115
 30
0.0
 11
61.951812
 21
-6.931115
 31
0.0
  0
LINE
  5
2B1
330
38E
100
AcDbEntity
  8
TEXT
  6
Continuous
 62
     7
370
    13
100
AcDbLine
 10
62.675885
 20
-7.076448
 30
0.0
 11
62.25401
 21
-6.931115
 31
0.0
  0
LINE
  5
2B7
330
38E
100
AcDbEntity
  8
Level 1
  6
Continuous
 62
     7
370
    13
100
AcDbLine
 10
62.987562
 20
-6.294344
 30
0.0
 11
62.792031
 21
-6.005323
 31
0.0
  0
LINE
  5
2B8
330
38E
100
AcDbEntity
  8
Level 1
  6
Continuous
 62
     7
370
    13
100
AcDbLine
 10
62.792031
 20
-6.005323
 30
0.0
 11
62.596323
 21
-6.005323
 31
0.0
  0
LINE
  5
2BE
330
38E
100
AcDbEntity
  8
TEXT
  6
Continuous
 62
     7
370
    13
100
AcDbLine
 10
63.020521
 20
-4.745698
 30
0.0
 11
62.438167
 21
-4.886479
 31
0.0
  0
LINE
  5
2BF
330
38E
100
AcDbEntity
  8
TEXT
  6
Continuous
 62
     7
370
    13
100
AcDbLine
 10
62.438167
 20
-4.886479
 30
0.0
 11
62.119521
 21
-4.886479
 31
0.0
  0
LINE
  5
2C0
330
38E
100
AcDbEntity
  8
TEXT
  6
Continuous
 62
     7
370
    13
100
AcDbLine
 10
63.845687
 20
-3.82726
 30
0.0
 11
63.558698
 21
-3.33
 31
0.0
  0
LINE
  5
2C2
330
38E
100
AcDbEntity
  8
TEXT
  6
Continuous
 62
     7
370
    13
100
AcDbLine
 10
66.143781
 20
-4.796323
 30
0.0
 11
66.425635
 21
-5.044354
 31
0.0
  0
LINE
  5
2C3
330
38E
100
AcDbEntity
  8
TEXT
  6
Continuous
 62
     7
370
    13
100
AcDbLine
 10
66.425635
 20
-5.044354
 30
0.0
 11
66.335323
 21
-5.044354
 31
0.0
  0
LINE
  5
2C4
330
38E
100
AcDbEntity
  8
TEXT
  6
Continuous
 62
     7
370
    13
100
AcDbLine
 10
66.846521
 20
-4.516
 30
0.0
 11
66.57826
 21
-5.053021
 31
0.0
  0
LINE
  5
2C5
330
38E
100
AcDbEntity
  8
TEXT
  6
Continuous
 62
     7
370
    13
100
AcDbLine
 10
66.57826
 20
-5.053021
 30
0.0
 11
66.794
 21
-5.053021
 31
0.0
  0
LWPOLYLINE
  5
2C6
330
38E
100
AcDbEntity
  8
TEXT
  6
Continuous
 62
     7
370
    13
100
AcDbPolyline
 90
        3
 70
   128
 43
0.0
 10
63.558698
 20
-3.33
 10
63.400896
 20
-3.33
 10
63.274
 20
-3.33
  0
LINE
  5
2C8
330
38E
100
AcDbEntity
  8
TEXT
  6
Continuous
 62
     7
370
    13
100
AcDbLine
 10
66.449271
 20
-3.75076
 30
0.0
 11
66.761479
 21
-4.129542
 31
0.0
  0
LINE
  5
2CB
330
38E
100
AcDbEntity
  8
Level 1
  6
Continuous
 62
     7
370
    30
100
AcDbLine
 10
68.458052
 20
-2.198812
 30
0.0
 11
68.208052
 21
-2.198812
 31
0.0
  0
LINE
  5
2CC
330
38E
100
AcDbEntity
  8
Level 1
  6
Continuous
 62
     7
370
    30
100
AcDbLine
 10
68.208052
 20
-2.073812
 30
0.0
 11
68.208052
 21
-2.198812
 31
0.0
  0
LINE
  5
2CD
330
38E
100
AcDbEntity
  8
Level 1
  6
Continuous
 62
     7
370
    30
100
AcDbLine
 10
60.208052
 20
-2.198812
 30
0.0
 11
59.958052
 21
-2.198812
 31
0.0
  0
LINE
  5
2CE
330
38E
100
AcDbEntity
  8
Level 1
  6
Continuous
 62
     7
370
    30
100
AcDbLine
 10
60.208052
 20
-2.073812
 30
0.0
 11
60.208052
 21
-2.198812
 31
0.0
  0
LINE
  5
2CF
330
38E
100
AcDbEntity
  8
Level 1
  6
Continuous
 62
     7
370
    30
100
AcDbLine
 10
60.208052
 20
-12.948812
 30
0.0
 11
59.958052
 21
-12.948812
 31
0.0
  0
LINE
  5
2D0
330
38E
100
AcDbEntity
  8
Level 1
  6
Continuous
 62
     7
370
    30
100
AcDbLine
 10
60.208052
 20
-12.948812
 30
0.0
 11
60.208052
 21
-13.073812
 31
0.0
  0
LINE
  5
2D1
330
38E
100
AcDbEntity
  8
Level 1
  6
Continuous
 62
     7
370
    30
100
AcDbLine
 10
68.458052
 20
-12.948812
 30
0.0
 11
68.208052
 21
-12.948812
 31
0.0
  0
LINE
  5
2D2
330
38E
100
AcDbEntity
  8
Level 1
  6
Continuous
 62
     7
370
    30
100
AcDbLine
 10
68.208052
 20
-12.948812
 30
0.0
 11
68.208052
 21
-13.073812
 31
0.0
  0
LINE
  5
2D4
330
38E
100
AcDbEntity
  8
REF
  6
Continuous
 62
     7
370
    30
100
AcDbLine
 10
63.371517
 20
-5.480969
 30
0.0
 11
66.287535
 21
-5.480969
 31
0.0
  0
INSERT
  5
2D5
330
38E
100
AcDbEntity
  8
REF
  6
Continuous
 62
     7
370
    13
100
AcDbBlockReference
  2
LARROW
 10
63.020521
 20
-4.745698
 30
0.0
 41
11.999998
 42
11.999998
 43
11.999998
 50
13.590244
  0
INSERT
  5
2D7
330
38E
100
AcDbEntity
  8
REF
  6
Continuous
 62
     7
370
    13
100
AcDbBlockReference
  2
LARROW
 10
63.845687
 20
-3.82726
 30
0.0
 41
12.000001
 42
12.000001
 43
12.000001
 50
299.990474
  0
INSERT
  5
2D9
330
38E
100
AcDbEntity
  8
REF
  6
Continuous
 62
     7
370
    13
100
AcDbBlockReference
  2
LARROW
 10
66.846521
 20
-4.516
 30
0.0
 41
12.000002
 42
12.000002
 43
12.000002
 50
63.456297
  0
LINE
  5
2DC
330
38E
100
AcDbEntity
  8
REF
  6
Continuous
 62
     7
370
    30
100
AcDbLine
 10
63.433066
 20
-8.180312
 30
0.0
 11
65.968191
 21
-8.180312
 31
0.0
  0
INSERT
  5
2DD
330
38E
100
AcDbEntity
  8
REF
  6
Continuous
 62
     7
370
    13
100
AcDbBlockReference
  2
LARROW
 10
63.132865
 20
-6.751458
 30
0.0
 41
12.000001
 42
12.000001
 43
12.000001
 50
32.725065
  0
INSERT
  5
2DF
330
38E
100
AcDbEntity
  8
REF
  6
Continuous
 62
     7
370
    13
100
AcDbBlockReference
  2
LARROW
 10
62.675885
 20
-7.076448
 30
0.0
 41
12.0
 42
12.0
 43
12.0
 50
340.991494
  0
INSERT
  5
2E1
330
38E
100
AcDbEntity
  8
REF
  6
Continuous
 62
     7
370
    13
100
AcDbBlockReference
  2
LARROW
 10
66.084187
 20
-6.578844
 30
0.0
 41
12.0
 42
12.0
 43
12.0
 50
226.653436
  0
INSERT
  5
2E3
330
38E
100
AcDbEntity
  8
REF
  6
Continuous
 62
     7
370
    13
100
AcDbBlockReference
  2
LARROW
 10
66.066844
 20
-6.771312
 30
0.0
 41
12.0
 42
12.0
 43
12.0
 50
152.548694
  0
LINE
  5
2E6
330
38E
100
AcDbEntity
  8
REF
  6
Continuous
 62
     7
370
    30
100
AcDbLine
 10
62.92729
 20
-10.547625
 30
0.0
 11
66.124295
 21
-10.547625
 31
0.0
  0
INSERT
  5
2E7
330
38E
100
AcDbEntity
  8
REF
  6
Continuous
 62
     7
370
    13
100
AcDbBlockReference
  2
LARROW
 10
66.075115
 20
-9.127323
 30
0.0
 41
11.999997
 42
11.999997
 43
11.999997
 50
226.654616
  0
INSERT
  5
2E9
330
38E
100
AcDbEntity
  8
REF
  6
Continuous
 62
     7
370
    13
100
AcDbBlockReference
  2
LARROW
 10
66.061833
 20
-9.787833
 30
0.0
 41
11.999998
 42
11.999998
 43
11.999998
 50
207.452162
  0
INSERT
  5
2EB
330
38E
100
AcDbEntity
  8
REF
  6
Continuous
 62
     7
370
    13
100
AcDbBlockReference
  2
LARROW
 10
63.181833
 20
-9.790469
 30
0.0
 41
11.999999
 42
11.999999
 43
11.999999
 50
335.348112
  0
INSERT
  5
2F6
330
38E
100
AcDbEntity
  8
TEXT
  6
Continuous
 62
     7
370
    13
100
AcDbBlockReference
  2
LARROW_1
 10
62.701833
 20
-9.808323
 30
0.0
 41
12.000001
 42
12.000001
 43
12.000001
 50
332.550076
  0
LINE
  5
304
330
38E
100
AcDbEntity
  8
2-4A
  6
Continuous
 62
     7
370
    13
100
AcDbLine
 10
63.431917
 20
-3.952073
 30
0.0
 11
63.074437
 21
-3.888271
 31
0.0
  0
LINE
  5
308
330
38E
100
AcDbEntity
  8
TEXT
  6
Continuous
 62
     7
370
    13
100
AcDbLine
 10
64.446469
 20
-3.655958
 30
0.0
 11
64.679375
 21
-3.388333
 31
0.0
  0
LINE
  5
309
330
38E
100
AcDbEntity
  8
TEXT
  6
Continuous
 62
     7
370
    13
100
AcDbLine
 10
64.296469
 20
-3.655958
 30
0.0
 11
64.679375
 21
-3.388333
 31
0.0
  0
TEXT
  5
30D
330
38E
100
AcDbEntity
  8
TEXT
  6
Continuous
 62
     7
370
    30
100
AcDbText
 10
66.436604
 20
-3.142937
 30
0.0
 40
0.09
  1
5
  7
Style-FANCY
 11
66.436604
 21
-3.097938
 31
0.0
100
AcDbText
 73
     2
  0
LINE
  5
30E
330
38E
100
AcDbEntity
  8
TEXT
  6
Continuous
 62
     7
370
    13
100
AcDbLine
 10
64.554458
 20
-3.388333
 30
0.0
 11
64.679375
 21
-3.388333
 31
0.0
  0
INSERT
  5
30F
330
38E
100
AcDbEntity
  8
TEXT
  6
Continuous
 62
     7
370
    13
100
AcDbBlockReference
  2
LARROW_1
 10
64.296469
 20
-3.655958
 30
0.0
 41
11.999999
 42
11.999999
 43
11.999999
 50
214.950897
  0
INSERT
  5
31A
330
38E
100
AcDbEntity
  8
TEXT
  6
Continuous
 62
     7
370
    13
100
AcDbBlockReference
  2
LARROW_1
 10
64.446469
 20
-3.655958
 30
0.0
 41
12.000001
 42
12.000001
 43
12.000001
 50
228.967896
  0
TEXT
  5
185
330
38E
100
AcDbEntity
  8
TEXT
  6
Continuous
 62
     7
370
    30
100
AcDbText
 10
60.667781
 20
-3.216865
 30
0.0
 40
0.09
  1
5/8 IN DIA DEFORMED TIE BARS
  7
Style-Arial
 11
60.667781
 21
-3.171865
 31
0.0
100
AcDbText
 73
     2
  0
TEXT
  5
2ED
330
38E
100
AcDbEntity
  8
TEXT
  6
Continuous
 62
     7
370
    30
100
AcDbText
 10
60.661927
 20
-3.361052
 30
0.0
 40
0.09
  1
OUTSIDE LONGITUDINAL CONTRACTION
  7
Style-Arial
 11
60.661927
 21
-3.316052
 31
0.0
100
AcDbText
 73
     2
  0
TEXT
  5
2EE
330
38E
100
AcDbEntity
  8
TEXT
  6
Continuous
 62
     7
370
    30
100
AcDbText
 10
60.662323
 20
-3.501823
 30
0.0
 40
0.09
  1
JOINTS 15 FEET OR LESS FROM FREE
  7
Style-Arial
 11
60.662323
 21
-3.456823
 31
0.0
100
AcDbText
 73
     2
  0
TEXT
  5
2EF
330
38E
100
AcDbEntity
  8
TEXT
  6
Continuous
 62
     7
370
    30
100
AcDbText
 10
60.674427
 20
-3.638458
 30
0.0
 40
0.09
  1
EDGE OF PAVED AREAS > 100' WIDE
  7
Style-Arial
 11
60.674427
 21
-3.593458
 31
0.0
100
AcDbText
 73
     2
  0
TEXT
  5
30A
330
38E
100
AcDbEntity
  8
TEXT
  6
Continuous
 62
     7
370
    30
100
AcDbText
 10
63.771562
 20
-3.143375
 30
0.0
 40
0.09
  1
LONGITUDINAL CONTRACTION JTS. USE  /8" DIA.
  7
Style-Arial
 11
63.771562
 21
-3.098375
 31
0.0
100
AcDbText
 73
     2
  0
TEXT
  5
30B
330
38E
100
AcDbEntity
  8
TEXT
  6
Continuous
 62
     7
370
    30
100
AcDbText
 10
63.77776
 20
-3.278115
 30
0.0
 40
0.09
  1
DIA DEFORMED TIE BARS THROUGH JOINTS IN
  7
Style-Arial
 11
63.77776
 21
-3.233115
 31
0.0
100
AcDbText
 73
     2
  0
TEXT
  5
30C
330
38E
100
AcDbEntity
  8
TEXT
  6
Continuous
 62
     7
370
    30
100
AcDbText
 10
63.775219
 20
-3.428281
 30
0.0
 40
0.09
  1
LAST SLAB
  7
Style-Arial
 11
63.775219
 21
-3.383281
 31
0.0
100
AcDbText
 73
     2
  0
TEXT
  5
2C1
330
38E
100
AcDbEntity
  8
TEXT
  6
Continuous
 62
     7
370
    30
100
AcDbText
 10
64.750125
 20
-3.596
 30
0.0
 40
0.09
  1
END OF PAVEMENT
  7
Style-Arial
 11
64.750125
 21
-3.551
 31
0.0
100
AcDbText
 73
     2
  0
TEXT
  5
2CA
330
38E
100
AcDbEntity
  8
2-4A
  6
Continuous
 62
     7
370
    30
100
AcDbText
 10
66.632146
 20
-3.460167
 30
0.0
 40
0.09
  1
DOWELED
 50
308.659808
  7
Style-Arial
 11
66.667285
 21
-3.432055
 31
0.0
100
AcDbText
 73
     2
  0
TEXT
  5
17E
330
38E
100
AcDbEntity
  8
2-4A
  6
Continuous
 62
     7
370
    30
100
AcDbText
 10
66.562281
 20
-3.576708
 30
0.0
 40
0.09
  1
TRANS.
 50
308.659808
  7
Style-Arial
 11
66.59742
 21
-3.548597
 31
0.0
100
AcDbText
 73
     2
  0
TEXT
  5
17F
330
38E
100
AcDbEntity
  8
2-4A
  6
Continuous
 62
     7
370
    30
100
AcDbText
 10
66.451281
 20
-3.63099
 30
0.0
 40
0.09
  1
EXP. JT.
 50
308.659808
  7
Style-Arial
 11
66.48642
 21
-3.602878
 31
0.0
100
AcDbText
 73
     2
  0
TEXT
  5
303
330
38E
100
AcDbEntity
  8
TEXT
  6
Continuous
 62
     7
370
    30
100
AcDbText
 10
60.686368
 20
-3.92501
 30
0.0
 40
0.09
  1
DOWELS REQUIRED IN LAST THREE
  7
Style-Arial
 11
60.686368
 21
-3.88001
 31
0.0
100
AcDbText
 73
     2
  0
TEXT
  5
305
330
38E
100
AcDbEntity
  8
TEXT
  6
Continuous
 62
     7
370
    30
100
AcDbText
 10
60.692612
 20
-4.087719
 30
0.0
 40
0.09
  1
TRANSVERSE CONTRACTION JOINTS
  7
Style-Arial
 11
60.692612
 21
-4.042719
 31
0.0
100
AcDbText
 73
     2
  0
TEXT
  5
306
330
38E
100
AcDbEntity
  8
TEXT
  6
Continuous
 62
     7
370
    30
100
AcDbText
 10
60.686368
 20
-4.242802
 30
0.0
 40
0.09
  1
AT RUNWAY ENDS OR ENDS OF
  7
Style-Arial
 11
60.686368
 21
-4.197802
 31
0.0
100
AcDbText
 73
     2
  0
TEXT
  5
307
330
38E
100
AcDbEntity
  8
TEXT
  6
Continuous
 62
     7
370
    30
100
AcDbText
 10
60.689558
 20
-4.398448
 30
0.0
 40
0.09
  1
OTHER LONG PAVED AREAS
  7
Style-Arial
 11
60.689558
 21
-4.353448
 31
0.0
100
AcDbText
 73
     2
  0
TEXT
  5
2F0
330
38E
100
AcDbEntity
  8
TEXT
  6
Continuous
 62
     7
370
    30
100
AcDbText
 10
60.635697
 20
-4.599618
 30
0.0
 40
0.09
  1
DOWELS, KEYWAY OR THICKENED
  7
Style-Arial
 11
60.635697
 21
-4.554618
 31
0.0
100
AcDbText
 73
     2
  0
TEXT
  5
2F1
330
38E
100
AcDbEntity
  8
TEXT
  6
Continuous
 62
     7
370
    30
100
AcDbText
 10
60.630986
 20
-4.743296
 30
0.0
 40
0.09
  1
EDGE IN OUTSIDE LANES
  7
Style-Arial
 11
60.630986
 21
-4.698296
 31
0.0
100
AcDbText
 73
     2
  0
TEXT
  5
2BD
330
38E
100
AcDbEntity
  8
TEXT
  6
Continuous
 62
     7
370
    30
100
AcDbText
 10
60.639562
 20
-4.889779
 30
0.0
 40
0.09
  1
WHERE PAVEMENT
  7
Style-Arial
 11
60.639562
 21
-4.844779
 31
0.0
100
AcDbText
 73
     2
  0
TEXT
  5
2BC
330
38E
100
AcDbEntity
  8
TEXT
  6
Continuous
 62
     7
370
    30
100
AcDbText
 10
60.633827
 20
-5.025556
 30
0.0
 40
0.09
  1
EXTENSION IS FEASIBLE
  7
Style-Arial
 11
60.633827
 21
-4.980556
 31
0.0
100
AcDbText
 73
     2
  0
TEXT
  5
17C
330
38E
100
AcDbEntity
  8
TEXT
  6
Continuous
 62
     7
370
    30
100
AcDbText
 10
63.760031
 20
-5.091156
 30
0.0
 40
0.09
  1
LONGITUDINAL CONSTRUCTION JOINTS
  7
Style-Arial
 11
63.760031
 21
-5.046156
 31
0.0
100
AcDbText
 73
     2
  0
TEXT
  5
2BB
330
38E
100
AcDbEntity
  8
TEXT
  6
Continuous
 62
     7
370
    30
100
AcDbText
 10
66.840427
 20
-4.95974
 30
0.0
 40
0.09
  1
TRANSVERSE
  7
Style-Arial
 11
66.840427
 21
-4.91474
 31
0.0
100
AcDbText
 73
     2
  0
TEXT
  5
2BA
330
38E
100
AcDbEntity
  8
TEXT
  6
Continuous
 62
     7
370
    30
100
AcDbText
 10
66.834542
 20
-5.085698
 30
0.0
 40
0.09
  1
CONTRACTION
  7
Style-Arial
 11
66.834542
 21
-5.040698
 31
0.0
100
AcDbText
 73
     2
  0
TEXT
  5
2B9
330
38E
100
AcDbEntity
  8
TEXT
  6
Continuous
 62
     7
370
    30
100
AcDbText
 10
66.819187
 20
-5.226719
 30
0.0
 40
0.09
  1
JOINT
  7
Style-Arial
 11
66.819187
 21
-5.181719
 31
0.0
100
AcDbText
 73
     2
  0
TEXT
  5
2D3
330
38E
100
AcDbEntity
  8
TEXT
  6
Continuous
 62
     7
370
    30
100
AcDbText
 10
63.410043
 20
-5.406656
 30
0.0
 40
0.09
  1
PAVEMENT THICKNESS LESS THAN 9 INCHES
  7
Style-Arial
 11
63.410043
 21
-5.361656
 31
0.0
100
AcDbText
 73
     2
  0
TEXT
  5
296
330
38E
100
AcDbEntity
  8
TEXT
  6
Continuous
 62
     7
370
    30
100
AcDbText
 10
61.107661
 20
-5.730167
 30
0.0
 40
0.09
  1
DOWELS REQUIRED IN
  7
Style-Arial
 11
61.107661
 21
-5.685167
 31
0.0
100
AcDbText
 73
     2
  0
TEXT
  5
295
330
38E
100
AcDbEntity
  8
TEXT
  6
Continuous
 62
     7
370
    30
100
AcDbText
 10
61.114223
 20
-5.888573
 30
0.0
 40
0.09
  1
LAST THREE TRANS-
  7
Style-Arial
 11
61.114223
 21
-5.843573
 31
0.0
100
AcDbText
 73
     2
  0
TEXT
  5
297
330
38E
100
AcDbEntity
  8
TEXT
  6
Continuous
 62
     7
370
    30
100
AcDbText
 10
61.13102
 20
-6.048792
 30
0.0
 40
0.09
  1
VERSE CONTRACTION
  7
Style-Arial
 11
61.13102
 21
-6.003792
 31
0.0
100
AcDbText
 73
     2
  0
TEXT
  5
298
330
38E
100
AcDbEntity
  8
TEXT
  6
Continuous
 62
     7
370
    30
100
AcDbText
 10
61.136519
 20
-6.200302
 30
0.0
 40
0.09
  1
JTS. AT RUNWAY ENDS
  7
Style-Arial
 11
61.136519
 21
-6.155302
 31
0.0
100
AcDbText
 73
     2
  0
TEXT
  5
29E
330
38E
100
AcDbEntity
  8
TEXT
  6
Continuous
 62
     7
370
    30
100
AcDbText
 10
63.975365
 20
-5.938635
 30
0.0
 40
0.09
  1
END OF PAVEMENT
  7
Style-Arial
 11
63.975365
 21
-5.893635
 31
0.0
100
AcDbText
 73
     2
  0
TEXT
  5
29A
330
38E
100
AcDbEntity
  8
TEXT
  6
Continuous
 62
     7
370
    30
100
AcDbText
 10
66.519792
 20
-6.168469
 30
0.0
 40
0.09
  1
TRANSVERSE
  7
Style-Arial
 11
66.519792
 21
-6.123469
 31
0.0
100
AcDbText
 73
     2
  0
TEXT
  5
29B
330
38E
100
AcDbEntity
  8
TEXT
  6
Continuous
 62
     7
370
    30
100
AcDbText
 10
66.537385
 20
-6.307344
 30
0.0
 40
0.09
  1
CONTRACTION
  7
Style-Arial
 11
66.537385
 21
-6.262344
 31
0.0
100
AcDbText
 73
     2
  0
TEXT
  5
29C
330
38E
100
AcDbEntity
  8
TEXT
  6
Continuous
 62
     7
370
    30
100
AcDbText
 10
66.5215
 20
-6.45351
 30
0.0
 40
0.09
  1
JOINT
  7
Style-Arial
 11
66.5215
 21
-6.40851
 31
0.0
100
AcDbText
 73
     2
  0
TEXT
  5
2B3
330
38E
100
AcDbEntity
  8
TEXT
  6
Continuous
 62
     7
370
    30
100
AcDbText
 10
60.709554
 20
-6.521583
 30
0.0
 40
0.09
  1
DOWELS, KEYWAY OR
  7
Style-Arial
 11
60.709554
 21
-6.476583
 31
0.0
100
AcDbText
 73
     2
  0
TEXT
  5
2B2
330
38E
100
AcDbEntity
  8
TEXT
  6
Continuous
 62
     7
370
    30
100
AcDbText
 10
60.712443
 20
-6.680208
 30
0.0
 40
0.09
  1
THICKENED EDGE IN
  7
Style-Arial
 11
60.712443
 21
-6.635208
 31
0.0
100
AcDbText
 73
     2
  0
TEXT
  5
2B4
330
38E
100
AcDbEntity
  8
TEXT
  6
Continuous
 62
     7
370
    30
100
AcDbText
 10
60.709927
 20
-6.825104
 30
0.0
 40
0.09
  1
OUTSIDE LANES
  7
Style-Arial
 11
60.709927
 21
-6.780104
 31
0.0
100
AcDbText
 73
     2
  0
TEXT
  5
2B5
330
38E
100
AcDbEntity
  8
TEXT
  6
Continuous
 62
     7
370
    30
100
AcDbText
 10
60.715927
 20
-6.981583
 30
0.0
 40
0.09
  1
WHERE PAVEMENT
  7
Style-Arial
 11
60.715927
 21
-6.936583
 31
0.0
100
AcDbText
 73
     2
  0
TEXT
  5
2B6
330
38E
100
AcDbEntity
  8
TEXT
  6
Continuous
 62
     7
370
    30
100
AcDbText
 10
60.719781
 20
-7.136437
 30
0.0
 40
0.09
  1
EXTENSION IS FEASIBLE
  7
Style-Arial
 11
60.719781
 21
-7.091437
 31
0.0
100
AcDbText
 73
     2
  0
TEXT
  5
29F
330
38E
100
AcDbEntity
  8
TEXT
  6
Continuous
 62
     7
370
    30
100
AcDbText
 10
63.345521
 20
-7.045625
 30
0.0
 40
0.09
  1
LONGITUDINAL CONSTRUCTION JOINTS
  7
Style-Arial
 11
63.345521
 21
-7.000625
 31
0.0
100
AcDbText
 73
     2
  0
TEXT
  5
2F2
330
38E
100
AcDbEntity
  8
DEFPOINTS
  6
Continuous
 62
     7
370
    30
100
AcDbText
 10
60.895042
 20
-7.37824
 30
0.0
 40
0.09
  1
NOTE: IF LANES GREATER THAN 20 FEET WIDE ARE USED, LONGITUDINAL CONTRACTION JOINTS
  7
Style-Arial
 11
60.895042
 21
-7.33324
 31
0.0
100
AcDbText
 73
     2
  0
TEXT
  5
2F3
330
38E
100
AcDbEntity
  8
DEFPOINTS
  6
Continuous
 62
     7
370
    30
100
AcDbText
 10
60.896302
 20
-7.548625
 30
0.0
 40
0.09
  1
MUST BE PLACED IN THE CENTER OF EACH LANE.  TIE BARS WILL BE USED IN OUTSIDE
  7
Style-Arial
 11
60.896302
 21
-7.503625
 31
0.0
100
AcDbText
 73
     2
  0
TEXT
  5
2F4
330
38E
100
AcDbEntity
  8
DEFPOINTS
  6
Continuous
 62
     7
370
    30
100
AcDbText
 10
60.899302
 20
-7.71449
 30
0.0
 40
0.09
  1
LONGITUDINAL CONTRACTION JOINTS 15 FEET OR LESS FROM THE FREE EDGE OF PAVED AREAS 
  7
Style-Arial
 11
60.899302
 21
-7.66949
 31
0.0
100
AcDbText
 73
     2
  0
TEXT
  5
2F5
330
38E
100
AcDbEntity
  8
DEFPOINTS
  6
Continuous
 62
     7
370
    30
100
AcDbText
 10
60.889833
 20
-7.877146
 30
0.0
 40
0.09
  1
GREATER THAN 100 FEET WIDE
  7
Style-Arial
 11
60.889833
 21
-7.832146
 31
0.0
100
AcDbText
 73
     2
  0
TEXT
  5
2DB
330
38E
100
AcDbEntity
  8
TEXT
  6
Continuous
 62
     7
370
    30
100
AcDbText
 10
63.455772
 20
-8.105552
 30
0.0
 40
0.09
  1
PAVEMENT THICKNESS, 9 TO 12 INCHES
  7
Style-Arial
 11
63.455772
 21
-8.060552
 31
0.0
100
AcDbText
 73
     2
  0
TEXT
  5
E9
330
38E
100
AcDbEntity
  8
TEXT
  6
Continuous
 62
     7
370
    30
100
AcDbText
 10
64.007135
 20
-8.485333
 30
0.0
 40
0.09
  1
END OF PAVEMENT
  7
Style-Arial
 11
64.007135
 21
-8.440333
 31
0.0
100
AcDbText
 73
     2
  0
TEXT
  5
288
330
38E
100
AcDbEntity
  8
TEXT
  6
Continuous
 62
     7
370
    30
100
AcDbText
 10
66.530885
 20
-8.774844
 30
0.0
 40
0.09
  1
TRANSVERSE
  7
Style-Arial
 11
66.530885
 21
-8.729844
 31
0.0
100
AcDbText
 73
     2
  0
TEXT
  5
E8
330
38E
100
AcDbEntity
  8
TEXT
  6
Continuous
 62
     7
370
    30
100
AcDbText
 10
66.530885
 20
-8.930187
 30
0.0
 40
0.09
  1
CONTRACTION
  7
Style-Arial
 11
66.530885
 21
-8.885187
 31
0.0
100
AcDbText
 73
     2
  0
TEXT
  5
E7
330
38E
100
AcDbEntity
  8
TEXT
  6
Continuous
 62
     7
370
    30
100
AcDbText
 10
66.530885
 20
-9.086
 30
0.0
 40
0.09
  1
JOINT
  7
Style-Arial
 11
66.530885
 21
-9.041
 31
0.0
100
AcDbText
 73
     2
  0
TEXT
  5
F0
330
38E
100
AcDbEntity
  8
TEXT
  6
Continuous
 62
     7
370
    30
100
AcDbText
 10
61.170469
 20
-8.551625
 30
0.0
 40
0.09
  1
DOWELS REQUIRED IN
  7
Style-Arial
 11
61.170469
 21
-8.506625
 31
0.0
100
AcDbText
 73
     2
  0
TEXT
  5
293
330
38E
100
AcDbEntity
  8
TEXT
  6
Continuous
 62
     7
370
    30
100
AcDbText
 10
61.179385
 20
-8.700125
 30
0.0
 40
0.09
  1
LAST THREE TRANS-
  7
Style-Arial
 11
61.179385
 21
-8.655125
 31
0.0
100
AcDbText
 73
     2
  0
TEXT
  5
EF
330
38E
100
AcDbEntity
  8
TEXT
  6
Continuous
 62
     7
370
    30
100
AcDbText
 10
61.173104
 20
-8.855021
 30
0.0
 40
0.09
  1
VERSE CONTRACTION
  7
Style-Arial
 11
61.173104
 21
-8.810021
 31
0.0
100
AcDbText
 73
     2
  0
TEXT
  5
EE
330
38E
100
AcDbEntity
  8
TEXT
  6
Continuous
 62
     7
370
    30
100
AcDbText
 10
61.181177
 20
-8.995135
 30
0.0
 40
0.09
  1
JTS. AT RUNWAY ENDS
  7
Style-Arial
 11
61.181177
 21
-8.950135
 31
0.0
100
AcDbText
 73
     2
  0
TEXT
  5
ED
330
38E
100
AcDbEntity
  8
TEXT
  6
Continuous
 62
     7
370
    30
100
AcDbText
 10
60.709604
 20
-9.21201
 30
0.0
 40
0.09
  1
DOWELS, KEYWAY OR
  7
Style-Arial
 11
60.709604
 21
-9.16701
 31
0.0
100
AcDbText
 73
     2
  0
TEXT
  5
2AD
330
38E
100
AcDbEntity
  8
TEXT
  6
Continuous
 62
     7
370
    30
100
AcDbText
 10
60.687427
 20
-9.349063
 30
0.0
 40
0.09
  1
THICKENED EDGE IN
  7
Style-Arial
 11
60.687427
 21
-9.304063
 31
0.0
100
AcDbText
 73
     2
  0
TEXT
  5
EC
330
38E
100
AcDbEntity
  8
TEXT
  6
Continuous
 62
     7
370
    30
100
AcDbText
 10
60.690458
 20
-9.480135
 30
0.0
 40
0.09
  1
OUTSIDE LANES
  7
Style-Arial
 11
60.690458
 21
-9.435135
 31
0.0
100
AcDbText
 73
     2
  0
TEXT
  5
EB
330
38E
100
AcDbEntity
  8
TEXT
  6
Continuous
 62
     7
370
    30
100
AcDbText
 10
60.69999
 20
-9.625479
 30
0.0
 40
0.09
  1
WHERE PAVEMENT
  7
Style-Arial
 11
60.69999
 21
-9.580479
 31
0.0
100
AcDbText
 73
     2
  0
TEXT
  5
EA
330
38E
100
AcDbEntity
  8
TEXT
  6
Continuous
 62
     7
370
    30
100
AcDbText
 10
60.707104
 20
-9.75324
 30
0.0
 40
0.09
  1
EXTENSION IS FEASIBLE
  7
Style-Arial
 11
60.707104
 21
-9.70824
 31
0.0
100
AcDbText
 73
     2
  0
TEXT
  5
E6
330
38E
100
AcDbEntity
  8
TEXT
  6
Continuous
 62
     7
370
    30
100
AcDbText
 10
63.398698
 20
-9.668354
 30
0.0
 40
0.09
  1
LONGITUDINAL CONSTRUCTION JOINTS
  7
Style-Arial
 11
63.398698
 21
-9.623354
 31
0.0
100
AcDbText
 73
     2
  0
TEXT
  5
301
330
38E
100
AcDbEntity
  8
DEFPOINTS
  6
Continuous
 62
     7
370
    30
100
AcDbText
 10
60.74925
 20
-10.103729
 30
0.0
 40
0.09
  1
NOTE: IF PAVING LANES GREATER THAN 25 OR 20 FEET FOR AIR FORCE ARE USED, LONGITUDINAL
  7
Style-Arial
 11
60.74925
 21
-10.058729
 31
0.0
100
AcDbText
 73
     2
  0
TEXT
  5
302
330
38E
100
AcDbEntity
  8
DEFPOINTS
  6
Continuous
 62
     7
370
    30
100
AcDbText
 10
60.743458
 20
-10.268198
 30
0.0
 40
0.09
  1
CONTRACTION JOINTS MUST BE PLACED IN CENTER OF EACH LANE.
  7
Style-Arial
 11
60.743458
 21
-10.223198
 31
0.0
100
AcDbText
 73
     2
  0
TEXT
  5
2E5
330
38E
100
AcDbEntity
  8
TEXT
  6
Continuous
 62
     7
370
    30
100
AcDbText
 10
62.950836
 20
-10.484448
 30
0.0
 40
0.09
  1
PAVEMENT THICKNESS GREATER THAN 12 INCHES
  7
Style-Arial
 11
62.950836
 21
-10.439448
 31
0.0
100
AcDbText
 73
     2
  0
TEXT
  5
327
330
38E
100
AcDbEntity
  8
DEFPOINTS
  6
Continuous
 62
     7
370
    30
100
AcDbText
 10
60.74925
 20
-10.764479
 30
0.0
 40
0.09
  1
NOTE: SEE TM 5-825-3 FOR ALLOWABLE DIMENSIONS OF SLABS FOR VARIOUS PAVEMENT THICKNESSES
  7
Style-Arial
 11
60.74925
 21
-10.719479
 31
0.0
100
AcDbText
 73
     2
  0
TEXT
  5
325
330
38E
100
AcDbEntity
  8
DEFPOINTS
  6
Continuous
 62
     7
370
    30
100
AcDbText
 10
60.74925
 20
-10.924656
 30
0.0
 40
0.09
  1
(NOT OVER 20 FT. FOR AF PAVEMENTS) AND FOR ALLOWABLE TYPE OF LONGITUDINAL CONSTRUCTION
  7
Style-Arial
 11
60.74925
 21
-10.879656
 31
0.0
100
AcDbText
 73
     2
  0
TEXT
  5
326
330
38E
100
AcDbEntity
  8
DEFPOINTS
  6
Continuous
 62
     7
370
    30
100
AcDbText
 10
60.74625
 20
-11.079375
 30
0.0
 40
0.09
  1
JOINTS FOR VARIOUS CONDITIONS.
  7
Style-Arial
 11
60.74625
 21
-11.034375
 31
0.0
100
AcDbText
 73
     2
  0
TEXT
  5
5E
330
38E
100
AcDbEntity
  8
REF
  6
Continuous
 62
     7
370
    30
100
AcDbText
 10
60.685333
 20
-11.375135
 30
0.0
 40
0.09
  1
REFERENCE: TM 5-825-3/AFM 88-6, CHAPTER 3,
  7
Style-Arial
 11
60.685333
 21
-11.330135
 31
0.0
100
AcDbText
 73
     2
  0
TEXT
  5
5D
330
38E
100
AcDbEntity
  8
REF
  6
Continuous
 62
     7
370
    30
100
AcDbText
 10
61.181929
 20
-11.518344
 30
0.0
 40
0.09
  1
          RIGID PAVEMENTS FOR AIRFIELDS
  7
Style-Arial
 11
61.181929
 21
-11.473344
 31
0.0
100
AcDbText
 73
     2
  0
TEXT
  5
27C
330
38E
100
AcDbEntity
  8
TITLE
  6
Continuous
 62
     7
370
    30
100
AcDbText
 10
61.992593
 20
-11.881906
 30
0.0
 40
0.09
  1
TYP JOINTING - PLAIN CONC PAV'T
  7
Style-Arial
 11
61.992593
 21
-11.836906
 31
0.0
100
AcDbText
 73
     2
  0
TEXT
  5
27E
330
38E
100
AcDbEntity
  8
BORDER
  6
Continuous
 62
     7
370
    30
100
AcDbText
 10
66.036649
 20
-11.791177
 30
0.0
 40
0.09
  1
DATE
  7
Style-Arial
 11
66.036649
 21
-11.746177
 31
0.0
100
AcDbText
 73
     2
  0
TEXT
  5
27D
330
38E
100
AcDbEntity
  8
BORDER
  6
Continuous
 62
     7
370
    30
100
AcDbText
 10
65.918511
 20
-11.96524
 30
0.0
 40
0.09
  1
AUG 1992
  7
Style-Arial
 11
65.918511
 21
-11.92024
 31
0.0
100
AcDbText
 73
     2
  0
TEXT
  5
280
330
38E
100
AcDbEntity
  8
BORDER
  6
Continuous
 62
     7
370
    30
100
AcDbText
 10
67.101763
 20
-11.798573
 30
0.0
 40
0.09
  1
FIGURE
  7
Style-Arial
 11
67.101763
 21
-11.753573
 31
0.0
100
AcDbText
 73
     2
  0
TEXT
  5
27F
330
38E
100
AcDbEntity
  8
BORDER
  6
Continuous
 62
     7
370
    30
100
AcDbText
 10
67.209789
 20
-11.966234
 30
0.0
 40
0.09
  1
2-4a
  7
Style-Arial
 11
67.209789
 21
-11.921234
 31
0.0
100
AcDbText
 73
     2
  0
LWPOLYLINE
  5
377
330
38E
100
AcDbEntity
  8
TEXT
  6
Continuous
 62
     7
370
    53
100
AcDbPolyline
 90
        3
 70
   129
 43
0.0
 10
66.322052
 20
-3.596427
 10
66.47499
 20
-3.729562
 10
66.423542
 20
-3.771958
  0
SOLID
  5
378
330
38E
100
AcDbEntity
  8
TEXT
  6
Continuous
 62
     7
370
    53
100
AcDbTrace
 10
-66.322052
 20
-3.596427
 30
0.0
 11
-66.47499
 21
-3.729562
 31
0.0
 12
-66.423542
 22
-3.771958
 32
0.0
 13
-66.423542
 23
-3.771958
 33
0.0
210
0.0
220
0.0
230
-1.0
  0
SOLID
  5
37A
330
38E
100
AcDbEntity
  8
TEXT
  6
Continuous
 62
     7
370
    53
100
AcDbTrace
 10
66.809302
 20
-4.185385
 30
0.0
 11
66.655698
 21
-4.053031
 31
0.0
 12
66.706917
 22
-4.010365
 32
0.0
 13
66.706917
 23
-4.010365
 33
0.0
  0
ENDSEC
  0
SECTION
  2
OBJECTS
  0
DICTIONARY
  5
382
330
0
100
AcDbDictionary
281
     1
  3
ACAD_COLOR
350
3A1
  3
ACAD_GROUP
350
39E
  3
ACAD_LAYOUT
350
392
  3
ACAD_MATERIAL
350
3A0
  3
ACAD_MLINESTYLE
350
38C
  3
ACAD_PLOTSETTINGS
350
39F
  3
ACAD_PLOTSTYLENAME
350
381
  3
ACAD_TABLESTYLE
350
3BC
  3
AcadDim
350
3AE
  3
MicroStation
350
3A6
  0
DICTIONARY
  5
37E
330
37D
100
AcDbDictionary
280
     1
281
     1
  3
ACAD_LAYERFILTERS
360
3A5
  3
ACAD_LAYERSTATES
360
37F
  0
DICTIONARY
  5
3B8
330
38E
100
AcDbDictionary
280
     1
281
     1
  3
ACAD_SORTENTS
360
3B9
  0
DICTIONARY
  5
3A1
102
{ACAD_REACTORS
330
382
102
}
330
382
100
AcDbDictionary
281
     1
  0
DICTIONARY
  5
39E
102
{ACAD_REACTORS
330
382
102
}
330
382
100
AcDbDictionary
281
     1
  0
DICTIONARY
  5
392
102
{ACAD_REACTORS
330
382
102
}
330
382
100
AcDbDictionary
281
     1
  3
Layout1
350
396
  3
Model
350
391
  0
DICTIONARY
  5
3A0
102
{ACAD_REACTORS
330
382
102
}
330
382
100
AcDbDictionary
281
     1
  0
DICTIONARY
  5
38C
102
{ACAD_REACTORS
330
382
102
}
330
382
100
AcDbDictionary
281
     1
  3
Standard
350
38B
  0
DICTIONARY
  5
39F
102
{ACAD_REACTORS
330
382
102
}
330
382
100
AcDbDictionary
281
     1
  0
ACDBDICTIONARYWDFLT
  5
381
102
{ACAD_REACTORS
330
382
102
}
330
382
100
AcDbDictionary
281
     1
  3
Normal
350
380
100
AcDbDictionaryWithDefault
340
380
  0
DICTIONARY
  5
3BC
102
{ACAD_REACTORS
330
382
102
}
330
382
100
AcDbDictionary
281
     1
  0
XRECORD
  5
3AE
102
{ACAD_REACTORS
330
382
102
}
330
382
100
AcDbXrecord
280
     1
 90
   990106
  3
 
 60
     0
 61
     0
 62
     1
 63
     1
 64
     0
 65
     0
 66
     0
 67
     3
 68
     1
 69
     1
 70
     0
 71
     0
 72
     0
 40
0.0
170
     0
  0
DICTIONARY
  5
3A6
102
{ACAD_REACTORS
330
382
102
}
330
382
100
AcDbDictionary
281
     1
  3
ApplicationElement 885
350
375
  3
ApplicationElement 886
350
376
  3
ModelApplicationElement 0 884
350
374
  0
DICTIONARY
  5
3A5
102
{ACAD_REACTORS
330
37E
102
}
330
37E
100
AcDbDictionary
281
     1
  0
DICTIONARY
  5
37F
102
{ACAD_REACTORS
330
37E
102
}
330
37E
100
AcDbDictionary
281
     1
  0
SORTENTSTABLE
  5
3B9
102
{ACAD_REACTORS
330
3B8
102
}
330
3B8
100
AcDbSortentsTable
330
38E
331
5D
  5
30E
331
5E
  5
30D
331
5F
  5
5D
331
60
  5
5E
331
61
  5
5F
331
62
  5
60
331
63
  5
61
331
64
  5
62
331
65
  5
63
331
66
  5
64
331
67
  5
65
331
68
  5
66
331
69
  5
67
331
6A
  5
68
331
6B
  5
69
331
6C
  5
6A
331
6D
  5
6B
331
6E
  5
6C
331
6F
  5
6D
331
70
  5
6E
331
71
  5
6F
331
72
  5
70
331
73
  5
71
331
74
  5
72
331
75
  5
73
331
76
  5
74
331
77
  5
75
331
78
  5
76
331
79
  5
77
331
7A
  5
78
331
7B
  5
79
331
7C
  5
7A
331
7D
  5
7B
331
7E
  5
7C
331
7F
  5
7D
331
80
  5
7E
331
81
  5
7F
331
82
  5
80
331
83
  5
81
331
84
  5
82
331
85
  5
83
331
86
  5
84
331
87
  5
85
331
88
  5
86
331
89
  5
87
331
8A
  5
88
331
8B
  5
89
331
8C
  5
8A
331
8D
  5
8B
331
8E
  5
8C
331
8F
  5
8D
331
90
  5
8E
331
91
  5
8F
331
92
  5
90
331
93
  5
91
331
94
  5
92
331
95
  5
93
331
96
  5
94
331
97
  5
95
331
98
  5
96
331
99
  5
97
331
9A
  5
98
331
9B
  5
99
331
9C
  5
9A
331
9D
  5
9B
331
9E
  5
9C
331
9F
  5
9D
331
A0
  5
9E
331
A1
  5
9F
331
A2
  5
A0
331
A3
  5
A1
331
A4
  5
A2
331
A5
  5
A3
331
A6
  5
A4
331
A7
  5
A5
331
A8
  5
A6
331
A9
  5
A7
331
AA
  5
A8
331
AB
  5
A9
331
AC
  5
AA
331
AD
  5
AB
331
AE
  5
AC
331
AF
  5
AD
331
B0
  5
AE
331
B1
  5
AF
331
B2
  5
B0
331
B3
  5
B1
331
B4
  5
B2
331
B5
  5
B3
331
B6
  5
B4
331
B7
  5
B5
331
B8
  5
B6
331
B9
  5
B7
331
BA
  5
B8
331
BB
  5
B9
331
BC
  5
BA
331
BD
  5
BB
331
BE
  5
BC
331
BF
  5
BD
331
C0
  5
BE
331
C1
  5
BF
331
C2
  5
C0
331
C3
  5
C1
331
C4
  5
C2
331
C5
  5
C3
331
C6
  5
C4
331
C7
  5
C5
331
C8
  5
C6
331
C9
  5
C7
331
CA
  5
C8
331
CB
  5
C9
331
CC
  5
CA
331
CD
  5
CB
331
CE
  5
CC
331
CF
  5
CD
331
D0
  5
CE
331
D1
  5
CF
331
D2
  5
D0
331
D3
  5
D1
331
D4
  5
D2
331
D5
  5
D3
331
D6
  5
D4
331
D7
  5
D5
331
D8
  5
D6
331
D9
  5
D7
331
DA
  5
D8
331
DB
  5
D9
331
DC
  5
DA
331
DD
  5
DB
331
DE
  5
DC
331
DF
  5
DD
331
E0
  5
DE
331
E1
  5
DF
331
E2
  5
E0
331
E3
  5
E1
331
E4
  5
E2
331
E5
  5
E3
331
E6
  5
306
331
E7
  5
2F2
331
E8
  5
2F1
331
E9
  5
2EF
331
EA
  5
305
331
EB
  5
304
331
EC
  5
303
331
ED
  5
301
331
EE
  5
2F6
331
EF
  5
2F5
331
F0
  5
2F3
331
F1
  5
E4
331
F2
  5
E5
331
F3
  5
E6
331
F4
  5
E7
331
F5
  5
E8
331
F6
  5
E9
331
F7
  5
EA
331
F8
  5
EB
331
F9
  5
EC
331
FA
  5
ED
331
FB
  5
EE
331
FC
  5
EF
331
FD
  5
F0
331
FE
  5
F1
331
FF
  5
F2
331
100
  5
F3
331
101
  5
F4
331
102
  5
F5
331
103
  5
F6
331
104
  5
F7
331
105
  5
F8
331
106
  5
F9
331
107
  5
FA
331
108
  5
FB
331
109
  5
FC
331
10A
  5
FD
331
10B
  5
FE
331
10C
  5
FF
331
10D
  5
100
331
10E
  5
101
331
10F
  5
102
331
110
  5
103
331
111
  5
104
331
112
  5
105
331
113
  5
106
331
114
  5
107
331
115
  5
108
331
116
  5
109
331
117
  5
10A
331
118
  5
10B
331
119
  5
10C
331
11A
  5
10D
331
11B
  5
10E
331
11C
  5
10F
331
11D
  5
110
331
11E
  5
111
331
11F
  5
112
331
120
  5
113
331
121
  5
114
331
122
  5
115
331
123
  5
116
331
124
  5
117
331
125
  5
118
331
126
  5
119
331
127
  5
11A
331
128
  5
11B
331
129
  5
11C
331
12A
  5
11D
331
12B
  5
11E
331
12C
  5
11F
331
12D
  5
120
331
12E
  5
121
331
12F
  5
122
331
130
  5
123
331
131
  5
124
331
132
  5
125
331
133
  5
126
331
134
  5
127
331
135
  5
128
331
136
  5
129
331
137
  5
12A
331
138
  5
12B
331
139
  5
12C
331
13A
  5
12D
331
13B
  5
12E
331
13C
  5
12F
331
13D
  5
130
331
13E
  5
131
331
13F
  5
132
331
140
  5
133
331
141
  5
134
331
142
  5
135
331
143
  5
136
331
144
  5
137
331
145
  5
138
331
146
  5
139
331
147
  5
13A
331
148
  5
13B
331
149
  5
13C
331
14A
  5
13D
331
14B
  5
13E
331
14C
  5
13F
331
14D
  5
140
331
14E
  5
141
331
14F
  5
142
331
150
  5
143
331
151
  5
144
331
152
  5
145
331
153
  5
146
331
154
  5
147
331
155
  5
148
331
156
  5
149
331
157
  5
14A
331
158
  5
14B
331
159
  5
14C
331
15A
  5
14D
331
15B
  5
14E
331
15C
  5
14F
331
15D
  5
150
331
15E
  5
151
331
15F
  5
152
331
160
  5
153
331
161
  5
154
331
162
  5
155
331
163
  5
156
331
164
  5
157
331
165
  5
158
331
166
  5
159
331
167
  5
15A
331
168
  5
15B
331
169
  5
15C
331
16A
  5
15D
331
16B
  5
15E
331
16C
  5
15F
331
16D
  5
160
331
16E
  5
161
331
16F
  5
162
331
170
  5
163
331
171
  5
164
331
172
  5
165
331
173
  5
166
331
174
  5
167
331
175
  5
168
331
176
  5
169
331
177
  5
16A
331
178
  5
16B
331
179
  5
16C
331
17A
  5
16D
331
17B
  5
16E
331
17C
  5
2CD
331
17D
  5
16F
331
17E
  5
2C1
331
17F
  5
2C2
331
180
  5
170
331
181
  5
171
331
182
  5
172
331
183
  5
173
331
184
  5
174
331
185
  5
2B8
331
186
  5
175
331
187
  5
176
331
188
  5
177
331
189
  5
178
331
18A
  5
179
331
18B
  5
17A
331
18C
  5
17B
331
18D
  5
17C
331
18E
  5
17D
331
18F
  5
17E
331
190
  5
17F
331
191
  5
180
331
192
  5
181
331
193
  5
182
331
194
  5
183
331
195
  5
184
331
196
  5
185
331
197
  5
186
331
198
  5
187
331
199
  5
188
331
19A
  5
189
331
19B
  5
18A
331
19C
  5
18B
331
19D
  5
18C
331
19E
  5
18D
331
19F
  5
18E
331
1A0
  5
18F
331
1A1
  5
190
331
1A2
  5
191
331
1A3
  5
192
331
1A4
  5
193
331
1A5
  5
194
331
1A6
  5
195
331
1A7
  5
196
331
1A8
  5
197
331
1A9
  5
198
331
1AA
  5
199
331
1AB
  5
19A
331
1AC
  5
19B
331
1AD
  5
19C
331
1AE
  5
19D
331
1AF
  5
19E
331
1B0
  5
19F
331
1B1
  5
1A0
331
1B2
  5
1A1
331
1B3
  5
1A2
331
1B4
  5
1A3
331
1B5
  5
1A4
331
1B6
  5
1A5
331
1B7
  5
1A6
331
1B8
  5
1A7
331
1B9
  5
1A8
331
1BA
  5
1A9
331
1BB
  5
1AA
331
1BC
  5
1AB
331
1BD
  5
1AC
331
1BE
  5
1AD
331
1BF
  5
1AE
331
1C0
  5
1AF
331
1C1
  5
1B0
331
1C2
  5
1B1
331
1C3
  5
1B2
331
1C4
  5
1B3
331
1C5
  5
1B4
331
1C6
  5
1B5
331
1C7
  5
1B6
331
1C8
  5
1B7
331
1C9
  5
1B8
331
1CA
  5
1B9
331
1CB
  5
1BA
331
1CC
  5
1BB
331
1CD
  5
1BC
331
1CE
  5
1BD
331
1CF
  5
1BE
331
1D0
  5
1BF
331
1D1
  5
1C0
331
1D2
  5
1C1
331
1D3
  5
1C2
331
1D4
  5
1C3
331
1D5
  5
1C4
331
1D6
  5
1C5
331
1D7
  5
1C6
331
1D8
  5
1C7
331
1D9
  5
1C8
331
1DA
  5
1C9
331
1DB
  5
1CA
331
1DC
  5
1CB
331
1DD
  5
1CC
331
1DE
  5
1CD
331
1DF
  5
1CE
331
1E0
  5
1CF
331
1E1
  5
1D0
331
1E2
  5
1D1
331
1E3
  5
1D2
331
1E4
  5
1D3
331
1E5
  5
1D4
331
1E6
  5
1D5
331
1E7
  5
1D6
331
1E8
  5
1D7
331
1E9
  5
1D8
331
1EA
  5
1D9
331
1EB
  5
1DA
331
1EC
  5
1DB
331
1ED
  5
1DC
331
1EE
  5
1DD
331
1EF
  5
1DE
331
1F0
  5
1DF
331
1F1
  5
1E0
331
1F2
  5
1E1
331
1F3
  5
1E2
331
1F4
  5
1E3
331
1F5
  5
1E4
331
1F6
  5
1E5
331
1F7
  5
1E6
331
1F8
  5
1E7
331
1F9
  5
1E8
331
1FA
  5
1E9
331
1FB
  5
1EA
331
1FC
  5
1EB
331
1FD
  5
1EC
331
1FE
  5
1ED
331
1FF
  5
1EE
331
200
  5
1EF
331
201
  5
1F0
331
202
  5
1F1
331
203
  5
1F2
331
204
  5
1F3
331
205
  5
1F4
331
206
  5
1F5
331
207
  5
1F6
331
208
  5
1F7
331
209
  5
1F8
331
20A
  5
1F9
331
20B
  5
1FA
331
20C
  5
1FB
331
20D
  5
1FC
331
20E
  5
1FD
331
20F
  5
1FE
331
210
  5
1FF
331
211
  5
200
331
212
  5
201
331
213
  5
202
331
214
  5
203
331
215
  5
204
331
216
  5
205
331
217
  5
206
331
218
  5
207
331
219
  5
208
331
21A
  5
209
331
21B
  5
20A
331
21C
  5
20B
331
21D
  5
20C
331
21E
  5
20D
331
21F
  5
20E
331
220
  5
20F
331
221
  5
210
331
222
  5
211
331
223
  5
212
331
224
  5
213
331
225
  5
214
331
226
  5
215
331
227
  5
216
331
228
  5
217
331
229
  5
218
331
22A
  5
219
331
22B
  5
21A
331
22C
  5
21B
331
22D
  5
21C
331
22E
  5
21D
331
22F
  5
21E
331
230
  5
21F
331
231
  5
220
331
232
  5
221
331
233
  5
222
331
234
  5
223
331
235
  5
224
331
236
  5
225
331
237
  5
226
331
238
  5
227
331
239
  5
228
331
23A
  5
229
331
23B
  5
22A
331
23C
  5
22B
331
23D
  5
22C
331
23E
  5
22D
331
23F
  5
22E
331
240
  5
22F
331
241
  5
230
331
242
  5
231
331
243
  5
232
331
244
  5
233
331
245
  5
234
331
246
  5
235
331
247
  5
236
331
248
  5
237
331
249
  5
238
331
24A
  5
239
331
24B
  5
23A
331
24C
  5
23B
331
24D
  5
23C
331
24E
  5
23D
331
24F
  5
23E
331
250
  5
23F
331
251
  5
240
331
252
  5
241
331
253
  5
242
331
254
  5
243
331
255
  5
244
331
256
  5
245
331
257
  5
246
331
258
  5
247
331
259
  5
248
331
25A
  5
249
331
25B
  5
24A
331
25C
  5
24B
331
25D
  5
24C
331
25E
  5
24D
331
25F
  5
24E
331
260
  5
24F
331
261
  5
250
331
262
  5
251
331
263
  5
252
331
264
  5
253
331
265
  5
254
331
266
  5
255
331
267
  5
256
331
268
  5
257
331
269
  5
258
331
26A
  5
259
331
26B
  5
25A
331
26C
  5
25B
331
26D
  5
25C
331
26E
  5
25D
331
26F
  5
25E
331
270
  5
25F
331
271
  5
260
331
272
  5
261
331
273
  5
262
331
274
  5
263
331
275
  5
264
331
276
  5
265
331
277
  5
266
331
278
  5
267
331
279
  5
268
331
27A
  5
269
331
27B
  5
26A
331
27C
  5
30F
331
27D
  5
325
331
27E
  5
31A
331
27F
  5
327
331
280
  5
326
331
281
  5
26B
331
282
  5
26C
331
283
  5
26D
331
284
  5
26E
331
285
  5
26F
331
286
  5
270
331
287
  5
271
331
288
  5
2F0
331
289
  5
272
331
28A
  5
273
331
28B
  5
274
331
28C
  5
275
331
28D
  5
276
331
28E
  5
277
331
28F
  5
278
331
290
  5
279
331
291
  5
27A
331
292
  5
27B
331
293
  5
2F4
331
294
  5
27C
331
295
  5
2D3
331
296
  5
2D2
331
297
  5
2D4
331
298
  5
2D5
331
299
  5
27D
331
29A
  5
2D9
331
29B
  5
2DB
331
29C
  5
2DC
331
29D
  5
27E
331
29E
  5
2D7
331
29F
  5
2E6
331
2A0
  5
27F
331
2A1
  5
280
331
2A2
  5
281
331
2A3
  5
282
331
2A4
  5
283
331
2A5
  5
284
331
2A6
  5
285
331
2A7
  5
286
331
2A8
  5
287
331
2A9
  5
288
331
2AA
  5
289
331
2AB
  5
28A
331
2AC
  5
28B
331
2AD
  5
302
331
2AE
  5
28C
331
2AF
  5
28D
331
2B0
  5
28E
331
2B1
  5
28F
331
2B2
  5
2DF
331
2B3
  5
2DD
331
2B4
  5
2E1
331
2B5
  5
2E3
331
2B6
  5
2E5
331
2B7
  5
290
331
2B8
  5
291
331
2B9
  5
2D0
331
2BA
  5
2CF
331
2BB
  5
2CE
331
2BC
  5
2CC
331
2BD
  5
2CB
331
2BE
  5
292
331
2BF
  5
293
331
2C0
  5
294
331
2C1
  5
2BF
331
2C2
  5
295
331
2C3
  5
296
331
2C4
  5
297
331
2C5
  5
298
331
2C6
  5
299
331
2C8
  5
29A
331
2CA
  5
2C0
331
2CB
  5
29B
331
2CC
  5
29C
331
2CD
  5
29D
331
2CE
  5
29E
331
2CF
  5
29F
331
2D0
  5
2A0
331
2D1
  5
2A1
331
2D2
  5
2A2
331
2D3
  5
2D1
331
2D4
  5
2A3
331
2D5
  5
2A4
331
2D7
  5
2A5
331
2D9
  5
2A6
331
2DB
  5
2EE
331
2DC
  5
2A7
331
2DD
  5
2A8
331
2DF
  5
2A9
331
2E1
  5
2AA
331
2E3
  5
2AB
331
2E5
  5
309
331
2E6
  5
2AC
331
2E7
  5
2AD
331
2E9
  5
2AE
331
2EB
  5
2AF
331
2ED
  5
2B9
331
2EE
  5
2BA
331
2EF
  5
2BB
331
2F0
  5
2C8
331
2F1
  5
2CA
331
2F2
  5
2E7
331
2F3
  5
2E9
331
2F4
  5
2EB
331
2F5
  5
2ED
331
2F6
  5
2B0
331
301
  5
307
331
302
  5
308
331
303
  5
2C3
331
304
  5
2B1
331
305
  5
2C4
331
306
  5
2C5
331
307
  5
2C6
331
308
  5
2B2
331
309
  5
2B3
331
30A
  5
2BC
331
30B
  5
2BD
331
30C
  5
2BE
331
30D
  5
2B4
331
30E
  5
2B5
331
30F
  5
2B6
331
31A
  5
2B7
331
325
  5
30B
331
326
  5
30C
331
327
  5
30A
  0
LAYOUT
  5
396
102
{ACAD_REACTORS
330
392
330
392
102
}
102
{ACAD_XDICTIONARY
360
397
102
}
330
392
100
AcDbPlotSettings
  1

  2
none_device
  4
Letter_(8.50_x_11.00_Inches)
  6

 40
6.35
 41
6.35
 42
6.350006
 43
6.350006
 44
215.899994
 45
279.399994
 46
0.0
 47
0.0
 48
0.0
 49
0.0
140
0.0
141
0.0
142
1.0
143
1.0
 70
   688
 72
     0
 73
     1
 74
     5
  7

 75
    16
 76
     0
 77
     2
 78
   300
147
1.0
148
0.0
149
0.0
100
AcDbLayout
  1
Layout1
 70
     1
 71
     1
 10
-0.25
 20
-0.25
 11
10.75
 21
8.25
 12
0.0
 22
0.0
 32
0.0
 14
1.049744
 24
0.799667
 34
-0.001526
 15
9.450623
 25
7.200577
 35
0.0
146
0.0
 13
0.0
 23
0.0
 33
0.0
 16
1.0
 26
0.0
 36
0.0
 17
0.0
 27
1.0
 37
0.0
 76
     0
330
393
1001
ACAD_PSEXT
1000
None
1000
None
1000
Not applicable
1000
The layout will not be plotted unless a new plotter configuration name is selected.
1070
     0
  0
LAYOUT
  5
391
102
{ACAD_REACTORS
330
392
330
392
102
}
330
392
100
AcDbPlotSettings
  1

  2
none_device
  4
ANSI_A_(8.50_x_11.00_Inches)
  6

 40
6.35
 41
19.049999
 42
6.350006
 43
19.049988
 44
215.899994
 45
279.399994
 46
0.0
 47
0.0
 48
0.0
 49
0.0
140
0.0
141
0.0
142
1.0
143
2.584895
 70
 11952
 72
     0
 73
     1
 74
     0
  7

 75
     0
 76
     0
 77
     2
 78
   300
147
0.386863
148
0.0
149
0.0
100
AcDbLayout
  1
Model
 70
     1
 71
     0
 10
0.0
 20
0.0
 11
12.0
 21
9.0
 12
0.0
 22
0.0
 32
0.0
 14
0.0
 24
0.0
 34
0.0
 15
0.0
 25
0.0
 35
0.0
146
0.0
 13
0.0
 23
0.0
 33
0.0
 16
1.0
 26
0.0
 36
0.0
 17
0.0
 27
1.0
 37
0.0
 76
     0
330
38E
331
49
  0
MLINESTYLE
  5
38B
102
{ACAD_REACTORS
330
38C
102
}
330
38C
100
AcDbMlineStyle
  2
STANDARD
 70
     0
  3

 62
   256
 51
90.0
 52
90.0
 71
     2
 49
0.5
 62
   256
  6
BYLAYER
 49
-0.5
 62
   256
  6
BYLAYER
  0
ACDBPLACEHOLDER
  5
380
102
{ACAD_REACTORS
330
381
102
}
330
381
  0
XRECORD
  5
375
102
{ACAD_REACTORS
330
3A6
102
}
330
3A6
100
AcDbXrecord
280
     1
310
3E4F020000004D6F64656C6572000000000000000000000000000000000000000000000000000000000000000000000000000000000000000000000000000000000000000000000000000000000000000000000000000000000000000000000000000000000000000000000000000000000000000000000000000000000000
310
00000000000000000000000000000000000000000000000000000000000000000000000000000000000000000000000000000000000000000000000000000000000000000000000000000000000000000000000000000000000000000000000000000000000000000000000000000000000000000000000000000000000000
310
00
310
00000000000000000000000000000000000000000000000000000000000000000000000000000000000000000000000000000000000000000000000000000000000000000000000000000000000000000000000000000000000000000000000000000000000000000000000000000000000000000000000000000000000000
310
00000000000000000000000000000000000000000000000000000000000000000000000000000000000000000000000000000000000000000000000000000000000000000000000000000000000000000000000000000000000000000000000000000000000000000000000000000000000000000000000000000000000000
310
00
310
00000000000000000000000000000000000000000000000000000000000000000000000000000000000000000000000000000000000000000000000000000000000000000000000000000000000000000000000000000000000000000000000000000000000000000000000000000000000000000000000000000000000000
310
00000000000000000000000000000000000000000000000000000000000000000000000000000000000000000000000000000000000000000000000000000000000000000000000000000000000000000000000000000000000000000000000000000000000000000000000000000000000000000000000000000000000000
310
00
310
00000000000000000000000000000000000000000000000000000000000000000000000000000000000000000000000000000000000000000000000000000000000000000000000000000000000000000000000000000000000000000000000000000000000000000000000000000000000000000000000000000000000000
310
00000000000000000000000000000000000000000000000000000000000000000000000000000000000000000000000000000000000000000000000000000000000000000000000000000000000000000000000000000000000000000000000000000000000000000000000000000000000000000000000000000000000000
310
00
310
00000000000000000000000000000000000000000000000000000000000000000000000000000000000000000000000000000000000000000000000000000000000000000000000000000000000000000000000000000000000000000000000000000000000000000000000000000000000000000000000000000000000000
310
00000000000000000000000000000000000000000000000000000000000000000000000000000000000000000000000000000000000000000000000000000000000000000000000000000000000000000000000000000000000000000000000000000000000000000000000000000000000000000000000000000000000000
310
00
310
00000000000000000000000000000000000000000000000000000000000000000000000000000000000000000000000000000000000000000000000000000000000000000000000000000000000000000000000000000000000000000000000000000000000000000000000000000000000000000000000000000000000000
310
00000000000000000000000000000000000000000000000000000000000000000000000000000000000000000000000000000000000000000000000000000000000000000000000000000000000000000000000000000000000000000000000000000000000000000000000000000000000000000000000000000000000000
310
00
310
00000000000000000000000000000000000000000000000000000000000000000000000000000000000000000000000000000000000000000000000000000000000000000000000000000000000000000000000000000000000000000000000000000000000000000000000000000000000000000000000000000000000000
310
00000000000000000000000000000000000000000000000000000000000000000000000000000000000000000000000000000000000000000000000000000000000000000000000000000000000000000000000000000000000000000000000000000000000000000000000000000000000000000000000000000000000000
310
00
310
00000000000000000000000000000000000000000000000000000000000000000000000000000000000000000000000000000000000000000000000000000000000000000000000000000000000000000000000000000000000000000000000000000000000000000000000000000000000000000000000000000000000000
310
00000000000000000000000000000000000000000000000000000000000000000000000000000000000000000000000000000000000000000000000000000000000000000000000000000000000000000000000000000000000000000000000000000000000000000000000000000000000000000000000000000000000000
310
00
310
00000000000000000000000000000000000000000000000000000000000000000000000000000000000000000000000000000000000000000000000000000000000000000000000000000000000000000000000000000000000000000000000000000000000000000000000000000000000000000000000000000000000000
310
00000000000000000000000000000000000000000000000000000000000000000000000000000000000000000000000000000000000000000000000000000000000000000000000000000000000000000000000000000000000000000000000000000000000000000000000000000000000000000000000000000000000000
310
00
310
00000000000000000000000000000000000000000000000000000000000000000000000000000000000000000000000000000000000000000000000000000000000000000000000000000000000000000000000000000000000000000000000000000000000000000000000000000000000000000000000000000000000000
310
00000000000000000000000000000000000000000000000000000000000000000000000000000000000000000000000000000000000000000000000000000000000000000000000000000000000000000000000000000000000000000000000000000000000000000000000000000000000000000000000000000000000000
310
00
310
00000000000000000000000000000000000000000000000000000000000000000000000000000000000000000000000000000000000000000000000000000000000000000000000000000000000000000000000000000000000000000000000000000000000000000000000000000000000000000000000000000000000000
310
00000000000000000000000000000000000000000000000000000000000000000000000000000000000000000000000000000000000000000000000000000000000000000000000000000000000000000000000000000000000000000000000000000000000000000000000000000000000000000000000000000000000000
310
00
310
00000000000000000000000000000000000000000000000000000000000000000000000000000000000000000000000000000000000000000000000000000000000000000000000000000000000000000000000000000000000000000000000000000000000000000000000000000000000000000000000000000000000000
310
00000000000000000000000000000000000000000000000000000000000000000000000000000000000000000000000000000000000000000000000000000000000000000000000000000000000000000000000000000000000000000000000000000000000000000000000000000000000000000000000000000000000000
310
00
310
00000000000000000000000000000000000000000000000000000000000000000000000000000000000000000000000000000000000000000000000000000000000000000000000000000000000000000000000000000000000000000000000000000000000000000000000000000000000000000000000000000000000000
310
00000000000000000000000000000000000000000000000000000000000000000000000000000000000000000000000000000000000000000000000000000000000000000000000000000000000000000000000000000000000000000000000000000000000000000000000000000000000000000000000000000000000000
310
00
310
00000000000000000000000000000000000000000000000000000000000000000000000000000000000000000000000000000000000000000000000000000000000000000000000000000000000000000000000000000000000000000000000000000000000000000000000000000000000000
  0
XRECORD
  5
376
102
{ACAD_REACTORS
330
3A6
102
}
330
3A6
100
AcDbXrecord
280
     1
310
3E4F020000004D6F64656C6572000000000000000000000000000000000000000000000000000000000000000000000000000000000000000000000000000000000000000000000000000000000000000000000000000000000000000000000000000000000000000000000000000000000000000000000000000000000000
310
00000000000000000000000000000000000000000000000000000000000000000000000000000000000000000000000000000000000000000000000000000000000000000000000000000000000000000000000000000000000000000000000000000000000000000000000000000000000000000000000000000000000000
310
00
310
00000000000000000000000000000000000000000000000000000000000000000000000000000000000000000000000000000000000000000000000000000000000000000000000000000000000000000000000000000000000000000000000000000000000000000000000000000000000000000000000000000000000000
310
00000000000000000000000000000000000000000000000000000000000000000000000000000000000000000000000000000000000000000000000000000000000000000000000000000000000000000000000000000000000000000000000000000000000000000000000000000000000000000000000000000000000000
310
00
310
00000000000000000000000000000000000000000000000000000000000000000000000000000000000000000000000000000000000000000000000000000000000000000000000000000000000000000000000000000000000000000000000000000000000000000000000000000000000000000000000000000000000000
310
00000000000000000000000000000000000000000000000000000000000000000000000000000000000000000000000000000000000000000000000000000000000000000000000000000000000000000000000000000000000000000000000000000000000000000000000000000000000000000000000000000000000000
310
00
310
00000000000000000000000000000000000000000000000000000000000000000000000000000000000000000000000000000000000000000000000000000000000000000000000000000000000000000000000000000000000000000000000000000000000000000000000000000000000000000000000000000000000000
310
00000000000000000000000000000000000000000000000000000000000000000000000000000000000000000000000000000000000000000000000000000000000000000000000000000000000000000000000000000000000000000000000000000000000000000000000000000000000000000000000000000000000000
310
00
310
00000000000000000000000000000000000000000000000000000000000000000000000000000000000000000000000000000000000000000000000000000000000000000000000000000000000000000000000000000000000000000000000000000000000000000000000000000000000000000000000000000000000000
310
00000000000000000000000000000000000000000000000000000000000000000000000000000000000000000000000000000000000000000000000000000000000000000000000000000000000000000000000000000000000000000000000000000000000000000000000000000000000000000000000000000000000000
310
00
310
00000000000000000000000000000000000000000000000000000000000000000000000000000000000000000000000000000000000000000000000000000000000000000000000000000000000000000000000000000000000000000000000000000000000000000000000000000000000000000000000000000000000000
310
00000000000000000000000000000000000000000000000000000000000000000000000000000000000000000000000000000000000000000000000000000000000000000000000000000000000000000000000000000000000000000000000000000000000000000000000000000000000000000000000000000000000000
310
00
310
00000000000000000000000000000000000000000000000000000000000000000000000000000000000000000000000000000000000000000000000000000000000000000000000000000000000000000000000000000000000000000000000000000000000000000000000000000000000000000000000000000000000000
310
00000000000000000000000000000000000000000000000000000000000000000000000000000000000000000000000000000000000000000000000000000000000000000000000000000000000000000000000000000000000000000000000000000000000000000000000000000000000000000000000000000000000000
310
00
310
00000000000000000000000000000000000000000000000000000000000000000000000000000000000000000000000000000000000000000000000000000000000000000000000000000000000000000000000000000000000000000000000000000000000000000000000000000000000000000000000000000000000000
310
00000000000000000000000000000000000000000000000000000000000000000000000000000000000000000000000000000000000000000000000000000000000000000000000000000000000000000000000000000000000000000000000000000000000000000000000000000000000000000000000000000000000000
310
00
310
00000000000000000000000000000000000000000000000000000000000000000000000000000000000000000000000000000000000000000000000000000000000000000000000000000000000000000000000000000000000000000000000000000000000000000000000000000000000000000000000000000000000000
310
00000000000000000000000000000000000000000000000000000000000000000000000000000000000000000000000000000000000000000000000000000000000000000000000000000000000000000000000000000000000000000000000000000000000000000000000000000000000000000000000000000000000000
310
00
310
00000000000000000000000000000000000000000000000000000000000000000000000000000000000000000000000000000000000000000000000000000000000000000000000000000000000000000000000000000000000000000000000000000000000000000000000000000000000000000000000000000000000000
310
00000000000000000000000000000000000000000000000000000000000000000000000000000000000000000000000000000000000000000000000000000000000000000000000000000000000000000000000000000000000000000000000000000000000000000000000000000000000000000000000000000000000000
310
00
310
00000000000000000000000000000000000000000000000000000000000000000000000000000000000000000000000000000000000000000000000000000000000000000000000000000000000000000000000000000000000000000000000000000000000000000000000000000000000000000000000000000000000000
310
00000000000000000000000000000000000000000000000000000000000000000000000000000000000000000000000000000000000000000000000000000000000000000000000000000000000000000000000000000000000000000000000000000000000000000000000000000000000000000000000000000000000000
310
00
310
00000000000000000000000000000000000000000000000000000000000000000000000000000000000000000000000000000000000000000000000000000000000000000000000000000000000000000000000000000000000000000000000000000000000000000000000000000000000000000000000000000000000000
310
00000000000000000000000000000000000000000000000000000000000000000000000000000000000000000000000000000000000000000000000000000000000000000000000000000000000000000000000000000000000000000000000000000000000000000000000000000000000000000000000000000000000000
310
00
310
00000000000000000000000000000000000000000000000000000000000000000000000000000000000000000000000000000000000000000000000000000000000000000000000000000000000000000000000000000000000000000000000000000000000000000000000000000000000000000000000000000000000000
310
00000000000000000000000000000000000000000000000000000000000000000000000000000000000000000000000000000000000000000000000000000000000000000000000000000000000000000000000000000000000000000000000000000000000000000000000000000000000000000000000000000000000000
310
00
310
00000000000000000000000000000000000000000000000000000000000000000000000000000000000000000000000000000000000000000000000000000000000000000000000000000000000000000000000000000000000000000000000000000000000000000000000000000000000000
  0
XRECORD
  5
374
102
{ACAD_REACTORS
330
3A6
102
}
330
3A6
100
AcDbXrecord
280
     1
310
DF56060034040701D0009A9999999999B93F000000000000000000000000000000000400000009000000000000000200000064000000640000000100000001000000190000007B14AE47E17A843F00000000004060409A9999999999B93F00000000004C2D41000000000070F7400000000000942141000000000000000000
310
0000000000000000000000000000000AD482040000000000000000000000000000F03F000000000000000000000000000030402D431CEBE2362A3F00000000000008400000000000000000009807C000000000000000007C1A61B9A711364020000000050000000A000000200000002000000020000000000000000000F03F
310
00
310
0000000000F03F000000000000F03F333333333333D33F333333333333D33F333333333333D33F000000000000F43F000000000000F43F000000000000F03F0200000064000000000000000000000000000840000000000000F83F00000000000000000000000000000000008056409A9999999999B93F0000000000000000
310
00000000000000000000000000000000000000000000000000000000000000000000000000000000000000000000000000000000000000000000000000000000000000000000000000000000000000000000000000000000000000000000000000000000000000000000000000000000000000000000000000000000000000
310
00
310
0000000000000000000000000000000000000000000000000000000000000000000000000000000000000000000000000000000000000000000000000000000000000000000000000000000000000000000000000000000000000000000000000000000000000000000000000000000000000000000000009A9999999999A9
310
3F9100000000000000000000000000000035A781D547960F40000000000000F03F000000000000F03F666666666666164000000000104068F200000000000000000000000000000000000000000000000000000000000000000000000000000000000000000000000000000000000000000000000000000000000000000000
310
00
310
00000000000000000000000000000000000000000000000000000000000000000000000000000000000000000000000000000000000000000000000000000000000000000000000000000000000000000000000000000000000000000000000000000000000000000000000000000000000000000000000000000000000000
310
000000000000000000000000000000000000000000000000000000000000000000000000000000000000000000000000000000000000000000000000FF000000000000000000000000000000000000000000000000000000000000000000000000000000000000000000000000000000000000000000000000000000000000
310
00
310
0000000000000000000000000000000000000000000000000000000000000000000000000000000000000000000000000000000000000000000000000000000000000000
  0
DICTIONARY
  5
397
330
396
100
AcDbDictionary
280
     1
281
     1
  3
ADSK_XREC_LAYOUTTHUMBNAIL
360
398
  0
XRECORD
  5
398
102
{ACAD_REACTORS
330
397
102
}
330
397
100
AcDbXrecord
280
     1
310
28000000B40000008B0000000100080000000000BC61000000000000000000000001000000000000FFFFFF0000000000FFFFFF000000000000000000000000000000000000000000000000000000000000000000330000006600000099000000CC000000FF00000000330000333300006633000099330000CC330000FF3300
310
0000660000336600006666000099660000CC660000FF66000000990000339900006699000099990000CC990000FF99000000CC000033CC000066CC000099CC0000CCCC0000FFCC000000FF000033FF000066FF000099FF0000CCFF0000FFFF000000003300330033006600330099003300CC003300FF003300003333003333
310
33006633330099333300CC333300FF33330000663300336633006666330099663300CC663300FF66330000993300339933006699330099993300CC993300FF99330000CC330033CC330066CC330099CC3300CCCC3300FFCC330000FF330033FF330066FF330099FF3300CCFF3300FFFF330000006600330066006600660099
310
006600CC006600FF00660000336600333366006633660099336600CC336600FF33660000666600336666006666660099666600CC666600FF66660000996600339966006699660099996600CC996600FF99660000CC660033CC660066CC660099CC6600CCCC6600FFCC660000FF660033FF660066FF660099FF6600CCFF6600
310
FFFF660000009900330099006600990099009900CC009900FF00990000339900333399006633990099339900CC339900FF33990000669900336699006666990099669900CC669900FF66990000999900339999006699990099999900CC999900FF99990000CC990033CC990066CC990099CC9900CCCC9900FFCC990000FF99
310
0033FF990066FF990099FF9900CCFF9900FFFF99000000CC003300CC006600CC009900CC00CC00CC00FF00CC000033CC003333CC006633CC009933CC00CC33CC00FF33CC000066CC003366CC006666CC009966CC00CC66CC00FF66CC000099CC003399CC006699CC009999CC00CC99CC00FF99CC0000CCCC0033CCCC0066CC
310
CC0099CCCC00CCCCCC00FFCCCC0000FFCC0033FFCC0066FFCC0099FFCC00CCFFCC00FFFFCC000000FF003300FF006600FF009900FF00CC00FF00FF00FF000033FF003333FF006633FF009933FF00CC33FF00FF33FF000066FF003366FF006666FF009966FF00CC66FF00FF66FF000099FF003399FF006699FF009999FF00CC
310
99FF00FF99FF0000CCFF0033CCFF0066CCFF0099CCFF00CCCCFF00FFCCFF0000FFFF0033FFFF0066FFFF0099FFFF00CCFFFF00FFFFFF00000000000D0D0D001A1A1A00282828003535350043434300505050005D5D5D006B6B6B00787878008686860093939300A1A1A100AEAEAE00BBBBBB00C9C9C900D6D6D600E4E4E400
310
F1F1F100FFFFFF0000000000000000000000000000000000000000000000000000000000000000000000000000000000E2E2E2E2E2E2E2E2E2E2E2E2E2E2E2E2E2E2E2E2E2E2E2E2E2E2E2E2E2E2E2E2E2E2E2E2E2E2E2E2E2E2E2E2E2E2E2E2E2E2E2E2E2E2E2E2E2E2E2E2E2E2E2E2E2E2E2E2E2E2E2E2E2E2E2E2E2E2E2
310
E2E2E2E2E2E2E2E2E2E2E2E2E2E2E2E2E2E2E2E2E2E2E2E2E2E2E2E2E2E2E2E2E2E2E2E2E2E2E2E2E2E2E2E2E2E2E2E2E2E2E2E2E2E2E2E2E2E2E2E2E2E2E2E2E2E2E2E2E2E2E2E2E2E2E2E2E2E2E2E2E2E2E2E2E2E2E2E2E2E2E2E2E2E2E2E2E2E2E2E2EFF5F5F5F5F5F5F5F5F5F5F5F5F5F5F5F5F5F5F5F5F5F5F5F5F5F5
310
F5F5F5F5F5F5F5F5F5F5F5F5F5F5F5F5F5F5F5F5F5F5F5F5F5F5F5F5F5F5F5F5F5F5F5F5F5F5F5F5F5F5F5F5F5F5F5F5F5F5F5F5F5F5F5F5F5F5F5F5F5F5F5F5F5F5F5F5F5F5F5F5F5F5F5F5F5F5F5F5F5F5F5F5F5F5F5F5F5F5F5F5F5F5F5F5F5F5F5F5F5F5F5F5F5F5F5F5F5F5F5F5F5F5F5F5F5F5F5F5F5F5F5F5F5F5F5
310
F5F5F5F5F5F5F5F5F5F5F5F5F5F5F5F5F5F5F5F5F5F5F5F5E2E2EFF5F5F5F5F5F5F5F5F5F5F5F5F5F5F5F5F5F5F5F5F5F5F5F5F5F5F5F5F5F5F5F5F5F5F5F5F5F5F5F5F5F5F5F5F5F5F5F5F5F5F5F5F5F5F5F5F5F5F5F5F5F5F5F5F5F5F5F5F5F5F5F5F5F5F5F5F5F5F5F5F5F5F5F5F5F5F5F5F5F5F5F5F5F5F5F5F5F5F5F5
310
F5F5F5F5F5F5F5F5F5F5F5F5F5F5F5F5F5F5F5F5F5F5F5F5F5F5F5F5F5F5F5F5F5F5F5F5F5F5F5F5F5F5F5F5F5F5F5F5F5F5F5F5F5F5F5F5F5F5F5F5F5F5F5F5F5F5F5F5F5F5F5F5F5F5F5F5F5E2E2EFF5F5F5F5F5F5F5F5F5F5F5F5F5F5F5F5F5F5F5F5F5F5F5F5F5F5F5F5F5F5F5F5F5F5F5F5F5F5F5F5F5F5F5F5F5F5F5
310
F5F5F5F5F5F5F5F5F5F5F5F5F5F5F5F5F5F5F5F5F5F5F5F5F5F5F5F5F5F5F5F5F5F5F5F5F5F5F5F5F5F5F5F5F5F5F5F5F5F5F5F5F5F5F5F5F5F5F5F5F5F5F5F5F5F5F5F5F5F5F5F5F5F5F5F5F5F5F5F5F5F5F5F5F5F5F5F5F5F5F5F5F5F5F5F5F5F5F5F5F5F5F5F5F5F5F5F5F5F5F5F5F5F5F5F5F5F5F5F5F5F5F5F5F5F5F5
310
F5F5F5E2E2EFF5F5F5E2E2E2E2E2E2E2E2F5F5F5F5F5F5F5F5F5E2E2E2E2E2E2E2E2E2E2E2E2E2E2E2E2F5F5F5F5F5F5F5F5E2E2E2E2E2E2E2E2E2E2E2E2E2E2E2E2F5F5F5F5F5F5F5F5F5E2E2E2E2E2E2E2E2E2E2E2E2E2E2E2F5F5F5F5F5F5F5F5F5E2E2E2E2E2E2E2E2E2E2E2E2E2E2E2F5F5F5F5F5F5F5F5F5E2E2E2E2
310
E2E2E2E2E2E2E2E2E2E2E2E2F5F5F5F5F5F5F5F5E2E2E2E2E2E2E2E2E2E2E2E2E2E2E2E2F5F5F5F5F5F5F5F5F5E2E2E2E2E2E2E2E2F5F5F5E2E2EFF5F5F5E2F5F5F5F5F5F5F5F5F5F5F5F5F5F5F5F5F5F5F5F5F5F5F5F5F5F5F5F5F5F5F5F5F5F5F5F5F5F5F5F5F5F5F5F5F5F5F5F5F5F5F5F5F5F5F5F5F5F5F5F5F5F5F5F5
310
F5F5F5F5F5F5F5F5F5F5F5F5F5F5F5F5F5F5F5F5F5F5F5F5F5F5F5F5F5F5F5F5F5F5F5F5F5F5F5F5F5F5F5F5F5F5F5F5F5F5F5F5F5F5F5F5F5F5F5F5F5F5F5F5F5F5F5F5F5F5F5F5F5F5F5F5F5F5F5F5F5F5F5F5F5F5F5F5F5F5F5F5F5F5F5F5F5F5F5F5F5F5F5F5F5E2F5F5F5E2E2EFF5F5F5E2F5F5F5F5F5F5F5F5F5F5F5
310
F5F5F5F5F5F5F5F5F5F5F5F5F5F5F5F5F5F5F5F5F5F5F5F5F5F5F5F5F5F5F5F5F5F5F5F5F5F5F5F5F5F5F5F5F5F5F5F5F5F5F5F5F5F5F5F5F5F5F5F5F5F5F5F5F5F5F5F5F5F5F5F5F5F5F5F5F5F5F5F5F5F5F5F5F5F5F5F5F5F5F5F5F5F5F5F5F5F5F5F5F5F5F5F5F5F5F5F5F5F5F5F5F5F5F5F5F5F5F5F5F5F5F5F5F5F5F5
310
F5F5F5F5F5F5F5F5F5F5F5F5F5F5F5F5F5F5F5F5F5F5F5F5F5F5F5F5F5F5F5E2F5F5F5E2E2EFF5F5F5E2F5F5F5F5F5F5F5F5F5F5F5F5F5F5F5F5F5F5F5F5F5F5F5F5F5F5F5F5F5F5F5F5F5F5F5F5F5F5F5F5F5F5F5F5F5F5F5F5F5F5F5F5F5F5F5F5F5F5F5F5F5F5F5F5F5F5F5F5F5F5F5F5F5F5F5F5F5F5F5F5F5F5F5F5F5
310
F5F5F5F5F5F5F5F5F5F5F5F5F5F5F5F5F5F5F5F5F5F5F5F5F5F5F5F5F5F5F5F5F5F5F5F5F5F5F5F5F5F5F5F5F5F5F5F5F5F5F5F5F5F5F5F5F5F5F5F5F5F5F5F5F5F5F5F5F5F5F5F5F5F5F5F5F5F5F5F5F5F5F5F5E2F5F5F5E2E2EFF5F5F5E2F5F5F5F5F5F5F5F5F5F5F5F5F5F5F5F5F5F5F5F5F5F5F5F5F5F5F5F5F5F5F5F5
310
F5F5F5F5F5F5F5F5F5F5F5F5F5F5F5F5F5F5F5F5F5F5F5F5F5F5F5F5F5F5F5F5F5F5F5F5F5F5F5F5F5F5F5F5F5F5F5F5F5F5F5F5F5F5F5F5F5F5F5F5F5F5F5F5F5F5F5F5F5F5F5F5F5F5F5F5F5F5F5F5F5F5F5F5F5F5F5F5F5F5F5F5F5F5F5F5F5F5F5F5F5F5F5F5F5F5F5F5F5F5F5F5F5F5F5F5F5F5F5F5F5F5F5F5F5F5F5
310
F5F5F5F5F5F5F5F5F5F5E2F5F5F5E2E2EFF5F5F5E2F5F5F5F5F5F5F5F5F5F5F5F5F5F5F5F5F5F5F5F5F5F5F5F5F5F5F5F5F5F5F5F5F5F5F5F5F5F5F5F5F5F5F5F5F5F5F5F5F5F5F5F5F5F5F5F5F5F5F5F5F5F5F5F5F5F5F5F5F5F5F5F5F5F5F5F5F5F5F5F5F5F5F5F5F5F5F5F5F5F5F5F5F5F5F5F5F5F5F5F5F5F5F5F5F5F5
310
F5F5F5F5F5F5F5F5F5F5F5F5F5F5F5F5F5F5F5F5F5F5F5F5F5F5F5F5F5F5F5F5F5F5F5F5F5F5F5F5F5F5F5F5F5F5F5F5F5F5F5F5F5F5F5F5F5F5F5F5F5F5F5E2F5F5F5E2E2EFF5F5F5E2F5F5F5F5F5F5F5F5F5F5F5F5F5F5F5F5F5F5F5F5F5F5F5F5F5F5F5F5F5F5F5F5F5F5F5F5F5F5F5F5F5F5F5F5F5F5F5F5F5F5F5F5F5
310
F5F5F5F5F5F5F5F5F5F5F5F5F5F5F5F5F5F5F5F5F5F5F5F5F5F5F5F5F5F5F5F5F5F5F5F5F5F5F5F5F5F5F5F5F5F5F5F5F5F5F5F5F5F5F5F5F5F5F5F5F5F5F5F5F5F5F5F5F5F5F5F5F5F5F5F5F5F5F5F5F5F5F5F5F5F5F5F5F5F5F5F5F5F5F5F5F5F5F5F5F5F5F5F5F5F5F5F5F5F5F5F5F5F5F5F5E2F5F5F5E2E2EFF5F5F5E2
310
F5F5F5F5F5F5F5F5F5F5F5F5F5F5F5F5F5F5F5F5F5F5F5F5F5F5F5F5F5F5F5F5F5F5F5F5F5F5F5F5F5F5F5F5F5F5F5F5F5F5F5F5F5F5F5F5F5F5F5F5F5F5F5F5F5F5F5F5F5F5F5F5F5F5F5F5F5F5F5F5F5F5F5F5F5F5F5F5F5F5F5F5F5F5F5F5F5F5F5F5F5F5F5F5F5F5F5F5F5F5F5F5F5F5F5F5F5F5F5F5F5F5F5F5F5F5F5
310
F5F5F5F5F5F5F5F5F5F5F5F5F5F5F5F5F5F5F5F5F5F5F5F5F5F5F5F5F5F5F5F5F5F5F5F5F5F5F5F5F5F5E2F5F5F5E2E2EFF5F5F5E2F5F5F5F5F5F5F5F5F5F5F5F5F5F5F5F5F5F5F5F5F5F5F5F5F5F5F5F5F5F5F5F5F5F5F5F5F5F5F5F5F5F5F5F5F5F5F5F5F5F5F5F5F5F5F5F5F5F5F5F5F5F5F5F5F5F5F5F5F5F5F5F5F5F5
310
F5F5F5F5F5F5F5F5F5F5F5F5F5F5F5F5F5F5F5F5F5F5F5F5F5F5F5F5F5F5F5F5F5F5F5F5F5F5F5F5F5F5F5F5F5F5F5F5F5F5F5F5F5F5F5F5F5F5F5F5F5F5F5F5F5F5F5F5F5F5F5F5F5F5F5F5F5F5F5F5F5F5F5F5F5F5F5F5F5F5F5F5F5F5F5E2F5F5F5E2E2EFF5F5F5F5F5F5F5F5F5F5F5F5F5F5F5F5F5F5F5F5F5F5F5F5F5
310
F5F5F5F5F5F5F5F5F5F5F5F5F5F5F5F5F5F5F5F5F5F5F5F5F5F5F5F5F5F5F5F5F5F5F5F5F5F5F5F5F5F5F5F5F5F5F5F5F5F5F5F5F5F5F5F5F5F5F5F5F5F5F5F5F5F5F5F5F5F5F5F5F5F5F5F5F5F5F5F5F5F5F5F5F5F5F5F5F5F5F5F5F5F5F5F5F5F5F5F5F5F5F5F5F5F5F5F5F5F5F5F5F5F5F5F5F5F5F5F5F5F5F5F5F5F5F5
310
F5F5F5F5F5F5F5F5F5F5F5F5F5F5F5F5F5F5F5F5F5F5F5F5F5E2E2EFF5F5F5F5F5F5F5F5F5F5F5F5F5F5F5F5F5F5F5F5F5F5F5F5F5F5F5F5F5F5F5F5F5F5F5F5F5F5F5F5F5F5F5F5F5F5F5F5F5F5F5F5F5F5F5F5F5F5F5F5F5F5F5F5F5F5F5F5F5F5F5F5F5F5F5F5F5F5F5F5F5F5F5F5F5F5F5F5F5F5F5F5F5F5F5F5F5F5F5
310
F5F5F5F5F5F5F5F5F5F5F5F5F5F5F5F5F5F5F5F5F5F5F5F5F5F5F5F5F5F5F5F5F5F5F5F5F5F5F5F5F5F5F5F5F5F5F5F5F5F5F5F5F5F5F5F5F5F5F5F5F5F5F5F5F5F5F5F5F5F5F5F5F5F5F5F5F5F5E2E2EFF5F5F5F5F5F5F5F5F5F5F5F5F5F5F5F5F5F5F5F5F5F5F5F5F5F5F5F5F5F5F5F5F5F5F5F5F5F5F5F5F5F5F5F5F5F5
310
F5F5F5F5F5F5F5F5F5F5F5F5F5F5F5F5F5F5F5F5F5F5F5F5F5F5F5F5F5F5F5F5F5F5F5F5F5F5F5F5F5F5F5F5F5F5F5F5F5F5F5F5F5F5F5F5F5F5F5F5F5F5F5F5F5F5F5F5F5F5F5F5F5F5F5F5F5F5F5F5F5F5F5F5F5F5F5F5F5F5F5F5F5F5F5F5F5F5F5F5F5F5F5F5F5F5F5F5F5F5F5F5F5F5F5F5F5F5F5F5F5F5F5F5F5F5F5
310
F5F5F5F5E2E2EFF5F5F5F5F5F5F5F5F5F5F5F5F5F5F5F5F5F5F5F5F5F5F5F5F5F5F5F5F5F5F5F5F5F5F5F5F5F5F5F5F5F5F5F5F5F5F5F5F5F5F5F5F5F5F5F5F5F5F5F5F5F5F5F5F5F5F5F5F5F5F5F5F5F5F5F5F5F5F5F5F5F5F5F5F5F5F5F5F5F5F5F5F5F5F5F5F5F5F5F5F5F5F5F5F5F5F5F5F5F5F5F5F5F5F5F5F5F5F5F5
310
F5F5F5F5F5F5F5F5F5F5F5F5F5F5F5F5F5F5F5F5F5F5F5F5F5F5F5F5F5F5F5F5F5F5F5F5F5F5F5F5F5F5F5F5F5F5F5F5F5F5F5F5F5F5F5F5F5E2E2EFF5F5F5F5F5F5F5F5F5F5F5F5F5F5F5F5F5F5F5F5E2E2E2E2E2E2E2E2E2E2E2E2E2E2E2E2E2E2E2E2E2E2E2E2E2E2E2E2E2E2E2E2E2E2E2E2E2E2E2E2E2E2E2E2E2E2E2
310
E2E2E2E2E2E2E2E2E2E2E2E2E2E2E2E2E2E2E2E2E2E2E2E2E2E2E2E2E2E2E2E2E2E2E2E2E2E2E2E2E2E2E2E2E2E2E2E2E2E2E2E2E2E2E2E2E2E2E2E2E2E2E2E2E2E2E2E2E2E2E2E2E2E2E2E2E2E2E2E2E2E2E2E2E2E2E2E2E2E2F5F5F5F5F5F5F5F5F5F5F5F5F5F5F5F5F5F5F5F5E2E2EFF5F5F5F5F5F5F5F5F5F5F5F5F5F5
310
F5F5F5F5F5F5E2F5F5F5F5F5F5F5F5F5F5F5F5F5F5F5F5F5F5F5F5F5F5F5F5F5F5F5F5F5F5F5F5F5F5F5F5F5F5F5F5F5F5F5F5F5F5F5F5F5F5F5F5F5F5F5F5F5F5F5F5F5F5F5F5F5F5F5F5F5F5F5F5F5F5F5F5F5F5F5F5F5F5F5F5F5F5F5F5F5F5F5F5F5F5F5F5F5F5F5F5F5F5F5F5F5F5F5F5F5F5F5F5F5F5F5F5F5F5F5F5
310
F5F5F5F5F5F5F5F5F5F5F5F5F5F5F5E2F5F5F5F5F5F5F5F5F5F5F5F5F5F5F5F5F5F5F5F5E2E2EFF5F5F5F5F5F5F5F5F5F5F5F5F5F5F5F5F5F5F5F5E2F5F5F5F5F5F5F5F5F5F5F5F5F5F5F5F5F5F5F5F5F5F5F5F5F5F5F5F5F5F5F5F5F5F5F5F5F5F5F5F5F5F5F5F5F5F5F5F5F5F5F5F5F5F5F5F5F5F5F5F5F5F5F5F5F5F5F5
310
F5F5F5F5F5F5F5F5F5F5F5F5F5F5F5F5F5F5F5F5F5F5F5F5F5F5F5F5F5F5F5F5F5F5F5F5F5F5F5F5F5F5F5F5F5F5F5F5F5F5F5F5F5F5F5F5F5F5F5F5F5F5F5F5F5F5F5F5E2F5F5F5F5F5F5F5F5F5F5F5F5F5F5F5F5F5F5F5F5E2E2EFF5F5F5F5F5F5F5F5F5F5F5F5F5F5F5F5F5F5F5F5E2F5F5F5F5F5F5F5F5F5F5F5F5F5F5
310
F5F5F5F5F5F5F5F5F5F5F5F5F5F5F5F5F5F5F5F5F5F5F5F5F5F5F5F5F5F5F5F5F5F5F5F5F5F5F5F5F5F5F5F5F5F5F5F5F5F5F5F5F5F5F5F5F5F5F5F5F5F5F5F5F5F5F5F5F5F5F5F5F5F5F5F5F5F5F5F5F5F5F5F5F5F5F5F5F5F5F5F5F5F5F5F5F5F5F5F5F5F5F5F5F5F5F5F5F5F5F5F5F5F5F5F5F5F5F5F5F5E2F5F5F5F5F5
310
F5F5F5F5F5F5F5F5F5F5F5F5F5F5F5E2E2EFF5F5F5F5F5F5F5F5F5F5F5F5F5F5F5F5F5F5F5F5E2F5F5F5F5F5F5F5F5F5F5F5F5F5F5F5F5F5F5F5F5F5F5F5F5F5F5F5F5F5F5F5F5F5F5F5F5F5F5F5F5F5F5F5F5F5F5F5F5F5F5F5F5F5F5F5F5F5F5F5F5F5F5F5F5F5F5F5F5F5F5F5F5F5F5F5F5F5F5F5F5F5F5F5F5F5F5F5F5
310
F5F5F5F5F5F5F5F5F5F5F5F5F5F5F5F5F5F5F5F5F5F5F5F5F5F5F5F5F5F5F5F5F5F5F5F5F5F5F5F5F5F5F5F5F5F5F5E2F5F5F5F5F5F5F5F5F5F5F5F5F5F5F5F5F5F5F5F5E2E2EFF5F5F5E2F5F5F5F5F5F5F5F5F5F5F5F5F5F5F5F5E2F5F5F5F5F5F5F5F5F5F5F5F5F5F5F5F5F5F5F5F5F5F5F5F5F5F5F5F5F5F5F5F5F5F5F5
310
F5F5F5F5F5F5F5F5F5F5F5F5F5F5F5F5F5F5F5F5F5F5F5F5F5F5F5F5F5F5F5F5F5F5F5F5F5F5F5F5F5F5F5F5F5F5F5F5F5F5F5F5F5F5F5F5F5F5F5F5F5F5F5F5F5F5F5F5F5F5F5F5F5F5F5F5F5F5F5F5F5F5F5F5F5F5F5F5F5F5F5F5F5F5F5F5F5F5F5F5E2F5F5F5F5F5F5F5F5F5F5F5F5F5F5F5F5E2F5F5F5E2E2EFF5F5F5
310
E2F5F5F5F5F5F5F5F5F5F5F5F5F5F5F5F5E2F5F5F5F5F5F5F5F5F5F5F5F5F5F5F5F5F5F5F5F5F5F5F5F5F5F5F5F5F5F5F5F5F5F5F5F5F5F5F5F5F5F5F5F5F5F5F5F5F5F5F5F5F5F5F5F5F5F5F5F5F5F5F5F5F5F5F5F5F5F5F5F5F5F5F5F5F5F5F5F5F5F5F5F5F5F5F5F5F5F5F5F5F5F5F5F5F5F5F5F5F5F5F5F5F5F5F5F5F5
310
F5F5F5F5F5F5F5F5F5F5F5F5F5F5F5F5F5F5F5F5F5F5F5F5F5F5E2F5F5F5F5F5F5F5F5F5F5F5F5F5F5F5F5E2F5F5F5E2E2EFF5F5F5E2F5F5F5F5F5F5F5F5F5F5F5F5F5F5F5F5E2F5F5F5F5F5F5F5F5F5F5F5F5F5F5F5F5F5F5F5F5F5F5F5F5F5F5F5F5F5F5F5F5F5F5F5F5F5F5F5F5F5F5F5F5F5F5F5F5F5F5F5F5F5F5F5F5
310
F5F5F5F5F5F5F5F5F5F5F5F5F5F5F5F5F5F5F5F5F5F5F5F5F5F5F5F5F5F5F5F5F5F5F5F5F5F5F5F5F5F5F5F5F5F5F5F5F5F5F5F5F5F5F5F5F5F5F5F5F5F5F5F5F5F5F5F5F5F5F5F5F5F5F5F5F5F5F5E2F5F5F5F5F5F5F5F5F5F5F5F5F5F5F5F5E2F5F5F5E2E2EFF5F5F5E2F5F5F5F5F5F5F5F5F5F5F5F5F5F5F5F5E2F5F5F5
310
F5F5F5F5F5F5F5F5F5F5F5F5F5F5F5F5F5F5F5F5F5F5F5F5F5F5F5F5F5F5F5F5F5F5F5F5F5F5F5F5F5F5F5F5F5F5F5F5F5F5F5F5F5F5F5F5F5F5F5F5F5F5F5F5F5F5F5F5F5F5F5F5F5F5F5F5F5F5F5F5F5F5F5F5F5F5F5F5F5F5F5F5F5F5F5F5F5F5F5F5F5F5F5F5F5F5F5F5F5F5F5F5F5F5F5F5F5F5F5F5F5F5F5F5F5F5F5
310
F5F5F5F5F5E2F5F5F5F5F5F5F5F5F5F5F5F5F5F5F5F5E2F5F5F5E2E2EFF5F5F5E2F5F5F5F5F5F5F5F5F5F5F5F5F5F5F5F5E2F5F5F5F5F5F5F5F5F5F5F5F5F5F5F5F5F5F5F5F5F5F5F5F5F5F5F5F5F5F5F5F5F5F5F5F5F5F5F5F5F5F5F5F5F5F5F5F5F5F5F5F5F5F5F5F5F5F5F5F5F5F5F5F5F5F5F5F5F5F5F5F5F5F5F5F5F5
310
F5F5F5F5F5F5F5F5F5F5F5F5F5F5F5F5F5F5F5F5F5F5F5F5F5F5F5F5F5F5F5F5F5F5F5F5F5F5F5F5F5F5F5F5F5F5F5F5F5F5F5F5F5F5F5F5F5F5E2F5F5F5F5F5F5F5F5F5F5F5F5F5F5F5F5E2F5F5F5E2E2EFF5F5F5E2F5F5F5F5F5F5F5F5F5F5F5F5F5F5F5F5E2F5F5F5F5F5F5F5F5F5F5F5F5F5F5F5F5F5F5F5F5F5F5F5F5
310
F5F5F5F5F5F5F5F5F5F5F5F5F5F5F5F5F5F5F5F5F5F5F5F5F5F5F5F5F5F5F5F5F5F5F5F5F5F5F5F5F5F5F5F5F5F5F5F5F5F5F5F5F5F5F5F5F5F5F5F5F5F5F5F5F5F5F5F5F5F5F5F5F5F5F5F5F5F5F5F5F5F5F5F5F5F5F5F5F5F5F5F5F5F5F5F5F5F5F5F5F5F5F5F5F5F5F5F5F5F5F5E2F5F5F5F5F5F5F5F5F5F5F5F5F5F5F5
310
F5E2F5F5F5E2E2EFF5F5F5E2F5F5F5F5F5F5F5F5F5F5F5F5F5F5F5F5E2F5F5F5F5F5F5F5F5F5F5F5F5F5F5F5F5F5F5F5F5F5F5F5F5F5F5F5F5F5F5F5F5F5F5F5F5F5F5F5F5F5F5F5F5F5F5F5F5F5F5F5F5F5F5F5F5F5F5F5F5F5F5F5F5F5F5F5F5F5F5F5F5F5F5F5F5F5F5F5F5F5F5F5F5F5F5F5F5F5F5F5F5F5F5F5F5F5F5
310
F5F5F5F5F5F5F5F5F5F5F5F5F5F5F5F5F5F5F5F5F5F5F5F5F5F5F5F5F5F5F5F5F5F5F5F5F5E2F5F5F5F5F5F5F5F5F5F5F5F5F5F5F5F5E2F5F5F5E2E2EFF5F5F5E2F5F5F5F5F5F5F5F5F5F5F5F5F5F5F5F5E2F5F5F5F5F5F5F5F5F5F5F5F5F5F5F5F5F5F5F5F5F5F5F5F5F5F5F5F5F5F5F5F5F5F5F5F5F5F5F5F5F5F5F5F5F5
310
F5F5F5F5F5F5F5F5F5F5F5F5F5F5F5F5F5F5F5F5F5F5F5F5F5F5F5F5F5F5F5F5F5F5F5F5F5F5F5F5F5F5F5F5F5F5F5F5F5F5F5F5F5F5F5F5F5F5F5F5F5F5F5F5F5F5F5F5F5F5F5F5F5F5F5F5F5F5F5F5F5F5F5F5F5F5F5F5F5F5E2F5F5F5F5F5F5F5F5F5F5F5F5F5F5F5F5E2F5F5F5E2E2EFF5F5F5E2F5F5F5F5F5F5F5F5F5
310
F5F5F5F5F5F5F5E2F5F5F5F5F5F5F5F5F5F5F5F5F5F5F5F5F5F5F5F5F5F5F5F5F5F5F5F5F5F5F5F5F5F5F5F5F5F5F5F5F5F5F5F5F5F5F5F5F5F5F5F5F5F5F5F5F5F5F5F5F5F5F5F5F5F5F5F5F5F5F5F5F5F5F5F5F5F5F5F5F5F5F5F5F5F5F5F5F5F5F5F5F5F5F5F5F5F5F5F5F5F5F5F5F5F5F5F5F5F5F5F5F5F5F5F5F5F5F5
310
F5F5F5F5F5F5F5F5F5F5F5F5F5F5F5F5E2F5F5F5F5F5F5F5F5F5F5F5F5F5F5F5F5E2F5F5F5E2E2EFF5F5F5E2F5F5F5F5F5F5F5F5F5F5F5F5F5F5F5F5E2F5F5F5F5F5F5F5F5F5F5F5F5F5F5F5F5F5F5F5F5F5F5F5F5F5F5F5F5F5F5F5F5F5F5F5F5F5F5F5F5F5F5F5F5F5F5F5F5F5F5F5F5F5F5F5F5F5F5F5F5F5F5F5F5F5F5
310
F5F5F5F5F5F5F5F5F5F5F5F5F5F5F5F5F5F5F5F5F5F5F5F5F5F5F5F5F5F5F5F5F5F5F5F5F5F5F5F5F5F5F5F5F5F5F5F5F5F5F5F5F5F5F5F5F5F5F5F5F5F5F5F5F5F5F5F5F5E2F5F5F5F5F5F5F5F5F5F5F5F5F5F5F5F5E2F5F5F5E2E2EFF5F5F5E2F5F5F5F5F5F5F5F5F5F5F5F5F5F5F5F5E2F5F5F5F5F5F5F5F5F5F5F5F5F5
310
F5F5F5F5F5F5F5F5F5F5F5F5F5F5F5F5F5F5F5F5F5F5F5F5F5F5F5F5F5F5F5F5F5F5F5F5F5F5F5F5F5F5F5F5F5F5F5F5F5F5F5F5F5F5F5F5F5F5F5F5F5F5F5F5F5F5F5F5F5F5F5F5F5F5F5F5F5F5F5F5F5F5F5F5F5F5F5F5F5F5F5F5F5F5F5F5F5F5F5F5F5F5F5F5F5F5F5F5F5F5F5F5F5F5F5F5F5F5F5F5F5F5E2F5F5F5F5
310
F5F5F5F5F5F5F5F5F5F5F5F5E2F5F5F5E2E2EFF5F5F5E2F5F5F5F5F5F5F5F5F5F5F5F5F5F5F5F5E2F5F5F5F5F5F5F5F5F5F5F5F5F5F5F5F5F5F5F5F5F5F5F5F5F5F5F5F5F5F5F5F5F5F5F5F5F5F5F5F5F5F5F5F5F5F5F5F5F5F5F5F5F5F5F5F5F5F5F5F5F5F5F5F5F5F5F5F5F5F5F5F5F5F5F5F5F5F5F5F5F5F5F5F5F5F5F5
310
F5F5F5F5F5F5F5F5F5F5F5F5F5F5F5F5F5F5F5F5F5F5F5F5F5F5F5F5F5F5F5F5F5F5F5F5F5F5F5F5F5F5F5F5F5F5F5F5E2F5F5F5F5F5F5F5F5F5F5F5F5F5F5F5F5E2F5F5F5E2E2EFF5F5F5E2F5F5F5F5F5F5F5F5F5F5F5F5F5F5F5F5E2F5F5F5F5F5F5F5F5F5F5F5F5F5F5F5F5F5F5F5F5F5F5F5F5F5F5F5F5F5F5F5F5F5F5
310
F5F5F5F5F5F5F5F5F5F5F5F5F5F5F5F5F5F5F5F5F5F5F5F5F5F5F5F5F5F5F5F5F5F5F5F5F5F5F5F5F5F5F5F5F5F5F5F5F5F5F5F5F5F5F5F5F5F5F5F5F5F5F5F5F5F5F5F5F5F5F5F5F5F5F5F5F5F5F5F5F5F5F5F5F5F5F5F5F5F5F5F5F5F5F5F5F5F5F5F5F5E2F5F5F5F5F5F5F5F5F5F5F5F5F5F5F5F5E2F5F5F5E2E2EFF5F5
310
F5E2F5F5F5F5F5F5F5F5F5F5F5F5F5F5F5F5E2F5F5F5F5F5F5F5F5F5F5F5F5F5F5F5F5F5F5F5F5F5F5F5F5F5F5F5F5F5F5F5F5F5F5F5F5F5F5F5F5F5F5F5F5F5F5F5F5F5F5F5F5F5F5F5F5F5F5F5F5F5F5F5F5F5F5F5F5F5F5F5F5F5F5F5F5F5F5F5F5F5F5F5F5F5F5F5F5F5F5F5F5F5F5F5F5F5F5F5F5F5F5F5F5F5F5F5F5
310
F5F5F5F5F5F5F5F5F5F5F5F5F5F5F5F5F5F5F5F5F5F5F5F5F5F5F5E2F5F5F5F5F5F5F5F5F5F5F5F5F5F5F5F5E2F5F5F5E2E2EFF5F5F5E2F5F5F5F5F5F5F5F5F5F5F5F5F5F5F5F5E2F5F5F5F5F5F5F5F5F5F5F5F5F5F5F5F5F5F5F5F5F5F5F5F5F5F5F5F5F5F5F5F5F5F5F5F5F5F5F5F5F5F5F5F5F5F5F5F5F5F5F5F5F5F5F5
310
F5F5F5F5F5F5F5F5F5F5F5F5F5F5F5F5F5F5F5F5F5F5F5F5F5F5F5F5F5F5F5F5F5F5F5F5F5F5F5F5F5F5F5F5F5F5F5F5F5F5F5F5F5F5F5F5F5F5F5F5F5F5F5F5F5F5F5F5F5F5F5F5F5F5F5F5F5F5F5F5E2F5F5F5F5F5F5F5F5F5F5F5F5F5F5F5F5E2F5F5F5E2E2EFF5F5F5E2F5F5F5F5F5F5F5F5F5F5F5F5F5F5F5F5E2F5F5
310
F5F5F5F5F5F5F5F5F5F5F5F5F5F5F5F5F5F5F5F5F5F5F5F5F5F5F5F5F5F5F5F5F5F5F5F5F5F5F5F5F5F5F5F5F5F5F5F5F5F5F5F5F5F5F5F5F5F5F5F5F5F5F5F5F5F5F5F5F5F5F5F5F5F5F5F5F5F5F5F5F5F5F5F5F5F5F5F5F5F5F5F5F5F5F5F5F5F5F5F5F5F5F5F5F5F5F5F5F5F5F5F5F5F5F5F5F5F5F5F5F5F5F5F5F5F5F5
310
F5F5F5F5F5F5E2F5F5F5F5F5F5F5F5F5F5F5F5F5F5F5F5E2F5F5F5E2E2EFF5F5F5E2F5F5F5F5F5F5F5F5F5F5F5F5F5F5F5F5E2F5F5F5F5F5F5F5F5F5F5F5F5F5F5F5F5F5F5F5F5F5F5F5F5F5F5F5F5F5F5F5F5F5F5F5F5F5F5F5F5F5F5F5F5F5F5F5F5F5F5F5F5F5F5F5F5F5F5F5F5F5F5F5F5F5F5F5F5F5F5F5F5F5F5F5F5
310
F5F5F5F5F5F5F5F5F5F5F5F5F5F5F5F5F5F5F5F5F5F5F5F5F5F5F5F5F5F5F5F5F5F5F5F5F5F5F5F5F5F5F5F5F5F5F5F5F5F5F5F5F5F5F5F5F5F5F5E2F5F5F5F5F5F5F5F5F5F5F5F5F5F5F5F5E2F5F5F5E2E2EFF5F5F5F5F5F5F5F5F5F5F5F5F5F5F5F5F5F5F5F5E2F5F5F5F5F5F5F5F5F5F5F5F5F5F5F5F5F5F5F5F5F5F5F5
310
F5F5F5F5F5F5F5F5F5F5F5F5F5F5F5F5F5F5F5F5F5F5F5F5F5F5F5F5F5F5F5F5F5F5F5F5F5F5F5F5F5F5F5F5F5F5F5F5F5F5F5F5F5F5F5F5F5F5F5F5F5F5F5F5F5F5F5F5F5F5F5F5F5F5F5F5F5F5F5F5F5F5F5F5F5F5F5F5F5F5F5F5F5F5F5F5F5F5F5F5F5F5F5F5F5F5F5F5F5F5F5F5E2F5F5F5F5F5F5F5F5F5F5F5F5F5F5
310
F5F5F5F5F5F5E2E2EFF5F5F5F5F5F5F5F5F5F5F5F5F5F5F5F5F5F5F5F5E2F5F5F5F5F5F5F5F5F5F5F5F5F5F5F5F5F5F5F5F5F5F5F5F5F5F5F5F5F5F5F5F5F5F5F5F5F5F5F5F5F5F5F5F5F5F5F5F5F5F5F5F5F5F5F5F5F5F5F5F5F5F5F5F5F5F5F5F5F5F5F5F5F5F5F5F5F5F5F5F5F5F5F5F5F5F5F5F5F5F5F5F5F5F5F5F5F5
310
F5F5F5F5F5F5F5F5F5F5F5F5F5F5F5F5F5F5F5F5F5F5F5F5F5F5F5F5F5F5F5F5F5F5F5F5F5F5E2F5F5F5F5F5F5F5F5F5F5F5F5F5F5F5F5F5F5F5F5E2E2EFF5F5F5F5F5F5F5F5F5F5F5F5F5F5F5F5F5F5F5F5E2F5F5F5F5F5F5F5F5F5F5F5F5F5F5F5F5F5F5F5F5F5F5F5F5F5F5F5F5F5F5F5F5F5F5F5F5F5F5F5F5F5F5F5F5
310
F5F5F5F5F5F5F5F5F5F5F5F5F5F5F5F5F5F5F5F5F5F5F5F5F5F5F5F5F5F5F5F5F5F5F5F5F5F5F5F5F5F5F5F5F5F5F5F5F5F5F5F5F5F5F5F5F5F5F5F5F5F5F5F5F5F5F5F5F5F5F5F5F5F5F5F5F5F5F5F5F5F5F5F5F5F5F5F5F5F5F5E2F5F5F5F5F5F5F5F5F5F5F5F5F5F5F5F5F5F5F5F5E2E2EFF5F5F5F5F5F5F5F5F5F5F5F5
310
F5F5F5F5F5F5F5F5E2F5F5F5F5F5F5F5F5F5F5F5F5F5F5F5F5F5F5F5F5F5F5F5F5F5F5F5F5F5F5F5F5F5F5F5F5F5F5F5F5F5F5F5F5F5F5F5F5F5F5F5F5F5F5F5F5F5F5F5F5F5F5F5F5F5F5F5F5F5F5F5F5F5F5F5F5F5F5F5F5F5F5F5F5F5F5F5F5F5F5F5F5F5F5F5F5F5F5F5F5F5F5F5F5F5F5F5F5F5F5F5F5F5F5F5F5F5F5
310
F5F5F5F5F5F5F5F5F5F5F5F5F5F5F5F5F5E2F5F5F5F5F5F5F5F5F5F5F5F5F5F5F5F5F5F5F5F5E2E2EFF5F5F5F5F5F5F5F5F5F5F5F5F5F5F5F5F5F5F5F5E2F5F5F5F5F5F5F5F5F5F5F5F5F5F5F5F5F5F5F5F5F5F5F5F5F5F5F5F5F5F5F5F5F5F5F5F5F5F5F5F5F5F5F5F5F5F5F5F5F5F5F5F5F5F5F5F5F5F5F5F5F5F5F5F5F5
310
F5F5F5F5F5F5F5F5F5F5F5F5F5F5F5F5F5F5F5F5F5F5F5F5F5F5F5F5F5F5F5F5F5F5F5F5F5F5F5F5F5F5F5F5F5F5F5F5F5F5F5F5F5F5F5F5F5F5F5F5F5F5F5F5F5F5F5F5F5F5E2F5F5F5F5F5F5F5F5F5F5F5F5F5F5F5F5F5F5F5F5E2E2EFF5F5F5F5F5F5F5F5F5F5F5F5F5F5F5F5F5F5F5F5E2F5F5F5F5F5F5F5F5F5F5F5F5
310
F5F5F5F5F5F5F5F5F5F5F5F5F5F5F5F5F5F5F5F5F5F5F5F5F5F5F5F5F5F5F5F5F5F5F5F5F5F5F5F5F5F5F5F5F5F5F5F5F5F5F5F5F5F5F5F5F5F5F5F5F5F5F5F5F5F5F5F5F5F5F5F5F5F5F5F5F5F5F5F5F5F5F5F5F5F5F5F5F5F5F5F5F5F5F5F5F5F5F5F5F5F5F5F5F5F5F5F5F5F5F5F5F5F5F5F5F5F5F5F5F5F5F5E2F5F5F5
310
F5F5F5F5F5F5F5F5F5F5F5F5F5F5F5F5F5E2E2EFF5F5F5F5F5F5F5F5F5F5F5F5F5F5F5F5F5F5F5F5E2F5F5F5F5F5F5F5F5F5F5F5F5F5F5F5F5F5F5F5F5F5F5F5F5F5F5F5F5F5F5F5F5F5F5F5F5F5F5F5F5F5F5F5F5F5F5F5F5F5F5F5F5F5F5F5F5F5F5F5F5F5F5F5F5F5F5F5F5F5F5F5F5F5F5F5F5F5F5F5F5F5F5F5F5F5F5
310
F5F5F5F5F5F5F5F5F5F5F5F5F5F5F5F5F5F5F5F5F5F5F5F5F5F5F5F5F5F5F5F5F5F5F5F5F5F5F5F5F5F5F5F5F5F5F5F5F5E2F5F5F5F5F5F5F5F5F5F5F5F5F5F5F5F5F5F5F5F5E2E2EFF5F5F5F5F5F5F5F5F5F5F5F5F5F5F5F5F5F5F5F5E2F5F5F5F5F5F5F5F5F5F5F5F5F5F5F5F5F5F5F5F5F5F5F5F5F5F5F5F5F5F5F5F5F5
310
F5F5F5F5F5F5F5F5F5F5F5F5F5F5F5F5F5F5F5F5F5F5F5F5F5F5F5F5F5F5F5F5F5F5F5F5F5F5F5F5F5F5F5F5F5F5F5F5F5F5F5F5F5F5F5F5F5F5F5F5F5F5F5F5F5F5F5F5F5F5F5F5F5F5F5F5F5F5F5F5F5F5F5F5F5F5F5F5F5F5F5F5F5F5F5F5F5F5F5F5F5F5E2F5F5F5F5F5F5F5F5F5F5F5F5F5F5F5F5F5F5F5F5E2E2EFF5
310
F5F5F5F5F5F5F5F5F5F5F5F5F5F5F5F5F5F5F5E2F5F5F5F5F5F5F5F5F5F5F5F5F5F5F5F5F5F5F5F5F5F5F5F5F5F5F5F5F5F5F5F5F5F5F5F5F5F5F5F5F5F5F5F5F5F5F5F5F5F5F5F5F5F5F5F5F5F5F5F5F5F5F5F5F5F5F5F5F5F5F5F5F5F5F5F5F5F5F5F5F5F5F5F5F5F5F5F5F5F5F5F5F5F5F5F5F5F5F5F5F5F5F5F5F5F5F5
310
F5F5F5F5F5F5F5F5F5F5F5F5F5F5F5F5F5F5F5F5F5F5F5F5F5F5F5F5E2F5F5F5F5F5F5F5F5F5F5F5F5F5F5F5F5F5F5F5F5E2E2EFF5F5F5E2F5F5F5F5F5F5F5F5F5F5F5F5F5F5F5F5E2F5F5F5F5F5F5F5F5F5F5F5F5F5F5F5F5F5F5F5F5F5F5F5F5F5F5F5F5F5F5F5F5F5F5F5F5F5F5F5F5F5F5F5F5F5F5F5F5F5F5F5F5F5F5
310
F5F5F5F5F5F5F5F5F5F5F5F5F5F5F5F5F5F5F5F5F5F5F5F5F5F5F5F5F5F5F5F5F5F5F5F5F5F5F5F5F5F5F5F5F5F5F5F5F5F5F5F5F5F5F5F5F5F5F5F5F5F5F5F5F5F5F5F5F5F5F5F5F5F5F5F5F5F5F5F5F5E2F5F5F5F5F5F5F5F5F5F5F5F5F5F5F5F5E2F5F5F5E2E2EFF5F5F5E2F5F5F5F5F5F5F5F5F5F5F5F5F5F5F5F5E2F5
310
F5F5F5F5F5F5F5F5F5F5F5F5F5F5F5F5F5F5F5F5F5F5F5F5F5F5F5F5F5F5F5F5F5F5F5F5F5F5F5F5F5F5F5F5F5F5F5F5F5F5F5F5F5F5F5F5F5F5F5F5F5F5F5F5F5F5F5F5F5F5F5F5F5F5F5F5F5F5F5F5F5F5F5F5F5F5F5F5F5F5F5F5F5F5F5F5F5F5F5F5F5F5F5F5F5F5F5F5F5F5F5F5F5F5F5F5F5F5F5F5F5F5F5F5F5F5F5
310
F5F5F5F5F5F5F5E2F5F5F5F5F5F5F5F5F5F5F5F5F5F5F5F5E2F5F5F5E2E2EFF5F5F5E2F5F5F5F5F5F5F5F5F5F5F5F5F5F5F5F5E2F5F5F5F5F5F5F5F5F5F5F5F5F5F5F5F5F5F5F5F5F5F5F5F5F5F5F5F5F5F5F5F5F5F5F5F5F5F5F5F5F5F5F5F5F5F5F5F5F5F5F5F5F5F5F5F5F5F5F5F5F5F5F5F5F5F5F5F5F5F5F5F5F5F5F5
310
F5F5F5F5F5F5F5F5F5F5F5F5F5F5F5F5F5F5F5F5F5F5F5F5F5F5F5F5F5F5F5F5F5F5F5F5F5F5F5F5F5F5F5F5F5F5F5F5F5F5F5F5F5F5F5F5F5F5F5F5E2F5F5F5F5F5F5F5F5F5F5F5F5F5F5F5F5E2F5F5F5E2E2EFF5F5F5E2F5F5F5F5F5F5F5F5F5F5F5F5F5F5F5F5E2F5F5F5F5F5F5F5F5F5F5F5F5F5F5F5F5F5F5F5F5F5F5
310
F5F5F5F5F5F5F5F5F5F5F5F5F5F5F5F5F5F5F5F5F5F5F5F5F5F5F5F5F5F5F5F5F5F5F5F5F5F5F5F5F5F5F5F5F5F5F5F5F5F5F5F5F5F5F5F5F5F5F5F5F5F5F5F5F5F5F5F5F5F5F5F5F5F5F5F5F5F5F5F5F5F5F5F5F5F5F5F5F5F5F5F5F5F5F5F5F5F5F5F5F5F5F5F5F5F5F5F5F5F5F5F5F5E2F5F5F5F5F5F5F5F5F5F5F5F5F5
310
F5F5F5E2F5F5F5E2E2EFF5F5F5E2F5F5F5F5F5F5F5F5F5F5F5F5F5F5F5F5E2F5F5F5F5F5F5F5F5F5F5F5F5F5F5F5F5F5F5F5F5F5F5F5F5F5F5F5F5F5F5F5F5F5F5F5F5F5F5F5F5F5F5F5F5F5F5F5F5F5F5F5F5F5F5F5F5F5F5F5F5F5F5F5F5F5F5F5F5F5F5F5F5F5F5F5F5F5F5F5F5F5F5F5F5F5F5F5F5F5F5F5F5F5F5F5F5
310
F5F5F5F5F5F5F5F5F5F5F5F5F5F5F5F5F5F5F5F5F5F5F5F5F5F5F5F5F5F5F5F5F5F5F5F5F5F5F5E2F5F5F5F5F5F5F5F5F5F5F5F5F5F5F5F5E2F5F5F5E2E2EFF5F5F5E2F5F5F5F5F5F5F5F5F5F5F5F5F5F5F5F5E2F5F5F5F5F5F5F5F5F5F5F5F5F5F5F5F5F5F5F5F5F5F5F5F5F5F5F5F5F5F5F5F5F5F5F5F5F5F5F5F5F5F5F5
310
F5F5F5F5F5F5F5F5F5F5F5F5F5F5F5F5F5F5F5F5F5F5F5F5F5F5F5F5F5F5F5F5F5F5F5F5F5F5F5F5F5F5F5F5F5F5F5F5F5F5F5F5F5F5F5F5F5F5F5F5F5F5F5F5F5F5F5F5F5F5F5F5F5F5F5F5F5F5F5F5F5F5F5F5F5F5F5F5F5F5F5F5E2F5F5F5F5F5F5F5F5F5F5F5F5F5F5F5F5E2F5F5F5E2E2EFF5F5F5E2F5F5F5F5F5F5F5
310
F5F5F5F5F5F5F5F5F5E2F5F5F5F5F5F5F5F5F5F5F5F5F5F5F5F5F5F5F5F5F5F5F5F5F5F5F5F5F5F5F5F5F5F5F5F5F5F5F5F5F5F5F5F5F5F5F5F5F5F5F5F5F5F5F5F5F5F5F5F5F5F5F5F5F5F5F5F5F5F5F5F5F5F5F5F5F5F5F5F5F5F5F5F5F5F5F5F5F5F5F5F5F5F5F5F5F5F5F5F5F5F5F5F5F5F5F5F5F5F5F5F5F5F5F5F5F5
310
F5F5F5F5F5F5F5F5F5F5F5F5F5F5F5F5F5F5E2F5F5F5F5F5F5F5F5F5F5F5F5F5F5F5F5E2F5F5F5E2E2EFF5F5F5E2F5F5F5F5F5F5F5F5F5F5F5F5F5F5F5F5E2F5F5F5F5F5F5F5F5F5F5F5F5F5F5F5F5F5F5F5F5F5F5F5F5F5F5F5F5F5F5F5F5F5F5F5F5F5F5F5F5F5F5F5F5F5F5F5F5F5F5F5F5F5F5F5F5F5F5F5F5F5F5F5F5
310
F5F5F5F5F5F5F5F5F5F5F5F5F5F5F5F5F5F5F5F5F5F5F5F5F5F5F5F5F5F5F5F5F5F5F5F5F5F5F5F5F5F5F5F5F5F5F5F5F5F5F5F5F5F5F5F5F5F5F5F5F5F5F5F5F5F5F5F5F5F5F5E2F5F5F5F5F5F5F5F5F5F5F5F5F5F5F5F5E2F5F5F5E2E2EFF5F5F5E2F5F5F5F5F5F5F5F5F5F5F5F5F5F5F5F5E2F5F5F5F5F5F5F5F5F5F5F5
310
F5F5F5F5F5F5F5F5F5F5F5F5F5F5F5F5F5F5F5F5F5F5F5F5F5F5F5F5F5F5F5F5F5F5F5F5F5F5F5F5F5F5F5F5F5F5F5F5F5F5F5F5F5F5F5F5F5F5F5F5F5F5F5F5F5F5F5F5F5F5F5F5F5F5F5F5F5F5F5F5F5F5F5F5F5F5F5F5F5F5F5F5F5F5F5F5F5F5F5F5F5F5F5F5F5F5F5F5F5F5F5F5F5F5F5F5F5F5F5F5F5F5F5F5E2F5F5
310
F5F5F5F5F5F5F5F5F5F5F5F5F5F5E2F5F5F5E2E2EFF5F5F5E2F5F5F5F5F5F5F5F5F5F5F5F5F5F5F5F5E2F5F5F5F5F5F5F5F5F5F5F5F5F5F5F5F5F5F5F5F5F5F5F5F5F5F5F5F5F5F5F5F5F5F5F5F5F5F5F5F5F5F5F5F5F5F5F5F5F5F5F5F5F5F5F5F5F5F5F5F5F5F5F5F5F5F5F5F5F5F5F5F5F5F5F5F5F5F5F5F5F5F5F5F5F5
310
F5F5F5F5F5F5F5F5F5F5F5F5F5F5F5F5F5F5F5F5F5F5F5F5F5F5F5F5F5F5F5F5F5F5F5F5F5F5F5F5F5F5F5F5F5F5F5F5F5F5E2F5F5F5F5F5F5F5F5F5F5F5F5F5F5F5F5E2F5F5F5E2E2EFF5F5F5E2F5F5F5F5F5F5F5F5F5F5F5F5F5F5F5F5E2F5F5F5F5F5F5F5F5F5F5F5F5F5F5F5F5F5F5F5F5F5F5F5F5F5F5F5F5F5F5F5F5
310
F5F5F5F5F5F5F5F5F5F5F5F5F5F5F5F5F5F5F5F5F5F5F5F5F5F5F5F5F5F5F5F5F5F5F5F5F5F5F5F5F5F5F5F5F5F5F5F5F5F5F5F5F5F5F5F5F5F5F5F5F5F5F5F5F5F5F5F5F5F5F5F5F5F5F5F5F5F5F5F5F5F5F5F5F5F5F5F5F5F5F5F5F5F5F5F5F5F5F5F5F5F5F5E2F5F5F5F5F5F5F5F5F5F5F5F5F5F5F5F5E2F5F5F5E2E2EF
310
F5F5F5E2F5F5F5F5F5F5F5F5F5F5F5F5F5F5F5F5E2F5F5F5F5F5F5F5F5F5F5F5F5F5F5F5F5F5F5F5F5F5F5F5F5F5F5F5F5F5F5F5F5F5F5F5F5F5F5F5F5F5F5F5F5F5F5F5F5F5F5F5F5F5F5F5F5F5F5F5F5F5F5F5F5F5F5F5F5F5F5F5F5F5F5F5F5F5F5F5F5F5F5F5F5F5F5F5F5F5F5F5F5F5F5F5F5F5F5F5F5F5F5F5F5F5F5
310
F5F5F5F5F5F5F5F5F5F5F5F5F5F5F5F5F5F5F5F5F5F5F5F5F5F5F5F5F5E2F5F5F5F5F5F5F5F5F5F5F5F5F5F5F5F5E2F5F5F5E2E2EFF5F5F5E2F5F5F5F5F5F5F5F5F5F5F5F5F5F5F5F5E2F5F5F5F5F5F5F5F5F5F5F5F5F5F5F5F5F5F5F5F5F5F5F5F5F5F5F5F5F5F5F5F5F5F5F5F5F5F5F5F5F5F5F5F5F5F5F5F5F5F5F5F5F5
310
F5F5F5F5F5F5F5F5F5F5F5F5F5F5F5F5F5F5F5F5F5F5F5F5F5F5F5F5F5F5F5F5F5F5F5F5F5F5F5F5F5F5F5F5F5F5F5F5F5F5F5F5F5F5F5F5F5F5F5F5F5F5F5F5F5F5F5F5F5F5F5F5F5F5F5F5F5F5F5F5F5F5E2F5F5F5F5F5F5F5F5F5F5F5F5F5F5F5F5E2F5F5F5E2E2EFF5F5F5E2F5F5F5F5F5F5F5F5F5F5F5F5F5F5F5F5E2
310
F5F5F5F5F5F5F5F5F5F5F5F5F5F5F5F5F5F5F5F5F5F5F5F5F5F5F5F5F5F5F5F5F5F5F5F5F5F5F5F5F5F5F5F5F5F5F5F5F5F5F5F5F5F5F5F5F5F5F5F5F5F5F5F5F5F5F5F5F5F5F5F5F5F5F5F5F5F5F5F5F5F5F5F5F5F5F5F5F5F5F5F5F5F5F5F5F5F5F5F5F5F5F5F5F5F5F5F5F5F5F5F5F5F5F5F5F5F5F5F5F5F5F5F5F5F5F5
310
F5F5F5F5F5F5F5F5E2F5F5F5F5F5F5F5F5F5F5F5F5F5F5F5F5E2F5F5F5E2E2EFF5F5F5E2F5F5F5F5F5F5F5F5F5F5F5F5F5F5F5F5E2F5F5F5F5F5F5F5F5F5F5F5F5F5F5F5F5F5F5F5F5F5F5F5F5F5F5F5F5F5F5F5F5F5F5F5F5F5F5F5F5F5F5F5F5F5F5F5F5F5F5F5F5F5F5F5F5F5F5F5F5F5F5F5F5F5F5F5F5F5F5F5F5F5F5
310
F5F5F5F5F5F5F5F5F5F5F5F5F5F5F5F5F5F5F5F5F5F5F5F5F5F5F5F5F5F5F5F5F5F5F5F5F5F5F5F5F5F5F5F5F5F5F5F5F5F5F5F5F5F5F5F5F5F5F5F5F5E2F5F5F5F5F5F5F5F5F5F5F5F5F5F5F5F5E2F5F5F5E2E2EFF5F5F5E2F5F5F5F5F5F5F5F5F5F5F5F5F5F5F5F5E2F5F5F5F5F5F5F5F5F5F5F5F5F5F5F5F5F5F5F5F5F5
310
F5F5F5F5F5F5F5F5F5F5F5F5F5F5F5F5F5F5F5F5F5F5F5F5F5F5F5F5F5F5F5F5F5F5F5F5F5F5F5F5F5F5F5F5F5F5F5F5F5F5F5F5F5F5F5F5F5F5F5F5F5F5F5F5F5F5F5F5F5F5F5F5F5F5F5F5F5F5F5F5F5F5F5F5F5F5F5F5F5F5F5F5F5F5F5F5F5F5F5F5F5F5F5F5F5F5F5F5F5F5F5F5F5F5E2F5F5F5F5F5F5F5F5F5F5F5F5
310
F5F5F5F5E2F5F5F5E2E2EFF5F5F5E2F5F5F5F5F5F5F5F5F5F5F5F5F5F5F5F5E2F5F5F5F5F5F5F5F5F5F5F5F5F5F5F5F5F5F5F5F5F5F5F5F5F5F5F5F5F5F5F5F5F5F5F5F5F5F5F5F5F5F5F5F5F5F5F5F5F5F5F5F5F5F5F5F5F5F5F5F5F5F5F5F5F5F5F5F5F5F5F5F5F5F5F5F5F5F5F5F5F5F5F5F5F5F5F5F5F5F5F5F5F5F5F5
310
F5F5F5F5F5F5F5F5F5F5F5F5F5F5F5F5F5F5F5F5F5F5F5F5F5F5F5F5F5F5F5F5F5F5F5F5F5F5F5F5E2F5F5F5F5F5F5F5F5F5F5F5F5F5F5F5F5E2F5F5F5E2E2EFF5F5F5F5F5F5F5F5F5F5F5F5F5F5F5F5F5F5F5F5E2F5F5F5F5F5F5F5F5F5F5F5F5F5F5F5F5F5F5F5F5F5F5F5F5F5F5F5F5F5F5F5F5F5F5F5F5F5F5F5F5F5F5
310
F5F5F5F5F5F5F5F5F5F5F5F5F5F5F5F5F5F5F5F5F5F5F5F5F5F5F5F5F5F5F5F5F5F5F5F5F5F5F5F5F5F5F5F5F5F5F5F5F5F5F5F5F5F5F5F5F5F5F5F5F5F5F5F5F5F5F5F5F5F5F5F5F5F5F5F5F5F5F5F5F5F5F5F5F5F5F5F5F5F5F5F5F5E2F5F5F5F5F5F5F5F5F5F5F5F5F5F5F5F5F5F5F5F5E2E2EFF5F5F5F5F5F5F5F5F5F5
310
F5F5F5F5F5F5F5F5F5F5E2F5F5F5F5F5F5F5F5F5F5F5F5F5F5F5F5F5F5F5F5F5F5F5F5F5F5F5F5F5F5F5F5F5F5F5F5F5F5F5F5F5F5F5F5F5F5F5F5F5F5F5F5F5F5F5F5F5F5F5F5F5F5F5F5F5F5F5F5F5F5F5F5F5F5F5F5F5F5F5F5F5F5F5F5F5F5F5F5F5F5F5F5F5F5F5F5F5F5F5F5F5F5F5F5F5F5F5F5F5F5F5F5F5F5F5F5
310
F5F5F5F5F5F5F5F5F5F5F5F5F5F5F5F5F5F5F5E2F5F5F5F5F5F5F5F5F5F5F5F5F5F5F5F5F5F5F5F5E2E2EFF5F5F5F5F5F5F5F5F5F5F5F5F5F5F5F5F5F5F5F5E2F5F5F5F5F5F5F5F5F5F5F5F5F5F5F5F5F5F5F5F5F5F5F5F5F5F5F5F5F5F5F5F5F5F5F5F5F5F5F5F5F5F5F5F5F5F5F5F5F5F5F5F5F5F5F5F5F5F5F5F5F5F5F5
310
F5F5F5F5F5F5F5F5F5F5F5F5F5F5F5F5F5F5F5F5F5F5F5F5F5F5F5F5F5F5F5F5F5F5F5F5F5F5F5F5F5F5F5F5F5F5F5F5F5F5F5F5F5F5F5F5F5F5F5F5F5F5F5F5F5F5F5F5F5F5F5F5E2F5F5F5F5F5F5F5F5F5F5F5F5F5F5F5F5F5F5F5F5E2E2EFF5F5F5F5F5F5F5F5F5F5F5F5F5F5F5F5F5F5F5F5E2F5F5F5F5F5F5F5F5F5F5
310
F5F5F5F5F5F5F5F5F5F5F5F5F5F5F5F5F5F5F5F5F5F5F5F5F5F5F5F5F5F5F5F5F5F5F5F5F5F5F5F5F5F5F5F5F5F5F5F5F5F5F5F5F5F5F5F5F5F5F5F5F5F5F5F5F5F5F5F5F5F5F5F5F5F5F5F5F5F5F5F5F5F5F5F5F5F5F5F5F5F5F5F5F5F5F5F5F5F5F5F5F5F5F5F5F5F5F5F5F5F5F5F5F5F5F5F5F5F5F5F5F5F5F5F5F5E2F5
310
F5F5F5F5F5F5F5F5F5F5F5F5F5F5F5F5F5F5F5E2E2EFF5F5F5F5F5F5F5F5F5F5F5F5F5F5F5F5F5F5F5F5E2F5F5F5F5F5F5F5F5F5F5F5F5F5F5F5F5F5F5F5F5F5F5F5F5F5F5F5F5F5F5F5F5F5F5F5F5F5F5F5F5F5F5F5F5F5F5F5F5F5F5F5F5F5F5F5F5F5F5F5F5F5F5F5F5F5F5F5F5F5F5F5F5F5F5F5F5F5F5F5F5F5F5F5F5
310
F5F5F5F5F5F5F5F5F5F5F5F5F5F5F5F5F5F5F5F5F5F5F5F5F5F5F5F5F5F5F5F5F5F5F5F5F5F5F5F5F5F5F5F5F5F5F5F5F5F5F5E2F5F5F5F5F5F5F5F5F5F5F5F5F5F5F5F5F5F5F5F5E2E2EFF5F5F5F5F5F5F5F5F5F5F5F5F5F5F5F5F5F5F5F5E2F5F5F5F5F5F5F5F5F5F5F5F5F5F5F5F5F5F5F5F5F5F5F5F5F5F5F5F5F5F5F5
310
F5F5F5F5F5F5F5F5F5F5F5F5F5F5F5F5F5F5F5F5F5F5F5F5F5F5F5F5F5F5F5F5F5F5F5F5F5F5F5F5F5F5F5F5F5F5F5F5F5F5F5F5F5F5F5F5F5F5F5F5F5F5F5F5F5F5F5F5F5F5F5F5F5F5F5F5F5F5F5F5F5F5F5F5F5F5F5F5F5F5F5F5F5F5F5F5F5F5F5F5F5F5F5F5E2F5F5F5F5F5F5F5F5F5F5F5F5F5F5F5F5F5F5F5F5E2E2
310
EFF5F5F5F5F5F5F5F5F5F5F5F5F5F5F5F5F5F5F5F5E2F5F5F5F5F5F5F5F5F5F5F5F5F5F5F5F5F5F5F5F5F5F5F5F5F5F5F5F5F5F5F5F5F5F5F5F5F5F5F5F5F5F5F5F5F5F5F5F5F5F5F5F5F5F5F5F5F5F5F5F5F5F5F5F5F5F5F5F5F5F5F5F5F5F5F5F5F5F5F5F5F5F5F5F5F5F5F5F5F5F5F5F5F5F5F5F5F5F5F5F5F5F5F5F5F5
310
F5F5F5F5F5F5F5F5F5F5F5F5F5F5F5F5F5F5F5F5F5F5F5F5F5F5F5F5F5F5E2F5F5F5F5F5F5F5F5F5F5F5F5F5F5F5F5F5F5F5F5E2E2EFF5F5F5F5F5F5F5F5F5F5F5F5F5F5F5F5F5F5F5F5E2F5F5F5F5F5F5F5F5F5F5F5F5F5F5F5F5F5F5F5F5F5F5F5F5F5F5F5F5F5F5F5F5F5F5F5F5F5F5F5F5F5F5F5F5F5F5F5F5F5F5F5F5
310
F5F5F5F5F5F5F5F5F5F5F5F5F5F5F5F5F5F5F5F5F5F5F5F5F5F5F5F5F5F5F5F5F5F5F5F5F5F5F5F5F5F5F5F5F5F5F5F5F5F5F5F5F5F5F5F5F5F5F5F5F5F5F5F5F5F5F5F5F5F5F5F5F5F5F5F5F5F5F5F5F5F5F5E2F5F5F5F5F5F5F5F5F5F5F5F5F5F5F5F5F5F5F5F5E2E2EFF5F5F5F5F5F5F5F5F5F5F5F5F5F5F5F5F5F5F5F5
310
E2F5F5F5F5F5F5F5F5F5F5F5F5F5F5F5F5F5F5F5F5F5F5F5F5F5F5F5F5F5F5F5F5F5F5F5F5F5F5F5F5F5F5F5F5F5F5F5F5F5F5F5F5F5F5F5F5F5F5F5F5F5F5F5F5F5F5F5F5F5F5F5F5F5F5F5F5F5F5F5F5F5F5F5F5F5F5F5F5F5F5F5F5F5F5F5F5F5F5F5F5F5F5F5F5F5F5F5F5F5F5F5F5F5F5F5F5F5F5F5F5F5F5F5F5F5F5
310
F5F5F5F5F5F5F5F5F5E2F5F5F5F5F5F5F5F5F5F5F5F5F5F5F5F5F5F5F5F5E2E2EFF5F5F5E2F5F5F5F5F5F5F5F5F5F5F5F5F5F5F5F5E2F5F5F5F5F5F5F5F5F5F5F5F5F5F5F5F5F5F5F5F5F5F5F5F5F5F5F5F5F5F5F5F5F5F5F5F5F5F5F5F5F5F5F5F5F5F5F5F5F5F5F5F5F5F5F5F5F5F5F5F5F5F5F5F5F5F5F5F5F5F5F5F5F5
310
F5F5F5F5F5F5F5F5F5F5F5F5F5F5F5F5F5F5F5F5F5F5F5F5F5F5F5F5F5F5F5F5F5F5F5F5F5F5F5F5F5F5F5F5F5F5F5F5F5F5F5F5F5F5F5F5F5F5F5F5F5F5E2F5F5F5F5F5F5F5F5F5F5F5F5F5F5F5F5E2F5F5F5E2E2EFF5F5F5E2F5F5F5F5F5F5F5F5F5F5F5F5F5F5F5F5E2F5F5F5F5F5F5F5F5F5F5F5F5F5F5F5F5F5F5F5F5
310
F5F5F5F5F5F5F5F5F5F5F5F5F5F5F5F5F5F5F5F5F5F5F5F5F5F5F5F5F5F5F5F5F5F5F5F5F5F5F5F5F5F5F5F5F5F5F5F5F5F5F5F5F5F5F5F5F5F5F5F5F5F5F5F5F5F5F5F5F5F5F5F5F5F5F5F5F5F5F5F5F5F5F5F5F5F5F5F5F5F5F5F5F5F5F5F5F5F5F5F5F5F5F5F5F5F5F5F5F5F5F5F5F5F5F5E2F5F5F5F5F5F5F5F5F5F5F5
310
F5F5F5F5F5E2F5F5F5E2E2EFF5F5F5E2F5F5F5F5F5F5F5F5F5F5F5F5F5F5F5F5E2F5F5F5F5F5F5F5F5F5F5F5F5F5F5F5F5F5F5F5F5F5F5F5F5F5F5F5F5F5F5F5F5F5F5F5F5F5F5F5F5F5F5F5F5F5F5F5F5F5F5F5F5F5F5F5F5F5F5F5F5F5F5F5F5F5F5F5F5F5F5F5F5F5F5F5F5F5F5F5F5F5F5F5F5F5F5F5F5F5F5F5F5F5F5
310
F5F5F5F5F5F5F5F5F5F5F5F5F5F5F5F5F5F5F5F5F5F5F5F5F5F5F5F5F5F5F5F5F5F5F5F5F5F5F5F5F5E2F5F5F5F5F5F5F5F5F5F5F5F5F5F5F5F5E2F5F5F5E2E2EFF5F5F5E2F5F5F5F5F5F5F5F5F5F5F5F5F5F5F5F5E2F5F5F5F5F5F5F5F5F5F5F5F5F5F5F5F5F5F5F5F5F5F5F5F5F5F5F5F5F5F5F5F5F5F5F5F5F5F5F5F5F5
310
F5F5F5F5F5F5F5F5F5F5F5F5F5F5F5F5F5F5F5F5F5F5F5F5F5F5F5F5F5F5F5F5F5F5F5F5F5F5F5F5F5F5F5F5F5F5F5F5F5F5F5F5F5F5F5F5F5F5F5F5F5F5F5F5F5F5F5F5F5F5F5F5F5F5F5F5F5F5F5F5F5F5F5F5F5F5F5F5F5F5F5F5F5F5E2F5F5F5F5F5F5F5F5F5F5F5F5F5F5F5F5E2F5F5F5E2E2EFF5F5F5E2F5F5F5F5F5
310
F5F5F5F5F5F5F5F5F5F5F5E2F5F5F5F5F5F5F5F5F5F5F5F5F5F5F5F5F5F5F5F5F5F5F5F5F5F5F5F5F5F5F5F5F5F5F5F5F5F5F5F5F5F5F5F5F5F5F5F5F5F5F5F5F5F5F5F5F5F5F5F5F5F5F5F5F5F5F5F5F5F5F5F5F5F5F5F5F5F5F5F5F5F5F5F5F5F5F5F5F5F5F5F5F5F5F5F5F5F5F5F5F5F5F5F5F5F5F5F5F5F5F5F5F5F5F5
310
F5F5F5F5F5F5F5F5F5F5F5F5F5F5F5F5F5F5F5F5E2F5F5F5F5F5F5F5F5F5F5F5F5F5F5F5F5E2F5F5F5E2E2EFF5F5F5E2F5F5F5F5F5F5F5F5F5F5F5F5F5F5F5F5E2F5F5F5F5F5F5F5F5F5F5F5F5F5F5F5F5F5F5F5F5F5F5F5F5F5F5F5F5F5F5F5F5F5F5F5F5F5F5F5F5F5F5F5F5F5F5F5F5F5F5F5F5F5F5F5F5F5F5F5F5F5F5
310
F5F5F5F5F5F5F5F5F5F5F5F5F5F5F5F5F5F5F5F5F5F5F5F5F5F5F5F5F5F5F5F5F5F5F5F5F5F5F5F5F5F5F5F5F5F5F5F5F5F5F5F5F5F5F5F5F5F5F5F5F5F5F5F5F5F5F5F5F5F5F5F5F5E2F5F5F5F5F5F5F5F5F5F5F5F5F5F5F5F5E2F5F5F5E2E2EFF5F5F5E2F5F5F5F5F5F5F5F5F5F5F5F5F5F5F5F5E2F5F5F5F5F5F5F5F5F5
310
F5F5F5F5F5F5F5F5F5F5F5F5F5F5F5F5F5F5F5F5F5F5F5F5F5F5F5F5F5F5F5F5F5F5F5F5F5F5F5F5F5F5F5F5F5F5F5F5F5F5F5F5F5F5F5F5F5F5F5F5F5F5F5F5F5F5F5F5F5F5F5F5F5F5F5F5F5F5F5F5F5F5F5F5F5F5F5F5F5F5F5F5F5F5F5F5F5F5F5F5F5F5F5F5F5F5F5F5F5F5F5F5F5F5F5F5F5F5F5F5F5F5F5F5F5F5E2
310
F5F5F5F5F5F5F5F5F5F5F5F5F5F5F5F5E2F5F5F5E2E2EFF5F5F5E2F5F5F5F5F5F5F5F5F5F5F5F5F5F5F5F5E2F5F5F5F5F5F5F5F5F5F5F5F5F5F5F5F5F5F5F5F5F5F5F5F5F5F5F5F5F5F5F5F5F5F5F5F5F5F5F5F5F5F5F5F5F5F5F5F5F5F5F5F5F5F5F5F5F5F5F5F5F5F5F5F5F5F5F5F5F5F5F5F5F5F5F5F5F5F5F5F5F5F5F5
310
F5F5F5F5F5F5F5F5F5F5F5F5F5F5F5F5F5F5F5F5F5F5F5F5F5F5F5F5F5F5F5F5F5F5F5F5F5F5F5F5F5F5F5F5F5F5F5F5F5F5F5F5E2F5F5F5F5F5F5F5F5F5F5F5F5F5F5F5F5E2F5F5F5E2E2EFF5F5F5E2F5F5F5F5F5F5F5F5F5F5F5F5F5F5F5F5E2F5F5F5F5F5F5F5F5F5F5F5F5F5F5F5F5F5F5F5F5F5F5F5F5F5F5F5F5F5F5
310
F5F5F5F5F5F5F5F5F5F5F5F5F5F5F5F5F5F5F5F5F5F5F5F5F5F5F5F5F5F5F5F5F5F5F5F5F5F5F5F5F5F5F5F5F5F5F5F5F5F5F5F5F5F5F5F5F5F5F5F5F5F5F5F5F5F5F5F5F5F5F5F5F5F5F5F5F5F5F5F5F5F5F5F5F5F5F5F5F5F5F5F5F5F5F5F5F5F5F5F5F5F5F5F5F5E2F5F5F5F5F5F5F5F5F5F5F5F5F5F5F5F5E2F5F5F5E2
310
E2EFF5F5F5E2F5F5F5F5F5F5F5F5F5F5F5F5F5F5F5F5E2F5F5F5F5F5F5F5F5F5F5F5F5F5F5F5F5F5F5F5F5F5F5F5F5F5F5F5F5F5F5F5F5F5F5F5F5F5F5F5F5F5F5F5F5F5F5F5F5F5F5F5F5F5F5F5F5F5F5F5F5F5F5F5F5F5F5F5F5F5F5F5F5F5F5F5F5F5F5F5F5F5F5F5F5F5F5F5F5F5F5F5F5F5F5F5F5F5F5F5F5F5F5F5F5
310
F5F5F5F5F5F5F5F5F5F5F5F5F5F5F5F5F5F5F5F5F5F5F5F5F5F5F5F5F5F5F5E2F5F5F5F5F5F5F5F5F5F5F5F5F5F5F5F5E2F5F5F5E2E2EFF5F5F5E2F5F5F5F5F5F5F5F5F5F5F5F5F5F5F5F5E2F5F5F5F5F5F5F5F5F5F5F5F5F5F5F5F5F5F5F5F5F5F5F5F5F5F5F5F5F5F5F5F5F5F5F5F5F5F5F5F5F5F5F5F5F5F5F5F5F5F5F5
310
F5F5F5F5F5F5F5F5F5F5F5F5F5F5F5F5F5F5F5F5F5F5F5F5F5F5F5F5F5F5F5F5F5F5F5F5F5F5F5F5F5F5F5F5F5F5F5F5F5F5F5F5F5F5F5F5F5F5F5F5F5F5F5F5F5F5F5F5F5F5F5F5F5F5F5F5F5F5F5F5F5F5F5F5E2F5F5F5F5F5F5F5F5F5F5F5F5F5F5F5F5E2F5F5F5E2E2EFF5F5F5E2F5F5F5F5F5F5F5F5F5F5F5F5F5F5F5
310
F5E2F5F5F5F5F5F5F5F5F5F5F5F5F5F5F5F5F5F5F5F5F5F5F5F5F5F5F5F5F5F5F5F5F5F5F5F5F5F5F5F5F5F5F5F5F5F5F5F5F5F5F5F5F5F5F5F5F5F5F5F5F5F5F5F5F5F5F5F5F5F5F5F5F5F5F5F5F5F5F5F5F5F5F5F5F5F5F5F5F5F5F5F5F5F5F5F5F5F5F5F5F5F5F5F5F5F5F5F5F5F5F5F5F5F5F5F5F5F5F5F5F5F5F5F5F5
310
F5F5F5F5F5F5F5F5F5F5E2F5F5F5F5F5F5F5F5F5F5F5F5F5F5F5F5E2F5F5F5E2E2EFF5F5F5E2F5F5F5F5F5F5F5F5F5F5F5F5F5F5F5F5E2F5F5F5F5F5F5F5F5F5F5F5F5F5F5F5F5F5F5F5F5F5F5F5F5F5F5F5F5F5F5F5F5F5F5F5F5F5F5F5F5F5F5F5F5F5F5F5F5F5F5F5F5F5F5F5F5F5F5F5F5F5F5F5F5F5F5F5F5F5F5F5F5
310
F5F5F5F5F5F5F5F5F5F5F5F5F5F5F5F5F5F5F5F5F5F5F5F5F5F5F5F5F5F5F5F5F5F5F5F5F5F5F5F5F5F5F5F5F5F5F5F5F5F5F5F5F5F5F5F5F5F5F5F5F5F5F5E2F5F5F5F5F5F5F5F5F5F5F5F5F5F5F5F5E2F5F5F5E2E2EFF5F5F5E2F5F5F5F5F5F5F5F5F5F5F5F5F5F5F5F5E2F5F5F5F5F5F5F5F5F5F5F5F5F5F5F5F5F5F5F5
310
F5F5F5F5F5F5F5F5F5F5F5F5F5F5F5F5F5F5F5F5F5F5F5F5F5F5F5F5F5F5F5F5F5F5F5F5F5F5F5F5F5F5F5F5F5F5F5F5F5F5F5F5F5F5F5F5F5F5F5F5F5F5F5F5F5F5F5F5F5F5F5F5F5F5F5F5F5F5F5F5F5F5F5F5F5F5F5F5F5F5F5F5F5F5F5F5F5F5F5F5F5F5F5F5F5F5F5F5F5F5F5F5F5F5F5F5E2F5F5F5F5F5F5F5F5F5F5
310
F5F5F5F5F5F5E2F5F5F5E2E2EFF5F5F5E2F5F5F5F5F5F5F5F5F5F5F5F5F5F5F5F5E2F5F5F5F5F5F5F5F5F5F5F5F5F5F5F5F5F5F5F5F5F5F5F5F5F5F5F5F5F5F5F5F5F5F5F5F5F5F5F5F5F5F5F5F5F5F5F5F5F5F5F5F5F5F5F5F5F5F5F5F5F5F5F5F5F5F5F5F5F5F5F5F5F5F5F5F5F5F5F5F5F5F5F5F5F5F5F5F5F5F5F5F5F5
310
F5F5F5F5F5F5F5F5F5F5F5F5F5F5F5F5F5F5F5F5F5F5F5F5F5F5F5F5F5F5F5F5F5F5F5F5F5F5F5F5F5F5E2F5F5F5F5F5F5F5F5F5F5F5F5F5F5F5F5E2F5F5F5E2E2EFF5F5F5E2F5F5F5F5F5F5F5F5F5F5F5F5F5F5F5F5E2F5F5F5F5F5F5F5F5F5F5F5F5F5F5F5F5F5F5F5F5F5F5F5F5F5F5F5F5F5F5F5F5F5F5F5F5F5F5F5F5
310
F5F5F5F5F5F5F5F5F5F5F5F5F5F5F5F5F5F5F5F5F5F5F5F5F5F5F5F5F5F5F5F5F5F5F5F5F5F5F5F5F5F5F5F5F5F5F5F5F5F5F5F5F5F5F5F5F5F5F5F5F5F5F5F5F5F5F5F5F5F5F5F5F5F5F5F5F5F5F5F5F5F5F5F5F5F5F5F5F5F5F5F5F5F5F5E2F5F5F5F5F5F5F5F5F5F5F5F5F5F5F5F5E2F5F5F5E2E2EFF5F5F5E2F5F5F5F5
310
F5F5F5F5F5F5F5F5F5F5F5F5E2F5F5F5F5F5F5F5F5F5F5F5F5F5F5F5F5F5F5F5F5F5F5F5F5F5F5F5F5F5F5F5F5F5F5F5F5F5F5F5F5F5F5F5F5F5F5F5F5F5F5F5F5F5F5F5F5F5F5F5F5F5F5F5F5F5F5F5F5F5F5F5F5F5F5F5F5F5F5F5F5F5F5F5F5F5F5F5F5F5F5F5F5F5F5F5F5F5F5F5F5F5F5F5F5F5F5F5F5F5F5F5F5F5F5
310
F5F5F5F5F5F5F5F5F5F5F5F5F5F5F5F5F5F5F5F5F5E2F5F5F5F5F5F5F5F5F5F5F5F5F5F5F5F5E2F5F5F5E2E2EFF5F5F5F5F5F5F5F5F5F5F5F5F5F5F5F5F5F5F5F5E2F5F5F5F5F5F5F5F5F5F5F5F5F5F5F5F5F5F5F5F5F5F5F5F5F5F5F5F5F5F5F5F5F5F5F5F5F5F5F5F5F5F5F5F5F5F5F5F5F5F5F5F5F5F5F5F5F5F5F5F5F5
310
F5F5F5F5F5F5F5F5F5F5F5F5F5F5F5F5F5F5F5F5F5F5F5F5F5F5F5F5F5F5F5F5F5F5F5F5F5F5F5F5F5F5F5F5F5F5F5F5F5F5F5F5F5F5F5F5F5F5F5F5F5F5F5F5F5F5F5F5F5F5F5F5F5F5E2F5F5F5F5F5F5F5F5F5F5F5F5F5F5F5F5F5F5F5F5E2E2EFF5F5F5F5F5F5F5F5F5F5F5F5F5F5F5F5F5F5F5F5E2F5F5F5F5F5F5F5F5
310
F5F5F5F5F5F5F5F5F5F5F5F5F5F5F5F5F5F5F5F5F5F5F5F5F5F5F5F5F5F5F5F5F5F5F5F5F5F5F5F5F5F5F5F5F5F5F5F5F5F5F5F5F5F5F5F5F5F5F5F5F5F5F5F5F5F5F5F5F5F5F5F5F5F5F5F5F5F5F5F5F5F5F5F5F5F5F5F5F5F5F5F5F5F5F5F5F5F5F5F5F5F5F5F5F5F5F5F5F5F5F5F5F5F5F5F5F5F5F5F5F5F5F5F5F5F5F5
310
E2F5F5F5F5F5F5F5F5F5F5F5F5F5F5F5F5F5F5F5F5E2E2EFF5F5F5F5F5F5F5F5F5F5F5F5F5F5F5F5F5F5F5F5E2F5F5F5F5F5F5F5F5F5F5F5F5F5F5F5F5F5F5F5F5F5F5F5F5F5F5F5F5F5F5F5F5F5F5F5F5F5F5F5F5F5F5F5F5F5F5F5F5F5F5F5F5F5F5F5F5F5F5F5F5F5F5F5F5F5F5F5F5F5F5F5F5F5F5F5F5F5F5F5F5F5F5
310
F5F5F5F5F5F5F5F5F5F5F5F5F5F5F5F5F5F5F5F5F5F5F5F5F5F5F5F5F5F5F5F5F5F5F5F5F5F5F5F5F5F5F5F5F5F5F5F5F5F5F5F5F5E2F5F5F5F5F5F5F5F5F5F5F5F5F5F5F5F5F5F5F5F5E2E2EFF5F5F5F5F5F5F5F5F5F5F5F5F5F5F5F5F5F5F5F5E2F5F5F5F5F5F5F5F5F5F5F5F5F5F5F5F5F5F5F5F5F5F5F5F5F5F5F5F5F5
310
F5F5F5F5F5F5F5F5F5F5F5F5F5F5F5F5F5F5F5F5F5F5F5F5F5F5F5F5F5F5F5F5F5F5F5F5F5F5F5F5F5F5F5F5F5F5F5F5F5F5F5F5F5F5F5F5F5F5F5F5F5F5F5F5F5F5F5F5F5F5F5F5F5F5F5F5F5F5F5F5F5F5F5F5F5F5F5F5F5F5F5F5F5F5F5F5F5F5F5F5F5F5F5F5F5F5E2F5F5F5F5F5F5F5F5F5F5F5F5F5F5F5F5F5F5F5F5
310
E2E2EFF5F5F5F5F5F5F5F5F5F5F5F5F5F5F5F5F5F5F5F5E2F5F5F5F5F5F5F5F5F5F5F5F5F5F5F5F5F5F5F5F5F5F5F5F5F5F5F5F5F5F5F5F5F5F5F5F5F5F5F5F5F5F5F5F5F5F5F5F5F5F5F5F5F5F5F5F5F5F5F5F5F5F5F5F5F5F5F5F5F5F5F5F5F5F5F5F5F5F5F5F5F5F5F5F5F5F5F5F5F5F5F5F5F5F5F5F5F5F5F5F5F5F5F5
310
F5F5F5F5F5F5F5F5F5F5F5F5F5F5F5F5F5F5F5F5F5F5F5F5F5F5F5F5F5F5F5F5E2F5F5F5F5F5F5F5F5F5F5F5F5F5F5F5F5F5F5F5F5E2E2EFF5F5F5F5F5F5F5F5F5F5F5F5F5F5F5F5F5F5F5F5E2F5F5F5F5F5F5F5F5F5F5F5F5F5F5F5F5F5F5F5F5F5F5F5F5F5F5F5F5F5F5F5F5F5F5F5F5F5F5F5F5F5F5F5F5F5F5F5F5F5F5
310
F5F5F5F5F5F5F5F5F5F5F5F5F5F5F5F5F5F5F5F5F5F5F5F5F5F5F5F5F5F5F5F5F5F5F5F5F5F5F5F5F5F5F5F5F5F5F5F5F5F5F5F5F5F5F5F5F5F5F5F5F5F5F5F5F5F5F5F5F5F5F5F5F5F5F5F5F5F5F5F5F5F5F5F5F5E2F5F5F5F5F5F5F5F5F5F5F5F5F5F5F5F5F5F5F5F5E2E2EFF5F5F5F5F5F5F5F5F5F5F5F5F5F5F5F5F5F5
310
F5F5E2F5F5F5F5F5F5F5F5F5F5F5F5F5F5F5F5F5F5F5F5F5F5F5F5F5F5F5F5F5F5F5F5F5F5F5F5F5F5F5F5F5F5F5F5F5F5F5F5F5F5F5F5F5F5F5F5F5F5F5F5F5F5F5F5F5F5F5F5F5F5F5F5F5F5F5F5F5F5F5F5F5F5F5F5F5F5F5F5F5F5F5F5F5F5F5F5F5F5F5F5F5F5F5F5F5F5F5F5F5F5F5F5F5F5F5F5F5F5F5F5F5F5F5F5
310
F5F5F5F5F5F5F5F5F5F5F5E2F5F5F5F5F5F5F5F5F5F5F5F5F5F5F5F5F5F5F5F5E2E2EFF5F5F5F5F5F5F5F5F5F5F5F5F5F5F5F5F5F5F5F5E2F5F5F5F5F5F5F5F5F5F5F5F5F5F5F5F5F5F5F5F5F5F5F5F5F5F5F5F5F5F5F5F5F5F5F5F5F5F5F5F5F5F5F5F5F5F5F5F5F5F5F5F5F5F5F5F5F5F5F5F5F5F5F5F5F5F5F5F5F5F5F5
310
F5F5F5F5F5F5F5F5F5F5F5F5F5F5F5F5F5F5F5F5F5F5F5F5F5F5F5F5F5F5F5F5F5F5F5F5F5F5F5F5F5F5F5F5F5F5F5F5F5F5F5F5F5F5F5F5F5F5F5F5F5F5F5F5E2F5F5F5F5F5F5F5F5F5F5F5F5F5F5F5F5F5F5F5F5E2E2EFF5F5F5F5F5F5F5F5F5F5F5F5F5F5F5F5F5F5F5F5E2F5F5F5F5F5F5F5F5F5F5F5F5F5F5F5F5F5F5
310
F5F5F5F5F5F5F5F5F5F5F5F5F5F5F5F5F5F5F5F5F5F5F5F5F5F5F5F5F5F5F5F5F5F5F5F5F5F5F5F5F5F5F5F5F5F5F5F5F5F5F5F5F5F5F5F5F5F5F5F5F5F5F5F5F5F5F5F5F5F5F5F5F5F5F5F5F5F5F5F5F5F5F5F5F5F5F5F5F5F5F5F5F5F5F5F5F5F5F5F5F5F5F5F5F5F5F5F5F5F5F5F5F5F5F5F5F5E2F5F5F5F5F5F5F5F5F5
310
F5F5F5F5F5F5F5F5F5F5F5E2E2EFF5F5F5E2F5F5F5F5F5F5F5F5F5F5F5F5F5F5F5F5E2F5F5F5F5F5F5F5F5F5F5F5F5F5F5F5F5F5F5F5F5F5F5F5F5F5F5F5F5F5F5F5F5F5F5F5F5F5F5F5F5F5F5F5F5F5F5F5F5F5F5F5F5F5F5F5F5F5F5F5F5F5F5F5F5F5F5F5F5F5F5F5F5F5F5F5F5F5F5F5F5F5F5F5F5F5F5F5F5F5F5F5F5
310
F5F5F5F5F5F5F5F5F5F5F5F5F5F5F5F5F5F5F5F5F5F5F5F5F5F5F5F5F5F5F5F5F5F5F5F5F5F5F5F5F5F5F5E2F5F5F5F5F5F5F5F5F5F5F5F5F5F5F5F5E2F5F5F5E2E2EFF5F5F5E2F5F5F5F5F5F5F5F5F5F5F5F5F5F5F5F5E2F5F5F5F5F5F5F5F5F5F5F5F5F5F5F5F5F5F5F5F5F5F5F5F5F5F5F5F5F5F5F5F5F5F5F5F5F5F5F5
310
F5F5F5F5F5F5F5F5F5F5F5F5F5F5F5F5F5F5F5F5F5F5F5F5F5F5F5F5F5F5F5F5F5F5F5F5F5F5F5F5F5F5F5F5F5F5F5F5F5F5F5F5F5F5F5F5F5F5F5F5F5F5F5F5F5F5F5F5F5F5F5F5F5F5F5F5F5F5F5F5F5F5F5F5F5F5F5F5F5F5F5F5F5F5F5F5E2F5F5F5F5F5F5F5F5F5F5F5F5F5F5F5F5E2F5F5F5E2E2EFF5F5F5E2F5F5F5
310
F5F5F5F5F5F5F5F5F5F5F5F5F5E2F5F5F5F5F5F5F5F5F5F5F5F5F5F5F5F5F5F5F5F5F5F5F5F5F5F5F5F5F5F5F5F5F5F5F5F5F5F5F5F5F5F5F5F5F5F5F5F5F5F5F5F5F5F5F5F5F5F5F5F5F5F5F5F5F5F5F5F5F5F5F5F5F5F5F5F5F5F5F5F5F5F5F5F5F5F5F5F5F5F5F5F5F5F5F5F5F5F5F5F5F5F5F5F5F5F5F5F5F5F5F5F5F5
310
F5F5F5F5F5F5F5F5F5F5F5F5F5F5F5F5F5F5F5F5F5F5E2F5F5F5F5F5F5F5F5F5F5F5F5F5F5F5F5E2F5F5F5E2E2EFF5F5F5E2F5F5F5F5F5F5F5F5F5F5F5F5F5F5F5F5E2F5F5F5F5F5F5F5F5F5F5F5F5F5F5F5F5F5F5F5F5F5F5F5F5F5F5F5F5F5F5F5F5F5F5F5F5F5F5F5F5F5F5F5F5F5F5F5F5F5F5F5F5F5F5F5F5F5F5F5F5
310
F5F5F5F5F5F5F5F5F5F5F5F5F5F5F5F5F5F5F5F5F5F5F5F5F5F5F5F5F5F5F5F5F5F5F5F5F5F5F5F5F5F5F5F5F5F5F5F5F5F5F5F5F5F5F5F5F5F5F5F5F5F5F5F5F5F5F5F5F5F5F5F5F5F5F5E2F5F5F5F5F5F5F5F5F5F5F5F5F5F5F5F5E2F5F5F5E2E2EFF5F5F5E2F5F5F5F5F5F5F5F5F5F5F5F5F5F5F5F5E2F5F5F5F5F5F5F5
310
F5F5F5F5F5F5F5F5F5F5F5F5F5F5F5F5F5F5F5F5F5F5F5F5F5F5F5F5F5F5F5F5F5F5F5F5F5F5F5F5F5F5F5F5F5F5F5F5F5F5F5F5F5F5F5F5F5F5F5F5F5F5F5F5F5F5F5F5F5F5F5F5F5F5F5F5F5F5F5F5F5F5F5F5F5F5F5F5F5F5F5F5F5F5F5F5F5F5F5F5F5F5F5F5F5F5F5F5F5F5F5F5F5F5F5F5F5F5F5F5F5F5F5F5F5F5F5
310
F5E2F5F5F5F5F5F5F5F5F5F5F5F5F5F5F5F5E2F5F5F5E2E2EFF5F5F5E2F5F5F5F5F5F5F5F5F5F5F5F5F5F5F5F5E2F5F5F5F5F5F5F5F5F5F5F5F5F5F5F5F5F5F5F5F5F5F5F5F5F5F5F5F5F5F5F5F5F5F5F5F5F5F5F5F5F5F5F5F5F5F5F5F5F5F5F5F5F5F5F5F5F5F5F5F5F5F5F5F5F5F5F5F5F5F5F5F5F5F5F5F5F5F5F5F5F5
310
F5F5F5F5F5F5F5F5F5F5F5F5F5F5F5F5F5F5F5F5F5F5F5F5F5F5F5F5F5F5F5F5F5F5F5F5F5F5F5F5F5F5F5F5F5F5F5F5F5F5F5F5F5F5E2F5F5F5F5F5F5F5F5F5F5F5F5F5F5F5F5E2F5F5F5E2E2EFF5F5F5E2F5F5F5F5F5F5F5F5F5F5F5F5F5F5F5F5E2F5F5F5F5F5F5F5F5F5F5F5F5F5F5F5F5F5F5F5F5F5F5F5F5F5F5F5F5
310
F5F5F5F5F5F5F5F5F5F5F5F5F5F5F5F5F5F5F5F5F5F5F5F5F5F5F5F5F5F5F5F5F5F5F5F5F5F5F5F5F5F5F5F5F5F5F5F5F5F5F5F5F5F5F5F5F5F5F5F5F5F5F5F5F5F5F5F5F5F5F5F5F5F5F5F5F5F5F5F5F5F5F5F5F5F5F5F5F5F5F5F5F5F5F5F5F5F5F5F5F5F5F5F5F5F5F5E2F5F5F5F5F5F5F5F5F5F5F5F5F5F5F5F5E2F5F5
310
F5E2E2EFF5F5F5E2F5F5F5F5F5F5F5F5F5F5F5F5F5F5F5F5E2F5F5F5F5F5F5F5F5F5F5F5F5F5F5F5F5F5F5F5F5F5F5F5F5F5F5F5F5F5F5F5F5F5F5F5F5F5F5F5F5F5F5F5F5F5F5F5F5F5F5F5F5F5F5F5F5F5F5F5F5F5F5F5F5F5F5F5F5F5F5F5F5F5F5F5F5F5F5F5F5F5F5F5F5F5F5F5F5F5F5F5F5F5F5F5F5F5F5F5F5F5F5
310
F5F5F5F5F5F5F5F5F5F5F5F5F5F5F5F5F5F5F5F5F5F5F5F5F5F5F5F5F5F5F5F5F5E2F5F5F5F5F5F5F5F5F5F5F5F5F5F5F5F5E2F5F5F5E2E2EFF5F5F5E2F5F5F5F5F5F5F5F5F5F5F5F5F5F5F5F5E2F5F5F5F5F5F5F5F5F5F5F5F5F5F5F5F5F5F5F5F5F5F5F5F5F5F5F5F5F5F5F5F5F5F5F5F5F5F5F5F5F5F5F5F5F5F5F5F5F5
310
F5F5F5F5F5F5F5F5F5F5F5F5F5F5F5F5F5F5F5F5F5F5F5F5F5F5F5F5F5F5F5F5F5F5F5F5F5F5F5F5F5F5F5F5F5F5F5F5F5F5F5F5F5F5F5F5F5F5F5F5F5F5F5F5F5F5F5F5F5F5F5F5F5F5F5F5F5F5F5F5F5F5F5F5F5F5E2F5F5F5F5F5F5F5F5F5F5F5F5F5F5F5F5E2F5F5F5E2E2EFF5F5F5E2F5F5F5F5F5F5F5F5F5F5F5F5F5
310
F5F5F5E2F5F5F5F5F5F5F5F5F5F5F5F5F5F5F5F5F5F5F5F5F5F5F5F5F5F5F5F5F5F5F5F5F5F5F5F5F5F5F5F5F5F5F5F5F5F5F5F5F5F5F5F5F5F5F5F5F5F5F5F5F5F5F5F5F5F5F5F5F5F5F5F5F5F5F5F5F5F5F5F5F5F5F5F5F5F5F5F5F5F5F5F5F5F5F5F5F5F5F5F5F5F5F5F5F5F5F5F5F5F5F5F5F5F5F5F5F5F5F5F5F5F5F5
310
F5F5F5F5F5F5F5F5F5F5F5F5E2F5F5F5F5F5F5F5F5F5F5F5F5F5F5F5F5E2F5F5F5E2E2EFF5F5F5E2F5F5F5F5F5F5F5F5F5F5F5F5F5F5F5F5E2F5F5F5F5F5F5F5F5F5F5F5F5F5F5F5F5F5F5F5F5F5F5F5F5F5F5F5F5F5F5F5F5F5F5F5F5F5F5F5F5F5F5F5F5F5F5F5F5F5F5F5F5F5F5F5F5F5F5F5F5F5F5F5F5F5F5F5F5F5F5
310
F5F5F5F5F5F5F5F5F5F5F5F5F5F5F5F5F5F5F5F5F5F5F5F5F5F5F5F5F5F5F5F5F5F5F5F5F5F5F5F5F5F5F5F5F5F5F5F5F5F5F5F5F5F5F5F5F5F5F5F5F5F5F5F5F5E2F5F5F5F5F5F5F5F5F5F5F5F5F5F5F5F5E2F5F5F5E2E2EFF5F5F5E2F5F5F5F5F5F5F5F5F5F5F5F5F5F5F5F5E2F5F5F5F5F5F5F5F5F5F5F5F5F5F5F5F5F5
310
F5F5F5F5F5F5F5F5F5F5F5F5F5F5F5F5F5F5F5F5F5F5F5F5F5F5F5F5F5F5F5F5F5F5F5F5F5F5F5F5F5F5F5F5F5F5F5F5F5F5F5F5F5F5F5F5F5F5F5F5F5F5F5F5F5F5F5F5F5F5F5F5F5F5F5F5F5F5F5F5F5F5F5F5F5F5F5F5F5F5F5F5F5F5F5F5F5F5F5F5F5F5F5F5F5F5F5F5F5F5F5F5F5F5F5F5F5F5E2F5F5F5F5F5F5F5F5
310
F5F5F5F5F5F5F5F5E2F5F5F5E2E2EFF5F5F5E2F5F5F5F5F5F5F5F5F5F5F5F5F5F5F5F5E2F5F5F5F5F5F5F5F5F5F5F5F5F5F5F5F5F5F5F5F5F5F5F5F5F5F5F5F5F5F5F5F5F5F5F5F5F5F5F5F5F5F5F5F5F5F5F5F5F5F5F5F5F5F5F5F5F5F5F5F5F5F5F5F5F5F5F5F5F5F5F5F5F5F5F5F5F5F5F5F5F5F5F5F5F5F5F5F5F5F5F5
310
F5F5F5F5F5F5F5F5F5F5F5F5F5F5F5F5F5F5F5F5F5F5F5F5F5F5F5F5F5F5F5F5F5F5F5F5F5F5F5F5F5F5F5F5E2F5F5F5F5F5F5F5F5F5F5F5F5F5F5F5F5E2F5F5F5E2E2EFF5F5F5E2F5F5F5F5F5F5F5F5F5F5F5F5F5F5F5F5E2F5F5F5F5F5F5F5F5F5F5F5F5F5F5F5F5F5F5F5F5F5F5F5F5F5F5F5F5F5F5F5F5F5F5F5F5F5F5
310
F5F5F5F5F5F5F5F5F5F5F5F5F5F5F5F5F5F5F5F5F5F5F5F5F5F5F5F5F5F5F5F5F5F5F5F5F5F5F5F5F5F5F5F5F5F5F5F5F5F5F5F5F5F5F5F5F5F5F5F5F5F5F5F5F5F5F5F5F5F5F5F5F5F5F5F5F5F5F5F5F5F5F5F5F5F5F5F5F5F5F5F5F5F5F5F5F5E2F5F5F5F5F5F5F5F5F5F5F5F5F5F5F5F5E2F5F5F5E2E2EFF5F5F5E2F5F5
310
F5F5F5F5F5F5F5F5F5F5F5F5F5F5E2F5F5F5F5F5F5F5F5F5F5F5F5F5F5F5F5F5F5F5F5F5F5F5F5F5F5F5F5F5F5F5F5F5F5F5F5F5F5F5F5F5F5F5F5F5F5F5F5F5F5F5F5F5F5F5F5F5F5F5F5F5F5F5F5F5F5F5F5F5F5F5F5F5F5F5F5F5F5F5F5F5F5F5F5F5F5F5F5F5F5F5F5F5F5F5F5F5F5F5F5F5F5F5F5F5F5F5F5F5F5F5F5
310
F5F5F5F5F5F5F5F5F5F5F5F5F5F5F5F5F5F5F5F5F5F5F5E2F5F5F5F5F5F5F5F5F5F5F5F5F5F5F5F5E2F5F5F5E2E2EFF5F5F5E2F5F5F5F5F5F5F5F5F5F5F5F5F5F5F5F5E2F5F5F5F5F5F5F5F5F5F5F5F5F5F5F5F5F5F5F5F5F5F5F5F5F5F5F5F5F5F5F5F5F5F5F5F5F5F5F5F5F5F5F5F5F5F5F5F5F5F5F5F5F5F5F5F5F5F5F5
310
F5F5F5F5F5F5F5F5F5F5F5F5F5F5F5F5F5F5F5F5F5F5F5F5F5F5F5F5F5F5F5F5F5F5F5F5F5F5F5F5F5F5F5F5F5F5F5F5F5F5F5F5F5F5F5F5F5F5F5F5F5F5F5F5F5F5F5F5F5F5F5F5F5F5F5F5E2F5F5F5F5F5F5F5F5F5F5F5F5F5F5F5F5E2F5F5F5E2E2EFF5F5F5E2F5F5F5F5F5F5F5F5F5F5F5F5F5F5F5F5E2F5F5F5F5F5F5
310
F5F5F5F5F5F5F5F5F5F5F5F5F5F5F5F5F5F5F5F5F5F5F5F5F5F5F5F5F5F5F5F5F5F5F5F5F5F5F5F5F5F5F5F5F5F5F5F5F5F5F5F5F5F5F5F5F5F5F5F5F5F5F5F5F5F5F5F5F5F5F5F5F5F5F5F5F5F5F5F5F5F5F5F5F5F5F5F5F5F5F5F5F5F5F5F5F5F5F5F5F5F5F5F5F5F5F5F5F5F5F5F5F5F5F5F5F5F5F5F5F5F5F5F5F5F5F5
310
F5F5E2F5F5F5F5F5F5F5F5F5F5F5F5F5F5F5F5E2F5F5F5E2E2EFF5F5F5F5F5F5F5F5F5F5F5F5F5F5F5F5F5F5F5F5E2F5F5F5F5F5F5F5F5F5F5F5F5F5F5F5F5F5F5F5F5F5F5F5F5F5F5F5F5F5F5F5F5F5F5F5F5F5F5F5F5F5F5F5F5F5F5F5F5F5F5F5F5F5F5F5F5F5F5F5F5F5F5F5F5F5F5F5F5F5F5F5F5F5F5F5F5F5F5F5F5
310
F5F5F5F5F5F5F5F5F5F5F5F5F5F5F5F5F5F5F5F5F5F5F5F5F5F5F5F5F5F5F5F5F5F5F5F5F5F5F5F5F5F5F5F5F5F5F5F5F5F5F5F5F5F5F5E2F5F5F5F5F5F5F5F5F5F5F5F5F5F5F5F5F5F5F5F5E2E2EFF5F5F5F5F5F5F5F5F5F5F5F5F5F5F5F5F5F5F5F5E2F5F5F5F5F5F5F5F5F5F5F5F5F5F5F5F5F5F5F5F5F5F5F5F5F5F5F5
310
F5F5F5F5F5F5F5F5F5F5F5F5F5F5F5F5F5F5F5F5F5F5F5F5F5F5F5F5F5F5F5F5F5F5F5F5F5F5F5F5F5F5F5F5F5F5F5F5F5F5F5F5F5F5F5F5F5F5F5F5F5F5F5F5F5F5F5F5F5F5F5F5F5F5F5F5F5F5F5F5F5F5F5F5F5F5F5F5F5F5F5F5F5F5F5F5F5F5F5F5F5F5F5F5F5F5F5F5E2F5F5F5F5F5F5F5F5F5F5F5F5F5F5F5F5F5F5
310
F5F5E2E2EFF5F5F5F5F5F5F5F5F5F5F5F5F5F5F5F5F5F5F5F5E2F5F5F5F5F5F5F5F5F5F5F5F5F5F5F5F5F5F5F5F5F5F5F5F5F5F5F5F5F5F5F5F5F5F5F5F5F5F5F5F5F5F5F5F5F5F5F5F5F5F5F5F5F5F5F5F5F5F5F5F5F5F5F5F5F5F5F5F5F5F5F5F5F5F5F5F5F5F5F5F5F5F5F5F5F5F5F5F5F5F5F5F5F5F5F5F5F5F5F5F5F5
310
F5F5F5F5F5F5F5F5F5F5F5F5F5F5F5F5F5F5F5F5F5F5F5F5F5F5F5F5F5F5F5F5F5F5E2F5F5F5F5F5F5F5F5F5F5F5F5F5F5F5F5F5F5F5F5E2E2EFF5F5F5F5F5F5F5F5F5F5F5F5F5F5F5F5F5F5F5F5E2F5F5F5F5F5F5F5F5F5F5F5F5F5F5F5F5F5F5F5F5F5F5F5F5F5F5F5F5F5F5F5F5F5F5F5F5F5F5F5F5F5F5F5F5F5F5F5F5
310
F5F5F5F5F5F5F5F5F5F5F5F5F5F5F5F5F5F5F5F5F5F5F5F5F5F5F5F5F5F5F5F5F5F5F5F5F5F5F5F5F5F5F5F5F5F5F5F5F5F5F5F5F5F5F5F5F5F5F5F5F5F5F5F5F5F5F5F5F5F5F5F5F5F5F5F5F5F5F5F5F5F5F5F5F5F5F5E2F5F5F5F5F5F5F5F5F5F5F5F5F5F5F5F5F5F5F5F5E2E2EFF5F5F5F5F5F5F5F5F5F5F5F5F5F5F5F5
310
F5F5F5F5E2E2E2E2E2E2E2E2E2E2E2E2E2E2E2E2E2E2E2E2E2E2E2E2E2E2E2E2E2E2E2E2E2E2E2E2E2E2E2E2E2E2E2E2E2E2E2E2E2E2E2E2E2E2E2E2E2E2E2E2E2E2E2E2E2E2E2E2E2E2E2E2E2E2E2E2E2E2E2E2E2E2E2E2E2E2E2E2E2E2E2E2E2E2E2E2E2E2E2E2E2E2E2E2E2E2E2E2E2E2E2E2E2E2E2E2E2E2E2E2E2E2E2
310
E2E2E2E2E2E2E2E2E2E2E2E2E2E2F5F5F5F5F5F5F5F5F5F5F5F5F5F5F5F5F5F5F5F5E2E2EFF5F5F5F5F5F5F5F5F5F5F5F5F5F5F5F5F5F5F5F5F5F5F5F5F5F5F5F5F5F5F5F5F5F5F5F5F5F5F5F5F5F5F5F5F5F5F5F5F5F5F5F5F5F5F5F5F5F5F5F5F5F5F5F5F5F5F5F5F5F5F5F5F5F5F5F5F5F5F5F5F5F5F5F5F5F5F5F5F5F5
310
F5F5F5F5F5F5F5F5F5F5F5F5F5F5F5F5F5F5F5F5F5F5F5F5F5F5F5F5F5F5F5F5F5F5F5F5F5F5F5F5F5F5F5F5F5F5F5F5F5F5F5F5F5F5F5F5F5F5F5F5F5F5F5F5F5F5F5F5F5F5F5F5F5F5F5F5F5F5F5F5F5F5F5F5F5F5F5E2E2EFF5F5F5F5F5F5F5F5F5F5F5F5F5F5F5F5F5F5F5F5F5F5F5F5F5F5F5F5F5F5F5F5F5F5F5F5F5
310
F5F5F5F5F5F5F5F5F5F5F5F5F5F5F5F5F5F5F5F5F5F5F5F5F5F5F5F5F5F5F5F5F5F5F5F5F5F5F5F5F5F5F5F5F5F5F5F5F5F5F5F5F5F5F5F5F5F5F5F5F5F5F5F5F5F5F5F5F5F5F5F5F5F5F5F5F5F5F5F5F5F5F5F5F5F5F5F5F5F5F5F5F5F5F5F5F5F5F5F5F5F5F5F5F5F5F5F5F5F5F5F5F5F5F5F5F5F5F5F5F5F5F5F5F5F5F5
310
F5F5F5F5F5F5F5F5F5F5F5F5F5E2E2EFF5F5F5F5F5F5F5F5F5F5F5F5F5F5F5F5F5F5F5F5F5F5F5F5F5F5F5F5F5F5F5F5F5F5F5F5F5F5F5F5F5F5F5F5F5F5F5F5F5F5F5F5F5F5F5F5F5F5F5F5F5F5F5F5F5F5F5F5F5F5F5F5F5F5F5F5F5F5F5F5F5F5F5F5F5F5F5F5F5F5F5F5F5F5F5F5F5F5F5F5F5F5F5F5F5F5F5F5F5F5F5
310
F5F5F5F5F5F5F5F5F5F5F5F5F5F5F5F5F5F5F5F5F5F5F5F5F5F5F5F5F5F5F5F5F5F5F5F5F5F5F5F5F5F5F5F5F5F5F5F5F5F5F5F5F5F5F5F5F5F5F5F5F5F5F5F5F5F5E2E2EFF5F5F5F5F5F5F5F5F5F5F5F5F5F5F5F5F5F5F5F5F5F5F5F5F5F5F5F5F5F5F5F5F5F5F5F5F5F5F5F5F5F5F5F5F5F5F5F5F5F5F5F5F5F5F5F5F5F5
310
F5F5F5F5F5F5F5F5F5F5F5F5F5F5F5F5F5F5F5F5F5F5F5F5F5F5F5F5F5F5F5F5F5F5F5F5F5F5F5F5F5F5F5F5F5F5F5F5F5F5F5F5F5F5F5F5F5F5F5F5F5F5F5F5F5F5F5F5F5F5F5F5F5F5F5F5F5F5F5F5F5F5F5F5F5F5F5F5F5F5F5F5F5F5F5F5F5F5F5F5F5F5F5F5F5F5F5F5F5F5F5F5F5F5F5F5F5F5F5E2E2EFF5F5F5E2F5
310
F5F5F5F5F5F5F5F5F5F5F5F5F5F5F5F5F5F5F5F5F5F5F5F5F5F5F5F5F5F5F5F5F5F5F5F5F5F5F5F5F5F5F5F5F5F5F5F5F5F5F5F5F5F5F5F5F5F5F5F5F5F5F5F5F5F5F5F5F5F5F5F5F5F5F5F5F5F5F5F5F5F5F5F5F5F5F5F5F5F5F5F5F5F5F5F5F5F5F5F5F5F5F5F5F5F5F5F5F5F5F5F5F5F5F5F5F5F5F5F5F5F5F5F5F5F5F5
310
F5F5F5F5F5F5F5F5F5F5F5F5F5F5F5F5F5F5F5F5F5F5F5F5F5F5F5F5F5F5F5F5F5F5F5F5F5F5F5F5F5E2F5F5F5E2E2EFF5F5F5E2F5F5F5F5F5F5F5F5F5F5F5F5F5F5F5F5F5F5F5F5F5F5F5F5F5F5F5F5F5F5F5F5F5F5F5F5F5F5F5F5F5F5F5F5F5F5F5F5F5F5F5F5F5F5F5F5F5F5F5F5F5F5F5F5F5F5F5F5F5F5F5F5F5F5F5
310
F5F5F5F5F5F5F5F5F5F5F5F5F5F5F5F5F5F5F5F5F5F5F5F5F5F5F5F5F5F5F5F5F5F5F5F5F5F5F5F5F5F5F5F5F5F5F5F5F5F5F5F5F5F5F5F5F5F5F5F5F5F5F5F5F5F5F5F5F5F5F5F5F5F5F5F5F5F5F5F5F5F5F5F5F5F5F5F5F5F5F5F5F5F5E2F5F5F5E2E2EFF5F5F5E2F5F5F5F5F5F5F5F5F5F5F5F5F5F5F5F5F5F5F5F5F5F5
310
F5F5F5F5F5F5F5F5F5F5F5F5F5F5F5F5F5F5F5F5F5F5F5F5F5F5F5F5F5F5F5F5F5F5F5F5F5F5F5F5F5F5F5F5F5F5F5F5F5F5F5F5F5F5F5F5F5F5F5F5F5F5F5F5F5F5F5F5F5F5F5F5F5F5F5F5F5F5F5F5F5F5F5F5F5F5F5F5F5F5F5F5F5F5F5F5F5F5F5F5F5F5F5F5F5F5F5F5F5F5F5F5F5F5F5F5F5F5F5F5F5F5F5F5F5F5F5
310
F5F5F5F5F5F5F5F5F5F5F5F5F5F5F5F5F5F5F5F5E2F5F5F5E2E2EFF5F5F5E2F5F5F5F5F5F5F5F5F5F5F5F5F5F5F5F5F5F5F5F5F5F5F5F5F5F5F5F5F5F5F5F5F5F5F5F5F5F5F5F5F5F5F5F5F5F5F5F5F5F5F5F5F5F5F5F5F5F5F5F5F5F5F5F5F5F5F5F5F5F5F5F5F5F5F5F5F5F5F5F5F5F5F5F5F5F5F5F5F5F5F5F5F5F5F5F5
310
F5F5F5F5F5F5F5F5F5F5F5F5F5F5F5F5F5F5F5F5F5F5F5F5F5F5F5F5F5F5F5F5F5F5F5F5F5F5F5F5F5F5F5F5F5F5F5F5F5F5F5F5F5F5F5F5F5F5F5F5F5F5F5F5F5F5F5F5F5F5F5F5F5E2F5F5F5E2E2EFF5F5F5E2F5F5F5F5F5F5F5F5F5F5F5F5F5F5F5F5F5F5F5F5F5F5F5F5F5F5F5F5F5F5F5F5F5F5F5F5F5F5F5F5F5F5F5
310
F5F5F5F5F5F5F5F5F5F5F5F5F5F5F5F5F5F5F5F5F5F5F5F5F5F5F5F5F5F5F5F5F5F5F5F5F5F5F5F5F5F5F5F5F5F5F5F5F5F5F5F5F5F5F5F5F5F5F5F5F5F5F5F5F5F5F5F5F5F5F5F5F5F5F5F5F5F5F5F5F5F5F5F5F5F5F5F5F5F5F5F5F5F5F5F5F5F5F5F5F5F5F5F5F5F5F5F5F5F5F5F5F5F5F5F5F5F5F5F5F5F5F5F5F5F5E2
310
F5F5F5E2E2EFF5F5F5E2F5F5F5F5F5F5F5F5F5F5F5F5F5F5F5F5F5F5F5F5F5F5F5F5F5F5F5F5F5F5F5F5F5F5F5F5F5F5F5F5F5F5F5F5F5F5F5F5F5F5F5F5F5F5F5F5F5F5F5F5F5F5F5F5F5F5F5F5F5F5F5F5F5F5F5F5F5F5F5F5F5F5F5F5F5F5F5F5F5F5F5F5F5F5F5F5F5F5F5F5F5F5F5F5F5F5F5F5F5F5F5F5F5F5F5F5F5
310
F5F5F5F5F5F5F5F5F5F5F5F5F5F5F5F5F5F5F5F5F5F5F5F5F5F5F5F5F5F5F5F5F5F5F5F5F5F5F5F5F5F5F5F5F5F5F5F5F5F5F5F5E2F5F5F5E2E2EFF5F5F5E2F5F5F5F5F5F5F5F5F5F5F5F5F5F5F5F5F5F5F5F5F5F5F5F5F5F5F5F5F5F5F5F5F5F5F5F5F5F5F5F5F5F5F5F5F5F5F5F5F5F5F5F5F5F5F5F5F5F5F5F5F5F5F5F5
310
F5F5F5F5F5F5F5F5F5F5F5F5F5F5F5F5F5F5F5F5F5F5F5F5F5F5F5F5F5F5F5F5F5F5F5F5F5F5F5F5F5F5F5F5F5F5F5F5F5F5F5F5F5F5F5F5F5F5F5F5F5F5F5F5F5F5F5F5F5F5F5F5F5F5F5F5F5F5F5F5F5F5F5F5F5F5F5F5F5F5F5F5F5F5F5F5F5F5F5F5F5F5F5F5F5E2F5F5F5E2E2EFF5F5F5E2F5F5F5F5F5F5F5F5F5F5F5
310
F5F5F5F5F5F5F5F5F5F5F5F5F5F5F5F5F5F5F5F5F5F5F5F5F5F5F5F5F5F5F5F5F5F5F5F5F5F5F5F5F5F5F5F5F5F5F5F5F5F5F5F5F5F5F5F5F5F5F5F5F5F5F5F5F5F5F5F5F5F5F5F5F5F5F5F5F5F5F5F5F5F5F5F5F5F5F5F5F5F5F5F5F5F5F5F5F5F5F5F5F5F5F5F5F5F5F5F5F5F5F5F5F5F5F5F5F5F5F5F5F5F5F5F5F5F5F5
310
F5F5F5F5F5F5F5F5F5F5F5F5F5F5F5F5F5F5F5F5F5F5F5F5F5F5F5F5F5F5F5E2F5F5F5E2E2EFF5F5F5E2E2E2E2E2E2E2E2F5F5F5F5F5F5F5F5F5E2E2E2E2E2E2E2E2E2E2E2E2E2E2E2E2F5F5F5F5F5F5F5F5E2E2E2E2E2E2E2E2E2E2E2E2E2E2E2E2F5F5F5F5F5F5F5F5F5E2E2E2E2E2E2E2E2E2E2E2E2E2E2E2F5F5F5F5F5
310
F5F5F5F5E2E2E2E2E2E2E2E2E2E2E2E2E2E2E2F5F5F5F5F5F5F5F5F5E2E2E2E2E2E2E2E2E2E2E2E2E2E2E2E2F5F5F5F5F5F5F5F5E2E2E2E2E2E2E2E2E2E2E2E2E2E2E2E2F5F5F5F5F5F5F5F5F5E2E2E2E2E2E2E2E2F5F5F5E2E2EFF5F5F5F5F5F5F5F5F5F5F5F5F5F5F5F5F5F5F5F5F5F5F5F5F5F5F5F5F5F5F5F5F5F5F5F5
310
F5F5F5F5F5F5F5F5F5F5F5F5F5F5F5F5F5F5F5F5F5F5F5F5F5F5F5F5F5F5F5F5F5F5F5F5F5F5F5F5F5F5F5F5F5F5F5F5F5F5F5F5F5F5F5F5F5F5F5F5F5F5F5F5F5F5F5F5F5F5F5F5F5F5F5F5F5F5F5F5F5F5F5F5F5F5F5F5F5F5F5F5F5F5F5F5F5F5F5F5F5F5F5F5F5F5F5F5F5F5F5F5F5F5F5F5F5F5F5F5F5F5F5F5F5F5F5
310
F5F5F5F5F5F5F5F5F5F5F5F5F5F5E2E2EFF5F5F5F5F5F5F5F5F5F5F5F5F5F5F5F5F5F5F5F5F5F5F5F5F5F5F5F5F5F5F5F5F5F5F5F5F5F5F5F5F5F5F5F5F5F5F5F5F5F5F5F5F5F5F5F5F5F5F5F5F5F5F5F5F5F5F5F5F5F5F5F5F5F5F5F5F5F5F5F5F5F5F5F5F5F5F5F5F5F5F5F5F5F5F5F5F5F5F5F5F5F5F5F5F5F5F5F5F5F5
310
F5F5F5F5F5F5F5F5F5F5F5F5F5F5F5F5F5F5F5F5F5F5F5F5F5F5F5F5F5F5F5F5F5F5F5F5F5F5F5F5F5F5F5F5F5F5F5F5F5F5F5F5F5F5F5F5F5F5F5F5F5F5F5F5F5F5F5E2EFEFF5F5F5F5F5F5F5F5F5F5F5F5F5F5F5F5F5F5F5F5F5F5F5F5F5F5F5F5F5F5F5F5F5F5F5F5F5F5F5F5F5F5F5F5F5F5F5F5F5F5F5F5F5F5F5F5F5
310
F5F5F5F5F5F5F5F5F5F5F5F5F5F5F5F5F5F5F5F5F5F5F5F5F5F5F5F5F5F5F5F5F5F5F5F5F5F5F5F5F5F5F5F5F5F5F5F5F5F5F5F5F5F5F5F5F5F5F5F5F5F5F5F5F5F5F5F5F5F5F5F5F5F5F5F5F5F5F5F5F5F5F5F5F5F5F5F5F5F5F5F5F5F5F5F5F5F5F5F5F5F5F5F5F5F5F5F5F5F5F5F5F5F5F5F5F5F5F5F5E2EFEFE2E2E2E2
310
E2E2E2E2E2E2E2E2E2E2E2E2E2E2E2E2E2E2E2E2E2E2E2E2E2E2E2E2E2E2E2E2E2E2E2E2E2E2E2E2E2E2E2E2E2E2E2E2E2E2E2E2E2E2E2E2E2E2E2E2E2E2E2E2E2E2E2E2E2E2E2E2E2E2E2E2E2E2E2E2E2E2E2E2E2E2E2E2E2E2E2E2E2E2E2E2E2E2E2E2E2E2E2E2E2E2E2E2E2E2E2E2E2E2E2E2E2E2E2E2E2E2E2E2E2E2E2
310
E2E2E2E2E2E2E2E2E2E2E2E2E2E2E2E2E2E2E2E2E2E2E2E2E2E2E2E2E2E2E2E2E2E2E2E2E2E2E2E2E2E2E2E2E2E2E2EFEF
  0
ENDSEC
  0
EOF
