  0
SECTION
  2
HEADER
  9
$ACADVER
  1
AC1018
  9
$ACADMAINTVER
 70
     0
  9
$DWGCODEPAGE
  3
ANSI_1252
  9
$AUTHOR
  1
g6edxjah
  9
$LASTSAVEDBY
  1
g6edxjah
  9
$INSBASE
 10
0.0
 20
0.0
 30
0.0
  9
$EXTMIN
 10
48.958052
 20
-13.073812
 30
0.0
  9
$EXTMAX
 10
57.458052
 20
-2.073812
 30
0.0
  9
$LIMMIN
 10
25.405175
 20
-35.37669
  9
$LIMMAX
 10
81.01093
 20
20.229065
  9
$ORTHOMODE
 70
     0
  9
$REGENMODE
 70
     1
  9
$FILLMODE
 70
     1
  9
$QTEXTMODE
 70
     0
  9
$MIRRTEXT
 70
     0
  9
$LTSCALE
 40
1.0
  9
$ATTMODE
 70
     1
  9
$TEXTSIZE
 40
0.09
  9
$TRACEWID
 40
0.05
  9
$TEXTSTYLE
  7
Standard
  9
$CLAYER
  8
TEXT
  9
$CELTYPE
  6
Continuous
  9
$CECOLOR
 62
     7
  9
$CELTSCALE
 40
1.0
  9
$DISPSILH
 70
     0
  9
$DIMSCALE
 40
1.0
  9
$DIMASZ
 40
0.09
  9
$DIMEXO
 40
0.045
  9
$DIMDLI
 40
0.0
  9
$DIMRND
 40
0.0
  9
$DIMDLE
 40
0.0
  9
$DIMEXE
 40
0.045
  9
$DIMTP
 40
0.0
  9
$DIMTM
 40
0.0
  9
$DIMTXT
 40
0.09
  9
$DIMCEN
 40
0.09
  9
$DIMTSZ
 40
0.0
  9
$DIMTOL
 70
     0
  9
$DIMLIM
 70
     0
  9
$DIMTIH
 70
     0
  9
$DIMTOH
 70
     0
  9
$DIMSE1
 70
     0
  9
$DIMSE2
 70
     0
  9
$DIMTAD
 70
     1
  9
$DIMZIN
 70
    11
  9
$DIMBLK
  1
TerminatorOpen_0.5
  9
$DIMASO
 70
     1
  9
$DIMSHO
 70
     1
  9
$DIMPOST
  1

  9
$DIMAPOST
  1

  9
$DIMALT
 70
     0
  9
$DIMALTD
 70
     4
  9
$DIMALTF
 40
25.4
  9
$DIMLFAC
 40
1.0
  9
$DIMTOFL
 70
     0
  9
$DIMTVP
 40
0.0
  9
$DIMTIX
 70
     0
  9
$DIMSOXD
 70
     0
  9
$DIMSAH
 70
     0
  9
$DIMBLK1
  1

  9
$DIMBLK2
  1

  9
$DIMSTYLE
  2
Standard
  9
$DIMCLRD
 70
     0
  9
$DIMCLRE
 70
     0
  9
$DIMCLRT
 70
     0
  9
$DIMTFAC
 40
1.0
  9
$DIMGAP
 40
0.045
  9
$DIMJUST
 70
     0
  9
$DIMSD1
 70
     0
  9
$DIMSD2
 70
     0
  9
$DIMTOLJ
 70
     0
  9
$DIMTZIN
 70
    11
  9
$DIMALTZ
 70
    15
  9
$DIMALTTZ
 70
    15
  9
$DIMUPT
 70
     0
  9
$DIMDEC
 70
     4
  9
$DIMTDEC
 70
     4
  9
$DIMALTU
 70
     2
  9
$DIMALTTD
 70
     4
  9
$DIMTXSTY
  7
Style-Arial
  9
$DIMAUNIT
 70
     0
  9
$DIMADEC
 70
     4
  9
$DIMALTRND
 40
0.0
  9
$DIMAZIN
 70
     3
  9
$DIMDSEP
 70
    46
  9
$DIMATFIT
 70
     1
  9
$DIMFRAC
 70
     0
  9
$DIMLDRBLK
  1
TerminatorOpen_0.5
  9
$DIMLUNIT
 70
     2
  9
$DIMLWD
 70
    -2
  9
$DIMLWE
 70
    -2
  9
$DIMTMOVE
 70
     0
  9
$LUNITS
 70
     2
  9
$LUPREC
 70
     4
  9
$SKETCHINC
 40
0.1
  9
$FILLETRAD
 40
0.0
  9
$AUNITS
 70
     0
  9
$AUPREC
 70
     4
  9
$MENU
  1
.
  9
$ELEVATION
 40
0.0
  9
$PELEVATION
 40
0.0
  9
$THICKNESS
 40
0.0
  9
$LIMCHECK
 70
     0
  9
$CHAMFERA
 40
0.0
  9
$CHAMFERB
 40
0.0
  9
$CHAMFERC
 40
0.0
  9
$CHAMFERD
 40
0.0
  9
$SKPOLY
 70
     0
  9
$TDCREATE
 40
2455337.305025845
  9
$TDUCREATE
 40
2455337.513359178
  9
$TDUPDATE
 40
2455337.305025845
  9
$TDUUPDATE
 40
2455337.513359178
  9
$TDINDWG
 40
0.0
  9
$TDUSRTIMER
 40
0.0006630093
  9
$USRTIMER
 70
     1
  9
$ANGBASE
 50
0.0
  9
$ANGDIR
 70
     0
  9
$PDMODE
 70
     0
  9
$PDSIZE
 40
0.0
  9
$PLINEWID
 40
0.0
  9
$SPLFRAME
 70
     0
  9
$SPLINETYPE
 70
     6
  9
$SPLINESEGS
 70
     8
  9
$HANDSEED
  5
2FA
  9
$SURFTAB1
 70
     6
  9
$SURFTAB2
 70
     6
  9
$SURFTYPE
 70
     6
  9
$SURFU
 70
     6
  9
$SURFV
 70
     6
  9
$UCSBASE
  2

  9
$UCSNAME
  2

  9
$UCSORG
 10
0.0
 20
0.0
 30
0.0
  9
$UCSXDIR
 10
1.0
 20
0.0
 30
0.0
  9
$UCSYDIR
 10
0.0
 20
1.0
 30
0.0
  9
$UCSORTHOREF
  2

  9
$UCSORTHOVIEW
 70
     0
  9
$UCSORGTOP
 10
0.0
 20
0.0
 30
0.0
  9
$UCSORGBOTTOM
 10
0.0
 20
0.0
 30
0.0
  9
$UCSORGLEFT
 10
0.0
 20
0.0
 30
0.0
  9
$UCSORGRIGHT
 10
0.0
 20
0.0
 30
0.0
  9
$UCSORGFRONT
 10
0.0
 20
0.0
 30
0.0
  9
$UCSORGBACK
 10
0.0
 20
0.0
 30
0.0
  9
$PUCSBASE
  2

  9
$PUCSNAME
  2

  9
$PUCSORG
 10
0.0
 20
0.0
 30
0.0
  9
$PUCSXDIR
 10
1.0
 20
0.0
 30
0.0
  9
$PUCSYDIR
 10
0.0
 20
1.0
 30
0.0
  9
$PUCSORTHOREF
  2

  9
$PUCSORTHOVIEW
 70
     0
  9
$PUCSORGTOP
 10
0.0
 20
0.0
 30
0.0
  9
$PUCSORGBOTTOM
 10
0.0
 20
0.0
 30
0.0
  9
$PUCSORGLEFT
 10
0.0
 20
0.0
 30
0.0
  9
$PUCSORGRIGHT
 10
0.0
 20
0.0
 30
0.0
  9
$PUCSORGFRONT
 10
0.0
 20
0.0
 30
0.0
  9
$PUCSORGBACK
 10
0.0
 20
0.0
 30
0.0
  9
$USERI1
 70
     0
  9
$USERI2
 70
     0
  9
$USERI3
 70
     0
  9
$USERI4
 70
     0
  9
$USERI5
 70
     0
  9
$USERR1
 40
0.0
  9
$USERR2
 40
0.0
  9
$USERR3
 40
0.0
  9
$USERR4
 40
0.0
  9
$USERR5
 40
0.0
  9
$WORLDVIEW
 70
     1
  9
$SHADEDGE
 70
     3
  9
$SHADEDIF
 70
    70
  9
$TILEMODE
 70
     1
  9
$MAXACTVP
 70
    64
  9
$PINSBASE
 10
0.0
 20
0.0
 30
0.0
  9
$PLIMCHECK
 70
     0
  9
$PEXTMIN
 10
1.049744
 20
0.799667
 30
-0.001526
  9
$PEXTMAX
 10
9.450623
 20
7.200577
 30
0.0
  9
$PLIMMIN
 10
-0.25
 20
-0.25
  9
$PLIMMAX
 10
10.75
 20
8.25
  9
$UNITMODE
 70
     0
  9
$VISRETAIN
 70
     1
  9
$PLINEGEN
 70
     0
  9
$PSLTSCALE
 70
     0
  9
$TREEDEPTH
 70
  3020
  9
$CMLSTYLE
  2
Standard
  9
$CMLJUST
 70
     0
  9
$CMLSCALE
 40
1.0
  9
$PROXYGRAPHICS
 70
     1
  9
$MEASUREMENT
 70
     0
  9
$CELWEIGHT
370
    53
  9
$ENDCAPS
280
     0
  9
$JOINSTYLE
280
     0
  9
$LWDISPLAY
290
     1
  9
$INSUNITS
 70
     2
  9
$HYPERLINKBASE
  1

  9
$STYLESHEET
  1

  9
$XEDIT
290
     1
  9
$CEPSNTYPE
380
     0
  9
$PSTYLEMODE
290
     1
  9
$FINGERPRINTGUID
  2
{02C0BBB5-38A7-4FBF-829E-00875EC88963}
  9
$VERSIONGUID
  2
{82C521FC-BF81-46B3-825E-420B6BD93A99}
  9
$EXTNAMES
290
     1
  9
$PSVPSCALE
 40
0.0
  9
$OLESTARTUP
290
     0
  9
$SORTENTS
280
   127
  9
$INDEXCTL
280
     0
  9
$HIDETEXT
280
     1
  9
$XCLIPFRAME
290
     0
  9
$HALOGAP
280
     0
  9
$OBSCOLOR
 70
   257
  9
$OBSLTYPE
280
     0
  9
$INTERSECTIONDISPLAY
280
     0
  9
$INTERSECTIONCOLOR
 70
   257
  9
$DIMASSOC
280
     1
  9
$PROJECTNAME
  1

  0
ENDSEC
  0
SECTION
  2
CLASSES
  0
CLASS
  1
ACDBDICTIONARYWDFLT
  2
AcDbDictionaryWithDefault
  3
ObjectDBX Classes
 90
        0
 91
        3
280
     0
281
     0
  0
CLASS
  1
SORTENTSTABLE
  2
AcDbSortentsTable
  3
ObjectDBX Classes
 90
        0
 91
        3
280
     0
281
     0
  0
ENDSEC
  0
SECTION
  2
TABLES
  0
TABLE
  2
VPORT
  5
2DD
330
0
100
AcDbSymbolTable
 70
     4
  0
VPORT
  5
49
330
2DD
100
AcDbSymbolTableRecord
100
AcDbViewportTableRecord
  2
*ACTIVE
 70
     0
 10
0.0
 20
0.0
 11
1.0
 21
1.0
 12
53.208052
 22
-7.573812
 13
0.0
 23
0.0
 14
0.083333
 24
0.083333
 15
0.083333
 25
0.083333
 16
0.0
 26
0.0
 36
1.0
 17
0.0
 27
0.0
 37
0.0
 40
11.44
 41
1.884937
 42
50.0
 43
0.0
 44
0.0
 50
0.0
 51
0.0
 71
     0
 72
   100
 73
     1
 74
     2
 75
     0
 76
     0
 77
     0
 78
     1
281
     0
 65
     1
110
0.0
120
0.0
130
0.0
111
1.0
121
0.0
131
0.0
112
0.0
122
1.0
132
0.0
 79
     0
146
0.0
  0
ENDTAB
  0
TABLE
  2
LTYPE
  5
2C4
330
0
100
AcDbSymbolTable
 70
     1
  0
LTYPE
  5
2C5
330
2C4
100
AcDbSymbolTableRecord
100
AcDbLinetypeTableRecord
  2
ByBlock
 70
     0
  3

 72
    65
 73
     0
 40
0.0
  0
LTYPE
  5
2C6
330
2C4
100
AcDbSymbolTableRecord
100
AcDbLinetypeTableRecord
  2
ByLayer
 70
     0
  3

 72
    65
 73
     0
 40
0.0
  0
LTYPE
  5
2C3
330
2C4
100
AcDbSymbolTableRecord
100
AcDbLinetypeTableRecord
  2
Continuous
 70
     0
  3
Solid line
 72
    65
 73
     0
 40
0.0
  0
ENDTAB
  0
TABLE
  2
LAYER
  5
2BD
102
{ACAD_XDICTIONARY
360
2BE
102
}
330
0
100
AcDbSymbolTable
 70
    64
  0
LAYER
  5
2BC
330
2BD
100
AcDbSymbolTableRecord
100
AcDbLayerTableRecord
  2
0
 70
     0
 62
     7
  6
Continuous
370
    -3
390
2C0
  0
LAYER
  5
7
330
2BD
100
AcDbSymbolTableRecord
100
AcDbLayerTableRecord
  2
Level 1
 70
     0
 62
     7
  6
Continuous
370
     0
390
2C0
  0
LAYER
  5
8
330
2BD
100
AcDbSymbolTableRecord
100
AcDbLayerTableRecord
  2
2-4A
 70
     0
 62
     7
  6
Continuous
370
     0
390
2C0
1001
AcAecLayerStandard
1000

1000
2-4A
  0
LAYER
  5
9
330
2BD
100
AcDbSymbolTableRecord
100
AcDbLayerTableRecord
  2
BORDER
 70
     0
 62
     7
  6
Continuous
370
     0
390
2C0
1001
AcAecLayerStandard
1000

1000
BORDER
  0
LAYER
  5
A
330
2BD
100
AcDbSymbolTableRecord
100
AcDbLayerTableRecord
  2
DEFPOINTS
 70
     0
 62
     7
  6
Continuous
290
     0
370
     0
390
2C0
1001
AcAecLayerStandard
1000

1000
DEFPOINTS
  0
LAYER
  5
B
330
2BD
100
AcDbSymbolTableRecord
100
AcDbLayerTableRecord
  2
REF
 70
     0
 62
     7
  6
Continuous
370
     0
390
2C0
1001
AcAecLayerStandard
1000

1000
REF
  0
LAYER
  5
C
330
2BD
100
AcDbSymbolTableRecord
100
AcDbLayerTableRecord
  2
TEXT
 70
     0
 62
     7
  6
Continuous
370
     0
390
2C0
1001
AcAecLayerStandard
1000

1000
TEXT
  0
LAYER
  5
D
330
2BD
100
AcDbSymbolTableRecord
100
AcDbLayerTableRecord
  2
TITLE
 70
     0
 62
     7
  6
Continuous
370
     0
390
2C0
1001
AcAecLayerStandard
1000

1000
TITLE
  0
LAYER
  5
E
330
2BD
100
AcDbSymbolTableRecord
100
AcDbLayerTableRecord
  2
Level 8
 70
     0
 62
     7
  6
Continuous
370
     0
390
2C0
  0
LAYER
  5
F
330
2BD
100
AcDbSymbolTableRecord
100
AcDbLayerTableRecord
  2
Level 9
 70
     0
 62
     7
  6
Continuous
370
     0
390
2C0
  0
LAYER
  5
10
330
2BD
100
AcDbSymbolTableRecord
100
AcDbLayerTableRecord
  2
Level 10
 70
     0
 62
     7
  6
Continuous
370
     0
390
2C0
  0
LAYER
  5
11
330
2BD
100
AcDbSymbolTableRecord
100
AcDbLayerTableRecord
  2
Level 11
 70
     0
 62
     7
  6
Continuous
370
     0
390
2C0
  0
LAYER
  5
12
330
2BD
100
AcDbSymbolTableRecord
100
AcDbLayerTableRecord
  2
Level 12
 70
     0
 62
     7
  6
Continuous
370
     0
390
2C0
  0
LAYER
  5
13
330
2BD
100
AcDbSymbolTableRecord
100
AcDbLayerTableRecord
  2
Level 13
 70
     0
 62
     7
  6
Continuous
370
     0
390
2C0
  0
LAYER
  5
14
330
2BD
100
AcDbSymbolTableRecord
100
AcDbLayerTableRecord
  2
Level 14
 70
     0
 62
     7
  6
Continuous
370
     0
390
2C0
  0
LAYER
  5
15
330
2BD
100
AcDbSymbolTableRecord
100
AcDbLayerTableRecord
  2
Level 15
 70
     0
 62
     7
  6
Continuous
370
     0
390
2C0
  0
LAYER
  5
16
330
2BD
100
AcDbSymbolTableRecord
100
AcDbLayerTableRecord
  2
Level 16
 70
     0
 62
     7
  6
Continuous
370
     0
390
2C0
  0
LAYER
  5
17
330
2BD
100
AcDbSymbolTableRecord
100
AcDbLayerTableRecord
  2
Level 17
 70
     0
 62
     7
  6
Continuous
370
     0
390
2C0
  0
LAYER
  5
18
330
2BD
100
AcDbSymbolTableRecord
100
AcDbLayerTableRecord
  2
Level 18
 70
     0
 62
     7
  6
Continuous
370
     0
390
2C0
  0
LAYER
  5
19
330
2BD
100
AcDbSymbolTableRecord
100
AcDbLayerTableRecord
  2
Level 19
 70
     0
 62
     7
  6
Continuous
370
     0
390
2C0
  0
LAYER
  5
1A
330
2BD
100
AcDbSymbolTableRecord
100
AcDbLayerTableRecord
  2
Level 20
 70
     0
 62
     7
  6
Continuous
370
     0
390
2C0
  0
LAYER
  5
1B
330
2BD
100
AcDbSymbolTableRecord
100
AcDbLayerTableRecord
  2
Level 21
 70
     0
 62
     7
  6
Continuous
370
     0
390
2C0
  0
LAYER
  5
1C
330
2BD
100
AcDbSymbolTableRecord
100
AcDbLayerTableRecord
  2
Level 22
 70
     0
 62
     7
  6
Continuous
370
     0
390
2C0
  0
LAYER
  5
1D
330
2BD
100
AcDbSymbolTableRecord
100
AcDbLayerTableRecord
  2
Level 23
 70
     0
 62
     7
  6
Continuous
370
     0
390
2C0
  0
LAYER
  5
1E
330
2BD
100
AcDbSymbolTableRecord
100
AcDbLayerTableRecord
  2
Level 24
 70
     0
 62
     7
  6
Continuous
370
     0
390
2C0
  0
LAYER
  5
1F
330
2BD
100
AcDbSymbolTableRecord
100
AcDbLayerTableRecord
  2
Level 25
 70
     0
 62
     7
  6
Continuous
370
     0
390
2C0
  0
LAYER
  5
20
330
2BD
100
AcDbSymbolTableRecord
100
AcDbLayerTableRecord
  2
Level 26
 70
     0
 62
     7
  6
Continuous
370
     0
390
2C0
  0
LAYER
  5
21
330
2BD
100
AcDbSymbolTableRecord
100
AcDbLayerTableRecord
  2
Level 27
 70
     0
 62
     7
  6
Continuous
370
     0
390
2C0
  0
LAYER
  5
22
330
2BD
100
AcDbSymbolTableRecord
100
AcDbLayerTableRecord
  2
Level 28
 70
     0
 62
     7
  6
Continuous
370
     0
390
2C0
  0
LAYER
  5
23
330
2BD
100
AcDbSymbolTableRecord
100
AcDbLayerTableRecord
  2
Level 29
 70
     0
 62
     7
  6
Continuous
370
     0
390
2C0
  0
LAYER
  5
24
330
2BD
100
AcDbSymbolTableRecord
100
AcDbLayerTableRecord
  2
Level 30
 70
     0
 62
     7
  6
Continuous
370
     0
390
2C0
  0
LAYER
  5
25
330
2BD
100
AcDbSymbolTableRecord
100
AcDbLayerTableRecord
  2
Level 31
 70
     0
 62
     7
  6
Continuous
370
     0
390
2C0
  0
LAYER
  5
26
330
2BD
100
AcDbSymbolTableRecord
100
AcDbLayerTableRecord
  2
Level 32
 70
     0
 62
     7
  6
Continuous
370
     0
390
2C0
  0
LAYER
  5
27
330
2BD
100
AcDbSymbolTableRecord
100
AcDbLayerTableRecord
  2
Level 33
 70
     0
 62
     7
  6
Continuous
370
     0
390
2C0
  0
LAYER
  5
28
330
2BD
100
AcDbSymbolTableRecord
100
AcDbLayerTableRecord
  2
Level 34
 70
     0
 62
     7
  6
Continuous
370
     0
390
2C0
  0
LAYER
  5
29
330
2BD
100
AcDbSymbolTableRecord
100
AcDbLayerTableRecord
  2
Level 35
 70
     0
 62
     7
  6
Continuous
370
     0
390
2C0
  0
LAYER
  5
2A
330
2BD
100
AcDbSymbolTableRecord
100
AcDbLayerTableRecord
  2
Level 36
 70
     0
 62
     7
  6
Continuous
370
     0
390
2C0
  0
LAYER
  5
2B
330
2BD
100
AcDbSymbolTableRecord
100
AcDbLayerTableRecord
  2
Level 37
 70
     0
 62
     7
  6
Continuous
370
     0
390
2C0
  0
LAYER
  5
2C
330
2BD
100
AcDbSymbolTableRecord
100
AcDbLayerTableRecord
  2
Level 38
 70
     0
 62
     7
  6
Continuous
370
     0
390
2C0
  0
LAYER
  5
2D
330
2BD
100
AcDbSymbolTableRecord
100
AcDbLayerTableRecord
  2
Level 39
 70
     0
 62
     7
  6
Continuous
370
     0
390
2C0
  0
LAYER
  5
2E
330
2BD
100
AcDbSymbolTableRecord
100
AcDbLayerTableRecord
  2
Level 40
 70
     0
 62
     7
  6
Continuous
370
     0
390
2C0
  0
LAYER
  5
2F
330
2BD
100
AcDbSymbolTableRecord
100
AcDbLayerTableRecord
  2
Level 41
 70
     0
 62
     7
  6
Continuous
370
     0
390
2C0
  0
LAYER
  5
30
330
2BD
100
AcDbSymbolTableRecord
100
AcDbLayerTableRecord
  2
Level 42
 70
     0
 62
     7
  6
Continuous
370
     0
390
2C0
  0
LAYER
  5
31
330
2BD
100
AcDbSymbolTableRecord
100
AcDbLayerTableRecord
  2
Level 43
 70
     0
 62
     7
  6
Continuous
370
     0
390
2C0
  0
LAYER
  5
32
330
2BD
100
AcDbSymbolTableRecord
100
AcDbLayerTableRecord
  2
Level 44
 70
     0
 62
     7
  6
Continuous
370
     0
390
2C0
  0
LAYER
  5
33
330
2BD
100
AcDbSymbolTableRecord
100
AcDbLayerTableRecord
  2
Level 45
 70
     0
 62
     7
  6
Continuous
370
     0
390
2C0
  0
LAYER
  5
34
330
2BD
100
AcDbSymbolTableRecord
100
AcDbLayerTableRecord
  2
Level 46
 70
     0
 62
     7
  6
Continuous
370
     0
390
2C0
  0
LAYER
  5
35
330
2BD
100
AcDbSymbolTableRecord
100
AcDbLayerTableRecord
  2
Level 47
 70
     0
 62
     7
  6
Continuous
370
     0
390
2C0
  0
LAYER
  5
36
330
2BD
100
AcDbSymbolTableRecord
100
AcDbLayerTableRecord
  2
Level 48
 70
     0
 62
     7
  6
Continuous
370
     0
390
2C0
  0
LAYER
  5
37
330
2BD
100
AcDbSymbolTableRecord
100
AcDbLayerTableRecord
  2
Level 49
 70
     0
 62
     7
  6
Continuous
370
     0
390
2C0
  0
LAYER
  5
38
330
2BD
100
AcDbSymbolTableRecord
100
AcDbLayerTableRecord
  2
Level 50
 70
     0
 62
     7
  6
Continuous
370
     0
390
2C0
  0
LAYER
  5
39
330
2BD
100
AcDbSymbolTableRecord
100
AcDbLayerTableRecord
  2
Level 51
 70
     0
 62
     7
  6
Continuous
370
     0
390
2C0
  0
LAYER
  5
3A
330
2BD
100
AcDbSymbolTableRecord
100
AcDbLayerTableRecord
  2
Level 52
 70
     0
 62
     7
  6
Continuous
370
     0
390
2C0
  0
LAYER
  5
3B
330
2BD
100
AcDbSymbolTableRecord
100
AcDbLayerTableRecord
  2
Level 53
 70
     0
 62
     7
  6
Continuous
370
     0
390
2C0
  0
LAYER
  5
3C
330
2BD
100
AcDbSymbolTableRecord
100
AcDbLayerTableRecord
  2
Level 54
 70
     0
 62
     7
  6
Continuous
370
     0
390
2C0
  0
LAYER
  5
3D
330
2BD
100
AcDbSymbolTableRecord
100
AcDbLayerTableRecord
  2
Level 55
 70
     0
 62
     7
  6
Continuous
370
     0
390
2C0
  0
LAYER
  5
3E
330
2BD
100
AcDbSymbolTableRecord
100
AcDbLayerTableRecord
  2
Level 56
 70
     0
 62
     7
  6
Continuous
370
     0
390
2C0
  0
LAYER
  5
3F
330
2BD
100
AcDbSymbolTableRecord
100
AcDbLayerTableRecord
  2
Level 57
 70
     0
 62
     7
  6
Continuous
370
     0
390
2C0
  0
LAYER
  5
40
330
2BD
100
AcDbSymbolTableRecord
100
AcDbLayerTableRecord
  2
Level 58
 70
     0
 62
     7
  6
Continuous
370
     0
390
2C0
  0
LAYER
  5
41
330
2BD
100
AcDbSymbolTableRecord
100
AcDbLayerTableRecord
  2
Level 59
 70
     0
 62
     7
  6
Continuous
370
     0
390
2C0
  0
LAYER
  5
42
330
2BD
100
AcDbSymbolTableRecord
100
AcDbLayerTableRecord
  2
Level 60
 70
     0
 62
     7
  6
Continuous
370
     0
390
2C0
  0
LAYER
  5
43
330
2BD
100
AcDbSymbolTableRecord
100
AcDbLayerTableRecord
  2
Level 61
 70
     0
 62
     7
  6
Continuous
370
     0
390
2C0
  0
LAYER
  5
44
330
2BD
100
AcDbSymbolTableRecord
100
AcDbLayerTableRecord
  2
Level 62
 70
     0
 62
     7
  6
Continuous
370
     0
390
2C0
  0
LAYER
  5
45
330
2BD
100
AcDbSymbolTableRecord
100
AcDbLayerTableRecord
  2
_0
 70
     0
 62
     7
  6
Continuous
370
     0
390
2C0
1001
AcAecLayerStandard
1000

1000
0
  0
ENDTAB
  0
TABLE
  2
STYLE
  5
2C8
330
0
100
AcDbSymbolTable
 70
     3
  0
STYLE
  5
2C7
330
2C8
100
AcDbSymbolTableRecord
100
AcDbTextStyleTableRecord
  2
Standard
 70
     0
 40
0.0
 41
1.0
 50
0.0
 71
     0
 42
0.09
  3
txt
  4

  0
STYLE
  5
2E7
330
2C8
100
AcDbSymbolTableRecord
100
AcDbTextStyleTableRecord
  2
Style-Arial
 70
     0
 40
0.0
 41
1.0
 50
0.0
 71
     0
 42
0.2
  3

  4

1001
ACAD
1000
Arial
1071
       39
  0
STYLE
  5
2F1
330
2C8
100
AcDbSymbolTableRecord
100
AcDbTextStyleTableRecord
  2
Style-FANCY
 70
     0
 40
0.0
 41
1.0
 50
0.0
 71
     0
 42
0.2
  3
FANCY.shx
  4

  0
ENDTAB
  0
TABLE
  2
VIEW
  5
2DB
330
0
100
AcDbSymbolTable
 70
     0
  0
ENDTAB
  0
TABLE
  2
UCS
  5
2DC
330
0
100
AcDbSymbolTable
 70
     0
  0
ENDTAB
  0
TABLE
  2
APPID
  5
2DA
330
0
100
AcDbSymbolTable
 70
     3
  0
APPID
  5
2E2
330
2DA
100
AcDbSymbolTableRecord
100
AcDbRegAppTableRecord
  2
ACAD
 70
     0
  0
APPID
  5
2D9
330
2DA
100
AcDbSymbolTableRecord
100
AcDbRegAppTableRecord
  2
ACAD_PSEXT
 70
     0
  0
APPID
  5
2E4
330
2DA
100
AcDbSymbolTableRecord
100
AcDbRegAppTableRecord
  2
AcAecLayerStandard
 70
     0
  0
ENDTAB
  0
TABLE
  2
DIMSTYLE
  5
2CA
330
0
100
AcDbSymbolTable
 70
     1
100
AcDbDimStyleTable
  0
DIMSTYLE
105
2C9
330
2CA
100
AcDbSymbolTableRecord
100
AcDbDimStyleTableRecord
  2
Standard
 70
     0
340
2C7
  0
ENDTAB
  0
TABLE
  2
BLOCK_RECORD
  5
2CD
330
0
100
AcDbSymbolTable
 70
     2
  0
BLOCK_RECORD
  5
2CE
102
{ACAD_XDICTIONARY
360
2F5
102
}
330
2CD
100
AcDbSymbolTableRecord
100
AcDbBlockTableRecord
  2
*Model_Space
340
2D1
  0
BLOCK_RECORD
  5
2D3
330
2CD
100
AcDbSymbolTableRecord
100
AcDbBlockTableRecord
  2
*Paper_Space
340
2D6
  0
BLOCK_RECORD
  5
2E8
330
2CD
100
AcDbSymbolTableRecord
100
AcDbBlockTableRecord
  2
TerminatorOpen_0.5
340
0
  0
BLOCK_RECORD
  5
2F2
330
2CD
100
AcDbSymbolTableRecord
100
AcDbBlockTableRecord
  2
LARROW
340
0
102
{BLKREFS
331
256
331
258
331
25A
331
25C
331
25E
331
260
331
262
331
264
331
266
331
268
331
26A
102
}
  0
ENDTAB
  0
ENDSEC
  0
SECTION
  2
BLOCKS
  0
BLOCK
  5
2CF
330
2CE
100
AcDbEntity
  8
0
100
AcDbBlockBegin
  2
*Model_Space
 70
     0
 71
     0
 10
0.0
 20
0.0
 30
0.0
  3
*Model_Space
  1

  0
ENDBLK
  5
2D0
330
2CE
100
AcDbEntity
  8
0
100
AcDbBlockEnd
  0
BLOCK
  5
2D4
330
2D3
100
AcDbEntity
 67
     1
  8
0
100
AcDbBlockBegin
  2
*Paper_Space
 70
     0
 71
     0
 10
0.0
 20
0.0
 30
0.0
  3
*Paper_Space
  1

  0
ENDBLK
  5
2D5
330
2D3
100
AcDbEntity
 67
     1
  8
0
100
AcDbBlockEnd
  0
BLOCK
  5
2EC
330
2E8
100
AcDbEntity
  8
0
100
AcDbBlockBegin
  2
TerminatorOpen_0.5
 70
     0
 71
     0
 10
0.0
 20
0.0
 30
0.0
  3
TerminatorOpen_0.5
  1

  0
LINE
  5
2E9
330
2E8
100
AcDbEntity
  8
0
  6
ByBlock
 62
     0
370
    -2
100
AcDbLine
 10
0.0
 20
0.0
 30
0.0
 11
-1.0
 21
0.0
 31
0.0
  0
LINE
  5
2EA
330
2E8
100
AcDbEntity
  8
0
  6
ByBlock
 62
     0
370
    -2
100
AcDbLine
 10
0.0
 20
0.0
 30
0.0
 11
-1.0
 21
0.25
 31
0.0
  0
LINE
  5
2EB
330
2E8
100
AcDbEntity
  8
0
  6
ByBlock
 62
     0
370
    -2
100
AcDbLine
 10
0.0
 20
0.0
 30
0.0
 11
-1.0
 21
-0.25
 31
0.0
  0
ENDBLK
  5
2ED
330
2E8
100
AcDbEntity
  8
0
100
AcDbBlockEnd
  0
BLOCK
  5
2F3
330
2F2
100
AcDbEntity
  8
0
100
AcDbBlockBegin
  2
LARROW
 70
     0
 71
     0
 10
0.0
 20
0.0
 30
0.0
  3
LARROW
  1

  0
LWPOLYLINE
  5
257
330
2F2
100
AcDbEntity
  8
REF
  6
Continuous
 62
     7
370
    13
100
AcDbPolyline
 90
       63
 70
   128
 43
0.0
 10
-0.013031
 20
0.001885
 10
0.0
 20
0.0
 10
-0.013021
 20
-0.001885
 10
-0.012615
 20
-0.001573
 10
-0.012042
 20
-0.00101
 10
-0.01176
 20
-0.00049
 10
-0.011688
 20
0.0
 10
-0.011792
 20
0.000552
 10
-0.012094
 20
0.001094
 10
-0.012677
 20
0.001625
 10
-0.013031
 20
0.001885
 10
-0.000385
 20
0.000021
 10
-0.012604
 20
-0.00176
 10
-0.012229
 20
-0.001479
 10
-0.011625
 20
-0.000906
 10
-0.011427
 20
-0.000167
 10
-0.011563
 20
0.000573
 10
-0.011917
 20
0.001083
 10
-0.012344
 20
0.0015
 10
-0.012635
 20
0.001729
 10
-0.001073
 20
0.000021
 10
-0.012052
 20
-0.001552
 10
-0.011667
 20
-0.001302
 10
-0.011469
 20
-0.000979
 10
-0.01125
 20
-0.000563
 10
-0.011135
 20
0.000021
 10
-0.011198
 20
0.0005
 10
-0.011427
 20
0.000875
 10
-0.011896
 20
0.001177
 10
-0.012208
 20
0.001542
 10
-0.001875
 20
0.000021
 10
-0.011448
 20
-0.001323
 10
-0.011021
 20
-0.000792
 10
-0.010896
 20
-0.000146
 10
-0.010958
 20
0.000573
 10
-0.011781
 20
0.001354
 10
-0.002771
 20
0.000063
 10
-0.010896
 20
-0.001073
 10
-0.010781
 20
-0.000698
 10
-0.010531
 20
-0.000094
 10
-0.010688
 20
0.000552
 10
-0.011333
 20
0.001125
 10
-0.003594
 20
0.000063
 10
-0.010604
 20
-0.000833
 10
-0.010375
 20
-0.000375
 10
-0.010271
 20
0.000115
 10
-0.01076
 20
0.000875
 10
-0.004573
 20
0.000063
 10
-0.010177
 20
-0.000625
 10
-0.010021
 20
-0.000281
 10
-0.009979
 20
0.000115
 10
-0.010375
 20
0.000667
 10
-0.00574
 20
0.000063
 10
-0.009823
 20
-0.000396
 10
-0.009708
 20
0.000135
 10
-0.010083
 20
0.000458
 10
-0.006698
 20
0.000063
 10
-0.009552
 20
-0.00024
 10
-0.009615
 20
0.000271
 10
-0.007677
 20
0.000063
 10
-0.009438
 20
-0.000073
 10
-0.00949
 20
0.000083
 10
-0.008885
 20
0.000083
  0
ENDBLK
  5
2F4
330
2F2
100
AcDbEntity
  8
0
100
AcDbBlockEnd
  0
ENDSEC
  0
SECTION
  2
ENTITIES
  0
LINE
  5
5E
330
2CE
100
AcDbEntity
  8
Level 1
  6
Continuous
 62
     7
370
    30
100
AcDbLine
 10
51.608052
 20
-9.665333
 30
0.0
 11
54.808052
 21
-9.665333
 31
0.0
  0
LINE
  5
61
330
2CE
100
AcDbEntity
  8
Level 1
  6
Continuous
 62
     7
370
    30
100
AcDbLine
 10
51.608052
 20
-6.809854
 30
0.0
 11
54.808052
 21
-6.809854
 31
0.0
  0
LINE
  5
62
330
2CE
100
AcDbEntity
  8
Level 1
  6
Continuous
 62
     7
370
    30
100
AcDbLine
 10
51.608052
 20
-8.565333
 30
0.0
 11
54.808052
 21
-8.565333
 31
0.0
  0
LINE
  5
63
330
2CE
100
AcDbEntity
  8
Level 1
  6
Continuous
 62
     7
370
    30
100
AcDbLine
 10
51.608052
 20
-8.865333
 30
0.0
 11
54.808052
 21
-8.865333
 31
0.0
  0
LINE
  5
64
330
2CE
100
AcDbEntity
  8
Level 1
  6
Continuous
 62
     7
370
    30
100
AcDbLine
 10
51.608052
 20
-9.965333
 30
0.0
 11
54.808052
 21
-9.965333
 31
0.0
  0
LWPOLYLINE
  5
65
330
2CE
100
AcDbEntity
  8
Level 1
  6
Continuous
 62
     7
370
    13
100
AcDbPolyline
 90
        9
 70
   128
 43
0.0
 10
51.608052
 20
-8.515333
 10
51.608052
 20
-9.289302
 10
51.652885
 20
-9.308344
 10
51.549844
 20
-9.325948
 10
51.715594
 20
-9.355292
 10
51.505052
 20
-9.378771
 10
51.657365
 20
-9.396375
 10
51.608052
 20
-9.421146
 10
51.608052
 20
-10.115333
  0
LWPOLYLINE
  5
66
330
2CE
100
AcDbEntity
  8
Level 1
  6
Continuous
 62
     7
370
    13
100
AcDbPolyline
 90
        9
 70
   128
 43
0.0
 10
54.808052
 20
-8.515333
 10
54.808052
 20
-9.289302
 10
54.852885
 20
-9.308344
 10
54.749844
 20
-9.325948
 10
54.915594
 20
-9.355292
 10
54.705052
 20
-9.378771
 10
54.857365
 20
-9.396375
 10
54.808052
 20
-9.421146
 10
54.808052
 20
-10.115333
  0
TEXT
  5
6D
330
2CE
100
AcDbEntity
  8
Level 8
  6
Continuous
 62
     7
370
    30
100
AcDbText
 10
51.11725
 20
-10.484385
 30
0.0
 40
0.12
  1
C
  7
Style-FANCY
 72
     1
 11
51.159767
 21
-10.424385
 31
0.0
100
AcDbText
 73
     2
  0
CIRCLE
  5
6E
330
2CE
100
AcDbEntity
  8
2-4A
  6
Continuous
 62
     7
370
    30
100
AcDbCircle
 10
51.156076
 20
-10.426291
 30
0.0
 40
0.096614425342711
  0
LINE
  5
70
330
2CE
100
AcDbEntity
  8
Level 1
  6
Continuous
 62
     7
370
    30
100
AcDbLine
 10
51.608052
 20
-6.009854
 30
0.0
 11
54.808052
 21
-6.009854
 31
0.0
  0
LINE
  5
71
330
2CE
100
AcDbEntity
  8
Level 1
  6
Continuous
 62
     7
370
    30
100
AcDbLine
 10
51.608052
 20
-6.209854
 30
0.0
 11
54.808052
 21
-6.209854
 31
0.0
  0
LINE
  5
72
330
2CE
100
AcDbEntity
  8
Level 1
  6
Continuous
 62
     7
370
    30
100
AcDbLine
 10
51.608052
 20
-7.409854
 30
0.0
 11
54.808052
 21
-7.409854
 31
0.0
  0
LWPOLYLINE
  5
73
330
2CE
100
AcDbEntity
  8
Level 1
  6
Continuous
 62
     7
370
    13
100
AcDbPolyline
 90
        9
 70
   128
 43
0.0
 10
51.608052
 20
-5.959854
 10
51.608052
 20
-6.733823
 10
51.652885
 20
-6.752865
 10
51.549844
 20
-6.770469
 10
51.715594
 20
-6.799812
 10
51.505052
 20
-6.823292
 10
51.657365
 20
-6.840896
 10
51.608052
 20
-6.865667
 10
51.608052
 20
-7.559854
  0
LWPOLYLINE
  5
74
330
2CE
100
AcDbEntity
  8
Level 1
  6
Continuous
 62
     7
370
    13
100
AcDbPolyline
 90
        9
 70
   128
 43
0.0
 10
54.808052
 20
-5.959854
 10
54.808052
 20
-6.733823
 10
54.852885
 20
-6.752865
 10
54.749844
 20
-6.770469
 10
54.915594
 20
-6.799812
 10
54.705052
 20
-6.823292
 10
54.857365
 20
-6.840896
 10
54.808052
 20
-6.865667
 10
54.808052
 20
-7.559854
  0
CIRCLE
  5
7C
330
2CE
100
AcDbEntity
  8
2-4A
  6
Continuous
 62
     7
370
    30
100
AcDbCircle
 10
51.46723
 20
-7.870811
 30
0.0
 40
0.096614425342711
  0
CIRCLE
  5
7F
330
2CE
100
AcDbEntity
  8
2-4A
  6
Continuous
 62
     7
370
    30
100
AcDbCircle
 10
50.627125
 20
-5.284167
 30
0.0
 40
0.096614425342711
  0
LWPOLYLINE
  5
87
330
2CE
100
AcDbEntity
  8
Level 1
  6
Continuous
 62
     7
370
    13
100
AcDbPolyline
 90
        9
 70
   128
 43
0.0
 10
54.808052
 20
-3.373208
 10
54.808052
 20
-4.147177
 10
54.852885
 20
-4.166219
 10
54.749844
 20
-4.183833
 10
54.915594
 20
-4.213177
 10
54.705052
 20
-4.236646
 10
54.857365
 20
-4.25425
 10
54.808052
 20
-4.279021
 10
54.808052
 20
-4.973208
  0
LWPOLYLINE
  5
88
330
2CE
100
AcDbEntity
  8
Level 1
  6
Continuous
 62
     7
370
    13
100
AcDbPolyline
 90
        9
 70
   128
 43
0.0
 10
51.608052
 20
-3.373208
 10
51.608052
 20
-4.147177
 10
51.652885
 20
-4.166219
 10
51.549844
 20
-4.183833
 10
51.715594
 20
-4.213177
 10
51.505052
 20
-4.236646
 10
51.657365
 20
-4.25425
 10
51.608052
 20
-4.279021
 10
51.608052
 20
-4.973208
  0
LINE
  5
89
330
2CE
100
AcDbEntity
  8
Level 1
  6
Continuous
 62
     7
370
    30
100
AcDbLine
 10
51.608052
 20
-4.823208
 30
0.0
 11
54.808052
 21
-4.823208
 31
0.0
  0
LINE
  5
8A
330
2CE
100
AcDbEntity
  8
Level 1
  6
Continuous
 62
     7
370
    30
100
AcDbLine
 10
51.608052
 20
-3.723208
 30
0.0
 11
54.808052
 21
-3.723208
 31
0.0
  0
LINE
  5
8B
330
2CE
100
AcDbEntity
  8
Level 1
  6
Continuous
 62
     7
370
    30
100
AcDbLine
 10
51.608052
 20
-3.423208
 30
0.0
 11
54.808052
 21
-3.423208
 31
0.0
  0
LINE
  5
91
330
2CE
100
AcDbEntity
  8
BORDER
  6
Continuous
 62
     7
370
    30
100
AcDbLine
 10
54.633052
 20
-12.086906
 30
0.0
 11
54.633052
 21
-11.586906
 31
0.0
  0
LINE
  5
92
330
2CE
100
AcDbEntity
  8
BORDER
  6
Continuous
 62
     7
370
    30
100
AcDbLine
 10
55.733052
 20
-12.086906
 30
0.0
 11
55.733052
 21
-11.586906
 31
0.0
  0
LINE
  5
93
330
2CE
100
AcDbEntity
  8
BORDER
  6
Continuous
 62
     7
370
    30
100
AcDbLine
 10
49.583052
 20
-11.586906
 30
0.0
 11
56.833052
 21
-11.586906
 31
0.0
  0
LINE
  5
94
330
2CE
100
AcDbEntity
  8
BORDER
  6
Continuous
 62
     7
370
    30
100
AcDbLine
 10
56.833052
 20
-12.086906
 30
0.0
 11
56.833052
 21
-2.986906
 31
0.0
  0
LINE
  5
95
330
2CE
100
AcDbEntity
  8
BORDER
  6
Continuous
 62
     7
370
    30
100
AcDbLine
 10
49.583052
 20
-12.086906
 30
0.0
 11
56.833052
 21
-12.086906
 31
0.0
  0
LINE
  5
96
330
2CE
100
AcDbEntity
  8
BORDER
  6
Continuous
 62
     7
370
    30
100
AcDbLine
 10
49.583052
 20
-12.086906
 30
0.0
 11
49.583052
 21
-2.986906
 31
0.0
  0
LINE
  5
97
330
2CE
100
AcDbEntity
  8
BORDER
  6
Continuous
 62
     7
370
    30
100
AcDbLine
 10
49.583052
 20
-2.986906
 30
0.0
 11
56.833052
 21
-2.986906
 31
0.0
  0
LINE
  5
98
330
2CE
100
AcDbEntity
  8
2-4A
  6
Continuous
 62
     7
370
    30
100
AcDbLine
 10
52.128635
 20
-5.015833
 30
0.0
 11
52.199344
 21
-4.945125
 31
0.0
  0
LINE
  5
99
330
2CE
100
AcDbEntity
  8
2-4A
  6
Continuous
 62
     7
370
    30
100
AcDbLine
 10
52.270063
 20
-4.874417
 30
0.0
 11
52.321271
 21
-4.823208
 31
0.0
  0
LINE
  5
9A
330
2CE
100
AcDbEntity
  8
2-4A
  6
Continuous
 62
     7
370
    30
100
AcDbLine
 10
51.987219
 20
-5.015833
 30
0.0
 11
52.057927
 21
-4.945125
 31
0.0
  0
LINE
  5
9B
330
2CE
100
AcDbEntity
  8
2-4A
  6
Continuous
 62
     7
370
    30
100
AcDbLine
 10
52.128635
 20
-4.874417
 30
0.0
 11
52.179844
 21
-4.823208
 31
0.0
  0
LINE
  5
9C
330
2CE
100
AcDbEntity
  8
2-4A
  6
Continuous
 62
     7
370
    30
100
AcDbLine
 10
51.845792
 20
-5.015833
 30
0.0
 11
51.9165
 21
-4.945125
 31
0.0
  0
LINE
  5
9D
330
2CE
100
AcDbEntity
  8
2-4A
  6
Continuous
 62
     7
370
    30
100
AcDbLine
 10
51.987219
 20
-4.874417
 30
0.0
 11
52.038427
 21
-4.823208
 31
0.0
  0
LINE
  5
9E
330
2CE
100
AcDbEntity
  8
2-4A
  6
Continuous
 62
     7
370
    30
100
AcDbLine
 10
51.710437
 20
-5.009771
 30
0.0
 11
51.775083
 21
-4.945125
 31
0.0
  0
LINE
  5
9F
330
2CE
100
AcDbEntity
  8
2-4A
  6
Continuous
 62
     7
370
    30
100
AcDbLine
 10
51.845792
 20
-4.874417
 30
0.0
 11
51.897
 21
-4.823208
 31
0.0
  0
LINE
  5
A0
330
2CE
100
AcDbEntity
  8
2-4A
  6
Continuous
 62
     7
370
    30
100
AcDbLine
 10
51.710437
 20
-4.868354
 30
0.0
 11
51.755583
 21
-4.823208
 31
0.0
  0
LINE
  5
A1
330
2CE
100
AcDbEntity
  8
2-4A
  6
Continuous
 62
     7
370
    30
100
AcDbLine
 10
52.270063
 20
-5.015833
 30
0.0
 11
52.340771
 21
-4.945125
 31
0.0
  0
LINE
  5
A2
330
2CE
100
AcDbEntity
  8
2-4A
  6
Continuous
 62
     7
370
    30
100
AcDbLine
 10
52.411479
 20
-4.874417
 30
0.0
 11
52.459781
 21
-4.826115
 31
0.0
  0
LINE
  5
A3
330
2CE
100
AcDbEntity
  8
2-4A
  6
Continuous
 62
     7
370
    30
100
AcDbLine
 10
52.411479
 20
-5.015833
 30
0.0
 11
52.459781
 21
-4.967531
 31
0.0
  0
LINE
  5
A4
330
2CE
100
AcDbEntity
  8
2-4A
  6
Continuous
 62
     7
370
    30
100
AcDbLine
 10
52.102125
 20
-4.989323
 30
0.0
 11
52.172833
 21
-4.918615
 31
0.0
  0
LINE
  5
A5
330
2CE
100
AcDbEntity
  8
2-4A
  6
Continuous
 62
     7
370
    30
100
AcDbLine
 10
52.243542
 20
-4.847896
 30
0.0
 11
52.268229
 21
-4.823208
 31
0.0
  0
LINE
  5
A6
330
2CE
100
AcDbEntity
  8
2-4A
  6
Continuous
 62
     7
370
    30
100
AcDbLine
 10
51.960698
 20
-4.989323
 30
0.0
 11
52.031406
 21
-4.918615
 31
0.0
  0
LINE
  5
A7
330
2CE
100
AcDbEntity
  8
2-4A
  6
Continuous
 62
     7
370
    30
100
AcDbLine
 10
52.102125
 20
-4.847896
 30
0.0
 11
52.126812
 21
-4.823208
 31
0.0
  0
LINE
  5
A8
330
2CE
100
AcDbEntity
  8
2-4A
  6
Continuous
 62
     7
370
    30
100
AcDbLine
 10
51.819281
 20
-4.989323
 30
0.0
 11
51.88999
 21
-4.918615
 31
0.0
  0
LINE
  5
A9
330
2CE
100
AcDbEntity
  8
2-4A
  6
Continuous
 62
     7
370
    30
100
AcDbLine
 10
51.960698
 20
-4.847896
 30
0.0
 11
51.985396
 21
-4.823208
 31
0.0
  0
LINE
  5
AA
330
2CE
100
AcDbEntity
  8
2-4A
  6
Continuous
 62
     7
370
    30
100
AcDbLine
 10
51.710437
 20
-4.95674
 30
0.0
 11
51.748562
 21
-4.918615
 31
0.0
  0
LINE
  5
AB
330
2CE
100
AcDbEntity
  8
2-4A
  6
Continuous
 62
     7
370
    30
100
AcDbLine
 10
51.819281
 20
-4.847896
 30
0.0
 11
51.843969
 21
-4.823208
 31
0.0
  0
LINE
  5
AC
330
2CE
100
AcDbEntity
  8
2-4A
  6
Continuous
 62
     7
370
    30
100
AcDbLine
 10
52.243542
 20
-4.989323
 30
0.0
 11
52.31425
 21
-4.918615
 31
0.0
  0
LINE
  5
AD
330
2CE
100
AcDbEntity
  8
2-4A
  6
Continuous
 62
     7
370
    30
100
AcDbLine
 10
52.384958
 20
-4.847896
 30
0.0
 11
52.409656
 21
-4.823208
 31
0.0
  0
LINE
  5
AE
330
2CE
100
AcDbEntity
  8
2-4A
  6
Continuous
 62
     7
370
    30
100
AcDbLine
 10
52.384958
 20
-4.989323
 30
0.0
 11
52.455677
 21
-4.918615
 31
0.0
  0
LINE
  5
AF
330
2CE
100
AcDbEntity
  8
2-4A
  6
Continuous
 62
     7
370
    30
100
AcDbLine
 10
52.001052
 20
-5.037354
 30
0.0
 11
52.004896
 21
-5.033521
 31
0.0
  0
LINE
  5
B0
330
2CE
100
AcDbEntity
  8
2-4A
  6
Continuous
 62
     7
370
    30
100
AcDbLine
 10
52.075604
 20
-4.962802
 30
0.0
 11
52.146313
 21
-4.892094
 31
0.0
  0
LINE
  5
B1
330
2CE
100
AcDbEntity
  8
2-4A
  6
Continuous
 62
     7
370
    30
100
AcDbLine
 10
51.859625
 20
-5.037354
 30
0.0
 11
51.863469
 21
-5.033521
 31
0.0
  0
LINE
  5
B2
330
2CE
100
AcDbEntity
  8
2-4A
  6
Continuous
 62
     7
370
    30
100
AcDbLine
 10
51.934177
 20
-4.962802
 30
0.0
 11
52.004896
 21
-4.892094
 31
0.0
  0
LINE
  5
B3
330
2CE
100
AcDbEntity
  8
2-4A
  6
Continuous
 62
     7
370
    30
100
AcDbLine
 10
51.718208
 20
-5.037354
 30
0.0
 11
51.722052
 21
-5.033521
 31
0.0
  0
LINE
  5
B4
330
2CE
100
AcDbEntity
  8
2-4A
  6
Continuous
 62
     7
370
    30
100
AcDbLine
 10
51.79276
 20
-4.962802
 30
0.0
 11
51.863469
 21
-4.892094
 31
0.0
  0
LINE
  5
B5
330
2CE
100
AcDbEntity
  8
2-4A
  6
Continuous
 62
     7
370
    30
100
AcDbLine
 10
51.710437
 20
-4.903708
 30
0.0
 11
51.722052
 21
-4.892094
 31
0.0
  0
LINE
  5
B6
330
2CE
100
AcDbEntity
  8
2-4A
  6
Continuous
 62
     7
370
    30
100
AcDbLine
 10
52.142469
 20
-5.037354
 30
0.0
 11
52.146313
 21
-5.033521
 31
0.0
  0
LINE
  5
B7
330
2CE
100
AcDbEntity
  8
2-4A
  6
Continuous
 62
     7
370
    30
100
AcDbLine
 10
52.217021
 20
-4.962802
 30
0.0
 11
52.28774
 21
-4.892094
 31
0.0
  0
LINE
  5
B8
330
2CE
100
AcDbEntity
  8
2-4A
  6
Continuous
 62
     7
370
    30
100
AcDbLine
 10
52.283896
 20
-5.037354
 30
0.0
 11
52.28774
 21
-5.033521
 31
0.0
  0
LINE
  5
B9
330
2CE
100
AcDbEntity
  8
2-4A
  6
Continuous
 62
     7
370
    30
100
AcDbLine
 10
52.358448
 20
-4.962802
 30
0.0
 11
52.429156
 21
-4.892094
 31
0.0
  0
LINE
  5
BA
330
2CE
100
AcDbEntity
  8
2-4A
  6
Continuous
 62
     7
370
    30
100
AcDbLine
 10
52.425312
 20
-5.037354
 30
0.0
 11
52.429156
 21
-5.033521
 31
0.0
  0
LINE
  5
BB
330
2CE
100
AcDbEntity
  8
2-4A
  6
Continuous
 62
     7
370
    30
100
AcDbLine
 10
52.167833
 20
-5.037354
 30
0.0
 11
52.146313
 21
-5.015833
 31
0.0
  0
LINE
  5
BC
330
2CE
100
AcDbEntity
  8
2-4A
  6
Continuous
 62
     7
370
    30
100
AcDbLine
 10
52.075604
 20
-4.945125
 30
0.0
 11
52.004896
 21
-4.874417
 31
0.0
  0
LINE
  5
BD
330
2CE
100
AcDbEntity
  8
2-4A
  6
Continuous
 62
     7
370
    30
100
AcDbLine
 10
52.026417
 20
-5.037354
 30
0.0
 11
52.004896
 21
-5.015833
 31
0.0
  0
LINE
  5
BE
330
2CE
100
AcDbEntity
  8
2-4A
  6
Continuous
 62
     7
370
    30
100
AcDbLine
 10
51.934177
 20
-4.945125
 30
0.0
 11
51.863469
 21
-4.874417
 31
0.0
  0
LINE
  5
BF
330
2CE
100
AcDbEntity
  8
2-4A
  6
Continuous
 62
     7
370
    30
100
AcDbLine
 10
51.88499
 20
-5.037354
 30
0.0
 11
51.863469
 21
-5.015833
 31
0.0
  0
LINE
  5
C0
330
2CE
100
AcDbEntity
  8
2-4A
  6
Continuous
 62
     7
370
    30
100
AcDbLine
 10
51.79276
 20
-4.945125
 30
0.0
 11
51.722052
 21
-4.874417
 31
0.0
  0
LINE
  5
C1
330
2CE
100
AcDbEntity
  8
2-4A
  6
Continuous
 62
     7
370
    30
100
AcDbLine
 10
51.743573
 20
-5.037354
 30
0.0
 11
51.722052
 21
-5.015833
 31
0.0
  0
LINE
  5
C2
330
2CE
100
AcDbEntity
  8
2-4A
  6
Continuous
 62
     7
370
    30
100
AcDbLine
 10
52.30926
 20
-5.037354
 30
0.0
 11
52.28774
 21
-5.015833
 31
0.0
  0
LINE
  5
C3
330
2CE
100
AcDbEntity
  8
2-4A
  6
Continuous
 62
     7
370
    30
100
AcDbLine
 10
52.217021
 20
-4.945125
 30
0.0
 11
52.146313
 21
-4.874417
 31
0.0
  0
LINE
  5
C4
330
2CE
100
AcDbEntity
  8
2-4A
  6
Continuous
 62
     7
370
    30
100
AcDbLine
 10
52.450677
 20
-5.037354
 30
0.0
 11
52.429156
 21
-5.015833
 31
0.0
  0
LINE
  5
C5
330
2CE
100
AcDbEntity
  8
2-4A
  6
Continuous
 62
     7
370
    30
100
AcDbLine
 10
52.358448
 20
-4.945125
 30
0.0
 11
52.28774
 21
-4.874417
 31
0.0
  0
LINE
  5
C6
330
2CE
100
AcDbEntity
  8
2-4A
  6
Continuous
 62
     7
370
    30
100
AcDbLine
 10
52.459781
 20
-4.905042
 30
0.0
 11
52.429156
 21
-4.874417
 31
0.0
  0
LINE
  5
C7
330
2CE
100
AcDbEntity
  8
2-4A
  6
Continuous
 62
     7
370
    30
100
AcDbLine
 10
52.079448
 20
-5.037354
 30
0.0
 11
52.031406
 21
-4.989323
 31
0.0
  0
LINE
  5
C8
330
2CE
100
AcDbEntity
  8
2-4A
  6
Continuous
 62
     7
370
    30
100
AcDbLine
 10
51.960698
 20
-4.918615
 30
0.0
 11
51.88999
 21
-4.847896
 31
0.0
  0
LINE
  5
C9
330
2CE
100
AcDbEntity
  8
2-4A
  6
Continuous
 62
     7
370
    30
100
AcDbLine
 10
51.938021
 20
-5.037354
 30
0.0
 11
51.88999
 21
-4.989323
 31
0.0
  0
LINE
  5
CA
330
2CE
100
AcDbEntity
  8
2-4A
  6
Continuous
 62
     7
370
    30
100
AcDbLine
 10
51.819281
 20
-4.918615
 30
0.0
 11
51.748562
 21
-4.847896
 31
0.0
  0
LINE
  5
CB
330
2CE
100
AcDbEntity
  8
2-4A
  6
Continuous
 62
     7
370
    30
100
AcDbLine
 10
51.796604
 20
-5.037354
 30
0.0
 11
51.748562
 21
-4.989323
 31
0.0
  0
LINE
  5
CC
330
2CE
100
AcDbEntity
  8
2-4A
  6
Continuous
 62
     7
370
    30
100
AcDbLine
 10
52.220865
 20
-5.037354
 30
0.0
 11
52.172833
 21
-4.989323
 31
0.0
  0
LINE
  5
CD
330
2CE
100
AcDbEntity
  8
2-4A
  6
Continuous
 62
     7
370
    30
100
AcDbLine
 10
52.102125
 20
-4.918615
 30
0.0
 11
52.031406
 21
-4.847896
 31
0.0
  0
LINE
  5
CE
330
2CE
100
AcDbEntity
  8
2-4A
  6
Continuous
 62
     7
370
    30
100
AcDbLine
 10
52.362292
 20
-5.037354
 30
0.0
 11
52.31425
 21
-4.989323
 31
0.0
  0
LINE
  5
CF
330
2CE
100
AcDbEntity
  8
2-4A
  6
Continuous
 62
     7
370
    30
100
AcDbLine
 10
52.243542
 20
-4.918615
 30
0.0
 11
52.172833
 21
-4.847896
 31
0.0
  0
LINE
  5
D0
330
2CE
100
AcDbEntity
  8
2-4A
  6
Continuous
 62
     7
370
    30
100
AcDbLine
 10
52.459781
 20
-4.993437
 30
0.0
 11
52.455677
 21
-4.989323
 31
0.0
  0
LINE
  5
D1
330
2CE
100
AcDbEntity
  8
2-4A
  6
Continuous
 62
     7
370
    30
100
AcDbLine
 10
52.384958
 20
-4.918615
 30
0.0
 11
52.31425
 21
-4.847896
 31
0.0
  0
LINE
  5
D2
330
2CE
100
AcDbEntity
  8
2-4A
  6
Continuous
 62
     7
370
    30
100
AcDbLine
 10
52.459781
 20
-4.85201
 30
0.0
 11
52.455677
 21
-4.847896
 31
0.0
  0
LINE
  5
D3
330
2CE
100
AcDbEntity
  8
2-4A
  6
Continuous
 62
     7
370
    30
100
AcDbLine
 10
52.128635
 20
-5.033521
 30
0.0
 11
52.057927
 21
-4.962802
 31
0.0
  0
LINE
  5
D4
330
2CE
100
AcDbEntity
  8
2-4A
  6
Continuous
 62
     7
370
    30
100
AcDbLine
 10
51.987219
 20
-4.892094
 30
0.0
 11
51.918323
 21
-4.823208
 31
0.0
  0
LINE
  5
D5
330
2CE
100
AcDbEntity
  8
2-4A
  6
Continuous
 62
     7
370
    30
100
AcDbLine
 10
51.987219
 20
-5.033521
 30
0.0
 11
51.9165
 21
-4.962802
 31
0.0
  0
LINE
  5
D6
330
2CE
100
AcDbEntity
  8
2-4A
  6
Continuous
 62
     7
370
    30
100
AcDbLine
 10
51.845792
 20
-4.892094
 30
0.0
 11
51.776906
 21
-4.823208
 31
0.0
  0
LINE
  5
D7
330
2CE
100
AcDbEntity
  8
2-4A
  6
Continuous
 62
     7
370
    30
100
AcDbLine
 10
51.845792
 20
-5.033521
 30
0.0
 11
51.775083
 21
-4.962802
 31
0.0
  0
LINE
  5
D8
330
2CE
100
AcDbEntity
  8
2-4A
  6
Continuous
 62
     7
370
    30
100
AcDbLine
 10
52.270063
 20
-5.033521
 30
0.0
 11
52.199344
 21
-4.962802
 31
0.0
  0
LINE
  5
D9
330
2CE
100
AcDbEntity
  8
2-4A
  6
Continuous
 62
     7
370
    30
100
AcDbLine
 10
52.128635
 20
-4.892094
 30
0.0
 11
52.05975
 21
-4.823208
 31
0.0
  0
LINE
  5
DA
330
2CE
100
AcDbEntity
  8
2-4A
  6
Continuous
 62
     7
370
    30
100
AcDbLine
 10
52.411479
 20
-5.033521
 30
0.0
 11
52.340771
 21
-4.962802
 31
0.0
  0
LINE
  5
DB
330
2CE
100
AcDbEntity
  8
2-4A
  6
Continuous
 62
     7
370
    30
100
AcDbLine
 10
52.270063
 20
-4.892094
 30
0.0
 11
52.201167
 21
-4.823208
 31
0.0
  0
LINE
  5
DC
330
2CE
100
AcDbEntity
  8
2-4A
  6
Continuous
 62
     7
370
    30
100
AcDbLine
 10
52.411479
 20
-4.892094
 30
0.0
 11
52.342594
 21
-4.823208
 31
0.0
  0
LINE
  5
DD
330
2CE
100
AcDbEntity
  8
2-4A
  6
Continuous
 62
     7
370
    30
100
AcDbLine
 10
54.289552
 20
-5.015833
 30
0.0
 11
54.36026
 21
-4.945125
 31
0.0
  0
LINE
  5
DE
330
2CE
100
AcDbEntity
  8
2-4A
  6
Continuous
 62
     7
370
    30
100
AcDbLine
 10
54.430979
 20
-4.874417
 30
0.0
 11
54.482187
 21
-4.823208
 31
0.0
  0
LINE
  5
DF
330
2CE
100
AcDbEntity
  8
2-4A
  6
Continuous
 62
     7
370
    30
100
AcDbLine
 10
54.148135
 20
-5.015833
 30
0.0
 11
54.218844
 21
-4.945125
 31
0.0
  0
LINE
  5
E0
330
2CE
100
AcDbEntity
  8
2-4A
  6
Continuous
 62
     7
370
    30
100
AcDbLine
 10
54.289552
 20
-4.874417
 30
0.0
 11
54.34076
 21
-4.823208
 31
0.0
  0
LINE
  5
E1
330
2CE
100
AcDbEntity
  8
2-4A
  6
Continuous
 62
     7
370
    30
100
AcDbLine
 10
54.006708
 20
-5.015833
 30
0.0
 11
54.077417
 21
-4.945125
 31
0.0
  0
LINE
  5
E2
330
2CE
100
AcDbEntity
  8
2-4A
  6
Continuous
 62
     7
370
    30
100
AcDbLine
 10
54.148135
 20
-4.874417
 30
0.0
 11
54.199344
 21
-4.823208
 31
0.0
  0
LINE
  5
E3
330
2CE
100
AcDbEntity
  8
2-4A
  6
Continuous
 62
     7
370
    30
100
AcDbLine
 10
53.871354
 20
-5.009771
 30
0.0
 11
53.936
 21
-4.945125
 31
0.0
  0
LINE
  5
E4
330
2CE
100
AcDbEntity
  8
2-4A
  6
Continuous
 62
     7
370
    30
100
AcDbLine
 10
54.006708
 20
-4.874417
 30
0.0
 11
54.057917
 21
-4.823208
 31
0.0
  0
LINE
  5
E5
330
2CE
100
AcDbEntity
  8
2-4A
  6
Continuous
 62
     7
370
    30
100
AcDbLine
 10
53.871354
 20
-4.868354
 30
0.0
 11
53.9165
 21
-4.823208
 31
0.0
  0
LINE
  5
E6
330
2CE
100
AcDbEntity
  8
2-4A
  6
Continuous
 62
     7
370
    30
100
AcDbLine
 10
54.430979
 20
-5.015833
 30
0.0
 11
54.501687
 21
-4.945125
 31
0.0
  0
LINE
  5
E7
330
2CE
100
AcDbEntity
  8
2-4A
  6
Continuous
 62
     7
370
    30
100
AcDbLine
 10
54.572396
 20
-4.874417
 30
0.0
 11
54.620698
 21
-4.826115
 31
0.0
  0
LINE
  5
E8
330
2CE
100
AcDbEntity
  8
2-4A
  6
Continuous
 62
     7
370
    30
100
AcDbLine
 10
54.572396
 20
-5.015833
 30
0.0
 11
54.620698
 21
-4.967531
 31
0.0
  0
LINE
  5
E9
330
2CE
100
AcDbEntity
  8
2-4A
  6
Continuous
 62
     7
370
    30
100
AcDbLine
 10
54.263042
 20
-4.989323
 30
0.0
 11
54.33375
 21
-4.918615
 31
0.0
  0
LINE
  5
EA
330
2CE
100
AcDbEntity
  8
2-4A
  6
Continuous
 62
     7
370
    30
100
AcDbLine
 10
54.404458
 20
-4.847896
 30
0.0
 11
54.429146
 21
-4.823208
 31
0.0
  0
LINE
  5
EB
330
2CE
100
AcDbEntity
  8
2-4A
  6
Continuous
 62
     7
370
    30
100
AcDbLine
 10
54.121615
 20
-4.989323
 30
0.0
 11
54.192323
 21
-4.918615
 31
0.0
  0
LINE
  5
EC
330
2CE
100
AcDbEntity
  8
2-4A
  6
Continuous
 62
     7
370
    30
100
AcDbLine
 10
54.263042
 20
-4.847896
 30
0.0
 11
54.287729
 21
-4.823208
 31
0.0
  0
LINE
  5
ED
330
2CE
100
AcDbEntity
  8
2-4A
  6
Continuous
 62
     7
370
    30
100
AcDbLine
 10
53.980198
 20
-4.989323
 30
0.0
 11
54.050906
 21
-4.918615
 31
0.0
  0
LINE
  5
EE
330
2CE
100
AcDbEntity
  8
2-4A
  6
Continuous
 62
     7
370
    30
100
AcDbLine
 10
54.121615
 20
-4.847896
 30
0.0
 11
54.146313
 21
-4.823208
 31
0.0
  0
LINE
  5
EF
330
2CE
100
AcDbEntity
  8
2-4A
  6
Continuous
 62
     7
370
    30
100
AcDbLine
 10
53.871354
 20
-4.95674
 30
0.0
 11
53.909479
 21
-4.918615
 31
0.0
  0
LINE
  5
F0
330
2CE
100
AcDbEntity
  8
2-4A
  6
Continuous
 62
     7
370
    30
100
AcDbLine
 10
53.980198
 20
-4.847896
 30
0.0
 11
54.004885
 21
-4.823208
 31
0.0
  0
LINE
  5
F1
330
2CE
100
AcDbEntity
  8
2-4A
  6
Continuous
 62
     7
370
    30
100
AcDbLine
 10
54.404458
 20
-4.989323
 30
0.0
 11
54.475167
 21
-4.918615
 31
0.0
  0
LINE
  5
F2
330
2CE
100
AcDbEntity
  8
2-4A
  6
Continuous
 62
     7
370
    30
100
AcDbLine
 10
54.545875
 20
-4.847896
 30
0.0
 11
54.570573
 21
-4.823208
 31
0.0
  0
LINE
  5
F3
330
2CE
100
AcDbEntity
  8
2-4A
  6
Continuous
 62
     7
370
    30
100
AcDbLine
 10
54.545875
 20
-4.989323
 30
0.0
 11
54.616594
 21
-4.918615
 31
0.0
  0
LINE
  5
F4
330
2CE
100
AcDbEntity
  8
2-4A
  6
Continuous
 62
     7
370
    30
100
AcDbLine
 10
54.161969
 20
-5.037354
 30
0.0
 11
54.165813
 21
-5.033521
 31
0.0
  0
LINE
  5
F5
330
2CE
100
AcDbEntity
  8
2-4A
  6
Continuous
 62
     7
370
    30
100
AcDbLine
 10
54.236521
 20
-4.962802
 30
0.0
 11
54.307229
 21
-4.892094
 31
0.0
  0
LINE
  5
F6
330
2CE
100
AcDbEntity
  8
2-4A
  6
Continuous
 62
     7
370
    30
100
AcDbLine
 10
54.020542
 20
-5.037354
 30
0.0
 11
54.024385
 21
-5.033521
 31
0.0
  0
LINE
  5
F7
330
2CE
100
AcDbEntity
  8
2-4A
  6
Continuous
 62
     7
370
    30
100
AcDbLine
 10
54.095094
 20
-4.962802
 30
0.0
 11
54.165813
 21
-4.892094
 31
0.0
  0
LINE
  5
F8
330
2CE
100
AcDbEntity
  8
2-4A
  6
Continuous
 62
     7
370
    30
100
AcDbLine
 10
53.879125
 20
-5.037354
 30
0.0
 11
53.882969
 21
-5.033521
 31
0.0
  0
LINE
  5
F9
330
2CE
100
AcDbEntity
  8
2-4A
  6
Continuous
 62
     7
370
    30
100
AcDbLine
 10
53.953677
 20
-4.962802
 30
0.0
 11
54.024385
 21
-4.892094
 31
0.0
  0
LINE
  5
FA
330
2CE
100
AcDbEntity
  8
2-4A
  6
Continuous
 62
     7
370
    30
100
AcDbLine
 10
53.871354
 20
-4.903708
 30
0.0
 11
53.882969
 21
-4.892094
 31
0.0
  0
LINE
  5
FB
330
2CE
100
AcDbEntity
  8
2-4A
  6
Continuous
 62
     7
370
    30
100
AcDbLine
 10
54.303385
 20
-5.037354
 30
0.0
 11
54.307229
 21
-5.033521
 31
0.0
  0
LINE
  5
FC
330
2CE
100
AcDbEntity
  8
2-4A
  6
Continuous
 62
     7
370
    30
100
AcDbLine
 10
54.377938
 20
-4.962802
 30
0.0
 11
54.448656
 21
-4.892094
 31
0.0
  0
LINE
  5
FD
330
2CE
100
AcDbEntity
  8
2-4A
  6
Continuous
 62
     7
370
    30
100
AcDbLine
 10
54.444812
 20
-5.037354
 30
0.0
 11
54.448656
 21
-5.033521
 31
0.0
  0
LINE
  5
FE
330
2CE
100
AcDbEntity
  8
2-4A
  6
Continuous
 62
     7
370
    30
100
AcDbLine
 10
54.519365
 20
-4.962802
 30
0.0
 11
54.590073
 21
-4.892094
 31
0.0
  0
LINE
  5
FF
330
2CE
100
AcDbEntity
  8
2-4A
  6
Continuous
 62
     7
370
    30
100
AcDbLine
 10
54.586229
 20
-5.037354
 30
0.0
 11
54.590073
 21
-5.033521
 31
0.0
  0
LINE
  5
100
330
2CE
100
AcDbEntity
  8
2-4A
  6
Continuous
 62
     7
370
    30
100
AcDbLine
 10
54.32875
 20
-5.037354
 30
0.0
 11
54.307229
 21
-5.015833
 31
0.0
  0
LINE
  5
101
330
2CE
100
AcDbEntity
  8
2-4A
  6
Continuous
 62
     7
370
    30
100
AcDbLine
 10
54.236521
 20
-4.945125
 30
0.0
 11
54.165813
 21
-4.874417
 31
0.0
  0
LINE
  5
102
330
2CE
100
AcDbEntity
  8
2-4A
  6
Continuous
 62
     7
370
    30
100
AcDbLine
 10
54.187333
 20
-5.037354
 30
0.0
 11
54.165813
 21
-5.015833
 31
0.0
  0
LINE
  5
103
330
2CE
100
AcDbEntity
  8
2-4A
  6
Continuous
 62
     7
370
    30
100
AcDbLine
 10
54.095094
 20
-4.945125
 30
0.0
 11
54.024385
 21
-4.874417
 31
0.0
  0
LINE
  5
104
330
2CE
100
AcDbEntity
  8
2-4A
  6
Continuous
 62
     7
370
    30
100
AcDbLine
 10
54.045906
 20
-5.037354
 30
0.0
 11
54.024385
 21
-5.015833
 31
0.0
  0
LINE
  5
105
330
2CE
100
AcDbEntity
  8
2-4A
  6
Continuous
 62
     7
370
    30
100
AcDbLine
 10
53.953677
 20
-4.945125
 30
0.0
 11
53.882969
 21
-4.874417
 31
0.0
  0
LINE
  5
106
330
2CE
100
AcDbEntity
  8
2-4A
  6
Continuous
 62
     7
370
    30
100
AcDbLine
 10
53.90449
 20
-5.037354
 30
0.0
 11
53.882969
 21
-5.015833
 31
0.0
  0
LINE
  5
107
330
2CE
100
AcDbEntity
  8
2-4A
  6
Continuous
 62
     7
370
    30
100
AcDbLine
 10
54.470177
 20
-5.037354
 30
0.0
 11
54.448656
 21
-5.015833
 31
0.0
  0
LINE
  5
108
330
2CE
100
AcDbEntity
  8
2-4A
  6
Continuous
 62
     7
370
    30
100
AcDbLine
 10
54.377938
 20
-4.945125
 30
0.0
 11
54.307229
 21
-4.874417
 31
0.0
  0
LINE
  5
109
330
2CE
100
AcDbEntity
  8
2-4A
  6
Continuous
 62
     7
370
    30
100
AcDbLine
 10
54.611594
 20
-5.037354
 30
0.0
 11
54.590073
 21
-5.015833
 31
0.0
  0
LINE
  5
10A
330
2CE
100
AcDbEntity
  8
2-4A
  6
Continuous
 62
     7
370
    30
100
AcDbLine
 10
54.519365
 20
-4.945125
 30
0.0
 11
54.448656
 21
-4.874417
 31
0.0
  0
LINE
  5
10B
330
2CE
100
AcDbEntity
  8
2-4A
  6
Continuous
 62
     7
370
    30
100
AcDbLine
 10
54.620698
 20
-4.905042
 30
0.0
 11
54.590073
 21
-4.874417
 31
0.0
  0
LINE
  5
10C
330
2CE
100
AcDbEntity
  8
2-4A
  6
Continuous
 62
     7
370
    30
100
AcDbLine
 10
54.240365
 20
-5.037354
 30
0.0
 11
54.192323
 21
-4.989323
 31
0.0
  0
LINE
  5
10D
330
2CE
100
AcDbEntity
  8
2-4A
  6
Continuous
 62
     7
370
    30
100
AcDbLine
 10
54.121615
 20
-4.918615
 30
0.0
 11
54.050906
 21
-4.847896
 31
0.0
  0
LINE
  5
10E
330
2CE
100
AcDbEntity
  8
2-4A
  6
Continuous
 62
     7
370
    30
100
AcDbLine
 10
54.098937
 20
-5.037354
 30
0.0
 11
54.050906
 21
-4.989323
 31
0.0
  0
LINE
  5
10F
330
2CE
100
AcDbEntity
  8
2-4A
  6
Continuous
 62
     7
370
    30
100
AcDbLine
 10
53.980198
 20
-4.918615
 30
0.0
 11
53.909479
 21
-4.847896
 31
0.0
  0
LINE
  5
110
330
2CE
100
AcDbEntity
  8
2-4A
  6
Continuous
 62
     7
370
    30
100
AcDbLine
 10
53.957521
 20
-5.037354
 30
0.0
 11
53.909479
 21
-4.989323
 31
0.0
  0
LINE
  5
111
330
2CE
100
AcDbEntity
  8
2-4A
  6
Continuous
 62
     7
370
    30
100
AcDbLine
 10
54.381781
 20
-5.037354
 30
0.0
 11
54.33375
 21
-4.989323
 31
0.0
  0
LINE
  5
112
330
2CE
100
AcDbEntity
  8
2-4A
  6
Continuous
 62
     7
370
    30
100
AcDbLine
 10
54.263042
 20
-4.918615
 30
0.0
 11
54.192323
 21
-4.847896
 31
0.0
  0
LINE
  5
113
330
2CE
100
AcDbEntity
  8
2-4A
  6
Continuous
 62
     7
370
    30
100
AcDbLine
 10
54.523208
 20
-5.037354
 30
0.0
 11
54.475167
 21
-4.989323
 31
0.0
  0
LINE
  5
114
330
2CE
100
AcDbEntity
  8
2-4A
  6
Continuous
 62
     7
370
    30
100
AcDbLine
 10
54.404458
 20
-4.918615
 30
0.0
 11
54.33375
 21
-4.847896
 31
0.0
  0
LINE
  5
115
330
2CE
100
AcDbEntity
  8
2-4A
  6
Continuous
 62
     7
370
    30
100
AcDbLine
 10
54.620698
 20
-4.993437
 30
0.0
 11
54.616594
 21
-4.989323
 31
0.0
  0
LINE
  5
116
330
2CE
100
AcDbEntity
  8
2-4A
  6
Continuous
 62
     7
370
    30
100
AcDbLine
 10
54.545875
 20
-4.918615
 30
0.0
 11
54.475167
 21
-4.847896
 31
0.0
  0
LINE
  5
117
330
2CE
100
AcDbEntity
  8
2-4A
  6
Continuous
 62
     7
370
    30
100
AcDbLine
 10
54.620698
 20
-4.85201
 30
0.0
 11
54.616594
 21
-4.847896
 31
0.0
  0
LINE
  5
118
330
2CE
100
AcDbEntity
  8
2-4A
  6
Continuous
 62
     7
370
    30
100
AcDbLine
 10
54.289552
 20
-5.033521
 30
0.0
 11
54.218844
 21
-4.962802
 31
0.0
  0
LINE
  5
119
330
2CE
100
AcDbEntity
  8
2-4A
  6
Continuous
 62
     7
370
    30
100
AcDbLine
 10
54.148135
 20
-4.892094
 30
0.0
 11
54.07924
 21
-4.823208
 31
0.0
  0
LINE
  5
11A
330
2CE
100
AcDbEntity
  8
2-4A
  6
Continuous
 62
     7
370
    30
100
AcDbLine
 10
54.148135
 20
-5.033521
 30
0.0
 11
54.077417
 21
-4.962802
 31
0.0
  0
LINE
  5
11B
330
2CE
100
AcDbEntity
  8
2-4A
  6
Continuous
 62
     7
370
    30
100
AcDbLine
 10
54.006708
 20
-4.892094
 30
0.0
 11
53.937823
 21
-4.823208
 31
0.0
  0
LINE
  5
11C
330
2CE
100
AcDbEntity
  8
2-4A
  6
Continuous
 62
     7
370
    30
100
AcDbLine
 10
54.006708
 20
-5.033521
 30
0.0
 11
53.936
 21
-4.962802
 31
0.0
  0
LINE
  5
11D
330
2CE
100
AcDbEntity
  8
2-4A
  6
Continuous
 62
     7
370
    30
100
AcDbLine
 10
54.430979
 20
-5.033521
 30
0.0
 11
54.36026
 21
-4.962802
 31
0.0
  0
LINE
  5
11E
330
2CE
100
AcDbEntity
  8
2-4A
  6
Continuous
 62
     7
370
    30
100
AcDbLine
 10
54.289552
 20
-4.892094
 30
0.0
 11
54.220667
 21
-4.823208
 31
0.0
  0
LINE
  5
11F
330
2CE
100
AcDbEntity
  8
2-4A
  6
Continuous
 62
     7
370
    30
100
AcDbLine
 10
54.572396
 20
-5.033521
 30
0.0
 11
54.501687
 21
-4.962802
 31
0.0
  0
LINE
  5
120
330
2CE
100
AcDbEntity
  8
2-4A
  6
Continuous
 62
     7
370
    30
100
AcDbLine
 10
54.430979
 20
-4.892094
 30
0.0
 11
54.362083
 21
-4.823208
 31
0.0
  0
LINE
  5
121
330
2CE
100
AcDbEntity
  8
2-4A
  6
Continuous
 62
     7
370
    30
100
AcDbLine
 10
54.572396
 20
-4.892094
 30
0.0
 11
54.50351
 21
-4.823208
 31
0.0
  0
LINE
  5
122
330
2CE
100
AcDbEntity
  8
TEXT
  6
Continuous
 62
     7
370
    30
100
AcDbLine
 10
54.289552
 20
-7.602479
 30
0.0
 11
54.36026
 21
-7.531771
 31
0.0
  0
LINE
  5
123
330
2CE
100
AcDbEntity
  8
TEXT
  6
Continuous
 62
     7
370
    30
100
AcDbLine
 10
54.430979
 20
-7.461062
 30
0.0
 11
54.482187
 21
-7.409854
 31
0.0
  0
LINE
  5
124
330
2CE
100
AcDbEntity
  8
TEXT
  6
Continuous
 62
     7
370
    30
100
AcDbLine
 10
54.148135
 20
-7.602479
 30
0.0
 11
54.218844
 21
-7.531771
 31
0.0
  0
LINE
  5
125
330
2CE
100
AcDbEntity
  8
TEXT
  6
Continuous
 62
     7
370
    30
100
AcDbLine
 10
54.289552
 20
-7.461062
 30
0.0
 11
54.34076
 21
-7.409854
 31
0.0
  0
LINE
  5
126
330
2CE
100
AcDbEntity
  8
TEXT
  6
Continuous
 62
     7
370
    30
100
AcDbLine
 10
54.006708
 20
-7.602479
 30
0.0
 11
54.077417
 21
-7.531771
 31
0.0
  0
LINE
  5
127
330
2CE
100
AcDbEntity
  8
TEXT
  6
Continuous
 62
     7
370
    30
100
AcDbLine
 10
54.148135
 20
-7.461062
 30
0.0
 11
54.199344
 21
-7.409854
 31
0.0
  0
LINE
  5
128
330
2CE
100
AcDbEntity
  8
TEXT
  6
Continuous
 62
     7
370
    30
100
AcDbLine
 10
53.871354
 20
-7.596417
 30
0.0
 11
53.936
 21
-7.531771
 31
0.0
  0
LINE
  5
129
330
2CE
100
AcDbEntity
  8
TEXT
  6
Continuous
 62
     7
370
    30
100
AcDbLine
 10
54.006708
 20
-7.461062
 30
0.0
 11
54.057917
 21
-7.409854
 31
0.0
  0
LINE
  5
12A
330
2CE
100
AcDbEntity
  8
TEXT
  6
Continuous
 62
     7
370
    30
100
AcDbLine
 10
53.871354
 20
-7.455
 30
0.0
 11
53.9165
 21
-7.409854
 31
0.0
  0
LINE
  5
12B
330
2CE
100
AcDbEntity
  8
TEXT
  6
Continuous
 62
     7
370
    30
100
AcDbLine
 10
54.430979
 20
-7.602479
 30
0.0
 11
54.501687
 21
-7.531771
 31
0.0
  0
LINE
  5
12C
330
2CE
100
AcDbEntity
  8
TEXT
  6
Continuous
 62
     7
370
    30
100
AcDbLine
 10
54.572396
 20
-7.461062
 30
0.0
 11
54.620698
 21
-7.41276
 31
0.0
  0
LINE
  5
12D
330
2CE
100
AcDbEntity
  8
TEXT
  6
Continuous
 62
     7
370
    30
100
AcDbLine
 10
54.572396
 20
-7.602479
 30
0.0
 11
54.620698
 21
-7.554177
 31
0.0
  0
LINE
  5
12E
330
2CE
100
AcDbEntity
  8
TEXT
  6
Continuous
 62
     7
370
    30
100
AcDbLine
 10
54.263042
 20
-7.575969
 30
0.0
 11
54.33375
 21
-7.50526
 31
0.0
  0
LINE
  5
12F
330
2CE
100
AcDbEntity
  8
TEXT
  6
Continuous
 62
     7
370
    30
100
AcDbLine
 10
54.404458
 20
-7.434542
 30
0.0
 11
54.429146
 21
-7.409854
 31
0.0
  0
LINE
  5
130
330
2CE
100
AcDbEntity
  8
TEXT
  6
Continuous
 62
     7
370
    30
100
AcDbLine
 10
54.121615
 20
-7.575969
 30
0.0
 11
54.192323
 21
-7.50526
 31
0.0
  0
LINE
  5
131
330
2CE
100
AcDbEntity
  8
TEXT
  6
Continuous
 62
     7
370
    30
100
AcDbLine
 10
54.263042
 20
-7.434542
 30
0.0
 11
54.287729
 21
-7.409854
 31
0.0
  0
LINE
  5
132
330
2CE
100
AcDbEntity
  8
TEXT
  6
Continuous
 62
     7
370
    30
100
AcDbLine
 10
53.980198
 20
-7.575969
 30
0.0
 11
54.050906
 21
-7.50526
 31
0.0
  0
LINE
  5
133
330
2CE
100
AcDbEntity
  8
TEXT
  6
Continuous
 62
     7
370
    30
100
AcDbLine
 10
54.121615
 20
-7.434542
 30
0.0
 11
54.146313
 21
-7.409854
 31
0.0
  0
LINE
  5
134
330
2CE
100
AcDbEntity
  8
TEXT
  6
Continuous
 62
     7
370
    30
100
AcDbLine
 10
53.871354
 20
-7.543385
 30
0.0
 11
53.909479
 21
-7.50526
 31
0.0
  0
LINE
  5
135
330
2CE
100
AcDbEntity
  8
TEXT
  6
Continuous
 62
     7
370
    30
100
AcDbLine
 10
53.980198
 20
-7.434542
 30
0.0
 11
54.004885
 21
-7.409854
 31
0.0
  0
LINE
  5
136
330
2CE
100
AcDbEntity
  8
TEXT
  6
Continuous
 62
     7
370
    30
100
AcDbLine
 10
54.404458
 20
-7.575969
 30
0.0
 11
54.475167
 21
-7.50526
 31
0.0
  0
LINE
  5
137
330
2CE
100
AcDbEntity
  8
TEXT
  6
Continuous
 62
     7
370
    30
100
AcDbLine
 10
54.545875
 20
-7.434542
 30
0.0
 11
54.570573
 21
-7.409854
 31
0.0
  0
LINE
  5
138
330
2CE
100
AcDbEntity
  8
TEXT
  6
Continuous
 62
     7
370
    30
100
AcDbLine
 10
54.545875
 20
-7.575969
 30
0.0
 11
54.616594
 21
-7.50526
 31
0.0
  0
LINE
  5
139
330
2CE
100
AcDbEntity
  8
TEXT
  6
Continuous
 62
     7
370
    30
100
AcDbLine
 10
54.161969
 20
-7.624
 30
0.0
 11
54.165813
 21
-7.620167
 31
0.0
  0
LINE
  5
13A
330
2CE
100
AcDbEntity
  8
TEXT
  6
Continuous
 62
     7
370
    30
100
AcDbLine
 10
54.236521
 20
-7.549448
 30
0.0
 11
54.307229
 21
-7.47874
 31
0.0
  0
LINE
  5
13B
330
2CE
100
AcDbEntity
  8
TEXT
  6
Continuous
 62
     7
370
    30
100
AcDbLine
 10
54.020542
 20
-7.624
 30
0.0
 11
54.024385
 21
-7.620167
 31
0.0
  0
LINE
  5
13C
330
2CE
100
AcDbEntity
  8
TEXT
  6
Continuous
 62
     7
370
    30
100
AcDbLine
 10
54.095094
 20
-7.549448
 30
0.0
 11
54.165813
 21
-7.47874
 31
0.0
  0
LINE
  5
13D
330
2CE
100
AcDbEntity
  8
TEXT
  6
Continuous
 62
     7
370
    30
100
AcDbLine
 10
53.879125
 20
-7.624
 30
0.0
 11
53.882969
 21
-7.620167
 31
0.0
  0
LINE
  5
13E
330
2CE
100
AcDbEntity
  8
TEXT
  6
Continuous
 62
     7
370
    30
100
AcDbLine
 10
53.953677
 20
-7.549448
 30
0.0
 11
54.024385
 21
-7.47874
 31
0.0
  0
LINE
  5
13F
330
2CE
100
AcDbEntity
  8
TEXT
  6
Continuous
 62
     7
370
    30
100
AcDbLine
 10
53.871354
 20
-7.490354
 30
0.0
 11
53.882969
 21
-7.47874
 31
0.0
  0
LINE
  5
140
330
2CE
100
AcDbEntity
  8
TEXT
  6
Continuous
 62
     7
370
    30
100
AcDbLine
 10
54.303385
 20
-7.624
 30
0.0
 11
54.307229
 21
-7.620167
 31
0.0
  0
LINE
  5
141
330
2CE
100
AcDbEntity
  8
TEXT
  6
Continuous
 62
     7
370
    30
100
AcDbLine
 10
54.377938
 20
-7.549448
 30
0.0
 11
54.448656
 21
-7.47874
 31
0.0
  0
LINE
  5
142
330
2CE
100
AcDbEntity
  8
TEXT
  6
Continuous
 62
     7
370
    30
100
AcDbLine
 10
54.444812
 20
-7.624
 30
0.0
 11
54.448656
 21
-7.620167
 31
0.0
  0
LINE
  5
143
330
2CE
100
AcDbEntity
  8
TEXT
  6
Continuous
 62
     7
370
    30
100
AcDbLine
 10
54.519365
 20
-7.549448
 30
0.0
 11
54.590073
 21
-7.47874
 31
0.0
  0
LINE
  5
144
330
2CE
100
AcDbEntity
  8
TEXT
  6
Continuous
 62
     7
370
    30
100
AcDbLine
 10
54.586229
 20
-7.624
 30
0.0
 11
54.590073
 21
-7.620167
 31
0.0
  0
LINE
  5
145
330
2CE
100
AcDbEntity
  8
TEXT
  6
Continuous
 62
     7
370
    30
100
AcDbLine
 10
54.32875
 20
-7.624
 30
0.0
 11
54.307229
 21
-7.602479
 31
0.0
  0
LINE
  5
146
330
2CE
100
AcDbEntity
  8
TEXT
  6
Continuous
 62
     7
370
    30
100
AcDbLine
 10
54.236521
 20
-7.531771
 30
0.0
 11
54.165813
 21
-7.461062
 31
0.0
  0
LINE
  5
147
330
2CE
100
AcDbEntity
  8
TEXT
  6
Continuous
 62
     7
370
    30
100
AcDbLine
 10
54.187333
 20
-7.624
 30
0.0
 11
54.165813
 21
-7.602479
 31
0.0
  0
LINE
  5
148
330
2CE
100
AcDbEntity
  8
TEXT
  6
Continuous
 62
     7
370
    30
100
AcDbLine
 10
54.095094
 20
-7.531771
 30
0.0
 11
54.024385
 21
-7.461062
 31
0.0
  0
LINE
  5
149
330
2CE
100
AcDbEntity
  8
TEXT
  6
Continuous
 62
     7
370
    30
100
AcDbLine
 10
54.045906
 20
-7.624
 30
0.0
 11
54.024385
 21
-7.602479
 31
0.0
  0
LINE
  5
14A
330
2CE
100
AcDbEntity
  8
TEXT
  6
Continuous
 62
     7
370
    30
100
AcDbLine
 10
53.953677
 20
-7.531771
 30
0.0
 11
53.882969
 21
-7.461062
 31
0.0
  0
LINE
  5
14B
330
2CE
100
AcDbEntity
  8
TEXT
  6
Continuous
 62
     7
370
    30
100
AcDbLine
 10
53.90449
 20
-7.624
 30
0.0
 11
53.882969
 21
-7.602479
 31
0.0
  0
LINE
  5
14C
330
2CE
100
AcDbEntity
  8
TEXT
  6
Continuous
 62
     7
370
    30
100
AcDbLine
 10
54.470177
 20
-7.624
 30
0.0
 11
54.448656
 21
-7.602479
 31
0.0
  0
LINE
  5
14D
330
2CE
100
AcDbEntity
  8
TEXT
  6
Continuous
 62
     7
370
    30
100
AcDbLine
 10
54.377938
 20
-7.531771
 30
0.0
 11
54.307229
 21
-7.461062
 31
0.0
  0
LINE
  5
14E
330
2CE
100
AcDbEntity
  8
TEXT
  6
Continuous
 62
     7
370
    30
100
AcDbLine
 10
54.611594
 20
-7.624
 30
0.0
 11
54.590073
 21
-7.602479
 31
0.0
  0
LINE
  5
14F
330
2CE
100
AcDbEntity
  8
TEXT
  6
Continuous
 62
     7
370
    30
100
AcDbLine
 10
54.519365
 20
-7.531771
 30
0.0
 11
54.448656
 21
-7.461062
 31
0.0
  0
LINE
  5
150
330
2CE
100
AcDbEntity
  8
TEXT
  6
Continuous
 62
     7
370
    30
100
AcDbLine
 10
54.620698
 20
-7.491687
 30
0.0
 11
54.590073
 21
-7.461062
 31
0.0
  0
LINE
  5
151
330
2CE
100
AcDbEntity
  8
TEXT
  6
Continuous
 62
     7
370
    30
100
AcDbLine
 10
54.240365
 20
-7.624
 30
0.0
 11
54.192323
 21
-7.575969
 31
0.0
  0
LINE
  5
152
330
2CE
100
AcDbEntity
  8
TEXT
  6
Continuous
 62
     7
370
    30
100
AcDbLine
 10
54.121615
 20
-7.50526
 30
0.0
 11
54.050906
 21
-7.434542
 31
0.0
  0
LINE
  5
153
330
2CE
100
AcDbEntity
  8
TEXT
  6
Continuous
 62
     7
370
    30
100
AcDbLine
 10
54.098937
 20
-7.624
 30
0.0
 11
54.050906
 21
-7.575969
 31
0.0
  0
LINE
  5
154
330
2CE
100
AcDbEntity
  8
TEXT
  6
Continuous
 62
     7
370
    30
100
AcDbLine
 10
53.980198
 20
-7.50526
 30
0.0
 11
53.909479
 21
-7.434542
 31
0.0
  0
LINE
  5
155
330
2CE
100
AcDbEntity
  8
TEXT
  6
Continuous
 62
     7
370
    30
100
AcDbLine
 10
53.957521
 20
-7.624
 30
0.0
 11
53.909479
 21
-7.575969
 31
0.0
  0
LINE
  5
156
330
2CE
100
AcDbEntity
  8
TEXT
  6
Continuous
 62
     7
370
    30
100
AcDbLine
 10
54.381781
 20
-7.624
 30
0.0
 11
54.33375
 21
-7.575969
 31
0.0
  0
LINE
  5
157
330
2CE
100
AcDbEntity
  8
TEXT
  6
Continuous
 62
     7
370
    30
100
AcDbLine
 10
54.263042
 20
-7.50526
 30
0.0
 11
54.192323
 21
-7.434542
 31
0.0
  0
LINE
  5
158
330
2CE
100
AcDbEntity
  8
TEXT
  6
Continuous
 62
     7
370
    30
100
AcDbLine
 10
54.523208
 20
-7.624
 30
0.0
 11
54.475167
 21
-7.575969
 31
0.0
  0
LINE
  5
159
330
2CE
100
AcDbEntity
  8
TEXT
  6
Continuous
 62
     7
370
    30
100
AcDbLine
 10
54.404458
 20
-7.50526
 30
0.0
 11
54.33375
 21
-7.434542
 31
0.0
  0
LINE
  5
15A
330
2CE
100
AcDbEntity
  8
TEXT
  6
Continuous
 62
     7
370
    30
100
AcDbLine
 10
54.620698
 20
-7.580083
 30
0.0
 11
54.616594
 21
-7.575969
 31
0.0
  0
LINE
  5
15B
330
2CE
100
AcDbEntity
  8
TEXT
  6
Continuous
 62
     7
370
    30
100
AcDbLine
 10
54.545875
 20
-7.50526
 30
0.0
 11
54.475167
 21
-7.434542
 31
0.0
  0
LINE
  5
15C
330
2CE
100
AcDbEntity
  8
TEXT
  6
Continuous
 62
     7
370
    30
100
AcDbLine
 10
54.620698
 20
-7.438656
 30
0.0
 11
54.616594
 21
-7.434542
 31
0.0
  0
LINE
  5
15D
330
2CE
100
AcDbEntity
  8
TEXT
  6
Continuous
 62
     7
370
    30
100
AcDbLine
 10
54.289552
 20
-7.620167
 30
0.0
 11
54.218844
 21
-7.549448
 31
0.0
  0
LINE
  5
15E
330
2CE
100
AcDbEntity
  8
TEXT
  6
Continuous
 62
     7
370
    30
100
AcDbLine
 10
54.148135
 20
-7.47874
 30
0.0
 11
54.07924
 21
-7.409854
 31
0.0
  0
LINE
  5
15F
330
2CE
100
AcDbEntity
  8
TEXT
  6
Continuous
 62
     7
370
    30
100
AcDbLine
 10
54.148135
 20
-7.620167
 30
0.0
 11
54.077417
 21
-7.549448
 31
0.0
  0
LINE
  5
160
330
2CE
100
AcDbEntity
  8
TEXT
  6
Continuous
 62
     7
370
    30
100
AcDbLine
 10
54.006708
 20
-7.47874
 30
0.0
 11
53.937823
 21
-7.409854
 31
0.0
  0
LINE
  5
161
330
2CE
100
AcDbEntity
  8
TEXT
  6
Continuous
 62
     7
370
    30
100
AcDbLine
 10
54.006708
 20
-7.620167
 30
0.0
 11
53.936
 21
-7.549448
 31
0.0
  0
LINE
  5
162
330
2CE
100
AcDbEntity
  8
TEXT
  6
Continuous
 62
     7
370
    30
100
AcDbLine
 10
54.430979
 20
-7.620167
 30
0.0
 11
54.36026
 21
-7.549448
 31
0.0
  0
LINE
  5
163
330
2CE
100
AcDbEntity
  8
TEXT
  6
Continuous
 62
     7
370
    30
100
AcDbLine
 10
54.289552
 20
-7.47874
 30
0.0
 11
54.220667
 21
-7.409854
 31
0.0
  0
LINE
  5
164
330
2CE
100
AcDbEntity
  8
TEXT
  6
Continuous
 62
     7
370
    30
100
AcDbLine
 10
54.572396
 20
-7.620167
 30
0.0
 11
54.501687
 21
-7.549448
 31
0.0
  0
LINE
  5
165
330
2CE
100
AcDbEntity
  8
TEXT
  6
Continuous
 62
     7
370
    30
100
AcDbLine
 10
54.430979
 20
-7.47874
 30
0.0
 11
54.362083
 21
-7.409854
 31
0.0
  0
LINE
  5
166
330
2CE
100
AcDbEntity
  8
TEXT
  6
Continuous
 62
     7
370
    30
100
AcDbLine
 10
54.572396
 20
-7.47874
 30
0.0
 11
54.50351
 21
-7.409854
 31
0.0
  0
LINE
  5
167
330
2CE
100
AcDbEntity
  8
TEXT
  6
Continuous
 62
     7
370
    30
100
AcDbLine
 10
52.128635
 20
-7.602479
 30
0.0
 11
52.199344
 21
-7.531771
 31
0.0
  0
LINE
  5
168
330
2CE
100
AcDbEntity
  8
TEXT
  6
Continuous
 62
     7
370
    30
100
AcDbLine
 10
52.270063
 20
-7.461062
 30
0.0
 11
52.321271
 21
-7.409854
 31
0.0
  0
LINE
  5
169
330
2CE
100
AcDbEntity
  8
TEXT
  6
Continuous
 62
     7
370
    30
100
AcDbLine
 10
51.987219
 20
-7.602479
 30
0.0
 11
52.057927
 21
-7.531771
 31
0.0
  0
LINE
  5
16A
330
2CE
100
AcDbEntity
  8
TEXT
  6
Continuous
 62
     7
370
    30
100
AcDbLine
 10
52.128635
 20
-7.461062
 30
0.0
 11
52.179844
 21
-7.409854
 31
0.0
  0
LINE
  5
16B
330
2CE
100
AcDbEntity
  8
TEXT
  6
Continuous
 62
     7
370
    30
100
AcDbLine
 10
51.845792
 20
-7.602479
 30
0.0
 11
51.9165
 21
-7.531771
 31
0.0
  0
LINE
  5
16C
330
2CE
100
AcDbEntity
  8
TEXT
  6
Continuous
 62
     7
370
    30
100
AcDbLine
 10
51.987219
 20
-7.461062
 30
0.0
 11
52.038427
 21
-7.409854
 31
0.0
  0
LINE
  5
16D
330
2CE
100
AcDbEntity
  8
TEXT
  6
Continuous
 62
     7
370
    30
100
AcDbLine
 10
51.710437
 20
-7.596417
 30
0.0
 11
51.775083
 21
-7.531771
 31
0.0
  0
LINE
  5
16E
330
2CE
100
AcDbEntity
  8
TEXT
  6
Continuous
 62
     7
370
    30
100
AcDbLine
 10
51.845792
 20
-7.461062
 30
0.0
 11
51.897
 21
-7.409854
 31
0.0
  0
LINE
  5
16F
330
2CE
100
AcDbEntity
  8
TEXT
  6
Continuous
 62
     7
370
    30
100
AcDbLine
 10
51.710437
 20
-7.455
 30
0.0
 11
51.755583
 21
-7.409854
 31
0.0
  0
LINE
  5
170
330
2CE
100
AcDbEntity
  8
TEXT
  6
Continuous
 62
     7
370
    30
100
AcDbLine
 10
52.270063
 20
-7.602479
 30
0.0
 11
52.340771
 21
-7.531771
 31
0.0
  0
LINE
  5
171
330
2CE
100
AcDbEntity
  8
TEXT
  6
Continuous
 62
     7
370
    30
100
AcDbLine
 10
52.411479
 20
-7.461062
 30
0.0
 11
52.459781
 21
-7.41276
 31
0.0
  0
LINE
  5
172
330
2CE
100
AcDbEntity
  8
TEXT
  6
Continuous
 62
     7
370
    30
100
AcDbLine
 10
52.411479
 20
-7.602479
 30
0.0
 11
52.459781
 21
-7.554177
 31
0.0
  0
LINE
  5
173
330
2CE
100
AcDbEntity
  8
TEXT
  6
Continuous
 62
     7
370
    30
100
AcDbLine
 10
52.102125
 20
-7.575969
 30
0.0
 11
52.172833
 21
-7.50526
 31
0.0
  0
LINE
  5
174
330
2CE
100
AcDbEntity
  8
TEXT
  6
Continuous
 62
     7
370
    30
100
AcDbLine
 10
52.243542
 20
-7.434542
 30
0.0
 11
52.268229
 21
-7.409854
 31
0.0
  0
LINE
  5
175
330
2CE
100
AcDbEntity
  8
TEXT
  6
Continuous
 62
     7
370
    30
100
AcDbLine
 10
51.960698
 20
-7.575969
 30
0.0
 11
52.031406
 21
-7.50526
 31
0.0
  0
LINE
  5
176
330
2CE
100
AcDbEntity
  8
TEXT
  6
Continuous
 62
     7
370
    30
100
AcDbLine
 10
52.102125
 20
-7.434542
 30
0.0
 11
52.126812
 21
-7.409854
 31
0.0
  0
LINE
  5
177
330
2CE
100
AcDbEntity
  8
TEXT
  6
Continuous
 62
     7
370
    30
100
AcDbLine
 10
51.819281
 20
-7.575969
 30
0.0
 11
51.88999
 21
-7.50526
 31
0.0
  0
LINE
  5
178
330
2CE
100
AcDbEntity
  8
TEXT
  6
Continuous
 62
     7
370
    30
100
AcDbLine
 10
51.960698
 20
-7.434542
 30
0.0
 11
51.985396
 21
-7.409854
 31
0.0
  0
LINE
  5
179
330
2CE
100
AcDbEntity
  8
TEXT
  6
Continuous
 62
     7
370
    30
100
AcDbLine
 10
51.710437
 20
-7.543385
 30
0.0
 11
51.748562
 21
-7.50526
 31
0.0
  0
LINE
  5
17A
330
2CE
100
AcDbEntity
  8
TEXT
  6
Continuous
 62
     7
370
    30
100
AcDbLine
 10
51.819281
 20
-7.434542
 30
0.0
 11
51.843969
 21
-7.409854
 31
0.0
  0
LINE
  5
17B
330
2CE
100
AcDbEntity
  8
TEXT
  6
Continuous
 62
     7
370
    30
100
AcDbLine
 10
52.243542
 20
-7.575969
 30
0.0
 11
52.31425
 21
-7.50526
 31
0.0
  0
LINE
  5
17C
330
2CE
100
AcDbEntity
  8
TEXT
  6
Continuous
 62
     7
370
    30
100
AcDbLine
 10
52.384958
 20
-7.434542
 30
0.0
 11
52.409656
 21
-7.409854
 31
0.0
  0
LINE
  5
17D
330
2CE
100
AcDbEntity
  8
TEXT
  6
Continuous
 62
     7
370
    30
100
AcDbLine
 10
52.384958
 20
-7.575969
 30
0.0
 11
52.455677
 21
-7.50526
 31
0.0
  0
LINE
  5
17E
330
2CE
100
AcDbEntity
  8
TEXT
  6
Continuous
 62
     7
370
    30
100
AcDbLine
 10
52.001052
 20
-7.624
 30
0.0
 11
52.004896
 21
-7.620167
 31
0.0
  0
LINE
  5
17F
330
2CE
100
AcDbEntity
  8
TEXT
  6
Continuous
 62
     7
370
    30
100
AcDbLine
 10
52.075604
 20
-7.549448
 30
0.0
 11
52.146313
 21
-7.47874
 31
0.0
  0
LINE
  5
180
330
2CE
100
AcDbEntity
  8
TEXT
  6
Continuous
 62
     7
370
    30
100
AcDbLine
 10
51.859625
 20
-7.624
 30
0.0
 11
51.863469
 21
-7.620167
 31
0.0
  0
LINE
  5
181
330
2CE
100
AcDbEntity
  8
TEXT
  6
Continuous
 62
     7
370
    30
100
AcDbLine
 10
51.934177
 20
-7.549448
 30
0.0
 11
52.004896
 21
-7.47874
 31
0.0
  0
LINE
  5
182
330
2CE
100
AcDbEntity
  8
TEXT
  6
Continuous
 62
     7
370
    30
100
AcDbLine
 10
51.718208
 20
-7.624
 30
0.0
 11
51.722052
 21
-7.620167
 31
0.0
  0
LINE
  5
183
330
2CE
100
AcDbEntity
  8
TEXT
  6
Continuous
 62
     7
370
    30
100
AcDbLine
 10
51.79276
 20
-7.549448
 30
0.0
 11
51.863469
 21
-7.47874
 31
0.0
  0
LINE
  5
184
330
2CE
100
AcDbEntity
  8
TEXT
  6
Continuous
 62
     7
370
    30
100
AcDbLine
 10
51.710437
 20
-7.490354
 30
0.0
 11
51.722052
 21
-7.47874
 31
0.0
  0
LINE
  5
185
330
2CE
100
AcDbEntity
  8
TEXT
  6
Continuous
 62
     7
370
    30
100
AcDbLine
 10
52.142469
 20
-7.624
 30
0.0
 11
52.146313
 21
-7.620167
 31
0.0
  0
LINE
  5
186
330
2CE
100
AcDbEntity
  8
TEXT
  6
Continuous
 62
     7
370
    30
100
AcDbLine
 10
52.217021
 20
-7.549448
 30
0.0
 11
52.28774
 21
-7.47874
 31
0.0
  0
LINE
  5
187
330
2CE
100
AcDbEntity
  8
TEXT
  6
Continuous
 62
     7
370
    30
100
AcDbLine
 10
52.283896
 20
-7.624
 30
0.0
 11
52.28774
 21
-7.620167
 31
0.0
  0
LINE
  5
188
330
2CE
100
AcDbEntity
  8
TEXT
  6
Continuous
 62
     7
370
    30
100
AcDbLine
 10
52.358448
 20
-7.549448
 30
0.0
 11
52.429156
 21
-7.47874
 31
0.0
  0
LINE
  5
189
330
2CE
100
AcDbEntity
  8
TEXT
  6
Continuous
 62
     7
370
    30
100
AcDbLine
 10
52.425312
 20
-7.624
 30
0.0
 11
52.429156
 21
-7.620167
 31
0.0
  0
LINE
  5
18A
330
2CE
100
AcDbEntity
  8
TEXT
  6
Continuous
 62
     7
370
    30
100
AcDbLine
 10
52.167833
 20
-7.624
 30
0.0
 11
52.146313
 21
-7.602479
 31
0.0
  0
LINE
  5
18B
330
2CE
100
AcDbEntity
  8
TEXT
  6
Continuous
 62
     7
370
    30
100
AcDbLine
 10
52.075604
 20
-7.531771
 30
0.0
 11
52.004896
 21
-7.461062
 31
0.0
  0
LINE
  5
18C
330
2CE
100
AcDbEntity
  8
TEXT
  6
Continuous
 62
     7
370
    30
100
AcDbLine
 10
52.026417
 20
-7.624
 30
0.0
 11
52.004896
 21
-7.602479
 31
0.0
  0
LINE
  5
18D
330
2CE
100
AcDbEntity
  8
TEXT
  6
Continuous
 62
     7
370
    30
100
AcDbLine
 10
51.934177
 20
-7.531771
 30
0.0
 11
51.863469
 21
-7.461062
 31
0.0
  0
LINE
  5
18E
330
2CE
100
AcDbEntity
  8
TEXT
  6
Continuous
 62
     7
370
    30
100
AcDbLine
 10
51.88499
 20
-7.624
 30
0.0
 11
51.863469
 21
-7.602479
 31
0.0
  0
LINE
  5
18F
330
2CE
100
AcDbEntity
  8
TEXT
  6
Continuous
 62
     7
370
    30
100
AcDbLine
 10
51.79276
 20
-7.531771
 30
0.0
 11
51.722052
 21
-7.461062
 31
0.0
  0
LINE
  5
190
330
2CE
100
AcDbEntity
  8
TEXT
  6
Continuous
 62
     7
370
    30
100
AcDbLine
 10
51.743573
 20
-7.624
 30
0.0
 11
51.722052
 21
-7.602479
 31
0.0
  0
LINE
  5
191
330
2CE
100
AcDbEntity
  8
TEXT
  6
Continuous
 62
     7
370
    30
100
AcDbLine
 10
52.30926
 20
-7.624
 30
0.0
 11
52.28774
 21
-7.602479
 31
0.0
  0
LINE
  5
192
330
2CE
100
AcDbEntity
  8
TEXT
  6
Continuous
 62
     7
370
    30
100
AcDbLine
 10
52.217021
 20
-7.531771
 30
0.0
 11
52.146313
 21
-7.461062
 31
0.0
  0
LINE
  5
193
330
2CE
100
AcDbEntity
  8
TEXT
  6
Continuous
 62
     7
370
    30
100
AcDbLine
 10
52.450677
 20
-7.624
 30
0.0
 11
52.429156
 21
-7.602479
 31
0.0
  0
LINE
  5
194
330
2CE
100
AcDbEntity
  8
TEXT
  6
Continuous
 62
     7
370
    30
100
AcDbLine
 10
52.358448
 20
-7.531771
 30
0.0
 11
52.28774
 21
-7.461062
 31
0.0
  0
LINE
  5
195
330
2CE
100
AcDbEntity
  8
TEXT
  6
Continuous
 62
     7
370
    30
100
AcDbLine
 10
52.459781
 20
-7.491687
 30
0.0
 11
52.429156
 21
-7.461062
 31
0.0
  0
LINE
  5
196
330
2CE
100
AcDbEntity
  8
TEXT
  6
Continuous
 62
     7
370
    30
100
AcDbLine
 10
52.079448
 20
-7.624
 30
0.0
 11
52.031406
 21
-7.575969
 31
0.0
  0
LINE
  5
197
330
2CE
100
AcDbEntity
  8
TEXT
  6
Continuous
 62
     7
370
    30
100
AcDbLine
 10
51.960698
 20
-7.50526
 30
0.0
 11
51.88999
 21
-7.434542
 31
0.0
  0
LINE
  5
198
330
2CE
100
AcDbEntity
  8
TEXT
  6
Continuous
 62
     7
370
    30
100
AcDbLine
 10
51.938021
 20
-7.624
 30
0.0
 11
51.88999
 21
-7.575969
 31
0.0
  0
LINE
  5
199
330
2CE
100
AcDbEntity
  8
TEXT
  6
Continuous
 62
     7
370
    30
100
AcDbLine
 10
51.819281
 20
-7.50526
 30
0.0
 11
51.748562
 21
-7.434542
 31
0.0
  0
LINE
  5
19A
330
2CE
100
AcDbEntity
  8
TEXT
  6
Continuous
 62
     7
370
    30
100
AcDbLine
 10
51.796604
 20
-7.624
 30
0.0
 11
51.748562
 21
-7.575969
 31
0.0
  0
LINE
  5
19B
330
2CE
100
AcDbEntity
  8
TEXT
  6
Continuous
 62
     7
370
    30
100
AcDbLine
 10
52.220865
 20
-7.624
 30
0.0
 11
52.172833
 21
-7.575969
 31
0.0
  0
LINE
  5
19C
330
2CE
100
AcDbEntity
  8
TEXT
  6
Continuous
 62
     7
370
    30
100
AcDbLine
 10
52.102125
 20
-7.50526
 30
0.0
 11
52.031406
 21
-7.434542
 31
0.0
  0
LINE
  5
19D
330
2CE
100
AcDbEntity
  8
TEXT
  6
Continuous
 62
     7
370
    30
100
AcDbLine
 10
52.362292
 20
-7.624
 30
0.0
 11
52.31425
 21
-7.575969
 31
0.0
  0
LINE
  5
19E
330
2CE
100
AcDbEntity
  8
TEXT
  6
Continuous
 62
     7
370
    30
100
AcDbLine
 10
52.243542
 20
-7.50526
 30
0.0
 11
52.172833
 21
-7.434542
 31
0.0
  0
LINE
  5
19F
330
2CE
100
AcDbEntity
  8
TEXT
  6
Continuous
 62
     7
370
    30
100
AcDbLine
 10
52.459781
 20
-7.580083
 30
0.0
 11
52.455677
 21
-7.575969
 31
0.0
  0
LINE
  5
1A0
330
2CE
100
AcDbEntity
  8
TEXT
  6
Continuous
 62
     7
370
    30
100
AcDbLine
 10
52.384958
 20
-7.50526
 30
0.0
 11
52.31425
 21
-7.434542
 31
0.0
  0
LINE
  5
1A1
330
2CE
100
AcDbEntity
  8
TEXT
  6
Continuous
 62
     7
370
    30
100
AcDbLine
 10
52.459781
 20
-7.438656
 30
0.0
 11
52.455677
 21
-7.434542
 31
0.0
  0
LINE
  5
1A2
330
2CE
100
AcDbEntity
  8
TEXT
  6
Continuous
 62
     7
370
    30
100
AcDbLine
 10
52.128635
 20
-7.620167
 30
0.0
 11
52.057927
 21
-7.549448
 31
0.0
  0
LINE
  5
1A3
330
2CE
100
AcDbEntity
  8
TEXT
  6
Continuous
 62
     7
370
    30
100
AcDbLine
 10
51.987219
 20
-7.47874
 30
0.0
 11
51.918323
 21
-7.409854
 31
0.0
  0
LINE
  5
1A4
330
2CE
100
AcDbEntity
  8
TEXT
  6
Continuous
 62
     7
370
    30
100
AcDbLine
 10
51.987219
 20
-7.620167
 30
0.0
 11
51.9165
 21
-7.549448
 31
0.0
  0
LINE
  5
1A5
330
2CE
100
AcDbEntity
  8
TEXT
  6
Continuous
 62
     7
370
    30
100
AcDbLine
 10
51.845792
 20
-7.47874
 30
0.0
 11
51.776906
 21
-7.409854
 31
0.0
  0
LINE
  5
1A6
330
2CE
100
AcDbEntity
  8
TEXT
  6
Continuous
 62
     7
370
    30
100
AcDbLine
 10
51.845792
 20
-7.620167
 30
0.0
 11
51.775083
 21
-7.549448
 31
0.0
  0
LINE
  5
1A7
330
2CE
100
AcDbEntity
  8
TEXT
  6
Continuous
 62
     7
370
    30
100
AcDbLine
 10
52.270063
 20
-7.620167
 30
0.0
 11
52.199344
 21
-7.549448
 31
0.0
  0
LINE
  5
1A8
330
2CE
100
AcDbEntity
  8
TEXT
  6
Continuous
 62
     7
370
    30
100
AcDbLine
 10
52.128635
 20
-7.47874
 30
0.0
 11
52.05975
 21
-7.409854
 31
0.0
  0
LINE
  5
1A9
330
2CE
100
AcDbEntity
  8
TEXT
  6
Continuous
 62
     7
370
    30
100
AcDbLine
 10
52.411479
 20
-7.620167
 30
0.0
 11
52.340771
 21
-7.549448
 31
0.0
  0
LINE
  5
1AA
330
2CE
100
AcDbEntity
  8
TEXT
  6
Continuous
 62
     7
370
    30
100
AcDbLine
 10
52.270063
 20
-7.47874
 30
0.0
 11
52.201167
 21
-7.409854
 31
0.0
  0
LINE
  5
1AB
330
2CE
100
AcDbEntity
  8
TEXT
  6
Continuous
 62
     7
370
    30
100
AcDbLine
 10
52.411479
 20
-7.47874
 30
0.0
 11
52.342594
 21
-7.409854
 31
0.0
  0
LINE
  5
1AC
330
2CE
100
AcDbEntity
  8
TEXT
  6
Continuous
 62
     7
370
    30
100
AcDbLine
 10
54.289552
 20
-10.157958
 30
0.0
 11
54.36026
 21
-10.08725
 31
0.0
  0
LINE
  5
1AD
330
2CE
100
AcDbEntity
  8
TEXT
  6
Continuous
 62
     7
370
    30
100
AcDbLine
 10
54.430979
 20
-10.016542
 30
0.0
 11
54.482187
 21
-9.965333
 31
0.0
  0
LINE
  5
1AE
330
2CE
100
AcDbEntity
  8
TEXT
  6
Continuous
 62
     7
370
    30
100
AcDbLine
 10
54.148135
 20
-10.157958
 30
0.0
 11
54.218844
 21
-10.08725
 31
0.0
  0
LINE
  5
1AF
330
2CE
100
AcDbEntity
  8
TEXT
  6
Continuous
 62
     7
370
    30
100
AcDbLine
 10
54.289552
 20
-10.016542
 30
0.0
 11
54.34076
 21
-9.965333
 31
0.0
  0
LINE
  5
1B0
330
2CE
100
AcDbEntity
  8
TEXT
  6
Continuous
 62
     7
370
    30
100
AcDbLine
 10
54.006708
 20
-10.157958
 30
0.0
 11
54.077417
 21
-10.08725
 31
0.0
  0
LINE
  5
1B1
330
2CE
100
AcDbEntity
  8
TEXT
  6
Continuous
 62
     7
370
    30
100
AcDbLine
 10
54.148135
 20
-10.016542
 30
0.0
 11
54.199344
 21
-9.965333
 31
0.0
  0
LINE
  5
1B2
330
2CE
100
AcDbEntity
  8
TEXT
  6
Continuous
 62
     7
370
    30
100
AcDbLine
 10
53.871354
 20
-10.151896
 30
0.0
 11
53.936
 21
-10.08725
 31
0.0
  0
LINE
  5
1B3
330
2CE
100
AcDbEntity
  8
TEXT
  6
Continuous
 62
     7
370
    30
100
AcDbLine
 10
54.006708
 20
-10.016542
 30
0.0
 11
54.057917
 21
-9.965333
 31
0.0
  0
LINE
  5
1B4
330
2CE
100
AcDbEntity
  8
TEXT
  6
Continuous
 62
     7
370
    30
100
AcDbLine
 10
53.871354
 20
-10.010479
 30
0.0
 11
53.9165
 21
-9.965333
 31
0.0
  0
LINE
  5
1B5
330
2CE
100
AcDbEntity
  8
TEXT
  6
Continuous
 62
     7
370
    30
100
AcDbLine
 10
54.430979
 20
-10.157958
 30
0.0
 11
54.501687
 21
-10.08725
 31
0.0
  0
LINE
  5
1B6
330
2CE
100
AcDbEntity
  8
TEXT
  6
Continuous
 62
     7
370
    30
100
AcDbLine
 10
54.572396
 20
-10.016542
 30
0.0
 11
54.620698
 21
-9.96824
 31
0.0
  0
LINE
  5
1B7
330
2CE
100
AcDbEntity
  8
TEXT
  6
Continuous
 62
     7
370
    30
100
AcDbLine
 10
54.572396
 20
-10.157958
 30
0.0
 11
54.620698
 21
-10.109656
 31
0.0
  0
LINE
  5
1B8
330
2CE
100
AcDbEntity
  8
TEXT
  6
Continuous
 62
     7
370
    30
100
AcDbLine
 10
54.263042
 20
-10.131448
 30
0.0
 11
54.33375
 21
-10.06074
 31
0.0
  0
LINE
  5
1B9
330
2CE
100
AcDbEntity
  8
TEXT
  6
Continuous
 62
     7
370
    30
100
AcDbLine
 10
54.404458
 20
-9.990021
 30
0.0
 11
54.429146
 21
-9.965333
 31
0.0
  0
LINE
  5
1BA
330
2CE
100
AcDbEntity
  8
TEXT
  6
Continuous
 62
     7
370
    30
100
AcDbLine
 10
54.121615
 20
-10.131448
 30
0.0
 11
54.192323
 21
-10.06074
 31
0.0
  0
LINE
  5
1BB
330
2CE
100
AcDbEntity
  8
TEXT
  6
Continuous
 62
     7
370
    30
100
AcDbLine
 10
54.263042
 20
-9.990021
 30
0.0
 11
54.287729
 21
-9.965333
 31
0.0
  0
LINE
  5
1BC
330
2CE
100
AcDbEntity
  8
TEXT
  6
Continuous
 62
     7
370
    30
100
AcDbLine
 10
53.980198
 20
-10.131448
 30
0.0
 11
54.050906
 21
-10.06074
 31
0.0
  0
LINE
  5
1BD
330
2CE
100
AcDbEntity
  8
TEXT
  6
Continuous
 62
     7
370
    30
100
AcDbLine
 10
54.121615
 20
-9.990021
 30
0.0
 11
54.146313
 21
-9.965333
 31
0.0
  0
LINE
  5
1BE
330
2CE
100
AcDbEntity
  8
TEXT
  6
Continuous
 62
     7
370
    30
100
AcDbLine
 10
53.871354
 20
-10.098865
 30
0.0
 11
53.909479
 21
-10.06074
 31
0.0
  0
LINE
  5
1BF
330
2CE
100
AcDbEntity
  8
TEXT
  6
Continuous
 62
     7
370
    30
100
AcDbLine
 10
53.980198
 20
-9.990021
 30
0.0
 11
54.004885
 21
-9.965333
 31
0.0
  0
LINE
  5
1C0
330
2CE
100
AcDbEntity
  8
TEXT
  6
Continuous
 62
     7
370
    30
100
AcDbLine
 10
54.404458
 20
-10.131448
 30
0.0
 11
54.475167
 21
-10.06074
 31
0.0
  0
LINE
  5
1C1
330
2CE
100
AcDbEntity
  8
TEXT
  6
Continuous
 62
     7
370
    30
100
AcDbLine
 10
54.545875
 20
-9.990021
 30
0.0
 11
54.570573
 21
-9.965333
 31
0.0
  0
LINE
  5
1C2
330
2CE
100
AcDbEntity
  8
TEXT
  6
Continuous
 62
     7
370
    30
100
AcDbLine
 10
54.545875
 20
-10.131448
 30
0.0
 11
54.616594
 21
-10.06074
 31
0.0
  0
LINE
  5
1C3
330
2CE
100
AcDbEntity
  8
TEXT
  6
Continuous
 62
     7
370
    30
100
AcDbLine
 10
54.161969
 20
-10.179479
 30
0.0
 11
54.165813
 21
-10.175646
 31
0.0
  0
LINE
  5
1C4
330
2CE
100
AcDbEntity
  8
TEXT
  6
Continuous
 62
     7
370
    30
100
AcDbLine
 10
54.236521
 20
-10.104927
 30
0.0
 11
54.307229
 21
-10.034219
 31
0.0
  0
LINE
  5
1C5
330
2CE
100
AcDbEntity
  8
TEXT
  6
Continuous
 62
     7
370
    30
100
AcDbLine
 10
54.020542
 20
-10.179479
 30
0.0
 11
54.024385
 21
-10.175646
 31
0.0
  0
LINE
  5
1C6
330
2CE
100
AcDbEntity
  8
TEXT
  6
Continuous
 62
     7
370
    30
100
AcDbLine
 10
54.095094
 20
-10.104927
 30
0.0
 11
54.165813
 21
-10.034219
 31
0.0
  0
LINE
  5
1C7
330
2CE
100
AcDbEntity
  8
TEXT
  6
Continuous
 62
     7
370
    30
100
AcDbLine
 10
53.879125
 20
-10.179479
 30
0.0
 11
53.882969
 21
-10.175646
 31
0.0
  0
LINE
  5
1C8
330
2CE
100
AcDbEntity
  8
TEXT
  6
Continuous
 62
     7
370
    30
100
AcDbLine
 10
53.953677
 20
-10.104927
 30
0.0
 11
54.024385
 21
-10.034219
 31
0.0
  0
LINE
  5
1C9
330
2CE
100
AcDbEntity
  8
TEXT
  6
Continuous
 62
     7
370
    30
100
AcDbLine
 10
53.871354
 20
-10.045833
 30
0.0
 11
53.882969
 21
-10.034219
 31
0.0
  0
LINE
  5
1CA
330
2CE
100
AcDbEntity
  8
TEXT
  6
Continuous
 62
     7
370
    30
100
AcDbLine
 10
54.303385
 20
-10.179479
 30
0.0
 11
54.307229
 21
-10.175646
 31
0.0
  0
LINE
  5
1CB
330
2CE
100
AcDbEntity
  8
TEXT
  6
Continuous
 62
     7
370
    30
100
AcDbLine
 10
54.377938
 20
-10.104927
 30
0.0
 11
54.448656
 21
-10.034219
 31
0.0
  0
LINE
  5
1CC
330
2CE
100
AcDbEntity
  8
TEXT
  6
Continuous
 62
     7
370
    30
100
AcDbLine
 10
54.444812
 20
-10.179479
 30
0.0
 11
54.448656
 21
-10.175646
 31
0.0
  0
LINE
  5
1CD
330
2CE
100
AcDbEntity
  8
TEXT
  6
Continuous
 62
     7
370
    30
100
AcDbLine
 10
54.519365
 20
-10.104927
 30
0.0
 11
54.590073
 21
-10.034219
 31
0.0
  0
LINE
  5
1CE
330
2CE
100
AcDbEntity
  8
TEXT
  6
Continuous
 62
     7
370
    30
100
AcDbLine
 10
54.586229
 20
-10.179479
 30
0.0
 11
54.590073
 21
-10.175646
 31
0.0
  0
LINE
  5
1CF
330
2CE
100
AcDbEntity
  8
TEXT
  6
Continuous
 62
     7
370
    30
100
AcDbLine
 10
54.32875
 20
-10.179479
 30
0.0
 11
54.307229
 21
-10.157958
 31
0.0
  0
LINE
  5
1D0
330
2CE
100
AcDbEntity
  8
TEXT
  6
Continuous
 62
     7
370
    30
100
AcDbLine
 10
54.236521
 20
-10.08725
 30
0.0
 11
54.165813
 21
-10.016542
 31
0.0
  0
LINE
  5
1D1
330
2CE
100
AcDbEntity
  8
TEXT
  6
Continuous
 62
     7
370
    30
100
AcDbLine
 10
54.187333
 20
-10.179479
 30
0.0
 11
54.165813
 21
-10.157958
 31
0.0
  0
LINE
  5
1D2
330
2CE
100
AcDbEntity
  8
TEXT
  6
Continuous
 62
     7
370
    30
100
AcDbLine
 10
54.095094
 20
-10.08725
 30
0.0
 11
54.024385
 21
-10.016542
 31
0.0
  0
LINE
  5
1D3
330
2CE
100
AcDbEntity
  8
TEXT
  6
Continuous
 62
     7
370
    30
100
AcDbLine
 10
54.045906
 20
-10.179479
 30
0.0
 11
54.024385
 21
-10.157958
 31
0.0
  0
LINE
  5
1D4
330
2CE
100
AcDbEntity
  8
TEXT
  6
Continuous
 62
     7
370
    30
100
AcDbLine
 10
53.953677
 20
-10.08725
 30
0.0
 11
53.882969
 21
-10.016542
 31
0.0
  0
LINE
  5
1D5
330
2CE
100
AcDbEntity
  8
TEXT
  6
Continuous
 62
     7
370
    30
100
AcDbLine
 10
53.90449
 20
-10.179479
 30
0.0
 11
53.882969
 21
-10.157958
 31
0.0
  0
LINE
  5
1D6
330
2CE
100
AcDbEntity
  8
TEXT
  6
Continuous
 62
     7
370
    30
100
AcDbLine
 10
54.470177
 20
-10.179479
 30
0.0
 11
54.448656
 21
-10.157958
 31
0.0
  0
LINE
  5
1D7
330
2CE
100
AcDbEntity
  8
TEXT
  6
Continuous
 62
     7
370
    30
100
AcDbLine
 10
54.377938
 20
-10.08725
 30
0.0
 11
54.307229
 21
-10.016542
 31
0.0
  0
LINE
  5
1D8
330
2CE
100
AcDbEntity
  8
TEXT
  6
Continuous
 62
     7
370
    30
100
AcDbLine
 10
54.611594
 20
-10.179479
 30
0.0
 11
54.590073
 21
-10.157958
 31
0.0
  0
LINE
  5
1D9
330
2CE
100
AcDbEntity
  8
TEXT
  6
Continuous
 62
     7
370
    30
100
AcDbLine
 10
54.519365
 20
-10.08725
 30
0.0
 11
54.448656
 21
-10.016542
 31
0.0
  0
LINE
  5
1DA
330
2CE
100
AcDbEntity
  8
TEXT
  6
Continuous
 62
     7
370
    30
100
AcDbLine
 10
54.620698
 20
-10.047167
 30
0.0
 11
54.590073
 21
-10.016542
 31
0.0
  0
LINE
  5
1DB
330
2CE
100
AcDbEntity
  8
TEXT
  6
Continuous
 62
     7
370
    30
100
AcDbLine
 10
54.240365
 20
-10.179479
 30
0.0
 11
54.192323
 21
-10.131448
 31
0.0
  0
LINE
  5
1DC
330
2CE
100
AcDbEntity
  8
TEXT
  6
Continuous
 62
     7
370
    30
100
AcDbLine
 10
54.121615
 20
-10.06074
 30
0.0
 11
54.050906
 21
-9.990021
 31
0.0
  0
LINE
  5
1DD
330
2CE
100
AcDbEntity
  8
TEXT
  6
Continuous
 62
     7
370
    30
100
AcDbLine
 10
54.098937
 20
-10.179479
 30
0.0
 11
54.050906
 21
-10.131448
 31
0.0
  0
LINE
  5
1DE
330
2CE
100
AcDbEntity
  8
TEXT
  6
Continuous
 62
     7
370
    30
100
AcDbLine
 10
53.980198
 20
-10.06074
 30
0.0
 11
53.909479
 21
-9.990021
 31
0.0
  0
LINE
  5
1DF
330
2CE
100
AcDbEntity
  8
TEXT
  6
Continuous
 62
     7
370
    30
100
AcDbLine
 10
53.957521
 20
-10.179479
 30
0.0
 11
53.909479
 21
-10.131448
 31
0.0
  0
LINE
  5
1E0
330
2CE
100
AcDbEntity
  8
TEXT
  6
Continuous
 62
     7
370
    30
100
AcDbLine
 10
54.381781
 20
-10.179479
 30
0.0
 11
54.33375
 21
-10.131448
 31
0.0
  0
LINE
  5
1E1
330
2CE
100
AcDbEntity
  8
TEXT
  6
Continuous
 62
     7
370
    30
100
AcDbLine
 10
54.263042
 20
-10.06074
 30
0.0
 11
54.192323
 21
-9.990021
 31
0.0
  0
LINE
  5
1E2
330
2CE
100
AcDbEntity
  8
TEXT
  6
Continuous
 62
     7
370
    30
100
AcDbLine
 10
54.523208
 20
-10.179479
 30
0.0
 11
54.475167
 21
-10.131448
 31
0.0
  0
LINE
  5
1E3
330
2CE
100
AcDbEntity
  8
TEXT
  6
Continuous
 62
     7
370
    30
100
AcDbLine
 10
54.404458
 20
-10.06074
 30
0.0
 11
54.33375
 21
-9.990021
 31
0.0
  0
LINE
  5
1E4
330
2CE
100
AcDbEntity
  8
TEXT
  6
Continuous
 62
     7
370
    30
100
AcDbLine
 10
54.620698
 20
-10.135562
 30
0.0
 11
54.616594
 21
-10.131448
 31
0.0
  0
LINE
  5
1E5
330
2CE
100
AcDbEntity
  8
TEXT
  6
Continuous
 62
     7
370
    30
100
AcDbLine
 10
54.545875
 20
-10.06074
 30
0.0
 11
54.475167
 21
-9.990021
 31
0.0
  0
LINE
  5
1E6
330
2CE
100
AcDbEntity
  8
TEXT
  6
Continuous
 62
     7
370
    30
100
AcDbLine
 10
54.620698
 20
-9.994135
 30
0.0
 11
54.616594
 21
-9.990021
 31
0.0
  0
LINE
  5
1E7
330
2CE
100
AcDbEntity
  8
TEXT
  6
Continuous
 62
     7
370
    30
100
AcDbLine
 10
54.289552
 20
-10.175646
 30
0.0
 11
54.218844
 21
-10.104927
 31
0.0
  0
LINE
  5
1E8
330
2CE
100
AcDbEntity
  8
TEXT
  6
Continuous
 62
     7
370
    30
100
AcDbLine
 10
54.148135
 20
-10.034219
 30
0.0
 11
54.07924
 21
-9.965333
 31
0.0
  0
LINE
  5
1E9
330
2CE
100
AcDbEntity
  8
TEXT
  6
Continuous
 62
     7
370
    30
100
AcDbLine
 10
54.148135
 20
-10.175646
 30
0.0
 11
54.077417
 21
-10.104927
 31
0.0
  0
LINE
  5
1EA
330
2CE
100
AcDbEntity
  8
TEXT
  6
Continuous
 62
     7
370
    30
100
AcDbLine
 10
54.006708
 20
-10.034219
 30
0.0
 11
53.937823
 21
-9.965333
 31
0.0
  0
LINE
  5
1EB
330
2CE
100
AcDbEntity
  8
TEXT
  6
Continuous
 62
     7
370
    30
100
AcDbLine
 10
54.006708
 20
-10.175646
 30
0.0
 11
53.936
 21
-10.104927
 31
0.0
  0
LINE
  5
1EC
330
2CE
100
AcDbEntity
  8
TEXT
  6
Continuous
 62
     7
370
    30
100
AcDbLine
 10
54.430979
 20
-10.175646
 30
0.0
 11
54.36026
 21
-10.104927
 31
0.0
  0
LINE
  5
1ED
330
2CE
100
AcDbEntity
  8
TEXT
  6
Continuous
 62
     7
370
    30
100
AcDbLine
 10
54.289552
 20
-10.034219
 30
0.0
 11
54.220667
 21
-9.965333
 31
0.0
  0
LINE
  5
1EE
330
2CE
100
AcDbEntity
  8
TEXT
  6
Continuous
 62
     7
370
    30
100
AcDbLine
 10
54.572396
 20
-10.175646
 30
0.0
 11
54.501687
 21
-10.104927
 31
0.0
  0
LINE
  5
1EF
330
2CE
100
AcDbEntity
  8
TEXT
  6
Continuous
 62
     7
370
    30
100
AcDbLine
 10
54.430979
 20
-10.034219
 30
0.0
 11
54.362083
 21
-9.965333
 31
0.0
  0
LINE
  5
1F0
330
2CE
100
AcDbEntity
  8
TEXT
  6
Continuous
 62
     7
370
    30
100
AcDbLine
 10
54.572396
 20
-10.034219
 30
0.0
 11
54.50351
 21
-9.965333
 31
0.0
  0
LINE
  5
1F1
330
2CE
100
AcDbEntity
  8
TEXT
  6
Continuous
 62
     7
370
    30
100
AcDbLine
 10
52.128635
 20
-10.157958
 30
0.0
 11
52.199344
 21
-10.08725
 31
0.0
  0
LINE
  5
1F2
330
2CE
100
AcDbEntity
  8
TEXT
  6
Continuous
 62
     7
370
    30
100
AcDbLine
 10
52.270063
 20
-10.016542
 30
0.0
 11
52.321271
 21
-9.965333
 31
0.0
  0
LINE
  5
1F3
330
2CE
100
AcDbEntity
  8
TEXT
  6
Continuous
 62
     7
370
    30
100
AcDbLine
 10
51.987219
 20
-10.157958
 30
0.0
 11
52.057927
 21
-10.08725
 31
0.0
  0
LINE
  5
1F4
330
2CE
100
AcDbEntity
  8
TEXT
  6
Continuous
 62
     7
370
    30
100
AcDbLine
 10
52.128635
 20
-10.016542
 30
0.0
 11
52.179844
 21
-9.965333
 31
0.0
  0
LINE
  5
1F5
330
2CE
100
AcDbEntity
  8
TEXT
  6
Continuous
 62
     7
370
    30
100
AcDbLine
 10
51.845792
 20
-10.157958
 30
0.0
 11
51.9165
 21
-10.08725
 31
0.0
  0
LINE
  5
1F6
330
2CE
100
AcDbEntity
  8
TEXT
  6
Continuous
 62
     7
370
    30
100
AcDbLine
 10
51.987219
 20
-10.016542
 30
0.0
 11
52.038427
 21
-9.965333
 31
0.0
  0
LINE
  5
1F7
330
2CE
100
AcDbEntity
  8
TEXT
  6
Continuous
 62
     7
370
    30
100
AcDbLine
 10
51.710437
 20
-10.151896
 30
0.0
 11
51.775083
 21
-10.08725
 31
0.0
  0
LINE
  5
1F8
330
2CE
100
AcDbEntity
  8
TEXT
  6
Continuous
 62
     7
370
    30
100
AcDbLine
 10
51.845792
 20
-10.016542
 30
0.0
 11
51.897
 21
-9.965333
 31
0.0
  0
LINE
  5
1F9
330
2CE
100
AcDbEntity
  8
TEXT
  6
Continuous
 62
     7
370
    30
100
AcDbLine
 10
51.710437
 20
-10.010479
 30
0.0
 11
51.755583
 21
-9.965333
 31
0.0
  0
LINE
  5
1FA
330
2CE
100
AcDbEntity
  8
TEXT
  6
Continuous
 62
     7
370
    30
100
AcDbLine
 10
52.270063
 20
-10.157958
 30
0.0
 11
52.340771
 21
-10.08725
 31
0.0
  0
LINE
  5
1FB
330
2CE
100
AcDbEntity
  8
TEXT
  6
Continuous
 62
     7
370
    30
100
AcDbLine
 10
52.411479
 20
-10.016542
 30
0.0
 11
52.459781
 21
-9.96824
 31
0.0
  0
LINE
  5
1FC
330
2CE
100
AcDbEntity
  8
TEXT
  6
Continuous
 62
     7
370
    30
100
AcDbLine
 10
52.411479
 20
-10.157958
 30
0.0
 11
52.459781
 21
-10.109656
 31
0.0
  0
LINE
  5
1FD
330
2CE
100
AcDbEntity
  8
TEXT
  6
Continuous
 62
     7
370
    30
100
AcDbLine
 10
52.102125
 20
-10.131448
 30
0.0
 11
52.172833
 21
-10.06074
 31
0.0
  0
LINE
  5
1FE
330
2CE
100
AcDbEntity
  8
TEXT
  6
Continuous
 62
     7
370
    30
100
AcDbLine
 10
52.243542
 20
-9.990021
 30
0.0
 11
52.268229
 21
-9.965333
 31
0.0
  0
LINE
  5
1FF
330
2CE
100
AcDbEntity
  8
TEXT
  6
Continuous
 62
     7
370
    30
100
AcDbLine
 10
51.960698
 20
-10.131448
 30
0.0
 11
52.031406
 21
-10.06074
 31
0.0
  0
LINE
  5
200
330
2CE
100
AcDbEntity
  8
TEXT
  6
Continuous
 62
     7
370
    30
100
AcDbLine
 10
52.102125
 20
-9.990021
 30
0.0
 11
52.126812
 21
-9.965333
 31
0.0
  0
LINE
  5
201
330
2CE
100
AcDbEntity
  8
TEXT
  6
Continuous
 62
     7
370
    30
100
AcDbLine
 10
51.819281
 20
-10.131448
 30
0.0
 11
51.88999
 21
-10.06074
 31
0.0
  0
LINE
  5
202
330
2CE
100
AcDbEntity
  8
TEXT
  6
Continuous
 62
     7
370
    30
100
AcDbLine
 10
51.960698
 20
-9.990021
 30
0.0
 11
51.985396
 21
-9.965333
 31
0.0
  0
LINE
  5
203
330
2CE
100
AcDbEntity
  8
TEXT
  6
Continuous
 62
     7
370
    30
100
AcDbLine
 10
51.710437
 20
-10.098865
 30
0.0
 11
51.748562
 21
-10.06074
 31
0.0
  0
LINE
  5
204
330
2CE
100
AcDbEntity
  8
TEXT
  6
Continuous
 62
     7
370
    30
100
AcDbLine
 10
51.819281
 20
-9.990021
 30
0.0
 11
51.843969
 21
-9.965333
 31
0.0
  0
LINE
  5
205
330
2CE
100
AcDbEntity
  8
TEXT
  6
Continuous
 62
     7
370
    30
100
AcDbLine
 10
52.243542
 20
-10.131448
 30
0.0
 11
52.31425
 21
-10.06074
 31
0.0
  0
LINE
  5
206
330
2CE
100
AcDbEntity
  8
TEXT
  6
Continuous
 62
     7
370
    30
100
AcDbLine
 10
52.384958
 20
-9.990021
 30
0.0
 11
52.409656
 21
-9.965333
 31
0.0
  0
LINE
  5
207
330
2CE
100
AcDbEntity
  8
TEXT
  6
Continuous
 62
     7
370
    30
100
AcDbLine
 10
52.384958
 20
-10.131448
 30
0.0
 11
52.455677
 21
-10.06074
 31
0.0
  0
LINE
  5
208
330
2CE
100
AcDbEntity
  8
TEXT
  6
Continuous
 62
     7
370
    30
100
AcDbLine
 10
52.001052
 20
-10.179479
 30
0.0
 11
52.004896
 21
-10.175646
 31
0.0
  0
LINE
  5
209
330
2CE
100
AcDbEntity
  8
TEXT
  6
Continuous
 62
     7
370
    30
100
AcDbLine
 10
52.075604
 20
-10.104927
 30
0.0
 11
52.146313
 21
-10.034219
 31
0.0
  0
LINE
  5
20A
330
2CE
100
AcDbEntity
  8
TEXT
  6
Continuous
 62
     7
370
    30
100
AcDbLine
 10
51.859625
 20
-10.179479
 30
0.0
 11
51.863469
 21
-10.175646
 31
0.0
  0
LINE
  5
20B
330
2CE
100
AcDbEntity
  8
TEXT
  6
Continuous
 62
     7
370
    30
100
AcDbLine
 10
51.934177
 20
-10.104927
 30
0.0
 11
52.004896
 21
-10.034219
 31
0.0
  0
LINE
  5
20C
330
2CE
100
AcDbEntity
  8
TEXT
  6
Continuous
 62
     7
370
    30
100
AcDbLine
 10
51.718208
 20
-10.179479
 30
0.0
 11
51.722052
 21
-10.175646
 31
0.0
  0
LINE
  5
20D
330
2CE
100
AcDbEntity
  8
TEXT
  6
Continuous
 62
     7
370
    30
100
AcDbLine
 10
51.79276
 20
-10.104927
 30
0.0
 11
51.863469
 21
-10.034219
 31
0.0
  0
LINE
  5
20E
330
2CE
100
AcDbEntity
  8
TEXT
  6
Continuous
 62
     7
370
    30
100
AcDbLine
 10
51.710437
 20
-10.045833
 30
0.0
 11
51.722052
 21
-10.034219
 31
0.0
  0
LINE
  5
20F
330
2CE
100
AcDbEntity
  8
TEXT
  6
Continuous
 62
     7
370
    30
100
AcDbLine
 10
52.142469
 20
-10.179479
 30
0.0
 11
52.146313
 21
-10.175646
 31
0.0
  0
LINE
  5
210
330
2CE
100
AcDbEntity
  8
TEXT
  6
Continuous
 62
     7
370
    30
100
AcDbLine
 10
52.217021
 20
-10.104927
 30
0.0
 11
52.28774
 21
-10.034219
 31
0.0
  0
LINE
  5
211
330
2CE
100
AcDbEntity
  8
TEXT
  6
Continuous
 62
     7
370
    30
100
AcDbLine
 10
52.283896
 20
-10.179479
 30
0.0
 11
52.28774
 21
-10.175646
 31
0.0
  0
LINE
  5
212
330
2CE
100
AcDbEntity
  8
TEXT
  6
Continuous
 62
     7
370
    30
100
AcDbLine
 10
52.358448
 20
-10.104927
 30
0.0
 11
52.429156
 21
-10.034219
 31
0.0
  0
LINE
  5
213
330
2CE
100
AcDbEntity
  8
TEXT
  6
Continuous
 62
     7
370
    30
100
AcDbLine
 10
52.425312
 20
-10.179479
 30
0.0
 11
52.429156
 21
-10.175646
 31
0.0
  0
LINE
  5
214
330
2CE
100
AcDbEntity
  8
TEXT
  6
Continuous
 62
     7
370
    30
100
AcDbLine
 10
52.167833
 20
-10.179479
 30
0.0
 11
52.146313
 21
-10.157958
 31
0.0
  0
LINE
  5
215
330
2CE
100
AcDbEntity
  8
TEXT
  6
Continuous
 62
     7
370
    30
100
AcDbLine
 10
52.075604
 20
-10.08725
 30
0.0
 11
52.004896
 21
-10.016542
 31
0.0
  0
LINE
  5
216
330
2CE
100
AcDbEntity
  8
TEXT
  6
Continuous
 62
     7
370
    30
100
AcDbLine
 10
52.026417
 20
-10.179479
 30
0.0
 11
52.004896
 21
-10.157958
 31
0.0
  0
LINE
  5
217
330
2CE
100
AcDbEntity
  8
TEXT
  6
Continuous
 62
     7
370
    30
100
AcDbLine
 10
51.934177
 20
-10.08725
 30
0.0
 11
51.863469
 21
-10.016542
 31
0.0
  0
LINE
  5
218
330
2CE
100
AcDbEntity
  8
TEXT
  6
Continuous
 62
     7
370
    30
100
AcDbLine
 10
51.88499
 20
-10.179479
 30
0.0
 11
51.863469
 21
-10.157958
 31
0.0
  0
LINE
  5
219
330
2CE
100
AcDbEntity
  8
TEXT
  6
Continuous
 62
     7
370
    30
100
AcDbLine
 10
51.79276
 20
-10.08725
 30
0.0
 11
51.722052
 21
-10.016542
 31
0.0
  0
LINE
  5
21A
330
2CE
100
AcDbEntity
  8
TEXT
  6
Continuous
 62
     7
370
    30
100
AcDbLine
 10
51.743573
 20
-10.179479
 30
0.0
 11
51.722052
 21
-10.157958
 31
0.0
  0
LINE
  5
21B
330
2CE
100
AcDbEntity
  8
TEXT
  6
Continuous
 62
     7
370
    30
100
AcDbLine
 10
52.30926
 20
-10.179479
 30
0.0
 11
52.28774
 21
-10.157958
 31
0.0
  0
LINE
  5
21C
330
2CE
100
AcDbEntity
  8
TEXT
  6
Continuous
 62
     7
370
    30
100
AcDbLine
 10
52.217021
 20
-10.08725
 30
0.0
 11
52.146313
 21
-10.016542
 31
0.0
  0
LINE
  5
21D
330
2CE
100
AcDbEntity
  8
TEXT
  6
Continuous
 62
     7
370
    30
100
AcDbLine
 10
52.450677
 20
-10.179479
 30
0.0
 11
52.429156
 21
-10.157958
 31
0.0
  0
LINE
  5
21E
330
2CE
100
AcDbEntity
  8
TEXT
  6
Continuous
 62
     7
370
    30
100
AcDbLine
 10
52.358448
 20
-10.08725
 30
0.0
 11
52.28774
 21
-10.016542
 31
0.0
  0
LINE
  5
21F
330
2CE
100
AcDbEntity
  8
TEXT
  6
Continuous
 62
     7
370
    30
100
AcDbLine
 10
52.459781
 20
-10.047167
 30
0.0
 11
52.429156
 21
-10.016542
 31
0.0
  0
LINE
  5
220
330
2CE
100
AcDbEntity
  8
TEXT
  6
Continuous
 62
     7
370
    30
100
AcDbLine
 10
52.079448
 20
-10.179479
 30
0.0
 11
52.031406
 21
-10.131448
 31
0.0
  0
LINE
  5
221
330
2CE
100
AcDbEntity
  8
TEXT
  6
Continuous
 62
     7
370
    30
100
AcDbLine
 10
51.960698
 20
-10.06074
 30
0.0
 11
51.88999
 21
-9.990021
 31
0.0
  0
LINE
  5
222
330
2CE
100
AcDbEntity
  8
TEXT
  6
Continuous
 62
     7
370
    30
100
AcDbLine
 10
51.938021
 20
-10.179479
 30
0.0
 11
51.88999
 21
-10.131448
 31
0.0
  0
LINE
  5
223
330
2CE
100
AcDbEntity
  8
TEXT
  6
Continuous
 62
     7
370
    30
100
AcDbLine
 10
51.819281
 20
-10.06074
 30
0.0
 11
51.748562
 21
-9.990021
 31
0.0
  0
LINE
  5
224
330
2CE
100
AcDbEntity
  8
TEXT
  6
Continuous
 62
     7
370
    30
100
AcDbLine
 10
51.796604
 20
-10.179479
 30
0.0
 11
51.748562
 21
-10.131448
 31
0.0
  0
LINE
  5
225
330
2CE
100
AcDbEntity
  8
TEXT
  6
Continuous
 62
     7
370
    30
100
AcDbLine
 10
52.220865
 20
-10.179479
 30
0.0
 11
52.172833
 21
-10.131448
 31
0.0
  0
LINE
  5
226
330
2CE
100
AcDbEntity
  8
TEXT
  6
Continuous
 62
     7
370
    30
100
AcDbLine
 10
52.102125
 20
-10.06074
 30
0.0
 11
52.031406
 21
-9.990021
 31
0.0
  0
LINE
  5
227
330
2CE
100
AcDbEntity
  8
TEXT
  6
Continuous
 62
     7
370
    30
100
AcDbLine
 10
52.362292
 20
-10.179479
 30
0.0
 11
52.31425
 21
-10.131448
 31
0.0
  0
LINE
  5
228
330
2CE
100
AcDbEntity
  8
TEXT
  6
Continuous
 62
     7
370
    30
100
AcDbLine
 10
52.243542
 20
-10.06074
 30
0.0
 11
52.172833
 21
-9.990021
 31
0.0
  0
LINE
  5
229
330
2CE
100
AcDbEntity
  8
TEXT
  6
Continuous
 62
     7
370
    30
100
AcDbLine
 10
52.459781
 20
-10.135562
 30
0.0
 11
52.455677
 21
-10.131448
 31
0.0
  0
LINE
  5
22A
330
2CE
100
AcDbEntity
  8
TEXT
  6
Continuous
 62
     7
370
    30
100
AcDbLine
 10
52.384958
 20
-10.06074
 30
0.0
 11
52.31425
 21
-9.990021
 31
0.0
  0
LINE
  5
22B
330
2CE
100
AcDbEntity
  8
TEXT
  6
Continuous
 62
     7
370
    30
100
AcDbLine
 10
52.459781
 20
-9.994135
 30
0.0
 11
52.455677
 21
-9.990021
 31
0.0
  0
LINE
  5
22C
330
2CE
100
AcDbEntity
  8
TEXT
  6
Continuous
 62
     7
370
    30
100
AcDbLine
 10
52.128635
 20
-10.175646
 30
0.0
 11
52.057927
 21
-10.104927
 31
0.0
  0
LINE
  5
22D
330
2CE
100
AcDbEntity
  8
TEXT
  6
Continuous
 62
     7
370
    30
100
AcDbLine
 10
51.987219
 20
-10.034219
 30
0.0
 11
51.918323
 21
-9.965333
 31
0.0
  0
LINE
  5
22E
330
2CE
100
AcDbEntity
  8
TEXT
  6
Continuous
 62
     7
370
    30
100
AcDbLine
 10
51.987219
 20
-10.175646
 30
0.0
 11
51.9165
 21
-10.104927
 31
0.0
  0
LINE
  5
22F
330
2CE
100
AcDbEntity
  8
TEXT
  6
Continuous
 62
     7
370
    30
100
AcDbLine
 10
51.845792
 20
-10.034219
 30
0.0
 11
51.776906
 21
-9.965333
 31
0.0
  0
LINE
  5
230
330
2CE
100
AcDbEntity
  8
TEXT
  6
Continuous
 62
     7
370
    30
100
AcDbLine
 10
51.845792
 20
-10.175646
 30
0.0
 11
51.775083
 21
-10.104927
 31
0.0
  0
LINE
  5
231
330
2CE
100
AcDbEntity
  8
TEXT
  6
Continuous
 62
     7
370
    30
100
AcDbLine
 10
52.270063
 20
-10.175646
 30
0.0
 11
52.199344
 21
-10.104927
 31
0.0
  0
LINE
  5
232
330
2CE
100
AcDbEntity
  8
TEXT
  6
Continuous
 62
     7
370
    30
100
AcDbLine
 10
52.128635
 20
-10.034219
 30
0.0
 11
52.05975
 21
-9.965333
 31
0.0
  0
LINE
  5
233
330
2CE
100
AcDbEntity
  8
TEXT
  6
Continuous
 62
     7
370
    30
100
AcDbLine
 10
52.411479
 20
-10.175646
 30
0.0
 11
52.340771
 21
-10.104927
 31
0.0
  0
LINE
  5
234
330
2CE
100
AcDbEntity
  8
TEXT
  6
Continuous
 62
     7
370
    30
100
AcDbLine
 10
52.270063
 20
-10.034219
 30
0.0
 11
52.201167
 21
-9.965333
 31
0.0
  0
LINE
  5
235
330
2CE
100
AcDbEntity
  8
TEXT
  6
Continuous
 62
     7
370
    30
100
AcDbLine
 10
52.411479
 20
-10.034219
 30
0.0
 11
52.342594
 21
-9.965333
 31
0.0
  0
LINE
  5
237
330
2CE
100
AcDbEntity
  8
Level 8
  6
Continuous
 62
     7
370
    13
100
AcDbLine
 10
53.598531
 20
-8.878323
 30
0.0
 11
53.101344
 21
-9.053708
 31
0.0
  0
LINE
  5
238
330
2CE
100
AcDbEntity
  8
Level 8
  6
Continuous
 62
     7
370
    13
100
AcDbLine
 10
53.101344
 20
-9.053708
 30
0.0
 11
52.945354
 21
-9.053708
 31
0.0
  0
LINE
  5
239
330
2CE
100
AcDbEntity
  8
REF
  6
Continuous
 62
     7
370
    13
100
AcDbLine
 10
51.545552
 20
-9.965333
 30
0.0
 11
51.196052
 21
-9.965333
 31
0.0
  0
LINE
  5
23A
330
2CE
100
AcDbEntity
  8
REF
  6
Continuous
 62
     7
370
    13
100
AcDbLine
 10
51.545552
 20
-8.565333
 30
0.0
 11
51.196052
 21
-8.565333
 31
0.0
  0
LINE
  5
23B
330
2CE
100
AcDbEntity
  8
REF
  6
Continuous
 62
     7
370
    13
100
AcDbLine
 10
51.376052
 20
-9.965333
 30
0.0
 11
51.376052
 21
-8.565333
 31
0.0
  0
LINE
  5
23C
330
2CE
100
AcDbEntity
  8
DEFPOINTS
  6
Continuous
 62
     7
370
    30
100
AcDbLine
 10
51.608052
 20
-9.965333
 30
0.0
 11
51.608052
 21
-9.965333
 31
0.0
  0
LINE
  5
23D
330
2CE
100
AcDbEntity
  8
DEFPOINTS
  6
Continuous
 62
     7
370
    30
100
AcDbLine
 10
51.608052
 20
-8.565333
 30
0.0
 11
51.608052
 21
-8.565333
 31
0.0
  0
LINE
  5
23E
330
2CE
100
AcDbEntity
  8
DEFPOINTS
  6
Continuous
 62
     7
370
    30
100
AcDbLine
 10
51.376052
 20
-8.565333
 30
0.0
 11
51.376052
 21
-8.565333
 31
0.0
  0
LINE
  5
23F
330
2CE
100
AcDbEntity
  8
REF
  6
Continuous
 62
     7
370
    13
100
AcDbLine
 10
51.545552
 20
-7.409854
 30
0.0
 11
51.2105
 21
-7.409854
 31
0.0
  0
LINE
  5
240
330
2CE
100
AcDbEntity
  8
REF
  6
Continuous
 62
     7
370
    13
100
AcDbLine
 10
51.545552
 20
-6.009854
 30
0.0
 11
51.2105
 21
-6.009854
 31
0.0
  0
LINE
  5
241
330
2CE
100
AcDbEntity
  8
REF
  6
Continuous
 62
     7
370
    13
100
AcDbLine
 10
51.3905
 20
-7.409854
 30
0.0
 11
51.3905
 21
-6.009854
 31
0.0
  0
LINE
  5
242
330
2CE
100
AcDbEntity
  8
DEFPOINTS
  6
Continuous
 62
     7
370
    30
100
AcDbLine
 10
51.608052
 20
-7.409854
 30
0.0
 11
51.608052
 21
-7.409854
 31
0.0
  0
LINE
  5
243
330
2CE
100
AcDbEntity
  8
DEFPOINTS
  6
Continuous
 62
     7
370
    30
100
AcDbLine
 10
51.608052
 20
-6.009854
 30
0.0
 11
51.608052
 21
-6.009854
 31
0.0
  0
LINE
  5
244
330
2CE
100
AcDbEntity
  8
REF
  6
Continuous
 62
     7
370
    13
100
AcDbLine
 10
51.545552
 20
-4.823208
 30
0.0
 11
51.218438
 21
-4.823208
 31
0.0
  0
LINE
  5
245
330
2CE
100
AcDbEntity
  8
REF
  6
Continuous
 62
     7
370
    13
100
AcDbLine
 10
51.545552
 20
-3.423208
 30
0.0
 11
51.218438
 21
-3.423208
 31
0.0
  0
LINE
  5
246
330
2CE
100
AcDbEntity
  8
REF
  6
Continuous
 62
     7
370
    13
100
AcDbLine
 10
51.398438
 20
-4.814
 30
0.0
 11
51.398438
 21
-3.423208
 31
0.0
  0
LINE
  5
247
330
2CE
100
AcDbEntity
  8
DEFPOINTS
  6
Continuous
 62
     7
370
    30
100
AcDbLine
 10
51.608052
 20
-4.823208
 30
0.0
 11
51.608052
 21
-4.823208
 31
0.0
  0
LINE
  5
248
330
2CE
100
AcDbEntity
  8
DEFPOINTS
  6
Continuous
 62
     7
370
    30
100
AcDbLine
 10
51.608052
 20
-3.423208
 30
0.0
 11
51.608052
 21
-3.423208
 31
0.0
  0
LINE
  5
249
330
2CE
100
AcDbEntity
  8
DEFPOINTS
  6
Continuous
 62
     7
370
    30
100
AcDbLine
 10
51.398438
 20
-3.423208
 30
0.0
 11
51.398438
 21
-3.423208
 31
0.0
  0
LINE
  5
24A
330
2CE
100
AcDbEntity
  8
Level 8
  6
Continuous
 62
     7
370
    13
100
AcDbLine
 10
53.722562
 20
-3.725792
 30
0.0
 11
53.300667
 21
-3.909562
 31
0.0
  0
LINE
  5
24B
330
2CE
100
AcDbEntity
  8
Level 8
  6
Continuous
 62
     7
370
    13
100
AcDbLine
 10
53.300667
 20
-3.909562
 30
0.0
 11
53.201729
 21
-3.909562
 31
0.0
  0
LINE
  5
24C
330
2CE
100
AcDbEntity
  8
Level 8
  6
Continuous
 62
     7
370
    13
100
AcDbLine
 10
53.675187
 20
-6.213812
 30
0.0
 11
53.260948
 21
-6.313469
 31
0.0
  0
LINE
  5
24D
330
2CE
100
AcDbEntity
  8
Level 8
  6
Continuous
 62
     7
370
    13
100
AcDbLine
 10
53.260948
 20
-6.313469
 30
0.0
 11
53.158396
 21
-6.313469
 31
0.0
  0
LINE
  5
24E
330
2CE
100
AcDbEntity
  8
Level 1
  6
Continuous
 62
     7
370
    30
100
AcDbLine
 10
57.458052
 20
-2.198812
 30
0.0
 11
57.208052
 21
-2.198812
 31
0.0
  0
LINE
  5
24F
330
2CE
100
AcDbEntity
  8
Level 1
  6
Continuous
 62
     7
370
    30
100
AcDbLine
 10
57.208052
 20
-2.073812
 30
0.0
 11
57.208052
 21
-2.198812
 31
0.0
  0
LINE
  5
250
330
2CE
100
AcDbEntity
  8
Level 1
  6
Continuous
 62
     7
370
    30
100
AcDbLine
 10
49.208052
 20
-2.198812
 30
0.0
 11
48.958052
 21
-2.198812
 31
0.0
  0
LINE
  5
251
330
2CE
100
AcDbEntity
  8
Level 1
  6
Continuous
 62
     7
370
    30
100
AcDbLine
 10
49.208052
 20
-2.073812
 30
0.0
 11
49.208052
 21
-2.198812
 31
0.0
  0
LINE
  5
252
330
2CE
100
AcDbEntity
  8
Level 1
  6
Continuous
 62
     7
370
    30
100
AcDbLine
 10
49.208052
 20
-12.948812
 30
0.0
 11
48.958052
 21
-12.948812
 31
0.0
  0
LINE
  5
253
330
2CE
100
AcDbEntity
  8
Level 1
  6
Continuous
 62
     7
370
    30
100
AcDbLine
 10
49.208052
 20
-12.948812
 30
0.0
 11
49.208052
 21
-13.073812
 31
0.0
  0
LINE
  5
254
330
2CE
100
AcDbEntity
  8
Level 1
  6
Continuous
 62
     7
370
    30
100
AcDbLine
 10
57.458052
 20
-12.948812
 30
0.0
 11
57.208052
 21
-12.948812
 31
0.0
  0
LINE
  5
255
330
2CE
100
AcDbEntity
  8
Level 1
  6
Continuous
 62
     7
370
    30
100
AcDbLine
 10
57.208052
 20
-12.948812
 30
0.0
 11
57.208052
 21
-13.073812
 31
0.0
  0
INSERT
  5
256
330
2CE
100
AcDbEntity
  8
REF
  6
Continuous
 62
     7
370
    13
100
AcDbBlockReference
  2
LARROW
 10
51.398438
 20
-3.423208
 30
0.0
 41
12.0
 42
12.0
 43
12.0
 50
90.0
  0
INSERT
  5
258
330
2CE
100
AcDbEntity
  8
REF
  6
Continuous
 62
     7
370
    13
100
AcDbBlockReference
  2
LARROW
 10
51.398438
 20
-4.814
 30
0.0
 41
12.0
 42
12.0
 43
12.0
 50
270.0
  0
INSERT
  5
25A
330
2CE
100
AcDbEntity
  8
REF
  6
Continuous
 62
     7
370
    13
100
AcDbBlockReference
  2
LARROW
 10
51.398438
 20
-4.814
 30
0.0
 41
12.0
 42
12.0
 43
12.0
 50
270.0
  0
INSERT
  5
25C
330
2CE
100
AcDbEntity
  8
REF
  6
Continuous
 62
     7
370
    13
100
AcDbBlockReference
  2
LARROW
 10
53.722562
 20
-3.725792
 30
0.0
 41
12.0
 42
12.0
 43
12.0
 50
23.537153
  0
INSERT
  5
25E
330
2CE
100
AcDbEntity
  8
REF
  6
Continuous
 62
     7
370
    13
100
AcDbBlockReference
  2
LARROW
 10
51.3905
 20
-6.009854
 30
0.0
 41
12.0
 42
12.0
 43
12.0
 50
90.0
  0
INSERT
  5
260
330
2CE
100
AcDbEntity
  8
REF
  6
Continuous
 62
     7
370
    13
100
AcDbBlockReference
  2
LARROW
 10
51.3905
 20
-7.409854
 30
0.0
 41
12.0
 42
12.0
 43
12.0
 50
270.0
  0
INSERT
  5
262
330
2CE
100
AcDbEntity
  8
REF
  6
Continuous
 62
     7
370
    13
100
AcDbBlockReference
  2
LARROW
 10
53.675187
 20
-6.213812
 30
0.0
 41
12.000002
 42
12.000002
 43
12.000002
 50
13.526956
  0
INSERT
  5
264
330
2CE
100
AcDbEntity
  8
REF
  6
Continuous
 62
     7
370
    13
100
AcDbBlockReference
  2
LARROW
 10
51.376052
 20
-8.573271
 30
0.0
 41
12.0
 42
12.0
 43
12.0
 50
90.0
  0
INSERT
  5
266
330
2CE
100
AcDbEntity
  8
REF
  6
Continuous
 62
     7
370
    13
100
AcDbBlockReference
  2
LARROW
 10
51.376052
 20
-8.573271
 30
0.0
 41
12.0
 42
12.0
 43
12.0
 50
90.0
  0
INSERT
  5
268
330
2CE
100
AcDbEntity
  8
REF
  6
Continuous
 62
     7
370
    13
100
AcDbBlockReference
  2
LARROW
 10
51.376052
 20
-9.966365
 30
0.0
 41
12.0
 42
12.0
 43
12.0
 50
270.0
  0
INSERT
  5
26A
330
2CE
100
AcDbEntity
  8
REF
  6
Continuous
 62
     7
370
    13
100
AcDbBlockReference
  2
LARROW
 10
53.598531
 20
-8.878323
 30
0.0
 41
11.999998
 42
11.999998
 43
11.999998
 50
19.430549
  0
TEXT
  5
7E
330
2CE
100
AcDbEntity
  8
REF
  6
Continuous
 62
     7
370
    30
100
AcDbText
 10
51.300979
 20
-4.468665
 30
0.0
 40
0.09
  1
PAVEMENT
 50
90.0
  7
Style-Arial
 11
51.255979
 21
-4.468665
 31
0.0
100
AcDbText
 73
     2
  0
TEXT
  5
86
330
2CE
100
AcDbEntity
  8
Level 8
  6
Continuous
 62
     7
370
    30
100
AcDbText
 10
52.250855
 20
-3.618208
 30
0.0
 40
0.09
  1
ASPHALT SURFACE COURSE
  7
Style-Arial
 11
52.250855
 21
-3.573208
 31
0.0
100
AcDbText
 73
     2
  0
TEXT
  5
85
330
2CE
100
AcDbEntity
  8
Level 8
  6
Continuous
 62
     7
370
    30
100
AcDbText
 10
52.390868
 20
-3.963323
 30
0.0
 40
0.09
  1
TACK COAT
  7
Style-Arial
 11
52.390868
 21
-3.918323
 31
0.0
100
AcDbText
 73
     2
  0
TEXT
  5
84
330
2CE
100
AcDbEntity
  8
Level 8
  6
Continuous
 62
     7
370
    30
100
AcDbText
 10
52.434262
 20
-4.41026
 30
0.0
 40
0.09
  1
ASPHALT CONCRETE
  7
Style-Arial
 11
52.434262
 21
-4.36526
 31
0.0
100
AcDbText
 73
     2
  0
TEXT
  5
83
330
2CE
100
AcDbEntity
  8
Level 8
  6
Continuous
 62
     7
370
    30
100
AcDbText
 10
52.281687
 20
-4.61676
 30
0.0
 40
0.09
  1
INTERMEDIATE COURSES
  7
Style-Arial
 11
52.281687
 21
-4.57176
 31
0.0
100
AcDbText
 73
     2
  0
TEXT
  5
82
330
2CE
100
AcDbEntity
  8
Level 8
  6
Continuous
 62
     7
370
    30
100
AcDbText
 10
52.838966
 20
-5.018208
 30
0.0
 40
0.09
  1
SUBGRADE
  7
Style-Arial
 11
52.838966
 21
-4.973208
 31
0.0
100
AcDbText
 73
     2
  0
TEXT
  5
81
330
2CE
100
AcDbEntity
  8
Level 8
  6
Continuous
 62
     7
370
    30
100
AcDbText
 10
50.967531
 20
-5.320062
 30
0.0
 40
0.09
  1
TYPICAL FULL DEPTH ASPHALT CONCRETE PAVEMENT
  7
Style-Arial
 11
50.967531
 21
-5.275062
 31
0.0
100
AcDbText
 73
     2
  0
TEXT
  5
80
330
2CE
100
AcDbEntity
  8
Level 8
  6
Continuous
 62
     7
370
    30
100
AcDbText
 10
50.581042
 20
-5.321896
 30
0.0
 40
0.09
  1
A
  7
Style-Arial
 11
50.581042
 21
-5.276896
 31
0.0
100
AcDbText
 73
     2
  0
TEXT
  5
7D
330
2CE
100
AcDbEntity
  8
REF
  6
Continuous
 62
     7
370
    30
100
AcDbText
 10
51.343177
 20
-7.019248
 30
0.0
 40
0.09
  1
PAVEMENT
 50
90.0
  7
Style-Arial
 11
51.298177
 21
-7.019248
 31
0.0
100
AcDbText
 73
     2
  0
TEXT
  5
75
330
2CE
100
AcDbEntity
  8
Level 8
  6
Continuous
 62
     7
370
    30
100
AcDbText
 10
52.222423
 20
-6.154854
 30
0.0
 40
0.09
  1
ASPHALT SURFACE COURSE
  7
Style-Arial
 11
52.222423
 21
-6.109854
 31
0.0
100
AcDbText
 73
     2
  0
TEXT
  5
76
330
2CE
100
AcDbEntity
  8
Level 8
  6
Continuous
 62
     7
370
    30
100
AcDbText
 10
52.389649
 20
-6.357073
 30
0.0
 40
0.09
  1
TACK COAT
  7
Style-Arial
 11
52.389649
 21
-6.312073
 31
0.0
100
AcDbText
 73
     2
  0
TEXT
  5
60
330
2CE
100
AcDbEntity
  8
Level 8
  6
Continuous
 62
     7
370
    30
100
AcDbText
 10
52.488148
 20
-6.561396
 30
0.0
 40
0.09
  1
ASPHALT CONCRETE
  7
Style-Arial
 11
52.488148
 21
-6.516396
 31
0.0
100
AcDbText
 73
     2
  0
TEXT
  5
5F
330
2CE
100
AcDbEntity
  8
Level 8
  6
Continuous
 62
     7
370
    30
100
AcDbText
 10
52.34808
 20
-6.726146
 30
0.0
 40
0.09
  1
INTERMEDIATE COURSES
  7
Style-Arial
 11
52.34808
 21
-6.681146
 31
0.0
100
AcDbText
 73
     2
  0
TEXT
  5
77
330
2CE
100
AcDbEntity
  8
Level 8
  6
Continuous
 62
     7
370
    30
100
AcDbText
 10
52.39968
 20
-7.087312
 30
0.0
 40
0.09
  1
CEMENT - STABILIZED OR
  7
Style-Arial
 11
52.39968
 21
-7.042312
 31
0.0
100
AcDbText
 73
     2
  0
TEXT
  5
78
330
2CE
100
AcDbEntity
  8
Level 8
  6
Continuous
 62
     7
370
    30
100
AcDbText
 10
52.31837
 20
-7.291292
 30
0.0
 40
0.09
  1
ASPHALT - STABILIZED BASE
  7
Style-Arial
 11
52.31837
 21
-7.246292
 31
0.0
100
AcDbText
 73
     2
  0
TEXT
  5
79
330
2CE
100
AcDbEntity
  8
Level 8
  6
Continuous
 62
     7
370
    30
100
AcDbText
 10
52.851459
 20
-7.604854
 30
0.0
 40
0.09
  1
SUBGRADE
  7
Style-Arial
 11
52.851459
 21
-7.559854
 31
0.0
100
AcDbText
 73
     2
  0
TEXT
  5
7A
330
2CE
100
AcDbEntity
  8
Level 8
  6
Continuous
 62
     7
370
    30
100
AcDbText
 10
51.870932
 20
-7.906708
 30
0.0
 40
0.09
  1
TYPICAL STABILIZED BASE SECTION
  7
Style-Arial
 11
51.870932
 21
-7.861708
 31
0.0
100
AcDbText
 73
     2
  0
TEXT
  5
7B
330
2CE
100
AcDbEntity
  8
Level 8
  6
Continuous
 62
     7
370
    30
100
AcDbText
 10
51.426451
 20
-7.915811
 30
0.0
 40
0.09
  1
B
  7
Style-Arial
 11
51.426451
 21
-7.870811
 31
0.0
100
AcDbText
 73
     2
  0
TEXT
  5
6F
330
2CE
100
AcDbEntity
  8
REF
  6
Continuous
 62
     7
370
    30
100
AcDbText
 10
51.316281
 20
-9.598334
 30
0.0
 40
0.09
  1
PAVEMENT
 50
90.0
  7
Style-Arial
 11
51.271281
 21
-9.598334
 31
0.0
100
AcDbText
 73
     2
  0
TEXT
  5
67
330
2CE
100
AcDbEntity
  8
Level 8
  6
Continuous
 62
     7
370
    30
100
AcDbText
 10
52.253644
 20
-8.760333
 30
0.0
 40
0.09
  1
ASPHALT SURFACE COURSE
  7
Style-Arial
 11
52.253644
 21
-8.715333
 31
0.0
100
AcDbText
 73
     2
  0
TEXT
  5
68
330
2CE
100
AcDbEntity
  8
Level 8
  6
Continuous
 62
     7
370
    30
100
AcDbText
 10
52.177399
 20
-9.091385
 30
0.0
 40
0.09
  1
TACK COAT
  7
Style-Arial
 11
52.177399
 21
-9.046385
 31
0.0
100
AcDbText
 73
     2
  0
TEXT
  5
69
330
2CE
100
AcDbEntity
  8
Level 8
  6
Continuous
 62
     7
370
    30
100
AcDbText
 10
52.489966
 20
-9.382
 30
0.0
 40
0.09
  1
PORTLAND CEMENT
  7
Style-Arial
 11
52.489966
 21
-9.337
 31
0.0
100
AcDbText
 73
     2
  0
TEXT
  5
6A
330
2CE
100
AcDbEntity
  8
Level 8
  6
Continuous
 62
     7
370
    30
100
AcDbText
 10
52.787382
 20
-9.554073
 30
0.0
 40
0.09
  1
CONCRETE
  7
Style-Arial
 11
52.787382
 21
-9.509073
 31
0.0
100
AcDbText
 73
     2
  0
TEXT
  5
5D
330
2CE
100
AcDbEntity
  8
Level 8
  6
Continuous
 62
     7
370
    30
100
AcDbText
 10
52.56048
 20
-9.850646
 30
0.0
 40
0.09
  1
STABILIZED BASE
  7
Style-Arial
 11
52.56048
 21
-9.805646
 31
0.0
100
AcDbText
 73
     2
  0
TEXT
  5
6B
330
2CE
100
AcDbEntity
  8
Level 8
  6
Continuous
 62
     7
370
    30
100
AcDbText
 10
52.820239
 20
-10.160333
 30
0.0
 40
0.09
  1
SUBGRADE
  7
Style-Arial
 11
52.820239
 21
-10.115333
 31
0.0
100
AcDbText
 73
     2
  0
TEXT
  5
6C
330
2CE
100
AcDbEntity
  8
Level 8
  6
Continuous
 62
     7
370
    30
100
AcDbText
 10
51.579496
 20
-10.462187
 30
0.0
 40
0.09
  1
TYPICAL RIGID PAVEMENT WITH ASPHALT
  7
Style-Arial
 11
51.579496
 21
-10.417187
 31
0.0
100
AcDbText
 73
     2
  0
TEXT
  5
5C
330
2CE
100
AcDbEntity
  8
Level 8
  6
Continuous
 62
     7
370
    30
100
AcDbText
 10
51.586373
 20
-10.617298
 30
0.0
 40
0.09
  1
OVERLAY AND STABILIZED BASE
  7
Style-Arial
 11
51.586373
 21
-10.572298
 31
0.0
100
AcDbText
 73
     2
  0
TEXT
  5
26C
330
2CE
100
AcDbEntity
  8
TITLE
  6
Continuous
 62
     7
370
    30
100
AcDbText
 10
51.149953
 20
-11.228604
 30
0.0
 40
0.09
  1
REFERENCE:  TM 5-822-4/AFM 88-7, CHAPTER 4,
  7
Style-Arial
 11
51.149953
 21
-11.183604
 31
0.0
100
AcDbText
 73
     2
  0
TEXT
  5
5B
330
2CE
100
AcDbEntity
  8
TITLE
  6
Continuous
 62
     7
370
    30
100
AcDbText
 10
52.032678
 20
-11.41901
 30
0.0
 40
0.09
  1
SOIL STABILIZATION FOR PAVEMENTS
  7
Style-Arial
 11
52.032678
 21
-11.37401
 31
0.0
100
AcDbText
 73
     2
  0
TEXT
  5
8C
330
2CE
100
AcDbEntity
  8
Level 9
  6
Continuous
 62
     7
370
    30
100
AcDbText
 10
51.381927
 20
-11.774156
 30
0.0
 40
0.09
  1
PAVEMENTS UTILIZING
  7
Style-Arial
 11
51.381927
 21
-11.729156
 31
0.0
100
AcDbText
 73
     2
  0
TEXT
  5
236
330
2CE
100
AcDbEntity
  8
Level 9
  6
Continuous
 62
     7
370
    30
100
AcDbText
 10
51.47426
 20
-11.990177
 30
0.0
 40
0.09
  1
STABILIZED LAYERS
  7
Style-Arial
 11
51.47426
 21
-11.945177
 31
0.0
100
AcDbText
 73
     2
  0
TEXT
  5
8E
330
2CE
100
AcDbEntity
  8
BORDER
  6
Continuous
 62
     7
370
    30
100
AcDbText
 10
55.019689
 20
-11.800488
 30
0.0
 40
0.09
  1
DATE
  7
Style-Arial
 11
55.019689
 21
-11.755488
 31
0.0
100
AcDbText
 73
     2
  0
TEXT
  5
8D
330
2CE
100
AcDbEntity
  8
BORDER
  6
Continuous
 62
     7
370
    30
100
AcDbText
 10
54.906277
 20
-11.96524
 30
0.0
 40
0.09
  1
AUG 1992
  7
Style-Arial
 11
54.906277
 21
-11.92024
 31
0.0
100
AcDbText
 73
     2
  0
TEXT
  5
90
330
2CE
100
AcDbEntity
  8
BORDER
  6
Continuous
 62
     7
370
    30
100
AcDbText
 10
56.10788
 20
-11.798573
 30
0.0
 40
0.09
  1
FIGURE
  7
Style-Arial
 11
56.10788
 21
-11.753573
 31
0.0
100
AcDbText
 73
     2
  0
TEXT
  5
8F
330
2CE
100
AcDbEntity
  8
BORDER
  6
Continuous
 62
     7
370
    30
100
AcDbText
 10
56.209557
 20
-11.973292
 30
0.0
 40
0.09
  1
2-3b
  7
Style-Arial
 11
56.209557
 21
-11.928292
 31
0.0
100
AcDbText
 73
     2
  0
ENDSEC
  0
SECTION
  2
OBJECTS
  0
DICTIONARY
  5
2C2
330
0
100
AcDbDictionary
281
     1
  3
ACAD_COLOR
350
2E1
  3
ACAD_GROUP
350
2DE
  3
ACAD_LAYOUT
350
2D2
  3
ACAD_MATERIAL
350
2E0
  3
ACAD_MLINESTYLE
350
2CC
  3
ACAD_PLOTSETTINGS
350
2DF
  3
ACAD_PLOTSTYLENAME
350
2C1
  3
ACAD_TABLESTYLE
350
2F9
  3
AcadDim
350
2EE
  3
MicroStation
350
2E6
  0
DICTIONARY
  5
2BE
330
2BD
100
AcDbDictionary
280
     1
281
     1
  3
ACAD_LAYERFILTERS
360
2E5
  3
ACAD_LAYERSTATES
360
2BF
  0
DICTIONARY
  5
2F5
330
2CE
100
AcDbDictionary
280
     1
281
     1
  3
ACAD_SORTENTS
360
2F6
  0
DICTIONARY
  5
2E1
102
{ACAD_REACTORS
330
2C2
102
}
330
2C2
100
AcDbDictionary
281
     1
  0
DICTIONARY
  5
2DE
102
{ACAD_REACTORS
330
2C2
102
}
330
2C2
100
AcDbDictionary
281
     1
  0
DICTIONARY
  5
2D2
102
{ACAD_REACTORS
330
2C2
102
}
330
2C2
100
AcDbDictionary
281
     1
  3
Layout1
350
2D6
  3
Model
350
2D1
  0
DICTIONARY
  5
2E0
102
{ACAD_REACTORS
330
2C2
102
}
330
2C2
100
AcDbDictionary
281
     1
  0
DICTIONARY
  5
2CC
102
{ACAD_REACTORS
330
2C2
102
}
330
2C2
100
AcDbDictionary
281
     1
  3
Standard
350
2CB
  0
DICTIONARY
  5
2DF
102
{ACAD_REACTORS
330
2C2
102
}
330
2C2
100
AcDbDictionary
281
     1
  0
ACDBDICTIONARYWDFLT
  5
2C1
102
{ACAD_REACTORS
330
2C2
102
}
330
2C2
100
AcDbDictionary
281
     1
  3
Normal
350
2C0
100
AcDbDictionaryWithDefault
340
2C0
  0
DICTIONARY
  5
2F9
102
{ACAD_REACTORS
330
2C2
102
}
330
2C2
100
AcDbDictionary
281
     1
  0
XRECORD
  5
2EE
102
{ACAD_REACTORS
330
2C2
102
}
330
2C2
100
AcDbXrecord
280
     1
 90
   990106
  3
 
 60
     0
 61
     0
 62
     1
 63
     1
 64
     0
 65
     0
 66
     0
 67
     3
 68
     1
 69
     1
 70
     0
 71
     0
 72
     0
 40
0.0
170
     0
  0
DICTIONARY
  5
2E6
102
{ACAD_REACTORS
330
2C2
102
}
330
2C2
100
AcDbDictionary
281
     1
  3
ApplicationElement 698
350
2BA
  3
ModelApplicationElement 0 697
350
2B9
  0
DICTIONARY
  5
2E5
102
{ACAD_REACTORS
330
2BE
102
}
330
2BE
100
AcDbDictionary
281
     1
  0
DICTIONARY
  5
2BF
102
{ACAD_REACTORS
330
2BE
102
}
330
2BE
100
AcDbDictionary
281
     1
  0
SORTENTSTABLE
  5
2F6
102
{ACAD_REACTORS
330
2F5
102
}
330
2F5
100
AcDbSortentsTable
330
2CE
331
5B
  5
260
331
5C
  5
25C
331
5D
  5
256
331
5E
  5
5B
331
5F
  5
24B
331
60
  5
24A
331
61
  5
5C
331
62
  5
5D
331
63
  5
5E
331
64
  5
5F
331
65
  5
60
331
66
  5
61
331
67
  5
252
331
68
  5
253
331
69
  5
254
331
6A
  5
255
331
6B
  5
258
331
6C
  5
25A
331
6D
  5
62
331
6E
  5
63
331
6F
  5
251
331
70
  5
64
331
71
  5
65
331
72
  5
66
331
73
  5
67
331
74
  5
68
331
75
  5
248
331
76
  5
249
331
77
  5
24C
331
78
  5
24D
331
79
  5
24E
331
7A
  5
24F
331
7B
  5
250
331
7C
  5
69
331
7D
  5
247
331
7E
  5
23F
331
7F
  5
6A
331
80
  5
246
331
81
  5
245
331
82
  5
244
331
83
  5
243
331
84
  5
242
331
85
  5
241
331
86
  5
240
331
87
  5
6B
331
88
  5
6C
331
89
  5
6D
331
8A
  5
6E
331
8B
  5
6F
331
8C
  5
262
331
8D
  5
268
331
8E
  5
266
331
8F
  5
26C
331
90
  5
26A
331
91
  5
70
331
92
  5
71
331
93
  5
72
331
94
  5
73
331
95
  5
74
331
96
  5
75
331
97
  5
76
331
98
  5
77
331
99
  5
78
331
9A
  5
79
331
9B
  5
7A
331
9C
  5
7B
331
9D
  5
7C
331
9E
  5
7D
331
9F
  5
7E
331
A0
  5
7F
331
A1
  5
80
331
A2
  5
81
331
A3
  5
82
331
A4
  5
83
331
A5
  5
84
331
A6
  5
85
331
A7
  5
86
331
A8
  5
87
331
A9
  5
88
331
AA
  5
89
331
AB
  5
8A
331
AC
  5
8B
331
AD
  5
8C
331
AE
  5
8D
331
AF
  5
8E
331
B0
  5
8F
331
B1
  5
90
331
B2
  5
91
331
B3
  5
92
331
B4
  5
93
331
B5
  5
94
331
B6
  5
95
331
B7
  5
96
331
B8
  5
97
331
B9
  5
98
331
BA
  5
99
331
BB
  5
9A
331
BC
  5
9B
331
BD
  5
9C
331
BE
  5
9D
331
BF
  5
9E
331
C0
  5
9F
331
C1
  5
A0
331
C2
  5
A1
331
C3
  5
A2
331
C4
  5
A3
331
C5
  5
A4
331
C6
  5
A5
331
C7
  5
A6
331
C8
  5
A7
331
C9
  5
A8
331
CA
  5
A9
331
CB
  5
AA
331
CC
  5
AB
331
CD
  5
AC
331
CE
  5
AD
331
CF
  5
AE
331
D0
  5
AF
331
D1
  5
B0
331
D2
  5
B1
331
D3
  5
B2
331
D4
  5
B3
331
D5
  5
B4
331
D6
  5
B5
331
D7
  5
B6
331
D8
  5
B7
331
D9
  5
B8
331
DA
  5
B9
331
DB
  5
BA
331
DC
  5
BB
331
DD
  5
BC
331
DE
  5
BD
331
DF
  5
BE
331
E0
  5
BF
331
E1
  5
C0
331
E2
  5
C1
331
E3
  5
C2
331
E4
  5
C3
331
E5
  5
C4
331
E6
  5
C5
331
E7
  5
C6
331
E8
  5
C7
331
E9
  5
C8
331
EA
  5
C9
331
EB
  5
CA
331
EC
  5
CB
331
ED
  5
CC
331
EE
  5
CD
331
EF
  5
CE
331
F0
  5
CF
331
F1
  5
D0
331
F2
  5
D1
331
F3
  5
D2
331
F4
  5
D3
331
F5
  5
D4
331
F6
  5
D5
331
F7
  5
D6
331
F8
  5
D7
331
F9
  5
D8
331
FA
  5
D9
331
FB
  5
DA
331
FC
  5
DB
331
FD
  5
DC
331
FE
  5
DD
331
FF
  5
DE
331
100
  5
DF
331
101
  5
E0
331
102
  5
E1
331
103
  5
E2
331
104
  5
E3
331
105
  5
E4
331
106
  5
E5
331
107
  5
E6
331
108
  5
E7
331
109
  5
E8
331
10A
  5
E9
331
10B
  5
EA
331
10C
  5
EB
331
10D
  5
EC
331
10E
  5
ED
331
10F
  5
EE
331
110
  5
EF
331
111
  5
F0
331
112
  5
F1
331
113
  5
F2
331
114
  5
F3
331
115
  5
F4
331
116
  5
F5
331
117
  5
F6
331
118
  5
F7
331
119
  5
F8
331
11A
  5
F9
331
11B
  5
FA
331
11C
  5
FB
331
11D
  5
FC
331
11E
  5
FD
331
11F
  5
FE
331
120
  5
FF
331
121
  5
100
331
122
  5
101
331
123
  5
102
331
124
  5
103
331
125
  5
104
331
126
  5
105
331
127
  5
106
331
128
  5
107
331
129
  5
108
331
12A
  5
109
331
12B
  5
10A
331
12C
  5
10B
331
12D
  5
10C
331
12E
  5
10D
331
12F
  5
10E
331
130
  5
10F
331
131
  5
110
331
132
  5
111
331
133
  5
112
331
134
  5
113
331
135
  5
114
331
136
  5
115
331
137
  5
116
331
138
  5
117
331
139
  5
118
331
13A
  5
119
331
13B
  5
11A
331
13C
  5
11B
331
13D
  5
11C
331
13E
  5
11D
331
13F
  5
11E
331
140
  5
11F
331
141
  5
120
331
142
  5
121
331
143
  5
122
331
144
  5
123
331
145
  5
124
331
146
  5
125
331
147
  5
126
331
148
  5
127
331
149
  5
128
331
14A
  5
129
331
14B
  5
12A
331
14C
  5
12B
331
14D
  5
12C
331
14E
  5
12D
331
14F
  5
12E
331
150
  5
12F
331
151
  5
130
331
152
  5
131
331
153
  5
132
331
154
  5
133
331
155
  5
134
331
156
  5
135
331
157
  5
136
331
158
  5
137
331
159
  5
138
331
15A
  5
139
331
15B
  5
13A
331
15C
  5
13B
331
15D
  5
13C
331
15E
  5
13D
331
15F
  5
13E
331
160
  5
13F
331
161
  5
140
331
162
  5
141
331
163
  5
142
331
164
  5
143
331
165
  5
144
331
166
  5
145
331
167
  5
146
331
168
  5
147
331
169
  5
148
331
16A
  5
149
331
16B
  5
14A
331
16C
  5
14B
331
16D
  5
14C
331
16E
  5
14D
331
16F
  5
14E
331
170
  5
14F
331
171
  5
150
331
172
  5
151
331
173
  5
152
331
174
  5
153
331
175
  5
154
331
176
  5
155
331
177
  5
156
331
178
  5
157
331
179
  5
158
331
17A
  5
159
331
17B
  5
15A
331
17C
  5
15B
331
17D
  5
15C
331
17E
  5
15D
331
17F
  5
15E
331
180
  5
15F
331
181
  5
160
331
182
  5
161
331
183
  5
162
331
184
  5
163
331
185
  5
164
331
186
  5
165
331
187
  5
166
331
188
  5
167
331
189
  5
168
331
18A
  5
169
331
18B
  5
16A
331
18C
  5
16B
331
18D
  5
16C
331
18E
  5
16D
331
18F
  5
16E
331
190
  5
16F
331
191
  5
170
331
192
  5
171
331
193
  5
172
331
194
  5
173
331
195
  5
174
331
196
  5
175
331
197
  5
176
331
198
  5
177
331
199
  5
178
331
19A
  5
179
331
19B
  5
17A
331
19C
  5
17B
331
19D
  5
17C
331
19E
  5
17D
331
19F
  5
17E
331
1A0
  5
17F
331
1A1
  5
180
331
1A2
  5
181
331
1A3
  5
182
331
1A4
  5
183
331
1A5
  5
184
331
1A6
  5
185
331
1A7
  5
186
331
1A8
  5
187
331
1A9
  5
188
331
1AA
  5
189
331
1AB
  5
18A
331
1AC
  5
18B
331
1AD
  5
18C
331
1AE
  5
18D
331
1AF
  5
18E
331
1B0
  5
18F
331
1B1
  5
190
331
1B2
  5
191
331
1B3
  5
192
331
1B4
  5
193
331
1B5
  5
194
331
1B6
  5
195
331
1B7
  5
196
331
1B8
  5
197
331
1B9
  5
198
331
1BA
  5
199
331
1BB
  5
19A
331
1BC
  5
19B
331
1BD
  5
19C
331
1BE
  5
19D
331
1BF
  5
19E
331
1C0
  5
19F
331
1C1
  5
1A0
331
1C2
  5
1A1
331
1C3
  5
1A2
331
1C4
  5
1A3
331
1C5
  5
1A4
331
1C6
  5
1A5
331
1C7
  5
1A6
331
1C8
  5
1A7
331
1C9
  5
1A8
331
1CA
  5
1A9
331
1CB
  5
1AA
331
1CC
  5
1AB
331
1CD
  5
1AC
331
1CE
  5
1AD
331
1CF
  5
1AE
331
1D0
  5
1AF
331
1D1
  5
1B0
331
1D2
  5
1B1
331
1D3
  5
1B2
331
1D4
  5
1B3
331
1D5
  5
1B4
331
1D6
  5
1B5
331
1D7
  5
1B6
331
1D8
  5
1B7
331
1D9
  5
1B8
331
1DA
  5
1B9
331
1DB
  5
1BA
331
1DC
  5
1BB
331
1DD
  5
1BC
331
1DE
  5
1BD
331
1DF
  5
1BE
331
1E0
  5
1BF
331
1E1
  5
1C0
331
1E2
  5
1C1
331
1E3
  5
1C2
331
1E4
  5
1C3
331
1E5
  5
1C4
331
1E6
  5
1C5
331
1E7
  5
1C6
331
1E8
  5
1C7
331
1E9
  5
1C8
331
1EA
  5
1C9
331
1EB
  5
1CA
331
1EC
  5
1CB
331
1ED
  5
1CC
331
1EE
  5
1CD
331
1EF
  5
1CE
331
1F0
  5
1CF
331
1F1
  5
1D0
331
1F2
  5
1D1
331
1F3
  5
1D2
331
1F4
  5
1D3
331
1F5
  5
1D4
331
1F6
  5
1D5
331
1F7
  5
1D6
331
1F8
  5
1D7
331
1F9
  5
1D8
331
1FA
  5
1D9
331
1FB
  5
1DA
331
1FC
  5
1DB
331
1FD
  5
1DC
331
1FE
  5
1DD
331
1FF
  5
1DE
331
200
  5
1DF
331
201
  5
1E0
331
202
  5
1E1
331
203
  5
1E2
331
204
  5
1E3
331
205
  5
1E4
331
206
  5
1E5
331
207
  5
1E6
331
208
  5
1E7
331
209
  5
1E8
331
20A
  5
1E9
331
20B
  5
1EA
331
20C
  5
1EB
331
20D
  5
1EC
331
20E
  5
1ED
331
20F
  5
1EE
331
210
  5
1EF
331
211
  5
1F0
331
212
  5
1F1
331
213
  5
1F2
331
214
  5
1F3
331
215
  5
1F4
331
216
  5
1F5
331
217
  5
1F6
331
218
  5
1F7
331
219
  5
1F8
331
21A
  5
1F9
331
21B
  5
1FA
331
21C
  5
1FB
331
21D
  5
1FC
331
21E
  5
1FD
331
21F
  5
1FE
331
220
  5
1FF
331
221
  5
200
331
222
  5
201
331
223
  5
202
331
224
  5
203
331
225
  5
204
331
226
  5
205
331
227
  5
206
331
228
  5
207
331
229
  5
208
331
22A
  5
209
331
22B
  5
20A
331
22C
  5
20B
331
22D
  5
20C
331
22E
  5
20D
331
22F
  5
20E
331
230
  5
20F
331
231
  5
210
331
232
  5
211
331
233
  5
212
331
234
  5
213
331
235
  5
214
331
236
  5
264
331
237
  5
215
331
238
  5
216
331
239
  5
217
331
23A
  5
218
331
23B
  5
219
331
23C
  5
21A
331
23D
  5
21B
331
23E
  5
21C
331
23F
  5
21D
331
240
  5
21E
331
241
  5
21F
331
242
  5
220
331
243
  5
221
331
244
  5
222
331
245
  5
223
331
246
  5
224
331
247
  5
225
331
248
  5
226
331
249
  5
227
331
24A
  5
228
331
24B
  5
229
331
24C
  5
22A
331
24D
  5
22B
331
24E
  5
22C
331
24F
  5
22D
331
250
  5
22E
331
251
  5
22F
331
252
  5
230
331
253
  5
231
331
254
  5
232
331
255
  5
233
331
256
  5
234
331
258
  5
235
331
25A
  5
236
331
25C
  5
237
331
25E
  5
238
331
260
  5
239
331
262
  5
23A
331
264
  5
23B
331
266
  5
23C
331
268
  5
23D
331
26A
  5
23E
331
26C
  5
25E
  0
LAYOUT
  5
2D6
102
{ACAD_REACTORS
330
2D2
330
2D2
102
}
102
{ACAD_XDICTIONARY
360
2D7
102
}
330
2D2
100
AcDbPlotSettings
  1

  2
none_device
  4
Letter_(8.50_x_11.00_Inches)
  6

 40
6.35
 41
6.35
 42
6.350006
 43
6.350006
 44
215.899994
 45
279.399994
 46
0.0
 47
0.0
 48
0.0
 49
0.0
140
0.0
141
0.0
142
1.0
143
1.0
 70
   688
 72
     0
 73
     1
 74
     5
  7

 75
    16
 76
     0
 77
     2
 78
   300
147
1.0
148
0.0
149
0.0
100
AcDbLayout
  1
Layout1
 70
     1
 71
     1
 10
-0.25
 20
-0.25
 11
10.75
 21
8.25
 12
0.0
 22
0.0
 32
0.0
 14
1.049744
 24
0.799667
 34
-0.001526
 15
9.450623
 25
7.200577
 35
0.0
146
0.0
 13
0.0
 23
0.0
 33
0.0
 16
1.0
 26
0.0
 36
0.0
 17
0.0
 27
1.0
 37
0.0
 76
     0
330
2D3
1001
ACAD_PSEXT
1000
None
1000
None
1000
Not applicable
1000
The layout will not be plotted unless a new plotter configuration name is selected.
1070
     0
  0
LAYOUT
  5
2D1
102
{ACAD_REACTORS
330
2D2
330
2D2
102
}
330
2D2
100
AcDbPlotSettings
  1

  2
none_device
  4
ANSI_A_(8.50_x_11.00_Inches)
  6

 40
6.35
 41
19.049999
 42
6.350006
 43
19.049988
 44
215.899994
 45
279.399994
 46
0.0
 47
0.0
 48
0.0
 49
0.0
140
0.0
141
0.0
142
1.0
143
2.584895
 70
 11952
 72
     0
 73
     1
 74
     0
  7

 75
     0
 76
     0
 77
     2
 78
   300
147
0.386863
148
0.0
149
0.0
100
AcDbLayout
  1
Model
 70
     1
 71
     0
 10
0.0
 20
0.0
 11
12.0
 21
9.0
 12
0.0
 22
0.0
 32
0.0
 14
0.0
 24
0.0
 34
0.0
 15
0.0
 25
0.0
 35
0.0
146
0.0
 13
0.0
 23
0.0
 33
0.0
 16
1.0
 26
0.0
 36
0.0
 17
0.0
 27
1.0
 37
0.0
 76
     0
330
2CE
331
49
  0
MLINESTYLE
  5
2CB
102
{ACAD_REACTORS
330
2CC
102
}
330
2CC
100
AcDbMlineStyle
  2
STANDARD
 70
     0
  3

 62
   256
 51
90.0
 52
90.0
 71
     2
 49
0.5
 62
   256
  6
BYLAYER
 49
-0.5
 62
   256
  6
BYLAYER
  0
ACDBPLACEHOLDER
  5
2C0
102
{ACAD_REACTORS
330
2C1
102
}
330
2C1
  0
XRECORD
  5
2BA
102
{ACAD_REACTORS
330
2E6
102
}
330
2E6
100
AcDbXrecord
280
     1
310
3E4F020000004D6F64656C6572000000000000000000000000000000000000000000000000000000000000000000000000000000000000000000000000000000000000000000000000000000000000000000000000000000000000000000000000000000000000000000000000000000000000000000000000000000000000
310
00000000000000000000000000000000000000000000000000000000000000000000000000000000000000000000000000000000000000000000000000000000000000000000000000000000000000000000000000000000000000000000000000000000000000000000000000000000000000000000000000000000000000
310
00
310
00000000000000000000000000000000000000000000000000000000000000000000000000000000000000000000000000000000000000000000000000000000000000000000000000000000000000000000000000000000000000000000000000000000000000000000000000000000000000000000000000000000000000
310
00000000000000000000000000000000000000000000000000000000000000000000000000000000000000000000000000000000000000000000000000000000000000000000000000000000000000000000000000000000000000000000000000000000000000000000000000000000000000000000000000000000000000
310
00
310
00000000000000000000000000000000000000000000000000000000000000000000000000000000000000000000000000000000000000000000000000000000000000000000000000000000000000000000000000000000000000000000000000000000000000000000000000000000000000000000000000000000000000
310
00000000000000000000000000000000000000000000000000000000000000000000000000000000000000000000000000000000000000000000000000000000000000000000000000000000000000000000000000000000000000000000000000000000000000000000000000000000000000000000000000000000000000
310
00
310
00000000000000000000000000000000000000000000000000000000000000000000000000000000000000000000000000000000000000000000000000000000000000000000000000000000000000000000000000000000000000000000000000000000000000000000000000000000000000000000000000000000000000
310
00000000000000000000000000000000000000000000000000000000000000000000000000000000000000000000000000000000000000000000000000000000000000000000000000000000000000000000000000000000000000000000000000000000000000000000000000000000000000000000000000000000000000
310
00
310
00000000000000000000000000000000000000000000000000000000000000000000000000000000000000000000000000000000000000000000000000000000000000000000000000000000000000000000000000000000000000000000000000000000000000000000000000000000000000000000000000000000000000
310
00000000000000000000000000000000000000000000000000000000000000000000000000000000000000000000000000000000000000000000000000000000000000000000000000000000000000000000000000000000000000000000000000000000000000000000000000000000000000000000000000000000000000
310
00
310
00000000000000000000000000000000000000000000000000000000000000000000000000000000000000000000000000000000000000000000000000000000000000000000000000000000000000000000000000000000000000000000000000000000000000000000000000000000000000000000000000000000000000
310
00000000000000000000000000000000000000000000000000000000000000000000000000000000000000000000000000000000000000000000000000000000000000000000000000000000000000000000000000000000000000000000000000000000000000000000000000000000000000000000000000000000000000
310
00
310
00000000000000000000000000000000000000000000000000000000000000000000000000000000000000000000000000000000000000000000000000000000000000000000000000000000000000000000000000000000000000000000000000000000000000000000000000000000000000000000000000000000000000
310
00000000000000000000000000000000000000000000000000000000000000000000000000000000000000000000000000000000000000000000000000000000000000000000000000000000000000000000000000000000000000000000000000000000000000000000000000000000000000000000000000000000000000
310
00
310
00000000000000000000000000000000000000000000000000000000000000000000000000000000000000000000000000000000000000000000000000000000000000000000000000000000000000000000000000000000000000000000000000000000000000000000000000000000000000000000000000000000000000
310
00000000000000000000000000000000000000000000000000000000000000000000000000000000000000000000000000000000000000000000000000000000000000000000000000000000000000000000000000000000000000000000000000000000000000000000000000000000000000000000000000000000000000
310
00
310
00000000000000000000000000000000000000000000000000000000000000000000000000000000000000000000000000000000000000000000000000000000000000000000000000000000000000000000000000000000000000000000000000000000000000000000000000000000000000000000000000000000000000
310
00000000000000000000000000000000000000000000000000000000000000000000000000000000000000000000000000000000000000000000000000000000000000000000000000000000000000000000000000000000000000000000000000000000000000000000000000000000000000000000000000000000000000
310
00
310
00000000000000000000000000000000000000000000000000000000000000000000000000000000000000000000000000000000000000000000000000000000000000000000000000000000000000000000000000000000000000000000000000000000000000000000000000000000000000000000000000000000000000
310
00000000000000000000000000000000000000000000000000000000000000000000000000000000000000000000000000000000000000000000000000000000000000000000000000000000000000000000000000000000000000000000000000000000000000000000000000000000000000000000000000000000000000
310
00
310
00000000000000000000000000000000000000000000000000000000000000000000000000000000000000000000000000000000000000000000000000000000000000000000000000000000000000000000000000000000000000000000000000000000000000000000000000000000000000000000000000000000000000
310
00000000000000000000000000000000000000000000000000000000000000000000000000000000000000000000000000000000000000000000000000000000000000000000000000000000000000000000000000000000000000000000000000000000000000000000000000000000000000000000000000000000000000
310
00
310
00000000000000000000000000000000000000000000000000000000000000000000000000000000000000000000000000000000000000000000000000000000000000000000000000000000000000000000000000000000000000000000000000000000000000000000000000000000000000000000000000000000000000
310
00000000000000000000000000000000000000000000000000000000000000000000000000000000000000000000000000000000000000000000000000000000000000000000000000000000000000000000000000000000000000000000000000000000000000000000000000000000000000000000000000000000000000
310
00
310
00000000000000000000000000000000000000000000000000000000000000000000000000000000000000000000000000000000000000000000000000000000000000000000000000000000000000000000000000000000000000000000000000000000000000000000000000000000000000000000000000000000000000
310
00000000000000000000000000000000000000000000000000000000000000000000000000000000000000000000000000000000000000000000000000000000000000000000000000000000000000000000000000000000000000000000000000000000000000000000000000000000000000000000000000000000000000
310
00
310
00000000000000000000000000000000000000000000000000000000000000000000000000000000000000000000000000000000000000000000000000000000000000000000000000000000000000000000000000000000000000000000000000000000000000000000000000000000000000
  0
XRECORD
  5
2B9
102
{ACAD_REACTORS
330
2E6
102
}
330
2E6
100
AcDbXrecord
280
     1
310
DF56060034040701D0009A9999999999B93F000000000000000000000000000000000400000009000000000000000200000064000000640000000100000001000000190000007B14AE47E17A843F00000000004060409A9999999999B93F00000000004C2D41000000000070F7400000000000942141000000000000000000
310
0000000000000000000000000000000AD482040000000000000000000000000000F03F000000000000000000000000000030402D431CEBE2362A3F00000000000008400000000000000000009807C000000000000000007C1A61B9A711364020000000050000000A000000200000002000000020000000000000000000F03F
310
00
310
0000000000F03F000000000000F03F333333333333D33F333333333333D33F333333333333D33F000000000000F43F000000000000F43F000000000000F03F0200000064000000000000000000000000000840000000000000F83F00000000000000000000000000000000008056409A9999999999B93F0000000000000000
310
00000000000000000000000000000000000000000000000000000000000000000000000000000000000000000000000000000000000000000000000000000000000000000000000000000000000000000000000000000000000000000000000000000000000000000000000000000000000000000000000000000000000000
310
00
310
0000000000000000000000000000000000000000000000000000000000000000000000000000000000000000000000000000000000000000000000000000000000000000000000000000000000000000000000000000000000000000000000000000000000000000000000000000000000000000000000009A9999999999A9
310
3F9100000000000000000000000000000035A781D547960F40000000000000F03F000000000000F03F666666666666164000000000104068F200000000000000000000000000000000000000000000000000000000000000000000000000000000000000000000000000000000000000000000000000000000000000000000
310
00
310
00000000000000000000000000000000000000000000000000000000000000000000000000000000000000000000000000000000000000000000000000000000000000000000000000000000000000000000000000000000000000000000000000000000000000000000000000000000000000000000000000000000000000
310
000000000000000000000000000000000000000000000000000000000000000000000000000000000000000000000000000000000000000000000000FF000000000000000000000000000000000000000000000000000000000000000000000000000000000000000000000000000000000000000000000000000000000000
310
00
310
0000000000000000000000000000000000000000000000000000000000000000000000000000000000000000000000000000000000000000000000000000000000000000
  0
DICTIONARY
  5
2D7
330
2D6
100
AcDbDictionary
280
     1
281
     1
  3
ADSK_XREC_LAYOUTTHUMBNAIL
360
2D8
  0
XRECORD
  5
2D8
102
{ACAD_REACTORS
330
2D7
102
}
330
2D7
100
AcDbXrecord
280
     1
310
28000000B40000008B0000000100080000000000BC61000000000000000000000001000000000000FFFFFF0000000000FFFFFF000000000000000000000000000000000000000000000000000000000000000000330000006600000099000000CC000000FF00000000330000333300006633000099330000CC330000FF3300
310
0000660000336600006666000099660000CC660000FF66000000990000339900006699000099990000CC990000FF99000000CC000033CC000066CC000099CC0000CCCC0000FFCC000000FF000033FF000066FF000099FF0000CCFF0000FFFF000000003300330033006600330099003300CC003300FF003300003333003333
310
33006633330099333300CC333300FF33330000663300336633006666330099663300CC663300FF66330000993300339933006699330099993300CC993300FF99330000CC330033CC330066CC330099CC3300CCCC3300FFCC330000FF330033FF330066FF330099FF3300CCFF3300FFFF330000006600330066006600660099
310
006600CC006600FF00660000336600333366006633660099336600CC336600FF33660000666600336666006666660099666600CC666600FF66660000996600339966006699660099996600CC996600FF99660000CC660033CC660066CC660099CC6600CCCC6600FFCC660000FF660033FF660066FF660099FF6600CCFF6600
310
FFFF660000009900330099006600990099009900CC009900FF00990000339900333399006633990099339900CC339900FF33990000669900336699006666990099669900CC669900FF66990000999900339999006699990099999900CC999900FF99990000CC990033CC990066CC990099CC9900CCCC9900FFCC990000FF99
310
0033FF990066FF990099FF9900CCFF9900FFFF99000000CC003300CC006600CC009900CC00CC00CC00FF00CC000033CC003333CC006633CC009933CC00CC33CC00FF33CC000066CC003366CC006666CC009966CC00CC66CC00FF66CC000099CC003399CC006699CC009999CC00CC99CC00FF99CC0000CCCC0033CCCC0066CC
310
CC0099CCCC00CCCCCC00FFCCCC0000FFCC0033FFCC0066FFCC0099FFCC00CCFFCC00FFFFCC000000FF003300FF006600FF009900FF00CC00FF00FF00FF000033FF003333FF006633FF009933FF00CC33FF00FF33FF000066FF003366FF006666FF009966FF00CC66FF00FF66FF000099FF003399FF006699FF009999FF00CC
310
99FF00FF99FF0000CCFF0033CCFF0066CCFF0099CCFF00CCCCFF00FFCCFF0000FFFF0033FFFF0066FFFF0099FFFF00CCFFFF00FFFFFF00000000000D0D0D001A1A1A00282828003535350043434300505050005D5D5D006B6B6B00787878008686860093939300A1A1A100AEAEAE00BBBBBB00C9C9C900D6D6D600E4E4E400
310
F1F1F100FFFFFF0000000000000000000000000000000000000000000000000000000000000000000000000000000000E2E2E2E2E2E2E2E2E2E2E2E2E2E2E2E2E2E2E2E2E2E2E2E2E2E2E2E2E2E2E2E2E2E2E2E2E2E2E2E2E2E2E2E2E2E2E2E2E2E2E2E2E2E2E2E2E2E2E2E2E2E2E2E2E2E2E2E2E2E2E2E2E2E2E2E2E2E2E2
310
E2E2E2E2E2E2E2E2E2E2E2E2E2E2E2E2E2E2E2E2E2E2E2E2E2E2E2E2E2E2E2E2E2E2E2E2E2E2E2E2E2E2E2E2E2E2E2E2E2E2E2E2E2E2E2E2E2E2E2E2E2E2E2E2E2E2E2E2E2E2E2E2E2E2E2E2E2E2E2E2E2E2E2E2E2E2E2E2E2E2E2E2E2E2E2E2E2E2E2E2EFF5F5F5F5F5F5F5F5F5F5F5F5F5F5F5F5F5F5F5F5F5F5F5F5F5F5
310
F5F5F5F5F5F5F5F5F5F5F5F5F5F5F5F5F5F5F5F5F5F5F5F5F5F5F5F5F5F5F5F5F5F5F5F5F5F5F5F5F5F5F5F5F5F5F5F5F5F5F5F5F5F5F5F5F5F5F5F5F5F5F5F5F5F5F5F5F5F5F5F5F5F5F5F5F5F5F5F5F5F5F5F5F5F5F5F5F5F5F5F5F5F5F5F5F5F5F5F5F5F5F5F5F5F5F5F5F5F5F5F5F5F5F5F5F5F5F5F5F5F5F5F5F5F5F5
310
F5F5F5F5F5F5F5F5F5F5F5F5F5F5F5F5F5F5F5F5F5F5F5F5E2E2EFF5F5F5F5F5F5F5F5F5F5F5F5F5F5F5F5F5F5F5F5F5F5F5F5F5F5F5F5F5F5F5F5F5F5F5F5F5F5F5F5F5F5F5F5F5F5F5F5F5F5F5F5F5F5F5F5F5F5F5F5F5F5F5F5F5F5F5F5F5F5F5F5F5F5F5F5F5F5F5F5F5F5F5F5F5F5F5F5F5F5F5F5F5F5F5F5F5F5F5F5
310
F5F5F5F5F5F5F5F5F5F5F5F5F5F5F5F5F5F5F5F5F5F5F5F5F5F5F5F5F5F5F5F5F5F5F5F5F5F5F5F5F5F5F5F5F5F5F5F5F5F5F5F5F5F5F5F5F5F5F5F5F5F5F5F5F5F5F5F5F5F5F5F5F5F5F5F5F5E2E2EFF5F5F5F5F5F5F5F5F5F5F5F5F5F5F5F5F5F5F5F5F5F5F5F5F5F5F5F5F5F5F5F5F5F5F5F5F5F5F5F5F5F5F5F5F5F5F5
310
F5F5F5F5F5F5F5F5F5F5F5F5F5F5F5F5F5F5F5F5F5F5F5F5F5F5F5F5F5F5F5F5F5F5F5F5F5F5F5F5F5F5F5F5F5F5F5F5F5F5F5F5F5F5F5F5F5F5F5F5F5F5F5F5F5F5F5F5F5F5F5F5F5F5F5F5F5F5F5F5F5F5F5F5F5F5F5F5F5F5F5F5F5F5F5F5F5F5F5F5F5F5F5F5F5F5F5F5F5F5F5F5F5F5F5F5F5F5F5F5F5F5F5F5F5F5F5
310
F5F5F5E2E2EFF5F5F5E2E2E2E2E2E2E2E2F5F5F5F5F5F5F5F5F5E2E2E2E2E2E2E2E2E2E2E2E2E2E2E2E2F5F5F5F5F5F5F5F5E2E2E2E2E2E2E2E2E2E2E2E2E2E2E2E2F5F5F5F5F5F5F5F5F5E2E2E2E2E2E2E2E2E2E2E2E2E2E2E2F5F5F5F5F5F5F5F5F5E2E2E2E2E2E2E2E2E2E2E2E2E2E2E2F5F5F5F5F5F5F5F5F5E2E2E2E2
310
E2E2E2E2E2E2E2E2E2E2E2E2F5F5F5F5F5F5F5F5E2E2E2E2E2E2E2E2E2E2E2E2E2E2E2E2F5F5F5F5F5F5F5F5F5E2E2E2E2E2E2E2E2F5F5F5E2E2EFF5F5F5E2F5F5F5F5F5F5F5F5F5F5F5F5F5F5F5F5F5F5F5F5F5F5F5F5F5F5F5F5F5F5F5F5F5F5F5F5F5F5F5F5F5F5F5F5F5F5F5F5F5F5F5F5F5F5F5F5F5F5F5F5F5F5F5F5
310
F5F5F5F5F5F5F5F5F5F5F5F5F5F5F5F5F5F5F5F5F5F5F5F5F5F5F5F5F5F5F5F5F5F5F5F5F5F5F5F5F5F5F5F5F5F5F5F5F5F5F5F5F5F5F5F5F5F5F5F5F5F5F5F5F5F5F5F5F5F5F5F5F5F5F5F5F5F5F5F5F5F5F5F5F5F5F5F5F5F5F5F5F5F5F5F5F5F5F5F5F5F5F5F5F5E2F5F5F5E2E2EFF5F5F5E2F5F5F5F5F5F5F5F5F5F5F5
310
F5F5F5F5F5F5F5F5F5F5F5F5F5F5F5F5F5F5F5F5F5F5F5F5F5F5F5F5F5F5F5F5F5F5F5F5F5F5F5F5F5F5F5F5F5F5F5F5F5F5F5F5F5F5F5F5F5F5F5F5F5F5F5F5F5F5F5F5F5F5F5F5F5F5F5F5F5F5F5F5F5F5F5F5F5F5F5F5F5F5F5F5F5F5F5F5F5F5F5F5F5F5F5F5F5F5F5F5F5F5F5F5F5F5F5F5F5F5F5F5F5F5F5F5F5F5F5
310
F5F5F5F5F5F5F5F5F5F5F5F5F5F5F5F5F5F5F5F5F5F5F5F5F5F5F5F5F5F5F5E2F5F5F5E2E2EFF5F5F5E2F5F5F5F5F5F5F5F5F5F5F5F5F5F5F5F5F5F5F5F5F5F5F5F5F5F5F5F5F5F5F5F5F5F5F5F5F5F5F5F5F5F5F5F5F5F5F5F5F5F5F5F5F5F5F5F5F5F5F5F5F5F5F5F5F5F5F5F5F5F5F5F5F5F5F5F5F5F5F5F5F5F5F5F5F5
310
F5F5F5F5F5F5F5F5F5F5F5F5F5F5F5F5F5F5F5F5F5F5F5F5F5F5F5F5F5F5F5F5F5F5F5F5F5F5F5F5F5F5F5F5F5F5F5F5F5F5F5F5F5F5F5F5F5F5F5F5F5F5F5F5F5F5F5F5F5F5F5F5F5F5F5F5F5F5F5F5F5F5F5F5E2F5F5F5E2E2EFF5F5F5E2F5F5F5F5F5F5F5F5F5F5F5F5F5F5F5F5F5F5F5F5F5F5F5F5F5F5F5F5F5F5F5F5
310
F5F5F5F5F5F5F5F5F5F5F5F5F5F5F5F5F5F5F5F5F5F5F5F5F5F5F5F5F5F5F5F5F5F5F5F5F5F5F5F5F5F5F5F5F5F5F5F5F5F5F5F5F5F5F5F5F5F5F5F5F5F5F5F5F5F5F5F5F5F5F5F5F5F5F5F5F5F5F5F5F5F5F5F5F5F5F5F5F5F5F5F5F5F5F5F5F5F5F5F5F5F5F5F5F5F5F5F5F5F5F5F5F5F5F5F5F5F5F5F5F5F5F5F5F5F5F5
310
F5F5F5F5F5F5F5F5F5F5E2F5F5F5E2E2EFF5F5F5E2F5F5F5F5F5F5F5F5F5F5F5F5F5F5F5F5F5F5F5F5F5F5F5F5F5F5F5F5F5F5F5F5F5F5F5F5F5F5F5F5F5F5F5F5F5F5F5F5F5F5F5F5F5F5F5F5F5F5F5F5F5F5F5F5F5F5F5F5F5F5F5F5F5F5F5F5F5F5F5F5F5F5F5F5F5F5F5F5F5F5F5F5F5F5F5F5F5F5F5F5F5F5F5F5F5F5
310
F5F5F5F5F5F5F5F5F5F5F5F5F5F5F5F5F5F5F5F5F5F5F5F5F5F5F5F5F5F5F5F5F5F5F5F5F5F5F5F5F5F5F5F5F5F5F5F5F5F5F5F5F5F5F5F5F5F5F5F5F5F5F5E2F5F5F5E2E2EFF5F5F5E2F5F5F5F5F5F5F5F5F5F5F5F5F5F5F5F5F5F5F5F5F5F5F5F5F5F5F5F5F5F5F5F5F5F5F5F5F5F5F5F5F5F5F5F5F5F5F5F5F5F5F5F5F5
310
F5F5F5F5F5F5F5F5F5F5F5F5F5F5F5F5F5F5F5F5F5F5F5F5F5F5F5F5F5F5F5F5F5F5F5F5F5F5F5F5F5F5F5F5F5F5F5F5F5F5F5F5F5F5F5F5F5F5F5F5F5F5F5F5F5F5F5F5F5F5F5F5F5F5F5F5F5F5F5F5F5F5F5F5F5F5F5F5F5F5F5F5F5F5F5F5F5F5F5F5F5F5F5F5F5F5F5F5F5F5F5F5F5F5F5F5E2F5F5F5E2E2EFF5F5F5E2
310
F5F5F5F5F5F5F5F5F5F5F5F5F5F5F5F5F5F5F5F5F5F5F5F5F5F5F5F5F5F5F5F5F5F5F5F5F5F5F5F5F5F5F5F5F5F5F5F5F5F5F5F5F5F5F5F5F5F5F5F5F5F5F5F5F5F5F5F5F5F5F5F5F5F5F5F5F5F5F5F5F5F5F5F5F5F5F5F5F5F5F5F5F5F5F5F5F5F5F5F5F5F5F5F5F5F5F5F5F5F5F5F5F5F5F5F5F5F5F5F5F5F5F5F5F5F5F5
310
F5F5F5F5F5F5F5F5F5F5F5F5F5F5F5F5F5F5F5F5F5F5F5F5F5F5F5F5F5F5F5F5F5F5F5F5F5F5F5F5F5F5E2F5F5F5E2E2EFF5F5F5E2F5F5F5F5F5F5F5F5F5F5F5F5F5F5F5F5F5F5F5F5F5F5F5F5F5F5F5F5F5F5F5F5F5F5F5F5F5F5F5F5F5F5F5F5F5F5F5F5F5F5F5F5F5F5F5F5F5F5F5F5F5F5F5F5F5F5F5F5F5F5F5F5F5F5
310
F5F5F5F5F5F5F5F5F5F5F5F5F5F5F5F5F5F5F5F5F5F5F5F5F5F5F5F5F5F5F5F5F5F5F5F5F5F5F5F5F5F5F5F5F5F5F5F5F5F5F5F5F5F5F5F5F5F5F5F5F5F5F5F5F5F5F5F5F5F5F5F5F5F5F5F5F5F5F5F5F5F5F5F5F5F5F5F5F5F5F5F5F5F5F5E2F5F5F5E2E2EFF5F5F5F5F5F5F5F5F5F5F5F5F5F5F5F5F5F5F5F5F5F5F5F5F5
310
F5F5F5F5F5F5F5F5F5F5F5F5F5F5F5F5F5F5F5F5F5F5F5F5F5F5F5F5F5F5F5F5F5F5F5F5F5F5F5F5F5F5F5F5F5F5F5F5F5F5F5F5F5F5F5F5F5F5F5F5F5F5F5F5F5F5F5F5F5F5F5F5F5F5F5F5F5F5F5F5F5F5F5F5F5F5F5F5F5F5F5F5F5F5F5F5F5F5F5F5F5F5F5F5F5F5F5F5F5F5F5F5F5F5F5F5F5F5F5F5F5F5F5F5F5F5F5
310
F5F5F5F5F5F5F5F5F5F5F5F5F5F5F5F5F5F5F5F5F5F5F5F5F5E2E2EFF5F5F5F5F5F5F5F5F5F5F5F5F5F5F5F5F5F5F5F5F5F5F5F5F5F5F5F5F5F5F5F5F5F5F5F5F5F5F5F5F5F5F5F5F5F5F5F5F5F5F5F5F5F5F5F5F5F5F5F5F5F5F5F5F5F5F5F5F5F5F5F5F5F5F5F5F5F5F5F5F5F5F5F5F5F5F5F5F5F5F5F5F5F5F5F5F5F5F5
310
F5F5F5F5F5F5F5F5F5F5F5F5F5F5F5F5F5F5F5F5F5F5F5F5F5F5F5F5F5F5F5F5F5F5F5F5F5F5F5F5F5F5F5F5F5F5F5F5F5F5F5F5F5F5F5F5F5F5F5F5F5F5F5F5F5F5F5F5F5F5F5F5F5F5F5F5F5F5E2E2EFF5F5F5F5F5F5F5F5F5F5F5F5F5F5F5F5F5F5F5F5F5F5F5F5F5F5F5F5F5F5F5F5F5F5F5F5F5F5F5F5F5F5F5F5F5F5
310
F5F5F5F5F5F5F5F5F5F5F5F5F5F5F5F5F5F5F5F5F5F5F5F5F5F5F5F5F5F5F5F5F5F5F5F5F5F5F5F5F5F5F5F5F5F5F5F5F5F5F5F5F5F5F5F5F5F5F5F5F5F5F5F5F5F5F5F5F5F5F5F5F5F5F5F5F5F5F5F5F5F5F5F5F5F5F5F5F5F5F5F5F5F5F5F5F5F5F5F5F5F5F5F5F5F5F5F5F5F5F5F5F5F5F5F5F5F5F5F5F5F5F5F5F5F5F5
310
F5F5F5F5E2E2EFF5F5F5F5F5F5F5F5F5F5F5F5F5F5F5F5F5F5F5F5F5F5F5F5F5F5F5F5F5F5F5F5F5F5F5F5F5F5F5F5F5F5F5F5F5F5F5F5F5F5F5F5F5F5F5F5F5F5F5F5F5F5F5F5F5F5F5F5F5F5F5F5F5F5F5F5F5F5F5F5F5F5F5F5F5F5F5F5F5F5F5F5F5F5F5F5F5F5F5F5F5F5F5F5F5F5F5F5F5F5F5F5F5F5F5F5F5F5F5F5
310
F5F5F5F5F5F5F5F5F5F5F5F5F5F5F5F5F5F5F5F5F5F5F5F5F5F5F5F5F5F5F5F5F5F5F5F5F5F5F5F5F5F5F5F5F5F5F5F5F5F5F5F5F5F5F5F5F5E2E2EFF5F5F5F5F5F5F5F5F5F5F5F5F5F5F5F5F5F5F5F5E2E2E2E2E2E2E2E2E2E2E2E2E2E2E2E2E2E2E2E2E2E2E2E2E2E2E2E2E2E2E2E2E2E2E2E2E2E2E2E2E2E2E2E2E2E2E2
310
E2E2E2E2E2E2E2E2E2E2E2E2E2E2E2E2E2E2E2E2E2E2E2E2E2E2E2E2E2E2E2E2E2E2E2E2E2E2E2E2E2E2E2E2E2E2E2E2E2E2E2E2E2E2E2E2E2E2E2E2E2E2E2E2E2E2E2E2E2E2E2E2E2E2E2E2E2E2E2E2E2E2E2E2E2E2E2E2E2E2F5F5F5F5F5F5F5F5F5F5F5F5F5F5F5F5F5F5F5F5E2E2EFF5F5F5F5F5F5F5F5F5F5F5F5F5F5
310
F5F5F5F5F5F5E2F5F5F5F5F5F5F5F5F5F5F5F5F5F5F5F5F5F5F5F5F5F5F5F5F5F5F5F5F5F5F5F5F5F5F5F5F5F5F5F5F5F5F5F5F5F5F5F5F5F5F5F5F5F5F5F5F5F5F5F5F5F5F5F5F5F5F5F5F5F5F5F5F5F5F5F5F5F5F5F5F5F5F5F5F5F5F5F5F5F5F5F5F5F5F5F5F5F5F5F5F5F5F5F5F5F5F5F5F5F5F5F5F5F5F5F5F5F5F5F5
310
F5F5F5F5F5F5F5F5F5F5F5F5F5F5F5E2F5F5F5F5F5F5F5F5F5F5F5F5F5F5F5F5F5F5F5F5E2E2EFF5F5F5F5F5F5F5F5F5F5F5F5F5F5F5F5F5F5F5F5E2F5F5F5F5F5F5F5F5F5F5F5F5F5F5F5F5F5F5F5F5F5F5F5F5F5F5F5F5F5F5F5F5F5F5F5F5F5F5F5F5F5F5F5F5F5F5F5F5F5F5F5F5F5F5F5F5F5F5F5F5F5F5F5F5F5F5F5
310
F5F5F5F5F5F5F5F5F5F5F5F5F5F5F5F5F5F5F5F5F5F5F5F5F5F5F5F5F5F5F5F5F5F5F5F5F5F5F5F5F5F5F5F5F5F5F5F5F5F5F5F5F5F5F5F5F5F5F5F5F5F5F5F5F5F5F5F5E2F5F5F5F5F5F5F5F5F5F5F5F5F5F5F5F5F5F5F5F5E2E2EFF5F5F5F5F5F5F5F5F5F5F5F5F5F5F5F5F5F5F5F5E2F5F5F5F5F5F5F5F5F5F5F5F5F5F5
310
F5F5F5F5F5F5F5F5F5F5F5F5F5F5F5F5F5F5F5F5F5F5F5F5F5F5F5F5F5F5F5F5F5F5F5F5F5F5F5F5F5F5F5F5F5F5F5F5F5F5F5F5F5F5F5F5F5F5F5F5F5F5F5F5F5F5F5F5F5F5F5F5F5F5F5F5F5F5F5F5F5F5F5F5F5F5F5F5F5F5F5F5F5F5F5F5F5F5F5F5F5F5F5F5F5F5F5F5F5F5F5F5F5F5F5F5F5F5F5F5F5E2F5F5F5F5F5
310
F5F5F5F5F5F5F5F5F5F5F5F5F5F5F5E2E2EFF5F5F5F5F5F5F5F5F5F5F5F5F5F5F5F5F5F5F5F5E2F5F5F5F5F5F5F5F5F5F5F5F5F5F5F5F5F5F5F5F5F5F5F5F5F5F5F5F5F5F5F5F5F5F5F5F5F5F5F5F5F5F5F5F5F5F5F5F5F5F5F5F5F5F5F5F5F5F5F5F5F5F5F5F5F5F5F5F5F5F5F5F5F5F5F5F5F5F5F5F5F5F5F5F5F5F5F5F5
310
F5F5F5F5F5F5F5F5F5F5F5F5F5F5F5F5F5F5F5F5F5F5F5F5F5F5F5F5F5F5F5F5F5F5F5F5F5F5F5F5F5F5F5F5F5F5F5E2F5F5F5F5F5F5F5F5F5F5F5F5F5F5F5F5F5F5F5F5E2E2EFF5F5F5E2F5F5F5F5F5F5F5F5F5F5F5F5F5F5F5F5E2F5F5F5F5F5F5F5F5F5F5F5F5F5F5F5F5F5F5F5F5F5F5F5F5F5F5F5F5F5F5F5F5F5F5F5
310
F5F5F5F5F5F5F5F5F5F5F5F5F5F5F5F5F5F5F5F5F5F5F5F5F5F5F5F5F5F5F5F5F5F5F5F5F5F5F5F5F5F5F5F5F5F5F5F5F5F5F5F5F5F5F5F5F5F5F5F5F5F5F5F5F5F5F5F5F5F5F5F5F5F5F5F5F5F5F5F5F5F5F5F5F5F5F5F5F5F5F5F5F5F5F5F5F5F5F5F5E2F5F5F5F5F5F5F5F5F5F5F5F5F5F5F5F5E2F5F5F5E2E2EFF5F5F5
310
E2F5F5F5F5F5F5F5F5F5F5F5F5F5F5F5F5E2F5F5F5F5F5F5F5F5F5F5F5F5F5F5F5F5F5F5F5F5F5F5F5F5F5F5F5F5F5F5F5F5F5F5F5F5F5F5F5F5F5F5F5F5F5F5F5F5F5F5F5F5F5F5F5F5F5F5F5F5F5F5F5F5F5F5F5F5F5F5F5F5F5F5F5F5F5F5F5F5F5F5F5F5F5F5F5F5F5F5F5F5F5F5F5F5F5F5F5F5F5F5F5F5F5F5F5F5F5
310
F5F5F5F5F5F5F5F5F5F5F5F5F5F5F5F5F5F5F5F5F5F5F5F5F5F5E2F5F5F5F5F5F5F5F5F5F5F5F5F5F5F5F5E2F5F5F5E2E2EFF5F5F5E2F5F5F5F5F5F5F5F5F5F5F5F5F5F5F5F5E2F5F5F5F5F5F5F5F5F5F5F5F5F5F5F5F5F5F5F5F5F5F5F5F5F5F5F5F5F5F5F5F5F5F5F5F5F5F5F5F5F5F5F5F5F5F5F5F5F5F5F5F5F5F5F5F5
310
F5F5F5F5F5F5F5F5F5F5F5F5F5F5F5F5F5F5F5F5F5F5F5F5F5F5F5F5F5F5F5F5F5F5F5F5F5F5F5F5F5F5F5F5F5F5F5F5F5F5F5F5F5F5F5F5F5F5F5F5F5F5F5F5F5F5F5F5F5F5F5F5F5F5F5F5F5F5F5E2F5F5F5F5F5F5F5F5F5F5F5F5F5F5F5F5E2F5F5F5E2E2EFF5F5F5E2F5F5F5F5F5F5F5F5F5F5F5F5F5F5F5F5E2F5F5F5
310
F5F5F5F5F5F5F5F5F5F5F5F5F5F5F5F5F5F5F5F5F5F5F5F5F5F5F5F5F5F5F5F5F5F5F5F5F5F5F5F5F5F5F5F5F5F5F5F5F5F5F5F5F5F5F5F5F5F5F5F5F5F5F5F5F5F5F5F5F5F5F5F5F5F5F5F5F5F5F5F5F5F5F5F5F5F5F5F5F5F5F5F5F5F5F5F5F5F5F5F5F5F5F5F5F5F5F5F5F5F5F5F5F5F5F5F5F5F5F5F5F5F5F5F5F5F5F5
310
F5F5F5F5F5E2F5F5F5F5F5F5F5F5F5F5F5F5F5F5F5F5E2F5F5F5E2E2EFF5F5F5E2F5F5F5F5F5F5F5F5F5F5F5F5F5F5F5F5E2F5F5F5F5F5F5F5F5F5F5F5F5F5F5F5F5F5F5F5F5F5F5F5F5F5F5F5F5F5F5F5F5F5F5F5F5F5F5F5F5F5F5F5F5F5F5F5F5F5F5F5F5F5F5F5F5F5F5F5F5F5F5F5F5F5F5F5F5F5F5F5F5F5F5F5F5F5
310
F5F5F5F5F5F5F5F5F5F5F5F5F5F5F5F5F5F5F5F5F5F5F5F5F5F5F5F5F5F5F5F5F5F5F5F5F5F5F5F5F5F5F5F5F5F5F5F5F5F5F5F5F5F5F5F5F5F5E2F5F5F5F5F5F5F5F5F5F5F5F5F5F5F5F5E2F5F5F5E2E2EFF5F5F5E2F5F5F5F5F5F5F5F5F5F5F5F5F5F5F5F5E2F5F5F5F5F5F5F5F5F5F5F5F5F5F5F5F5F5F5F5F5F5F5F5F5
310
F5F5F5F5F5F5F5F5F5F5F5F5F5F5F5F5F5F5F5F5F5F5F5F5F5F5F5F5F5F5F5F5F5F5F5F5F5F5F5F5F5F5F5F5F5F5F5F5F5F5F5F5F5F5F5F5F5F5F5F5F5F5F5F5F5F5F5F5F5F5F5F5F5F5F5F5F5F5F5F5F5F5F5F5F5F5F5F5F5F5F5F5F5F5F5F5F5F5F5F5F5F5F5F5F5F5F5F5F5F5F5E2F5F5F5F5F5F5F5F5F5F5F5F5F5F5F5
310
F5E2F5F5F5E2E2EFF5F5F5E2F5F5F5F5F5F5F5F5F5F5F5F5F5F5F5F5E2F5F5F5F5F5F5F5F5F5F5F5F5F5F5F5F5F5F5F5F5F5F5F5F5F5F5F5F5F5F5F5F5F5F5F5F5F5F5F5F5F5F5F5F5F5F5F5F5F5F5F5F5F5F5F5F5F5F5F5F5F5F5F5F5F5F5F5F5F5F5F5F5F5F5F5F5F5F5F5F5F5F5F5F5F5F5F5F5F5F5F5F5F5F5F5F5F5F5
310
F5F5F5F5F5F5F5F5F5F5F5F5F5F5F5F5F5F5F5F5F5F5F5F5F5F5F5F5F5F5F5F5F5F5F5F5F5E2F5F5F5F5F5F5F5F5F5F5F5F5F5F5F5F5E2F5F5F5E2E2EFF5F5F5E2F5F5F5F5F5F5F5F5F5F5F5F5F5F5F5F5E2F5F5F5F5F5F5F5F5F5F5F5F5F5F5F5F5F5F5F5F5F5F5F5F5F5F5F5F5F5F5F5F5F5F5F5F5F5F5F5F5F5F5F5F5F5
310
F5F5F5F5F5F5F5F5F5F5F5F5F5F5F5F5F5F5F5F5F5F5F5F5F5F5F5F5F5F5F5F5F5F5F5F5F5F5F5F5F5F5F5F5F5F5F5F5F5F5F5F5F5F5F5F5F5F5F5F5F5F5F5F5F5F5F5F5F5F5F5F5F5F5F5F5F5F5F5F5F5F5F5F5F5F5F5F5F5F5E2F5F5F5F5F5F5F5F5F5F5F5F5F5F5F5F5E2F5F5F5E2E2EFF5F5F5E2F5F5F5F5F5F5F5F5F5
310
F5F5F5F5F5F5F5E2F5F5F5F5F5F5F5F5F5F5F5F5F5F5F5F5F5F5F5F5F5F5F5F5F5F5F5F5F5F5F5F5F5F5F5F5F5F5F5F5F5F5F5F5F5F5F5F5F5F5F5F5F5F5F5F5F5F5F5F5F5F5F5F5F5F5F5F5F5F5F5F5F5F5F5F5F5F5F5F5F5F5F5F5F5F5F5F5F5F5F5F5F5F5F5F5F5F5F5F5F5F5F5F5F5F5F5F5F5F5F5F5F5F5F5F5F5F5F5
310
F5F5F5F5F5F5F5F5F5F5F5F5F5F5F5F5E2F5F5F5F5F5F5F5F5F5F5F5F5F5F5F5F5E2F5F5F5E2E2EFF5F5F5E2F5F5F5F5F5F5F5F5F5F5F5F5F5F5F5F5E2F5F5F5F5F5F5F5F5F5F5F5F5F5F5F5F5F5F5F5F5F5F5F5F5F5F5F5F5F5F5F5F5F5F5F5F5F5F5F5F5F5F5F5F5F5F5F5F5F5F5F5F5F5F5F5F5F5F5F5F5F5F5F5F5F5F5
310
F5F5F5F5F5F5F5F5F5F5F5F5F5F5F5F5F5F5F5F5F5F5F5F5F5F5F5F5F5F5F5F5F5F5F5F5F5F5F5F5F5F5F5F5F5F5F5F5F5F5F5F5F5F5F5F5F5F5F5F5F5F5F5F5F5F5F5F5F5E2F5F5F5F5F5F5F5F5F5F5F5F5F5F5F5F5E2F5F5F5E2E2EFF5F5F5E2F5F5F5F5F5F5F5F5F5F5F5F5F5F5F5F5E2F5F5F5F5F5F5F5F5F5F5F5F5F5
310
F5F5F5F5F5F5F5F5F5F5F5F5F5F5F5F5F5F5F5F5F5F5F5F5F5F5F5F5F5F5F5F5F5F5F5F5F5F5F5F5F5F5F5F5F5F5F5F5F5F5F5F5F5F5F5F5F5F5F5F5F5F5F5F5F5F5F5F5F5F5F5F5F5F5F5F5F5F5F5F5F5F5F5F5F5F5F5F5F5F5F5F5F5F5F5F5F5F5F5F5F5F5F5F5F5F5F5F5F5F5F5F5F5F5F5F5F5F5F5F5F5F5E2F5F5F5F5
310
F5F5F5F5F5F5F5F5F5F5F5F5E2F5F5F5E2E2EFF5F5F5E2F5F5F5F5F5F5F5F5F5F5F5F5F5F5F5F5E2F5F5F5F5F5F5F5F5F5F5F5F5F5F5F5F5F5F5F5F5F5F5F5F5F5F5F5F5F5F5F5F5F5F5F5F5F5F5F5F5F5F5F5F5F5F5F5F5F5F5F5F5F5F5F5F5F5F5F5F5F5F5F5F5F5F5F5F5F5F5F5F5F5F5F5F5F5F5F5F5F5F5F5F5F5F5F5
310
F5F5F5F5F5F5F5F5F5F5F5F5F5F5F5F5F5F5F5F5F5F5F5F5F5F5F5F5F5F5F5F5F5F5F5F5F5F5F5F5F5F5F5F5F5F5F5F5E2F5F5F5F5F5F5F5F5F5F5F5F5F5F5F5F5E2F5F5F5E2E2EFF5F5F5E2F5F5F5F5F5F5F5F5F5F5F5F5F5F5F5F5E2F5F5F5F5F5F5F5F5F5F5F5F5F5F5F5F5F5F5F5F5F5F5F5F5F5F5F5F5F5F5F5F5F5F5
310
F5F5F5F5F5F5F5F5F5F5F5F5F5F5F5F5F5F5F5F5F5F5F5F5F5F5F5F5F5F5F5F5F5F5F5F5F5F5F5F5F5F5F5F5F5F5F5F5F5F5F5F5F5F5F5F5F5F5F5F5F5F5F5F5F5F5F5F5F5F5F5F5F5F5F5F5F5F5F5F5F5F5F5F5F5F5F5F5F5F5F5F5F5F5F5F5F5F5F5F5F5E2F5F5F5F5F5F5F5F5F5F5F5F5F5F5F5F5E2F5F5F5E2E2EFF5F5
310
F5E2F5F5F5F5F5F5F5F5F5F5F5F5F5F5F5F5E2F5F5F5F5F5F5F5F5F5F5F5F5F5F5F5F5F5F5F5F5F5F5F5F5F5F5F5F5F5F5F5F5F5F5F5F5F5F5F5F5F5F5F5F5F5F5F5F5F5F5F5F5F5F5F5F5F5F5F5F5F5F5F5F5F5F5F5F5F5F5F5F5F5F5F5F5F5F5F5F5F5F5F5F5F5F5F5F5F5F5F5F5F5F5F5F5F5F5F5F5F5F5F5F5F5F5F5F5
310
F5F5F5F5F5F5F5F5F5F5F5F5F5F5F5F5F5F5F5F5F5F5F5F5F5F5F5E2F5F5F5F5F5F5F5F5F5F5F5F5F5F5F5F5E2F5F5F5E2E2EFF5F5F5E2F5F5F5F5F5F5F5F5F5F5F5F5F5F5F5F5E2F5F5F5F5F5F5F5F5F5F5F5F5F5F5F5F5F5F5F5F5F5F5F5F5F5F5F5F5F5F5F5F5F5F5F5F5F5F5F5F5F5F5F5F5F5F5F5F5F5F5F5F5F5F5F5
310
F5F5F5F5F5F5F5F5F5F5F5F5F5F5F5F5F5F5F5F5F5F5F5F5F5F5F5F5F5F5F5F5F5F5F5F5F5F5F5F5F5F5F5F5F5F5F5F5F5F5F5F5F5F5F5F5F5F5F5F5F5F5F5F5F5F5F5F5F5F5F5F5F5F5F5F5F5F5F5F5E2F5F5F5F5F5F5F5F5F5F5F5F5F5F5F5F5E2F5F5F5E2E2EFF5F5F5E2F5F5F5F5F5F5F5F5F5F5F5F5F5F5F5F5E2F5F5
310
F5F5F5F5F5F5F5F5F5F5F5F5F5F5F5F5F5F5F5F5F5F5F5F5F5F5F5F5F5F5F5F5F5F5F5F5F5F5F5F5F5F5F5F5F5F5F5F5F5F5F5F5F5F5F5F5F5F5F5F5F5F5F5F5F5F5F5F5F5F5F5F5F5F5F5F5F5F5F5F5F5F5F5F5F5F5F5F5F5F5F5F5F5F5F5F5F5F5F5F5F5F5F5F5F5F5F5F5F5F5F5F5F5F5F5F5F5F5F5F5F5F5F5F5F5F5F5
310
F5F5F5F5F5F5E2F5F5F5F5F5F5F5F5F5F5F5F5F5F5F5F5E2F5F5F5E2E2EFF5F5F5E2F5F5F5F5F5F5F5F5F5F5F5F5F5F5F5F5E2F5F5F5F5F5F5F5F5F5F5F5F5F5F5F5F5F5F5F5F5F5F5F5F5F5F5F5F5F5F5F5F5F5F5F5F5F5F5F5F5F5F5F5F5F5F5F5F5F5F5F5F5F5F5F5F5F5F5F5F5F5F5F5F5F5F5F5F5F5F5F5F5F5F5F5F5
310
F5F5F5F5F5F5F5F5F5F5F5F5F5F5F5F5F5F5F5F5F5F5F5F5F5F5F5F5F5F5F5F5F5F5F5F5F5F5F5F5F5F5F5F5F5F5F5F5F5F5F5F5F5F5F5F5F5F5F5E2F5F5F5F5F5F5F5F5F5F5F5F5F5F5F5F5E2F5F5F5E2E2EFF5F5F5F5F5F5F5F5F5F5F5F5F5F5F5F5F5F5F5F5E2F5F5F5F5F5F5F5F5F5F5F5F5F5F5F5F5F5F5F5F5F5F5F5
310
F5F5F5F5F5F5F5F5F5F5F5F5F5F5F5F5F5F5F5F5F5F5F5F5F5F5F5F5F5F5F5F5F5F5F5F5F5F5F5F5F5F5F5F5F5F5F5F5F5F5F5F5F5F5F5F5F5F5F5F5F5F5F5F5F5F5F5F5F5F5F5F5F5F5F5F5F5F5F5F5F5F5F5F5F5F5F5F5F5F5F5F5F5F5F5F5F5F5F5F5F5F5F5F5F5F5F5F5F5F5F5F5E2F5F5F5F5F5F5F5F5F5F5F5F5F5F5
310
F5F5F5F5F5F5E2E2EFF5F5F5F5F5F5F5F5F5F5F5F5F5F5F5F5F5F5F5F5E2F5F5F5F5F5F5F5F5F5F5F5F5F5F5F5F5F5F5F5F5F5F5F5F5F5F5F5F5F5F5F5F5F5F5F5F5F5F5F5F5F5F5F5F5F5F5F5F5F5F5F5F5F5F5F5F5F5F5F5F5F5F5F5F5F5F5F5F5F5F5F5F5F5F5F5F5F5F5F5F5F5F5F5F5F5F5F5F5F5F5F5F5F5F5F5F5F5
310
F5F5F5F5F5F5F5F5F5F5F5F5F5F5F5F5F5F5F5F5F5F5F5F5F5F5F5F5F5F5F5F5F5F5F5F5F5F5E2F5F5F5F5F5F5F5F5F5F5F5F5F5F5F5F5F5F5F5F5E2E2EFF5F5F5F5F5F5F5F5F5F5F5F5F5F5F5F5F5F5F5F5E2F5F5F5F5F5F5F5F5F5F5F5F5F5F5F5F5F5F5F5F5F5F5F5F5F5F5F5F5F5F5F5F5F5F5F5F5F5F5F5F5F5F5F5F5
310
F5F5F5F5F5F5F5F5F5F5F5F5F5F5F5F5F5F5F5F5F5F5F5F5F5F5F5F5F5F5F5F5F5F5F5F5F5F5F5F5F5F5F5F5F5F5F5F5F5F5F5F5F5F5F5F5F5F5F5F5F5F5F5F5F5F5F5F5F5F5F5F5F5F5F5F5F5F5F5F5F5F5F5F5F5F5F5F5F5F5F5E2F5F5F5F5F5F5F5F5F5F5F5F5F5F5F5F5F5F5F5F5E2E2EFF5F5F5F5F5F5F5F5F5F5F5F5
310
F5F5F5F5F5F5F5F5E2F5F5F5F5F5F5F5F5F5F5F5F5F5F5F5F5F5F5F5F5F5F5F5F5F5F5F5F5F5F5F5F5F5F5F5F5F5F5F5F5F5F5F5F5F5F5F5F5F5F5F5F5F5F5F5F5F5F5F5F5F5F5F5F5F5F5F5F5F5F5F5F5F5F5F5F5F5F5F5F5F5F5F5F5F5F5F5F5F5F5F5F5F5F5F5F5F5F5F5F5F5F5F5F5F5F5F5F5F5F5F5F5F5F5F5F5F5F5
310
F5F5F5F5F5F5F5F5F5F5F5F5F5F5F5F5F5E2F5F5F5F5F5F5F5F5F5F5F5F5F5F5F5F5F5F5F5F5E2E2EFF5F5F5F5F5F5F5F5F5F5F5F5F5F5F5F5F5F5F5F5E2F5F5F5F5F5F5F5F5F5F5F5F5F5F5F5F5F5F5F5F5F5F5F5F5F5F5F5F5F5F5F5F5F5F5F5F5F5F5F5F5F5F5F5F5F5F5F5F5F5F5F5F5F5F5F5F5F5F5F5F5F5F5F5F5F5
310
F5F5F5F5F5F5F5F5F5F5F5F5F5F5F5F5F5F5F5F5F5F5F5F5F5F5F5F5F5F5F5F5F5F5F5F5F5F5F5F5F5F5F5F5F5F5F5F5F5F5F5F5F5F5F5F5F5F5F5F5F5F5F5F5F5F5F5F5F5F5E2F5F5F5F5F5F5F5F5F5F5F5F5F5F5F5F5F5F5F5F5E2E2EFF5F5F5F5F5F5F5F5F5F5F5F5F5F5F5F5F5F5F5F5E2F5F5F5F5F5F5F5F5F5F5F5F5
310
F5F5F5F5F5F5F5F5F5F5F5F5F5F5F5F5F5F5F5F5F5F5F5F5F5F5F5F5F5F5F5F5F5F5F5F5F5F5F5F5F5F5F5F5F5F5F5F5F5F5F5F5F5F5F5F5F5F5F5F5F5F5F5F5F5F5F5F5F5F5F5F5F5F5F5F5F5F5F5F5F5F5F5F5F5F5F5F5F5F5F5F5F5F5F5F5F5F5F5F5F5F5F5F5F5F5F5F5F5F5F5F5F5F5F5F5F5F5F5F5F5F5F5E2F5F5F5
310
F5F5F5F5F5F5F5F5F5F5F5F5F5F5F5F5F5E2E2EFF5F5F5F5F5F5F5F5F5F5F5F5F5F5F5F5F5F5F5F5E2F5F5F5F5F5F5F5F5F5F5F5F5F5F5F5F5F5F5F5F5F5F5F5F5F5F5F5F5F5F5F5F5F5F5F5F5F5F5F5F5F5F5F5F5F5F5F5F5F5F5F5F5F5F5F5F5F5F5F5F5F5F5F5F5F5F5F5F5F5F5F5F5F5F5F5F5F5F5F5F5F5F5F5F5F5F5
310
F5F5F5F5F5F5F5F5F5F5F5F5F5F5F5F5F5F5F5F5F5F5F5F5F5F5F5F5F5F5F5F5F5F5F5F5F5F5F5F5F5F5F5F5F5F5F5F5F5E2F5F5F5F5F5F5F5F5F5F5F5F5F5F5F5F5F5F5F5F5E2E2EFF5F5F5F5F5F5F5F5F5F5F5F5F5F5F5F5F5F5F5F5E2F5F5F5F5F5F5F5F5F5F5F5F5F5F5F5F5F5F5F5F5F5F5F5F5F5F5F5F5F5F5F5F5F5
310
F5F5F5F5F5F5F5F5F5F5F5F5F5F5F5F5F5F5F5F5F5F5F5F5F5F5F5F5F5F5F5F5F5F5F5F5F5F5F5F5F5F5F5F5F5F5F5F5F5F5F5F5F5F5F5F5F5F5F5F5F5F5F5F5F5F5F5F5F5F5F5F5F5F5F5F5F5F5F5F5F5F5F5F5F5F5F5F5F5F5F5F5F5F5F5F5F5F5F5F5F5F5E2F5F5F5F5F5F5F5F5F5F5F5F5F5F5F5F5F5F5F5F5E2E2EFF5
310
F5F5F5F5F5F5F5F5F5F5F5F5F5F5F5F5F5F5F5E2F5F5F5F5F5F5F5F5F5F5F5F5F5F5F5F5F5F5F5F5F5F5F5F5F5F5F5F5F5F5F5F5F5F5F5F5F5F5F5F5F5F5F5F5F5F5F5F5F5F5F5F5F5F5F5F5F5F5F5F5F5F5F5F5F5F5F5F5F5F5F5F5F5F5F5F5F5F5F5F5F5F5F5F5F5F5F5F5F5F5F5F5F5F5F5F5F5F5F5F5F5F5F5F5F5F5F5
310
F5F5F5F5F5F5F5F5F5F5F5F5F5F5F5F5F5F5F5F5F5F5F5F5F5F5F5F5E2F5F5F5F5F5F5F5F5F5F5F5F5F5F5F5F5F5F5F5F5E2E2EFF5F5F5E2F5F5F5F5F5F5F5F5F5F5F5F5F5F5F5F5E2F5F5F5F5F5F5F5F5F5F5F5F5F5F5F5F5F5F5F5F5F5F5F5F5F5F5F5F5F5F5F5F5F5F5F5F5F5F5F5F5F5F5F5F5F5F5F5F5F5F5F5F5F5F5
310
F5F5F5F5F5F5F5F5F5F5F5F5F5F5F5F5F5F5F5F5F5F5F5F5F5F5F5F5F5F5F5F5F5F5F5F5F5F5F5F5F5F5F5F5F5F5F5F5F5F5F5F5F5F5F5F5F5F5F5F5F5F5F5F5F5F5F5F5F5F5F5F5F5F5F5F5F5F5F5F5F5E2F5F5F5F5F5F5F5F5F5F5F5F5F5F5F5F5E2F5F5F5E2E2EFF5F5F5E2F5F5F5F5F5F5F5F5F5F5F5F5F5F5F5F5E2F5
310
F5F5F5F5F5F5F5F5F5F5F5F5F5F5F5F5F5F5F5F5F5F5F5F5F5F5F5F5F5F5F5F5F5F5F5F5F5F5F5F5F5F5F5F5F5F5F5F5F5F5F5F5F5F5F5F5F5F5F5F5F5F5F5F5F5F5F5F5F5F5F5F5F5F5F5F5F5F5F5F5F5F5F5F5F5F5F5F5F5F5F5F5F5F5F5F5F5F5F5F5F5F5F5F5F5F5F5F5F5F5F5F5F5F5F5F5F5F5F5F5F5F5F5F5F5F5F5
310
F5F5F5F5F5F5F5E2F5F5F5F5F5F5F5F5F5F5F5F5F5F5F5F5E2F5F5F5E2E2EFF5F5F5E2F5F5F5F5F5F5F5F5F5F5F5F5F5F5F5F5E2F5F5F5F5F5F5F5F5F5F5F5F5F5F5F5F5F5F5F5F5F5F5F5F5F5F5F5F5F5F5F5F5F5F5F5F5F5F5F5F5F5F5F5F5F5F5F5F5F5F5F5F5F5F5F5F5F5F5F5F5F5F5F5F5F5F5F5F5F5F5F5F5F5F5F5
310
F5F5F5F5F5F5F5F5F5F5F5F5F5F5F5F5F5F5F5F5F5F5F5F5F5F5F5F5F5F5F5F5F5F5F5F5F5F5F5F5F5F5F5F5F5F5F5F5F5F5F5F5F5F5F5F5F5F5F5F5E2F5F5F5F5F5F5F5F5F5F5F5F5F5F5F5F5E2F5F5F5E2E2EFF5F5F5E2F5F5F5F5F5F5F5F5F5F5F5F5F5F5F5F5E2F5F5F5F5F5F5F5F5F5F5F5F5F5F5F5F5F5F5F5F5F5F5
310
F5F5F5F5F5F5F5F5F5F5F5F5F5F5F5F5F5F5F5F5F5F5F5F5F5F5F5F5F5F5F5F5F5F5F5F5F5F5F5F5F5F5F5F5F5F5F5F5F5F5F5F5F5F5F5F5F5F5F5F5F5F5F5F5F5F5F5F5F5F5F5F5F5F5F5F5F5F5F5F5F5F5F5F5F5F5F5F5F5F5F5F5F5F5F5F5F5F5F5F5F5F5F5F5F5F5F5F5F5F5F5F5F5E2F5F5F5F5F5F5F5F5F5F5F5F5F5
310
F5F5F5E2F5F5F5E2E2EFF5F5F5E2F5F5F5F5F5F5F5F5F5F5F5F5F5F5F5F5E2F5F5F5F5F5F5F5F5F5F5F5F5F5F5F5F5F5F5F5F5F5F5F5F5F5F5F5F5F5F5F5F5F5F5F5F5F5F5F5F5F5F5F5F5F5F5F5F5F5F5F5F5F5F5F5F5F5F5F5F5F5F5F5F5F5F5F5F5F5F5F5F5F5F5F5F5F5F5F5F5F5F5F5F5F5F5F5F5F5F5F5F5F5F5F5F5
310
F5F5F5F5F5F5F5F5F5F5F5F5F5F5F5F5F5F5F5F5F5F5F5F5F5F5F5F5F5F5F5F5F5F5F5F5F5F5F5E2F5F5F5F5F5F5F5F5F5F5F5F5F5F5F5F5E2F5F5F5E2E2EFF5F5F5E2F5F5F5F5F5F5F5F5F5F5F5F5F5F5F5F5E2F5F5F5F5F5F5F5F5F5F5F5F5F5F5F5F5F5F5F5F5F5F5F5F5F5F5F5F5F5F5F5F5F5F5F5F5F5F5F5F5F5F5F5
310
F5F5F5F5F5F5F5F5F5F5F5F5F5F5F5F5F5F5F5F5F5F5F5F5F5F5F5F5F5F5F5F5F5F5F5F5F5F5F5F5F5F5F5F5F5F5F5F5F5F5F5F5F5F5F5F5F5F5F5F5F5F5F5F5F5F5F5F5F5F5F5F5F5F5F5F5F5F5F5F5F5F5F5F5F5F5F5F5F5F5F5F5E2F5F5F5F5F5F5F5F5F5F5F5F5F5F5F5F5E2F5F5F5E2E2EFF5F5F5E2F5F5F5F5F5F5F5
310
F5F5F5F5F5F5F5F5F5E2F5F5F5F5F5F5F5F5F5F5F5F5F5F5F5F5F5F5F5F5F5F5F5F5F5F5F5F5F5F5F5F5F5F5F5F5F5F5F5F5F5F5F5F5F5F5F5F5F5F5F5F5F5F5F5F5F5F5F5F5F5F5F5F5F5F5F5F5F5F5F5F5F5F5F5F5F5F5F5F5F5F5F5F5F5F5F5F5F5F5F5F5F5F5F5F5F5F5F5F5F5F5F5F5F5F5F5F5F5F5F5F5F5F5F5F5F5
310
F5F5F5F5F5F5F5F5F5F5F5F5F5F5F5F5F5F5E2F5F5F5F5F5F5F5F5F5F5F5F5F5F5F5F5E2F5F5F5E2E2EFF5F5F5E2F5F5F5F5F5F5F5F5F5F5F5F5F5F5F5F5E2F5F5F5F5F5F5F5F5F5F5F5F5F5F5F5F5F5F5F5F5F5F5F5F5F5F5F5F5F5F5F5F5F5F5F5F5F5F5F5F5F5F5F5F5F5F5F5F5F5F5F5F5F5F5F5F5F5F5F5F5F5F5F5F5
310
F5F5F5F5F5F5F5F5F5F5F5F5F5F5F5F5F5F5F5F5F5F5F5F5F5F5F5F5F5F5F5F5F5F5F5F5F5F5F5F5F5F5F5F5F5F5F5F5F5F5F5F5F5F5F5F5F5F5F5F5F5F5F5F5F5F5F5F5F5F5F5E2F5F5F5F5F5F5F5F5F5F5F5F5F5F5F5F5E2F5F5F5E2E2EFF5F5F5E2F5F5F5F5F5F5F5F5F5F5F5F5F5F5F5F5E2F5F5F5F5F5F5F5F5F5F5F5
310
F5F5F5F5F5F5F5F5F5F5F5F5F5F5F5F5F5F5F5F5F5F5F5F5F5F5F5F5F5F5F5F5F5F5F5F5F5F5F5F5F5F5F5F5F5F5F5F5F5F5F5F5F5F5F5F5F5F5F5F5F5F5F5F5F5F5F5F5F5F5F5F5F5F5F5F5F5F5F5F5F5F5F5F5F5F5F5F5F5F5F5F5F5F5F5F5F5F5F5F5F5F5F5F5F5F5F5F5F5F5F5F5F5F5F5F5F5F5F5F5F5F5F5F5E2F5F5
310
F5F5F5F5F5F5F5F5F5F5F5F5F5F5E2F5F5F5E2E2EFF5F5F5E2F5F5F5F5F5F5F5F5F5F5F5F5F5F5F5F5E2F5F5F5F5F5F5F5F5F5F5F5F5F5F5F5F5F5F5F5F5F5F5F5F5F5F5F5F5F5F5F5F5F5F5F5F5F5F5F5F5F5F5F5F5F5F5F5F5F5F5F5F5F5F5F5F5F5F5F5F5F5F5F5F5F5F5F5F5F5F5F5F5F5F5F5F5F5F5F5F5F5F5F5F5F5
310
F5F5F5F5F5F5F5F5F5F5F5F5F5F5F5F5F5F5F5F5F5F5F5F5F5F5F5F5F5F5F5F5F5F5F5F5F5F5F5F5F5F5F5F5F5F5F5F5F5F5E2F5F5F5F5F5F5F5F5F5F5F5F5F5F5F5F5E2F5F5F5E2E2EFF5F5F5E2F5F5F5F5F5F5F5F5F5F5F5F5F5F5F5F5E2F5F5F5F5F5F5F5F5F5F5F5F5F5F5F5F5F5F5F5F5F5F5F5F5F5F5F5F5F5F5F5F5
310
F5F5F5F5F5F5F5F5F5F5F5F5F5F5F5F5F5F5F5F5F5F5F5F5F5F5F5F5F5F5F5F5F5F5F5F5F5F5F5F5F5F5F5F5F5F5F5F5F5F5F5F5F5F5F5F5F5F5F5F5F5F5F5F5F5F5F5F5F5F5F5F5F5F5F5F5F5F5F5F5F5F5F5F5F5F5F5F5F5F5F5F5F5F5F5F5F5F5F5F5F5F5F5E2F5F5F5F5F5F5F5F5F5F5F5F5F5F5F5F5E2F5F5F5E2E2EF
310
F5F5F5E2F5F5F5F5F5F5F5F5F5F5F5F5F5F5F5F5E2F5F5F5F5F5F5F5F5F5F5F5F5F5F5F5F5F5F5F5F5F5F5F5F5F5F5F5F5F5F5F5F5F5F5F5F5F5F5F5F5F5F5F5F5F5F5F5F5F5F5F5F5F5F5F5F5F5F5F5F5F5F5F5F5F5F5F5F5F5F5F5F5F5F5F5F5F5F5F5F5F5F5F5F5F5F5F5F5F5F5F5F5F5F5F5F5F5F5F5F5F5F5F5F5F5F5
310
F5F5F5F5F5F5F5F5F5F5F5F5F5F5F5F5F5F5F5F5F5F5F5F5F5F5F5F5F5E2F5F5F5F5F5F5F5F5F5F5F5F5F5F5F5F5E2F5F5F5E2E2EFF5F5F5E2F5F5F5F5F5F5F5F5F5F5F5F5F5F5F5F5E2F5F5F5F5F5F5F5F5F5F5F5F5F5F5F5F5F5F5F5F5F5F5F5F5F5F5F5F5F5F5F5F5F5F5F5F5F5F5F5F5F5F5F5F5F5F5F5F5F5F5F5F5F5
310
F5F5F5F5F5F5F5F5F5F5F5F5F5F5F5F5F5F5F5F5F5F5F5F5F5F5F5F5F5F5F5F5F5F5F5F5F5F5F5F5F5F5F5F5F5F5F5F5F5F5F5F5F5F5F5F5F5F5F5F5F5F5F5F5F5F5F5F5F5F5F5F5F5F5F5F5F5F5F5F5F5F5E2F5F5F5F5F5F5F5F5F5F5F5F5F5F5F5F5E2F5F5F5E2E2EFF5F5F5E2F5F5F5F5F5F5F5F5F5F5F5F5F5F5F5F5E2
310
F5F5F5F5F5F5F5F5F5F5F5F5F5F5F5F5F5F5F5F5F5F5F5F5F5F5F5F5F5F5F5F5F5F5F5F5F5F5F5F5F5F5F5F5F5F5F5F5F5F5F5F5F5F5F5F5F5F5F5F5F5F5F5F5F5F5F5F5F5F5F5F5F5F5F5F5F5F5F5F5F5F5F5F5F5F5F5F5F5F5F5F5F5F5F5F5F5F5F5F5F5F5F5F5F5F5F5F5F5F5F5F5F5F5F5F5F5F5F5F5F5F5F5F5F5F5F5
310
F5F5F5F5F5F5F5F5E2F5F5F5F5F5F5F5F5F5F5F5F5F5F5F5F5E2F5F5F5E2E2EFF5F5F5E2F5F5F5F5F5F5F5F5F5F5F5F5F5F5F5F5E2F5F5F5F5F5F5F5F5F5F5F5F5F5F5F5F5F5F5F5F5F5F5F5F5F5F5F5F5F5F5F5F5F5F5F5F5F5F5F5F5F5F5F5F5F5F5F5F5F5F5F5F5F5F5F5F5F5F5F5F5F5F5F5F5F5F5F5F5F5F5F5F5F5F5
310
F5F5F5F5F5F5F5F5F5F5F5F5F5F5F5F5F5F5F5F5F5F5F5F5F5F5F5F5F5F5F5F5F5F5F5F5F5F5F5F5F5F5F5F5F5F5F5F5F5F5F5F5F5F5F5F5F5F5F5F5F5E2F5F5F5F5F5F5F5F5F5F5F5F5F5F5F5F5E2F5F5F5E2E2EFF5F5F5E2F5F5F5F5F5F5F5F5F5F5F5F5F5F5F5F5E2F5F5F5F5F5F5F5F5F5F5F5F5F5F5F5F5F5F5F5F5F5
310
F5F5F5F5F5F5F5F5F5F5F5F5F5F5F5F5F5F5F5F5F5F5F5F5F5F5F5F5F5F5F5F5F5F5F5F5F5F5F5F5F5F5F5F5F5F5F5F5F5F5F5F5F5F5F5F5F5F5F5F5F5F5F5F5F5F5F5F5F5F5F5F5F5F5F5F5F5F5F5F5F5F5F5F5F5F5F5F5F5F5F5F5F5F5F5F5F5F5F5F5F5F5F5F5F5F5F5F5F5F5F5F5F5F5E2F5F5F5F5F5F5F5F5F5F5F5F5
310
F5F5F5F5E2F5F5F5E2E2EFF5F5F5E2F5F5F5F5F5F5F5F5F5F5F5F5F5F5F5F5E2F5F5F5F5F5F5F5F5F5F5F5F5F5F5F5F5F5F5F5F5F5F5F5F5F5F5F5F5F5F5F5F5F5F5F5F5F5F5F5F5F5F5F5F5F5F5F5F5F5F5F5F5F5F5F5F5F5F5F5F5F5F5F5F5F5F5F5F5F5F5F5F5F5F5F5F5F5F5F5F5F5F5F5F5F5F5F5F5F5F5F5F5F5F5F5
310
F5F5F5F5F5F5F5F5F5F5F5F5F5F5F5F5F5F5F5F5F5F5F5F5F5F5F5F5F5F5F5F5F5F5F5F5F5F5F5F5E2F5F5F5F5F5F5F5F5F5F5F5F5F5F5F5F5E2F5F5F5E2E2EFF5F5F5F5F5F5F5F5F5F5F5F5F5F5F5F5F5F5F5F5E2F5F5F5F5F5F5F5F5F5F5F5F5F5F5F5F5F5F5F5F5F5F5F5F5F5F5F5F5F5F5F5F5F5F5F5F5F5F5F5F5F5F5
310
F5F5F5F5F5F5F5F5F5F5F5F5F5F5F5F5F5F5F5F5F5F5F5F5F5F5F5F5F5F5F5F5F5F5F5F5F5F5F5F5F5F5F5F5F5F5F5F5F5F5F5F5F5F5F5F5F5F5F5F5F5F5F5F5F5F5F5F5F5F5F5F5F5F5F5F5F5F5F5F5F5F5F5F5F5F5F5F5F5F5F5F5F5E2F5F5F5F5F5F5F5F5F5F5F5F5F5F5F5F5F5F5F5F5E2E2EFF5F5F5F5F5F5F5F5F5F5
310
F5F5F5F5F5F5F5F5F5F5E2F5F5F5F5F5F5F5F5F5F5F5F5F5F5F5F5F5F5F5F5F5F5F5F5F5F5F5F5F5F5F5F5F5F5F5F5F5F5F5F5F5F5F5F5F5F5F5F5F5F5F5F5F5F5F5F5F5F5F5F5F5F5F5F5F5F5F5F5F5F5F5F5F5F5F5F5F5F5F5F5F5F5F5F5F5F5F5F5F5F5F5F5F5F5F5F5F5F5F5F5F5F5F5F5F5F5F5F5F5F5F5F5F5F5F5F5
310
F5F5F5F5F5F5F5F5F5F5F5F5F5F5F5F5F5F5F5E2F5F5F5F5F5F5F5F5F5F5F5F5F5F5F5F5F5F5F5F5E2E2EFF5F5F5F5F5F5F5F5F5F5F5F5F5F5F5F5F5F5F5F5E2F5F5F5F5F5F5F5F5F5F5F5F5F5F5F5F5F5F5F5F5F5F5F5F5F5F5F5F5F5F5F5F5F5F5F5F5F5F5F5F5F5F5F5F5F5F5F5F5F5F5F5F5F5F5F5F5F5F5F5F5F5F5F5
310
F5F5F5F5F5F5F5F5F5F5F5F5F5F5F5F5F5F5F5F5F5F5F5F5F5F5F5F5F5F5F5F5F5F5F5F5F5F5F5F5F5F5F5F5F5F5F5F5F5F5F5F5F5F5F5F5F5F5F5F5F5F5F5F5F5F5F5F5F5F5F5F5E2F5F5F5F5F5F5F5F5F5F5F5F5F5F5F5F5F5F5F5F5E2E2EFF5F5F5F5F5F5F5F5F5F5F5F5F5F5F5F5F5F5F5F5E2F5F5F5F5F5F5F5F5F5F5
310
F5F5F5F5F5F5F5F5F5F5F5F5F5F5F5F5F5F5F5F5F5F5F5F5F5F5F5F5F5F5F5F5F5F5F5F5F5F5F5F5F5F5F5F5F5F5F5F5F5F5F5F5F5F5F5F5F5F5F5F5F5F5F5F5F5F5F5F5F5F5F5F5F5F5F5F5F5F5F5F5F5F5F5F5F5F5F5F5F5F5F5F5F5F5F5F5F5F5F5F5F5F5F5F5F5F5F5F5F5F5F5F5F5F5F5F5F5F5F5F5F5F5F5F5F5E2F5
310
F5F5F5F5F5F5F5F5F5F5F5F5F5F5F5F5F5F5F5E2E2EFF5F5F5F5F5F5F5F5F5F5F5F5F5F5F5F5F5F5F5F5E2F5F5F5F5F5F5F5F5F5F5F5F5F5F5F5F5F5F5F5F5F5F5F5F5F5F5F5F5F5F5F5F5F5F5F5F5F5F5F5F5F5F5F5F5F5F5F5F5F5F5F5F5F5F5F5F5F5F5F5F5F5F5F5F5F5F5F5F5F5F5F5F5F5F5F5F5F5F5F5F5F5F5F5F5
310
F5F5F5F5F5F5F5F5F5F5F5F5F5F5F5F5F5F5F5F5F5F5F5F5F5F5F5F5F5F5F5F5F5F5F5F5F5F5F5F5F5F5F5F5F5F5F5F5F5F5F5E2F5F5F5F5F5F5F5F5F5F5F5F5F5F5F5F5F5F5F5F5E2E2EFF5F5F5F5F5F5F5F5F5F5F5F5F5F5F5F5F5F5F5F5E2F5F5F5F5F5F5F5F5F5F5F5F5F5F5F5F5F5F5F5F5F5F5F5F5F5F5F5F5F5F5F5
310
F5F5F5F5F5F5F5F5F5F5F5F5F5F5F5F5F5F5F5F5F5F5F5F5F5F5F5F5F5F5F5F5F5F5F5F5F5F5F5F5F5F5F5F5F5F5F5F5F5F5F5F5F5F5F5F5F5F5F5F5F5F5F5F5F5F5F5F5F5F5F5F5F5F5F5F5F5F5F5F5F5F5F5F5F5F5F5F5F5F5F5F5F5F5F5F5F5F5F5F5F5F5F5F5E2F5F5F5F5F5F5F5F5F5F5F5F5F5F5F5F5F5F5F5F5E2E2
310
EFF5F5F5F5F5F5F5F5F5F5F5F5F5F5F5F5F5F5F5F5E2F5F5F5F5F5F5F5F5F5F5F5F5F5F5F5F5F5F5F5F5F5F5F5F5F5F5F5F5F5F5F5F5F5F5F5F5F5F5F5F5F5F5F5F5F5F5F5F5F5F5F5F5F5F5F5F5F5F5F5F5F5F5F5F5F5F5F5F5F5F5F5F5F5F5F5F5F5F5F5F5F5F5F5F5F5F5F5F5F5F5F5F5F5F5F5F5F5F5F5F5F5F5F5F5F5
310
F5F5F5F5F5F5F5F5F5F5F5F5F5F5F5F5F5F5F5F5F5F5F5F5F5F5F5F5F5F5E2F5F5F5F5F5F5F5F5F5F5F5F5F5F5F5F5F5F5F5F5E2E2EFF5F5F5F5F5F5F5F5F5F5F5F5F5F5F5F5F5F5F5F5E2F5F5F5F5F5F5F5F5F5F5F5F5F5F5F5F5F5F5F5F5F5F5F5F5F5F5F5F5F5F5F5F5F5F5F5F5F5F5F5F5F5F5F5F5F5F5F5F5F5F5F5F5
310
F5F5F5F5F5F5F5F5F5F5F5F5F5F5F5F5F5F5F5F5F5F5F5F5F5F5F5F5F5F5F5F5F5F5F5F5F5F5F5F5F5F5F5F5F5F5F5F5F5F5F5F5F5F5F5F5F5F5F5F5F5F5F5F5F5F5F5F5F5F5F5F5F5F5F5F5F5F5F5F5F5F5F5E2F5F5F5F5F5F5F5F5F5F5F5F5F5F5F5F5F5F5F5F5E2E2EFF5F5F5F5F5F5F5F5F5F5F5F5F5F5F5F5F5F5F5F5
310
E2F5F5F5F5F5F5F5F5F5F5F5F5F5F5F5F5F5F5F5F5F5F5F5F5F5F5F5F5F5F5F5F5F5F5F5F5F5F5F5F5F5F5F5F5F5F5F5F5F5F5F5F5F5F5F5F5F5F5F5F5F5F5F5F5F5F5F5F5F5F5F5F5F5F5F5F5F5F5F5F5F5F5F5F5F5F5F5F5F5F5F5F5F5F5F5F5F5F5F5F5F5F5F5F5F5F5F5F5F5F5F5F5F5F5F5F5F5F5F5F5F5F5F5F5F5F5
310
F5F5F5F5F5F5F5F5F5E2F5F5F5F5F5F5F5F5F5F5F5F5F5F5F5F5F5F5F5F5E2E2EFF5F5F5E2F5F5F5F5F5F5F5F5F5F5F5F5F5F5F5F5E2F5F5F5F5F5F5F5F5F5F5F5F5F5F5F5F5F5F5F5F5F5F5F5F5F5F5F5F5F5F5F5F5F5F5F5F5F5F5F5F5F5F5F5F5F5F5F5F5F5F5F5F5F5F5F5F5F5F5F5F5F5F5F5F5F5F5F5F5F5F5F5F5F5
310
F5F5F5F5F5F5F5F5F5F5F5F5F5F5F5F5F5F5F5F5F5F5F5F5F5F5F5F5F5F5F5F5F5F5F5F5F5F5F5F5F5F5F5F5F5F5F5F5F5F5F5F5F5F5F5F5F5F5F5F5F5F5E2F5F5F5F5F5F5F5F5F5F5F5F5F5F5F5F5E2F5F5F5E2E2EFF5F5F5E2F5F5F5F5F5F5F5F5F5F5F5F5F5F5F5F5E2F5F5F5F5F5F5F5F5F5F5F5F5F5F5F5F5F5F5F5F5
310
F5F5F5F5F5F5F5F5F5F5F5F5F5F5F5F5F5F5F5F5F5F5F5F5F5F5F5F5F5F5F5F5F5F5F5F5F5F5F5F5F5F5F5F5F5F5F5F5F5F5F5F5F5F5F5F5F5F5F5F5F5F5F5F5F5F5F5F5F5F5F5F5F5F5F5F5F5F5F5F5F5F5F5F5F5F5F5F5F5F5F5F5F5F5F5F5F5F5F5F5F5F5F5F5F5F5F5F5F5F5F5F5F5F5F5E2F5F5F5F5F5F5F5F5F5F5F5
310
F5F5F5F5F5E2F5F5F5E2E2EFF5F5F5E2F5F5F5F5F5F5F5F5F5F5F5F5F5F5F5F5E2F5F5F5F5F5F5F5F5F5F5F5F5F5F5F5F5F5F5F5F5F5F5F5F5F5F5F5F5F5F5F5F5F5F5F5F5F5F5F5F5F5F5F5F5F5F5F5F5F5F5F5F5F5F5F5F5F5F5F5F5F5F5F5F5F5F5F5F5F5F5F5F5F5F5F5F5F5F5F5F5F5F5F5F5F5F5F5F5F5F5F5F5F5F5
310
F5F5F5F5F5F5F5F5F5F5F5F5F5F5F5F5F5F5F5F5F5F5F5F5F5F5F5F5F5F5F5F5F5F5F5F5F5F5F5F5F5E2F5F5F5F5F5F5F5F5F5F5F5F5F5F5F5F5E2F5F5F5E2E2EFF5F5F5E2F5F5F5F5F5F5F5F5F5F5F5F5F5F5F5F5E2F5F5F5F5F5F5F5F5F5F5F5F5F5F5F5F5F5F5F5F5F5F5F5F5F5F5F5F5F5F5F5F5F5F5F5F5F5F5F5F5F5
310
F5F5F5F5F5F5F5F5F5F5F5F5F5F5F5F5F5F5F5F5F5F5F5F5F5F5F5F5F5F5F5F5F5F5F5F5F5F5F5F5F5F5F5F5F5F5F5F5F5F5F5F5F5F5F5F5F5F5F5F5F5F5F5F5F5F5F5F5F5F5F5F5F5F5F5F5F5F5F5F5F5F5F5F5F5F5F5F5F5F5F5F5F5F5E2F5F5F5F5F5F5F5F5F5F5F5F5F5F5F5F5E2F5F5F5E2E2EFF5F5F5E2F5F5F5F5F5
310
F5F5F5F5F5F5F5F5F5F5F5E2F5F5F5F5F5F5F5F5F5F5F5F5F5F5F5F5F5F5F5F5F5F5F5F5F5F5F5F5F5F5F5F5F5F5F5F5F5F5F5F5F5F5F5F5F5F5F5F5F5F5F5F5F5F5F5F5F5F5F5F5F5F5F5F5F5F5F5F5F5F5F5F5F5F5F5F5F5F5F5F5F5F5F5F5F5F5F5F5F5F5F5F5F5F5F5F5F5F5F5F5F5F5F5F5F5F5F5F5F5F5F5F5F5F5F5
310
F5F5F5F5F5F5F5F5F5F5F5F5F5F5F5F5F5F5F5F5E2F5F5F5F5F5F5F5F5F5F5F5F5F5F5F5F5E2F5F5F5E2E2EFF5F5F5E2F5F5F5F5F5F5F5F5F5F5F5F5F5F5F5F5E2F5F5F5F5F5F5F5F5F5F5F5F5F5F5F5F5F5F5F5F5F5F5F5F5F5F5F5F5F5F5F5F5F5F5F5F5F5F5F5F5F5F5F5F5F5F5F5F5F5F5F5F5F5F5F5F5F5F5F5F5F5F5
310
F5F5F5F5F5F5F5F5F5F5F5F5F5F5F5F5F5F5F5F5F5F5F5F5F5F5F5F5F5F5F5F5F5F5F5F5F5F5F5F5F5F5F5F5F5F5F5F5F5F5F5F5F5F5F5F5F5F5F5F5F5F5F5F5F5F5F5F5F5F5F5F5F5E2F5F5F5F5F5F5F5F5F5F5F5F5F5F5F5F5E2F5F5F5E2E2EFF5F5F5E2F5F5F5F5F5F5F5F5F5F5F5F5F5F5F5F5E2F5F5F5F5F5F5F5F5F5
310
F5F5F5F5F5F5F5F5F5F5F5F5F5F5F5F5F5F5F5F5F5F5F5F5F5F5F5F5F5F5F5F5F5F5F5F5F5F5F5F5F5F5F5F5F5F5F5F5F5F5F5F5F5F5F5F5F5F5F5F5F5F5F5F5F5F5F5F5F5F5F5F5F5F5F5F5F5F5F5F5F5F5F5F5F5F5F5F5F5F5F5F5F5F5F5F5F5F5F5F5F5F5F5F5F5F5F5F5F5F5F5F5F5F5F5F5F5F5F5F5F5F5F5F5F5F5E2
310
F5F5F5F5F5F5F5F5F5F5F5F5F5F5F5F5E2F5F5F5E2E2EFF5F5F5E2F5F5F5F5F5F5F5F5F5F5F5F5F5F5F5F5E2F5F5F5F5F5F5F5F5F5F5F5F5F5F5F5F5F5F5F5F5F5F5F5F5F5F5F5F5F5F5F5F5F5F5F5F5F5F5F5F5F5F5F5F5F5F5F5F5F5F5F5F5F5F5F5F5F5F5F5F5F5F5F5F5F5F5F5F5F5F5F5F5F5F5F5F5F5F5F5F5F5F5F5
310
F5F5F5F5F5F5F5F5F5F5F5F5F5F5F5F5F5F5F5F5F5F5F5F5F5F5F5F5F5F5F5F5F5F5F5F5F5F5F5F5F5F5F5F5F5F5F5F5F5F5F5F5E2F5F5F5F5F5F5F5F5F5F5F5F5F5F5F5F5E2F5F5F5E2E2EFF5F5F5E2F5F5F5F5F5F5F5F5F5F5F5F5F5F5F5F5E2F5F5F5F5F5F5F5F5F5F5F5F5F5F5F5F5F5F5F5F5F5F5F5F5F5F5F5F5F5F5
310
F5F5F5F5F5F5F5F5F5F5F5F5F5F5F5F5F5F5F5F5F5F5F5F5F5F5F5F5F5F5F5F5F5F5F5F5F5F5F5F5F5F5F5F5F5F5F5F5F5F5F5F5F5F5F5F5F5F5F5F5F5F5F5F5F5F5F5F5F5F5F5F5F5F5F5F5F5F5F5F5F5F5F5F5F5F5F5F5F5F5F5F5F5F5F5F5F5F5F5F5F5F5F5F5F5E2F5F5F5F5F5F5F5F5F5F5F5F5F5F5F5F5E2F5F5F5E2
310
E2EFF5F5F5E2F5F5F5F5F5F5F5F5F5F5F5F5F5F5F5F5E2F5F5F5F5F5F5F5F5F5F5F5F5F5F5F5F5F5F5F5F5F5F5F5F5F5F5F5F5F5F5F5F5F5F5F5F5F5F5F5F5F5F5F5F5F5F5F5F5F5F5F5F5F5F5F5F5F5F5F5F5F5F5F5F5F5F5F5F5F5F5F5F5F5F5F5F5F5F5F5F5F5F5F5F5F5F5F5F5F5F5F5F5F5F5F5F5F5F5F5F5F5F5F5F5
310
F5F5F5F5F5F5F5F5F5F5F5F5F5F5F5F5F5F5F5F5F5F5F5F5F5F5F5F5F5F5F5E2F5F5F5F5F5F5F5F5F5F5F5F5F5F5F5F5E2F5F5F5E2E2EFF5F5F5E2F5F5F5F5F5F5F5F5F5F5F5F5F5F5F5F5E2F5F5F5F5F5F5F5F5F5F5F5F5F5F5F5F5F5F5F5F5F5F5F5F5F5F5F5F5F5F5F5F5F5F5F5F5F5F5F5F5F5F5F5F5F5F5F5F5F5F5F5
310
F5F5F5F5F5F5F5F5F5F5F5F5F5F5F5F5F5F5F5F5F5F5F5F5F5F5F5F5F5F5F5F5F5F5F5F5F5F5F5F5F5F5F5F5F5F5F5F5F5F5F5F5F5F5F5F5F5F5F5F5F5F5F5F5F5F5F5F5F5F5F5F5F5F5F5F5F5F5F5F5F5F5F5F5E2F5F5F5F5F5F5F5F5F5F5F5F5F5F5F5F5E2F5F5F5E2E2EFF5F5F5E2F5F5F5F5F5F5F5F5F5F5F5F5F5F5F5
310
F5E2F5F5F5F5F5F5F5F5F5F5F5F5F5F5F5F5F5F5F5F5F5F5F5F5F5F5F5F5F5F5F5F5F5F5F5F5F5F5F5F5F5F5F5F5F5F5F5F5F5F5F5F5F5F5F5F5F5F5F5F5F5F5F5F5F5F5F5F5F5F5F5F5F5F5F5F5F5F5F5F5F5F5F5F5F5F5F5F5F5F5F5F5F5F5F5F5F5F5F5F5F5F5F5F5F5F5F5F5F5F5F5F5F5F5F5F5F5F5F5F5F5F5F5F5F5
310
F5F5F5F5F5F5F5F5F5F5E2F5F5F5F5F5F5F5F5F5F5F5F5F5F5F5F5E2F5F5F5E2E2EFF5F5F5E2F5F5F5F5F5F5F5F5F5F5F5F5F5F5F5F5E2F5F5F5F5F5F5F5F5F5F5F5F5F5F5F5F5F5F5F5F5F5F5F5F5F5F5F5F5F5F5F5F5F5F5F5F5F5F5F5F5F5F5F5F5F5F5F5F5F5F5F5F5F5F5F5F5F5F5F5F5F5F5F5F5F5F5F5F5F5F5F5F5
310
F5F5F5F5F5F5F5F5F5F5F5F5F5F5F5F5F5F5F5F5F5F5F5F5F5F5F5F5F5F5F5F5F5F5F5F5F5F5F5F5F5F5F5F5F5F5F5F5F5F5F5F5F5F5F5F5F5F5F5F5F5F5F5E2F5F5F5F5F5F5F5F5F5F5F5F5F5F5F5F5E2F5F5F5E2E2EFF5F5F5E2F5F5F5F5F5F5F5F5F5F5F5F5F5F5F5F5E2F5F5F5F5F5F5F5F5F5F5F5F5F5F5F5F5F5F5F5
310
F5F5F5F5F5F5F5F5F5F5F5F5F5F5F5F5F5F5F5F5F5F5F5F5F5F5F5F5F5F5F5F5F5F5F5F5F5F5F5F5F5F5F5F5F5F5F5F5F5F5F5F5F5F5F5F5F5F5F5F5F5F5F5F5F5F5F5F5F5F5F5F5F5F5F5F5F5F5F5F5F5F5F5F5F5F5F5F5F5F5F5F5F5F5F5F5F5F5F5F5F5F5F5F5F5F5F5F5F5F5F5F5F5F5F5F5E2F5F5F5F5F5F5F5F5F5F5
310
F5F5F5F5F5F5E2F5F5F5E2E2EFF5F5F5E2F5F5F5F5F5F5F5F5F5F5F5F5F5F5F5F5E2F5F5F5F5F5F5F5F5F5F5F5F5F5F5F5F5F5F5F5F5F5F5F5F5F5F5F5F5F5F5F5F5F5F5F5F5F5F5F5F5F5F5F5F5F5F5F5F5F5F5F5F5F5F5F5F5F5F5F5F5F5F5F5F5F5F5F5F5F5F5F5F5F5F5F5F5F5F5F5F5F5F5F5F5F5F5F5F5F5F5F5F5F5
310
F5F5F5F5F5F5F5F5F5F5F5F5F5F5F5F5F5F5F5F5F5F5F5F5F5F5F5F5F5F5F5F5F5F5F5F5F5F5F5F5F5F5E2F5F5F5F5F5F5F5F5F5F5F5F5F5F5F5F5E2F5F5F5E2E2EFF5F5F5E2F5F5F5F5F5F5F5F5F5F5F5F5F5F5F5F5E2F5F5F5F5F5F5F5F5F5F5F5F5F5F5F5F5F5F5F5F5F5F5F5F5F5F5F5F5F5F5F5F5F5F5F5F5F5F5F5F5
310
F5F5F5F5F5F5F5F5F5F5F5F5F5F5F5F5F5F5F5F5F5F5F5F5F5F5F5F5F5F5F5F5F5F5F5F5F5F5F5F5F5F5F5F5F5F5F5F5F5F5F5F5F5F5F5F5F5F5F5F5F5F5F5F5F5F5F5F5F5F5F5F5F5F5F5F5F5F5F5F5F5F5F5F5F5F5F5F5F5F5F5F5F5F5F5E2F5F5F5F5F5F5F5F5F5F5F5F5F5F5F5F5E2F5F5F5E2E2EFF5F5F5E2F5F5F5F5
310
F5F5F5F5F5F5F5F5F5F5F5F5E2F5F5F5F5F5F5F5F5F5F5F5F5F5F5F5F5F5F5F5F5F5F5F5F5F5F5F5F5F5F5F5F5F5F5F5F5F5F5F5F5F5F5F5F5F5F5F5F5F5F5F5F5F5F5F5F5F5F5F5F5F5F5F5F5F5F5F5F5F5F5F5F5F5F5F5F5F5F5F5F5F5F5F5F5F5F5F5F5F5F5F5F5F5F5F5F5F5F5F5F5F5F5F5F5F5F5F5F5F5F5F5F5F5F5
310
F5F5F5F5F5F5F5F5F5F5F5F5F5F5F5F5F5F5F5F5F5E2F5F5F5F5F5F5F5F5F5F5F5F5F5F5F5F5E2F5F5F5E2E2EFF5F5F5F5F5F5F5F5F5F5F5F5F5F5F5F5F5F5F5F5E2F5F5F5F5F5F5F5F5F5F5F5F5F5F5F5F5F5F5F5F5F5F5F5F5F5F5F5F5F5F5F5F5F5F5F5F5F5F5F5F5F5F5F5F5F5F5F5F5F5F5F5F5F5F5F5F5F5F5F5F5F5
310
F5F5F5F5F5F5F5F5F5F5F5F5F5F5F5F5F5F5F5F5F5F5F5F5F5F5F5F5F5F5F5F5F5F5F5F5F5F5F5F5F5F5F5F5F5F5F5F5F5F5F5F5F5F5F5F5F5F5F5F5F5F5F5F5F5F5F5F5F5F5F5F5F5F5E2F5F5F5F5F5F5F5F5F5F5F5F5F5F5F5F5F5F5F5F5E2E2EFF5F5F5F5F5F5F5F5F5F5F5F5F5F5F5F5F5F5F5F5E2F5F5F5F5F5F5F5F5
310
F5F5F5F5F5F5F5F5F5F5F5F5F5F5F5F5F5F5F5F5F5F5F5F5F5F5F5F5F5F5F5F5F5F5F5F5F5F5F5F5F5F5F5F5F5F5F5F5F5F5F5F5F5F5F5F5F5F5F5F5F5F5F5F5F5F5F5F5F5F5F5F5F5F5F5F5F5F5F5F5F5F5F5F5F5F5F5F5F5F5F5F5F5F5F5F5F5F5F5F5F5F5F5F5F5F5F5F5F5F5F5F5F5F5F5F5F5F5F5F5F5F5F5F5F5F5F5
310
E2F5F5F5F5F5F5F5F5F5F5F5F5F5F5F5F5F5F5F5F5E2E2EFF5F5F5F5F5F5F5F5F5F5F5F5F5F5F5F5F5F5F5F5E2F5F5F5F5F5F5F5F5F5F5F5F5F5F5F5F5F5F5F5F5F5F5F5F5F5F5F5F5F5F5F5F5F5F5F5F5F5F5F5F5F5F5F5F5F5F5F5F5F5F5F5F5F5F5F5F5F5F5F5F5F5F5F5F5F5F5F5F5F5F5F5F5F5F5F5F5F5F5F5F5F5F5
310
F5F5F5F5F5F5F5F5F5F5F5F5F5F5F5F5F5F5F5F5F5F5F5F5F5F5F5F5F5F5F5F5F5F5F5F5F5F5F5F5F5F5F5F5F5F5F5F5F5F5F5F5F5E2F5F5F5F5F5F5F5F5F5F5F5F5F5F5F5F5F5F5F5F5E2E2EFF5F5F5F5F5F5F5F5F5F5F5F5F5F5F5F5F5F5F5F5E2F5F5F5F5F5F5F5F5F5F5F5F5F5F5F5F5F5F5F5F5F5F5F5F5F5F5F5F5F5
310
F5F5F5F5F5F5F5F5F5F5F5F5F5F5F5F5F5F5F5F5F5F5F5F5F5F5F5F5F5F5F5F5F5F5F5F5F5F5F5F5F5F5F5F5F5F5F5F5F5F5F5F5F5F5F5F5F5F5F5F5F5F5F5F5F5F5F5F5F5F5F5F5F5F5F5F5F5F5F5F5F5F5F5F5F5F5F5F5F5F5F5F5F5F5F5F5F5F5F5F5F5F5F5F5F5F5E2F5F5F5F5F5F5F5F5F5F5F5F5F5F5F5F5F5F5F5F5
310
E2E2EFF5F5F5F5F5F5F5F5F5F5F5F5F5F5F5F5F5F5F5F5E2F5F5F5F5F5F5F5F5F5F5F5F5F5F5F5F5F5F5F5F5F5F5F5F5F5F5F5F5F5F5F5F5F5F5F5F5F5F5F5F5F5F5F5F5F5F5F5F5F5F5F5F5F5F5F5F5F5F5F5F5F5F5F5F5F5F5F5F5F5F5F5F5F5F5F5F5F5F5F5F5F5F5F5F5F5F5F5F5F5F5F5F5F5F5F5F5F5F5F5F5F5F5F5
310
F5F5F5F5F5F5F5F5F5F5F5F5F5F5F5F5F5F5F5F5F5F5F5F5F5F5F5F5F5F5F5F5E2F5F5F5F5F5F5F5F5F5F5F5F5F5F5F5F5F5F5F5F5E2E2EFF5F5F5F5F5F5F5F5F5F5F5F5F5F5F5F5F5F5F5F5E2F5F5F5F5F5F5F5F5F5F5F5F5F5F5F5F5F5F5F5F5F5F5F5F5F5F5F5F5F5F5F5F5F5F5F5F5F5F5F5F5F5F5F5F5F5F5F5F5F5F5
310
F5F5F5F5F5F5F5F5F5F5F5F5F5F5F5F5F5F5F5F5F5F5F5F5F5F5F5F5F5F5F5F5F5F5F5F5F5F5F5F5F5F5F5F5F5F5F5F5F5F5F5F5F5F5F5F5F5F5F5F5F5F5F5F5F5F5F5F5F5F5F5F5F5F5F5F5F5F5F5F5F5F5F5F5F5E2F5F5F5F5F5F5F5F5F5F5F5F5F5F5F5F5F5F5F5F5E2E2EFF5F5F5F5F5F5F5F5F5F5F5F5F5F5F5F5F5F5
310
F5F5E2F5F5F5F5F5F5F5F5F5F5F5F5F5F5F5F5F5F5F5F5F5F5F5F5F5F5F5F5F5F5F5F5F5F5F5F5F5F5F5F5F5F5F5F5F5F5F5F5F5F5F5F5F5F5F5F5F5F5F5F5F5F5F5F5F5F5F5F5F5F5F5F5F5F5F5F5F5F5F5F5F5F5F5F5F5F5F5F5F5F5F5F5F5F5F5F5F5F5F5F5F5F5F5F5F5F5F5F5F5F5F5F5F5F5F5F5F5F5F5F5F5F5F5F5
310
F5F5F5F5F5F5F5F5F5F5F5E2F5F5F5F5F5F5F5F5F5F5F5F5F5F5F5F5F5F5F5F5E2E2EFF5F5F5F5F5F5F5F5F5F5F5F5F5F5F5F5F5F5F5F5E2F5F5F5F5F5F5F5F5F5F5F5F5F5F5F5F5F5F5F5F5F5F5F5F5F5F5F5F5F5F5F5F5F5F5F5F5F5F5F5F5F5F5F5F5F5F5F5F5F5F5F5F5F5F5F5F5F5F5F5F5F5F5F5F5F5F5F5F5F5F5F5
310
F5F5F5F5F5F5F5F5F5F5F5F5F5F5F5F5F5F5F5F5F5F5F5F5F5F5F5F5F5F5F5F5F5F5F5F5F5F5F5F5F5F5F5F5F5F5F5F5F5F5F5F5F5F5F5F5F5F5F5F5F5F5F5F5E2F5F5F5F5F5F5F5F5F5F5F5F5F5F5F5F5F5F5F5F5E2E2EFF5F5F5F5F5F5F5F5F5F5F5F5F5F5F5F5F5F5F5F5E2F5F5F5F5F5F5F5F5F5F5F5F5F5F5F5F5F5F5
310
F5F5F5F5F5F5F5F5F5F5F5F5F5F5F5F5F5F5F5F5F5F5F5F5F5F5F5F5F5F5F5F5F5F5F5F5F5F5F5F5F5F5F5F5F5F5F5F5F5F5F5F5F5F5F5F5F5F5F5F5F5F5F5F5F5F5F5F5F5F5F5F5F5F5F5F5F5F5F5F5F5F5F5F5F5F5F5F5F5F5F5F5F5F5F5F5F5F5F5F5F5F5F5F5F5F5F5F5F5F5F5F5F5F5F5F5F5E2F5F5F5F5F5F5F5F5F5
310
F5F5F5F5F5F5F5F5F5F5F5E2E2EFF5F5F5E2F5F5F5F5F5F5F5F5F5F5F5F5F5F5F5F5E2F5F5F5F5F5F5F5F5F5F5F5F5F5F5F5F5F5F5F5F5F5F5F5F5F5F5F5F5F5F5F5F5F5F5F5F5F5F5F5F5F5F5F5F5F5F5F5F5F5F5F5F5F5F5F5F5F5F5F5F5F5F5F5F5F5F5F5F5F5F5F5F5F5F5F5F5F5F5F5F5F5F5F5F5F5F5F5F5F5F5F5F5
310
F5F5F5F5F5F5F5F5F5F5F5F5F5F5F5F5F5F5F5F5F5F5F5F5F5F5F5F5F5F5F5F5F5F5F5F5F5F5F5F5F5F5F5E2F5F5F5F5F5F5F5F5F5F5F5F5F5F5F5F5E2F5F5F5E2E2EFF5F5F5E2F5F5F5F5F5F5F5F5F5F5F5F5F5F5F5F5E2F5F5F5F5F5F5F5F5F5F5F5F5F5F5F5F5F5F5F5F5F5F5F5F5F5F5F5F5F5F5F5F5F5F5F5F5F5F5F5
310
F5F5F5F5F5F5F5F5F5F5F5F5F5F5F5F5F5F5F5F5F5F5F5F5F5F5F5F5F5F5F5F5F5F5F5F5F5F5F5F5F5F5F5F5F5F5F5F5F5F5F5F5F5F5F5F5F5F5F5F5F5F5F5F5F5F5F5F5F5F5F5F5F5F5F5F5F5F5F5F5F5F5F5F5F5F5F5F5F5F5F5F5F5F5F5F5E2F5F5F5F5F5F5F5F5F5F5F5F5F5F5F5F5E2F5F5F5E2E2EFF5F5F5E2F5F5F5
310
F5F5F5F5F5F5F5F5F5F5F5F5F5E2F5F5F5F5F5F5F5F5F5F5F5F5F5F5F5F5F5F5F5F5F5F5F5F5F5F5F5F5F5F5F5F5F5F5F5F5F5F5F5F5F5F5F5F5F5F5F5F5F5F5F5F5F5F5F5F5F5F5F5F5F5F5F5F5F5F5F5F5F5F5F5F5F5F5F5F5F5F5F5F5F5F5F5F5F5F5F5F5F5F5F5F5F5F5F5F5F5F5F5F5F5F5F5F5F5F5F5F5F5F5F5F5F5
310
F5F5F5F5F5F5F5F5F5F5F5F5F5F5F5F5F5F5F5F5F5F5E2F5F5F5F5F5F5F5F5F5F5F5F5F5F5F5F5E2F5F5F5E2E2EFF5F5F5E2F5F5F5F5F5F5F5F5F5F5F5F5F5F5F5F5E2F5F5F5F5F5F5F5F5F5F5F5F5F5F5F5F5F5F5F5F5F5F5F5F5F5F5F5F5F5F5F5F5F5F5F5F5F5F5F5F5F5F5F5F5F5F5F5F5F5F5F5F5F5F5F5F5F5F5F5F5
310
F5F5F5F5F5F5F5F5F5F5F5F5F5F5F5F5F5F5F5F5F5F5F5F5F5F5F5F5F5F5F5F5F5F5F5F5F5F5F5F5F5F5F5F5F5F5F5F5F5F5F5F5F5F5F5F5F5F5F5F5F5F5F5F5F5F5F5F5F5F5F5F5F5F5F5E2F5F5F5F5F5F5F5F5F5F5F5F5F5F5F5F5E2F5F5F5E2E2EFF5F5F5E2F5F5F5F5F5F5F5F5F5F5F5F5F5F5F5F5E2F5F5F5F5F5F5F5
310
F5F5F5F5F5F5F5F5F5F5F5F5F5F5F5F5F5F5F5F5F5F5F5F5F5F5F5F5F5F5F5F5F5F5F5F5F5F5F5F5F5F5F5F5F5F5F5F5F5F5F5F5F5F5F5F5F5F5F5F5F5F5F5F5F5F5F5F5F5F5F5F5F5F5F5F5F5F5F5F5F5F5F5F5F5F5F5F5F5F5F5F5F5F5F5F5F5F5F5F5F5F5F5F5F5F5F5F5F5F5F5F5F5F5F5F5F5F5F5F5F5F5F5F5F5F5F5
310
F5E2F5F5F5F5F5F5F5F5F5F5F5F5F5F5F5F5E2F5F5F5E2E2EFF5F5F5E2F5F5F5F5F5F5F5F5F5F5F5F5F5F5F5F5E2F5F5F5F5F5F5F5F5F5F5F5F5F5F5F5F5F5F5F5F5F5F5F5F5F5F5F5F5F5F5F5F5F5F5F5F5F5F5F5F5F5F5F5F5F5F5F5F5F5F5F5F5F5F5F5F5F5F5F5F5F5F5F5F5F5F5F5F5F5F5F5F5F5F5F5F5F5F5F5F5F5
310
F5F5F5F5F5F5F5F5F5F5F5F5F5F5F5F5F5F5F5F5F5F5F5F5F5F5F5F5F5F5F5F5F5F5F5F5F5F5F5F5F5F5F5F5F5F5F5F5F5F5F5F5F5F5E2F5F5F5F5F5F5F5F5F5F5F5F5F5F5F5F5E2F5F5F5E2E2EFF5F5F5E2F5F5F5F5F5F5F5F5F5F5F5F5F5F5F5F5E2F5F5F5F5F5F5F5F5F5F5F5F5F5F5F5F5F5F5F5F5F5F5F5F5F5F5F5F5
310
F5F5F5F5F5F5F5F5F5F5F5F5F5F5F5F5F5F5F5F5F5F5F5F5F5F5F5F5F5F5F5F5F5F5F5F5F5F5F5F5F5F5F5F5F5F5F5F5F5F5F5F5F5F5F5F5F5F5F5F5F5F5F5F5F5F5F5F5F5F5F5F5F5F5F5F5F5F5F5F5F5F5F5F5F5F5F5F5F5F5F5F5F5F5F5F5F5F5F5F5F5F5F5F5F5F5F5E2F5F5F5F5F5F5F5F5F5F5F5F5F5F5F5F5E2F5F5
310
F5E2E2EFF5F5F5E2F5F5F5F5F5F5F5F5F5F5F5F5F5F5F5F5E2F5F5F5F5F5F5F5F5F5F5F5F5F5F5F5F5F5F5F5F5F5F5F5F5F5F5F5F5F5F5F5F5F5F5F5F5F5F5F5F5F5F5F5F5F5F5F5F5F5F5F5F5F5F5F5F5F5F5F5F5F5F5F5F5F5F5F5F5F5F5F5F5F5F5F5F5F5F5F5F5F5F5F5F5F5F5F5F5F5F5F5F5F5F5F5F5F5F5F5F5F5F5
310
F5F5F5F5F5F5F5F5F5F5F5F5F5F5F5F5F5F5F5F5F5F5F5F5F5F5F5F5F5F5F5F5F5E2F5F5F5F5F5F5F5F5F5F5F5F5F5F5F5F5E2F5F5F5E2E2EFF5F5F5E2F5F5F5F5F5F5F5F5F5F5F5F5F5F5F5F5E2F5F5F5F5F5F5F5F5F5F5F5F5F5F5F5F5F5F5F5F5F5F5F5F5F5F5F5F5F5F5F5F5F5F5F5F5F5F5F5F5F5F5F5F5F5F5F5F5F5
310
F5F5F5F5F5F5F5F5F5F5F5F5F5F5F5F5F5F5F5F5F5F5F5F5F5F5F5F5F5F5F5F5F5F5F5F5F5F5F5F5F5F5F5F5F5F5F5F5F5F5F5F5F5F5F5F5F5F5F5F5F5F5F5F5F5F5F5F5F5F5F5F5F5F5F5F5F5F5F5F5F5F5F5F5F5F5E2F5F5F5F5F5F5F5F5F5F5F5F5F5F5F5F5E2F5F5F5E2E2EFF5F5F5E2F5F5F5F5F5F5F5F5F5F5F5F5F5
310
F5F5F5E2F5F5F5F5F5F5F5F5F5F5F5F5F5F5F5F5F5F5F5F5F5F5F5F5F5F5F5F5F5F5F5F5F5F5F5F5F5F5F5F5F5F5F5F5F5F5F5F5F5F5F5F5F5F5F5F5F5F5F5F5F5F5F5F5F5F5F5F5F5F5F5F5F5F5F5F5F5F5F5F5F5F5F5F5F5F5F5F5F5F5F5F5F5F5F5F5F5F5F5F5F5F5F5F5F5F5F5F5F5F5F5F5F5F5F5F5F5F5F5F5F5F5F5
310
F5F5F5F5F5F5F5F5F5F5F5F5E2F5F5F5F5F5F5F5F5F5F5F5F5F5F5F5F5E2F5F5F5E2E2EFF5F5F5E2F5F5F5F5F5F5F5F5F5F5F5F5F5F5F5F5E2F5F5F5F5F5F5F5F5F5F5F5F5F5F5F5F5F5F5F5F5F5F5F5F5F5F5F5F5F5F5F5F5F5F5F5F5F5F5F5F5F5F5F5F5F5F5F5F5F5F5F5F5F5F5F5F5F5F5F5F5F5F5F5F5F5F5F5F5F5F5
310
F5F5F5F5F5F5F5F5F5F5F5F5F5F5F5F5F5F5F5F5F5F5F5F5F5F5F5F5F5F5F5F5F5F5F5F5F5F5F5F5F5F5F5F5F5F5F5F5F5F5F5F5F5F5F5F5F5F5F5F5F5F5F5F5F5E2F5F5F5F5F5F5F5F5F5F5F5F5F5F5F5F5E2F5F5F5E2E2EFF5F5F5E2F5F5F5F5F5F5F5F5F5F5F5F5F5F5F5F5E2F5F5F5F5F5F5F5F5F5F5F5F5F5F5F5F5F5
310
F5F5F5F5F5F5F5F5F5F5F5F5F5F5F5F5F5F5F5F5F5F5F5F5F5F5F5F5F5F5F5F5F5F5F5F5F5F5F5F5F5F5F5F5F5F5F5F5F5F5F5F5F5F5F5F5F5F5F5F5F5F5F5F5F5F5F5F5F5F5F5F5F5F5F5F5F5F5F5F5F5F5F5F5F5F5F5F5F5F5F5F5F5F5F5F5F5F5F5F5F5F5F5F5F5F5F5F5F5F5F5F5F5F5F5F5F5F5E2F5F5F5F5F5F5F5F5
310
F5F5F5F5F5F5F5F5E2F5F5F5E2E2EFF5F5F5E2F5F5F5F5F5F5F5F5F5F5F5F5F5F5F5F5E2F5F5F5F5F5F5F5F5F5F5F5F5F5F5F5F5F5F5F5F5F5F5F5F5F5F5F5F5F5F5F5F5F5F5F5F5F5F5F5F5F5F5F5F5F5F5F5F5F5F5F5F5F5F5F5F5F5F5F5F5F5F5F5F5F5F5F5F5F5F5F5F5F5F5F5F5F5F5F5F5F5F5F5F5F5F5F5F5F5F5F5
310
F5F5F5F5F5F5F5F5F5F5F5F5F5F5F5F5F5F5F5F5F5F5F5F5F5F5F5F5F5F5F5F5F5F5F5F5F5F5F5F5F5F5F5F5E2F5F5F5F5F5F5F5F5F5F5F5F5F5F5F5F5E2F5F5F5E2E2EFF5F5F5E2F5F5F5F5F5F5F5F5F5F5F5F5F5F5F5F5E2F5F5F5F5F5F5F5F5F5F5F5F5F5F5F5F5F5F5F5F5F5F5F5F5F5F5F5F5F5F5F5F5F5F5F5F5F5F5
310
F5F5F5F5F5F5F5F5F5F5F5F5F5F5F5F5F5F5F5F5F5F5F5F5F5F5F5F5F5F5F5F5F5F5F5F5F5F5F5F5F5F5F5F5F5F5F5F5F5F5F5F5F5F5F5F5F5F5F5F5F5F5F5F5F5F5F5F5F5F5F5F5F5F5F5F5F5F5F5F5F5F5F5F5F5F5F5F5F5F5F5F5F5F5F5F5F5E2F5F5F5F5F5F5F5F5F5F5F5F5F5F5F5F5E2F5F5F5E2E2EFF5F5F5E2F5F5
310
F5F5F5F5F5F5F5F5F5F5F5F5F5F5E2F5F5F5F5F5F5F5F5F5F5F5F5F5F5F5F5F5F5F5F5F5F5F5F5F5F5F5F5F5F5F5F5F5F5F5F5F5F5F5F5F5F5F5F5F5F5F5F5F5F5F5F5F5F5F5F5F5F5F5F5F5F5F5F5F5F5F5F5F5F5F5F5F5F5F5F5F5F5F5F5F5F5F5F5F5F5F5F5F5F5F5F5F5F5F5F5F5F5F5F5F5F5F5F5F5F5F5F5F5F5F5F5
310
F5F5F5F5F5F5F5F5F5F5F5F5F5F5F5F5F5F5F5F5F5F5F5E2F5F5F5F5F5F5F5F5F5F5F5F5F5F5F5F5E2F5F5F5E2E2EFF5F5F5E2F5F5F5F5F5F5F5F5F5F5F5F5F5F5F5F5E2F5F5F5F5F5F5F5F5F5F5F5F5F5F5F5F5F5F5F5F5F5F5F5F5F5F5F5F5F5F5F5F5F5F5F5F5F5F5F5F5F5F5F5F5F5F5F5F5F5F5F5F5F5F5F5F5F5F5F5
310
F5F5F5F5F5F5F5F5F5F5F5F5F5F5F5F5F5F5F5F5F5F5F5F5F5F5F5F5F5F5F5F5F5F5F5F5F5F5F5F5F5F5F5F5F5F5F5F5F5F5F5F5F5F5F5F5F5F5F5F5F5F5F5F5F5F5F5F5F5F5F5F5F5F5F5F5E2F5F5F5F5F5F5F5F5F5F5F5F5F5F5F5F5E2F5F5F5E2E2EFF5F5F5E2F5F5F5F5F5F5F5F5F5F5F5F5F5F5F5F5E2F5F5F5F5F5F5
310
F5F5F5F5F5F5F5F5F5F5F5F5F5F5F5F5F5F5F5F5F5F5F5F5F5F5F5F5F5F5F5F5F5F5F5F5F5F5F5F5F5F5F5F5F5F5F5F5F5F5F5F5F5F5F5F5F5F5F5F5F5F5F5F5F5F5F5F5F5F5F5F5F5F5F5F5F5F5F5F5F5F5F5F5F5F5F5F5F5F5F5F5F5F5F5F5F5F5F5F5F5F5F5F5F5F5F5F5F5F5F5F5F5F5F5F5F5F5F5F5F5F5F5F5F5F5F5
310
F5F5E2F5F5F5F5F5F5F5F5F5F5F5F5F5F5F5F5E2F5F5F5E2E2EFF5F5F5F5F5F5F5F5F5F5F5F5F5F5F5F5F5F5F5F5E2F5F5F5F5F5F5F5F5F5F5F5F5F5F5F5F5F5F5F5F5F5F5F5F5F5F5F5F5F5F5F5F5F5F5F5F5F5F5F5F5F5F5F5F5F5F5F5F5F5F5F5F5F5F5F5F5F5F5F5F5F5F5F5F5F5F5F5F5F5F5F5F5F5F5F5F5F5F5F5F5
310
F5F5F5F5F5F5F5F5F5F5F5F5F5F5F5F5F5F5F5F5F5F5F5F5F5F5F5F5F5F5F5F5F5F5F5F5F5F5F5F5F5F5F5F5F5F5F5F5F5F5F5F5F5F5F5E2F5F5F5F5F5F5F5F5F5F5F5F5F5F5F5F5F5F5F5F5E2E2EFF5F5F5F5F5F5F5F5F5F5F5F5F5F5F5F5F5F5F5F5E2F5F5F5F5F5F5F5F5F5F5F5F5F5F5F5F5F5F5F5F5F5F5F5F5F5F5F5
310
F5F5F5F5F5F5F5F5F5F5F5F5F5F5F5F5F5F5F5F5F5F5F5F5F5F5F5F5F5F5F5F5F5F5F5F5F5F5F5F5F5F5F5F5F5F5F5F5F5F5F5F5F5F5F5F5F5F5F5F5F5F5F5F5F5F5F5F5F5F5F5F5F5F5F5F5F5F5F5F5F5F5F5F5F5F5F5F5F5F5F5F5F5F5F5F5F5F5F5F5F5F5F5F5F5F5F5F5E2F5F5F5F5F5F5F5F5F5F5F5F5F5F5F5F5F5F5
310
F5F5E2E2EFF5F5F5F5F5F5F5F5F5F5F5F5F5F5F5F5F5F5F5F5E2F5F5F5F5F5F5F5F5F5F5F5F5F5F5F5F5F5F5F5F5F5F5F5F5F5F5F5F5F5F5F5F5F5F5F5F5F5F5F5F5F5F5F5F5F5F5F5F5F5F5F5F5F5F5F5F5F5F5F5F5F5F5F5F5F5F5F5F5F5F5F5F5F5F5F5F5F5F5F5F5F5F5F5F5F5F5F5F5F5F5F5F5F5F5F5F5F5F5F5F5F5
310
F5F5F5F5F5F5F5F5F5F5F5F5F5F5F5F5F5F5F5F5F5F5F5F5F5F5F5F5F5F5F5F5F5F5E2F5F5F5F5F5F5F5F5F5F5F5F5F5F5F5F5F5F5F5F5E2E2EFF5F5F5F5F5F5F5F5F5F5F5F5F5F5F5F5F5F5F5F5E2F5F5F5F5F5F5F5F5F5F5F5F5F5F5F5F5F5F5F5F5F5F5F5F5F5F5F5F5F5F5F5F5F5F5F5F5F5F5F5F5F5F5F5F5F5F5F5F5
310
F5F5F5F5F5F5F5F5F5F5F5F5F5F5F5F5F5F5F5F5F5F5F5F5F5F5F5F5F5F5F5F5F5F5F5F5F5F5F5F5F5F5F5F5F5F5F5F5F5F5F5F5F5F5F5F5F5F5F5F5F5F5F5F5F5F5F5F5F5F5F5F5F5F5F5F5F5F5F5F5F5F5F5F5F5F5F5E2F5F5F5F5F5F5F5F5F5F5F5F5F5F5F5F5F5F5F5F5E2E2EFF5F5F5F5F5F5F5F5F5F5F5F5F5F5F5F5
310
F5F5F5F5E2E2E2E2E2E2E2E2E2E2E2E2E2E2E2E2E2E2E2E2E2E2E2E2E2E2E2E2E2E2E2E2E2E2E2E2E2E2E2E2E2E2E2E2E2E2E2E2E2E2E2E2E2E2E2E2E2E2E2E2E2E2E2E2E2E2E2E2E2E2E2E2E2E2E2E2E2E2E2E2E2E2E2E2E2E2E2E2E2E2E2E2E2E2E2E2E2E2E2E2E2E2E2E2E2E2E2E2E2E2E2E2E2E2E2E2E2E2E2E2E2E2E2
310
E2E2E2E2E2E2E2E2E2E2E2E2E2E2F5F5F5F5F5F5F5F5F5F5F5F5F5F5F5F5F5F5F5F5E2E2EFF5F5F5F5F5F5F5F5F5F5F5F5F5F5F5F5F5F5F5F5F5F5F5F5F5F5F5F5F5F5F5F5F5F5F5F5F5F5F5F5F5F5F5F5F5F5F5F5F5F5F5F5F5F5F5F5F5F5F5F5F5F5F5F5F5F5F5F5F5F5F5F5F5F5F5F5F5F5F5F5F5F5F5F5F5F5F5F5F5F5
310
F5F5F5F5F5F5F5F5F5F5F5F5F5F5F5F5F5F5F5F5F5F5F5F5F5F5F5F5F5F5F5F5F5F5F5F5F5F5F5F5F5F5F5F5F5F5F5F5F5F5F5F5F5F5F5F5F5F5F5F5F5F5F5F5F5F5F5F5F5F5F5F5F5F5F5F5F5F5F5F5F5F5F5F5F5F5F5E2E2EFF5F5F5F5F5F5F5F5F5F5F5F5F5F5F5F5F5F5F5F5F5F5F5F5F5F5F5F5F5F5F5F5F5F5F5F5F5
310
F5F5F5F5F5F5F5F5F5F5F5F5F5F5F5F5F5F5F5F5F5F5F5F5F5F5F5F5F5F5F5F5F5F5F5F5F5F5F5F5F5F5F5F5F5F5F5F5F5F5F5F5F5F5F5F5F5F5F5F5F5F5F5F5F5F5F5F5F5F5F5F5F5F5F5F5F5F5F5F5F5F5F5F5F5F5F5F5F5F5F5F5F5F5F5F5F5F5F5F5F5F5F5F5F5F5F5F5F5F5F5F5F5F5F5F5F5F5F5F5F5F5F5F5F5F5F5
310
F5F5F5F5F5F5F5F5F5F5F5F5F5E2E2EFF5F5F5F5F5F5F5F5F5F5F5F5F5F5F5F5F5F5F5F5F5F5F5F5F5F5F5F5F5F5F5F5F5F5F5F5F5F5F5F5F5F5F5F5F5F5F5F5F5F5F5F5F5F5F5F5F5F5F5F5F5F5F5F5F5F5F5F5F5F5F5F5F5F5F5F5F5F5F5F5F5F5F5F5F5F5F5F5F5F5F5F5F5F5F5F5F5F5F5F5F5F5F5F5F5F5F5F5F5F5F5
310
F5F5F5F5F5F5F5F5F5F5F5F5F5F5F5F5F5F5F5F5F5F5F5F5F5F5F5F5F5F5F5F5F5F5F5F5F5F5F5F5F5F5F5F5F5F5F5F5F5F5F5F5F5F5F5F5F5F5F5F5F5F5F5F5F5F5E2E2EFF5F5F5F5F5F5F5F5F5F5F5F5F5F5F5F5F5F5F5F5F5F5F5F5F5F5F5F5F5F5F5F5F5F5F5F5F5F5F5F5F5F5F5F5F5F5F5F5F5F5F5F5F5F5F5F5F5F5
310
F5F5F5F5F5F5F5F5F5F5F5F5F5F5F5F5F5F5F5F5F5F5F5F5F5F5F5F5F5F5F5F5F5F5F5F5F5F5F5F5F5F5F5F5F5F5F5F5F5F5F5F5F5F5F5F5F5F5F5F5F5F5F5F5F5F5F5F5F5F5F5F5F5F5F5F5F5F5F5F5F5F5F5F5F5F5F5F5F5F5F5F5F5F5F5F5F5F5F5F5F5F5F5F5F5F5F5F5F5F5F5F5F5F5F5F5F5F5F5E2E2EFF5F5F5E2F5
310
F5F5F5F5F5F5F5F5F5F5F5F5F5F5F5F5F5F5F5F5F5F5F5F5F5F5F5F5F5F5F5F5F5F5F5F5F5F5F5F5F5F5F5F5F5F5F5F5F5F5F5F5F5F5F5F5F5F5F5F5F5F5F5F5F5F5F5F5F5F5F5F5F5F5F5F5F5F5F5F5F5F5F5F5F5F5F5F5F5F5F5F5F5F5F5F5F5F5F5F5F5F5F5F5F5F5F5F5F5F5F5F5F5F5F5F5F5F5F5F5F5F5F5F5F5F5F5
310
F5F5F5F5F5F5F5F5F5F5F5F5F5F5F5F5F5F5F5F5F5F5F5F5F5F5F5F5F5F5F5F5F5F5F5F5F5F5F5F5F5E2F5F5F5E2E2EFF5F5F5E2F5F5F5F5F5F5F5F5F5F5F5F5F5F5F5F5F5F5F5F5F5F5F5F5F5F5F5F5F5F5F5F5F5F5F5F5F5F5F5F5F5F5F5F5F5F5F5F5F5F5F5F5F5F5F5F5F5F5F5F5F5F5F5F5F5F5F5F5F5F5F5F5F5F5F5
310
F5F5F5F5F5F5F5F5F5F5F5F5F5F5F5F5F5F5F5F5F5F5F5F5F5F5F5F5F5F5F5F5F5F5F5F5F5F5F5F5F5F5F5F5F5F5F5F5F5F5F5F5F5F5F5F5F5F5F5F5F5F5F5F5F5F5F5F5F5F5F5F5F5F5F5F5F5F5F5F5F5F5F5F5F5F5F5F5F5F5F5F5F5F5E2F5F5F5E2E2EFF5F5F5E2F5F5F5F5F5F5F5F5F5F5F5F5F5F5F5F5F5F5F5F5F5F5
310
F5F5F5F5F5F5F5F5F5F5F5F5F5F5F5F5F5F5F5F5F5F5F5F5F5F5F5F5F5F5F5F5F5F5F5F5F5F5F5F5F5F5F5F5F5F5F5F5F5F5F5F5F5F5F5F5F5F5F5F5F5F5F5F5F5F5F5F5F5F5F5F5F5F5F5F5F5F5F5F5F5F5F5F5F5F5F5F5F5F5F5F5F5F5F5F5F5F5F5F5F5F5F5F5F5F5F5F5F5F5F5F5F5F5F5F5F5F5F5F5F5F5F5F5F5F5F5
310
F5F5F5F5F5F5F5F5F5F5F5F5F5F5F5F5F5F5F5F5E2F5F5F5E2E2EFF5F5F5E2F5F5F5F5F5F5F5F5F5F5F5F5F5F5F5F5F5F5F5F5F5F5F5F5F5F5F5F5F5F5F5F5F5F5F5F5F5F5F5F5F5F5F5F5F5F5F5F5F5F5F5F5F5F5F5F5F5F5F5F5F5F5F5F5F5F5F5F5F5F5F5F5F5F5F5F5F5F5F5F5F5F5F5F5F5F5F5F5F5F5F5F5F5F5F5F5
310
F5F5F5F5F5F5F5F5F5F5F5F5F5F5F5F5F5F5F5F5F5F5F5F5F5F5F5F5F5F5F5F5F5F5F5F5F5F5F5F5F5F5F5F5F5F5F5F5F5F5F5F5F5F5F5F5F5F5F5F5F5F5F5F5F5F5F5F5F5F5F5F5F5E2F5F5F5E2E2EFF5F5F5E2F5F5F5F5F5F5F5F5F5F5F5F5F5F5F5F5F5F5F5F5F5F5F5F5F5F5F5F5F5F5F5F5F5F5F5F5F5F5F5F5F5F5F5
310
F5F5F5F5F5F5F5F5F5F5F5F5F5F5F5F5F5F5F5F5F5F5F5F5F5F5F5F5F5F5F5F5F5F5F5F5F5F5F5F5F5F5F5F5F5F5F5F5F5F5F5F5F5F5F5F5F5F5F5F5F5F5F5F5F5F5F5F5F5F5F5F5F5F5F5F5F5F5F5F5F5F5F5F5F5F5F5F5F5F5F5F5F5F5F5F5F5F5F5F5F5F5F5F5F5F5F5F5F5F5F5F5F5F5F5F5F5F5F5F5F5F5F5F5F5F5E2
310
F5F5F5E2E2EFF5F5F5E2F5F5F5F5F5F5F5F5F5F5F5F5F5F5F5F5F5F5F5F5F5F5F5F5F5F5F5F5F5F5F5F5F5F5F5F5F5F5F5F5F5F5F5F5F5F5F5F5F5F5F5F5F5F5F5F5F5F5F5F5F5F5F5F5F5F5F5F5F5F5F5F5F5F5F5F5F5F5F5F5F5F5F5F5F5F5F5F5F5F5F5F5F5F5F5F5F5F5F5F5F5F5F5F5F5F5F5F5F5F5F5F5F5F5F5F5F5
310
F5F5F5F5F5F5F5F5F5F5F5F5F5F5F5F5F5F5F5F5F5F5F5F5F5F5F5F5F5F5F5F5F5F5F5F5F5F5F5F5F5F5F5F5F5F5F5F5F5F5F5F5E2F5F5F5E2E2EFF5F5F5E2F5F5F5F5F5F5F5F5F5F5F5F5F5F5F5F5F5F5F5F5F5F5F5F5F5F5F5F5F5F5F5F5F5F5F5F5F5F5F5F5F5F5F5F5F5F5F5F5F5F5F5F5F5F5F5F5F5F5F5F5F5F5F5F5
310
F5F5F5F5F5F5F5F5F5F5F5F5F5F5F5F5F5F5F5F5F5F5F5F5F5F5F5F5F5F5F5F5F5F5F5F5F5F5F5F5F5F5F5F5F5F5F5F5F5F5F5F5F5F5F5F5F5F5F5F5F5F5F5F5F5F5F5F5F5F5F5F5F5F5F5F5F5F5F5F5F5F5F5F5F5F5F5F5F5F5F5F5F5F5F5F5F5F5F5F5F5F5F5F5F5E2F5F5F5E2E2EFF5F5F5E2F5F5F5F5F5F5F5F5F5F5F5
310
F5F5F5F5F5F5F5F5F5F5F5F5F5F5F5F5F5F5F5F5F5F5F5F5F5F5F5F5F5F5F5F5F5F5F5F5F5F5F5F5F5F5F5F5F5F5F5F5F5F5F5F5F5F5F5F5F5F5F5F5F5F5F5F5F5F5F5F5F5F5F5F5F5F5F5F5F5F5F5F5F5F5F5F5F5F5F5F5F5F5F5F5F5F5F5F5F5F5F5F5F5F5F5F5F5F5F5F5F5F5F5F5F5F5F5F5F5F5F5F5F5F5F5F5F5F5F5
310
F5F5F5F5F5F5F5F5F5F5F5F5F5F5F5F5F5F5F5F5F5F5F5F5F5F5F5F5F5F5F5E2F5F5F5E2E2EFF5F5F5E2E2E2E2E2E2E2E2F5F5F5F5F5F5F5F5F5E2E2E2E2E2E2E2E2E2E2E2E2E2E2E2E2F5F5F5F5F5F5F5F5E2E2E2E2E2E2E2E2E2E2E2E2E2E2E2E2F5F5F5F5F5F5F5F5F5E2E2E2E2E2E2E2E2E2E2E2E2E2E2E2F5F5F5F5F5
310
F5F5F5F5E2E2E2E2E2E2E2E2E2E2E2E2E2E2E2F5F5F5F5F5F5F5F5F5E2E2E2E2E2E2E2E2E2E2E2E2E2E2E2E2F5F5F5F5F5F5F5F5E2E2E2E2E2E2E2E2E2E2E2E2E2E2E2E2F5F5F5F5F5F5F5F5F5E2E2E2E2E2E2E2E2F5F5F5E2E2EFF5F5F5F5F5F5F5F5F5F5F5F5F5F5F5F5F5F5F5F5F5F5F5F5F5F5F5F5F5F5F5F5F5F5F5F5
310
F5F5F5F5F5F5F5F5F5F5F5F5F5F5F5F5F5F5F5F5F5F5F5F5F5F5F5F5F5F5F5F5F5F5F5F5F5F5F5F5F5F5F5F5F5F5F5F5F5F5F5F5F5F5F5F5F5F5F5F5F5F5F5F5F5F5F5F5F5F5F5F5F5F5F5F5F5F5F5F5F5F5F5F5F5F5F5F5F5F5F5F5F5F5F5F5F5F5F5F5F5F5F5F5F5F5F5F5F5F5F5F5F5F5F5F5F5F5F5F5F5F5F5F5F5F5F5
310
F5F5F5F5F5F5F5F5F5F5F5F5F5F5E2E2EFF5F5F5F5F5F5F5F5F5F5F5F5F5F5F5F5F5F5F5F5F5F5F5F5F5F5F5F5F5F5F5F5F5F5F5F5F5F5F5F5F5F5F5F5F5F5F5F5F5F5F5F5F5F5F5F5F5F5F5F5F5F5F5F5F5F5F5F5F5F5F5F5F5F5F5F5F5F5F5F5F5F5F5F5F5F5F5F5F5F5F5F5F5F5F5F5F5F5F5F5F5F5F5F5F5F5F5F5F5F5
310
F5F5F5F5F5F5F5F5F5F5F5F5F5F5F5F5F5F5F5F5F5F5F5F5F5F5F5F5F5F5F5F5F5F5F5F5F5F5F5F5F5F5F5F5F5F5F5F5F5F5F5F5F5F5F5F5F5F5F5F5F5F5F5F5F5F5F5E2EFEFF5F5F5F5F5F5F5F5F5F5F5F5F5F5F5F5F5F5F5F5F5F5F5F5F5F5F5F5F5F5F5F5F5F5F5F5F5F5F5F5F5F5F5F5F5F5F5F5F5F5F5F5F5F5F5F5F5
310
F5F5F5F5F5F5F5F5F5F5F5F5F5F5F5F5F5F5F5F5F5F5F5F5F5F5F5F5F5F5F5F5F5F5F5F5F5F5F5F5F5F5F5F5F5F5F5F5F5F5F5F5F5F5F5F5F5F5F5F5F5F5F5F5F5F5F5F5F5F5F5F5F5F5F5F5F5F5F5F5F5F5F5F5F5F5F5F5F5F5F5F5F5F5F5F5F5F5F5F5F5F5F5F5F5F5F5F5F5F5F5F5F5F5F5F5F5F5F5F5E2EFEFE2E2E2E2
310
E2E2E2E2E2E2E2E2E2E2E2E2E2E2E2E2E2E2E2E2E2E2E2E2E2E2E2E2E2E2E2E2E2E2E2E2E2E2E2E2E2E2E2E2E2E2E2E2E2E2E2E2E2E2E2E2E2E2E2E2E2E2E2E2E2E2E2E2E2E2E2E2E2E2E2E2E2E2E2E2E2E2E2E2E2E2E2E2E2E2E2E2E2E2E2E2E2E2E2E2E2E2E2E2E2E2E2E2E2E2E2E2E2E2E2E2E2E2E2E2E2E2E2E2E2E2E2
310
E2E2E2E2E2E2E2E2E2E2E2E2E2E2E2E2E2E2E2E2E2E2E2E2E2E2E2E2E2E2E2E2E2E2E2E2E2E2E2E2E2E2E2E2E2E2E2EFEF
  0
ENDSEC
  0
EOF
