  0
SECTION
  2
HEADER
  9
$ACADVER
  1
AC1018
  9
$ACADMAINTVER
 70
     0
  9
$DWGCODEPAGE
  3
ANSI_1252
  9
$AUTHOR
  1
g6edxjah
  9
$LASTSAVEDBY
  1
g6edxjah
  9
$INSBASE
 10
0.0
 20
0.0
 30
0.0
  9
$EXTMIN
 10
128.651802
 20
-0.065604
 30
0.0
  9
$EXTMAX
 10
137.651865
 20
11.680094
 30
0.0
  9
$LIMMIN
 10
103.557067
 20
-23.787521
  9
$LIMMAX
 10
162.746599
 20
35.402011
  9
$ORTHOMODE
 70
     0
  9
$REGENMODE
 70
     1
  9
$FILLMODE
 70
     1
  9
$QTEXTMODE
 70
     0
  9
$MIRRTEXT
 70
     0
  9
$LTSCALE
 40
1.0
  9
$ATTMODE
 70
     1
  9
$TEXTSIZE
 40
0.1125
  9
$TRACEWID
 40
0.05
  9
$TEXTSTYLE
  7
Standard
  9
$CLAYER
  8
TEXT
  9
$CELTYPE
  6
Continuous
  9
$CECOLOR
 62
     7
  9
$CELTSCALE
 40
1.0
  9
$DISPSILH
 70
     0
  9
$DIMSCALE
 40
1.0
  9
$DIMASZ
 40
0.1125
  9
$DIMEXO
 40
0.05625
  9
$DIMDLI
 40
0.0
  9
$DIMRND
 40
0.0
  9
$DIMDLE
 40
0.0
  9
$DIMEXE
 40
0.05625
  9
$DIMTP
 40
0.0
  9
$DIMTM
 40
0.0
  9
$DIMTXT
 40
0.1125
  9
$DIMCEN
 40
0.09
  9
$DIMTSZ
 40
0.0
  9
$DIMTOL
 70
     0
  9
$DIMLIM
 70
     0
  9
$DIMTIH
 70
     0
  9
$DIMTOH
 70
     0
  9
$DIMSE1
 70
     0
  9
$DIMSE2
 70
     0
  9
$DIMTAD
 70
     1
  9
$DIMZIN
 70
    11
  9
$DIMBLK
  1
TerminatorOpen_0.5
  9
$DIMASO
 70
     1
  9
$DIMSHO
 70
     1
  9
$DIMPOST
  1

  9
$DIMAPOST
  1

  9
$DIMALT
 70
     0
  9
$DIMALTD
 70
     4
  9
$DIMALTF
 40
25.4
  9
$DIMLFAC
 40
1.0
  9
$DIMTOFL
 70
     0
  9
$DIMTVP
 40
0.0
  9
$DIMTIX
 70
     0
  9
$DIMSOXD
 70
     0
  9
$DIMSAH
 70
     0
  9
$DIMBLK1
  1

  9
$DIMBLK2
  1

  9
$DIMSTYLE
  2
Standard
  9
$DIMCLRD
 70
     0
  9
$DIMCLRE
 70
     0
  9
$DIMCLRT
 70
     0
  9
$DIMTFAC
 40
1.0
  9
$DIMGAP
 40
0.05625
  9
$DIMJUST
 70
     0
  9
$DIMSD1
 70
     0
  9
$DIMSD2
 70
     0
  9
$DIMTOLJ
 70
     0
  9
$DIMTZIN
 70
    11
  9
$DIMALTZ
 70
    15
  9
$DIMALTTZ
 70
    15
  9
$DIMUPT
 70
     0
  9
$DIMDEC
 70
     4
  9
$DIMTDEC
 70
     4
  9
$DIMALTU
 70
     2
  9
$DIMALTTD
 70
     4
  9
$DIMTXSTY
  7
Style-Arial
  9
$DIMAUNIT
 70
     0
  9
$DIMADEC
 70
     4
  9
$DIMALTRND
 40
0.0
  9
$DIMAZIN
 70
     3
  9
$DIMDSEP
 70
    46
  9
$DIMATFIT
 70
     1
  9
$DIMFRAC
 70
     0
  9
$DIMLDRBLK
  1
TerminatorOpen_0.5
  9
$DIMLUNIT
 70
     2
  9
$DIMLWD
 70
    -2
  9
$DIMLWE
 70
    -2
  9
$DIMTMOVE
 70
     0
  9
$LUNITS
 70
     2
  9
$LUPREC
 70
     4
  9
$SKETCHINC
 40
0.1
  9
$FILLETRAD
 40
0.0
  9
$AUNITS
 70
     0
  9
$AUPREC
 70
     4
  9
$MENU
  1
.
  9
$ELEVATION
 40
0.0
  9
$PELEVATION
 40
0.0
  9
$THICKNESS
 40
0.0
  9
$LIMCHECK
 70
     0
  9
$CHAMFERA
 40
0.0
  9
$CHAMFERB
 40
0.0
  9
$CHAMFERC
 40
0.0
  9
$CHAMFERD
 40
0.0
  9
$SKPOLY
 70
     0
  9
$TDCREATE
 40
2455397.345031366
  9
$TDUCREATE
 40
2455397.553364699
  9
$TDUPDATE
 40
2455397.345031366
  9
$TDUUPDATE
 40
2455397.553364699
  9
$TDINDWG
 40
0.0
  9
$TDUSRTIMER
 40
0.0006630093
  9
$USRTIMER
 70
     1
  9
$ANGBASE
 50
0.0
  9
$ANGDIR
 70
     0
  9
$PDMODE
 70
     0
  9
$PDSIZE
 40
0.0
  9
$PLINEWID
 40
0.0
  9
$SPLFRAME
 70
     0
  9
$SPLINETYPE
 70
     6
  9
$SPLINESEGS
 70
     8
  9
$HANDSEED
  5
4F8
  9
$SURFTAB1
 70
     6
  9
$SURFTAB2
 70
     6
  9
$SURFTYPE
 70
     6
  9
$SURFU
 70
     6
  9
$SURFV
 70
     6
  9
$UCSBASE
  2

  9
$UCSNAME
  2

  9
$UCSORG
 10
0.0
 20
0.0
 30
0.0
  9
$UCSXDIR
 10
1.0
 20
0.0
 30
0.0
  9
$UCSYDIR
 10
0.0
 20
1.0
 30
0.0
  9
$UCSORTHOREF
  2

  9
$UCSORTHOVIEW
 70
     0
  9
$UCSORGTOP
 10
0.0
 20
0.0
 30
0.0
  9
$UCSORGBOTTOM
 10
0.0
 20
0.0
 30
0.0
  9
$UCSORGLEFT
 10
0.0
 20
0.0
 30
0.0
  9
$UCSORGRIGHT
 10
0.0
 20
0.0
 30
0.0
  9
$UCSORGFRONT
 10
0.0
 20
0.0
 30
0.0
  9
$UCSORGBACK
 10
0.0
 20
0.0
 30
0.0
  9
$PUCSBASE
  2

  9
$PUCSNAME
  2

  9
$PUCSORG
 10
0.0
 20
0.0
 30
0.0
  9
$PUCSXDIR
 10
1.0
 20
0.0
 30
0.0
  9
$PUCSYDIR
 10
0.0
 20
1.0
 30
0.0
  9
$PUCSORTHOREF
  2

  9
$PUCSORTHOVIEW
 70
     0
  9
$PUCSORGTOP
 10
0.0
 20
0.0
 30
0.0
  9
$PUCSORGBOTTOM
 10
0.0
 20
0.0
 30
0.0
  9
$PUCSORGLEFT
 10
0.0
 20
0.0
 30
0.0
  9
$PUCSORGRIGHT
 10
0.0
 20
0.0
 30
0.0
  9
$PUCSORGFRONT
 10
0.0
 20
0.0
 30
0.0
  9
$PUCSORGBACK
 10
0.0
 20
0.0
 30
0.0
  9
$USERI1
 70
     0
  9
$USERI2
 70
     0
  9
$USERI3
 70
     0
  9
$USERI4
 70
     0
  9
$USERI5
 70
     0
  9
$USERR1
 40
0.0
  9
$USERR2
 40
0.0
  9
$USERR3
 40
0.0
  9
$USERR4
 40
0.0
  9
$USERR5
 40
0.0
  9
$WORLDVIEW
 70
     1
  9
$SHADEDGE
 70
     3
  9
$SHADEDIF
 70
    70
  9
$TILEMODE
 70
     1
  9
$MAXACTVP
 70
    64
  9
$PINSBASE
 10
0.0
 20
0.0
 30
0.0
  9
$PLIMCHECK
 70
     0
  9
$PEXTMIN
 10
1.049744
 20
0.799667
 30
-0.001526
  9
$PEXTMAX
 10
9.450623
 20
7.200577
 30
0.0
  9
$PLIMMIN
 10
-0.25
 20
-0.25
  9
$PLIMMAX
 10
10.75
 20
8.25
  9
$UNITMODE
 70
     0
  9
$VISRETAIN
 70
     1
  9
$PLINEGEN
 70
     0
  9
$PSLTSCALE
 70
     0
  9
$TREEDEPTH
 70
  3020
  9
$CMLSTYLE
  2
Standard
  9
$CMLJUST
 70
     0
  9
$CMLSCALE
 40
1.0
  9
$PROXYGRAPHICS
 70
     1
  9
$MEASUREMENT
 70
     0
  9
$CELWEIGHT
370
     0
  9
$ENDCAPS
280
     0
  9
$JOINSTYLE
280
     0
  9
$LWDISPLAY
290
     1
  9
$INSUNITS
 70
     2
  9
$HYPERLINKBASE
  1

  9
$STYLESHEET
  1

  9
$XEDIT
290
     1
  9
$CEPSNTYPE
380
     0
  9
$PSTYLEMODE
290
     1
  9
$FINGERPRINTGUID
  2
{02C0BBB5-38A7-4FBF-829E-00875EC88963}
  9
$VERSIONGUID
  2
{82C521FC-BF81-46B3-825E-420B6BD93A99}
  9
$EXTNAMES
290
     1
  9
$PSVPSCALE
 40
0.0
  9
$OLESTARTUP
290
     0
  9
$SORTENTS
280
   127
  9
$INDEXCTL
280
     0
  9
$HIDETEXT
280
     1
  9
$XCLIPFRAME
290
     0
  9
$HALOGAP
280
     0
  9
$OBSCOLOR
 70
   257
  9
$OBSLTYPE
280
     0
  9
$INTERSECTIONDISPLAY
280
     0
  9
$INTERSECTIONCOLOR
 70
   257
  9
$DIMASSOC
280
     1
  9
$PROJECTNAME
  1

  0
ENDSEC
  0
SECTION
  2
CLASSES
  0
CLASS
  1
ACDBDICTIONARYWDFLT
  2
AcDbDictionaryWithDefault
  3
ObjectDBX Classes
 90
        0
 91
        3
280
     0
281
     0
  0
CLASS
  1
SORTENTSTABLE
  2
AcDbSortentsTable
  3
ObjectDBX Classes
 90
        0
 91
        3
280
     0
281
     0
  0
ENDSEC
  0
SECTION
  2
TABLES
  0
TABLE
  2
VPORT
  5
4DF
330
0
100
AcDbSymbolTable
 70
     4
  0
VPORT
  5
49
330
4DF
100
AcDbSymbolTableRecord
100
AcDbViewportTableRecord
  2
*ACTIVE
 70
     0
 10
0.0
 20
0.0
 11
1.0
 21
1.0
 12
133.151833
 22
5.807245
 13
0.0
 23
0.0
 14
0.083333
 24
0.083333
 15
0.083333
 25
0.083333
 16
0.0
 26
0.0
 36
1.0
 17
0.0
 27
0.0
 37
0.0
 40
12.215526
 41
1.884937
 42
50.0
 43
0.0
 44
0.0
 50
0.0
 51
0.0
 71
     0
 72
   100
 73
     1
 74
     2
 75
     0
 76
     0
 77
     0
 78
     1
281
     0
 65
     1
110
0.0
120
0.0
130
0.0
111
1.0
121
0.0
131
0.0
112
0.0
122
1.0
132
0.0
 79
     0
146
0.0
  0
ENDTAB
  0
TABLE
  2
LTYPE
  5
4C6
330
0
100
AcDbSymbolTable
 70
     1
  0
LTYPE
  5
4C7
330
4C6
100
AcDbSymbolTableRecord
100
AcDbLinetypeTableRecord
  2
ByBlock
 70
     0
  3

 72
    65
 73
     0
 40
0.0
  0
LTYPE
  5
4C8
330
4C6
100
AcDbSymbolTableRecord
100
AcDbLinetypeTableRecord
  2
ByLayer
 70
     0
  3

 72
    65
 73
     0
 40
0.0
  0
LTYPE
  5
4C5
330
4C6
100
AcDbSymbolTableRecord
100
AcDbLinetypeTableRecord
  2
Continuous
 70
     0
  3
Solid line
 72
    65
 73
     0
 40
0.0
  0
ENDTAB
  0
TABLE
  2
LAYER
  5
4BF
102
{ACAD_XDICTIONARY
360
4C0
102
}
330
0
100
AcDbSymbolTable
 70
    64
  0
LAYER
  5
4BE
330
4BF
100
AcDbSymbolTableRecord
100
AcDbLayerTableRecord
  2
0
 70
     0
 62
     7
  6
Continuous
370
    -3
390
4C2
  0
LAYER
  5
7
330
4BF
100
AcDbSymbolTableRecord
100
AcDbLayerTableRecord
  2
Level 1
 70
     0
 62
     7
  6
Continuous
370
     0
390
4C2
  0
LAYER
  5
8
330
4BF
100
AcDbSymbolTableRecord
100
AcDbLayerTableRecord
  2
2-4A
 70
     0
 62
     7
  6
Continuous
370
     0
390
4C2
1001
AcAecLayerStandard
1000

1000
2-4A
  0
LAYER
  5
9
330
4BF
100
AcDbSymbolTableRecord
100
AcDbLayerTableRecord
  2
BORDER
 70
     0
 62
     7
  6
Continuous
370
     0
390
4C2
1001
AcAecLayerStandard
1000

1000
BORDER
  0
LAYER
  5
A
330
4BF
100
AcDbSymbolTableRecord
100
AcDbLayerTableRecord
  2
DEFPOINTS
 70
     0
 62
     7
  6
Continuous
290
     0
370
     0
390
4C2
1001
AcAecLayerStandard
1000

1000
DEFPOINTS
  0
LAYER
  5
B
330
4BF
100
AcDbSymbolTableRecord
100
AcDbLayerTableRecord
  2
REF
 70
     0
 62
     7
  6
Continuous
370
     0
390
4C2
1001
AcAecLayerStandard
1000

1000
REF
  0
LAYER
  5
C
330
4BF
100
AcDbSymbolTableRecord
100
AcDbLayerTableRecord
  2
TEXT
 70
     0
 62
     7
  6
Continuous
370
     0
390
4C2
1001
AcAecLayerStandard
1000

1000
TEXT
  0
LAYER
  5
D
330
4BF
100
AcDbSymbolTableRecord
100
AcDbLayerTableRecord
  2
TITLE
 70
     0
 62
     7
  6
Continuous
370
     0
390
4C2
1001
AcAecLayerStandard
1000

1000
TITLE
  0
LAYER
  5
E
330
4BF
100
AcDbSymbolTableRecord
100
AcDbLayerTableRecord
  2
Level 8
 70
     0
 62
     7
  6
Continuous
370
     0
390
4C2
  0
LAYER
  5
F
330
4BF
100
AcDbSymbolTableRecord
100
AcDbLayerTableRecord
  2
Level 9
 70
     0
 62
     7
  6
Continuous
370
     0
390
4C2
  0
LAYER
  5
10
330
4BF
100
AcDbSymbolTableRecord
100
AcDbLayerTableRecord
  2
Level 10
 70
     0
 62
     7
  6
Continuous
370
     0
390
4C2
  0
LAYER
  5
11
330
4BF
100
AcDbSymbolTableRecord
100
AcDbLayerTableRecord
  2
Level 11
 70
     0
 62
     7
  6
Continuous
370
     0
390
4C2
  0
LAYER
  5
12
330
4BF
100
AcDbSymbolTableRecord
100
AcDbLayerTableRecord
  2
Level 12
 70
     0
 62
     7
  6
Continuous
370
     0
390
4C2
  0
LAYER
  5
13
330
4BF
100
AcDbSymbolTableRecord
100
AcDbLayerTableRecord
  2
Level 13
 70
     0
 62
     7
  6
Continuous
370
     0
390
4C2
  0
LAYER
  5
14
330
4BF
100
AcDbSymbolTableRecord
100
AcDbLayerTableRecord
  2
Level 14
 70
     0
 62
     7
  6
Continuous
370
     0
390
4C2
  0
LAYER
  5
15
330
4BF
100
AcDbSymbolTableRecord
100
AcDbLayerTableRecord
  2
Level 15
 70
     0
 62
     7
  6
Continuous
370
     0
390
4C2
  0
LAYER
  5
16
330
4BF
100
AcDbSymbolTableRecord
100
AcDbLayerTableRecord
  2
Level 16
 70
     0
 62
     7
  6
Continuous
370
     0
390
4C2
  0
LAYER
  5
17
330
4BF
100
AcDbSymbolTableRecord
100
AcDbLayerTableRecord
  2
Level 17
 70
     0
 62
     7
  6
Continuous
370
     0
390
4C2
  0
LAYER
  5
18
330
4BF
100
AcDbSymbolTableRecord
100
AcDbLayerTableRecord
  2
Level 18
 70
     0
 62
     7
  6
Continuous
370
     0
390
4C2
  0
LAYER
  5
19
330
4BF
100
AcDbSymbolTableRecord
100
AcDbLayerTableRecord
  2
Level 19
 70
     0
 62
     7
  6
Continuous
370
     0
390
4C2
  0
LAYER
  5
1A
330
4BF
100
AcDbSymbolTableRecord
100
AcDbLayerTableRecord
  2
Level 20
 70
     0
 62
     7
  6
Continuous
370
     0
390
4C2
  0
LAYER
  5
1B
330
4BF
100
AcDbSymbolTableRecord
100
AcDbLayerTableRecord
  2
Level 21
 70
     0
 62
     7
  6
Continuous
370
     0
390
4C2
  0
LAYER
  5
1C
330
4BF
100
AcDbSymbolTableRecord
100
AcDbLayerTableRecord
  2
Level 22
 70
     0
 62
     7
  6
Continuous
370
     0
390
4C2
  0
LAYER
  5
1D
330
4BF
100
AcDbSymbolTableRecord
100
AcDbLayerTableRecord
  2
Level 23
 70
     0
 62
     7
  6
Continuous
370
     0
390
4C2
  0
LAYER
  5
1E
330
4BF
100
AcDbSymbolTableRecord
100
AcDbLayerTableRecord
  2
Level 24
 70
     0
 62
     7
  6
Continuous
370
     0
390
4C2
  0
LAYER
  5
1F
330
4BF
100
AcDbSymbolTableRecord
100
AcDbLayerTableRecord
  2
Level 25
 70
     0
 62
     7
  6
Continuous
370
     0
390
4C2
  0
LAYER
  5
20
330
4BF
100
AcDbSymbolTableRecord
100
AcDbLayerTableRecord
  2
Level 26
 70
     0
 62
     7
  6
Continuous
370
     0
390
4C2
  0
LAYER
  5
21
330
4BF
100
AcDbSymbolTableRecord
100
AcDbLayerTableRecord
  2
Level 27
 70
     0
 62
     7
  6
Continuous
370
     0
390
4C2
  0
LAYER
  5
22
330
4BF
100
AcDbSymbolTableRecord
100
AcDbLayerTableRecord
  2
Level 28
 70
     0
 62
     7
  6
Continuous
370
     0
390
4C2
  0
LAYER
  5
23
330
4BF
100
AcDbSymbolTableRecord
100
AcDbLayerTableRecord
  2
Level 29
 70
     0
 62
     7
  6
Continuous
370
     0
390
4C2
  0
LAYER
  5
24
330
4BF
100
AcDbSymbolTableRecord
100
AcDbLayerTableRecord
  2
Level 30
 70
     0
 62
     7
  6
Continuous
370
     0
390
4C2
  0
LAYER
  5
25
330
4BF
100
AcDbSymbolTableRecord
100
AcDbLayerTableRecord
  2
Level 31
 70
     0
 62
     7
  6
Continuous
370
     0
390
4C2
  0
LAYER
  5
26
330
4BF
100
AcDbSymbolTableRecord
100
AcDbLayerTableRecord
  2
Level 32
 70
     0
 62
     7
  6
Continuous
370
     0
390
4C2
  0
LAYER
  5
27
330
4BF
100
AcDbSymbolTableRecord
100
AcDbLayerTableRecord
  2
Level 33
 70
     0
 62
     7
  6
Continuous
370
     0
390
4C2
  0
LAYER
  5
28
330
4BF
100
AcDbSymbolTableRecord
100
AcDbLayerTableRecord
  2
Level 34
 70
     0
 62
     7
  6
Continuous
370
     0
390
4C2
  0
LAYER
  5
29
330
4BF
100
AcDbSymbolTableRecord
100
AcDbLayerTableRecord
  2
Level 35
 70
     0
 62
     7
  6
Continuous
370
     0
390
4C2
  0
LAYER
  5
2A
330
4BF
100
AcDbSymbolTableRecord
100
AcDbLayerTableRecord
  2
Level 36
 70
     0
 62
     7
  6
Continuous
370
     0
390
4C2
  0
LAYER
  5
2B
330
4BF
100
AcDbSymbolTableRecord
100
AcDbLayerTableRecord
  2
Level 37
 70
     0
 62
     7
  6
Continuous
370
     0
390
4C2
  0
LAYER
  5
2C
330
4BF
100
AcDbSymbolTableRecord
100
AcDbLayerTableRecord
  2
Level 38
 70
     0
 62
     7
  6
Continuous
370
     0
390
4C2
  0
LAYER
  5
2D
330
4BF
100
AcDbSymbolTableRecord
100
AcDbLayerTableRecord
  2
Level 39
 70
     0
 62
     7
  6
Continuous
370
     0
390
4C2
  0
LAYER
  5
2E
330
4BF
100
AcDbSymbolTableRecord
100
AcDbLayerTableRecord
  2
Level 40
 70
     0
 62
     7
  6
Continuous
370
     0
390
4C2
  0
LAYER
  5
2F
330
4BF
100
AcDbSymbolTableRecord
100
AcDbLayerTableRecord
  2
Level 41
 70
     0
 62
     7
  6
Continuous
370
     0
390
4C2
  0
LAYER
  5
30
330
4BF
100
AcDbSymbolTableRecord
100
AcDbLayerTableRecord
  2
Level 42
 70
     0
 62
     7
  6
Continuous
370
     0
390
4C2
  0
LAYER
  5
31
330
4BF
100
AcDbSymbolTableRecord
100
AcDbLayerTableRecord
  2
Level 43
 70
     0
 62
     7
  6
Continuous
370
     0
390
4C2
  0
LAYER
  5
32
330
4BF
100
AcDbSymbolTableRecord
100
AcDbLayerTableRecord
  2
Level 44
 70
     0
 62
     7
  6
Continuous
370
     0
390
4C2
  0
LAYER
  5
33
330
4BF
100
AcDbSymbolTableRecord
100
AcDbLayerTableRecord
  2
Level 45
 70
     0
 62
     7
  6
Continuous
370
     0
390
4C2
  0
LAYER
  5
34
330
4BF
100
AcDbSymbolTableRecord
100
AcDbLayerTableRecord
  2
Level 46
 70
     0
 62
     7
  6
Continuous
370
     0
390
4C2
  0
LAYER
  5
35
330
4BF
100
AcDbSymbolTableRecord
100
AcDbLayerTableRecord
  2
Level 47
 70
     0
 62
     7
  6
Continuous
370
     0
390
4C2
  0
LAYER
  5
36
330
4BF
100
AcDbSymbolTableRecord
100
AcDbLayerTableRecord
  2
Level 48
 70
     0
 62
     7
  6
Continuous
370
     0
390
4C2
  0
LAYER
  5
37
330
4BF
100
AcDbSymbolTableRecord
100
AcDbLayerTableRecord
  2
Level 49
 70
     0
 62
     7
  6
Continuous
370
     0
390
4C2
  0
LAYER
  5
38
330
4BF
100
AcDbSymbolTableRecord
100
AcDbLayerTableRecord
  2
Level 50
 70
     0
 62
     7
  6
Continuous
370
     0
390
4C2
  0
LAYER
  5
39
330
4BF
100
AcDbSymbolTableRecord
100
AcDbLayerTableRecord
  2
Level 51
 70
     0
 62
     7
  6
Continuous
370
     0
390
4C2
  0
LAYER
  5
3A
330
4BF
100
AcDbSymbolTableRecord
100
AcDbLayerTableRecord
  2
Level 52
 70
     0
 62
     7
  6
Continuous
370
     0
390
4C2
  0
LAYER
  5
3B
330
4BF
100
AcDbSymbolTableRecord
100
AcDbLayerTableRecord
  2
Level 53
 70
     0
 62
     7
  6
Continuous
370
     0
390
4C2
  0
LAYER
  5
3C
330
4BF
100
AcDbSymbolTableRecord
100
AcDbLayerTableRecord
  2
Level 54
 70
     0
 62
     7
  6
Continuous
370
     0
390
4C2
  0
LAYER
  5
3D
330
4BF
100
AcDbSymbolTableRecord
100
AcDbLayerTableRecord
  2
Level 55
 70
     0
 62
     7
  6
Continuous
370
     0
390
4C2
  0
LAYER
  5
3E
330
4BF
100
AcDbSymbolTableRecord
100
AcDbLayerTableRecord
  2
Level 56
 70
     0
 62
     7
  6
Continuous
370
     0
390
4C2
  0
LAYER
  5
3F
330
4BF
100
AcDbSymbolTableRecord
100
AcDbLayerTableRecord
  2
Level 57
 70
     0
 62
     7
  6
Continuous
370
     0
390
4C2
  0
LAYER
  5
40
330
4BF
100
AcDbSymbolTableRecord
100
AcDbLayerTableRecord
  2
Level 58
 70
     0
 62
     7
  6
Continuous
370
     0
390
4C2
  0
LAYER
  5
41
330
4BF
100
AcDbSymbolTableRecord
100
AcDbLayerTableRecord
  2
Level 59
 70
     0
 62
     7
  6
Continuous
370
     0
390
4C2
  0
LAYER
  5
42
330
4BF
100
AcDbSymbolTableRecord
100
AcDbLayerTableRecord
  2
Level 60
 70
     0
 62
     7
  6
Continuous
370
     0
390
4C2
  0
LAYER
  5
43
330
4BF
100
AcDbSymbolTableRecord
100
AcDbLayerTableRecord
  2
Level 61
 70
     0
 62
     7
  6
Continuous
370
     0
390
4C2
  0
LAYER
  5
44
330
4BF
100
AcDbSymbolTableRecord
100
AcDbLayerTableRecord
  2
Level 62
 70
     0
 62
     7
  6
Continuous
370
     0
390
4C2
  0
LAYER
  5
45
330
4BF
100
AcDbSymbolTableRecord
100
AcDbLayerTableRecord
  2
_0
 70
     0
 62
     7
  6
Continuous
370
     0
390
4C2
1001
AcAecLayerStandard
1000

1000
0
  0
ENDTAB
  0
TABLE
  2
STYLE
  5
4CA
330
0
100
AcDbSymbolTable
 70
     2
  0
STYLE
  5
4C9
330
4CA
100
AcDbSymbolTableRecord
100
AcDbTextStyleTableRecord
  2
Standard
 70
     0
 40
0.0
 41
1.0
 50
0.0
 71
     0
 42
0.1125
  3
txt
  4

  0
STYLE
  5
4E9
330
4CA
100
AcDbSymbolTableRecord
100
AcDbTextStyleTableRecord
  2
Style-Arial
 70
     0
 40
0.0
 41
1.0
 50
0.0
 71
     0
 42
0.2
  3

  4

1001
ACAD
1000
Arial
1071
       39
  0
ENDTAB
  0
TABLE
  2
VIEW
  5
4DD
330
0
100
AcDbSymbolTable
 70
     0
  0
ENDTAB
  0
TABLE
  2
UCS
  5
4DE
330
0
100
AcDbSymbolTable
 70
     0
  0
ENDTAB
  0
TABLE
  2
APPID
  5
4DC
330
0
100
AcDbSymbolTable
 70
     3
  0
APPID
  5
4E4
330
4DC
100
AcDbSymbolTableRecord
100
AcDbRegAppTableRecord
  2
ACAD
 70
     0
  0
APPID
  5
4DB
330
4DC
100
AcDbSymbolTableRecord
100
AcDbRegAppTableRecord
  2
ACAD_PSEXT
 70
     0
  0
APPID
  5
4E6
330
4DC
100
AcDbSymbolTableRecord
100
AcDbRegAppTableRecord
  2
AcAecLayerStandard
 70
     0
  0
ENDTAB
  0
TABLE
  2
DIMSTYLE
  5
4CC
330
0
100
AcDbSymbolTable
 70
     1
100
AcDbDimStyleTable
  0
DIMSTYLE
105
4CB
330
4CC
100
AcDbSymbolTableRecord
100
AcDbDimStyleTableRecord
  2
Standard
 70
     0
340
4C9
  0
ENDTAB
  0
TABLE
  2
BLOCK_RECORD
  5
4CF
330
0
100
AcDbSymbolTable
 70
     1
  0
BLOCK_RECORD
  5
4D0
102
{ACAD_XDICTIONARY
360
4F3
102
}
330
4CF
100
AcDbSymbolTableRecord
100
AcDbBlockTableRecord
  2
*Model_Space
340
4D3
  0
BLOCK_RECORD
  5
4D5
330
4CF
100
AcDbSymbolTableRecord
100
AcDbBlockTableRecord
  2
*Paper_Space
340
4D8
  0
BLOCK_RECORD
  5
4EA
330
4CF
100
AcDbSymbolTableRecord
100
AcDbBlockTableRecord
  2
TerminatorOpen_0.5
340
0
  0
ENDTAB
  0
ENDSEC
  0
SECTION
  2
BLOCKS
  0
BLOCK
  5
4D1
330
4D0
100
AcDbEntity
  8
0
100
AcDbBlockBegin
  2
*Model_Space
 70
     0
 71
     0
 10
0.0
 20
0.0
 30
0.0
  3
*Model_Space
  1

  0
ENDBLK
  5
4D2
330
4D0
100
AcDbEntity
  8
0
100
AcDbBlockEnd
  0
BLOCK
  5
4D6
330
4D5
100
AcDbEntity
 67
     1
  8
0
100
AcDbBlockBegin
  2
*Paper_Space
 70
     0
 71
     0
 10
0.0
 20
0.0
 30
0.0
  3
*Paper_Space
  1

  0
ENDBLK
  5
4D7
330
4D5
100
AcDbEntity
 67
     1
  8
0
100
AcDbBlockEnd
  0
BLOCK
  5
4EE
330
4EA
100
AcDbEntity
  8
0
100
AcDbBlockBegin
  2
TerminatorOpen_0.5
 70
     0
 71
     0
 10
0.0
 20
0.0
 30
0.0
  3
TerminatorOpen_0.5
  1

  0
LINE
  5
4EB
330
4EA
100
AcDbEntity
  8
0
  6
ByBlock
 62
     0
370
    -2
100
AcDbLine
 10
0.0
 20
0.0
 30
0.0
 11
-1.0
 21
0.0
 31
0.0
  0
LINE
  5
4EC
330
4EA
100
AcDbEntity
  8
0
  6
ByBlock
 62
     0
370
    -2
100
AcDbLine
 10
0.0
 20
0.0
 30
0.0
 11
-1.0
 21
0.25
 31
0.0
  0
LINE
  5
4ED
330
4EA
100
AcDbEntity
  8
0
  6
ByBlock
 62
     0
370
    -2
100
AcDbLine
 10
0.0
 20
0.0
 30
0.0
 11
-1.0
 21
-0.25
 31
0.0
  0
ENDBLK
  5
4EF
330
4EA
100
AcDbEntity
  8
0
100
AcDbBlockEnd
  0
ENDSEC
  0
SECTION
  2
ENTITIES
  0
LINE
  5
5B
330
4D0
100
AcDbEntity
  8
_0
  6
Continuous
 62
     7
370
    30
100
AcDbLine
 10
128.651802
 20
11.180094
 30
0.0
 11
129.151802
 21
11.180094
 31
0.0
  0
LINE
  5
5C
330
4D0
100
AcDbEntity
  8
_0
  6
Continuous
 62
     7
370
    30
100
AcDbLine
 10
129.151802
 20
11.180094
 30
0.0
 11
129.151802
 21
11.680094
 31
0.0
  0
LINE
  5
5D
330
4D0
100
AcDbEntity
  8
_0
  6
Continuous
 62
     7
370
    30
100
AcDbLine
 10
137.151865
 20
11.180094
 30
0.0
 11
137.151865
 21
11.680094
 31
0.0
  0
LINE
  5
5E
330
4D0
100
AcDbEntity
  8
_0
  6
Continuous
 62
     7
370
    30
100
AcDbLine
 10
137.151865
 20
11.180094
 30
0.0
 11
137.651865
 21
11.180094
 31
0.0
  0
LINE
  5
5F
330
4D0
100
AcDbEntity
  8
_0
  6
Continuous
 62
     7
370
    30
100
AcDbLine
 10
128.651802
 20
0.434396
 30
0.0
 11
129.151802
 21
0.434396
 31
0.0
  0
LINE
  5
60
330
4D0
100
AcDbEntity
  8
_0
  6
Continuous
 62
     7
370
    30
100
AcDbLine
 10
129.151802
 20
-0.065604
 30
0.0
 11
129.151802
 21
0.434396
 31
0.0
  0
LINE
  5
61
330
4D0
100
AcDbEntity
  8
_0
  6
Continuous
 62
     7
370
    30
100
AcDbLine
 10
137.151865
 20
-0.065604
 30
0.0
 11
137.151865
 21
0.434396
 31
0.0
  0
LINE
  5
62
330
4D0
100
AcDbEntity
  8
_0
  6
Continuous
 62
     7
370
    30
100
AcDbLine
 10
137.151865
 20
0.434396
 30
0.0
 11
137.651865
 21
0.434396
 31
0.0
  0
LWPOLYLINE
  5
67
330
4D0
100
AcDbEntity
  8
Level 1
  6
Continuous
 62
     7
370
    40
100
AcDbPolyline
 90
        4
 70
   129
 43
0.0
 10
129.52601
 20
1.147594
 10
136.774354
 20
1.147594
 10
136.774354
 20
10.466896
 10
129.52601
 20
10.466896
  0
LINE
  5
68
330
4D0
100
AcDbEntity
  8
Level 1
  6
Continuous
 62
     7
370
    40
100
AcDbLine
 10
129.52601
 20
1.665333
 30
0.0
 11
136.774354
 21
1.665333
 31
0.0
  0
LINE
  5
69
330
4D0
100
AcDbEntity
  8
Level 1
  6
Continuous
 62
     7
370
    13
100
AcDbLine
 10
136.774354
 20
1.147594
 30
0.0
 11
136.774354
 21
1.665333
 31
0.0
  0
LINE
  5
6A
330
4D0
100
AcDbEntity
  8
Level 1
  6
Continuous
 62
     7
370
    13
100
AcDbLine
 10
135.479312
 20
1.147594
 30
0.0
 11
135.479312
 21
1.665333
 31
0.0
  0
LINE
  5
6B
330
4D0
100
AcDbEntity
  8
Level 1
  6
Continuous
 62
     7
370
    40
100
AcDbLine
 10
134.443833
 20
1.147594
 30
0.0
 11
134.443833
 21
1.665333
 31
0.0
  0
LINE
  5
6F
330
4D0
100
AcDbEntity
  8
Level 1
  6
Continuous
 62
     7
370
    13
100
AcDbLine
 10
131.53
 20
4.264385
 30
0.0
 11
131.221427
 21
4.267146
 31
0.0
  0
LINE
  5
70
330
4D0
100
AcDbEntity
  8
Level 1
  6
Continuous
 62
     7
370
    13
100
AcDbLine
 10
134.492156
 20
4.263687
 30
0.0
 11
134.743437
 21
4.263687
 31
0.0
  0
LINE
  5
71
330
4D0
100
AcDbEntity
  8
Level 1
  6
Continuous
 62
     7
370
    13
100
AcDbLine
 10
133.00176
 20
4.572958
 30
0.0
 11
133.00176
 21
4.724823
 31
0.0
  0
LINE
  5
72
330
4D0
100
AcDbEntity
  8
Level 1
  6
Continuous
 62
     7
370
    13
100
AcDbLine
 10
131.218667
 20
4.55224
 30
0.0
 11
131.218667
 21
5.010615
 31
0.0
  0
LINE
  5
73
330
4D0
100
AcDbEntity
  8
Level 1
  6
Continuous
 62
     7
370
    13
100
AcDbLine
 10
131.222125
 20
4.93675
 30
0.0
 11
133.00176
 21
4.93675
 31
0.0
  0
LWPOLYLINE
  5
74
330
4D0
100
AcDbEntity
  8
Level 1
  6
Continuous
 62
     7
370
    13
100
AcDbPolyline
 90
        5
 70
   128
 43
0.0
 10
133.005906
 20
4.944344
 10
133.005906
 20
4.944344
 10
132.887167
 20
4.958156
 10
132.887167
 20
4.920187
 10
133.005906
 20
4.944344
  0
LWPOLYLINE
  5
75
330
4D0
100
AcDbEntity
  8
Level 1
  6
Continuous
 62
     7
370
    13
100
AcDbPolyline
 90
        5
 70
   128
 43
0.0
 10
131.219354
 20
4.944344
 10
131.219354
 20
4.944344
 10
131.320146
 20
4.956771
 10
131.320146
 20
4.924323
 10
131.219354
 20
4.944344
  0
LINE
  5
76
330
4D0
100
AcDbEntity
  8
Level 1
  6
Continuous
 62
     7
370
    13
100
AcDbLine
 10
133.00176
 20
4.869792
 30
0.0
 11
133.00176
 21
5.036156
 31
0.0
  0
LINE
  5
77
330
4D0
100
AcDbEntity
  8
Level 1
  6
Continuous
 62
     7
370
    13
100
AcDbLine
 10
133.00176
 20
4.761406
 30
0.0
 11
133.00176
 21
4.834583
 31
0.0
  0
LWPOLYLINE
  5
78
330
4D0
100
AcDbEntity
  8
Level 1
  6
Continuous
 62
     7
370
    13
100
AcDbPolyline
 90
        5
 70
   128
 43
0.0
 10
132.999687
 20
3.798417
 10
132.999
 20
3.798417
 10
132.985885
 20
3.888156
 10
133.011427
 20
3.889542
 10
132.999687
 20
3.798417
  0
LWPOLYLINE
  5
79
330
4D0
100
AcDbEntity
  8
Level 1
  6
Continuous
 62
     7
370
    13
100
AcDbPolyline
 90
        5
 70
   128
 43
0.0
 10
133.001073
 20
4.100771
 10
133.001073
 20
4.100771
 10
132.988646
 20
4.017937
 10
133.01074
 20
4.016552
 10
133.001073
 20
4.100771
  0
LINE
  5
7E
330
4D0
100
AcDbEntity
  8
Level 1
  6
Continuous
 62
     7
370
    13
100
AcDbLine
 10
130.707833
 20
9.830417
 30
0.0
 11
134.830417
 21
9.830417
 31
0.0
  0
LINE
  5
7F
330
4D0
100
AcDbEntity
  8
Level 1
  6
Continuous
 62
     7
370
    13
100
AcDbLine
 10
130.232896
 20
9.28576
 30
0.0
 11
135.352302
 21
9.28576
 31
0.0
  0
LINE
  5
80
330
4D0
100
AcDbEntity
  8
Level 1
  6
Continuous
 62
     7
370
    13
100
AcDbLine
 10
130.247385
 20
9.253312
 30
0.0
 11
135.342635
 21
9.253312
 31
0.0
  0
LINE
  5
81
330
4D0
100
AcDbEntity
  8
Level 1
  6
Continuous
 62
     7
370
    13
100
AcDbLine
 10
130.250844
 20
9.21051
 30
0.0
 11
135.352302
 21
9.21051
 31
0.0
  0
LINE
  5
82
330
4D0
100
AcDbEntity
  8
Level 1
  6
Continuous
 62
     7
370
    13
100
AcDbLine
 10
130.255677
 20
9.180833
 30
0.0
 11
135.35575
 21
9.180833
 31
0.0
  0
LINE
  5
83
330
4D0
100
AcDbEntity
  8
Level 1
  6
Continuous
 62
     7
370
    13
100
AcDbLine
 10
130.236344
 20
8.143281
 30
0.0
 11
135.402
 21
8.143281
 31
0.0
  0
LINE
  5
84
330
4D0
100
AcDbEntity
  8
Level 1
  6
Continuous
 62
     7
370
    13
100
AcDbLine
 10
130.237729
 20
8.105313
 30
0.0
 11
135.406833
 21
8.105313
 31
0.0
  0
LINE
  5
85
330
4D0
100
AcDbEntity
  8
Level 1
  6
Continuous
 62
     7
370
    13
100
AcDbLine
 10
130.249458
 20
8.053542
 30
0.0
 11
135.414427
 21
8.053542
 31
0.0
  0
LINE
  5
86
330
4D0
100
AcDbEntity
  8
Level 1
  6
Continuous
 62
     7
370
    13
100
AcDbLine
 10
130.245323
 20
8.054229
 30
0.0
 11
135.424781
 21
8.054229
 31
0.0
  0
LINE
  5
87
330
4D0
100
AcDbEntity
  8
Level 1
  6
Continuous
 62
     7
370
    13
100
AcDbLine
 10
130.248083
 20
8.024552
 30
0.0
 11
135.408906
 21
8.024552
 31
0.0
  0
LWPOLYLINE
  5
8C
330
4D0
100
AcDbEntity
  8
Level 1
  6
Continuous
 62
     7
370
    13
100
AcDbPolyline
 90
        3
 70
   128
 43
0.0
 10
130.495906
 20
8.024552
 10
130.495906
 20
7.95423
 10
130.394427
 20
7.95423
  0
LINE
  5
8D
330
4D0
100
AcDbEntity
  8
Level 1
  6
Continuous
 62
     7
370
    13
100
AcDbLine
 10
130.394427
 20
7.95423
 30
0.0
 11
130.394427
 21
8.024552
 31
0.0
  0
LWPOLYLINE
  5
8E
330
4D0
100
AcDbEntity
  8
Level 1
  6
Continuous
 62
     7
370
    13
100
AcDbPolyline
 90
        4
 70
   128
 43
0.0
 10
130.394427
 20
8.143281
 10
130.394427
 20
8.215073
 10
130.495906
 20
8.215073
 10
130.495906
 20
8.143281
  0
LINE
  5
8F
330
4D0
100
AcDbEntity
  8
Level 1
  6
Continuous
 62
     7
370
    13
100
AcDbLine
 10
130.379927
 20
9.109729
 30
0.0
 11
130.379927
 21
9.181521
 31
0.0
  0
LWPOLYLINE
  5
90
330
4D0
100
AcDbEntity
  8
Level 1
  6
Continuous
 62
     7
370
    13
100
AcDbPolyline
 90
        4
 70
   128
 43
0.0
 10
130.379927
 20
9.283687
 10
130.379927
 20
9.358937
 10
130.497281
 20
9.358937
 10
130.497281
 20
9.287135
  0
LWPOLYLINE
  5
91
330
4D0
100
AcDbEntity
  8
Level 1
  6
Continuous
 62
     7
370
    13
100
AcDbPolyline
 90
        3
 70
   128
 43
0.0
 10
130.497281
 20
9.180833
 10
130.497281
 20
9.109729
 10
130.379927
 20
9.109729
  0
LWPOLYLINE
  5
92
330
4D0
100
AcDbEntity
  8
Level 1
  6
Continuous
 62
     7
370
    13
100
AcDbPolyline
 90
        3
 70
   128
 43
0.0
 10
135.229417
 20
9.180833
 10
135.229417
 20
9.109729
 10
135.112063
 20
9.109729
  0
LWPOLYLINE
  5
93
330
4D0
100
AcDbEntity
  8
Level 1
  6
Continuous
 62
     7
370
    13
100
AcDbPolyline
 90
        4
 70
   128
 43
0.0
 10
135.112063
 20
9.283687
 10
135.112063
 20
9.358937
 10
135.229417
 20
9.358937
 10
135.229417
 20
9.287135
  0
LINE
  5
94
330
4D0
100
AcDbEntity
  8
Level 1
  6
Continuous
 62
     7
370
    13
100
AcDbLine
 10
135.112063
 20
9.109729
 30
0.0
 11
135.112063
 21
9.181521
 31
0.0
  0
LWPOLYLINE
  5
95
330
4D0
100
AcDbEntity
  8
Level 1
  6
Continuous
 62
     7
370
    13
100
AcDbPolyline
 90
        4
 70
   128
 43
0.0
 10
135.125875
 20
8.143281
 10
135.125875
 20
8.215073
 10
135.227354
 20
8.215073
 10
135.227354
 20
8.143281
  0
LINE
  5
96
330
4D0
100
AcDbEntity
  8
Level 1
  6
Continuous
 62
     7
370
    13
100
AcDbLine
 10
135.125875
 20
7.955576
 30
0.0
 11
135.125875
 21
8.024552
 31
0.0
  0
LWPOLYLINE
  5
97
330
4D0
100
AcDbEntity
  8
Level 1
  6
Continuous
 62
     7
370
    13
100
AcDbPolyline
 90
        3
 70
   128
 43
0.0
 10
135.227354
 20
8.024552
 10
135.227354
 20
7.955576
 10
135.125875
 20
7.955576
  0
LINE
  5
9C
330
4D0
100
AcDbEntity
  8
Level 1
  6
Continuous
 62
     7
370
    13
100
AcDbLine
 10
130.707833
 20
7.522
 30
0.0
 11
134.830417
 21
7.522
 31
0.0
  0
LINE
  5
9D
330
4D0
100
AcDbEntity
  8
Level 1
  6
Continuous
 62
     7
370
    13
100
AcDbLine
 10
130.934948
 20
9.65025
 30
0.0
 11
130.934948
 21
9.579146
 31
0.0
  0
LINE
  5
9E
330
4D0
100
AcDbEntity
  8
Level 1
  6
Continuous
 62
     7
370
    13
100
AcDbLine
 10
130.934948
 20
7.690437
 30
0.0
 11
130.861771
 21
7.690437
 31
0.0
  0
LINE
  5
9F
330
4D0
100
AcDbEntity
  8
Level 1
  6
Continuous
 62
     7
370
    13
100
AcDbLine
 10
130.760302
 20
7.690437
 30
0.0
 11
130.760302
 21
7.751177
 31
0.0
  0
LINE
  5
A0
330
4D0
100
AcDbEntity
  8
Level 1
  6
Continuous
 62
     7
370
    13
100
AcDbLine
 10
130.76099
 20
9.65025
 30
0.0
 11
130.837615
 21
9.65025
 31
0.0
  0
CIRCLE
  5
A1
330
4D0
100
AcDbEntity
  8
Level 1
  6
Continuous
 62
     7
370
    13
100
AcDbCircle
 10
130.848037
 20
9.460134
 30
0.0
 40
0.022849550625
  0
CIRCLE
  5
A2
330
4D0
100
AcDbEntity
  8
Level 1
  6
Continuous
 62
     7
370
    13
100
AcDbCircle
 10
130.848037
 20
7.860045
 30
0.0
 40
0.022849550625
  0
LINE
  5
A3
330
4D0
100
AcDbEntity
  8
Level 1
  6
Continuous
 62
     7
370
    13
100
AcDbLine
 10
131.153781
 20
9.65025
 30
0.0
 11
131.231094
 21
9.65025
 31
0.0
  0
LINE
  5
A4
330
4D0
100
AcDbEntity
  8
Level 1
  6
Continuous
 62
     7
370
    13
100
AcDbLine
 10
131.153094
 20
7.690437
 30
0.0
 11
131.153094
 21
7.752562
 31
0.0
  0
LINE
  5
A5
330
4D0
100
AcDbEntity
  8
Level 1
  6
Continuous
 62
     7
370
    13
100
AcDbLine
 10
131.32774
 20
7.690437
 30
0.0
 11
131.253875
 21
7.690437
 31
0.0
  0
LINE
  5
A6
330
4D0
100
AcDbEntity
  8
Level 1
  6
Continuous
 62
     7
370
    13
100
AcDbLine
 10
131.32774
 20
9.65025
 30
0.0
 11
131.32774
 21
9.580521
 31
0.0
  0
LINE
  5
A7
330
4D0
100
AcDbEntity
  8
Level 1
  6
Continuous
 62
     7
370
    13
100
AcDbLine
 10
131.734333
 20
7.690437
 30
0.0
 11
131.666687
 21
7.690437
 31
0.0
  0
LINE
  5
A8
330
4D0
100
AcDbEntity
  8
Level 1
  6
Continuous
 62
     7
370
    13
100
AcDbLine
 10
131.559687
 20
9.65025
 30
0.0
 11
131.637
 21
9.65025
 31
0.0
  0
CIRCLE
  5
A9
330
4D0
100
AcDbEntity
  8
Level 1
  6
Continuous
 62
     7
370
    13
100
AcDbCircle
 10
131.647219
 20
9.462274
 30
0.0
 40
0.022849550625
  0
CIRCLE
  5
AA
330
4D0
100
AcDbEntity
  8
Level 1
  6
Continuous
 62
     7
370
    13
100
AcDbCircle
 10
131.647219
 20
7.86108
 30
0.0
 40
0.022849550625
  0
LINE
  5
AB
330
4D0
100
AcDbEntity
  8
Level 1
  6
Continuous
 62
     7
370
    13
100
AcDbLine
 10
131.944885
 20
9.65025
 30
0.0
 11
132.011156
 21
9.65025
 31
0.0
  0
LINE
  5
AC
330
4D0
100
AcDbEntity
  8
Level 1
  6
Continuous
 62
     7
370
    13
100
AcDbLine
 10
132.118844
 20
7.690437
 30
0.0
 11
132.047052
 21
7.690437
 31
0.0
  0
LINE
  5
AD
330
4D0
100
AcDbEntity
  8
Level 1
  6
Continuous
 62
     7
370
    13
100
AcDbLine
 10
132.51026
 20
9.65025
 30
0.0
 11
132.51026
 21
9.576385
 31
0.0
  0
LINE
  5
AE
330
4D0
100
AcDbEntity
  8
Level 1
  6
Continuous
 62
     7
370
    13
100
AcDbLine
 10
132.51026
 20
7.690437
 30
0.0
 11
132.435698
 21
7.690437
 31
0.0
  0
LINE
  5
AF
330
4D0
100
AcDbEntity
  8
Level 1
  6
Continuous
 62
     7
370
    13
100
AcDbLine
 10
132.336292
 20
9.65025
 30
0.0
 11
132.404635
 21
9.65025
 31
0.0
  0
CIRCLE
  5
B0
330
4D0
100
AcDbEntity
  8
Level 1
  6
Continuous
 62
     7
370
    13
100
AcDbCircle
 10
132.423275
 20
9.46331
 30
0.0
 40
0.022849550625
  0
CIRCLE
  5
B1
330
4D0
100
AcDbEntity
  8
Level 1
  6
Continuous
 62
     7
370
    13
100
AcDbCircle
 10
132.423275
 20
7.868328
 30
0.0
 40
0.022849550625
  0
LINE
  5
B2
330
4D0
100
AcDbEntity
  8
Level 1
  6
Continuous
 62
     7
370
    13
100
AcDbLine
 10
132.708375
 20
9.65025
 30
0.0
 11
132.785
 21
9.65025
 31
0.0
  0
LINE
  5
B3
330
4D0
100
AcDbEntity
  8
Level 1
  6
Continuous
 62
     7
370
    13
100
AcDbLine
 10
132.707687
 20
7.690437
 30
0.0
 11
132.707687
 21
7.756708
 31
0.0
  0
LINE
  5
B4
330
4D0
100
AcDbEntity
  8
Level 1
  6
Continuous
 62
     7
370
    13
100
AcDbLine
 10
132.882333
 20
7.690437
 30
0.0
 11
132.807094
 21
7.690437
 31
0.0
  0
LINE
  5
B5
330
4D0
100
AcDbEntity
  8
Level 1
  6
Continuous
 62
     7
370
    13
100
AcDbLine
 10
132.882333
 20
9.65025
 30
0.0
 11
132.882333
 21
9.576385
 31
0.0
  0
LINE
  5
B6
330
4D0
100
AcDbEntity
  8
Level 1
  6
Continuous
 62
     7
370
    13
100
AcDbLine
 10
133.282719
 20
9.65025
 30
0.0
 11
133.282719
 21
9.576385
 31
0.0
  0
LINE
  5
B7
330
4D0
100
AcDbEntity
  8
Level 1
  6
Continuous
 62
     7
370
    13
100
AcDbLine
 10
133.282719
 20
7.690437
 30
0.0
 11
133.204021
 21
7.690437
 31
0.0
  0
LINE
  5
B8
330
4D0
100
AcDbEntity
  8
Level 1
  6
Continuous
 62
     7
370
    13
100
AcDbLine
 10
133.10876
 20
7.690437
 30
0.0
 11
133.10876
 21
7.747729
 31
0.0
  0
LINE
  5
B9
330
4D0
100
AcDbEntity
  8
Level 1
  6
Continuous
 62
     7
370
    13
100
AcDbLine
 10
133.10876
 20
9.65025
 30
0.0
 11
133.18125
 21
9.65025
 31
0.0
  0
CIRCLE
  5
BA
330
4D0
100
AcDbEntity
  8
Level 1
  6
Continuous
 62
     7
370
    13
100
AcDbCircle
 10
133.196018
 20
9.463241
 30
0.0
 40
0.022849550625
  0
CIRCLE
  5
BB
330
4D0
100
AcDbEntity
  8
Level 1
  6
Continuous
 62
     7
370
    13
100
AcDbCircle
 10
133.196018
 20
7.852796
 30
0.0
 40
0.022849550625
  0
LINE
  5
BC
330
4D0
100
AcDbEntity
  8
Level 1
  6
Continuous
 62
     7
370
    13
100
AcDbLine
 10
133.509833
 20
9.65025
 30
0.0
 11
133.585083
 21
9.65025
 31
0.0
  0
LINE
  5
BD
330
4D0
100
AcDbEntity
  8
Level 1
  6
Continuous
 62
     7
370
    13
100
AcDbLine
 10
133.683802
 20
7.690437
 30
0.0
 11
133.610625
 21
7.690437
 31
0.0
  0
LINE
  5
BE
330
4D0
100
AcDbEntity
  8
Level 1
  6
Continuous
 62
     7
370
    13
100
AcDbLine
 10
134.057948
 20
7.690437
 30
0.0
 11
133.979948
 21
7.690437
 31
0.0
  0
LINE
  5
BF
330
4D0
100
AcDbEntity
  8
Level 1
  6
Continuous
 62
     7
370
    13
100
AcDbLine
 10
133.883302
 20
9.65025
 30
0.0
 11
133.959927
 21
9.65025
 31
0.0
  0
CIRCLE
  5
C0
330
4D0
100
AcDbEntity
  8
Level 1
  6
Continuous
 62
     7
370
    13
100
AcDbCircle
 10
133.970832
 20
9.464345
 30
0.0
 40
0.022849550625
  0
CIRCLE
  5
C1
330
4D0
100
AcDbEntity
  8
Level 1
  6
Continuous
 62
     7
370
    13
100
AcDbCircle
 10
133.970832
 20
7.847619
 30
0.0
 40
0.022849550625
  0
LINE
  5
C2
330
4D0
100
AcDbEntity
  8
Level 1
  6
Continuous
 62
     7
370
    13
100
AcDbLine
 10
134.266427
 20
9.65025
 30
0.0
 11
134.332698
 21
9.65025
 31
0.0
  0
LINE
  5
C3
330
4D0
100
AcDbEntity
  8
Level 1
  6
Continuous
 62
     7
370
    13
100
AcDbLine
 10
134.440385
 20
7.690437
 30
0.0
 11
134.361
 21
7.690437
 31
0.0
  0
LINE
  5
C4
330
4D0
100
AcDbEntity
  8
Level 1
  6
Continuous
 62
     7
370
    13
100
AcDbLine
 10
134.824208
 20
9.65025
 30
0.0
 11
134.824208
 21
9.572938
 31
0.0
  0
LINE
  5
C5
330
4D0
100
AcDbEntity
  8
Level 1
  6
Continuous
 62
     7
370
    13
100
AcDbLine
 10
134.824208
 20
7.690437
 30
0.0
 11
134.744812
 21
7.690437
 31
0.0
  0
LINE
  5
C6
330
4D0
100
AcDbEntity
  8
Level 1
  6
Continuous
 62
     7
370
    13
100
AcDbLine
 10
134.649552
 20
7.690437
 30
0.0
 11
134.649552
 21
7.732542
 31
0.0
  0
LINE
  5
C7
330
4D0
100
AcDbEntity
  8
Level 1
  6
Continuous
 62
     7
370
    13
100
AcDbLine
 10
134.65024
 20
9.65025
 30
0.0
 11
134.71651
 21
9.65025
 31
0.0
  0
CIRCLE
  5
C8
330
4D0
100
AcDbEntity
  8
Level 1
  6
Continuous
 62
     7
370
    13
100
AcDbCircle
 10
134.7375
 20
9.469454
 30
0.0
 40
0.022849550625
  0
CIRCLE
  5
C9
330
4D0
100
AcDbEntity
  8
Level 1
  6
Continuous
 62
     7
370
    13
100
AcDbCircle
 10
134.7375
 20
7.854936
 30
0.0
 40
0.022849550625
  0
LINE
  5
CA
330
4D0
100
AcDbEntity
  8
Level 1
  6
Continuous
 62
     7
370
    13
100
AcDbLine
 10
130.760302
 20
9.280927
 30
0.0
 11
130.760302
 21
9.356177
 31
0.0
  0
LINE
  5
CB
330
4D0
100
AcDbEntity
  8
Level 1
  6
Continuous
 62
     7
370
    13
100
AcDbLine
 10
130.934948
 20
9.176687
 30
0.0
 11
130.934948
 21
9.143552
 31
0.0
  0
LINE
  5
CC
330
4D0
100
AcDbEntity
  8
Level 1
  6
Continuous
 62
     7
370
    13
100
AcDbLine
 10
131.153094
 20
9.287135
 30
0.0
 11
131.153094
 21
9.356177
 31
0.0
  0
LINE
  5
CD
330
4D0
100
AcDbEntity
  8
Level 1
  6
Continuous
 62
     7
370
    13
100
AcDbLine
 10
131.32774
 20
9.176687
 30
0.0
 11
131.32774
 21
9.143552
 31
0.0
  0
LINE
  5
CE
330
4D0
100
AcDbEntity
  8
Level 1
  6
Continuous
 62
     7
370
    13
100
AcDbLine
 10
131.559687
 20
9.291969
 30
0.0
 11
131.559687
 21
9.356177
 31
0.0
  0
LINE
  5
CF
330
4D0
100
AcDbEntity
  8
Level 1
  6
Continuous
 62
     7
370
    13
100
AcDbLine
 10
131.734333
 20
9.177375
 30
0.0
 11
131.734333
 21
9.143552
 31
0.0
  0
LINE
  5
D0
330
4D0
100
AcDbEntity
  8
Level 1
  6
Continuous
 62
     7
370
    13
100
AcDbLine
 10
131.944198
 20
9.283
 30
0.0
 11
131.944198
 21
9.352719
 31
0.0
  0
LINE
  5
D1
330
4D0
100
AcDbEntity
  8
Level 1
  6
Continuous
 62
     7
370
    13
100
AcDbLine
 10
132.118844
 20
9.176
 30
0.0
 11
132.118844
 21
9.143552
 31
0.0
  0
LINE
  5
D2
330
4D0
100
AcDbEntity
  8
Level 1
  6
Continuous
 62
     7
370
    13
100
AcDbLine
 10
132.335604
 20
9.287135
 30
0.0
 11
132.335604
 21
9.356177
 31
0.0
  0
LINE
  5
D3
330
4D0
100
AcDbEntity
  8
Level 1
  6
Continuous
 62
     7
370
    13
100
AcDbLine
 10
132.51026
 20
9.17876
 30
0.0
 11
132.51026
 21
9.143552
 31
0.0
  0
LINE
  5
D4
330
4D0
100
AcDbEntity
  8
Level 1
  6
Continuous
 62
     7
370
    13
100
AcDbLine
 10
132.707687
 20
9.289208
 30
0.0
 11
132.707687
 21
9.352719
 31
0.0
  0
LINE
  5
D5
330
4D0
100
AcDbEntity
  8
Level 1
  6
Continuous
 62
     7
370
    13
100
AcDbLine
 10
132.882333
 20
9.174615
 30
0.0
 11
132.882333
 21
9.131823
 31
0.0
  0
LINE
  5
D6
330
4D0
100
AcDbEntity
  8
Level 1
  6
Continuous
 62
     7
370
    13
100
AcDbLine
 10
133.10876
 20
9.282312
 30
0.0
 11
133.10876
 21
9.349271
 31
0.0
  0
LINE
  5
D7
330
4D0
100
AcDbEntity
  8
Level 1
  6
Continuous
 62
     7
370
    13
100
AcDbLine
 10
133.282719
 20
9.179448
 30
0.0
 11
133.282719
 21
9.106281
 31
0.0
  0
LINE
  5
D8
330
4D0
100
AcDbEntity
  8
Level 1
  6
Continuous
 62
     7
370
    13
100
AcDbLine
 10
133.509146
 20
9.283
 30
0.0
 11
133.509146
 21
9.352719
 31
0.0
  0
LINE
  5
D9
330
4D0
100
AcDbEntity
  8
Level 1
  6
Continuous
 62
     7
370
    13
100
AcDbLine
 10
133.683802
 20
9.180146
 30
0.0
 11
133.683802
 21
9.106281
 31
0.0
  0
LINE
  5
DA
330
4D0
100
AcDbEntity
  8
Level 1
  6
Continuous
 62
     7
370
    13
100
AcDbLine
 10
133.883302
 20
9.281615
 30
0.0
 11
133.883302
 21
9.352719
 31
0.0
  0
LINE
  5
DB
330
4D0
100
AcDbEntity
  8
Level 1
  6
Continuous
 62
     7
370
    13
100
AcDbLine
 10
134.057948
 20
9.17876
 30
0.0
 11
134.057948
 21
9.100062
 31
0.0
  0
LINE
  5
DC
330
4D0
100
AcDbEntity
  8
Level 1
  6
Continuous
 62
     7
370
    13
100
AcDbLine
 10
133.883302
 20
8.147427
 30
0.0
 11
133.883302
 21
8.204031
 31
0.0
  0
LINE
  5
DD
330
4D0
100
AcDbEntity
  8
Level 1
  6
Continuous
 62
     7
370
    13
100
AcDbLine
 10
134.057948
 20
8.021781
 30
0.0
 11
134.057948
 21
7.949302
 31
0.0
  0
LINE
  5
DE
330
4D0
100
AcDbEntity
  8
Level 1
  6
Continuous
 62
     7
370
    13
100
AcDbLine
 10
133.683802
 20
8.023854
 30
0.0
 11
133.683802
 21
7.985885
 31
0.0
  0
LINE
  5
DF
330
4D0
100
AcDbEntity
  8
Level 1
  6
Continuous
 62
     7
370
    13
100
AcDbLine
 10
133.509146
 20
8.144667
 30
0.0
 11
133.509146
 21
8.21024
 31
0.0
  0
LINE
  5
E0
330
4D0
100
AcDbEntity
  8
Level 1
  6
Continuous
 62
     7
370
    13
100
AcDbLine
 10
133.282719
 20
8.025927
 30
0.0
 11
133.282719
 21
7.985885
 31
0.0
  0
LINE
  5
E1
330
4D0
100
AcDbEntity
  8
Level 1
  6
Continuous
 62
     7
370
    13
100
AcDbLine
 10
133.10876
 20
8.144667
 30
0.0
 11
133.10876
 21
8.21024
 31
0.0
  0
LINE
  5
E2
330
4D0
100
AcDbEntity
  8
Level 1
  6
Continuous
 62
     7
370
    13
100
AcDbLine
 10
132.882333
 20
8.020406
 30
0.0
 11
132.882333
 21
7.985885
 31
0.0
  0
LINE
  5
E3
330
4D0
100
AcDbEntity
  8
Level 1
  6
Continuous
 62
     7
370
    13
100
AcDbLine
 10
132.707687
 20
8.145354
 30
0.0
 11
132.707687
 21
8.204031
 31
0.0
  0
LINE
  5
E4
330
4D0
100
AcDbEntity
  8
Level 1
  6
Continuous
 62
     7
370
    13
100
AcDbLine
 10
132.51026
 20
8.020406
 30
0.0
 11
132.51026
 21
7.98175
 31
0.0
  0
LINE
  5
E5
330
4D0
100
AcDbEntity
  8
Level 1
  6
Continuous
 62
     7
370
    13
100
AcDbLine
 10
132.335604
 20
8.146042
 30
0.0
 11
132.335604
 21
8.209552
 31
0.0
  0
LINE
  5
E6
330
4D0
100
AcDbEntity
  8
Level 1
  6
Continuous
 62
     7
370
    13
100
AcDbLine
 10
132.118844
 20
8.021094
 30
0.0
 11
132.118844
 21
7.979677
 31
0.0
  0
LINE
  5
E7
330
4D0
100
AcDbEntity
  8
Level 1
  6
Continuous
 62
     7
370
    13
100
AcDbLine
 10
131.944198
 20
8.145354
 30
0.0
 11
131.944198
 21
8.204719
 31
0.0
  0
LINE
  5
E8
330
4D0
100
AcDbEntity
  8
Level 1
  6
Continuous
 62
     7
370
    13
100
AcDbLine
 10
131.734333
 20
8.021781
 30
0.0
 11
131.734333
 21
7.986583
 31
0.0
  0
LINE
  5
E9
330
4D0
100
AcDbEntity
  8
Level 1
  6
Continuous
 62
     7
370
    13
100
AcDbLine
 10
131.559687
 20
8.143281
 30
0.0
 11
131.559687
 21
8.209552
 31
0.0
  0
LINE
  5
EA
330
4D0
100
AcDbEntity
  8
Level 1
  6
Continuous
 62
     7
370
    13
100
AcDbLine
 10
131.32774
 20
8.021094
 30
0.0
 11
131.32774
 21
7.986583
 31
0.0
  0
LINE
  5
EB
330
4D0
100
AcDbEntity
  8
Level 1
  6
Continuous
 62
     7
370
    13
100
AcDbLine
 10
131.153094
 20
8.1495
 30
0.0
 11
131.153094
 21
8.204719
 31
0.0
  0
LINE
  5
EC
330
4D0
100
AcDbEntity
  8
Level 1
  6
Continuous
 62
     7
370
    13
100
AcDbLine
 10
130.934948
 20
8.021094
 30
0.0
 11
130.934948
 21
7.997625
 31
0.0
  0
LINE
  5
ED
330
4D0
100
AcDbEntity
  8
Level 1
  6
Continuous
 62
     7
370
    13
100
AcDbLine
 10
130.760302
 20
8.1495
 30
0.0
 11
130.760302
 21
8.209552
 31
0.0
  0
LWPOLYLINE
  5
EE
330
4D0
100
AcDbEntity
  8
Level 1
  6
Continuous
 62
     7
370
    13
100
AcDbPolyline
 90
        3
 70
   128
 43
0.0
 10
130.709906
 20
9.826969
 10
130.646396
 20
9.6965
 10
130.646396
 20
9.283687
  0
LINE
  5
EF
330
4D0
100
AcDbEntity
  8
Level 1
  6
Continuous
 62
     7
370
    13
100
AcDbLine
 10
130.646396
 20
9.176687
 30
0.0
 11
130.646396
 21
8.138448
 31
0.0
  0
LWPOLYLINE
  5
F0
330
4D0
100
AcDbEntity
  8
Level 1
  6
Continuous
 62
     7
370
    13
100
AcDbPolyline
 90
        4
 70
   128
 43
0.0
 10
130.517302
 20
8.025927
 10
130.517302
 20
7.690437
 10
130.375792
 20
7.690437
 10
130.375792
 20
8.025927
  0
LINE
  5
F1
330
4D0
100
AcDbEntity
  8
Level 1
  6
Continuous
 62
     7
370
    13
100
AcDbLine
 10
130.517302
 20
9.180146
 30
0.0
 11
130.517302
 21
8.143969
 31
0.0
  0
LINE
  5
F2
330
4D0
100
AcDbEntity
  8
Level 1
  6
Continuous
 62
     7
370
    13
100
AcDbLine
 10
130.375792
 20
8.143281
 30
0.0
 11
130.375792
 21
9.180833
 31
0.0
  0
LINE
  5
F3
330
4D0
100
AcDbEntity
  8
Level 1
  6
Continuous
 62
     7
370
    13
100
AcDbLine
 10
130.375792
 20
9.284375
 30
0.0
 11
130.375792
 21
9.653698
 31
0.0
  0
LINE
  5
F4
330
4D0
100
AcDbEntity
  8
Level 1
  6
Continuous
 62
     7
370
    13
100
AcDbLine
 10
130.709219
 20
9.824896
 30
0.0
 11
130.709219
 21
9.374125
 31
0.0
  0
LWPOLYLINE
  5
F5
330
4D0
100
AcDbEntity
  8
Level 1
  6
Continuous
 62
     7
370
    13
100
AcDbPolyline
 90
        3
 70
   128
 43
0.0
 10
130.377167
 20
9.653698
 10
130.517302
 20
9.653698
 10
130.517302
 20
9.28576
  0
LINE
  5
F6
330
4D0
100
AcDbEntity
  8
Level 1
  6
Continuous
 62
     7
370
    13
100
AcDbLine
 10
130.860396
 20
9.65025
 30
0.0
 11
130.934948
 21
9.65025
 31
0.0
  0
LINE
  5
F7
330
4D0
100
AcDbEntity
  8
Level 1
  6
Continuous
 62
     7
370
    13
100
AcDbLine
 10
131.259396
 20
9.65025
 30
0.0
 11
131.32774
 21
9.65025
 31
0.0
  0
LINE
  5
F8
330
4D0
100
AcDbEntity
  8
Level 1
  6
Continuous
 62
     7
370
    13
100
AcDbLine
 10
130.760302
 20
9.575698
 30
0.0
 11
130.760302
 21
9.64749
 31
0.0
  0
LINE
  5
F9
330
4D0
100
AcDbEntity
  8
Level 1
  6
Continuous
 62
     7
370
    13
100
AcDbLine
 10
130.760302
 20
9.492854
 30
0.0
 11
130.760302
 21
9.554292
 31
0.0
  0
LINE
  5
FA
330
4D0
100
AcDbEntity
  8
Level 1
  6
Continuous
 62
     7
370
    13
100
AcDbLine
 10
130.760302
 20
9.388615
 30
0.0
 11
130.760302
 21
9.459719
 31
0.0
  0
LINE
  5
FB
330
4D0
100
AcDbEntity
  8
Level 1
  6
Continuous
 62
     7
370
    13
100
AcDbLine
 10
130.934948
 20
9.555677
 30
0.0
 11
130.934948
 21
9.493542
 31
0.0
  0
LINE
  5
FC
330
4D0
100
AcDbEntity
  8
Level 1
  6
Continuous
 62
     7
370
    13
100
AcDbLine
 10
130.934948
 20
9.458344
 30
0.0
 11
130.934948
 21
9.39
 31
0.0
  0
LINE
  5
FD
330
4D0
100
AcDbEntity
  8
Level 1
  6
Continuous
 62
     7
370
    13
100
AcDbLine
 10
130.934948
 20
9.354792
 30
0.0
 11
130.934948
 21
9.283687
 31
0.0
  0
LINE
  5
FE
330
4D0
100
AcDbEntity
  8
Level 1
  6
Continuous
 62
     7
370
    13
100
AcDbLine
 10
131.153094
 20
9.39
 30
0.0
 11
131.153094
 21
9.454198
 31
0.0
  0
LINE
  5
FF
330
4D0
100
AcDbEntity
  8
Level 1
  6
Continuous
 62
     7
370
    13
100
AcDbLine
 10
131.153094
 20
9.491479
 30
0.0
 11
131.153094
 21
9.553604
 31
0.0
  0
LINE
  5
100
330
4D0
100
AcDbEntity
  8
Level 1
  6
Continuous
 62
     7
370
    13
100
AcDbLine
 10
131.153094
 20
9.580521
 30
0.0
 11
131.153094
 21
9.64749
 31
0.0
  0
LINE
  5
101
330
4D0
100
AcDbEntity
  8
Level 1
  6
Continuous
 62
     7
370
    13
100
AcDbLine
 10
131.32774
 20
9.554292
 30
0.0
 11
131.32774
 21
9.493542
 31
0.0
  0
LINE
  5
102
330
4D0
100
AcDbEntity
  8
Level 1
  6
Continuous
 62
     7
370
    13
100
AcDbLine
 10
131.32774
 20
9.456271
 30
0.0
 11
131.32774
 21
9.395521
 31
0.0
  0
LINE
  5
103
330
4D0
100
AcDbEntity
  8
Level 1
  6
Continuous
 62
     7
370
    13
100
AcDbLine
 10
131.32774
 20
9.358937
 30
0.0
 11
131.32774
 21
9.28024
 31
0.0
  0
LINE
  5
104
330
4D0
100
AcDbEntity
  8
Level 1
  6
Continuous
 62
     7
370
    13
100
AcDbLine
 10
130.709219
 20
9.090396
 30
0.0
 11
130.709219
 21
8.23924
 31
0.0
  0
LINE
  5
105
330
4D0
100
AcDbEntity
  8
Level 1
  6
Continuous
 62
     7
370
    13
100
AcDbLine
 10
130.709219
 20
7.93274
 30
0.0
 11
130.709219
 21
7.52476
 31
0.0
  0
LINE
  5
106
330
4D0
100
AcDbEntity
  8
Level 1
  6
Continuous
 62
     7
370
    13
100
AcDbLine
 10
130.832094
 20
7.690437
 30
0.0
 11
130.760302
 21
7.690437
 31
0.0
  0
LINE
  5
107
330
4D0
100
AcDbEntity
  8
Level 1
  6
Continuous
 62
     7
370
    13
100
AcDbLine
 10
131.222813
 20
7.690437
 30
0.0
 11
131.153094
 21
7.690437
 31
0.0
  0
LINE
  5
108
330
4D0
100
AcDbEntity
  8
Level 1
  6
Continuous
 62
     7
370
    13
100
AcDbLine
 10
131.632865
 20
7.690437
 30
0.0
 11
131.559687
 21
7.690437
 31
0.0
  0
LINE
  5
109
330
4D0
100
AcDbEntity
  8
Level 1
  6
Continuous
 62
     7
370
    13
100
AcDbLine
 10
132.018062
 20
7.690437
 30
0.0
 11
131.944198
 21
7.690437
 31
0.0
  0
LINE
  5
10A
330
4D0
100
AcDbEntity
  8
Level 1
  6
Continuous
 62
     7
370
    13
100
AcDbLine
 10
130.760302
 20
7.780865
 30
0.0
 11
130.760302
 21
7.862323
 31
0.0
  0
LINE
  5
10B
330
4D0
100
AcDbEntity
  8
Level 1
  6
Continuous
 62
     7
370
    13
100
AcDbLine
 10
130.934948
 20
7.752562
 30
0.0
 11
130.934948
 21
7.690437
 31
0.0
  0
LINE
  5
10C
330
4D0
100
AcDbEntity
  8
Level 1
  6
Continuous
 62
     7
370
    13
100
AcDbLine
 10
131.153094
 20
7.784312
 30
0.0
 11
131.153094
 21
7.847135
 31
0.0
  0
LINE
  5
10D
330
4D0
100
AcDbEntity
  8
Level 1
  6
Continuous
 62
     7
370
    13
100
AcDbLine
 10
130.760302
 20
7.902365
 30
0.0
 11
130.760302
 21
7.97001
 31
0.0
  0
LINE
  5
10E
330
4D0
100
AcDbEntity
  8
Level 1
  6
Continuous
 62
     7
370
    13
100
AcDbLine
 10
130.760302
 20
8.005906
 30
0.0
 11
130.760302
 21
8.02524
 31
0.0
  0
LINE
  5
10F
330
4D0
100
AcDbEntity
  8
Level 1
  6
Continuous
 62
     7
370
    13
100
AcDbLine
 10
130.934948
 20
7.965177
 30
0.0
 11
130.934948
 21
7.903052
 31
0.0
  0
LINE
  5
110
330
4D0
100
AcDbEntity
  8
Level 1
  6
Continuous
 62
     7
370
    13
100
AcDbLine
 10
130.934948
 20
7.869229
 30
0.0
 11
130.934948
 21
7.782938
 31
0.0
  0
LINE
  5
111
330
4D0
100
AcDbEntity
  8
Level 1
  6
Continuous
 62
     7
370
    13
100
AcDbLine
 10
131.153094
 20
7.887177
 30
0.0
 11
131.153094
 21
7.963802
 31
0.0
  0
LINE
  5
112
330
4D0
100
AcDbEntity
  8
Level 1
  6
Continuous
 62
     7
370
    13
100
AcDbLine
 10
131.153094
 20
7.992104
 30
0.0
 11
131.153094
 21
8.019021
 31
0.0
  0
LINE
  5
113
330
4D0
100
AcDbEntity
  8
Level 1
  6
Continuous
 62
     7
370
    13
100
AcDbLine
 10
131.32774
 20
7.958969
 30
0.0
 11
131.32774
 21
7.896146
 31
0.0
  0
LINE
  5
114
330
4D0
100
AcDbEntity
  8
Level 1
  6
Continuous
 62
     7
370
    13
100
AcDbLine
 10
131.32774
 20
7.854042
 30
0.0
 11
131.32774
 21
7.798812
 31
0.0
  0
LINE
  5
115
330
4D0
100
AcDbEntity
  8
Level 1
  6
Continuous
 62
     7
370
    13
100
AcDbLine
 10
131.32774
 20
7.759469
 30
0.0
 11
131.32774
 21
7.690437
 31
0.0
  0
LINE
  5
116
330
4D0
100
AcDbEntity
  8
Level 1
  6
Continuous
 62
     7
370
    13
100
AcDbLine
 10
131.559687
 20
7.892698
 30
0.0
 11
131.559687
 21
7.958281
 31
0.0
  0
LINE
  5
117
330
4D0
100
AcDbEntity
  8
Level 1
  6
Continuous
 62
     7
370
    13
100
AcDbLine
 10
131.559687
 20
7.985885
 30
0.0
 11
131.559687
 21
8.021781
 31
0.0
  0
LINE
  5
118
330
4D0
100
AcDbEntity
  8
Level 1
  6
Continuous
 62
     7
370
    13
100
AcDbLine
 10
131.734333
 20
7.958969
 30
0.0
 11
131.734333
 21
7.888552
 31
0.0
  0
LINE
  5
119
330
4D0
100
AcDbEntity
  8
Level 1
  6
Continuous
 62
     7
370
    13
100
AcDbLine
 10
131.944198
 20
7.895458
 30
0.0
 11
131.944198
 21
7.963104
 31
0.0
  0
LINE
  5
11A
330
4D0
100
AcDbEntity
  8
Level 1
  6
Continuous
 62
     7
370
    13
100
AcDbLine
 10
131.944198
 20
7.987271
 30
0.0
 11
131.944198
 21
8.020406
 31
0.0
  0
LINE
  5
11B
330
4D0
100
AcDbEntity
  8
Level 1
  6
Continuous
 62
     7
370
    13
100
AcDbLine
 10
132.118844
 20
7.95275
 30
0.0
 11
132.118844
 21
7.901667
 31
0.0
  0
LINE
  5
11C
330
4D0
100
AcDbEntity
  8
Level 1
  6
Continuous
 62
     7
370
    13
100
AcDbLine
 10
132.410854
 20
7.690437
 30
0.0
 11
132.335604
 21
7.690437
 31
0.0
  0
LINE
  5
11D
330
4D0
100
AcDbEntity
  8
Level 1
  6
Continuous
 62
     7
370
    13
100
AcDbLine
 10
132.775333
 20
7.690437
 30
0.0
 11
132.707687
 21
7.690437
 31
0.0
  0
LINE
  5
11E
330
4D0
100
AcDbEntity
  8
Level 1
  6
Continuous
 62
     7
370
    13
100
AcDbLine
 10
133.179177
 20
7.690437
 30
0.0
 11
133.10876
 21
7.690437
 31
0.0
  0
LINE
  5
11F
330
4D0
100
AcDbEntity
  8
Level 1
  6
Continuous
 62
     7
370
    13
100
AcDbLine
 10
133.582323
 20
7.690437
 30
0.0
 11
133.509146
 21
7.690437
 31
0.0
  0
LINE
  5
120
330
4D0
100
AcDbEntity
  8
Level 1
  6
Continuous
 62
     7
370
    13
100
AcDbLine
 10
132.335604
 20
7.898906
 30
0.0
 11
132.335604
 21
7.959656
 31
0.0
  0
LINE
  5
121
330
4D0
100
AcDbEntity
  8
Level 1
  6
Continuous
 62
     7
370
    13
100
AcDbLine
 10
132.335604
 20
7.98175
 30
0.0
 11
132.335604
 21
8.025927
 31
0.0
  0
LINE
  5
122
330
4D0
100
AcDbEntity
  8
Level 1
  6
Continuous
 62
     7
370
    13
100
AcDbLine
 10
132.51026
 20
7.951375
 30
0.0
 11
132.51026
 21
7.90374
 31
0.0
  0
LINE
  5
123
330
4D0
100
AcDbEntity
  8
Level 1
  6
Continuous
 62
     7
370
    13
100
AcDbLine
 10
132.51026
 20
7.864396
 30
0.0
 11
132.51026
 21
7.795365
 31
0.0
  0
LINE
  5
124
330
4D0
100
AcDbEntity
  8
Level 1
  6
Continuous
 62
     7
370
    13
100
AcDbLine
 10
132.51026
 20
7.747729
 30
0.0
 11
132.51026
 21
7.690437
 31
0.0
  0
LINE
  5
125
330
4D0
100
AcDbEntity
  8
Level 1
  6
Continuous
 62
     7
370
    13
100
AcDbLine
 10
132.707687
 20
7.78225
 30
0.0
 11
132.707687
 21
7.864396
 31
0.0
  0
LINE
  5
126
330
4D0
100
AcDbEntity
  8
Level 1
  6
Continuous
 62
     7
370
    13
100
AcDbLine
 10
132.707687
 20
7.894771
 30
0.0
 11
132.707687
 21
7.963802
 31
0.0
  0
LINE
  5
127
330
4D0
100
AcDbEntity
  8
Level 1
  6
Continuous
 62
     7
370
    13
100
AcDbLine
 10
132.707687
 20
7.985885
 30
0.0
 11
132.707687
 21
8.020406
 31
0.0
  0
LINE
  5
128
330
4D0
100
AcDbEntity
  8
Level 1
  6
Continuous
 62
     7
370
    13
100
AcDbLine
 10
132.882333
 20
7.95551
 30
0.0
 11
132.882333
 21
7.890625
 31
0.0
  0
LINE
  5
129
330
4D0
100
AcDbEntity
  8
Level 1
  6
Continuous
 62
     7
370
    13
100
AcDbLine
 10
132.882333
 20
7.869229
 30
0.0
 11
132.882333
 21
7.791219
 31
0.0
  0
LINE
  5
12A
330
4D0
100
AcDbEntity
  8
Level 1
  6
Continuous
 62
     7
370
    13
100
AcDbLine
 10
132.882333
 20
7.756708
 30
0.0
 11
132.882333
 21
7.690437
 31
0.0
  0
LINE
  5
12B
330
4D0
100
AcDbEntity
  8
Level 1
  6
Continuous
 62
     7
370
    13
100
AcDbLine
 10
133.10876
 20
7.985885
 30
0.0
 11
133.10876
 21
8.023167
 31
0.0
  0
LINE
  5
12C
330
4D0
100
AcDbEntity
  8
Level 1
  6
Continuous
 62
     7
370
    13
100
AcDbLine
 10
133.10876
 20
7.890625
 30
0.0
 11
133.10876
 21
7.951375
 31
0.0
  0
LINE
  5
12D
330
4D0
100
AcDbEntity
  8
Level 1
  6
Continuous
 62
     7
370
    13
100
AcDbLine
 10
133.10876
 20
7.78225
 30
0.0
 11
133.10876
 21
7.864396
 31
0.0
  0
LINE
  5
12E
330
4D0
100
AcDbEntity
  8
Level 1
  6
Continuous
 62
     7
370
    13
100
AcDbLine
 10
133.282719
 20
7.739448
 30
0.0
 11
133.282719
 21
7.690437
 31
0.0
  0
LINE
  5
12F
330
4D0
100
AcDbEntity
  8
Level 1
  6
Continuous
 62
     7
370
    13
100
AcDbLine
 10
133.282719
 20
7.864396
 30
0.0
 11
133.282719
 21
7.778104
 31
0.0
  0
LINE
  5
130
330
4D0
100
AcDbEntity
  8
Level 1
  6
Continuous
 62
     7
370
    13
100
AcDbLine
 10
133.282719
 20
7.951375
 30
0.0
 11
133.282719
 21
7.890625
 31
0.0
  0
LINE
  5
131
330
4D0
100
AcDbEntity
  8
Level 1
  6
Continuous
 62
     7
370
    13
100
AcDbLine
 10
133.509146
 20
7.985885
 30
0.0
 11
133.509146
 21
8.022479
 31
0.0
  0
LINE
  5
132
330
4D0
100
AcDbEntity
  8
Level 1
  6
Continuous
 62
     7
370
    13
100
AcDbLine
 10
133.509146
 20
7.890625
 30
0.0
 11
133.509146
 21
7.951375
 31
0.0
  0
LINE
  5
133
330
4D0
100
AcDbEntity
  8
Level 1
  6
Continuous
 62
     7
370
    13
100
AcDbLine
 10
133.683802
 20
7.951375
 30
0.0
 11
133.683802
 21
7.890625
 31
0.0
  0
LINE
  5
134
330
4D0
100
AcDbEntity
  8
Level 1
  6
Continuous
 62
     7
370
    13
100
AcDbLine
 10
133.954406
 20
7.690437
 30
0.0
 11
133.883302
 21
7.690437
 31
0.0
  0
LINE
  5
135
330
4D0
100
AcDbEntity
  8
Level 1
  6
Continuous
 62
     7
370
    13
100
AcDbLine
 10
134.33201
 20
7.690437
 30
0.0
 11
134.26574
 21
7.690437
 31
0.0
  0
LINE
  5
136
330
4D0
100
AcDbEntity
  8
Level 1
  6
Continuous
 62
     7
370
    13
100
AcDbLine
 10
134.719271
 20
7.690437
 30
0.0
 11
134.649552
 21
7.690437
 31
0.0
  0
LINE
  5
137
330
4D0
100
AcDbEntity
  8
Level 1
  6
Continuous
 62
     7
370
    13
100
AcDbLine
 10
133.883302
 20
7.876125
 30
0.0
 11
133.883302
 21
7.91824
 31
0.0
  0
LINE
  5
138
330
4D0
100
AcDbEntity
  8
Level 1
  6
Continuous
 62
     7
370
    13
100
AcDbLine
 10
133.883302
 20
7.945854
 30
0.0
 11
133.883302
 21
8.009365
 31
0.0
  0
LINE
  5
139
330
4D0
100
AcDbEntity
  8
Level 1
  6
Continuous
 62
     7
370
    13
100
AcDbLine
 10
134.057948
 20
7.910646
 30
0.0
 11
134.057948
 21
7.845063
 31
0.0
  0
LINE
  5
13A
330
4D0
100
AcDbEntity
  8
Level 1
  6
Continuous
 62
     7
370
    13
100
AcDbLine
 10
134.26574
 20
7.891312
 30
0.0
 11
134.26574
 21
7.953448
 31
0.0
  0
LINE
  5
13B
330
4D0
100
AcDbEntity
  8
Level 1
  6
Continuous
 62
     7
370
    13
100
AcDbLine
 10
134.26574
 20
7.980365
 30
0.0
 11
134.26574
 21
8.023167
 31
0.0
  0
LINE
  5
13C
330
4D0
100
AcDbEntity
  8
Level 1
  6
Continuous
 62
     7
370
    13
100
AcDbLine
 10
134.440385
 20
7.736687
 30
0.0
 11
134.440385
 21
7.690437
 31
0.0
  0
LINE
  5
13D
330
4D0
100
AcDbEntity
  8
Level 1
  6
Continuous
 62
     7
370
    13
100
AcDbLine
 10
134.440385
 20
7.852656
 30
0.0
 11
134.440385
 21
7.763604
 31
0.0
  0
LINE
  5
13E
330
4D0
100
AcDbEntity
  8
Level 1
  6
Continuous
 62
     7
370
    13
100
AcDbLine
 10
134.440385
 20
7.953448
 30
0.0
 11
134.440385
 21
7.887865
 31
0.0
  0
LINE
  5
13F
330
4D0
100
AcDbEntity
  8
Level 1
  6
Continuous
 62
     7
370
    13
100
AcDbLine
 10
134.649552
 20
7.980365
 30
0.0
 11
134.649552
 21
8.023167
 31
0.0
  0
LINE
  5
140
330
4D0
100
AcDbEntity
  8
Level 1
  6
Continuous
 62
     7
370
    13
100
AcDbLine
 10
134.649552
 20
7.883719
 30
0.0
 11
134.649552
 21
7.953448
 31
0.0
  0
LINE
  5
141
330
4D0
100
AcDbEntity
  8
Level 1
  6
Continuous
 62
     7
370
    13
100
AcDbLine
 10
134.649552
 20
7.763604
 30
0.0
 11
134.649552
 21
7.849208
 31
0.0
  0
LINE
  5
142
330
4D0
100
AcDbEntity
  8
Level 1
  6
Continuous
 62
     7
370
    13
100
AcDbLine
 10
134.824208
 20
7.729094
 30
0.0
 11
134.824208
 21
7.690437
 31
0.0
  0
LINE
  5
143
330
4D0
100
AcDbEntity
  8
Level 1
  6
Continuous
 62
     7
370
    13
100
AcDbLine
 10
134.824208
 20
7.845063
 30
0.0
 11
134.824208
 21
7.763604
 31
0.0
  0
LINE
  5
144
330
4D0
100
AcDbEntity
  8
Level 1
  6
Continuous
 62
     7
370
    13
100
AcDbLine
 10
134.824208
 20
7.949302
 30
0.0
 11
134.824208
 21
7.883719
 31
0.0
  0
LINE
  5
145
330
4D0
100
AcDbEntity
  8
Level 1
  6
Continuous
 62
     7
370
    13
100
AcDbLine
 10
130.760302
 20
8.246833
 30
0.0
 11
130.760302
 21
8.340708
 31
0.0
  0
LINE
  5
146
330
4D0
100
AcDbEntity
  8
Level 1
  6
Continuous
 62
     7
370
    13
100
AcDbLine
 10
130.760302
 20
8.382823
 30
0.0
 11
130.760302
 21
8.486375
 31
0.0
  0
LINE
  5
147
330
4D0
100
AcDbEntity
  8
Level 1
  6
Continuous
 62
     7
370
    13
100
AcDbLine
 10
130.760302
 20
8.523646
 30
0.0
 11
130.760302
 21
8.617531
 31
0.0
  0
LINE
  5
148
330
4D0
100
AcDbEntity
  8
Level 1
  6
Continuous
 62
     7
370
    13
100
AcDbLine
 10
130.760302
 20
8.650667
 30
0.0
 11
130.760302
 21
8.753521
 31
0.0
  0
LINE
  5
149
330
4D0
100
AcDbEntity
  8
Level 1
  6
Continuous
 62
     7
370
    13
100
AcDbLine
 10
130.760302
 20
8.786656
 30
0.0
 11
130.760302
 21
8.890208
 31
0.0
  0
LINE
  5
14A
330
4D0
100
AcDbEntity
  8
Level 1
  6
Continuous
 62
     7
370
    13
100
AcDbLine
 10
130.760302
 20
8.91851
 30
0.0
 11
130.760302
 21
9.017229
 31
0.0
  0
LINE
  5
14B
330
4D0
100
AcDbEntity
  8
Level 1
  6
Continuous
 62
     7
370
    13
100
AcDbLine
 10
130.760302
 20
9.049667
 30
0.0
 11
130.760302
 21
9.111104
 31
0.0
  0
LINE
  5
14C
330
4D0
100
AcDbEntity
  8
Level 1
  6
Continuous
 62
     7
370
    13
100
AcDbLine
 10
130.934948
 20
9.012396
 30
0.0
 11
130.934948
 21
8.913677
 31
0.0
  0
LINE
  5
14D
330
4D0
100
AcDbEntity
  8
Level 1
  6
Continuous
 62
     7
370
    13
100
AcDbLine
 10
130.934948
 20
8.885375
 30
0.0
 11
130.934948
 21
8.781823
 31
0.0
  0
LINE
  5
14E
330
4D0
100
AcDbEntity
  8
Level 1
  6
Continuous
 62
     7
370
    13
100
AcDbLine
 10
130.934948
 20
8.749385
 30
0.0
 11
130.934948
 21
8.645833
 31
0.0
  0
LINE
  5
14F
330
4D0
100
AcDbEntity
  8
Level 1
  6
Continuous
 62
     7
370
    13
100
AcDbLine
 10
130.934948
 20
8.612698
 30
0.0
 11
130.934948
 21
8.518812
 31
0.0
  0
LINE
  5
150
330
4D0
100
AcDbEntity
  8
Level 1
  6
Continuous
 62
     7
370
    13
100
AcDbLine
 10
130.934948
 20
8.481542
 30
0.0
 11
130.934948
 21
8.37799
 31
0.0
  0
LINE
  5
151
330
4D0
100
AcDbEntity
  8
Level 1
  6
Continuous
 62
     7
370
    13
100
AcDbLine
 10
130.934948
 20
8.340708
 30
0.0
 11
130.934948
 21
8.242
 31
0.0
  0
LINE
  5
152
330
4D0
100
AcDbEntity
  8
Level 1
  6
Continuous
 62
     7
370
    13
100
AcDbLine
 10
130.934948
 20
8.209552
 30
0.0
 11
130.934948
 21
8.148802
 31
0.0
  0
LINE
  5
153
330
4D0
100
AcDbEntity
  8
Level 1
  6
Continuous
 62
     7
370
    13
100
AcDbLine
 10
131.153094
 20
9.044844
 30
0.0
 11
131.153094
 21
9.11525
 31
0.0
  0
LINE
  5
154
330
4D0
100
AcDbEntity
  8
Level 1
  6
Continuous
 62
     7
370
    13
100
AcDbLine
 10
131.153094
 20
8.908844
 30
0.0
 11
131.153094
 21
9.007563
 31
0.0
  0
LINE
  5
155
330
4D0
100
AcDbEntity
  8
Level 1
  6
Continuous
 62
     7
370
    13
100
AcDbLine
 10
131.153094
 20
8.777
 30
0.0
 11
131.153094
 21
8.880542
 31
0.0
  0
LINE
  5
156
330
4D0
100
AcDbEntity
  8
Level 1
  6
Continuous
 62
     7
370
    13
100
AcDbLine
 10
131.153094
 20
8.641
 30
0.0
 11
131.153094
 21
8.744552
 31
0.0
  0
LINE
  5
157
330
4D0
100
AcDbEntity
  8
Level 1
  6
Continuous
 62
     7
370
    13
100
AcDbLine
 10
131.153094
 20
8.514677
 30
0.0
 11
131.153094
 21
8.612698
 31
0.0
  0
LINE
  5
158
330
4D0
100
AcDbEntity
  8
Level 1
  6
Continuous
 62
     7
370
    13
100
AcDbLine
 10
131.153094
 20
8.369021
 30
0.0
 11
131.153094
 21
8.471875
 31
0.0
  0
LINE
  5
159
330
4D0
100
AcDbEntity
  8
Level 1
  6
Continuous
 62
     7
370
    13
100
AcDbLine
 10
131.153094
 20
8.242
 30
0.0
 11
131.153094
 21
8.335885
 31
0.0
  0
LINE
  5
15A
330
4D0
100
AcDbEntity
  8
Level 1
  6
Continuous
 62
     7
370
    13
100
AcDbLine
 10
131.32774
 20
9.007563
 30
0.0
 11
131.32774
 21
8.908844
 31
0.0
  0
LINE
  5
15B
330
4D0
100
AcDbEntity
  8
Level 1
  6
Continuous
 62
     7
370
    13
100
AcDbLine
 10
131.32774
 20
8.875708
 30
0.0
 11
131.32774
 21
8.772854
 31
0.0
  0
LINE
  5
15C
330
4D0
100
AcDbEntity
  8
Level 1
  6
Continuous
 62
     7
370
    13
100
AcDbLine
 10
131.32774
 20
8.744552
 30
0.0
 11
131.32774
 21
8.641
 31
0.0
  0
LINE
  5
15D
330
4D0
100
AcDbEntity
  8
Level 1
  6
Continuous
 62
     7
370
    13
100
AcDbLine
 10
131.32774
 20
8.608552
 30
0.0
 11
131.32774
 21
8.509844
 31
0.0
  0
LINE
  5
15E
330
4D0
100
AcDbEntity
  8
Level 1
  6
Continuous
 62
     7
370
    13
100
AcDbLine
 10
131.32774
 20
8.471875
 30
0.0
 11
131.32774
 21
8.369021
 31
0.0
  0
LINE
  5
15F
330
4D0
100
AcDbEntity
  8
Level 1
  6
Continuous
 62
     7
370
    13
100
AcDbLine
 10
131.32774
 20
8.335885
 30
0.0
 11
131.32774
 21
8.242
 31
0.0
  0
LINE
  5
160
330
4D0
100
AcDbEntity
  8
Level 1
  6
Continuous
 62
     7
370
    13
100
AcDbLine
 10
131.32774
 20
8.204719
 30
0.0
 11
131.32774
 21
8.151562
 31
0.0
  0
LINE
  5
161
330
4D0
100
AcDbEntity
  8
Level 1
  6
Continuous
 62
     7
370
    13
100
AcDbLine
 10
131.32774
 20
9.120083
 30
0.0
 11
131.32774
 21
9.040698
 31
0.0
  0
LINE
  5
162
330
4D0
100
AcDbEntity
  8
Level 1
  6
Continuous
 62
     7
370
    13
100
AcDbLine
 10
131.153094
 20
9.143552
 30
0.0
 11
131.153094
 21
9.178073
 31
0.0
  0
LINE
  5
163
330
4D0
100
AcDbEntity
  8
Level 1
  6
Continuous
 62
     7
370
    13
100
AcDbLine
 10
130.934948
 20
9.11525
 30
0.0
 11
130.934948
 21
9.044844
 31
0.0
  0
LINE
  5
164
330
4D0
100
AcDbEntity
  8
Level 1
  6
Continuous
 62
     7
370
    13
100
AcDbLine
 10
130.760302
 20
9.143552
 30
0.0
 11
130.760302
 21
9.176
 31
0.0
  0
LINE
  5
165
330
4D0
100
AcDbEntity
  8
Level 1
  6
Continuous
 62
     7
370
    13
100
AcDbLine
 10
131.559687
 20
9.143552
 30
0.0
 11
131.559687
 21
9.176
 31
0.0
  0
LINE
  5
166
330
4D0
100
AcDbEntity
  8
Level 1
  6
Continuous
 62
     7
370
    13
100
AcDbLine
 10
131.734333
 20
9.111104
 30
0.0
 11
131.734333
 21
9.040698
 31
0.0
  0
LINE
  5
167
330
4D0
100
AcDbEntity
  8
Level 1
  6
Continuous
 62
     7
370
    13
100
AcDbLine
 10
131.944198
 20
9.143552
 30
0.0
 11
131.944198
 21
9.179448
 31
0.0
  0
LINE
  5
168
330
4D0
100
AcDbEntity
  8
Level 1
  6
Continuous
 62
     7
370
    13
100
AcDbLine
 10
132.118844
 20
9.111104
 30
0.0
 11
132.118844
 21
9.040698
 31
0.0
  0
LINE
  5
169
330
4D0
100
AcDbEntity
  8
Level 1
  6
Continuous
 62
     7
370
    13
100
AcDbLine
 10
132.335604
 20
9.138719
 30
0.0
 11
132.335604
 21
9.178073
 31
0.0
  0
LINE
  5
16A
330
4D0
100
AcDbEntity
  8
Level 1
  6
Continuous
 62
     7
370
    13
100
AcDbLine
 10
132.51026
 20
9.111104
 30
0.0
 11
132.51026
 21
9.040698
 31
0.0
  0
LINE
  5
16B
330
4D0
100
AcDbEntity
  8
Level 1
  6
Continuous
 62
     7
370
    13
100
AcDbLine
 10
131.559687
 20
9.040698
 30
0.0
 11
131.559687
 21
9.11525
 31
0.0
  0
LINE
  5
16C
330
4D0
100
AcDbEntity
  8
Level 1
  6
Continuous
 62
     7
370
    13
100
AcDbLine
 10
131.734333
 20
9.007563
 30
0.0
 11
131.734333
 21
8.908844
 31
0.0
  0
LINE
  5
16D
330
4D0
100
AcDbEntity
  8
Level 1
  6
Continuous
 62
     7
370
    13
100
AcDbLine
 10
131.944198
 20
9.040698
 30
0.0
 11
131.944198
 21
9.111104
 31
0.0
  0
LINE
  5
16E
330
4D0
100
AcDbEntity
  8
Level 1
  6
Continuous
 62
     7
370
    13
100
AcDbLine
 10
132.118844
 20
9.007563
 30
0.0
 11
132.118844
 21
8.908844
 31
0.0
  0
LINE
  5
16F
330
4D0
100
AcDbEntity
  8
Level 1
  6
Continuous
 62
     7
370
    13
100
AcDbLine
 10
132.335604
 20
9.040698
 30
0.0
 11
132.335604
 21
9.111104
 31
0.0
  0
LINE
  5
170
330
4D0
100
AcDbEntity
  8
Level 1
  6
Continuous
 62
     7
370
    13
100
AcDbLine
 10
132.51026
 20
9.007563
 30
0.0
 11
132.51026
 21
8.908844
 31
0.0
  0
LINE
  5
171
330
4D0
100
AcDbEntity
  8
Level 1
  6
Continuous
 62
     7
370
    13
100
AcDbLine
 10
131.559687
 20
8.908844
 30
0.0
 11
131.559687
 21
9.007563
 31
0.0
  0
LINE
  5
172
330
4D0
100
AcDbEntity
  8
Level 1
  6
Continuous
 62
     7
370
    13
100
AcDbLine
 10
131.944198
 20
8.908844
 30
0.0
 11
131.944198
 21
9.007563
 31
0.0
  0
LINE
  5
173
330
4D0
100
AcDbEntity
  8
Level 1
  6
Continuous
 62
     7
370
    13
100
AcDbLine
 10
132.335604
 20
8.908844
 30
0.0
 11
132.335604
 21
9.007563
 31
0.0
  0
LINE
  5
174
330
4D0
100
AcDbEntity
  8
Level 1
  6
Continuous
 62
     7
370
    13
100
AcDbLine
 10
132.51026
 20
8.875708
 30
0.0
 11
132.51026
 21
8.772854
 31
0.0
  0
LINE
  5
175
330
4D0
100
AcDbEntity
  8
Level 1
  6
Continuous
 62
     7
370
    13
100
AcDbLine
 10
132.335604
 20
8.772854
 30
0.0
 11
132.335604
 21
8.875708
 31
0.0
  0
LINE
  5
176
330
4D0
100
AcDbEntity
  8
Level 1
  6
Continuous
 62
     7
370
    13
100
AcDbLine
 10
132.51026
 20
8.739719
 30
0.0
 11
132.51026
 21
8.632031
 31
0.0
  0
LINE
  5
177
330
4D0
100
AcDbEntity
  8
Level 1
  6
Continuous
 62
     7
370
    13
100
AcDbLine
 10
131.734333
 20
8.608552
 30
0.0
 11
131.734333
 21
8.50501
 31
0.0
  0
LINE
  5
178
330
4D0
100
AcDbEntity
  8
Level 1
  6
Continuous
 62
     7
370
    13
100
AcDbLine
 10
132.118844
 20
8.598896
 30
0.0
 11
132.118844
 21
8.50501
 31
0.0
  0
LINE
  5
179
330
4D0
100
AcDbEntity
  8
Level 1
  6
Continuous
 62
     7
370
    13
100
AcDbLine
 10
132.335604
 20
8.632031
 30
0.0
 11
132.335604
 21
8.739719
 31
0.0
  0
LINE
  5
17A
330
4D0
100
AcDbEntity
  8
Level 1
  6
Continuous
 62
     7
370
    13
100
AcDbLine
 10
132.51026
 20
8.598896
 30
0.0
 11
132.51026
 21
8.50501
 31
0.0
  0
LINE
  5
17B
330
4D0
100
AcDbEntity
  8
Level 1
  6
Continuous
 62
     7
370
    13
100
AcDbLine
 10
131.559687
 20
8.50501
 30
0.0
 11
131.559687
 21
8.608552
 31
0.0
  0
LINE
  5
17C
330
4D0
100
AcDbEntity
  8
Level 1
  6
Continuous
 62
     7
370
    13
100
AcDbLine
 10
131.734333
 20
8.467729
 30
0.0
 11
131.734333
 21
8.369021
 31
0.0
  0
LINE
  5
17D
330
4D0
100
AcDbEntity
  8
Level 1
  6
Continuous
 62
     7
370
    13
100
AcDbLine
 10
131.944198
 20
8.50501
 30
0.0
 11
131.944198
 21
8.598896
 31
0.0
  0
LINE
  5
17E
330
4D0
100
AcDbEntity
  8
Level 1
  6
Continuous
 62
     7
370
    13
100
AcDbLine
 10
132.118844
 20
8.467729
 30
0.0
 11
132.118844
 21
8.369021
 31
0.0
  0
LINE
  5
17F
330
4D0
100
AcDbEntity
  8
Level 1
  6
Continuous
 62
     7
370
    13
100
AcDbLine
 10
132.335604
 20
8.50501
 30
0.0
 11
132.335604
 21
8.598896
 31
0.0
  0
LINE
  5
180
330
4D0
100
AcDbEntity
  8
Level 1
  6
Continuous
 62
     7
370
    13
100
AcDbLine
 10
132.51026
 20
8.462896
 30
0.0
 11
132.51026
 21
8.369021
 31
0.0
  0
LINE
  5
181
330
4D0
100
AcDbEntity
  8
Level 1
  6
Continuous
 62
     7
370
    13
100
AcDbLine
 10
131.559687
 20
8.369021
 30
0.0
 11
131.559687
 21
8.467729
 31
0.0
  0
LINE
  5
182
330
4D0
100
AcDbEntity
  8
Level 1
  6
Continuous
 62
     7
370
    13
100
AcDbLine
 10
131.734333
 20
8.335885
 30
0.0
 11
131.734333
 21
8.246833
 31
0.0
  0
LINE
  5
183
330
4D0
100
AcDbEntity
  8
Level 1
  6
Continuous
 62
     7
370
    13
100
AcDbLine
 10
131.944198
 20
8.369021
 30
0.0
 11
131.944198
 21
8.467729
 31
0.0
  0
LINE
  5
184
330
4D0
100
AcDbEntity
  8
Level 1
  6
Continuous
 62
     7
370
    13
100
AcDbLine
 10
132.118844
 20
8.340708
 30
0.0
 11
132.118844
 21
8.246833
 31
0.0
  0
LINE
  5
185
330
4D0
100
AcDbEntity
  8
Level 1
  6
Continuous
 62
     7
370
    13
100
AcDbLine
 10
132.335604
 20
8.369021
 30
0.0
 11
132.335604
 21
8.467729
 31
0.0
  0
LINE
  5
186
330
4D0
100
AcDbEntity
  8
Level 1
  6
Continuous
 62
     7
370
    13
100
AcDbLine
 10
132.51026
 20
8.331052
 30
0.0
 11
132.51026
 21
8.246833
 31
0.0
  0
LINE
  5
187
330
4D0
100
AcDbEntity
  8
Level 1
  6
Continuous
 62
     7
370
    13
100
AcDbLine
 10
131.559687
 20
8.246833
 30
0.0
 11
131.559687
 21
8.335885
 31
0.0
  0
LINE
  5
188
330
4D0
100
AcDbEntity
  8
Level 1
  6
Continuous
 62
     7
370
    13
100
AcDbLine
 10
131.734333
 20
8.204719
 30
0.0
 11
131.734333
 21
8.145354
 31
0.0
  0
LINE
  5
189
330
4D0
100
AcDbEntity
  8
Level 1
  6
Continuous
 62
     7
370
    13
100
AcDbLine
 10
131.944198
 20
8.242
 30
0.0
 11
131.944198
 21
8.335885
 31
0.0
  0
LINE
  5
18A
330
4D0
100
AcDbEntity
  8
Level 1
  6
Continuous
 62
     7
370
    13
100
AcDbLine
 10
132.118844
 20
8.204719
 30
0.0
 11
132.118844
 21
8.144667
 31
0.0
  0
LINE
  5
18B
330
4D0
100
AcDbEntity
  8
Level 1
  6
Continuous
 62
     7
370
    13
100
AcDbLine
 10
132.335604
 20
8.251667
 30
0.0
 11
132.335604
 21
8.335885
 31
0.0
  0
LINE
  5
18C
330
4D0
100
AcDbEntity
  8
Level 1
  6
Continuous
 62
     7
370
    13
100
AcDbLine
 10
132.51026
 20
8.204719
 30
0.0
 11
132.51026
 21
8.145354
 31
0.0
  0
LINE
  5
18D
330
4D0
100
AcDbEntity
  8
Level 1
  6
Continuous
 62
     7
370
    13
100
AcDbLine
 10
132.707687
 20
8.236479
 30
0.0
 11
132.707687
 21
8.326219
 31
0.0
  0
LINE
  5
18E
330
4D0
100
AcDbEntity
  8
Level 1
  6
Continuous
 62
     7
370
    13
100
AcDbLine
 10
132.707687
 20
8.364875
 30
0.0
 11
132.707687
 21
8.461521
 31
0.0
  0
LINE
  5
18F
330
4D0
100
AcDbEntity
  8
Level 1
  6
Continuous
 62
     7
370
    13
100
AcDbLine
 10
132.707687
 20
8.500177
 30
0.0
 11
132.707687
 21
8.59751
 31
0.0
  0
LINE
  5
190
330
4D0
100
AcDbEntity
  8
Level 1
  6
Continuous
 62
     7
370
    13
100
AcDbLine
 10
132.707687
 20
8.642385
 30
0.0
 11
132.707687
 21
8.74524
 31
0.0
  0
LINE
  5
191
330
4D0
100
AcDbEntity
  8
Level 1
  6
Continuous
 62
     7
370
    13
100
AcDbLine
 10
132.707687
 20
8.777687
 30
0.0
 11
132.707687
 21
8.874333
 31
0.0
  0
LINE
  5
192
330
4D0
100
AcDbEntity
  8
Level 1
  6
Continuous
 62
     7
370
    13
100
AcDbLine
 10
132.707687
 20
8.919198
 30
0.0
 11
132.707687
 21
9.003417
 31
0.0
  0
LINE
  5
193
330
4D0
100
AcDbEntity
  8
Level 1
  6
Continuous
 62
     7
370
    13
100
AcDbLine
 10
132.707687
 20
9.042073
 30
0.0
 11
132.707687
 21
9.106281
 31
0.0
  0
LINE
  5
194
330
4D0
100
AcDbEntity
  8
Level 1
  6
Continuous
 62
     7
370
    13
100
AcDbLine
 10
132.707687
 20
9.138719
 30
0.0
 11
132.707687
 21
9.185667
 31
0.0
  0
LINE
  5
195
330
4D0
100
AcDbEntity
  8
Level 1
  6
Continuous
 62
     7
370
    13
100
AcDbLine
 10
132.882333
 20
9.093156
 30
0.0
 11
132.882333
 21
9.028958
 31
0.0
  0
LINE
  5
196
330
4D0
100
AcDbEntity
  8
Level 1
  6
Continuous
 62
     7
370
    13
100
AcDbLine
 10
132.882333
 20
8.996521
 30
0.0
 11
132.882333
 21
8.91299
 31
0.0
  0
LINE
  5
197
330
4D0
100
AcDbEntity
  8
Level 1
  6
Continuous
 62
     7
370
    13
100
AcDbLine
 10
132.882333
 20
8.874333
 30
0.0
 11
132.882333
 21
8.777687
 31
0.0
  0
LINE
  5
198
330
4D0
100
AcDbEntity
  8
Level 1
  6
Continuous
 62
     7
370
    13
100
AcDbLine
 10
132.882333
 20
8.74524
 30
0.0
 11
132.882333
 21
8.648594
 31
0.0
  0
LINE
  5
199
330
4D0
100
AcDbEntity
  8
Level 1
  6
Continuous
 62
     7
370
    13
100
AcDbLine
 10
132.882333
 20
8.603729
 30
0.0
 11
132.882333
 21
8.500177
 31
0.0
  0
LINE
  5
19A
330
4D0
100
AcDbEntity
  8
Level 1
  6
Continuous
 62
     7
370
    13
100
AcDbLine
 10
132.882333
 20
8.468427
 30
0.0
 11
132.882333
 21
8.364875
 31
0.0
  0
LINE
  5
19B
330
4D0
100
AcDbEntity
  8
Level 1
  6
Continuous
 62
     7
370
    13
100
AcDbLine
 10
132.882333
 20
8.326219
 30
0.0
 11
132.882333
 21
8.255802
 31
0.0
  0
LINE
  5
19C
330
4D0
100
AcDbEntity
  8
Level 1
  6
Continuous
 62
     7
370
    13
100
AcDbLine
 10
132.882333
 20
8.204031
 30
0.0
 11
132.882333
 21
8.146042
 31
0.0
  0
LINE
  5
19D
330
4D0
100
AcDbEntity
  8
Level 1
  6
Continuous
 62
     7
370
    13
100
AcDbLine
 10
133.10876
 20
9.11249
 30
0.0
 11
133.10876
 21
9.173927
 31
0.0
  0
LINE
  5
19E
330
4D0
100
AcDbEntity
  8
Level 1
  6
Continuous
 62
     7
370
    13
100
AcDbLine
 10
133.10876
 20
9.015844
 30
0.0
 11
133.10876
 21
9.08074
 31
0.0
  0
LINE
  5
19F
330
4D0
100
AcDbEntity
  8
Level 1
  6
Continuous
 62
     7
370
    13
100
AcDbLine
 10
133.10876
 20
8.906771
 30
0.0
 11
133.10876
 21
8.990302
 31
0.0
  0
LINE
  5
1A0
330
4D0
100
AcDbEntity
  8
Level 1
  6
Continuous
 62
     7
370
    13
100
AcDbLine
 10
133.10876
 20
8.777687
 30
0.0
 11
133.10876
 21
8.868115
 31
0.0
  0
LINE
  5
1A1
330
4D0
100
AcDbEntity
  8
Level 1
  6
Continuous
 62
     7
370
    13
100
AcDbLine
 10
133.10876
 20
8.642385
 30
0.0
 11
133.10876
 21
8.739031
 31
0.0
  0
LINE
  5
1A2
330
4D0
100
AcDbEntity
  8
Level 1
  6
Continuous
 62
     7
370
    13
100
AcDbLine
 10
133.10876
 20
8.493969
 30
0.0
 11
133.10876
 21
8.603729
 31
0.0
  0
LINE
  5
1A3
330
4D0
100
AcDbEntity
  8
Level 1
  6
Continuous
 62
     7
370
    13
100
AcDbLine
 10
133.10876
 20
8.358667
 30
0.0
 11
133.10876
 21
8.461521
 31
0.0
  0
LINE
  5
1A4
330
4D0
100
AcDbEntity
  8
Level 1
  6
Continuous
 62
     7
370
    13
100
AcDbLine
 10
133.10876
 20
8.248906
 30
0.0
 11
133.10876
 21
8.32
 31
0.0
  0
LINE
  5
1A5
330
4D0
100
AcDbEntity
  8
Level 1
  6
Continuous
 62
     7
370
    13
100
AcDbLine
 10
133.282719
 20
8.204031
 30
0.0
 11
133.282719
 21
8.142594
 31
0.0
  0
LINE
  5
1A6
330
4D0
100
AcDbEntity
  8
Level 1
  6
Continuous
 62
     7
370
    13
100
AcDbLine
 10
133.282719
 20
8.313792
 30
0.0
 11
133.282719
 21
8.242688
 31
0.0
  0
LINE
  5
1A7
330
4D0
100
AcDbEntity
  8
Level 1
  6
Continuous
 62
     7
370
    13
100
AcDbLine
 10
133.282719
 20
8.461521
 30
0.0
 11
133.282719
 21
8.352448
 31
0.0
  0
LINE
  5
1A8
330
4D0
100
AcDbEntity
  8
Level 1
  6
Continuous
 62
     7
370
    13
100
AcDbLine
 10
133.282719
 20
8.603729
 30
0.0
 11
133.282719
 21
8.493969
 31
0.0
  0
LINE
  5
1A9
330
4D0
100
AcDbEntity
  8
Level 1
  6
Continuous
 62
     7
370
    13
100
AcDbLine
 10
133.282719
 20
8.732812
 30
0.0
 11
133.282719
 21
8.642385
 31
0.0
  0
LINE
  5
1AA
330
4D0
100
AcDbEntity
  8
Level 1
  6
Continuous
 62
     7
370
    13
100
AcDbLine
 10
133.282719
 20
8.868115
 30
0.0
 11
133.282719
 21
8.777687
 31
0.0
  0
LINE
  5
1AB
330
4D0
100
AcDbEntity
  8
Level 1
  6
Continuous
 62
     7
370
    13
100
AcDbLine
 10
133.282719
 20
8.984094
 30
0.0
 11
133.282719
 21
8.906771
 31
0.0
  0
LINE
  5
1AC
330
4D0
100
AcDbEntity
  8
Level 1
  6
Continuous
 62
     7
370
    13
100
AcDbLine
 10
133.282719
 20
9.073833
 30
0.0
 11
133.282719
 21
9.02275
 31
0.0
  0
LINE
  5
1AD
330
4D0
100
AcDbEntity
  8
Level 1
  6
Continuous
 62
     7
370
    13
100
AcDbLine
 10
133.509146
 20
9.106281
 30
0.0
 11
133.509146
 21
9.179448
 31
0.0
  0
LINE
  5
1AE
330
4D0
100
AcDbEntity
  8
Level 1
  6
Continuous
 62
     7
370
    13
100
AcDbLine
 10
133.683802
 20
9.067615
 30
0.0
 11
133.683802
 21
9.009635
 31
0.0
  0
LINE
  5
1AF
330
4D0
100
AcDbEntity
  8
Level 1
  6
Continuous
 62
     7
370
    13
100
AcDbLine
 10
133.883302
 20
9.100062
 30
0.0
 11
133.883302
 21
9.169094
 31
0.0
  0
LINE
  5
1B0
330
4D0
100
AcDbEntity
  8
Level 1
  6
Continuous
 62
     7
370
    13
100
AcDbLine
 10
134.057948
 20
9.0545
 30
0.0
 11
134.057948
 21
8.932313
 31
0.0
  0
LINE
  5
1B1
330
4D0
100
AcDbEntity
  8
Level 1
  6
Continuous
 62
     7
370
    13
100
AcDbLine
 10
134.26574
 20
9.100062
 30
0.0
 11
134.26574
 21
9.181521
 31
0.0
  0
LINE
  5
1B2
330
4D0
100
AcDbEntity
  8
Level 1
  6
Continuous
 62
     7
370
    13
100
AcDbLine
 10
134.440385
 20
9.0545
 30
0.0
 11
134.440385
 21
8.938531
 31
0.0
  0
LINE
  5
1B3
330
4D0
100
AcDbEntity
  8
Level 1
  6
Continuous
 62
     7
370
    13
100
AcDbLine
 10
134.649552
 20
9.106281
 30
0.0
 11
134.649552
 21
9.178073
 31
0.0
  0
LINE
  5
1B4
330
4D0
100
AcDbEntity
  8
Level 1
  6
Continuous
 62
     7
370
    13
100
AcDbLine
 10
134.824208
 20
9.0545
 30
0.0
 11
134.824208
 21
8.945437
 31
0.0
  0
LINE
  5
1B5
330
4D0
100
AcDbEntity
  8
Level 1
  6
Continuous
 62
     7
370
    13
100
AcDbLine
 10
133.509146
 20
8.242688
 30
0.0
 11
133.509146
 21
8.313792
 31
0.0
  0
LINE
  5
1B6
330
4D0
100
AcDbEntity
  8
Level 1
  6
Continuous
 62
     7
370
    13
100
AcDbLine
 10
133.683802
 20
8.204031
 30
0.0
 11
133.683802
 21
8.143281
 31
0.0
  0
LINE
  5
1B7
330
4D0
100
AcDbEntity
  8
Level 1
  6
Continuous
 62
     7
370
    13
100
AcDbLine
 10
133.883302
 20
8.242688
 30
0.0
 11
133.883302
 21
8.313792
 31
0.0
  0
LINE
  5
1B8
330
4D0
100
AcDbEntity
  8
Level 1
  6
Continuous
 62
     7
370
    13
100
AcDbLine
 10
134.057948
 20
8.21024
 30
0.0
 11
134.057948
 21
8.146042
 31
0.0
  0
LINE
  5
1B9
330
4D0
100
AcDbEntity
  8
Level 1
  6
Continuous
 62
     7
370
    13
100
AcDbLine
 10
134.26574
 20
8.268229
 30
0.0
 11
134.26574
 21
8.339333
 31
0.0
  0
LINE
  5
1BA
330
4D0
100
AcDbEntity
  8
Level 1
  6
Continuous
 62
     7
370
    13
100
AcDbLine
 10
134.440385
 20
8.204031
 30
0.0
 11
134.440385
 21
8.139135
 31
0.0
  0
LINE
  5
1BB
330
4D0
100
AcDbEntity
  8
Level 1
  6
Continuous
 62
     7
370
    13
100
AcDbLine
 10
134.649552
 20
8.268229
 30
0.0
 11
134.649552
 21
8.333125
 31
0.0
  0
LINE
  5
1BC
330
4D0
100
AcDbEntity
  8
Level 1
  6
Continuous
 62
     7
370
    13
100
AcDbLine
 10
134.824208
 20
8.204031
 30
0.0
 11
134.824208
 21
8.139135
 31
0.0
  0
LINE
  5
1BD
330
4D0
100
AcDbEntity
  8
Level 1
  6
Continuous
 62
     7
370
    13
100
AcDbLine
 10
133.509146
 20
8.352448
 30
0.0
 11
133.509146
 21
8.461521
 31
0.0
  0
LINE
  5
1BE
330
4D0
100
AcDbEntity
  8
Level 1
  6
Continuous
 62
     7
370
    13
100
AcDbLine
 10
133.683802
 20
8.313792
 30
0.0
 11
133.683802
 21
8.236479
 31
0.0
  0
LINE
  5
1BF
330
4D0
100
AcDbEntity
  8
Level 1
  6
Continuous
 62
     7
370
    13
100
AcDbLine
 10
133.883302
 20
8.352448
 30
0.0
 11
133.883302
 21
8.461521
 31
0.0
  0
LINE
  5
1C0
330
4D0
100
AcDbEntity
  8
Level 1
  6
Continuous
 62
     7
370
    13
100
AcDbLine
 10
133.509146
 20
8.48775
 30
0.0
 11
133.509146
 21
8.603729
 31
0.0
  0
LINE
  5
1C1
330
4D0
100
AcDbEntity
  8
Level 1
  6
Continuous
 62
     7
370
    13
100
AcDbLine
 10
133.683802
 20
8.461521
 30
0.0
 11
133.683802
 21
8.358667
 31
0.0
  0
LINE
  5
1C2
330
4D0
100
AcDbEntity
  8
Level 1
  6
Continuous
 62
     7
370
    13
100
AcDbLine
 10
133.883302
 20
8.493969
 30
0.0
 11
133.883302
 21
8.59751
 31
0.0
  0
LINE
  5
1C3
330
4D0
100
AcDbEntity
  8
Level 1
  6
Continuous
 62
     7
370
    13
100
AcDbLine
 10
133.683802
 20
8.59751
 30
0.0
 11
133.683802
 21
8.493969
 31
0.0
  0
LINE
  5
1C4
330
4D0
100
AcDbEntity
  8
Level 1
  6
Continuous
 62
     7
370
    13
100
AcDbLine
 10
133.509146
 20
8.899875
 30
0.0
 11
133.509146
 21
8.977187
 31
0.0
  0
LINE
  5
1C5
330
4D0
100
AcDbEntity
  8
Level 1
  6
Continuous
 62
     7
370
    13
100
AcDbLine
 10
133.883302
 20
8.91299
 30
0.0
 11
133.883302
 21
8.96476
 31
0.0
  0
LINE
  5
1C6
330
4D0
100
AcDbEntity
  8
Level 1
  6
Continuous
 62
     7
370
    13
100
AcDbLine
 10
133.509146
 20
9.003417
 30
0.0
 11
133.509146
 21
9.067615
 31
0.0
  0
LINE
  5
1C7
330
4D0
100
AcDbEntity
  8
Level 1
  6
Continuous
 62
     7
370
    13
100
AcDbLine
 10
133.683802
 20
8.977187
 30
0.0
 11
133.683802
 21
8.906771
 31
0.0
  0
LINE
  5
1C8
330
4D0
100
AcDbEntity
  8
Level 1
  6
Continuous
 62
     7
370
    13
100
AcDbLine
 10
133.883302
 20
8.996521
 30
0.0
 11
133.883302
 21
9.061406
 31
0.0
  0
LINE
  5
1C9
330
4D0
100
AcDbEntity
  8
Level 1
  6
Continuous
 62
     7
370
    13
100
AcDbLine
 10
134.057948
 20
8.32
 30
0.0
 11
134.057948
 21
8.262021
 31
0.0
  0
LINE
  5
1CA
330
4D0
100
AcDbEntity
  8
Level 1
  6
Continuous
 62
     7
370
    13
100
AcDbLine
 10
134.26574
 20
8.371781
 30
0.0
 11
134.26574
 21
8.461521
 31
0.0
  0
LINE
  5
1CB
330
4D0
100
AcDbEntity
  8
Level 1
  6
Continuous
 62
     7
370
    13
100
AcDbLine
 10
134.440385
 20
8.339333
 30
0.0
 11
134.440385
 21
8.268229
 31
0.0
  0
LINE
  5
1CC
330
4D0
100
AcDbEntity
  8
Level 1
  6
Continuous
 62
     7
370
    13
100
AcDbLine
 10
134.649552
 20
8.371781
 30
0.0
 11
134.649552
 21
8.461521
 31
0.0
  0
LINE
  5
1CD
330
4D0
100
AcDbEntity
  8
Level 1
  6
Continuous
 62
     7
370
    13
100
AcDbLine
 10
134.824208
 20
8.326219
 30
0.0
 11
134.824208
 21
8.275135
 31
0.0
  0
LINE
  5
1CE
330
4D0
100
AcDbEntity
  8
Level 1
  6
Continuous
 62
     7
370
    13
100
AcDbLine
 10
134.057948
 20
8.461521
 30
0.0
 11
134.057948
 21
8.345542
 31
0.0
  0
LINE
  5
1CF
330
4D0
100
AcDbEntity
  8
Level 1
  6
Continuous
 62
     7
370
    13
100
AcDbLine
 10
134.26574
 20
8.493969
 30
0.0
 11
134.26574
 21
8.59751
 31
0.0
  0
LINE
  5
1D0
330
4D0
100
AcDbEntity
  8
Level 1
  6
Continuous
 62
     7
370
    13
100
AcDbLine
 10
134.440385
 20
8.461521
 30
0.0
 11
134.440385
 21
8.371781
 31
0.0
  0
LINE
  5
1D1
330
4D0
100
AcDbEntity
  8
Level 1
  6
Continuous
 62
     7
370
    13
100
AcDbLine
 10
134.649552
 20
8.500177
 30
0.0
 11
134.649552
 21
8.59751
 31
0.0
  0
LINE
  5
1D2
330
4D0
100
AcDbEntity
  8
Level 1
  6
Continuous
 62
     7
370
    13
100
AcDbLine
 10
134.824208
 20
8.461521
 30
0.0
 11
134.824208
 21
8.371781
 31
0.0
  0
LINE
  5
1D3
330
4D0
100
AcDbEntity
  8
Level 1
  6
Continuous
 62
     7
370
    13
100
AcDbLine
 10
134.057948
 20
8.59751
 30
0.0
 11
134.057948
 21
8.493969
 31
0.0
  0
LINE
  5
1D4
330
4D0
100
AcDbEntity
  8
Level 1
  6
Continuous
 62
     7
370
    13
100
AcDbLine
 10
134.26574
 20
8.642385
 30
0.0
 11
134.26574
 21
8.74524
 31
0.0
  0
LINE
  5
1D5
330
4D0
100
AcDbEntity
  8
Level 1
  6
Continuous
 62
     7
370
    13
100
AcDbLine
 10
134.440385
 20
8.59751
 30
0.0
 11
134.440385
 21
8.493969
 31
0.0
  0
LINE
  5
1D6
330
4D0
100
AcDbEntity
  8
Level 1
  6
Continuous
 62
     7
370
    13
100
AcDbLine
 10
134.649552
 20
8.648594
 30
0.0
 11
134.649552
 21
8.74524
 31
0.0
  0
LINE
  5
1D7
330
4D0
100
AcDbEntity
  8
Level 1
  6
Continuous
 62
     7
370
    13
100
AcDbLine
 10
134.824208
 20
8.590604
 30
0.0
 11
134.824208
 21
8.500177
 31
0.0
  0
LINE
  5
1D8
330
4D0
100
AcDbEntity
  8
Level 1
  6
Continuous
 62
     7
370
    13
100
AcDbLine
 10
134.26574
 20
8.783896
 30
0.0
 11
134.26574
 21
8.899875
 31
0.0
  0
LINE
  5
1D9
330
4D0
100
AcDbEntity
  8
Level 1
  6
Continuous
 62
     7
370
    13
100
AcDbLine
 10
134.440385
 20
8.74524
 30
0.0
 11
134.440385
 21
8.648594
 31
0.0
  0
LINE
  5
1DA
330
4D0
100
AcDbEntity
  8
Level 1
  6
Continuous
 62
     7
370
    13
100
AcDbLine
 10
134.649552
 20
8.783896
 30
0.0
 11
134.649552
 21
8.899875
 31
0.0
  0
LINE
  5
1DB
330
4D0
100
AcDbEntity
  8
Level 1
  6
Continuous
 62
     7
370
    13
100
AcDbLine
 10
134.824208
 20
8.74524
 30
0.0
 11
134.824208
 21
8.636167
 31
0.0
  0
LINE
  5
1DC
330
4D0
100
AcDbEntity
  8
Level 1
  6
Continuous
 62
     7
370
    13
100
AcDbLine
 10
134.26574
 20
8.945437
 30
0.0
 11
134.26574
 21
9.061406
 31
0.0
  0
LINE
  5
1DD
330
4D0
100
AcDbEntity
  8
Level 1
  6
Continuous
 62
     7
370
    13
100
AcDbLine
 10
134.440385
 20
8.899875
 30
0.0
 11
134.440385
 21
8.790802
 31
0.0
  0
LINE
  5
1DE
330
4D0
100
AcDbEntity
  8
Level 1
  6
Continuous
 62
     7
370
    13
100
AcDbLine
 10
134.649552
 20
8.938531
 30
0.0
 11
134.649552
 21
9.0545
 31
0.0
  0
LINE
  5
1DF
330
4D0
100
AcDbEntity
  8
Level 1
  6
Continuous
 62
     7
370
    13
100
AcDbLine
 10
134.824208
 20
8.899875
 30
0.0
 11
134.824208
 21
8.783896
 31
0.0
  0
LINE
  5
1E0
330
4D0
100
AcDbEntity
  8
Level 1
  6
Continuous
 62
     7
370
    13
100
AcDbLine
 10
134.26574
 20
8.139135
 30
0.0
 11
134.26574
 21
8.21024
 31
0.0
  0
LINE
  5
1E1
330
4D0
100
AcDbEntity
  8
Level 1
  6
Continuous
 62
     7
370
    13
100
AcDbLine
 10
134.440385
 20
8.023167
 30
0.0
 11
134.440385
 21
7.980365
 31
0.0
  0
LINE
  5
1E2
330
4D0
100
AcDbEntity
  8
Level 1
  6
Continuous
 62
     7
370
    13
100
AcDbLine
 10
134.649552
 20
8.139135
 30
0.0
 11
134.649552
 21
8.204031
 31
0.0
  0
LINE
  5
1E3
330
4D0
100
AcDbEntity
  8
Level 1
  6
Continuous
 62
     7
370
    13
100
AcDbLine
 10
134.824208
 20
8.023167
 30
0.0
 11
134.824208
 21
7.976917
 31
0.0
  0
LINE
  5
1E4
330
4D0
100
AcDbEntity
  8
Level 1
  6
Continuous
 62
     7
370
    13
100
AcDbLine
 10
131.659094
 20
9.65025
 30
0.0
 11
131.734333
 21
9.65025
 31
0.0
  0
LINE
  5
1E5
330
4D0
100
AcDbEntity
  8
Level 1
  6
Continuous
 62
     7
370
    13
100
AcDbLine
 10
132.041531
 20
9.65025
 30
0.0
 11
132.118844
 21
9.65025
 31
0.0
  0
LINE
  5
1E6
330
4D0
100
AcDbEntity
  8
Level 1
  6
Continuous
 62
     7
370
    13
100
AcDbLine
 10
132.43225
 20
9.65025
 30
0.0
 11
132.51026
 21
9.65025
 31
0.0
  0
LINE
  5
1E7
330
4D0
100
AcDbEntity
  8
Level 1
  6
Continuous
 62
     7
370
    13
100
AcDbLine
 10
131.559687
 20
9.393448
 30
0.0
 11
131.559687
 21
9.454198
 31
0.0
  0
LINE
  5
1E8
330
4D0
100
AcDbEntity
  8
Level 1
  6
Continuous
 62
     7
370
    13
100
AcDbLine
 10
131.734333
 20
9.356177
 30
0.0
 11
131.734333
 21
9.280927
 31
0.0
  0
LINE
  5
1E9
330
4D0
100
AcDbEntity
  8
Level 1
  6
Continuous
 62
     7
370
    13
100
AcDbLine
 10
131.734333
 20
9.454198
 30
0.0
 11
131.734333
 21
9.393448
 31
0.0
  0
LINE
  5
1EA
330
4D0
100
AcDbEntity
  8
Level 1
  6
Continuous
 62
     7
370
    13
100
AcDbLine
 10
131.944198
 20
9.393448
 30
0.0
 11
131.944198
 21
9.45075
 31
0.0
  0
LINE
  5
1EB
330
4D0
100
AcDbEntity
  8
Level 1
  6
Continuous
 62
     7
370
    13
100
AcDbLine
 10
132.118844
 20
9.352719
 30
0.0
 11
132.118844
 21
9.280927
 31
0.0
  0
LINE
  5
1EC
330
4D0
100
AcDbEntity
  8
Level 1
  6
Continuous
 62
     7
370
    13
100
AcDbLine
 10
132.118844
 20
9.45075
 30
0.0
 11
132.118844
 21
9.39
 31
0.0
  0
LINE
  5
1ED
330
4D0
100
AcDbEntity
  8
Level 1
  6
Continuous
 62
     7
370
    13
100
AcDbLine
 10
132.335604
 20
9.39
 30
0.0
 11
132.335604
 21
9.45075
 31
0.0
  0
LINE
  5
1EE
330
4D0
100
AcDbEntity
  8
Level 1
  6
Continuous
 62
     7
370
    13
100
AcDbLine
 10
132.51026
 20
9.352719
 30
0.0
 11
132.51026
 21
9.280927
 31
0.0
  0
LINE
  5
1EF
330
4D0
100
AcDbEntity
  8
Level 1
  6
Continuous
 62
     7
370
    13
100
AcDbLine
 10
132.51026
 20
9.45075
 30
0.0
 11
132.51026
 21
9.386542
 31
0.0
  0
LINE
  5
1F0
330
4D0
100
AcDbEntity
  8
Level 1
  6
Continuous
 62
     7
370
    13
100
AcDbLine
 10
132.51026
 20
9.545323
 30
0.0
 11
132.51026
 21
9.477667
 31
0.0
  0
LINE
  5
1F1
330
4D0
100
AcDbEntity
  8
Level 1
  6
Continuous
 62
     7
370
    13
100
AcDbLine
 10
132.804333
 20
9.65025
 30
0.0
 11
132.882333
 21
9.65025
 31
0.0
  0
LINE
  5
1F2
330
4D0
100
AcDbEntity
  8
Level 1
  6
Continuous
 62
     7
370
    13
100
AcDbLine
 10
133.210927
 20
9.65025
 30
0.0
 11
133.282719
 21
9.65025
 31
0.0
  0
LINE
  5
1F3
330
4D0
100
AcDbEntity
  8
Level 1
  6
Continuous
 62
     7
370
    13
100
AcDbLine
 10
133.612698
 20
9.65025
 30
0.0
 11
133.683802
 21
9.65025
 31
0.0
  0
LINE
  5
1F4
330
4D0
100
AcDbEntity
  8
Level 1
  6
Continuous
 62
     7
370
    13
100
AcDbLine
 10
132.707687
 20
9.576385
 30
0.0
 11
132.707687
 21
9.64749
 31
0.0
  0
LINE
  5
1F5
330
4D0
100
AcDbEntity
  8
Level 1
  6
Continuous
 62
     7
370
    13
100
AcDbLine
 10
132.882333
 20
9.542562
 30
0.0
 11
132.882333
 21
9.472833
 31
0.0
  0
LINE
  5
1F6
330
4D0
100
AcDbEntity
  8
Level 1
  6
Continuous
 62
     7
370
    13
100
AcDbLine
 10
133.10876
 20
9.576385
 30
0.0
 11
133.10876
 21
9.64749
 31
0.0
  0
LINE
  5
1F7
330
4D0
100
AcDbEntity
  8
Level 1
  6
Continuous
 62
     7
370
    13
100
AcDbLine
 10
133.282719
 20
9.54601
 30
0.0
 11
133.282719
 21
9.476292
 31
0.0
  0
LINE
  5
1F8
330
4D0
100
AcDbEntity
  8
Level 1
  6
Continuous
 62
     7
370
    13
100
AcDbLine
 10
132.707687
 20
9.476292
 30
0.0
 11
132.707687
 21
9.542562
 31
0.0
  0
LINE
  5
1F9
330
4D0
100
AcDbEntity
  8
Level 1
  6
Continuous
 62
     7
370
    13
100
AcDbLine
 10
132.707687
 20
9.385854
 30
0.0
 11
132.707687
 21
9.449365
 31
0.0
  0
LINE
  5
1FA
330
4D0
100
AcDbEntity
  8
Level 1
  6
Continuous
 62
     7
370
    13
100
AcDbLine
 10
132.882333
 20
9.352719
 30
0.0
 11
132.882333
 21
9.280927
 31
0.0
  0
LINE
  5
1FB
330
4D0
100
AcDbEntity
  8
Level 1
  6
Continuous
 62
     7
370
    13
100
AcDbLine
 10
132.882333
 20
9.445917
 30
0.0
 11
132.882333
 21
9.383094
 31
0.0
  0
LINE
  5
1FC
330
4D0
100
AcDbEntity
  8
Level 1
  6
Continuous
 62
     7
370
    13
100
AcDbLine
 10
133.10876
 20
9.472833
 30
0.0
 11
133.10876
 21
9.542562
 31
0.0
  0
LINE
  5
1FD
330
4D0
100
AcDbEntity
  8
Level 1
  6
Continuous
 62
     7
370
    13
100
AcDbLine
 10
133.10876
 20
9.383094
 30
0.0
 11
133.10876
 21
9.442458
 31
0.0
  0
LINE
  5
1FE
330
4D0
100
AcDbEntity
  8
Level 1
  6
Continuous
 62
     7
370
    13
100
AcDbLine
 10
133.282719
 20
9.349271
 30
0.0
 11
133.282719
 21
9.28576
 31
0.0
  0
LINE
  5
1FF
330
4D0
100
AcDbEntity
  8
Level 1
  6
Continuous
 62
     7
370
    13
100
AcDbLine
 10
133.282719
 20
9.442458
 30
0.0
 11
133.282719
 21
9.383094
 31
0.0
  0
LINE
  5
200
330
4D0
100
AcDbEntity
  8
Level 1
  6
Continuous
 62
     7
370
    13
100
AcDbLine
 10
133.509146
 20
9.379646
 30
0.0
 11
133.509146
 21
9.445917
 31
0.0
  0
LINE
  5
201
330
4D0
100
AcDbEntity
  8
Level 1
  6
Continuous
 62
     7
370
    13
100
AcDbLine
 10
133.683802
 20
9.349271
 30
0.0
 11
133.683802
 21
9.282312
 31
0.0
  0
LINE
  5
202
330
4D0
100
AcDbEntity
  8
Level 1
  6
Continuous
 62
     7
370
    13
100
AcDbLine
 10
133.683802
 20
9.442458
 30
0.0
 11
133.683802
 21
9.379646
 31
0.0
  0
LINE
  5
203
330
4D0
100
AcDbEntity
  8
Level 1
  6
Continuous
 62
     7
370
    13
100
AcDbLine
 10
133.979948
 20
9.65025
 30
0.0
 11
134.057948
 21
9.65025
 31
0.0
  0
LINE
  5
204
330
4D0
100
AcDbEntity
  8
Level 1
  6
Continuous
 62
     7
370
    13
100
AcDbLine
 10
134.361687
 20
9.65025
 30
0.0
 11
134.440385
 21
9.65025
 31
0.0
  0
LINE
  5
205
330
4D0
100
AcDbEntity
  8
Level 1
  6
Continuous
 62
     7
370
    13
100
AcDbLine
 10
134.748958
 20
9.65025
 30
0.0
 11
134.824208
 21
9.65025
 31
0.0
  0
LINE
  5
206
330
4D0
100
AcDbEntity
  8
Level 1
  6
Continuous
 62
     7
370
    13
100
AcDbLine
 10
134.649552
 20
9.572938
 30
0.0
 11
134.649552
 21
9.64749
 31
0.0
  0
LINE
  5
207
330
4D0
100
AcDbEntity
  8
Level 1
  6
Continuous
 62
     7
370
    13
100
AcDbLine
 10
134.824208
 20
9.544625
 30
0.0
 11
134.824208
 21
9.462479
 31
0.0
  0
LINE
  5
208
330
4D0
100
AcDbEntity
  8
Level 1
  6
Continuous
 62
     7
370
    13
100
AcDbLine
 10
134.057948
 20
9.437625
 30
0.0
 11
134.057948
 21
9.381021
 31
0.0
  0
LINE
  5
209
330
4D0
100
AcDbEntity
  8
Level 1
  6
Continuous
 62
     7
370
    13
100
AcDbLine
 10
134.440385
 20
9.437625
 30
0.0
 11
134.440385
 21
9.387927
 31
0.0
  0
LINE
  5
20A
330
4D0
100
AcDbEntity
  8
Level 1
  6
Continuous
 62
     7
370
    13
100
AcDbLine
 10
134.649552
 20
9.462479
 30
0.0
 11
134.649552
 21
9.544625
 31
0.0
  0
LINE
  5
20B
330
4D0
100
AcDbEntity
  8
Level 1
  6
Continuous
 62
     7
370
    13
100
AcDbLine
 10
134.824208
 20
9.437625
 30
0.0
 11
134.824208
 21
9.384479
 31
0.0
  0
LINE
  5
20C
330
4D0
100
AcDbEntity
  8
Level 1
  6
Continuous
 62
     7
370
    13
100
AcDbLine
 10
133.883302
 20
9.384479
 30
0.0
 11
133.883302
 21
9.437625
 31
0.0
  0
LINE
  5
20D
330
4D0
100
AcDbEntity
  8
Level 1
  6
Continuous
 62
     7
370
    13
100
AcDbLine
 10
134.057948
 20
9.356177
 30
0.0
 11
134.057948
 21
9.283
 31
0.0
  0
LINE
  5
20E
330
4D0
100
AcDbEntity
  8
Level 1
  6
Continuous
 62
     7
370
    13
100
AcDbLine
 10
134.26574
 20
9.381021
 30
0.0
 11
134.26574
 21
9.437625
 31
0.0
  0
LINE
  5
20F
330
4D0
100
AcDbEntity
  8
Level 1
  6
Continuous
 62
     7
370
    13
100
AcDbLine
 10
134.440385
 20
9.348583
 30
0.0
 11
134.440385
 21
9.281615
 31
0.0
  0
LINE
  5
210
330
4D0
100
AcDbEntity
  8
Level 1
  6
Continuous
 62
     7
370
    13
100
AcDbLine
 10
134.649552
 20
9.384479
 30
0.0
 11
134.649552
 21
9.437625
 31
0.0
  0
LINE
  5
211
330
4D0
100
AcDbEntity
  8
Level 1
  6
Continuous
 62
     7
370
    13
100
AcDbLine
 10
134.824208
 20
9.345125
 30
0.0
 11
134.824208
 21
9.285073
 31
0.0
  0
LINE
  5
212
330
4D0
100
AcDbEntity
  8
Level 1
  6
Continuous
 62
     7
370
    13
100
AcDbLine
 10
134.824208
 20
9.178073
 30
0.0
 11
134.824208
 21
9.106281
 31
0.0
  0
LINE
  5
213
330
4D0
100
AcDbEntity
  8
Level 1
  6
Continuous
 62
     7
370
    13
100
AcDbLine
 10
134.649552
 20
9.277479
 30
0.0
 11
134.649552
 21
9.345125
 31
0.0
  0
LINE
  5
214
330
4D0
100
AcDbEntity
  8
Level 1
  6
Continuous
 62
     7
370
    13
100
AcDbLine
 10
134.440385
 20
9.178073
 30
0.0
 11
134.440385
 21
9.106281
 31
0.0
  0
LINE
  5
215
330
4D0
100
AcDbEntity
  8
Level 1
  6
Continuous
 62
     7
370
    13
100
AcDbLine
 10
134.26574
 20
9.281615
 30
0.0
 11
134.26574
 21
9.352719
 31
0.0
  0
LINE
  5
216
330
4D0
100
AcDbEntity
  8
Level 1
  6
Continuous
 62
     7
370
    13
100
AcDbLine
 10
134.539792
 20
6.351219
 30
0.0
 11
134.539792
 21
6.182781
 31
0.0
  0
LWPOLYLINE
  5
217
330
4D0
100
AcDbEntity
  8
Level 1
  6
Continuous
 62
     7
370
    13
100
AcDbPolyline
 90
        6
 70
   128
 43
0.0
 10
134.539792
 20
6.180021
 10
134.490781
 20
6.156542
 10
134.625396
 20
6.139979
 10
134.45074
 20
6.110979
 10
134.581906
 20
6.100625
 10
134.541177
 20
6.085437
  0
LINE
  5
218
330
4D0
100
AcDbEntity
  8
Level 1
  6
Continuous
 62
     7
370
    13
100
AcDbLine
 10
134.539792
 20
6.085437
 30
0.0
 11
134.539792
 21
5.915625
 31
0.0
  0
LINE
  5
219
330
4D0
100
AcDbEntity
  8
Level 1
  6
Continuous
 62
     7
370
    13
100
AcDbLine
 10
134.853885
 20
7.060865
 30
0.0
 11
134.853885
 21
6.902781
 31
0.0
  0
LINE
  5
21A
330
4D0
100
AcDbEntity
  8
Level 1
  6
Continuous
 62
     7
370
    13
100
AcDbLine
 10
134.655771
 20
6.945583
 30
0.0
 11
134.851125
 21
6.945583
 31
0.0
  0
LWPOLYLINE
  5
21B
330
4D0
100
AcDbEntity
  8
Level 1
  6
Continuous
 62
     7
370
    13
100
AcDbPolyline
 90
       10
 70
   128
 43
0.0
 10
130.308833
 20
5.87075
 10
130.308833
 20
5.905958
 10
130.514542
 20
5.923219
 10
130.609813
 20
5.970156
 10
130.609813
 20
5.919073
 10
131.083365
 20
5.919073
 10
131.083365
 20
5.966021
 10
131.173104
 20
5.912865
 10
131.380208
 20
5.905958
 10
131.382969
 20
5.869375
  0
LINE
  5
21C
330
4D0
100
AcDbEntity
  8
Level 1
  6
Continuous
 62
     7
370
    13
100
AcDbLine
 10
130.945302
 20
6.520344
 30
0.0
 11
130.945302
 21
6.630792
 31
0.0
  0
LINE
  5
21D
330
4D0
100
AcDbEntity
  8
Level 1
  6
Continuous
 62
     7
370
    13
100
AcDbLine
 10
131.124094
 20
6.518958
 30
0.0
 11
131.124094
 21
6.631479
 31
0.0
  0
LWPOLYLINE
  5
21E
330
4D0
100
AcDbEntity
  8
Level 1
  6
Continuous
 62
     7
370
    13
100
AcDbPolyline
 90
        3
 70
   128
 43
0.0
 10
130.025104
 20
6.492729
 10
130.502115
 20
6.492729
 10
130.504188
 20
6.489969
  0
LINE
  5
21F
330
4D0
100
AcDbEntity
  8
Level 1
  6
Continuous
 62
     7
370
    13
100
AcDbLine
 10
130.945302
 20
6.595583
 30
0.0
 11
131.122021
 21
6.595583
 31
0.0
  0
LINE
  5
220
330
4D0
100
AcDbEntity
  8
Level 1
  6
Continuous
 62
     7
370
    13
100
AcDbLine
 10
130.715427
 20
7.042917
 30
0.0
 11
130.715427
 21
6.878615
 31
0.0
  0
LINE
  5
221
330
4D0
100
AcDbEntity
  8
Level 1
  6
Continuous
 62
     7
370
    13
100
AcDbLine
 10
130.551823
 20
6.946271
 30
0.0
 11
135.056844
 21
6.946271
 31
0.0
  0
LINE
  5
226
330
4D0
100
AcDbEntity
  8
Level 1
  6
Continuous
 62
     7
370
    13
100
AcDbLine
 10
130.709219
 20
7.586198
 30
0.0
 11
131.80199
 21
7.586198
 31
0.0
  0
LINE
  5
227
330
4D0
100
AcDbEntity
  8
Level 1
  6
Continuous
 62
     7
370
    13
100
AcDbLine
 10
133.817719
 20
7.590333
 30
0.0
 11
134.844219
 21
7.590333
 31
0.0
  0
LWPOLYLINE
  5
228
330
4D0
100
AcDbEntity
  8
Level 1
  6
Continuous
 62
     7
370
    13
100
AcDbPolyline
 90
        5
 70
   128
 43
0.0
 10
130.710594
 20
7.5855
 10
130.710594
 20
7.5855
 10
130.829333
 20
7.566177
 10
130.829333
 20
7.606906
 10
130.710594
 20
7.5855
  0
LWPOLYLINE
  5
229
330
4D0
100
AcDbEntity
  8
Level 1
  6
Continuous
 62
     7
370
    13
100
AcDbPolyline
 90
        5
 70
   128
 43
0.0
 10
130.888698
 20
6.947646
 10
130.888698
 20
6.947646
 10
131.007427
 20
6.927635
 10
131.007427
 20
6.969052
 10
130.888698
 20
6.947646
  0
LWPOLYLINE
  5
22A
330
4D0
100
AcDbEntity
  8
Level 1
  6
Continuous
 62
     7
370
    13
100
AcDbPolyline
 90
        5
 70
   128
 43
0.0
 10
130.723708
 20
6.946271
 10
130.723708
 20
6.946271
 10
130.604979
 20
6.966292
 10
130.604979
 20
6.924865
 10
130.723708
 20
6.946271
  0
LWPOLYLINE
  5
22B
330
4D0
100
AcDbEntity
  8
Level 1
  6
Continuous
 62
     7
370
    13
100
AcDbPolyline
 90
        5
 70
   128
 43
0.0
 10
134.83525
 20
7.591719
 10
134.83525
 20
7.591719
 10
134.715823
 20
7.61174
 10
134.71651
 20
7.570323
 10
134.83525
 20
7.591719
  0
LWPOLYLINE
  5
22C
330
4D0
100
AcDbEntity
  8
Level 1
  6
Continuous
 62
     7
370
    13
100
AcDbPolyline
 90
        5
 70
   128
 43
0.0
 10
134.857344
 20
6.945583
 10
134.857344
 20
6.945583
 10
134.976073
 20
6.92625
 10
134.976073
 20
6.966979
 10
134.857344
 20
6.945583
  0
LWPOLYLINE
  5
22D
330
4D0
100
AcDbEntity
  8
Level 1
  6
Continuous
 62
     7
370
    13
100
AcDbPolyline
 90
        5
 70
   128
 43
0.0
 10
134.653698
 20
6.948344
 10
134.653698
 20
6.948344
 10
134.534271
 20
6.968365
 10
134.534958
 20
6.926938
 10
134.653698
 20
6.948344
  0
LWPOLYLINE
  5
22E
330
4D0
100
AcDbEntity
  8
Level 1
  6
Continuous
 62
     7
370
    13
100
AcDbPolyline
 90
        5
 70
   128
 43
0.0
 10
130.646396
 20
8.026615
 10
130.646396
 20
7.610354
 10
130.718875
 20
7.525448
 10
130.894906
 20
7.063625
 10
130.894906
 20
6.878615
  0
LINE
  5
22F
330
4D0
100
AcDbEntity
  8
Level 1
  6
Continuous
 62
     7
370
    13
100
AcDbLine
 10
130.662271
 20
7.518542
 30
0.0
 11
130.510406
 21
7.518542
 31
0.0
  0
LINE
  5
230
330
4D0
100
AcDbEntity
  8
Level 1
  6
Continuous
 62
     7
370
    13
100
AcDbLine
 10
130.660896
 20
7.061552
 30
0.0
 11
130.510406
 21
7.061552
 31
0.0
  0
LINE
  5
231
330
4D0
100
AcDbEntity
  8
Level 1
  6
Continuous
 62
     7
370
    13
100
AcDbLine
 10
130.553198
 20
7.06224
 30
0.0
 11
130.553198
 21
7.519927
 31
0.0
  0
LWPOLYLINE
  5
233
330
4D0
100
AcDbEntity
  8
Level 1
  6
Continuous
 62
     7
370
    13
100
AcDbPolyline
 90
        5
 70
   128
 43
0.0
 10
130.555958
 20
7.519927
 10
130.555958
 20
7.519927
 10
130.535948
 20
7.401187
 10
130.576677
 20
7.401875
 10
130.555958
 20
7.519927
  0
LWPOLYLINE
  5
234
330
4D0
100
AcDbEntity
  8
Level 1
  6
Continuous
 62
     7
370
    13
100
AcDbPolyline
 90
        5
 70
   128
 43
0.0
 10
130.553198
 20
7.065
 10
130.553198
 20
7.065
 10
130.573219
 20
7.184427
 10
130.53249
 20
7.18374
 10
130.553198
 20
7.065
  0
LINE
  5
235
330
4D0
100
AcDbEntity
  8
Level 1
  6
Continuous
 62
     7
370
    13
100
AcDbLine
 10
130.716115
 20
9.83249
 30
0.0
 11
130.768583
 21
10.086531
 31
0.0
  0
LINE
  5
236
330
4D0
100
AcDbEntity
  8
Level 1
  6
Continuous
 62
     7
370
    13
100
AcDbLine
 10
134.831802
 20
9.838708
 30
0.0
 11
134.755177
 21
10.087906
 31
0.0
  0
LINE
  5
237
330
4D0
100
AcDbEntity
  8
Level 1
  6
Continuous
 62
     7
370
    13
100
AcDbLine
 10
132.786385
 20
10.090667
 30
0.0
 11
132.786385
 21
9.283
 31
0.0
  0
LINE
  5
238
330
4D0
100
AcDbEntity
  8
Level 1
  6
Continuous
 62
     7
370
    13
100
AcDbLine
 10
132.789146
 20
8.897115
 30
0.0
 11
132.789146
 21
8.841198
 31
0.0
  0
LINE
  5
239
330
4D0
100
AcDbEntity
  8
Level 1
  6
Continuous
 62
     7
370
    13
100
AcDbLine
 10
132.791219
 20
8.732125
 30
0.0
 11
132.791219
 21
8.145354
 31
0.0
  0
LWPOLYLINE
  5
23B
330
4D0
100
AcDbEntity
  8
Level 1
  6
Continuous
 62
     7
370
    13
100
AcDbPolyline
 90
        3
 70
   128
 43
0.0
 10
130.397875
 20
9.865625
 10
130.464844
 20
9.865625
 10
130.680219
 20
9.777271
  0
LWPOLYLINE
  5
23C
330
4D0
100
AcDbEntity
  8
Level 1
  6
Continuous
 62
     7
370
    13
100
AcDbPolyline
 90
        5
 70
   128
 43
0.0
 10
130.681604
 20
9.77451
 10
130.680906
 20
9.77451
 10
130.586333
 20
9.804187
 10
130.596688
 20
9.826969
 10
130.681604
 20
9.77451
  0
LWPOLYLINE
  5
241
330
4D0
100
AcDbEntity
  8
Level 1
  6
Continuous
 62
     7
370
    13
100
AcDbPolyline
 90
        3
 70
   128
 43
0.0
 10
130.967396
 20
4.916042
 10
131.040562
 20
4.916042
 10
131.173802
 20
4.493562
  0
LWPOLYLINE
  5
242
330
4D0
100
AcDbEntity
  8
Level 1
  6
Continuous
 62
     7
370
    13
100
AcDbPolyline
 90
        5
 70
   128
 43
0.0
 10
131.183458
 20
4.488042
 10
131.153781
 20
4.593667
 10
131.11926
 20
4.577781
 10
131.11926
 20
4.578479
 10
131.183458
 20
4.488042
  0
LWPOLYLINE
  5
245
330
4D0
100
AcDbEntity
  8
Level 1
  6
Continuous
 62
     7
370
    13
100
AcDbPolyline
 90
        3
 70
   128
 43
0.0
 10
130.274313
 20
5.785156
 10
130.236344
 20
5.787917
 10
130.10449
 20
5.878344
  0
LWPOLYLINE
  5
246
330
4D0
100
AcDbEntity
  8
Level 1
  6
Continuous
 62
     7
370
    13
100
AcDbPolyline
 90
        5
 70
   128
 43
0.0
 10
130.106562
 20
5.875583
 10
130.105875
 20
5.875583
 10
130.15351
 20
5.829333
 10
130.168
 20
5.849354
 10
130.106562
 20
5.875583
  0
LWPOLYLINE
  5
247
330
4D0
100
AcDbEntity
  8
Level 1
  6
Continuous
 62
     7
370
    13
100
AcDbPolyline
 90
        5
 70
   128
 43
0.0
 10
130.94599
 20
6.599042
 10
130.94599
 20
6.599042
 10
130.990865
 20
6.587302
 10
130.990865
 20
6.604563
 10
130.94599
 20
6.599042
  0
LWPOLYLINE
  5
248
330
4D0
100
AcDbEntity
  8
Level 1
  6
Continuous
 62
     7
370
    13
100
AcDbPolyline
 90
        5
 70
   128
 43
0.0
 10
131.124094
 20
6.596969
 10
131.124094
 20
6.596969
 10
131.08475
 20
6.587302
 10
131.08199
 20
6.606635
 10
131.124094
 20
6.596969
  0
LINE
  5
249
330
4D0
100
AcDbEntity
  8
Level 1
  6
Continuous
 62
     7
370
    13
100
AcDbLine
 10
129.820083
 20
5.874208
 30
0.0
 11
130.306062
 21
5.874208
 31
0.0
  0
LINE
  5
24A
330
4D0
100
AcDbEntity
  8
Level 1
  6
Continuous
 62
     7
370
    13
100
AcDbLine
 10
130.30676
 20
5.874208
 30
0.0
 11
131.380896
 21
5.874208
 31
0.0
  0
LINE
  5
24B
330
4D0
100
AcDbEntity
  8
Level 1
  6
Continuous
 62
     7
370
    13
100
AcDbLine
 10
131.380896
 20
5.874208
 30
0.0
 11
131.81649
 21
5.874208
 31
0.0
  0
LWPOLYLINE
  5
24C
330
4D0
100
AcDbEntity
  8
Level 1
  6
Continuous
 62
     7
370
    13
100
AcDbPolyline
 90
        3
 70
   128
 43
0.0
 10
134.943625
 20
6.379521
 10
134.990573
 20
6.379521
 10
135.080312
 20
6.242833
  0
LWPOLYLINE
  5
24D
330
4D0
100
AcDbEntity
  8
Level 1
  6
Continuous
 62
     7
370
    13
100
AcDbPolyline
 90
        5
 70
   128
 43
0.0
 10
135.085833
 20
6.239385
 10
135.085833
 20
6.239385
 10
135.045104
 20
6.278729
 10
135.059604
 20
6.288396
 10
135.085833
 20
6.239385
  0
LINE
  5
24E
330
4D0
100
AcDbEntity
  8
Level 1
  6
Continuous
 62
     7
370
    13
100
AcDbLine
 10
131.524479
 20
4.284396
 30
0.0
 11
131.883448
 21
4.284396
 31
0.0
  0
LINE
  5
24F
330
4D0
100
AcDbEntity
  8
Level 1
  6
Continuous
 62
     7
370
    13
100
AcDbLine
 10
131.883448
 20
4.284396
 30
0.0
 11
131.907604
 21
4.284396
 31
0.0
  0
LINE
  5
250
330
4D0
100
AcDbEntity
  8
Level 1
  6
Continuous
 62
     7
370
    13
100
AcDbLine
 10
131.87999
 20
4.484594
 30
0.0
 11
132.072594
 21
4.484594
 31
0.0
  0
LINE
  5
251
330
4D0
100
AcDbEntity
  8
Level 1
  6
Continuous
 62
     7
370
    13
100
AcDbLine
 10
132.256219
 20
4.484594
 30
0.0
 11
132.347344
 21
4.484594
 31
0.0
  0
LWPOLYLINE
  5
252
330
4D0
100
AcDbEntity
  8
Level 1
  6
Continuous
 62
     7
370
    13
100
AcDbPolyline
 90
        5
 70
   128
 43
0.0
 10
134.064167
 20
4.284396
 10
134.488708
 20
4.284396
 10
134.488708
 20
4.098708
 10
131.529313
 20
4.098708
 10
131.529313
 20
4.257479
  0
LINE
  5
253
330
4D0
100
AcDbEntity
  8
Level 1
  6
Continuous
 62
     7
370
    13
100
AcDbLine
 10
131.907604
 20
4.284396
 30
0.0
 11
134.019292
 21
4.284396
 31
0.0
  0
LINE
  5
254
330
4D0
100
AcDbEntity
  8
Level 1
  6
Continuous
 62
     7
370
    13
100
AcDbLine
 10
134.019979
 20
4.284396
 30
0.0
 11
134.064167
 21
4.284396
 31
0.0
  0
LINE
  5
255
330
4D0
100
AcDbEntity
  8
Level 1
  6
Continuous
 62
     7
370
    13
100
AcDbLine
 10
133.913677
 20
4.487354
 30
0.0
 11
134.064854
 21
4.487354
 31
0.0
  0
LINE
  5
256
330
4D0
100
AcDbEntity
  8
Level 1
  6
Continuous
 62
     7
370
    13
100
AcDbLine
 10
133.630646
 20
4.484594
 30
0.0
 11
133.731427
 21
4.484594
 31
0.0
  0
LWPOLYLINE
  5
257
330
4D0
100
AcDbEntity
  8
Level 1
  6
Continuous
 62
     7
370
    13
100
AcDbPolyline
 90
        8
 70
   128
 43
0.0
 10
130.789979
 20
6.360875
 10
130.803094
 20
6.353979
 10
130.809313
 20
6.34776
 10
130.815521
 20
6.341552
 10
130.819667
 20
6.333958
 10
130.823802
 20
6.326365
 10
130.825875
 20
6.316698
 10
130.829333
 20
6.306344
  0
LWPOLYLINE
  5
258
330
4D0
100
AcDbEntity
  8
Level 1
  6
Continuous
 62
     7
370
    13
100
AcDbPolyline
 90
        8
 70
   128
 43
0.0
 10
130.899052
 20
6.3595
 10
130.892146
 20
6.351906
 10
130.885937
 20
6.347073
 10
130.882479
 20
6.341552
 10
130.876271
 20
6.333958
 10
130.872125
 20
6.326365
 10
130.869365
 20
6.316698
 10
130.86799
 20
6.304958
  0
LWPOLYLINE
  5
259
330
4D0
100
AcDbEntity
  8
Level 1
  6
Continuous
 62
     7
370
    13
100
AcDbPolyline
 90
        5
 70
   128
 43
0.0
 10
130.830021
 20
6.306344
 10
130.830021
 20
6.068187
 10
130.802406
 20
6.035052
 10
130.761677
 20
6.012958
 10
130.62776
 20
5.981896
  0
LINE
  5
25A
330
4D0
100
AcDbEntity
  8
Level 1
  6
Continuous
 62
     7
370
    13
100
AcDbLine
 10
131.528625
 20
4.262313
 30
0.0
 11
131.528625
 21
4.486667
 31
0.0
  0
LINE
  5
25B
330
4D0
100
AcDbEntity
  8
Level 1
  6
Continuous
 62
     7
370
    13
100
AcDbLine
 10
131.193813
 20
4.477688
 30
0.0
 11
129.912583
 21
4.477688
 31
0.0
  0
LWPOLYLINE
  5
25C
330
4D0
100
AcDbEntity
  8
Level 1
  6
Continuous
 62
     7
370
    13
100
AcDbPolyline
 90
        3
 70
   128
 43
0.0
 10
131.193813
 20
4.480448
 10
131.193813
 20
4.267833
 10
129.911896
 20
4.267833
  0
LINE
  5
25D
330
4D0
100
AcDbEntity
  8
Level 1
  6
Continuous
 62
     7
370
    13
100
AcDbLine
 10
134.761385
 20
4.483208
 30
0.0
 11
135.76925
 21
4.483208
 31
0.0
  0
LWPOLYLINE
  5
25E
330
4D0
100
AcDbEntity
  8
Level 1
  6
Continuous
 62
     7
370
    13
100
AcDbPolyline
 90
        3
 70
   128
 43
0.0
 10
134.764146
 20
4.484594
 10
134.764146
 20
4.266448
 10
135.76649
 20
4.266448
  0
LINE
  5
260
330
4D0
100
AcDbEntity
  8
Level 1
  6
Continuous
 62
     7
370
    13
100
AcDbLine
 10
132.98174
 20
4.483208
 30
0.0
 11
132.98174
 21
4.415103
 31
0.0
  0
LINE
  5
261
330
4D0
100
AcDbEntity
  8
Level 1
  6
Continuous
 62
     7
370
    13
100
AcDbLine
 10
131.705344
 20
4.483208
 30
0.0
 11
131.705344
 21
4.18499
 31
0.0
  0
LINE
  5
262
330
4D0
100
AcDbEntity
  8
Level 1
  6
Continuous
 62
     7
370
    13
100
AcDbLine
 10
131.736406
 20
4.18499
 30
0.0
 11
131.704656
 21
4.18499
 31
0.0
  0
LINE
  5
263
330
4D0
100
AcDbEntity
  8
Level 1
  6
Continuous
 62
     7
370
    13
100
AcDbLine
 10
131.736406
 20
4.483208
 30
0.0
 11
131.736406
 21
4.18499
 31
0.0
  0
LWPOLYLINE
  5
264
330
4D0
100
AcDbEntity
  8
Level 1
  6
Continuous
 62
     7
370
    13
100
AcDbPolyline
 90
        5
 70
   128
 43
0.0
 10
131.688083
 20
4.451458
 10
131.75574
 20
4.451458
 10
131.75574
 20
4.432125
 10
131.687396
 20
4.432125
 10
131.687396
 20
4.451458
  0
LINE
  5
265
330
4D0
100
AcDbEntity
  8
Level 1
  6
Continuous
 62
     7
370
    13
100
AcDbLine
 10
132.96449
 20
4.432125
 30
0.0
 11
132.96449
 21
4.451458
 31
0.0
  0
LINE
  5
266
330
4D0
100
AcDbEntity
  8
Level 1
  6
Continuous
 62
     7
370
    13
100
AcDbLine
 10
133.032823
 20
4.432125
 30
0.0
 11
132.96449
 21
4.432125
 31
0.0
  0
LINE
  5
267
330
4D0
100
AcDbEntity
  8
Level 1
  6
Continuous
 62
     7
370
    13
100
AcDbLine
 10
133.032823
 20
4.451458
 30
0.0
 11
133.032823
 21
4.432125
 31
0.0
  0
LINE
  5
268
330
4D0
100
AcDbEntity
  8
Level 1
  6
Continuous
 62
     7
370
    13
100
AcDbLine
 10
132.965865
 20
4.451458
 30
0.0
 11
133.032823
 21
4.451458
 31
0.0
  0
LINE
  5
269
330
4D0
100
AcDbEntity
  8
Level 1
  6
Continuous
 62
     7
370
    13
100
AcDbLine
 10
132.347344
 20
4.484594
 30
0.0
 11
132.981052
 21
4.484594
 31
0.0
  0
LINE
  5
26A
330
4D0
100
AcDbEntity
  8
Level 1
  6
Continuous
 62
     7
370
    13
100
AcDbLine
 10
133.010042
 20
4.484594
 30
0.0
 11
133.630646
 21
4.484594
 31
0.0
  0
LINE
  5
26B
330
4D0
100
AcDbEntity
  8
Level 1
  6
Continuous
 62
     7
370
    13
100
AcDbLine
 10
131.734333
 20
4.484594
 30
0.0
 11
131.87999
 21
4.484594
 31
0.0
  0
LWPOLYLINE
  5
26C
330
4D0
100
AcDbEntity
  8
Level 1
  6
Continuous
 62
     7
370
    13
100
AcDbPolyline
 90
        5
 70
   128
 43
0.0
 10
134.26574
 20
4.451458
 10
134.332698
 20
4.451458
 10
134.332698
 20
4.432125
 10
134.264354
 20
4.432125
 10
134.264354
 20
4.451458
  0
LINE
  5
26D
330
4D0
100
AcDbEntity
  8
Level 1
  6
Continuous
 62
     7
370
    13
100
AcDbLine
 10
134.312677
 20
4.18499
 30
0.0
 11
134.280927
 21
4.18499
 31
0.0
  0
LWPOLYLINE
  5
26E
330
4D0
100
AcDbEntity
  8
Level 1
  6
Continuous
 62
     7
370
    13
100
AcDbPolyline
 90
        4
 70
   128
 43
0.0
 10
133.916438
 20
4.485969
 10
133.916438
 20
4.374146
 10
134.027573
 20
4.374146
 10
134.027573
 20
4.284396
  0
LINE
  5
26F
330
4D0
100
AcDbEntity
  8
Level 1
  6
Continuous
 62
     7
370
    13
100
AcDbLine
 10
133.718312
 20
4.483906
 30
0.0
 11
133.786656
 21
4.483906
 31
0.0
  0
LINE
  5
270
330
4D0
100
AcDbEntity
  8
Level 1
  6
Continuous
 62
     7
370
    13
100
AcDbLine
 10
133.788729
 20
4.483906
 30
0.0
 11
133.788729
 21
4.374146
 31
0.0
  0
LINE
  5
271
330
4D0
100
AcDbEntity
  8
Level 1
  6
Continuous
 62
     7
370
    13
100
AcDbLine
 10
133.678969
 20
4.370687
 30
0.0
 11
133.789417
 21
4.370687
 31
0.0
  0
LINE
  5
272
330
4D0
100
AcDbEntity
  8
Level 1
  6
Continuous
 62
     7
370
    13
100
AcDbLine
 10
133.679656
 20
4.371385
 30
0.0
 11
133.679656
 21
4.283021
 31
0.0
  0
CIRCLE
  5
273
330
4D0
100
AcDbEntity
  8
Level 1
  6
Continuous
 62
     7
370
    13
100
AcDbCircle
 10
133.853961
 20
4.45988
 30
0.0
 40
0.030857248125
  0
LWPOLYLINE
  5
274
330
4D0
100
AcDbEntity
  8
Level 1
  6
Continuous
 62
     7
370
    13
100
AcDbPolyline
 90
        5
 70
   128
 43
0.0
 10
134.000656
 20
4.285781
 10
133.999958
 20
4.303729
 10
133.709344
 20
4.303729
 10
133.709344
 20
4.285094
 10
134.000656
 20
4.285094
  0
LWPOLYLINE
  5
275
330
4D0
100
AcDbEntity
  8
Level 1
  6
Continuous
 62
     7
370
    13
100
AcDbPolyline
 90
        3
 70
   128
 43
0.0
 10
133.861896
 20
4.354125
 10
133.927479
 20
4.330656
 10
133.927479
 20
4.312708
  0
LINE
  5
276
330
4D0
100
AcDbEntity
  8
Level 1
  6
Continuous
 62
     7
370
    13
100
AcDbLine
 10
133.927479
 20
4.313396
 30
0.0
 11
133.770083
 21
4.313396
 31
0.0
  0
LINE
  5
277
330
4D0
100
AcDbEntity
  8
Level 1
  6
Continuous
 62
     7
370
    13
100
AcDbLine
 10
133.863969
 20
4.43075
 30
0.0
 11
133.863969
 21
4.313396
 31
0.0
  0
LINE
  5
278
330
4D0
100
AcDbEntity
  8
Level 1
  6
Continuous
 62
     7
370
    13
100
AcDbLine
 10
133.854302
 20
4.43075
 30
0.0
 11
133.854302
 21
4.313396
 31
0.0
  0
LINE
  5
279
330
4D0
100
AcDbEntity
  8
Level 1
  6
Continuous
 62
     7
370
    13
100
AcDbLine
 10
133.844646
 20
4.43075
 30
0.0
 11
133.844646
 21
4.313396
 31
0.0
  0
LINE
  5
27A
330
4D0
100
AcDbEntity
  8
Level 1
  6
Continuous
 62
     7
370
    13
100
AcDbLine
 10
133.933
 20
4.327885
 30
0.0
 11
133.933
 21
4.303729
 31
0.0
  0
LINE
  5
27B
330
4D0
100
AcDbEntity
  8
Level 1
  6
Continuous
 62
     7
370
    13
100
AcDbLine
 10
133.931625
 20
4.327885
 30
0.0
 11
134.000656
 21
4.303729
 31
0.0
  0
LWPOLYLINE
  5
27C
330
4D0
100
AcDbEntity
  8
Level 1
  6
Continuous
 62
     7
370
    13
100
AcDbPolyline
 90
        3
 70
   128
 43
0.0
 10
133.770083
 20
4.314083
 10
133.770083
 20
4.330656
 10
133.84326
 20
4.35274
  0
LINE
  5
27D
330
4D0
100
AcDbEntity
  8
Level 1
  6
Continuous
 62
     7
370
    13
100
AcDbLine
 10
133.761802
 20
4.328583
 30
0.0
 11
133.709344
 21
4.304417
 31
0.0
  0
LINE
  5
27E
330
4D0
100
AcDbEntity
  8
Level 1
  6
Continuous
 62
     7
370
    13
100
AcDbLine
 10
133.760427
 20
4.304417
 30
0.0
 11
133.760427
 21
4.328583
 31
0.0
  0
LINE
  5
27F
330
4D0
100
AcDbEntity
  8
Level 1
  6
Continuous
 62
     7
370
    13
100
AcDbLine
 10
133.710719
 20
4.30649
 30
0.0
 11
133.708646
 21
4.305802
 31
0.0
  0
LWPOLYLINE
  5
280
330
4D0
100
AcDbEntity
  8
Level 1
  6
Continuous
 62
     7
370
    13
100
AcDbPolyline
 90
        5
 70
   128
 43
0.0
 10
133.864656
 20
4.314771
 10
133.859135
 20
4.35274
 10
133.926104
 20
4.313396
 10
133.925406
 20
4.332719
 10
133.864656
 20
4.314771
  0
LWPOLYLINE
  5
281
330
4D0
100
AcDbEntity
  8
Level 1
  6
Continuous
 62
     7
370
    13
100
AcDbPolyline
 90
        5
 70
   128
 43
0.0
 10
133.925406
 20
4.332719
 10
133.926104
 20
4.313396
 10
133.871562
 20
4.315469
 10
133.870875
 20
4.315469
 10
133.925406
 20
4.332719
  0
LWPOLYLINE
  5
282
330
4D0
100
AcDbEntity
  8
Level 1
  6
Continuous
 62
     7
370
    13
100
AcDbPolyline
 90
        5
 70
   128
 43
0.0
 10
133.870875
 20
4.315469
 10
133.871562
 20
4.315469
 10
133.861896
 20
4.350667
 10
133.861896
 20
4.350667
 10
133.870875
 20
4.315469
  0
LWPOLYLINE
  5
283
330
4D0
100
AcDbEntity
  8
Level 1
  6
Continuous
 62
     7
370
    13
100
AcDbPolyline
 90
        5
 70
   128
 43
0.0
 10
133.861896
 20
4.350667
 10
133.861896
 20
4.350667
 10
133.861896
 20
4.350667
 10
133.861896
 20
4.350667
 10
133.861896
 20
4.350667
  0
LWPOLYLINE
  5
284
330
4D0
100
AcDbEntity
  8
Level 1
  6
Continuous
 62
     7
370
    13
100
AcDbPolyline
 90
        5
 70
   128
 43
0.0
 10
133.861896
 20
4.350667
 10
133.861896
 20
4.350667
 10
133.903323
 20
4.327885
 10
133.919885
 20
4.328583
 10
133.861896
 20
4.350667
  0
LWPOLYLINE
  5
285
330
4D0
100
AcDbEntity
  8
Level 1
  6
Continuous
 62
     7
370
    13
100
AcDbPolyline
 90
        5
 70
   128
 43
0.0
 10
133.846708
 20
4.314771
 10
133.847406
 20
4.354125
 10
133.772156
 20
4.330656
 10
133.770083
 20
4.314083
 10
133.846708
 20
4.314771
  0
LWPOLYLINE
  5
286
330
4D0
100
AcDbEntity
  8
Level 1
  6
Continuous
 62
     7
370
    13
100
AcDbPolyline
 90
        5
 70
   128
 43
0.0
 10
133.759042
 20
4.32651
 10
133.759729
 20
4.304417
 10
133.711406
 20
4.30649
 10
133.711406
 20
4.305802
 10
133.759042
 20
4.32651
  0
LWPOLYLINE
  5
287
330
4D0
100
AcDbEntity
  8
Level 1
  6
Continuous
 62
     7
370
    13
100
AcDbPolyline
 90
        5
 70
   128
 43
0.0
 10
133.937146
 20
4.325823
 10
133.935073
 20
4.303042
 10
133.997896
 20
4.300969
 10
133.997896
 20
4.303042
 10
133.937146
 20
4.325823
  0
LWPOLYLINE
  5
288
330
4D0
100
AcDbEntity
  8
Level 1
  6
Continuous
 62
     7
370
    13
100
AcDbPolyline
 90
        5
 70
   128
 43
0.0
 10
133.710719
 20
4.288542
 10
133.712792
 20
4.303729
 10
134.000656
 20
4.303042
 10
133.999958
 20
4.284396
 10
133.710719
 20
4.288542
  0
LWPOLYLINE
  5
289
330
4D0
100
AcDbEntity
  8
Level 1
  6
Continuous
 62
     7
370
    13
100
AcDbPolyline
 90
        5
 70
   128
 43
0.0
 10
133.84326
 20
4.312708
 10
133.861896
 20
4.314771
 10
133.863969
 20
4.439719
 10
133.84326
 20
4.434885
 10
133.84326
 20
4.312708
  0
LWPOLYLINE
  5
28A
330
4D0
100
AcDbEntity
  8
Level 1
  6
Continuous
 62
     7
370
    13
100
AcDbPolyline
 90
        5
 70
   128
 43
0.0
 10
133.847406
 20
4.43351
 10
133.832906
 20
4.439719
 10
133.854302
 20
4.490115
 10
133.871562
 20
4.481833
 10
133.847406
 20
4.43351
  0
LWPOLYLINE
  5
28B
330
4D0
100
AcDbEntity
  8
Level 1
  6
Continuous
 62
     7
370
    13
100
AcDbPolyline
 90
        5
 70
   128
 43
0.0
 10
133.845333
 20
4.435583
 10
133.87225
 20
4.439719
 10
133.852927
 20
4.486667
 10
133.831521
 20
4.481833
 10
133.845333
 20
4.435583
  0
LWPOLYLINE
  5
28C
330
4D0
100
AcDbEntity
  8
Level 1
  6
Continuous
 62
     7
370
    13
100
AcDbPolyline
 90
        5
 70
   128
 43
0.0
 10
133.822552
 20
4.461125
 10
133.831521
 20
4.481833
 10
133.881917
 20
4.461125
 10
133.871562
 20
4.441792
 10
133.822552
 20
4.461125
  0
LWPOLYLINE
  5
28D
330
4D0
100
AcDbEntity
  8
Level 1
  6
Continuous
 62
     7
370
    13
100
AcDbPolyline
 90
        5
 70
   128
 43
0.0
 10
133.838427
 20
4.43351
 10
133.822552
 20
4.461125
 10
133.871562
 20
4.481146
 10
133.882604
 20
4.4625
 10
133.838427
 20
4.43351
  0
LWPOLYLINE
  5
28E
330
4D0
100
AcDbEntity
  8
Level 1
  6
Continuous
 62
     7
370
    13
100
AcDbPolyline
 90
        5
 70
   128
 43
0.0
 10
132.120917
 20
4.43351
 10
132.104344
 20
4.461125
 10
132.153365
 20
4.481146
 10
132.165094
 20
4.4625
 10
132.120917
 20
4.43351
  0
LWPOLYLINE
  5
28F
330
4D0
100
AcDbEntity
  8
Level 1
  6
Continuous
 62
     7
370
    13
100
AcDbPolyline
 90
        5
 70
   128
 43
0.0
 10
132.104344
 20
4.461125
 10
132.11401
 20
4.481833
 10
132.164406
 20
4.461125
 10
132.153365
 20
4.441792
 10
132.104344
 20
4.461125
  0
LWPOLYLINE
  5
290
330
4D0
100
AcDbEntity
  8
Level 1
  6
Continuous
 62
     7
370
    13
100
AcDbPolyline
 90
        5
 70
   128
 43
0.0
 10
132.127125
 20
4.435583
 10
132.15474
 20
4.439719
 10
132.135417
 20
4.486667
 10
132.11401
 20
4.481833
 10
132.127125
 20
4.435583
  0
LWPOLYLINE
  5
291
330
4D0
100
AcDbEntity
  8
Level 1
  6
Continuous
 62
     7
370
    13
100
AcDbPolyline
 90
        5
 70
   128
 43
0.0
 10
132.129198
 20
4.43351
 10
132.114698
 20
4.439719
 10
132.136104
 20
4.490115
 10
132.153365
 20
4.481833
 10
132.129198
 20
4.43351
  0
LWPOLYLINE
  5
292
330
4D0
100
AcDbEntity
  8
Level 1
  6
Continuous
 62
     7
370
    13
100
AcDbPolyline
 90
        5
 70
   128
 43
0.0
 10
132.12575
 20
4.312708
 10
132.143698
 20
4.314771
 10
132.145771
 20
4.439719
 10
132.12575
 20
4.434885
 10
132.12575
 20
4.312708
  0
LWPOLYLINE
  5
293
330
4D0
100
AcDbEntity
  8
Level 1
  6
Continuous
 62
     7
370
    13
100
AcDbPolyline
 90
        5
 70
   128
 43
0.0
 10
131.992521
 20
4.288542
 10
131.994583
 20
4.303729
 10
132.283135
 20
4.303042
 10
132.28176
 20
4.284396
 10
131.992521
 20
4.288542
  0
LWPOLYLINE
  5
294
330
4D0
100
AcDbEntity
  8
Level 1
  6
Continuous
 62
     7
370
    13
100
AcDbPolyline
 90
        5
 70
   128
 43
0.0
 10
132.218938
 20
4.325823
 10
132.217562
 20
4.303042
 10
132.279687
 20
4.300969
 10
132.279687
 20
4.303042
 10
132.218938
 20
4.325823
  0
LWPOLYLINE
  5
295
330
4D0
100
AcDbEntity
  8
Level 1
  6
Continuous
 62
     7
370
    13
100
AcDbPolyline
 90
        5
 70
   128
 43
0.0
 10
132.040844
 20
4.32651
 10
132.042219
 20
4.304417
 10
131.993896
 20
4.30649
 10
131.993896
 20
4.305802
 10
132.040844
 20
4.32651
  0
LWPOLYLINE
  5
296
330
4D0
100
AcDbEntity
  8
Level 1
  6
Continuous
 62
     7
370
    13
100
AcDbPolyline
 90
        5
 70
   128
 43
0.0
 10
132.12851
 20
4.314771
 10
132.129885
 20
4.354125
 10
132.054646
 20
4.330656
 10
132.052573
 20
4.314083
 10
132.12851
 20
4.314771
  0
LWPOLYLINE
  5
297
330
4D0
100
AcDbEntity
  8
Level 1
  6
Continuous
 62
     7
370
    13
100
AcDbPolyline
 90
        5
 70
   128
 43
0.0
 10
132.143698
 20
4.350667
 10
132.143698
 20
4.350667
 10
132.185115
 20
4.327885
 10
132.201687
 20
4.328583
 10
132.143698
 20
4.350667
  0
LWPOLYLINE
  5
298
330
4D0
100
AcDbEntity
  8
Level 1
  6
Continuous
 62
     7
370
    13
100
AcDbPolyline
 90
        5
 70
   128
 43
0.0
 10
132.143698
 20
4.350667
 10
132.143698
 20
4.350667
 10
132.143698
 20
4.350667
 10
132.143698
 20
4.350667
 10
132.143698
 20
4.350667
  0
LWPOLYLINE
  5
299
330
4D0
100
AcDbEntity
  8
Level 1
  6
Continuous
 62
     7
370
    13
100
AcDbPolyline
 90
        5
 70
   128
 43
0.0
 10
132.152667
 20
4.315469
 10
132.153365
 20
4.315469
 10
132.143698
 20
4.350667
 10
132.143698
 20
4.350667
 10
132.152667
 20
4.315469
  0
LWPOLYLINE
  5
29A
330
4D0
100
AcDbEntity
  8
Level 1
  6
Continuous
 62
     7
370
    13
100
AcDbPolyline
 90
        5
 70
   128
 43
0.0
 10
132.207896
 20
4.332719
 10
132.208583
 20
4.313396
 10
132.153365
 20
4.315469
 10
132.152667
 20
4.315469
 10
132.207896
 20
4.332719
  0
LWPOLYLINE
  5
29B
330
4D0
100
AcDbEntity
  8
Level 1
  6
Continuous
 62
     7
370
    13
100
AcDbPolyline
 90
        5
 70
   128
 43
0.0
 10
132.147146
 20
4.314771
 10
132.140938
 20
4.35274
 10
132.208583
 20
4.313396
 10
132.207896
 20
4.332719
 10
132.147146
 20
4.314771
  0
LINE
  5
29C
330
4D0
100
AcDbEntity
  8
Level 1
  6
Continuous
 62
     7
370
    13
100
AcDbLine
 10
131.993208
 20
4.30649
 30
0.0
 11
131.991135
 21
4.305802
 31
0.0
  0
LINE
  5
29D
330
4D0
100
AcDbEntity
  8
Level 1
  6
Continuous
 62
     7
370
    13
100
AcDbLine
 10
132.042906
 20
4.304417
 30
0.0
 11
132.042906
 21
4.328583
 31
0.0
  0
LINE
  5
29E
330
4D0
100
AcDbEntity
  8
Level 1
  6
Continuous
 62
     7
370
    13
100
AcDbLine
 10
132.043604
 20
4.328583
 30
0.0
 11
131.991823
 21
4.304417
 31
0.0
  0
LWPOLYLINE
  5
29F
330
4D0
100
AcDbEntity
  8
Level 1
  6
Continuous
 62
     7
370
    13
100
AcDbPolyline
 90
        3
 70
   128
 43
0.0
 10
132.052573
 20
4.314083
 10
132.052573
 20
4.330656
 10
132.12575
 20
4.35274
  0
LINE
  5
2A0
330
4D0
100
AcDbEntity
  8
Level 1
  6
Continuous
 62
     7
370
    13
100
AcDbLine
 10
132.213417
 20
4.327885
 30
0.0
 11
132.283135
 21
4.303729
 31
0.0
  0
LINE
  5
2A1
330
4D0
100
AcDbEntity
  8
Level 1
  6
Continuous
 62
     7
370
    13
100
AcDbLine
 10
132.21549
 20
4.327885
 30
0.0
 11
132.21549
 21
4.303729
 31
0.0
  0
LINE
  5
2A2
330
4D0
100
AcDbEntity
  8
Level 1
  6
Continuous
 62
     7
370
    13
100
AcDbLine
 10
132.126438
 20
4.43075
 30
0.0
 11
132.126438
 21
4.313396
 31
0.0
  0
LINE
  5
2A3
330
4D0
100
AcDbEntity
  8
Level 1
  6
Continuous
 62
     7
370
    13
100
AcDbLine
 10
132.136104
 20
4.43075
 30
0.0
 11
132.136104
 21
4.313396
 31
0.0
  0
LINE
  5
2A4
330
4D0
100
AcDbEntity
  8
Level 1
  6
Continuous
 62
     7
370
    13
100
AcDbLine
 10
132.145771
 20
4.43075
 30
0.0
 11
132.145771
 21
4.313396
 31
0.0
  0
LINE
  5
2A5
330
4D0
100
AcDbEntity
  8
Level 1
  6
Continuous
 62
     7
370
    13
100
AcDbLine
 10
132.209281
 20
4.313396
 30
0.0
 11
132.052573
 21
4.313396
 31
0.0
  0
LWPOLYLINE
  5
2A6
330
4D0
100
AcDbEntity
  8
Level 1
  6
Continuous
 62
     7
370
    13
100
AcDbPolyline
 90
        3
 70
   128
 43
0.0
 10
132.143698
 20
4.354125
 10
132.209281
 20
4.330656
 10
132.209281
 20
4.312708
  0
LWPOLYLINE
  5
2A7
330
4D0
100
AcDbEntity
  8
Level 1
  6
Continuous
 62
     7
370
    13
100
AcDbPolyline
 90
        5
 70
   128
 43
0.0
 10
132.283135
 20
4.285781
 10
132.28176
 20
4.303729
 10
131.991823
 20
4.303729
 10
131.991823
 20
4.285094
 10
132.283135
 20
4.285094
  0
CIRCLE
  5
2A8
330
4D0
100
AcDbEntity
  8
Level 1
  6
Continuous
 62
     7
370
    13
100
AcDbCircle
 10
132.136103
 20
4.45988
 30
0.0
 40
0.030857248125
  0
LINE
  5
2A9
330
4D0
100
AcDbEntity
  8
Level 1
  6
Continuous
 62
     7
370
    13
100
AcDbLine
 10
131.962146
 20
4.371385
 30
0.0
 11
131.962146
 21
4.283021
 31
0.0
  0
LINE
  5
2AA
330
4D0
100
AcDbEntity
  8
Level 1
  6
Continuous
 62
     7
370
    13
100
AcDbLine
 10
131.96076
 20
4.370687
 30
0.0
 11
132.071906
 21
4.370687
 31
0.0
  0
LINE
  5
2AB
330
4D0
100
AcDbEntity
  8
Level 1
  6
Continuous
 62
     7
370
    13
100
AcDbLine
 10
132.070521
 20
4.483906
 30
0.0
 11
132.070521
 21
4.374146
 31
0.0
  0
LINE
  5
2AC
330
4D0
100
AcDbEntity
  8
Level 1
  6
Continuous
 62
     7
370
    13
100
AcDbLine
 10
132.000115
 20
4.483906
 30
0.0
 11
132.068448
 21
4.483906
 31
0.0
  0
LWPOLYLINE
  5
2AD
330
4D0
100
AcDbEntity
  8
Level 1
  6
Continuous
 62
     7
370
    13
100
AcDbPolyline
 90
        4
 70
   128
 43
0.0
 10
132.198917
 20
4.485969
 10
132.198917
 20
4.374146
 10
132.309375
 20
4.374146
 10
132.309375
 20
4.284396
  0
LINE
  5
2AE
330
4D0
100
AcDbEntity
  8
Level 1
  6
Continuous
 62
     7
370
    13
100
AcDbLine
 10
131.913125
 20
4.484594
 30
0.0
 11
132.013229
 21
4.484594
 31
0.0
  0
LINE
  5
2AF
330
4D0
100
AcDbEntity
  8
Level 1
  6
Continuous
 62
     7
370
    13
100
AcDbLine
 10
132.196156
 20
4.487354
 30
0.0
 11
132.346646
 21
4.487354
 31
0.0
  0
LINE
  5
2B0
330
4D0
100
AcDbEntity
  8
Level 1
  6
Continuous
 62
     7
370
    13
100
AcDbLine
 10
132.302469
 20
4.284396
 30
0.0
 11
132.346646
 21
4.284396
 31
0.0
  0
LINE
  5
2B1
330
4D0
100
AcDbEntity
  8
Level 1
  6
Continuous
 62
     7
370
    13
100
AcDbLine
 10
134.064854
 20
4.487354
 30
0.0
 11
134.281615
 21
4.487354
 31
0.0
  0
LINE
  5
2B4
330
4D0
100
AcDbEntity
  8
Level 1
  6
Continuous
 62
     7
370
    13
100
AcDbLine
 10
134.494229
 20
4.262313
 30
0.0
 11
134.494229
 21
4.486667
 31
0.0
  0
LINE
  5
2B6
330
4D0
100
AcDbEntity
  8
Level 1
  6
Continuous
 62
     7
370
    13
100
AcDbLine
 10
131.78749
 20
4.728969
 30
0.0
 11
131.732271
 21
4.728969
 31
0.0
  0
LINE
  5
2B7
330
4D0
100
AcDbEntity
  8
Level 1
  6
Continuous
 62
     7
370
    13
100
AcDbLine
 10
131.733646
 20
4.728969
 30
0.0
 11
131.637687
 21
4.476312
 31
0.0
  0
LINE
  5
2B8
330
4D0
100
AcDbEntity
  8
Level 1
  6
Continuous
 62
     7
370
    13
100
AcDbLine
 10
133.277885
 20
4.729656
 30
0.0
 11
133.208167
 21
4.729656
 31
0.0
  0
LINE
  5
2B9
330
4D0
100
AcDbEntity
  8
Level 1
  6
Continuous
 62
     7
370
    13
100
AcDbLine
 10
133.20126
 20
4.729656
 30
0.0
 11
133.103927
 21
4.4915
 31
0.0
  0
LWPOLYLINE
  5
2BA
330
4D0
100
AcDbEntity
  8
Level 1
  6
Continuous
 62
     7
370
    13
100
AcDbPolyline
 90
        5
 70
   128
 43
0.0
 10
131.63976
 20
4.479073
 10
131.63976
 20
4.479073
 10
131.681875
 20
4.557073
 10
131.657708
 20
4.56674
 10
131.63976
 20
4.479073
  0
LWPOLYLINE
  5
2BB
330
4D0
100
AcDbEntity
  8
Level 1
  6
Continuous
 62
     7
370
    13
100
AcDbPolyline
 90
        5
 70
   128
 43
0.0
 10
133.106687
 20
4.49426
 10
133.108073
 20
4.49426
 10
133.157083
 20
4.58124
 10
133.132927
 20
4.592969
 10
133.106687
 20
4.49426
  0
LINE
  5
2BC
330
4D0
100
AcDbEntity
  8
Level 1
  6
Continuous
 62
     7
370
    13
100
AcDbLine
 10
134.547385
 20
4.889812
 30
0.0
 11
134.460406
 21
4.889812
 31
0.0
  0
LWPOLYLINE
  5
2BD
330
4D0
100
AcDbEntity
  8
Level 1
  6
Continuous
 62
     7
370
    13
100
AcDbPolyline
 90
        3
 70
   128
 43
0.0
 10
134.867698
 20
4.600562
 10
134.802115
 20
4.600562
 10
134.628844
 20
4.490115
  0
LWPOLYLINE
  5
2BE
330
4D0
100
AcDbEntity
  8
Level 1
  6
Continuous
 62
     7
370
    13
100
AcDbPolyline
 90
        5
 70
   128
 43
0.0
 10
134.629531
 20
4.492875
 10
134.688208
 20
4.544646
 10
134.687521
 20
4.529469
 10
134.706854
 20
4.530156
 10
134.629531
 20
4.492875
  0
LWPOLYLINE
  5
2BF
330
4D0
100
AcDbEntity
  8
Level 1
  6
Continuous
 62
     7
370
    13
100
AcDbPolyline
 90
        5
 70
   128
 43
0.0
 10
134.168396
 20
4.4915
 10
134.206365
 20
4.571573
 10
134.206365
 20
4.550865
 10
134.226385
 20
4.557073
 10
134.168396
 20
4.4915
  0
LINE
  5
2C0
330
4D0
100
AcDbEntity
  8
Level 1
  6
Continuous
 62
     7
370
    13
100
AcDbLine
 10
134.189115
 20
4.487354
 30
0.0
 11
134.369281
 21
4.487354
 31
0.0
  0
LWPOLYLINE
  5
2C1
330
4D0
100
AcDbEntity
  8
Level 1
  6
Continuous
 62
     7
370
    13
100
AcDbPolyline
 90
        3
 70
   128
 43
0.0
 10
134.494917
 20
4.487354
 10
134.743437
 20
4.487354
 10
134.743437
 20
4.263687
  0
LINE
  5
2C2
330
4D0
100
AcDbEntity
  8
Level 1
  6
Continuous
 62
     7
370
    13
100
AcDbLine
 10
131.525167
 20
4.484594
 30
0.0
 11
131.707417
 21
4.484594
 31
0.0
  0
LINE
  5
2C3
330
4D0
100
AcDbEntity
  8
Level 1
  6
Continuous
 62
     7
370
    13
100
AcDbLine
 10
131.222813
 20
4.008271
 30
0.0
 11
131.222813
 21
4.266448
 31
0.0
  0
LWPOLYLINE
  5
2C4
330
4D0
100
AcDbEntity
  8
Level 1
  6
Continuous
 62
     7
370
    13
100
AcDbPolyline
 90
        3
 70
   128
 43
0.0
 10
131.222813
 20
4.266448
 10
131.222813
 20
4.484594
 10
131.523104
 20
4.484594
  0
CIRCLE
  5
2C7
330
4D0
100
AcDbEntity
  8
Level 1
  6
Continuous
 62
     7
370
    13
100
AcDbCircle
 10
134.7375
 20
8.950679
 30
0.0
 40
0.022849550625
  0
CIRCLE
  5
2C8
330
4D0
100
AcDbEntity
  8
Level 1
  6
Continuous
 62
     7
370
    13
100
AcDbCircle
 10
134.7375
 20
8.390831
 30
0.0
 40
0.022849550625
  0
CIRCLE
  5
2C9
330
4D0
100
AcDbEntity
  8
Level 1
  6
Continuous
 62
     7
370
    13
100
AcDbCircle
 10
134.353475
 20
8.64901
 30
0.0
 40
0.022849550625
  0
CIRCLE
  5
2CA
330
4D0
100
AcDbEntity
  8
Level 1
  6
Continuous
 62
     7
370
    13
100
AcDbCircle
 10
133.61159
 20
8.64901
 30
0.0
 40
0.022849550625
  0
CIRCLE
  5
2CB
330
4D0
100
AcDbEntity
  8
Level 1
  6
Continuous
 62
     7
370
    13
100
AcDbCircle
 10
133.966759
 20
8.950679
 30
0.0
 40
0.022849550625
  0
CIRCLE
  5
2CC
330
4D0
100
AcDbEntity
  8
Level 1
  6
Continuous
 62
     7
370
    13
100
AcDbCircle
 10
133.199884
 20
8.950679
 30
0.0
 40
0.022849550625
  0
CIRCLE
  5
2CD
330
4D0
100
AcDbEntity
  8
Level 1
  6
Continuous
 62
     7
370
    13
100
AcDbCircle
 10
132.423068
 20
8.950679
 30
0.0
 40
0.022849550625
  0
CIRCLE
  5
2CE
330
4D0
100
AcDbEntity
  8
Level 1
  6
Continuous
 62
     7
370
    13
100
AcDbCircle
 10
133.969589
 20
8.390831
 30
0.0
 40
0.022849550625
  0
CIRCLE
  5
2CF
330
4D0
100
AcDbEntity
  8
Level 1
  6
Continuous
 62
     7
370
    13
100
AcDbCircle
 10
133.203681
 20
8.390831
 30
0.0
 40
0.022849550625
  0
CIRCLE
  5
2D0
330
4D0
100
AcDbEntity
  8
Level 1
  6
Continuous
 62
     7
370
    13
100
AcDbCircle
 10
132.418374
 20
8.390831
 30
0.0
 40
0.022849550625
  0
CIRCLE
  5
2D1
330
4D0
100
AcDbEntity
  8
Level 1
  6
Continuous
 62
     7
370
    13
100
AcDbCircle
 10
131.643698
 20
8.950679
 30
0.0
 40
0.022849550625
  0
CIRCLE
  5
2D2
330
4D0
100
AcDbEntity
  8
Level 1
  6
Continuous
 62
     7
370
    13
100
AcDbCircle
 10
130.843964
 20
8.950679
 30
0.0
 40
0.022849550625
  0
CIRCLE
  5
2D3
330
4D0
100
AcDbEntity
  8
Level 1
  6
Continuous
 62
     7
370
    13
100
AcDbCircle
 10
131.65143
 20
8.390831
 30
0.0
 40
0.022849550625
  0
CIRCLE
  5
2D4
330
4D0
100
AcDbEntity
  8
Level 1
  6
Continuous
 62
     7
370
    13
100
AcDbCircle
 10
130.848865
 20
8.390831
 30
0.0
 40
0.022849550625
  0
CIRCLE
  5
2D5
330
4D0
100
AcDbEntity
  8
Level 1
  6
Continuous
 62
     7
370
    13
100
AcDbCircle
 10
132.031243
 20
8.64901
 30
0.0
 40
0.022849550625
  0
CIRCLE
  5
2D6
330
4D0
100
AcDbEntity
  8
Level 1
  6
Continuous
 62
     7
370
    13
100
AcDbCircle
 10
131.233511
 20
8.64901
 30
0.0
 40
0.022849550625
  0
LWPOLYLINE
  5
2D7
330
4D0
100
AcDbEntity
  8
Level 1
  6
Continuous
 62
     7
370
    13
100
AcDbPolyline
 90
        6
 70
   128
 43
0.0
 10
135.332281
 20
8.819792
 10
135.192146
 20
8.82049
 10
135.096187
 20
8.832906
 10
134.991948
 20
8.857073
 10
134.877354
 20
8.892281
 10
134.758625
 20
8.938531
  0
LWPOLYLINE
  5
2D8
330
4D0
100
AcDbEntity
  8
Level 1
  6
Continuous
 62
     7
370
    13
100
AcDbPolyline
 90
        6
 70
   128
 43
0.0
 10
135.190073
 20
8.82325
 10
135.086521
 20
8.81151
 10
134.980219
 20
8.794948
 10
134.82075
 20
8.761115
 10
134.563958
 20
8.705896
 10
134.3755
 20
8.65274
  0
LWPOLYLINE
  5
2D9
330
4D0
100
AcDbEntity
  8
Level 1
  6
Continuous
 62
     7
370
    13
100
AcDbPolyline
 90
        7
 70
   128
 43
0.0
 10
135.191458
 20
8.819104
 10
135.069958
 20
8.7625
 10
134.978146
 20
8.721771
 10
134.891167
 20
8.674823
 10
134.798667
 20
8.585781
 10
134.749646
 20
8.487063
 10
134.735156
 20
8.413885
  0
LWPOLYLINE
  5
2DA
330
4D0
100
AcDbEntity
  8
Level 1
  6
Continuous
 62
     7
370
    13
100
AcDbPolyline
 90
        5
 70
   128
 43
0.0
 10
134.737219
 20
8.415958
 10
134.73999
 20
8.505698
 10
134.749646
 20
8.493271
 10
134.767594
 20
8.498792
 10
134.737219
 20
8.415958
  0
LWPOLYLINE
  5
2DB
330
4D0
100
AcDbEntity
  8
Level 1
  6
Continuous
 62
     7
370
    13
100
AcDbPolyline
 90
        5
 70
   128
 43
0.0
 10
134.381021
 20
8.657573
 10
134.448667
 20
8.686562
 10
134.435552
 20
8.672062
 10
134.4535
 20
8.664469
 10
134.381021
 20
8.657573
  0
LWPOLYLINE
  5
2DC
330
4D0
100
AcDbEntity
  8
Level 1
  6
Continuous
 62
     7
370
    13
100
AcDbPolyline
 90
        5
 70
   128
 43
0.0
 10
134.761385
 20
8.939906
 10
134.826969
 20
8.930937
 10
134.806948
 20
8.921271
 10
134.808323
 20
8.899177
 10
134.761385
 20
8.939906
  0
LWPOLYLINE
  5
2DD
330
4D0
100
AcDbEntity
  8
Level 1
  6
Continuous
 62
     7
370
    13
100
AcDbPolyline
 90
        6
 70
   128
 43
0.0
 10
135.182479
 20
6.041948
 10
135.60426
 20
6.041948
 10
135.60426
 20
6.191063
 10
135.36749
 20
6.242833
 10
135.179031
 20
6.238698
 10
135.180406
 20
6.238698
  0
LWPOLYLINE
  5
2DE
330
4D0
100
AcDbEntity
  8
Level 1
  6
Continuous
 62
     7
370
    13
100
AcDbPolyline
 90
        3
 70
   128
 43
0.0
 10
134.538417
 20
6.236625
 10
134.54601
 20
6.240073
 10
135.188
 20
6.240073
  0
LINE
  5
2DF
330
4D0
100
AcDbEntity
  8
Level 1
  6
Continuous
 62
     7
370
    13
100
AcDbLine
 10
134.539104
 20
6.036427
 30
0.0
 11
135.190073
 21
6.036427
 31
0.0
  0
LINE
  5
2E0
330
4D0
100
AcDbEntity
  8
Level 1
  6
Continuous
 62
     7
370
    13
100
AcDbLine
 10
135.643615
 20
6.19175
 30
0.0
 11
135.807906
 21
6.19175
 31
0.0
  0
LINE
  5
2E1
330
4D0
100
AcDbEntity
  8
Level 1
  6
Continuous
 62
     7
370
    13
100
AcDbLine
 10
135.645688
 20
6.043333
 30
0.0
 11
135.810667
 21
6.043333
 31
0.0
  0
LINE
  5
2E2
330
4D0
100
AcDbEntity
  8
Level 1
  6
Continuous
 62
     7
370
    13
100
AcDbLine
 10
135.77201
 20
6.33051
 30
0.0
 11
135.77201
 21
6.192437
 31
0.0
  0
LINE
  5
2E3
330
4D0
100
AcDbEntity
  8
Level 1
  6
Continuous
 62
     7
370
    13
100
AcDbLine
 10
135.771323
 20
6.044708
 30
0.0
 11
135.771323
 21
5.903198
 31
0.0
  0
LINE
  5
2E4
330
4D0
100
AcDbEntity
  8
Level 1
  6
Continuous
 62
     7
370
    13
100
AcDbLine
 10
135.611854
 20
6.213156
 30
0.0
 11
135.646375
 21
6.329125
 31
0.0
  0
LINE
  5
2E5
330
4D0
100
AcDbEntity
  8
Level 1
  6
Continuous
 62
     7
370
    13
100
AcDbLine
 10
135.383365
 20
6.265615
 30
0.0
 11
135.417875
 21
6.381594
 31
0.0
  0
LINE
  5
2E6
330
4D0
100
AcDbEntity
  8
Level 1
  6
Continuous
 62
     7
370
    13
100
AcDbLine
 10
135.40476
 20
6.33051
 30
0.0
 11
135.633948
 21
6.280802
 31
0.0
  0
LWPOLYLINE
  5
2E7
330
4D0
100
AcDbEntity
  8
Level 1
  6
Continuous
 62
     7
370
    13
100
AcDbPolyline
 90
        5
 70
   128
 43
0.0
 10
135.406833
 20
6.332573
 10
135.458604
 20
6.332573
 10
135.446177
 20
6.324979
 10
135.448937
 20
6.313937
 10
135.406833
 20
6.332573
  0
LWPOLYLINE
  5
2E8
330
4D0
100
AcDbEntity
  8
Level 1
  6
Continuous
 62
     7
370
    13
100
AcDbPolyline
 90
        5
 70
   128
 43
0.0
 10
135.628427
 20
6.28701
 10
135.573198
 20
6.302896
 10
135.575271
 20
6.291156
 10
135.563531
 20
6.286323
 10
135.628427
 20
6.28701
  0
LWPOLYLINE
  5
2E9
330
4D0
100
AcDbEntity
  8
Level 1
  6
Continuous
 62
     7
370
    13
100
AcDbPolyline
 90
        5
 70
   128
 43
0.0
 10
135.769937
 20
6.192437
 10
135.780292
 20
6.246281
 10
135.76925
 20
6.243521
 10
135.760969
 20
6.249052
 10
135.769937
 20
6.192437
  0
LWPOLYLINE
  5
2EA
330
4D0
100
AcDbEntity
  8
Level 1
  6
Continuous
 62
     7
370
    13
100
AcDbPolyline
 90
        5
 70
   128
 43
0.0
 10
135.77201
 20
6.042646
 10
135.779604
 20
5.985344
 10
135.771323
 20
5.999156
 10
135.761656
 20
5.98949
 10
135.77201
 20
6.042646
  0
LWPOLYLINE
  5
2ED
330
4D0
100
AcDbEntity
  8
Level 1
  6
Continuous
 62
     7
370
    13
100
AcDbPolyline
 90
        3
 70
   128
 43
0.0
 10
135.695385
 20
6.468573
 10
135.64499
 20
6.468573
 10
135.524187
 20
6.308417
  0
LWPOLYLINE
  5
2EE
330
4D0
100
AcDbEntity
  8
Level 1
  6
Continuous
 62
     7
370
    13
100
AcDbPolyline
 90
        3
 70
   128
 43
0.0
 10
131.124094
 20
6.491354
 10
131.124781
 20
6.492729
 10
131.812344
 20
6.492729
  0
LWPOLYLINE
  5
2EF
330
4D0
100
AcDbEntity
  8
Level 1
  6
Continuous
 62
     7
370
    13
100
AcDbPolyline
 90
        6
 70
   128
 43
0.0
 10
130.847281
 20
6.496177
 10
130.774792
 20
6.496177
 10
130.743729
 20
6.48099
 10
130.73199
 20
6.45476
 10
130.738208
 20
6.376062
 10
130.792052
 20
6.3595
  0
LWPOLYLINE
  5
2F0
330
4D0
100
AcDbEntity
  8
Level 1
  6
Continuous
 62
     7
370
    13
100
AcDbPolyline
 90
        8
 70
   128
 43
0.0
 10
130.821042
 20
6.496177
 10
130.923208
 20
6.496177
 10
130.942542
 20
6.484448
 10
130.957729
 20
6.46926
 10
130.96325
 20
6.447167
 10
130.963937
 20
6.40851
 10
130.956344
 20
6.374687
 10
130.943927
 20
6.376062
  0
LINE
  5
2F1
330
4D0
100
AcDbEntity
  8
Level 1
  6
Continuous
 62
     7
370
    13
100
AcDbLine
 10
130.629135
 20
5.933573
 30
0.0
 11
130.692646
 21
5.996396
 31
0.0
  0
LINE
  5
2F2
330
4D0
100
AcDbEntity
  8
Level 1
  6
Continuous
 62
     7
370
    13
100
AcDbLine
 10
130.830021
 20
6.13376
 30
0.0
 11
130.868677
 21
6.173115
 31
0.0
  0
LINE
  5
2F3
330
4D0
100
AcDbEntity
  8
Level 1
  6
Continuous
 62
     7
370
    13
100
AcDbLine
 10
130.830021
 20
6.225573
 30
0.0
 11
130.86799
 21
6.26424
 31
0.0
  0
LINE
  5
2F4
330
4D0
100
AcDbEntity
  8
Level 1
  6
Continuous
 62
     7
370
    13
100
AcDbLine
 10
130.829333
 20
6.31601
 30
0.0
 11
130.94599
 21
6.432677
 31
0.0
  0
LINE
  5
2F5
330
4D0
100
AcDbEntity
  8
Level 1
  6
Continuous
 62
     7
370
    13
100
AcDbLine
 10
130.783771
 20
6.36226
 30
0.0
 11
130.912167
 21
6.491354
 31
0.0
  0
LINE
  5
2F6
330
4D0
100
AcDbEntity
  8
Level 1
  6
Continuous
 62
     7
370
    13
100
AcDbLine
 10
130.736135
 20
6.406438
 30
0.0
 11
130.825875
 21
6.496177
 31
0.0
  0
LINE
  5
2F7
330
4D0
100
AcDbEntity
  8
Level 1
  6
Continuous
 62
     7
370
    13
100
AcDbLine
 10
130.719573
 20
5.932187
 30
0.0
 11
130.869365
 21
6.08199
 31
0.0
  0
LINE
  5
2F8
330
4D0
100
AcDbEntity
  8
Level 1
  6
Continuous
 62
     7
370
    13
100
AcDbLine
 10
130.811385
 20
5.932187
 30
0.0
 11
130.9025
 21
6.023312
 31
0.0
  0
LINE
  5
2F9
330
4D0
100
AcDbEntity
  8
Level 1
  6
Continuous
 62
     7
370
    13
100
AcDbLine
 10
130.903198
 20
5.932187
 30
0.0
 11
130.968083
 21
5.997771
 31
0.0
  0
LINE
  5
2FA
330
4D0
100
AcDbEntity
  8
Level 1
  6
Continuous
 62
     7
370
    13
100
AcDbLine
 10
130.994313
 20
5.932187
 30
0.0
 11
131.037802
 21
5.975677
 31
0.0
  0
LINE
  5
2FB
330
4D0
100
AcDbEntity
  8
Level 1
  6
Continuous
 62
     7
370
    13
100
AcDbLine
 10
130.830021
 20
6.195198
 30
0.0
 11
130.868677
 21
6.233865
 31
0.0
  0
LINE
  5
2FC
330
4D0
100
AcDbEntity
  8
Level 1
  6
Continuous
 62
     7
370
    13
100
AcDbLine
 10
130.830021
 20
6.286323
 30
0.0
 11
130.86799
 21
6.324292
 31
0.0
  0
LINE
  5
2FD
330
4D0
100
AcDbEntity
  8
Level 1
  6
Continuous
 62
     7
370
    13
100
AcDbLine
 10
130.901813
 20
6.358115
 30
0.0
 11
130.945302
 21
6.402302
 31
0.0
  0
LINE
  5
2FE
330
4D0
100
AcDbEntity
  8
Level 1
  6
Continuous
 62
     7
370
    13
100
AcDbLine
 10
130.806552
 20
6.354667
 30
0.0
 11
130.932187
 21
6.480302
 31
0.0
  0
LINE
  5
2FF
330
4D0
100
AcDbEntity
  8
Level 1
  6
Continuous
 62
     7
370
    13
100
AcDbLine
 10
130.738208
 20
6.377448
 30
0.0
 11
130.856937
 21
6.496177
 31
0.0
  0
LINE
  5
300
330
4D0
100
AcDbEntity
  8
Level 1
  6
Continuous
 62
     7
370
    13
100
AcDbLine
 10
130.738896
 20
6.469948
 30
0.0
 11
130.755469
 21
6.486521
 31
0.0
  0
LINE
  5
301
330
4D0
100
AcDbEntity
  8
Level 1
  6
Continuous
 62
     7
370
    13
100
AcDbLine
 10
130.658823
 20
5.932187
 30
0.0
 11
130.732687
 21
6.006052
 31
0.0
  0
LINE
  5
302
330
4D0
100
AcDbEntity
  8
Level 1
  6
Continuous
 62
     7
370
    13
100
AcDbLine
 10
130.830021
 20
6.103385
 30
0.0
 11
130.869365
 21
6.14274
 31
0.0
  0
LINE
  5
303
330
4D0
100
AcDbEntity
  8
Level 1
  6
Continuous
 62
     7
370
    13
100
AcDbLine
 10
130.750635
 20
5.932187
 30
0.0
 11
130.875583
 21
6.057135
 31
0.0
  0
LINE
  5
304
330
4D0
100
AcDbEntity
  8
Level 1
  6
Continuous
 62
     7
370
    13
100
AcDbLine
 10
130.84175
 20
5.932187
 30
0.0
 11
130.921146
 21
6.011573
 31
0.0
  0
LINE
  5
305
330
4D0
100
AcDbEntity
  8
Level 1
  6
Continuous
 62
     7
370
    13
100
AcDbLine
 10
130.933562
 20
5.932187
 30
0.0
 11
130.990865
 21
5.990177
 31
0.0
  0
LINE
  5
306
330
4D0
100
AcDbEntity
  8
Level 1
  6
Continuous
 62
     7
370
    13
100
AcDbLine
 10
131.024687
 20
5.932187
 30
0.0
 11
131.061281
 21
5.968781
 31
0.0
  0
LINE
  5
307
330
4D0
100
AcDbEntity
  8
Level 1
  6
Continuous
 62
     7
370
    13
100
AcDbLine
 10
130.847281
 20
6.334646
 30
0.0
 11
130.963937
 21
6.451313
 31
0.0
  0
LINE
  5
308
330
4D0
100
AcDbEntity
  8
Level 1
  6
Continuous
 62
     7
370
    13
100
AcDbLine
 10
130.921146
 20
6.378823
 30
0.0
 11
130.964635
 21
6.422312
 31
0.0
  0
LWPOLYLINE
  5
309
330
4D0
100
AcDbEntity
  8
Level 1
  6
Continuous
 62
     7
370
    13
100
AcDbPolyline
 90
        4
 70
   128
 43
0.0
 10
130.894219
 20
6.356052
 10
130.894906
 20
6.35674
 10
130.945302
 20
6.375375
 10
130.945302
 20
6.376062
  0
LWPOLYLINE
  5
30A
330
4D0
100
AcDbEntity
  8
Level 1
  6
Continuous
 62
     7
370
    13
100
AcDbPolyline
 90
        8
 70
   128
 43
0.0
 10
130.629135
 20
5.979135
 10
130.629135
 20
5.932187
 10
131.066104
 20
5.932187
 10
131.066104
 20
5.967396
 10
130.915615
 20
6.013646
 10
130.887313
 20
6.034354
 10
130.869365
 20
6.068187
 10
130.86799
 20
6.294604
  0
LWPOLYLINE
  5
30B
330
4D0
100
AcDbEntity
  8
Level 1
  6
Continuous
 62
     7
370
    13
100
AcDbPolyline
 90
        3
 70
   128
 43
0.0
 10
131.124781
 20
6.491354
 10
131.124781
 20
5.977062
 10
131.125479
 20
5.977062
  0
LINE
  5
30C
330
4D0
100
AcDbEntity
  8
Level 1
  6
Continuous
 62
     7
370
    13
100
AcDbLine
 10
131.125479
 20
5.977062
 30
0.0
 11
131.422313
 21
5.977062
 31
0.0
  0
LWPOLYLINE
  5
30D
330
4D0
100
AcDbEntity
  8
Level 1
  6
Continuous
 62
     7
370
    13
100
AcDbPolyline
 90
        3
 70
   128
 43
0.0
 10
131.422313
 20
5.977062
 10
131.423
 20
5.977062
 10
131.423
 20
5.872135
  0
LINE
  5
30E
330
4D0
100
AcDbEntity
  8
Level 1
  6
Continuous
 62
     7
370
    13
100
AcDbLine
 10
130.26051
 20
5.977062
 30
0.0
 11
130.556656
 21
5.977062
 31
0.0
  0
LWPOLYLINE
  5
30F
330
4D0
100
AcDbEntity
  8
Level 1
  6
Continuous
 62
     7
370
    13
100
AcDbPolyline
 90
        5
 70
   128
 43
0.0
 10
130.735448
 20
6.596969
 10
130.735448
 20
6.596969
 10
130.695406
 20
6.587302
 10
130.692646
 20
6.606635
 10
130.735448
 20
6.596969
  0
LWPOLYLINE
  5
310
330
4D0
100
AcDbEntity
  8
Level 1
  6
Continuous
 62
     7
370
    13
100
AcDbPolyline
 90
        5
 70
   128
 43
0.0
 10
130.556656
 20
6.599042
 10
130.556656
 20
6.599042
 10
130.601521
 20
6.587302
 10
130.602219
 20
6.604563
 10
130.556656
 20
6.599042
  0
LINE
  5
312
330
4D0
100
AcDbEntity
  8
Level 1
  6
Continuous
 62
     7
370
    13
100
AcDbLine
 10
130.555958
 20
6.595583
 30
0.0
 11
130.732687
 21
6.595583
 31
0.0
  0
LINE
  5
313
330
4D0
100
AcDbEntity
  8
Level 1
  6
Continuous
 62
     7
370
    13
100
AcDbLine
 10
130.735448
 20
6.518958
 30
0.0
 11
130.735448
 21
6.631479
 31
0.0
  0
LINE
  5
314
330
4D0
100
AcDbEntity
  8
Level 1
  6
Continuous
 62
     7
370
    13
100
AcDbLine
 10
130.555958
 20
6.520344
 30
0.0
 11
130.555958
 21
6.630792
 31
0.0
  0
LINE
  5
315
330
4D0
100
AcDbEntity
  8
Level 1
  6
Continuous
 62
     7
370
    13
100
AcDbLine
 10
130.496594
 20
6.492042
 30
0.0
 11
130.55251
 21
6.492042
 31
0.0
  0
LINE
  5
316
330
4D0
100
AcDbEntity
  8
Level 1
  6
Continuous
 62
     7
370
    13
100
AcDbLine
 10
130.553198
 20
6.492042
 30
0.0
 11
130.553198
 21
5.977062
 31
0.0
  0
LWPOLYLINE
  5
31C
330
4D0
100
AcDbEntity
  8
Level 1
  6
Continuous
 62
     7
370
    13
100
AcDbPolyline
 90
        5
 70
   128
 43
0.0
 10
130.755469
 20
9.287833
 10
130.755469
 20
9.649563
 10
132.776719
 20
9.649563
 10
132.776719
 20
9.28576
 10
130.76099
 20
9.28576
  0
LWPOLYLINE
  5
31D
330
4D0
100
AcDbEntity
  8
Level 1
  6
Continuous
 62
     7
370
    13
100
AcDbPolyline
 90
        5
 70
   128
 43
0.0
 10
132.796052
 20
9.287833
 10
132.796052
 20
9.649563
 10
134.816615
 20
9.649563
 10
134.816615
 20
9.28576
 10
132.800875
 20
9.28576
  0
LWPOLYLINE
  5
31E
330
4D0
100
AcDbEntity
  8
Level 1
  6
Continuous
 62
     7
370
    13
100
AcDbPolyline
 90
        4
 70
   128
 43
0.0
 10
132.806406
 20
7.686979
 10
132.806406
 20
8.020406
 10
134.826969
 20
8.020406
 10
134.826969
 20
7.693198
  0
LINE
  5
31F
330
4D0
100
AcDbEntity
  8
Level 1
  6
Continuous
 62
     7
370
    13
100
AcDbLine
 10
132.784312
 20
7.691125
 30
0.0
 11
130.760302
 21
7.691125
 31
0.0
  0
LWPOLYLINE
  5
320
330
4D0
100
AcDbEntity
  8
Level 1
  6
Continuous
 62
     7
370
    13
100
AcDbPolyline
 90
        4
 70
   128
 43
0.0
 10
130.758229
 20
7.6925
 10
130.758229
 20
8.020406
 10
132.778792
 20
8.020406
 10
132.778792
 20
7.693198
  0
LINE
  5
321
330
4D0
100
AcDbEntity
  8
Level 1
  6
Continuous
 62
     7
370
    13
100
AcDbLine
 10
132.809167
 20
7.691125
 30
0.0
 11
134.835938
 21
7.691125
 31
0.0
  0
LWPOLYLINE
  5
322
330
4D0
100
AcDbEntity
  8
Level 1
  6
Continuous
 62
     7
370
    13
100
AcDbPolyline
 90
        5
 70
   128
 43
0.0
 10
132.805708
 20
8.148115
 10
132.805708
 20
9.178073
 10
134.825583
 20
9.178073
 10
134.825583
 20
8.148802
 10
132.805708
 20
8.148802
  0
LWPOLYLINE
  5
323
330
4D0
100
AcDbEntity
  8
Level 1
  6
Continuous
 62
     7
370
    13
100
AcDbPolyline
 90
        5
 70
   128
 43
0.0
 10
130.757531
 20
8.148115
 10
130.757531
 20
9.185667
 10
132.775333
 20
9.185667
 10
132.775333
 20
8.146729
 10
130.758229
 20
8.146729
  0
LINE
  5
32B
330
4D0
100
AcDbEntity
  8
Level 1
  6
Continuous
 62
     7
370
    13
100
AcDbLine
 10
133.010042
 20
3.819812
 30
0.0
 11
131.228333
 21
3.717646
 31
0.0
  0
LINE
  5
32C
330
4D0
100
AcDbEntity
  8
Level 1
  6
Continuous
 62
     7
370
    13
100
AcDbLine
 10
133.002448
 20
3.813604
 30
0.0
 11
134.746885
 21
3.714885
 31
0.0
  0
LINE
  5
332
330
4D0
100
AcDbEntity
  8
Level 1
  6
Continuous
 62
     7
370
    13
100
AcDbLine
 10
131.710865
 20
3.732833
 30
0.0
 11
131.707417
 21
3.736292
 31
0.0
  0
LINE
  5
333
330
4D0
100
AcDbEntity
  8
Level 1
  6
Continuous
 62
     7
370
    13
100
AcDbLine
 10
131.444406
 20
3.710052
 30
0.0
 11
131.427146
 21
3.727313
 31
0.0
  0
LINE
  5
334
330
4D0
100
AcDbEntity
  8
Level 1
  6
Continuous
 62
     7
370
    13
100
AcDbLine
 10
131.565896
 20
3.710052
 30
0.0
 11
131.545187
 21
3.73076
 31
0.0
  0
LINE
  5
335
330
4D0
100
AcDbEntity
  8
Level 1
  6
Continuous
 62
     7
370
    13
100
AcDbLine
 10
131.688083
 20
3.710052
 30
0.0
 11
131.663229
 21
3.734906
 31
0.0
  0
LINE
  5
336
330
4D0
100
AcDbEntity
  8
Level 1
  6
Continuous
 62
     7
370
    13
100
AcDbLine
 10
131.420938
 20
3.687271
 30
0.0
 11
131.382969
 21
3.72524
 31
0.0
  0
LINE
  5
337
330
4D0
100
AcDbEntity
  8
Level 1
  6
Continuous
 62
     7
370
    13
100
AcDbLine
 10
131.543115
 20
3.687271
 30
0.0
 11
131.500323
 21
3.729385
 31
0.0
  0
LINE
  5
338
330
4D0
100
AcDbEntity
  8
Level 1
  6
Continuous
 62
     7
370
    13
100
AcDbLine
 10
131.665302
 20
3.687271
 30
0.0
 11
131.619052
 21
3.733531
 31
0.0
  0
LINE
  5
339
330
4D0
100
AcDbEntity
  8
Level 1
  6
Continuous
 62
     7
370
    13
100
AcDbLine
 10
131.420938
 20
3.671396
 30
0.0
 11
131.478229
 21
3.728698
 31
0.0
  0
LINE
  5
33A
330
4D0
100
AcDbEntity
  8
Level 1
  6
Continuous
 62
     7
370
    13
100
AcDbLine
 10
131.543115
 20
3.671396
 30
0.0
 11
131.604552
 21
3.732833
 31
0.0
  0
LINE
  5
33B
330
4D0
100
AcDbEntity
  8
Level 1
  6
Continuous
 62
     7
370
    13
100
AcDbLine
 10
131.665302
 20
3.671396
 30
0.0
 11
131.726052
 21
3.732833
 31
0.0
  0
LINE
  5
33C
330
4D0
100
AcDbEntity
  8
Level 1
  6
Continuous
 62
     7
370
    13
100
AcDbLine
 10
131.348448
 20
3.674854
 30
0.0
 11
131.382969
 21
3.710052
 31
0.0
  0
LINE
  5
33D
330
4D0
100
AcDbEntity
  8
Level 1
  6
Continuous
 62
     7
370
    13
100
AcDbLine
 10
131.444406
 20
3.648615
 30
0.0
 11
131.505156
 21
3.710052
 31
0.0
  0
LINE
  5
33E
330
4D0
100
AcDbEntity
  8
Level 1
  6
Continuous
 62
     7
370
    13
100
AcDbLine
 10
131.565896
 20
3.648615
 30
0.0
 11
131.627333
 21
3.710052
 31
0.0
  0
LINE
  5
33F
330
4D0
100
AcDbEntity
  8
Level 1
  6
Continuous
 62
     7
370
    13
100
AcDbLine
 10
131.688083
 20
3.648615
 30
0.0
 11
131.748833
 21
3.710052
 31
0.0
  0
LINE
  5
340
330
4D0
100
AcDbEntity
  8
Level 1
  6
Continuous
 62
     7
370
    13
100
AcDbLine
 10
131.348448
 20
3.629292
 30
0.0
 11
131.40575
 21
3.687271
 31
0.0
  0
LINE
  5
341
330
4D0
100
AcDbEntity
  8
Level 1
  6
Continuous
 62
     7
370
    13
100
AcDbLine
 10
131.467187
 20
3.625833
 30
0.0
 11
131.527927
 21
3.687271
 31
0.0
  0
LINE
  5
342
330
4D0
100
AcDbEntity
  8
Level 1
  6
Continuous
 62
     7
370
    13
100
AcDbLine
 10
131.588677
 20
3.625833
 30
0.0
 11
131.650115
 21
3.687271
 31
0.0
  0
LINE
  5
343
330
4D0
100
AcDbEntity
  8
Level 1
  6
Continuous
 62
     7
370
    13
100
AcDbLine
 10
131.710865
 20
3.625833
 30
0.0
 11
131.772302
 21
3.687271
 31
0.0
  0
LINE
  5
344
330
4D0
100
AcDbEntity
  8
Level 1
  6
Continuous
 62
     7
370
    13
100
AcDbLine
 10
134.63851
 20
3.60375
 30
0.0
 11
134.69926
 21
3.66449
 31
0.0
  0
LINE
  5
345
330
4D0
100
AcDbEntity
  8
Level 1
  6
Continuous
 62
     7
370
    13
100
AcDbLine
 10
134.516323
 20
3.60375
 30
0.0
 11
134.57776
 21
3.66449
 31
0.0
  0
LINE
  5
346
330
4D0
100
AcDbEntity
  8
Level 1
  6
Continuous
 62
     7
370
    13
100
AcDbLine
 10
134.394135
 20
3.60375
 30
0.0
 11
134.455573
 21
3.66449
 31
0.0
  0
LINE
  5
347
330
4D0
100
AcDbEntity
  8
Level 1
  6
Continuous
 62
     7
370
    13
100
AcDbLine
 10
134.275396
 20
3.60651
 30
0.0
 11
134.333385
 21
3.66449
 31
0.0
  0
LINE
  5
348
330
4D0
100
AcDbEntity
  8
Level 1
  6
Continuous
 62
     7
370
    13
100
AcDbLine
 10
134.615729
 20
3.626531
 30
0.0
 11
134.676479
 21
3.687271
 31
0.0
  0
LINE
  5
349
330
4D0
100
AcDbEntity
  8
Level 1
  6
Continuous
 62
     7
370
    13
100
AcDbLine
 10
134.493542
 20
3.626531
 30
0.0
 11
134.554292
 21
3.687271
 31
0.0
  0
LINE
  5
34A
330
4D0
100
AcDbEntity
  8
Level 1
  6
Continuous
 62
     7
370
    13
100
AcDbLine
 10
134.371354
 20
3.626531
 30
0.0
 11
134.432792
 21
3.687271
 31
0.0
  0
LINE
  5
34B
330
4D0
100
AcDbEntity
  8
Level 1
  6
Continuous
 62
     7
370
    13
100
AcDbLine
 10
134.275396
 20
3.652073
 30
0.0
 11
134.310604
 21
3.687271
 31
0.0
  0
LINE
  5
34C
330
4D0
100
AcDbEntity
  8
Level 1
  6
Continuous
 62
     7
370
    13
100
AcDbLine
 10
134.592948
 20
3.649302
 30
0.0
 11
134.653698
 21
3.710052
 31
0.0
  0
LINE
  5
34D
330
4D0
100
AcDbEntity
  8
Level 1
  6
Continuous
 62
     7
370
    13
100
AcDbLine
 10
134.47076
 20
3.649302
 30
0.0
 11
134.53151
 21
3.710052
 31
0.0
  0
LINE
  5
34E
330
4D0
100
AcDbEntity
  8
Level 1
  6
Continuous
 62
     7
370
    13
100
AcDbLine
 10
134.348573
 20
3.649302
 30
0.0
 11
134.405875
 21
3.705917
 31
0.0
  0
LINE
  5
34F
330
4D0
100
AcDbEntity
  8
Level 1
  6
Continuous
 62
     7
370
    13
100
AcDbLine
 10
134.592948
 20
3.66449
 30
0.0
 11
134.54601
 21
3.71075
 31
0.0
  0
LINE
  5
350
330
4D0
100
AcDbEntity
  8
Level 1
  6
Continuous
 62
     7
370
    13
100
AcDbLine
 10
134.47076
 20
3.66449
 30
0.0
 11
134.427958
 21
3.707292
 31
0.0
  0
LINE
  5
351
330
4D0
100
AcDbEntity
  8
Level 1
  6
Continuous
 62
     7
370
    13
100
AcDbLine
 10
134.348573
 20
3.66449
 30
0.0
 11
134.309917
 21
3.703156
 31
0.0
  0
LINE
  5
352
330
4D0
100
AcDbEntity
  8
Level 1
  6
Continuous
 62
     7
370
    13
100
AcDbLine
 10
134.615729
 20
3.687271
 30
0.0
 11
134.590187
 21
3.712813
 31
0.0
  0
LINE
  5
353
330
4D0
100
AcDbEntity
  8
Level 1
  6
Continuous
 62
     7
370
    13
100
AcDbLine
 10
134.493542
 20
3.687271
 30
0.0
 11
134.472146
 21
3.708677
 31
0.0
  0
LINE
  5
354
330
4D0
100
AcDbEntity
  8
Level 1
  6
Continuous
 62
     7
370
    13
100
AcDbLine
 10
134.371354
 20
3.687271
 30
0.0
 11
134.354094
 21
3.704531
 31
0.0
  0
LINE
  5
355
330
4D0
100
AcDbEntity
  8
Level 1
  6
Continuous
 62
     7
370
    13
100
AcDbLine
 10
134.63851
 20
3.710052
 30
0.0
 11
134.634365
 21
3.714198
 31
0.0
  0
LINE
  5
356
330
4D0
100
AcDbEntity
  8
Level 1
  6
Continuous
 62
     7
370
    13
100
AcDbLine
 10
131.152396
 20
4.144958
 30
0.0
 11
131.213146
 21
4.205708
 31
0.0
  0
LINE
  5
357
330
4D0
100
AcDbEntity
  8
Level 1
  6
Continuous
 62
     7
370
    13
100
AcDbLine
 10
131.030208
 20
4.144958
 30
0.0
 11
131.090958
 21
4.205708
 31
0.0
  0
LINE
  5
358
330
4D0
100
AcDbEntity
  8
Level 1
  6
Continuous
 62
     7
370
    13
100
AcDbLine
 10
130.908021
 20
4.144958
 30
0.0
 11
130.968771
 21
4.205708
 31
0.0
  0
LINE
  5
359
330
4D0
100
AcDbEntity
  8
Level 1
  6
Continuous
 62
     7
370
    13
100
AcDbLine
 10
130.789292
 20
4.148406
 30
0.0
 11
130.847281
 21
4.205708
 31
0.0
  0
LINE
  5
35A
330
4D0
100
AcDbEntity
  8
Level 1
  6
Continuous
 62
     7
370
    13
100
AcDbLine
 10
131.128927
 20
4.16774
 30
0.0
 11
131.190365
 21
4.229177
 31
0.0
  0
LINE
  5
35B
330
4D0
100
AcDbEntity
  8
Level 1
  6
Continuous
 62
     7
370
    13
100
AcDbLine
 10
131.007427
 20
4.16774
 30
0.0
 11
131.068177
 21
4.229177
 31
0.0
  0
LINE
  5
35C
330
4D0
100
AcDbEntity
  8
Level 1
  6
Continuous
 62
     7
370
    13
100
AcDbLine
 10
130.88525
 20
4.16774
 30
0.0
 11
130.94599
 21
4.229177
 31
0.0
  0
LINE
  5
35D
330
4D0
100
AcDbEntity
  8
Level 1
  6
Continuous
 62
     7
370
    13
100
AcDbLine
 10
130.789292
 20
4.193969
 30
0.0
 11
130.823802
 21
4.229177
 31
0.0
  0
LINE
  5
35E
330
4D0
100
AcDbEntity
  8
Level 1
  6
Continuous
 62
     7
370
    13
100
AcDbLine
 10
131.106146
 20
4.190521
 30
0.0
 11
131.167583
 21
4.251958
 31
0.0
  0
LINE
  5
35F
330
4D0
100
AcDbEntity
  8
Level 1
  6
Continuous
 62
     7
370
    13
100
AcDbLine
 10
130.984646
 20
4.190521
 30
0.0
 11
131.045396
 21
4.251958
 31
0.0
  0
LINE
  5
360
330
4D0
100
AcDbEntity
  8
Level 1
  6
Continuous
 62
     7
370
    13
100
AcDbLine
 10
130.862469
 20
4.190521
 30
0.0
 11
130.919073
 21
4.247813
 31
0.0
  0
LINE
  5
361
330
4D0
100
AcDbEntity
  8
Level 1
  6
Continuous
 62
     7
370
    13
100
AcDbLine
 10
131.106146
 20
4.205708
 30
0.0
 11
131.059896
 21
4.252646
 31
0.0
  0
LINE
  5
362
330
4D0
100
AcDbEntity
  8
Level 1
  6
Continuous
 62
     7
370
    13
100
AcDbLine
 10
130.984646
 20
4.205708
 30
0.0
 11
130.941854
 21
4.2485
 31
0.0
  0
LINE
  5
363
330
4D0
100
AcDbEntity
  8
Level 1
  6
Continuous
 62
     7
370
    13
100
AcDbLine
 10
130.862469
 20
4.205708
 30
0.0
 11
130.823802
 21
4.244365
 31
0.0
  0
LINE
  5
364
330
4D0
100
AcDbEntity
  8
Level 1
  6
Continuous
 62
     7
370
    13
100
AcDbLine
 10
131.128927
 20
4.229177
 30
0.0
 11
131.104073
 21
4.254031
 31
0.0
  0
LINE
  5
365
330
4D0
100
AcDbEntity
  8
Level 1
  6
Continuous
 62
     7
370
    13
100
AcDbLine
 10
131.007427
 20
4.229177
 30
0.0
 11
130.986031
 21
4.249885
 31
0.0
  0
LINE
  5
366
330
4D0
100
AcDbEntity
  8
Level 1
  6
Continuous
 62
     7
370
    13
100
AcDbLine
 10
130.88525
 20
4.229177
 30
0.0
 11
130.86799
 21
4.24574
 31
0.0
  0
LINE
  5
367
330
4D0
100
AcDbEntity
  8
Level 1
  6
Continuous
 62
     7
370
    13
100
AcDbLine
 10
131.152396
 20
4.251958
 30
0.0
 11
131.14826
 21
4.255406
 31
0.0
  0
LINE
  5
368
330
4D0
100
AcDbEntity
  8
Level 1
  6
Continuous
 62
     7
370
    13
100
AcDbLine
 10
132.870604
 20
3.676229
 30
0.0
 11
132.932042
 21
3.737667
 31
0.0
  0
LINE
  5
369
330
4D0
100
AcDbEntity
  8
Level 1
  6
Continuous
 62
     7
370
    13
100
AcDbLine
 10
132.748417
 20
3.676229
 30
0.0
 11
132.809854
 21
3.737667
 31
0.0
  0
LINE
  5
36A
330
4D0
100
AcDbEntity
  8
Level 1
  6
Continuous
 62
     7
370
    13
100
AcDbLine
 10
132.626917
 20
3.676229
 30
0.0
 11
132.687667
 21
3.737667
 31
0.0
  0
LINE
  5
36B
330
4D0
100
AcDbEntity
  8
Level 1
  6
Continuous
 62
     7
370
    13
100
AcDbLine
 10
132.50749
 20
3.679677
 30
0.0
 11
132.565479
 21
3.737667
 31
0.0
  0
LINE
  5
36C
330
4D0
100
AcDbEntity
  8
Level 1
  6
Continuous
 62
     7
370
    13
100
AcDbLine
 10
132.847823
 20
3.69901
 30
0.0
 11
132.908573
 21
3.760448
 31
0.0
  0
LINE
  5
36D
330
4D0
100
AcDbEntity
  8
Level 1
  6
Continuous
 62
     7
370
    13
100
AcDbLine
 10
132.725635
 20
3.69901
 30
0.0
 11
132.787073
 21
3.760448
 31
0.0
  0
LINE
  5
36E
330
4D0
100
AcDbEntity
  8
Level 1
  6
Continuous
 62
     7
370
    13
100
AcDbLine
 10
132.603448
 20
3.69901
 30
0.0
 11
132.664885
 21
3.760448
 31
0.0
  0
LINE
  5
36F
330
4D0
100
AcDbEntity
  8
Level 1
  6
Continuous
 62
     7
370
    13
100
AcDbLine
 10
132.50749
 20
3.72524
 30
0.0
 11
132.542698
 21
3.760448
 31
0.0
  0
LINE
  5
370
330
4D0
100
AcDbEntity
  8
Level 1
  6
Continuous
 62
     7
370
    13
100
AcDbLine
 10
132.825042
 20
3.722479
 30
0.0
 11
132.885792
 21
3.783229
 31
0.0
  0
LINE
  5
371
330
4D0
100
AcDbEntity
  8
Level 1
  6
Continuous
 62
     7
370
    13
100
AcDbLine
 10
132.702854
 20
3.722479
 30
0.0
 11
132.764292
 21
3.783229
 31
0.0
  0
LINE
  5
372
330
4D0
100
AcDbEntity
  8
Level 1
  6
Continuous
 62
     7
370
    13
100
AcDbLine
 10
132.580667
 20
3.722479
 30
0.0
 11
132.637969
 21
3.779083
 31
0.0
  0
LINE
  5
373
330
4D0
100
AcDbEntity
  8
Level 1
  6
Continuous
 62
     7
370
    13
100
AcDbLine
 10
132.825042
 20
3.737667
 30
0.0
 11
132.778792
 21
3.783917
 31
0.0
  0
LINE
  5
374
330
4D0
100
AcDbEntity
  8
Level 1
  6
Continuous
 62
     7
370
    13
100
AcDbLine
 10
132.702854
 20
3.737667
 30
0.0
 11
132.660052
 21
3.779781
 31
0.0
  0
LINE
  5
375
330
4D0
100
AcDbEntity
  8
Level 1
  6
Continuous
 62
     7
370
    13
100
AcDbLine
 10
132.580667
 20
3.737667
 30
0.0
 11
132.542698
 21
3.776323
 31
0.0
  0
LINE
  5
376
330
4D0
100
AcDbEntity
  8
Level 1
  6
Continuous
 62
     7
370
    13
100
AcDbLine
 10
132.847823
 20
3.760448
 30
0.0
 11
132.822969
 21
3.785302
 31
0.0
  0
LINE
  5
377
330
4D0
100
AcDbEntity
  8
Level 1
  6
Continuous
 62
     7
370
    13
100
AcDbLine
 10
132.725635
 20
3.760448
 30
0.0
 11
132.704927
 21
3.781844
 31
0.0
  0
LINE
  5
378
330
4D0
100
AcDbEntity
  8
Level 1
  6
Continuous
 62
     7
370
    13
100
AcDbLine
 10
132.603448
 20
3.760448
 30
0.0
 11
132.586885
 21
3.777708
 31
0.0
  0
LINE
  5
379
330
4D0
100
AcDbEntity
  8
Level 1
  6
Continuous
 62
     7
370
    13
100
AcDbLine
 10
132.870604
 20
3.783229
 30
0.0
 11
132.867146
 21
3.786677
 31
0.0
  0
LINE
  5
37A
330
4D0
100
AcDbEntity
  8
Level 1
  6
Continuous
 62
     7
370
    13
100
AcDbLine
 10
133.58301
 20
3.781156
 30
0.0
 11
133.579563
 21
3.784615
 31
0.0
  0
LINE
  5
37B
330
4D0
100
AcDbEntity
  8
Level 1
  6
Continuous
 62
     7
370
    13
100
AcDbLine
 10
133.316552
 20
3.758375
 30
0.0
 11
133.299292
 21
3.775635
 31
0.0
  0
LINE
  5
37C
330
4D0
100
AcDbEntity
  8
Level 1
  6
Continuous
 62
     7
370
    13
100
AcDbLine
 10
133.438042
 20
3.758375
 30
0.0
 11
133.417333
 21
3.779083
 31
0.0
  0
LINE
  5
37D
330
4D0
100
AcDbEntity
  8
Level 1
  6
Continuous
 62
     7
370
    13
100
AcDbLine
 10
133.560229
 20
3.758375
 30
0.0
 11
133.535375
 21
3.783229
 31
0.0
  0
LINE
  5
37E
330
4D0
100
AcDbEntity
  8
Level 1
  6
Continuous
 62
     7
370
    13
100
AcDbLine
 10
133.293073
 20
3.735594
 30
0.0
 11
133.255104
 21
3.77425
 31
0.0
  0
LINE
  5
37F
330
4D0
100
AcDbEntity
  8
Level 1
  6
Continuous
 62
     7
370
    13
100
AcDbLine
 10
133.41526
 20
3.735594
 30
0.0
 11
133.372458
 21
3.777708
 31
0.0
  0
LINE
  5
380
330
4D0
100
AcDbEntity
  8
Level 1
  6
Continuous
 62
     7
370
    13
100
AcDbLine
 10
133.537448
 20
3.735594
 30
0.0
 11
133.491198
 21
3.781844
 31
0.0
  0
LINE
  5
381
330
4D0
100
AcDbEntity
  8
Level 1
  6
Continuous
 62
     7
370
    13
100
AcDbLine
 10
133.293073
 20
3.720406
 30
0.0
 11
133.350375
 21
3.777021
 31
0.0
  0
LINE
  5
382
330
4D0
100
AcDbEntity
  8
Level 1
  6
Continuous
 62
     7
370
    13
100
AcDbLine
 10
133.41526
 20
3.720406
 30
0.0
 11
133.476698
 21
3.781156
 31
0.0
  0
LINE
  5
383
330
4D0
100
AcDbEntity
  8
Level 1
  6
Continuous
 62
     7
370
    13
100
AcDbLine
 10
133.537448
 20
3.720406
 30
0.0
 11
133.598198
 21
3.781156
 31
0.0
  0
LINE
  5
384
330
4D0
100
AcDbEntity
  8
Level 1
  6
Continuous
 62
     7
370
    13
100
AcDbLine
 10
133.220594
 20
3.723167
 30
0.0
 11
133.255104
 21
3.758375
 31
0.0
  0
LINE
  5
385
330
4D0
100
AcDbEntity
  8
Level 1
  6
Continuous
 62
     7
370
    13
100
AcDbLine
 10
133.316552
 20
3.696937
 30
0.0
 11
133.377292
 21
3.758375
 31
0.0
  0
LINE
  5
386
330
4D0
100
AcDbEntity
  8
Level 1
  6
Continuous
 62
     7
370
    13
100
AcDbLine
 10
133.438042
 20
3.696937
 30
0.0
 11
133.499479
 21
3.758375
 31
0.0
  0
LINE
  5
387
330
4D0
100
AcDbEntity
  8
Level 1
  6
Continuous
 62
     7
370
    13
100
AcDbLine
 10
133.560229
 20
3.696937
 30
0.0
 11
133.620979
 21
3.758375
 31
0.0
  0
LINE
  5
388
330
4D0
100
AcDbEntity
  8
Level 1
  6
Continuous
 62
     7
370
    13
100
AcDbLine
 10
133.220594
 20
3.677615
 30
0.0
 11
133.277885
 21
3.735594
 31
0.0
  0
LINE
  5
389
330
4D0
100
AcDbEntity
  8
Level 1
  6
Continuous
 62
     7
370
    13
100
AcDbLine
 10
133.339333
 20
3.674156
 30
0.0
 11
133.400073
 21
3.735594
 31
0.0
  0
LINE
  5
38A
330
4D0
100
AcDbEntity
  8
Level 1
  6
Continuous
 62
     7
370
    13
100
AcDbLine
 10
133.460823
 20
3.674156
 30
0.0
 11
133.52226
 21
3.735594
 31
0.0
  0
LINE
  5
38B
330
4D0
100
AcDbEntity
  8
Level 1
  6
Continuous
 62
     7
370
    13
100
AcDbLine
 10
133.58301
 20
3.674156
 30
0.0
 11
133.644448
 21
3.735594
 31
0.0
  0
LINE
  5
38C
330
4D0
100
AcDbEntity
  8
Level 1
  6
Continuous
 62
     7
370
    13
100
AcDbLine
 10
133.000385
 20
3.816365
 30
0.0
 11
133.000385
 21
4.100771
 31
0.0
  0
LINE
  5
38D
330
4D0
100
AcDbEntity
  8
Level 1
  6
Continuous
 62
     7
370
    13
100
AcDbLine
 10
133.744542
 20
3.721104
 30
0.0
 11
134.175302
 21
3.703156
 31
0.0
  0
LWPOLYLINE
  5
38F
330
4D0
100
AcDbEntity
  8
Level 1
  6
Continuous
 62
     7
370
    13
100
AcDbPolyline
 90
        5
 70
   128
 43
0.0
 10
134.177375
 20
3.704531
 10
134.177375
 20
3.704531
 10
134.022052
 20
3.71075
 10
134.016531
 20
3.682437
 10
134.177375
 20
3.704531
  0
LINE
  5
390
330
4D0
100
AcDbEntity
  8
Level 1
  6
Continuous
 62
     7
370
    13
100
AcDbLine
 10
132.436396
 20
3.720406
 30
0.0
 11
131.932458
 21
3.69625
 31
0.0
  0
LWPOLYLINE
  5
391
330
4D0
100
AcDbEntity
  8
Level 1
  6
Continuous
 62
     7
370
    13
100
AcDbPolyline
 90
        5
 70
   128
 43
0.0
 10
131.928313
 20
3.694865
 10
131.928313
 20
3.694865
 10
132.08226
 20
3.696937
 10
132.096062
 20
3.66726
 10
131.928313
 20
3.694865
  0
LINE
  5
395
330
4D0
100
AcDbEntity
  8
Level 1
  6
Continuous
 62
     7
370
    13
100
AcDbLine
 10
131.221427
 20
4.024146
 30
0.0
 11
131.221427
 21
3.718344
 31
0.0
  0
LINE
  5
396
330
4D0
100
AcDbEntity
  8
Level 1
  6
Continuous
 62
     7
370
    13
100
AcDbLine
 10
134.742052
 20
4.257479
 30
0.0
 11
134.742052
 21
3.712813
 31
0.0
  0
CIRCLE
  5
397
330
4D0
100
AcDbEntity
  8
Level 1
  6
Continuous
 62
     7
370
    13
100
AcDbCircle
 10
132.649292
 20
3.945162
 30
0.0
 40
0.074623456875
  0
CIRCLE
  5
398
330
4D0
100
AcDbEntity
  8
Level 1
  6
Continuous
 62
     7
370
    13
100
AcDbCircle
 10
132.433733
 20
4.182732
 30
0.0
 40
0.07469248875
  0
LINE
  5
39A
330
4D0
100
AcDbEntity
  8
Level 1
  6
Continuous
 62
     7
370
    13
100
AcDbLine
 10
132.539779
 20
6.520362
 30
0.0
 11
132.964302
 21
6.520362
 31
0.0
  0
LINE
  5
39C
330
4D0
100
AcDbEntity
  8
Level 1
  6
Continuous
 62
     7
370
    13
100
AcDbLine
 10
134.500339
 20
5.653302
 30
0.0
 11
136.166021
 21
5.653302
 31
0.0
  0
LINE
  5
39F
330
4D0
100
AcDbEntity
  8
Level 1
  6
Continuous
 62
     7
370
    13
100
AcDbLine
 10
132.672698
 20
3.021436
 30
0.0
 11
133.395167
 21
3.021436
 31
0.0
  0
LINE
  5
3A1
330
4D0
100
AcDbEntity
  8
Level 1
  6
Continuous
 62
     7
370
    13
100
AcDbLine
 10
131.633552
 20
3.958573
 30
0.0
 11
131.675656
 21
3.958573
 31
0.0
  0
LINE
  5
3A2
330
4D0
100
AcDbEntity
  8
Level 1
  6
Continuous
 62
     7
370
    13
100
AcDbLine
 10
131.257323
 20
4.224344
 30
0.0
 11
131.299437
 21
4.224344
 31
0.0
  0
LINE
  5
3A4
330
4D0
100
AcDbEntity
  8
Level 1
  6
Continuous
 62
     7
370
    13
100
AcDbLine
 10
131.452
 20
4.249885
 30
0.0
 11
131.494104
 21
4.249885
 31
0.0
  0
LINE
  5
3A6
330
4D0
100
AcDbEntity
  8
Level 1
  6
Continuous
 62
     7
370
    13
100
AcDbLine
 10
131.367083
 20
4.116656
 30
0.0
 11
131.409885
 21
4.116656
 31
0.0
  0
LINE
  5
3A8
330
4D0
100
AcDbEntity
  8
Level 1
  6
Continuous
 62
     7
370
    13
100
AcDbLine
 10
131.331187
 20
3.914385
 30
0.0
 11
131.37399
 21
3.914385
 31
0.0
  0
LINE
  5
3AA
330
4D0
100
AcDbEntity
  8
Level 1
  6
Continuous
 62
     7
370
    13
100
AcDbLine
 10
131.498937
 20
4.01725
 30
0.0
 11
131.541052
 21
4.01725
 31
0.0
  0
LINE
  5
3AD
330
4D0
100
AcDbEntity
  8
Level 1
  6
Continuous
 62
     7
370
    13
100
AcDbLine
 10
131.447167
 20
3.851573
 30
0.0
 11
131.489969
 21
3.851573
 31
0.0
  0
LINE
  5
3AE
330
4D0
100
AcDbEntity
  8
Level 1
  6
Continuous
 62
     7
370
    13
100
AcDbLine
 10
131.242135
 20
3.831982
 30
0.0
 11
131.284937
 21
3.831982
 31
0.0
  0
LINE
  5
3B0
330
4D0
100
AcDbEntity
  8
Level 1
  6
Continuous
 62
     7
370
    13
100
AcDbLine
 10
134.655771
 20
4.230552
 30
0.0
 11
134.697875
 21
4.230552
 31
0.0
  0
LINE
  5
3B3
330
4D0
100
AcDbEntity
  8
Level 1
  6
Continuous
 62
     7
370
    13
100
AcDbLine
 10
134.512177
 20
4.192583
 30
0.0
 11
134.554292
 21
4.192583
 31
0.0
  0
LINE
  5
3B5
330
4D0
100
AcDbEntity
  8
Level 1
  6
Continuous
 62
     7
370
    13
100
AcDbLine
 10
134.659906
 20
4.071781
 30
0.0
 11
134.702708
 21
4.071781
 31
0.0
  0
LINE
  5
3B6
330
4D0
100
AcDbEntity
  8
Level 1
  6
Continuous
 62
     7
370
    13
100
AcDbLine
 10
134.532198
 20
4.015865
 30
0.0
 11
134.574312
 21
4.015865
 31
0.0
  0
LINE
  5
3B9
330
4D0
100
AcDbEntity
  8
Level 1
  6
Continuous
 62
     7
370
    13
100
AcDbLine
 10
134.601229
 20
3.916458
 30
0.0
 11
134.644031
 21
3.916458
 31
0.0
  0
LINE
  5
3BA
330
4D0
100
AcDbEntity
  8
Level 1
  6
Continuous
 62
     7
370
    13
100
AcDbLine
 10
134.666812
 20
3.819125
 30
0.0
 11
134.708917
 21
3.819125
 31
0.0
  0
LINE
  5
3BC
330
4D0
100
AcDbEntity
  8
Level 1
  6
Continuous
 62
     7
370
    13
100
AcDbLine
 10
134.472961
 20
3.848339
 30
0.0
 11
134.515065
 21
3.848339
 31
0.0
  0
LINE
  5
3BF
330
4D0
100
AcDbEntity
  8
Level 1
  6
Continuous
 62
     7
370
    13
100
AcDbLine
 10
135.118281
 20
4.257479
 30
0.0
 11
135.114135
 21
4.261625
 31
0.0
  0
LINE
  5
3C0
330
4D0
100
AcDbEntity
  8
Level 1
  6
Continuous
 62
     7
370
    13
100
AcDbLine
 10
134.851125
 20
4.234698
 30
0.0
 11
134.833865
 21
4.251958
 31
0.0
  0
LINE
  5
3C1
330
4D0
100
AcDbEntity
  8
Level 1
  6
Continuous
 62
     7
370
    13
100
AcDbLine
 10
134.973312
 20
4.234698
 30
0.0
 11
134.951917
 21
4.256094
 31
0.0
  0
LINE
  5
3C2
330
4D0
100
AcDbEntity
  8
Level 1
  6
Continuous
 62
     7
370
    13
100
AcDbLine
 10
135.0955
 20
4.234698
 30
0.0
 11
135.069958
 21
4.26024
 31
0.0
  0
LINE
  5
3C3
330
4D0
100
AcDbEntity
  8
Level 1
  6
Continuous
 62
     7
370
    13
100
AcDbLine
 10
134.828344
 20
4.211917
 30
0.0
 11
134.789687
 21
4.250573
 31
0.0
  0
LINE
  5
3C4
330
4D0
100
AcDbEntity
  8
Level 1
  6
Continuous
 62
     7
370
    13
100
AcDbLine
 10
134.950531
 20
4.211917
 30
0.0
 11
134.907729
 21
4.254719
 31
0.0
  0
LINE
  5
3C5
330
4D0
100
AcDbEntity
  8
Level 1
  6
Continuous
 62
     7
370
    13
100
AcDbLine
 10
135.072031
 20
4.211917
 30
0.0
 11
135.025781
 21
4.258167
 31
0.0
  0
LINE
  5
3C6
330
4D0
100
AcDbEntity
  8
Level 1
  6
Continuous
 62
     7
370
    13
100
AcDbLine
 10
134.828344
 20
4.196729
 30
0.0
 11
134.885646
 21
4.254031
 31
0.0
  0
LINE
  5
3C7
330
4D0
100
AcDbEntity
  8
Level 1
  6
Continuous
 62
     7
370
    13
100
AcDbLine
 10
134.950531
 20
4.196729
 30
0.0
 11
135.011281
 21
4.257479
 31
0.0
  0
LINE
  5
3C8
330
4D0
100
AcDbEntity
  8
Level 1
  6
Continuous
 62
     7
370
    13
100
AcDbLine
 10
135.072031
 20
4.196729
 30
0.0
 11
135.133469
 21
4.257479
 31
0.0
  0
LINE
  5
3C9
330
4D0
100
AcDbEntity
  8
Level 1
  6
Continuous
 62
     7
370
    13
100
AcDbLine
 10
134.755177
 20
4.200177
 30
0.0
 11
134.790375
 21
4.234698
 31
0.0
  0
LINE
  5
3CA
330
4D0
100
AcDbEntity
  8
Level 1
  6
Continuous
 62
     7
370
    13
100
AcDbLine
 10
134.851125
 20
4.173948
 30
0.0
 11
134.911875
 21
4.234698
 31
0.0
  0
LINE
  5
3CB
330
4D0
100
AcDbEntity
  8
Level 1
  6
Continuous
 62
     7
370
    13
100
AcDbLine
 10
134.973312
 20
4.173948
 30
0.0
 11
135.034063
 21
4.234698
 31
0.0
  0
LINE
  5
3CC
330
4D0
100
AcDbEntity
  8
Level 1
  6
Continuous
 62
     7
370
    13
100
AcDbLine
 10
135.0955
 20
4.173948
 30
0.0
 11
135.15625
 21
4.234698
 31
0.0
  0
LINE
  5
3CD
330
4D0
100
AcDbEntity
  8
Level 1
  6
Continuous
 62
     7
370
    13
100
AcDbLine
 10
134.755177
 20
4.153927
 30
0.0
 11
134.813156
 21
4.211917
 31
0.0
  0
LINE
  5
3CE
330
4D0
100
AcDbEntity
  8
Level 1
  6
Continuous
 62
     7
370
    13
100
AcDbLine
 10
134.873906
 20
4.151167
 30
0.0
 11
134.935344
 21
4.211917
 31
0.0
  0
LINE
  5
3CF
330
4D0
100
AcDbEntity
  8
Level 1
  6
Continuous
 62
     7
370
    13
100
AcDbLine
 10
134.996094
 20
4.151167
 30
0.0
 11
135.056844
 21
4.211917
 31
0.0
  0
LINE
  5
3D0
330
4D0
100
AcDbEntity
  8
Level 1
  6
Continuous
 62
     7
370
    13
100
AcDbLine
 10
135.118281
 20
4.151167
 30
0.0
 11
135.179031
 21
4.211917
 31
0.0
  0
LWPOLYLINE
  5
3D1
330
4D0
100
AcDbEntity
  8
Level 1
  6
Continuous
 62
     7
370
    13
100
AcDbPolyline
 90
        3
 70
   128
 43
0.0
 10
134.168396
 20
4.485281
 10
134.417604
 20
4.888427
 10
134.462479
 20
4.888427
  0
LINE
  5
3D3
330
4D0
100
AcDbEntity
  8
Level 1
  6
Continuous
 62
     7
370
    13
100
AcDbLine
 10
134.362385
 20
4.484594
 30
0.0
 11
134.492156
 21
4.484594
 31
0.0
  0
LINE
  5
3D4
330
4D0
100
AcDbEntity
  8
Level 1
  6
Continuous
 62
     7
370
    13
100
AcDbLine
 10
134.332698
 20
4.487354
 30
0.0
 11
134.332698
 21
4.451458
 31
0.0
  0
LINE
  5
3D5
330
4D0
100
AcDbEntity
  8
Level 1
  6
Continuous
 62
     7
370
    13
100
AcDbLine
 10
134.263667
 20
4.492188
 30
0.0
 11
134.263667
 21
4.455604
 31
0.0
  0
LINE
  5
3D6
330
4D0
100
AcDbEntity
  8
Level 1
  6
Continuous
 62
     7
370
    13
100
AcDbLine
 10
134.312677
 20
4.432125
 30
0.0
 11
134.312677
 21
4.18499
 31
0.0
  0
LINE
  5
3D7
330
4D0
100
AcDbEntity
  8
Level 1
  6
Continuous
 62
     7
370
    13
100
AcDbLine
 10
134.281615
 20
4.432125
 30
0.0
 11
134.281615
 21
4.18499
 31
0.0
  0
LWPOLYLINE
  5
3D8
330
4D0
100
AcDbEntity
  8
Level 1
  6
Continuous
 62
     7
370
    13
100
AcDbPolyline
 90
        3
 70
   128
 43
0.0
 10
134.293344
 20
4.451458
 10
134.492156
 20
4.735177
 10
134.561187
 20
4.735177
  0
LWPOLYLINE
  5
3D9
330
4D0
100
AcDbEntity
  8
Level 1
  6
Continuous
 62
     7
370
    13
100
AcDbPolyline
 90
        5
 70
   128
 43
0.0
 10
134.293344
 20
4.451458
 10
134.293344
 20
4.451458
 10
134.328552
 20
4.489427
 10
134.318885
 20
4.499094
 10
134.293344
 20
4.451458
  0
LWPOLYLINE
  5
3DA
330
4D0
100
AcDbEntity
  8
Level 1
  6
Continuous
 62
     7
370
    13
100
AcDbPolyline
 90
        5
 70
   128
 43
0.0
 10
134.291281
 20
4.451458
 10
134.291281
 20
4.451458
 10
134.330625
 20
4.489427
 10
134.31475
 20
4.503917
 10
134.291281
 20
4.451458
  0
LWPOLYLINE
  5
3DE
330
4D0
100
AcDbEntity
  8
Level 1
  6
Continuous
 62
     7
370
    13
100
AcDbPolyline
 90
        3
 70
   128
 43
0.0
 10
131.766781
 20
10.203198
 10
131.917271
 20
10.203198
 10
132.143698
 20
9.73101
  0
LWPOLYLINE
  5
3DF
330
4D0
100
AcDbEntity
  8
Level 1
  6
Continuous
 62
     7
370
    13
100
AcDbPolyline
 90
        5
 70
   128
 43
0.0
 10
132.143698
 20
9.74275
 10
132.143698
 20
9.74275
 10
132.068448
 20
9.834563
 10
132.115396
 20
9.858031
 10
132.143698
 20
9.74275
  0
LINE
  5
3E0
330
4D0
100
AcDbEntity
  8
Level 1
  6
Continuous
 62
     7
370
    13
100
AcDbLine
 10
130.707833
 20
7.900979
 30
0.0
 11
130.707833
 21
8.023167
 31
0.0
  0
LINE
  5
3E1
330
4D0
100
AcDbEntity
  8
Level 1
  6
Continuous
 62
     7
370
    13
100
AcDbLine
 10
130.708521
 20
8.254427
 30
0.0
 11
130.708521
 21
8.141906
 31
0.0
  0
LINE
  5
3E2
330
4D0
100
AcDbEntity
  8
Level 1
  6
Continuous
 62
     7
370
    13
100
AcDbLine
 10
130.707833
 20
9.048979
 30
0.0
 11
130.707833
 21
9.180146
 31
0.0
  0
LINE
  5
3E3
330
4D0
100
AcDbEntity
  8
Level 1
  6
Continuous
 62
     7
370
    13
100
AcDbLine
 10
130.707833
 20
9.390688
 30
0.0
 11
130.707833
 21
9.284375
 31
0.0
  0
LINE
  5
3E4
330
4D0
100
AcDbEntity
  8
Level 1
  6
Continuous
 62
     7
370
    13
100
AcDbLine
 10
132.791219
 20
8.020406
 30
0.0
 11
132.791219
 21
7.794667
 31
0.0
  0
LINE
  5
3E5
330
4D0
100
AcDbEntity
  8
Level 1
  6
Continuous
 62
     7
370
    13
100
AcDbLine
 10
132.786385
 20
9.179448
 30
0.0
 11
132.786385
 21
8.962
 31
0.0
  0
LWPOLYLINE
  5
3E6
330
4D0
100
AcDbEntity
  8
Level 1
  6
Continuous
 62
     7
370
    13
100
AcDbPolyline
 90
        3
 70
   128
 43
0.0
 10
134.833865
 20
9.834563
 10
134.896
 20
9.70824
 10
134.896
 20
9.283
  0
LINE
  5
3E7
330
4D0
100
AcDbEntity
  8
Level 1
  6
Continuous
 62
     7
370
    13
100
AcDbLine
 10
134.83801
 20
9.824896
 30
0.0
 11
134.83801
 21
9.283
 31
0.0
  0
LINE
  5
3E8
330
4D0
100
AcDbEntity
  8
Level 1
  6
Continuous
 62
     7
370
    13
100
AcDbLine
 10
134.83801
 20
9.184969
 30
0.0
 11
134.83801
 21
8.139833
 31
0.0
  0
LINE
  5
3E9
330
4D0
100
AcDbEntity
  8
Level 1
  6
Continuous
 62
     7
370
    13
100
AcDbLine
 10
134.83801
 20
8.014885
 30
0.0
 11
134.83801
 21
7.52476
 31
0.0
  0
LINE
  5
3EA
330
4D0
100
AcDbEntity
  8
Level 1
  6
Continuous
 62
     7
370
    13
100
AcDbLine
 10
134.896
 20
9.179448
 30
0.0
 11
134.896
 21
8.139833
 31
0.0
  0
LWPOLYLINE
  5
3EB
330
4D0
100
AcDbEntity
  8
Level 1
  6
Continuous
 62
     7
370
    13
100
AcDbPolyline
 90
        5
 70
   128
 43
0.0
 10
134.896
 20
8.025927
 10
134.896
 20
7.609667
 10
134.833865
 20
7.530281
 10
134.657833
 20
7.053958
 10
134.657833
 20
6.889667
  0
LINE
  5
3ED
330
4D0
100
AcDbEntity
  8
Level 1
  6
Continuous
 62
     7
370
    13
100
AcDbLine
 10
130.016774
 20
5.453802
 30
0.0
 11
131.728377
 21
5.453802
 31
0.0
  0
CIRCLE
  5
3EE
330
4D0
100
AcDbEntity
  8
Level 1
  6
Continuous
 62
     7
370
    13
100
AcDbCircle
 10
130.839001
 20
5.306956
 30
0.0
 40
0.074623456875
  0
LWPOLYLINE
  5
3F0
330
4D0
100
AcDbEntity
  8
Level 1
  6
Continuous
 62
     7
370
    13
100
AcDbPolyline
 90
        4
 70
   128
 43
0.0
 10
135.249437
 20
8.023167
 10
135.249437
 20
7.690437
 10
135.107927
 20
7.690437
 10
135.107927
 20
8.023167
  0
LINE
  5
3F1
330
4D0
100
AcDbEntity
  8
Level 1
  6
Continuous
 62
     7
370
    13
100
AcDbLine
 10
135.107927
 20
8.141906
 30
0.0
 11
135.107927
 21
9.180146
 31
0.0
  0
LINE
  5
3F2
330
4D0
100
AcDbEntity
  8
Level 1
  6
Continuous
 62
     7
370
    13
100
AcDbLine
 10
135.107927
 20
9.28576
 30
0.0
 11
135.107927
 21
9.653698
 31
0.0
  0
LWPOLYLINE
  5
3F3
330
4D0
100
AcDbEntity
  8
Level 1
  6
Continuous
 62
     7
370
    13
100
AcDbPolyline
 90
        3
 70
   128
 43
0.0
 10
135.091354
 20
9.653698
 10
135.249437
 20
9.653698
 10
135.249437
 20
9.283687
  0
LINE
  5
3F4
330
4D0
100
AcDbEntity
  8
Level 1
  6
Continuous
 62
     7
370
    13
100
AcDbLine
 10
135.249437
 20
9.182208
 30
0.0
 11
135.249437
 21
8.141906
 31
0.0
  0
LINE
  5
3F5
330
4D0
100
AcDbEntity
  8
Level 1
  6
Continuous
 62
     7
370
    13
100
AcDbLine
 10
130.86799
 20
5.874208
 30
0.0
 11
130.822427
 21
5.919073
 31
0.0
  0
LINE
  5
3F6
330
4D0
100
AcDbEntity
  8
Level 1
  6
Continuous
 62
     7
370
    13
100
AcDbLine
 10
130.776177
 20
5.874208
 30
0.0
 11
130.731302
 21
5.919073
 31
0.0
  0
LINE
  5
3F7
330
4D0
100
AcDbEntity
  8
Level 1
  6
Continuous
 62
     7
370
    13
100
AcDbLine
 10
130.685052
 20
5.874208
 30
0.0
 11
130.63949
 21
5.919073
 31
0.0
  0
LINE
  5
3F8
330
4D0
100
AcDbEntity
  8
Level 1
  6
Continuous
 62
     7
370
    13
100
AcDbLine
 10
130.609813
 20
5.949448
 30
0.0
 11
130.595313
 21
5.96326
 31
0.0
  0
LINE
  5
3F9
330
4D0
100
AcDbEntity
  8
Level 1
  6
Continuous
 62
     7
370
    13
100
AcDbLine
 10
130.59324
 20
5.874208
 30
0.0
 11
130.533875
 21
5.932885
 31
0.0
  0
LINE
  5
3FA
330
4D0
100
AcDbEntity
  8
Level 1
  6
Continuous
 62
     7
370
    13
100
AcDbLine
 10
130.502115
 20
5.874208
 30
0.0
 11
130.45725
 21
5.918385
 31
0.0
  0
LINE
  5
3FB
330
4D0
100
AcDbEntity
  8
Level 1
  6
Continuous
 62
     7
370
    13
100
AcDbLine
 10
130.410302
 20
5.874208
 30
0.0
 11
130.372333
 21
5.911479
 31
0.0
  0
LINE
  5
3FC
330
4D0
100
AcDbEntity
  8
Level 1
  6
Continuous
 62
     7
370
    13
100
AcDbLine
 10
130.31849
 20
5.874208
 30
0.0
 11
130.308833
 21
5.883865
 31
0.0
  0
LINE
  5
3FD
330
4D0
100
AcDbEntity
  8
Level 1
  6
Continuous
 62
     7
370
    13
100
AcDbLine
 10
130.959104
 20
5.874208
 30
0.0
 11
130.91424
 21
5.919073
 31
0.0
  0
LINE
  5
3FE
330
4D0
100
AcDbEntity
  8
Level 1
  6
Continuous
 62
     7
370
    13
100
AcDbLine
 10
131.050917
 20
5.874208
 30
0.0
 11
131.006052
 21
5.919073
 31
0.0
  0
LINE
  5
3FF
330
4D0
100
AcDbEntity
  8
Level 1
  6
Continuous
 62
     7
370
    13
100
AcDbLine
 10
131.142729
 20
5.874208
 30
0.0
 11
131.083365
 21
5.932885
 31
0.0
  0
LINE
  5
400
330
4D0
100
AcDbEntity
  8
Level 1
  6
Continuous
 62
     7
370
    13
100
AcDbLine
 10
131.233854
 20
5.874208
 30
0.0
 11
131.195885
 21
5.912177
 31
0.0
  0
LINE
  5
401
330
4D0
100
AcDbEntity
  8
Level 1
  6
Continuous
 62
     7
370
    13
100
AcDbLine
 10
131.325667
 20
5.874208
 30
0.0
 11
131.290458
 21
5.909406
 31
0.0
  0
LINE
  5
402
330
4D0
100
AcDbEntity
  8
Level 1
  6
Continuous
 62
     7
370
    13
100
AcDbLine
 10
130.80724
 20
5.874208
 30
0.0
 11
130.761677
 21
5.919073
 31
0.0
  0
LINE
  5
403
330
4D0
100
AcDbEntity
  8
Level 1
  6
Continuous
 62
     7
370
    13
100
AcDbLine
 10
130.715427
 20
5.874208
 30
0.0
 11
130.669865
 21
5.919073
 31
0.0
  0
LINE
  5
404
330
4D0
100
AcDbEntity
  8
Level 1
  6
Continuous
 62
     7
370
    13
100
AcDbLine
 10
130.623615
 20
5.874208
 30
0.0
 11
130.554583
 21
5.94324
 31
0.0
  0
LINE
  5
405
330
4D0
100
AcDbEntity
  8
Level 1
  6
Continuous
 62
     7
370
    13
100
AcDbLine
 10
130.53249
 20
5.874208
 30
0.0
 11
130.485552
 21
5.921146
 31
0.0
  0
LINE
  5
406
330
4D0
100
AcDbEntity
  8
Level 1
  6
Continuous
 62
     7
370
    13
100
AcDbLine
 10
130.440677
 20
5.874208
 30
0.0
 11
130.400646
 21
5.913552
 31
0.0
  0
LINE
  5
407
330
4D0
100
AcDbEntity
  8
Level 1
  6
Continuous
 62
     7
370
    13
100
AcDbLine
 10
130.349562
 20
5.874208
 30
0.0
 11
130.316427
 21
5.906646
 31
0.0
  0
LINE
  5
408
330
4D0
100
AcDbEntity
  8
Level 1
  6
Continuous
 62
     7
370
    13
100
AcDbLine
 10
130.898365
 20
5.874208
 30
0.0
 11
130.852802
 21
5.919073
 31
0.0
  0
LINE
  5
409
330
4D0
100
AcDbEntity
  8
Level 1
  6
Continuous
 62
     7
370
    13
100
AcDbLine
 10
130.990177
 20
5.874208
 30
0.0
 11
130.944615
 21
5.919073
 31
0.0
  0
LINE
  5
40A
330
4D0
100
AcDbEntity
  8
Level 1
  6
Continuous
 62
     7
370
    13
100
AcDbLine
 10
131.081292
 20
5.874208
 30
0.0
 11
131.036427
 21
5.919073
 31
0.0
  0
LINE
  5
40B
330
4D0
100
AcDbEntity
  8
Level 1
  6
Continuous
 62
     7
370
    13
100
AcDbLine
 10
131.173104
 20
5.874208
 30
0.0
 11
131.083365
 21
5.96326
 31
0.0
  0
LINE
  5
40C
330
4D0
100
AcDbEntity
  8
Level 1
  6
Continuous
 62
     7
370
    13
100
AcDbLine
 10
131.264229
 20
5.874208
 30
0.0
 11
131.226948
 21
5.911479
 31
0.0
  0
LINE
  5
40D
330
4D0
100
AcDbEntity
  8
Level 1
  6
Continuous
 62
     7
370
    13
100
AcDbLine
 10
131.356042
 20
5.874208
 30
0.0
 11
131.322219
 21
5.908031
 31
0.0
  0
LINE
  5
40E
330
4D0
100
AcDbEntity
  8
Level 1
  6
Continuous
 62
     7
370
    13
100
AcDbLine
 10
134.494229
 20
4.270594
 30
0.0
 11
134.71099
 21
4.487354
 31
0.0
  0
LINE
  5
40F
330
4D0
100
AcDbEntity
  8
Level 1
  6
Continuous
 62
     7
370
    13
100
AcDbLine
 10
134.494229
 20
4.331344
 30
0.0
 11
134.649552
 21
4.487354
 31
0.0
  0
LINE
  5
410
330
4D0
100
AcDbEntity
  8
Level 1
  6
Continuous
 62
     7
370
    13
100
AcDbLine
 10
134.494229
 20
4.392781
 30
0.0
 11
134.588802
 21
4.487354
 31
0.0
  0
LINE
  5
411
330
4D0
100
AcDbEntity
  8
Level 1
  6
Continuous
 62
     7
370
    13
100
AcDbLine
 10
134.494229
 20
4.453531
 30
0.0
 11
134.527365
 21
4.487354
 31
0.0
  0
LINE
  5
412
330
4D0
100
AcDbEntity
  8
Level 1
  6
Continuous
 62
     7
370
    13
100
AcDbLine
 10
134.548073
 20
4.263687
 30
0.0
 11
134.743437
 21
4.458365
 31
0.0
  0
LINE
  5
413
330
4D0
100
AcDbEntity
  8
Level 1
  6
Continuous
 62
     7
370
    13
100
AcDbLine
 10
134.60951
 20
4.263687
 30
0.0
 11
134.743437
 21
4.397615
 31
0.0
  0
LINE
  5
414
330
4D0
100
AcDbEntity
  8
Level 1
  6
Continuous
 62
     7
370
    13
100
AcDbLine
 10
134.67026
 20
4.263687
 30
0.0
 11
134.743437
 21
4.336865
 31
0.0
  0
LINE
  5
415
330
4D0
100
AcDbEntity
  8
Level 1
  6
Continuous
 62
     7
370
    13
100
AcDbLine
 10
134.73101
 20
4.263687
 30
0.0
 11
134.743437
 21
4.275427
 31
0.0
  0
LINE
  5
416
330
4D0
100
AcDbEntity
  8
Level 1
  6
Continuous
 62
     7
370
    13
100
AcDbLine
 10
134.680615
 20
4.263687
 30
0.0
 11
134.494229
 21
4.450073
 31
0.0
  0
LINE
  5
417
330
4D0
100
AcDbEntity
  8
Level 1
  6
Continuous
 62
     7
370
    13
100
AcDbLine
 10
134.619177
 20
4.263687
 30
0.0
 11
134.494229
 21
4.389333
 31
0.0
  0
LINE
  5
418
330
4D0
100
AcDbEntity
  8
Level 1
  6
Continuous
 62
     7
370
    13
100
AcDbLine
 10
134.558427
 20
4.263687
 30
0.0
 11
134.494229
 21
4.327885
 31
0.0
  0
LINE
  5
419
330
4D0
100
AcDbEntity
  8
Level 1
  6
Continuous
 62
     7
370
    13
100
AcDbLine
 10
134.497687
 20
4.263687
 30
0.0
 11
134.494229
 21
4.267146
 31
0.0
  0
LINE
  5
41A
330
4D0
100
AcDbEntity
  8
Level 1
  6
Continuous
 62
     7
370
    13
100
AcDbLine
 10
134.741365
 20
4.263687
 30
0.0
 11
134.518396
 21
4.487354
 31
0.0
  0
LINE
  5
41B
330
4D0
100
AcDbEntity
  8
Level 1
  6
Continuous
 62
     7
370
    13
100
AcDbLine
 10
134.743437
 20
4.323062
 30
0.0
 11
134.579146
 21
4.487354
 31
0.0
  0
LINE
  5
41C
330
4D0
100
AcDbEntity
  8
Level 1
  6
Continuous
 62
     7
370
    13
100
AcDbLine
 10
134.743437
 20
4.383802
 30
0.0
 11
134.639885
 21
4.487354
 31
0.0
  0
LINE
  5
41D
330
4D0
100
AcDbEntity
  8
Level 1
  6
Continuous
 62
     7
370
    13
100
AcDbLine
 10
134.743437
 20
4.44524
 30
0.0
 11
134.701323
 21
4.487354
 31
0.0
  0
LINE
  5
41E
330
4D0
100
AcDbEntity
  8
Level 1
  6
Continuous
 62
     7
370
    13
100
AcDbLine
 10
131.316698
 20
4.266448
 30
0.0
 11
131.528625
 21
4.477688
 31
0.0
  0
LINE
  5
41F
330
4D0
100
AcDbEntity
  8
Level 1
  6
Continuous
 62
     7
370
    13
100
AcDbLine
 10
131.256635
 20
4.266448
 30
0.0
 11
131.474083
 21
4.484594
 31
0.0
  0
LINE
  5
420
330
4D0
100
AcDbEntity
  8
Level 1
  6
Continuous
 62
     7
370
    13
100
AcDbLine
 10
131.222813
 20
4.294062
 30
0.0
 11
131.413344
 21
4.484594
 31
0.0
  0
LINE
  5
421
330
4D0
100
AcDbEntity
  8
Level 1
  6
Continuous
 62
     7
370
    13
100
AcDbLine
 10
131.222813
 20
4.3555
 30
0.0
 11
131.351896
 21
4.484594
 31
0.0
  0
LINE
  5
422
330
4D0
100
AcDbEntity
  8
Level 1
  6
Continuous
 62
     7
370
    13
100
AcDbLine
 10
131.222813
 20
4.41625
 30
0.0
 11
131.291156
 21
4.484594
 31
0.0
  0
LINE
  5
423
330
4D0
100
AcDbEntity
  8
Level 1
  6
Continuous
 62
     7
370
    13
100
AcDbLine
 10
131.222813
 20
4.477
 30
0.0
 11
131.229719
 21
4.484594
 31
0.0
  0
LINE
  5
424
330
4D0
100
AcDbEntity
  8
Level 1
  6
Continuous
 62
     7
370
    13
100
AcDbLine
 10
131.377437
 20
4.26576
 30
0.0
 11
131.528625
 21
4.416937
 31
0.0
  0
LINE
  5
425
330
4D0
100
AcDbEntity
  8
Level 1
  6
Continuous
 62
     7
370
    13
100
AcDbLine
 10
131.438187
 20
4.265073
 30
0.0
 11
131.528625
 21
4.3555
 31
0.0
  0
LINE
  5
426
330
4D0
100
AcDbEntity
  8
Level 1
  6
Continuous
 62
     7
370
    13
100
AcDbLine
 10
131.498937
 20
4.265073
 30
0.0
 11
131.528625
 21
4.29476
 31
0.0
  0
LINE
  5
427
330
4D0
100
AcDbEntity
  8
Level 1
  6
Continuous
 62
     7
370
    13
100
AcDbLine
 10
131.445094
 20
4.265073
 30
0.0
 11
131.22626
 21
4.484594
 31
0.0
  0
LINE
  5
428
330
4D0
100
AcDbEntity
  8
Level 1
  6
Continuous
 62
     7
370
    13
100
AcDbLine
 10
131.383656
 20
4.26576
 30
0.0
 11
131.222813
 21
4.426604
 31
0.0
  0
LINE
  5
429
330
4D0
100
AcDbEntity
  8
Level 1
  6
Continuous
 62
     7
370
    13
100
AcDbLine
 10
131.322219
 20
4.266448
 30
0.0
 11
131.222813
 21
4.365167
 31
0.0
  0
LINE
  5
42A
330
4D0
100
AcDbEntity
  8
Level 1
  6
Continuous
 62
     7
370
    13
100
AcDbLine
 10
131.260781
 20
4.266448
 30
0.0
 11
131.222813
 21
4.304417
 31
0.0
  0
LINE
  5
42B
330
4D0
100
AcDbEntity
  8
Level 1
  6
Continuous
 62
     7
370
    13
100
AcDbLine
 10
131.506531
 20
4.265073
 30
0.0
 11
131.28701
 21
4.484594
 31
0.0
  0
LINE
  5
42C
330
4D0
100
AcDbEntity
  8
Level 1
  6
Continuous
 62
     7
370
    13
100
AcDbLine
 10
131.528625
 20
4.303729
 30
0.0
 11
131.34776
 21
4.484594
 31
0.0
  0
LINE
  5
42D
330
4D0
100
AcDbEntity
  8
Level 1
  6
Continuous
 62
     7
370
    13
100
AcDbLine
 10
131.528625
 20
4.365167
 30
0.0
 11
131.409198
 21
4.484594
 31
0.0
  0
LINE
  5
42E
330
4D0
100
AcDbEntity
  8
Level 1
  6
Continuous
 62
     7
370
    13
100
AcDbLine
 10
131.528625
 20
4.425917
 30
0.0
 11
131.469948
 21
4.484594
 31
0.0
  0
LWPOLYLINE
  5
42F
330
4D0
100
AcDbEntity
  8
Level 1
  6
Continuous
 62
     7
370
    13
100
AcDbPolyline
 90
        5
 70
   128
 43
0.0
 10
130.957729
 20
6.373302
 10
130.957729
 20
6.309792
 10
131.017781
 20
6.28149
 10
131.081292
 20
6.273896
 10
131.124781
 20
6.278042
  0
LWPOLYLINE
  5
430
330
4D0
100
AcDbEntity
  8
Level 1
  6
Continuous
 62
     7
370
    13
100
AcDbPolyline
 90
        4
 70
   128
 43
0.0
 10
130.560792
 20
6.496177
 10
130.624302
 20
6.487896
 10
130.687813
 20
6.472021
 10
130.735448
 20
6.460281
  0
LWPOLYLINE
  5
432
330
4D0
100
AcDbEntity
  8
Level 1
  6
Continuous
 62
     7
370
    13
100
AcDbPolyline
 90
        3
 70
   128
 43
0.0
 10
133.943354
 20
10.308125
 10
133.792865
 20
10.308125
 10
133.566448
 20
9.835948
  0
LWPOLYLINE
  5
433
330
4D0
100
AcDbEntity
  8
Level 1
  6
Continuous
 62
     7
370
    13
100
AcDbPolyline
 90
        5
 70
   128
 43
0.0
 10
133.566448
 20
9.835948
 10
133.566448
 20
9.835948
 10
133.641687
 20
9.92776
 10
133.59475
 20
9.951229
 10
133.566448
 20
9.835948
  0
LINE
  5
436
330
4D0
100
AcDbEntity
  8
Level 1
  6
Continuous
 62
     7
370
    13
100
AcDbLine
 10
130.867292
 20
6.267688
 30
0.0
 11
130.956344
 21
6.35674
 31
0.0
  0
LINE
  5
437
330
4D0
100
AcDbEntity
  8
Level 1
  6
Continuous
 62
     7
370
    13
100
AcDbLine
 10
130.868677
 20
6.195896
 30
0.0
 11
130.970844
 21
6.298062
 31
0.0
  0
LINE
  5
438
330
4D0
100
AcDbEntity
  8
Level 1
  6
Continuous
 62
     7
370
    13
100
AcDbLine
 10
130.870062
 20
6.124104
 30
0.0
 11
131.02124
 21
6.275281
 31
0.0
  0
LINE
  5
439
330
4D0
100
AcDbEntity
  8
Level 1
  6
Continuous
 62
     7
370
    13
100
AcDbLine
 10
130.876271
 20
6.057135
 30
0.0
 11
131.088198
 21
6.269062
 31
0.0
  0
LINE
  5
43A
330
4D0
100
AcDbEntity
  8
Level 1
  6
Continuous
 62
     7
370
    13
100
AcDbLine
 10
130.910792
 20
6.018479
 30
0.0
 11
131.124781
 21
6.232479
 31
0.0
  0
LINE
  5
43B
330
4D0
100
AcDbEntity
  8
Level 1
  6
Continuous
 62
     7
370
    13
100
AcDbLine
 10
130.964635
 20
5.999156
 30
0.0
 11
131.124781
 21
6.159302
 31
0.0
  0
LINE
  5
43C
330
4D0
100
AcDbEntity
  8
Level 1
  6
Continuous
 62
     7
370
    13
100
AcDbLine
 10
131.018479
 20
5.979135
 30
0.0
 11
131.124781
 21
6.086135
 31
0.0
  0
LINE
  5
43D
330
4D0
100
AcDbEntity
  8
Level 1
  6
Continuous
 62
     7
370
    13
100
AcDbLine
 10
131.07301
 20
5.961187
 30
0.0
 11
131.124781
 21
6.012958
 31
0.0
  0
LINE
  5
43E
330
4D0
100
AcDbEntity
  8
Level 1
  6
Continuous
 62
     7
370
    13
100
AcDbLine
 10
131.003979
 20
5.984656
 30
0.0
 11
130.870062
 21
6.118573
 31
0.0
  0
LINE
  5
43F
330
4D0
100
AcDbEntity
  8
Level 1
  6
Continuous
 62
     7
370
    13
100
AcDbLine
 10
131.126854
 20
5.934948
 30
0.0
 11
130.868677
 21
6.193135
 31
0.0
  0
LINE
  5
440
330
4D0
100
AcDbEntity
  8
Level 1
  6
Continuous
 62
     7
370
    13
100
AcDbLine
 10
131.124781
 20
6.010198
 30
0.0
 11
130.867292
 21
6.267688
 31
0.0
  0
LINE
  5
441
330
4D0
100
AcDbEntity
  8
Level 1
  6
Continuous
 62
     7
370
    13
100
AcDbLine
 10
131.124781
 20
6.083375
 30
0.0
 11
130.876271
 21
6.331885
 31
0.0
  0
LINE
  5
442
330
4D0
100
AcDbEntity
  8
Level 1
  6
Continuous
 62
     7
370
    13
100
AcDbLine
 10
131.406438
 20
5.874896
 30
0.0
 11
131.37675
 21
5.904583
 31
0.0
  0
LINE
  5
443
330
4D0
100
AcDbEntity
  8
Level 1
  6
Continuous
 62
     7
370
    13
100
AcDbLine
 10
131.124781
 20
6.156542
 30
0.0
 11
130.999833
 21
6.28149
 31
0.0
  0
LINE
  5
444
330
4D0
100
AcDbEntity
  8
Level 1
  6
Continuous
 62
     7
370
    13
100
AcDbLine
 10
130.956344
 20
6.324979
 30
0.0
 11
130.91976
 21
6.361573
 31
0.0
  0
LINE
  5
445
330
4D0
100
AcDbEntity
  8
Level 1
  6
Continuous
 62
     7
370
    13
100
AcDbLine
 10
131.124781
 20
6.229719
 30
0.0
 11
131.085437
 21
6.269062
 31
0.0
  0
LINE
  5
446
330
4D0
100
AcDbEntity
  8
Level 1
  6
Continuous
 62
     7
370
    13
100
AcDbLine
 10
130.553896
 20
6.420937
 30
0.0
 11
130.612573
 21
6.479615
 31
0.0
  0
LINE
  5
447
330
4D0
100
AcDbEntity
  8
Level 1
  6
Continuous
 62
     7
370
    13
100
AcDbLine
 10
130.553896
 20
6.348458
 30
0.0
 11
130.673313
 21
6.467187
 31
0.0
  0
LINE
  5
448
330
4D0
100
AcDbEntity
  8
Level 1
  6
Continuous
 62
     7
370
    13
100
AcDbLine
 10
130.254979
 20
5.975677
 30
0.0
 11
130.259813
 21
5.98051
 31
0.0
  0
LINE
  5
449
330
4D0
100
AcDbEntity
  8
Level 1
  6
Continuous
 62
     7
370
    13
100
AcDbLine
 10
130.554583
 20
6.275281
 30
0.0
 11
130.73199
 21
6.452687
 31
0.0
  0
LINE
  5
44A
330
4D0
100
AcDbEntity
  8
Level 1
  6
Continuous
 62
     7
370
    13
100
AcDbLine
 10
130.555271
 20
6.202792
 30
0.0
 11
130.733375
 21
6.380896
 31
0.0
  0
LINE
  5
44B
330
4D0
100
AcDbEntity
  8
Level 1
  6
Continuous
 62
     7
370
    13
100
AcDbLine
 10
130.555958
 20
6.129625
 30
0.0
 11
130.785146
 21
6.3595
 31
0.0
  0
LINE
  5
44C
330
4D0
100
AcDbEntity
  8
Level 1
  6
Continuous
 62
     7
370
    13
100
AcDbLine
 10
130.555958
 20
6.057135
 30
0.0
 11
130.825187
 21
6.326365
 31
0.0
  0
LINE
  5
44D
330
4D0
100
AcDbEntity
  8
Level 1
  6
Continuous
 62
     7
370
    13
100
AcDbLine
 10
130.556656
 20
5.984656
 30
0.0
 11
130.830708
 21
6.258708
 31
0.0
  0
LINE
  5
44E
330
4D0
100
AcDbEntity
  8
Level 1
  6
Continuous
 62
     7
370
    13
100
AcDbLine
 10
130.631208
 20
5.986031
 30
0.0
 11
130.829333
 21
6.184156
 31
0.0
  0
LINE
  5
44F
330
4D0
100
AcDbEntity
  8
Level 1
  6
Continuous
 62
     7
370
    13
100
AcDbLine
 10
130.723708
 20
6.005365
 30
0.0
 11
130.828635
 21
6.109604
 31
0.0
  0
LINE
  5
450
330
4D0
100
AcDbEntity
  8
Level 1
  6
Continuous
 62
     7
370
    13
100
AcDbLine
 10
130.596688
 20
5.970156
 30
0.0
 11
130.556656
 21
6.010885
 31
0.0
  0
LINE
  5
451
330
4D0
100
AcDbEntity
  8
Level 1
  6
Continuous
 62
     7
370
    13
100
AcDbLine
 10
130.650542
 20
5.990177
 30
0.0
 11
130.555958
 21
6.08475
 31
0.0
  0
LINE
  5
452
330
4D0
100
AcDbEntity
  8
Level 1
  6
Continuous
 62
     7
370
    13
100
AcDbLine
 10
130.711281
 20
6.002604
 30
0.0
 11
130.555271
 21
6.157927
 31
0.0
  0
LINE
  5
453
330
4D0
100
AcDbEntity
  8
Level 1
  6
Continuous
 62
     7
370
    13
100
AcDbLine
 10
130.767198
 20
6.019865
 30
0.0
 11
130.555271
 21
6.231792
 31
0.0
  0
LINE
  5
454
330
4D0
100
AcDbEntity
  8
Level 1
  6
Continuous
 62
     7
370
    13
100
AcDbLine
 10
130.809313
 20
6.050927
 30
0.0
 11
130.554583
 21
6.305656
 31
0.0
  0
LINE
  5
455
330
4D0
100
AcDbEntity
  8
Level 1
  6
Continuous
 62
     7
370
    13
100
AcDbLine
 10
130.828635
 20
6.104771
 30
0.0
 11
130.553896
 21
6.379521
 31
0.0
  0
LINE
  5
456
330
4D0
100
AcDbEntity
  8
Level 1
  6
Continuous
 62
     7
370
    13
100
AcDbLine
 10
130.829333
 20
6.17725
 30
0.0
 11
130.553198
 21
6.453385
 31
0.0
  0
LINE
  5
457
330
4D0
100
AcDbEntity
  8
Level 1
  6
Continuous
 62
     7
370
    13
100
AcDbLine
 10
130.830708
 20
6.249052
 30
0.0
 11
130.596688
 21
6.483062
 31
0.0
  0
LINE
  5
458
330
4D0
100
AcDbEntity
  8
Level 1
  6
Continuous
 62
     7
370
    13
100
AcDbLine
 10
130.823802
 20
6.329125
 30
0.0
 11
130.799646
 21
6.353281
 31
0.0
  0
LINE
  5
459
330
4D0
100
AcDbEntity
  8
Level 1
  6
Continuous
 62
     7
370
    13
100
AcDbLine
 10
130.732687
 20
6.42025
 30
0.0
 11
130.689198
 21
6.46374
 31
0.0
  0
LWPOLYLINE
  5
45A
330
4D0
100
AcDbEntity
  8
Level 1
  6
Continuous
 62
     7
370
    13
100
AcDbPolyline
 90
        3
 70
   128
 43
0.0
 10
130.26051
 20
5.977062
 10
130.261198
 20
5.977062
 10
130.261198
 20
5.872135
  0
LINE
  5
45B
330
4D0
100
AcDbEntity
  8
Level 1
  6
Continuous
 62
     7
370
    13
100
AcDbLine
 10
130.71474
 20
6.155854
 30
0.0
 11
131.984927
 21
5.995698
 31
0.0
  0
LINE
  5
45C
330
4D0
100
AcDbEntity
  8
Level 1
  6
Continuous
 62
     7
370
    13
100
AcDbLine
 10
131.984927
 20
5.995698
 30
0.0
 11
132.109875
 21
5.995698
 31
0.0
  0
LWPOLYLINE
  5
45D
330
4D0
100
AcDbEntity
  8
Level 1
  6
Continuous
 62
     7
370
    13
100
AcDbPolyline
 90
        5
 70
   128
 43
0.0
 10
130.71474
 20
6.155854
 10
130.71474
 20
6.155854
 10
130.832781
 20
6.123406
 10
130.837615
 20
6.164833
 10
130.71474
 20
6.155854
  0
LWPOLYLINE
  5
45E
330
4D0
100
AcDbEntity
  8
Level 1
  6
Continuous
 62
     7
370
    13
100
AcDbPolyline
 90
        5
 70
   128
 43
0.0
 10
130.966698
 20
6.124104
 10
130.966698
 20
6.124104
 10
131.08475
 20
6.091656
 10
131.089583
 20
6.133073
 10
130.966698
 20
6.124104
  0
TEXT
  5
6C
330
4D0
100
AcDbEntity
  8
Level 1
  6
Continuous
 62
     7
370
    13
100
AcDbText
 10
132.352718
 20
2.306803
 30
0.0
 40
0.09
  1
1)
  7
Style-Arial
 11
132.352718
 21
2.351803
 31
0.0
100
AcDbText
 73
     2
  0
TEXT
  5
6D
330
4D0
100
AcDbEntity
  8
Level 1
  6
Continuous
 62
     7
370
    13
100
AcDbText
 10
132.351875
 20
2.061222
 30
0.0
 40
0.09
  1
2)
  7
Style-Arial
 11
132.351875
 21
2.106222
 31
0.0
100
AcDbText
 73
     2
  0
TEXT
  5
7A
330
4D0
100
AcDbEntity
  8
Level 1
  6
Continuous
 62
     7
370
    13
100
AcDbText
 10
131.698437
 20
4.975971
 30
0.0
 40
0.09
  1
5 FT TYPICAL
  7
Style-Arial
 11
131.698437
 21
5.020971
 31
0.0
100
AcDbText
 73
     2
  0
TEXT
  5
7B
330
4D0
100
AcDbEntity
  8
Level 1
  6
Continuous
 62
     7
370
    13
100
AcDbText
 10
132.968625
 20
5.046388
 30
0.0
 40
0.09
  1
L
  7
Style-Arial
 11
132.968625
 21
5.091388
 31
0.0
100
AcDbText
 73
     2
  0
TEXT
  5
7C
330
4D0
100
AcDbEntity
  8
Level 1
  6
Continuous
 62
     7
370
    13
100
AcDbText
 10
132.951365
 20
5.080898
 30
0.0
 40
0.09
  1
C
  7
Style-Arial
 11
132.951365
 21
5.125898
 31
0.0
100
AcDbText
 73
     2
  0
TEXT
  5
7D
330
4D0
100
AcDbEntity
  8
Level 1
  6
Continuous
 62
     7
370
    13
100
AcDbText
 10
133.118427
 20
5.046388
 30
0.0
 40
0.09
  1
TRACK
  7
Style-Arial
 11
133.118427
 21
5.091388
 31
0.0
100
AcDbText
 73
     2
  0
TEXT
  5
88
330
4D0
100
AcDbEntity
  8
Level 1
  6
Continuous
 62
     7
370
    13
100
AcDbText
 10
130.375988
 20
9.290886
 30
0.0
 40
0.09
  1
o
  7
Style-Arial
 11
130.375988
 21
9.335886
 31
0.0
100
AcDbText
 73
     2
  0
TEXT
  5
89
330
4D0
100
AcDbEntity
  8
Level 1
  6
Continuous
 62
     7
370
    13
100
AcDbText
 10
130.428478
 20
9.110982
 30
0.0
 40
0.09
  1
o
  7
Style-Arial
 11
130.428478
 21
9.155982
 31
0.0
100
AcDbText
 73
     2
  0
TEXT
  5
8A
330
4D0
100
AcDbEntity
  8
Level 1
  6
Continuous
 62
     7
370
    13
100
AcDbText
 10
130.431529
 20
8.147762
 30
0.0
 40
0.09
  1
o
  7
Style-Arial
 11
130.431529
 21
8.192762
 31
0.0
100
AcDbText
 73
     2
  0
TEXT
  5
8B
330
4D0
100
AcDbEntity
  8
Level 1
  6
Continuous
 62
     7
370
    13
100
AcDbText
 10
130.390956
 20
7.958636
 30
0.0
 40
0.09
  1
o
  7
Style-Arial
 11
130.390956
 21
8.003636
 31
0.0
100
AcDbText
 73
     2
  0
TEXT
  5
98
330
4D0
100
AcDbEntity
  8
Level 1
  6
Continuous
 62
     7
370
    13
100
AcDbText
 10
135.122404
 20
7.957482
 30
0.0
 40
0.09
  1
o
  7
Style-Arial
 11
135.122404
 21
8.002482
 31
0.0
100
AcDbText
 73
     2
  0
TEXT
  5
99
330
4D0
100
AcDbEntity
  8
Level 1
  6
Continuous
 62
     7
370
    13
100
AcDbText
 10
135.161275
 20
8.148653
 30
0.0
 40
0.09
  1
o
  7
Style-Arial
 11
135.161275
 21
8.193653
 31
0.0
100
AcDbText
 73
     2
  0
TEXT
  5
9A
330
4D0
100
AcDbEntity
  8
Level 1
  6
Continuous
 62
     7
370
    13
100
AcDbText
 10
135.162485
 20
9.112652
 30
0.0
 40
0.09
  1
o
  7
Style-Arial
 11
135.162485
 21
9.157652
 31
0.0
100
AcDbText
 73
     2
  0
TEXT
  5
9B
330
4D0
100
AcDbEntity
  8
Level 1
  6
Continuous
 62
     7
370
    13
100
AcDbText
 10
135.109239
 20
9.289884
 30
0.0
 40
0.09
  1
o
  7
Style-Arial
 11
135.109239
 21
9.334884
 31
0.0
100
AcDbText
 73
     2
  0
TEXT
  5
222
330
4D0
100
AcDbEntity
  8
Level 1
  6
Continuous
 62
     7
370
    13
100
AcDbText
 10
132.103656
 20
6.993773
 30
0.0
 40
0.09
  1
NORMAL WIDTH OF ROAD
  7
Style-Arial
 11
132.103656
 21
7.038773
 31
0.0
100
AcDbText
 73
     2
  0
TEXT
  5
223
330
4D0
100
AcDbEntity
  8
Level 1
  6
Continuous
 62
     7
370
    13
100
AcDbText
 10
134.711677
 20
6.965471
 30
0.0
 40
0.09
  1
2'
  7
Style-Arial
 11
134.711677
 21
7.010471
 31
0.0
100
AcDbText
 73
     2
  0
TEXT
  5
224
330
4D0
100
AcDbEntity
  8
Level 1
  6
Continuous
 62
     7
370
    13
100
AcDbText
 10
130.76099
 20
6.968919
 30
0.0
 40
0.09
  1
2'
  7
Style-Arial
 11
130.76099
 21
7.013919
 31
0.0
100
AcDbText
 73
     2
  0
TEXT
  5
225
330
4D0
100
AcDbEntity
  8
Level 1
  6
Continuous
 62
     7
370
    13
100
AcDbText
 10
131.882062
 20
7.540502
 30
0.0
 40
0.09
  1
NORMAL WIDTH OF CROSSING
 50
359.9999
  7
Style-Arial
 11
131.882063
 21
7.585502
 31
0.0
100
AcDbText
 73
     2
  0
TEXT
  5
232
330
4D0
100
AcDbEntity
  8
Level 1
  6
Continuous
 62
     7
370
    13
100
AcDbText
 10
130.468425
 20
6.96423
 30
0.0
 40
0.09
  1
VARIABLE
 50
90.0
  7
Style-Arial
 11
130.423425
 21
6.96423
 31
0.0
100
AcDbText
 73
     2
  0
TEXT
  5
23A
330
4D0
100
AcDbEntity
  8
Level 1
  6
Continuous
 62
     7
370
    13
100
AcDbText
 10
134.052427
 20
10.261742
 30
0.0
 40
0.09
  1
SAW CUT EXISTING PAVEMENT
  7
Style-Arial
 11
134.052427
 21
10.306742
 31
0.0
100
AcDbText
 73
     2
  0
TEXT
  5
23D
330
4D0
100
AcDbEntity
  8
Level 1
  6
Continuous
 62
     7
370
    13
100
AcDbText
 10
131.833052
 20
7.372752
 30
0.0
 40
0.09
  1
SAW CUT EXISTING PAVEMENT
  7
Style-Arial
 11
131.833052
 21
7.417752
 31
0.0
100
AcDbText
 73
     2
  0
TEXT
  5
23E
330
4D0
100
AcDbEntity
  8
Level 1
  6
Continuous
 62
     7
370
    13
100
AcDbText
 10
132.755323
 20
10.111252
 30
0.0
 40
0.09
  1
L
  7
Style-Arial
 11
132.755323
 21
10.156252
 31
0.0
100
AcDbText
 73
     2
  0
TEXT
  5
23F
330
4D0
100
AcDbEntity
  8
Level 1
  6
Continuous
 62
     7
370
    13
100
AcDbText
 10
132.740823
 20
10.15543
 30
0.0
 40
0.09
  1
C
  7
Style-Arial
 11
132.740823
 21
10.20043
 31
0.0
100
AcDbText
 73
     2
  0
TEXT
  5
240
330
4D0
100
AcDbEntity
  8
Level 1
  6
Continuous
 62
     7
370
    13
100
AcDbText
 10
132.90374
 20
10.12368
 30
0.0
 40
0.09
  1
ROAD
  7
Style-Arial
 11
132.90374
 21
10.16868
 31
0.0
100
AcDbText
 73
     2
  0
TEXT
  5
243
330
4D0
100
AcDbEntity
  8
Level 1
  6
Continuous
 62
     7
370
    13
100
AcDbText
 10
131.001906
 20
6.613409
 30
0.0
 40
0.09
  1
2"
  7
Style-Arial
 11
131.001906
 21
6.658409
 31
0.0
100
AcDbText
 73
     2
  0
TEXT
  5
2B2
330
4D0
100
AcDbEntity
  8
Level 1
  6
Continuous
 62
     7
370
    13
100
AcDbText
 10
131.810271
 20
4.683961
 30
0.0
 40
0.09
  1
APPROACH PANEL
  7
Style-Arial
 11
131.810271
 21
4.728961
 31
0.0
100
AcDbText
 73
     2
  0
TEXT
  5
2B3
330
4D0
100
AcDbEntity
  8
Level 1
  6
Continuous
 62
     7
370
    13
100
AcDbText
 10
134.585354
 20
4.846877
 30
0.0
 40
0.09
  1
APPROACH PANEL
  7
Style-Arial
 11
134.585354
 21
4.891877
 31
0.0
100
AcDbText
 73
     2
  0
TEXT
  5
2B5
330
4D0
100
AcDbEntity
  8
Level 1
  6
Continuous
 62
     7
370
    13
100
AcDbText
 10
134.918083
 20
4.53969
 30
0.0
 40
0.09
  1
REPLACEMENT PAVEMENT
  7
Style-Arial
 11
134.918083
 21
4.58469
 31
0.0
100
AcDbText
 73
     2
  0
TEXT
  5
2C5
330
4D0
100
AcDbEntity
  8
Level 1
  6
Continuous
 62
     7
370
    13
100
AcDbText
 10
134.87874
 20
3.830732
 30
0.0
 40
0.09
  1
EXISTING BASE
  7
Style-Arial
 11
134.87874
 21
3.875732
 31
0.0
100
AcDbText
 73
     2
  0
TEXT
  5
2C6
330
4D0
100
AcDbEntity
  8
Level 1
  6
Continuous
 62
     7
370
    13
100
AcDbText
 10
129.921562
 20
4.02195
 30
0.0
 40
0.09
  1
EXISTING BASE
  7
Style-Arial
 11
129.921562
 21
4.06695
 31
0.0
100
AcDbText
 73
     2
  0
TEXT
  5
2EB
330
4D0
100
AcDbEntity
  8
Level 1
  6
Continuous
 62
     7
370
    13
100
AcDbText
 10
135.75475
 20
6.076336
 30
0.0
 40
0.09
  1
4" TYP.
  7
Style-Arial
 11
135.75475
 21
6.121336
 31
0.0
100
AcDbText
 73
     2
  0
TEXT
  5
2EC
330
4D0
100
AcDbEntity
  8
Level 1
  6
Continuous
 62
     7
370
    13
100
AcDbText
 10
135.742323
 20
6.42219
 30
0.0
 40
0.09
  1
6" TYP.
  7
Style-Arial
 11
135.742323
 21
6.46719
 31
0.0
100
AcDbText
 73
     2
  0
TEXT
  5
311
330
4D0
100
AcDbEntity
  8
Level 1
  6
Continuous
 62
     7
370
    13
100
AcDbText
 10
130.612573
 20
6.62169
 30
0.0
 40
0.09
  1
2"
  7
Style-Arial
 11
130.612573
 21
6.66669
 31
0.0
100
AcDbText
 73
     2
  0
TEXT
  5
317
330
4D0
100
AcDbEntity
  8
Level 1
  6
Continuous
 62
     7
370
    13
100
AcDbText
 10
129.594354
 20
9.81994
 30
0.0
 40
0.09
  1
END PANELS
  7
Style-Arial
 11
129.594354
 21
9.86494
 31
0.0
100
AcDbText
 73
     2
  0
TEXT
  5
318
330
4D0
100
AcDbEntity
  8
Level 1
  6
Continuous
 62
     7
370
    13
100
AcDbText
 10
129.593656
 20
9.969732
 30
0.0
 40
0.09
  1
BEVELED
 50
359.9997
  7
Style-Arial
 11
129.593656
 21
10.014732
 31
0.0
100
AcDbText
 73
     2
  0
TEXT
  5
319
330
4D0
100
AcDbEntity
  8
Level 1
  6
Continuous
 62
     7
370
    13
100
AcDbText
 10
135.359896
 20
8.777555
 30
0.0
 40
0.09
  1
PRE-CAST LAG BOLT
  7
Style-Arial
 11
135.359896
 21
8.822555
 31
0.0
100
AcDbText
 73
     2
  0
TEXT
  5
31A
330
4D0
100
AcDbEntity
  8
Level 1
  6
Continuous
 62
     7
370
    13
100
AcDbText
 10
135.359198
 20
8.612565
 30
0.0
 40
0.09
  1
HOLES (TYP. ALL
  7
Style-Arial
 11
135.359198
 21
8.657565
 31
0.0
100
AcDbText
 73
     2
  0
TEXT
  5
31B
330
4D0
100
AcDbEntity
  8
Level 1
  6
Continuous
 62
     7
370
    13
100
AcDbText
 10
135.359198
 20
8.4462
 30
0.0
 40
0.09
  1
HOLES)
  7
Style-Arial
 11
135.359198
 21
8.4912
 31
0.0
100
AcDbText
 73
     2
  0
TEXT
  5
324
330
4D0
100
AcDbEntity
  8
Level 1
  6
Continuous
 62
     7
370
    13
100
AcDbText
 10
131.373302
 20
9.51344
 30
0.0
 40
0.09
  1
APPROACH PANEL
  7
Style-Arial
 11
131.373302
 21
9.55844
 31
0.0
100
AcDbText
 73
     2
  0
TEXT
  5
325
330
4D0
100
AcDbEntity
  8
Level 1
  6
Continuous
 62
     7
370
    13
100
AcDbText
 10
133.327594
 20
9.498252
 30
0.0
 40
0.09
  1
APPROACH PANEL
  7
Style-Arial
 11
133.327594
 21
9.543252
 31
0.0
100
AcDbText
 73
     2
  0
TEXT
  5
326
330
4D0
100
AcDbEntity
  8
Level 1
  6
Continuous
 62
     7
370
    13
100
AcDbText
 10
131.373302
 20
7.717919
 30
0.0
 40
0.09
  1
APPROACH PANEL
  7
Style-Arial
 11
131.373302
 21
7.762919
 31
0.0
100
AcDbText
 73
     2
  0
TEXT
  5
327
330
4D0
100
AcDbEntity
  8
Level 1
  6
Continuous
 62
     7
370
    13
100
AcDbText
 10
133.32
 20
7.728273
 30
0.0
 40
0.09
  1
APPROACH PANEL
  7
Style-Arial
 11
133.32
 21
7.773273
 31
0.0
100
AcDbText
 73
     2
  0
TEXT
  5
328
330
4D0
100
AcDbEntity
  8
Level 1
  6
Continuous
 62
     7
370
    13
100
AcDbText
 10
131.201406
 20
6.157107
 30
0.0
 40
0.09
  1
CONCRETE
  7
Style-Arial
 11
131.201406
 21
6.202107
 31
0.0
100
AcDbText
 73
     2
  0
TEXT
  5
329
330
4D0
100
AcDbEntity
  8
Level 1
  6
Continuous
 62
     7
370
    13
100
AcDbText
 10
129.800334
 20
6.165388
 30
0.0
 40
0.09
  1
CONCRETE
  7
Style-Arial
 11
129.800334
 21
6.210388
 31
0.0
100
AcDbText
 73
     2
  0
TEXT
  5
32A
330
4D0
100
AcDbEntity
  8
Level 1
  6
Continuous
 62
     7
370
    13
100
AcDbText
 10
133.313781
 20
4.677752
 30
0.0
 40
0.09
  1
GAUGE PANEL
  7
Style-Arial
 11
133.313781
 21
4.722752
 31
0.0
100
AcDbText
 73
     2
  0
TEXT
  5
32D
330
4D0
100
AcDbEntity
  8
Level 1
  6
Continuous
 62
     7
370
    13
100
AcDbText
 10
132.357
 20
4.321544
 30
0.0
 40
0.09
  1
CONCRETE
  7
Style-Arial
 11
132.357
 21
4.366544
 31
0.0
100
AcDbText
 73
     2
  0
TEXT
  5
32E
330
4D0
100
AcDbEntity
  8
Level 1
  6
Continuous
 62
     7
370
    13
100
AcDbText
 10
129.864958
 20
5.020148
 30
0.0
 40
0.09
  1
SAWCUT EXISTING
  7
Style-Arial
 11
129.864958
 21
5.065148
 31
0.0
100
AcDbText
 73
     2
  0
TEXT
  5
32F
330
4D0
100
AcDbEntity
  8
Level 1
  6
Continuous
 62
     7
370
    13
100
AcDbText
 10
129.863573
 20
4.861377
 30
0.0
 40
0.09
  1
PAVEMENT JOINT
  7
Style-Arial
 11
129.863573
 21
4.906377
 31
0.0
100
AcDbText
 73
     2
  0
TEXT
  5
330
330
4D0
100
AcDbEntity
  8
Level 1
  6
Continuous
 62
     7
370
    13
100
AcDbText
 10
129.84701
 20
4.717794
 30
0.0
 40
0.09
  1
TO BE SEALED
  7
Style-Arial
 11
129.84701
 21
4.762794
 31
0.0
100
AcDbText
 73
     2
  0
TEXT
  5
331
330
4D0
100
AcDbEntity
  8
Level 1
  6
Continuous
 62
     7
370
    13
100
AcDbText
 10
129.850458
 20
4.327075
 30
0.0
 40
0.09
  1
EXISTING PAVEMENT
  7
Style-Arial
 11
129.850458
 21
4.372075
 31
0.0
100
AcDbText
 73
     2
  0
TEXT
  5
38E
330
4D0
100
AcDbEntity
  8
Level 1
  6
Continuous
 62
     7
370
    13
100
AcDbText
 10
133.70292
 20
3.55806
 30
0.0
 40
0.09
  1
2% TYP.
 50
356.7242
  7
Style-Arial
 11
133.705492
 21
3.602987
 31
0.0
100
AcDbText
 73
     2
  0
TEXT
  5
392
330
4D0
100
AcDbEntity
  8
Level 1
  6
Continuous
 62
     7
370
    13
100
AcDbText
 10
131.99478
 20
3.516643
 30
0.0
 40
0.09
  1
2% TYP.
 50
3.1425
  7
Style-Arial
 11
131.992313
 21
3.561576
 31
0.0
100
AcDbText
 73
     2
  0
TEXT
  5
393
330
4D0
100
AcDbEntity
  8
Level 1
  6
Continuous
 62
     7
370
    13
100
AcDbText
 10
132.676954
 20
3.403391
 30
0.0
 40
0.09
  1
SUBGRADE
  7
Style-Arial
 11
132.676954
 21
3.448391
 31
0.0
100
AcDbText
 73
     2
  0
TEXT
  5
394
330
4D0
100
AcDbEntity
  8
Level 1
  6
Continuous
 62
     7
370
    13
100
AcDbText
 10
134.25676
 20
6.360055
 30
0.0
 40
0.09
  1
CONCRETE
  7
Style-Arial
 11
134.25676
 21
6.405055
 31
0.0
100
AcDbText
 73
     2
  0
TEXT
  5
39D
330
4D0
100
AcDbEntity
  8
Level 1
  6
Continuous
 62
     7
370
    13
100
AcDbText
 10
135.029229
 20
5.477836
 30
0.0
 40
0.09
  1
(TYPICAL)
  7
Style-Arial
 11
135.029229
 21
5.522836
 31
0.0
100
AcDbText
 73
     2
  0
TEXT
  5
3A0
330
4D0
100
AcDbEntity
  8
Level 1
  6
Continuous
 62
     7
370
    13
100
AcDbText
 10
131.624573
 20
3.84799
 30
0.0
 40
0.09
  1
V
  7
Style-Arial
 11
131.624573
 21
3.89299
 31
0.0
100
AcDbText
 73
     2
  0
TEXT
  5
3A3
330
4D0
100
AcDbEntity
  8
Level 1
  6
Continuous
 62
     7
370
    13
100
AcDbText
 10
131.247667
 20
4.11376
 30
0.0
 40
0.09
  1
V
  7
Style-Arial
 11
131.247667
 21
4.15876
 31
0.0
100
AcDbText
 73
     2
  0
TEXT
  5
3A5
330
4D0
100
AcDbEntity
  8
Level 1
  6
Continuous
 62
     7
370
    13
100
AcDbText
 10
131.442333
 20
4.13999
 30
0.0
 40
0.09
  1
V
  7
Style-Arial
 11
131.442333
 21
4.18499
 31
0.0
100
AcDbText
 73
     2
  0
TEXT
  5
3A7
330
4D0
100
AcDbEntity
  8
Level 1
  6
Continuous
 62
     7
370
    13
100
AcDbText
 10
131.358115
 20
4.006073
 30
0.0
 40
0.09
  1
V
  7
Style-Arial
 11
131.358115
 21
4.051073
 31
0.0
100
AcDbText
 73
     2
  0
TEXT
  5
3A9
330
4D0
100
AcDbEntity
  8
Level 1
  6
Continuous
 62
     7
370
    13
100
AcDbText
 10
131.322219
 20
3.8045
 30
0.0
 40
0.09
  1
V
  7
Style-Arial
 11
131.322219
 21
3.8495
 31
0.0
100
AcDbText
 73
     2
  0
TEXT
  5
3AB
330
4D0
100
AcDbEntity
  8
Level 1
  6
Continuous
 62
     7
370
    13
100
AcDbText
 10
131.489271
 20
3.907354
 30
0.0
 40
0.09
  1
V
  7
Style-Arial
 11
131.489271
 21
3.952354
 31
0.0
100
AcDbText
 73
     2
  0
TEXT
  5
3AC
330
4D0
100
AcDbEntity
  8
Level 1
  6
Continuous
 62
     7
370
    13
100
AcDbText
 10
131.438187
 20
3.74099
 30
0.0
 40
0.09
  1
V
  7
Style-Arial
 11
131.438187
 21
3.78599
 31
0.0
100
AcDbText
 73
     2
  0
TEXT
  5
3AF
330
4D0
100
AcDbEntity
  8
Level 1
  6
Continuous
 62
     7
370
    13
100
AcDbText
 10
131.233167
 20
3.723467
 30
0.0
 40
0.09
  1
V
  7
Style-Arial
 11
131.233167
 21
3.768467
 31
0.0
100
AcDbText
 73
     2
  0
TEXT
  5
3B1
330
4D0
100
AcDbEntity
  8
Level 1
  6
Continuous
 62
     7
370
    13
100
AcDbText
 10
134.646792
 20
4.119979
 30
0.0
 40
0.09
  1
V
  7
Style-Arial
 11
134.646792
 21
4.164979
 31
0.0
100
AcDbText
 73
     2
  0
TEXT
  5
3B2
330
4D0
100
AcDbEntity
  8
Level 1
  6
Continuous
 62
     7
370
    13
100
AcDbText
 10
134.50251
 20
4.082698
 30
0.0
 40
0.09
  1
V
  7
Style-Arial
 11
134.50251
 21
4.127698
 31
0.0
100
AcDbText
 73
     2
  0
TEXT
  5
3B4
330
4D0
100
AcDbEntity
  8
Level 1
  6
Continuous
 62
     7
370
    13
100
AcDbText
 10
134.650937
 20
3.961198
 30
0.0
 40
0.09
  1
V
  7
Style-Arial
 11
134.650937
 21
4.006198
 31
0.0
100
AcDbText
 73
     2
  0
TEXT
  5
3B7
330
4D0
100
AcDbEntity
  8
Level 1
  6
Continuous
 62
     7
370
    13
100
AcDbText
 10
134.522531
 20
3.905281
 30
0.0
 40
0.09
  1
V
  7
Style-Arial
 11
134.522531
 21
3.950281
 31
0.0
100
AcDbText
 73
     2
  0
TEXT
  5
3B8
330
4D0
100
AcDbEntity
  8
Level 1
  6
Continuous
 62
     7
370
    13
100
AcDbText
 10
134.59226
 20
3.805885
 30
0.0
 40
0.09
  1
V
  7
Style-Arial
 11
134.59226
 21
3.850885
 31
0.0
100
AcDbText
 73
     2
  0
TEXT
  5
3BB
330
4D0
100
AcDbEntity
  8
Level 1
  6
Continuous
 62
     7
370
    13
100
AcDbText
 10
134.657833
 20
3.708542
 30
0.0
 40
0.09
  1
V
  7
Style-Arial
 11
134.657833
 21
3.753542
 31
0.0
100
AcDbText
 73
     2
  0
TEXT
  5
3BD
330
4D0
100
AcDbEntity
  8
Level 1
  6
Continuous
 62
     7
370
    13
100
AcDbText
 10
134.45074
 20
3.735818
 30
0.0
 40
0.09
  1
V
  7
Style-Arial
 11
134.45074
 21
3.780818
 31
0.0
100
AcDbText
 73
     2
  0
TEXT
  5
3BE
330
4D0
100
AcDbEntity
  8
Level 1
  6
Continuous
 62
     7
370
    13
100
AcDbText
 10
134.904969
 20
4.329138
 30
0.0
 40
0.09
  1
EXISTING PAVEMENT
  7
Style-Arial
 11
134.904969
 21
4.374138
 31
0.0
100
AcDbText
 73
     2
  0
TEXT
  5
3D2
330
4D0
100
AcDbEntity
  8
Level 1
  6
Continuous
 62
     7
370
    13
100
AcDbText
 10
134.603302
 20
4.684659
 30
0.0
 40
0.09
  1
LAG BOLT
  7
Style-Arial
 11
134.603302
 21
4.729659
 31
0.0
100
AcDbText
 73
     2
  0
TEXT
  5
3DB
330
4D0
100
AcDbEntity
  8
Level 1
  6
Continuous
 62
     7
370
    13
100
AcDbText
 10
133.105312
 20
4.325002
 30
0.0
 40
0.09
  1
PANEL
  7
Style-Arial
 11
133.105312
 21
4.370002
 31
0.0
100
AcDbText
 73
     2
  0
TEXT
  5
3DC
330
4D0
100
AcDbEntity
  8
Level 1
  6
Continuous
 62
     7
370
    13
100
AcDbText
 10
132.136042
 20
4.145179
 30
0.0
 40
0.09
  1
TIE  2
  7
Style-Arial
 11
132.136042
 21
4.190179
 31
0.0
100
AcDbText
 73
     2
  0
TEXT
  5
3DD
330
4D0
100
AcDbEntity
  8
Level 1
  6
Continuous
 62
     7
370
    13
100
AcDbText
 10
131.988438
 20
3.899075
 30
0.0
 40
0.09
  1
BALLAST  1
  7
Style-Arial
 11
131.988438
 21
3.944075
 31
0.0
100
AcDbText
 73
     2
  0
TEXT
  5
3EF
330
4D0
100
AcDbEntity
  8
Level 1
  6
Continuous
 62
     7
370
    13
100
AcDbText
 10
130.806174
 20
5.25969
 30
0.0
 40
0.09
  1
3
  7
Style-Arial
 11
130.806174
 21
5.30469
 31
0.0
100
AcDbText
 73
     2
  0
TEXT
  5
431
330
4D0
100
AcDbEntity
  8
Level 1
  6
Continuous
 62
     7
370
    13
100
AcDbText
 10
130.112083
 20
10.156815
 30
0.0
 40
0.09
  1
REPLACEMENT PAVEMENT
  7
Style-Arial
 11
130.112083
 21
10.201815
 31
0.0
100
AcDbText
 73
     2
  0
TEXT
  5
434
330
4D0
100
AcDbEntity
  8
Level 1
  6
Continuous
 62
     7
370
    13
100
AcDbText
 10
133.046731
 20
3.91219
 30
0.0
 40
0.09
  1
10" MIN.
  7
Style-Arial
 11
133.046731
 21
3.95719
 31
0.0
100
AcDbText
 73
     2
  0
TEXT
  5
435
330
4D0
100
AcDbEntity
  8
Level 1
  6
Continuous
 62
     7
370
    13
100
AcDbText
 10
132.156125
 20
5.958294
 30
0.0
 40
0.09
  1
ASPHALT FILLER
  7
Style-Arial
 11
132.156125
 21
6.003294
 31
0.0
100
AcDbText
 73
     2
  0
TEXT
  5
462
330
4D0
100
AcDbEntity
  8
Level 1
  6
Continuous
 62
     7
370
    13
100
AcDbText
 10
131.411271
 20
8.716115
 30
0.0
 40
0.09
  1
GAUGE PANEL
  7
Style-Arial
 11
131.411271
 21
8.761115
 31
0.0
100
AcDbText
 73
     2
  0
TEXT
  5
463
330
4D0
100
AcDbEntity
  8
Level 1
  6
Continuous
 62
     7
370
    13
100
AcDbText
 10
133.36625
 20
8.724396
 30
0.0
 40
0.09
  1
GAUGE PANEL
  7
Style-Arial
 11
133.36625
 21
8.769396
 31
0.0
100
AcDbText
 73
     2
  0
TEXT
  5
464
330
4D0
100
AcDbEntity
  8
Level 1
  6
Continuous
 62
     7
370
    13
100
AcDbText
 10
132.612812
 20
2.294397
 30
0.0
 40
0.09
  1
CIRCLED NUMBERS REFER TO GENERAL NOTES, FIGURE 2-36u.
  7
Style-Arial
 11
132.612812
 21
2.339397
 31
0.0
100
AcDbText
 73
     2
  0
MTEXT
  5
465
330
4D0
100
AcDbEntity
  8
Level 1
  6
Continuous
 62
     7
370
    13
100
AcDbMText
 10
132.61499
 20
1.968043
 30
0.0
 40
0.09
 41
0.0
 71
     4
 72
     1
  1
RECONSTRUCT SUBGRADE AND INSTALL SUBDRAINS,\PDITCHING, AND/OR GEOTEXTILES AS REQUIRED.\PSEE FIGURE 2-36s FOR DETAILS.\P
  7
Style-Arial
 73
     2
 44
0.779643
  0
LINE
  5
4B9
330
4D0
100
AcDbEntity
  8
Level 1
  6
Continuous
 62
     7
370
    13
100
AcDbLine
 10
132.277853
 20
2.490272
 30
0.0
 11
132.889907
 21
2.490272
 31
0.0
  0
TEXT
  5
45F
330
4D0
100
AcDbEntity
  8
Level 1
  6
Continuous
 62
     7
370
    13
100
AcDbText
 10
130.023681
 20
1.434569
 30
0.0
 40
0.1125
  1
TYPE 4A - RAILROAD-HIGHWAY GRADE CROSSING
  7
Style-Arial
 11
130.023681
 21
1.490819
 31
0.0
100
AcDbText
 73
     2
  0
TEXT
  5
6E
330
4D0
100
AcDbEntity
  8
Level 1
  6
Continuous
 62
     7
370
    13
100
AcDbText
 10
129.980339
 20
1.292312
 30
0.0
 40
0.1125
  1
PREMANUFACTURED PRECAST CONCRETE PANELS
  7
Style-Arial
 11
129.980339
 21
1.348562
 31
0.0
100
AcDbText
 73
     2
  0
TEXT
  5
65
330
4D0
100
AcDbEntity
  8
Level 1
  6
Continuous
 62
     7
370
    13
100
AcDbText
 10
134.725969
 20
1.432785
 30
0.0
 40
0.1125
  1
DATE
  7
Style-Arial
 11
134.725969
 21
1.489035
 31
0.0
100
AcDbText
 73
     2
  0
TEXT
  5
66
330
4D0
100
AcDbEntity
  8
Level 1
  6
Continuous
 62
     7
370
    13
100
AcDbText
 10
134.578865
 20
1.257282
 30
0.0
 40
0.1125
  1
AUG 1990
  7
Style-Arial
 11
134.578865
 21
1.313532
 31
0.0
100
AcDbText
 73
     2
  0
TEXT
  5
460
330
4D0
100
AcDbEntity
  8
Level 1
  6
Continuous
 62
     7
370
    13
100
AcDbText
 10
135.83914
 20
1.455517
 30
0.0
 40
0.1125
  1
FIGURE
  7
Style-Arial
 11
135.83914
 21
1.511767
 31
0.0
100
AcDbText
 73
     2
  0
TEXT
  5
461
330
4D0
100
AcDbEntity
  8
Level 1
  6
Continuous
 62
     7
370
    13
100
AcDbText
 10
135.935845
 20
1.260452
 30
0.0
 40
0.1125
  1
2-36p
  7
Style-Arial
 11
135.935845
 21
1.316702
 31
0.0
100
AcDbText
 73
     2
  0
TEXT
  5
64
330
4D0
100
AcDbEntity
  8
Level 1
  6
Continuous
 62
     7
370
    13
100
AcDbText
 10
132.296713
 20
2.527491
 30
0.0
 40
0.1125
  1
NOTES:
  7
Style-Arial
 11
132.296713
 21
2.583741
 31
0.0
100
AcDbText
 73
     2
  0
TEXT
  5
63
330
4D0
100
AcDbEntity
  8
Level 1
  6
Continuous
 62
     7
370
    13
100
AcDbText
 10
129.654942
 20
2.624333
 30
0.0
 40
0.1125
  1
DRAWING NOT TO SCALE
  7
Style-Arial
 11
129.654942
 21
2.680583
 31
0.0
100
AcDbText
 73
     2
  0
TEXT
  5
39E
330
4D0
100
AcDbEntity
  8
Level 1
  6
Continuous
 62
     7
370
    13
100
AcDbText
 10
132.682343
 20
3.059232
 30
0.0
 40
0.1125
  1
SECTION
  7
Style-Arial
 11
132.682343
 21
3.115482
 31
0.0
100
AcDbText
 73
     2
  0
TEXT
  5
399
330
4D0
100
AcDbEntity
  8
Level 1
  6
Continuous
 62
     7
370
    13
100
AcDbText
 10
132.542873
 20
6.554219
 30
0.0
 40
0.1125
  1
PLAN
  7
Style-Arial
 11
132.542873
 21
6.610469
 31
0.0
100
AcDbText
 73
     2
  0
TEXT
  5
39B
330
4D0
100
AcDbEntity
  8
Level 1
  6
Continuous
 62
     7
370
    13
100
AcDbText
 10
134.522248
 20
5.689346
 30
0.0
 40
0.1125
  1
END PANEL TYPICAL
  7
Style-Arial
 11
134.522248
 21
5.745596
 31
0.0
100
AcDbText
 73
     2
  0
TEXT
  5
3EC
330
4D0
100
AcDbEntity
  8
Level 1
  6
Continuous
 62
     7
370
    13
100
AcDbText
 10
130.015316
 20
5.483357
 30
0.0
 40
0.1125
  1
TYPICAL FLANGEWAY
  7
Style-Arial
 11
130.015316
 21
5.539607
 31
0.0
100
AcDbText
 73
     2
  0
LINE
  5
4BA
330
4D0
100
AcDbEntity
  8
Level 1
  6
Continuous
 62
     7
370
    13
100
AcDbLine
 10
132.98174
 20
4.311453
 30
0.0
 11
132.98174
 21
4.18499
 31
0.0
  0
LWPOLYLINE
  5
4BB
330
4D0
100
AcDbEntity
  8
Level 1
  6
Continuous
 62
     7
370
    13
100
AcDbPolyline
 90
        3
 70
   128
 43
0.0
 10
133.012812
 20
4.310089
 10
133.012812
 20
4.18499
 10
132.98174
 20
4.18499
  0
LWPOLYLINE
  5
25F
330
4D0
100
AcDbEntity
  8
Level 1
  6
Continuous
 62
     7
370
    13
100
AcDbPolyline
 90
        2
 70
   128
 43
0.0
 10
133.012812
 20
4.483208
 10
133.012812
 20
4.416467
  0
TEXT
  5
244
330
4D0
100
AcDbEntity
  8
Level 1
  6
Continuous
 62
     7
370
    13
100
AcDbText
 10
130.315729
 20
5.715305
 30
0.0
 40
0.09
  1
CROSS TIE
  7
Style-Arial
 11
130.315729
 21
5.760305
 31
0.0
100
AcDbText
 73
     2
  0
ENDSEC
  0
SECTION
  2
OBJECTS
  0
DICTIONARY
  5
4C4
330
0
100
AcDbDictionary
281
     1
  3
ACAD_COLOR
350
4E3
  3
ACAD_GROUP
350
4E0
  3
ACAD_LAYOUT
350
4D4
  3
ACAD_MATERIAL
350
4E2
  3
ACAD_MLINESTYLE
350
4CE
  3
ACAD_PLOTSETTINGS
350
4E1
  3
ACAD_PLOTSTYLENAME
350
4C3
  3
ACAD_TABLESTYLE
350
4F7
  3
AcadDim
350
4F0
  3
MicroStation
350
4E8
  0
DICTIONARY
  5
4C0
330
4BF
100
AcDbDictionary
280
     1
281
     1
  3
ACAD_LAYERFILTERS
360
4E7
  3
ACAD_LAYERSTATES
360
4C1
  0
DICTIONARY
  5
4F3
330
4D0
100
AcDbDictionary
280
     1
281
     1
  3
ACAD_SORTENTS
360
4F4
  0
DICTIONARY
  5
4E3
102
{ACAD_REACTORS
330
4C4
102
}
330
4C4
100
AcDbDictionary
281
     1
  0
DICTIONARY
  5
4E0
102
{ACAD_REACTORS
330
4C4
102
}
330
4C4
100
AcDbDictionary
281
     1
  0
DICTIONARY
  5
4D4
102
{ACAD_REACTORS
330
4C4
102
}
330
4C4
100
AcDbDictionary
281
     1
  3
Layout1
350
4D8
  3
Model
350
4D3
  0
DICTIONARY
  5
4E2
102
{ACAD_REACTORS
330
4C4
102
}
330
4C4
100
AcDbDictionary
281
     1
  0
DICTIONARY
  5
4CE
102
{ACAD_REACTORS
330
4C4
102
}
330
4C4
100
AcDbDictionary
281
     1
  3
Standard
350
4CD
  0
DICTIONARY
  5
4E1
102
{ACAD_REACTORS
330
4C4
102
}
330
4C4
100
AcDbDictionary
281
     1
  0
ACDBDICTIONARYWDFLT
  5
4C3
102
{ACAD_REACTORS
330
4C4
102
}
330
4C4
100
AcDbDictionary
281
     1
  3
Normal
350
4C2
100
AcDbDictionaryWithDefault
340
4C2
  0
DICTIONARY
  5
4F7
102
{ACAD_REACTORS
330
4C4
102
}
330
4C4
100
AcDbDictionary
281
     1
  0
XRECORD
  5
4F0
102
{ACAD_REACTORS
330
4C4
102
}
330
4C4
100
AcDbXrecord
280
     1
 90
   990106
  3
 
 60
     0
 61
     0
 62
     1
 63
     1
 64
     0
 65
     0
 66
     0
 67
     3
 68
     1
 69
     1
 70
     0
 71
     0
 72
     0
 40
0.0
170
     0
  0
DICTIONARY
  5
4E8
102
{ACAD_REACTORS
330
4C4
102
}
330
4C4
100
AcDbDictionary
281
     1
  3
ApplicationElement 1203
350
4B3
  3
ApplicationElement 1212
350
4BC
  3
ModelApplicationElement 0 1202
350
4B2
  0
DICTIONARY
  5
4E7
102
{ACAD_REACTORS
330
4C0
102
}
330
4C0
100
AcDbDictionary
281
     1
  0
DICTIONARY
  5
4C1
102
{ACAD_REACTORS
330
4C0
102
}
330
4C0
100
AcDbDictionary
281
     1
  0
SORTENTSTABLE
  5
4F4
102
{ACAD_REACTORS
330
4F3
102
}
330
4F3
100
AcDbSortentsTable
330
4D0
331
63
  5
460
331
64
  5
45F
331
65
  5
45B
331
66
  5
45C
331
67
  5
63
331
68
  5
64
331
69
  5
65
331
6A
  5
66
331
6B
  5
67
331
6C
  5
405
331
6D
  5
406
331
6E
  5
45A
331
6F
  5
68
331
70
  5
69
331
71
  5
6A
331
72
  5
6B
331
73
  5
6C
331
74
  5
6D
331
75
  5
6E
331
76
  5
6F
331
77
  5
70
331
78
  5
71
331
79
  5
72
331
7A
  5
407
331
7B
  5
408
331
7C
  5
409
331
7D
  5
40A
331
7E
  5
73
331
7F
  5
74
331
80
  5
75
331
81
  5
76
331
82
  5
77
331
83
  5
78
331
84
  5
79
331
85
  5
7A
331
86
  5
7B
331
87
  5
7C
331
88
  5
40B
331
89
  5
40C
331
8A
  5
40D
331
8B
  5
40E
331
8C
  5
7D
331
8D
  5
7E
331
8E
  5
7F
331
8F
  5
80
331
90
  5
81
331
91
  5
82
331
92
  5
83
331
93
  5
84
331
94
  5
85
331
95
  5
86
331
96
  5
87
331
97
  5
88
331
98
  5
40F
331
99
  5
410
331
9A
  5
411
331
9B
  5
412
331
9C
  5
89
331
9D
  5
8A
331
9E
  5
8B
331
9F
  5
8C
331
A0
  5
8D
331
A1
  5
8E
331
A2
  5
8F
331
A3
  5
90
331
A4
  5
91
331
A5
  5
92
331
A6
  5
93
331
A7
  5
94
331
A8
  5
95
331
A9
  5
96
331
AA
  5
97
331
AB
  5
98
331
AC
  5
99
331
AD
  5
9A
331
AE
  5
9B
331
AF
  5
9C
331
B0
  5
9D
331
B1
  5
9E
331
B2
  5
9F
331
B3
  5
A0
331
B4
  5
A1
331
B5
  5
A2
331
B6
  5
A3
331
B7
  5
A4
331
B8
  5
A5
331
B9
  5
A6
331
BA
  5
A7
331
BB
  5
A8
331
BC
  5
A9
331
BD
  5
AA
331
BE
  5
AB
331
BF
  5
AC
331
C0
  5
AD
331
C1
  5
AE
331
C2
  5
AF
331
C3
  5
B0
331
C4
  5
B1
331
C5
  5
B2
331
C6
  5
B3
331
C7
  5
B4
331
C8
  5
B5
331
C9
  5
B6
331
CA
  5
B7
331
CB
  5
B8
331
CC
  5
B9
331
CD
  5
BA
331
CE
  5
BB
331
CF
  5
BC
331
D0
  5
BD
331
D1
  5
BE
331
D2
  5
BF
331
D3
  5
C0
331
D4
  5
C1
331
D5
  5
C2
331
D6
  5
C3
331
D7
  5
C4
331
D8
  5
C5
331
D9
  5
C6
331
DA
  5
C7
331
DB
  5
C8
331
DC
  5
C9
331
DD
  5
CA
331
DE
  5
CB
331
DF
  5
CC
331
E0
  5
CD
331
E1
  5
CE
331
E2
  5
CF
331
E3
  5
D0
331
E4
  5
D1
331
E5
  5
D2
331
E6
  5
D3
331
E7
  5
D4
331
E8
  5
D5
331
E9
  5
D6
331
EA
  5
D7
331
EB
  5
D8
331
EC
  5
D9
331
ED
  5
DA
331
EE
  5
DB
331
EF
  5
DC
331
F0
  5
DD
331
F1
  5
DE
331
F2
  5
DF
331
F3
  5
E0
331
F4
  5
E1
331
F5
  5
E2
331
F6
  5
E3
331
F7
  5
E4
331
F8
  5
E5
331
F9
  5
E6
331
FA
  5
E7
331
FB
  5
E8
331
FC
  5
E9
331
FD
  5
EA
331
FE
  5
EB
331
FF
  5
EC
331
100
  5
ED
331
101
  5
EE
331
102
  5
EF
331
103
  5
F0
331
104
  5
F1
331
105
  5
F2
331
106
  5
F3
331
107
  5
F4
331
108
  5
F5
331
109
  5
F6
331
10A
  5
F7
331
10B
  5
F8
331
10C
  5
F9
331
10D
  5
FA
331
10E
  5
FB
331
10F
  5
FC
331
110
  5
FD
331
111
  5
FE
331
112
  5
FF
331
113
  5
100
331
114
  5
101
331
115
  5
102
331
116
  5
103
331
117
  5
104
331
118
  5
105
331
119
  5
106
331
11A
  5
107
331
11B
  5
108
331
11C
  5
109
331
11D
  5
10A
331
11E
  5
10B
331
11F
  5
10C
331
120
  5
10D
331
121
  5
10E
331
122
  5
10F
331
123
  5
110
331
124
  5
111
331
125
  5
112
331
126
  5
113
331
127
  5
114
331
128
  5
115
331
129
  5
116
331
12A
  5
117
331
12B
  5
118
331
12C
  5
119
331
12D
  5
11A
331
12E
  5
11B
331
12F
  5
11C
331
130
  5
11D
331
131
  5
11E
331
132
  5
11F
331
133
  5
120
331
134
  5
121
331
135
  5
122
331
136
  5
123
331
137
  5
124
331
138
  5
125
331
139
  5
126
331
13A
  5
127
331
13B
  5
128
331
13C
  5
129
331
13D
  5
12A
331
13E
  5
12B
331
13F
  5
12C
331
140
  5
12D
331
141
  5
12E
331
142
  5
12F
331
143
  5
130
331
144
  5
131
331
145
  5
132
331
146
  5
133
331
147
  5
134
331
148
  5
135
331
149
  5
136
331
14A
  5
137
331
14B
  5
138
331
14C
  5
139
331
14D
  5
13A
331
14E
  5
13B
331
14F
  5
13C
331
150
  5
13D
331
151
  5
13E
331
152
  5
13F
331
153
  5
140
331
154
  5
141
331
155
  5
142
331
156
  5
143
331
157
  5
144
331
158
  5
145
331
159
  5
146
331
15A
  5
147
331
15B
  5
148
331
15C
  5
149
331
15D
  5
14A
331
15E
  5
14B
331
15F
  5
14C
331
160
  5
14D
331
161
  5
14E
331
162
  5
14F
331
163
  5
150
331
164
  5
151
331
165
  5
152
331
166
  5
153
331
167
  5
154
331
168
  5
155
331
169
  5
156
331
16A
  5
157
331
16B
  5
158
331
16C
  5
159
331
16D
  5
15A
331
16E
  5
15B
331
16F
  5
15C
331
170
  5
15D
331
171
  5
15E
331
172
  5
15F
331
173
  5
160
331
174
  5
161
331
175
  5
162
331
176
  5
163
331
177
  5
164
331
178
  5
165
331
179
  5
166
331
17A
  5
167
331
17B
  5
168
331
17C
  5
169
331
17D
  5
16A
331
17E
  5
16B
331
17F
  5
16C
331
180
  5
16D
331
181
  5
16E
331
182
  5
16F
331
183
  5
170
331
184
  5
171
331
185
  5
172
331
186
  5
173
331
187
  5
174
331
188
  5
175
331
189
  5
176
331
18A
  5
177
331
18B
  5
178
331
18C
  5
179
331
18D
  5
17A
331
18E
  5
17B
331
18F
  5
17C
331
190
  5
17D
331
191
  5
17E
331
192
  5
17F
331
193
  5
180
331
194
  5
181
331
195
  5
182
331
196
  5
183
331
197
  5
184
331
198
  5
185
331
199
  5
186
331
19A
  5
187
331
19B
  5
188
331
19C
  5
189
331
19D
  5
18A
331
19E
  5
18B
331
19F
  5
18C
331
1A0
  5
18D
331
1A1
  5
18E
331
1A2
  5
18F
331
1A3
  5
190
331
1A4
  5
191
331
1A5
  5
192
331
1A6
  5
193
331
1A7
  5
194
331
1A8
  5
195
331
1A9
  5
196
331
1AA
  5
197
331
1AB
  5
198
331
1AC
  5
199
331
1AD
  5
19A
331
1AE
  5
19B
331
1AF
  5
19C
331
1B0
  5
19D
331
1B1
  5
19E
331
1B2
  5
19F
331
1B3
  5
1A0
331
1B4
  5
1A1
331
1B5
  5
1A2
331
1B6
  5
1A3
331
1B7
  5
1A4
331
1B8
  5
1A5
331
1B9
  5
1A6
331
1BA
  5
1A7
331
1BB
  5
1A8
331
1BC
  5
1A9
331
1BD
  5
1AA
331
1BE
  5
1AB
331
1BF
  5
1AC
331
1C0
  5
1AD
331
1C1
  5
1AE
331
1C2
  5
1AF
331
1C3
  5
1B0
331
1C4
  5
1B1
331
1C5
  5
1B2
331
1C6
  5
1B3
331
1C7
  5
1B4
331
1C8
  5
1B5
331
1C9
  5
1B6
331
1CA
  5
1B7
331
1CB
  5
1B8
331
1CC
  5
1B9
331
1CD
  5
1BA
331
1CE
  5
1BB
331
1CF
  5
1BC
331
1D0
  5
1BD
331
1D1
  5
1BE
331
1D2
  5
1BF
331
1D3
  5
1C0
331
1D4
  5
1C1
331
1D5
  5
1C2
331
1D6
  5
1C3
331
1D7
  5
1C4
331
1D8
  5
1C5
331
1D9
  5
1C6
331
1DA
  5
1C7
331
1DB
  5
1C8
331
1DC
  5
1C9
331
1DD
  5
1CA
331
1DE
  5
1CB
331
1DF
  5
1CC
331
1E0
  5
1CD
331
1E1
  5
1CE
331
1E2
  5
1CF
331
1E3
  5
1D0
331
1E4
  5
1D1
331
1E5
  5
1D2
331
1E6
  5
1D3
331
1E7
  5
1D4
331
1E8
  5
1D5
331
1E9
  5
1D6
331
1EA
  5
1D7
331
1EB
  5
1D8
331
1EC
  5
1D9
331
1ED
  5
1DA
331
1EE
  5
1DB
331
1EF
  5
1DC
331
1F0
  5
1DD
331
1F1
  5
1DE
331
1F2
  5
1DF
331
1F3
  5
1E0
331
1F4
  5
1E1
331
1F5
  5
1E2
331
1F6
  5
1E3
331
1F7
  5
1E4
331
1F8
  5
1E5
331
1F9
  5
1E6
331
1FA
  5
1E7
331
1FB
  5
1E8
331
1FC
  5
1E9
331
1FD
  5
1EA
331
1FE
  5
1EB
331
1FF
  5
1EC
331
200
  5
1ED
331
201
  5
1EE
331
202
  5
1EF
331
203
  5
1F0
331
204
  5
1F1
331
205
  5
1F2
331
206
  5
1F3
331
207
  5
1F4
331
208
  5
1F5
331
209
  5
1F6
331
20A
  5
1F7
331
20B
  5
1F8
331
20C
  5
1F9
331
20D
  5
1FA
331
20E
  5
1FB
331
20F
  5
1FC
331
210
  5
1FD
331
211
  5
1FE
331
212
  5
1FF
331
213
  5
200
331
214
  5
201
331
215
  5
202
331
216
  5
203
331
217
  5
204
331
218
  5
205
331
219
  5
206
331
21A
  5
207
331
21B
  5
208
331
21C
  5
209
331
21D
  5
20A
331
21E
  5
20B
331
21F
  5
20C
331
220
  5
20D
331
221
  5
20E
331
222
  5
413
331
223
  5
414
331
224
  5
415
331
225
  5
416
331
226
  5
20F
331
227
  5
210
331
228
  5
211
331
229
  5
212
331
22A
  5
213
331
22B
  5
214
331
22C
  5
215
331
22D
  5
216
331
22E
  5
217
331
22F
  5
218
331
230
  5
219
331
231
  5
21A
331
232
  5
417
331
233
  5
21B
331
234
  5
21C
331
235
  5
21D
331
236
  5
21E
331
237
  5
21F
331
238
  5
220
331
239
  5
221
331
23A
  5
418
331
23B
  5
222
331
23C
  5
223
331
23D
  5
419
331
23E
  5
41A
331
23F
  5
41B
331
240
  5
41C
331
241
  5
224
331
242
  5
225
331
243
  5
41D
331
244
  5
4BB
331
245
  5
226
331
246
  5
227
331
247
  5
228
331
248
  5
229
331
249
  5
22A
331
24A
  5
22B
331
24B
  5
22C
331
24C
  5
22D
331
24D
  5
22E
331
24E
  5
22F
331
24F
  5
230
331
250
  5
231
331
251
  5
232
331
252
  5
233
331
253
  5
234
331
254
  5
235
331
255
  5
236
331
256
  5
237
331
257
  5
238
331
258
  5
239
331
259
  5
23A
331
25A
  5
23B
331
25B
  5
23C
331
25C
  5
23D
331
25D
  5
23E
331
25E
  5
23F
331
25F
  5
4BA
331
260
  5
240
331
261
  5
241
331
262
  5
242
331
263
  5
243
331
264
  5
244
331
265
  5
245
331
266
  5
246
331
267
  5
247
331
268
  5
248
331
269
  5
249
331
26A
  5
24A
331
26B
  5
24B
331
26C
  5
24C
331
26D
  5
24D
331
26E
  5
24E
331
26F
  5
24F
331
270
  5
250
331
271
  5
251
331
272
  5
252
331
273
  5
253
331
274
  5
254
331
275
  5
255
331
276
  5
256
331
277
  5
257
331
278
  5
258
331
279
  5
259
331
27A
  5
25A
331
27B
  5
25B
331
27C
  5
25C
331
27D
  5
25D
331
27E
  5
25E
331
27F
  5
25F
331
280
  5
260
331
281
  5
261
331
282
  5
262
331
283
  5
263
331
284
  5
264
331
285
  5
265
331
286
  5
266
331
287
  5
267
331
288
  5
268
331
289
  5
269
331
28A
  5
26A
331
28B
  5
26B
331
28C
  5
26C
331
28D
  5
26D
331
28E
  5
26E
331
28F
  5
26F
331
290
  5
270
331
291
  5
271
331
292
  5
272
331
293
  5
273
331
294
  5
274
331
295
  5
275
331
296
  5
276
331
297
  5
277
331
298
  5
278
331
299
  5
279
331
29A
  5
27A
331
29B
  5
27B
331
29C
  5
27C
331
29D
  5
27D
331
29E
  5
27E
331
29F
  5
27F
331
2A0
  5
280
331
2A1
  5
281
331
2A2
  5
282
331
2A3
  5
283
331
2A4
  5
284
331
2A5
  5
285
331
2A6
  5
286
331
2A7
  5
287
331
2A8
  5
288
331
2A9
  5
289
331
2AA
  5
28A
331
2AB
  5
28B
331
2AC
  5
28C
331
2AD
  5
28D
331
2AE
  5
28E
331
2AF
  5
28F
331
2B0
  5
290
331
2B1
  5
291
331
2B2
  5
41E
331
2B3
  5
41F
331
2B4
  5
292
331
2B5
  5
420
331
2B6
  5
293
331
2B7
  5
294
331
2B8
  5
295
331
2B9
  5
296
331
2BA
  5
297
331
2BB
  5
298
331
2BC
  5
299
331
2BD
  5
29A
331
2BE
  5
29B
331
2BF
  5
29C
331
2C0
  5
29D
331
2C1
  5
29E
331
2C2
  5
29F
331
2C3
  5
2A0
331
2C4
  5
2A1
331
2C5
  5
421
331
2C6
  5
422
331
2C7
  5
2A2
331
2C8
  5
2A3
331
2C9
  5
2A4
331
2CA
  5
2A5
331
2CB
  5
2A6
331
2CC
  5
2A7
331
2CD
  5
2A8
331
2CE
  5
2A9
331
2CF
  5
2AA
331
2D0
  5
2AB
331
2D1
  5
2AC
331
2D2
  5
2AD
331
2D3
  5
2AE
331
2D4
  5
2AF
331
2D5
  5
2B0
331
2D6
  5
2B1
331
2D7
  5
2B2
331
2D8
  5
2B3
331
2D9
  5
2B4
331
2DA
  5
2B5
331
2DB
  5
2B6
331
2DC
  5
2B7
331
2DD
  5
2B8
331
2DE
  5
2B9
331
2DF
  5
2BA
331
2E0
  5
2BB
331
2E1
  5
2BC
331
2E2
  5
2BD
331
2E3
  5
2BE
331
2E4
  5
2BF
331
2E5
  5
2C0
331
2E6
  5
2C1
331
2E7
  5
2C2
331
2E8
  5
2C3
331
2E9
  5
2C4
331
2EA
  5
2C5
331
2EB
  5
423
331
2EC
  5
424
331
2ED
  5
2C6
331
2EE
  5
2C7
331
2EF
  5
2C8
331
2F0
  5
2C9
331
2F1
  5
2CA
331
2F2
  5
2CB
331
2F3
  5
2CC
331
2F4
  5
2CD
331
2F5
  5
2CE
331
2F6
  5
2CF
331
2F7
  5
2D0
331
2F8
  5
2D1
331
2F9
  5
2D2
331
2FA
  5
2D3
331
2FB
  5
2D4
331
2FC
  5
2D5
331
2FD
  5
2D6
331
2FE
  5
2D7
331
2FF
  5
2D8
331
300
  5
2D9
331
301
  5
2DA
331
302
  5
2DB
331
303
  5
2DC
331
304
  5
2DD
331
305
  5
2DE
331
306
  5
2DF
331
307
  5
2E0
331
308
  5
2E1
331
309
  5
2E2
331
30A
  5
2E3
331
30B
  5
2E4
331
30C
  5
2E5
331
30D
  5
2E6
331
30E
  5
2E7
331
30F
  5
2E8
331
310
  5
2E9
331
311
  5
425
331
312
  5
2EA
331
313
  5
2EB
331
314
  5
2EC
331
315
  5
2ED
331
316
  5
2EE
331
317
  5
426
331
318
  5
427
331
319
  5
428
331
31A
  5
429
331
31B
  5
42A
331
31C
  5
2EF
331
31D
  5
2F0
331
31E
  5
2F1
331
31F
  5
2F2
331
320
  5
2F3
331
321
  5
2F4
331
322
  5
2F5
331
323
  5
2F6
331
324
  5
42B
331
325
  5
42C
331
326
  5
42D
331
327
  5
42E
331
328
  5
42F
331
329
  5
430
331
32A
  5
431
331
32B
  5
2F7
331
32C
  5
2F8
331
32D
  5
432
331
32E
  5
433
331
32F
  5
434
331
330
  5
435
331
331
  5
436
331
332
  5
2F9
331
333
  5
2FA
331
334
  5
2FB
331
335
  5
2FC
331
336
  5
2FD
331
337
  5
2FE
331
338
  5
2FF
331
339
  5
300
331
33A
  5
301
331
33B
  5
302
331
33C
  5
303
331
33D
  5
304
331
33E
  5
305
331
33F
  5
306
331
340
  5
307
331
341
  5
308
331
342
  5
309
331
343
  5
30A
331
344
  5
30B
331
345
  5
30C
331
346
  5
30D
331
347
  5
30E
331
348
  5
30F
331
349
  5
310
331
34A
  5
311
331
34B
  5
312
331
34C
  5
313
331
34D
  5
314
331
34E
  5
315
331
34F
  5
316
331
350
  5
317
331
351
  5
318
331
352
  5
319
331
353
  5
31A
331
354
  5
31B
331
355
  5
31C
331
356
  5
31D
331
357
  5
31E
331
358
  5
31F
331
359
  5
320
331
35A
  5
321
331
35B
  5
322
331
35C
  5
323
331
35D
  5
324
331
35E
  5
325
331
35F
  5
326
331
360
  5
327
331
361
  5
328
331
362
  5
329
331
363
  5
32A
331
364
  5
32B
331
365
  5
32C
331
366
  5
32D
331
367
  5
32E
331
368
  5
32F
331
369
  5
330
331
36A
  5
331
331
36B
  5
332
331
36C
  5
333
331
36D
  5
334
331
36E
  5
335
331
36F
  5
336
331
370
  5
337
331
371
  5
338
331
372
  5
339
331
373
  5
33A
331
374
  5
33B
331
375
  5
33C
331
376
  5
33D
331
377
  5
33E
331
378
  5
33F
331
379
  5
340
331
37A
  5
341
331
37B
  5
342
331
37C
  5
343
331
37D
  5
344
331
37E
  5
345
331
37F
  5
346
331
380
  5
347
331
381
  5
348
331
382
  5
349
331
383
  5
34A
331
384
  5
34B
331
385
  5
34C
331
386
  5
34D
331
387
  5
34E
331
388
  5
34F
331
389
  5
350
331
38A
  5
351
331
38B
  5
352
331
38C
  5
353
331
38D
  5
354
331
38E
  5
437
331
38F
  5
355
331
390
  5
356
331
391
  5
357
331
392
  5
438
331
393
  5
439
331
394
  5
43A
331
395
  5
358
331
396
  5
359
331
397
  5
35A
331
398
  5
35B
331
399
  5
462
331
39A
  5
35C
331
39B
  5
463
331
39C
  5
35D
331
39D
  5
43B
331
39E
  5
461
331
39F
  5
35E
331
3A0
  5
43C
331
3A1
  5
35F
331
3A2
  5
360
331
3A3
  5
43D
331
3A4
  5
361
331
3A5
  5
43E
331
3A6
  5
362
331
3A7
  5
43F
331
3A8
  5
363
331
3A9
  5
440
331
3AA
  5
364
331
3AB
  5
441
331
3AC
  5
442
331
3AD
  5
365
331
3AE
  5
366
331
3AF
  5
443
331
3B0
  5
367
331
3B1
  5
444
331
3B2
  5
445
331
3B3
  5
368
331
3B4
  5
446
331
3B5
  5
369
331
3B6
  5
36A
331
3B7
  5
447
331
3B8
  5
448
331
3B9
  5
36B
331
3BA
  5
36C
331
3BB
  5
449
331
3BC
  5
36D
331
3BD
  5
44A
331
3BE
  5
44B
331
3BF
  5
36E
331
3C0
  5
36F
331
3C1
  5
370
331
3C2
  5
371
331
3C3
  5
372
331
3C4
  5
373
331
3C5
  5
374
331
3C6
  5
375
331
3C7
  5
376
331
3C8
  5
377
331
3C9
  5
378
331
3CA
  5
379
331
3CB
  5
37A
331
3CC
  5
37B
331
3CD
  5
37C
331
3CE
  5
37D
331
3CF
  5
37E
331
3D0
  5
37F
331
3D1
  5
380
331
3D2
  5
44C
331
3D3
  5
381
331
3D4
  5
382
331
3D5
  5
383
331
3D6
  5
384
331
3D7
  5
385
331
3D8
  5
386
331
3D9
  5
387
331
3DA
  5
388
331
3DB
  5
44D
331
3DC
  5
44E
331
3DD
  5
44F
331
3DE
  5
389
331
3DF
  5
38A
331
3E0
  5
38B
331
3E1
  5
38C
331
3E2
  5
38D
331
3E3
  5
38E
331
3E4
  5
38F
331
3E5
  5
390
331
3E6
  5
391
331
3E7
  5
392
331
3E8
  5
393
331
3E9
  5
394
331
3EA
  5
395
331
3EB
  5
396
331
3EC
  5
464
331
3ED
  5
397
331
3EE
  5
398
331
3EF
  5
450
331
3F0
  5
399
331
3F1
  5
39A
331
3F2
  5
39B
331
3F3
  5
39C
331
3F4
  5
39D
331
3F5
  5
39E
331
3F6
  5
39F
331
3F7
  5
3A0
331
3F8
  5
3A1
331
3F9
  5
3A2
331
3FA
  5
3A3
331
3FB
  5
3A4
331
3FC
  5
3A5
331
3FD
  5
3A6
331
3FE
  5
3A7
331
3FF
  5
3A8
331
400
  5
3A9
331
401
  5
3AA
331
402
  5
3AB
331
403
  5
3AC
331
404
  5
3AD
331
405
  5
3AE
331
406
  5
3AF
331
407
  5
3B0
331
408
  5
3B1
331
409
  5
3B2
331
40A
  5
3B3
331
40B
  5
3B4
331
40C
  5
3B5
331
40D
  5
3B6
331
40E
  5
3B7
331
40F
  5
3B8
331
410
  5
3B9
331
411
  5
3BA
331
412
  5
3BB
331
413
  5
3BC
331
414
  5
3BD
331
415
  5
3BE
331
416
  5
3BF
331
417
  5
3C0
331
418
  5
3C1
331
419
  5
3C2
331
41A
  5
3C3
331
41B
  5
3C4
331
41C
  5
3C5
331
41D
  5
3C6
331
41E
  5
3C7
331
41F
  5
3C8
331
420
  5
3C9
331
421
  5
3CA
331
422
  5
3CB
331
423
  5
3CC
331
424
  5
3CD
331
425
  5
3CE
331
426
  5
3CF
331
427
  5
3D0
331
428
  5
3D1
331
429
  5
3D2
331
42A
  5
3D3
331
42B
  5
3D4
331
42C
  5
3D5
331
42D
  5
3D6
331
42E
  5
3D7
331
42F
  5
3D8
331
430
  5
3D9
331
431
  5
451
331
432
  5
3DA
331
433
  5
3DB
331
434
  5
452
331
435
  5
453
331
436
  5
3DC
331
437
  5
3DD
331
438
  5
3DE
331
439
  5
3DF
331
43A
  5
3E0
331
43B
  5
3E1
331
43C
  5
3E2
331
43D
  5
3E3
331
43E
  5
3E4
331
43F
  5
3E5
331
440
  5
3E6
331
441
  5
3E7
331
442
  5
3E8
331
443
  5
3E9
331
444
  5
3EA
331
445
  5
3EB
331
446
  5
3EC
331
447
  5
3ED
331
448
  5
3EE
331
449
  5
3EF
331
44A
  5
3F0
331
44B
  5
3F1
331
44C
  5
3F2
331
44D
  5
3F3
331
44E
  5
3F4
331
44F
  5
3F5
331
450
  5
3F6
331
451
  5
3F7
331
452
  5
3F8
331
453
  5
3F9
331
454
  5
3FA
331
455
  5
3FB
331
456
  5
3FC
331
457
  5
3FD
331
458
  5
3FE
331
459
  5
3FF
331
45A
  5
400
331
45B
  5
401
331
45C
  5
402
331
45D
  5
403
331
45E
  5
404
331
45F
  5
459
331
460
  5
45D
331
461
  5
45E
331
462
  5
454
331
463
  5
455
331
464
  5
456
331
465
  5
457
331
4B9
  5
458
331
4BA
  5
465
331
4BB
  5
4B9
  0
LAYOUT
  5
4D8
102
{ACAD_REACTORS
330
4D4
330
4D4
102
}
102
{ACAD_XDICTIONARY
360
4D9
102
}
330
4D4
100
AcDbPlotSettings
  1

  2
none_device
  4
Letter_(8.50_x_11.00_Inches)
  6

 40
6.35
 41
6.35
 42
6.350006
 43
6.350006
 44
215.899994
 45
279.399994
 46
0.0
 47
0.0
 48
0.0
 49
0.0
140
0.0
141
0.0
142
1.0
143
1.0
 70
   688
 72
     0
 73
     1
 74
     5
  7

 75
    16
 76
     0
 77
     2
 78
   300
147
1.0
148
0.0
149
0.0
100
AcDbLayout
  1
Layout1
 70
     1
 71
     1
 10
-0.25
 20
-0.25
 11
10.75
 21
8.25
 12
0.0
 22
0.0
 32
0.0
 14
1.049744
 24
0.799667
 34
-0.001526
 15
9.450623
 25
7.200577
 35
0.0
146
0.0
 13
0.0
 23
0.0
 33
0.0
 16
1.0
 26
0.0
 36
0.0
 17
0.0
 27
1.0
 37
0.0
 76
     0
330
4D5
1001
ACAD_PSEXT
1000
None
1000
None
1000
Not applicable
1000
The layout will not be plotted unless a new plotter configuration name is selected.
1070
     0
  0
LAYOUT
  5
4D3
102
{ACAD_REACTORS
330
4D4
330
4D4
102
}
330
4D4
100
AcDbPlotSettings
  1

  2
none_device
  4
ANSI_A_(8.50_x_11.00_Inches)
  6

 40
6.35
 41
19.049999
 42
6.350006
 43
19.049988
 44
215.899994
 45
279.399994
 46
0.0
 47
0.0
 48
0.0
 49
0.0
140
0.0
141
0.0
142
1.0
143
2.584895
 70
 11952
 72
     0
 73
     1
 74
     0
  7

 75
     0
 76
     0
 77
     2
 78
   300
147
0.386863
148
0.0
149
0.0
100
AcDbLayout
  1
Model
 70
     1
 71
     0
 10
0.0
 20
0.0
 11
12.0
 21
9.0
 12
0.0
 22
0.0
 32
0.0
 14
0.0
 24
0.0
 34
0.0
 15
0.0
 25
0.0
 35
0.0
146
0.0
 13
0.0
 23
0.0
 33
0.0
 16
1.0
 26
0.0
 36
0.0
 17
0.0
 27
1.0
 37
0.0
 76
     0
330
4D0
331
49
  0
MLINESTYLE
  5
4CD
102
{ACAD_REACTORS
330
4CE
102
}
330
4CE
100
AcDbMlineStyle
  2
STANDARD
 70
     0
  3

 62
   256
 51
90.0
 52
90.0
 71
     2
 49
0.5
 62
   256
  6
BYLAYER
 49
-0.5
 62
   256
  6
BYLAYER
  0
ACDBPLACEHOLDER
  5
4C2
102
{ACAD_REACTORS
330
4C3
102
}
330
4C3
  0
XRECORD
  5
4B3
102
{ACAD_REACTORS
330
4E8
102
}
330
4E8
100
AcDbXrecord
280
     1
310
3E4F020000004D6F64656C6572000000000000000000000000000000000000000000000000000000000000000000000000000000000000000000000000000000000000000000000000000000000000000000000000000000000000000000000000000000000000000000000000000000000000000000000000000000000000
310
00000000000000000000000000000000000000000000000000000000000000000000000000000000000000000000000000000000000000000000000000000000000000000000000000000000000000000000000000000000000000000000000000000000000000000000000000000000000000000000000000000000000000
310
00
310
00000000000000000000000000000000000000000000000000000000000000000000000000000000000000000000000000000000000000000000000000000000000000000000000000000000000000000000000000000000000000000000000000000000000000000000000000000000000000000000000000000000000000
310
00000000000000000000000000000000000000000000000000000000000000000000000000000000000000000000000000000000000000000000000000000000000000000000000000000000000000000000000000000000000000000000000000000000000000000000000000000000000000000000000000000000000000
310
00
310
00000000000000000000000000000000000000000000000000000000000000000000000000000000000000000000000000000000000000000000000000000000000000000000000000000000000000000000000000000000000000000000000000000000000000000000000000000000000000000000000000000000000000
310
00000000000000000000000000000000000000000000000000000000000000000000000000000000000000000000000000000000000000000000000000000000000000000000000000000000000000000000000000000000000000000000000000000000000000000000000000000000000000000000000000000000000000
310
00
310
00000000000000000000000000000000000000000000000000000000000000000000000000000000000000000000000000000000000000000000000000000000000000000000000000000000000000000000000000000000000000000000000000000000000000000000000000000000000000000000000000000000000000
310
00000000000000000000000000000000000000000000000000000000000000000000000000000000000000000000000000000000000000000000000000000000000000000000000000000000000000000000000000000000000000000000000000000000000000000000000000000000000000000000000000000000000000
310
00
310
00000000000000000000000000000000000000000000000000000000000000000000000000000000000000000000000000000000000000000000000000000000000000000000000000000000000000000000000000000000000000000000000000000000000000000000000000000000000000000000000000000000000000
310
00000000000000000000000000000000000000000000000000000000000000000000000000000000000000000000000000000000000000000000000000000000000000000000000000000000000000000000000000000000000000000000000000000000000000000000000000000000000000000000000000000000000000
310
00
310
00000000000000000000000000000000000000000000000000000000000000000000000000000000000000000000000000000000000000000000000000000000000000000000000000000000000000000000000000000000000000000000000000000000000000000000000000000000000000000000000000000000000000
310
00000000000000000000000000000000000000000000000000000000000000000000000000000000000000000000000000000000000000000000000000000000000000000000000000000000000000000000000000000000000000000000000000000000000000000000000000000000000000000000000000000000000000
310
00
310
00000000000000000000000000000000000000000000000000000000000000000000000000000000000000000000000000000000000000000000000000000000000000000000000000000000000000000000000000000000000000000000000000000000000000000000000000000000000000000000000000000000000000
310
00000000000000000000000000000000000000000000000000000000000000000000000000000000000000000000000000000000000000000000000000000000000000000000000000000000000000000000000000000000000000000000000000000000000000000000000000000000000000000000000000000000000000
310
00
310
00000000000000000000000000000000000000000000000000000000000000000000000000000000000000000000000000000000000000000000000000000000000000000000000000000000000000000000000000000000000000000000000000000000000000000000000000000000000000000000000000000000000000
310
00000000000000000000000000000000000000000000000000000000000000000000000000000000000000000000000000000000000000000000000000000000000000000000000000000000000000000000000000000000000000000000000000000000000000000000000000000000000000000000000000000000000000
310
00
310
00000000000000000000000000000000000000000000000000000000000000000000000000000000000000000000000000000000000000000000000000000000000000000000000000000000000000000000000000000000000000000000000000000000000000000000000000000000000000000000000000000000000000
310
00000000000000000000000000000000000000000000000000000000000000000000000000000000000000000000000000000000000000000000000000000000000000000000000000000000000000000000000000000000000000000000000000000000000000000000000000000000000000000000000000000000000000
310
00
310
00000000000000000000000000000000000000000000000000000000000000000000000000000000000000000000000000000000000000000000000000000000000000000000000000000000000000000000000000000000000000000000000000000000000000000000000000000000000000000000000000000000000000
310
00000000000000000000000000000000000000000000000000000000000000000000000000000000000000000000000000000000000000000000000000000000000000000000000000000000000000000000000000000000000000000000000000000000000000000000000000000000000000000000000000000000000000
310
00
310
00000000000000000000000000000000000000000000000000000000000000000000000000000000000000000000000000000000000000000000000000000000000000000000000000000000000000000000000000000000000000000000000000000000000000000000000000000000000000000000000000000000000000
310
00000000000000000000000000000000000000000000000000000000000000000000000000000000000000000000000000000000000000000000000000000000000000000000000000000000000000000000000000000000000000000000000000000000000000000000000000000000000000000000000000000000000000
310
00
310
00000000000000000000000000000000000000000000000000000000000000000000000000000000000000000000000000000000000000000000000000000000000000000000000000000000000000000000000000000000000000000000000000000000000000000000000000000000000000000000000000000000000000
310
00000000000000000000000000000000000000000000000000000000000000000000000000000000000000000000000000000000000000000000000000000000000000000000000000000000000000000000000000000000000000000000000000000000000000000000000000000000000000000000000000000000000000
310
00
310
00000000000000000000000000000000000000000000000000000000000000000000000000000000000000000000000000000000000000000000000000000000000000000000000000000000000000000000000000000000000000000000000000000000000000000000000000000000000000000000000000000000000000
310
00000000000000000000000000000000000000000000000000000000000000000000000000000000000000000000000000000000000000000000000000000000000000000000000000000000000000000000000000000000000000000000000000000000000000000000000000000000000000000000000000000000000000
310
00
310
00000000000000000000000000000000000000000000000000000000000000000000000000000000000000000000000000000000000000000000000000000000000000000000000000000000000000000000000000000000000000000000000000000000000000000000000000000000000000
  0
XRECORD
  5
4BC
102
{ACAD_REACTORS
330
4E8
102
}
330
4E8
100
AcDbXrecord
280
     1
310
3E4F020000004D6F64656C6572000000000000000000000000000000000000000000000000000000000000000000000000000000000000000000000000000000000000000000000000000000000000000000000000000000000000000000000000000000000000000000000000000000000000000000000000000000000000
310
00000000000000000000000000000000000000000000000000000000000000000000000000000000000000000000000000000000000000000000000000000000000000000000000000000000000000000000000000000000000000000000000000000000000000000000000000000000000000000000000000000000000000
310
00
310
00000000000000000000000000000000000000000000000000000000000000000000000000000000000000000000000000000000000000000000000000000000000000000000000000000000000000000000000000000000000000000000000000000000000000000000000000000000000000000000000000000000000000
310
00000000000000000000000000000000000000000000000000000000000000000000000000000000000000000000000000000000000000000000000000000000000000000000000000000000000000000000000000000000000000000000000000000000000000000000000000000000000000000000000000000000000000
310
00
310
00000000000000000000000000000000000000000000000000000000000000000000000000000000000000000000000000000000000000000000000000000000000000000000000000000000000000000000000000000000000000000000000000000000000000000000000000000000000000000000000000000000000000
310
00000000000000000000000000000000000000000000000000000000000000000000000000000000000000000000000000000000000000000000000000000000000000000000000000000000000000000000000000000000000000000000000000000000000000000000000000000000000000000000000000000000000000
310
00
310
00000000000000000000000000000000000000000000000000000000000000000000000000000000000000000000000000000000000000000000000000000000000000000000000000000000000000000000000000000000000000000000000000000000000000000000000000000000000000000000000000000000000000
310
00000000000000000000000000000000000000000000000000000000000000000000000000000000000000000000000000000000000000000000000000000000000000000000000000000000000000000000000000000000000000000000000000000000000000000000000000000000000000000000000000000000000000
310
00
310
00000000000000000000000000000000000000000000000000000000000000000000000000000000000000000000000000000000000000000000000000000000000000000000000000000000000000000000000000000000000000000000000000000000000000000000000000000000000000000000000000000000000000
310
00000000000000000000000000000000000000000000000000000000000000000000000000000000000000000000000000000000000000000000000000000000000000000000000000000000000000000000000000000000000000000000000000000000000000000000000000000000000000000000000000000000000000
310
00
310
00000000000000000000000000000000000000000000000000000000000000000000000000000000000000000000000000000000000000000000000000000000000000000000000000000000000000000000000000000000000000000000000000000000000000000000000000000000000000000000000000000000000000
310
00000000000000000000000000000000000000000000000000000000000000000000000000000000000000000000000000000000000000000000000000000000000000000000000000000000000000000000000000000000000000000000000000000000000000000000000000000000000000000000000000000000000000
310
00
310
00000000000000000000000000000000000000000000000000000000000000000000000000000000000000000000000000000000000000000000000000000000000000000000000000000000000000000000000000000000000000000000000000000000000000000000000000000000000000000000000000000000000000
310
00000000000000000000000000000000000000000000000000000000000000000000000000000000000000000000000000000000000000000000000000000000000000000000000000000000000000000000000000000000000000000000000000000000000000000000000000000000000000000000000000000000000000
310
00
310
00000000000000000000000000000000000000000000000000000000000000000000000000000000000000000000000000000000000000000000000000000000000000000000000000000000000000000000000000000000000000000000000000000000000000000000000000000000000000000000000000000000000000
310
00000000000000000000000000000000000000000000000000000000000000000000000000000000000000000000000000000000000000000000000000000000000000000000000000000000000000000000000000000000000000000000000000000000000000000000000000000000000000000000000000000000000000
310
00
310
00000000000000000000000000000000000000000000000000000000000000000000000000000000000000000000000000000000000000000000000000000000000000000000000000000000000000000000000000000000000000000000000000000000000000000000000000000000000000000000000000000000000000
310
00000000000000000000000000000000000000000000000000000000000000000000000000000000000000000000000000000000000000000000000000000000000000000000000000000000000000000000000000000000000000000000000000000000000000000000000000000000000000000000000000000000000000
310
00
310
00000000000000000000000000000000000000000000000000000000000000000000000000000000000000000000000000000000000000000000000000000000000000000000000000000000000000000000000000000000000000000000000000000000000000000000000000000000000000000000000000000000000000
310
00000000000000000000000000000000000000000000000000000000000000000000000000000000000000000000000000000000000000000000000000000000000000000000000000000000000000000000000000000000000000000000000000000000000000000000000000000000000000000000000000000000000000
310
00
310
00000000000000000000000000000000000000000000000000000000000000000000000000000000000000000000000000000000000000000000000000000000000000000000000000000000000000000000000000000000000000000000000000000000000000000000000000000000000000000000000000000000000000
310
00000000000000000000000000000000000000000000000000000000000000000000000000000000000000000000000000000000000000000000000000000000000000000000000000000000000000000000000000000000000000000000000000000000000000000000000000000000000000000000000000000000000000
310
00
310
00000000000000000000000000000000000000000000000000000000000000000000000000000000000000000000000000000000000000000000000000000000000000000000000000000000000000000000000000000000000000000000000000000000000000000000000000000000000000000000000000000000000000
310
00000000000000000000000000000000000000000000000000000000000000000000000000000000000000000000000000000000000000000000000000000000000000000000000000000000000000000000000000000000000000000000000000000000000000000000000000000000000000000000000000000000000000
310
00
310
00000000000000000000000000000000000000000000000000000000000000000000000000000000000000000000000000000000000000000000000000000000000000000000000000000000000000000000000000000000000000000000000000000000000000000000000000000000000000000000000000000000000000
310
00000000000000000000000000000000000000000000000000000000000000000000000000000000000000000000000000000000000000000000000000000000000000000000000000000000000000000000000000000000000000000000000000000000000000000000000000000000000000000000000000000000000000
310
00
310
00000000000000000000000000000000000000000000000000000000000000000000000000000000000000000000000000000000000000000000000000000000000000000000000000000000000000000000000000000000000000000000000000000000000000000000000000000000000000
  0
XRECORD
  5
4B2
102
{ACAD_REACTORS
330
4E8
102
}
330
4E8
100
AcDbXrecord
280
     1
310
DF56060034040701D0009A9999999999B93F000000000000000000000000000000000400000009000000000000000200000064000000640000000100000001000000190000007B14AE47E17A843F00000000004060409A9999999999B93F00000000004C2D41000000000070F7400000000000942141000000000000000000
310
0000000000000000000000000000000AD482040000000000000000000000000000F03F000000000000000000000000000030402D431CEBE2362A3F00000000000008400000000000000000009807C000000000000000007C1A61B9A711364020000000050000000A000000200000002000000020000000000000000000F03F
310
00
310
0000000000F03F000000000000F03F333333333333D33F333333333333D33F333333333333D33F000000000000F43F000000000000F43F000000000000F03F0200000064000000000000000000000000000840000000000000F83F00000000000000000000000000000000008056409A9999999999B93F0000000000000000
310
00000000000000000000000000000000000000000000000000000000000000000000000000000000000000000000000000000000000000000000000000000000000000000000000000000000000000000000000000000000000000000000000000000000000000000000000000000000000000000000000000000000000000
310
00
310
0000000000000000000000000000000000000000000000000000000000000000000000000000000000000000000000000000000000000000000000000000000000000000000000000000000000000000000000000000000000000000000000000000000000000000000000000000000000000000000000009A9999999999A9
310
3F9100000000000000000000000000000035A781D547960F40000000000000F03F000000000000F03F666666666666164000000000104068F200000000000000000000000000000000000000000000000000000000000000000000000000000000000000000000000000000000000000000000000000000000000000000000
310
00
310
00000000000000000000000000000000000000000000000000000000000000000000000000000000000000000000000000000000000000000000000000000000000000000000000000000000000000000000000000000000000000000000000000000000000000000000000000000000000000000000000000000000000000
310
000000000000000000000000000000000000000000000000000000000000000000000000000000000000000000000000000000000000000000000000FF000000000000000000000000000000000000000000000000000000000000000000000000000000000000000000000000000000000000000000000000000000000000
310
00
310
0000000000000000000000000000000000000000000000000000000000000000000000000000000000000000000000000000000000000000000000000000000000000000
  0
DICTIONARY
  5
4D9
330
4D8
100
AcDbDictionary
280
     1
281
     1
  3
ADSK_XREC_LAYOUTTHUMBNAIL
360
4DA
  0
XRECORD
  5
4DA
102
{ACAD_REACTORS
330
4D9
102
}
330
4D9
100
AcDbXrecord
280
     1
310
28000000B40000008B0000000100080000000000BC61000000000000000000000001000000000000FFFFFF0000000000FFFFFF000000000000000000000000000000000000000000000000000000000000000000330000006600000099000000CC000000FF00000000330000333300006633000099330000CC330000FF3300
310
0000660000336600006666000099660000CC660000FF66000000990000339900006699000099990000CC990000FF99000000CC000033CC000066CC000099CC0000CCCC0000FFCC000000FF000033FF000066FF000099FF0000CCFF0000FFFF000000003300330033006600330099003300CC003300FF003300003333003333
310
33006633330099333300CC333300FF33330000663300336633006666330099663300CC663300FF66330000993300339933006699330099993300CC993300FF99330000CC330033CC330066CC330099CC3300CCCC3300FFCC330000FF330033FF330066FF330099FF3300CCFF3300FFFF330000006600330066006600660099
310
006600CC006600FF00660000336600333366006633660099336600CC336600FF33660000666600336666006666660099666600CC666600FF66660000996600339966006699660099996600CC996600FF99660000CC660033CC660066CC660099CC6600CCCC6600FFCC660000FF660033FF660066FF660099FF6600CCFF6600
310
FFFF660000009900330099006600990099009900CC009900FF00990000339900333399006633990099339900CC339900FF33990000669900336699006666990099669900CC669900FF66990000999900339999006699990099999900CC999900FF99990000CC990033CC990066CC990099CC9900CCCC9900FFCC990000FF99
310
0033FF990066FF990099FF9900CCFF9900FFFF99000000CC003300CC006600CC009900CC00CC00CC00FF00CC000033CC003333CC006633CC009933CC00CC33CC00FF33CC000066CC003366CC006666CC009966CC00CC66CC00FF66CC000099CC003399CC006699CC009999CC00CC99CC00FF99CC0000CCCC0033CCCC0066CC
310
CC0099CCCC00CCCCCC00FFCCCC0000FFCC0033FFCC0066FFCC0099FFCC00CCFFCC00FFFFCC000000FF003300FF006600FF009900FF00CC00FF00FF00FF000033FF003333FF006633FF009933FF00CC33FF00FF33FF000066FF003366FF006666FF009966FF00CC66FF00FF66FF000099FF003399FF006699FF009999FF00CC
310
99FF00FF99FF0000CCFF0033CCFF0066CCFF0099CCFF00CCCCFF00FFCCFF0000FFFF0033FFFF0066FFFF0099FFFF00CCFFFF00FFFFFF00000000000D0D0D001A1A1A00282828003535350043434300505050005D5D5D006B6B6B00787878008686860093939300A1A1A100AEAEAE00BBBBBB00C9C9C900D6D6D600E4E4E400
310
F1F1F100FFFFFF0000000000000000000000000000000000000000000000000000000000000000000000000000000000E2E2E2E2E2E2E2E2E2E2E2E2E2E2E2E2E2E2E2E2E2E2E2E2E2E2E2E2E2E2E2E2E2E2E2E2E2E2E2E2E2E2E2E2E2E2E2E2E2E2E2E2E2E2E2E2E2E2E2E2E2E2E2E2E2E2E2E2E2E2E2E2E2E2E2E2E2E2E2
310
E2E2E2E2E2E2E2E2E2E2E2E2E2E2E2E2E2E2E2E2E2E2E2E2E2E2E2E2E2E2E2E2E2E2E2E2E2E2E2E2E2E2E2E2E2E2E2E2E2E2E2E2E2E2E2E2E2E2E2E2E2E2E2E2E2E2E2E2E2E2E2E2E2E2E2E2E2E2E2E2E2E2E2E2E2E2E2E2E2E2E2E2E2E2E2E2E2E2E2E2EFF5F5F5F5F5F5F5F5F5F5F5F5F5F5F5F5F5F5F5F5F5F5F5F5F5F5
310
F5F5F5F5F5F5F5F5F5F5F5F5F5F5F5F5F5F5F5F5F5F5F5F5F5F5F5F5F5F5F5F5F5F5F5F5F5F5F5F5F5F5F5F5F5F5F5F5F5F5F5F5F5F5F5F5F5F5F5F5F5F5F5F5F5F5F5F5F5F5F5F5F5F5F5F5F5F5F5F5F5F5F5F5F5F5F5F5F5F5F5F5F5F5F5F5F5F5F5F5F5F5F5F5F5F5F5F5F5F5F5F5F5F5F5F5F5F5F5F5F5F5F5F5F5F5F5
310
F5F5F5F5F5F5F5F5F5F5F5F5F5F5F5F5F5F5F5F5F5F5F5F5E2E2EFF5F5F5F5F5F5F5F5F5F5F5F5F5F5F5F5F5F5F5F5F5F5F5F5F5F5F5F5F5F5F5F5F5F5F5F5F5F5F5F5F5F5F5F5F5F5F5F5F5F5F5F5F5F5F5F5F5F5F5F5F5F5F5F5F5F5F5F5F5F5F5F5F5F5F5F5F5F5F5F5F5F5F5F5F5F5F5F5F5F5F5F5F5F5F5F5F5F5F5F5
310
F5F5F5F5F5F5F5F5F5F5F5F5F5F5F5F5F5F5F5F5F5F5F5F5F5F5F5F5F5F5F5F5F5F5F5F5F5F5F5F5F5F5F5F5F5F5F5F5F5F5F5F5F5F5F5F5F5F5F5F5F5F5F5F5F5F5F5F5F5F5F5F5F5F5F5F5F5E2E2EFF5F5F5F5F5F5F5F5F5F5F5F5F5F5F5F5F5F5F5F5F5F5F5F5F5F5F5F5F5F5F5F5F5F5F5F5F5F5F5F5F5F5F5F5F5F5F5
310
F5F5F5F5F5F5F5F5F5F5F5F5F5F5F5F5F5F5F5F5F5F5F5F5F5F5F5F5F5F5F5F5F5F5F5F5F5F5F5F5F5F5F5F5F5F5F5F5F5F5F5F5F5F5F5F5F5F5F5F5F5F5F5F5F5F5F5F5F5F5F5F5F5F5F5F5F5F5F5F5F5F5F5F5F5F5F5F5F5F5F5F5F5F5F5F5F5F5F5F5F5F5F5F5F5F5F5F5F5F5F5F5F5F5F5F5F5F5F5F5F5F5F5F5F5F5F5
310
F5F5F5E2E2EFF5F5F5E2E2E2E2E2E2E2E2F5F5F5F5F5F5F5F5F5E2E2E2E2E2E2E2E2E2E2E2E2E2E2E2E2F5F5F5F5F5F5F5F5E2E2E2E2E2E2E2E2E2E2E2E2E2E2E2E2F5F5F5F5F5F5F5F5F5E2E2E2E2E2E2E2E2E2E2E2E2E2E2E2F5F5F5F5F5F5F5F5F5E2E2E2E2E2E2E2E2E2E2E2E2E2E2E2F5F5F5F5F5F5F5F5F5E2E2E2E2
310
E2E2E2E2E2E2E2E2E2E2E2E2F5F5F5F5F5F5F5F5E2E2E2E2E2E2E2E2E2E2E2E2E2E2E2E2F5F5F5F5F5F5F5F5F5E2E2E2E2E2E2E2E2F5F5F5E2E2EFF5F5F5E2F5F5F5F5F5F5F5F5F5F5F5F5F5F5F5F5F5F5F5F5F5F5F5F5F5F5F5F5F5F5F5F5F5F5F5F5F5F5F5F5F5F5F5F5F5F5F5F5F5F5F5F5F5F5F5F5F5F5F5F5F5F5F5F5
310
F5F5F5F5F5F5F5F5F5F5F5F5F5F5F5F5F5F5F5F5F5F5F5F5F5F5F5F5F5F5F5F5F5F5F5F5F5F5F5F5F5F5F5F5F5F5F5F5F5F5F5F5F5F5F5F5F5F5F5F5F5F5F5F5F5F5F5F5F5F5F5F5F5F5F5F5F5F5F5F5F5F5F5F5F5F5F5F5F5F5F5F5F5F5F5F5F5F5F5F5F5F5F5F5F5E2F5F5F5E2E2EFF5F5F5E2F5F5F5F5F5F5F5F5F5F5F5
310
F5F5F5F5F5F5F5F5F5F5F5F5F5F5F5F5F5F5F5F5F5F5F5F5F5F5F5F5F5F5F5F5F5F5F5F5F5F5F5F5F5F5F5F5F5F5F5F5F5F5F5F5F5F5F5F5F5F5F5F5F5F5F5F5F5F5F5F5F5F5F5F5F5F5F5F5F5F5F5F5F5F5F5F5F5F5F5F5F5F5F5F5F5F5F5F5F5F5F5F5F5F5F5F5F5F5F5F5F5F5F5F5F5F5F5F5F5F5F5F5F5F5F5F5F5F5F5
310
F5F5F5F5F5F5F5F5F5F5F5F5F5F5F5F5F5F5F5F5F5F5F5F5F5F5F5F5F5F5F5E2F5F5F5E2E2EFF5F5F5E2F5F5F5F5F5F5F5F5F5F5F5F5F5F5F5F5F5F5F5F5F5F5F5F5F5F5F5F5F5F5F5F5F5F5F5F5F5F5F5F5F5F5F5F5F5F5F5F5F5F5F5F5F5F5F5F5F5F5F5F5F5F5F5F5F5F5F5F5F5F5F5F5F5F5F5F5F5F5F5F5F5F5F5F5F5
310
F5F5F5F5F5F5F5F5F5F5F5F5F5F5F5F5F5F5F5F5F5F5F5F5F5F5F5F5F5F5F5F5F5F5F5F5F5F5F5F5F5F5F5F5F5F5F5F5F5F5F5F5F5F5F5F5F5F5F5F5F5F5F5F5F5F5F5F5F5F5F5F5F5F5F5F5F5F5F5F5F5F5F5F5E2F5F5F5E2E2EFF5F5F5E2F5F5F5F5F5F5F5F5F5F5F5F5F5F5F5F5F5F5F5F5F5F5F5F5F5F5F5F5F5F5F5F5
310
F5F5F5F5F5F5F5F5F5F5F5F5F5F5F5F5F5F5F5F5F5F5F5F5F5F5F5F5F5F5F5F5F5F5F5F5F5F5F5F5F5F5F5F5F5F5F5F5F5F5F5F5F5F5F5F5F5F5F5F5F5F5F5F5F5F5F5F5F5F5F5F5F5F5F5F5F5F5F5F5F5F5F5F5F5F5F5F5F5F5F5F5F5F5F5F5F5F5F5F5F5F5F5F5F5F5F5F5F5F5F5F5F5F5F5F5F5F5F5F5F5F5F5F5F5F5F5
310
F5F5F5F5F5F5F5F5F5F5E2F5F5F5E2E2EFF5F5F5E2F5F5F5F5F5F5F5F5F5F5F5F5F5F5F5F5F5F5F5F5F5F5F5F5F5F5F5F5F5F5F5F5F5F5F5F5F5F5F5F5F5F5F5F5F5F5F5F5F5F5F5F5F5F5F5F5F5F5F5F5F5F5F5F5F5F5F5F5F5F5F5F5F5F5F5F5F5F5F5F5F5F5F5F5F5F5F5F5F5F5F5F5F5F5F5F5F5F5F5F5F5F5F5F5F5F5
310
F5F5F5F5F5F5F5F5F5F5F5F5F5F5F5F5F5F5F5F5F5F5F5F5F5F5F5F5F5F5F5F5F5F5F5F5F5F5F5F5F5F5F5F5F5F5F5F5F5F5F5F5F5F5F5F5F5F5F5F5F5F5F5E2F5F5F5E2E2EFF5F5F5E2F5F5F5F5F5F5F5F5F5F5F5F5F5F5F5F5F5F5F5F5F5F5F5F5F5F5F5F5F5F5F5F5F5F5F5F5F5F5F5F5F5F5F5F5F5F5F5F5F5F5F5F5F5
310
F5F5F5F5F5F5F5F5F5F5F5F5F5F5F5F5F5F5F5F5F5F5F5F5F5F5F5F5F5F5F5F5F5F5F5F5F5F5F5F5F5F5F5F5F5F5F5F5F5F5F5F5F5F5F5F5F5F5F5F5F5F5F5F5F5F5F5F5F5F5F5F5F5F5F5F5F5F5F5F5F5F5F5F5F5F5F5F5F5F5F5F5F5F5F5F5F5F5F5F5F5F5F5F5F5F5F5F5F5F5F5F5F5F5F5F5E2F5F5F5E2E2EFF5F5F5E2
310
F5F5F5F5F5F5F5F5F5F5F5F5F5F5F5F5F5F5F5F5F5F5F5F5F5F5F5F5F5F5F5F5F5F5F5F5F5F5F5F5F5F5F5F5F5F5F5F5F5F5F5F5F5F5F5F5F5F5F5F5F5F5F5F5F5F5F5F5F5F5F5F5F5F5F5F5F5F5F5F5F5F5F5F5F5F5F5F5F5F5F5F5F5F5F5F5F5F5F5F5F5F5F5F5F5F5F5F5F5F5F5F5F5F5F5F5F5F5F5F5F5F5F5F5F5F5F5
310
F5F5F5F5F5F5F5F5F5F5F5F5F5F5F5F5F5F5F5F5F5F5F5F5F5F5F5F5F5F5F5F5F5F5F5F5F5F5F5F5F5F5E2F5F5F5E2E2EFF5F5F5E2F5F5F5F5F5F5F5F5F5F5F5F5F5F5F5F5F5F5F5F5F5F5F5F5F5F5F5F5F5F5F5F5F5F5F5F5F5F5F5F5F5F5F5F5F5F5F5F5F5F5F5F5F5F5F5F5F5F5F5F5F5F5F5F5F5F5F5F5F5F5F5F5F5F5
310
F5F5F5F5F5F5F5F5F5F5F5F5F5F5F5F5F5F5F5F5F5F5F5F5F5F5F5F5F5F5F5F5F5F5F5F5F5F5F5F5F5F5F5F5F5F5F5F5F5F5F5F5F5F5F5F5F5F5F5F5F5F5F5F5F5F5F5F5F5F5F5F5F5F5F5F5F5F5F5F5F5F5F5F5F5F5F5F5F5F5F5F5F5F5F5E2F5F5F5E2E2EFF5F5F5F5F5F5F5F5F5F5F5F5F5F5F5F5F5F5F5F5F5F5F5F5F5
310
F5F5F5F5F5F5F5F5F5F5F5F5F5F5F5F5F5F5F5F5F5F5F5F5F5F5F5F5F5F5F5F5F5F5F5F5F5F5F5F5F5F5F5F5F5F5F5F5F5F5F5F5F5F5F5F5F5F5F5F5F5F5F5F5F5F5F5F5F5F5F5F5F5F5F5F5F5F5F5F5F5F5F5F5F5F5F5F5F5F5F5F5F5F5F5F5F5F5F5F5F5F5F5F5F5F5F5F5F5F5F5F5F5F5F5F5F5F5F5F5F5F5F5F5F5F5F5
310
F5F5F5F5F5F5F5F5F5F5F5F5F5F5F5F5F5F5F5F5F5F5F5F5F5E2E2EFF5F5F5F5F5F5F5F5F5F5F5F5F5F5F5F5F5F5F5F5F5F5F5F5F5F5F5F5F5F5F5F5F5F5F5F5F5F5F5F5F5F5F5F5F5F5F5F5F5F5F5F5F5F5F5F5F5F5F5F5F5F5F5F5F5F5F5F5F5F5F5F5F5F5F5F5F5F5F5F5F5F5F5F5F5F5F5F5F5F5F5F5F5F5F5F5F5F5F5
310
F5F5F5F5F5F5F5F5F5F5F5F5F5F5F5F5F5F5F5F5F5F5F5F5F5F5F5F5F5F5F5F5F5F5F5F5F5F5F5F5F5F5F5F5F5F5F5F5F5F5F5F5F5F5F5F5F5F5F5F5F5F5F5F5F5F5F5F5F5F5F5F5F5F5F5F5F5F5E2E2EFF5F5F5F5F5F5F5F5F5F5F5F5F5F5F5F5F5F5F5F5F5F5F5F5F5F5F5F5F5F5F5F5F5F5F5F5F5F5F5F5F5F5F5F5F5F5
310
F5F5F5F5F5F5F5F5F5F5F5F5F5F5F5F5F5F5F5F5F5F5F5F5F5F5F5F5F5F5F5F5F5F5F5F5F5F5F5F5F5F5F5F5F5F5F5F5F5F5F5F5F5F5F5F5F5F5F5F5F5F5F5F5F5F5F5F5F5F5F5F5F5F5F5F5F5F5F5F5F5F5F5F5F5F5F5F5F5F5F5F5F5F5F5F5F5F5F5F5F5F5F5F5F5F5F5F5F5F5F5F5F5F5F5F5F5F5F5F5F5F5F5F5F5F5F5
310
F5F5F5F5E2E2EFF5F5F5F5F5F5F5F5F5F5F5F5F5F5F5F5F5F5F5F5F5F5F5F5F5F5F5F5F5F5F5F5F5F5F5F5F5F5F5F5F5F5F5F5F5F5F5F5F5F5F5F5F5F5F5F5F5F5F5F5F5F5F5F5F5F5F5F5F5F5F5F5F5F5F5F5F5F5F5F5F5F5F5F5F5F5F5F5F5F5F5F5F5F5F5F5F5F5F5F5F5F5F5F5F5F5F5F5F5F5F5F5F5F5F5F5F5F5F5F5
310
F5F5F5F5F5F5F5F5F5F5F5F5F5F5F5F5F5F5F5F5F5F5F5F5F5F5F5F5F5F5F5F5F5F5F5F5F5F5F5F5F5F5F5F5F5F5F5F5F5F5F5F5F5F5F5F5F5E2E2EFF5F5F5F5F5F5F5F5F5F5F5F5F5F5F5F5F5F5F5F5E2E2E2E2E2E2E2E2E2E2E2E2E2E2E2E2E2E2E2E2E2E2E2E2E2E2E2E2E2E2E2E2E2E2E2E2E2E2E2E2E2E2E2E2E2E2E2
310
E2E2E2E2E2E2E2E2E2E2E2E2E2E2E2E2E2E2E2E2E2E2E2E2E2E2E2E2E2E2E2E2E2E2E2E2E2E2E2E2E2E2E2E2E2E2E2E2E2E2E2E2E2E2E2E2E2E2E2E2E2E2E2E2E2E2E2E2E2E2E2E2E2E2E2E2E2E2E2E2E2E2E2E2E2E2E2E2E2E2F5F5F5F5F5F5F5F5F5F5F5F5F5F5F5F5F5F5F5F5E2E2EFF5F5F5F5F5F5F5F5F5F5F5F5F5F5
310
F5F5F5F5F5F5E2F5F5F5F5F5F5F5F5F5F5F5F5F5F5F5F5F5F5F5F5F5F5F5F5F5F5F5F5F5F5F5F5F5F5F5F5F5F5F5F5F5F5F5F5F5F5F5F5F5F5F5F5F5F5F5F5F5F5F5F5F5F5F5F5F5F5F5F5F5F5F5F5F5F5F5F5F5F5F5F5F5F5F5F5F5F5F5F5F5F5F5F5F5F5F5F5F5F5F5F5F5F5F5F5F5F5F5F5F5F5F5F5F5F5F5F5F5F5F5F5
310
F5F5F5F5F5F5F5F5F5F5F5F5F5F5F5E2F5F5F5F5F5F5F5F5F5F5F5F5F5F5F5F5F5F5F5F5E2E2EFF5F5F5F5F5F5F5F5F5F5F5F5F5F5F5F5F5F5F5F5E2F5F5F5F5F5F5F5F5F5F5F5F5F5F5F5F5F5F5F5F5F5F5F5F5F5F5F5F5F5F5F5F5F5F5F5F5F5F5F5F5F5F5F5F5F5F5F5F5F5F5F5F5F5F5F5F5F5F5F5F5F5F5F5F5F5F5F5
310
F5F5F5F5F5F5F5F5F5F5F5F5F5F5F5F5F5F5F5F5F5F5F5F5F5F5F5F5F5F5F5F5F5F5F5F5F5F5F5F5F5F5F5F5F5F5F5F5F5F5F5F5F5F5F5F5F5F5F5F5F5F5F5F5F5F5F5F5E2F5F5F5F5F5F5F5F5F5F5F5F5F5F5F5F5F5F5F5F5E2E2EFF5F5F5F5F5F5F5F5F5F5F5F5F5F5F5F5F5F5F5F5E2F5F5F5F5F5F5F5F5F5F5F5F5F5F5
310
F5F5F5F5F5F5F5F5F5F5F5F5F5F5F5F5F5F5F5F5F5F5F5F5F5F5F5F5F5F5F5F5F5F5F5F5F5F5F5F5F5F5F5F5F5F5F5F5F5F5F5F5F5F5F5F5F5F5F5F5F5F5F5F5F5F5F5F5F5F5F5F5F5F5F5F5F5F5F5F5F5F5F5F5F5F5F5F5F5F5F5F5F5F5F5F5F5F5F5F5F5F5F5F5F5F5F5F5F5F5F5F5F5F5F5F5F5F5F5F5F5E2F5F5F5F5F5
310
F5F5F5F5F5F5F5F5F5F5F5F5F5F5F5E2E2EFF5F5F5F5F5F5F5F5F5F5F5F5F5F5F5F5F5F5F5F5E2F5F5F5F5F5F5F5F5F5F5F5F5F5F5F5F5F5F5F5F5F5F5F5F5F5F5F5F5F5F5F5F5F5F5F5F5F5F5F5F5F5F5F5F5F5F5F5F5F5F5F5F5F5F5F5F5F5F5F5F5F5F5F5F5F5F5F5F5F5F5F5F5F5F5F5F5F5F5F5F5F5F5F5F5F5F5F5F5
310
F5F5F5F5F5F5F5F5F5F5F5F5F5F5F5F5F5F5F5F5F5F5F5F5F5F5F5F5F5F5F5F5F5F5F5F5F5F5F5F5F5F5F5F5F5F5F5E2F5F5F5F5F5F5F5F5F5F5F5F5F5F5F5F5F5F5F5F5E2E2EFF5F5F5E2F5F5F5F5F5F5F5F5F5F5F5F5F5F5F5F5E2F5F5F5F5F5F5F5F5F5F5F5F5F5F5F5F5F5F5F5F5F5F5F5F5F5F5F5F5F5F5F5F5F5F5F5
310
F5F5F5F5F5F5F5F5F5F5F5F5F5F5F5F5F5F5F5F5F5F5F5F5F5F5F5F5F5F5F5F5F5F5F5F5F5F5F5F5F5F5F5F5F5F5F5F5F5F5F5F5F5F5F5F5F5F5F5F5F5F5F5F5F5F5F5F5F5F5F5F5F5F5F5F5F5F5F5F5F5F5F5F5F5F5F5F5F5F5F5F5F5F5F5F5F5F5F5F5E2F5F5F5F5F5F5F5F5F5F5F5F5F5F5F5F5E2F5F5F5E2E2EFF5F5F5
310
E2F5F5F5F5F5F5F5F5F5F5F5F5F5F5F5F5E2F5F5F5F5F5F5F5F5F5F5F5F5F5F5F5F5F5F5F5F5F5F5F5F5F5F5F5F5F5F5F5F5F5F5F5F5F5F5F5F5F5F5F5F5F5F5F5F5F5F5F5F5F5F5F5F5F5F5F5F5F5F5F5F5F5F5F5F5F5F5F5F5F5F5F5F5F5F5F5F5F5F5F5F5F5F5F5F5F5F5F5F5F5F5F5F5F5F5F5F5F5F5F5F5F5F5F5F5F5
310
F5F5F5F5F5F5F5F5F5F5F5F5F5F5F5F5F5F5F5F5F5F5F5F5F5F5E2F5F5F5F5F5F5F5F5F5F5F5F5F5F5F5F5E2F5F5F5E2E2EFF5F5F5E2F5F5F5F5F5F5F5F5F5F5F5F5F5F5F5F5E2F5F5F5F5F5F5F5F5F5F5F5F5F5F5F5F5F5F5F5F5F5F5F5F5F5F5F5F5F5F5F5F5F5F5F5F5F5F5F5F5F5F5F5F5F5F5F5F5F5F5F5F5F5F5F5F5
310
F5F5F5F5F5F5F5F5F5F5F5F5F5F5F5F5F5F5F5F5F5F5F5F5F5F5F5F5F5F5F5F5F5F5F5F5F5F5F5F5F5F5F5F5F5F5F5F5F5F5F5F5F5F5F5F5F5F5F5F5F5F5F5F5F5F5F5F5F5F5F5F5F5F5F5F5F5F5F5E2F5F5F5F5F5F5F5F5F5F5F5F5F5F5F5F5E2F5F5F5E2E2EFF5F5F5E2F5F5F5F5F5F5F5F5F5F5F5F5F5F5F5F5E2F5F5F5
310
F5F5F5F5F5F5F5F5F5F5F5F5F5F5F5F5F5F5F5F5F5F5F5F5F5F5F5F5F5F5F5F5F5F5F5F5F5F5F5F5F5F5F5F5F5F5F5F5F5F5F5F5F5F5F5F5F5F5F5F5F5F5F5F5F5F5F5F5F5F5F5F5F5F5F5F5F5F5F5F5F5F5F5F5F5F5F5F5F5F5F5F5F5F5F5F5F5F5F5F5F5F5F5F5F5F5F5F5F5F5F5F5F5F5F5F5F5F5F5F5F5F5F5F5F5F5F5
310
F5F5F5F5F5E2F5F5F5F5F5F5F5F5F5F5F5F5F5F5F5F5E2F5F5F5E2E2EFF5F5F5E2F5F5F5F5F5F5F5F5F5F5F5F5F5F5F5F5E2F5F5F5F5F5F5F5F5F5F5F5F5F5F5F5F5F5F5F5F5F5F5F5F5F5F5F5F5F5F5F5F5F5F5F5F5F5F5F5F5F5F5F5F5F5F5F5F5F5F5F5F5F5F5F5F5F5F5F5F5F5F5F5F5F5F5F5F5F5F5F5F5F5F5F5F5F5
310
F5F5F5F5F5F5F5F5F5F5F5F5F5F5F5F5F5F5F5F5F5F5F5F5F5F5F5F5F5F5F5F5F5F5F5F5F5F5F5F5F5F5F5F5F5F5F5F5F5F5F5F5F5F5F5F5F5F5E2F5F5F5F5F5F5F5F5F5F5F5F5F5F5F5F5E2F5F5F5E2E2EFF5F5F5E2F5F5F5F5F5F5F5F5F5F5F5F5F5F5F5F5E2F5F5F5F5F5F5F5F5F5F5F5F5F5F5F5F5F5F5F5F5F5F5F5F5
310
F5F5F5F5F5F5F5F5F5F5F5F5F5F5F5F5F5F5F5F5F5F5F5F5F5F5F5F5F5F5F5F5F5F5F5F5F5F5F5F5F5F5F5F5F5F5F5F5F5F5F5F5F5F5F5F5F5F5F5F5F5F5F5F5F5F5F5F5F5F5F5F5F5F5F5F5F5F5F5F5F5F5F5F5F5F5F5F5F5F5F5F5F5F5F5F5F5F5F5F5F5F5F5F5F5F5F5F5F5F5F5E2F5F5F5F5F5F5F5F5F5F5F5F5F5F5F5
310
F5E2F5F5F5E2E2EFF5F5F5E2F5F5F5F5F5F5F5F5F5F5F5F5F5F5F5F5E2F5F5F5F5F5F5F5F5F5F5F5F5F5F5F5F5F5F5F5F5F5F5F5F5F5F5F5F5F5F5F5F5F5F5F5F5F5F5F5F5F5F5F5F5F5F5F5F5F5F5F5F5F5F5F5F5F5F5F5F5F5F5F5F5F5F5F5F5F5F5F5F5F5F5F5F5F5F5F5F5F5F5F5F5F5F5F5F5F5F5F5F5F5F5F5F5F5F5
310
F5F5F5F5F5F5F5F5F5F5F5F5F5F5F5F5F5F5F5F5F5F5F5F5F5F5F5F5F5F5F5F5F5F5F5F5F5E2F5F5F5F5F5F5F5F5F5F5F5F5F5F5F5F5E2F5F5F5E2E2EFF5F5F5E2F5F5F5F5F5F5F5F5F5F5F5F5F5F5F5F5E2F5F5F5F5F5F5F5F5F5F5F5F5F5F5F5F5F5F5F5F5F5F5F5F5F5F5F5F5F5F5F5F5F5F5F5F5F5F5F5F5F5F5F5F5F5
310
F5F5F5F5F5F5F5F5F5F5F5F5F5F5F5F5F5F5F5F5F5F5F5F5F5F5F5F5F5F5F5F5F5F5F5F5F5F5F5F5F5F5F5F5F5F5F5F5F5F5F5F5F5F5F5F5F5F5F5F5F5F5F5F5F5F5F5F5F5F5F5F5F5F5F5F5F5F5F5F5F5F5F5F5F5F5F5F5F5F5E2F5F5F5F5F5F5F5F5F5F5F5F5F5F5F5F5E2F5F5F5E2E2EFF5F5F5E2F5F5F5F5F5F5F5F5F5
310
F5F5F5F5F5F5F5E2F5F5F5F5F5F5F5F5F5F5F5F5F5F5F5F5F5F5F5F5F5F5F5F5F5F5F5F5F5F5F5F5F5F5F5F5F5F5F5F5F5F5F5F5F5F5F5F5F5F5F5F5F5F5F5F5F5F5F5F5F5F5F5F5F5F5F5F5F5F5F5F5F5F5F5F5F5F5F5F5F5F5F5F5F5F5F5F5F5F5F5F5F5F5F5F5F5F5F5F5F5F5F5F5F5F5F5F5F5F5F5F5F5F5F5F5F5F5F5
310
F5F5F5F5F5F5F5F5F5F5F5F5F5F5F5F5E2F5F5F5F5F5F5F5F5F5F5F5F5F5F5F5F5E2F5F5F5E2E2EFF5F5F5E2F5F5F5F5F5F5F5F5F5F5F5F5F5F5F5F5E2F5F5F5F5F5F5F5F5F5F5F5F5F5F5F5F5F5F5F5F5F5F5F5F5F5F5F5F5F5F5F5F5F5F5F5F5F5F5F5F5F5F5F5F5F5F5F5F5F5F5F5F5F5F5F5F5F5F5F5F5F5F5F5F5F5F5
310
F5F5F5F5F5F5F5F5F5F5F5F5F5F5F5F5F5F5F5F5F5F5F5F5F5F5F5F5F5F5F5F5F5F5F5F5F5F5F5F5F5F5F5F5F5F5F5F5F5F5F5F5F5F5F5F5F5F5F5F5F5F5F5F5F5F5F5F5F5E2F5F5F5F5F5F5F5F5F5F5F5F5F5F5F5F5E2F5F5F5E2E2EFF5F5F5E2F5F5F5F5F5F5F5F5F5F5F5F5F5F5F5F5E2F5F5F5F5F5F5F5F5F5F5F5F5F5
310
F5F5F5F5F5F5F5F5F5F5F5F5F5F5F5F5F5F5F5F5F5F5F5F5F5F5F5F5F5F5F5F5F5F5F5F5F5F5F5F5F5F5F5F5F5F5F5F5F5F5F5F5F5F5F5F5F5F5F5F5F5F5F5F5F5F5F5F5F5F5F5F5F5F5F5F5F5F5F5F5F5F5F5F5F5F5F5F5F5F5F5F5F5F5F5F5F5F5F5F5F5F5F5F5F5F5F5F5F5F5F5F5F5F5F5F5F5F5F5F5F5F5E2F5F5F5F5
310
F5F5F5F5F5F5F5F5F5F5F5F5E2F5F5F5E2E2EFF5F5F5E2F5F5F5F5F5F5F5F5F5F5F5F5F5F5F5F5E2F5F5F5F5F5F5F5F5F5F5F5F5F5F5F5F5F5F5F5F5F5F5F5F5F5F5F5F5F5F5F5F5F5F5F5F5F5F5F5F5F5F5F5F5F5F5F5F5F5F5F5F5F5F5F5F5F5F5F5F5F5F5F5F5F5F5F5F5F5F5F5F5F5F5F5F5F5F5F5F5F5F5F5F5F5F5F5
310
F5F5F5F5F5F5F5F5F5F5F5F5F5F5F5F5F5F5F5F5F5F5F5F5F5F5F5F5F5F5F5F5F5F5F5F5F5F5F5F5F5F5F5F5F5F5F5F5E2F5F5F5F5F5F5F5F5F5F5F5F5F5F5F5F5E2F5F5F5E2E2EFF5F5F5E2F5F5F5F5F5F5F5F5F5F5F5F5F5F5F5F5E2F5F5F5F5F5F5F5F5F5F5F5F5F5F5F5F5F5F5F5F5F5F5F5F5F5F5F5F5F5F5F5F5F5F5
310
F5F5F5F5F5F5F5F5F5F5F5F5F5F5F5F5F5F5F5F5F5F5F5F5F5F5F5F5F5F5F5F5F5F5F5F5F5F5F5F5F5F5F5F5F5F5F5F5F5F5F5F5F5F5F5F5F5F5F5F5F5F5F5F5F5F5F5F5F5F5F5F5F5F5F5F5F5F5F5F5F5F5F5F5F5F5F5F5F5F5F5F5F5F5F5F5F5F5F5F5F5E2F5F5F5F5F5F5F5F5F5F5F5F5F5F5F5F5E2F5F5F5E2E2EFF5F5
310
F5E2F5F5F5F5F5F5F5F5F5F5F5F5F5F5F5F5E2F5F5F5F5F5F5F5F5F5F5F5F5F5F5F5F5F5F5F5F5F5F5F5F5F5F5F5F5F5F5F5F5F5F5F5F5F5F5F5F5F5F5F5F5F5F5F5F5F5F5F5F5F5F5F5F5F5F5F5F5F5F5F5F5F5F5F5F5F5F5F5F5F5F5F5F5F5F5F5F5F5F5F5F5F5F5F5F5F5F5F5F5F5F5F5F5F5F5F5F5F5F5F5F5F5F5F5F5
310
F5F5F5F5F5F5F5F5F5F5F5F5F5F5F5F5F5F5F5F5F5F5F5F5F5F5F5E2F5F5F5F5F5F5F5F5F5F5F5F5F5F5F5F5E2F5F5F5E2E2EFF5F5F5E2F5F5F5F5F5F5F5F5F5F5F5F5F5F5F5F5E2F5F5F5F5F5F5F5F5F5F5F5F5F5F5F5F5F5F5F5F5F5F5F5F5F5F5F5F5F5F5F5F5F5F5F5F5F5F5F5F5F5F5F5F5F5F5F5F5F5F5F5F5F5F5F5
310
F5F5F5F5F5F5F5F5F5F5F5F5F5F5F5F5F5F5F5F5F5F5F5F5F5F5F5F5F5F5F5F5F5F5F5F5F5F5F5F5F5F5F5F5F5F5F5F5F5F5F5F5F5F5F5F5F5F5F5F5F5F5F5F5F5F5F5F5F5F5F5F5F5F5F5F5F5F5F5F5E2F5F5F5F5F5F5F5F5F5F5F5F5F5F5F5F5E2F5F5F5E2E2EFF5F5F5E2F5F5F5F5F5F5F5F5F5F5F5F5F5F5F5F5E2F5F5
310
F5F5F5F5F5F5F5F5F5F5F5F5F5F5F5F5F5F5F5F5F5F5F5F5F5F5F5F5F5F5F5F5F5F5F5F5F5F5F5F5F5F5F5F5F5F5F5F5F5F5F5F5F5F5F5F5F5F5F5F5F5F5F5F5F5F5F5F5F5F5F5F5F5F5F5F5F5F5F5F5F5F5F5F5F5F5F5F5F5F5F5F5F5F5F5F5F5F5F5F5F5F5F5F5F5F5F5F5F5F5F5F5F5F5F5F5F5F5F5F5F5F5F5F5F5F5F5
310
F5F5F5F5F5F5E2F5F5F5F5F5F5F5F5F5F5F5F5F5F5F5F5E2F5F5F5E2E2EFF5F5F5E2F5F5F5F5F5F5F5F5F5F5F5F5F5F5F5F5E2F5F5F5F5F5F5F5F5F5F5F5F5F5F5F5F5F5F5F5F5F5F5F5F5F5F5F5F5F5F5F5F5F5F5F5F5F5F5F5F5F5F5F5F5F5F5F5F5F5F5F5F5F5F5F5F5F5F5F5F5F5F5F5F5F5F5F5F5F5F5F5F5F5F5F5F5
310
F5F5F5F5F5F5F5F5F5F5F5F5F5F5F5F5F5F5F5F5F5F5F5F5F5F5F5F5F5F5F5F5F5F5F5F5F5F5F5F5F5F5F5F5F5F5F5F5F5F5F5F5F5F5F5F5F5F5F5E2F5F5F5F5F5F5F5F5F5F5F5F5F5F5F5F5E2F5F5F5E2E2EFF5F5F5F5F5F5F5F5F5F5F5F5F5F5F5F5F5F5F5F5E2F5F5F5F5F5F5F5F5F5F5F5F5F5F5F5F5F5F5F5F5F5F5F5
310
F5F5F5F5F5F5F5F5F5F5F5F5F5F5F5F5F5F5F5F5F5F5F5F5F5F5F5F5F5F5F5F5F5F5F5F5F5F5F5F5F5F5F5F5F5F5F5F5F5F5F5F5F5F5F5F5F5F5F5F5F5F5F5F5F5F5F5F5F5F5F5F5F5F5F5F5F5F5F5F5F5F5F5F5F5F5F5F5F5F5F5F5F5F5F5F5F5F5F5F5F5F5F5F5F5F5F5F5F5F5F5F5E2F5F5F5F5F5F5F5F5F5F5F5F5F5F5
310
F5F5F5F5F5F5E2E2EFF5F5F5F5F5F5F5F5F5F5F5F5F5F5F5F5F5F5F5F5E2F5F5F5F5F5F5F5F5F5F5F5F5F5F5F5F5F5F5F5F5F5F5F5F5F5F5F5F5F5F5F5F5F5F5F5F5F5F5F5F5F5F5F5F5F5F5F5F5F5F5F5F5F5F5F5F5F5F5F5F5F5F5F5F5F5F5F5F5F5F5F5F5F5F5F5F5F5F5F5F5F5F5F5F5F5F5F5F5F5F5F5F5F5F5F5F5F5
310
F5F5F5F5F5F5F5F5F5F5F5F5F5F5F5F5F5F5F5F5F5F5F5F5F5F5F5F5F5F5F5F5F5F5F5F5F5F5E2F5F5F5F5F5F5F5F5F5F5F5F5F5F5F5F5F5F5F5F5E2E2EFF5F5F5F5F5F5F5F5F5F5F5F5F5F5F5F5F5F5F5F5E2F5F5F5F5F5F5F5F5F5F5F5F5F5F5F5F5F5F5F5F5F5F5F5F5F5F5F5F5F5F5F5F5F5F5F5F5F5F5F5F5F5F5F5F5
310
F5F5F5F5F5F5F5F5F5F5F5F5F5F5F5F5F5F5F5F5F5F5F5F5F5F5F5F5F5F5F5F5F5F5F5F5F5F5F5F5F5F5F5F5F5F5F5F5F5F5F5F5F5F5F5F5F5F5F5F5F5F5F5F5F5F5F5F5F5F5F5F5F5F5F5F5F5F5F5F5F5F5F5F5F5F5F5F5F5F5F5E2F5F5F5F5F5F5F5F5F5F5F5F5F5F5F5F5F5F5F5F5E2E2EFF5F5F5F5F5F5F5F5F5F5F5F5
310
F5F5F5F5F5F5F5F5E2F5F5F5F5F5F5F5F5F5F5F5F5F5F5F5F5F5F5F5F5F5F5F5F5F5F5F5F5F5F5F5F5F5F5F5F5F5F5F5F5F5F5F5F5F5F5F5F5F5F5F5F5F5F5F5F5F5F5F5F5F5F5F5F5F5F5F5F5F5F5F5F5F5F5F5F5F5F5F5F5F5F5F5F5F5F5F5F5F5F5F5F5F5F5F5F5F5F5F5F5F5F5F5F5F5F5F5F5F5F5F5F5F5F5F5F5F5F5
310
F5F5F5F5F5F5F5F5F5F5F5F5F5F5F5F5F5E2F5F5F5F5F5F5F5F5F5F5F5F5F5F5F5F5F5F5F5F5E2E2EFF5F5F5F5F5F5F5F5F5F5F5F5F5F5F5F5F5F5F5F5E2F5F5F5F5F5F5F5F5F5F5F5F5F5F5F5F5F5F5F5F5F5F5F5F5F5F5F5F5F5F5F5F5F5F5F5F5F5F5F5F5F5F5F5F5F5F5F5F5F5F5F5F5F5F5F5F5F5F5F5F5F5F5F5F5F5
310
F5F5F5F5F5F5F5F5F5F5F5F5F5F5F5F5F5F5F5F5F5F5F5F5F5F5F5F5F5F5F5F5F5F5F5F5F5F5F5F5F5F5F5F5F5F5F5F5F5F5F5F5F5F5F5F5F5F5F5F5F5F5F5F5F5F5F5F5F5F5E2F5F5F5F5F5F5F5F5F5F5F5F5F5F5F5F5F5F5F5F5E2E2EFF5F5F5F5F5F5F5F5F5F5F5F5F5F5F5F5F5F5F5F5E2F5F5F5F5F5F5F5F5F5F5F5F5
310
F5F5F5F5F5F5F5F5F5F5F5F5F5F5F5F5F5F5F5F5F5F5F5F5F5F5F5F5F5F5F5F5F5F5F5F5F5F5F5F5F5F5F5F5F5F5F5F5F5F5F5F5F5F5F5F5F5F5F5F5F5F5F5F5F5F5F5F5F5F5F5F5F5F5F5F5F5F5F5F5F5F5F5F5F5F5F5F5F5F5F5F5F5F5F5F5F5F5F5F5F5F5F5F5F5F5F5F5F5F5F5F5F5F5F5F5F5F5F5F5F5F5F5E2F5F5F5
310
F5F5F5F5F5F5F5F5F5F5F5F5F5F5F5F5F5E2E2EFF5F5F5F5F5F5F5F5F5F5F5F5F5F5F5F5F5F5F5F5E2F5F5F5F5F5F5F5F5F5F5F5F5F5F5F5F5F5F5F5F5F5F5F5F5F5F5F5F5F5F5F5F5F5F5F5F5F5F5F5F5F5F5F5F5F5F5F5F5F5F5F5F5F5F5F5F5F5F5F5F5F5F5F5F5F5F5F5F5F5F5F5F5F5F5F5F5F5F5F5F5F5F5F5F5F5F5
310
F5F5F5F5F5F5F5F5F5F5F5F5F5F5F5F5F5F5F5F5F5F5F5F5F5F5F5F5F5F5F5F5F5F5F5F5F5F5F5F5F5F5F5F5F5F5F5F5F5E2F5F5F5F5F5F5F5F5F5F5F5F5F5F5F5F5F5F5F5F5E2E2EFF5F5F5F5F5F5F5F5F5F5F5F5F5F5F5F5F5F5F5F5E2F5F5F5F5F5F5F5F5F5F5F5F5F5F5F5F5F5F5F5F5F5F5F5F5F5F5F5F5F5F5F5F5F5
310
F5F5F5F5F5F5F5F5F5F5F5F5F5F5F5F5F5F5F5F5F5F5F5F5F5F5F5F5F5F5F5F5F5F5F5F5F5F5F5F5F5F5F5F5F5F5F5F5F5F5F5F5F5F5F5F5F5F5F5F5F5F5F5F5F5F5F5F5F5F5F5F5F5F5F5F5F5F5F5F5F5F5F5F5F5F5F5F5F5F5F5F5F5F5F5F5F5F5F5F5F5F5E2F5F5F5F5F5F5F5F5F5F5F5F5F5F5F5F5F5F5F5F5E2E2EFF5
310
F5F5F5F5F5F5F5F5F5F5F5F5F5F5F5F5F5F5F5E2F5F5F5F5F5F5F5F5F5F5F5F5F5F5F5F5F5F5F5F5F5F5F5F5F5F5F5F5F5F5F5F5F5F5F5F5F5F5F5F5F5F5F5F5F5F5F5F5F5F5F5F5F5F5F5F5F5F5F5F5F5F5F5F5F5F5F5F5F5F5F5F5F5F5F5F5F5F5F5F5F5F5F5F5F5F5F5F5F5F5F5F5F5F5F5F5F5F5F5F5F5F5F5F5F5F5F5
310
F5F5F5F5F5F5F5F5F5F5F5F5F5F5F5F5F5F5F5F5F5F5F5F5F5F5F5F5E2F5F5F5F5F5F5F5F5F5F5F5F5F5F5F5F5F5F5F5F5E2E2EFF5F5F5E2F5F5F5F5F5F5F5F5F5F5F5F5F5F5F5F5E2F5F5F5F5F5F5F5F5F5F5F5F5F5F5F5F5F5F5F5F5F5F5F5F5F5F5F5F5F5F5F5F5F5F5F5F5F5F5F5F5F5F5F5F5F5F5F5F5F5F5F5F5F5F5
310
F5F5F5F5F5F5F5F5F5F5F5F5F5F5F5F5F5F5F5F5F5F5F5F5F5F5F5F5F5F5F5F5F5F5F5F5F5F5F5F5F5F5F5F5F5F5F5F5F5F5F5F5F5F5F5F5F5F5F5F5F5F5F5F5F5F5F5F5F5F5F5F5F5F5F5F5F5F5F5F5F5E2F5F5F5F5F5F5F5F5F5F5F5F5F5F5F5F5E2F5F5F5E2E2EFF5F5F5E2F5F5F5F5F5F5F5F5F5F5F5F5F5F5F5F5E2F5
310
F5F5F5F5F5F5F5F5F5F5F5F5F5F5F5F5F5F5F5F5F5F5F5F5F5F5F5F5F5F5F5F5F5F5F5F5F5F5F5F5F5F5F5F5F5F5F5F5F5F5F5F5F5F5F5F5F5F5F5F5F5F5F5F5F5F5F5F5F5F5F5F5F5F5F5F5F5F5F5F5F5F5F5F5F5F5F5F5F5F5F5F5F5F5F5F5F5F5F5F5F5F5F5F5F5F5F5F5F5F5F5F5F5F5F5F5F5F5F5F5F5F5F5F5F5F5F5
310
F5F5F5F5F5F5F5E2F5F5F5F5F5F5F5F5F5F5F5F5F5F5F5F5E2F5F5F5E2E2EFF5F5F5E2F5F5F5F5F5F5F5F5F5F5F5F5F5F5F5F5E2F5F5F5F5F5F5F5F5F5F5F5F5F5F5F5F5F5F5F5F5F5F5F5F5F5F5F5F5F5F5F5F5F5F5F5F5F5F5F5F5F5F5F5F5F5F5F5F5F5F5F5F5F5F5F5F5F5F5F5F5F5F5F5F5F5F5F5F5F5F5F5F5F5F5F5
310
F5F5F5F5F5F5F5F5F5F5F5F5F5F5F5F5F5F5F5F5F5F5F5F5F5F5F5F5F5F5F5F5F5F5F5F5F5F5F5F5F5F5F5F5F5F5F5F5F5F5F5F5F5F5F5F5F5F5F5F5E2F5F5F5F5F5F5F5F5F5F5F5F5F5F5F5F5E2F5F5F5E2E2EFF5F5F5E2F5F5F5F5F5F5F5F5F5F5F5F5F5F5F5F5E2F5F5F5F5F5F5F5F5F5F5F5F5F5F5F5F5F5F5F5F5F5F5
310
F5F5F5F5F5F5F5F5F5F5F5F5F5F5F5F5F5F5F5F5F5F5F5F5F5F5F5F5F5F5F5F5F5F5F5F5F5F5F5F5F5F5F5F5F5F5F5F5F5F5F5F5F5F5F5F5F5F5F5F5F5F5F5F5F5F5F5F5F5F5F5F5F5F5F5F5F5F5F5F5F5F5F5F5F5F5F5F5F5F5F5F5F5F5F5F5F5F5F5F5F5F5F5F5F5F5F5F5F5F5F5F5F5E2F5F5F5F5F5F5F5F5F5F5F5F5F5
310
F5F5F5E2F5F5F5E2E2EFF5F5F5E2F5F5F5F5F5F5F5F5F5F5F5F5F5F5F5F5E2F5F5F5F5F5F5F5F5F5F5F5F5F5F5F5F5F5F5F5F5F5F5F5F5F5F5F5F5F5F5F5F5F5F5F5F5F5F5F5F5F5F5F5F5F5F5F5F5F5F5F5F5F5F5F5F5F5F5F5F5F5F5F5F5F5F5F5F5F5F5F5F5F5F5F5F5F5F5F5F5F5F5F5F5F5F5F5F5F5F5F5F5F5F5F5F5
310
F5F5F5F5F5F5F5F5F5F5F5F5F5F5F5F5F5F5F5F5F5F5F5F5F5F5F5F5F5F5F5F5F5F5F5F5F5F5F5E2F5F5F5F5F5F5F5F5F5F5F5F5F5F5F5F5E2F5F5F5E2E2EFF5F5F5E2F5F5F5F5F5F5F5F5F5F5F5F5F5F5F5F5E2F5F5F5F5F5F5F5F5F5F5F5F5F5F5F5F5F5F5F5F5F5F5F5F5F5F5F5F5F5F5F5F5F5F5F5F5F5F5F5F5F5F5F5
310
F5F5F5F5F5F5F5F5F5F5F5F5F5F5F5F5F5F5F5F5F5F5F5F5F5F5F5F5F5F5F5F5F5F5F5F5F5F5F5F5F5F5F5F5F5F5F5F5F5F5F5F5F5F5F5F5F5F5F5F5F5F5F5F5F5F5F5F5F5F5F5F5F5F5F5F5F5F5F5F5F5F5F5F5F5F5F5F5F5F5F5F5E2F5F5F5F5F5F5F5F5F5F5F5F5F5F5F5F5E2F5F5F5E2E2EFF5F5F5E2F5F5F5F5F5F5F5
310
F5F5F5F5F5F5F5F5F5E2F5F5F5F5F5F5F5F5F5F5F5F5F5F5F5F5F5F5F5F5F5F5F5F5F5F5F5F5F5F5F5F5F5F5F5F5F5F5F5F5F5F5F5F5F5F5F5F5F5F5F5F5F5F5F5F5F5F5F5F5F5F5F5F5F5F5F5F5F5F5F5F5F5F5F5F5F5F5F5F5F5F5F5F5F5F5F5F5F5F5F5F5F5F5F5F5F5F5F5F5F5F5F5F5F5F5F5F5F5F5F5F5F5F5F5F5F5
310
F5F5F5F5F5F5F5F5F5F5F5F5F5F5F5F5F5F5E2F5F5F5F5F5F5F5F5F5F5F5F5F5F5F5F5E2F5F5F5E2E2EFF5F5F5E2F5F5F5F5F5F5F5F5F5F5F5F5F5F5F5F5E2F5F5F5F5F5F5F5F5F5F5F5F5F5F5F5F5F5F5F5F5F5F5F5F5F5F5F5F5F5F5F5F5F5F5F5F5F5F5F5F5F5F5F5F5F5F5F5F5F5F5F5F5F5F5F5F5F5F5F5F5F5F5F5F5
310
F5F5F5F5F5F5F5F5F5F5F5F5F5F5F5F5F5F5F5F5F5F5F5F5F5F5F5F5F5F5F5F5F5F5F5F5F5F5F5F5F5F5F5F5F5F5F5F5F5F5F5F5F5F5F5F5F5F5F5F5F5F5F5F5F5F5F5F5F5F5F5E2F5F5F5F5F5F5F5F5F5F5F5F5F5F5F5F5E2F5F5F5E2E2EFF5F5F5E2F5F5F5F5F5F5F5F5F5F5F5F5F5F5F5F5E2F5F5F5F5F5F5F5F5F5F5F5
310
F5F5F5F5F5F5F5F5F5F5F5F5F5F5F5F5F5F5F5F5F5F5F5F5F5F5F5F5F5F5F5F5F5F5F5F5F5F5F5F5F5F5F5F5F5F5F5F5F5F5F5F5F5F5F5F5F5F5F5F5F5F5F5F5F5F5F5F5F5F5F5F5F5F5F5F5F5F5F5F5F5F5F5F5F5F5F5F5F5F5F5F5F5F5F5F5F5F5F5F5F5F5F5F5F5F5F5F5F5F5F5F5F5F5F5F5F5F5F5F5F5F5F5F5E2F5F5
310
F5F5F5F5F5F5F5F5F5F5F5F5F5F5E2F5F5F5E2E2EFF5F5F5E2F5F5F5F5F5F5F5F5F5F5F5F5F5F5F5F5E2F5F5F5F5F5F5F5F5F5F5F5F5F5F5F5F5F5F5F5F5F5F5F5F5F5F5F5F5F5F5F5F5F5F5F5F5F5F5F5F5F5F5F5F5F5F5F5F5F5F5F5F5F5F5F5F5F5F5F5F5F5F5F5F5F5F5F5F5F5F5F5F5F5F5F5F5F5F5F5F5F5F5F5F5F5
310
F5F5F5F5F5F5F5F5F5F5F5F5F5F5F5F5F5F5F5F5F5F5F5F5F5F5F5F5F5F5F5F5F5F5F5F5F5F5F5F5F5F5F5F5F5F5F5F5F5F5E2F5F5F5F5F5F5F5F5F5F5F5F5F5F5F5F5E2F5F5F5E2E2EFF5F5F5E2F5F5F5F5F5F5F5F5F5F5F5F5F5F5F5F5E2F5F5F5F5F5F5F5F5F5F5F5F5F5F5F5F5F5F5F5F5F5F5F5F5F5F5F5F5F5F5F5F5
310
F5F5F5F5F5F5F5F5F5F5F5F5F5F5F5F5F5F5F5F5F5F5F5F5F5F5F5F5F5F5F5F5F5F5F5F5F5F5F5F5F5F5F5F5F5F5F5F5F5F5F5F5F5F5F5F5F5F5F5F5F5F5F5F5F5F5F5F5F5F5F5F5F5F5F5F5F5F5F5F5F5F5F5F5F5F5F5F5F5F5F5F5F5F5F5F5F5F5F5F5F5F5F5E2F5F5F5F5F5F5F5F5F5F5F5F5F5F5F5F5E2F5F5F5E2E2EF
310
F5F5F5E2F5F5F5F5F5F5F5F5F5F5F5F5F5F5F5F5E2F5F5F5F5F5F5F5F5F5F5F5F5F5F5F5F5F5F5F5F5F5F5F5F5F5F5F5F5F5F5F5F5F5F5F5F5F5F5F5F5F5F5F5F5F5F5F5F5F5F5F5F5F5F5F5F5F5F5F5F5F5F5F5F5F5F5F5F5F5F5F5F5F5F5F5F5F5F5F5F5F5F5F5F5F5F5F5F5F5F5F5F5F5F5F5F5F5F5F5F5F5F5F5F5F5F5
310
F5F5F5F5F5F5F5F5F5F5F5F5F5F5F5F5F5F5F5F5F5F5F5F5F5F5F5F5F5E2F5F5F5F5F5F5F5F5F5F5F5F5F5F5F5F5E2F5F5F5E2E2EFF5F5F5E2F5F5F5F5F5F5F5F5F5F5F5F5F5F5F5F5E2F5F5F5F5F5F5F5F5F5F5F5F5F5F5F5F5F5F5F5F5F5F5F5F5F5F5F5F5F5F5F5F5F5F5F5F5F5F5F5F5F5F5F5F5F5F5F5F5F5F5F5F5F5
310
F5F5F5F5F5F5F5F5F5F5F5F5F5F5F5F5F5F5F5F5F5F5F5F5F5F5F5F5F5F5F5F5F5F5F5F5F5F5F5F5F5F5F5F5F5F5F5F5F5F5F5F5F5F5F5F5F5F5F5F5F5F5F5F5F5F5F5F5F5F5F5F5F5F5F5F5F5F5F5F5F5F5E2F5F5F5F5F5F5F5F5F5F5F5F5F5F5F5F5E2F5F5F5E2E2EFF5F5F5E2F5F5F5F5F5F5F5F5F5F5F5F5F5F5F5F5E2
310
F5F5F5F5F5F5F5F5F5F5F5F5F5F5F5F5F5F5F5F5F5F5F5F5F5F5F5F5F5F5F5F5F5F5F5F5F5F5F5F5F5F5F5F5F5F5F5F5F5F5F5F5F5F5F5F5F5F5F5F5F5F5F5F5F5F5F5F5F5F5F5F5F5F5F5F5F5F5F5F5F5F5F5F5F5F5F5F5F5F5F5F5F5F5F5F5F5F5F5F5F5F5F5F5F5F5F5F5F5F5F5F5F5F5F5F5F5F5F5F5F5F5F5F5F5F5F5
310
F5F5F5F5F5F5F5F5E2F5F5F5F5F5F5F5F5F5F5F5F5F5F5F5F5E2F5F5F5E2E2EFF5F5F5E2F5F5F5F5F5F5F5F5F5F5F5F5F5F5F5F5E2F5F5F5F5F5F5F5F5F5F5F5F5F5F5F5F5F5F5F5F5F5F5F5F5F5F5F5F5F5F5F5F5F5F5F5F5F5F5F5F5F5F5F5F5F5F5F5F5F5F5F5F5F5F5F5F5F5F5F5F5F5F5F5F5F5F5F5F5F5F5F5F5F5F5
310
F5F5F5F5F5F5F5F5F5F5F5F5F5F5F5F5F5F5F5F5F5F5F5F5F5F5F5F5F5F5F5F5F5F5F5F5F5F5F5F5F5F5F5F5F5F5F5F5F5F5F5F5F5F5F5F5F5F5F5F5F5E2F5F5F5F5F5F5F5F5F5F5F5F5F5F5F5F5E2F5F5F5E2E2EFF5F5F5E2F5F5F5F5F5F5F5F5F5F5F5F5F5F5F5F5E2F5F5F5F5F5F5F5F5F5F5F5F5F5F5F5F5F5F5F5F5F5
310
F5F5F5F5F5F5F5F5F5F5F5F5F5F5F5F5F5F5F5F5F5F5F5F5F5F5F5F5F5F5F5F5F5F5F5F5F5F5F5F5F5F5F5F5F5F5F5F5F5F5F5F5F5F5F5F5F5F5F5F5F5F5F5F5F5F5F5F5F5F5F5F5F5F5F5F5F5F5F5F5F5F5F5F5F5F5F5F5F5F5F5F5F5F5F5F5F5F5F5F5F5F5F5F5F5F5F5F5F5F5F5F5F5F5E2F5F5F5F5F5F5F5F5F5F5F5F5
310
F5F5F5F5E2F5F5F5E2E2EFF5F5F5E2F5F5F5F5F5F5F5F5F5F5F5F5F5F5F5F5E2F5F5F5F5F5F5F5F5F5F5F5F5F5F5F5F5F5F5F5F5F5F5F5F5F5F5F5F5F5F5F5F5F5F5F5F5F5F5F5F5F5F5F5F5F5F5F5F5F5F5F5F5F5F5F5F5F5F5F5F5F5F5F5F5F5F5F5F5F5F5F5F5F5F5F5F5F5F5F5F5F5F5F5F5F5F5F5F5F5F5F5F5F5F5F5
310
F5F5F5F5F5F5F5F5F5F5F5F5F5F5F5F5F5F5F5F5F5F5F5F5F5F5F5F5F5F5F5F5F5F5F5F5F5F5F5F5E2F5F5F5F5F5F5F5F5F5F5F5F5F5F5F5F5E2F5F5F5E2E2EFF5F5F5F5F5F5F5F5F5F5F5F5F5F5F5F5F5F5F5F5E2F5F5F5F5F5F5F5F5F5F5F5F5F5F5F5F5F5F5F5F5F5F5F5F5F5F5F5F5F5F5F5F5F5F5F5F5F5F5F5F5F5F5
310
F5F5F5F5F5F5F5F5F5F5F5F5F5F5F5F5F5F5F5F5F5F5F5F5F5F5F5F5F5F5F5F5F5F5F5F5F5F5F5F5F5F5F5F5F5F5F5F5F5F5F5F5F5F5F5F5F5F5F5F5F5F5F5F5F5F5F5F5F5F5F5F5F5F5F5F5F5F5F5F5F5F5F5F5F5F5F5F5F5F5F5F5F5E2F5F5F5F5F5F5F5F5F5F5F5F5F5F5F5F5F5F5F5F5E2E2EFF5F5F5F5F5F5F5F5F5F5
310
F5F5F5F5F5F5F5F5F5F5E2F5F5F5F5F5F5F5F5F5F5F5F5F5F5F5F5F5F5F5F5F5F5F5F5F5F5F5F5F5F5F5F5F5F5F5F5F5F5F5F5F5F5F5F5F5F5F5F5F5F5F5F5F5F5F5F5F5F5F5F5F5F5F5F5F5F5F5F5F5F5F5F5F5F5F5F5F5F5F5F5F5F5F5F5F5F5F5F5F5F5F5F5F5F5F5F5F5F5F5F5F5F5F5F5F5F5F5F5F5F5F5F5F5F5F5F5
310
F5F5F5F5F5F5F5F5F5F5F5F5F5F5F5F5F5F5F5E2F5F5F5F5F5F5F5F5F5F5F5F5F5F5F5F5F5F5F5F5E2E2EFF5F5F5F5F5F5F5F5F5F5F5F5F5F5F5F5F5F5F5F5E2F5F5F5F5F5F5F5F5F5F5F5F5F5F5F5F5F5F5F5F5F5F5F5F5F5F5F5F5F5F5F5F5F5F5F5F5F5F5F5F5F5F5F5F5F5F5F5F5F5F5F5F5F5F5F5F5F5F5F5F5F5F5F5
310
F5F5F5F5F5F5F5F5F5F5F5F5F5F5F5F5F5F5F5F5F5F5F5F5F5F5F5F5F5F5F5F5F5F5F5F5F5F5F5F5F5F5F5F5F5F5F5F5F5F5F5F5F5F5F5F5F5F5F5F5F5F5F5F5F5F5F5F5F5F5F5F5E2F5F5F5F5F5F5F5F5F5F5F5F5F5F5F5F5F5F5F5F5E2E2EFF5F5F5F5F5F5F5F5F5F5F5F5F5F5F5F5F5F5F5F5E2F5F5F5F5F5F5F5F5F5F5
310
F5F5F5F5F5F5F5F5F5F5F5F5F5F5F5F5F5F5F5F5F5F5F5F5F5F5F5F5F5F5F5F5F5F5F5F5F5F5F5F5F5F5F5F5F5F5F5F5F5F5F5F5F5F5F5F5F5F5F5F5F5F5F5F5F5F5F5F5F5F5F5F5F5F5F5F5F5F5F5F5F5F5F5F5F5F5F5F5F5F5F5F5F5F5F5F5F5F5F5F5F5F5F5F5F5F5F5F5F5F5F5F5F5F5F5F5F5F5F5F5F5F5F5F5F5E2F5
310
F5F5F5F5F5F5F5F5F5F5F5F5F5F5F5F5F5F5F5E2E2EFF5F5F5F5F5F5F5F5F5F5F5F5F5F5F5F5F5F5F5F5E2F5F5F5F5F5F5F5F5F5F5F5F5F5F5F5F5F5F5F5F5F5F5F5F5F5F5F5F5F5F5F5F5F5F5F5F5F5F5F5F5F5F5F5F5F5F5F5F5F5F5F5F5F5F5F5F5F5F5F5F5F5F5F5F5F5F5F5F5F5F5F5F5F5F5F5F5F5F5F5F5F5F5F5F5
310
F5F5F5F5F5F5F5F5F5F5F5F5F5F5F5F5F5F5F5F5F5F5F5F5F5F5F5F5F5F5F5F5F5F5F5F5F5F5F5F5F5F5F5F5F5F5F5F5F5F5F5E2F5F5F5F5F5F5F5F5F5F5F5F5F5F5F5F5F5F5F5F5E2E2EFF5F5F5F5F5F5F5F5F5F5F5F5F5F5F5F5F5F5F5F5E2F5F5F5F5F5F5F5F5F5F5F5F5F5F5F5F5F5F5F5F5F5F5F5F5F5F5F5F5F5F5F5
310
F5F5F5F5F5F5F5F5F5F5F5F5F5F5F5F5F5F5F5F5F5F5F5F5F5F5F5F5F5F5F5F5F5F5F5F5F5F5F5F5F5F5F5F5F5F5F5F5F5F5F5F5F5F5F5F5F5F5F5F5F5F5F5F5F5F5F5F5F5F5F5F5F5F5F5F5F5F5F5F5F5F5F5F5F5F5F5F5F5F5F5F5F5F5F5F5F5F5F5F5F5F5F5F5E2F5F5F5F5F5F5F5F5F5F5F5F5F5F5F5F5F5F5F5F5E2E2
310
EFF5F5F5F5F5F5F5F5F5F5F5F5F5F5F5F5F5F5F5F5E2F5F5F5F5F5F5F5F5F5F5F5F5F5F5F5F5F5F5F5F5F5F5F5F5F5F5F5F5F5F5F5F5F5F5F5F5F5F5F5F5F5F5F5F5F5F5F5F5F5F5F5F5F5F5F5F5F5F5F5F5F5F5F5F5F5F5F5F5F5F5F5F5F5F5F5F5F5F5F5F5F5F5F5F5F5F5F5F5F5F5F5F5F5F5F5F5F5F5F5F5F5F5F5F5F5
310
F5F5F5F5F5F5F5F5F5F5F5F5F5F5F5F5F5F5F5F5F5F5F5F5F5F5F5F5F5F5E2F5F5F5F5F5F5F5F5F5F5F5F5F5F5F5F5F5F5F5F5E2E2EFF5F5F5F5F5F5F5F5F5F5F5F5F5F5F5F5F5F5F5F5E2F5F5F5F5F5F5F5F5F5F5F5F5F5F5F5F5F5F5F5F5F5F5F5F5F5F5F5F5F5F5F5F5F5F5F5F5F5F5F5F5F5F5F5F5F5F5F5F5F5F5F5F5
310
F5F5F5F5F5F5F5F5F5F5F5F5F5F5F5F5F5F5F5F5F5F5F5F5F5F5F5F5F5F5F5F5F5F5F5F5F5F5F5F5F5F5F5F5F5F5F5F5F5F5F5F5F5F5F5F5F5F5F5F5F5F5F5F5F5F5F5F5F5F5F5F5F5F5F5F5F5F5F5F5F5F5F5E2F5F5F5F5F5F5F5F5F5F5F5F5F5F5F5F5F5F5F5F5E2E2EFF5F5F5F5F5F5F5F5F5F5F5F5F5F5F5F5F5F5F5F5
310
E2F5F5F5F5F5F5F5F5F5F5F5F5F5F5F5F5F5F5F5F5F5F5F5F5F5F5F5F5F5F5F5F5F5F5F5F5F5F5F5F5F5F5F5F5F5F5F5F5F5F5F5F5F5F5F5F5F5F5F5F5F5F5F5F5F5F5F5F5F5F5F5F5F5F5F5F5F5F5F5F5F5F5F5F5F5F5F5F5F5F5F5F5F5F5F5F5F5F5F5F5F5F5F5F5F5F5F5F5F5F5F5F5F5F5F5F5F5F5F5F5F5F5F5F5F5F5
310
F5F5F5F5F5F5F5F5F5E2F5F5F5F5F5F5F5F5F5F5F5F5F5F5F5F5F5F5F5F5E2E2EFF5F5F5E2F5F5F5F5F5F5F5F5F5F5F5F5F5F5F5F5E2F5F5F5F5F5F5F5F5F5F5F5F5F5F5F5F5F5F5F5F5F5F5F5F5F5F5F5F5F5F5F5F5F5F5F5F5F5F5F5F5F5F5F5F5F5F5F5F5F5F5F5F5F5F5F5F5F5F5F5F5F5F5F5F5F5F5F5F5F5F5F5F5F5
310
F5F5F5F5F5F5F5F5F5F5F5F5F5F5F5F5F5F5F5F5F5F5F5F5F5F5F5F5F5F5F5F5F5F5F5F5F5F5F5F5F5F5F5F5F5F5F5F5F5F5F5F5F5F5F5F5F5F5F5F5F5F5E2F5F5F5F5F5F5F5F5F5F5F5F5F5F5F5F5E2F5F5F5E2E2EFF5F5F5E2F5F5F5F5F5F5F5F5F5F5F5F5F5F5F5F5E2F5F5F5F5F5F5F5F5F5F5F5F5F5F5F5F5F5F5F5F5
310
F5F5F5F5F5F5F5F5F5F5F5F5F5F5F5F5F5F5F5F5F5F5F5F5F5F5F5F5F5F5F5F5F5F5F5F5F5F5F5F5F5F5F5F5F5F5F5F5F5F5F5F5F5F5F5F5F5F5F5F5F5F5F5F5F5F5F5F5F5F5F5F5F5F5F5F5F5F5F5F5F5F5F5F5F5F5F5F5F5F5F5F5F5F5F5F5F5F5F5F5F5F5F5F5F5F5F5F5F5F5F5F5F5F5F5E2F5F5F5F5F5F5F5F5F5F5F5
310
F5F5F5F5F5E2F5F5F5E2E2EFF5F5F5E2F5F5F5F5F5F5F5F5F5F5F5F5F5F5F5F5E2F5F5F5F5F5F5F5F5F5F5F5F5F5F5F5F5F5F5F5F5F5F5F5F5F5F5F5F5F5F5F5F5F5F5F5F5F5F5F5F5F5F5F5F5F5F5F5F5F5F5F5F5F5F5F5F5F5F5F5F5F5F5F5F5F5F5F5F5F5F5F5F5F5F5F5F5F5F5F5F5F5F5F5F5F5F5F5F5F5F5F5F5F5F5
310
F5F5F5F5F5F5F5F5F5F5F5F5F5F5F5F5F5F5F5F5F5F5F5F5F5F5F5F5F5F5F5F5F5F5F5F5F5F5F5F5F5E2F5F5F5F5F5F5F5F5F5F5F5F5F5F5F5F5E2F5F5F5E2E2EFF5F5F5E2F5F5F5F5F5F5F5F5F5F5F5F5F5F5F5F5E2F5F5F5F5F5F5F5F5F5F5F5F5F5F5F5F5F5F5F5F5F5F5F5F5F5F5F5F5F5F5F5F5F5F5F5F5F5F5F5F5F5
310
F5F5F5F5F5F5F5F5F5F5F5F5F5F5F5F5F5F5F5F5F5F5F5F5F5F5F5F5F5F5F5F5F5F5F5F5F5F5F5F5F5F5F5F5F5F5F5F5F5F5F5F5F5F5F5F5F5F5F5F5F5F5F5F5F5F5F5F5F5F5F5F5F5F5F5F5F5F5F5F5F5F5F5F5F5F5F5F5F5F5F5F5F5F5E2F5F5F5F5F5F5F5F5F5F5F5F5F5F5F5F5E2F5F5F5E2E2EFF5F5F5E2F5F5F5F5F5
310
F5F5F5F5F5F5F5F5F5F5F5E2F5F5F5F5F5F5F5F5F5F5F5F5F5F5F5F5F5F5F5F5F5F5F5F5F5F5F5F5F5F5F5F5F5F5F5F5F5F5F5F5F5F5F5F5F5F5F5F5F5F5F5F5F5F5F5F5F5F5F5F5F5F5F5F5F5F5F5F5F5F5F5F5F5F5F5F5F5F5F5F5F5F5F5F5F5F5F5F5F5F5F5F5F5F5F5F5F5F5F5F5F5F5F5F5F5F5F5F5F5F5F5F5F5F5F5
310
F5F5F5F5F5F5F5F5F5F5F5F5F5F5F5F5F5F5F5F5E2F5F5F5F5F5F5F5F5F5F5F5F5F5F5F5F5E2F5F5F5E2E2EFF5F5F5E2F5F5F5F5F5F5F5F5F5F5F5F5F5F5F5F5E2F5F5F5F5F5F5F5F5F5F5F5F5F5F5F5F5F5F5F5F5F5F5F5F5F5F5F5F5F5F5F5F5F5F5F5F5F5F5F5F5F5F5F5F5F5F5F5F5F5F5F5F5F5F5F5F5F5F5F5F5F5F5
310
F5F5F5F5F5F5F5F5F5F5F5F5F5F5F5F5F5F5F5F5F5F5F5F5F5F5F5F5F5F5F5F5F5F5F5F5F5F5F5F5F5F5F5F5F5F5F5F5F5F5F5F5F5F5F5F5F5F5F5F5F5F5F5F5F5F5F5F5F5F5F5F5F5E2F5F5F5F5F5F5F5F5F5F5F5F5F5F5F5F5E2F5F5F5E2E2EFF5F5F5E2F5F5F5F5F5F5F5F5F5F5F5F5F5F5F5F5E2F5F5F5F5F5F5F5F5F5
310
F5F5F5F5F5F5F5F5F5F5F5F5F5F5F5F5F5F5F5F5F5F5F5F5F5F5F5F5F5F5F5F5F5F5F5F5F5F5F5F5F5F5F5F5F5F5F5F5F5F5F5F5F5F5F5F5F5F5F5F5F5F5F5F5F5F5F5F5F5F5F5F5F5F5F5F5F5F5F5F5F5F5F5F5F5F5F5F5F5F5F5F5F5F5F5F5F5F5F5F5F5F5F5F5F5F5F5F5F5F5F5F5F5F5F5F5F5F5F5F5F5F5F5F5F5F5E2
310
F5F5F5F5F5F5F5F5F5F5F5F5F5F5F5F5E2F5F5F5E2E2EFF5F5F5E2F5F5F5F5F5F5F5F5F5F5F5F5F5F5F5F5E2F5F5F5F5F5F5F5F5F5F5F5F5F5F5F5F5F5F5F5F5F5F5F5F5F5F5F5F5F5F5F5F5F5F5F5F5F5F5F5F5F5F5F5F5F5F5F5F5F5F5F5F5F5F5F5F5F5F5F5F5F5F5F5F5F5F5F5F5F5F5F5F5F5F5F5F5F5F5F5F5F5F5F5
310
F5F5F5F5F5F5F5F5F5F5F5F5F5F5F5F5F5F5F5F5F5F5F5F5F5F5F5F5F5F5F5F5F5F5F5F5F5F5F5F5F5F5F5F5F5F5F5F5F5F5F5F5E2F5F5F5F5F5F5F5F5F5F5F5F5F5F5F5F5E2F5F5F5E2E2EFF5F5F5E2F5F5F5F5F5F5F5F5F5F5F5F5F5F5F5F5E2F5F5F5F5F5F5F5F5F5F5F5F5F5F5F5F5F5F5F5F5F5F5F5F5F5F5F5F5F5F5
310
F5F5F5F5F5F5F5F5F5F5F5F5F5F5F5F5F5F5F5F5F5F5F5F5F5F5F5F5F5F5F5F5F5F5F5F5F5F5F5F5F5F5F5F5F5F5F5F5F5F5F5F5F5F5F5F5F5F5F5F5F5F5F5F5F5F5F5F5F5F5F5F5F5F5F5F5F5F5F5F5F5F5F5F5F5F5F5F5F5F5F5F5F5F5F5F5F5F5F5F5F5F5F5F5F5E2F5F5F5F5F5F5F5F5F5F5F5F5F5F5F5F5E2F5F5F5E2
310
E2EFF5F5F5E2F5F5F5F5F5F5F5F5F5F5F5F5F5F5F5F5E2F5F5F5F5F5F5F5F5F5F5F5F5F5F5F5F5F5F5F5F5F5F5F5F5F5F5F5F5F5F5F5F5F5F5F5F5F5F5F5F5F5F5F5F5F5F5F5F5F5F5F5F5F5F5F5F5F5F5F5F5F5F5F5F5F5F5F5F5F5F5F5F5F5F5F5F5F5F5F5F5F5F5F5F5F5F5F5F5F5F5F5F5F5F5F5F5F5F5F5F5F5F5F5F5
310
F5F5F5F5F5F5F5F5F5F5F5F5F5F5F5F5F5F5F5F5F5F5F5F5F5F5F5F5F5F5F5E2F5F5F5F5F5F5F5F5F5F5F5F5F5F5F5F5E2F5F5F5E2E2EFF5F5F5E2F5F5F5F5F5F5F5F5F5F5F5F5F5F5F5F5E2F5F5F5F5F5F5F5F5F5F5F5F5F5F5F5F5F5F5F5F5F5F5F5F5F5F5F5F5F5F5F5F5F5F5F5F5F5F5F5F5F5F5F5F5F5F5F5F5F5F5F5
310
F5F5F5F5F5F5F5F5F5F5F5F5F5F5F5F5F5F5F5F5F5F5F5F5F5F5F5F5F5F5F5F5F5F5F5F5F5F5F5F5F5F5F5F5F5F5F5F5F5F5F5F5F5F5F5F5F5F5F5F5F5F5F5F5F5F5F5F5F5F5F5F5F5F5F5F5F5F5F5F5F5F5F5F5E2F5F5F5F5F5F5F5F5F5F5F5F5F5F5F5F5E2F5F5F5E2E2EFF5F5F5E2F5F5F5F5F5F5F5F5F5F5F5F5F5F5F5
310
F5E2F5F5F5F5F5F5F5F5F5F5F5F5F5F5F5F5F5F5F5F5F5F5F5F5F5F5F5F5F5F5F5F5F5F5F5F5F5F5F5F5F5F5F5F5F5F5F5F5F5F5F5F5F5F5F5F5F5F5F5F5F5F5F5F5F5F5F5F5F5F5F5F5F5F5F5F5F5F5F5F5F5F5F5F5F5F5F5F5F5F5F5F5F5F5F5F5F5F5F5F5F5F5F5F5F5F5F5F5F5F5F5F5F5F5F5F5F5F5F5F5F5F5F5F5F5
310
F5F5F5F5F5F5F5F5F5F5E2F5F5F5F5F5F5F5F5F5F5F5F5F5F5F5F5E2F5F5F5E2E2EFF5F5F5E2F5F5F5F5F5F5F5F5F5F5F5F5F5F5F5F5E2F5F5F5F5F5F5F5F5F5F5F5F5F5F5F5F5F5F5F5F5F5F5F5F5F5F5F5F5F5F5F5F5F5F5F5F5F5F5F5F5F5F5F5F5F5F5F5F5F5F5F5F5F5F5F5F5F5F5F5F5F5F5F5F5F5F5F5F5F5F5F5F5
310
F5F5F5F5F5F5F5F5F5F5F5F5F5F5F5F5F5F5F5F5F5F5F5F5F5F5F5F5F5F5F5F5F5F5F5F5F5F5F5F5F5F5F5F5F5F5F5F5F5F5F5F5F5F5F5F5F5F5F5F5F5F5F5E2F5F5F5F5F5F5F5F5F5F5F5F5F5F5F5F5E2F5F5F5E2E2EFF5F5F5E2F5F5F5F5F5F5F5F5F5F5F5F5F5F5F5F5E2F5F5F5F5F5F5F5F5F5F5F5F5F5F5F5F5F5F5F5
310
F5F5F5F5F5F5F5F5F5F5F5F5F5F5F5F5F5F5F5F5F5F5F5F5F5F5F5F5F5F5F5F5F5F5F5F5F5F5F5F5F5F5F5F5F5F5F5F5F5F5F5F5F5F5F5F5F5F5F5F5F5F5F5F5F5F5F5F5F5F5F5F5F5F5F5F5F5F5F5F5F5F5F5F5F5F5F5F5F5F5F5F5F5F5F5F5F5F5F5F5F5F5F5F5F5F5F5F5F5F5F5F5F5F5F5F5E2F5F5F5F5F5F5F5F5F5F5
310
F5F5F5F5F5F5E2F5F5F5E2E2EFF5F5F5E2F5F5F5F5F5F5F5F5F5F5F5F5F5F5F5F5E2F5F5F5F5F5F5F5F5F5F5F5F5F5F5F5F5F5F5F5F5F5F5F5F5F5F5F5F5F5F5F5F5F5F5F5F5F5F5F5F5F5F5F5F5F5F5F5F5F5F5F5F5F5F5F5F5F5F5F5F5F5F5F5F5F5F5F5F5F5F5F5F5F5F5F5F5F5F5F5F5F5F5F5F5F5F5F5F5F5F5F5F5F5
310
F5F5F5F5F5F5F5F5F5F5F5F5F5F5F5F5F5F5F5F5F5F5F5F5F5F5F5F5F5F5F5F5F5F5F5F5F5F5F5F5F5F5E2F5F5F5F5F5F5F5F5F5F5F5F5F5F5F5F5E2F5F5F5E2E2EFF5F5F5E2F5F5F5F5F5F5F5F5F5F5F5F5F5F5F5F5E2F5F5F5F5F5F5F5F5F5F5F5F5F5F5F5F5F5F5F5F5F5F5F5F5F5F5F5F5F5F5F5F5F5F5F5F5F5F5F5F5
310
F5F5F5F5F5F5F5F5F5F5F5F5F5F5F5F5F5F5F5F5F5F5F5F5F5F5F5F5F5F5F5F5F5F5F5F5F5F5F5F5F5F5F5F5F5F5F5F5F5F5F5F5F5F5F5F5F5F5F5F5F5F5F5F5F5F5F5F5F5F5F5F5F5F5F5F5F5F5F5F5F5F5F5F5F5F5F5F5F5F5F5F5F5F5F5E2F5F5F5F5F5F5F5F5F5F5F5F5F5F5F5F5E2F5F5F5E2E2EFF5F5F5E2F5F5F5F5
310
F5F5F5F5F5F5F5F5F5F5F5F5E2F5F5F5F5F5F5F5F5F5F5F5F5F5F5F5F5F5F5F5F5F5F5F5F5F5F5F5F5F5F5F5F5F5F5F5F5F5F5F5F5F5F5F5F5F5F5F5F5F5F5F5F5F5F5F5F5F5F5F5F5F5F5F5F5F5F5F5F5F5F5F5F5F5F5F5F5F5F5F5F5F5F5F5F5F5F5F5F5F5F5F5F5F5F5F5F5F5F5F5F5F5F5F5F5F5F5F5F5F5F5F5F5F5F5
310
F5F5F5F5F5F5F5F5F5F5F5F5F5F5F5F5F5F5F5F5F5E2F5F5F5F5F5F5F5F5F5F5F5F5F5F5F5F5E2F5F5F5E2E2EFF5F5F5F5F5F5F5F5F5F5F5F5F5F5F5F5F5F5F5F5E2F5F5F5F5F5F5F5F5F5F5F5F5F5F5F5F5F5F5F5F5F5F5F5F5F5F5F5F5F5F5F5F5F5F5F5F5F5F5F5F5F5F5F5F5F5F5F5F5F5F5F5F5F5F5F5F5F5F5F5F5F5
310
F5F5F5F5F5F5F5F5F5F5F5F5F5F5F5F5F5F5F5F5F5F5F5F5F5F5F5F5F5F5F5F5F5F5F5F5F5F5F5F5F5F5F5F5F5F5F5F5F5F5F5F5F5F5F5F5F5F5F5F5F5F5F5F5F5F5F5F5F5F5F5F5F5F5E2F5F5F5F5F5F5F5F5F5F5F5F5F5F5F5F5F5F5F5F5E2E2EFF5F5F5F5F5F5F5F5F5F5F5F5F5F5F5F5F5F5F5F5E2F5F5F5F5F5F5F5F5
310
F5F5F5F5F5F5F5F5F5F5F5F5F5F5F5F5F5F5F5F5F5F5F5F5F5F5F5F5F5F5F5F5F5F5F5F5F5F5F5F5F5F5F5F5F5F5F5F5F5F5F5F5F5F5F5F5F5F5F5F5F5F5F5F5F5F5F5F5F5F5F5F5F5F5F5F5F5F5F5F5F5F5F5F5F5F5F5F5F5F5F5F5F5F5F5F5F5F5F5F5F5F5F5F5F5F5F5F5F5F5F5F5F5F5F5F5F5F5F5F5F5F5F5F5F5F5F5
310
E2F5F5F5F5F5F5F5F5F5F5F5F5F5F5F5F5F5F5F5F5E2E2EFF5F5F5F5F5F5F5F5F5F5F5F5F5F5F5F5F5F5F5F5E2F5F5F5F5F5F5F5F5F5F5F5F5F5F5F5F5F5F5F5F5F5F5F5F5F5F5F5F5F5F5F5F5F5F5F5F5F5F5F5F5F5F5F5F5F5F5F5F5F5F5F5F5F5F5F5F5F5F5F5F5F5F5F5F5F5F5F5F5F5F5F5F5F5F5F5F5F5F5F5F5F5F5
310
F5F5F5F5F5F5F5F5F5F5F5F5F5F5F5F5F5F5F5F5F5F5F5F5F5F5F5F5F5F5F5F5F5F5F5F5F5F5F5F5F5F5F5F5F5F5F5F5F5F5F5F5F5E2F5F5F5F5F5F5F5F5F5F5F5F5F5F5F5F5F5F5F5F5E2E2EFF5F5F5F5F5F5F5F5F5F5F5F5F5F5F5F5F5F5F5F5E2F5F5F5F5F5F5F5F5F5F5F5F5F5F5F5F5F5F5F5F5F5F5F5F5F5F5F5F5F5
310
F5F5F5F5F5F5F5F5F5F5F5F5F5F5F5F5F5F5F5F5F5F5F5F5F5F5F5F5F5F5F5F5F5F5F5F5F5F5F5F5F5F5F5F5F5F5F5F5F5F5F5F5F5F5F5F5F5F5F5F5F5F5F5F5F5F5F5F5F5F5F5F5F5F5F5F5F5F5F5F5F5F5F5F5F5F5F5F5F5F5F5F5F5F5F5F5F5F5F5F5F5F5F5F5F5F5E2F5F5F5F5F5F5F5F5F5F5F5F5F5F5F5F5F5F5F5F5
310
E2E2EFF5F5F5F5F5F5F5F5F5F5F5F5F5F5F5F5F5F5F5F5E2F5F5F5F5F5F5F5F5F5F5F5F5F5F5F5F5F5F5F5F5F5F5F5F5F5F5F5F5F5F5F5F5F5F5F5F5F5F5F5F5F5F5F5F5F5F5F5F5F5F5F5F5F5F5F5F5F5F5F5F5F5F5F5F5F5F5F5F5F5F5F5F5F5F5F5F5F5F5F5F5F5F5F5F5F5F5F5F5F5F5F5F5F5F5F5F5F5F5F5F5F5F5F5
310
F5F5F5F5F5F5F5F5F5F5F5F5F5F5F5F5F5F5F5F5F5F5F5F5F5F5F5F5F5F5F5F5E2F5F5F5F5F5F5F5F5F5F5F5F5F5F5F5F5F5F5F5F5E2E2EFF5F5F5F5F5F5F5F5F5F5F5F5F5F5F5F5F5F5F5F5E2F5F5F5F5F5F5F5F5F5F5F5F5F5F5F5F5F5F5F5F5F5F5F5F5F5F5F5F5F5F5F5F5F5F5F5F5F5F5F5F5F5F5F5F5F5F5F5F5F5F5
310
F5F5F5F5F5F5F5F5F5F5F5F5F5F5F5F5F5F5F5F5F5F5F5F5F5F5F5F5F5F5F5F5F5F5F5F5F5F5F5F5F5F5F5F5F5F5F5F5F5F5F5F5F5F5F5F5F5F5F5F5F5F5F5F5F5F5F5F5F5F5F5F5F5F5F5F5F5F5F5F5F5F5F5F5F5E2F5F5F5F5F5F5F5F5F5F5F5F5F5F5F5F5F5F5F5F5E2E2EFF5F5F5F5F5F5F5F5F5F5F5F5F5F5F5F5F5F5
310
F5F5E2F5F5F5F5F5F5F5F5F5F5F5F5F5F5F5F5F5F5F5F5F5F5F5F5F5F5F5F5F5F5F5F5F5F5F5F5F5F5F5F5F5F5F5F5F5F5F5F5F5F5F5F5F5F5F5F5F5F5F5F5F5F5F5F5F5F5F5F5F5F5F5F5F5F5F5F5F5F5F5F5F5F5F5F5F5F5F5F5F5F5F5F5F5F5F5F5F5F5F5F5F5F5F5F5F5F5F5F5F5F5F5F5F5F5F5F5F5F5F5F5F5F5F5F5
310
F5F5F5F5F5F5F5F5F5F5F5E2F5F5F5F5F5F5F5F5F5F5F5F5F5F5F5F5F5F5F5F5E2E2EFF5F5F5F5F5F5F5F5F5F5F5F5F5F5F5F5F5F5F5F5E2F5F5F5F5F5F5F5F5F5F5F5F5F5F5F5F5F5F5F5F5F5F5F5F5F5F5F5F5F5F5F5F5F5F5F5F5F5F5F5F5F5F5F5F5F5F5F5F5F5F5F5F5F5F5F5F5F5F5F5F5F5F5F5F5F5F5F5F5F5F5F5
310
F5F5F5F5F5F5F5F5F5F5F5F5F5F5F5F5F5F5F5F5F5F5F5F5F5F5F5F5F5F5F5F5F5F5F5F5F5F5F5F5F5F5F5F5F5F5F5F5F5F5F5F5F5F5F5F5F5F5F5F5F5F5F5F5E2F5F5F5F5F5F5F5F5F5F5F5F5F5F5F5F5F5F5F5F5E2E2EFF5F5F5F5F5F5F5F5F5F5F5F5F5F5F5F5F5F5F5F5E2F5F5F5F5F5F5F5F5F5F5F5F5F5F5F5F5F5F5
310
F5F5F5F5F5F5F5F5F5F5F5F5F5F5F5F5F5F5F5F5F5F5F5F5F5F5F5F5F5F5F5F5F5F5F5F5F5F5F5F5F5F5F5F5F5F5F5F5F5F5F5F5F5F5F5F5F5F5F5F5F5F5F5F5F5F5F5F5F5F5F5F5F5F5F5F5F5F5F5F5F5F5F5F5F5F5F5F5F5F5F5F5F5F5F5F5F5F5F5F5F5F5F5F5F5F5F5F5F5F5F5F5F5F5F5F5F5E2F5F5F5F5F5F5F5F5F5
310
F5F5F5F5F5F5F5F5F5F5F5E2E2EFF5F5F5E2F5F5F5F5F5F5F5F5F5F5F5F5F5F5F5F5E2F5F5F5F5F5F5F5F5F5F5F5F5F5F5F5F5F5F5F5F5F5F5F5F5F5F5F5F5F5F5F5F5F5F5F5F5F5F5F5F5F5F5F5F5F5F5F5F5F5F5F5F5F5F5F5F5F5F5F5F5F5F5F5F5F5F5F5F5F5F5F5F5F5F5F5F5F5F5F5F5F5F5F5F5F5F5F5F5F5F5F5F5
310
F5F5F5F5F5F5F5F5F5F5F5F5F5F5F5F5F5F5F5F5F5F5F5F5F5F5F5F5F5F5F5F5F5F5F5F5F5F5F5F5F5F5F5E2F5F5F5F5F5F5F5F5F5F5F5F5F5F5F5F5E2F5F5F5E2E2EFF5F5F5E2F5F5F5F5F5F5F5F5F5F5F5F5F5F5F5F5E2F5F5F5F5F5F5F5F5F5F5F5F5F5F5F5F5F5F5F5F5F5F5F5F5F5F5F5F5F5F5F5F5F5F5F5F5F5F5F5
310
F5F5F5F5F5F5F5F5F5F5F5F5F5F5F5F5F5F5F5F5F5F5F5F5F5F5F5F5F5F5F5F5F5F5F5F5F5F5F5F5F5F5F5F5F5F5F5F5F5F5F5F5F5F5F5F5F5F5F5F5F5F5F5F5F5F5F5F5F5F5F5F5F5F5F5F5F5F5F5F5F5F5F5F5F5F5F5F5F5F5F5F5F5F5F5F5E2F5F5F5F5F5F5F5F5F5F5F5F5F5F5F5F5E2F5F5F5E2E2EFF5F5F5E2F5F5F5
310
F5F5F5F5F5F5F5F5F5F5F5F5F5E2F5F5F5F5F5F5F5F5F5F5F5F5F5F5F5F5F5F5F5F5F5F5F5F5F5F5F5F5F5F5F5F5F5F5F5F5F5F5F5F5F5F5F5F5F5F5F5F5F5F5F5F5F5F5F5F5F5F5F5F5F5F5F5F5F5F5F5F5F5F5F5F5F5F5F5F5F5F5F5F5F5F5F5F5F5F5F5F5F5F5F5F5F5F5F5F5F5F5F5F5F5F5F5F5F5F5F5F5F5F5F5F5F5
310
F5F5F5F5F5F5F5F5F5F5F5F5F5F5F5F5F5F5F5F5F5F5E2F5F5F5F5F5F5F5F5F5F5F5F5F5F5F5F5E2F5F5F5E2E2EFF5F5F5E2F5F5F5F5F5F5F5F5F5F5F5F5F5F5F5F5E2F5F5F5F5F5F5F5F5F5F5F5F5F5F5F5F5F5F5F5F5F5F5F5F5F5F5F5F5F5F5F5F5F5F5F5F5F5F5F5F5F5F5F5F5F5F5F5F5F5F5F5F5F5F5F5F5F5F5F5F5
310
F5F5F5F5F5F5F5F5F5F5F5F5F5F5F5F5F5F5F5F5F5F5F5F5F5F5F5F5F5F5F5F5F5F5F5F5F5F5F5F5F5F5F5F5F5F5F5F5F5F5F5F5F5F5F5F5F5F5F5F5F5F5F5F5F5F5F5F5F5F5F5F5F5F5F5E2F5F5F5F5F5F5F5F5F5F5F5F5F5F5F5F5E2F5F5F5E2E2EFF5F5F5E2F5F5F5F5F5F5F5F5F5F5F5F5F5F5F5F5E2F5F5F5F5F5F5F5
310
F5F5F5F5F5F5F5F5F5F5F5F5F5F5F5F5F5F5F5F5F5F5F5F5F5F5F5F5F5F5F5F5F5F5F5F5F5F5F5F5F5F5F5F5F5F5F5F5F5F5F5F5F5F5F5F5F5F5F5F5F5F5F5F5F5F5F5F5F5F5F5F5F5F5F5F5F5F5F5F5F5F5F5F5F5F5F5F5F5F5F5F5F5F5F5F5F5F5F5F5F5F5F5F5F5F5F5F5F5F5F5F5F5F5F5F5F5F5F5F5F5F5F5F5F5F5F5
310
F5E2F5F5F5F5F5F5F5F5F5F5F5F5F5F5F5F5E2F5F5F5E2E2EFF5F5F5E2F5F5F5F5F5F5F5F5F5F5F5F5F5F5F5F5E2F5F5F5F5F5F5F5F5F5F5F5F5F5F5F5F5F5F5F5F5F5F5F5F5F5F5F5F5F5F5F5F5F5F5F5F5F5F5F5F5F5F5F5F5F5F5F5F5F5F5F5F5F5F5F5F5F5F5F5F5F5F5F5F5F5F5F5F5F5F5F5F5F5F5F5F5F5F5F5F5F5
310
F5F5F5F5F5F5F5F5F5F5F5F5F5F5F5F5F5F5F5F5F5F5F5F5F5F5F5F5F5F5F5F5F5F5F5F5F5F5F5F5F5F5F5F5F5F5F5F5F5F5F5F5F5F5E2F5F5F5F5F5F5F5F5F5F5F5F5F5F5F5F5E2F5F5F5E2E2EFF5F5F5E2F5F5F5F5F5F5F5F5F5F5F5F5F5F5F5F5E2F5F5F5F5F5F5F5F5F5F5F5F5F5F5F5F5F5F5F5F5F5F5F5F5F5F5F5F5
310
F5F5F5F5F5F5F5F5F5F5F5F5F5F5F5F5F5F5F5F5F5F5F5F5F5F5F5F5F5F5F5F5F5F5F5F5F5F5F5F5F5F5F5F5F5F5F5F5F5F5F5F5F5F5F5F5F5F5F5F5F5F5F5F5F5F5F5F5F5F5F5F5F5F5F5F5F5F5F5F5F5F5F5F5F5F5F5F5F5F5F5F5F5F5F5F5F5F5F5F5F5F5F5F5F5F5F5E2F5F5F5F5F5F5F5F5F5F5F5F5F5F5F5F5E2F5F5
310
F5E2E2EFF5F5F5E2F5F5F5F5F5F5F5F5F5F5F5F5F5F5F5F5E2F5F5F5F5F5F5F5F5F5F5F5F5F5F5F5F5F5F5F5F5F5F5F5F5F5F5F5F5F5F5F5F5F5F5F5F5F5F5F5F5F5F5F5F5F5F5F5F5F5F5F5F5F5F5F5F5F5F5F5F5F5F5F5F5F5F5F5F5F5F5F5F5F5F5F5F5F5F5F5F5F5F5F5F5F5F5F5F5F5F5F5F5F5F5F5F5F5F5F5F5F5F5
310
F5F5F5F5F5F5F5F5F5F5F5F5F5F5F5F5F5F5F5F5F5F5F5F5F5F5F5F5F5F5F5F5F5E2F5F5F5F5F5F5F5F5F5F5F5F5F5F5F5F5E2F5F5F5E2E2EFF5F5F5E2F5F5F5F5F5F5F5F5F5F5F5F5F5F5F5F5E2F5F5F5F5F5F5F5F5F5F5F5F5F5F5F5F5F5F5F5F5F5F5F5F5F5F5F5F5F5F5F5F5F5F5F5F5F5F5F5F5F5F5F5F5F5F5F5F5F5
310
F5F5F5F5F5F5F5F5F5F5F5F5F5F5F5F5F5F5F5F5F5F5F5F5F5F5F5F5F5F5F5F5F5F5F5F5F5F5F5F5F5F5F5F5F5F5F5F5F5F5F5F5F5F5F5F5F5F5F5F5F5F5F5F5F5F5F5F5F5F5F5F5F5F5F5F5F5F5F5F5F5F5F5F5F5F5E2F5F5F5F5F5F5F5F5F5F5F5F5F5F5F5F5E2F5F5F5E2E2EFF5F5F5E2F5F5F5F5F5F5F5F5F5F5F5F5F5
310
F5F5F5E2F5F5F5F5F5F5F5F5F5F5F5F5F5F5F5F5F5F5F5F5F5F5F5F5F5F5F5F5F5F5F5F5F5F5F5F5F5F5F5F5F5F5F5F5F5F5F5F5F5F5F5F5F5F5F5F5F5F5F5F5F5F5F5F5F5F5F5F5F5F5F5F5F5F5F5F5F5F5F5F5F5F5F5F5F5F5F5F5F5F5F5F5F5F5F5F5F5F5F5F5F5F5F5F5F5F5F5F5F5F5F5F5F5F5F5F5F5F5F5F5F5F5F5
310
F5F5F5F5F5F5F5F5F5F5F5F5E2F5F5F5F5F5F5F5F5F5F5F5F5F5F5F5F5E2F5F5F5E2E2EFF5F5F5E2F5F5F5F5F5F5F5F5F5F5F5F5F5F5F5F5E2F5F5F5F5F5F5F5F5F5F5F5F5F5F5F5F5F5F5F5F5F5F5F5F5F5F5F5F5F5F5F5F5F5F5F5F5F5F5F5F5F5F5F5F5F5F5F5F5F5F5F5F5F5F5F5F5F5F5F5F5F5F5F5F5F5F5F5F5F5F5
310
F5F5F5F5F5F5F5F5F5F5F5F5F5F5F5F5F5F5F5F5F5F5F5F5F5F5F5F5F5F5F5F5F5F5F5F5F5F5F5F5F5F5F5F5F5F5F5F5F5F5F5F5F5F5F5F5F5F5F5F5F5F5F5F5F5E2F5F5F5F5F5F5F5F5F5F5F5F5F5F5F5F5E2F5F5F5E2E2EFF5F5F5E2F5F5F5F5F5F5F5F5F5F5F5F5F5F5F5F5E2F5F5F5F5F5F5F5F5F5F5F5F5F5F5F5F5F5
310
F5F5F5F5F5F5F5F5F5F5F5F5F5F5F5F5F5F5F5F5F5F5F5F5F5F5F5F5F5F5F5F5F5F5F5F5F5F5F5F5F5F5F5F5F5F5F5F5F5F5F5F5F5F5F5F5F5F5F5F5F5F5F5F5F5F5F5F5F5F5F5F5F5F5F5F5F5F5F5F5F5F5F5F5F5F5F5F5F5F5F5F5F5F5F5F5F5F5F5F5F5F5F5F5F5F5F5F5F5F5F5F5F5F5F5F5F5F5E2F5F5F5F5F5F5F5F5
310
F5F5F5F5F5F5F5F5E2F5F5F5E2E2EFF5F5F5E2F5F5F5F5F5F5F5F5F5F5F5F5F5F5F5F5E2F5F5F5F5F5F5F5F5F5F5F5F5F5F5F5F5F5F5F5F5F5F5F5F5F5F5F5F5F5F5F5F5F5F5F5F5F5F5F5F5F5F5F5F5F5F5F5F5F5F5F5F5F5F5F5F5F5F5F5F5F5F5F5F5F5F5F5F5F5F5F5F5F5F5F5F5F5F5F5F5F5F5F5F5F5F5F5F5F5F5F5
310
F5F5F5F5F5F5F5F5F5F5F5F5F5F5F5F5F5F5F5F5F5F5F5F5F5F5F5F5F5F5F5F5F5F5F5F5F5F5F5F5F5F5F5F5E2F5F5F5F5F5F5F5F5F5F5F5F5F5F5F5F5E2F5F5F5E2E2EFF5F5F5E2F5F5F5F5F5F5F5F5F5F5F5F5F5F5F5F5E2F5F5F5F5F5F5F5F5F5F5F5F5F5F5F5F5F5F5F5F5F5F5F5F5F5F5F5F5F5F5F5F5F5F5F5F5F5F5
310
F5F5F5F5F5F5F5F5F5F5F5F5F5F5F5F5F5F5F5F5F5F5F5F5F5F5F5F5F5F5F5F5F5F5F5F5F5F5F5F5F5F5F5F5F5F5F5F5F5F5F5F5F5F5F5F5F5F5F5F5F5F5F5F5F5F5F5F5F5F5F5F5F5F5F5F5F5F5F5F5F5F5F5F5F5F5F5F5F5F5F5F5F5F5F5F5F5E2F5F5F5F5F5F5F5F5F5F5F5F5F5F5F5F5E2F5F5F5E2E2EFF5F5F5E2F5F5
310
F5F5F5F5F5F5F5F5F5F5F5F5F5F5E2F5F5F5F5F5F5F5F5F5F5F5F5F5F5F5F5F5F5F5F5F5F5F5F5F5F5F5F5F5F5F5F5F5F5F5F5F5F5F5F5F5F5F5F5F5F5F5F5F5F5F5F5F5F5F5F5F5F5F5F5F5F5F5F5F5F5F5F5F5F5F5F5F5F5F5F5F5F5F5F5F5F5F5F5F5F5F5F5F5F5F5F5F5F5F5F5F5F5F5F5F5F5F5F5F5F5F5F5F5F5F5F5
310
F5F5F5F5F5F5F5F5F5F5F5F5F5F5F5F5F5F5F5F5F5F5F5E2F5F5F5F5F5F5F5F5F5F5F5F5F5F5F5F5E2F5F5F5E2E2EFF5F5F5E2F5F5F5F5F5F5F5F5F5F5F5F5F5F5F5F5E2F5F5F5F5F5F5F5F5F5F5F5F5F5F5F5F5F5F5F5F5F5F5F5F5F5F5F5F5F5F5F5F5F5F5F5F5F5F5F5F5F5F5F5F5F5F5F5F5F5F5F5F5F5F5F5F5F5F5F5
310
F5F5F5F5F5F5F5F5F5F5F5F5F5F5F5F5F5F5F5F5F5F5F5F5F5F5F5F5F5F5F5F5F5F5F5F5F5F5F5F5F5F5F5F5F5F5F5F5F5F5F5F5F5F5F5F5F5F5F5F5F5F5F5F5F5F5F5F5F5F5F5F5F5F5F5F5E2F5F5F5F5F5F5F5F5F5F5F5F5F5F5F5F5E2F5F5F5E2E2EFF5F5F5E2F5F5F5F5F5F5F5F5F5F5F5F5F5F5F5F5E2F5F5F5F5F5F5
310
F5F5F5F5F5F5F5F5F5F5F5F5F5F5F5F5F5F5F5F5F5F5F5F5F5F5F5F5F5F5F5F5F5F5F5F5F5F5F5F5F5F5F5F5F5F5F5F5F5F5F5F5F5F5F5F5F5F5F5F5F5F5F5F5F5F5F5F5F5F5F5F5F5F5F5F5F5F5F5F5F5F5F5F5F5F5F5F5F5F5F5F5F5F5F5F5F5F5F5F5F5F5F5F5F5F5F5F5F5F5F5F5F5F5F5F5F5F5F5F5F5F5F5F5F5F5F5
310
F5F5E2F5F5F5F5F5F5F5F5F5F5F5F5F5F5F5F5E2F5F5F5E2E2EFF5F5F5F5F5F5F5F5F5F5F5F5F5F5F5F5F5F5F5F5E2F5F5F5F5F5F5F5F5F5F5F5F5F5F5F5F5F5F5F5F5F5F5F5F5F5F5F5F5F5F5F5F5F5F5F5F5F5F5F5F5F5F5F5F5F5F5F5F5F5F5F5F5F5F5F5F5F5F5F5F5F5F5F5F5F5F5F5F5F5F5F5F5F5F5F5F5F5F5F5F5
310
F5F5F5F5F5F5F5F5F5F5F5F5F5F5F5F5F5F5F5F5F5F5F5F5F5F5F5F5F5F5F5F5F5F5F5F5F5F5F5F5F5F5F5F5F5F5F5F5F5F5F5F5F5F5F5E2F5F5F5F5F5F5F5F5F5F5F5F5F5F5F5F5F5F5F5F5E2E2EFF5F5F5F5F5F5F5F5F5F5F5F5F5F5F5F5F5F5F5F5E2F5F5F5F5F5F5F5F5F5F5F5F5F5F5F5F5F5F5F5F5F5F5F5F5F5F5F5
310
F5F5F5F5F5F5F5F5F5F5F5F5F5F5F5F5F5F5F5F5F5F5F5F5F5F5F5F5F5F5F5F5F5F5F5F5F5F5F5F5F5F5F5F5F5F5F5F5F5F5F5F5F5F5F5F5F5F5F5F5F5F5F5F5F5F5F5F5F5F5F5F5F5F5F5F5F5F5F5F5F5F5F5F5F5F5F5F5F5F5F5F5F5F5F5F5F5F5F5F5F5F5F5F5F5F5F5F5E2F5F5F5F5F5F5F5F5F5F5F5F5F5F5F5F5F5F5
310
F5F5E2E2EFF5F5F5F5F5F5F5F5F5F5F5F5F5F5F5F5F5F5F5F5E2F5F5F5F5F5F5F5F5F5F5F5F5F5F5F5F5F5F5F5F5F5F5F5F5F5F5F5F5F5F5F5F5F5F5F5F5F5F5F5F5F5F5F5F5F5F5F5F5F5F5F5F5F5F5F5F5F5F5F5F5F5F5F5F5F5F5F5F5F5F5F5F5F5F5F5F5F5F5F5F5F5F5F5F5F5F5F5F5F5F5F5F5F5F5F5F5F5F5F5F5F5
310
F5F5F5F5F5F5F5F5F5F5F5F5F5F5F5F5F5F5F5F5F5F5F5F5F5F5F5F5F5F5F5F5F5F5E2F5F5F5F5F5F5F5F5F5F5F5F5F5F5F5F5F5F5F5F5E2E2EFF5F5F5F5F5F5F5F5F5F5F5F5F5F5F5F5F5F5F5F5E2F5F5F5F5F5F5F5F5F5F5F5F5F5F5F5F5F5F5F5F5F5F5F5F5F5F5F5F5F5F5F5F5F5F5F5F5F5F5F5F5F5F5F5F5F5F5F5F5
310
F5F5F5F5F5F5F5F5F5F5F5F5F5F5F5F5F5F5F5F5F5F5F5F5F5F5F5F5F5F5F5F5F5F5F5F5F5F5F5F5F5F5F5F5F5F5F5F5F5F5F5F5F5F5F5F5F5F5F5F5F5F5F5F5F5F5F5F5F5F5F5F5F5F5F5F5F5F5F5F5F5F5F5F5F5F5F5E2F5F5F5F5F5F5F5F5F5F5F5F5F5F5F5F5F5F5F5F5E2E2EFF5F5F5F5F5F5F5F5F5F5F5F5F5F5F5F5
310
F5F5F5F5E2E2E2E2E2E2E2E2E2E2E2E2E2E2E2E2E2E2E2E2E2E2E2E2E2E2E2E2E2E2E2E2E2E2E2E2E2E2E2E2E2E2E2E2E2E2E2E2E2E2E2E2E2E2E2E2E2E2E2E2E2E2E2E2E2E2E2E2E2E2E2E2E2E2E2E2E2E2E2E2E2E2E2E2E2E2E2E2E2E2E2E2E2E2E2E2E2E2E2E2E2E2E2E2E2E2E2E2E2E2E2E2E2E2E2E2E2E2E2E2E2E2E2
310
E2E2E2E2E2E2E2E2E2E2E2E2E2E2F5F5F5F5F5F5F5F5F5F5F5F5F5F5F5F5F5F5F5F5E2E2EFF5F5F5F5F5F5F5F5F5F5F5F5F5F5F5F5F5F5F5F5F5F5F5F5F5F5F5F5F5F5F5F5F5F5F5F5F5F5F5F5F5F5F5F5F5F5F5F5F5F5F5F5F5F5F5F5F5F5F5F5F5F5F5F5F5F5F5F5F5F5F5F5F5F5F5F5F5F5F5F5F5F5F5F5F5F5F5F5F5F5
310
F5F5F5F5F5F5F5F5F5F5F5F5F5F5F5F5F5F5F5F5F5F5F5F5F5F5F5F5F5F5F5F5F5F5F5F5F5F5F5F5F5F5F5F5F5F5F5F5F5F5F5F5F5F5F5F5F5F5F5F5F5F5F5F5F5F5F5F5F5F5F5F5F5F5F5F5F5F5F5F5F5F5F5F5F5F5F5E2E2EFF5F5F5F5F5F5F5F5F5F5F5F5F5F5F5F5F5F5F5F5F5F5F5F5F5F5F5F5F5F5F5F5F5F5F5F5F5
310
F5F5F5F5F5F5F5F5F5F5F5F5F5F5F5F5F5F5F5F5F5F5F5F5F5F5F5F5F5F5F5F5F5F5F5F5F5F5F5F5F5F5F5F5F5F5F5F5F5F5F5F5F5F5F5F5F5F5F5F5F5F5F5F5F5F5F5F5F5F5F5F5F5F5F5F5F5F5F5F5F5F5F5F5F5F5F5F5F5F5F5F5F5F5F5F5F5F5F5F5F5F5F5F5F5F5F5F5F5F5F5F5F5F5F5F5F5F5F5F5F5F5F5F5F5F5F5
310
F5F5F5F5F5F5F5F5F5F5F5F5F5E2E2EFF5F5F5F5F5F5F5F5F5F5F5F5F5F5F5F5F5F5F5F5F5F5F5F5F5F5F5F5F5F5F5F5F5F5F5F5F5F5F5F5F5F5F5F5F5F5F5F5F5F5F5F5F5F5F5F5F5F5F5F5F5F5F5F5F5F5F5F5F5F5F5F5F5F5F5F5F5F5F5F5F5F5F5F5F5F5F5F5F5F5F5F5F5F5F5F5F5F5F5F5F5F5F5F5F5F5F5F5F5F5F5
310
F5F5F5F5F5F5F5F5F5F5F5F5F5F5F5F5F5F5F5F5F5F5F5F5F5F5F5F5F5F5F5F5F5F5F5F5F5F5F5F5F5F5F5F5F5F5F5F5F5F5F5F5F5F5F5F5F5F5F5F5F5F5F5F5F5F5E2E2EFF5F5F5F5F5F5F5F5F5F5F5F5F5F5F5F5F5F5F5F5F5F5F5F5F5F5F5F5F5F5F5F5F5F5F5F5F5F5F5F5F5F5F5F5F5F5F5F5F5F5F5F5F5F5F5F5F5F5
310
F5F5F5F5F5F5F5F5F5F5F5F5F5F5F5F5F5F5F5F5F5F5F5F5F5F5F5F5F5F5F5F5F5F5F5F5F5F5F5F5F5F5F5F5F5F5F5F5F5F5F5F5F5F5F5F5F5F5F5F5F5F5F5F5F5F5F5F5F5F5F5F5F5F5F5F5F5F5F5F5F5F5F5F5F5F5F5F5F5F5F5F5F5F5F5F5F5F5F5F5F5F5F5F5F5F5F5F5F5F5F5F5F5F5F5F5F5F5F5E2E2EFF5F5F5E2F5
310
F5F5F5F5F5F5F5F5F5F5F5F5F5F5F5F5F5F5F5F5F5F5F5F5F5F5F5F5F5F5F5F5F5F5F5F5F5F5F5F5F5F5F5F5F5F5F5F5F5F5F5F5F5F5F5F5F5F5F5F5F5F5F5F5F5F5F5F5F5F5F5F5F5F5F5F5F5F5F5F5F5F5F5F5F5F5F5F5F5F5F5F5F5F5F5F5F5F5F5F5F5F5F5F5F5F5F5F5F5F5F5F5F5F5F5F5F5F5F5F5F5F5F5F5F5F5F5
310
F5F5F5F5F5F5F5F5F5F5F5F5F5F5F5F5F5F5F5F5F5F5F5F5F5F5F5F5F5F5F5F5F5F5F5F5F5F5F5F5F5E2F5F5F5E2E2EFF5F5F5E2F5F5F5F5F5F5F5F5F5F5F5F5F5F5F5F5F5F5F5F5F5F5F5F5F5F5F5F5F5F5F5F5F5F5F5F5F5F5F5F5F5F5F5F5F5F5F5F5F5F5F5F5F5F5F5F5F5F5F5F5F5F5F5F5F5F5F5F5F5F5F5F5F5F5F5
310
F5F5F5F5F5F5F5F5F5F5F5F5F5F5F5F5F5F5F5F5F5F5F5F5F5F5F5F5F5F5F5F5F5F5F5F5F5F5F5F5F5F5F5F5F5F5F5F5F5F5F5F5F5F5F5F5F5F5F5F5F5F5F5F5F5F5F5F5F5F5F5F5F5F5F5F5F5F5F5F5F5F5F5F5F5F5F5F5F5F5F5F5F5F5E2F5F5F5E2E2EFF5F5F5E2F5F5F5F5F5F5F5F5F5F5F5F5F5F5F5F5F5F5F5F5F5F5
310
F5F5F5F5F5F5F5F5F5F5F5F5F5F5F5F5F5F5F5F5F5F5F5F5F5F5F5F5F5F5F5F5F5F5F5F5F5F5F5F5F5F5F5F5F5F5F5F5F5F5F5F5F5F5F5F5F5F5F5F5F5F5F5F5F5F5F5F5F5F5F5F5F5F5F5F5F5F5F5F5F5F5F5F5F5F5F5F5F5F5F5F5F5F5F5F5F5F5F5F5F5F5F5F5F5F5F5F5F5F5F5F5F5F5F5F5F5F5F5F5F5F5F5F5F5F5F5
310
F5F5F5F5F5F5F5F5F5F5F5F5F5F5F5F5F5F5F5F5E2F5F5F5E2E2EFF5F5F5E2F5F5F5F5F5F5F5F5F5F5F5F5F5F5F5F5F5F5F5F5F5F5F5F5F5F5F5F5F5F5F5F5F5F5F5F5F5F5F5F5F5F5F5F5F5F5F5F5F5F5F5F5F5F5F5F5F5F5F5F5F5F5F5F5F5F5F5F5F5F5F5F5F5F5F5F5F5F5F5F5F5F5F5F5F5F5F5F5F5F5F5F5F5F5F5F5
310
F5F5F5F5F5F5F5F5F5F5F5F5F5F5F5F5F5F5F5F5F5F5F5F5F5F5F5F5F5F5F5F5F5F5F5F5F5F5F5F5F5F5F5F5F5F5F5F5F5F5F5F5F5F5F5F5F5F5F5F5F5F5F5F5F5F5F5F5F5F5F5F5F5E2F5F5F5E2E2EFF5F5F5E2F5F5F5F5F5F5F5F5F5F5F5F5F5F5F5F5F5F5F5F5F5F5F5F5F5F5F5F5F5F5F5F5F5F5F5F5F5F5F5F5F5F5F5
310
F5F5F5F5F5F5F5F5F5F5F5F5F5F5F5F5F5F5F5F5F5F5F5F5F5F5F5F5F5F5F5F5F5F5F5F5F5F5F5F5F5F5F5F5F5F5F5F5F5F5F5F5F5F5F5F5F5F5F5F5F5F5F5F5F5F5F5F5F5F5F5F5F5F5F5F5F5F5F5F5F5F5F5F5F5F5F5F5F5F5F5F5F5F5F5F5F5F5F5F5F5F5F5F5F5F5F5F5F5F5F5F5F5F5F5F5F5F5F5F5F5F5F5F5F5F5E2
310
F5F5F5E2E2EFF5F5F5E2F5F5F5F5F5F5F5F5F5F5F5F5F5F5F5F5F5F5F5F5F5F5F5F5F5F5F5F5F5F5F5F5F5F5F5F5F5F5F5F5F5F5F5F5F5F5F5F5F5F5F5F5F5F5F5F5F5F5F5F5F5F5F5F5F5F5F5F5F5F5F5F5F5F5F5F5F5F5F5F5F5F5F5F5F5F5F5F5F5F5F5F5F5F5F5F5F5F5F5F5F5F5F5F5F5F5F5F5F5F5F5F5F5F5F5F5F5
310
F5F5F5F5F5F5F5F5F5F5F5F5F5F5F5F5F5F5F5F5F5F5F5F5F5F5F5F5F5F5F5F5F5F5F5F5F5F5F5F5F5F5F5F5F5F5F5F5F5F5F5F5E2F5F5F5E2E2EFF5F5F5E2F5F5F5F5F5F5F5F5F5F5F5F5F5F5F5F5F5F5F5F5F5F5F5F5F5F5F5F5F5F5F5F5F5F5F5F5F5F5F5F5F5F5F5F5F5F5F5F5F5F5F5F5F5F5F5F5F5F5F5F5F5F5F5F5
310
F5F5F5F5F5F5F5F5F5F5F5F5F5F5F5F5F5F5F5F5F5F5F5F5F5F5F5F5F5F5F5F5F5F5F5F5F5F5F5F5F5F5F5F5F5F5F5F5F5F5F5F5F5F5F5F5F5F5F5F5F5F5F5F5F5F5F5F5F5F5F5F5F5F5F5F5F5F5F5F5F5F5F5F5F5F5F5F5F5F5F5F5F5F5F5F5F5F5F5F5F5F5F5F5F5E2F5F5F5E2E2EFF5F5F5E2F5F5F5F5F5F5F5F5F5F5F5
310
F5F5F5F5F5F5F5F5F5F5F5F5F5F5F5F5F5F5F5F5F5F5F5F5F5F5F5F5F5F5F5F5F5F5F5F5F5F5F5F5F5F5F5F5F5F5F5F5F5F5F5F5F5F5F5F5F5F5F5F5F5F5F5F5F5F5F5F5F5F5F5F5F5F5F5F5F5F5F5F5F5F5F5F5F5F5F5F5F5F5F5F5F5F5F5F5F5F5F5F5F5F5F5F5F5F5F5F5F5F5F5F5F5F5F5F5F5F5F5F5F5F5F5F5F5F5F5
310
F5F5F5F5F5F5F5F5F5F5F5F5F5F5F5F5F5F5F5F5F5F5F5F5F5F5F5F5F5F5F5E2F5F5F5E2E2EFF5F5F5E2E2E2E2E2E2E2E2F5F5F5F5F5F5F5F5F5E2E2E2E2E2E2E2E2E2E2E2E2E2E2E2E2F5F5F5F5F5F5F5F5E2E2E2E2E2E2E2E2E2E2E2E2E2E2E2E2F5F5F5F5F5F5F5F5F5E2E2E2E2E2E2E2E2E2E2E2E2E2E2E2F5F5F5F5F5
310
F5F5F5F5E2E2E2E2E2E2E2E2E2E2E2E2E2E2E2F5F5F5F5F5F5F5F5F5E2E2E2E2E2E2E2E2E2E2E2E2E2E2E2E2F5F5F5F5F5F5F5F5E2E2E2E2E2E2E2E2E2E2E2E2E2E2E2E2F5F5F5F5F5F5F5F5F5E2E2E2E2E2E2E2E2F5F5F5E2E2EFF5F5F5F5F5F5F5F5F5F5F5F5F5F5F5F5F5F5F5F5F5F5F5F5F5F5F5F5F5F5F5F5F5F5F5F5
310
F5F5F5F5F5F5F5F5F5F5F5F5F5F5F5F5F5F5F5F5F5F5F5F5F5F5F5F5F5F5F5F5F5F5F5F5F5F5F5F5F5F5F5F5F5F5F5F5F5F5F5F5F5F5F5F5F5F5F5F5F5F5F5F5F5F5F5F5F5F5F5F5F5F5F5F5F5F5F5F5F5F5F5F5F5F5F5F5F5F5F5F5F5F5F5F5F5F5F5F5F5F5F5F5F5F5F5F5F5F5F5F5F5F5F5F5F5F5F5F5F5F5F5F5F5F5F5
310
F5F5F5F5F5F5F5F5F5F5F5F5F5F5E2E2EFF5F5F5F5F5F5F5F5F5F5F5F5F5F5F5F5F5F5F5F5F5F5F5F5F5F5F5F5F5F5F5F5F5F5F5F5F5F5F5F5F5F5F5F5F5F5F5F5F5F5F5F5F5F5F5F5F5F5F5F5F5F5F5F5F5F5F5F5F5F5F5F5F5F5F5F5F5F5F5F5F5F5F5F5F5F5F5F5F5F5F5F5F5F5F5F5F5F5F5F5F5F5F5F5F5F5F5F5F5F5
310
F5F5F5F5F5F5F5F5F5F5F5F5F5F5F5F5F5F5F5F5F5F5F5F5F5F5F5F5F5F5F5F5F5F5F5F5F5F5F5F5F5F5F5F5F5F5F5F5F5F5F5F5F5F5F5F5F5F5F5F5F5F5F5F5F5F5F5E2EFEFF5F5F5F5F5F5F5F5F5F5F5F5F5F5F5F5F5F5F5F5F5F5F5F5F5F5F5F5F5F5F5F5F5F5F5F5F5F5F5F5F5F5F5F5F5F5F5F5F5F5F5F5F5F5F5F5F5
310
F5F5F5F5F5F5F5F5F5F5F5F5F5F5F5F5F5F5F5F5F5F5F5F5F5F5F5F5F5F5F5F5F5F5F5F5F5F5F5F5F5F5F5F5F5F5F5F5F5F5F5F5F5F5F5F5F5F5F5F5F5F5F5F5F5F5F5F5F5F5F5F5F5F5F5F5F5F5F5F5F5F5F5F5F5F5F5F5F5F5F5F5F5F5F5F5F5F5F5F5F5F5F5F5F5F5F5F5F5F5F5F5F5F5F5F5F5F5F5F5E2EFEFE2E2E2E2
310
E2E2E2E2E2E2E2E2E2E2E2E2E2E2E2E2E2E2E2E2E2E2E2E2E2E2E2E2E2E2E2E2E2E2E2E2E2E2E2E2E2E2E2E2E2E2E2E2E2E2E2E2E2E2E2E2E2E2E2E2E2E2E2E2E2E2E2E2E2E2E2E2E2E2E2E2E2E2E2E2E2E2E2E2E2E2E2E2E2E2E2E2E2E2E2E2E2E2E2E2E2E2E2E2E2E2E2E2E2E2E2E2E2E2E2E2E2E2E2E2E2E2E2E2E2E2E2
310
E2E2E2E2E2E2E2E2E2E2E2E2E2E2E2E2E2E2E2E2E2E2E2E2E2E2E2E2E2E2E2E2E2E2E2E2E2E2E2E2E2E2E2E2E2E2E2EFEF
  0
ENDSEC
  0
EOF
