  0
SECTION
  2
HEADER
  9
$ACADVER
  1
AC1018
  9
$ACADMAINTVER
 70
     0
  9
$DWGCODEPAGE
  3
ANSI_1252
  9
$AUTHOR
  1
g6edxjah
  9
$LASTSAVEDBY
  1
g6edxjah
  9
$INSBASE
 10
0.0
 20
0.0
 30
0.0
  9
$EXTMIN
 10
128.613385
 20
-13.325812
 30
0.0
  9
$EXTMAX
 10
137.613448
 20
-1.575854
 30
0.0
  9
$LIMMIN
 10
103.511887
 20
-37.052363
  9
$LIMMAX
 10
162.714947
 20
22.150697
  9
$ORTHOMODE
 70
     0
  9
$REGENMODE
 70
     1
  9
$FILLMODE
 70
     1
  9
$QTEXTMODE
 70
     0
  9
$MIRRTEXT
 70
     0
  9
$LTSCALE
 40
1.0
  9
$ATTMODE
 70
     1
  9
$TEXTSIZE
 40
0.09
  9
$TRACEWID
 40
0.05
  9
$TEXTSTYLE
  7
Standard
  9
$CLAYER
  8
TEXT
  9
$CELTYPE
  6
Continuous
  9
$CECOLOR
 62
     7
  9
$CELTSCALE
 40
1.0
  9
$DISPSILH
 70
     0
  9
$DIMSCALE
 40
1.0
  9
$DIMASZ
 40
0.09
  9
$DIMEXO
 40
0.045
  9
$DIMDLI
 40
0.0
  9
$DIMRND
 40
0.0
  9
$DIMDLE
 40
0.0
  9
$DIMEXE
 40
0.045
  9
$DIMTP
 40
0.0
  9
$DIMTM
 40
0.0
  9
$DIMTXT
 40
0.09
  9
$DIMCEN
 40
0.09
  9
$DIMTSZ
 40
0.0
  9
$DIMTOL
 70
     0
  9
$DIMLIM
 70
     0
  9
$DIMTIH
 70
     0
  9
$DIMTOH
 70
     0
  9
$DIMSE1
 70
     0
  9
$DIMSE2
 70
     0
  9
$DIMTAD
 70
     1
  9
$DIMZIN
 70
    11
  9
$DIMBLK
  1
TerminatorOpen_0.5
  9
$DIMASO
 70
     1
  9
$DIMSHO
 70
     1
  9
$DIMPOST
  1

  9
$DIMAPOST
  1

  9
$DIMALT
 70
     0
  9
$DIMALTD
 70
     4
  9
$DIMALTF
 40
25.4
  9
$DIMLFAC
 40
1.0
  9
$DIMTOFL
 70
     0
  9
$DIMTVP
 40
0.0
  9
$DIMTIX
 70
     0
  9
$DIMSOXD
 70
     0
  9
$DIMSAH
 70
     0
  9
$DIMBLK1
  1

  9
$DIMBLK2
  1

  9
$DIMSTYLE
  2
Standard
  9
$DIMCLRD
 70
     0
  9
$DIMCLRE
 70
     0
  9
$DIMCLRT
 70
     0
  9
$DIMTFAC
 40
1.0
  9
$DIMGAP
 40
0.045
  9
$DIMJUST
 70
     0
  9
$DIMSD1
 70
     0
  9
$DIMSD2
 70
     0
  9
$DIMTOLJ
 70
     0
  9
$DIMTZIN
 70
    11
  9
$DIMALTZ
 70
    15
  9
$DIMALTTZ
 70
    15
  9
$DIMUPT
 70
     0
  9
$DIMDEC
 70
     4
  9
$DIMTDEC
 70
     4
  9
$DIMALTU
 70
     2
  9
$DIMALTTD
 70
     4
  9
$DIMTXSTY
  7
Style-Arial
  9
$DIMAUNIT
 70
     0
  9
$DIMADEC
 70
     4
  9
$DIMALTRND
 40
0.0
  9
$DIMAZIN
 70
     3
  9
$DIMDSEP
 70
    46
  9
$DIMATFIT
 70
     1
  9
$DIMFRAC
 70
     0
  9
$DIMLDRBLK
  1
TerminatorOpen_0.5
  9
$DIMLUNIT
 70
     2
  9
$DIMLWD
 70
    -2
  9
$DIMLWE
 70
    -2
  9
$DIMTMOVE
 70
     0
  9
$LUNITS
 70
     2
  9
$LUPREC
 70
     4
  9
$SKETCHINC
 40
0.1
  9
$FILLETRAD
 40
0.0
  9
$AUNITS
 70
     0
  9
$AUPREC
 70
     4
  9
$MENU
  1
.
  9
$ELEVATION
 40
0.0
  9
$PELEVATION
 40
0.0
  9
$THICKNESS
 40
0.0
  9
$LIMCHECK
 70
     0
  9
$CHAMFERA
 40
0.0
  9
$CHAMFERB
 40
0.0
  9
$CHAMFERC
 40
0.0
  9
$CHAMFERD
 40
0.0
  9
$SKPOLY
 70
     0
  9
$TDCREATE
 40
2455397.333075567
  9
$TDUCREATE
 40
2455397.541408901
  9
$TDUPDATE
 40
2455397.333075567
  9
$TDUUPDATE
 40
2455397.541408901
  9
$TDINDWG
 40
0.0
  9
$TDUSRTIMER
 40
0.0006630093
  9
$USRTIMER
 70
     1
  9
$ANGBASE
 50
0.0
  9
$ANGDIR
 70
     0
  9
$PDMODE
 70
     0
  9
$PDSIZE
 40
0.0
  9
$PLINEWID
 40
0.0
  9
$SPLFRAME
 70
     0
  9
$SPLINETYPE
 70
     6
  9
$SPLINESEGS
 70
     8
  9
$HANDSEED
  5
52D
  9
$SURFTAB1
 70
     6
  9
$SURFTAB2
 70
     6
  9
$SURFTYPE
 70
     6
  9
$SURFU
 70
     6
  9
$SURFV
 70
     6
  9
$UCSBASE
  2

  9
$UCSNAME
  2

  9
$UCSORG
 10
0.0
 20
0.0
 30
0.0
  9
$UCSXDIR
 10
1.0
 20
0.0
 30
0.0
  9
$UCSYDIR
 10
0.0
 20
1.0
 30
0.0
  9
$UCSORTHOREF
  2

  9
$UCSORTHOVIEW
 70
     0
  9
$UCSORGTOP
 10
0.0
 20
0.0
 30
0.0
  9
$UCSORGBOTTOM
 10
0.0
 20
0.0
 30
0.0
  9
$UCSORGLEFT
 10
0.0
 20
0.0
 30
0.0
  9
$UCSORGRIGHT
 10
0.0
 20
0.0
 30
0.0
  9
$UCSORGFRONT
 10
0.0
 20
0.0
 30
0.0
  9
$UCSORGBACK
 10
0.0
 20
0.0
 30
0.0
  9
$PUCSBASE
  2

  9
$PUCSNAME
  2

  9
$PUCSORG
 10
0.0
 20
0.0
 30
0.0
  9
$PUCSXDIR
 10
1.0
 20
0.0
 30
0.0
  9
$PUCSYDIR
 10
0.0
 20
1.0
 30
0.0
  9
$PUCSORTHOREF
  2

  9
$PUCSORTHOVIEW
 70
     0
  9
$PUCSORGTOP
 10
0.0
 20
0.0
 30
0.0
  9
$PUCSORGBOTTOM
 10
0.0
 20
0.0
 30
0.0
  9
$PUCSORGLEFT
 10
0.0
 20
0.0
 30
0.0
  9
$PUCSORGRIGHT
 10
0.0
 20
0.0
 30
0.0
  9
$PUCSORGFRONT
 10
0.0
 20
0.0
 30
0.0
  9
$PUCSORGBACK
 10
0.0
 20
0.0
 30
0.0
  9
$USERI1
 70
     0
  9
$USERI2
 70
     0
  9
$USERI3
 70
     0
  9
$USERI4
 70
     0
  9
$USERI5
 70
     0
  9
$USERR1
 40
0.0
  9
$USERR2
 40
0.0
  9
$USERR3
 40
0.0
  9
$USERR4
 40
0.0
  9
$USERR5
 40
0.0
  9
$WORLDVIEW
 70
     1
  9
$SHADEDGE
 70
     3
  9
$SHADEDIF
 70
    70
  9
$TILEMODE
 70
     1
  9
$MAXACTVP
 70
    64
  9
$PINSBASE
 10
0.0
 20
0.0
 30
0.0
  9
$PLIMCHECK
 70
     0
  9
$PEXTMIN
 10
1.049744
 20
0.799667
 30
-0.001526
  9
$PEXTMAX
 10
9.450623
 20
7.200577
 30
0.0
  9
$PLIMMIN
 10
-0.25
 20
-0.25
  9
$PLIMMAX
 10
10.75
 20
8.25
  9
$UNITMODE
 70
     0
  9
$VISRETAIN
 70
     1
  9
$PLINEGEN
 70
     0
  9
$PSLTSCALE
 70
     0
  9
$TREEDEPTH
 70
  3020
  9
$CMLSTYLE
  2
Standard
  9
$CMLJUST
 70
     0
  9
$CMLSCALE
 40
1.0
  9
$PROXYGRAPHICS
 70
     1
  9
$MEASUREMENT
 70
     0
  9
$CELWEIGHT
370
     0
  9
$ENDCAPS
280
     0
  9
$JOINSTYLE
280
     0
  9
$LWDISPLAY
290
     1
  9
$INSUNITS
 70
     2
  9
$HYPERLINKBASE
  1

  9
$STYLESHEET
  1

  9
$XEDIT
290
     1
  9
$CEPSNTYPE
380
     0
  9
$PSTYLEMODE
290
     1
  9
$FINGERPRINTGUID
  2
{02C0BBB5-38A7-4FBF-829E-00875EC88963}
  9
$VERSIONGUID
  2
{82C521FC-BF81-46B3-825E-420B6BD93A99}
  9
$EXTNAMES
290
     1
  9
$PSVPSCALE
 40
0.0
  9
$OLESTARTUP
290
     0
  9
$SORTENTS
280
   127
  9
$INDEXCTL
280
     0
  9
$HIDETEXT
280
     1
  9
$XCLIPFRAME
290
     0
  9
$HALOGAP
280
     0
  9
$OBSCOLOR
 70
   257
  9
$OBSLTYPE
280
     0
  9
$INTERSECTIONDISPLAY
280
     0
  9
$INTERSECTIONCOLOR
 70
   257
  9
$DIMASSOC
280
     1
  9
$PROJECTNAME
  1

  0
ENDSEC
  0
SECTION
  2
CLASSES
  0
CLASS
  1
ACDBDICTIONARYWDFLT
  2
AcDbDictionaryWithDefault
  3
ObjectDBX Classes
 90
        0
 91
        3
280
     0
281
     0
  0
CLASS
  1
SORTENTSTABLE
  2
AcDbSortentsTable
  3
ObjectDBX Classes
 90
        0
 91
        3
280
     0
281
     0
  0
ENDSEC
  0
SECTION
  2
TABLES
  0
TABLE
  2
VPORT
  5
513
330
0
100
AcDbSymbolTable
 70
     4
  0
VPORT
  5
49
330
513
100
AcDbSymbolTableRecord
100
AcDbViewportTableRecord
  2
*ACTIVE
 70
     0
 10
0.0
 20
0.0
 11
1.0
 21
1.0
 12
133.113417
 22
-7.450833
 13
0.0
 23
0.0
 14
0.083333
 24
0.083333
 15
0.083333
 25
0.083333
 16
0.0
 26
0.0
 36
1.0
 17
0.0
 27
0.0
 37
0.0
 40
12.219957
 41
1.884937
 42
50.0
 43
0.0
 44
0.0
 50
0.0
 51
0.0
 71
     0
 72
   100
 73
     1
 74
     2
 75
     0
 76
     0
 77
     0
 78
     1
281
     0
 65
     1
110
0.0
120
0.0
130
0.0
111
1.0
121
0.0
131
0.0
112
0.0
122
1.0
132
0.0
 79
     0
146
0.0
  0
ENDTAB
  0
TABLE
  2
LTYPE
  5
4FA
330
0
100
AcDbSymbolTable
 70
     2
  0
LTYPE
  5
4FB
330
4FA
100
AcDbSymbolTableRecord
100
AcDbLinetypeTableRecord
  2
ByBlock
 70
     0
  3

 72
    65
 73
     0
 40
0.0
  0
LTYPE
  5
4FC
330
4FA
100
AcDbSymbolTableRecord
100
AcDbLinetypeTableRecord
  2
ByLayer
 70
     0
  3

 72
    65
 73
     0
 40
0.0
  0
LTYPE
  5
4F9
330
4FA
100
AcDbSymbolTableRecord
100
AcDbLinetypeTableRecord
  2
Continuous
 70
     0
  3
Solid line
 72
    65
 73
     0
 40
0.0
  0
LTYPE
  5
527
330
4FA
100
AcDbSymbolTableRecord
100
AcDbLinetypeTableRecord
  2
DGN Style 2
 70
     0
  3
Dgn Style 2
 72
    65
 73
     2
 40
0.230339
 49
0.138203
 74
     0
 49
-0.092135
 74
     0
  0
ENDTAB
  0
TABLE
  2
LAYER
  5
4F3
102
{ACAD_XDICTIONARY
360
4F4
102
}
330
0
100
AcDbSymbolTable
 70
    64
  0
LAYER
  5
4F2
330
4F3
100
AcDbSymbolTableRecord
100
AcDbLayerTableRecord
  2
0
 70
     0
 62
     7
  6
Continuous
370
    -3
390
4F6
  0
LAYER
  5
7
330
4F3
100
AcDbSymbolTableRecord
100
AcDbLayerTableRecord
  2
Level 1
 70
     0
 62
     7
  6
Continuous
370
     0
390
4F6
  0
LAYER
  5
8
330
4F3
100
AcDbSymbolTableRecord
100
AcDbLayerTableRecord
  2
2-4A
 70
     0
 62
     7
  6
Continuous
370
     0
390
4F6
1001
AcAecLayerStandard
1000

1000
2-4A
  0
LAYER
  5
9
330
4F3
100
AcDbSymbolTableRecord
100
AcDbLayerTableRecord
  2
BORDER
 70
     0
 62
     7
  6
Continuous
370
     0
390
4F6
1001
AcAecLayerStandard
1000

1000
BORDER
  0
LAYER
  5
A
330
4F3
100
AcDbSymbolTableRecord
100
AcDbLayerTableRecord
  2
DEFPOINTS
 70
     0
 62
     7
  6
Continuous
290
     0
370
     0
390
4F6
1001
AcAecLayerStandard
1000

1000
DEFPOINTS
  0
LAYER
  5
B
330
4F3
100
AcDbSymbolTableRecord
100
AcDbLayerTableRecord
  2
REF
 70
     0
 62
     7
  6
Continuous
370
     0
390
4F6
1001
AcAecLayerStandard
1000

1000
REF
  0
LAYER
  5
C
330
4F3
100
AcDbSymbolTableRecord
100
AcDbLayerTableRecord
  2
TEXT
 70
     0
 62
     7
  6
Continuous
370
     0
390
4F6
1001
AcAecLayerStandard
1000

1000
TEXT
  0
LAYER
  5
D
330
4F3
100
AcDbSymbolTableRecord
100
AcDbLayerTableRecord
  2
TITLE
 70
     0
 62
     7
  6
Continuous
370
     0
390
4F6
1001
AcAecLayerStandard
1000

1000
TITLE
  0
LAYER
  5
E
330
4F3
100
AcDbSymbolTableRecord
100
AcDbLayerTableRecord
  2
Level 8
 70
     0
 62
     7
  6
Continuous
370
     0
390
4F6
  0
LAYER
  5
F
330
4F3
100
AcDbSymbolTableRecord
100
AcDbLayerTableRecord
  2
Level 9
 70
     0
 62
     7
  6
Continuous
370
     0
390
4F6
  0
LAYER
  5
10
330
4F3
100
AcDbSymbolTableRecord
100
AcDbLayerTableRecord
  2
Level 10
 70
     0
 62
     7
  6
Continuous
370
     0
390
4F6
  0
LAYER
  5
11
330
4F3
100
AcDbSymbolTableRecord
100
AcDbLayerTableRecord
  2
Level 11
 70
     0
 62
     7
  6
Continuous
370
     0
390
4F6
  0
LAYER
  5
12
330
4F3
100
AcDbSymbolTableRecord
100
AcDbLayerTableRecord
  2
Level 12
 70
     0
 62
     7
  6
Continuous
370
     0
390
4F6
  0
LAYER
  5
13
330
4F3
100
AcDbSymbolTableRecord
100
AcDbLayerTableRecord
  2
Level 13
 70
     0
 62
     7
  6
Continuous
370
     0
390
4F6
  0
LAYER
  5
14
330
4F3
100
AcDbSymbolTableRecord
100
AcDbLayerTableRecord
  2
Level 14
 70
     0
 62
     7
  6
Continuous
370
     0
390
4F6
  0
LAYER
  5
15
330
4F3
100
AcDbSymbolTableRecord
100
AcDbLayerTableRecord
  2
Level 15
 70
     0
 62
     7
  6
Continuous
370
     0
390
4F6
  0
LAYER
  5
16
330
4F3
100
AcDbSymbolTableRecord
100
AcDbLayerTableRecord
  2
Level 16
 70
     0
 62
     7
  6
Continuous
370
     0
390
4F6
  0
LAYER
  5
17
330
4F3
100
AcDbSymbolTableRecord
100
AcDbLayerTableRecord
  2
Level 17
 70
     0
 62
     7
  6
Continuous
370
     0
390
4F6
  0
LAYER
  5
18
330
4F3
100
AcDbSymbolTableRecord
100
AcDbLayerTableRecord
  2
Level 18
 70
     0
 62
     7
  6
Continuous
370
     0
390
4F6
  0
LAYER
  5
19
330
4F3
100
AcDbSymbolTableRecord
100
AcDbLayerTableRecord
  2
Level 19
 70
     0
 62
     7
  6
Continuous
370
     0
390
4F6
  0
LAYER
  5
1A
330
4F3
100
AcDbSymbolTableRecord
100
AcDbLayerTableRecord
  2
Level 20
 70
     0
 62
     7
  6
Continuous
370
     0
390
4F6
  0
LAYER
  5
1B
330
4F3
100
AcDbSymbolTableRecord
100
AcDbLayerTableRecord
  2
Level 21
 70
     0
 62
     7
  6
Continuous
370
     0
390
4F6
  0
LAYER
  5
1C
330
4F3
100
AcDbSymbolTableRecord
100
AcDbLayerTableRecord
  2
Level 22
 70
     0
 62
     7
  6
Continuous
370
     0
390
4F6
  0
LAYER
  5
1D
330
4F3
100
AcDbSymbolTableRecord
100
AcDbLayerTableRecord
  2
Level 23
 70
     0
 62
     7
  6
Continuous
370
     0
390
4F6
  0
LAYER
  5
1E
330
4F3
100
AcDbSymbolTableRecord
100
AcDbLayerTableRecord
  2
Level 24
 70
     0
 62
     7
  6
Continuous
370
     0
390
4F6
  0
LAYER
  5
1F
330
4F3
100
AcDbSymbolTableRecord
100
AcDbLayerTableRecord
  2
Level 25
 70
     0
 62
     7
  6
Continuous
370
     0
390
4F6
  0
LAYER
  5
20
330
4F3
100
AcDbSymbolTableRecord
100
AcDbLayerTableRecord
  2
Level 26
 70
     0
 62
     7
  6
Continuous
370
     0
390
4F6
  0
LAYER
  5
21
330
4F3
100
AcDbSymbolTableRecord
100
AcDbLayerTableRecord
  2
Level 27
 70
     0
 62
     7
  6
Continuous
370
     0
390
4F6
  0
LAYER
  5
22
330
4F3
100
AcDbSymbolTableRecord
100
AcDbLayerTableRecord
  2
Level 28
 70
     0
 62
     7
  6
Continuous
370
     0
390
4F6
  0
LAYER
  5
23
330
4F3
100
AcDbSymbolTableRecord
100
AcDbLayerTableRecord
  2
Level 29
 70
     0
 62
     7
  6
Continuous
370
     0
390
4F6
  0
LAYER
  5
24
330
4F3
100
AcDbSymbolTableRecord
100
AcDbLayerTableRecord
  2
Level 30
 70
     0
 62
     7
  6
Continuous
370
     0
390
4F6
  0
LAYER
  5
25
330
4F3
100
AcDbSymbolTableRecord
100
AcDbLayerTableRecord
  2
Level 31
 70
     0
 62
     7
  6
Continuous
370
     0
390
4F6
  0
LAYER
  5
26
330
4F3
100
AcDbSymbolTableRecord
100
AcDbLayerTableRecord
  2
Level 32
 70
     0
 62
     7
  6
Continuous
370
     0
390
4F6
  0
LAYER
  5
27
330
4F3
100
AcDbSymbolTableRecord
100
AcDbLayerTableRecord
  2
Level 33
 70
     0
 62
     7
  6
Continuous
370
     0
390
4F6
  0
LAYER
  5
28
330
4F3
100
AcDbSymbolTableRecord
100
AcDbLayerTableRecord
  2
Level 34
 70
     0
 62
     7
  6
Continuous
370
     0
390
4F6
  0
LAYER
  5
29
330
4F3
100
AcDbSymbolTableRecord
100
AcDbLayerTableRecord
  2
Level 35
 70
     0
 62
     7
  6
Continuous
370
     0
390
4F6
  0
LAYER
  5
2A
330
4F3
100
AcDbSymbolTableRecord
100
AcDbLayerTableRecord
  2
Level 36
 70
     0
 62
     7
  6
Continuous
370
     0
390
4F6
  0
LAYER
  5
2B
330
4F3
100
AcDbSymbolTableRecord
100
AcDbLayerTableRecord
  2
Level 37
 70
     0
 62
     7
  6
Continuous
370
     0
390
4F6
  0
LAYER
  5
2C
330
4F3
100
AcDbSymbolTableRecord
100
AcDbLayerTableRecord
  2
Level 38
 70
     0
 62
     7
  6
Continuous
370
     0
390
4F6
  0
LAYER
  5
2D
330
4F3
100
AcDbSymbolTableRecord
100
AcDbLayerTableRecord
  2
Level 39
 70
     0
 62
     7
  6
Continuous
370
     0
390
4F6
  0
LAYER
  5
2E
330
4F3
100
AcDbSymbolTableRecord
100
AcDbLayerTableRecord
  2
Level 40
 70
     0
 62
     7
  6
Continuous
370
     0
390
4F6
  0
LAYER
  5
2F
330
4F3
100
AcDbSymbolTableRecord
100
AcDbLayerTableRecord
  2
Level 41
 70
     0
 62
     7
  6
Continuous
370
     0
390
4F6
  0
LAYER
  5
30
330
4F3
100
AcDbSymbolTableRecord
100
AcDbLayerTableRecord
  2
Level 42
 70
     0
 62
     7
  6
Continuous
370
     0
390
4F6
  0
LAYER
  5
31
330
4F3
100
AcDbSymbolTableRecord
100
AcDbLayerTableRecord
  2
Level 43
 70
     0
 62
     7
  6
Continuous
370
     0
390
4F6
  0
LAYER
  5
32
330
4F3
100
AcDbSymbolTableRecord
100
AcDbLayerTableRecord
  2
Level 44
 70
     0
 62
     7
  6
Continuous
370
     0
390
4F6
  0
LAYER
  5
33
330
4F3
100
AcDbSymbolTableRecord
100
AcDbLayerTableRecord
  2
Level 45
 70
     0
 62
     7
  6
Continuous
370
     0
390
4F6
  0
LAYER
  5
34
330
4F3
100
AcDbSymbolTableRecord
100
AcDbLayerTableRecord
  2
Level 46
 70
     0
 62
     7
  6
Continuous
370
     0
390
4F6
  0
LAYER
  5
35
330
4F3
100
AcDbSymbolTableRecord
100
AcDbLayerTableRecord
  2
Level 47
 70
     0
 62
     7
  6
Continuous
370
     0
390
4F6
  0
LAYER
  5
36
330
4F3
100
AcDbSymbolTableRecord
100
AcDbLayerTableRecord
  2
Level 48
 70
     0
 62
     7
  6
Continuous
370
     0
390
4F6
  0
LAYER
  5
37
330
4F3
100
AcDbSymbolTableRecord
100
AcDbLayerTableRecord
  2
Level 49
 70
     0
 62
     7
  6
Continuous
370
     0
390
4F6
  0
LAYER
  5
38
330
4F3
100
AcDbSymbolTableRecord
100
AcDbLayerTableRecord
  2
Level 50
 70
     0
 62
     7
  6
Continuous
370
     0
390
4F6
  0
LAYER
  5
39
330
4F3
100
AcDbSymbolTableRecord
100
AcDbLayerTableRecord
  2
Level 51
 70
     0
 62
     7
  6
Continuous
370
     0
390
4F6
  0
LAYER
  5
3A
330
4F3
100
AcDbSymbolTableRecord
100
AcDbLayerTableRecord
  2
Level 52
 70
     0
 62
     7
  6
Continuous
370
     0
390
4F6
  0
LAYER
  5
3B
330
4F3
100
AcDbSymbolTableRecord
100
AcDbLayerTableRecord
  2
Level 53
 70
     0
 62
     7
  6
Continuous
370
     0
390
4F6
  0
LAYER
  5
3C
330
4F3
100
AcDbSymbolTableRecord
100
AcDbLayerTableRecord
  2
Level 54
 70
     0
 62
     7
  6
Continuous
370
     0
390
4F6
  0
LAYER
  5
3D
330
4F3
100
AcDbSymbolTableRecord
100
AcDbLayerTableRecord
  2
Level 55
 70
     0
 62
     7
  6
Continuous
370
     0
390
4F6
  0
LAYER
  5
3E
330
4F3
100
AcDbSymbolTableRecord
100
AcDbLayerTableRecord
  2
Level 56
 70
     0
 62
     7
  6
Continuous
370
     0
390
4F6
  0
LAYER
  5
3F
330
4F3
100
AcDbSymbolTableRecord
100
AcDbLayerTableRecord
  2
Level 57
 70
     0
 62
     7
  6
Continuous
370
     0
390
4F6
  0
LAYER
  5
40
330
4F3
100
AcDbSymbolTableRecord
100
AcDbLayerTableRecord
  2
Level 58
 70
     0
 62
     7
  6
Continuous
370
     0
390
4F6
  0
LAYER
  5
41
330
4F3
100
AcDbSymbolTableRecord
100
AcDbLayerTableRecord
  2
Level 59
 70
     0
 62
     7
  6
Continuous
370
     0
390
4F6
  0
LAYER
  5
42
330
4F3
100
AcDbSymbolTableRecord
100
AcDbLayerTableRecord
  2
Level 60
 70
     0
 62
     7
  6
Continuous
370
     0
390
4F6
  0
LAYER
  5
43
330
4F3
100
AcDbSymbolTableRecord
100
AcDbLayerTableRecord
  2
Level 61
 70
     0
 62
     7
  6
Continuous
370
     0
390
4F6
  0
LAYER
  5
44
330
4F3
100
AcDbSymbolTableRecord
100
AcDbLayerTableRecord
  2
Level 62
 70
     0
 62
     7
  6
Continuous
370
     0
390
4F6
  0
LAYER
  5
45
330
4F3
100
AcDbSymbolTableRecord
100
AcDbLayerTableRecord
  2
_0
 70
     0
 62
     7
  6
Continuous
370
     0
390
4F6
1001
AcAecLayerStandard
1000

1000
0
  0
ENDTAB
  0
TABLE
  2
STYLE
  5
4FE
330
0
100
AcDbSymbolTable
 70
     2
  0
STYLE
  5
4FD
330
4FE
100
AcDbSymbolTableRecord
100
AcDbTextStyleTableRecord
  2
Standard
 70
     0
 40
0.0
 41
1.0
 50
0.0
 71
     0
 42
0.09
  3
txt
  4

  0
STYLE
  5
51D
330
4FE
100
AcDbSymbolTableRecord
100
AcDbTextStyleTableRecord
  2
Style-Arial
 70
     0
 40
0.0
 41
1.0
 50
0.0
 71
     0
 42
0.2
  3

  4

1001
ACAD
1000
Arial
1071
       39
  0
ENDTAB
  0
TABLE
  2
VIEW
  5
511
330
0
100
AcDbSymbolTable
 70
     0
  0
ENDTAB
  0
TABLE
  2
UCS
  5
512
330
0
100
AcDbSymbolTable
 70
     0
  0
ENDTAB
  0
TABLE
  2
APPID
  5
510
330
0
100
AcDbSymbolTable
 70
     3
  0
APPID
  5
518
330
510
100
AcDbSymbolTableRecord
100
AcDbRegAppTableRecord
  2
ACAD
 70
     0
  0
APPID
  5
50F
330
510
100
AcDbSymbolTableRecord
100
AcDbRegAppTableRecord
  2
ACAD_PSEXT
 70
     0
  0
APPID
  5
51A
330
510
100
AcDbSymbolTableRecord
100
AcDbRegAppTableRecord
  2
AcAecLayerStandard
 70
     0
  0
ENDTAB
  0
TABLE
  2
DIMSTYLE
  5
500
330
0
100
AcDbSymbolTable
 70
     1
100
AcDbDimStyleTable
  0
DIMSTYLE
105
4FF
330
500
100
AcDbSymbolTableRecord
100
AcDbDimStyleTableRecord
  2
Standard
 70
     0
340
4FD
  0
ENDTAB
  0
TABLE
  2
BLOCK_RECORD
  5
503
330
0
100
AcDbSymbolTable
 70
     1
  0
BLOCK_RECORD
  5
504
102
{ACAD_XDICTIONARY
360
528
102
}
330
503
100
AcDbSymbolTableRecord
100
AcDbBlockTableRecord
  2
*Model_Space
340
507
  0
BLOCK_RECORD
  5
509
330
503
100
AcDbSymbolTableRecord
100
AcDbBlockTableRecord
  2
*Paper_Space
340
50C
  0
BLOCK_RECORD
  5
51E
330
503
100
AcDbSymbolTableRecord
100
AcDbBlockTableRecord
  2
TerminatorOpen_0.5
340
0
  0
ENDTAB
  0
ENDSEC
  0
SECTION
  2
BLOCKS
  0
BLOCK
  5
505
330
504
100
AcDbEntity
  8
0
100
AcDbBlockBegin
  2
*Model_Space
 70
     0
 71
     0
 10
0.0
 20
0.0
 30
0.0
  3
*Model_Space
  1

  0
ENDBLK
  5
506
330
504
100
AcDbEntity
  8
0
100
AcDbBlockEnd
  0
BLOCK
  5
50A
330
509
100
AcDbEntity
 67
     1
  8
0
100
AcDbBlockBegin
  2
*Paper_Space
 70
     0
 71
     0
 10
0.0
 20
0.0
 30
0.0
  3
*Paper_Space
  1

  0
ENDBLK
  5
50B
330
509
100
AcDbEntity
 67
     1
  8
0
100
AcDbBlockEnd
  0
BLOCK
  5
522
330
51E
100
AcDbEntity
  8
0
100
AcDbBlockBegin
  2
TerminatorOpen_0.5
 70
     0
 71
     0
 10
0.0
 20
0.0
 30
0.0
  3
TerminatorOpen_0.5
  1

  0
LINE
  5
51F
330
51E
100
AcDbEntity
  8
0
  6
ByBlock
 62
     0
370
    -2
100
AcDbLine
 10
0.0
 20
0.0
 30
0.0
 11
-1.0
 21
0.0
 31
0.0
  0
LINE
  5
520
330
51E
100
AcDbEntity
  8
0
  6
ByBlock
 62
     0
370
    -2
100
AcDbLine
 10
0.0
 20
0.0
 30
0.0
 11
-1.0
 21
0.25
 31
0.0
  0
LINE
  5
521
330
51E
100
AcDbEntity
  8
0
  6
ByBlock
 62
     0
370
    -2
100
AcDbLine
 10
0.0
 20
0.0
 30
0.0
 11
-1.0
 21
-0.25
 31
0.0
  0
ENDBLK
  5
523
330
51E
100
AcDbEntity
  8
0
100
AcDbBlockEnd
  0
ENDSEC
  0
SECTION
  2
ENTITIES
  0
LINE
  5
5B
330
504
100
AcDbEntity
  8
_0
  6
Continuous
 62
     7
370
    30
100
AcDbLine
 10
128.613385
 20
-2.075854
 30
0.0
 11
129.113385
 21
-2.075854
 31
0.0
  0
LINE
  5
5C
330
504
100
AcDbEntity
  8
_0
  6
Continuous
 62
     7
370
    30
100
AcDbLine
 10
129.113385
 20
-2.075854
 30
0.0
 11
129.113385
 21
-1.575854
 31
0.0
  0
LINE
  5
5D
330
504
100
AcDbEntity
  8
_0
  6
Continuous
 62
     7
370
    30
100
AcDbLine
 10
137.113448
 20
-2.075854
 30
0.0
 11
137.113448
 21
-1.575854
 31
0.0
  0
LINE
  5
5E
330
504
100
AcDbEntity
  8
_0
  6
Continuous
 62
     7
370
    30
100
AcDbLine
 10
137.113448
 20
-2.075854
 30
0.0
 11
137.613448
 21
-2.075854
 31
0.0
  0
LINE
  5
5F
330
504
100
AcDbEntity
  8
_0
  6
Continuous
 62
     7
370
    30
100
AcDbLine
 10
128.613385
 20
-12.825812
 30
0.0
 11
129.113385
 21
-12.825812
 31
0.0
  0
LINE
  5
60
330
504
100
AcDbEntity
  8
_0
  6
Continuous
 62
     7
370
    30
100
AcDbLine
 10
129.113385
 20
-13.325812
 30
0.0
 11
129.113385
 21
-12.825812
 31
0.0
  0
LINE
  5
61
330
504
100
AcDbEntity
  8
_0
  6
Continuous
 62
     7
370
    30
100
AcDbLine
 10
137.113448
 20
-13.325812
 30
0.0
 11
137.113448
 21
-12.825812
 31
0.0
  0
LINE
  5
62
330
504
100
AcDbEntity
  8
_0
  6
Continuous
 62
     7
370
    30
100
AcDbLine
 10
137.113448
 20
-12.825812
 30
0.0
 11
137.613448
 21
-12.825812
 31
0.0
  0
LWPOLYLINE
  5
67
330
504
100
AcDbEntity
  8
Level 1
  6
Continuous
 62
     7
370
    40
100
AcDbPolyline
 90
        4
 70
   129
 43
0.0
 10
129.487594
 20
-12.110323
 10
136.737479
 20
-12.110323
 10
136.737479
 20
-2.789052
 10
129.487594
 20
-2.789052
  0
LINE
  5
68
330
504
100
AcDbEntity
  8
Level 1
  6
Continuous
 62
     7
370
    40
100
AcDbLine
 10
129.487594
 20
-11.592479
 30
0.0
 11
136.737479
 21
-11.592479
 31
0.0
  0
LINE
  5
69
330
504
100
AcDbEntity
  8
Level 1
  6
Continuous
 62
     7
370
    13
100
AcDbLine
 10
136.737479
 20
-12.110323
 30
0.0
 11
136.737479
 21
-11.592479
 31
0.0
  0
LINE
  5
6A
330
504
100
AcDbEntity
  8
Level 1
  6
Continuous
 62
     7
370
    13
100
AcDbLine
 10
135.442156
 20
-12.110323
 30
0.0
 11
135.442156
 21
-11.592479
 31
0.0
  0
LINE
  5
6B
330
504
100
AcDbEntity
  8
Level 1
  6
Continuous
 62
     7
370
    40
100
AcDbLine
 10
134.406469
 20
-12.110323
 30
0.0
 11
134.406469
 21
-11.592479
 31
0.0
  0
LINE
  5
6E
330
504
100
AcDbEntity
  8
Level 1
  6
Continuous
 62
     7
370
    13
100
AcDbLine
 10
131.761302
 20
-9.183438
 30
0.0
 11
131.452656
 21
-9.180677
 31
0.0
  0
LINE
  5
6F
330
504
100
AcDbEntity
  8
Level 1
  6
Continuous
 62
     7
370
    13
100
AcDbLine
 10
134.723385
 20
-9.188969
 30
0.0
 11
134.975406
 21
-9.188969
 31
0.0
  0
LINE
  5
70
330
504
100
AcDbEntity
  8
Level 1
  6
Continuous
 62
     7
370
    13
100
AcDbLine
 10
131.453354
 20
-8.800927
 30
0.0
 11
131.407094
 21
-8.800927
 31
0.0
  0
LINE
  5
71
330
504
100
AcDbEntity
  8
Level 1
  6
Continuous
 62
     7
370
    13
100
AcDbLine
 10
131.424344
 20
-8.796781
 30
0.0
 11
131.424344
 21
-8.849948
 31
0.0
  0
LINE
  5
72
330
504
100
AcDbEntity
  8
Level 1
  6
Continuous
 62
     7
370
    13
100
AcDbLine
 10
131.424344
 20
-9.018427
 30
0.0
 11
131.351854
 21
-9.018427
 31
0.0
  0
LINE
  5
73
330
504
100
AcDbEntity
  8
Level 1
  6
Continuous
 62
     7
370
    13
100
AcDbLine
 10
131.424344
 20
-8.87826
 30
0.0
 11
131.424344
 21
-8.95076
 31
0.0
  0
LINE
  5
74
330
504
100
AcDbEntity
  8
Level 1
  6
Continuous
 62
     7
370
    13
100
AcDbLine
 10
131.424344
 20
-8.985979
 30
0.0
 11
131.424344
 21
-9.018427
 31
0.0
  0
LINE
  5
75
330
504
100
AcDbEntity
  8
Level 1
  6
Continuous
 62
     7
370
    13
100
AcDbLine
 10
131.317323
 20
-9.018427
 30
0.0
 11
131.20824
 21
-9.018427
 31
0.0
  0
LINE
  5
76
330
504
100
AcDbEntity
  8
Level 1
  6
Continuous
 62
     7
370
    13
100
AcDbLine
 10
131.164052
 20
-9.018427
 30
0.0
 11
131.041833
 21
-9.018427
 31
0.0
  0
LINE
  5
77
330
504
100
AcDbEntity
  8
Level 1
  6
Continuous
 62
     7
370
    13
100
AcDbLine
 10
131.37325
 20
-8.800927
 30
0.0
 11
131.260708
 21
-8.800927
 31
0.0
  0
LINE
  5
78
330
504
100
AcDbEntity
  8
Level 1
  6
Continuous
 62
     7
370
    13
100
AcDbLine
 10
131.192354
 20
-8.800927
 30
0.0
 11
131.078427
 21
-8.800927
 31
0.0
  0
LINE
  5
79
330
504
100
AcDbEntity
  8
Level 1
  6
Continuous
 62
     7
370
    13
100
AcDbLine
 10
131.025948
 20
-8.800927
 30
0.0
 11
130.890625
 21
-8.800927
 31
0.0
  0
LINE
  5
7A
330
504
100
AcDbEntity
  8
Level 1
  6
Continuous
 62
     7
370
    13
100
AcDbLine
 10
130.836073
 20
-8.800927
 30
0.0
 11
130.728365
 21
-8.800927
 31
0.0
  0
LINE
  5
7B
330
504
100
AcDbEntity
  8
Level 1
  6
Continuous
 62
     7
370
    13
100
AcDbLine
 10
130.651719
 20
-8.800927
 30
0.0
 11
130.557125
 21
-8.800927
 31
0.0
  0
LINE
  5
7C
330
504
100
AcDbEntity
  8
Level 1
  6
Continuous
 62
     7
370
    13
100
AcDbLine
 10
133.233375
 20
-8.712552
 30
0.0
 11
133.233375
 21
-8.560646
 31
0.0
  0
LINE
  5
7D
330
504
100
AcDbEntity
  8
Level 1
  6
Continuous
 62
     7
370
    13
100
AcDbLine
 10
131.449896
 20
-8.73326
 30
0.0
 11
131.449896
 21
-8.274792
 31
0.0
  0
LINE
  5
7E
330
504
100
AcDbEntity
  8
Level 1
  6
Continuous
 62
     7
370
    13
100
AcDbLine
 10
131.453354
 20
-8.348677
 30
0.0
 11
133.233375
 21
-8.348677
 31
0.0
  0
LWPOLYLINE
  5
7F
330
504
100
AcDbEntity
  8
Level 1
  6
Continuous
 62
     7
370
    13
100
AcDbPolyline
 90
        5
 70
   128
 43
0.0
 10
133.23274
 20
-8.347958
 10
133.23274
 20
-8.347958
 10
133.113979
 20
-8.334156
 10
133.113979
 20
-8.372135
 10
133.23274
 20
-8.347958
  0
LWPOLYLINE
  5
80
330
504
100
AcDbEntity
  8
Level 1
  6
Continuous
 62
     7
370
    13
100
AcDbPolyline
 90
        5
 70
   128
 43
0.0
 10
131.446448
 20
-8.345906
 10
131.446448
 20
-8.345906
 10
131.547948
 20
-8.334167
 10
131.547948
 20
-8.365927
 10
131.446448
 20
-8.345906
  0
LINE
  5
81
330
504
100
AcDbEntity
  8
Level 1
  6
Continuous
 62
     7
370
    13
100
AcDbLine
 10
133.233375
 20
-8.415646
 30
0.0
 11
133.233375
 21
-8.249937
 31
0.0
  0
LINE
  5
82
330
504
100
AcDbEntity
  8
Level 1
  6
Continuous
 62
     7
370
    13
100
AcDbLine
 10
133.233375
 20
-8.524052
 30
0.0
 11
133.233375
 21
-8.450865
 31
0.0
  0
LINE
  5
83
330
504
100
AcDbEntity
  8
Level 1
  6
Continuous
 62
     7
370
    13
100
AcDbLine
 10
134.976104
 20
-8.795406
 30
0.0
 11
135.051354
 21
-8.795406
 31
0.0
  0
LINE
  5
84
330
504
100
AcDbEntity
  8
Level 1
  6
Continuous
 62
     7
370
    13
100
AcDbLine
 10
134.9975
 20
-8.80024
 30
0.0
 11
134.9975
 21
-8.866521
 31
0.0
  0
LINE
  5
85
330
504
100
AcDbEntity
  8
Level 1
  6
Continuous
 62
     7
370
    13
100
AcDbLine
 10
134.975406
 20
-9.021875
 30
0.0
 11
135.098312
 21
-9.021875
 31
0.0
  0
LINE
  5
86
330
504
100
AcDbEntity
  8
Level 1
  6
Continuous
 62
     7
370
    13
100
AcDbLine
 10
135.099687
 20
-8.795406
 30
0.0
 11
135.2005
 21
-8.795406
 31
0.0
  0
LINE
  5
87
330
504
100
AcDbEntity
  8
Level 1
  6
Continuous
 62
     7
370
    13
100
AcDbLine
 10
135.27024
 20
-8.795406
 30
0.0
 11
135.380021
 21
-8.795406
 31
0.0
  0
LINE
  5
88
330
504
100
AcDbEntity
  8
Level 1
  6
Continuous
 62
     7
370
    13
100
AcDbLine
 10
135.441479
 20
-8.795406
 30
0.0
 11
135.557479
 21
-8.795406
 31
0.0
  0
LINE
  5
89
330
504
100
AcDbEntity
  8
Level 1
  6
Continuous
 62
     7
370
    13
100
AcDbLine
 10
135.622375
 20
-8.795406
 30
0.0
 11
135.712823
 21
-8.795406
 31
0.0
  0
LINE
  5
8A
330
504
100
AcDbEntity
  8
Level 1
  6
Continuous
 62
     7
370
    13
100
AcDbLine
 10
135.779802
 20
-8.795406
 30
0.0
 11
135.865417
 21
-8.795406
 31
0.0
  0
LINE
  5
8B
330
504
100
AcDbEntity
  8
Level 1
  6
Continuous
 62
     7
370
    13
100
AcDbLine
 10
135.158385
 20
-9.021875
 30
0.0
 11
135.248833
 21
-9.021875
 31
0.0
  0
LINE
  5
8C
330
504
100
AcDbEntity
  8
Level 1
  6
Continuous
 62
     7
370
    13
100
AcDbLine
 10
135.306833
 20
-9.021875
 30
0.0
 11
135.388312
 21
-9.021875
 31
0.0
  0
LINE
  5
8D
330
504
100
AcDbEntity
  8
Level 1
  6
Continuous
 62
     7
370
    13
100
AcDbLine
 10
135.445615
 20
-9.021875
 30
0.0
 11
135.514656
 21
-9.021875
 31
0.0
  0
LINE
  5
8E
330
504
100
AcDbEntity
  8
Level 1
  6
Continuous
 62
     7
370
    13
100
AcDbLine
 10
135.572656
 20
-9.021875
 30
0.0
 11
135.651375
 21
-9.021875
 31
0.0
  0
LINE
  5
8F
330
504
100
AcDbEntity
  8
Level 1
  6
Continuous
 62
     7
370
    13
100
AcDbLine
 10
135.71351
 20
-9.021875
 30
0.0
 11
135.794302
 21
-9.021875
 31
0.0
  0
LINE
  5
90
330
504
100
AcDbEntity
  8
Level 1
  6
Continuous
 62
     7
370
    13
100
AcDbLine
 10
135.846781
 20
-9.021875
 30
0.0
 11
135.869563
 21
-9.021875
 31
0.0
  0
LINE
  5
91
330
504
100
AcDbEntity
  8
Level 1
  6
Continuous
 62
     7
370
    13
100
AcDbLine
 10
133.231979
 20
-9.524531
 30
0.0
 11
133.231979
 21
-9.18551
 31
0.0
  0
LWPOLYLINE
  5
92
330
504
100
AcDbEntity
  8
Level 1
  6
Continuous
 62
     7
370
    13
100
AcDbPolyline
 90
        5
 70
   128
 43
0.0
 10
133.233375
 20
-9.523844
 10
133.232677
 20
-9.523844
 10
133.219562
 20
-9.433385
 10
133.245104
 20
-9.432708
 10
133.233375
 20
-9.523844
  0
LWPOLYLINE
  5
93
330
504
100
AcDbEntity
  8
Level 1
  6
Continuous
 62
     7
370
    13
100
AcDbPolyline
 90
        5
 70
   128
 43
0.0
 10
133.232677
 20
-9.18551
 10
133.232677
 20
-9.18551
 10
133.219562
 20
-9.268375
 10
133.241656
 20
-9.269063
 10
133.232677
 20
-9.18551
  0
LINE
  5
9A
330
504
100
AcDbEntity
  8
Level 1
  6
Continuous
 62
     7
370
    13
100
AcDbLine
 10
134.9975
 20
-8.922448
 30
0.0
 11
134.9975
 21
-9.017729
 31
0.0
  0
LINE
  5
9B
330
504
100
AcDbEntity
  8
Level 1
  6
Continuous
 62
     7
370
    13
100
AcDbLine
 10
131.123302
 20
-3.43601
 30
0.0
 11
135.247458
 21
-3.43601
 31
0.0
  0
LINE
  5
9C
330
504
100
AcDbEntity
  8
Level 1
  6
Continuous
 62
     7
370
    13
100
AcDbLine
 10
130.648958
 20
-3.98149
 30
0.0
 11
135.769448
 21
-3.98149
 31
0.0
  0
LINE
  5
9D
330
504
100
AcDbEntity
  8
Level 1
  6
Continuous
 62
     7
370
    13
100
AcDbLine
 10
130.663458
 20
-4.01325
 30
0.0
 11
135.759771
 21
-4.01325
 31
0.0
  0
LINE
  5
9E
330
504
100
AcDbEntity
  8
Level 1
  6
Continuous
 62
     7
370
    13
100
AcDbLine
 10
130.666906
 20
-4.05674
 30
0.0
 11
135.769448
 21
-4.05674
 31
0.0
  0
LINE
  5
9F
330
504
100
AcDbEntity
  8
Level 1
  6
Continuous
 62
     7
370
    13
100
AcDbLine
 10
130.67174
 20
-4.086427
 30
0.0
 11
135.772896
 21
-4.086427
 31
0.0
  0
LINE
  5
A0
330
504
100
AcDbEntity
  8
Level 1
  6
Continuous
 62
     7
370
    13
100
AcDbLine
 10
130.652417
 20
-5.12351
 30
0.0
 11
135.818469
 21
-5.12351
 31
0.0
  0
LINE
  5
A1
330
504
100
AcDbEntity
  8
Level 1
  6
Continuous
 62
     7
370
    13
100
AcDbLine
 10
130.653792
 20
-5.16149
 30
0.0
 11
135.82399
 21
-5.16149
 31
0.0
  0
LINE
  5
A2
330
504
100
AcDbEntity
  8
Level 1
  6
Continuous
 62
     7
370
    13
100
AcDbLine
 10
130.665531
 20
-5.213271
 30
0.0
 11
135.831583
 21
-5.213271
 31
0.0
  0
LINE
  5
A3
330
504
100
AcDbEntity
  8
Level 1
  6
Continuous
 62
     7
370
    13
100
AcDbLine
 10
130.660698
 20
-5.212583
 30
0.0
 11
135.841948
 21
-5.212583
 31
0.0
  0
LINE
  5
A4
330
504
100
AcDbEntity
  8
Level 1
  6
Continuous
 62
     7
370
    13
100
AcDbLine
 10
130.664156
 20
-5.242271
 30
0.0
 11
135.826063
 21
-5.242271
 31
0.0
  0
LWPOLYLINE
  5
A8
330
504
100
AcDbEntity
  8
Level 1
  6
Continuous
 62
     7
370
    13
100
AcDbPolyline
 90
        3
 70
   128
 43
0.0
 10
130.912031
 20
-5.242271
 10
130.912031
 20
-5.31198
 10
130.810521
 20
-5.31198
  0
LINE
  5
A9
330
504
100
AcDbEntity
  8
Level 1
  6
Continuous
 62
     7
370
    13
100
AcDbLine
 10
130.810521
 20
-5.31198
 30
0.0
 11
130.810521
 21
-5.242271
 31
0.0
  0
LWPOLYLINE
  5
AA
330
504
100
AcDbEntity
  8
Level 1
  6
Continuous
 62
     7
370
    13
100
AcDbPolyline
 90
        4
 70
   128
 43
0.0
 10
130.810521
 20
-5.124198
 10
130.810521
 20
-5.051698
 10
130.912031
 20
-5.051698
 10
130.912031
 20
-5.12351
  0
LINE
  5
AB
330
504
100
AcDbEntity
  8
Level 1
  6
Continuous
 62
     7
370
    13
100
AcDbLine
 10
130.796031
 20
-4.156865
 30
0.0
 11
130.796031
 21
-4.085052
 31
0.0
  0
LWPOLYLINE
  5
AC
330
504
100
AcDbEntity
  8
Level 1
  6
Continuous
 62
     7
370
    13
100
AcDbPolyline
 90
        4
 70
   128
 43
0.0
 10
130.796031
 20
-3.982865
 10
130.796031
 20
-3.907604
 10
130.913406
 20
-3.907604
 10
130.913406
 20
-3.979417
  0
LWPOLYLINE
  5
AD
330
504
100
AcDbEntity
  8
Level 1
  6
Continuous
 62
     7
370
    13
100
AcDbPolyline
 90
        3
 70
   128
 43
0.0
 10
130.913406
 20
-4.086427
 10
130.913406
 20
-4.156865
 10
130.796031
 20
-4.156865
  0
LWPOLYLINE
  5
AE
330
504
100
AcDbEntity
  8
Level 1
  6
Continuous
 62
     7
370
    13
100
AcDbPolyline
 90
        3
 70
   128
 43
0.0
 10
135.646542
 20
-4.089885
 10
135.646542
 20
-4.156865
 10
135.529167
 20
-4.156865
  0
LWPOLYLINE
  5
AF
330
504
100
AcDbEntity
  8
Level 1
  6
Continuous
 62
     7
370
    13
100
AcDbPolyline
 90
        4
 70
   128
 43
0.0
 10
135.528469
 20
-3.982865
 10
135.528469
 20
-3.907604
 10
135.646542
 20
-3.907604
 10
135.646542
 20
-3.979417
  0
LINE
  5
B0
330
504
100
AcDbEntity
  8
Level 1
  6
Continuous
 62
     7
370
    13
100
AcDbLine
 10
135.528469
 20
-4.152031
 30
0.0
 11
135.528469
 21
-4.085052
 31
0.0
  0
LWPOLYLINE
  5
B1
330
504
100
AcDbEntity
  8
Level 1
  6
Continuous
 62
     7
370
    13
100
AcDbPolyline
 90
        4
 70
   128
 43
0.0
 10
135.542969
 20
-5.124198
 10
135.542969
 20
-5.051698
 10
135.644469
 20
-5.051698
 10
135.644469
 20
-5.12351
  0
LINE
  5
B2
330
504
100
AcDbEntity
  8
Level 1
  6
Continuous
 62
     7
370
    13
100
AcDbLine
 10
135.542969
 20
-5.312107
 30
0.0
 11
135.542969
 21
-5.242271
 31
0.0
  0
LWPOLYLINE
  5
B3
330
504
100
AcDbEntity
  8
Level 1
  6
Continuous
 62
     7
370
    13
100
AcDbPolyline
 90
        3
 70
   128
 43
0.0
 10
135.644469
 20
-5.242271
 10
135.644469
 20
-5.312107
 10
135.542969
 20
-5.312107
  0
LINE
  5
B8
330
504
100
AcDbEntity
  8
Level 1
  6
Continuous
 62
     7
370
    13
100
AcDbLine
 10
131.123302
 20
-5.744927
 30
0.0
 11
135.247458
 21
-5.744927
 31
0.0
  0
LINE
  5
B9
330
504
100
AcDbEntity
  8
Level 1
  6
Continuous
 62
     7
370
    13
100
AcDbLine
 10
131.351167
 20
-3.616229
 30
0.0
 11
131.351167
 21
-3.687344
 31
0.0
  0
LINE
  5
BA
330
504
100
AcDbEntity
  8
Level 1
  6
Continuous
 62
     7
370
    13
100
AcDbLine
 10
131.351167
 20
-5.577146
 30
0.0
 11
131.277969
 21
-5.577146
 31
0.0
  0
LINE
  5
BB
330
504
100
AcDbEntity
  8
Level 1
  6
Continuous
 62
     7
370
    13
100
AcDbLine
 10
131.176469
 20
-5.577146
 30
0.0
 11
131.176469
 21
-5.515698
 31
0.0
  0
LINE
  5
BC
330
504
100
AcDbEntity
  8
Level 1
  6
Continuous
 62
     7
370
    13
100
AcDbLine
 10
131.177167
 20
-3.616229
 30
0.0
 11
131.253802
 21
-3.616229
 31
0.0
  0
LINE
  5
BD
330
504
100
AcDbEntity
  8
Level 1
  6
Continuous
 62
     7
370
    13
100
AcDbLine
 10
131.570031
 20
-3.616229
 30
0.0
 11
131.647375
 21
-3.616229
 31
0.0
  0
LINE
  5
BE
330
504
100
AcDbEntity
  8
Level 1
  6
Continuous
 62
     7
370
    13
100
AcDbLine
 10
131.569354
 20
-5.577146
 30
0.0
 11
131.569354
 21
-5.514312
 31
0.0
  0
LINE
  5
BF
330
504
100
AcDbEntity
  8
Level 1
  6
Continuous
 62
     7
370
    13
100
AcDbLine
 10
131.744031
 20
-5.577146
 30
0.0
 11
131.670156
 21
-5.577146
 31
0.0
  0
LINE
  5
C0
330
504
100
AcDbEntity
  8
Level 1
  6
Continuous
 62
     7
370
    13
100
AcDbLine
 10
131.744031
 20
-3.616229
 30
0.0
 11
131.744031
 21
-3.686656
 31
0.0
  0
LINE
  5
C1
330
504
100
AcDbEntity
  8
Level 1
  6
Continuous
 62
     7
370
    13
100
AcDbLine
 10
132.150719
 20
-3.616229
 30
0.0
 11
132.150719
 21
-3.690792
 31
0.0
  0
LINE
  5
C2
330
504
100
AcDbEntity
  8
Level 1
  6
Continuous
 62
     7
370
    13
100
AcDbLine
 10
132.150719
 20
-5.577146
 30
0.0
 11
132.083052
 21
-5.577146
 31
0.0
  0
LINE
  5
C3
330
504
100
AcDbEntity
  8
Level 1
  6
Continuous
 62
     7
370
    13
100
AcDbLine
 10
131.976031
 20
-5.577146
 30
0.0
 11
131.976031
 21
-5.515698
 31
0.0
  0
LINE
  5
C4
330
504
100
AcDbEntity
  8
Level 1
  6
Continuous
 62
     7
370
    13
100
AcDbLine
 10
131.976031
 20
-3.616229
 30
0.0
 11
132.053365
 21
-3.616229
 31
0.0
  0
LINE
  5
C5
330
504
100
AcDbEntity
  8
Level 1
  6
Continuous
 62
     7
370
    13
100
AcDbLine
 10
132.361302
 20
-3.616229
 30
0.0
 11
132.427594
 21
-3.616229
 31
0.0
  0
LINE
  5
C6
330
504
100
AcDbEntity
  8
Level 1
  6
Continuous
 62
     7
370
    13
100
AcDbLine
 10
132.360625
 20
-5.577146
 30
0.0
 11
132.360625
 21
-5.517073
 31
0.0
  0
LINE
  5
C7
330
504
100
AcDbEntity
  8
Level 1
  6
Continuous
 62
     7
370
    13
100
AcDbLine
 10
132.535302
 20
-5.577146
 30
0.0
 11
132.4635
 21
-5.577146
 31
0.0
  0
LINE
  5
C8
330
504
100
AcDbEntity
  8
Level 1
  6
Continuous
 62
     7
370
    13
100
AcDbLine
 10
132.535302
 20
-3.616229
 30
0.0
 11
132.535302
 21
-3.690792
 31
0.0
  0
LINE
  5
C9
330
504
100
AcDbEntity
  8
Level 1
  6
Continuous
 62
     7
370
    13
100
AcDbLine
 10
132.926802
 20
-3.616229
 30
0.0
 11
132.926802
 21
-3.690792
 31
0.0
  0
LINE
  5
CA
330
504
100
AcDbEntity
  8
Level 1
  6
Continuous
 62
     7
370
    13
100
AcDbLine
 10
132.926802
 20
-5.577146
 30
0.0
 11
132.852229
 21
-5.577146
 31
0.0
  0
LINE
  5
CB
330
504
100
AcDbEntity
  8
Level 1
  6
Continuous
 62
     7
370
    13
100
AcDbLine
 10
132.752115
 20
-5.577146
 30
0.0
 11
132.752115
 21
-5.515
 31
0.0
  0
LINE
  5
CC
330
504
100
AcDbEntity
  8
Level 1
  6
Continuous
 62
     7
370
    13
100
AcDbLine
 10
132.752802
 20
-3.616229
 30
0.0
 11
132.820469
 21
-3.616229
 31
0.0
  0
LINE
  5
CD
330
504
100
AcDbEntity
  8
Level 1
  6
Continuous
 62
     7
370
    13
100
AcDbLine
 10
133.124271
 20
-3.616229
 30
0.0
 11
133.201604
 21
-3.616229
 31
0.0
  0
LINE
  5
CE
330
504
100
AcDbEntity
  8
Level 1
  6
Continuous
 62
     7
370
    13
100
AcDbLine
 10
133.124271
 20
-5.577146
 30
0.0
 11
133.124271
 21
-5.510167
 31
0.0
  0
LINE
  5
CF
330
504
100
AcDbEntity
  8
Level 1
  6
Continuous
 62
     7
370
    13
100
AcDbLine
 10
133.298958
 20
-5.577146
 30
0.0
 11
133.223698
 21
-5.577146
 31
0.0
  0
LINE
  5
D0
330
504
100
AcDbEntity
  8
Level 1
  6
Continuous
 62
     7
370
    13
100
AcDbLine
 10
133.298958
 20
-3.616229
 30
0.0
 11
133.298958
 21
-3.690115
 31
0.0
  0
LINE
  5
D1
330
504
100
AcDbEntity
  8
Level 1
  6
Continuous
 62
     7
370
    13
100
AcDbLine
 10
133.699427
 20
-3.616229
 30
0.0
 11
133.699427
 21
-3.690115
 31
0.0
  0
LINE
  5
D2
330
504
100
AcDbEntity
  8
Level 1
  6
Continuous
 62
     7
370
    13
100
AcDbLine
 10
133.699427
 20
-5.577146
 30
0.0
 11
133.620031
 21
-5.577146
 31
0.0
  0
LINE
  5
D3
330
504
100
AcDbEntity
  8
Level 1
  6
Continuous
 62
     7
370
    13
100
AcDbLine
 10
133.52475
 20
-5.577146
 30
0.0
 11
133.52475
 21
-5.519146
 31
0.0
  0
LINE
  5
D4
330
504
100
AcDbEntity
  8
Level 1
  6
Continuous
 62
     7
370
    13
100
AcDbLine
 10
133.525438
 20
-3.616229
 30
0.0
 11
133.59724
 21
-3.616229
 31
0.0
  0
LINE
  5
D5
330
504
100
AcDbEntity
  8
Level 1
  6
Continuous
 62
     7
370
    13
100
AcDbLine
 10
133.926594
 20
-3.616229
 30
0.0
 11
134.001854
 21
-3.616229
 31
0.0
  0
LINE
  5
D6
330
504
100
AcDbEntity
  8
Level 1
  6
Continuous
 62
     7
370
    13
100
AcDbLine
 10
133.925906
 20
-5.577146
 30
0.0
 11
133.925906
 21
-5.532271
 31
0.0
  0
LINE
  5
D7
330
504
100
AcDbEntity
  8
Level 1
  6
Continuous
 62
     7
370
    13
100
AcDbLine
 10
134.100594
 20
-5.577146
 30
0.0
 11
134.027406
 21
-5.577146
 31
0.0
  0
LINE
  5
D8
330
504
100
AcDbEntity
  8
Level 1
  6
Continuous
 62
     7
370
    13
100
AcDbLine
 10
134.100594
 20
-3.616229
 30
0.0
 11
134.100594
 21
-3.690115
 31
0.0
  0
LINE
  5
D9
330
504
100
AcDbEntity
  8
Level 1
  6
Continuous
 62
     7
370
    13
100
AcDbLine
 10
134.474823
 20
-3.616229
 30
0.0
 11
134.474823
 21
-3.69425
 31
0.0
  0
LINE
  5
DA
330
504
100
AcDbEntity
  8
Level 1
  6
Continuous
 62
     7
370
    13
100
AcDbLine
 10
134.474823
 20
-5.577146
 30
0.0
 11
134.396802
 21
-5.577146
 31
0.0
  0
LINE
  5
DB
330
504
100
AcDbEntity
  8
Level 1
  6
Continuous
 62
     7
370
    13
100
AcDbLine
 10
134.300135
 20
-5.577146
 30
0.0
 11
134.300135
 21
-5.52674
 31
0.0
  0
LINE
  5
DC
330
504
100
AcDbEntity
  8
Level 1
  6
Continuous
 62
     7
370
    13
100
AcDbLine
 10
134.300135
 20
-3.616229
 30
0.0
 11
134.376781
 21
-3.616229
 31
0.0
  0
LINE
  5
DD
330
504
100
AcDbEntity
  8
Level 1
  6
Continuous
 62
     7
370
    13
100
AcDbLine
 10
134.683344
 20
-3.616229
 30
0.0
 11
134.748937
 21
-3.616229
 31
0.0
  0
LINE
  5
DE
330
504
100
AcDbEntity
  8
Level 1
  6
Continuous
 62
     7
370
    13
100
AcDbLine
 10
134.682656
 20
-5.577146
 30
0.0
 11
134.682656
 21
-5.52674
 31
0.0
  0
LINE
  5
DF
330
504
100
AcDbEntity
  8
Level 1
  6
Continuous
 62
     7
370
    13
100
AcDbLine
 10
134.857344
 20
-5.577146
 30
0.0
 11
134.77725
 21
-5.577146
 31
0.0
  0
LINE
  5
E0
330
504
100
AcDbEntity
  8
Level 1
  6
Continuous
 62
     7
370
    13
100
AcDbLine
 10
134.857344
 20
-3.616229
 30
0.0
 11
134.857344
 21
-3.69425
 31
0.0
  0
LINE
  5
E1
330
504
100
AcDbEntity
  8
Level 1
  6
Continuous
 62
     7
370
    13
100
AcDbLine
 10
135.24124
 20
-3.616229
 30
0.0
 11
135.24124
 21
-3.69425
 31
0.0
  0
LINE
  5
E2
330
504
100
AcDbEntity
  8
Level 1
  6
Continuous
 62
     7
370
    13
100
AcDbLine
 10
135.24124
 20
-5.577146
 30
0.0
 11
135.161833
 21
-5.577146
 31
0.0
  0
LINE
  5
E3
330
504
100
AcDbEntity
  8
Level 1
  6
Continuous
 62
     7
370
    13
100
AcDbLine
 10
135.066552
 20
-5.577146
 30
0.0
 11
135.066552
 21
-5.534344
 31
0.0
  0
LINE
  5
E4
330
504
100
AcDbEntity
  8
Level 1
  6
Continuous
 62
     7
370
    13
100
AcDbLine
 10
135.06724
 20
-3.616229
 30
0.0
 11
135.133531
 21
-3.616229
 31
0.0
  0
LINE
  5
E5
330
504
100
AcDbEntity
  8
Level 1
  6
Continuous
 62
     7
370
    13
100
AcDbLine
 10
131.176469
 20
-3.985625
 30
0.0
 11
131.176469
 21
-3.911052
 31
0.0
  0
LINE
  5
E6
330
504
100
AcDbEntity
  8
Level 1
  6
Continuous
 62
     7
370
    13
100
AcDbLine
 10
131.351167
 20
-4.090583
 30
0.0
 11
131.351167
 21
-4.123031
 31
0.0
  0
LINE
  5
E7
330
504
100
AcDbEntity
  8
Level 1
  6
Continuous
 62
     7
370
    13
100
AcDbLine
 10
131.569354
 20
-3.980104
 30
0.0
 11
131.569354
 21
-3.910365
 31
0.0
  0
LINE
  5
E8
330
504
100
AcDbEntity
  8
Level 1
  6
Continuous
 62
     7
370
    13
100
AcDbLine
 10
131.744031
 20
-4.089885
 30
0.0
 11
131.744031
 21
-4.123031
 31
0.0
  0
LINE
  5
E9
330
504
100
AcDbEntity
  8
Level 1
  6
Continuous
 62
     7
370
    13
100
AcDbLine
 10
131.976031
 20
-3.974583
 30
0.0
 11
131.976031
 21
-3.910365
 31
0.0
  0
LINE
  5
EA
330
504
100
AcDbEntity
  8
Level 1
  6
Continuous
 62
     7
370
    13
100
AcDbLine
 10
132.150719
 20
-4.089885
 30
0.0
 11
132.150719
 21
-4.123031
 31
0.0
  0
LINE
  5
EB
330
504
100
AcDbEntity
  8
Level 1
  6
Continuous
 62
     7
370
    13
100
AcDbLine
 10
132.360625
 20
-3.983562
 30
0.0
 11
132.360625
 21
-3.913823
 31
0.0
  0
LINE
  5
EC
330
504
100
AcDbEntity
  8
Level 1
  6
Continuous
 62
     7
370
    13
100
AcDbLine
 10
132.535302
 20
-4.090583
 30
0.0
 11
132.535302
 21
-4.123031
 31
0.0
  0
LINE
  5
ED
330
504
100
AcDbEntity
  8
Level 1
  6
Continuous
 62
     7
370
    13
100
AcDbLine
 10
132.752115
 20
-3.979417
 30
0.0
 11
132.752115
 21
-3.910365
 31
0.0
  0
LINE
  5
EE
330
504
100
AcDbEntity
  8
Level 1
  6
Continuous
 62
     7
370
    13
100
AcDbLine
 10
132.926802
 20
-4.087823
 30
0.0
 11
132.926802
 21
-4.123031
 31
0.0
  0
LINE
  5
EF
330
504
100
AcDbEntity
  8
Level 1
  6
Continuous
 62
     7
370
    13
100
AcDbLine
 10
133.124271
 20
-3.977344
 30
0.0
 11
133.124271
 21
-3.913823
 31
0.0
  0
LINE
  5
F0
330
504
100
AcDbEntity
  8
Level 1
  6
Continuous
 62
     7
370
    13
100
AcDbLine
 10
133.298958
 20
-4.091958
 30
0.0
 11
133.298958
 21
-4.13476
 31
0.0
  0
LINE
  5
F1
330
504
100
AcDbEntity
  8
Level 1
  6
Continuous
 62
     7
370
    13
100
AcDbLine
 10
133.52475
 20
-3.98425
 30
0.0
 11
133.52475
 21
-3.917271
 31
0.0
  0
LINE
  5
F2
330
504
100
AcDbEntity
  8
Level 1
  6
Continuous
 62
     7
370
    13
100
AcDbLine
 10
133.699427
 20
-4.087125
 30
0.0
 11
133.699427
 21
-4.160312
 31
0.0
  0
LINE
  5
F3
330
504
100
AcDbEntity
  8
Level 1
  6
Continuous
 62
     7
370
    13
100
AcDbLine
 10
133.925906
 20
-3.98425
 30
0.0
 11
133.925906
 21
-3.913823
 31
0.0
  0
LINE
  5
F4
330
504
100
AcDbEntity
  8
Level 1
  6
Continuous
 62
     7
370
    13
100
AcDbLine
 10
134.100594
 20
-4.086427
 30
0.0
 11
134.100594
 21
-4.160312
 31
0.0
  0
LINE
  5
F5
330
504
100
AcDbEntity
  8
Level 1
  6
Continuous
 62
     7
370
    13
100
AcDbLine
 10
134.300135
 20
-3.984938
 30
0.0
 11
134.300135
 21
-3.91451
 31
0.0
  0
LINE
  5
F6
330
504
100
AcDbEntity
  8
Level 1
  6
Continuous
 62
     7
370
    13
100
AcDbLine
 10
134.474823
 20
-4.087823
 30
0.0
 11
134.474823
 21
-4.166531
 31
0.0
  0
LINE
  5
F7
330
504
100
AcDbEntity
  8
Level 1
  6
Continuous
 62
     7
370
    13
100
AcDbLine
 10
134.300135
 20
-5.120062
 30
0.0
 11
134.300135
 21
-5.06275
 31
0.0
  0
LINE
  5
F8
330
504
100
AcDbEntity
  8
Level 1
  6
Continuous
 62
     7
370
    13
100
AcDbLine
 10
134.474823
 20
-5.245031
 30
0.0
 11
134.474823
 21
-5.317531
 31
0.0
  0
LINE
  5
F9
330
504
100
AcDbEntity
  8
Level 1
  6
Continuous
 62
     7
370
    13
100
AcDbLine
 10
134.100594
 20
-5.242969
 30
0.0
 11
134.100594
 21
-5.280937
 31
0.0
  0
LINE
  5
FA
330
504
100
AcDbEntity
  8
Level 1
  6
Continuous
 62
     7
370
    13
100
AcDbLine
 10
133.925906
 20
-5.122135
 30
0.0
 11
133.925906
 21
-5.056531
 31
0.0
  0
LINE
  5
FB
330
504
100
AcDbEntity
  8
Level 1
  6
Continuous
 62
     7
370
    13
100
AcDbLine
 10
133.699427
 20
-5.241583
 30
0.0
 11
133.699427
 21
-5.280937
 31
0.0
  0
LINE
  5
FC
330
504
100
AcDbEntity
  8
Level 1
  6
Continuous
 62
     7
370
    13
100
AcDbLine
 10
133.52475
 20
-5.122135
 30
0.0
 11
133.52475
 21
-5.056531
 31
0.0
  0
LINE
  5
FD
330
504
100
AcDbEntity
  8
Level 1
  6
Continuous
 62
     7
370
    13
100
AcDbLine
 10
133.298958
 20
-5.246417
 30
0.0
 11
133.298958
 21
-5.280937
 31
0.0
  0
LINE
  5
FE
330
504
100
AcDbEntity
  8
Level 1
  6
Continuous
 62
     7
370
    13
100
AcDbLine
 10
133.124271
 20
-5.121437
 30
0.0
 11
133.124271
 21
-5.06275
 31
0.0
  0
LINE
  5
FF
330
504
100
AcDbEntity
  8
Level 1
  6
Continuous
 62
     7
370
    13
100
AcDbLine
 10
132.926802
 20
-5.246417
 30
0.0
 11
132.926802
 21
-5.285771
 31
0.0
  0
LINE
  5
100
330
504
100
AcDbEntity
  8
Level 1
  6
Continuous
 62
     7
370
    13
100
AcDbLine
 10
132.752115
 20
-5.12075
 30
0.0
 11
132.752115
 21
-5.057927
 31
0.0
  0
LINE
  5
101
330
504
100
AcDbEntity
  8
Level 1
  6
Continuous
 62
     7
370
    13
100
AcDbLine
 10
132.535302
 20
-5.245729
 30
0.0
 11
132.535302
 21
-5.287156
 31
0.0
  0
LINE
  5
102
330
504
100
AcDbEntity
  8
Level 1
  6
Continuous
 62
     7
370
    13
100
AcDbLine
 10
132.360625
 20
-5.121437
 30
0.0
 11
132.360625
 21
-5.06275
 31
0.0
  0
LINE
  5
103
330
504
100
AcDbEntity
  8
Level 1
  6
Continuous
 62
     7
370
    13
100
AcDbLine
 10
132.150719
 20
-5.245031
 30
0.0
 11
132.150719
 21
-5.28025
 31
0.0
  0
LINE
  5
104
330
504
100
AcDbEntity
  8
Level 1
  6
Continuous
 62
     7
370
    13
100
AcDbLine
 10
131.976031
 20
-5.12351
 30
0.0
 11
131.976031
 21
-5.057927
 31
0.0
  0
LINE
  5
105
330
504
100
AcDbEntity
  8
Level 1
  6
Continuous
 62
     7
370
    13
100
AcDbLine
 10
131.744031
 20
-5.245729
 30
0.0
 11
131.744031
 21
-5.28025
 31
0.0
  0
LINE
  5
106
330
504
100
AcDbEntity
  8
Level 1
  6
Continuous
 62
     7
370
    13
100
AcDbLine
 10
131.569354
 20
-5.117302
 30
0.0
 11
131.569354
 21
-5.06275
 31
0.0
  0
LINE
  5
107
330
504
100
AcDbEntity
  8
Level 1
  6
Continuous
 62
     7
370
    13
100
AcDbLine
 10
131.351167
 20
-5.242271
 30
0.0
 11
131.351167
 21
-5.269198
 31
0.0
  0
LINE
  5
108
330
504
100
AcDbEntity
  8
Level 1
  6
Continuous
 62
     7
370
    13
100
AcDbLine
 10
131.176469
 20
-5.117302
 30
0.0
 11
131.176469
 21
-5.057927
 31
0.0
  0
LWPOLYLINE
  5
109
330
504
100
AcDbEntity
  8
Level 1
  6
Continuous
 62
     7
370
    13
100
AcDbPolyline
 90
        3
 70
   128
 43
0.0
 10
131.125375
 20
-3.439469
 10
131.062552
 20
-3.569969
 10
131.062552
 20
-3.982865
  0
LINE
  5
10A
330
504
100
AcDbEntity
  8
Level 1
  6
Continuous
 62
     7
370
    13
100
AcDbLine
 10
131.062552
 20
-4.089885
 30
0.0
 11
131.062552
 21
-5.128344
 31
0.0
  0
LWPOLYLINE
  5
10B
330
504
100
AcDbEntity
  8
Level 1
  6
Continuous
 62
     7
370
    13
100
AcDbPolyline
 90
        4
 70
   128
 43
0.0
 10
130.933427
 20
-5.240896
 10
130.933427
 20
-5.576458
 10
130.791885
 20
-5.576458
 10
130.791885
 20
-5.240896
  0
LINE
  5
10C
330
504
100
AcDbEntity
  8
Level 1
  6
Continuous
 62
     7
370
    13
100
AcDbLine
 10
130.933427
 20
-4.086427
 30
0.0
 11
130.933427
 21
-5.122823
 31
0.0
  0
LINE
  5
10D
330
504
100
AcDbEntity
  8
Level 1
  6
Continuous
 62
     7
370
    13
100
AcDbLine
 10
130.791885
 20
-5.124198
 30
0.0
 11
130.791885
 21
-4.08575
 31
0.0
  0
LINE
  5
10E
330
504
100
AcDbEntity
  8
Level 1
  6
Continuous
 62
     7
370
    13
100
AcDbLine
 10
130.791885
 20
-3.982167
 30
0.0
 11
130.791885
 21
-3.612771
 31
0.0
  0
LINE
  5
10F
330
504
100
AcDbEntity
  8
Level 1
  6
Continuous
 62
     7
370
    13
100
AcDbLine
 10
131.124687
 20
-3.441542
 30
0.0
 11
131.124687
 21
-3.892417
 31
0.0
  0
LWPOLYLINE
  5
110
330
504
100
AcDbEntity
  8
Level 1
  6
Continuous
 62
     7
370
    13
100
AcDbPolyline
 90
        3
 70
   128
 43
0.0
 10
130.792573
 20
-3.612771
 10
130.933427
 20
-3.612771
 10
130.933427
 20
-3.980792
  0
LINE
  5
111
330
504
100
AcDbEntity
  8
Level 1
  6
Continuous
 62
     7
370
    13
100
AcDbLine
 10
131.276594
 20
-3.616229
 30
0.0
 11
131.351167
 21
-3.616229
 31
0.0
  0
LINE
  5
112
330
504
100
AcDbEntity
  8
Level 1
  6
Continuous
 62
     7
370
    13
100
AcDbLine
 10
131.675688
 20
-3.616229
 30
0.0
 11
131.744031
 21
-3.616229
 31
0.0
  0
LINE
  5
113
330
504
100
AcDbEntity
  8
Level 1
  6
Continuous
 62
     7
370
    13
100
AcDbLine
 10
131.176469
 20
-3.690792
 30
0.0
 11
131.176469
 21
-3.61899
 31
0.0
  0
LINE
  5
114
330
504
100
AcDbEntity
  8
Level 1
  6
Continuous
 62
     7
370
    13
100
AcDbLine
 10
131.176469
 20
-3.773656
 30
0.0
 11
131.176469
 21
-3.712198
 31
0.0
  0
LINE
  5
115
330
504
100
AcDbEntity
  8
Level 1
  6
Continuous
 62
     7
370
    13
100
AcDbLine
 10
131.176469
 20
-3.877906
 30
0.0
 11
131.176469
 21
-3.80749
 31
0.0
  0
LINE
  5
116
330
504
100
AcDbEntity
  8
Level 1
  6
Continuous
 62
     7
370
    13
100
AcDbLine
 10
131.351167
 20
-3.710823
 30
0.0
 11
131.351167
 21
-3.772969
 31
0.0
  0
LINE
  5
117
330
504
100
AcDbEntity
  8
Level 1
  6
Continuous
 62
     7
370
    13
100
AcDbLine
 10
131.351167
 20
-3.808177
 30
0.0
 11
131.351167
 21
-3.877229
 31
0.0
  0
LINE
  5
118
330
504
100
AcDbEntity
  8
Level 1
  6
Continuous
 62
     7
370
    13
100
AcDbLine
 10
131.351167
 20
-3.91175
 30
0.0
 11
131.351167
 21
-3.982865
 31
0.0
  0
LINE
  5
119
330
504
100
AcDbEntity
  8
Level 1
  6
Continuous
 62
     7
370
    13
100
AcDbLine
 10
131.569354
 20
-3.876531
 30
0.0
 11
131.569354
 21
-3.812323
 31
0.0
  0
LINE
  5
11A
330
504
100
AcDbEntity
  8
Level 1
  6
Continuous
 62
     7
370
    13
100
AcDbLine
 10
131.569354
 20
-3.775031
 30
0.0
 11
131.569354
 21
-3.712896
 31
0.0
  0
LINE
  5
11B
330
504
100
AcDbEntity
  8
Level 1
  6
Continuous
 62
     7
370
    13
100
AcDbLine
 10
131.569354
 20
-3.686656
 30
0.0
 11
131.569354
 21
-3.61899
 31
0.0
  0
LINE
  5
11C
330
504
100
AcDbEntity
  8
Level 1
  6
Continuous
 62
     7
370
    13
100
AcDbLine
 10
131.744031
 20
-3.712198
 30
0.0
 11
131.744031
 21
-3.772969
 31
0.0
  0
LINE
  5
11D
330
504
100
AcDbEntity
  8
Level 1
  6
Continuous
 62
     7
370
    13
100
AcDbLine
 10
131.744031
 20
-3.81025
 30
0.0
 11
131.744031
 21
-3.871
 31
0.0
  0
LINE
  5
11E
330
504
100
AcDbEntity
  8
Level 1
  6
Continuous
 62
     7
370
    13
100
AcDbLine
 10
131.744031
 20
-3.907604
 30
0.0
 11
131.744031
 21
-3.986323
 31
0.0
  0
LINE
  5
11F
330
504
100
AcDbEntity
  8
Level 1
  6
Continuous
 62
     7
370
    13
100
AcDbLine
 10
131.124687
 20
-4.176198
 30
0.0
 11
131.124687
 21
-5.027542
 31
0.0
  0
LINE
  5
120
330
504
100
AcDbEntity
  8
Level 1
  6
Continuous
 62
     7
370
    13
100
AcDbLine
 10
131.124687
 20
-5.334104
 30
0.0
 11
131.124687
 21
-5.742167
 31
0.0
  0
LINE
  5
121
330
504
100
AcDbEntity
  8
Level 1
  6
Continuous
 62
     7
370
    13
100
AcDbLine
 10
131.247594
 20
-5.577146
 30
0.0
 11
131.176469
 21
-5.577146
 31
0.0
  0
LINE
  5
122
330
504
100
AcDbEntity
  8
Level 1
  6
Continuous
 62
     7
370
    13
100
AcDbLine
 10
131.639083
 20
-5.577146
 30
0.0
 11
131.569354
 21
-5.577146
 31
0.0
  0
LINE
  5
123
330
504
100
AcDbEntity
  8
Level 1
  6
Continuous
 62
     7
370
    13
100
AcDbLine
 10
132.049219
 20
-5.577146
 30
0.0
 11
131.976031
 21
-5.577146
 31
0.0
  0
LINE
  5
124
330
504
100
AcDbEntity
  8
Level 1
  6
Continuous
 62
     7
370
    13
100
AcDbLine
 10
132.4345
 20
-5.577146
 30
0.0
 11
132.360625
 21
-5.577146
 31
0.0
  0
LINE
  5
125
330
504
100
AcDbEntity
  8
Level 1
  6
Continuous
 62
     7
370
    13
100
AcDbLine
 10
131.176469
 20
-5.48601
 30
0.0
 11
131.176469
 21
-5.404531
 31
0.0
  0
LINE
  5
126
330
504
100
AcDbEntity
  8
Level 1
  6
Continuous
 62
     7
370
    13
100
AcDbLine
 10
131.351167
 20
-5.514312
 30
0.0
 11
131.351167
 21
-5.577146
 31
0.0
  0
LINE
  5
127
330
504
100
AcDbEntity
  8
Level 1
  6
Continuous
 62
     7
370
    13
100
AcDbLine
 10
131.569354
 20
-5.482552
 30
0.0
 11
131.569354
 21
-5.419719
 31
0.0
  0
LINE
  5
128
330
504
100
AcDbEntity
  8
Level 1
  6
Continuous
 62
     7
370
    13
100
AcDbLine
 10
131.976031
 20
-5.479792
 30
0.0
 11
131.976031
 21
-5.410052
 31
0.0
  0
LINE
  5
129
330
504
100
AcDbEntity
  8
Level 1
  6
Continuous
 62
     7
370
    13
100
AcDbLine
 10
132.150719
 20
-5.521906
 30
0.0
 11
132.150719
 21
-5.577146
 31
0.0
  0
LINE
  5
12A
330
504
100
AcDbEntity
  8
Level 1
  6
Continuous
 62
     7
370
    13
100
AcDbLine
 10
132.360625
 20
-5.472885
 30
0.0
 11
132.360625
 21
-5.399
 31
0.0
  0
LINE
  5
12B
330
504
100
AcDbEntity
  8
Level 1
  6
Continuous
 62
     7
370
    13
100
AcDbLine
 10
131.176469
 20
-5.364479
 30
0.0
 11
131.176469
 21
-5.29751
 31
0.0
  0
LINE
  5
12C
330
504
100
AcDbEntity
  8
Level 1
  6
Continuous
 62
     7
370
    13
100
AcDbLine
 10
131.176469
 20
-5.260917
 30
0.0
 11
131.176469
 21
-5.242271
 31
0.0
  0
LINE
  5
12D
330
504
100
AcDbEntity
  8
Level 1
  6
Continuous
 62
     7
370
    13
100
AcDbLine
 10
131.351167
 20
-5.301646
 30
0.0
 11
131.351167
 21
-5.363792
 31
0.0
  0
LINE
  5
12E
330
504
100
AcDbEntity
  8
Level 1
  6
Continuous
 62
     7
370
    13
100
AcDbLine
 10
131.351167
 20
-5.397625
 30
0.0
 11
131.351167
 21
-5.483937
 31
0.0
  0
LINE
  5
12F
330
504
100
AcDbEntity
  8
Level 1
  6
Continuous
 62
     7
370
    13
100
AcDbLine
 10
131.569354
 20
-5.379677
 30
0.0
 11
131.569354
 21
-5.303031
 31
0.0
  0
LINE
  5
130
330
504
100
AcDbEntity
  8
Level 1
  6
Continuous
 62
     7
370
    13
100
AcDbLine
 10
131.569354
 20
-5.274729
 30
0.0
 11
131.569354
 21
-5.247802
 31
0.0
  0
LINE
  5
131
330
504
100
AcDbEntity
  8
Level 1
  6
Continuous
 62
     7
370
    13
100
AcDbLine
 10
131.744031
 20
-5.307875
 30
0.0
 11
131.744031
 21
-5.370698
 31
0.0
  0
LINE
  5
132
330
504
100
AcDbEntity
  8
Level 1
  6
Continuous
 62
     7
370
    13
100
AcDbLine
 10
131.744031
 20
-5.412813
 30
0.0
 11
131.744031
 21
-5.468052
 31
0.0
  0
LINE
  5
133
330
504
100
AcDbEntity
  8
Level 1
  6
Continuous
 62
     7
370
    13
100
AcDbLine
 10
131.744031
 20
-5.507406
 30
0.0
 11
131.744031
 21
-5.577146
 31
0.0
  0
LINE
  5
134
330
504
100
AcDbEntity
  8
Level 1
  6
Continuous
 62
     7
370
    13
100
AcDbLine
 10
131.976031
 20
-5.374844
 30
0.0
 11
131.976031
 21
-5.308552
 31
0.0
  0
LINE
  5
135
330
504
100
AcDbEntity
  8
Level 1
  6
Continuous
 62
     7
370
    13
100
AcDbLine
 10
131.976031
 20
-5.280937
 30
0.0
 11
131.976031
 21
-5.245031
 31
0.0
  0
LINE
  5
136
330
504
100
AcDbEntity
  8
Level 1
  6
Continuous
 62
     7
370
    13
100
AcDbLine
 10
132.150719
 20
-5.307875
 30
0.0
 11
132.150719
 21
-5.378292
 31
0.0
  0
LINE
  5
137
330
504
100
AcDbEntity
  8
Level 1
  6
Continuous
 62
     7
370
    13
100
AcDbLine
 10
132.150719
 20
-5.412135
 30
0.0
 11
132.150719
 21
-5.477719
 31
0.0
  0
LINE
  5
138
330
504
100
AcDbEntity
  8
Level 1
  6
Continuous
 62
     7
370
    13
100
AcDbLine
 10
132.360625
 20
-5.371385
 30
0.0
 11
132.360625
 21
-5.303719
 31
0.0
  0
LINE
  5
139
330
504
100
AcDbEntity
  8
Level 1
  6
Continuous
 62
     7
370
    13
100
AcDbLine
 10
132.360625
 20
-5.279562
 30
0.0
 11
132.360625
 21
-5.246417
 31
0.0
  0
LINE
  5
13A
330
504
100
AcDbEntity
  8
Level 1
  6
Continuous
 62
     7
370
    13
100
AcDbLine
 10
132.535302
 20
-5.314083
 30
0.0
 11
132.535302
 21
-5.365177
 31
0.0
  0
LINE
  5
13B
330
504
100
AcDbEntity
  8
Level 1
  6
Continuous
 62
     7
370
    13
100
AcDbLine
 10
132.535302
 20
-5.397625
 30
0.0
 11
132.535302
 21
-5.474958
 31
0.0
  0
LINE
  5
13C
330
504
100
AcDbEntity
  8
Level 1
  6
Continuous
 62
     7
370
    13
100
AcDbLine
 10
132.535302
 20
-5.513625
 30
0.0
 11
132.535302
 21
-5.577146
 31
0.0
  0
LINE
  5
13D
330
504
100
AcDbEntity
  8
Level 1
  6
Continuous
 62
     7
370
    13
100
AcDbLine
 10
132.827375
 20
-5.577146
 30
0.0
 11
132.752115
 21
-5.577146
 31
0.0
  0
LINE
  5
13E
330
504
100
AcDbEntity
  8
Level 1
  6
Continuous
 62
     7
370
    13
100
AcDbLine
 10
133.191948
 20
-5.577146
 30
0.0
 11
133.124271
 21
-5.577146
 31
0.0
  0
LINE
  5
13F
330
504
100
AcDbEntity
  8
Level 1
  6
Continuous
 62
     7
370
    13
100
AcDbLine
 10
133.595167
 20
-5.577146
 30
0.0
 11
133.52475
 21
-5.577146
 31
0.0
  0
LINE
  5
140
330
504
100
AcDbEntity
  8
Level 1
  6
Continuous
 62
     7
370
    13
100
AcDbLine
 10
133.999094
 20
-5.577146
 30
0.0
 11
133.925906
 21
-5.577146
 31
0.0
  0
LINE
  5
141
330
504
100
AcDbEntity
  8
Level 1
  6
Continuous
 62
     7
370
    13
100
AcDbLine
 10
132.752115
 20
-5.475646
 30
0.0
 11
132.752115
 21
-5.39349
 31
0.0
  0
LINE
  5
142
330
504
100
AcDbEntity
  8
Level 1
  6
Continuous
 62
     7
370
    13
100
AcDbLine
 10
132.752115
 20
-5.367938
 30
0.0
 11
132.752115
 21
-5.307177
 31
0.0
  0
LINE
  5
143
330
504
100
AcDbEntity
  8
Level 1
  6
Continuous
 62
     7
370
    13
100
AcDbLine
 10
132.752115
 20
-5.285771
 30
0.0
 11
132.752115
 21
-5.240896
 31
0.0
  0
LINE
  5
144
330
504
100
AcDbEntity
  8
Level 1
  6
Continuous
 62
     7
370
    13
100
AcDbLine
 10
132.926802
 20
-5.316156
 30
0.0
 11
132.926802
 21
-5.363104
 31
0.0
  0
LINE
  5
145
330
504
100
AcDbEntity
  8
Level 1
  6
Continuous
 62
     7
370
    13
100
AcDbLine
 10
132.926802
 20
-5.402458
 30
0.0
 11
132.926802
 21
-5.47151
 31
0.0
  0
LINE
  5
146
330
504
100
AcDbEntity
  8
Level 1
  6
Continuous
 62
     7
370
    13
100
AcDbLine
 10
132.926802
 20
-5.519146
 30
0.0
 11
132.926802
 21
-5.577146
 31
0.0
  0
LINE
  5
147
330
504
100
AcDbEntity
  8
Level 1
  6
Continuous
 62
     7
370
    13
100
AcDbLine
 10
133.124271
 20
-5.484625
 30
0.0
 11
133.124271
 21
-5.402458
 31
0.0
  0
LINE
  5
148
330
504
100
AcDbEntity
  8
Level 1
  6
Continuous
 62
     7
370
    13
100
AcDbLine
 10
133.124271
 20
-5.372083
 30
0.0
 11
133.124271
 21
-5.303031
 31
0.0
  0
LINE
  5
149
330
504
100
AcDbEntity
  8
Level 1
  6
Continuous
 62
     7
370
    13
100
AcDbLine
 10
133.124271
 20
-5.280937
 30
0.0
 11
133.124271
 21
-5.246417
 31
0.0
  0
LINE
  5
14A
330
504
100
AcDbEntity
  8
Level 1
  6
Continuous
 62
     7
370
    13
100
AcDbLine
 10
133.298958
 20
-5.311312
 30
0.0
 11
133.298958
 21
-5.376219
 31
0.0
  0
LINE
  5
14B
330
504
100
AcDbEntity
  8
Level 1
  6
Continuous
 62
     7
370
    13
100
AcDbLine
 10
133.298958
 20
-5.398323
 30
0.0
 11
133.298958
 21
-5.475646
 31
0.0
  0
LINE
  5
14C
330
504
100
AcDbEntity
  8
Level 1
  6
Continuous
 62
     7
370
    13
100
AcDbLine
 10
133.298958
 20
-5.510167
 30
0.0
 11
133.298958
 21
-5.577146
 31
0.0
  0
LINE
  5
14D
330
504
100
AcDbEntity
  8
Level 1
  6
Continuous
 62
     7
370
    13
100
AcDbLine
 10
133.52475
 20
-5.280937
 30
0.0
 11
133.52475
 21
-5.244344
 31
0.0
  0
LINE
  5
14E
330
504
100
AcDbEntity
  8
Level 1
  6
Continuous
 62
     7
370
    13
100
AcDbLine
 10
133.52475
 20
-5.376219
 30
0.0
 11
133.52475
 21
-5.316156
 31
0.0
  0
LINE
  5
14F
330
504
100
AcDbEntity
  8
Level 1
  6
Continuous
 62
     7
370
    13
100
AcDbLine
 10
133.52475
 20
-5.484625
 30
0.0
 11
133.52475
 21
-5.402458
 31
0.0
  0
LINE
  5
150
330
504
100
AcDbEntity
  8
Level 1
  6
Continuous
 62
     7
370
    13
100
AcDbLine
 10
133.699427
 20
-5.527437
 30
0.0
 11
133.699427
 21
-5.577146
 31
0.0
  0
LINE
  5
151
330
504
100
AcDbEntity
  8
Level 1
  6
Continuous
 62
     7
370
    13
100
AcDbLine
 10
133.699427
 20
-5.402458
 30
0.0
 11
133.699427
 21
-5.488771
 31
0.0
  0
LINE
  5
152
330
504
100
AcDbEntity
  8
Level 1
  6
Continuous
 62
     7
370
    13
100
AcDbLine
 10
133.699427
 20
-5.316156
 30
0.0
 11
133.699427
 21
-5.376219
 31
0.0
  0
LINE
  5
153
330
504
100
AcDbEntity
  8
Level 1
  6
Continuous
 62
     7
370
    13
100
AcDbLine
 10
133.925906
 20
-5.280937
 30
0.0
 11
133.925906
 21
-5.244344
 31
0.0
  0
LINE
  5
154
330
504
100
AcDbEntity
  8
Level 1
  6
Continuous
 62
     7
370
    13
100
AcDbLine
 10
133.925906
 20
-5.376219
 30
0.0
 11
133.925906
 21
-5.316156
 31
0.0
  0
LINE
  5
155
330
504
100
AcDbEntity
  8
Level 1
  6
Continuous
 62
     7
370
    13
100
AcDbLine
 10
133.925906
 20
-5.488771
 30
0.0
 11
133.925906
 21
-5.402458
 31
0.0
  0
LINE
  5
156
330
504
100
AcDbEntity
  8
Level 1
  6
Continuous
 62
     7
370
    13
100
AcDbLine
 10
134.100594
 20
-5.316156
 30
0.0
 11
134.100594
 21
-5.376219
 31
0.0
  0
LINE
  5
157
330
504
100
AcDbEntity
  8
Level 1
  6
Continuous
 62
     7
370
    13
100
AcDbLine
 10
134.100594
 20
-5.402458
 30
0.0
 11
134.100594
 21
-5.488771
 31
0.0
  0
LINE
  5
158
330
504
100
AcDbEntity
  8
Level 1
  6
Continuous
 62
     7
370
    13
100
AcDbLine
 10
134.100594
 20
-5.532271
 30
0.0
 11
134.100594
 21
-5.577146
 31
0.0
  0
LINE
  5
159
330
504
100
AcDbEntity
  8
Level 1
  6
Continuous
 62
     7
370
    13
100
AcDbLine
 10
134.37125
 20
-5.577146
 30
0.0
 11
134.300135
 21
-5.577146
 31
0.0
  0
LINE
  5
15A
330
504
100
AcDbEntity
  8
Level 1
  6
Continuous
 62
     7
370
    13
100
AcDbLine
 10
134.748937
 20
-5.577146
 30
0.0
 11
134.682656
 21
-5.577146
 31
0.0
  0
LINE
  5
15B
330
504
100
AcDbEntity
  8
Level 1
  6
Continuous
 62
     7
370
    13
100
AcDbLine
 10
135.136292
 20
-5.577146
 30
0.0
 11
135.066552
 21
-5.577146
 31
0.0
  0
LINE
  5
15C
330
504
100
AcDbEntity
  8
Level 1
  6
Continuous
 62
     7
370
    13
100
AcDbLine
 10
134.300135
 20
-5.499823
 30
0.0
 11
134.300135
 21
-5.421792
 31
0.0
  0
LINE
  5
15D
330
504
100
AcDbEntity
  8
Level 1
  6
Continuous
 62
     7
370
    13
100
AcDbLine
 10
134.300135
 20
-5.391417
 30
0.0
 11
134.300135
 21
-5.348604
 31
0.0
  0
LINE
  5
15E
330
504
100
AcDbEntity
  8
Level 1
  6
Continuous
 62
     7
370
    13
100
AcDbLine
 10
134.300135
 20
-5.32099
 30
0.0
 11
134.300135
 21
-5.257458
 31
0.0
  0
LINE
  5
15F
330
504
100
AcDbEntity
  8
Level 1
  6
Continuous
 62
     7
370
    13
100
AcDbLine
 10
134.474823
 20
-5.356198
 30
0.0
 11
134.474823
 21
-5.421792
 31
0.0
  0
LINE
  5
160
330
504
100
AcDbEntity
  8
Level 1
  6
Continuous
 62
     7
370
    13
100
AcDbLine
 10
134.474823
 20
-5.452865
 30
0.0
 11
134.474823
 21
-5.515
 31
0.0
  0
LINE
  5
161
330
504
100
AcDbEntity
  8
Level 1
  6
Continuous
 62
     7
370
    13
100
AcDbLine
 10
134.474823
 20
-5.538479
 30
0.0
 11
134.474823
 21
-5.577146
 31
0.0
  0
LINE
  5
162
330
504
100
AcDbEntity
  8
Level 1
  6
Continuous
 62
     7
370
    13
100
AcDbLine
 10
134.682656
 20
-5.499823
 30
0.0
 11
134.682656
 21
-5.41074
 31
0.0
  0
LINE
  5
163
330
504
100
AcDbEntity
  8
Level 1
  6
Continuous
 62
     7
370
    13
100
AcDbLine
 10
134.682656
 20
-5.375531
 30
0.0
 11
134.682656
 21
-5.313385
 31
0.0
  0
LINE
  5
164
330
504
100
AcDbEntity
  8
Level 1
  6
Continuous
 62
     7
370
    13
100
AcDbLine
 10
134.682656
 20
-5.286458
 30
0.0
 11
134.682656
 21
-5.243646
 31
0.0
  0
LINE
  5
165
330
504
100
AcDbEntity
  8
Level 1
  6
Continuous
 62
     7
370
    13
100
AcDbLine
 10
134.857344
 20
-5.530885
 30
0.0
 11
134.857344
 21
-5.577146
 31
0.0
  0
LINE
  5
166
330
504
100
AcDbEntity
  8
Level 1
  6
Continuous
 62
     7
370
    13
100
AcDbLine
 10
134.857344
 20
-5.414198
 30
0.0
 11
134.857344
 21
-5.50326
 31
0.0
  0
LINE
  5
167
330
504
100
AcDbEntity
  8
Level 1
  6
Continuous
 62
     7
370
    13
100
AcDbLine
 10
134.857344
 20
-5.313385
 30
0.0
 11
134.857344
 21
-5.379677
 31
0.0
  0
LINE
  5
168
330
504
100
AcDbEntity
  8
Level 1
  6
Continuous
 62
     7
370
    13
100
AcDbLine
 10
135.066552
 20
-5.286458
 30
0.0
 11
135.066552
 21
-5.243646
 31
0.0
  0
LINE
  5
169
330
504
100
AcDbEntity
  8
Level 1
  6
Continuous
 62
     7
370
    13
100
AcDbLine
 10
135.066552
 20
-5.383125
 30
0.0
 11
135.066552
 21
-5.313385
 31
0.0
  0
LINE
  5
16A
330
504
100
AcDbEntity
  8
Level 1
  6
Continuous
 62
     7
370
    13
100
AcDbLine
 10
135.066552
 20
-5.50326
 30
0.0
 11
135.066552
 21
-5.418344
 31
0.0
  0
LINE
  5
16B
330
504
100
AcDbEntity
  8
Level 1
  6
Continuous
 62
     7
370
    13
100
AcDbLine
 10
135.24124
 20
-5.538479
 30
0.0
 11
135.24124
 21
-5.577146
 31
0.0
  0
LINE
  5
16C
330
504
100
AcDbEntity
  8
Level 1
  6
Continuous
 62
     7
370
    13
100
AcDbLine
 10
135.24124
 20
-5.421792
 30
0.0
 11
135.24124
 21
-5.50326
 31
0.0
  0
LINE
  5
16D
330
504
100
AcDbEntity
  8
Level 1
  6
Continuous
 62
     7
370
    13
100
AcDbLine
 10
135.24124
 20
-5.317531
 30
0.0
 11
135.24124
 21
-5.383125
 31
0.0
  0
LINE
  5
16E
330
504
100
AcDbEntity
  8
Level 1
  6
Continuous
 62
     7
370
    13
100
AcDbLine
 10
131.176469
 20
-5.019938
 30
0.0
 11
131.176469
 21
-4.926042
 31
0.0
  0
LINE
  5
16F
330
504
100
AcDbEntity
  8
Level 1
  6
Continuous
 62
     7
370
    13
100
AcDbLine
 10
131.176469
 20
-4.883927
 30
0.0
 11
131.176469
 21
-4.780354
 31
0.0
  0
LINE
  5
170
330
504
100
AcDbEntity
  8
Level 1
  6
Continuous
 62
     7
370
    13
100
AcDbLine
 10
131.176469
 20
-4.743073
 30
0.0
 11
131.176469
 21
-4.649156
 31
0.0
  0
LINE
  5
171
330
504
100
AcDbEntity
  8
Level 1
  6
Continuous
 62
     7
370
    13
100
AcDbLine
 10
131.176469
 20
-4.616021
 30
0.0
 11
131.176469
 21
-4.513146
 31
0.0
  0
LINE
  5
172
330
504
100
AcDbEntity
  8
Level 1
  6
Continuous
 62
     7
370
    13
100
AcDbLine
 10
131.176469
 20
-4.48
 30
0.0
 11
131.176469
 21
-4.376427
 31
0.0
  0
LINE
  5
173
330
504
100
AcDbEntity
  8
Level 1
  6
Continuous
 62
     7
370
    13
100
AcDbLine
 10
131.176469
 20
-4.348813
 30
0.0
 11
131.176469
 21
-4.250083
 31
0.0
  0
LINE
  5
174
330
504
100
AcDbEntity
  8
Level 1
  6
Continuous
 62
     7
370
    13
100
AcDbLine
 10
131.176469
 20
-4.216938
 30
0.0
 11
131.176469
 21
-4.156167
 31
0.0
  0
LINE
  5
175
330
504
100
AcDbEntity
  8
Level 1
  6
Continuous
 62
     7
370
    13
100
AcDbLine
 10
131.351167
 20
-4.254906
 30
0.0
 11
131.351167
 21
-4.352948
 31
0.0
  0
LINE
  5
176
330
504
100
AcDbEntity
  8
Level 1
  6
Continuous
 62
     7
370
    13
100
AcDbLine
 10
131.351167
 20
-4.38126
 30
0.0
 11
131.351167
 21
-4.484833
 31
0.0
  0
LINE
  5
177
330
504
100
AcDbEntity
  8
Level 1
  6
Continuous
 62
     7
370
    13
100
AcDbLine
 10
131.351167
 20
-4.517281
 30
0.0
 11
131.351167
 21
-4.620854
 31
0.0
  0
LINE
  5
178
330
504
100
AcDbEntity
  8
Level 1
  6
Continuous
 62
     7
370
    13
100
AcDbLine
 10
131.351167
 20
-4.654
 30
0.0
 11
131.351167
 21
-4.747906
 31
0.0
  0
LINE
  5
179
330
504
100
AcDbEntity
  8
Level 1
  6
Continuous
 62
     7
370
    13
100
AcDbLine
 10
131.351167
 20
-4.785188
 30
0.0
 11
131.351167
 21
-4.88876
 31
0.0
  0
LINE
  5
17A
330
504
100
AcDbEntity
  8
Level 1
  6
Continuous
 62
     7
370
    13
100
AcDbLine
 10
131.351167
 20
-4.926042
 30
0.0
 11
131.351167
 21
-5.024781
 31
0.0
  0
LINE
  5
17B
330
504
100
AcDbEntity
  8
Level 1
  6
Continuous
 62
     7
370
    13
100
AcDbLine
 10
131.351167
 20
-5.057927
 30
0.0
 11
131.351167
 21
-5.11799
 31
0.0
  0
LINE
  5
17C
330
504
100
AcDbEntity
  8
Level 1
  6
Continuous
 62
     7
370
    13
100
AcDbLine
 10
131.569354
 20
-4.221771
 30
0.0
 11
131.569354
 21
-4.151333
 31
0.0
  0
LINE
  5
17D
330
504
100
AcDbEntity
  8
Level 1
  6
Continuous
 62
     7
370
    13
100
AcDbLine
 10
131.569354
 20
-4.357781
 30
0.0
 11
131.569354
 21
-4.259052
 31
0.0
  0
LINE
  5
17E
330
504
100
AcDbEntity
  8
Level 1
  6
Continuous
 62
     7
370
    13
100
AcDbLine
 10
131.569354
 20
-4.489667
 30
0.0
 11
131.569354
 21
-4.386094
 31
0.0
  0
LINE
  5
17F
330
504
100
AcDbEntity
  8
Level 1
  6
Continuous
 62
     7
370
    13
100
AcDbLine
 10
131.569354
 20
-4.625687
 30
0.0
 11
131.569354
 21
-4.522115
 31
0.0
  0
LINE
  5
180
330
504
100
AcDbEntity
  8
Level 1
  6
Continuous
 62
     7
370
    13
100
AcDbLine
 10
131.569354
 20
-4.752729
 30
0.0
 11
131.569354
 21
-4.654
 31
0.0
  0
LINE
  5
181
330
504
100
AcDbEntity
  8
Level 1
  6
Continuous
 62
     7
370
    13
100
AcDbLine
 10
131.569354
 20
-4.898427
 30
0.0
 11
131.569354
 21
-4.794844
 31
0.0
  0
LINE
  5
182
330
504
100
AcDbEntity
  8
Level 1
  6
Continuous
 62
     7
370
    13
100
AcDbLine
 10
131.569354
 20
-5.024781
 30
0.0
 11
131.569354
 21
-4.930875
 31
0.0
  0
LINE
  5
183
330
504
100
AcDbEntity
  8
Level 1
  6
Continuous
 62
     7
370
    13
100
AcDbLine
 10
131.744031
 20
-4.259052
 30
0.0
 11
131.744031
 21
-4.357781
 31
0.0
  0
LINE
  5
184
330
504
100
AcDbEntity
  8
Level 1
  6
Continuous
 62
     7
370
    13
100
AcDbLine
 10
131.744031
 20
-4.390927
 30
0.0
 11
131.744031
 21
-4.493802
 31
0.0
  0
LINE
  5
185
330
504
100
AcDbEntity
  8
Level 1
  6
Continuous
 62
     7
370
    13
100
AcDbLine
 10
131.744031
 20
-4.522115
 30
0.0
 11
131.744031
 21
-4.625687
 31
0.0
  0
LINE
  5
186
330
504
100
AcDbEntity
  8
Level 1
  6
Continuous
 62
     7
370
    13
100
AcDbLine
 10
131.744031
 20
-4.658833
 30
0.0
 11
131.744031
 21
-4.756875
 31
0.0
  0
LINE
  5
187
330
504
100
AcDbEntity
  8
Level 1
  6
Continuous
 62
     7
370
    13
100
AcDbLine
 10
131.744031
 20
-4.794844
 30
0.0
 11
131.744031
 21
-4.898427
 31
0.0
  0
LINE
  5
188
330
504
100
AcDbEntity
  8
Level 1
  6
Continuous
 62
     7
370
    13
100
AcDbLine
 10
131.744031
 20
-4.930875
 30
0.0
 11
131.744031
 21
-5.024781
 31
0.0
  0
LINE
  5
189
330
504
100
AcDbEntity
  8
Level 1
  6
Continuous
 62
     7
370
    13
100
AcDbLine
 10
131.744031
 20
-5.06275
 30
0.0
 11
131.744031
 21
-5.115229
 31
0.0
  0
LINE
  5
18A
330
504
100
AcDbEntity
  8
Level 1
  6
Continuous
 62
     7
370
    13
100
AcDbLine
 10
131.744031
 20
-4.1465
 30
0.0
 11
131.744031
 21
-4.226604
 31
0.0
  0
LINE
  5
18B
330
504
100
AcDbEntity
  8
Level 1
  6
Continuous
 62
     7
370
    13
100
AcDbLine
 10
131.569354
 20
-4.123031
 30
0.0
 11
131.569354
 21
-4.0885
 31
0.0
  0
LINE
  5
18C
330
504
100
AcDbEntity
  8
Level 1
  6
Continuous
 62
     7
370
    13
100
AcDbLine
 10
131.351167
 20
-4.151333
 30
0.0
 11
131.351167
 21
-4.221771
 31
0.0
  0
LINE
  5
18D
330
504
100
AcDbEntity
  8
Level 1
  6
Continuous
 62
     7
370
    13
100
AcDbLine
 10
131.176469
 20
-4.123031
 30
0.0
 11
131.176469
 21
-4.09126
 31
0.0
  0
LINE
  5
18E
330
504
100
AcDbEntity
  8
Level 1
  6
Continuous
 62
     7
370
    13
100
AcDbLine
 10
131.976031
 20
-4.123031
 30
0.0
 11
131.976031
 21
-4.090583
 31
0.0
  0
LINE
  5
18F
330
504
100
AcDbEntity
  8
Level 1
  6
Continuous
 62
     7
370
    13
100
AcDbLine
 10
132.150719
 20
-4.156167
 30
0.0
 11
132.150719
 21
-4.226604
 31
0.0
  0
LINE
  5
190
330
504
100
AcDbEntity
  8
Level 1
  6
Continuous
 62
     7
370
    13
100
AcDbLine
 10
132.360625
 20
-4.123031
 30
0.0
 11
132.360625
 21
-4.087125
 31
0.0
  0
LINE
  5
191
330
504
100
AcDbEntity
  8
Level 1
  6
Continuous
 62
     7
370
    13
100
AcDbLine
 10
132.535302
 20
-4.156167
 30
0.0
 11
132.535302
 21
-4.226604
 31
0.0
  0
LINE
  5
192
330
504
100
AcDbEntity
  8
Level 1
  6
Continuous
 62
     7
370
    13
100
AcDbLine
 10
132.752115
 20
-4.127865
 30
0.0
 11
132.752115
 21
-4.0885
 31
0.0
  0
LINE
  5
193
330
504
100
AcDbEntity
  8
Level 1
  6
Continuous
 62
     7
370
    13
100
AcDbLine
 10
132.926802
 20
-4.156167
 30
0.0
 11
132.926802
 21
-4.226604
 31
0.0
  0
LINE
  5
194
330
504
100
AcDbEntity
  8
Level 1
  6
Continuous
 62
     7
370
    13
100
AcDbLine
 10
131.976031
 20
-4.226604
 30
0.0
 11
131.976031
 21
-4.151333
 31
0.0
  0
LINE
  5
195
330
504
100
AcDbEntity
  8
Level 1
  6
Continuous
 62
     7
370
    13
100
AcDbLine
 10
132.150719
 20
-4.259052
 30
0.0
 11
132.150719
 21
-4.357781
 31
0.0
  0
LINE
  5
196
330
504
100
AcDbEntity
  8
Level 1
  6
Continuous
 62
     7
370
    13
100
AcDbLine
 10
132.360625
 20
-4.226604
 30
0.0
 11
132.360625
 21
-4.156167
 31
0.0
  0
LINE
  5
197
330
504
100
AcDbEntity
  8
Level 1
  6
Continuous
 62
     7
370
    13
100
AcDbLine
 10
132.535302
 20
-4.259052
 30
0.0
 11
132.535302
 21
-4.357781
 31
0.0
  0
LINE
  5
198
330
504
100
AcDbEntity
  8
Level 1
  6
Continuous
 62
     7
370
    13
100
AcDbLine
 10
132.752115
 20
-4.226604
 30
0.0
 11
132.752115
 21
-4.156167
 31
0.0
  0
LINE
  5
199
330
504
100
AcDbEntity
  8
Level 1
  6
Continuous
 62
     7
370
    13
100
AcDbLine
 10
132.926802
 20
-4.259052
 30
0.0
 11
132.926802
 21
-4.357781
 31
0.0
  0
LINE
  5
19A
330
504
100
AcDbEntity
  8
Level 1
  6
Continuous
 62
     7
370
    13
100
AcDbLine
 10
131.976031
 20
-4.357781
 30
0.0
 11
131.976031
 21
-4.259052
 31
0.0
  0
LINE
  5
19B
330
504
100
AcDbEntity
  8
Level 1
  6
Continuous
 62
     7
370
    13
100
AcDbLine
 10
132.150719
 20
-4.390927
 30
0.0
 11
132.150719
 21
-4.493802
 31
0.0
  0
LINE
  5
19C
330
504
100
AcDbEntity
  8
Level 1
  6
Continuous
 62
     7
370
    13
100
AcDbLine
 10
132.360625
 20
-4.357781
 30
0.0
 11
132.360625
 21
-4.259052
 31
0.0
  0
LINE
  5
19D
330
504
100
AcDbEntity
  8
Level 1
  6
Continuous
 62
     7
370
    13
100
AcDbLine
 10
132.535302
 20
-4.395771
 30
0.0
 11
132.535302
 21
-4.493802
 31
0.0
  0
LINE
  5
19E
330
504
100
AcDbEntity
  8
Level 1
  6
Continuous
 62
     7
370
    13
100
AcDbLine
 10
132.752115
 20
-4.357781
 30
0.0
 11
132.752115
 21
-4.259052
 31
0.0
  0
LINE
  5
19F
330
504
100
AcDbEntity
  8
Level 1
  6
Continuous
 62
     7
370
    13
100
AcDbLine
 10
132.926802
 20
-4.390927
 30
0.0
 11
132.926802
 21
-4.493802
 31
0.0
  0
LINE
  5
1A0
330
504
100
AcDbEntity
  8
Level 1
  6
Continuous
 62
     7
370
    13
100
AcDbLine
 10
131.976031
 20
-4.493802
 30
0.0
 11
131.976031
 21
-4.386094
 31
0.0
  0
LINE
  5
1A1
330
504
100
AcDbEntity
  8
Level 1
  6
Continuous
 62
     7
370
    13
100
AcDbLine
 10
132.150719
 20
-4.522115
 30
0.0
 11
132.150719
 21
-4.634667
 31
0.0
  0
LINE
  5
1A2
330
504
100
AcDbEntity
  8
Level 1
  6
Continuous
 62
     7
370
    13
100
AcDbLine
 10
132.360625
 20
-4.493802
 30
0.0
 11
132.360625
 21
-4.390927
 31
0.0
  0
LINE
  5
1A3
330
504
100
AcDbEntity
  8
Level 1
  6
Continuous
 62
     7
370
    13
100
AcDbLine
 10
132.535302
 20
-4.526948
 30
0.0
 11
132.535302
 21
-4.634667
 31
0.0
  0
LINE
  5
1A4
330
504
100
AcDbEntity
  8
Level 1
  6
Continuous
 62
     7
370
    13
100
AcDbLine
 10
132.752115
 20
-4.493802
 30
0.0
 11
132.752115
 21
-4.390927
 31
0.0
  0
LINE
  5
1A5
330
504
100
AcDbEntity
  8
Level 1
  6
Continuous
 62
     7
370
    13
100
AcDbLine
 10
132.926802
 20
-4.526948
 30
0.0
 11
132.926802
 21
-4.634667
 31
0.0
  0
LINE
  5
1A6
330
504
100
AcDbEntity
  8
Level 1
  6
Continuous
 62
     7
370
    13
100
AcDbLine
 10
131.976031
 20
-4.630521
 30
0.0
 11
131.976031
 21
-4.526948
 31
0.0
  0
LINE
  5
1A7
330
504
100
AcDbEntity
  8
Level 1
  6
Continuous
 62
     7
370
    13
100
AcDbLine
 10
132.150719
 20
-4.658833
 30
0.0
 11
132.150719
 21
-4.761708
 31
0.0
  0
LINE
  5
1A8
330
504
100
AcDbEntity
  8
Level 1
  6
Continuous
 62
     7
370
    13
100
AcDbLine
 10
132.360625
 20
-4.634667
 30
0.0
 11
132.360625
 21
-4.522115
 31
0.0
  0
LINE
  5
1A9
330
504
100
AcDbEntity
  8
Level 1
  6
Continuous
 62
     7
370
    13
100
AcDbLine
 10
132.535302
 20
-4.667802
 30
0.0
 11
132.535302
 21
-4.761708
 31
0.0
  0
LINE
  5
1AA
330
504
100
AcDbEntity
  8
Level 1
  6
Continuous
 62
     7
370
    13
100
AcDbLine
 10
132.752115
 20
-4.634667
 30
0.0
 11
132.752115
 21
-4.526948
 31
0.0
  0
LINE
  5
1AB
330
504
100
AcDbEntity
  8
Level 1
  6
Continuous
 62
     7
370
    13
100
AcDbLine
 10
132.926802
 20
-4.667802
 30
0.0
 11
132.926802
 21
-4.761708
 31
0.0
  0
LINE
  5
1AC
330
504
100
AcDbEntity
  8
Level 1
  6
Continuous
 62
     7
370
    13
100
AcDbLine
 10
131.976031
 20
-4.761708
 30
0.0
 11
131.976031
 21
-4.658833
 31
0.0
  0
LINE
  5
1AD
330
504
100
AcDbEntity
  8
Level 1
  6
Continuous
 62
     7
370
    13
100
AcDbLine
 10
132.150719
 20
-4.799677
 30
0.0
 11
132.150719
 21
-4.898427
 31
0.0
  0
LINE
  5
1AE
330
504
100
AcDbEntity
  8
Level 1
  6
Continuous
 62
     7
370
    13
100
AcDbLine
 10
132.360625
 20
-4.761708
 30
0.0
 11
132.360625
 21
-4.667802
 31
0.0
  0
LINE
  5
1AF
330
504
100
AcDbEntity
  8
Level 1
  6
Continuous
 62
     7
370
    13
100
AcDbLine
 10
132.535302
 20
-4.799677
 30
0.0
 11
132.535302
 21
-4.898427
 31
0.0
  0
LINE
  5
1B0
330
504
100
AcDbEntity
  8
Level 1
  6
Continuous
 62
     7
370
    13
100
AcDbLine
 10
132.752115
 20
-4.761708
 30
0.0
 11
132.752115
 21
-4.667802
 31
0.0
  0
LINE
  5
1B1
330
504
100
AcDbEntity
  8
Level 1
  6
Continuous
 62
     7
370
    13
100
AcDbLine
 10
132.926802
 20
-4.803823
 30
0.0
 11
132.926802
 21
-4.898427
 31
0.0
  0
LINE
  5
1B2
330
504
100
AcDbEntity
  8
Level 1
  6
Continuous
 62
     7
370
    13
100
AcDbLine
 10
131.976031
 20
-4.898427
 30
0.0
 11
131.976031
 21
-4.799677
 31
0.0
  0
LINE
  5
1B3
330
504
100
AcDbEntity
  8
Level 1
  6
Continuous
 62
     7
370
    13
100
AcDbLine
 10
132.150719
 20
-4.930875
 30
0.0
 11
132.150719
 21
-5.019938
 31
0.0
  0
LINE
  5
1B4
330
504
100
AcDbEntity
  8
Level 1
  6
Continuous
 62
     7
370
    13
100
AcDbLine
 10
132.360625
 20
-4.898427
 30
0.0
 11
132.360625
 21
-4.799677
 31
0.0
  0
LINE
  5
1B5
330
504
100
AcDbEntity
  8
Level 1
  6
Continuous
 62
     7
370
    13
100
AcDbLine
 10
132.535302
 20
-4.926042
 30
0.0
 11
132.535302
 21
-5.019938
 31
0.0
  0
LINE
  5
1B6
330
504
100
AcDbEntity
  8
Level 1
  6
Continuous
 62
     7
370
    13
100
AcDbLine
 10
132.752115
 20
-4.898427
 30
0.0
 11
132.752115
 21
-4.799677
 31
0.0
  0
LINE
  5
1B7
330
504
100
AcDbEntity
  8
Level 1
  6
Continuous
 62
     7
370
    13
100
AcDbLine
 10
132.926802
 20
-4.935698
 30
0.0
 11
132.926802
 21
-5.019938
 31
0.0
  0
LINE
  5
1B8
330
504
100
AcDbEntity
  8
Level 1
  6
Continuous
 62
     7
370
    13
100
AcDbLine
 10
131.976031
 20
-5.019938
 30
0.0
 11
131.976031
 21
-4.930875
 31
0.0
  0
LINE
  5
1B9
330
504
100
AcDbEntity
  8
Level 1
  6
Continuous
 62
     7
370
    13
100
AcDbLine
 10
132.150719
 20
-5.06275
 30
0.0
 11
132.150719
 21
-5.121437
 31
0.0
  0
LINE
  5
1BA
330
504
100
AcDbEntity
  8
Level 1
  6
Continuous
 62
     7
370
    13
100
AcDbLine
 10
132.360625
 20
-5.024781
 30
0.0
 11
132.360625
 21
-4.930875
 31
0.0
  0
LINE
  5
1BB
330
504
100
AcDbEntity
  8
Level 1
  6
Continuous
 62
     7
370
    13
100
AcDbLine
 10
132.535302
 20
-5.06275
 30
0.0
 11
132.535302
 21
-5.122823
 31
0.0
  0
LINE
  5
1BC
330
504
100
AcDbEntity
  8
Level 1
  6
Continuous
 62
     7
370
    13
100
AcDbLine
 10
132.752115
 20
-5.015802
 30
0.0
 11
132.752115
 21
-4.930875
 31
0.0
  0
LINE
  5
1BD
330
504
100
AcDbEntity
  8
Level 1
  6
Continuous
 62
     7
370
    13
100
AcDbLine
 10
132.926802
 20
-5.06275
 30
0.0
 11
132.926802
 21
-5.121437
 31
0.0
  0
LINE
  5
1BE
330
504
100
AcDbEntity
  8
Level 1
  6
Continuous
 62
     7
370
    13
100
AcDbLine
 10
133.124271
 20
-5.03099
 30
0.0
 11
133.124271
 21
-4.940531
 31
0.0
  0
LINE
  5
1BF
330
504
100
AcDbEntity
  8
Level 1
  6
Continuous
 62
     7
370
    13
100
AcDbLine
 10
133.124271
 20
-4.901875
 30
0.0
 11
133.124271
 21
-4.805208
 31
0.0
  0
LINE
  5
1C0
330
504
100
AcDbEntity
  8
Level 1
  6
Continuous
 62
     7
370
    13
100
AcDbLine
 10
133.124271
 20
-4.766542
 30
0.0
 11
133.124271
 21
-4.669875
 31
0.0
  0
LINE
  5
1C1
330
504
100
AcDbEntity
  8
Level 1
  6
Continuous
 62
     7
370
    13
100
AcDbLine
 10
133.124271
 20
-4.624302
 30
0.0
 11
133.124271
 21
-4.521427
 31
0.0
  0
LINE
  5
1C2
330
504
100
AcDbEntity
  8
Level 1
  6
Continuous
 62
     7
370
    13
100
AcDbLine
 10
133.124271
 20
-4.488969
 30
0.0
 11
133.124271
 21
-4.392313
 31
0.0
  0
LINE
  5
1C3
330
504
100
AcDbEntity
  8
Level 1
  6
Continuous
 62
     7
370
    13
100
AcDbLine
 10
133.124271
 20
-4.347437
 30
0.0
 11
133.124271
 21
-4.263198
 31
0.0
  0
LINE
  5
1C4
330
504
100
AcDbEntity
  8
Level 1
  6
Continuous
 62
     7
370
    13
100
AcDbLine
 10
133.124271
 20
-4.224531
 30
0.0
 11
133.124271
 21
-4.160312
 31
0.0
  0
LINE
  5
1C5
330
504
100
AcDbEntity
  8
Level 1
  6
Continuous
 62
     7
370
    13
100
AcDbLine
 10
133.124271
 20
-4.127865
 30
0.0
 11
133.124271
 21
-4.080917
 31
0.0
  0
LINE
  5
1C6
330
504
100
AcDbEntity
  8
Level 1
  6
Continuous
 62
     7
370
    13
100
AcDbLine
 10
133.298958
 20
-4.173437
 30
0.0
 11
133.298958
 21
-4.237646
 31
0.0
  0
LINE
  5
1C7
330
504
100
AcDbEntity
  8
Level 1
  6
Continuous
 62
     7
370
    13
100
AcDbLine
 10
133.298958
 20
-4.270094
 30
0.0
 11
133.298958
 21
-4.353646
 31
0.0
  0
LINE
  5
1C8
330
504
100
AcDbEntity
  8
Level 1
  6
Continuous
 62
     7
370
    13
100
AcDbLine
 10
133.298958
 20
-4.392313
 30
0.0
 11
133.298958
 21
-4.488969
 31
0.0
  0
LINE
  5
1C9
330
504
100
AcDbEntity
  8
Level 1
  6
Continuous
 62
     7
370
    13
100
AcDbLine
 10
133.298958
 20
-4.521427
 30
0.0
 11
133.298958
 21
-4.618094
 31
0.0
  0
LINE
  5
1CA
330
504
100
AcDbEntity
  8
Level 1
  6
Continuous
 62
     7
370
    13
100
AcDbLine
 10
133.298958
 20
-4.662969
 30
0.0
 11
133.298958
 21
-4.766542
 31
0.0
  0
LINE
  5
1CB
330
504
100
AcDbEntity
  8
Level 1
  6
Continuous
 62
     7
370
    13
100
AcDbLine
 10
133.298958
 20
-4.79899
 30
0.0
 11
133.298958
 21
-4.901875
 31
0.0
  0
LINE
  5
1CC
330
504
100
AcDbEntity
  8
Level 1
  6
Continuous
 62
     7
370
    13
100
AcDbLine
 10
133.298958
 20
-4.940531
 30
0.0
 11
133.298958
 21
-5.011656
 31
0.0
  0
LINE
  5
1CD
330
504
100
AcDbEntity
  8
Level 1
  6
Continuous
 62
     7
370
    13
100
AcDbLine
 10
133.298958
 20
-5.06275
 30
0.0
 11
133.298958
 21
-5.12075
 31
0.0
  0
LINE
  5
1CE
330
504
100
AcDbEntity
  8
Level 1
  6
Continuous
 62
     7
370
    13
100
AcDbLine
 10
133.52475
 20
-4.154094
 30
0.0
 11
133.52475
 21
-4.092656
 31
0.0
  0
LINE
  5
1CF
330
504
100
AcDbEntity
  8
Level 1
  6
Continuous
 62
     7
370
    13
100
AcDbLine
 10
133.52475
 20
-4.25076
 30
0.0
 11
133.52475
 21
-4.185854
 31
0.0
  0
LINE
  5
1D0
330
504
100
AcDbEntity
  8
Level 1
  6
Continuous
 62
     7
370
    13
100
AcDbLine
 10
133.52475
 20
-4.359854
 30
0.0
 11
133.52475
 21
-4.276312
 31
0.0
  0
LINE
  5
1D1
330
504
100
AcDbEntity
  8
Level 1
  6
Continuous
 62
     7
370
    13
100
AcDbLine
 10
133.52475
 20
-4.488969
 30
0.0
 11
133.52475
 21
-4.398521
 31
0.0
  0
LINE
  5
1D2
330
504
100
AcDbEntity
  8
Level 1
  6
Continuous
 62
     7
370
    13
100
AcDbLine
 10
133.52475
 20
-4.624302
 30
0.0
 11
133.52475
 21
-4.527646
 31
0.0
  0
LINE
  5
1D3
330
504
100
AcDbEntity
  8
Level 1
  6
Continuous
 62
     7
370
    13
100
AcDbLine
 10
133.52475
 20
-4.77276
 30
0.0
 11
133.52475
 21
-4.662969
 31
0.0
  0
LINE
  5
1D4
330
504
100
AcDbEntity
  8
Level 1
  6
Continuous
 62
     7
370
    13
100
AcDbLine
 10
133.52475
 20
-4.908083
 30
0.0
 11
133.52475
 21
-4.805208
 31
0.0
  0
LINE
  5
1D5
330
504
100
AcDbEntity
  8
Level 1
  6
Continuous
 62
     7
370
    13
100
AcDbLine
 10
133.52475
 20
-5.017875
 30
0.0
 11
133.52475
 21
-4.94676
 31
0.0
  0
LINE
  5
1D6
330
504
100
AcDbEntity
  8
Level 1
  6
Continuous
 62
     7
370
    13
100
AcDbLine
 10
133.699427
 20
-5.06275
 30
0.0
 11
133.699427
 21
-5.124198
 31
0.0
  0
LINE
  5
1D7
330
504
100
AcDbEntity
  8
Level 1
  6
Continuous
 62
     7
370
    13
100
AcDbLine
 10
133.699427
 20
-4.953656
 30
0.0
 11
133.699427
 21
-5.024083
 31
0.0
  0
LINE
  5
1D8
330
504
100
AcDbEntity
  8
Level 1
  6
Continuous
 62
     7
370
    13
100
AcDbLine
 10
133.699427
 20
-4.805208
 30
0.0
 11
133.699427
 21
-4.91499
 31
0.0
  0
LINE
  5
1D9
330
504
100
AcDbEntity
  8
Level 1
  6
Continuous
 62
     7
370
    13
100
AcDbLine
 10
133.699427
 20
-4.662969
 30
0.0
 11
133.699427
 21
-4.77276
 31
0.0
  0
LINE
  5
1DA
330
504
100
AcDbEntity
  8
Level 1
  6
Continuous
 62
     7
370
    13
100
AcDbLine
 10
133.699427
 20
-4.534552
 30
0.0
 11
133.699427
 21
-4.624302
 31
0.0
  0
LINE
  5
1DB
330
504
100
AcDbEntity
  8
Level 1
  6
Continuous
 62
     7
370
    13
100
AcDbLine
 10
133.699427
 20
-4.398521
 30
0.0
 11
133.699427
 21
-4.488969
 31
0.0
  0
LINE
  5
1DC
330
504
100
AcDbEntity
  8
Level 1
  6
Continuous
 62
     7
370
    13
100
AcDbLine
 10
133.699427
 20
-4.282531
 30
0.0
 11
133.699427
 21
-4.359854
 31
0.0
  0
LINE
  5
1DD
330
504
100
AcDbEntity
  8
Level 1
  6
Continuous
 62
     7
370
    13
100
AcDbLine
 10
133.699427
 20
-4.19276
 30
0.0
 11
133.699427
 21
-4.243854
 31
0.0
  0
LINE
  5
1DE
330
504
100
AcDbEntity
  8
Level 1
  6
Continuous
 62
     7
370
    13
100
AcDbLine
 10
133.925906
 20
-4.160312
 30
0.0
 11
133.925906
 21
-4.087823
 31
0.0
  0
LINE
  5
1DF
330
504
100
AcDbEntity
  8
Level 1
  6
Continuous
 62
     7
370
    13
100
AcDbLine
 10
134.100594
 20
-4.198979
 30
0.0
 11
134.100594
 21
-4.256979
 31
0.0
  0
LINE
  5
1E0
330
504
100
AcDbEntity
  8
Level 1
  6
Continuous
 62
     7
370
    13
100
AcDbLine
 10
134.300135
 20
-4.166531
 30
0.0
 11
134.300135
 21
-4.098167
 31
0.0
  0
LINE
  5
1E1
330
504
100
AcDbEntity
  8
Level 1
  6
Continuous
 62
     7
370
    13
100
AcDbLine
 10
134.474823
 20
-4.212094
 30
0.0
 11
134.474823
 21
-4.334313
 31
0.0
  0
LINE
  5
1E2
330
504
100
AcDbEntity
  8
Level 1
  6
Continuous
 62
     7
370
    13
100
AcDbLine
 10
134.682656
 20
-4.166531
 30
0.0
 11
134.682656
 21
-4.085052
 31
0.0
  0
LINE
  5
1E3
330
504
100
AcDbEntity
  8
Level 1
  6
Continuous
 62
     7
370
    13
100
AcDbLine
 10
134.857344
 20
-4.212094
 30
0.0
 11
134.857344
 21
-4.328094
 31
0.0
  0
LINE
  5
1E4
330
504
100
AcDbEntity
  8
Level 1
  6
Continuous
 62
     7
370
    13
100
AcDbLine
 10
135.066552
 20
-4.160312
 30
0.0
 11
135.066552
 21
-4.0885
 31
0.0
  0
LINE
  5
1E5
330
504
100
AcDbEntity
  8
Level 1
  6
Continuous
 62
     7
370
    13
100
AcDbLine
 10
135.24124
 20
-4.212094
 30
0.0
 11
135.24124
 21
-4.321198
 31
0.0
  0
LINE
  5
1E6
330
504
100
AcDbEntity
  8
Level 1
  6
Continuous
 62
     7
370
    13
100
AcDbLine
 10
133.925906
 20
-5.024083
 30
0.0
 11
133.925906
 21
-4.953656
 31
0.0
  0
LINE
  5
1E7
330
504
100
AcDbEntity
  8
Level 1
  6
Continuous
 62
     7
370
    13
100
AcDbLine
 10
134.100594
 20
-5.06275
 30
0.0
 11
134.100594
 21
-5.12351
 31
0.0
  0
LINE
  5
1E8
330
504
100
AcDbEntity
  8
Level 1
  6
Continuous
 62
     7
370
    13
100
AcDbLine
 10
134.300135
 20
-5.024083
 30
0.0
 11
134.300135
 21
-4.953656
 31
0.0
  0
LINE
  5
1E9
330
504
100
AcDbEntity
  8
Level 1
  6
Continuous
 62
     7
370
    13
100
AcDbLine
 10
134.474823
 20
-5.056531
 30
0.0
 11
134.474823
 21
-5.12075
 31
0.0
  0
LINE
  5
1EA
330
504
100
AcDbEntity
  8
Level 1
  6
Continuous
 62
     7
370
    13
100
AcDbLine
 10
134.682656
 20
-4.998531
 30
0.0
 11
134.682656
 21
-4.927417
 31
0.0
  0
LINE
  5
1EB
330
504
100
AcDbEntity
  8
Level 1
  6
Continuous
 62
     7
370
    13
100
AcDbLine
 10
134.857344
 20
-5.06275
 30
0.0
 11
134.857344
 21
-5.127656
 31
0.0
  0
LINE
  5
1EC
330
504
100
AcDbEntity
  8
Level 1
  6
Continuous
 62
     7
370
    13
100
AcDbLine
 10
135.066552
 20
-4.998531
 30
0.0
 11
135.066552
 21
-4.934323
 31
0.0
  0
LINE
  5
1ED
330
504
100
AcDbEntity
  8
Level 1
  6
Continuous
 62
     7
370
    13
100
AcDbLine
 10
135.24124
 20
-5.06275
 30
0.0
 11
135.24124
 21
-5.127656
 31
0.0
  0
LINE
  5
1EE
330
504
100
AcDbEntity
  8
Level 1
  6
Continuous
 62
     7
370
    13
100
AcDbLine
 10
133.925906
 20
-4.91499
 30
0.0
 11
133.925906
 21
-4.805208
 31
0.0
  0
LINE
  5
1EF
330
504
100
AcDbEntity
  8
Level 1
  6
Continuous
 62
     7
370
    13
100
AcDbLine
 10
134.100594
 20
-4.953656
 30
0.0
 11
134.100594
 21
-5.03099
 31
0.0
  0
LINE
  5
1F0
330
504
100
AcDbEntity
  8
Level 1
  6
Continuous
 62
     7
370
    13
100
AcDbLine
 10
134.300135
 20
-4.91499
 30
0.0
 11
134.300135
 21
-4.805208
 31
0.0
  0
LINE
  5
1F1
330
504
100
AcDbEntity
  8
Level 1
  6
Continuous
 62
     7
370
    13
100
AcDbLine
 10
133.925906
 20
-4.779667
 30
0.0
 11
133.925906
 21
-4.662969
 31
0.0
  0
LINE
  5
1F2
330
504
100
AcDbEntity
  8
Level 1
  6
Continuous
 62
     7
370
    13
100
AcDbLine
 10
134.100594
 20
-4.805208
 30
0.0
 11
134.100594
 21
-4.908083
 31
0.0
  0
LINE
  5
1F3
330
504
100
AcDbEntity
  8
Level 1
  6
Continuous
 62
     7
370
    13
100
AcDbLine
 10
134.300135
 20
-4.77276
 30
0.0
 11
134.300135
 21
-4.669875
 31
0.0
  0
LINE
  5
1F4
330
504
100
AcDbEntity
  8
Level 1
  6
Continuous
 62
     7
370
    13
100
AcDbLine
 10
133.925906
 20
-4.624302
 30
0.0
 11
133.925906
 21
-4.534552
 31
0.0
  0
LINE
  5
1F5
330
504
100
AcDbEntity
  8
Level 1
  6
Continuous
 62
     7
370
    13
100
AcDbLine
 10
134.100594
 20
-4.669875
 30
0.0
 11
134.100594
 21
-4.77276
 31
0.0
  0
LINE
  5
1F6
330
504
100
AcDbEntity
  8
Level 1
  6
Continuous
 62
     7
370
    13
100
AcDbLine
 10
134.300135
 20
-4.624302
 30
0.0
 11
134.300135
 21
-4.534552
 31
0.0
  0
LINE
  5
1F7
330
504
100
AcDbEntity
  8
Level 1
  6
Continuous
 62
     7
370
    13
100
AcDbLine
 10
133.925906
 20
-4.488969
 30
0.0
 11
133.925906
 21
-4.392313
 31
0.0
  0
LINE
  5
1F8
330
504
100
AcDbEntity
  8
Level 1
  6
Continuous
 62
     7
370
    13
100
AcDbLine
 10
134.100594
 20
-4.534552
 30
0.0
 11
134.100594
 21
-4.624302
 31
0.0
  0
LINE
  5
1F9
330
504
100
AcDbEntity
  8
Level 1
  6
Continuous
 62
     7
370
    13
100
AcDbLine
 10
134.300135
 20
-4.48276
 30
0.0
 11
134.300135
 21
-4.386094
 31
0.0
  0
LINE
  5
1FA
330
504
100
AcDbEntity
  8
Level 1
  6
Continuous
 62
     7
370
    13
100
AcDbLine
 10
133.925906
 20
-4.36676
 30
0.0
 11
133.925906
 21
-4.289438
 31
0.0
  0
LINE
  5
1FB
330
504
100
AcDbEntity
  8
Level 1
  6
Continuous
 62
     7
370
    13
100
AcDbLine
 10
134.100594
 20
-4.392313
 30
0.0
 11
134.100594
 21
-4.48276
 31
0.0
  0
LINE
  5
1FC
330
504
100
AcDbEntity
  8
Level 1
  6
Continuous
 62
     7
370
    13
100
AcDbLine
 10
134.300135
 20
-4.353646
 30
0.0
 11
134.300135
 21
-4.301854
 31
0.0
  0
LINE
  5
1FD
330
504
100
AcDbEntity
  8
Level 1
  6
Continuous
 62
     7
370
    13
100
AcDbLine
 10
133.925906
 20
-4.263198
 30
0.0
 11
133.925906
 21
-4.198979
 31
0.0
  0
LINE
  5
1FE
330
504
100
AcDbEntity
  8
Level 1
  6
Continuous
 62
     7
370
    13
100
AcDbLine
 10
134.100594
 20
-4.289438
 30
0.0
 11
134.100594
 21
-4.359854
 31
0.0
  0
LINE
  5
1FF
330
504
100
AcDbEntity
  8
Level 1
  6
Continuous
 62
     7
370
    13
100
AcDbLine
 10
134.300135
 20
-4.270094
 30
0.0
 11
134.300135
 21
-4.205198
 31
0.0
  0
LINE
  5
200
330
504
100
AcDbEntity
  8
Level 1
  6
Continuous
 62
     7
370
    13
100
AcDbLine
 10
134.474823
 20
-4.94676
 30
0.0
 11
134.474823
 21
-5.00476
 31
0.0
  0
LINE
  5
201
330
504
100
AcDbEntity
  8
Level 1
  6
Continuous
 62
     7
370
    13
100
AcDbLine
 10
134.682656
 20
-4.895667
 30
0.0
 11
134.682656
 21
-4.805208
 31
0.0
  0
LINE
  5
202
330
504
100
AcDbEntity
  8
Level 1
  6
Continuous
 62
     7
370
    13
100
AcDbLine
 10
134.857344
 20
-4.927417
 30
0.0
 11
134.857344
 21
-4.998531
 31
0.0
  0
LINE
  5
203
330
504
100
AcDbEntity
  8
Level 1
  6
Continuous
 62
     7
370
    13
100
AcDbLine
 10
135.066552
 20
-4.895667
 30
0.0
 11
135.066552
 21
-4.805208
 31
0.0
  0
LINE
  5
204
330
504
100
AcDbEntity
  8
Level 1
  6
Continuous
 62
     7
370
    13
100
AcDbLine
 10
135.24124
 20
-4.940531
 30
0.0
 11
135.24124
 21
-4.992323
 31
0.0
  0
LINE
  5
205
330
504
100
AcDbEntity
  8
Level 1
  6
Continuous
 62
     7
370
    13
100
AcDbLine
 10
134.474823
 20
-4.805208
 30
0.0
 11
134.474823
 21
-4.921208
 31
0.0
  0
LINE
  5
206
330
504
100
AcDbEntity
  8
Level 1
  6
Continuous
 62
     7
370
    13
100
AcDbLine
 10
134.682656
 20
-4.77276
 30
0.0
 11
134.682656
 21
-4.669875
 31
0.0
  0
LINE
  5
207
330
504
100
AcDbEntity
  8
Level 1
  6
Continuous
 62
     7
370
    13
100
AcDbLine
 10
134.857344
 20
-4.805208
 30
0.0
 11
134.857344
 21
-4.895667
 31
0.0
  0
LINE
  5
208
330
504
100
AcDbEntity
  8
Level 1
  6
Continuous
 62
     7
370
    13
100
AcDbLine
 10
135.066552
 20
-4.766542
 30
0.0
 11
135.066552
 21
-4.669875
 31
0.0
  0
LINE
  5
209
330
504
100
AcDbEntity
  8
Level 1
  6
Continuous
 62
     7
370
    13
100
AcDbLine
 10
135.24124
 20
-4.805208
 30
0.0
 11
135.24124
 21
-4.895667
 31
0.0
  0
LINE
  5
20A
330
504
100
AcDbEntity
  8
Level 1
  6
Continuous
 62
     7
370
    13
100
AcDbLine
 10
134.474823
 20
-4.669875
 30
0.0
 11
134.474823
 21
-4.77276
 31
0.0
  0
LINE
  5
20B
330
504
100
AcDbEntity
  8
Level 1
  6
Continuous
 62
     7
370
    13
100
AcDbLine
 10
134.682656
 20
-4.624302
 30
0.0
 11
134.682656
 21
-4.521427
 31
0.0
  0
LINE
  5
20C
330
504
100
AcDbEntity
  8
Level 1
  6
Continuous
 62
     7
370
    13
100
AcDbLine
 10
134.857344
 20
-4.669875
 30
0.0
 11
134.857344
 21
-4.77276
 31
0.0
  0
LINE
  5
20D
330
504
100
AcDbEntity
  8
Level 1
  6
Continuous
 62
     7
370
    13
100
AcDbLine
 10
135.066552
 20
-4.618094
 30
0.0
 11
135.066552
 21
-4.521427
 31
0.0
  0
LINE
  5
20E
330
504
100
AcDbEntity
  8
Level 1
  6
Continuous
 62
     7
370
    13
100
AcDbLine
 10
135.24124
 20
-4.676094
 30
0.0
 11
135.24124
 21
-4.766542
 31
0.0
  0
LINE
  5
20F
330
504
100
AcDbEntity
  8
Level 1
  6
Continuous
 62
     7
370
    13
100
AcDbLine
 10
134.474823
 20
-4.527646
 30
0.0
 11
134.474823
 21
-4.624302
 31
0.0
  0
LINE
  5
210
330
504
100
AcDbEntity
  8
Level 1
  6
Continuous
 62
     7
370
    13
100
AcDbLine
 10
134.682656
 20
-4.48276
 30
0.0
 11
134.682656
 21
-4.36676
 31
0.0
  0
LINE
  5
211
330
504
100
AcDbEntity
  8
Level 1
  6
Continuous
 62
     7
370
    13
100
AcDbLine
 10
134.857344
 20
-4.521427
 30
0.0
 11
134.857344
 21
-4.618094
 31
0.0
  0
LINE
  5
212
330
504
100
AcDbEntity
  8
Level 1
  6
Continuous
 62
     7
370
    13
100
AcDbLine
 10
135.066552
 20
-4.48276
 30
0.0
 11
135.066552
 21
-4.36676
 31
0.0
  0
LINE
  5
213
330
504
100
AcDbEntity
  8
Level 1
  6
Continuous
 62
     7
370
    13
100
AcDbLine
 10
135.24124
 20
-4.521427
 30
0.0
 11
135.24124
 21
-4.631208
 31
0.0
  0
LINE
  5
214
330
504
100
AcDbEntity
  8
Level 1
  6
Continuous
 62
     7
370
    13
100
AcDbLine
 10
134.474823
 20
-4.379198
 30
0.0
 11
134.474823
 21
-4.488969
 31
0.0
  0
LINE
  5
215
330
504
100
AcDbEntity
  8
Level 1
  6
Continuous
 62
     7
370
    13
100
AcDbLine
 10
134.682656
 20
-4.321198
 30
0.0
 11
134.682656
 21
-4.205198
 31
0.0
  0
LINE
  5
216
330
504
100
AcDbEntity
  8
Level 1
  6
Continuous
 62
     7
370
    13
100
AcDbLine
 10
134.857344
 20
-4.36676
 30
0.0
 11
134.857344
 21
-4.476552
 31
0.0
  0
LINE
  5
217
330
504
100
AcDbEntity
  8
Level 1
  6
Continuous
 62
     7
370
    13
100
AcDbLine
 10
135.066552
 20
-4.328094
 30
0.0
 11
135.066552
 21
-4.212094
 31
0.0
  0
LINE
  5
218
330
504
100
AcDbEntity
  8
Level 1
  6
Continuous
 62
     7
370
    13
100
AcDbLine
 10
135.24124
 20
-4.36676
 30
0.0
 11
135.24124
 21
-4.48276
 31
0.0
  0
LINE
  5
219
330
504
100
AcDbEntity
  8
Level 1
  6
Continuous
 62
     7
370
    13
100
AcDbLine
 10
134.682656
 20
-5.127656
 30
0.0
 11
134.682656
 21
-5.056531
 31
0.0
  0
LINE
  5
21A
330
504
100
AcDbEntity
  8
Level 1
  6
Continuous
 62
     7
370
    13
100
AcDbLine
 10
134.857344
 20
-5.243646
 30
0.0
 11
134.857344
 21
-5.286458
 31
0.0
  0
LINE
  5
21B
330
504
100
AcDbEntity
  8
Level 1
  6
Continuous
 62
     7
370
    13
100
AcDbLine
 10
135.066552
 20
-5.127656
 30
0.0
 11
135.066552
 21
-5.06275
 31
0.0
  0
LINE
  5
21C
330
504
100
AcDbEntity
  8
Level 1
  6
Continuous
 62
     7
370
    13
100
AcDbLine
 10
135.24124
 20
-5.243646
 30
0.0
 11
135.24124
 21
-5.290604
 31
0.0
  0
LINE
  5
21D
330
504
100
AcDbEntity
  8
Level 1
  6
Continuous
 62
     7
370
    13
100
AcDbLine
 10
132.075458
 20
-3.616229
 30
0.0
 11
132.150719
 21
-3.616229
 31
0.0
  0
LINE
  5
21E
330
504
100
AcDbEntity
  8
Level 1
  6
Continuous
 62
     7
370
    13
100
AcDbLine
 10
132.457979
 20
-3.616229
 30
0.0
 11
132.535302
 21
-3.616229
 31
0.0
  0
LINE
  5
21F
330
504
100
AcDbEntity
  8
Level 1
  6
Continuous
 62
     7
370
    13
100
AcDbLine
 10
132.848083
 20
-3.616229
 30
0.0
 11
132.926802
 21
-3.616229
 31
0.0
  0
LINE
  5
220
330
504
100
AcDbEntity
  8
Level 1
  6
Continuous
 62
     7
370
    13
100
AcDbLine
 10
131.976031
 20
-3.687344
 30
0.0
 11
131.976031
 21
-3.61899
 31
0.0
  0
LINE
  5
221
330
504
100
AcDbEntity
  8
Level 1
  6
Continuous
 62
     7
370
    13
100
AcDbLine
 10
131.976031
 20
-3.778479
 30
0.0
 11
131.976031
 21
-3.714271
 31
0.0
  0
LINE
  5
222
330
504
100
AcDbEntity
  8
Level 1
  6
Continuous
 62
     7
370
    13
100
AcDbLine
 10
131.976031
 20
-3.873083
 30
0.0
 11
131.976031
 21
-3.812323
 31
0.0
  0
LINE
  5
223
330
504
100
AcDbEntity
  8
Level 1
  6
Continuous
 62
     7
370
    13
100
AcDbLine
 10
132.150719
 20
-3.910365
 30
0.0
 11
132.150719
 21
-3.986323
 31
0.0
  0
LINE
  5
224
330
504
100
AcDbEntity
  8
Level 1
  6
Continuous
 62
     7
370
    13
100
AcDbLine
 10
132.150719
 20
-3.812323
 30
0.0
 11
132.150719
 21
-3.873083
 31
0.0
  0
LINE
  5
225
330
504
100
AcDbEntity
  8
Level 1
  6
Continuous
 62
     7
370
    13
100
AcDbLine
 10
132.150719
 20
-3.721177
 30
0.0
 11
132.150719
 21
-3.778479
 31
0.0
  0
LINE
  5
226
330
504
100
AcDbEntity
  8
Level 1
  6
Continuous
 62
     7
370
    13
100
AcDbLine
 10
132.360625
 20
-3.690792
 30
0.0
 11
132.360625
 21
-3.61899
 31
0.0
  0
LINE
  5
227
330
504
100
AcDbEntity
  8
Level 1
  6
Continuous
 62
     7
370
    13
100
AcDbLine
 10
132.360625
 20
-3.781937
 30
0.0
 11
132.360625
 21
-3.721177
 31
0.0
  0
LINE
  5
228
330
504
100
AcDbEntity
  8
Level 1
  6
Continuous
 62
     7
370
    13
100
AcDbLine
 10
132.360625
 20
-3.873083
 30
0.0
 11
132.360625
 21
-3.815771
 31
0.0
  0
LINE
  5
229
330
504
100
AcDbEntity
  8
Level 1
  6
Continuous
 62
     7
370
    13
100
AcDbLine
 10
132.535302
 20
-3.913823
 30
0.0
 11
132.535302
 21
-3.985625
 31
0.0
  0
LINE
  5
22A
330
504
100
AcDbEntity
  8
Level 1
  6
Continuous
 62
     7
370
    13
100
AcDbLine
 10
132.535302
 20
-3.815771
 30
0.0
 11
132.535302
 21
-3.876531
 31
0.0
  0
LINE
  5
22B
330
504
100
AcDbEntity
  8
Level 1
  6
Continuous
 62
     7
370
    13
100
AcDbLine
 10
132.535302
 20
-3.721177
 30
0.0
 11
132.535302
 21
-3.781937
 31
0.0
  0
LINE
  5
22C
330
504
100
AcDbEntity
  8
Level 1
  6
Continuous
 62
     7
370
    13
100
AcDbLine
 10
132.752115
 20
-3.690792
 30
0.0
 11
132.752115
 21
-3.61899
 31
0.0
  0
LINE
  5
22D
330
504
100
AcDbEntity
  8
Level 1
  6
Continuous
 62
     7
370
    13
100
AcDbLine
 10
132.752115
 20
-3.785385
 30
0.0
 11
132.752115
 21
-3.721177
 31
0.0
  0
LINE
  5
22E
330
504
100
AcDbEntity
  8
Level 1
  6
Continuous
 62
     7
370
    13
100
AcDbLine
 10
132.752115
 20
-3.876531
 30
0.0
 11
132.752115
 21
-3.815771
 31
0.0
  0
LINE
  5
22F
330
504
100
AcDbEntity
  8
Level 1
  6
Continuous
 62
     7
370
    13
100
AcDbLine
 10
132.926802
 20
-3.913823
 30
0.0
 11
132.926802
 21
-3.986323
 31
0.0
  0
LINE
  5
230
330
504
100
AcDbEntity
  8
Level 1
  6
Continuous
 62
     7
370
    13
100
AcDbLine
 10
132.926802
 20
-3.815771
 30
0.0
 11
132.926802
 21
-3.87999
 31
0.0
  0
LINE
  5
231
330
504
100
AcDbEntity
  8
Level 1
  6
Continuous
 62
     7
370
    13
100
AcDbLine
 10
132.926802
 20
-3.721177
 30
0.0
 11
132.926802
 21
-3.788844
 31
0.0
  0
LINE
  5
232
330
504
100
AcDbEntity
  8
Level 1
  6
Continuous
 62
     7
370
    13
100
AcDbLine
 10
133.220937
 20
-3.616229
 30
0.0
 11
133.298958
 21
-3.616229
 31
0.0
  0
LINE
  5
233
330
504
100
AcDbEntity
  8
Level 1
  6
Continuous
 62
     7
370
    13
100
AcDbLine
 10
133.627615
 20
-3.616229
 30
0.0
 11
133.699427
 21
-3.616229
 31
0.0
  0
LINE
  5
234
330
504
100
AcDbEntity
  8
Level 1
  6
Continuous
 62
     7
370
    13
100
AcDbLine
 10
134.028781
 20
-3.616229
 30
0.0
 11
134.100594
 21
-3.616229
 31
0.0
  0
LINE
  5
235
330
504
100
AcDbEntity
  8
Level 1
  6
Continuous
 62
     7
370
    13
100
AcDbLine
 10
133.124271
 20
-3.690115
 30
0.0
 11
133.124271
 21
-3.61899
 31
0.0
  0
LINE
  5
236
330
504
100
AcDbEntity
  8
Level 1
  6
Continuous
 62
     7
370
    13
100
AcDbLine
 10
133.298958
 20
-3.723937
 30
0.0
 11
133.298958
 21
-3.793677
 31
0.0
  0
LINE
  5
237
330
504
100
AcDbEntity
  8
Level 1
  6
Continuous
 62
     7
370
    13
100
AcDbLine
 10
133.52475
 20
-3.690115
 30
0.0
 11
133.52475
 21
-3.61899
 31
0.0
  0
LINE
  5
238
330
504
100
AcDbEntity
  8
Level 1
  6
Continuous
 62
     7
370
    13
100
AcDbLine
 10
133.699427
 20
-3.72049
 30
0.0
 11
133.699427
 21
-3.790219
 31
0.0
  0
LINE
  5
239
330
504
100
AcDbEntity
  8
Level 1
  6
Continuous
 62
     7
370
    13
100
AcDbLine
 10
133.925906
 20
-3.690115
 30
0.0
 11
133.925906
 21
-3.61899
 31
0.0
  0
LINE
  5
23A
330
504
100
AcDbEntity
  8
Level 1
  6
Continuous
 62
     7
370
    13
100
AcDbLine
 10
134.100594
 20
-3.72049
 30
0.0
 11
134.100594
 21
-3.790219
 31
0.0
  0
LINE
  5
23B
330
504
100
AcDbEntity
  8
Level 1
  6
Continuous
 62
     7
370
    13
100
AcDbLine
 10
133.124271
 20
-3.790219
 30
0.0
 11
133.124271
 21
-3.723937
 31
0.0
  0
LINE
  5
23C
330
504
100
AcDbEntity
  8
Level 1
  6
Continuous
 62
     7
370
    13
100
AcDbLine
 10
133.124271
 20
-3.880677
 30
0.0
 11
133.124271
 21
-3.817156
 31
0.0
  0
LINE
  5
23D
330
504
100
AcDbEntity
  8
Level 1
  6
Continuous
 62
     7
370
    13
100
AcDbLine
 10
133.298958
 20
-3.913823
 30
0.0
 11
133.298958
 21
-3.985625
 31
0.0
  0
LINE
  5
23E
330
504
100
AcDbEntity
  8
Level 1
  6
Continuous
 62
     7
370
    13
100
AcDbLine
 10
133.298958
 20
-3.820604
 30
0.0
 11
133.298958
 21
-3.884135
 31
0.0
  0
LINE
  5
23F
330
504
100
AcDbEntity
  8
Level 1
  6
Continuous
 62
     7
370
    13
100
AcDbLine
 10
133.52475
 20
-3.793677
 30
0.0
 11
133.52475
 21
-3.723937
 31
0.0
  0
LINE
  5
240
330
504
100
AcDbEntity
  8
Level 1
  6
Continuous
 62
     7
370
    13
100
AcDbLine
 10
133.52475
 20
-3.884135
 30
0.0
 11
133.52475
 21
-3.824062
 31
0.0
  0
LINE
  5
241
330
504
100
AcDbEntity
  8
Level 1
  6
Continuous
 62
     7
370
    13
100
AcDbLine
 10
133.699427
 20
-3.917271
 30
0.0
 11
133.699427
 21
-3.980792
 31
0.0
  0
LINE
  5
242
330
504
100
AcDbEntity
  8
Level 1
  6
Continuous
 62
     7
370
    13
100
AcDbLine
 10
133.699427
 20
-3.824062
 30
0.0
 11
133.699427
 21
-3.884135
 31
0.0
  0
LINE
  5
243
330
504
100
AcDbEntity
  8
Level 1
  6
Continuous
 62
     7
370
    13
100
AcDbLine
 10
133.925906
 20
-3.793677
 30
0.0
 11
133.925906
 21
-3.72049
 31
0.0
  0
LINE
  5
244
330
504
100
AcDbEntity
  8
Level 1
  6
Continuous
 62
     7
370
    13
100
AcDbLine
 10
133.925906
 20
-3.887573
 30
0.0
 11
133.925906
 21
-3.820604
 31
0.0
  0
LINE
  5
245
330
504
100
AcDbEntity
  8
Level 1
  6
Continuous
 62
     7
370
    13
100
AcDbLine
 10
134.100594
 20
-3.917271
 30
0.0
 11
134.100594
 21
-3.98425
 31
0.0
  0
LINE
  5
246
330
504
100
AcDbEntity
  8
Level 1
  6
Continuous
 62
     7
370
    13
100
AcDbLine
 10
134.100594
 20
-3.824062
 30
0.0
 11
134.100594
 21
-3.887573
 31
0.0
  0
LINE
  5
247
330
504
100
AcDbEntity
  8
Level 1
  6
Continuous
 62
     7
370
    13
100
AcDbLine
 10
134.396802
 20
-3.616229
 30
0.0
 11
134.474823
 21
-3.616229
 31
0.0
  0
LINE
  5
248
330
504
100
AcDbEntity
  8
Level 1
  6
Continuous
 62
     7
370
    13
100
AcDbLine
 10
134.778625
 20
-3.616229
 30
0.0
 11
134.857344
 21
-3.616229
 31
0.0
  0
LINE
  5
249
330
504
100
AcDbEntity
  8
Level 1
  6
Continuous
 62
     7
370
    13
100
AcDbLine
 10
135.165292
 20
-3.616229
 30
0.0
 11
135.24124
 21
-3.616229
 31
0.0
  0
LINE
  5
24A
330
504
100
AcDbEntity
  8
Level 1
  6
Continuous
 62
     7
370
    13
100
AcDbLine
 10
134.300135
 20
-3.69425
 30
0.0
 11
134.300135
 21
-3.61899
 31
0.0
  0
LINE
  5
24B
330
504
100
AcDbEntity
  8
Level 1
  6
Continuous
 62
     7
370
    13
100
AcDbLine
 10
134.474823
 20
-3.722562
 30
0.0
 11
134.474823
 21
-3.797125
 31
0.0
  0
LINE
  5
24C
330
504
100
AcDbEntity
  8
Level 1
  6
Continuous
 62
     7
370
    13
100
AcDbLine
 10
134.682656
 20
-3.69425
 30
0.0
 11
134.682656
 21
-3.61899
 31
0.0
  0
LINE
  5
24D
330
504
100
AcDbEntity
  8
Level 1
  6
Continuous
 62
     7
370
    13
100
AcDbLine
 10
134.857344
 20
-3.722562
 30
0.0
 11
134.857344
 21
-3.804031
 31
0.0
  0
LINE
  5
24E
330
504
100
AcDbEntity
  8
Level 1
  6
Continuous
 62
     7
370
    13
100
AcDbLine
 10
135.066552
 20
-3.69425
 30
0.0
 11
135.066552
 21
-3.61899
 31
0.0
  0
LINE
  5
24F
330
504
100
AcDbEntity
  8
Level 1
  6
Continuous
 62
     7
370
    13
100
AcDbLine
 10
135.24124
 20
-3.722562
 30
0.0
 11
135.24124
 21
-3.804031
 31
0.0
  0
LINE
  5
250
330
504
100
AcDbEntity
  8
Level 1
  6
Continuous
 62
     7
370
    13
100
AcDbLine
 10
134.300135
 20
-3.793677
 30
0.0
 11
134.300135
 21
-3.722562
 31
0.0
  0
LINE
  5
251
330
504
100
AcDbEntity
  8
Level 1
  6
Continuous
 62
     7
370
    13
100
AcDbLine
 10
134.474823
 20
-3.828896
 30
0.0
 11
134.474823
 21
-3.886198
 31
0.0
  0
LINE
  5
252
330
504
100
AcDbEntity
  8
Level 1
  6
Continuous
 62
     7
370
    13
100
AcDbLine
 10
134.682656
 20
-3.800583
 30
0.0
 11
134.682656
 21
-3.722562
 31
0.0
  0
LINE
  5
253
330
504
100
AcDbEntity
  8
Level 1
  6
Continuous
 62
     7
370
    13
100
AcDbLine
 10
134.857344
 20
-3.828896
 30
0.0
 11
134.857344
 21
-3.878604
 31
0.0
  0
LINE
  5
254
330
504
100
AcDbEntity
  8
Level 1
  6
Continuous
 62
     7
370
    13
100
AcDbLine
 10
135.066552
 20
-3.804031
 30
0.0
 11
135.066552
 21
-3.722562
 31
0.0
  0
LINE
  5
255
330
504
100
AcDbEntity
  8
Level 1
  6
Continuous
 62
     7
370
    13
100
AcDbLine
 10
135.24124
 20
-3.828896
 30
0.0
 11
135.24124
 21
-3.882062
 31
0.0
  0
LINE
  5
256
330
504
100
AcDbEntity
  8
Level 1
  6
Continuous
 62
     7
370
    13
100
AcDbLine
 10
134.300135
 20
-3.882062
 30
0.0
 11
134.300135
 21
-3.828896
 31
0.0
  0
LINE
  5
257
330
504
100
AcDbEntity
  8
Level 1
  6
Continuous
 62
     7
370
    13
100
AcDbLine
 10
134.474823
 20
-3.911052
 30
0.0
 11
134.474823
 21
-3.983562
 31
0.0
  0
LINE
  5
258
330
504
100
AcDbEntity
  8
Level 1
  6
Continuous
 62
     7
370
    13
100
AcDbLine
 10
134.682656
 20
-3.886198
 30
0.0
 11
134.682656
 21
-3.828896
 31
0.0
  0
LINE
  5
259
330
504
100
AcDbEntity
  8
Level 1
  6
Continuous
 62
     7
370
    13
100
AcDbLine
 10
134.857344
 20
-3.917958
 30
0.0
 11
134.857344
 21
-3.985625
 31
0.0
  0
LINE
  5
25A
330
504
100
AcDbEntity
  8
Level 1
  6
Continuous
 62
     7
370
    13
100
AcDbLine
 10
135.066552
 20
-3.882062
 30
0.0
 11
135.066552
 21
-3.828896
 31
0.0
  0
LINE
  5
25B
330
504
100
AcDbEntity
  8
Level 1
  6
Continuous
 62
     7
370
    13
100
AcDbLine
 10
135.24124
 20
-3.921417
 30
0.0
 11
135.24124
 21
-3.98149
 31
0.0
  0
LINE
  5
25C
330
504
100
AcDbEntity
  8
Level 1
  6
Continuous
 62
     7
370
    13
100
AcDbLine
 10
135.24124
 20
-4.0885
 30
0.0
 11
135.24124
 21
-4.160312
 31
0.0
  0
LINE
  5
25D
330
504
100
AcDbEntity
  8
Level 1
  6
Continuous
 62
     7
370
    13
100
AcDbLine
 10
135.066552
 20
-3.989073
 30
0.0
 11
135.066552
 21
-3.921417
 31
0.0
  0
LINE
  5
25E
330
504
100
AcDbEntity
  8
Level 1
  6
Continuous
 62
     7
370
    13
100
AcDbLine
 10
134.857344
 20
-4.0885
 30
0.0
 11
134.857344
 21
-4.160312
 31
0.0
  0
LINE
  5
25F
330
504
100
AcDbEntity
  8
Level 1
  6
Continuous
 62
     7
370
    13
100
AcDbLine
 10
134.682656
 20
-3.985625
 30
0.0
 11
134.682656
 21
-3.91451
 31
0.0
  0
LINE
  5
260
330
504
100
AcDbEntity
  8
Level 1
  6
Continuous
 62
     7
370
    13
100
AcDbLine
 10
135.27024
 20
-6.206167
 30
0.0
 11
135.27024
 21
-6.364271
 31
0.0
  0
LINE
  5
261
330
504
100
AcDbEntity
  8
Level 1
  6
Continuous
 62
     7
370
    13
100
AcDbLine
 10
135.07276
 20
-6.321469
 30
0.0
 11
135.268167
 21
-6.321469
 31
0.0
  0
LWPOLYLINE
  5
262
330
504
100
AcDbEntity
  8
Level 1
  6
Continuous
 62
     7
370
    13
100
AcDbPolyline
 90
        4
 70
   128
 43
0.0
 10
131.41951
 20
-6.95325
 10
131.583156
 20
-6.95325
 10
131.599729
 20
-6.921479
 10
132.288125
 20
-6.921479
  0
LWPOLYLINE
  5
263
330
504
100
AcDbEntity
  8
Level 1
  6
Continuous
 62
     7
370
    13
100
AcDbPolyline
 90
       10
 70
   128
 43
0.0
 10
130.783594
 20
-7.543594
 10
130.783594
 20
-7.508375
 10
130.989354
 20
-7.491115
 10
131.084646
 20
-7.444167
 10
131.084646
 20
-7.49526
 10
131.55899
 20
-7.49526
 10
131.558292
 20
-7.449
 10
131.648063
 20
-7.501469
 10
131.855198
 20
-7.508375
 10
131.857958
 20
-7.544969
  0
LINE
  5
264
330
504
100
AcDbEntity
  8
Level 1
  6
Continuous
 62
     7
370
    13
100
AcDbLine
 10
131.207542
 20
-7.063021
 30
0.0
 11
131.230333
 21
-7.036104
 31
0.0
  0
LWPOLYLINE
  5
265
330
504
100
AcDbEntity
  8
Level 1
  6
Continuous
 62
     7
370
    13
100
AcDbPolyline
 90
        3
 70
   128
 43
0.0
 10
130.5005
 20
-6.921479
 10
130.977615
 20
-6.921479
 10
130.979
 20
-6.92424
  0
LINE
  5
266
330
504
100
AcDbEntity
  8
Level 1
  6
Continuous
 62
     7
370
    13
100
AcDbLine
 10
131.131594
 20
-6.224802
 30
0.0
 11
131.131594
 21
-6.389135
 31
0.0
  0
LINE
  5
267
330
504
100
AcDbEntity
  8
Level 1
  6
Continuous
 62
     7
370
    13
100
AcDbLine
 10
130.967271
 20
-6.320781
 30
0.0
 11
135.47324
 21
-6.320781
 31
0.0
  0
LINE
  5
26C
330
504
100
AcDbEntity
  8
Level 1
  6
Continuous
 62
     7
370
    13
100
AcDbLine
 10
131.125375
 20
-5.680719
 30
0.0
 11
132.21424
 21
-5.680719
 31
0.0
  0
LINE
  5
26D
330
504
100
AcDbEntity
  8
Level 1
  6
Continuous
 62
     7
370
    13
100
AcDbLine
 10
134.191042
 20
-5.676573
 30
0.0
 11
135.260573
 21
-5.676573
 31
0.0
  0
LWPOLYLINE
  5
26E
330
504
100
AcDbEntity
  8
Level 1
  6
Continuous
 62
     7
370
    13
100
AcDbPolyline
 90
        5
 70
   128
 43
0.0
 10
131.126073
 20
-5.681406
 10
131.126073
 20
-5.681406
 10
131.245521
 20
-5.701437
 10
131.244833
 20
-5.66
 10
131.126073
 20
-5.681406
  0
LWPOLYLINE
  5
26F
330
504
100
AcDbEntity
  8
Level 1
  6
Continuous
 62
     7
370
    13
100
AcDbPolyline
 90
        5
 70
   128
 43
0.0
 10
131.304906
 20
-6.319396
 10
131.304906
 20
-6.319396
 10
131.423656
 20
-6.339417
 10
131.423656
 20
-6.298687
 10
131.304906
 20
-6.319396
  0
LWPOLYLINE
  5
270
330
504
100
AcDbEntity
  8
Level 1
  6
Continuous
 62
     7
370
    13
100
AcDbPolyline
 90
        5
 70
   128
 43
0.0
 10
131.139875
 20
-6.320781
 10
131.139875
 20
-6.320781
 10
131.021115
 20
-6.301437
 10
131.021115
 20
-6.342187
 10
131.139875
 20
-6.320781
  0
LWPOLYLINE
  5
271
330
504
100
AcDbEntity
  8
Level 1
  6
Continuous
 62
     7
370
    13
100
AcDbPolyline
 90
        5
 70
   128
 43
0.0
 10
135.252281
 20
-5.675885
 10
135.252281
 20
-5.675885
 10
135.132833
 20
-5.655854
 10
135.133531
 20
-5.696604
 10
135.252281
 20
-5.675885
  0
LWPOLYLINE
  5
272
330
504
100
AcDbEntity
  8
Level 1
  6
Continuous
 62
     7
370
    13
100
AcDbPolyline
 90
        5
 70
   128
 43
0.0
 10
135.274385
 20
-6.321469
 10
135.274385
 20
-6.321469
 10
135.393146
 20
-6.340802
 10
135.393146
 20
-6.300063
 10
135.274385
 20
-6.321469
  0
LWPOLYLINE
  5
273
330
504
100
AcDbEntity
  8
Level 1
  6
Continuous
 62
     7
370
    13
100
AcDbPolyline
 90
        5
 70
   128
 43
0.0
 10
135.07
 20
-6.318708
 10
135.07
 20
-6.318708
 10
134.95124
 20
-6.298687
 10
134.951927
 20
-6.340115
 10
135.07
 20
-6.318708
  0
LWPOLYLINE
  5
274
330
504
100
AcDbEntity
  8
Level 1
  6
Continuous
 62
     7
370
    13
100
AcDbPolyline
 90
        5
 70
   128
 43
0.0
 10
131.062552
 20
-5.242271
 10
131.062552
 20
-5.656552
 10
131.135042
 20
-5.742167
 10
131.311115
 20
-6.204083
 10
131.311115
 20
-6.388448
  0
LINE
  5
275
330
504
100
AcDbEntity
  8
Level 1
  6
Continuous
 62
     7
370
    13
100
AcDbLine
 10
131.07774
 20
-5.748375
 30
0.0
 11
130.926521
 21
-5.748375
 31
0.0
  0
LINE
  5
276
330
504
100
AcDbEntity
  8
Level 1
  6
Continuous
 62
     7
370
    13
100
AcDbLine
 10
131.077042
 20
-6.205469
 30
0.0
 11
130.926521
 21
-6.205469
 31
0.0
  0
LINE
  5
277
330
504
100
AcDbEntity
  8
Level 1
  6
Continuous
 62
     7
370
    13
100
AcDbLine
 10
130.969333
 20
-6.204781
 30
0.0
 11
130.969333
 21
-5.747
 31
0.0
  0
LWPOLYLINE
  5
279
330
504
100
AcDbEntity
  8
Level 1
  6
Continuous
 62
     7
370
    13
100
AcDbPolyline
 90
        5
 70
   128
 43
0.0
 10
130.971406
 20
-5.747
 10
130.971406
 20
-5.747
 10
130.952073
 20
-5.86576
 10
130.992812
 20
-5.86576
 10
130.971406
 20
-5.747
  0
LWPOLYLINE
  5
27A
330
504
100
AcDbEntity
  8
Level 1
  6
Continuous
 62
     7
370
    13
100
AcDbPolyline
 90
        5
 70
   128
 43
0.0
 10
130.969333
 20
-6.20201
 10
130.969333
 20
-6.20201
 10
130.989354
 20
-6.082573
 10
130.947927
 20
-6.08326
 10
130.969333
 20
-6.20201
  0
LINE
  5
27B
330
504
100
AcDbEntity
  8
Level 1
  6
Continuous
 62
     7
370
    13
100
AcDbLine
 10
131.132281
 20
-3.433948
 30
0.0
 11
131.184073
 21
-3.179854
 31
0.0
  0
LINE
  5
27C
330
504
100
AcDbEntity
  8
Level 1
  6
Continuous
 62
     7
370
    13
100
AcDbLine
 10
135.248833
 20
-3.427729
 30
0.0
 11
135.172188
 21
-3.178479
 31
0.0
  0
LINE
  5
27D
330
504
100
AcDbEntity
  8
Level 1
  6
Continuous
 62
     7
370
    13
100
AcDbLine
 10
133.20299
 20
-3.175719
 30
0.0
 11
133.20299
 21
-4.304625
 31
0.0
  0
LINE
  5
27E
330
504
100
AcDbEntity
  8
Level 1
  6
Continuous
 62
     7
370
    13
100
AcDbLine
 10
133.20575
 20
-4.369521
 30
0.0
 11
133.20575
 21
-4.426146
 31
0.0
  0
LINE
  5
27F
330
504
100
AcDbEntity
  8
Level 1
  6
Continuous
 62
     7
370
    13
100
AcDbLine
 10
133.207823
 20
-4.535229
 30
0.0
 11
133.207823
 21
-5.472198
 31
0.0
  0
LWPOLYLINE
  5
281
330
504
100
AcDbEntity
  8
Level 1
  6
Continuous
 62
     7
370
    13
100
AcDbPolyline
 90
        3
 70
   128
 43
0.0
 10
135.286125
 20
-3.502302
 10
135.774969
 20
-3.120479
 10
135.670021
 20
-3.120479
  0
LWPOLYLINE
  5
282
330
504
100
AcDbEntity
  8
Level 1
  6
Continuous
 62
     7
370
    13
100
AcDbPolyline
 90
        5
 70
   128
 43
0.0
 10
135.2875
 20
-3.502302
 10
135.2875
 20
-3.502302
 10
135.388312
 20
-3.402875
 10
135.401427
 20
-3.433948
 10
135.2875
 20
-3.502302
  0
LWPOLYLINE
  5
283
330
504
100
AcDbEntity
  8
Level 1
  6
Continuous
 62
     7
370
    13
100
AcDbPolyline
 90
        3
 70
   128
 43
0.0
 10
130.813979
 20
-3.400802
 10
130.880958
 20
-3.400802
 10
131.096385
 20
-3.489177
  0
LWPOLYLINE
  5
284
330
504
100
AcDbEntity
  8
Level 1
  6
Continuous
 62
     7
370
    13
100
AcDbPolyline
 90
        5
 70
   128
 43
0.0
 10
131.09776
 20
-3.491937
 10
131.097073
 20
-3.491937
 10
131.002479
 20
-3.46225
 10
131.012833
 20
-3.439469
 10
131.09776
 20
-3.491937
  0
LWPOLYLINE
  5
289
330
504
100
AcDbEntity
  8
Level 1
  6
Continuous
 62
     7
370
    13
100
AcDbPolyline
 90
        3
 70
   128
 43
0.0
 10
131.198573
 20
-8.369385
 10
131.271062
 20
-8.369385
 10
131.389135
 20
-8.740854
  0
LWPOLYLINE
  5
28A
330
504
100
AcDbEntity
  8
Level 1
  6
Continuous
 62
     7
370
    13
100
AcDbPolyline
 90
        5
 70
   128
 43
0.0
 10
131.418833
 20
-8.793333
 10
131.388448
 20
-8.688375
 10
131.353927
 20
-8.70426
 10
131.353927
 20
-8.703573
 10
131.418833
 20
-8.793333
  0
LINE
  5
28B
330
504
100
AcDbEntity
  8
Level 1
  6
Continuous
 62
     7
370
    13
100
AcDbLine
 10
130.29475
 20
-7.540833
 30
0.0
 11
130.780833
 21
-7.540833
 31
0.0
  0
LINE
  5
28C
330
504
100
AcDbEntity
  8
Level 1
  6
Continuous
 62
     7
370
    13
100
AcDbLine
 10
130.781531
 20
-7.540833
 30
0.0
 11
131.855896
 21
-7.540833
 31
0.0
  0
LINE
  5
28D
330
504
100
AcDbEntity
  8
Level 1
  6
Continuous
 62
     7
370
    13
100
AcDbLine
 10
131.855896
 20
-7.540833
 30
0.0
 11
132.29226
 21
-7.540833
 31
0.0
  0
LINE
  5
28E
330
504
100
AcDbEntity
  8
Level 1
  6
Continuous
 62
     7
370
    13
100
AcDbLine
 10
131.760604
 20
-9.001854
 30
0.0
 11
132.114812
 21
-9.001854
 31
0.0
  0
LINE
  5
28F
330
504
100
AcDbEntity
  8
Level 1
  6
Continuous
 62
     7
370
    13
100
AcDbLine
 10
132.114812
 20
-9.001854
 30
0.0
 11
132.138979
 21
-9.001854
 31
0.0
  0
LINE
  5
290
330
504
100
AcDbEntity
  8
Level 1
  6
Continuous
 62
     7
370
    13
100
AcDbLine
 10
132.111354
 20
-8.801615
 30
0.0
 11
132.304
 21
-8.801615
 31
0.0
  0
LINE
  5
291
330
504
100
AcDbEntity
  8
Level 1
  6
Continuous
 62
     7
370
    13
100
AcDbLine
 10
132.487667
 20
-8.800927
 30
0.0
 11
132.578802
 21
-8.800927
 31
0.0
  0
LWPOLYLINE
  5
292
330
504
100
AcDbEntity
  8
Level 1
  6
Continuous
 62
     7
370
    13
100
AcDbPolyline
 90
        5
 70
   128
 43
0.0
 10
134.296
 20
-9.001854
 10
134.720625
 20
-9.001854
 10
134.720625
 20
-9.186896
 10
131.760604
 20
-9.186896
 10
131.760604
 20
-9.001854
  0
LINE
  5
293
330
504
100
AcDbEntity
  8
Level 1
  6
Continuous
 62
     7
370
    13
100
AcDbLine
 10
132.138979
 20
-9.001854
 30
0.0
 11
134.251115
 21
-9.001854
 31
0.0
  0
LINE
  5
294
330
504
100
AcDbEntity
  8
Level 1
  6
Continuous
 62
     7
370
    13
100
AcDbLine
 10
134.251802
 20
-9.001854
 30
0.0
 11
134.296
 21
-9.001854
 31
0.0
  0
LINE
  5
295
330
504
100
AcDbEntity
  8
Level 1
  6
Continuous
 62
     7
370
    13
100
AcDbLine
 10
134.145479
 20
-8.798167
 30
0.0
 11
134.296677
 21
-8.798167
 31
0.0
  0
LINE
  5
296
330
504
100
AcDbEntity
  8
Level 1
  6
Continuous
 62
     7
370
    13
100
AcDbLine
 10
132.578802
 20
-8.800927
 30
0.0
 11
133.862385
 21
-8.800927
 31
0.0
  0
LINE
  5
297
330
504
100
AcDbEntity
  8
Level 1
  6
Continuous
 62
     7
370
    13
100
AcDbLine
 10
133.862385
 20
-8.800927
 30
0.0
 11
133.9625
 21
-8.800927
 31
0.0
  0
LWPOLYLINE
  5
298
330
504
100
AcDbEntity
  8
Level 1
  6
Continuous
 62
     7
370
    13
100
AcDbPolyline
 90
        8
 70
   128
 43
0.0
 10
131.103979
 20
-7.435875
 10
131.103979
 20
-7.482135
 10
131.541729
 20
-7.482135
 10
131.541729
 20
-7.446927
 10
131.390521
 20
-7.400667
 10
131.362208
 20
-7.379948
 10
131.344948
 20
-7.346115
 10
131.342875
 20
-7.081667
  0
LWPOLYLINE
  5
299
330
504
100
AcDbEntity
  8
Level 1
  6
Continuous
 62
     7
370
    13
100
AcDbPolyline
 90
        8
 70
   128
 43
0.0
 10
131.264854
 20
-7.054052
 10
131.278656
 20
-7.060271
 10
131.284875
 20
-7.066479
 10
131.291094
 20
-7.072687
 10
131.295229
 20
-7.080292
 10
131.299375
 20
-7.087885
 10
131.301448
 20
-7.097552
 10
131.304208
 20
-7.107906
  0
LWPOLYLINE
  5
29A
330
504
100
AcDbEntity
  8
Level 1
  6
Continuous
 62
     7
370
    13
100
AcDbPolyline
 90
        8
 70
   128
 43
0.0
 10
131.373948
 20
-7.055438
 10
131.367042
 20
-7.063021
 10
131.360833
 20
-7.067854
 10
131.358062
 20
-7.072687
 10
131.351854
 20
-7.080292
 10
131.347708
 20
-7.087885
 10
131.34426
 20
-7.097552
 10
131.343562
 20
-7.109281
  0
LWPOLYLINE
  5
29B
330
504
100
AcDbEntity
  8
Level 1
  6
Continuous
 62
     7
370
    13
100
AcDbPolyline
 90
        4
 70
   128
 43
0.0
 10
131.369115
 20
-7.058187
 10
131.369802
 20
-7.05751
 10
131.420208
 20
-7.038865
 10
131.41951
 20
-7.03126
  0
LWPOLYLINE
  5
29C
330
504
100
AcDbEntity
  8
Level 1
  6
Continuous
 62
     7
370
    13
100
AcDbPolyline
 90
        9
 70
   128
 43
0.0
 10
131.420208
 20
-7.031958
 10
131.421583
 20
-6.960844
 10
131.406396
 20
-6.933219
 10
131.376708
 20
-6.917333
 10
131.249667
 20
-6.918719
 10
131.218594
 20
-6.933219
 10
131.207542
 20
-6.959458
 10
131.213073
 20
-7.038865
 10
131.266917
 20
-7.05474
  0
LWPOLYLINE
  5
29D
330
504
100
AcDbEntity
  8
Level 1
  6
Continuous
 62
     7
370
    13
100
AcDbPolyline
 90
        5
 70
   128
 43
0.0
 10
131.304906
 20
-7.107906
 10
131.304906
 20
-7.346115
 10
131.277969
 20
-7.37926
 10
131.236542
 20
-7.401354
 10
131.102594
 20
-7.433115
  0
LWPOLYLINE
  5
29E
330
504
100
AcDbEntity
  8
Level 1
  6
Continuous
 62
     7
370
    13
100
AcDbPolyline
 90
        3
 70
   128
 43
0.0
 10
134.03224
 20
-5.838833
 10
134.098521
 20
-5.838833
 10
134.396802
 20
-5.751146
  0
LWPOLYLINE
  5
29F
330
504
100
AcDbEntity
  8
Level 1
  6
Continuous
 62
     7
370
    13
100
AcDbPolyline
 90
        5
 70
   128
 43
0.0
 10
134.395427
 20
-5.749073
 10
134.284937
 20
-5.770479
 10
134.304969
 20
-5.792573
 10
134.302906
 20
-5.792573
 10
134.395427
 20
-5.749073
  0
LWPOLYLINE
  5
2A0
330
504
100
AcDbEntity
  8
Level 1
  6
Continuous
 62
     7
370
    13
100
AcDbPolyline
 90
        5
 70
   128
 43
0.0
 10
134.544562
 20
-7.416552
 10
135.248135
 20
-7.416552
 10
135.602354
 20
-7.547729
 10
135.602354
 20
-7.618167
 10
134.543177
 20
-7.618167
  0
LINE
  5
2A1
330
504
100
AcDbEntity
  8
Level 1
  6
Continuous
 62
     7
370
    13
100
AcDbLine
 10
134.544562
 20
-7.288812
 30
0.0
 11
134.544562
 21
-7.466948
 31
0.0
  0
LWPOLYLINE
  5
2A2
330
504
100
AcDbEntity
  8
Level 1
  6
Continuous
 62
     7
370
    13
100
AcDbPolyline
 90
        6
 70
   128
 43
0.0
 10
134.552156
 20
-7.465562
 10
134.492083
 20
-7.498021
 10
134.638469
 20
-7.518042
 10
134.453427
 20
-7.541521
 10
134.590823
 20
-7.556708
 10
134.541792
 20
-7.576042
  0
LINE
  5
2A3
330
504
100
AcDbEntity
  8
Level 1
  6
Continuous
 62
     7
370
    13
100
AcDbLine
 10
134.544562
 20
-7.58226
 30
0.0
 11
134.544562
 21
-7.750729
 31
0.0
  0
LINE
  5
2A4
330
504
100
AcDbEntity
  8
Level 1
  6
Continuous
 62
     7
370
    13
100
AcDbLine
 10
135.26126
 20
-7.368896
 30
0.0
 11
135.292333
 21
-7.263958
 31
0.0
  0
LINE
  5
2A5
330
504
100
AcDbEntity
  8
Level 1
  6
Continuous
 62
     7
370
    13
100
AcDbLine
 10
135.62099
 20
-7.498708
 30
0.0
 11
135.652062
 21
-7.393073
 31
0.0
  0
LINE
  5
2A6
330
504
100
AcDbEntity
  8
Level 1
  6
Continuous
 62
     7
370
    13
100
AcDbLine
 10
135.660344
 20
-7.557406
 30
0.0
 11
135.790156
 21
-7.557406
 31
0.0
  0
LINE
  5
2A7
330
504
100
AcDbEntity
  8
Level 1
  6
Continuous
 62
     7
370
    13
100
AcDbLine
 10
135.660344
 20
-7.62024
 30
0.0
 11
135.790156
 21
-7.62024
 31
0.0
  0
LINE
  5
2A8
330
504
100
AcDbEntity
  8
Level 1
  6
Continuous
 62
     7
370
    13
100
AcDbLine
 10
135.286125
 20
-7.29226
 30
0.0
 11
135.643094
 21
-7.428969
 31
0.0
  0
LINE
  5
2A9
330
504
100
AcDbEntity
  8
Level 1
  6
Continuous
 62
     7
370
    13
100
AcDbLine
 10
135.752177
 20
-7.45175
 30
0.0
 11
135.752177
 21
-7.558781
 31
0.0
  0
LINE
  5
2AA
330
504
100
AcDbEntity
  8
Level 1
  6
Continuous
 62
     7
370
    13
100
AcDbLine
 10
135.752177
 20
-7.621615
 30
0.0
 11
135.752177
 21
-7.747969
 31
0.0
  0
LWPOLYLINE
  5
2AB
330
504
100
AcDbEntity
  8
Level 1
  6
Continuous
 62
     7
370
    13
100
AcDbPolyline
 90
        5
 70
   128
 43
0.0
 10
135.286812
 20
-7.294333
 10
135.286812
 20
-7.293646
 10
135.351021
 20
-7.330927
 10
135.361375
 20
-7.308833
 10
135.286812
 20
-7.294333
  0
LWPOLYLINE
  5
2AC
330
504
100
AcDbEntity
  8
Level 1
  6
Continuous
 62
     7
370
    13
100
AcDbPolyline
 90
        5
 70
   128
 43
0.0
 10
135.641021
 20
-7.427594
 10
135.641021
 20
-7.427594
 10
135.578187
 20
-7.411719
 10
135.588542
 20
-7.39376
 10
135.641021
 20
-7.427594
  0
LWPOLYLINE
  5
2AD
330
504
100
AcDbEntity
  8
Level 1
  6
Continuous
 62
     7
370
    13
100
AcDbPolyline
 90
        5
 70
   128
 43
0.0
 10
135.75426
 20
-7.558781
 10
135.75426
 20
-7.558781
 10
135.742521
 20
-7.501469
 10
135.76599
 20
-7.502167
 10
135.75426
 20
-7.558781
  0
LWPOLYLINE
  5
2AE
330
504
100
AcDbEntity
  8
Level 1
  6
Continuous
 62
     7
370
    13
100
AcDbPolyline
 90
        5
 70
   128
 43
0.0
 10
135.753562
 20
-7.619542
 10
135.753562
 20
-7.619542
 10
135.740448
 20
-7.68099
 10
135.766677
 20
-7.68099
 10
135.753562
 20
-7.619542
  0
LWPOLYLINE
  5
2B2
330
504
100
AcDbEntity
  8
Level 1
  6
Continuous
 62
     7
370
    13
100
AcDbPolyline
 90
        3
 70
   128
 43
0.0
 10
135.172885
 20
-7.11551
 10
135.253667
 20
-7.11551
 10
134.857344
 20
-7.417229
  0
LWPOLYLINE
  5
2B3
330
504
100
AcDbEntity
  8
Level 1
  6
Continuous
 62
     7
370
    13
100
AcDbPolyline
 90
        3
 70
   128
 43
0.0
 10
135.658281
 20
-7.179021
 10
135.600969
 20
-7.179021
 10
135.476687
 20
-7.365458
  0
LWPOLYLINE
  5
2B4
330
504
100
AcDbEntity
  8
Level 1
  6
Continuous
 62
     7
370
    13
100
AcDbPolyline
 90
        5
 70
   128
 43
0.0
 10
134.855958
 20
-7.418615
 10
134.855958
 20
-7.418615
 10
134.937427
 20
-7.371667
 10
134.918104
 20
-7.35026
 10
134.855958
 20
-7.418615
  0
LWPOLYLINE
  5
2B5
330
504
100
AcDbEntity
  8
Level 1
  6
Continuous
 62
     7
370
    13
100
AcDbPolyline
 90
        4
 70
   128
 43
0.0
 10
130.997646
 20
-7.02574
 10
131.00524
 20
-7.046458
 10
131.017667
 20
-7.058187
 10
131.041146
 20
-7.063719
  0
LINE
  5
2B6
330
504
100
AcDbEntity
  8
Level 1
  6
Continuous
 62
     7
370
    13
100
AcDbLine
 10
131.070135
 20
-7.062344
 30
0.0
 11
131.206167
 21
-7.062344
 31
0.0
  0
LWPOLYLINE
  5
2B7
330
504
100
AcDbEntity
  8
Level 1
  6
Continuous
 62
     7
370
    13
100
AcDbPolyline
 90
        5
 70
   128
 43
0.0
 10
130.94724
 20
-6.920792
 10
130.966573
 20
-6.921479
 10
130.989354
 20
-6.931146
 10
130.998333
 20
-6.957385
 10
130.998333
 20
-7.034031
  0
LINE
  5
2B8
330
504
100
AcDbEntity
  8
Level 1
  6
Continuous
 62
     7
370
    13
100
AcDbLine
 10
131.040448
 20
-7.062344
 30
0.0
 11
131.075667
 21
-7.062344
 31
0.0
  0
LINE
  5
2B9
330
504
100
AcDbEntity
  8
Level 1
  6
Continuous
 62
     7
370
    13
100
AcDbLine
 10
131.211687
 20
-6.869698
 30
0.0
 11
131.211687
 21
-6.754396
 31
0.0
  0
LINE
  5
2BA
330
504
100
AcDbEntity
  8
Level 1
  6
Continuous
 62
     7
370
    13
100
AcDbLine
 10
130.970708
 20
-6.875906
 30
0.0
 11
130.970708
 21
-6.752323
 31
0.0
  0
LINE
  5
2BB
330
504
100
AcDbEntity
  8
Level 1
  6
Continuous
 62
     7
370
    13
100
AcDbLine
 10
131.414677
 20
-6.874531
 30
0.0
 11
131.414677
 21
-6.748167
 31
0.0
  0
LINE
  5
2BC
330
504
100
AcDbEntity
  8
Level 1
  6
Continuous
 62
     7
370
    13
100
AcDbLine
 10
131.597656
 20
-6.873844
 30
0.0
 11
131.597656
 21
-6.74749
 31
0.0
  0
LINE
  5
2BD
330
504
100
AcDbEntity
  8
Level 1
  6
Continuous
 62
     7
370
    13
100
AcDbLine
 10
131.018365
 20
-6.920792
 30
0.0
 11
131.179927
 21
-6.920792
 31
0.0
  0
LINE
  5
2BE
330
504
100
AcDbEntity
  8
Level 1
  6
Continuous
 62
     7
370
    13
100
AcDbLine
 10
130.997646
 20
-7.071312
 30
0.0
 11
130.997646
 21
-7.143813
 31
0.0
  0
LINE
  5
2BF
330
504
100
AcDbEntity
  8
Level 1
  6
Continuous
 62
     7
370
    13
100
AcDbLine
 10
131.211687
 20
-7.07476
 30
0.0
 11
131.211687
 21
-7.142427
 31
0.0
  0
LINE
  5
2C0
330
504
100
AcDbEntity
  8
Level 1
  6
Continuous
 62
     7
370
    13
100
AcDbLine
 10
131.429177
 20
-6.921479
 30
0.0
 11
131.567271
 21
-6.921479
 31
0.0
  0
LINE
  5
2C1
330
504
100
AcDbEntity
  8
Level 1
  6
Continuous
 62
     7
370
    13
100
AcDbLine
 10
131.505823
 20
-6.846219
 30
0.0
 11
131.505823
 21
-6.922167
 31
0.0
  0
LINE
  5
2C2
330
504
100
AcDbEntity
  8
Level 1
  6
Continuous
 62
     7
370
    13
100
AcDbLine
 10
131.508594
 20
-6.957385
 30
0.0
 11
131.508594
 21
-7.051979
 31
0.0
  0
LINE
  5
2C3
330
504
100
AcDbEntity
  8
Level 1
  6
Continuous
 62
     7
370
    13
100
AcDbLine
 10
130.970021
 20
-6.778552
 30
0.0
 11
131.210312
 21
-6.778552
 31
0.0
  0
LINE
  5
2C4
330
504
100
AcDbEntity
  8
Level 1
  6
Continuous
 62
     7
370
    13
100
AcDbLine
 10
131.414677
 20
-6.778552
 30
0.0
 11
131.597656
 21
-6.778552
 31
0.0
  0
LINE
  5
2C5
330
504
100
AcDbEntity
  8
Level 1
  6
Continuous
 62
     7
370
    13
100
AcDbLine
 10
131.145406
 20
-6.920792
 30
0.0
 11
131.145406
 21
-7.058885
 31
0.0
  0
LINE
  5
2C6
330
504
100
AcDbEntity
  8
Level 1
  6
Continuous
 62
     7
370
    13
100
AcDbLine
 10
130.997646
 20
-7.13276
 30
0.0
 11
131.213073
 21
-7.13276
 31
0.0
  0
LWPOLYLINE
  5
2C7
330
504
100
AcDbEntity
  8
Level 1
  6
Continuous
 62
     7
370
    13
100
AcDbPolyline
 90
        5
 70
   128
 43
0.0
 10
131.507198
 20
-6.921479
 10
131.514802
 20
-6.873146
 10
131.496156
 20
-6.871771
 10
131.494781
 20
-6.871771
 10
131.507198
 20
-6.921479
  0
LWPOLYLINE
  5
2C8
330
504
100
AcDbEntity
  8
Level 1
  6
Continuous
 62
     7
370
    13
100
AcDbPolyline
 90
        5
 70
   128
 43
0.0
 10
131.507198
 20
-6.95325
 10
131.506521
 20
-6.953937
 10
131.498229
 20
-7.012625
 10
131.516188
 20
-7.011927
 10
131.507198
 20
-6.95325
  0
LWPOLYLINE
  5
2C9
330
504
100
AcDbEntity
  8
Level 1
  6
Continuous
 62
     7
370
    13
100
AcDbPolyline
 90
        5
 70
   128
 43
0.0
 10
131.414677
 20
-6.779937
 10
131.414677
 20
-6.779937
 10
131.45749
 20
-6.786156
 10
131.45749
 20
-6.770958
 10
131.414677
 20
-6.779937
  0
LWPOLYLINE
  5
2CA
330
504
100
AcDbEntity
  8
Level 1
  6
Continuous
 62
     7
370
    13
100
AcDbPolyline
 90
        5
 70
   128
 43
0.0
 10
131.597656
 20
-6.779937
 10
131.597656
 20
-6.779937
 10
131.547948
 20
-6.784083
 10
131.547948
 20
-6.769583
 10
131.597656
 20
-6.779937
  0
LWPOLYLINE
  5
2CB
330
504
100
AcDbEntity
  8
Level 1
  6
Continuous
 62
     7
370
    13
100
AcDbPolyline
 90
        5
 70
   128
 43
0.0
 10
130.970021
 20
-6.778552
 10
130.970021
 20
-6.778552
 10
131.016969
 20
-6.789604
 10
131.01974
 20
-6.768885
 10
130.970021
 20
-6.778552
  0
LWPOLYLINE
  5
2CC
330
504
100
AcDbEntity
  8
Level 1
  6
Continuous
 62
     7
370
    13
100
AcDbPolyline
 90
        5
 70
   128
 43
0.0
 10
131.211687
 20
-6.778552
 10
131.211687
 20
-6.778552
 10
131.157823
 20
-6.788219
 10
131.159219
 20
-6.765437
 10
131.211687
 20
-6.778552
  0
LWPOLYLINE
  5
2CD
330
504
100
AcDbEntity
  8
Level 1
  6
Continuous
 62
     7
370
    13
100
AcDbPolyline
 90
        5
 70
   128
 43
0.0
 10
131.145406
 20
-6.922167
 10
131.145406
 20
-6.922167
 10
131.139187
 20
-6.95601
 10
131.153687
 20
-6.958083
 10
131.145406
 20
-6.922167
  0
LWPOLYLINE
  5
2CE
330
504
100
AcDbEntity
  8
Level 1
  6
Continuous
 62
     7
370
    13
100
AcDbPolyline
 90
        5
 70
   128
 43
0.0
 10
131.146781
 20
-7.059573
 10
131.146781
 20
-7.058187
 10
131.140573
 20
-7.02574
 10
131.152312
 20
-7.02574
 10
131.146781
 20
-7.059573
  0
LWPOLYLINE
  5
2CF
330
504
100
AcDbEntity
  8
Level 1
  6
Continuous
 62
     7
370
    13
100
AcDbPolyline
 90
        5
 70
   128
 43
0.0
 10
130.997646
 20
-7.133458
 10
130.997646
 20
-7.133458
 10
131.040448
 20
-7.142427
 10
131.041833
 20
-7.126552
 10
130.997646
 20
-7.133458
  0
LWPOLYLINE
  5
2D0
330
504
100
AcDbEntity
  8
Level 1
  6
Continuous
 62
     7
370
    13
100
AcDbPolyline
 90
        5
 70
   128
 43
0.0
 10
131.212375
 20
-7.134833
 10
131.212375
 20
-7.134833
 10
131.17026
 20
-7.143813
 10
131.170948
 20
-7.123792
 10
131.212375
 20
-7.134833
  0
LINE
  5
2D1
330
504
100
AcDbEntity
  8
Level 1
  6
Continuous
 62
     7
370
    13
100
AcDbLine
 10
130.878885
 20
-7.063021
 30
0.0
 11
130.464604
 21
-7.063021
 31
0.0
  0
CIRCLE
  5
2D2
330
504
100
AcDbEntity
  8
Level 1
  6
Continuous
 62
     7
370
    13
100
AcDbCircle
 10
130.78933
 20
-7.070691
 30
0.0
 40
0.0086308069544271
  0
CIRCLE
  5
2D3
330
504
100
AcDbEntity
  8
Level 1
  6
Continuous
 62
     7
370
    13
100
AcDbCircle
 10
130.547667
 20
-7.070691
 30
0.0
 40
0.0086308069544271
  0
LINE
  5
2D4
330
504
100
AcDbEntity
  8
Level 1
  6
Continuous
 62
     7
370
    13
100
AcDbLine
 10
130.878885
 20
-7.060948
 30
0.0
 11
130.464604
 21
-7.060948
 31
0.0
  0
LINE
  5
2D5
330
504
100
AcDbEntity
  8
Level 1
  6
Continuous
 62
     7
370
    13
100
AcDbLine
 10
132.12725
 20
-7.060948
 30
0.0
 11
131.712969
 21
-7.060948
 31
0.0
  0
CIRCLE
  5
2D6
330
504
100
AcDbEntity
  8
Level 1
  6
Continuous
 62
     7
370
    13
100
AcDbCircle
 10
131.796442
 20
-7.070691
 30
0.0
 40
0.0086308069544271
  0
CIRCLE
  5
2D7
330
504
100
AcDbEntity
  8
Level 1
  6
Continuous
 62
     7
370
    13
100
AcDbCircle
 10
132.038104
 20
-7.070691
 30
0.0
 40
0.0086308069544271
  0
LINE
  5
2D8
330
504
100
AcDbEntity
  8
Level 1
  6
Continuous
 62
     7
370
    13
100
AcDbLine
 10
132.12725
 20
-7.063021
 30
0.0
 11
131.712969
 21
-7.063021
 31
0.0
  0
LWPOLYLINE
  5
2DF
330
504
100
AcDbEntity
  8
Level 1
  6
Continuous
 62
     7
370
    13
100
AcDbPolyline
 90
        3
 70
   128
 43
0.0
 10
130.753219
 20
-6.70399
 10
130.841594
 20
-6.70399
 10
130.681406
 20
-7.063021
  0
LWPOLYLINE
  5
2E0
330
504
100
AcDbEntity
  8
Level 1
  6
Continuous
 62
     7
370
    13
100
AcDbPolyline
 90
        3
 70
   128
 43
0.0
 10
131.032854
 20
-7.305385
 10
131.102594
 20
-7.305385
 10
131.101219
 20
-7.133458
  0
LWPOLYLINE
  5
2E4
330
504
100
AcDbEntity
  8
Level 1
  6
Continuous
 62
     7
370
    13
100
AcDbPolyline
 90
        3
 70
   128
 43
0.0
 10
131.275896
 20
-6.981552
 10
131.418833
 20
-6.643229
 10
131.670156
 20
-6.643229
  0
LWPOLYLINE
  5
2E6
330
504
100
AcDbEntity
  8
Level 1
  6
Continuous
 62
     7
370
    13
100
AcDbPolyline
 90
        5
 70
   128
 43
0.0
 10
131.277969
 20
-6.980167
 10
131.277969
 20
-6.980167
 10
131.324917
 20
-6.909052
 10
131.300062
 20
-6.901458
 10
131.277969
 20
-6.980167
  0
LWPOLYLINE
  5
2E7
330
504
100
AcDbEntity
  8
Level 1
  6
Continuous
 62
     7
370
    13
100
AcDbPolyline
 90
        5
 70
   128
 43
0.0
 10
130.682104
 20
-7.065792
 10
130.682104
 20
-7.065792
 10
130.722833
 20
-6.993292
 10
130.697292
 20
-6.983625
 10
130.682104
 20
-7.065792
  0
LWPOLYLINE
  5
2E8
330
504
100
AcDbEntity
  8
Level 1
  6
Continuous
 62
     7
370
    13
100
AcDbPolyline
 90
        4
 70
   128
 43
0.0
 10
130.503271
 20
-7.208031
 10
130.522604
 20
-7.256354
 10
130.54125
 20
-7.209406
 10
130.503271
 20
-7.210094
  0
LWPOLYLINE
  5
2E9
330
504
100
AcDbEntity
  8
Level 1
  6
Continuous
 62
     7
370
    13
100
AcDbPolyline
 90
        4
 70
   128
 43
0.0
 10
130.64275
 20
-7.132073
 10
130.66276
 20
-7.180406
 10
130.681406
 20
-7.133458
 10
130.64275
 20
-7.134146
  0
LWPOLYLINE
  5
2EA
330
504
100
AcDbEntity
  8
Level 1
  6
Continuous
 62
     7
370
    13
100
AcDbPolyline
 90
        4
 70
   128
 43
0.0
 10
130.814677
 20
-7.125854
 10
130.834
 20
-7.17351
 10
130.852646
 20
-7.12724
 10
130.814677
 20
-7.12724
  0
LWPOLYLINE
  5
2EB
330
504
100
AcDbEntity
  8
Level 1
  6
Continuous
 62
     7
370
    13
100
AcDbPolyline
 90
        4
 70
   128
 43
0.0
 10
130.595104
 20
-7.386854
 10
130.614438
 20
-7.4345
 10
130.633073
 20
-7.38824
 10
130.595104
 20
-7.388927
  0
LWPOLYLINE
  5
2EC
330
504
100
AcDbEntity
  8
Level 1
  6
Continuous
 62
     7
370
    13
100
AcDbPolyline
 90
        4
 70
   128
 43
0.0
 10
130.811219
 20
-7.388927
 10
130.83124
 20
-7.43726
 10
130.849875
 20
-7.390312
 10
130.811219
 20
-7.391
  0
LWPOLYLINE
  5
2ED
330
504
100
AcDbEntity
  8
Level 1
  6
Continuous
 62
     7
370
    13
100
AcDbPolyline
 90
        4
 70
   128
 43
0.0
 10
131.658417
 20
-7.259125
 10
131.67775
 20
-7.30676
 10
131.696396
 20
-7.2605
 10
131.658417
 20
-7.2605
  0
LWPOLYLINE
  5
2EE
330
504
100
AcDbEntity
  8
Level 1
  6
Continuous
 62
     7
370
    13
100
AcDbPolyline
 90
        4
 70
   128
 43
0.0
 10
131.741271
 20
-7.136906
 10
131.760604
 20
-7.18524
 10
131.77925
 20
-7.138292
 10
131.741271
 20
-7.138979
  0
LWPOLYLINE
  5
2EF
330
504
100
AcDbEntity
  8
Level 1
  6
Continuous
 62
     7
370
    13
100
AcDbPolyline
 90
        4
 70
   128
 43
0.0
 10
131.625271
 20
-7.386854
 10
131.644604
 20
-7.435187
 10
131.66325
 20
-7.38824
 10
131.625271
 20
-7.388927
  0
LWPOLYLINE
  5
2F0
330
504
100
AcDbEntity
  8
Level 1
  6
Continuous
 62
     7
370
    13
100
AcDbPolyline
 90
        4
 70
   128
 43
0.0
 10
131.753698
 20
-7.354406
 10
131.773719
 20
-7.40274
 10
131.792365
 20
-7.355781
 10
131.753698
 20
-7.356479
  0
LWPOLYLINE
  5
2F1
330
504
100
AcDbEntity
  8
Level 1
  6
Continuous
 62
     7
370
    13
100
AcDbPolyline
 90
        4
 70
   128
 43
0.0
 10
130.416271
 20
-7.069927
 10
130.436292
 20
-7.11826
 10
130.454937
 20
-7.071312
 10
130.416271
 20
-7.072
  0
LWPOLYLINE
  5
2F2
330
504
100
AcDbEntity
  8
Level 1
  6
Continuous
 62
     7
370
    13
100
AcDbPolyline
 90
        4
 70
   128
 43
0.0
 10
130.482552
 20
-6.975333
 10
130.502573
 20
-7.022979
 10
130.521219
 20
-6.976719
 10
130.482552
 20
-6.977406
  0
LWPOLYLINE
  5
2F3
330
504
100
AcDbEntity
  8
Level 1
  6
Continuous
 62
     7
370
    13
100
AcDbPolyline
 90
        4
 70
   128
 43
0.0
 10
130.409375
 20
-7.435187
 10
130.429385
 20
-7.483521
 10
130.448031
 20
-7.436573
 10
130.409375
 20
-7.43726
  0
LWPOLYLINE
  5
2F4
330
504
100
AcDbEntity
  8
Level 1
  6
Continuous
 62
     7
370
    13
100
AcDbPolyline
 90
        4
 70
   128
 43
0.0
 10
131.452656
 20
-7.327469
 10
131.472
 20
-7.375802
 10
131.490635
 20
-7.328854
 10
131.452656
 20
-7.329542
  0
LWPOLYLINE
  5
2F5
330
504
100
AcDbEntity
  8
Level 1
  6
Continuous
 62
     7
370
    13
100
AcDbPolyline
 90
        4
 70
   128
 43
0.0
 10
131.507896
 20
-7.226667
 10
131.527917
 20
-7.274312
 10
131.546562
 20
-7.228052
 10
131.507896
 20
-7.228052
  0
LWPOLYLINE
  5
2F6
330
504
100
AcDbEntity
  8
Level 1
  6
Continuous
 62
     7
370
    13
100
AcDbPolyline
 90
        4
 70
   128
 43
0.0
 10
131.871771
 20
-6.955312
 10
131.891104
 20
-7.003646
 10
131.90975
 20
-6.956688
 10
131.871771
 20
-6.957385
  0
LWPOLYLINE
  5
2F7
330
504
100
AcDbEntity
  8
Level 1
  6
Continuous
 62
     7
370
    13
100
AcDbPolyline
 90
        4
 70
   128
 43
0.0
 10
132.225979
 20
-7.03126
 10
132.246
 20
-7.079594
 10
132.264646
 20
-7.032646
 10
132.225979
 20
-7.033333
  0
LWPOLYLINE
  5
2F8
330
504
100
AcDbEntity
  8
Level 1
  6
Continuous
 62
     7
370
    13
100
AcDbPolyline
 90
        4
 70
   128
 43
0.0
 10
132.100313
 20
-6.990531
 10
132.119646
 20
-7.038865
 10
132.138292
 20
-6.991906
 10
132.100313
 20
-6.992604
  0
LWPOLYLINE
  5
2F9
330
504
100
AcDbEntity
  8
Level 1
  6
Continuous
 62
     7
370
    13
100
AcDbPolyline
 90
        4
 70
   128
 43
0.0
 10
132.142437
 20
-7.477302
 10
132.162458
 20
-7.524948
 10
132.181094
 20
-7.478687
 10
132.142437
 20
-7.478687
  0
LWPOLYLINE
  5
2FA
330
504
100
AcDbEntity
  8
Level 1
  6
Continuous
 62
     7
370
    13
100
AcDbPolyline
 90
        6
 70
   128
 43
0.0
 10
131.57349
 20
-7.562917
 10
131.57349
 20
-7.448313
 10
131.51826
 20
-7.43174
 10
131.51826
 20
-7.417927
 10
131.601115
 20
-7.417927
 10
131.601115
 20
-7.56224
  0
LWPOLYLINE
  5
2FB
330
504
100
AcDbEntity
  8
Level 1
  6
Continuous
 62
     7
370
    13
100
AcDbPolyline
 90
        6
 70
   128
 43
0.0
 10
131.068073
 20
-7.564302
 10
131.068073
 20
-7.440021
 10
131.132281
 20
-7.418615
 10
131.132281
 20
-7.398594
 10
131.044594
 20
-7.397208
 10
131.044594
 20
-7.564302
  0
LWPOLYLINE
  5
2FC
330
504
100
AcDbEntity
  8
Level 1
  6
Continuous
 62
     7
370
    13
100
AcDbPolyline
 90
        3
 70
   128
 43
0.0
 10
134.071594
 20
-8.925208
 10
133.961813
 20
-8.967333
 10
133.961813
 20
-8.97975
  0
LWPOLYLINE
  5
2FD
330
504
100
AcDbEntity
  8
Level 1
  6
Continuous
 62
     7
370
    13
100
AcDbPolyline
 90
        4
 70
   128
 43
0.0
 10
134.096448
 20
-8.923823
 10
134.211062
 20
-8.965948
 10
134.211062
 20
-8.97975
 10
133.961115
 20
-8.97975
  0
LWPOLYLINE
  5
2FE
330
504
100
AcDbEntity
  8
Level 1
  6
Continuous
 62
     7
370
    13
100
AcDbPolyline
 90
        9
 70
   128
 43
0.0
 10
133.954906
 20
-8.970781
 10
133.954906
 20
-8.985281
 10
134.217281
 20
-8.985281
 10
134.217281
 20
-8.972167
 10
134.249042
 20
-8.986656
 10
134.249042
 20
-8.999781
 10
133.919688
 20
-8.999781
 10
133.919688
 20
-8.985979
 10
133.953521
 20
-8.972167
  0
LINE
  5
2FF
330
504
100
AcDbEntity
  8
Level 1
  6
Continuous
 62
     7
370
    13
100
AcDbLine
 10
134.072281
 20
-8.850635
 30
0.0
 11
134.072281
 21
-8.925906
 31
0.0
  0
LINE
  5
300
330
504
100
AcDbEntity
  8
Level 1
  6
Continuous
 62
     7
370
    13
100
AcDbLine
 10
134.097823
 20
-8.853406
 30
0.0
 11
134.097823
 21
-8.928656
 31
0.0
  0
LWPOLYLINE
  5
301
330
504
100
AcDbEntity
  8
Level 1
  6
Continuous
 62
     7
370
    13
100
AcDbPolyline
 90
       14
 70
   128
 43
0.0
 10
134.097823
 20
-8.859615
 10
134.102656
 20
-8.852708
 10
134.111635
 20
-8.847188
 10
134.116469
 20
-8.840281
 10
134.116469
 20
-8.810594
 10
134.111635
 20
-8.802312
 10
134.100594
 20
-8.795406
 10
134.068833
 20
-8.795406
 10
134.058469
 20
-8.80024
 10
134.056396
 20
-8.811979
 10
134.056396
 20
-8.839594
 10
134.062615
 20
-8.847875
 10
134.068135
 20
-8.850635
 10
134.072281
 20
-8.858927
  0
LWPOLYLINE
  5
302
330
504
100
AcDbEntity
  8
Level 1
  6
Continuous
 62
     7
370
    13
100
AcDbPolyline
 90
       14
 70
   128
 43
0.0
 10
132.379271
 20
-8.859615
 10
132.384104
 20
-8.852708
 10
132.393073
 20
-8.847188
 10
132.397906
 20
-8.840281
 10
132.397906
 20
-8.810594
 10
132.393073
 20
-8.802312
 10
132.382021
 20
-8.795406
 10
132.35026
 20
-8.795406
 10
132.339906
 20
-8.80024
 10
132.337844
 20
-8.811979
 10
132.337844
 20
-8.839594
 10
132.344052
 20
-8.847875
 10
132.349573
 20
-8.850635
 10
132.353719
 20
-8.858927
  0
LINE
  5
303
330
504
100
AcDbEntity
  8
Level 1
  6
Continuous
 62
     7
370
    13
100
AcDbLine
 10
132.379271
 20
-8.853406
 30
0.0
 11
132.379271
 21
-8.928656
 31
0.0
  0
LINE
  5
304
330
504
100
AcDbEntity
  8
Level 1
  6
Continuous
 62
     7
370
    13
100
AcDbLine
 10
132.353719
 20
-8.850635
 30
0.0
 11
132.353719
 21
-8.925906
 31
0.0
  0
LWPOLYLINE
  5
305
330
504
100
AcDbEntity
  8
Level 1
  6
Continuous
 62
     7
370
    13
100
AcDbPolyline
 90
        9
 70
   128
 43
0.0
 10
132.236333
 20
-8.970781
 10
132.236333
 20
-8.985281
 10
132.498708
 20
-8.985281
 10
132.498708
 20
-8.972167
 10
132.530469
 20
-8.986656
 10
132.530469
 20
-8.999781
 10
132.201125
 20
-8.999781
 10
132.201125
 20
-8.985979
 10
132.234958
 20
-8.972167
  0
LWPOLYLINE
  5
306
330
504
100
AcDbEntity
  8
Level 1
  6
Continuous
 62
     7
370
    13
100
AcDbPolyline
 90
        4
 70
   128
 43
0.0
 10
132.377198
 20
-8.923823
 10
132.491813
 20
-8.965948
 10
132.491813
 20
-8.97975
 10
132.242552
 20
-8.97975
  0
LINE
  5
307
330
504
100
AcDbEntity
  8
Level 1
  6
Continuous
 62
     7
370
    13
100
AcDbLine
 10
132.24324
 20
-8.967333
 30
0.0
 11
132.24324
 21
-8.97975
 31
0.0
  0
LINE
  5
308
330
504
100
AcDbEntity
  8
Level 1
  6
Continuous
 62
     7
370
    13
100
AcDbLine
 10
132.352333
 20
-8.925208
 30
0.0
 11
132.24324
 21
-8.967333
 31
0.0
  0
LWPOLYLINE
  5
309
330
504
100
AcDbEntity
  8
Level 1
  6
Continuous
 62
     7
370
    13
100
AcDbPolyline
 90
        4
 70
   128
 43
0.0
 10
132.305385
 20
-8.800927
 10
132.308146
 20
-8.810594
 10
132.3185
 20
-8.816115
 10
132.33576
 20
-8.816115
  0
LWPOLYLINE
  5
30A
330
504
100
AcDbEntity
  8
Level 1
  6
Continuous
 62
     7
370
    13
100
AcDbPolyline
 90
        7
 70
   128
 43
0.0
 10
132.395146
 20
-8.840281
 10
132.406885
 20
-8.847875
 10
132.466958
 20
-8.847875
 10
132.475927
 20
-8.838896
 10
132.476625
 20
-8.825781
 10
132.478
 20
-8.813354
 10
132.48974
 20
-8.803688
  0
LWPOLYLINE
  5
30B
330
504
100
AcDbEntity
  8
Level 1
  6
Continuous
 62
     7
370
    13
100
AcDbPolyline
 90
        4
 70
   128
 43
0.0
 10
134.146156
 20
-8.799542
 10
134.141323
 20
-8.809208
 10
134.128906
 20
-8.812667
 10
134.118542
 20
-8.811979
  0
LWPOLYLINE
  5
30C
330
504
100
AcDbEntity
  8
Level 1
  6
Continuous
 62
     7
370
    13
100
AcDbPolyline
 90
        7
 70
   128
 43
0.0
 10
134.057781
 20
-8.842354
 10
134.048802
 20
-8.853406
 10
133.983219
 20
-8.853406
 10
133.97424
 20
-8.847188
 10
133.972854
 20
-8.834062
 10
133.972854
 20
-8.811281
 10
133.964573
 20
-8.803
  0
LINE
  5
30F
330
504
100
AcDbEntity
  8
Level 1
  6
Continuous
 62
     7
370
    13
100
AcDbLine
 10
133.228542
 20
-9.528677
 30
0.0
 11
134.970573
 21
-9.677125
 31
0.0
  0
LINE
  5
310
330
504
100
AcDbEntity
  8
Level 1
  6
Continuous
 62
     7
370
    13
100
AcDbLine
 10
133.227146
 20
-9.525229
 30
0.0
 11
131.44575
 21
-9.679198
 31
0.0
  0
LWPOLYLINE
  5
311
330
504
100
AcDbEntity
  8
Level 1
  6
Continuous
 62
     7
370
    13
100
AcDbPolyline
 90
        3
 70
   128
 43
0.0
 10
131.454031
 20
-9.680583
 10
131.454031
 20
-8.801615
 10
132.111354
 20
-8.801615
  0
LWPOLYLINE
  5
312
330
504
100
AcDbEntity
  8
Level 1
  6
Continuous
 62
     7
370
    13
100
AcDbPolyline
 90
        3
 70
   128
 43
0.0
 10
134.296677
 20
-8.798167
 10
134.974719
 20
-8.798167
 10
134.974719
 20
-9.681958
  0
CIRCLE
  5
314
330
504
100
AcDbEntity
  8
Level 1
  6
Continuous
 62
     7
370
    13
100
AcDbCircle
 10
132.926407
 20
-9.34608
 30
0.0
 40
0.0599323234915417
  0
LINE
  5
315
330
504
100
AcDbEntity
  8
Level 1
  6
Continuous
 62
     7
370
    13
100
AcDbLine
 10
131.809635
 20
-9.670917
 30
0.0
 11
131.806177
 21
-9.666771
 31
0.0
  0
LINE
  5
316
330
504
100
AcDbEntity
  8
Level 1
  6
Continuous
 62
     7
370
    13
100
AcDbLine
 10
131.542417
 20
-9.693698
 30
0.0
 11
131.525156
 21
-9.676438
 31
0.0
  0
LINE
  5
317
330
504
100
AcDbEntity
  8
Level 1
  6
Continuous
 62
     7
370
    13
100
AcDbLine
 10
131.664625
 20
-9.693698
 30
0.0
 11
131.643917
 21
-9.672292
 31
0.0
  0
LINE
  5
318
330
504
100
AcDbEntity
  8
Level 1
  6
Continuous
 62
     7
370
    13
100
AcDbLine
 10
131.786844
 20
-9.693698
 30
0.0
 11
131.761302
 21
-9.668156
 31
0.0
  0
LINE
  5
319
330
504
100
AcDbEntity
  8
Level 1
  6
Continuous
 62
     7
370
    13
100
AcDbLine
 10
131.519635
 20
-9.716479
 30
0.0
 11
131.480969
 21
-9.677823
 31
0.0
  0
LINE
  5
31A
330
504
100
AcDbEntity
  8
Level 1
  6
Continuous
 62
     7
370
    13
100
AcDbLine
 10
131.641844
 20
-9.716479
 30
0.0
 11
131.599042
 21
-9.673677
 31
0.0
  0
LINE
  5
31B
330
504
100
AcDbEntity
  8
Level 1
  6
Continuous
 62
     7
370
    13
100
AcDbLine
 10
131.764052
 20
-9.716479
 30
0.0
 11
131.717115
 21
-9.669531
 31
0.0
  0
LINE
  5
31C
330
504
100
AcDbEntity
  8
Level 1
  6
Continuous
 62
     7
370
    13
100
AcDbLine
 10
131.886271
 20
-9.716479
 30
0.0
 11
131.835177
 21
-9.666083
 31
0.0
  0
LINE
  5
31D
330
504
100
AcDbEntity
  8
Level 1
  6
Continuous
 62
     7
370
    13
100
AcDbLine
 10
131.519635
 20
-9.731667
 30
0.0
 11
131.576937
 21
-9.674365
 31
0.0
  0
LINE
  5
31E
330
504
100
AcDbEntity
  8
Level 1
  6
Continuous
 62
     7
370
    13
100
AcDbLine
 10
131.641844
 20
-9.731667
 30
0.0
 11
131.702604
 21
-9.670917
 31
0.0
  0
LINE
  5
31F
330
504
100
AcDbEntity
  8
Level 1
  6
Continuous
 62
     7
370
    13
100
AcDbLine
 10
131.764052
 20
-9.731667
 30
0.0
 11
131.824813
 21
-9.670917
 31
0.0
  0
LINE
  5
320
330
504
100
AcDbEntity
  8
Level 1
  6
Continuous
 62
     7
370
    13
100
AcDbLine
 10
131.446448
 20
-9.728219
 30
0.0
 11
131.481656
 21
-9.693698
 31
0.0
  0
LINE
  5
321
330
504
100
AcDbEntity
  8
Level 1
  6
Continuous
 62
     7
370
    13
100
AcDbLine
 10
131.542417
 20
-9.754458
 30
0.0
 11
131.603875
 21
-9.693698
 31
0.0
  0
LINE
  5
322
330
504
100
AcDbEntity
  8
Level 1
  6
Continuous
 62
     7
370
    13
100
AcDbLine
 10
131.664625
 20
-9.754458
 30
0.0
 11
131.726083
 21
-9.693698
 31
0.0
  0
LINE
  5
323
330
504
100
AcDbEntity
  8
Level 1
  6
Continuous
 62
     7
370
    13
100
AcDbLine
 10
131.786844
 20
-9.754458
 30
0.0
 11
131.847604
 21
-9.693698
 31
0.0
  0
LINE
  5
324
330
504
100
AcDbEntity
  8
Level 1
  6
Continuous
 62
     7
370
    13
100
AcDbLine
 10
131.446448
 20
-9.774479
 30
0.0
 11
131.504448
 21
-9.716479
 31
0.0
  0
LINE
  5
325
330
504
100
AcDbEntity
  8
Level 1
  6
Continuous
 62
     7
370
    13
100
AcDbLine
 10
131.565198
 20
-9.77725
 30
0.0
 11
131.626656
 21
-9.716479
 31
0.0
  0
LINE
  5
326
330
504
100
AcDbEntity
  8
Level 1
  6
Continuous
 62
     7
370
    13
100
AcDbLine
 10
131.687417
 20
-9.77725
 30
0.0
 11
131.748865
 21
-9.716479
 31
0.0
  0
LINE
  5
327
330
504
100
AcDbEntity
  8
Level 1
  6
Continuous
 62
     7
370
    13
100
AcDbLine
 10
131.809635
 20
-9.77725
 30
0.0
 11
131.870396
 21
-9.716479
 31
0.0
  0
LINE
  5
328
330
504
100
AcDbEntity
  8
Level 1
  6
Continuous
 62
     7
370
    13
100
AcDbLine
 10
132.853615
 20
-9.579073
 30
0.0
 11
132.849469
 21
-9.574937
 31
0.0
  0
LINE
  5
329
330
504
100
AcDbEntity
  8
Level 1
  6
Continuous
 62
     7
370
    13
100
AcDbLine
 10
132.586396
 20
-9.601865
 30
0.0
 11
132.569146
 21
-9.584604
 31
0.0
  0
LINE
  5
32A
330
504
100
AcDbEntity
  8
Level 1
  6
Continuous
 62
     7
370
    13
100
AcDbLine
 10
132.708615
 20
-9.601865
 30
0.0
 11
132.687219
 21
-9.580458
 31
0.0
  0
LINE
  5
32B
330
504
100
AcDbEntity
  8
Level 1
  6
Continuous
 62
     7
370
    13
100
AcDbLine
 10
132.830135
 20
-9.601865
 30
0.0
 11
132.805281
 21
-9.576323
 31
0.0
  0
LINE
  5
32C
330
504
100
AcDbEntity
  8
Level 1
  6
Continuous
 62
     7
370
    13
100
AcDbLine
 10
132.952344
 20
-9.601865
 30
0.0
 11
132.923354
 21
-9.572865
 31
0.0
  0
LINE
  5
32D
330
504
100
AcDbEntity
  8
Level 1
  6
Continuous
 62
     7
370
    13
100
AcDbLine
 10
132.563615
 20
-9.624656
 30
0.0
 11
132.524958
 21
-9.585979
 31
0.0
  0
LINE
  5
32E
330
504
100
AcDbEntity
  8
Level 1
  6
Continuous
 62
     7
370
    13
100
AcDbLine
 10
132.685823
 20
-9.624656
 30
0.0
 11
132.643021
 21
-9.581844
 31
0.0
  0
LINE
  5
32F
330
504
100
AcDbEntity
  8
Level 1
  6
Continuous
 62
     7
370
    13
100
AcDbLine
 10
132.807354
 20
-9.624656
 30
0.0
 11
132.761094
 21
-9.578396
 31
0.0
  0
LINE
  5
330
330
504
100
AcDbEntity
  8
Level 1
  6
Continuous
 62
     7
370
    13
100
AcDbLine
 10
132.929563
 20
-9.624656
 30
0.0
 11
132.879167
 21
-9.57424
 31
0.0
  0
LINE
  5
331
330
504
100
AcDbEntity
  8
Level 1
  6
Continuous
 62
     7
370
    13
100
AcDbLine
 10
132.563615
 20
-9.639844
 30
0.0
 11
132.62024
 21
-9.582531
 31
0.0
  0
LINE
  5
332
330
504
100
AcDbEntity
  8
Level 1
  6
Continuous
 62
     7
370
    13
100
AcDbLine
 10
132.685823
 20
-9.639844
 30
0.0
 11
132.746594
 21
-9.579073
 31
0.0
  0
LINE
  5
333
330
504
100
AcDbEntity
  8
Level 1
  6
Continuous
 62
     7
370
    13
100
AcDbLine
 10
132.807354
 20
-9.639844
 30
0.0
 11
132.868802
 21
-9.579073
 31
0.0
  0
LINE
  5
334
330
504
100
AcDbEntity
  8
Level 1
  6
Continuous
 62
     7
370
    13
100
AcDbLine
 10
132.490427
 20
-9.637073
 30
0.0
 11
132.524958
 21
-9.601865
 31
0.0
  0
LINE
  5
335
330
504
100
AcDbEntity
  8
Level 1
  6
Continuous
 62
     7
370
    13
100
AcDbLine
 10
132.586396
 20
-9.662625
 30
0.0
 11
132.647167
 21
-9.601865
 31
0.0
  0
LINE
  5
336
330
504
100
AcDbEntity
  8
Level 1
  6
Continuous
 62
     7
370
    13
100
AcDbLine
 10
132.708615
 20
-9.662625
 30
0.0
 11
132.769375
 21
-9.601865
 31
0.0
  0
LINE
  5
337
330
504
100
AcDbEntity
  8
Level 1
  6
Continuous
 62
     7
370
    13
100
AcDbLine
 10
132.830135
 20
-9.662625
 30
0.0
 11
132.891583
 21
-9.601865
 31
0.0
  0
LINE
  5
338
330
504
100
AcDbEntity
  8
Level 1
  6
Continuous
 62
     7
370
    13
100
AcDbLine
 10
132.490427
 20
-9.682656
 30
0.0
 11
132.548427
 21
-9.624656
 31
0.0
  0
LINE
  5
339
330
504
100
AcDbEntity
  8
Level 1
  6
Continuous
 62
     7
370
    13
100
AcDbLine
 10
132.609187
 20
-9.686104
 30
0.0
 11
132.669948
 21
-9.624656
 31
0.0
  0
LINE
  5
33A
330
504
100
AcDbEntity
  8
Level 1
  6
Continuous
 62
     7
370
    13
100
AcDbLine
 10
132.731406
 20
-9.686104
 30
0.0
 11
132.792156
 21
-9.624656
 31
0.0
  0
LINE
  5
33B
330
504
100
AcDbEntity
  8
Level 1
  6
Continuous
 62
     7
370
    13
100
AcDbLine
 10
132.853615
 20
-9.686104
 30
0.0
 11
132.914375
 21
-9.624656
 31
0.0
  0
LINE
  5
33C
330
504
100
AcDbEntity
  8
Level 1
  6
Continuous
 62
     7
370
    13
100
AcDbLine
 10
133.758813
 20
-9.585979
 30
0.0
 11
133.755354
 21
-9.581844
 31
0.0
  0
LINE
  5
33D
330
504
100
AcDbEntity
  8
Level 1
  6
Continuous
 62
     7
370
    13
100
AcDbLine
 10
133.490906
 20
-9.574937
 30
0.0
 11
133.476417
 21
-9.555604
 31
0.0
  0
LINE
  5
33E
330
504
100
AcDbEntity
  8
Level 1
  6
Continuous
 62
     7
370
    13
100
AcDbLine
 10
133.612437
 20
-9.590813
 30
0.0
 11
133.593792
 21
-9.566656
 31
0.0
  0
LINE
  5
33F
330
504
100
AcDbEntity
  8
Level 1
  6
Continuous
 62
     7
370
    13
100
AcDbLine
 10
133.733271
 20
-9.60601
 30
0.0
 11
133.711167
 21
-9.577698
 31
0.0
  0
LINE
  5
340
330
504
100
AcDbEntity
  8
Level 1
  6
Continuous
 62
     7
370
    13
100
AcDbLine
 10
133.465365
 20
-9.594958
 30
0.0
 11
133.432219
 21
-9.551458
 31
0.0
  0
LINE
  5
341
330
504
100
AcDbEntity
  8
Level 1
  6
Continuous
 62
     7
370
    13
100
AcDbLine
 10
133.586885
 20
-9.610156
 30
0.0
 11
133.549604
 21
-9.56251
 31
0.0
  0
LINE
  5
342
330
504
100
AcDbEntity
  8
Level 1
  6
Continuous
 62
     7
370
    13
100
AcDbLine
 10
133.707719
 20
-9.626031
 30
0.0
 11
133.667667
 21
-9.573562
 31
0.0
  0
LINE
  5
343
330
504
100
AcDbEntity
  8
Level 1
  6
Continuous
 62
     7
370
    13
100
AcDbLine
 10
133.463979
 20
-9.610156
 30
0.0
 11
133.52751
 21
-9.560437
 31
0.0
  0
LINE
  5
344
330
504
100
AcDbEntity
  8
Level 1
  6
Continuous
 62
     7
370
    13
100
AcDbLine
 10
133.584812
 20
-9.625333
 30
0.0
 11
133.653167
 21
-9.572865
 31
0.0
  0
LINE
  5
345
330
504
100
AcDbEntity
  8
Level 1
  6
Continuous
 62
     7
370
    13
100
AcDbLine
 10
133.705646
 20
-9.640531
 30
0.0
 11
133.774
 21
-9.588052
 31
0.0
  0
LINE
  5
346
330
504
100
AcDbEntity
  8
Level 1
  6
Continuous
 62
     7
370
    13
100
AcDbLine
 10
133.391479
 20
-9.597719
 30
0.0
 11
133.430833
 21
-9.567333
 31
0.0
  0
LINE
  5
347
330
504
100
AcDbEntity
  8
Level 1
  6
Continuous
 62
     7
370
    13
100
AcDbLine
 10
133.483323
 20
-9.635698
 30
0.0
 11
133.551667
 21
-9.582531
 31
0.0
  0
LINE
  5
348
330
504
100
AcDbEntity
  8
Level 1
  6
Continuous
 62
     7
370
    13
100
AcDbLine
 10
133.604833
 20
-9.650885
 30
0.0
 11
133.6725
 21
-9.598417
 31
0.0
  0
LINE
  5
349
330
504
100
AcDbEntity
  8
Level 1
  6
Continuous
 62
     7
370
    13
100
AcDbLine
 10
133.385271
 20
-9.643302
 30
0.0
 11
133.450177
 21
-9.592885
 31
0.0
  0
LINE
  5
34A
330
504
100
AcDbEntity
  8
Level 1
  6
Continuous
 62
     7
370
    13
100
AcDbLine
 10
133.503344
 20
-9.66125
 30
0.0
 11
133.571698
 21
-9.608083
 31
0.0
  0
LINE
  5
34B
330
504
100
AcDbEntity
  8
Level 1
  6
Continuous
 62
     7
370
    13
100
AcDbLine
 10
133.624177
 20
-9.676438
 30
0.0
 11
133.692521
 21
-9.623958
 31
0.0
  0
LINE
  5
34C
330
504
100
AcDbEntity
  8
Level 1
  6
Continuous
 62
     7
370
    13
100
AcDbLine
 10
134.960219
 20
-9.686104
 30
0.0
 11
134.956771
 21
-9.681958
 31
0.0
  0
LINE
  5
34D
330
504
100
AcDbEntity
  8
Level 1
  6
Continuous
 62
     7
370
    13
100
AcDbLine
 10
134.692312
 20
-9.67575
 30
0.0
 11
134.677125
 21
-9.657104
 31
0.0
  0
LINE
  5
34E
330
504
100
AcDbEntity
  8
Level 1
  6
Continuous
 62
     7
370
    13
100
AcDbLine
 10
134.813844
 20
-9.690938
 30
0.0
 11
134.795198
 21
-9.667458
 31
0.0
  0
LINE
  5
34F
330
504
100
AcDbEntity
  8
Level 1
  6
Continuous
 62
     7
370
    13
100
AcDbLine
 10
134.934677
 20
-9.705438
 30
0.0
 11
134.912573
 21
-9.677823
 31
0.0
  0
LINE
  5
350
330
504
100
AcDbEntity
  8
Level 1
  6
Continuous
 62
     7
370
    13
100
AcDbLine
 10
134.666771
 20
-9.695771
 30
0.0
 11
134.633635
 21
-9.652958
 31
0.0
  0
LINE
  5
351
330
504
100
AcDbEntity
  8
Level 1
  6
Continuous
 62
     7
370
    13
100
AcDbLine
 10
134.788292
 20
-9.710958
 30
0.0
 11
134.75101
 21
-9.663312
 31
0.0
  0
LINE
  5
352
330
504
100
AcDbEntity
  8
Level 1
  6
Continuous
 62
     7
370
    13
100
AcDbLine
 10
134.909125
 20
-9.725458
 30
0.0
 11
134.868385
 21
-9.673677
 31
0.0
  0
LINE
  5
353
330
504
100
AcDbEntity
  8
Level 1
  6
Continuous
 62
     7
370
    13
100
AcDbLine
 10
134.665396
 20
-9.710958
 30
0.0
 11
134.728917
 21
-9.66125
 31
0.0
  0
LINE
  5
354
330
504
100
AcDbEntity
  8
Level 1
  6
Continuous
 62
     7
370
    13
100
AcDbLine
 10
134.786229
 20
-9.726146
 30
0.0
 11
134.853896
 21
-9.67299
 31
0.0
  0
LINE
  5
355
330
504
100
AcDbEntity
  8
Level 1
  6
Continuous
 62
     7
370
    13
100
AcDbLine
 10
134.907062
 20
-9.740656
 30
0.0
 11
134.975406
 21
-9.687479
 31
0.0
  0
LINE
  5
356
330
504
100
AcDbEntity
  8
Level 1
  6
Continuous
 62
     7
370
    13
100
AcDbLine
 10
134.592885
 20
-9.699219
 30
0.0
 11
134.631563
 21
-9.668844
 31
0.0
  0
LINE
  5
357
330
504
100
AcDbEntity
  8
Level 1
  6
Continuous
 62
     7
370
    13
100
AcDbLine
 10
134.684729
 20
-9.7365
 30
0.0
 11
134.753083
 21
-9.683333
 31
0.0
  0
LINE
  5
358
330
504
100
AcDbEntity
  8
Level 1
  6
Continuous
 62
     7
370
    13
100
AcDbLine
 10
134.80624
 20
-9.751698
 30
0.0
 11
134.873917
 21
-9.698531
 31
0.0
  0
LINE
  5
359
330
504
100
AcDbEntity
  8
Level 1
  6
Continuous
 62
     7
370
    13
100
AcDbLine
 10
134.587375
 20
-9.744104
 30
0.0
 11
134.651583
 21
-9.694385
 31
0.0
  0
LINE
  5
35A
330
504
100
AcDbEntity
  8
Level 1
  6
Continuous
 62
     7
370
    13
100
AcDbLine
 10
134.70475
 20
-9.762052
 30
0.0
 11
134.773104
 21
-9.708885
 31
0.0
  0
LINE
  5
35B
330
504
100
AcDbEntity
  8
Level 1
  6
Continuous
 62
     7
370
    13
100
AcDbLine
 10
134.826271
 20
-9.77725
 30
0.0
 11
134.893927
 21
-9.724083
 31
0.0
  0
LWPOLYLINE
  5
35F
330
504
100
AcDbEntity
  8
Level 1
  6
Continuous
 62
     7
370
    13
100
AcDbPolyline
 90
        4
 70
   128
 43
0.0
 10
131.608708
 20
-9.483104
 10
131.628729
 20
-9.53075
 10
131.647375
 20
-9.484479
 10
131.608708
 20
-9.484479
  0
CIRCLE
  5
360
330
504
100
AcDbEntity
  8
Level 1
  6
Continuous
 62
     7
370
    13
100
AcDbCircle
 10
133.443019
 20
-9.080803
 30
0.0
 40
0.0598632770359062
  0
LWPOLYLINE
  5
363
330
504
100
AcDbEntity
  8
Level 1
  6
Continuous
 62
     7
370
    13
100
AcDbPolyline
 90
        3
 70
   128
 43
0.0
 10
135.104521
 20
-9.349156
 10
135.045146
 20
-9.349156
 10
134.839385
 20
-9.033615
  0
LWPOLYLINE
  5
364
330
504
100
AcDbEntity
  8
Level 1
  6
Continuous
 62
     7
370
    13
100
AcDbPolyline
 90
        5
 70
   128
 43
0.0
 10
134.838698
 20
-9.030156
 10
134.838698
 20
-9.028781
 10
134.860104
 20
-9.099208
 10
134.885646
 20
-9.086083
 10
134.838698
 20
-9.030156
  0
LWPOLYLINE
  5
366
330
504
100
AcDbEntity
  8
Level 1
  6
Continuous
 62
     7
370
    13
100
AcDbPolyline
 90
        3
 70
   128
 43
0.0
 10
134.448583
 20
-8.20575
 10
134.340177
 20
-8.20575
 10
134.063302
 20
-8.792635
  0
LWPOLYLINE
  5
367
330
504
100
AcDbEntity
  8
Level 1
  6
Continuous
 62
     7
370
    13
100
AcDbPolyline
 90
        5
 70
   128
 43
0.0
 10
134.058469
 20
-8.794708
 10
134.058469
 20
-8.794021
 10
134.086781
 20
-8.717385
 10
134.103354
 20
-8.731875
 10
134.058469
 20
-8.794708
  0
LINE
  5
368
330
504
100
AcDbEntity
  8
Level 1
  6
Continuous
 62
     7
370
    13
100
AcDbLine
 10
131.603177
 20
-8.870656
 30
0.0
 11
132.212167
 21
-8.870656
 31
0.0
  0
LINE
  5
369
330
504
100
AcDbEntity
  8
Level 1
  6
Continuous
 62
     7
370
    13
100
AcDbLine
 10
132.537375
 20
-8.870656
 30
0.0
 11
133.915542
 21
-8.870656
 31
0.0
  0
LINE
  5
36A
330
504
100
AcDbEntity
  8
Level 1
  6
Continuous
 62
     7
370
    13
100
AcDbLine
 10
134.238677
 20
-8.876188
 30
0.0
 11
134.911198
 21
-8.876188
 31
0.0
  0
CIRCLE
  5
36B
330
504
100
AcDbEntity
  8
Level 1
  6
Continuous
 62
     7
370
    13
100
AcDbCircle
 10
131.952901
 20
-8.888754
 30
0.0
 40
0.0124974084700104
  0
CIRCLE
  5
36C
330
504
100
AcDbEntity
  8
Level 1
  6
Continuous
 62
     7
370
    13
100
AcDbCircle
 10
131.809284
 20
-8.888754
 30
0.0
 40
0.0124974084700104
  0
CIRCLE
  5
36D
330
504
100
AcDbEntity
  8
Level 1
  6
Continuous
 62
     7
370
    13
100
AcDbCircle
 10
131.672779
 20
-8.888754
 30
0.0
 40
0.0124974084700104
  0
CIRCLE
  5
36E
330
504
100
AcDbEntity
  8
Level 1
  6
Continuous
 62
     7
370
    13
100
AcDbCircle
 10
132.100453
 20
-8.888754
 30
0.0
 40
0.0124974084700104
  0
CIRCLE
  5
36F
330
504
100
AcDbEntity
  8
Level 1
  6
Continuous
 62
     7
370
    13
100
AcDbCircle
 10
132.612709
 20
-8.888754
 30
0.0
 40
0.0124974084700104
  0
CIRCLE
  5
370
330
504
100
AcDbEntity
  8
Level 1
  6
Continuous
 62
     7
370
    13
100
AcDbCircle
 10
132.749835
 20
-8.888754
 30
0.0
 40
0.0124974084700104
  0
CIRCLE
  5
371
330
504
100
AcDbEntity
  8
Level 1
  6
Continuous
 62
     7
370
    13
100
AcDbCircle
 10
132.890759
 20
-8.888754
 30
0.0
 40
0.0124974084700104
  0
CIRCLE
  5
372
330
504
100
AcDbEntity
  8
Level 1
  6
Continuous
 62
     7
370
    13
100
AcDbCircle
 10
133.035756
 20
-8.888754
 30
0.0
 40
0.0124974084700104
  0
LWPOLYLINE
  5
373
330
504
100
AcDbEntity
  8
Level 1
  6
Continuous
 62
     7
370
    13
100
AcDbPolyline
 90
        4
 70
   128
 43
0.0
 10
131.51549
 20
-9.362969
 10
131.534823
 20
-9.411302
 10
131.553469
 20
-9.364344
 10
131.51549
 20
-9.365042
  0
LWPOLYLINE
  5
374
330
504
100
AcDbEntity
  8
Level 1
  6
Continuous
 62
     7
370
    13
100
AcDbPolyline
 90
        4
 70
   128
 43
0.0
 10
131.665323
 20
-9.260083
 10
131.684656
 20
-9.308417
 10
131.703302
 20
-9.261469
 10
131.664625
 20
-9.262156
  0
LWPOLYLINE
  5
375
330
504
100
AcDbEntity
  8
Level 1
  6
Continuous
 62
     7
370
    13
100
AcDbPolyline
 90
        4
 70
   128
 43
0.0
 10
131.888344
 20
-9.483792
 10
131.908365
 20
-9.532135
 10
131.92701
 20
-9.485177
 10
131.888344
 20
-9.485875
  0
LWPOLYLINE
  5
376
330
504
100
AcDbEntity
  8
Level 1
  6
Continuous
 62
     7
370
    13
100
AcDbPolyline
 90
        4
 70
   128
 43
0.0
 10
131.719875
 20
-9.413365
 10
131.739198
 20
-9.46101
 10
131.757844
 20
-9.41475
 10
131.719875
 20
-9.415437
  0
LWPOLYLINE
  5
377
330
504
100
AcDbEntity
  8
Level 1
  6
Continuous
 62
     7
370
    13
100
AcDbPolyline
 90
        4
 70
   128
 43
0.0
 10
131.667396
 20
-9.570792
 10
131.686729
 20
-9.619125
 10
131.705375
 20
-9.572177
 10
131.667396
 20
-9.572865
  0
LWPOLYLINE
  5
378
330
504
100
AcDbEntity
  8
Level 1
  6
Continuous
 62
     7
370
    13
100
AcDbPolyline
 90
        4
 70
   128
 43
0.0
 10
131.478208
 20
-9.608771
 10
131.497542
 20
-9.657104
 10
131.516188
 20
-9.610156
 10
131.478208
 20
-9.610844
  0
LWPOLYLINE
  5
379
330
504
100
AcDbEntity
  8
Level 1
  6
Continuous
 62
     7
370
    13
100
AcDbPolyline
 90
        4
 70
   128
 43
0.0
 10
134.483792
 20
-9.323615
 10
134.503135
 20
-9.371937
 10
134.521771
 20
-9.32499
 10
134.483792
 20
-9.325677
  0
LWPOLYLINE
  5
37A
330
504
100
AcDbEntity
  8
Level 1
  6
Continuous
 62
     7
370
    13
100
AcDbPolyline
 90
        4
 70
   128
 43
0.0
 10
134.667458
 20
-9.25525
 10
134.686802
 20
-9.302896
 10
134.705437
 20
-9.256635
 10
134.667458
 20
-9.256635
  0
LWPOLYLINE
  5
37B
330
504
100
AcDbEntity
  8
Level 1
  6
Continuous
 62
     7
370
    13
100
AcDbPolyline
 90
        4
 70
   128
 43
0.0
 10
134.756531
 20
-9.41475
 10
134.775865
 20
-9.463083
 10
134.795198
 20
-9.416135
 10
134.756531
 20
-9.416823
  0
LWPOLYLINE
  5
37C
330
504
100
AcDbEntity
  8
Level 1
  6
Continuous
 62
     7
370
    13
100
AcDbPolyline
 90
        4
 70
   128
 43
0.0
 10
134.612917
 20
-9.47275
 10
134.632937
 20
-9.521073
 10
134.651583
 20
-9.474135
 10
134.612917
 20
-9.474813
  0
LWPOLYLINE
  5
37D
330
504
100
AcDbEntity
  8
Level 1
  6
Continuous
 62
     7
370
    13
100
AcDbPolyline
 90
        4
 70
   128
 43
0.0
 10
134.433396
 20
-9.520396
 10
134.452729
 20
-9.568729
 10
134.472062
 20
-9.521771
 10
134.433396
 20
-9.522469
  0
LWPOLYLINE
  5
37E
330
504
100
AcDbEntity
  8
Level 1
  6
Continuous
 62
     7
370
    13
100
AcDbPolyline
 90
        4
 70
   128
 43
0.0
 10
134.840771
 20
-9.568729
 10
134.860792
 20
-9.616365
 10
134.879437
 20
-9.570104
 10
134.840771
 20
-9.570104
  0
LWPOLYLINE
  5
37F
330
504
100
AcDbEntity
  8
Level 1
  6
Continuous
 62
     7
370
    13
100
AcDbPolyline
 90
        4
 70
   128
 43
0.0
 10
134.893927
 20
-9.236604
 10
134.913271
 20
-9.28425
 10
134.931917
 20
-9.23799
 10
134.893927
 20
-9.238677
  0
LWPOLYLINE
  5
380
330
504
100
AcDbEntity
  8
Level 1
  6
Continuous
 62
     7
370
    13
100
AcDbPolyline
 90
        4
 70
   128
 43
0.0
 10
134.891167
 20
-9.355365
 10
134.911198
 20
-9.40301
 10
134.929844
 20
-9.35675
 10
134.891167
 20
-9.357437
  0
LWPOLYLINE
  5
381
330
504
100
AcDbEntity
  8
Level 1
  6
Continuous
 62
     7
370
    13
100
AcDbPolyline
 90
        4
 70
   128
 43
0.0
 10
134.303583
 20
-9.37125
 10
134.323615
 20
-9.419583
 10
134.34226
 20
-9.372635
 10
134.303583
 20
-9.373323
  0
CIRCLE
  5
382
330
504
100
AcDbEntity
  8
Level 1
  6
Continuous
 62
     7
370
    13
100
AcDbCircle
 10
133.184137
 20
-8.888754
 30
0.0
 40
0.0124974084700104
  0
CIRCLE
  5
383
330
504
100
AcDbEntity
  8
Level 1
  6
Continuous
 62
     7
370
    13
100
AcDbCircle
 10
133.320366
 20
-8.888754
 30
0.0
 40
0.0124974084700104
  0
CIRCLE
  5
384
330
504
100
AcDbEntity
  8
Level 1
  6
Continuous
 62
     7
370
    13
100
AcDbCircle
 10
133.46419
 20
-8.888754
 30
0.0
 40
0.0124974084700104
  0
CIRCLE
  5
385
330
504
100
AcDbEntity
  8
Level 1
  6
Continuous
 62
     7
370
    13
100
AcDbCircle
 10
133.583019
 20
-8.888754
 30
0.0
 40
0.0124974084700104
  0
CIRCLE
  5
386
330
504
100
AcDbEntity
  8
Level 1
  6
Continuous
 62
     7
370
    13
100
AcDbCircle
 10
133.75384
 20
-8.888754
 30
0.0
 40
0.0124974084700104
  0
CIRCLE
  5
387
330
504
100
AcDbEntity
  8
Level 1
  6
Continuous
 62
     7
370
    13
100
AcDbCircle
 10
133.900632
 20
-8.888754
 30
0.0
 40
0.012428362014375
  0
CIRCLE
  5
388
330
504
100
AcDbEntity
  8
Level 1
  6
Continuous
 62
     7
370
    13
100
AcDbCircle
 10
134.243586
 20
-8.888754
 30
0.0
 40
0.0124974084700104
  0
CIRCLE
  5
389
330
504
100
AcDbEntity
  8
Level 1
  6
Continuous
 62
     7
370
    13
100
AcDbCircle
 10
134.383543
 20
-8.888754
 30
0.0
 40
0.012428362014375
  0
CIRCLE
  5
38A
330
504
100
AcDbEntity
  8
Level 1
  6
Continuous
 62
     7
370
    13
100
AcDbCircle
 10
134.505134
 20
-8.888754
 30
0.0
 40
0.0124974084700104
  0
CIRCLE
  5
38B
330
504
100
AcDbEntity
  8
Level 1
  6
Continuous
 62
     7
370
    13
100
AcDbCircle
 10
134.61623
 20
-8.888754
 30
0.0
 40
0.0124974084700104
  0
CIRCLE
  5
38C
330
504
100
AcDbEntity
  8
Level 1
  6
Continuous
 62
     7
370
    13
100
AcDbCircle
 10
134.73568
 20
-8.888754
 30
0.0
 40
0.012428362014375
  0
CIRCLE
  5
38D
330
504
100
AcDbEntity
  8
Level 1
  6
Continuous
 62
     7
370
    13
100
AcDbCircle
 10
134.855338
 20
-8.888754
 30
0.0
 40
0.0124974084700104
  0
LINE
  5
38E
330
504
100
AcDbEntity
  8
Level 1
  6
Continuous
 62
     7
370
    13
100
AcDbLine
 10
131.617687
 20
-8.798854
 30
0.0
 11
131.617687
 21
-8.658
 31
0.0
  0
LINE
  5
38F
330
504
100
AcDbEntity
  8
Level 1
  6
Continuous
 62
     7
370
    13
100
AcDbLine
 10
131.615615
 20
-8.868594
 30
0.0
 11
131.615615
 21
-9.024635
 31
0.0
  0
LWPOLYLINE
  5
392
330
504
100
AcDbEntity
  8
Level 1
  6
Continuous
 62
     7
370
    13
100
AcDbPolyline
 90
        3
 70
   128
 43
0.0
 10
132.27224
 20
-8.503333
 10
132.219073
 20
-8.503333
 10
132.02574
 20
-8.86375
  0
LWPOLYLINE
  5
393
330
504
100
AcDbEntity
  8
Level 1
  6
Continuous
 62
     7
370
    13
100
AcDbPolyline
 90
        5
 70
   128
 43
0.0
 10
132.02299
 20
-8.869281
 10
132.02299
 20
-8.869281
 10
132.069927
 20
-8.810594
 10
132.047844
 20
-8.789875
 10
132.02299
 20
-8.869281
  0
LWPOLYLINE
  5
394
330
504
100
AcDbEntity
  8
Level 1
  6
Continuous
 62
     7
370
    13
100
AcDbPolyline
 90
        5
 70
   128
 43
0.0
 10
131.619062
 20
-8.801615
 10
131.618365
 20
-8.801615
 10
131.60801
 20
-8.713927
 10
131.630104
 20
-8.715312
 10
131.619062
 20
-8.801615
  0
LWPOLYLINE
  5
395
330
504
100
AcDbEntity
  8
Level 1
  6
Continuous
 62
     7
370
    13
100
AcDbPolyline
 90
        5
 70
   128
 43
0.0
 10
131.614917
 20
-8.869281
 10
131.614917
 20
-8.869281
 10
131.604562
 20
-8.943156
 10
131.628031
 20
-8.944542
 10
131.614917
 20
-8.869281
  0
LINE
  5
397
330
504
100
AcDbEntity
  8
Level 1
  6
Continuous
 62
     7
370
    13
100
AcDbLine
 10
133.002766
 20
-6.641926
 30
0.0
 11
133.415133
 21
-6.641926
 31
0.0
  0
LINE
  5
399
330
504
100
AcDbEntity
  8
Level 1
  6
Continuous
 62
     7
370
    13
100
AcDbLine
 10
134.32578
 20
-7.974448
 30
0.0
 11
136.117351
 21
-7.974448
 31
0.0
  0
LINE
  5
39B
330
504
100
AcDbEntity
  8
Level 1
  6
Continuous
 62
     7
370
    13
100
AcDbLine
 10
132.882159
 20
-10.264708
 30
0.0
 11
133.619549
 21
-10.264708
 31
0.0
  0
LINE
  5
3A2
330
504
100
AcDbEntity
  8
Level 1
  6
Continuous
 62
     7
370
    13
100
AcDbLine
 10
131.989844
 20
-9.727531
 30
0.0
 11
132.326104
 21
-9.703365
 31
0.0
  0
LWPOLYLINE
  5
3A3
330
504
100
AcDbEntity
  8
Level 1
  6
Continuous
 62
     7
370
    13
100
AcDbPolyline
 90
        5
 70
   128
 43
0.0
 10
131.982937
 20
-9.72803
 10
131.982937
 20
-9.72803
 10
132.080292
 20
-9.735624
 10
132.080292
 20
-9.704551
 10
131.982937
 20
-9.72803
  0
LINE
  5
3A4
330
504
100
AcDbEntity
  8
Level 1
  6
Continuous
 62
     7
370
    13
100
AcDbLine
 10
134.028094
 20
-9.695771
 30
0.0
 11
134.332594
 21
-9.71925
 31
0.0
  0
LWPOLYLINE
  5
3A6
330
504
100
AcDbEntity
  8
Level 1
  6
Continuous
 62
     7
370
    13
100
AcDbPolyline
 90
        5
 70
   128
 43
0.0
 10
134.215896
 20
-9.687328
 10
134.215896
 20
-9.687328
 10
134.209688
 20
-9.726682
 10
134.332594
 20
-9.719088
 10
134.215896
 20
-9.687328
  0
LINE
  5
3AA
330
504
100
AcDbEntity
  8
Level 1
  6
Continuous
 62
     7
370
    13
100
AcDbLine
 10
130.492068
 20
-7.995156
 30
0.0
 11
132.150002
 21
-7.995156
 31
0.0
  0
LWPOLYLINE
  5
3AB
330
504
100
AcDbEntity
  8
Level 1
  6
Continuous
 62
     7
370
    13
100
AcDbPolyline
 90
        5
 70
   128
 43
0.0
 10
135.313042
 20
-5.245729
 10
135.313042
 20
-5.65724
 10
135.250906
 20
-5.736635
 10
135.074833
 20
-6.213073
 10
135.074833
 20
-6.377396
  0
LINE
  5
3AC
330
504
100
AcDbEntity
  8
Level 1
  6
Continuous
 62
     7
370
    13
100
AcDbLine
 10
135.255042
 20
-5.241583
 30
0.0
 11
135.255042
 21
-5.742167
 31
0.0
  0
LWPOLYLINE
  5
3AD
330
504
100
AcDbEntity
  8
Level 1
  6
Continuous
 62
     7
370
    13
100
AcDbPolyline
 90
        4
 70
   128
 43
0.0
 10
135.666562
 20
-5.245729
 10
135.666562
 20
-5.576458
 10
135.524333
 20
-5.576458
 10
135.524333
 20
-5.245729
  0
LINE
  5
3AE
330
504
100
AcDbEntity
  8
Level 1
  6
Continuous
 62
     7
370
    13
100
AcDbLine
 10
135.255042
 20
-3.441542
 30
0.0
 11
135.255042
 21
-3.980104
 31
0.0
  0
LINE
  5
3AF
330
504
100
AcDbEntity
  8
Level 1
  6
Continuous
 62
     7
370
    13
100
AcDbLine
 10
135.255042
 20
-4.087823
 30
0.0
 11
135.255042
 21
-5.125583
 31
0.0
  0
LWPOLYLINE
  5
3B0
330
504
100
AcDbEntity
  8
Level 1
  6
Continuous
 62
     7
370
    13
100
AcDbPolyline
 90
        3
 70
   128
 43
0.0
 10
135.250906
 20
-3.431875
 10
135.313042
 20
-3.558229
 10
135.313042
 20
-3.982865
  0
LINE
  5
3B1
330
504
100
AcDbEntity
  8
Level 1
  6
Continuous
 62
     7
370
    13
100
AcDbLine
 10
135.313042
 20
-4.087823
 30
0.0
 11
135.313042
 21
-5.125583
 31
0.0
  0
LINE
  5
3B2
330
504
100
AcDbEntity
  8
Level 1
  6
Continuous
 62
     7
370
    13
100
AcDbLine
 10
135.524333
 20
-5.125583
 30
0.0
 11
135.524333
 21
-4.087823
 31
0.0
  0
LINE
  5
3B3
330
504
100
AcDbEntity
  8
Level 1
  6
Continuous
 62
     7
370
    13
100
AcDbLine
 10
135.524333
 20
-3.982865
 30
0.0
 11
135.524333
 21
-3.612771
 31
0.0
  0
LINE
  5
3B4
330
504
100
AcDbEntity
  8
Level 1
  6
Continuous
 62
     7
370
    13
100
AcDbLine
 10
135.666562
 20
-4.087823
 30
0.0
 11
135.666562
 21
-5.125583
 31
0.0
  0
LWPOLYLINE
  5
3B5
330
504
100
AcDbEntity
  8
Level 1
  6
Continuous
 62
     7
370
    13
100
AcDbPolyline
 90
        3
 70
   128
 43
0.0
 10
135.523635
 20
-3.612771
 10
135.666562
 20
-3.612771
 10
135.666562
 20
-3.982865
  0
LINE
  5
3B6
330
504
100
AcDbEntity
  8
Level 1
  6
Continuous
 62
     7
370
    13
100
AcDbLine
 10
131.122625
 20
-3.892417
 30
0.0
 11
131.122625
 21
-3.983562
 31
0.0
  0
LINE
  5
3B7
330
504
100
AcDbEntity
  8
Level 1
  6
Continuous
 62
     7
370
    13
100
AcDbLine
 10
131.122625
 20
-4.182406
 30
0.0
 11
131.122625
 21
-4.09126
 31
0.0
  0
LINE
  5
3B8
330
504
100
AcDbEntity
  8
Level 1
  6
Continuous
 62
     7
370
    13
100
AcDbLine
 10
131.124
 20
-5.33825
 30
0.0
 11
131.124
 21
-5.245729
 31
0.0
  0
LINE
  5
3B9
330
504
100
AcDbEntity
  8
Level 1
  6
Continuous
 62
     7
370
    13
100
AcDbLine
 10
131.124
 20
-5.022708
 30
0.0
 11
131.124
 21
-5.124198
 31
0.0
  0
LINE
  5
3BA
330
504
100
AcDbEntity
  8
Level 1
  6
Continuous
 62
     7
370
    13
100
AcDbLine
 10
131.103979
 20
-7.481448
 30
0.0
 11
131.1675
 21
-7.417927
 31
0.0
  0
LINE
  5
3BB
330
504
100
AcDbEntity
  8
Level 1
  6
Continuous
 62
     7
370
    13
100
AcDbLine
 10
131.304906
 20
-7.280521
 30
0.0
 11
131.34426
 21
-7.241167
 31
0.0
  0
LINE
  5
3BC
330
504
100
AcDbEntity
  8
Level 1
  6
Continuous
 62
     7
370
    13
100
AcDbLine
 10
131.304906
 20
-7.188687
 30
0.0
 11
131.343562
 21
-7.150719
 31
0.0
  0
LINE
  5
3BD
330
504
100
AcDbEntity
  8
Level 1
  6
Continuous
 62
     7
370
    13
100
AcDbLine
 10
131.304208
 20
-7.09824
 30
0.0
 11
131.420896
 21
-6.981552
 31
0.0
  0
LINE
  5
3BE
330
504
100
AcDbEntity
  8
Level 1
  6
Continuous
 62
     7
370
    13
100
AcDbLine
 10
131.258635
 20
-7.051979
 30
0.0
 11
131.38775
 21
-6.923552
 31
0.0
  0
LINE
  5
3BF
330
504
100
AcDbEntity
  8
Level 1
  6
Continuous
 62
     7
370
    13
100
AcDbLine
 10
131.21099
 20
-7.008479
 30
0.0
 11
131.301448
 21
-6.918031
 31
0.0
  0
LINE
  5
3C0
330
504
100
AcDbEntity
  8
Level 1
  6
Continuous
 62
     7
370
    13
100
AcDbLine
 10
131.195115
 20
-7.482135
 30
0.0
 11
131.34426
 21
-7.332312
 31
0.0
  0
LINE
  5
3C1
330
504
100
AcDbEntity
  8
Level 1
  6
Continuous
 62
     7
370
    13
100
AcDbLine
 10
131.28626
 20
-7.482135
 30
0.0
 11
131.377396
 21
-7.391
 31
0.0
  0
LINE
  5
3C2
330
504
100
AcDbEntity
  8
Level 1
  6
Continuous
 62
     7
370
    13
100
AcDbLine
 10
131.378083
 20
-7.482135
 30
0.0
 11
131.44299
 21
-7.417229
 31
0.0
  0
LINE
  5
3C3
330
504
100
AcDbEntity
  8
Level 1
  6
Continuous
 62
     7
370
    13
100
AcDbLine
 10
131.469229
 20
-7.482135
 30
0.0
 11
131.512729
 21
-7.438635
 31
0.0
  0
LINE
  5
3C4
330
504
100
AcDbEntity
  8
Level 1
  6
Continuous
 62
     7
370
    13
100
AcDbLine
 10
131.304906
 20
-7.219073
 30
0.0
 11
131.343562
 21
-7.181094
 31
0.0
  0
LINE
  5
3C5
330
504
100
AcDbEntity
  8
Level 1
  6
Continuous
 62
     7
370
    13
100
AcDbLine
 10
131.304906
 20
-7.127927
 30
0.0
 11
131.342875
 21
-7.089958
 31
0.0
  0
LINE
  5
3C6
330
504
100
AcDbEntity
  8
Level 1
  6
Continuous
 62
     7
370
    13
100
AcDbLine
 10
131.376708
 20
-7.056115
 30
0.0
 11
131.420208
 21
-7.012625
 31
0.0
  0
LINE
  5
3C7
330
504
100
AcDbEntity
  8
Level 1
  6
Continuous
 62
     7
370
    13
100
AcDbLine
 10
131.281427
 20
-7.059573
 30
0.0
 11
131.407094
 21
-6.933906
 31
0.0
  0
LINE
  5
3C8
330
504
100
AcDbEntity
  8
Level 1
  6
Continuous
 62
     7
370
    13
100
AcDbLine
 10
131.213073
 20
-7.036792
 30
0.0
 11
131.331823
 21
-6.918031
 31
0.0
  0
LINE
  5
3C9
330
504
100
AcDbEntity
  8
Level 1
  6
Continuous
 62
     7
370
    13
100
AcDbLine
 10
131.21376
 20
-6.944271
 30
0.0
 11
131.231021
 21
-6.927698
 31
0.0
  0
LINE
  5
3CA
330
504
100
AcDbEntity
  8
Level 1
  6
Continuous
 62
     7
370
    13
100
AcDbLine
 10
131.133667
 20
-7.482135
 30
0.0
 11
131.207542
 21
-7.40826
 31
0.0
  0
LINE
  5
3CB
330
504
100
AcDbEntity
  8
Level 1
  6
Continuous
 62
     7
370
    13
100
AcDbLine
 10
131.304906
 20
-7.310906
 30
0.0
 11
131.34426
 21
-7.271542
 31
0.0
  0
LINE
  5
3CC
330
504
100
AcDbEntity
  8
Level 1
  6
Continuous
 62
     7
370
    13
100
AcDbLine
 10
131.2255
 20
-7.482135
 30
0.0
 11
131.350469
 21
-7.357167
 31
0.0
  0
LINE
  5
3CD
330
504
100
AcDbEntity
  8
Level 1
  6
Continuous
 62
     7
370
    13
100
AcDbLine
 10
131.316635
 20
-7.482135
 30
0.0
 11
131.396042
 21
-7.40274
 31
0.0
  0
LINE
  5
3CE
330
504
100
AcDbEntity
  8
Level 1
  6
Continuous
 62
     7
370
    13
100
AcDbLine
 10
131.408469
 20
-7.482135
 30
0.0
 11
131.466469
 21
-7.424135
 31
0.0
  0
LINE
  5
3CF
330
504
100
AcDbEntity
  8
Level 1
  6
Continuous
 62
     7
370
    13
100
AcDbLine
 10
131.500302
 20
-7.482135
 30
0.0
 11
131.536208
 21
-7.445542
 31
0.0
  0
LINE
  5
3D0
330
504
100
AcDbEntity
  8
Level 1
  6
Continuous
 62
     7
370
    13
100
AcDbLine
 10
131.342875
 20
-7.540833
 30
0.0
 11
131.298
 21
-7.49526
 31
0.0
  0
LINE
  5
3D1
330
504
100
AcDbEntity
  8
Level 1
  6
Continuous
 62
     7
370
    13
100
AcDbLine
 10
131.25174
 20
-7.540833
 30
0.0
 11
131.206167
 21
-7.49526
 31
0.0
  0
LINE
  5
3D2
330
504
100
AcDbEntity
  8
Level 1
  6
Continuous
 62
     7
370
    13
100
AcDbLine
 10
131.159906
 20
-7.540833
 30
0.0
 11
131.115021
 21
-7.49526
 31
0.0
  0
LINE
  5
3D3
330
504
100
AcDbEntity
  8
Level 1
  6
Continuous
 62
     7
370
    13
100
AcDbLine
 10
131.084646
 20
-7.465562
 30
0.0
 11
131.070833
 21
-7.451073
 31
0.0
  0
LINE
  5
3D4
330
504
100
AcDbEntity
  8
Level 1
  6
Continuous
 62
     7
370
    13
100
AcDbLine
 10
131.068073
 20
-7.540833
 30
0.0
 11
131.009385
 21
-7.481448
 31
0.0
  0
LINE
  5
3D5
330
504
100
AcDbEntity
  8
Level 1
  6
Continuous
 62
     7
370
    13
100
AcDbLine
 10
130.976927
 20
-7.540833
 30
0.0
 11
130.932052
 21
-7.495948
 31
0.0
  0
LINE
  5
3D6
330
504
100
AcDbEntity
  8
Level 1
  6
Continuous
 62
     7
370
    13
100
AcDbLine
 10
130.885094
 20
-7.540833
 30
0.0
 11
130.847813
 21
-7.502854
 31
0.0
  0
LINE
  5
3D7
330
504
100
AcDbEntity
  8
Level 1
  6
Continuous
 62
     7
370
    13
100
AcDbLine
 10
130.793958
 20
-7.540833
 30
0.0
 11
130.783594
 21
-7.530469
 31
0.0
  0
LINE
  5
3D8
330
504
100
AcDbEntity
  8
Level 1
  6
Continuous
 62
     7
370
    13
100
AcDbLine
 10
131.434708
 20
-7.540833
 30
0.0
 11
131.389135
 21
-7.49526
 31
0.0
  0
LINE
  5
3D9
330
504
100
AcDbEntity
  8
Level 1
  6
Continuous
 62
     7
370
    13
100
AcDbLine
 10
131.525844
 20
-7.540833
 30
0.0
 11
131.480969
 21
-7.49526
 31
0.0
  0
LINE
  5
3DA
330
504
100
AcDbEntity
  8
Level 1
  6
Continuous
 62
     7
370
    13
100
AcDbLine
 10
131.617687
 20
-7.540833
 30
0.0
 11
131.55899
 21
-7.481448
 31
0.0
  0
LINE
  5
3DB
330
504
100
AcDbEntity
  8
Level 1
  6
Continuous
 62
     7
370
    13
100
AcDbLine
 10
131.708823
 20
-7.540833
 30
0.0
 11
131.670844
 21
-7.502167
 31
0.0
  0
LINE
  5
3DC
330
504
100
AcDbEntity
  8
Level 1
  6
Continuous
 62
     7
370
    13
100
AcDbLine
 10
131.800656
 20
-7.540833
 30
0.0
 11
131.765437
 21
-7.505615
 31
0.0
  0
LINE
  5
3DD
330
504
100
AcDbEntity
  8
Level 1
  6
Continuous
 62
     7
370
    13
100
AcDbLine
 10
131.282115
 20
-7.540833
 30
0.0
 11
131.236542
 21
-7.49526
 31
0.0
  0
LINE
  5
3DE
330
504
100
AcDbEntity
  8
Level 1
  6
Continuous
 62
     7
370
    13
100
AcDbLine
 10
131.190281
 20
-7.540833
 30
0.0
 11
131.145406
 21
-7.49526
 31
0.0
  0
LINE
  5
3DF
330
504
100
AcDbEntity
  8
Level 1
  6
Continuous
 62
     7
370
    13
100
AcDbLine
 10
131.099146
 20
-7.540833
 30
0.0
 11
131.029406
 21
-7.471094
 31
0.0
  0
LINE
  5
3E0
330
504
100
AcDbEntity
  8
Level 1
  6
Continuous
 62
     7
370
    13
100
AcDbLine
 10
131.007302
 20
-7.540833
 30
0.0
 11
130.960365
 21
-7.493875
 31
0.0
  0
LINE
  5
3E1
330
504
100
AcDbEntity
  8
Level 1
  6
Continuous
 62
     7
370
    13
100
AcDbLine
 10
130.915479
 20
-7.540833
 30
0.0
 11
130.876125
 21
-7.500781
 31
0.0
  0
LINE
  5
3E2
330
504
100
AcDbEntity
  8
Level 1
  6
Continuous
 62
     7
370
    13
100
AcDbLine
 10
130.824333
 20
-7.540833
 30
0.0
 11
130.791198
 21
-7.507687
 31
0.0
  0
LINE
  5
3E3
330
504
100
AcDbEntity
  8
Level 1
  6
Continuous
 62
     7
370
    13
100
AcDbLine
 10
131.37325
 20
-7.540833
 30
0.0
 11
131.328375
 21
-7.49526
 31
0.0
  0
LINE
  5
3E4
330
504
100
AcDbEntity
  8
Level 1
  6
Continuous
 62
     7
370
    13
100
AcDbLine
 10
131.465094
 20
-7.540833
 30
0.0
 11
131.41951
 21
-7.49526
 31
0.0
  0
LINE
  5
3E5
330
504
100
AcDbEntity
  8
Level 1
  6
Continuous
 62
     7
370
    13
100
AcDbLine
 10
131.556917
 20
-7.540833
 30
0.0
 11
131.511354
 21
-7.49526
 31
0.0
  0
LINE
  5
3E6
330
504
100
AcDbEntity
  8
Level 1
  6
Continuous
 62
     7
370
    13
100
AcDbLine
 10
131.648063
 20
-7.540833
 30
0.0
 11
131.558292
 21
-7.451073
 31
0.0
  0
LINE
  5
3E7
330
504
100
AcDbEntity
  8
Level 1
  6
Continuous
 62
     7
370
    13
100
AcDbLine
 10
131.739896
 20
-7.540833
 30
0.0
 11
131.702604
 21
-7.503542
 31
0.0
  0
LINE
  5
3E8
330
504
100
AcDbEntity
  8
Level 1
  6
Continuous
 62
     7
370
    13
100
AcDbLine
 10
131.831031
 20
-7.540833
 30
0.0
 11
131.797198
 21
-7.506302
 31
0.0
  0
LINE
  5
3E9
330
504
100
AcDbEntity
  8
Level 1
  6
Continuous
 62
     7
370
    13
100
AcDbLine
 10
130.550917
 20
-7.078906
 30
0.0
 11
130.55575
 21
-7.074083
 31
0.0
  0
LINE
  5
3EA
330
504
100
AcDbEntity
  8
Level 1
  6
Continuous
 62
     7
370
    13
100
AcDbLine
 10
130.548156
 20
-7.079594
 30
0.0
 11
130.556437
 21
-7.070625
 31
0.0
  0
LINE
  5
3EB
330
504
100
AcDbEntity
  8
Level 1
  6
Continuous
 62
     7
370
    13
100
AcDbLine
 10
130.545385
 20
-7.078906
 30
0.0
 11
130.55575
 21
-7.068552
 31
0.0
  0
LINE
  5
3EC
330
504
100
AcDbEntity
  8
Level 1
  6
Continuous
 62
     7
370
    13
100
AcDbLine
 10
130.54401
 20
-7.078219
 30
0.0
 11
130.55575
 21
-7.067177
 31
0.0
  0
LINE
  5
3ED
330
504
100
AcDbEntity
  8
Level 1
  6
Continuous
 62
     7
370
    13
100
AcDbLine
 10
130.542625
 20
-7.077521
 30
0.0
 11
130.554365
 21
-7.065094
 31
0.0
  0
LINE
  5
3EE
330
504
100
AcDbEntity
  8
Level 1
  6
Continuous
 62
     7
370
    13
100
AcDbLine
 10
130.54125
 20
-7.076146
 30
0.0
 11
130.55299
 21
-7.064406
 31
0.0
  0
LINE
  5
3EF
330
504
100
AcDbEntity
  8
Level 1
  6
Continuous
 62
     7
370
    13
100
AcDbLine
 10
130.539865
 20
-7.07476
 30
0.0
 11
130.551604
 21
-7.063021
 31
0.0
  0
LINE
  5
3F0
330
504
100
AcDbEntity
  8
Level 1
  6
Continuous
 62
     7
370
    13
100
AcDbLine
 10
130.539177
 20
-7.073385
 30
0.0
 11
130.550219
 21
-7.062344
 31
0.0
  0
LINE
  5
3F1
330
504
100
AcDbEntity
  8
Level 1
  6
Continuous
 62
     7
370
    13
100
AcDbLine
 10
130.539177
 20
-7.071312
 30
0.0
 11
130.548156
 21
-7.062344
 31
0.0
  0
LINE
  5
3F2
330
504
100
AcDbEntity
  8
Level 1
  6
Continuous
 62
     7
370
    13
100
AcDbLine
 10
130.539177
 20
-7.068552
 30
0.0
 11
130.545385
 21
-7.062344
 31
0.0
  0
LINE
  5
3F3
330
504
100
AcDbEntity
  8
Level 1
  6
Continuous
 62
     7
370
    13
100
AcDbLine
 10
130.780833
 20
-7.068552
 30
0.0
 11
130.787052
 21
-7.062344
 31
0.0
  0
LINE
  5
3F4
330
504
100
AcDbEntity
  8
Level 1
  6
Continuous
 62
     7
370
    13
100
AcDbLine
 10
130.780833
 20
-7.071312
 30
0.0
 11
130.789812
 21
-7.062344
 31
0.0
  0
LINE
  5
3F5
330
504
100
AcDbEntity
  8
Level 1
  6
Continuous
 62
     7
370
    13
100
AcDbLine
 10
130.780833
 20
-7.073385
 30
0.0
 11
130.791885
 21
-7.062344
 31
0.0
  0
LINE
  5
3F6
330
504
100
AcDbEntity
  8
Level 1
  6
Continuous
 62
     7
370
    13
100
AcDbLine
 10
130.781531
 20
-7.07476
 30
0.0
 11
130.793271
 21
-7.063021
 31
0.0
  0
LINE
  5
3F7
330
504
100
AcDbEntity
  8
Level 1
  6
Continuous
 62
     7
370
    13
100
AcDbLine
 10
130.782906
 20
-7.076146
 30
0.0
 11
130.794646
 21
-7.064406
 31
0.0
  0
LINE
  5
3F8
330
504
100
AcDbEntity
  8
Level 1
  6
Continuous
 62
     7
370
    13
100
AcDbLine
 10
130.784292
 20
-7.077521
 30
0.0
 11
130.796031
 21
-7.065094
 31
0.0
  0
LINE
  5
3F9
330
504
100
AcDbEntity
  8
Level 1
  6
Continuous
 62
     7
370
    13
100
AcDbLine
 10
130.785667
 20
-7.078219
 30
0.0
 11
130.797406
 21
-7.067177
 31
0.0
  0
LINE
  5
3FA
330
504
100
AcDbEntity
  8
Level 1
  6
Continuous
 62
     7
370
    13
100
AcDbLine
 10
130.787052
 20
-7.078906
 30
0.0
 11
130.797406
 21
-7.068552
 31
0.0
  0
LINE
  5
3FB
330
504
100
AcDbEntity
  8
Level 1
  6
Continuous
 62
     7
370
    13
100
AcDbLine
 10
130.789812
 20
-7.079594
 30
0.0
 11
130.798104
 21
-7.070625
 31
0.0
  0
LINE
  5
3FC
330
504
100
AcDbEntity
  8
Level 1
  6
Continuous
 62
     7
370
    13
100
AcDbLine
 10
130.792573
 20
-7.078906
 30
0.0
 11
130.797406
 21
-7.074083
 31
0.0
  0
LINE
  5
3FD
330
504
100
AcDbEntity
  8
Level 1
  6
Continuous
 62
     7
370
    13
100
AcDbLine
 10
130.55575
 20
-7.068552
 30
0.0
 11
130.550219
 21
-7.062344
 31
0.0
  0
LINE
  5
3FE
330
504
100
AcDbEntity
  8
Level 1
  6
Continuous
 62
     7
370
    13
100
AcDbLine
 10
130.556437
 20
-7.071312
 30
0.0
 11
130.547458
 21
-7.062344
 31
0.0
  0
LINE
  5
3FF
330
504
100
AcDbEntity
  8
Level 1
  6
Continuous
 62
     7
370
    13
100
AcDbLine
 10
130.55575
 20
-7.073385
 30
0.0
 11
130.545385
 21
-7.062344
 31
0.0
  0
LINE
  5
400
330
504
100
AcDbEntity
  8
Level 1
  6
Continuous
 62
     7
370
    13
100
AcDbLine
 10
130.555062
 20
-7.07476
 30
0.0
 11
130.543323
 21
-7.063021
 31
0.0
  0
LINE
  5
401
330
504
100
AcDbEntity
  8
Level 1
  6
Continuous
 62
     7
370
    13
100
AcDbLine
 10
130.554365
 20
-7.076146
 30
0.0
 11
130.541937
 21
-7.064406
 31
0.0
  0
LINE
  5
402
330
504
100
AcDbEntity
  8
Level 1
  6
Continuous
 62
     7
370
    13
100
AcDbLine
 10
130.55299
 20
-7.077521
 30
0.0
 11
130.540552
 21
-7.065792
 31
0.0
  0
LINE
  5
403
330
504
100
AcDbEntity
  8
Level 1
  6
Continuous
 62
     7
370
    13
100
AcDbLine
 10
130.551604
 20
-7.078219
 30
0.0
 11
130.539865
 21
-7.067177
 31
0.0
  0
LINE
  5
404
330
504
100
AcDbEntity
  8
Level 1
  6
Continuous
 62
     7
370
    13
100
AcDbLine
 10
130.549531
 20
-7.078906
 30
0.0
 11
130.539177
 21
-7.068552
 31
0.0
  0
LINE
  5
405
330
504
100
AcDbEntity
  8
Level 1
  6
Continuous
 62
     7
370
    13
100
AcDbLine
 10
130.547458
 20
-7.079594
 30
0.0
 11
130.539177
 21
-7.071312
 31
0.0
  0
LINE
  5
406
330
504
100
AcDbEntity
  8
Level 1
  6
Continuous
 62
     7
370
    13
100
AcDbLine
 10
130.54401
 20
-7.078906
 30
0.0
 11
130.539865
 21
-7.074083
 31
0.0
  0
LINE
  5
407
330
504
100
AcDbEntity
  8
Level 1
  6
Continuous
 62
     7
370
    13
100
AcDbLine
 10
130.785667
 20
-7.078906
 30
0.0
 11
130.781531
 21
-7.074083
 31
0.0
  0
LINE
  5
408
330
504
100
AcDbEntity
  8
Level 1
  6
Continuous
 62
     7
370
    13
100
AcDbLine
 10
130.789125
 20
-7.079594
 30
0.0
 11
130.780833
 21
-7.071312
 31
0.0
  0
LINE
  5
409
330
504
100
AcDbEntity
  8
Level 1
  6
Continuous
 62
     7
370
    13
100
AcDbLine
 10
130.791198
 20
-7.078906
 30
0.0
 11
130.780833
 21
-7.068552
 31
0.0
  0
LINE
  5
40A
330
504
100
AcDbEntity
  8
Level 1
  6
Continuous
 62
     7
370
    13
100
AcDbLine
 10
130.793271
 20
-7.078219
 30
0.0
 11
130.781531
 21
-7.067177
 31
0.0
  0
LINE
  5
40B
330
504
100
AcDbEntity
  8
Level 1
  6
Continuous
 62
     7
370
    13
100
AcDbLine
 10
130.794646
 20
-7.077521
 30
0.0
 11
130.782219
 21
-7.065792
 31
0.0
  0
LINE
  5
40C
330
504
100
AcDbEntity
  8
Level 1
  6
Continuous
 62
     7
370
    13
100
AcDbLine
 10
130.796031
 20
-7.076146
 30
0.0
 11
130.783594
 21
-7.064406
 31
0.0
  0
LINE
  5
40D
330
504
100
AcDbEntity
  8
Level 1
  6
Continuous
 62
     7
370
    13
100
AcDbLine
 10
130.796719
 20
-7.07476
 30
0.0
 11
130.784979
 21
-7.063021
 31
0.0
  0
LINE
  5
40E
330
504
100
AcDbEntity
  8
Level 1
  6
Continuous
 62
     7
370
    13
100
AcDbLine
 10
130.797406
 20
-7.073385
 30
0.0
 11
130.787052
 21
-7.062344
 31
0.0
  0
LINE
  5
40F
330
504
100
AcDbEntity
  8
Level 1
  6
Continuous
 62
     7
370
    13
100
AcDbLine
 10
130.798104
 20
-7.071312
 30
0.0
 11
130.789125
 21
-7.062344
 31
0.0
  0
LINE
  5
410
330
504
100
AcDbEntity
  8
Level 1
  6
Continuous
 62
     7
370
    13
100
AcDbLine
 10
130.797406
 20
-7.068552
 30
0.0
 11
130.791885
 21
-7.062344
 31
0.0
  0
LINE
  5
411
330
504
100
AcDbEntity
  8
Level 1
  6
Continuous
 62
     7
370
    13
100
AcDbLine
 10
131.799958
 20
-7.078906
 30
0.0
 11
131.804104
 21
-7.074083
 31
0.0
  0
LINE
  5
412
330
504
100
AcDbEntity
  8
Level 1
  6
Continuous
 62
     7
370
    13
100
AcDbLine
 10
131.79651
 20
-7.079594
 30
0.0
 11
131.804802
 21
-7.070625
 31
0.0
  0
LINE
  5
413
330
504
100
AcDbEntity
  8
Level 1
  6
Continuous
 62
     7
370
    13
100
AcDbLine
 10
131.794437
 20
-7.078906
 30
0.0
 11
131.804802
 21
-7.068552
 31
0.0
  0
LINE
  5
414
330
504
100
AcDbEntity
  8
Level 1
  6
Continuous
 62
     7
370
    13
100
AcDbLine
 10
131.792365
 20
-7.078219
 30
0.0
 11
131.804104
 21
-7.067177
 31
0.0
  0
LINE
  5
415
330
504
100
AcDbEntity
  8
Level 1
  6
Continuous
 62
     7
370
    13
100
AcDbLine
 10
131.79099
 20
-7.077521
 30
0.0
 11
131.803417
 21
-7.065094
 31
0.0
  0
LINE
  5
416
330
504
100
AcDbEntity
  8
Level 1
  6
Continuous
 62
     7
370
    13
100
AcDbLine
 10
131.789604
 20
-7.076146
 30
0.0
 11
131.802031
 21
-7.064406
 31
0.0
  0
LINE
  5
417
330
504
100
AcDbEntity
  8
Level 1
  6
Continuous
 62
     7
370
    13
100
AcDbLine
 10
131.788917
 20
-7.07476
 30
0.0
 11
131.800656
 21
-7.063021
 31
0.0
  0
LINE
  5
418
330
504
100
AcDbEntity
  8
Level 1
  6
Continuous
 62
     7
370
    13
100
AcDbLine
 10
131.788229
 20
-7.073385
 30
0.0
 11
131.798583
 21
-7.062344
 31
0.0
  0
LINE
  5
419
330
504
100
AcDbEntity
  8
Level 1
  6
Continuous
 62
     7
370
    13
100
AcDbLine
 10
131.787531
 20
-7.071312
 30
0.0
 11
131.79651
 21
-7.062344
 31
0.0
  0
LINE
  5
41A
330
504
100
AcDbEntity
  8
Level 1
  6
Continuous
 62
     7
370
    13
100
AcDbLine
 10
131.788229
 20
-7.068552
 30
0.0
 11
131.79375
 21
-7.062344
 31
0.0
  0
LINE
  5
41B
330
504
100
AcDbEntity
  8
Level 1
  6
Continuous
 62
     7
370
    13
100
AcDbLine
 10
132.029896
 20
-7.068552
 30
0.0
 11
132.036104
 21
-7.062344
 31
0.0
  0
LINE
  5
41C
330
504
100
AcDbEntity
  8
Level 1
  6
Continuous
 62
     7
370
    13
100
AcDbLine
 10
132.029198
 20
-7.071312
 30
0.0
 11
132.038865
 21
-7.062344
 31
0.0
  0
LINE
  5
41D
330
504
100
AcDbEntity
  8
Level 1
  6
Continuous
 62
     7
370
    13
100
AcDbLine
 10
132.029896
 20
-7.073385
 30
0.0
 11
132.04024
 21
-7.062344
 31
0.0
  0
LINE
  5
41E
330
504
100
AcDbEntity
  8
Level 1
  6
Continuous
 62
     7
370
    13
100
AcDbLine
 10
132.030573
 20
-7.07476
 30
0.0
 11
132.042313
 21
-7.063021
 31
0.0
  0
LINE
  5
41F
330
504
100
AcDbEntity
  8
Level 1
  6
Continuous
 62
     7
370
    13
100
AcDbLine
 10
132.031271
 20
-7.076146
 30
0.0
 11
132.043698
 21
-7.064406
 31
0.0
  0
LINE
  5
420
330
504
100
AcDbEntity
  8
Level 1
  6
Continuous
 62
     7
370
    13
100
AcDbLine
 10
132.032646
 20
-7.077521
 30
0.0
 11
132.045073
 21
-7.065094
 31
0.0
  0
LINE
  5
421
330
504
100
AcDbEntity
  8
Level 1
  6
Continuous
 62
     7
370
    13
100
AcDbLine
 10
132.034031
 20
-7.078219
 30
0.0
 11
132.045771
 21
-7.067177
 31
0.0
  0
LINE
  5
422
330
504
100
AcDbEntity
  8
Level 1
  6
Continuous
 62
     7
370
    13
100
AcDbLine
 10
132.036104
 20
-7.078906
 30
0.0
 11
132.046458
 21
-7.068552
 31
0.0
  0
LINE
  5
423
330
504
100
AcDbEntity
  8
Level 1
  6
Continuous
 62
     7
370
    13
100
AcDbLine
 10
132.038177
 20
-7.079594
 30
0.0
 11
132.046458
 21
-7.070625
 31
0.0
  0
LINE
  5
424
330
504
100
AcDbEntity
  8
Level 1
  6
Continuous
 62
     7
370
    13
100
AcDbLine
 10
132.041625
 20
-7.078906
 30
0.0
 11
132.045771
 21
-7.074083
 31
0.0
  0
LINE
  5
425
330
504
100
AcDbEntity
  8
Level 1
  6
Continuous
 62
     7
370
    13
100
AcDbLine
 10
131.804802
 20
-7.068552
 30
0.0
 11
131.798583
 21
-7.062344
 31
0.0
  0
LINE
  5
426
330
504
100
AcDbEntity
  8
Level 1
  6
Continuous
 62
     7
370
    13
100
AcDbLine
 10
131.804802
 20
-7.071312
 30
0.0
 11
131.795823
 21
-7.062344
 31
0.0
  0
LINE
  5
427
330
504
100
AcDbEntity
  8
Level 1
  6
Continuous
 62
     7
370
    13
100
AcDbLine
 10
131.804802
 20
-7.073385
 30
0.0
 11
131.79375
 21
-7.062344
 31
0.0
  0
LINE
  5
428
330
504
100
AcDbEntity
  8
Level 1
  6
Continuous
 62
     7
370
    13
100
AcDbLine
 10
131.804104
 20
-7.07476
 30
0.0
 11
131.792365
 21
-7.063021
 31
0.0
  0
LINE
  5
429
330
504
100
AcDbEntity
  8
Level 1
  6
Continuous
 62
     7
370
    13
100
AcDbLine
 10
131.802729
 20
-7.076146
 30
0.0
 11
131.79099
 21
-7.064406
 31
0.0
  0
LINE
  5
42A
330
504
100
AcDbEntity
  8
Level 1
  6
Continuous
 62
     7
370
    13
100
AcDbLine
 10
131.801344
 20
-7.077521
 30
0.0
 11
131.789604
 21
-7.065792
 31
0.0
  0
LINE
  5
42B
330
504
100
AcDbEntity
  8
Level 1
  6
Continuous
 62
     7
370
    13
100
AcDbLine
 10
131.799958
 20
-7.078219
 30
0.0
 11
131.788917
 21
-7.067177
 31
0.0
  0
LINE
  5
42C
330
504
100
AcDbEntity
  8
Level 1
  6
Continuous
 62
     7
370
    13
100
AcDbLine
 10
131.798583
 20
-7.078906
 30
0.0
 11
131.788229
 21
-7.068552
 31
0.0
  0
LINE
  5
42D
330
504
100
AcDbEntity
  8
Level 1
  6
Continuous
 62
     7
370
    13
100
AcDbLine
 10
131.795823
 20
-7.079594
 30
0.0
 11
131.787531
 21
-7.071312
 31
0.0
  0
LINE
  5
42E
330
504
100
AcDbEntity
  8
Level 1
  6
Continuous
 62
     7
370
    13
100
AcDbLine
 10
131.793062
 20
-7.078906
 30
0.0
 11
131.788229
 21
-7.074083
 31
0.0
  0
LINE
  5
42F
330
504
100
AcDbEntity
  8
Level 1
  6
Continuous
 62
     7
370
    13
100
AcDbLine
 10
132.034719
 20
-7.078906
 30
0.0
 11
132.029896
 21
-7.074083
 31
0.0
  0
LINE
  5
430
330
504
100
AcDbEntity
  8
Level 1
  6
Continuous
 62
     7
370
    13
100
AcDbLine
 10
132.037479
 20
-7.079594
 30
0.0
 11
132.029198
 21
-7.071312
 31
0.0
  0
LINE
  5
431
330
504
100
AcDbEntity
  8
Level 1
  6
Continuous
 62
     7
370
    13
100
AcDbLine
 10
132.04024
 20
-7.078906
 30
0.0
 11
132.029896
 21
-7.068552
 31
0.0
  0
LINE
  5
432
330
504
100
AcDbEntity
  8
Level 1
  6
Continuous
 62
     7
370
    13
100
AcDbLine
 10
132.041625
 20
-7.078219
 30
0.0
 11
132.030573
 21
-7.067177
 31
0.0
  0
LINE
  5
433
330
504
100
AcDbEntity
  8
Level 1
  6
Continuous
 62
     7
370
    13
100
AcDbLine
 10
132.04301
 20
-7.077521
 30
0.0
 11
132.031271
 21
-7.065792
 31
0.0
  0
LINE
  5
434
330
504
100
AcDbEntity
  8
Level 1
  6
Continuous
 62
     7
370
    13
100
AcDbLine
 10
132.044385
 20
-7.076146
 30
0.0
 11
132.032646
 21
-7.064406
 31
0.0
  0
LINE
  5
435
330
504
100
AcDbEntity
  8
Level 1
  6
Continuous
 62
     7
370
    13
100
AcDbLine
 10
132.045771
 20
-7.07476
 30
0.0
 11
132.034031
 21
-7.063021
 31
0.0
  0
LINE
  5
436
330
504
100
AcDbEntity
  8
Level 1
  6
Continuous
 62
     7
370
    13
100
AcDbLine
 10
132.046458
 20
-7.073385
 30
0.0
 11
132.035406
 21
-7.062344
 31
0.0
  0
LINE
  5
437
330
504
100
AcDbEntity
  8
Level 1
  6
Continuous
 62
     7
370
    13
100
AcDbLine
 10
132.046458
 20
-7.071312
 30
0.0
 11
132.037479
 21
-7.062344
 31
0.0
  0
LINE
  5
438
330
504
100
AcDbEntity
  8
Level 1
  6
Continuous
 62
     7
370
    13
100
AcDbLine
 10
132.046458
 20
-7.068552
 30
0.0
 11
132.04024
 21
-7.062344
 31
0.0
  0
LINE
  5
439
330
504
100
AcDbEntity
  8
Level 1
  6
Continuous
 62
     7
370
    13
100
AcDbLine
 10
133.978385
 20
-8.999781
 30
0.0
 11
133.992885
 21
-8.985281
 31
0.0
  0
LINE
  5
43A
330
504
100
AcDbEntity
  8
Level 1
  6
Continuous
 62
     7
370
    13
100
AcDbLine
 10
134.072281
 20
-8.905875
 30
0.0
 11
134.097823
 21
-8.880323
 31
0.0
  0
LINE
  5
43B
330
504
100
AcDbEntity
  8
Level 1
  6
Continuous
 62
     7
370
    13
100
AcDbLine
 10
133.998396
 20
-8.97975
 30
0.0
 11
134.041896
 21
-8.93626
 31
0.0
  0
LINE
  5
43C
330
504
100
AcDbEntity
  8
Level 1
  6
Continuous
 62
     7
370
    13
100
AcDbLine
 10
134.056396
 20
-8.830615
 30
0.0
 11
134.091615
 21
-8.795406
 31
0.0
  0
LINE
  5
43D
330
504
100
AcDbEntity
  8
Level 1
  6
Continuous
 62
     7
370
    13
100
AcDbLine
 10
134.069521
 20
-8.999781
 30
0.0
 11
134.084708
 21
-8.985281
 31
0.0
  0
LINE
  5
43E
330
504
100
AcDbEntity
  8
Level 1
  6
Continuous
 62
     7
370
    13
100
AcDbLine
 10
134.090229
 20
-8.97975
 30
0.0
 11
134.132354
 21
-8.936948
 31
0.0
  0
LINE
  5
43F
330
504
100
AcDbEntity
  8
Level 1
  6
Continuous
 62
     7
370
    13
100
AcDbLine
 10
134.161354
 20
-8.999781
 30
0.0
 11
134.175854
 21
-8.985281
 31
0.0
  0
LINE
  5
440
330
504
100
AcDbEntity
  8
Level 1
  6
Continuous
 62
     7
370
    13
100
AcDbLine
 10
134.182063
 20
-8.97975
 30
0.0
 11
134.199323
 21
-8.961802
 31
0.0
  0
LINE
  5
441
330
504
100
AcDbEntity
  8
Level 1
  6
Continuous
 62
     7
370
    13
100
AcDbLine
 10
133.919688
 20
-8.997021
 30
0.0
 11
133.939708
 21
-8.977688
 31
0.0
  0
LINE
  5
442
330
504
100
AcDbEntity
  8
Level 1
  6
Continuous
 62
     7
370
    13
100
AcDbLine
 10
134.067448
 20
-8.849948
 30
0.0
 11
134.113021
 21
-8.804375
 31
0.0
  0
LINE
  5
443
330
504
100
AcDbEntity
  8
Level 1
  6
Continuous
 62
     7
370
    13
100
AcDbLine
 10
134.00876
 20
-8.999781
 30
0.0
 11
134.02325
 21
-8.985281
 31
0.0
  0
LINE
  5
444
330
504
100
AcDbEntity
  8
Level 1
  6
Continuous
 62
     7
370
    13
100
AcDbLine
 10
134.029479
 20
-8.97975
 30
0.0
 11
134.097823
 21
-8.910708
 31
0.0
  0
LINE
  5
445
330
504
100
AcDbEntity
  8
Level 1
  6
Continuous
 62
     7
370
    13
100
AcDbLine
 10
134.099896
 20
-8.999781
 30
0.0
 11
134.115094
 21
-8.985281
 31
0.0
  0
LINE
  5
446
330
504
100
AcDbEntity
  8
Level 1
  6
Continuous
 62
     7
370
    13
100
AcDbLine
 10
134.120615
 20
-8.97975
 30
0.0
 11
134.155135
 21
-8.945229
 31
0.0
  0
LINE
  5
447
330
504
100
AcDbEntity
  8
Level 1
  6
Continuous
 62
     7
370
    13
100
AcDbLine
 10
134.19174
 20
-8.999781
 30
0.0
 11
134.206917
 21
-8.985281
 31
0.0
  0
LINE
  5
448
330
504
100
AcDbEntity
  8
Level 1
  6
Continuous
 62
     7
370
    13
100
AcDbLine
 10
134.217281
 20
-8.974917
 30
0.0
 11
134.219354
 21
-8.972854
 31
0.0
  0
LINE
  5
449
330
504
100
AcDbEntity
  8
Level 1
  6
Continuous
 62
     7
370
    13
100
AcDbLine
 10
132.259813
 20
-8.999781
 30
0.0
 11
132.274313
 21
-8.985281
 31
0.0
  0
LINE
  5
44A
330
504
100
AcDbEntity
  8
Level 1
  6
Continuous
 62
     7
370
    13
100
AcDbLine
 10
132.353719
 20
-8.905875
 30
0.0
 11
132.379271
 21
-8.880323
 31
0.0
  0
LINE
  5
44B
330
504
100
AcDbEntity
  8
Level 1
  6
Continuous
 62
     7
370
    13
100
AcDbLine
 10
132.279844
 20
-8.97975
 30
0.0
 11
132.323333
 21
-8.93626
 31
0.0
  0
LINE
  5
44C
330
504
100
AcDbEntity
  8
Level 1
  6
Continuous
 62
     7
370
    13
100
AcDbLine
 10
132.337844
 20
-8.830615
 30
0.0
 11
132.373042
 21
-8.795406
 31
0.0
  0
LINE
  5
44D
330
504
100
AcDbEntity
  8
Level 1
  6
Continuous
 62
     7
370
    13
100
AcDbLine
 10
132.350958
 20
-8.999781
 30
0.0
 11
132.366135
 21
-8.985281
 31
0.0
  0
LINE
  5
44E
330
504
100
AcDbEntity
  8
Level 1
  6
Continuous
 62
     7
370
    13
100
AcDbLine
 10
132.371667
 20
-8.97975
 30
0.0
 11
132.413792
 21
-8.936948
 31
0.0
  0
LINE
  5
44F
330
504
100
AcDbEntity
  8
Level 1
  6
Continuous
 62
     7
370
    13
100
AcDbLine
 10
132.442781
 20
-8.999781
 30
0.0
 11
132.457281
 21
-8.985281
 31
0.0
  0
LINE
  5
450
330
504
100
AcDbEntity
  8
Level 1
  6
Continuous
 62
     7
370
    13
100
AcDbLine
 10
132.462812
 20
-8.97975
 30
0.0
 11
132.48076
 21
-8.961802
 31
0.0
  0
LINE
  5
451
330
504
100
AcDbEntity
  8
Level 1
  6
Continuous
 62
     7
370
    13
100
AcDbLine
 10
132.201125
 20
-8.997021
 30
0.0
 11
132.221146
 21
-8.977688
 31
0.0
  0
LINE
  5
452
330
504
100
AcDbEntity
  8
Level 1
  6
Continuous
 62
     7
370
    13
100
AcDbLine
 10
132.348885
 20
-8.849948
 30
0.0
 11
132.394448
 21
-8.804375
 31
0.0
  0
LINE
  5
453
330
504
100
AcDbEntity
  8
Level 1
  6
Continuous
 62
     7
370
    13
100
AcDbLine
 10
132.290188
 20
-8.999781
 30
0.0
 11
132.304698
 21
-8.985281
 31
0.0
  0
LINE
  5
454
330
504
100
AcDbEntity
  8
Level 1
  6
Continuous
 62
     7
370
    13
100
AcDbLine
 10
132.310219
 20
-8.97975
 30
0.0
 11
132.379271
 21
-8.910708
 31
0.0
  0
LINE
  5
455
330
504
100
AcDbEntity
  8
Level 1
  6
Continuous
 62
     7
370
    13
100
AcDbLine
 10
132.381333
 20
-8.999781
 30
0.0
 11
132.396521
 21
-8.985281
 31
0.0
  0
LINE
  5
456
330
504
100
AcDbEntity
  8
Level 1
  6
Continuous
 62
     7
370
    13
100
AcDbLine
 10
132.402052
 20
-8.97975
 30
0.0
 11
132.436573
 21
-8.945229
 31
0.0
  0
LINE
  5
457
330
504
100
AcDbEntity
  8
Level 1
  6
Continuous
 62
     7
370
    13
100
AcDbLine
 10
132.473167
 20
-8.999781
 30
0.0
 11
132.487667
 21
-8.985281
 31
0.0
  0
LINE
  5
458
330
504
100
AcDbEntity
  8
Level 1
  6
Continuous
 62
     7
370
    13
100
AcDbLine
 10
132.498708
 20
-8.974917
 30
0.0
 11
132.500094
 21
-8.972854
 31
0.0
  0
LINE
  5
459
330
504
100
AcDbEntity
  8
Level 1
  6
DGN Style 2
 62
     7
370
    13
100
AcDbLine
 10
135.005094
 20
-3.558229
 30
0.0
 11
135.005094
 21
-5.633073
 31
0.0
  0
LINE
  5
45A
330
504
100
AcDbEntity
  8
Level 1
  6
DGN Style 2
 62
     7
370
    13
100
AcDbLine
 10
134.911885
 20
-3.558229
 30
0.0
 11
134.911885
 21
-5.64551
 31
0.0
  0
LINE
  5
45B
330
504
100
AcDbEntity
  8
Level 1
  6
Continuous
 62
     7
370
    13
100
AcDbLine
 10
135.740448
 20
-4.535927
 30
0.0
 11
135.005094
 21
-4.316354
 31
0.0
  0
LWPOLYLINE
  5
45C
330
504
100
AcDbEntity
  8
Level 1
  6
Continuous
 62
     7
370
    13
100
AcDbPolyline
 90
        3
 70
   128
 43
0.0
 10
135.09624
 20
-4.36124
 10
135.005094
 20
-4.316354
 10
135.107292
 20
-4.324646
  0
LINE
  5
45D
330
504
100
AcDbEntity
  8
Level 1
  6
Continuous
 62
     7
370
    13
100
AcDbLine
 10
135.740448
 20
-4.535927
 30
0.0
 11
134.918104
 21
-4.564927
 31
0.0
  0
LWPOLYLINE
  5
45E
330
504
100
AcDbEntity
  8
Level 1
  6
Continuous
 62
     7
370
    13
100
AcDbPolyline
 90
        3
 70
   128
 43
0.0
 10
135.018906
 20
-4.580115
 10
134.918104
 20
-4.564927
 10
135.016833
 20
-4.540062
  0
LINE
  5
45F
330
504
100
AcDbEntity
  8
Level 1
  6
Continuous
 62
     7
370
    13
100
AcDbLine
 10
135.107292
 20
-4.324646
 30
0.0
 11
135.098312
 21
-4.363313
 31
0.0
  0
LINE
  5
460
330
504
100
AcDbEntity
  8
Level 1
  6
Continuous
 62
     7
370
    13
100
AcDbLine
 10
135.018906
 20
-4.5815
 30
0.0
 11
135.016833
 21
-4.54076
 31
0.0
  0
LINE
  5
46A
330
504
100
AcDbEntity
  8
Level 1
  6
DGN Style 2
 62
     7
370
    13
100
AcDbLine
 10
134.621896
 20
-3.558229
 30
0.0
 11
134.621896
 21
-5.633073
 31
0.0
  0
LINE
  5
46B
330
504
100
AcDbEntity
  8
Level 1
  6
DGN Style 2
 62
     7
370
    13
100
AcDbLine
 10
134.528677
 20
-3.558229
 30
0.0
 11
134.528677
 21
-5.64551
 31
0.0
  0
LINE
  5
46C
330
504
100
AcDbEntity
  8
Level 1
  6
DGN Style 2
 62
     7
370
    13
100
AcDbLine
 10
134.247656
 20
-3.56099
 30
0.0
 11
134.247656
 21
-5.635833
 31
0.0
  0
LINE
  5
46D
330
504
100
AcDbEntity
  8
Level 1
  6
DGN Style 2
 62
     7
370
    13
100
AcDbLine
 10
134.154448
 20
-3.56099
 30
0.0
 11
134.154448
 21
-5.579219
 31
0.0
  0
LINE
  5
46E
330
504
100
AcDbEntity
  8
Level 1
  6
DGN Style 2
 62
     7
370
    13
100
AcDbLine
 10
133.847187
 20
-3.558229
 30
0.0
 11
133.847187
 21
-5.581292
 31
0.0
  0
LINE
  5
46F
330
504
100
AcDbEntity
  8
Level 1
  6
DGN Style 2
 62
     7
370
    13
100
AcDbLine
 10
133.753979
 20
-3.558229
 30
0.0
 11
133.753979
 21
-5.579219
 31
0.0
  0
LINE
  5
470
330
504
100
AcDbEntity
  8
Level 1
  6
DGN Style 2
 62
     7
370
    13
100
AcDbLine
 10
133.446031
 20
-3.558229
 30
0.0
 11
133.446031
 21
-5.579219
 31
0.0
  0
LINE
  5
471
330
504
100
AcDbEntity
  8
Level 1
  6
DGN Style 2
 62
     7
370
    13
100
AcDbLine
 10
133.352812
 20
-3.558229
 30
0.0
 11
133.352812
 21
-5.581292
 31
0.0
  0
LINE
  5
472
330
504
100
AcDbEntity
  8
Level 1
  6
DGN Style 2
 62
     7
370
    13
100
AcDbLine
 10
133.074562
 20
-3.558229
 30
0.0
 11
133.074562
 21
-5.569552
 31
0.0
  0
LINE
  5
473
330
504
100
AcDbEntity
  8
Level 1
  6
DGN Style 2
 62
     7
370
    13
100
AcDbLine
 10
132.981354
 20
-3.558229
 30
0.0
 11
132.981354
 21
-5.571625
 31
0.0
  0
LINE
  5
474
330
504
100
AcDbEntity
  8
Level 1
  6
DGN Style 2
 62
     7
370
    13
100
AcDbLine
 10
132.683063
 20
-3.558229
 30
0.0
 11
132.683063
 21
-5.574385
 31
0.0
  0
LINE
  5
475
330
504
100
AcDbEntity
  8
Level 1
  6
DGN Style 2
 62
     7
370
    13
100
AcDbLine
 10
132.589854
 20
-3.558229
 30
0.0
 11
132.589854
 21
-5.571625
 31
0.0
  0
LINE
  5
476
330
504
100
AcDbEntity
  8
Level 1
  6
DGN Style 2
 62
     7
370
    13
100
AcDbLine
 10
132.297792
 20
-3.558229
 30
0.0
 11
132.297792
 21
-5.561958
 31
0.0
  0
LINE
  5
477
330
504
100
AcDbEntity
  8
Level 1
  6
DGN Style 2
 62
     7
370
    13
100
AcDbLine
 10
132.204573
 20
-3.558229
 30
0.0
 11
132.204573
 21
-5.64551
 31
0.0
  0
LINE
  5
478
330
504
100
AcDbEntity
  8
Level 1
  6
DGN Style 2
 62
     7
370
    13
100
AcDbLine
 10
131.891792
 20
-3.558229
 30
0.0
 11
131.891792
 21
-5.633073
 31
0.0
  0
LINE
  5
479
330
504
100
AcDbEntity
  8
Level 1
  6
DGN Style 2
 62
     7
370
    13
100
AcDbLine
 10
131.798583
 20
-3.558229
 30
0.0
 11
131.798583
 21
-5.64551
 31
0.0
  0
LINE
  5
47A
330
504
100
AcDbEntity
  8
Level 1
  6
DGN Style 2
 62
     7
370
    13
100
AcDbLine
 10
131.498917
 20
-3.558229
 30
0.0
 11
131.498917
 21
-5.633073
 31
0.0
  0
LINE
  5
47B
330
504
100
AcDbEntity
  8
Level 1
  6
DGN Style 2
 62
     7
370
    13
100
AcDbLine
 10
131.405708
 20
-3.558229
 30
0.0
 11
131.405708
 21
-5.64551
 31
0.0
  0
LINE
  5
481
330
504
100
AcDbEntity
  8
Level 1
  6
DGN Style 2
 62
     7
370
    30
100
AcDbLine
 10
131.614229
 20
-9.111635
 30
0.0
 11
133.047635
 21
-9.111635
 31
0.0
  0
LINE
  5
482
330
504
100
AcDbEntity
  8
Level 1
  6
DGN Style 2
 62
     7
370
    30
100
AcDbLine
 10
133.679406
 20
-9.111635
 30
0.0
 11
134.847667
 21
-9.111635
 31
0.0
  0
LINE
  5
488
330
504
100
AcDbEntity
  8
Level 1
  6
Continuous
 62
     7
370
    13
100
AcDbLine
 10
131.688802
 20
-9.12199
 30
0.0
 11
131.050115
 21
-10.114187
 31
0.0
  0
LINE
  5
489
330
504
100
AcDbEntity
  8
Level 1
  6
Continuous
 62
     7
370
    13
100
AcDbLine
 10
131.050115
 20
-10.114187
 30
0.0
 11
130.893385
 21
-10.114187
 31
0.0
  0
LWPOLYLINE
  5
48A
330
504
100
AcDbEntity
  8
Level 1
  6
Continuous
 62
     7
370
    13
100
AcDbPolyline
 90
        5
 70
   128
 43
0.0
 10
131.688802
 20
-9.12199
 10
131.688802
 20
-9.12199
 10
131.638396
 20
-9.177229
 10
131.657042
 20
-9.197948
 10
131.688802
 20
-9.12199
  0
TEXT
  5
6C
330
504
100
AcDbEntity
  8
Level 1
  6
Continuous
 62
     7
370
    13
100
AcDbText
 10
132.410057
 20
-10.971915
 30
0.0
 40
0.09
  1
1)
  7
Style-Arial
 11
132.410057
 21
-10.926915
 31
0.0
100
AcDbText
 73
     2
  0
TEXT
  5
6D
330
504
100
AcDbEntity
  8
Level 1
  6
Continuous
 62
     7
370
    13
100
AcDbText
 10
132.410438
 20
-11.206052
 30
0.0
 40
0.09
  1
2)
  7
Style-Arial
 11
132.410438
 21
-11.161052
 31
0.0
100
AcDbText
 73
     2
  0
TEXT
  5
94
330
504
100
AcDbEntity
  8
Level 1
  6
Continuous
 62
     7
370
    13
100
AcDbText
 10
129.833995
 20
-8.424076
 30
0.0
 40
0.09
  1
EXISTING PAVEMENT
  7
Style-Arial
 11
129.833995
 21
-8.379076
 31
0.0
100
AcDbText
 73
     2
  0
TEXT
  5
95
330
504
100
AcDbEntity
  8
Level 1
  6
Continuous
 62
     7
370
    13
100
AcDbText
 10
129.834996
 20
-8.296312
 30
0.0
 40
0.09
  1
SAWCUT LINE,
  7
Style-Arial
 11
129.834996
 21
-8.251312
 31
0.0
100
AcDbText
 73
     2
  0
TEXT
  5
96
330
504
100
AcDbEntity
  8
Level 1
  6
Continuous
 62
     7
370
    13
100
AcDbText
 10
132.016468
 20
-8.313666
 30
0.0
 40
0.09
  1
5 FT TYPICAL
  7
Style-Arial
 11
132.016468
 21
-8.268666
 31
0.0
100
AcDbText
 73
     2
  0
TEXT
  5
97
330
504
100
AcDbEntity
  8
Level 1
  6
Continuous
 62
     7
370
    13
100
AcDbText
 10
133.20924
 20
-8.23901
 30
0.0
 40
0.09
  1
L
  7
Style-Arial
 11
133.20924
 21
-8.19401
 31
0.0
100
AcDbText
 73
     2
  0
TEXT
  5
98
330
504
100
AcDbEntity
  8
Level 1
  6
Continuous
 62
     7
370
    13
100
AcDbText
 10
133.182958
 20
-8.20449
 30
0.0
 40
0.09
  1
C
  7
Style-Arial
 11
133.182958
 21
-8.15949
 31
0.0
100
AcDbText
 73
     2
  0
TEXT
  5
99
330
504
100
AcDbEntity
  8
Level 1
  6
Continuous
 62
     7
370
    13
100
AcDbText
 10
133.350052
 20
-8.239698
 30
0.0
 40
0.09
  1
TRACK
  7
Style-Arial
 11
133.350052
 21
-8.194698
 31
0.0
100
AcDbText
 73
     2
  0
TEXT
  5
A5
330
504
100
AcDbEntity
  8
Level 1
  6
Continuous
 62
     7
370
    13
100
AcDbText
 10
130.847139
 20
-4.153477
 30
0.0
 40
0.09
  1
o
  7
Style-Arial
 11
130.847139
 21
-4.108477
 31
0.0
100
AcDbText
 73
     2
  0
TEXT
  5
A6
330
504
100
AcDbEntity
  8
Level 1
  6
Continuous
 62
     7
370
    13
100
AcDbText
 10
130.808198
 20
-5.118819
 30
0.0
 40
0.09
  1
o
  7
Style-Arial
 11
130.808198
 21
-5.073819
 31
0.0
100
AcDbText
 73
     2
  0
TEXT
  5
A7
330
504
100
AcDbEntity
  8
Level 1
  6
Continuous
 62
     7
370
    13
100
AcDbText
 10
130.805277
 20
-5.307731
 30
0.0
 40
0.09
  1
o
  7
Style-Arial
 11
130.805277
 21
-5.262731
 31
0.0
100
AcDbText
 73
     2
  0
TEXT
  5
B4
330
504
100
AcDbEntity
  8
Level 1
  6
Continuous
 62
     7
370
    13
100
AcDbText
 10
135.537725
 20
-5.308622
 30
0.0
 40
0.09
  1
o
  7
Style-Arial
 11
135.537725
 21
-5.263622
 31
0.0
100
AcDbText
 73
     2
  0
TEXT
  5
B5
330
504
100
AcDbEntity
  8
Level 1
  6
Continuous
 62
     7
370
    13
100
AcDbText
 10
135.579627
 20
-5.118374
 30
0.0
 40
0.09
  1
o
  7
Style-Arial
 11
135.579627
 21
-5.073374
 31
0.0
100
AcDbText
 73
     2
  0
TEXT
  5
B6
330
504
100
AcDbEntity
  8
Level 1
  6
Continuous
 62
     7
370
    13
100
AcDbText
 10
135.580933
 20
-4.155203
 30
0.0
 40
0.09
  1
o
  7
Style-Arial
 11
135.580933
 21
-4.110203
 31
0.0
100
AcDbText
 73
     2
  0
TEXT
  5
B7
330
504
100
AcDbEntity
  8
Level 1
  6
Continuous
 62
     7
370
    13
100
AcDbText
 10
135.524272
 20
-3.977321
 30
0.0
 40
0.09
  1
o
  7
Style-Arial
 11
135.524272
 21
-3.932321
 31
0.0
100
AcDbText
 73
     2
  0
TEXT
  5
268
330
504
100
AcDbEntity
  8
Level 1
  6
Continuous
 62
     7
370
    13
100
AcDbText
 10
132.534625
 20
-6.294974
 30
0.0
 40
0.09
  1
NORMAL WIDTH OF ROAD
  7
Style-Arial
 11
132.534625
 21
-6.249974
 31
0.0
100
AcDbText
 73
     2
  0
TEXT
  5
269
330
504
100
AcDbEntity
  8
Level 1
  6
Continuous
 62
     7
370
    13
100
AcDbText
 10
135.137667
 20
-6.304195
 30
0.0
 40
0.09
  1
2'
  7
Style-Arial
 11
135.137667
 21
-6.259195
 31
0.0
100
AcDbText
 73
     2
  0
TEXT
  5
26A
330
504
100
AcDbEntity
  8
Level 1
  6
Continuous
 62
     7
370
    13
100
AcDbText
 10
131.186833
 20
-6.300112
 30
0.0
 40
0.09
  1
2'
  7
Style-Arial
 11
131.186833
 21
-6.255112
 31
0.0
100
AcDbText
 73
     2
  0
TEXT
  5
26B
330
504
100
AcDbEntity
  8
Level 1
  6
Continuous
 62
     7
370
    13
100
AcDbText
 10
132.25316
 20
-5.718623
 30
0.0
 40
0.09
  1
NORMAL WIDTH OF CROSSING
  7
Style-Arial
 11
132.25316
 21
-5.673623
 31
0.0
100
AcDbText
 73
     2
  0
TEXT
  5
278
330
504
100
AcDbEntity
  8
Level 1
  6
Continuous
 62
     7
370
    13
100
AcDbText
 10
130.907312
 20
-6.27965
 30
0.0
 40
0.09
  1
VARIABLE
 50
90.0
  7
Style-Arial
 11
130.862313
 21
-6.27965
 31
0.0
100
AcDbText
 73
     2
  0
TEXT
  5
280
330
504
100
AcDbEntity
  8
Level 1
  6
Continuous
 62
     7
370
    13
100
AcDbText
 10
132.586625
 20
-3.41013
 30
0.0
 40
0.09
  1
SAW CUT EXISTING PAVEMENT
  7
Style-Arial
 11
132.586625
 21
-3.36513
 31
0.0
100
AcDbText
 73
     2
  0
TEXT
  5
285
330
504
100
AcDbEntity
  8
Level 1
  6
Continuous
 62
     7
370
    13
100
AcDbText
 10
132.078256
 20
-5.882935
 30
0.0
 40
0.09
  1
SAW CUT EXISTING PAVEMENT
  7
Style-Arial
 11
132.078256
 21
-5.837935
 31
0.0
100
AcDbText
 73
     2
  0
TEXT
  5
286
330
504
100
AcDbEntity
  8
Level 1
  6
Continuous
 62
     7
370
    13
100
AcDbText
 10
133.18251
 20
-3.150344
 30
0.0
 40
0.09
  1
L
  7
Style-Arial
 11
133.18251
 21
-3.105344
 31
0.0
100
AcDbText
 73
     2
  0
TEXT
  5
287
330
504
100
AcDbEntity
  8
Level 1
  6
Continuous
 62
     7
370
    13
100
AcDbText
 10
133.157417
 20
-3.110927
 30
0.0
 40
0.09
  1
C
  7
Style-Arial
 11
133.157417
 21
-3.065927
 31
0.0
100
AcDbText
 73
     2
  0
TEXT
  5
288
330
504
100
AcDbEntity
  8
Level 1
  6
Continuous
 62
     7
370
    13
100
AcDbText
 10
133.320365
 20
-3.142688
 30
0.0
 40
0.09
  1
ROAD
  7
Style-Arial
 11
133.320365
 21
-3.097687
 31
0.0
100
AcDbText
 73
     2
  0
TEXT
  5
2AF
330
504
100
AcDbEntity
  8
Level 1
  6
Continuous
 62
     7
370
    13
100
AcDbText
 10
135.661405
 20
-7.214249
 30
0.0
 40
0.09
  1
10" TYP.
  7
Style-Arial
 11
135.661405
 21
-7.169249
 31
0.0
100
AcDbText
 73
     2
  0
TEXT
  5
2B0
330
504
100
AcDbEntity
  8
Level 1
  6
Continuous
 62
     7
370
    13
100
AcDbText
 10
135.831583
 20
-7.621939
 30
0.0
 40
0.09
  1
4" TYP.
  7
Style-Arial
 11
135.831583
 21
-7.576939
 31
0.0
100
AcDbText
 73
     2
  0
TEXT
  5
2B1
330
504
100
AcDbEntity
  8
Level 1
  6
Continuous
 62
     7
370
    13
100
AcDbText
 10
133.932196
 20
-7.15343
 30
0.0
 40
0.09
  1
TOP OF CONCRETE
  7
Style-Arial
 11
133.932196
 21
-7.10843
 31
0.0
100
AcDbText
 73
     2
  0
TEXT
  5
2D9
330
504
100
AcDbEntity
  8
Level 1
  6
Continuous
 62
     7
370
    13
100
AcDbText
 10
131.01974
 20
-7.034792
 30
0.0
 40
0.09
  1
2"
  7
Style-Arial
 11
131.01974
 21
-6.989792
 31
0.0
100
AcDbText
 73
     2
  0
TEXT
  5
2DA
330
504
100
AcDbEntity
  8
Level 1
  6
Continuous
 62
     7
370
    13
100
AcDbText
 10
131.05426
 20
-6.762613
 30
0.0
 40
0.09
  1
3"
  7
Style-Arial
 11
131.05426
 21
-6.717613
 31
0.0
100
AcDbText
 73
     2
  0
TEXT
  5
2DB
330
504
100
AcDbEntity
  8
Level 1
  6
Continuous
 62
     7
370
    13
100
AcDbText
 10
131.456115
 20
-6.768715
 30
0.0
 40
0.09
  1
2"
  7
Style-Arial
 11
131.456115
 21
-6.723715
 31
0.0
100
AcDbText
 73
     2
  0
TEXT
  5
2DC
330
504
100
AcDbEntity
  8
Level 1
  6
Continuous
 62
     7
370
    13
100
AcDbText
 10
130.200833
 20
-6.61478
 30
0.0
 40
0.09
  1
WWF 6" x 6"
  7
Style-Arial
 11
130.200833
 21
-6.56978
 31
0.0
100
AcDbText
 73
     2
  0
TEXT
  5
2DD
330
504
100
AcDbEntity
  8
Level 1
  6
Continuous
 62
     7
370
    13
100
AcDbText
 10
130.216366
 20
-6.745874
 30
0.0
 40
0.09
  1
W9 x W9
  7
Style-Arial
 11
130.216366
 21
-6.700874
 31
0.0
100
AcDbText
 73
     2
  0
TEXT
  5
2DE
330
504
100
AcDbEntity
  8
Level 1
  6
Continuous
 62
     7
370
    13
100
AcDbText
 10
130.224061
 20
-6.867975
 30
0.0
 40
0.09
  1
(TYP.)
  7
Style-Arial
 11
130.224061
 21
-6.822975
 31
0.0
100
AcDbText
 73
     2
  0
TEXT
  5
2E1
330
504
100
AcDbEntity
  8
Level 1
  6
Continuous
 62
     7
370
    13
100
AcDbText
 10
131.824813
 20
-7.208495
 30
0.0
 40
0.09
  1
REINFORCED 
  7
Style-Arial
 11
131.824813
 21
-7.163495
 31
0.0
100
AcDbText
 73
     2
  0
TEXT
  5
2E2
330
504
100
AcDbEntity
  8
Level 1
  6
Continuous
 62
     7
370
    13
100
AcDbText
 10
131.82275
 20
-7.326674
 30
0.0
 40
0.09
  1
CONCRETE
  7
Style-Arial
 11
131.82275
 21
-7.281674
 31
0.0
100
AcDbText
 73
     2
  0
TEXT
  5
2E3
330
504
100
AcDbEntity
  8
Level 1
  6
Continuous
 62
     7
370
    13
100
AcDbText
 10
131.833792
 20
-7.445876
 30
0.0
 40
0.09
  1
PAVEMENT
  7
Style-Arial
 11
131.833792
 21
-7.400876
 31
0.0
100
AcDbText
 73
     2
  0
TEXT
  5
2E5
330
504
100
AcDbEntity
  8
Level 1
  6
Continuous
 62
     7
370
    13
100
AcDbText
 10
131.690431
 20
-6.686083
 30
0.0
 40
0.09
  1
RAIL
  7
Style-Arial
 11
131.690431
 21
-6.641083
 31
0.0
100
AcDbText
 73
     2
  0
TEXT
  5
30D
330
504
100
AcDbEntity
  8
Level 1
  6
Continuous
 62
     7
370
    13
100
AcDbText
 10
130.062062
 20
-8.95586
 30
0.0
 40
0.09
  1
EXISTING PAVEMENT
  7
Style-Arial
 11
130.062062
 21
-8.91086
 31
0.0
100
AcDbText
 73
     2
  0
TEXT
  5
30E
330
504
100
AcDbEntity
  8
Level 1
  6
Continuous
 62
     7
370
    13
100
AcDbText
 10
135.045317
 20
-8.949641
 30
0.0
 40
0.09
  1
EXISTING PAVEMENT
  7
Style-Arial
 11
135.045317
 21
-8.904641
 31
0.0
100
AcDbText
 73
     2
  0
TEXT
  5
313
330
504
100
AcDbEntity
  8
Level 1
  6
Continuous
 62
     7
370
    13
100
AcDbText
 10
133.287219
 20
-9.392176
 30
0.0
 40
0.09
  1
10" MIN.
  7
Style-Arial
 11
133.287219
 21
-9.347176
 31
0.0
100
AcDbText
 73
     2
  0
TEXT
  5
35C
330
504
100
AcDbEntity
  8
Level 1
  6
Continuous
 62
     7
370
    13
100
AcDbText
 10
133.935563
 20
-9.853335
 30
0.0
 40
0.09
  1
2% TYP.
  7
Style-Arial
 11
133.935563
 21
-9.808335
 31
0.0
100
AcDbText
 73
     2
  0
TEXT
  5
35D
330
504
100
AcDbEntity
  8
Level 1
  6
Continuous
 62
     7
370
    13
100
AcDbText
 10
133.15051
 20
-9.128707
 30
0.0
 40
0.09
  1
TIE
  7
Style-Arial
 11
133.15051
 21
-9.083707
 31
0.0
100
AcDbText
 73
     2
  0
TEXT
  5
35E
330
504
100
AcDbEntity
  8
Level 1
  6
Continuous
 62
     7
370
    13
100
AcDbText
 10
132.955115
 20
-9.834247
 30
0.0
 40
0.09
  1
SUBGRADE
  7
Style-Arial
 11
132.955115
 21
-9.789247
 31
0.0
100
AcDbText
 73
     2
  0
TEXT
  5
361
330
504
100
AcDbEntity
  8
Level 1
  6
Continuous
 62
     7
370
    13
100
AcDbText
 10
135.121639
 20
-9.402216
 30
0.0
 40
0.09
  1
REINFORCED CEMENT
  7
Style-Arial
 11
135.121639
 21
-9.357216
 31
0.0
100
AcDbText
 73
     2
  0
TEXT
  5
362
330
504
100
AcDbEntity
  8
Level 1
  6
Continuous
 62
     7
370
    13
100
AcDbText
 10
135.120577
 20
-9.534474
 30
0.0
 40
0.09
  1
CONCRETE PAVEMENT
  7
Style-Arial
 11
135.120577
 21
-9.489474
 31
0.0
100
AcDbText
 73
     2
  0
TEXT
  5
365
330
504
100
AcDbEntity
  8
Level 1
  6
Continuous
 62
     7
370
    13
100
AcDbText
 10
134.46558
 20
-8.251332
 30
0.0
 40
0.09
  1
FLANGEWAYS (SEE DETAIL)
  7
Style-Arial
 11
134.46558
 21
-8.206332
 31
0.0
100
AcDbText
 73
     2
  0
TEXT
  5
390
330
504
100
AcDbEntity
  8
Level 1
  6
Continuous
 62
     7
370
    13
100
AcDbText
 10
131.490635
 20
-8.468542
 30
0.0
 40
0.09
  1
DEPTH
  7
Style-Arial
 11
131.490635
 21
-8.423542
 31
0.0
100
AcDbText
 73
     2
  0
TEXT
  5
391
330
504
100
AcDbEntity
  8
Level 1
  6
Continuous
 62
     7
370
    13
100
AcDbText
 10
132.296406
 20
-8.546983
 30
0.0
 40
0.09
  1
WWF 6" x 6"
  7
Style-Arial
 11
132.296406
 21
-8.501983
 31
0.0
100
AcDbText
 73
     2
  0
TEXT
  5
39E
330
504
100
AcDbEntity
  8
Level 1
  6
Continuous
 62
     7
370
    13
100
AcDbText
 10
129.839334
 20
-8.569716
 30
0.0
 40
0.09
  1
JOINT TO BE
  7
Style-Arial
 11
129.839334
 21
-8.524716
 31
0.0
100
AcDbText
 73
     2
  0
TEXT
  5
39F
330
504
100
AcDbEntity
  8
Level 1
  6
Continuous
 62
     7
370
    13
100
AcDbText
 10
129.841407
 20
-8.709941
 30
0.0
 40
0.09
  1
SEALED
  7
Style-Arial
 11
129.841407
 21
-8.664941
 31
0.0
100
AcDbText
 73
     2
  0
TEXT
  5
3A0
330
504
100
AcDbEntity
  8
Level 1
  6
Continuous
 62
     7
370
    13
100
AcDbText
 10
133.408185
 20
-9.122222
 30
0.0
 40
0.09
  1
2
  7
Style-Arial
 11
133.408185
 21
-9.077222
 31
0.0
100
AcDbText
 73
     2
  0
TEXT
  5
3A1
330
504
100
AcDbEntity
  8
Level 1
  6
Continuous
 62
     7
370
    13
100
AcDbText
 10
132.269126
 20
-9.393247
 30
0.0
 40
0.09
  1
BALLAST  1
  7
Style-Arial
 11
132.269126
 21
-9.348247
 31
0.0
100
AcDbText
 73
     2
  0
TEXT
  5
3A7
330
504
100
AcDbEntity
  8
Level 1
  6
Continuous
 62
     7
370
    13
100
AcDbText
 10
131.993776
 20
-9.870143
 30
0.0
 40
0.09
  1
2% TYP.
  7
Style-Arial
 11
131.993776
 21
-9.825143
 31
0.0
100
AcDbText
 73
     2
  0
TEXT
  5
3A8
330
504
100
AcDbEntity
  8
Level 1
  6
Continuous
 62
     7
370
    13
100
AcDbText
 10
131.246208
 20
-7.686705
 30
0.0
 40
0.09
  1
TIE
  7
Style-Arial
 11
131.246208
 21
-7.641705
 31
0.0
100
AcDbText
 73
     2
  0
MTEXT
  5
461
330
504
100
AcDbEntity
  8
Level 1
  6
Continuous
 62
     7
370
    13
100
AcDbMText
 10
131.512917
 20
-8.63188
 30
0.0
 40
0.09
 41
0.0
 71
     4
 72
     1
  1
2-{\A0;\S3#4;}"
  7
Style-Arial
 73
     2
 44
1.382053
  0
MTEXT
  5
462
330
504
100
AcDbEntity
  8
Level 1
  6
Continuous
 62
     7
370
    13
100
AcDbMText
 10
130.726477
 20
-7.323333
 30
0.0
 40
0.09
 41
0.0
 71
     4
 72
     1
  1
2-{\A0;\S1#2;}"
  7
Style-Arial
 73
     2
 44
1.382053
  0
MTEXT
  5
463
330
504
100
AcDbEntity
  8
Level 1
  6
Continuous
 62
     7
370
    13
100
AcDbMText
 10
131.45112
 20
-7.165726
 30
0.0
 40
0.09
 41
0.0
 71
     4
 72
     1
  1
{\A0;\S1#4;}"
  7
Style-Arial
 73
     2
 44
1.382053
  0
MTEXT
  5
464
330
504
100
AcDbEntity
  8
Level 1
  6
Continuous
 62
     7
370
    13
100
AcDbMText
 10
130.088426
 20
-3.33917
 30
0.0
 40
0.09
 41
0.0
 71
     4
 72
     1
  1
BEVEL\PCONCRETE\P
  7
Style-Arial
 73
     2
 44
0.779643
  0
MTEXT
  5
467
330
504
100
AcDbEntity
  8
Level 1
  6
Continuous
 62
     7
370
    13
100
AcDbMText
 10
133.840494
 20
-3.039284
 30
0.0
 40
0.09
 41
0.0
 71
     4
 72
     1
  1
BEVEL CONCRETE AND TIMBER\PFLANGEWAYS (SEE DETAILS)\P
  7
Style-Arial
 73
     2
 44
0.779643
  0
MTEXT
  5
47C
330
504
100
AcDbEntity
  8
Level 1
  6
Continuous
 62
     7
370
    13
100
AcDbMText
 10
135.825188
 20
-4.733918
 30
0.0
 40
0.09
 41
0.0
 71
     4
 72
     1
  1
2-# 4 X 9'\PREINFORCING\PBARS IN\PEACH CRIB\P
  7
Style-Arial
 73
     2
 44
0.779643
  0
MTEXT
  5
483
330
504
100
AcDbEntity
  8
Level 1
  6
Continuous
 62
     7
370
    13
100
AcDbMText
 10
130.177552
 20
-9.952536
 30
0.0
 40
0.09
 41
0.0
 71
     4
 72
     1
  1
2-# 4 X 9'\PREINFORCING\PBARS IN\PEACH CRIB\P
  7
Style-Arial
 73
     2
 44
0.779643
  0
TEXT
  5
48D
330
504
100
AcDbEntity
  8
Level 1
  6
Continuous
 62
     7
370
    13
100
AcDbText
 10
132.671371
 20
-10.976069
 30
0.0
 40
0.09
  1
CIRCLED NUMBERS REFER TO GENERAL NOTES, FIGURE 2-36u.
  7
Style-Arial
 11
132.671371
 21
-10.931069
 31
0.0
100
AcDbText
 73
     2
  0
MTEXT
  5
48E
330
504
100
AcDbEntity
  8
Level 1
  6
Continuous
 62
     7
370
    13
100
AcDbMText
 10
132.673604
 20
-11.289696
 30
0.0
 40
0.09
 41
0.0
 71
     4
 72
     1
  1
RECONSTRUCT SUBGRADE AND INSTALL SUBDRAINS,\PDITCHING, AND/OR GEOTEXTILES AS REQUIRED.\PSEE FIGURE 2-36s FOR DETAILS.\P
  7
Style-Arial
 73
     2
 44
0.779643
  0
TEXT
  5
4EC
330
504
100
AcDbEntity
  8
Level 1
  6
Continuous
 62
     7
370
    13
100
AcDbText
 10
130.793372
 20
-3.973387
 30
0.0
 40
0.09
  1
o
  7
Style-Arial
 11
130.793372
 21
-3.928387
 31
0.0
100
AcDbText
 73
     2
  0
LINE
  5
4EF
330
504
100
AcDbEntity
  8
Level 1
  6
Continuous
 62
     7
370
    13
100
AcDbLine
 10
132.393954
 20
-10.76804
 30
0.0
 11
132.987138
 21
-10.76804
 31
0.0
  0
TEXT
  5
64
330
504
100
AcDbEntity
  8
Level 1
  6
Continuous
 62
     7
370
    13
100
AcDbText
 10
132.397418
 20
-10.759047
 30
0.0
 40
0.1125
  1
NOTES:
  7
Style-Arial
 11
132.397418
 21
-10.702797
 31
0.0
100
AcDbText
 73
     2
  0
TEXT
  5
63
330
504
100
AcDbEntity
  8
Level 1
  6
Continuous
 62
     7
370
    13
100
AcDbText
 10
129.666536
 20
-10.787959
 30
0.0
 40
0.1125
  1
DRAWING NOT TO SCALE
  7
Style-Arial
 11
129.666536
 21
-10.731709
 31
0.0
100
AcDbText
 73
     2
  0
TEXT
  5
39C
330
504
100
AcDbEntity
  8
Level 1
  6
Continuous
 62
     7
370
    13
100
AcDbText
 10
130.027729
 20
-11.838447
 30
0.0
 40
0.1125
  1
TYPE 4 - RAILROAD-HIGHWAY GRADE CROSSING
  7
Style-Arial
 11
130.027729
 21
-11.782197
 31
0.0
100
AcDbText
 73
     2
  0
TEXT
  5
39D
330
504
100
AcDbEntity
  8
Level 1
  6
Continuous
 62
     7
370
    13
100
AcDbText
 10
130.878789
 20
-12.026534
 30
0.0
 40
0.1125
  1
CAST-IN-PLACE CONCRETE
  7
Style-Arial
 11
130.878789
 21
-11.970284
 31
0.0
100
AcDbText
 73
     2
  0
TEXT
  5
65
330
504
100
AcDbEntity
  8
Level 1
  6
Continuous
 62
     7
370
    13
100
AcDbText
 10
134.69829
 20
-11.823444
 30
0.0
 40
0.1125
  1
DATE
  7
Style-Arial
 11
134.69829
 21
-11.767194
 31
0.0
100
AcDbText
 73
     2
  0
TEXT
  5
66
330
504
100
AcDbEntity
  8
Level 1
  6
Continuous
 62
     7
370
    13
100
AcDbText
 10
134.543858
 20
-12.021834
 30
0.0
 40
0.1125
  1
AUG 1990
  7
Style-Arial
 11
134.543858
 21
-11.965584
 31
0.0
100
AcDbText
 73
     2
  0
TEXT
  5
48B
330
504
100
AcDbEntity
  8
Level 1
  6
Continuous
 62
     7
370
    13
100
AcDbText
 10
135.813722
 20
-11.792554
 30
0.0
 40
0.1125
  1
FIGURE
  7
Style-Arial
 11
135.813722
 21
-11.736304
 31
0.0
100
AcDbText
 73
     2
  0
TEXT
  5
48C
330
504
100
AcDbEntity
  8
Level 1
  6
Continuous
 62
     7
370
    13
100
AcDbText
 10
135.926112
 20
-12.001464
 30
0.0
 40
0.1125
  1
2-36o
  7
Style-Arial
 11
135.926112
 21
-11.945214
 31
0.0
100
AcDbText
 73
     2
  0
TEXT
  5
39A
330
504
100
AcDbEntity
  8
Level 1
  6
Continuous
 62
     7
370
    13
100
AcDbText
 10
132.896031
 20
-10.244149
 30
0.0
 40
0.1125
  1
SECTION
  7
Style-Arial
 11
132.896031
 21
-10.187899
 31
0.0
100
AcDbText
 73
     2
  0
TEXT
  5
3A9
330
504
100
AcDbEntity
  8
Level 1
  6
Continuous
 62
     7
370
    13
100
AcDbText
 10
130.51291
 20
-7.965985
 30
0.0
 40
0.1125
  1
FLANGEWAY DETAIL
  7
Style-Arial
 11
130.51291
 21
-7.909735
 31
0.0
100
AcDbText
 73
     2
  0
TEXT
  5
398
330
504
100
AcDbEntity
  8
Level 1
  6
Continuous
 62
     7
370
    13
100
AcDbText
 10
134.354794
 20
-7.92808
 30
0.0
 40
0.1125
  1
DETAIL OF END BEVEL
  7
Style-Arial
 11
134.354794
 21
-7.87183
 31
0.0
100
AcDbText
 73
     2
  0
TEXT
  5
396
330
504
100
AcDbEntity
  8
Level 1
  6
Continuous
 62
     7
370
    13
100
AcDbText
 10
133.005188
 20
-6.625139
 30
0.0
 40
0.1125
  1
PLAN
  7
Style-Arial
 11
133.005188
 21
-6.568889
 31
0.0
100
AcDbText
 73
     2
  0
ENDSEC
  0
SECTION
  2
OBJECTS
  0
DICTIONARY
  5
4F8
330
0
100
AcDbDictionary
281
     1
  3
ACAD_COLOR
350
517
  3
ACAD_GROUP
350
514
  3
ACAD_LAYOUT
350
508
  3
ACAD_MATERIAL
350
516
  3
ACAD_MLINESTYLE
350
502
  3
ACAD_PLOTSETTINGS
350
515
  3
ACAD_PLOTSTYLENAME
350
4F7
  3
ACAD_TABLESTYLE
350
52C
  3
AcadDim
350
524
  3
MicroStation
350
51C
  0
DICTIONARY
  5
4F4
330
4F3
100
AcDbDictionary
280
     1
281
     1
  3
ACAD_LAYERFILTERS
360
51B
  3
ACAD_LAYERSTATES
360
4F5
  0
DICTIONARY
  5
528
330
504
100
AcDbDictionary
280
     1
281
     1
  3
ACAD_SORTENTS
360
529
  0
DICTIONARY
  5
517
102
{ACAD_REACTORS
330
4F8
102
}
330
4F8
100
AcDbDictionary
281
     1
  0
DICTIONARY
  5
514
102
{ACAD_REACTORS
330
4F8
102
}
330
4F8
100
AcDbDictionary
281
     1
  0
DICTIONARY
  5
508
102
{ACAD_REACTORS
330
4F8
102
}
330
4F8
100
AcDbDictionary
281
     1
  3
Layout1
350
50C
  3
Model
350
507
  0
DICTIONARY
  5
516
102
{ACAD_REACTORS
330
4F8
102
}
330
4F8
100
AcDbDictionary
281
     1
  0
DICTIONARY
  5
502
102
{ACAD_REACTORS
330
4F8
102
}
330
4F8
100
AcDbDictionary
281
     1
  3
Standard
350
501
  0
DICTIONARY
  5
515
102
{ACAD_REACTORS
330
4F8
102
}
330
4F8
100
AcDbDictionary
281
     1
  0
ACDBDICTIONARYWDFLT
  5
4F7
102
{ACAD_REACTORS
330
4F8
102
}
330
4F8
100
AcDbDictionary
281
     1
  3
Normal
350
4F6
100
AcDbDictionaryWithDefault
340
4F6
  0
DICTIONARY
  5
52C
102
{ACAD_REACTORS
330
4F8
102
}
330
4F8
100
AcDbDictionary
281
     1
  0
XRECORD
  5
524
102
{ACAD_REACTORS
330
4F8
102
}
330
4F8
100
AcDbXrecord
280
     1
 90
   990106
  3
 
 60
     0
 61
     0
 62
     1
 63
     1
 64
     0
 65
     0
 66
     0
 67
     3
 68
     1
 69
     1
 70
     0
 71
     0
 72
     0
 40
0.0
170
     0
  0
DICTIONARY
  5
51C
102
{ACAD_REACTORS
330
4F8
102
}
330
4F8
100
AcDbDictionary
281
     1
  3
ApplicationElement 1244
350
4DC
  3
ApplicationElement 1264
350
4F0
  3
ModelApplicationElement 0 1243
350
4DB
  0
DICTIONARY
  5
51B
102
{ACAD_REACTORS
330
4F4
102
}
330
4F4
100
AcDbDictionary
281
     1
  0
DICTIONARY
  5
4F5
102
{ACAD_REACTORS
330
4F4
102
}
330
4F4
100
AcDbDictionary
281
     1
  0
SORTENTSTABLE
  5
529
102
{ACAD_REACTORS
330
528
102
}
330
528
100
AcDbSortentsTable
330
504
331
63
  5
482
331
64
  5
481
331
65
  5
489
331
66
  5
48A
331
67
  5
63
331
68
  5
64
331
69
  5
65
331
6A
  5
66
331
6B
  5
67
331
6C
  5
437
331
6D
  5
438
331
6E
  5
68
331
6F
  5
69
331
70
  5
6A
331
71
  5
6B
331
72
  5
6C
331
73
  5
6D
331
74
  5
6E
331
75
  5
6F
331
76
  5
70
331
77
  5
71
331
78
  5
72
331
79
  5
73
331
7A
  5
74
331
7B
  5
75
331
7C
  5
76
331
7D
  5
77
331
7E
  5
78
331
7F
  5
79
331
80
  5
7A
331
81
  5
7B
331
82
  5
7C
331
83
  5
7D
331
84
  5
7E
331
85
  5
7F
331
86
  5
80
331
87
  5
81
331
88
  5
82
331
89
  5
83
331
8A
  5
84
331
8B
  5
85
331
8C
  5
86
331
8D
  5
87
331
8E
  5
88
331
8F
  5
89
331
90
  5
8A
331
91
  5
8B
331
92
  5
8C
331
93
  5
8D
331
94
  5
439
331
95
  5
43A
331
96
  5
43B
331
97
  5
43C
331
98
  5
43D
331
99
  5
43E
331
9A
  5
8E
331
9B
  5
8F
331
9C
  5
90
331
9D
  5
91
331
9E
  5
92
331
9F
  5
93
331
A0
  5
94
331
A1
  5
95
331
A2
  5
96
331
A3
  5
97
331
A4
  5
98
331
A5
  5
43F
331
A6
  5
440
331
A7
  5
441
331
A8
  5
99
331
A9
  5
9A
331
AA
  5
9B
331
AB
  5
9C
331
AC
  5
9D
331
AD
  5
9E
331
AE
  5
9F
331
AF
  5
A0
331
B0
  5
A1
331
B1
  5
A2
331
B2
  5
A3
331
B3
  5
A4
331
B4
  5
442
331
B5
  5
443
331
B6
  5
444
331
B7
  5
445
331
B8
  5
A5
331
B9
  5
A6
331
BA
  5
A7
331
BB
  5
A8
331
BC
  5
A9
331
BD
  5
AA
331
BE
  5
AB
331
BF
  5
AC
331
C0
  5
AD
331
C1
  5
AE
331
C2
  5
AF
331
C3
  5
B0
331
C4
  5
B1
331
C5
  5
B2
331
C6
  5
B3
331
C7
  5
B4
331
C8
  5
B5
331
C9
  5
B6
331
CA
  5
B7
331
CB
  5
B8
331
CC
  5
B9
331
CD
  5
BA
331
CE
  5
BB
331
CF
  5
BC
331
D0
  5
BD
331
D1
  5
BE
331
D2
  5
BF
331
D3
  5
C0
331
D4
  5
C1
331
D5
  5
C2
331
D6
  5
C3
331
D7
  5
C4
331
D8
  5
C5
331
D9
  5
C6
331
DA
  5
C7
331
DB
  5
C8
331
DC
  5
C9
331
DD
  5
CA
331
DE
  5
CB
331
DF
  5
CC
331
E0
  5
CD
331
E1
  5
CE
331
E2
  5
CF
331
E3
  5
D0
331
E4
  5
D1
331
E5
  5
D2
331
E6
  5
D3
331
E7
  5
D4
331
E8
  5
D5
331
E9
  5
D6
331
EA
  5
D7
331
EB
  5
D8
331
EC
  5
D9
331
ED
  5
DA
331
EE
  5
DB
331
EF
  5
DC
331
F0
  5
DD
331
F1
  5
DE
331
F2
  5
DF
331
F3
  5
E0
331
F4
  5
E1
331
F5
  5
E2
331
F6
  5
E3
331
F7
  5
E4
331
F8
  5
E5
331
F9
  5
E6
331
FA
  5
E7
331
FB
  5
E8
331
FC
  5
E9
331
FD
  5
EA
331
FE
  5
EB
331
FF
  5
EC
331
100
  5
ED
331
101
  5
EE
331
102
  5
EF
331
103
  5
F0
331
104
  5
F1
331
105
  5
F2
331
106
  5
F3
331
107
  5
F4
331
108
  5
F5
331
109
  5
F6
331
10A
  5
F7
331
10B
  5
F8
331
10C
  5
F9
331
10D
  5
FA
331
10E
  5
FB
331
10F
  5
FC
331
110
  5
FD
331
111
  5
FE
331
112
  5
FF
331
113
  5
100
331
114
  5
101
331
115
  5
102
331
116
  5
103
331
117
  5
104
331
118
  5
105
331
119
  5
106
331
11A
  5
107
331
11B
  5
108
331
11C
  5
109
331
11D
  5
10A
331
11E
  5
10B
331
11F
  5
10C
331
120
  5
10D
331
121
  5
10E
331
122
  5
10F
331
123
  5
110
331
124
  5
111
331
125
  5
112
331
126
  5
113
331
127
  5
114
331
128
  5
115
331
129
  5
116
331
12A
  5
117
331
12B
  5
118
331
12C
  5
119
331
12D
  5
11A
331
12E
  5
11B
331
12F
  5
11C
331
130
  5
11D
331
131
  5
11E
331
132
  5
11F
331
133
  5
120
331
134
  5
121
331
135
  5
122
331
136
  5
123
331
137
  5
124
331
138
  5
125
331
139
  5
126
331
13A
  5
127
331
13B
  5
128
331
13C
  5
129
331
13D
  5
12A
331
13E
  5
12B
331
13F
  5
12C
331
140
  5
12D
331
141
  5
12E
331
142
  5
12F
331
143
  5
130
331
144
  5
131
331
145
  5
132
331
146
  5
133
331
147
  5
134
331
148
  5
135
331
149
  5
136
331
14A
  5
137
331
14B
  5
138
331
14C
  5
139
331
14D
  5
13A
331
14E
  5
13B
331
14F
  5
13C
331
150
  5
13D
331
151
  5
13E
331
152
  5
13F
331
153
  5
140
331
154
  5
141
331
155
  5
142
331
156
  5
143
331
157
  5
144
331
158
  5
145
331
159
  5
146
331
15A
  5
147
331
15B
  5
148
331
15C
  5
149
331
15D
  5
14A
331
15E
  5
14B
331
15F
  5
14C
331
160
  5
14D
331
161
  5
14E
331
162
  5
14F
331
163
  5
150
331
164
  5
151
331
165
  5
152
331
166
  5
153
331
167
  5
154
331
168
  5
155
331
169
  5
156
331
16A
  5
157
331
16B
  5
158
331
16C
  5
159
331
16D
  5
15A
331
16E
  5
15B
331
16F
  5
15C
331
170
  5
15D
331
171
  5
15E
331
172
  5
15F
331
173
  5
160
331
174
  5
161
331
175
  5
162
331
176
  5
163
331
177
  5
164
331
178
  5
165
331
179
  5
166
331
17A
  5
167
331
17B
  5
168
331
17C
  5
169
331
17D
  5
16A
331
17E
  5
16B
331
17F
  5
16C
331
180
  5
16D
331
181
  5
16E
331
182
  5
16F
331
183
  5
170
331
184
  5
171
331
185
  5
172
331
186
  5
173
331
187
  5
174
331
188
  5
175
331
189
  5
176
331
18A
  5
177
331
18B
  5
178
331
18C
  5
179
331
18D
  5
17A
331
18E
  5
17B
331
18F
  5
17C
331
190
  5
17D
331
191
  5
17E
331
192
  5
17F
331
193
  5
180
331
194
  5
181
331
195
  5
182
331
196
  5
183
331
197
  5
184
331
198
  5
185
331
199
  5
186
331
19A
  5
187
331
19B
  5
188
331
19C
  5
189
331
19D
  5
18A
331
19E
  5
18B
331
19F
  5
18C
331
1A0
  5
18D
331
1A1
  5
18E
331
1A2
  5
18F
331
1A3
  5
190
331
1A4
  5
191
331
1A5
  5
192
331
1A6
  5
193
331
1A7
  5
194
331
1A8
  5
195
331
1A9
  5
196
331
1AA
  5
197
331
1AB
  5
198
331
1AC
  5
199
331
1AD
  5
19A
331
1AE
  5
19B
331
1AF
  5
19C
331
1B0
  5
19D
331
1B1
  5
19E
331
1B2
  5
19F
331
1B3
  5
1A0
331
1B4
  5
1A1
331
1B5
  5
1A2
331
1B6
  5
1A3
331
1B7
  5
1A4
331
1B8
  5
1A5
331
1B9
  5
1A6
331
1BA
  5
1A7
331
1BB
  5
1A8
331
1BC
  5
1A9
331
1BD
  5
1AA
331
1BE
  5
1AB
331
1BF
  5
1AC
331
1C0
  5
1AD
331
1C1
  5
1AE
331
1C2
  5
1AF
331
1C3
  5
1B0
331
1C4
  5
1B1
331
1C5
  5
1B2
331
1C6
  5
1B3
331
1C7
  5
1B4
331
1C8
  5
1B5
331
1C9
  5
1B6
331
1CA
  5
1B7
331
1CB
  5
1B8
331
1CC
  5
1B9
331
1CD
  5
1BA
331
1CE
  5
1BB
331
1CF
  5
1BC
331
1D0
  5
1BD
331
1D1
  5
1BE
331
1D2
  5
1BF
331
1D3
  5
1C0
331
1D4
  5
1C1
331
1D5
  5
1C2
331
1D6
  5
1C3
331
1D7
  5
1C4
331
1D8
  5
1C5
331
1D9
  5
1C6
331
1DA
  5
1C7
331
1DB
  5
1C8
331
1DC
  5
1C9
331
1DD
  5
1CA
331
1DE
  5
1CB
331
1DF
  5
1CC
331
1E0
  5
1CD
331
1E1
  5
1CE
331
1E2
  5
1CF
331
1E3
  5
1D0
331
1E4
  5
1D1
331
1E5
  5
1D2
331
1E6
  5
1D3
331
1E7
  5
1D4
331
1E8
  5
1D5
331
1E9
  5
1D6
331
1EA
  5
1D7
331
1EB
  5
1D8
331
1EC
  5
1D9
331
1ED
  5
1DA
331
1EE
  5
1DB
331
1EF
  5
1DC
331
1F0
  5
1DD
331
1F1
  5
1DE
331
1F2
  5
1DF
331
1F3
  5
1E0
331
1F4
  5
1E1
331
1F5
  5
1E2
331
1F6
  5
1E3
331
1F7
  5
1E4
331
1F8
  5
1E5
331
1F9
  5
1E6
331
1FA
  5
1E7
331
1FB
  5
1E8
331
1FC
  5
1E9
331
1FD
  5
1EA
331
1FE
  5
1EB
331
1FF
  5
1EC
331
200
  5
1ED
331
201
  5
1EE
331
202
  5
1EF
331
203
  5
1F0
331
204
  5
1F1
331
205
  5
1F2
331
206
  5
1F3
331
207
  5
1F4
331
208
  5
1F5
331
209
  5
1F6
331
20A
  5
1F7
331
20B
  5
1F8
331
20C
  5
1F9
331
20D
  5
1FA
331
20E
  5
1FB
331
20F
  5
1FC
331
210
  5
1FD
331
211
  5
1FE
331
212
  5
1FF
331
213
  5
200
331
214
  5
201
331
215
  5
202
331
216
  5
203
331
217
  5
204
331
218
  5
205
331
219
  5
206
331
21A
  5
207
331
21B
  5
208
331
21C
  5
209
331
21D
  5
20A
331
21E
  5
20B
331
21F
  5
20C
331
220
  5
20D
331
221
  5
20E
331
222
  5
20F
331
223
  5
210
331
224
  5
211
331
225
  5
212
331
226
  5
213
331
227
  5
214
331
228
  5
215
331
229
  5
216
331
22A
  5
217
331
22B
  5
218
331
22C
  5
219
331
22D
  5
21A
331
22E
  5
21B
331
22F
  5
21C
331
230
  5
21D
331
231
  5
21E
331
232
  5
21F
331
233
  5
220
331
234
  5
221
331
235
  5
222
331
236
  5
223
331
237
  5
224
331
238
  5
225
331
239
  5
226
331
23A
  5
227
331
23B
  5
228
331
23C
  5
229
331
23D
  5
22A
331
23E
  5
22B
331
23F
  5
22C
331
240
  5
22D
331
241
  5
22E
331
242
  5
22F
331
243
  5
230
331
244
  5
231
331
245
  5
232
331
246
  5
233
331
247
  5
234
331
248
  5
235
331
249
  5
236
331
24A
  5
237
331
24B
  5
238
331
24C
  5
239
331
24D
  5
23A
331
24E
  5
23B
331
24F
  5
23C
331
250
  5
23D
331
251
  5
23E
331
252
  5
23F
331
253
  5
240
331
254
  5
241
331
255
  5
242
331
256
  5
243
331
257
  5
244
331
258
  5
245
331
259
  5
246
331
25A
  5
247
331
25B
  5
248
331
25C
  5
249
331
25D
  5
24A
331
25E
  5
24B
331
25F
  5
24C
331
260
  5
24D
331
261
  5
24E
331
262
  5
24F
331
263
  5
250
331
264
  5
251
331
265
  5
252
331
266
  5
253
331
267
  5
254
331
268
  5
446
331
269
  5
447
331
26A
  5
448
331
26B
  5
449
331
26C
  5
255
331
26D
  5
256
331
26E
  5
257
331
26F
  5
258
331
270
  5
259
331
271
  5
25A
331
272
  5
25B
331
273
  5
25C
331
274
  5
25D
331
275
  5
25E
331
276
  5
25F
331
277
  5
260
331
278
  5
44A
331
279
  5
261
331
27A
  5
262
331
27B
  5
263
331
27C
  5
264
331
27D
  5
265
331
27E
  5
266
331
27F
  5
267
331
280
  5
44B
331
281
  5
268
331
282
  5
269
331
283
  5
26A
331
284
  5
26B
331
285
  5
44C
331
286
  5
44D
331
287
  5
44E
331
288
  5
44F
331
289
  5
26C
331
28A
  5
26D
331
28B
  5
26E
331
28C
  5
26F
331
28D
  5
270
331
28E
  5
271
331
28F
  5
272
331
290
  5
273
331
291
  5
274
331
292
  5
275
331
293
  5
276
331
294
  5
277
331
295
  5
278
331
296
  5
279
331
297
  5
27A
331
298
  5
27B
331
299
  5
27C
331
29A
  5
27D
331
29B
  5
27E
331
29C
  5
27F
331
29D
  5
280
331
29E
  5
281
331
29F
  5
282
331
2A0
  5
283
331
2A1
  5
284
331
2A2
  5
285
331
2A3
  5
286
331
2A4
  5
287
331
2A5
  5
288
331
2A6
  5
289
331
2A7
  5
28A
331
2A8
  5
28B
331
2A9
  5
28C
331
2AA
  5
28D
331
2AB
  5
28E
331
2AC
  5
28F
331
2AD
  5
290
331
2AE
  5
291
331
2AF
  5
450
331
2B0
  5
451
331
2B1
  5
452
331
2B2
  5
292
331
2B3
  5
293
331
2B4
  5
294
331
2B5
  5
295
331
2B6
  5
296
331
2B7
  5
297
331
2B8
  5
298
331
2B9
  5
299
331
2BA
  5
29A
331
2BB
  5
29B
331
2BC
  5
29C
331
2BD
  5
29D
331
2BE
  5
29E
331
2BF
  5
29F
331
2C0
  5
2A0
331
2C1
  5
2A1
331
2C2
  5
2A2
331
2C3
  5
2A3
331
2C4
  5
2A4
331
2C5
  5
2A5
331
2C6
  5
2A6
331
2C7
  5
2A7
331
2C8
  5
2A8
331
2C9
  5
2A9
331
2CA
  5
2AA
331
2CB
  5
2AB
331
2CC
  5
2AC
331
2CD
  5
2AD
331
2CE
  5
2AE
331
2CF
  5
2AF
331
2D0
  5
2B0
331
2D1
  5
2B1
331
2D2
  5
2B2
331
2D3
  5
2B3
331
2D4
  5
2B4
331
2D5
  5
2B5
331
2D6
  5
2B6
331
2D7
  5
2B7
331
2D8
  5
2B8
331
2D9
  5
453
331
2DA
  5
454
331
2DB
  5
455
331
2DC
  5
456
331
2DD
  5
457
331
2DE
  5
458
331
2DF
  5
2B9
331
2E0
  5
2BA
331
2E1
  5
459
331
2E2
  5
45A
331
2E3
  5
45B
331
2E4
  5
2BB
331
2E5
  5
45C
331
2E6
  5
2BC
331
2E7
  5
2BD
331
2E8
  5
2BE
331
2E9
  5
2BF
331
2EA
  5
2C0
331
2EB
  5
2C1
331
2EC
  5
2C2
331
2ED
  5
2C3
331
2EE
  5
2C4
331
2EF
  5
2C5
331
2F0
  5
2C6
331
2F1
  5
2C7
331
2F2
  5
2C8
331
2F3
  5
2C9
331
2F4
  5
2CA
331
2F5
  5
2CB
331
2F6
  5
2CC
331
2F7
  5
2CD
331
2F8
  5
2CE
331
2F9
  5
2CF
331
2FA
  5
2D0
331
2FB
  5
2D1
331
2FC
  5
2D2
331
2FD
  5
2D3
331
2FE
  5
2D4
331
2FF
  5
2D5
331
300
  5
2D6
331
301
  5
2D7
331
302
  5
2D8
331
303
  5
2D9
331
304
  5
2DA
331
305
  5
2DB
331
306
  5
2DC
331
307
  5
2DD
331
308
  5
2DE
331
309
  5
2DF
331
30A
  5
2E0
331
30B
  5
2E1
331
30C
  5
2E2
331
30D
  5
45D
331
30E
  5
45E
331
30F
  5
2E3
331
310
  5
2E4
331
311
  5
2E5
331
312
  5
2E6
331
313
  5
45F
331
314
  5
2E7
331
315
  5
2E8
331
316
  5
2E9
331
317
  5
2EA
331
318
  5
2EB
331
319
  5
2EC
331
31A
  5
2ED
331
31B
  5
2EE
331
31C
  5
2EF
331
31D
  5
2F0
331
31E
  5
2F1
331
31F
  5
2F2
331
320
  5
2F3
331
321
  5
2F4
331
322
  5
2F5
331
323
  5
2F6
331
324
  5
2F7
331
325
  5
2F8
331
326
  5
2F9
331
327
  5
2FA
331
328
  5
2FB
331
329
  5
2FC
331
32A
  5
2FD
331
32B
  5
2FE
331
32C
  5
2FF
331
32D
  5
300
331
32E
  5
301
331
32F
  5
302
331
330
  5
303
331
331
  5
304
331
332
  5
305
331
333
  5
306
331
334
  5
307
331
335
  5
308
331
336
  5
309
331
337
  5
30A
331
338
  5
30B
331
339
  5
30C
331
33A
  5
30D
331
33B
  5
30E
331
33C
  5
30F
331
33D
  5
310
331
33E
  5
311
331
33F
  5
312
331
340
  5
313
331
341
  5
314
331
342
  5
315
331
343
  5
316
331
344
  5
317
331
345
  5
318
331
346
  5
319
331
347
  5
31A
331
348
  5
31B
331
349
  5
31C
331
34A
  5
31D
331
34B
  5
31E
331
34C
  5
31F
331
34D
  5
320
331
34E
  5
321
331
34F
  5
322
331
350
  5
323
331
351
  5
324
331
352
  5
325
331
353
  5
326
331
354
  5
327
331
355
  5
328
331
356
  5
329
331
357
  5
32A
331
358
  5
32B
331
359
  5
32C
331
35A
  5
32D
331
35B
  5
32E
331
35C
  5
460
331
35D
  5
461
331
35E
  5
462
331
35F
  5
32F
331
360
  5
330
331
361
  5
463
331
362
  5
464
331
363
  5
331
331
364
  5
332
331
365
  5
467
331
366
  5
333
331
367
  5
334
331
368
  5
335
331
369
  5
336
331
36A
  5
337
331
36B
  5
338
331
36C
  5
339
331
36D
  5
33A
331
36E
  5
33B
331
36F
  5
33C
331
370
  5
33D
331
371
  5
33E
331
372
  5
33F
331
373
  5
340
331
374
  5
341
331
375
  5
342
331
376
  5
343
331
377
  5
344
331
378
  5
345
331
379
  5
346
331
37A
  5
347
331
37B
  5
348
331
37C
  5
349
331
37D
  5
34A
331
37E
  5
34B
331
37F
  5
34C
331
380
  5
34D
331
381
  5
34E
331
382
  5
34F
331
383
  5
350
331
384
  5
351
331
385
  5
352
331
386
  5
353
331
387
  5
354
331
388
  5
355
331
389
  5
356
331
38A
  5
357
331
38B
  5
358
331
38C
  5
359
331
38D
  5
35A
331
38E
  5
35B
331
38F
  5
35C
331
390
  5
46A
331
391
  5
46B
331
392
  5
35D
331
393
  5
35E
331
394
  5
35F
331
395
  5
360
331
396
  5
4EF
331
397
  5
361
331
398
  5
4EC
331
399
  5
362
331
39A
  5
48D
331
39B
  5
363
331
39C
  5
483
331
39D
  5
488
331
39E
  5
46C
331
39F
  5
46D
331
3A0
  5
46E
331
3A1
  5
46F
331
3A2
  5
364
331
3A3
  5
365
331
3A4
  5
366
331
3A6
  5
367
331
3A7
  5
470
331
3A8
  5
471
331
3A9
  5
48E
331
3AA
  5
368
331
3AB
  5
369
331
3AC
  5
36A
331
3AD
  5
36B
331
3AE
  5
36C
331
3AF
  5
36D
331
3B0
  5
36E
331
3B1
  5
36F
331
3B2
  5
370
331
3B3
  5
371
331
3B4
  5
372
331
3B5
  5
373
331
3B6
  5
374
331
3B7
  5
375
331
3B8
  5
376
331
3B9
  5
377
331
3BA
  5
378
331
3BB
  5
379
331
3BC
  5
37A
331
3BD
  5
37B
331
3BE
  5
37C
331
3BF
  5
37D
331
3C0
  5
37E
331
3C1
  5
37F
331
3C2
  5
380
331
3C3
  5
381
331
3C4
  5
382
331
3C5
  5
383
331
3C6
  5
384
331
3C7
  5
385
331
3C8
  5
386
331
3C9
  5
387
331
3CA
  5
388
331
3CB
  5
389
331
3CC
  5
38A
331
3CD
  5
38B
331
3CE
  5
38C
331
3CF
  5
38D
331
3D0
  5
38E
331
3D1
  5
38F
331
3D2
  5
390
331
3D3
  5
391
331
3D4
  5
392
331
3D5
  5
393
331
3D6
  5
394
331
3D7
  5
395
331
3D8
  5
396
331
3D9
  5
397
331
3DA
  5
398
331
3DB
  5
399
331
3DC
  5
39A
331
3DD
  5
39B
331
3DE
  5
39C
331
3DF
  5
39D
331
3E0
  5
39E
331
3E1
  5
39F
331
3E2
  5
3A0
331
3E3
  5
3A1
331
3E4
  5
3A2
331
3E5
  5
3A3
331
3E6
  5
3A4
331
3E7
  5
3A6
331
3E8
  5
3A7
331
3E9
  5
3A8
331
3EA
  5
3A9
331
3EB
  5
3AA
331
3EC
  5
3AB
331
3ED
  5
3AC
331
3EE
  5
3AD
331
3EF
  5
3AE
331
3F0
  5
3AF
331
3F1
  5
3B0
331
3F2
  5
3B1
331
3F3
  5
3B2
331
3F4
  5
3B3
331
3F5
  5
3B4
331
3F6
  5
3B5
331
3F7
  5
3B6
331
3F8
  5
3B7
331
3F9
  5
3B8
331
3FA
  5
3B9
331
3FB
  5
3BA
331
3FC
  5
3BB
331
3FD
  5
3BC
331
3FE
  5
3BD
331
3FF
  5
3BE
331
400
  5
3BF
331
401
  5
3C0
331
402
  5
3C1
331
403
  5
3C2
331
404
  5
3C3
331
405
  5
3C4
331
406
  5
3C5
331
407
  5
3C6
331
408
  5
3C7
331
409
  5
3C8
331
40A
  5
3C9
331
40B
  5
3CA
331
40C
  5
3CB
331
40D
  5
3CC
331
40E
  5
3CD
331
40F
  5
3CE
331
410
  5
3CF
331
411
  5
3D0
331
412
  5
3D1
331
413
  5
3D2
331
414
  5
3D3
331
415
  5
3D4
331
416
  5
3D5
331
417
  5
3D6
331
418
  5
3D7
331
419
  5
3D8
331
41A
  5
3D9
331
41B
  5
3DA
331
41C
  5
3DB
331
41D
  5
3DC
331
41E
  5
3DD
331
41F
  5
3DE
331
420
  5
3DF
331
421
  5
3E0
331
422
  5
3E1
331
423
  5
3E2
331
424
  5
3E3
331
425
  5
3E4
331
426
  5
3E5
331
427
  5
3E6
331
428
  5
3E7
331
429
  5
3E8
331
42A
  5
3E9
331
42B
  5
3EA
331
42C
  5
3EB
331
42D
  5
3EC
331
42E
  5
3ED
331
42F
  5
3EE
331
430
  5
3EF
331
431
  5
3F0
331
432
  5
3F1
331
433
  5
3F2
331
434
  5
3F3
331
435
  5
3F4
331
436
  5
3F5
331
437
  5
3F6
331
438
  5
3F7
331
439
  5
3F8
331
43A
  5
3F9
331
43B
  5
3FA
331
43C
  5
3FB
331
43D
  5
3FC
331
43E
  5
3FD
331
43F
  5
3FE
331
440
  5
3FF
331
441
  5
400
331
442
  5
401
331
443
  5
402
331
444
  5
403
331
445
  5
404
331
446
  5
405
331
447
  5
406
331
448
  5
407
331
449
  5
408
331
44A
  5
409
331
44B
  5
40A
331
44C
  5
40B
331
44D
  5
40C
331
44E
  5
40D
331
44F
  5
40E
331
450
  5
40F
331
451
  5
410
331
452
  5
411
331
453
  5
412
331
454
  5
413
331
455
  5
414
331
456
  5
415
331
457
  5
416
331
458
  5
417
331
459
  5
418
331
45A
  5
419
331
45B
  5
41A
331
45C
  5
41B
331
45D
  5
41C
331
45E
  5
41D
331
45F
  5
41E
331
460
  5
41F
331
461
  5
472
331
462
  5
473
331
463
  5
474
331
464
  5
475
331
467
  5
476
331
46A
  5
420
331
46B
  5
421
331
46C
  5
422
331
46D
  5
423
331
46E
  5
424
331
46F
  5
425
331
470
  5
426
331
471
  5
427
331
472
  5
428
331
473
  5
429
331
474
  5
42A
331
475
  5
42B
331
476
  5
42C
331
477
  5
42D
331
478
  5
42E
331
479
  5
42F
331
47A
  5
430
331
47B
  5
431
331
47C
  5
477
331
481
  5
432
331
482
  5
433
331
483
  5
478
331
488
  5
434
331
489
  5
435
331
48A
  5
436
331
48D
  5
479
331
48E
  5
47A
331
4EC
  5
47B
331
4EF
  5
47C
  0
LAYOUT
  5
50C
102
{ACAD_REACTORS
330
508
330
508
102
}
102
{ACAD_XDICTIONARY
360
50D
102
}
330
508
100
AcDbPlotSettings
  1

  2
none_device
  4
Letter_(8.50_x_11.00_Inches)
  6

 40
6.35
 41
6.35
 42
6.350006
 43
6.350006
 44
215.899994
 45
279.399994
 46
0.0
 47
0.0
 48
0.0
 49
0.0
140
0.0
141
0.0
142
1.0
143
1.0
 70
   688
 72
     0
 73
     1
 74
     5
  7

 75
    16
 76
     0
 77
     2
 78
   300
147
1.0
148
0.0
149
0.0
100
AcDbLayout
  1
Layout1
 70
     1
 71
     1
 10
-0.25
 20
-0.25
 11
10.75
 21
8.25
 12
0.0
 22
0.0
 32
0.0
 14
1.049744
 24
0.799667
 34
-0.001526
 15
9.450623
 25
7.200577
 35
0.0
146
0.0
 13
0.0
 23
0.0
 33
0.0
 16
1.0
 26
0.0
 36
0.0
 17
0.0
 27
1.0
 37
0.0
 76
     0
330
509
1001
ACAD_PSEXT
1000
None
1000
None
1000
Not applicable
1000
The layout will not be plotted unless a new plotter configuration name is selected.
1070
     0
  0
LAYOUT
  5
507
102
{ACAD_REACTORS
330
508
330
508
102
}
330
508
100
AcDbPlotSettings
  1

  2
none_device
  4
ANSI_A_(8.50_x_11.00_Inches)
  6

 40
6.35
 41
19.049999
 42
6.350006
 43
19.049988
 44
215.899994
 45
279.399994
 46
0.0
 47
0.0
 48
0.0
 49
0.0
140
0.0
141
0.0
142
1.0
143
2.584895
 70
 11952
 72
     0
 73
     1
 74
     0
  7

 75
     0
 76
     0
 77
     2
 78
   300
147
0.386863
148
0.0
149
0.0
100
AcDbLayout
  1
Model
 70
     1
 71
     0
 10
0.0
 20
0.0
 11
12.0
 21
9.0
 12
0.0
 22
0.0
 32
0.0
 14
0.0
 24
0.0
 34
0.0
 15
0.0
 25
0.0
 35
0.0
146
0.0
 13
0.0
 23
0.0
 33
0.0
 16
1.0
 26
0.0
 36
0.0
 17
0.0
 27
1.0
 37
0.0
 76
     0
330
504
331
49
  0
MLINESTYLE
  5
501
102
{ACAD_REACTORS
330
502
102
}
330
502
100
AcDbMlineStyle
  2
STANDARD
 70
     0
  3

 62
   256
 51
90.0
 52
90.0
 71
     2
 49
0.5
 62
   256
  6
BYLAYER
 49
-0.5
 62
   256
  6
BYLAYER
  0
ACDBPLACEHOLDER
  5
4F6
102
{ACAD_REACTORS
330
4F7
102
}
330
4F7
  0
XRECORD
  5
4DC
102
{ACAD_REACTORS
330
51C
102
}
330
51C
100
AcDbXrecord
280
     1
310
3E4F020000004D6F64656C6572000000000000000000000000000000000000000000000000000000000000000000000000000000000000000000000000000000000000000000000000000000000000000000000000000000000000000000000000000000000000000000000000000000000000000000000000000000000000
310
00000000000000000000000000000000000000000000000000000000000000000000000000000000000000000000000000000000000000000000000000000000000000000000000000000000000000000000000000000000000000000000000000000000000000000000000000000000000000000000000000000000000000
310
00
310
00000000000000000000000000000000000000000000000000000000000000000000000000000000000000000000000000000000000000000000000000000000000000000000000000000000000000000000000000000000000000000000000000000000000000000000000000000000000000000000000000000000000000
310
00000000000000000000000000000000000000000000000000000000000000000000000000000000000000000000000000000000000000000000000000000000000000000000000000000000000000000000000000000000000000000000000000000000000000000000000000000000000000000000000000000000000000
310
00
310
00000000000000000000000000000000000000000000000000000000000000000000000000000000000000000000000000000000000000000000000000000000000000000000000000000000000000000000000000000000000000000000000000000000000000000000000000000000000000000000000000000000000000
310
00000000000000000000000000000000000000000000000000000000000000000000000000000000000000000000000000000000000000000000000000000000000000000000000000000000000000000000000000000000000000000000000000000000000000000000000000000000000000000000000000000000000000
310
00
310
00000000000000000000000000000000000000000000000000000000000000000000000000000000000000000000000000000000000000000000000000000000000000000000000000000000000000000000000000000000000000000000000000000000000000000000000000000000000000000000000000000000000000
310
00000000000000000000000000000000000000000000000000000000000000000000000000000000000000000000000000000000000000000000000000000000000000000000000000000000000000000000000000000000000000000000000000000000000000000000000000000000000000000000000000000000000000
310
00
310
00000000000000000000000000000000000000000000000000000000000000000000000000000000000000000000000000000000000000000000000000000000000000000000000000000000000000000000000000000000000000000000000000000000000000000000000000000000000000000000000000000000000000
310
00000000000000000000000000000000000000000000000000000000000000000000000000000000000000000000000000000000000000000000000000000000000000000000000000000000000000000000000000000000000000000000000000000000000000000000000000000000000000000000000000000000000000
310
00
310
00000000000000000000000000000000000000000000000000000000000000000000000000000000000000000000000000000000000000000000000000000000000000000000000000000000000000000000000000000000000000000000000000000000000000000000000000000000000000000000000000000000000000
310
00000000000000000000000000000000000000000000000000000000000000000000000000000000000000000000000000000000000000000000000000000000000000000000000000000000000000000000000000000000000000000000000000000000000000000000000000000000000000000000000000000000000000
310
00
310
00000000000000000000000000000000000000000000000000000000000000000000000000000000000000000000000000000000000000000000000000000000000000000000000000000000000000000000000000000000000000000000000000000000000000000000000000000000000000000000000000000000000000
310
00000000000000000000000000000000000000000000000000000000000000000000000000000000000000000000000000000000000000000000000000000000000000000000000000000000000000000000000000000000000000000000000000000000000000000000000000000000000000000000000000000000000000
310
00
310
00000000000000000000000000000000000000000000000000000000000000000000000000000000000000000000000000000000000000000000000000000000000000000000000000000000000000000000000000000000000000000000000000000000000000000000000000000000000000000000000000000000000000
310
00000000000000000000000000000000000000000000000000000000000000000000000000000000000000000000000000000000000000000000000000000000000000000000000000000000000000000000000000000000000000000000000000000000000000000000000000000000000000000000000000000000000000
310
00
310
00000000000000000000000000000000000000000000000000000000000000000000000000000000000000000000000000000000000000000000000000000000000000000000000000000000000000000000000000000000000000000000000000000000000000000000000000000000000000000000000000000000000000
310
00000000000000000000000000000000000000000000000000000000000000000000000000000000000000000000000000000000000000000000000000000000000000000000000000000000000000000000000000000000000000000000000000000000000000000000000000000000000000000000000000000000000000
310
00
310
00000000000000000000000000000000000000000000000000000000000000000000000000000000000000000000000000000000000000000000000000000000000000000000000000000000000000000000000000000000000000000000000000000000000000000000000000000000000000000000000000000000000000
310
00000000000000000000000000000000000000000000000000000000000000000000000000000000000000000000000000000000000000000000000000000000000000000000000000000000000000000000000000000000000000000000000000000000000000000000000000000000000000000000000000000000000000
310
00
310
00000000000000000000000000000000000000000000000000000000000000000000000000000000000000000000000000000000000000000000000000000000000000000000000000000000000000000000000000000000000000000000000000000000000000000000000000000000000000000000000000000000000000
310
00000000000000000000000000000000000000000000000000000000000000000000000000000000000000000000000000000000000000000000000000000000000000000000000000000000000000000000000000000000000000000000000000000000000000000000000000000000000000000000000000000000000000
310
00
310
00000000000000000000000000000000000000000000000000000000000000000000000000000000000000000000000000000000000000000000000000000000000000000000000000000000000000000000000000000000000000000000000000000000000000000000000000000000000000000000000000000000000000
310
00000000000000000000000000000000000000000000000000000000000000000000000000000000000000000000000000000000000000000000000000000000000000000000000000000000000000000000000000000000000000000000000000000000000000000000000000000000000000000000000000000000000000
310
00
310
00000000000000000000000000000000000000000000000000000000000000000000000000000000000000000000000000000000000000000000000000000000000000000000000000000000000000000000000000000000000000000000000000000000000000000000000000000000000000000000000000000000000000
310
00000000000000000000000000000000000000000000000000000000000000000000000000000000000000000000000000000000000000000000000000000000000000000000000000000000000000000000000000000000000000000000000000000000000000000000000000000000000000000000000000000000000000
310
00
310
00000000000000000000000000000000000000000000000000000000000000000000000000000000000000000000000000000000000000000000000000000000000000000000000000000000000000000000000000000000000000000000000000000000000000000000000000000000000000
  0
XRECORD
  5
4F0
102
{ACAD_REACTORS
330
51C
102
}
330
51C
100
AcDbXrecord
280
     1
310
3E4F020000004D6F64656C6572000000000000000000000000000000000000000000000000000000000000000000000000000000000000000000000000000000000000000000000000000000000000000000000000000000000000000000000000000000000000000000000000000000000000000000000000000000000000
310
00000000000000000000000000000000000000000000000000000000000000000000000000000000000000000000000000000000000000000000000000000000000000000000000000000000000000000000000000000000000000000000000000000000000000000000000000000000000000000000000000000000000000
310
00
310
00000000000000000000000000000000000000000000000000000000000000000000000000000000000000000000000000000000000000000000000000000000000000000000000000000000000000000000000000000000000000000000000000000000000000000000000000000000000000000000000000000000000000
310
00000000000000000000000000000000000000000000000000000000000000000000000000000000000000000000000000000000000000000000000000000000000000000000000000000000000000000000000000000000000000000000000000000000000000000000000000000000000000000000000000000000000000
310
00
310
00000000000000000000000000000000000000000000000000000000000000000000000000000000000000000000000000000000000000000000000000000000000000000000000000000000000000000000000000000000000000000000000000000000000000000000000000000000000000000000000000000000000000
310
00000000000000000000000000000000000000000000000000000000000000000000000000000000000000000000000000000000000000000000000000000000000000000000000000000000000000000000000000000000000000000000000000000000000000000000000000000000000000000000000000000000000000
310
00
310
00000000000000000000000000000000000000000000000000000000000000000000000000000000000000000000000000000000000000000000000000000000000000000000000000000000000000000000000000000000000000000000000000000000000000000000000000000000000000000000000000000000000000
310
00000000000000000000000000000000000000000000000000000000000000000000000000000000000000000000000000000000000000000000000000000000000000000000000000000000000000000000000000000000000000000000000000000000000000000000000000000000000000000000000000000000000000
310
00
310
00000000000000000000000000000000000000000000000000000000000000000000000000000000000000000000000000000000000000000000000000000000000000000000000000000000000000000000000000000000000000000000000000000000000000000000000000000000000000000000000000000000000000
310
00000000000000000000000000000000000000000000000000000000000000000000000000000000000000000000000000000000000000000000000000000000000000000000000000000000000000000000000000000000000000000000000000000000000000000000000000000000000000000000000000000000000000
310
00
310
00000000000000000000000000000000000000000000000000000000000000000000000000000000000000000000000000000000000000000000000000000000000000000000000000000000000000000000000000000000000000000000000000000000000000000000000000000000000000000000000000000000000000
310
00000000000000000000000000000000000000000000000000000000000000000000000000000000000000000000000000000000000000000000000000000000000000000000000000000000000000000000000000000000000000000000000000000000000000000000000000000000000000000000000000000000000000
310
00
310
00000000000000000000000000000000000000000000000000000000000000000000000000000000000000000000000000000000000000000000000000000000000000000000000000000000000000000000000000000000000000000000000000000000000000000000000000000000000000000000000000000000000000
310
00000000000000000000000000000000000000000000000000000000000000000000000000000000000000000000000000000000000000000000000000000000000000000000000000000000000000000000000000000000000000000000000000000000000000000000000000000000000000000000000000000000000000
310
00
310
00000000000000000000000000000000000000000000000000000000000000000000000000000000000000000000000000000000000000000000000000000000000000000000000000000000000000000000000000000000000000000000000000000000000000000000000000000000000000000000000000000000000000
310
00000000000000000000000000000000000000000000000000000000000000000000000000000000000000000000000000000000000000000000000000000000000000000000000000000000000000000000000000000000000000000000000000000000000000000000000000000000000000000000000000000000000000
310
00
310
00000000000000000000000000000000000000000000000000000000000000000000000000000000000000000000000000000000000000000000000000000000000000000000000000000000000000000000000000000000000000000000000000000000000000000000000000000000000000000000000000000000000000
310
00000000000000000000000000000000000000000000000000000000000000000000000000000000000000000000000000000000000000000000000000000000000000000000000000000000000000000000000000000000000000000000000000000000000000000000000000000000000000000000000000000000000000
310
00
310
00000000000000000000000000000000000000000000000000000000000000000000000000000000000000000000000000000000000000000000000000000000000000000000000000000000000000000000000000000000000000000000000000000000000000000000000000000000000000000000000000000000000000
310
00000000000000000000000000000000000000000000000000000000000000000000000000000000000000000000000000000000000000000000000000000000000000000000000000000000000000000000000000000000000000000000000000000000000000000000000000000000000000000000000000000000000000
310
00
310
00000000000000000000000000000000000000000000000000000000000000000000000000000000000000000000000000000000000000000000000000000000000000000000000000000000000000000000000000000000000000000000000000000000000000000000000000000000000000000000000000000000000000
310
00000000000000000000000000000000000000000000000000000000000000000000000000000000000000000000000000000000000000000000000000000000000000000000000000000000000000000000000000000000000000000000000000000000000000000000000000000000000000000000000000000000000000
310
00
310
00000000000000000000000000000000000000000000000000000000000000000000000000000000000000000000000000000000000000000000000000000000000000000000000000000000000000000000000000000000000000000000000000000000000000000000000000000000000000000000000000000000000000
310
00000000000000000000000000000000000000000000000000000000000000000000000000000000000000000000000000000000000000000000000000000000000000000000000000000000000000000000000000000000000000000000000000000000000000000000000000000000000000000000000000000000000000
310
00
310
00000000000000000000000000000000000000000000000000000000000000000000000000000000000000000000000000000000000000000000000000000000000000000000000000000000000000000000000000000000000000000000000000000000000000000000000000000000000000000000000000000000000000
310
00000000000000000000000000000000000000000000000000000000000000000000000000000000000000000000000000000000000000000000000000000000000000000000000000000000000000000000000000000000000000000000000000000000000000000000000000000000000000000000000000000000000000
310
00
310
00000000000000000000000000000000000000000000000000000000000000000000000000000000000000000000000000000000000000000000000000000000000000000000000000000000000000000000000000000000000000000000000000000000000000000000000000000000000000
  0
XRECORD
  5
4DB
102
{ACAD_REACTORS
330
51C
102
}
330
51C
100
AcDbXrecord
280
     1
310
DF56060034040701D0009A9999999999B93F000000000000000000000000000000000400000009000000000000000200000064000000640000000100000001000000190000007B14AE47E17A843F00000000004060409A9999999999B93F00000000004C2D41000000000070F7400000000000942141000000000000000000
310
0000000000000000000000000000000AD482040000000000000000000000000000F03F000000000000000000000000000030402D431CEBE2362A3F00000000000008400000000000000000009807C000000000000000007C1A61B9A711364020000000050000000A000000200000002000000020000000000000000000F03F
310
00
310
0000000000F03F000000000000F03F333333333333D33F333333333333D33F333333333333D33F000000000000F43F000000000000F43F000000000000F03F0200000064000000000000000000000000000840000000000000F83F00000000000000000000000000000000008056409A9999999999B93F0000000000000000
310
00000000000000000000000000000000000000000000000000000000000000000000000000000000000000000000000000000000000000000000000000000000000000000000000000000000000000000000000000000000000000000000000000000000000000000000000000000000000000000000000000000000000000
310
00
310
0000000000000000000000000000000000000000000000000000000000000000000000000000000000000000000000000000000000000000000000000000000000000000000000000000000000000000000000000000000000000000000000000000000000000000000000000000000000000000000000009A9999999999A9
310
3F9100000000000000000000000000000035A781D547960F40000000000000F03F000000000000F03F666666666666164000000000104068F200000000000000000000000000000000000000000000000000000000000000000000000000000000000000000000000000000000000000000000000000000000000000000000
310
00
310
00000000000000000000000000000000000000000000000000000000000000000000000000000000000000000000000000000000000000000000000000000000000000000000000000000000000000000000000000000000000000000000000000000000000000000000000000000000000000000000000000000000000000
310
000000000000000000000000000000000000000000000000000000000000000000000000000000000000000000000000000000000000000000000000FF000000000000000000000000000000000000000000000000000000000000000000000000000000000000000000000000000000000000000000000000000000000000
310
00
310
0000000000000000000000000000000000000000000000000000000000000000000000000000000000000000000000000000000000000000000000000000000000000000
  0
DICTIONARY
  5
50D
330
50C
100
AcDbDictionary
280
     1
281
     1
  3
ADSK_XREC_LAYOUTTHUMBNAIL
360
50E
  0
XRECORD
  5
50E
102
{ACAD_REACTORS
330
50D
102
}
330
50D
100
AcDbXrecord
280
     1
310
28000000B40000008B0000000100080000000000BC61000000000000000000000001000000000000FFFFFF0000000000FFFFFF000000000000000000000000000000000000000000000000000000000000000000330000006600000099000000CC000000FF00000000330000333300006633000099330000CC330000FF3300
310
0000660000336600006666000099660000CC660000FF66000000990000339900006699000099990000CC990000FF99000000CC000033CC000066CC000099CC0000CCCC0000FFCC000000FF000033FF000066FF000099FF0000CCFF0000FFFF000000003300330033006600330099003300CC003300FF003300003333003333
310
33006633330099333300CC333300FF33330000663300336633006666330099663300CC663300FF66330000993300339933006699330099993300CC993300FF99330000CC330033CC330066CC330099CC3300CCCC3300FFCC330000FF330033FF330066FF330099FF3300CCFF3300FFFF330000006600330066006600660099
310
006600CC006600FF00660000336600333366006633660099336600CC336600FF33660000666600336666006666660099666600CC666600FF66660000996600339966006699660099996600CC996600FF99660000CC660033CC660066CC660099CC6600CCCC6600FFCC660000FF660033FF660066FF660099FF6600CCFF6600
310
FFFF660000009900330099006600990099009900CC009900FF00990000339900333399006633990099339900CC339900FF33990000669900336699006666990099669900CC669900FF66990000999900339999006699990099999900CC999900FF99990000CC990033CC990066CC990099CC9900CCCC9900FFCC990000FF99
310
0033FF990066FF990099FF9900CCFF9900FFFF99000000CC003300CC006600CC009900CC00CC00CC00FF00CC000033CC003333CC006633CC009933CC00CC33CC00FF33CC000066CC003366CC006666CC009966CC00CC66CC00FF66CC000099CC003399CC006699CC009999CC00CC99CC00FF99CC0000CCCC0033CCCC0066CC
310
CC0099CCCC00CCCCCC00FFCCCC0000FFCC0033FFCC0066FFCC0099FFCC00CCFFCC00FFFFCC000000FF003300FF006600FF009900FF00CC00FF00FF00FF000033FF003333FF006633FF009933FF00CC33FF00FF33FF000066FF003366FF006666FF009966FF00CC66FF00FF66FF000099FF003399FF006699FF009999FF00CC
310
99FF00FF99FF0000CCFF0033CCFF0066CCFF0099CCFF00CCCCFF00FFCCFF0000FFFF0033FFFF0066FFFF0099FFFF00CCFFFF00FFFFFF00000000000D0D0D001A1A1A00282828003535350043434300505050005D5D5D006B6B6B00787878008686860093939300A1A1A100AEAEAE00BBBBBB00C9C9C900D6D6D600E4E4E400
310
F1F1F100FFFFFF0000000000000000000000000000000000000000000000000000000000000000000000000000000000E2E2E2E2E2E2E2E2E2E2E2E2E2E2E2E2E2E2E2E2E2E2E2E2E2E2E2E2E2E2E2E2E2E2E2E2E2E2E2E2E2E2E2E2E2E2E2E2E2E2E2E2E2E2E2E2E2E2E2E2E2E2E2E2E2E2E2E2E2E2E2E2E2E2E2E2E2E2E2
310
E2E2E2E2E2E2E2E2E2E2E2E2E2E2E2E2E2E2E2E2E2E2E2E2E2E2E2E2E2E2E2E2E2E2E2E2E2E2E2E2E2E2E2E2E2E2E2E2E2E2E2E2E2E2E2E2E2E2E2E2E2E2E2E2E2E2E2E2E2E2E2E2E2E2E2E2E2E2E2E2E2E2E2E2E2E2E2E2E2E2E2E2E2E2E2E2E2E2E2E2EFF5F5F5F5F5F5F5F5F5F5F5F5F5F5F5F5F5F5F5F5F5F5F5F5F5F5
310
F5F5F5F5F5F5F5F5F5F5F5F5F5F5F5F5F5F5F5F5F5F5F5F5F5F5F5F5F5F5F5F5F5F5F5F5F5F5F5F5F5F5F5F5F5F5F5F5F5F5F5F5F5F5F5F5F5F5F5F5F5F5F5F5F5F5F5F5F5F5F5F5F5F5F5F5F5F5F5F5F5F5F5F5F5F5F5F5F5F5F5F5F5F5F5F5F5F5F5F5F5F5F5F5F5F5F5F5F5F5F5F5F5F5F5F5F5F5F5F5F5F5F5F5F5F5F5
310
F5F5F5F5F5F5F5F5F5F5F5F5F5F5F5F5F5F5F5F5F5F5F5F5E2E2EFF5F5F5F5F5F5F5F5F5F5F5F5F5F5F5F5F5F5F5F5F5F5F5F5F5F5F5F5F5F5F5F5F5F5F5F5F5F5F5F5F5F5F5F5F5F5F5F5F5F5F5F5F5F5F5F5F5F5F5F5F5F5F5F5F5F5F5F5F5F5F5F5F5F5F5F5F5F5F5F5F5F5F5F5F5F5F5F5F5F5F5F5F5F5F5F5F5F5F5F5
310
F5F5F5F5F5F5F5F5F5F5F5F5F5F5F5F5F5F5F5F5F5F5F5F5F5F5F5F5F5F5F5F5F5F5F5F5F5F5F5F5F5F5F5F5F5F5F5F5F5F5F5F5F5F5F5F5F5F5F5F5F5F5F5F5F5F5F5F5F5F5F5F5F5F5F5F5F5E2E2EFF5F5F5F5F5F5F5F5F5F5F5F5F5F5F5F5F5F5F5F5F5F5F5F5F5F5F5F5F5F5F5F5F5F5F5F5F5F5F5F5F5F5F5F5F5F5F5
310
F5F5F5F5F5F5F5F5F5F5F5F5F5F5F5F5F5F5F5F5F5F5F5F5F5F5F5F5F5F5F5F5F5F5F5F5F5F5F5F5F5F5F5F5F5F5F5F5F5F5F5F5F5F5F5F5F5F5F5F5F5F5F5F5F5F5F5F5F5F5F5F5F5F5F5F5F5F5F5F5F5F5F5F5F5F5F5F5F5F5F5F5F5F5F5F5F5F5F5F5F5F5F5F5F5F5F5F5F5F5F5F5F5F5F5F5F5F5F5F5F5F5F5F5F5F5F5
310
F5F5F5E2E2EFF5F5F5E2E2E2E2E2E2E2E2F5F5F5F5F5F5F5F5F5E2E2E2E2E2E2E2E2E2E2E2E2E2E2E2E2F5F5F5F5F5F5F5F5E2E2E2E2E2E2E2E2E2E2E2E2E2E2E2E2F5F5F5F5F5F5F5F5F5E2E2E2E2E2E2E2E2E2E2E2E2E2E2E2F5F5F5F5F5F5F5F5F5E2E2E2E2E2E2E2E2E2E2E2E2E2E2E2F5F5F5F5F5F5F5F5F5E2E2E2E2
310
E2E2E2E2E2E2E2E2E2E2E2E2F5F5F5F5F5F5F5F5E2E2E2E2E2E2E2E2E2E2E2E2E2E2E2E2F5F5F5F5F5F5F5F5F5E2E2E2E2E2E2E2E2F5F5F5E2E2EFF5F5F5E2F5F5F5F5F5F5F5F5F5F5F5F5F5F5F5F5F5F5F5F5F5F5F5F5F5F5F5F5F5F5F5F5F5F5F5F5F5F5F5F5F5F5F5F5F5F5F5F5F5F5F5F5F5F5F5F5F5F5F5F5F5F5F5F5
310
F5F5F5F5F5F5F5F5F5F5F5F5F5F5F5F5F5F5F5F5F5F5F5F5F5F5F5F5F5F5F5F5F5F5F5F5F5F5F5F5F5F5F5F5F5F5F5F5F5F5F5F5F5F5F5F5F5F5F5F5F5F5F5F5F5F5F5F5F5F5F5F5F5F5F5F5F5F5F5F5F5F5F5F5F5F5F5F5F5F5F5F5F5F5F5F5F5F5F5F5F5F5F5F5F5E2F5F5F5E2E2EFF5F5F5E2F5F5F5F5F5F5F5F5F5F5F5
310
F5F5F5F5F5F5F5F5F5F5F5F5F5F5F5F5F5F5F5F5F5F5F5F5F5F5F5F5F5F5F5F5F5F5F5F5F5F5F5F5F5F5F5F5F5F5F5F5F5F5F5F5F5F5F5F5F5F5F5F5F5F5F5F5F5F5F5F5F5F5F5F5F5F5F5F5F5F5F5F5F5F5F5F5F5F5F5F5F5F5F5F5F5F5F5F5F5F5F5F5F5F5F5F5F5F5F5F5F5F5F5F5F5F5F5F5F5F5F5F5F5F5F5F5F5F5F5
310
F5F5F5F5F5F5F5F5F5F5F5F5F5F5F5F5F5F5F5F5F5F5F5F5F5F5F5F5F5F5F5E2F5F5F5E2E2EFF5F5F5E2F5F5F5F5F5F5F5F5F5F5F5F5F5F5F5F5F5F5F5F5F5F5F5F5F5F5F5F5F5F5F5F5F5F5F5F5F5F5F5F5F5F5F5F5F5F5F5F5F5F5F5F5F5F5F5F5F5F5F5F5F5F5F5F5F5F5F5F5F5F5F5F5F5F5F5F5F5F5F5F5F5F5F5F5F5
310
F5F5F5F5F5F5F5F5F5F5F5F5F5F5F5F5F5F5F5F5F5F5F5F5F5F5F5F5F5F5F5F5F5F5F5F5F5F5F5F5F5F5F5F5F5F5F5F5F5F5F5F5F5F5F5F5F5F5F5F5F5F5F5F5F5F5F5F5F5F5F5F5F5F5F5F5F5F5F5F5F5F5F5F5E2F5F5F5E2E2EFF5F5F5E2F5F5F5F5F5F5F5F5F5F5F5F5F5F5F5F5F5F5F5F5F5F5F5F5F5F5F5F5F5F5F5F5
310
F5F5F5F5F5F5F5F5F5F5F5F5F5F5F5F5F5F5F5F5F5F5F5F5F5F5F5F5F5F5F5F5F5F5F5F5F5F5F5F5F5F5F5F5F5F5F5F5F5F5F5F5F5F5F5F5F5F5F5F5F5F5F5F5F5F5F5F5F5F5F5F5F5F5F5F5F5F5F5F5F5F5F5F5F5F5F5F5F5F5F5F5F5F5F5F5F5F5F5F5F5F5F5F5F5F5F5F5F5F5F5F5F5F5F5F5F5F5F5F5F5F5F5F5F5F5F5
310
F5F5F5F5F5F5F5F5F5F5E2F5F5F5E2E2EFF5F5F5E2F5F5F5F5F5F5F5F5F5F5F5F5F5F5F5F5F5F5F5F5F5F5F5F5F5F5F5F5F5F5F5F5F5F5F5F5F5F5F5F5F5F5F5F5F5F5F5F5F5F5F5F5F5F5F5F5F5F5F5F5F5F5F5F5F5F5F5F5F5F5F5F5F5F5F5F5F5F5F5F5F5F5F5F5F5F5F5F5F5F5F5F5F5F5F5F5F5F5F5F5F5F5F5F5F5F5
310
F5F5F5F5F5F5F5F5F5F5F5F5F5F5F5F5F5F5F5F5F5F5F5F5F5F5F5F5F5F5F5F5F5F5F5F5F5F5F5F5F5F5F5F5F5F5F5F5F5F5F5F5F5F5F5F5F5F5F5F5F5F5F5E2F5F5F5E2E2EFF5F5F5E2F5F5F5F5F5F5F5F5F5F5F5F5F5F5F5F5F5F5F5F5F5F5F5F5F5F5F5F5F5F5F5F5F5F5F5F5F5F5F5F5F5F5F5F5F5F5F5F5F5F5F5F5F5
310
F5F5F5F5F5F5F5F5F5F5F5F5F5F5F5F5F5F5F5F5F5F5F5F5F5F5F5F5F5F5F5F5F5F5F5F5F5F5F5F5F5F5F5F5F5F5F5F5F5F5F5F5F5F5F5F5F5F5F5F5F5F5F5F5F5F5F5F5F5F5F5F5F5F5F5F5F5F5F5F5F5F5F5F5F5F5F5F5F5F5F5F5F5F5F5F5F5F5F5F5F5F5F5F5F5F5F5F5F5F5F5F5F5F5F5F5E2F5F5F5E2E2EFF5F5F5E2
310
F5F5F5F5F5F5F5F5F5F5F5F5F5F5F5F5F5F5F5F5F5F5F5F5F5F5F5F5F5F5F5F5F5F5F5F5F5F5F5F5F5F5F5F5F5F5F5F5F5F5F5F5F5F5F5F5F5F5F5F5F5F5F5F5F5F5F5F5F5F5F5F5F5F5F5F5F5F5F5F5F5F5F5F5F5F5F5F5F5F5F5F5F5F5F5F5F5F5F5F5F5F5F5F5F5F5F5F5F5F5F5F5F5F5F5F5F5F5F5F5F5F5F5F5F5F5F5
310
F5F5F5F5F5F5F5F5F5F5F5F5F5F5F5F5F5F5F5F5F5F5F5F5F5F5F5F5F5F5F5F5F5F5F5F5F5F5F5F5F5F5E2F5F5F5E2E2EFF5F5F5E2F5F5F5F5F5F5F5F5F5F5F5F5F5F5F5F5F5F5F5F5F5F5F5F5F5F5F5F5F5F5F5F5F5F5F5F5F5F5F5F5F5F5F5F5F5F5F5F5F5F5F5F5F5F5F5F5F5F5F5F5F5F5F5F5F5F5F5F5F5F5F5F5F5F5
310
F5F5F5F5F5F5F5F5F5F5F5F5F5F5F5F5F5F5F5F5F5F5F5F5F5F5F5F5F5F5F5F5F5F5F5F5F5F5F5F5F5F5F5F5F5F5F5F5F5F5F5F5F5F5F5F5F5F5F5F5F5F5F5F5F5F5F5F5F5F5F5F5F5F5F5F5F5F5F5F5F5F5F5F5F5F5F5F5F5F5F5F5F5F5F5E2F5F5F5E2E2EFF5F5F5F5F5F5F5F5F5F5F5F5F5F5F5F5F5F5F5F5F5F5F5F5F5
310
F5F5F5F5F5F5F5F5F5F5F5F5F5F5F5F5F5F5F5F5F5F5F5F5F5F5F5F5F5F5F5F5F5F5F5F5F5F5F5F5F5F5F5F5F5F5F5F5F5F5F5F5F5F5F5F5F5F5F5F5F5F5F5F5F5F5F5F5F5F5F5F5F5F5F5F5F5F5F5F5F5F5F5F5F5F5F5F5F5F5F5F5F5F5F5F5F5F5F5F5F5F5F5F5F5F5F5F5F5F5F5F5F5F5F5F5F5F5F5F5F5F5F5F5F5F5F5
310
F5F5F5F5F5F5F5F5F5F5F5F5F5F5F5F5F5F5F5F5F5F5F5F5F5E2E2EFF5F5F5F5F5F5F5F5F5F5F5F5F5F5F5F5F5F5F5F5F5F5F5F5F5F5F5F5F5F5F5F5F5F5F5F5F5F5F5F5F5F5F5F5F5F5F5F5F5F5F5F5F5F5F5F5F5F5F5F5F5F5F5F5F5F5F5F5F5F5F5F5F5F5F5F5F5F5F5F5F5F5F5F5F5F5F5F5F5F5F5F5F5F5F5F5F5F5F5
310
F5F5F5F5F5F5F5F5F5F5F5F5F5F5F5F5F5F5F5F5F5F5F5F5F5F5F5F5F5F5F5F5F5F5F5F5F5F5F5F5F5F5F5F5F5F5F5F5F5F5F5F5F5F5F5F5F5F5F5F5F5F5F5F5F5F5F5F5F5F5F5F5F5F5F5F5F5F5E2E2EFF5F5F5F5F5F5F5F5F5F5F5F5F5F5F5F5F5F5F5F5F5F5F5F5F5F5F5F5F5F5F5F5F5F5F5F5F5F5F5F5F5F5F5F5F5F5
310
F5F5F5F5F5F5F5F5F5F5F5F5F5F5F5F5F5F5F5F5F5F5F5F5F5F5F5F5F5F5F5F5F5F5F5F5F5F5F5F5F5F5F5F5F5F5F5F5F5F5F5F5F5F5F5F5F5F5F5F5F5F5F5F5F5F5F5F5F5F5F5F5F5F5F5F5F5F5F5F5F5F5F5F5F5F5F5F5F5F5F5F5F5F5F5F5F5F5F5F5F5F5F5F5F5F5F5F5F5F5F5F5F5F5F5F5F5F5F5F5F5F5F5F5F5F5F5
310
F5F5F5F5E2E2EFF5F5F5F5F5F5F5F5F5F5F5F5F5F5F5F5F5F5F5F5F5F5F5F5F5F5F5F5F5F5F5F5F5F5F5F5F5F5F5F5F5F5F5F5F5F5F5F5F5F5F5F5F5F5F5F5F5F5F5F5F5F5F5F5F5F5F5F5F5F5F5F5F5F5F5F5F5F5F5F5F5F5F5F5F5F5F5F5F5F5F5F5F5F5F5F5F5F5F5F5F5F5F5F5F5F5F5F5F5F5F5F5F5F5F5F5F5F5F5F5
310
F5F5F5F5F5F5F5F5F5F5F5F5F5F5F5F5F5F5F5F5F5F5F5F5F5F5F5F5F5F5F5F5F5F5F5F5F5F5F5F5F5F5F5F5F5F5F5F5F5F5F5F5F5F5F5F5F5E2E2EFF5F5F5F5F5F5F5F5F5F5F5F5F5F5F5F5F5F5F5F5E2E2E2E2E2E2E2E2E2E2E2E2E2E2E2E2E2E2E2E2E2E2E2E2E2E2E2E2E2E2E2E2E2E2E2E2E2E2E2E2E2E2E2E2E2E2E2
310
E2E2E2E2E2E2E2E2E2E2E2E2E2E2E2E2E2E2E2E2E2E2E2E2E2E2E2E2E2E2E2E2E2E2E2E2E2E2E2E2E2E2E2E2E2E2E2E2E2E2E2E2E2E2E2E2E2E2E2E2E2E2E2E2E2E2E2E2E2E2E2E2E2E2E2E2E2E2E2E2E2E2E2E2E2E2E2E2E2E2F5F5F5F5F5F5F5F5F5F5F5F5F5F5F5F5F5F5F5F5E2E2EFF5F5F5F5F5F5F5F5F5F5F5F5F5F5
310
F5F5F5F5F5F5E2F5F5F5F5F5F5F5F5F5F5F5F5F5F5F5F5F5F5F5F5F5F5F5F5F5F5F5F5F5F5F5F5F5F5F5F5F5F5F5F5F5F5F5F5F5F5F5F5F5F5F5F5F5F5F5F5F5F5F5F5F5F5F5F5F5F5F5F5F5F5F5F5F5F5F5F5F5F5F5F5F5F5F5F5F5F5F5F5F5F5F5F5F5F5F5F5F5F5F5F5F5F5F5F5F5F5F5F5F5F5F5F5F5F5F5F5F5F5F5F5
310
F5F5F5F5F5F5F5F5F5F5F5F5F5F5F5E2F5F5F5F5F5F5F5F5F5F5F5F5F5F5F5F5F5F5F5F5E2E2EFF5F5F5F5F5F5F5F5F5F5F5F5F5F5F5F5F5F5F5F5E2F5F5F5F5F5F5F5F5F5F5F5F5F5F5F5F5F5F5F5F5F5F5F5F5F5F5F5F5F5F5F5F5F5F5F5F5F5F5F5F5F5F5F5F5F5F5F5F5F5F5F5F5F5F5F5F5F5F5F5F5F5F5F5F5F5F5F5
310
F5F5F5F5F5F5F5F5F5F5F5F5F5F5F5F5F5F5F5F5F5F5F5F5F5F5F5F5F5F5F5F5F5F5F5F5F5F5F5F5F5F5F5F5F5F5F5F5F5F5F5F5F5F5F5F5F5F5F5F5F5F5F5F5F5F5F5F5E2F5F5F5F5F5F5F5F5F5F5F5F5F5F5F5F5F5F5F5F5E2E2EFF5F5F5F5F5F5F5F5F5F5F5F5F5F5F5F5F5F5F5F5E2F5F5F5F5F5F5F5F5F5F5F5F5F5F5
310
F5F5F5F5F5F5F5F5F5F5F5F5F5F5F5F5F5F5F5F5F5F5F5F5F5F5F5F5F5F5F5F5F5F5F5F5F5F5F5F5F5F5F5F5F5F5F5F5F5F5F5F5F5F5F5F5F5F5F5F5F5F5F5F5F5F5F5F5F5F5F5F5F5F5F5F5F5F5F5F5F5F5F5F5F5F5F5F5F5F5F5F5F5F5F5F5F5F5F5F5F5F5F5F5F5F5F5F5F5F5F5F5F5F5F5F5F5F5F5F5F5E2F5F5F5F5F5
310
F5F5F5F5F5F5F5F5F5F5F5F5F5F5F5E2E2EFF5F5F5F5F5F5F5F5F5F5F5F5F5F5F5F5F5F5F5F5E2F5F5F5F5F5F5F5F5F5F5F5F5F5F5F5F5F5F5F5F5F5F5F5F5F5F5F5F5F5F5F5F5F5F5F5F5F5F5F5F5F5F5F5F5F5F5F5F5F5F5F5F5F5F5F5F5F5F5F5F5F5F5F5F5F5F5F5F5F5F5F5F5F5F5F5F5F5F5F5F5F5F5F5F5F5F5F5F5
310
F5F5F5F5F5F5F5F5F5F5F5F5F5F5F5F5F5F5F5F5F5F5F5F5F5F5F5F5F5F5F5F5F5F5F5F5F5F5F5F5F5F5F5F5F5F5F5E2F5F5F5F5F5F5F5F5F5F5F5F5F5F5F5F5F5F5F5F5E2E2EFF5F5F5E2F5F5F5F5F5F5F5F5F5F5F5F5F5F5F5F5E2F5F5F5F5F5F5F5F5F5F5F5F5F5F5F5F5F5F5F5F5F5F5F5F5F5F5F5F5F5F5F5F5F5F5F5
310
F5F5F5F5F5F5F5F5F5F5F5F5F5F5F5F5F5F5F5F5F5F5F5F5F5F5F5F5F5F5F5F5F5F5F5F5F5F5F5F5F5F5F5F5F5F5F5F5F5F5F5F5F5F5F5F5F5F5F5F5F5F5F5F5F5F5F5F5F5F5F5F5F5F5F5F5F5F5F5F5F5F5F5F5F5F5F5F5F5F5F5F5F5F5F5F5F5F5F5F5E2F5F5F5F5F5F5F5F5F5F5F5F5F5F5F5F5E2F5F5F5E2E2EFF5F5F5
310
E2F5F5F5F5F5F5F5F5F5F5F5F5F5F5F5F5E2F5F5F5F5F5F5F5F5F5F5F5F5F5F5F5F5F5F5F5F5F5F5F5F5F5F5F5F5F5F5F5F5F5F5F5F5F5F5F5F5F5F5F5F5F5F5F5F5F5F5F5F5F5F5F5F5F5F5F5F5F5F5F5F5F5F5F5F5F5F5F5F5F5F5F5F5F5F5F5F5F5F5F5F5F5F5F5F5F5F5F5F5F5F5F5F5F5F5F5F5F5F5F5F5F5F5F5F5F5
310
F5F5F5F5F5F5F5F5F5F5F5F5F5F5F5F5F5F5F5F5F5F5F5F5F5F5E2F5F5F5F5F5F5F5F5F5F5F5F5F5F5F5F5E2F5F5F5E2E2EFF5F5F5E2F5F5F5F5F5F5F5F5F5F5F5F5F5F5F5F5E2F5F5F5F5F5F5F5F5F5F5F5F5F5F5F5F5F5F5F5F5F5F5F5F5F5F5F5F5F5F5F5F5F5F5F5F5F5F5F5F5F5F5F5F5F5F5F5F5F5F5F5F5F5F5F5F5
310
F5F5F5F5F5F5F5F5F5F5F5F5F5F5F5F5F5F5F5F5F5F5F5F5F5F5F5F5F5F5F5F5F5F5F5F5F5F5F5F5F5F5F5F5F5F5F5F5F5F5F5F5F5F5F5F5F5F5F5F5F5F5F5F5F5F5F5F5F5F5F5F5F5F5F5F5F5F5F5E2F5F5F5F5F5F5F5F5F5F5F5F5F5F5F5F5E2F5F5F5E2E2EFF5F5F5E2F5F5F5F5F5F5F5F5F5F5F5F5F5F5F5F5E2F5F5F5
310
F5F5F5F5F5F5F5F5F5F5F5F5F5F5F5F5F5F5F5F5F5F5F5F5F5F5F5F5F5F5F5F5F5F5F5F5F5F5F5F5F5F5F5F5F5F5F5F5F5F5F5F5F5F5F5F5F5F5F5F5F5F5F5F5F5F5F5F5F5F5F5F5F5F5F5F5F5F5F5F5F5F5F5F5F5F5F5F5F5F5F5F5F5F5F5F5F5F5F5F5F5F5F5F5F5F5F5F5F5F5F5F5F5F5F5F5F5F5F5F5F5F5F5F5F5F5F5
310
F5F5F5F5F5E2F5F5F5F5F5F5F5F5F5F5F5F5F5F5F5F5E2F5F5F5E2E2EFF5F5F5E2F5F5F5F5F5F5F5F5F5F5F5F5F5F5F5F5E2F5F5F5F5F5F5F5F5F5F5F5F5F5F5F5F5F5F5F5F5F5F5F5F5F5F5F5F5F5F5F5F5F5F5F5F5F5F5F5F5F5F5F5F5F5F5F5F5F5F5F5F5F5F5F5F5F5F5F5F5F5F5F5F5F5F5F5F5F5F5F5F5F5F5F5F5F5
310
F5F5F5F5F5F5F5F5F5F5F5F5F5F5F5F5F5F5F5F5F5F5F5F5F5F5F5F5F5F5F5F5F5F5F5F5F5F5F5F5F5F5F5F5F5F5F5F5F5F5F5F5F5F5F5F5F5F5E2F5F5F5F5F5F5F5F5F5F5F5F5F5F5F5F5E2F5F5F5E2E2EFF5F5F5E2F5F5F5F5F5F5F5F5F5F5F5F5F5F5F5F5E2F5F5F5F5F5F5F5F5F5F5F5F5F5F5F5F5F5F5F5F5F5F5F5F5
310
F5F5F5F5F5F5F5F5F5F5F5F5F5F5F5F5F5F5F5F5F5F5F5F5F5F5F5F5F5F5F5F5F5F5F5F5F5F5F5F5F5F5F5F5F5F5F5F5F5F5F5F5F5F5F5F5F5F5F5F5F5F5F5F5F5F5F5F5F5F5F5F5F5F5F5F5F5F5F5F5F5F5F5F5F5F5F5F5F5F5F5F5F5F5F5F5F5F5F5F5F5F5F5F5F5F5F5F5F5F5F5E2F5F5F5F5F5F5F5F5F5F5F5F5F5F5F5
310
F5E2F5F5F5E2E2EFF5F5F5E2F5F5F5F5F5F5F5F5F5F5F5F5F5F5F5F5E2F5F5F5F5F5F5F5F5F5F5F5F5F5F5F5F5F5F5F5F5F5F5F5F5F5F5F5F5F5F5F5F5F5F5F5F5F5F5F5F5F5F5F5F5F5F5F5F5F5F5F5F5F5F5F5F5F5F5F5F5F5F5F5F5F5F5F5F5F5F5F5F5F5F5F5F5F5F5F5F5F5F5F5F5F5F5F5F5F5F5F5F5F5F5F5F5F5F5
310
F5F5F5F5F5F5F5F5F5F5F5F5F5F5F5F5F5F5F5F5F5F5F5F5F5F5F5F5F5F5F5F5F5F5F5F5F5E2F5F5F5F5F5F5F5F5F5F5F5F5F5F5F5F5E2F5F5F5E2E2EFF5F5F5E2F5F5F5F5F5F5F5F5F5F5F5F5F5F5F5F5E2F5F5F5F5F5F5F5F5F5F5F5F5F5F5F5F5F5F5F5F5F5F5F5F5F5F5F5F5F5F5F5F5F5F5F5F5F5F5F5F5F5F5F5F5F5
310
F5F5F5F5F5F5F5F5F5F5F5F5F5F5F5F5F5F5F5F5F5F5F5F5F5F5F5F5F5F5F5F5F5F5F5F5F5F5F5F5F5F5F5F5F5F5F5F5F5F5F5F5F5F5F5F5F5F5F5F5F5F5F5F5F5F5F5F5F5F5F5F5F5F5F5F5F5F5F5F5F5F5F5F5F5F5F5F5F5F5E2F5F5F5F5F5F5F5F5F5F5F5F5F5F5F5F5E2F5F5F5E2E2EFF5F5F5E2F5F5F5F5F5F5F5F5F5
310
F5F5F5F5F5F5F5E2F5F5F5F5F5F5F5F5F5F5F5F5F5F5F5F5F5F5F5F5F5F5F5F5F5F5F5F5F5F5F5F5F5F5F5F5F5F5F5F5F5F5F5F5F5F5F5F5F5F5F5F5F5F5F5F5F5F5F5F5F5F5F5F5F5F5F5F5F5F5F5F5F5F5F5F5F5F5F5F5F5F5F5F5F5F5F5F5F5F5F5F5F5F5F5F5F5F5F5F5F5F5F5F5F5F5F5F5F5F5F5F5F5F5F5F5F5F5F5
310
F5F5F5F5F5F5F5F5F5F5F5F5F5F5F5F5E2F5F5F5F5F5F5F5F5F5F5F5F5F5F5F5F5E2F5F5F5E2E2EFF5F5F5E2F5F5F5F5F5F5F5F5F5F5F5F5F5F5F5F5E2F5F5F5F5F5F5F5F5F5F5F5F5F5F5F5F5F5F5F5F5F5F5F5F5F5F5F5F5F5F5F5F5F5F5F5F5F5F5F5F5F5F5F5F5F5F5F5F5F5F5F5F5F5F5F5F5F5F5F5F5F5F5F5F5F5F5
310
F5F5F5F5F5F5F5F5F5F5F5F5F5F5F5F5F5F5F5F5F5F5F5F5F5F5F5F5F5F5F5F5F5F5F5F5F5F5F5F5F5F5F5F5F5F5F5F5F5F5F5F5F5F5F5F5F5F5F5F5F5F5F5F5F5F5F5F5F5E2F5F5F5F5F5F5F5F5F5F5F5F5F5F5F5F5E2F5F5F5E2E2EFF5F5F5E2F5F5F5F5F5F5F5F5F5F5F5F5F5F5F5F5E2F5F5F5F5F5F5F5F5F5F5F5F5F5
310
F5F5F5F5F5F5F5F5F5F5F5F5F5F5F5F5F5F5F5F5F5F5F5F5F5F5F5F5F5F5F5F5F5F5F5F5F5F5F5F5F5F5F5F5F5F5F5F5F5F5F5F5F5F5F5F5F5F5F5F5F5F5F5F5F5F5F5F5F5F5F5F5F5F5F5F5F5F5F5F5F5F5F5F5F5F5F5F5F5F5F5F5F5F5F5F5F5F5F5F5F5F5F5F5F5F5F5F5F5F5F5F5F5F5F5F5F5F5F5F5F5F5E2F5F5F5F5
310
F5F5F5F5F5F5F5F5F5F5F5F5E2F5F5F5E2E2EFF5F5F5E2F5F5F5F5F5F5F5F5F5F5F5F5F5F5F5F5E2F5F5F5F5F5F5F5F5F5F5F5F5F5F5F5F5F5F5F5F5F5F5F5F5F5F5F5F5F5F5F5F5F5F5F5F5F5F5F5F5F5F5F5F5F5F5F5F5F5F5F5F5F5F5F5F5F5F5F5F5F5F5F5F5F5F5F5F5F5F5F5F5F5F5F5F5F5F5F5F5F5F5F5F5F5F5F5
310
F5F5F5F5F5F5F5F5F5F5F5F5F5F5F5F5F5F5F5F5F5F5F5F5F5F5F5F5F5F5F5F5F5F5F5F5F5F5F5F5F5F5F5F5F5F5F5F5E2F5F5F5F5F5F5F5F5F5F5F5F5F5F5F5F5E2F5F5F5E2E2EFF5F5F5E2F5F5F5F5F5F5F5F5F5F5F5F5F5F5F5F5E2F5F5F5F5F5F5F5F5F5F5F5F5F5F5F5F5F5F5F5F5F5F5F5F5F5F5F5F5F5F5F5F5F5F5
310
F5F5F5F5F5F5F5F5F5F5F5F5F5F5F5F5F5F5F5F5F5F5F5F5F5F5F5F5F5F5F5F5F5F5F5F5F5F5F5F5F5F5F5F5F5F5F5F5F5F5F5F5F5F5F5F5F5F5F5F5F5F5F5F5F5F5F5F5F5F5F5F5F5F5F5F5F5F5F5F5F5F5F5F5F5F5F5F5F5F5F5F5F5F5F5F5F5F5F5F5F5E2F5F5F5F5F5F5F5F5F5F5F5F5F5F5F5F5E2F5F5F5E2E2EFF5F5
310
F5E2F5F5F5F5F5F5F5F5F5F5F5F5F5F5F5F5E2F5F5F5F5F5F5F5F5F5F5F5F5F5F5F5F5F5F5F5F5F5F5F5F5F5F5F5F5F5F5F5F5F5F5F5F5F5F5F5F5F5F5F5F5F5F5F5F5F5F5F5F5F5F5F5F5F5F5F5F5F5F5F5F5F5F5F5F5F5F5F5F5F5F5F5F5F5F5F5F5F5F5F5F5F5F5F5F5F5F5F5F5F5F5F5F5F5F5F5F5F5F5F5F5F5F5F5F5
310
F5F5F5F5F5F5F5F5F5F5F5F5F5F5F5F5F5F5F5F5F5F5F5F5F5F5F5E2F5F5F5F5F5F5F5F5F5F5F5F5F5F5F5F5E2F5F5F5E2E2EFF5F5F5E2F5F5F5F5F5F5F5F5F5F5F5F5F5F5F5F5E2F5F5F5F5F5F5F5F5F5F5F5F5F5F5F5F5F5F5F5F5F5F5F5F5F5F5F5F5F5F5F5F5F5F5F5F5F5F5F5F5F5F5F5F5F5F5F5F5F5F5F5F5F5F5F5
310
F5F5F5F5F5F5F5F5F5F5F5F5F5F5F5F5F5F5F5F5F5F5F5F5F5F5F5F5F5F5F5F5F5F5F5F5F5F5F5F5F5F5F5F5F5F5F5F5F5F5F5F5F5F5F5F5F5F5F5F5F5F5F5F5F5F5F5F5F5F5F5F5F5F5F5F5F5F5F5F5E2F5F5F5F5F5F5F5F5F5F5F5F5F5F5F5F5E2F5F5F5E2E2EFF5F5F5E2F5F5F5F5F5F5F5F5F5F5F5F5F5F5F5F5E2F5F5
310
F5F5F5F5F5F5F5F5F5F5F5F5F5F5F5F5F5F5F5F5F5F5F5F5F5F5F5F5F5F5F5F5F5F5F5F5F5F5F5F5F5F5F5F5F5F5F5F5F5F5F5F5F5F5F5F5F5F5F5F5F5F5F5F5F5F5F5F5F5F5F5F5F5F5F5F5F5F5F5F5F5F5F5F5F5F5F5F5F5F5F5F5F5F5F5F5F5F5F5F5F5F5F5F5F5F5F5F5F5F5F5F5F5F5F5F5F5F5F5F5F5F5F5F5F5F5F5
310
F5F5F5F5F5F5E2F5F5F5F5F5F5F5F5F5F5F5F5F5F5F5F5E2F5F5F5E2E2EFF5F5F5E2F5F5F5F5F5F5F5F5F5F5F5F5F5F5F5F5E2F5F5F5F5F5F5F5F5F5F5F5F5F5F5F5F5F5F5F5F5F5F5F5F5F5F5F5F5F5F5F5F5F5F5F5F5F5F5F5F5F5F5F5F5F5F5F5F5F5F5F5F5F5F5F5F5F5F5F5F5F5F5F5F5F5F5F5F5F5F5F5F5F5F5F5F5
310
F5F5F5F5F5F5F5F5F5F5F5F5F5F5F5F5F5F5F5F5F5F5F5F5F5F5F5F5F5F5F5F5F5F5F5F5F5F5F5F5F5F5F5F5F5F5F5F5F5F5F5F5F5F5F5F5F5F5F5E2F5F5F5F5F5F5F5F5F5F5F5F5F5F5F5F5E2F5F5F5E2E2EFF5F5F5F5F5F5F5F5F5F5F5F5F5F5F5F5F5F5F5F5E2F5F5F5F5F5F5F5F5F5F5F5F5F5F5F5F5F5F5F5F5F5F5F5
310
F5F5F5F5F5F5F5F5F5F5F5F5F5F5F5F5F5F5F5F5F5F5F5F5F5F5F5F5F5F5F5F5F5F5F5F5F5F5F5F5F5F5F5F5F5F5F5F5F5F5F5F5F5F5F5F5F5F5F5F5F5F5F5F5F5F5F5F5F5F5F5F5F5F5F5F5F5F5F5F5F5F5F5F5F5F5F5F5F5F5F5F5F5F5F5F5F5F5F5F5F5F5F5F5F5F5F5F5F5F5F5F5E2F5F5F5F5F5F5F5F5F5F5F5F5F5F5
310
F5F5F5F5F5F5E2E2EFF5F5F5F5F5F5F5F5F5F5F5F5F5F5F5F5F5F5F5F5E2F5F5F5F5F5F5F5F5F5F5F5F5F5F5F5F5F5F5F5F5F5F5F5F5F5F5F5F5F5F5F5F5F5F5F5F5F5F5F5F5F5F5F5F5F5F5F5F5F5F5F5F5F5F5F5F5F5F5F5F5F5F5F5F5F5F5F5F5F5F5F5F5F5F5F5F5F5F5F5F5F5F5F5F5F5F5F5F5F5F5F5F5F5F5F5F5F5
310
F5F5F5F5F5F5F5F5F5F5F5F5F5F5F5F5F5F5F5F5F5F5F5F5F5F5F5F5F5F5F5F5F5F5F5F5F5F5E2F5F5F5F5F5F5F5F5F5F5F5F5F5F5F5F5F5F5F5F5E2E2EFF5F5F5F5F5F5F5F5F5F5F5F5F5F5F5F5F5F5F5F5E2F5F5F5F5F5F5F5F5F5F5F5F5F5F5F5F5F5F5F5F5F5F5F5F5F5F5F5F5F5F5F5F5F5F5F5F5F5F5F5F5F5F5F5F5
310
F5F5F5F5F5F5F5F5F5F5F5F5F5F5F5F5F5F5F5F5F5F5F5F5F5F5F5F5F5F5F5F5F5F5F5F5F5F5F5F5F5F5F5F5F5F5F5F5F5F5F5F5F5F5F5F5F5F5F5F5F5F5F5F5F5F5F5F5F5F5F5F5F5F5F5F5F5F5F5F5F5F5F5F5F5F5F5F5F5F5F5E2F5F5F5F5F5F5F5F5F5F5F5F5F5F5F5F5F5F5F5F5E2E2EFF5F5F5F5F5F5F5F5F5F5F5F5
310
F5F5F5F5F5F5F5F5E2F5F5F5F5F5F5F5F5F5F5F5F5F5F5F5F5F5F5F5F5F5F5F5F5F5F5F5F5F5F5F5F5F5F5F5F5F5F5F5F5F5F5F5F5F5F5F5F5F5F5F5F5F5F5F5F5F5F5F5F5F5F5F5F5F5F5F5F5F5F5F5F5F5F5F5F5F5F5F5F5F5F5F5F5F5F5F5F5F5F5F5F5F5F5F5F5F5F5F5F5F5F5F5F5F5F5F5F5F5F5F5F5F5F5F5F5F5F5
310
F5F5F5F5F5F5F5F5F5F5F5F5F5F5F5F5F5E2F5F5F5F5F5F5F5F5F5F5F5F5F5F5F5F5F5F5F5F5E2E2EFF5F5F5F5F5F5F5F5F5F5F5F5F5F5F5F5F5F5F5F5E2F5F5F5F5F5F5F5F5F5F5F5F5F5F5F5F5F5F5F5F5F5F5F5F5F5F5F5F5F5F5F5F5F5F5F5F5F5F5F5F5F5F5F5F5F5F5F5F5F5F5F5F5F5F5F5F5F5F5F5F5F5F5F5F5F5
310
F5F5F5F5F5F5F5F5F5F5F5F5F5F5F5F5F5F5F5F5F5F5F5F5F5F5F5F5F5F5F5F5F5F5F5F5F5F5F5F5F5F5F5F5F5F5F5F5F5F5F5F5F5F5F5F5F5F5F5F5F5F5F5F5F5F5F5F5F5F5E2F5F5F5F5F5F5F5F5F5F5F5F5F5F5F5F5F5F5F5F5E2E2EFF5F5F5F5F5F5F5F5F5F5F5F5F5F5F5F5F5F5F5F5E2F5F5F5F5F5F5F5F5F5F5F5F5
310
F5F5F5F5F5F5F5F5F5F5F5F5F5F5F5F5F5F5F5F5F5F5F5F5F5F5F5F5F5F5F5F5F5F5F5F5F5F5F5F5F5F5F5F5F5F5F5F5F5F5F5F5F5F5F5F5F5F5F5F5F5F5F5F5F5F5F5F5F5F5F5F5F5F5F5F5F5F5F5F5F5F5F5F5F5F5F5F5F5F5F5F5F5F5F5F5F5F5F5F5F5F5F5F5F5F5F5F5F5F5F5F5F5F5F5F5F5F5F5F5F5F5F5E2F5F5F5
310
F5F5F5F5F5F5F5F5F5F5F5F5F5F5F5F5F5E2E2EFF5F5F5F5F5F5F5F5F5F5F5F5F5F5F5F5F5F5F5F5E2F5F5F5F5F5F5F5F5F5F5F5F5F5F5F5F5F5F5F5F5F5F5F5F5F5F5F5F5F5F5F5F5F5F5F5F5F5F5F5F5F5F5F5F5F5F5F5F5F5F5F5F5F5F5F5F5F5F5F5F5F5F5F5F5F5F5F5F5F5F5F5F5F5F5F5F5F5F5F5F5F5F5F5F5F5F5
310
F5F5F5F5F5F5F5F5F5F5F5F5F5F5F5F5F5F5F5F5F5F5F5F5F5F5F5F5F5F5F5F5F5F5F5F5F5F5F5F5F5F5F5F5F5F5F5F5F5E2F5F5F5F5F5F5F5F5F5F5F5F5F5F5F5F5F5F5F5F5E2E2EFF5F5F5F5F5F5F5F5F5F5F5F5F5F5F5F5F5F5F5F5E2F5F5F5F5F5F5F5F5F5F5F5F5F5F5F5F5F5F5F5F5F5F5F5F5F5F5F5F5F5F5F5F5F5
310
F5F5F5F5F5F5F5F5F5F5F5F5F5F5F5F5F5F5F5F5F5F5F5F5F5F5F5F5F5F5F5F5F5F5F5F5F5F5F5F5F5F5F5F5F5F5F5F5F5F5F5F5F5F5F5F5F5F5F5F5F5F5F5F5F5F5F5F5F5F5F5F5F5F5F5F5F5F5F5F5F5F5F5F5F5F5F5F5F5F5F5F5F5F5F5F5F5F5F5F5F5F5E2F5F5F5F5F5F5F5F5F5F5F5F5F5F5F5F5F5F5F5F5E2E2EFF5
310
F5F5F5F5F5F5F5F5F5F5F5F5F5F5F5F5F5F5F5E2F5F5F5F5F5F5F5F5F5F5F5F5F5F5F5F5F5F5F5F5F5F5F5F5F5F5F5F5F5F5F5F5F5F5F5F5F5F5F5F5F5F5F5F5F5F5F5F5F5F5F5F5F5F5F5F5F5F5F5F5F5F5F5F5F5F5F5F5F5F5F5F5F5F5F5F5F5F5F5F5F5F5F5F5F5F5F5F5F5F5F5F5F5F5F5F5F5F5F5F5F5F5F5F5F5F5F5
310
F5F5F5F5F5F5F5F5F5F5F5F5F5F5F5F5F5F5F5F5F5F5F5F5F5F5F5F5E2F5F5F5F5F5F5F5F5F5F5F5F5F5F5F5F5F5F5F5F5E2E2EFF5F5F5E2F5F5F5F5F5F5F5F5F5F5F5F5F5F5F5F5E2F5F5F5F5F5F5F5F5F5F5F5F5F5F5F5F5F5F5F5F5F5F5F5F5F5F5F5F5F5F5F5F5F5F5F5F5F5F5F5F5F5F5F5F5F5F5F5F5F5F5F5F5F5F5
310
F5F5F5F5F5F5F5F5F5F5F5F5F5F5F5F5F5F5F5F5F5F5F5F5F5F5F5F5F5F5F5F5F5F5F5F5F5F5F5F5F5F5F5F5F5F5F5F5F5F5F5F5F5F5F5F5F5F5F5F5F5F5F5F5F5F5F5F5F5F5F5F5F5F5F5F5F5F5F5F5F5E2F5F5F5F5F5F5F5F5F5F5F5F5F5F5F5F5E2F5F5F5E2E2EFF5F5F5E2F5F5F5F5F5F5F5F5F5F5F5F5F5F5F5F5E2F5
310
F5F5F5F5F5F5F5F5F5F5F5F5F5F5F5F5F5F5F5F5F5F5F5F5F5F5F5F5F5F5F5F5F5F5F5F5F5F5F5F5F5F5F5F5F5F5F5F5F5F5F5F5F5F5F5F5F5F5F5F5F5F5F5F5F5F5F5F5F5F5F5F5F5F5F5F5F5F5F5F5F5F5F5F5F5F5F5F5F5F5F5F5F5F5F5F5F5F5F5F5F5F5F5F5F5F5F5F5F5F5F5F5F5F5F5F5F5F5F5F5F5F5F5F5F5F5F5
310
F5F5F5F5F5F5F5E2F5F5F5F5F5F5F5F5F5F5F5F5F5F5F5F5E2F5F5F5E2E2EFF5F5F5E2F5F5F5F5F5F5F5F5F5F5F5F5F5F5F5F5E2F5F5F5F5F5F5F5F5F5F5F5F5F5F5F5F5F5F5F5F5F5F5F5F5F5F5F5F5F5F5F5F5F5F5F5F5F5F5F5F5F5F5F5F5F5F5F5F5F5F5F5F5F5F5F5F5F5F5F5F5F5F5F5F5F5F5F5F5F5F5F5F5F5F5F5
310
F5F5F5F5F5F5F5F5F5F5F5F5F5F5F5F5F5F5F5F5F5F5F5F5F5F5F5F5F5F5F5F5F5F5F5F5F5F5F5F5F5F5F5F5F5F5F5F5F5F5F5F5F5F5F5F5F5F5F5F5E2F5F5F5F5F5F5F5F5F5F5F5F5F5F5F5F5E2F5F5F5E2E2EFF5F5F5E2F5F5F5F5F5F5F5F5F5F5F5F5F5F5F5F5E2F5F5F5F5F5F5F5F5F5F5F5F5F5F5F5F5F5F5F5F5F5F5
310
F5F5F5F5F5F5F5F5F5F5F5F5F5F5F5F5F5F5F5F5F5F5F5F5F5F5F5F5F5F5F5F5F5F5F5F5F5F5F5F5F5F5F5F5F5F5F5F5F5F5F5F5F5F5F5F5F5F5F5F5F5F5F5F5F5F5F5F5F5F5F5F5F5F5F5F5F5F5F5F5F5F5F5F5F5F5F5F5F5F5F5F5F5F5F5F5F5F5F5F5F5F5F5F5F5F5F5F5F5F5F5F5F5E2F5F5F5F5F5F5F5F5F5F5F5F5F5
310
F5F5F5E2F5F5F5E2E2EFF5F5F5E2F5F5F5F5F5F5F5F5F5F5F5F5F5F5F5F5E2F5F5F5F5F5F5F5F5F5F5F5F5F5F5F5F5F5F5F5F5F5F5F5F5F5F5F5F5F5F5F5F5F5F5F5F5F5F5F5F5F5F5F5F5F5F5F5F5F5F5F5F5F5F5F5F5F5F5F5F5F5F5F5F5F5F5F5F5F5F5F5F5F5F5F5F5F5F5F5F5F5F5F5F5F5F5F5F5F5F5F5F5F5F5F5F5
310
F5F5F5F5F5F5F5F5F5F5F5F5F5F5F5F5F5F5F5F5F5F5F5F5F5F5F5F5F5F5F5F5F5F5F5F5F5F5F5E2F5F5F5F5F5F5F5F5F5F5F5F5F5F5F5F5E2F5F5F5E2E2EFF5F5F5E2F5F5F5F5F5F5F5F5F5F5F5F5F5F5F5F5E2F5F5F5F5F5F5F5F5F5F5F5F5F5F5F5F5F5F5F5F5F5F5F5F5F5F5F5F5F5F5F5F5F5F5F5F5F5F5F5F5F5F5F5
310
F5F5F5F5F5F5F5F5F5F5F5F5F5F5F5F5F5F5F5F5F5F5F5F5F5F5F5F5F5F5F5F5F5F5F5F5F5F5F5F5F5F5F5F5F5F5F5F5F5F5F5F5F5F5F5F5F5F5F5F5F5F5F5F5F5F5F5F5F5F5F5F5F5F5F5F5F5F5F5F5F5F5F5F5F5F5F5F5F5F5F5F5E2F5F5F5F5F5F5F5F5F5F5F5F5F5F5F5F5E2F5F5F5E2E2EFF5F5F5E2F5F5F5F5F5F5F5
310
F5F5F5F5F5F5F5F5F5E2F5F5F5F5F5F5F5F5F5F5F5F5F5F5F5F5F5F5F5F5F5F5F5F5F5F5F5F5F5F5F5F5F5F5F5F5F5F5F5F5F5F5F5F5F5F5F5F5F5F5F5F5F5F5F5F5F5F5F5F5F5F5F5F5F5F5F5F5F5F5F5F5F5F5F5F5F5F5F5F5F5F5F5F5F5F5F5F5F5F5F5F5F5F5F5F5F5F5F5F5F5F5F5F5F5F5F5F5F5F5F5F5F5F5F5F5F5
310
F5F5F5F5F5F5F5F5F5F5F5F5F5F5F5F5F5F5E2F5F5F5F5F5F5F5F5F5F5F5F5F5F5F5F5E2F5F5F5E2E2EFF5F5F5E2F5F5F5F5F5F5F5F5F5F5F5F5F5F5F5F5E2F5F5F5F5F5F5F5F5F5F5F5F5F5F5F5F5F5F5F5F5F5F5F5F5F5F5F5F5F5F5F5F5F5F5F5F5F5F5F5F5F5F5F5F5F5F5F5F5F5F5F5F5F5F5F5F5F5F5F5F5F5F5F5F5
310
F5F5F5F5F5F5F5F5F5F5F5F5F5F5F5F5F5F5F5F5F5F5F5F5F5F5F5F5F5F5F5F5F5F5F5F5F5F5F5F5F5F5F5F5F5F5F5F5F5F5F5F5F5F5F5F5F5F5F5F5F5F5F5F5F5F5F5F5F5F5F5E2F5F5F5F5F5F5F5F5F5F5F5F5F5F5F5F5E2F5F5F5E2E2EFF5F5F5E2F5F5F5F5F5F5F5F5F5F5F5F5F5F5F5F5E2F5F5F5F5F5F5F5F5F5F5F5
310
F5F5F5F5F5F5F5F5F5F5F5F5F5F5F5F5F5F5F5F5F5F5F5F5F5F5F5F5F5F5F5F5F5F5F5F5F5F5F5F5F5F5F5F5F5F5F5F5F5F5F5F5F5F5F5F5F5F5F5F5F5F5F5F5F5F5F5F5F5F5F5F5F5F5F5F5F5F5F5F5F5F5F5F5F5F5F5F5F5F5F5F5F5F5F5F5F5F5F5F5F5F5F5F5F5F5F5F5F5F5F5F5F5F5F5F5F5F5F5F5F5F5F5F5E2F5F5
310
F5F5F5F5F5F5F5F5F5F5F5F5F5F5E2F5F5F5E2E2EFF5F5F5E2F5F5F5F5F5F5F5F5F5F5F5F5F5F5F5F5E2F5F5F5F5F5F5F5F5F5F5F5F5F5F5F5F5F5F5F5F5F5F5F5F5F5F5F5F5F5F5F5F5F5F5F5F5F5F5F5F5F5F5F5F5F5F5F5F5F5F5F5F5F5F5F5F5F5F5F5F5F5F5F5F5F5F5F5F5F5F5F5F5F5F5F5F5F5F5F5F5F5F5F5F5F5
310
F5F5F5F5F5F5F5F5F5F5F5F5F5F5F5F5F5F5F5F5F5F5F5F5F5F5F5F5F5F5F5F5F5F5F5F5F5F5F5F5F5F5F5F5F5F5F5F5F5F5E2F5F5F5F5F5F5F5F5F5F5F5F5F5F5F5F5E2F5F5F5E2E2EFF5F5F5E2F5F5F5F5F5F5F5F5F5F5F5F5F5F5F5F5E2F5F5F5F5F5F5F5F5F5F5F5F5F5F5F5F5F5F5F5F5F5F5F5F5F5F5F5F5F5F5F5F5
310
F5F5F5F5F5F5F5F5F5F5F5F5F5F5F5F5F5F5F5F5F5F5F5F5F5F5F5F5F5F5F5F5F5F5F5F5F5F5F5F5F5F5F5F5F5F5F5F5F5F5F5F5F5F5F5F5F5F5F5F5F5F5F5F5F5F5F5F5F5F5F5F5F5F5F5F5F5F5F5F5F5F5F5F5F5F5F5F5F5F5F5F5F5F5F5F5F5F5F5F5F5F5F5E2F5F5F5F5F5F5F5F5F5F5F5F5F5F5F5F5E2F5F5F5E2E2EF
310
F5F5F5E2F5F5F5F5F5F5F5F5F5F5F5F5F5F5F5F5E2F5F5F5F5F5F5F5F5F5F5F5F5F5F5F5F5F5F5F5F5F5F5F5F5F5F5F5F5F5F5F5F5F5F5F5F5F5F5F5F5F5F5F5F5F5F5F5F5F5F5F5F5F5F5F5F5F5F5F5F5F5F5F5F5F5F5F5F5F5F5F5F5F5F5F5F5F5F5F5F5F5F5F5F5F5F5F5F5F5F5F5F5F5F5F5F5F5F5F5F5F5F5F5F5F5F5
310
F5F5F5F5F5F5F5F5F5F5F5F5F5F5F5F5F5F5F5F5F5F5F5F5F5F5F5F5F5E2F5F5F5F5F5F5F5F5F5F5F5F5F5F5F5F5E2F5F5F5E2E2EFF5F5F5E2F5F5F5F5F5F5F5F5F5F5F5F5F5F5F5F5E2F5F5F5F5F5F5F5F5F5F5F5F5F5F5F5F5F5F5F5F5F5F5F5F5F5F5F5F5F5F5F5F5F5F5F5F5F5F5F5F5F5F5F5F5F5F5F5F5F5F5F5F5F5
310
F5F5F5F5F5F5F5F5F5F5F5F5F5F5F5F5F5F5F5F5F5F5F5F5F5F5F5F5F5F5F5F5F5F5F5F5F5F5F5F5F5F5F5F5F5F5F5F5F5F5F5F5F5F5F5F5F5F5F5F5F5F5F5F5F5F5F5F5F5F5F5F5F5F5F5F5F5F5F5F5F5F5E2F5F5F5F5F5F5F5F5F5F5F5F5F5F5F5F5E2F5F5F5E2E2EFF5F5F5E2F5F5F5F5F5F5F5F5F5F5F5F5F5F5F5F5E2
310
F5F5F5F5F5F5F5F5F5F5F5F5F5F5F5F5F5F5F5F5F5F5F5F5F5F5F5F5F5F5F5F5F5F5F5F5F5F5F5F5F5F5F5F5F5F5F5F5F5F5F5F5F5F5F5F5F5F5F5F5F5F5F5F5F5F5F5F5F5F5F5F5F5F5F5F5F5F5F5F5F5F5F5F5F5F5F5F5F5F5F5F5F5F5F5F5F5F5F5F5F5F5F5F5F5F5F5F5F5F5F5F5F5F5F5F5F5F5F5F5F5F5F5F5F5F5F5
310
F5F5F5F5F5F5F5F5E2F5F5F5F5F5F5F5F5F5F5F5F5F5F5F5F5E2F5F5F5E2E2EFF5F5F5E2F5F5F5F5F5F5F5F5F5F5F5F5F5F5F5F5E2F5F5F5F5F5F5F5F5F5F5F5F5F5F5F5F5F5F5F5F5F5F5F5F5F5F5F5F5F5F5F5F5F5F5F5F5F5F5F5F5F5F5F5F5F5F5F5F5F5F5F5F5F5F5F5F5F5F5F5F5F5F5F5F5F5F5F5F5F5F5F5F5F5F5
310
F5F5F5F5F5F5F5F5F5F5F5F5F5F5F5F5F5F5F5F5F5F5F5F5F5F5F5F5F5F5F5F5F5F5F5F5F5F5F5F5F5F5F5F5F5F5F5F5F5F5F5F5F5F5F5F5F5F5F5F5F5E2F5F5F5F5F5F5F5F5F5F5F5F5F5F5F5F5E2F5F5F5E2E2EFF5F5F5E2F5F5F5F5F5F5F5F5F5F5F5F5F5F5F5F5E2F5F5F5F5F5F5F5F5F5F5F5F5F5F5F5F5F5F5F5F5F5
310
F5F5F5F5F5F5F5F5F5F5F5F5F5F5F5F5F5F5F5F5F5F5F5F5F5F5F5F5F5F5F5F5F5F5F5F5F5F5F5F5F5F5F5F5F5F5F5F5F5F5F5F5F5F5F5F5F5F5F5F5F5F5F5F5F5F5F5F5F5F5F5F5F5F5F5F5F5F5F5F5F5F5F5F5F5F5F5F5F5F5F5F5F5F5F5F5F5F5F5F5F5F5F5F5F5F5F5F5F5F5F5F5F5F5E2F5F5F5F5F5F5F5F5F5F5F5F5
310
F5F5F5F5E2F5F5F5E2E2EFF5F5F5E2F5F5F5F5F5F5F5F5F5F5F5F5F5F5F5F5E2F5F5F5F5F5F5F5F5F5F5F5F5F5F5F5F5F5F5F5F5F5F5F5F5F5F5F5F5F5F5F5F5F5F5F5F5F5F5F5F5F5F5F5F5F5F5F5F5F5F5F5F5F5F5F5F5F5F5F5F5F5F5F5F5F5F5F5F5F5F5F5F5F5F5F5F5F5F5F5F5F5F5F5F5F5F5F5F5F5F5F5F5F5F5F5
310
F5F5F5F5F5F5F5F5F5F5F5F5F5F5F5F5F5F5F5F5F5F5F5F5F5F5F5F5F5F5F5F5F5F5F5F5F5F5F5F5E2F5F5F5F5F5F5F5F5F5F5F5F5F5F5F5F5E2F5F5F5E2E2EFF5F5F5F5F5F5F5F5F5F5F5F5F5F5F5F5F5F5F5F5E2F5F5F5F5F5F5F5F5F5F5F5F5F5F5F5F5F5F5F5F5F5F5F5F5F5F5F5F5F5F5F5F5F5F5F5F5F5F5F5F5F5F5
310
F5F5F5F5F5F5F5F5F5F5F5F5F5F5F5F5F5F5F5F5F5F5F5F5F5F5F5F5F5F5F5F5F5F5F5F5F5F5F5F5F5F5F5F5F5F5F5F5F5F5F5F5F5F5F5F5F5F5F5F5F5F5F5F5F5F5F5F5F5F5F5F5F5F5F5F5F5F5F5F5F5F5F5F5F5F5F5F5F5F5F5F5F5E2F5F5F5F5F5F5F5F5F5F5F5F5F5F5F5F5F5F5F5F5E2E2EFF5F5F5F5F5F5F5F5F5F5
310
F5F5F5F5F5F5F5F5F5F5E2F5F5F5F5F5F5F5F5F5F5F5F5F5F5F5F5F5F5F5F5F5F5F5F5F5F5F5F5F5F5F5F5F5F5F5F5F5F5F5F5F5F5F5F5F5F5F5F5F5F5F5F5F5F5F5F5F5F5F5F5F5F5F5F5F5F5F5F5F5F5F5F5F5F5F5F5F5F5F5F5F5F5F5F5F5F5F5F5F5F5F5F5F5F5F5F5F5F5F5F5F5F5F5F5F5F5F5F5F5F5F5F5F5F5F5F5
310
F5F5F5F5F5F5F5F5F5F5F5F5F5F5F5F5F5F5F5E2F5F5F5F5F5F5F5F5F5F5F5F5F5F5F5F5F5F5F5F5E2E2EFF5F5F5F5F5F5F5F5F5F5F5F5F5F5F5F5F5F5F5F5E2F5F5F5F5F5F5F5F5F5F5F5F5F5F5F5F5F5F5F5F5F5F5F5F5F5F5F5F5F5F5F5F5F5F5F5F5F5F5F5F5F5F5F5F5F5F5F5F5F5F5F5F5F5F5F5F5F5F5F5F5F5F5F5
310
F5F5F5F5F5F5F5F5F5F5F5F5F5F5F5F5F5F5F5F5F5F5F5F5F5F5F5F5F5F5F5F5F5F5F5F5F5F5F5F5F5F5F5F5F5F5F5F5F5F5F5F5F5F5F5F5F5F5F5F5F5F5F5F5F5F5F5F5F5F5F5F5E2F5F5F5F5F5F5F5F5F5F5F5F5F5F5F5F5F5F5F5F5E2E2EFF5F5F5F5F5F5F5F5F5F5F5F5F5F5F5F5F5F5F5F5E2F5F5F5F5F5F5F5F5F5F5
310
F5F5F5F5F5F5F5F5F5F5F5F5F5F5F5F5F5F5F5F5F5F5F5F5F5F5F5F5F5F5F5F5F5F5F5F5F5F5F5F5F5F5F5F5F5F5F5F5F5F5F5F5F5F5F5F5F5F5F5F5F5F5F5F5F5F5F5F5F5F5F5F5F5F5F5F5F5F5F5F5F5F5F5F5F5F5F5F5F5F5F5F5F5F5F5F5F5F5F5F5F5F5F5F5F5F5F5F5F5F5F5F5F5F5F5F5F5F5F5F5F5F5F5F5F5E2F5
310
F5F5F5F5F5F5F5F5F5F5F5F5F5F5F5F5F5F5F5E2E2EFF5F5F5F5F5F5F5F5F5F5F5F5F5F5F5F5F5F5F5F5E2F5F5F5F5F5F5F5F5F5F5F5F5F5F5F5F5F5F5F5F5F5F5F5F5F5F5F5F5F5F5F5F5F5F5F5F5F5F5F5F5F5F5F5F5F5F5F5F5F5F5F5F5F5F5F5F5F5F5F5F5F5F5F5F5F5F5F5F5F5F5F5F5F5F5F5F5F5F5F5F5F5F5F5F5
310
F5F5F5F5F5F5F5F5F5F5F5F5F5F5F5F5F5F5F5F5F5F5F5F5F5F5F5F5F5F5F5F5F5F5F5F5F5F5F5F5F5F5F5F5F5F5F5F5F5F5F5E2F5F5F5F5F5F5F5F5F5F5F5F5F5F5F5F5F5F5F5F5E2E2EFF5F5F5F5F5F5F5F5F5F5F5F5F5F5F5F5F5F5F5F5E2F5F5F5F5F5F5F5F5F5F5F5F5F5F5F5F5F5F5F5F5F5F5F5F5F5F5F5F5F5F5F5
310
F5F5F5F5F5F5F5F5F5F5F5F5F5F5F5F5F5F5F5F5F5F5F5F5F5F5F5F5F5F5F5F5F5F5F5F5F5F5F5F5F5F5F5F5F5F5F5F5F5F5F5F5F5F5F5F5F5F5F5F5F5F5F5F5F5F5F5F5F5F5F5F5F5F5F5F5F5F5F5F5F5F5F5F5F5F5F5F5F5F5F5F5F5F5F5F5F5F5F5F5F5F5F5F5E2F5F5F5F5F5F5F5F5F5F5F5F5F5F5F5F5F5F5F5F5E2E2
310
EFF5F5F5F5F5F5F5F5F5F5F5F5F5F5F5F5F5F5F5F5E2F5F5F5F5F5F5F5F5F5F5F5F5F5F5F5F5F5F5F5F5F5F5F5F5F5F5F5F5F5F5F5F5F5F5F5F5F5F5F5F5F5F5F5F5F5F5F5F5F5F5F5F5F5F5F5F5F5F5F5F5F5F5F5F5F5F5F5F5F5F5F5F5F5F5F5F5F5F5F5F5F5F5F5F5F5F5F5F5F5F5F5F5F5F5F5F5F5F5F5F5F5F5F5F5F5
310
F5F5F5F5F5F5F5F5F5F5F5F5F5F5F5F5F5F5F5F5F5F5F5F5F5F5F5F5F5F5E2F5F5F5F5F5F5F5F5F5F5F5F5F5F5F5F5F5F5F5F5E2E2EFF5F5F5F5F5F5F5F5F5F5F5F5F5F5F5F5F5F5F5F5E2F5F5F5F5F5F5F5F5F5F5F5F5F5F5F5F5F5F5F5F5F5F5F5F5F5F5F5F5F5F5F5F5F5F5F5F5F5F5F5F5F5F5F5F5F5F5F5F5F5F5F5F5
310
F5F5F5F5F5F5F5F5F5F5F5F5F5F5F5F5F5F5F5F5F5F5F5F5F5F5F5F5F5F5F5F5F5F5F5F5F5F5F5F5F5F5F5F5F5F5F5F5F5F5F5F5F5F5F5F5F5F5F5F5F5F5F5F5F5F5F5F5F5F5F5F5F5F5F5F5F5F5F5F5F5F5F5E2F5F5F5F5F5F5F5F5F5F5F5F5F5F5F5F5F5F5F5F5E2E2EFF5F5F5F5F5F5F5F5F5F5F5F5F5F5F5F5F5F5F5F5
310
E2F5F5F5F5F5F5F5F5F5F5F5F5F5F5F5F5F5F5F5F5F5F5F5F5F5F5F5F5F5F5F5F5F5F5F5F5F5F5F5F5F5F5F5F5F5F5F5F5F5F5F5F5F5F5F5F5F5F5F5F5F5F5F5F5F5F5F5F5F5F5F5F5F5F5F5F5F5F5F5F5F5F5F5F5F5F5F5F5F5F5F5F5F5F5F5F5F5F5F5F5F5F5F5F5F5F5F5F5F5F5F5F5F5F5F5F5F5F5F5F5F5F5F5F5F5F5
310
F5F5F5F5F5F5F5F5F5E2F5F5F5F5F5F5F5F5F5F5F5F5F5F5F5F5F5F5F5F5E2E2EFF5F5F5E2F5F5F5F5F5F5F5F5F5F5F5F5F5F5F5F5E2F5F5F5F5F5F5F5F5F5F5F5F5F5F5F5F5F5F5F5F5F5F5F5F5F5F5F5F5F5F5F5F5F5F5F5F5F5F5F5F5F5F5F5F5F5F5F5F5F5F5F5F5F5F5F5F5F5F5F5F5F5F5F5F5F5F5F5F5F5F5F5F5F5
310
F5F5F5F5F5F5F5F5F5F5F5F5F5F5F5F5F5F5F5F5F5F5F5F5F5F5F5F5F5F5F5F5F5F5F5F5F5F5F5F5F5F5F5F5F5F5F5F5F5F5F5F5F5F5F5F5F5F5F5F5F5F5E2F5F5F5F5F5F5F5F5F5F5F5F5F5F5F5F5E2F5F5F5E2E2EFF5F5F5E2F5F5F5F5F5F5F5F5F5F5F5F5F5F5F5F5E2F5F5F5F5F5F5F5F5F5F5F5F5F5F5F5F5F5F5F5F5
310
F5F5F5F5F5F5F5F5F5F5F5F5F5F5F5F5F5F5F5F5F5F5F5F5F5F5F5F5F5F5F5F5F5F5F5F5F5F5F5F5F5F5F5F5F5F5F5F5F5F5F5F5F5F5F5F5F5F5F5F5F5F5F5F5F5F5F5F5F5F5F5F5F5F5F5F5F5F5F5F5F5F5F5F5F5F5F5F5F5F5F5F5F5F5F5F5F5F5F5F5F5F5F5F5F5F5F5F5F5F5F5F5F5F5F5E2F5F5F5F5F5F5F5F5F5F5F5
310
F5F5F5F5F5E2F5F5F5E2E2EFF5F5F5E2F5F5F5F5F5F5F5F5F5F5F5F5F5F5F5F5E2F5F5F5F5F5F5F5F5F5F5F5F5F5F5F5F5F5F5F5F5F5F5F5F5F5F5F5F5F5F5F5F5F5F5F5F5F5F5F5F5F5F5F5F5F5F5F5F5F5F5F5F5F5F5F5F5F5F5F5F5F5F5F5F5F5F5F5F5F5F5F5F5F5F5F5F5F5F5F5F5F5F5F5F5F5F5F5F5F5F5F5F5F5F5
310
F5F5F5F5F5F5F5F5F5F5F5F5F5F5F5F5F5F5F5F5F5F5F5F5F5F5F5F5F5F5F5F5F5F5F5F5F5F5F5F5F5E2F5F5F5F5F5F5F5F5F5F5F5F5F5F5F5F5E2F5F5F5E2E2EFF5F5F5E2F5F5F5F5F5F5F5F5F5F5F5F5F5F5F5F5E2F5F5F5F5F5F5F5F5F5F5F5F5F5F5F5F5F5F5F5F5F5F5F5F5F5F5F5F5F5F5F5F5F5F5F5F5F5F5F5F5F5
310
F5F5F5F5F5F5F5F5F5F5F5F5F5F5F5F5F5F5F5F5F5F5F5F5F5F5F5F5F5F5F5F5F5F5F5F5F5F5F5F5F5F5F5F5F5F5F5F5F5F5F5F5F5F5F5F5F5F5F5F5F5F5F5F5F5F5F5F5F5F5F5F5F5F5F5F5F5F5F5F5F5F5F5F5F5F5F5F5F5F5F5F5F5F5E2F5F5F5F5F5F5F5F5F5F5F5F5F5F5F5F5E2F5F5F5E2E2EFF5F5F5E2F5F5F5F5F5
310
F5F5F5F5F5F5F5F5F5F5F5E2F5F5F5F5F5F5F5F5F5F5F5F5F5F5F5F5F5F5F5F5F5F5F5F5F5F5F5F5F5F5F5F5F5F5F5F5F5F5F5F5F5F5F5F5F5F5F5F5F5F5F5F5F5F5F5F5F5F5F5F5F5F5F5F5F5F5F5F5F5F5F5F5F5F5F5F5F5F5F5F5F5F5F5F5F5F5F5F5F5F5F5F5F5F5F5F5F5F5F5F5F5F5F5F5F5F5F5F5F5F5F5F5F5F5F5
310
F5F5F5F5F5F5F5F5F5F5F5F5F5F5F5F5F5F5F5F5E2F5F5F5F5F5F5F5F5F5F5F5F5F5F5F5F5E2F5F5F5E2E2EFF5F5F5E2F5F5F5F5F5F5F5F5F5F5F5F5F5F5F5F5E2F5F5F5F5F5F5F5F5F5F5F5F5F5F5F5F5F5F5F5F5F5F5F5F5F5F5F5F5F5F5F5F5F5F5F5F5F5F5F5F5F5F5F5F5F5F5F5F5F5F5F5F5F5F5F5F5F5F5F5F5F5F5
310
F5F5F5F5F5F5F5F5F5F5F5F5F5F5F5F5F5F5F5F5F5F5F5F5F5F5F5F5F5F5F5F5F5F5F5F5F5F5F5F5F5F5F5F5F5F5F5F5F5F5F5F5F5F5F5F5F5F5F5F5F5F5F5F5F5F5F5F5F5F5F5F5F5E2F5F5F5F5F5F5F5F5F5F5F5F5F5F5F5F5E2F5F5F5E2E2EFF5F5F5E2F5F5F5F5F5F5F5F5F5F5F5F5F5F5F5F5E2F5F5F5F5F5F5F5F5F5
310
F5F5F5F5F5F5F5F5F5F5F5F5F5F5F5F5F5F5F5F5F5F5F5F5F5F5F5F5F5F5F5F5F5F5F5F5F5F5F5F5F5F5F5F5F5F5F5F5F5F5F5F5F5F5F5F5F5F5F5F5F5F5F5F5F5F5F5F5F5F5F5F5F5F5F5F5F5F5F5F5F5F5F5F5F5F5F5F5F5F5F5F5F5F5F5F5F5F5F5F5F5F5F5F5F5F5F5F5F5F5F5F5F5F5F5F5F5F5F5F5F5F5F5F5F5F5E2
310
F5F5F5F5F5F5F5F5F5F5F5F5F5F5F5F5E2F5F5F5E2E2EFF5F5F5E2F5F5F5F5F5F5F5F5F5F5F5F5F5F5F5F5E2F5F5F5F5F5F5F5F5F5F5F5F5F5F5F5F5F5F5F5F5F5F5F5F5F5F5F5F5F5F5F5F5F5F5F5F5F5F5F5F5F5F5F5F5F5F5F5F5F5F5F5F5F5F5F5F5F5F5F5F5F5F5F5F5F5F5F5F5F5F5F5F5F5F5F5F5F5F5F5F5F5F5F5
310
F5F5F5F5F5F5F5F5F5F5F5F5F5F5F5F5F5F5F5F5F5F5F5F5F5F5F5F5F5F5F5F5F5F5F5F5F5F5F5F5F5F5F5F5F5F5F5F5F5F5F5F5E2F5F5F5F5F5F5F5F5F5F5F5F5F5F5F5F5E2F5F5F5E2E2EFF5F5F5E2F5F5F5F5F5F5F5F5F5F5F5F5F5F5F5F5E2F5F5F5F5F5F5F5F5F5F5F5F5F5F5F5F5F5F5F5F5F5F5F5F5F5F5F5F5F5F5
310
F5F5F5F5F5F5F5F5F5F5F5F5F5F5F5F5F5F5F5F5F5F5F5F5F5F5F5F5F5F5F5F5F5F5F5F5F5F5F5F5F5F5F5F5F5F5F5F5F5F5F5F5F5F5F5F5F5F5F5F5F5F5F5F5F5F5F5F5F5F5F5F5F5F5F5F5F5F5F5F5F5F5F5F5F5F5F5F5F5F5F5F5F5F5F5F5F5F5F5F5F5F5F5F5F5E2F5F5F5F5F5F5F5F5F5F5F5F5F5F5F5F5E2F5F5F5E2
310
E2EFF5F5F5E2F5F5F5F5F5F5F5F5F5F5F5F5F5F5F5F5E2F5F5F5F5F5F5F5F5F5F5F5F5F5F5F5F5F5F5F5F5F5F5F5F5F5F5F5F5F5F5F5F5F5F5F5F5F5F5F5F5F5F5F5F5F5F5F5F5F5F5F5F5F5F5F5F5F5F5F5F5F5F5F5F5F5F5F5F5F5F5F5F5F5F5F5F5F5F5F5F5F5F5F5F5F5F5F5F5F5F5F5F5F5F5F5F5F5F5F5F5F5F5F5F5
310
F5F5F5F5F5F5F5F5F5F5F5F5F5F5F5F5F5F5F5F5F5F5F5F5F5F5F5F5F5F5F5E2F5F5F5F5F5F5F5F5F5F5F5F5F5F5F5F5E2F5F5F5E2E2EFF5F5F5E2F5F5F5F5F5F5F5F5F5F5F5F5F5F5F5F5E2F5F5F5F5F5F5F5F5F5F5F5F5F5F5F5F5F5F5F5F5F5F5F5F5F5F5F5F5F5F5F5F5F5F5F5F5F5F5F5F5F5F5F5F5F5F5F5F5F5F5F5
310
F5F5F5F5F5F5F5F5F5F5F5F5F5F5F5F5F5F5F5F5F5F5F5F5F5F5F5F5F5F5F5F5F5F5F5F5F5F5F5F5F5F5F5F5F5F5F5F5F5F5F5F5F5F5F5F5F5F5F5F5F5F5F5F5F5F5F5F5F5F5F5F5F5F5F5F5F5F5F5F5F5F5F5F5E2F5F5F5F5F5F5F5F5F5F5F5F5F5F5F5F5E2F5F5F5E2E2EFF5F5F5E2F5F5F5F5F5F5F5F5F5F5F5F5F5F5F5
310
F5E2F5F5F5F5F5F5F5F5F5F5F5F5F5F5F5F5F5F5F5F5F5F5F5F5F5F5F5F5F5F5F5F5F5F5F5F5F5F5F5F5F5F5F5F5F5F5F5F5F5F5F5F5F5F5F5F5F5F5F5F5F5F5F5F5F5F5F5F5F5F5F5F5F5F5F5F5F5F5F5F5F5F5F5F5F5F5F5F5F5F5F5F5F5F5F5F5F5F5F5F5F5F5F5F5F5F5F5F5F5F5F5F5F5F5F5F5F5F5F5F5F5F5F5F5F5
310
F5F5F5F5F5F5F5F5F5F5E2F5F5F5F5F5F5F5F5F5F5F5F5F5F5F5F5E2F5F5F5E2E2EFF5F5F5E2F5F5F5F5F5F5F5F5F5F5F5F5F5F5F5F5E2F5F5F5F5F5F5F5F5F5F5F5F5F5F5F5F5F5F5F5F5F5F5F5F5F5F5F5F5F5F5F5F5F5F5F5F5F5F5F5F5F5F5F5F5F5F5F5F5F5F5F5F5F5F5F5F5F5F5F5F5F5F5F5F5F5F5F5F5F5F5F5F5
310
F5F5F5F5F5F5F5F5F5F5F5F5F5F5F5F5F5F5F5F5F5F5F5F5F5F5F5F5F5F5F5F5F5F5F5F5F5F5F5F5F5F5F5F5F5F5F5F5F5F5F5F5F5F5F5F5F5F5F5F5F5F5F5E2F5F5F5F5F5F5F5F5F5F5F5F5F5F5F5F5E2F5F5F5E2E2EFF5F5F5E2F5F5F5F5F5F5F5F5F5F5F5F5F5F5F5F5E2F5F5F5F5F5F5F5F5F5F5F5F5F5F5F5F5F5F5F5
310
F5F5F5F5F5F5F5F5F5F5F5F5F5F5F5F5F5F5F5F5F5F5F5F5F5F5F5F5F5F5F5F5F5F5F5F5F5F5F5F5F5F5F5F5F5F5F5F5F5F5F5F5F5F5F5F5F5F5F5F5F5F5F5F5F5F5F5F5F5F5F5F5F5F5F5F5F5F5F5F5F5F5F5F5F5F5F5F5F5F5F5F5F5F5F5F5F5F5F5F5F5F5F5F5F5F5F5F5F5F5F5F5F5F5F5F5E2F5F5F5F5F5F5F5F5F5F5
310
F5F5F5F5F5F5E2F5F5F5E2E2EFF5F5F5E2F5F5F5F5F5F5F5F5F5F5F5F5F5F5F5F5E2F5F5F5F5F5F5F5F5F5F5F5F5F5F5F5F5F5F5F5F5F5F5F5F5F5F5F5F5F5F5F5F5F5F5F5F5F5F5F5F5F5F5F5F5F5F5F5F5F5F5F5F5F5F5F5F5F5F5F5F5F5F5F5F5F5F5F5F5F5F5F5F5F5F5F5F5F5F5F5F5F5F5F5F5F5F5F5F5F5F5F5F5F5
310
F5F5F5F5F5F5F5F5F5F5F5F5F5F5F5F5F5F5F5F5F5F5F5F5F5F5F5F5F5F5F5F5F5F5F5F5F5F5F5F5F5F5E2F5F5F5F5F5F5F5F5F5F5F5F5F5F5F5F5E2F5F5F5E2E2EFF5F5F5E2F5F5F5F5F5F5F5F5F5F5F5F5F5F5F5F5E2F5F5F5F5F5F5F5F5F5F5F5F5F5F5F5F5F5F5F5F5F5F5F5F5F5F5F5F5F5F5F5F5F5F5F5F5F5F5F5F5
310
F5F5F5F5F5F5F5F5F5F5F5F5F5F5F5F5F5F5F5F5F5F5F5F5F5F5F5F5F5F5F5F5F5F5F5F5F5F5F5F5F5F5F5F5F5F5F5F5F5F5F5F5F5F5F5F5F5F5F5F5F5F5F5F5F5F5F5F5F5F5F5F5F5F5F5F5F5F5F5F5F5F5F5F5F5F5F5F5F5F5F5F5F5F5F5E2F5F5F5F5F5F5F5F5F5F5F5F5F5F5F5F5E2F5F5F5E2E2EFF5F5F5E2F5F5F5F5
310
F5F5F5F5F5F5F5F5F5F5F5F5E2F5F5F5F5F5F5F5F5F5F5F5F5F5F5F5F5F5F5F5F5F5F5F5F5F5F5F5F5F5F5F5F5F5F5F5F5F5F5F5F5F5F5F5F5F5F5F5F5F5F5F5F5F5F5F5F5F5F5F5F5F5F5F5F5F5F5F5F5F5F5F5F5F5F5F5F5F5F5F5F5F5F5F5F5F5F5F5F5F5F5F5F5F5F5F5F5F5F5F5F5F5F5F5F5F5F5F5F5F5F5F5F5F5F5
310
F5F5F5F5F5F5F5F5F5F5F5F5F5F5F5F5F5F5F5F5F5E2F5F5F5F5F5F5F5F5F5F5F5F5F5F5F5F5E2F5F5F5E2E2EFF5F5F5F5F5F5F5F5F5F5F5F5F5F5F5F5F5F5F5F5E2F5F5F5F5F5F5F5F5F5F5F5F5F5F5F5F5F5F5F5F5F5F5F5F5F5F5F5F5F5F5F5F5F5F5F5F5F5F5F5F5F5F5F5F5F5F5F5F5F5F5F5F5F5F5F5F5F5F5F5F5F5
310
F5F5F5F5F5F5F5F5F5F5F5F5F5F5F5F5F5F5F5F5F5F5F5F5F5F5F5F5F5F5F5F5F5F5F5F5F5F5F5F5F5F5F5F5F5F5F5F5F5F5F5F5F5F5F5F5F5F5F5F5F5F5F5F5F5F5F5F5F5F5F5F5F5F5E2F5F5F5F5F5F5F5F5F5F5F5F5F5F5F5F5F5F5F5F5E2E2EFF5F5F5F5F5F5F5F5F5F5F5F5F5F5F5F5F5F5F5F5E2F5F5F5F5F5F5F5F5
310
F5F5F5F5F5F5F5F5F5F5F5F5F5F5F5F5F5F5F5F5F5F5F5F5F5F5F5F5F5F5F5F5F5F5F5F5F5F5F5F5F5F5F5F5F5F5F5F5F5F5F5F5F5F5F5F5F5F5F5F5F5F5F5F5F5F5F5F5F5F5F5F5F5F5F5F5F5F5F5F5F5F5F5F5F5F5F5F5F5F5F5F5F5F5F5F5F5F5F5F5F5F5F5F5F5F5F5F5F5F5F5F5F5F5F5F5F5F5F5F5F5F5F5F5F5F5F5
310
E2F5F5F5F5F5F5F5F5F5F5F5F5F5F5F5F5F5F5F5F5E2E2EFF5F5F5F5F5F5F5F5F5F5F5F5F5F5F5F5F5F5F5F5E2F5F5F5F5F5F5F5F5F5F5F5F5F5F5F5F5F5F5F5F5F5F5F5F5F5F5F5F5F5F5F5F5F5F5F5F5F5F5F5F5F5F5F5F5F5F5F5F5F5F5F5F5F5F5F5F5F5F5F5F5F5F5F5F5F5F5F5F5F5F5F5F5F5F5F5F5F5F5F5F5F5F5
310
F5F5F5F5F5F5F5F5F5F5F5F5F5F5F5F5F5F5F5F5F5F5F5F5F5F5F5F5F5F5F5F5F5F5F5F5F5F5F5F5F5F5F5F5F5F5F5F5F5F5F5F5F5E2F5F5F5F5F5F5F5F5F5F5F5F5F5F5F5F5F5F5F5F5E2E2EFF5F5F5F5F5F5F5F5F5F5F5F5F5F5F5F5F5F5F5F5E2F5F5F5F5F5F5F5F5F5F5F5F5F5F5F5F5F5F5F5F5F5F5F5F5F5F5F5F5F5
310
F5F5F5F5F5F5F5F5F5F5F5F5F5F5F5F5F5F5F5F5F5F5F5F5F5F5F5F5F5F5F5F5F5F5F5F5F5F5F5F5F5F5F5F5F5F5F5F5F5F5F5F5F5F5F5F5F5F5F5F5F5F5F5F5F5F5F5F5F5F5F5F5F5F5F5F5F5F5F5F5F5F5F5F5F5F5F5F5F5F5F5F5F5F5F5F5F5F5F5F5F5F5F5F5F5F5E2F5F5F5F5F5F5F5F5F5F5F5F5F5F5F5F5F5F5F5F5
310
E2E2EFF5F5F5F5F5F5F5F5F5F5F5F5F5F5F5F5F5F5F5F5E2F5F5F5F5F5F5F5F5F5F5F5F5F5F5F5F5F5F5F5F5F5F5F5F5F5F5F5F5F5F5F5F5F5F5F5F5F5F5F5F5F5F5F5F5F5F5F5F5F5F5F5F5F5F5F5F5F5F5F5F5F5F5F5F5F5F5F5F5F5F5F5F5F5F5F5F5F5F5F5F5F5F5F5F5F5F5F5F5F5F5F5F5F5F5F5F5F5F5F5F5F5F5F5
310
F5F5F5F5F5F5F5F5F5F5F5F5F5F5F5F5F5F5F5F5F5F5F5F5F5F5F5F5F5F5F5F5E2F5F5F5F5F5F5F5F5F5F5F5F5F5F5F5F5F5F5F5F5E2E2EFF5F5F5F5F5F5F5F5F5F5F5F5F5F5F5F5F5F5F5F5E2F5F5F5F5F5F5F5F5F5F5F5F5F5F5F5F5F5F5F5F5F5F5F5F5F5F5F5F5F5F5F5F5F5F5F5F5F5F5F5F5F5F5F5F5F5F5F5F5F5F5
310
F5F5F5F5F5F5F5F5F5F5F5F5F5F5F5F5F5F5F5F5F5F5F5F5F5F5F5F5F5F5F5F5F5F5F5F5F5F5F5F5F5F5F5F5F5F5F5F5F5F5F5F5F5F5F5F5F5F5F5F5F5F5F5F5F5F5F5F5F5F5F5F5F5F5F5F5F5F5F5F5F5F5F5F5F5E2F5F5F5F5F5F5F5F5F5F5F5F5F5F5F5F5F5F5F5F5E2E2EFF5F5F5F5F5F5F5F5F5F5F5F5F5F5F5F5F5F5
310
F5F5E2F5F5F5F5F5F5F5F5F5F5F5F5F5F5F5F5F5F5F5F5F5F5F5F5F5F5F5F5F5F5F5F5F5F5F5F5F5F5F5F5F5F5F5F5F5F5F5F5F5F5F5F5F5F5F5F5F5F5F5F5F5F5F5F5F5F5F5F5F5F5F5F5F5F5F5F5F5F5F5F5F5F5F5F5F5F5F5F5F5F5F5F5F5F5F5F5F5F5F5F5F5F5F5F5F5F5F5F5F5F5F5F5F5F5F5F5F5F5F5F5F5F5F5F5
310
F5F5F5F5F5F5F5F5F5F5F5E2F5F5F5F5F5F5F5F5F5F5F5F5F5F5F5F5F5F5F5F5E2E2EFF5F5F5F5F5F5F5F5F5F5F5F5F5F5F5F5F5F5F5F5E2F5F5F5F5F5F5F5F5F5F5F5F5F5F5F5F5F5F5F5F5F5F5F5F5F5F5F5F5F5F5F5F5F5F5F5F5F5F5F5F5F5F5F5F5F5F5F5F5F5F5F5F5F5F5F5F5F5F5F5F5F5F5F5F5F5F5F5F5F5F5F5
310
F5F5F5F5F5F5F5F5F5F5F5F5F5F5F5F5F5F5F5F5F5F5F5F5F5F5F5F5F5F5F5F5F5F5F5F5F5F5F5F5F5F5F5F5F5F5F5F5F5F5F5F5F5F5F5F5F5F5F5F5F5F5F5F5E2F5F5F5F5F5F5F5F5F5F5F5F5F5F5F5F5F5F5F5F5E2E2EFF5F5F5F5F5F5F5F5F5F5F5F5F5F5F5F5F5F5F5F5E2F5F5F5F5F5F5F5F5F5F5F5F5F5F5F5F5F5F5
310
F5F5F5F5F5F5F5F5F5F5F5F5F5F5F5F5F5F5F5F5F5F5F5F5F5F5F5F5F5F5F5F5F5F5F5F5F5F5F5F5F5F5F5F5F5F5F5F5F5F5F5F5F5F5F5F5F5F5F5F5F5F5F5F5F5F5F5F5F5F5F5F5F5F5F5F5F5F5F5F5F5F5F5F5F5F5F5F5F5F5F5F5F5F5F5F5F5F5F5F5F5F5F5F5F5F5F5F5F5F5F5F5F5F5F5F5F5E2F5F5F5F5F5F5F5F5F5
310
F5F5F5F5F5F5F5F5F5F5F5E2E2EFF5F5F5E2F5F5F5F5F5F5F5F5F5F5F5F5F5F5F5F5E2F5F5F5F5F5F5F5F5F5F5F5F5F5F5F5F5F5F5F5F5F5F5F5F5F5F5F5F5F5F5F5F5F5F5F5F5F5F5F5F5F5F5F5F5F5F5F5F5F5F5F5F5F5F5F5F5F5F5F5F5F5F5F5F5F5F5F5F5F5F5F5F5F5F5F5F5F5F5F5F5F5F5F5F5F5F5F5F5F5F5F5F5
310
F5F5F5F5F5F5F5F5F5F5F5F5F5F5F5F5F5F5F5F5F5F5F5F5F5F5F5F5F5F5F5F5F5F5F5F5F5F5F5F5F5F5F5E2F5F5F5F5F5F5F5F5F5F5F5F5F5F5F5F5E2F5F5F5E2E2EFF5F5F5E2F5F5F5F5F5F5F5F5F5F5F5F5F5F5F5F5E2F5F5F5F5F5F5F5F5F5F5F5F5F5F5F5F5F5F5F5F5F5F5F5F5F5F5F5F5F5F5F5F5F5F5F5F5F5F5F5
310
F5F5F5F5F5F5F5F5F5F5F5F5F5F5F5F5F5F5F5F5F5F5F5F5F5F5F5F5F5F5F5F5F5F5F5F5F5F5F5F5F5F5F5F5F5F5F5F5F5F5F5F5F5F5F5F5F5F5F5F5F5F5F5F5F5F5F5F5F5F5F5F5F5F5F5F5F5F5F5F5F5F5F5F5F5F5F5F5F5F5F5F5F5F5F5F5E2F5F5F5F5F5F5F5F5F5F5F5F5F5F5F5F5E2F5F5F5E2E2EFF5F5F5E2F5F5F5
310
F5F5F5F5F5F5F5F5F5F5F5F5F5E2F5F5F5F5F5F5F5F5F5F5F5F5F5F5F5F5F5F5F5F5F5F5F5F5F5F5F5F5F5F5F5F5F5F5F5F5F5F5F5F5F5F5F5F5F5F5F5F5F5F5F5F5F5F5F5F5F5F5F5F5F5F5F5F5F5F5F5F5F5F5F5F5F5F5F5F5F5F5F5F5F5F5F5F5F5F5F5F5F5F5F5F5F5F5F5F5F5F5F5F5F5F5F5F5F5F5F5F5F5F5F5F5F5
310
F5F5F5F5F5F5F5F5F5F5F5F5F5F5F5F5F5F5F5F5F5F5E2F5F5F5F5F5F5F5F5F5F5F5F5F5F5F5F5E2F5F5F5E2E2EFF5F5F5E2F5F5F5F5F5F5F5F5F5F5F5F5F5F5F5F5E2F5F5F5F5F5F5F5F5F5F5F5F5F5F5F5F5F5F5F5F5F5F5F5F5F5F5F5F5F5F5F5F5F5F5F5F5F5F5F5F5F5F5F5F5F5F5F5F5F5F5F5F5F5F5F5F5F5F5F5F5
310
F5F5F5F5F5F5F5F5F5F5F5F5F5F5F5F5F5F5F5F5F5F5F5F5F5F5F5F5F5F5F5F5F5F5F5F5F5F5F5F5F5F5F5F5F5F5F5F5F5F5F5F5F5F5F5F5F5F5F5F5F5F5F5F5F5F5F5F5F5F5F5F5F5F5F5E2F5F5F5F5F5F5F5F5F5F5F5F5F5F5F5F5E2F5F5F5E2E2EFF5F5F5E2F5F5F5F5F5F5F5F5F5F5F5F5F5F5F5F5E2F5F5F5F5F5F5F5
310
F5F5F5F5F5F5F5F5F5F5F5F5F5F5F5F5F5F5F5F5F5F5F5F5F5F5F5F5F5F5F5F5F5F5F5F5F5F5F5F5F5F5F5F5F5F5F5F5F5F5F5F5F5F5F5F5F5F5F5F5F5F5F5F5F5F5F5F5F5F5F5F5F5F5F5F5F5F5F5F5F5F5F5F5F5F5F5F5F5F5F5F5F5F5F5F5F5F5F5F5F5F5F5F5F5F5F5F5F5F5F5F5F5F5F5F5F5F5F5F5F5F5F5F5F5F5F5
310
F5E2F5F5F5F5F5F5F5F5F5F5F5F5F5F5F5F5E2F5F5F5E2E2EFF5F5F5E2F5F5F5F5F5F5F5F5F5F5F5F5F5F5F5F5E2F5F5F5F5F5F5F5F5F5F5F5F5F5F5F5F5F5F5F5F5F5F5F5F5F5F5F5F5F5F5F5F5F5F5F5F5F5F5F5F5F5F5F5F5F5F5F5F5F5F5F5F5F5F5F5F5F5F5F5F5F5F5F5F5F5F5F5F5F5F5F5F5F5F5F5F5F5F5F5F5F5
310
F5F5F5F5F5F5F5F5F5F5F5F5F5F5F5F5F5F5F5F5F5F5F5F5F5F5F5F5F5F5F5F5F5F5F5F5F5F5F5F5F5F5F5F5F5F5F5F5F5F5F5F5F5F5E2F5F5F5F5F5F5F5F5F5F5F5F5F5F5F5F5E2F5F5F5E2E2EFF5F5F5E2F5F5F5F5F5F5F5F5F5F5F5F5F5F5F5F5E2F5F5F5F5F5F5F5F5F5F5F5F5F5F5F5F5F5F5F5F5F5F5F5F5F5F5F5F5
310
F5F5F5F5F5F5F5F5F5F5F5F5F5F5F5F5F5F5F5F5F5F5F5F5F5F5F5F5F5F5F5F5F5F5F5F5F5F5F5F5F5F5F5F5F5F5F5F5F5F5F5F5F5F5F5F5F5F5F5F5F5F5F5F5F5F5F5F5F5F5F5F5F5F5F5F5F5F5F5F5F5F5F5F5F5F5F5F5F5F5F5F5F5F5F5F5F5F5F5F5F5F5F5F5F5F5F5E2F5F5F5F5F5F5F5F5F5F5F5F5F5F5F5F5E2F5F5
310
F5E2E2EFF5F5F5E2F5F5F5F5F5F5F5F5F5F5F5F5F5F5F5F5E2F5F5F5F5F5F5F5F5F5F5F5F5F5F5F5F5F5F5F5F5F5F5F5F5F5F5F5F5F5F5F5F5F5F5F5F5F5F5F5F5F5F5F5F5F5F5F5F5F5F5F5F5F5F5F5F5F5F5F5F5F5F5F5F5F5F5F5F5F5F5F5F5F5F5F5F5F5F5F5F5F5F5F5F5F5F5F5F5F5F5F5F5F5F5F5F5F5F5F5F5F5F5
310
F5F5F5F5F5F5F5F5F5F5F5F5F5F5F5F5F5F5F5F5F5F5F5F5F5F5F5F5F5F5F5F5F5E2F5F5F5F5F5F5F5F5F5F5F5F5F5F5F5F5E2F5F5F5E2E2EFF5F5F5E2F5F5F5F5F5F5F5F5F5F5F5F5F5F5F5F5E2F5F5F5F5F5F5F5F5F5F5F5F5F5F5F5F5F5F5F5F5F5F5F5F5F5F5F5F5F5F5F5F5F5F5F5F5F5F5F5F5F5F5F5F5F5F5F5F5F5
310
F5F5F5F5F5F5F5F5F5F5F5F5F5F5F5F5F5F5F5F5F5F5F5F5F5F5F5F5F5F5F5F5F5F5F5F5F5F5F5F5F5F5F5F5F5F5F5F5F5F5F5F5F5F5F5F5F5F5F5F5F5F5F5F5F5F5F5F5F5F5F5F5F5F5F5F5F5F5F5F5F5F5F5F5F5F5E2F5F5F5F5F5F5F5F5F5F5F5F5F5F5F5F5E2F5F5F5E2E2EFF5F5F5E2F5F5F5F5F5F5F5F5F5F5F5F5F5
310
F5F5F5E2F5F5F5F5F5F5F5F5F5F5F5F5F5F5F5F5F5F5F5F5F5F5F5F5F5F5F5F5F5F5F5F5F5F5F5F5F5F5F5F5F5F5F5F5F5F5F5F5F5F5F5F5F5F5F5F5F5F5F5F5F5F5F5F5F5F5F5F5F5F5F5F5F5F5F5F5F5F5F5F5F5F5F5F5F5F5F5F5F5F5F5F5F5F5F5F5F5F5F5F5F5F5F5F5F5F5F5F5F5F5F5F5F5F5F5F5F5F5F5F5F5F5F5
310
F5F5F5F5F5F5F5F5F5F5F5F5E2F5F5F5F5F5F5F5F5F5F5F5F5F5F5F5F5E2F5F5F5E2E2EFF5F5F5E2F5F5F5F5F5F5F5F5F5F5F5F5F5F5F5F5E2F5F5F5F5F5F5F5F5F5F5F5F5F5F5F5F5F5F5F5F5F5F5F5F5F5F5F5F5F5F5F5F5F5F5F5F5F5F5F5F5F5F5F5F5F5F5F5F5F5F5F5F5F5F5F5F5F5F5F5F5F5F5F5F5F5F5F5F5F5F5
310
F5F5F5F5F5F5F5F5F5F5F5F5F5F5F5F5F5F5F5F5F5F5F5F5F5F5F5F5F5F5F5F5F5F5F5F5F5F5F5F5F5F5F5F5F5F5F5F5F5F5F5F5F5F5F5F5F5F5F5F5F5F5F5F5F5E2F5F5F5F5F5F5F5F5F5F5F5F5F5F5F5F5E2F5F5F5E2E2EFF5F5F5E2F5F5F5F5F5F5F5F5F5F5F5F5F5F5F5F5E2F5F5F5F5F5F5F5F5F5F5F5F5F5F5F5F5F5
310
F5F5F5F5F5F5F5F5F5F5F5F5F5F5F5F5F5F5F5F5F5F5F5F5F5F5F5F5F5F5F5F5F5F5F5F5F5F5F5F5F5F5F5F5F5F5F5F5F5F5F5F5F5F5F5F5F5F5F5F5F5F5F5F5F5F5F5F5F5F5F5F5F5F5F5F5F5F5F5F5F5F5F5F5F5F5F5F5F5F5F5F5F5F5F5F5F5F5F5F5F5F5F5F5F5F5F5F5F5F5F5F5F5F5F5F5F5F5E2F5F5F5F5F5F5F5F5
310
F5F5F5F5F5F5F5F5E2F5F5F5E2E2EFF5F5F5E2F5F5F5F5F5F5F5F5F5F5F5F5F5F5F5F5E2F5F5F5F5F5F5F5F5F5F5F5F5F5F5F5F5F5F5F5F5F5F5F5F5F5F5F5F5F5F5F5F5F5F5F5F5F5F5F5F5F5F5F5F5F5F5F5F5F5F5F5F5F5F5F5F5F5F5F5F5F5F5F5F5F5F5F5F5F5F5F5F5F5F5F5F5F5F5F5F5F5F5F5F5F5F5F5F5F5F5F5
310
F5F5F5F5F5F5F5F5F5F5F5F5F5F5F5F5F5F5F5F5F5F5F5F5F5F5F5F5F5F5F5F5F5F5F5F5F5F5F5F5F5F5F5F5E2F5F5F5F5F5F5F5F5F5F5F5F5F5F5F5F5E2F5F5F5E2E2EFF5F5F5E2F5F5F5F5F5F5F5F5F5F5F5F5F5F5F5F5E2F5F5F5F5F5F5F5F5F5F5F5F5F5F5F5F5F5F5F5F5F5F5F5F5F5F5F5F5F5F5F5F5F5F5F5F5F5F5
310
F5F5F5F5F5F5F5F5F5F5F5F5F5F5F5F5F5F5F5F5F5F5F5F5F5F5F5F5F5F5F5F5F5F5F5F5F5F5F5F5F5F5F5F5F5F5F5F5F5F5F5F5F5F5F5F5F5F5F5F5F5F5F5F5F5F5F5F5F5F5F5F5F5F5F5F5F5F5F5F5F5F5F5F5F5F5F5F5F5F5F5F5F5F5F5F5F5E2F5F5F5F5F5F5F5F5F5F5F5F5F5F5F5F5E2F5F5F5E2E2EFF5F5F5E2F5F5
310
F5F5F5F5F5F5F5F5F5F5F5F5F5F5E2F5F5F5F5F5F5F5F5F5F5F5F5F5F5F5F5F5F5F5F5F5F5F5F5F5F5F5F5F5F5F5F5F5F5F5F5F5F5F5F5F5F5F5F5F5F5F5F5F5F5F5F5F5F5F5F5F5F5F5F5F5F5F5F5F5F5F5F5F5F5F5F5F5F5F5F5F5F5F5F5F5F5F5F5F5F5F5F5F5F5F5F5F5F5F5F5F5F5F5F5F5F5F5F5F5F5F5F5F5F5F5F5
310
F5F5F5F5F5F5F5F5F5F5F5F5F5F5F5F5F5F5F5F5F5F5F5E2F5F5F5F5F5F5F5F5F5F5F5F5F5F5F5F5E2F5F5F5E2E2EFF5F5F5E2F5F5F5F5F5F5F5F5F5F5F5F5F5F5F5F5E2F5F5F5F5F5F5F5F5F5F5F5F5F5F5F5F5F5F5F5F5F5F5F5F5F5F5F5F5F5F5F5F5F5F5F5F5F5F5F5F5F5F5F5F5F5F5F5F5F5F5F5F5F5F5F5F5F5F5F5
310
F5F5F5F5F5F5F5F5F5F5F5F5F5F5F5F5F5F5F5F5F5F5F5F5F5F5F5F5F5F5F5F5F5F5F5F5F5F5F5F5F5F5F5F5F5F5F5F5F5F5F5F5F5F5F5F5F5F5F5F5F5F5F5F5F5F5F5F5F5F5F5F5F5F5F5F5E2F5F5F5F5F5F5F5F5F5F5F5F5F5F5F5F5E2F5F5F5E2E2EFF5F5F5E2F5F5F5F5F5F5F5F5F5F5F5F5F5F5F5F5E2F5F5F5F5F5F5
310
F5F5F5F5F5F5F5F5F5F5F5F5F5F5F5F5F5F5F5F5F5F5F5F5F5F5F5F5F5F5F5F5F5F5F5F5F5F5F5F5F5F5F5F5F5F5F5F5F5F5F5F5F5F5F5F5F5F5F5F5F5F5F5F5F5F5F5F5F5F5F5F5F5F5F5F5F5F5F5F5F5F5F5F5F5F5F5F5F5F5F5F5F5F5F5F5F5F5F5F5F5F5F5F5F5F5F5F5F5F5F5F5F5F5F5F5F5F5F5F5F5F5F5F5F5F5F5
310
F5F5E2F5F5F5F5F5F5F5F5F5F5F5F5F5F5F5F5E2F5F5F5E2E2EFF5F5F5F5F5F5F5F5F5F5F5F5F5F5F5F5F5F5F5F5E2F5F5F5F5F5F5F5F5F5F5F5F5F5F5F5F5F5F5F5F5F5F5F5F5F5F5F5F5F5F5F5F5F5F5F5F5F5F5F5F5F5F5F5F5F5F5F5F5F5F5F5F5F5F5F5F5F5F5F5F5F5F5F5F5F5F5F5F5F5F5F5F5F5F5F5F5F5F5F5F5
310
F5F5F5F5F5F5F5F5F5F5F5F5F5F5F5F5F5F5F5F5F5F5F5F5F5F5F5F5F5F5F5F5F5F5F5F5F5F5F5F5F5F5F5F5F5F5F5F5F5F5F5F5F5F5F5E2F5F5F5F5F5F5F5F5F5F5F5F5F5F5F5F5F5F5F5F5E2E2EFF5F5F5F5F5F5F5F5F5F5F5F5F5F5F5F5F5F5F5F5E2F5F5F5F5F5F5F5F5F5F5F5F5F5F5F5F5F5F5F5F5F5F5F5F5F5F5F5
310
F5F5F5F5F5F5F5F5F5F5F5F5F5F5F5F5F5F5F5F5F5F5F5F5F5F5F5F5F5F5F5F5F5F5F5F5F5F5F5F5F5F5F5F5F5F5F5F5F5F5F5F5F5F5F5F5F5F5F5F5F5F5F5F5F5F5F5F5F5F5F5F5F5F5F5F5F5F5F5F5F5F5F5F5F5F5F5F5F5F5F5F5F5F5F5F5F5F5F5F5F5F5F5F5F5F5F5F5E2F5F5F5F5F5F5F5F5F5F5F5F5F5F5F5F5F5F5
310
F5F5E2E2EFF5F5F5F5F5F5F5F5F5F5F5F5F5F5F5F5F5F5F5F5E2F5F5F5F5F5F5F5F5F5F5F5F5F5F5F5F5F5F5F5F5F5F5F5F5F5F5F5F5F5F5F5F5F5F5F5F5F5F5F5F5F5F5F5F5F5F5F5F5F5F5F5F5F5F5F5F5F5F5F5F5F5F5F5F5F5F5F5F5F5F5F5F5F5F5F5F5F5F5F5F5F5F5F5F5F5F5F5F5F5F5F5F5F5F5F5F5F5F5F5F5F5
310
F5F5F5F5F5F5F5F5F5F5F5F5F5F5F5F5F5F5F5F5F5F5F5F5F5F5F5F5F5F5F5F5F5F5E2F5F5F5F5F5F5F5F5F5F5F5F5F5F5F5F5F5F5F5F5E2E2EFF5F5F5F5F5F5F5F5F5F5F5F5F5F5F5F5F5F5F5F5E2F5F5F5F5F5F5F5F5F5F5F5F5F5F5F5F5F5F5F5F5F5F5F5F5F5F5F5F5F5F5F5F5F5F5F5F5F5F5F5F5F5F5F5F5F5F5F5F5
310
F5F5F5F5F5F5F5F5F5F5F5F5F5F5F5F5F5F5F5F5F5F5F5F5F5F5F5F5F5F5F5F5F5F5F5F5F5F5F5F5F5F5F5F5F5F5F5F5F5F5F5F5F5F5F5F5F5F5F5F5F5F5F5F5F5F5F5F5F5F5F5F5F5F5F5F5F5F5F5F5F5F5F5F5F5F5F5E2F5F5F5F5F5F5F5F5F5F5F5F5F5F5F5F5F5F5F5F5E2E2EFF5F5F5F5F5F5F5F5F5F5F5F5F5F5F5F5
310
F5F5F5F5E2E2E2E2E2E2E2E2E2E2E2E2E2E2E2E2E2E2E2E2E2E2E2E2E2E2E2E2E2E2E2E2E2E2E2E2E2E2E2E2E2E2E2E2E2E2E2E2E2E2E2E2E2E2E2E2E2E2E2E2E2E2E2E2E2E2E2E2E2E2E2E2E2E2E2E2E2E2E2E2E2E2E2E2E2E2E2E2E2E2E2E2E2E2E2E2E2E2E2E2E2E2E2E2E2E2E2E2E2E2E2E2E2E2E2E2E2E2E2E2E2E2E2
310
E2E2E2E2E2E2E2E2E2E2E2E2E2E2F5F5F5F5F5F5F5F5F5F5F5F5F5F5F5F5F5F5F5F5E2E2EFF5F5F5F5F5F5F5F5F5F5F5F5F5F5F5F5F5F5F5F5F5F5F5F5F5F5F5F5F5F5F5F5F5F5F5F5F5F5F5F5F5F5F5F5F5F5F5F5F5F5F5F5F5F5F5F5F5F5F5F5F5F5F5F5F5F5F5F5F5F5F5F5F5F5F5F5F5F5F5F5F5F5F5F5F5F5F5F5F5F5
310
F5F5F5F5F5F5F5F5F5F5F5F5F5F5F5F5F5F5F5F5F5F5F5F5F5F5F5F5F5F5F5F5F5F5F5F5F5F5F5F5F5F5F5F5F5F5F5F5F5F5F5F5F5F5F5F5F5F5F5F5F5F5F5F5F5F5F5F5F5F5F5F5F5F5F5F5F5F5F5F5F5F5F5F5F5F5F5E2E2EFF5F5F5F5F5F5F5F5F5F5F5F5F5F5F5F5F5F5F5F5F5F5F5F5F5F5F5F5F5F5F5F5F5F5F5F5F5
310
F5F5F5F5F5F5F5F5F5F5F5F5F5F5F5F5F5F5F5F5F5F5F5F5F5F5F5F5F5F5F5F5F5F5F5F5F5F5F5F5F5F5F5F5F5F5F5F5F5F5F5F5F5F5F5F5F5F5F5F5F5F5F5F5F5F5F5F5F5F5F5F5F5F5F5F5F5F5F5F5F5F5F5F5F5F5F5F5F5F5F5F5F5F5F5F5F5F5F5F5F5F5F5F5F5F5F5F5F5F5F5F5F5F5F5F5F5F5F5F5F5F5F5F5F5F5F5
310
F5F5F5F5F5F5F5F5F5F5F5F5F5E2E2EFF5F5F5F5F5F5F5F5F5F5F5F5F5F5F5F5F5F5F5F5F5F5F5F5F5F5F5F5F5F5F5F5F5F5F5F5F5F5F5F5F5F5F5F5F5F5F5F5F5F5F5F5F5F5F5F5F5F5F5F5F5F5F5F5F5F5F5F5F5F5F5F5F5F5F5F5F5F5F5F5F5F5F5F5F5F5F5F5F5F5F5F5F5F5F5F5F5F5F5F5F5F5F5F5F5F5F5F5F5F5F5
310
F5F5F5F5F5F5F5F5F5F5F5F5F5F5F5F5F5F5F5F5F5F5F5F5F5F5F5F5F5F5F5F5F5F5F5F5F5F5F5F5F5F5F5F5F5F5F5F5F5F5F5F5F5F5F5F5F5F5F5F5F5F5F5F5F5F5E2E2EFF5F5F5F5F5F5F5F5F5F5F5F5F5F5F5F5F5F5F5F5F5F5F5F5F5F5F5F5F5F5F5F5F5F5F5F5F5F5F5F5F5F5F5F5F5F5F5F5F5F5F5F5F5F5F5F5F5F5
310
F5F5F5F5F5F5F5F5F5F5F5F5F5F5F5F5F5F5F5F5F5F5F5F5F5F5F5F5F5F5F5F5F5F5F5F5F5F5F5F5F5F5F5F5F5F5F5F5F5F5F5F5F5F5F5F5F5F5F5F5F5F5F5F5F5F5F5F5F5F5F5F5F5F5F5F5F5F5F5F5F5F5F5F5F5F5F5F5F5F5F5F5F5F5F5F5F5F5F5F5F5F5F5F5F5F5F5F5F5F5F5F5F5F5F5F5F5F5F5E2E2EFF5F5F5E2F5
310
F5F5F5F5F5F5F5F5F5F5F5F5F5F5F5F5F5F5F5F5F5F5F5F5F5F5F5F5F5F5F5F5F5F5F5F5F5F5F5F5F5F5F5F5F5F5F5F5F5F5F5F5F5F5F5F5F5F5F5F5F5F5F5F5F5F5F5F5F5F5F5F5F5F5F5F5F5F5F5F5F5F5F5F5F5F5F5F5F5F5F5F5F5F5F5F5F5F5F5F5F5F5F5F5F5F5F5F5F5F5F5F5F5F5F5F5F5F5F5F5F5F5F5F5F5F5F5
310
F5F5F5F5F5F5F5F5F5F5F5F5F5F5F5F5F5F5F5F5F5F5F5F5F5F5F5F5F5F5F5F5F5F5F5F5F5F5F5F5F5E2F5F5F5E2E2EFF5F5F5E2F5F5F5F5F5F5F5F5F5F5F5F5F5F5F5F5F5F5F5F5F5F5F5F5F5F5F5F5F5F5F5F5F5F5F5F5F5F5F5F5F5F5F5F5F5F5F5F5F5F5F5F5F5F5F5F5F5F5F5F5F5F5F5F5F5F5F5F5F5F5F5F5F5F5F5
310
F5F5F5F5F5F5F5F5F5F5F5F5F5F5F5F5F5F5F5F5F5F5F5F5F5F5F5F5F5F5F5F5F5F5F5F5F5F5F5F5F5F5F5F5F5F5F5F5F5F5F5F5F5F5F5F5F5F5F5F5F5F5F5F5F5F5F5F5F5F5F5F5F5F5F5F5F5F5F5F5F5F5F5F5F5F5F5F5F5F5F5F5F5F5E2F5F5F5E2E2EFF5F5F5E2F5F5F5F5F5F5F5F5F5F5F5F5F5F5F5F5F5F5F5F5F5F5
310
F5F5F5F5F5F5F5F5F5F5F5F5F5F5F5F5F5F5F5F5F5F5F5F5F5F5F5F5F5F5F5F5F5F5F5F5F5F5F5F5F5F5F5F5F5F5F5F5F5F5F5F5F5F5F5F5F5F5F5F5F5F5F5F5F5F5F5F5F5F5F5F5F5F5F5F5F5F5F5F5F5F5F5F5F5F5F5F5F5F5F5F5F5F5F5F5F5F5F5F5F5F5F5F5F5F5F5F5F5F5F5F5F5F5F5F5F5F5F5F5F5F5F5F5F5F5F5
310
F5F5F5F5F5F5F5F5F5F5F5F5F5F5F5F5F5F5F5F5E2F5F5F5E2E2EFF5F5F5E2F5F5F5F5F5F5F5F5F5F5F5F5F5F5F5F5F5F5F5F5F5F5F5F5F5F5F5F5F5F5F5F5F5F5F5F5F5F5F5F5F5F5F5F5F5F5F5F5F5F5F5F5F5F5F5F5F5F5F5F5F5F5F5F5F5F5F5F5F5F5F5F5F5F5F5F5F5F5F5F5F5F5F5F5F5F5F5F5F5F5F5F5F5F5F5F5
310
F5F5F5F5F5F5F5F5F5F5F5F5F5F5F5F5F5F5F5F5F5F5F5F5F5F5F5F5F5F5F5F5F5F5F5F5F5F5F5F5F5F5F5F5F5F5F5F5F5F5F5F5F5F5F5F5F5F5F5F5F5F5F5F5F5F5F5F5F5F5F5F5F5E2F5F5F5E2E2EFF5F5F5E2F5F5F5F5F5F5F5F5F5F5F5F5F5F5F5F5F5F5F5F5F5F5F5F5F5F5F5F5F5F5F5F5F5F5F5F5F5F5F5F5F5F5F5
310
F5F5F5F5F5F5F5F5F5F5F5F5F5F5F5F5F5F5F5F5F5F5F5F5F5F5F5F5F5F5F5F5F5F5F5F5F5F5F5F5F5F5F5F5F5F5F5F5F5F5F5F5F5F5F5F5F5F5F5F5F5F5F5F5F5F5F5F5F5F5F5F5F5F5F5F5F5F5F5F5F5F5F5F5F5F5F5F5F5F5F5F5F5F5F5F5F5F5F5F5F5F5F5F5F5F5F5F5F5F5F5F5F5F5F5F5F5F5F5F5F5F5F5F5F5F5E2
310
F5F5F5E2E2EFF5F5F5E2F5F5F5F5F5F5F5F5F5F5F5F5F5F5F5F5F5F5F5F5F5F5F5F5F5F5F5F5F5F5F5F5F5F5F5F5F5F5F5F5F5F5F5F5F5F5F5F5F5F5F5F5F5F5F5F5F5F5F5F5F5F5F5F5F5F5F5F5F5F5F5F5F5F5F5F5F5F5F5F5F5F5F5F5F5F5F5F5F5F5F5F5F5F5F5F5F5F5F5F5F5F5F5F5F5F5F5F5F5F5F5F5F5F5F5F5F5
310
F5F5F5F5F5F5F5F5F5F5F5F5F5F5F5F5F5F5F5F5F5F5F5F5F5F5F5F5F5F5F5F5F5F5F5F5F5F5F5F5F5F5F5F5F5F5F5F5F5F5F5F5E2F5F5F5E2E2EFF5F5F5E2F5F5F5F5F5F5F5F5F5F5F5F5F5F5F5F5F5F5F5F5F5F5F5F5F5F5F5F5F5F5F5F5F5F5F5F5F5F5F5F5F5F5F5F5F5F5F5F5F5F5F5F5F5F5F5F5F5F5F5F5F5F5F5F5
310
F5F5F5F5F5F5F5F5F5F5F5F5F5F5F5F5F5F5F5F5F5F5F5F5F5F5F5F5F5F5F5F5F5F5F5F5F5F5F5F5F5F5F5F5F5F5F5F5F5F5F5F5F5F5F5F5F5F5F5F5F5F5F5F5F5F5F5F5F5F5F5F5F5F5F5F5F5F5F5F5F5F5F5F5F5F5F5F5F5F5F5F5F5F5F5F5F5F5F5F5F5F5F5F5F5E2F5F5F5E2E2EFF5F5F5E2F5F5F5F5F5F5F5F5F5F5F5
310
F5F5F5F5F5F5F5F5F5F5F5F5F5F5F5F5F5F5F5F5F5F5F5F5F5F5F5F5F5F5F5F5F5F5F5F5F5F5F5F5F5F5F5F5F5F5F5F5F5F5F5F5F5F5F5F5F5F5F5F5F5F5F5F5F5F5F5F5F5F5F5F5F5F5F5F5F5F5F5F5F5F5F5F5F5F5F5F5F5F5F5F5F5F5F5F5F5F5F5F5F5F5F5F5F5F5F5F5F5F5F5F5F5F5F5F5F5F5F5F5F5F5F5F5F5F5F5
310
F5F5F5F5F5F5F5F5F5F5F5F5F5F5F5F5F5F5F5F5F5F5F5F5F5F5F5F5F5F5F5E2F5F5F5E2E2EFF5F5F5E2E2E2E2E2E2E2E2F5F5F5F5F5F5F5F5F5E2E2E2E2E2E2E2E2E2E2E2E2E2E2E2E2F5F5F5F5F5F5F5F5E2E2E2E2E2E2E2E2E2E2E2E2E2E2E2E2F5F5F5F5F5F5F5F5F5E2E2E2E2E2E2E2E2E2E2E2E2E2E2E2F5F5F5F5F5
310
F5F5F5F5E2E2E2E2E2E2E2E2E2E2E2E2E2E2E2F5F5F5F5F5F5F5F5F5E2E2E2E2E2E2E2E2E2E2E2E2E2E2E2E2F5F5F5F5F5F5F5F5E2E2E2E2E2E2E2E2E2E2E2E2E2E2E2E2F5F5F5F5F5F5F5F5F5E2E2E2E2E2E2E2E2F5F5F5E2E2EFF5F5F5F5F5F5F5F5F5F5F5F5F5F5F5F5F5F5F5F5F5F5F5F5F5F5F5F5F5F5F5F5F5F5F5F5
310
F5F5F5F5F5F5F5F5F5F5F5F5F5F5F5F5F5F5F5F5F5F5F5F5F5F5F5F5F5F5F5F5F5F5F5F5F5F5F5F5F5F5F5F5F5F5F5F5F5F5F5F5F5F5F5F5F5F5F5F5F5F5F5F5F5F5F5F5F5F5F5F5F5F5F5F5F5F5F5F5F5F5F5F5F5F5F5F5F5F5F5F5F5F5F5F5F5F5F5F5F5F5F5F5F5F5F5F5F5F5F5F5F5F5F5F5F5F5F5F5F5F5F5F5F5F5F5
310
F5F5F5F5F5F5F5F5F5F5F5F5F5F5E2E2EFF5F5F5F5F5F5F5F5F5F5F5F5F5F5F5F5F5F5F5F5F5F5F5F5F5F5F5F5F5F5F5F5F5F5F5F5F5F5F5F5F5F5F5F5F5F5F5F5F5F5F5F5F5F5F5F5F5F5F5F5F5F5F5F5F5F5F5F5F5F5F5F5F5F5F5F5F5F5F5F5F5F5F5F5F5F5F5F5F5F5F5F5F5F5F5F5F5F5F5F5F5F5F5F5F5F5F5F5F5F5
310
F5F5F5F5F5F5F5F5F5F5F5F5F5F5F5F5F5F5F5F5F5F5F5F5F5F5F5F5F5F5F5F5F5F5F5F5F5F5F5F5F5F5F5F5F5F5F5F5F5F5F5F5F5F5F5F5F5F5F5F5F5F5F5F5F5F5F5E2EFEFF5F5F5F5F5F5F5F5F5F5F5F5F5F5F5F5F5F5F5F5F5F5F5F5F5F5F5F5F5F5F5F5F5F5F5F5F5F5F5F5F5F5F5F5F5F5F5F5F5F5F5F5F5F5F5F5F5
310
F5F5F5F5F5F5F5F5F5F5F5F5F5F5F5F5F5F5F5F5F5F5F5F5F5F5F5F5F5F5F5F5F5F5F5F5F5F5F5F5F5F5F5F5F5F5F5F5F5F5F5F5F5F5F5F5F5F5F5F5F5F5F5F5F5F5F5F5F5F5F5F5F5F5F5F5F5F5F5F5F5F5F5F5F5F5F5F5F5F5F5F5F5F5F5F5F5F5F5F5F5F5F5F5F5F5F5F5F5F5F5F5F5F5F5F5F5F5F5F5E2EFEFE2E2E2E2
310
E2E2E2E2E2E2E2E2E2E2E2E2E2E2E2E2E2E2E2E2E2E2E2E2E2E2E2E2E2E2E2E2E2E2E2E2E2E2E2E2E2E2E2E2E2E2E2E2E2E2E2E2E2E2E2E2E2E2E2E2E2E2E2E2E2E2E2E2E2E2E2E2E2E2E2E2E2E2E2E2E2E2E2E2E2E2E2E2E2E2E2E2E2E2E2E2E2E2E2E2E2E2E2E2E2E2E2E2E2E2E2E2E2E2E2E2E2E2E2E2E2E2E2E2E2E2E2
310
E2E2E2E2E2E2E2E2E2E2E2E2E2E2E2E2E2E2E2E2E2E2E2E2E2E2E2E2E2E2E2E2E2E2E2E2E2E2E2E2E2E2E2E2E2E2E2EFEF
  0
ENDSEC
  0
EOF
