  0
SECTION
  2
HEADER
  9
$ACADVER
  1
AC1018
  9
$ACADMAINTVER
 70
     0
  9
$DWGCODEPAGE
  3
ANSI_1252
  9
$AUTHOR
  1
g6edxjah
  9
$LASTSAVEDBY
  1
g6edxjah
  9
$INSBASE
 10
0.0
 20
0.0
 30
0.0
  9
$EXTMIN
 10
102.436719
 20
1.260437
 30
0.0
  9
$EXTMAX
 10
114.186677
 20
10.2605
 30
0.0
  9
$LIMMIN
 10
78.710168
 20
-23.841061
  9
$LIMMAX
 10
137.913228
 20
35.361999
  9
$ORTHOMODE
 70
     0
  9
$REGENMODE
 70
     1
  9
$FILLMODE
 70
     1
  9
$QTEXTMODE
 70
     0
  9
$MIRRTEXT
 70
     0
  9
$LTSCALE
 40
1.0
  9
$ATTMODE
 70
     1
  9
$TEXTSIZE
 40
0.074961
  9
$TRACEWID
 40
0.05
  9
$TEXTSTYLE
  7
Standard
  9
$CLAYER
  8
TEXT
  9
$CELTYPE
  6
Continuous
  9
$CECOLOR
 62
     7
  9
$CELTSCALE
 40
1.0
  9
$DISPSILH
 70
     0
  9
$DIMSCALE
 40
1.0
  9
$DIMASZ
 40
0.074961
  9
$DIMEXO
 40
0.03748
  9
$DIMDLI
 40
0.0
  9
$DIMRND
 40
0.0
  9
$DIMDLE
 40
0.0
  9
$DIMEXE
 40
0.03748
  9
$DIMTP
 40
0.0
  9
$DIMTM
 40
0.0
  9
$DIMTXT
 40
0.074961
  9
$DIMCEN
 40
0.09
  9
$DIMTSZ
 40
0.0
  9
$DIMTOL
 70
     0
  9
$DIMLIM
 70
     0
  9
$DIMTIH
 70
     0
  9
$DIMTOH
 70
     0
  9
$DIMSE1
 70
     0
  9
$DIMSE2
 70
     0
  9
$DIMTAD
 70
     1
  9
$DIMZIN
 70
    11
  9
$DIMBLK
  1
TerminatorOpen_0.5
  9
$DIMASO
 70
     1
  9
$DIMSHO
 70
     1
  9
$DIMPOST
  1

  9
$DIMAPOST
  1

  9
$DIMALT
 70
     0
  9
$DIMALTD
 70
     4
  9
$DIMALTF
 40
25.4
  9
$DIMLFAC
 40
1.0
  9
$DIMTOFL
 70
     0
  9
$DIMTVP
 40
0.0
  9
$DIMTIX
 70
     0
  9
$DIMSOXD
 70
     0
  9
$DIMSAH
 70
     0
  9
$DIMBLK1
  1

  9
$DIMBLK2
  1

  9
$DIMSTYLE
  2
Standard
  9
$DIMCLRD
 70
     0
  9
$DIMCLRE
 70
     0
  9
$DIMCLRT
 70
     0
  9
$DIMTFAC
 40
1.0
  9
$DIMGAP
 40
0.03748
  9
$DIMJUST
 70
     0
  9
$DIMSD1
 70
     0
  9
$DIMSD2
 70
     0
  9
$DIMTOLJ
 70
     0
  9
$DIMTZIN
 70
    11
  9
$DIMALTZ
 70
    15
  9
$DIMALTTZ
 70
    15
  9
$DIMUPT
 70
     0
  9
$DIMDEC
 70
     4
  9
$DIMTDEC
 70
     4
  9
$DIMALTU
 70
     2
  9
$DIMALTTD
 70
     4
  9
$DIMTXSTY
  7
Style-Arial
  9
$DIMAUNIT
 70
     0
  9
$DIMADEC
 70
     4
  9
$DIMALTRND
 40
0.0
  9
$DIMAZIN
 70
     3
  9
$DIMDSEP
 70
    46
  9
$DIMATFIT
 70
     1
  9
$DIMFRAC
 70
     0
  9
$DIMLDRBLK
  1
TerminatorOpen_0.5
  9
$DIMLUNIT
 70
     2
  9
$DIMLWD
 70
    -2
  9
$DIMLWE
 70
    -2
  9
$DIMTMOVE
 70
     0
  9
$LUNITS
 70
     2
  9
$LUPREC
 70
     4
  9
$SKETCHINC
 40
0.1
  9
$FILLETRAD
 40
0.0
  9
$AUNITS
 70
     0
  9
$AUPREC
 70
     4
  9
$MENU
  1
.
  9
$ELEVATION
 40
0.0
  9
$PELEVATION
 40
0.0
  9
$THICKNESS
 40
0.0
  9
$LIMCHECK
 70
     0
  9
$CHAMFERA
 40
0.0
  9
$CHAMFERB
 40
0.0
  9
$CHAMFERC
 40
0.0
  9
$CHAMFERD
 40
0.0
  9
$SKPOLY
 70
     0
  9
$TDCREATE
 40
2455394.590413403
  9
$TDUCREATE
 40
2455394.798746736
  9
$TDUPDATE
 40
2455394.590413403
  9
$TDUUPDATE
 40
2455394.798746736
  9
$TDINDWG
 40
0.0
  9
$TDUSRTIMER
 40
0.0006630093
  9
$USRTIMER
 70
     1
  9
$ANGBASE
 50
0.0
  9
$ANGDIR
 70
     0
  9
$PDMODE
 70
     0
  9
$PDSIZE
 40
0.0
  9
$PLINEWID
 40
0.0
  9
$SPLFRAME
 70
     0
  9
$SPLINETYPE
 70
     6
  9
$SPLINESEGS
 70
     8
  9
$HANDSEED
  5
3B7
  9
$SURFTAB1
 70
     6
  9
$SURFTAB2
 70
     6
  9
$SURFTYPE
 70
     6
  9
$SURFU
 70
     6
  9
$SURFV
 70
     6
  9
$UCSBASE
  2

  9
$UCSNAME
  2

  9
$UCSORG
 10
0.0
 20
0.0
 30
0.0
  9
$UCSXDIR
 10
1.0
 20
0.0
 30
0.0
  9
$UCSYDIR
 10
0.0
 20
1.0
 30
0.0
  9
$UCSORTHOREF
  2

  9
$UCSORTHOVIEW
 70
     0
  9
$UCSORGTOP
 10
0.0
 20
0.0
 30
0.0
  9
$UCSORGBOTTOM
 10
0.0
 20
0.0
 30
0.0
  9
$UCSORGLEFT
 10
0.0
 20
0.0
 30
0.0
  9
$UCSORGRIGHT
 10
0.0
 20
0.0
 30
0.0
  9
$UCSORGFRONT
 10
0.0
 20
0.0
 30
0.0
  9
$UCSORGBACK
 10
0.0
 20
0.0
 30
0.0
  9
$PUCSBASE
  2

  9
$PUCSNAME
  2

  9
$PUCSORG
 10
0.0
 20
0.0
 30
0.0
  9
$PUCSXDIR
 10
1.0
 20
0.0
 30
0.0
  9
$PUCSYDIR
 10
0.0
 20
1.0
 30
0.0
  9
$PUCSORTHOREF
  2

  9
$PUCSORTHOVIEW
 70
     0
  9
$PUCSORGTOP
 10
0.0
 20
0.0
 30
0.0
  9
$PUCSORGBOTTOM
 10
0.0
 20
0.0
 30
0.0
  9
$PUCSORGLEFT
 10
0.0
 20
0.0
 30
0.0
  9
$PUCSORGRIGHT
 10
0.0
 20
0.0
 30
0.0
  9
$PUCSORGFRONT
 10
0.0
 20
0.0
 30
0.0
  9
$PUCSORGBACK
 10
0.0
 20
0.0
 30
0.0
  9
$USERI1
 70
     0
  9
$USERI2
 70
     0
  9
$USERI3
 70
     0
  9
$USERI4
 70
     0
  9
$USERI5
 70
     0
  9
$USERR1
 40
0.0
  9
$USERR2
 40
0.0
  9
$USERR3
 40
0.0
  9
$USERR4
 40
0.0
  9
$USERR5
 40
0.0
  9
$WORLDVIEW
 70
     1
  9
$SHADEDGE
 70
     3
  9
$SHADEDIF
 70
    70
  9
$TILEMODE
 70
     1
  9
$MAXACTVP
 70
    64
  9
$PINSBASE
 10
0.0
 20
0.0
 30
0.0
  9
$PLIMCHECK
 70
     0
  9
$PEXTMIN
 10
1.049744
 20
0.799667
 30
-0.001526
  9
$PEXTMAX
 10
9.450623
 20
7.200577
 30
0.0
  9
$PLIMMIN
 10
-0.25
 20
-0.25
  9
$PLIMMAX
 10
10.75
 20
8.25
  9
$UNITMODE
 70
     0
  9
$VISRETAIN
 70
     1
  9
$PLINEGEN
 70
     0
  9
$PSLTSCALE
 70
     0
  9
$TREEDEPTH
 70
  3020
  9
$CMLSTYLE
  2
Standard
  9
$CMLJUST
 70
     0
  9
$CMLSCALE
 40
1.0
  9
$PROXYGRAPHICS
 70
     1
  9
$MEASUREMENT
 70
     0
  9
$CELWEIGHT
370
     0
  9
$ENDCAPS
280
     0
  9
$JOINSTYLE
280
     0
  9
$LWDISPLAY
290
     1
  9
$INSUNITS
 70
     2
  9
$HYPERLINKBASE
  1

  9
$STYLESHEET
  1

  9
$XEDIT
290
     1
  9
$CEPSNTYPE
380
     0
  9
$PSTYLEMODE
290
     1
  9
$FINGERPRINTGUID
  2
{02C0BBB5-38A7-4FBF-829E-00875EC88963}
  9
$VERSIONGUID
  2
{82C521FC-BF81-46B3-825E-420B6BD93A99}
  9
$EXTNAMES
290
     1
  9
$PSVPSCALE
 40
0.0
  9
$OLESTARTUP
290
     0
  9
$SORTENTS
280
   127
  9
$INDEXCTL
280
     0
  9
$HIDETEXT
280
     1
  9
$XCLIPFRAME
290
     0
  9
$HALOGAP
280
     0
  9
$OBSCOLOR
 70
   257
  9
$OBSLTYPE
280
     0
  9
$INTERSECTIONDISPLAY
280
     0
  9
$INTERSECTIONCOLOR
 70
   257
  9
$DIMASSOC
280
     1
  9
$PROJECTNAME
  1

  0
ENDSEC
  0
SECTION
  2
CLASSES
  0
CLASS
  1
ACDBDICTIONARYWDFLT
  2
AcDbDictionaryWithDefault
  3
ObjectDBX Classes
 90
        0
 91
        3
280
     0
281
     0
  0
CLASS
  1
SORTENTSTABLE
  2
AcDbSortentsTable
  3
ObjectDBX Classes
 90
        0
 91
        3
280
     0
281
     0
  0
ENDSEC
  0
SECTION
  2
TABLES
  0
TABLE
  2
VPORT
  5
39E
330
0
100
AcDbSymbolTable
 70
     4
  0
VPORT
  5
49
330
39E
100
AcDbSymbolTableRecord
100
AcDbViewportTableRecord
  2
*ACTIVE
 70
     0
 10
0.0
 20
0.0
 11
1.0
 21
1.0
 12
108.311698
 22
5.760469
 13
0.0
 23
0.0
 14
0.083333
 24
0.083333
 15
0.083333
 25
0.083333
 16
0.0
 26
0.0
 36
1.0
 17
0.0
 27
0.0
 37
0.0
 40
9.360065
 41
1.884937
 42
50.0
 43
0.0
 44
0.0
 50
0.0
 51
0.0
 71
     0
 72
   100
 73
     1
 74
     2
 75
     0
 76
     0
 77
     0
 78
     1
281
     0
 65
     1
110
0.0
120
0.0
130
0.0
111
1.0
121
0.0
131
0.0
112
0.0
122
1.0
132
0.0
 79
     0
146
0.0
  0
ENDTAB
  0
TABLE
  2
LTYPE
  5
385
330
0
100
AcDbSymbolTable
 70
     1
  0
LTYPE
  5
386
330
385
100
AcDbSymbolTableRecord
100
AcDbLinetypeTableRecord
  2
ByBlock
 70
     0
  3

 72
    65
 73
     0
 40
0.0
  0
LTYPE
  5
387
330
385
100
AcDbSymbolTableRecord
100
AcDbLinetypeTableRecord
  2
ByLayer
 70
     0
  3

 72
    65
 73
     0
 40
0.0
  0
LTYPE
  5
384
330
385
100
AcDbSymbolTableRecord
100
AcDbLinetypeTableRecord
  2
Continuous
 70
     0
  3
Solid line
 72
    65
 73
     0
 40
0.0
  0
ENDTAB
  0
TABLE
  2
LAYER
  5
37E
102
{ACAD_XDICTIONARY
360
37F
102
}
330
0
100
AcDbSymbolTable
 70
    64
  0
LAYER
  5
37D
330
37E
100
AcDbSymbolTableRecord
100
AcDbLayerTableRecord
  2
0
 70
     0
 62
     7
  6
Continuous
370
    -3
390
381
  0
LAYER
  5
7
330
37E
100
AcDbSymbolTableRecord
100
AcDbLayerTableRecord
  2
Level 1
 70
     0
 62
     7
  6
Continuous
370
     0
390
381
  0
LAYER
  5
8
330
37E
100
AcDbSymbolTableRecord
100
AcDbLayerTableRecord
  2
2-4A
 70
     0
 62
     7
  6
Continuous
370
     0
390
381
1001
AcAecLayerStandard
1000

1000
2-4A
  0
LAYER
  5
9
330
37E
100
AcDbSymbolTableRecord
100
AcDbLayerTableRecord
  2
BORDER
 70
     0
 62
     7
  6
Continuous
370
     0
390
381
1001
AcAecLayerStandard
1000

1000
BORDER
  0
LAYER
  5
A
330
37E
100
AcDbSymbolTableRecord
100
AcDbLayerTableRecord
  2
DEFPOINTS
 70
     0
 62
     7
  6
Continuous
290
     0
370
     0
390
381
1001
AcAecLayerStandard
1000

1000
DEFPOINTS
  0
LAYER
  5
B
330
37E
100
AcDbSymbolTableRecord
100
AcDbLayerTableRecord
  2
REF
 70
     0
 62
     7
  6
Continuous
370
     0
390
381
1001
AcAecLayerStandard
1000

1000
REF
  0
LAYER
  5
C
330
37E
100
AcDbSymbolTableRecord
100
AcDbLayerTableRecord
  2
TEXT
 70
     0
 62
     7
  6
Continuous
370
     0
390
381
1001
AcAecLayerStandard
1000

1000
TEXT
  0
LAYER
  5
D
330
37E
100
AcDbSymbolTableRecord
100
AcDbLayerTableRecord
  2
TITLE
 70
     0
 62
     7
  6
Continuous
370
     0
390
381
1001
AcAecLayerStandard
1000

1000
TITLE
  0
LAYER
  5
E
330
37E
100
AcDbSymbolTableRecord
100
AcDbLayerTableRecord
  2
Level 8
 70
     0
 62
     7
  6
Continuous
370
     0
390
381
  0
LAYER
  5
F
330
37E
100
AcDbSymbolTableRecord
100
AcDbLayerTableRecord
  2
Level 9
 70
     0
 62
     7
  6
Continuous
370
     0
390
381
  0
LAYER
  5
10
330
37E
100
AcDbSymbolTableRecord
100
AcDbLayerTableRecord
  2
Level 10
 70
     0
 62
     7
  6
Continuous
370
     0
390
381
  0
LAYER
  5
11
330
37E
100
AcDbSymbolTableRecord
100
AcDbLayerTableRecord
  2
Level 11
 70
     0
 62
     7
  6
Continuous
370
     0
390
381
  0
LAYER
  5
12
330
37E
100
AcDbSymbolTableRecord
100
AcDbLayerTableRecord
  2
Level 12
 70
     0
 62
     7
  6
Continuous
370
     0
390
381
  0
LAYER
  5
13
330
37E
100
AcDbSymbolTableRecord
100
AcDbLayerTableRecord
  2
Level 13
 70
     0
 62
     7
  6
Continuous
370
     0
390
381
  0
LAYER
  5
14
330
37E
100
AcDbSymbolTableRecord
100
AcDbLayerTableRecord
  2
Level 14
 70
     0
 62
     7
  6
Continuous
370
     0
390
381
  0
LAYER
  5
15
330
37E
100
AcDbSymbolTableRecord
100
AcDbLayerTableRecord
  2
Level 15
 70
     0
 62
     7
  6
Continuous
370
     0
390
381
  0
LAYER
  5
16
330
37E
100
AcDbSymbolTableRecord
100
AcDbLayerTableRecord
  2
Level 16
 70
     0
 62
     7
  6
Continuous
370
     0
390
381
  0
LAYER
  5
17
330
37E
100
AcDbSymbolTableRecord
100
AcDbLayerTableRecord
  2
Level 17
 70
     0
 62
     7
  6
Continuous
370
     0
390
381
  0
LAYER
  5
18
330
37E
100
AcDbSymbolTableRecord
100
AcDbLayerTableRecord
  2
Level 18
 70
     0
 62
     7
  6
Continuous
370
     0
390
381
  0
LAYER
  5
19
330
37E
100
AcDbSymbolTableRecord
100
AcDbLayerTableRecord
  2
Level 19
 70
     0
 62
     7
  6
Continuous
370
     0
390
381
  0
LAYER
  5
1A
330
37E
100
AcDbSymbolTableRecord
100
AcDbLayerTableRecord
  2
Level 20
 70
     0
 62
     7
  6
Continuous
370
     0
390
381
  0
LAYER
  5
1B
330
37E
100
AcDbSymbolTableRecord
100
AcDbLayerTableRecord
  2
Level 21
 70
     0
 62
     7
  6
Continuous
370
     0
390
381
  0
LAYER
  5
1C
330
37E
100
AcDbSymbolTableRecord
100
AcDbLayerTableRecord
  2
Level 22
 70
     0
 62
     7
  6
Continuous
370
     0
390
381
  0
LAYER
  5
1D
330
37E
100
AcDbSymbolTableRecord
100
AcDbLayerTableRecord
  2
Level 23
 70
     0
 62
     7
  6
Continuous
370
     0
390
381
  0
LAYER
  5
1E
330
37E
100
AcDbSymbolTableRecord
100
AcDbLayerTableRecord
  2
Level 24
 70
     0
 62
     7
  6
Continuous
370
     0
390
381
  0
LAYER
  5
1F
330
37E
100
AcDbSymbolTableRecord
100
AcDbLayerTableRecord
  2
Level 25
 70
     0
 62
     7
  6
Continuous
370
     0
390
381
  0
LAYER
  5
20
330
37E
100
AcDbSymbolTableRecord
100
AcDbLayerTableRecord
  2
Level 26
 70
     0
 62
     7
  6
Continuous
370
     0
390
381
  0
LAYER
  5
21
330
37E
100
AcDbSymbolTableRecord
100
AcDbLayerTableRecord
  2
Level 27
 70
     0
 62
     7
  6
Continuous
370
     0
390
381
  0
LAYER
  5
22
330
37E
100
AcDbSymbolTableRecord
100
AcDbLayerTableRecord
  2
Level 28
 70
     0
 62
     7
  6
Continuous
370
     0
390
381
  0
LAYER
  5
23
330
37E
100
AcDbSymbolTableRecord
100
AcDbLayerTableRecord
  2
Level 29
 70
     0
 62
     7
  6
Continuous
370
     0
390
381
  0
LAYER
  5
24
330
37E
100
AcDbSymbolTableRecord
100
AcDbLayerTableRecord
  2
Level 30
 70
     0
 62
     7
  6
Continuous
370
     0
390
381
  0
LAYER
  5
25
330
37E
100
AcDbSymbolTableRecord
100
AcDbLayerTableRecord
  2
Level 31
 70
     0
 62
     7
  6
Continuous
370
     0
390
381
  0
LAYER
  5
26
330
37E
100
AcDbSymbolTableRecord
100
AcDbLayerTableRecord
  2
Level 32
 70
     0
 62
     7
  6
Continuous
370
     0
390
381
  0
LAYER
  5
27
330
37E
100
AcDbSymbolTableRecord
100
AcDbLayerTableRecord
  2
Level 33
 70
     0
 62
     7
  6
Continuous
370
     0
390
381
  0
LAYER
  5
28
330
37E
100
AcDbSymbolTableRecord
100
AcDbLayerTableRecord
  2
Level 34
 70
     0
 62
     7
  6
Continuous
370
     0
390
381
  0
LAYER
  5
29
330
37E
100
AcDbSymbolTableRecord
100
AcDbLayerTableRecord
  2
Level 35
 70
     0
 62
     7
  6
Continuous
370
     0
390
381
  0
LAYER
  5
2A
330
37E
100
AcDbSymbolTableRecord
100
AcDbLayerTableRecord
  2
Level 36
 70
     0
 62
     7
  6
Continuous
370
     0
390
381
  0
LAYER
  5
2B
330
37E
100
AcDbSymbolTableRecord
100
AcDbLayerTableRecord
  2
Level 37
 70
     0
 62
     7
  6
Continuous
370
     0
390
381
  0
LAYER
  5
2C
330
37E
100
AcDbSymbolTableRecord
100
AcDbLayerTableRecord
  2
Level 38
 70
     0
 62
     7
  6
Continuous
370
     0
390
381
  0
LAYER
  5
2D
330
37E
100
AcDbSymbolTableRecord
100
AcDbLayerTableRecord
  2
Level 39
 70
     0
 62
     7
  6
Continuous
370
     0
390
381
  0
LAYER
  5
2E
330
37E
100
AcDbSymbolTableRecord
100
AcDbLayerTableRecord
  2
Level 40
 70
     0
 62
     7
  6
Continuous
370
     0
390
381
  0
LAYER
  5
2F
330
37E
100
AcDbSymbolTableRecord
100
AcDbLayerTableRecord
  2
Level 41
 70
     0
 62
     7
  6
Continuous
370
     0
390
381
  0
LAYER
  5
30
330
37E
100
AcDbSymbolTableRecord
100
AcDbLayerTableRecord
  2
Level 42
 70
     0
 62
     7
  6
Continuous
370
     0
390
381
  0
LAYER
  5
31
330
37E
100
AcDbSymbolTableRecord
100
AcDbLayerTableRecord
  2
Level 43
 70
     0
 62
     7
  6
Continuous
370
     0
390
381
  0
LAYER
  5
32
330
37E
100
AcDbSymbolTableRecord
100
AcDbLayerTableRecord
  2
Level 44
 70
     0
 62
     7
  6
Continuous
370
     0
390
381
  0
LAYER
  5
33
330
37E
100
AcDbSymbolTableRecord
100
AcDbLayerTableRecord
  2
Level 45
 70
     0
 62
     7
  6
Continuous
370
     0
390
381
  0
LAYER
  5
34
330
37E
100
AcDbSymbolTableRecord
100
AcDbLayerTableRecord
  2
Level 46
 70
     0
 62
     7
  6
Continuous
370
     0
390
381
  0
LAYER
  5
35
330
37E
100
AcDbSymbolTableRecord
100
AcDbLayerTableRecord
  2
Level 47
 70
     0
 62
     7
  6
Continuous
370
     0
390
381
  0
LAYER
  5
36
330
37E
100
AcDbSymbolTableRecord
100
AcDbLayerTableRecord
  2
Level 48
 70
     0
 62
     7
  6
Continuous
370
     0
390
381
  0
LAYER
  5
37
330
37E
100
AcDbSymbolTableRecord
100
AcDbLayerTableRecord
  2
Level 49
 70
     0
 62
     7
  6
Continuous
370
     0
390
381
  0
LAYER
  5
38
330
37E
100
AcDbSymbolTableRecord
100
AcDbLayerTableRecord
  2
Level 50
 70
     0
 62
     7
  6
Continuous
370
     0
390
381
  0
LAYER
  5
39
330
37E
100
AcDbSymbolTableRecord
100
AcDbLayerTableRecord
  2
Level 51
 70
     0
 62
     7
  6
Continuous
370
     0
390
381
  0
LAYER
  5
3A
330
37E
100
AcDbSymbolTableRecord
100
AcDbLayerTableRecord
  2
Level 52
 70
     0
 62
     7
  6
Continuous
370
     0
390
381
  0
LAYER
  5
3B
330
37E
100
AcDbSymbolTableRecord
100
AcDbLayerTableRecord
  2
Level 53
 70
     0
 62
     7
  6
Continuous
370
     0
390
381
  0
LAYER
  5
3C
330
37E
100
AcDbSymbolTableRecord
100
AcDbLayerTableRecord
  2
Level 54
 70
     0
 62
     7
  6
Continuous
370
     0
390
381
  0
LAYER
  5
3D
330
37E
100
AcDbSymbolTableRecord
100
AcDbLayerTableRecord
  2
Level 55
 70
     0
 62
     7
  6
Continuous
370
     0
390
381
  0
LAYER
  5
3E
330
37E
100
AcDbSymbolTableRecord
100
AcDbLayerTableRecord
  2
Level 56
 70
     0
 62
     7
  6
Continuous
370
     0
390
381
  0
LAYER
  5
3F
330
37E
100
AcDbSymbolTableRecord
100
AcDbLayerTableRecord
  2
Level 57
 70
     0
 62
     7
  6
Continuous
370
     0
390
381
  0
LAYER
  5
40
330
37E
100
AcDbSymbolTableRecord
100
AcDbLayerTableRecord
  2
Level 58
 70
     0
 62
     7
  6
Continuous
370
     0
390
381
  0
LAYER
  5
41
330
37E
100
AcDbSymbolTableRecord
100
AcDbLayerTableRecord
  2
Level 59
 70
     0
 62
     7
  6
Continuous
370
     0
390
381
  0
LAYER
  5
42
330
37E
100
AcDbSymbolTableRecord
100
AcDbLayerTableRecord
  2
Level 60
 70
     0
 62
     7
  6
Continuous
370
     0
390
381
  0
LAYER
  5
43
330
37E
100
AcDbSymbolTableRecord
100
AcDbLayerTableRecord
  2
Level 61
 70
     0
 62
     7
  6
Continuous
370
     0
390
381
  0
LAYER
  5
44
330
37E
100
AcDbSymbolTableRecord
100
AcDbLayerTableRecord
  2
Level 62
 70
     0
 62
     7
  6
Continuous
370
     0
390
381
  0
LAYER
  5
45
330
37E
100
AcDbSymbolTableRecord
100
AcDbLayerTableRecord
  2
_0
 70
     0
 62
     7
  6
Continuous
370
     0
390
381
1001
AcAecLayerStandard
1000

1000
0
  0
ENDTAB
  0
TABLE
  2
STYLE
  5
389
330
0
100
AcDbSymbolTable
 70
     2
  0
STYLE
  5
388
330
389
100
AcDbSymbolTableRecord
100
AcDbTextStyleTableRecord
  2
Standard
 70
     0
 40
0.0
 41
1.0
 50
0.0
 71
     0
 42
0.074961
  3
txt
  4

  0
STYLE
  5
3A8
330
389
100
AcDbSymbolTableRecord
100
AcDbTextStyleTableRecord
  2
Style-Arial
 70
     0
 40
0.0
 41
1.0
 50
0.0
 71
     0
 42
0.2
  3

  4

1001
ACAD
1000
Arial
1071
       39
  0
ENDTAB
  0
TABLE
  2
VIEW
  5
39C
330
0
100
AcDbSymbolTable
 70
     0
  0
ENDTAB
  0
TABLE
  2
UCS
  5
39D
330
0
100
AcDbSymbolTable
 70
     0
  0
ENDTAB
  0
TABLE
  2
APPID
  5
39B
330
0
100
AcDbSymbolTable
 70
     3
  0
APPID
  5
3A3
330
39B
100
AcDbSymbolTableRecord
100
AcDbRegAppTableRecord
  2
ACAD
 70
     0
  0
APPID
  5
39A
330
39B
100
AcDbSymbolTableRecord
100
AcDbRegAppTableRecord
  2
ACAD_PSEXT
 70
     0
  0
APPID
  5
3A5
330
39B
100
AcDbSymbolTableRecord
100
AcDbRegAppTableRecord
  2
AcAecLayerStandard
 70
     0
  0
ENDTAB
  0
TABLE
  2
DIMSTYLE
  5
38B
330
0
100
AcDbSymbolTable
 70
     1
100
AcDbDimStyleTable
  0
DIMSTYLE
105
38A
330
38B
100
AcDbSymbolTableRecord
100
AcDbDimStyleTableRecord
  2
Standard
 70
     0
340
388
  0
ENDTAB
  0
TABLE
  2
BLOCK_RECORD
  5
38E
330
0
100
AcDbSymbolTable
 70
     1
  0
BLOCK_RECORD
  5
38F
102
{ACAD_XDICTIONARY
360
3B2
102
}
330
38E
100
AcDbSymbolTableRecord
100
AcDbBlockTableRecord
  2
*Model_Space
340
392
  0
BLOCK_RECORD
  5
394
330
38E
100
AcDbSymbolTableRecord
100
AcDbBlockTableRecord
  2
*Paper_Space
340
397
  0
BLOCK_RECORD
  5
3A9
330
38E
100
AcDbSymbolTableRecord
100
AcDbBlockTableRecord
  2
TerminatorOpen_0.5
340
0
  0
ENDTAB
  0
ENDSEC
  0
SECTION
  2
BLOCKS
  0
BLOCK
  5
390
330
38F
100
AcDbEntity
  8
0
100
AcDbBlockBegin
  2
*Model_Space
 70
     0
 71
     0
 10
0.0
 20
0.0
 30
0.0
  3
*Model_Space
  1

  0
ENDBLK
  5
391
330
38F
100
AcDbEntity
  8
0
100
AcDbBlockEnd
  0
BLOCK
  5
395
330
394
100
AcDbEntity
 67
     1
  8
0
100
AcDbBlockBegin
  2
*Paper_Space
 70
     0
 71
     0
 10
0.0
 20
0.0
 30
0.0
  3
*Paper_Space
  1

  0
ENDBLK
  5
396
330
394
100
AcDbEntity
 67
     1
  8
0
100
AcDbBlockEnd
  0
BLOCK
  5
3AD
330
3A9
100
AcDbEntity
  8
0
100
AcDbBlockBegin
  2
TerminatorOpen_0.5
 70
     0
 71
     0
 10
0.0
 20
0.0
 30
0.0
  3
TerminatorOpen_0.5
  1

  0
LINE
  5
3AA
330
3A9
100
AcDbEntity
  8
0
  6
ByBlock
 62
     0
370
    -2
100
AcDbLine
 10
0.0
 20
0.0
 30
0.0
 11
-1.0
 21
0.0
 31
0.0
  0
LINE
  5
3AB
330
3A9
100
AcDbEntity
  8
0
  6
ByBlock
 62
     0
370
    -2
100
AcDbLine
 10
0.0
 20
0.0
 30
0.0
 11
-1.0
 21
0.25
 31
0.0
  0
LINE
  5
3AC
330
3A9
100
AcDbEntity
  8
0
  6
ByBlock
 62
     0
370
    -2
100
AcDbLine
 10
0.0
 20
0.0
 30
0.0
 11
-1.0
 21
-0.25
 31
0.0
  0
ENDBLK
  5
3AE
330
3A9
100
AcDbEntity
  8
0
100
AcDbBlockEnd
  0
ENDSEC
  0
SECTION
  2
ENTITIES
  0
LINE
  5
5B
330
38F
100
AcDbEntity
  8
_0
  6
Continuous
 62
     7
370
    30
100
AcDbLine
 10
102.936719
 20
10.2605
 30
0.0
 11
102.936719
 21
9.7605
 31
0.0
  0
LINE
  5
5C
330
38F
100
AcDbEntity
  8
_0
  6
Continuous
 62
     7
370
    30
100
AcDbLine
 10
102.436719
 20
9.7605
 30
0.0
 11
102.936719
 21
9.7605
 31
0.0
  0
LINE
  5
5D
330
38F
100
AcDbEntity
  8
_0
  6
Continuous
 62
     7
370
    30
100
AcDbLine
 10
102.436719
 20
1.760437
 30
0.0
 11
102.936719
 21
1.760437
 31
0.0
  0
LINE
  5
5E
330
38F
100
AcDbEntity
  8
_0
  6
Continuous
 62
     7
370
    30
100
AcDbLine
 10
102.936719
 20
1.760437
 30
0.0
 11
102.936719
 21
1.260437
 31
0.0
  0
LINE
  5
5F
330
38F
100
AcDbEntity
  8
_0
  6
Continuous
 62
     7
370
    30
100
AcDbLine
 10
113.686677
 20
10.2605
 30
0.0
 11
113.686677
 21
9.7605
 31
0.0
  0
LINE
  5
60
330
38F
100
AcDbEntity
  8
_0
  6
Continuous
 62
     7
370
    30
100
AcDbLine
 10
113.686677
 20
9.7605
 30
0.0
 11
114.186677
 21
9.7605
 31
0.0
  0
LINE
  5
61
330
38F
100
AcDbEntity
  8
_0
  6
Continuous
 62
     7
370
    30
100
AcDbLine
 10
113.686677
 20
1.760437
 30
0.0
 11
114.186677
 21
1.760437
 31
0.0
  0
LINE
  5
62
330
38F
100
AcDbEntity
  8
_0
  6
Continuous
 62
     7
370
    30
100
AcDbLine
 10
113.686677
 20
1.760437
 30
0.0
 11
113.686677
 21
1.260437
 31
0.0
  0
LINE
  5
63
330
38F
100
AcDbEntity
  8
Level 1
  6
Continuous
 62
     7
370
    13
100
AcDbLine
 10
106.49624
 20
8.777302
 30
0.0
 11
106.49624
 21
7.382552
 31
0.0
  0
LINE
  5
64
330
38F
100
AcDbEntity
  8
Level 1
  6
Continuous
 62
     7
370
    13
100
AcDbLine
 10
106.47276
 20
8.847031
 30
0.0
 11
106.47276
 21
8.779365
 31
0.0
  0
LINE
  5
65
330
38F
100
AcDbEntity
  8
Level 1
  6
Continuous
 62
     7
370
    13
100
AcDbLine
 10
106.522479
 20
8.847719
 30
0.0
 11
106.522479
 21
7.388083
 31
0.0
  0
LINE
  5
66
330
38F
100
AcDbEntity
  8
Level 1
  6
Continuous
 62
     7
370
    13
100
AcDbLine
 10
106.594292
 20
8.85325
 30
0.0
 11
106.594292
 21
7.38601
 31
0.0
  0
LINE
  5
67
330
38F
100
AcDbEntity
  8
Level 1
  6
Continuous
 62
     7
370
    13
100
AcDbLine
 10
106.628115
 20
8.853937
 30
0.0
 11
106.628115
 21
7.384625
 31
0.0
  0
LINE
  5
68
330
38F
100
AcDbEntity
  8
Level 1
  6
Continuous
 62
     7
370
    13
100
AcDbLine
 10
106.662635
 20
8.773844
 30
0.0
 11
106.662635
 21
7.390156
 31
0.0
  0
LINE
  5
69
330
38F
100
AcDbEntity
  8
Level 1
  6
Continuous
 62
     7
370
    13
100
AcDbLine
 10
106.245594
 20
8.773156
 30
0.0
 11
106.245594
 21
7.390844
 31
0.0
  0
LINE
  5
6A
330
38F
100
AcDbEntity
  8
Level 1
  6
Continuous
 62
     7
370
    13
100
AcDbLine
 10
106.89326
 20
8.775906
 30
0.0
 11
106.89326
 21
7.391531
 31
0.0
  0
LINE
  5
6B
330
38F
100
AcDbEntity
  8
Level 1
  6
Continuous
 62
     7
370
    13
100
AcDbLine
 10
107.159083
 20
8.771083
 30
0.0
 11
107.159083
 21
7.389458
 31
0.0
  0
LINE
  5
6C
330
38F
100
AcDbEntity
  8
Level 1
  6
Continuous
 62
     7
370
    13
100
AcDbLine
 10
107.421458
 20
8.77799
 30
0.0
 11
107.421458
 21
7.390156
 31
0.0
  0
LINE
  5
6D
330
38F
100
AcDbEntity
  8
Level 1
  6
Continuous
 62
     7
370
    13
100
AcDbLine
 10
107.671406
 20
8.773156
 30
0.0
 11
107.671406
 21
7.396365
 31
0.0
  0
LINE
  5
6E
330
38F
100
AcDbEntity
  8
Level 1
  6
Continuous
 62
     7
370
    13
100
AcDbLine
 10
107.924115
 20
8.774531
 30
0.0
 11
107.924115
 21
7.401896
 31
0.0
  0
LINE
  5
6F
330
38F
100
AcDbEntity
  8
Level 1
  6
Continuous
 62
     7
370
    13
100
AcDbLine
 10
108.155417
 20
8.773844
 30
0.0
 11
108.155417
 21
7.398438
 31
0.0
  0
LINE
  5
70
330
38F
100
AcDbEntity
  8
Level 1
  6
Continuous
 62
     7
370
    13
100
AcDbLine
 10
108.194094
 20
8.85601
 30
0.0
 11
108.194094
 21
7.39775
 31
0.0
  0
LINE
  5
71
330
38F
100
AcDbEntity
  8
Level 1
  6
Continuous
 62
     7
370
    13
100
AcDbLine
 10
108.228615
 20
8.85325
 30
0.0
 11
108.228615
 21
7.397062
 31
0.0
  0
LINE
  5
72
330
38F
100
AcDbEntity
  8
Level 1
  6
Continuous
 62
     7
370
    13
100
AcDbLine
 10
108.292823
 20
8.857385
 30
0.0
 11
108.292823
 21
7.398438
 31
0.0
  0
LINE
  5
73
330
38F
100
AcDbEntity
  8
Level 1
  6
Continuous
 62
     7
370
    13
100
AcDbLine
 10
108.314917
 20
8.775906
 30
0.0
 11
108.314917
 21
7.403271
 31
0.0
  0
LINE
  5
74
330
38F
100
AcDbEntity
  8
Level 1
  6
Continuous
 62
     7
370
    13
100
AcDbLine
 10
108.339781
 20
8.858083
 30
0.0
 11
108.339781
 21
8.774531
 31
0.0
  0
LINE
  5
75
330
38F
100
AcDbEntity
  8
Level 1
  6
Continuous
 62
     7
370
    13
100
AcDbLine
 10
108.562792
 20
8.775906
 30
0.0
 11
108.562792
 21
7.403958
 31
0.0
  0
CIRCLE
  5
76
330
38F
100
AcDbEntity
  8
Level 1
  6
Continuous
 62
     7
370
    13
100
AcDbCircle
 10
108.034387
 20
7.57651
 30
0.0
 40
0.03245179337125
  0
CIRCLE
  5
77
330
38F
100
AcDbEntity
  8
Level 1
  6
Continuous
 62
     7
370
    13
100
AcDbCircle
 10
108.42077
 20
7.57651
 30
0.0
 40
0.03245179337125
  0
CIRCLE
  5
78
330
38F
100
AcDbEntity
  8
Level 1
  6
Continuous
 62
     7
370
    13
100
AcDbCircle
 10
107.554791
 20
7.57651
 30
0.0
 40
0.03245179337125
  0
CIRCLE
  5
79
330
38F
100
AcDbEntity
  8
Level 1
  6
Continuous
 62
     7
370
    13
100
AcDbCircle
 10
107.038048
 20
7.57651
 30
0.0
 40
0.03245179337125
  0
CIRCLE
  5
7A
330
38F
100
AcDbEntity
  8
Level 1
  6
Continuous
 62
     7
370
    13
100
AcDbCircle
 10
106.395019
 20
7.57651
 30
0.0
 40
0.03245179337125
  0
CIRCLE
  5
7B
330
38F
100
AcDbEntity
  8
Level 1
  6
Continuous
 62
     7
370
    13
100
AcDbCircle
 10
106.395019
 20
8.662609
 30
0.0
 40
0.03245179337125
  0
CIRCLE
  5
7C
330
38F
100
AcDbEntity
  8
Level 1
  6
Continuous
 62
     7
370
    13
100
AcDbCircle
 10
106.792174
 20
8.103403
 30
0.0
 40
0.03245179337125
  0
CIRCLE
  5
7D
330
38F
100
AcDbEntity
  8
Level 1
  6
Continuous
 62
     7
370
    13
100
AcDbCircle
 10
107.290619
 20
8.103403
 30
0.0
 40
0.032520839740125
  0
CIRCLE
  5
7E
330
38F
100
AcDbEntity
  8
Level 1
  6
Continuous
 62
     7
370
    13
100
AcDbCircle
 10
107.796039
 20
8.103403
 30
0.0
 40
0.03245179337125
  0
CIRCLE
  5
7F
330
38F
100
AcDbEntity
  8
Level 1
  6
Continuous
 62
     7
370
    13
100
AcDbCircle
 10
108.032522
 20
8.662609
 30
0.0
 40
0.03245179337125
  0
CIRCLE
  5
80
330
38F
100
AcDbEntity
  8
Level 1
  6
Continuous
 62
     7
370
    13
100
AcDbCircle
 10
108.42443
 20
8.662609
 30
0.0
 40
0.03245179337125
  0
LWPOLYLINE
  5
81
330
38F
100
AcDbEntity
  8
Level 1
  6
Continuous
 62
     7
370
    13
100
AcDbPolyline
 90
        5
 70
   128
 43
0.0
 10
107.087969
 20
6.270219
 10
110.003104
 20
6.270219
 10
110.003104
 20
6.052031
 10
107.083135
 20
6.052031
 10
107.083135
 20
6.277823
  0
LWPOLYLINE
  5
82
330
38F
100
AcDbEntity
  8
Level 1
  6
Continuous
 62
     7
370
    13
100
AcDbPolyline
 90
        3
 70
   128
 43
0.0
 10
107.083823
 20
6.270219
 10
106.769667
 20
6.270219
 10
106.769667
 20
6.453198
  0
LINE
  5
83
330
38F
100
AcDbEntity
  8
Level 1
  6
Continuous
 62
     7
370
    13
100
AcDbLine
 10
110.307604
 20
6.241906
 30
0.0
 11
111.453083
 21
6.241906
 31
0.0
  0
LINE
  5
84
330
38F
100
AcDbEntity
  8
Level 1
  6
Continuous
 62
     7
370
    13
100
AcDbLine
 10
106.756552
 20
6.230177
 30
0.0
 11
106.085417
 21
6.230177
 31
0.0
  0
LWPOLYLINE
  5
85
330
38F
100
AcDbEntity
  8
Level 1
  6
Continuous
 62
     7
370
    13
100
AcDbPolyline
 90
        5
 70
   128
 43
0.0
 10
106.767594
 20
6.262625
 10
106.767594
 20
5.810375
 10
108.568323
 20
5.86975
 10
110.309677
 20
5.803469
 10
110.309677
 20
6.281271
  0
LINE
  5
86
330
38F
100
AcDbEntity
  8
Level 1
  6
Continuous
 62
     7
370
    13
100
AcDbLine
 10
107.402135
 20
6.4525
 30
0.0
 11
107.402135
 21
6.27574
 31
0.0
  0
LWPOLYLINE
  5
87
330
38F
100
AcDbEntity
  8
Level 1
  6
Continuous
 62
     7
370
    13
100
AcDbPolyline
 90
        4
 70
   128
 43
0.0
 10
107.549885
 20
6.273667
 10
107.549885
 20
6.300604
 10
107.837812
 20
6.300604
 10
107.837812
 20
6.279896
  0
LWPOLYLINE
  5
88
330
38F
100
AcDbEntity
  8
Level 1
  6
Continuous
 62
     7
370
    13
100
AcDbPolyline
 90
        4
 70
   128
 43
0.0
 10
107.64725
 20
6.459406
 10
107.64725
 20
6.3365
 10
107.588552
 20
6.3365
 10
107.588552
 20
6.30751
  0
LWPOLYLINE
  5
89
330
38F
100
AcDbEntity
  8
Level 1
  6
Continuous
 62
     7
370
    13
100
AcDbPolyline
 90
        4
 70
   128
 43
0.0
 10
107.797771
 20
6.462167
 10
107.797771
 20
6.319927
 10
107.846792
 20
6.319927
 10
107.846792
 20
6.27299
  0
LINE
  5
8A
330
38F
100
AcDbEntity
  8
Level 1
  6
Continuous
 62
     7
370
    13
100
AcDbLine
 10
107.699031
 20
6.417979
 30
0.0
 11
107.699031
 21
6.343406
 31
0.0
  0
LINE
  5
8B
330
38F
100
AcDbEntity
  8
Level 1
  6
Continuous
 62
     7
370
    13
100
AcDbLine
 10
107.701792
 20
6.42074
 30
0.0
 11
107.701792
 21
6.3365
 31
0.0
  0
LWPOLYLINE
  5
8C
330
38F
100
AcDbEntity
  8
Level 1
  6
Continuous
 62
     7
370
    13
100
AcDbPolyline
 90
        4
 70
   128
 43
0.0
 10
107.625833
 20
6.298531
 10
107.625833
 20
6.316479
 10
107.791552
 20
6.316479
 10
107.791552
 20
6.301979
  0
LINE
  5
8D
330
38F
100
AcDbEntity
  8
Level 1
  6
Continuous
 62
     7
370
    13
100
AcDbLine
 10
107.704552
 20
6.397958
 30
0.0
 11
107.803292
 21
6.397958
 31
0.0
  0
LINE
  5
8E
330
38F
100
AcDbEntity
  8
Level 1
  6
Continuous
 62
     7
370
    13
100
AcDbLine
 10
108.034594
 20
6.460104
 30
0.0
 11
108.034594
 21
6.286104
 31
0.0
  0
LINE
  5
8F
330
38F
100
AcDbEntity
  8
Level 1
  6
Continuous
 62
     7
370
    13
100
AcDbLine
 10
108.294208
 20
6.459406
 30
0.0
 11
108.294208
 21
6.281958
 31
0.0
  0
LINE
  5
90
330
38F
100
AcDbEntity
  8
Level 1
  6
Continuous
 62
     7
370
    13
100
AcDbLine
 10
108.565562
 20
6.460104
 30
0.0
 11
108.565562
 21
6.286792
 31
0.0
  0
LWPOLYLINE
  5
91
330
38F
100
AcDbEntity
  8
Level 1
  6
Continuous
 62
     7
370
    13
100
AcDbPolyline
 90
        4
 70
   128
 43
0.0
 10
107.697646
 20
6.348937
 10
107.689365
 20
6.33374
 10
107.678312
 20
6.326156
 10
107.652771
 20
6.315792
  0
LWPOLYLINE
  5
92
330
38F
100
AcDbEntity
  8
Level 1
  6
Continuous
 62
     7
370
    13
100
AcDbPolyline
 90
        4
 70
   128
 43
0.0
 10
107.701792
 20
6.344104
 10
107.712844
 20
6.330292
 10
107.726656
 20
6.319927
 10
107.753573
 20
6.317865
  0
LWPOLYLINE
  5
93
330
38F
100
AcDbEntity
  8
Level 1
  6
Continuous
 62
     7
370
    13
100
AcDbPolyline
 90
        3
 70
   128
 43
0.0
 10
107.670031
 20
6.432479
 10
107.674865
 20
6.424187
 10
107.684531
 20
6.417292
  0
LWPOLYLINE
  5
94
330
38F
100
AcDbEntity
  8
Level 1
  6
Continuous
 62
     7
370
    13
100
AcDbPolyline
 90
        3
 70
   128
 43
0.0
 10
107.71975
 20
6.433167
 10
107.716292
 20
6.426958
 10
107.706625
 20
6.418677
  0
LWPOLYLINE
  5
95
330
38F
100
AcDbEntity
  8
Level 1
  6
Continuous
 62
     7
370
    13
100
AcDbPolyline
 90
        4
 70
   128
 43
0.0
 10
107.697646
 20
6.46424
 10
107.713521
 20
6.460104
 10
107.719052
 20
6.4525
 10
107.72526
 20
6.444219
  0
LWPOLYLINE
  5
96
330
38F
100
AcDbEntity
  8
Level 1
  6
Continuous
 62
     7
370
    13
100
AcDbPolyline
 90
        3
 70
   128
 43
0.0
 10
107.69074
 20
6.463552
 10
107.678312
 20
6.460792
 10
107.670031
 20
6.446979
  0
LINE
  5
97
330
38F
100
AcDbEntity
  8
Level 1
  6
Continuous
 62
     7
370
    13
100
AcDbLine
 10
107.674167
 20
6.418677
 30
0.0
 11
107.70524
 21
6.418677
 31
0.0
  0
LINE
  5
98
330
38F
100
AcDbEntity
  8
Level 1
  6
Continuous
 62
     7
370
    13
100
AcDbLine
 10
107.721812
 20
6.432479
 30
0.0
 11
107.721812
 21
6.44974
 31
0.0
  0
LINE
  5
99
330
38F
100
AcDbEntity
  8
Level 1
  6
Continuous
 62
     7
370
    13
100
AcDbLine
 10
107.709385
 20
6.460104
 30
0.0
 11
107.682458
 21
6.460104
 31
0.0
  0
LINE
  5
9A
330
38F
100
AcDbEntity
  8
Level 1
  6
Continuous
 62
     7
370
    13
100
AcDbLine
 10
107.670031
 20
6.444219
 30
0.0
 11
107.670031
 21
6.427646
 31
0.0
  0
LINE
  5
9B
330
38F
100
AcDbEntity
  8
Level 1
  6
Continuous
 62
     7
370
    13
100
AcDbLine
 10
108.033906
 20
6.269531
 30
0.0
 11
108.033906
 21
6.29024
 31
0.0
  0
LINE
  5
9C
330
38F
100
AcDbEntity
  8
Level 1
  6
Continuous
 62
     7
370
    13
100
AcDbLine
 10
108.807906
 20
6.460792
 30
0.0
 11
108.807906
 21
6.27299
 31
0.0
  0
LINE
  5
9D
330
38F
100
AcDbEntity
  8
Level 1
  6
Continuous
 62
     7
370
    13
100
AcDbLine
 10
109.055104
 20
6.46424
 30
0.0
 11
109.055104
 21
6.273667
 31
0.0
  0
LWPOLYLINE
  5
9E
330
38F
100
AcDbEntity
  8
Level 1
  6
Continuous
 62
     7
370
    13
100
AcDbPolyline
 90
        4
 70
   128
 43
0.0
 10
109.295385
 20
6.460104
 10
109.295385
 20
6.308198
 10
109.263625
 20
6.308198
 10
109.263625
 20
6.281271
  0
LWPOLYLINE
  5
9F
330
38F
100
AcDbEntity
  8
Level 1
  6
Continuous
 62
     7
370
    13
100
AcDbPolyline
 90
        4
 70
   128
 43
0.0
 10
109.437615
 20
6.461479
 10
109.437615
 20
6.344792
 10
109.493542
 20
6.344792
 10
109.493542
 20
6.303365
  0
LINE
  5
A0
330
38F
100
AcDbEntity
  8
Level 1
  6
Continuous
 62
     7
370
    13
100
AcDbLine
 10
109.479042
 20
6.267458
 30
0.0
 11
109.479042
 21
6.302677
 31
0.0
  0
LINE
  5
A1
330
38F
100
AcDbEntity
  8
Level 1
  6
Continuous
 62
     7
370
    13
100
AcDbLine
 10
109.380302
 20
6.416604
 30
0.0
 11
109.380302
 21
6.34824
 31
0.0
  0
LINE
  5
A2
330
38F
100
AcDbEntity
  8
Level 1
  6
Continuous
 62
     7
370
    13
100
AcDbLine
 10
109.39274
 20
6.424885
 30
0.0
 11
109.39274
 21
6.355844
 31
0.0
  0
CIRCLE
  5
A3
330
38F
100
AcDbEntity
  8
Level 1
  6
Continuous
 62
     7
370
    13
100
AcDbCircle
 10
109.386246
 20
6.445392
 30
0.0
 40
0.022992440835375
  0
LWPOLYLINE
  5
A4
330
38F
100
AcDbEntity
  8
Level 1
  6
Continuous
 62
     7
370
    13
100
AcDbPolyline
 90
        9
 70
   128
 43
0.0
 10
109.388594
 20
6.42351
 10
109.402406
 20
6.425583
 10
109.406542
 20
6.445594
 10
109.400333
 20
6.460104
 10
109.387208
 20
6.466312
 10
109.367188
 20
6.460792
 10
109.362354
 20
6.439385
 10
109.374094
 20
6.424885
 10
109.388594
 20
6.42351
  0
LWPOLYLINE
  5
A5
330
38F
100
AcDbEntity
  8
Level 1
  6
Continuous
 62
     7
370
    13
100
AcDbPolyline
 90
        5
 70
   128
 43
0.0
 10
109.39274
 20
6.357906
 10
109.399646
 20
6.342031
 10
109.416896
 20
6.326833
 10
109.451427
 20
6.322698
 10
109.4535
 20
6.313031
  0
LWPOLYLINE
  5
A6
330
38F
100
AcDbEntity
  8
Level 1
  6
Continuous
 62
     7
370
    13
100
AcDbPolyline
 90
        6
 70
   128
 43
0.0
 10
109.320927
 20
6.313719
 10
109.323
 20
6.321323
 10
109.3375
 20
6.324083
 10
109.357521
 20
6.328219
 10
109.365125
 20
6.342031
 10
109.376854
 20
6.358604
  0
LINE
  5
A7
330
38F
100
AcDbEntity
  8
Level 1
  6
Continuous
 62
     7
370
    13
100
AcDbLine
 10
109.261552
 20
6.269531
 30
0.0
 11
109.262927
 21
6.286792
 31
0.0
  0
LINE
  5
A8
330
38F
100
AcDbEntity
  8
Level 1
  6
Continuous
 62
     7
370
    13
100
AcDbLine
 10
109.550167
 20
6.267458
 30
0.0
 11
109.550167
 21
6.288865
 31
0.0
  0
LWPOLYLINE
  5
A9
330
38F
100
AcDbEntity
  8
Level 1
  6
Continuous
 62
     7
370
    13
100
AcDbPolyline
 90
        4
 70
   128
 43
0.0
 10
109.550854
 20
6.268156
 10
109.550854
 20
6.300604
 10
109.288479
 20
6.300604
 10
109.288479
 20
6.270917
  0
LINE
  5
AA
330
38F
100
AcDbEntity
  8
Level 1
  6
Continuous
 62
     7
370
    13
100
AcDbLine
 10
109.454188
 20
6.300604
 30
0.0
 11
109.454188
 21
6.316479
 31
0.0
  0
LINE
  5
AB
330
38F
100
AcDbEntity
  8
Level 1
  6
Continuous
 62
     7
370
    13
100
AcDbLine
 10
109.32024
 20
6.30751
 30
0.0
 11
109.32024
 21
6.315104
 31
0.0
  0
LINE
  5
AC
330
38F
100
AcDbEntity
  8
Level 1
  6
Continuous
 62
     7
370
    13
100
AcDbLine
 10
109.688948
 20
6.460792
 30
0.0
 11
109.688948
 21
6.268844
 31
0.0
  0
LWPOLYLINE
  5
AD
330
38F
100
AcDbEntity
  8
Level 1
  6
Continuous
 62
     7
370
    13
100
AcDbPolyline
 90
        4
 70
   128
 43
0.0
 10
109.54326
 20
6.458031
 10
109.54326
 20
6.432479
 10
109.626802
 20
6.432479
 10
109.626802
 20
6.459406
  0
LINE
  5
AE
330
38F
100
AcDbEntity
  8
Level 1
  6
Continuous
 62
     7
370
    13
100
AcDbLine
 10
109.578479
 20
6.432479
 30
0.0
 11
109.578479
 21
6.190125
 31
0.0
  0
LINE
  5
AF
330
38F
100
AcDbEntity
  8
Level 1
  6
Continuous
 62
     7
370
    13
100
AcDbLine
 10
109.592969
 20
6.432479
 30
0.0
 11
109.592969
 21
6.190125
 31
0.0
  0
LWPOLYLINE
  5
B0
330
38F
100
AcDbEntity
  8
Level 1
  6
Continuous
 62
     7
370
    13
100
AcDbPolyline
 90
        4
 70
   128
 43
0.0
 10
109.56051
 20
6.432479
 10
109.56051
 20
6.446292
 10
109.609542
 20
6.446292
 10
109.609542
 20
6.433167
  0
LWPOLYLINE
  5
B1
330
38F
100
AcDbEntity
  8
Level 1
  6
Continuous
 62
     7
370
    13
100
AcDbPolyline
 90
        3
 70
   128
 43
0.0
 10
109.592281
 20
6.190125
 10
109.585375
 20
6.155604
 10
109.577781
 20
6.190125
  0
LINE
  5
B2
330
38F
100
AcDbEntity
  8
Level 1
  6
Continuous
 62
     7
370
    13
100
AcDbLine
 10
109.435542
 20
6.458031
 30
0.0
 11
109.542563
 21
6.458031
 31
0.0
  0
LINE
  5
B3
330
38F
100
AcDbEntity
  8
Level 1
  6
Continuous
 62
     7
370
    13
100
AcDbLine
 10
109.174552
 20
6.154219
 30
0.0
 11
109.166948
 21
6.18875
 31
0.0
  0
LINE
  5
B4
330
38F
100
AcDbEntity
  8
Level 1
  6
Continuous
 62
     7
370
    13
100
AcDbLine
 10
109.18076
 20
6.18875
 30
0.0
 11
109.174552
 21
6.154219
 31
0.0
  0
LINE
  5
B5
330
38F
100
AcDbEntity
  8
Level 1
  6
Continuous
 62
     7
370
    13
100
AcDbLine
 10
109.198021
 20
6.444906
 30
0.0
 11
109.198021
 21
6.432479
 31
0.0
  0
LINE
  5
B6
330
38F
100
AcDbEntity
  8
Level 1
  6
Continuous
 62
     7
370
    13
100
AcDbLine
 10
109.149698
 20
6.444906
 30
0.0
 11
109.198021
 21
6.444906
 31
0.0
  0
LINE
  5
B7
330
38F
100
AcDbEntity
  8
Level 1
  6
Continuous
 62
     7
370
    13
100
AcDbLine
 10
109.149698
 20
6.431792
 30
0.0
 11
109.149698
 21
6.444906
 31
0.0
  0
LINE
  5
B8
330
38F
100
AcDbEntity
  8
Level 1
  6
Continuous
 62
     7
370
    13
100
AcDbLine
 10
109.182146
 20
6.431792
 30
0.0
 11
109.182146
 21
6.18875
 31
0.0
  0
LINE
  5
B9
330
38F
100
AcDbEntity
  8
Level 1
  6
Continuous
 62
     7
370
    13
100
AcDbLine
 10
109.166948
 20
6.431792
 30
0.0
 11
109.166948
 21
6.18875
 31
0.0
  0
LINE
  5
BA
330
38F
100
AcDbEntity
  8
Level 1
  6
Continuous
 62
     7
370
    13
100
AcDbLine
 10
109.215979
 20
6.431792
 30
0.0
 11
109.215979
 21
6.458031
 31
0.0
  0
LINE
  5
BB
330
38F
100
AcDbEntity
  8
Level 1
  6
Continuous
 62
     7
370
    13
100
AcDbLine
 10
109.13174
 20
6.431792
 30
0.0
 11
109.215979
 21
6.431792
 31
0.0
  0
LINE
  5
BC
330
38F
100
AcDbEntity
  8
Level 1
  6
Continuous
 62
     7
370
    13
100
AcDbLine
 10
109.13174
 20
6.457333
 30
0.0
 11
109.13174
 21
6.431792
 31
0.0
  0
LWPOLYLINE
  5
BD
330
38F
100
AcDbEntity
  8
Level 1
  6
Continuous
 62
     7
370
    13
100
AcDbPolyline
 90
        4
 70
   128
 43
0.0
 10
107.897188
 20
6.455271
 10
107.897188
 20
6.429719
 10
107.98074
 20
6.429719
 10
107.98074
 20
6.455958
  0
LINE
  5
BE
330
38F
100
AcDbEntity
  8
Level 1
  6
Continuous
 62
     7
370
    13
100
AcDbLine
 10
107.932406
 20
6.429719
 30
0.0
 11
107.932406
 21
6.187365
 31
0.0
  0
LINE
  5
BF
330
38F
100
AcDbEntity
  8
Level 1
  6
Continuous
 62
     7
370
    13
100
AcDbLine
 10
107.946906
 20
6.429719
 30
0.0
 11
107.946906
 21
6.187365
 31
0.0
  0
LWPOLYLINE
  5
C0
330
38F
100
AcDbEntity
  8
Level 1
  6
Continuous
 62
     7
370
    13
100
AcDbPolyline
 90
        4
 70
   128
 43
0.0
 10
107.914448
 20
6.429719
 10
107.914448
 20
6.443531
 10
107.963469
 20
6.443531
 10
107.963469
 20
6.430417
  0
LWPOLYLINE
  5
C1
330
38F
100
AcDbEntity
  8
Level 1
  6
Continuous
 62
     7
370
    13
100
AcDbPolyline
 90
        3
 70
   128
 43
0.0
 10
107.946219
 20
6.187365
 10
107.939312
 20
6.152844
 10
107.931719
 20
6.186677
  0
LINE
  5
C2
330
38F
100
AcDbEntity
  8
Level 1
  6
Continuous
 62
     7
370
    13
100
AcDbLine
 10
107.53401
 20
6.158365
 30
0.0
 11
107.527104
 21
6.192885
 31
0.0
  0
LINE
  5
C3
330
38F
100
AcDbEntity
  8
Level 1
  6
Continuous
 62
     7
370
    13
100
AcDbLine
 10
107.540917
 20
6.192885
 30
0.0
 11
107.53401
 21
6.158365
 31
0.0
  0
LINE
  5
C4
330
38F
100
AcDbEntity
  8
Level 1
  6
Continuous
 62
     7
370
    13
100
AcDbLine
 10
107.558167
 20
6.449052
 30
0.0
 11
107.558167
 21
6.435927
 31
0.0
  0
LINE
  5
C5
330
38F
100
AcDbEntity
  8
Level 1
  6
Continuous
 62
     7
370
    13
100
AcDbLine
 10
107.509844
 20
6.449052
 30
0.0
 11
107.558167
 21
6.449052
 31
0.0
  0
LINE
  5
C6
330
38F
100
AcDbEntity
  8
Level 1
  6
Continuous
 62
     7
370
    13
100
AcDbLine
 10
107.509844
 20
6.43525
 30
0.0
 11
107.509844
 21
6.449052
 31
0.0
  0
LINE
  5
C7
330
38F
100
AcDbEntity
  8
Level 1
  6
Continuous
 62
     7
370
    13
100
AcDbLine
 10
107.542292
 20
6.43525
 30
0.0
 11
107.542292
 21
6.192885
 31
0.0
  0
LINE
  5
C8
330
38F
100
AcDbEntity
  8
Level 1
  6
Continuous
 62
     7
370
    13
100
AcDbLine
 10
107.527104
 20
6.43525
 30
0.0
 11
107.527104
 21
6.192885
 31
0.0
  0
LINE
  5
C9
330
38F
100
AcDbEntity
  8
Level 1
  6
Continuous
 62
     7
370
    13
100
AcDbLine
 10
107.576125
 20
6.43525
 30
0.0
 11
107.576125
 21
6.462167
 31
0.0
  0
LINE
  5
CA
330
38F
100
AcDbEntity
  8
Level 1
  6
Continuous
 62
     7
370
    13
100
AcDbLine
 10
107.491885
 20
6.43525
 30
0.0
 11
107.576125
 21
6.43525
 31
0.0
  0
LINE
  5
CB
330
38F
100
AcDbEntity
  8
Level 1
  6
Continuous
 62
     7
370
    13
100
AcDbLine
 10
107.491885
 20
6.460792
 30
0.0
 11
107.491885
 21
6.43525
 31
0.0
  0
LINE
  5
CC
330
38F
100
AcDbEntity
  8
Level 1
  6
Continuous
 62
     7
370
    13
100
AcDbLine
 10
107.643104
 20
6.325458
 30
0.0
 11
107.643104
 21
6.295771
 31
0.0
  0
LINE
  5
CD
330
38F
100
AcDbEntity
  8
Level 1
  6
Continuous
 62
     7
370
    13
100
AcDbLine
 10
107.624458
 20
6.194958
 30
0.0
 11
107.624458
 21
6.229479
 31
0.0
  0
LINE
  5
CE
330
38F
100
AcDbEntity
  8
Level 1
  6
Continuous
 62
     7
370
    13
100
AcDbLine
 10
107.759792
 20
6.194958
 30
0.0
 11
107.759792
 21
6.215667
 31
0.0
  0
LINE
  5
CF
330
38F
100
AcDbEntity
  8
Level 1
  6
Continuous
 62
     7
370
    13
100
AcDbLine
 10
107.779125
 20
6.325458
 30
0.0
 11
107.779125
 21
6.29024
 31
0.0
  0
LINE
  5
D0
330
38F
100
AcDbEntity
  8
Level 1
  6
Continuous
 62
     7
370
    13
100
AcDbLine
 10
109.439687
 20
6.325458
 30
0.0
 11
109.439687
 21
6.293698
 31
0.0
  0
LINE
  5
D1
330
38F
100
AcDbEntity
  8
Level 1
  6
Continuous
 62
     7
370
    13
100
AcDbLine
 10
109.421052
 20
6.194958
 30
0.0
 11
109.421052
 21
6.224656
 31
0.0
  0
LINE
  5
D2
330
38F
100
AcDbEntity
  8
Level 1
  6
Continuous
 62
     7
370
    13
100
AcDbLine
 10
109.318854
 20
6.194958
 30
0.0
 11
109.318854
 21
6.222573
 31
0.0
  0
LINE
  5
D3
330
38F
100
AcDbEntity
  8
Level 1
  6
Continuous
 62
     7
370
    13
100
AcDbLine
 10
109.3375
 20
6.325458
 30
0.0
 11
109.3375
 21
6.297146
 31
0.0
  0
LINE
  5
D4
330
38F
100
AcDbEntity
  8
Level 1
  6
Continuous
 62
     7
370
    13
100
AcDbLine
 10
109.35199
 20
6.300604
 30
0.0
 11
109.35199
 21
6.316479
 31
0.0
  0
LINE
  5
D5
330
38F
100
AcDbEntity
  8
Level 1
  6
Continuous
 62
     7
370
    13
100
AcDbLine
 10
109.218042
 20
6.458031
 30
0.0
 11
109.299521
 21
6.458031
 31
0.0
  0
LINE
  5
D6
330
38F
100
AcDbEntity
  8
Level 1
  6
Continuous
 62
     7
370
    13
100
AcDbLine
 10
109.439687
 20
6.224656
 30
0.0
 11
109.439687
 21
6.192208
 31
0.0
  0
LINE
  5
D7
330
38F
100
AcDbEntity
  8
Level 1
  6
Continuous
 62
     7
370
    13
100
AcDbLine
 10
109.439687
 20
6.272292
 30
0.0
 11
109.439687
 21
6.239844
 31
0.0
  0
LINE
  5
D8
330
38F
100
AcDbEntity
  8
Level 1
  6
Continuous
 62
     7
370
    13
100
AcDbLine
 10
109.421052
 20
6.293698
 30
0.0
 11
109.421052
 21
6.327531
 31
0.0
  0
LINE
  5
D9
330
38F
100
AcDbEntity
  8
Level 1
  6
Continuous
 62
     7
370
    13
100
AcDbLine
 10
109.421052
 20
6.237073
 30
0.0
 11
109.421052
 21
6.272292
 31
0.0
  0
LINE
  5
DA
330
38F
100
AcDbEntity
  8
Level 1
  6
Continuous
 62
     7
370
    13
100
AcDbLine
 10
109.3375
 20
6.223271
 30
0.0
 11
109.3375
 21
6.192208
 31
0.0
  0
LINE
  5
DB
330
38F
100
AcDbEntity
  8
Level 1
  6
Continuous
 62
     7
370
    13
100
AcDbLine
 10
109.318854
 20
6.241906
 30
0.0
 11
109.318854
 21
6.271604
 31
0.0
  0
LINE
  5
DC
330
38F
100
AcDbEntity
  8
Level 1
  6
Continuous
 62
     7
370
    13
100
AcDbLine
 10
109.318854
 20
6.293698
 30
0.0
 11
109.318854
 21
6.327531
 31
0.0
  0
LINE
  5
DD
330
38F
100
AcDbEntity
  8
Level 1
  6
Continuous
 62
     7
370
    13
100
AcDbLine
 10
109.3375
 20
6.267458
 30
0.0
 11
109.3375
 21
6.237771
 31
0.0
  0
LWPOLYLINE
  5
DE
330
38F
100
AcDbEntity
  8
Level 1
  6
Continuous
 62
     7
370
    13
100
AcDbPolyline
 90
        3
 70
   128
 43
0.0
 10
110.003104
 20
6.270917
 10
110.303458
 20
6.270917
 10
110.303458
 20
6.462167
  0
LINE
  5
DF
330
38F
100
AcDbEntity
  8
Level 1
  6
Continuous
 62
     7
370
    13
100
AcDbLine
 10
107.796385
 20
6.458031
 30
0.0
 11
107.89374
 21
6.458031
 31
0.0
  0
LINE
  5
E0
330
38F
100
AcDbEntity
  8
Level 1
  6
Continuous
 62
     7
370
    13
100
AcDbLine
 10
107.571292
 20
6.458031
 30
0.0
 11
107.648625
 21
6.458031
 31
0.0
  0
LINE
  5
E1
330
38F
100
AcDbEntity
  8
Level 1
  6
Continuous
 62
     7
370
    13
100
AcDbLine
 10
107.779125
 20
6.271604
 30
0.0
 11
107.779125
 21
6.238469
 31
0.0
  0
LINE
  5
E2
330
38F
100
AcDbEntity
  8
Level 1
  6
Continuous
 62
     7
370
    13
100
AcDbLine
 10
107.779125
 20
6.221198
 30
0.0
 11
107.779125
 21
6.192208
 31
0.0
  0
LINE
  5
E3
330
38F
100
AcDbEntity
  8
Level 1
  6
Continuous
 62
     7
370
    13
100
AcDbLine
 10
107.759792
 20
6.239146
 30
0.0
 11
107.759792
 21
6.27574
 31
0.0
  0
LINE
  5
E4
330
38F
100
AcDbEntity
  8
Level 1
  6
Continuous
 62
     7
370
    13
100
AcDbLine
 10
107.759792
 20
6.291625
 30
0.0
 11
107.759792
 21
6.327531
 31
0.0
  0
LINE
  5
E5
330
38F
100
AcDbEntity
  8
Level 1
  6
Continuous
 62
     7
370
    13
100
AcDbLine
 10
107.643104
 20
6.279896
 30
0.0
 11
107.643104
 21
6.248812
 31
0.0
  0
LINE
  5
E6
330
38F
100
AcDbEntity
  8
Level 1
  6
Continuous
 62
     7
370
    13
100
AcDbLine
 10
107.624458
 20
6.30475
 30
0.0
 11
107.624458
 21
6.327531
 31
0.0
  0
LINE
  5
E7
330
38F
100
AcDbEntity
  8
Level 1
  6
Continuous
 62
     7
370
    13
100
AcDbLine
 10
107.624458
 20
6.245365
 30
0.0
 11
107.624458
 21
6.2785
 31
0.0
  0
LINE
  5
E8
330
38F
100
AcDbEntity
  8
Level 1
  6
Continuous
 62
     7
370
    13
100
AcDbLine
 10
107.643104
 20
6.229479
 30
0.0
 11
107.643104
 21
6.192208
 31
0.0
  0
LWPOLYLINE
  5
E9
330
38F
100
AcDbEntity
  8
Level 1
  6
Continuous
 62
     7
370
    13
100
AcDbPolyline
 90
        3
 70
   128
 43
0.0
 10
106.770354
 20
5.673667
 10
106.882208
 20
5.80899
 10
106.985781
 20
5.686781
  0
LINE
  5
EA
330
38F
100
AcDbEntity
  8
Level 1
  6
Continuous
 62
     7
370
    13
100
AcDbLine
 10
106.851833
 20
5.75375
 30
0.0
 11
106.911906
 21
5.682635
 31
0.0
  0
LINE
  5
EB
330
38F
100
AcDbEntity
  8
Level 1
  6
Continuous
 62
     7
370
    13
100
AcDbLine
 10
106.958167
 20
5.816583
 30
0.0
 11
107.061729
 21
5.694375
 31
0.0
  0
LINE
  5
EC
330
38F
100
AcDbEntity
  8
Level 1
  6
Continuous
 62
     7
370
    13
100
AcDbLine
 10
106.693021
 20
5.672281
 30
0.0
 11
106.804187
 21
5.807615
 31
0.0
  0
LINE
  5
ED
330
38F
100
AcDbEntity
  8
Level 1
  6
Continuous
 62
     7
370
    13
100
AcDbLine
 10
106.60326
 20
5.675042
 30
0.0
 11
106.715125
 21
5.810375
 31
0.0
  0
LINE
  5
EE
330
38F
100
AcDbEntity
  8
Level 1
  6
Continuous
 62
     7
370
    13
100
AcDbLine
 10
107.06725
 20
5.680573
 30
0.0
 11
107.179104
 21
5.815896
 31
0.0
  0
LINE
  5
EF
330
38F
100
AcDbEntity
  8
Level 1
  6
Continuous
 62
     7
370
    13
100
AcDbLine
 10
107.157021
 20
5.677802
 30
0.0
 11
107.268187
 21
5.813135
 31
0.0
  0
LINE
  5
F0
330
38F
100
AcDbEntity
  8
Level 1
  6
Continuous
 62
     7
370
    13
100
AcDbLine
 10
107.422156
 20
5.822104
 30
0.0
 11
107.525719
 21
5.699896
 31
0.0
  0
LINE
  5
F1
330
38F
100
AcDbEntity
  8
Level 1
  6
Continuous
 62
     7
370
    13
100
AcDbLine
 10
107.315823
 20
5.759281
 30
0.0
 11
107.37451
 21
5.688854
 31
0.0
  0
LINE
  5
F2
330
38F
100
AcDbEntity
  8
Level 1
  6
Continuous
 62
     7
370
    13
100
AcDbLine
 10
107.346198
 20
5.814521
 30
0.0
 11
107.449771
 21
5.692302
 31
0.0
  0
LINE
  5
F3
330
38F
100
AcDbEntity
  8
Level 1
  6
Continuous
 62
     7
370
    13
100
AcDbLine
 10
107.234344
 20
5.679187
 30
0.0
 11
107.346198
 21
5.814521
 31
0.0
  0
LINE
  5
F4
330
38F
100
AcDbEntity
  8
Level 1
  6
Continuous
 62
     7
370
    13
100
AcDbLine
 10
107.520885
 20
5.705427
 30
0.0
 11
107.63274
 21
5.84075
 31
0.0
  0
LWPOLYLINE
  5
F5
330
38F
100
AcDbEntity
  8
Level 1
  6
Continuous
 62
     7
370
    13
100
AcDbPolyline
 90
        3
 70
   128
 43
0.0
 10
109.535656
 20
5.686083
 10
109.647521
 20
5.821427
 10
109.751083
 20
5.699208
  0
LINE
  5
F6
330
38F
100
AcDbEntity
  8
Level 1
  6
Continuous
 62
     7
370
    13
100
AcDbLine
 10
109.617135
 20
5.766188
 30
0.0
 11
109.686875
 21
5.683323
 31
0.0
  0
LINE
  5
F7
330
38F
100
AcDbEntity
  8
Level 1
  6
Continuous
 62
     7
370
    13
100
AcDbLine
 10
109.723469
 20
5.82901
 30
0.0
 11
109.827031
 21
5.706802
 31
0.0
  0
LINE
  5
F8
330
38F
100
AcDbEntity
  8
Level 1
  6
Continuous
 62
     7
370
    13
100
AcDbLine
 10
109.457646
 20
5.684708
 30
0.0
 11
109.56949
 21
5.820031
 31
0.0
  0
LINE
  5
F9
330
38F
100
AcDbEntity
  8
Level 1
  6
Continuous
 62
     7
370
    13
100
AcDbLine
 10
109.368562
 20
5.687479
 30
0.0
 11
109.480427
 21
5.822802
 31
0.0
  0
LINE
  5
FA
330
38F
100
AcDbEntity
  8
Level 1
  6
Continuous
 62
     7
370
    13
100
AcDbLine
 10
109.813229
 20
5.66951
 30
0.0
 11
109.924396
 21
5.804854
 31
0.0
  0
LINE
  5
FB
330
38F
100
AcDbEntity
  8
Level 1
  6
Continuous
 62
     7
370
    13
100
AcDbLine
 10
109.902302
 20
5.66676
 30
0.0
 11
110.014146
 21
5.802083
 31
0.0
  0
LINE
  5
FC
330
38F
100
AcDbEntity
  8
Level 1
  6
Continuous
 62
     7
370
    13
100
AcDbLine
 10
110.168125
 20
5.811063
 30
0.0
 11
110.271698
 21
5.688854
 31
0.0
  0
LINE
  5
FD
330
38F
100
AcDbEntity
  8
Level 1
  6
Continuous
 62
     7
370
    13
100
AcDbLine
 10
110.061104
 20
5.748229
 30
0.0
 11
110.127385
 21
5.66951
 31
0.0
  0
LINE
  5
FE
330
38F
100
AcDbEntity
  8
Level 1
  6
Continuous
 62
     7
370
    13
100
AcDbLine
 10
110.09149
 20
5.803469
 30
0.0
 11
110.195052
 21
5.68125
 31
0.0
  0
LINE
  5
FF
330
38F
100
AcDbEntity
  8
Level 1
  6
Continuous
 62
     7
370
    13
100
AcDbLine
 10
109.980323
 20
5.668135
 30
0.0
 11
110.09149
 21
5.803469
 31
0.0
  0
LINE
  5
100
330
38F
100
AcDbEntity
  8
Level 1
  6
Continuous
 62
     7
370
    13
100
AcDbLine
 10
104.955823
 20
7.395677
 30
0.0
 11
105.729823
 21
7.395677
 31
0.0
  0
LWPOLYLINE
  5
101
330
38F
100
AcDbEntity
  8
Level 1
  6
Continuous
 62
     7
370
    13
100
AcDbPolyline
 90
        3
 70
   128
 43
0.0
 10
109.193885
 20
7.396365
 10
109.193885
 20
7.566917
 10
109.809781
 20
7.566917
  0
LWPOLYLINE
  5
102
330
38F
100
AcDbEntity
  8
Level 1
  6
Continuous
 62
     7
370
    13
100
AcDbPolyline
 90
        3
 70
   128
 43
0.0
 10
105.642135
 20
7.395677
 10
105.642135
 20
7.551031
 10
104.950292
 20
7.551031
  0
LINE
  5
103
330
38F
100
AcDbEntity
  8
Level 1
  6
Continuous
 62
     7
370
    13
100
AcDbLine
 10
104.95374
 20
7.31351
 30
0.0
 11
104.95374
 21
7.406729
 31
0.0
  0
LINE
  5
104
330
38F
100
AcDbEntity
  8
Level 1
  6
Continuous
 62
     7
370
    13
100
AcDbLine
 10
109.811156
 20
7.352865
 30
0.0
 11
109.811156
 21
7.419156
 31
0.0
  0
LINE
  5
105
330
38F
100
AcDbEntity
  8
Level 1
  6
Continuous
 62
     7
370
    13
100
AcDbLine
 10
105.847896
 20
8.774531
 30
0.0
 11
104.912312
 21
8.777302
 31
0.0
  0
LINE
  5
106
330
38F
100
AcDbEntity
  8
Level 1
  6
Continuous
 62
     7
370
    13
100
AcDbLine
 10
104.98274
 20
7.554479
 30
0.0
 11
104.981365
 21
8.773844
 31
0.0
  0
LWPOLYLINE
  5
107
330
38F
100
AcDbEntity
  8
Level 1
  6
Continuous
 62
     7
370
    13
100
AcDbPolyline
 90
        6
 70
   128
 43
0.0
 10
104.95374
 20
7.499937
 10
104.914385
 20
7.478531
 10
105.024865
 20
7.459198
 10
104.886771
 20
7.443323
 10
104.988271
 20
7.424677
 10
104.951667
 20
7.411562
  0
LINE
  5
108
330
38F
100
AcDbEntity
  8
Level 1
  6
Continuous
 62
     7
370
    13
100
AcDbLine
 10
104.95374
 20
7.504771
 30
0.0
 11
104.95374
 21
7.627667
 31
0.0
  0
LWPOLYLINE
  5
109
330
38F
100
AcDbEntity
  8
Level 1
  6
Continuous
 62
     7
370
    13
100
AcDbPolyline
 90
        6
 70
   128
 43
0.0
 10
105.865156
 20
7.390844
 10
105.834083
 20
7.448156
 10
105.807156
 20
7.285896
 10
105.787823
 20
7.515823
 10
105.762969
 20
7.341125
 10
105.736042
 20
7.390844
  0
LINE
  5
10A
330
38F
100
AcDbEntity
  8
Level 1
  6
Continuous
 62
     7
370
    13
100
AcDbLine
 10
105.867229
 20
7.395677
 30
0.0
 11
108.958427
 21
7.395677
 31
0.0
  0
LWPOLYLINE
  5
10B
330
38F
100
AcDbEntity
  8
Level 1
  6
Continuous
 62
     7
370
    13
100
AcDbPolyline
 90
        3
 70
   128
 43
0.0
 10
106.047438
 20
7.695333
 10
105.960448
 20
7.695333
 10
105.960448
 20
7.584865
  0
LINE
  5
10C
330
38F
100
AcDbEntity
  8
Level 1
  6
Continuous
 62
     7
370
    13
100
AcDbLine
 10
106.20901
 20
7.695333
 30
0.0
 11
106.088177
 21
7.695333
 31
0.0
  0
LINE
  5
10D
330
38F
100
AcDbEntity
  8
Level 1
  6
Continuous
 62
     7
370
    13
100
AcDbLine
 10
106.374719
 20
7.695333
 30
0.0
 11
106.249052
 21
7.695333
 31
0.0
  0
LINE
  5
10E
330
38F
100
AcDbEntity
  8
Level 1
  6
Continuous
 62
     7
370
    13
100
AcDbLine
 10
106.546646
 20
7.695333
 30
0.0
 11
106.420292
 21
7.695333
 31
0.0
  0
LINE
  5
10F
330
38F
100
AcDbEntity
  8
Level 1
  6
Continuous
 62
     7
370
    13
100
AcDbLine
 10
106.73376
 20
7.695333
 30
0.0
 11
106.590833
 21
7.695333
 31
0.0
  0
LINE
  5
110
330
38F
100
AcDbEntity
  8
Level 1
  6
Continuous
 62
     7
370
    13
100
AcDbLine
 10
106.901542
 20
7.695333
 30
0.0
 11
106.77726
 21
7.695333
 31
0.0
  0
LINE
  5
111
330
38F
100
AcDbEntity
  8
Level 1
  6
Continuous
 62
     7
370
    13
100
AcDbLine
 10
107.072781
 20
7.695333
 30
0.0
 11
106.942969
 21
7.695333
 31
0.0
  0
LINE
  5
112
330
38F
100
AcDbEntity
  8
Level 1
  6
Continuous
 62
     7
370
    13
100
AcDbLine
 10
107.246771
 20
7.695333
 30
0.0
 11
107.127323
 21
7.695333
 31
0.0
  0
LINE
  5
113
330
38F
100
AcDbEntity
  8
Level 1
  6
Continuous
 62
     7
370
    13
100
AcDbLine
 10
107.406969
 20
7.695333
 30
0.0
 11
107.293042
 21
7.695333
 31
0.0
  0
LINE
  5
114
330
38F
100
AcDbEntity
  8
Level 1
  6
Continuous
 62
     7
370
    13
100
AcDbLine
 10
107.580958
 20
7.695333
 30
0.0
 11
107.453229
 21
7.695333
 31
0.0
  0
LINE
  5
115
330
38F
100
AcDbEntity
  8
Level 1
  6
Continuous
 62
     7
370
    13
100
AcDbLine
 10
107.743219
 20
7.695333
 30
0.0
 11
107.631365
 21
7.695333
 31
0.0
  0
LINE
  5
116
330
38F
100
AcDbEntity
  8
Level 1
  6
Continuous
 62
     7
370
    13
100
AcDbLine
 10
107.913073
 20
7.695333
 30
0.0
 11
107.795
 21
7.695333
 31
0.0
  0
LINE
  5
117
330
38F
100
AcDbEntity
  8
Level 1
  6
Continuous
 62
     7
370
    13
100
AcDbLine
 10
105.954219
 20
7.42675
 30
0.0
 11
106.03225
 21
7.42675
 31
0.0
  0
LINE
  5
118
330
38F
100
AcDbEntity
  8
Level 1
  6
Continuous
 62
     7
370
    13
100
AcDbLine
 10
106.077823
 20
7.42675
 30
0.0
 11
106.207625
 21
7.42675
 31
0.0
  0
LINE
  5
119
330
38F
100
AcDbEntity
  8
Level 1
  6
Continuous
 62
     7
370
    13
100
AcDbLine
 10
106.257333
 20
7.42675
 30
0.0
 11
106.378167
 21
7.42675
 31
0.0
  0
LINE
  5
11A
330
38F
100
AcDbEntity
  8
Level 1
  6
Continuous
 62
     7
370
    13
100
AcDbLine
 10
106.427885
 20
7.42675
 30
0.0
 11
106.541125
 21
7.42675
 31
0.0
  0
LINE
  5
11B
330
38F
100
AcDbEntity
  8
Level 1
  6
Continuous
 62
     7
370
    13
100
AcDbLine
 10
106.587385
 20
7.42675
 30
0.0
 11
106.724094
 21
7.42675
 31
0.0
  0
LINE
  5
11C
330
38F
100
AcDbEntity
  8
Level 1
  6
Continuous
 62
     7
370
    13
100
AcDbLine
 10
106.768969
 20
7.42675
 30
0.0
 11
106.898781
 21
7.42675
 31
0.0
  0
LINE
  5
11D
330
38F
100
AcDbEntity
  8
Level 1
  6
Continuous
 62
     7
370
    13
100
AcDbLine
 10
106.941594
 20
7.42675
 30
0.0
 11
107.086583
 21
7.42675
 31
0.0
  0
LINE
  5
11E
330
38F
100
AcDbEntity
  8
Level 1
  6
Continuous
 62
     7
370
    13
100
AcDbLine
 10
107.135615
 20
7.42675
 30
0.0
 11
107.261958
 21
7.42675
 31
0.0
  0
LINE
  5
11F
330
38F
100
AcDbEntity
  8
Level 1
  6
Continuous
 62
     7
370
    13
100
AcDbLine
 10
107.31375
 20
7.42675
 30
0.0
 11
107.419385
 21
7.42675
 31
0.0
  0
LINE
  5
120
330
38F
100
AcDbEntity
  8
Level 1
  6
Continuous
 62
     7
370
    13
100
AcDbLine
 10
107.459437
 20
7.42675
 30
0.0
 11
107.610656
 21
7.42675
 31
0.0
  0
LINE
  5
121
330
38F
100
AcDbEntity
  8
Level 1
  6
Continuous
 62
     7
370
    13
100
AcDbLine
 10
107.657594
 20
7.42675
 30
0.0
 11
107.785333
 21
7.42675
 31
0.0
  0
LINE
  5
122
330
38F
100
AcDbEntity
  8
Level 1
  6
Continuous
 62
     7
370
    13
100
AcDbLine
 10
105.954219
 20
7.982573
 30
0.0
 11
106.04951
 21
7.982573
 31
0.0
  0
LINE
  5
123
330
38F
100
AcDbEntity
  8
Level 1
  6
Continuous
 62
     7
370
    13
100
AcDbLine
 10
106.08749
 20
7.982573
 30
0.0
 11
106.229719
 21
7.982573
 31
0.0
  0
LINE
  5
124
330
38F
100
AcDbEntity
  8
Level 1
  6
Continuous
 62
     7
370
    13
100
AcDbLine
 10
106.277365
 20
7.982573
 30
0.0
 11
106.387833
 21
7.982573
 31
0.0
  0
LINE
  5
125
330
38F
100
AcDbEntity
  8
Level 1
  6
Continuous
 62
     7
370
    13
100
AcDbLine
 10
106.445146
 20
7.982573
 30
0.0
 11
106.561833
 21
7.982573
 31
0.0
  0
LINE
  5
126
330
38F
100
AcDbEntity
  8
Level 1
  6
Continuous
 62
     7
370
    13
100
AcDbLine
 10
106.601885
 20
7.982573
 30
0.0
 11
106.73376
 21
7.982573
 31
0.0
  0
LINE
  5
127
330
38F
100
AcDbEntity
  8
Level 1
  6
Continuous
 62
     7
370
    13
100
AcDbLine
 10
106.781406
 20
7.982573
 30
0.0
 11
106.905
 21
7.982573
 31
0.0
  0
LINE
  5
128
330
38F
100
AcDbEntity
  8
Level 1
  6
Continuous
 62
     7
370
    13
100
AcDbLine
 10
106.942281
 20
7.982573
 30
0.0
 11
107.075542
 21
7.982573
 31
0.0
  0
LINE
  5
129
330
38F
100
AcDbEntity
  8
Level 1
  6
Continuous
 62
     7
370
    13
100
AcDbLine
 10
107.121104
 20
7.982573
 30
0.0
 11
107.265417
 21
7.982573
 31
0.0
  0
LINE
  5
12A
330
38F
100
AcDbEntity
  8
Level 1
  6
Continuous
 62
     7
370
    13
100
AcDbLine
 10
107.307542
 20
7.982573
 30
0.0
 11
107.413875
 21
7.982573
 31
0.0
  0
LINE
  5
12B
330
38F
100
AcDbEntity
  8
Level 1
  6
Continuous
 62
     7
370
    13
100
AcDbLine
 10
107.459437
 20
7.982573
 30
0.0
 11
107.596146
 21
7.982573
 31
0.0
  0
LINE
  5
12C
330
38F
100
AcDbEntity
  8
Level 1
  6
Continuous
 62
     7
370
    13
100
AcDbLine
 10
107.642406
 20
7.982573
 30
0.0
 11
107.759792
 21
7.982573
 31
0.0
  0
LINE
  5
12D
330
38F
100
AcDbEntity
  8
Level 1
  6
Continuous
 62
     7
370
    13
100
AcDbLine
 10
106.22351
 20
8.250469
 30
0.0
 11
106.088865
 21
8.250469
 31
0.0
  0
LINE
  5
12E
330
38F
100
AcDbEntity
  8
Level 1
  6
Continuous
 62
     7
370
    13
100
AcDbLine
 10
106.401646
 20
8.250469
 30
0.0
 11
106.280812
 21
8.250469
 31
0.0
  0
LINE
  5
12F
330
38F
100
AcDbEntity
  8
Level 1
  6
Continuous
 62
     7
370
    13
100
AcDbLine
 10
106.57151
 20
8.250469
 30
0.0
 11
106.444458
 21
8.250469
 31
0.0
  0
LINE
  5
130
330
38F
100
AcDbEntity
  8
Level 1
  6
Continuous
 62
     7
370
    13
100
AcDbLine
 10
106.74826
 20
8.250469
 30
0.0
 11
106.605333
 21
8.250469
 31
0.0
  0
LINE
  5
131
330
38F
100
AcDbEntity
  8
Level 1
  6
Continuous
 62
     7
370
    13
100
AcDbLine
 10
106.900167
 20
8.250469
 30
0.0
 11
106.79176
 21
8.250469
 31
0.0
  0
LINE
  5
132
330
38F
100
AcDbEntity
  8
Level 1
  6
Continuous
 62
     7
370
    13
100
AcDbLine
 10
107.067948
 20
8.250469
 30
0.0
 11
106.944354
 21
8.250469
 31
0.0
  0
LINE
  5
133
330
38F
100
AcDbEntity
  8
Level 1
  6
Continuous
 62
     7
370
    13
100
AcDbLine
 10
107.259208
 20
8.250469
 30
0.0
 11
107.130781
 21
8.250469
 31
0.0
  0
LINE
  5
134
330
38F
100
AcDbEntity
  8
Level 1
  6
Continuous
 62
     7
370
    13
100
AcDbLine
 10
107.417312
 20
8.250469
 30
0.0
 11
107.295104
 21
8.250469
 31
0.0
  0
LINE
  5
135
330
38F
100
AcDbEntity
  8
Level 1
  6
Continuous
 62
     7
370
    13
100
AcDbLine
 10
107.61549
 20
8.250469
 30
0.0
 11
107.472552
 21
8.250469
 31
0.0
  0
LINE
  5
136
330
38F
100
AcDbEntity
  8
Level 1
  6
Continuous
 62
     7
370
    13
100
AcDbLine
 10
107.771521
 20
8.250469
 30
0.0
 11
107.653458
 21
8.250469
 31
0.0
  0
LWPOLYLINE
  5
137
330
38F
100
AcDbEntity
  8
Level 1
  6
Continuous
 62
     7
370
    13
100
AcDbPolyline
 90
        3
 70
   128
 43
0.0
 10
106.042604
 20
8.250469
 10
105.960448
 20
8.250469
 10
105.960448
 20
8.178656
  0
LINE
  5
138
330
38F
100
AcDbEntity
  8
Level 1
  6
Continuous
 62
     7
370
    13
100
AcDbLine
 10
105.960448
 20
8.131021
 30
0.0
 11
105.960448
 21
8.019854
 31
0.0
  0
LINE
  5
139
330
38F
100
AcDbEntity
  8
Level 1
  6
Continuous
 62
     7
370
    13
100
AcDbLine
 10
105.960448
 20
7.54274
 30
0.0
 11
105.960448
 21
7.466792
 31
0.0
  0
LWPOLYLINE
  5
13A
330
38F
100
AcDbEntity
  8
Level 1
  6
Continuous
 62
     7
370
    13
100
AcDbPolyline
 90
        4
 70
   128
 43
0.0
 10
105.952844
 20
8.769698
 10
108.867979
 20
8.769698
 10
108.867979
 20
8.55151
 10
108.817573
 20
8.55151
  0
LWPOLYLINE
  5
13B
330
38F
100
AcDbEntity
  8
Level 1
  6
Continuous
 62
     7
370
    13
100
AcDbPolyline
 90
        3
 70
   128
 43
0.0
 10
106.007385
 20
8.55151
 10
105.94801
 20
8.55151
 10
105.94801
 20
8.777302
  0
LINE
  5
13C
330
38F
100
AcDbEntity
  8
Level 1
  6
Continuous
 62
     7
370
    13
100
AcDbLine
 10
106.070917
 20
8.549437
 30
0.0
 11
106.011531
 21
8.549437
 31
0.0
  0
LINE
  5
13D
330
38F
100
AcDbEntity
  8
Level 1
  6
Continuous
 62
     7
370
    13
100
AcDbLine
 10
106.227646
 20
8.549437
 30
0.0
 11
106.098531
 21
8.549437
 31
0.0
  0
LINE
  5
13E
330
38F
100
AcDbEntity
  8
Level 1
  6
Continuous
 62
     7
370
    13
100
AcDbLine
 10
106.42374
 20
8.549437
 30
0.0
 11
106.282198
 21
8.549437
 31
0.0
  0
LINE
  5
13F
330
38F
100
AcDbEntity
  8
Level 1
  6
Continuous
 62
     7
370
    13
100
AcDbLine
 10
106.57426
 20
8.549437
 30
0.0
 11
106.463094
 21
8.549437
 31
0.0
  0
LINE
  5
140
330
38F
100
AcDbEntity
  8
Level 1
  6
Continuous
 62
     7
370
    13
100
AcDbLine
 10
106.74274
 20
8.549437
 30
0.0
 11
106.607406
 21
8.549437
 31
0.0
  0
LINE
  5
141
330
38F
100
AcDbEntity
  8
Level 1
  6
Continuous
 62
     7
370
    13
100
AcDbLine
 10
106.89601
 20
8.549437
 30
0.0
 11
106.787615
 21
8.549437
 31
0.0
  0
LINE
  5
142
330
38F
100
AcDbEntity
  8
Level 1
  6
Continuous
 62
     7
370
    13
100
AcDbLine
 10
107.087281
 20
8.549437
 30
0.0
 11
106.936062
 21
8.549437
 31
0.0
  0
LINE
  5
143
330
38F
100
AcDbEntity
  8
Level 1
  6
Continuous
 62
     7
370
    13
100
AcDbLine
 10
107.270938
 20
8.549437
 30
0.0
 11
107.136302
 21
8.549437
 31
0.0
  0
LINE
  5
144
330
38F
100
AcDbEntity
  8
Level 1
  6
Continuous
 62
     7
370
    13
100
AcDbLine
 10
107.424917
 20
8.549437
 30
0.0
 11
107.302708
 21
8.549437
 31
0.0
  0
LINE
  5
145
330
38F
100
AcDbEntity
  8
Level 1
  6
Continuous
 62
     7
370
    13
100
AcDbLine
 10
107.621
 20
8.549437
 30
0.0
 11
107.475313
 21
8.549437
 31
0.0
  0
LINE
  5
146
330
38F
100
AcDbEntity
  8
Level 1
  6
Continuous
 62
     7
370
    13
100
AcDbLine
 10
107.786719
 20
8.549437
 30
0.0
 11
107.666583
 21
8.549437
 31
0.0
  0
LINE
  5
147
330
38F
100
AcDbEntity
  8
Level 1
  6
Continuous
 62
     7
370
    13
100
AcDbLine
 10
106.406479
 20
8.85325
 30
0.0
 11
106.531458
 21
8.85325
 31
0.0
  0
LWPOLYLINE
  5
148
330
38F
100
AcDbEntity
  8
Level 1
  6
Continuous
 62
     7
370
    13
100
AcDbPolyline
 90
        6
 70
   128
 43
0.0
 10
106.58324
 20
8.852552
 10
106.56874
 20
8.886396
 10
106.563219
 20
8.813198
 10
106.551479
 20
8.906417
 10
106.53974
 20
8.818031
 10
106.532146
 20
8.852552
  0
LINE
  5
149
330
38F
100
AcDbEntity
  8
Level 1
  6
Continuous
 62
     7
370
    13
100
AcDbLine
 10
106.580479
 20
8.85325
 30
0.0
 11
106.707521
 21
8.85325
 31
0.0
  0
LINE
  5
14A
330
38F
100
AcDbEntity
  8
Level 1
  6
Continuous
 62
     7
370
    13
100
AcDbLine
 10
108.285229
 20
8.85325
 30
0.0
 11
108.412271
 21
8.85325
 31
0.0
  0
LINE
  5
14B
330
38F
100
AcDbEntity
  8
Level 1
  6
Continuous
 62
     7
370
    13
100
AcDbLine
 10
108.2445
 20
8.818031
 30
0.0
 11
108.236896
 21
8.852552
 31
0.0
  0
LINE
  5
14C
330
38F
100
AcDbEntity
  8
Level 1
  6
Continuous
 62
     7
370
    13
100
AcDbLine
 10
108.25624
 20
8.906417
 30
0.0
 11
108.2445
 21
8.818031
 31
0.0
  0
LINE
  5
14D
330
38F
100
AcDbEntity
  8
Level 1
  6
Continuous
 62
     7
370
    13
100
AcDbLine
 10
108.28799
 20
8.852552
 30
0.0
 11
108.27349
 21
8.886396
 31
0.0
  0
LINE
  5
14E
330
38F
100
AcDbEntity
  8
Level 1
  6
Continuous
 62
     7
370
    13
100
AcDbLine
 10
108.111229
 20
8.85325
 30
0.0
 11
108.236208
 21
8.85325
 31
0.0
  0
LINE
  5
14F
330
38F
100
AcDbEntity
  8
Level 1
  6
Continuous
 62
     7
370
    13
100
AcDbLine
 10
108.98674
 20
7.341125
 30
0.0
 11
108.959812
 21
7.390844
 31
0.0
  0
LINE
  5
150
330
38F
100
AcDbEntity
  8
Level 1
  6
Continuous
 62
     7
370
    13
100
AcDbLine
 10
109.011594
 20
7.515823
 30
0.0
 11
108.98674
 21
7.341125
 31
0.0
  0
LINE
  5
151
330
38F
100
AcDbEntity
  8
Level 1
  6
Continuous
 62
     7
370
    13
100
AcDbLine
 10
109.030927
 20
7.285896
 30
0.0
 11
109.011594
 21
7.515823
 31
0.0
  0
LINE
  5
152
330
38F
100
AcDbEntity
  8
Level 1
  6
Continuous
 62
     7
370
    13
100
AcDbLine
 10
109.057177
 20
7.448156
 30
0.0
 11
109.030927
 21
7.285896
 31
0.0
  0
LINE
  5
153
330
38F
100
AcDbEntity
  8
Level 1
  6
Continuous
 62
     7
370
    13
100
AcDbLine
 10
109.088927
 20
7.390844
 30
0.0
 11
109.057177
 21
7.448156
 31
0.0
  0
LINE
  5
154
330
38F
100
AcDbEntity
  8
Level 1
  6
Continuous
 62
     7
370
    13
100
AcDbLine
 10
107.96624
 20
8.549437
 30
0.0
 11
107.834354
 21
8.549437
 31
0.0
  0
LINE
  5
155
330
38F
100
AcDbEntity
  8
Level 1
  6
Continuous
 62
     7
370
    13
100
AcDbLine
 10
108.139542
 20
8.549437
 30
0.0
 11
108.000073
 21
8.549437
 31
0.0
  0
LINE
  5
156
330
38F
100
AcDbEntity
  8
Level 1
  6
Continuous
 62
     7
370
    13
100
AcDbLine
 10
108.296281
 20
8.549437
 30
0.0
 11
108.175448
 21
8.549437
 31
0.0
  0
LINE
  5
157
330
38F
100
AcDbEntity
  8
Level 1
  6
Continuous
 62
     7
370
    13
100
AcDbLine
 10
108.481323
 20
8.549437
 30
0.0
 11
108.339083
 21
8.549437
 31
0.0
  0
LINE
  5
158
330
38F
100
AcDbEntity
  8
Level 1
  6
Continuous
 62
     7
370
    13
100
AcDbLine
 10
108.657396
 20
8.549437
 30
0.0
 11
108.520687
 21
8.549437
 31
0.0
  0
LINE
  5
159
330
38F
100
AcDbEntity
  8
Level 1
  6
Continuous
 62
     7
370
    13
100
AcDbLine
 10
108.788583
 20
8.549437
 30
0.0
 11
108.697437
 21
8.549437
 31
0.0
  0
LINE
  5
15A
330
38F
100
AcDbEntity
  8
Level 1
  6
Continuous
 62
     7
370
    13
100
AcDbLine
 10
107.960708
 20
8.250469
 30
0.0
 11
107.816406
 21
8.250469
 31
0.0
  0
LINE
  5
15B
330
38F
100
AcDbEntity
  8
Level 1
  6
Continuous
 62
     7
370
    13
100
AcDbLine
 10
108.131948
 20
8.250469
 30
0.0
 11
107.999385
 21
8.250469
 31
0.0
  0
LINE
  5
15C
330
38F
100
AcDbEntity
  8
Level 1
  6
Continuous
 62
     7
370
    13
100
AcDbLine
 10
108.279021
 20
8.250469
 30
0.0
 11
108.173385
 21
8.250469
 31
0.0
  0
LINE
  5
15D
330
38F
100
AcDbEntity
  8
Level 1
  6
Continuous
 62
     7
370
    13
100
AcDbLine
 10
108.46476
 20
8.250469
 30
0.0
 11
108.328042
 21
8.250469
 31
0.0
  0
LINE
  5
15E
330
38F
100
AcDbEntity
  8
Level 1
  6
Continuous
 62
     7
370
    13
100
AcDbLine
 10
108.635302
 20
8.250469
 30
0.0
 11
108.508948
 21
8.250469
 31
0.0
  0
LWPOLYLINE
  5
15F
330
38F
100
AcDbEntity
  8
Level 1
  6
Continuous
 62
     7
370
    13
100
AcDbPolyline
 90
        3
 70
   128
 43
0.0
 10
108.867292
 20
8.141375
 10
108.867292
 20
8.250469
 10
108.826552
 20
8.250469
  0
LINE
  5
160
330
38F
100
AcDbEntity
  8
Level 1
  6
Continuous
 62
     7
370
    13
100
AcDbLine
 10
108.785125
 20
8.250469
 30
0.0
 11
108.680865
 21
8.250469
 31
0.0
  0
LWPOLYLINE
  5
161
330
38F
100
AcDbEntity
  8
Level 1
  6
Continuous
 62
     7
370
    13
100
AcDbPolyline
 90
        3
 70
   128
 43
0.0
 10
108.833458
 20
7.982573
 10
108.867292
 20
7.982573
 10
108.867292
 20
8.09926
  0
LINE
  5
162
330
38F
100
AcDbEntity
  8
Level 1
  6
Continuous
 62
     7
370
    13
100
AcDbLine
 10
108.706417
 20
7.982573
 30
0.0
 11
108.812062
 21
7.982573
 31
0.0
  0
LINE
  5
163
330
38F
100
AcDbEntity
  8
Level 1
  6
Continuous
 62
     7
370
    13
100
AcDbLine
 10
108.508948
 20
7.982573
 30
0.0
 11
108.657396
 21
7.982573
 31
0.0
  0
LINE
  5
164
330
38F
100
AcDbEntity
  8
Level 1
  6
Continuous
 62
     7
370
    13
100
AcDbLine
 10
108.335635
 20
7.982573
 30
0.0
 11
108.46199
 21
7.982573
 31
0.0
  0
LINE
  5
165
330
38F
100
AcDbEntity
  8
Level 1
  6
Continuous
 62
     7
370
    13
100
AcDbLine
 10
108.183042
 20
7.982573
 30
0.0
 11
108.290062
 21
7.982573
 31
0.0
  0
LINE
  5
166
330
38F
100
AcDbEntity
  8
Level 1
  6
Continuous
 62
     7
370
    13
100
AcDbLine
 10
107.814344
 20
7.982573
 30
0.0
 11
107.960031
 21
7.982573
 31
0.0
  0
LINE
  5
167
330
38F
100
AcDbEntity
  8
Level 1
  6
Continuous
 62
     7
370
    13
100
AcDbLine
 10
108.018708
 20
7.982573
 30
0.0
 11
108.14024
 21
7.982573
 31
0.0
  0
LINE
  5
168
330
38F
100
AcDbEntity
  8
Level 1
  6
Continuous
 62
     7
370
    13
100
AcDbLine
 10
108.100187
 20
7.695333
 30
0.0
 11
107.953802
 21
7.695333
 31
0.0
  0
LINE
  5
169
330
38F
100
AcDbEntity
  8
Level 1
  6
Continuous
 62
     7
370
    13
100
AcDbLine
 10
108.285229
 20
7.695333
 30
0.0
 11
108.148521
 21
7.695333
 31
0.0
  0
LINE
  5
16A
330
38F
100
AcDbEntity
  8
Level 1
  6
Continuous
 62
     7
370
    13
100
AcDbLine
 10
108.454396
 20
7.695333
 30
0.0
 11
108.341156
 21
7.695333
 31
0.0
  0
LINE
  5
16B
330
38F
100
AcDbEntity
  8
Level 1
  6
Continuous
 62
     7
370
    13
100
AcDbLine
 10
108.645656
 20
7.695333
 30
0.0
 11
108.501344
 21
7.695333
 31
0.0
  0
LINE
  5
16C
330
38F
100
AcDbEntity
  8
Level 1
  6
Continuous
 62
     7
370
    13
100
AcDbLine
 10
108.785823
 20
7.695333
 30
0.0
 11
108.689156
 21
7.695333
 31
0.0
  0
LWPOLYLINE
  5
16D
330
38F
100
AcDbEntity
  8
Level 1
  6
Continuous
 62
     7
370
    13
100
AcDbPolyline
 90
        3
 70
   128
 43
0.0
 10
108.867292
 20
7.579333
 10
108.867292
 20
7.695333
 10
108.832771
 20
7.695333
  0
LINE
  5
16E
330
38F
100
AcDbEntity
  8
Level 1
  6
Continuous
 62
     7
370
    13
100
AcDbLine
 10
109.083406
 20
7.395677
 30
0.0
 11
109.811156
 21
7.395677
 31
0.0
  0
LWPOLYLINE
  5
16F
330
38F
100
AcDbEntity
  8
Level 1
  6
Continuous
 62
     7
370
    13
100
AcDbPolyline
 90
        3
 70
   128
 43
0.0
 10
108.818969
 20
7.42675
 10
108.867292
 20
7.42675
 10
108.867292
 20
7.540677
  0
LINE
  5
170
330
38F
100
AcDbEntity
  8
Level 1
  6
Continuous
 62
     7
370
    13
100
AcDbLine
 10
108.672583
 20
7.42675
 30
0.0
 11
108.788583
 21
7.42675
 31
0.0
  0
LINE
  5
171
330
38F
100
AcDbEntity
  8
Level 1
  6
Continuous
 62
     7
370
    13
100
AcDbLine
 10
108.541396
 20
7.42675
 30
0.0
 11
108.633229
 21
7.42675
 31
0.0
  0
LINE
  5
172
330
38F
100
AcDbEntity
  8
Level 1
  6
Continuous
 62
     7
370
    13
100
AcDbLine
 10
108.341854
 20
7.42675
 30
0.0
 11
108.486844
 21
7.42675
 31
0.0
  0
LINE
  5
173
330
38F
100
AcDbEntity
  8
Level 1
  6
Continuous
 62
     7
370
    13
100
AcDbLine
 10
108.156813
 20
7.42675
 30
0.0
 11
108.301104
 21
7.42675
 31
0.0
  0
LINE
  5
174
330
38F
100
AcDbEntity
  8
Level 1
  6
Continuous
 62
     7
370
    13
100
AcDbLine
 10
107.830219
 20
7.42675
 30
0.0
 11
107.92274
 21
7.42675
 31
0.0
  0
LINE
  5
175
330
38F
100
AcDbEntity
  8
Level 1
  6
Continuous
 62
     7
370
    13
100
AcDbLine
 10
107.97176
 20
7.42675
 30
0.0
 11
108.111229
 21
7.42675
 31
0.0
  0
LINE
  5
176
330
38F
100
AcDbEntity
  8
Level 1
  6
Continuous
 62
     7
370
    13
100
AcDbLine
 10
110.76399
 20
8.707562
 30
0.0
 11
110.99875
 21
8.707562
 31
0.0
  0
LWPOLYLINE
  5
177
330
38F
100
AcDbEntity
  8
Level 1
  6
Continuous
 62
     7
370
    13
100
AcDbPolyline
 90
        4
 70
   128
 43
0.0
 10
110.536146
 20
8.711698
 10
110.536146
 20
8.736552
 10
110.764687
 20
8.918844
 10
110.998063
 20
8.918844
  0
LINE
  5
178
330
38F
100
AcDbEntity
  8
Level 1
  6
Continuous
 62
     7
370
    13
100
AcDbLine
 10
110.670094
 20
8.561875
 30
0.0
 11
110.670094
 21
8.788344
 31
0.0
  0
LINE
  5
179
330
38F
100
AcDbEntity
  8
Level 1
  6
Continuous
 62
     7
370
    13
100
AcDbLine
 10
110.655594
 20
8.564635
 30
0.0
 11
110.655594
 21
8.791104
 31
0.0
  0
LWPOLYLINE
  5
17A
330
38F
100
AcDbEntity
  8
Level 1
  6
Continuous
 62
     7
370
    13
100
AcDbPolyline
 90
        3
 70
   128
 43
0.0
 10
110.632812
 20
8.792479
 10
110.687354
 20
8.792479
 10
110.687354
 20
8.855313
  0
LINE
  5
17B
330
38F
100
AcDbEntity
  8
Level 1
  6
Continuous
 62
     7
370
    13
100
AcDbLine
 10
110.996687
 20
9.021719
 30
0.0
 11
110.996687
 21
8.843573
 31
0.0
  0
LWPOLYLINE
  5
17C
330
38F
100
AcDbEntity
  8
Level 1
  6
Continuous
 62
     7
370
    13
100
AcDbPolyline
 90
        6
 70
   128
 43
0.0
 10
110.994615
 20
8.845646
 10
111.032583
 20
8.822167
 10
110.935917
 20
8.802844
 10
111.096802
 20
8.780062
 10
110.971833
 20
8.765562
 10
110.993917
 20
8.745531
  0
LINE
  5
17D
330
38F
100
AcDbEntity
  8
Level 1
  6
Continuous
 62
     7
370
    13
100
AcDbLine
 10
110.996687
 20
8.744844
 30
0.0
 11
110.996687
 21
8.585354
 31
0.0
  0
LWPOLYLINE
  5
17E
330
38F
100
AcDbEntity
  8
Level 1
  6
Continuous
 62
     7
370
    13
100
AcDbPolyline
 90
        3
 70
   128
 43
0.0
 10
110.536146
 20
8.511469
 10
110.536146
 20
8.706865
 10
110.652833
 20
8.706865
  0
LWPOLYLINE
  5
17F
330
38F
100
AcDbEntity
  8
Level 1
  6
Continuous
 62
     7
370
    13
100
AcDbPolyline
 90
        4
 70
   128
 43
0.0
 10
110.667333
 20
8.706865
 10
110.763312
 20
8.706865
 10
110.763312
 20
8.513542
 10
110.535448
 20
8.513542
  0
LINE
  5
180
330
38F
100
AcDbEntity
  8
Level 1
  6
Continuous
 62
     7
370
    13
100
AcDbLine
 10
110.53476
 20
8.773844
 30
0.0
 11
110.53476
 21
9.090083
 31
0.0
  0
LINE
  5
181
330
38F
100
AcDbEntity
  8
Level 1
  6
Continuous
 62
     7
370
    13
100
AcDbLine
 10
110.763312
 20
8.955438
 30
0.0
 11
110.763312
 21
9.091458
 31
0.0
  0
LINE
  5
182
330
38F
100
AcDbEntity
  8
Level 1
  6
Continuous
 62
     7
370
    13
100
AcDbLine
 10
110.53476
 20
9.048656
 30
0.0
 11
110.762615
 21
9.048656
 31
0.0
  0
LINE
  5
183
330
38F
100
AcDbEntity
  8
Level 1
  6
Continuous
 62
     7
370
    13
100
AcDbLine
 10
110.50024
 20
8.746219
 30
0.0
 11
110.409104
 21
8.746219
 31
0.0
  0
LINE
  5
184
330
38F
100
AcDbEntity
  8
Level 1
  6
Continuous
 62
     7
370
    13
100
AcDbLine
 10
110.501625
 20
8.702729
 30
0.0
 11
110.407719
 21
8.702729
 31
0.0
  0
LINE
  5
185
330
38F
100
AcDbEntity
  8
Level 1
  6
Continuous
 62
     7
370
    13
100
AcDbLine
 10
110.445
 20
8.872583
 30
0.0
 11
110.445
 21
8.746219
 31
0.0
  0
LINE
  5
186
330
38F
100
AcDbEntity
  8
Level 1
  6
Continuous
 62
     7
370
    13
100
AcDbLine
 10
110.445
 20
8.701344
 30
0.0
 11
110.445
 21
8.571542
 31
0.0
  0
LWPOLYLINE
  5
187
330
38F
100
AcDbEntity
  8
Level 1
  6
Continuous
 62
     7
370
    13
100
AcDbPolyline
 90
        5
 70
   128
 43
0.0
 10
110.445
 20
8.746219
 10
110.445
 20
8.746219
 10
110.432583
 20
8.798698
 10
110.455365
 20
8.797313
 10
110.445
 20
8.746219
  0
LWPOLYLINE
  5
188
330
38F
100
AcDbEntity
  8
Level 1
  6
Continuous
 62
     7
370
    13
100
AcDbPolyline
 90
        5
 70
   128
 43
0.0
 10
110.766073
 20
9.048656
 10
110.766073
 20
9.048656
 10
110.713594
 20
9.036219
 10
110.714979
 20
9.058312
 10
110.766073
 20
9.048656
  0
LWPOLYLINE
  5
189
330
38F
100
AcDbEntity
  8
Level 1
  6
Continuous
 62
     7
370
    13
100
AcDbPolyline
 90
        5
 70
   128
 43
0.0
 10
110.443625
 20
8.703417
 10
110.443625
 20
8.703417
 10
110.455365
 20
8.651625
 10
110.43326
 20
8.65301
 10
110.443625
 20
8.703417
  0
LWPOLYLINE
  5
18A
330
38F
100
AcDbEntity
  8
Level 1
  6
Continuous
 62
     7
370
    13
100
AcDbPolyline
 90
        5
 70
   128
 43
0.0
 10
110.536833
 20
9.04726
 10
110.536833
 20
9.04726
 10
110.589312
 20
9.059
 10
110.587927
 20
9.036917
 10
110.536833
 20
9.04726
  0
LINE
  5
18B
330
38F
100
AcDbEntity
  8
Level 1
  6
Continuous
 62
     7
370
    13
100
AcDbLine
 10
110.631427
 20
8.792479
 30
0.0
 11
110.630042
 21
8.80975
 31
0.0
  0
LWPOLYLINE
  5
18C
330
38F
100
AcDbEntity
  8
Level 1
  6
Continuous
 62
     7
370
    13
100
AcDbPolyline
 90
        5
 70
   128
 43
0.0
 10
104.98274
 20
7.555865
 10
104.994479
 20
7.613177
 10
104.973771
 20
7.612479
 10
104.969625
 20
7.613177
 10
104.98274
 20
7.555865
  0
LWPOLYLINE
  5
18D
330
38F
100
AcDbEntity
  8
Level 1
  6
Continuous
 62
     7
370
    13
100
AcDbPolyline
 90
        5
 70
   128
 43
0.0
 10
104.98274
 20
8.773156
 10
104.98274
 20
8.773156
 10
104.968937
 20
8.706177
 10
104.993792
 20
8.704792
 10
104.98274
 20
8.773156
  0
LWPOLYLINE
  5
193
330
38F
100
AcDbEntity
  8
Level 1
  6
Continuous
 62
     7
370
    13
100
AcDbPolyline
 90
        3
 70
   128
 43
0.0
 10
111.018771
 20
9.169479
 10
110.799906
 20
9.169479
 10
110.889656
 20
8.936104
  0
LWPOLYLINE
  5
194
330
38F
100
AcDbEntity
  8
Level 1
  6
Continuous
 62
     7
370
    13
100
AcDbPolyline
 90
        3
 70
   128
 43
0.0
 10
110.883448
 20
8.37476
 10
110.794375
 20
8.37476
 10
110.686667
 20
8.505937
  0
LWPOLYLINE
  5
195
330
38F
100
AcDbEntity
  8
Level 1
  6
Continuous
 62
     7
370
    13
100
AcDbPolyline
 90
        3
 70
   128
 43
0.0
 10
108.085687
 20
9.204
 10
107.984187
 20
9.204
 10
107.54299
 20
8.759344
  0
LWPOLYLINE
  5
196
330
38F
100
AcDbEntity
  8
Level 1
  6
Continuous
 62
     7
370
    13
100
AcDbPolyline
 90
        5
 70
   128
 43
0.0
 10
107.54299
 20
8.759344
 10
107.54299
 20
8.759344
 10
107.632052
 20
8.824937
 10
107.602365
 20
8.847031
 10
107.54299
 20
8.759344
  0
LWPOLYLINE
  5
197
330
38F
100
AcDbEntity
  8
Level 1
  6
Continuous
 62
     7
370
    13
100
AcDbPolyline
 90
        5
 70
   128
 43
0.0
 10
110.895875
 20
8.929198
 10
110.895875
 20
8.921604
 10
110.847542
 20
9.009292
 10
110.877917
 20
9.009292
 10
110.895875
 20
8.929198
  0
LWPOLYLINE
  5
198
330
38F
100
AcDbEntity
  8
Level 1
  6
Continuous
 62
     7
370
    13
100
AcDbPolyline
 90
        5
 70
   128
 43
0.0
 10
110.680448
 20
8.505937
 10
110.680448
 20
8.505937
 10
110.722562
 20
8.447948
 10
110.740521
 20
8.455542
 10
110.680448
 20
8.505937
  0
LWPOLYLINE
  5
19D
330
38F
100
AcDbEntity
  8
Level 1
  6
Continuous
 62
     7
370
    13
100
AcDbPolyline
 90
        3
 70
   128
 43
0.0
 10
109.773875
 20
7.773365
 10
109.684802
 20
7.773365
 10
109.501135
 20
7.490958
  0
LWPOLYLINE
  5
19E
330
38F
100
AcDbEntity
  8
Level 1
  6
Continuous
 62
     7
370
    13
100
AcDbPolyline
 90
        5
 70
   128
 43
0.0
 10
109.495615
 20
7.484052
 10
109.495615
 20
7.484052
 10
109.54326
 20
7.534469
 10
109.525312
 20
7.556552
 10
109.495615
 20
7.484052
  0
LWPOLYLINE
  5
19F
330
38F
100
AcDbEntity
  8
Level 1
  6
Continuous
 62
     7
370
    13
100
AcDbPolyline
 90
        6
 70
   128
 43
0.0
 10
109.809781
 20
7.527563
 10
109.83325
 20
7.505458
 10
109.762135
 20
7.477146
 10
109.880896
 20
7.469562
 10
109.780083
 20
7.440552
 10
109.809781
 20
7.426062
  0
LINE
  5
1A0
330
38F
100
AcDbEntity
  8
Level 1
  6
Continuous
 62
     7
370
    13
100
AcDbLine
 10
109.811156
 20
7.527563
 30
0.0
 11
109.811156
 21
7.645625
 31
0.0
  0
ARC
  5
1A7
330
38F
100
AcDbEntity
  8
Level 1
  6
Continuous
 62
     7
370
    13
100
AcDbCircle
 10
105.104197
 20
7.616557
 30
0.0
 40
0.1416831489315
100
AcDbArc
 50
332.3858
 51
55.6063
  0
LWPOLYLINE
  5
1AB
330
38F
100
AcDbEntity
  8
Level 1
  6
Continuous
 62
     7
370
    13
100
AcDbPolyline
 90
        3
 70
   128
 43
0.0
 10
105.502656
 20
7.194062
 10
105.405302
 20
7.194062
 10
105.255479
 20
7.471625
  0
LWPOLYLINE
  5
1AC
330
38F
100
AcDbEntity
  8
Level 1
  6
Continuous
 62
     7
370
    13
100
AcDbPolyline
 90
        5
 70
   128
 43
0.0
 10
105.254981
 20
7.472575
 10
105.254981
 20
7.472575
 10
105.287429
 20
7.377294
 10
105.319877
 20
7.393169
 10
105.254981
 20
7.472575
  0
LWPOLYLINE
  5
1AD
330
38F
100
AcDbEntity
  8
Level 1
  6
Continuous
 62
     7
370
    13
100
AcDbPolyline
 90
        5
 70
   128
 43
0.0
 10
105.229927
 20
7.551031
 10
105.229927
 20
7.551031
 10
105.216813
 20
7.598677
 10
105.243052
 20
7.598677
 10
105.229927
 20
7.551031
  0
LWPOLYLINE
  5
1AE
330
38F
100
AcDbEntity
  8
Level 1
  6
Continuous
 62
     7
370
    13
100
AcDbPolyline
 90
        5
 70
   128
 43
0.0
 10
105.177458
 20
7.733312
 10
105.177458
 20
7.733312
 10
105.209906
 20
7.678083
 10
105.229927
 20
7.693958
 10
105.177458
 20
7.733312
  0
LINE
  5
1B1
330
38F
100
AcDbEntity
  8
Level 1
  6
Continuous
 62
     7
370
    13
100
AcDbLine
 10
105.929375
 20
9.080406
 30
0.0
 11
106.553542
 21
9.080406
 31
0.0
  0
LINE
  5
1B2
330
38F
100
AcDbEntity
  8
Level 1
  6
Continuous
 62
     7
370
    13
100
AcDbLine
 10
108.567625
 20
5.86975
 30
0.0
 11
108.567625
 21
6.045125
 31
0.0
  0
CIRCLE
  5
1B4
330
38F
100
AcDbEntity
  8
Level 1
  6
Continuous
 62
     7
370
    13
100
AcDbCircle
 10
109.502934
 20
6.129919
 30
0.0
 40
0.06835590518625
  0
LINE
  5
1B8
330
38F
100
AcDbEntity
  8
Level 1
  6
Continuous
 62
     7
370
    13
100
AcDbLine
 10
109.373406
 20
6.390365
 30
0.0
 11
109.297448
 21
6.390365
 31
0.0
  0
LINE
  5
1B9
330
38F
100
AcDbEntity
  8
Level 1
  6
Continuous
 62
     7
370
    13
100
AcDbLine
 10
109.327833
 20
6.390365
 30
0.0
 11
109.327833
 21
6.562292
 31
0.0
  0
LINE
  5
1BA
330
38F
100
AcDbEntity
  8
Level 1
  6
Continuous
 62
     7
370
    13
100
AcDbLine
 10
109.346479
 20
6.464937
 30
0.0
 11
109.309885
 21
6.464937
 31
0.0
  0
LWPOLYLINE
  5
1BB
330
38F
100
AcDbEntity
  8
Level 1
  6
Continuous
 62
     7
370
    13
100
AcDbPolyline
 90
        5
 70
   128
 43
0.0
 10
109.327833
 20
6.390365
 10
109.327833
 20
6.390365
 10
109.318854
 20
6.427646
 10
109.336812
 20
6.427646
 10
109.327833
 20
6.390365
  0
LWPOLYLINE
  5
1BC
330
38F
100
AcDbEntity
  8
Level 1
  6
Continuous
 62
     7
370
    13
100
AcDbPolyline
 90
        5
 70
   128
 43
0.0
 10
109.327833
 20
6.464937
 10
109.327833
 20
6.464937
 10
109.318854
 20
6.502219
 10
109.336812
 20
6.502219
 10
109.327833
 20
6.464937
  0
CIRCLE
  5
1BF
330
38F
100
AcDbEntity
  8
Level 1
  6
Continuous
 62
     7
370
    13
100
AcDbCircle
 10
108.305052
 20
5.970555
 30
0.0
 40
0.068424951555125
  0
LINE
  5
1C1
330
38F
100
AcDbEntity
  8
Level 1
  6
Continuous
 62
     7
370
    13
100
AcDbLine
 10
107.149678
 20
7.070229
 30
0.0
 11
107.475955
 21
7.070229
 31
0.0
  0
LWPOLYLINE
  5
1C2
330
38F
100
AcDbEntity
  8
Level 1
  6
Continuous
 62
     7
370
    13
100
AcDbPolyline
 90
        5
 70
   128
 43
0.0
 10
108.564177
 20
6.050656
 10
108.575917
 20
6.001635
 10
108.553135
 20
5.994729
 10
108.553135
 20
5.994729
 10
108.564177
 20
6.050656
  0
LWPOLYLINE
  5
1C3
330
38F
100
AcDbEntity
  8
Level 1
  6
Continuous
 62
     7
370
    13
100
AcDbPolyline
 90
        5
 70
   128
 43
0.0
 10
108.564177
 20
5.869063
 10
108.564177
 20
5.869063
 10
108.546917
 20
5.938802
 10
108.575917
 20
5.938802
 10
108.564177
 20
5.869063
  0
LWPOLYLINE
  5
1C5
330
38F
100
AcDbEntity
  8
Level 1
  6
Continuous
 62
     7
370
    13
100
AcDbPolyline
 90
        4
 70
   128
 43
0.0
 10
107.763927
 20
4.089042
 10
104.231521
 20
4.089042
 10
104.231521
 20
3.410312
 10
107.817094
 20
3.410312
  0
LINE
  5
1C6
330
38F
100
AcDbEntity
  8
Level 1
  6
Continuous
 62
     7
370
    13
100
AcDbLine
 10
107.435958
 20
4.82301
 30
0.0
 11
107.435958
 21
4.091812
 31
0.0
  0
LWPOLYLINE
  5
1C7
330
38F
100
AcDbEntity
  8
Level 1
  6
Continuous
 62
     7
370
    13
100
AcDbPolyline
 90
        4
 70
   128
 43
0.0
 10
106.722708
 20
4.819562
 10
106.722708
 20
4.188469
 10
107.076229
 20
4.188469
 10
107.076229
 20
4.08974
  0
LWPOLYLINE
  5
1C8
330
38F
100
AcDbEntity
  8
Level 1
  6
Continuous
 62
     7
370
    13
100
AcDbPolyline
 90
        3
 70
   128
 43
0.0
 10
106.726854
 20
4.639344
 10
106.492094
 20
4.639344
 10
106.492094
 20
4.71599
  0
LWPOLYLINE
  5
1C9
330
38F
100
AcDbEntity
  8
Level 1
  6
Continuous
 62
     7
370
    13
100
AcDbPolyline
 90
        4
 70
   128
 43
0.0
 10
105.873437
 20
4.816104
 10
105.873437
 20
4.175354
 10
105.531667
 20
4.175354
 10
105.531667
 20
4.091812
  0
LINE
  5
1CA
330
38F
100
AcDbEntity
  8
Level 1
  6
Continuous
 62
     7
370
    13
100
AcDbLine
 10
105.164333
 20
4.82025
 30
0.0
 11
105.164333
 21
4.090427
 31
0.0
  0
LINE
  5
1CB
330
38F
100
AcDbEntity
  8
Level 1
  6
Continuous
 62
     7
370
    13
100
AcDbLine
 10
104.516
 20
4.821635
 30
0.0
 11
104.516
 21
4.098021
 31
0.0
  0
LWPOLYLINE
  5
1CC
330
38F
100
AcDbEntity
  8
Level 1
  6
Continuous
 62
     7
370
    13
100
AcDbPolyline
 90
        4
 70
   128
 43
0.0
 10
107.25299
 20
4.826469
 10
107.25299
 20
4.700104
 10
106.848375
 20
4.700104
 10
106.848375
 20
4.82301
  0
LWPOLYLINE
  5
1CD
330
38F
100
AcDbEntity
  8
Level 1
  6
Continuous
 62
     7
370
    13
100
AcDbPolyline
 90
        4
 70
   128
 43
0.0
 10
105.723615
 20
4.826469
 10
105.723615
 20
4.700104
 10
105.319
 20
4.700104
 10
105.319
 20
4.82301
  0
LWPOLYLINE
  5
1CE
330
38F
100
AcDbEntity
  8
Level 1
  6
Continuous
 62
     7
370
    13
100
AcDbPolyline
 90
       40
 70
   128
 43
0.0
 10
105.604854
 20
4.086281
 10
105.602083
 20
4.112521
 10
105.961823
 20
4.149115
 10
106.01499
 20
4.203667
 10
106.061937
 20
4.216094
 10
106.19175
 20
4.247854
 10
106.233865
 20
4.261667
 10
106.268396
 20
4.294115
 10
106.292552
 20
4.361781
 10
106.302219
 20
4.441187
 10
106.309125
 20
4.539917
 10
106.309823
 20
4.613115
 10
106.306365
 20
4.651771
 10
106.282198
 20
4.684917
 10
106.249052
 20
4.702177
 10
106.219365
 20
4.707708
 10
106.202792
 20
4.749823
 10
106.200729
 20
4.795396
 10
106.217302
 20
4.827146
 10
106.23525
 20
4.841656
 10
106.288417
 20
4.859604
 10
106.427885
 20
4.852698
 10
106.461021
 20
4.83475
 10
106.481052
 20
4.802292
 10
106.488646
 20
4.760177
 10
106.485885
 20
4.713917
 10
106.436167
 20
4.70149
 10
106.396812
 20
4.669042
 10
106.378167
 20
4.623458
 10
106.372646
 20
4.550281
 10
106.378167
 20
4.471563
 10
106.387833
 20
4.398375
 10
106.403719
 20
4.326573
 10
106.428573
 20
4.272021
 10
106.482427
 20
4.236115
 10
106.562521
 20
4.219542
 10
106.614312
 20
4.187094
 10
106.6875
 20
4.148427
 10
106.978187
 20
4.116667
 10
106.983021
 20
4.091812
  0
LWPOLYLINE
  5
1CF
330
38F
100
AcDbEntity
  8
Level 1
  6
Continuous
 62
     7
370
    13
100
AcDbPolyline
 90
        8
 70
   128
 43
0.0
 10
106.167583
 20
4.238875
 10
106.167583
 20
4.267875
 10
105.970104
 20
4.258906
 10
105.98599
 20
4.2375
 10
105.992208
 20
3.747271
 10
106.026729
 20
3.632646
 10
106.060552
 20
3.746573
 10
106.061937
 20
4.209875
  0
LWPOLYLINE
  5
1D0
330
38F
100
AcDbEntity
  8
Level 1
  6
Continuous
 62
     7
370
    13
100
AcDbPolyline
 90
        7
 70
   128
 43
0.0
 10
106.560448
 20
4.223687
 10
106.700615
 20
4.263042
 10
106.683354
 20
4.214708
 10
106.688187
 20
3.755552
 10
106.650219
 20
3.631271
 10
106.625354
 20
3.760385
 10
106.62674
 20
4.193302
  0
LWPOLYLINE
  5
1D1
330
38F
100
AcDbEntity
  8
Level 1
  6
Continuous
 62
     7
370
    13
100
AcDbPolyline
 90
        3
 70
   128
 43
0.0
 10
106.529385
 20
4.236115
 10
106.529385
 20
4.278229
 10
106.724094
 20
4.278229
  0
LWPOLYLINE
  5
1D2
330
38F
100
AcDbEntity
  8
Level 1
  6
Continuous
 62
     7
370
    13
100
AcDbPolyline
 90
        3
 70
   128
 43
0.0
 10
105.876896
 20
4.278229
 10
106.164812
 20
4.278229
 10
106.164812
 20
4.239562
  0
LINE
  5
1D3
330
38F
100
AcDbEntity
  8
Level 1
  6
Continuous
 62
     7
370
    13
100
AcDbLine
 10
105.523375
 20
4.026208
 30
0.0
 11
105.523375
 21
3.902625
 31
0.0
  0
LINE
  5
1D4
330
38F
100
AcDbEntity
  8
Level 1
  6
Continuous
 62
     7
370
    13
100
AcDbLine
 10
105.497823
 20
4.291354
 30
0.0
 11
105.557208
 21
4.291354
 31
0.0
  0
LINE
  5
1D5
330
38F
100
AcDbEntity
  8
Level 1
  6
Continuous
 62
     7
370
    13
100
AcDbLine
 10
107.025823
 20
4.288594
 30
0.0
 11
107.083823
 21
4.288594
 31
0.0
  0
LINE
  5
1D6
330
38F
100
AcDbEntity
  8
Level 1
  6
Continuous
 62
     7
370
    13
100
AcDbLine
 10
107.256448
 20
4.820937
 30
0.0
 11
107.988333
 21
4.820937
 31
0.0
  0
LINE
  5
1D7
330
38F
100
AcDbEntity
  8
Level 1
  6
Continuous
 62
     7
370
    13
100
AcDbLine
 10
106.72824
 20
4.820937
 30
0.0
 11
106.841469
 21
4.820937
 31
0.0
  0
LINE
  5
1D8
330
38F
100
AcDbEntity
  8
Level 1
  6
Continuous
 62
     7
370
    13
100
AcDbLine
 10
105.723615
 20
4.820937
 30
0.0
 11
106.201417
 21
4.820937
 31
0.0
  0
LINE
  5
1D9
330
38F
100
AcDbEntity
  8
Level 1
  6
Continuous
 62
     7
370
    13
100
AcDbLine
 10
104.1245
 20
4.820937
 30
0.0
 11
104.62025
 21
4.820937
 31
0.0
  0
LINE
  5
1DA
330
38F
100
AcDbEntity
  8
Level 1
  6
Continuous
 62
     7
370
    13
100
AcDbLine
 10
105.022104
 20
4.820937
 30
0.0
 11
105.313479
 21
4.820937
 31
0.0
  0
LINE
  5
1DE
330
38F
100
AcDbEntity
  8
Level 1
  6
Continuous
 62
     7
370
    13
100
AcDbLine
 10
107.807437
 20
4.635198
 30
0.0
 11
108.040115
 21
4.635198
 31
0.0
  0
LINE
  5
1DF
330
38F
100
AcDbEntity
  8
Level 1
  6
Continuous
 62
     7
370
    13
100
AcDbLine
 10
107.893052
 20
4.932104
 30
0.0
 11
107.893052
 21
4.82025
 31
0.0
  0
LINE
  5
1E0
330
38F
100
AcDbEntity
  8
Level 1
  6
Continuous
 62
     7
370
    13
100
AcDbLine
 10
107.89374
 20
4.635896
 30
0.0
 11
107.89374
 21
4.496417
 31
0.0
  0
LWPOLYLINE
  5
1E1
330
38F
100
AcDbEntity
  8
Level 1
  6
Continuous
 62
     7
370
    13
100
AcDbPolyline
 90
        5
 70
   128
 43
0.0
 10
107.889594
 20
4.827844
 10
107.888219
 20
4.828542
 10
107.866812
 20
4.905177
 10
107.911
 20
4.903104
 10
107.889594
 20
4.827844
  0
LWPOLYLINE
  5
1E2
330
38F
100
AcDbEntity
  8
Level 1
  6
Continuous
 62
     7
370
    13
100
AcDbPolyline
 90
        5
 70
   128
 43
0.0
 10
107.888219
 20
4.629688
 10
107.888219
 20
4.629688
 10
107.86474
 20
4.541302
 10
107.917208
 20
4.548896
 10
107.888219
 20
4.629688
  0
LWPOLYLINE
  5
1E3
330
38F
100
AcDbEntity
  8
Level 1
  6
Continuous
 62
     7
370
    13
100
AcDbPolyline
 90
        3
 70
   128
 43
0.0
 10
107.431823
 20
5.132333
 10
107.277156
 20
5.132333
 10
107.065177
 20
4.755344
  0
LWPOLYLINE
  5
1E4
330
38F
100
AcDbEntity
  8
Level 1
  6
Continuous
 62
     7
370
    13
100
AcDbPolyline
 90
        5
 70
   128
 43
0.0
 10
107.061042
 20
4.756729
 10
107.061042
 20
4.756729
 10
107.123875
 20
4.919667
 10
107.164604
 20
4.892052
 10
107.061042
 20
4.756729
  0
LINE
  5
1E5
330
38F
100
AcDbEntity
  8
Level 1
  6
Continuous
 62
     7
370
    13
100
AcDbLine
 10
105.524062
 20
5.121292
 30
0.0
 11
105.524062
 21
5.268365
 31
0.0
  0
LINE
  5
1E6
330
38F
100
AcDbEntity
  8
Level 1
  6
Continuous
 62
     7
370
    13
100
AcDbLine
 10
105.872062
 20
5.119219
 30
0.0
 11
105.872062
 21
5.270427
 31
0.0
  0
LINE
  5
1E7
330
38F
100
AcDbEntity
  8
Level 1
  6
Continuous
 62
     7
370
    13
100
AcDbLine
 10
106.202104
 20
5.121979
 30
0.0
 11
106.202104
 21
5.271813
 31
0.0
  0
LINE
  5
1E8
330
38F
100
AcDbEntity
  8
Level 1
  6
Continuous
 62
     7
370
    13
100
AcDbLine
 10
106.48174
 20
5.117844
 30
0.0
 11
106.48174
 21
5.268365
 31
0.0
  0
LINE
  5
1E9
330
38F
100
AcDbEntity
  8
Level 1
  6
Continuous
 62
     7
370
    13
100
AcDbLine
 10
106.7165
 20
5.125427
 30
0.0
 11
106.7165
 21
5.265594
 31
0.0
  0
LINE
  5
1EA
330
38F
100
AcDbEntity
  8
Level 1
  6
Continuous
 62
     7
370
    13
100
AcDbLine
 10
107.060344
 20
5.125427
 30
0.0
 11
107.060344
 21
5.264219
 31
0.0
  0
LINE
  5
1EB
330
38F
100
AcDbEntity
  8
Level 1
  6
Continuous
 62
     7
370
    13
100
AcDbLine
 10
105.525448
 20
5.194479
 30
0.0
 11
106.201417
 21
5.194479
 31
0.0
  0
LINE
  5
1EC
330
38F
100
AcDbEntity
  8
Level 1
  6
Continuous
 62
     7
370
    13
100
AcDbLine
 10
106.48174
 20
5.187583
 30
0.0
 11
107.062427
 21
5.187583
 31
0.0
  0
LWPOLYLINE
  5
1EE
330
38F
100
AcDbEntity
  8
Level 1
  6
Continuous
 62
     7
370
    13
100
AcDbPolyline
 90
        3
 70
   128
 43
0.0
 10
104.413115
 20
4.993552
 10
104.35649
 20
4.993552
 10
104.188708
 20
4.827146
  0
LWPOLYLINE
  5
1EF
330
38F
100
AcDbEntity
  8
Level 1
  6
Continuous
 62
     7
370
    13
100
AcDbPolyline
 90
        5
 70
   128
 43
0.0
 10
104.188708
 20
4.827146
 10
104.188708
 20
4.827146
 10
104.307479
 20
4.92174
 10
104.268115
 20
4.959719
 10
104.188708
 20
4.827146
  0
LWPOLYLINE
  5
1F5
330
38F
100
AcDbEntity
  8
Level 1
  6
Continuous
 62
     7
370
    13
100
AcDbPolyline
 90
        3
 70
   128
 43
0.0
 10
105.504052
 20
5.338094
 10
105.591042
 20
5.338094
 10
105.717406
 20
5.190333
  0
LWPOLYLINE
  5
1F6
330
38F
100
AcDbEntity
  8
Level 1
  6
Continuous
 62
     7
370
    13
100
AcDbPolyline
 90
        3
 70
   128
 43
0.0
 10
106.057802
 20
5.355354
 10
106.137198
 20
5.355354
 10
106.033635
 20
5.193094
  0
LINE
  5
1F7
330
38F
100
AcDbEntity
  8
Level 1
  6
Continuous
 62
     7
370
    13
100
AcDbLine
 10
106.634333
 20
5.383667
 30
0.0
 11
106.530006
 21
5.383667
 31
0.0
  0
LINE
  5
1F8
330
38F
100
AcDbEntity
  8
Level 1
  6
Continuous
 62
     7
370
    13
100
AcDbLine
 10
106.530006
 20
5.383667
 30
0.0
 11
106.612927
 21
5.2
 31
0.0
  0
LINE
  5
1F9
330
38F
100
AcDbEntity
  8
Level 1
  6
Continuous
 62
     7
370
    13
100
AcDbLine
 10
107.168062
 20
5.3595
 30
0.0
 11
107.083699
 21
5.3595
 31
0.0
  0
LINE
  5
1FA
330
38F
100
AcDbEntity
  8
Level 1
  6
Continuous
 62
     7
370
    13
100
AcDbLine
 10
107.083699
 20
5.3595
 30
0.0
 11
106.8905
 21
5.197927
 31
0.0
  0
LWPOLYLINE
  5
1FB
330
38F
100
AcDbEntity
  8
Level 1
  6
Continuous
 62
     7
370
    13
100
AcDbPolyline
 90
        5
 70
   128
 43
0.0
 10
105.526833
 20
5.194479
 10
105.525448
 20
5.195865
 10
105.596573
 20
5.176521
 10
105.596573
 20
5.207594
 10
105.526833
 20
5.194479
  0
LWPOLYLINE
  5
1FC
330
38F
100
AcDbEntity
  8
Level 1
  6
Continuous
 62
     7
370
    13
100
AcDbPolyline
 90
        5
 70
   128
 43
0.0
 10
105.871375
 20
5.191719
 10
105.871375
 20
5.191719
 10
105.793354
 20
5.174448
 10
105.796115
 20
5.205531
 10
105.871375
 20
5.191719
  0
LWPOLYLINE
  5
1FD
330
38F
100
AcDbEntity
  8
Level 1
  6
Continuous
 62
     7
370
    13
100
AcDbPolyline
 90
        5
 70
   128
 43
0.0
 10
106.204167
 20
5.191719
 10
106.204167
 20
5.191719
 10
106.126844
 20
5.174448
 10
106.128917
 20
5.205531
 10
106.204167
 20
5.191719
  0
LWPOLYLINE
  5
1FE
330
38F
100
AcDbEntity
  8
Level 1
  6
Continuous
 62
     7
370
    13
100
AcDbPolyline
 90
        5
 70
   128
 43
0.0
 10
106.722031
 20
5.191719
 10
106.722031
 20
5.191719
 10
106.644
 20
5.174448
 10
106.646062
 20
5.205531
 10
106.722031
 20
5.191719
  0
LWPOLYLINE
  5
1FF
330
38F
100
AcDbEntity
  8
Level 1
  6
Continuous
 62
     7
370
    13
100
AcDbPolyline
 90
        5
 70
   128
 43
0.0
 10
107.065177
 20
5.191719
 10
107.065177
 20
5.191719
 10
106.987854
 20
5.174448
 10
106.989927
 20
5.205531
 10
107.065177
 20
5.191719
  0
LWPOLYLINE
  5
200
330
38F
100
AcDbEntity
  8
Level 1
  6
Continuous
 62
     7
370
    13
100
AcDbPolyline
 90
        5
 70
   128
 43
0.0
 10
105.872062
 20
5.194479
 10
105.870677
 20
5.195865
 10
105.941802
 20
5.176521
 10
105.94249
 20
5.207594
 10
105.872062
 20
5.194479
  0
LWPOLYLINE
  5
201
330
38F
100
AcDbEntity
  8
Level 1
  6
Continuous
 62
     7
370
    13
100
AcDbPolyline
 90
        5
 70
   128
 43
0.0
 10
106.483812
 20
5.194479
 10
106.483125
 20
5.195865
 10
106.55424
 20
5.176521
 10
106.55424
 20
5.207594
 10
106.483812
 20
5.194479
  0
LWPOLYLINE
  5
202
330
38F
100
AcDbEntity
  8
Level 1
  6
Continuous
 62
     7
370
    13
100
AcDbPolyline
 90
        5
 70
   128
 43
0.0
 10
106.722031
 20
5.194479
 10
106.720635
 20
5.195865
 10
106.79176
 20
5.176521
 10
106.792448
 20
5.207594
 10
106.722031
 20
5.194479
  0
LWPOLYLINE
  5
204
330
38F
100
AcDbEntity
  8
Level 1
  6
Continuous
 62
     7
370
    13
100
AcDbPolyline
 90
        3
 70
   128
 43
0.0
 10
105.225094
 20
3.223896
 10
105.010365
 20
3.223896
 10
105.497146
 20
3.792146
  0
LWPOLYLINE
  5
205
330
38F
100
AcDbEntity
  8
Level 1
  6
Continuous
 62
     7
370
    13
100
AcDbPolyline
 90
        5
 70
   128
 43
0.0
 10
105.497146
 20
3.792146
 10
105.497146
 20
3.792146
 10
105.399094
 20
3.714125
 10
105.431542
 20
3.689271
 10
105.497146
 20
3.792146
  0
LWPOLYLINE
  5
206
330
38F
100
AcDbEntity
  8
Level 1
  6
Continuous
 62
     7
370
    13
100
AcDbPolyline
 90
        4
 70
   128
 43
0.0
 10
108.890771
 20
6.457333
 10
108.890771
 20
6.431792
 10
108.975
 20
6.431792
 10
108.975
 20
6.458031
  0
LINE
  5
207
330
38F
100
AcDbEntity
  8
Level 1
  6
Continuous
 62
     7
370
    13
100
AcDbLine
 10
108.925979
 20
6.431792
 30
0.0
 11
108.925979
 21
6.18875
 31
0.0
  0
LINE
  5
208
330
38F
100
AcDbEntity
  8
Level 1
  6
Continuous
 62
     7
370
    13
100
AcDbLine
 10
108.941177
 20
6.431792
 30
0.0
 11
108.941177
 21
6.18875
 31
0.0
  0
LWPOLYLINE
  5
209
330
38F
100
AcDbEntity
  8
Level 1
  6
Continuous
 62
     7
370
    13
100
AcDbPolyline
 90
        4
 70
   128
 43
0.0
 10
108.908719
 20
6.431792
 10
108.908719
 20
6.444906
 10
108.957052
 20
6.444906
 10
108.957052
 20
6.432479
  0
LWPOLYLINE
  5
20A
330
38F
100
AcDbEntity
  8
Level 1
  6
Continuous
 62
     7
370
    13
100
AcDbPolyline
 90
        3
 70
   128
 43
0.0
 10
108.939792
 20
6.18875
 10
108.932885
 20
6.154219
 10
108.925979
 20
6.18875
  0
LINE
  5
20B
330
38F
100
AcDbEntity
  8
Level 1
  6
Continuous
 62
     7
370
    13
100
AcDbLine
 10
108.687083
 20
6.154219
 30
0.0
 11
108.67949
 21
6.18875
 31
0.0
  0
LINE
  5
20C
330
38F
100
AcDbEntity
  8
Level 1
  6
Continuous
 62
     7
370
    13
100
AcDbLine
 10
108.69399
 20
6.18875
 30
0.0
 11
108.687083
 21
6.154219
 31
0.0
  0
LINE
  5
20D
330
38F
100
AcDbEntity
  8
Level 1
  6
Continuous
 62
     7
370
    13
100
AcDbLine
 10
108.71125
 20
6.444906
 30
0.0
 11
108.71125
 21
6.432479
 31
0.0
  0
LINE
  5
20E
330
38F
100
AcDbEntity
  8
Level 1
  6
Continuous
 62
     7
370
    13
100
AcDbLine
 10
108.662219
 20
6.444906
 30
0.0
 11
108.71125
 21
6.444906
 31
0.0
  0
LINE
  5
20F
330
38F
100
AcDbEntity
  8
Level 1
  6
Continuous
 62
     7
370
    13
100
AcDbLine
 10
108.662219
 20
6.431792
 30
0.0
 11
108.662219
 21
6.444906
 31
0.0
  0
LINE
  5
210
330
38F
100
AcDbEntity
  8
Level 1
  6
Continuous
 62
     7
370
    13
100
AcDbLine
 10
108.694677
 20
6.431792
 30
0.0
 11
108.694677
 21
6.18875
 31
0.0
  0
LINE
  5
211
330
38F
100
AcDbEntity
  8
Level 1
  6
Continuous
 62
     7
370
    13
100
AcDbLine
 10
108.680177
 20
6.431792
 30
0.0
 11
108.680177
 21
6.18875
 31
0.0
  0
LINE
  5
212
330
38F
100
AcDbEntity
  8
Level 1
  6
Continuous
 62
     7
370
    13
100
AcDbLine
 10
108.72851
 20
6.431792
 30
0.0
 11
108.72851
 21
6.458031
 31
0.0
  0
LINE
  5
213
330
38F
100
AcDbEntity
  8
Level 1
  6
Continuous
 62
     7
370
    13
100
AcDbLine
 10
108.644969
 20
6.431792
 30
0.0
 11
108.72851
 21
6.431792
 31
0.0
  0
LINE
  5
214
330
38F
100
AcDbEntity
  8
Level 1
  6
Continuous
 62
     7
370
    13
100
AcDbLine
 10
108.644969
 20
6.457333
 30
0.0
 11
108.644969
 21
6.431792
 31
0.0
  0
LWPOLYLINE
  5
215
330
38F
100
AcDbEntity
  8
Level 1
  6
Continuous
 62
     7
370
    13
100
AcDbPolyline
 90
        4
 70
   128
 43
0.0
 10
108.395708
 20
6.457333
 10
108.395708
 20
6.431792
 10
108.47925
 20
6.431792
 10
108.47925
 20
6.458031
  0
LINE
  5
216
330
38F
100
AcDbEntity
  8
Level 1
  6
Continuous
 62
     7
370
    13
100
AcDbLine
 10
108.430917
 20
6.431792
 30
0.0
 11
108.430917
 21
6.18875
 31
0.0
  0
LINE
  5
217
330
38F
100
AcDbEntity
  8
Level 1
  6
Continuous
 62
     7
370
    13
100
AcDbLine
 10
108.445417
 20
6.431792
 30
0.0
 11
108.445417
 21
6.18875
 31
0.0
  0
LWPOLYLINE
  5
218
330
38F
100
AcDbEntity
  8
Level 1
  6
Continuous
 62
     7
370
    13
100
AcDbPolyline
 90
        4
 70
   128
 43
0.0
 10
108.412969
 20
6.431792
 10
108.412969
 20
6.444906
 10
108.46199
 20
6.444906
 10
108.46199
 20
6.432479
  0
LWPOLYLINE
  5
219
330
38F
100
AcDbEntity
  8
Level 1
  6
Continuous
 62
     7
370
    13
100
AcDbPolyline
 90
        3
 70
   128
 43
0.0
 10
108.444729
 20
6.18875
 10
108.437823
 20
6.154219
 10
108.430229
 20
6.18875
  0
LWPOLYLINE
  5
21A
330
38F
100
AcDbEntity
  8
Level 1
  6
Continuous
 62
     7
370
    13
100
AcDbPolyline
 90
        4
 70
   128
 43
0.0
 10
108.122281
 20
6.457333
 10
108.122281
 20
6.431792
 10
108.205833
 20
6.431792
 10
108.205833
 20
6.458031
  0
LINE
  5
21B
330
38F
100
AcDbEntity
  8
Level 1
  6
Continuous
 62
     7
370
    13
100
AcDbLine
 10
108.15749
 20
6.431792
 30
0.0
 11
108.15749
 21
6.18875
 31
0.0
  0
LINE
  5
21C
330
38F
100
AcDbEntity
  8
Level 1
  6
Continuous
 62
     7
370
    13
100
AcDbLine
 10
108.17199
 20
6.431792
 30
0.0
 11
108.17199
 21
6.18875
 31
0.0
  0
LWPOLYLINE
  5
21D
330
38F
100
AcDbEntity
  8
Level 1
  6
Continuous
 62
     7
370
    13
100
AcDbPolyline
 90
        4
 70
   128
 43
0.0
 10
108.139542
 20
6.431792
 10
108.139542
 20
6.444906
 10
108.188563
 20
6.444906
 10
108.188563
 20
6.432479
  0
LWPOLYLINE
  5
21E
330
38F
100
AcDbEntity
  8
Level 1
  6
Continuous
 62
     7
370
    13
100
AcDbPolyline
 90
        3
 70
   128
 43
0.0
 10
108.171302
 20
6.18875
 10
108.164396
 20
6.154219
 10
108.156813
 20
6.18875
  0
LWPOLYLINE
  5
21F
330
38F
100
AcDbEntity
  8
Level 1
  6
Continuous
 62
     7
370
    13
100
AcDbPolyline
 90
        4
 70
   128
 43
0.0
 10
109.768354
 20
6.457333
 10
109.768354
 20
6.431792
 10
109.851896
 20
6.431792
 10
109.851896
 20
6.458031
  0
LINE
  5
220
330
38F
100
AcDbEntity
  8
Level 1
  6
Continuous
 62
     7
370
    13
100
AcDbLine
 10
109.802875
 20
6.431792
 30
0.0
 11
109.802875
 21
6.18875
 31
0.0
  0
LINE
  5
221
330
38F
100
AcDbEntity
  8
Level 1
  6
Continuous
 62
     7
370
    13
100
AcDbLine
 10
109.818062
 20
6.431792
 30
0.0
 11
109.818062
 21
6.18875
 31
0.0
  0
LWPOLYLINE
  5
222
330
38F
100
AcDbEntity
  8
Level 1
  6
Continuous
 62
     7
370
    13
100
AcDbPolyline
 90
        4
 70
   128
 43
0.0
 10
109.785604
 20
6.431792
 10
109.785604
 20
6.444906
 10
109.834635
 20
6.444906
 10
109.834635
 20
6.432479
  0
LWPOLYLINE
  5
223
330
38F
100
AcDbEntity
  8
Level 1
  6
Continuous
 62
     7
370
    13
100
AcDbPolyline
 90
        3
 70
   128
 43
0.0
 10
109.816688
 20
6.18875
 10
109.810458
 20
6.154219
 10
109.802875
 20
6.18875
  0
LINE
  5
224
330
38F
100
AcDbEntity
  8
Level 1
  6
Continuous
 62
     7
370
    13
100
AcDbLine
 10
109.93475
 20
6.460792
 30
0.0
 11
109.93475
 21
6.268844
 31
0.0
  0
LINE
  5
225
330
38F
100
AcDbEntity
  8
Level 1
  6
Continuous
 62
     7
370
    13
100
AcDbLine
 10
109.626115
 20
6.458031
 30
0.0
 11
109.768354
 21
6.458031
 31
0.0
  0
LINE
  5
226
330
38F
100
AcDbEntity
  8
Level 1
  6
Continuous
 62
     7
370
    13
100
AcDbLine
 10
109.851208
 20
6.458031
 30
0.0
 11
111.34951
 21
6.458031
 31
0.0
  0
LINE
  5
227
330
38F
100
AcDbEntity
  8
Level 1
  6
Continuous
 62
     7
370
    13
100
AcDbLine
 10
108.974323
 20
6.458031
 30
0.0
 11
109.13174
 21
6.458031
 31
0.0
  0
LINE
  5
228
330
38F
100
AcDbEntity
  8
Level 1
  6
Continuous
 62
     7
370
    13
100
AcDbLine
 10
108.729198
 20
6.458031
 30
0.0
 11
108.890083
 21
6.458031
 31
0.0
  0
LINE
  5
229
330
38F
100
AcDbEntity
  8
Level 1
  6
Continuous
 62
     7
370
    13
100
AcDbLine
 10
108.481323
 20
6.458031
 30
0.0
 11
108.642896
 21
6.458031
 31
0.0
  0
LINE
  5
22A
330
38F
100
AcDbEntity
  8
Level 1
  6
Continuous
 62
     7
370
    13
100
AcDbLine
 10
107.980042
 20
6.458031
 30
0.0
 11
108.120896
 21
6.458031
 31
0.0
  0
LINE
  5
22B
330
38F
100
AcDbEntity
  8
Level 1
  6
Continuous
 62
     7
370
    13
100
AcDbLine
 10
108.201
 20
6.458031
 30
0.0
 11
108.395708
 21
6.458031
 31
0.0
  0
LINE
  5
22C
330
38F
100
AcDbEntity
  8
Level 1
  6
Continuous
 62
     7
370
    13
100
AcDbLine
 10
107.164604
 20
6.4525
 30
0.0
 11
107.164604
 21
6.27574
 31
0.0
  0
LWPOLYLINE
  5
22D
330
38F
100
AcDbEntity
  8
Level 1
  6
Continuous
 62
     7
370
    13
100
AcDbPolyline
 90
        4
 70
   128
 43
0.0
 10
107.244708
 20
6.460792
 10
107.244708
 20
6.43525
 10
107.32825
 20
6.43525
 10
107.32825
 20
6.462167
  0
LINE
  5
22E
330
38F
100
AcDbEntity
  8
Level 1
  6
Continuous
 62
     7
370
    13
100
AcDbLine
 10
107.279917
 20
6.43525
 30
0.0
 11
107.279917
 21
6.192885
 31
0.0
  0
LINE
  5
22F
330
38F
100
AcDbEntity
  8
Level 1
  6
Continuous
 62
     7
370
    13
100
AcDbLine
 10
107.294417
 20
6.43525
 30
0.0
 11
107.294417
 21
6.192885
 31
0.0
  0
LWPOLYLINE
  5
230
330
38F
100
AcDbEntity
  8
Level 1
  6
Continuous
 62
     7
370
    13
100
AcDbPolyline
 90
        4
 70
   128
 43
0.0
 10
107.261958
 20
6.43525
 10
107.261958
 20
6.449052
 10
107.31099
 20
6.449052
 10
107.31099
 20
6.435927
  0
LWPOLYLINE
  5
231
330
38F
100
AcDbEntity
  8
Level 1
  6
Continuous
 62
     7
370
    13
100
AcDbPolyline
 90
        3
 70
   128
 43
0.0
 10
107.293729
 20
6.192885
 10
107.286823
 20
6.158365
 10
107.279229
 20
6.192885
  0
LINE
  5
232
330
38F
100
AcDbEntity
  8
Level 1
  6
Continuous
 62
     7
370
    13
100
AcDbLine
 10
106.093698
 20
6.458031
 30
0.0
 11
107.241937
 21
6.458031
 31
0.0
  0
LINE
  5
233
330
38F
100
AcDbEntity
  8
Level 1
  6
Continuous
 62
     7
370
    13
100
AcDbLine
 10
107.326865
 20
6.458031
 30
0.0
 11
107.488438
 21
6.458031
 31
0.0
  0
LWPOLYLINE
  5
237
330
38F
100
AcDbEntity
  8
Level 1
  6
Continuous
 62
     7
370
    13
100
AcDbPolyline
 90
        3
 70
   128
 43
0.0
 10
110.462958
 20
6.616135
 10
110.351104
 20
6.61476
 10
110.120479
 20
6.47874
  0
LWPOLYLINE
  5
238
330
38F
100
AcDbEntity
  8
Level 1
  6
Continuous
 62
     7
370
    13
100
AcDbPolyline
 90
        5
 70
   128
 43
0.0
 10
110.117729
 20
6.477354
 10
110.117729
 20
6.477354
 10
110.218531
 20
6.52224
 10
110.200583
 20
6.555385
 10
110.117729
 20
6.477354
  0
LWPOLYLINE
  5
23B
330
38F
100
AcDbEntity
  8
Level 1
  6
Continuous
 62
     7
370
    13
100
AcDbPolyline
 90
        3
 70
   128
 43
0.0
 10
107.185323
 20
6.649979
 10
107.296479
 20
6.649979
 10
107.530552
 20
6.342719
  0
LWPOLYLINE
  5
23C
330
38F
100
AcDbEntity
  8
Level 1
  6
Continuous
 62
     7
370
    13
100
AcDbPolyline
 90
        5
 70
   128
 43
0.0
 10
107.527792
 20
6.353073
 10
107.528479
 20
6.353073
 10
107.467031
 20
6.408313
 10
107.478771
 20
6.429021
 10
107.527792
 20
6.353073
  0
LWPOLYLINE
  5
23D
330
38F
100
AcDbEntity
  8
Level 1
  6
Continuous
 62
     7
370
    13
100
AcDbPolyline
 90
        3
 70
   128
 43
0.0
 10
107.830906
 20
6.770812
 10
107.899958
 20
6.7715
 10
107.935854
 20
6.441458
  0
LWPOLYLINE
  5
23E
330
38F
100
AcDbEntity
  8
Level 1
  6
Continuous
 62
     7
370
    13
100
AcDbPolyline
 90
        3
 70
   128
 43
0.0
 10
108.169229
 20
6.937896
 10
108.082927
 20
6.937896
 10
108.247948
 20
6.460792
  0
LWPOLYLINE
  5
23F
330
38F
100
AcDbEntity
  8
Level 1
  6
Continuous
 62
     7
370
    13
100
AcDbPolyline
 90
        5
 70
   128
 43
0.0
 10
108.245875
 20
6.458719
 10
108.24726
 20
6.458719
 10
108.21274
 20
6.523615
 10
108.230688
 20
6.535354
 10
108.245875
 20
6.458719
  0
LWPOLYLINE
  5
240
330
38F
100
AcDbEntity
  8
Level 1
  6
Continuous
 62
     7
370
    13
100
AcDbPolyline
 90
        5
 70
   128
 43
0.0
 10
107.936552
 20
6.440073
 10
107.936552
 20
6.440073
 10
107.916531
 20
6.516031
 10
107.93724
 20
6.520865
 10
107.936552
 20
6.440073
  0
LINE
  5
241
330
38F
100
AcDbEntity
  8
Level 1
  6
Continuous
 62
     7
370
    13
100
AcDbLine
 10
106.628812
 20
8.718604
 30
0.0
 11
106.664031
 21
8.718604
 31
0.0
  0
LINE
  5
242
330
38F
100
AcDbEntity
  8
Level 1
  6
Continuous
 62
     7
370
    13
100
AcDbLine
 10
106.630187
 20
8.579823
 30
0.0
 11
106.662635
 21
8.579823
 31
0.0
  0
LINE
  5
243
330
38F
100
AcDbEntity
  8
Level 1
  6
Continuous
 62
     7
370
    13
100
AcDbLine
 10
108.193406
 20
8.71999
 30
0.0
 11
108.155417
 21
8.71999
 31
0.0
  0
LINE
  5
244
330
38F
100
AcDbEntity
  8
Level 1
  6
Continuous
 62
     7
370
    13
100
AcDbLine
 10
108.191333
 20
8.578448
 30
0.0
 11
108.160948
 21
8.578448
 31
0.0
  0
LINE
  5
245
330
38F
100
AcDbEntity
  8
Level 1
  6
Continuous
 62
     7
370
    13
100
AcDbLine
 10
105.961125
 20
8.496271
 30
0.0
 11
105.961125
 21
7.390844
 31
0.0
  0
LINE
  5
246
330
38F
100
AcDbEntity
  8
Level 1
  6
Continuous
 62
     7
370
    13
100
AcDbLine
 10
108.865906
 20
8.50249
 30
0.0
 11
108.865906
 21
7.403958
 31
0.0
  0
LINE
  5
249
330
38F
100
AcDbEntity
  8
Level 1
  6
Continuous
 62
     7
370
    13
100
AcDbLine
 10
110.47076
 20
8.083385
 30
0.0
 11
111.446392
 21
8.083385
 31
0.0
  0
LINE
  5
24B
330
38F
100
AcDbEntity
  8
Level 1
  6
Continuous
 62
     7
370
    13
100
AcDbLine
 10
108.267642
 20
5.38958
 30
0.0
 11
108.873454
 21
5.38958
 31
0.0
  0
LINE
  5
24D
330
38F
100
AcDbEntity
  8
Level 1
  6
Continuous
 62
     7
370
    13
100
AcDbLine
 10
105.913723
 20
2.745406
 30
0.0
 11
107.318792
 21
2.745406
 31
0.0
  0
LINE
  5
251
330
38F
100
AcDbEntity
  8
Level 1
  6
Continuous
 62
     7
370
    13
100
AcDbLine
 10
107.692813
 20
5.759281
 30
0.0
 11
108.190635
 21
5.792417
 31
0.0
  0
LINE
  5
252
330
38F
100
AcDbEntity
  8
Level 1
  6
Continuous
 62
     7
370
    13
100
AcDbLine
 10
108.870063
 20
5.788281
 30
0.0
 11
109.336812
 21
5.764802
 31
0.0
  0
LWPOLYLINE
  5
253
330
38F
100
AcDbEntity
  8
Level 1
  6
Continuous
 62
     7
370
    13
100
AcDbPolyline
 90
        5
 70
   128
 43
0.0
 10
109.332667
 20
5.762729
 10
109.336812
 20
5.762729
 10
109.222875
 20
5.76549
 10
109.219437
 20
5.740635
 10
109.332667
 20
5.762729
  0
LWPOLYLINE
  5
254
330
38F
100
AcDbEntity
  8
Level 1
  6
Continuous
 62
     7
370
    13
100
AcDbPolyline
 90
        5
 70
   128
 43
0.0
 10
107.688667
 20
5.762729
 10
107.690052
 20
5.762729
 10
107.797771
 20
5.773771
 10
107.79224
 20
5.741323
 10
107.688667
 20
5.762729
  0
LINE
  5
258
330
38F
100
AcDbEntity
  8
Level 1
  6
Continuous
 62
     7
370
    13
100
AcDbLine
 10
106.886354
 20
6.173563
 30
0.0
 11
106.932615
 21
6.17424
 31
0.0
  0
LINE
  5
259
330
38F
100
AcDbEntity
  8
Level 1
  6
Continuous
 62
     7
370
    13
100
AcDbLine
 10
106.937448
 20
6.066531
 30
0.0
 11
106.983021
 21
6.067229
 31
0.0
  0
LINE
  5
25C
330
38F
100
AcDbEntity
  8
Level 1
  6
Continuous
 62
     7
370
    13
100
AcDbLine
 10
106.796594
 20
5.994031
 30
0.0
 11
106.842167
 21
5.994729
 31
0.0
  0
LINE
  5
25D
330
38F
100
AcDbEntity
  8
Level 1
  6
Continuous
 62
     7
370
    13
100
AcDbLine
 10
106.777948
 20
6.232937
 30
0.0
 11
106.824208
 21
6.233635
 31
0.0
  0
LINE
  5
25F
330
38F
100
AcDbEntity
  8
Level 1
  6
Continuous
 62
     7
370
    13
100
AcDbLine
 10
106.907073
 20
5.911177
 30
0.0
 11
106.953333
 21
5.912562
 31
0.0
  0
LINE
  5
262
330
38F
100
AcDbEntity
  8
Level 1
  6
Continuous
 62
     7
370
    13
100
AcDbLine
 10
107.070708
 20
5.966417
 30
0.0
 11
107.116969
 21
5.967115
 31
0.0
  0
LINE
  5
263
330
38F
100
AcDbEntity
  8
Level 1
  6
Continuous
 62
     7
370
    13
100
AcDbLine
 10
107.003042
 20
6.243979
 30
0.0
 11
107.049302
 21
6.245365
 31
0.0
  0
LINE
  5
266
330
38F
100
AcDbEntity
  8
Level 1
  6
Continuous
 62
     7
370
    13
100
AcDbLine
 10
110.187458
 20
5.92499
 30
0.0
 11
110.233719
 21
5.925687
 31
0.0
  0
LINE
  5
267
330
38F
100
AcDbEntity
  8
Level 1
  6
Continuous
 62
     7
370
    13
100
AcDbLine
 10
110.076979
 20
6.007156
 30
0.0
 11
110.12324
 21
6.007844
 31
0.0
  0
LINE
  5
26A
330
38F
100
AcDbEntity
  8
Level 1
  6
Continuous
 62
     7
370
    13
100
AcDbLine
 10
110.217833
 20
6.079656
 30
0.0
 11
110.264094
 21
6.080344
 31
0.0
  0
LINE
  5
26B
330
38F
100
AcDbEntity
  8
Level 1
  6
Continuous
 62
     7
370
    13
100
AcDbLine
 10
110.167437
 20
6.186677
 30
0.0
 11
110.213
 21
6.187365
 31
0.0
  0
LINE
  5
26E
330
38F
100
AcDbEntity
  8
Level 1
  6
Continuous
 62
     7
370
    13
100
AcDbLine
 10
110.054198
 20
6.211531
 30
0.0
 11
110.100458
 21
6.212219
 31
0.0
  0
LINE
  5
270
330
38F
100
AcDbEntity
  8
Level 1
  6
Continuous
 62
     7
370
    13
100
AcDbLine
 10
109.903677
 20
5.950542
 30
0.0
 11
109.949937
 21
5.951229
 31
0.0
  0
CIRCLE
  5
271
330
38F
100
AcDbEntity
  8
Level 1
  6
Continuous
 62
     7
370
    13
100
AcDbCircle
 10
106.123459
 20
8.103403
 30
0.0
 40
0.03245179337125
  0
CIRCLE
  5
272
330
38F
100
AcDbEntity
  8
Level 1
  6
Continuous
 62
     7
370
    13
100
AcDbCircle
 10
108.715667
 20
8.103403
 30
0.0
 40
0.032520839740125
  0
LWPOLYLINE
  5
274
330
38F
100
AcDbEntity
  8
Level 1
  6
Continuous
 62
     7
370
    13
100
AcDbPolyline
 90
        8
 70
   128
 43
0.0
 10
106.920875
 20
4.720135
 10
106.983021
 20
4.752583
 10
107.065875
 20
4.758104
 10
107.124562
 20
4.746365
 10
107.160469
 20
4.726344
 10
107.175656
 20
4.707708
 10
107.084521
 20
4.710469
 10
107.084521
 20
4.287896
  0
LWPOLYLINE
  5
275
330
38F
100
AcDbEntity
  8
Level 1
  6
Continuous
 62
     7
370
    13
100
AcDbPolyline
 90
        6
 70
   128
 43
0.0
 10
107.084521
 20
4.287896
 10
107.084521
 20
3.614
 10
107.06725
 20
3.569125
 10
107.042396
 20
3.569125
 10
107.027208
 20
3.606417
 10
107.027208
 20
4.287896
  0
LWPOLYLINE
  5
276
330
38F
100
AcDbEntity
  8
Level 1
  6
Continuous
 62
     7
370
    13
100
AcDbPolyline
 90
        3
 70
   128
 43
0.0
 10
107.027208
 20
4.287896
 10
107.027208
 20
4.711844
 10
106.925021
 20
4.711844
  0
LWPOLYLINE
  5
277
330
38F
100
AcDbEntity
  8
Level 1
  6
Continuous
 62
     7
370
    13
100
AcDbPolyline
 90
        3
 70
   128
 43
0.0
 10
105.497823
 20
4.291354
 10
105.497823
 20
4.711844
 10
105.395646
 20
4.711844
  0
LWPOLYLINE
  5
278
330
38F
100
AcDbEntity
  8
Level 1
  6
Continuous
 62
     7
370
    13
100
AcDbPolyline
 90
        8
 70
   128
 43
0.0
 10
105.3915
 20
4.720135
 10
105.453646
 20
4.752583
 10
105.5365
 20
4.758104
 10
105.595177
 20
4.746365
 10
105.631094
 20
4.726344
 10
105.646281
 20
4.707708
 10
105.555146
 20
4.710469
 10
105.555146
 20
4.287208
  0
LWPOLYLINE
  5
279
330
38F
100
AcDbEntity
  8
Level 1
  6
Continuous
 62
     7
370
    13
100
AcDbPolyline
 90
        6
 70
   128
 43
0.0
 10
105.555146
 20
4.287208
 10
105.555146
 20
3.614
 10
105.537875
 20
3.569125
 10
105.513719
 20
3.569125
 10
105.497823
 20
3.606417
 10
105.497823
 20
4.291354
  0
CIRCLE
  5
27B
330
38F
100
AcDbEntity
  8
Level 1
  6
Continuous
 62
     7
370
    13
100
AcDbCircle
 10
112.402058
 20
6.606976
 30
0.0
 40
0.06835590518625
  0
CIRCLE
  5
27E
330
38F
100
AcDbEntity
  8
Level 1
  6
Continuous
 62
     7
370
    13
100
AcDbCircle
 10
107.076575
 20
6.635477
 30
0.0
 40
0.06835590518625
  0
CIRCLE
  5
27F
330
38F
100
AcDbEntity
  8
Level 1
  6
Continuous
 62
     7
370
    13
100
AcDbCircle
 10
107.709316
 20
6.756101
 30
0.0
 40
0.068424951555125
  0
LINE
  5
284
330
38F
100
AcDbEntity
  8
Level 1
  6
Continuous
 62
     7
370
    13
100
AcDbLine
 10
109.959604
 20
6.266083
 30
0.0
 11
110.157083
 21
6.462865
 31
0.0
  0
LINE
  5
285
330
38F
100
AcDbEntity
  8
Level 1
  6
Continuous
 62
     7
370
    13
100
AcDbLine
 10
109.93475
 20
6.301979
 30
0.0
 11
110.095625
 21
6.462865
 31
0.0
  0
LINE
  5
286
330
38F
100
AcDbEntity
  8
Level 1
  6
Continuous
 62
     7
370
    13
100
AcDbLine
 10
109.93475
 20
6.36274
 30
0.0
 11
110.034865
 21
6.462865
 31
0.0
  0
LINE
  5
287
330
38F
100
AcDbEntity
  8
Level 1
  6
Continuous
 62
     7
370
    13
100
AcDbLine
 10
109.93475
 20
6.424187
 30
0.0
 11
109.973417
 21
6.462865
 31
0.0
  0
LINE
  5
288
330
38F
100
AcDbEntity
  8
Level 1
  6
Continuous
 62
     7
370
    13
100
AcDbLine
 10
110.021052
 20
6.266083
 30
0.0
 11
110.217833
 21
6.462865
 31
0.0
  0
LINE
  5
289
330
38F
100
AcDbEntity
  8
Level 1
  6
Continuous
 62
     7
370
    13
100
AcDbLine
 10
110.081812
 20
6.266083
 30
0.0
 11
110.278604
 21
6.462865
 31
0.0
  0
LINE
  5
28A
330
38F
100
AcDbEntity
  8
Level 1
  6
Continuous
 62
     7
370
    13
100
AcDbLine
 10
110.143271
 20
6.266083
 30
0.0
 11
110.300698
 21
6.42351
 31
0.0
  0
LINE
  5
28B
330
38F
100
AcDbEntity
  8
Level 1
  6
Continuous
 62
     7
370
    13
100
AcDbLine
 10
110.204031
 20
6.266083
 30
0.0
 11
110.300698
 21
6.36274
 31
0.0
  0
LINE
  5
28C
330
38F
100
AcDbEntity
  8
Level 1
  6
Continuous
 62
     7
370
    13
100
AcDbLine
 10
110.264792
 20
6.266083
 30
0.0
 11
110.300698
 21
6.301292
 31
0.0
  0
LINE
  5
28D
330
38F
100
AcDbEntity
  8
Level 1
  6
Continuous
 62
     7
370
    13
100
AcDbLine
 10
110.165365
 20
6.266083
 30
0.0
 11
109.968583
 21
6.462865
 31
0.0
  0
LINE
  5
28E
330
38F
100
AcDbEntity
  8
Level 1
  6
Continuous
 62
     7
370
    13
100
AcDbLine
 10
110.103917
 20
6.266083
 30
0.0
 11
109.93475
 21
6.434552
 31
0.0
  0
LINE
  5
28F
330
38F
100
AcDbEntity
  8
Level 1
  6
Continuous
 62
     7
370
    13
100
AcDbLine
 10
110.043156
 20
6.266083
 30
0.0
 11
109.93475
 21
6.373792
 31
0.0
  0
LINE
  5
290
330
38F
100
AcDbEntity
  8
Level 1
  6
Continuous
 62
     7
370
    13
100
AcDbLine
 10
109.982396
 20
6.266083
 30
0.0
 11
109.93475
 21
6.313031
 31
0.0
  0
LINE
  5
291
330
38F
100
AcDbEntity
  8
Level 1
  6
Continuous
 62
     7
370
    13
100
AcDbLine
 10
110.226125
 20
6.266083
 30
0.0
 11
110.029344
 21
6.462865
 31
0.0
  0
LINE
  5
292
330
38F
100
AcDbEntity
  8
Level 1
  6
Continuous
 62
     7
370
    13
100
AcDbLine
 10
110.287573
 20
6.266083
 30
0.0
 11
110.090104
 21
6.462865
 31
0.0
  0
LINE
  5
293
330
38F
100
AcDbEntity
  8
Level 1
  6
Continuous
 62
     7
370
    13
100
AcDbLine
 10
110.300698
 20
6.313031
 30
0.0
 11
110.151552
 21
6.462865
 31
0.0
  0
LINE
  5
294
330
38F
100
AcDbEntity
  8
Level 1
  6
Continuous
 62
     7
370
    13
100
AcDbLine
 10
110.300698
 20
6.374479
 30
0.0
 11
110.212323
 21
6.462865
 31
0.0
  0
LINE
  5
295
330
38F
100
AcDbEntity
  8
Level 1
  6
Continuous
 62
     7
370
    13
100
AcDbLine
 10
110.300698
 20
6.43525
 30
0.0
 11
110.273073
 21
6.462865
 31
0.0
  0
LINE
  5
296
330
38F
100
AcDbEntity
  8
Level 1
  6
Continuous
 62
     7
370
    13
100
AcDbLine
 10
106.915354
 20
6.27299
 30
0.0
 11
107.100396
 21
6.458031
 31
0.0
  0
LINE
  5
297
330
38F
100
AcDbEntity
  8
Level 1
  6
Continuous
 62
     7
370
    13
100
AcDbLine
 10
106.854583
 20
6.27299
 30
0.0
 11
107.039635
 21
6.458031
 31
0.0
  0
LINE
  5
298
330
38F
100
AcDbEntity
  8
Level 1
  6
Continuous
 62
     7
370
    13
100
AcDbLine
 10
106.793833
 20
6.27299
 30
0.0
 11
106.978875
 21
6.458031
 31
0.0
  0
LINE
  5
299
330
38F
100
AcDbEntity
  8
Level 1
  6
Continuous
 62
     7
370
    13
100
AcDbLine
 10
106.77174
 20
6.312344
 30
0.0
 11
106.917417
 21
6.458031
 31
0.0
  0
LINE
  5
29A
330
38F
100
AcDbEntity
  8
Level 1
  6
Continuous
 62
     7
370
    13
100
AcDbLine
 10
106.77174
 20
6.373094
 30
0.0
 11
106.856656
 21
6.458031
 31
0.0
  0
LINE
  5
29B
330
38F
100
AcDbEntity
  8
Level 1
  6
Continuous
 62
     7
370
    13
100
AcDbLine
 10
106.77174
 20
6.434552
 30
0.0
 11
106.795208
 21
6.458031
 31
0.0
  0
LINE
  5
29C
330
38F
100
AcDbEntity
  8
Level 1
  6
Continuous
 62
     7
370
    13
100
AcDbLine
 10
106.976802
 20
6.27299
 30
0.0
 11
107.160469
 21
6.456646
 31
0.0
  0
LINE
  5
29D
330
38F
100
AcDbEntity
  8
Level 1
  6
Continuous
 62
     7
370
    13
100
AcDbLine
 10
107.037562
 20
6.27299
 30
0.0
 11
107.160469
 21
6.395885
 31
0.0
  0
LINE
  5
29E
330
38F
100
AcDbEntity
  8
Level 1
  6
Continuous
 62
     7
370
    13
100
AcDbLine
 10
107.098323
 20
6.27299
 30
0.0
 11
107.160469
 21
6.334437
 31
0.0
  0
LINE
  5
29F
330
38F
100
AcDbEntity
  8
Level 1
  6
Continuous
 62
     7
370
    13
100
AcDbLine
 10
107.159771
 20
6.27299
 30
0.0
 11
107.160469
 21
6.273667
 31
0.0
  0
LINE
  5
2A0
330
38F
100
AcDbEntity
  8
Level 1
  6
Continuous
 62
     7
370
    13
100
AcDbLine
 10
107.045854
 20
6.27299
 30
0.0
 11
106.860115
 21
6.458031
 31
0.0
  0
LINE
  5
2A1
330
38F
100
AcDbEntity
  8
Level 1
  6
Continuous
 62
     7
370
    13
100
AcDbLine
 10
106.984396
 20
6.27299
 30
0.0
 11
106.799354
 21
6.458031
 31
0.0
  0
LINE
  5
2A2
330
38F
100
AcDbEntity
  8
Level 1
  6
Continuous
 62
     7
370
    13
100
AcDbLine
 10
106.923635
 20
6.27299
 30
0.0
 11
106.77174
 21
6.424885
 31
0.0
  0
LINE
  5
2A3
330
38F
100
AcDbEntity
  8
Level 1
  6
Continuous
 62
     7
370
    13
100
AcDbLine
 10
106.862875
 20
6.27299
 30
0.0
 11
106.77174
 21
6.363437
 31
0.0
  0
LINE
  5
2A4
330
38F
100
AcDbEntity
  8
Level 1
  6
Continuous
 62
     7
370
    13
100
AcDbLine
 10
106.801427
 20
6.27299
 30
0.0
 11
106.77174
 21
6.302677
 31
0.0
  0
LINE
  5
2A5
330
38F
100
AcDbEntity
  8
Level 1
  6
Continuous
 62
     7
370
    13
100
AcDbLine
 10
107.106604
 20
6.27299
 30
0.0
 11
106.921562
 21
6.458031
 31
0.0
  0
LINE
  5
2A6
330
38F
100
AcDbEntity
  8
Level 1
  6
Continuous
 62
     7
370
    13
100
AcDbLine
 10
107.160469
 20
6.279896
 30
0.0
 11
106.982323
 21
6.458031
 31
0.0
  0
LINE
  5
2A7
330
38F
100
AcDbEntity
  8
Level 1
  6
Continuous
 62
     7
370
    13
100
AcDbLine
 10
107.160469
 20
6.341333
 30
0.0
 11
107.043781
 21
6.458031
 31
0.0
  0
LINE
  5
2A8
330
38F
100
AcDbEntity
  8
Level 1
  6
Continuous
 62
     7
370
    13
100
AcDbLine
 10
107.160469
 20
6.402104
 30
0.0
 11
107.104531
 21
6.458031
 31
0.0
  0
LINE
  5
2A9
330
38F
100
AcDbEntity
  8
Level 1
  6
Continuous
 62
     7
370
    13
100
AcDbLine
 10
107.027208
 20
3.90676
 30
0.0
 11
107.084521
 21
3.964073
 31
0.0
  0
LINE
  5
2AA
330
38F
100
AcDbEntity
  8
Level 1
  6
Continuous
 62
     7
370
    13
100
AcDbLine
 10
107.027208
 20
3.967531
 30
0.0
 11
107.084521
 21
4.024833
 31
0.0
  0
LINE
  5
2AB
330
38F
100
AcDbEntity
  8
Level 1
  6
Continuous
 62
     7
370
    13
100
AcDbLine
 10
107.027208
 20
4.028979
 30
0.0
 11
107.084521
 21
4.086281
 31
0.0
  0
LINE
  5
2AC
330
38F
100
AcDbEntity
  8
Level 1
  6
Continuous
 62
     7
370
    13
100
AcDbLine
 10
107.027208
 20
4.08974
 30
0.0
 11
107.084521
 21
4.147042
 31
0.0
  0
LINE
  5
2AD
330
38F
100
AcDbEntity
  8
Level 1
  6
Continuous
 62
     7
370
    13
100
AcDbLine
 10
107.027208
 20
4.1505
 30
0.0
 11
107.084521
 21
4.207813
 31
0.0
  0
LINE
  5
2AE
330
38F
100
AcDbEntity
  8
Level 1
  6
Continuous
 62
     7
370
    13
100
AcDbLine
 10
107.027208
 20
4.211948
 30
0.0
 11
107.084521
 21
4.26925
 31
0.0
  0
LINE
  5
2AF
330
38F
100
AcDbEntity
  8
Level 1
  6
Continuous
 62
     7
370
    13
100
AcDbLine
 10
107.027208
 20
4.272708
 30
0.0
 11
107.043094
 21
4.288594
 31
0.0
  0
LINE
  5
2B0
330
38F
100
AcDbEntity
  8
Level 1
  6
Continuous
 62
     7
370
    13
100
AcDbLine
 10
107.027208
 20
3.846
 30
0.0
 11
107.084521
 21
3.902625
 31
0.0
  0
LINE
  5
2B1
330
38F
100
AcDbEntity
  8
Level 1
  6
Continuous
 62
     7
370
    13
100
AcDbLine
 10
107.027208
 20
3.784552
 30
0.0
 11
107.084521
 21
3.841865
 31
0.0
  0
LINE
  5
2B2
330
38F
100
AcDbEntity
  8
Level 1
  6
Continuous
 62
     7
370
    13
100
AcDbLine
 10
107.027208
 20
3.723792
 30
0.0
 11
107.084521
 21
3.781094
 31
0.0
  0
LINE
  5
2B3
330
38F
100
AcDbEntity
  8
Level 1
  6
Continuous
 62
     7
370
    13
100
AcDbLine
 10
107.027208
 20
3.662344
 30
0.0
 11
107.084521
 21
3.719656
 31
0.0
  0
LINE
  5
2B4
330
38F
100
AcDbEntity
  8
Level 1
  6
Continuous
 62
     7
370
    13
100
AcDbLine
 10
107.028583
 20
3.602958
 30
0.0
 11
107.084521
 21
3.658885
 31
0.0
  0
LINE
  5
2B5
330
38F
100
AcDbEntity
  8
Level 1
  6
Continuous
 62
     7
370
    13
100
AcDbLine
 10
107.055521
 20
3.569125
 30
0.0
 11
107.074156
 21
3.587771
 31
0.0
  0
LINE
  5
2B6
330
38F
100
AcDbEntity
  8
Level 1
  6
Continuous
 62
     7
370
    13
100
AcDbLine
 10
105.497823
 20
3.903312
 30
0.0
 11
105.555146
 21
3.960625
 31
0.0
  0
LINE
  5
2B7
330
38F
100
AcDbEntity
  8
Level 1
  6
Continuous
 62
     7
370
    13
100
AcDbLine
 10
105.497823
 20
3.964073
 30
0.0
 11
105.555146
 21
4.021375
 31
0.0
  0
LINE
  5
2B8
330
38F
100
AcDbEntity
  8
Level 1
  6
Continuous
 62
     7
370
    13
100
AcDbLine
 10
105.497823
 20
4.025531
 30
0.0
 11
105.555146
 21
4.082146
 31
0.0
  0
LINE
  5
2B9
330
38F
100
AcDbEntity
  8
Level 1
  6
Continuous
 62
     7
370
    13
100
AcDbLine
 10
105.497823
 20
4.086281
 30
0.0
 11
105.555146
 21
4.143594
 31
0.0
  0
LINE
  5
2BA
330
38F
100
AcDbEntity
  8
Level 1
  6
Continuous
 62
     7
370
    13
100
AcDbLine
 10
105.497823
 20
4.147042
 30
0.0
 11
105.555146
 21
4.204354
 31
0.0
  0
LINE
  5
2BB
330
38F
100
AcDbEntity
  8
Level 1
  6
Continuous
 62
     7
370
    13
100
AcDbLine
 10
105.497823
 20
4.2085
 30
0.0
 11
105.555146
 21
4.265813
 31
0.0
  0
LINE
  5
2BC
330
38F
100
AcDbEntity
  8
Level 1
  6
Continuous
 62
     7
370
    13
100
AcDbLine
 10
105.497823
 20
4.26925
 30
0.0
 11
105.519229
 21
4.291354
 31
0.0
  0
LINE
  5
2BD
330
38F
100
AcDbEntity
  8
Level 1
  6
Continuous
 62
     7
370
    13
100
AcDbLine
 10
105.497823
 20
3.841865
 30
0.0
 11
105.555146
 21
3.899167
 31
0.0
  0
LINE
  5
2BE
330
38F
100
AcDbEntity
  8
Level 1
  6
Continuous
 62
     7
370
    13
100
AcDbLine
 10
105.497823
 20
3.781094
 30
0.0
 11
105.555146
 21
3.838406
 31
0.0
  0
LINE
  5
2BF
330
38F
100
AcDbEntity
  8
Level 1
  6
Continuous
 62
     7
370
    13
100
AcDbLine
 10
105.497823
 20
3.720333
 30
0.0
 11
105.555146
 21
3.777646
 31
0.0
  0
LINE
  5
2C0
330
38F
100
AcDbEntity
  8
Level 1
  6
Continuous
 62
     7
370
    13
100
AcDbLine
 10
105.497823
 20
3.658885
 30
0.0
 11
105.555146
 21
3.716198
 31
0.0
  0
LINE
  5
2C1
330
38F
100
AcDbEntity
  8
Level 1
  6
Continuous
 62
     7
370
    13
100
AcDbLine
 10
105.499906
 20
3.600885
 30
0.0
 11
105.555146
 21
3.655437
 31
0.0
  0
LINE
  5
2C2
330
38F
100
AcDbEntity
  8
Level 1
  6
Continuous
 62
     7
370
    13
100
AcDbLine
 10
105.529594
 20
3.569125
 30
0.0
 11
105.543406
 21
3.58225
 31
0.0
  0
CIRCLE
  5
2C3
330
38F
100
AcDbEntity
  8
Level 1
  6
Continuous
 62
     7
370
    13
100
AcDbCircle
 10
107.023272
 20
8.662609
 30
0.0
 40
0.03245179337125
  0
LWPOLYLINE
  5
2C4
330
38F
100
AcDbEntity
  8
Level 1
  6
Continuous
 62
     7
370
    13
100
AcDbPolyline
 90
        3
 70
   128
 43
0.0
 10
106.727542
 20
9.188812
 10
106.67024
 20
9.188812
 10
107.017542
 20
8.695125
  0
LWPOLYLINE
  5
2C5
330
38F
100
AcDbEntity
  8
Level 1
  6
Continuous
 62
     7
370
    13
100
AcDbPolyline
 90
        3
 70
   128
 43
0.0
 10
106.990615
 20
8.755885
 10
107.017542
 20
8.695125
 10
106.969208
 20
8.740708
  0
LINE
  5
2C6
330
38F
100
AcDbEntity
  8
Level 1
  6
Continuous
 62
     7
370
    13
100
AcDbLine
 10
106.553542
 20
9.080406
 30
0.0
 11
106.990615
 21
8.675104
 31
0.0
  0
LWPOLYLINE
  5
2C7
330
38F
100
AcDbEntity
  8
Level 1
  6
Continuous
 62
     7
370
    13
100
AcDbPolyline
 90
        3
 70
   128
 43
0.0
 10
106.951948
 20
8.728969
 10
106.990615
 20
8.675104
 10
106.934687
 20
8.709625
  0
LINE
  5
2C8
330
38F
100
AcDbEntity
  8
Level 1
  6
Continuous
 62
     7
370
    13
100
AcDbLine
 10
106.992688
 20
8.756583
 30
0.0
 11
106.969208
 21
8.741385
 31
0.0
  0
LINE
  5
2C9
330
38F
100
AcDbEntity
  8
Level 1
  6
Continuous
 62
     7
370
    13
100
AcDbLine
 10
106.935375
 20
8.709625
 30
0.0
 11
106.952635
 21
8.731031
 31
0.0
  0
CIRCLE
  5
2CA
330
38F
100
AcDbEntity
  8
Level 1
  6
Continuous
 62
     7
370
    13
100
AcDbCircle
 10
107.537322
 20
8.660538
 30
0.0
 40
0.03245179337125
  0
LINE
  5
2CC
330
38F
100
AcDbEntity
  8
Level 1
  6
Continuous
 62
     7
370
    13
100
AcDbLine
 10
104.62025
 20
4.820937
 30
0.0
 11
105.022104
 21
4.820937
 31
0.0
  0
LINE
  5
2CD
330
38F
100
AcDbEntity
  8
Level 1
  6
Continuous
 62
     7
370
    13
100
AcDbLine
 10
105.999802
 20
4.825771
 30
0.0
 11
105.877583
 21
4.703562
 31
0.0
  0
LINE
  5
2CE
330
38F
100
AcDbEntity
  8
Level 1
  6
Continuous
 62
     7
370
    13
100
AcDbLine
 10
105.877583
 20
4.637271
 30
0.0
 11
106.066083
 21
4.825771
 31
0.0
  0
LINE
  5
2CF
330
38F
100
AcDbEntity
  8
Level 1
  6
Continuous
 62
     7
370
    13
100
AcDbLine
 10
105.877583
 20
4.57099
 30
0.0
 11
106.132365
 21
4.825771
 31
0.0
  0
LINE
  5
2D0
330
38F
100
AcDbEntity
  8
Level 1
  6
Continuous
 62
     7
370
    13
100
AcDbLine
 10
105.877583
 20
4.504708
 30
0.0
 11
106.198656
 21
4.825771
 31
0.0
  0
LINE
  5
2D1
330
38F
100
AcDbEntity
  8
Level 1
  6
Continuous
 62
     7
370
    13
100
AcDbLine
 10
105.877583
 20
4.438417
 30
0.0
 11
106.198656
 21
4.75949
 31
0.0
  0
LINE
  5
2D2
330
38F
100
AcDbEntity
  8
Level 1
  6
Continuous
 62
     7
370
    13
100
AcDbLine
 10
105.877583
 20
4.372135
 30
0.0
 11
106.215219
 21
4.709771
 31
0.0
  0
LINE
  5
2D3
330
38F
100
AcDbEntity
  8
Level 1
  6
Continuous
 62
     7
370
    13
100
AcDbLine
 10
105.877583
 20
4.305854
 30
0.0
 11
106.260104
 21
4.687677
 31
0.0
  0
LINE
  5
2D4
330
38F
100
AcDbEntity
  8
Level 1
  6
Continuous
 62
     7
370
    13
100
AcDbLine
 10
106.306365
 20
4.58549
 30
0.0
 11
106.001875
 21
4.28099
 31
0.0
  0
LINE
  5
2D5
330
38F
100
AcDbEntity
  8
Level 1
  6
Continuous
 62
     7
370
    13
100
AcDbLine
 10
106.306365
 20
4.519198
 30
0.0
 11
106.068156
 21
4.28099
 31
0.0
  0
LINE
  5
2D6
330
38F
100
AcDbEntity
  8
Level 1
  6
Continuous
 62
     7
370
    13
100
AcDbLine
 10
106.300844
 20
4.452917
 30
0.0
 11
106.129604
 21
4.281687
 31
0.0
  0
LINE
  5
2D7
330
38F
100
AcDbEntity
  8
Level 1
  6
Continuous
 62
     7
370
    13
100
AcDbLine
 10
106.304292
 20
4.655229
 30
0.0
 11
105.93351
 21
4.28376
 31
0.0
  0
LINE
  5
2D8
330
38F
100
AcDbEntity
  8
Level 1
  6
Continuous
 62
     7
370
    13
100
AcDbLine
 10
106.490031
 20
4.709083
 30
0.0
 11
106.378865
 21
4.597917
 31
0.0
  0
LINE
  5
2D9
330
38F
100
AcDbEntity
  8
Level 1
  6
Continuous
 62
     7
370
    13
100
AcDbLine
 10
106.490031
 20
4.642802
 30
0.0
 11
106.373333
 21
4.526104
 31
0.0
  0
LINE
  5
2DA
330
38F
100
AcDbEntity
  8
Level 1
  6
Continuous
 62
     7
370
    13
100
AcDbLine
 10
106.556312
 20
4.642802
 30
0.0
 11
106.384385
 21
4.470875
 31
0.0
  0
LINE
  5
2DB
330
38F
100
AcDbEntity
  8
Level 1
  6
Continuous
 62
     7
370
    13
100
AcDbLine
 10
106.622594
 20
4.642802
 30
0.0
 11
106.384385
 21
4.404594
 31
0.0
  0
LINE
  5
2DC
330
38F
100
AcDbEntity
  8
Level 1
  6
Continuous
 62
     7
370
    13
100
AcDbLine
 10
106.689573
 20
4.642802
 30
0.0
 11
106.401646
 21
4.354875
 31
0.0
  0
LINE
  5
2DD
330
38F
100
AcDbEntity
  8
Level 1
  6
Continuous
 62
     7
370
    13
100
AcDbLine
 10
106.722708
 20
4.609656
 30
0.0
 11
106.418219
 21
4.305167
 31
0.0
  0
LINE
  5
2DE
330
38F
100
AcDbEntity
  8
Level 1
  6
Continuous
 62
     7
370
    13
100
AcDbLine
 10
106.722708
 20
4.543375
 30
0.0
 11
106.445833
 21
4.2665
 31
0.0
  0
LINE
  5
2DF
330
38F
100
AcDbEntity
  8
Level 1
  6
Continuous
 62
     7
370
    13
100
AcDbLine
 10
106.722708
 20
4.477094
 30
0.0
 11
106.528687
 21
4.28376
 31
0.0
  0
LINE
  5
2E0
330
38F
100
AcDbEntity
  8
Level 1
  6
Continuous
 62
     7
370
    13
100
AcDbLine
 10
106.722708
 20
4.410802
 30
0.0
 11
106.589458
 21
4.278229
 31
0.0
  0
LINE
  5
2E1
330
38F
100
AcDbEntity
  8
Level 1
  6
Continuous
 62
     7
370
    13
100
AcDbLine
 10
106.722708
 20
4.344521
 30
0.0
 11
106.65574
 21
4.278229
 31
0.0
  0
LINE
  5
2E2
330
38F
100
AcDbEntity
  8
Level 1
  6
Continuous
 62
     7
370
    13
100
AcDbLine
 10
106.295312
 20
4.386646
 30
0.0
 11
106.173792
 21
4.265115
 31
0.0
  0
LINE
  5
2E4
330
38F
100
AcDbEntity
  8
Level 1
  6
Continuous
 62
     7
370
    13
100
AcDbLine
 10
107.391083
 20
3.775583
 30
0.0
 11
106.590833
 21
4.453615
 31
0.0
  0
LWPOLYLINE
  5
2E5
330
38F
100
AcDbEntity
  8
Level 1
  6
Continuous
 62
     7
370
    13
100
AcDbPolyline
 90
        3
 70
   128
 43
0.0
 10
106.63226
 20
4.401823
 10
106.590833
 20
4.453615
 10
106.648833
 20
4.421844
  0
LINE
  5
2E6
330
38F
100
AcDbEntity
  8
Level 1
  6
Continuous
 62
     7
370
    13
100
AcDbLine
 10
107.391083
 20
3.775583
 30
0.0
 11
106.021198
 21
4.49849
 31
0.0
  0
LWPOLYLINE
  5
2E7
330
38F
100
AcDbEntity
  8
Level 1
  6
Continuous
 62
     7
370
    13
100
AcDbPolyline
 90
        3
 70
   128
 43
0.0
 10
106.072292
 20
4.457063
 10
106.021198
 20
4.49849
 10
106.084729
 20
4.479844
  0
LINE
  5
2E8
330
38F
100
AcDbEntity
  8
Level 1
  6
Continuous
 62
     7
370
    13
100
AcDbLine
 10
106.632948
 20
4.400448
 30
0.0
 11
106.647458
 21
4.421167
 31
0.0
  0
LINE
  5
2E9
330
38F
100
AcDbEntity
  8
Level 1
  6
Continuous
 62
     7
370
    13
100
AcDbLine
 10
106.07299
 20
4.45776
 30
0.0
 11
106.084729
 21
4.477771
 31
0.0
  0
LWPOLYLINE
  5
2EB
330
38F
100
AcDbEntity
  8
Level 1
  6
Continuous
 62
     7
370
    40
100
AcDbPolyline
 90
        4
 70
   129
 43
0.0
 10
103.652219
 20
2.136417
 10
112.973479
 20
2.136417
 10
112.973479
 20
9.386292
 10
103.652219
 20
9.386292
  0
LINE
  5
2EC
330
38F
100
AcDbEntity
  8
Level 1
  6
Continuous
 62
     7
370
    40
100
AcDbLine
 10
103.652219
 20
2.65426
 30
0.0
 11
112.973479
 21
2.65426
 31
0.0
  0
LINE
  5
2ED
330
38F
100
AcDbEntity
  8
Level 1
  6
Continuous
 62
     7
370
    40
100
AcDbLine
 10
111.678854
 20
2.65426
 30
0.0
 11
111.678854
 21
2.136417
 31
0.0
  0
LINE
  5
2EE
330
38F
100
AcDbEntity
  8
Level 1
  6
Continuous
 62
     7
370
    40
100
AcDbLine
 10
110.643167
 20
2.65426
 30
0.0
 11
110.643167
 21
2.136417
 31
0.0
  0
LINE
  5
2F3
330
38F
100
AcDbEntity
  8
Level 1
  6
Continuous
 62
     7
370
    13
100
AcDbLine
 10
108.602844
 20
8.770396
 30
0.0
 11
109.376167
 21
7.966
 31
0.0
  0
LINE
  5
2F4
330
38F
100
AcDbEntity
  8
Level 1
  6
Continuous
 62
     7
370
    13
100
AcDbLine
 10
109.544635
 20
7.789927
 30
0.0
 11
109.761448
 21
7.564844
 31
0.0
  0
LINE
  5
2F5
330
38F
100
AcDbEntity
  8
Level 1
  6
Continuous
 62
     7
370
    13
100
AcDbLine
 10
104.991719
 20
7.551719
 30
0.0
 11
105.252031
 21
7.807198
 31
0.0
  0
LINE
  5
2F6
330
38F
100
AcDbEntity
  8
Level 1
  6
Continuous
 62
     7
370
    13
100
AcDbLine
 10
105.542293
 20
8.091787
 30
0.0
 11
106.242844
 21
8.778677
 31
0.0
  0
LINE
  5
2F7
330
38F
100
AcDbEntity
  8
Level 1
  6
Continuous
 62
     7
370
    13
100
AcDbLine
 10
109.425187
 20
6.410385
 30
0.0
 11
109.900229
 21
6.939969
 31
0.0
  0
LINE
  5
2F8
330
38F
100
AcDbEntity
  8
Level 1
  6
Continuous
 62
     7
370
    13
100
AcDbLine
 10
109.900229
 20
6.939969
 30
0.0
 11
109.958917
 21
6.939969
 31
0.0
  0
LWPOLYLINE
  5
2F9
330
38F
100
AcDbEntity
  8
Level 1
  6
Continuous
 62
     7
370
    13
100
AcDbPolyline
 90
        3
 70
   129
 43
0.0
 10
109.425187
 20
6.410385
 10
109.447969
 20
6.451812
 10
109.461781
 20
6.434552
  0
LINE
  5
303
330
38F
100
AcDbEntity
  8
Level 1
  6
Continuous
 62
     7
370
    13
100
AcDbLine
 10
110.267552
 20
5.853875
 30
0.0
 11
110.761927
 21
5.506573
 31
0.0
  0
LINE
  5
304
330
38F
100
AcDbEntity
  8
Level 1
  6
Continuous
 62
     7
370
    13
100
AcDbLine
 10
110.761927
 20
5.506573
 30
0.0
 11
110.875854
 21
5.506573
 31
0.0
  0
LWPOLYLINE
  5
305
330
38F
100
AcDbEntity
  8
Level 1
  6
Continuous
 62
     7
370
    13
100
AcDbPolyline
 90
        3
 70
   129
 43
0.0
 10
110.267552
 20
5.853875
 10
110.352479
 20
5.830396
 10
110.316583
 20
5.786896
  0
TEXT
  5
18E
330
38F
100
AcDbEntity
  8
Level 1
  6
Continuous
 62
     7
370
    13
100
AcDbText
 10
110.608157
 20
9.096781
 30
0.0
 40
0.074961
  1
8"
  7
Style-Arial
 11
110.608157
 21
9.134261
 31
0.0
100
AcDbText
 73
     2
  0
TEXT
  5
18F
330
38F
100
AcDbEntity
  8
Level 1
  6
Continuous
 62
     7
370
    13
100
AcDbText
 10
111.055375
 20
9.152708
 30
0.0
 40
0.074961
  1
TOP OF RAIL 
  7
Style-Arial
 11
111.055375
 21
9.190188
 31
0.0
100
AcDbText
 73
     2
  0
TEXT
  5
190
330
38F
100
AcDbEntity
  8
Level 1
  6
Continuous
 62
     7
370
    13
100
AcDbText
 10
110.916594
 20
8.333822
 30
0.0
 40
0.074961
  1
TIE
  7
Style-Arial
 11
110.916594
 21
8.371303
 31
0.0
100
AcDbText
 73
     2
  0
TEXT
  5
191
330
38F
100
AcDbEntity
  8
Level 1
  6
Continuous
 62
     7
370
    13
100
AcDbText
 10
110.278604
 20
8.690663
 30
0.0
 40
0.074961
  1
1"
  7
Style-Arial
 11
110.278604
 21
8.728143
 31
0.0
100
AcDbText
 73
     2
  0
TEXT
  5
192
330
38F
100
AcDbEntity
  8
Level 1
  6
Continuous
 62
     7
370
    13
100
AcDbText
 10
108.13126
 20
9.167906
 30
0.0
 40
0.074961
  1
BEVEL TIMBERS
  7
Style-Arial
 11
108.13126
 21
9.205386
 31
0.0
100
AcDbText
 73
     2
  0
TEXT
  5
199
330
38F
100
AcDbEntity
  8
Level 1
  6
Continuous
 62
     7
370
    13
100
AcDbText
 10
108.895604
 20
7.98652
 30
0.0
 40
0.074961
  1
NEW
  7
Style-Arial
 11
108.895604
 21
8.024001
 31
0.0
100
AcDbText
 73
     2
  0
TEXT
  5
19A
330
38F
100
AcDbEntity
  8
Level 1
  6
Continuous
 62
     7
370
    13
100
AcDbText
 10
108.888698
 20
7.832551
 30
0.0
 40
0.074961
  1
PAVEMENT
  7
Style-Arial
 11
108.888698
 21
7.870032
 31
0.0
100
AcDbText
 73
     2
  0
TEXT
  5
19B
330
38F
100
AcDbEntity
  8
Level 1
  6
Continuous
 62
     7
370
    13
100
AcDbText
 10
108.888698
 20
7.677874
 30
0.0
 40
0.074961
  1
SURFACE
  7
Style-Arial
 11
108.888698
 21
7.715355
 31
0.0
100
AcDbText
 73
     2
  0
TEXT
  5
19C
330
38F
100
AcDbEntity
  8
Level 1
  6
Continuous
 62
     7
370
    13
100
AcDbText
 10
109.825656
 20
7.729666
 30
0.0
 40
0.074961
  1
ROADWAY PAVEMENT
  7
Style-Arial
 11
109.825656
 21
7.767147
 31
0.0
100
AcDbText
 73
     2
  0
TEXT
  5
1A1
330
38F
100
AcDbEntity
  8
Level 1
  6
Continuous
 62
     7
370
    13
100
AcDbText
 10
106.757229
 20
9.154781
 30
0.0
 40
0.074961
  1
3/4" x 11"
  7
Style-Arial
 11
106.757229
 21
9.192261
 31
0.0
100
AcDbText
 73
     2
  0
TEXT
  5
1A2
330
38F
100
AcDbEntity
  8
Level 1
  6
Continuous
 62
     7
370
    13
100
AcDbText
 10
104.93438
 20
9.153658
 30
0.0
 40
0.074961
  1
FILL COUNTERBORE WITH
  7
Style-Arial
 11
104.93438
 21
9.191138
 31
0.0
100
AcDbText
 73
     2
  0
TEXT
  5
1A3
330
38F
100
AcDbEntity
  8
Level 1
  6
Continuous
 62
     7
370
    13
100
AcDbText
 10
104.942401
 20
9.036031
 30
0.0
 40
0.074961
  1
MASTIC MATERIAL
  7
Style-Arial
 11
104.942401
 21
9.073511
 31
0.0
100
AcDbText
 73
     2
  0
TEXT
  5
1A4
330
38F
100
AcDbEntity
  8
Level 1
  6
Continuous
 62
     7
370
    13
100
AcDbText
 10
105.453123
 20
7.98045
 30
0.0
 40
0.074961
  1
NEW
  7
Style-Arial
 11
105.453123
 21
8.01793
 31
0.0
100
AcDbText
 73
     2
  0
TEXT
  5
1A5
330
38F
100
AcDbEntity
  8
Level 1
  6
Continuous
 62
     7
370
    13
100
AcDbText
 10
105.289312
 20
7.852572
 30
0.0
 40
0.074961
  1
PAVEMENT
 50
0.0003
  7
Style-Arial
 11
105.289312
 21
7.890053
 31
0.0
100
AcDbText
 73
     2
  0
TEXT
  5
1A6
330
38F
100
AcDbEntity
  8
Level 1
  6
Continuous
 62
     7
370
    13
100
AcDbText
 10
105.321878
 20
7.733923
 30
0.0
 40
0.074961
  1
SURFACE
  7
Style-Arial
 11
105.321878
 21
7.771404
 31
0.0
100
AcDbText
 73
     2
  0
TEXT
  5
1A8
330
38F
100
AcDbEntity
  8
Level 1
  6
Continuous
 62
     7
370
    13
100
AcDbText
 10
105.281719
 20
7.568791
 30
0.0
 40
0.074961
  1
45
  7
Style-Arial
 11
105.281719
 21
7.606272
 31
0.0
100
AcDbText
 73
     2
  0
TEXT
  5
1A9
330
38F
100
AcDbEntity
  8
Level 1
  6
Continuous
 62
     7
370
    13
100
AcDbText
 10
105.418427
 20
7.616426
 30
0.0
 40
0.074961
  1
o
  7
Style-Arial
 11
105.418427
 21
7.653906
 31
0.0
100
AcDbText
 73
     2
  0
TEXT
  5
1AA
330
38F
100
AcDbEntity
  8
Level 1
  6
Continuous
 62
     7
370
    13
100
AcDbText
 10
105.544094
 20
7.147604
 30
0.0
 40
0.074961
  1
ROADWAY PAVEMENT
  7
Style-Arial
 11
105.544094
 21
7.185084
 31
0.0
100
AcDbText
 73
     2
  0
TEXT
  5
1AF
330
38F
100
AcDbEntity
  8
Level 1
  6
Continuous
 62
     7
370
    13
100
AcDbText
 10
104.944271
 20
8.120515
 30
0.0
 40
0.074961
  1
2' +
 50
90.0
  7
Style-Arial
 11
104.906791
 21
8.120515
 31
0.0
100
AcDbText
 73
     2
  0
TEXT
  5
1B0
330
38F
100
AcDbEntity
  8
Level 1
  6
Continuous
 62
     7
370
    13
100
AcDbText
 10
104.9839
 20
8.236768
 30
0.0
 40
0.074961
  1
-
 50
90.0
  7
Style-Arial
 11
104.94642
 21
8.236768
 31
0.0
100
AcDbText
 73
     2
  0
TEXT
  5
1B3
330
38F
100
AcDbEntity
  8
Level 1
  6
Continuous
 62
     7
370
    13
100
AcDbText
 10
109.193885
 20
6.085666
 30
0.0
 40
0.074961
  1
TIE
  7
Style-Arial
 11
109.193885
 21
6.123147
 31
0.0
100
AcDbText
 73
     2
  0
TEXT
  5
1B5
330
38F
100
AcDbEntity
  8
Level 1
  6
Continuous
 62
     7
370
    13
100
AcDbText
 10
109.976177
 20
6.903874
 30
0.0
 40
0.074961
  1
FILL SPACE BETWEEN RAIL AND TIMBER
  7
Style-Arial
 11
109.976177
 21
6.941355
 31
0.0
100
AcDbText
 73
     2
  0
TEXT
  5
1B6
330
38F
100
AcDbEntity
  8
Level 1
  6
Continuous
 62
     7
370
    13
100
AcDbText
 10
108.179594
 20
6.901801
 30
0.0
 40
0.074961
  1
TOP OF TIMBERS EVEN
  7
Style-Arial
 11
108.179594
 21
6.939282
 31
0.0
100
AcDbText
 73
     2
  0
TEXT
  5
1B7
330
38F
100
AcDbEntity
  8
Level 1
  6
Continuous
 62
     7
370
    13
100
AcDbText
 10
108.189948
 20
6.759562
 30
0.0
 40
0.074961
  1
WITH TOP OF RAIL
  7
Style-Arial
 11
108.189948
 21
6.797042
 31
0.0
100
AcDbText
 73
     2
  0
TEXT
  5
1BD
330
38F
100
AcDbEntity
  8
Level 1
  6
Continuous
 62
     7
370
    13
100
AcDbText
 10
109.298059
 20
6.580729
 30
0.0
 40
0.074961
  1
2"
  7
Style-Arial
 11
109.298059
 21
6.618209
 31
0.0
100
AcDbText
 73
     2
  0
TEXT
  5
1BE
330
38F
100
AcDbEntity
  8
Level 1
  6
Continuous
 62
     7
370
    13
100
AcDbText
 10
107.645865
 20
5.921343
 30
0.0
 40
0.074961
  1
BALLAST
  7
Style-Arial
 11
107.645865
 21
5.958824
 31
0.0
100
AcDbText
 73
     2
  0
TEXT
  5
1C0
330
38F
100
AcDbEntity
  8
Level 1
  6
Continuous
 62
     7
370
    13
100
AcDbText
 10
108.217645
 20
5.681861
 30
0.0
 40
0.074961
  1
SUBGRADE
  7
Style-Arial
 11
108.217645
 21
5.719341
 31
0.0
100
AcDbText
 73
     2
  0
TEXT
  5
1C4
330
38F
100
AcDbEntity
  8
Level 1
  6
Continuous
 62
     7
370
    13
100
AcDbText
 10
108.604229
 20
5.927562
 30
0.0
 40
0.074961
  1
10" MIN.
  7
Style-Arial
 11
108.604229
 21
5.965042
 31
0.0
100
AcDbText
 73
     2
  0
TEXT
  5
1DB
330
38F
100
AcDbEntity
  8
Level 1
  6
Continuous
 62
     7
370
    13
100
AcDbText
 10
107.482917
 20
5.097614
 30
0.0
 40
0.074961
  1
MUST CLEAR TIE PLATE
  7
Style-Arial
 11
107.482917
 21
5.135094
 31
0.0
100
AcDbText
 73
     2
  0
TEXT
  5
1DC
330
38F
100
AcDbEntity
  8
Level 1
  6
Continuous
 62
     7
370
    13
100
AcDbText
 10
107.543677
 20
4.965739
 30
0.0
 40
0.074961
  1
GAGE SIDE
  7
Style-Arial
 11
107.543677
 21
5.003219
 31
0.0
100
AcDbText
 73
     2
  0
TEXT
  5
1DD
330
38F
100
AcDbEntity
  8
Level 1
  6
Continuous
 62
     7
370
    13
100
AcDbText
 10
107.764206
 20
4.690737
 30
0.0
 40
0.074961
  1
2" MIN.
  7
Style-Arial
 11
107.764206
 21
4.728218
 31
0.0
100
AcDbText
 73
     2
  0
TEXT
  5
1ED
330
38F
100
AcDbEntity
  8
Level 1
  6
Continuous
 62
     7
370
    13
100
AcDbText
 10
104.429688
 20
4.847666
 30
0.0
 40
0.074961
  1
ROAD SURFACE
  7
Style-Arial
 11
104.429688
 21
4.885147
 31
0.0
100
AcDbText
 73
     2
  0
TEXT
  5
1F0
330
38F
100
AcDbEntity
  8
Level 1
  6
Continuous
 62
     7
370
    13
100
AcDbText
 10
104.433823
 20
4.97127
 30
0.0
 40
0.074961
  1
FIELD SIDE
  7
Style-Arial
 11
104.433823
 21
5.008751
 31
0.0
100
AcDbText
 73
     2
  0
TEXT
  5
1F1
330
38F
100
AcDbEntity
  8
Level 1
  6
Continuous
 62
     7
370
    13
100
AcDbText
 10
105.946635
 20
5.055499
 30
0.0
 40
0.074961
  1
MIN.
  7
Style-Arial
 11
105.946635
 21
5.09298
 31
0.0
100
AcDbText
 73
     2
  0
TEXT
  5
1F2
330
38F
100
AcDbEntity
  8
Level 1
  6
Continuous
 62
     7
370
    13
100
AcDbText
 10
105.602781
 20
5.055499
 30
0.0
 40
0.074961
  1
MIN.
  7
Style-Arial
 11
105.602781
 21
5.09298
 31
0.0
100
AcDbText
 73
     2
  0
TEXT
  5
1F3
330
38F
100
AcDbEntity
  8
Level 1
  6
Continuous
 62
     7
370
    13
100
AcDbText
 10
106.501073
 20
5.055499
 30
0.0
 40
0.074961
  1
MIN.
  7
Style-Arial
 11
106.501073
 21
5.09298
 31
0.0
100
AcDbText
 73
     2
  0
TEXT
  5
1F4
330
38F
100
AcDbEntity
  8
Level 1
  6
Continuous
 62
     7
370
    13
100
AcDbText
 10
106.804187
 20
5.055499
 30
0.0
 40
0.074961
  1
MIN.
  7
Style-Arial
 11
106.804187
 21
5.09298
 31
0.0
100
AcDbText
 73
     2
  0
TEXT
  5
203
330
38F
100
AcDbEntity
  8
Level 1
  6
Continuous
 62
     7
370
    13
100
AcDbText
 10
106.892276
 20
5.353138
 30
0.0
 40
0.074961
  1
"
  7
Style-Arial
 11
106.892276
 21
5.390618
 31
0.0
100
AcDbText
 73
     2
  0
TEXT
  5
234
330
38F
100
AcDbEntity
  8
Level 1
  6
Continuous
 62
     7
370
    13
100
AcDbText
 10
105.001014
 20
6.316979
 30
0.0
 40
0.074961
  1
EXISTING PARKWAY PAVEMENT
  7
Style-Arial
 11
105.001014
 21
6.354459
 31
0.0
100
AcDbText
 73
     2
  0
TEXT
  5
235
330
38F
100
AcDbEntity
  8
Level 1
  6
Continuous
 62
     7
370
    13
100
AcDbText
 10
105.20667
 20
5.961385
 30
0.0
 40
0.074961
  1
EXISTING ROADWAY BASE
  7
Style-Arial
 11
105.20667
 21
5.998865
 31
0.0
100
AcDbText
 73
     2
  0
TEXT
  5
236
330
38F
100
AcDbEntity
  8
Level 1
  6
Continuous
 62
     7
370
    13
100
AcDbText
 10
110.485723
 20
6.57452
 30
0.0
 40
0.074961
  1
NEW PAVEMENT SURFACE
  7
Style-Arial
 11
110.485723
 21
6.612001
 31
0.0
100
AcDbText
 73
     2
  0
TEXT
  5
239
330
38F
100
AcDbEntity
  8
Level 1
  6
Continuous
 62
     7
370
    13
100
AcDbText
 10
110.398052
 20
6.299718
 30
0.0
 40
0.074961
  1
EXISTING ROADWAY SURFACE
  7
Style-Arial
 11
110.398052
 21
6.337199
 31
0.0
100
AcDbText
 73
     2
  0
TEXT
  5
23A
330
38F
100
AcDbEntity
  8
Level 1
  6
Continuous
 62
     7
370
    13
100
AcDbText
 10
104.937269
 20
6.552249
 30
0.0
 40
0.074961
  1
3/4" x 11" TIMBER FASTENERS
  7
Style-Arial
 11
104.937269
 21
6.589729
 31
0.0
100
AcDbText
 73
     2
  0
TEXT
  5
255
330
38F
100
AcDbEntity
  8
Level 1
  6
Continuous
 62
     7
370
    13
100
AcDbText
 10
107.724366
 20
5.64566
 30
0.0
 40
0.074961
  1
2% TYP.
  7
Style-Arial
 11
107.724366
 21
5.683141
 31
0.0
100
AcDbText
 73
     2
  0
TEXT
  5
256
330
38F
100
AcDbEntity
  8
Level 1
  6
Continuous
 62
     7
370
    13
100
AcDbText
 10
108.921833
 20
5.636681
 30
0.0
 40
0.074961
  1
2% TYP.
  7
Style-Arial
 11
108.921833
 21
5.674162
 31
0.0
100
AcDbText
 73
     2
  0
TEXT
  5
257
330
38F
100
AcDbEntity
  8
Level 1
  6
Continuous
 62
     7
370
    13
100
AcDbText
 10
106.877375
 20
6.068415
 30
0.0
 40
0.074961
  1
V
  7
Style-Arial
 11
106.877375
 21
6.105896
 31
0.0
100
AcDbText
 73
     2
  0
TEXT
  5
25A
330
38F
100
AcDbEntity
  8
Level 1
  6
Continuous
 62
     7
370
    13
100
AcDbText
 10
106.928469
 20
5.960697
 30
0.0
 40
0.074961
  1
V
  7
Style-Arial
 11
106.928469
 21
5.998177
 31
0.0
100
AcDbText
 73
     2
  0
TEXT
  5
25B
330
38F
100
AcDbEntity
  8
Level 1
  6
Continuous
 62
     7
370
    13
100
AcDbText
 10
106.787615
 20
5.888207
 30
0.0
 40
0.074961
  1
V
  7
Style-Arial
 11
106.787615
 21
5.925687
 31
0.0
100
AcDbText
 73
     2
  0
TEXT
  5
25E
330
38F
100
AcDbEntity
  8
Level 1
  6
Continuous
 62
     7
370
    13
100
AcDbText
 10
106.768969
 20
6.127103
 30
0.0
 40
0.074961
  1
V
  7
Style-Arial
 11
106.768969
 21
6.164583
 31
0.0
100
AcDbText
 73
     2
  0
TEXT
  5
260
330
38F
100
AcDbEntity
  8
Level 1
  6
Continuous
 62
     7
370
    13
100
AcDbText
 10
106.898094
 20
5.80603
 30
0.0
 40
0.074961
  1
V
  7
Style-Arial
 11
106.898094
 21
5.84351
 31
0.0
100
AcDbText
 73
     2
  0
TEXT
  5
261
330
38F
100
AcDbEntity
  8
Level 1
  6
Continuous
 62
     7
370
    13
100
AcDbText
 10
107.061729
 20
5.860582
 30
0.0
 40
0.074961
  1
V
  7
Style-Arial
 11
107.061729
 21
5.898062
 31
0.0
100
AcDbText
 73
     2
  0
TEXT
  5
264
330
38F
100
AcDbEntity
  8
Level 1
  6
Continuous
 62
     7
370
    13
100
AcDbText
 10
106.994062
 20
6.138832
 30
0.0
 40
0.074961
  1
V
  7
Style-Arial
 11
106.994062
 21
6.176312
 31
0.0
100
AcDbText
 73
     2
  0
TEXT
  5
265
330
38F
100
AcDbEntity
  8
Level 1
  6
Continuous
 62
     7
370
    13
100
AcDbText
 10
110.179177
 20
5.819155
 30
0.0
 40
0.074961
  1
V
  7
Style-Arial
 11
110.179177
 21
5.856635
 31
0.0
100
AcDbText
 73
     2
  0
TEXT
  5
268
330
38F
100
AcDbEntity
  8
Level 1
  6
Continuous
 62
     7
370
    13
100
AcDbText
 10
110.06801
 20
5.901322
 30
0.0
 40
0.074961
  1
V
  7
Style-Arial
 11
110.06801
 21
5.938802
 31
0.0
100
AcDbText
 73
     2
  0
TEXT
  5
269
330
38F
100
AcDbEntity
  8
Level 1
  6
Continuous
 62
     7
370
    13
100
AcDbText
 10
110.208865
 20
5.974509
 30
0.0
 40
0.074961
  1
V
  7
Style-Arial
 11
110.208865
 21
6.01199
 31
0.0
100
AcDbText
 73
     2
  0
TEXT
  5
26C
330
38F
100
AcDbEntity
  8
Level 1
  6
Continuous
 62
     7
370
    13
100
AcDbText
 10
110.158458
 20
6.08153
 30
0.0
 40
0.074961
  1
V
  7
Style-Arial
 11
110.158458
 21
6.11901
 31
0.0
100
AcDbText
 73
     2
  0
TEXT
  5
26D
330
38F
100
AcDbEntity
  8
Level 1
  6
Continuous
 62
     7
370
    13
100
AcDbText
 10
110.045229
 20
6.106384
 30
0.0
 40
0.074961
  1
V
  7
Style-Arial
 11
110.045229
 21
6.143865
 31
0.0
100
AcDbText
 73
     2
  0
TEXT
  5
26F
330
38F
100
AcDbEntity
  8
Level 1
  6
Continuous
 62
     7
370
    13
100
AcDbText
 10
109.895396
 20
5.844697
 30
0.0
 40
0.074961
  1
V
  7
Style-Arial
 11
109.895396
 21
5.882177
 31
0.0
100
AcDbText
 73
     2
  0
TEXT
  5
273
330
38F
100
AcDbEntity
  8
Level 1
  6
Continuous
 62
     7
370
    13
100
AcDbText
 10
106.245594
 20
3.492979
 30
0.0
 40
0.074961
  1
TIE
  7
Style-Arial
 11
106.245594
 21
3.530459
 31
0.0
100
AcDbText
 73
     2
  0
TEXT
  5
27A
330
38F
100
AcDbEntity
  8
Level 1
  6
Continuous
 62
     7
370
    13
100
AcDbText
 10
112.377604
 20
6.566239
 30
0.0
 40
0.074961
  1
7
  7
Style-Arial
 11
112.377604
 21
6.603719
 31
0.0
100
AcDbText
 73
     2
  0
TEXT
  5
27C
330
38F
100
AcDbEntity
  8
Level 1
  6
Continuous
 62
     7
370
    13
100
AcDbText
 10
109.46931
 20
6.099087
 30
0.0
 40
0.074961
  1
2
  7
Style-Arial
 11
109.46931
 21
6.136567
 31
0.0
100
AcDbText
 73
     2
  0
TEXT
  5
27D
330
38F
100
AcDbEntity
  8
Level 1
  6
Continuous
 62
     7
370
    13
100
AcDbText
 10
108.27534
 20
5.933623
 30
0.0
 40
0.074961
  1
1
  7
Style-Arial
 11
108.27534
 21
5.971104
 31
0.0
100
AcDbText
 73
     2
  0
TEXT
  5
280
330
38F
100
AcDbEntity
  8
Level 1
  6
Continuous
 62
     7
370
    13
100
AcDbText
 10
107.677524
 20
6.716276
 30
0.0
 40
0.074961
  1
8
  7
Style-Arial
 11
107.677524
 21
6.753756
 31
0.0
100
AcDbText
 73
     2
  0
TEXT
  5
281
330
38F
100
AcDbEntity
  8
Level 1
  6
Continuous
 62
     7
370
    13
100
AcDbText
 10
107.049714
 20
6.595711
 30
0.0
 40
0.074961
  1
8
  7
Style-Arial
 11
107.049714
 21
6.633191
 31
0.0
100
AcDbText
 73
     2
  0
TEXT
  5
282
330
38F
100
AcDbEntity
  8
Level 1
  6
Continuous
 62
     7
370
    13
100
AcDbText
 10
106.841469
 20
9.040864
 30
0.0
 40
0.074961
  1
TIMBER
  7
Style-Arial
 11
106.841469
 21
9.078344
 31
0.0
100
AcDbText
 73
     2
  0
TEXT
  5
283
330
38F
100
AcDbEntity
  8
Level 1
  6
Continuous
 62
     7
370
    13
100
AcDbText
 10
106.93676
 20
8.908979
 30
0.0
 40
0.074961
  1
FASTENERS
  7
Style-Arial
 11
106.93676
 21
8.946459
 31
0.0
100
AcDbText
 73
     2
  0
TEXT
  5
2CB
330
38F
100
AcDbEntity
  8
Level 1
  6
Continuous
 62
     7
370
    13
100
AcDbText
 10
109.983083
 20
6.763707
 30
0.0
 40
0.074961
  1
WITH ASPHALT FILLER (SEE DETAIL)
  7
Style-Arial
 11
109.983083
 21
6.801188
 31
0.0
100
AcDbText
 73
     2
  0
TEXT
  5
2E3
330
38F
100
AcDbEntity
  8
Level 1
  6
Continuous
 62
     7
370
    13
100
AcDbText
 10
107.42975
 20
3.71876
 30
0.0
 40
0.074961
  1
ASPHALT FILLER
  7
Style-Arial
 11
107.42975
 21
3.75624
 31
0.0
100
AcDbText
 73
     2
  0
TEXT
  5
2F0
330
38F
100
AcDbEntity
  8
Level 1
  6
Continuous
 62
     7
370
    13
100
AcDbText
 10
109.068251
 20
4.103148
 30
0.0
 40
0.074961
  1
1)
  7
Style-Arial
 11
109.068251
 21
4.140629
 31
0.0
100
AcDbText
 73
     2
  0
TEXT
  5
2F1
330
38F
100
AcDbEntity
  8
Level 1
  6
Continuous
 62
     7
370
    13
100
AcDbText
 10
109.071667
 20
3.819572
 30
0.0
 40
0.074961
  1
2)
  7
Style-Arial
 11
109.071667
 21
3.857053
 31
0.0
100
AcDbText
 73
     2
  0
MTEXT
  5
2FA
330
38F
100
AcDbEntity
  8
Level 1
  6
Continuous
 62
     7
370
    13
100
AcDbMText
 10
105.2345
 20
5.334611
 30
0.0
 40
0.074961
 41
0.0
 71
     4
 72
     1
  1
3-{\A0;\S3#4;}"
  7
Style-Arial
 73
     2
 44
1.382053
  0
MTEXT
  5
2FB
330
38F
100
AcDbEntity
  8
Level 1
  6
Continuous
 62
     7
370
    13
100
AcDbMText
 10
105.790197
 20
5.359996
 30
0.0
 40
0.074961
 41
0.0
 71
     4
 72
     1
  1
3-{\A0;\S1#2;}"
  7
Style-Arial
 73
     2
 44
1.382053
  0
MTEXT
  5
2FC
330
38F
100
AcDbEntity
  8
Level 1
  6
Continuous
 62
     7
370
    13
100
AcDbMText
 10
106.666361
 20
5.400659
 30
0.0
 40
0.074961
 41
0.0
 71
     4
 72
     1
  1
2-{\A0;\S1#2;}
  7
Style-Arial
 73
     2
 44
1.382053
  0
MTEXT
  5
2FD
330
38F
100
AcDbEntity
  8
Level 1
  6
Continuous
 62
     7
370
    13
100
AcDbMText
 10
107.199548
 20
5.364917
 30
0.0
 40
0.074961
 41
0.0
 71
     4
 72
     1
  1
3-{\A0;\S1#2;}"
  7
Style-Arial
 73
     2
 44
1.382053
  0
MTEXT
  5
2FE
330
38F
100
AcDbEntity
  8
Level 1
  6
Continuous
 62
     7
370
    13
100
AcDbMText
 10
105.285533
 20
3.123057
 30
0.0
 40
0.074961
 41
0.0
 71
     4
 72
     1
  1
FIELD BORE {\A0;\S1#2;}"HOLES IN CROSSING TIMBERS AND\PCROSSTIES BEFORE TIMBER FASTENERS ARE INSTALLED.\P
  7
Style-Arial
 73
     2
 44
1.382053
  0
TEXT
  5
301
330
38F
100
AcDbEntity
  8
Level 1
  6
Continuous
 62
     7
370
    13
100
AcDbText
 10
111.067104
 20
9.019458
 30
0.0
 40
0.074961
  1
AND TIMBER
  7
Style-Arial
 11
111.067104
 21
9.056938
 31
0.0
100
AcDbText
 73
     2
  0
TEXT
  5
302
330
38F
100
AcDbEntity
  8
Level 1
  6
Continuous
 62
     7
370
    13
100
AcDbText
 10
110.91451
 20
5.471166
 30
0.0
 40
0.074961
  1
DRAIN TO SIDE DITCHES
  7
Style-Arial
 11
110.91451
 21
5.508647
 31
0.0
100
AcDbText
 73
     2
  0
MTEXT
  5
308
330
38F
100
AcDbEntity
  8
Level 1
  6
Continuous
 62
     7
370
    13
100
AcDbMText
 10
104.925803
 20
6.708485
 30
0.0
 40
0.074961
 41
0.0
 71
     4
 72
     1
  1
COUNTERBORE 2{\A0;\S5#8;}" DIA. x 1 {\A0;\S1#4;}" DEEP
  7
Style-Arial
 11
0.9999999999984769
 21
1.745329251993444E-6
 31
0.0
 73
     2
 44
1.382053
  0
MTEXT
  5
309
330
38F
100
AcDbEntity
  8
Level 1
  6
Continuous
 62
     7
370
    13
100
AcDbMText
 10
109.364793
 20
4.067763
 30
0.0
 40
0.074961
 41
0.0
 71
     4
 72
     1
  1
CIRCLED NUMBERS REFER TO GENERAL NOTES,\PFIGURE 2-36u.\P
  7
Style-Arial
 73
     2
 44
0.779643
  0
MTEXT
  5
30C
330
38F
100
AcDbEntity
  8
Level 1
  6
Continuous
 62
     7
370
    13
100
AcDbMText
 10
109.360831
 20
3.611771
 30
0.0
 40
0.074961
 41
0.0
 71
     4
 72
     1
  1
RECONSTRUCT SUBGRADE AND INSTALL\PSUBDRAINS, DITCHING, AND/OR\PGEOTEXTILES AS REQUIRED.  SEE\PFIGURE 2-36s FOR DETAILS.\P
  7
Style-Arial
 73
     2
 44
0.779643
  0
TEXT
  5
247
330
38F
100
AcDbEntity
  8
Level 1
  6
Continuous
 62
     7
370
    13
100
AcDbText
 10
107.140201
 20
7.113824
 30
0.0
 40
0.093701
  1
PLAN
  7
Style-Arial
 11
107.140201
 21
7.160675
 31
0.0
100
AcDbText
 73
     2
  0
TEXT
  5
248
330
38F
100
AcDbEntity
  8
Level 1
  6
Continuous
 62
     7
370
    13
100
AcDbText
 10
110.475242
 20
8.102415
 30
0.0
 40
0.093701
  1
BEVEL DETAIL
  7
Style-Arial
 11
110.475242
 21
8.149266
 31
0.0
100
AcDbText
 73
     2
  0
TEXT
  5
24A
330
38F
100
AcDbEntity
  8
Level 1
  6
Continuous
 62
     7
370
    13
100
AcDbText
 10
108.274363
 20
5.424208
 30
0.0
 40
0.093701
  1
SECTION
  7
Style-Arial
 11
108.274363
 21
5.471059
 31
0.0
100
AcDbText
 73
     2
  0
TEXT
  5
2F2
330
38F
100
AcDbEntity
  8
Level 1
  6
Continuous
 62
     7
370
    13
100
AcDbText
 10
110.225043
 20
4.801651
 30
0.0
 40
0.093701
  1
DRAWING NOT TO SCALE
  7
Style-Arial
 11
110.225043
 21
4.848502
 31
0.0
100
AcDbText
 73
     2
  0
TEXT
  5
2EF
330
38F
100
AcDbEntity
  8
Level 1
  6
Continuous
 62
     7
370
    13
100
AcDbText
 10
108.996674
 20
4.291376
 30
0.0
 40
0.093701
  1
NOTES:
  7
Style-Arial
 11
108.996674
 21
4.338227
 31
0.0
100
AcDbText
 73
     2
  0
TEXT
  5
24C
330
38F
100
AcDbEntity
  8
Level 1
  6
Continuous
 62
     7
370
    13
100
AcDbText
 10
105.961152
 20
2.78526
 30
0.0
 40
0.093701
  1
FLANGEWAY DETAIL
  7
Style-Arial
 11
105.961152
 21
2.83211
 31
0.0
100
AcDbText
 73
     2
  0
TEXT
  5
24E
330
38F
100
AcDbEntity
  8
Level 1
  6
Continuous
 62
     7
370
    13
100
AcDbText
 10
105.075549
 20
2.412405
 30
0.0
 40
0.117127
  1
TYPE 2 - RAILROAD - HIGHWAY GRADE CROSSING
  7
Style-Arial
 11
105.075549
 21
2.470968
 31
0.0
100
AcDbText
 73
     2
  0
TEXT
  5
2EA
330
38F
100
AcDbEntity
  8
Level 1
  6
Continuous
 62
     7
370
    13
100
AcDbText
 10
105.433352
 20
2.226676
 30
0.0
 40
0.117127
  1
TIMBER PLANK CONSTRUCTED IN PLACE
  7
Style-Arial
 11
105.433352
 21
2.285239
 31
0.0
100
AcDbText
 73
     2
  0
TEXT
  5
24F
330
38F
100
AcDbEntity
  8
Level 1
  6
Continuous
 62
     7
370
    13
100
AcDbText
 10
110.990214
 20
2.416551
 30
0.0
 40
0.093701
  1
DATE
  7
Style-Arial
 11
110.990214
 21
2.463401
 31
0.0
100
AcDbText
 73
     2
  0
TEXT
  5
250
330
38F
100
AcDbEntity
  8
Level 1
  6
Continuous
 62
     7
370
    13
100
AcDbText
 10
110.852408
 20
2.241715
 30
0.0
 40
0.093701
  1
AUG 1990
  7
Style-Arial
 11
110.852408
 21
2.288565
 31
0.0
100
AcDbText
 73
     2
  0
TEXT
  5
306
330
38F
100
AcDbEntity
  8
Level 1
  6
Continuous
 62
     7
370
    13
100
AcDbText
 10
112.079262
 20
2.432272
 30
0.0
 40
0.093701
  1
FIGURE
  7
Style-Arial
 11
112.079262
 21
2.479123
 31
0.0
100
AcDbText
 73
     2
  0
TEXT
  5
307
330
38F
100
AcDbEntity
  8
Level 1
  6
Continuous
 62
     7
370
    13
100
AcDbText
 10
112.182285
 20
2.225947
 30
0.0
 40
0.093701
  1
2-36I
  7
Style-Arial
 11
112.182285
 21
2.272797
 31
0.0
100
AcDbText
 73
     2
  0
LINE
  5
379
330
38F
100
AcDbEntity
  8
Level 1
  6
Continuous
 62
     7
370
    13
100
AcDbLine
 10
108.939388
 20
4.240454
 30
0.0
 11
109.5452
 21
4.240454
 31
0.0
  0
ENDSEC
  0
SECTION
  2
OBJECTS
  0
DICTIONARY
  5
383
330
0
100
AcDbDictionary
281
     1
  3
ACAD_COLOR
350
3A2
  3
ACAD_GROUP
350
39F
  3
ACAD_LAYOUT
350
393
  3
ACAD_MATERIAL
350
3A1
  3
ACAD_MLINESTYLE
350
38D
  3
ACAD_PLOTSETTINGS
350
3A0
  3
ACAD_PLOTSTYLENAME
350
382
  3
ACAD_TABLESTYLE
350
3B6
  3
AcadDim
350
3AF
  3
MicroStation
350
3A7
  0
DICTIONARY
  5
37F
330
37E
100
AcDbDictionary
280
     1
281
     1
  3
ACAD_LAYERFILTERS
360
3A6
  3
ACAD_LAYERSTATES
360
380
  0
DICTIONARY
  5
3B2
330
38F
100
AcDbDictionary
280
     1
281
     1
  3
ACAD_SORTENTS
360
3B3
  0
DICTIONARY
  5
3A2
102
{ACAD_REACTORS
330
383
102
}
330
383
100
AcDbDictionary
281
     1
  0
DICTIONARY
  5
39F
102
{ACAD_REACTORS
330
383
102
}
330
383
100
AcDbDictionary
281
     1
  0
DICTIONARY
  5
393
102
{ACAD_REACTORS
330
383
102
}
330
383
100
AcDbDictionary
281
     1
  3
Layout1
350
397
  3
Model
350
392
  0
DICTIONARY
  5
3A1
102
{ACAD_REACTORS
330
383
102
}
330
383
100
AcDbDictionary
281
     1
  0
DICTIONARY
  5
38D
102
{ACAD_REACTORS
330
383
102
}
330
383
100
AcDbDictionary
281
     1
  3
Standard
350
38C
  0
DICTIONARY
  5
3A0
102
{ACAD_REACTORS
330
383
102
}
330
383
100
AcDbDictionary
281
     1
  0
ACDBDICTIONARYWDFLT
  5
382
102
{ACAD_REACTORS
330
383
102
}
330
383
100
AcDbDictionary
281
     1
  3
Normal
350
381
100
AcDbDictionaryWithDefault
340
381
  0
DICTIONARY
  5
3B6
102
{ACAD_REACTORS
330
383
102
}
330
383
100
AcDbDictionary
281
     1
  0
XRECORD
  5
3AF
102
{ACAD_REACTORS
330
383
102
}
330
383
100
AcDbXrecord
280
     1
 90
   990106
  3
 
 60
     0
 61
     0
 62
     1
 63
     1
 64
     0
 65
     0
 66
     0
 67
     3
 68
     1
 69
     1
 70
     0
 71
     0
 72
     0
 40
0.0
170
     0
  0
DICTIONARY
  5
3A7
102
{ACAD_REACTORS
330
383
102
}
330
383
100
AcDbDictionary
281
     1
  3
ApplicationElement 859
350
35B
  3
ApplicationElement 890
350
37A
  3
ApplicationElement 891
350
37B
  3
ModelApplicationElement 0 858
350
35A
  0
DICTIONARY
  5
3A6
102
{ACAD_REACTORS
330
37F
102
}
330
37F
100
AcDbDictionary
281
     1
  0
DICTIONARY
  5
380
102
{ACAD_REACTORS
330
37F
102
}
330
37F
100
AcDbDictionary
281
     1
  0
SORTENTSTABLE
  5
3B3
102
{ACAD_REACTORS
330
3B2
102
}
330
3B2
100
AcDbSortentsTable
330
38F
331
18E
  5
2AD
331
18F
  5
2AE
331
190
  5
2AF
331
191
  5
2B0
331
192
  5
2B1
331
193
  5
18E
331
194
  5
18F
331
195
  5
190
331
196
  5
191
331
197
  5
192
331
198
  5
193
331
199
  5
2B2
331
19A
  5
2B3
331
19B
  5
2B4
331
19C
  5
2B5
331
19D
  5
194
331
19E
  5
195
331
19F
  5
196
331
1A0
  5
197
331
1A1
  5
2B6
331
1A2
  5
2B7
331
1A3
  5
2B8
331
1A4
  5
2B9
331
1A5
  5
2BA
331
1A6
  5
2BB
331
1A7
  5
198
331
1A8
  5
2BC
331
1A9
  5
2BD
331
1AA
  5
2BE
331
1AB
  5
199
331
1AC
  5
19A
331
1AD
  5
19B
331
1AE
  5
19C
331
1AF
  5
2BF
331
1B0
  5
2C0
331
1B1
  5
19D
331
1B2
  5
19E
331
1B3
  5
2C1
331
1B4
  5
19F
331
1B5
  5
2C2
331
1B6
  5
2C3
331
1B7
  5
2C4
331
1B8
  5
1A0
331
1B9
  5
1A1
331
1BA
  5
1A2
331
1BB
  5
1A3
331
1BC
  5
1A4
331
1BD
  5
2C5
331
1BE
  5
2C6
331
1BF
  5
1A5
331
1C0
  5
2C7
331
1C1
  5
1A6
331
1C2
  5
1A7
331
1C3
  5
1A8
331
1C4
  5
2C8
331
1C5
  5
1A9
331
1C6
  5
1AA
331
1C7
  5
1AB
331
1C8
  5
1AC
331
1C9
  5
1AD
331
1CA
  5
1AE
331
1CB
  5
1AF
331
1CC
  5
1B0
331
1CD
  5
1B1
331
1CE
  5
1B2
331
1CF
  5
1B3
331
1D0
  5
1B4
331
1D1
  5
1B5
331
1D2
  5
1B6
331
1D3
  5
1B7
331
1D4
  5
1B8
331
1D5
  5
1B9
331
1D6
  5
1BA
331
1D7
  5
1BB
331
1D8
  5
1BC
331
1D9
  5
1BD
331
1DA
  5
1BE
331
1DB
  5
2C9
331
1DC
  5
2CA
331
1DD
  5
2CB
331
1DE
  5
1BF
331
1DF
  5
1C0
331
1E0
  5
1C1
331
1E1
  5
1C2
331
1E2
  5
1C3
331
1E3
  5
1C4
331
1E4
  5
1C5
331
1E5
  5
1C6
331
1E6
  5
1C7
331
1E7
  5
1C8
331
1E8
  5
1C9
331
1E9
  5
1CA
331
1EA
  5
1CB
331
1EB
  5
1CC
331
1EC
  5
1CD
331
1ED
  5
2CC
331
1EE
  5
1CE
331
1EF
  5
1CF
331
1F0
  5
2CD
331
1F1
  5
2CE
331
1F2
  5
2CF
331
1F3
  5
2D0
331
1F4
  5
2D1
331
1F5
  5
1D0
331
1F6
  5
1D1
331
1F7
  5
1D2
331
1F8
  5
1D3
331
1F9
  5
1D4
331
1FA
  5
1D5
331
1FB
  5
1D6
331
1FC
  5
1D7
331
1FD
  5
1D8
331
1FE
  5
1D9
331
1FF
  5
1DA
331
200
  5
1DB
331
201
  5
1DC
331
202
  5
1DD
331
203
  5
2D2
331
204
  5
1DE
331
205
  5
1DF
331
206
  5
1E0
331
207
  5
1E1
331
208
  5
1E2
331
209
  5
1E3
331
20A
  5
1E4
331
20B
  5
1E5
331
20C
  5
1E6
331
20D
  5
1E7
331
20E
  5
1E8
331
20F
  5
1E9
331
210
  5
1EA
331
211
  5
1EB
331
212
  5
1EC
331
213
  5
1ED
331
214
  5
1EE
331
215
  5
1EF
331
216
  5
1F0
331
217
  5
1F1
331
218
  5
1F2
331
219
  5
1F3
331
21A
  5
1F4
331
21B
  5
1F5
331
21C
  5
1F6
331
21D
  5
1F7
331
21E
  5
1F8
331
21F
  5
1F9
331
220
  5
1FA
331
221
  5
1FB
331
222
  5
1FC
331
223
  5
1FD
331
224
  5
1FE
331
225
  5
1FF
331
226
  5
200
331
227
  5
201
331
228
  5
202
331
229
  5
203
331
22A
  5
204
331
22B
  5
205
331
22C
  5
206
331
22D
  5
207
331
22E
  5
208
331
22F
  5
209
331
230
  5
20A
331
231
  5
20B
331
232
  5
20C
331
233
  5
20D
331
234
  5
2D3
331
235
  5
2D4
331
236
  5
2D5
331
237
  5
20E
331
238
  5
20F
331
239
  5
2D6
331
23A
  5
2D7
331
23B
  5
210
331
23C
  5
211
331
23D
  5
212
331
23E
  5
213
331
23F
  5
214
331
240
  5
215
331
241
  5
216
331
242
  5
217
331
243
  5
218
331
244
  5
219
331
245
  5
21A
331
246
  5
21B
331
247
  5
2FD
331
248
  5
2FE
331
249
  5
21C
331
24A
  5
301
331
24B
  5
21D
331
24C
  5
304
331
24D
  5
21E
331
24E
  5
305
331
24F
  5
307
331
250
  5
308
331
251
  5
21F
331
252
  5
220
331
253
  5
221
331
254
  5
222
331
255
  5
2D8
331
256
  5
2D9
331
257
  5
2DA
331
258
  5
223
331
259
  5
224
331
25A
  5
2DB
331
25B
  5
2DC
331
25C
  5
225
331
25D
  5
226
331
25E
  5
2DD
331
25F
  5
227
331
260
  5
2DE
331
261
  5
2DF
331
262
  5
228
331
263
  5
229
331
264
  5
2E0
331
265
  5
2E1
331
266
  5
22A
331
267
  5
22B
331
268
  5
2E2
331
269
  5
2E3
331
26A
  5
22C
331
26B
  5
22D
331
26C
  5
2E4
331
26D
  5
2E5
331
26E
  5
22E
331
26F
  5
2E6
331
270
  5
22F
331
271
  5
230
331
272
  5
231
331
273
  5
2E7
331
274
  5
232
331
275
  5
233
331
276
  5
234
331
277
  5
235
331
278
  5
236
331
279
  5
237
331
27A
  5
2E8
331
27B
  5
238
331
27C
  5
2E9
331
27D
  5
2EA
331
27E
  5
239
331
27F
  5
23A
331
280
  5
2EB
331
281
  5
2EC
331
282
  5
2ED
331
283
  5
2EE
331
284
  5
23B
331
285
  5
23C
331
286
  5
23D
331
287
  5
23E
331
288
  5
23F
331
289
  5
240
331
28A
  5
241
331
28B
  5
242
331
28C
  5
243
331
28D
  5
244
331
28E
  5
245
331
28F
  5
246
331
290
  5
247
331
291
  5
248
331
292
  5
249
331
293
  5
24A
331
294
  5
24B
331
295
  5
24C
331
296
  5
24D
331
297
  5
24E
331
298
  5
24F
331
299
  5
250
331
29A
  5
251
331
29B
  5
252
331
29C
  5
253
331
29D
  5
254
331
29E
  5
255
331
29F
  5
256
331
2A0
  5
257
331
2A1
  5
258
331
2A2
  5
259
331
2A3
  5
25A
331
2A4
  5
25B
331
2A5
  5
25C
331
2A6
  5
25D
331
2A7
  5
25E
331
2A8
  5
25F
331
2A9
  5
260
331
2AA
  5
261
331
2AB
  5
262
331
2AC
  5
263
331
2AD
  5
264
331
2AE
  5
265
331
2AF
  5
266
331
2B0
  5
267
331
2B1
  5
268
331
2B2
  5
269
331
2B3
  5
26A
331
2B4
  5
26B
331
2B5
  5
26C
331
2B6
  5
26D
331
2B7
  5
26E
331
2B8
  5
26F
331
2B9
  5
270
331
2BA
  5
271
331
2BB
  5
272
331
2BC
  5
273
331
2BD
  5
274
331
2BE
  5
275
331
2BF
  5
276
331
2C0
  5
277
331
2C1
  5
278
331
2C2
  5
279
331
2C3
  5
27A
331
2C4
  5
27B
331
2C5
  5
27C
331
2C6
  5
27D
331
2C7
  5
27E
331
2C8
  5
27F
331
2C9
  5
280
331
2CA
  5
281
331
2CB
  5
2EF
331
2CC
  5
282
331
2CD
  5
283
331
2CE
  5
284
331
2CF
  5
285
331
2D0
  5
286
331
2D1
  5
287
331
2D2
  5
288
331
2D3
  5
289
331
2D4
  5
28A
331
2D5
  5
28B
331
2D6
  5
28C
331
2D7
  5
28D
331
2D8
  5
28E
331
2D9
  5
28F
331
2DA
  5
290
331
2DB
  5
291
331
2DC
  5
292
331
2DD
  5
293
331
2DE
  5
294
331
2DF
  5
295
331
2E0
  5
296
331
2E1
  5
297
331
2E2
  5
298
331
2E3
  5
2F0
331
2E4
  5
299
331
2E5
  5
29A
331
2E6
  5
29B
331
2E7
  5
29C
331
2E8
  5
29D
331
2E9
  5
29E
331
2EA
  5
306
331
2EB
  5
29F
331
2EC
  5
2A0
331
2ED
  5
2A1
331
2EE
  5
2A2
331
2EF
  5
303
331
2F0
  5
2F1
331
2F1
  5
2F2
331
2F2
  5
302
331
2F3
  5
2A3
331
2F4
  5
2A4
331
2F5
  5
2A5
331
2F6
  5
2A6
331
2F7
  5
2A7
331
2F8
  5
2A8
331
2F9
  5
2A9
331
2FA
  5
2F3
331
2FB
  5
2F4
331
2FC
  5
2F5
331
2FD
  5
2F6
331
2FE
  5
2F7
331
301
  5
2F8
331
302
  5
2F9
331
303
  5
2AA
331
304
  5
2AB
331
305
  5
2AC
331
306
  5
309
331
307
  5
30C
331
308
  5
2FA
331
309
  5
2FB
331
30C
  5
2FC
  0
LAYOUT
  5
397
102
{ACAD_REACTORS
330
393
330
393
102
}
102
{ACAD_XDICTIONARY
360
398
102
}
330
393
100
AcDbPlotSettings
  1

  2
none_device
  4
Letter_(8.50_x_11.00_Inches)
  6

 40
6.35
 41
6.35
 42
6.350006
 43
6.350006
 44
215.899994
 45
279.399994
 46
0.0
 47
0.0
 48
0.0
 49
0.0
140
0.0
141
0.0
142
1.0
143
1.0
 70
   688
 72
     0
 73
     1
 74
     5
  7

 75
    16
 76
     0
 77
     2
 78
   300
147
1.0
148
0.0
149
0.0
100
AcDbLayout
  1
Layout1
 70
     1
 71
     1
 10
-0.25
 20
-0.25
 11
10.75
 21
8.25
 12
0.0
 22
0.0
 32
0.0
 14
1.049744
 24
0.799667
 34
-0.001526
 15
9.450623
 25
7.200577
 35
0.0
146
0.0
 13
0.0
 23
0.0
 33
0.0
 16
1.0
 26
0.0
 36
0.0
 17
0.0
 27
1.0
 37
0.0
 76
     0
330
394
1001
ACAD_PSEXT
1000
None
1000
None
1000
Not applicable
1000
The layout will not be plotted unless a new plotter configuration name is selected.
1070
     0
  0
LAYOUT
  5
392
102
{ACAD_REACTORS
330
393
330
393
102
}
330
393
100
AcDbPlotSettings
  1

  2
none_device
  4
ANSI_A_(8.50_x_11.00_Inches)
  6

 40
6.35
 41
19.049999
 42
6.350006
 43
19.049988
 44
215.899994
 45
279.399994
 46
0.0
 47
0.0
 48
0.0
 49
0.0
140
0.0
141
0.0
142
1.0
143
2.584895
 70
 11952
 72
     0
 73
     1
 74
     0
  7

 75
     0
 76
     0
 77
     2
 78
   300
147
0.386863
148
0.0
149
0.0
100
AcDbLayout
  1
Model
 70
     1
 71
     0
 10
0.0
 20
0.0
 11
12.0
 21
9.0
 12
0.0
 22
0.0
 32
0.0
 14
0.0
 24
0.0
 34
0.0
 15
0.0
 25
0.0
 35
0.0
146
0.0
 13
0.0
 23
0.0
 33
0.0
 16
1.0
 26
0.0
 36
0.0
 17
0.0
 27
1.0
 37
0.0
 76
     0
330
38F
331
49
  0
MLINESTYLE
  5
38C
102
{ACAD_REACTORS
330
38D
102
}
330
38D
100
AcDbMlineStyle
  2
STANDARD
 70
     0
  3

 62
   256
 51
90.0
 52
90.0
 71
     2
 49
0.5
 62
   256
  6
BYLAYER
 49
-0.5
 62
   256
  6
BYLAYER
  0
ACDBPLACEHOLDER
  5
381
102
{ACAD_REACTORS
330
382
102
}
330
382
  0
XRECORD
  5
35B
102
{ACAD_REACTORS
330
3A7
102
}
330
3A7
100
AcDbXrecord
280
     1
310
3E4F020000004D6F64656C6572000000000000000000000000000000000000000000000000000000000000000000000000000000000000000000000000000000000000000000000000000000000000000000000000000000000000000000000000000000000000000000000000000000000000000000000000000000000000
310
00000000000000000000000000000000000000000000000000000000000000000000000000000000000000000000000000000000000000000000000000000000000000000000000000000000000000000000000000000000000000000000000000000000000000000000000000000000000000000000000000000000000000
310
00
310
00000000000000000000000000000000000000000000000000000000000000000000000000000000000000000000000000000000000000000000000000000000000000000000000000000000000000000000000000000000000000000000000000000000000000000000000000000000000000000000000000000000000000
310
00000000000000000000000000000000000000000000000000000000000000000000000000000000000000000000000000000000000000000000000000000000000000000000000000000000000000000000000000000000000000000000000000000000000000000000000000000000000000000000000000000000000000
310
00
310
00000000000000000000000000000000000000000000000000000000000000000000000000000000000000000000000000000000000000000000000000000000000000000000000000000000000000000000000000000000000000000000000000000000000000000000000000000000000000000000000000000000000000
310
00000000000000000000000000000000000000000000000000000000000000000000000000000000000000000000000000000000000000000000000000000000000000000000000000000000000000000000000000000000000000000000000000000000000000000000000000000000000000000000000000000000000000
310
00
310
00000000000000000000000000000000000000000000000000000000000000000000000000000000000000000000000000000000000000000000000000000000000000000000000000000000000000000000000000000000000000000000000000000000000000000000000000000000000000000000000000000000000000
310
00000000000000000000000000000000000000000000000000000000000000000000000000000000000000000000000000000000000000000000000000000000000000000000000000000000000000000000000000000000000000000000000000000000000000000000000000000000000000000000000000000000000000
310
00
310
00000000000000000000000000000000000000000000000000000000000000000000000000000000000000000000000000000000000000000000000000000000000000000000000000000000000000000000000000000000000000000000000000000000000000000000000000000000000000000000000000000000000000
310
00000000000000000000000000000000000000000000000000000000000000000000000000000000000000000000000000000000000000000000000000000000000000000000000000000000000000000000000000000000000000000000000000000000000000000000000000000000000000000000000000000000000000
310
00
310
00000000000000000000000000000000000000000000000000000000000000000000000000000000000000000000000000000000000000000000000000000000000000000000000000000000000000000000000000000000000000000000000000000000000000000000000000000000000000000000000000000000000000
310
00000000000000000000000000000000000000000000000000000000000000000000000000000000000000000000000000000000000000000000000000000000000000000000000000000000000000000000000000000000000000000000000000000000000000000000000000000000000000000000000000000000000000
310
00
310
00000000000000000000000000000000000000000000000000000000000000000000000000000000000000000000000000000000000000000000000000000000000000000000000000000000000000000000000000000000000000000000000000000000000000000000000000000000000000000000000000000000000000
310
00000000000000000000000000000000000000000000000000000000000000000000000000000000000000000000000000000000000000000000000000000000000000000000000000000000000000000000000000000000000000000000000000000000000000000000000000000000000000000000000000000000000000
310
00
310
00000000000000000000000000000000000000000000000000000000000000000000000000000000000000000000000000000000000000000000000000000000000000000000000000000000000000000000000000000000000000000000000000000000000000000000000000000000000000000000000000000000000000
310
00000000000000000000000000000000000000000000000000000000000000000000000000000000000000000000000000000000000000000000000000000000000000000000000000000000000000000000000000000000000000000000000000000000000000000000000000000000000000000000000000000000000000
310
00
310
00000000000000000000000000000000000000000000000000000000000000000000000000000000000000000000000000000000000000000000000000000000000000000000000000000000000000000000000000000000000000000000000000000000000000000000000000000000000000000000000000000000000000
310
00000000000000000000000000000000000000000000000000000000000000000000000000000000000000000000000000000000000000000000000000000000000000000000000000000000000000000000000000000000000000000000000000000000000000000000000000000000000000000000000000000000000000
310
00
310
00000000000000000000000000000000000000000000000000000000000000000000000000000000000000000000000000000000000000000000000000000000000000000000000000000000000000000000000000000000000000000000000000000000000000000000000000000000000000000000000000000000000000
310
00000000000000000000000000000000000000000000000000000000000000000000000000000000000000000000000000000000000000000000000000000000000000000000000000000000000000000000000000000000000000000000000000000000000000000000000000000000000000000000000000000000000000
310
00
310
00000000000000000000000000000000000000000000000000000000000000000000000000000000000000000000000000000000000000000000000000000000000000000000000000000000000000000000000000000000000000000000000000000000000000000000000000000000000000000000000000000000000000
310
00000000000000000000000000000000000000000000000000000000000000000000000000000000000000000000000000000000000000000000000000000000000000000000000000000000000000000000000000000000000000000000000000000000000000000000000000000000000000000000000000000000000000
310
00
310
00000000000000000000000000000000000000000000000000000000000000000000000000000000000000000000000000000000000000000000000000000000000000000000000000000000000000000000000000000000000000000000000000000000000000000000000000000000000000000000000000000000000000
310
00000000000000000000000000000000000000000000000000000000000000000000000000000000000000000000000000000000000000000000000000000000000000000000000000000000000000000000000000000000000000000000000000000000000000000000000000000000000000000000000000000000000000
310
00
310
00000000000000000000000000000000000000000000000000000000000000000000000000000000000000000000000000000000000000000000000000000000000000000000000000000000000000000000000000000000000000000000000000000000000000000000000000000000000000000000000000000000000000
310
00000000000000000000000000000000000000000000000000000000000000000000000000000000000000000000000000000000000000000000000000000000000000000000000000000000000000000000000000000000000000000000000000000000000000000000000000000000000000000000000000000000000000
310
00
310
00000000000000000000000000000000000000000000000000000000000000000000000000000000000000000000000000000000000000000000000000000000000000000000000000000000000000000000000000000000000000000000000000000000000000000000000000000000000000
  0
XRECORD
  5
37A
102
{ACAD_REACTORS
330
3A7
102
}
330
3A7
100
AcDbXrecord
280
     1
310
3E4F020000004D6F64656C6572000000000000000000000000000000000000000000000000000000000000000000000000000000000000000000000000000000000000000000000000000000000000000000000000000000000000000000000000000000000000000000000000000000000000000000000000000000000000
310
00000000000000000000000000000000000000000000000000000000000000000000000000000000000000000000000000000000000000000000000000000000000000000000000000000000000000000000000000000000000000000000000000000000000000000000000000000000000000000000000000000000000000
310
00
310
00000000000000000000000000000000000000000000000000000000000000000000000000000000000000000000000000000000000000000000000000000000000000000000000000000000000000000000000000000000000000000000000000000000000000000000000000000000000000000000000000000000000000
310
00000000000000000000000000000000000000000000000000000000000000000000000000000000000000000000000000000000000000000000000000000000000000000000000000000000000000000000000000000000000000000000000000000000000000000000000000000000000000000000000000000000000000
310
00
310
00000000000000000000000000000000000000000000000000000000000000000000000000000000000000000000000000000000000000000000000000000000000000000000000000000000000000000000000000000000000000000000000000000000000000000000000000000000000000000000000000000000000000
310
00000000000000000000000000000000000000000000000000000000000000000000000000000000000000000000000000000000000000000000000000000000000000000000000000000000000000000000000000000000000000000000000000000000000000000000000000000000000000000000000000000000000000
310
00
310
00000000000000000000000000000000000000000000000000000000000000000000000000000000000000000000000000000000000000000000000000000000000000000000000000000000000000000000000000000000000000000000000000000000000000000000000000000000000000000000000000000000000000
310
00000000000000000000000000000000000000000000000000000000000000000000000000000000000000000000000000000000000000000000000000000000000000000000000000000000000000000000000000000000000000000000000000000000000000000000000000000000000000000000000000000000000000
310
00
310
00000000000000000000000000000000000000000000000000000000000000000000000000000000000000000000000000000000000000000000000000000000000000000000000000000000000000000000000000000000000000000000000000000000000000000000000000000000000000000000000000000000000000
310
00000000000000000000000000000000000000000000000000000000000000000000000000000000000000000000000000000000000000000000000000000000000000000000000000000000000000000000000000000000000000000000000000000000000000000000000000000000000000000000000000000000000000
310
00
310
00000000000000000000000000000000000000000000000000000000000000000000000000000000000000000000000000000000000000000000000000000000000000000000000000000000000000000000000000000000000000000000000000000000000000000000000000000000000000000000000000000000000000
310
00000000000000000000000000000000000000000000000000000000000000000000000000000000000000000000000000000000000000000000000000000000000000000000000000000000000000000000000000000000000000000000000000000000000000000000000000000000000000000000000000000000000000
310
00
310
00000000000000000000000000000000000000000000000000000000000000000000000000000000000000000000000000000000000000000000000000000000000000000000000000000000000000000000000000000000000000000000000000000000000000000000000000000000000000000000000000000000000000
310
00000000000000000000000000000000000000000000000000000000000000000000000000000000000000000000000000000000000000000000000000000000000000000000000000000000000000000000000000000000000000000000000000000000000000000000000000000000000000000000000000000000000000
310
00
310
00000000000000000000000000000000000000000000000000000000000000000000000000000000000000000000000000000000000000000000000000000000000000000000000000000000000000000000000000000000000000000000000000000000000000000000000000000000000000000000000000000000000000
310
00000000000000000000000000000000000000000000000000000000000000000000000000000000000000000000000000000000000000000000000000000000000000000000000000000000000000000000000000000000000000000000000000000000000000000000000000000000000000000000000000000000000000
310
00
310
00000000000000000000000000000000000000000000000000000000000000000000000000000000000000000000000000000000000000000000000000000000000000000000000000000000000000000000000000000000000000000000000000000000000000000000000000000000000000000000000000000000000000
310
00000000000000000000000000000000000000000000000000000000000000000000000000000000000000000000000000000000000000000000000000000000000000000000000000000000000000000000000000000000000000000000000000000000000000000000000000000000000000000000000000000000000000
310
00
310
00000000000000000000000000000000000000000000000000000000000000000000000000000000000000000000000000000000000000000000000000000000000000000000000000000000000000000000000000000000000000000000000000000000000000000000000000000000000000000000000000000000000000
310
00000000000000000000000000000000000000000000000000000000000000000000000000000000000000000000000000000000000000000000000000000000000000000000000000000000000000000000000000000000000000000000000000000000000000000000000000000000000000000000000000000000000000
310
00
310
00000000000000000000000000000000000000000000000000000000000000000000000000000000000000000000000000000000000000000000000000000000000000000000000000000000000000000000000000000000000000000000000000000000000000000000000000000000000000000000000000000000000000
310
00000000000000000000000000000000000000000000000000000000000000000000000000000000000000000000000000000000000000000000000000000000000000000000000000000000000000000000000000000000000000000000000000000000000000000000000000000000000000000000000000000000000000
310
00
310
00000000000000000000000000000000000000000000000000000000000000000000000000000000000000000000000000000000000000000000000000000000000000000000000000000000000000000000000000000000000000000000000000000000000000000000000000000000000000000000000000000000000000
310
00000000000000000000000000000000000000000000000000000000000000000000000000000000000000000000000000000000000000000000000000000000000000000000000000000000000000000000000000000000000000000000000000000000000000000000000000000000000000000000000000000000000000
310
00
310
00000000000000000000000000000000000000000000000000000000000000000000000000000000000000000000000000000000000000000000000000000000000000000000000000000000000000000000000000000000000000000000000000000000000000000000000000000000000000000000000000000000000000
310
00000000000000000000000000000000000000000000000000000000000000000000000000000000000000000000000000000000000000000000000000000000000000000000000000000000000000000000000000000000000000000000000000000000000000000000000000000000000000000000000000000000000000
310
00
310
00000000000000000000000000000000000000000000000000000000000000000000000000000000000000000000000000000000000000000000000000000000000000000000000000000000000000000000000000000000000000000000000000000000000000000000000000000000000000
  0
XRECORD
  5
37B
102
{ACAD_REACTORS
330
3A7
102
}
330
3A7
100
AcDbXrecord
280
     1
310
3E4F020000004D6F64656C6572000000000000000000000000000000000000000000000000000000000000000000000000000000000000000000000000000000000000000000000000000000000000000000000000000000000000000000000000000000000000000000000000000000000000000000000000000000000000
310
00000000000000000000000000000000000000000000000000000000000000000000000000000000000000000000000000000000000000000000000000000000000000000000000000000000000000000000000000000000000000000000000000000000000000000000000000000000000000000000000000000000000000
310
00
310
00000000000000000000000000000000000000000000000000000000000000000000000000000000000000000000000000000000000000000000000000000000000000000000000000000000000000000000000000000000000000000000000000000000000000000000000000000000000000000000000000000000000000
310
00000000000000000000000000000000000000000000000000000000000000000000000000000000000000000000000000000000000000000000000000000000000000000000000000000000000000000000000000000000000000000000000000000000000000000000000000000000000000000000000000000000000000
310
00
310
00000000000000000000000000000000000000000000000000000000000000000000000000000000000000000000000000000000000000000000000000000000000000000000000000000000000000000000000000000000000000000000000000000000000000000000000000000000000000000000000000000000000000
310
00000000000000000000000000000000000000000000000000000000000000000000000000000000000000000000000000000000000000000000000000000000000000000000000000000000000000000000000000000000000000000000000000000000000000000000000000000000000000000000000000000000000000
310
00
310
00000000000000000000000000000000000000000000000000000000000000000000000000000000000000000000000000000000000000000000000000000000000000000000000000000000000000000000000000000000000000000000000000000000000000000000000000000000000000000000000000000000000000
310
00000000000000000000000000000000000000000000000000000000000000000000000000000000000000000000000000000000000000000000000000000000000000000000000000000000000000000000000000000000000000000000000000000000000000000000000000000000000000000000000000000000000000
310
00
310
00000000000000000000000000000000000000000000000000000000000000000000000000000000000000000000000000000000000000000000000000000000000000000000000000000000000000000000000000000000000000000000000000000000000000000000000000000000000000000000000000000000000000
310
00000000000000000000000000000000000000000000000000000000000000000000000000000000000000000000000000000000000000000000000000000000000000000000000000000000000000000000000000000000000000000000000000000000000000000000000000000000000000000000000000000000000000
310
00
310
00000000000000000000000000000000000000000000000000000000000000000000000000000000000000000000000000000000000000000000000000000000000000000000000000000000000000000000000000000000000000000000000000000000000000000000000000000000000000000000000000000000000000
310
00000000000000000000000000000000000000000000000000000000000000000000000000000000000000000000000000000000000000000000000000000000000000000000000000000000000000000000000000000000000000000000000000000000000000000000000000000000000000000000000000000000000000
310
00
310
00000000000000000000000000000000000000000000000000000000000000000000000000000000000000000000000000000000000000000000000000000000000000000000000000000000000000000000000000000000000000000000000000000000000000000000000000000000000000000000000000000000000000
310
00000000000000000000000000000000000000000000000000000000000000000000000000000000000000000000000000000000000000000000000000000000000000000000000000000000000000000000000000000000000000000000000000000000000000000000000000000000000000000000000000000000000000
310
00
310
00000000000000000000000000000000000000000000000000000000000000000000000000000000000000000000000000000000000000000000000000000000000000000000000000000000000000000000000000000000000000000000000000000000000000000000000000000000000000000000000000000000000000
310
00000000000000000000000000000000000000000000000000000000000000000000000000000000000000000000000000000000000000000000000000000000000000000000000000000000000000000000000000000000000000000000000000000000000000000000000000000000000000000000000000000000000000
310
00
310
00000000000000000000000000000000000000000000000000000000000000000000000000000000000000000000000000000000000000000000000000000000000000000000000000000000000000000000000000000000000000000000000000000000000000000000000000000000000000000000000000000000000000
310
00000000000000000000000000000000000000000000000000000000000000000000000000000000000000000000000000000000000000000000000000000000000000000000000000000000000000000000000000000000000000000000000000000000000000000000000000000000000000000000000000000000000000
310
00
310
00000000000000000000000000000000000000000000000000000000000000000000000000000000000000000000000000000000000000000000000000000000000000000000000000000000000000000000000000000000000000000000000000000000000000000000000000000000000000000000000000000000000000
310
00000000000000000000000000000000000000000000000000000000000000000000000000000000000000000000000000000000000000000000000000000000000000000000000000000000000000000000000000000000000000000000000000000000000000000000000000000000000000000000000000000000000000
310
00
310
00000000000000000000000000000000000000000000000000000000000000000000000000000000000000000000000000000000000000000000000000000000000000000000000000000000000000000000000000000000000000000000000000000000000000000000000000000000000000000000000000000000000000
310
00000000000000000000000000000000000000000000000000000000000000000000000000000000000000000000000000000000000000000000000000000000000000000000000000000000000000000000000000000000000000000000000000000000000000000000000000000000000000000000000000000000000000
310
00
310
00000000000000000000000000000000000000000000000000000000000000000000000000000000000000000000000000000000000000000000000000000000000000000000000000000000000000000000000000000000000000000000000000000000000000000000000000000000000000000000000000000000000000
310
00000000000000000000000000000000000000000000000000000000000000000000000000000000000000000000000000000000000000000000000000000000000000000000000000000000000000000000000000000000000000000000000000000000000000000000000000000000000000000000000000000000000000
310
00
310
00000000000000000000000000000000000000000000000000000000000000000000000000000000000000000000000000000000000000000000000000000000000000000000000000000000000000000000000000000000000000000000000000000000000000000000000000000000000000000000000000000000000000
310
00000000000000000000000000000000000000000000000000000000000000000000000000000000000000000000000000000000000000000000000000000000000000000000000000000000000000000000000000000000000000000000000000000000000000000000000000000000000000000000000000000000000000
310
00
310
00000000000000000000000000000000000000000000000000000000000000000000000000000000000000000000000000000000000000000000000000000000000000000000000000000000000000000000000000000000000000000000000000000000000000000000000000000000000000
  0
XRECORD
  5
35A
102
{ACAD_REACTORS
330
3A7
102
}
330
3A7
100
AcDbXrecord
280
     1
310
DF56060034040701D0009A9999999999B93F000000000000000000000000000000000400000009000000000000000200000064000000640000000100000001000000190000007B14AE47E17A843F00000000004060409A9999999999B93F00000000004C2D41000000000070F7400000000000942141000000000000000000
310
0000000000000000000000000000000AD482040000000000000000000000000000F03F000000000000000000000000000030402D431CEBE2362A3F00000000000008400000000000000000009807C000000000000000007C1A61B9A711364020000000050000000A000000200000002000000020000000000000000000F03F
310
00
310
0000000000F03F000000000000F03F333333333333D33F333333333333D33F333333333333D33F000000000000F43F000000000000F43F000000000000F03F0200000064000000000000000000000000000840000000000000F83F00000000000000000000000000000000008056409A9999999999B93F0000000000000000
310
00000000000000000000000000000000000000000000000000000000000000000000000000000000000000000000000000000000000000000000000000000000000000000000000000000000000000000000000000000000000000000000000000000000000000000000000000000000000000000000000000000000000000
310
00
310
0000000000000000000000000000000000000000000000000000000000000000000000000000000000000000000000000000000000000000000000000000000000000000000000000000000000000000000000000000000000000000000000000000000000000000000000000000000000000000000000009A9999999999A9
310
3F9100000000000000000000000000000035A781D547960F40000000000000F03F000000000000F03F666666666666164000000000104068F200000000000000000000000000000000000000000000000000000000000000000000000000000000000000000000000000000000000000000000000000000000000000000000
310
00
310
00000000000000000000000000000000000000000000000000000000000000000000000000000000000000000000000000000000000000000000000000000000000000000000000000000000000000000000000000000000000000000000000000000000000000000000000000000000000000000000000000000000000000
310
000000000000000000000000000000000000000000000000000000000000000000000000000000000000000000000000000000000000000000000000FF000000000000000000000000000000000000000000000000000000000000000000000000000000000000000000000000000000000000000000000000000000000000
310
00
310
0000000000000000000000000000000000000000000000000000000000000000000000000000000000000000000000000000000000000000000000000000000000000000
  0
DICTIONARY
  5
398
330
397
100
AcDbDictionary
280
     1
281
     1
  3
ADSK_XREC_LAYOUTTHUMBNAIL
360
399
  0
XRECORD
  5
399
102
{ACAD_REACTORS
330
398
102
}
330
398
100
AcDbXrecord
280
     1
310
28000000B40000008B0000000100080000000000BC61000000000000000000000001000000000000FFFFFF0000000000FFFFFF000000000000000000000000000000000000000000000000000000000000000000330000006600000099000000CC000000FF00000000330000333300006633000099330000CC330000FF3300
310
0000660000336600006666000099660000CC660000FF66000000990000339900006699000099990000CC990000FF99000000CC000033CC000066CC000099CC0000CCCC0000FFCC000000FF000033FF000066FF000099FF0000CCFF0000FFFF000000003300330033006600330099003300CC003300FF003300003333003333
310
33006633330099333300CC333300FF33330000663300336633006666330099663300CC663300FF66330000993300339933006699330099993300CC993300FF99330000CC330033CC330066CC330099CC3300CCCC3300FFCC330000FF330033FF330066FF330099FF3300CCFF3300FFFF330000006600330066006600660099
310
006600CC006600FF00660000336600333366006633660099336600CC336600FF33660000666600336666006666660099666600CC666600FF66660000996600339966006699660099996600CC996600FF99660000CC660033CC660066CC660099CC6600CCCC6600FFCC660000FF660033FF660066FF660099FF6600CCFF6600
310
FFFF660000009900330099006600990099009900CC009900FF00990000339900333399006633990099339900CC339900FF33990000669900336699006666990099669900CC669900FF66990000999900339999006699990099999900CC999900FF99990000CC990033CC990066CC990099CC9900CCCC9900FFCC990000FF99
310
0033FF990066FF990099FF9900CCFF9900FFFF99000000CC003300CC006600CC009900CC00CC00CC00FF00CC000033CC003333CC006633CC009933CC00CC33CC00FF33CC000066CC003366CC006666CC009966CC00CC66CC00FF66CC000099CC003399CC006699CC009999CC00CC99CC00FF99CC0000CCCC0033CCCC0066CC
310
CC0099CCCC00CCCCCC00FFCCCC0000FFCC0033FFCC0066FFCC0099FFCC00CCFFCC00FFFFCC000000FF003300FF006600FF009900FF00CC00FF00FF00FF000033FF003333FF006633FF009933FF00CC33FF00FF33FF000066FF003366FF006666FF009966FF00CC66FF00FF66FF000099FF003399FF006699FF009999FF00CC
310
99FF00FF99FF0000CCFF0033CCFF0066CCFF0099CCFF00CCCCFF00FFCCFF0000FFFF0033FFFF0066FFFF0099FFFF00CCFFFF00FFFFFF00000000000D0D0D001A1A1A00282828003535350043434300505050005D5D5D006B6B6B00787878008686860093939300A1A1A100AEAEAE00BBBBBB00C9C9C900D6D6D600E4E4E400
310
F1F1F100FFFFFF0000000000000000000000000000000000000000000000000000000000000000000000000000000000E2E2E2E2E2E2E2E2E2E2E2E2E2E2E2E2E2E2E2E2E2E2E2E2E2E2E2E2E2E2E2E2E2E2E2E2E2E2E2E2E2E2E2E2E2E2E2E2E2E2E2E2E2E2E2E2E2E2E2E2E2E2E2E2E2E2E2E2E2E2E2E2E2E2E2E2E2E2E2
310
E2E2E2E2E2E2E2E2E2E2E2E2E2E2E2E2E2E2E2E2E2E2E2E2E2E2E2E2E2E2E2E2E2E2E2E2E2E2E2E2E2E2E2E2E2E2E2E2E2E2E2E2E2E2E2E2E2E2E2E2E2E2E2E2E2E2E2E2E2E2E2E2E2E2E2E2E2E2E2E2E2E2E2E2E2E2E2E2E2E2E2E2E2E2E2E2E2E2E2E2EFF5F5F5F5F5F5F5F5F5F5F5F5F5F5F5F5F5F5F5F5F5F5F5F5F5F5
310
F5F5F5F5F5F5F5F5F5F5F5F5F5F5F5F5F5F5F5F5F5F5F5F5F5F5F5F5F5F5F5F5F5F5F5F5F5F5F5F5F5F5F5F5F5F5F5F5F5F5F5F5F5F5F5F5F5F5F5F5F5F5F5F5F5F5F5F5F5F5F5F5F5F5F5F5F5F5F5F5F5F5F5F5F5F5F5F5F5F5F5F5F5F5F5F5F5F5F5F5F5F5F5F5F5F5F5F5F5F5F5F5F5F5F5F5F5F5F5F5F5F5F5F5F5F5F5
310
F5F5F5F5F5F5F5F5F5F5F5F5F5F5F5F5F5F5F5F5F5F5F5F5E2E2EFF5F5F5F5F5F5F5F5F5F5F5F5F5F5F5F5F5F5F5F5F5F5F5F5F5F5F5F5F5F5F5F5F5F5F5F5F5F5F5F5F5F5F5F5F5F5F5F5F5F5F5F5F5F5F5F5F5F5F5F5F5F5F5F5F5F5F5F5F5F5F5F5F5F5F5F5F5F5F5F5F5F5F5F5F5F5F5F5F5F5F5F5F5F5F5F5F5F5F5F5
310
F5F5F5F5F5F5F5F5F5F5F5F5F5F5F5F5F5F5F5F5F5F5F5F5F5F5F5F5F5F5F5F5F5F5F5F5F5F5F5F5F5F5F5F5F5F5F5F5F5F5F5F5F5F5F5F5F5F5F5F5F5F5F5F5F5F5F5F5F5F5F5F5F5F5F5F5F5E2E2EFF5F5F5F5F5F5F5F5F5F5F5F5F5F5F5F5F5F5F5F5F5F5F5F5F5F5F5F5F5F5F5F5F5F5F5F5F5F5F5F5F5F5F5F5F5F5F5
310
F5F5F5F5F5F5F5F5F5F5F5F5F5F5F5F5F5F5F5F5F5F5F5F5F5F5F5F5F5F5F5F5F5F5F5F5F5F5F5F5F5F5F5F5F5F5F5F5F5F5F5F5F5F5F5F5F5F5F5F5F5F5F5F5F5F5F5F5F5F5F5F5F5F5F5F5F5F5F5F5F5F5F5F5F5F5F5F5F5F5F5F5F5F5F5F5F5F5F5F5F5F5F5F5F5F5F5F5F5F5F5F5F5F5F5F5F5F5F5F5F5F5F5F5F5F5F5
310
F5F5F5E2E2EFF5F5F5E2E2E2E2E2E2E2E2F5F5F5F5F5F5F5F5F5E2E2E2E2E2E2E2E2E2E2E2E2E2E2E2E2F5F5F5F5F5F5F5F5E2E2E2E2E2E2E2E2E2E2E2E2E2E2E2E2F5F5F5F5F5F5F5F5F5E2E2E2E2E2E2E2E2E2E2E2E2E2E2E2F5F5F5F5F5F5F5F5F5E2E2E2E2E2E2E2E2E2E2E2E2E2E2E2F5F5F5F5F5F5F5F5F5E2E2E2E2
310
E2E2E2E2E2E2E2E2E2E2E2E2F5F5F5F5F5F5F5F5E2E2E2E2E2E2E2E2E2E2E2E2E2E2E2E2F5F5F5F5F5F5F5F5F5E2E2E2E2E2E2E2E2F5F5F5E2E2EFF5F5F5E2F5F5F5F5F5F5F5F5F5F5F5F5F5F5F5F5F5F5F5F5F5F5F5F5F5F5F5F5F5F5F5F5F5F5F5F5F5F5F5F5F5F5F5F5F5F5F5F5F5F5F5F5F5F5F5F5F5F5F5F5F5F5F5F5
310
F5F5F5F5F5F5F5F5F5F5F5F5F5F5F5F5F5F5F5F5F5F5F5F5F5F5F5F5F5F5F5F5F5F5F5F5F5F5F5F5F5F5F5F5F5F5F5F5F5F5F5F5F5F5F5F5F5F5F5F5F5F5F5F5F5F5F5F5F5F5F5F5F5F5F5F5F5F5F5F5F5F5F5F5F5F5F5F5F5F5F5F5F5F5F5F5F5F5F5F5F5F5F5F5F5E2F5F5F5E2E2EFF5F5F5E2F5F5F5F5F5F5F5F5F5F5F5
310
F5F5F5F5F5F5F5F5F5F5F5F5F5F5F5F5F5F5F5F5F5F5F5F5F5F5F5F5F5F5F5F5F5F5F5F5F5F5F5F5F5F5F5F5F5F5F5F5F5F5F5F5F5F5F5F5F5F5F5F5F5F5F5F5F5F5F5F5F5F5F5F5F5F5F5F5F5F5F5F5F5F5F5F5F5F5F5F5F5F5F5F5F5F5F5F5F5F5F5F5F5F5F5F5F5F5F5F5F5F5F5F5F5F5F5F5F5F5F5F5F5F5F5F5F5F5F5
310
F5F5F5F5F5F5F5F5F5F5F5F5F5F5F5F5F5F5F5F5F5F5F5F5F5F5F5F5F5F5F5E2F5F5F5E2E2EFF5F5F5E2F5F5F5F5F5F5F5F5F5F5F5F5F5F5F5F5F5F5F5F5F5F5F5F5F5F5F5F5F5F5F5F5F5F5F5F5F5F5F5F5F5F5F5F5F5F5F5F5F5F5F5F5F5F5F5F5F5F5F5F5F5F5F5F5F5F5F5F5F5F5F5F5F5F5F5F5F5F5F5F5F5F5F5F5F5
310
F5F5F5F5F5F5F5F5F5F5F5F5F5F5F5F5F5F5F5F5F5F5F5F5F5F5F5F5F5F5F5F5F5F5F5F5F5F5F5F5F5F5F5F5F5F5F5F5F5F5F5F5F5F5F5F5F5F5F5F5F5F5F5F5F5F5F5F5F5F5F5F5F5F5F5F5F5F5F5F5F5F5F5F5E2F5F5F5E2E2EFF5F5F5E2F5F5F5F5F5F5F5F5F5F5F5F5F5F5F5F5F5F5F5F5F5F5F5F5F5F5F5F5F5F5F5F5
310
F5F5F5F5F5F5F5F5F5F5F5F5F5F5F5F5F5F5F5F5F5F5F5F5F5F5F5F5F5F5F5F5F5F5F5F5F5F5F5F5F5F5F5F5F5F5F5F5F5F5F5F5F5F5F5F5F5F5F5F5F5F5F5F5F5F5F5F5F5F5F5F5F5F5F5F5F5F5F5F5F5F5F5F5F5F5F5F5F5F5F5F5F5F5F5F5F5F5F5F5F5F5F5F5F5F5F5F5F5F5F5F5F5F5F5F5F5F5F5F5F5F5F5F5F5F5F5
310
F5F5F5F5F5F5F5F5F5F5E2F5F5F5E2E2EFF5F5F5E2F5F5F5F5F5F5F5F5F5F5F5F5F5F5F5F5F5F5F5F5F5F5F5F5F5F5F5F5F5F5F5F5F5F5F5F5F5F5F5F5F5F5F5F5F5F5F5F5F5F5F5F5F5F5F5F5F5F5F5F5F5F5F5F5F5F5F5F5F5F5F5F5F5F5F5F5F5F5F5F5F5F5F5F5F5F5F5F5F5F5F5F5F5F5F5F5F5F5F5F5F5F5F5F5F5F5
310
F5F5F5F5F5F5F5F5F5F5F5F5F5F5F5F5F5F5F5F5F5F5F5F5F5F5F5F5F5F5F5F5F5F5F5F5F5F5F5F5F5F5F5F5F5F5F5F5F5F5F5F5F5F5F5F5F5F5F5F5F5F5F5E2F5F5F5E2E2EFF5F5F5E2F5F5F5F5F5F5F5F5F5F5F5F5F5F5F5F5F5F5F5F5F5F5F5F5F5F5F5F5F5F5F5F5F5F5F5F5F5F5F5F5F5F5F5F5F5F5F5F5F5F5F5F5F5
310
F5F5F5F5F5F5F5F5F5F5F5F5F5F5F5F5F5F5F5F5F5F5F5F5F5F5F5F5F5F5F5F5F5F5F5F5F5F5F5F5F5F5F5F5F5F5F5F5F5F5F5F5F5F5F5F5F5F5F5F5F5F5F5F5F5F5F5F5F5F5F5F5F5F5F5F5F5F5F5F5F5F5F5F5F5F5F5F5F5F5F5F5F5F5F5F5F5F5F5F5F5F5F5F5F5F5F5F5F5F5F5F5F5F5F5F5E2F5F5F5E2E2EFF5F5F5E2
310
F5F5F5F5F5F5F5F5F5F5F5F5F5F5F5F5F5F5F5F5F5F5F5F5F5F5F5F5F5F5F5F5F5F5F5F5F5F5F5F5F5F5F5F5F5F5F5F5F5F5F5F5F5F5F5F5F5F5F5F5F5F5F5F5F5F5F5F5F5F5F5F5F5F5F5F5F5F5F5F5F5F5F5F5F5F5F5F5F5F5F5F5F5F5F5F5F5F5F5F5F5F5F5F5F5F5F5F5F5F5F5F5F5F5F5F5F5F5F5F5F5F5F5F5F5F5F5
310
F5F5F5F5F5F5F5F5F5F5F5F5F5F5F5F5F5F5F5F5F5F5F5F5F5F5F5F5F5F5F5F5F5F5F5F5F5F5F5F5F5F5E2F5F5F5E2E2EFF5F5F5E2F5F5F5F5F5F5F5F5F5F5F5F5F5F5F5F5F5F5F5F5F5F5F5F5F5F5F5F5F5F5F5F5F5F5F5F5F5F5F5F5F5F5F5F5F5F5F5F5F5F5F5F5F5F5F5F5F5F5F5F5F5F5F5F5F5F5F5F5F5F5F5F5F5F5
310
F5F5F5F5F5F5F5F5F5F5F5F5F5F5F5F5F5F5F5F5F5F5F5F5F5F5F5F5F5F5F5F5F5F5F5F5F5F5F5F5F5F5F5F5F5F5F5F5F5F5F5F5F5F5F5F5F5F5F5F5F5F5F5F5F5F5F5F5F5F5F5F5F5F5F5F5F5F5F5F5F5F5F5F5F5F5F5F5F5F5F5F5F5F5F5E2F5F5F5E2E2EFF5F5F5F5F5F5F5F5F5F5F5F5F5F5F5F5F5F5F5F5F5F5F5F5F5
310
F5F5F5F5F5F5F5F5F5F5F5F5F5F5F5F5F5F5F5F5F5F5F5F5F5F5F5F5F5F5F5F5F5F5F5F5F5F5F5F5F5F5F5F5F5F5F5F5F5F5F5F5F5F5F5F5F5F5F5F5F5F5F5F5F5F5F5F5F5F5F5F5F5F5F5F5F5F5F5F5F5F5F5F5F5F5F5F5F5F5F5F5F5F5F5F5F5F5F5F5F5F5F5F5F5F5F5F5F5F5F5F5F5F5F5F5F5F5F5F5F5F5F5F5F5F5F5
310
F5F5F5F5F5F5F5F5F5F5F5F5F5F5F5F5F5F5F5F5F5F5F5F5F5E2E2EFF5F5F5F5F5F5F5F5F5F5F5F5F5F5F5F5F5F5F5F5F5F5F5F5F5F5F5F5F5F5F5F5F5F5F5F5F5F5F5F5F5F5F5F5F5F5F5F5F5F5F5F5F5F5F5F5F5F5F5F5F5F5F5F5F5F5F5F5F5F5F5F5F5F5F5F5F5F5F5F5F5F5F5F5F5F5F5F5F5F5F5F5F5F5F5F5F5F5F5
310
F5F5F5F5F5F5F5F5F5F5F5F5F5F5F5F5F5F5F5F5F5F5F5F5F5F5F5F5F5F5F5F5F5F5F5F5F5F5F5F5F5F5F5F5F5F5F5F5F5F5F5F5F5F5F5F5F5F5F5F5F5F5F5F5F5F5F5F5F5F5F5F5F5F5F5F5F5F5E2E2EFF5F5F5F5F5F5F5F5F5F5F5F5F5F5F5F5F5F5F5F5F5F5F5F5F5F5F5F5F5F5F5F5F5F5F5F5F5F5F5F5F5F5F5F5F5F5
310
F5F5F5F5F5F5F5F5F5F5F5F5F5F5F5F5F5F5F5F5F5F5F5F5F5F5F5F5F5F5F5F5F5F5F5F5F5F5F5F5F5F5F5F5F5F5F5F5F5F5F5F5F5F5F5F5F5F5F5F5F5F5F5F5F5F5F5F5F5F5F5F5F5F5F5F5F5F5F5F5F5F5F5F5F5F5F5F5F5F5F5F5F5F5F5F5F5F5F5F5F5F5F5F5F5F5F5F5F5F5F5F5F5F5F5F5F5F5F5F5F5F5F5F5F5F5F5
310
F5F5F5F5E2E2EFF5F5F5F5F5F5F5F5F5F5F5F5F5F5F5F5F5F5F5F5F5F5F5F5F5F5F5F5F5F5F5F5F5F5F5F5F5F5F5F5F5F5F5F5F5F5F5F5F5F5F5F5F5F5F5F5F5F5F5F5F5F5F5F5F5F5F5F5F5F5F5F5F5F5F5F5F5F5F5F5F5F5F5F5F5F5F5F5F5F5F5F5F5F5F5F5F5F5F5F5F5F5F5F5F5F5F5F5F5F5F5F5F5F5F5F5F5F5F5F5
310
F5F5F5F5F5F5F5F5F5F5F5F5F5F5F5F5F5F5F5F5F5F5F5F5F5F5F5F5F5F5F5F5F5F5F5F5F5F5F5F5F5F5F5F5F5F5F5F5F5F5F5F5F5F5F5F5F5E2E2EFF5F5F5F5F5F5F5F5F5F5F5F5F5F5F5F5F5F5F5F5E2E2E2E2E2E2E2E2E2E2E2E2E2E2E2E2E2E2E2E2E2E2E2E2E2E2E2E2E2E2E2E2E2E2E2E2E2E2E2E2E2E2E2E2E2E2E2
310
E2E2E2E2E2E2E2E2E2E2E2E2E2E2E2E2E2E2E2E2E2E2E2E2E2E2E2E2E2E2E2E2E2E2E2E2E2E2E2E2E2E2E2E2E2E2E2E2E2E2E2E2E2E2E2E2E2E2E2E2E2E2E2E2E2E2E2E2E2E2E2E2E2E2E2E2E2E2E2E2E2E2E2E2E2E2E2E2E2E2F5F5F5F5F5F5F5F5F5F5F5F5F5F5F5F5F5F5F5F5E2E2EFF5F5F5F5F5F5F5F5F5F5F5F5F5F5
310
F5F5F5F5F5F5E2F5F5F5F5F5F5F5F5F5F5F5F5F5F5F5F5F5F5F5F5F5F5F5F5F5F5F5F5F5F5F5F5F5F5F5F5F5F5F5F5F5F5F5F5F5F5F5F5F5F5F5F5F5F5F5F5F5F5F5F5F5F5F5F5F5F5F5F5F5F5F5F5F5F5F5F5F5F5F5F5F5F5F5F5F5F5F5F5F5F5F5F5F5F5F5F5F5F5F5F5F5F5F5F5F5F5F5F5F5F5F5F5F5F5F5F5F5F5F5F5
310
F5F5F5F5F5F5F5F5F5F5F5F5F5F5F5E2F5F5F5F5F5F5F5F5F5F5F5F5F5F5F5F5F5F5F5F5E2E2EFF5F5F5F5F5F5F5F5F5F5F5F5F5F5F5F5F5F5F5F5E2F5F5F5F5F5F5F5F5F5F5F5F5F5F5F5F5F5F5F5F5F5F5F5F5F5F5F5F5F5F5F5F5F5F5F5F5F5F5F5F5F5F5F5F5F5F5F5F5F5F5F5F5F5F5F5F5F5F5F5F5F5F5F5F5F5F5F5
310
F5F5F5F5F5F5F5F5F5F5F5F5F5F5F5F5F5F5F5F5F5F5F5F5F5F5F5F5F5F5F5F5F5F5F5F5F5F5F5F5F5F5F5F5F5F5F5F5F5F5F5F5F5F5F5F5F5F5F5F5F5F5F5F5F5F5F5F5E2F5F5F5F5F5F5F5F5F5F5F5F5F5F5F5F5F5F5F5F5E2E2EFF5F5F5F5F5F5F5F5F5F5F5F5F5F5F5F5F5F5F5F5E2F5F5F5F5F5F5F5F5F5F5F5F5F5F5
310
F5F5F5F5F5F5F5F5F5F5F5F5F5F5F5F5F5F5F5F5F5F5F5F5F5F5F5F5F5F5F5F5F5F5F5F5F5F5F5F5F5F5F5F5F5F5F5F5F5F5F5F5F5F5F5F5F5F5F5F5F5F5F5F5F5F5F5F5F5F5F5F5F5F5F5F5F5F5F5F5F5F5F5F5F5F5F5F5F5F5F5F5F5F5F5F5F5F5F5F5F5F5F5F5F5F5F5F5F5F5F5F5F5F5F5F5F5F5F5F5F5E2F5F5F5F5F5
310
F5F5F5F5F5F5F5F5F5F5F5F5F5F5F5E2E2EFF5F5F5F5F5F5F5F5F5F5F5F5F5F5F5F5F5F5F5F5E2F5F5F5F5F5F5F5F5F5F5F5F5F5F5F5F5F5F5F5F5F5F5F5F5F5F5F5F5F5F5F5F5F5F5F5F5F5F5F5F5F5F5F5F5F5F5F5F5F5F5F5F5F5F5F5F5F5F5F5F5F5F5F5F5F5F5F5F5F5F5F5F5F5F5F5F5F5F5F5F5F5F5F5F5F5F5F5F5
310
F5F5F5F5F5F5F5F5F5F5F5F5F5F5F5F5F5F5F5F5F5F5F5F5F5F5F5F5F5F5F5F5F5F5F5F5F5F5F5F5F5F5F5F5F5F5F5E2F5F5F5F5F5F5F5F5F5F5F5F5F5F5F5F5F5F5F5F5E2E2EFF5F5F5E2F5F5F5F5F5F5F5F5F5F5F5F5F5F5F5F5E2F5F5F5F5F5F5F5F5F5F5F5F5F5F5F5F5F5F5F5F5F5F5F5F5F5F5F5F5F5F5F5F5F5F5F5
310
F5F5F5F5F5F5F5F5F5F5F5F5F5F5F5F5F5F5F5F5F5F5F5F5F5F5F5F5F5F5F5F5F5F5F5F5F5F5F5F5F5F5F5F5F5F5F5F5F5F5F5F5F5F5F5F5F5F5F5F5F5F5F5F5F5F5F5F5F5F5F5F5F5F5F5F5F5F5F5F5F5F5F5F5F5F5F5F5F5F5F5F5F5F5F5F5F5F5F5F5E2F5F5F5F5F5F5F5F5F5F5F5F5F5F5F5F5E2F5F5F5E2E2EFF5F5F5
310
E2F5F5F5F5F5F5F5F5F5F5F5F5F5F5F5F5E2F5F5F5F5F5F5F5F5F5F5F5F5F5F5F5F5F5F5F5F5F5F5F5F5F5F5F5F5F5F5F5F5F5F5F5F5F5F5F5F5F5F5F5F5F5F5F5F5F5F5F5F5F5F5F5F5F5F5F5F5F5F5F5F5F5F5F5F5F5F5F5F5F5F5F5F5F5F5F5F5F5F5F5F5F5F5F5F5F5F5F5F5F5F5F5F5F5F5F5F5F5F5F5F5F5F5F5F5F5
310
F5F5F5F5F5F5F5F5F5F5F5F5F5F5F5F5F5F5F5F5F5F5F5F5F5F5E2F5F5F5F5F5F5F5F5F5F5F5F5F5F5F5F5E2F5F5F5E2E2EFF5F5F5E2F5F5F5F5F5F5F5F5F5F5F5F5F5F5F5F5E2F5F5F5F5F5F5F5F5F5F5F5F5F5F5F5F5F5F5F5F5F5F5F5F5F5F5F5F5F5F5F5F5F5F5F5F5F5F5F5F5F5F5F5F5F5F5F5F5F5F5F5F5F5F5F5F5
310
F5F5F5F5F5F5F5F5F5F5F5F5F5F5F5F5F5F5F5F5F5F5F5F5F5F5F5F5F5F5F5F5F5F5F5F5F5F5F5F5F5F5F5F5F5F5F5F5F5F5F5F5F5F5F5F5F5F5F5F5F5F5F5F5F5F5F5F5F5F5F5F5F5F5F5F5F5F5F5E2F5F5F5F5F5F5F5F5F5F5F5F5F5F5F5F5E2F5F5F5E2E2EFF5F5F5E2F5F5F5F5F5F5F5F5F5F5F5F5F5F5F5F5E2F5F5F5
310
F5F5F5F5F5F5F5F5F5F5F5F5F5F5F5F5F5F5F5F5F5F5F5F5F5F5F5F5F5F5F5F5F5F5F5F5F5F5F5F5F5F5F5F5F5F5F5F5F5F5F5F5F5F5F5F5F5F5F5F5F5F5F5F5F5F5F5F5F5F5F5F5F5F5F5F5F5F5F5F5F5F5F5F5F5F5F5F5F5F5F5F5F5F5F5F5F5F5F5F5F5F5F5F5F5F5F5F5F5F5F5F5F5F5F5F5F5F5F5F5F5F5F5F5F5F5F5
310
F5F5F5F5F5E2F5F5F5F5F5F5F5F5F5F5F5F5F5F5F5F5E2F5F5F5E2E2EFF5F5F5E2F5F5F5F5F5F5F5F5F5F5F5F5F5F5F5F5E2F5F5F5F5F5F5F5F5F5F5F5F5F5F5F5F5F5F5F5F5F5F5F5F5F5F5F5F5F5F5F5F5F5F5F5F5F5F5F5F5F5F5F5F5F5F5F5F5F5F5F5F5F5F5F5F5F5F5F5F5F5F5F5F5F5F5F5F5F5F5F5F5F5F5F5F5F5
310
F5F5F5F5F5F5F5F5F5F5F5F5F5F5F5F5F5F5F5F5F5F5F5F5F5F5F5F5F5F5F5F5F5F5F5F5F5F5F5F5F5F5F5F5F5F5F5F5F5F5F5F5F5F5F5F5F5F5E2F5F5F5F5F5F5F5F5F5F5F5F5F5F5F5F5E2F5F5F5E2E2EFF5F5F5E2F5F5F5F5F5F5F5F5F5F5F5F5F5F5F5F5E2F5F5F5F5F5F5F5F5F5F5F5F5F5F5F5F5F5F5F5F5F5F5F5F5
310
F5F5F5F5F5F5F5F5F5F5F5F5F5F5F5F5F5F5F5F5F5F5F5F5F5F5F5F5F5F5F5F5F5F5F5F5F5F5F5F5F5F5F5F5F5F5F5F5F5F5F5F5F5F5F5F5F5F5F5F5F5F5F5F5F5F5F5F5F5F5F5F5F5F5F5F5F5F5F5F5F5F5F5F5F5F5F5F5F5F5F5F5F5F5F5F5F5F5F5F5F5F5F5F5F5F5F5F5F5F5F5E2F5F5F5F5F5F5F5F5F5F5F5F5F5F5F5
310
F5E2F5F5F5E2E2EFF5F5F5E2F5F5F5F5F5F5F5F5F5F5F5F5F5F5F5F5E2F5F5F5F5F5F5F5F5F5F5F5F5F5F5F5F5F5F5F5F5F5F5F5F5F5F5F5F5F5F5F5F5F5F5F5F5F5F5F5F5F5F5F5F5F5F5F5F5F5F5F5F5F5F5F5F5F5F5F5F5F5F5F5F5F5F5F5F5F5F5F5F5F5F5F5F5F5F5F5F5F5F5F5F5F5F5F5F5F5F5F5F5F5F5F5F5F5F5
310
F5F5F5F5F5F5F5F5F5F5F5F5F5F5F5F5F5F5F5F5F5F5F5F5F5F5F5F5F5F5F5F5F5F5F5F5F5E2F5F5F5F5F5F5F5F5F5F5F5F5F5F5F5F5E2F5F5F5E2E2EFF5F5F5E2F5F5F5F5F5F5F5F5F5F5F5F5F5F5F5F5E2F5F5F5F5F5F5F5F5F5F5F5F5F5F5F5F5F5F5F5F5F5F5F5F5F5F5F5F5F5F5F5F5F5F5F5F5F5F5F5F5F5F5F5F5F5
310
F5F5F5F5F5F5F5F5F5F5F5F5F5F5F5F5F5F5F5F5F5F5F5F5F5F5F5F5F5F5F5F5F5F5F5F5F5F5F5F5F5F5F5F5F5F5F5F5F5F5F5F5F5F5F5F5F5F5F5F5F5F5F5F5F5F5F5F5F5F5F5F5F5F5F5F5F5F5F5F5F5F5F5F5F5F5F5F5F5F5E2F5F5F5F5F5F5F5F5F5F5F5F5F5F5F5F5E2F5F5F5E2E2EFF5F5F5E2F5F5F5F5F5F5F5F5F5
310
F5F5F5F5F5F5F5E2F5F5F5F5F5F5F5F5F5F5F5F5F5F5F5F5F5F5F5F5F5F5F5F5F5F5F5F5F5F5F5F5F5F5F5F5F5F5F5F5F5F5F5F5F5F5F5F5F5F5F5F5F5F5F5F5F5F5F5F5F5F5F5F5F5F5F5F5F5F5F5F5F5F5F5F5F5F5F5F5F5F5F5F5F5F5F5F5F5F5F5F5F5F5F5F5F5F5F5F5F5F5F5F5F5F5F5F5F5F5F5F5F5F5F5F5F5F5F5
310
F5F5F5F5F5F5F5F5F5F5F5F5F5F5F5F5E2F5F5F5F5F5F5F5F5F5F5F5F5F5F5F5F5E2F5F5F5E2E2EFF5F5F5E2F5F5F5F5F5F5F5F5F5F5F5F5F5F5F5F5E2F5F5F5F5F5F5F5F5F5F5F5F5F5F5F5F5F5F5F5F5F5F5F5F5F5F5F5F5F5F5F5F5F5F5F5F5F5F5F5F5F5F5F5F5F5F5F5F5F5F5F5F5F5F5F5F5F5F5F5F5F5F5F5F5F5F5
310
F5F5F5F5F5F5F5F5F5F5F5F5F5F5F5F5F5F5F5F5F5F5F5F5F5F5F5F5F5F5F5F5F5F5F5F5F5F5F5F5F5F5F5F5F5F5F5F5F5F5F5F5F5F5F5F5F5F5F5F5F5F5F5F5F5F5F5F5F5E2F5F5F5F5F5F5F5F5F5F5F5F5F5F5F5F5E2F5F5F5E2E2EFF5F5F5E2F5F5F5F5F5F5F5F5F5F5F5F5F5F5F5F5E2F5F5F5F5F5F5F5F5F5F5F5F5F5
310
F5F5F5F5F5F5F5F5F5F5F5F5F5F5F5F5F5F5F5F5F5F5F5F5F5F5F5F5F5F5F5F5F5F5F5F5F5F5F5F5F5F5F5F5F5F5F5F5F5F5F5F5F5F5F5F5F5F5F5F5F5F5F5F5F5F5F5F5F5F5F5F5F5F5F5F5F5F5F5F5F5F5F5F5F5F5F5F5F5F5F5F5F5F5F5F5F5F5F5F5F5F5F5F5F5F5F5F5F5F5F5F5F5F5F5F5F5F5F5F5F5F5E2F5F5F5F5
310
F5F5F5F5F5F5F5F5F5F5F5F5E2F5F5F5E2E2EFF5F5F5E2F5F5F5F5F5F5F5F5F5F5F5F5F5F5F5F5E2F5F5F5F5F5F5F5F5F5F5F5F5F5F5F5F5F5F5F5F5F5F5F5F5F5F5F5F5F5F5F5F5F5F5F5F5F5F5F5F5F5F5F5F5F5F5F5F5F5F5F5F5F5F5F5F5F5F5F5F5F5F5F5F5F5F5F5F5F5F5F5F5F5F5F5F5F5F5F5F5F5F5F5F5F5F5F5
310
F5F5F5F5F5F5F5F5F5F5F5F5F5F5F5F5F5F5F5F5F5F5F5F5F5F5F5F5F5F5F5F5F5F5F5F5F5F5F5F5F5F5F5F5F5F5F5F5E2F5F5F5F5F5F5F5F5F5F5F5F5F5F5F5F5E2F5F5F5E2E2EFF5F5F5E2F5F5F5F5F5F5F5F5F5F5F5F5F5F5F5F5E2F5F5F5F5F5F5F5F5F5F5F5F5F5F5F5F5F5F5F5F5F5F5F5F5F5F5F5F5F5F5F5F5F5F5
310
F5F5F5F5F5F5F5F5F5F5F5F5F5F5F5F5F5F5F5F5F5F5F5F5F5F5F5F5F5F5F5F5F5F5F5F5F5F5F5F5F5F5F5F5F5F5F5F5F5F5F5F5F5F5F5F5F5F5F5F5F5F5F5F5F5F5F5F5F5F5F5F5F5F5F5F5F5F5F5F5F5F5F5F5F5F5F5F5F5F5F5F5F5F5F5F5F5F5F5F5F5E2F5F5F5F5F5F5F5F5F5F5F5F5F5F5F5F5E2F5F5F5E2E2EFF5F5
310
F5E2F5F5F5F5F5F5F5F5F5F5F5F5F5F5F5F5E2F5F5F5F5F5F5F5F5F5F5F5F5F5F5F5F5F5F5F5F5F5F5F5F5F5F5F5F5F5F5F5F5F5F5F5F5F5F5F5F5F5F5F5F5F5F5F5F5F5F5F5F5F5F5F5F5F5F5F5F5F5F5F5F5F5F5F5F5F5F5F5F5F5F5F5F5F5F5F5F5F5F5F5F5F5F5F5F5F5F5F5F5F5F5F5F5F5F5F5F5F5F5F5F5F5F5F5F5
310
F5F5F5F5F5F5F5F5F5F5F5F5F5F5F5F5F5F5F5F5F5F5F5F5F5F5F5E2F5F5F5F5F5F5F5F5F5F5F5F5F5F5F5F5E2F5F5F5E2E2EFF5F5F5E2F5F5F5F5F5F5F5F5F5F5F5F5F5F5F5F5E2F5F5F5F5F5F5F5F5F5F5F5F5F5F5F5F5F5F5F5F5F5F5F5F5F5F5F5F5F5F5F5F5F5F5F5F5F5F5F5F5F5F5F5F5F5F5F5F5F5F5F5F5F5F5F5
310
F5F5F5F5F5F5F5F5F5F5F5F5F5F5F5F5F5F5F5F5F5F5F5F5F5F5F5F5F5F5F5F5F5F5F5F5F5F5F5F5F5F5F5F5F5F5F5F5F5F5F5F5F5F5F5F5F5F5F5F5F5F5F5F5F5F5F5F5F5F5F5F5F5F5F5F5F5F5F5F5E2F5F5F5F5F5F5F5F5F5F5F5F5F5F5F5F5E2F5F5F5E2E2EFF5F5F5E2F5F5F5F5F5F5F5F5F5F5F5F5F5F5F5F5E2F5F5
310
F5F5F5F5F5F5F5F5F5F5F5F5F5F5F5F5F5F5F5F5F5F5F5F5F5F5F5F5F5F5F5F5F5F5F5F5F5F5F5F5F5F5F5F5F5F5F5F5F5F5F5F5F5F5F5F5F5F5F5F5F5F5F5F5F5F5F5F5F5F5F5F5F5F5F5F5F5F5F5F5F5F5F5F5F5F5F5F5F5F5F5F5F5F5F5F5F5F5F5F5F5F5F5F5F5F5F5F5F5F5F5F5F5F5F5F5F5F5F5F5F5F5F5F5F5F5F5
310
F5F5F5F5F5F5E2F5F5F5F5F5F5F5F5F5F5F5F5F5F5F5F5E2F5F5F5E2E2EFF5F5F5E2F5F5F5F5F5F5F5F5F5F5F5F5F5F5F5F5E2F5F5F5F5F5F5F5F5F5F5F5F5F5F5F5F5F5F5F5F5F5F5F5F5F5F5F5F5F5F5F5F5F5F5F5F5F5F5F5F5F5F5F5F5F5F5F5F5F5F5F5F5F5F5F5F5F5F5F5F5F5F5F5F5F5F5F5F5F5F5F5F5F5F5F5F5
310
F5F5F5F5F5F5F5F5F5F5F5F5F5F5F5F5F5F5F5F5F5F5F5F5F5F5F5F5F5F5F5F5F5F5F5F5F5F5F5F5F5F5F5F5F5F5F5F5F5F5F5F5F5F5F5F5F5F5F5E2F5F5F5F5F5F5F5F5F5F5F5F5F5F5F5F5E2F5F5F5E2E2EFF5F5F5F5F5F5F5F5F5F5F5F5F5F5F5F5F5F5F5F5E2F5F5F5F5F5F5F5F5F5F5F5F5F5F5F5F5F5F5F5F5F5F5F5
310
F5F5F5F5F5F5F5F5F5F5F5F5F5F5F5F5F5F5F5F5F5F5F5F5F5F5F5F5F5F5F5F5F5F5F5F5F5F5F5F5F5F5F5F5F5F5F5F5F5F5F5F5F5F5F5F5F5F5F5F5F5F5F5F5F5F5F5F5F5F5F5F5F5F5F5F5F5F5F5F5F5F5F5F5F5F5F5F5F5F5F5F5F5F5F5F5F5F5F5F5F5F5F5F5F5F5F5F5F5F5F5F5E2F5F5F5F5F5F5F5F5F5F5F5F5F5F5
310
F5F5F5F5F5F5E2E2EFF5F5F5F5F5F5F5F5F5F5F5F5F5F5F5F5F5F5F5F5E2F5F5F5F5F5F5F5F5F5F5F5F5F5F5F5F5F5F5F5F5F5F5F5F5F5F5F5F5F5F5F5F5F5F5F5F5F5F5F5F5F5F5F5F5F5F5F5F5F5F5F5F5F5F5F5F5F5F5F5F5F5F5F5F5F5F5F5F5F5F5F5F5F5F5F5F5F5F5F5F5F5F5F5F5F5F5F5F5F5F5F5F5F5F5F5F5F5
310
F5F5F5F5F5F5F5F5F5F5F5F5F5F5F5F5F5F5F5F5F5F5F5F5F5F5F5F5F5F5F5F5F5F5F5F5F5F5E2F5F5F5F5F5F5F5F5F5F5F5F5F5F5F5F5F5F5F5F5E2E2EFF5F5F5F5F5F5F5F5F5F5F5F5F5F5F5F5F5F5F5F5E2F5F5F5F5F5F5F5F5F5F5F5F5F5F5F5F5F5F5F5F5F5F5F5F5F5F5F5F5F5F5F5F5F5F5F5F5F5F5F5F5F5F5F5F5
310
F5F5F5F5F5F5F5F5F5F5F5F5F5F5F5F5F5F5F5F5F5F5F5F5F5F5F5F5F5F5F5F5F5F5F5F5F5F5F5F5F5F5F5F5F5F5F5F5F5F5F5F5F5F5F5F5F5F5F5F5F5F5F5F5F5F5F5F5F5F5F5F5F5F5F5F5F5F5F5F5F5F5F5F5F5F5F5F5F5F5F5E2F5F5F5F5F5F5F5F5F5F5F5F5F5F5F5F5F5F5F5F5E2E2EFF5F5F5F5F5F5F5F5F5F5F5F5
310
F5F5F5F5F5F5F5F5E2F5F5F5F5F5F5F5F5F5F5F5F5F5F5F5F5F5F5F5F5F5F5F5F5F5F5F5F5F5F5F5F5F5F5F5F5F5F5F5F5F5F5F5F5F5F5F5F5F5F5F5F5F5F5F5F5F5F5F5F5F5F5F5F5F5F5F5F5F5F5F5F5F5F5F5F5F5F5F5F5F5F5F5F5F5F5F5F5F5F5F5F5F5F5F5F5F5F5F5F5F5F5F5F5F5F5F5F5F5F5F5F5F5F5F5F5F5F5
310
F5F5F5F5F5F5F5F5F5F5F5F5F5F5F5F5F5E2F5F5F5F5F5F5F5F5F5F5F5F5F5F5F5F5F5F5F5F5E2E2EFF5F5F5F5F5F5F5F5F5F5F5F5F5F5F5F5F5F5F5F5E2F5F5F5F5F5F5F5F5F5F5F5F5F5F5F5F5F5F5F5F5F5F5F5F5F5F5F5F5F5F5F5F5F5F5F5F5F5F5F5F5F5F5F5F5F5F5F5F5F5F5F5F5F5F5F5F5F5F5F5F5F5F5F5F5F5
310
F5F5F5F5F5F5F5F5F5F5F5F5F5F5F5F5F5F5F5F5F5F5F5F5F5F5F5F5F5F5F5F5F5F5F5F5F5F5F5F5F5F5F5F5F5F5F5F5F5F5F5F5F5F5F5F5F5F5F5F5F5F5F5F5F5F5F5F5F5F5E2F5F5F5F5F5F5F5F5F5F5F5F5F5F5F5F5F5F5F5F5E2E2EFF5F5F5F5F5F5F5F5F5F5F5F5F5F5F5F5F5F5F5F5E2F5F5F5F5F5F5F5F5F5F5F5F5
310
F5F5F5F5F5F5F5F5F5F5F5F5F5F5F5F5F5F5F5F5F5F5F5F5F5F5F5F5F5F5F5F5F5F5F5F5F5F5F5F5F5F5F5F5F5F5F5F5F5F5F5F5F5F5F5F5F5F5F5F5F5F5F5F5F5F5F5F5F5F5F5F5F5F5F5F5F5F5F5F5F5F5F5F5F5F5F5F5F5F5F5F5F5F5F5F5F5F5F5F5F5F5F5F5F5F5F5F5F5F5F5F5F5F5F5F5F5F5F5F5F5F5F5E2F5F5F5
310
F5F5F5F5F5F5F5F5F5F5F5F5F5F5F5F5F5E2E2EFF5F5F5F5F5F5F5F5F5F5F5F5F5F5F5F5F5F5F5F5E2F5F5F5F5F5F5F5F5F5F5F5F5F5F5F5F5F5F5F5F5F5F5F5F5F5F5F5F5F5F5F5F5F5F5F5F5F5F5F5F5F5F5F5F5F5F5F5F5F5F5F5F5F5F5F5F5F5F5F5F5F5F5F5F5F5F5F5F5F5F5F5F5F5F5F5F5F5F5F5F5F5F5F5F5F5F5
310
F5F5F5F5F5F5F5F5F5F5F5F5F5F5F5F5F5F5F5F5F5F5F5F5F5F5F5F5F5F5F5F5F5F5F5F5F5F5F5F5F5F5F5F5F5F5F5F5F5E2F5F5F5F5F5F5F5F5F5F5F5F5F5F5F5F5F5F5F5F5E2E2EFF5F5F5F5F5F5F5F5F5F5F5F5F5F5F5F5F5F5F5F5E2F5F5F5F5F5F5F5F5F5F5F5F5F5F5F5F5F5F5F5F5F5F5F5F5F5F5F5F5F5F5F5F5F5
310
F5F5F5F5F5F5F5F5F5F5F5F5F5F5F5F5F5F5F5F5F5F5F5F5F5F5F5F5F5F5F5F5F5F5F5F5F5F5F5F5F5F5F5F5F5F5F5F5F5F5F5F5F5F5F5F5F5F5F5F5F5F5F5F5F5F5F5F5F5F5F5F5F5F5F5F5F5F5F5F5F5F5F5F5F5F5F5F5F5F5F5F5F5F5F5F5F5F5F5F5F5F5E2F5F5F5F5F5F5F5F5F5F5F5F5F5F5F5F5F5F5F5F5E2E2EFF5
310
F5F5F5F5F5F5F5F5F5F5F5F5F5F5F5F5F5F5F5E2F5F5F5F5F5F5F5F5F5F5F5F5F5F5F5F5F5F5F5F5F5F5F5F5F5F5F5F5F5F5F5F5F5F5F5F5F5F5F5F5F5F5F5F5F5F5F5F5F5F5F5F5F5F5F5F5F5F5F5F5F5F5F5F5F5F5F5F5F5F5F5F5F5F5F5F5F5F5F5F5F5F5F5F5F5F5F5F5F5F5F5F5F5F5F5F5F5F5F5F5F5F5F5F5F5F5F5
310
F5F5F5F5F5F5F5F5F5F5F5F5F5F5F5F5F5F5F5F5F5F5F5F5F5F5F5F5E2F5F5F5F5F5F5F5F5F5F5F5F5F5F5F5F5F5F5F5F5E2E2EFF5F5F5E2F5F5F5F5F5F5F5F5F5F5F5F5F5F5F5F5E2F5F5F5F5F5F5F5F5F5F5F5F5F5F5F5F5F5F5F5F5F5F5F5F5F5F5F5F5F5F5F5F5F5F5F5F5F5F5F5F5F5F5F5F5F5F5F5F5F5F5F5F5F5F5
310
F5F5F5F5F5F5F5F5F5F5F5F5F5F5F5F5F5F5F5F5F5F5F5F5F5F5F5F5F5F5F5F5F5F5F5F5F5F5F5F5F5F5F5F5F5F5F5F5F5F5F5F5F5F5F5F5F5F5F5F5F5F5F5F5F5F5F5F5F5F5F5F5F5F5F5F5F5F5F5F5F5E2F5F5F5F5F5F5F5F5F5F5F5F5F5F5F5F5E2F5F5F5E2E2EFF5F5F5E2F5F5F5F5F5F5F5F5F5F5F5F5F5F5F5F5E2F5
310
F5F5F5F5F5F5F5F5F5F5F5F5F5F5F5F5F5F5F5F5F5F5F5F5F5F5F5F5F5F5F5F5F5F5F5F5F5F5F5F5F5F5F5F5F5F5F5F5F5F5F5F5F5F5F5F5F5F5F5F5F5F5F5F5F5F5F5F5F5F5F5F5F5F5F5F5F5F5F5F5F5F5F5F5F5F5F5F5F5F5F5F5F5F5F5F5F5F5F5F5F5F5F5F5F5F5F5F5F5F5F5F5F5F5F5F5F5F5F5F5F5F5F5F5F5F5F5
310
F5F5F5F5F5F5F5E2F5F5F5F5F5F5F5F5F5F5F5F5F5F5F5F5E2F5F5F5E2E2EFF5F5F5E2F5F5F5F5F5F5F5F5F5F5F5F5F5F5F5F5E2F5F5F5F5F5F5F5F5F5F5F5F5F5F5F5F5F5F5F5F5F5F5F5F5F5F5F5F5F5F5F5F5F5F5F5F5F5F5F5F5F5F5F5F5F5F5F5F5F5F5F5F5F5F5F5F5F5F5F5F5F5F5F5F5F5F5F5F5F5F5F5F5F5F5F5
310
F5F5F5F5F5F5F5F5F5F5F5F5F5F5F5F5F5F5F5F5F5F5F5F5F5F5F5F5F5F5F5F5F5F5F5F5F5F5F5F5F5F5F5F5F5F5F5F5F5F5F5F5F5F5F5F5F5F5F5F5E2F5F5F5F5F5F5F5F5F5F5F5F5F5F5F5F5E2F5F5F5E2E2EFF5F5F5E2F5F5F5F5F5F5F5F5F5F5F5F5F5F5F5F5E2F5F5F5F5F5F5F5F5F5F5F5F5F5F5F5F5F5F5F5F5F5F5
310
F5F5F5F5F5F5F5F5F5F5F5F5F5F5F5F5F5F5F5F5F5F5F5F5F5F5F5F5F5F5F5F5F5F5F5F5F5F5F5F5F5F5F5F5F5F5F5F5F5F5F5F5F5F5F5F5F5F5F5F5F5F5F5F5F5F5F5F5F5F5F5F5F5F5F5F5F5F5F5F5F5F5F5F5F5F5F5F5F5F5F5F5F5F5F5F5F5F5F5F5F5F5F5F5F5F5F5F5F5F5F5F5F5E2F5F5F5F5F5F5F5F5F5F5F5F5F5
310
F5F5F5E2F5F5F5E2E2EFF5F5F5E2F5F5F5F5F5F5F5F5F5F5F5F5F5F5F5F5E2F5F5F5F5F5F5F5F5F5F5F5F5F5F5F5F5F5F5F5F5F5F5F5F5F5F5F5F5F5F5F5F5F5F5F5F5F5F5F5F5F5F5F5F5F5F5F5F5F5F5F5F5F5F5F5F5F5F5F5F5F5F5F5F5F5F5F5F5F5F5F5F5F5F5F5F5F5F5F5F5F5F5F5F5F5F5F5F5F5F5F5F5F5F5F5F5
310
F5F5F5F5F5F5F5F5F5F5F5F5F5F5F5F5F5F5F5F5F5F5F5F5F5F5F5F5F5F5F5F5F5F5F5F5F5F5F5E2F5F5F5F5F5F5F5F5F5F5F5F5F5F5F5F5E2F5F5F5E2E2EFF5F5F5E2F5F5F5F5F5F5F5F5F5F5F5F5F5F5F5F5E2F5F5F5F5F5F5F5F5F5F5F5F5F5F5F5F5F5F5F5F5F5F5F5F5F5F5F5F5F5F5F5F5F5F5F5F5F5F5F5F5F5F5F5
310
F5F5F5F5F5F5F5F5F5F5F5F5F5F5F5F5F5F5F5F5F5F5F5F5F5F5F5F5F5F5F5F5F5F5F5F5F5F5F5F5F5F5F5F5F5F5F5F5F5F5F5F5F5F5F5F5F5F5F5F5F5F5F5F5F5F5F5F5F5F5F5F5F5F5F5F5F5F5F5F5F5F5F5F5F5F5F5F5F5F5F5F5E2F5F5F5F5F5F5F5F5F5F5F5F5F5F5F5F5E2F5F5F5E2E2EFF5F5F5E2F5F5F5F5F5F5F5
310
F5F5F5F5F5F5F5F5F5E2F5F5F5F5F5F5F5F5F5F5F5F5F5F5F5F5F5F5F5F5F5F5F5F5F5F5F5F5F5F5F5F5F5F5F5F5F5F5F5F5F5F5F5F5F5F5F5F5F5F5F5F5F5F5F5F5F5F5F5F5F5F5F5F5F5F5F5F5F5F5F5F5F5F5F5F5F5F5F5F5F5F5F5F5F5F5F5F5F5F5F5F5F5F5F5F5F5F5F5F5F5F5F5F5F5F5F5F5F5F5F5F5F5F5F5F5F5
310
F5F5F5F5F5F5F5F5F5F5F5F5F5F5F5F5F5F5E2F5F5F5F5F5F5F5F5F5F5F5F5F5F5F5F5E2F5F5F5E2E2EFF5F5F5E2F5F5F5F5F5F5F5F5F5F5F5F5F5F5F5F5E2F5F5F5F5F5F5F5F5F5F5F5F5F5F5F5F5F5F5F5F5F5F5F5F5F5F5F5F5F5F5F5F5F5F5F5F5F5F5F5F5F5F5F5F5F5F5F5F5F5F5F5F5F5F5F5F5F5F5F5F5F5F5F5F5
310
F5F5F5F5F5F5F5F5F5F5F5F5F5F5F5F5F5F5F5F5F5F5F5F5F5F5F5F5F5F5F5F5F5F5F5F5F5F5F5F5F5F5F5F5F5F5F5F5F5F5F5F5F5F5F5F5F5F5F5F5F5F5F5F5F5F5F5F5F5F5F5E2F5F5F5F5F5F5F5F5F5F5F5F5F5F5F5F5E2F5F5F5E2E2EFF5F5F5E2F5F5F5F5F5F5F5F5F5F5F5F5F5F5F5F5E2F5F5F5F5F5F5F5F5F5F5F5
310
F5F5F5F5F5F5F5F5F5F5F5F5F5F5F5F5F5F5F5F5F5F5F5F5F5F5F5F5F5F5F5F5F5F5F5F5F5F5F5F5F5F5F5F5F5F5F5F5F5F5F5F5F5F5F5F5F5F5F5F5F5F5F5F5F5F5F5F5F5F5F5F5F5F5F5F5F5F5F5F5F5F5F5F5F5F5F5F5F5F5F5F5F5F5F5F5F5F5F5F5F5F5F5F5F5F5F5F5F5F5F5F5F5F5F5F5F5F5F5F5F5F5F5F5E2F5F5
310
F5F5F5F5F5F5F5F5F5F5F5F5F5F5E2F5F5F5E2E2EFF5F5F5E2F5F5F5F5F5F5F5F5F5F5F5F5F5F5F5F5E2F5F5F5F5F5F5F5F5F5F5F5F5F5F5F5F5F5F5F5F5F5F5F5F5F5F5F5F5F5F5F5F5F5F5F5F5F5F5F5F5F5F5F5F5F5F5F5F5F5F5F5F5F5F5F5F5F5F5F5F5F5F5F5F5F5F5F5F5F5F5F5F5F5F5F5F5F5F5F5F5F5F5F5F5F5
310
F5F5F5F5F5F5F5F5F5F5F5F5F5F5F5F5F5F5F5F5F5F5F5F5F5F5F5F5F5F5F5F5F5F5F5F5F5F5F5F5F5F5F5F5F5F5F5F5F5F5E2F5F5F5F5F5F5F5F5F5F5F5F5F5F5F5F5E2F5F5F5E2E2EFF5F5F5E2F5F5F5F5F5F5F5F5F5F5F5F5F5F5F5F5E2F5F5F5F5F5F5F5F5F5F5F5F5F5F5F5F5F5F5F5F5F5F5F5F5F5F5F5F5F5F5F5F5
310
F5F5F5F5F5F5F5F5F5F5F5F5F5F5F5F5F5F5F5F5F5F5F5F5F5F5F5F5F5F5F5F5F5F5F5F5F5F5F5F5F5F5F5F5F5F5F5F5F5F5F5F5F5F5F5F5F5F5F5F5F5F5F5F5F5F5F5F5F5F5F5F5F5F5F5F5F5F5F5F5F5F5F5F5F5F5F5F5F5F5F5F5F5F5F5F5F5F5F5F5F5F5F5E2F5F5F5F5F5F5F5F5F5F5F5F5F5F5F5F5E2F5F5F5E2E2EF
310
F5F5F5E2F5F5F5F5F5F5F5F5F5F5F5F5F5F5F5F5E2F5F5F5F5F5F5F5F5F5F5F5F5F5F5F5F5F5F5F5F5F5F5F5F5F5F5F5F5F5F5F5F5F5F5F5F5F5F5F5F5F5F5F5F5F5F5F5F5F5F5F5F5F5F5F5F5F5F5F5F5F5F5F5F5F5F5F5F5F5F5F5F5F5F5F5F5F5F5F5F5F5F5F5F5F5F5F5F5F5F5F5F5F5F5F5F5F5F5F5F5F5F5F5F5F5F5
310
F5F5F5F5F5F5F5F5F5F5F5F5F5F5F5F5F5F5F5F5F5F5F5F5F5F5F5F5F5E2F5F5F5F5F5F5F5F5F5F5F5F5F5F5F5F5E2F5F5F5E2E2EFF5F5F5E2F5F5F5F5F5F5F5F5F5F5F5F5F5F5F5F5E2F5F5F5F5F5F5F5F5F5F5F5F5F5F5F5F5F5F5F5F5F5F5F5F5F5F5F5F5F5F5F5F5F5F5F5F5F5F5F5F5F5F5F5F5F5F5F5F5F5F5F5F5F5
310
F5F5F5F5F5F5F5F5F5F5F5F5F5F5F5F5F5F5F5F5F5F5F5F5F5F5F5F5F5F5F5F5F5F5F5F5F5F5F5F5F5F5F5F5F5F5F5F5F5F5F5F5F5F5F5F5F5F5F5F5F5F5F5F5F5F5F5F5F5F5F5F5F5F5F5F5F5F5F5F5F5F5E2F5F5F5F5F5F5F5F5F5F5F5F5F5F5F5F5E2F5F5F5E2E2EFF5F5F5E2F5F5F5F5F5F5F5F5F5F5F5F5F5F5F5F5E2
310
F5F5F5F5F5F5F5F5F5F5F5F5F5F5F5F5F5F5F5F5F5F5F5F5F5F5F5F5F5F5F5F5F5F5F5F5F5F5F5F5F5F5F5F5F5F5F5F5F5F5F5F5F5F5F5F5F5F5F5F5F5F5F5F5F5F5F5F5F5F5F5F5F5F5F5F5F5F5F5F5F5F5F5F5F5F5F5F5F5F5F5F5F5F5F5F5F5F5F5F5F5F5F5F5F5F5F5F5F5F5F5F5F5F5F5F5F5F5F5F5F5F5F5F5F5F5F5
310
F5F5F5F5F5F5F5F5E2F5F5F5F5F5F5F5F5F5F5F5F5F5F5F5F5E2F5F5F5E2E2EFF5F5F5E2F5F5F5F5F5F5F5F5F5F5F5F5F5F5F5F5E2F5F5F5F5F5F5F5F5F5F5F5F5F5F5F5F5F5F5F5F5F5F5F5F5F5F5F5F5F5F5F5F5F5F5F5F5F5F5F5F5F5F5F5F5F5F5F5F5F5F5F5F5F5F5F5F5F5F5F5F5F5F5F5F5F5F5F5F5F5F5F5F5F5F5
310
F5F5F5F5F5F5F5F5F5F5F5F5F5F5F5F5F5F5F5F5F5F5F5F5F5F5F5F5F5F5F5F5F5F5F5F5F5F5F5F5F5F5F5F5F5F5F5F5F5F5F5F5F5F5F5F5F5F5F5F5F5E2F5F5F5F5F5F5F5F5F5F5F5F5F5F5F5F5E2F5F5F5E2E2EFF5F5F5E2F5F5F5F5F5F5F5F5F5F5F5F5F5F5F5F5E2F5F5F5F5F5F5F5F5F5F5F5F5F5F5F5F5F5F5F5F5F5
310
F5F5F5F5F5F5F5F5F5F5F5F5F5F5F5F5F5F5F5F5F5F5F5F5F5F5F5F5F5F5F5F5F5F5F5F5F5F5F5F5F5F5F5F5F5F5F5F5F5F5F5F5F5F5F5F5F5F5F5F5F5F5F5F5F5F5F5F5F5F5F5F5F5F5F5F5F5F5F5F5F5F5F5F5F5F5F5F5F5F5F5F5F5F5F5F5F5F5F5F5F5F5F5F5F5F5F5F5F5F5F5F5F5F5E2F5F5F5F5F5F5F5F5F5F5F5F5
310
F5F5F5F5E2F5F5F5E2E2EFF5F5F5E2F5F5F5F5F5F5F5F5F5F5F5F5F5F5F5F5E2F5F5F5F5F5F5F5F5F5F5F5F5F5F5F5F5F5F5F5F5F5F5F5F5F5F5F5F5F5F5F5F5F5F5F5F5F5F5F5F5F5F5F5F5F5F5F5F5F5F5F5F5F5F5F5F5F5F5F5F5F5F5F5F5F5F5F5F5F5F5F5F5F5F5F5F5F5F5F5F5F5F5F5F5F5F5F5F5F5F5F5F5F5F5F5
310
F5F5F5F5F5F5F5F5F5F5F5F5F5F5F5F5F5F5F5F5F5F5F5F5F5F5F5F5F5F5F5F5F5F5F5F5F5F5F5F5E2F5F5F5F5F5F5F5F5F5F5F5F5F5F5F5F5E2F5F5F5E2E2EFF5F5F5F5F5F5F5F5F5F5F5F5F5F5F5F5F5F5F5F5E2F5F5F5F5F5F5F5F5F5F5F5F5F5F5F5F5F5F5F5F5F5F5F5F5F5F5F5F5F5F5F5F5F5F5F5F5F5F5F5F5F5F5
310
F5F5F5F5F5F5F5F5F5F5F5F5F5F5F5F5F5F5F5F5F5F5F5F5F5F5F5F5F5F5F5F5F5F5F5F5F5F5F5F5F5F5F5F5F5F5F5F5F5F5F5F5F5F5F5F5F5F5F5F5F5F5F5F5F5F5F5F5F5F5F5F5F5F5F5F5F5F5F5F5F5F5F5F5F5F5F5F5F5F5F5F5F5E2F5F5F5F5F5F5F5F5F5F5F5F5F5F5F5F5F5F5F5F5E2E2EFF5F5F5F5F5F5F5F5F5F5
310
F5F5F5F5F5F5F5F5F5F5E2F5F5F5F5F5F5F5F5F5F5F5F5F5F5F5F5F5F5F5F5F5F5F5F5F5F5F5F5F5F5F5F5F5F5F5F5F5F5F5F5F5F5F5F5F5F5F5F5F5F5F5F5F5F5F5F5F5F5F5F5F5F5F5F5F5F5F5F5F5F5F5F5F5F5F5F5F5F5F5F5F5F5F5F5F5F5F5F5F5F5F5F5F5F5F5F5F5F5F5F5F5F5F5F5F5F5F5F5F5F5F5F5F5F5F5F5
310
F5F5F5F5F5F5F5F5F5F5F5F5F5F5F5F5F5F5F5E2F5F5F5F5F5F5F5F5F5F5F5F5F5F5F5F5F5F5F5F5E2E2EFF5F5F5F5F5F5F5F5F5F5F5F5F5F5F5F5F5F5F5F5E2F5F5F5F5F5F5F5F5F5F5F5F5F5F5F5F5F5F5F5F5F5F5F5F5F5F5F5F5F5F5F5F5F5F5F5F5F5F5F5F5F5F5F5F5F5F5F5F5F5F5F5F5F5F5F5F5F5F5F5F5F5F5F5
310
F5F5F5F5F5F5F5F5F5F5F5F5F5F5F5F5F5F5F5F5F5F5F5F5F5F5F5F5F5F5F5F5F5F5F5F5F5F5F5F5F5F5F5F5F5F5F5F5F5F5F5F5F5F5F5F5F5F5F5F5F5F5F5F5F5F5F5F5F5F5F5F5E2F5F5F5F5F5F5F5F5F5F5F5F5F5F5F5F5F5F5F5F5E2E2EFF5F5F5F5F5F5F5F5F5F5F5F5F5F5F5F5F5F5F5F5E2F5F5F5F5F5F5F5F5F5F5
310
F5F5F5F5F5F5F5F5F5F5F5F5F5F5F5F5F5F5F5F5F5F5F5F5F5F5F5F5F5F5F5F5F5F5F5F5F5F5F5F5F5F5F5F5F5F5F5F5F5F5F5F5F5F5F5F5F5F5F5F5F5F5F5F5F5F5F5F5F5F5F5F5F5F5F5F5F5F5F5F5F5F5F5F5F5F5F5F5F5F5F5F5F5F5F5F5F5F5F5F5F5F5F5F5F5F5F5F5F5F5F5F5F5F5F5F5F5F5F5F5F5F5F5F5F5E2F5
310
F5F5F5F5F5F5F5F5F5F5F5F5F5F5F5F5F5F5F5E2E2EFF5F5F5F5F5F5F5F5F5F5F5F5F5F5F5F5F5F5F5F5E2F5F5F5F5F5F5F5F5F5F5F5F5F5F5F5F5F5F5F5F5F5F5F5F5F5F5F5F5F5F5F5F5F5F5F5F5F5F5F5F5F5F5F5F5F5F5F5F5F5F5F5F5F5F5F5F5F5F5F5F5F5F5F5F5F5F5F5F5F5F5F5F5F5F5F5F5F5F5F5F5F5F5F5F5
310
F5F5F5F5F5F5F5F5F5F5F5F5F5F5F5F5F5F5F5F5F5F5F5F5F5F5F5F5F5F5F5F5F5F5F5F5F5F5F5F5F5F5F5F5F5F5F5F5F5F5F5E2F5F5F5F5F5F5F5F5F5F5F5F5F5F5F5F5F5F5F5F5E2E2EFF5F5F5F5F5F5F5F5F5F5F5F5F5F5F5F5F5F5F5F5E2F5F5F5F5F5F5F5F5F5F5F5F5F5F5F5F5F5F5F5F5F5F5F5F5F5F5F5F5F5F5F5
310
F5F5F5F5F5F5F5F5F5F5F5F5F5F5F5F5F5F5F5F5F5F5F5F5F5F5F5F5F5F5F5F5F5F5F5F5F5F5F5F5F5F5F5F5F5F5F5F5F5F5F5F5F5F5F5F5F5F5F5F5F5F5F5F5F5F5F5F5F5F5F5F5F5F5F5F5F5F5F5F5F5F5F5F5F5F5F5F5F5F5F5F5F5F5F5F5F5F5F5F5F5F5F5F5E2F5F5F5F5F5F5F5F5F5F5F5F5F5F5F5F5F5F5F5F5E2E2
310
EFF5F5F5F5F5F5F5F5F5F5F5F5F5F5F5F5F5F5F5F5E2F5F5F5F5F5F5F5F5F5F5F5F5F5F5F5F5F5F5F5F5F5F5F5F5F5F5F5F5F5F5F5F5F5F5F5F5F5F5F5F5F5F5F5F5F5F5F5F5F5F5F5F5F5F5F5F5F5F5F5F5F5F5F5F5F5F5F5F5F5F5F5F5F5F5F5F5F5F5F5F5F5F5F5F5F5F5F5F5F5F5F5F5F5F5F5F5F5F5F5F5F5F5F5F5F5
310
F5F5F5F5F5F5F5F5F5F5F5F5F5F5F5F5F5F5F5F5F5F5F5F5F5F5F5F5F5F5E2F5F5F5F5F5F5F5F5F5F5F5F5F5F5F5F5F5F5F5F5E2E2EFF5F5F5F5F5F5F5F5F5F5F5F5F5F5F5F5F5F5F5F5E2F5F5F5F5F5F5F5F5F5F5F5F5F5F5F5F5F5F5F5F5F5F5F5F5F5F5F5F5F5F5F5F5F5F5F5F5F5F5F5F5F5F5F5F5F5F5F5F5F5F5F5F5
310
F5F5F5F5F5F5F5F5F5F5F5F5F5F5F5F5F5F5F5F5F5F5F5F5F5F5F5F5F5F5F5F5F5F5F5F5F5F5F5F5F5F5F5F5F5F5F5F5F5F5F5F5F5F5F5F5F5F5F5F5F5F5F5F5F5F5F5F5F5F5F5F5F5F5F5F5F5F5F5F5F5F5F5E2F5F5F5F5F5F5F5F5F5F5F5F5F5F5F5F5F5F5F5F5E2E2EFF5F5F5F5F5F5F5F5F5F5F5F5F5F5F5F5F5F5F5F5
310
E2F5F5F5F5F5F5F5F5F5F5F5F5F5F5F5F5F5F5F5F5F5F5F5F5F5F5F5F5F5F5F5F5F5F5F5F5F5F5F5F5F5F5F5F5F5F5F5F5F5F5F5F5F5F5F5F5F5F5F5F5F5F5F5F5F5F5F5F5F5F5F5F5F5F5F5F5F5F5F5F5F5F5F5F5F5F5F5F5F5F5F5F5F5F5F5F5F5F5F5F5F5F5F5F5F5F5F5F5F5F5F5F5F5F5F5F5F5F5F5F5F5F5F5F5F5F5
310
F5F5F5F5F5F5F5F5F5E2F5F5F5F5F5F5F5F5F5F5F5F5F5F5F5F5F5F5F5F5E2E2EFF5F5F5E2F5F5F5F5F5F5F5F5F5F5F5F5F5F5F5F5E2F5F5F5F5F5F5F5F5F5F5F5F5F5F5F5F5F5F5F5F5F5F5F5F5F5F5F5F5F5F5F5F5F5F5F5F5F5F5F5F5F5F5F5F5F5F5F5F5F5F5F5F5F5F5F5F5F5F5F5F5F5F5F5F5F5F5F5F5F5F5F5F5F5
310
F5F5F5F5F5F5F5F5F5F5F5F5F5F5F5F5F5F5F5F5F5F5F5F5F5F5F5F5F5F5F5F5F5F5F5F5F5F5F5F5F5F5F5F5F5F5F5F5F5F5F5F5F5F5F5F5F5F5F5F5F5F5E2F5F5F5F5F5F5F5F5F5F5F5F5F5F5F5F5E2F5F5F5E2E2EFF5F5F5E2F5F5F5F5F5F5F5F5F5F5F5F5F5F5F5F5E2F5F5F5F5F5F5F5F5F5F5F5F5F5F5F5F5F5F5F5F5
310
F5F5F5F5F5F5F5F5F5F5F5F5F5F5F5F5F5F5F5F5F5F5F5F5F5F5F5F5F5F5F5F5F5F5F5F5F5F5F5F5F5F5F5F5F5F5F5F5F5F5F5F5F5F5F5F5F5F5F5F5F5F5F5F5F5F5F5F5F5F5F5F5F5F5F5F5F5F5F5F5F5F5F5F5F5F5F5F5F5F5F5F5F5F5F5F5F5F5F5F5F5F5F5F5F5F5F5F5F5F5F5F5F5F5F5E2F5F5F5F5F5F5F5F5F5F5F5
310
F5F5F5F5F5E2F5F5F5E2E2EFF5F5F5E2F5F5F5F5F5F5F5F5F5F5F5F5F5F5F5F5E2F5F5F5F5F5F5F5F5F5F5F5F5F5F5F5F5F5F5F5F5F5F5F5F5F5F5F5F5F5F5F5F5F5F5F5F5F5F5F5F5F5F5F5F5F5F5F5F5F5F5F5F5F5F5F5F5F5F5F5F5F5F5F5F5F5F5F5F5F5F5F5F5F5F5F5F5F5F5F5F5F5F5F5F5F5F5F5F5F5F5F5F5F5F5
310
F5F5F5F5F5F5F5F5F5F5F5F5F5F5F5F5F5F5F5F5F5F5F5F5F5F5F5F5F5F5F5F5F5F5F5F5F5F5F5F5F5E2F5F5F5F5F5F5F5F5F5F5F5F5F5F5F5F5E2F5F5F5E2E2EFF5F5F5E2F5F5F5F5F5F5F5F5F5F5F5F5F5F5F5F5E2F5F5F5F5F5F5F5F5F5F5F5F5F5F5F5F5F5F5F5F5F5F5F5F5F5F5F5F5F5F5F5F5F5F5F5F5F5F5F5F5F5
310
F5F5F5F5F5F5F5F5F5F5F5F5F5F5F5F5F5F5F5F5F5F5F5F5F5F5F5F5F5F5F5F5F5F5F5F5F5F5F5F5F5F5F5F5F5F5F5F5F5F5F5F5F5F5F5F5F5F5F5F5F5F5F5F5F5F5F5F5F5F5F5F5F5F5F5F5F5F5F5F5F5F5F5F5F5F5F5F5F5F5F5F5F5F5E2F5F5F5F5F5F5F5F5F5F5F5F5F5F5F5F5E2F5F5F5E2E2EFF5F5F5E2F5F5F5F5F5
310
F5F5F5F5F5F5F5F5F5F5F5E2F5F5F5F5F5F5F5F5F5F5F5F5F5F5F5F5F5F5F5F5F5F5F5F5F5F5F5F5F5F5F5F5F5F5F5F5F5F5F5F5F5F5F5F5F5F5F5F5F5F5F5F5F5F5F5F5F5F5F5F5F5F5F5F5F5F5F5F5F5F5F5F5F5F5F5F5F5F5F5F5F5F5F5F5F5F5F5F5F5F5F5F5F5F5F5F5F5F5F5F5F5F5F5F5F5F5F5F5F5F5F5F5F5F5F5
310
F5F5F5F5F5F5F5F5F5F5F5F5F5F5F5F5F5F5F5F5E2F5F5F5F5F5F5F5F5F5F5F5F5F5F5F5F5E2F5F5F5E2E2EFF5F5F5E2F5F5F5F5F5F5F5F5F5F5F5F5F5F5F5F5E2F5F5F5F5F5F5F5F5F5F5F5F5F5F5F5F5F5F5F5F5F5F5F5F5F5F5F5F5F5F5F5F5F5F5F5F5F5F5F5F5F5F5F5F5F5F5F5F5F5F5F5F5F5F5F5F5F5F5F5F5F5F5
310
F5F5F5F5F5F5F5F5F5F5F5F5F5F5F5F5F5F5F5F5F5F5F5F5F5F5F5F5F5F5F5F5F5F5F5F5F5F5F5F5F5F5F5F5F5F5F5F5F5F5F5F5F5F5F5F5F5F5F5F5F5F5F5F5F5F5F5F5F5F5F5F5F5E2F5F5F5F5F5F5F5F5F5F5F5F5F5F5F5F5E2F5F5F5E2E2EFF5F5F5E2F5F5F5F5F5F5F5F5F5F5F5F5F5F5F5F5E2F5F5F5F5F5F5F5F5F5
310
F5F5F5F5F5F5F5F5F5F5F5F5F5F5F5F5F5F5F5F5F5F5F5F5F5F5F5F5F5F5F5F5F5F5F5F5F5F5F5F5F5F5F5F5F5F5F5F5F5F5F5F5F5F5F5F5F5F5F5F5F5F5F5F5F5F5F5F5F5F5F5F5F5F5F5F5F5F5F5F5F5F5F5F5F5F5F5F5F5F5F5F5F5F5F5F5F5F5F5F5F5F5F5F5F5F5F5F5F5F5F5F5F5F5F5F5F5F5F5F5F5F5F5F5F5F5E2
310
F5F5F5F5F5F5F5F5F5F5F5F5F5F5F5F5E2F5F5F5E2E2EFF5F5F5E2F5F5F5F5F5F5F5F5F5F5F5F5F5F5F5F5E2F5F5F5F5F5F5F5F5F5F5F5F5F5F5F5F5F5F5F5F5F5F5F5F5F5F5F5F5F5F5F5F5F5F5F5F5F5F5F5F5F5F5F5F5F5F5F5F5F5F5F5F5F5F5F5F5F5F5F5F5F5F5F5F5F5F5F5F5F5F5F5F5F5F5F5F5F5F5F5F5F5F5F5
310
F5F5F5F5F5F5F5F5F5F5F5F5F5F5F5F5F5F5F5F5F5F5F5F5F5F5F5F5F5F5F5F5F5F5F5F5F5F5F5F5F5F5F5F5F5F5F5F5F5F5F5F5E2F5F5F5F5F5F5F5F5F5F5F5F5F5F5F5F5E2F5F5F5E2E2EFF5F5F5E2F5F5F5F5F5F5F5F5F5F5F5F5F5F5F5F5E2F5F5F5F5F5F5F5F5F5F5F5F5F5F5F5F5F5F5F5F5F5F5F5F5F5F5F5F5F5F5
310
F5F5F5F5F5F5F5F5F5F5F5F5F5F5F5F5F5F5F5F5F5F5F5F5F5F5F5F5F5F5F5F5F5F5F5F5F5F5F5F5F5F5F5F5F5F5F5F5F5F5F5F5F5F5F5F5F5F5F5F5F5F5F5F5F5F5F5F5F5F5F5F5F5F5F5F5F5F5F5F5F5F5F5F5F5F5F5F5F5F5F5F5F5F5F5F5F5F5F5F5F5F5F5F5F5E2F5F5F5F5F5F5F5F5F5F5F5F5F5F5F5F5E2F5F5F5E2
310
E2EFF5F5F5E2F5F5F5F5F5F5F5F5F5F5F5F5F5F5F5F5E2F5F5F5F5F5F5F5F5F5F5F5F5F5F5F5F5F5F5F5F5F5F5F5F5F5F5F5F5F5F5F5F5F5F5F5F5F5F5F5F5F5F5F5F5F5F5F5F5F5F5F5F5F5F5F5F5F5F5F5F5F5F5F5F5F5F5F5F5F5F5F5F5F5F5F5F5F5F5F5F5F5F5F5F5F5F5F5F5F5F5F5F5F5F5F5F5F5F5F5F5F5F5F5F5
310
F5F5F5F5F5F5F5F5F5F5F5F5F5F5F5F5F5F5F5F5F5F5F5F5F5F5F5F5F5F5F5E2F5F5F5F5F5F5F5F5F5F5F5F5F5F5F5F5E2F5F5F5E2E2EFF5F5F5E2F5F5F5F5F5F5F5F5F5F5F5F5F5F5F5F5E2F5F5F5F5F5F5F5F5F5F5F5F5F5F5F5F5F5F5F5F5F5F5F5F5F5F5F5F5F5F5F5F5F5F5F5F5F5F5F5F5F5F5F5F5F5F5F5F5F5F5F5
310
F5F5F5F5F5F5F5F5F5F5F5F5F5F5F5F5F5F5F5F5F5F5F5F5F5F5F5F5F5F5F5F5F5F5F5F5F5F5F5F5F5F5F5F5F5F5F5F5F5F5F5F5F5F5F5F5F5F5F5F5F5F5F5F5F5F5F5F5F5F5F5F5F5F5F5F5F5F5F5F5F5F5F5F5E2F5F5F5F5F5F5F5F5F5F5F5F5F5F5F5F5E2F5F5F5E2E2EFF5F5F5E2F5F5F5F5F5F5F5F5F5F5F5F5F5F5F5
310
F5E2F5F5F5F5F5F5F5F5F5F5F5F5F5F5F5F5F5F5F5F5F5F5F5F5F5F5F5F5F5F5F5F5F5F5F5F5F5F5F5F5F5F5F5F5F5F5F5F5F5F5F5F5F5F5F5F5F5F5F5F5F5F5F5F5F5F5F5F5F5F5F5F5F5F5F5F5F5F5F5F5F5F5F5F5F5F5F5F5F5F5F5F5F5F5F5F5F5F5F5F5F5F5F5F5F5F5F5F5F5F5F5F5F5F5F5F5F5F5F5F5F5F5F5F5F5
310
F5F5F5F5F5F5F5F5F5F5E2F5F5F5F5F5F5F5F5F5F5F5F5F5F5F5F5E2F5F5F5E2E2EFF5F5F5E2F5F5F5F5F5F5F5F5F5F5F5F5F5F5F5F5E2F5F5F5F5F5F5F5F5F5F5F5F5F5F5F5F5F5F5F5F5F5F5F5F5F5F5F5F5F5F5F5F5F5F5F5F5F5F5F5F5F5F5F5F5F5F5F5F5F5F5F5F5F5F5F5F5F5F5F5F5F5F5F5F5F5F5F5F5F5F5F5F5
310
F5F5F5F5F5F5F5F5F5F5F5F5F5F5F5F5F5F5F5F5F5F5F5F5F5F5F5F5F5F5F5F5F5F5F5F5F5F5F5F5F5F5F5F5F5F5F5F5F5F5F5F5F5F5F5F5F5F5F5F5F5F5F5E2F5F5F5F5F5F5F5F5F5F5F5F5F5F5F5F5E2F5F5F5E2E2EFF5F5F5E2F5F5F5F5F5F5F5F5F5F5F5F5F5F5F5F5E2F5F5F5F5F5F5F5F5F5F5F5F5F5F5F5F5F5F5F5
310
F5F5F5F5F5F5F5F5F5F5F5F5F5F5F5F5F5F5F5F5F5F5F5F5F5F5F5F5F5F5F5F5F5F5F5F5F5F5F5F5F5F5F5F5F5F5F5F5F5F5F5F5F5F5F5F5F5F5F5F5F5F5F5F5F5F5F5F5F5F5F5F5F5F5F5F5F5F5F5F5F5F5F5F5F5F5F5F5F5F5F5F5F5F5F5F5F5F5F5F5F5F5F5F5F5F5F5F5F5F5F5F5F5F5F5F5E2F5F5F5F5F5F5F5F5F5F5
310
F5F5F5F5F5F5E2F5F5F5E2E2EFF5F5F5E2F5F5F5F5F5F5F5F5F5F5F5F5F5F5F5F5E2F5F5F5F5F5F5F5F5F5F5F5F5F5F5F5F5F5F5F5F5F5F5F5F5F5F5F5F5F5F5F5F5F5F5F5F5F5F5F5F5F5F5F5F5F5F5F5F5F5F5F5F5F5F5F5F5F5F5F5F5F5F5F5F5F5F5F5F5F5F5F5F5F5F5F5F5F5F5F5F5F5F5F5F5F5F5F5F5F5F5F5F5F5
310
F5F5F5F5F5F5F5F5F5F5F5F5F5F5F5F5F5F5F5F5F5F5F5F5F5F5F5F5F5F5F5F5F5F5F5F5F5F5F5F5F5F5E2F5F5F5F5F5F5F5F5F5F5F5F5F5F5F5F5E2F5F5F5E2E2EFF5F5F5E2F5F5F5F5F5F5F5F5F5F5F5F5F5F5F5F5E2F5F5F5F5F5F5F5F5F5F5F5F5F5F5F5F5F5F5F5F5F5F5F5F5F5F5F5F5F5F5F5F5F5F5F5F5F5F5F5F5
310
F5F5F5F5F5F5F5F5F5F5F5F5F5F5F5F5F5F5F5F5F5F5F5F5F5F5F5F5F5F5F5F5F5F5F5F5F5F5F5F5F5F5F5F5F5F5F5F5F5F5F5F5F5F5F5F5F5F5F5F5F5F5F5F5F5F5F5F5F5F5F5F5F5F5F5F5F5F5F5F5F5F5F5F5F5F5F5F5F5F5F5F5F5F5F5E2F5F5F5F5F5F5F5F5F5F5F5F5F5F5F5F5E2F5F5F5E2E2EFF5F5F5E2F5F5F5F5
310
F5F5F5F5F5F5F5F5F5F5F5F5E2F5F5F5F5F5F5F5F5F5F5F5F5F5F5F5F5F5F5F5F5F5F5F5F5F5F5F5F5F5F5F5F5F5F5F5F5F5F5F5F5F5F5F5F5F5F5F5F5F5F5F5F5F5F5F5F5F5F5F5F5F5F5F5F5F5F5F5F5F5F5F5F5F5F5F5F5F5F5F5F5F5F5F5F5F5F5F5F5F5F5F5F5F5F5F5F5F5F5F5F5F5F5F5F5F5F5F5F5F5F5F5F5F5F5
310
F5F5F5F5F5F5F5F5F5F5F5F5F5F5F5F5F5F5F5F5F5E2F5F5F5F5F5F5F5F5F5F5F5F5F5F5F5F5E2F5F5F5E2E2EFF5F5F5F5F5F5F5F5F5F5F5F5F5F5F5F5F5F5F5F5E2F5F5F5F5F5F5F5F5F5F5F5F5F5F5F5F5F5F5F5F5F5F5F5F5F5F5F5F5F5F5F5F5F5F5F5F5F5F5F5F5F5F5F5F5F5F5F5F5F5F5F5F5F5F5F5F5F5F5F5F5F5
310
F5F5F5F5F5F5F5F5F5F5F5F5F5F5F5F5F5F5F5F5F5F5F5F5F5F5F5F5F5F5F5F5F5F5F5F5F5F5F5F5F5F5F5F5F5F5F5F5F5F5F5F5F5F5F5F5F5F5F5F5F5F5F5F5F5F5F5F5F5F5F5F5F5F5E2F5F5F5F5F5F5F5F5F5F5F5F5F5F5F5F5F5F5F5F5E2E2EFF5F5F5F5F5F5F5F5F5F5F5F5F5F5F5F5F5F5F5F5E2F5F5F5F5F5F5F5F5
310
F5F5F5F5F5F5F5F5F5F5F5F5F5F5F5F5F5F5F5F5F5F5F5F5F5F5F5F5F5F5F5F5F5F5F5F5F5F5F5F5F5F5F5F5F5F5F5F5F5F5F5F5F5F5F5F5F5F5F5F5F5F5F5F5F5F5F5F5F5F5F5F5F5F5F5F5F5F5F5F5F5F5F5F5F5F5F5F5F5F5F5F5F5F5F5F5F5F5F5F5F5F5F5F5F5F5F5F5F5F5F5F5F5F5F5F5F5F5F5F5F5F5F5F5F5F5F5
310
E2F5F5F5F5F5F5F5F5F5F5F5F5F5F5F5F5F5F5F5F5E2E2EFF5F5F5F5F5F5F5F5F5F5F5F5F5F5F5F5F5F5F5F5E2F5F5F5F5F5F5F5F5F5F5F5F5F5F5F5F5F5F5F5F5F5F5F5F5F5F5F5F5F5F5F5F5F5F5F5F5F5F5F5F5F5F5F5F5F5F5F5F5F5F5F5F5F5F5F5F5F5F5F5F5F5F5F5F5F5F5F5F5F5F5F5F5F5F5F5F5F5F5F5F5F5F5
310
F5F5F5F5F5F5F5F5F5F5F5F5F5F5F5F5F5F5F5F5F5F5F5F5F5F5F5F5F5F5F5F5F5F5F5F5F5F5F5F5F5F5F5F5F5F5F5F5F5F5F5F5F5E2F5F5F5F5F5F5F5F5F5F5F5F5F5F5F5F5F5F5F5F5E2E2EFF5F5F5F5F5F5F5F5F5F5F5F5F5F5F5F5F5F5F5F5E2F5F5F5F5F5F5F5F5F5F5F5F5F5F5F5F5F5F5F5F5F5F5F5F5F5F5F5F5F5
310
F5F5F5F5F5F5F5F5F5F5F5F5F5F5F5F5F5F5F5F5F5F5F5F5F5F5F5F5F5F5F5F5F5F5F5F5F5F5F5F5F5F5F5F5F5F5F5F5F5F5F5F5F5F5F5F5F5F5F5F5F5F5F5F5F5F5F5F5F5F5F5F5F5F5F5F5F5F5F5F5F5F5F5F5F5F5F5F5F5F5F5F5F5F5F5F5F5F5F5F5F5F5F5F5F5F5E2F5F5F5F5F5F5F5F5F5F5F5F5F5F5F5F5F5F5F5F5
310
E2E2EFF5F5F5F5F5F5F5F5F5F5F5F5F5F5F5F5F5F5F5F5E2F5F5F5F5F5F5F5F5F5F5F5F5F5F5F5F5F5F5F5F5F5F5F5F5F5F5F5F5F5F5F5F5F5F5F5F5F5F5F5F5F5F5F5F5F5F5F5F5F5F5F5F5F5F5F5F5F5F5F5F5F5F5F5F5F5F5F5F5F5F5F5F5F5F5F5F5F5F5F5F5F5F5F5F5F5F5F5F5F5F5F5F5F5F5F5F5F5F5F5F5F5F5F5
310
F5F5F5F5F5F5F5F5F5F5F5F5F5F5F5F5F5F5F5F5F5F5F5F5F5F5F5F5F5F5F5F5E2F5F5F5F5F5F5F5F5F5F5F5F5F5F5F5F5F5F5F5F5E2E2EFF5F5F5F5F5F5F5F5F5F5F5F5F5F5F5F5F5F5F5F5E2F5F5F5F5F5F5F5F5F5F5F5F5F5F5F5F5F5F5F5F5F5F5F5F5F5F5F5F5F5F5F5F5F5F5F5F5F5F5F5F5F5F5F5F5F5F5F5F5F5F5
310
F5F5F5F5F5F5F5F5F5F5F5F5F5F5F5F5F5F5F5F5F5F5F5F5F5F5F5F5F5F5F5F5F5F5F5F5F5F5F5F5F5F5F5F5F5F5F5F5F5F5F5F5F5F5F5F5F5F5F5F5F5F5F5F5F5F5F5F5F5F5F5F5F5F5F5F5F5F5F5F5F5F5F5F5F5E2F5F5F5F5F5F5F5F5F5F5F5F5F5F5F5F5F5F5F5F5E2E2EFF5F5F5F5F5F5F5F5F5F5F5F5F5F5F5F5F5F5
310
F5F5E2F5F5F5F5F5F5F5F5F5F5F5F5F5F5F5F5F5F5F5F5F5F5F5F5F5F5F5F5F5F5F5F5F5F5F5F5F5F5F5F5F5F5F5F5F5F5F5F5F5F5F5F5F5F5F5F5F5F5F5F5F5F5F5F5F5F5F5F5F5F5F5F5F5F5F5F5F5F5F5F5F5F5F5F5F5F5F5F5F5F5F5F5F5F5F5F5F5F5F5F5F5F5F5F5F5F5F5F5F5F5F5F5F5F5F5F5F5F5F5F5F5F5F5F5
310
F5F5F5F5F5F5F5F5F5F5F5E2F5F5F5F5F5F5F5F5F5F5F5F5F5F5F5F5F5F5F5F5E2E2EFF5F5F5F5F5F5F5F5F5F5F5F5F5F5F5F5F5F5F5F5E2F5F5F5F5F5F5F5F5F5F5F5F5F5F5F5F5F5F5F5F5F5F5F5F5F5F5F5F5F5F5F5F5F5F5F5F5F5F5F5F5F5F5F5F5F5F5F5F5F5F5F5F5F5F5F5F5F5F5F5F5F5F5F5F5F5F5F5F5F5F5F5
310
F5F5F5F5F5F5F5F5F5F5F5F5F5F5F5F5F5F5F5F5F5F5F5F5F5F5F5F5F5F5F5F5F5F5F5F5F5F5F5F5F5F5F5F5F5F5F5F5F5F5F5F5F5F5F5F5F5F5F5F5F5F5F5F5E2F5F5F5F5F5F5F5F5F5F5F5F5F5F5F5F5F5F5F5F5E2E2EFF5F5F5F5F5F5F5F5F5F5F5F5F5F5F5F5F5F5F5F5E2F5F5F5F5F5F5F5F5F5F5F5F5F5F5F5F5F5F5
310
F5F5F5F5F5F5F5F5F5F5F5F5F5F5F5F5F5F5F5F5F5F5F5F5F5F5F5F5F5F5F5F5F5F5F5F5F5F5F5F5F5F5F5F5F5F5F5F5F5F5F5F5F5F5F5F5F5F5F5F5F5F5F5F5F5F5F5F5F5F5F5F5F5F5F5F5F5F5F5F5F5F5F5F5F5F5F5F5F5F5F5F5F5F5F5F5F5F5F5F5F5F5F5F5F5F5F5F5F5F5F5F5F5F5F5F5F5E2F5F5F5F5F5F5F5F5F5
310
F5F5F5F5F5F5F5F5F5F5F5E2E2EFF5F5F5E2F5F5F5F5F5F5F5F5F5F5F5F5F5F5F5F5E2F5F5F5F5F5F5F5F5F5F5F5F5F5F5F5F5F5F5F5F5F5F5F5F5F5F5F5F5F5F5F5F5F5F5F5F5F5F5F5F5F5F5F5F5F5F5F5F5F5F5F5F5F5F5F5F5F5F5F5F5F5F5F5F5F5F5F5F5F5F5F5F5F5F5F5F5F5F5F5F5F5F5F5F5F5F5F5F5F5F5F5F5
310
F5F5F5F5F5F5F5F5F5F5F5F5F5F5F5F5F5F5F5F5F5F5F5F5F5F5F5F5F5F5F5F5F5F5F5F5F5F5F5F5F5F5F5E2F5F5F5F5F5F5F5F5F5F5F5F5F5F5F5F5E2F5F5F5E2E2EFF5F5F5E2F5F5F5F5F5F5F5F5F5F5F5F5F5F5F5F5E2F5F5F5F5F5F5F5F5F5F5F5F5F5F5F5F5F5F5F5F5F5F5F5F5F5F5F5F5F5F5F5F5F5F5F5F5F5F5F5
310
F5F5F5F5F5F5F5F5F5F5F5F5F5F5F5F5F5F5F5F5F5F5F5F5F5F5F5F5F5F5F5F5F5F5F5F5F5F5F5F5F5F5F5F5F5F5F5F5F5F5F5F5F5F5F5F5F5F5F5F5F5F5F5F5F5F5F5F5F5F5F5F5F5F5F5F5F5F5F5F5F5F5F5F5F5F5F5F5F5F5F5F5F5F5F5F5E2F5F5F5F5F5F5F5F5F5F5F5F5F5F5F5F5E2F5F5F5E2E2EFF5F5F5E2F5F5F5
310
F5F5F5F5F5F5F5F5F5F5F5F5F5E2F5F5F5F5F5F5F5F5F5F5F5F5F5F5F5F5F5F5F5F5F5F5F5F5F5F5F5F5F5F5F5F5F5F5F5F5F5F5F5F5F5F5F5F5F5F5F5F5F5F5F5F5F5F5F5F5F5F5F5F5F5F5F5F5F5F5F5F5F5F5F5F5F5F5F5F5F5F5F5F5F5F5F5F5F5F5F5F5F5F5F5F5F5F5F5F5F5F5F5F5F5F5F5F5F5F5F5F5F5F5F5F5F5
310
F5F5F5F5F5F5F5F5F5F5F5F5F5F5F5F5F5F5F5F5F5F5E2F5F5F5F5F5F5F5F5F5F5F5F5F5F5F5F5E2F5F5F5E2E2EFF5F5F5E2F5F5F5F5F5F5F5F5F5F5F5F5F5F5F5F5E2F5F5F5F5F5F5F5F5F5F5F5F5F5F5F5F5F5F5F5F5F5F5F5F5F5F5F5F5F5F5F5F5F5F5F5F5F5F5F5F5F5F5F5F5F5F5F5F5F5F5F5F5F5F5F5F5F5F5F5F5
310
F5F5F5F5F5F5F5F5F5F5F5F5F5F5F5F5F5F5F5F5F5F5F5F5F5F5F5F5F5F5F5F5F5F5F5F5F5F5F5F5F5F5F5F5F5F5F5F5F5F5F5F5F5F5F5F5F5F5F5F5F5F5F5F5F5F5F5F5F5F5F5F5F5F5F5E2F5F5F5F5F5F5F5F5F5F5F5F5F5F5F5F5E2F5F5F5E2E2EFF5F5F5E2F5F5F5F5F5F5F5F5F5F5F5F5F5F5F5F5E2F5F5F5F5F5F5F5
310
F5F5F5F5F5F5F5F5F5F5F5F5F5F5F5F5F5F5F5F5F5F5F5F5F5F5F5F5F5F5F5F5F5F5F5F5F5F5F5F5F5F5F5F5F5F5F5F5F5F5F5F5F5F5F5F5F5F5F5F5F5F5F5F5F5F5F5F5F5F5F5F5F5F5F5F5F5F5F5F5F5F5F5F5F5F5F5F5F5F5F5F5F5F5F5F5F5F5F5F5F5F5F5F5F5F5F5F5F5F5F5F5F5F5F5F5F5F5F5F5F5F5F5F5F5F5F5
310
F5E2F5F5F5F5F5F5F5F5F5F5F5F5F5F5F5F5E2F5F5F5E2E2EFF5F5F5E2F5F5F5F5F5F5F5F5F5F5F5F5F5F5F5F5E2F5F5F5F5F5F5F5F5F5F5F5F5F5F5F5F5F5F5F5F5F5F5F5F5F5F5F5F5F5F5F5F5F5F5F5F5F5F5F5F5F5F5F5F5F5F5F5F5F5F5F5F5F5F5F5F5F5F5F5F5F5F5F5F5F5F5F5F5F5F5F5F5F5F5F5F5F5F5F5F5F5
310
F5F5F5F5F5F5F5F5F5F5F5F5F5F5F5F5F5F5F5F5F5F5F5F5F5F5F5F5F5F5F5F5F5F5F5F5F5F5F5F5F5F5F5F5F5F5F5F5F5F5F5F5F5F5E2F5F5F5F5F5F5F5F5F5F5F5F5F5F5F5F5E2F5F5F5E2E2EFF5F5F5E2F5F5F5F5F5F5F5F5F5F5F5F5F5F5F5F5E2F5F5F5F5F5F5F5F5F5F5F5F5F5F5F5F5F5F5F5F5F5F5F5F5F5F5F5F5
310
F5F5F5F5F5F5F5F5F5F5F5F5F5F5F5F5F5F5F5F5F5F5F5F5F5F5F5F5F5F5F5F5F5F5F5F5F5F5F5F5F5F5F5F5F5F5F5F5F5F5F5F5F5F5F5F5F5F5F5F5F5F5F5F5F5F5F5F5F5F5F5F5F5F5F5F5F5F5F5F5F5F5F5F5F5F5F5F5F5F5F5F5F5F5F5F5F5F5F5F5F5F5F5F5F5F5F5E2F5F5F5F5F5F5F5F5F5F5F5F5F5F5F5F5E2F5F5
310
F5E2E2EFF5F5F5E2F5F5F5F5F5F5F5F5F5F5F5F5F5F5F5F5E2F5F5F5F5F5F5F5F5F5F5F5F5F5F5F5F5F5F5F5F5F5F5F5F5F5F5F5F5F5F5F5F5F5F5F5F5F5F5F5F5F5F5F5F5F5F5F5F5F5F5F5F5F5F5F5F5F5F5F5F5F5F5F5F5F5F5F5F5F5F5F5F5F5F5F5F5F5F5F5F5F5F5F5F5F5F5F5F5F5F5F5F5F5F5F5F5F5F5F5F5F5F5
310
F5F5F5F5F5F5F5F5F5F5F5F5F5F5F5F5F5F5F5F5F5F5F5F5F5F5F5F5F5F5F5F5F5E2F5F5F5F5F5F5F5F5F5F5F5F5F5F5F5F5E2F5F5F5E2E2EFF5F5F5E2F5F5F5F5F5F5F5F5F5F5F5F5F5F5F5F5E2F5F5F5F5F5F5F5F5F5F5F5F5F5F5F5F5F5F5F5F5F5F5F5F5F5F5F5F5F5F5F5F5F5F5F5F5F5F5F5F5F5F5F5F5F5F5F5F5F5
310
F5F5F5F5F5F5F5F5F5F5F5F5F5F5F5F5F5F5F5F5F5F5F5F5F5F5F5F5F5F5F5F5F5F5F5F5F5F5F5F5F5F5F5F5F5F5F5F5F5F5F5F5F5F5F5F5F5F5F5F5F5F5F5F5F5F5F5F5F5F5F5F5F5F5F5F5F5F5F5F5F5F5F5F5F5F5E2F5F5F5F5F5F5F5F5F5F5F5F5F5F5F5F5E2F5F5F5E2E2EFF5F5F5E2F5F5F5F5F5F5F5F5F5F5F5F5F5
310
F5F5F5E2F5F5F5F5F5F5F5F5F5F5F5F5F5F5F5F5F5F5F5F5F5F5F5F5F5F5F5F5F5F5F5F5F5F5F5F5F5F5F5F5F5F5F5F5F5F5F5F5F5F5F5F5F5F5F5F5F5F5F5F5F5F5F5F5F5F5F5F5F5F5F5F5F5F5F5F5F5F5F5F5F5F5F5F5F5F5F5F5F5F5F5F5F5F5F5F5F5F5F5F5F5F5F5F5F5F5F5F5F5F5F5F5F5F5F5F5F5F5F5F5F5F5F5
310
F5F5F5F5F5F5F5F5F5F5F5F5E2F5F5F5F5F5F5F5F5F5F5F5F5F5F5F5F5E2F5F5F5E2E2EFF5F5F5E2F5F5F5F5F5F5F5F5F5F5F5F5F5F5F5F5E2F5F5F5F5F5F5F5F5F5F5F5F5F5F5F5F5F5F5F5F5F5F5F5F5F5F5F5F5F5F5F5F5F5F5F5F5F5F5F5F5F5F5F5F5F5F5F5F5F5F5F5F5F5F5F5F5F5F5F5F5F5F5F5F5F5F5F5F5F5F5
310
F5F5F5F5F5F5F5F5F5F5F5F5F5F5F5F5F5F5F5F5F5F5F5F5F5F5F5F5F5F5F5F5F5F5F5F5F5F5F5F5F5F5F5F5F5F5F5F5F5F5F5F5F5F5F5F5F5F5F5F5F5F5F5F5F5E2F5F5F5F5F5F5F5F5F5F5F5F5F5F5F5F5E2F5F5F5E2E2EFF5F5F5E2F5F5F5F5F5F5F5F5F5F5F5F5F5F5F5F5E2F5F5F5F5F5F5F5F5F5F5F5F5F5F5F5F5F5
310
F5F5F5F5F5F5F5F5F5F5F5F5F5F5F5F5F5F5F5F5F5F5F5F5F5F5F5F5F5F5F5F5F5F5F5F5F5F5F5F5F5F5F5F5F5F5F5F5F5F5F5F5F5F5F5F5F5F5F5F5F5F5F5F5F5F5F5F5F5F5F5F5F5F5F5F5F5F5F5F5F5F5F5F5F5F5F5F5F5F5F5F5F5F5F5F5F5F5F5F5F5F5F5F5F5F5F5F5F5F5F5F5F5F5F5F5F5F5E2F5F5F5F5F5F5F5F5
310
F5F5F5F5F5F5F5F5E2F5F5F5E2E2EFF5F5F5E2F5F5F5F5F5F5F5F5F5F5F5F5F5F5F5F5E2F5F5F5F5F5F5F5F5F5F5F5F5F5F5F5F5F5F5F5F5F5F5F5F5F5F5F5F5F5F5F5F5F5F5F5F5F5F5F5F5F5F5F5F5F5F5F5F5F5F5F5F5F5F5F5F5F5F5F5F5F5F5F5F5F5F5F5F5F5F5F5F5F5F5F5F5F5F5F5F5F5F5F5F5F5F5F5F5F5F5F5
310
F5F5F5F5F5F5F5F5F5F5F5F5F5F5F5F5F5F5F5F5F5F5F5F5F5F5F5F5F5F5F5F5F5F5F5F5F5F5F5F5F5F5F5F5E2F5F5F5F5F5F5F5F5F5F5F5F5F5F5F5F5E2F5F5F5E2E2EFF5F5F5E2F5F5F5F5F5F5F5F5F5F5F5F5F5F5F5F5E2F5F5F5F5F5F5F5F5F5F5F5F5F5F5F5F5F5F5F5F5F5F5F5F5F5F5F5F5F5F5F5F5F5F5F5F5F5F5
310
F5F5F5F5F5F5F5F5F5F5F5F5F5F5F5F5F5F5F5F5F5F5F5F5F5F5F5F5F5F5F5F5F5F5F5F5F5F5F5F5F5F5F5F5F5F5F5F5F5F5F5F5F5F5F5F5F5F5F5F5F5F5F5F5F5F5F5F5F5F5F5F5F5F5F5F5F5F5F5F5F5F5F5F5F5F5F5F5F5F5F5F5F5F5F5F5F5E2F5F5F5F5F5F5F5F5F5F5F5F5F5F5F5F5E2F5F5F5E2E2EFF5F5F5E2F5F5
310
F5F5F5F5F5F5F5F5F5F5F5F5F5F5E2F5F5F5F5F5F5F5F5F5F5F5F5F5F5F5F5F5F5F5F5F5F5F5F5F5F5F5F5F5F5F5F5F5F5F5F5F5F5F5F5F5F5F5F5F5F5F5F5F5F5F5F5F5F5F5F5F5F5F5F5F5F5F5F5F5F5F5F5F5F5F5F5F5F5F5F5F5F5F5F5F5F5F5F5F5F5F5F5F5F5F5F5F5F5F5F5F5F5F5F5F5F5F5F5F5F5F5F5F5F5F5F5
310
F5F5F5F5F5F5F5F5F5F5F5F5F5F5F5F5F5F5F5F5F5F5F5E2F5F5F5F5F5F5F5F5F5F5F5F5F5F5F5F5E2F5F5F5E2E2EFF5F5F5E2F5F5F5F5F5F5F5F5F5F5F5F5F5F5F5F5E2F5F5F5F5F5F5F5F5F5F5F5F5F5F5F5F5F5F5F5F5F5F5F5F5F5F5F5F5F5F5F5F5F5F5F5F5F5F5F5F5F5F5F5F5F5F5F5F5F5F5F5F5F5F5F5F5F5F5F5
310
F5F5F5F5F5F5F5F5F5F5F5F5F5F5F5F5F5F5F5F5F5F5F5F5F5F5F5F5F5F5F5F5F5F5F5F5F5F5F5F5F5F5F5F5F5F5F5F5F5F5F5F5F5F5F5F5F5F5F5F5F5F5F5F5F5F5F5F5F5F5F5F5F5F5F5F5E2F5F5F5F5F5F5F5F5F5F5F5F5F5F5F5F5E2F5F5F5E2E2EFF5F5F5E2F5F5F5F5F5F5F5F5F5F5F5F5F5F5F5F5E2F5F5F5F5F5F5
310
F5F5F5F5F5F5F5F5F5F5F5F5F5F5F5F5F5F5F5F5F5F5F5F5F5F5F5F5F5F5F5F5F5F5F5F5F5F5F5F5F5F5F5F5F5F5F5F5F5F5F5F5F5F5F5F5F5F5F5F5F5F5F5F5F5F5F5F5F5F5F5F5F5F5F5F5F5F5F5F5F5F5F5F5F5F5F5F5F5F5F5F5F5F5F5F5F5F5F5F5F5F5F5F5F5F5F5F5F5F5F5F5F5F5F5F5F5F5F5F5F5F5F5F5F5F5F5
310
F5F5E2F5F5F5F5F5F5F5F5F5F5F5F5F5F5F5F5E2F5F5F5E2E2EFF5F5F5F5F5F5F5F5F5F5F5F5F5F5F5F5F5F5F5F5E2F5F5F5F5F5F5F5F5F5F5F5F5F5F5F5F5F5F5F5F5F5F5F5F5F5F5F5F5F5F5F5F5F5F5F5F5F5F5F5F5F5F5F5F5F5F5F5F5F5F5F5F5F5F5F5F5F5F5F5F5F5F5F5F5F5F5F5F5F5F5F5F5F5F5F5F5F5F5F5F5
310
F5F5F5F5F5F5F5F5F5F5F5F5F5F5F5F5F5F5F5F5F5F5F5F5F5F5F5F5F5F5F5F5F5F5F5F5F5F5F5F5F5F5F5F5F5F5F5F5F5F5F5F5F5F5F5E2F5F5F5F5F5F5F5F5F5F5F5F5F5F5F5F5F5F5F5F5E2E2EFF5F5F5F5F5F5F5F5F5F5F5F5F5F5F5F5F5F5F5F5E2F5F5F5F5F5F5F5F5F5F5F5F5F5F5F5F5F5F5F5F5F5F5F5F5F5F5F5
310
F5F5F5F5F5F5F5F5F5F5F5F5F5F5F5F5F5F5F5F5F5F5F5F5F5F5F5F5F5F5F5F5F5F5F5F5F5F5F5F5F5F5F5F5F5F5F5F5F5F5F5F5F5F5F5F5F5F5F5F5F5F5F5F5F5F5F5F5F5F5F5F5F5F5F5F5F5F5F5F5F5F5F5F5F5F5F5F5F5F5F5F5F5F5F5F5F5F5F5F5F5F5F5F5F5F5F5F5E2F5F5F5F5F5F5F5F5F5F5F5F5F5F5F5F5F5F5
310
F5F5E2E2EFF5F5F5F5F5F5F5F5F5F5F5F5F5F5F5F5F5F5F5F5E2F5F5F5F5F5F5F5F5F5F5F5F5F5F5F5F5F5F5F5F5F5F5F5F5F5F5F5F5F5F5F5F5F5F5F5F5F5F5F5F5F5F5F5F5F5F5F5F5F5F5F5F5F5F5F5F5F5F5F5F5F5F5F5F5F5F5F5F5F5F5F5F5F5F5F5F5F5F5F5F5F5F5F5F5F5F5F5F5F5F5F5F5F5F5F5F5F5F5F5F5F5
310
F5F5F5F5F5F5F5F5F5F5F5F5F5F5F5F5F5F5F5F5F5F5F5F5F5F5F5F5F5F5F5F5F5F5E2F5F5F5F5F5F5F5F5F5F5F5F5F5F5F5F5F5F5F5F5E2E2EFF5F5F5F5F5F5F5F5F5F5F5F5F5F5F5F5F5F5F5F5E2F5F5F5F5F5F5F5F5F5F5F5F5F5F5F5F5F5F5F5F5F5F5F5F5F5F5F5F5F5F5F5F5F5F5F5F5F5F5F5F5F5F5F5F5F5F5F5F5
310
F5F5F5F5F5F5F5F5F5F5F5F5F5F5F5F5F5F5F5F5F5F5F5F5F5F5F5F5F5F5F5F5F5F5F5F5F5F5F5F5F5F5F5F5F5F5F5F5F5F5F5F5F5F5F5F5F5F5F5F5F5F5F5F5F5F5F5F5F5F5F5F5F5F5F5F5F5F5F5F5F5F5F5F5F5F5F5E2F5F5F5F5F5F5F5F5F5F5F5F5F5F5F5F5F5F5F5F5E2E2EFF5F5F5F5F5F5F5F5F5F5F5F5F5F5F5F5
310
F5F5F5F5E2E2E2E2E2E2E2E2E2E2E2E2E2E2E2E2E2E2E2E2E2E2E2E2E2E2E2E2E2E2E2E2E2E2E2E2E2E2E2E2E2E2E2E2E2E2E2E2E2E2E2E2E2E2E2E2E2E2E2E2E2E2E2E2E2E2E2E2E2E2E2E2E2E2E2E2E2E2E2E2E2E2E2E2E2E2E2E2E2E2E2E2E2E2E2E2E2E2E2E2E2E2E2E2E2E2E2E2E2E2E2E2E2E2E2E2E2E2E2E2E2E2E2
310
E2E2E2E2E2E2E2E2E2E2E2E2E2E2F5F5F5F5F5F5F5F5F5F5F5F5F5F5F5F5F5F5F5F5E2E2EFF5F5F5F5F5F5F5F5F5F5F5F5F5F5F5F5F5F5F5F5F5F5F5F5F5F5F5F5F5F5F5F5F5F5F5F5F5F5F5F5F5F5F5F5F5F5F5F5F5F5F5F5F5F5F5F5F5F5F5F5F5F5F5F5F5F5F5F5F5F5F5F5F5F5F5F5F5F5F5F5F5F5F5F5F5F5F5F5F5F5
310
F5F5F5F5F5F5F5F5F5F5F5F5F5F5F5F5F5F5F5F5F5F5F5F5F5F5F5F5F5F5F5F5F5F5F5F5F5F5F5F5F5F5F5F5F5F5F5F5F5F5F5F5F5F5F5F5F5F5F5F5F5F5F5F5F5F5F5F5F5F5F5F5F5F5F5F5F5F5F5F5F5F5F5F5F5F5F5E2E2EFF5F5F5F5F5F5F5F5F5F5F5F5F5F5F5F5F5F5F5F5F5F5F5F5F5F5F5F5F5F5F5F5F5F5F5F5F5
310
F5F5F5F5F5F5F5F5F5F5F5F5F5F5F5F5F5F5F5F5F5F5F5F5F5F5F5F5F5F5F5F5F5F5F5F5F5F5F5F5F5F5F5F5F5F5F5F5F5F5F5F5F5F5F5F5F5F5F5F5F5F5F5F5F5F5F5F5F5F5F5F5F5F5F5F5F5F5F5F5F5F5F5F5F5F5F5F5F5F5F5F5F5F5F5F5F5F5F5F5F5F5F5F5F5F5F5F5F5F5F5F5F5F5F5F5F5F5F5F5F5F5F5F5F5F5F5
310
F5F5F5F5F5F5F5F5F5F5F5F5F5E2E2EFF5F5F5F5F5F5F5F5F5F5F5F5F5F5F5F5F5F5F5F5F5F5F5F5F5F5F5F5F5F5F5F5F5F5F5F5F5F5F5F5F5F5F5F5F5F5F5F5F5F5F5F5F5F5F5F5F5F5F5F5F5F5F5F5F5F5F5F5F5F5F5F5F5F5F5F5F5F5F5F5F5F5F5F5F5F5F5F5F5F5F5F5F5F5F5F5F5F5F5F5F5F5F5F5F5F5F5F5F5F5F5
310
F5F5F5F5F5F5F5F5F5F5F5F5F5F5F5F5F5F5F5F5F5F5F5F5F5F5F5F5F5F5F5F5F5F5F5F5F5F5F5F5F5F5F5F5F5F5F5F5F5F5F5F5F5F5F5F5F5F5F5F5F5F5F5F5F5F5E2E2EFF5F5F5F5F5F5F5F5F5F5F5F5F5F5F5F5F5F5F5F5F5F5F5F5F5F5F5F5F5F5F5F5F5F5F5F5F5F5F5F5F5F5F5F5F5F5F5F5F5F5F5F5F5F5F5F5F5F5
310
F5F5F5F5F5F5F5F5F5F5F5F5F5F5F5F5F5F5F5F5F5F5F5F5F5F5F5F5F5F5F5F5F5F5F5F5F5F5F5F5F5F5F5F5F5F5F5F5F5F5F5F5F5F5F5F5F5F5F5F5F5F5F5F5F5F5F5F5F5F5F5F5F5F5F5F5F5F5F5F5F5F5F5F5F5F5F5F5F5F5F5F5F5F5F5F5F5F5F5F5F5F5F5F5F5F5F5F5F5F5F5F5F5F5F5F5F5F5F5E2E2EFF5F5F5E2F5
310
F5F5F5F5F5F5F5F5F5F5F5F5F5F5F5F5F5F5F5F5F5F5F5F5F5F5F5F5F5F5F5F5F5F5F5F5F5F5F5F5F5F5F5F5F5F5F5F5F5F5F5F5F5F5F5F5F5F5F5F5F5F5F5F5F5F5F5F5F5F5F5F5F5F5F5F5F5F5F5F5F5F5F5F5F5F5F5F5F5F5F5F5F5F5F5F5F5F5F5F5F5F5F5F5F5F5F5F5F5F5F5F5F5F5F5F5F5F5F5F5F5F5F5F5F5F5F5
310
F5F5F5F5F5F5F5F5F5F5F5F5F5F5F5F5F5F5F5F5F5F5F5F5F5F5F5F5F5F5F5F5F5F5F5F5F5F5F5F5F5E2F5F5F5E2E2EFF5F5F5E2F5F5F5F5F5F5F5F5F5F5F5F5F5F5F5F5F5F5F5F5F5F5F5F5F5F5F5F5F5F5F5F5F5F5F5F5F5F5F5F5F5F5F5F5F5F5F5F5F5F5F5F5F5F5F5F5F5F5F5F5F5F5F5F5F5F5F5F5F5F5F5F5F5F5F5
310
F5F5F5F5F5F5F5F5F5F5F5F5F5F5F5F5F5F5F5F5F5F5F5F5F5F5F5F5F5F5F5F5F5F5F5F5F5F5F5F5F5F5F5F5F5F5F5F5F5F5F5F5F5F5F5F5F5F5F5F5F5F5F5F5F5F5F5F5F5F5F5F5F5F5F5F5F5F5F5F5F5F5F5F5F5F5F5F5F5F5F5F5F5F5E2F5F5F5E2E2EFF5F5F5E2F5F5F5F5F5F5F5F5F5F5F5F5F5F5F5F5F5F5F5F5F5F5
310
F5F5F5F5F5F5F5F5F5F5F5F5F5F5F5F5F5F5F5F5F5F5F5F5F5F5F5F5F5F5F5F5F5F5F5F5F5F5F5F5F5F5F5F5F5F5F5F5F5F5F5F5F5F5F5F5F5F5F5F5F5F5F5F5F5F5F5F5F5F5F5F5F5F5F5F5F5F5F5F5F5F5F5F5F5F5F5F5F5F5F5F5F5F5F5F5F5F5F5F5F5F5F5F5F5F5F5F5F5F5F5F5F5F5F5F5F5F5F5F5F5F5F5F5F5F5F5
310
F5F5F5F5F5F5F5F5F5F5F5F5F5F5F5F5F5F5F5F5E2F5F5F5E2E2EFF5F5F5E2F5F5F5F5F5F5F5F5F5F5F5F5F5F5F5F5F5F5F5F5F5F5F5F5F5F5F5F5F5F5F5F5F5F5F5F5F5F5F5F5F5F5F5F5F5F5F5F5F5F5F5F5F5F5F5F5F5F5F5F5F5F5F5F5F5F5F5F5F5F5F5F5F5F5F5F5F5F5F5F5F5F5F5F5F5F5F5F5F5F5F5F5F5F5F5F5
310
F5F5F5F5F5F5F5F5F5F5F5F5F5F5F5F5F5F5F5F5F5F5F5F5F5F5F5F5F5F5F5F5F5F5F5F5F5F5F5F5F5F5F5F5F5F5F5F5F5F5F5F5F5F5F5F5F5F5F5F5F5F5F5F5F5F5F5F5F5F5F5F5F5E2F5F5F5E2E2EFF5F5F5E2F5F5F5F5F5F5F5F5F5F5F5F5F5F5F5F5F5F5F5F5F5F5F5F5F5F5F5F5F5F5F5F5F5F5F5F5F5F5F5F5F5F5F5
310
F5F5F5F5F5F5F5F5F5F5F5F5F5F5F5F5F5F5F5F5F5F5F5F5F5F5F5F5F5F5F5F5F5F5F5F5F5F5F5F5F5F5F5F5F5F5F5F5F5F5F5F5F5F5F5F5F5F5F5F5F5F5F5F5F5F5F5F5F5F5F5F5F5F5F5F5F5F5F5F5F5F5F5F5F5F5F5F5F5F5F5F5F5F5F5F5F5F5F5F5F5F5F5F5F5F5F5F5F5F5F5F5F5F5F5F5F5F5F5F5F5F5F5F5F5F5E2
310
F5F5F5E2E2EFF5F5F5E2F5F5F5F5F5F5F5F5F5F5F5F5F5F5F5F5F5F5F5F5F5F5F5F5F5F5F5F5F5F5F5F5F5F5F5F5F5F5F5F5F5F5F5F5F5F5F5F5F5F5F5F5F5F5F5F5F5F5F5F5F5F5F5F5F5F5F5F5F5F5F5F5F5F5F5F5F5F5F5F5F5F5F5F5F5F5F5F5F5F5F5F5F5F5F5F5F5F5F5F5F5F5F5F5F5F5F5F5F5F5F5F5F5F5F5F5F5
310
F5F5F5F5F5F5F5F5F5F5F5F5F5F5F5F5F5F5F5F5F5F5F5F5F5F5F5F5F5F5F5F5F5F5F5F5F5F5F5F5F5F5F5F5F5F5F5F5F5F5F5F5E2F5F5F5E2E2EFF5F5F5E2F5F5F5F5F5F5F5F5F5F5F5F5F5F5F5F5F5F5F5F5F5F5F5F5F5F5F5F5F5F5F5F5F5F5F5F5F5F5F5F5F5F5F5F5F5F5F5F5F5F5F5F5F5F5F5F5F5F5F5F5F5F5F5F5
310
F5F5F5F5F5F5F5F5F5F5F5F5F5F5F5F5F5F5F5F5F5F5F5F5F5F5F5F5F5F5F5F5F5F5F5F5F5F5F5F5F5F5F5F5F5F5F5F5F5F5F5F5F5F5F5F5F5F5F5F5F5F5F5F5F5F5F5F5F5F5F5F5F5F5F5F5F5F5F5F5F5F5F5F5F5F5F5F5F5F5F5F5F5F5F5F5F5F5F5F5F5F5F5F5F5E2F5F5F5E2E2EFF5F5F5E2F5F5F5F5F5F5F5F5F5F5F5
310
F5F5F5F5F5F5F5F5F5F5F5F5F5F5F5F5F5F5F5F5F5F5F5F5F5F5F5F5F5F5F5F5F5F5F5F5F5F5F5F5F5F5F5F5F5F5F5F5F5F5F5F5F5F5F5F5F5F5F5F5F5F5F5F5F5F5F5F5F5F5F5F5F5F5F5F5F5F5F5F5F5F5F5F5F5F5F5F5F5F5F5F5F5F5F5F5F5F5F5F5F5F5F5F5F5F5F5F5F5F5F5F5F5F5F5F5F5F5F5F5F5F5F5F5F5F5F5
310
F5F5F5F5F5F5F5F5F5F5F5F5F5F5F5F5F5F5F5F5F5F5F5F5F5F5F5F5F5F5F5E2F5F5F5E2E2EFF5F5F5E2E2E2E2E2E2E2E2F5F5F5F5F5F5F5F5F5E2E2E2E2E2E2E2E2E2E2E2E2E2E2E2E2F5F5F5F5F5F5F5F5E2E2E2E2E2E2E2E2E2E2E2E2E2E2E2E2F5F5F5F5F5F5F5F5F5E2E2E2E2E2E2E2E2E2E2E2E2E2E2E2F5F5F5F5F5
310
F5F5F5F5E2E2E2E2E2E2E2E2E2E2E2E2E2E2E2F5F5F5F5F5F5F5F5F5E2E2E2E2E2E2E2E2E2E2E2E2E2E2E2E2F5F5F5F5F5F5F5F5E2E2E2E2E2E2E2E2E2E2E2E2E2E2E2E2F5F5F5F5F5F5F5F5F5E2E2E2E2E2E2E2E2F5F5F5E2E2EFF5F5F5F5F5F5F5F5F5F5F5F5F5F5F5F5F5F5F5F5F5F5F5F5F5F5F5F5F5F5F5F5F5F5F5F5
310
F5F5F5F5F5F5F5F5F5F5F5F5F5F5F5F5F5F5F5F5F5F5F5F5F5F5F5F5F5F5F5F5F5F5F5F5F5F5F5F5F5F5F5F5F5F5F5F5F5F5F5F5F5F5F5F5F5F5F5F5F5F5F5F5F5F5F5F5F5F5F5F5F5F5F5F5F5F5F5F5F5F5F5F5F5F5F5F5F5F5F5F5F5F5F5F5F5F5F5F5F5F5F5F5F5F5F5F5F5F5F5F5F5F5F5F5F5F5F5F5F5F5F5F5F5F5F5
310
F5F5F5F5F5F5F5F5F5F5F5F5F5F5E2E2EFF5F5F5F5F5F5F5F5F5F5F5F5F5F5F5F5F5F5F5F5F5F5F5F5F5F5F5F5F5F5F5F5F5F5F5F5F5F5F5F5F5F5F5F5F5F5F5F5F5F5F5F5F5F5F5F5F5F5F5F5F5F5F5F5F5F5F5F5F5F5F5F5F5F5F5F5F5F5F5F5F5F5F5F5F5F5F5F5F5F5F5F5F5F5F5F5F5F5F5F5F5F5F5F5F5F5F5F5F5F5
310
F5F5F5F5F5F5F5F5F5F5F5F5F5F5F5F5F5F5F5F5F5F5F5F5F5F5F5F5F5F5F5F5F5F5F5F5F5F5F5F5F5F5F5F5F5F5F5F5F5F5F5F5F5F5F5F5F5F5F5F5F5F5F5F5F5F5F5E2EFEFF5F5F5F5F5F5F5F5F5F5F5F5F5F5F5F5F5F5F5F5F5F5F5F5F5F5F5F5F5F5F5F5F5F5F5F5F5F5F5F5F5F5F5F5F5F5F5F5F5F5F5F5F5F5F5F5F5
310
F5F5F5F5F5F5F5F5F5F5F5F5F5F5F5F5F5F5F5F5F5F5F5F5F5F5F5F5F5F5F5F5F5F5F5F5F5F5F5F5F5F5F5F5F5F5F5F5F5F5F5F5F5F5F5F5F5F5F5F5F5F5F5F5F5F5F5F5F5F5F5F5F5F5F5F5F5F5F5F5F5F5F5F5F5F5F5F5F5F5F5F5F5F5F5F5F5F5F5F5F5F5F5F5F5F5F5F5F5F5F5F5F5F5F5F5F5F5F5F5E2EFEFE2E2E2E2
310
E2E2E2E2E2E2E2E2E2E2E2E2E2E2E2E2E2E2E2E2E2E2E2E2E2E2E2E2E2E2E2E2E2E2E2E2E2E2E2E2E2E2E2E2E2E2E2E2E2E2E2E2E2E2E2E2E2E2E2E2E2E2E2E2E2E2E2E2E2E2E2E2E2E2E2E2E2E2E2E2E2E2E2E2E2E2E2E2E2E2E2E2E2E2E2E2E2E2E2E2E2E2E2E2E2E2E2E2E2E2E2E2E2E2E2E2E2E2E2E2E2E2E2E2E2E2E2
310
E2E2E2E2E2E2E2E2E2E2E2E2E2E2E2E2E2E2E2E2E2E2E2E2E2E2E2E2E2E2E2E2E2E2E2E2E2E2E2E2E2E2E2E2E2E2E2EFEF
  0
ENDSEC
  0
EOF
