  0
SECTION
  2
HEADER
  9
$ACADVER
  1
AC1018
  9
$ACADMAINTVER
 70
     0
  9
$DWGCODEPAGE
  3
ANSI_1252
  9
$AUTHOR
  1
g6edxjah
  9
$LASTSAVEDBY
  1
g6edxjah
  9
$INSBASE
 10
0.0
 20
0.0
 30
0.0
  9
$EXTMIN
 10
89.475969
 20
-0.075854
 30
0.0
  9
$EXTMAX
 10
98.476031
 20
11.676656
 30
0.0
  9
$LIMMIN
 10
64.370418
 20
-23.805181
  9
$LIMMAX
 10
123.581582
 20
35.405983
  9
$ORTHOMODE
 70
     0
  9
$REGENMODE
 70
     1
  9
$FILLMODE
 70
     1
  9
$QTEXTMODE
 70
     0
  9
$MIRRTEXT
 70
     0
  9
$LTSCALE
 40
1.0
  9
$ATTMODE
 70
     1
  9
$TEXTSIZE
 40
0.09
  9
$TRACEWID
 40
0.05
  9
$TEXTSTYLE
  7
Standard
  9
$CLAYER
  8
TEXT
  9
$CELTYPE
  6
Continuous
  9
$CECOLOR
 62
     7
  9
$CELTSCALE
 40
1.0
  9
$DISPSILH
 70
     0
  9
$DIMSCALE
 40
1.0
  9
$DIMASZ
 40
0.09
  9
$DIMEXO
 40
0.045
  9
$DIMDLI
 40
0.0
  9
$DIMRND
 40
0.0
  9
$DIMDLE
 40
0.0
  9
$DIMEXE
 40
0.045
  9
$DIMTP
 40
0.0
  9
$DIMTM
 40
0.0
  9
$DIMTXT
 40
0.09
  9
$DIMCEN
 40
0.09
  9
$DIMTSZ
 40
0.0
  9
$DIMTOL
 70
     0
  9
$DIMLIM
 70
     0
  9
$DIMTIH
 70
     0
  9
$DIMTOH
 70
     0
  9
$DIMSE1
 70
     0
  9
$DIMSE2
 70
     0
  9
$DIMTAD
 70
     1
  9
$DIMZIN
 70
    11
  9
$DIMBLK
  1
TerminatorOpen_0.5
  9
$DIMASO
 70
     1
  9
$DIMSHO
 70
     1
  9
$DIMPOST
  1

  9
$DIMAPOST
  1

  9
$DIMALT
 70
     0
  9
$DIMALTD
 70
     4
  9
$DIMALTF
 40
25.4
  9
$DIMLFAC
 40
1.0
  9
$DIMTOFL
 70
     0
  9
$DIMTVP
 40
0.0
  9
$DIMTIX
 70
     0
  9
$DIMSOXD
 70
     0
  9
$DIMSAH
 70
     0
  9
$DIMBLK1
  1

  9
$DIMBLK2
  1

  9
$DIMSTYLE
  2
Standard
  9
$DIMCLRD
 70
     0
  9
$DIMCLRE
 70
     0
  9
$DIMCLRT
 70
     0
  9
$DIMTFAC
 40
1.0
  9
$DIMGAP
 40
0.045
  9
$DIMJUST
 70
     0
  9
$DIMSD1
 70
     0
  9
$DIMSD2
 70
     0
  9
$DIMTOLJ
 70
     0
  9
$DIMTZIN
 70
    11
  9
$DIMALTZ
 70
    15
  9
$DIMALTTZ
 70
    15
  9
$DIMUPT
 70
     0
  9
$DIMDEC
 70
     4
  9
$DIMTDEC
 70
     4
  9
$DIMALTU
 70
     2
  9
$DIMALTTD
 70
     4
  9
$DIMTXSTY
  7
Style-Arial
  9
$DIMAUNIT
 70
     0
  9
$DIMADEC
 70
     4
  9
$DIMALTRND
 40
0.0
  9
$DIMAZIN
 70
     3
  9
$DIMDSEP
 70
    46
  9
$DIMATFIT
 70
     1
  9
$DIMFRAC
 70
     0
  9
$DIMLDRBLK
  1
TerminatorOpen_0.5
  9
$DIMLUNIT
 70
     2
  9
$DIMLWD
 70
    -2
  9
$DIMLWE
 70
    -2
  9
$DIMTMOVE
 70
     0
  9
$LUNITS
 70
     2
  9
$LUPREC
 70
     4
  9
$SKETCHINC
 40
0.1
  9
$FILLETRAD
 40
0.0
  9
$AUNITS
 70
     0
  9
$AUPREC
 70
     4
  9
$MENU
  1
.
  9
$ELEVATION
 40
0.0
  9
$PELEVATION
 40
0.0
  9
$THICKNESS
 40
0.0
  9
$LIMCHECK
 70
     0
  9
$CHAMFERA
 40
0.0
  9
$CHAMFERB
 40
0.0
  9
$CHAMFERC
 40
0.0
  9
$CHAMFERD
 40
0.0
  9
$SKPOLY
 70
     0
  9
$TDCREATE
 40
2455394.553400532
  9
$TDUCREATE
 40
2455394.761733866
  9
$TDUPDATE
 40
2455394.553400532
  9
$TDUUPDATE
 40
2455394.761733866
  9
$TDINDWG
 40
0.0
  9
$TDUSRTIMER
 40
0.0006630093
  9
$USRTIMER
 70
     1
  9
$ANGBASE
 50
0.0
  9
$ANGDIR
 70
     0
  9
$PDMODE
 70
     0
  9
$PDSIZE
 40
0.0
  9
$PLINEWID
 40
0.0
  9
$SPLFRAME
 70
     0
  9
$SPLINETYPE
 70
     6
  9
$SPLINESEGS
 70
     8
  9
$HANDSEED
  5
490
  9
$SURFTAB1
 70
     6
  9
$SURFTAB2
 70
     6
  9
$SURFTYPE
 70
     6
  9
$SURFU
 70
     6
  9
$SURFV
 70
     6
  9
$UCSBASE
  2

  9
$UCSNAME
  2

  9
$UCSORG
 10
0.0
 20
0.0
 30
0.0
  9
$UCSXDIR
 10
1.0
 20
0.0
 30
0.0
  9
$UCSYDIR
 10
0.0
 20
1.0
 30
0.0
  9
$UCSORTHOREF
  2

  9
$UCSORTHOVIEW
 70
     0
  9
$UCSORGTOP
 10
0.0
 20
0.0
 30
0.0
  9
$UCSORGBOTTOM
 10
0.0
 20
0.0
 30
0.0
  9
$UCSORGLEFT
 10
0.0
 20
0.0
 30
0.0
  9
$UCSORGRIGHT
 10
0.0
 20
0.0
 30
0.0
  9
$UCSORGFRONT
 10
0.0
 20
0.0
 30
0.0
  9
$UCSORGBACK
 10
0.0
 20
0.0
 30
0.0
  9
$PUCSBASE
  2

  9
$PUCSNAME
  2

  9
$PUCSORG
 10
0.0
 20
0.0
 30
0.0
  9
$PUCSXDIR
 10
1.0
 20
0.0
 30
0.0
  9
$PUCSYDIR
 10
0.0
 20
1.0
 30
0.0
  9
$PUCSORTHOREF
  2

  9
$PUCSORTHOVIEW
 70
     0
  9
$PUCSORGTOP
 10
0.0
 20
0.0
 30
0.0
  9
$PUCSORGBOTTOM
 10
0.0
 20
0.0
 30
0.0
  9
$PUCSORGLEFT
 10
0.0
 20
0.0
 30
0.0
  9
$PUCSORGRIGHT
 10
0.0
 20
0.0
 30
0.0
  9
$PUCSORGFRONT
 10
0.0
 20
0.0
 30
0.0
  9
$PUCSORGBACK
 10
0.0
 20
0.0
 30
0.0
  9
$USERI1
 70
     0
  9
$USERI2
 70
     0
  9
$USERI3
 70
     0
  9
$USERI4
 70
     0
  9
$USERI5
 70
     0
  9
$USERR1
 40
0.0
  9
$USERR2
 40
0.0
  9
$USERR3
 40
0.0
  9
$USERR4
 40
0.0
  9
$USERR5
 40
0.0
  9
$WORLDVIEW
 70
     1
  9
$SHADEDGE
 70
     3
  9
$SHADEDIF
 70
    70
  9
$TILEMODE
 70
     1
  9
$MAXACTVP
 70
    64
  9
$PINSBASE
 10
0.0
 20
0.0
 30
0.0
  9
$PLIMCHECK
 70
     0
  9
$PEXTMIN
 10
1.049744
 20
0.799667
 30
-0.001526
  9
$PEXTMAX
 10
9.450623
 20
7.200577
 30
0.0
  9
$PLIMMIN
 10
-0.25
 20
-0.25
  9
$PLIMMAX
 10
10.75
 20
8.25
  9
$UNITMODE
 70
     0
  9
$VISRETAIN
 70
     1
  9
$PLINEGEN
 70
     0
  9
$PSLTSCALE
 70
     0
  9
$TREEDEPTH
 70
  3020
  9
$CMLSTYLE
  2
Standard
  9
$CMLJUST
 70
     0
  9
$CMLSCALE
 40
1.0
  9
$PROXYGRAPHICS
 70
     1
  9
$MEASUREMENT
 70
     0
  9
$CELWEIGHT
370
    13
  9
$ENDCAPS
280
     0
  9
$JOINSTYLE
280
     0
  9
$LWDISPLAY
290
     1
  9
$INSUNITS
 70
     2
  9
$HYPERLINKBASE
  1

  9
$STYLESHEET
  1

  9
$XEDIT
290
     1
  9
$CEPSNTYPE
380
     0
  9
$PSTYLEMODE
290
     1
  9
$FINGERPRINTGUID
  2
{02C0BBB5-38A7-4FBF-829E-00875EC88963}
  9
$VERSIONGUID
  2
{82C521FC-BF81-46B3-825E-420B6BD93A99}
  9
$EXTNAMES
290
     1
  9
$PSVPSCALE
 40
0.0
  9
$OLESTARTUP
290
     0
  9
$SORTENTS
280
   127
  9
$INDEXCTL
280
     0
  9
$HIDETEXT
280
     1
  9
$XCLIPFRAME
290
     0
  9
$HALOGAP
280
     0
  9
$OBSCOLOR
 70
   257
  9
$OBSLTYPE
280
     0
  9
$INTERSECTIONDISPLAY
280
     0
  9
$INTERSECTIONCOLOR
 70
   257
  9
$DIMASSOC
280
     1
  9
$PROJECTNAME
  1

  0
ENDSEC
  0
SECTION
  2
CLASSES
  0
CLASS
  1
ACDBDICTIONARYWDFLT
  2
AcDbDictionaryWithDefault
  3
ObjectDBX Classes
 90
        0
 91
        3
280
     0
281
     0
  0
CLASS
  1
SORTENTSTABLE
  2
AcDbSortentsTable
  3
ObjectDBX Classes
 90
        0
 91
        3
280
     0
281
     0
  0
ENDSEC
  0
SECTION
  2
TABLES
  0
TABLE
  2
VPORT
  5
477
330
0
100
AcDbSymbolTable
 70
     4
  0
VPORT
  5
49
330
477
100
AcDbSymbolTableRecord
100
AcDbViewportTableRecord
  2
*ACTIVE
 70
     0
 10
0.0
 20
0.0
 11
1.0
 21
1.0
 12
93.976
 22
5.800401
 13
0.0
 23
0.0
 14
0.083333
 24
0.083333
 15
0.083333
 25
0.083333
 16
0.0
 26
0.0
 36
1.0
 17
0.0
 27
0.0
 37
0.0
 40
12.222611
 41
1.884937
 42
50.0
 43
0.0
 44
0.0
 50
0.0
 51
0.0
 71
     0
 72
   100
 73
     1
 74
     2
 75
     0
 76
     0
 77
     0
 78
     1
281
     0
 65
     1
110
0.0
120
0.0
130
0.0
111
1.0
121
0.0
131
0.0
112
0.0
122
1.0
132
0.0
 79
     0
146
0.0
  0
ENDTAB
  0
TABLE
  2
LTYPE
  5
45E
330
0
100
AcDbSymbolTable
 70
     1
  0
LTYPE
  5
45F
330
45E
100
AcDbSymbolTableRecord
100
AcDbLinetypeTableRecord
  2
ByBlock
 70
     0
  3

 72
    65
 73
     0
 40
0.0
  0
LTYPE
  5
460
330
45E
100
AcDbSymbolTableRecord
100
AcDbLinetypeTableRecord
  2
ByLayer
 70
     0
  3

 72
    65
 73
     0
 40
0.0
  0
LTYPE
  5
45D
330
45E
100
AcDbSymbolTableRecord
100
AcDbLinetypeTableRecord
  2
Continuous
 70
     0
  3
Solid line
 72
    65
 73
     0
 40
0.0
  0
ENDTAB
  0
TABLE
  2
LAYER
  5
457
102
{ACAD_XDICTIONARY
360
458
102
}
330
0
100
AcDbSymbolTable
 70
    64
  0
LAYER
  5
456
330
457
100
AcDbSymbolTableRecord
100
AcDbLayerTableRecord
  2
0
 70
     0
 62
     7
  6
Continuous
370
    -3
390
45A
  0
LAYER
  5
7
330
457
100
AcDbSymbolTableRecord
100
AcDbLayerTableRecord
  2
Level 1
 70
     0
 62
     7
  6
Continuous
370
     0
390
45A
  0
LAYER
  5
8
330
457
100
AcDbSymbolTableRecord
100
AcDbLayerTableRecord
  2
2-4A
 70
     0
 62
     7
  6
Continuous
370
     0
390
45A
1001
AcAecLayerStandard
1000

1000
2-4A
  0
LAYER
  5
9
330
457
100
AcDbSymbolTableRecord
100
AcDbLayerTableRecord
  2
BORDER
 70
     0
 62
     7
  6
Continuous
370
     0
390
45A
1001
AcAecLayerStandard
1000

1000
BORDER
  0
LAYER
  5
A
330
457
100
AcDbSymbolTableRecord
100
AcDbLayerTableRecord
  2
DEFPOINTS
 70
     0
 62
     7
  6
Continuous
290
     0
370
     0
390
45A
1001
AcAecLayerStandard
1000

1000
DEFPOINTS
  0
LAYER
  5
B
330
457
100
AcDbSymbolTableRecord
100
AcDbLayerTableRecord
  2
REF
 70
     0
 62
     7
  6
Continuous
370
     0
390
45A
1001
AcAecLayerStandard
1000

1000
REF
  0
LAYER
  5
C
330
457
100
AcDbSymbolTableRecord
100
AcDbLayerTableRecord
  2
TEXT
 70
     0
 62
     7
  6
Continuous
370
     0
390
45A
1001
AcAecLayerStandard
1000

1000
TEXT
  0
LAYER
  5
D
330
457
100
AcDbSymbolTableRecord
100
AcDbLayerTableRecord
  2
TITLE
 70
     0
 62
     7
  6
Continuous
370
     0
390
45A
1001
AcAecLayerStandard
1000

1000
TITLE
  0
LAYER
  5
E
330
457
100
AcDbSymbolTableRecord
100
AcDbLayerTableRecord
  2
Level 8
 70
     0
 62
     7
  6
Continuous
370
     0
390
45A
  0
LAYER
  5
F
330
457
100
AcDbSymbolTableRecord
100
AcDbLayerTableRecord
  2
Level 9
 70
     0
 62
     7
  6
Continuous
370
     0
390
45A
  0
LAYER
  5
10
330
457
100
AcDbSymbolTableRecord
100
AcDbLayerTableRecord
  2
Level 10
 70
     0
 62
     7
  6
Continuous
370
     0
390
45A
  0
LAYER
  5
11
330
457
100
AcDbSymbolTableRecord
100
AcDbLayerTableRecord
  2
Level 11
 70
     0
 62
     7
  6
Continuous
370
     0
390
45A
  0
LAYER
  5
12
330
457
100
AcDbSymbolTableRecord
100
AcDbLayerTableRecord
  2
Level 12
 70
     0
 62
     7
  6
Continuous
370
     0
390
45A
  0
LAYER
  5
13
330
457
100
AcDbSymbolTableRecord
100
AcDbLayerTableRecord
  2
Level 13
 70
     0
 62
     7
  6
Continuous
370
     0
390
45A
  0
LAYER
  5
14
330
457
100
AcDbSymbolTableRecord
100
AcDbLayerTableRecord
  2
Level 14
 70
     0
 62
     7
  6
Continuous
370
     0
390
45A
  0
LAYER
  5
15
330
457
100
AcDbSymbolTableRecord
100
AcDbLayerTableRecord
  2
Level 15
 70
     0
 62
     7
  6
Continuous
370
     0
390
45A
  0
LAYER
  5
16
330
457
100
AcDbSymbolTableRecord
100
AcDbLayerTableRecord
  2
Level 16
 70
     0
 62
     7
  6
Continuous
370
     0
390
45A
  0
LAYER
  5
17
330
457
100
AcDbSymbolTableRecord
100
AcDbLayerTableRecord
  2
Level 17
 70
     0
 62
     7
  6
Continuous
370
     0
390
45A
  0
LAYER
  5
18
330
457
100
AcDbSymbolTableRecord
100
AcDbLayerTableRecord
  2
Level 18
 70
     0
 62
     7
  6
Continuous
370
     0
390
45A
  0
LAYER
  5
19
330
457
100
AcDbSymbolTableRecord
100
AcDbLayerTableRecord
  2
Level 19
 70
     0
 62
     7
  6
Continuous
370
     0
390
45A
  0
LAYER
  5
1A
330
457
100
AcDbSymbolTableRecord
100
AcDbLayerTableRecord
  2
Level 20
 70
     0
 62
     7
  6
Continuous
370
     0
390
45A
  0
LAYER
  5
1B
330
457
100
AcDbSymbolTableRecord
100
AcDbLayerTableRecord
  2
Level 21
 70
     0
 62
     7
  6
Continuous
370
     0
390
45A
  0
LAYER
  5
1C
330
457
100
AcDbSymbolTableRecord
100
AcDbLayerTableRecord
  2
Level 22
 70
     0
 62
     7
  6
Continuous
370
     0
390
45A
  0
LAYER
  5
1D
330
457
100
AcDbSymbolTableRecord
100
AcDbLayerTableRecord
  2
Level 23
 70
     0
 62
     7
  6
Continuous
370
     0
390
45A
  0
LAYER
  5
1E
330
457
100
AcDbSymbolTableRecord
100
AcDbLayerTableRecord
  2
Level 24
 70
     0
 62
     7
  6
Continuous
370
     0
390
45A
  0
LAYER
  5
1F
330
457
100
AcDbSymbolTableRecord
100
AcDbLayerTableRecord
  2
Level 25
 70
     0
 62
     7
  6
Continuous
370
     0
390
45A
  0
LAYER
  5
20
330
457
100
AcDbSymbolTableRecord
100
AcDbLayerTableRecord
  2
Level 26
 70
     0
 62
     7
  6
Continuous
370
     0
390
45A
  0
LAYER
  5
21
330
457
100
AcDbSymbolTableRecord
100
AcDbLayerTableRecord
  2
Level 27
 70
     0
 62
     7
  6
Continuous
370
     0
390
45A
  0
LAYER
  5
22
330
457
100
AcDbSymbolTableRecord
100
AcDbLayerTableRecord
  2
Level 28
 70
     0
 62
     7
  6
Continuous
370
     0
390
45A
  0
LAYER
  5
23
330
457
100
AcDbSymbolTableRecord
100
AcDbLayerTableRecord
  2
Level 29
 70
     0
 62
     7
  6
Continuous
370
     0
390
45A
  0
LAYER
  5
24
330
457
100
AcDbSymbolTableRecord
100
AcDbLayerTableRecord
  2
Level 30
 70
     0
 62
     7
  6
Continuous
370
     0
390
45A
  0
LAYER
  5
25
330
457
100
AcDbSymbolTableRecord
100
AcDbLayerTableRecord
  2
Level 31
 70
     0
 62
     7
  6
Continuous
370
     0
390
45A
  0
LAYER
  5
26
330
457
100
AcDbSymbolTableRecord
100
AcDbLayerTableRecord
  2
Level 32
 70
     0
 62
     7
  6
Continuous
370
     0
390
45A
  0
LAYER
  5
27
330
457
100
AcDbSymbolTableRecord
100
AcDbLayerTableRecord
  2
Level 33
 70
     0
 62
     7
  6
Continuous
370
     0
390
45A
  0
LAYER
  5
28
330
457
100
AcDbSymbolTableRecord
100
AcDbLayerTableRecord
  2
Level 34
 70
     0
 62
     7
  6
Continuous
370
     0
390
45A
  0
LAYER
  5
29
330
457
100
AcDbSymbolTableRecord
100
AcDbLayerTableRecord
  2
Level 35
 70
     0
 62
     7
  6
Continuous
370
     0
390
45A
  0
LAYER
  5
2A
330
457
100
AcDbSymbolTableRecord
100
AcDbLayerTableRecord
  2
Level 36
 70
     0
 62
     7
  6
Continuous
370
     0
390
45A
  0
LAYER
  5
2B
330
457
100
AcDbSymbolTableRecord
100
AcDbLayerTableRecord
  2
Level 37
 70
     0
 62
     7
  6
Continuous
370
     0
390
45A
  0
LAYER
  5
2C
330
457
100
AcDbSymbolTableRecord
100
AcDbLayerTableRecord
  2
Level 38
 70
     0
 62
     7
  6
Continuous
370
     0
390
45A
  0
LAYER
  5
2D
330
457
100
AcDbSymbolTableRecord
100
AcDbLayerTableRecord
  2
Level 39
 70
     0
 62
     7
  6
Continuous
370
     0
390
45A
  0
LAYER
  5
2E
330
457
100
AcDbSymbolTableRecord
100
AcDbLayerTableRecord
  2
Level 40
 70
     0
 62
     7
  6
Continuous
370
     0
390
45A
  0
LAYER
  5
2F
330
457
100
AcDbSymbolTableRecord
100
AcDbLayerTableRecord
  2
Level 41
 70
     0
 62
     7
  6
Continuous
370
     0
390
45A
  0
LAYER
  5
30
330
457
100
AcDbSymbolTableRecord
100
AcDbLayerTableRecord
  2
Level 42
 70
     0
 62
     7
  6
Continuous
370
     0
390
45A
  0
LAYER
  5
31
330
457
100
AcDbSymbolTableRecord
100
AcDbLayerTableRecord
  2
Level 43
 70
     0
 62
     7
  6
Continuous
370
     0
390
45A
  0
LAYER
  5
32
330
457
100
AcDbSymbolTableRecord
100
AcDbLayerTableRecord
  2
Level 44
 70
     0
 62
     7
  6
Continuous
370
     0
390
45A
  0
LAYER
  5
33
330
457
100
AcDbSymbolTableRecord
100
AcDbLayerTableRecord
  2
Level 45
 70
     0
 62
     7
  6
Continuous
370
     0
390
45A
  0
LAYER
  5
34
330
457
100
AcDbSymbolTableRecord
100
AcDbLayerTableRecord
  2
Level 46
 70
     0
 62
     7
  6
Continuous
370
     0
390
45A
  0
LAYER
  5
35
330
457
100
AcDbSymbolTableRecord
100
AcDbLayerTableRecord
  2
Level 47
 70
     0
 62
     7
  6
Continuous
370
     0
390
45A
  0
LAYER
  5
36
330
457
100
AcDbSymbolTableRecord
100
AcDbLayerTableRecord
  2
Level 48
 70
     0
 62
     7
  6
Continuous
370
     0
390
45A
  0
LAYER
  5
37
330
457
100
AcDbSymbolTableRecord
100
AcDbLayerTableRecord
  2
Level 49
 70
     0
 62
     7
  6
Continuous
370
     0
390
45A
  0
LAYER
  5
38
330
457
100
AcDbSymbolTableRecord
100
AcDbLayerTableRecord
  2
Level 50
 70
     0
 62
     7
  6
Continuous
370
     0
390
45A
  0
LAYER
  5
39
330
457
100
AcDbSymbolTableRecord
100
AcDbLayerTableRecord
  2
Level 51
 70
     0
 62
     7
  6
Continuous
370
     0
390
45A
  0
LAYER
  5
3A
330
457
100
AcDbSymbolTableRecord
100
AcDbLayerTableRecord
  2
Level 52
 70
     0
 62
     7
  6
Continuous
370
     0
390
45A
  0
LAYER
  5
3B
330
457
100
AcDbSymbolTableRecord
100
AcDbLayerTableRecord
  2
Level 53
 70
     0
 62
     7
  6
Continuous
370
     0
390
45A
  0
LAYER
  5
3C
330
457
100
AcDbSymbolTableRecord
100
AcDbLayerTableRecord
  2
Level 54
 70
     0
 62
     7
  6
Continuous
370
     0
390
45A
  0
LAYER
  5
3D
330
457
100
AcDbSymbolTableRecord
100
AcDbLayerTableRecord
  2
Level 55
 70
     0
 62
     7
  6
Continuous
370
     0
390
45A
  0
LAYER
  5
3E
330
457
100
AcDbSymbolTableRecord
100
AcDbLayerTableRecord
  2
Level 56
 70
     0
 62
     7
  6
Continuous
370
     0
390
45A
  0
LAYER
  5
3F
330
457
100
AcDbSymbolTableRecord
100
AcDbLayerTableRecord
  2
Level 57
 70
     0
 62
     7
  6
Continuous
370
     0
390
45A
  0
LAYER
  5
40
330
457
100
AcDbSymbolTableRecord
100
AcDbLayerTableRecord
  2
Level 58
 70
     0
 62
     7
  6
Continuous
370
     0
390
45A
  0
LAYER
  5
41
330
457
100
AcDbSymbolTableRecord
100
AcDbLayerTableRecord
  2
Level 59
 70
     0
 62
     7
  6
Continuous
370
     0
390
45A
  0
LAYER
  5
42
330
457
100
AcDbSymbolTableRecord
100
AcDbLayerTableRecord
  2
Level 60
 70
     0
 62
     7
  6
Continuous
370
     0
390
45A
  0
LAYER
  5
43
330
457
100
AcDbSymbolTableRecord
100
AcDbLayerTableRecord
  2
Level 61
 70
     0
 62
     7
  6
Continuous
370
     0
390
45A
  0
LAYER
  5
44
330
457
100
AcDbSymbolTableRecord
100
AcDbLayerTableRecord
  2
Level 62
 70
     0
 62
     7
  6
Continuous
370
     0
390
45A
  0
LAYER
  5
45
330
457
100
AcDbSymbolTableRecord
100
AcDbLayerTableRecord
  2
_0
 70
     0
 62
     7
  6
Continuous
370
     0
390
45A
1001
AcAecLayerStandard
1000

1000
0
  0
ENDTAB
  0
TABLE
  2
STYLE
  5
462
330
0
100
AcDbSymbolTable
 70
     2
  0
STYLE
  5
461
330
462
100
AcDbSymbolTableRecord
100
AcDbTextStyleTableRecord
  2
Standard
 70
     0
 40
0.0
 41
1.0
 50
0.0
 71
     0
 42
0.09
  3
txt
  4

  0
STYLE
  5
481
330
462
100
AcDbSymbolTableRecord
100
AcDbTextStyleTableRecord
  2
Style-Arial
 70
     0
 40
0.0
 41
1.0
 50
0.0
 71
     0
 42
0.2
  3

  4

1001
ACAD
1000
Arial
1071
       39
  0
ENDTAB
  0
TABLE
  2
VIEW
  5
475
330
0
100
AcDbSymbolTable
 70
     0
  0
ENDTAB
  0
TABLE
  2
UCS
  5
476
330
0
100
AcDbSymbolTable
 70
     0
  0
ENDTAB
  0
TABLE
  2
APPID
  5
474
330
0
100
AcDbSymbolTable
 70
     3
  0
APPID
  5
47C
330
474
100
AcDbSymbolTableRecord
100
AcDbRegAppTableRecord
  2
ACAD
 70
     0
  0
APPID
  5
473
330
474
100
AcDbSymbolTableRecord
100
AcDbRegAppTableRecord
  2
ACAD_PSEXT
 70
     0
  0
APPID
  5
47E
330
474
100
AcDbSymbolTableRecord
100
AcDbRegAppTableRecord
  2
AcAecLayerStandard
 70
     0
  0
ENDTAB
  0
TABLE
  2
DIMSTYLE
  5
464
330
0
100
AcDbSymbolTable
 70
     1
100
AcDbDimStyleTable
  0
DIMSTYLE
105
463
330
464
100
AcDbSymbolTableRecord
100
AcDbDimStyleTableRecord
  2
Standard
 70
     0
340
461
  0
ENDTAB
  0
TABLE
  2
BLOCK_RECORD
  5
467
330
0
100
AcDbSymbolTable
 70
     1
  0
BLOCK_RECORD
  5
468
102
{ACAD_XDICTIONARY
360
48B
102
}
330
467
100
AcDbSymbolTableRecord
100
AcDbBlockTableRecord
  2
*Model_Space
340
46B
  0
BLOCK_RECORD
  5
46D
330
467
100
AcDbSymbolTableRecord
100
AcDbBlockTableRecord
  2
*Paper_Space
340
470
  0
BLOCK_RECORD
  5
482
330
467
100
AcDbSymbolTableRecord
100
AcDbBlockTableRecord
  2
TerminatorOpen_0.5
340
0
  0
ENDTAB
  0
ENDSEC
  0
SECTION
  2
BLOCKS
  0
BLOCK
  5
469
330
468
100
AcDbEntity
  8
0
100
AcDbBlockBegin
  2
*Model_Space
 70
     0
 71
     0
 10
0.0
 20
0.0
 30
0.0
  3
*Model_Space
  1

  0
ENDBLK
  5
46A
330
468
100
AcDbEntity
  8
0
100
AcDbBlockEnd
  0
BLOCK
  5
46E
330
46D
100
AcDbEntity
 67
     1
  8
0
100
AcDbBlockBegin
  2
*Paper_Space
 70
     0
 71
     0
 10
0.0
 20
0.0
 30
0.0
  3
*Paper_Space
  1

  0
ENDBLK
  5
46F
330
46D
100
AcDbEntity
 67
     1
  8
0
100
AcDbBlockEnd
  0
BLOCK
  5
486
330
482
100
AcDbEntity
  8
0
100
AcDbBlockBegin
  2
TerminatorOpen_0.5
 70
     0
 71
     0
 10
0.0
 20
0.0
 30
0.0
  3
TerminatorOpen_0.5
  1

  0
LINE
  5
483
330
482
100
AcDbEntity
  8
0
  6
ByBlock
 62
     0
370
    -2
100
AcDbLine
 10
0.0
 20
0.0
 30
0.0
 11
-1.0
 21
0.0
 31
0.0
  0
LINE
  5
484
330
482
100
AcDbEntity
  8
0
  6
ByBlock
 62
     0
370
    -2
100
AcDbLine
 10
0.0
 20
0.0
 30
0.0
 11
-1.0
 21
0.25
 31
0.0
  0
LINE
  5
485
330
482
100
AcDbEntity
  8
0
  6
ByBlock
 62
     0
370
    -2
100
AcDbLine
 10
0.0
 20
0.0
 30
0.0
 11
-1.0
 21
-0.25
 31
0.0
  0
ENDBLK
  5
487
330
482
100
AcDbEntity
  8
0
100
AcDbBlockEnd
  0
ENDSEC
  0
SECTION
  2
ENTITIES
  0
LINE
  5
5B
330
468
100
AcDbEntity
  8
_0
  6
Continuous
 62
     7
370
    30
100
AcDbLine
 10
89.475969
 20
0.424146
 30
0.0
 11
89.975969
 21
0.424146
 31
0.0
  0
LINE
  5
5C
330
468
100
AcDbEntity
  8
_0
  6
Continuous
 62
     7
370
    30
100
AcDbLine
 10
89.975969
 20
-0.075854
 30
0.0
 11
89.975969
 21
0.424146
 31
0.0
  0
LINE
  5
5D
330
468
100
AcDbEntity
  8
_0
  6
Continuous
 62
     7
370
    30
100
AcDbLine
 10
97.976031
 20
-0.075854
 30
0.0
 11
97.976031
 21
0.424146
 31
0.0
  0
LINE
  5
5E
330
468
100
AcDbEntity
  8
_0
  6
Continuous
 62
     7
370
    30
100
AcDbLine
 10
97.976031
 20
0.424146
 30
0.0
 11
98.476031
 21
0.424146
 31
0.0
  0
LINE
  5
5F
330
468
100
AcDbEntity
  8
_0
  6
Continuous
 62
     7
370
    30
100
AcDbLine
 10
89.475969
 20
11.176656
 30
0.0
 11
89.975969
 21
11.176656
 31
0.0
  0
LINE
  5
60
330
468
100
AcDbEntity
  8
_0
  6
Continuous
 62
     7
370
    30
100
AcDbLine
 10
89.975969
 20
11.176656
 30
0.0
 11
89.975969
 21
11.676656
 31
0.0
  0
LINE
  5
61
330
468
100
AcDbEntity
  8
_0
  6
Continuous
 62
     7
370
    30
100
AcDbLine
 10
97.976031
 20
11.176656
 30
0.0
 11
97.976031
 21
11.676656
 31
0.0
  0
LINE
  5
62
330
468
100
AcDbEntity
  8
_0
  6
Continuous
 62
     7
370
    30
100
AcDbLine
 10
97.976031
 20
11.176656
 30
0.0
 11
98.476031
 21
11.176656
 31
0.0
  0
LINE
  5
65
330
468
100
AcDbEntity
  8
Level 1
  6
Continuous
 62
     7
370
    40
100
AcDbLine
 10
90.350177
 20
1.655458
 30
0.0
 11
97.603823
 21
1.655458
 31
0.0
  0
LINE
  5
66
330
468
100
AcDbEntity
  8
Level 1
  6
Continuous
 62
     7
370
    13
100
AcDbLine
 10
97.603823
 20
1.137344
 30
0.0
 11
97.603823
 21
1.655458
 31
0.0
  0
LINE
  5
67
330
468
100
AcDbEntity
  8
Level 1
  6
Continuous
 62
     7
370
    13
100
AcDbLine
 10
96.308115
 20
1.137344
 30
0.0
 11
96.308115
 21
1.655458
 31
0.0
  0
LINE
  5
68
330
468
100
AcDbEntity
  8
Level 1
  6
Continuous
 62
     7
370
    40
100
AcDbLine
 10
95.271875
 20
1.137344
 30
0.0
 11
95.271875
 21
1.655458
 31
0.0
  0
LWPOLYLINE
  5
6B
330
468
100
AcDbEntity
  8
Level 1
  6
Continuous
 62
     7
370
    13
100
AcDbPolyline
 90
        7
 70
   128
 43
0.0
 10
93.502823
 20
5.133062
 10
93.564167
 20
5.133062
 10
93.637948
 20
5.157938
 10
93.660323
 20
5.156281
 10
93.70426
 20
5.141354
 10
93.753177
 20
5.13224
 10
93.808719
 20
5.131406
  0
LWPOLYLINE
  5
6C
330
468
100
AcDbEntity
  8
Level 1
  6
Continuous
 62
     7
370
    13
100
AcDbPolyline
 90
       13
 70
   128
 43
0.0
 10
94.045802
 20
5.247469
 10
94.10549
 20
5.25576
 10
94.140312
 20
5.238344
 10
94.178448
 20
5.238344
 10
94.243104
 20
5.247469
 10
94.292844
 20
5.254094
 10
94.342583
 20
5.230885
 10
94.399781
 20
5.247469
 10
94.490969
 20
5.246635
 10
94.59874
 20
5.259896
 10
94.64599
 20
5.254927
 10
94.683292
 20
5.25576
 10
94.714802
 20
5.230885
  0
LWPOLYLINE
  5
6D
330
468
100
AcDbEntity
  8
Level 1
  6
Continuous
 62
     7
370
    13
100
AcDbPolyline
 90
        6
 70
   128
 43
0.0
 10
94.921219
 20
5.112344
 10
94.999146
 20
5.12975
 10
95.086187
 20
5.160427
 10
95.121
 20
5.157104
 10
95.187323
 20
5.130583
 10
95.272708
 20
5.105708
  0
LWPOLYLINE
  5
6E
330
468
100
AcDbEntity
  8
Level 1
  6
Continuous
 62
     7
370
    13
100
AcDbPolyline
 90
        5
 70
   128
 43
0.0
 10
93.122312
 20
5.113167
 10
95.619219
 20
5.113167
 10
95.619219
 20
4.952344
 10
93.123969
 20
4.952344
 10
93.123969
 20
5.113167
  0
LWPOLYLINE
  5
6F
330
468
100
AcDbEntity
  8
Level 1
  6
Continuous
 62
     7
370
    13
100
AcDbPolyline
 90
        4
 70
   128
 43
0.0
 10
93.238375
 20
5.114823
 10
93.238375
 20
5.25824
 10
93.488729
 20
5.25824
 10
93.488729
 20
5.112344
  0
LWPOLYLINE
  5
70
330
468
100
AcDbEntity
  8
Level 1
  6
Continuous
 62
     7
370
    13
100
AcDbPolyline
 90
        4
 70
   128
 43
0.0
 10
93.812865
 20
5.105708
 10
93.812865
 20
5.268187
 10
94.03751
 20
5.268187
 10
94.03751
 20
5.115656
  0
LWPOLYLINE
  5
71
330
468
100
AcDbEntity
  8
Level 1
  6
Continuous
 62
     7
370
    13
100
AcDbPolyline
 90
        4
 70
   128
 43
0.0
 10
94.718948
 20
5.11151
 10
94.718948
 20
5.25576
 10
94.921219
 20
5.25576
 10
94.921219
 20
5.114823
  0
LWPOLYLINE
  5
72
330
468
100
AcDbEntity
  8
Level 1
  6
Continuous
 62
     7
370
    13
100
AcDbPolyline
 90
        4
 70
   128
 43
0.0
 10
95.276021
 20
5.113167
 10
95.276021
 20
5.254927
 10
95.518083
 20
5.254927
 10
95.518083
 20
5.114823
  0
LINE
  5
73
330
468
100
AcDbEntity
  8
Level 1
  6
Continuous
 62
     7
370
    13
100
AcDbLine
 10
95.0895
 20
5.16374
 30
0.0
 11
95.0895
 21
5.259073
 31
0.0
  0
CIRCLE
  5
74
330
468
100
AcDbEntity
  8
Level 1
  6
Continuous
 62
     7
370
    13
100
AcDbCircle
 10
95.094225
 20
5.228979
 30
0.0
 40
0.03324239875
  0
CIRCLE
  5
75
330
468
100
AcDbEntity
  8
Level 1
  6
Continuous
 62
     7
370
    13
100
AcDbCircle
 10
93.635456
 20
5.228979
 30
0.0
 40
0.0331595
  0
LINE
  5
76
330
468
100
AcDbEntity
  8
Level 1
  6
Continuous
 62
     7
370
    13
100
AcDbLine
 10
93.630479
 20
5.16374
 30
0.0
 11
93.630479
 21
5.259073
 31
0.0
  0
LINE
  5
77
330
468
100
AcDbEntity
  8
Level 1
  6
Continuous
 62
     7
370
    13
100
AcDbLine
 10
93.646229
 20
5.16374
 30
0.0
 11
93.646229
 21
5.259896
 31
0.0
  0
LINE
  5
78
330
468
100
AcDbEntity
  8
Level 1
  6
Continuous
 62
     7
370
    13
100
AcDbLine
 10
93.646229
 20
5.259073
 30
0.0
 11
93.646229
 21
5.231719
 31
0.0
  0
LWPOLYLINE
  5
79
330
468
100
AcDbEntity
  8
Level 1
  6
Continuous
 62
     7
370
    13
100
AcDbPolyline
 90
        5
 70
   128
 43
0.0
 10
93.650375
 20
5.203531
 10
93.657844
 20
5.206844
 10
93.6595
 20
5.251615
 10
93.652865
 20
5.254927
 10
93.650375
 20
5.203531
  0
LWPOLYLINE
  5
7A
330
468
100
AcDbEntity
  8
Level 1
  6
Continuous
 62
     7
370
    13
100
AcDbPolyline
 90
        5
 70
   128
 43
0.0
 10
93.611417
 20
5.253271
 10
93.627167
 20
5.25576
 10
93.628
 20
5.196896
 10
93.613073
 20
5.205188
 10
93.611417
 20
5.253271
  0
LWPOLYLINE
  5
7B
330
468
100
AcDbEntity
  8
Level 1
  6
Continuous
 62
     7
370
    13
100
AcDbPolyline
 90
        5
 70
   128
 43
0.0
 10
93.613073
 20
5.206021
 10
93.61224
 20
5.206021
 10
93.613073
 20
5.252438
 10
93.603958
 20
5.229229
 10
93.613073
 20
5.206021
  0
LWPOLYLINE
  5
7C
330
468
100
AcDbEntity
  8
Level 1
  6
Continuous
 62
     7
370
    13
100
AcDbPolyline
 90
        5
 70
   128
 43
0.0
 10
93.657844
 20
5.2085
 10
93.657844
 20
5.2085
 10
93.6595
 20
5.254094
 10
93.666958
 20
5.230052
 10
93.657844
 20
5.2085
  0
LINE
  5
7D
330
468
100
AcDbEntity
  8
Level 1
  6
Continuous
 62
     7
370
    13
100
AcDbLine
 10
95.104427
 20
5.16374
 30
0.0
 11
95.104427
 21
5.254927
 31
0.0
  0
LINE
  5
7E
330
468
100
AcDbEntity
  8
Level 1
  6
Continuous
 62
     7
370
    13
100
AcDbLine
 10
95.104427
 20
5.257417
 30
0.0
 11
95.104427
 21
5.231719
 31
0.0
  0
LWPOLYLINE
  5
7F
330
468
100
AcDbEntity
  8
Level 1
  6
Continuous
 62
     7
370
    13
100
AcDbPolyline
 90
        5
 70
   128
 43
0.0
 10
95.116854
 20
5.206021
 10
95.126802
 20
5.229229
 10
95.117688
 20
5.248292
 10
95.117688
 20
5.248292
 10
95.116854
 20
5.206021
  0
LWPOLYLINE
  5
80
330
468
100
AcDbEntity
  8
Level 1
  6
Continuous
 62
     7
370
    13
100
AcDbPolyline
 90
        5
 70
   128
 43
0.0
 10
95.069604
 20
5.206021
 10
95.069604
 20
5.206021
 10
95.070437
 20
5.253271
 10
95.061312
 20
5.228396
 10
95.069604
 20
5.206021
  0
LWPOLYLINE
  5
81
330
468
100
AcDbEntity
  8
Level 1
  6
Continuous
 62
     7
370
    13
100
AcDbPolyline
 90
        5
 70
   128
 43
0.0
 10
95.069604
 20
5.205188
 10
95.086187
 20
5.198552
 10
95.0895
 20
5.261563
 10
95.068771
 20
5.253271
 10
95.069604
 20
5.205188
  0
LWPOLYLINE
  5
82
330
468
100
AcDbEntity
  8
Level 1
  6
Continuous
 62
     7
370
    13
100
AcDbPolyline
 90
        5
 70
   128
 43
0.0
 10
95.091156
 20
5.262385
 10
95.11851
 20
5.252438
 10
95.114375
 20
5.204354
 10
95.094479
 20
5.197729
 10
95.091156
 20
5.262385
  0
LINE
  5
83
330
468
100
AcDbEntity
  8
Level 1
  6
Continuous
 62
     7
370
    13
100
AcDbLine
 10
93.353604
 20
5.259073
 30
0.0
 11
93.353604
 21
5.230052
 31
0.0
  0
LINE
  5
84
330
468
100
AcDbEntity
  8
Level 1
  6
Continuous
 62
     7
370
    13
100
AcDbLine
 10
93.38925
 20
5.259896
 30
0.0
 11
93.38925
 21
5.228396
 31
0.0
  0
LINE
  5
85
330
468
100
AcDbEntity
  8
Level 1
  6
Continuous
 62
     7
370
    13
100
AcDbLine
 10
93.955448
 20
5.259896
 30
0.0
 11
93.955448
 21
5.231719
 31
0.0
  0
LINE
  5
86
330
468
100
AcDbEntity
  8
Level 1
  6
Continuous
 62
     7
370
    13
100
AcDbLine
 10
93.922281
 20
5.259896
 30
0.0
 11
93.922281
 21
5.227573
 31
0.0
  0
LINE
  5
87
330
468
100
AcDbEntity
  8
Level 1
  6
Continuous
 62
     7
370
    13
100
AcDbLine
 10
94.793552
 20
5.259896
 30
0.0
 11
94.793552
 21
5.219281
 31
0.0
  0
LINE
  5
88
330
468
100
AcDbEntity
  8
Level 1
  6
Continuous
 62
     7
370
    13
100
AcDbLine
 10
94.822563
 20
5.259896
 30
0.0
 11
94.822563
 21
5.222594
 31
0.0
  0
LINE
  5
89
330
468
100
AcDbEntity
  8
Level 1
  6
Continuous
 62
     7
370
    13
100
AcDbLine
 10
95.358917
 20
5.259896
 30
0.0
 11
95.358917
 21
5.212646
 31
0.0
  0
LINE
  5
8A
330
468
100
AcDbEntity
  8
Level 1
  6
Continuous
 62
     7
370
    13
100
AcDbLine
 10
95.39374
 20
5.259896
 30
0.0
 11
95.39374
 21
5.220937
 31
0.0
  0
ARC
  5
8B
330
468
100
AcDbEntity
  8
Level 1
  6
Continuous
 62
     7
370
    13
100
AcDbCircle
 10
93.941021
 20
5.239093
 30
0.0
 40
0.050070845
100
AcDbArc
 50
41.1058
 51
138.8315
  0
ARC
  5
8C
330
468
100
AcDbEntity
  8
Level 1
  6
Continuous
 62
     7
370
    13
100
AcDbCircle
 10
93.372253
 20
5.224752
 30
0.0
 40
0.060681885
100
AcDbArc
 50
40.347
 51
140.6049
  0
ARC
  5
8D
330
468
100
AcDbEntity
  8
Level 1
  6
Continuous
 62
     7
370
    13
100
AcDbCircle
 10
94.806235
 20
5.24788
 30
0.0
 40
0.0402887925
100
AcDbArc
 50
23.2449
 51
158.0252
  0
ARC
  5
8E
330
468
100
AcDbEntity
  8
Level 1
  6
Continuous
 62
     7
370
    13
100
AcDbCircle
 10
95.376579
 20
5.230555
 30
0.0
 40
0.05744883375
100
AcDbArc
 50
30.4091
 51
145.7585
  0
LINE
  5
8F
330
468
100
AcDbEntity
  8
Level 1
  6
Continuous
 62
     7
370
    13
100
AcDbLine
 10
93.38925
 20
5.197729
 30
0.0
 11
93.38925
 21
5.139698
 31
0.0
  0
LINE
  5
90
330
468
100
AcDbEntity
  8
Level 1
  6
Continuous
 62
     7
370
    13
100
AcDbLine
 10
93.38925
 20
5.10074
 30
0.0
 11
93.38925
 21
5.056802
 31
0.0
  0
LINE
  5
91
330
468
100
AcDbEntity
  8
Level 1
  6
Continuous
 62
     7
370
    13
100
AcDbLine
 10
93.38925
 20
5.031927
 30
0.0
 11
93.38925
 21
5.012865
 31
0.0
  0
LINE
  5
92
330
468
100
AcDbEntity
  8
Level 1
  6
Continuous
 62
     7
370
    13
100
AcDbLine
 10
93.353604
 20
5.202698
 30
0.0
 11
93.353604
 21
5.148813
 31
0.0
  0
LINE
  5
93
330
468
100
AcDbEntity
  8
Level 1
  6
Continuous
 62
     7
370
    13
100
AcDbLine
 10
93.353604
 20
5.128094
 30
0.0
 11
93.353604
 21
5.078354
 31
0.0
  0
LINE
  5
94
330
468
100
AcDbEntity
  8
Level 1
  6
Continuous
 62
     7
370
    13
100
AcDbLine
 10
93.353604
 20
5.050167
 30
0.0
 11
93.353604
 21
5.013687
 31
0.0
  0
LINE
  5
95
330
468
100
AcDbEntity
  8
Level 1
  6
Continuous
 62
     7
370
    13
100
AcDbLine
 10
93.922281
 20
5.198552
 30
0.0
 11
93.922281
 21
5.155448
 31
0.0
  0
LINE
  5
96
330
468
100
AcDbEntity
  8
Level 1
  6
Continuous
 62
     7
370
    13
100
AcDbLine
 10
93.922281
 20
5.12975
 30
0.0
 11
93.922281
 21
5.070896
 31
0.0
  0
LINE
  5
97
330
468
100
AcDbEntity
  8
Level 1
  6
Continuous
 62
     7
370
    13
100
AcDbLine
 10
93.922281
 20
5.046021
 30
0.0
 11
93.922281
 21
5.012865
 31
0.0
  0
LINE
  5
98
330
468
100
AcDbEntity
  8
Level 1
  6
Continuous
 62
     7
370
    13
100
AcDbLine
 10
93.955448
 20
5.206021
 30
0.0
 11
93.955448
 21
5.153792
 31
0.0
  0
LINE
  5
99
330
468
100
AcDbEntity
  8
Level 1
  6
Continuous
 62
     7
370
    13
100
AcDbLine
 10
93.955448
 20
5.126437
 30
0.0
 11
93.955448
 21
5.075042
 31
0.0
  0
LINE
  5
9A
330
468
100
AcDbEntity
  8
Level 1
  6
Continuous
 62
     7
370
    13
100
AcDbLine
 10
93.955448
 20
5.04851
 30
0.0
 11
93.955448
 21
5.012865
 31
0.0
  0
LINE
  5
9B
330
468
100
AcDbEntity
  8
Level 1
  6
Continuous
 62
     7
370
    13
100
AcDbLine
 10
94.793552
 20
5.189437
 30
0.0
 11
94.793552
 21
5.138865
 31
0.0
  0
LINE
  5
9C
330
468
100
AcDbEntity
  8
Level 1
  6
Continuous
 62
     7
370
    13
100
AcDbLine
 10
94.793552
 20
5.117312
 30
0.0
 11
94.793552
 21
5.070062
 31
0.0
  0
LINE
  5
9D
330
468
100
AcDbEntity
  8
Level 1
  6
Continuous
 62
     7
370
    13
100
AcDbLine
 10
94.793552
 20
5.046021
 30
0.0
 11
94.793552
 21
5.012865
 31
0.0
  0
LINE
  5
9E
330
468
100
AcDbEntity
  8
Level 1
  6
Continuous
 62
     7
370
    13
100
AcDbLine
 10
94.822563
 20
5.190271
 30
0.0
 11
94.822563
 21
5.147156
 31
0.0
  0
LINE
  5
9F
330
468
100
AcDbEntity
  8
Level 1
  6
Continuous
 62
     7
370
    13
100
AcDbLine
 10
94.822563
 20
5.122292
 30
0.0
 11
94.822563
 21
5.070062
 31
0.0
  0
LINE
  5
A0
330
468
100
AcDbEntity
  8
Level 1
  6
Continuous
 62
     7
370
    13
100
AcDbLine
 10
94.822563
 20
5.037729
 30
0.0
 11
94.822563
 21
5.012865
 31
0.0
  0
LINE
  5
A1
330
468
100
AcDbEntity
  8
Level 1
  6
Continuous
 62
     7
370
    13
100
AcDbLine
 10
95.358917
 20
5.196073
 30
0.0
 11
95.358917
 21
5.147156
 31
0.0
  0
LINE
  5
A2
330
468
100
AcDbEntity
  8
Level 1
  6
Continuous
 62
     7
370
    13
100
AcDbLine
 10
95.358917
 20
5.123948
 30
0.0
 11
95.358917
 21
5.070896
 31
0.0
  0
LINE
  5
A3
330
468
100
AcDbEntity
  8
Level 1
  6
Continuous
 62
     7
370
    13
100
AcDbLine
 10
95.358917
 20
5.04851
 30
0.0
 11
95.358917
 21
5.012865
 31
0.0
  0
LINE
  5
A4
330
468
100
AcDbEntity
  8
Level 1
  6
Continuous
 62
     7
370
    13
100
AcDbLine
 10
95.39374
 20
5.193583
 30
0.0
 11
95.39374
 21
5.148813
 31
0.0
  0
LINE
  5
A5
330
468
100
AcDbEntity
  8
Level 1
  6
Continuous
 62
     7
370
    13
100
AcDbLine
 10
95.39374
 20
5.123115
 30
0.0
 11
95.39374
 21
5.079177
 31
0.0
  0
LINE
  5
A6
330
468
100
AcDbEntity
  8
Level 1
  6
Continuous
 62
     7
370
    13
100
AcDbLine
 10
95.39374
 20
5.052656
 30
0.0
 11
95.39374
 21
5.012865
 31
0.0
  0
CIRCLE
  5
A7
330
468
100
AcDbEntity
  8
Level 1
  6
Continuous
 62
     7
370
    13
100
AcDbCircle
 10
94.824087
 20
4.810052
 30
0.0
 40
0.09176891625
  0
LINE
  5
A8
330
468
100
AcDbEntity
  8
Level 1
  6
Continuous
 62
     7
370
    13
100
AcDbLine
 10
94.370771
 20
5.92226
 30
0.0
 11
94.370771
 21
5.838531
 31
0.0
  0
LWPOLYLINE
  5
D5
330
468
100
AcDbEntity
  8
Level 1
  6
Continuous
 62
     7
370
    13
100
AcDbPolyline
 90
        5
 70
   128
 43
0.0
 10
95.914344
 20
5.245812
 10
95.914344
 20
4.507177
 10
94.423823
 20
4.601687
 10
92.872792
 20
4.554437
 10
92.872792
 20
5.250781
  0
LINE
  5
D6
330
468
100
AcDbEntity
  8
Level 1
  6
Continuous
 62
     7
370
    13
100
AcDbLine
 10
95.625854
 20
5.11649
 30
0.0
 11
95.911854
 21
5.037729
 31
0.0
  0
LINE
  5
D7
330
468
100
AcDbEntity
  8
Level 1
  6
Continuous
 62
     7
370
    13
100
AcDbLine
 10
93.117344
 20
5.106542
 30
0.0
 11
92.843771
 21
5.069229
 31
0.0
  0
LINE
  5
DB
330
468
100
AcDbEntity
  8
Level 1
  6
Continuous
 62
     7
370
    13
100
AcDbLine
 10
93.379302
 20
4.393604
 30
0.0
 11
93.805396
 21
4.420969
 31
0.0
  0
LINE
  5
DC
330
468
100
AcDbEntity
  8
Level 1
  6
Continuous
 62
     7
370
    13
100
AcDbLine
 10
94.843292
 20
4.393604
 30
0.0
 11
95.389594
 21
4.353813
 31
0.0
  0
LWPOLYLINE
  5
DD
330
468
100
AcDbEntity
  8
Level 1
  6
Continuous
 62
     7
370
    13
100
AcDbPolyline
 90
        5
 70
   128
 43
0.0
 10
95.378812
 20
4.340552
 10
95.378812
 20
4.340552
 10
95.214677
 20
4.353813
 10
95.203896
 20
4.314021
 10
95.378812
 20
4.340552
  0
LWPOLYLINE
  5
DE
330
468
100
AcDbEntity
  8
Level 1
  6
Continuous
 62
     7
370
    13
100
AcDbPolyline
 90
        5
 70
   128
 43
0.0
 10
93.379302
 20
4.393604
 10
93.379302
 20
4.393604
 10
93.56499
 20
4.393604
 10
93.56499
 20
4.353813
 10
93.379302
 20
4.393604
  0
CIRCLE
  5
E3
330
468
100
AcDbEntity
  8
Level 1
  6
Continuous
 62
     7
370
    13
100
AcDbCircle
 10
94.50419
 20
5.029946
 30
0.0
 40
0.0916860175
  0
LINE
  5
EA
330
468
100
AcDbEntity
  8
Level 1
  6
Continuous
 62
     7
370
    13
100
AcDbLine
 10
92.287521
 20
5.288083
 30
0.0
 11
92.866156
 21
5.288083
 31
0.0
  0
LWPOLYLINE
  5
EB
330
468
100
AcDbEntity
  8
Level 1
  6
Continuous
 62
     7
370
    13
100
AcDbPolyline
 90
        5
 70
   128
 43
0.0
 10
92.275917
 20
5.288083
 10
92.275917
 20
5.288083
 10
92.461615
 20
5.260729
 10
92.472385
 20
5.327875
 10
92.275917
 20
5.288083
  0
LWPOLYLINE
  5
EC
330
468
100
AcDbEntity
  8
Level 1
  6
Continuous
 62
     7
370
    13
100
AcDbPolyline
 90
        4
 70
   128
 43
0.0
 10
92.866156
 20
5.245812
 10
93.034437
 20
5.254927
 10
93.172052
 20
5.251615
 10
93.241687
 20
5.239177
  0
LWPOLYLINE
  5
ED
330
468
100
AcDbEntity
  8
Level 1
  6
Continuous
 62
     7
370
    13
100
AcDbPolyline
 90
        4
 70
   128
 43
0.0
 10
95.527208
 20
5.235031
 10
95.660677
 20
5.253271
 10
95.786677
 20
5.252438
 10
95.915167
 20
5.239177
  0
LINE
  5
EE
330
468
100
AcDbEntity
  8
Level 1
  6
Continuous
 62
     7
370
    13
100
AcDbLine
 10
95.914344
 20
5.234198
 30
0.0
 11
97.159479
 21
5.234198
 31
0.0
  0
LINE
  5
EF
330
468
100
AcDbEntity
  8
Level 1
  6
Continuous
 62
     7
370
    13
100
AcDbLine
 10
92.866156
 20
5.247469
 30
0.0
 11
91.402167
 21
5.247469
 31
0.0
  0
LWPOLYLINE
  5
F0
330
468
100
AcDbEntity
  8
Level 1
  6
Continuous
 62
     7
370
    13
100
AcDbPolyline
 90
        3
 70
   128
 43
0.0
 10
95.455083
 20
5.247469
 10
95.56451
 20
5.421552
 10
95.619219
 20
5.421552
  0
LWPOLYLINE
  5
F1
330
468
100
AcDbEntity
  8
Level 1
  6
Continuous
 62
     7
370
    13
100
AcDbPolyline
 90
        3
 70
   128
 43
0.0
 10
95.368042
 20
5.274823
 10
95.532177
 20
5.581552
 10
95.619219
 20
5.581552
  0
LWPOLYLINE
  5
F2
330
468
100
AcDbEntity
  8
Level 1
  6
Continuous
 62
     7
370
    13
100
AcDbPolyline
 90
        3
 70
   128
 43
0.0
 10
94.122896
 20
5.754802
 10
94.297812
 20
5.754802
 10
94.592104
 20
5.247469
  0
LINE
  5
F3
330
468
100
AcDbEntity
  8
Level 1
  6
Continuous
 62
     7
370
    13
100
AcDbLine
 10
94.286208
 20
5.741542
 30
0.0
 11
93.051854
 21
5.260729
 31
0.0
  0
LWPOLYLINE
  5
F4
330
468
100
AcDbEntity
  8
Level 1
  6
Continuous
 62
     7
370
    13
100
AcDbPolyline
 90
        5
 70
   128
 43
0.0
 10
93.051854
 20
5.247469
 10
93.193604
 20
5.341146
 10
93.21599
 20
5.288083
 10
93.21599
 20
5.288083
 10
93.051854
 20
5.247469
  0
LWPOLYLINE
  5
F5
330
468
100
AcDbEntity
  8
Level 1
  6
Continuous
 62
     7
370
    13
100
AcDbPolyline
 90
        5
 70
   128
 43
0.0
 10
94.592104
 20
5.247469
 10
94.592104
 20
5.247469
 10
94.494292
 20
5.354406
 10
94.537396
 20
5.380937
 10
94.592104
 20
5.247469
  0
LWPOLYLINE
  5
F6
330
468
100
AcDbEntity
  8
Level 1
  6
Continuous
 62
     7
370
    13
100
AcDbPolyline
 90
        5
 70
   128
 43
0.0
 10
95.35726
 20
5.274823
 10
95.35726
 20
5.274823
 10
95.42275
 20
5.407458
 10
95.466687
 20
5.394198
 10
95.35726
 20
5.274823
  0
LWPOLYLINE
  5
F7
330
468
100
AcDbEntity
  8
Level 1
  6
Continuous
 62
     7
370
    13
100
AcDbPolyline
 90
        5
 70
   128
 43
0.0
 10
95.455083
 20
5.247469
 10
95.455083
 20
5.247469
 10
95.521406
 20
5.327875
 10
95.48824
 20
5.354406
 10
95.455083
 20
5.247469
  0
LINE
  5
FB
330
468
100
AcDbEntity
  8
Level 1
  6
Continuous
 62
     7
370
    13
100
AcDbLine
 10
94.135306
 20
4.112926
 30
0.0
 11
94.852349
 21
4.112926
 31
0.0
  0
CIRCLE
  5
FC
330
468
100
AcDbEntity
  8
Level 1
  6
Continuous
 62
     7
370
    13
100
AcDbCircle
 10
97.153082
 20
5.436784
 30
0.0
 40
0.0916860175
  0
CIRCLE
  5
FD
330
468
100
AcDbEntity
  8
Level 1
  6
Continuous
 62
     7
370
    13
100
AcDbCircle
 10
97.017049
 20
5.621837
 30
0.0
 40
0.09176891625
  0
CIRCLE
  5
FE
330
468
100
AcDbEntity
  8
Level 1
  6
Continuous
 62
     7
370
    13
100
AcDbCircle
 10
94.005268
 20
5.806121
 30
0.0
 40
0.0916860175
  0
CIRCLE
  5
103
330
468
100
AcDbEntity
  8
Level 1
  6
Continuous
 62
     7
370
    13
100
AcDbCircle
 10
96.844235
 20
5.863321
 30
0.0
 40
0.09176891625
  0
LWPOLYLINE
  5
106
330
468
100
AcDbEntity
  8
Level 1
  6
Continuous
 62
     7
370
    13
100
AcDbPolyline
 90
        3
 70
   128
 43
0.0
 10
95.754253
 20
5.855115
 10
95.495708
 20
5.855115
 10
95.108562
 20
5.266531
  0
LWPOLYLINE
  5
107
330
468
100
AcDbEntity
  8
Level 1
  6
Continuous
 62
     7
370
    13
100
AcDbPolyline
 90
        5
 70
   128
 43
0.0
 10
95.108562
 20
5.266531
 10
95.108562
 20
5.266531
 10
95.160792
 20
5.382594
 10
95.194781
 20
5.361042
 10
95.108562
 20
5.266531
  0
LINE
  5
111
330
468
100
AcDbEntity
  8
Level 1
  6
Continuous
 62
     7
370
    13
100
AcDbLine
 10
90.438052
 20
2.868271
 30
0.0
 11
92.837146
 21
2.868271
 31
0.0
  0
LINE
  5
112
330
468
100
AcDbEntity
  8
Level 1
  6
Continuous
 62
     7
370
    13
100
AcDbLine
 10
90.46375
 20
2.743094
 30
0.0
 11
92.835479
 21
2.743094
 31
0.0
  0
LINE
  5
113
330
468
100
AcDbEntity
  8
Level 1
  6
Continuous
 62
     7
370
    13
100
AcDbLine
 10
90.440542
 20
2.422281
 30
0.0
 11
92.834656
 21
2.422281
 31
0.0
  0
LINE
  5
114
330
468
100
AcDbEntity
  8
Level 1
  6
Continuous
 62
     7
370
    13
100
AcDbLine
 10
90.452969
 20
2.554917
 30
0.0
 11
92.833
 21
2.554917
 31
0.0
  0
LWPOLYLINE
  5
115
330
468
100
AcDbEntity
  8
Level 1
  6
Continuous
 62
     7
370
    13
100
AcDbPolyline
 90
        3
 70
   128
 43
0.0
 10
92.837146
 20
2.585583
 10
90.467062
 20
2.585583
 10
92.825531
 20
2.585583
  0
LWPOLYLINE
  5
116
330
468
100
AcDbEntity
  8
Level 1
  6
Continuous
 62
     7
370
    13
100
AcDbPolyline
 90
        3
 70
   128
 43
0.0
 10
90.627062
 20
3.110333
 10
90.81524
 20
3.110333
 10
90.81524
 20
2.875729
  0
LWPOLYLINE
  5
117
330
468
100
AcDbEntity
  8
Level 1
  6
Continuous
 62
     7
370
    13
100
AcDbPolyline
 90
        3
 70
   128
 43
0.0
 10
91.053156
 20
3.107854
 10
91.24549
 20
3.107854
 10
91.24549
 20
2.876562
  0
LWPOLYLINE
  5
118
330
468
100
AcDbEntity
  8
Level 1
  6
Continuous
 62
     7
370
    13
100
AcDbPolyline
 90
        3
 70
   128
 43
0.0
 10
91.47926
 20
3.107854
 10
91.67076
 20
3.107854
 10
91.67076
 20
2.876562
  0
LWPOLYLINE
  5
119
330
468
100
AcDbEntity
  8
Level 1
  6
Continuous
 62
     7
370
    13
100
AcDbPolyline
 90
        3
 70
   128
 43
0.0
 10
91.91199
 20
3.107854
 10
92.104312
 20
3.107854
 10
92.104312
 20
2.876562
  0
LWPOLYLINE
  5
11A
330
468
100
AcDbEntity
  8
Level 1
  6
Continuous
 62
     7
370
    13
100
AcDbPolyline
 90
        3
 70
   128
 43
0.0
 10
92.335604
 20
3.107854
 10
92.527927
 20
3.107854
 10
92.527927
 20
2.876562
  0
LWPOLYLINE
  5
11B
330
468
100
AcDbEntity
  8
Level 1
  6
Continuous
 62
     7
370
    13
100
AcDbPolyline
 90
        3
 70
   128
 43
0.0
 10
92.784917
 20
3.107854
 10
92.97724
 20
3.107854
 10
92.97724
 20
2.876562
  0
LWPOLYLINE
  5
11C
330
468
100
AcDbEntity
  8
Level 1
  6
Continuous
 62
     7
370
    13
100
AcDbPolyline
 90
        3
 70
   128
 43
0.0
 10
93.181167
 20
3.107854
 10
93.3735
 20
3.107854
 10
93.3735
 20
2.876562
  0
LINE
  5
11D
330
468
100
AcDbEntity
  8
Level 1
  6
Continuous
 62
     7
370
    13
100
AcDbLine
 10
92.833823
 20
2.66351
 30
0.0
 11
93.581573
 21
2.66351
 31
0.0
  0
LINE
  5
11E
330
468
100
AcDbEntity
  8
Level 1
  6
Continuous
 62
     7
370
    13
100
AcDbLine
 10
92.831333
 20
2.583927
 30
0.0
 11
93.582396
 21
2.583927
 31
0.0
  0
LINE
  5
11F
330
468
100
AcDbEntity
  8
Level 1
  6
Continuous
 62
     7
370
    13
100
AcDbLine
 10
92.832167
 20
2.554083
 30
0.0
 11
93.589865
 21
2.554083
 31
0.0
  0
LINE
  5
120
330
468
100
AcDbEntity
  8
Level 1
  6
Continuous
 62
     7
370
    13
100
AcDbLine
 10
92.780771
 20
2.872417
 30
0.0
 11
92.780771
 21
3.107021
 31
0.0
  0
LINE
  5
121
330
468
100
AcDbEntity
  8
Level 1
  6
Continuous
 62
     7
370
    13
100
AcDbLine
 10
92.330625
 20
3.110333
 30
0.0
 11
92.330625
 21
2.871583
 31
0.0
  0
LINE
  5
122
330
468
100
AcDbEntity
  8
Level 1
  6
Continuous
 62
     7
370
    13
100
AcDbLine
 10
91.907844
 20
3.111167
 30
0.0
 11
91.907844
 21
2.872417
 31
0.0
  0
LINE
  5
123
330
468
100
AcDbEntity
  8
Level 1
  6
Continuous
 62
     7
370
    13
100
AcDbLine
 10
91.480094
 20
3.107021
 30
0.0
 11
91.480094
 21
2.874906
 31
0.0
  0
LINE
  5
124
330
468
100
AcDbEntity
  8
Level 1
  6
Continuous
 62
     7
370
    13
100
AcDbLine
 10
91.059792
 20
3.112823
 30
0.0
 11
91.059792
 21
2.87325
 31
0.0
  0
LINE
  5
125
330
468
100
AcDbEntity
  8
Level 1
  6
Continuous
 62
     7
370
    13
100
AcDbLine
 10
90.625406
 20
3.110333
 30
0.0
 11
90.625406
 21
2.879052
 31
0.0
  0
LINE
  5
128
330
468
100
AcDbEntity
  8
Level 1
  6
Continuous
 62
     7
370
    13
100
AcDbLine
 10
92.834656
 20
2.867448
 30
0.0
 11
92.834656
 21
2.420615
 31
0.0
  0
LINE
  5
129
330
468
100
AcDbEntity
  8
Level 1
  6
Continuous
 62
     7
370
    13
100
AcDbLine
 10
90.440542
 20
2.98101
 30
0.0
 11
90.440542
 21
2.766302
 31
0.0
  0
LINE
  5
12A
330
468
100
AcDbEntity
  8
Level 1
  6
Continuous
 62
     7
370
    13
100
AcDbLine
 10
93.585719
 20
2.751385
 30
0.0
 11
93.585719
 21
2.671802
 31
0.0
  0
LWPOLYLINE
  5
12B
330
468
100
AcDbEntity
  8
Level 1
  6
Continuous
 62
     7
370
    13
100
AcDbPolyline
 90
        6
 70
   128
 43
0.0
 10
93.584063
 20
2.66849
 10
93.547583
 20
2.648594
 10
93.658667
 20
2.631177
 10
93.520229
 20
2.621229
 10
93.636281
 20
2.598021
 10
93.584063
 20
2.585583
  0
LINE
  5
12C
330
468
100
AcDbEntity
  8
Level 1
  6
Continuous
 62
     7
370
    13
100
AcDbLine
 10
93.585719
 20
2.583104
 30
0.0
 11
93.585719
 21
2.481969
 31
0.0
  0
LWPOLYLINE
  5
12D
330
468
100
AcDbEntity
  8
Level 1
  6
Continuous
 62
     7
370
    13
100
AcDbPolyline
 90
        7
 70
   128
 43
0.0
 10
90.439708
 20
2.766302
 10
90.48199
 20
2.728177
 10
90.405719
 20
2.718229
 10
90.563229
 20
2.651073
 10
90.4165
 20
2.637812
 10
90.500229
 20
2.599677
 10
90.437219
 20
2.583104
  0
LINE
  5
12E
330
468
100
AcDbEntity
  8
Level 1
  6
Continuous
 62
     7
370
    13
100
AcDbLine
 10
90.440542
 20
2.583104
 30
0.0
 11
90.440542
 21
2.312854
 31
0.0
  0
LINE
  5
12F
330
468
100
AcDbEntity
  8
Level 1
  6
Continuous
 62
     7
370
    13
100
AcDbLine
 10
90.535042
 20
2.661854
 30
0.0
 11
92.83051
 21
2.661854
 31
0.0
  0
LINE
  5
130
330
468
100
AcDbEntity
  8
Level 1
  6
Continuous
 62
     7
370
    13
100
AcDbLine
 10
90.628719
 20
2.422281
 30
0.0
 11
90.628719
 21
2.38
 31
0.0
  0
LINE
  5
131
330
468
100
AcDbEntity
  8
Level 1
  6
Continuous
 62
     7
370
    13
100
AcDbLine
 10
90.806948
 20
2.422281
 30
0.0
 11
90.806948
 21
2.38
 31
0.0
  0
LINE
  5
132
330
468
100
AcDbEntity
  8
Level 1
  6
Continuous
 62
     7
370
    13
100
AcDbLine
 10
91.054823
 20
2.419792
 30
0.0
 11
91.054823
 21
2.38
 31
0.0
  0
LINE
  5
133
330
468
100
AcDbEntity
  8
Level 1
  6
Continuous
 62
     7
370
    13
100
AcDbLine
 10
91.241344
 20
2.419792
 30
0.0
 11
91.241344
 21
2.38
 31
0.0
  0
LINE
  5
134
330
468
100
AcDbEntity
  8
Level 1
  6
Continuous
 62
     7
370
    13
100
AcDbLine
 10
91.466823
 20
2.419792
 30
0.0
 11
91.466823
 21
2.38
 31
0.0
  0
LINE
  5
135
330
468
100
AcDbEntity
  8
Level 1
  6
Continuous
 62
     7
370
    13
100
AcDbLine
 10
91.666615
 20
2.421448
 30
0.0
 11
91.666615
 21
2.38
 31
0.0
  0
LINE
  5
136
330
468
100
AcDbEntity
  8
Level 1
  6
Continuous
 62
     7
370
    13
100
AcDbLine
 10
91.899552
 20
2.433885
 30
0.0
 11
91.899552
 21
2.38
 31
0.0
  0
LINE
  5
137
330
468
100
AcDbEntity
  8
Level 1
  6
Continuous
 62
     7
370
    13
100
AcDbLine
 10
92.104312
 20
2.428906
 30
0.0
 11
92.104312
 21
2.38
 31
0.0
  0
LINE
  5
138
330
468
100
AcDbEntity
  8
Level 1
  6
Continuous
 62
     7
370
    13
100
AcDbLine
 10
92.318198
 20
2.430562
 30
0.0
 11
92.318198
 21
2.38
 31
0.0
  0
LINE
  5
139
330
468
100
AcDbEntity
  8
Level 1
  6
Continuous
 62
     7
370
    13
100
AcDbLine
 10
92.529583
 20
2.423938
 30
0.0
 11
92.529583
 21
2.38
 31
0.0
  0
LINE
  5
13A
330
468
100
AcDbEntity
  8
Level 1
  6
Continuous
 62
     7
370
    13
100
AcDbLine
 10
92.753417
 20
2.42974
 30
0.0
 11
92.753417
 21
2.38
 31
0.0
  0
CIRCLE
  5
13B
330
468
100
AcDbEntity
  8
Level 1
  6
Continuous
 62
     7
370
    13
100
AcDbCircle
 10
91.997791
 20
2.787363
 30
0.0
 40
0.02445513125
  0
CIRCLE
  5
13C
330
468
100
AcDbEntity
  8
Level 1
  6
Continuous
 62
     7
370
    13
100
AcDbCircle
 10
91.176016
 20
2.819693
 30
0.0
 40
0.02445513125
  0
CIRCLE
  5
13D
330
468
100
AcDbEntity
  8
Level 1
  6
Continuous
 62
     7
370
    13
100
AcDbCircle
 10
92.001771
 20
2.503849
 30
0.0
 40
0.02453803
  0
CIRCLE
  5
13E
330
468
100
AcDbEntity
  8
Level 1
  6
Continuous
 62
     7
370
    13
100
AcDbCircle
 10
91.164493
 20
2.467373
 30
0.0
 40
0.02453803
  0
CIRCLE
  5
13F
330
468
100
AcDbEntity
  8
Level 1
  6
Continuous
 62
     7
370
    13
100
AcDbCircle
 10
92.809868
 20
2.823009
 30
0.0
 40
0.02445513125
  0
CIRCLE
  5
140
330
468
100
AcDbEntity
  8
Level 1
  6
Continuous
 62
     7
370
    13
100
AcDbCircle
 10
92.806552
 20
2.467373
 30
0.0
 40
0.02445513125
  0
LINE
  5
141
330
468
100
AcDbEntity
  8
Level 1
  6
Continuous
 62
     7
370
    13
100
AcDbLine
 10
92.780771
 20
3.141833
 30
0.0
 11
92.780771
 21
3.486698
 31
0.0
  0
LINE
  5
142
330
468
100
AcDbEntity
  8
Level 1
  6
Continuous
 62
     7
370
    13
100
AcDbLine
 10
92.802323
 20
3.314271
 30
0.0
 11
92.802323
 21
3.135208
 31
0.0
  0
LINE
  5
143
330
468
100
AcDbEntity
  8
Level 1
  6
Continuous
 62
     7
370
    13
100
AcDbLine
 10
92.833823
 20
3.486698
 30
0.0
 11
92.833823
 21
3.135208
 31
0.0
  0
LINE
  5
144
330
468
100
AcDbEntity
  8
Level 1
  6
Continuous
 62
     7
370
    13
100
AcDbLine
 10
92.833823
 20
3.466802
 30
0.0
 11
92.965635
 21
3.466802
 31
0.0
  0
LINE
  5
145
330
468
100
AcDbEntity
  8
Level 1
  6
Continuous
 62
     7
370
    13
100
AcDbLine
 10
92.802323
 20
3.186604
 30
0.0
 11
92.649792
 21
3.186604
 31
0.0
  0
LINE
  5
146
330
468
100
AcDbEntity
  8
Level 1
  6
Continuous
 62
     7
370
    13
100
AcDbLine
 10
92.807302
 20
3.330021
 30
0.0
 11
92.962323
 21
3.330021
 31
0.0
  0
LINE
  5
147
330
468
100
AcDbEntity
  8
Level 1
  6
Continuous
 62
     7
370
    13
100
AcDbLine
 10
92.833823
 20
3.186604
 30
0.0
 11
92.965635
 21
3.186604
 31
0.0
  0
LINE
  5
148
330
468
100
AcDbEntity
  8
Level 1
  6
Continuous
 62
     7
370
    13
100
AcDbLine
 10
92.780771
 20
3.330021
 30
0.0
 11
92.645646
 21
3.330021
 31
0.0
  0
LINE
  5
14C
330
468
100
AcDbEntity
  8
Level 1
  6
Continuous
 62
     7
370
    13
100
AcDbLine
 10
92.6415
 20
3.466802
 30
0.0
 11
92.780771
 21
3.466802
 31
0.0
  0
LWPOLYLINE
  5
14D
330
468
100
AcDbEntity
  8
Level 1
  6
Continuous
 62
     7
370
    13
100
AcDbPolyline
 90
        5
 70
   128
 43
0.0
 10
92.833823
 20
3.466802
 10
92.833823
 20
3.466802
 10
92.912583
 20
3.447729
 10
92.912583
 20
3.486698
 10
92.833823
 20
3.466802
  0
LWPOLYLINE
  5
14E
330
468
100
AcDbEntity
  8
Level 1
  6
Continuous
 62
     7
370
    13
100
AcDbPolyline
 90
        5
 70
   128
 43
0.0
 10
92.780771
 20
3.466802
 10
92.780771
 20
3.466802
 10
92.692073
 20
3.447729
 10
92.692073
 20
3.486698
 10
92.780771
 20
3.466802
  0
LWPOLYLINE
  5
14F
330
468
100
AcDbEntity
  8
Level 1
  6
Continuous
 62
     7
370
    13
100
AcDbPolyline
 90
        5
 70
   128
 43
0.0
 10
92.780771
 20
3.330021
 10
92.780771
 20
3.330021
 10
92.692073
 20
3.310948
 10
92.692073
 20
3.349083
 10
92.780771
 20
3.330021
  0
LWPOLYLINE
  5
150
330
468
100
AcDbEntity
  8
Level 1
  6
Continuous
 62
     7
370
    13
100
AcDbPolyline
 90
        5
 70
   128
 43
0.0
 10
92.802323
 20
3.186604
 10
92.802323
 20
3.186604
 10
92.712792
 20
3.166708
 10
92.712792
 20
3.205667
 10
92.802323
 20
3.186604
  0
LWPOLYLINE
  5
151
330
468
100
AcDbEntity
  8
Level 1
  6
Continuous
 62
     7
370
    13
100
AcDbPolyline
 90
        5
 70
   128
 43
0.0
 10
92.807302
 20
3.330021
 10
92.807302
 20
3.330021
 10
92.885219
 20
3.310948
 10
92.885219
 20
3.349083
 10
92.807302
 20
3.330021
  0
LWPOLYLINE
  5
152
330
468
100
AcDbEntity
  8
Level 1
  6
Continuous
 62
     7
370
    13
100
AcDbPolyline
 90
        5
 70
   128
 43
0.0
 10
92.833823
 20
3.186604
 10
92.833823
 20
3.186604
 10
92.91175
 20
3.167531
 10
92.91175
 20
3.205667
 10
92.833823
 20
3.186604
  0
LINE
  5
158
330
468
100
AcDbEntity
  8
Level 1
  6
Continuous
 62
     7
370
    13
100
AcDbLine
 10
93.662756
 20
1.937323
 30
0.0
 11
94.310627
 21
1.937323
 31
0.0
  0
LINE
  5
159
330
468
100
AcDbEntity
  8
Level 1
  6
Continuous
 62
     7
370
    13
100
AcDbLine
 10
93.451346
 20
1.740021
 30
0.0
 11
94.544854
 21
1.740021
 31
0.0
  0
LWPOLYLINE
  5
15A
330
468
100
AcDbEntity
  8
Level 1
  6
Continuous
 62
     7
370
    13
100
AcDbPolyline
 90
        3
 70
   128
 43
0.0
 10
90.602187
 20
4.445833
 10
90.399917
 20
4.445833
 10
90.71825
 20
3.112823
  0
LWPOLYLINE
  5
15B
330
468
100
AcDbEntity
  8
Level 1
  6
Continuous
 62
     7
370
    13
100
AcDbPolyline
 90
        5
 70
   128
 43
0.0
 10
90.71825
 20
3.112823
 10
90.708302
 20
3.262042
 10
90.646958
 20
3.249604
 10
90.646958
 20
3.249604
 10
90.71825
 20
3.112823
  0
LINE
  5
15C
330
468
100
AcDbEntity
  8
Level 1
  6
Continuous
 62
     7
370
    13
100
AcDbLine
 10
91.037406
 20
2.868271
 30
0.0
 11
93.4365
 21
2.868271
 31
0.0
  0
LINE
  5
15D
330
468
100
AcDbEntity
  8
Level 1
  6
Continuous
 62
     7
370
    13
100
AcDbLine
 10
91.06974
 20
2.743094
 30
0.0
 11
93.441469
 21
2.743094
 31
0.0
  0
LINE
  5
15E
330
468
100
AcDbEntity
  8
Level 1
  6
Continuous
 62
     7
370
    13
100
AcDbLine
 10
91.037406
 20
2.422281
 30
0.0
 11
93.430698
 21
2.422281
 31
0.0
  0
CIRCLE
  5
15F
330
468
100
AcDbEntity
  8
Level 1
  6
Continuous
 62
     7
370
    13
100
AcDbCircle
 10
92.892435
 20
2.503849
 30
0.0
 40
0.02445513125
  0
CIRCLE
  5
160
330
468
100
AcDbEntity
  8
Level 1
  6
Continuous
 62
     7
370
    13
100
AcDbCircle
 10
92.886549
 20
2.786534
 30
0.0
 40
0.02453803
  0
LINE
  5
161
330
468
100
AcDbEntity
  8
Level 1
  6
Continuous
 62
     7
370
    13
100
AcDbLine
 10
92.975583
 20
2.898115
 30
0.0
 11
92.975583
 21
2.866615
 31
0.0
  0
LINE
  5
162
330
468
100
AcDbEntity
  8
Level 1
  6
Continuous
 62
     7
370
    13
100
AcDbLine
 10
93.178687
 20
3.106187
 30
0.0
 11
93.178687
 21
2.866615
 31
0.0
  0
LINE
  5
163
330
468
100
AcDbEntity
  8
Level 1
  6
Continuous
 62
     7
370
    13
100
AcDbLine
 10
93.3735
 20
2.885677
 30
0.0
 11
93.3735
 21
2.866615
 31
0.0
  0
LINE
  5
164
330
468
100
AcDbEntity
  8
Level 1
  6
Continuous
 62
     7
370
    13
100
AcDbLine
 10
92.968948
 20
2.422281
 30
0.0
 11
92.968948
 21
2.38
 31
0.0
  0
LINE
  5
165
330
468
100
AcDbEntity
  8
Level 1
  6
Continuous
 62
     7
370
    13
100
AcDbLine
 10
93.180344
 20
2.422281
 30
0.0
 11
93.180344
 21
2.38
 31
0.0
  0
LINE
  5
166
330
468
100
AcDbEntity
  8
Level 1
  6
Continuous
 62
     7
370
    13
100
AcDbLine
 10
93.371833
 20
2.422281
 30
0.0
 11
93.371833
 21
2.133792
 31
0.0
  0
LINE
  5
168
330
468
100
AcDbEntity
  8
Level 1
  6
Continuous
 62
     7
370
    13
100
AcDbLine
 10
94.354187
 20
4.886031
 30
0.0
 11
94.385688
 21
4.94074
 31
0.0
  0
LINE
  5
16A
330
468
100
AcDbEntity
  8
Level 1
  6
Continuous
 62
     7
370
    13
100
AcDbLine
 10
94.198344
 20
4.886031
 30
0.0
 11
94.229844
 21
4.94074
 31
0.0
  0
LINE
  5
16C
330
468
100
AcDbEntity
  8
Level 1
  6
Continuous
 62
     7
370
    13
100
AcDbLine
 10
94.043323
 20
4.886031
 30
0.0
 11
94.074823
 21
4.94074
 31
0.0
  0
LINE
  5
16E
330
468
100
AcDbEntity
  8
Level 1
  6
Continuous
 62
     7
370
    13
100
AcDbLine
 10
93.887469
 20
4.886031
 30
0.0
 11
93.918969
 21
4.94074
 31
0.0
  0
LINE
  5
170
330
468
100
AcDbEntity
  8
Level 1
  6
Continuous
 62
     7
370
    13
100
AcDbLine
 10
93.732448
 20
4.886031
 30
0.0
 11
93.763948
 21
4.94074
 31
0.0
  0
LINE
  5
172
330
468
100
AcDbEntity
  8
Level 1
  6
Continuous
 62
     7
370
    13
100
AcDbLine
 10
93.576594
 20
4.886031
 30
0.0
 11
93.608104
 21
4.94074
 31
0.0
  0
LINE
  5
173
330
468
100
AcDbEntity
  8
Level 1
  6
Continuous
 62
     7
370
    13
100
AcDbLine
 10
93.265729
 20
4.617437
 30
0.0
 11
93.304688
 21
4.684583
 31
0.0
  0
LINE
  5
174
330
468
100
AcDbEntity
  8
Level 1
  6
Continuous
 62
     7
370
    13
100
AcDbLine
 10
93.421573
 20
4.886031
 30
0.0
 11
93.453083
 21
4.94074
 31
0.0
  0
LINE
  5
175
330
468
100
AcDbEntity
  8
Level 1
  6
Continuous
 62
     7
370
    13
100
AcDbLine
 10
93.110708
 20
4.617437
 30
0.0
 11
93.148844
 21
4.684583
 31
0.0
  0
LINE
  5
176
330
468
100
AcDbEntity
  8
Level 1
  6
Continuous
 62
     7
370
    13
100
AcDbLine
 10
93.187802
 20
4.751729
 30
0.0
 11
93.22676
 21
4.818875
 31
0.0
  0
LINE
  5
177
330
468
100
AcDbEntity
  8
Level 1
  6
Continuous
 62
     7
370
    13
100
AcDbLine
 10
93.265729
 20
4.886031
 30
0.0
 11
93.297229
 21
4.94074
 31
0.0
  0
LINE
  5
178
330
468
100
AcDbEntity
  8
Level 1
  6
Continuous
 62
     7
370
    13
100
AcDbLine
 10
92.954854
 20
4.617437
 30
0.0
 11
92.993823
 21
4.684583
 31
0.0
  0
LINE
  5
179
330
468
100
AcDbEntity
  8
Level 1
  6
Continuous
 62
     7
370
    13
100
AcDbLine
 10
93.032781
 20
4.751729
 30
0.0
 11
93.07174
 21
4.818875
 31
0.0
  0
LINE
  5
17A
330
468
100
AcDbEntity
  8
Level 1
  6
Continuous
 62
     7
370
    13
100
AcDbLine
 10
93.110708
 20
4.886031
 30
0.0
 11
93.142208
 21
4.94074
 31
0.0
  0
LINE
  5
17B
330
468
100
AcDbEntity
  8
Level 1
  6
Continuous
 62
     7
370
    13
100
AcDbLine
 10
92.91037
 20
4.751729
 30
0.0
 11
92.949329
 21
4.818875
 31
0.0
  0
LINE
  5
17C
330
468
100
AcDbEntity
  8
Level 1
  6
Continuous
 62
     7
370
    13
100
AcDbLine
 10
92.954854
 20
4.886031
 30
0.0
 11
92.993823
 21
4.953177
 31
0.0
  0
LINE
  5
17D
330
468
100
AcDbEntity
  8
Level 1
  6
Continuous
 62
     7
370
    13
100
AcDbLine
 10
93.032781
 20
5.021156
 30
0.0
 11
93.06926
 21
5.083323
 31
0.0
  0
LINE
  5
17E
330
468
100
AcDbEntity
  8
Level 1
  6
Continuous
 62
     7
370
    13
100
AcDbLine
 10
92.91037
 20
5.021156
 30
0.0
 11
92.936068
 21
5.065094
 31
0.0
  0
LINE
  5
17F
330
468
100
AcDbEntity
  8
Level 1
  6
Continuous
 62
     7
370
    13
100
AcDbLine
 10
94.354187
 20
4.617437
 30
0.0
 11
94.392323
 21
4.684583
 31
0.0
  0
LINE
  5
180
330
468
100
AcDbEntity
  8
Level 1
  6
Continuous
 62
     7
370
    13
100
AcDbLine
 10
94.509208
 20
4.886031
 30
0.0
 11
94.540708
 21
4.94074
 31
0.0
  0
LINE
  5
182
330
468
100
AcDbEntity
  8
Level 1
  6
Continuous
 62
     7
370
    13
100
AcDbLine
 10
94.665062
 20
4.886031
 30
0.0
 11
94.696562
 21
4.94074
 31
0.0
  0
LINE
  5
184
330
468
100
AcDbEntity
  8
Level 1
  6
Continuous
 62
     7
370
    13
100
AcDbLine
 10
94.820083
 20
4.886031
 30
0.0
 11
94.851583
 21
4.94074
 31
0.0
  0
LINE
  5
186
330
468
100
AcDbEntity
  8
Level 1
  6
Continuous
 62
     7
370
    13
100
AcDbLine
 10
94.975927
 20
4.886031
 30
0.0
 11
95.007427
 21
4.94074
 31
0.0
  0
LINE
  5
188
330
468
100
AcDbEntity
  8
Level 1
  6
Continuous
 62
     7
370
    13
100
AcDbLine
 10
95.130948
 20
4.886031
 30
0.0
 11
95.162448
 21
4.94074
 31
0.0
  0
LINE
  5
18A
330
468
100
AcDbEntity
  8
Level 1
  6
Continuous
 62
     7
370
    13
100
AcDbLine
 10
95.286802
 20
4.886031
 30
0.0
 11
95.318302
 21
4.94074
 31
0.0
  0
LINE
  5
18B
330
468
100
AcDbEntity
  8
Level 1
  6
Continuous
 62
     7
370
    13
100
AcDbLine
 10
95.245354
 20
4.546146
 30
0.0
 11
95.247833
 21
4.549458
 31
0.0
  0
LINE
  5
18E
330
468
100
AcDbEntity
  8
Level 1
  6
Continuous
 62
     7
370
    13
100
AcDbLine
 10
95.441823
 20
4.886031
 30
0.0
 11
95.473323
 21
4.94074
 31
0.0
  0
LINE
  5
18F
330
468
100
AcDbEntity
  8
Level 1
  6
Continuous
 62
     7
370
    13
100
AcDbLine
 10
95.383451
 20
4.547895
 30
0.0
 11
95.39091
 21
4.561155
 31
0.0
  0
LINE
  5
191
330
468
100
AcDbEntity
  8
Level 1
  6
Continuous
 62
     7
370
    13
100
AcDbLine
 10
95.51974
 20
4.751729
 30
0.0
 11
95.558708
 21
4.818875
 31
0.0
  0
LINE
  5
192
330
468
100
AcDbEntity
  8
Level 1
  6
Continuous
 62
     7
370
    13
100
AcDbLine
 10
95.597667
 20
4.886031
 30
0.0
 11
95.629167
 21
4.94074
 31
0.0
  0
LINE
  5
193
330
468
100
AcDbEntity
  8
Level 1
  6
Continuous
 62
     7
370
    13
100
AcDbLine
 10
95.63
 20
4.943229
 30
0.0
 11
95.635802
 21
4.953177
 31
0.0
  0
LINE
  5
194
330
468
100
AcDbEntity
  8
Level 1
  6
Continuous
 62
     7
370
    13
100
AcDbLine
 10
95.67476
 20
5.021156
 30
0.0
 11
95.707927
 21
5.078354
 31
0.0
  0
LINE
  5
195
330
468
100
AcDbEntity
  8
Level 1
  6
Continuous
 62
     7
370
    13
100
AcDbLine
 10
95.544615
 20
4.537113
 30
0.0
 11
95.558708
 21
4.561155
 31
0.0
  0
LINE
  5
196
330
468
100
AcDbEntity
  8
Level 1
  6
Continuous
 62
     7
370
    13
100
AcDbLine
 10
95.597667
 20
4.617437
 30
0.0
 11
95.635802
 21
4.684583
 31
0.0
  0
LINE
  5
197
330
468
100
AcDbEntity
  8
Level 1
  6
Continuous
 62
     7
370
    13
100
AcDbLine
 10
95.67476
 20
4.751729
 30
0.0
 11
95.713729
 21
4.818875
 31
0.0
  0
LINE
  5
198
330
468
100
AcDbEntity
  8
Level 1
  6
Continuous
 62
     7
370
    13
100
AcDbLine
 10
95.752687
 20
4.886031
 30
0.0
 11
95.791656
 21
4.953177
 31
0.0
  0
LINE
  5
199
330
468
100
AcDbEntity
  8
Level 1
  6
Continuous
 62
     7
370
    13
100
AcDbLine
 10
95.830615
 20
5.021156
 30
0.0
 11
95.841396
 21
5.039385
 31
0.0
  0
LINE
  5
19A
330
468
100
AcDbEntity
  8
Level 1
  6
Continuous
 62
     7
370
    13
100
AcDbLine
 10
95.693833
 20
4.527165
 30
0.0
 11
95.713729
 21
4.561155
 31
0.0
  0
LINE
  5
19B
330
468
100
AcDbEntity
  8
Level 1
  6
Continuous
 62
     7
370
    13
100
AcDbLine
 10
95.752687
 20
4.617437
 30
0.0
 11
95.791656
 21
4.684583
 31
0.0
  0
LINE
  5
19C
330
468
100
AcDbEntity
  8
Level 1
  6
Continuous
 62
     7
370
    13
100
AcDbLine
 10
95.830615
 20
4.751729
 30
0.0
 11
95.869573
 21
4.818875
 31
0.0
  0
LINE
  5
19D
330
468
100
AcDbEntity
  8
Level 1
  6
Continuous
 62
     7
370
    13
100
AcDbLine
 10
95.843052
 20
4.516395
 30
0.0
 11
95.869573
 21
4.561155
 31
0.0
  0
LINE
  5
19E
330
468
100
AcDbEntity
  8
Level 1
  6
Continuous
 62
     7
370
    13
100
AcDbLine
 10
94.354187
 20
4.617437
 30
0.0
 11
94.315229
 21
4.684583
 31
0.0
  0
LINE
  5
19F
330
468
100
AcDbEntity
  8
Level 1
  6
Continuous
 62
     7
370
    13
100
AcDbLine
 10
94.198344
 20
4.886031
 30
0.0
 11
94.166833
 21
4.94074
 31
0.0
  0
LINE
  5
1A1
330
468
100
AcDbEntity
  8
Level 1
  6
Continuous
 62
     7
370
    13
100
AcDbLine
 10
94.043323
 20
4.886031
 30
0.0
 11
94.011812
 21
4.94074
 31
0.0
  0
LINE
  5
1A3
330
468
100
AcDbEntity
  8
Level 1
  6
Continuous
 62
     7
370
    13
100
AcDbLine
 10
93.887469
 20
4.886031
 30
0.0
 11
93.855969
 21
4.94074
 31
0.0
  0
LINE
  5
1A5
330
468
100
AcDbEntity
  8
Level 1
  6
Continuous
 62
     7
370
    13
100
AcDbLine
 10
93.732448
 20
4.886031
 30
0.0
 11
93.700948
 21
4.94074
 31
0.0
  0
LINE
  5
1A7
330
468
100
AcDbEntity
  8
Level 1
  6
Continuous
 62
     7
370
    13
100
AcDbLine
 10
93.576594
 20
4.886031
 30
0.0
 11
93.545094
 21
4.94074
 31
0.0
  0
LINE
  5
1A9
330
468
100
AcDbEntity
  8
Level 1
  6
Continuous
 62
     7
370
    13
100
AcDbLine
 10
93.421573
 20
4.886031
 30
0.0
 11
93.390073
 21
4.94074
 31
0.0
  0
LINE
  5
1AB
330
468
100
AcDbEntity
  8
Level 1
  6
Continuous
 62
     7
370
    13
100
AcDbLine
 10
93.308833
 20
4.811417
 30
0.0
 11
93.304688
 21
4.818875
 31
0.0
  0
LINE
  5
1AC
330
468
100
AcDbEntity
  8
Level 1
  6
Continuous
 62
     7
370
    13
100
AcDbLine
 10
93.265729
 20
4.886031
 30
0.0
 11
93.234229
 21
4.94074
 31
0.0
  0
LINE
  5
1AD
330
468
100
AcDbEntity
  8
Level 1
  6
Continuous
 62
     7
370
    13
100
AcDbLine
 10
93.265729
 20
4.617437
 30
0.0
 11
93.22676
 21
4.684583
 31
0.0
  0
LINE
  5
1AE
330
468
100
AcDbEntity
  8
Level 1
  6
Continuous
 62
     7
370
    13
100
AcDbLine
 10
93.187802
 20
4.751729
 30
0.0
 11
93.148844
 21
4.818875
 31
0.0
  0
LINE
  5
1AF
330
468
100
AcDbEntity
  8
Level 1
  6
Continuous
 62
     7
370
    13
100
AcDbLine
 10
93.110708
 20
4.886031
 30
0.0
 11
93.07174
 21
4.953177
 31
0.0
  0
LINE
  5
1B0
330
468
100
AcDbEntity
  8
Level 1
  6
Continuous
 62
     7
370
    13
100
AcDbLine
 10
93.032781
 20
5.021156
 30
0.0
 11
93.001281
 21
5.075865
 31
0.0
  0
LINE
  5
1B1
330
468
100
AcDbEntity
  8
Level 1
  6
Continuous
 62
     7
370
    13
100
AcDbLine
 10
93.110708
 20
4.617437
 30
0.0
 11
93.07174
 21
4.684583
 31
0.0
  0
LINE
  5
1B2
330
468
100
AcDbEntity
  8
Level 1
  6
Continuous
 62
     7
370
    13
100
AcDbLine
 10
93.032781
 20
4.751729
 30
0.0
 11
92.993823
 21
4.818875
 31
0.0
  0
LINE
  5
1B3
330
468
100
AcDbEntity
  8
Level 1
  6
Continuous
 62
     7
370
    13
100
AcDbLine
 10
92.954854
 20
4.886031
 30
0.0
 11
92.915896
 21
4.953177
 31
0.0
  0
LINE
  5
1B4
330
468
100
AcDbEntity
  8
Level 1
  6
Continuous
 62
     7
370
    13
100
AcDbLine
 10
92.91037
 20
5.021156
 30
0.0
 11
92.899589
 21
5.040219
 31
0.0
  0
LINE
  5
1B5
330
468
100
AcDbEntity
  8
Level 1
  6
Continuous
 62
     7
370
    13
100
AcDbLine
 10
92.954854
 20
4.617437
 30
0.0
 11
92.915896
 21
4.684583
 31
0.0
  0
LINE
  5
1B6
330
468
100
AcDbEntity
  8
Level 1
  6
Continuous
 62
     7
370
    13
100
AcDbLine
 10
92.91037
 20
4.751729
 30
0.0
 11
92.899589
 21
4.770802
 31
0.0
  0
LINE
  5
1B8
330
468
100
AcDbEntity
  8
Level 1
  6
Continuous
 62
     7
370
    13
100
AcDbLine
 10
94.354187
 20
4.886031
 30
0.0
 11
94.322688
 21
4.94074
 31
0.0
  0
LINE
  5
1BA
330
468
100
AcDbEntity
  8
Level 1
  6
Continuous
 62
     7
370
    13
100
AcDbLine
 10
94.509208
 20
4.886031
 30
0.0
 11
94.477708
 21
4.94074
 31
0.0
  0
LINE
  5
1BC
330
468
100
AcDbEntity
  8
Level 1
  6
Continuous
 62
     7
370
    13
100
AcDbLine
 10
94.665062
 20
4.886031
 30
0.0
 11
94.633552
 21
4.94074
 31
0.0
  0
LINE
  5
1BE
330
468
100
AcDbEntity
  8
Level 1
  6
Continuous
 62
     7
370
    13
100
AcDbLine
 10
94.820083
 20
4.886031
 30
0.0
 11
94.788573
 21
4.94074
 31
0.0
  0
LINE
  5
1C0
330
468
100
AcDbEntity
  8
Level 1
  6
Continuous
 62
     7
370
    13
100
AcDbLine
 10
94.975927
 20
4.886031
 30
0.0
 11
94.944427
 21
4.94074
 31
0.0
  0
LINE
  5
1C1
330
468
100
AcDbEntity
  8
Level 1
  6
Continuous
 62
     7
370
    13
100
AcDbLine
 10
95.33074
 20
4.55204
 30
0.0
 11
95.32576
 21
4.561155
 31
0.0
  0
LINE
  5
1C3
330
468
100
AcDbEntity
  8
Level 1
  6
Continuous
 62
     7
370
    13
100
AcDbLine
 10
95.130948
 20
4.886031
 30
0.0
 11
95.099448
 21
4.94074
 31
0.0
  0
LINE
  5
1C4
330
468
100
AcDbEntity
  8
Level 1
  6
Continuous
 62
     7
370
    13
100
AcDbLine
 10
95.492385
 20
4.540426
 30
0.0
 11
95.480781
 21
4.561155
 31
0.0
  0
LINE
  5
1C6
330
468
100
AcDbEntity
  8
Level 1
  6
Continuous
 62
     7
370
    13
100
AcDbLine
 10
95.286802
 20
4.886031
 30
0.0
 11
95.255302
 21
4.94074
 31
0.0
  0
LINE
  5
1C7
330
468
100
AcDbEntity
  8
Level 1
  6
Continuous
 62
     7
370
    13
100
AcDbLine
 10
95.654865
 20
4.529655
 30
0.0
 11
95.635802
 21
4.561155
 31
0.0
  0
LINE
  5
1C8
330
468
100
AcDbEntity
  8
Level 1
  6
Continuous
 62
     7
370
    13
100
AcDbLine
 10
95.597667
 20
4.617437
 30
0.0
 11
95.558708
 21
4.684583
 31
0.0
  0
LINE
  5
1C9
330
468
100
AcDbEntity
  8
Level 1
  6
Continuous
 62
     7
370
    13
100
AcDbLine
 10
95.51974
 20
4.751729
 30
0.0
 11
95.480781
 21
4.818875
 31
0.0
  0
LINE
  5
1CA
330
468
100
AcDbEntity
  8
Level 1
  6
Continuous
 62
     7
370
    13
100
AcDbLine
 10
95.441823
 20
4.886031
 30
0.0
 11
95.410323
 21
4.94074
 31
0.0
  0
LINE
  5
1CB
330
468
100
AcDbEntity
  8
Level 1
  6
Continuous
 62
     7
370
    13
100
AcDbLine
 10
95.816521
 20
4.518051
 30
0.0
 11
95.791656
 21
4.561155
 31
0.0
  0
LINE
  5
1CC
330
468
100
AcDbEntity
  8
Level 1
  6
Continuous
 62
     7
370
    13
100
AcDbLine
 10
95.752687
 20
4.617437
 30
0.0
 11
95.713729
 21
4.684583
 31
0.0
  0
LINE
  5
1CD
330
468
100
AcDbEntity
  8
Level 1
  6
Continuous
 62
     7
370
    13
100
AcDbLine
 10
95.67476
 20
4.751729
 30
0.0
 11
95.635802
 21
4.818875
 31
0.0
  0
LINE
  5
1CE
330
468
100
AcDbEntity
  8
Level 1
  6
Continuous
 62
     7
370
    13
100
AcDbLine
 10
95.597667
 20
4.886031
 30
0.0
 11
95.566167
 21
4.94074
 31
0.0
  0
LINE
  5
1CF
330
468
100
AcDbEntity
  8
Level 1
  6
Continuous
 62
     7
370
    13
100
AcDbLine
 10
95.903562
 20
4.625729
 30
0.0
 11
95.869573
 21
4.684583
 31
0.0
  0
LINE
  5
1D0
330
468
100
AcDbEntity
  8
Level 1
  6
Continuous
 62
     7
370
    13
100
AcDbLine
 10
95.830615
 20
4.751729
 30
0.0
 11
95.791656
 21
4.818875
 31
0.0
  0
LINE
  5
1D1
330
468
100
AcDbEntity
  8
Level 1
  6
Continuous
 62
     7
370
    13
100
AcDbLine
 10
95.752687
 20
4.886031
 30
0.0
 11
95.713729
 21
4.953177
 31
0.0
  0
LINE
  5
1D2
330
468
100
AcDbEntity
  8
Level 1
  6
Continuous
 62
     7
370
    13
100
AcDbLine
 10
95.67476
 20
5.021156
 30
0.0
 11
95.635802
 21
5.088302
 31
0.0
  0
LINE
  5
1D3
330
468
100
AcDbEntity
  8
Level 1
  6
Continuous
 62
     7
370
    13
100
AcDbLine
 10
95.903562
 20
4.895146
 30
0.0
 11
95.869573
 21
4.953177
 31
0.0
  0
LINE
  5
1D4
330
468
100
AcDbEntity
  8
Level 1
  6
Continuous
 62
     7
370
    13
100
AcDbLine
 10
95.830615
 20
5.021156
 30
0.0
 11
95.815698
 21
5.046854
 31
0.0
  0
LINE
  5
1D5
330
468
100
AcDbEntity
  8
Level 1
  6
Continuous
 62
     7
370
    13
100
AcDbLine
 10
92.915896
 20
4.684583
 30
0.0
 11
92.993823
 21
4.684583
 31
0.0
  0
LINE
  5
1D6
330
468
100
AcDbEntity
  8
Level 1
  6
Continuous
 62
     7
370
    13
100
AcDbLine
 10
93.07174
 20
4.684583
 30
0.0
 11
93.148844
 21
4.684583
 31
0.0
  0
LINE
  5
1D7
330
468
100
AcDbEntity
  8
Level 1
  6
Continuous
 62
     7
370
    13
100
AcDbLine
 10
93.22676
 20
4.684583
 30
0.0
 11
93.304688
 21
4.684583
 31
0.0
  0
LINE
  5
1D9
330
468
100
AcDbEntity
  8
Level 1
  6
Continuous
 62
     7
370
    13
100
AcDbLine
 10
95.558708
 20
4.684583
 30
0.0
 11
95.635802
 21
4.684583
 31
0.0
  0
LINE
  5
1DA
330
468
100
AcDbEntity
  8
Level 1
  6
Continuous
 62
     7
370
    13
100
AcDbLine
 10
95.713729
 20
4.684583
 30
0.0
 11
95.791656
 21
4.684583
 31
0.0
  0
LINE
  5
1DB
330
468
100
AcDbEntity
  8
Level 1
  6
Continuous
 62
     7
370
    13
100
AcDbLine
 10
95.869573
 20
4.684583
 30
0.0
 11
95.903562
 21
4.684583
 31
0.0
  0
LINE
  5
1DC
330
468
100
AcDbEntity
  8
Level 1
  6
Continuous
 62
     7
370
    13
100
AcDbLine
 10
94.315229
 20
4.684583
 30
0.0
 11
94.392323
 21
4.684583
 31
0.0
  0
LINE
  5
1DD
330
468
100
AcDbEntity
  8
Level 1
  6
Continuous
 62
     7
370
    13
100
AcDbLine
 10
92.898733
 20
4.818875
 30
0.0
 11
92.948472
 21
4.818875
 31
0.0
  0
LINE
  5
1DE
330
468
100
AcDbEntity
  8
Level 1
  6
Continuous
 62
     7
370
    13
100
AcDbLine
 10
92.993823
 20
4.818875
 30
0.0
 11
93.07174
 21
4.818875
 31
0.0
  0
LINE
  5
1DF
330
468
100
AcDbEntity
  8
Level 1
  6
Continuous
 62
     7
370
    13
100
AcDbLine
 10
93.148844
 20
4.818875
 30
0.0
 11
93.22676
 21
4.818875
 31
0.0
  0
LINE
  5
1E0
330
468
100
AcDbEntity
  8
Level 1
  6
Continuous
 62
     7
370
    13
100
AcDbLine
 10
93.304688
 20
4.818875
 30
0.0
 11
93.322094
 21
4.818875
 31
0.0
  0
LINE
  5
1E2
330
468
100
AcDbEntity
  8
Level 1
  6
Continuous
 62
     7
370
    13
100
AcDbLine
 10
95.480781
 20
4.818875
 30
0.0
 11
95.558708
 21
4.818875
 31
0.0
  0
LINE
  5
1E3
330
468
100
AcDbEntity
  8
Level 1
  6
Continuous
 62
     7
370
    13
100
AcDbLine
 10
95.635802
 20
4.818875
 30
0.0
 11
95.713729
 21
4.818875
 31
0.0
  0
LINE
  5
1E4
330
468
100
AcDbEntity
  8
Level 1
  6
Continuous
 62
     7
370
    13
100
AcDbLine
 10
95.791656
 20
4.818875
 30
0.0
 11
95.869573
 21
4.818875
 31
0.0
  0
LINE
  5
1E5
330
468
100
AcDbEntity
  8
Level 1
  6
Continuous
 62
     7
370
    13
100
AcDbLine
 10
92.915896
 20
4.953177
 30
0.0
 11
92.993823
 21
4.953177
 31
0.0
  0
LINE
  5
1E6
330
468
100
AcDbEntity
  8
Level 1
  6
Continuous
 62
     7
370
    13
100
AcDbLine
 10
93.07174
 20
4.953177
 30
0.0
 11
93.106562
 21
4.953177
 31
0.0
  0
LINE
  5
1E7
330
468
100
AcDbEntity
  8
Level 1
  6
Continuous
 62
     7
370
    13
100
AcDbLine
 10
95.63
 20
4.953177
 30
0.0
 11
95.635802
 21
4.953177
 31
0.0
  0
LINE
  5
1E8
330
468
100
AcDbEntity
  8
Level 1
  6
Continuous
 62
     7
370
    13
100
AcDbLine
 10
95.713729
 20
4.953177
 30
0.0
 11
95.791656
 21
4.953177
 31
0.0
  0
LINE
  5
1E9
330
468
100
AcDbEntity
  8
Level 1
  6
Continuous
 62
     7
370
    13
100
AcDbLine
 10
95.869573
 20
4.953177
 30
0.0
 11
95.903562
 21
4.953177
 31
0.0
  0
LINE
  5
1EA
330
468
100
AcDbEntity
  8
Level 1
  6
Continuous
 62
     7
370
    13
100
AcDbLine
 10
95.635802
 20
5.088302
 30
0.0
 11
95.673937
 21
5.088302
 31
0.0
  0
LINE
  5
1EB
330
468
100
AcDbEntity
  8
Level 1
  6
Continuous
 62
     7
370
    13
100
AcDbLine
 10
95.194781
 20
4.549458
 30
0.0
 11
95.247833
 21
4.549458
 31
0.0
  0
LINE
  5
1EC
330
468
100
AcDbEntity
  8
Level 1
  6
Continuous
 62
     7
370
    13
100
AcDbLine
 10
95.32576
 20
4.561155
 30
0.0
 11
95.402854
 21
4.561155
 31
0.0
  0
LINE
  5
1ED
330
468
100
AcDbEntity
  8
Level 1
  6
Continuous
 62
     7
370
    13
100
AcDbLine
 10
95.480781
 20
4.561155
 30
0.0
 11
95.558708
 21
4.561155
 31
0.0
  0
LINE
  5
1EE
330
468
100
AcDbEntity
  8
Level 1
  6
Continuous
 62
     7
370
    13
100
AcDbLine
 10
95.635802
 20
4.561155
 30
0.0
 11
95.713729
 21
4.561155
 31
0.0
  0
LINE
  5
1EF
330
468
100
AcDbEntity
  8
Level 1
  6
Continuous
 62
     7
370
    13
100
AcDbLine
 10
95.791656
 20
4.561155
 30
0.0
 11
95.869573
 21
4.561155
 31
0.0
  0
LINE
  5
1F0
330
468
100
AcDbEntity
  8
Level 1
  6
Continuous
 62
     7
370
    13
100
AcDbLine
 10
96.079313
 20
8.26001
 30
0.0
 11
96.919073
 21
8.26001
 31
0.0
  0
LINE
  5
1F1
330
468
100
AcDbEntity
  8
Level 1
  6
Continuous
 62
     7
370
    13
100
AcDbLine
 10
96.066875
 20
8.190375
 30
0.0
 11
96.935656
 21
8.190375
 31
0.0
  0
LINE
  5
1F2
330
468
100
AcDbEntity
  8
Level 1
  6
Continuous
 62
     7
370
    13
100
AcDbLine
 10
96.070188
 20
9.222458
 30
0.0
 11
96.951406
 21
9.222458
 31
0.0
  0
LINE
  5
1F3
330
468
100
AcDbEntity
  8
Level 1
  6
Continuous
 62
     7
370
    13
100
AcDbLine
 10
96.070188
 20
9.16526
 30
0.0
 11
96.942292
 21
9.16526
 31
0.0
  0
LINE
  5
1F4
330
468
100
AcDbEntity
  8
Level 1
  6
Continuous
 62
     7
370
    13
100
AcDbLine
 10
91.654177
 20
9.151167
 30
0.0
 11
91.654177
 21
7.838885
 31
0.0
  0
LINE
  5
1F5
330
468
100
AcDbEntity
  8
Level 1
  6
Continuous
 62
     7
370
    13
100
AcDbLine
 10
91.498323
 20
9.56649
 30
0.0
 11
91.498323
 21
9.240698
 31
0.0
  0
LINE
  5
1F6
330
468
100
AcDbEntity
  8
Level 1
  6
Continuous
 62
     7
370
    13
100
AcDbLine
 10
91.498323
 20
9.150344
 30
0.0
 11
91.498323
 21
7.840542
 31
0.0
  0
LINE
  5
1F7
330
468
100
AcDbEntity
  8
Level 1
  6
Continuous
 62
     7
370
    13
100
AcDbLine
 10
91.301854
 20
7.843021
 30
0.0
 11
91.301854
 21
9.14951
 31
0.0
  0
LINE
  5
1F8
330
468
100
AcDbEntity
  8
Level 1
  6
Continuous
 62
     7
370
    13
100
AcDbLine
 10
91.301854
 20
9.239865
 30
0.0
 11
91.301854
 21
9.570635
 31
0.0
  0
LINE
  5
1F9
330
468
100
AcDbEntity
  8
Level 1
  6
Continuous
 62
     7
370
    13
100
AcDbLine
 10
91.152635
 20
7.840542
 30
0.0
 11
91.152635
 21
9.150344
 31
0.0
  0
LINE
  5
1FA
330
468
100
AcDbEntity
  8
Level 1
  6
Continuous
 62
     7
370
    13
100
AcDbLine
 10
91.152635
 20
9.238208
 30
0.0
 11
91.152635
 21
9.567323
 31
0.0
  0
LINE
  5
1FB
330
468
100
AcDbEntity
  8
Level 1
  6
Continuous
 62
     7
370
    13
100
AcDbLine
 10
90.952021
 20
7.837219
 30
0.0
 11
90.952021
 21
9.147854
 31
0.0
  0
LINE
  5
1FC
330
468
100
AcDbEntity
  8
Level 1
  6
Continuous
 62
     7
370
    13
100
AcDbLine
 10
90.952021
 20
9.240698
 30
0.0
 11
90.952021
 21
9.571469
 31
0.0
  0
LWPOLYLINE
  5
1FD
330
468
100
AcDbEntity
  8
Level 1
  6
Continuous
 62
     7
370
    13
100
AcDbPolyline
 90
        3
 70
   128
 43
0.0
 10
91.498323
 20
9.571469
 10
91.654177
 20
9.571469
 10
91.654177
 20
9.239865
  0
LINE
  5
1FE
330
468
100
AcDbEntity
  8
Level 1
  6
Continuous
 62
     7
370
    13
100
AcDbLine
 10
91.151812
 20
9.571469
 30
0.0
 11
91.301854
 21
9.571469
 31
0.0
  0
LWPOLYLINE
  5
1FF
330
468
100
AcDbEntity
  8
Level 1
  6
Continuous
 62
     7
370
    13
100
AcDbPolyline
 90
        4
 70
   128
 43
0.0
 10
91.640917
 20
9.147854
 10
91.640917
 20
9.089823
 10
91.512417
 20
9.089823
 10
91.512417
 20
9.147854
  0
LWPOLYLINE
  5
200
330
468
100
AcDbEntity
  8
Level 1
  6
Continuous
 62
     7
370
    13
100
AcDbPolyline
 90
        4
 70
   128
 43
0.0
 10
91.512417
 20
9.241531
 10
91.512417
 20
9.315312
 10
91.640083
 20
9.315312
 10
91.640083
 20
9.240698
  0
LWPOLYLINE
  5
201
330
468
100
AcDbEntity
  8
Level 1
  6
Continuous
 62
     7
370
    13
100
AcDbPolyline
 90
        4
 70
   128
 43
0.0
 10
91.162583
 20
9.241531
 10
91.162583
 20
9.315312
 10
91.291083
 20
9.315312
 10
91.291083
 20
9.240698
  0
LWPOLYLINE
  5
202
330
468
100
AcDbEntity
  8
Level 1
  6
Continuous
 62
     7
370
    13
100
AcDbPolyline
 90
        4
 70
   128
 43
0.0
 10
91.29025
 20
9.147854
 10
91.29025
 20
9.089823
 10
91.16176
 20
9.089823
 10
91.16176
 20
9.147854
  0
LWPOLYLINE
  5
203
330
468
100
AcDbEntity
  8
Level 1
  6
Continuous
 62
     7
370
    13
100
AcDbPolyline
 90
        4
 70
   128
 43
0.0
 10
91.640917
 20
8.172958
 10
91.640917
 20
8.114937
 10
91.512417
 20
8.114937
 10
91.512417
 20
8.172958
  0
LWPOLYLINE
  5
204
330
468
100
AcDbEntity
  8
Level 1
  6
Continuous
 62
     7
370
    13
100
AcDbPolyline
 90
        4
 70
   128
 43
0.0
 10
91.512417
 20
8.272438
 10
91.512417
 20
8.346219
 10
91.640083
 20
8.346219
 10
91.640083
 20
8.271615
  0
LWPOLYLINE
  5
205
330
468
100
AcDbEntity
  8
Level 1
  6
Continuous
 62
     7
370
    13
100
AcDbPolyline
 90
        4
 70
   128
 43
0.0
 10
91.162583
 20
8.272438
 10
91.162583
 20
8.346219
 10
91.291083
 20
8.346219
 10
91.291083
 20
8.271615
  0
LWPOLYLINE
  5
206
330
468
100
AcDbEntity
  8
Level 1
  6
Continuous
 62
     7
370
    13
100
AcDbPolyline
 90
        4
 70
   128
 43
0.0
 10
91.29025
 20
8.172958
 10
91.29025
 20
8.114937
 10
91.16176
 20
8.114937
 10
91.16176
 20
8.172958
  0
LINE
  5
207
330
468
100
AcDbEntity
  8
Level 1
  6
Continuous
 62
     7
370
    13
100
AcDbLine
 10
91.654177
 20
7.843854
 30
0.0
 11
91.49999
 21
7.843854
 31
0.0
  0
LINE
  5
208
330
468
100
AcDbEntity
  8
Level 1
  6
Continuous
 62
     7
370
    13
100
AcDbLine
 10
91.300198
 20
7.843854
 30
0.0
 11
91.152635
 21
7.843854
 31
0.0
  0
LINE
  5
209
330
468
100
AcDbEntity
  8
Level 1
  6
Continuous
 62
     7
370
    13
100
AcDbLine
 10
96.71349
 20
7.843854
 30
0.0
 11
96.565927
 21
7.843854
 31
0.0
  0
LWPOLYLINE
  5
20A
330
468
100
AcDbEntity
  8
Level 1
  6
Continuous
 62
     7
370
    13
100
AcDbPolyline
 90
        4
 70
   128
 43
0.0
 10
96.351219
 20
8.174625
 10
96.351219
 20
8.117417
 10
96.222729
 20
8.117417
 10
96.222729
 20
8.174625
  0
LWPOLYLINE
  5
20B
330
468
100
AcDbEntity
  8
Level 1
  6
Continuous
 62
     7
370
    13
100
AcDbPolyline
 90
        4
 70
   128
 43
0.0
 10
96.703542
 20
8.178771
 10
96.703542
 20
8.121562
 10
96.575042
 20
8.121562
 10
96.575042
 20
8.178771
  0
LWPOLYLINE
  5
20C
330
468
100
AcDbEntity
  8
Level 1
  6
Continuous
 62
     7
370
    13
100
AcDbPolyline
 90
        4
 70
   128
 43
0.0
 10
96.223552
 20
8.273271
 10
96.223552
 20
8.347875
 10
96.352052
 20
8.347875
 10
96.352052
 20
8.273271
  0
LWPOLYLINE
  5
20D
330
468
100
AcDbEntity
  8
Level 1
  6
Continuous
 62
     7
370
    13
100
AcDbPolyline
 90
        4
 70
   128
 43
0.0
 10
96.575875
 20
8.273271
 10
96.575875
 20
8.347875
 10
96.704365
 20
8.347875
 10
96.704365
 20
8.273271
  0
LWPOLYLINE
  5
20E
330
468
100
AcDbEntity
  8
Level 1
  6
Continuous
 62
     7
370
    13
100
AcDbPolyline
 90
        4
 70
   128
 43
0.0
 10
96.352052
 20
9.138729
 10
96.352052
 20
9.080708
 10
96.223552
 20
9.080708
 10
96.223552
 20
9.138729
  0
LWPOLYLINE
  5
20F
330
468
100
AcDbEntity
  8
Level 1
  6
Continuous
 62
     7
370
    13
100
AcDbPolyline
 90
        4
 70
   128
 43
0.0
 10
96.703542
 20
9.139563
 10
96.703542
 20
9.082365
 10
96.575042
 20
9.082365
 10
96.575042
 20
9.139563
  0
LWPOLYLINE
  5
210
330
468
100
AcDbEntity
  8
Level 1
  6
Continuous
 62
     7
370
    13
100
AcDbPolyline
 90
        4
 70
   128
 43
0.0
 10
96.22024
 20
9.253958
 10
96.22024
 20
9.32774
 10
96.348729
 20
9.32774
 10
96.348729
 20
9.253135
  0
LWPOLYLINE
  5
211
330
468
100
AcDbEntity
  8
Level 1
  6
Continuous
 62
     7
370
    13
100
AcDbPolyline
 90
        4
 70
   128
 43
0.0
 10
96.575875
 20
9.253958
 10
96.575875
 20
9.32774
 10
96.704365
 20
9.32774
 10
96.704365
 20
9.253135
  0
LINE
  5
212
330
468
100
AcDbEntity
  8
Level 1
  6
Continuous
 62
     7
370
    13
100
AcDbLine
 10
96.565927
 20
9.571469
 30
0.0
 11
96.715146
 21
9.571469
 31
0.0
  0
LINE
  5
213
330
468
100
AcDbEntity
  8
Level 1
  6
Continuous
 62
     7
370
    13
100
AcDbLine
 10
96.366146
 20
9.240698
 30
0.0
 11
96.366146
 21
9.571469
 31
0.0
  0
LINE
  5
214
330
468
100
AcDbEntity
  8
Level 1
  6
Continuous
 62
     7
370
    13
100
AcDbLine
 10
96.565927
 20
9.238208
 30
0.0
 11
96.565927
 21
9.567323
 31
0.0
  0
LINE
  5
215
330
468
100
AcDbEntity
  8
Level 1
  6
Continuous
 62
     7
370
    13
100
AcDbLine
 10
96.715969
 20
9.239865
 30
0.0
 11
96.715969
 21
9.570635
 31
0.0
  0
LINE
  5
216
330
468
100
AcDbEntity
  8
Level 1
  6
Continuous
 62
     7
370
    13
100
AcDbLine
 10
96.912448
 20
9.56649
 30
0.0
 11
96.912448
 21
9.240698
 31
0.0
  0
LINE
  5
217
330
468
100
AcDbEntity
  8
Level 1
  6
Continuous
 62
     7
370
    13
100
AcDbLine
 10
93.931406
 20
8.416688
 30
0.0
 11
93.931406
 21
8.252542
 31
0.0
  0
LINE
  5
218
330
468
100
AcDbEntity
  8
Level 1
  6
Continuous
 62
     7
370
    13
100
AcDbLine
 10
92.934135
 20
8.062708
 30
0.0
 11
92.934135
 21
8.189542
 31
0.0
  0
LINE
  5
219
330
468
100
AcDbEntity
  8
Level 1
  6
Continuous
 62
     7
370
    13
100
AcDbLine
 10
93.259094
 20
9.166917
 30
0.0
 11
93.259094
 21
9.035937
 31
0.0
  0
LINE
  5
21A
330
468
100
AcDbEntity
  8
Level 1
  6
Continuous
 62
     7
370
    13
100
AcDbLine
 10
94.263833
 20
9.297073
 30
0.0
 11
94.263833
 21
9.380802
 31
0.0
  0
LINE
  5
21B
330
468
100
AcDbEntity
  8
Level 1
  6
Continuous
 62
     7
370
    13
100
AcDbLine
 10
91.776865
 20
9.239042
 30
0.0
 11
94.26051
 21
9.239042
 31
0.0
  0
LINE
  5
21C
330
468
100
AcDbEntity
  8
Level 1
  6
Continuous
 62
     7
370
    13
100
AcDbLine
 10
91.777698
 20
9.263083
 30
0.0
 11
94.259687
 21
9.263083
 31
0.0
  0
LINE
  5
21D
330
468
100
AcDbEntity
  8
Level 1
  6
Continuous
 62
     7
370
    13
100
AcDbLine
 10
91.785156
 20
9.146198
 30
0.0
 11
93.257437
 21
9.146198
 31
0.0
  0
LINE
  5
21E
330
468
100
AcDbEntity
  8
Level 1
  6
Continuous
 62
     7
370
    13
100
AcDbLine
 10
91.776865
 20
8.273271
 30
0.0
 11
93.92975
 21
8.273271
 31
0.0
  0
LINE
  5
21F
330
468
100
AcDbEntity
  8
Level 1
  6
Continuous
 62
     7
370
    13
100
AcDbLine
 10
91.78101
 20
8.175448
 30
0.0
 11
92.934135
 21
8.175448
 31
0.0
  0
LINE
  5
220
330
468
100
AcDbEntity
  8
Level 1
  6
Continuous
 62
     7
370
    13
100
AcDbLine
 10
91.778521
 20
8.14726
 30
0.0
 11
92.936615
 21
8.14726
 31
0.0
  0
LINE
  5
221
330
468
100
AcDbEntity
  8
Level 1
  6
Continuous
 62
     7
370
    13
100
AcDbLine
 10
93.257437
 20
9.145365
 30
0.0
 11
96.068531
 21
9.145365
 31
0.0
  0
CIRCLE
  5
222
330
468
100
AcDbEntity
  8
Level 1
  6
Continuous
 62
     7
370
    13
100
AcDbCircle
 10
93.233729
 20
9.128951
 30
0.0
 40
0.01765743375
  0
CIRCLE
  5
223
330
468
100
AcDbEntity
  8
Level 1
  6
Continuous
 62
     7
370
    13
100
AcDbCircle
 10
92.591595
 20
9.055834
 30
0.0
 40
0.01765743375
  0
CIRCLE
  5
224
330
468
100
AcDbEntity
  8
Level 1
  6
Continuous
 62
     7
370
    13
100
AcDbCircle
 10
91.932384
 20
9.1292
 30
0.0
 40
0.017574535
  0
CIRCLE
  5
225
330
468
100
AcDbEntity
  8
Level 1
  6
Continuous
 62
     7
370
    13
100
AcDbCircle
 10
92.592756
 20
9.280407
 30
0.0
 40
0.01765743375
  0
CIRCLE
  5
226
330
468
100
AcDbEntity
  8
Level 1
  6
Continuous
 62
     7
370
    13
100
AcDbCircle
 10
91.915639
 20
9.356177
 30
0.0
 40
0.017574535
  0
CIRCLE
  5
227
330
468
100
AcDbEntity
  8
Level 1
  6
Continuous
 62
     7
370
    13
100
AcDbCircle
 10
94.291683
 20
9.281734
 30
0.0
 40
0.01765743375
  0
CIRCLE
  5
228
330
468
100
AcDbEntity
  8
Level 1
  6
Continuous
 62
     7
370
    13
100
AcDbCircle
 10
95.200336
 20
9.054425
 30
0.0
 40
0.01765743375
  0
LINE
  5
229
330
468
100
AcDbEntity
  8
Level 1
  6
Continuous
 62
     7
370
    13
100
AcDbLine
 10
96.071021
 20
9.147854
 30
0.0
 11
96.970469
 21
9.147854
 31
0.0
  0
LINE
  5
22A
330
468
100
AcDbEntity
  8
Level 1
  6
Continuous
 62
     7
370
    13
100
AcDbLine
 10
96.076823
 20
9.245677
 30
0.0
 11
96.969646
 21
9.245677
 31
0.0
  0
LINE
  5
23F
330
468
100
AcDbEntity
  8
Level 1
  6
Continuous
 62
     7
370
    13
100
AcDbLine
 10
96.056104
 20
8.273271
 30
0.0
 11
96.969646
 21
8.273271
 31
0.0
  0
LINE
  5
240
330
468
100
AcDbEntity
  8
Level 1
  6
Continuous
 62
     7
370
    13
100
AcDbLine
 10
96.068531
 20
8.177938
 30
0.0
 11
96.969646
 21
8.177938
 31
0.0
  0
LINE
  5
27D
330
468
100
AcDbEntity
  8
Level 1
  6
Continuous
 62
     7
370
    13
100
AcDbLine
 10
91.777698
 20
9.171062
 30
0.0
 11
91.777698
 21
9.169406
 31
0.0
  0
LINE
  5
27E
330
468
100
AcDbEntity
  8
Level 1
  6
Continuous
 62
     7
370
    13
100
AcDbLine
 10
91.778521
 20
9.16526
 30
0.0
 11
96.078479
 21
9.16526
 31
0.0
  0
LINE
  5
27F
330
468
100
AcDbEntity
  8
Level 1
  6
Continuous
 62
     7
370
    13
100
AcDbLine
 10
91.778521
 20
9.225781
 30
0.0
 11
91.776865
 21
9.225781
 31
0.0
  0
LWPOLYLINE
  5
280
330
468
100
AcDbEntity
  8
Level 1
  6
Continuous
 62
     7
370
    13
100
AcDbPolyline
 90
        5
 70
   128
 43
0.0
 10
91.776865
 20
9.225781
 10
91.776865
 20
9.384115
 10
96.071854
 20
9.384115
 10
96.071854
 20
9.236552
 10
96.071021
 20
9.236552
  0
LINE
  5
281
330
468
100
AcDbEntity
  8
Level 1
  6
Continuous
 62
     7
370
    13
100
AcDbLine
 10
91.776865
 20
9.224115
 30
0.0
 11
96.066052
 21
9.224115
 31
0.0
  0
LINE
  5
282
330
468
100
AcDbEntity
  8
Level 1
  6
Continuous
 62
     7
370
    13
100
AcDbLine
 10
94.256365
 20
9.263083
 30
0.0
 11
96.072677
 21
9.263083
 31
0.0
  0
LINE
  5
283
330
468
100
AcDbEntity
  8
Level 1
  6
Continuous
 62
     7
370
    13
100
AcDbLine
 10
94.256365
 20
9.239042
 30
0.0
 11
96.069365
 21
9.239042
 31
0.0
  0
LWPOLYLINE
  5
284
330
468
100
AcDbEntity
  8
Level 1
  6
Continuous
 62
     7
370
    13
100
AcDbPolyline
 90
        4
 70
   128
 43
0.0
 10
91.777698
 20
9.169406
 10
91.777698
 20
9.033448
 10
96.070188
 20
9.033448
 10
96.070188
 20
9.157802
  0
LINE
  5
285
330
468
100
AcDbEntity
  8
Level 1
  6
Continuous
 62
     7
370
    13
100
AcDbLine
 10
96.070188
 20
9.180187
 30
0.0
 11
96.067708
 21
9.180187
 31
0.0
  0
LINE
  5
286
330
468
100
AcDbEntity
  8
Level 1
  6
Continuous
 62
     7
370
    13
100
AcDbLine
 10
91.777698
 20
8.198656
 30
0.0
 11
91.777698
 21
8.197833
 31
0.0
  0
LINE
  5
287
330
468
100
AcDbEntity
  8
Level 1
  6
Continuous
 62
     7
370
    13
100
AcDbLine
 10
91.781844
 20
8.192031
 30
0.0
 11
96.071854
 21
8.192031
 31
0.0
  0
LINE
  5
288
330
468
100
AcDbEntity
  8
Level 1
  6
Continuous
 62
     7
370
    13
100
AcDbLine
 10
91.776865
 20
8.252542
 30
0.0
 11
91.776865
 21
8.253375
 31
0.0
  0
LINE
  5
289
330
468
100
AcDbEntity
  8
Level 1
  6
Continuous
 62
     7
370
    13
100
AcDbLine
 10
91.770229
 20
8.26001
 30
0.0
 11
96.074333
 21
8.26001
 31
0.0
  0
LINE
  5
28A
330
468
100
AcDbEntity
  8
Level 1
  6
Continuous
 62
     7
370
    13
100
AcDbLine
 10
93.933896
 20
8.272438
 30
0.0
 11
96.065219
 21
8.272438
 31
0.0
  0
LINE
  5
28B
330
468
100
AcDbEntity
  8
Level 1
  6
Continuous
 62
     7
370
    13
100
AcDbLine
 10
92.928333
 20
8.14726
 30
0.0
 11
96.071854
 21
8.14726
 31
0.0
  0
LINE
  5
28C
330
468
100
AcDbEntity
  8
Level 1
  6
Continuous
 62
     7
370
    13
100
AcDbLine
 10
92.92999
 20
8.177938
 30
0.0
 11
96.07351
 21
8.177938
 31
0.0
  0
LWPOLYLINE
  5
28D
330
468
100
AcDbEntity
  8
Level 1
  6
Continuous
 62
     7
370
    13
100
AcDbPolyline
 90
        4
 70
   128
 43
0.0
 10
91.776865
 20
8.261667
 10
91.776865
 20
8.411708
 10
96.071854
 20
8.411708
 10
96.071854
 20
8.269125
  0
LWPOLYLINE
  5
28E
330
468
100
AcDbEntity
  8
Level 1
  6
Continuous
 62
     7
370
    13
100
AcDbPolyline
 90
        4
 70
   128
 43
0.0
 10
91.777698
 20
8.192854
 10
91.777698
 20
8.061052
 10
96.070188
 20
8.061052
 10
96.070188
 20
8.192031
  0
LINE
  5
28F
330
468
100
AcDbEntity
  8
Level 1
  6
Continuous
 62
     7
370
    13
100
AcDbLine
 10
96.715969
 20
7.843021
 30
0.0
 11
96.715969
 21
8.177938
 31
0.0
  0
LINE
  5
290
330
468
100
AcDbEntity
  8
Level 1
  6
Continuous
 62
     7
370
    13
100
AcDbLine
 10
96.715969
 20
8.273271
 30
0.0
 11
96.715969
 21
9.14951
 31
0.0
  0
LINE
  5
291
330
468
100
AcDbEntity
  8
Level 1
  6
Continuous
 62
     7
370
    13
100
AcDbLine
 10
96.565927
 20
7.840542
 30
0.0
 11
96.565927
 21
8.178771
 31
0.0
  0
LINE
  5
292
330
468
100
AcDbEntity
  8
Level 1
  6
Continuous
 62
     7
370
    13
100
AcDbLine
 10
96.565927
 20
8.271615
 30
0.0
 11
96.565927
 21
9.150344
 31
0.0
  0
LINE
  5
293
330
468
100
AcDbEntity
  8
Level 1
  6
Continuous
 62
     7
370
    13
100
AcDbLine
 10
96.912448
 20
9.150344
 30
0.0
 11
96.912448
 21
8.271615
 31
0.0
  0
LINE
  5
294
330
468
100
AcDbEntity
  8
Level 1
  6
Continuous
 62
     7
370
    13
100
AcDbLine
 10
96.912448
 20
8.178771
 30
0.0
 11
96.912448
 21
7.840542
 31
0.0
  0
LWPOLYLINE
  5
295
330
468
100
AcDbEntity
  8
Level 1
  6
Continuous
 62
     7
370
    13
100
AcDbPolyline
 90
        3
 70
   128
 43
0.0
 10
96.366146
 20
7.843854
 10
96.208635
 20
7.843854
 10
96.208635
 20
8.176281
  0
LINE
  5
296
330
468
100
AcDbEntity
  8
Level 1
  6
Continuous
 62
     7
370
    13
100
AcDbLine
 10
96.366146
 20
7.837219
 30
0.0
 11
96.366146
 21
8.179594
 31
0.0
  0
LINE
  5
297
330
468
100
AcDbEntity
  8
Level 1
  6
Continuous
 62
     7
370
    13
100
AcDbLine
 10
96.366146
 20
8.271615
 30
0.0
 11
96.366146
 21
9.147854
 31
0.0
  0
LWPOLYLINE
  5
298
330
468
100
AcDbEntity
  8
Level 1
  6
Continuous
 62
     7
370
    13
100
AcDbPolyline
 90
        3
 70
   128
 43
0.0
 10
96.208635
 20
8.273271
 10
96.208635
 20
9.571469
 10
96.366969
 20
9.571469
  0
LINE
  5
299
330
468
100
AcDbEntity
  8
Level 1
  6
Continuous
 62
     7
370
    13
100
AcDbLine
 10
91.785156
 20
9.539958
 30
0.0
 11
91.785156
 21
10.200667
 31
0.0
  0
LINE
  5
29A
330
468
100
AcDbEntity
  8
Level 1
  6
Continuous
 62
     7
370
    13
100
AcDbLine
 10
92.257677
 20
9.541625
 30
0.0
 11
92.257677
 21
10.191552
 31
0.0
  0
LINE
  5
29B
330
468
100
AcDbEntity
  8
Level 1
  6
Continuous
 62
     7
370
    13
100
AcDbLine
 10
95.590208
 20
10.194031
 30
0.0
 11
95.590208
 21
9.64276
 31
0.0
  0
LINE
  5
29C
330
468
100
AcDbEntity
  8
Level 1
  6
Continuous
 62
     7
370
    13
100
AcDbLine
 10
96.062729
 20
9.544104
 30
0.0
 11
96.062729
 21
10.194031
 31
0.0
  0
LINE
  5
29D
330
468
100
AcDbEntity
  8
Level 1
  6
Continuous
 62
     7
370
    13
100
AcDbLine
 10
96.281583
 20
7.837219
 30
0.0
 11
96.281583
 21
7.53299
 31
0.0
  0
LINE
  5
29E
330
468
100
AcDbEntity
  8
Level 1
  6
Continuous
 62
     7
370
    13
100
AcDbLine
 10
91.579562
 20
7.843854
 30
0.0
 11
91.579562
 21
7.528844
 31
0.0
  0
LINE
  5
2A8
330
468
100
AcDbEntity
  8
Level 1
  6
Continuous
 62
     7
370
    13
100
AcDbLine
 10
90.876583
 20
10.397969
 30
0.0
 11
90.876583
 21
8.745792
 31
0.0
  0
LINE
  5
2A9
330
468
100
AcDbEntity
  8
Level 1
  6
Continuous
 62
     7
370
    13
100
AcDbLine
 10
96.970469
 20
10.391333
 30
0.0
 11
96.970469
 21
8.748281
 31
0.0
  0
LWPOLYLINE
  5
2AA
330
468
100
AcDbEntity
  8
Level 1
  6
Continuous
 62
     7
370
    13
100
AcDbPolyline
 90
        7
 70
   128
 43
0.0
 10
90.87576
 20
8.745792
 10
90.833479
 20
8.723406
 10
90.922177
 20
8.667865
 10
90.813583
 20
8.691083
 10
90.927979
 20
8.60901
 10
90.829333
 20
8.626417
 10
90.87576
 20
8.568385
  0
LINE
  5
2AB
330
468
100
AcDbEntity
  8
Level 1
  6
Continuous
 62
     7
370
    13
100
AcDbLine
 10
90.876583
 20
8.568385
 30
0.0
 11
90.876583
 21
7.697948
 31
0.0
  0
LINE
  5
2AC
330
468
100
AcDbEntity
  8
Level 1
  6
Continuous
 62
     7
370
    13
100
AcDbLine
 10
96.922396
 20
8.626417
 30
0.0
 11
96.968812
 21
8.568385
 31
0.0
  0
LINE
  5
2AD
330
468
100
AcDbEntity
  8
Level 1
  6
Continuous
 62
     7
370
    13
100
AcDbLine
 10
97.021042
 20
8.60901
 30
0.0
 11
96.922396
 21
8.626417
 31
0.0
  0
LINE
  5
2AE
330
468
100
AcDbEntity
  8
Level 1
  6
Continuous
 62
     7
370
    13
100
AcDbLine
 10
96.906646
 20
8.691083
 30
0.0
 11
97.021042
 21
8.60901
 31
0.0
  0
LINE
  5
2AF
330
468
100
AcDbEntity
  8
Level 1
  6
Continuous
 62
     7
370
    13
100
AcDbLine
 10
97.01524
 20
8.667865
 30
0.0
 11
96.906646
 21
8.691083
 31
0.0
  0
LINE
  5
2B0
330
468
100
AcDbEntity
  8
Level 1
  6
Continuous
 62
     7
370
    13
100
AcDbLine
 10
96.926542
 20
8.723406
 30
0.0
 11
97.01524
 21
8.667865
 31
0.0
  0
LINE
  5
2B1
330
468
100
AcDbEntity
  8
Level 1
  6
Continuous
 62
     7
370
    13
100
AcDbLine
 10
96.968812
 20
8.745792
 30
0.0
 11
96.926542
 21
8.723406
 31
0.0
  0
LINE
  5
2B2
330
468
100
AcDbEntity
  8
Level 1
  6
Continuous
 62
     7
370
    13
100
AcDbLine
 10
96.970469
 20
8.565906
 30
0.0
 11
96.970469
 21
7.280146
 31
0.0
  0
LWPOLYLINE
  5
2B5
330
468
100
AcDbEntity
  8
Level 1
  6
Continuous
 62
     7
370
    13
100
AcDbPolyline
 90
        3
 70
   128
 43
0.0
 10
94.524135
 20
9.725656
 10
94.449521
 20
9.725656
 10
94.26549
 20
9.405667
  0
LINE
  5
2B6
330
468
100
AcDbEntity
  8
Level 1
  6
Continuous
 62
     7
370
    13
100
AcDbLine
 10
92.271771
 20
7.792458
 30
0.0
 11
92.271771
 21
7.30999
 31
0.0
  0
LINE
  5
2B7
330
468
100
AcDbEntity
  8
Level 1
  6
Continuous
 62
     7
370
    13
100
AcDbLine
 10
95.606792
 20
7.792458
 30
0.0
 11
95.606792
 21
7.30999
 31
0.0
  0
LINE
  5
2B8
330
468
100
AcDbEntity
  8
Level 1
  6
Continuous
 62
     7
370
    13
100
AcDbLine
 10
90.992646
 20
10.086271
 30
0.0
 11
96.857729
 21
10.086271
 31
0.0
  0
LWPOLYLINE
  5
2B9
330
468
100
AcDbEntity
  8
Level 1
  6
Continuous
 62
     7
370
    13
100
AcDbPolyline
 90
        5
 70
   128
 43
0.0
 10
96.061073
 20
10.087927
 10
96.061073
 20
10.087927
 10
96.167187
 20
10.074656
 10
96.169667
 20
10.103677
 10
96.061073
 20
10.087927
  0
LWPOLYLINE
  5
2BA
330
468
100
AcDbEntity
  8
Level 1
  6
Continuous
 62
     7
370
    13
100
AcDbPolyline
 90
        5
 70
   128
 43
0.0
 10
95.586062
 20
10.089583
 10
95.586062
 20
10.089583
 10
95.493219
 20
10.073
 10
95.495708
 20
10.100354
 10
95.586062
 20
10.089583
  0
LWPOLYLINE
  5
2BB
330
468
100
AcDbEntity
  8
Level 1
  6
Continuous
 62
     7
370
    13
100
AcDbPolyline
 90
        5
 70
   128
 43
0.0
 10
96.063563
 20
10.08875
 10
96.063563
 20
10.08875
 10
95.970719
 20
10.072177
 10
95.973198
 20
10.099531
 10
96.063563
 20
10.08875
  0
LWPOLYLINE
  5
2BC
330
468
100
AcDbEntity
  8
Level 1
  6
Continuous
 62
     7
370
    13
100
AcDbPolyline
 90
        5
 70
   128
 43
0.0
 10
95.590208
 20
10.087927
 10
95.590208
 20
10.087927
 10
95.696323
 20
10.07549
 10
95.699635
 20
10.1045
 10
95.590208
 20
10.087927
  0
LWPOLYLINE
  5
2BD
330
468
100
AcDbEntity
  8
Level 1
  6
Continuous
 62
     7
370
    13
100
AcDbPolyline
 90
        5
 70
   128
 43
0.0
 10
92.250219
 20
10.090406
 10
92.250219
 20
10.090406
 10
92.356333
 20
10.077146
 10
92.358812
 20
10.10699
 10
92.250219
 20
10.090406
  0
LWPOLYLINE
  5
2BE
330
468
100
AcDbEntity
  8
Level 1
  6
Continuous
 62
     7
370
    13
100
AcDbPolyline
 90
        5
 70
   128
 43
0.0
 10
92.251875
 20
10.09124
 10
92.251875
 20
10.09124
 10
92.159031
 20
10.07549
 10
92.161521
 20
10.102844
 10
92.251875
 20
10.09124
  0
LWPOLYLINE
  5
2BF
330
468
100
AcDbEntity
  8
Level 1
  6
Continuous
 62
     7
370
    13
100
AcDbPolyline
 90
        5
 70
   128
 43
0.0
 10
91.777698
 20
10.09124
 10
91.777698
 20
10.09124
 10
91.684844
 20
10.07549
 10
91.68651
 20
10.102844
 10
91.777698
 20
10.09124
  0
LWPOLYLINE
  5
2C0
330
468
100
AcDbEntity
  8
Level 1
  6
Continuous
 62
     7
370
    13
100
AcDbPolyline
 90
        5
 70
   128
 43
0.0
 10
91.775208
 20
10.090406
 10
91.775208
 20
10.090406
 10
91.881323
 20
10.077146
 10
91.884635
 20
10.10699
 10
91.775208
 20
10.090406
  0
LINE
  5
2C1
330
468
100
AcDbEntity
  8
Level 1
  6
Continuous
 62
     7
370
    13
100
AcDbLine
 10
91.57625
 20
9.576437
 30
0.0
 11
91.57625
 21
9.765448
 31
0.0
  0
LINE
  5
2C2
330
468
100
AcDbEntity
  8
Level 1
  6
Continuous
 62
     7
370
    13
100
AcDbLine
 10
96.274948
 20
9.576437
 30
0.0
 11
96.274948
 21
9.765448
 31
0.0
  0
LWPOLYLINE
  5
2C3
330
468
100
AcDbEntity
  8
Level 1
  6
Continuous
 62
     7
370
    13
100
AcDbPolyline
 90
        5
 70
   128
 43
0.0
 10
90.97026
 20
9.682552
 10
90.97026
 20
9.682552
 10
91.075542
 20
9.669281
 10
91.078854
 20
9.698302
 10
90.97026
 20
9.682552
  0
LWPOLYLINE
  5
2C4
330
468
100
AcDbEntity
  8
Level 1
  6
Continuous
 62
     7
370
    13
100
AcDbPolyline
 90
        5
 70
   128
 43
0.0
 10
91.567958
 20
9.683375
 10
91.567958
 20
9.683375
 10
91.475115
 20
9.667625
 10
91.476771
 20
9.694156
 10
91.567958
 20
9.683375
  0
LWPOLYLINE
  5
2C5
330
468
100
AcDbEntity
  8
Level 1
  6
Continuous
 62
     7
370
    13
100
AcDbPolyline
 90
        5
 70
   128
 43
0.0
 10
96.811312
 20
9.677573
 10
96.811312
 20
9.677573
 10
96.718458
 20
9.661823
 10
96.720948
 20
9.689177
 10
96.811312
 20
9.677573
  0
LWPOLYLINE
  5
2C6
330
468
100
AcDbEntity
  8
Level 1
  6
Continuous
 62
     7
370
    13
100
AcDbPolyline
 90
        5
 70
   128
 43
0.0
 10
96.266667
 20
9.67675
 10
96.266667
 20
9.67675
 10
96.371948
 20
9.663479
 10
96.37526
 20
9.693323
 10
96.266667
 20
9.67675
  0
LWPOLYLINE
  5
2C7
330
468
100
AcDbEntity
  8
Level 1
  6
Continuous
 62
     7
370
    13
100
AcDbPolyline
 90
        5
 70
   128
 43
0.0
 10
91.57874
 20
7.586865
 10
91.57874
 20
7.586865
 10
91.684844
 20
7.573604
 10
91.687333
 20
7.602615
 10
91.57874
 20
7.586865
  0
LWPOLYLINE
  5
2C8
330
468
100
AcDbEntity
  8
Level 1
  6
Continuous
 62
     7
370
    13
100
AcDbPolyline
 90
        5
 70
   128
 43
0.0
 10
96.279094
 20
7.587698
 10
96.279094
 20
7.587698
 10
96.18625
 20
7.571115
 10
96.187906
 20
7.598479
 10
96.279094
 20
7.587698
  0
LINE
  5
2C9
330
468
100
AcDbEntity
  8
Level 1
  6
Continuous
 62
     7
370
    13
100
AcDbLine
 10
96.912448
 20
9.571469
 30
0.0
 11
96.970469
 21
9.571469
 31
0.0
  0
LWPOLYLINE
  5
2CA
330
468
100
AcDbEntity
  8
Level 1
  6
Continuous
 62
     7
370
    13
100
AcDbPolyline
 90
        3
 70
   128
 43
0.0
 10
96.925708
 20
9.254792
 10
96.925708
 20
9.328573
 10
96.971302
 20
9.328573
  0
LWPOLYLINE
  5
2CB
330
468
100
AcDbEntity
  8
Level 1
  6
Continuous
 62
     7
370
    13
100
AcDbPolyline
 90
        3
 70
   128
 43
0.0
 10
96.972958
 20
9.082365
 10
96.925708
 20
9.082365
 10
96.925708
 20
9.139563
  0
LWPOLYLINE
  5
2CC
330
468
100
AcDbEntity
  8
Level 1
  6
Continuous
 62
     7
370
    13
100
AcDbPolyline
 90
        3
 70
   128
 43
0.0
 10
96.966323
 20
8.122396
 10
96.925708
 20
8.122396
 10
96.925708
 20
8.179594
  0
LINE
  5
2CD
330
468
100
AcDbEntity
  8
Level 1
  6
Continuous
 62
     7
370
    13
100
AcDbLine
 10
96.970469
 20
7.843854
 30
0.0
 11
96.913271
 21
7.843854
 31
0.0
  0
LWPOLYLINE
  5
2CE
330
468
100
AcDbEntity
  8
Level 1
  6
Continuous
 62
     7
370
    13
100
AcDbPolyline
 90
        3
 70
   128
 43
0.0
 10
96.925708
 20
8.269958
 10
96.925708
 20
8.343729
 10
96.971302
 20
8.343729
  0
LWPOLYLINE
  5
2CF
330
468
100
AcDbEntity
  8
Level 1
  6
Continuous
 62
     7
370
    13
100
AcDbPolyline
 90
        5
 70
   128
 43
0.0
 10
94.263833
 20
9.405667
 10
94.263833
 20
9.4065
 10
94.298646
 20
9.502656
 10
94.325177
 20
9.484417
 10
94.263833
 20
9.405667
  0
LINE
  5
2D0
330
468
100
AcDbEntity
  8
Level 1
  6
Continuous
 62
     7
370
    13
100
AcDbLine
 10
90.87824
 20
9.571469
 30
0.0
 11
90.952854
 21
9.571469
 31
0.0
  0
LWPOLYLINE
  5
2D1
330
468
100
AcDbEntity
  8
Level 1
  6
Continuous
 62
     7
370
    13
100
AcDbPolyline
 90
        3
 70
   128
 43
0.0
 10
90.879073
 20
9.315312
 10
90.935448
 20
9.315312
 10
90.935448
 20
9.240698
  0
LINE
  5
2D2
330
468
100
AcDbEntity
  8
Level 1
  6
Continuous
 62
     7
370
    13
100
AcDbLine
 10
90.877417
 20
9.240698
 30
0.0
 11
91.776865
 21
9.240698
 31
0.0
  0
LINE
  5
2D3
330
468
100
AcDbEntity
  8
Level 1
  6
Continuous
 62
     7
370
    13
100
AcDbLine
 10
91.780177
 20
9.223292
 30
0.0
 11
90.87824
 21
9.223292
 31
0.0
  0
LINE
  5
2D4
330
468
100
AcDbEntity
  8
Level 1
  6
Continuous
 62
     7
370
    13
100
AcDbLine
 10
91.776042
 20
9.166094
 30
0.0
 11
90.876583
 21
9.166094
 31
0.0
  0
LINE
  5
2D5
330
468
100
AcDbEntity
  8
Level 1
  6
Continuous
 62
     7
370
    13
100
AcDbLine
 10
90.874094
 20
9.148677
 30
0.0
 11
91.776865
 21
9.148677
 31
0.0
  0
LWPOLYLINE
  5
2D6
330
468
100
AcDbEntity
  8
Level 1
  6
Continuous
 62
     7
370
    13
100
AcDbPolyline
 90
        3
 70
   128
 43
0.0
 10
90.937927
 20
9.147854
 10
90.937927
 20
9.089823
 10
90.87576
 20
9.089823
  0
LWPOLYLINE
  5
2D7
330
468
100
AcDbEntity
  8
Level 1
  6
Continuous
 62
     7
370
    13
100
AcDbPolyline
 90
        3
 70
   128
 43
0.0
 10
90.87576
 20
8.346219
 10
90.937927
 20
8.346219
 10
90.937927
 20
8.271615
  0
LINE
  5
2D8
330
468
100
AcDbEntity
  8
Level 1
  6
Continuous
 62
     7
370
    13
100
AcDbLine
 10
90.876583
 20
8.274104
 30
0.0
 11
91.780177
 21
8.274104
 31
0.0
  0
LINE
  5
2D9
330
468
100
AcDbEntity
  8
Level 1
  6
Continuous
 62
     7
370
    13
100
AcDbLine
 10
91.779354
 20
8.260833
 30
0.0
 11
90.874927
 21
8.260833
 31
0.0
  0
LINE
  5
2DA
330
468
100
AcDbEntity
  8
Level 1
  6
Continuous
 62
     7
370
    13
100
AcDbLine
 10
91.773552
 20
8.192031
 30
0.0
 11
90.874927
 21
8.192031
 31
0.0
  0
LINE
  5
2DB
330
468
100
AcDbEntity
  8
Level 1
  6
Continuous
 62
     7
370
    13
100
AcDbLine
 10
90.874094
 20
8.175448
 30
0.0
 11
91.78101
 21
8.175448
 31
0.0
  0
LWPOLYLINE
  5
2DC
330
468
100
AcDbEntity
  8
Level 1
  6
Continuous
 62
     7
370
    13
100
AcDbPolyline
 90
        3
 70
   128
 43
0.0
 10
90.937927
 20
8.172135
 10
90.937927
 20
8.114104
 10
90.874094
 20
8.114104
  0
LINE
  5
2DD
330
468
100
AcDbEntity
  8
Level 1
  6
Continuous
 62
     7
370
    13
100
AcDbLine
 10
90.952021
 20
7.843854
 30
0.0
 11
90.873271
 21
7.843854
 31
0.0
  0
LINE
  5
2DE
330
468
100
AcDbEntity
  8
Level 1
  6
Continuous
 62
     7
370
    13
100
AcDbLine
 10
93.931406
 20
9.672604
 30
0.0
 11
93.931406
 21
9.843375
 31
0.0
  0
LINE
  5
2E2
330
468
100
AcDbEntity
  8
Level 1
  6
Continuous
 62
     7
370
    13
100
AcDbLine
 10
93.650125
 20
7.246979
 30
0.0
 11
94.120343
 21
7.246979
 31
0.0
  0
LINE
  5
2E3
330
468
100
AcDbEntity
  8
Level 1
  6
Continuous
 62
     7
370
    13
100
AcDbLine
 10
95.605958
 20
10.082125
 30
0.0
 11
95.607615
 21
10.085437
 31
0.0
  0
LINE
  5
2E4
330
468
100
AcDbEntity
  8
Level 1
  6
Continuous
 62
     7
370
    13
100
AcDbLine
 10
96.272469
 20
9.680063
 30
0.0
 11
96.813792
 21
9.680063
 31
0.0
  0
LINE
  5
2E5
330
468
100
AcDbEntity
  8
Level 1
  6
Continuous
 62
     7
370
    13
100
AcDbLine
 10
91.574594
 20
9.680896
 30
0.0
 11
90.973573
 21
9.680896
 31
0.0
  0
LINE
  5
2E6
330
468
100
AcDbEntity
  8
Level 1
  6
Continuous
 62
     7
370
    13
100
AcDbLine
 10
91.566302
 20
7.585208
 30
0.0
 11
96.279927
 21
7.585208
 31
0.0
  0
LINE
  5
2EA
330
468
100
AcDbEntity
  8
Level 1
  6
Continuous
 62
     7
370
    13
100
AcDbLine
 10
91.27699
 20
6.427115
 30
0.0
 11
93.047708
 21
6.427115
 31
0.0
  0
LWPOLYLINE
  5
2EB
330
468
100
AcDbEntity
  8
Level 1
  6
Continuous
 62
     7
370
    13
100
AcDbPolyline
 90
        3
 70
   128
 43
0.0
 10
93.058479
 20
6.621094
 10
91.912823
 20
6.621094
 10
91.456875
 20
6.427115
  0
LINE
  5
2EC
330
468
100
AcDbEntity
  8
Level 1
  6
Continuous
 62
     7
370
    13
100
AcDbLine
 10
91.266208
 20
6.427115
 30
0.0
 11
90.810271
 21
6.427115
 31
0.0
  0
LWPOLYLINE
  5
2ED
330
468
100
AcDbEntity
  8
Level 1
  6
Continuous
 62
     7
370
    13
100
AcDbPolyline
 90
        4
 70
   128
 43
0.0
 10
91.700604
 20
6.206604
 10
91.700604
 20
6.413854
 10
91.456875
 20
6.413854
 10
91.456875
 20
6.206604
  0
LWPOLYLINE
  5
2EE
330
468
100
AcDbEntity
  8
Level 1
  6
Continuous
 62
     7
370
    13
100
AcDbPolyline
 90
        4
 70
   128
 43
0.0
 10
92.220375
 20
6.206604
 10
92.220375
 20
6.413854
 10
91.976656
 20
6.413854
 10
91.976656
 20
6.206604
  0
LWPOLYLINE
  5
2EF
330
468
100
AcDbEntity
  8
Level 1
  6
Continuous
 62
     7
370
    13
100
AcDbPolyline
 90
        4
 70
   128
 43
0.0
 10
92.729375
 20
6.206604
 10
92.729375
 20
6.413854
 10
92.485646
 20
6.413854
 10
92.485646
 20
6.206604
  0
LWPOLYLINE
  5
2F0
330
468
100
AcDbEntity
  8
Level 1
  6
Continuous
 62
     7
370
    13
100
AcDbPolyline
 90
        4
 70
   128
 43
0.0
 10
91.191604
 20
6.206604
 10
91.191604
 20
6.413854
 10
90.947875
 20
6.413854
 10
90.947875
 20
6.206604
  0
LINE
  5
2F1
330
468
100
AcDbEntity
  8
Level 1
  6
Continuous
 62
     7
370
    13
100
AcDbLine
 10
92.348042
 20
6.750417
 30
0.0
 11
92.348042
 21
6.568875
 31
0.0
  0
LWPOLYLINE
  5
2F2
330
468
100
AcDbEntity
  8
Level 1
  6
Continuous
 62
     7
370
    13
100
AcDbPolyline
 90
        6
 70
   128
 43
0.0
 10
92.348042
 20
6.569698
 10
92.411875
 20
6.53074
 10
92.252708
 20
6.504208
 10
92.464927
 20
6.47851
 10
92.30576
 20
6.466073
 10
92.348042
 20
6.427115
  0
LINE
  5
2F3
330
468
100
AcDbEntity
  8
Level 1
  6
Continuous
 62
     7
370
    13
100
AcDbLine
 10
92.348042
 20
6.426281
 30
0.0
 11
92.348042
 21
6.077281
 31
0.0
  0
LINE
  5
2F4
330
468
100
AcDbEntity
  8
Level 1
  6
Continuous
 62
     7
370
    13
100
AcDbLine
 10
91.902042
 20
6.699021
 30
0.0
 11
91.902042
 21
6.89301
 31
0.0
  0
LINE
  5
2F5
330
468
100
AcDbEntity
  8
Level 1
  6
Continuous
 62
     7
370
    13
100
AcDbLine
 10
91.456875
 20
6.517479
 30
0.0
 11
91.456875
 21
6.880573
 31
0.0
  0
LINE
  5
2F6
330
468
100
AcDbEntity
  8
Level 1
  6
Continuous
 62
     7
370
    13
100
AcDbLine
 10
91.446104
 20
6.828344
 30
0.0
 11
91.902042
 21
6.828344
 31
0.0
  0
LINE
  5
2F7
330
468
100
AcDbEntity
  8
Level 1
  6
Continuous
 62
     7
370
    13
100
AcDbLine
 10
91.658323
 20
6.621094
 30
0.0
 11
91.233875
 21
6.621094
 31
0.0
  0
LINE
  5
2F8
330
468
100
AcDbEntity
  8
Level 1
  6
Continuous
 62
     7
370
    13
100
AcDbLine
 10
91.27699
 20
6.621094
 30
0.0
 11
91.27699
 21
6.427115
 31
0.0
  0
LINE
  5
2F9
330
468
100
AcDbEntity
  8
Level 1
  6
Continuous
 62
     7
370
    13
100
AcDbLine
 10
93.03776
 20
6.828344
 30
0.0
 11
93.03776
 21
6.11625
 31
0.0
  0
LWPOLYLINE
  5
323
330
468
100
AcDbEntity
  8
Level 1
  6
Continuous
 62
     7
370
    13
100
AcDbPolyline
 90
        5
 70
   128
 43
0.0
 10
91.267865
 20
6.616958
 10
91.27201
 20
6.616958
 10
91.25875
 20
6.550635
 10
91.285281
 20
6.550635
 10
91.267865
 20
6.616958
  0
LWPOLYLINE
  5
324
330
468
100
AcDbEntity
  8
Level 1
  6
Continuous
 62
     7
370
    13
100
AcDbPolyline
 90
        5
 70
   128
 43
0.0
 10
91.27201
 20
6.429604
 10
91.27201
 20
6.429604
 10
91.262896
 20
6.473542
 10
91.285281
 20
6.473542
 10
91.27201
 20
6.429604
  0
LWPOLYLINE
  5
325
330
468
100
AcDbEntity
  8
Level 1
  6
Continuous
 62
     7
370
    13
100
AcDbPolyline
 90
        5
 70
   128
 43
0.0
 10
91.456875
 20
6.825854
 10
91.456875
 20
6.825854
 10
91.551385
 20
6.809281
 10
91.555531
 20
6.842437
 10
91.456875
 20
6.825854
  0
LWPOLYLINE
  5
326
330
468
100
AcDbEntity
  8
Level 1
  6
Continuous
 62
     7
370
    13
100
AcDbPolyline
 90
        5
 70
   128
 43
0.0
 10
91.898729
 20
6.825854
 10
91.898729
 20
6.825854
 10
91.808365
 20
6.809281
 10
91.808365
 20
6.836635
 10
91.898729
 20
6.825854
  0
LINE
  5
327
330
468
100
AcDbEntity
  8
Level 1
  6
Continuous
 62
     7
370
    13
100
AcDbLine
 10
91.898729
 20
6.946885
 30
0.0
 11
91.898729
 21
7.079531
 31
0.0
  0
LINE
  5
328
330
468
100
AcDbEntity
  8
Level 1
  6
Continuous
 62
     7
370
    13
100
AcDbLine
 10
91.89375
 20
7.040563
 30
0.0
 11
92.21374
 21
7.040563
 31
0.0
  0
LWPOLYLINE
  5
329
330
468
100
AcDbEntity
  8
Level 1
  6
Continuous
 62
     7
370
    13
100
AcDbPolyline
 90
        5
 70
   128
 43
0.0
 10
91.89375
 20
7.040563
 10
91.89375
 20
7.040563
 10
91.993229
 20
7.02399
 10
91.993229
 20
7.057146
 10
91.89375
 20
7.040563
  0
LWPOLYLINE
  5
32B
330
468
100
AcDbEntity
  8
Level 1
  6
Continuous
 62
     7
370
    13
100
AcDbPolyline
 90
        3
 70
   128
 43
0.0
 10
91.78101
 20
6.11625
 10
91.664125
 20
6.11625
 10
91.569615
 20
6.275406
  0
LINE
  5
32C
330
468
100
AcDbEntity
  8
Level 1
  6
Continuous
 62
     7
370
    13
100
AcDbLine
 10
91.659979
 20
6.11625
 30
0.0
 11
91.087146
 21
6.2265
 31
0.0
  0
LWPOLYLINE
  5
32D
330
468
100
AcDbEntity
  8
Level 1
  6
Continuous
 62
     7
370
    13
100
AcDbPolyline
 90
        5
 70
   128
 43
0.0
 10
91.564646
 20
6.270437
 10
91.564646
 20
6.270437
 10
91.592
 20
6.199146
 10
91.619354
 20
6.220698
 10
91.564646
 20
6.270437
  0
LWPOLYLINE
  5
32E
330
468
100
AcDbEntity
  8
Level 1
  6
Continuous
 62
     7
370
    13
100
AcDbPolyline
 90
        5
 70
   128
 43
0.0
 10
91.083
 20
6.220698
 10
91.083
 20
6.220698
 10
91.159271
 20
6.193344
 10
91.172531
 20
6.220698
 10
91.083
 20
6.220698
  0
LWPOLYLINE
  5
331
330
468
100
AcDbEntity
  8
Level 1
  6
Continuous
 62
     7
370
    13
100
AcDbPolyline
 90
        3
 70
   128
 43
0.0
 10
92.485646
 20
6.867312
 10
92.294979
 20
6.854042
 10
92.061208
 20
6.634365
  0
LWPOLYLINE
  5
332
330
468
100
AcDbEntity
  8
Level 1
  6
Continuous
 62
     7
370
    13
100
AcDbPolyline
 90
        5
 70
   128
 43
0.0
 10
92.044625
 20
6.617781
 10
92.044625
 20
6.617781
 10
92.115927
 20
6.668354
 10
92.095198
 20
6.689906
 10
92.044625
 20
6.617781
  0
LINE
  5
333
330
468
100
AcDbEntity
  8
Level 1
  6
Continuous
 62
     7
370
    13
100
AcDbLine
 10
93.371833
 20
6.700677
 30
0.0
 11
93.038583
 21
6.700677
 31
0.0
  0
LWPOLYLINE
  5
334
330
468
100
AcDbEntity
  8
Level 1
  6
Continuous
 62
     7
370
    13
100
AcDbPolyline
 90
        5
 70
   128
 43
0.0
 10
93.036927
 20
6.700677
 10
93.036927
 20
6.700677
 10
93.133917
 20
6.686583
 10
93.133917
 20
6.714771
 10
93.036927
 20
6.700677
  0
LINE
  5
336
330
468
100
AcDbEntity
  8
Level 1
  6
Continuous
 62
     7
370
    13
100
AcDbLine
 10
93.302208
 20
6.466073
 30
0.0
 11
93.026979
 21
6.427115
 31
0.0
  0
LWPOLYLINE
  5
337
330
468
100
AcDbEntity
  8
Level 1
  6
Continuous
 62
     7
370
    13
100
AcDbPolyline
 90
        5
 70
   128
 43
0.0
 10
93.036927
 20
6.427115
 10
93.036927
 20
6.427115
 10
93.10325
 20
6.425458
 10
93.10076
 20
6.445354
 10
93.036927
 20
6.427115
  0
LINE
  5
33A
330
468
100
AcDbEntity
  8
Level 1
  6
Continuous
 62
     7
370
    13
100
AcDbLine
 10
94.590561
 20
6.610323
 30
0.0
 11
97.339068
 21
6.610323
 31
0.0
  0
LINE
  5
33B
330
468
100
AcDbEntity
  8
Level 1
  6
Continuous
 62
     7
370
    13
100
AcDbLine
 10
95.416658
 20
6.380069
 30
0.0
 11
96.557958
 21
6.380069
 31
0.0
  0
LWPOLYLINE
  5
33C
330
468
100
AcDbEntity
  8
Level 1
  6
Continuous
 62
     7
370
    13
100
AcDbPolyline
 90
       13
 70
   128
 43
0.0
 10
90.944563
 20
6.320177
 10
90.944563
 20
6.320177
 10
90.952021
 20
6.337583
 10
90.960313
 20
6.35251
 10
90.969437
 20
6.364937
 10
90.980208
 20
6.376552
 10
90.991812
 20
6.38649
 10
91.005906
 20
6.395615
 10
91.020833
 20
6.403906
 10
91.037406
 20
6.412198
 10
90.961969
 20
6.369917
 10
90.99099
 20
6.390635
 10
91.037406
 20
6.412198
  0
LWPOLYLINE
  5
33D
330
468
100
AcDbEntity
  8
Level 1
  6
Continuous
 62
     7
370
    13
100
AcDbPolyline
 90
       31
 70
   128
 43
0.0
 10
91.135229
 20
6.412198
 10
91.135229
 20
6.412198
 10
91.119479
 20
6.40225
 10
91.105385
 20
6.393125
 10
91.092948
 20
6.385667
 10
91.083
 20
6.378208
 10
91.073885
 20
6.372406
 10
91.065594
 20
6.366604
 10
91.058135
 20
6.360792
 10
91.052333
 20
6.355823
 10
91.045698
 20
6.350021
 10
91.039896
 20
6.345042
 10
91.034094
 20
6.33924
 10
91.029115
 20
6.333437
 10
91.023313
 20
6.327635
 10
91.018344
 20
6.321833
 10
91.014198
 20
6.315198
 10
91.009219
 20
6.30774
 10
91.00425
 20
6.300281
 10
91.000104
 20
6.29199
 10
90.995135
 20
6.282875
 10
90.990156
 20
6.272927
 10
90.985187
 20
6.262146
 10
90.979385
 20
6.249708
 10
90.973573
 20
6.236448
 10
90.967771
 20
6.221531
 10
91.088802
 20
6.38401
 10
91.048187
 20
6.355823
 10
91.008396
 20
6.313542
 10
90.985187
 20
6.263802
 10
90.967771
 20
6.221531
  0
LWPOLYLINE
  5
33E
330
468
100
AcDbEntity
  8
Level 1
  6
Continuous
 62
     7
370
    13
100
AcDbPolyline
 90
       31
 70
   128
 43
0.0
 10
91.187458
 20
6.362458
 10
91.187458
 20
6.362458
 10
91.169219
 20
6.35499
 10
91.155125
 20
6.348365
 10
91.142687
 20
6.341729
 10
91.13274
 20
6.335094
 10
91.125281
 20
6.330125
 10
91.118646
 20
6.324323
 10
91.113677
 20
6.319344
 10
91.108698
 20
6.314375
 10
91.104563
 20
6.309396
 10
91.100417
 20
6.304427
 10
91.096271
 20
6.300281
 10
91.092125
 20
6.295302
 10
91.087979
 20
6.290333
 10
91.084667
 20
6.284531
 10
91.080521
 20
6.278729
 10
91.076375
 20
6.272927
 10
91.072229
 20
6.267125
 10
91.068083
 20
6.259656
 10
91.063937
 20
6.252198
 10
91.059792
 20
6.24474
 10
91.054823
 20
6.236448
 10
91.04901
 20
6.227333
 10
91.043208
 20
6.217385
 10
91.037406
 20
6.207438
 10
91.135229
 20
6.341729
 10
91.106219
 20
6.313542
 10
91.077198
 20
6.277896
 10
91.054823
 20
6.235615
 10
91.037406
 20
6.207438
  0
LWPOLYLINE
  5
33F
330
468
100
AcDbEntity
  8
Level 1
  6
Continuous
 62
     7
370
    13
100
AcDbPolyline
 90
       22
 70
   128
 43
0.0
 10
91.187458
 20
6.285354
 10
91.187458
 20
6.285354
 10
91.17751
 20
6.280385
 10
91.169219
 20
6.275406
 10
91.162583
 20
6.27126
 10
91.156781
 20
6.267948
 10
91.152635
 20
6.263802
 10
91.149323
 20
6.26049
 10
91.14601
 20
6.257177
 10
91.144344
 20
6.253031
 10
91.141865
 20
6.248885
 10
91.140208
 20
6.243906
 10
91.137719
 20
6.238937
 10
91.135229
 20
6.232302
 10
91.13274
 20
6.224844
 10
91.128594
 20
6.215719
 10
91.123625
 20
6.205771
 10
91.117823
 20
6.193344
 10
91.158437
 20
6.270437
 10
91.141031
 20
6.256344
 10
91.135229
 20
6.228156
 10
91.117823
 20
6.193344
  0
LWPOLYLINE
  5
340
330
468
100
AcDbEntity
  8
Level 1
  6
Continuous
 62
     7
370
    13
100
AcDbPolyline
 90
       13
 70
   128
 43
0.0
 10
91.453563
 20
6.320177
 10
91.453563
 20
6.320177
 10
91.460198
 20
6.337583
 10
91.468479
 20
6.35251
 10
91.477604
 20
6.364937
 10
91.488375
 20
6.376552
 10
91.500812
 20
6.38649
 10
91.514073
 20
6.395615
 10
91.529
 20
6.403906
 10
91.545583
 20
6.412198
 10
91.470969
 20
6.369917
 10
91.499156
 20
6.390635
 10
91.545583
 20
6.412198
  0
LWPOLYLINE
  5
341
330
468
100
AcDbEntity
  8
Level 1
  6
Continuous
 62
     7
370
    13
100
AcDbPolyline
 90
       13
 70
   128
 43
0.0
 10
91.973333
 20
6.320177
 10
91.973333
 20
6.320177
 10
91.979969
 20
6.337583
 10
91.98826
 20
6.35251
 10
91.998208
 20
6.364937
 10
92.008979
 20
6.376552
 10
92.020594
 20
6.38649
 10
92.034677
 20
6.395615
 10
92.049604
 20
6.403906
 10
92.066187
 20
6.412198
 10
91.99075
 20
6.369917
 10
92.01976
 20
6.390635
 10
92.066187
 20
6.412198
  0
LWPOLYLINE
  5
342
330
468
100
AcDbEntity
  8
Level 1
  6
Continuous
 62
     7
370
    13
100
AcDbPolyline
 90
       13
 70
   128
 43
0.0
 10
92.487313
 20
6.320177
 10
92.487313
 20
6.320177
 10
92.494771
 20
6.337583
 10
92.503062
 20
6.35251
 10
92.512177
 20
6.364937
 10
92.522958
 20
6.376552
 10
92.535385
 20
6.38649
 10
92.548656
 20
6.395615
 10
92.563573
 20
6.403906
 10
92.580156
 20
6.412198
 10
92.504719
 20
6.369917
 10
92.533729
 20
6.390635
 10
92.580156
 20
6.412198
  0
LWPOLYLINE
  5
343
330
468
100
AcDbEntity
  8
Level 1
  6
Continuous
 62
     7
370
    13
100
AcDbPolyline
 90
       31
 70
   128
 43
0.0
 10
91.638427
 20
6.412198
 10
91.638427
 20
6.412198
 10
91.621844
 20
6.40225
 10
91.60775
 20
6.393125
 10
91.596146
 20
6.385667
 10
91.585375
 20
6.378208
 10
91.57625
 20
6.372406
 10
91.568792
 20
6.366604
 10
91.561333
 20
6.360792
 10
91.554698
 20
6.355823
 10
91.548896
 20
6.350021
 10
91.543094
 20
6.345042
 10
91.537292
 20
6.33924
 10
91.53149
 20
6.333437
 10
91.52651
 20
6.327635
 10
91.521542
 20
6.321833
 10
91.516562
 20
6.315198
 10
91.511594
 20
6.30774
 10
91.507448
 20
6.300281
 10
91.502469
 20
6.29199
 10
91.4975
 20
6.282875
 10
91.493354
 20
6.272927
 10
91.487552
 20
6.262146
 10
91.482573
 20
6.249708
 10
91.476771
 20
6.236448
 10
91.470969
 20
6.221531
 10
91.592
 20
6.38401
 10
91.551385
 20
6.355823
 10
91.51076
 20
6.313542
 10
91.487552
 20
6.263802
 10
91.470969
 20
6.221531
  0
LWPOLYLINE
  5
344
330
468
100
AcDbEntity
  8
Level 1
  6
Continuous
 62
     7
370
    13
100
AcDbPolyline
 90
       31
 70
   128
 43
0.0
 10
92.164
 20
6.412198
 10
92.164
 20
6.412198
 10
92.14825
 20
6.40225
 10
92.134156
 20
6.393125
 10
92.121729
 20
6.385667
 10
92.110948
 20
6.378208
 10
92.102656
 20
6.372406
 10
92.094365
 20
6.366604
 10
92.086906
 20
6.360792
 10
92.081104
 20
6.355823
 10
92.074469
 20
6.350021
 10
92.068667
 20
6.345042
 10
92.062865
 20
6.33924
 10
92.057896
 20
6.333437
 10
92.052917
 20
6.327635
 10
92.047948
 20
6.321833
 10
92.042969
 20
6.315198
 10
92.038
 20
6.30774
 10
92.033021
 20
6.300281
 10
92.028875
 20
6.29199
 10
92.023906
 20
6.282875
 10
92.018927
 20
6.272927
 10
92.013958
 20
6.262146
 10
92.008156
 20
6.249708
 10
92.002354
 20
6.236448
 10
91.996552
 20
6.221531
 10
92.117583
 20
6.38401
 10
92.077792
 20
6.355823
 10
92.037167
 20
6.313542
 10
92.013958
 20
6.263802
 10
91.996552
 20
6.221531
  0
LWPOLYLINE
  5
345
330
468
100
AcDbEntity
  8
Level 1
  6
Continuous
 62
     7
370
    13
100
AcDbPolyline
 90
       31
 70
   128
 43
0.0
 10
92.678802
 20
6.412198
 10
92.678802
 20
6.412198
 10
92.662229
 20
6.40225
 10
92.648135
 20
6.393125
 10
92.636531
 20
6.385667
 10
92.62575
 20
6.378208
 10
92.616635
 20
6.372406
 10
92.608344
 20
6.366604
 10
92.601708
 20
6.360792
 10
92.595073
 20
6.355823
 10
92.589271
 20
6.350021
 10
92.583469
 20
6.345042
 10
92.577667
 20
6.33924
 10
92.571865
 20
6.333437
 10
92.566896
 20
6.327635
 10
92.561917
 20
6.321833
 10
92.556948
 20
6.315198
 10
92.551969
 20
6.30774
 10
92.547823
 20
6.300281
 10
92.542854
 20
6.29199
 10
92.537875
 20
6.282875
 10
92.533729
 20
6.272927
 10
92.527927
 20
6.262146
 10
92.522958
 20
6.249708
 10
92.517156
 20
6.236448
 10
92.510521
 20
6.221531
 10
92.632385
 20
6.38401
 10
92.59176
 20
6.355823
 10
92.551135
 20
6.313542
 10
92.527927
 20
6.263802
 10
92.510521
 20
6.221531
  0
LWPOLYLINE
  5
346
330
468
100
AcDbEntity
  8
Level 1
  6
Continuous
 62
     7
370
    13
100
AcDbPolyline
 90
       31
 70
   128
 43
0.0
 10
91.684021
 20
6.362458
 10
91.684021
 20
6.362458
 10
91.666615
 20
6.35499
 10
91.651687
 20
6.348365
 10
91.640083
 20
6.341729
 10
91.630135
 20
6.335094
 10
91.621844
 20
6.330125
 10
91.616042
 20
6.324323
 10
91.61024
 20
6.319344
 10
91.606094
 20
6.314375
 10
91.601125
 20
6.309396
 10
91.596979
 20
6.304427
 10
91.592833
 20
6.300281
 10
91.58951
 20
6.295302
 10
91.585375
 20
6.290333
 10
91.581229
 20
6.284531
 10
91.577906
 20
6.278729
 10
91.57376
 20
6.272927
 10
91.569615
 20
6.267125
 10
91.565479
 20
6.259656
 10
91.561333
 20
6.252198
 10
91.556354
 20
6.24474
 10
91.551385
 20
6.236448
 10
91.546406
 20
6.227333
 10
91.540604
 20
6.217385
 10
91.533969
 20
6.207438
 10
91.632625
 20
6.341729
 10
91.603604
 20
6.313542
 10
91.574594
 20
6.277896
 10
91.551385
 20
6.235615
 10
91.533969
 20
6.207438
  0
LWPOLYLINE
  5
347
330
468
100
AcDbEntity
  8
Level 1
  6
Continuous
 62
     7
370
    13
100
AcDbPolyline
 90
       31
 70
   128
 43
0.0
 10
92.210427
 20
6.362458
 10
92.210427
 20
6.362458
 10
92.192188
 20
6.35499
 10
92.178094
 20
6.348365
 10
92.165656
 20
6.341729
 10
92.155708
 20
6.335094
 10
92.14825
 20
6.330125
 10
92.141625
 20
6.324323
 10
92.136646
 20
6.319344
 10
92.131677
 20
6.314375
 10
92.127531
 20
6.309396
 10
92.123385
 20
6.304427
 10
92.11924
 20
6.300281
 10
92.115094
 20
6.295302
 10
92.110948
 20
6.290333
 10
92.107635
 20
6.284531
 10
92.10349
 20
6.278729
 10
92.099344
 20
6.272927
 10
92.095198
 20
6.267125
 10
92.091052
 20
6.259656
 10
92.086906
 20
6.252198
 10
92.08276
 20
6.24474
 10
92.077792
 20
6.236448
 10
92.07199
 20
6.227333
 10
92.066187
 20
6.217385
 10
92.060375
 20
6.207438
 10
92.158198
 20
6.341729
 10
92.129188
 20
6.313542
 10
92.100167
 20
6.277896
 10
92.077792
 20
6.235615
 10
92.060375
 20
6.207438
  0
LWPOLYLINE
  5
348
330
468
100
AcDbEntity
  8
Level 1
  6
Continuous
 62
     7
370
    13
100
AcDbPolyline
 90
       31
 70
   128
 43
0.0
 10
92.724396
 20
6.362458
 10
92.724396
 20
6.362458
 10
92.70699
 20
6.35499
 10
92.692073
 20
6.348365
 10
92.680458
 20
6.341729
 10
92.67051
 20
6.335094
 10
92.662229
 20
6.330125
 10
92.656427
 20
6.324323
 10
92.650615
 20
6.319344
 10
92.646479
 20
6.314375
 10
92.6415
 20
6.309396
 10
92.637354
 20
6.304427
 10
92.633208
 20
6.300281
 10
92.629896
 20
6.295302
 10
92.62575
 20
6.290333
 10
92.621604
 20
6.284531
 10
92.618292
 20
6.278729
 10
92.614146
 20
6.272927
 10
92.61
 20
6.267125
 10
92.605854
 20
6.259656
 10
92.601708
 20
6.252198
 10
92.59674
 20
6.24474
 10
92.59176
 20
6.236448
 10
92.586792
 20
6.227333
 10
92.580979
 20
6.217385
 10
92.574354
 20
6.207438
 10
92.673
 20
6.341729
 10
92.64399
 20
6.313542
 10
92.614969
 20
6.277896
 10
92.59176
 20
6.235615
 10
92.574354
 20
6.207438
  0
LWPOLYLINE
  5
349
330
468
100
AcDbEntity
  8
Level 1
  6
Continuous
 62
     7
370
    13
100
AcDbPolyline
 90
       22
 70
   128
 43
0.0
 10
91.701427
 20
6.285354
 10
91.701427
 20
6.285354
 10
91.691479
 20
6.280385
 10
91.683188
 20
6.275406
 10
91.676563
 20
6.27126
 10
91.671583
 20
6.267948
 10
91.666615
 20
6.263802
 10
91.663292
 20
6.26049
 10
91.660812
 20
6.257177
 10
91.658323
 20
6.253031
 10
91.656667
 20
6.248885
 10
91.654177
 20
6.243906
 10
91.652521
 20
6.238937
 10
91.650031
 20
6.232302
 10
91.646719
 20
6.224844
 10
91.642573
 20
6.215719
 10
91.638427
 20
6.205771
 10
91.632625
 20
6.193344
 10
91.67324
 20
6.270437
 10
91.655833
 20
6.256344
 10
91.650031
 20
6.228156
 10
91.632625
 20
6.193344
  0
LWPOLYLINE
  5
34A
330
468
100
AcDbEntity
  8
Level 1
  6
Continuous
 62
     7
370
    13
100
AcDbPolyline
 90
       22
 70
   128
 43
0.0
 10
92.216229
 20
6.285354
 10
92.216229
 20
6.285354
 10
92.206281
 20
6.280385
 10
92.19799
 20
6.275406
 10
92.191365
 20
6.27126
 10
92.185552
 20
6.267948
 10
92.181417
 20
6.263802
 10
92.178094
 20
6.26049
 10
92.174781
 20
6.257177
 10
92.172292
 20
6.253031
 10
92.170635
 20
6.248885
 10
92.168979
 20
6.243906
 10
92.16649
 20
6.238937
 10
92.164
 20
6.232302
 10
92.160687
 20
6.224844
 10
92.157375
 20
6.215719
 10
92.152396
 20
6.205771
 10
92.146594
 20
6.193344
 10
92.187219
 20
6.270437
 10
92.169802
 20
6.256344
 10
92.164
 20
6.228156
 10
92.146594
 20
6.193344
  0
LWPOLYLINE
  5
34B
330
468
100
AcDbEntity
  8
Level 1
  6
Continuous
 62
     7
370
    13
100
AcDbPolyline
 90
       22
 70
   128
 43
0.0
 10
92.724396
 20
6.285354
 10
92.724396
 20
6.285354
 10
92.714448
 20
6.280385
 10
92.706156
 20
6.275406
 10
92.699531
 20
6.27126
 10
92.694552
 20
6.267948
 10
92.689583
 20
6.263802
 10
92.68626
 20
6.26049
 10
92.683781
 20
6.257177
 10
92.681292
 20
6.253031
 10
92.679635
 20
6.248885
 10
92.677146
 20
6.243906
 10
92.67549
 20
6.238937
 10
92.673
 20
6.232302
 10
92.669687
 20
6.224844
 10
92.665542
 20
6.215719
 10
92.661396
 20
6.205771
 10
92.655594
 20
6.193344
 10
92.696208
 20
6.270437
 10
92.678802
 20
6.256344
 10
92.673
 20
6.228156
 10
92.655594
 20
6.193344
  0
CIRCLE
  5
34C
330
468
100
AcDbEntity
  8
Level 1
  6
Continuous
 62
     7
370
    13
100
AcDbCircle
 10
93.287945
 20
9.054425
 30
0.0
 40
0.01765743375
  0
CIRCLE
  5
34D
330
468
100
AcDbEntity
  8
Level 1
  6
Continuous
 62
     7
370
    13
100
AcDbCircle
 10
93.268961
 20
9.367285
 30
0.0
 40
0.01765743375
  0
CIRCLE
  5
34E
330
468
100
AcDbEntity
  8
Level 1
  6
Continuous
 62
     7
370
    13
100
AcDbCircle
 10
93.897333
 20
9.280573
 30
0.0
 40
0.01765743375
  0
CIRCLE
  5
34F
330
468
100
AcDbEntity
  8
Level 1
  6
Continuous
 62
     7
370
    13
100
AcDbCircle
 10
93.897333
 20
9.127542
 30
0.0
 40
0.01765743375
  0
CIRCLE
  5
350
330
468
100
AcDbEntity
  8
Level 1
  6
Continuous
 62
     7
370
    13
100
AcDbCircle
 10
94.229343
 20
9.36571
 30
0.0
 40
0.01765743375
  0
CIRCLE
  5
351
330
468
100
AcDbEntity
  8
Level 1
  6
Continuous
 62
     7
370
    13
100
AcDbCircle
 10
94.60504
 20
9.05285
 30
0.0
 40
0.01765743375
  0
CIRCLE
  5
352
330
468
100
AcDbEntity
  8
Level 1
  6
Continuous
 62
     7
370
    13
100
AcDbCircle
 10
94.928096
 20
9.368611
 30
0.0
 40
0.01765743375
  0
CIRCLE
  5
353
330
468
100
AcDbEntity
  8
Level 1
  6
Continuous
 62
     7
370
    13
100
AcDbCircle
 10
95.52248
 20
9.280407
 30
0.0
 40
0.01765743375
  0
CIRCLE
  5
354
330
468
100
AcDbEntity
  8
Level 1
  6
Continuous
 62
     7
370
    13
100
AcDbCircle
 10
95.863857
 20
9.365461
 30
0.0
 40
0.01765743375
  0
CIRCLE
  5
355
330
468
100
AcDbEntity
  8
Level 1
  6
Continuous
 62
     7
370
    13
100
AcDbCircle
 10
95.865184
 20
9.055337
 30
0.0
 40
0.01765743375
  0
CIRCLE
  5
356
330
468
100
AcDbEntity
  8
Level 1
  6
Continuous
 62
     7
370
    13
100
AcDbCircle
 10
91.929897
 20
8.393059
 30
0.0
 40
0.017574535
  0
CIRCLE
  5
357
330
468
100
AcDbEntity
  8
Level 1
  6
Continuous
 62
     7
370
    13
100
AcDbCircle
 10
91.9294
 20
8.07995
 30
0.0
 40
0.017574535
  0
CIRCLE
  5
358
330
468
100
AcDbEntity
  8
Level 1
  6
Continuous
 62
     7
370
    13
100
AcDbCircle
 10
92.571699
 20
8.291757
 30
0.0
 40
0.017574535
  0
CIRCLE
  5
359
330
468
100
AcDbEntity
  8
Level 1
  6
Continuous
 62
     7
370
    13
100
AcDbCircle
 10
92.571699
 20
8.129109
 30
0.0
 40
0.017574535
  0
CIRCLE
  5
35A
330
468
100
AcDbEntity
  8
Level 1
  6
Continuous
 62
     7
370
    13
100
AcDbCircle
 10
92.898901
 20
8.076966
 30
0.0
 40
0.017574535
  0
CIRCLE
  5
35B
330
468
100
AcDbEntity
  8
Level 1
  6
Continuous
 62
     7
370
    13
100
AcDbCircle
 10
92.972846
 20
8.121068
 30
0.0
 40
0.0180719275
  0
CIRCLE
  5
35C
330
468
100
AcDbEntity
  8
Level 1
  6
Continuous
 62
     7
370
    13
100
AcDbCircle
 10
93.25263
 20
8.394634
 30
0.0
 40
0.01765743375
  0
CIRCLE
  5
35D
330
468
100
AcDbEntity
  8
Level 1
  6
Continuous
 62
     7
370
    13
100
AcDbCircle
 10
93.270702
 20
8.079536
 30
0.0
 40
0.01765743375
  0
CIRCLE
  5
35E
330
468
100
AcDbEntity
  8
Level 1
  6
Continuous
 62
     7
370
    13
100
AcDbCircle
 10
93.898991
 20
8.292337
 30
0.0
 40
0.01765743375
  0
CIRCLE
  5
35F
330
468
100
AcDbEntity
  8
Level 1
  6
Continuous
 62
     7
370
    13
100
AcDbCircle
 10
93.935052
 20
8.12969
 30
0.0
 40
0.01765743375
  0
CIRCLE
  5
360
330
468
100
AcDbEntity
  8
Level 1
  6
Continuous
 62
     7
370
    13
100
AcDbCircle
 10
93.971196
 20
8.394634
 30
0.0
 40
0.01765743375
  0
CIRCLE
  5
361
330
468
100
AcDbEntity
  8
Level 1
  6
Continuous
 62
     7
370
    13
100
AcDbCircle
 10
94.609517
 20
8.292337
 30
0.0
 40
0.01765743375
  0
CIRCLE
  5
362
330
468
100
AcDbEntity
  8
Level 1
  6
Continuous
 62
     7
370
    13
100
AcDbCircle
 10
94.603465
 20
8.079536
 30
0.0
 40
0.01765743375
  0
CIRCLE
  5
363
330
468
100
AcDbEntity
  8
Level 1
  6
Continuous
 62
     7
370
    13
100
AcDbCircle
 10
95.211693
 20
8.395049
 30
0.0
 40
0.01765743375
  0
CIRCLE
  5
364
330
468
100
AcDbEntity
  8
Level 1
  6
Continuous
 62
     7
370
    13
100
AcDbCircle
 10
95.201662
 20
8.077961
 30
0.0
 40
0.01765743375
  0
CIRCLE
  5
365
330
468
100
AcDbEntity
  8
Level 1
  6
Continuous
 62
     7
370
    13
100
AcDbCircle
 10
95.865184
 20
8.297725
 30
0.0
 40
0.0160823575
  0
CIRCLE
  5
366
330
468
100
AcDbEntity
  8
Level 1
  6
Continuous
 62
     7
370
    13
100
AcDbCircle
 10
95.867256
 20
8.080945
 30
0.0
 40
0.0180719275
  0
LWPOLYLINE
  5
367
330
468
100
AcDbEntity
  8
Level 1
  6
Continuous
 62
     7
370
    40
100
AcDbPolyline
 90
        4
 70
   129
 43
0.0
 10
90.350177
 20
1.137344
 10
97.603823
 20
1.137344
 10
97.603823
 20
10.463458
 10
90.350177
 20
10.463458
  0
LINE
  5
36D
330
468
100
AcDbEntity
  8
Level 1
  6
Continuous
 62
     7
370
    13
100
AcDbLine
 10
95.914344
 20
4.507177
 30
0.0
 11
96.003042
 21
4.298271
 31
0.0
  0
LINE
  5
36E
330
468
100
AcDbEntity
  8
Level 1
  6
Continuous
 62
     7
370
    13
100
AcDbLine
 10
96.003042
 20
4.298271
 30
0.0
 11
96.162208
 21
4.298271
 31
0.0
  0
LWPOLYLINE
  5
36F
330
468
100
AcDbEntity
  8
Level 1
  6
Continuous
 62
     7
370
    13
100
AcDbPolyline
 90
        3
 70
   129
 43
0.0
 10
95.914344
 20
4.507177
 10
95.987292
 20
4.432573
 10
95.919313
 20
4.411021
  0
LINE
  5
381
330
468
100
AcDbEntity
  8
Level 1
  6
Continuous
 62
     7
370
    13
100
AcDbLine
 10
93.421573
 20
2.993448
 30
0.0
 11
93.335365
 21
2.993448
 31
0.0
  0
LINE
  5
382
330
468
100
AcDbEntity
  8
Level 1
  6
Continuous
 62
     7
370
    13
100
AcDbLine
 10
93.335365
 20
2.993448
 30
0.0
 11
92.90926
 21
2.795323
 31
0.0
  0
LWPOLYLINE
  5
383
330
468
100
AcDbEntity
  8
Level 1
  6
Continuous
 62
     7
370
    13
100
AcDbPolyline
 90
        3
 70
   129
 43
0.0
 10
92.90926
 20
2.795323
 10
92.979729
 20
2.858323
 10
93.009573
 20
2.813562
  0
LWPOLYLINE
  5
385
330
468
100
AcDbEntity
  8
Level 1
  6
Continuous
 62
     7
370
    13
100
AcDbPolyline
 90
        7
 70
   128
 43
0.0
 10
96.080135
 20
9.38826
 10
96.051125
 20
9.522552
 10
95.945844
 20
9.675083
 10
95.83476
 20
9.827625
 10
95.734448
 20
9.921302
 10
95.623365
 20
10.014969
 10
95.576948
 20
10.09124
  0
LWPOLYLINE
  5
386
330
468
100
AcDbEntity
  8
Level 1
  6
Continuous
 62
     7
370
    13
100
AcDbPolyline
 90
        4
 70
   128
 43
0.0
 10
91.770229
 20
9.019354
 10
91.800073
 20
8.696885
 10
91.782667
 20
8.53274
 10
91.776042
 20
8.410052
  0
LWPOLYLINE
  5
387
330
468
100
AcDbEntity
  8
Level 1
  6
Continuous
 62
     7
370
    13
100
AcDbPolyline
 90
        7
 70
   128
 43
0.0
 10
91.782667
 20
8.034521
 10
91.858104
 20
7.812354
 10
91.975823
 20
7.718677
 10
92.057896
 20
7.607594
 10
92.092708
 20
7.537125
 10
92.168979
 20
7.419417
 10
92.232812
 20
7.355583
  0
LWPOLYLINE
  5
388
330
468
100
AcDbEntity
  8
Level 1
  6
Continuous
 62
     7
370
    13
100
AcDbPolyline
 90
        6
 70
   128
 43
0.0
 10
96.068531
 20
9.025167
 10
96.09175
 20
8.825375
 10
96.051125
 20
8.643823
 10
96.068531
 20
8.515333
 10
96.068531
 20
8.43326
 10
96.080135
 20
8.410052
  0
LWPOLYLINE
  5
389
330
468
100
AcDbEntity
  8
Level 1
  6
Continuous
 62
     7
370
    13
100
AcDbPolyline
 90
        7
 70
   128
 43
0.0
 10
96.074333
 20
8.05276
 10
96.033719
 20
7.92924
 10
95.93424
 20
7.789146
 10
95.846365
 20
7.654021
 10
95.746885
 20
7.507281
 10
95.670625
 20
7.384594
 10
95.634979
 20
7.314135
  0
LINE
  5
38B
330
468
100
AcDbEntity
  8
Level 1
  6
Continuous
 62
     7
370
    13
100
AcDbLine
 10
93.51525
 20
8.744135
 30
0.0
 11
93.35775
 21
8.744135
 31
0.0
  0
LINE
  5
38C
330
468
100
AcDbEntity
  8
Level 1
  6
Continuous
 62
     7
370
    13
100
AcDbLine
 10
93.35775
 20
8.744135
 30
0.0
 11
92.65476
 21
8.895844
 31
0.0
  0
LINE
  5
38D
330
468
100
AcDbEntity
  8
Level 1
  6
Continuous
 62
     7
370
    13
100
AcDbLine
 10
94.67501
 20
8.744135
 30
0.0
 11
94.809302
 21
8.744135
 31
0.0
  0
LINE
  5
38E
330
468
100
AcDbEntity
  8
Level 1
  6
Continuous
 62
     7
370
    13
100
AcDbLine
 10
94.809302
 20
8.744135
 30
0.0
 11
95.301719
 21
8.515333
 31
0.0
  0
LWPOLYLINE
  5
38F
330
468
100
AcDbEntity
  8
Level 1
  6
Continuous
 62
     7
370
    13
100
AcDbPolyline
 90
        3
 70
   129
 43
0.0
 10
92.970604
 20
9.640271
 10
93.021177
 20
9.602135
 10
92.971437
 20
9.57975
  0
LWPOLYLINE
  5
390
330
468
100
AcDbEntity
  8
Level 1
  6
Continuous
 62
     7
370
    13
100
AcDbPolyline
 90
        3
 70
   129
 43
0.0
 10
95.664812
 20
9.569802
 10
95.649896
 20
9.51426
 10
95.61176
 20
9.549083
  0
LWPOLYLINE
  5
391
330
468
100
AcDbEntity
  8
Level 1
  6
Continuous
 62
     7
370
    13
100
AcDbPolyline
 90
        3
 70
   129
 43
0.0
 10
92.65476
 20
8.895844
 10
92.742635
 20
8.903302
 10
92.73849
 20
8.857708
  0
LWPOLYLINE
  5
392
330
468
100
AcDbEntity
  8
Level 1
  6
Continuous
 62
     7
370
    13
100
AcDbPolyline
 90
        3
 70
   129
 43
0.0
 10
92.92999
 20
7.911833
 10
92.929156
 20
8.001365
 10
92.994646
 20
7.970687
  0
LWPOLYLINE
  5
393
330
468
100
AcDbEntity
  8
Level 1
  6
Continuous
 62
     7
370
    13
100
AcDbPolyline
 90
        3
 70
   129
 43
0.0
 10
95.120177
 20
7.864583
 10
95.072917
 20
7.925094
 10
95.115198
 20
7.947479
  0
LWPOLYLINE
  5
394
330
468
100
AcDbEntity
  8
Level 1
  6
Continuous
 62
     7
370
    13
100
AcDbPolyline
 90
        3
 70
   129
 43
0.0
 10
95.301719
 20
8.515333
 10
95.21799
 20
8.53274
 10
95.241208
 20
8.574198
  0
LINE
  5
39B
330
468
100
AcDbEntity
  8
Level 1
  6
Continuous
 62
     7
370
    13
100
AcDbLine
 10
92.997969
 20
8.043646
 30
0.0
 11
92.92999
 21
7.911833
 31
0.0
  0
LINE
  5
39C
330
468
100
AcDbEntity
  8
Level 1
  6
Continuous
 62
     7
370
    13
100
AcDbLine
 10
93.044385
 20
8.134
 30
0.0
 11
93.013719
 21
8.074312
 31
0.0
  0
LINE
  5
39D
330
468
100
AcDbEntity
  8
Level 1
  6
Continuous
 62
     7
370
    13
100
AcDbLine
 10
93.101583
 20
8.245083
 30
0.0
 11
93.079208
 21
8.201979
 31
0.0
  0
LINE
  5
39E
330
468
100
AcDbEntity
  8
Level 1
  6
Continuous
 62
     7
370
    13
100
AcDbLine
 10
93.35775
 20
8.744135
 30
0.0
 11
93.19775
 21
8.432437
 31
0.0
  0
LINE
  5
39F
330
468
100
AcDbEntity
  8
Level 1
  6
Continuous
 62
     7
370
    13
100
AcDbLine
 10
93.181167
 20
8.400104
 30
0.0
 11
93.129771
 21
8.299802
 31
0.0
  0
LINE
  5
3A0
330
468
100
AcDbEntity
  8
Level 1
  6
Continuous
 62
     7
370
    13
100
AcDbLine
 10
94.809302
 20
8.744135
 30
0.0
 11
94.920385
 21
8.429948
 31
0.0
  0
LINE
  5
3A1
330
468
100
AcDbEntity
  8
Level 1
  6
Continuous
 62
     7
370
    13
100
AcDbLine
 10
94.932823
 20
8.395135
 30
0.0
 11
94.967635
 21
8.296479
 31
0.0
  0
LINE
  5
3A2
330
468
100
AcDbEntity
  8
Level 1
  6
Continuous
 62
     7
370
    13
100
AcDbLine
 10
94.989198
 20
8.235135
 30
0.0
 11
95.002458
 21
8.197
 31
0.0
  0
LINE
  5
3A3
330
468
100
AcDbEntity
  8
Level 1
  6
Continuous
 62
     7
370
    13
100
AcDbLine
 10
95.02401
 20
8.135656
 30
0.0
 11
95.043906
 21
8.079292
 31
0.0
  0
LINE
  5
3A4
330
468
100
AcDbEntity
  8
Level 1
  6
Continuous
 62
     7
370
    13
100
AcDbLine
 10
95.056344
 20
8.045302
 30
0.0
 11
95.120177
 21
7.864583
 31
0.0
  0
LINE
  5
3A5
330
468
100
AcDbEntity
  8
Level 1
  6
Continuous
 62
     7
370
    13
100
AcDbLine
 10
94.809302
 20
8.744135
 30
0.0
 11
95.0895
 21
9.015219
 31
0.0
  0
LINE
  5
3A6
330
468
100
AcDbEntity
  8
Level 1
  6
Continuous
 62
     7
370
    13
100
AcDbLine
 10
95.119344
 20
9.043396
 30
0.0
 11
95.211365
 21
9.132104
 31
0.0
  0
LINE
  5
3A7
330
468
100
AcDbEntity
  8
Level 1
  6
Continuous
 62
     7
370
    13
100
AcDbLine
 10
95.255302
 20
9.175208
 30
0.0
 11
95.299229
 21
9.21749
 31
0.0
  0
LINE
  5
3A8
330
468
100
AcDbEntity
  8
Level 1
  6
Continuous
 62
     7
370
    13
100
AcDbLine
 10
95.363896
 20
9.279656
 30
0.0
 11
95.455083
 21
9.367531
 31
0.0
  0
LINE
  5
3A9
330
468
100
AcDbEntity
  8
Level 1
  6
Continuous
 62
     7
370
    13
100
AcDbLine
 10
95.484094
 20
9.395719
 30
0.0
 11
95.664812
 21
9.569802
 31
0.0
  0
LINE
  5
3AA
330
468
100
AcDbEntity
  8
Level 1
  6
Continuous
 62
     7
370
    13
100
AcDbLine
 10
93.35775
 20
8.744135
 30
0.0
 11
93.238375
 21
9.020188
 31
0.0
  0
LINE
  5
3AB
330
468
100
AcDbEntity
  8
Level 1
  6
Continuous
 62
     7
370
    13
100
AcDbLine
 10
93.225104
 20
9.051687
 30
0.0
 11
93.189458
 21
9.134583
 31
0.0
  0
LINE
  5
3AC
330
468
100
AcDbEntity
  8
Level 1
  6
Continuous
 62
     7
370
    13
100
AcDbLine
 10
93.171219
 20
9.175208
 30
0.0
 11
93.154646
 21
9.214167
 31
0.0
  0
LINE
  5
3AD
330
468
100
AcDbEntity
  8
Level 1
  6
Continuous
 62
     7
370
    13
100
AcDbLine
 10
93.126458
 20
9.278833
 30
0.0
 11
93.08501
 21
9.374167
 31
0.0
  0
LINE
  5
3AE
330
468
100
AcDbEntity
  8
Level 1
  6
Continuous
 62
     7
370
    13
100
AcDbLine
 10
93.072573
 20
9.40401
 30
0.0
 11
92.970604
 21
9.640271
 31
0.0
  0
LWPOLYLINE
  5
3B2
330
468
100
AcDbEntity
  8
Level 1
  6
Continuous
 62
     7
370
    13
100
AcDbPolyline
 90
        3
 70
   128
 43
0.0
 10
91.928156
 20
7.319427
 10
91.991396
 20
7.319427
 10
92.139344
 20
7.414406
  0
LWPOLYLINE
  5
3B3
330
468
100
AcDbEntity
  8
Level 1
  6
Continuous
 62
     7
370
    13
100
AcDbPolyline
 90
        5
 70
   128
 43
0.0
 10
92.161608
 20
7.431301
 10
92.161608
 20
7.431301
 10
92.081848
 20
7.39552
 10
92.098004
 20
7.370353
 10
92.161608
 20
7.431301
  0
TEXT
  5
69
330
468
100
AcDbEntity
  8
Level 1
  6
Continuous
 62
     7
370
    13
100
AcDbText
 10
94.934479
 20
2.602763
 30
0.0
 40
0.09
  1
1)
  7
Style-Arial
 11
94.934479
 21
2.647763
 31
0.0
100
AcDbText
 73
     2
  0
TEXT
  5
6A
330
468
100
AcDbEntity
  8
Level 1
  6
Continuous
 62
     7
370
    13
100
AcDbText
 10
94.903802
 20
2.220596
 30
0.0
 40
0.09
  1
2)
  7
Style-Arial
 11
94.903802
 21
2.265596
 31
0.0
100
AcDbText
 73
     2
  0
TEXT
  5
A9
330
468
100
AcDbEntity
  8
Level 1
  6
Continuous
 62
     7
370
    13
100
AcDbText
 10
92.934135
 20
5.132277
 30
0.0
 40
0.09
  1
o
  7
Style-Arial
 11
92.934135
 21
5.177277
 31
0.0
100
AcDbText
 73
     2
  0
TEXT
  5
AA
330
468
100
AcDbEntity
  8
Level 1
  6
Continuous
 62
     7
370
    13
100
AcDbText
 10
92.805635
 20
5.17787
 30
0.0
 40
0.09
  1
o
  7
Style-Arial
 11
92.805635
 21
5.22287
 31
0.0
100
AcDbText
 73
     2
  0
TEXT
  5
AB
330
468
100
AcDbEntity
  8
Level 1
  6
Continuous
 62
     7
370
    13
100
AcDbText
 10
92.881073
 20
5.178704
 30
0.0
 40
0.09
  1
o
  7
Style-Arial
 11
92.881073
 21
5.223704
 31
0.0
100
AcDbText
 73
     2
  0
TEXT
  5
AC
330
468
100
AcDbEntity
  8
Level 1
  6
Continuous
 62
     7
370
    13
100
AcDbText
 10
95.77176
 20
5.077553
 30
0.0
 40
0.09
  1
o
  7
Style-Arial
 11
95.77176
 21
5.122553
 31
0.0
100
AcDbText
 73
     2
  0
TEXT
  5
AD
330
468
100
AcDbEntity
  8
Level 1
  6
Continuous
 62
     7
370
    13
100
AcDbText
 10
95.754614
 20
5.178886
 30
0.0
 40
0.09
  1
o
  7
Style-Arial
 11
95.754614
 21
5.223886
 31
0.0
100
AcDbText
 73
     2
  0
TEXT
  5
AE
330
468
100
AcDbEntity
  8
Level 1
  6
Continuous
 62
     7
370
    13
100
AcDbText
 10
95.908542
 20
5.13449
 30
0.0
 40
0.09
  1
o
  7
Style-Arial
 11
95.908542
 21
5.17949
 31
0.0
100
AcDbText
 73
     2
  0
TEXT
  5
AF
330
468
100
AcDbEntity
  8
Level 1
  6
Continuous
 62
     7
370
    13
100
AcDbText
 10
95.836417
 20
5.14998
 30
0.0
 40
0.09
  1
o
  7
Style-Arial
 11
95.836417
 21
5.19498
 31
0.0
100
AcDbText
 73
     2
  0
TEXT
  5
B0
330
468
100
AcDbEntity
  8
Level 1
  6
Continuous
 62
     7
370
    13
100
AcDbText
 10
95.972375
 20
5.13449
 30
0.0
 40
0.09
  1
o
  7
Style-Arial
 11
95.972375
 21
5.17949
 31
0.0
100
AcDbText
 73
     2
  0
TEXT
  5
B1
330
468
100
AcDbEntity
  8
Level 1
  6
Continuous
 62
     7
370
    13
100
AcDbText
 10
95.513115
 20
5.121636
 30
0.0
 40
0.09
  1
o
  7
Style-Arial
 11
95.513115
 21
5.166636
 31
0.0
100
AcDbText
 73
     2
  0
TEXT
  5
B2
330
468
100
AcDbEntity
  8
Level 1
  6
Continuous
 62
     7
370
    13
100
AcDbText
 10
95.555396
 20
5.169334
 30
0.0
 40
0.09
  1
o
  7
Style-Arial
 11
95.555396
 21
5.214334
 31
0.0
100
AcDbText
 73
     2
  0
TEXT
  5
B3
330
468
100
AcDbEntity
  8
Level 1
  6
Continuous
 62
     7
370
    13
100
AcDbText
 10
95.6615
 20
5.179969
 30
0.0
 40
0.09
  1
o
  7
Style-Arial
 11
95.6615
 21
5.224969
 31
0.0
100
AcDbText
 73
     2
  0
TEXT
  5
B4
330
468
100
AcDbEntity
  8
Level 1
  6
Continuous
 62
     7
370
    13
100
AcDbText
 10
95.625854
 20
5.112751
 30
0.0
 40
0.09
  1
o
  7
Style-Arial
 11
95.625854
 21
5.157751
 31
0.0
100
AcDbText
 73
     2
  0
TEXT
  5
B5
330
468
100
AcDbEntity
  8
Level 1
  6
Continuous
 62
     7
370
    13
100
AcDbText
 10
93.077044
 20
5.110116
 30
0.0
 40
0.09
  1
o
  7
Style-Arial
 11
93.077044
 21
5.155116
 31
0.0
100
AcDbText
 73
     2
  0
TEXT
  5
B6
330
468
100
AcDbEntity
  8
Level 1
  6
Continuous
 62
     7
370
    13
100
AcDbText
 10
93.15299
 20
5.118183
 30
0.0
 40
0.09
  1
o
  7
Style-Arial
 11
93.15299
 21
5.163183
 31
0.0
100
AcDbText
 73
     2
  0
TEXT
  5
B7
330
468
100
AcDbEntity
  8
Level 1
  6
Continuous
 62
     7
370
    13
100
AcDbText
 10
93.160448
 20
5.176214
 30
0.0
 40
0.09
  1
o
  7
Style-Arial
 11
93.160448
 21
5.221214
 31
0.0
100
AcDbText
 73
     2
  0
TEXT
  5
B8
330
468
100
AcDbEntity
  8
Level 1
  6
Continuous
 62
     7
370
    13
100
AcDbText
 10
93.070917
 20
5.176835
 30
0.0
 40
0.09
  1
o
  7
Style-Arial
 11
93.070917
 21
5.221835
 31
0.0
100
AcDbText
 73
     2
  0
TEXT
  5
B9
330
468
100
AcDbEntity
  8
Level 1
  6
Continuous
 62
     7
370
    13
100
AcDbText
 10
92.997135
 20
5.178704
 30
0.0
 40
0.09
  1
o
  7
Style-Arial
 11
92.997135
 21
5.223704
 31
0.0
100
AcDbText
 73
     2
  0
TEXT
  5
BA
330
468
100
AcDbEntity
  8
Level 1
  6
Continuous
 62
     7
370
    13
100
AcDbText
 10
92.993823
 20
5.097454
 30
0.0
 40
0.09
  1
o
  7
Style-Arial
 11
92.993823
 21
5.142454
 31
0.0
100
AcDbText
 73
     2
  0
TEXT
  5
BB
330
468
100
AcDbEntity
  8
Level 1
  6
Continuous
 62
     7
370
    13
100
AcDbText
 10
95.697309
 20
5.1
 30
0.0
 40
0.09
  1
o
  7
Style-Arial
 11
95.697309
 21
5.145
 31
0.0
100
AcDbText
 73
     2
  0
TEXT
  5
BC
330
468
100
AcDbEntity
  8
Level 1
  6
Continuous
 62
     7
370
    13
100
AcDbText
 10
96.040344
 20
5.130344
 30
0.0
 40
0.09
  1
o
  7
Style-Arial
 11
96.040344
 21
5.175344
 31
0.0
100
AcDbText
 73
     2
  0
TEXT
  5
BD
330
468
100
AcDbEntity
  8
Level 1
  6
Continuous
 62
     7
370
    13
100
AcDbText
 10
96.109979
 20
5.11874
 30
0.0
 40
0.09
  1
o
  7
Style-Arial
 11
96.109979
 21
5.16374
 31
0.0
100
AcDbText
 73
     2
  0
TEXT
  5
BE
330
468
100
AcDbEntity
  8
Level 1
  6
Continuous
 62
     7
370
    13
100
AcDbText
 10
96.180448
 20
5.121229
 30
0.0
 40
0.09
  1
o
  7
Style-Arial
 11
96.180448
 21
5.166229
 31
0.0
100
AcDbText
 73
     2
  0
TEXT
  5
BF
330
468
100
AcDbEntity
  8
Level 1
  6
Continuous
 62
     7
370
    13
100
AcDbText
 10
96.250083
 20
5.117083
 30
0.0
 40
0.09
  1
o
  7
Style-Arial
 11
96.250083
 21
5.162083
 31
0.0
100
AcDbText
 73
     2
  0
TEXT
  5
C0
330
468
100
AcDbEntity
  8
Level 1
  6
Continuous
 62
     7
370
    13
100
AcDbText
 10
96.323865
 20
5.115427
 30
0.0
 40
0.09
  1
o
  7
Style-Arial
 11
96.323865
 21
5.160427
 31
0.0
100
AcDbText
 73
     2
  0
TEXT
  5
C1
330
468
100
AcDbEntity
  8
Level 1
  6
Continuous
 62
     7
370
    13
100
AcDbText
 10
96.403448
 20
5.11376
 30
0.0
 40
0.09
  1
o
  7
Style-Arial
 11
96.403448
 21
5.15876
 31
0.0
100
AcDbText
 73
     2
  0
TEXT
  5
C2
330
468
100
AcDbEntity
  8
Level 1
  6
Continuous
 62
     7
370
    13
100
AcDbText
 10
96.483854
 20
5.11874
 30
0.0
 40
0.09
  1
o
  7
Style-Arial
 11
96.483854
 21
5.16374
 31
0.0
100
AcDbText
 73
     2
  0
TEXT
  5
C3
330
468
100
AcDbEntity
  8
Level 1
  6
Continuous
 62
     7
370
    13
100
AcDbText
 10
96.567583
 20
5.117083
 30
0.0
 40
0.09
  1
o
  7
Style-Arial
 11
96.567583
 21
5.162083
 31
0.0
100
AcDbText
 73
     2
  0
TEXT
  5
C4
330
468
100
AcDbEntity
  8
Level 1
  6
Continuous
 62
     7
370
    13
100
AcDbText
 10
96.653802
 20
5.11625
 30
0.0
 40
0.09
  1
o
  7
Style-Arial
 11
96.653802
 21
5.16125
 31
0.0
100
AcDbText
 73
     2
  0
TEXT
  5
C5
330
468
100
AcDbEntity
  8
Level 1
  6
Continuous
 62
     7
370
    13
100
AcDbText
 10
95.849677
 20
5.058219
 30
0.0
 40
0.09
  1
o
  7
Style-Arial
 11
95.849677
 21
5.103219
 31
0.0
100
AcDbText
 73
     2
  0
TEXT
  5
C6
330
468
100
AcDbEntity
  8
Level 1
  6
Continuous
 62
     7
370
    13
100
AcDbText
 10
95.939208
 20
5.055458
 30
0.0
 40
0.09
  1
o
  7
Style-Arial
 11
95.939208
 21
5.100458
 31
0.0
100
AcDbText
 73
     2
  0
TEXT
  5
C7
330
468
100
AcDbEntity
  8
Level 1
  6
Continuous
 62
     7
370
    13
100
AcDbText
 10
92.721083
 20
5.168756
 30
0.0
 40
0.09
  1
o
  7
Style-Arial
 11
92.721083
 21
5.213756
 31
0.0
100
AcDbText
 73
     2
  0
TEXT
  5
C8
330
468
100
AcDbEntity
  8
Level 1
  6
Continuous
 62
     7
370
    13
100
AcDbText
 10
92.634042
 20
5.163777
 30
0.0
 40
0.09
  1
o
  7
Style-Arial
 11
92.634042
 21
5.208777
 31
0.0
100
AcDbText
 73
     2
  0
TEXT
  5
C9
330
468
100
AcDbEntity
  8
Level 1
  6
Continuous
 62
     7
370
    13
100
AcDbText
 10
92.555281
 20
5.154662
 30
0.0
 40
0.09
  1
o
  7
Style-Arial
 11
92.555281
 21
5.199662
 31
0.0
100
AcDbText
 73
     2
  0
TEXT
  5
CA
330
468
100
AcDbEntity
  8
Level 1
  6
Continuous
 62
     7
370
    13
100
AcDbText
 10
92.475698
 20
5.153829
 30
0.0
 40
0.09
  1
o
  7
Style-Arial
 11
92.475698
 21
5.198829
 31
0.0
100
AcDbText
 73
     2
  0
TEXT
  5
CB
330
468
100
AcDbEntity
  8
Level 1
  6
Continuous
 62
     7
370
    13
100
AcDbText
 10
92.398604
 20
5.155485
 30
0.0
 40
0.09
  1
o
  7
Style-Arial
 11
92.398604
 21
5.200485
 31
0.0
100
AcDbText
 73
     2
  0
TEXT
  5
CC
330
468
100
AcDbEntity
  8
Level 1
  6
Continuous
 62
     7
370
    13
100
AcDbText
 10
92.331458
 20
5.157141
 30
0.0
 40
0.09
  1
o
  7
Style-Arial
 11
92.331458
 21
5.202141
 31
0.0
100
AcDbText
 73
     2
  0
TEXT
  5
CD
330
468
100
AcDbEntity
  8
Level 1
  6
Continuous
 62
     7
370
    13
100
AcDbText
 10
92.263479
 20
5.153829
 30
0.0
 40
0.09
  1
o
  7
Style-Arial
 11
92.263479
 21
5.198829
 31
0.0
100
AcDbText
 73
     2
  0
TEXT
  5
CE
330
468
100
AcDbEntity
  8
Level 1
  6
Continuous
 62
     7
370
    13
100
AcDbText
 10
92.18224
 20
5.143048
 30
0.0
 40
0.09
  1
o
  7
Style-Arial
 11
92.18224
 21
5.188048
 31
0.0
100
AcDbText
 73
     2
  0
TEXT
  5
CF
330
468
100
AcDbEntity
  8
Level 1
  6
Continuous
 62
     7
370
    13
100
AcDbText
 10
92.115094
 20
5.152173
 30
0.0
 40
0.09
  1
o
  7
Style-Arial
 11
92.115094
 21
5.197173
 31
0.0
100
AcDbText
 73
     2
  0
TEXT
  5
D0
330
468
100
AcDbEntity
  8
Level 1
  6
Continuous
 62
     7
370
    13
100
AcDbText
 10
92.039656
 20
5.140568
 30
0.0
 40
0.09
  1
o
  7
Style-Arial
 11
92.039656
 21
5.185568
 31
0.0
100
AcDbText
 73
     2
  0
TEXT
  5
D1
330
468
100
AcDbEntity
  8
Level 1
  6
Continuous
 62
     7
370
    13
100
AcDbText
 10
91.975823
 20
5.153829
 30
0.0
 40
0.09
  1
o
  7
Style-Arial
 11
91.975823
 21
5.198829
 31
0.0
100
AcDbText
 73
     2
  0
TEXT
  5
D2
330
468
100
AcDbEntity
  8
Level 1
  6
Continuous
 62
     7
370
    13
100
AcDbText
 10
92.86043
 20
5.093308
 30
0.0
 40
0.09
  1
o
  7
Style-Arial
 11
92.86043
 21
5.138308
 31
0.0
100
AcDbText
 73
     2
  0
TEXT
  5
D3
330
468
100
AcDbEntity
  8
Level 1
  6
Continuous
 62
     7
370
    13
100
AcDbText
 10
92.761708
 20
5.109068
 30
0.0
 40
0.09
  1
o
  7
Style-Arial
 11
92.761708
 21
5.154068
 31
0.0
100
AcDbText
 73
     2
  0
TEXT
  5
D4
330
468
100
AcDbEntity
  8
Level 1
  6
Continuous
 62
     7
370
    13
100
AcDbText
 10
92.65974
 20
5.080881
 30
0.0
 40
0.09
  1
o
  7
Style-Arial
 11
92.65974
 21
5.125881
 31
0.0
100
AcDbText
 73
     2
  0
TEXT
  5
D9
330
468
100
AcDbEntity
  8
Level 1
  6
Continuous
 62
     7
370
    13
100
AcDbText
 10
94.318265
 20
5.933635
 30
0.0
 40
0.09
  1
L TRACK
  7
Style-Arial
 11
94.318265
 21
5.978635
 31
0.0
100
AcDbText
 73
     2
  0
TEXT
  5
DA
330
468
100
AcDbEntity
  8
Level 1
  6
Continuous
 62
     7
370
    13
100
AcDbText
 10
94.287598
 20
5.986687
 30
0.0
 40
0.09
  1
C
  7
Style-Arial
 11
94.287598
 21
6.031687
 31
0.0
100
AcDbText
 73
     2
  0
TEXT
  5
DF
330
468
100
AcDbEntity
  8
Level 1
  6
Continuous
 62
     7
370
    13
100
AcDbText
 10
93.391581
 20
4.401445
 30
0.0
 40
0.09
  1
2% TYP.
 50
4.0
  7
Style-Arial
 11
93.388442
 21
4.446335
 31
0.0
100
AcDbText
 73
     2
  0
TEXT
  5
E0
330
468
100
AcDbEntity
  8
Level 1
  6
Continuous
 62
     7
370
    13
100
AcDbText
 10
94.894984
 20
4.402267
 30
0.0
 40
0.09
  1
2% TYP.
 50
356.0
  7
Style-Arial
 11
94.898123
 21
4.447157
 31
0.0
100
AcDbText
 73
     2
  0
TEXT
  5
E1
330
468
100
AcDbEntity
  8
Level 1
  6
Continuous
 62
     7
370
    13
100
AcDbText
 10
96.023771
 20
4.842688
 30
0.0
 40
0.09
  1
EXISTING ROADWAY
  7
Style-Arial
 11
96.023771
 21
4.887688
 31
0.0
100
AcDbText
 73
     2
  0
TEXT
  5
E2
330
468
100
AcDbEntity
  8
Level 1
  6
Continuous
 62
     7
370
    13
100
AcDbText
 10
91.478427
 20
4.842688
 30
0.0
 40
0.09
  1
EXISTING ROADWAY
  7
Style-Arial
 11
91.478427
 21
4.887688
 31
0.0
100
AcDbText
 73
     2
  0
TEXT
  5
E4
330
468
100
AcDbEntity
  8
Level 1
  6
Continuous
 62
     7
370
    13
100
AcDbText
 10
95.642908
 20
5.380243
 30
0.0
 40
0.09
  1
FLANGEWAY TIMBERS
  7
Style-Arial
 11
95.642908
 21
5.425243
 31
0.0
100
AcDbText
 73
     2
  0
TEXT
  5
E5
330
468
100
AcDbEntity
  8
Level 1
  6
Continuous
 62
     7
370
    13
100
AcDbText
 10
95.629723
 20
5.536552
 30
0.0
 40
0.09
  1
TIMBER FASTENERS
  7
Style-Arial
 11
95.629723
 21
5.581552
 31
0.0
100
AcDbText
 73
     2
  0
TEXT
  5
E6
330
468
100
AcDbEntity
  8
Level 1
  6
Continuous
 62
     7
370
    13
100
AcDbText
 10
92.789062
 20
5.776374
 30
0.0
 40
0.09
  1
CRUSHED STONE
  7
Style-Arial
 11
92.789062
 21
5.821374
 31
0.0
100
AcDbText
 73
     2
  0
TEXT
  5
E7
330
468
100
AcDbEntity
  8
Level 1
  6
Continuous
 62
     7
370
    13
100
AcDbText
 10
90.942073
 20
5.569491
 30
0.0
 40
0.09
  1
SLOPE AS REQUIRED FOR
  7
Style-Arial
 11
90.942073
 21
5.614491
 31
0.0
100
AcDbText
 73
     2
  0
TEXT
  5
E8
330
468
100
AcDbEntity
  8
Level 1
  6
Continuous
 62
     7
370
    13
100
AcDbText
 10
90.930469
 20
5.415801
 30
0.0
 40
0.09
  1
UNIFORM TRANSITION TO
  7
Style-Arial
 11
90.930469
 21
5.460801
 31
0.0
100
AcDbText
 73
     2
  0
TEXT
  5
E9
330
468
100
AcDbEntity
  8
Level 1
  6
Continuous
 62
     7
370
    13
100
AcDbText
 10
90.930469
 20
5.281012
 30
0.0
 40
0.09
  1
ADJACENT ROADWAY
  7
Style-Arial
 11
90.930469
 21
5.326012
 31
0.0
100
AcDbText
 73
     2
  0
TEXT
  5
FF
330
468
100
AcDbEntity
  8
Level 1
  6
Continuous
 62
     7
370
    13
100
AcDbText
 10
93.959753
 20
5.765669
 30
0.0
 40
0.09
  1
4
 50
0.0019
  7
Style-Arial
 11
93.959752
 21
5.810669
 31
0.0
100
AcDbText
 73
     2
  0
TEXT
  5
100
330
468
100
AcDbEntity
  8
Level 1
  6
Continuous
 62
     7
370
    13
100
AcDbText
 10
94.198021
 20
4.989542
 30
0.0
 40
0.09
  1
TIE  2
  7
Style-Arial
 11
94.198021
 21
5.034542
 31
0.0
100
AcDbText
 73
     2
  0
TEXT
  5
101
330
468
100
AcDbEntity
  8
Level 1
  6
Continuous
 62
     7
370
    13
100
AcDbText
 10
94.162862
 20
4.763761
 30
0.0
 40
0.09
  1
BALLAST  1
  7
Style-Arial
 11
94.162862
 21
4.808761
 31
0.0
100
AcDbText
 73
     2
  0
TEXT
  5
102
330
468
100
AcDbEntity
  8
Level 1
  6
Continuous
 62
     7
370
    13
100
AcDbText
 10
95.790998
 20
5.8216
 30
0.0
 40
0.09
  1
RAIL/TIE PLATE  3
  7
Style-Arial
 11
95.790998
 21
5.8666
 31
0.0
100
AcDbText
 73
     2
  0
TEXT
  5
104
330
468
100
AcDbEntity
  8
Level 1
  6
Continuous
 62
     7
370
    13
100
AcDbText
 10
96.980096
 20
5.576268
 30
0.0
 40
0.09
  1
6
  7
Style-Arial
 11
96.980096
 21
5.621268
 31
0.0
100
AcDbText
 73
     2
  0
TEXT
  5
105
330
468
100
AcDbEntity
  8
Level 1
  6
Continuous
 62
     7
370
    13
100
AcDbText
 10
97.119077
 20
5.394183
 30
0.0
 40
0.09
  1
5
  7
Style-Arial
 11
97.119077
 21
5.439183
 31
0.0
100
AcDbText
 73
     2
  0
TEXT
  5
108
330
468
100
AcDbEntity
  8
Level 1
  6
Continuous
 62
     7
370
    13
100
AcDbText
 10
94.049092
 20
5.160261
 30
0.0
 40
0.09
  1
o
  7
Style-Arial
 11
94.049092
 21
5.205261
 31
0.0
100
AcDbText
 73
     2
  0
TEXT
  5
109
330
468
100
AcDbEntity
  8
Level 1
  6
Continuous
 62
     7
370
    13
100
AcDbText
 10
94.166562
 20
5.142042
 30
0.0
 40
0.09
  1
o
  7
Style-Arial
 11
94.166562
 21
5.187042
 31
0.0
100
AcDbText
 73
     2
  0
TEXT
  5
10A
330
468
100
AcDbEntity
  8
Level 1
  6
Continuous
 62
     7
370
    13
100
AcDbText
 10
94.285299
 20
5.116136
 30
0.0
 40
0.09
  1
o
  7
Style-Arial
 11
94.285299
 21
5.161136
 31
0.0
100
AcDbText
 73
     2
  0
TEXT
  5
10B
330
468
100
AcDbEntity
  8
Level 1
  6
Continuous
 62
     7
370
    13
100
AcDbText
 10
94.354458
 20
5.168313
 30
0.0
 40
0.09
  1
o
  7
Style-Arial
 11
94.354458
 21
5.213313
 31
0.0
100
AcDbText
 73
     2
  0
TEXT
  5
10C
330
468
100
AcDbEntity
  8
Level 1
  6
Continuous
 62
     7
370
    13
100
AcDbText
 10
94.417988
 20
5.121251
 30
0.0
 40
0.09
  1
o
  7
Style-Arial
 11
94.417988
 21
5.166251
 31
0.0
100
AcDbText
 73
     2
  0
TEXT
  5
10D
330
468
100
AcDbEntity
  8
Level 1
  6
Continuous
 62
     7
370
    13
100
AcDbText
 10
94.493458
 20
5.180276
 30
0.0
 40
0.09
  1
o
  7
Style-Arial
 11
94.493458
 21
5.225276
 31
0.0
100
AcDbText
 73
     2
  0
TEXT
  5
10E
330
468
100
AcDbEntity
  8
Level 1
  6
Continuous
 62
     7
370
    13
100
AcDbText
 10
94.550656
 20
5.118183
 30
0.0
 40
0.09
  1
o
  7
Style-Arial
 11
94.550656
 21
5.163183
 31
0.0
100
AcDbText
 73
     2
  0
TEXT
  5
10F
330
468
100
AcDbEntity
  8
Level 1
  6
Continuous
 62
     7
370
    13
100
AcDbText
 10
94.612
 20
5.177037
 30
0.0
 40
0.09
  1
o
  7
Style-Arial
 11
94.612
 21
5.222037
 31
0.0
100
AcDbText
 73
     2
  0
TEXT
  5
110
330
468
100
AcDbEntity
  8
Level 1
  6
Continuous
 62
     7
370
    13
100
AcDbText
 10
94.651792
 20
5.112381
 30
0.0
 40
0.09
  1
o
  7
Style-Arial
 11
94.651792
 21
5.157381
 31
0.0
100
AcDbText
 73
     2
  0
TEXT
  5
126
330
468
100
AcDbEntity
  8
Level 1
  6
Continuous
 62
     7
370
    13
100
AcDbText
 10
93.48375
 20
2.788564
 30
0.0
 40
0.09
  1
FIELD SIDE
  7
Style-Arial
 11
93.48375
 21
2.833564
 31
0.0
100
AcDbText
 73
     2
  0
TEXT
  5
127
330
468
100
AcDbEntity
  8
Level 1
  6
Continuous
 62
     7
370
    13
100
AcDbText
 10
93.448104
 20
2.353506
 30
0.0
 40
0.09
  1
GAGE SIDE
  7
Style-Arial
 11
93.448104
 21
2.398506
 31
0.0
100
AcDbText
 73
     2
  0
TEXT
  5
149
330
468
100
AcDbEntity
  8
Level 1
  6
Continuous
 62
     7
370
    13
100
AcDbText
 10
92.99299
 20
3.41836
 30
0.0
 40
0.09
  1
MIN. BEARING ON TIE
  7
Style-Arial
 11
92.99299
 21
3.46336
 31
0.0
100
AcDbText
 73
     2
  0
TEXT
  5
14A
330
468
100
AcDbEntity
  8
Level 1
  6
Continuous
 62
     7
370
    13
100
AcDbText
 10
92.994646
 20
3.286558
 30
0.0
 40
0.09
  1
MIN. DISTANCE FOR FASTENER TO EDGE OF TIE
  7
Style-Arial
 11
92.994646
 21
3.331558
 31
0.0
100
AcDbText
 73
     2
  0
TEXT
  5
14B
330
468
100
AcDbEntity
  8
Level 1
  6
Continuous
 62
     7
370
    13
100
AcDbText
 10
92.997969
 20
3.14241
 30
0.0
 40
0.09
  1
MIN. DISTANCE FROM FASTENER TO END OF TIMBER
  7
Style-Arial
 11
92.997969
 21
3.18741
 31
0.0
100
AcDbText
 73
     2
  0
TEXT
  5
153
330
468
100
AcDbEntity
  8
Level 1
  6
Continuous
 62
     7
370
    13
100
AcDbText
 10
92.514667
 20
3.421928
 30
0.0
 40
0.09
  1
4"
  7
Style-Arial
 11
92.514667
 21
3.466928
 31
0.0
100
AcDbText
 73
     2
  0
TEXT
  5
154
330
468
100
AcDbEntity
  8
Level 1
  6
Continuous
 62
     7
370
    13
100
AcDbText
 10
92.521302
 20
3.287824
 30
0.0
 40
0.09
  1
2"
  7
Style-Arial
 11
92.521302
 21
3.332824
 31
0.0
100
AcDbText
 73
     2
  0
TEXT
  5
155
330
468
100
AcDbEntity
  8
Level 1
  6
Continuous
 62
     7
370
    13
100
AcDbText
 10
92.509687
 20
3.144793
 30
0.0
 40
0.09
  1
2"
  7
Style-Arial
 11
92.509687
 21
3.189793
 31
0.0
100
AcDbText
 73
     2
  0
TEXT
  5
22B
330
468
100
AcDbEntity
  8
Level 1
  6
Continuous
 62
     7
370
    13
100
AcDbText
 10
96.206979
 20
9.052281
 30
0.0
 40
0.09
  1
.
  7
Style-Arial
 11
96.206979
 21
9.097281
 31
0.0
100
AcDbText
 73
     2
  0
TEXT
  5
22C
330
468
100
AcDbEntity
  8
Level 1
  6
Continuous
 62
     7
370
    13
100
AcDbText
 10
96.303969
 20
9.053937
 30
0.0
 40
0.09
  1
.
  7
Style-Arial
 11
96.303969
 21
9.098937
 31
0.0
100
AcDbText
 73
     2
  0
TEXT
  5
22D
330
468
100
AcDbEntity
  8
Level 1
  6
Continuous
 62
     7
370
    13
100
AcDbText
 10
96.285729
 20
9.0755
 30
0.0
 40
0.09
  1
.
  7
Style-Arial
 11
96.285729
 21
9.1205
 31
0.0
100
AcDbText
 73
     2
  0
TEXT
  5
22E
330
468
100
AcDbEntity
  8
Level 1
  6
Continuous
 62
     7
370
    13
100
AcDbText
 10
96.230187
 20
9.074667
 30
0.0
 40
0.09
  1
.
  7
Style-Arial
 11
96.230187
 21
9.119667
 31
0.0
100
AcDbText
 73
     2
  0
TEXT
  5
22F
330
468
100
AcDbEntity
  8
Level 1
  6
Continuous
 62
     7
370
    13
100
AcDbText
 10
96.580021
 20
9.0755
 30
0.0
 40
0.09
  1
.
  7
Style-Arial
 11
96.580021
 21
9.1205
 31
0.0
100
AcDbText
 73
     2
  0
TEXT
  5
230
330
468
100
AcDbEntity
  8
Level 1
  6
Continuous
 62
     7
370
    13
100
AcDbText
 10
96.636396
 20
9.076323
 30
0.0
 40
0.09
  1
.
  7
Style-Arial
 11
96.636396
 21
9.121323
 31
0.0
100
AcDbText
 73
     2
  0
TEXT
  5
231
330
468
100
AcDbEntity
  8
Level 1
  6
Continuous
 62
     7
370
    13
100
AcDbText
 10
96.654625
 20
9.053937
 30
0.0
 40
0.09
  1
.
  7
Style-Arial
 11
96.654625
 21
9.098937
 31
0.0
100
AcDbText
 73
     2
  0
TEXT
  5
232
330
468
100
AcDbEntity
  8
Level 1
  6
Continuous
 62
     7
370
    13
100
AcDbText
 10
96.557635
 20
9.053115
 30
0.0
 40
0.09
  1
.
  7
Style-Arial
 11
96.557635
 21
9.098115
 31
0.0
100
AcDbText
 73
     2
  0
TEXT
  5
233
330
468
100
AcDbEntity
  8
Level 1
  6
Continuous
 62
     7
370
    13
100
AcDbText
 10
96.909125
 20
9.053937
 30
0.0
 40
0.09
  1
.
  7
Style-Arial
 11
96.909125
 21
9.098937
 31
0.0
100
AcDbText
 73
     2
  0
TEXT
  5
234
330
468
100
AcDbEntity
  8
Level 1
  6
Continuous
 62
     7
370
    13
100
AcDbText
 10
96.932344
 20
9.0755
 30
0.0
 40
0.09
  1
.
  7
Style-Arial
 11
96.932344
 21
9.1205
 31
0.0
100
AcDbText
 73
     2
  0
TEXT
  5
235
330
468
100
AcDbEntity
  8
Level 1
  6
Continuous
 62
     7
370
    13
100
AcDbText
 10
96.303969
 20
9.253729
 30
0.0
 40
0.09
  1
.
  7
Style-Arial
 11
96.303969
 21
9.298729
 31
0.0
100
AcDbText
 73
     2
  0
TEXT
  5
236
330
468
100
AcDbEntity
  8
Level 1
  6
Continuous
 62
     7
370
    13
100
AcDbText
 10
96.206979
 20
9.252896
 30
0.0
 40
0.09
  1
.
  7
Style-Arial
 11
96.206979
 21
9.297896
 31
0.0
100
AcDbText
 73
     2
  0
TEXT
  5
237
330
468
100
AcDbEntity
  8
Level 1
  6
Continuous
 62
     7
370
    13
100
AcDbText
 10
96.230187
 20
9.216427
 30
0.0
 40
0.09
  1
.
  7
Style-Arial
 11
96.230187
 21
9.261427
 31
0.0
100
AcDbText
 73
     2
  0
TEXT
  5
238
330
468
100
AcDbEntity
  8
Level 1
  6
Continuous
 62
     7
370
    13
100
AcDbText
 10
96.285729
 20
9.21725
 30
0.0
 40
0.09
  1
.
  7
Style-Arial
 11
96.285729
 21
9.26225
 31
0.0
100
AcDbText
 73
     2
  0
TEXT
  5
239
330
468
100
AcDbEntity
  8
Level 1
  6
Continuous
 62
     7
370
    13
100
AcDbText
 10
96.637219
 20
9.208958
 30
0.0
 40
0.09
  1
.
  7
Style-Arial
 11
96.637219
 21
9.253958
 31
0.0
100
AcDbText
 73
     2
  0
TEXT
  5
23A
330
468
100
AcDbEntity
  8
Level 1
  6
Continuous
 62
     7
370
    13
100
AcDbText
 10
96.581677
 20
9.208135
 30
0.0
 40
0.09
  1
.
  7
Style-Arial
 11
96.581677
 21
9.253135
 31
0.0
100
AcDbText
 73
     2
  0
TEXT
  5
23B
330
468
100
AcDbEntity
  8
Level 1
  6
Continuous
 62
     7
370
    13
100
AcDbText
 10
96.558469
 20
9.244604
 30
0.0
 40
0.09
  1
.
  7
Style-Arial
 11
96.558469
 21
9.289604
 31
0.0
100
AcDbText
 73
     2
  0
TEXT
  5
23C
330
468
100
AcDbEntity
  8
Level 1
  6
Continuous
 62
     7
370
    13
100
AcDbText
 10
96.655458
 20
9.245437
 30
0.0
 40
0.09
  1
.
  7
Style-Arial
 11
96.655458
 21
9.290437
 31
0.0
100
AcDbText
 73
     2
  0
TEXT
  5
23D
330
468
100
AcDbEntity
  8
Level 1
  6
Continuous
 62
     7
370
    13
100
AcDbText
 10
96.903323
 20
9.25124
 30
0.0
 40
0.09
  1
.
  7
Style-Arial
 11
96.903323
 21
9.29624
 31
0.0
100
AcDbText
 73
     2
  0
TEXT
  5
23E
330
468
100
AcDbEntity
  8
Level 1
  6
Continuous
 62
     7
370
    13
100
AcDbText
 10
96.927365
 20
9.21476
 30
0.0
 40
0.09
  1
.
  7
Style-Arial
 11
96.927365
 21
9.25976
 31
0.0
100
AcDbText
 73
     2
  0
TEXT
  5
241
330
468
100
AcDbEntity
  8
Level 1
  6
Continuous
 62
     7
370
    13
100
AcDbText
 10
96.932344
 20
8.10226
 30
0.0
 40
0.09
  1
.
  7
Style-Arial
 11
96.932344
 21
8.14726
 31
0.0
100
AcDbText
 73
     2
  0
TEXT
  5
242
330
468
100
AcDbEntity
  8
Level 1
  6
Continuous
 62
     7
370
    13
100
AcDbText
 10
96.909125
 20
8.080708
 30
0.0
 40
0.09
  1
.
  7
Style-Arial
 11
96.909125
 21
8.125708
 31
0.0
100
AcDbText
 73
     2
  0
TEXT
  5
243
330
468
100
AcDbEntity
  8
Level 1
  6
Continuous
 62
     7
370
    13
100
AcDbText
 10
96.557635
 20
8.085688
 30
0.0
 40
0.09
  1
.
  7
Style-Arial
 11
96.557635
 21
8.130688
 31
0.0
100
AcDbText
 73
     2
  0
TEXT
  5
244
330
468
100
AcDbEntity
  8
Level 1
  6
Continuous
 62
     7
370
    13
100
AcDbText
 10
96.580021
 20
8.10724
 30
0.0
 40
0.09
  1
.
  7
Style-Arial
 11
96.580021
 21
8.15224
 31
0.0
100
AcDbText
 73
     2
  0
TEXT
  5
245
330
468
100
AcDbEntity
  8
Level 1
  6
Continuous
 62
     7
370
    13
100
AcDbText
 10
96.654625
 20
8.085688
 30
0.0
 40
0.09
  1
.
  7
Style-Arial
 11
96.654625
 21
8.130688
 31
0.0
100
AcDbText
 73
     2
  0
TEXT
  5
246
330
468
100
AcDbEntity
  8
Level 1
  6
Continuous
 62
     7
370
    13
100
AcDbText
 10
96.636396
 20
8.108062
 30
0.0
 40
0.09
  1
.
  7
Style-Arial
 11
96.636396
 21
8.153062
 31
0.0
100
AcDbText
 73
     2
  0
TEXT
  5
247
330
468
100
AcDbEntity
  8
Level 1
  6
Continuous
 62
     7
370
    13
100
AcDbText
 10
96.285729
 20
8.10475
 30
0.0
 40
0.09
  1
.
  7
Style-Arial
 11
96.285729
 21
8.14975
 31
0.0
100
AcDbText
 73
     2
  0
TEXT
  5
248
330
468
100
AcDbEntity
  8
Level 1
  6
Continuous
 62
     7
370
    13
100
AcDbText
 10
96.303969
 20
8.082365
 30
0.0
 40
0.09
  1
.
  7
Style-Arial
 11
96.303969
 21
8.127365
 31
0.0
100
AcDbText
 73
     2
  0
TEXT
  5
249
330
468
100
AcDbEntity
  8
Level 1
  6
Continuous
 62
     7
370
    13
100
AcDbText
 10
96.230187
 20
8.10475
 30
0.0
 40
0.09
  1
.
  7
Style-Arial
 11
96.230187
 21
8.14975
 31
0.0
100
AcDbText
 73
     2
  0
TEXT
  5
24A
330
468
100
AcDbEntity
  8
Level 1
  6
Continuous
 62
     7
370
    13
100
AcDbText
 10
96.206979
 20
8.082365
 30
0.0
 40
0.09
  1
.
  7
Style-Arial
 11
96.206979
 21
8.127365
 31
0.0
100
AcDbText
 73
     2
  0
TEXT
  5
24B
330
468
100
AcDbEntity
  8
Level 1
  6
Continuous
 62
     7
370
    13
100
AcDbText
 10
96.206979
 20
8.278833
 30
0.0
 40
0.09
  1
.
  7
Style-Arial
 11
96.206979
 21
8.323833
 31
0.0
100
AcDbText
 73
     2
  0
TEXT
  5
24C
330
468
100
AcDbEntity
  8
Level 1
  6
Continuous
 62
     7
370
    13
100
AcDbText
 10
96.303969
 20
8.278833
 30
0.0
 40
0.09
  1
.
  7
Style-Arial
 11
96.303969
 21
8.323833
 31
0.0
100
AcDbText
 73
     2
  0
TEXT
  5
24D
330
468
100
AcDbEntity
  8
Level 1
  6
Continuous
 62
     7
370
    13
100
AcDbText
 10
96.230187
 20
8.234073
 30
0.0
 40
0.09
  1
.
  7
Style-Arial
 11
96.230187
 21
8.279073
 31
0.0
100
AcDbText
 73
     2
  0
TEXT
  5
24E
330
468
100
AcDbEntity
  8
Level 1
  6
Continuous
 62
     7
370
    13
100
AcDbText
 10
96.285729
 20
8.234073
 30
0.0
 40
0.09
  1
.
  7
Style-Arial
 11
96.285729
 21
8.279073
 31
0.0
100
AcDbText
 73
     2
  0
TEXT
  5
24F
330
468
100
AcDbEntity
  8
Level 1
  6
Continuous
 62
     7
370
    13
100
AcDbText
 10
96.63225
 20
8.236562
 30
0.0
 40
0.09
  1
.
  7
Style-Arial
 11
96.63225
 21
8.281562
 31
0.0
100
AcDbText
 73
     2
  0
TEXT
  5
250
330
468
100
AcDbEntity
  8
Level 1
  6
Continuous
 62
     7
370
    13
100
AcDbText
 10
96.576708
 20
8.236562
 30
0.0
 40
0.09
  1
.
  7
Style-Arial
 11
96.576708
 21
8.281562
 31
0.0
100
AcDbText
 73
     2
  0
TEXT
  5
251
330
468
100
AcDbEntity
  8
Level 1
  6
Continuous
 62
     7
370
    13
100
AcDbText
 10
96.929021
 20
8.229927
 30
0.0
 40
0.09
  1
.
  7
Style-Arial
 11
96.929021
 21
8.274927
 31
0.0
100
AcDbText
 73
     2
  0
TEXT
  5
252
330
468
100
AcDbEntity
  8
Level 1
  6
Continuous
 62
     7
370
    13
100
AcDbText
 10
96.652969
 20
8.2805
 30
0.0
 40
0.09
  1
.
  7
Style-Arial
 11
96.652969
 21
8.3255
 31
0.0
100
AcDbText
 73
     2
  0
TEXT
  5
253
330
468
100
AcDbEntity
  8
Level 1
  6
Continuous
 62
     7
370
    13
100
AcDbText
 10
96.555979
 20
8.2805
 30
0.0
 40
0.09
  1
.
  7
Style-Arial
 11
96.555979
 21
8.3255
 31
0.0
100
AcDbText
 73
     2
  0
TEXT
  5
254
330
468
100
AcDbEntity
  8
Level 1
  6
Continuous
 62
     7
370
    13
100
AcDbText
 10
96.906646
 20
8.274698
 30
0.0
 40
0.09
  1
.
  7
Style-Arial
 11
96.906646
 21
8.319698
 31
0.0
100
AcDbText
 73
     2
  0
TEXT
  5
255
330
468
100
AcDbEntity
  8
Level 1
  6
Continuous
 62
     7
370
    13
100
AcDbText
 10
91.521542
 20
8.239875
 30
0.0
 40
0.09
  1
.
  7
Style-Arial
 11
91.521542
 21
8.284875
 31
0.0
100
AcDbText
 73
     2
  0
TEXT
  5
256
330
468
100
AcDbEntity
  8
Level 1
  6
Continuous
 62
     7
370
    13
100
AcDbText
 10
91.498323
 20
8.272208
 30
0.0
 40
0.09
  1
.
  7
Style-Arial
 11
91.498323
 21
8.317208
 31
0.0
100
AcDbText
 73
     2
  0
TEXT
  5
257
330
468
100
AcDbEntity
  8
Level 1
  6
Continuous
 62
     7
370
    13
100
AcDbText
 10
91.49999
 20
8.080708
 30
0.0
 40
0.09
  1
.
  7
Style-Arial
 11
91.49999
 21
8.125708
 31
0.0
100
AcDbText
 73
     2
  0
TEXT
  5
258
330
468
100
AcDbEntity
  8
Level 1
  6
Continuous
 62
     7
370
    13
100
AcDbText
 10
91.521542
 20
8.10475
 30
0.0
 40
0.09
  1
.
  7
Style-Arial
 11
91.521542
 21
8.14975
 31
0.0
100
AcDbText
 73
     2
  0
TEXT
  5
259
330
468
100
AcDbEntity
  8
Level 1
  6
Continuous
 62
     7
370
    13
100
AcDbText
 10
91.591177
 20
8.272208
 30
0.0
 40
0.09
  1
.
  7
Style-Arial
 11
91.591177
 21
8.317208
 31
0.0
100
AcDbText
 73
     2
  0
TEXT
  5
25A
330
468
100
AcDbEntity
  8
Level 1
  6
Continuous
 62
     7
370
    13
100
AcDbText
 10
91.572937
 20
8.239875
 30
0.0
 40
0.09
  1
.
  7
Style-Arial
 11
91.572937
 21
8.284875
 31
0.0
100
AcDbText
 73
     2
  0
TEXT
  5
25B
330
468
100
AcDbEntity
  8
Level 1
  6
Continuous
 62
     7
370
    13
100
AcDbText
 10
91.572937
 20
8.10475
 30
0.0
 40
0.09
  1
.
  7
Style-Arial
 11
91.572937
 21
8.14975
 31
0.0
100
AcDbText
 73
     2
  0
TEXT
  5
25C
330
468
100
AcDbEntity
  8
Level 1
  6
Continuous
 62
     7
370
    13
100
AcDbText
 10
91.587031
 20
8.080708
 30
0.0
 40
0.09
  1
.
  7
Style-Arial
 11
91.587031
 21
8.125708
 31
0.0
100
AcDbText
 73
     2
  0
TEXT
  5
25D
330
468
100
AcDbEntity
  8
Level 1
  6
Continuous
 62
     7
370
    13
100
AcDbText
 10
91.166729
 20
8.10475
 30
0.0
 40
0.09
  1
.
  7
Style-Arial
 11
91.166729
 21
8.14975
 31
0.0
100
AcDbText
 73
     2
  0
TEXT
  5
25E
330
468
100
AcDbEntity
  8
Level 1
  6
Continuous
 62
     7
370
    13
100
AcDbText
 10
91.14601
 20
8.080708
 30
0.0
 40
0.09
  1
.
  7
Style-Arial
 11
91.14601
 21
8.125708
 31
0.0
100
AcDbText
 73
     2
  0
TEXT
  5
25F
330
468
100
AcDbEntity
  8
Level 1
  6
Continuous
 62
     7
370
    13
100
AcDbText
 10
90.884875
 20
8.080708
 30
0.0
 40
0.09
  1
.
  7
Style-Arial
 11
90.884875
 21
8.125708
 31
0.0
100
AcDbText
 73
     2
  0
TEXT
  5
260
330
468
100
AcDbEntity
  8
Level 1
  6
Continuous
 62
     7
370
    13
100
AcDbText
 10
90.870781
 20
8.10475
 30
0.0
 40
0.09
  1
.
  7
Style-Arial
 11
90.870781
 21
8.14975
 31
0.0
100
AcDbText
 73
     2
  0
TEXT
  5
261
330
468
100
AcDbEntity
  8
Level 1
  6
Continuous
 62
     7
370
    13
100
AcDbText
 10
91.239688
 20
8.080708
 30
0.0
 40
0.09
  1
.
  7
Style-Arial
 11
91.239688
 21
8.125708
 31
0.0
100
AcDbText
 73
     2
  0
TEXT
  5
262
330
468
100
AcDbEntity
  8
Level 1
  6
Continuous
 62
     7
370
    13
100
AcDbText
 10
91.225594
 20
8.10475
 30
0.0
 40
0.09
  1
.
  7
Style-Arial
 11
91.225594
 21
8.14975
 31
0.0
100
AcDbText
 73
     2
  0
TEXT
  5
263
330
468
100
AcDbEntity
  8
Level 1
  6
Continuous
 62
     7
370
    13
100
AcDbText
 10
91.144344
 20
8.272208
 30
0.0
 40
0.09
  1
.
  7
Style-Arial
 11
91.144344
 21
8.317208
 31
0.0
100
AcDbText
 73
     2
  0
TEXT
  5
264
330
468
100
AcDbEntity
  8
Level 1
  6
Continuous
 62
     7
370
    13
100
AcDbText
 10
91.167563
 20
8.239875
 30
0.0
 40
0.09
  1
.
  7
Style-Arial
 11
91.167563
 21
8.284875
 31
0.0
100
AcDbText
 73
     2
  0
TEXT
  5
265
330
468
100
AcDbEntity
  8
Level 1
  6
Continuous
 62
     7
370
    13
100
AcDbText
 10
91.219792
 20
8.239875
 30
0.0
 40
0.09
  1
.
  7
Style-Arial
 11
91.219792
 21
8.284875
 31
0.0
100
AcDbText
 73
     2
  0
TEXT
  5
266
330
468
100
AcDbEntity
  8
Level 1
  6
Continuous
 62
     7
370
    13
100
AcDbText
 10
91.238021
 20
8.272208
 30
0.0
 40
0.09
  1
.
  7
Style-Arial
 11
91.238021
 21
8.317208
 31
0.0
100
AcDbText
 73
     2
  0
TEXT
  5
267
330
468
100
AcDbEntity
  8
Level 1
  6
Continuous
 62
     7
370
    13
100
AcDbText
 10
90.892333
 20
8.272208
 30
0.0
 40
0.09
  1
.
  7
Style-Arial
 11
90.892333
 21
8.317208
 31
0.0
100
AcDbText
 73
     2
  0
TEXT
  5
268
330
468
100
AcDbEntity
  8
Level 1
  6
Continuous
 62
     7
370
    13
100
AcDbText
 10
90.874094
 20
8.239875
 30
0.0
 40
0.09
  1
.
  7
Style-Arial
 11
90.874094
 21
8.284875
 31
0.0
100
AcDbText
 73
     2
  0
TEXT
  5
269
330
468
100
AcDbEntity
  8
Level 1
  6
Continuous
 62
     7
370
    13
100
AcDbText
 10
91.572937
 20
9.209792
 30
0.0
 40
0.09
  1
.
  7
Style-Arial
 11
91.572937
 21
9.254792
 31
0.0
100
AcDbText
 73
     2
  0
TEXT
  5
26A
330
468
100
AcDbEntity
  8
Level 1
  6
Continuous
 62
     7
370
    13
100
AcDbText
 10
91.591177
 20
9.242125
 30
0.0
 40
0.09
  1
.
  7
Style-Arial
 11
91.591177
 21
9.287125
 31
0.0
100
AcDbText
 73
     2
  0
TEXT
  5
26B
330
468
100
AcDbEntity
  8
Level 1
  6
Continuous
 62
     7
370
    13
100
AcDbText
 10
91.498323
 20
9.242125
 30
0.0
 40
0.09
  1
.
  7
Style-Arial
 11
91.498323
 21
9.287125
 31
0.0
100
AcDbText
 73
     2
  0
TEXT
  5
26C
330
468
100
AcDbEntity
  8
Level 1
  6
Continuous
 62
     7
370
    13
100
AcDbText
 10
91.521542
 20
9.209792
 30
0.0
 40
0.09
  1
.
  7
Style-Arial
 11
91.521542
 21
9.254792
 31
0.0
100
AcDbText
 73
     2
  0
TEXT
  5
26D
330
468
100
AcDbEntity
  8
Level 1
  6
Continuous
 62
     7
370
    13
100
AcDbText
 10
91.587031
 20
9.050625
 30
0.0
 40
0.09
  1
.
  7
Style-Arial
 11
91.587031
 21
9.095625
 31
0.0
100
AcDbText
 73
     2
  0
TEXT
  5
26E
330
468
100
AcDbEntity
  8
Level 1
  6
Continuous
 62
     7
370
    13
100
AcDbText
 10
91.572937
 20
9.0755
 30
0.0
 40
0.09
  1
.
  7
Style-Arial
 11
91.572937
 21
9.1205
 31
0.0
100
AcDbText
 73
     2
  0
TEXT
  5
26F
330
468
100
AcDbEntity
  8
Level 1
  6
Continuous
 62
     7
370
    13
100
AcDbText
 10
91.521542
 20
9.0755
 30
0.0
 40
0.09
  1
.
  7
Style-Arial
 11
91.521542
 21
9.1205
 31
0.0
100
AcDbText
 73
     2
  0
TEXT
  5
270
330
468
100
AcDbEntity
  8
Level 1
  6
Continuous
 62
     7
370
    13
100
AcDbText
 10
91.49999
 20
9.050625
 30
0.0
 40
0.09
  1
.
  7
Style-Arial
 11
91.49999
 21
9.095625
 31
0.0
100
AcDbText
 73
     2
  0
TEXT
  5
271
330
468
100
AcDbEntity
  8
Level 1
  6
Continuous
 62
     7
370
    13
100
AcDbText
 10
91.155125
 20
9.050625
 30
0.0
 40
0.09
  1
.
  7
Style-Arial
 11
91.155125
 21
9.095625
 31
0.0
100
AcDbText
 73
     2
  0
TEXT
  5
272
330
468
100
AcDbEntity
  8
Level 1
  6
Continuous
 62
     7
370
    13
100
AcDbText
 10
91.175854
 20
9.0755
 30
0.0
 40
0.09
  1
.
  7
Style-Arial
 11
91.175854
 21
9.1205
 31
0.0
100
AcDbText
 73
     2
  0
TEXT
  5
273
330
468
100
AcDbEntity
  8
Level 1
  6
Continuous
 62
     7
370
    13
100
AcDbText
 10
91.22725
 20
9.0755
 30
0.0
 40
0.09
  1
.
  7
Style-Arial
 11
91.22725
 21
9.1205
 31
0.0
100
AcDbText
 73
     2
  0
TEXT
  5
274
330
468
100
AcDbEntity
  8
Level 1
  6
Continuous
 62
     7
370
    13
100
AcDbText
 10
91.241344
 20
9.050625
 30
0.0
 40
0.09
  1
.
  7
Style-Arial
 11
91.241344
 21
9.095625
 31
0.0
100
AcDbText
 73
     2
  0
TEXT
  5
275
330
468
100
AcDbEntity
  8
Level 1
  6
Continuous
 62
     7
370
    13
100
AcDbText
 10
90.885708
 20
9.050625
 30
0.0
 40
0.09
  1
.
  7
Style-Arial
 11
90.885708
 21
9.095625
 31
0.0
100
AcDbText
 73
     2
  0
TEXT
  5
276
330
468
100
AcDbEntity
  8
Level 1
  6
Continuous
 62
     7
370
    13
100
AcDbText
 10
90.871615
 20
9.0755
 30
0.0
 40
0.09
  1
.
  7
Style-Arial
 11
90.871615
 21
9.1205
 31
0.0
100
AcDbText
 73
     2
  0
TEXT
  5
277
330
468
100
AcDbEntity
  8
Level 1
  6
Continuous
 62
     7
370
    13
100
AcDbText
 10
91.174188
 20
9.209792
 30
0.0
 40
0.09
  1
.
  7
Style-Arial
 11
91.174188
 21
9.254792
 31
0.0
100
AcDbText
 73
     2
  0
TEXT
  5
278
330
468
100
AcDbEntity
  8
Level 1
  6
Continuous
 62
     7
370
    13
100
AcDbText
 10
91.150979
 20
9.242125
 30
0.0
 40
0.09
  1
.
  7
Style-Arial
 11
91.150979
 21
9.287125
 31
0.0
100
AcDbText
 73
     2
  0
TEXT
  5
279
330
468
100
AcDbEntity
  8
Level 1
  6
Continuous
 62
     7
370
    13
100
AcDbText
 10
91.243823
 20
9.242125
 30
0.0
 40
0.09
  1
.
  7
Style-Arial
 11
91.243823
 21
9.287125
 31
0.0
100
AcDbText
 73
     2
  0
TEXT
  5
27A
330
468
100
AcDbEntity
  8
Level 1
  6
Continuous
 62
     7
370
    13
100
AcDbText
 10
91.225594
 20
9.209792
 30
0.0
 40
0.09
  1
.
  7
Style-Arial
 11
91.225594
 21
9.254792
 31
0.0
100
AcDbText
 73
     2
  0
TEXT
  5
27B
330
468
100
AcDbEntity
  8
Level 1
  6
Continuous
 62
     7
370
    13
100
AcDbText
 10
90.864979
 20
9.209792
 30
0.0
 40
0.09
  1
.
  7
Style-Arial
 11
90.864979
 21
9.254792
 31
0.0
100
AcDbText
 73
     2
  0
TEXT
  5
27C
330
468
100
AcDbEntity
  8
Level 1
  6
Continuous
 62
     7
370
    13
100
AcDbText
 10
90.883219
 20
9.242125
 30
0.0
 40
0.09
  1
.
  7
Style-Arial
 11
90.883219
 21
9.287125
 31
0.0
100
AcDbText
 73
     2
  0
TEXT
  5
29F
330
468
100
AcDbEntity
  8
Level 1
  6
Continuous
 62
     7
370
    13
100
AcDbText
 10
91.050819
 20
10.099292
 30
0.0
 40
0.09
  1
TIMBER
  7
Style-Arial
 11
91.050819
 21
10.144292
 31
0.0
100
AcDbText
 73
     2
  0
TEXT
  5
2A0
330
468
100
AcDbEntity
  8
Level 1
  6
Continuous
 62
     7
370
    13
100
AcDbText
 10
91.042723
 20
10.23774
 30
0.0
 40
0.09
  1
END OF
  7
Style-Arial
 11
91.042723
 21
10.28274
 31
0.0
100
AcDbText
 73
     2
  0
TEXT
  5
2A1
330
468
100
AcDbEntity
  8
Level 1
  6
Continuous
 62
     7
370
    13
100
AcDbText
 10
96.281896
 20
10.099292
 30
0.0
 40
0.09
  1
TIMBER
  7
Style-Arial
 11
96.281896
 21
10.144292
 31
0.0
100
AcDbText
 73
     2
  0
TEXT
  5
2A2
330
468
100
AcDbEntity
  8
Level 1
  6
Continuous
 62
     7
370
    13
100
AcDbText
 10
96.273913
 20
10.23774
 30
0.0
 40
0.09
  1
END OF
  7
Style-Arial
 11
96.273913
 21
10.28274
 31
0.0
100
AcDbText
 73
     2
  0
TEXT
  5
2A3
330
468
100
AcDbEntity
  8
Level 1
  6
Continuous
 62
     7
370
    13
100
AcDbText
 10
94.557292
 20
9.681857
 30
0.0
 40
0.09
  1
SEE TIMBER
  7
Style-Arial
 11
94.557292
 21
9.726857
 31
0.0
100
AcDbText
 73
     2
  0
TEXT
  5
2A4
330
468
100
AcDbEntity
  8
Level 1
  6
Continuous
 62
     7
370
    13
100
AcDbText
 10
94.553979
 20
9.549222
 30
0.0
 40
0.09
  1
JOINT DETAIL
  7
Style-Arial
 11
94.553979
 21
9.594222
 31
0.0
100
AcDbText
 73
     2
  0
TEXT
  5
2A5
330
468
100
AcDbEntity
  8
Level 1
  6
Continuous
 62
     7
370
    13
100
AcDbText
 10
92.447458
 20
7.614624
 30
0.0
 40
0.09
  1
TIES ON 20' CENTERS FOR NEW CONSTRUCTION
  7
Style-Arial
 11
92.447458
 21
7.659624
 31
0.0
100
AcDbText
 73
     2
  0
TEXT
  5
2A6
330
468
100
AcDbEntity
  8
Level 1
  6
Continuous
 62
     7
370
    13
100
AcDbText
 10
90.968604
 20
9.840646
 30
0.0
 40
0.09
  1
NORMAL TIE
  7
Style-Arial
 11
90.968604
 21
9.885646
 31
0.0
100
AcDbText
 73
     2
  0
TEXT
  5
2A7
330
468
100
AcDbEntity
  8
Level 1
  6
Continuous
 62
     7
370
    13
100
AcDbText
 10
90.962802
 20
9.717958
 30
0.0
 40
0.09
  1
SPACING
  7
Style-Arial
 11
90.962802
 21
9.762958
 31
0.0
100
AcDbText
 73
     2
  0
TEXT
  5
2B3
330
468
100
AcDbEntity
  8
Level 1
  6
Continuous
 62
     7
370
    13
100
AcDbText
 10
96.161543
 20
9.840646
 30
0.0
 40
0.09
  1
NORMAL TIE
  7
Style-Arial
 11
96.161543
 21
9.885646
 31
0.0
100
AcDbText
 73
     2
  0
TEXT
  5
2B4
330
468
100
AcDbEntity
  8
Level 1
  6
Continuous
 62
     7
370
    13
100
AcDbText
 10
96.290403
 20
9.717958
 30
0.0
 40
0.09
  1
SPACING
  7
Style-Arial
 11
96.290403
 21
9.762958
 31
0.0
100
AcDbText
 73
     2
  0
TEXT
  5
2DF
330
468
100
AcDbEntity
  8
Level 1
  6
Continuous
 62
     7
370
    13
100
AcDbText
 10
93.88677
 20
9.891667
 30
0.0
 40
0.09
  1
L ROAD
  7
Style-Arial
 11
93.88677
 21
9.936667
 31
0.0
100
AcDbText
 73
     2
  0
TEXT
  5
2E0
330
468
100
AcDbEntity
  8
Level 1
  6
Continuous
 62
     7
370
    13
100
AcDbText
 10
93.858496
 20
9.93599
 30
0.0
 40
0.09
  1
C
  7
Style-Arial
 11
93.858496
 21
9.98099
 31
0.0
100
AcDbText
 73
     2
  0
TEXT
  5
2E7
330
468
100
AcDbEntity
  8
Level 1
  6
Continuous
 62
     7
370
    13
100
AcDbText
 10
90.496083
 20
7.412542
 30
0.0
 40
0.09
  1
BEVEL AGGREGATE
 50
0.0001
  7
Style-Arial
 11
90.496083
 21
7.457542
 31
0.0
100
AcDbText
 73
     2
  0
TEXT
  5
2E8
330
468
100
AcDbEntity
  8
Level 1
  6
Continuous
 62
     7
370
    13
100
AcDbText
 10
90.491937
 20
7.28074
 30
0.0
 40
0.09
  1
AT END OF CROSSING
  7
Style-Arial
 11
90.491937
 21
7.32574
 31
0.0
100
AcDbText
 73
     2
  0
TEXT
  5
2E9
330
468
100
AcDbEntity
  8
Level 1
  6
Continuous
 62
     7
370
    13
100
AcDbText
 10
90.486135
 20
7.163021
 30
0.0
 40
0.09
  1
(SEE DETAIL)
  7
Style-Arial
 11
90.486135
 21
7.208021
 31
0.0
100
AcDbText
 73
     2
  0
TEXT
  5
2FA
330
468
100
AcDbEntity
  8
Level 1
  6
Continuous
 62
     7
370
    13
100
AcDbText
 10
92.921698
 20
6.525311
 30
0.0
 40
0.09
  1
o
  7
Style-Arial
 11
92.921698
 21
6.570311
 31
0.0
100
AcDbText
 73
     2
  0
TEXT
  5
2FB
330
468
100
AcDbEntity
  8
Level 1
  6
Continuous
 62
     7
370
    13
100
AcDbText
 10
92.847094
 20
6.453977
 30
0.0
 40
0.09
  1
o
  7
Style-Arial
 11
92.847094
 21
6.498977
 31
0.0
100
AcDbText
 73
     2
  0
TEXT
  5
2FC
330
468
100
AcDbEntity
  8
Level 1
  6
Continuous
 62
     7
370
    13
100
AcDbText
 10
92.75176
 20
6.492375
 30
0.0
 40
0.09
  1
o
  7
Style-Arial
 11
92.75176
 21
6.537375
 31
0.0
100
AcDbText
 73
     2
  0
TEXT
  5
2FD
330
468
100
AcDbEntity
  8
Level 1
  6
Continuous
 62
     7
370
    13
100
AcDbText
 10
92.656427
 20
6.454141
 30
0.0
 40
0.09
  1
o
  7
Style-Arial
 11
92.656427
 21
6.499141
 31
0.0
100
AcDbText
 73
     2
  0
TEXT
  5
2FE
330
468
100
AcDbEntity
  8
Level 1
  6
Continuous
 62
     7
370
    13
100
AcDbText
 10
92.581812
 20
6.520535
 30
0.0
 40
0.09
  1
o
  7
Style-Arial
 11
92.581812
 21
6.565535
 31
0.0
100
AcDbText
 73
     2
  0
TEXT
  5
2FF
330
468
100
AcDbEntity
  8
Level 1
  6
Continuous
 62
     7
370
    13
100
AcDbText
 10
92.475698
 20
6.446316
 30
0.0
 40
0.09
  1
o
  7
Style-Arial
 11
92.475698
 21
6.491316
 31
0.0
100
AcDbText
 73
     2
  0
TEXT
  5
300
330
468
100
AcDbEntity
  8
Level 1
  6
Continuous
 62
     7
370
    13
100
AcDbText
 10
92.433427
 20
6.530087
 30
0.0
 40
0.09
  1
o
  7
Style-Arial
 11
92.433427
 21
6.575087
 31
0.0
100
AcDbText
 73
     2
  0
TEXT
  5
301
330
468
100
AcDbEntity
  8
Level 1
  6
Continuous
 62
     7
370
    13
100
AcDbText
 10
92.208076
 20
6.451753
 30
0.0
 40
0.09
  1
o
  7
Style-Arial
 11
92.208076
 21
6.496753
 31
0.0
100
AcDbText
 73
     2
  0
TEXT
  5
302
330
468
100
AcDbEntity
  8
Level 1
  6
Continuous
 62
     7
370
    13
100
AcDbText
 10
92.178927
 20
6.527699
 30
0.0
 40
0.09
  1
o
  7
Style-Arial
 11
92.178927
 21
6.572699
 31
0.0
100
AcDbText
 73
     2
  0
TEXT
  5
303
330
468
100
AcDbEntity
  8
Level 1
  6
Continuous
 62
     7
370
    13
100
AcDbText
 10
92.094365
 20
6.446316
 30
0.0
 40
0.09
  1
o
  7
Style-Arial
 11
92.094365
 21
6.491316
 31
0.0
100
AcDbText
 73
     2
  0
TEXT
  5
304
330
468
100
AcDbEntity
  8
Level 1
  6
Continuous
 62
     7
370
    13
100
AcDbText
 10
92.030531
 20
6.532475
 30
0.0
 40
0.09
  1
o
  7
Style-Arial
 11
92.030531
 21
6.577475
 31
0.0
100
AcDbText
 73
     2
  0
TEXT
  5
305
330
468
100
AcDbEntity
  8
Level 1
  6
Continuous
 62
     7
370
    13
100
AcDbText
 10
91.945979
 20
6.448704
 30
0.0
 40
0.09
  1
o
  7
Style-Arial
 11
91.945979
 21
6.493704
 31
0.0
100
AcDbText
 73
     2
  0
TEXT
  5
306
330
468
100
AcDbEntity
  8
Level 1
  6
Continuous
 62
     7
370
    13
100
AcDbText
 10
91.873121
 20
6.532972
 30
0.0
 40
0.09
  1
o
  7
Style-Arial
 11
91.873121
 21
6.577972
 31
0.0
100
AcDbText
 73
     2
  0
TEXT
  5
307
330
468
100
AcDbEntity
  8
Level 1
  6
Continuous
 62
     7
370
    13
100
AcDbText
 10
91.829094
 20
6.427708
 30
0.0
 40
0.09
  1
o
  7
Style-Arial
 11
91.829094
 21
6.472708
 31
0.0
100
AcDbText
 73
     2
  0
TEXT
  5
308
330
468
100
AcDbEntity
  8
Level 1
  6
Continuous
 62
     7
370
    13
100
AcDbText
 10
91.738464
 20
6.45348
 30
0.0
 40
0.09
  1
o
  7
Style-Arial
 11
91.738464
 21
6.49848
 31
0.0
100
AcDbText
 73
     2
  0
TEXT
  5
309
330
468
100
AcDbEntity
  8
Level 1
  6
Continuous
 62
     7
370
    13
100
AcDbText
 10
91.619192
 20
6.43017
 30
0.0
 40
0.09
  1
o
  7
Style-Arial
 11
91.619192
 21
6.47517
 31
0.0
100
AcDbText
 73
     2
  0
TEXT
  5
30A
330
468
100
AcDbEntity
  8
Level 1
  6
Continuous
 62
     7
370
    13
100
AcDbText
 10
92.752288
 20
6.334737
 30
0.0
 40
0.09
  1
o
  7
Style-Arial
 11
92.752288
 21
6.379737
 31
0.0
100
AcDbText
 73
     2
  0
TEXT
  5
30B
330
468
100
AcDbEntity
  8
Level 1
  6
Continuous
 62
     7
370
    13
100
AcDbText
 10
92.889365
 20
6.19476
 30
0.0
 40
0.09
  1
o
  7
Style-Arial
 11
92.889365
 21
6.23976
 31
0.0
100
AcDbText
 73
     2
  0
TEXT
  5
30C
330
468
100
AcDbEntity
  8
Level 1
  6
Continuous
 62
     7
370
    13
100
AcDbText
 10
92.910917
 20
6.329961
 30
0.0
 40
0.09
  1
o
  7
Style-Arial
 11
92.910917
 21
6.374961
 31
0.0
100
AcDbText
 73
     2
  0
TEXT
  5
30D
330
468
100
AcDbEntity
  8
Level 1
  6
Continuous
 62
     7
370
    13
100
AcDbText
 10
92.740979
 20
6.208031
 30
0.0
 40
0.09
  1
o
  7
Style-Arial
 11
92.740979
 21
6.253031
 31
0.0
100
AcDbText
 73
     2
  0
TEXT
  5
30E
330
468
100
AcDbEntity
  8
Level 1
  6
Continuous
 62
     7
370
    13
100
AcDbText
 10
92.815583
 20
6.257153
 30
0.0
 40
0.09
  1
o
  7
Style-Arial
 11
92.815583
 21
6.302153
 31
0.0
100
AcDbText
 73
     2
  0
TEXT
  5
30F
330
468
100
AcDbEntity
  8
Level 1
  6
Continuous
 62
     7
370
    13
100
AcDbText
 10
92.369594
 20
6.323334
 30
0.0
 40
0.09
  1
o
  7
Style-Arial
 11
92.369594
 21
6.368334
 31
0.0
100
AcDbText
 73
     2
  0
TEXT
  5
310
330
468
100
AcDbEntity
  8
Level 1
  6
Continuous
 62
     7
370
    13
100
AcDbText
 10
92.369594
 20
6.208031
 30
0.0
 40
0.09
  1
o
  7
Style-Arial
 11
92.369594
 21
6.253031
 31
0.0
100
AcDbText
 73
     2
  0
TEXT
  5
311
330
468
100
AcDbEntity
  8
Level 1
  6
Continuous
 62
     7
370
    13
100
AcDbText
 10
92.253531
 20
6.205408
 30
0.0
 40
0.09
  1
o
  7
Style-Arial
 11
92.253531
 21
6.250408
 31
0.0
100
AcDbText
 73
     2
  0
TEXT
  5
312
330
468
100
AcDbEntity
  8
Level 1
  6
Continuous
 62
     7
370
    13
100
AcDbText
 10
92.263479
 20
6.304066
 30
0.0
 40
0.09
  1
o
  7
Style-Arial
 11
92.263479
 21
6.349066
 31
0.0
100
AcDbText
 73
     2
  0
TEXT
  5
313
330
468
100
AcDbEntity
  8
Level 1
  6
Continuous
 62
     7
370
    13
100
AcDbText
 10
91.871375
 20
6.339513
 30
0.0
 40
0.09
  1
o
  7
Style-Arial
 11
91.871375
 21
6.384513
 31
0.0
100
AcDbText
 73
     2
  0
TEXT
  5
314
330
468
100
AcDbEntity
  8
Level 1
  6
Continuous
 62
     7
370
    13
100
AcDbText
 10
91.743708
 20
6.311656
 30
0.0
 40
0.09
  1
o
  7
Style-Arial
 11
91.743708
 21
6.356656
 31
0.0
100
AcDbText
 73
     2
  0
TEXT
  5
315
330
468
100
AcDbEntity
  8
Level 1
  6
Continuous
 62
     7
370
    13
100
AcDbText
 10
91.807542
 20
6.24699
 30
0.0
 40
0.09
  1
o
  7
Style-Arial
 11
91.807542
 21
6.29199
 31
0.0
100
AcDbText
 73
     2
  0
TEXT
  5
316
330
468
100
AcDbEntity
  8
Level 1
  6
Continuous
 62
     7
370
    13
100
AcDbText
 10
91.871375
 20
6.208031
 30
0.0
 40
0.09
  1
o
  7
Style-Arial
 11
91.871375
 21
6.253031
 31
0.0
100
AcDbText
 73
     2
  0
TEXT
  5
317
330
468
100
AcDbEntity
  8
Level 1
  6
Continuous
 62
     7
370
    13
100
AcDbText
 10
91.722979
 20
6.208031
 30
0.0
 40
0.09
  1
o
  7
Style-Arial
 11
91.722979
 21
6.253031
 31
0.0
100
AcDbText
 73
     2
  0
TEXT
  5
318
330
468
100
AcDbEntity
  8
Level 1
  6
Continuous
 62
     7
370
    13
100
AcDbText
 10
91.362375
 20
6.298385
 30
0.0
 40
0.09
  1
o
  7
Style-Arial
 11
91.362375
 21
6.343385
 31
0.0
100
AcDbText
 73
     2
  0
TEXT
  5
319
330
468
100
AcDbEntity
  8
Level 1
  6
Continuous
 62
     7
370
    13
100
AcDbText
 10
91.223927
 20
6.341371
 30
0.0
 40
0.09
  1
o
  7
Style-Arial
 11
91.223927
 21
6.386371
 31
0.0
100
AcDbText
 73
     2
  0
TEXT
  5
31A
330
468
100
AcDbEntity
  8
Level 1
  6
Continuous
 62
     7
370
    13
100
AcDbText
 10
91.288332
 20
6.261055
 30
0.0
 40
0.09
  1
o
  7
Style-Arial
 11
91.288332
 21
6.306055
 31
0.0
100
AcDbText
 73
     2
  0
TEXT
  5
31B
330
468
100
AcDbEntity
  8
Level 1
  6
Continuous
 62
     7
370
    13
100
AcDbText
 10
91.351594
 20
6.19476
 30
0.0
 40
0.09
  1
o
  7
Style-Arial
 11
91.351594
 21
6.23976
 31
0.0
100
AcDbText
 73
     2
  0
TEXT
  5
31C
330
468
100
AcDbEntity
  8
Level 1
  6
Continuous
 62
     7
370
    13
100
AcDbText
 10
91.203208
 20
6.215766
 30
0.0
 40
0.09
  1
o
  7
Style-Arial
 11
91.203208
 21
6.260766
 31
0.0
100
AcDbText
 73
     2
  0
TEXT
  5
31D
330
468
100
AcDbEntity
  8
Level 1
  6
Continuous
 62
     7
370
    13
100
AcDbText
 10
90.831823
 20
6.332349
 30
0.0
 40
0.09
  1
o
  7
Style-Arial
 11
90.831823
 21
6.377349
 31
0.0
100
AcDbText
 73
     2
  0
TEXT
  5
31E
330
468
100
AcDbEntity
  8
Level 1
  6
Continuous
 62
     7
370
    13
100
AcDbText
 10
90.831823
 20
6.182333
 30
0.0
 40
0.09
  1
o
  7
Style-Arial
 11
90.831823
 21
6.227333
 31
0.0
100
AcDbText
 73
     2
  0
TEXT
  5
31F
330
468
100
AcDbEntity
  8
Level 1
  6
Continuous
 62
     7
370
    13
100
AcDbText
 10
90.782311
 20
6.267162
 30
0.0
 40
0.09
  1
o
  7
Style-Arial
 11
90.782311
 21
6.312162
 31
0.0
100
AcDbText
 73
     2
  0
TEXT
  5
320
330
468
100
AcDbEntity
  8
Level 1
  6
Continuous
 62
     7
370
    13
100
AcDbText
 10
91.501229
 20
6.864285
 30
0.0
 40
0.09
  1
2' MIN.
  7
Style-Arial
 11
91.501229
 21
6.909285
 31
0.0
100
AcDbText
 73
     2
  0
TEXT
  5
321
330
468
100
AcDbEntity
  8
Level 1
  6
Continuous
 62
     7
370
    13
100
AcDbText
 10
92.230063
 20
7.007587
 30
0.0
 40
0.09
  1
EDGE OF ROADWAY
  7
Style-Arial
 11
92.230063
 21
7.052587
 31
0.0
100
AcDbText
 73
     2
  0
TEXT
  5
322
330
468
100
AcDbEntity
  8
Level 1
  6
Continuous
 62
     7
370
    13
100
AcDbText
 10
90.816458
 20
6.487907
 30
0.0
 40
0.09
  1
6" TYP.
  7
Style-Arial
 11
90.816458
 21
6.532907
 31
0.0
100
AcDbText
 73
     2
  0
TEXT
  5
32A
330
468
100
AcDbEntity
  8
Level 1
  6
Continuous
 62
     7
370
    13
100
AcDbText
 10
91.788641
 20
6.080876
 30
0.0
 40
0.09
  1
TIE
  7
Style-Arial
 11
91.788641
 21
6.125876
 31
0.0
100
AcDbText
 73
     2
  0
TEXT
  5
32F
330
468
100
AcDbEntity
  8
Level 1
  6
Continuous
 62
     7
370
    13
100
AcDbText
 10
93.432039
 20
6.658619
 30
0.0
 40
0.09
  1
L ROAD
  7
Style-Arial
 11
93.432039
 21
6.703619
 31
0.0
100
AcDbText
 73
     2
  0
TEXT
  5
330
330
468
100
AcDbEntity
  8
Level 1
  6
Continuous
 62
     7
370
    13
100
AcDbText
 10
93.41092
 20
6.702723
 30
0.0
 40
0.09
  1
C
  7
Style-Arial
 11
93.41092
 21
6.747723
 31
0.0
100
AcDbText
 73
     2
  0
TEXT
  5
335
330
468
100
AcDbEntity
  8
Level 1
  6
Continuous
 62
     7
370
    13
100
AcDbText
 10
93.344479
 20
6.428096
 30
0.0
 40
0.09
  1
ELEV. OF TOP OF TIE
  7
Style-Arial
 11
93.344479
 21
6.473096
 31
0.0
100
AcDbText
 73
     2
  0
MTEXT
  5
36A
330
468
100
AcDbEntity
  8
Level 1
  6
Continuous
 62
     7
370
    13
100
AcDbMText
 10
96.195089
 20
4.214356
 30
0.0
 40
0.09
 41
0.0
 71
     4
 72
     1
  1
DRAIN TO SIDE\PDITCHES\P
  7
Style-Arial
 73
     2
 44
0.779643
  0
MTEXT
  5
370
330
468
100
AcDbEntity
  8
Level 1
  6
Continuous
 62
     7
370
    13
100
AcDbMText
 10
90.532415
 20
1.974429
 30
0.0
 40
0.09
 41
0.0
 71
     4
 72
     1
  1
APPLY FASTENERS AT ENDS OF TIMBERS\PAS SHOWN.  IF LESS THAN 4" OF TIMBER\PBEARS ON CROSSTIE, FASTENERS MUST\PBE APPLIED TO NEXT CROSSTIE.\P
  7
Style-Arial
 73
     2
 44
0.779643
  0
MTEXT
  5
375
330
468
100
AcDbEntity
  8
Level 1
  6
Continuous
 62
     7
370
    13
100
AcDbMText
 10
90.637838
 20
4.185727
 30
0.0
 40
0.09
 41
0.0
 71
     4
 72
     1
  1
TIMBERS MAY BE CUT TO SUIT TIE\PSPACING (MAX. 4" EACH TIMBER) AT\PINTERMEDIATE JOINTS.  STAGGER\PINTERMEDIATE JOINTS SO THAT TWO\PJOINTS DO NOT FALL ON THE SAME TIE.\P
  7
Style-Arial
 73
     2
 44
0.779643
  0
TEXT
  5
37B
330
468
100
AcDbEntity
  8
Level 1
  6
Continuous
 62
     7
370
    13
100
AcDbText
 10
91.974167
 20
10.094323
 30
0.0
 40
0.09
  1
2'
  7
Style-Arial
 11
91.974167
 21
10.139323
 31
0.0
100
AcDbText
 73
     2
  0
TEXT
  5
37C
330
468
100
AcDbEntity
  8
Level 1
  6
Continuous
 62
     7
370
    13
100
AcDbText
 10
95.802121
 20
10.115042
 30
0.0
 40
0.09
  1
2'
  7
Style-Arial
 11
95.802121
 21
10.160042
 31
0.0
100
AcDbText
 73
     2
  0
TEXT
  5
37D
330
468
100
AcDbEntity
  8
Level 1
  6
Continuous
 62
     7
370
    13
100
AcDbText
 10
91.891936
 20
9.970025
 30
0.0
 40
0.09
  1
MIN.
  7
Style-Arial
 11
91.891936
 21
10.015025
 31
0.0
100
AcDbText
 73
     2
  0
TEXT
  5
37E
330
468
100
AcDbEntity
  8
Level 1
  6
Continuous
 62
     7
370
    13
100
AcDbText
 10
95.71124
 20
9.962332
 30
0.0
 40
0.09
  1
MIN.
  7
Style-Arial
 11
95.71124
 21
10.007332
 31
0.0
100
AcDbText
 73
     2
  0
TEXT
  5
37F
330
468
100
AcDbEntity
  8
Level 1
  6
Continuous
 62
     7
370
    13
100
AcDbText
 10
93.442302
 20
2.948353
 30
0.0
 40
0.09
  1
STAGGER FASTENERS 1" EITHER SIDE OF C OF BOND TIMBERS
  7
Style-Arial
 11
93.442302
 21
2.993353
 31
0.0
100
AcDbText
 73
     2
  0
TEXT
  5
380
330
468
100
AcDbEntity
  8
Level 1
  6
Continuous
 62
     7
370
    13
100
AcDbText
 10
96.098228
 20
2.908353
 30
0.0
 40
0.09
  1
L
  7
Style-Arial
 11
96.098228
 21
2.953353
 31
0.0
100
AcDbText
 73
     2
  0
TEXT
  5
38A
330
468
100
AcDbEntity
  8
Level 1
  6
Continuous
 62
     7
370
    13
100
AcDbText
 10
93.56251
 20
8.707837
 30
0.0
 40
0.09
  1
CRUSHED STONE
  7
Style-Arial
 11
93.56251
 21
8.752837
 31
0.0
100
AcDbText
 73
     2
  0
TEXT
  5
395
330
468
100
AcDbEntity
  8
Level 1
  6
Continuous
 62
     7
370
    13
100
AcDbText
 10
92.680015
 20
8.852064
 30
0.0
 40
0.09
  1
~
 50
70.0
  7
Style-Arial
 11
92.637729
 21
8.867455
 31
0.0
100
AcDbText
 73
     2
  0
TEXT
  5
396
330
468
100
AcDbEntity
  8
Level 1
  6
Continuous
 62
     7
370
    13
100
AcDbText
 10
92.968297
 20
9.588037
 30
0.0
 40
0.09
  1
~
 50
40.0
  7
Style-Arial
 11
92.939371
 21
9.622509
 31
0.0
100
AcDbText
 73
     2
  0
TEXT
  5
397
330
468
100
AcDbEntity
  8
Level 1
  6
Continuous
 62
     7
370
    13
100
AcDbText
 10
95.70604
 20
9.616437
 30
0.0
 40
0.09
  1
~
 50
165.0
  7
Style-Arial
 11
95.694393
 21
9.57297
 31
0.0
100
AcDbText
 73
     2
  0
TEXT
  5
398
330
468
100
AcDbEntity
  8
Level 1
  6
Continuous
 62
     7
370
    13
100
AcDbText
 10
95.327908
 20
8.457829
 30
0.0
 40
0.09
  1
~
 50
70.0
  7
Style-Arial
 11
95.285622
 21
8.47322
 31
0.0
100
AcDbText
 73
     2
  0
TEXT
  5
399
330
468
100
AcDbEntity
  8
Level 1
  6
Continuous
 62
     7
370
    13
100
AcDbText
 10
95.131678
 20
7.801972
 30
0.0
 40
0.09
  1
~
 50
45.0
  7
Style-Arial
 11
95.099858
 21
7.833791
 31
0.0
100
AcDbText
 73
     2
  0
TEXT
  5
39A
330
468
100
AcDbEntity
  8
Level 1
  6
Continuous
 62
     7
370
    13
100
AcDbText
 10
92.89222
 20
7.866829
 30
0.0
 40
0.09
  1
~
  7
Style-Arial
 11
92.89222
 21
7.911829
 31
0.0
100
AcDbText
 73
     2
  0
TEXT
  5
3B1
330
468
100
AcDbEntity
  8
Level 1
  6
Continuous
 62
     7
370
    13
100
AcDbText
 10
92.506585
 20
6.837649
 30
0.0
 40
0.09
  1
ELEV. OF ROADWAY SURFACE
  7
Style-Arial
 11
92.506585
 21
6.882649
 31
0.0
100
AcDbText
 73
     2
  0
TEXT
  5
3B4
330
468
100
AcDbEntity
  8
Level 1
  6
Continuous
 62
     7
370
    13
100
AcDbText
 10
93.010531
 20
10.093823
 30
0.0
 40
0.09
  1
NORMAL WIDTH OF ROADWAY
  7
Style-Arial
 11
93.010531
 21
10.138823
 31
0.0
100
AcDbText
 73
     2
  0
MTEXT
  5
3B5
330
468
100
AcDbEntity
  8
Level 1
  6
Continuous
 62
     7
370
    13
100
AcDbMText
 10
95.10818
 20
2.56454
 30
0.0
 40
0.09
 41
0.0
 71
     4
 72
     1
  1
CIRCLED NUMBERS REFER TO\PGENERAL NOTES, FIGURE 2-36u\P
  7
Style-Arial
 73
     2
 44
0.779643
  0
MTEXT
  5
3B8
330
468
100
AcDbEntity
  8
Level 1
  6
Continuous
 62
     7
370
    13
100
AcDbMText
 10
95.116717
 20
2.005106
 30
0.0
 40
0.09
 41
0.0
 71
     4
 72
     1
  1
RECONSTRUCT SUBGRADE AND\PINSTALL SUBDRAINS, DITCHING,\PAND/OR GEOTEXTILES AS REQUIRED.\PSEE FIGURE 2-36s FOR DETAILS.\P
  7
Style-Arial
 73
     2
 44
0.779643
  0
LWPOLYLINE
  5
384
330
468
100
AcDbEntity
  8
Level 1
  6
Continuous
 62
     7
370
    13
100
AcDbPolyline
 90
        8
 70
   128
 43
0.0
 10
91.823777
 20
9.621557
 10
91.942698
 20
9.698302
 10
92.001552
 20
9.786177
 10
92.089427
 20
9.839229
 10
92.153261
 20
9.909688
 10
92.183104
 20
9.974354
 10
92.229521
 20
10.062229
 10
92.258542
 20
10.097042
  0
LWPOLYLINE
  5
40C
330
468
100
AcDbEntity
  8
TEXT
  6
Continuous
 62
     7
370
    13
100
AcDbPolyline
 90
        4
 70
   128
 43
0.0
 10
91.823777
 20
9.621557
 10
91.814322
 20
9.508043
 10
91.783292
 20
9.436401
 10
91.779328
 20
9.408641
  0
LWPOLYLINE
  5
40D
330
468
100
AcDbEntity
  8
TEXT
  6
Continuous
 62
     7
370
    13
100
AcDbPolyline
 90
        2
 70
   128
 43
0.0
 10
91.779344
 20
9.408493
 10
91.776834
 20
9.384115
  0
LINE
  5
40E
330
468
100
AcDbEntity
  8
Level 1
  6
Continuous
 62
     7
370
    13
100
AcDbLine
 10
93.652406
 20
4.751169
 30
0.0
 11
93.691364
 21
4.818315
 31
0.0
  0
LINE
  5
40F
330
468
100
AcDbEntity
  8
Level 1
  6
Continuous
 62
     7
370
    13
100
AcDbLine
 10
93.497385
 20
4.751169
 30
0.0
 11
93.53552
 21
4.818315
 31
0.0
  0
LINE
  5
410
330
468
100
AcDbEntity
  8
Level 1
  6
Continuous
 62
     7
370
    13
100
AcDbLine
 10
93.341531
 20
4.751169
 30
0.0
 11
93.3805
 21
4.818315
 31
0.0
  0
LINE
  5
411
330
468
100
AcDbEntity
  8
Level 1
  6
Continuous
 62
     7
370
    13
100
AcDbLine
 10
93.652406
 20
4.751169
 30
0.0
 11
93.613437
 21
4.818315
 31
0.0
  0
LINE
  5
412
330
468
100
AcDbEntity
  8
Level 1
  6
Continuous
 62
     7
370
    13
100
AcDbLine
 10
93.497385
 20
4.751169
 30
0.0
 11
93.458416
 21
4.818315
 31
0.0
  0
LINE
  5
413
330
468
100
AcDbEntity
  8
Level 1
  6
Continuous
 62
     7
370
    13
100
AcDbLine
 10
93.341531
 20
4.751169
 30
0.0
 11
93.302573
 21
4.818315
 31
0.0
  0
LINE
  5
414
330
468
100
AcDbEntity
  8
Level 1
  6
Continuous
 62
     7
370
    13
100
AcDbLine
 10
93.302573
 20
4.818315
 30
0.0
 11
93.3805
 21
4.818315
 31
0.0
  0
LINE
  5
415
330
468
100
AcDbEntity
  8
Level 1
  6
Continuous
 62
     7
370
    13
100
AcDbLine
 10
93.458416
 20
4.818315
 30
0.0
 11
93.53552
 21
4.818315
 31
0.0
  0
LINE
  5
416
330
468
100
AcDbEntity
  8
Level 1
  6
Continuous
 62
     7
370
    13
100
AcDbLine
 10
93.613437
 20
4.818315
 30
0.0
 11
93.691364
 21
4.818315
 31
0.0
  0
LINE
  5
417
330
468
100
AcDbEntity
  8
Level 1
  6
Continuous
 62
     7
370
    13
100
AcDbLine
 10
94.125011
 20
4.751169
 30
0.0
 11
94.163969
 21
4.818315
 31
0.0
  0
LINE
  5
418
330
468
100
AcDbEntity
  8
Level 1
  6
Continuous
 62
     7
370
    13
100
AcDbLine
 10
93.96999
 20
4.751169
 30
0.0
 11
94.008125
 21
4.818315
 31
0.0
  0
LINE
  5
419
330
468
100
AcDbEntity
  8
Level 1
  6
Continuous
 62
     7
370
    13
100
AcDbLine
 10
93.814136
 20
4.751169
 30
0.0
 11
93.853105
 21
4.818315
 31
0.0
  0
LINE
  5
41A
330
468
100
AcDbEntity
  8
Level 1
  6
Continuous
 62
     7
370
    13
100
AcDbLine
 10
94.125011
 20
4.751169
 30
0.0
 11
94.086042
 21
4.818315
 31
0.0
  0
LINE
  5
41B
330
468
100
AcDbEntity
  8
Level 1
  6
Continuous
 62
     7
370
    13
100
AcDbLine
 10
93.96999
 20
4.751169
 30
0.0
 11
93.931021
 21
4.818315
 31
0.0
  0
LINE
  5
41C
330
468
100
AcDbEntity
  8
Level 1
  6
Continuous
 62
     7
370
    13
100
AcDbLine
 10
93.814136
 20
4.751169
 30
0.0
 11
93.775177
 21
4.818315
 31
0.0
  0
LINE
  5
41D
330
468
100
AcDbEntity
  8
Level 1
  6
Continuous
 62
     7
370
    13
100
AcDbLine
 10
93.775177
 20
4.818315
 30
0.0
 11
93.853105
 21
4.818315
 31
0.0
  0
LINE
  5
41E
330
468
100
AcDbEntity
  8
Level 1
  6
Continuous
 62
     7
370
    13
100
AcDbLine
 10
93.931021
 20
4.818315
 30
0.0
 11
94.008125
 21
4.818315
 31
0.0
  0
LINE
  5
41F
330
468
100
AcDbEntity
  8
Level 1
  6
Continuous
 62
     7
370
    13
100
AcDbLine
 10
94.086042
 20
4.818315
 30
0.0
 11
94.163969
 21
4.818315
 31
0.0
  0
LINE
  5
420
330
468
100
AcDbEntity
  8
Level 1
  6
Continuous
 62
     7
370
    13
100
AcDbLine
 10
95.361422
 20
4.751169
 30
0.0
 11
95.40038
 21
4.818315
 31
0.0
  0
LINE
  5
421
330
468
100
AcDbEntity
  8
Level 1
  6
Continuous
 62
     7
370
    13
100
AcDbLine
 10
95.206401
 20
4.751169
 30
0.0
 11
95.244536
 21
4.818315
 31
0.0
  0
LINE
  5
422
330
468
100
AcDbEntity
  8
Level 1
  6
Continuous
 62
     7
370
    13
100
AcDbLine
 10
95.050547
 20
4.751169
 30
0.0
 11
95.089515
 21
4.818315
 31
0.0
  0
LINE
  5
423
330
468
100
AcDbEntity
  8
Level 1
  6
Continuous
 62
     7
370
    13
100
AcDbLine
 10
95.361422
 20
4.751169
 30
0.0
 11
95.322453
 21
4.818315
 31
0.0
  0
LINE
  5
424
330
468
100
AcDbEntity
  8
Level 1
  6
Continuous
 62
     7
370
    13
100
AcDbLine
 10
95.206401
 20
4.751169
 30
0.0
 11
95.167432
 21
4.818315
 31
0.0
  0
LINE
  5
425
330
468
100
AcDbEntity
  8
Level 1
  6
Continuous
 62
     7
370
    13
100
AcDbLine
 10
95.050547
 20
4.751169
 30
0.0
 11
95.011588
 21
4.818315
 31
0.0
  0
LINE
  5
426
330
468
100
AcDbEntity
  8
Level 1
  6
Continuous
 62
     7
370
    13
100
AcDbLine
 10
95.011588
 20
4.818315
 30
0.0
 11
95.089515
 21
4.818315
 31
0.0
  0
LINE
  5
427
330
468
100
AcDbEntity
  8
Level 1
  6
Continuous
 62
     7
370
    13
100
AcDbLine
 10
95.167432
 20
4.818315
 30
0.0
 11
95.244536
 21
4.818315
 31
0.0
  0
LINE
  5
428
330
468
100
AcDbEntity
  8
Level 1
  6
Continuous
 62
     7
370
    13
100
AcDbLine
 10
95.322453
 20
4.818315
 30
0.0
 11
95.40038
 21
4.818315
 31
0.0
  0
LINE
  5
429
330
468
100
AcDbEntity
  8
Level 1
  6
Continuous
 62
     7
370
    13
100
AcDbLine
 10
94.664528
 20
4.616841
 30
0.0
 11
94.703486
 21
4.683987
 31
0.0
  0
LINE
  5
42A
330
468
100
AcDbEntity
  8
Level 1
  6
Continuous
 62
     7
370
    13
100
AcDbLine
 10
94.509507
 20
4.616841
 30
0.0
 11
94.548465
 21
4.683987
 31
0.0
  0
LINE
  5
42B
330
468
100
AcDbEntity
  8
Level 1
  6
Continuous
 62
     7
370
    13
100
AcDbLine
 10
94.785559
 20
4.676529
 30
0.0
 11
94.781413
 21
4.683987
 31
0.0
  0
LINE
  5
42C
330
468
100
AcDbEntity
  8
Level 1
  6
Continuous
 62
     7
370
    13
100
AcDbLine
 10
94.664528
 20
4.616841
 30
0.0
 11
94.625569
 21
4.683987
 31
0.0
  0
LINE
  5
42D
330
468
100
AcDbEntity
  8
Level 1
  6
Continuous
 62
     7
370
    13
100
AcDbLine
 10
94.509507
 20
4.616841
 30
0.0
 11
94.470548
 21
4.683987
 31
0.0
  0
LINE
  5
42E
330
468
100
AcDbEntity
  8
Level 1
  6
Continuous
 62
     7
370
    13
100
AcDbLine
 10
94.470548
 20
4.683987
 30
0.0
 11
94.548465
 21
4.683987
 31
0.0
  0
LINE
  5
42F
330
468
100
AcDbEntity
  8
Level 1
  6
Continuous
 62
     7
370
    13
100
AcDbLine
 10
94.625569
 20
4.683987
 30
0.0
 11
94.703486
 21
4.683987
 31
0.0
  0
LINE
  5
430
330
468
100
AcDbEntity
  8
Level 1
  6
Continuous
 62
     7
370
    13
100
AcDbLine
 10
94.781413
 20
4.683987
 30
0.0
 11
94.798819
 21
4.683987
 31
0.0
  0
LINE
  5
431
330
468
100
AcDbEntity
  8
Level 1
  6
Continuous
 62
     7
370
    13
100
AcDbLine
 10
95.129131
 20
4.616281
 30
0.0
 11
95.16809
 21
4.683427
 31
0.0
  0
LINE
  5
432
330
468
100
AcDbEntity
  8
Level 1
  6
Continuous
 62
     7
370
    13
100
AcDbLine
 10
94.974111
 20
4.616281
 30
0.0
 11
95.012246
 21
4.683427
 31
0.0
  0
LINE
  5
433
330
468
100
AcDbEntity
  8
Level 1
  6
Continuous
 62
     7
370
    13
100
AcDbLine
 10
94.818256
 20
4.616281
 30
0.0
 11
94.857225
 21
4.683427
 31
0.0
  0
LINE
  5
434
330
468
100
AcDbEntity
  8
Level 1
  6
Continuous
 62
     7
370
    13
100
AcDbLine
 10
95.129131
 20
4.616281
 30
0.0
 11
95.090163
 21
4.683427
 31
0.0
  0
LINE
  5
435
330
468
100
AcDbEntity
  8
Level 1
  6
Continuous
 62
     7
370
    13
100
AcDbLine
 10
94.974111
 20
4.616281
 30
0.0
 11
94.935142
 21
4.683427
 31
0.0
  0
LINE
  5
436
330
468
100
AcDbEntity
  8
Level 1
  6
Continuous
 62
     7
370
    13
100
AcDbLine
 10
94.818256
 20
4.616281
 30
0.0
 11
94.779298
 21
4.683427
 31
0.0
  0
LINE
  5
437
330
468
100
AcDbEntity
  8
Level 1
  6
Continuous
 62
     7
370
    13
100
AcDbLine
 10
94.779298
 20
4.683427
 30
0.0
 11
94.857225
 21
4.683427
 31
0.0
  0
LINE
  5
438
330
468
100
AcDbEntity
  8
Level 1
  6
Continuous
 62
     7
370
    13
100
AcDbLine
 10
94.935142
 20
4.683427
 30
0.0
 11
95.012246
 21
4.683427
 31
0.0
  0
LINE
  5
439
330
468
100
AcDbEntity
  8
Level 1
  6
Continuous
 62
     7
370
    13
100
AcDbLine
 10
95.090163
 20
4.683427
 30
0.0
 11
95.16809
 21
4.683427
 31
0.0
  0
LINE
  5
43A
330
468
100
AcDbEntity
  8
Level 1
  6
Continuous
 62
     7
370
    13
100
AcDbLine
 10
95.446715
 20
4.616281
 30
0.0
 11
95.484851
 21
4.683427
 31
0.0
  0
LINE
  5
43B
330
468
100
AcDbEntity
  8
Level 1
  6
Continuous
 62
     7
370
    13
100
AcDbLine
 10
95.290861
 20
4.616281
 30
0.0
 11
95.32983
 21
4.683427
 31
0.0
  0
LINE
  5
43C
330
468
100
AcDbEntity
  8
Level 1
  6
Continuous
 62
     7
370
    13
100
AcDbLine
 10
95.446715
 20
4.616281
 30
0.0
 11
95.407747
 21
4.683427
 31
0.0
  0
LINE
  5
43D
330
468
100
AcDbEntity
  8
Level 1
  6
Continuous
 62
     7
370
    13
100
AcDbLine
 10
95.290861
 20
4.616281
 30
0.0
 11
95.251903
 21
4.683427
 31
0.0
  0
LINE
  5
43E
330
468
100
AcDbEntity
  8
Level 1
  6
Continuous
 62
     7
370
    13
100
AcDbLine
 10
95.251903
 20
4.683427
 30
0.0
 11
95.32983
 21
4.683427
 31
0.0
  0
LINE
  5
43F
330
468
100
AcDbEntity
  8
Level 1
  6
Continuous
 62
     7
370
    13
100
AcDbLine
 10
95.407747
 20
4.683427
 30
0.0
 11
95.484851
 21
4.683427
 31
0.0
  0
LINE
  5
440
330
468
100
AcDbEntity
  8
Level 1
  6
Continuous
 62
     7
370
    13
100
AcDbLine
 10
93.419331
 20
4.617997
 30
0.0
 11
93.458289
 21
4.685143
 31
0.0
  0
LINE
  5
441
330
468
100
AcDbEntity
  8
Level 1
  6
Continuous
 62
     7
370
    13
100
AcDbLine
 10
93.540362
 20
4.677685
 30
0.0
 11
93.536216
 21
4.685143
 31
0.0
  0
LINE
  5
442
330
468
100
AcDbEntity
  8
Level 1
  6
Continuous
 62
     7
370
    13
100
AcDbLine
 10
93.419331
 20
4.617997
 30
0.0
 11
93.380372
 21
4.685143
 31
0.0
  0
LINE
  5
443
330
468
100
AcDbEntity
  8
Level 1
  6
Continuous
 62
     7
370
    13
100
AcDbLine
 10
93.380372
 20
4.685143
 30
0.0
 11
93.458289
 21
4.685143
 31
0.0
  0
LINE
  5
444
330
468
100
AcDbEntity
  8
Level 1
  6
Continuous
 62
     7
370
    13
100
AcDbLine
 10
93.536216
 20
4.685143
 30
0.0
 11
93.553622
 21
4.685143
 31
0.0
  0
LINE
  5
445
330
468
100
AcDbEntity
  8
Level 1
  6
Continuous
 62
     7
370
    13
100
AcDbLine
 10
93.883935
 20
4.617437
 30
0.0
 11
93.922893
 21
4.684583
 31
0.0
  0
LINE
  5
446
330
468
100
AcDbEntity
  8
Level 1
  6
Continuous
 62
     7
370
    13
100
AcDbLine
 10
93.728914
 20
4.617437
 30
0.0
 11
93.767049
 21
4.684583
 31
0.0
  0
LINE
  5
447
330
468
100
AcDbEntity
  8
Level 1
  6
Continuous
 62
     7
370
    13
100
AcDbLine
 10
93.57306
 20
4.617437
 30
0.0
 11
93.612028
 21
4.684583
 31
0.0
  0
LINE
  5
448
330
468
100
AcDbEntity
  8
Level 1
  6
Continuous
 62
     7
370
    13
100
AcDbLine
 10
93.883935
 20
4.617437
 30
0.0
 11
93.844966
 21
4.684583
 31
0.0
  0
LINE
  5
449
330
468
100
AcDbEntity
  8
Level 1
  6
Continuous
 62
     7
370
    13
100
AcDbLine
 10
93.728914
 20
4.617437
 30
0.0
 11
93.689945
 21
4.684583
 31
0.0
  0
LINE
  5
44A
330
468
100
AcDbEntity
  8
Level 1
  6
Continuous
 62
     7
370
    13
100
AcDbLine
 10
93.57306
 20
4.617437
 30
0.0
 11
93.534101
 21
4.684583
 31
0.0
  0
LINE
  5
44B
330
468
100
AcDbEntity
  8
Level 1
  6
Continuous
 62
     7
370
    13
100
AcDbLine
 10
93.534101
 20
4.684583
 30
0.0
 11
93.612028
 21
4.684583
 31
0.0
  0
LINE
  5
44C
330
468
100
AcDbEntity
  8
Level 1
  6
Continuous
 62
     7
370
    13
100
AcDbLine
 10
93.689945
 20
4.684583
 30
0.0
 11
93.767049
 21
4.684583
 31
0.0
  0
LINE
  5
44D
330
468
100
AcDbEntity
  8
Level 1
  6
Continuous
 62
     7
370
    13
100
AcDbLine
 10
93.844966
 20
4.684583
 30
0.0
 11
93.922893
 21
4.684583
 31
0.0
  0
LINE
  5
44E
330
468
100
AcDbEntity
  8
Level 1
  6
Continuous
 62
     7
370
    13
100
AcDbLine
 10
94.201519
 20
4.617437
 30
0.0
 11
94.239654
 21
4.684583
 31
0.0
  0
LINE
  5
44F
330
468
100
AcDbEntity
  8
Level 1
  6
Continuous
 62
     7
370
    13
100
AcDbLine
 10
94.045664
 20
4.617437
 30
0.0
 11
94.084633
 21
4.684583
 31
0.0
  0
LINE
  5
450
330
468
100
AcDbEntity
  8
Level 1
  6
Continuous
 62
     7
370
    13
100
AcDbLine
 10
94.201519
 20
4.617437
 30
0.0
 11
94.16255
 21
4.684583
 31
0.0
  0
LINE
  5
451
330
468
100
AcDbEntity
  8
Level 1
  6
Continuous
 62
     7
370
    13
100
AcDbLine
 10
94.045664
 20
4.617437
 30
0.0
 11
94.006706
 21
4.684583
 31
0.0
  0
LINE
  5
452
330
468
100
AcDbEntity
  8
Level 1
  6
Continuous
 62
     7
370
    13
100
AcDbLine
 10
94.006706
 20
4.684583
 30
0.0
 11
94.084633
 21
4.684583
 31
0.0
  0
LINE
  5
453
330
468
100
AcDbEntity
  8
Level 1
  6
Continuous
 62
     7
370
    13
100
AcDbLine
 10
94.16255
 20
4.684583
 30
0.0
 11
94.239654
 21
4.684583
 31
0.0
  0
TEXT
  5
368
330
468
100
AcDbEntity
  8
Level 1
  6
Continuous
 62
     7
370
    13
100
AcDbText
 10
90.925051
 20
1.435355
 30
0.0
 40
0.1125
  1
TYPE 1A - RAILROAD-HIGHWAY GRADE CROSSING
  7
Style-Arial
 11
90.925051
 21
1.491605
 31
0.0
100
AcDbText
 73
     2
  0
TEXT
  5
369
330
468
100
AcDbEntity
  8
Level 1
  6
Continuous
 62
     7
370
    13
100
AcDbText
 10
90.951473
 20
1.238063
 30
0.0
 40
0.1125
  1
AGGREGATE WITH TIMBER FLANGEWAY GUARDS
  7
Style-Arial
 11
90.951473
 21
1.294313
 31
0.0
100
AcDbText
 73
     2
  0
TEXT
  5
63
330
468
100
AcDbEntity
  8
Level 1
  6
Continuous
 62
     7
370
    13
100
AcDbText
 10
95.566828
 20
1.445969
 30
0.0
 40
0.1125
  1
DATE
  7
Style-Arial
 11
95.566828
 21
1.502219
 31
0.0
100
AcDbText
 73
     2
  0
TEXT
  5
64
330
468
100
AcDbEntity
  8
Level 1
  6
Continuous
 62
     7
370
    13
100
AcDbText
 10
95.426656
 20
1.229637
 30
0.0
 40
0.1125
  1
AUG 1990
  7
Style-Arial
 11
95.426656
 21
1.285887
 31
0.0
100
AcDbText
 73
     2
  0
TEXT
  5
3AF
330
468
100
AcDbEntity
  8
Level 1
  6
Continuous
 62
     7
370
    13
100
AcDbText
 10
96.680709
 20
1.457952
 30
0.0
 40
0.1125
  1
FIGURE
  7
Style-Arial
 11
96.680709
 21
1.514202
 31
0.0
100
AcDbText
 73
     2
  0
TEXT
  5
3B0
330
468
100
AcDbEntity
  8
Level 1
  6
Continuous
 62
     7
370
    13
100
AcDbText
 10
96.787897
 20
1.241219
 30
0.0
 40
0.1125
  1
2-36k
  7
Style-Arial
 11
96.787897
 21
1.297469
 31
0.0
100
AcDbText
 73
     2
  0
TEXT
  5
156
330
468
100
AcDbEntity
  8
Level 1
  6
Continuous
 62
     7
370
    13
100
AcDbText
 10
93.682086
 20
1.963522
 30
0.0
 40
0.1125
  1
TIMBER
  7
Style-Arial
 11
93.682086
 21
2.019772
 31
0.0
100
AcDbText
 73
     2
  0
TEXT
  5
157
330
468
100
AcDbEntity
  8
Level 1
  6
Continuous
 62
     7
370
    13
100
AcDbText
 10
93.463624
 20
1.777034
 30
0.0
 40
0.1125
  1
JOINT DETAIL
  7
Style-Arial
 11
93.463624
 21
1.833284
 31
0.0
100
AcDbText
 73
     2
  0
TEXT
  5
D8
330
468
100
AcDbEntity
  8
Level 1
  6
Continuous
 62
     7
370
    13
100
AcDbText
 10
93.906581
 20
4.31806
 30
0.0
 40
0.1125
  1
SUBGRADE
  7
Style-Arial
 11
93.906581
 21
4.37431
 31
0.0
100
AcDbText
 73
     2
  0
TEXT
  5
FA
330
468
100
AcDbEntity
  8
Level 1
  6
Continuous
 62
     7
370
    13
100
AcDbText
 10
94.136614
 20
4.14225
 30
0.0
 40
0.1125
  1
SECTION
  7
Style-Arial
 11
94.136614
 21
4.1985
 31
0.0
100
AcDbText
 73
     2
  0
TEXT
  5
F8
330
468
100
AcDbEntity
  8
Level 1
  6
Continuous
 62
     7
370
    13
100
AcDbText
 10
95.558808
 20
3.604539
 30
0.0
 40
0.1125
  1
DRAWING NOT TO SCALE
  7
Style-Arial
 11
95.558808
 21
3.660789
 31
0.0
100
AcDbText
 73
     2
  0
TEXT
  5
F9
330
468
100
AcDbEntity
  8
Level 1
  6
Continuous
 62
     7
370
    13
100
AcDbText
 10
94.700415
 20
2.740014
 30
0.0
 40
0.1125
  1
NOTES:
  7
Style-Arial
 11
94.700415
 21
2.796264
 31
0.0
100
AcDbText
 73
     2
  0
TEXT
  5
338
330
468
100
AcDbEntity
  8
Level 1
  6
Continuous
 62
     7
370
    13
100
AcDbText
 10
94.625371
 20
6.674345
 30
0.0
 40
0.1125
  1
ELEVATION THROUGH TRACK AND
  7
Style-Arial
 11
94.625371
 21
6.730595
 31
0.0
100
AcDbText
 73
     2
  0
TEXT
  5
339
330
468
100
AcDbEntity
  8
Level 1
  6
Continuous
 62
     7
370
    13
100
AcDbText
 10
95.400527
 20
6.437691
 30
0.0
 40
0.1125
  1
BEVEL DETAIL
  7
Style-Arial
 11
95.400527
 21
6.493941
 31
0.0
100
AcDbText
 73
     2
  0
TEXT
  5
2E1
330
468
100
AcDbEntity
  8
Level 1
  6
Continuous
 62
     7
370
    13
100
AcDbText
 10
93.690155
 20
7.274482
 30
0.0
 40
0.1125
  1
PLAN
  7
Style-Arial
 11
93.690155
 21
7.330732
 31
0.0
100
AcDbText
 73
     2
  0
ENDSEC
  0
SECTION
  2
OBJECTS
  0
DICTIONARY
  5
45C
330
0
100
AcDbDictionary
281
     1
  3
ACAD_COLOR
350
47B
  3
ACAD_GROUP
350
478
  3
ACAD_LAYOUT
350
46C
  3
ACAD_MATERIAL
350
47A
  3
ACAD_MLINESTYLE
350
466
  3
ACAD_PLOTSETTINGS
350
479
  3
ACAD_PLOTSTYLENAME
350
45B
  3
ACAD_TABLESTYLE
350
48F
  3
AcadDim
350
488
  3
MicroStation
350
480
  0
DICTIONARY
  5
458
330
457
100
AcDbDictionary
280
     1
281
     1
  3
ACAD_LAYERFILTERS
360
47F
  3
ACAD_LAYERSTATES
360
459
  0
DICTIONARY
  5
48B
330
468
100
AcDbDictionary
280
     1
281
     1
  3
ACAD_SORTENTS
360
48C
  0
DICTIONARY
  5
47B
102
{ACAD_REACTORS
330
45C
102
}
330
45C
100
AcDbDictionary
281
     1
  0
DICTIONARY
  5
478
102
{ACAD_REACTORS
330
45C
102
}
330
45C
100
AcDbDictionary
281
     1
  0
DICTIONARY
  5
46C
102
{ACAD_REACTORS
330
45C
102
}
330
45C
100
AcDbDictionary
281
     1
  3
Layout1
350
470
  3
Model
350
46B
  0
DICTIONARY
  5
47A
102
{ACAD_REACTORS
330
45C
102
}
330
45C
100
AcDbDictionary
281
     1
  0
DICTIONARY
  5
466
102
{ACAD_REACTORS
330
45C
102
}
330
45C
100
AcDbDictionary
281
     1
  3
Standard
350
465
  0
DICTIONARY
  5
479
102
{ACAD_REACTORS
330
45C
102
}
330
45C
100
AcDbDictionary
281
     1
  0
ACDBDICTIONARYWDFLT
  5
45B
102
{ACAD_REACTORS
330
45C
102
}
330
45C
100
AcDbDictionary
281
     1
  3
Normal
350
45A
100
AcDbDictionaryWithDefault
340
45A
  0
DICTIONARY
  5
48F
102
{ACAD_REACTORS
330
45C
102
}
330
45C
100
AcDbDictionary
281
     1
  0
XRECORD
  5
488
102
{ACAD_REACTORS
330
45C
102
}
330
45C
100
AcDbXrecord
280
     1
 90
   990106
  3
 
 60
     0
 61
     0
 62
     1
 63
     1
 64
     0
 65
     0
 66
     0
 67
     3
 68
     1
 69
     1
 70
     0
 71
     0
 72
     0
 40
0.0
170
     0
  0
DICTIONARY
  5
480
102
{ACAD_REACTORS
330
45C
102
}
330
45C
100
AcDbDictionary
281
     1
  3
ApplicationElement 1031
350
407
  3
ApplicationElement 1108
350
454
  3
ModelApplicationElement 0 1030
350
406
  0
DICTIONARY
  5
47F
102
{ACAD_REACTORS
330
458
102
}
330
458
100
AcDbDictionary
281
     1
  0
DICTIONARY
  5
459
102
{ACAD_REACTORS
330
458
102
}
330
458
100
AcDbDictionary
281
     1
  0
SORTENTSTABLE
  5
48C
102
{ACAD_REACTORS
330
48B
102
}
330
48B
100
AcDbSortentsTable
330
468
331
63
  5
447
331
64
  5
448
331
65
  5
63
331
66
  5
64
331
67
  5
65
331
68
  5
66
331
69
  5
2AA
331
6A
  5
2AB
331
6B
  5
67
331
6C
  5
68
331
6D
  5
69
331
6E
  5
6A
331
6F
  5
6B
331
70
  5
6C
331
71
  5
6D
331
72
  5
6E
331
73
  5
6F
331
74
  5
70
331
75
  5
71
331
76
  5
72
331
77
  5
73
331
78
  5
74
331
79
  5
75
331
7A
  5
76
331
7B
  5
77
331
7C
  5
78
331
7D
  5
79
331
7E
  5
7A
331
7F
  5
7B
331
80
  5
7C
331
81
  5
7D
331
82
  5
7E
331
83
  5
7F
331
84
  5
80
331
85
  5
81
331
86
  5
82
331
87
  5
83
331
88
  5
84
331
89
  5
85
331
8A
  5
86
331
8B
  5
87
331
8C
  5
88
331
8D
  5
89
331
8E
  5
8A
331
8F
  5
8B
331
90
  5
8C
331
91
  5
8D
331
92
  5
8E
331
93
  5
8F
331
94
  5
90
331
95
  5
91
331
96
  5
92
331
97
  5
93
331
98
  5
94
331
99
  5
95
331
9A
  5
96
331
9B
  5
97
331
9C
  5
98
331
9D
  5
99
331
9E
  5
9A
331
9F
  5
9B
331
A0
  5
9C
331
A1
  5
9D
331
A2
  5
9E
331
A3
  5
9F
331
A4
  5
A0
331
A5
  5
A1
331
A6
  5
A2
331
A7
  5
A3
331
A8
  5
A4
331
A9
  5
2AC
331
AA
  5
2AD
331
AB
  5
2AE
331
AC
  5
2AF
331
AD
  5
2B0
331
AE
  5
2B1
331
AF
  5
2B2
331
B0
  5
2B3
331
B1
  5
2B4
331
B2
  5
2B5
331
B3
  5
2B6
331
B4
  5
2B7
331
B5
  5
2B8
331
B6
  5
2B9
331
B7
  5
2BA
331
B8
  5
2BB
331
B9
  5
2BC
331
BA
  5
2BD
331
BB
  5
2BE
331
BC
  5
2BF
331
BD
  5
2C0
331
BE
  5
2C1
331
BF
  5
2C2
331
C0
  5
2C3
331
C1
  5
2C4
331
C2
  5
2C5
331
C3
  5
2C6
331
C4
  5
2C7
331
C5
  5
2C8
331
C6
  5
2C9
331
C7
  5
2CA
331
C8
  5
2CB
331
C9
  5
2CC
331
CA
  5
2CD
331
CB
  5
2CE
331
CC
  5
2CF
331
CD
  5
2D0
331
CE
  5
2D1
331
CF
  5
2D2
331
D0
  5
2D3
331
D1
  5
2D4
331
D2
  5
2D5
331
D3
  5
2D6
331
D4
  5
2D7
331
D5
  5
A5
331
D6
  5
A6
331
D7
  5
A7
331
D8
  5
44D
331
D9
  5
2D8
331
DA
  5
2D9
331
DB
  5
A8
331
DC
  5
A9
331
DD
  5
AA
331
DE
  5
AB
331
DF
  5
2DA
331
E0
  5
2DB
331
E1
  5
2DC
331
E2
  5
2DD
331
E3
  5
AC
331
E4
  5
2DE
331
E5
  5
2DF
331
E6
  5
2E0
331
E7
  5
2E1
331
E8
  5
2E2
331
E9
  5
2E3
331
EA
  5
AD
331
EB
  5
AE
331
EC
  5
AF
331
ED
  5
B0
331
EE
  5
B1
331
EF
  5
B2
331
F0
  5
B3
331
F1
  5
B4
331
F2
  5
B5
331
F3
  5
B6
331
F4
  5
B7
331
F5
  5
B8
331
F6
  5
B9
331
F7
  5
BA
331
F8
  5
44F
331
F9
  5
450
331
FA
  5
44E
331
FB
  5
BB
331
FC
  5
BC
331
FD
  5
BD
331
FE
  5
BE
331
FF
  5
2E4
331
100
  5
2E5
331
101
  5
2E6
331
102
  5
2E7
331
103
  5
BF
331
104
  5
2E8
331
105
  5
2E9
331
106
  5
C0
331
107
  5
C1
331
108
  5
2EA
331
109
  5
2EB
331
10A
  5
2EC
331
10B
  5
2ED
331
10C
  5
2EE
331
10D
  5
2EF
331
10E
  5
2F0
331
10F
  5
2F1
331
110
  5
2F2
331
111
  5
C2
331
112
  5
C3
331
113
  5
C4
331
114
  5
C5
331
115
  5
C6
331
116
  5
C7
331
117
  5
C8
331
118
  5
C9
331
119
  5
CA
331
11A
  5
CB
331
11B
  5
CC
331
11C
  5
CD
331
11D
  5
CE
331
11E
  5
CF
331
11F
  5
D0
331
120
  5
D1
331
121
  5
D2
331
122
  5
D3
331
123
  5
D4
331
124
  5
D5
331
125
  5
D6
331
126
  5
2F3
331
127
  5
2F4
331
128
  5
D7
331
129
  5
D8
331
12A
  5
D9
331
12B
  5
DA
331
12C
  5
DB
331
12D
  5
DC
331
12E
  5
DD
331
12F
  5
DE
331
130
  5
DF
331
131
  5
E0
331
132
  5
E1
331
133
  5
E2
331
134
  5
E3
331
135
  5
E4
331
136
  5
E5
331
137
  5
E6
331
138
  5
E7
331
139
  5
E8
331
13A
  5
E9
331
13B
  5
EA
331
13C
  5
EB
331
13D
  5
EC
331
13E
  5
ED
331
13F
  5
EE
331
140
  5
EF
331
141
  5
F0
331
142
  5
F1
331
143
  5
F2
331
144
  5
F3
331
145
  5
F4
331
146
  5
F5
331
147
  5
F6
331
148
  5
F7
331
149
  5
2F5
331
14A
  5
2F6
331
14B
  5
2F7
331
14C
  5
F8
331
14D
  5
F9
331
14E
  5
FA
331
14F
  5
FB
331
150
  5
FC
331
151
  5
FD
331
152
  5
FE
331
153
  5
2F8
331
154
  5
2F9
331
155
  5
2FA
331
156
  5
44B
331
157
  5
44C
331
158
  5
FF
331
159
  5
100
331
15A
  5
101
331
15B
  5
102
331
15C
  5
103
331
15D
  5
104
331
15E
  5
105
331
15F
  5
106
331
160
  5
107
331
161
  5
108
331
162
  5
109
331
163
  5
10A
331
164
  5
10B
331
165
  5
10C
331
166
  5
10D
331
168
  5
10E
331
16A
  5
10F
331
16C
  5
110
331
16E
  5
111
331
170
  5
112
331
172
  5
113
331
173
  5
114
331
174
  5
115
331
175
  5
116
331
176
  5
117
331
177
  5
118
331
178
  5
119
331
179
  5
11A
331
17A
  5
11B
331
17B
  5
11C
331
17C
  5
11D
331
17D
  5
11E
331
17E
  5
11F
331
17F
  5
120
331
180
  5
121
331
182
  5
122
331
184
  5
123
331
186
  5
124
331
188
  5
125
331
18A
  5
126
331
18B
  5
127
331
18E
  5
128
331
18F
  5
129
331
191
  5
12A
331
192
  5
12B
331
193
  5
12C
331
194
  5
12D
331
195
  5
12E
331
196
  5
12F
331
197
  5
130
331
198
  5
131
331
199
  5
132
331
19A
  5
133
331
19B
  5
134
331
19C
  5
135
331
19D
  5
136
331
19E
  5
137
331
19F
  5
138
331
1A1
  5
139
331
1A3
  5
13A
331
1A5
  5
13B
331
1A7
  5
13C
331
1A9
  5
13D
331
1AB
  5
13E
331
1AC
  5
13F
331
1AD
  5
140
331
1AE
  5
141
331
1AF
  5
142
331
1B0
  5
143
331
1B1
  5
144
331
1B2
  5
145
331
1B3
  5
146
331
1B4
  5
147
331
1B5
  5
148
331
1B6
  5
149
331
1B8
  5
14A
331
1BA
  5
14B
331
1BC
  5
14C
331
1BE
  5
14D
331
1C0
  5
14E
331
1C1
  5
14F
331
1C3
  5
150
331
1C4
  5
151
331
1C6
  5
152
331
1C7
  5
153
331
1C8
  5
154
331
1C9
  5
155
331
1CA
  5
156
331
1CB
  5
157
331
1CC
  5
158
331
1CD
  5
159
331
1CE
  5
15A
331
1CF
  5
15B
331
1D0
  5
15C
331
1D1
  5
15D
331
1D2
  5
15E
331
1D3
  5
15F
331
1D4
  5
160
331
1D5
  5
161
331
1D6
  5
162
331
1D7
  5
163
331
1D9
  5
164
331
1DA
  5
165
331
1DB
  5
166
331
1DC
  5
168
331
1DD
  5
16A
331
1DE
  5
16C
331
1DF
  5
16E
331
1E0
  5
170
331
1E2
  5
172
331
1E3
  5
173
331
1E4
  5
174
331
1E5
  5
175
331
1E6
  5
176
331
1E7
  5
177
331
1E8
  5
178
331
1E9
  5
179
331
1EA
  5
17A
331
1EB
  5
17B
331
1EC
  5
17C
331
1ED
  5
17D
331
1EE
  5
17E
331
1EF
  5
17F
331
1F0
  5
180
331
1F1
  5
182
331
1F2
  5
184
331
1F3
  5
186
331
1F4
  5
188
331
1F5
  5
18A
331
1F6
  5
18B
331
1F7
  5
18E
331
1F8
  5
18F
331
1F9
  5
191
331
1FA
  5
192
331
1FB
  5
193
331
1FC
  5
194
331
1FD
  5
195
331
1FE
  5
196
331
1FF
  5
197
331
200
  5
198
331
201
  5
199
331
202
  5
19A
331
203
  5
19B
331
204
  5
19C
331
205
  5
19D
331
206
  5
19E
331
207
  5
19F
331
208
  5
1A1
331
209
  5
1A3
331
20A
  5
1A5
331
20B
  5
1A7
331
20C
  5
1A9
331
20D
  5
1AB
331
20E
  5
1AC
331
20F
  5
1AD
331
210
  5
1AE
331
211
  5
1AF
331
212
  5
1B0
331
213
  5
1B1
331
214
  5
1B2
331
215
  5
1B3
331
216
  5
1B4
331
217
  5
1B5
331
218
  5
1B6
331
219
  5
1B8
331
21A
  5
1BA
331
21B
  5
1BC
331
21C
  5
1BE
331
21D
  5
1C0
331
21E
  5
1C1
331
21F
  5
1C3
331
220
  5
1C4
331
221
  5
1C6
331
222
  5
1C7
331
223
  5
1C8
331
224
  5
1C9
331
225
  5
1CA
331
226
  5
1CB
331
227
  5
1CC
331
228
  5
1CD
331
229
  5
1CE
331
22A
  5
1CF
331
22B
  5
2FB
331
22C
  5
2FC
331
22D
  5
2FD
331
22E
  5
2FE
331
22F
  5
2FF
331
230
  5
300
331
231
  5
301
331
232
  5
302
331
233
  5
303
331
234
  5
304
331
235
  5
305
331
236
  5
306
331
237
  5
307
331
238
  5
308
331
239
  5
309
331
23A
  5
30A
331
23B
  5
30B
331
23C
  5
30C
331
23D
  5
30D
331
23E
  5
30E
331
23F
  5
1D0
331
240
  5
1D1
331
241
  5
30F
331
242
  5
310
331
243
  5
311
331
244
  5
312
331
245
  5
313
331
246
  5
314
331
247
  5
315
331
248
  5
316
331
249
  5
317
331
24A
  5
318
331
24B
  5
319
331
24C
  5
31A
331
24D
  5
31B
331
24E
  5
31C
331
24F
  5
31D
331
250
  5
31E
331
251
  5
31F
331
252
  5
320
331
253
  5
321
331
254
  5
322
331
255
  5
323
331
256
  5
324
331
257
  5
325
331
258
  5
326
331
259
  5
327
331
25A
  5
328
331
25B
  5
329
331
25C
  5
32A
331
25D
  5
32B
331
25E
  5
32C
331
25F
  5
32D
331
260
  5
32E
331
261
  5
32F
331
262
  5
330
331
263
  5
331
331
264
  5
332
331
265
  5
333
331
266
  5
334
331
267
  5
335
331
268
  5
336
331
269
  5
337
331
26A
  5
338
331
26B
  5
339
331
26C
  5
33A
331
26D
  5
33B
331
26E
  5
33C
331
26F
  5
33D
331
270
  5
33E
331
271
  5
33F
331
272
  5
340
331
273
  5
341
331
274
  5
342
331
275
  5
343
331
276
  5
344
331
277
  5
345
331
278
  5
346
331
279
  5
347
331
27A
  5
348
331
27B
  5
349
331
27C
  5
34A
331
27D
  5
1D2
331
27E
  5
1D3
331
27F
  5
1D4
331
280
  5
1D5
331
281
  5
1D6
331
282
  5
1D7
331
283
  5
1D9
331
284
  5
1DA
331
285
  5
1DB
331
286
  5
1DC
331
287
  5
1DD
331
288
  5
1DE
331
289
  5
1DF
331
28A
  5
1E0
331
28B
  5
1E2
331
28C
  5
1E3
331
28D
  5
1E4
331
28E
  5
1E5
331
28F
  5
1E6
331
290
  5
1E7
331
291
  5
1E8
331
292
  5
1E9
331
293
  5
1EA
331
294
  5
1EB
331
295
  5
1EC
331
296
  5
1ED
331
297
  5
1EE
331
298
  5
1EF
331
299
  5
1F0
331
29A
  5
1F1
331
29B
  5
1F2
331
29C
  5
1F3
331
29D
  5
1F4
331
29E
  5
1F5
331
29F
  5
34B
331
2A0
  5
34C
331
2A1
  5
34D
331
2A2
  5
34E
331
2A3
  5
34F
331
2A4
  5
350
331
2A5
  5
351
331
2A6
  5
352
331
2A7
  5
353
331
2A8
  5
1F6
331
2A9
  5
1F7
331
2AA
  5
1F8
331
2AB
  5
1F9
331
2AC
  5
1FA
331
2AD
  5
1FB
331
2AE
  5
1FC
331
2AF
  5
1FD
331
2B0
  5
1FE
331
2B1
  5
1FF
331
2B2
  5
200
331
2B3
  5
354
331
2B4
  5
355
331
2B5
  5
201
331
2B6
  5
202
331
2B7
  5
203
331
2B8
  5
204
331
2B9
  5
205
331
2BA
  5
206
331
2BB
  5
207
331
2BC
  5
208
331
2BD
  5
209
331
2BE
  5
20A
331
2BF
  5
20B
331
2C0
  5
20C
331
2C1
  5
20D
331
2C2
  5
20E
331
2C3
  5
20F
331
2C4
  5
210
331
2C5
  5
211
331
2C6
  5
212
331
2C7
  5
213
331
2C8
  5
214
331
2C9
  5
215
331
2CA
  5
216
331
2CB
  5
217
331
2CC
  5
218
331
2CD
  5
219
331
2CE
  5
21A
331
2CF
  5
21B
331
2D0
  5
21C
331
2D1
  5
21D
331
2D2
  5
21E
331
2D3
  5
21F
331
2D4
  5
220
331
2D5
  5
221
331
2D6
  5
222
331
2D7
  5
223
331
2D8
  5
224
331
2D9
  5
225
331
2DA
  5
226
331
2DB
  5
227
331
2DC
  5
228
331
2DD
  5
229
331
2DE
  5
22A
331
2DF
  5
356
331
2E0
  5
357
331
2E1
  5
453
331
2E2
  5
22B
331
2E3
  5
22C
331
2E4
  5
22D
331
2E5
  5
22E
331
2E6
  5
22F
331
2E7
  5
358
331
2E8
  5
359
331
2E9
  5
35A
331
2EA
  5
230
331
2EB
  5
231
331
2EC
  5
232
331
2ED
  5
233
331
2EE
  5
234
331
2EF
  5
235
331
2F0
  5
236
331
2F1
  5
237
331
2F2
  5
238
331
2F3
  5
239
331
2F4
  5
23A
331
2F5
  5
23B
331
2F6
  5
23C
331
2F7
  5
23D
331
2F8
  5
23E
331
2F9
  5
23F
331
2FA
  5
35B
331
2FB
  5
35C
331
2FC
  5
35D
331
2FD
  5
35E
331
2FE
  5
35F
331
2FF
  5
360
331
300
  5
361
331
301
  5
362
331
302
  5
363
331
303
  5
364
331
304
  5
365
331
305
  5
366
331
306
  5
367
331
307
  5
368
331
308
  5
369
331
309
  5
36A
331
30A
  5
36D
331
30B
  5
36E
331
30C
  5
36F
331
30D
  5
370
331
30E
  5
375
331
30F
  5
37B
331
310
  5
37C
331
311
  5
37D
331
312
  5
37E
331
313
  5
37F
331
314
  5
380
331
315
  5
381
331
316
  5
382
331
317
  5
383
331
318
  5
384
331
319
  5
385
331
31A
  5
386
331
31B
  5
387
331
31C
  5
388
331
31D
  5
389
331
31E
  5
38A
331
31F
  5
38B
331
320
  5
38C
331
321
  5
38D
331
322
  5
38E
331
323
  5
240
331
324
  5
241
331
325
  5
242
331
326
  5
243
331
327
  5
244
331
328
  5
245
331
329
  5
246
331
32A
  5
38F
331
32B
  5
247
331
32C
  5
248
331
32D
  5
249
331
32E
  5
24A
331
32F
  5
390
331
330
  5
391
331
331
  5
24B
331
332
  5
24C
331
333
  5
24D
331
334
  5
24E
331
335
  5
392
331
336
  5
24F
331
337
  5
250
331
338
  5
451
331
339
  5
452
331
33A
  5
251
331
33B
  5
252
331
33C
  5
253
331
33D
  5
254
331
33E
  5
255
331
33F
  5
256
331
340
  5
257
331
341
  5
258
331
342
  5
259
331
343
  5
25A
331
344
  5
25B
331
345
  5
25C
331
346
  5
25D
331
347
  5
25E
331
348
  5
25F
331
349
  5
260
331
34A
  5
261
331
34B
  5
262
331
34C
  5
263
331
34D
  5
264
331
34E
  5
265
331
34F
  5
266
331
350
  5
267
331
351
  5
268
331
352
  5
269
331
353
  5
26A
331
354
  5
26B
331
355
  5
26C
331
356
  5
26D
331
357
  5
26E
331
358
  5
26F
331
359
  5
270
331
35A
  5
271
331
35B
  5
272
331
35C
  5
273
331
35D
  5
274
331
35E
  5
275
331
35F
  5
276
331
360
  5
277
331
361
  5
278
331
362
  5
279
331
363
  5
27A
331
364
  5
27B
331
365
  5
27C
331
366
  5
27D
331
367
  5
27E
331
368
  5
445
331
369
  5
446
331
36A
  5
393
331
36D
  5
27F
331
36E
  5
280
331
36F
  5
281
331
370
  5
394
331
375
  5
395
331
37B
  5
396
331
37C
  5
397
331
37D
  5
398
331
37E
  5
399
331
37F
  5
39A
331
380
  5
39B
331
381
  5
282
331
382
  5
283
331
383
  5
284
331
384
  5
3A7
331
385
  5
285
331
386
  5
286
331
387
  5
287
331
388
  5
288
331
389
  5
289
331
38A
  5
39C
331
38B
  5
28A
331
38C
  5
28B
331
38D
  5
28C
331
38E
  5
28D
331
38F
  5
28E
331
390
  5
28F
331
391
  5
290
331
392
  5
291
331
393
  5
292
331
394
  5
293
331
395
  5
39D
331
396
  5
39E
331
397
  5
39F
331
398
  5
3A0
331
399
  5
3A1
331
39A
  5
3A2
331
39B
  5
294
331
39C
  5
295
331
39D
  5
296
331
39E
  5
297
331
39F
  5
298
331
3A0
  5
299
331
3A1
  5
29A
331
3A2
  5
29B
331
3A3
  5
29C
331
3A4
  5
29D
331
3A5
  5
29E
331
3A6
  5
29F
331
3A7
  5
2A0
331
3A8
  5
2A1
331
3A9
  5
2A2
331
3AA
  5
2A3
331
3AB
  5
2A4
331
3AC
  5
2A5
331
3AD
  5
2A6
331
3AE
  5
2A7
331
3AF
  5
449
331
3B0
  5
44A
331
3B1
  5
3A3
331
3B2
  5
2A8
331
3B3
  5
2A9
331
3B4
  5
3A4
331
3B5
  5
3A5
331
3B8
  5
3A6
331
40C
  5
3A8
331
40D
  5
3A9
331
40E
  5
3AA
331
40F
  5
3AB
331
410
  5
3AC
331
411
  5
3AD
331
412
  5
3AE
331
413
  5
3AF
331
414
  5
3B0
331
415
  5
3B1
331
416
  5
3B2
331
417
  5
3B3
331
418
  5
3B4
331
419
  5
3B5
331
41A
  5
3B8
331
41B
  5
40C
331
41C
  5
40D
331
41D
  5
40E
331
41E
  5
40F
331
41F
  5
410
331
420
  5
411
331
421
  5
412
331
422
  5
413
331
423
  5
414
331
424
  5
415
331
425
  5
416
331
426
  5
417
331
427
  5
418
331
428
  5
419
331
429
  5
41A
331
42A
  5
41B
331
42B
  5
41C
331
42C
  5
41D
331
42D
  5
41E
331
42E
  5
41F
331
42F
  5
420
331
430
  5
421
331
431
  5
422
331
432
  5
423
331
433
  5
424
331
434
  5
425
331
435
  5
426
331
436
  5
427
331
437
  5
428
331
438
  5
429
331
439
  5
42A
331
43A
  5
42B
331
43B
  5
42C
331
43C
  5
42D
331
43D
  5
42E
331
43E
  5
42F
331
43F
  5
430
331
440
  5
431
331
441
  5
432
331
442
  5
433
331
443
  5
434
331
444
  5
435
331
445
  5
436
331
446
  5
437
331
447
  5
438
331
448
  5
439
331
449
  5
43A
331
44A
  5
43B
331
44B
  5
43C
331
44C
  5
43D
331
44D
  5
43E
331
44E
  5
43F
331
44F
  5
440
331
450
  5
441
331
451
  5
442
331
452
  5
443
331
453
  5
444
  0
LAYOUT
  5
470
102
{ACAD_REACTORS
330
46C
330
46C
102
}
102
{ACAD_XDICTIONARY
360
471
102
}
330
46C
100
AcDbPlotSettings
  1

  2
none_device
  4
Letter_(8.50_x_11.00_Inches)
  6

 40
6.35
 41
6.35
 42
6.350006
 43
6.350006
 44
215.899994
 45
279.399994
 46
0.0
 47
0.0
 48
0.0
 49
0.0
140
0.0
141
0.0
142
1.0
143
1.0
 70
   688
 72
     0
 73
     1
 74
     5
  7

 75
    16
 76
     0
 77
     2
 78
   300
147
1.0
148
0.0
149
0.0
100
AcDbLayout
  1
Layout1
 70
     1
 71
     1
 10
-0.25
 20
-0.25
 11
10.75
 21
8.25
 12
0.0
 22
0.0
 32
0.0
 14
1.049744
 24
0.799667
 34
-0.001526
 15
9.450623
 25
7.200577
 35
0.0
146
0.0
 13
0.0
 23
0.0
 33
0.0
 16
1.0
 26
0.0
 36
0.0
 17
0.0
 27
1.0
 37
0.0
 76
     0
330
46D
1001
ACAD_PSEXT
1000
None
1000
None
1000
Not applicable
1000
The layout will not be plotted unless a new plotter configuration name is selected.
1070
     0
  0
LAYOUT
  5
46B
102
{ACAD_REACTORS
330
46C
330
46C
102
}
330
46C
100
AcDbPlotSettings
  1

  2
none_device
  4
ANSI_A_(8.50_x_11.00_Inches)
  6

 40
6.35
 41
19.049999
 42
6.350006
 43
19.049988
 44
215.899994
 45
279.399994
 46
0.0
 47
0.0
 48
0.0
 49
0.0
140
0.0
141
0.0
142
1.0
143
2.584895
 70
 11952
 72
     0
 73
     1
 74
     0
  7

 75
     0
 76
     0
 77
     2
 78
   300
147
0.386863
148
0.0
149
0.0
100
AcDbLayout
  1
Model
 70
     1
 71
     0
 10
0.0
 20
0.0
 11
12.0
 21
9.0
 12
0.0
 22
0.0
 32
0.0
 14
0.0
 24
0.0
 34
0.0
 15
0.0
 25
0.0
 35
0.0
146
0.0
 13
0.0
 23
0.0
 33
0.0
 16
1.0
 26
0.0
 36
0.0
 17
0.0
 27
1.0
 37
0.0
 76
     0
330
468
331
49
  0
MLINESTYLE
  5
465
102
{ACAD_REACTORS
330
466
102
}
330
466
100
AcDbMlineStyle
  2
STANDARD
 70
     0
  3

 62
   256
 51
90.0
 52
90.0
 71
     2
 49
0.5
 62
   256
  6
BYLAYER
 49
-0.5
 62
   256
  6
BYLAYER
  0
ACDBPLACEHOLDER
  5
45A
102
{ACAD_REACTORS
330
45B
102
}
330
45B
  0
XRECORD
  5
407
102
{ACAD_REACTORS
330
480
102
}
330
480
100
AcDbXrecord
280
     1
310
3E4F020000004D6F64656C6572000000000000000000000000000000000000000000000000000000000000000000000000000000000000000000000000000000000000000000000000000000000000000000000000000000000000000000000000000000000000000000000000000000000000000000000000000000000000
310
00000000000000000000000000000000000000000000000000000000000000000000000000000000000000000000000000000000000000000000000000000000000000000000000000000000000000000000000000000000000000000000000000000000000000000000000000000000000000000000000000000000000000
310
00
310
00000000000000000000000000000000000000000000000000000000000000000000000000000000000000000000000000000000000000000000000000000000000000000000000000000000000000000000000000000000000000000000000000000000000000000000000000000000000000000000000000000000000000
310
00000000000000000000000000000000000000000000000000000000000000000000000000000000000000000000000000000000000000000000000000000000000000000000000000000000000000000000000000000000000000000000000000000000000000000000000000000000000000000000000000000000000000
310
00
310
00000000000000000000000000000000000000000000000000000000000000000000000000000000000000000000000000000000000000000000000000000000000000000000000000000000000000000000000000000000000000000000000000000000000000000000000000000000000000000000000000000000000000
310
00000000000000000000000000000000000000000000000000000000000000000000000000000000000000000000000000000000000000000000000000000000000000000000000000000000000000000000000000000000000000000000000000000000000000000000000000000000000000000000000000000000000000
310
00
310
00000000000000000000000000000000000000000000000000000000000000000000000000000000000000000000000000000000000000000000000000000000000000000000000000000000000000000000000000000000000000000000000000000000000000000000000000000000000000000000000000000000000000
310
00000000000000000000000000000000000000000000000000000000000000000000000000000000000000000000000000000000000000000000000000000000000000000000000000000000000000000000000000000000000000000000000000000000000000000000000000000000000000000000000000000000000000
310
00
310
00000000000000000000000000000000000000000000000000000000000000000000000000000000000000000000000000000000000000000000000000000000000000000000000000000000000000000000000000000000000000000000000000000000000000000000000000000000000000000000000000000000000000
310
00000000000000000000000000000000000000000000000000000000000000000000000000000000000000000000000000000000000000000000000000000000000000000000000000000000000000000000000000000000000000000000000000000000000000000000000000000000000000000000000000000000000000
310
00
310
00000000000000000000000000000000000000000000000000000000000000000000000000000000000000000000000000000000000000000000000000000000000000000000000000000000000000000000000000000000000000000000000000000000000000000000000000000000000000000000000000000000000000
310
00000000000000000000000000000000000000000000000000000000000000000000000000000000000000000000000000000000000000000000000000000000000000000000000000000000000000000000000000000000000000000000000000000000000000000000000000000000000000000000000000000000000000
310
00
310
00000000000000000000000000000000000000000000000000000000000000000000000000000000000000000000000000000000000000000000000000000000000000000000000000000000000000000000000000000000000000000000000000000000000000000000000000000000000000000000000000000000000000
310
00000000000000000000000000000000000000000000000000000000000000000000000000000000000000000000000000000000000000000000000000000000000000000000000000000000000000000000000000000000000000000000000000000000000000000000000000000000000000000000000000000000000000
310
00
310
00000000000000000000000000000000000000000000000000000000000000000000000000000000000000000000000000000000000000000000000000000000000000000000000000000000000000000000000000000000000000000000000000000000000000000000000000000000000000000000000000000000000000
310
00000000000000000000000000000000000000000000000000000000000000000000000000000000000000000000000000000000000000000000000000000000000000000000000000000000000000000000000000000000000000000000000000000000000000000000000000000000000000000000000000000000000000
310
00
310
00000000000000000000000000000000000000000000000000000000000000000000000000000000000000000000000000000000000000000000000000000000000000000000000000000000000000000000000000000000000000000000000000000000000000000000000000000000000000000000000000000000000000
310
00000000000000000000000000000000000000000000000000000000000000000000000000000000000000000000000000000000000000000000000000000000000000000000000000000000000000000000000000000000000000000000000000000000000000000000000000000000000000000000000000000000000000
310
00
310
00000000000000000000000000000000000000000000000000000000000000000000000000000000000000000000000000000000000000000000000000000000000000000000000000000000000000000000000000000000000000000000000000000000000000000000000000000000000000000000000000000000000000
310
00000000000000000000000000000000000000000000000000000000000000000000000000000000000000000000000000000000000000000000000000000000000000000000000000000000000000000000000000000000000000000000000000000000000000000000000000000000000000000000000000000000000000
310
00
310
00000000000000000000000000000000000000000000000000000000000000000000000000000000000000000000000000000000000000000000000000000000000000000000000000000000000000000000000000000000000000000000000000000000000000000000000000000000000000000000000000000000000000
310
00000000000000000000000000000000000000000000000000000000000000000000000000000000000000000000000000000000000000000000000000000000000000000000000000000000000000000000000000000000000000000000000000000000000000000000000000000000000000000000000000000000000000
310
00
310
00000000000000000000000000000000000000000000000000000000000000000000000000000000000000000000000000000000000000000000000000000000000000000000000000000000000000000000000000000000000000000000000000000000000000000000000000000000000000000000000000000000000000
310
00000000000000000000000000000000000000000000000000000000000000000000000000000000000000000000000000000000000000000000000000000000000000000000000000000000000000000000000000000000000000000000000000000000000000000000000000000000000000000000000000000000000000
310
00
310
00000000000000000000000000000000000000000000000000000000000000000000000000000000000000000000000000000000000000000000000000000000000000000000000000000000000000000000000000000000000000000000000000000000000000000000000000000000000000000000000000000000000000
310
00000000000000000000000000000000000000000000000000000000000000000000000000000000000000000000000000000000000000000000000000000000000000000000000000000000000000000000000000000000000000000000000000000000000000000000000000000000000000000000000000000000000000
310
00
310
00000000000000000000000000000000000000000000000000000000000000000000000000000000000000000000000000000000000000000000000000000000000000000000000000000000000000000000000000000000000000000000000000000000000000000000000000000000000000
  0
XRECORD
  5
454
102
{ACAD_REACTORS
330
480
102
}
330
480
100
AcDbXrecord
280
     1
310
3E4F020000004D6F64656C6572000000000000000000000000000000000000000000000000000000000000000000000000000000000000000000000000000000000000000000000000000000000000000000000000000000000000000000000000000000000000000000000000000000000000000000000000000000000000
310
00000000000000000000000000000000000000000000000000000000000000000000000000000000000000000000000000000000000000000000000000000000000000000000000000000000000000000000000000000000000000000000000000000000000000000000000000000000000000000000000000000000000000
310
00
310
00000000000000000000000000000000000000000000000000000000000000000000000000000000000000000000000000000000000000000000000000000000000000000000000000000000000000000000000000000000000000000000000000000000000000000000000000000000000000000000000000000000000000
310
00000000000000000000000000000000000000000000000000000000000000000000000000000000000000000000000000000000000000000000000000000000000000000000000000000000000000000000000000000000000000000000000000000000000000000000000000000000000000000000000000000000000000
310
00
310
00000000000000000000000000000000000000000000000000000000000000000000000000000000000000000000000000000000000000000000000000000000000000000000000000000000000000000000000000000000000000000000000000000000000000000000000000000000000000000000000000000000000000
310
00000000000000000000000000000000000000000000000000000000000000000000000000000000000000000000000000000000000000000000000000000000000000000000000000000000000000000000000000000000000000000000000000000000000000000000000000000000000000000000000000000000000000
310
00
310
00000000000000000000000000000000000000000000000000000000000000000000000000000000000000000000000000000000000000000000000000000000000000000000000000000000000000000000000000000000000000000000000000000000000000000000000000000000000000000000000000000000000000
310
00000000000000000000000000000000000000000000000000000000000000000000000000000000000000000000000000000000000000000000000000000000000000000000000000000000000000000000000000000000000000000000000000000000000000000000000000000000000000000000000000000000000000
310
00
310
00000000000000000000000000000000000000000000000000000000000000000000000000000000000000000000000000000000000000000000000000000000000000000000000000000000000000000000000000000000000000000000000000000000000000000000000000000000000000000000000000000000000000
310
00000000000000000000000000000000000000000000000000000000000000000000000000000000000000000000000000000000000000000000000000000000000000000000000000000000000000000000000000000000000000000000000000000000000000000000000000000000000000000000000000000000000000
310
00
310
00000000000000000000000000000000000000000000000000000000000000000000000000000000000000000000000000000000000000000000000000000000000000000000000000000000000000000000000000000000000000000000000000000000000000000000000000000000000000000000000000000000000000
310
00000000000000000000000000000000000000000000000000000000000000000000000000000000000000000000000000000000000000000000000000000000000000000000000000000000000000000000000000000000000000000000000000000000000000000000000000000000000000000000000000000000000000
310
00
310
00000000000000000000000000000000000000000000000000000000000000000000000000000000000000000000000000000000000000000000000000000000000000000000000000000000000000000000000000000000000000000000000000000000000000000000000000000000000000000000000000000000000000
310
00000000000000000000000000000000000000000000000000000000000000000000000000000000000000000000000000000000000000000000000000000000000000000000000000000000000000000000000000000000000000000000000000000000000000000000000000000000000000000000000000000000000000
310
00
310
00000000000000000000000000000000000000000000000000000000000000000000000000000000000000000000000000000000000000000000000000000000000000000000000000000000000000000000000000000000000000000000000000000000000000000000000000000000000000000000000000000000000000
310
00000000000000000000000000000000000000000000000000000000000000000000000000000000000000000000000000000000000000000000000000000000000000000000000000000000000000000000000000000000000000000000000000000000000000000000000000000000000000000000000000000000000000
310
00
310
00000000000000000000000000000000000000000000000000000000000000000000000000000000000000000000000000000000000000000000000000000000000000000000000000000000000000000000000000000000000000000000000000000000000000000000000000000000000000000000000000000000000000
310
00000000000000000000000000000000000000000000000000000000000000000000000000000000000000000000000000000000000000000000000000000000000000000000000000000000000000000000000000000000000000000000000000000000000000000000000000000000000000000000000000000000000000
310
00
310
00000000000000000000000000000000000000000000000000000000000000000000000000000000000000000000000000000000000000000000000000000000000000000000000000000000000000000000000000000000000000000000000000000000000000000000000000000000000000000000000000000000000000
310
00000000000000000000000000000000000000000000000000000000000000000000000000000000000000000000000000000000000000000000000000000000000000000000000000000000000000000000000000000000000000000000000000000000000000000000000000000000000000000000000000000000000000
310
00
310
00000000000000000000000000000000000000000000000000000000000000000000000000000000000000000000000000000000000000000000000000000000000000000000000000000000000000000000000000000000000000000000000000000000000000000000000000000000000000000000000000000000000000
310
00000000000000000000000000000000000000000000000000000000000000000000000000000000000000000000000000000000000000000000000000000000000000000000000000000000000000000000000000000000000000000000000000000000000000000000000000000000000000000000000000000000000000
310
00
310
00000000000000000000000000000000000000000000000000000000000000000000000000000000000000000000000000000000000000000000000000000000000000000000000000000000000000000000000000000000000000000000000000000000000000000000000000000000000000000000000000000000000000
310
00000000000000000000000000000000000000000000000000000000000000000000000000000000000000000000000000000000000000000000000000000000000000000000000000000000000000000000000000000000000000000000000000000000000000000000000000000000000000000000000000000000000000
310
00
310
00000000000000000000000000000000000000000000000000000000000000000000000000000000000000000000000000000000000000000000000000000000000000000000000000000000000000000000000000000000000000000000000000000000000000000000000000000000000000000000000000000000000000
310
00000000000000000000000000000000000000000000000000000000000000000000000000000000000000000000000000000000000000000000000000000000000000000000000000000000000000000000000000000000000000000000000000000000000000000000000000000000000000000000000000000000000000
310
00
310
00000000000000000000000000000000000000000000000000000000000000000000000000000000000000000000000000000000000000000000000000000000000000000000000000000000000000000000000000000000000000000000000000000000000000000000000000000000000000
  0
XRECORD
  5
406
102
{ACAD_REACTORS
330
480
102
}
330
480
100
AcDbXrecord
280
     1
310
DF56060034040701D0009A9999999999B93F000000000000000000000000000000000400000009000000000000000200000064000000640000000100000001000000190000007B14AE47E17A843F00000000004060409A9999999999B93F00000000004C2D41000000000070F7400000000000942141000000000000000000
310
0000000000000000000000000000000AD482040000000000000000000000000000F03F000000000000000000000000000030402D431CEBE2362A3F00000000000008400000000000000000009807C000000000000000007C1A61B9A711364020000000050000000A000000200000002000000020000000000000000000F03F
310
00
310
0000000000F03F000000000000F03F333333333333D33F333333333333D33F333333333333D33F000000000000F43F000000000000F43F000000000000F03F0200000064000000000000000000000000000840000000000000F83F00000000000000000000000000000000008056409A9999999999B93F0000000000000000
310
00000000000000000000000000000000000000000000000000000000000000000000000000000000000000000000000000000000000000000000000000000000000000000000000000000000000000000000000000000000000000000000000000000000000000000000000000000000000000000000000000000000000000
310
00
310
0000000000000000000000000000000000000000000000000000000000000000000000000000000000000000000000000000000000000000000000000000000000000000000000000000000000000000000000000000000000000000000000000000000000000000000000000000000000000000000000009A9999999999A9
310
3F9100000000000000000000000000000035A781D547960F40000000000000F03F000000000000F03F666666666666164000000000104068F200000000000000000000000000000000000000000000000000000000000000000000000000000000000000000000000000000000000000000000000000000000000000000000
310
00
310
00000000000000000000000000000000000000000000000000000000000000000000000000000000000000000000000000000000000000000000000000000000000000000000000000000000000000000000000000000000000000000000000000000000000000000000000000000000000000000000000000000000000000
310
000000000000000000000000000000000000000000000000000000000000000000000000000000000000000000000000000000000000000000000000FF000000000000000000000000000000000000000000000000000000000000000000000000000000000000000000000000000000000000000000000000000000000000
310
00
310
0000000000000000000000000000000000000000000000000000000000000000000000000000000000000000000000000000000000000000000000000000000000000000
  0
DICTIONARY
  5
471
330
470
100
AcDbDictionary
280
     1
281
     1
  3
ADSK_XREC_LAYOUTTHUMBNAIL
360
472
  0
XRECORD
  5
472
102
{ACAD_REACTORS
330
471
102
}
330
471
100
AcDbXrecord
280
     1
310
28000000B40000008B0000000100080000000000BC61000000000000000000000001000000000000FFFFFF0000000000FFFFFF000000000000000000000000000000000000000000000000000000000000000000330000006600000099000000CC000000FF00000000330000333300006633000099330000CC330000FF3300
310
0000660000336600006666000099660000CC660000FF66000000990000339900006699000099990000CC990000FF99000000CC000033CC000066CC000099CC0000CCCC0000FFCC000000FF000033FF000066FF000099FF0000CCFF0000FFFF000000003300330033006600330099003300CC003300FF003300003333003333
310
33006633330099333300CC333300FF33330000663300336633006666330099663300CC663300FF66330000993300339933006699330099993300CC993300FF99330000CC330033CC330066CC330099CC3300CCCC3300FFCC330000FF330033FF330066FF330099FF3300CCFF3300FFFF330000006600330066006600660099
310
006600CC006600FF00660000336600333366006633660099336600CC336600FF33660000666600336666006666660099666600CC666600FF66660000996600339966006699660099996600CC996600FF99660000CC660033CC660066CC660099CC6600CCCC6600FFCC660000FF660033FF660066FF660099FF6600CCFF6600
310
FFFF660000009900330099006600990099009900CC009900FF00990000339900333399006633990099339900CC339900FF33990000669900336699006666990099669900CC669900FF66990000999900339999006699990099999900CC999900FF99990000CC990033CC990066CC990099CC9900CCCC9900FFCC990000FF99
310
0033FF990066FF990099FF9900CCFF9900FFFF99000000CC003300CC006600CC009900CC00CC00CC00FF00CC000033CC003333CC006633CC009933CC00CC33CC00FF33CC000066CC003366CC006666CC009966CC00CC66CC00FF66CC000099CC003399CC006699CC009999CC00CC99CC00FF99CC0000CCCC0033CCCC0066CC
310
CC0099CCCC00CCCCCC00FFCCCC0000FFCC0033FFCC0066FFCC0099FFCC00CCFFCC00FFFFCC000000FF003300FF006600FF009900FF00CC00FF00FF00FF000033FF003333FF006633FF009933FF00CC33FF00FF33FF000066FF003366FF006666FF009966FF00CC66FF00FF66FF000099FF003399FF006699FF009999FF00CC
310
99FF00FF99FF0000CCFF0033CCFF0066CCFF0099CCFF00CCCCFF00FFCCFF0000FFFF0033FFFF0066FFFF0099FFFF00CCFFFF00FFFFFF00000000000D0D0D001A1A1A00282828003535350043434300505050005D5D5D006B6B6B00787878008686860093939300A1A1A100AEAEAE00BBBBBB00C9C9C900D6D6D600E4E4E400
310
F1F1F100FFFFFF0000000000000000000000000000000000000000000000000000000000000000000000000000000000E2E2E2E2E2E2E2E2E2E2E2E2E2E2E2E2E2E2E2E2E2E2E2E2E2E2E2E2E2E2E2E2E2E2E2E2E2E2E2E2E2E2E2E2E2E2E2E2E2E2E2E2E2E2E2E2E2E2E2E2E2E2E2E2E2E2E2E2E2E2E2E2E2E2E2E2E2E2E2
310
E2E2E2E2E2E2E2E2E2E2E2E2E2E2E2E2E2E2E2E2E2E2E2E2E2E2E2E2E2E2E2E2E2E2E2E2E2E2E2E2E2E2E2E2E2E2E2E2E2E2E2E2E2E2E2E2E2E2E2E2E2E2E2E2E2E2E2E2E2E2E2E2E2E2E2E2E2E2E2E2E2E2E2E2E2E2E2E2E2E2E2E2E2E2E2E2E2E2E2E2EFF5F5F5F5F5F5F5F5F5F5F5F5F5F5F5F5F5F5F5F5F5F5F5F5F5F5
310
F5F5F5F5F5F5F5F5F5F5F5F5F5F5F5F5F5F5F5F5F5F5F5F5F5F5F5F5F5F5F5F5F5F5F5F5F5F5F5F5F5F5F5F5F5F5F5F5F5F5F5F5F5F5F5F5F5F5F5F5F5F5F5F5F5F5F5F5F5F5F5F5F5F5F5F5F5F5F5F5F5F5F5F5F5F5F5F5F5F5F5F5F5F5F5F5F5F5F5F5F5F5F5F5F5F5F5F5F5F5F5F5F5F5F5F5F5F5F5F5F5F5F5F5F5F5F5
310
F5F5F5F5F5F5F5F5F5F5F5F5F5F5F5F5F5F5F5F5F5F5F5F5E2E2EFF5F5F5F5F5F5F5F5F5F5F5F5F5F5F5F5F5F5F5F5F5F5F5F5F5F5F5F5F5F5F5F5F5F5F5F5F5F5F5F5F5F5F5F5F5F5F5F5F5F5F5F5F5F5F5F5F5F5F5F5F5F5F5F5F5F5F5F5F5F5F5F5F5F5F5F5F5F5F5F5F5F5F5F5F5F5F5F5F5F5F5F5F5F5F5F5F5F5F5F5
310
F5F5F5F5F5F5F5F5F5F5F5F5F5F5F5F5F5F5F5F5F5F5F5F5F5F5F5F5F5F5F5F5F5F5F5F5F5F5F5F5F5F5F5F5F5F5F5F5F5F5F5F5F5F5F5F5F5F5F5F5F5F5F5F5F5F5F5F5F5F5F5F5F5F5F5F5F5E2E2EFF5F5F5F5F5F5F5F5F5F5F5F5F5F5F5F5F5F5F5F5F5F5F5F5F5F5F5F5F5F5F5F5F5F5F5F5F5F5F5F5F5F5F5F5F5F5F5
310
F5F5F5F5F5F5F5F5F5F5F5F5F5F5F5F5F5F5F5F5F5F5F5F5F5F5F5F5F5F5F5F5F5F5F5F5F5F5F5F5F5F5F5F5F5F5F5F5F5F5F5F5F5F5F5F5F5F5F5F5F5F5F5F5F5F5F5F5F5F5F5F5F5F5F5F5F5F5F5F5F5F5F5F5F5F5F5F5F5F5F5F5F5F5F5F5F5F5F5F5F5F5F5F5F5F5F5F5F5F5F5F5F5F5F5F5F5F5F5F5F5F5F5F5F5F5F5
310
F5F5F5E2E2EFF5F5F5E2E2E2E2E2E2E2E2F5F5F5F5F5F5F5F5F5E2E2E2E2E2E2E2E2E2E2E2E2E2E2E2E2F5F5F5F5F5F5F5F5E2E2E2E2E2E2E2E2E2E2E2E2E2E2E2E2F5F5F5F5F5F5F5F5F5E2E2E2E2E2E2E2E2E2E2E2E2E2E2E2F5F5F5F5F5F5F5F5F5E2E2E2E2E2E2E2E2E2E2E2E2E2E2E2F5F5F5F5F5F5F5F5F5E2E2E2E2
310
E2E2E2E2E2E2E2E2E2E2E2E2F5F5F5F5F5F5F5F5E2E2E2E2E2E2E2E2E2E2E2E2E2E2E2E2F5F5F5F5F5F5F5F5F5E2E2E2E2E2E2E2E2F5F5F5E2E2EFF5F5F5E2F5F5F5F5F5F5F5F5F5F5F5F5F5F5F5F5F5F5F5F5F5F5F5F5F5F5F5F5F5F5F5F5F5F5F5F5F5F5F5F5F5F5F5F5F5F5F5F5F5F5F5F5F5F5F5F5F5F5F5F5F5F5F5F5
310
F5F5F5F5F5F5F5F5F5F5F5F5F5F5F5F5F5F5F5F5F5F5F5F5F5F5F5F5F5F5F5F5F5F5F5F5F5F5F5F5F5F5F5F5F5F5F5F5F5F5F5F5F5F5F5F5F5F5F5F5F5F5F5F5F5F5F5F5F5F5F5F5F5F5F5F5F5F5F5F5F5F5F5F5F5F5F5F5F5F5F5F5F5F5F5F5F5F5F5F5F5F5F5F5F5E2F5F5F5E2E2EFF5F5F5E2F5F5F5F5F5F5F5F5F5F5F5
310
F5F5F5F5F5F5F5F5F5F5F5F5F5F5F5F5F5F5F5F5F5F5F5F5F5F5F5F5F5F5F5F5F5F5F5F5F5F5F5F5F5F5F5F5F5F5F5F5F5F5F5F5F5F5F5F5F5F5F5F5F5F5F5F5F5F5F5F5F5F5F5F5F5F5F5F5F5F5F5F5F5F5F5F5F5F5F5F5F5F5F5F5F5F5F5F5F5F5F5F5F5F5F5F5F5F5F5F5F5F5F5F5F5F5F5F5F5F5F5F5F5F5F5F5F5F5F5
310
F5F5F5F5F5F5F5F5F5F5F5F5F5F5F5F5F5F5F5F5F5F5F5F5F5F5F5F5F5F5F5E2F5F5F5E2E2EFF5F5F5E2F5F5F5F5F5F5F5F5F5F5F5F5F5F5F5F5F5F5F5F5F5F5F5F5F5F5F5F5F5F5F5F5F5F5F5F5F5F5F5F5F5F5F5F5F5F5F5F5F5F5F5F5F5F5F5F5F5F5F5F5F5F5F5F5F5F5F5F5F5F5F5F5F5F5F5F5F5F5F5F5F5F5F5F5F5
310
F5F5F5F5F5F5F5F5F5F5F5F5F5F5F5F5F5F5F5F5F5F5F5F5F5F5F5F5F5F5F5F5F5F5F5F5F5F5F5F5F5F5F5F5F5F5F5F5F5F5F5F5F5F5F5F5F5F5F5F5F5F5F5F5F5F5F5F5F5F5F5F5F5F5F5F5F5F5F5F5F5F5F5F5E2F5F5F5E2E2EFF5F5F5E2F5F5F5F5F5F5F5F5F5F5F5F5F5F5F5F5F5F5F5F5F5F5F5F5F5F5F5F5F5F5F5F5
310
F5F5F5F5F5F5F5F5F5F5F5F5F5F5F5F5F5F5F5F5F5F5F5F5F5F5F5F5F5F5F5F5F5F5F5F5F5F5F5F5F5F5F5F5F5F5F5F5F5F5F5F5F5F5F5F5F5F5F5F5F5F5F5F5F5F5F5F5F5F5F5F5F5F5F5F5F5F5F5F5F5F5F5F5F5F5F5F5F5F5F5F5F5F5F5F5F5F5F5F5F5F5F5F5F5F5F5F5F5F5F5F5F5F5F5F5F5F5F5F5F5F5F5F5F5F5F5
310
F5F5F5F5F5F5F5F5F5F5E2F5F5F5E2E2EFF5F5F5E2F5F5F5F5F5F5F5F5F5F5F5F5F5F5F5F5F5F5F5F5F5F5F5F5F5F5F5F5F5F5F5F5F5F5F5F5F5F5F5F5F5F5F5F5F5F5F5F5F5F5F5F5F5F5F5F5F5F5F5F5F5F5F5F5F5F5F5F5F5F5F5F5F5F5F5F5F5F5F5F5F5F5F5F5F5F5F5F5F5F5F5F5F5F5F5F5F5F5F5F5F5F5F5F5F5F5
310
F5F5F5F5F5F5F5F5F5F5F5F5F5F5F5F5F5F5F5F5F5F5F5F5F5F5F5F5F5F5F5F5F5F5F5F5F5F5F5F5F5F5F5F5F5F5F5F5F5F5F5F5F5F5F5F5F5F5F5F5F5F5F5E2F5F5F5E2E2EFF5F5F5E2F5F5F5F5F5F5F5F5F5F5F5F5F5F5F5F5F5F5F5F5F5F5F5F5F5F5F5F5F5F5F5F5F5F5F5F5F5F5F5F5F5F5F5F5F5F5F5F5F5F5F5F5F5
310
F5F5F5F5F5F5F5F5F5F5F5F5F5F5F5F5F5F5F5F5F5F5F5F5F5F5F5F5F5F5F5F5F5F5F5F5F5F5F5F5F5F5F5F5F5F5F5F5F5F5F5F5F5F5F5F5F5F5F5F5F5F5F5F5F5F5F5F5F5F5F5F5F5F5F5F5F5F5F5F5F5F5F5F5F5F5F5F5F5F5F5F5F5F5F5F5F5F5F5F5F5F5F5F5F5F5F5F5F5F5F5F5F5F5F5F5E2F5F5F5E2E2EFF5F5F5E2
310
F5F5F5F5F5F5F5F5F5F5F5F5F5F5F5F5F5F5F5F5F5F5F5F5F5F5F5F5F5F5F5F5F5F5F5F5F5F5F5F5F5F5F5F5F5F5F5F5F5F5F5F5F5F5F5F5F5F5F5F5F5F5F5F5F5F5F5F5F5F5F5F5F5F5F5F5F5F5F5F5F5F5F5F5F5F5F5F5F5F5F5F5F5F5F5F5F5F5F5F5F5F5F5F5F5F5F5F5F5F5F5F5F5F5F5F5F5F5F5F5F5F5F5F5F5F5F5
310
F5F5F5F5F5F5F5F5F5F5F5F5F5F5F5F5F5F5F5F5F5F5F5F5F5F5F5F5F5F5F5F5F5F5F5F5F5F5F5F5F5F5E2F5F5F5E2E2EFF5F5F5E2F5F5F5F5F5F5F5F5F5F5F5F5F5F5F5F5F5F5F5F5F5F5F5F5F5F5F5F5F5F5F5F5F5F5F5F5F5F5F5F5F5F5F5F5F5F5F5F5F5F5F5F5F5F5F5F5F5F5F5F5F5F5F5F5F5F5F5F5F5F5F5F5F5F5
310
F5F5F5F5F5F5F5F5F5F5F5F5F5F5F5F5F5F5F5F5F5F5F5F5F5F5F5F5F5F5F5F5F5F5F5F5F5F5F5F5F5F5F5F5F5F5F5F5F5F5F5F5F5F5F5F5F5F5F5F5F5F5F5F5F5F5F5F5F5F5F5F5F5F5F5F5F5F5F5F5F5F5F5F5F5F5F5F5F5F5F5F5F5F5F5E2F5F5F5E2E2EFF5F5F5F5F5F5F5F5F5F5F5F5F5F5F5F5F5F5F5F5F5F5F5F5F5
310
F5F5F5F5F5F5F5F5F5F5F5F5F5F5F5F5F5F5F5F5F5F5F5F5F5F5F5F5F5F5F5F5F5F5F5F5F5F5F5F5F5F5F5F5F5F5F5F5F5F5F5F5F5F5F5F5F5F5F5F5F5F5F5F5F5F5F5F5F5F5F5F5F5F5F5F5F5F5F5F5F5F5F5F5F5F5F5F5F5F5F5F5F5F5F5F5F5F5F5F5F5F5F5F5F5F5F5F5F5F5F5F5F5F5F5F5F5F5F5F5F5F5F5F5F5F5F5
310
F5F5F5F5F5F5F5F5F5F5F5F5F5F5F5F5F5F5F5F5F5F5F5F5F5E2E2EFF5F5F5F5F5F5F5F5F5F5F5F5F5F5F5F5F5F5F5F5F5F5F5F5F5F5F5F5F5F5F5F5F5F5F5F5F5F5F5F5F5F5F5F5F5F5F5F5F5F5F5F5F5F5F5F5F5F5F5F5F5F5F5F5F5F5F5F5F5F5F5F5F5F5F5F5F5F5F5F5F5F5F5F5F5F5F5F5F5F5F5F5F5F5F5F5F5F5F5
310
F5F5F5F5F5F5F5F5F5F5F5F5F5F5F5F5F5F5F5F5F5F5F5F5F5F5F5F5F5F5F5F5F5F5F5F5F5F5F5F5F5F5F5F5F5F5F5F5F5F5F5F5F5F5F5F5F5F5F5F5F5F5F5F5F5F5F5F5F5F5F5F5F5F5F5F5F5F5E2E2EFF5F5F5F5F5F5F5F5F5F5F5F5F5F5F5F5F5F5F5F5F5F5F5F5F5F5F5F5F5F5F5F5F5F5F5F5F5F5F5F5F5F5F5F5F5F5
310
F5F5F5F5F5F5F5F5F5F5F5F5F5F5F5F5F5F5F5F5F5F5F5F5F5F5F5F5F5F5F5F5F5F5F5F5F5F5F5F5F5F5F5F5F5F5F5F5F5F5F5F5F5F5F5F5F5F5F5F5F5F5F5F5F5F5F5F5F5F5F5F5F5F5F5F5F5F5F5F5F5F5F5F5F5F5F5F5F5F5F5F5F5F5F5F5F5F5F5F5F5F5F5F5F5F5F5F5F5F5F5F5F5F5F5F5F5F5F5F5F5F5F5F5F5F5F5
310
F5F5F5F5E2E2EFF5F5F5F5F5F5F5F5F5F5F5F5F5F5F5F5F5F5F5F5F5F5F5F5F5F5F5F5F5F5F5F5F5F5F5F5F5F5F5F5F5F5F5F5F5F5F5F5F5F5F5F5F5F5F5F5F5F5F5F5F5F5F5F5F5F5F5F5F5F5F5F5F5F5F5F5F5F5F5F5F5F5F5F5F5F5F5F5F5F5F5F5F5F5F5F5F5F5F5F5F5F5F5F5F5F5F5F5F5F5F5F5F5F5F5F5F5F5F5F5
310
F5F5F5F5F5F5F5F5F5F5F5F5F5F5F5F5F5F5F5F5F5F5F5F5F5F5F5F5F5F5F5F5F5F5F5F5F5F5F5F5F5F5F5F5F5F5F5F5F5F5F5F5F5F5F5F5F5E2E2EFF5F5F5F5F5F5F5F5F5F5F5F5F5F5F5F5F5F5F5F5E2E2E2E2E2E2E2E2E2E2E2E2E2E2E2E2E2E2E2E2E2E2E2E2E2E2E2E2E2E2E2E2E2E2E2E2E2E2E2E2E2E2E2E2E2E2E2
310
E2E2E2E2E2E2E2E2E2E2E2E2E2E2E2E2E2E2E2E2E2E2E2E2E2E2E2E2E2E2E2E2E2E2E2E2E2E2E2E2E2E2E2E2E2E2E2E2E2E2E2E2E2E2E2E2E2E2E2E2E2E2E2E2E2E2E2E2E2E2E2E2E2E2E2E2E2E2E2E2E2E2E2E2E2E2E2E2E2E2F5F5F5F5F5F5F5F5F5F5F5F5F5F5F5F5F5F5F5F5E2E2EFF5F5F5F5F5F5F5F5F5F5F5F5F5F5
310
F5F5F5F5F5F5E2F5F5F5F5F5F5F5F5F5F5F5F5F5F5F5F5F5F5F5F5F5F5F5F5F5F5F5F5F5F5F5F5F5F5F5F5F5F5F5F5F5F5F5F5F5F5F5F5F5F5F5F5F5F5F5F5F5F5F5F5F5F5F5F5F5F5F5F5F5F5F5F5F5F5F5F5F5F5F5F5F5F5F5F5F5F5F5F5F5F5F5F5F5F5F5F5F5F5F5F5F5F5F5F5F5F5F5F5F5F5F5F5F5F5F5F5F5F5F5F5
310
F5F5F5F5F5F5F5F5F5F5F5F5F5F5F5E2F5F5F5F5F5F5F5F5F5F5F5F5F5F5F5F5F5F5F5F5E2E2EFF5F5F5F5F5F5F5F5F5F5F5F5F5F5F5F5F5F5F5F5E2F5F5F5F5F5F5F5F5F5F5F5F5F5F5F5F5F5F5F5F5F5F5F5F5F5F5F5F5F5F5F5F5F5F5F5F5F5F5F5F5F5F5F5F5F5F5F5F5F5F5F5F5F5F5F5F5F5F5F5F5F5F5F5F5F5F5F5
310
F5F5F5F5F5F5F5F5F5F5F5F5F5F5F5F5F5F5F5F5F5F5F5F5F5F5F5F5F5F5F5F5F5F5F5F5F5F5F5F5F5F5F5F5F5F5F5F5F5F5F5F5F5F5F5F5F5F5F5F5F5F5F5F5F5F5F5F5E2F5F5F5F5F5F5F5F5F5F5F5F5F5F5F5F5F5F5F5F5E2E2EFF5F5F5F5F5F5F5F5F5F5F5F5F5F5F5F5F5F5F5F5E2F5F5F5F5F5F5F5F5F5F5F5F5F5F5
310
F5F5F5F5F5F5F5F5F5F5F5F5F5F5F5F5F5F5F5F5F5F5F5F5F5F5F5F5F5F5F5F5F5F5F5F5F5F5F5F5F5F5F5F5F5F5F5F5F5F5F5F5F5F5F5F5F5F5F5F5F5F5F5F5F5F5F5F5F5F5F5F5F5F5F5F5F5F5F5F5F5F5F5F5F5F5F5F5F5F5F5F5F5F5F5F5F5F5F5F5F5F5F5F5F5F5F5F5F5F5F5F5F5F5F5F5F5F5F5F5F5E2F5F5F5F5F5
310
F5F5F5F5F5F5F5F5F5F5F5F5F5F5F5E2E2EFF5F5F5F5F5F5F5F5F5F5F5F5F5F5F5F5F5F5F5F5E2F5F5F5F5F5F5F5F5F5F5F5F5F5F5F5F5F5F5F5F5F5F5F5F5F5F5F5F5F5F5F5F5F5F5F5F5F5F5F5F5F5F5F5F5F5F5F5F5F5F5F5F5F5F5F5F5F5F5F5F5F5F5F5F5F5F5F5F5F5F5F5F5F5F5F5F5F5F5F5F5F5F5F5F5F5F5F5F5
310
F5F5F5F5F5F5F5F5F5F5F5F5F5F5F5F5F5F5F5F5F5F5F5F5F5F5F5F5F5F5F5F5F5F5F5F5F5F5F5F5F5F5F5F5F5F5F5E2F5F5F5F5F5F5F5F5F5F5F5F5F5F5F5F5F5F5F5F5E2E2EFF5F5F5E2F5F5F5F5F5F5F5F5F5F5F5F5F5F5F5F5E2F5F5F5F5F5F5F5F5F5F5F5F5F5F5F5F5F5F5F5F5F5F5F5F5F5F5F5F5F5F5F5F5F5F5F5
310
F5F5F5F5F5F5F5F5F5F5F5F5F5F5F5F5F5F5F5F5F5F5F5F5F5F5F5F5F5F5F5F5F5F5F5F5F5F5F5F5F5F5F5F5F5F5F5F5F5F5F5F5F5F5F5F5F5F5F5F5F5F5F5F5F5F5F5F5F5F5F5F5F5F5F5F5F5F5F5F5F5F5F5F5F5F5F5F5F5F5F5F5F5F5F5F5F5F5F5F5E2F5F5F5F5F5F5F5F5F5F5F5F5F5F5F5F5E2F5F5F5E2E2EFF5F5F5
310
E2F5F5F5F5F5F5F5F5F5F5F5F5F5F5F5F5E2F5F5F5F5F5F5F5F5F5F5F5F5F5F5F5F5F5F5F5F5F5F5F5F5F5F5F5F5F5F5F5F5F5F5F5F5F5F5F5F5F5F5F5F5F5F5F5F5F5F5F5F5F5F5F5F5F5F5F5F5F5F5F5F5F5F5F5F5F5F5F5F5F5F5F5F5F5F5F5F5F5F5F5F5F5F5F5F5F5F5F5F5F5F5F5F5F5F5F5F5F5F5F5F5F5F5F5F5F5
310
F5F5F5F5F5F5F5F5F5F5F5F5F5F5F5F5F5F5F5F5F5F5F5F5F5F5E2F5F5F5F5F5F5F5F5F5F5F5F5F5F5F5F5E2F5F5F5E2E2EFF5F5F5E2F5F5F5F5F5F5F5F5F5F5F5F5F5F5F5F5E2F5F5F5F5F5F5F5F5F5F5F5F5F5F5F5F5F5F5F5F5F5F5F5F5F5F5F5F5F5F5F5F5F5F5F5F5F5F5F5F5F5F5F5F5F5F5F5F5F5F5F5F5F5F5F5F5
310
F5F5F5F5F5F5F5F5F5F5F5F5F5F5F5F5F5F5F5F5F5F5F5F5F5F5F5F5F5F5F5F5F5F5F5F5F5F5F5F5F5F5F5F5F5F5F5F5F5F5F5F5F5F5F5F5F5F5F5F5F5F5F5F5F5F5F5F5F5F5F5F5F5F5F5F5F5F5F5E2F5F5F5F5F5F5F5F5F5F5F5F5F5F5F5F5E2F5F5F5E2E2EFF5F5F5E2F5F5F5F5F5F5F5F5F5F5F5F5F5F5F5F5E2F5F5F5
310
F5F5F5F5F5F5F5F5F5F5F5F5F5F5F5F5F5F5F5F5F5F5F5F5F5F5F5F5F5F5F5F5F5F5F5F5F5F5F5F5F5F5F5F5F5F5F5F5F5F5F5F5F5F5F5F5F5F5F5F5F5F5F5F5F5F5F5F5F5F5F5F5F5F5F5F5F5F5F5F5F5F5F5F5F5F5F5F5F5F5F5F5F5F5F5F5F5F5F5F5F5F5F5F5F5F5F5F5F5F5F5F5F5F5F5F5F5F5F5F5F5F5F5F5F5F5F5
310
F5F5F5F5F5E2F5F5F5F5F5F5F5F5F5F5F5F5F5F5F5F5E2F5F5F5E2E2EFF5F5F5E2F5F5F5F5F5F5F5F5F5F5F5F5F5F5F5F5E2F5F5F5F5F5F5F5F5F5F5F5F5F5F5F5F5F5F5F5F5F5F5F5F5F5F5F5F5F5F5F5F5F5F5F5F5F5F5F5F5F5F5F5F5F5F5F5F5F5F5F5F5F5F5F5F5F5F5F5F5F5F5F5F5F5F5F5F5F5F5F5F5F5F5F5F5F5
310
F5F5F5F5F5F5F5F5F5F5F5F5F5F5F5F5F5F5F5F5F5F5F5F5F5F5F5F5F5F5F5F5F5F5F5F5F5F5F5F5F5F5F5F5F5F5F5F5F5F5F5F5F5F5F5F5F5F5E2F5F5F5F5F5F5F5F5F5F5F5F5F5F5F5F5E2F5F5F5E2E2EFF5F5F5E2F5F5F5F5F5F5F5F5F5F5F5F5F5F5F5F5E2F5F5F5F5F5F5F5F5F5F5F5F5F5F5F5F5F5F5F5F5F5F5F5F5
310
F5F5F5F5F5F5F5F5F5F5F5F5F5F5F5F5F5F5F5F5F5F5F5F5F5F5F5F5F5F5F5F5F5F5F5F5F5F5F5F5F5F5F5F5F5F5F5F5F5F5F5F5F5F5F5F5F5F5F5F5F5F5F5F5F5F5F5F5F5F5F5F5F5F5F5F5F5F5F5F5F5F5F5F5F5F5F5F5F5F5F5F5F5F5F5F5F5F5F5F5F5F5F5F5F5F5F5F5F5F5F5E2F5F5F5F5F5F5F5F5F5F5F5F5F5F5F5
310
F5E2F5F5F5E2E2EFF5F5F5E2F5F5F5F5F5F5F5F5F5F5F5F5F5F5F5F5E2F5F5F5F5F5F5F5F5F5F5F5F5F5F5F5F5F5F5F5F5F5F5F5F5F5F5F5F5F5F5F5F5F5F5F5F5F5F5F5F5F5F5F5F5F5F5F5F5F5F5F5F5F5F5F5F5F5F5F5F5F5F5F5F5F5F5F5F5F5F5F5F5F5F5F5F5F5F5F5F5F5F5F5F5F5F5F5F5F5F5F5F5F5F5F5F5F5F5
310
F5F5F5F5F5F5F5F5F5F5F5F5F5F5F5F5F5F5F5F5F5F5F5F5F5F5F5F5F5F5F5F5F5F5F5F5F5E2F5F5F5F5F5F5F5F5F5F5F5F5F5F5F5F5E2F5F5F5E2E2EFF5F5F5E2F5F5F5F5F5F5F5F5F5F5F5F5F5F5F5F5E2F5F5F5F5F5F5F5F5F5F5F5F5F5F5F5F5F5F5F5F5F5F5F5F5F5F5F5F5F5F5F5F5F5F5F5F5F5F5F5F5F5F5F5F5F5
310
F5F5F5F5F5F5F5F5F5F5F5F5F5F5F5F5F5F5F5F5F5F5F5F5F5F5F5F5F5F5F5F5F5F5F5F5F5F5F5F5F5F5F5F5F5F5F5F5F5F5F5F5F5F5F5F5F5F5F5F5F5F5F5F5F5F5F5F5F5F5F5F5F5F5F5F5F5F5F5F5F5F5F5F5F5F5F5F5F5F5E2F5F5F5F5F5F5F5F5F5F5F5F5F5F5F5F5E2F5F5F5E2E2EFF5F5F5E2F5F5F5F5F5F5F5F5F5
310
F5F5F5F5F5F5F5E2F5F5F5F5F5F5F5F5F5F5F5F5F5F5F5F5F5F5F5F5F5F5F5F5F5F5F5F5F5F5F5F5F5F5F5F5F5F5F5F5F5F5F5F5F5F5F5F5F5F5F5F5F5F5F5F5F5F5F5F5F5F5F5F5F5F5F5F5F5F5F5F5F5F5F5F5F5F5F5F5F5F5F5F5F5F5F5F5F5F5F5F5F5F5F5F5F5F5F5F5F5F5F5F5F5F5F5F5F5F5F5F5F5F5F5F5F5F5F5
310
F5F5F5F5F5F5F5F5F5F5F5F5F5F5F5F5E2F5F5F5F5F5F5F5F5F5F5F5F5F5F5F5F5E2F5F5F5E2E2EFF5F5F5E2F5F5F5F5F5F5F5F5F5F5F5F5F5F5F5F5E2F5F5F5F5F5F5F5F5F5F5F5F5F5F5F5F5F5F5F5F5F5F5F5F5F5F5F5F5F5F5F5F5F5F5F5F5F5F5F5F5F5F5F5F5F5F5F5F5F5F5F5F5F5F5F5F5F5F5F5F5F5F5F5F5F5F5
310
F5F5F5F5F5F5F5F5F5F5F5F5F5F5F5F5F5F5F5F5F5F5F5F5F5F5F5F5F5F5F5F5F5F5F5F5F5F5F5F5F5F5F5F5F5F5F5F5F5F5F5F5F5F5F5F5F5F5F5F5F5F5F5F5F5F5F5F5F5E2F5F5F5F5F5F5F5F5F5F5F5F5F5F5F5F5E2F5F5F5E2E2EFF5F5F5E2F5F5F5F5F5F5F5F5F5F5F5F5F5F5F5F5E2F5F5F5F5F5F5F5F5F5F5F5F5F5
310
F5F5F5F5F5F5F5F5F5F5F5F5F5F5F5F5F5F5F5F5F5F5F5F5F5F5F5F5F5F5F5F5F5F5F5F5F5F5F5F5F5F5F5F5F5F5F5F5F5F5F5F5F5F5F5F5F5F5F5F5F5F5F5F5F5F5F5F5F5F5F5F5F5F5F5F5F5F5F5F5F5F5F5F5F5F5F5F5F5F5F5F5F5F5F5F5F5F5F5F5F5F5F5F5F5F5F5F5F5F5F5F5F5F5F5F5F5F5F5F5F5F5E2F5F5F5F5
310
F5F5F5F5F5F5F5F5F5F5F5F5E2F5F5F5E2E2EFF5F5F5E2F5F5F5F5F5F5F5F5F5F5F5F5F5F5F5F5E2F5F5F5F5F5F5F5F5F5F5F5F5F5F5F5F5F5F5F5F5F5F5F5F5F5F5F5F5F5F5F5F5F5F5F5F5F5F5F5F5F5F5F5F5F5F5F5F5F5F5F5F5F5F5F5F5F5F5F5F5F5F5F5F5F5F5F5F5F5F5F5F5F5F5F5F5F5F5F5F5F5F5F5F5F5F5F5
310
F5F5F5F5F5F5F5F5F5F5F5F5F5F5F5F5F5F5F5F5F5F5F5F5F5F5F5F5F5F5F5F5F5F5F5F5F5F5F5F5F5F5F5F5F5F5F5F5E2F5F5F5F5F5F5F5F5F5F5F5F5F5F5F5F5E2F5F5F5E2E2EFF5F5F5E2F5F5F5F5F5F5F5F5F5F5F5F5F5F5F5F5E2F5F5F5F5F5F5F5F5F5F5F5F5F5F5F5F5F5F5F5F5F5F5F5F5F5F5F5F5F5F5F5F5F5F5
310
F5F5F5F5F5F5F5F5F5F5F5F5F5F5F5F5F5F5F5F5F5F5F5F5F5F5F5F5F5F5F5F5F5F5F5F5F5F5F5F5F5F5F5F5F5F5F5F5F5F5F5F5F5F5F5F5F5F5F5F5F5F5F5F5F5F5F5F5F5F5F5F5F5F5F5F5F5F5F5F5F5F5F5F5F5F5F5F5F5F5F5F5F5F5F5F5F5F5F5F5F5E2F5F5F5F5F5F5F5F5F5F5F5F5F5F5F5F5E2F5F5F5E2E2EFF5F5
310
F5E2F5F5F5F5F5F5F5F5F5F5F5F5F5F5F5F5E2F5F5F5F5F5F5F5F5F5F5F5F5F5F5F5F5F5F5F5F5F5F5F5F5F5F5F5F5F5F5F5F5F5F5F5F5F5F5F5F5F5F5F5F5F5F5F5F5F5F5F5F5F5F5F5F5F5F5F5F5F5F5F5F5F5F5F5F5F5F5F5F5F5F5F5F5F5F5F5F5F5F5F5F5F5F5F5F5F5F5F5F5F5F5F5F5F5F5F5F5F5F5F5F5F5F5F5F5
310
F5F5F5F5F5F5F5F5F5F5F5F5F5F5F5F5F5F5F5F5F5F5F5F5F5F5F5E2F5F5F5F5F5F5F5F5F5F5F5F5F5F5F5F5E2F5F5F5E2E2EFF5F5F5E2F5F5F5F5F5F5F5F5F5F5F5F5F5F5F5F5E2F5F5F5F5F5F5F5F5F5F5F5F5F5F5F5F5F5F5F5F5F5F5F5F5F5F5F5F5F5F5F5F5F5F5F5F5F5F5F5F5F5F5F5F5F5F5F5F5F5F5F5F5F5F5F5
310
F5F5F5F5F5F5F5F5F5F5F5F5F5F5F5F5F5F5F5F5F5F5F5F5F5F5F5F5F5F5F5F5F5F5F5F5F5F5F5F5F5F5F5F5F5F5F5F5F5F5F5F5F5F5F5F5F5F5F5F5F5F5F5F5F5F5F5F5F5F5F5F5F5F5F5F5F5F5F5F5E2F5F5F5F5F5F5F5F5F5F5F5F5F5F5F5F5E2F5F5F5E2E2EFF5F5F5E2F5F5F5F5F5F5F5F5F5F5F5F5F5F5F5F5E2F5F5
310
F5F5F5F5F5F5F5F5F5F5F5F5F5F5F5F5F5F5F5F5F5F5F5F5F5F5F5F5F5F5F5F5F5F5F5F5F5F5F5F5F5F5F5F5F5F5F5F5F5F5F5F5F5F5F5F5F5F5F5F5F5F5F5F5F5F5F5F5F5F5F5F5F5F5F5F5F5F5F5F5F5F5F5F5F5F5F5F5F5F5F5F5F5F5F5F5F5F5F5F5F5F5F5F5F5F5F5F5F5F5F5F5F5F5F5F5F5F5F5F5F5F5F5F5F5F5F5
310
F5F5F5F5F5F5E2F5F5F5F5F5F5F5F5F5F5F5F5F5F5F5F5E2F5F5F5E2E2EFF5F5F5E2F5F5F5F5F5F5F5F5F5F5F5F5F5F5F5F5E2F5F5F5F5F5F5F5F5F5F5F5F5F5F5F5F5F5F5F5F5F5F5F5F5F5F5F5F5F5F5F5F5F5F5F5F5F5F5F5F5F5F5F5F5F5F5F5F5F5F5F5F5F5F5F5F5F5F5F5F5F5F5F5F5F5F5F5F5F5F5F5F5F5F5F5F5
310
F5F5F5F5F5F5F5F5F5F5F5F5F5F5F5F5F5F5F5F5F5F5F5F5F5F5F5F5F5F5F5F5F5F5F5F5F5F5F5F5F5F5F5F5F5F5F5F5F5F5F5F5F5F5F5F5F5F5F5E2F5F5F5F5F5F5F5F5F5F5F5F5F5F5F5F5E2F5F5F5E2E2EFF5F5F5F5F5F5F5F5F5F5F5F5F5F5F5F5F5F5F5F5E2F5F5F5F5F5F5F5F5F5F5F5F5F5F5F5F5F5F5F5F5F5F5F5
310
F5F5F5F5F5F5F5F5F5F5F5F5F5F5F5F5F5F5F5F5F5F5F5F5F5F5F5F5F5F5F5F5F5F5F5F5F5F5F5F5F5F5F5F5F5F5F5F5F5F5F5F5F5F5F5F5F5F5F5F5F5F5F5F5F5F5F5F5F5F5F5F5F5F5F5F5F5F5F5F5F5F5F5F5F5F5F5F5F5F5F5F5F5F5F5F5F5F5F5F5F5F5F5F5F5F5F5F5F5F5F5F5E2F5F5F5F5F5F5F5F5F5F5F5F5F5F5
310
F5F5F5F5F5F5E2E2EFF5F5F5F5F5F5F5F5F5F5F5F5F5F5F5F5F5F5F5F5E2F5F5F5F5F5F5F5F5F5F5F5F5F5F5F5F5F5F5F5F5F5F5F5F5F5F5F5F5F5F5F5F5F5F5F5F5F5F5F5F5F5F5F5F5F5F5F5F5F5F5F5F5F5F5F5F5F5F5F5F5F5F5F5F5F5F5F5F5F5F5F5F5F5F5F5F5F5F5F5F5F5F5F5F5F5F5F5F5F5F5F5F5F5F5F5F5F5
310
F5F5F5F5F5F5F5F5F5F5F5F5F5F5F5F5F5F5F5F5F5F5F5F5F5F5F5F5F5F5F5F5F5F5F5F5F5F5E2F5F5F5F5F5F5F5F5F5F5F5F5F5F5F5F5F5F5F5F5E2E2EFF5F5F5F5F5F5F5F5F5F5F5F5F5F5F5F5F5F5F5F5E2F5F5F5F5F5F5F5F5F5F5F5F5F5F5F5F5F5F5F5F5F5F5F5F5F5F5F5F5F5F5F5F5F5F5F5F5F5F5F5F5F5F5F5F5
310
F5F5F5F5F5F5F5F5F5F5F5F5F5F5F5F5F5F5F5F5F5F5F5F5F5F5F5F5F5F5F5F5F5F5F5F5F5F5F5F5F5F5F5F5F5F5F5F5F5F5F5F5F5F5F5F5F5F5F5F5F5F5F5F5F5F5F5F5F5F5F5F5F5F5F5F5F5F5F5F5F5F5F5F5F5F5F5F5F5F5F5E2F5F5F5F5F5F5F5F5F5F5F5F5F5F5F5F5F5F5F5F5E2E2EFF5F5F5F5F5F5F5F5F5F5F5F5
310
F5F5F5F5F5F5F5F5E2F5F5F5F5F5F5F5F5F5F5F5F5F5F5F5F5F5F5F5F5F5F5F5F5F5F5F5F5F5F5F5F5F5F5F5F5F5F5F5F5F5F5F5F5F5F5F5F5F5F5F5F5F5F5F5F5F5F5F5F5F5F5F5F5F5F5F5F5F5F5F5F5F5F5F5F5F5F5F5F5F5F5F5F5F5F5F5F5F5F5F5F5F5F5F5F5F5F5F5F5F5F5F5F5F5F5F5F5F5F5F5F5F5F5F5F5F5F5
310
F5F5F5F5F5F5F5F5F5F5F5F5F5F5F5F5F5E2F5F5F5F5F5F5F5F5F5F5F5F5F5F5F5F5F5F5F5F5E2E2EFF5F5F5F5F5F5F5F5F5F5F5F5F5F5F5F5F5F5F5F5E2F5F5F5F5F5F5F5F5F5F5F5F5F5F5F5F5F5F5F5F5F5F5F5F5F5F5F5F5F5F5F5F5F5F5F5F5F5F5F5F5F5F5F5F5F5F5F5F5F5F5F5F5F5F5F5F5F5F5F5F5F5F5F5F5F5
310
F5F5F5F5F5F5F5F5F5F5F5F5F5F5F5F5F5F5F5F5F5F5F5F5F5F5F5F5F5F5F5F5F5F5F5F5F5F5F5F5F5F5F5F5F5F5F5F5F5F5F5F5F5F5F5F5F5F5F5F5F5F5F5F5F5F5F5F5F5F5E2F5F5F5F5F5F5F5F5F5F5F5F5F5F5F5F5F5F5F5F5E2E2EFF5F5F5F5F5F5F5F5F5F5F5F5F5F5F5F5F5F5F5F5E2F5F5F5F5F5F5F5F5F5F5F5F5
310
F5F5F5F5F5F5F5F5F5F5F5F5F5F5F5F5F5F5F5F5F5F5F5F5F5F5F5F5F5F5F5F5F5F5F5F5F5F5F5F5F5F5F5F5F5F5F5F5F5F5F5F5F5F5F5F5F5F5F5F5F5F5F5F5F5F5F5F5F5F5F5F5F5F5F5F5F5F5F5F5F5F5F5F5F5F5F5F5F5F5F5F5F5F5F5F5F5F5F5F5F5F5F5F5F5F5F5F5F5F5F5F5F5F5F5F5F5F5F5F5F5F5F5E2F5F5F5
310
F5F5F5F5F5F5F5F5F5F5F5F5F5F5F5F5F5E2E2EFF5F5F5F5F5F5F5F5F5F5F5F5F5F5F5F5F5F5F5F5E2F5F5F5F5F5F5F5F5F5F5F5F5F5F5F5F5F5F5F5F5F5F5F5F5F5F5F5F5F5F5F5F5F5F5F5F5F5F5F5F5F5F5F5F5F5F5F5F5F5F5F5F5F5F5F5F5F5F5F5F5F5F5F5F5F5F5F5F5F5F5F5F5F5F5F5F5F5F5F5F5F5F5F5F5F5F5
310
F5F5F5F5F5F5F5F5F5F5F5F5F5F5F5F5F5F5F5F5F5F5F5F5F5F5F5F5F5F5F5F5F5F5F5F5F5F5F5F5F5F5F5F5F5F5F5F5F5E2F5F5F5F5F5F5F5F5F5F5F5F5F5F5F5F5F5F5F5F5E2E2EFF5F5F5F5F5F5F5F5F5F5F5F5F5F5F5F5F5F5F5F5E2F5F5F5F5F5F5F5F5F5F5F5F5F5F5F5F5F5F5F5F5F5F5F5F5F5F5F5F5F5F5F5F5F5
310
F5F5F5F5F5F5F5F5F5F5F5F5F5F5F5F5F5F5F5F5F5F5F5F5F5F5F5F5F5F5F5F5F5F5F5F5F5F5F5F5F5F5F5F5F5F5F5F5F5F5F5F5F5F5F5F5F5F5F5F5F5F5F5F5F5F5F5F5F5F5F5F5F5F5F5F5F5F5F5F5F5F5F5F5F5F5F5F5F5F5F5F5F5F5F5F5F5F5F5F5F5F5E2F5F5F5F5F5F5F5F5F5F5F5F5F5F5F5F5F5F5F5F5E2E2EFF5
310
F5F5F5F5F5F5F5F5F5F5F5F5F5F5F5F5F5F5F5E2F5F5F5F5F5F5F5F5F5F5F5F5F5F5F5F5F5F5F5F5F5F5F5F5F5F5F5F5F5F5F5F5F5F5F5F5F5F5F5F5F5F5F5F5F5F5F5F5F5F5F5F5F5F5F5F5F5F5F5F5F5F5F5F5F5F5F5F5F5F5F5F5F5F5F5F5F5F5F5F5F5F5F5F5F5F5F5F5F5F5F5F5F5F5F5F5F5F5F5F5F5F5F5F5F5F5F5
310
F5F5F5F5F5F5F5F5F5F5F5F5F5F5F5F5F5F5F5F5F5F5F5F5F5F5F5F5E2F5F5F5F5F5F5F5F5F5F5F5F5F5F5F5F5F5F5F5F5E2E2EFF5F5F5E2F5F5F5F5F5F5F5F5F5F5F5F5F5F5F5F5E2F5F5F5F5F5F5F5F5F5F5F5F5F5F5F5F5F5F5F5F5F5F5F5F5F5F5F5F5F5F5F5F5F5F5F5F5F5F5F5F5F5F5F5F5F5F5F5F5F5F5F5F5F5F5
310
F5F5F5F5F5F5F5F5F5F5F5F5F5F5F5F5F5F5F5F5F5F5F5F5F5F5F5F5F5F5F5F5F5F5F5F5F5F5F5F5F5F5F5F5F5F5F5F5F5F5F5F5F5F5F5F5F5F5F5F5F5F5F5F5F5F5F5F5F5F5F5F5F5F5F5F5F5F5F5F5F5E2F5F5F5F5F5F5F5F5F5F5F5F5F5F5F5F5E2F5F5F5E2E2EFF5F5F5E2F5F5F5F5F5F5F5F5F5F5F5F5F5F5F5F5E2F5
310
F5F5F5F5F5F5F5F5F5F5F5F5F5F5F5F5F5F5F5F5F5F5F5F5F5F5F5F5F5F5F5F5F5F5F5F5F5F5F5F5F5F5F5F5F5F5F5F5F5F5F5F5F5F5F5F5F5F5F5F5F5F5F5F5F5F5F5F5F5F5F5F5F5F5F5F5F5F5F5F5F5F5F5F5F5F5F5F5F5F5F5F5F5F5F5F5F5F5F5F5F5F5F5F5F5F5F5F5F5F5F5F5F5F5F5F5F5F5F5F5F5F5F5F5F5F5F5
310
F5F5F5F5F5F5F5E2F5F5F5F5F5F5F5F5F5F5F5F5F5F5F5F5E2F5F5F5E2E2EFF5F5F5E2F5F5F5F5F5F5F5F5F5F5F5F5F5F5F5F5E2F5F5F5F5F5F5F5F5F5F5F5F5F5F5F5F5F5F5F5F5F5F5F5F5F5F5F5F5F5F5F5F5F5F5F5F5F5F5F5F5F5F5F5F5F5F5F5F5F5F5F5F5F5F5F5F5F5F5F5F5F5F5F5F5F5F5F5F5F5F5F5F5F5F5F5
310
F5F5F5F5F5F5F5F5F5F5F5F5F5F5F5F5F5F5F5F5F5F5F5F5F5F5F5F5F5F5F5F5F5F5F5F5F5F5F5F5F5F5F5F5F5F5F5F5F5F5F5F5F5F5F5F5F5F5F5F5E2F5F5F5F5F5F5F5F5F5F5F5F5F5F5F5F5E2F5F5F5E2E2EFF5F5F5E2F5F5F5F5F5F5F5F5F5F5F5F5F5F5F5F5E2F5F5F5F5F5F5F5F5F5F5F5F5F5F5F5F5F5F5F5F5F5F5
310
F5F5F5F5F5F5F5F5F5F5F5F5F5F5F5F5F5F5F5F5F5F5F5F5F5F5F5F5F5F5F5F5F5F5F5F5F5F5F5F5F5F5F5F5F5F5F5F5F5F5F5F5F5F5F5F5F5F5F5F5F5F5F5F5F5F5F5F5F5F5F5F5F5F5F5F5F5F5F5F5F5F5F5F5F5F5F5F5F5F5F5F5F5F5F5F5F5F5F5F5F5F5F5F5F5F5F5F5F5F5F5F5F5E2F5F5F5F5F5F5F5F5F5F5F5F5F5
310
F5F5F5E2F5F5F5E2E2EFF5F5F5E2F5F5F5F5F5F5F5F5F5F5F5F5F5F5F5F5E2F5F5F5F5F5F5F5F5F5F5F5F5F5F5F5F5F5F5F5F5F5F5F5F5F5F5F5F5F5F5F5F5F5F5F5F5F5F5F5F5F5F5F5F5F5F5F5F5F5F5F5F5F5F5F5F5F5F5F5F5F5F5F5F5F5F5F5F5F5F5F5F5F5F5F5F5F5F5F5F5F5F5F5F5F5F5F5F5F5F5F5F5F5F5F5F5
310
F5F5F5F5F5F5F5F5F5F5F5F5F5F5F5F5F5F5F5F5F5F5F5F5F5F5F5F5F5F5F5F5F5F5F5F5F5F5F5E2F5F5F5F5F5F5F5F5F5F5F5F5F5F5F5F5E2F5F5F5E2E2EFF5F5F5E2F5F5F5F5F5F5F5F5F5F5F5F5F5F5F5F5E2F5F5F5F5F5F5F5F5F5F5F5F5F5F5F5F5F5F5F5F5F5F5F5F5F5F5F5F5F5F5F5F5F5F5F5F5F5F5F5F5F5F5F5
310
F5F5F5F5F5F5F5F5F5F5F5F5F5F5F5F5F5F5F5F5F5F5F5F5F5F5F5F5F5F5F5F5F5F5F5F5F5F5F5F5F5F5F5F5F5F5F5F5F5F5F5F5F5F5F5F5F5F5F5F5F5F5F5F5F5F5F5F5F5F5F5F5F5F5F5F5F5F5F5F5F5F5F5F5F5F5F5F5F5F5F5F5E2F5F5F5F5F5F5F5F5F5F5F5F5F5F5F5F5E2F5F5F5E2E2EFF5F5F5E2F5F5F5F5F5F5F5
310
F5F5F5F5F5F5F5F5F5E2F5F5F5F5F5F5F5F5F5F5F5F5F5F5F5F5F5F5F5F5F5F5F5F5F5F5F5F5F5F5F5F5F5F5F5F5F5F5F5F5F5F5F5F5F5F5F5F5F5F5F5F5F5F5F5F5F5F5F5F5F5F5F5F5F5F5F5F5F5F5F5F5F5F5F5F5F5F5F5F5F5F5F5F5F5F5F5F5F5F5F5F5F5F5F5F5F5F5F5F5F5F5F5F5F5F5F5F5F5F5F5F5F5F5F5F5F5
310
F5F5F5F5F5F5F5F5F5F5F5F5F5F5F5F5F5F5E2F5F5F5F5F5F5F5F5F5F5F5F5F5F5F5F5E2F5F5F5E2E2EFF5F5F5E2F5F5F5F5F5F5F5F5F5F5F5F5F5F5F5F5E2F5F5F5F5F5F5F5F5F5F5F5F5F5F5F5F5F5F5F5F5F5F5F5F5F5F5F5F5F5F5F5F5F5F5F5F5F5F5F5F5F5F5F5F5F5F5F5F5F5F5F5F5F5F5F5F5F5F5F5F5F5F5F5F5
310
F5F5F5F5F5F5F5F5F5F5F5F5F5F5F5F5F5F5F5F5F5F5F5F5F5F5F5F5F5F5F5F5F5F5F5F5F5F5F5F5F5F5F5F5F5F5F5F5F5F5F5F5F5F5F5F5F5F5F5F5F5F5F5F5F5F5F5F5F5F5F5E2F5F5F5F5F5F5F5F5F5F5F5F5F5F5F5F5E2F5F5F5E2E2EFF5F5F5E2F5F5F5F5F5F5F5F5F5F5F5F5F5F5F5F5E2F5F5F5F5F5F5F5F5F5F5F5
310
F5F5F5F5F5F5F5F5F5F5F5F5F5F5F5F5F5F5F5F5F5F5F5F5F5F5F5F5F5F5F5F5F5F5F5F5F5F5F5F5F5F5F5F5F5F5F5F5F5F5F5F5F5F5F5F5F5F5F5F5F5F5F5F5F5F5F5F5F5F5F5F5F5F5F5F5F5F5F5F5F5F5F5F5F5F5F5F5F5F5F5F5F5F5F5F5F5F5F5F5F5F5F5F5F5F5F5F5F5F5F5F5F5F5F5F5F5F5F5F5F5F5F5F5E2F5F5
310
F5F5F5F5F5F5F5F5F5F5F5F5F5F5E2F5F5F5E2E2EFF5F5F5E2F5F5F5F5F5F5F5F5F5F5F5F5F5F5F5F5E2F5F5F5F5F5F5F5F5F5F5F5F5F5F5F5F5F5F5F5F5F5F5F5F5F5F5F5F5F5F5F5F5F5F5F5F5F5F5F5F5F5F5F5F5F5F5F5F5F5F5F5F5F5F5F5F5F5F5F5F5F5F5F5F5F5F5F5F5F5F5F5F5F5F5F5F5F5F5F5F5F5F5F5F5F5
310
F5F5F5F5F5F5F5F5F5F5F5F5F5F5F5F5F5F5F5F5F5F5F5F5F5F5F5F5F5F5F5F5F5F5F5F5F5F5F5F5F5F5F5F5F5F5F5F5F5F5E2F5F5F5F5F5F5F5F5F5F5F5F5F5F5F5F5E2F5F5F5E2E2EFF5F5F5E2F5F5F5F5F5F5F5F5F5F5F5F5F5F5F5F5E2F5F5F5F5F5F5F5F5F5F5F5F5F5F5F5F5F5F5F5F5F5F5F5F5F5F5F5F5F5F5F5F5
310
F5F5F5F5F5F5F5F5F5F5F5F5F5F5F5F5F5F5F5F5F5F5F5F5F5F5F5F5F5F5F5F5F5F5F5F5F5F5F5F5F5F5F5F5F5F5F5F5F5F5F5F5F5F5F5F5F5F5F5F5F5F5F5F5F5F5F5F5F5F5F5F5F5F5F5F5F5F5F5F5F5F5F5F5F5F5F5F5F5F5F5F5F5F5F5F5F5F5F5F5F5F5F5E2F5F5F5F5F5F5F5F5F5F5F5F5F5F5F5F5E2F5F5F5E2E2EF
310
F5F5F5E2F5F5F5F5F5F5F5F5F5F5F5F5F5F5F5F5E2F5F5F5F5F5F5F5F5F5F5F5F5F5F5F5F5F5F5F5F5F5F5F5F5F5F5F5F5F5F5F5F5F5F5F5F5F5F5F5F5F5F5F5F5F5F5F5F5F5F5F5F5F5F5F5F5F5F5F5F5F5F5F5F5F5F5F5F5F5F5F5F5F5F5F5F5F5F5F5F5F5F5F5F5F5F5F5F5F5F5F5F5F5F5F5F5F5F5F5F5F5F5F5F5F5F5
310
F5F5F5F5F5F5F5F5F5F5F5F5F5F5F5F5F5F5F5F5F5F5F5F5F5F5F5F5F5E2F5F5F5F5F5F5F5F5F5F5F5F5F5F5F5F5E2F5F5F5E2E2EFF5F5F5E2F5F5F5F5F5F5F5F5F5F5F5F5F5F5F5F5E2F5F5F5F5F5F5F5F5F5F5F5F5F5F5F5F5F5F5F5F5F5F5F5F5F5F5F5F5F5F5F5F5F5F5F5F5F5F5F5F5F5F5F5F5F5F5F5F5F5F5F5F5F5
310
F5F5F5F5F5F5F5F5F5F5F5F5F5F5F5F5F5F5F5F5F5F5F5F5F5F5F5F5F5F5F5F5F5F5F5F5F5F5F5F5F5F5F5F5F5F5F5F5F5F5F5F5F5F5F5F5F5F5F5F5F5F5F5F5F5F5F5F5F5F5F5F5F5F5F5F5F5F5F5F5F5F5E2F5F5F5F5F5F5F5F5F5F5F5F5F5F5F5F5E2F5F5F5E2E2EFF5F5F5E2F5F5F5F5F5F5F5F5F5F5F5F5F5F5F5F5E2
310
F5F5F5F5F5F5F5F5F5F5F5F5F5F5F5F5F5F5F5F5F5F5F5F5F5F5F5F5F5F5F5F5F5F5F5F5F5F5F5F5F5F5F5F5F5F5F5F5F5F5F5F5F5F5F5F5F5F5F5F5F5F5F5F5F5F5F5F5F5F5F5F5F5F5F5F5F5F5F5F5F5F5F5F5F5F5F5F5F5F5F5F5F5F5F5F5F5F5F5F5F5F5F5F5F5F5F5F5F5F5F5F5F5F5F5F5F5F5F5F5F5F5F5F5F5F5F5
310
F5F5F5F5F5F5F5F5E2F5F5F5F5F5F5F5F5F5F5F5F5F5F5F5F5E2F5F5F5E2E2EFF5F5F5E2F5F5F5F5F5F5F5F5F5F5F5F5F5F5F5F5E2F5F5F5F5F5F5F5F5F5F5F5F5F5F5F5F5F5F5F5F5F5F5F5F5F5F5F5F5F5F5F5F5F5F5F5F5F5F5F5F5F5F5F5F5F5F5F5F5F5F5F5F5F5F5F5F5F5F5F5F5F5F5F5F5F5F5F5F5F5F5F5F5F5F5
310
F5F5F5F5F5F5F5F5F5F5F5F5F5F5F5F5F5F5F5F5F5F5F5F5F5F5F5F5F5F5F5F5F5F5F5F5F5F5F5F5F5F5F5F5F5F5F5F5F5F5F5F5F5F5F5F5F5F5F5F5F5E2F5F5F5F5F5F5F5F5F5F5F5F5F5F5F5F5E2F5F5F5E2E2EFF5F5F5E2F5F5F5F5F5F5F5F5F5F5F5F5F5F5F5F5E2F5F5F5F5F5F5F5F5F5F5F5F5F5F5F5F5F5F5F5F5F5
310
F5F5F5F5F5F5F5F5F5F5F5F5F5F5F5F5F5F5F5F5F5F5F5F5F5F5F5F5F5F5F5F5F5F5F5F5F5F5F5F5F5F5F5F5F5F5F5F5F5F5F5F5F5F5F5F5F5F5F5F5F5F5F5F5F5F5F5F5F5F5F5F5F5F5F5F5F5F5F5F5F5F5F5F5F5F5F5F5F5F5F5F5F5F5F5F5F5F5F5F5F5F5F5F5F5F5F5F5F5F5F5F5F5F5E2F5F5F5F5F5F5F5F5F5F5F5F5
310
F5F5F5F5E2F5F5F5E2E2EFF5F5F5E2F5F5F5F5F5F5F5F5F5F5F5F5F5F5F5F5E2F5F5F5F5F5F5F5F5F5F5F5F5F5F5F5F5F5F5F5F5F5F5F5F5F5F5F5F5F5F5F5F5F5F5F5F5F5F5F5F5F5F5F5F5F5F5F5F5F5F5F5F5F5F5F5F5F5F5F5F5F5F5F5F5F5F5F5F5F5F5F5F5F5F5F5F5F5F5F5F5F5F5F5F5F5F5F5F5F5F5F5F5F5F5F5
310
F5F5F5F5F5F5F5F5F5F5F5F5F5F5F5F5F5F5F5F5F5F5F5F5F5F5F5F5F5F5F5F5F5F5F5F5F5F5F5F5E2F5F5F5F5F5F5F5F5F5F5F5F5F5F5F5F5E2F5F5F5E2E2EFF5F5F5F5F5F5F5F5F5F5F5F5F5F5F5F5F5F5F5F5E2F5F5F5F5F5F5F5F5F5F5F5F5F5F5F5F5F5F5F5F5F5F5F5F5F5F5F5F5F5F5F5F5F5F5F5F5F5F5F5F5F5F5
310
F5F5F5F5F5F5F5F5F5F5F5F5F5F5F5F5F5F5F5F5F5F5F5F5F5F5F5F5F5F5F5F5F5F5F5F5F5F5F5F5F5F5F5F5F5F5F5F5F5F5F5F5F5F5F5F5F5F5F5F5F5F5F5F5F5F5F5F5F5F5F5F5F5F5F5F5F5F5F5F5F5F5F5F5F5F5F5F5F5F5F5F5F5E2F5F5F5F5F5F5F5F5F5F5F5F5F5F5F5F5F5F5F5F5E2E2EFF5F5F5F5F5F5F5F5F5F5
310
F5F5F5F5F5F5F5F5F5F5E2F5F5F5F5F5F5F5F5F5F5F5F5F5F5F5F5F5F5F5F5F5F5F5F5F5F5F5F5F5F5F5F5F5F5F5F5F5F5F5F5F5F5F5F5F5F5F5F5F5F5F5F5F5F5F5F5F5F5F5F5F5F5F5F5F5F5F5F5F5F5F5F5F5F5F5F5F5F5F5F5F5F5F5F5F5F5F5F5F5F5F5F5F5F5F5F5F5F5F5F5F5F5F5F5F5F5F5F5F5F5F5F5F5F5F5F5
310
F5F5F5F5F5F5F5F5F5F5F5F5F5F5F5F5F5F5F5E2F5F5F5F5F5F5F5F5F5F5F5F5F5F5F5F5F5F5F5F5E2E2EFF5F5F5F5F5F5F5F5F5F5F5F5F5F5F5F5F5F5F5F5E2F5F5F5F5F5F5F5F5F5F5F5F5F5F5F5F5F5F5F5F5F5F5F5F5F5F5F5F5F5F5F5F5F5F5F5F5F5F5F5F5F5F5F5F5F5F5F5F5F5F5F5F5F5F5F5F5F5F5F5F5F5F5F5
310
F5F5F5F5F5F5F5F5F5F5F5F5F5F5F5F5F5F5F5F5F5F5F5F5F5F5F5F5F5F5F5F5F5F5F5F5F5F5F5F5F5F5F5F5F5F5F5F5F5F5F5F5F5F5F5F5F5F5F5F5F5F5F5F5F5F5F5F5F5F5F5F5E2F5F5F5F5F5F5F5F5F5F5F5F5F5F5F5F5F5F5F5F5E2E2EFF5F5F5F5F5F5F5F5F5F5F5F5F5F5F5F5F5F5F5F5E2F5F5F5F5F5F5F5F5F5F5
310
F5F5F5F5F5F5F5F5F5F5F5F5F5F5F5F5F5F5F5F5F5F5F5F5F5F5F5F5F5F5F5F5F5F5F5F5F5F5F5F5F5F5F5F5F5F5F5F5F5F5F5F5F5F5F5F5F5F5F5F5F5F5F5F5F5F5F5F5F5F5F5F5F5F5F5F5F5F5F5F5F5F5F5F5F5F5F5F5F5F5F5F5F5F5F5F5F5F5F5F5F5F5F5F5F5F5F5F5F5F5F5F5F5F5F5F5F5F5F5F5F5F5F5F5F5E2F5
310
F5F5F5F5F5F5F5F5F5F5F5F5F5F5F5F5F5F5F5E2E2EFF5F5F5F5F5F5F5F5F5F5F5F5F5F5F5F5F5F5F5F5E2F5F5F5F5F5F5F5F5F5F5F5F5F5F5F5F5F5F5F5F5F5F5F5F5F5F5F5F5F5F5F5F5F5F5F5F5F5F5F5F5F5F5F5F5F5F5F5F5F5F5F5F5F5F5F5F5F5F5F5F5F5F5F5F5F5F5F5F5F5F5F5F5F5F5F5F5F5F5F5F5F5F5F5F5
310
F5F5F5F5F5F5F5F5F5F5F5F5F5F5F5F5F5F5F5F5F5F5F5F5F5F5F5F5F5F5F5F5F5F5F5F5F5F5F5F5F5F5F5F5F5F5F5F5F5F5F5E2F5F5F5F5F5F5F5F5F5F5F5F5F5F5F5F5F5F5F5F5E2E2EFF5F5F5F5F5F5F5F5F5F5F5F5F5F5F5F5F5F5F5F5E2F5F5F5F5F5F5F5F5F5F5F5F5F5F5F5F5F5F5F5F5F5F5F5F5F5F5F5F5F5F5F5
310
F5F5F5F5F5F5F5F5F5F5F5F5F5F5F5F5F5F5F5F5F5F5F5F5F5F5F5F5F5F5F5F5F5F5F5F5F5F5F5F5F5F5F5F5F5F5F5F5F5F5F5F5F5F5F5F5F5F5F5F5F5F5F5F5F5F5F5F5F5F5F5F5F5F5F5F5F5F5F5F5F5F5F5F5F5F5F5F5F5F5F5F5F5F5F5F5F5F5F5F5F5F5F5F5E2F5F5F5F5F5F5F5F5F5F5F5F5F5F5F5F5F5F5F5F5E2E2
310
EFF5F5F5F5F5F5F5F5F5F5F5F5F5F5F5F5F5F5F5F5E2F5F5F5F5F5F5F5F5F5F5F5F5F5F5F5F5F5F5F5F5F5F5F5F5F5F5F5F5F5F5F5F5F5F5F5F5F5F5F5F5F5F5F5F5F5F5F5F5F5F5F5F5F5F5F5F5F5F5F5F5F5F5F5F5F5F5F5F5F5F5F5F5F5F5F5F5F5F5F5F5F5F5F5F5F5F5F5F5F5F5F5F5F5F5F5F5F5F5F5F5F5F5F5F5F5
310
F5F5F5F5F5F5F5F5F5F5F5F5F5F5F5F5F5F5F5F5F5F5F5F5F5F5F5F5F5F5E2F5F5F5F5F5F5F5F5F5F5F5F5F5F5F5F5F5F5F5F5E2E2EFF5F5F5F5F5F5F5F5F5F5F5F5F5F5F5F5F5F5F5F5E2F5F5F5F5F5F5F5F5F5F5F5F5F5F5F5F5F5F5F5F5F5F5F5F5F5F5F5F5F5F5F5F5F5F5F5F5F5F5F5F5F5F5F5F5F5F5F5F5F5F5F5F5
310
F5F5F5F5F5F5F5F5F5F5F5F5F5F5F5F5F5F5F5F5F5F5F5F5F5F5F5F5F5F5F5F5F5F5F5F5F5F5F5F5F5F5F5F5F5F5F5F5F5F5F5F5F5F5F5F5F5F5F5F5F5F5F5F5F5F5F5F5F5F5F5F5F5F5F5F5F5F5F5F5F5F5F5E2F5F5F5F5F5F5F5F5F5F5F5F5F5F5F5F5F5F5F5F5E2E2EFF5F5F5F5F5F5F5F5F5F5F5F5F5F5F5F5F5F5F5F5
310
E2F5F5F5F5F5F5F5F5F5F5F5F5F5F5F5F5F5F5F5F5F5F5F5F5F5F5F5F5F5F5F5F5F5F5F5F5F5F5F5F5F5F5F5F5F5F5F5F5F5F5F5F5F5F5F5F5F5F5F5F5F5F5F5F5F5F5F5F5F5F5F5F5F5F5F5F5F5F5F5F5F5F5F5F5F5F5F5F5F5F5F5F5F5F5F5F5F5F5F5F5F5F5F5F5F5F5F5F5F5F5F5F5F5F5F5F5F5F5F5F5F5F5F5F5F5F5
310
F5F5F5F5F5F5F5F5F5E2F5F5F5F5F5F5F5F5F5F5F5F5F5F5F5F5F5F5F5F5E2E2EFF5F5F5E2F5F5F5F5F5F5F5F5F5F5F5F5F5F5F5F5E2F5F5F5F5F5F5F5F5F5F5F5F5F5F5F5F5F5F5F5F5F5F5F5F5F5F5F5F5F5F5F5F5F5F5F5F5F5F5F5F5F5F5F5F5F5F5F5F5F5F5F5F5F5F5F5F5F5F5F5F5F5F5F5F5F5F5F5F5F5F5F5F5F5
310
F5F5F5F5F5F5F5F5F5F5F5F5F5F5F5F5F5F5F5F5F5F5F5F5F5F5F5F5F5F5F5F5F5F5F5F5F5F5F5F5F5F5F5F5F5F5F5F5F5F5F5F5F5F5F5F5F5F5F5F5F5F5E2F5F5F5F5F5F5F5F5F5F5F5F5F5F5F5F5E2F5F5F5E2E2EFF5F5F5E2F5F5F5F5F5F5F5F5F5F5F5F5F5F5F5F5E2F5F5F5F5F5F5F5F5F5F5F5F5F5F5F5F5F5F5F5F5
310
F5F5F5F5F5F5F5F5F5F5F5F5F5F5F5F5F5F5F5F5F5F5F5F5F5F5F5F5F5F5F5F5F5F5F5F5F5F5F5F5F5F5F5F5F5F5F5F5F5F5F5F5F5F5F5F5F5F5F5F5F5F5F5F5F5F5F5F5F5F5F5F5F5F5F5F5F5F5F5F5F5F5F5F5F5F5F5F5F5F5F5F5F5F5F5F5F5F5F5F5F5F5F5F5F5F5F5F5F5F5F5F5F5F5F5E2F5F5F5F5F5F5F5F5F5F5F5
310
F5F5F5F5F5E2F5F5F5E2E2EFF5F5F5E2F5F5F5F5F5F5F5F5F5F5F5F5F5F5F5F5E2F5F5F5F5F5F5F5F5F5F5F5F5F5F5F5F5F5F5F5F5F5F5F5F5F5F5F5F5F5F5F5F5F5F5F5F5F5F5F5F5F5F5F5F5F5F5F5F5F5F5F5F5F5F5F5F5F5F5F5F5F5F5F5F5F5F5F5F5F5F5F5F5F5F5F5F5F5F5F5F5F5F5F5F5F5F5F5F5F5F5F5F5F5F5
310
F5F5F5F5F5F5F5F5F5F5F5F5F5F5F5F5F5F5F5F5F5F5F5F5F5F5F5F5F5F5F5F5F5F5F5F5F5F5F5F5F5E2F5F5F5F5F5F5F5F5F5F5F5F5F5F5F5F5E2F5F5F5E2E2EFF5F5F5E2F5F5F5F5F5F5F5F5F5F5F5F5F5F5F5F5E2F5F5F5F5F5F5F5F5F5F5F5F5F5F5F5F5F5F5F5F5F5F5F5F5F5F5F5F5F5F5F5F5F5F5F5F5F5F5F5F5F5
310
F5F5F5F5F5F5F5F5F5F5F5F5F5F5F5F5F5F5F5F5F5F5F5F5F5F5F5F5F5F5F5F5F5F5F5F5F5F5F5F5F5F5F5F5F5F5F5F5F5F5F5F5F5F5F5F5F5F5F5F5F5F5F5F5F5F5F5F5F5F5F5F5F5F5F5F5F5F5F5F5F5F5F5F5F5F5F5F5F5F5F5F5F5F5E2F5F5F5F5F5F5F5F5F5F5F5F5F5F5F5F5E2F5F5F5E2E2EFF5F5F5E2F5F5F5F5F5
310
F5F5F5F5F5F5F5F5F5F5F5E2F5F5F5F5F5F5F5F5F5F5F5F5F5F5F5F5F5F5F5F5F5F5F5F5F5F5F5F5F5F5F5F5F5F5F5F5F5F5F5F5F5F5F5F5F5F5F5F5F5F5F5F5F5F5F5F5F5F5F5F5F5F5F5F5F5F5F5F5F5F5F5F5F5F5F5F5F5F5F5F5F5F5F5F5F5F5F5F5F5F5F5F5F5F5F5F5F5F5F5F5F5F5F5F5F5F5F5F5F5F5F5F5F5F5F5
310
F5F5F5F5F5F5F5F5F5F5F5F5F5F5F5F5F5F5F5F5E2F5F5F5F5F5F5F5F5F5F5F5F5F5F5F5F5E2F5F5F5E2E2EFF5F5F5E2F5F5F5F5F5F5F5F5F5F5F5F5F5F5F5F5E2F5F5F5F5F5F5F5F5F5F5F5F5F5F5F5F5F5F5F5F5F5F5F5F5F5F5F5F5F5F5F5F5F5F5F5F5F5F5F5F5F5F5F5F5F5F5F5F5F5F5F5F5F5F5F5F5F5F5F5F5F5F5
310
F5F5F5F5F5F5F5F5F5F5F5F5F5F5F5F5F5F5F5F5F5F5F5F5F5F5F5F5F5F5F5F5F5F5F5F5F5F5F5F5F5F5F5F5F5F5F5F5F5F5F5F5F5F5F5F5F5F5F5F5F5F5F5F5F5F5F5F5F5F5F5F5F5E2F5F5F5F5F5F5F5F5F5F5F5F5F5F5F5F5E2F5F5F5E2E2EFF5F5F5E2F5F5F5F5F5F5F5F5F5F5F5F5F5F5F5F5E2F5F5F5F5F5F5F5F5F5
310
F5F5F5F5F5F5F5F5F5F5F5F5F5F5F5F5F5F5F5F5F5F5F5F5F5F5F5F5F5F5F5F5F5F5F5F5F5F5F5F5F5F5F5F5F5F5F5F5F5F5F5F5F5F5F5F5F5F5F5F5F5F5F5F5F5F5F5F5F5F5F5F5F5F5F5F5F5F5F5F5F5F5F5F5F5F5F5F5F5F5F5F5F5F5F5F5F5F5F5F5F5F5F5F5F5F5F5F5F5F5F5F5F5F5F5F5F5F5F5F5F5F5F5F5F5F5E2
310
F5F5F5F5F5F5F5F5F5F5F5F5F5F5F5F5E2F5F5F5E2E2EFF5F5F5E2F5F5F5F5F5F5F5F5F5F5F5F5F5F5F5F5E2F5F5F5F5F5F5F5F5F5F5F5F5F5F5F5F5F5F5F5F5F5F5F5F5F5F5F5F5F5F5F5F5F5F5F5F5F5F5F5F5F5F5F5F5F5F5F5F5F5F5F5F5F5F5F5F5F5F5F5F5F5F5F5F5F5F5F5F5F5F5F5F5F5F5F5F5F5F5F5F5F5F5F5
310
F5F5F5F5F5F5F5F5F5F5F5F5F5F5F5F5F5F5F5F5F5F5F5F5F5F5F5F5F5F5F5F5F5F5F5F5F5F5F5F5F5F5F5F5F5F5F5F5F5F5F5F5E2F5F5F5F5F5F5F5F5F5F5F5F5F5F5F5F5E2F5F5F5E2E2EFF5F5F5E2F5F5F5F5F5F5F5F5F5F5F5F5F5F5F5F5E2F5F5F5F5F5F5F5F5F5F5F5F5F5F5F5F5F5F5F5F5F5F5F5F5F5F5F5F5F5F5
310
F5F5F5F5F5F5F5F5F5F5F5F5F5F5F5F5F5F5F5F5F5F5F5F5F5F5F5F5F5F5F5F5F5F5F5F5F5F5F5F5F5F5F5F5F5F5F5F5F5F5F5F5F5F5F5F5F5F5F5F5F5F5F5F5F5F5F5F5F5F5F5F5F5F5F5F5F5F5F5F5F5F5F5F5F5F5F5F5F5F5F5F5F5F5F5F5F5F5F5F5F5F5F5F5F5E2F5F5F5F5F5F5F5F5F5F5F5F5F5F5F5F5E2F5F5F5E2
310
E2EFF5F5F5E2F5F5F5F5F5F5F5F5F5F5F5F5F5F5F5F5E2F5F5F5F5F5F5F5F5F5F5F5F5F5F5F5F5F5F5F5F5F5F5F5F5F5F5F5F5F5F5F5F5F5F5F5F5F5F5F5F5F5F5F5F5F5F5F5F5F5F5F5F5F5F5F5F5F5F5F5F5F5F5F5F5F5F5F5F5F5F5F5F5F5F5F5F5F5F5F5F5F5F5F5F5F5F5F5F5F5F5F5F5F5F5F5F5F5F5F5F5F5F5F5F5
310
F5F5F5F5F5F5F5F5F5F5F5F5F5F5F5F5F5F5F5F5F5F5F5F5F5F5F5F5F5F5F5E2F5F5F5F5F5F5F5F5F5F5F5F5F5F5F5F5E2F5F5F5E2E2EFF5F5F5E2F5F5F5F5F5F5F5F5F5F5F5F5F5F5F5F5E2F5F5F5F5F5F5F5F5F5F5F5F5F5F5F5F5F5F5F5F5F5F5F5F5F5F5F5F5F5F5F5F5F5F5F5F5F5F5F5F5F5F5F5F5F5F5F5F5F5F5F5
310
F5F5F5F5F5F5F5F5F5F5F5F5F5F5F5F5F5F5F5F5F5F5F5F5F5F5F5F5F5F5F5F5F5F5F5F5F5F5F5F5F5F5F5F5F5F5F5F5F5F5F5F5F5F5F5F5F5F5F5F5F5F5F5F5F5F5F5F5F5F5F5F5F5F5F5F5F5F5F5F5F5F5F5F5E2F5F5F5F5F5F5F5F5F5F5F5F5F5F5F5F5E2F5F5F5E2E2EFF5F5F5E2F5F5F5F5F5F5F5F5F5F5F5F5F5F5F5
310
F5E2F5F5F5F5F5F5F5F5F5F5F5F5F5F5F5F5F5F5F5F5F5F5F5F5F5F5F5F5F5F5F5F5F5F5F5F5F5F5F5F5F5F5F5F5F5F5F5F5F5F5F5F5F5F5F5F5F5F5F5F5F5F5F5F5F5F5F5F5F5F5F5F5F5F5F5F5F5F5F5F5F5F5F5F5F5F5F5F5F5F5F5F5F5F5F5F5F5F5F5F5F5F5F5F5F5F5F5F5F5F5F5F5F5F5F5F5F5F5F5F5F5F5F5F5F5
310
F5F5F5F5F5F5F5F5F5F5E2F5F5F5F5F5F5F5F5F5F5F5F5F5F5F5F5E2F5F5F5E2E2EFF5F5F5E2F5F5F5F5F5F5F5F5F5F5F5F5F5F5F5F5E2F5F5F5F5F5F5F5F5F5F5F5F5F5F5F5F5F5F5F5F5F5F5F5F5F5F5F5F5F5F5F5F5F5F5F5F5F5F5F5F5F5F5F5F5F5F5F5F5F5F5F5F5F5F5F5F5F5F5F5F5F5F5F5F5F5F5F5F5F5F5F5F5
310
F5F5F5F5F5F5F5F5F5F5F5F5F5F5F5F5F5F5F5F5F5F5F5F5F5F5F5F5F5F5F5F5F5F5F5F5F5F5F5F5F5F5F5F5F5F5F5F5F5F5F5F5F5F5F5F5F5F5F5F5F5F5F5E2F5F5F5F5F5F5F5F5F5F5F5F5F5F5F5F5E2F5F5F5E2E2EFF5F5F5E2F5F5F5F5F5F5F5F5F5F5F5F5F5F5F5F5E2F5F5F5F5F5F5F5F5F5F5F5F5F5F5F5F5F5F5F5
310
F5F5F5F5F5F5F5F5F5F5F5F5F5F5F5F5F5F5F5F5F5F5F5F5F5F5F5F5F5F5F5F5F5F5F5F5F5F5F5F5F5F5F5F5F5F5F5F5F5F5F5F5F5F5F5F5F5F5F5F5F5F5F5F5F5F5F5F5F5F5F5F5F5F5F5F5F5F5F5F5F5F5F5F5F5F5F5F5F5F5F5F5F5F5F5F5F5F5F5F5F5F5F5F5F5F5F5F5F5F5F5F5F5F5F5F5E2F5F5F5F5F5F5F5F5F5F5
310
F5F5F5F5F5F5E2F5F5F5E2E2EFF5F5F5E2F5F5F5F5F5F5F5F5F5F5F5F5F5F5F5F5E2F5F5F5F5F5F5F5F5F5F5F5F5F5F5F5F5F5F5F5F5F5F5F5F5F5F5F5F5F5F5F5F5F5F5F5F5F5F5F5F5F5F5F5F5F5F5F5F5F5F5F5F5F5F5F5F5F5F5F5F5F5F5F5F5F5F5F5F5F5F5F5F5F5F5F5F5F5F5F5F5F5F5F5F5F5F5F5F5F5F5F5F5F5
310
F5F5F5F5F5F5F5F5F5F5F5F5F5F5F5F5F5F5F5F5F5F5F5F5F5F5F5F5F5F5F5F5F5F5F5F5F5F5F5F5F5F5E2F5F5F5F5F5F5F5F5F5F5F5F5F5F5F5F5E2F5F5F5E2E2EFF5F5F5E2F5F5F5F5F5F5F5F5F5F5F5F5F5F5F5F5E2F5F5F5F5F5F5F5F5F5F5F5F5F5F5F5F5F5F5F5F5F5F5F5F5F5F5F5F5F5F5F5F5F5F5F5F5F5F5F5F5
310
F5F5F5F5F5F5F5F5F5F5F5F5F5F5F5F5F5F5F5F5F5F5F5F5F5F5F5F5F5F5F5F5F5F5F5F5F5F5F5F5F5F5F5F5F5F5F5F5F5F5F5F5F5F5F5F5F5F5F5F5F5F5F5F5F5F5F5F5F5F5F5F5F5F5F5F5F5F5F5F5F5F5F5F5F5F5F5F5F5F5F5F5F5F5F5E2F5F5F5F5F5F5F5F5F5F5F5F5F5F5F5F5E2F5F5F5E2E2EFF5F5F5E2F5F5F5F5
310
F5F5F5F5F5F5F5F5F5F5F5F5E2F5F5F5F5F5F5F5F5F5F5F5F5F5F5F5F5F5F5F5F5F5F5F5F5F5F5F5F5F5F5F5F5F5F5F5F5F5F5F5F5F5F5F5F5F5F5F5F5F5F5F5F5F5F5F5F5F5F5F5F5F5F5F5F5F5F5F5F5F5F5F5F5F5F5F5F5F5F5F5F5F5F5F5F5F5F5F5F5F5F5F5F5F5F5F5F5F5F5F5F5F5F5F5F5F5F5F5F5F5F5F5F5F5F5
310
F5F5F5F5F5F5F5F5F5F5F5F5F5F5F5F5F5F5F5F5F5E2F5F5F5F5F5F5F5F5F5F5F5F5F5F5F5F5E2F5F5F5E2E2EFF5F5F5F5F5F5F5F5F5F5F5F5F5F5F5F5F5F5F5F5E2F5F5F5F5F5F5F5F5F5F5F5F5F5F5F5F5F5F5F5F5F5F5F5F5F5F5F5F5F5F5F5F5F5F5F5F5F5F5F5F5F5F5F5F5F5F5F5F5F5F5F5F5F5F5F5F5F5F5F5F5F5
310
F5F5F5F5F5F5F5F5F5F5F5F5F5F5F5F5F5F5F5F5F5F5F5F5F5F5F5F5F5F5F5F5F5F5F5F5F5F5F5F5F5F5F5F5F5F5F5F5F5F5F5F5F5F5F5F5F5F5F5F5F5F5F5F5F5F5F5F5F5F5F5F5F5F5E2F5F5F5F5F5F5F5F5F5F5F5F5F5F5F5F5F5F5F5F5E2E2EFF5F5F5F5F5F5F5F5F5F5F5F5F5F5F5F5F5F5F5F5E2F5F5F5F5F5F5F5F5
310
F5F5F5F5F5F5F5F5F5F5F5F5F5F5F5F5F5F5F5F5F5F5F5F5F5F5F5F5F5F5F5F5F5F5F5F5F5F5F5F5F5F5F5F5F5F5F5F5F5F5F5F5F5F5F5F5F5F5F5F5F5F5F5F5F5F5F5F5F5F5F5F5F5F5F5F5F5F5F5F5F5F5F5F5F5F5F5F5F5F5F5F5F5F5F5F5F5F5F5F5F5F5F5F5F5F5F5F5F5F5F5F5F5F5F5F5F5F5F5F5F5F5F5F5F5F5F5
310
E2F5F5F5F5F5F5F5F5F5F5F5F5F5F5F5F5F5F5F5F5E2E2EFF5F5F5F5F5F5F5F5F5F5F5F5F5F5F5F5F5F5F5F5E2F5F5F5F5F5F5F5F5F5F5F5F5F5F5F5F5F5F5F5F5F5F5F5F5F5F5F5F5F5F5F5F5F5F5F5F5F5F5F5F5F5F5F5F5F5F5F5F5F5F5F5F5F5F5F5F5F5F5F5F5F5F5F5F5F5F5F5F5F5F5F5F5F5F5F5F5F5F5F5F5F5F5
310
F5F5F5F5F5F5F5F5F5F5F5F5F5F5F5F5F5F5F5F5F5F5F5F5F5F5F5F5F5F5F5F5F5F5F5F5F5F5F5F5F5F5F5F5F5F5F5F5F5F5F5F5F5E2F5F5F5F5F5F5F5F5F5F5F5F5F5F5F5F5F5F5F5F5E2E2EFF5F5F5F5F5F5F5F5F5F5F5F5F5F5F5F5F5F5F5F5E2F5F5F5F5F5F5F5F5F5F5F5F5F5F5F5F5F5F5F5F5F5F5F5F5F5F5F5F5F5
310
F5F5F5F5F5F5F5F5F5F5F5F5F5F5F5F5F5F5F5F5F5F5F5F5F5F5F5F5F5F5F5F5F5F5F5F5F5F5F5F5F5F5F5F5F5F5F5F5F5F5F5F5F5F5F5F5F5F5F5F5F5F5F5F5F5F5F5F5F5F5F5F5F5F5F5F5F5F5F5F5F5F5F5F5F5F5F5F5F5F5F5F5F5F5F5F5F5F5F5F5F5F5F5F5F5F5E2F5F5F5F5F5F5F5F5F5F5F5F5F5F5F5F5F5F5F5F5
310
E2E2EFF5F5F5F5F5F5F5F5F5F5F5F5F5F5F5F5F5F5F5F5E2F5F5F5F5F5F5F5F5F5F5F5F5F5F5F5F5F5F5F5F5F5F5F5F5F5F5F5F5F5F5F5F5F5F5F5F5F5F5F5F5F5F5F5F5F5F5F5F5F5F5F5F5F5F5F5F5F5F5F5F5F5F5F5F5F5F5F5F5F5F5F5F5F5F5F5F5F5F5F5F5F5F5F5F5F5F5F5F5F5F5F5F5F5F5F5F5F5F5F5F5F5F5F5
310
F5F5F5F5F5F5F5F5F5F5F5F5F5F5F5F5F5F5F5F5F5F5F5F5F5F5F5F5F5F5F5F5E2F5F5F5F5F5F5F5F5F5F5F5F5F5F5F5F5F5F5F5F5E2E2EFF5F5F5F5F5F5F5F5F5F5F5F5F5F5F5F5F5F5F5F5E2F5F5F5F5F5F5F5F5F5F5F5F5F5F5F5F5F5F5F5F5F5F5F5F5F5F5F5F5F5F5F5F5F5F5F5F5F5F5F5F5F5F5F5F5F5F5F5F5F5F5
310
F5F5F5F5F5F5F5F5F5F5F5F5F5F5F5F5F5F5F5F5F5F5F5F5F5F5F5F5F5F5F5F5F5F5F5F5F5F5F5F5F5F5F5F5F5F5F5F5F5F5F5F5F5F5F5F5F5F5F5F5F5F5F5F5F5F5F5F5F5F5F5F5F5F5F5F5F5F5F5F5F5F5F5F5F5E2F5F5F5F5F5F5F5F5F5F5F5F5F5F5F5F5F5F5F5F5E2E2EFF5F5F5F5F5F5F5F5F5F5F5F5F5F5F5F5F5F5
310
F5F5E2F5F5F5F5F5F5F5F5F5F5F5F5F5F5F5F5F5F5F5F5F5F5F5F5F5F5F5F5F5F5F5F5F5F5F5F5F5F5F5F5F5F5F5F5F5F5F5F5F5F5F5F5F5F5F5F5F5F5F5F5F5F5F5F5F5F5F5F5F5F5F5F5F5F5F5F5F5F5F5F5F5F5F5F5F5F5F5F5F5F5F5F5F5F5F5F5F5F5F5F5F5F5F5F5F5F5F5F5F5F5F5F5F5F5F5F5F5F5F5F5F5F5F5F5
310
F5F5F5F5F5F5F5F5F5F5F5E2F5F5F5F5F5F5F5F5F5F5F5F5F5F5F5F5F5F5F5F5E2E2EFF5F5F5F5F5F5F5F5F5F5F5F5F5F5F5F5F5F5F5F5E2F5F5F5F5F5F5F5F5F5F5F5F5F5F5F5F5F5F5F5F5F5F5F5F5F5F5F5F5F5F5F5F5F5F5F5F5F5F5F5F5F5F5F5F5F5F5F5F5F5F5F5F5F5F5F5F5F5F5F5F5F5F5F5F5F5F5F5F5F5F5F5
310
F5F5F5F5F5F5F5F5F5F5F5F5F5F5F5F5F5F5F5F5F5F5F5F5F5F5F5F5F5F5F5F5F5F5F5F5F5F5F5F5F5F5F5F5F5F5F5F5F5F5F5F5F5F5F5F5F5F5F5F5F5F5F5F5E2F5F5F5F5F5F5F5F5F5F5F5F5F5F5F5F5F5F5F5F5E2E2EFF5F5F5F5F5F5F5F5F5F5F5F5F5F5F5F5F5F5F5F5E2F5F5F5F5F5F5F5F5F5F5F5F5F5F5F5F5F5F5
310
F5F5F5F5F5F5F5F5F5F5F5F5F5F5F5F5F5F5F5F5F5F5F5F5F5F5F5F5F5F5F5F5F5F5F5F5F5F5F5F5F5F5F5F5F5F5F5F5F5F5F5F5F5F5F5F5F5F5F5F5F5F5F5F5F5F5F5F5F5F5F5F5F5F5F5F5F5F5F5F5F5F5F5F5F5F5F5F5F5F5F5F5F5F5F5F5F5F5F5F5F5F5F5F5F5F5F5F5F5F5F5F5F5F5F5F5F5E2F5F5F5F5F5F5F5F5F5
310
F5F5F5F5F5F5F5F5F5F5F5E2E2EFF5F5F5E2F5F5F5F5F5F5F5F5F5F5F5F5F5F5F5F5E2F5F5F5F5F5F5F5F5F5F5F5F5F5F5F5F5F5F5F5F5F5F5F5F5F5F5F5F5F5F5F5F5F5F5F5F5F5F5F5F5F5F5F5F5F5F5F5F5F5F5F5F5F5F5F5F5F5F5F5F5F5F5F5F5F5F5F5F5F5F5F5F5F5F5F5F5F5F5F5F5F5F5F5F5F5F5F5F5F5F5F5F5
310
F5F5F5F5F5F5F5F5F5F5F5F5F5F5F5F5F5F5F5F5F5F5F5F5F5F5F5F5F5F5F5F5F5F5F5F5F5F5F5F5F5F5F5E2F5F5F5F5F5F5F5F5F5F5F5F5F5F5F5F5E2F5F5F5E2E2EFF5F5F5E2F5F5F5F5F5F5F5F5F5F5F5F5F5F5F5F5E2F5F5F5F5F5F5F5F5F5F5F5F5F5F5F5F5F5F5F5F5F5F5F5F5F5F5F5F5F5F5F5F5F5F5F5F5F5F5F5
310
F5F5F5F5F5F5F5F5F5F5F5F5F5F5F5F5F5F5F5F5F5F5F5F5F5F5F5F5F5F5F5F5F5F5F5F5F5F5F5F5F5F5F5F5F5F5F5F5F5F5F5F5F5F5F5F5F5F5F5F5F5F5F5F5F5F5F5F5F5F5F5F5F5F5F5F5F5F5F5F5F5F5F5F5F5F5F5F5F5F5F5F5F5F5F5F5E2F5F5F5F5F5F5F5F5F5F5F5F5F5F5F5F5E2F5F5F5E2E2EFF5F5F5E2F5F5F5
310
F5F5F5F5F5F5F5F5F5F5F5F5F5E2F5F5F5F5F5F5F5F5F5F5F5F5F5F5F5F5F5F5F5F5F5F5F5F5F5F5F5F5F5F5F5F5F5F5F5F5F5F5F5F5F5F5F5F5F5F5F5F5F5F5F5F5F5F5F5F5F5F5F5F5F5F5F5F5F5F5F5F5F5F5F5F5F5F5F5F5F5F5F5F5F5F5F5F5F5F5F5F5F5F5F5F5F5F5F5F5F5F5F5F5F5F5F5F5F5F5F5F5F5F5F5F5F5
310
F5F5F5F5F5F5F5F5F5F5F5F5F5F5F5F5F5F5F5F5F5F5E2F5F5F5F5F5F5F5F5F5F5F5F5F5F5F5F5E2F5F5F5E2E2EFF5F5F5E2F5F5F5F5F5F5F5F5F5F5F5F5F5F5F5F5E2F5F5F5F5F5F5F5F5F5F5F5F5F5F5F5F5F5F5F5F5F5F5F5F5F5F5F5F5F5F5F5F5F5F5F5F5F5F5F5F5F5F5F5F5F5F5F5F5F5F5F5F5F5F5F5F5F5F5F5F5
310
F5F5F5F5F5F5F5F5F5F5F5F5F5F5F5F5F5F5F5F5F5F5F5F5F5F5F5F5F5F5F5F5F5F5F5F5F5F5F5F5F5F5F5F5F5F5F5F5F5F5F5F5F5F5F5F5F5F5F5F5F5F5F5F5F5F5F5F5F5F5F5F5F5F5F5E2F5F5F5F5F5F5F5F5F5F5F5F5F5F5F5F5E2F5F5F5E2E2EFF5F5F5E2F5F5F5F5F5F5F5F5F5F5F5F5F5F5F5F5E2F5F5F5F5F5F5F5
310
F5F5F5F5F5F5F5F5F5F5F5F5F5F5F5F5F5F5F5F5F5F5F5F5F5F5F5F5F5F5F5F5F5F5F5F5F5F5F5F5F5F5F5F5F5F5F5F5F5F5F5F5F5F5F5F5F5F5F5F5F5F5F5F5F5F5F5F5F5F5F5F5F5F5F5F5F5F5F5F5F5F5F5F5F5F5F5F5F5F5F5F5F5F5F5F5F5F5F5F5F5F5F5F5F5F5F5F5F5F5F5F5F5F5F5F5F5F5F5F5F5F5F5F5F5F5F5
310
F5E2F5F5F5F5F5F5F5F5F5F5F5F5F5F5F5F5E2F5F5F5E2E2EFF5F5F5E2F5F5F5F5F5F5F5F5F5F5F5F5F5F5F5F5E2F5F5F5F5F5F5F5F5F5F5F5F5F5F5F5F5F5F5F5F5F5F5F5F5F5F5F5F5F5F5F5F5F5F5F5F5F5F5F5F5F5F5F5F5F5F5F5F5F5F5F5F5F5F5F5F5F5F5F5F5F5F5F5F5F5F5F5F5F5F5F5F5F5F5F5F5F5F5F5F5F5
310
F5F5F5F5F5F5F5F5F5F5F5F5F5F5F5F5F5F5F5F5F5F5F5F5F5F5F5F5F5F5F5F5F5F5F5F5F5F5F5F5F5F5F5F5F5F5F5F5F5F5F5F5F5F5E2F5F5F5F5F5F5F5F5F5F5F5F5F5F5F5F5E2F5F5F5E2E2EFF5F5F5E2F5F5F5F5F5F5F5F5F5F5F5F5F5F5F5F5E2F5F5F5F5F5F5F5F5F5F5F5F5F5F5F5F5F5F5F5F5F5F5F5F5F5F5F5F5
310
F5F5F5F5F5F5F5F5F5F5F5F5F5F5F5F5F5F5F5F5F5F5F5F5F5F5F5F5F5F5F5F5F5F5F5F5F5F5F5F5F5F5F5F5F5F5F5F5F5F5F5F5F5F5F5F5F5F5F5F5F5F5F5F5F5F5F5F5F5F5F5F5F5F5F5F5F5F5F5F5F5F5F5F5F5F5F5F5F5F5F5F5F5F5F5F5F5F5F5F5F5F5F5F5F5F5F5E2F5F5F5F5F5F5F5F5F5F5F5F5F5F5F5F5E2F5F5
310
F5E2E2EFF5F5F5E2F5F5F5F5F5F5F5F5F5F5F5F5F5F5F5F5E2F5F5F5F5F5F5F5F5F5F5F5F5F5F5F5F5F5F5F5F5F5F5F5F5F5F5F5F5F5F5F5F5F5F5F5F5F5F5F5F5F5F5F5F5F5F5F5F5F5F5F5F5F5F5F5F5F5F5F5F5F5F5F5F5F5F5F5F5F5F5F5F5F5F5F5F5F5F5F5F5F5F5F5F5F5F5F5F5F5F5F5F5F5F5F5F5F5F5F5F5F5F5
310
F5F5F5F5F5F5F5F5F5F5F5F5F5F5F5F5F5F5F5F5F5F5F5F5F5F5F5F5F5F5F5F5F5E2F5F5F5F5F5F5F5F5F5F5F5F5F5F5F5F5E2F5F5F5E2E2EFF5F5F5E2F5F5F5F5F5F5F5F5F5F5F5F5F5F5F5F5E2F5F5F5F5F5F5F5F5F5F5F5F5F5F5F5F5F5F5F5F5F5F5F5F5F5F5F5F5F5F5F5F5F5F5F5F5F5F5F5F5F5F5F5F5F5F5F5F5F5
310
F5F5F5F5F5F5F5F5F5F5F5F5F5F5F5F5F5F5F5F5F5F5F5F5F5F5F5F5F5F5F5F5F5F5F5F5F5F5F5F5F5F5F5F5F5F5F5F5F5F5F5F5F5F5F5F5F5F5F5F5F5F5F5F5F5F5F5F5F5F5F5F5F5F5F5F5F5F5F5F5F5F5F5F5F5F5E2F5F5F5F5F5F5F5F5F5F5F5F5F5F5F5F5E2F5F5F5E2E2EFF5F5F5E2F5F5F5F5F5F5F5F5F5F5F5F5F5
310
F5F5F5E2F5F5F5F5F5F5F5F5F5F5F5F5F5F5F5F5F5F5F5F5F5F5F5F5F5F5F5F5F5F5F5F5F5F5F5F5F5F5F5F5F5F5F5F5F5F5F5F5F5F5F5F5F5F5F5F5F5F5F5F5F5F5F5F5F5F5F5F5F5F5F5F5F5F5F5F5F5F5F5F5F5F5F5F5F5F5F5F5F5F5F5F5F5F5F5F5F5F5F5F5F5F5F5F5F5F5F5F5F5F5F5F5F5F5F5F5F5F5F5F5F5F5F5
310
F5F5F5F5F5F5F5F5F5F5F5F5E2F5F5F5F5F5F5F5F5F5F5F5F5F5F5F5F5E2F5F5F5E2E2EFF5F5F5E2F5F5F5F5F5F5F5F5F5F5F5F5F5F5F5F5E2F5F5F5F5F5F5F5F5F5F5F5F5F5F5F5F5F5F5F5F5F5F5F5F5F5F5F5F5F5F5F5F5F5F5F5F5F5F5F5F5F5F5F5F5F5F5F5F5F5F5F5F5F5F5F5F5F5F5F5F5F5F5F5F5F5F5F5F5F5F5
310
F5F5F5F5F5F5F5F5F5F5F5F5F5F5F5F5F5F5F5F5F5F5F5F5F5F5F5F5F5F5F5F5F5F5F5F5F5F5F5F5F5F5F5F5F5F5F5F5F5F5F5F5F5F5F5F5F5F5F5F5F5F5F5F5F5E2F5F5F5F5F5F5F5F5F5F5F5F5F5F5F5F5E2F5F5F5E2E2EFF5F5F5E2F5F5F5F5F5F5F5F5F5F5F5F5F5F5F5F5E2F5F5F5F5F5F5F5F5F5F5F5F5F5F5F5F5F5
310
F5F5F5F5F5F5F5F5F5F5F5F5F5F5F5F5F5F5F5F5F5F5F5F5F5F5F5F5F5F5F5F5F5F5F5F5F5F5F5F5F5F5F5F5F5F5F5F5F5F5F5F5F5F5F5F5F5F5F5F5F5F5F5F5F5F5F5F5F5F5F5F5F5F5F5F5F5F5F5F5F5F5F5F5F5F5F5F5F5F5F5F5F5F5F5F5F5F5F5F5F5F5F5F5F5F5F5F5F5F5F5F5F5F5F5F5F5F5E2F5F5F5F5F5F5F5F5
310
F5F5F5F5F5F5F5F5E2F5F5F5E2E2EFF5F5F5E2F5F5F5F5F5F5F5F5F5F5F5F5F5F5F5F5E2F5F5F5F5F5F5F5F5F5F5F5F5F5F5F5F5F5F5F5F5F5F5F5F5F5F5F5F5F5F5F5F5F5F5F5F5F5F5F5F5F5F5F5F5F5F5F5F5F5F5F5F5F5F5F5F5F5F5F5F5F5F5F5F5F5F5F5F5F5F5F5F5F5F5F5F5F5F5F5F5F5F5F5F5F5F5F5F5F5F5F5
310
F5F5F5F5F5F5F5F5F5F5F5F5F5F5F5F5F5F5F5F5F5F5F5F5F5F5F5F5F5F5F5F5F5F5F5F5F5F5F5F5F5F5F5F5E2F5F5F5F5F5F5F5F5F5F5F5F5F5F5F5F5E2F5F5F5E2E2EFF5F5F5E2F5F5F5F5F5F5F5F5F5F5F5F5F5F5F5F5E2F5F5F5F5F5F5F5F5F5F5F5F5F5F5F5F5F5F5F5F5F5F5F5F5F5F5F5F5F5F5F5F5F5F5F5F5F5F5
310
F5F5F5F5F5F5F5F5F5F5F5F5F5F5F5F5F5F5F5F5F5F5F5F5F5F5F5F5F5F5F5F5F5F5F5F5F5F5F5F5F5F5F5F5F5F5F5F5F5F5F5F5F5F5F5F5F5F5F5F5F5F5F5F5F5F5F5F5F5F5F5F5F5F5F5F5F5F5F5F5F5F5F5F5F5F5F5F5F5F5F5F5F5F5F5F5F5E2F5F5F5F5F5F5F5F5F5F5F5F5F5F5F5F5E2F5F5F5E2E2EFF5F5F5E2F5F5
310
F5F5F5F5F5F5F5F5F5F5F5F5F5F5E2F5F5F5F5F5F5F5F5F5F5F5F5F5F5F5F5F5F5F5F5F5F5F5F5F5F5F5F5F5F5F5F5F5F5F5F5F5F5F5F5F5F5F5F5F5F5F5F5F5F5F5F5F5F5F5F5F5F5F5F5F5F5F5F5F5F5F5F5F5F5F5F5F5F5F5F5F5F5F5F5F5F5F5F5F5F5F5F5F5F5F5F5F5F5F5F5F5F5F5F5F5F5F5F5F5F5F5F5F5F5F5F5
310
F5F5F5F5F5F5F5F5F5F5F5F5F5F5F5F5F5F5F5F5F5F5F5E2F5F5F5F5F5F5F5F5F5F5F5F5F5F5F5F5E2F5F5F5E2E2EFF5F5F5E2F5F5F5F5F5F5F5F5F5F5F5F5F5F5F5F5E2F5F5F5F5F5F5F5F5F5F5F5F5F5F5F5F5F5F5F5F5F5F5F5F5F5F5F5F5F5F5F5F5F5F5F5F5F5F5F5F5F5F5F5F5F5F5F5F5F5F5F5F5F5F5F5F5F5F5F5
310
F5F5F5F5F5F5F5F5F5F5F5F5F5F5F5F5F5F5F5F5F5F5F5F5F5F5F5F5F5F5F5F5F5F5F5F5F5F5F5F5F5F5F5F5F5F5F5F5F5F5F5F5F5F5F5F5F5F5F5F5F5F5F5F5F5F5F5F5F5F5F5F5F5F5F5F5E2F5F5F5F5F5F5F5F5F5F5F5F5F5F5F5F5E2F5F5F5E2E2EFF5F5F5E2F5F5F5F5F5F5F5F5F5F5F5F5F5F5F5F5E2F5F5F5F5F5F5
310
F5F5F5F5F5F5F5F5F5F5F5F5F5F5F5F5F5F5F5F5F5F5F5F5F5F5F5F5F5F5F5F5F5F5F5F5F5F5F5F5F5F5F5F5F5F5F5F5F5F5F5F5F5F5F5F5F5F5F5F5F5F5F5F5F5F5F5F5F5F5F5F5F5F5F5F5F5F5F5F5F5F5F5F5F5F5F5F5F5F5F5F5F5F5F5F5F5F5F5F5F5F5F5F5F5F5F5F5F5F5F5F5F5F5F5F5F5F5F5F5F5F5F5F5F5F5F5
310
F5F5E2F5F5F5F5F5F5F5F5F5F5F5F5F5F5F5F5E2F5F5F5E2E2EFF5F5F5F5F5F5F5F5F5F5F5F5F5F5F5F5F5F5F5F5E2F5F5F5F5F5F5F5F5F5F5F5F5F5F5F5F5F5F5F5F5F5F5F5F5F5F5F5F5F5F5F5F5F5F5F5F5F5F5F5F5F5F5F5F5F5F5F5F5F5F5F5F5F5F5F5F5F5F5F5F5F5F5F5F5F5F5F5F5F5F5F5F5F5F5F5F5F5F5F5F5
310
F5F5F5F5F5F5F5F5F5F5F5F5F5F5F5F5F5F5F5F5F5F5F5F5F5F5F5F5F5F5F5F5F5F5F5F5F5F5F5F5F5F5F5F5F5F5F5F5F5F5F5F5F5F5F5E2F5F5F5F5F5F5F5F5F5F5F5F5F5F5F5F5F5F5F5F5E2E2EFF5F5F5F5F5F5F5F5F5F5F5F5F5F5F5F5F5F5F5F5E2F5F5F5F5F5F5F5F5F5F5F5F5F5F5F5F5F5F5F5F5F5F5F5F5F5F5F5
310
F5F5F5F5F5F5F5F5F5F5F5F5F5F5F5F5F5F5F5F5F5F5F5F5F5F5F5F5F5F5F5F5F5F5F5F5F5F5F5F5F5F5F5F5F5F5F5F5F5F5F5F5F5F5F5F5F5F5F5F5F5F5F5F5F5F5F5F5F5F5F5F5F5F5F5F5F5F5F5F5F5F5F5F5F5F5F5F5F5F5F5F5F5F5F5F5F5F5F5F5F5F5F5F5F5F5F5F5E2F5F5F5F5F5F5F5F5F5F5F5F5F5F5F5F5F5F5
310
F5F5E2E2EFF5F5F5F5F5F5F5F5F5F5F5F5F5F5F5F5F5F5F5F5E2F5F5F5F5F5F5F5F5F5F5F5F5F5F5F5F5F5F5F5F5F5F5F5F5F5F5F5F5F5F5F5F5F5F5F5F5F5F5F5F5F5F5F5F5F5F5F5F5F5F5F5F5F5F5F5F5F5F5F5F5F5F5F5F5F5F5F5F5F5F5F5F5F5F5F5F5F5F5F5F5F5F5F5F5F5F5F5F5F5F5F5F5F5F5F5F5F5F5F5F5F5
310
F5F5F5F5F5F5F5F5F5F5F5F5F5F5F5F5F5F5F5F5F5F5F5F5F5F5F5F5F5F5F5F5F5F5E2F5F5F5F5F5F5F5F5F5F5F5F5F5F5F5F5F5F5F5F5E2E2EFF5F5F5F5F5F5F5F5F5F5F5F5F5F5F5F5F5F5F5F5E2F5F5F5F5F5F5F5F5F5F5F5F5F5F5F5F5F5F5F5F5F5F5F5F5F5F5F5F5F5F5F5F5F5F5F5F5F5F5F5F5F5F5F5F5F5F5F5F5
310
F5F5F5F5F5F5F5F5F5F5F5F5F5F5F5F5F5F5F5F5F5F5F5F5F5F5F5F5F5F5F5F5F5F5F5F5F5F5F5F5F5F5F5F5F5F5F5F5F5F5F5F5F5F5F5F5F5F5F5F5F5F5F5F5F5F5F5F5F5F5F5F5F5F5F5F5F5F5F5F5F5F5F5F5F5F5F5E2F5F5F5F5F5F5F5F5F5F5F5F5F5F5F5F5F5F5F5F5E2E2EFF5F5F5F5F5F5F5F5F5F5F5F5F5F5F5F5
310
F5F5F5F5E2E2E2E2E2E2E2E2E2E2E2E2E2E2E2E2E2E2E2E2E2E2E2E2E2E2E2E2E2E2E2E2E2E2E2E2E2E2E2E2E2E2E2E2E2E2E2E2E2E2E2E2E2E2E2E2E2E2E2E2E2E2E2E2E2E2E2E2E2E2E2E2E2E2E2E2E2E2E2E2E2E2E2E2E2E2E2E2E2E2E2E2E2E2E2E2E2E2E2E2E2E2E2E2E2E2E2E2E2E2E2E2E2E2E2E2E2E2E2E2E2E2E2
310
E2E2E2E2E2E2E2E2E2E2E2E2E2E2F5F5F5F5F5F5F5F5F5F5F5F5F5F5F5F5F5F5F5F5E2E2EFF5F5F5F5F5F5F5F5F5F5F5F5F5F5F5F5F5F5F5F5F5F5F5F5F5F5F5F5F5F5F5F5F5F5F5F5F5F5F5F5F5F5F5F5F5F5F5F5F5F5F5F5F5F5F5F5F5F5F5F5F5F5F5F5F5F5F5F5F5F5F5F5F5F5F5F5F5F5F5F5F5F5F5F5F5F5F5F5F5F5
310
F5F5F5F5F5F5F5F5F5F5F5F5F5F5F5F5F5F5F5F5F5F5F5F5F5F5F5F5F5F5F5F5F5F5F5F5F5F5F5F5F5F5F5F5F5F5F5F5F5F5F5F5F5F5F5F5F5F5F5F5F5F5F5F5F5F5F5F5F5F5F5F5F5F5F5F5F5F5F5F5F5F5F5F5F5F5F5E2E2EFF5F5F5F5F5F5F5F5F5F5F5F5F5F5F5F5F5F5F5F5F5F5F5F5F5F5F5F5F5F5F5F5F5F5F5F5F5
310
F5F5F5F5F5F5F5F5F5F5F5F5F5F5F5F5F5F5F5F5F5F5F5F5F5F5F5F5F5F5F5F5F5F5F5F5F5F5F5F5F5F5F5F5F5F5F5F5F5F5F5F5F5F5F5F5F5F5F5F5F5F5F5F5F5F5F5F5F5F5F5F5F5F5F5F5F5F5F5F5F5F5F5F5F5F5F5F5F5F5F5F5F5F5F5F5F5F5F5F5F5F5F5F5F5F5F5F5F5F5F5F5F5F5F5F5F5F5F5F5F5F5F5F5F5F5F5
310
F5F5F5F5F5F5F5F5F5F5F5F5F5E2E2EFF5F5F5F5F5F5F5F5F5F5F5F5F5F5F5F5F5F5F5F5F5F5F5F5F5F5F5F5F5F5F5F5F5F5F5F5F5F5F5F5F5F5F5F5F5F5F5F5F5F5F5F5F5F5F5F5F5F5F5F5F5F5F5F5F5F5F5F5F5F5F5F5F5F5F5F5F5F5F5F5F5F5F5F5F5F5F5F5F5F5F5F5F5F5F5F5F5F5F5F5F5F5F5F5F5F5F5F5F5F5F5
310
F5F5F5F5F5F5F5F5F5F5F5F5F5F5F5F5F5F5F5F5F5F5F5F5F5F5F5F5F5F5F5F5F5F5F5F5F5F5F5F5F5F5F5F5F5F5F5F5F5F5F5F5F5F5F5F5F5F5F5F5F5F5F5F5F5F5E2E2EFF5F5F5F5F5F5F5F5F5F5F5F5F5F5F5F5F5F5F5F5F5F5F5F5F5F5F5F5F5F5F5F5F5F5F5F5F5F5F5F5F5F5F5F5F5F5F5F5F5F5F5F5F5F5F5F5F5F5
310
F5F5F5F5F5F5F5F5F5F5F5F5F5F5F5F5F5F5F5F5F5F5F5F5F5F5F5F5F5F5F5F5F5F5F5F5F5F5F5F5F5F5F5F5F5F5F5F5F5F5F5F5F5F5F5F5F5F5F5F5F5F5F5F5F5F5F5F5F5F5F5F5F5F5F5F5F5F5F5F5F5F5F5F5F5F5F5F5F5F5F5F5F5F5F5F5F5F5F5F5F5F5F5F5F5F5F5F5F5F5F5F5F5F5F5F5F5F5F5E2E2EFF5F5F5E2F5
310
F5F5F5F5F5F5F5F5F5F5F5F5F5F5F5F5F5F5F5F5F5F5F5F5F5F5F5F5F5F5F5F5F5F5F5F5F5F5F5F5F5F5F5F5F5F5F5F5F5F5F5F5F5F5F5F5F5F5F5F5F5F5F5F5F5F5F5F5F5F5F5F5F5F5F5F5F5F5F5F5F5F5F5F5F5F5F5F5F5F5F5F5F5F5F5F5F5F5F5F5F5F5F5F5F5F5F5F5F5F5F5F5F5F5F5F5F5F5F5F5F5F5F5F5F5F5F5
310
F5F5F5F5F5F5F5F5F5F5F5F5F5F5F5F5F5F5F5F5F5F5F5F5F5F5F5F5F5F5F5F5F5F5F5F5F5F5F5F5F5E2F5F5F5E2E2EFF5F5F5E2F5F5F5F5F5F5F5F5F5F5F5F5F5F5F5F5F5F5F5F5F5F5F5F5F5F5F5F5F5F5F5F5F5F5F5F5F5F5F5F5F5F5F5F5F5F5F5F5F5F5F5F5F5F5F5F5F5F5F5F5F5F5F5F5F5F5F5F5F5F5F5F5F5F5F5
310
F5F5F5F5F5F5F5F5F5F5F5F5F5F5F5F5F5F5F5F5F5F5F5F5F5F5F5F5F5F5F5F5F5F5F5F5F5F5F5F5F5F5F5F5F5F5F5F5F5F5F5F5F5F5F5F5F5F5F5F5F5F5F5F5F5F5F5F5F5F5F5F5F5F5F5F5F5F5F5F5F5F5F5F5F5F5F5F5F5F5F5F5F5F5E2F5F5F5E2E2EFF5F5F5E2F5F5F5F5F5F5F5F5F5F5F5F5F5F5F5F5F5F5F5F5F5F5
310
F5F5F5F5F5F5F5F5F5F5F5F5F5F5F5F5F5F5F5F5F5F5F5F5F5F5F5F5F5F5F5F5F5F5F5F5F5F5F5F5F5F5F5F5F5F5F5F5F5F5F5F5F5F5F5F5F5F5F5F5F5F5F5F5F5F5F5F5F5F5F5F5F5F5F5F5F5F5F5F5F5F5F5F5F5F5F5F5F5F5F5F5F5F5F5F5F5F5F5F5F5F5F5F5F5F5F5F5F5F5F5F5F5F5F5F5F5F5F5F5F5F5F5F5F5F5F5
310
F5F5F5F5F5F5F5F5F5F5F5F5F5F5F5F5F5F5F5F5E2F5F5F5E2E2EFF5F5F5E2F5F5F5F5F5F5F5F5F5F5F5F5F5F5F5F5F5F5F5F5F5F5F5F5F5F5F5F5F5F5F5F5F5F5F5F5F5F5F5F5F5F5F5F5F5F5F5F5F5F5F5F5F5F5F5F5F5F5F5F5F5F5F5F5F5F5F5F5F5F5F5F5F5F5F5F5F5F5F5F5F5F5F5F5F5F5F5F5F5F5F5F5F5F5F5F5
310
F5F5F5F5F5F5F5F5F5F5F5F5F5F5F5F5F5F5F5F5F5F5F5F5F5F5F5F5F5F5F5F5F5F5F5F5F5F5F5F5F5F5F5F5F5F5F5F5F5F5F5F5F5F5F5F5F5F5F5F5F5F5F5F5F5F5F5F5F5F5F5F5F5E2F5F5F5E2E2EFF5F5F5E2F5F5F5F5F5F5F5F5F5F5F5F5F5F5F5F5F5F5F5F5F5F5F5F5F5F5F5F5F5F5F5F5F5F5F5F5F5F5F5F5F5F5F5
310
F5F5F5F5F5F5F5F5F5F5F5F5F5F5F5F5F5F5F5F5F5F5F5F5F5F5F5F5F5F5F5F5F5F5F5F5F5F5F5F5F5F5F5F5F5F5F5F5F5F5F5F5F5F5F5F5F5F5F5F5F5F5F5F5F5F5F5F5F5F5F5F5F5F5F5F5F5F5F5F5F5F5F5F5F5F5F5F5F5F5F5F5F5F5F5F5F5F5F5F5F5F5F5F5F5F5F5F5F5F5F5F5F5F5F5F5F5F5F5F5F5F5F5F5F5F5E2
310
F5F5F5E2E2EFF5F5F5E2F5F5F5F5F5F5F5F5F5F5F5F5F5F5F5F5F5F5F5F5F5F5F5F5F5F5F5F5F5F5F5F5F5F5F5F5F5F5F5F5F5F5F5F5F5F5F5F5F5F5F5F5F5F5F5F5F5F5F5F5F5F5F5F5F5F5F5F5F5F5F5F5F5F5F5F5F5F5F5F5F5F5F5F5F5F5F5F5F5F5F5F5F5F5F5F5F5F5F5F5F5F5F5F5F5F5F5F5F5F5F5F5F5F5F5F5F5
310
F5F5F5F5F5F5F5F5F5F5F5F5F5F5F5F5F5F5F5F5F5F5F5F5F5F5F5F5F5F5F5F5F5F5F5F5F5F5F5F5F5F5F5F5F5F5F5F5F5F5F5F5E2F5F5F5E2E2EFF5F5F5E2F5F5F5F5F5F5F5F5F5F5F5F5F5F5F5F5F5F5F5F5F5F5F5F5F5F5F5F5F5F5F5F5F5F5F5F5F5F5F5F5F5F5F5F5F5F5F5F5F5F5F5F5F5F5F5F5F5F5F5F5F5F5F5F5
310
F5F5F5F5F5F5F5F5F5F5F5F5F5F5F5F5F5F5F5F5F5F5F5F5F5F5F5F5F5F5F5F5F5F5F5F5F5F5F5F5F5F5F5F5F5F5F5F5F5F5F5F5F5F5F5F5F5F5F5F5F5F5F5F5F5F5F5F5F5F5F5F5F5F5F5F5F5F5F5F5F5F5F5F5F5F5F5F5F5F5F5F5F5F5F5F5F5F5F5F5F5F5F5F5F5E2F5F5F5E2E2EFF5F5F5E2F5F5F5F5F5F5F5F5F5F5F5
310
F5F5F5F5F5F5F5F5F5F5F5F5F5F5F5F5F5F5F5F5F5F5F5F5F5F5F5F5F5F5F5F5F5F5F5F5F5F5F5F5F5F5F5F5F5F5F5F5F5F5F5F5F5F5F5F5F5F5F5F5F5F5F5F5F5F5F5F5F5F5F5F5F5F5F5F5F5F5F5F5F5F5F5F5F5F5F5F5F5F5F5F5F5F5F5F5F5F5F5F5F5F5F5F5F5F5F5F5F5F5F5F5F5F5F5F5F5F5F5F5F5F5F5F5F5F5F5
310
F5F5F5F5F5F5F5F5F5F5F5F5F5F5F5F5F5F5F5F5F5F5F5F5F5F5F5F5F5F5F5E2F5F5F5E2E2EFF5F5F5E2E2E2E2E2E2E2E2F5F5F5F5F5F5F5F5F5E2E2E2E2E2E2E2E2E2E2E2E2E2E2E2E2F5F5F5F5F5F5F5F5E2E2E2E2E2E2E2E2E2E2E2E2E2E2E2E2F5F5F5F5F5F5F5F5F5E2E2E2E2E2E2E2E2E2E2E2E2E2E2E2F5F5F5F5F5
310
F5F5F5F5E2E2E2E2E2E2E2E2E2E2E2E2E2E2E2F5F5F5F5F5F5F5F5F5E2E2E2E2E2E2E2E2E2E2E2E2E2E2E2E2F5F5F5F5F5F5F5F5E2E2E2E2E2E2E2E2E2E2E2E2E2E2E2E2F5F5F5F5F5F5F5F5F5E2E2E2E2E2E2E2E2F5F5F5E2E2EFF5F5F5F5F5F5F5F5F5F5F5F5F5F5F5F5F5F5F5F5F5F5F5F5F5F5F5F5F5F5F5F5F5F5F5F5
310
F5F5F5F5F5F5F5F5F5F5F5F5F5F5F5F5F5F5F5F5F5F5F5F5F5F5F5F5F5F5F5F5F5F5F5F5F5F5F5F5F5F5F5F5F5F5F5F5F5F5F5F5F5F5F5F5F5F5F5F5F5F5F5F5F5F5F5F5F5F5F5F5F5F5F5F5F5F5F5F5F5F5F5F5F5F5F5F5F5F5F5F5F5F5F5F5F5F5F5F5F5F5F5F5F5F5F5F5F5F5F5F5F5F5F5F5F5F5F5F5F5F5F5F5F5F5F5
310
F5F5F5F5F5F5F5F5F5F5F5F5F5F5E2E2EFF5F5F5F5F5F5F5F5F5F5F5F5F5F5F5F5F5F5F5F5F5F5F5F5F5F5F5F5F5F5F5F5F5F5F5F5F5F5F5F5F5F5F5F5F5F5F5F5F5F5F5F5F5F5F5F5F5F5F5F5F5F5F5F5F5F5F5F5F5F5F5F5F5F5F5F5F5F5F5F5F5F5F5F5F5F5F5F5F5F5F5F5F5F5F5F5F5F5F5F5F5F5F5F5F5F5F5F5F5F5
310
F5F5F5F5F5F5F5F5F5F5F5F5F5F5F5F5F5F5F5F5F5F5F5F5F5F5F5F5F5F5F5F5F5F5F5F5F5F5F5F5F5F5F5F5F5F5F5F5F5F5F5F5F5F5F5F5F5F5F5F5F5F5F5F5F5F5F5E2EFEFF5F5F5F5F5F5F5F5F5F5F5F5F5F5F5F5F5F5F5F5F5F5F5F5F5F5F5F5F5F5F5F5F5F5F5F5F5F5F5F5F5F5F5F5F5F5F5F5F5F5F5F5F5F5F5F5F5
310
F5F5F5F5F5F5F5F5F5F5F5F5F5F5F5F5F5F5F5F5F5F5F5F5F5F5F5F5F5F5F5F5F5F5F5F5F5F5F5F5F5F5F5F5F5F5F5F5F5F5F5F5F5F5F5F5F5F5F5F5F5F5F5F5F5F5F5F5F5F5F5F5F5F5F5F5F5F5F5F5F5F5F5F5F5F5F5F5F5F5F5F5F5F5F5F5F5F5F5F5F5F5F5F5F5F5F5F5F5F5F5F5F5F5F5F5F5F5F5F5E2EFEFE2E2E2E2
310
E2E2E2E2E2E2E2E2E2E2E2E2E2E2E2E2E2E2E2E2E2E2E2E2E2E2E2E2E2E2E2E2E2E2E2E2E2E2E2E2E2E2E2E2E2E2E2E2E2E2E2E2E2E2E2E2E2E2E2E2E2E2E2E2E2E2E2E2E2E2E2E2E2E2E2E2E2E2E2E2E2E2E2E2E2E2E2E2E2E2E2E2E2E2E2E2E2E2E2E2E2E2E2E2E2E2E2E2E2E2E2E2E2E2E2E2E2E2E2E2E2E2E2E2E2E2E2
310
E2E2E2E2E2E2E2E2E2E2E2E2E2E2E2E2E2E2E2E2E2E2E2E2E2E2E2E2E2E2E2E2E2E2E2E2E2E2E2E2E2E2E2E2E2E2E2EFEF
  0
ENDSEC
  0
EOF
