  0
SECTION
  2
HEADER
  9
$ACADVER
  1
AC1018
  9
$ACADMAINTVER
 70
     0
  9
$DWGCODEPAGE
  3
ANSI_1252
  9
$AUTHOR
  1
g6edxjah
  9
$LASTSAVEDBY
  1
g6edxjah
  9
$INSBASE
 10
0.0
 20
0.0
 30
0.0
  9
$EXTMIN
 10
26.295073
 20
-12.141333
 30
0.0
  9
$EXTMAX
 10
37.458156
 20
-3.72825
 30
0.0
  9
$LIMMIN
 10
3.919905
 20
-35.891501
  9
$LIMMAX
 10
59.833324
 20
20.021918
  9
$ORTHOMODE
 70
     0
  9
$REGENMODE
 70
     1
  9
$FILLMODE
 70
     1
  9
$QTEXTMODE
 70
     0
  9
$MIRRTEXT
 70
     0
  9
$LTSCALE
 40
1.0
  9
$ATTMODE
 70
     1
  9
$TEXTSIZE
 40
0.12
  9
$TRACEWID
 40
0.05
  9
$TEXTSTYLE
  7
Standard
  9
$CLAYER
  8
TEXT
  9
$CELTYPE
  6
Continuous
  9
$CECOLOR
 62
     7
  9
$CELTSCALE
 40
1.0
  9
$DISPSILH
 70
     0
  9
$DIMSCALE
 40
1.0
  9
$DIMASZ
 40
0.12
  9
$DIMEXO
 40
0.06
  9
$DIMDLI
 40
0.0
  9
$DIMRND
 40
0.0
  9
$DIMDLE
 40
0.0
  9
$DIMEXE
 40
0.06
  9
$DIMTP
 40
0.0
  9
$DIMTM
 40
0.0
  9
$DIMTXT
 40
0.12
  9
$DIMCEN
 40
0.09
  9
$DIMTSZ
 40
0.0
  9
$DIMTOL
 70
     0
  9
$DIMLIM
 70
     0
  9
$DIMTIH
 70
     0
  9
$DIMTOH
 70
     0
  9
$DIMSE1
 70
     0
  9
$DIMSE2
 70
     0
  9
$DIMTAD
 70
     1
  9
$DIMZIN
 70
    11
  9
$DIMBLK
  1
TerminatorOpen_0.5
  9
$DIMASO
 70
     1
  9
$DIMSHO
 70
     1
  9
$DIMPOST
  1

  9
$DIMAPOST
  1

  9
$DIMALT
 70
     0
  9
$DIMALTD
 70
     4
  9
$DIMALTF
 40
25.4
  9
$DIMLFAC
 40
1.0
  9
$DIMTOFL
 70
     0
  9
$DIMTVP
 40
0.0
  9
$DIMTIX
 70
     0
  9
$DIMSOXD
 70
     0
  9
$DIMSAH
 70
     0
  9
$DIMBLK1
  1

  9
$DIMBLK2
  1

  9
$DIMSTYLE
  2
Standard
  9
$DIMCLRD
 70
     0
  9
$DIMCLRE
 70
     0
  9
$DIMCLRT
 70
     0
  9
$DIMTFAC
 40
1.0
  9
$DIMGAP
 40
0.06
  9
$DIMJUST
 70
     0
  9
$DIMSD1
 70
     0
  9
$DIMSD2
 70
     0
  9
$DIMTOLJ
 70
     0
  9
$DIMTZIN
 70
    11
  9
$DIMALTZ
 70
    15
  9
$DIMALTTZ
 70
    15
  9
$DIMUPT
 70
     0
  9
$DIMDEC
 70
     4
  9
$DIMTDEC
 70
     4
  9
$DIMALTU
 70
     2
  9
$DIMALTTD
 70
     4
  9
$DIMTXSTY
  7
Style-Arial
  9
$DIMAUNIT
 70
     0
  9
$DIMADEC
 70
     4
  9
$DIMALTRND
 40
0.0
  9
$DIMAZIN
 70
     3
  9
$DIMDSEP
 70
    46
  9
$DIMATFIT
 70
     1
  9
$DIMFRAC
 70
     0
  9
$DIMLDRBLK
  1
TerminatorOpen_0.5
  9
$DIMLUNIT
 70
     2
  9
$DIMLWD
 70
    -2
  9
$DIMLWE
 70
    -2
  9
$DIMTMOVE
 70
     0
  9
$LUNITS
 70
     2
  9
$LUPREC
 70
     4
  9
$SKETCHINC
 40
0.1
  9
$FILLETRAD
 40
0.0
  9
$AUNITS
 70
     0
  9
$AUPREC
 70
     4
  9
$MENU
  1
.
  9
$ELEVATION
 40
0.0
  9
$PELEVATION
 40
0.0
  9
$THICKNESS
 40
0.0
  9
$LIMCHECK
 70
     0
  9
$CHAMFERA
 40
0.0
  9
$CHAMFERB
 40
0.0
  9
$CHAMFERC
 40
0.0
  9
$CHAMFERD
 40
0.0
  9
$SKPOLY
 70
     0
  9
$TDCREATE
 40
2455393.476019259
  9
$TDUCREATE
 40
2455393.684352593
  9
$TDUPDATE
 40
2455393.476019259
  9
$TDUUPDATE
 40
2455393.684352593
  9
$TDINDWG
 40
0.0
  9
$TDUSRTIMER
 40
0.0006630093
  9
$USRTIMER
 70
     1
  9
$ANGBASE
 50
0.0
  9
$ANGDIR
 70
     0
  9
$PDMODE
 70
     0
  9
$PDSIZE
 40
0.0
  9
$PLINEWID
 40
0.0
  9
$SPLFRAME
 70
     0
  9
$SPLINETYPE
 70
     6
  9
$SPLINESEGS
 70
     8
  9
$HANDSEED
  5
5EE
  9
$SURFTAB1
 70
     6
  9
$SURFTAB2
 70
     6
  9
$SURFTYPE
 70
     6
  9
$SURFU
 70
     6
  9
$SURFV
 70
     6
  9
$UCSBASE
  2

  9
$UCSNAME
  2

  9
$UCSORG
 10
0.0
 20
0.0
 30
0.0
  9
$UCSXDIR
 10
1.0
 20
0.0
 30
0.0
  9
$UCSYDIR
 10
0.0
 20
1.0
 30
0.0
  9
$UCSORTHOREF
  2

  9
$UCSORTHOVIEW
 70
     0
  9
$UCSORGTOP
 10
0.0
 20
0.0
 30
0.0
  9
$UCSORGBOTTOM
 10
0.0
 20
0.0
 30
0.0
  9
$UCSORGLEFT
 10
0.0
 20
0.0
 30
0.0
  9
$UCSORGRIGHT
 10
0.0
 20
0.0
 30
0.0
  9
$UCSORGFRONT
 10
0.0
 20
0.0
 30
0.0
  9
$UCSORGBACK
 10
0.0
 20
0.0
 30
0.0
  9
$PUCSBASE
  2

  9
$PUCSNAME
  2

  9
$PUCSORG
 10
0.0
 20
0.0
 30
0.0
  9
$PUCSXDIR
 10
1.0
 20
0.0
 30
0.0
  9
$PUCSYDIR
 10
0.0
 20
1.0
 30
0.0
  9
$PUCSORTHOREF
  2

  9
$PUCSORTHOVIEW
 70
     0
  9
$PUCSORGTOP
 10
0.0
 20
0.0
 30
0.0
  9
$PUCSORGBOTTOM
 10
0.0
 20
0.0
 30
0.0
  9
$PUCSORGLEFT
 10
0.0
 20
0.0
 30
0.0
  9
$PUCSORGRIGHT
 10
0.0
 20
0.0
 30
0.0
  9
$PUCSORGFRONT
 10
0.0
 20
0.0
 30
0.0
  9
$PUCSORGBACK
 10
0.0
 20
0.0
 30
0.0
  9
$USERI1
 70
     0
  9
$USERI2
 70
     0
  9
$USERI3
 70
     0
  9
$USERI4
 70
     0
  9
$USERI5
 70
     0
  9
$USERR1
 40
0.0
  9
$USERR2
 40
0.0
  9
$USERR3
 40
0.0
  9
$USERR4
 40
0.0
  9
$USERR5
 40
0.0
  9
$WORLDVIEW
 70
     1
  9
$SHADEDGE
 70
     3
  9
$SHADEDIF
 70
    70
  9
$TILEMODE
 70
     1
  9
$MAXACTVP
 70
    64
  9
$PINSBASE
 10
0.0
 20
0.0
 30
0.0
  9
$PLIMCHECK
 70
     0
  9
$PEXTMIN
 10
1.049744
 20
0.799667
 30
-0.001526
  9
$PEXTMAX
 10
9.450623
 20
7.200577
 30
0.0
  9
$PLIMMIN
 10
-0.25
 20
-0.25
  9
$PLIMMAX
 10
10.75
 20
8.25
  9
$UNITMODE
 70
     0
  9
$VISRETAIN
 70
     1
  9
$PLINEGEN
 70
     0
  9
$PSLTSCALE
 70
     0
  9
$TREEDEPTH
 70
  3020
  9
$CMLSTYLE
  2
Standard
  9
$CMLJUST
 70
     0
  9
$CMLSCALE
 40
1.0
  9
$PROXYGRAPHICS
 70
     1
  9
$MEASUREMENT
 70
     0
  9
$CELWEIGHT
370
    13
  9
$ENDCAPS
280
     0
  9
$JOINSTYLE
280
     0
  9
$LWDISPLAY
290
     1
  9
$INSUNITS
 70
     2
  9
$HYPERLINKBASE
  1

  9
$STYLESHEET
  1

  9
$XEDIT
290
     1
  9
$CEPSNTYPE
380
     0
  9
$PSTYLEMODE
290
     1
  9
$FINGERPRINTGUID
  2
{02C0BBB5-38A7-4FBF-829E-00875EC88963}
  9
$VERSIONGUID
  2
{82C521FC-BF81-46B3-825E-420B6BD93A99}
  9
$EXTNAMES
290
     1
  9
$PSVPSCALE
 40
0.0
  9
$OLESTARTUP
290
     0
  9
$SORTENTS
280
   127
  9
$INDEXCTL
280
     0
  9
$HIDETEXT
280
     1
  9
$XCLIPFRAME
290
     0
  9
$HALOGAP
280
     0
  9
$OBSCOLOR
 70
   257
  9
$OBSLTYPE
280
     0
  9
$INTERSECTIONDISPLAY
280
     0
  9
$INTERSECTIONCOLOR
 70
   257
  9
$DIMASSOC
280
     1
  9
$PROJECTNAME
  1

  0
ENDSEC
  0
SECTION
  2
CLASSES
  0
CLASS
  1
ACDBDICTIONARYWDFLT
  2
AcDbDictionaryWithDefault
  3
ObjectDBX Classes
 90
        0
 91
        3
280
     0
281
     0
  0
CLASS
  1
SORTENTSTABLE
  2
AcDbSortentsTable
  3
ObjectDBX Classes
 90
        0
 91
        3
280
     0
281
     0
  0
ENDSEC
  0
SECTION
  2
TABLES
  0
TABLE
  2
VPORT
  5
5CF
330
0
100
AcDbSymbolTable
 70
     4
  0
VPORT
  5
49
330
5CF
100
AcDbSymbolTableRecord
100
AcDbViewportTableRecord
  2
*ACTIVE
 70
     0
 10
0.0
 20
0.0
 11
1.0
 21
1.0
 12
31.876615
 22
-7.934792
 13
0.0
 23
0.0
 14
0.083333
 24
0.083333
 15
0.083333
 25
0.083333
 16
0.0
 26
0.0
 36
1.0
 17
0.0
 27
0.0
 37
0.0
 40
8.749607
 41
1.884937
 42
50.0
 43
0.0
 44
0.0
 50
0.0
 51
0.0
 71
     0
 72
   100
 73
     1
 74
     2
 75
     0
 76
     0
 77
     0
 78
     1
281
     0
 65
     1
110
0.0
120
0.0
130
0.0
111
1.0
121
0.0
131
0.0
112
0.0
122
1.0
132
0.0
 79
     0
146
0.0
  0
ENDTAB
  0
TABLE
  2
LTYPE
  5
5B6
330
0
100
AcDbSymbolTable
 70
     1
  0
LTYPE
  5
5B7
330
5B6
100
AcDbSymbolTableRecord
100
AcDbLinetypeTableRecord
  2
ByBlock
 70
     0
  3

 72
    65
 73
     0
 40
0.0
  0
LTYPE
  5
5B8
330
5B6
100
AcDbSymbolTableRecord
100
AcDbLinetypeTableRecord
  2
ByLayer
 70
     0
  3

 72
    65
 73
     0
 40
0.0
  0
LTYPE
  5
5B5
330
5B6
100
AcDbSymbolTableRecord
100
AcDbLinetypeTableRecord
  2
Continuous
 70
     0
  3
Solid line
 72
    65
 73
     0
 40
0.0
  0
ENDTAB
  0
TABLE
  2
LAYER
  5
5AF
102
{ACAD_XDICTIONARY
360
5B0
102
}
330
0
100
AcDbSymbolTable
 70
    64
  0
LAYER
  5
5AE
330
5AF
100
AcDbSymbolTableRecord
100
AcDbLayerTableRecord
  2
0
 70
     0
 62
     7
  6
Continuous
370
    -3
390
5B2
  0
LAYER
  5
7
330
5AF
100
AcDbSymbolTableRecord
100
AcDbLayerTableRecord
  2
Level 1
 70
     0
 62
     7
  6
Continuous
370
     0
390
5B2
  0
LAYER
  5
8
330
5AF
100
AcDbSymbolTableRecord
100
AcDbLayerTableRecord
  2
2-36G
 70
     0
 62
     7
  6
Continuous
370
     0
390
5B2
1001
AcAecLayerStandard
1000

1000
2-36G
  0
LAYER
  5
9
330
5AF
100
AcDbSymbolTableRecord
100
AcDbLayerTableRecord
  2
BORDER
 70
     0
 62
     7
  6
Continuous
370
     0
390
5B2
1001
AcAecLayerStandard
1000

1000
BORDER
  0
LAYER
  5
A
330
5AF
100
AcDbSymbolTableRecord
100
AcDbLayerTableRecord
  2
DEFPOINTS
 70
     0
 62
     7
  6
Continuous
290
     0
370
     0
390
5B2
1001
AcAecLayerStandard
1000

1000
DEFPOINTS
  0
LAYER
  5
B
330
5AF
100
AcDbSymbolTableRecord
100
AcDbLayerTableRecord
  2
DIM
 70
     0
 62
     7
  6
Continuous
370
     0
390
5B2
1001
AcAecLayerStandard
1000

1000
DIM
  0
LAYER
  5
C
330
5AF
100
AcDbSymbolTableRecord
100
AcDbLayerTableRecord
  2
HATCH
 70
     0
 62
     7
  6
Continuous
370
     0
390
5B2
1001
AcAecLayerStandard
1000

1000
HATCH
  0
LAYER
  5
D
330
5AF
100
AcDbSymbolTableRecord
100
AcDbLayerTableRecord
  2
NOTES
 70
     0
 62
     7
  6
Continuous
370
     0
390
5B2
1001
AcAecLayerStandard
1000

1000
NOTES
  0
LAYER
  5
E
330
5AF
100
AcDbSymbolTableRecord
100
AcDbLayerTableRecord
  2
REF
 70
     0
 62
     7
  6
Continuous
370
     0
390
5B2
1001
AcAecLayerStandard
1000

1000
REF
  0
LAYER
  5
F
330
5AF
100
AcDbSymbolTableRecord
100
AcDbLayerTableRecord
  2
TEXT
 70
     0
 62
     7
  6
Continuous
370
     0
390
5B2
1001
AcAecLayerStandard
1000

1000
TEXT
  0
LAYER
  5
10
330
5AF
100
AcDbSymbolTableRecord
100
AcDbLayerTableRecord
  2
TITLE
 70
     0
 62
     7
  6
Continuous
370
     0
390
5B2
1001
AcAecLayerStandard
1000

1000
TITLE
  0
LAYER
  5
11
330
5AF
100
AcDbSymbolTableRecord
100
AcDbLayerTableRecord
  2
Level 11
 70
     0
 62
     7
  6
Continuous
370
     0
390
5B2
  0
LAYER
  5
12
330
5AF
100
AcDbSymbolTableRecord
100
AcDbLayerTableRecord
  2
Level 12
 70
     0
 62
     7
  6
Continuous
370
     0
390
5B2
  0
LAYER
  5
13
330
5AF
100
AcDbSymbolTableRecord
100
AcDbLayerTableRecord
  2
Level 13
 70
     0
 62
     7
  6
Continuous
370
     0
390
5B2
  0
LAYER
  5
14
330
5AF
100
AcDbSymbolTableRecord
100
AcDbLayerTableRecord
  2
Level 14
 70
     0
 62
     7
  6
Continuous
370
     0
390
5B2
  0
LAYER
  5
15
330
5AF
100
AcDbSymbolTableRecord
100
AcDbLayerTableRecord
  2
Level 15
 70
     0
 62
     7
  6
Continuous
370
     0
390
5B2
  0
LAYER
  5
16
330
5AF
100
AcDbSymbolTableRecord
100
AcDbLayerTableRecord
  2
Level 16
 70
     0
 62
     7
  6
Continuous
370
     0
390
5B2
  0
LAYER
  5
17
330
5AF
100
AcDbSymbolTableRecord
100
AcDbLayerTableRecord
  2
Level 17
 70
     0
 62
     7
  6
Continuous
370
     0
390
5B2
  0
LAYER
  5
18
330
5AF
100
AcDbSymbolTableRecord
100
AcDbLayerTableRecord
  2
Level 18
 70
     0
 62
     7
  6
Continuous
370
     0
390
5B2
  0
LAYER
  5
19
330
5AF
100
AcDbSymbolTableRecord
100
AcDbLayerTableRecord
  2
Level 19
 70
     0
 62
     7
  6
Continuous
370
     0
390
5B2
  0
LAYER
  5
1A
330
5AF
100
AcDbSymbolTableRecord
100
AcDbLayerTableRecord
  2
Level 20
 70
     0
 62
     7
  6
Continuous
370
     0
390
5B2
  0
LAYER
  5
1B
330
5AF
100
AcDbSymbolTableRecord
100
AcDbLayerTableRecord
  2
Level 21
 70
     0
 62
     7
  6
Continuous
370
     0
390
5B2
  0
LAYER
  5
1C
330
5AF
100
AcDbSymbolTableRecord
100
AcDbLayerTableRecord
  2
Level 22
 70
     0
 62
     7
  6
Continuous
370
     0
390
5B2
  0
LAYER
  5
1D
330
5AF
100
AcDbSymbolTableRecord
100
AcDbLayerTableRecord
  2
Level 23
 70
     0
 62
     7
  6
Continuous
370
     0
390
5B2
  0
LAYER
  5
1E
330
5AF
100
AcDbSymbolTableRecord
100
AcDbLayerTableRecord
  2
Level 24
 70
     0
 62
     7
  6
Continuous
370
     0
390
5B2
  0
LAYER
  5
1F
330
5AF
100
AcDbSymbolTableRecord
100
AcDbLayerTableRecord
  2
Level 25
 70
     0
 62
     7
  6
Continuous
370
     0
390
5B2
  0
LAYER
  5
20
330
5AF
100
AcDbSymbolTableRecord
100
AcDbLayerTableRecord
  2
Level 26
 70
     0
 62
     7
  6
Continuous
370
     0
390
5B2
  0
LAYER
  5
21
330
5AF
100
AcDbSymbolTableRecord
100
AcDbLayerTableRecord
  2
Level 27
 70
     0
 62
     7
  6
Continuous
370
     0
390
5B2
  0
LAYER
  5
22
330
5AF
100
AcDbSymbolTableRecord
100
AcDbLayerTableRecord
  2
Level 28
 70
     0
 62
     7
  6
Continuous
370
     0
390
5B2
  0
LAYER
  5
23
330
5AF
100
AcDbSymbolTableRecord
100
AcDbLayerTableRecord
  2
Level 29
 70
     0
 62
     7
  6
Continuous
370
     0
390
5B2
  0
LAYER
  5
24
330
5AF
100
AcDbSymbolTableRecord
100
AcDbLayerTableRecord
  2
Level 30
 70
     0
 62
     7
  6
Continuous
370
     0
390
5B2
  0
LAYER
  5
25
330
5AF
100
AcDbSymbolTableRecord
100
AcDbLayerTableRecord
  2
Level 31
 70
     0
 62
     7
  6
Continuous
370
     0
390
5B2
  0
LAYER
  5
26
330
5AF
100
AcDbSymbolTableRecord
100
AcDbLayerTableRecord
  2
Level 32
 70
     0
 62
     7
  6
Continuous
370
     0
390
5B2
  0
LAYER
  5
27
330
5AF
100
AcDbSymbolTableRecord
100
AcDbLayerTableRecord
  2
Level 33
 70
     0
 62
     7
  6
Continuous
370
     0
390
5B2
  0
LAYER
  5
28
330
5AF
100
AcDbSymbolTableRecord
100
AcDbLayerTableRecord
  2
Level 34
 70
     0
 62
     7
  6
Continuous
370
     0
390
5B2
  0
LAYER
  5
29
330
5AF
100
AcDbSymbolTableRecord
100
AcDbLayerTableRecord
  2
Level 35
 70
     0
 62
     7
  6
Continuous
370
     0
390
5B2
  0
LAYER
  5
2A
330
5AF
100
AcDbSymbolTableRecord
100
AcDbLayerTableRecord
  2
Level 36
 70
     0
 62
     7
  6
Continuous
370
     0
390
5B2
  0
LAYER
  5
2B
330
5AF
100
AcDbSymbolTableRecord
100
AcDbLayerTableRecord
  2
Level 37
 70
     0
 62
     7
  6
Continuous
370
     0
390
5B2
  0
LAYER
  5
2C
330
5AF
100
AcDbSymbolTableRecord
100
AcDbLayerTableRecord
  2
Level 38
 70
     0
 62
     7
  6
Continuous
370
     0
390
5B2
  0
LAYER
  5
2D
330
5AF
100
AcDbSymbolTableRecord
100
AcDbLayerTableRecord
  2
Level 39
 70
     0
 62
     7
  6
Continuous
370
     0
390
5B2
  0
LAYER
  5
2E
330
5AF
100
AcDbSymbolTableRecord
100
AcDbLayerTableRecord
  2
Level 40
 70
     0
 62
     7
  6
Continuous
370
     0
390
5B2
  0
LAYER
  5
2F
330
5AF
100
AcDbSymbolTableRecord
100
AcDbLayerTableRecord
  2
Level 41
 70
     0
 62
     7
  6
Continuous
370
     0
390
5B2
  0
LAYER
  5
30
330
5AF
100
AcDbSymbolTableRecord
100
AcDbLayerTableRecord
  2
Level 42
 70
     0
 62
     7
  6
Continuous
370
     0
390
5B2
  0
LAYER
  5
31
330
5AF
100
AcDbSymbolTableRecord
100
AcDbLayerTableRecord
  2
Level 43
 70
     0
 62
     7
  6
Continuous
370
     0
390
5B2
  0
LAYER
  5
32
330
5AF
100
AcDbSymbolTableRecord
100
AcDbLayerTableRecord
  2
Level 44
 70
     0
 62
     7
  6
Continuous
370
     0
390
5B2
  0
LAYER
  5
33
330
5AF
100
AcDbSymbolTableRecord
100
AcDbLayerTableRecord
  2
Level 45
 70
     0
 62
     7
  6
Continuous
370
     0
390
5B2
  0
LAYER
  5
34
330
5AF
100
AcDbSymbolTableRecord
100
AcDbLayerTableRecord
  2
Level 46
 70
     0
 62
     7
  6
Continuous
370
     0
390
5B2
  0
LAYER
  5
35
330
5AF
100
AcDbSymbolTableRecord
100
AcDbLayerTableRecord
  2
Level 47
 70
     0
 62
     7
  6
Continuous
370
     0
390
5B2
  0
LAYER
  5
36
330
5AF
100
AcDbSymbolTableRecord
100
AcDbLayerTableRecord
  2
Level 48
 70
     0
 62
     7
  6
Continuous
370
     0
390
5B2
  0
LAYER
  5
37
330
5AF
100
AcDbSymbolTableRecord
100
AcDbLayerTableRecord
  2
Level 49
 70
     0
 62
     7
  6
Continuous
370
     0
390
5B2
  0
LAYER
  5
38
330
5AF
100
AcDbSymbolTableRecord
100
AcDbLayerTableRecord
  2
Level 50
 70
     0
 62
     7
  6
Continuous
370
     0
390
5B2
  0
LAYER
  5
39
330
5AF
100
AcDbSymbolTableRecord
100
AcDbLayerTableRecord
  2
Level 51
 70
     0
 62
     7
  6
Continuous
370
     0
390
5B2
  0
LAYER
  5
3A
330
5AF
100
AcDbSymbolTableRecord
100
AcDbLayerTableRecord
  2
Level 52
 70
     0
 62
     7
  6
Continuous
370
     0
390
5B2
  0
LAYER
  5
3B
330
5AF
100
AcDbSymbolTableRecord
100
AcDbLayerTableRecord
  2
Level 53
 70
     0
 62
     7
  6
Continuous
370
     0
390
5B2
  0
LAYER
  5
3C
330
5AF
100
AcDbSymbolTableRecord
100
AcDbLayerTableRecord
  2
Level 54
 70
     0
 62
     7
  6
Continuous
370
     0
390
5B2
  0
LAYER
  5
3D
330
5AF
100
AcDbSymbolTableRecord
100
AcDbLayerTableRecord
  2
Level 55
 70
     0
 62
     7
  6
Continuous
370
     0
390
5B2
  0
LAYER
  5
3E
330
5AF
100
AcDbSymbolTableRecord
100
AcDbLayerTableRecord
  2
Level 56
 70
     0
 62
     7
  6
Continuous
370
     0
390
5B2
  0
LAYER
  5
3F
330
5AF
100
AcDbSymbolTableRecord
100
AcDbLayerTableRecord
  2
Level 57
 70
     0
 62
     7
  6
Continuous
370
     0
390
5B2
  0
LAYER
  5
40
330
5AF
100
AcDbSymbolTableRecord
100
AcDbLayerTableRecord
  2
Level 58
 70
     0
 62
     7
  6
Continuous
370
     0
390
5B2
  0
LAYER
  5
41
330
5AF
100
AcDbSymbolTableRecord
100
AcDbLayerTableRecord
  2
Level 59
 70
     0
 62
     7
  6
Continuous
370
     0
390
5B2
  0
LAYER
  5
42
330
5AF
100
AcDbSymbolTableRecord
100
AcDbLayerTableRecord
  2
Level 60
 70
     0
 62
     7
  6
Continuous
370
     0
390
5B2
  0
LAYER
  5
43
330
5AF
100
AcDbSymbolTableRecord
100
AcDbLayerTableRecord
  2
Level 61
 70
     0
 62
     7
  6
Continuous
370
     0
390
5B2
  0
LAYER
  5
44
330
5AF
100
AcDbSymbolTableRecord
100
AcDbLayerTableRecord
  2
Level 62
 70
     0
 62
     7
  6
Continuous
370
     0
390
5B2
  0
LAYER
  5
45
330
5AF
100
AcDbSymbolTableRecord
100
AcDbLayerTableRecord
  2
_0
 70
     0
 62
     7
  6
Continuous
370
     0
390
5B2
1001
AcAecLayerStandard
1000

1000
0
  0
ENDTAB
  0
TABLE
  2
STYLE
  5
5BA
330
0
100
AcDbSymbolTable
 70
     2
  0
STYLE
  5
5B9
330
5BA
100
AcDbSymbolTableRecord
100
AcDbTextStyleTableRecord
  2
Standard
 70
     0
 40
0.0
 41
1.0
 50
0.0
 71
     0
 42
0.12
  3
txt
  4

  0
STYLE
  5
5D9
330
5BA
100
AcDbSymbolTableRecord
100
AcDbTextStyleTableRecord
  2
Style-Arial
 70
     0
 40
0.0
 41
1.0
 50
0.0
 71
     0
 42
0.2
  3

  4

1001
ACAD
1000
Arial
1071
       39
  0
ENDTAB
  0
TABLE
  2
VIEW
  5
5CD
330
0
100
AcDbSymbolTable
 70
     0
  0
ENDTAB
  0
TABLE
  2
UCS
  5
5CE
330
0
100
AcDbSymbolTable
 70
     0
  0
ENDTAB
  0
TABLE
  2
APPID
  5
5CC
330
0
100
AcDbSymbolTable
 70
     3
  0
APPID
  5
5D4
330
5CC
100
AcDbSymbolTableRecord
100
AcDbRegAppTableRecord
  2
ACAD
 70
     0
  0
APPID
  5
5CB
330
5CC
100
AcDbSymbolTableRecord
100
AcDbRegAppTableRecord
  2
ACAD_PSEXT
 70
     0
  0
APPID
  5
5D6
330
5CC
100
AcDbSymbolTableRecord
100
AcDbRegAppTableRecord
  2
AcAecLayerStandard
 70
     0
  0
ENDTAB
  0
TABLE
  2
DIMSTYLE
  5
5BC
330
0
100
AcDbSymbolTable
 70
     1
100
AcDbDimStyleTable
  0
DIMSTYLE
105
5BB
330
5BC
100
AcDbSymbolTableRecord
100
AcDbDimStyleTableRecord
  2
Standard
 70
     0
340
5B9
  0
ENDTAB
  0
TABLE
  2
BLOCK_RECORD
  5
5BF
330
0
100
AcDbSymbolTable
 70
     3
  0
BLOCK_RECORD
  5
5C0
102
{ACAD_XDICTIONARY
360
5E9
102
}
330
5BF
100
AcDbSymbolTableRecord
100
AcDbBlockTableRecord
  2
*Model_Space
340
5C3
  0
BLOCK_RECORD
  5
5C5
330
5BF
100
AcDbSymbolTableRecord
100
AcDbBlockTableRecord
  2
*Paper_Space
340
5C8
  0
BLOCK_RECORD
  5
5DA
330
5BF
100
AcDbSymbolTableRecord
100
AcDbBlockTableRecord
  2
TerminatorOpen_0.5
340
0
  0
BLOCK_RECORD
  5
5E3
330
5BF
100
AcDbSymbolTableRecord
100
AcDbBlockTableRecord
  2
LARROW
340
0
102
{BLKREFS
331
4D3
331
4D5
331
4D7
331
4D9
331
4DB
331
4DD
331
4DF
331
4E1
331
4E3
331
4E5
102
}
  0
BLOCK_RECORD
  5
5E6
330
5BF
100
AcDbSymbolTableRecord
100
AcDbBlockTableRecord
  2
LARROW_1
340
0
102
{BLKREFS
331
4ED
331
4F8
331
50F
331
51A
331
525
331
530
331
53B
331
546
331
551
102
}
  0
ENDTAB
  0
ENDSEC
  0
SECTION
  2
BLOCKS
  0
BLOCK
  5
5C1
330
5C0
100
AcDbEntity
  8
0
100
AcDbBlockBegin
  2
*Model_Space
 70
     0
 71
     0
 10
0.0
 20
0.0
 30
0.0
  3
*Model_Space
  1

  0
ENDBLK
  5
5C2
330
5C0
100
AcDbEntity
  8
0
100
AcDbBlockEnd
  0
BLOCK
  5
5C6
330
5C5
100
AcDbEntity
 67
     1
  8
0
100
AcDbBlockBegin
  2
*Paper_Space
 70
     0
 71
     0
 10
0.0
 20
0.0
 30
0.0
  3
*Paper_Space
  1

  0
ENDBLK
  5
5C7
330
5C5
100
AcDbEntity
 67
     1
  8
0
100
AcDbBlockEnd
  0
BLOCK
  5
5DE
330
5DA
100
AcDbEntity
  8
0
100
AcDbBlockBegin
  2
TerminatorOpen_0.5
 70
     0
 71
     0
 10
0.0
 20
0.0
 30
0.0
  3
TerminatorOpen_0.5
  1

  0
LINE
  5
5DB
330
5DA
100
AcDbEntity
  8
0
  6
ByBlock
 62
     0
370
    -2
100
AcDbLine
 10
0.0
 20
0.0
 30
0.0
 11
-1.0
 21
0.0
 31
0.0
  0
LINE
  5
5DC
330
5DA
100
AcDbEntity
  8
0
  6
ByBlock
 62
     0
370
    -2
100
AcDbLine
 10
0.0
 20
0.0
 30
0.0
 11
-1.0
 21
0.25
 31
0.0
  0
LINE
  5
5DD
330
5DA
100
AcDbEntity
  8
0
  6
ByBlock
 62
     0
370
    -2
100
AcDbLine
 10
0.0
 20
0.0
 30
0.0
 11
-1.0
 21
-0.25
 31
0.0
  0
ENDBLK
  5
5DF
330
5DA
100
AcDbEntity
  8
0
100
AcDbBlockEnd
  0
BLOCK
  5
5E4
330
5E3
100
AcDbEntity
  8
0
100
AcDbBlockBegin
  2
LARROW
 70
     0
 71
     0
 10
0.0
 20
0.0
 30
0.0
  3
LARROW
  1

  0
LWPOLYLINE
  5
4D4
330
5E3
100
AcDbEntity
  8
DIM
  6
Continuous
 62
     7
370
    13
100
AcDbPolyline
 90
       63
 70
   128
 43
0.0
 10
-0.013031
 20
0.001885
 10
0.0
 20
0.0
 10
-0.013021
 20
-0.001885
 10
-0.012615
 20
-0.001573
 10
-0.012042
 20
-0.00101
 10
-0.01176
 20
-0.00049
 10
-0.011687
 20
0.0
 10
-0.011792
 20
0.000552
 10
-0.012094
 20
0.001094
 10
-0.012677
 20
0.001625
 10
-0.013031
 20
0.001885
 10
-0.000385
 20
0.000021
 10
-0.012604
 20
-0.00176
 10
-0.012229
 20
-0.001479
 10
-0.011625
 20
-0.000906
 10
-0.011427
 20
-0.000167
 10
-0.011562
 20
0.000573
 10
-0.011917
 20
0.001083
 10
-0.012344
 20
0.0015
 10
-0.012635
 20
0.001729
 10
-0.001073
 20
0.000021
 10
-0.012052
 20
-0.001552
 10
-0.011667
 20
-0.001302
 10
-0.011469
 20
-0.000979
 10
-0.01125
 20
-0.000563
 10
-0.011135
 20
0.000021
 10
-0.011198
 20
0.0005
 10
-0.011427
 20
0.000875
 10
-0.011896
 20
0.001177
 10
-0.012208
 20
0.001542
 10
-0.001875
 20
0.000021
 10
-0.011448
 20
-0.001323
 10
-0.011021
 20
-0.000792
 10
-0.010896
 20
-0.000146
 10
-0.010958
 20
0.000573
 10
-0.011781
 20
0.001354
 10
-0.002771
 20
0.000063
 10
-0.010896
 20
-0.001073
 10
-0.010781
 20
-0.000698
 10
-0.010531
 20
-0.000094
 10
-0.010687
 20
0.000552
 10
-0.011333
 20
0.001125
 10
-0.003594
 20
0.000063
 10
-0.010604
 20
-0.000833
 10
-0.010375
 20
-0.000375
 10
-0.010271
 20
0.000115
 10
-0.01076
 20
0.000875
 10
-0.004573
 20
0.000063
 10
-0.010177
 20
-0.000625
 10
-0.010021
 20
-0.000281
 10
-0.009979
 20
0.000115
 10
-0.010375
 20
0.000667
 10
-0.00574
 20
0.000063
 10
-0.009823
 20
-0.000396
 10
-0.009708
 20
0.000135
 10
-0.010083
 20
0.000458
 10
-0.006698
 20
0.000063
 10
-0.009552
 20
-0.00024
 10
-0.009615
 20
0.000271
 10
-0.007677
 20
0.000063
 10
-0.009437
 20
-0.000073
 10
-0.00949
 20
0.000083
 10
-0.008885
 20
0.000083
  0
ENDBLK
  5
5E5
330
5E3
100
AcDbEntity
  8
0
100
AcDbBlockEnd
  0
BLOCK
  5
5E7
330
5E6
100
AcDbEntity
  8
0
100
AcDbBlockBegin
  2
LARROW_1
 70
     0
 71
     0
 10
0.0
 20
0.0
 30
0.0
  3
LARROW_1
  1

  0
LINE
  5
4EE
330
5E6
100
AcDbEntity
  8
TEXT
  6
Continuous
 62
     7
370
    13
100
AcDbLine
 10
0.0
 20
0.0
 30
0.0
 11
-0.013031
 21
0.001885
 31
0.0
  0
LINE
  5
4EF
330
5E6
100
AcDbEntity
  8
TEXT
  6
Continuous
 62
     7
370
    13
100
AcDbLine
 10
0.0
 20
0.0
 30
0.0
 11
-0.013021
 21
-0.001885
 31
0.0
  0
LWPOLYLINE
  5
4F0
330
5E6
100
AcDbEntity
  8
TEXT
  6
Continuous
 62
     7
370
    13
100
AcDbPolyline
 90
        9
 70
   128
 43
0.0
 10
-0.013031
 20
0.001885
 10
-0.01225
 20
0.001292
 10
-0.011896
 20
0.000813
 10
-0.011719
 20
0.000365
 10
-0.011687
 20
-0.000052
 10
-0.01175
 20
-0.000458
 10
-0.011958
 20
-0.000896
 10
-0.012323
 20
-0.001354
 10
-0.013021
 20
-0.001885
  0
LINE
  5
4F1
330
5E6
100
AcDbEntity
  8
TEXT
  6
Continuous
 62
     7
370
    13
100
AcDbLine
 10
0.0
 20
0.0
 30
0.0
 11
-0.01225
 21
0.001292
 31
0.0
  0
LINE
  5
4F2
330
5E6
100
AcDbEntity
  8
TEXT
  6
Continuous
 62
     7
370
    13
100
AcDbLine
 10
0.0
 20
0.0
 30
0.0
 11
-0.011896
 21
0.000813
 31
0.0
  0
LINE
  5
4F3
330
5E6
100
AcDbEntity
  8
TEXT
  6
Continuous
 62
     7
370
    13
100
AcDbLine
 10
0.0
 20
0.0
 30
0.0
 11
-0.011719
 21
0.000365
 31
0.0
  0
LINE
  5
4F4
330
5E6
100
AcDbEntity
  8
TEXT
  6
Continuous
 62
     7
370
    13
100
AcDbLine
 10
0.0
 20
0.0
 30
0.0
 11
-0.01175
 21
-0.000458
 31
0.0
  0
LINE
  5
4F5
330
5E6
100
AcDbEntity
  8
TEXT
  6
Continuous
 62
     7
370
    13
100
AcDbLine
 10
0.0
 20
0.0
 30
0.0
 11
-0.011958
 21
-0.000896
 31
0.0
  0
LINE
  5
4F6
330
5E6
100
AcDbEntity
  8
TEXT
  6
Continuous
 62
     7
370
    13
100
AcDbLine
 10
0.0
 20
0.0
 30
0.0
 11
-0.012323
 21
-0.001354
 31
0.0
  0
LINE
  5
4F7
330
5E6
100
AcDbEntity
  8
TEXT
  6
Continuous
 62
     7
370
    13
100
AcDbLine
 10
0.0
 20
0.0
 30
0.0
 11
-0.011677
 21
0.0
 31
0.0
  0
ENDBLK
  5
5E8
330
5E6
100
AcDbEntity
  8
0
100
AcDbBlockEnd
  0
ENDSEC
  0
SECTION
  2
ENTITIES
  0
POINT
  5
5B
330
5C0
100
AcDbEntity
  8
_0
  6
Continuous
 62
     7
370
    30
100
AcDbPoint
 10
27.363521
 20
-4.309792
 30
0.0
  0
LINE
  5
5C
330
5C0
100
AcDbEntity
  8
BORDER
  6
Continuous
 62
     7
370
    30
100
AcDbLine
 10
27.363521
 20
-11.559792
 30
0.0
 11
27.363521
 21
-4.309792
 31
0.0
  0
LINE
  5
5D
330
5C0
100
AcDbEntity
  8
HATCH
  6
Continuous
 62
     7
370
    30
100
AcDbLine
 10
35.473573
 20
-7.138219
 30
0.0
 11
35.402865
 21
-7.208927
 31
0.0
  0
LINE
  5
5E
330
5C0
100
AcDbEntity
  8
HATCH
  6
Continuous
 62
     7
370
    30
100
AcDbLine
 10
35.422969
 20
-7.047406
 30
0.0
 11
35.402865
 21
-7.06751
 31
0.0
  0
LINE
  5
5F
330
5C0
100
AcDbEntity
  8
HATCH
  6
Continuous
 62
     7
370
    30
100
AcDbLine
 10
35.332146
 20
-7.138219
 30
0.0
 11
35.261437
 21
-7.208927
 31
0.0
  0
LINE
  5
60
330
5C0
100
AcDbEntity
  8
HATCH
  6
Continuous
 62
     7
370
    30
100
AcDbLine
 10
35.326479
 20
-7.002469
 30
0.0
 11
35.261437
 21
-7.06751
 31
0.0
  0
LINE
  5
61
330
5C0
100
AcDbEntity
  8
HATCH
  6
Continuous
 62
     7
370
    30
100
AcDbLine
 10
35.190729
 20
-7.138219
 30
0.0
 11
35.120021
 21
-7.208927
 31
0.0
  0
LINE
  5
62
330
5C0
100
AcDbEntity
  8
HATCH
  6
Continuous
 62
     7
370
    30
100
AcDbLine
 10
35.187948
 20
-6.999583
 30
0.0
 11
35.120021
 21
-7.06751
 31
0.0
  0
LINE
  5
63
330
5C0
100
AcDbEntity
  8
HATCH
  6
Continuous
 62
     7
370
    30
100
AcDbLine
 10
35.049302
 20
-7.138219
 30
0.0
 11
34.978594
 21
-7.208927
 31
0.0
  0
LINE
  5
64
330
5C0
100
AcDbEntity
  8
HATCH
  6
Continuous
 62
     7
370
    30
100
AcDbLine
 10
35.049302
 20
-6.996802
 30
0.0
 11
34.978594
 21
-7.06751
 31
0.0
  0
LINE
  5
65
330
5C0
100
AcDbEntity
  8
HATCH
  6
Continuous
 62
     7
370
    30
100
AcDbLine
 10
34.907885
 20
-7.138219
 30
0.0
 11
34.837177
 21
-7.208927
 31
0.0
  0
LINE
  5
66
330
5C0
100
AcDbEntity
  8
HATCH
  6
Continuous
 62
     7
370
    30
100
AcDbLine
 10
34.907885
 20
-6.996802
 30
0.0
 11
34.837177
 21
-7.06751
 31
0.0
  0
LINE
  5
67
330
5C0
100
AcDbEntity
  8
HATCH
  6
Continuous
 62
     7
370
    30
100
AcDbLine
 10
35.611615
 20
-7.141604
 30
0.0
 11
35.544281
 21
-7.208927
 31
0.0
  0
LINE
  5
68
330
5C0
100
AcDbEntity
  8
HATCH
  6
Continuous
 62
     7
370
    30
100
AcDbLine
 10
35.473573
 20
-7.279635
 30
0.0
 11
35.455667
 21
-7.297552
 31
0.0
  0
LINE
  5
69
330
5C0
100
AcDbEntity
  8
HATCH
  6
Continuous
 62
     7
370
    30
100
AcDbLine
 10
35.705937
 20
-7.188698
 30
0.0
 11
35.685708
 21
-7.208927
 31
0.0
  0
LINE
  5
6A
330
5C0
100
AcDbEntity
  8
HATCH
  6
Continuous
 62
     7
370
    30
100
AcDbLine
 10
35.61499
 20
-7.279635
 30
0.0
 11
35.548885
 21
-7.34575
 31
0.0
  0
LINE
  5
6B
330
5C0
100
AcDbEntity
  8
HATCH
  6
Continuous
 62
     7
370
    30
100
AcDbLine
 10
35.756417
 20
-7.279635
 30
0.0
 11
35.685708
 21
-7.350354
 31
0.0
  0
LINE
  5
6C
330
5C0
100
AcDbEntity
  8
HATCH
  6
Continuous
 62
     7
370
    30
100
AcDbLine
 10
35.894583
 20
-7.282896
 30
0.0
 11
35.827125
 21
-7.350354
 31
0.0
  0
LINE
  5
6D
330
5C0
100
AcDbEntity
  8
HATCH
  6
Continuous
 62
     7
370
    30
100
AcDbLine
 10
35.756417
 20
-7.421062
 30
0.0
 11
35.735333
 21
-7.442146
 31
0.0
  0
LINE
  5
6E
330
5C0
100
AcDbEntity
  8
HATCH
  6
Continuous
 62
     7
370
    30
100
AcDbLine
 10
35.875813
 20
-7.443083
 30
0.0
 11
35.828552
 21
-7.490344
 31
0.0
  0
LINE
  5
6F
330
5C0
100
AcDbEntity
  8
HATCH
  6
Continuous
 62
     7
370
    30
100
AcDbLine
 10
35.447052
 20
-7.111698
 30
0.0
 11
35.376344
 21
-7.182417
 31
0.0
  0
LINE
  5
70
330
5C0
100
AcDbEntity
  8
HATCH
  6
Continuous
 62
     7
370
    30
100
AcDbLine
 10
35.387594
 20
-7.02974
 30
0.0
 11
35.376344
 21
-7.04099
 31
0.0
  0
LINE
  5
71
330
5C0
100
AcDbEntity
  8
HATCH
  6
Continuous
 62
     7
370
    30
100
AcDbLine
 10
35.305635
 20
-7.111698
 30
0.0
 11
35.234927
 21
-7.182417
 31
0.0
  0
LINE
  5
72
330
5C0
100
AcDbEntity
  8
HATCH
  6
Continuous
 62
     7
370
    30
100
AcDbLine
 10
35.274531
 20
-7.001385
 30
0.0
 11
35.234927
 21
-7.04099
 31
0.0
  0
LINE
  5
73
330
5C0
100
AcDbEntity
  8
HATCH
  6
Continuous
 62
     7
370
    30
100
AcDbLine
 10
35.164208
 20
-7.111698
 30
0.0
 11
35.0935
 21
-7.182417
 31
0.0
  0
LINE
  5
74
330
5C0
100
AcDbEntity
  8
HATCH
  6
Continuous
 62
     7
370
    30
100
AcDbLine
 10
35.136
 20
-6.9985
 30
0.0
 11
35.0935
 21
-7.04099
 31
0.0
  0
LINE
  5
75
330
5C0
100
AcDbEntity
  8
HATCH
  6
Continuous
 62
     7
370
    30
100
AcDbLine
 10
35.022792
 20
-7.111698
 30
0.0
 11
34.952083
 21
-7.182417
 31
0.0
  0
LINE
  5
76
330
5C0
100
AcDbEntity
  8
HATCH
  6
Continuous
 62
     7
370
    30
100
AcDbLine
 10
34.997458
 20
-6.995615
 30
0.0
 11
34.952083
 21
-7.04099
 31
0.0
  0
LINE
  5
77
330
5C0
100
AcDbEntity
  8
HATCH
  6
Continuous
 62
     7
370
    30
100
AcDbLine
 10
34.881365
 20
-7.111698
 30
0.0
 11
34.828635
 21
-7.164427
 31
0.0
  0
LINE
  5
78
330
5C0
100
AcDbEntity
  8
HATCH
  6
Continuous
 62
     7
370
    30
100
AcDbLine
 10
34.858927
 20
-6.992729
 30
0.0
 11
34.831646
 21
-7.02
 31
0.0
  0
LINE
  5
79
330
5C0
100
AcDbEntity
  8
HATCH
  6
Continuous
 62
     7
370
    30
100
AcDbLine
 10
35.57624
 20
-7.123937
 30
0.0
 11
35.51776
 21
-7.182417
 31
0.0
  0
LINE
  5
7A
330
5C0
100
AcDbEntity
  8
HATCH
  6
Continuous
 62
     7
370
    30
100
AcDbLine
 10
35.447052
 20
-7.253125
 30
0.0
 11
35.420708
 21
-7.279469
 31
0.0
  0
LINE
  5
7B
330
5C0
100
AcDbEntity
  8
HATCH
  6
Continuous
 62
     7
370
    30
100
AcDbLine
 10
35.670562
 20
-7.171031
 30
0.0
 11
35.659188
 21
-7.182417
 31
0.0
  0
LINE
  5
7C
330
5C0
100
AcDbEntity
  8
HATCH
  6
Continuous
 62
     7
370
    30
100
AcDbLine
 10
35.588479
 20
-7.253125
 30
0.0
 11
35.51776
 21
-7.323833
 31
0.0
  0
LINE
  5
7D
330
5C0
100
AcDbEntity
  8
HATCH
  6
Continuous
 62
     7
370
    30
100
AcDbLine
 10
35.729896
 20
-7.253125
 30
0.0
 11
35.659188
 21
-7.323833
 31
0.0
  0
LINE
  5
7E
330
5C0
100
AcDbEntity
  8
HATCH
  6
Continuous
 62
     7
370
    30
100
AcDbLine
 10
35.859208
 20
-7.265229
 30
0.0
 11
35.800604
 21
-7.323833
 31
0.0
  0
LINE
  5
7F
330
5C0
100
AcDbEntity
  8
HATCH
  6
Continuous
 62
     7
370
    30
100
AcDbLine
 10
35.729896
 20
-7.394542
 30
0.0
 11
35.700375
 21
-7.424073
 31
0.0
  0
LINE
  5
80
330
5C0
100
AcDbEntity
  8
HATCH
  6
Continuous
 62
     7
370
    30
100
AcDbLine
 10
35.871323
 20
-7.394542
 30
0.0
 11
35.800604
 21
-7.46526
 31
0.0
  0
LINE
  5
81
330
5C0
100
AcDbEntity
  8
HATCH
  6
Continuous
 62
     7
370
    30
100
AcDbLine
 10
35.420542
 20
-7.085187
 30
0.0
 11
35.349823
 21
-7.155896
 31
0.0
  0
LINE
  5
82
330
5C0
100
AcDbEntity
  8
HATCH
  6
Continuous
 62
     7
370
    30
100
AcDbLine
 10
35.279115
 20
-7.226604
 30
0.0
 11
35.271125
 21
-7.234594
 31
0.0
  0
LINE
  5
83
330
5C0
100
AcDbEntity
  8
HATCH
  6
Continuous
 62
     7
370
    30
100
AcDbLine
 10
35.352229
 20
-7.012083
 30
0.0
 11
35.349823
 21
-7.014479
 31
0.0
  0
LINE
  5
84
330
5C0
100
AcDbEntity
  8
HATCH
  6
Continuous
 62
     7
370
    30
100
AcDbLine
 10
35.279115
 20
-7.085187
 30
0.0
 11
35.208406
 21
-7.155896
 31
0.0
  0
LINE
  5
85
330
5C0
100
AcDbEntity
  8
HATCH
  6
Continuous
 62
     7
370
    30
100
AcDbLine
 10
35.137698
 20
-7.226604
 30
0.0
 11
35.131615
 21
-7.232687
 31
0.0
  0
LINE
  5
86
330
5C0
100
AcDbEntity
  8
HATCH
  6
Continuous
 62
     7
370
    30
100
AcDbLine
 10
35.222583
 20
-7.000302
 30
0.0
 11
35.208406
 21
-7.014479
 31
0.0
  0
LINE
  5
87
330
5C0
100
AcDbEntity
  8
HATCH
  6
Continuous
 62
     7
370
    30
100
AcDbLine
 10
35.137698
 20
-7.085187
 30
0.0
 11
35.06699
 21
-7.155896
 31
0.0
  0
LINE
  5
88
330
5C0
100
AcDbEntity
  8
HATCH
  6
Continuous
 62
     7
370
    30
100
AcDbLine
 10
34.996271
 20
-7.226604
 30
0.0
 11
34.992104
 21
-7.230771
 31
0.0
  0
LINE
  5
89
330
5C0
100
AcDbEntity
  8
HATCH
  6
Continuous
 62
     7
370
    30
100
AcDbLine
 10
35.084042
 20
-6.997417
 30
0.0
 11
35.06699
 21
-7.014479
 31
0.0
  0
LINE
  5
8A
330
5C0
100
AcDbEntity
  8
HATCH
  6
Continuous
 62
     7
370
    30
100
AcDbLine
 10
34.996271
 20
-7.085187
 30
0.0
 11
34.925562
 21
-7.155896
 31
0.0
  0
LINE
  5
8B
330
5C0
100
AcDbEntity
  8
HATCH
  6
Continuous
 62
     7
370
    30
100
AcDbLine
 10
34.854854
 20
-7.226604
 30
0.0
 11
34.852594
 21
-7.228865
 31
0.0
  0
LINE
  5
8C
330
5C0
100
AcDbEntity
  8
HATCH
  6
Continuous
 62
     7
370
    30
100
AcDbLine
 10
34.94551
 20
-6.994531
 30
0.0
 11
34.925562
 21
-7.014479
 31
0.0
  0
LINE
  5
8D
330
5C0
100
AcDbEntity
  8
HATCH
  6
Continuous
 62
     7
370
    30
100
AcDbLine
 10
34.854854
 20
-7.085187
 30
0.0
 11
34.829771
 21
-7.110271
 31
0.0
  0
LINE
  5
8E
330
5C0
100
AcDbEntity
  8
HATCH
  6
Continuous
 62
     7
370
    30
100
AcDbLine
 10
35.540875
 20
-7.106271
 30
0.0
 11
35.49125
 21
-7.155896
 31
0.0
  0
LINE
  5
8F
330
5C0
100
AcDbEntity
  8
HATCH
  6
Continuous
 62
     7
370
    30
100
AcDbLine
 10
35.420542
 20
-7.226604
 30
0.0
 11
35.38575
 21
-7.261396
 31
0.0
  0
LINE
  5
90
330
5C0
100
AcDbEntity
  8
HATCH
  6
Continuous
 62
     7
370
    30
100
AcDbLine
 10
35.635198
 20
-7.153375
 30
0.0
 11
35.632667
 21
-7.155896
 31
0.0
  0
LINE
  5
91
330
5C0
100
AcDbEntity
  8
HATCH
  6
Continuous
 62
     7
370
    30
100
AcDbLine
 10
35.561958
 20
-7.226604
 30
0.0
 11
35.49125
 21
-7.297323
 31
0.0
  0
LINE
  5
92
330
5C0
100
AcDbEntity
  8
HATCH
  6
Continuous
 62
     7
370
    30
100
AcDbLine
 10
35.703385
 20
-7.226604
 30
0.0
 11
35.632667
 21
-7.297323
 31
0.0
  0
LINE
  5
93
330
5C0
100
AcDbEntity
  8
HATCH
  6
Continuous
 62
     7
370
    30
100
AcDbLine
 10
35.823833
 20
-7.247573
 30
0.0
 11
35.774094
 21
-7.297323
 31
0.0
  0
LINE
  5
94
330
5C0
100
AcDbEntity
  8
HATCH
  6
Continuous
 62
     7
370
    30
100
AcDbLine
 10
35.703385
 20
-7.368031
 30
0.0
 11
35.665417
 21
-7.406
 31
0.0
  0
LINE
  5
95
330
5C0
100
AcDbEntity
  8
HATCH
  6
Continuous
 62
     7
370
    30
100
AcDbLine
 10
35.918156
 20
-7.294667
 30
0.0
 11
35.91551
 21
-7.297323
 31
0.0
  0
LINE
  5
96
330
5C0
100
AcDbEntity
  8
HATCH
  6
Continuous
 62
     7
370
    30
100
AcDbLine
 10
35.844802
 20
-7.368031
 30
0.0
 11
35.774094
 21
-7.43874
 31
0.0
  0
LINE
  5
97
330
5C0
100
AcDbEntity
  8
HATCH
  6
Continuous
 62
     7
370
    30
100
AcDbLine
 10
35.493219
 20
-7.316969
 30
0.0
 11
35.473573
 21
-7.297323
 31
0.0
  0
LINE
  5
98
330
5C0
100
AcDbEntity
  8
HATCH
  6
Continuous
 62
     7
370
    30
100
AcDbLine
 10
35.402865
 20
-7.226604
 30
0.0
 11
35.332146
 21
-7.155896
 31
0.0
  0
LINE
  5
99
330
5C0
100
AcDbEntity
  8
HATCH
  6
Continuous
 62
     7
370
    30
100
AcDbLine
 10
35.261437
 20
-7.085187
 30
0.0
 11
35.190729
 21
-7.014479
 31
0.0
  0
LINE
  5
9A
330
5C0
100
AcDbEntity
  8
HATCH
  6
Continuous
 62
     7
370
    30
100
AcDbLine
 10
35.786031
 20
-7.468365
 30
0.0
 11
35.756417
 21
-7.43874
 31
0.0
  0
LINE
  5
9B
330
5C0
100
AcDbEntity
  8
HATCH
  6
Continuous
 62
     7
370
    30
100
AcDbLine
 10
35.685708
 20
-7.368031
 30
0.0
 11
35.61499
 21
-7.297323
 31
0.0
  0
LINE
  5
9C
330
5C0
100
AcDbEntity
  8
HATCH
  6
Continuous
 62
     7
370
    30
100
AcDbLine
 10
35.544281
 20
-7.226604
 30
0.0
 11
35.473573
 21
-7.155896
 31
0.0
  0
LINE
  5
9D
330
5C0
100
AcDbEntity
  8
HATCH
  6
Continuous
 62
     7
370
    30
100
AcDbLine
 10
35.402865
 20
-7.085187
 30
0.0
 11
35.332146
 21
-7.014479
 31
0.0
  0
LINE
  5
9E
330
5C0
100
AcDbEntity
  8
HATCH
  6
Continuous
 62
     7
370
    30
100
AcDbLine
 10
35.827125
 20
-7.368031
 30
0.0
 11
35.756417
 21
-7.297323
 31
0.0
  0
LINE
  5
9F
330
5C0
100
AcDbEntity
  8
HATCH
  6
Continuous
 62
     7
370
    30
100
AcDbLine
 10
35.685708
 20
-7.226604
 30
0.0
 11
35.61499
 21
-7.155896
 31
0.0
  0
LINE
  5
A0
330
5C0
100
AcDbEntity
  8
HATCH
  6
Continuous
 62
     7
370
    30
100
AcDbLine
 10
35.931615
 20
-7.331094
 30
0.0
 11
35.897833
 21
-7.297323
 31
0.0
  0
LINE
  5
A1
330
5C0
100
AcDbEntity
  8
HATCH
  6
Continuous
 62
     7
370
    30
100
AcDbLine
 10
35.261437
 20
-7.226604
 30
0.0
 11
35.190729
 21
-7.155896
 31
0.0
  0
LINE
  5
A2
330
5C0
100
AcDbEntity
  8
HATCH
  6
Continuous
 62
     7
370
    30
100
AcDbLine
 10
35.120021
 20
-7.085187
 30
0.0
 11
35.049302
 21
-7.014479
 31
0.0
  0
LINE
  5
A3
330
5C0
100
AcDbEntity
  8
HATCH
  6
Continuous
 62
     7
370
    30
100
AcDbLine
 10
35.120021
 20
-7.226604
 30
0.0
 11
35.049302
 21
-7.155896
 31
0.0
  0
LINE
  5
A4
330
5C0
100
AcDbEntity
  8
HATCH
  6
Continuous
 62
     7
370
    30
100
AcDbLine
 10
34.978594
 20
-7.085187
 30
0.0
 11
34.907885
 21
-7.014479
 31
0.0
  0
LINE
  5
A5
330
5C0
100
AcDbEntity
  8
HATCH
  6
Continuous
 62
     7
370
    30
100
AcDbLine
 10
34.978594
 20
-7.226604
 30
0.0
 11
34.907885
 21
-7.155896
 31
0.0
  0
LINE
  5
A6
330
5C0
100
AcDbEntity
  8
HATCH
  6
Continuous
 62
     7
370
    30
100
AcDbLine
 10
34.837177
 20
-7.085187
 30
0.0
 11
34.830427
 21
-7.078437
 31
0.0
  0
LINE
  5
A7
330
5C0
100
AcDbEntity
  8
HATCH
  6
Continuous
 62
     7
370
    30
100
AcDbLine
 10
34.837177
 20
-7.226604
 30
0.0
 11
34.827542
 21
-7.216979
 31
0.0
  0
LINE
  5
A8
330
5C0
100
AcDbEntity
  8
HATCH
  6
Continuous
 62
     7
370
    30
100
AcDbLine
 10
35.659188
 20
-7.394542
 30
0.0
 11
35.588479
 21
-7.323833
 31
0.0
  0
LINE
  5
A9
330
5C0
100
AcDbEntity
  8
HATCH
  6
Continuous
 62
     7
370
    30
100
AcDbLine
 10
35.51776
 20
-7.253125
 30
0.0
 11
35.447052
 21
-7.182417
 31
0.0
  0
LINE
  5
AA
330
5C0
100
AcDbEntity
  8
HATCH
  6
Continuous
 62
     7
370
    30
100
AcDbLine
 10
35.376344
 20
-7.111698
 30
0.0
 11
35.305635
 21
-7.04099
 31
0.0
  0
LINE
  5
AB
330
5C0
100
AcDbEntity
  8
HATCH
  6
Continuous
 62
     7
370
    30
100
AcDbLine
 10
35.800604
 20
-7.394542
 30
0.0
 11
35.729896
 21
-7.323833
 31
0.0
  0
LINE
  5
AC
330
5C0
100
AcDbEntity
  8
HATCH
  6
Continuous
 62
     7
370
    30
100
AcDbLine
 10
35.659188
 20
-7.253125
 30
0.0
 11
35.588479
 21
-7.182417
 31
0.0
  0
LINE
  5
AD
330
5C0
100
AcDbEntity
  8
HATCH
  6
Continuous
 62
     7
370
    30
100
AcDbLine
 10
35.51776
 20
-7.111698
 30
0.0
 11
35.483885
 21
-7.077823
 31
0.0
  0
LINE
  5
AE
330
5C0
100
AcDbEntity
  8
HATCH
  6
Continuous
 62
     7
370
    30
100
AcDbLine
 10
35.913979
 20
-7.36649
 30
0.0
 11
35.871323
 21
-7.323833
 31
0.0
  0
LINE
  5
AF
330
5C0
100
AcDbEntity
  8
HATCH
  6
Continuous
 62
     7
370
    30
100
AcDbLine
 10
35.800604
 20
-7.253125
 30
0.0
 11
35.766354
 21
-7.218865
 31
0.0
  0
LINE
  5
B0
330
5C0
100
AcDbEntity
  8
HATCH
  6
Continuous
 62
     7
370
    30
100
AcDbLine
 10
35.376344
 20
-7.253125
 30
0.0
 11
35.305635
 21
-7.182417
 31
0.0
  0
LINE
  5
B1
330
5C0
100
AcDbEntity
  8
HATCH
  6
Continuous
 62
     7
370
    30
100
AcDbLine
 10
35.234927
 20
-7.111698
 30
0.0
 11
35.164208
 21
-7.04099
 31
0.0
  0
LINE
  5
B2
330
5C0
100
AcDbEntity
  8
HATCH
  6
Continuous
 62
     7
370
    30
100
AcDbLine
 10
35.215635
 20
-7.233833
 30
0.0
 11
35.164208
 21
-7.182417
 31
0.0
  0
LINE
  5
B3
330
5C0
100
AcDbEntity
  8
HATCH
  6
Continuous
 62
     7
370
    30
100
AcDbLine
 10
35.0935
 20
-7.111698
 30
0.0
 11
35.022792
 21
-7.04099
 31
0.0
  0
LINE
  5
B4
330
5C0
100
AcDbEntity
  8
HATCH
  6
Continuous
 62
     7
370
    30
100
AcDbLine
 10
35.07225
 20
-7.231875
 30
0.0
 11
35.022792
 21
-7.182417
 31
0.0
  0
LINE
  5
B5
330
5C0
100
AcDbEntity
  8
HATCH
  6
Continuous
 62
     7
370
    30
100
AcDbLine
 10
34.952083
 20
-7.111698
 30
0.0
 11
34.881365
 21
-7.04099
 31
0.0
  0
LINE
  5
B6
330
5C0
100
AcDbEntity
  8
HATCH
  6
Continuous
 62
     7
370
    30
100
AcDbLine
 10
34.928865
 20
-7.229906
 30
0.0
 11
34.881365
 21
-7.182417
 31
0.0
  0
LINE
  5
B7
330
5C0
100
AcDbEntity
  8
HATCH
  6
Continuous
 62
     7
370
    30
100
AcDbLine
 10
35.566427
 20
-7.354812
 30
0.0
 11
35.561958
 21
-7.350354
 31
0.0
  0
LINE
  5
B8
330
5C0
100
AcDbEntity
  8
HATCH
  6
Continuous
 62
     7
370
    30
100
AcDbLine
 10
35.49125
 20
-7.279635
 30
0.0
 11
35.420542
 21
-7.208927
 31
0.0
  0
LINE
  5
B9
330
5C0
100
AcDbEntity
  8
HATCH
  6
Continuous
 62
     7
370
    30
100
AcDbLine
 10
35.349823
 20
-7.138219
 30
0.0
 11
35.279115
 21
-7.06751
 31
0.0
  0
LINE
  5
BA
330
5C0
100
AcDbEntity
  8
HATCH
  6
Continuous
 62
     7
370
    30
100
AcDbLine
 10
35.849302
 20
-7.496271
 30
0.0
 11
35.844802
 21
-7.491771
 31
0.0
  0
LINE
  5
BB
330
5C0
100
AcDbEntity
  8
HATCH
  6
Continuous
 62
     7
370
    30
100
AcDbLine
 10
35.774094
 20
-7.421062
 30
0.0
 11
35.703385
 21
-7.350354
 31
0.0
  0
LINE
  5
BC
330
5C0
100
AcDbEntity
  8
HATCH
  6
Continuous
 62
     7
370
    30
100
AcDbLine
 10
35.632667
 20
-7.279635
 30
0.0
 11
35.561958
 21
-7.208927
 31
0.0
  0
LINE
  5
BD
330
5C0
100
AcDbEntity
  8
HATCH
  6
Continuous
 62
     7
370
    30
100
AcDbLine
 10
35.49125
 20
-7.138219
 30
0.0
 11
35.420542
 21
-7.06751
 31
0.0
  0
LINE
  5
BE
330
5C0
100
AcDbEntity
  8
HATCH
  6
Continuous
 62
     7
370
    30
100
AcDbLine
 10
35.896344
 20
-7.401885
 30
0.0
 11
35.844802
 21
-7.350354
 31
0.0
  0
LINE
  5
BF
330
5C0
100
AcDbEntity
  8
HATCH
  6
Continuous
 62
     7
370
    30
100
AcDbLine
 10
35.774094
 20
-7.279635
 30
0.0
 11
35.703385
 21
-7.208927
 31
0.0
  0
LINE
  5
C0
330
5C0
100
AcDbEntity
  8
HATCH
  6
Continuous
 62
     7
370
    30
100
AcDbLine
 10
35.30525
 20
-7.235062
 30
0.0
 11
35.279115
 21
-7.208927
 31
0.0
  0
LINE
  5
C1
330
5C0
100
AcDbEntity
  8
HATCH
  6
Continuous
 62
     7
370
    30
100
AcDbLine
 10
35.208406
 20
-7.138219
 30
0.0
 11
35.137698
 21
-7.06751
 31
0.0
  0
LINE
  5
C2
330
5C0
100
AcDbEntity
  8
HATCH
  6
Continuous
 62
     7
370
    30
100
AcDbLine
 10
35.161865
 20
-7.233104
 30
0.0
 11
35.137698
 21
-7.208927
 31
0.0
  0
LINE
  5
C3
330
5C0
100
AcDbEntity
  8
HATCH
  6
Continuous
 62
     7
370
    30
100
AcDbLine
 10
35.06699
 20
-7.138219
 30
0.0
 11
34.996271
 21
-7.06751
 31
0.0
  0
LINE
  5
C4
330
5C0
100
AcDbEntity
  8
HATCH
  6
Continuous
 62
     7
370
    30
100
AcDbLine
 10
34.925562
 20
-6.996802
 30
0.0
 11
34.922823
 21
-6.994052
 31
0.0
  0
LINE
  5
C5
330
5C0
100
AcDbEntity
  8
HATCH
  6
Continuous
 62
     7
370
    30
100
AcDbLine
 10
35.018479
 20
-7.231135
 30
0.0
 11
34.996271
 21
-7.208927
 31
0.0
  0
LINE
  5
C6
330
5C0
100
AcDbEntity
  8
HATCH
  6
Continuous
 62
     7
370
    30
100
AcDbLine
 10
34.925562
 20
-7.138219
 30
0.0
 11
34.854854
 21
-7.06751
 31
0.0
  0
LINE
  5
C7
330
5C0
100
AcDbEntity
  8
HATCH
  6
Continuous
 62
     7
370
    30
100
AcDbLine
 10
34.875094
 20
-7.229167
 30
0.0
 11
34.854854
 21
-7.208927
 31
0.0
  0
LINE
  5
C8
330
5C0
100
AcDbEntity
  8
HATCH
  6
Continuous
 62
     7
370
    30
100
AcDbLine
 10
34.80725
 20
-6.739937
 30
0.0
 11
34.80725
 21
-6.766042
 31
0.0
  0
LINE
  5
C9
330
5C0
100
AcDbEntity
  8
HATCH
  6
Continuous
 62
     7
370
    30
100
AcDbLine
 10
34.80725
 20
-6.841042
 30
0.0
 11
34.80725
 21
-6.878542
 31
0.0
  0
LINE
  5
CA
330
5C0
100
AcDbEntity
  8
HATCH
  6
Continuous
 62
     7
370
    30
100
AcDbLine
 10
34.80725
 20
-6.953542
 30
0.0
 11
34.80725
 21
-6.991042
 31
0.0
  0
LINE
  5
CB
330
5C0
100
AcDbEntity
  8
HATCH
  6
Continuous
 62
     7
370
    30
100
AcDbLine
 10
34.774771
 20
-6.784792
 30
0.0
 11
34.774771
 21
-6.822292
 31
0.0
  0
LINE
  5
CC
330
5C0
100
AcDbEntity
  8
HATCH
  6
Continuous
 62
     7
370
    30
100
AcDbLine
 10
34.774771
 20
-6.897292
 30
0.0
 11
34.774771
 21
-6.934792
 31
0.0
  0
LINE
  5
CD
330
5C0
100
AcDbEntity
  8
HATCH
  6
Continuous
 62
     7
370
    30
100
AcDbLine
 10
34.742292
 20
-6.737448
 30
0.0
 11
34.742292
 21
-6.766042
 31
0.0
  0
LINE
  5
CE
330
5C0
100
AcDbEntity
  8
HATCH
  6
Continuous
 62
     7
370
    30
100
AcDbLine
 10
34.742292
 20
-6.841042
 30
0.0
 11
34.742292
 21
-6.878542
 31
0.0
  0
LINE
  5
CF
330
5C0
100
AcDbEntity
  8
HATCH
  6
Continuous
 62
     7
370
    30
100
AcDbLine
 10
34.742292
 20
-6.953542
 30
0.0
 11
34.742292
 21
-6.990292
 31
0.0
  0
LINE
  5
D0
330
5C0
100
AcDbEntity
  8
HATCH
  6
Continuous
 62
     7
370
    30
100
AcDbLine
 10
34.709823
 20
-6.784792
 30
0.0
 11
34.709823
 21
-6.822292
 31
0.0
  0
LINE
  5
D1
330
5C0
100
AcDbEntity
  8
HATCH
  6
Continuous
 62
     7
370
    30
100
AcDbLine
 10
34.709823
 20
-6.897292
 30
0.0
 11
34.709823
 21
-6.934792
 31
0.0
  0
LINE
  5
D2
330
5C0
100
AcDbEntity
  8
HATCH
  6
Continuous
 62
     7
370
    30
100
AcDbLine
 10
34.677344
 20
-6.736094
 30
0.0
 11
34.677344
 21
-6.766042
 31
0.0
  0
LINE
  5
D3
330
5C0
100
AcDbEntity
  8
HATCH
  6
Continuous
 62
     7
370
    30
100
AcDbLine
 10
34.677344
 20
-6.841042
 30
0.0
 11
34.677344
 21
-6.878542
 31
0.0
  0
LINE
  5
D4
330
5C0
100
AcDbEntity
  8
HATCH
  6
Continuous
 62
     7
370
    30
100
AcDbLine
 10
34.677344
 20
-6.953542
 30
0.0
 11
34.677344
 21
-6.988937
 31
0.0
  0
LINE
  5
D5
330
5C0
100
AcDbEntity
  8
HATCH
  6
Continuous
 62
     7
370
    30
100
AcDbLine
 10
34.644865
 20
-6.784792
 30
0.0
 11
34.644865
 21
-6.822292
 31
0.0
  0
LINE
  5
D6
330
5C0
100
AcDbEntity
  8
HATCH
  6
Continuous
 62
     7
370
    30
100
AcDbLine
 10
34.644865
 20
-6.897292
 30
0.0
 11
34.644865
 21
-6.934792
 31
0.0
  0
LINE
  5
D7
330
5C0
100
AcDbEntity
  8
HATCH
  6
Continuous
 62
     7
370
    30
100
AcDbLine
 10
34.612396
 20
-6.73474
 30
0.0
 11
34.612396
 21
-6.766042
 31
0.0
  0
LINE
  5
D8
330
5C0
100
AcDbEntity
  8
HATCH
  6
Continuous
 62
     7
370
    30
100
AcDbLine
 10
34.612396
 20
-6.841042
 30
0.0
 11
34.612396
 21
-6.878542
 31
0.0
  0
LINE
  5
D9
330
5C0
100
AcDbEntity
  8
HATCH
  6
Continuous
 62
     7
370
    30
100
AcDbLine
 10
34.612396
 20
-6.953542
 30
0.0
 11
34.612396
 21
-6.987583
 31
0.0
  0
LINE
  5
DA
330
5C0
100
AcDbEntity
  8
HATCH
  6
Continuous
 62
     7
370
    30
100
AcDbLine
 10
34.579917
 20
-6.784792
 30
0.0
 11
34.579917
 21
-6.822292
 31
0.0
  0
LINE
  5
DB
330
5C0
100
AcDbEntity
  8
HATCH
  6
Continuous
 62
     7
370
    30
100
AcDbLine
 10
34.579917
 20
-6.897292
 30
0.0
 11
34.579917
 21
-6.934792
 31
0.0
  0
LINE
  5
DC
330
5C0
100
AcDbEntity
  8
HATCH
  6
Continuous
 62
     7
370
    30
100
AcDbLine
 10
34.547438
 20
-6.733385
 30
0.0
 11
34.547438
 21
-6.766042
 31
0.0
  0
LINE
  5
DD
330
5C0
100
AcDbEntity
  8
HATCH
  6
Continuous
 62
     7
370
    30
100
AcDbLine
 10
34.547438
 20
-6.841042
 30
0.0
 11
34.547438
 21
-6.878542
 31
0.0
  0
LINE
  5
DE
330
5C0
100
AcDbEntity
  8
HATCH
  6
Continuous
 62
     7
370
    30
100
AcDbLine
 10
34.547438
 20
-6.953542
 30
0.0
 11
34.547438
 21
-6.98624
 31
0.0
  0
LINE
  5
DF
330
5C0
100
AcDbEntity
  8
HATCH
  6
Continuous
 62
     7
370
    30
100
AcDbLine
 10
34.514969
 20
-6.784792
 30
0.0
 11
34.514969
 21
-6.822292
 31
0.0
  0
LINE
  5
E0
330
5C0
100
AcDbEntity
  8
HATCH
  6
Continuous
 62
     7
370
    30
100
AcDbLine
 10
34.514969
 20
-6.897292
 30
0.0
 11
34.514969
 21
-6.934792
 31
0.0
  0
LINE
  5
E1
330
5C0
100
AcDbEntity
  8
HATCH
  6
Continuous
 62
     7
370
    30
100
AcDbLine
 10
34.48249
 20
-6.732031
 30
0.0
 11
34.48249
 21
-6.766042
 31
0.0
  0
LINE
  5
E2
330
5C0
100
AcDbEntity
  8
HATCH
  6
Continuous
 62
     7
370
    30
100
AcDbLine
 10
34.48249
 20
-6.841042
 30
0.0
 11
34.48249
 21
-6.878542
 31
0.0
  0
LINE
  5
E3
330
5C0
100
AcDbEntity
  8
HATCH
  6
Continuous
 62
     7
370
    30
100
AcDbLine
 10
34.48249
 20
-6.953542
 30
0.0
 11
34.48249
 21
-6.984885
 31
0.0
  0
LINE
  5
E4
330
5C0
100
AcDbEntity
  8
HATCH
  6
Continuous
 62
     7
370
    30
100
AcDbLine
 10
34.45001
 20
-6.784792
 30
0.0
 11
34.45001
 21
-6.822292
 31
0.0
  0
LINE
  5
E5
330
5C0
100
AcDbEntity
  8
HATCH
  6
Continuous
 62
     7
370
    30
100
AcDbLine
 10
34.45001
 20
-6.897292
 30
0.0
 11
34.45001
 21
-6.934792
 31
0.0
  0
LINE
  5
E6
330
5C0
100
AcDbEntity
  8
HATCH
  6
Continuous
 62
     7
370
    30
100
AcDbLine
 10
34.417531
 20
-6.730677
 30
0.0
 11
34.417531
 21
-6.766042
 31
0.0
  0
LINE
  5
E7
330
5C0
100
AcDbEntity
  8
HATCH
  6
Continuous
 62
     7
370
    30
100
AcDbLine
 10
34.417531
 20
-6.841042
 30
0.0
 11
34.417531
 21
-6.878542
 31
0.0
  0
LINE
  5
E8
330
5C0
100
AcDbEntity
  8
HATCH
  6
Continuous
 62
     7
370
    30
100
AcDbLine
 10
34.417531
 20
-6.953542
 30
0.0
 11
34.417531
 21
-6.964896
 31
0.0
  0
LINE
  5
E9
330
5C0
100
AcDbEntity
  8
HATCH
  6
Continuous
 62
     7
370
    30
100
AcDbLine
 10
34.385062
 20
-6.784792
 30
0.0
 11
34.385062
 21
-6.822292
 31
0.0
  0
LINE
  5
EA
330
5C0
100
AcDbEntity
  8
HATCH
  6
Continuous
 62
     7
370
    30
100
AcDbLine
 10
34.385062
 20
-6.897292
 30
0.0
 11
34.385062
 21
-6.925823
 31
0.0
  0
LINE
  5
EB
330
5C0
100
AcDbEntity
  8
HATCH
  6
Continuous
 62
     7
370
    30
100
AcDbLine
 10
34.352583
 20
-6.729333
 30
0.0
 11
34.352583
 21
-6.766042
 31
0.0
  0
LINE
  5
EC
330
5C0
100
AcDbEntity
  8
HATCH
  6
Continuous
 62
     7
370
    30
100
AcDbLine
 10
34.352583
 20
-6.841042
 30
0.0
 11
34.352583
 21
-6.878542
 31
0.0
  0
LINE
  5
ED
330
5C0
100
AcDbEntity
  8
HATCH
  6
Continuous
 62
     7
370
    30
100
AcDbLine
 10
34.320104
 20
-6.784792
 30
0.0
 11
34.320104
 21
-6.822292
 31
0.0
  0
LINE
  5
EE
330
5C0
100
AcDbEntity
  8
HATCH
  6
Continuous
 62
     7
370
    30
100
AcDbLine
 10
34.287635
 20
-6.728542
 30
0.0
 11
34.287635
 21
-6.766042
 31
0.0
  0
LINE
  5
EF
330
5C0
100
AcDbEntity
  8
HATCH
  6
Continuous
 62
     7
370
    30
100
AcDbLine
 10
34.222677
 20
-6.728542
 30
0.0
 11
34.222677
 21
-6.730437
 31
0.0
  0
LINE
  5
F0
330
5C0
100
AcDbEntity
  8
HATCH
  6
Continuous
 62
     7
370
    30
100
AcDbLine
 10
34.839719
 20
-6.784792
 30
0.0
 11
34.839719
 21
-6.822292
 31
0.0
  0
LINE
  5
F1
330
5C0
100
AcDbEntity
  8
HATCH
  6
Continuous
 62
     7
370
    30
100
AcDbLine
 10
34.839719
 20
-6.897292
 30
0.0
 11
34.839719
 21
-6.934792
 31
0.0
  0
LINE
  5
F2
330
5C0
100
AcDbEntity
  8
HATCH
  6
Continuous
 62
     7
370
    30
100
AcDbLine
 10
34.872198
 20
-6.841042
 30
0.0
 11
34.872198
 21
-6.878542
 31
0.0
  0
LINE
  5
F3
330
5C0
100
AcDbEntity
  8
HATCH
  6
Continuous
 62
     7
370
    30
100
AcDbLine
 10
34.872198
 20
-6.953542
 30
0.0
 11
34.872198
 21
-6.991042
 31
0.0
  0
LINE
  5
F4
330
5C0
100
AcDbEntity
  8
HATCH
  6
Continuous
 62
     7
370
    30
100
AcDbLine
 10
34.904677
 20
-6.788135
 30
0.0
 11
34.904677
 21
-6.822292
 31
0.0
  0
LINE
  5
F5
330
5C0
100
AcDbEntity
  8
HATCH
  6
Continuous
 62
     7
370
    30
100
AcDbLine
 10
34.904677
 20
-6.897292
 30
0.0
 11
34.904677
 21
-6.934792
 31
0.0
  0
LINE
  5
F6
330
5C0
100
AcDbEntity
  8
HATCH
  6
Continuous
 62
     7
370
    30
100
AcDbLine
 10
34.937156
 20
-6.841042
 30
0.0
 11
34.937156
 21
-6.878542
 31
0.0
  0
LINE
  5
F7
330
5C0
100
AcDbEntity
  8
HATCH
  6
Continuous
 62
     7
370
    30
100
AcDbLine
 10
34.937156
 20
-6.953542
 30
0.0
 11
34.937156
 21
-6.991042
 31
0.0
  0
LINE
  5
F8
330
5C0
100
AcDbEntity
  8
HATCH
  6
Continuous
 62
     7
370
    30
100
AcDbLine
 10
34.969625
 20
-6.82026
 30
0.0
 11
34.969625
 21
-6.822292
 31
0.0
  0
LINE
  5
F9
330
5C0
100
AcDbEntity
  8
HATCH
  6
Continuous
 62
     7
370
    30
100
AcDbLine
 10
34.969625
 20
-6.897292
 30
0.0
 11
34.969625
 21
-6.934792
 31
0.0
  0
LINE
  5
FA
330
5C0
100
AcDbEntity
  8
HATCH
  6
Continuous
 62
     7
370
    30
100
AcDbLine
 10
35.002104
 20
-6.841042
 30
0.0
 11
35.002104
 21
-6.878542
 31
0.0
  0
LINE
  5
FB
330
5C0
100
AcDbEntity
  8
HATCH
  6
Continuous
 62
     7
370
    30
100
AcDbLine
 10
35.002104
 20
-6.953542
 30
0.0
 11
35.002104
 21
-6.991042
 31
0.0
  0
LINE
  5
FC
330
5C0
100
AcDbEntity
  8
HATCH
  6
Continuous
 62
     7
370
    30
100
AcDbLine
 10
35.034583
 20
-6.897292
 30
0.0
 11
35.034583
 21
-6.934792
 31
0.0
  0
LINE
  5
FD
330
5C0
100
AcDbEntity
  8
HATCH
  6
Continuous
 62
     7
370
    30
100
AcDbLine
 10
35.067052
 20
-6.868448
 30
0.0
 11
35.067052
 21
-6.878542
 31
0.0
  0
LINE
  5
FE
330
5C0
100
AcDbEntity
  8
HATCH
  6
Continuous
 62
     7
370
    30
100
AcDbLine
 10
35.067052
 20
-6.953542
 30
0.0
 11
35.067052
 21
-6.991042
 31
0.0
  0
LINE
  5
FF
330
5C0
100
AcDbEntity
  8
HATCH
  6
Continuous
 62
     7
370
    30
100
AcDbLine
 10
35.099531
 20
-6.897292
 30
0.0
 11
35.099531
 21
-6.934792
 31
0.0
  0
LINE
  5
100
330
5C0
100
AcDbEntity
  8
HATCH
  6
Continuous
 62
     7
370
    30
100
AcDbLine
 10
35.13201
 20
-6.953542
 30
0.0
 11
35.13201
 21
-6.991042
 31
0.0
  0
LINE
  5
101
330
5C0
100
AcDbEntity
  8
HATCH
  6
Continuous
 62
     7
370
    30
100
AcDbLine
 10
35.164479
 20
-6.916635
 30
0.0
 11
35.164479
 21
-6.934792
 31
0.0
  0
LINE
  5
102
330
5C0
100
AcDbEntity
  8
HATCH
  6
Continuous
 62
     7
370
    30
100
AcDbLine
 10
35.196958
 20
-6.953542
 30
0.0
 11
35.196958
 21
-6.991042
 31
0.0
  0
LINE
  5
103
330
5C0
100
AcDbEntity
  8
HATCH
  6
Continuous
 62
     7
370
    30
100
AcDbLine
 10
35.261906
 20
-6.964823
 30
0.0
 11
35.261906
 21
-6.991042
 31
0.0
  0
LINE
  5
104
330
5C0
100
AcDbEntity
  8
HATCH
  6
Continuous
 62
     7
370
    30
100
AcDbLine
 10
35.01049
 20
-6.995885
 30
0.0
 11
35.002104
 21
-6.991042
 31
0.0
  0
LINE
  5
105
330
5C0
100
AcDbEntity
  8
HATCH
  6
Continuous
 62
     7
370
    30
100
AcDbLine
 10
34.937156
 20
-6.953542
 30
0.0
 11
34.904677
 21
-6.934792
 31
0.0
  0
LINE
  5
106
330
5C0
100
AcDbEntity
  8
HATCH
  6
Continuous
 62
     7
370
    30
100
AcDbLine
 10
34.839719
 20
-6.897292
 30
0.0
 11
34.80725
 21
-6.878542
 31
0.0
  0
LINE
  5
107
330
5C0
100
AcDbEntity
  8
HATCH
  6
Continuous
 62
     7
370
    30
100
AcDbLine
 10
34.742292
 20
-6.841042
 30
0.0
 11
34.709823
 21
-6.822292
 31
0.0
  0
LINE
  5
108
330
5C0
100
AcDbEntity
  8
HATCH
  6
Continuous
 62
     7
370
    30
100
AcDbLine
 10
34.644865
 20
-6.784792
 30
0.0
 11
34.612396
 21
-6.766042
 31
0.0
  0
LINE
  5
109
330
5C0
100
AcDbEntity
  8
HATCH
  6
Continuous
 62
     7
370
    30
100
AcDbLine
 10
35.077865
 20
-6.997281
 30
0.0
 11
35.067052
 21
-6.991042
 31
0.0
  0
LINE
  5
10A
330
5C0
100
AcDbEntity
  8
HATCH
  6
Continuous
 62
     7
370
    30
100
AcDbLine
 10
35.002104
 20
-6.953542
 30
0.0
 11
34.969625
 21
-6.934792
 31
0.0
  0
LINE
  5
10B
330
5C0
100
AcDbEntity
  8
HATCH
  6
Continuous
 62
     7
370
    30
100
AcDbLine
 10
34.904677
 20
-6.897292
 30
0.0
 11
34.872198
 21
-6.878542
 31
0.0
  0
LINE
  5
10C
330
5C0
100
AcDbEntity
  8
HATCH
  6
Continuous
 62
     7
370
    30
100
AcDbLine
 10
34.80725
 20
-6.841042
 30
0.0
 11
34.774771
 21
-6.822292
 31
0.0
  0
LINE
  5
10D
330
5C0
100
AcDbEntity
  8
HATCH
  6
Continuous
 62
     7
370
    30
100
AcDbLine
 10
34.709823
 20
-6.784792
 30
0.0
 11
34.677344
 21
-6.766042
 31
0.0
  0
LINE
  5
10E
330
5C0
100
AcDbEntity
  8
HATCH
  6
Continuous
 62
     7
370
    30
100
AcDbLine
 10
35.14525
 20
-6.998687
 30
0.0
 11
35.13201
 21
-6.991042
 31
0.0
  0
LINE
  5
10F
330
5C0
100
AcDbEntity
  8
HATCH
  6
Continuous
 62
     7
370
    30
100
AcDbLine
 10
35.067052
 20
-6.953542
 30
0.0
 11
35.034583
 21
-6.934792
 31
0.0
  0
LINE
  5
110
330
5C0
100
AcDbEntity
  8
HATCH
  6
Continuous
 62
     7
370
    30
100
AcDbLine
 10
34.969625
 20
-6.897292
 30
0.0
 11
34.937156
 21
-6.878542
 31
0.0
  0
LINE
  5
111
330
5C0
100
AcDbEntity
  8
HATCH
  6
Continuous
 62
     7
370
    30
100
AcDbLine
 10
34.872198
 20
-6.841042
 30
0.0
 11
34.839719
 21
-6.822292
 31
0.0
  0
LINE
  5
112
330
5C0
100
AcDbEntity
  8
HATCH
  6
Continuous
 62
     7
370
    30
100
AcDbLine
 10
34.774771
 20
-6.784792
 30
0.0
 11
34.742292
 21
-6.766042
 31
0.0
  0
LINE
  5
113
330
5C0
100
AcDbEntity
  8
HATCH
  6
Continuous
 62
     7
370
    30
100
AcDbLine
 10
35.212635
 20
-7.000094
 30
0.0
 11
35.196958
 21
-6.991042
 31
0.0
  0
LINE
  5
114
330
5C0
100
AcDbEntity
  8
HATCH
  6
Continuous
 62
     7
370
    30
100
AcDbLine
 10
35.13201
 20
-6.953542
 30
0.0
 11
35.099531
 21
-6.934792
 31
0.0
  0
LINE
  5
115
330
5C0
100
AcDbEntity
  8
HATCH
  6
Continuous
 62
     7
370
    30
100
AcDbLine
 10
35.034583
 20
-6.897292
 30
0.0
 11
35.002104
 21
-6.878542
 31
0.0
  0
LINE
  5
116
330
5C0
100
AcDbEntity
  8
HATCH
  6
Continuous
 62
     7
370
    30
100
AcDbLine
 10
34.937156
 20
-6.841042
 30
0.0
 11
34.904677
 21
-6.822292
 31
0.0
  0
LINE
  5
117
330
5C0
100
AcDbEntity
  8
HATCH
  6
Continuous
 62
     7
370
    30
100
AcDbLine
 10
34.839719
 20
-6.784792
 30
0.0
 11
34.80725
 21
-6.766042
 31
0.0
  0
LINE
  5
118
330
5C0
100
AcDbEntity
  8
HATCH
  6
Continuous
 62
     7
370
    30
100
AcDbLine
 10
35.280021
 20
-7.0015
 30
0.0
 11
35.261906
 21
-6.991042
 31
0.0
  0
LINE
  5
119
330
5C0
100
AcDbEntity
  8
HATCH
  6
Continuous
 62
     7
370
    30
100
AcDbLine
 10
35.196958
 20
-6.953542
 30
0.0
 11
35.164479
 21
-6.934792
 31
0.0
  0
LINE
  5
11A
330
5C0
100
AcDbEntity
  8
HATCH
  6
Continuous
 62
     7
370
    30
100
AcDbLine
 10
35.099531
 20
-6.897292
 30
0.0
 11
35.067052
 21
-6.878542
 31
0.0
  0
LINE
  5
11B
330
5C0
100
AcDbEntity
  8
HATCH
  6
Continuous
 62
     7
370
    30
100
AcDbLine
 10
35.002104
 20
-6.841042
 30
0.0
 11
34.969625
 21
-6.822292
 31
0.0
  0
LINE
  5
11C
330
5C0
100
AcDbEntity
  8
HATCH
  6
Continuous
 62
     7
370
    30
100
AcDbLine
 10
34.943104
 20
-6.994479
 30
0.0
 11
34.937156
 21
-6.991042
 31
0.0
  0
LINE
  5
11D
330
5C0
100
AcDbEntity
  8
HATCH
  6
Continuous
 62
     7
370
    30
100
AcDbLine
 10
34.872198
 20
-6.953542
 30
0.0
 11
34.839719
 21
-6.934792
 31
0.0
  0
LINE
  5
11E
330
5C0
100
AcDbEntity
  8
HATCH
  6
Continuous
 62
     7
370
    30
100
AcDbLine
 10
34.774771
 20
-6.897292
 30
0.0
 11
34.742292
 21
-6.878542
 31
0.0
  0
LINE
  5
11F
330
5C0
100
AcDbEntity
  8
HATCH
  6
Continuous
 62
     7
370
    30
100
AcDbLine
 10
34.677344
 20
-6.841042
 30
0.0
 11
34.644865
 21
-6.822292
 31
0.0
  0
LINE
  5
120
330
5C0
100
AcDbEntity
  8
HATCH
  6
Continuous
 62
     7
370
    30
100
AcDbLine
 10
34.579917
 20
-6.784792
 30
0.0
 11
34.547438
 21
-6.766042
 31
0.0
  0
LINE
  5
121
330
5C0
100
AcDbEntity
  8
HATCH
  6
Continuous
 62
     7
370
    30
100
AcDbLine
 10
34.875719
 20
-6.993073
 30
0.0
 11
34.872198
 21
-6.991042
 31
0.0
  0
LINE
  5
122
330
5C0
100
AcDbEntity
  8
HATCH
  6
Continuous
 62
     7
370
    30
100
AcDbLine
 10
34.80725
 20
-6.953542
 30
0.0
 11
34.774771
 21
-6.934792
 31
0.0
  0
LINE
  5
123
330
5C0
100
AcDbEntity
  8
HATCH
  6
Continuous
 62
     7
370
    30
100
AcDbLine
 10
34.709823
 20
-6.897292
 30
0.0
 11
34.677344
 21
-6.878542
 31
0.0
  0
LINE
  5
124
330
5C0
100
AcDbEntity
  8
HATCH
  6
Continuous
 62
     7
370
    30
100
AcDbLine
 10
34.612396
 20
-6.841042
 30
0.0
 11
34.579917
 21
-6.822292
 31
0.0
  0
LINE
  5
125
330
5C0
100
AcDbEntity
  8
HATCH
  6
Continuous
 62
     7
370
    30
100
AcDbLine
 10
34.514969
 20
-6.784792
 30
0.0
 11
34.48249
 21
-6.766042
 31
0.0
  0
LINE
  5
126
330
5C0
100
AcDbEntity
  8
HATCH
  6
Continuous
 62
     7
370
    30
100
AcDbLine
 10
34.808333
 20
-6.991667
 30
0.0
 11
34.80725
 21
-6.991042
 31
0.0
  0
LINE
  5
127
330
5C0
100
AcDbEntity
  8
HATCH
  6
Continuous
 62
     7
370
    30
100
AcDbLine
 10
34.742292
 20
-6.953542
 30
0.0
 11
34.709823
 21
-6.934792
 31
0.0
  0
LINE
  5
128
330
5C0
100
AcDbEntity
  8
HATCH
  6
Continuous
 62
     7
370
    30
100
AcDbLine
 10
34.644865
 20
-6.897292
 30
0.0
 11
34.612396
 21
-6.878542
 31
0.0
  0
LINE
  5
129
330
5C0
100
AcDbEntity
  8
HATCH
  6
Continuous
 62
     7
370
    30
100
AcDbLine
 10
34.547438
 20
-6.841042
 30
0.0
 11
34.514969
 21
-6.822292
 31
0.0
  0
LINE
  5
12A
330
5C0
100
AcDbEntity
  8
HATCH
  6
Continuous
 62
     7
370
    30
100
AcDbLine
 10
34.45001
 20
-6.784792
 30
0.0
 11
34.417531
 21
-6.766042
 31
0.0
  0
LINE
  5
12B
330
5C0
100
AcDbEntity
  8
HATCH
  6
Continuous
 62
     7
370
    30
100
AcDbLine
 10
34.677344
 20
-6.953542
 30
0.0
 11
34.644865
 21
-6.934792
 31
0.0
  0
LINE
  5
12C
330
5C0
100
AcDbEntity
  8
HATCH
  6
Continuous
 62
     7
370
    30
100
AcDbLine
 10
34.579917
 20
-6.897292
 30
0.0
 11
34.547438
 21
-6.878542
 31
0.0
  0
LINE
  5
12D
330
5C0
100
AcDbEntity
  8
HATCH
  6
Continuous
 62
     7
370
    30
100
AcDbLine
 10
34.48249
 20
-6.841042
 30
0.0
 11
34.45001
 21
-6.822292
 31
0.0
  0
LINE
  5
12E
330
5C0
100
AcDbEntity
  8
HATCH
  6
Continuous
 62
     7
370
    30
100
AcDbLine
 10
34.385062
 20
-6.784792
 30
0.0
 11
34.352583
 21
-6.766042
 31
0.0
  0
LINE
  5
12F
330
5C0
100
AcDbEntity
  8
HATCH
  6
Continuous
 62
     7
370
    30
100
AcDbLine
 10
34.287635
 20
-6.728542
 30
0.0
 11
34.286615
 21
-6.727958
 31
0.0
  0
LINE
  5
130
330
5C0
100
AcDbEntity
  8
HATCH
  6
Continuous
 62
     7
370
    30
100
AcDbLine
 10
34.612396
 20
-6.953542
 30
0.0
 11
34.579917
 21
-6.934792
 31
0.0
  0
LINE
  5
131
330
5C0
100
AcDbEntity
  8
HATCH
  6
Continuous
 62
     7
370
    30
100
AcDbLine
 10
34.514969
 20
-6.897292
 30
0.0
 11
34.48249
 21
-6.878542
 31
0.0
  0
LINE
  5
132
330
5C0
100
AcDbEntity
  8
HATCH
  6
Continuous
 62
     7
370
    30
100
AcDbLine
 10
34.417531
 20
-6.841042
 30
0.0
 11
34.385062
 21
-6.822292
 31
0.0
  0
LINE
  5
133
330
5C0
100
AcDbEntity
  8
HATCH
  6
Continuous
 62
     7
370
    30
100
AcDbLine
 10
34.320104
 20
-6.784792
 30
0.0
 11
34.287635
 21
-6.766042
 31
0.0
  0
LINE
  5
134
330
5C0
100
AcDbEntity
  8
HATCH
  6
Continuous
 62
     7
370
    30
100
AcDbLine
 10
34.222677
 20
-6.728542
 30
0.0
 11
34.219646
 21
-6.726792
 31
0.0
  0
LINE
  5
135
330
5C0
100
AcDbEntity
  8
HATCH
  6
Continuous
 62
     7
370
    30
100
AcDbLine
 10
34.547438
 20
-6.953542
 30
0.0
 11
34.514969
 21
-6.934792
 31
0.0
  0
LINE
  5
136
330
5C0
100
AcDbEntity
  8
HATCH
  6
Continuous
 62
     7
370
    30
100
AcDbLine
 10
34.45001
 20
-6.897292
 30
0.0
 11
34.417531
 21
-6.878542
 31
0.0
  0
LINE
  5
137
330
5C0
100
AcDbEntity
  8
HATCH
  6
Continuous
 62
     7
370
    30
100
AcDbLine
 10
34.352583
 20
-6.841042
 30
0.0
 11
34.320104
 21
-6.822292
 31
0.0
  0
LINE
  5
138
330
5C0
100
AcDbEntity
  8
HATCH
  6
Continuous
 62
     7
370
    30
100
AcDbLine
 10
34.48249
 20
-6.953542
 30
0.0
 11
34.45001
 21
-6.934792
 31
0.0
  0
LINE
  5
139
330
5C0
100
AcDbEntity
  8
HATCH
  6
Continuous
 62
     7
370
    30
100
AcDbLine
 10
34.385062
 20
-6.897292
 30
0.0
 11
34.352583
 21
-6.878542
 31
0.0
  0
LINE
  5
13A
330
5C0
100
AcDbEntity
  8
HATCH
  6
Continuous
 62
     7
370
    30
100
AcDbLine
 10
34.417531
 20
-6.953542
 30
0.0
 11
34.399396
 21
-6.943062
 31
0.0
  0
LINE
  5
13B
330
5C0
100
AcDbEntity
  8
HATCH
  6
Continuous
 62
     7
370
    30
100
AcDbLine
 10
34.839719
 20
-6.822292
 30
0.0
 11
34.80725
 21
-6.841042
 31
0.0
  0
LINE
  5
13C
330
5C0
100
AcDbEntity
  8
HATCH
  6
Continuous
 62
     7
370
    30
100
AcDbLine
 10
34.742292
 20
-6.878542
 30
0.0
 11
34.709823
 21
-6.897292
 31
0.0
  0
LINE
  5
13D
330
5C0
100
AcDbEntity
  8
HATCH
  6
Continuous
 62
     7
370
    30
100
AcDbLine
 10
34.644865
 20
-6.934792
 30
0.0
 11
34.612396
 21
-6.953542
 31
0.0
  0
LINE
  5
13E
330
5C0
100
AcDbEntity
  8
HATCH
  6
Continuous
 62
     7
370
    30
100
AcDbLine
 10
34.866573
 20
-6.769292
 30
0.0
 11
34.839719
 21
-6.784792
 31
0.0
  0
LINE
  5
13F
330
5C0
100
AcDbEntity
  8
HATCH
  6
Continuous
 62
     7
370
    30
100
AcDbLine
 10
34.774771
 20
-6.822292
 30
0.0
 11
34.742292
 21
-6.841042
 31
0.0
  0
LINE
  5
140
330
5C0
100
AcDbEntity
  8
HATCH
  6
Continuous
 62
     7
370
    30
100
AcDbLine
 10
34.677344
 20
-6.878542
 30
0.0
 11
34.644865
 21
-6.897292
 31
0.0
  0
LINE
  5
141
330
5C0
100
AcDbEntity
  8
HATCH
  6
Continuous
 62
     7
370
    30
100
AcDbLine
 10
34.579917
 20
-6.934792
 30
0.0
 11
34.547438
 21
-6.953542
 31
0.0
  0
LINE
  5
142
330
5C0
100
AcDbEntity
  8
HATCH
  6
Continuous
 62
     7
370
    30
100
AcDbLine
 10
34.80725
 20
-6.766042
 30
0.0
 11
34.774771
 21
-6.784792
 31
0.0
  0
LINE
  5
143
330
5C0
100
AcDbEntity
  8
HATCH
  6
Continuous
 62
     7
370
    30
100
AcDbLine
 10
34.709823
 20
-6.822292
 30
0.0
 11
34.677344
 21
-6.841042
 31
0.0
  0
LINE
  5
144
330
5C0
100
AcDbEntity
  8
HATCH
  6
Continuous
 62
     7
370
    30
100
AcDbLine
 10
34.612396
 20
-6.878542
 30
0.0
 11
34.579917
 21
-6.897292
 31
0.0
  0
LINE
  5
145
330
5C0
100
AcDbEntity
  8
HATCH
  6
Continuous
 62
     7
370
    30
100
AcDbLine
 10
34.514969
 20
-6.934792
 30
0.0
 11
34.48249
 21
-6.953542
 31
0.0
  0
LINE
  5
146
330
5C0
100
AcDbEntity
  8
HATCH
  6
Continuous
 62
     7
370
    30
100
AcDbLine
 10
34.742292
 20
-6.766042
 30
0.0
 11
34.709823
 21
-6.784792
 31
0.0
  0
LINE
  5
147
330
5C0
100
AcDbEntity
  8
HATCH
  6
Continuous
 62
     7
370
    30
100
AcDbLine
 10
34.644865
 20
-6.822292
 30
0.0
 11
34.612396
 21
-6.841042
 31
0.0
  0
LINE
  5
148
330
5C0
100
AcDbEntity
  8
HATCH
  6
Continuous
 62
     7
370
    30
100
AcDbLine
 10
34.547438
 20
-6.878542
 30
0.0
 11
34.514969
 21
-6.897292
 31
0.0
  0
LINE
  5
149
330
5C0
100
AcDbEntity
  8
HATCH
  6
Continuous
 62
     7
370
    30
100
AcDbLine
 10
34.45001
 20
-6.934792
 30
0.0
 11
34.417531
 21
-6.953542
 31
0.0
  0
LINE
  5
14A
330
5C0
100
AcDbEntity
  8
HATCH
  6
Continuous
 62
     7
370
    30
100
AcDbLine
 10
34.677344
 20
-6.766042
 30
0.0
 11
34.644865
 21
-6.784792
 31
0.0
  0
LINE
  5
14B
330
5C0
100
AcDbEntity
  8
HATCH
  6
Continuous
 62
     7
370
    30
100
AcDbLine
 10
34.579917
 20
-6.822292
 30
0.0
 11
34.547438
 21
-6.841042
 31
0.0
  0
LINE
  5
14C
330
5C0
100
AcDbEntity
  8
HATCH
  6
Continuous
 62
     7
370
    30
100
AcDbLine
 10
34.48249
 20
-6.878542
 30
0.0
 11
34.45001
 21
-6.897292
 31
0.0
  0
LINE
  5
14D
330
5C0
100
AcDbEntity
  8
HATCH
  6
Continuous
 62
     7
370
    30
100
AcDbLine
 10
34.612396
 20
-6.766042
 30
0.0
 11
34.579917
 21
-6.784792
 31
0.0
  0
LINE
  5
14E
330
5C0
100
AcDbEntity
  8
HATCH
  6
Continuous
 62
     7
370
    30
100
AcDbLine
 10
34.514969
 20
-6.822292
 30
0.0
 11
34.48249
 21
-6.841042
 31
0.0
  0
LINE
  5
14F
330
5C0
100
AcDbEntity
  8
HATCH
  6
Continuous
 62
     7
370
    30
100
AcDbLine
 10
34.417531
 20
-6.878542
 30
0.0
 11
34.385062
 21
-6.897292
 31
0.0
  0
LINE
  5
150
330
5C0
100
AcDbEntity
  8
HATCH
  6
Continuous
 62
     7
370
    30
100
AcDbLine
 10
34.547438
 20
-6.766042
 30
0.0
 11
34.514969
 21
-6.784792
 31
0.0
  0
LINE
  5
151
330
5C0
100
AcDbEntity
  8
HATCH
  6
Continuous
 62
     7
370
    30
100
AcDbLine
 10
34.45001
 20
-6.822292
 30
0.0
 11
34.417531
 21
-6.841042
 31
0.0
  0
LINE
  5
152
330
5C0
100
AcDbEntity
  8
HATCH
  6
Continuous
 62
     7
370
    30
100
AcDbLine
 10
34.352583
 20
-6.878542
 30
0.0
 11
34.347979
 21
-6.881198
 31
0.0
  0
LINE
  5
153
330
5C0
100
AcDbEntity
  8
HATCH
  6
Continuous
 62
     7
370
    30
100
AcDbLine
 10
34.48249
 20
-6.766042
 30
0.0
 11
34.45001
 21
-6.784792
 31
0.0
  0
LINE
  5
154
330
5C0
100
AcDbEntity
  8
HATCH
  6
Continuous
 62
     7
370
    30
100
AcDbLine
 10
34.385062
 20
-6.822292
 30
0.0
 11
34.352583
 21
-6.841042
 31
0.0
  0
LINE
  5
155
330
5C0
100
AcDbEntity
  8
HATCH
  6
Continuous
 62
     7
370
    30
100
AcDbLine
 10
34.417531
 20
-6.766042
 30
0.0
 11
34.385062
 21
-6.784792
 31
0.0
  0
LINE
  5
156
330
5C0
100
AcDbEntity
  8
HATCH
  6
Continuous
 62
     7
370
    30
100
AcDbLine
 10
34.320104
 20
-6.822292
 30
0.0
 11
34.305854
 21
-6.830521
 31
0.0
  0
LINE
  5
157
330
5C0
100
AcDbEntity
  8
HATCH
  6
Continuous
 62
     7
370
    30
100
AcDbLine
 10
34.352583
 20
-6.766042
 30
0.0
 11
34.320104
 21
-6.784792
 31
0.0
  0
LINE
  5
158
330
5C0
100
AcDbEntity
  8
HATCH
  6
Continuous
 62
     7
370
    30
100
AcDbLine
 10
34.287635
 20
-6.766042
 30
0.0
 11
34.26374
 21
-6.779844
 31
0.0
  0
LINE
  5
159
330
5C0
100
AcDbEntity
  8
HATCH
  6
Continuous
 62
     7
370
    30
100
AcDbLine
 10
34.288573
 20
-6.728
 30
0.0
 11
34.287635
 21
-6.728542
 31
0.0
  0
LINE
  5
15A
330
5C0
100
AcDbEntity
  8
HATCH
  6
Continuous
 62
     7
370
    30
100
AcDbLine
 10
34.225885
 20
-6.726687
 30
0.0
 11
34.222677
 21
-6.728542
 31
0.0
  0
LINE
  5
15B
330
5C0
100
AcDbEntity
  8
HATCH
  6
Continuous
 62
     7
370
    30
100
AcDbLine
 10
34.904677
 20
-6.822292
 30
0.0
 11
34.872198
 21
-6.841042
 31
0.0
  0
LINE
  5
15C
330
5C0
100
AcDbEntity
  8
HATCH
  6
Continuous
 62
     7
370
    30
100
AcDbLine
 10
34.80725
 20
-6.878542
 30
0.0
 11
34.774771
 21
-6.897292
 31
0.0
  0
LINE
  5
15D
330
5C0
100
AcDbEntity
  8
HATCH
  6
Continuous
 62
     7
370
    30
100
AcDbLine
 10
34.709823
 20
-6.934792
 30
0.0
 11
34.677344
 21
-6.953542
 31
0.0
  0
LINE
  5
15E
330
5C0
100
AcDbEntity
  8
HATCH
  6
Continuous
 62
     7
370
    30
100
AcDbLine
 10
34.969625
 20
-6.822292
 30
0.0
 11
34.937156
 21
-6.841042
 31
0.0
  0
LINE
  5
15F
330
5C0
100
AcDbEntity
  8
HATCH
  6
Continuous
 62
     7
370
    30
100
AcDbLine
 10
34.872198
 20
-6.878542
 30
0.0
 11
34.839719
 21
-6.897292
 31
0.0
  0
LINE
  5
160
330
5C0
100
AcDbEntity
  8
HATCH
  6
Continuous
 62
     7
370
    30
100
AcDbLine
 10
34.774771
 20
-6.934792
 30
0.0
 11
34.742292
 21
-6.953542
 31
0.0
  0
LINE
  5
161
330
5C0
100
AcDbEntity
  8
HATCH
  6
Continuous
 62
     7
370
    30
100
AcDbLine
 10
35.00651
 20
-6.8385
 30
0.0
 11
35.002104
 21
-6.841042
 31
0.0
  0
LINE
  5
162
330
5C0
100
AcDbEntity
  8
HATCH
  6
Continuous
 62
     7
370
    30
100
AcDbLine
 10
34.937156
 20
-6.878542
 30
0.0
 11
34.904677
 21
-6.897292
 31
0.0
  0
LINE
  5
163
330
5C0
100
AcDbEntity
  8
HATCH
  6
Continuous
 62
     7
370
    30
100
AcDbLine
 10
34.839719
 20
-6.934792
 30
0.0
 11
34.80725
 21
-6.953542
 31
0.0
  0
LINE
  5
164
330
5C0
100
AcDbEntity
  8
HATCH
  6
Continuous
 62
     7
370
    30
100
AcDbLine
 10
35.002104
 20
-6.878542
 30
0.0
 11
34.969625
 21
-6.897292
 31
0.0
  0
LINE
  5
165
330
5C0
100
AcDbEntity
  8
HATCH
  6
Continuous
 62
     7
370
    30
100
AcDbLine
 10
34.904677
 20
-6.934792
 30
0.0
 11
34.872198
 21
-6.953542
 31
0.0
  0
LINE
  5
166
330
5C0
100
AcDbEntity
  8
HATCH
  6
Continuous
 62
     7
370
    30
100
AcDbLine
 10
34.80725
 20
-6.991042
 30
0.0
 11
34.80624
 21
-6.991625
 31
0.0
  0
LINE
  5
167
330
5C0
100
AcDbEntity
  8
HATCH
  6
Continuous
 62
     7
370
    30
100
AcDbLine
 10
35.067052
 20
-6.878542
 30
0.0
 11
35.034583
 21
-6.897292
 31
0.0
  0
LINE
  5
168
330
5C0
100
AcDbEntity
  8
HATCH
  6
Continuous
 62
     7
370
    30
100
AcDbLine
 10
34.969625
 20
-6.934792
 30
0.0
 11
34.937156
 21
-6.953542
 31
0.0
  0
LINE
  5
169
330
5C0
100
AcDbEntity
  8
HATCH
  6
Continuous
 62
     7
370
    30
100
AcDbLine
 10
34.872198
 20
-6.991042
 30
0.0
 11
34.868927
 21
-6.992938
 31
0.0
  0
LINE
  5
16A
330
5C0
100
AcDbEntity
  8
HATCH
  6
Continuous
 62
     7
370
    30
100
AcDbLine
 10
35.111458
 20
-6.890406
 30
0.0
 11
35.099531
 21
-6.897292
 31
0.0
  0
LINE
  5
16B
330
5C0
100
AcDbEntity
  8
HATCH
  6
Continuous
 62
     7
370
    30
100
AcDbLine
 10
35.034583
 20
-6.934792
 30
0.0
 11
35.002104
 21
-6.953542
 31
0.0
  0
LINE
  5
16C
330
5C0
100
AcDbEntity
  8
HATCH
  6
Continuous
 62
     7
370
    30
100
AcDbLine
 10
34.937156
 20
-6.991042
 30
0.0
 11
34.931615
 21
-6.99424
 31
0.0
  0
LINE
  5
16D
330
5C0
100
AcDbEntity
  8
HATCH
  6
Continuous
 62
     7
370
    30
100
AcDbLine
 10
35.099531
 20
-6.934792
 30
0.0
 11
35.067052
 21
-6.953542
 31
0.0
  0
LINE
  5
16E
330
5C0
100
AcDbEntity
  8
HATCH
  6
Continuous
 62
     7
370
    30
100
AcDbLine
 10
35.002104
 20
-6.991042
 30
0.0
 11
34.994302
 21
-6.995542
 31
0.0
  0
LINE
  5
16F
330
5C0
100
AcDbEntity
  8
HATCH
  6
Continuous
 62
     7
370
    30
100
AcDbLine
 10
35.164479
 20
-6.934792
 30
0.0
 11
35.13201
 21
-6.953542
 31
0.0
  0
LINE
  5
170
330
5C0
100
AcDbEntity
  8
HATCH
  6
Continuous
 62
     7
370
    30
100
AcDbLine
 10
35.067052
 20
-6.991042
 30
0.0
 11
35.05699
 21
-6.996854
 31
0.0
  0
LINE
  5
171
330
5C0
100
AcDbEntity
  8
HATCH
  6
Continuous
 62
     7
370
    30
100
AcDbLine
 10
35.216406
 20
-6.942312
 30
0.0
 11
35.196958
 21
-6.953542
 31
0.0
  0
LINE
  5
172
330
5C0
100
AcDbEntity
  8
HATCH
  6
Continuous
 62
     7
370
    30
100
AcDbLine
 10
35.13201
 20
-6.991042
 30
0.0
 11
35.119687
 21
-6.998156
 31
0.0
  0
LINE
  5
173
330
5C0
100
AcDbEntity
  8
HATCH
  6
Continuous
 62
     7
370
    30
100
AcDbLine
 10
35.196958
 20
-6.991042
 30
0.0
 11
35.182375
 21
-6.999458
 31
0.0
  0
LINE
  5
174
330
5C0
100
AcDbEntity
  8
HATCH
  6
Continuous
 62
     7
370
    30
100
AcDbLine
 10
35.261906
 20
-6.991042
 30
0.0
 11
35.245062
 21
-7.000771
 31
0.0
  0
LINE
  5
175
330
5C0
100
AcDbEntity
  8
HATCH
  6
Continuous
 62
     7
370
    30
100
AcDbLine
 10
35.321354
 20
-6.994219
 30
0.0
 11
35.30775
 21
-7.002073
 31
0.0
  0
LINE
  5
176
330
5C0
100
AcDbEntity
  8
HATCH
  6
Continuous
 62
     7
370
    30
100
AcDbLine
 10
33.735542
 20
-6.447292
 30
0.0
 11
33.686823
 21
-6.475417
 31
0.0
  0
LINE
  5
177
330
5C0
100
AcDbEntity
  8
HATCH
  6
Continuous
 62
     7
370
    30
100
AcDbLine
 10
33.638115
 20
-6.503542
 30
0.0
 11
33.589396
 21
-6.531667
 31
0.0
  0
LINE
  5
178
330
5C0
100
AcDbEntity
  8
HATCH
  6
Continuous
 62
     7
370
    30
100
AcDbLine
 10
33.540687
 20
-6.559792
 30
0.0
 11
33.491969
 21
-6.587917
 31
0.0
  0
LINE
  5
179
330
5C0
100
AcDbEntity
  8
HATCH
  6
Continuous
 62
     7
370
    30
100
AcDbLine
 10
33.638115
 20
-6.391042
 30
0.0
 11
33.589396
 21
-6.419167
 31
0.0
  0
LINE
  5
17A
330
5C0
100
AcDbEntity
  8
HATCH
  6
Continuous
 62
     7
370
    30
100
AcDbLine
 10
33.540687
 20
-6.447292
 30
0.0
 11
33.491969
 21
-6.475417
 31
0.0
  0
LINE
  5
17B
330
5C0
100
AcDbEntity
  8
HATCH
  6
Continuous
 62
     7
370
    30
100
AcDbLine
 10
33.44326
 20
-6.503542
 30
0.0
 11
33.394542
 21
-6.531667
 31
0.0
  0
LINE
  5
17C
330
5C0
100
AcDbEntity
  8
HATCH
  6
Continuous
 62
     7
370
    30
100
AcDbLine
 10
33.540687
 20
-6.334792
 30
0.0
 11
33.491969
 21
-6.362917
 31
0.0
  0
LINE
  5
17D
330
5C0
100
AcDbEntity
  8
HATCH
  6
Continuous
 62
     7
370
    30
100
AcDbLine
 10
33.44326
 20
-6.391042
 30
0.0
 11
33.394542
 21
-6.419167
 31
0.0
  0
LINE
  5
17E
330
5C0
100
AcDbEntity
  8
HATCH
  6
Continuous
 62
     7
370
    30
100
AcDbLine
 10
33.345833
 20
-6.447292
 30
0.0
 11
33.307562
 21
-6.469385
 31
0.0
  0
LINE
  5
17F
330
5C0
100
AcDbEntity
  8
HATCH
  6
Continuous
 62
     7
370
    30
100
AcDbLine
 10
33.44326
 20
-6.278542
 30
0.0
 11
33.394542
 21
-6.306667
 31
0.0
  0
LINE
  5
180
330
5C0
100
AcDbEntity
  8
HATCH
  6
Continuous
 62
     7
370
    30
100
AcDbLine
 10
33.345833
 20
-6.334792
 30
0.0
 11
33.297115
 21
-6.362917
 31
0.0
  0
LINE
  5
181
330
5C0
100
AcDbEntity
  8
HATCH
  6
Continuous
 62
     7
370
    30
100
AcDbLine
 10
33.832969
 20
-6.503542
 30
0.0
 11
33.78425
 21
-6.531667
 31
0.0
  0
LINE
  5
182
330
5C0
100
AcDbEntity
  8
HATCH
  6
Continuous
 62
     7
370
    30
100
AcDbLine
 10
33.735542
 20
-6.559792
 30
0.0
 11
33.686823
 21
-6.587917
 31
0.0
  0
LINE
  5
183
330
5C0
100
AcDbEntity
  8
HATCH
  6
Continuous
 62
     7
370
    30
100
AcDbLine
 10
33.638115
 20
-6.616042
 30
0.0
 11
33.589396
 21
-6.644167
 31
0.0
  0
LINE
  5
184
330
5C0
100
AcDbEntity
  8
HATCH
  6
Continuous
 62
     7
370
    30
100
AcDbLine
 10
33.540687
 20
-6.672292
 30
0.0
 11
33.516771
 21
-6.686094
 31
0.0
  0
LINE
  5
185
330
5C0
100
AcDbEntity
  8
HATCH
  6
Continuous
 62
     7
370
    30
100
AcDbLine
 10
33.930396
 20
-6.559792
 30
0.0
 11
33.881687
 21
-6.587917
 31
0.0
  0
LINE
  5
186
330
5C0
100
AcDbEntity
  8
HATCH
  6
Continuous
 62
     7
370
    30
100
AcDbLine
 10
33.832969
 20
-6.616042
 30
0.0
 11
33.78425
 21
-6.644167
 31
0.0
  0
LINE
  5
187
330
5C0
100
AcDbEntity
  8
HATCH
  6
Continuous
 62
     7
370
    30
100
AcDbLine
 10
33.735542
 20
-6.672292
 30
0.0
 11
33.686823
 21
-6.700417
 31
0.0
  0
LINE
  5
188
330
5C0
100
AcDbEntity
  8
HATCH
  6
Continuous
 62
     7
370
    30
100
AcDbLine
 10
34.027823
 20
-6.616042
 30
0.0
 11
33.979115
 21
-6.644167
 31
0.0
  0
LINE
  5
189
330
5C0
100
AcDbEntity
  8
HATCH
  6
Continuous
 62
     7
370
    30
100
AcDbLine
 10
33.930396
 20
-6.672292
 30
0.0
 11
33.881687
 21
-6.700417
 31
0.0
  0
LINE
  5
18A
330
5C0
100
AcDbEntity
  8
HATCH
  6
Continuous
 62
     7
370
    30
100
AcDbLine
 10
34.180302
 20
-6.64051
 30
0.0
 11
34.173969
 21
-6.644167
 31
0.0
  0
LINE
  5
18B
330
5C0
100
AcDbEntity
  8
HATCH
  6
Continuous
 62
     7
370
    30
100
AcDbLine
 10
34.12525
 20
-6.672292
 30
0.0
 11
34.076542
 21
-6.700417
 31
0.0
  0
LINE
  5
18C
330
5C0
100
AcDbEntity
  8
HATCH
  6
Continuous
 62
     7
370
    30
100
AcDbLine
 10
34.284719
 20
-6.692719
 30
0.0
 11
34.271396
 21
-6.700417
 31
0.0
  0
LINE
  5
18D
330
5C0
100
AcDbEntity
  8
HATCH
  6
Continuous
 62
     7
370
    30
100
AcDbLine
 10
34.219229
 20
-6.726552
 30
0.0
 11
34.173969
 21
-6.700417
 31
0.0
  0
LINE
  5
18E
330
5C0
100
AcDbEntity
  8
HATCH
  6
Continuous
 62
     7
370
    30
100
AcDbLine
 10
34.12525
 20
-6.672292
 30
0.0
 11
34.076542
 21
-6.644167
 31
0.0
  0
LINE
  5
18F
330
5C0
100
AcDbEntity
  8
HATCH
  6
Continuous
 62
     7
370
    30
100
AcDbLine
 10
34.027823
 20
-6.616042
 30
0.0
 11
33.979115
 21
-6.587917
 31
0.0
  0
LINE
  5
190
330
5C0
100
AcDbEntity
  8
HATCH
  6
Continuous
 62
     7
370
    30
100
AcDbLine
 10
33.930396
 20
-6.559792
 30
0.0
 11
33.881687
 21
-6.531667
 31
0.0
  0
LINE
  5
191
330
5C0
100
AcDbEntity
  8
HATCH
  6
Continuous
 62
     7
370
    30
100
AcDbLine
 10
33.832969
 20
-6.503542
 30
0.0
 11
33.78425
 21
-6.475417
 31
0.0
  0
LINE
  5
192
330
5C0
100
AcDbEntity
  8
HATCH
  6
Continuous
 62
     7
370
    30
100
AcDbLine
 10
33.735542
 20
-6.447292
 30
0.0
 11
33.686823
 21
-6.419167
 31
0.0
  0
LINE
  5
193
330
5C0
100
AcDbEntity
  8
HATCH
  6
Continuous
 62
     7
370
    30
100
AcDbLine
 10
33.638115
 20
-6.391042
 30
0.0
 11
33.589396
 21
-6.362917
 31
0.0
  0
LINE
  5
194
330
5C0
100
AcDbEntity
  8
HATCH
  6
Continuous
 62
     7
370
    30
100
AcDbLine
 10
33.540687
 20
-6.334792
 30
0.0
 11
33.491969
 21
-6.306667
 31
0.0
  0
LINE
  5
195
330
5C0
100
AcDbEntity
  8
HATCH
  6
Continuous
 62
     7
370
    30
100
AcDbLine
 10
33.44326
 20
-6.278542
 30
0.0
 11
33.406156
 21
-6.257125
 31
0.0
  0
LINE
  5
196
330
5C0
100
AcDbEntity
  8
HATCH
  6
Continuous
 62
     7
370
    30
100
AcDbLine
 10
34.017083
 20
-6.722344
 30
0.0
 11
33.979115
 21
-6.700417
 31
0.0
  0
LINE
  5
197
330
5C0
100
AcDbEntity
  8
HATCH
  6
Continuous
 62
     7
370
    30
100
AcDbLine
 10
33.930396
 20
-6.672292
 30
0.0
 11
33.881687
 21
-6.644167
 31
0.0
  0
LINE
  5
198
330
5C0
100
AcDbEntity
  8
HATCH
  6
Continuous
 62
     7
370
    30
100
AcDbLine
 10
33.832969
 20
-6.616042
 30
0.0
 11
33.78425
 21
-6.587917
 31
0.0
  0
LINE
  5
199
330
5C0
100
AcDbEntity
  8
HATCH
  6
Continuous
 62
     7
370
    30
100
AcDbLine
 10
33.735542
 20
-6.559792
 30
0.0
 11
33.686823
 21
-6.531667
 31
0.0
  0
LINE
  5
19A
330
5C0
100
AcDbEntity
  8
HATCH
  6
Continuous
 62
     7
370
    30
100
AcDbLine
 10
33.638115
 20
-6.503542
 30
0.0
 11
33.589396
 21
-6.475417
 31
0.0
  0
LINE
  5
19B
330
5C0
100
AcDbEntity
  8
HATCH
  6
Continuous
 62
     7
370
    30
100
AcDbLine
 10
33.540687
 20
-6.447292
 30
0.0
 11
33.491969
 21
-6.419167
 31
0.0
  0
LINE
  5
19C
330
5C0
100
AcDbEntity
  8
HATCH
  6
Continuous
 62
     7
370
    30
100
AcDbLine
 10
33.44326
 20
-6.391042
 30
0.0
 11
33.394542
 21
-6.362917
 31
0.0
  0
LINE
  5
19D
330
5C0
100
AcDbEntity
  8
HATCH
  6
Continuous
 62
     7
370
    30
100
AcDbLine
 10
33.345833
 20
-6.334792
 30
0.0
 11
33.297115
 21
-6.306667
 31
0.0
  0
LINE
  5
19E
330
5C0
100
AcDbEntity
  8
HATCH
  6
Continuous
 62
     7
370
    30
100
AcDbLine
 10
33.814927
 20
-6.718125
 30
0.0
 11
33.78425
 21
-6.700417
 31
0.0
  0
LINE
  5
19F
330
5C0
100
AcDbEntity
  8
HATCH
  6
Continuous
 62
     7
370
    30
100
AcDbLine
 10
33.735542
 20
-6.672292
 30
0.0
 11
33.686823
 21
-6.644167
 31
0.0
  0
LINE
  5
1A0
330
5C0
100
AcDbEntity
  8
HATCH
  6
Continuous
 62
     7
370
    30
100
AcDbLine
 10
33.638115
 20
-6.616042
 30
0.0
 11
33.589396
 21
-6.587917
 31
0.0
  0
LINE
  5
1A1
330
5C0
100
AcDbEntity
  8
HATCH
  6
Continuous
 62
     7
370
    30
100
AcDbLine
 10
33.540687
 20
-6.559792
 30
0.0
 11
33.491969
 21
-6.531667
 31
0.0
  0
LINE
  5
1A2
330
5C0
100
AcDbEntity
  8
HATCH
  6
Continuous
 62
     7
370
    30
100
AcDbLine
 10
33.44326
 20
-6.503542
 30
0.0
 11
33.394542
 21
-6.475417
 31
0.0
  0
LINE
  5
1A3
330
5C0
100
AcDbEntity
  8
HATCH
  6
Continuous
 62
     7
370
    30
100
AcDbLine
 10
33.345833
 20
-6.447292
 30
0.0
 11
33.29899
 21
-6.42025
 31
0.0
  0
LINE
  5
1A4
330
5C0
100
AcDbEntity
  8
HATCH
  6
Continuous
 62
     7
370
    30
100
AcDbLine
 10
33.612781
 20
-6.713917
 30
0.0
 11
33.589396
 21
-6.700417
 31
0.0
  0
LINE
  5
1A5
330
5C0
100
AcDbEntity
  8
HATCH
  6
Continuous
 62
     7
370
    30
100
AcDbLine
 10
33.540687
 20
-6.672292
 30
0.0
 11
33.496698
 21
-6.646896
 31
0.0
  0
LINE
  5
1A6
330
5C0
100
AcDbEntity
  8
HATCH
  6
Continuous
 62
     7
370
    30
100
AcDbLine
 10
33.881687
 20
-6.531667
 30
0.0
 11
33.881687
 21
-6.587917
 31
0.0
  0
LINE
  5
1A7
330
5C0
100
AcDbEntity
  8
HATCH
  6
Continuous
 62
     7
370
    30
100
AcDbLine
 10
33.881687
 20
-6.644167
 30
0.0
 11
33.881687
 21
-6.700417
 31
0.0
  0
LINE
  5
1A8
330
5C0
100
AcDbEntity
  8
HATCH
  6
Continuous
 62
     7
370
    30
100
AcDbLine
 10
33.78425
 20
-6.475417
 30
0.0
 11
33.78425
 21
-6.531667
 31
0.0
  0
LINE
  5
1A9
330
5C0
100
AcDbEntity
  8
HATCH
  6
Continuous
 62
     7
370
    30
100
AcDbLine
 10
33.78425
 20
-6.587917
 30
0.0
 11
33.78425
 21
-6.644167
 31
0.0
  0
LINE
  5
1AA
330
5C0
100
AcDbEntity
  8
HATCH
  6
Continuous
 62
     7
370
    30
100
AcDbLine
 10
33.78425
 20
-6.700417
 30
0.0
 11
33.78425
 21
-6.71749
 31
0.0
  0
LINE
  5
1AB
330
5C0
100
AcDbEntity
  8
HATCH
  6
Continuous
 62
     7
370
    30
100
AcDbLine
 10
33.686823
 20
-6.419167
 30
0.0
 11
33.686823
 21
-6.475417
 31
0.0
  0
LINE
  5
1AC
330
5C0
100
AcDbEntity
  8
HATCH
  6
Continuous
 62
     7
370
    30
100
AcDbLine
 10
33.686823
 20
-6.531667
 30
0.0
 11
33.686823
 21
-6.587917
 31
0.0
  0
LINE
  5
1AD
330
5C0
100
AcDbEntity
  8
HATCH
  6
Continuous
 62
     7
370
    30
100
AcDbLine
 10
33.686823
 20
-6.644167
 30
0.0
 11
33.686823
 21
-6.700417
 31
0.0
  0
LINE
  5
1AE
330
5C0
100
AcDbEntity
  8
HATCH
  6
Continuous
 62
     7
370
    30
100
AcDbLine
 10
33.589396
 20
-6.362917
 30
0.0
 11
33.589396
 21
-6.419167
 31
0.0
  0
LINE
  5
1AF
330
5C0
100
AcDbEntity
  8
HATCH
  6
Continuous
 62
     7
370
    30
100
AcDbLine
 10
33.589396
 20
-6.475417
 30
0.0
 11
33.589396
 21
-6.531667
 31
0.0
  0
LINE
  5
1B0
330
5C0
100
AcDbEntity
  8
HATCH
  6
Continuous
 62
     7
370
    30
100
AcDbLine
 10
33.589396
 20
-6.587917
 30
0.0
 11
33.589396
 21
-6.644167
 31
0.0
  0
LINE
  5
1B1
330
5C0
100
AcDbEntity
  8
HATCH
  6
Continuous
 62
     7
370
    30
100
AcDbLine
 10
33.589396
 20
-6.700417
 30
0.0
 11
33.589396
 21
-6.713427
 31
0.0
  0
LINE
  5
1B2
330
5C0
100
AcDbEntity
  8
HATCH
  6
Continuous
 62
     7
370
    30
100
AcDbLine
 10
33.491969
 20
-6.306667
 30
0.0
 11
33.491969
 21
-6.362917
 31
0.0
  0
LINE
  5
1B3
330
5C0
100
AcDbEntity
  8
HATCH
  6
Continuous
 62
     7
370
    30
100
AcDbLine
 10
33.491969
 20
-6.419167
 30
0.0
 11
33.491969
 21
-6.475417
 31
0.0
  0
LINE
  5
1B4
330
5C0
100
AcDbEntity
  8
HATCH
  6
Continuous
 62
     7
370
    30
100
AcDbLine
 10
33.491969
 20
-6.531667
 30
0.0
 11
33.491969
 21
-6.587917
 31
0.0
  0
LINE
  5
1B5
330
5C0
100
AcDbEntity
  8
HATCH
  6
Continuous
 62
     7
370
    30
100
AcDbLine
 10
33.394542
 20
-6.257125
 30
0.0
 11
33.394542
 21
-6.306667
 31
0.0
  0
LINE
  5
1B6
330
5C0
100
AcDbEntity
  8
HATCH
  6
Continuous
 62
     7
370
    30
100
AcDbLine
 10
33.394542
 20
-6.362917
 30
0.0
 11
33.394542
 21
-6.419167
 31
0.0
  0
LINE
  5
1B7
330
5C0
100
AcDbEntity
  8
HATCH
  6
Continuous
 62
     7
370
    30
100
AcDbLine
 10
33.394542
 20
-6.475417
 30
0.0
 11
33.394542
 21
-6.531667
 31
0.0
  0
LINE
  5
1B8
330
5C0
100
AcDbEntity
  8
HATCH
  6
Continuous
 62
     7
370
    30
100
AcDbLine
 10
33.297115
 20
-6.306667
 30
0.0
 11
33.297115
 21
-6.362917
 31
0.0
  0
LINE
  5
1B9
330
5C0
100
AcDbEntity
  8
HATCH
  6
Continuous
 62
     7
370
    30
100
AcDbLine
 10
33.979115
 20
-6.587917
 30
0.0
 11
33.979115
 21
-6.644167
 31
0.0
  0
LINE
  5
1BA
330
5C0
100
AcDbEntity
  8
HATCH
  6
Continuous
 62
     7
370
    30
100
AcDbLine
 10
33.979115
 20
-6.700417
 30
0.0
 11
33.979115
 21
-6.721552
 31
0.0
  0
LINE
  5
1BB
330
5C0
100
AcDbEntity
  8
HATCH
  6
Continuous
 62
     7
370
    30
100
AcDbLine
 10
34.076542
 20
-6.644167
 30
0.0
 11
34.076542
 21
-6.700417
 31
0.0
  0
LINE
  5
1BC
330
5C0
100
AcDbEntity
  8
HATCH
  6
Continuous
 62
     7
370
    30
100
AcDbLine
 10
34.173969
 20
-6.637344
 30
0.0
 11
34.173969
 21
-6.644167
 31
0.0
  0
LINE
  5
1BD
330
5C0
100
AcDbEntity
  8
HATCH
  6
Continuous
 62
     7
370
    30
100
AcDbLine
 10
34.173969
 20
-6.700417
 30
0.0
 11
34.173969
 21
-6.725604
 31
0.0
  0
LINE
  5
1BE
330
5C0
100
AcDbEntity
  8
HATCH
  6
Continuous
 62
     7
370
    30
100
AcDbLine
 10
34.271396
 20
-6.686052
 30
0.0
 11
34.271396
 21
-6.700417
 31
0.0
  0
LINE
  5
1BF
330
5C0
100
AcDbEntity
  8
HATCH
  6
Continuous
 62
     7
370
    30
100
AcDbLine
 10
28.353469
 20
-7.138219
 30
0.0
 11
28.424177
 21
-7.208927
 31
0.0
  0
LINE
  5
1C0
330
5C0
100
AcDbEntity
  8
HATCH
  6
Continuous
 62
     7
370
    30
100
AcDbLine
 10
28.404073
 20
-7.047406
 30
0.0
 11
28.424177
 21
-7.06751
 31
0.0
  0
LINE
  5
1C1
330
5C0
100
AcDbEntity
  8
HATCH
  6
Continuous
 62
     7
370
    30
100
AcDbLine
 10
28.494896
 20
-7.138219
 30
0.0
 11
28.565604
 21
-7.208927
 31
0.0
  0
LINE
  5
1C2
330
5C0
100
AcDbEntity
  8
HATCH
  6
Continuous
 62
     7
370
    30
100
AcDbLine
 10
28.500562
 20
-7.002469
 30
0.0
 11
28.565604
 21
-7.06751
 31
0.0
  0
LINE
  5
1C3
330
5C0
100
AcDbEntity
  8
HATCH
  6
Continuous
 62
     7
370
    30
100
AcDbLine
 10
28.636312
 20
-7.138219
 30
0.0
 11
28.707021
 21
-7.208927
 31
0.0
  0
LINE
  5
1C4
330
5C0
100
AcDbEntity
  8
HATCH
  6
Continuous
 62
     7
370
    30
100
AcDbLine
 10
28.639094
 20
-6.999583
 30
0.0
 11
28.707021
 21
-7.06751
 31
0.0
  0
LINE
  5
1C5
330
5C0
100
AcDbEntity
  8
HATCH
  6
Continuous
 62
     7
370
    30
100
AcDbLine
 10
28.77774
 20
-7.138219
 30
0.0
 11
28.848448
 21
-7.208927
 31
0.0
  0
LINE
  5
1C6
330
5C0
100
AcDbEntity
  8
HATCH
  6
Continuous
 62
     7
370
    30
100
AcDbLine
 10
28.77774
 20
-6.996802
 30
0.0
 11
28.848448
 21
-7.06751
 31
0.0
  0
LINE
  5
1C7
330
5C0
100
AcDbEntity
  8
HATCH
  6
Continuous
 62
     7
370
    30
100
AcDbLine
 10
28.919156
 20
-7.138219
 30
0.0
 11
28.989865
 21
-7.208927
 31
0.0
  0
LINE
  5
1C8
330
5C0
100
AcDbEntity
  8
HATCH
  6
Continuous
 62
     7
370
    30
100
AcDbLine
 10
28.919156
 20
-6.996802
 30
0.0
 11
28.989865
 21
-7.06751
 31
0.0
  0
LINE
  5
1C9
330
5C0
100
AcDbEntity
  8
HATCH
  6
Continuous
 62
     7
370
    30
100
AcDbLine
 10
28.215427
 20
-7.141604
 30
0.0
 11
28.28276
 21
-7.208927
 31
0.0
  0
LINE
  5
1CA
330
5C0
100
AcDbEntity
  8
HATCH
  6
Continuous
 62
     7
370
    30
100
AcDbLine
 10
28.353469
 20
-7.279635
 30
0.0
 11
28.371375
 21
-7.297552
 31
0.0
  0
LINE
  5
1CB
330
5C0
100
AcDbEntity
  8
HATCH
  6
Continuous
 62
     7
370
    30
100
AcDbLine
 10
28.121104
 20
-7.188698
 30
0.0
 11
28.141333
 21
-7.208927
 31
0.0
  0
LINE
  5
1CC
330
5C0
100
AcDbEntity
  8
HATCH
  6
Continuous
 62
     7
370
    30
100
AcDbLine
 10
28.212052
 20
-7.279635
 30
0.0
 11
28.278156
 21
-7.34575
 31
0.0
  0
LINE
  5
1CD
330
5C0
100
AcDbEntity
  8
HATCH
  6
Continuous
 62
     7
370
    30
100
AcDbLine
 10
28.070625
 20
-7.279635
 30
0.0
 11
28.141333
 21
-7.350354
 31
0.0
  0
LINE
  5
1CE
330
5C0
100
AcDbEntity
  8
HATCH
  6
Continuous
 62
     7
370
    30
100
AcDbLine
 10
27.932458
 20
-7.282896
 30
0.0
 11
27.999917
 21
-7.350354
 31
0.0
  0
LINE
  5
1CF
330
5C0
100
AcDbEntity
  8
HATCH
  6
Continuous
 62
     7
370
    30
100
AcDbLine
 10
28.070625
 20
-7.421062
 30
0.0
 11
28.091708
 21
-7.442146
 31
0.0
  0
LINE
  5
1D0
330
5C0
100
AcDbEntity
  8
HATCH
  6
Continuous
 62
     7
370
    30
100
AcDbLine
 10
27.951229
 20
-7.443083
 30
0.0
 11
27.99849
 21
-7.490344
 31
0.0
  0
LINE
  5
1D1
330
5C0
100
AcDbEntity
  8
HATCH
  6
Continuous
 62
     7
370
    30
100
AcDbLine
 10
28.37999
 20
-7.111698
 30
0.0
 11
28.450698
 21
-7.182417
 31
0.0
  0
LINE
  5
1D2
330
5C0
100
AcDbEntity
  8
HATCH
  6
Continuous
 62
     7
370
    30
100
AcDbLine
 10
28.439448
 20
-7.02974
 30
0.0
 11
28.450698
 21
-7.04099
 31
0.0
  0
LINE
  5
1D3
330
5C0
100
AcDbEntity
  8
HATCH
  6
Continuous
 62
     7
370
    30
100
AcDbLine
 10
28.521406
 20
-7.111698
 30
0.0
 11
28.592115
 21
-7.182417
 31
0.0
  0
LINE
  5
1D4
330
5C0
100
AcDbEntity
  8
HATCH
  6
Continuous
 62
     7
370
    30
100
AcDbLine
 10
28.55251
 20
-7.001385
 30
0.0
 11
28.592115
 21
-7.04099
 31
0.0
  0
LINE
  5
1D5
330
5C0
100
AcDbEntity
  8
HATCH
  6
Continuous
 62
     7
370
    30
100
AcDbLine
 10
28.662833
 20
-7.111698
 30
0.0
 11
28.733542
 21
-7.182417
 31
0.0
  0
LINE
  5
1D6
330
5C0
100
AcDbEntity
  8
HATCH
  6
Continuous
 62
     7
370
    30
100
AcDbLine
 10
28.691042
 20
-6.9985
 30
0.0
 11
28.733542
 21
-7.04099
 31
0.0
  0
LINE
  5
1D7
330
5C0
100
AcDbEntity
  8
HATCH
  6
Continuous
 62
     7
370
    30
100
AcDbLine
 10
28.80425
 20
-7.111698
 30
0.0
 11
28.874958
 21
-7.182417
 31
0.0
  0
LINE
  5
1D8
330
5C0
100
AcDbEntity
  8
HATCH
  6
Continuous
 62
     7
370
    30
100
AcDbLine
 10
28.829583
 20
-6.995615
 30
0.0
 11
28.874958
 21
-7.04099
 31
0.0
  0
LINE
  5
1D9
330
5C0
100
AcDbEntity
  8
HATCH
  6
Continuous
 62
     7
370
    30
100
AcDbLine
 10
28.945677
 20
-7.111698
 30
0.0
 11
28.998406
 21
-7.164427
 31
0.0
  0
LINE
  5
1DA
330
5C0
100
AcDbEntity
  8
HATCH
  6
Continuous
 62
     7
370
    30
100
AcDbLine
 10
28.968115
 20
-6.992729
 30
0.0
 11
28.995396
 21
-7.02
 31
0.0
  0
LINE
  5
1DB
330
5C0
100
AcDbEntity
  8
HATCH
  6
Continuous
 62
     7
370
    30
100
AcDbLine
 10
28.250802
 20
-7.123937
 30
0.0
 11
28.309281
 21
-7.182417
 31
0.0
  0
LINE
  5
1DC
330
5C0
100
AcDbEntity
  8
HATCH
  6
Continuous
 62
     7
370
    30
100
AcDbLine
 10
28.37999
 20
-7.253125
 30
0.0
 11
28.406333
 21
-7.279469
 31
0.0
  0
LINE
  5
1DD
330
5C0
100
AcDbEntity
  8
HATCH
  6
Continuous
 62
     7
370
    30
100
AcDbLine
 10
28.156479
 20
-7.171031
 30
0.0
 11
28.167854
 21
-7.182417
 31
0.0
  0
LINE
  5
1DE
330
5C0
100
AcDbEntity
  8
HATCH
  6
Continuous
 62
     7
370
    30
100
AcDbLine
 10
28.238563
 20
-7.253125
 30
0.0
 11
28.309281
 21
-7.323833
 31
0.0
  0
LINE
  5
1DF
330
5C0
100
AcDbEntity
  8
HATCH
  6
Continuous
 62
     7
370
    30
100
AcDbLine
 10
28.097146
 20
-7.253125
 30
0.0
 11
28.167854
 21
-7.323833
 31
0.0
  0
LINE
  5
1E0
330
5C0
100
AcDbEntity
  8
HATCH
  6
Continuous
 62
     7
370
    30
100
AcDbLine
 10
27.967833
 20
-7.265229
 30
0.0
 11
28.026438
 21
-7.323833
 31
0.0
  0
LINE
  5
1E1
330
5C0
100
AcDbEntity
  8
HATCH
  6
Continuous
 62
     7
370
    30
100
AcDbLine
 10
28.097146
 20
-7.394542
 30
0.0
 11
28.126667
 21
-7.424073
 31
0.0
  0
LINE
  5
1E2
330
5C0
100
AcDbEntity
  8
HATCH
  6
Continuous
 62
     7
370
    30
100
AcDbLine
 10
27.955719
 20
-7.394542
 30
0.0
 11
28.026438
 21
-7.46526
 31
0.0
  0
LINE
  5
1E3
330
5C0
100
AcDbEntity
  8
HATCH
  6
Continuous
 62
     7
370
    30
100
AcDbLine
 10
28.4065
 20
-7.085187
 30
0.0
 11
28.477219
 21
-7.155896
 31
0.0
  0
LINE
  5
1E4
330
5C0
100
AcDbEntity
  8
HATCH
  6
Continuous
 62
     7
370
    30
100
AcDbLine
 10
28.547927
 20
-7.226604
 30
0.0
 11
28.555917
 21
-7.234594
 31
0.0
  0
LINE
  5
1E5
330
5C0
100
AcDbEntity
  8
HATCH
  6
Continuous
 62
     7
370
    30
100
AcDbLine
 10
28.474812
 20
-7.012083
 30
0.0
 11
28.477219
 21
-7.014479
 31
0.0
  0
LINE
  5
1E6
330
5C0
100
AcDbEntity
  8
HATCH
  6
Continuous
 62
     7
370
    30
100
AcDbLine
 10
28.547927
 20
-7.085187
 30
0.0
 11
28.618635
 21
-7.155896
 31
0.0
  0
LINE
  5
1E7
330
5C0
100
AcDbEntity
  8
HATCH
  6
Continuous
 62
     7
370
    30
100
AcDbLine
 10
28.689344
 20
-7.226604
 30
0.0
 11
28.695427
 21
-7.232687
 31
0.0
  0
LINE
  5
1E8
330
5C0
100
AcDbEntity
  8
HATCH
  6
Continuous
 62
     7
370
    30
100
AcDbLine
 10
28.604458
 20
-7.000302
 30
0.0
 11
28.618635
 21
-7.014479
 31
0.0
  0
LINE
  5
1E9
330
5C0
100
AcDbEntity
  8
HATCH
  6
Continuous
 62
     7
370
    30
100
AcDbLine
 10
28.689344
 20
-7.085187
 30
0.0
 11
28.760052
 21
-7.155896
 31
0.0
  0
LINE
  5
1EA
330
5C0
100
AcDbEntity
  8
HATCH
  6
Continuous
 62
     7
370
    30
100
AcDbLine
 10
28.830771
 20
-7.226604
 30
0.0
 11
28.834937
 21
-7.230771
 31
0.0
  0
LINE
  5
1EB
330
5C0
100
AcDbEntity
  8
HATCH
  6
Continuous
 62
     7
370
    30
100
AcDbLine
 10
28.743
 20
-6.997417
 30
0.0
 11
28.760052
 21
-7.014479
 31
0.0
  0
LINE
  5
1EC
330
5C0
100
AcDbEntity
  8
HATCH
  6
Continuous
 62
     7
370
    30
100
AcDbLine
 10
28.830771
 20
-7.085187
 30
0.0
 11
28.901479
 21
-7.155896
 31
0.0
  0
LINE
  5
1ED
330
5C0
100
AcDbEntity
  8
HATCH
  6
Continuous
 62
     7
370
    30
100
AcDbLine
 10
28.972188
 20
-7.226604
 30
0.0
 11
28.974448
 21
-7.228865
 31
0.0
  0
LINE
  5
1EE
330
5C0
100
AcDbEntity
  8
HATCH
  6
Continuous
 62
     7
370
    30
100
AcDbLine
 10
28.881531
 20
-6.994531
 30
0.0
 11
28.901479
 21
-7.014479
 31
0.0
  0
LINE
  5
1EF
330
5C0
100
AcDbEntity
  8
HATCH
  6
Continuous
 62
     7
370
    30
100
AcDbLine
 10
28.972188
 20
-7.085187
 30
0.0
 11
28.997271
 21
-7.110271
 31
0.0
  0
LINE
  5
1F0
330
5C0
100
AcDbEntity
  8
HATCH
  6
Continuous
 62
     7
370
    30
100
AcDbLine
 10
28.286167
 20
-7.106271
 30
0.0
 11
28.335792
 21
-7.155896
 31
0.0
  0
LINE
  5
1F1
330
5C0
100
AcDbEntity
  8
HATCH
  6
Continuous
 62
     7
370
    30
100
AcDbLine
 10
28.4065
 20
-7.226604
 30
0.0
 11
28.441292
 21
-7.261396
 31
0.0
  0
LINE
  5
1F2
330
5C0
100
AcDbEntity
  8
HATCH
  6
Continuous
 62
     7
370
    30
100
AcDbLine
 10
28.191844
 20
-7.153375
 30
0.0
 11
28.194375
 21
-7.155896
 31
0.0
  0
LINE
  5
1F3
330
5C0
100
AcDbEntity
  8
HATCH
  6
Continuous
 62
     7
370
    30
100
AcDbLine
 10
28.265083
 20
-7.226604
 30
0.0
 11
28.335792
 21
-7.297323
 31
0.0
  0
LINE
  5
1F4
330
5C0
100
AcDbEntity
  8
HATCH
  6
Continuous
 62
     7
370
    30
100
AcDbLine
 10
28.123656
 20
-7.226604
 30
0.0
 11
28.194375
 21
-7.297323
 31
0.0
  0
LINE
  5
1F5
330
5C0
100
AcDbEntity
  8
HATCH
  6
Continuous
 62
     7
370
    30
100
AcDbLine
 10
28.003208
 20
-7.247573
 30
0.0
 11
28.052948
 21
-7.297323
 31
0.0
  0
LINE
  5
1F6
330
5C0
100
AcDbEntity
  8
HATCH
  6
Continuous
 62
     7
370
    30
100
AcDbLine
 10
28.123656
 20
-7.368031
 30
0.0
 11
28.161625
 21
-7.406
 31
0.0
  0
LINE
  5
1F7
330
5C0
100
AcDbEntity
  8
HATCH
  6
Continuous
 62
     7
370
    30
100
AcDbLine
 10
27.908885
 20
-7.294667
 30
0.0
 11
27.911531
 21
-7.297323
 31
0.0
  0
LINE
  5
1F8
330
5C0
100
AcDbEntity
  8
HATCH
  6
Continuous
 62
     7
370
    30
100
AcDbLine
 10
27.98224
 20
-7.368031
 30
0.0
 11
28.052948
 21
-7.43874
 31
0.0
  0
LINE
  5
1F9
330
5C0
100
AcDbEntity
  8
HATCH
  6
Continuous
 62
     7
370
    30
100
AcDbLine
 10
28.333823
 20
-7.316969
 30
0.0
 11
28.353469
 21
-7.297323
 31
0.0
  0
LINE
  5
1FA
330
5C0
100
AcDbEntity
  8
HATCH
  6
Continuous
 62
     7
370
    30
100
AcDbLine
 10
28.424177
 20
-7.226604
 30
0.0
 11
28.494896
 21
-7.155896
 31
0.0
  0
LINE
  5
1FB
330
5C0
100
AcDbEntity
  8
HATCH
  6
Continuous
 62
     7
370
    30
100
AcDbLine
 10
28.565604
 20
-7.085187
 30
0.0
 11
28.636312
 21
-7.014479
 31
0.0
  0
LINE
  5
1FC
330
5C0
100
AcDbEntity
  8
HATCH
  6
Continuous
 62
     7
370
    30
100
AcDbLine
 10
28.04101
 20
-7.468365
 30
0.0
 11
28.070625
 21
-7.43874
 31
0.0
  0
LINE
  5
1FD
330
5C0
100
AcDbEntity
  8
HATCH
  6
Continuous
 62
     7
370
    30
100
AcDbLine
 10
28.141333
 20
-7.368031
 30
0.0
 11
28.212052
 21
-7.297323
 31
0.0
  0
LINE
  5
1FE
330
5C0
100
AcDbEntity
  8
HATCH
  6
Continuous
 62
     7
370
    30
100
AcDbLine
 10
28.28276
 20
-7.226604
 30
0.0
 11
28.353469
 21
-7.155896
 31
0.0
  0
LINE
  5
1FF
330
5C0
100
AcDbEntity
  8
HATCH
  6
Continuous
 62
     7
370
    30
100
AcDbLine
 10
28.424177
 20
-7.085187
 30
0.0
 11
28.494896
 21
-7.014479
 31
0.0
  0
LINE
  5
200
330
5C0
100
AcDbEntity
  8
HATCH
  6
Continuous
 62
     7
370
    30
100
AcDbLine
 10
27.999917
 20
-7.368031
 30
0.0
 11
28.070625
 21
-7.297323
 31
0.0
  0
LINE
  5
201
330
5C0
100
AcDbEntity
  8
HATCH
  6
Continuous
 62
     7
370
    30
100
AcDbLine
 10
28.141333
 20
-7.226604
 30
0.0
 11
28.212052
 21
-7.155896
 31
0.0
  0
LINE
  5
202
330
5C0
100
AcDbEntity
  8
HATCH
  6
Continuous
 62
     7
370
    30
100
AcDbLine
 10
27.895427
 20
-7.331094
 30
0.0
 11
27.929208
 21
-7.297323
 31
0.0
  0
LINE
  5
203
330
5C0
100
AcDbEntity
  8
HATCH
  6
Continuous
 62
     7
370
    30
100
AcDbLine
 10
28.565604
 20
-7.226604
 30
0.0
 11
28.636312
 21
-7.155896
 31
0.0
  0
LINE
  5
204
330
5C0
100
AcDbEntity
  8
HATCH
  6
Continuous
 62
     7
370
    30
100
AcDbLine
 10
28.707021
 20
-7.085187
 30
0.0
 11
28.77774
 21
-7.014479
 31
0.0
  0
LINE
  5
205
330
5C0
100
AcDbEntity
  8
HATCH
  6
Continuous
 62
     7
370
    30
100
AcDbLine
 10
28.707021
 20
-7.226604
 30
0.0
 11
28.77774
 21
-7.155896
 31
0.0
  0
LINE
  5
206
330
5C0
100
AcDbEntity
  8
HATCH
  6
Continuous
 62
     7
370
    30
100
AcDbLine
 10
28.848448
 20
-7.085187
 30
0.0
 11
28.919156
 21
-7.014479
 31
0.0
  0
LINE
  5
207
330
5C0
100
AcDbEntity
  8
HATCH
  6
Continuous
 62
     7
370
    30
100
AcDbLine
 10
28.848448
 20
-7.226604
 30
0.0
 11
28.919156
 21
-7.155896
 31
0.0
  0
LINE
  5
208
330
5C0
100
AcDbEntity
  8
HATCH
  6
Continuous
 62
     7
370
    30
100
AcDbLine
 10
28.989865
 20
-7.085187
 30
0.0
 11
28.996615
 21
-7.078437
 31
0.0
  0
LINE
  5
209
330
5C0
100
AcDbEntity
  8
HATCH
  6
Continuous
 62
     7
370
    30
100
AcDbLine
 10
28.989865
 20
-7.226604
 30
0.0
 11
28.9995
 21
-7.216979
 31
0.0
  0
LINE
  5
20A
330
5C0
100
AcDbEntity
  8
HATCH
  6
Continuous
 62
     7
370
    30
100
AcDbLine
 10
28.167854
 20
-7.394542
 30
0.0
 11
28.238563
 21
-7.323833
 31
0.0
  0
LINE
  5
20B
330
5C0
100
AcDbEntity
  8
HATCH
  6
Continuous
 62
     7
370
    30
100
AcDbLine
 10
28.309281
 20
-7.253125
 30
0.0
 11
28.37999
 21
-7.182417
 31
0.0
  0
LINE
  5
20C
330
5C0
100
AcDbEntity
  8
HATCH
  6
Continuous
 62
     7
370
    30
100
AcDbLine
 10
28.450698
 20
-7.111698
 30
0.0
 11
28.521406
 21
-7.04099
 31
0.0
  0
LINE
  5
20D
330
5C0
100
AcDbEntity
  8
HATCH
  6
Continuous
 62
     7
370
    30
100
AcDbLine
 10
28.026438
 20
-7.394542
 30
0.0
 11
28.097146
 21
-7.323833
 31
0.0
  0
LINE
  5
20E
330
5C0
100
AcDbEntity
  8
HATCH
  6
Continuous
 62
     7
370
    30
100
AcDbLine
 10
28.167854
 20
-7.253125
 30
0.0
 11
28.238563
 21
-7.182417
 31
0.0
  0
LINE
  5
20F
330
5C0
100
AcDbEntity
  8
HATCH
  6
Continuous
 62
     7
370
    30
100
AcDbLine
 10
28.309281
 20
-7.111698
 30
0.0
 11
28.343156
 21
-7.077823
 31
0.0
  0
LINE
  5
210
330
5C0
100
AcDbEntity
  8
HATCH
  6
Continuous
 62
     7
370
    30
100
AcDbLine
 10
27.913062
 20
-7.36649
 30
0.0
 11
27.955719
 21
-7.323833
 31
0.0
  0
LINE
  5
211
330
5C0
100
AcDbEntity
  8
HATCH
  6
Continuous
 62
     7
370
    30
100
AcDbLine
 10
28.026438
 20
-7.253125
 30
0.0
 11
28.060688
 21
-7.218865
 31
0.0
  0
LINE
  5
212
330
5C0
100
AcDbEntity
  8
HATCH
  6
Continuous
 62
     7
370
    30
100
AcDbLine
 10
28.450698
 20
-7.253125
 30
0.0
 11
28.521406
 21
-7.182417
 31
0.0
  0
LINE
  5
213
330
5C0
100
AcDbEntity
  8
HATCH
  6
Continuous
 62
     7
370
    30
100
AcDbLine
 10
28.592115
 20
-7.111698
 30
0.0
 11
28.662833
 21
-7.04099
 31
0.0
  0
LINE
  5
214
330
5C0
100
AcDbEntity
  8
HATCH
  6
Continuous
 62
     7
370
    30
100
AcDbLine
 10
28.611406
 20
-7.233833
 30
0.0
 11
28.662833
 21
-7.182417
 31
0.0
  0
LINE
  5
215
330
5C0
100
AcDbEntity
  8
HATCH
  6
Continuous
 62
     7
370
    30
100
AcDbLine
 10
28.733542
 20
-7.111698
 30
0.0
 11
28.80425
 21
-7.04099
 31
0.0
  0
LINE
  5
216
330
5C0
100
AcDbEntity
  8
HATCH
  6
Continuous
 62
     7
370
    30
100
AcDbLine
 10
28.754792
 20
-7.231875
 30
0.0
 11
28.80425
 21
-7.182417
 31
0.0
  0
LINE
  5
217
330
5C0
100
AcDbEntity
  8
HATCH
  6
Continuous
 62
     7
370
    30
100
AcDbLine
 10
28.874958
 20
-7.111698
 30
0.0
 11
28.945677
 21
-7.04099
 31
0.0
  0
LINE
  5
218
330
5C0
100
AcDbEntity
  8
HATCH
  6
Continuous
 62
     7
370
    30
100
AcDbLine
 10
28.898177
 20
-7.229906
 30
0.0
 11
28.945677
 21
-7.182417
 31
0.0
  0
LINE
  5
219
330
5C0
100
AcDbEntity
  8
HATCH
  6
Continuous
 62
     7
370
    30
100
AcDbLine
 10
28.260615
 20
-7.354812
 30
0.0
 11
28.265083
 21
-7.350354
 31
0.0
  0
LINE
  5
21A
330
5C0
100
AcDbEntity
  8
HATCH
  6
Continuous
 62
     7
370
    30
100
AcDbLine
 10
28.335792
 20
-7.279635
 30
0.0
 11
28.4065
 21
-7.208927
 31
0.0
  0
LINE
  5
21B
330
5C0
100
AcDbEntity
  8
HATCH
  6
Continuous
 62
     7
370
    30
100
AcDbLine
 10
28.477219
 20
-7.138219
 30
0.0
 11
28.547927
 21
-7.06751
 31
0.0
  0
LINE
  5
21C
330
5C0
100
AcDbEntity
  8
HATCH
  6
Continuous
 62
     7
370
    30
100
AcDbLine
 10
27.97774
 20
-7.496271
 30
0.0
 11
27.98224
 21
-7.491771
 31
0.0
  0
LINE
  5
21D
330
5C0
100
AcDbEntity
  8
HATCH
  6
Continuous
 62
     7
370
    30
100
AcDbLine
 10
28.052948
 20
-7.421062
 30
0.0
 11
28.123656
 21
-7.350354
 31
0.0
  0
LINE
  5
21E
330
5C0
100
AcDbEntity
  8
HATCH
  6
Continuous
 62
     7
370
    30
100
AcDbLine
 10
28.194375
 20
-7.279635
 30
0.0
 11
28.265083
 21
-7.208927
 31
0.0
  0
LINE
  5
21F
330
5C0
100
AcDbEntity
  8
HATCH
  6
Continuous
 62
     7
370
    30
100
AcDbLine
 10
28.335792
 20
-7.138219
 30
0.0
 11
28.4065
 21
-7.06751
 31
0.0
  0
LINE
  5
220
330
5C0
100
AcDbEntity
  8
HATCH
  6
Continuous
 62
     7
370
    30
100
AcDbLine
 10
27.930698
 20
-7.401885
 30
0.0
 11
27.98224
 21
-7.350354
 31
0.0
  0
LINE
  5
221
330
5C0
100
AcDbEntity
  8
HATCH
  6
Continuous
 62
     7
370
    30
100
AcDbLine
 10
28.052948
 20
-7.279635
 30
0.0
 11
28.123656
 21
-7.208927
 31
0.0
  0
LINE
  5
222
330
5C0
100
AcDbEntity
  8
HATCH
  6
Continuous
 62
     7
370
    30
100
AcDbLine
 10
28.521792
 20
-7.235062
 30
0.0
 11
28.547927
 21
-7.208927
 31
0.0
  0
LINE
  5
223
330
5C0
100
AcDbEntity
  8
HATCH
  6
Continuous
 62
     7
370
    30
100
AcDbLine
 10
28.618635
 20
-7.138219
 30
0.0
 11
28.689344
 21
-7.06751
 31
0.0
  0
LINE
  5
224
330
5C0
100
AcDbEntity
  8
HATCH
  6
Continuous
 62
     7
370
    30
100
AcDbLine
 10
28.665177
 20
-7.233104
 30
0.0
 11
28.689344
 21
-7.208927
 31
0.0
  0
LINE
  5
225
330
5C0
100
AcDbEntity
  8
HATCH
  6
Continuous
 62
     7
370
    30
100
AcDbLine
 10
28.760052
 20
-7.138219
 30
0.0
 11
28.830771
 21
-7.06751
 31
0.0
  0
LINE
  5
226
330
5C0
100
AcDbEntity
  8
HATCH
  6
Continuous
 62
     7
370
    30
100
AcDbLine
 10
28.901479
 20
-6.996802
 30
0.0
 11
28.904219
 21
-6.994052
 31
0.0
  0
LINE
  5
227
330
5C0
100
AcDbEntity
  8
HATCH
  6
Continuous
 62
     7
370
    30
100
AcDbLine
 10
28.808563
 20
-7.231135
 30
0.0
 11
28.830771
 21
-7.208927
 31
0.0
  0
LINE
  5
228
330
5C0
100
AcDbEntity
  8
HATCH
  6
Continuous
 62
     7
370
    30
100
AcDbLine
 10
28.901479
 20
-7.138219
 30
0.0
 11
28.972188
 21
-7.06751
 31
0.0
  0
LINE
  5
229
330
5C0
100
AcDbEntity
  8
HATCH
  6
Continuous
 62
     7
370
    30
100
AcDbLine
 10
28.951948
 20
-7.229167
 30
0.0
 11
28.972188
 21
-7.208927
 31
0.0
  0
LINE
  5
22A
330
5C0
100
AcDbEntity
  8
HATCH
  6
Continuous
 62
     7
370
    30
100
AcDbLine
 10
29.019792
 20
-6.739937
 30
0.0
 11
29.019792
 21
-6.766042
 31
0.0
  0
LINE
  5
22B
330
5C0
100
AcDbEntity
  8
HATCH
  6
Continuous
 62
     7
370
    30
100
AcDbLine
 10
29.019792
 20
-6.841042
 30
0.0
 11
29.019792
 21
-6.878542
 31
0.0
  0
LINE
  5
22C
330
5C0
100
AcDbEntity
  8
HATCH
  6
Continuous
 62
     7
370
    30
100
AcDbLine
 10
29.019792
 20
-6.953542
 30
0.0
 11
29.019792
 21
-6.991042
 31
0.0
  0
LINE
  5
22D
330
5C0
100
AcDbEntity
  8
HATCH
  6
Continuous
 62
     7
370
    30
100
AcDbLine
 10
29.052271
 20
-6.784792
 30
0.0
 11
29.052271
 21
-6.822292
 31
0.0
  0
LINE
  5
22E
330
5C0
100
AcDbEntity
  8
HATCH
  6
Continuous
 62
     7
370
    30
100
AcDbLine
 10
29.052271
 20
-6.897292
 30
0.0
 11
29.052271
 21
-6.934792
 31
0.0
  0
LINE
  5
22F
330
5C0
100
AcDbEntity
  8
HATCH
  6
Continuous
 62
     7
370
    30
100
AcDbLine
 10
29.08475
 20
-6.737448
 30
0.0
 11
29.08475
 21
-6.766042
 31
0.0
  0
LINE
  5
230
330
5C0
100
AcDbEntity
  8
HATCH
  6
Continuous
 62
     7
370
    30
100
AcDbLine
 10
29.08475
 20
-6.841042
 30
0.0
 11
29.08475
 21
-6.878542
 31
0.0
  0
LINE
  5
231
330
5C0
100
AcDbEntity
  8
HATCH
  6
Continuous
 62
     7
370
    30
100
AcDbLine
 10
29.08475
 20
-6.953542
 30
0.0
 11
29.08475
 21
-6.990292
 31
0.0
  0
LINE
  5
232
330
5C0
100
AcDbEntity
  8
HATCH
  6
Continuous
 62
     7
370
    30
100
AcDbLine
 10
29.117219
 20
-6.784792
 30
0.0
 11
29.117219
 21
-6.822292
 31
0.0
  0
LINE
  5
233
330
5C0
100
AcDbEntity
  8
HATCH
  6
Continuous
 62
     7
370
    30
100
AcDbLine
 10
29.117219
 20
-6.897292
 30
0.0
 11
29.117219
 21
-6.934792
 31
0.0
  0
LINE
  5
234
330
5C0
100
AcDbEntity
  8
HATCH
  6
Continuous
 62
     7
370
    30
100
AcDbLine
 10
29.149698
 20
-6.736094
 30
0.0
 11
29.149698
 21
-6.766042
 31
0.0
  0
LINE
  5
235
330
5C0
100
AcDbEntity
  8
HATCH
  6
Continuous
 62
     7
370
    30
100
AcDbLine
 10
29.149698
 20
-6.841042
 30
0.0
 11
29.149698
 21
-6.878542
 31
0.0
  0
LINE
  5
236
330
5C0
100
AcDbEntity
  8
HATCH
  6
Continuous
 62
     7
370
    30
100
AcDbLine
 10
29.149698
 20
-6.953542
 30
0.0
 11
29.149698
 21
-6.988937
 31
0.0
  0
LINE
  5
237
330
5C0
100
AcDbEntity
  8
HATCH
  6
Continuous
 62
     7
370
    30
100
AcDbLine
 10
29.182177
 20
-6.784792
 30
0.0
 11
29.182177
 21
-6.822292
 31
0.0
  0
LINE
  5
238
330
5C0
100
AcDbEntity
  8
HATCH
  6
Continuous
 62
     7
370
    30
100
AcDbLine
 10
29.182177
 20
-6.897292
 30
0.0
 11
29.182177
 21
-6.934792
 31
0.0
  0
LINE
  5
239
330
5C0
100
AcDbEntity
  8
HATCH
  6
Continuous
 62
     7
370
    30
100
AcDbLine
 10
29.214646
 20
-6.73474
 30
0.0
 11
29.214646
 21
-6.766042
 31
0.0
  0
LINE
  5
23A
330
5C0
100
AcDbEntity
  8
HATCH
  6
Continuous
 62
     7
370
    30
100
AcDbLine
 10
29.214646
 20
-6.841042
 30
0.0
 11
29.214646
 21
-6.878542
 31
0.0
  0
LINE
  5
23B
330
5C0
100
AcDbEntity
  8
HATCH
  6
Continuous
 62
     7
370
    30
100
AcDbLine
 10
29.214646
 20
-6.953542
 30
0.0
 11
29.214646
 21
-6.987583
 31
0.0
  0
LINE
  5
23C
330
5C0
100
AcDbEntity
  8
HATCH
  6
Continuous
 62
     7
370
    30
100
AcDbLine
 10
29.247125
 20
-6.784792
 30
0.0
 11
29.247125
 21
-6.822292
 31
0.0
  0
LINE
  5
23D
330
5C0
100
AcDbEntity
  8
HATCH
  6
Continuous
 62
     7
370
    30
100
AcDbLine
 10
29.247125
 20
-6.897292
 30
0.0
 11
29.247125
 21
-6.934792
 31
0.0
  0
LINE
  5
23E
330
5C0
100
AcDbEntity
  8
HATCH
  6
Continuous
 62
     7
370
    30
100
AcDbLine
 10
29.279604
 20
-6.733385
 30
0.0
 11
29.279604
 21
-6.766042
 31
0.0
  0
LINE
  5
23F
330
5C0
100
AcDbEntity
  8
HATCH
  6
Continuous
 62
     7
370
    30
100
AcDbLine
 10
29.279604
 20
-6.841042
 30
0.0
 11
29.279604
 21
-6.878542
 31
0.0
  0
LINE
  5
240
330
5C0
100
AcDbEntity
  8
HATCH
  6
Continuous
 62
     7
370
    30
100
AcDbLine
 10
29.279604
 20
-6.953542
 30
0.0
 11
29.279604
 21
-6.98624
 31
0.0
  0
LINE
  5
241
330
5C0
100
AcDbEntity
  8
HATCH
  6
Continuous
 62
     7
370
    30
100
AcDbLine
 10
29.312073
 20
-6.784792
 30
0.0
 11
29.312073
 21
-6.822292
 31
0.0
  0
LINE
  5
242
330
5C0
100
AcDbEntity
  8
HATCH
  6
Continuous
 62
     7
370
    30
100
AcDbLine
 10
29.312073
 20
-6.897292
 30
0.0
 11
29.312073
 21
-6.934792
 31
0.0
  0
LINE
  5
243
330
5C0
100
AcDbEntity
  8
HATCH
  6
Continuous
 62
     7
370
    30
100
AcDbLine
 10
29.344552
 20
-6.732031
 30
0.0
 11
29.344552
 21
-6.766042
 31
0.0
  0
LINE
  5
244
330
5C0
100
AcDbEntity
  8
HATCH
  6
Continuous
 62
     7
370
    30
100
AcDbLine
 10
29.344552
 20
-6.841042
 30
0.0
 11
29.344552
 21
-6.878542
 31
0.0
  0
LINE
  5
245
330
5C0
100
AcDbEntity
  8
HATCH
  6
Continuous
 62
     7
370
    30
100
AcDbLine
 10
29.344552
 20
-6.953542
 30
0.0
 11
29.344552
 21
-6.984885
 31
0.0
  0
LINE
  5
246
330
5C0
100
AcDbEntity
  8
HATCH
  6
Continuous
 62
     7
370
    30
100
AcDbLine
 10
29.377031
 20
-6.784792
 30
0.0
 11
29.377031
 21
-6.822292
 31
0.0
  0
LINE
  5
247
330
5C0
100
AcDbEntity
  8
HATCH
  6
Continuous
 62
     7
370
    30
100
AcDbLine
 10
29.377031
 20
-6.897292
 30
0.0
 11
29.377031
 21
-6.934792
 31
0.0
  0
LINE
  5
248
330
5C0
100
AcDbEntity
  8
HATCH
  6
Continuous
 62
     7
370
    30
100
AcDbLine
 10
29.40951
 20
-6.730677
 30
0.0
 11
29.40951
 21
-6.766042
 31
0.0
  0
LINE
  5
249
330
5C0
100
AcDbEntity
  8
HATCH
  6
Continuous
 62
     7
370
    30
100
AcDbLine
 10
29.40951
 20
-6.841042
 30
0.0
 11
29.40951
 21
-6.878542
 31
0.0
  0
LINE
  5
24A
330
5C0
100
AcDbEntity
  8
HATCH
  6
Continuous
 62
     7
370
    30
100
AcDbLine
 10
29.441979
 20
-6.784792
 30
0.0
 11
29.441979
 21
-6.822292
 31
0.0
  0
LINE
  5
24B
330
5C0
100
AcDbEntity
  8
HATCH
  6
Continuous
 62
     7
370
    30
100
AcDbLine
 10
29.474458
 20
-6.729333
 30
0.0
 11
29.474458
 21
-6.766042
 31
0.0
  0
LINE
  5
24C
330
5C0
100
AcDbEntity
  8
HATCH
  6
Continuous
 62
     7
370
    30
100
AcDbLine
 10
29.506937
 20
-6.784792
 30
0.0
 11
29.506937
 21
-6.822292
 31
0.0
  0
LINE
  5
24D
330
5C0
100
AcDbEntity
  8
HATCH
  6
Continuous
 62
     7
370
    30
100
AcDbLine
 10
29.539406
 20
-6.728542
 30
0.0
 11
29.539406
 21
-6.766042
 31
0.0
  0
LINE
  5
24E
330
5C0
100
AcDbEntity
  8
HATCH
  6
Continuous
 62
     7
370
    30
100
AcDbLine
 10
29.604365
 20
-6.728542
 30
0.0
 11
29.604365
 21
-6.730437
 31
0.0
  0
LINE
  5
24F
330
5C0
100
AcDbEntity
  8
HATCH
  6
Continuous
 62
     7
370
    30
100
AcDbLine
 10
28.987323
 20
-6.784792
 30
0.0
 11
28.987323
 21
-6.822292
 31
0.0
  0
LINE
  5
250
330
5C0
100
AcDbEntity
  8
HATCH
  6
Continuous
 62
     7
370
    30
100
AcDbLine
 10
28.987323
 20
-6.897292
 30
0.0
 11
28.987323
 21
-6.934792
 31
0.0
  0
LINE
  5
251
330
5C0
100
AcDbEntity
  8
HATCH
  6
Continuous
 62
     7
370
    30
100
AcDbLine
 10
28.954844
 20
-6.841042
 30
0.0
 11
28.954844
 21
-6.878542
 31
0.0
  0
LINE
  5
252
330
5C0
100
AcDbEntity
  8
HATCH
  6
Continuous
 62
     7
370
    30
100
AcDbLine
 10
28.954844
 20
-6.953542
 30
0.0
 11
28.954844
 21
-6.991042
 31
0.0
  0
LINE
  5
253
330
5C0
100
AcDbEntity
  8
HATCH
  6
Continuous
 62
     7
370
    30
100
AcDbLine
 10
28.922365
 20
-6.788135
 30
0.0
 11
28.922365
 21
-6.822292
 31
0.0
  0
LINE
  5
254
330
5C0
100
AcDbEntity
  8
HATCH
  6
Continuous
 62
     7
370
    30
100
AcDbLine
 10
28.922365
 20
-6.897292
 30
0.0
 11
28.922365
 21
-6.934792
 31
0.0
  0
LINE
  5
255
330
5C0
100
AcDbEntity
  8
HATCH
  6
Continuous
 62
     7
370
    30
100
AcDbLine
 10
28.889885
 20
-6.841042
 30
0.0
 11
28.889885
 21
-6.878542
 31
0.0
  0
LINE
  5
256
330
5C0
100
AcDbEntity
  8
HATCH
  6
Continuous
 62
     7
370
    30
100
AcDbLine
 10
28.889885
 20
-6.953542
 30
0.0
 11
28.889885
 21
-6.991042
 31
0.0
  0
LINE
  5
257
330
5C0
100
AcDbEntity
  8
HATCH
  6
Continuous
 62
     7
370
    30
100
AcDbLine
 10
28.857417
 20
-6.82026
 30
0.0
 11
28.857417
 21
-6.822292
 31
0.0
  0
LINE
  5
258
330
5C0
100
AcDbEntity
  8
HATCH
  6
Continuous
 62
     7
370
    30
100
AcDbLine
 10
28.857417
 20
-6.897292
 30
0.0
 11
28.857417
 21
-6.934792
 31
0.0
  0
LINE
  5
259
330
5C0
100
AcDbEntity
  8
HATCH
  6
Continuous
 62
     7
370
    30
100
AcDbLine
 10
28.824938
 20
-6.841042
 30
0.0
 11
28.824938
 21
-6.878542
 31
0.0
  0
LINE
  5
25A
330
5C0
100
AcDbEntity
  8
HATCH
  6
Continuous
 62
     7
370
    30
100
AcDbLine
 10
28.824938
 20
-6.953542
 30
0.0
 11
28.824938
 21
-6.991042
 31
0.0
  0
LINE
  5
25B
330
5C0
100
AcDbEntity
  8
HATCH
  6
Continuous
 62
     7
370
    30
100
AcDbLine
 10
28.792458
 20
-6.897292
 30
0.0
 11
28.792458
 21
-6.934792
 31
0.0
  0
LINE
  5
25C
330
5C0
100
AcDbEntity
  8
HATCH
  6
Continuous
 62
     7
370
    30
100
AcDbLine
 10
28.75999
 20
-6.868448
 30
0.0
 11
28.75999
 21
-6.878542
 31
0.0
  0
LINE
  5
25D
330
5C0
100
AcDbEntity
  8
HATCH
  6
Continuous
 62
     7
370
    30
100
AcDbLine
 10
28.75999
 20
-6.953542
 30
0.0
 11
28.75999
 21
-6.991042
 31
0.0
  0
LINE
  5
25E
330
5C0
100
AcDbEntity
  8
HATCH
  6
Continuous
 62
     7
370
    30
100
AcDbLine
 10
28.72751
 20
-6.897292
 30
0.0
 11
28.72751
 21
-6.934792
 31
0.0
  0
LINE
  5
25F
330
5C0
100
AcDbEntity
  8
HATCH
  6
Continuous
 62
     7
370
    30
100
AcDbLine
 10
28.695031
 20
-6.953542
 30
0.0
 11
28.695031
 21
-6.991042
 31
0.0
  0
LINE
  5
260
330
5C0
100
AcDbEntity
  8
HATCH
  6
Continuous
 62
     7
370
    30
100
AcDbLine
 10
28.662562
 20
-6.916635
 30
0.0
 11
28.662562
 21
-6.934792
 31
0.0
  0
LINE
  5
261
330
5C0
100
AcDbEntity
  8
HATCH
  6
Continuous
 62
     7
370
    30
100
AcDbLine
 10
28.630083
 20
-6.953542
 30
0.0
 11
28.630083
 21
-6.991042
 31
0.0
  0
LINE
  5
262
330
5C0
100
AcDbEntity
  8
HATCH
  6
Continuous
 62
     7
370
    30
100
AcDbLine
 10
28.565135
 20
-6.964823
 30
0.0
 11
28.565135
 21
-6.991042
 31
0.0
  0
LINE
  5
263
330
5C0
100
AcDbEntity
  8
HATCH
  6
Continuous
 62
     7
370
    30
100
AcDbLine
 10
28.816552
 20
-6.995885
 30
0.0
 11
28.824938
 21
-6.991042
 31
0.0
  0
LINE
  5
264
330
5C0
100
AcDbEntity
  8
HATCH
  6
Continuous
 62
     7
370
    30
100
AcDbLine
 10
28.889885
 20
-6.953542
 30
0.0
 11
28.922365
 21
-6.934792
 31
0.0
  0
LINE
  5
265
330
5C0
100
AcDbEntity
  8
HATCH
  6
Continuous
 62
     7
370
    30
100
AcDbLine
 10
28.987323
 20
-6.897292
 30
0.0
 11
29.019792
 21
-6.878542
 31
0.0
  0
LINE
  5
266
330
5C0
100
AcDbEntity
  8
HATCH
  6
Continuous
 62
     7
370
    30
100
AcDbLine
 10
29.08475
 20
-6.841042
 30
0.0
 11
29.117219
 21
-6.822292
 31
0.0
  0
LINE
  5
267
330
5C0
100
AcDbEntity
  8
HATCH
  6
Continuous
 62
     7
370
    30
100
AcDbLine
 10
29.182177
 20
-6.784792
 30
0.0
 11
29.214646
 21
-6.766042
 31
0.0
  0
LINE
  5
268
330
5C0
100
AcDbEntity
  8
HATCH
  6
Continuous
 62
     7
370
    30
100
AcDbLine
 10
28.749177
 20
-6.997281
 30
0.0
 11
28.75999
 21
-6.991042
 31
0.0
  0
LINE
  5
269
330
5C0
100
AcDbEntity
  8
HATCH
  6
Continuous
 62
     7
370
    30
100
AcDbLine
 10
28.824938
 20
-6.953542
 30
0.0
 11
28.857417
 21
-6.934792
 31
0.0
  0
LINE
  5
26A
330
5C0
100
AcDbEntity
  8
HATCH
  6
Continuous
 62
     7
370
    30
100
AcDbLine
 10
28.922365
 20
-6.897292
 30
0.0
 11
28.954844
 21
-6.878542
 31
0.0
  0
LINE
  5
26B
330
5C0
100
AcDbEntity
  8
HATCH
  6
Continuous
 62
     7
370
    30
100
AcDbLine
 10
29.019792
 20
-6.841042
 30
0.0
 11
29.052271
 21
-6.822292
 31
0.0
  0
LINE
  5
26C
330
5C0
100
AcDbEntity
  8
HATCH
  6
Continuous
 62
     7
370
    30
100
AcDbLine
 10
29.117219
 20
-6.784792
 30
0.0
 11
29.149698
 21
-6.766042
 31
0.0
  0
LINE
  5
26D
330
5C0
100
AcDbEntity
  8
HATCH
  6
Continuous
 62
     7
370
    30
100
AcDbLine
 10
28.681792
 20
-6.998687
 30
0.0
 11
28.695031
 21
-6.991042
 31
0.0
  0
LINE
  5
26E
330
5C0
100
AcDbEntity
  8
HATCH
  6
Continuous
 62
     7
370
    30
100
AcDbLine
 10
28.75999
 20
-6.953542
 30
0.0
 11
28.792458
 21
-6.934792
 31
0.0
  0
LINE
  5
26F
330
5C0
100
AcDbEntity
  8
HATCH
  6
Continuous
 62
     7
370
    30
100
AcDbLine
 10
28.857417
 20
-6.897292
 30
0.0
 11
28.889885
 21
-6.878542
 31
0.0
  0
LINE
  5
270
330
5C0
100
AcDbEntity
  8
HATCH
  6
Continuous
 62
     7
370
    30
100
AcDbLine
 10
28.954844
 20
-6.841042
 30
0.0
 11
28.987323
 21
-6.822292
 31
0.0
  0
LINE
  5
271
330
5C0
100
AcDbEntity
  8
HATCH
  6
Continuous
 62
     7
370
    30
100
AcDbLine
 10
29.052271
 20
-6.784792
 30
0.0
 11
29.08475
 21
-6.766042
 31
0.0
  0
LINE
  5
272
330
5C0
100
AcDbEntity
  8
HATCH
  6
Continuous
 62
     7
370
    30
100
AcDbLine
 10
28.614406
 20
-7.000094
 30
0.0
 11
28.630083
 21
-6.991042
 31
0.0
  0
LINE
  5
273
330
5C0
100
AcDbEntity
  8
HATCH
  6
Continuous
 62
     7
370
    30
100
AcDbLine
 10
28.695031
 20
-6.953542
 30
0.0
 11
28.72751
 21
-6.934792
 31
0.0
  0
LINE
  5
274
330
5C0
100
AcDbEntity
  8
HATCH
  6
Continuous
 62
     7
370
    30
100
AcDbLine
 10
28.792458
 20
-6.897292
 30
0.0
 11
28.824938
 21
-6.878542
 31
0.0
  0
LINE
  5
275
330
5C0
100
AcDbEntity
  8
HATCH
  6
Continuous
 62
     7
370
    30
100
AcDbLine
 10
28.889885
 20
-6.841042
 30
0.0
 11
28.922365
 21
-6.822292
 31
0.0
  0
LINE
  5
276
330
5C0
100
AcDbEntity
  8
HATCH
  6
Continuous
 62
     7
370
    30
100
AcDbLine
 10
28.987323
 20
-6.784792
 30
0.0
 11
29.019792
 21
-6.766042
 31
0.0
  0
LINE
  5
277
330
5C0
100
AcDbEntity
  8
HATCH
  6
Continuous
 62
     7
370
    30
100
AcDbLine
 10
28.547021
 20
-7.0015
 30
0.0
 11
28.565135
 21
-6.991042
 31
0.0
  0
LINE
  5
278
330
5C0
100
AcDbEntity
  8
HATCH
  6
Continuous
 62
     7
370
    30
100
AcDbLine
 10
28.630083
 20
-6.953542
 30
0.0
 11
28.662562
 21
-6.934792
 31
0.0
  0
LINE
  5
279
330
5C0
100
AcDbEntity
  8
HATCH
  6
Continuous
 62
     7
370
    30
100
AcDbLine
 10
28.72751
 20
-6.897292
 30
0.0
 11
28.75999
 21
-6.878542
 31
0.0
  0
LINE
  5
27A
330
5C0
100
AcDbEntity
  8
HATCH
  6
Continuous
 62
     7
370
    30
100
AcDbLine
 10
28.824938
 20
-6.841042
 30
0.0
 11
28.857417
 21
-6.822292
 31
0.0
  0
LINE
  5
27B
330
5C0
100
AcDbEntity
  8
HATCH
  6
Continuous
 62
     7
370
    30
100
AcDbLine
 10
28.883937
 20
-6.994479
 30
0.0
 11
28.889885
 21
-6.991042
 31
0.0
  0
LINE
  5
27C
330
5C0
100
AcDbEntity
  8
HATCH
  6
Continuous
 62
     7
370
    30
100
AcDbLine
 10
28.954844
 20
-6.953542
 30
0.0
 11
28.987323
 21
-6.934792
 31
0.0
  0
LINE
  5
27D
330
5C0
100
AcDbEntity
  8
HATCH
  6
Continuous
 62
     7
370
    30
100
AcDbLine
 10
29.052271
 20
-6.897292
 30
0.0
 11
29.08475
 21
-6.878542
 31
0.0
  0
LINE
  5
27E
330
5C0
100
AcDbEntity
  8
HATCH
  6
Continuous
 62
     7
370
    30
100
AcDbLine
 10
29.149698
 20
-6.841042
 30
0.0
 11
29.182177
 21
-6.822292
 31
0.0
  0
LINE
  5
27F
330
5C0
100
AcDbEntity
  8
HATCH
  6
Continuous
 62
     7
370
    30
100
AcDbLine
 10
29.247125
 20
-6.784792
 30
0.0
 11
29.279604
 21
-6.766042
 31
0.0
  0
LINE
  5
280
330
5C0
100
AcDbEntity
  8
HATCH
  6
Continuous
 62
     7
370
    30
100
AcDbLine
 10
28.951323
 20
-6.993073
 30
0.0
 11
28.954844
 21
-6.991042
 31
0.0
  0
LINE
  5
281
330
5C0
100
AcDbEntity
  8
HATCH
  6
Continuous
 62
     7
370
    30
100
AcDbLine
 10
29.019792
 20
-6.953542
 30
0.0
 11
29.052271
 21
-6.934792
 31
0.0
  0
LINE
  5
282
330
5C0
100
AcDbEntity
  8
HATCH
  6
Continuous
 62
     7
370
    30
100
AcDbLine
 10
29.117219
 20
-6.897292
 30
0.0
 11
29.149698
 21
-6.878542
 31
0.0
  0
LINE
  5
283
330
5C0
100
AcDbEntity
  8
HATCH
  6
Continuous
 62
     7
370
    30
100
AcDbLine
 10
29.214646
 20
-6.841042
 30
0.0
 11
29.247125
 21
-6.822292
 31
0.0
  0
LINE
  5
284
330
5C0
100
AcDbEntity
  8
HATCH
  6
Continuous
 62
     7
370
    30
100
AcDbLine
 10
29.312073
 20
-6.784792
 30
0.0
 11
29.344552
 21
-6.766042
 31
0.0
  0
LINE
  5
285
330
5C0
100
AcDbEntity
  8
HATCH
  6
Continuous
 62
     7
370
    30
100
AcDbLine
 10
29.018708
 20
-6.991667
 30
0.0
 11
29.019792
 21
-6.991042
 31
0.0
  0
LINE
  5
286
330
5C0
100
AcDbEntity
  8
HATCH
  6
Continuous
 62
     7
370
    30
100
AcDbLine
 10
29.08475
 20
-6.953542
 30
0.0
 11
29.117219
 21
-6.934792
 31
0.0
  0
LINE
  5
287
330
5C0
100
AcDbEntity
  8
HATCH
  6
Continuous
 62
     7
370
    30
100
AcDbLine
 10
29.182177
 20
-6.897292
 30
0.0
 11
29.214646
 21
-6.878542
 31
0.0
  0
LINE
  5
288
330
5C0
100
AcDbEntity
  8
HATCH
  6
Continuous
 62
     7
370
    30
100
AcDbLine
 10
29.279604
 20
-6.841042
 30
0.0
 11
29.312073
 21
-6.822292
 31
0.0
  0
LINE
  5
289
330
5C0
100
AcDbEntity
  8
HATCH
  6
Continuous
 62
     7
370
    30
100
AcDbLine
 10
29.377031
 20
-6.784792
 30
0.0
 11
29.40951
 21
-6.766042
 31
0.0
  0
LINE
  5
28A
330
5C0
100
AcDbEntity
  8
HATCH
  6
Continuous
 62
     7
370
    30
100
AcDbLine
 10
29.149698
 20
-6.953542
 30
0.0
 11
29.182177
 21
-6.934792
 31
0.0
  0
LINE
  5
28B
330
5C0
100
AcDbEntity
  8
HATCH
  6
Continuous
 62
     7
370
    30
100
AcDbLine
 10
29.247125
 20
-6.897292
 30
0.0
 11
29.279604
 21
-6.878542
 31
0.0
  0
LINE
  5
28C
330
5C0
100
AcDbEntity
  8
HATCH
  6
Continuous
 62
     7
370
    30
100
AcDbLine
 10
29.344552
 20
-6.841042
 30
0.0
 11
29.377031
 21
-6.822292
 31
0.0
  0
LINE
  5
28D
330
5C0
100
AcDbEntity
  8
HATCH
  6
Continuous
 62
     7
370
    30
100
AcDbLine
 10
29.441979
 20
-6.784792
 30
0.0
 11
29.474458
 21
-6.766042
 31
0.0
  0
LINE
  5
28E
330
5C0
100
AcDbEntity
  8
HATCH
  6
Continuous
 62
     7
370
    30
100
AcDbLine
 10
29.539406
 20
-6.728542
 30
0.0
 11
29.540427
 21
-6.727958
 31
0.0
  0
LINE
  5
28F
330
5C0
100
AcDbEntity
  8
HATCH
  6
Continuous
 62
     7
370
    30
100
AcDbLine
 10
29.214646
 20
-6.953542
 30
0.0
 11
29.247125
 21
-6.934792
 31
0.0
  0
LINE
  5
290
330
5C0
100
AcDbEntity
  8
HATCH
  6
Continuous
 62
     7
370
    30
100
AcDbLine
 10
29.312073
 20
-6.897292
 30
0.0
 11
29.344552
 21
-6.878542
 31
0.0
  0
LINE
  5
291
330
5C0
100
AcDbEntity
  8
HATCH
  6
Continuous
 62
     7
370
    30
100
AcDbLine
 10
29.40951
 20
-6.841042
 30
0.0
 11
29.441979
 21
-6.822292
 31
0.0
  0
LINE
  5
292
330
5C0
100
AcDbEntity
  8
HATCH
  6
Continuous
 62
     7
370
    30
100
AcDbLine
 10
29.506937
 20
-6.784792
 30
0.0
 11
29.539406
 21
-6.766042
 31
0.0
  0
LINE
  5
293
330
5C0
100
AcDbEntity
  8
HATCH
  6
Continuous
 62
     7
370
    30
100
AcDbLine
 10
29.604365
 20
-6.728542
 30
0.0
 11
29.607396
 21
-6.726792
 31
0.0
  0
LINE
  5
294
330
5C0
100
AcDbEntity
  8
HATCH
  6
Continuous
 62
     7
370
    30
100
AcDbLine
 10
29.279604
 20
-6.953542
 30
0.0
 11
29.312073
 21
-6.934792
 31
0.0
  0
LINE
  5
295
330
5C0
100
AcDbEntity
  8
HATCH
  6
Continuous
 62
     7
370
    30
100
AcDbLine
 10
29.377031
 20
-6.897292
 30
0.0
 11
29.40951
 21
-6.878542
 31
0.0
  0
LINE
  5
296
330
5C0
100
AcDbEntity
  8
HATCH
  6
Continuous
 62
     7
370
    30
100
AcDbLine
 10
29.474458
 20
-6.841042
 30
0.0
 11
29.506937
 21
-6.822292
 31
0.0
  0
LINE
  5
297
330
5C0
100
AcDbEntity
  8
HATCH
  6
Continuous
 62
     7
370
    30
100
AcDbLine
 10
29.344552
 20
-6.953542
 30
0.0
 11
29.377031
 21
-6.934792
 31
0.0
  0
LINE
  5
298
330
5C0
100
AcDbEntity
  8
HATCH
  6
Continuous
 62
     7
370
    30
100
AcDbLine
 10
28.987323
 20
-6.822292
 30
0.0
 11
29.019792
 21
-6.841042
 31
0.0
  0
LINE
  5
299
330
5C0
100
AcDbEntity
  8
HATCH
  6
Continuous
 62
     7
370
    30
100
AcDbLine
 10
29.08475
 20
-6.878542
 30
0.0
 11
29.117219
 21
-6.897292
 31
0.0
  0
LINE
  5
29A
330
5C0
100
AcDbEntity
  8
HATCH
  6
Continuous
 62
     7
370
    30
100
AcDbLine
 10
29.182177
 20
-6.934792
 30
0.0
 11
29.214646
 21
-6.953542
 31
0.0
  0
LINE
  5
29B
330
5C0
100
AcDbEntity
  8
HATCH
  6
Continuous
 62
     7
370
    30
100
AcDbLine
 10
28.960469
 20
-6.769292
 30
0.0
 11
28.987323
 21
-6.784792
 31
0.0
  0
LINE
  5
29C
330
5C0
100
AcDbEntity
  8
HATCH
  6
Continuous
 62
     7
370
    30
100
AcDbLine
 10
29.052271
 20
-6.822292
 30
0.0
 11
29.08475
 21
-6.841042
 31
0.0
  0
LINE
  5
29D
330
5C0
100
AcDbEntity
  8
HATCH
  6
Continuous
 62
     7
370
    30
100
AcDbLine
 10
29.149698
 20
-6.878542
 30
0.0
 11
29.182177
 21
-6.897292
 31
0.0
  0
LINE
  5
29E
330
5C0
100
AcDbEntity
  8
HATCH
  6
Continuous
 62
     7
370
    30
100
AcDbLine
 10
29.247125
 20
-6.934792
 30
0.0
 11
29.279604
 21
-6.953542
 31
0.0
  0
LINE
  5
29F
330
5C0
100
AcDbEntity
  8
HATCH
  6
Continuous
 62
     7
370
    30
100
AcDbLine
 10
29.019792
 20
-6.766042
 30
0.0
 11
29.052271
 21
-6.784792
 31
0.0
  0
LINE
  5
2A0
330
5C0
100
AcDbEntity
  8
HATCH
  6
Continuous
 62
     7
370
    30
100
AcDbLine
 10
29.117219
 20
-6.822292
 30
0.0
 11
29.149698
 21
-6.841042
 31
0.0
  0
LINE
  5
2A1
330
5C0
100
AcDbEntity
  8
HATCH
  6
Continuous
 62
     7
370
    30
100
AcDbLine
 10
29.214646
 20
-6.878542
 30
0.0
 11
29.247125
 21
-6.897292
 31
0.0
  0
LINE
  5
2A2
330
5C0
100
AcDbEntity
  8
HATCH
  6
Continuous
 62
     7
370
    30
100
AcDbLine
 10
29.312073
 20
-6.934792
 30
0.0
 11
29.344552
 21
-6.953542
 31
0.0
  0
LINE
  5
2A3
330
5C0
100
AcDbEntity
  8
HATCH
  6
Continuous
 62
     7
370
    30
100
AcDbLine
 10
29.08475
 20
-6.766042
 30
0.0
 11
29.117219
 21
-6.784792
 31
0.0
  0
LINE
  5
2A4
330
5C0
100
AcDbEntity
  8
HATCH
  6
Continuous
 62
     7
370
    30
100
AcDbLine
 10
29.182177
 20
-6.822292
 30
0.0
 11
29.214646
 21
-6.841042
 31
0.0
  0
LINE
  5
2A5
330
5C0
100
AcDbEntity
  8
HATCH
  6
Continuous
 62
     7
370
    30
100
AcDbLine
 10
29.279604
 20
-6.878542
 30
0.0
 11
29.312073
 21
-6.897292
 31
0.0
  0
LINE
  5
2A6
330
5C0
100
AcDbEntity
  8
HATCH
  6
Continuous
 62
     7
370
    30
100
AcDbLine
 10
29.149698
 20
-6.766042
 30
0.0
 11
29.182177
 21
-6.784792
 31
0.0
  0
LINE
  5
2A7
330
5C0
100
AcDbEntity
  8
HATCH
  6
Continuous
 62
     7
370
    30
100
AcDbLine
 10
29.247125
 20
-6.822292
 30
0.0
 11
29.279604
 21
-6.841042
 31
0.0
  0
LINE
  5
2A8
330
5C0
100
AcDbEntity
  8
HATCH
  6
Continuous
 62
     7
370
    30
100
AcDbLine
 10
29.344552
 20
-6.878542
 30
0.0
 11
29.377031
 21
-6.897292
 31
0.0
  0
LINE
  5
2A9
330
5C0
100
AcDbEntity
  8
HATCH
  6
Continuous
 62
     7
370
    30
100
AcDbLine
 10
29.214646
 20
-6.766042
 30
0.0
 11
29.247125
 21
-6.784792
 31
0.0
  0
LINE
  5
2AA
330
5C0
100
AcDbEntity
  8
HATCH
  6
Continuous
 62
     7
370
    30
100
AcDbLine
 10
29.312073
 20
-6.822292
 30
0.0
 11
29.344552
 21
-6.841042
 31
0.0
  0
LINE
  5
2AB
330
5C0
100
AcDbEntity
  8
HATCH
  6
Continuous
 62
     7
370
    30
100
AcDbLine
 10
29.279604
 20
-6.766042
 30
0.0
 11
29.312073
 21
-6.784792
 31
0.0
  0
LINE
  5
2AC
330
5C0
100
AcDbEntity
  8
HATCH
  6
Continuous
 62
     7
370
    30
100
AcDbLine
 10
29.377031
 20
-6.822292
 30
0.0
 11
29.40951
 21
-6.841042
 31
0.0
  0
LINE
  5
2AD
330
5C0
100
AcDbEntity
  8
HATCH
  6
Continuous
 62
     7
370
    30
100
AcDbLine
 10
29.344552
 20
-6.766042
 30
0.0
 11
29.377031
 21
-6.784792
 31
0.0
  0
LINE
  5
2AE
330
5C0
100
AcDbEntity
  8
HATCH
  6
Continuous
 62
     7
370
    30
100
AcDbLine
 10
29.441979
 20
-6.822292
 30
0.0
 11
29.474458
 21
-6.841042
 31
0.0
  0
LINE
  5
2AF
330
5C0
100
AcDbEntity
  8
HATCH
  6
Continuous
 62
     7
370
    30
100
AcDbLine
 10
29.40951
 20
-6.766042
 30
0.0
 11
29.441979
 21
-6.784792
 31
0.0
  0
LINE
  5
2B0
330
5C0
100
AcDbEntity
  8
HATCH
  6
Continuous
 62
     7
370
    30
100
AcDbLine
 10
29.506937
 20
-6.822292
 30
0.0
 11
29.521187
 21
-6.830521
 31
0.0
  0
LINE
  5
2B1
330
5C0
100
AcDbEntity
  8
HATCH
  6
Continuous
 62
     7
370
    30
100
AcDbLine
 10
29.474458
 20
-6.766042
 30
0.0
 11
29.506937
 21
-6.784792
 31
0.0
  0
LINE
  5
2B2
330
5C0
100
AcDbEntity
  8
HATCH
  6
Continuous
 62
     7
370
    30
100
AcDbLine
 10
29.539406
 20
-6.766042
 30
0.0
 11
29.563302
 21
-6.779844
 31
0.0
  0
LINE
  5
2B3
330
5C0
100
AcDbEntity
  8
HATCH
  6
Continuous
 62
     7
370
    30
100
AcDbLine
 10
29.538469
 20
-6.728
 30
0.0
 11
29.539406
 21
-6.728542
 31
0.0
  0
LINE
  5
2B4
330
5C0
100
AcDbEntity
  8
HATCH
  6
Continuous
 62
     7
370
    30
100
AcDbLine
 10
29.601156
 20
-6.726687
 30
0.0
 11
29.604365
 21
-6.728542
 31
0.0
  0
LINE
  5
2B5
330
5C0
100
AcDbEntity
  8
HATCH
  6
Continuous
 62
     7
370
    30
100
AcDbLine
 10
28.922365
 20
-6.822292
 30
0.0
 11
28.954844
 21
-6.841042
 31
0.0
  0
LINE
  5
2B6
330
5C0
100
AcDbEntity
  8
HATCH
  6
Continuous
 62
     7
370
    30
100
AcDbLine
 10
29.019792
 20
-6.878542
 30
0.0
 11
29.052271
 21
-6.897292
 31
0.0
  0
LINE
  5
2B7
330
5C0
100
AcDbEntity
  8
HATCH
  6
Continuous
 62
     7
370
    30
100
AcDbLine
 10
29.117219
 20
-6.934792
 30
0.0
 11
29.149698
 21
-6.953542
 31
0.0
  0
LINE
  5
2B8
330
5C0
100
AcDbEntity
  8
HATCH
  6
Continuous
 62
     7
370
    30
100
AcDbLine
 10
28.857417
 20
-6.822292
 30
0.0
 11
28.889885
 21
-6.841042
 31
0.0
  0
LINE
  5
2B9
330
5C0
100
AcDbEntity
  8
HATCH
  6
Continuous
 62
     7
370
    30
100
AcDbLine
 10
28.954844
 20
-6.878542
 30
0.0
 11
28.987323
 21
-6.897292
 31
0.0
  0
LINE
  5
2BA
330
5C0
100
AcDbEntity
  8
HATCH
  6
Continuous
 62
     7
370
    30
100
AcDbLine
 10
29.052271
 20
-6.934792
 30
0.0
 11
29.08475
 21
-6.953542
 31
0.0
  0
LINE
  5
2BB
330
5C0
100
AcDbEntity
  8
HATCH
  6
Continuous
 62
     7
370
    30
100
AcDbLine
 10
28.820531
 20
-6.8385
 30
0.0
 11
28.824938
 21
-6.841042
 31
0.0
  0
LINE
  5
2BC
330
5C0
100
AcDbEntity
  8
HATCH
  6
Continuous
 62
     7
370
    30
100
AcDbLine
 10
28.889885
 20
-6.878542
 30
0.0
 11
28.922365
 21
-6.897292
 31
0.0
  0
LINE
  5
2BD
330
5C0
100
AcDbEntity
  8
HATCH
  6
Continuous
 62
     7
370
    30
100
AcDbLine
 10
28.987323
 20
-6.934792
 30
0.0
 11
29.019792
 21
-6.953542
 31
0.0
  0
LINE
  5
2BE
330
5C0
100
AcDbEntity
  8
HATCH
  6
Continuous
 62
     7
370
    30
100
AcDbLine
 10
28.824938
 20
-6.878542
 30
0.0
 11
28.857417
 21
-6.897292
 31
0.0
  0
LINE
  5
2BF
330
5C0
100
AcDbEntity
  8
HATCH
  6
Continuous
 62
     7
370
    30
100
AcDbLine
 10
28.922365
 20
-6.934792
 30
0.0
 11
28.954844
 21
-6.953542
 31
0.0
  0
LINE
  5
2C0
330
5C0
100
AcDbEntity
  8
HATCH
  6
Continuous
 62
     7
370
    30
100
AcDbLine
 10
29.019792
 20
-6.991042
 30
0.0
 11
29.020802
 21
-6.991625
 31
0.0
  0
LINE
  5
2C1
330
5C0
100
AcDbEntity
  8
HATCH
  6
Continuous
 62
     7
370
    30
100
AcDbLine
 10
28.75999
 20
-6.878542
 30
0.0
 11
28.792458
 21
-6.897292
 31
0.0
  0
LINE
  5
2C2
330
5C0
100
AcDbEntity
  8
HATCH
  6
Continuous
 62
     7
370
    30
100
AcDbLine
 10
28.857417
 20
-6.934792
 30
0.0
 11
28.889885
 21
-6.953542
 31
0.0
  0
LINE
  5
2C3
330
5C0
100
AcDbEntity
  8
HATCH
  6
Continuous
 62
     7
370
    30
100
AcDbLine
 10
28.954844
 20
-6.991042
 30
0.0
 11
28.958115
 21
-6.992938
 31
0.0
  0
LINE
  5
2C4
330
5C0
100
AcDbEntity
  8
HATCH
  6
Continuous
 62
     7
370
    30
100
AcDbLine
 10
28.715583
 20
-6.890406
 30
0.0
 11
28.72751
 21
-6.897292
 31
0.0
  0
LINE
  5
2C5
330
5C0
100
AcDbEntity
  8
HATCH
  6
Continuous
 62
     7
370
    30
100
AcDbLine
 10
28.792458
 20
-6.934792
 30
0.0
 11
28.824938
 21
-6.953542
 31
0.0
  0
LINE
  5
2C6
330
5C0
100
AcDbEntity
  8
HATCH
  6
Continuous
 62
     7
370
    30
100
AcDbLine
 10
28.889885
 20
-6.991042
 30
0.0
 11
28.895427
 21
-6.99424
 31
0.0
  0
LINE
  5
2C7
330
5C0
100
AcDbEntity
  8
HATCH
  6
Continuous
 62
     7
370
    30
100
AcDbLine
 10
28.72751
 20
-6.934792
 30
0.0
 11
28.75999
 21
-6.953542
 31
0.0
  0
LINE
  5
2C8
330
5C0
100
AcDbEntity
  8
HATCH
  6
Continuous
 62
     7
370
    30
100
AcDbLine
 10
28.824938
 20
-6.991042
 30
0.0
 11
28.83274
 21
-6.995542
 31
0.0
  0
LINE
  5
2C9
330
5C0
100
AcDbEntity
  8
HATCH
  6
Continuous
 62
     7
370
    30
100
AcDbLine
 10
28.662562
 20
-6.934792
 30
0.0
 11
28.695031
 21
-6.953542
 31
0.0
  0
LINE
  5
2CA
330
5C0
100
AcDbEntity
  8
HATCH
  6
Continuous
 62
     7
370
    30
100
AcDbLine
 10
28.75999
 20
-6.991042
 30
0.0
 11
28.770052
 21
-6.996854
 31
0.0
  0
LINE
  5
2CB
330
5C0
100
AcDbEntity
  8
HATCH
  6
Continuous
 62
     7
370
    30
100
AcDbLine
 10
28.610635
 20
-6.942312
 30
0.0
 11
28.630083
 21
-6.953542
 31
0.0
  0
LINE
  5
2CC
330
5C0
100
AcDbEntity
  8
HATCH
  6
Continuous
 62
     7
370
    30
100
AcDbLine
 10
28.695031
 20
-6.991042
 30
0.0
 11
28.707354
 21
-6.998156
 31
0.0
  0
LINE
  5
2CD
330
5C0
100
AcDbEntity
  8
HATCH
  6
Continuous
 62
     7
370
    30
100
AcDbLine
 10
28.630083
 20
-6.991042
 30
0.0
 11
28.644667
 21
-6.999458
 31
0.0
  0
LINE
  5
2CE
330
5C0
100
AcDbEntity
  8
HATCH
  6
Continuous
 62
     7
370
    30
100
AcDbLine
 10
28.565135
 20
-6.991042
 30
0.0
 11
28.581979
 21
-7.000771
 31
0.0
  0
LINE
  5
2CF
330
5C0
100
AcDbEntity
  8
HATCH
  6
Continuous
 62
     7
370
    30
100
AcDbLine
 10
28.505688
 20
-6.994219
 30
0.0
 11
28.519292
 21
-7.002073
 31
0.0
  0
LINE
  5
2D0
330
5C0
100
AcDbEntity
  8
HATCH
  6
Continuous
 62
     7
370
    30
100
AcDbLine
 10
30.0915
 20
-6.447292
 30
0.0
 11
30.140219
 21
-6.475417
 31
0.0
  0
LINE
  5
2D1
330
5C0
100
AcDbEntity
  8
HATCH
  6
Continuous
 62
     7
370
    30
100
AcDbLine
 10
30.188927
 20
-6.503542
 30
0.0
 11
30.237646
 21
-6.531667
 31
0.0
  0
LINE
  5
2D2
330
5C0
100
AcDbEntity
  8
HATCH
  6
Continuous
 62
     7
370
    30
100
AcDbLine
 10
30.286354
 20
-6.559792
 30
0.0
 11
30.335073
 21
-6.587917
 31
0.0
  0
LINE
  5
2D3
330
5C0
100
AcDbEntity
  8
HATCH
  6
Continuous
 62
     7
370
    30
100
AcDbLine
 10
30.188927
 20
-6.391042
 30
0.0
 11
30.237646
 21
-6.419167
 31
0.0
  0
LINE
  5
2D4
330
5C0
100
AcDbEntity
  8
HATCH
  6
Continuous
 62
     7
370
    30
100
AcDbLine
 10
30.286354
 20
-6.447292
 30
0.0
 11
30.335073
 21
-6.475417
 31
0.0
  0
LINE
  5
2D5
330
5C0
100
AcDbEntity
  8
HATCH
  6
Continuous
 62
     7
370
    30
100
AcDbLine
 10
30.383781
 20
-6.503542
 30
0.0
 11
30.4325
 21
-6.531667
 31
0.0
  0
LINE
  5
2D6
330
5C0
100
AcDbEntity
  8
HATCH
  6
Continuous
 62
     7
370
    30
100
AcDbLine
 10
30.286354
 20
-6.334792
 30
0.0
 11
30.335073
 21
-6.362917
 31
0.0
  0
LINE
  5
2D7
330
5C0
100
AcDbEntity
  8
HATCH
  6
Continuous
 62
     7
370
    30
100
AcDbLine
 10
30.383781
 20
-6.391042
 30
0.0
 11
30.4325
 21
-6.419167
 31
0.0
  0
LINE
  5
2D8
330
5C0
100
AcDbEntity
  8
HATCH
  6
Continuous
 62
     7
370
    30
100
AcDbLine
 10
30.481208
 20
-6.447292
 30
0.0
 11
30.519479
 21
-6.469385
 31
0.0
  0
LINE
  5
2D9
330
5C0
100
AcDbEntity
  8
HATCH
  6
Continuous
 62
     7
370
    30
100
AcDbLine
 10
30.383781
 20
-6.278542
 30
0.0
 11
30.4325
 21
-6.306667
 31
0.0
  0
LINE
  5
2DA
330
5C0
100
AcDbEntity
  8
HATCH
  6
Continuous
 62
     7
370
    30
100
AcDbLine
 10
30.481208
 20
-6.334792
 30
0.0
 11
30.529927
 21
-6.362917
 31
0.0
  0
LINE
  5
2DB
330
5C0
100
AcDbEntity
  8
HATCH
  6
Continuous
 62
     7
370
    30
100
AcDbLine
 10
29.994073
 20
-6.503542
 30
0.0
 11
30.042792
 21
-6.531667
 31
0.0
  0
LINE
  5
2DC
330
5C0
100
AcDbEntity
  8
HATCH
  6
Continuous
 62
     7
370
    30
100
AcDbLine
 10
30.0915
 20
-6.559792
 30
0.0
 11
30.140219
 21
-6.587917
 31
0.0
  0
LINE
  5
2DD
330
5C0
100
AcDbEntity
  8
HATCH
  6
Continuous
 62
     7
370
    30
100
AcDbLine
 10
30.188927
 20
-6.616042
 30
0.0
 11
30.237646
 21
-6.644167
 31
0.0
  0
LINE
  5
2DE
330
5C0
100
AcDbEntity
  8
HATCH
  6
Continuous
 62
     7
370
    30
100
AcDbLine
 10
30.286354
 20
-6.672292
 30
0.0
 11
30.310271
 21
-6.686094
 31
0.0
  0
LINE
  5
2DF
330
5C0
100
AcDbEntity
  8
HATCH
  6
Continuous
 62
     7
370
    30
100
AcDbLine
 10
29.896646
 20
-6.559792
 30
0.0
 11
29.945354
 21
-6.587917
 31
0.0
  0
LINE
  5
2E0
330
5C0
100
AcDbEntity
  8
HATCH
  6
Continuous
 62
     7
370
    30
100
AcDbLine
 10
29.994073
 20
-6.616042
 30
0.0
 11
30.042792
 21
-6.644167
 31
0.0
  0
LINE
  5
2E1
330
5C0
100
AcDbEntity
  8
HATCH
  6
Continuous
 62
     7
370
    30
100
AcDbLine
 10
30.0915
 20
-6.672292
 30
0.0
 11
30.140219
 21
-6.700417
 31
0.0
  0
LINE
  5
2E2
330
5C0
100
AcDbEntity
  8
HATCH
  6
Continuous
 62
     7
370
    30
100
AcDbLine
 10
29.799219
 20
-6.616042
 30
0.0
 11
29.847927
 21
-6.644167
 31
0.0
  0
LINE
  5
2E3
330
5C0
100
AcDbEntity
  8
HATCH
  6
Continuous
 62
     7
370
    30
100
AcDbLine
 10
29.896646
 20
-6.672292
 30
0.0
 11
29.945354
 21
-6.700417
 31
0.0
  0
LINE
  5
2E4
330
5C0
100
AcDbEntity
  8
HATCH
  6
Continuous
 62
     7
370
    30
100
AcDbLine
 10
29.64674
 20
-6.64051
 30
0.0
 11
29.653073
 21
-6.644167
 31
0.0
  0
LINE
  5
2E5
330
5C0
100
AcDbEntity
  8
HATCH
  6
Continuous
 62
     7
370
    30
100
AcDbLine
 10
29.701792
 20
-6.672292
 30
0.0
 11
29.7505
 21
-6.700417
 31
0.0
  0
LINE
  5
2E6
330
5C0
100
AcDbEntity
  8
HATCH
  6
Continuous
 62
     7
370
    30
100
AcDbLine
 10
29.542323
 20
-6.692719
 30
0.0
 11
29.555646
 21
-6.700417
 31
0.0
  0
LINE
  5
2E7
330
5C0
100
AcDbEntity
  8
HATCH
  6
Continuous
 62
     7
370
    30
100
AcDbLine
 10
29.607812
 20
-6.726552
 30
0.0
 11
29.653073
 21
-6.700417
 31
0.0
  0
LINE
  5
2E8
330
5C0
100
AcDbEntity
  8
HATCH
  6
Continuous
 62
     7
370
    30
100
AcDbLine
 10
29.701792
 20
-6.672292
 30
0.0
 11
29.7505
 21
-6.644167
 31
0.0
  0
LINE
  5
2E9
330
5C0
100
AcDbEntity
  8
HATCH
  6
Continuous
 62
     7
370
    30
100
AcDbLine
 10
29.799219
 20
-6.616042
 30
0.0
 11
29.847927
 21
-6.587917
 31
0.0
  0
LINE
  5
2EA
330
5C0
100
AcDbEntity
  8
HATCH
  6
Continuous
 62
     7
370
    30
100
AcDbLine
 10
29.896646
 20
-6.559792
 30
0.0
 11
29.945354
 21
-6.531667
 31
0.0
  0
LINE
  5
2EB
330
5C0
100
AcDbEntity
  8
HATCH
  6
Continuous
 62
     7
370
    30
100
AcDbLine
 10
29.994073
 20
-6.503542
 30
0.0
 11
30.042792
 21
-6.475417
 31
0.0
  0
LINE
  5
2EC
330
5C0
100
AcDbEntity
  8
HATCH
  6
Continuous
 62
     7
370
    30
100
AcDbLine
 10
30.0915
 20
-6.447292
 30
0.0
 11
30.140219
 21
-6.419167
 31
0.0
  0
LINE
  5
2ED
330
5C0
100
AcDbEntity
  8
HATCH
  6
Continuous
 62
     7
370
    30
100
AcDbLine
 10
30.188927
 20
-6.391042
 30
0.0
 11
30.237646
 21
-6.362917
 31
0.0
  0
LINE
  5
2EE
330
5C0
100
AcDbEntity
  8
HATCH
  6
Continuous
 62
     7
370
    30
100
AcDbLine
 10
30.286354
 20
-6.334792
 30
0.0
 11
30.335073
 21
-6.306667
 31
0.0
  0
LINE
  5
2EF
330
5C0
100
AcDbEntity
  8
HATCH
  6
Continuous
 62
     7
370
    30
100
AcDbLine
 10
30.383781
 20
-6.278542
 30
0.0
 11
30.420885
 21
-6.257125
 31
0.0
  0
LINE
  5
2F0
330
5C0
100
AcDbEntity
  8
HATCH
  6
Continuous
 62
     7
370
    30
100
AcDbLine
 10
29.809958
 20
-6.722344
 30
0.0
 11
29.847927
 21
-6.700417
 31
0.0
  0
LINE
  5
2F1
330
5C0
100
AcDbEntity
  8
HATCH
  6
Continuous
 62
     7
370
    30
100
AcDbLine
 10
29.896646
 20
-6.672292
 30
0.0
 11
29.945354
 21
-6.644167
 31
0.0
  0
LINE
  5
2F2
330
5C0
100
AcDbEntity
  8
HATCH
  6
Continuous
 62
     7
370
    30
100
AcDbLine
 10
29.994073
 20
-6.616042
 30
0.0
 11
30.042792
 21
-6.587917
 31
0.0
  0
LINE
  5
2F3
330
5C0
100
AcDbEntity
  8
HATCH
  6
Continuous
 62
     7
370
    30
100
AcDbLine
 10
30.0915
 20
-6.559792
 30
0.0
 11
30.140219
 21
-6.531667
 31
0.0
  0
LINE
  5
2F4
330
5C0
100
AcDbEntity
  8
HATCH
  6
Continuous
 62
     7
370
    30
100
AcDbLine
 10
30.188927
 20
-6.503542
 30
0.0
 11
30.237646
 21
-6.475417
 31
0.0
  0
LINE
  5
2F5
330
5C0
100
AcDbEntity
  8
HATCH
  6
Continuous
 62
     7
370
    30
100
AcDbLine
 10
30.286354
 20
-6.447292
 30
0.0
 11
30.335073
 21
-6.419167
 31
0.0
  0
LINE
  5
2F6
330
5C0
100
AcDbEntity
  8
HATCH
  6
Continuous
 62
     7
370
    30
100
AcDbLine
 10
30.383781
 20
-6.391042
 30
0.0
 11
30.4325
 21
-6.362917
 31
0.0
  0
LINE
  5
2F7
330
5C0
100
AcDbEntity
  8
HATCH
  6
Continuous
 62
     7
370
    30
100
AcDbLine
 10
30.481208
 20
-6.334792
 30
0.0
 11
30.529927
 21
-6.306667
 31
0.0
  0
LINE
  5
2F8
330
5C0
100
AcDbEntity
  8
HATCH
  6
Continuous
 62
     7
370
    30
100
AcDbLine
 10
30.012115
 20
-6.718125
 30
0.0
 11
30.042792
 21
-6.700417
 31
0.0
  0
LINE
  5
2F9
330
5C0
100
AcDbEntity
  8
HATCH
  6
Continuous
 62
     7
370
    30
100
AcDbLine
 10
30.0915
 20
-6.672292
 30
0.0
 11
30.140219
 21
-6.644167
 31
0.0
  0
LINE
  5
2FA
330
5C0
100
AcDbEntity
  8
HATCH
  6
Continuous
 62
     7
370
    30
100
AcDbLine
 10
30.188927
 20
-6.616042
 30
0.0
 11
30.237646
 21
-6.587917
 31
0.0
  0
LINE
  5
2FB
330
5C0
100
AcDbEntity
  8
HATCH
  6
Continuous
 62
     7
370
    30
100
AcDbLine
 10
30.286354
 20
-6.559792
 30
0.0
 11
30.335073
 21
-6.531667
 31
0.0
  0
LINE
  5
2FC
330
5C0
100
AcDbEntity
  8
HATCH
  6
Continuous
 62
     7
370
    30
100
AcDbLine
 10
30.383781
 20
-6.503542
 30
0.0
 11
30.4325
 21
-6.475417
 31
0.0
  0
LINE
  5
2FD
330
5C0
100
AcDbEntity
  8
HATCH
  6
Continuous
 62
     7
370
    30
100
AcDbLine
 10
30.481208
 20
-6.447292
 30
0.0
 11
30.528052
 21
-6.42025
 31
0.0
  0
LINE
  5
2FE
330
5C0
100
AcDbEntity
  8
HATCH
  6
Continuous
 62
     7
370
    30
100
AcDbLine
 10
30.21426
 20
-6.713917
 30
0.0
 11
30.237646
 21
-6.700417
 31
0.0
  0
LINE
  5
2FF
330
5C0
100
AcDbEntity
  8
HATCH
  6
Continuous
 62
     7
370
    30
100
AcDbLine
 10
30.286354
 20
-6.672292
 30
0.0
 11
30.330344
 21
-6.646896
 31
0.0
  0
LINE
  5
300
330
5C0
100
AcDbEntity
  8
HATCH
  6
Continuous
 62
     7
370
    30
100
AcDbLine
 10
29.945354
 20
-6.531667
 30
0.0
 11
29.945354
 21
-6.587917
 31
0.0
  0
LINE
  5
301
330
5C0
100
AcDbEntity
  8
HATCH
  6
Continuous
 62
     7
370
    30
100
AcDbLine
 10
29.945354
 20
-6.644167
 30
0.0
 11
29.945354
 21
-6.700417
 31
0.0
  0
LINE
  5
302
330
5C0
100
AcDbEntity
  8
HATCH
  6
Continuous
 62
     7
370
    30
100
AcDbLine
 10
30.042792
 20
-6.475417
 30
0.0
 11
30.042792
 21
-6.531667
 31
0.0
  0
LINE
  5
303
330
5C0
100
AcDbEntity
  8
HATCH
  6
Continuous
 62
     7
370
    30
100
AcDbLine
 10
30.042792
 20
-6.587917
 30
0.0
 11
30.042792
 21
-6.644167
 31
0.0
  0
LINE
  5
304
330
5C0
100
AcDbEntity
  8
HATCH
  6
Continuous
 62
     7
370
    30
100
AcDbLine
 10
30.042792
 20
-6.700417
 30
0.0
 11
30.042792
 21
-6.71749
 31
0.0
  0
LINE
  5
305
330
5C0
100
AcDbEntity
  8
HATCH
  6
Continuous
 62
     7
370
    30
100
AcDbLine
 10
30.140219
 20
-6.419167
 30
0.0
 11
30.140219
 21
-6.475417
 31
0.0
  0
LINE
  5
306
330
5C0
100
AcDbEntity
  8
HATCH
  6
Continuous
 62
     7
370
    30
100
AcDbLine
 10
30.140219
 20
-6.531667
 30
0.0
 11
30.140219
 21
-6.587917
 31
0.0
  0
LINE
  5
307
330
5C0
100
AcDbEntity
  8
HATCH
  6
Continuous
 62
     7
370
    30
100
AcDbLine
 10
30.140219
 20
-6.644167
 30
0.0
 11
30.140219
 21
-6.700417
 31
0.0
  0
LINE
  5
308
330
5C0
100
AcDbEntity
  8
HATCH
  6
Continuous
 62
     7
370
    30
100
AcDbLine
 10
30.237646
 20
-6.362917
 30
0.0
 11
30.237646
 21
-6.419167
 31
0.0
  0
LINE
  5
309
330
5C0
100
AcDbEntity
  8
HATCH
  6
Continuous
 62
     7
370
    30
100
AcDbLine
 10
30.237646
 20
-6.475417
 30
0.0
 11
30.237646
 21
-6.531667
 31
0.0
  0
LINE
  5
30A
330
5C0
100
AcDbEntity
  8
HATCH
  6
Continuous
 62
     7
370
    30
100
AcDbLine
 10
30.237646
 20
-6.587917
 30
0.0
 11
30.237646
 21
-6.644167
 31
0.0
  0
LINE
  5
30B
330
5C0
100
AcDbEntity
  8
HATCH
  6
Continuous
 62
     7
370
    30
100
AcDbLine
 10
30.237646
 20
-6.700417
 30
0.0
 11
30.237646
 21
-6.713427
 31
0.0
  0
LINE
  5
30C
330
5C0
100
AcDbEntity
  8
HATCH
  6
Continuous
 62
     7
370
    30
100
AcDbLine
 10
30.335073
 20
-6.306667
 30
0.0
 11
30.335073
 21
-6.362917
 31
0.0
  0
LINE
  5
30D
330
5C0
100
AcDbEntity
  8
HATCH
  6
Continuous
 62
     7
370
    30
100
AcDbLine
 10
30.335073
 20
-6.419167
 30
0.0
 11
30.335073
 21
-6.475417
 31
0.0
  0
LINE
  5
30E
330
5C0
100
AcDbEntity
  8
HATCH
  6
Continuous
 62
     7
370
    30
100
AcDbLine
 10
30.335073
 20
-6.531667
 30
0.0
 11
30.335073
 21
-6.587917
 31
0.0
  0
LINE
  5
30F
330
5C0
100
AcDbEntity
  8
HATCH
  6
Continuous
 62
     7
370
    30
100
AcDbLine
 10
30.4325
 20
-6.257125
 30
0.0
 11
30.4325
 21
-6.306667
 31
0.0
  0
LINE
  5
310
330
5C0
100
AcDbEntity
  8
HATCH
  6
Continuous
 62
     7
370
    30
100
AcDbLine
 10
30.4325
 20
-6.362917
 30
0.0
 11
30.4325
 21
-6.419167
 31
0.0
  0
LINE
  5
311
330
5C0
100
AcDbEntity
  8
HATCH
  6
Continuous
 62
     7
370
    30
100
AcDbLine
 10
30.4325
 20
-6.475417
 30
0.0
 11
30.4325
 21
-6.531667
 31
0.0
  0
LINE
  5
312
330
5C0
100
AcDbEntity
  8
HATCH
  6
Continuous
 62
     7
370
    30
100
AcDbLine
 10
30.529927
 20
-6.306667
 30
0.0
 11
30.529927
 21
-6.362917
 31
0.0
  0
LINE
  5
313
330
5C0
100
AcDbEntity
  8
HATCH
  6
Continuous
 62
     7
370
    30
100
AcDbLine
 10
29.847927
 20
-6.587917
 30
0.0
 11
29.847927
 21
-6.644167
 31
0.0
  0
LINE
  5
314
330
5C0
100
AcDbEntity
  8
HATCH
  6
Continuous
 62
     7
370
    30
100
AcDbLine
 10
29.847927
 20
-6.700417
 30
0.0
 11
29.847927
 21
-6.721552
 31
0.0
  0
LINE
  5
315
330
5C0
100
AcDbEntity
  8
HATCH
  6
Continuous
 62
     7
370
    30
100
AcDbLine
 10
29.7505
 20
-6.644167
 30
0.0
 11
29.7505
 21
-6.700417
 31
0.0
  0
LINE
  5
316
330
5C0
100
AcDbEntity
  8
HATCH
  6
Continuous
 62
     7
370
    30
100
AcDbLine
 10
29.653073
 20
-6.637344
 30
0.0
 11
29.653073
 21
-6.644167
 31
0.0
  0
LINE
  5
317
330
5C0
100
AcDbEntity
  8
HATCH
  6
Continuous
 62
     7
370
    30
100
AcDbLine
 10
29.653073
 20
-6.700417
 30
0.0
 11
29.653073
 21
-6.725604
 31
0.0
  0
LINE
  5
318
330
5C0
100
AcDbEntity
  8
HATCH
  6
Continuous
 62
     7
370
    30
100
AcDbLine
 10
29.555646
 20
-6.686052
 30
0.0
 11
29.555646
 21
-6.700417
 31
0.0
  0
LWPOLYLINE
  5
31A
330
5C0
100
AcDbEntity
  8
_0
  6
Continuous
 62
     7
370
    30
100
AcDbPolyline
 90
        2
 70
   128
 43
0.0
 10
28.488521
 20
-7.002719
 10
30.570948
 20
-6.959333
  0
LWPOLYLINE
  5
31B
330
5C0
100
AcDbEntity
  8
_0
  6
Continuous
 62
     7
370
    30
100
AcDbPolyline
 90
        3
 70
   128
 43
0.0
 10
35.33325
 20
-7.002604
 10
33.243625
 20
-6.959073
 10
30.570948
 20
-6.959073
  0
LINE
  5
31E
330
5C0
100
AcDbEntity
  8
DIM
  6
Continuous
 62
     7
370
    13
100
AcDbLine
 10
29.016198
 20
-6.688875
 30
0.0
 11
29.016198
 21
-6.105688
 31
0.0
  0
LINE
  5
31F
330
5C0
100
AcDbEntity
  8
DIM
  6
Continuous
 62
     7
370
    13
100
AcDbLine
 10
29.468865
 20
-6.679448
 30
0.0
 11
29.468865
 21
-6.105688
 31
0.0
  0
LINE
  5
323
330
5C0
100
AcDbEntity
  8
BORDER
  6
Continuous
 62
     7
370
    30
100
AcDbLine
 10
27.363521
 20
-4.309792
 30
0.0
 11
36.463521
 21
-4.309792
 31
0.0
  0
LINE
  5
324
330
5C0
100
AcDbEntity
  8
BORDER
  6
Continuous
 62
     7
370
    30
100
AcDbLine
 10
36.463521
 20
-11.559792
 30
0.0
 11
36.463521
 21
-4.309792
 31
0.0
  0
LINE
  5
325
330
5C0
100
AcDbEntity
  8
BORDER
  6
Continuous
 62
     7
370
    30
100
AcDbLine
 10
27.363521
 20
-11.059792
 30
0.0
 11
36.463521
 21
-11.059792
 31
0.0
  0
LINE
  5
326
330
5C0
100
AcDbEntity
  8
BORDER
  6
Continuous
 62
     7
370
    30
100
AcDbLine
 10
27.363521
 20
-11.559792
 30
0.0
 11
36.463521
 21
-11.559792
 31
0.0
  0
LINE
  5
327
330
5C0
100
AcDbEntity
  8
BORDER
  6
Continuous
 62
     7
370
    30
100
AcDbLine
 10
34.263521
 20
-11.559792
 30
0.0
 11
34.263521
 21
-11.059792
 31
0.0
  0
LINE
  5
329
330
5C0
100
AcDbEntity
  8
BORDER
  6
Continuous
 62
     7
370
    30
100
AcDbLine
 10
35.363521
 20
-11.559792
 30
0.0
 11
35.363521
 21
-11.059792
 31
0.0
  0
LINE
  5
32C
330
5C0
100
AcDbEntity
  8
_0
  6
Continuous
 62
     7
370
    30
100
AcDbLine
 10
30.413521
 20
-6.257125
 30
0.0
 11
33.413521
 21
-6.257125
 31
0.0
  0
LINE
  5
32D
330
5C0
100
AcDbEntity
  8
_0
  6
Continuous
 62
     7
370
    13
100
AcDbLine
 10
31.913521
 20
-5.516375
 30
0.0
 11
31.913521
 21
-6.503135
 31
0.0
  0
LINE
  5
32E
330
5C0
100
AcDbEntity
  8
_0
  6
Continuous
 62
     7
370
    30
100
AcDbLine
 10
30.581823
 20
-6.457125
 30
0.0
 11
33.245219
 21
-6.457125
 31
0.0
  0
LINE
  5
32F
330
5C0
100
AcDbEntity
  8
_0
  6
Continuous
 62
     7
370
    30
100
AcDbLine
 10
33.413521
 20
-6.257125
 30
0.0
 11
34.358125
 21
-6.729427
 31
0.0
  0
LINE
  5
330
330
5C0
100
AcDbEntity
  8
_0
  6
Continuous
 62
     7
370
    30
100
AcDbLine
 10
33.245219
 20
-6.257125
 30
0.0
 11
33.245219
 21
-6.457125
 31
0.0
  0
LINE
  5
331
330
5C0
100
AcDbEntity
  8
_0
  6
Continuous
 62
     7
370
    30
100
AcDbLine
 10
30.413521
 20
-6.257125
 30
0.0
 11
29.468865
 21
-6.729448
 31
0.0
  0
LINE
  5
332
330
5C0
100
AcDbEntity
  8
_0
  6
Continuous
 62
     7
370
    30
100
AcDbLine
 10
27.883573
 20
-7.307313
 30
0.0
 11
29.022198
 21
-6.73875
 31
0.0
  0
LINE
  5
336
330
5C0
100
AcDbEntity
  8
_0
  6
Continuous
 62
     7
370
    30
100
AcDbLine
 10
30.581823
 20
-6.257125
 30
0.0
 11
30.581823
 21
-6.457125
 31
0.0
  0
LINE
  5
337
330
5C0
100
AcDbEntity
  8
DIM
  6
Continuous
 62
     7
370
    13
100
AcDbLine
 10
31.151021
 20
-6.007125
 30
0.0
 11
31.151021
 21
-5.757677
 31
0.0
  0
LINE
  5
339
330
5C0
100
AcDbEntity
  8
DIM
  6
Continuous
 62
     7
370
    13
100
AcDbLine
 10
32.676021
 20
-6.007125
 30
0.0
 11
32.676021
 21
-5.757677
 31
0.0
  0
LINE
  5
33D
330
5C0
100
AcDbEntity
  8
DIM
  6
Continuous
 62
     7
370
    13
100
AcDbLine
 10
30.413521
 20
-6.207125
 30
0.0
 11
30.413521
 21
-4.944646
 31
0.0
  0
LINE
  5
33E
330
5C0
100
AcDbEntity
  8
DIM
  6
Continuous
 62
     7
370
    13
100
AcDbLine
 10
30.581823
 20
-6.207125
 30
0.0
 11
30.581823
 21
-4.944646
 31
0.0
  0
LINE
  5
341
330
5C0
100
AcDbEntity
  8
DIM
  6
Continuous
 62
     7
370
    13
100
AcDbLine
 10
33.413521
 20
-6.207125
 30
0.0
 11
33.413521
 21
-4.944646
 31
0.0
  0
LINE
  5
342
330
5C0
100
AcDbEntity
  8
DIM
  6
Continuous
 62
     7
370
    13
100
AcDbLine
 10
33.245219
 20
-6.207125
 30
0.0
 11
33.245219
 21
-4.944646
 31
0.0
  0
LINE
  5
344
330
5C0
100
AcDbEntity
  8
_0
  6
Continuous
 62
     7
370
    30
100
AcDbLine
 10
28.661969
 20
-6.86251
 30
0.0
 11
28.313312
 21
-6.86251
 31
0.0
  0
LINE
  5
345
330
5C0
100
AcDbEntity
  8
_0
  6
Continuous
 62
     7
370
    30
100
AcDbLine
 10
28.313312
 20
-7.004833
 30
0.0
 11
28.313312
 21
-6.86251
 31
0.0
  0
LINE
  5
34A
330
5C0
100
AcDbEntity
  8
_0
  6
Continuous
 62
     7
370
    30
100
AcDbLine
 10
34.804802
 20
-6.738729
 30
0.0
 11
33.244094
 21
-6.706219
 31
0.0
  0
LINE
  5
34B
330
5C0
100
AcDbEntity
  8
_0
  6
Continuous
 62
     7
370
    30
100
AcDbLine
 10
29.022198
 20
-6.73875
 30
0.0
 11
30.571417
 21
-6.706479
 31
0.0
  0
LINE
  5
34C
330
5C0
100
AcDbEntity
  8
_0
  6
Continuous
 62
     7
370
    30
100
AcDbLine
 10
30.571417
 20
-6.706219
 30
0.0
 11
30.645594
 21
-6.706219
 31
0.0
  0
LINE
  5
34D
330
5C0
100
AcDbEntity
  8
_0
  6
Continuous
 62
     7
370
    30
100
AcDbLine
 10
35.943469
 20
-7.307313
 30
0.0
 11
34.804802
 21
-6.738729
 31
0.0
  0
LINE
  5
34E
330
5C0
100
AcDbEntity
  8
_0
  6
Continuous
 62
     7
370
    30
100
AcDbLine
 10
35.288281
 20
-6.871844
 30
0.0
 11
35.636938
 21
-6.871844
 31
0.0
  0
LINE
  5
34F
330
5C0
100
AcDbEntity
  8
_0
  6
Continuous
 62
     7
370
    30
100
AcDbLine
 10
35.636938
 20
-7.014177
 30
0.0
 11
35.636938
 21
-6.871844
 31
0.0
  0
LWPOLYLINE
  5
352
330
5C0
100
AcDbEntity
  8
_0
  6
Continuous
 62
     7
370
    30
100
AcDbPolyline
 90
       15
 70
   128
 43
0.0
 10
31.098104
 20
-6.056354
 10
31.046969
 20
-6.056354
 10
31.046969
 20
-6.119271
 10
31.083156
 20
-6.119271
 10
31.083156
 20
-6.207365
 10
31.03674
 20
-6.207365
 10
30.898333
 20
-6.257125
 10
31.098104
 20
-6.257125
 10
31.297885
 20
-6.257125
 10
31.159469
 20
-6.207365
 10
31.113052
 20
-6.207365
 10
31.113052
 20
-6.119271
 10
31.14924
 20
-6.119271
 10
31.14924
 20
-6.056354
 10
31.098104
 20
-6.056354
  0
LINE
  5
353
330
5C0
100
AcDbEntity
  8
_0
  6
Continuous
 62
     7
370
    30
100
AcDbLine
 10
31.14925
 20
-6.103635
 30
0.0
 11
31.133615
 21
-6.119271
 31
0.0
  0
LINE
  5
354
330
5C0
100
AcDbEntity
  8
_0
  6
Continuous
 62
     7
370
    30
100
AcDbLine
 10
31.045521
 20
-6.207365
 30
0.0
 11
30.99576
 21
-6.257125
 31
0.0
  0
LINE
  5
355
330
5C0
100
AcDbEntity
  8
_0
  6
Continuous
 62
     7
370
    30
100
AcDbLine
 10
31.113062
 20
-6.139823
 30
0.0
 11
31.083156
 21
-6.169719
 31
0.0
  0
LINE
  5
356
330
5C0
100
AcDbEntity
  8
_0
  6
Continuous
 62
     7
370
    30
100
AcDbLine
 10
31.14925
 20
-6.107167
 30
0.0
 11
31.137146
 21
-6.119271
 31
0.0
  0
LINE
  5
357
330
5C0
100
AcDbEntity
  8
_0
  6
Continuous
 62
     7
370
    30
100
AcDbLine
 10
31.049062
 20
-6.207365
 30
0.0
 11
30.999302
 21
-6.257125
 31
0.0
  0
LINE
  5
358
330
5C0
100
AcDbEntity
  8
_0
  6
Continuous
 62
     7
370
    30
100
AcDbLine
 10
31.113062
 20
-6.143365
 30
0.0
 11
31.083156
 21
-6.17326
 31
0.0
  0
LINE
  5
359
330
5C0
100
AcDbEntity
  8
_0
  6
Continuous
 62
     7
370
    30
100
AcDbLine
 10
31.14925
 20
-6.110708
 30
0.0
 11
31.140677
 21
-6.119271
 31
0.0
  0
LINE
  5
35A
330
5C0
100
AcDbEntity
  8
_0
  6
Continuous
 62
     7
370
    30
100
AcDbLine
 10
31.052594
 20
-6.207365
 30
0.0
 11
31.002833
 21
-6.257125
 31
0.0
  0
LINE
  5
35B
330
5C0
100
AcDbEntity
  8
_0
  6
Continuous
 62
     7
370
    30
100
AcDbLine
 10
31.113062
 20
-6.146896
 30
0.0
 11
31.083156
 21
-6.176792
 31
0.0
  0
LINE
  5
35C
330
5C0
100
AcDbEntity
  8
_0
  6
Continuous
 62
     7
370
    30
100
AcDbLine
 10
31.14925
 20
-6.11424
 30
0.0
 11
31.144219
 21
-6.119271
 31
0.0
  0
LINE
  5
35D
330
5C0
100
AcDbEntity
  8
_0
  6
Continuous
 62
     7
370
    30
100
AcDbLine
 10
31.056125
 20
-6.207365
 30
0.0
 11
31.006365
 21
-6.257125
 31
0.0
  0
LINE
  5
35E
330
5C0
100
AcDbEntity
  8
_0
  6
Continuous
 62
     7
370
    30
100
AcDbLine
 10
31.113062
 20
-6.150437
 30
0.0
 11
31.083156
 21
-6.180333
 31
0.0
  0
LINE
  5
35F
330
5C0
100
AcDbEntity
  8
_0
  6
Continuous
 62
     7
370
    30
100
AcDbLine
 10
31.14925
 20
-6.117781
 30
0.0
 11
31.14775
 21
-6.119271
 31
0.0
  0
LINE
  5
360
330
5C0
100
AcDbEntity
  8
_0
  6
Continuous
 62
     7
370
    30
100
AcDbLine
 10
31.059667
 20
-6.207365
 30
0.0
 11
31.009906
 21
-6.257125
 31
0.0
  0
LINE
  5
361
330
5C0
100
AcDbEntity
  8
_0
  6
Continuous
 62
     7
370
    30
100
AcDbLine
 10
31.113062
 20
-6.153969
 30
0.0
 11
31.083156
 21
-6.183865
 31
0.0
  0
LINE
  5
362
330
5C0
100
AcDbEntity
  8
_0
  6
Continuous
 62
     7
370
    30
100
AcDbLine
 10
31.113062
 20
-6.1575
 30
0.0
 11
31.083156
 21
-6.187396
 31
0.0
  0
LINE
  5
363
330
5C0
100
AcDbEntity
  8
_0
  6
Continuous
 62
     7
370
    30
100
AcDbLine
 10
31.063198
 20
-6.207365
 30
0.0
 11
31.013437
 21
-6.257125
 31
0.0
  0
LINE
  5
364
330
5C0
100
AcDbEntity
  8
_0
  6
Continuous
 62
     7
370
    30
100
AcDbLine
 10
31.113062
 20
-6.161042
 30
0.0
 11
31.083156
 21
-6.190937
 31
0.0
  0
LINE
  5
365
330
5C0
100
AcDbEntity
  8
_0
  6
Continuous
 62
     7
370
    30
100
AcDbLine
 10
31.06674
 20
-6.207365
 30
0.0
 11
31.016979
 21
-6.257125
 31
0.0
  0
LINE
  5
366
330
5C0
100
AcDbEntity
  8
_0
  6
Continuous
 62
     7
370
    30
100
AcDbLine
 10
31.113062
 20
-6.164573
 30
0.0
 11
31.083156
 21
-6.194469
 31
0.0
  0
LINE
  5
367
330
5C0
100
AcDbEntity
  8
_0
  6
Continuous
 62
     7
370
    30
100
AcDbLine
 10
31.070271
 20
-6.207365
 30
0.0
 11
31.02051
 21
-6.257125
 31
0.0
  0
LINE
  5
368
330
5C0
100
AcDbEntity
  8
_0
  6
Continuous
 62
     7
370
    30
100
AcDbLine
 10
31.113062
 20
-6.168115
 30
0.0
 11
31.083156
 21
-6.19801
 31
0.0
  0
LINE
  5
369
330
5C0
100
AcDbEntity
  8
_0
  6
Continuous
 62
     7
370
    30
100
AcDbLine
 10
31.073812
 20
-6.207365
 30
0.0
 11
31.024052
 21
-6.257125
 31
0.0
  0
LINE
  5
36A
330
5C0
100
AcDbEntity
  8
_0
  6
Continuous
 62
     7
370
    30
100
AcDbLine
 10
31.113062
 20
-6.171646
 30
0.0
 11
31.083156
 21
-6.201542
 31
0.0
  0
LINE
  5
36B
330
5C0
100
AcDbEntity
  8
_0
  6
Continuous
 62
     7
370
    30
100
AcDbLine
 10
31.077344
 20
-6.207365
 30
0.0
 11
31.027583
 21
-6.257125
 31
0.0
  0
LINE
  5
36C
330
5C0
100
AcDbEntity
  8
_0
  6
Continuous
 62
     7
370
    30
100
AcDbLine
 10
31.113062
 20
-6.175177
 30
0.0
 11
31.083156
 21
-6.205073
 31
0.0
  0
LINE
  5
36D
330
5C0
100
AcDbEntity
  8
_0
  6
Continuous
 62
     7
370
    30
100
AcDbLine
 10
31.080875
 20
-6.207365
 30
0.0
 11
31.031115
 21
-6.257125
 31
0.0
  0
LINE
  5
36E
330
5C0
100
AcDbEntity
  8
_0
  6
Continuous
 62
     7
370
    30
100
AcDbLine
 10
31.113062
 20
-6.178719
 30
0.0
 11
31.034656
 21
-6.257125
 31
0.0
  0
LINE
  5
36F
330
5C0
100
AcDbEntity
  8
_0
  6
Continuous
 62
     7
370
    30
100
AcDbLine
 10
31.113062
 20
-6.18225
 30
0.0
 11
31.038187
 21
-6.257125
 31
0.0
  0
LINE
  5
370
330
5C0
100
AcDbEntity
  8
_0
  6
Continuous
 62
     7
370
    30
100
AcDbLine
 10
31.113062
 20
-6.185792
 30
0.0
 11
31.041729
 21
-6.257125
 31
0.0
  0
LINE
  5
371
330
5C0
100
AcDbEntity
  8
_0
  6
Continuous
 62
     7
370
    30
100
AcDbLine
 10
31.113062
 20
-6.189323
 30
0.0
 11
31.04526
 21
-6.257125
 31
0.0
  0
LINE
  5
372
330
5C0
100
AcDbEntity
  8
_0
  6
Continuous
 62
     7
370
    30
100
AcDbLine
 10
31.113062
 20
-6.192854
 30
0.0
 11
31.048792
 21
-6.257125
 31
0.0
  0
LINE
  5
373
330
5C0
100
AcDbEntity
  8
_0
  6
Continuous
 62
     7
370
    30
100
AcDbLine
 10
31.113062
 20
-6.196396
 30
0.0
 11
31.052333
 21
-6.257125
 31
0.0
  0
LINE
  5
374
330
5C0
100
AcDbEntity
  8
_0
  6
Continuous
 62
     7
370
    30
100
AcDbLine
 10
31.113062
 20
-6.199927
 30
0.0
 11
31.055865
 21
-6.257125
 31
0.0
  0
LINE
  5
375
330
5C0
100
AcDbEntity
  8
_0
  6
Continuous
 62
     7
370
    30
100
AcDbLine
 10
31.113062
 20
-6.203469
 30
0.0
 11
31.059406
 21
-6.257125
 31
0.0
  0
LINE
  5
376
330
5C0
100
AcDbEntity
  8
_0
  6
Continuous
 62
     7
370
    30
100
AcDbLine
 10
31.113062
 20
-6.207
 30
0.0
 11
31.062938
 21
-6.257125
 31
0.0
  0
LINE
  5
377
330
5C0
100
AcDbEntity
  8
_0
  6
Continuous
 62
     7
370
    30
100
AcDbLine
 10
31.116229
 20
-6.207365
 30
0.0
 11
31.066469
 21
-6.257125
 31
0.0
  0
LINE
  5
378
330
5C0
100
AcDbEntity
  8
_0
  6
Continuous
 62
     7
370
    30
100
AcDbLine
 10
31.119771
 20
-6.207365
 30
0.0
 11
31.07001
 21
-6.257125
 31
0.0
  0
LINE
  5
379
330
5C0
100
AcDbEntity
  8
_0
  6
Continuous
 62
     7
370
    30
100
AcDbLine
 10
31.123302
 20
-6.207365
 30
0.0
 11
31.073542
 21
-6.257125
 31
0.0
  0
LINE
  5
37A
330
5C0
100
AcDbEntity
  8
_0
  6
Continuous
 62
     7
370
    30
100
AcDbLine
 10
31.126844
 20
-6.207365
 30
0.0
 11
31.077083
 21
-6.257125
 31
0.0
  0
LINE
  5
37B
330
5C0
100
AcDbEntity
  8
_0
  6
Continuous
 62
     7
370
    30
100
AcDbLine
 10
31.130375
 20
-6.207365
 30
0.0
 11
31.080615
 21
-6.257125
 31
0.0
  0
LINE
  5
37C
330
5C0
100
AcDbEntity
  8
_0
  6
Continuous
 62
     7
370
    30
100
AcDbLine
 10
31.133917
 20
-6.207365
 30
0.0
 11
31.084156
 21
-6.257125
 31
0.0
  0
LINE
  5
37D
330
5C0
100
AcDbEntity
  8
_0
  6
Continuous
 62
     7
370
    30
100
AcDbLine
 10
31.137448
 20
-6.207365
 30
0.0
 11
31.087687
 21
-6.257125
 31
0.0
  0
LINE
  5
37E
330
5C0
100
AcDbEntity
  8
_0
  6
Continuous
 62
     7
370
    30
100
AcDbLine
 10
31.140979
 20
-6.207365
 30
0.0
 11
31.091219
 21
-6.257125
 31
0.0
  0
LINE
  5
37F
330
5C0
100
AcDbEntity
  8
_0
  6
Continuous
 62
     7
370
    30
100
AcDbLine
 10
31.144521
 20
-6.207365
 30
0.0
 11
31.09476
 21
-6.257125
 31
0.0
  0
LINE
  5
380
330
5C0
100
AcDbEntity
  8
_0
  6
Continuous
 62
     7
370
    30
100
AcDbLine
 10
31.148052
 20
-6.207365
 30
0.0
 11
31.098292
 21
-6.257125
 31
0.0
  0
LINE
  5
381
330
5C0
100
AcDbEntity
  8
_0
  6
Continuous
 62
     7
370
    30
100
AcDbLine
 10
31.151594
 20
-6.207365
 30
0.0
 11
31.101833
 21
-6.257125
 31
0.0
  0
LINE
  5
382
330
5C0
100
AcDbEntity
  8
_0
  6
Continuous
 62
     7
370
    30
100
AcDbLine
 10
31.155125
 20
-6.207365
 30
0.0
 11
31.105365
 21
-6.257125
 31
0.0
  0
LINE
  5
383
330
5C0
100
AcDbEntity
  8
_0
  6
Continuous
 62
     7
370
    30
100
AcDbLine
 10
31.158656
 20
-6.207365
 30
0.0
 11
31.108896
 21
-6.257125
 31
0.0
  0
LINE
  5
384
330
5C0
100
AcDbEntity
  8
_0
  6
Continuous
 62
     7
370
    30
100
AcDbLine
 10
31.161479
 20
-6.208083
 30
0.0
 11
31.112437
 21
-6.257125
 31
0.0
  0
LINE
  5
385
330
5C0
100
AcDbEntity
  8
_0
  6
Continuous
 62
     7
370
    30
100
AcDbLine
 10
31.164073
 20
-6.20901
 30
0.0
 11
31.115969
 21
-6.257125
 31
0.0
  0
LINE
  5
386
330
5C0
100
AcDbEntity
  8
_0
  6
Continuous
 62
     7
370
    30
100
AcDbLine
 10
31.166677
 20
-6.209948
 30
0.0
 11
31.11951
 21
-6.257125
 31
0.0
  0
LINE
  5
387
330
5C0
100
AcDbEntity
  8
_0
  6
Continuous
 62
     7
370
    30
100
AcDbLine
 10
31.169281
 20
-6.210885
 30
0.0
 11
31.123042
 21
-6.257125
 31
0.0
  0
LINE
  5
388
330
5C0
100
AcDbEntity
  8
_0
  6
Continuous
 62
     7
370
    30
100
AcDbLine
 10
31.171875
 20
-6.211823
 30
0.0
 11
31.126573
 21
-6.257125
 31
0.0
  0
LINE
  5
389
330
5C0
100
AcDbEntity
  8
_0
  6
Continuous
 62
     7
370
    30
100
AcDbLine
 10
31.174479
 20
-6.21275
 30
0.0
 11
31.130115
 21
-6.257125
 31
0.0
  0
LINE
  5
38A
330
5C0
100
AcDbEntity
  8
_0
  6
Continuous
 62
     7
370
    30
100
AcDbLine
 10
31.177083
 20
-6.213687
 30
0.0
 11
31.133646
 21
-6.257125
 31
0.0
  0
LINE
  5
38B
330
5C0
100
AcDbEntity
  8
_0
  6
Continuous
 62
     7
370
    30
100
AcDbLine
 10
31.179677
 20
-6.214625
 30
0.0
 11
31.137187
 21
-6.257125
 31
0.0
  0
LINE
  5
38C
330
5C0
100
AcDbEntity
  8
_0
  6
Continuous
 62
     7
370
    30
100
AcDbLine
 10
31.182281
 20
-6.215562
 30
0.0
 11
31.140719
 21
-6.257125
 31
0.0
  0
LINE
  5
38D
330
5C0
100
AcDbEntity
  8
_0
  6
Continuous
 62
     7
370
    30
100
AcDbLine
 10
31.184885
 20
-6.21649
 30
0.0
 11
31.14426
 21
-6.257125
 31
0.0
  0
LINE
  5
38E
330
5C0
100
AcDbEntity
  8
_0
  6
Continuous
 62
     7
370
    30
100
AcDbLine
 10
31.187479
 20
-6.217427
 30
0.0
 11
31.147792
 21
-6.257125
 31
0.0
  0
LINE
  5
38F
330
5C0
100
AcDbEntity
  8
_0
  6
Continuous
 62
     7
370
    30
100
AcDbLine
 10
31.190083
 20
-6.218365
 30
0.0
 11
31.151323
 21
-6.257125
 31
0.0
  0
LINE
  5
390
330
5C0
100
AcDbEntity
  8
_0
  6
Continuous
 62
     7
370
    30
100
AcDbLine
 10
31.192687
 20
-6.219302
 30
0.0
 11
31.154865
 21
-6.257125
 31
0.0
  0
LINE
  5
391
330
5C0
100
AcDbEntity
  8
_0
  6
Continuous
 62
     7
370
    30
100
AcDbLine
 10
31.195281
 20
-6.220229
 30
0.0
 11
31.158396
 21
-6.257125
 31
0.0
  0
LINE
  5
392
330
5C0
100
AcDbEntity
  8
_0
  6
Continuous
 62
     7
370
    30
100
AcDbLine
 10
31.197885
 20
-6.221167
 30
0.0
 11
31.161938
 21
-6.257125
 31
0.0
  0
LINE
  5
393
330
5C0
100
AcDbEntity
  8
_0
  6
Continuous
 62
     7
370
    30
100
AcDbLine
 10
31.20049
 20
-6.222104
 30
0.0
 11
31.165469
 21
-6.257125
 31
0.0
  0
LINE
  5
394
330
5C0
100
AcDbEntity
  8
_0
  6
Continuous
 62
     7
370
    30
100
AcDbLine
 10
31.203083
 20
-6.223042
 30
0.0
 11
31.169
 21
-6.257125
 31
0.0
  0
LINE
  5
395
330
5C0
100
AcDbEntity
  8
_0
  6
Continuous
 62
     7
370
    30
100
AcDbLine
 10
31.205687
 20
-6.223969
 30
0.0
 11
31.172542
 21
-6.257125
 31
0.0
  0
LINE
  5
396
330
5C0
100
AcDbEntity
  8
_0
  6
Continuous
 62
     7
370
    30
100
AcDbLine
 10
31.208292
 20
-6.224906
 30
0.0
 11
31.176073
 21
-6.257125
 31
0.0
  0
LINE
  5
397
330
5C0
100
AcDbEntity
  8
_0
  6
Continuous
 62
     7
370
    30
100
AcDbLine
 10
31.210885
 20
-6.225844
 30
0.0
 11
31.179615
 21
-6.257125
 31
0.0
  0
LINE
  5
398
330
5C0
100
AcDbEntity
  8
_0
  6
Continuous
 62
     7
370
    30
100
AcDbLine
 10
31.21349
 20
-6.226781
 30
0.0
 11
31.183146
 21
-6.257125
 31
0.0
  0
LINE
  5
399
330
5C0
100
AcDbEntity
  8
_0
  6
Continuous
 62
     7
370
    30
100
AcDbLine
 10
31.216094
 20
-6.227719
 30
0.0
 11
31.186677
 21
-6.257125
 31
0.0
  0
LINE
  5
39A
330
5C0
100
AcDbEntity
  8
_0
  6
Continuous
 62
     7
370
    30
100
AcDbLine
 10
31.218687
 20
-6.228646
 30
0.0
 11
31.190219
 21
-6.257125
 31
0.0
  0
LINE
  5
39B
330
5C0
100
AcDbEntity
  8
_0
  6
Continuous
 62
     7
370
    30
100
AcDbLine
 10
31.221292
 20
-6.229583
 30
0.0
 11
31.19375
 21
-6.257125
 31
0.0
  0
LINE
  5
39C
330
5C0
100
AcDbEntity
  8
_0
  6
Continuous
 62
     7
370
    30
100
AcDbLine
 10
31.223885
 20
-6.230521
 30
0.0
 11
31.197292
 21
-6.257125
 31
0.0
  0
LINE
  5
39D
330
5C0
100
AcDbEntity
  8
_0
  6
Continuous
 62
     7
370
    30
100
AcDbLine
 10
31.22649
 20
-6.231458
 30
0.0
 11
31.200823
 21
-6.257125
 31
0.0
  0
LINE
  5
39E
330
5C0
100
AcDbEntity
  8
_0
  6
Continuous
 62
     7
370
    30
100
AcDbLine
 10
31.229094
 20
-6.232385
 30
0.0
 11
31.204365
 21
-6.257125
 31
0.0
  0
LINE
  5
39F
330
5C0
100
AcDbEntity
  8
_0
  6
Continuous
 62
     7
370
    30
100
AcDbLine
 10
31.231687
 20
-6.233323
 30
0.0
 11
31.207896
 21
-6.257125
 31
0.0
  0
LINE
  5
3A0
330
5C0
100
AcDbEntity
  8
_0
  6
Continuous
 62
     7
370
    30
100
AcDbLine
 10
31.234292
 20
-6.23426
 30
0.0
 11
31.211427
 21
-6.257125
 31
0.0
  0
LINE
  5
3A1
330
5C0
100
AcDbEntity
  8
_0
  6
Continuous
 62
     7
370
    30
100
AcDbLine
 10
31.236896
 20
-6.235198
 30
0.0
 11
31.214969
 21
-6.257125
 31
0.0
  0
LINE
  5
3A2
330
5C0
100
AcDbEntity
  8
_0
  6
Continuous
 62
     7
370
    30
100
AcDbLine
 10
31.23949
 20
-6.236125
 30
0.0
 11
31.2185
 21
-6.257125
 31
0.0
  0
LINE
  5
3A3
330
5C0
100
AcDbEntity
  8
_0
  6
Continuous
 62
     7
370
    30
100
AcDbLine
 10
31.242094
 20
-6.237062
 30
0.0
 11
31.222042
 21
-6.257125
 31
0.0
  0
LINE
  5
3A4
330
5C0
100
AcDbEntity
  8
_0
  6
Continuous
 62
     7
370
    30
100
AcDbLine
 10
31.244698
 20
-6.238
 30
0.0
 11
31.225573
 21
-6.257125
 31
0.0
  0
LINE
  5
3A5
330
5C0
100
AcDbEntity
  8
_0
  6
Continuous
 62
     7
370
    30
100
AcDbLine
 10
31.247292
 20
-6.238937
 30
0.0
 11
31.229104
 21
-6.257125
 31
0.0
  0
LINE
  5
3A6
330
5C0
100
AcDbEntity
  8
_0
  6
Continuous
 62
     7
370
    30
100
AcDbLine
 10
31.249896
 20
-6.239865
 30
0.0
 11
31.232646
 21
-6.257125
 31
0.0
  0
LINE
  5
3A7
330
5C0
100
AcDbEntity
  8
_0
  6
Continuous
 62
     7
370
    30
100
AcDbLine
 10
31.2525
 20
-6.240802
 30
0.0
 11
31.236177
 21
-6.257125
 31
0.0
  0
LINE
  5
3A8
330
5C0
100
AcDbEntity
  8
_0
  6
Continuous
 62
     7
370
    30
100
AcDbLine
 10
31.255094
 20
-6.24174
 30
0.0
 11
31.239719
 21
-6.257125
 31
0.0
  0
LINE
  5
3A9
330
5C0
100
AcDbEntity
  8
_0
  6
Continuous
 62
     7
370
    30
100
AcDbLine
 10
31.257698
 20
-6.242677
 30
0.0
 11
31.24325
 21
-6.257125
 31
0.0
  0
LINE
  5
3AA
330
5C0
100
AcDbEntity
  8
_0
  6
Continuous
 62
     7
370
    30
100
AcDbLine
 10
31.260302
 20
-6.243604
 30
0.0
 11
31.246781
 21
-6.257125
 31
0.0
  0
LINE
  5
3AB
330
5C0
100
AcDbEntity
  8
_0
  6
Continuous
 62
     7
370
    30
100
AcDbLine
 10
31.262896
 20
-6.244542
 30
0.0
 11
31.250323
 21
-6.257125
 31
0.0
  0
LINE
  5
3AC
330
5C0
100
AcDbEntity
  8
_0
  6
Continuous
 62
     7
370
    30
100
AcDbLine
 10
31.2655
 20
-6.245479
 30
0.0
 11
31.253854
 21
-6.257125
 31
0.0
  0
LINE
  5
3AD
330
5C0
100
AcDbEntity
  8
_0
  6
Continuous
 62
     7
370
    30
100
AcDbLine
 10
31.268104
 20
-6.246417
 30
0.0
 11
31.257396
 21
-6.257125
 31
0.0
  0
LINE
  5
3AE
330
5C0
100
AcDbEntity
  8
_0
  6
Continuous
 62
     7
370
    30
100
AcDbLine
 10
31.270698
 20
-6.247344
 30
0.0
 11
31.260927
 21
-6.257125
 31
0.0
  0
LINE
  5
3AF
330
5C0
100
AcDbEntity
  8
_0
  6
Continuous
 62
     7
370
    30
100
AcDbLine
 10
31.273302
 20
-6.248281
 30
0.0
 11
31.264469
 21
-6.257125
 31
0.0
  0
LINE
  5
3B0
330
5C0
100
AcDbEntity
  8
_0
  6
Continuous
 62
     7
370
    30
100
AcDbLine
 10
31.275906
 20
-6.249219
 30
0.0
 11
31.268
 21
-6.257125
 31
0.0
  0
LINE
  5
3B1
330
5C0
100
AcDbEntity
  8
_0
  6
Continuous
 62
     7
370
    30
100
AcDbLine
 10
31.2785
 20
-6.250156
 30
0.0
 11
31.271531
 21
-6.257125
 31
0.0
  0
LINE
  5
3B2
330
5C0
100
AcDbEntity
  8
_0
  6
Continuous
 62
     7
370
    30
100
AcDbLine
 10
31.281104
 20
-6.251083
 30
0.0
 11
31.275073
 21
-6.257125
 31
0.0
  0
LINE
  5
3B3
330
5C0
100
AcDbEntity
  8
_0
  6
Continuous
 62
     7
370
    30
100
AcDbLine
 10
31.283708
 20
-6.252021
 30
0.0
 11
31.278604
 21
-6.257125
 31
0.0
  0
LINE
  5
3B4
330
5C0
100
AcDbEntity
  8
_0
  6
Continuous
 62
     7
370
    30
100
AcDbLine
 10
31.286302
 20
-6.252958
 30
0.0
 11
31.282146
 21
-6.257125
 31
0.0
  0
LINE
  5
3B5
330
5C0
100
AcDbEntity
  8
_0
  6
Continuous
 62
     7
370
    30
100
AcDbLine
 10
31.288906
 20
-6.253896
 30
0.0
 11
31.285677
 21
-6.257125
 31
0.0
  0
LINE
  5
3B6
330
5C0
100
AcDbEntity
  8
_0
  6
Continuous
 62
     7
370
    30
100
AcDbLine
 10
31.29151
 20
-6.254823
 30
0.0
 11
31.289208
 21
-6.257125
 31
0.0
  0
LINE
  5
3B7
330
5C0
100
AcDbEntity
  8
_0
  6
Continuous
 62
     7
370
    30
100
AcDbLine
 10
31.294104
 20
-6.25576
 30
0.0
 11
31.29275
 21
-6.257125
 31
0.0
  0
LINE
  5
3B8
330
5C0
100
AcDbEntity
  8
_0
  6
Continuous
 62
     7
370
    30
100
AcDbLine
 10
31.296708
 20
-6.256698
 30
0.0
 11
31.296281
 21
-6.257125
 31
0.0
  0
LINE
  5
3B9
330
5C0
100
AcDbEntity
  8
_0
  6
Continuous
 62
     7
370
    30
100
AcDbLine
 10
31.14925
 20
-6.100104
 30
0.0
 11
31.130073
 21
-6.119271
 31
0.0
  0
LINE
  5
3BA
330
5C0
100
AcDbEntity
  8
_0
  6
Continuous
 62
     7
370
    30
100
AcDbLine
 10
31.04199
 20
-6.207365
 30
0.0
 11
30.992229
 21
-6.257125
 31
0.0
  0
LINE
  5
3BB
330
5C0
100
AcDbEntity
  8
_0
  6
Continuous
 62
     7
370
    30
100
AcDbLine
 10
31.113062
 20
-6.136292
 30
0.0
 11
31.083156
 21
-6.166187
 31
0.0
  0
LINE
  5
3BC
330
5C0
100
AcDbEntity
  8
_0
  6
Continuous
 62
     7
370
    30
100
AcDbLine
 10
31.14925
 20
-6.096563
 30
0.0
 11
31.126542
 21
-6.119271
 31
0.0
  0
LINE
  5
3BD
330
5C0
100
AcDbEntity
  8
_0
  6
Continuous
 62
     7
370
    30
100
AcDbLine
 10
31.038448
 20
-6.207365
 30
0.0
 11
30.988687
 21
-6.257125
 31
0.0
  0
LINE
  5
3BE
330
5C0
100
AcDbEntity
  8
_0
  6
Continuous
 62
     7
370
    30
100
AcDbLine
 10
31.113062
 20
-6.13275
 30
0.0
 11
31.083156
 21
-6.162646
 31
0.0
  0
LINE
  5
3BF
330
5C0
100
AcDbEntity
  8
_0
  6
Continuous
 62
     7
370
    30
100
AcDbLine
 10
31.14925
 20
-6.093031
 30
0.0
 11
31.123
 21
-6.119271
 31
0.0
  0
LINE
  5
3C0
330
5C0
100
AcDbEntity
  8
_0
  6
Continuous
 62
     7
370
    30
100
AcDbLine
 10
31.033896
 20
-6.208385
 30
0.0
 11
30.985156
 21
-6.257125
 31
0.0
  0
LINE
  5
3C1
330
5C0
100
AcDbEntity
  8
_0
  6
Continuous
 62
     7
370
    30
100
AcDbLine
 10
31.113062
 20
-6.129219
 30
0.0
 11
31.083156
 21
-6.159115
 31
0.0
  0
LINE
  5
3C2
330
5C0
100
AcDbEntity
  8
_0
  6
Continuous
 62
     7
370
    30
100
AcDbLine
 10
31.14925
 20
-6.08949
 30
0.0
 11
31.119469
 21
-6.119271
 31
0.0
  0
LINE
  5
3C3
330
5C0
100
AcDbEntity
  8
_0
  6
Continuous
 62
     7
370
    30
100
AcDbLine
 10
31.028375
 20
-6.210375
 30
0.0
 11
30.981625
 21
-6.257125
 31
0.0
  0
LINE
  5
3C4
330
5C0
100
AcDbEntity
  8
_0
  6
Continuous
 62
     7
370
    30
100
AcDbLine
 10
31.113062
 20
-6.125687
 30
0.0
 11
31.083156
 21
-6.155583
 31
0.0
  0
LINE
  5
3C5
330
5C0
100
AcDbEntity
  8
_0
  6
Continuous
 62
     7
370
    30
100
AcDbLine
 10
31.14925
 20
-6.085958
 30
0.0
 11
31.115937
 21
-6.119271
 31
0.0
  0
LINE
  5
3C6
330
5C0
100
AcDbEntity
  8
_0
  6
Continuous
 62
     7
370
    30
100
AcDbLine
 10
31.022854
 20
-6.212354
 30
0.0
 11
30.978083
 21
-6.257125
 31
0.0
  0
LINE
  5
3C7
330
5C0
100
AcDbEntity
  8
_0
  6
Continuous
 62
     7
370
    30
100
AcDbLine
 10
31.113062
 20
-6.122146
 30
0.0
 11
31.083156
 21
-6.152042
 31
0.0
  0
LINE
  5
3C8
330
5C0
100
AcDbEntity
  8
_0
  6
Continuous
 62
     7
370
    30
100
AcDbLine
 10
31.14925
 20
-6.082427
 30
0.0
 11
31.083156
 21
-6.14851
 31
0.0
  0
LINE
  5
3C9
330
5C0
100
AcDbEntity
  8
_0
  6
Continuous
 62
     7
370
    30
100
AcDbLine
 10
31.017333
 20
-6.214344
 30
0.0
 11
30.974552
 21
-6.257125
 31
0.0
  0
LINE
  5
3CA
330
5C0
100
AcDbEntity
  8
_0
  6
Continuous
 62
     7
370
    30
100
AcDbLine
 10
31.14925
 20
-6.078885
 30
0.0
 11
31.083156
 21
-6.144969
 31
0.0
  0
LINE
  5
3CB
330
5C0
100
AcDbEntity
  8
_0
  6
Continuous
 62
     7
370
    30
100
AcDbLine
 10
31.011812
 20
-6.216323
 30
0.0
 11
30.97101
 21
-6.257125
 31
0.0
  0
LINE
  5
3CC
330
5C0
100
AcDbEntity
  8
_0
  6
Continuous
 62
     7
370
    30
100
AcDbLine
 10
31.14925
 20
-6.075354
 30
0.0
 11
31.083156
 21
-6.141437
 31
0.0
  0
LINE
  5
3CD
330
5C0
100
AcDbEntity
  8
_0
  6
Continuous
 62
     7
370
    30
100
AcDbLine
 10
31.006292
 20
-6.218312
 30
0.0
 11
30.967479
 21
-6.257125
 31
0.0
  0
LINE
  5
3CE
330
5C0
100
AcDbEntity
  8
_0
  6
Continuous
 62
     7
370
    30
100
AcDbLine
 10
31.14925
 20
-6.071813
 30
0.0
 11
31.083156
 21
-6.137906
 31
0.0
  0
LINE
  5
3CF
330
5C0
100
AcDbEntity
  8
_0
  6
Continuous
 62
     7
370
    30
100
AcDbLine
 10
31.000771
 20
-6.220292
 30
0.0
 11
30.963948
 21
-6.257125
 31
0.0
  0
LINE
  5
3D0
330
5C0
100
AcDbEntity
  8
_0
  6
Continuous
 62
     7
370
    30
100
AcDbLine
 10
31.14925
 20
-6.068281
 30
0.0
 11
31.083156
 21
-6.134365
 31
0.0
  0
LINE
  5
3D1
330
5C0
100
AcDbEntity
  8
_0
  6
Continuous
 62
     7
370
    30
100
AcDbLine
 10
30.99525
 20
-6.222281
 30
0.0
 11
30.960406
 21
-6.257125
 31
0.0
  0
LINE
  5
3D2
330
5C0
100
AcDbEntity
  8
_0
  6
Continuous
 62
     7
370
    30
100
AcDbLine
 10
31.14925
 20
-6.06475
 30
0.0
 11
31.083156
 21
-6.130833
 31
0.0
  0
LINE
  5
3D3
330
5C0
100
AcDbEntity
  8
_0
  6
Continuous
 62
     7
370
    30
100
AcDbLine
 10
30.989729
 20
-6.22426
 30
0.0
 11
30.956875
 21
-6.257125
 31
0.0
  0
LINE
  5
3D4
330
5C0
100
AcDbEntity
  8
_0
  6
Continuous
 62
     7
370
    30
100
AcDbLine
 10
31.14925
 20
-6.061208
 30
0.0
 11
31.083156
 21
-6.127292
 31
0.0
  0
LINE
  5
3D5
330
5C0
100
AcDbEntity
  8
_0
  6
Continuous
 62
     7
370
    30
100
AcDbLine
 10
30.984208
 20
-6.22625
 30
0.0
 11
30.953333
 21
-6.257125
 31
0.0
  0
LINE
  5
3D6
330
5C0
100
AcDbEntity
  8
_0
  6
Continuous
 62
     7
370
    30
100
AcDbLine
 10
31.14925
 20
-6.057677
 30
0.0
 11
31.083156
 21
-6.12376
 31
0.0
  0
LINE
  5
3D7
330
5C0
100
AcDbEntity
  8
_0
  6
Continuous
 62
     7
370
    30
100
AcDbLine
 10
30.978687
 20
-6.228229
 30
0.0
 11
30.949802
 21
-6.257125
 31
0.0
  0
LINE
  5
3D8
330
5C0
100
AcDbEntity
  8
_0
  6
Continuous
 62
     7
370
    30
100
AcDbLine
 10
31.147031
 20
-6.056354
 30
0.0
 11
31.083156
 21
-6.120229
 31
0.0
  0
LINE
  5
3D9
330
5C0
100
AcDbEntity
  8
_0
  6
Continuous
 62
     7
370
    30
100
AcDbLine
 10
30.973167
 20
-6.230219
 30
0.0
 11
30.94626
 21
-6.257125
 31
0.0
  0
LINE
  5
3DA
330
5C0
100
AcDbEntity
  8
_0
  6
Continuous
 62
     7
370
    30
100
AcDbLine
 10
31.1435
 20
-6.056354
 30
0.0
 11
31.080573
 21
-6.119271
 31
0.0
  0
LINE
  5
3DB
330
5C0
100
AcDbEntity
  8
_0
  6
Continuous
 62
     7
370
    30
100
AcDbLine
 10
30.967646
 20
-6.232198
 30
0.0
 11
30.942729
 21
-6.257125
 31
0.0
  0
LINE
  5
3DC
330
5C0
100
AcDbEntity
  8
_0
  6
Continuous
 62
     7
370
    30
100
AcDbLine
 10
31.139958
 20
-6.056354
 30
0.0
 11
31.077042
 21
-6.119271
 31
0.0
  0
LINE
  5
3DD
330
5C0
100
AcDbEntity
  8
_0
  6
Continuous
 62
     7
370
    30
100
AcDbLine
 10
30.962125
 20
-6.234187
 30
0.0
 11
30.939198
 21
-6.257125
 31
0.0
  0
LINE
  5
3DE
330
5C0
100
AcDbEntity
  8
_0
  6
Continuous
 62
     7
370
    30
100
AcDbLine
 10
31.136427
 20
-6.056354
 30
0.0
 11
31.07351
 21
-6.119271
 31
0.0
  0
LINE
  5
3DF
330
5C0
100
AcDbEntity
  8
_0
  6
Continuous
 62
     7
370
    30
100
AcDbLine
 10
30.956615
 20
-6.236167
 30
0.0
 11
30.935656
 21
-6.257125
 31
0.0
  0
LINE
  5
3E0
330
5C0
100
AcDbEntity
  8
_0
  6
Continuous
 62
     7
370
    30
100
AcDbLine
 10
31.132885
 20
-6.056354
 30
0.0
 11
31.069969
 21
-6.119271
 31
0.0
  0
LINE
  5
3E1
330
5C0
100
AcDbEntity
  8
_0
  6
Continuous
 62
     7
370
    30
100
AcDbLine
 10
30.951094
 20
-6.238156
 30
0.0
 11
30.932125
 21
-6.257125
 31
0.0
  0
LINE
  5
3E2
330
5C0
100
AcDbEntity
  8
_0
  6
Continuous
 62
     7
370
    30
100
AcDbLine
 10
31.129354
 20
-6.056354
 30
0.0
 11
31.066437
 21
-6.119271
 31
0.0
  0
LINE
  5
3E3
330
5C0
100
AcDbEntity
  8
_0
  6
Continuous
 62
     7
370
    30
100
AcDbLine
 10
30.945573
 20
-6.240135
 30
0.0
 11
30.928583
 21
-6.257125
 31
0.0
  0
LINE
  5
3E4
330
5C0
100
AcDbEntity
  8
_0
  6
Continuous
 62
     7
370
    30
100
AcDbLine
 10
31.125823
 20
-6.056354
 30
0.0
 11
31.062896
 21
-6.119271
 31
0.0
  0
LINE
  5
3E5
330
5C0
100
AcDbEntity
  8
_0
  6
Continuous
 62
     7
370
    30
100
AcDbLine
 10
30.940052
 20
-6.242125
 30
0.0
 11
30.925052
 21
-6.257125
 31
0.0
  0
LINE
  5
3E6
330
5C0
100
AcDbEntity
  8
_0
  6
Continuous
 62
     7
370
    30
100
AcDbLine
 10
31.122281
 20
-6.056354
 30
0.0
 11
31.059365
 21
-6.119271
 31
0.0
  0
LINE
  5
3E7
330
5C0
100
AcDbEntity
  8
_0
  6
Continuous
 62
     7
370
    30
100
AcDbLine
 10
30.934531
 20
-6.244104
 30
0.0
 11
30.921521
 21
-6.257125
 31
0.0
  0
LINE
  5
3E8
330
5C0
100
AcDbEntity
  8
_0
  6
Continuous
 62
     7
370
    30
100
AcDbLine
 10
31.11875
 20
-6.056354
 30
0.0
 11
31.055833
 21
-6.119271
 31
0.0
  0
LINE
  5
3E9
330
5C0
100
AcDbEntity
  8
_0
  6
Continuous
 62
     7
370
    30
100
AcDbLine
 10
30.92901
 20
-6.246094
 30
0.0
 11
30.917979
 21
-6.257125
 31
0.0
  0
LINE
  5
3EA
330
5C0
100
AcDbEntity
  8
_0
  6
Continuous
 62
     7
370
    30
100
AcDbLine
 10
31.115208
 20
-6.056354
 30
0.0
 11
31.052292
 21
-6.119271
 31
0.0
  0
LINE
  5
3EB
330
5C0
100
AcDbEntity
  8
_0
  6
Continuous
 62
     7
370
    30
100
AcDbLine
 10
30.92349
 20
-6.248073
 30
0.0
 11
30.914448
 21
-6.257125
 31
0.0
  0
LINE
  5
3EC
330
5C0
100
AcDbEntity
  8
_0
  6
Continuous
 62
     7
370
    30
100
AcDbLine
 10
31.111677
 20
-6.056354
 30
0.0
 11
31.04876
 21
-6.119271
 31
0.0
  0
LINE
  5
3ED
330
5C0
100
AcDbEntity
  8
_0
  6
Continuous
 62
     7
370
    30
100
AcDbLine
 10
30.917969
 20
-6.250062
 30
0.0
 11
30.910906
 21
-6.257125
 31
0.0
  0
LINE
  5
3EE
330
5C0
100
AcDbEntity
  8
_0
  6
Continuous
 62
     7
370
    30
100
AcDbLine
 10
31.108146
 20
-6.056354
 30
0.0
 11
31.046969
 21
-6.117521
 31
0.0
  0
LINE
  5
3EF
330
5C0
100
AcDbEntity
  8
_0
  6
Continuous
 62
     7
370
    30
100
AcDbLine
 10
30.912448
 20
-6.252042
 30
0.0
 11
30.907375
 21
-6.257125
 31
0.0
  0
LINE
  5
3F0
330
5C0
100
AcDbEntity
  8
_0
  6
Continuous
 62
     7
370
    30
100
AcDbLine
 10
31.104604
 20
-6.056354
 30
0.0
 11
31.046969
 21
-6.11399
 31
0.0
  0
LINE
  5
3F1
330
5C0
100
AcDbEntity
  8
_0
  6
Continuous
 62
     7
370
    30
100
AcDbLine
 10
30.906927
 20
-6.254031
 30
0.0
 11
30.903844
 21
-6.257125
 31
0.0
  0
LINE
  5
3F2
330
5C0
100
AcDbEntity
  8
_0
  6
Continuous
 62
     7
370
    30
100
AcDbLine
 10
31.101073
 20
-6.056354
 30
0.0
 11
31.046969
 21
-6.110448
 31
0.0
  0
LINE
  5
3F3
330
5C0
100
AcDbEntity
  8
_0
  6
Continuous
 62
     7
370
    30
100
AcDbLine
 10
30.901406
 20
-6.25601
 30
0.0
 11
30.900302
 21
-6.257125
 31
0.0
  0
LINE
  5
3F4
330
5C0
100
AcDbEntity
  8
_0
  6
Continuous
 62
     7
370
    30
100
AcDbLine
 10
31.097531
 20
-6.056354
 30
0.0
 11
31.046969
 21
-6.106917
 31
0.0
  0
LINE
  5
3F5
330
5C0
100
AcDbEntity
  8
_0
  6
Continuous
 62
     7
370
    30
100
AcDbLine
 10
31.094
 20
-6.056354
 30
0.0
 11
31.046969
 21
-6.103385
 31
0.0
  0
LINE
  5
3F6
330
5C0
100
AcDbEntity
  8
_0
  6
Continuous
 62
     7
370
    30
100
AcDbLine
 10
31.090458
 20
-6.056354
 30
0.0
 11
31.046969
 21
-6.099844
 31
0.0
  0
LINE
  5
3F7
330
5C0
100
AcDbEntity
  8
_0
  6
Continuous
 62
     7
370
    30
100
AcDbLine
 10
31.086927
 20
-6.056354
 30
0.0
 11
31.046969
 21
-6.096312
 31
0.0
  0
LINE
  5
3F8
330
5C0
100
AcDbEntity
  8
_0
  6
Continuous
 62
     7
370
    30
100
AcDbLine
 10
31.083396
 20
-6.056354
 30
0.0
 11
31.046969
 21
-6.092771
 31
0.0
  0
LINE
  5
3F9
330
5C0
100
AcDbEntity
  8
_0
  6
Continuous
 62
     7
370
    30
100
AcDbLine
 10
31.079854
 20
-6.056354
 30
0.0
 11
31.046969
 21
-6.08924
 31
0.0
  0
LINE
  5
3FA
330
5C0
100
AcDbEntity
  8
_0
  6
Continuous
 62
     7
370
    30
100
AcDbLine
 10
31.076323
 20
-6.056354
 30
0.0
 11
31.046969
 21
-6.085708
 31
0.0
  0
LINE
  5
3FB
330
5C0
100
AcDbEntity
  8
_0
  6
Continuous
 62
     7
370
    30
100
AcDbLine
 10
31.072781
 20
-6.056354
 30
0.0
 11
31.046969
 21
-6.082167
 31
0.0
  0
LINE
  5
3FC
330
5C0
100
AcDbEntity
  8
_0
  6
Continuous
 62
     7
370
    30
100
AcDbLine
 10
31.06925
 20
-6.056354
 30
0.0
 11
31.046969
 21
-6.078635
 31
0.0
  0
LINE
  5
3FD
330
5C0
100
AcDbEntity
  8
_0
  6
Continuous
 62
     7
370
    30
100
AcDbLine
 10
31.065719
 20
-6.056354
 30
0.0
 11
31.046969
 21
-6.075094
 31
0.0
  0
LINE
  5
3FE
330
5C0
100
AcDbEntity
  8
_0
  6
Continuous
 62
     7
370
    30
100
AcDbLine
 10
31.062177
 20
-6.056354
 30
0.0
 11
31.046969
 21
-6.071562
 31
0.0
  0
LINE
  5
3FF
330
5C0
100
AcDbEntity
  8
_0
  6
Continuous
 62
     7
370
    30
100
AcDbLine
 10
31.058646
 20
-6.056354
 30
0.0
 11
31.046969
 21
-6.068031
 31
0.0
  0
LINE
  5
400
330
5C0
100
AcDbEntity
  8
_0
  6
Continuous
 62
     7
370
    30
100
AcDbLine
 10
31.055104
 20
-6.056354
 30
0.0
 11
31.046969
 21
-6.06449
 31
0.0
  0
LINE
  5
401
330
5C0
100
AcDbEntity
  8
_0
  6
Continuous
 62
     7
370
    30
100
AcDbLine
 10
31.051573
 20
-6.056354
 30
0.0
 11
31.046969
 21
-6.060958
 31
0.0
  0
LINE
  5
402
330
5C0
100
AcDbEntity
  8
_0
  6
Continuous
 62
     7
370
    30
100
AcDbLine
 10
31.048042
 20
-6.056354
 30
0.0
 11
31.046969
 21
-6.057417
 31
0.0
  0
LWPOLYLINE
  5
403
330
5C0
100
AcDbEntity
  8
_0
  6
Continuous
 62
     7
370
    30
100
AcDbPolyline
 90
       15
 70
   128
 43
0.0
 10
32.725917
 20
-6.056354
 10
32.674781
 20
-6.056354
 10
32.674781
 20
-6.119271
 10
32.710969
 20
-6.119271
 10
32.710969
 20
-6.207365
 10
32.664552
 20
-6.207365
 10
32.526146
 20
-6.257125
 10
32.725917
 20
-6.257125
 10
32.925688
 20
-6.257125
 10
32.787281
 20
-6.207365
 10
32.740865
 20
-6.207365
 10
32.740865
 20
-6.119271
 10
32.777052
 20
-6.119271
 10
32.777052
 20
-6.056354
 10
32.725917
 20
-6.056354
  0
LINE
  5
404
330
5C0
100
AcDbEntity
  8
_0
  6
Continuous
 62
     7
370
    30
100
AcDbLine
 10
32.777062
 20
-6.103635
 30
0.0
 11
32.761427
 21
-6.119271
 31
0.0
  0
LINE
  5
405
330
5C0
100
AcDbEntity
  8
_0
  6
Continuous
 62
     7
370
    30
100
AcDbLine
 10
32.673333
 20
-6.207365
 30
0.0
 11
32.623573
 21
-6.257125
 31
0.0
  0
LINE
  5
406
330
5C0
100
AcDbEntity
  8
_0
  6
Continuous
 62
     7
370
    30
100
AcDbLine
 10
32.740875
 20
-6.139823
 30
0.0
 11
32.710969
 21
-6.169719
 31
0.0
  0
LINE
  5
407
330
5C0
100
AcDbEntity
  8
_0
  6
Continuous
 62
     7
370
    30
100
AcDbLine
 10
32.777062
 20
-6.107167
 30
0.0
 11
32.764958
 21
-6.119271
 31
0.0
  0
LINE
  5
408
330
5C0
100
AcDbEntity
  8
_0
  6
Continuous
 62
     7
370
    30
100
AcDbLine
 10
32.676875
 20
-6.207365
 30
0.0
 11
32.627115
 21
-6.257125
 31
0.0
  0
LINE
  5
409
330
5C0
100
AcDbEntity
  8
_0
  6
Continuous
 62
     7
370
    30
100
AcDbLine
 10
32.740875
 20
-6.143365
 30
0.0
 11
32.710969
 21
-6.17326
 31
0.0
  0
LINE
  5
40A
330
5C0
100
AcDbEntity
  8
_0
  6
Continuous
 62
     7
370
    30
100
AcDbLine
 10
32.777062
 20
-6.110708
 30
0.0
 11
32.76849
 21
-6.119271
 31
0.0
  0
LINE
  5
40B
330
5C0
100
AcDbEntity
  8
_0
  6
Continuous
 62
     7
370
    30
100
AcDbLine
 10
32.680406
 20
-6.207365
 30
0.0
 11
32.630646
 21
-6.257125
 31
0.0
  0
LINE
  5
40C
330
5C0
100
AcDbEntity
  8
_0
  6
Continuous
 62
     7
370
    30
100
AcDbLine
 10
32.740875
 20
-6.146896
 30
0.0
 11
32.710969
 21
-6.176792
 31
0.0
  0
LINE
  5
40D
330
5C0
100
AcDbEntity
  8
_0
  6
Continuous
 62
     7
370
    30
100
AcDbLine
 10
32.777062
 20
-6.11424
 30
0.0
 11
32.772031
 21
-6.119271
 31
0.0
  0
LINE
  5
40E
330
5C0
100
AcDbEntity
  8
_0
  6
Continuous
 62
     7
370
    30
100
AcDbLine
 10
32.683937
 20
-6.207365
 30
0.0
 11
32.634177
 21
-6.257125
 31
0.0
  0
LINE
  5
40F
330
5C0
100
AcDbEntity
  8
_0
  6
Continuous
 62
     7
370
    30
100
AcDbLine
 10
32.740875
 20
-6.150437
 30
0.0
 11
32.710969
 21
-6.180333
 31
0.0
  0
LINE
  5
410
330
5C0
100
AcDbEntity
  8
_0
  6
Continuous
 62
     7
370
    30
100
AcDbLine
 10
32.777062
 20
-6.117781
 30
0.0
 11
32.775562
 21
-6.119271
 31
0.0
  0
LINE
  5
411
330
5C0
100
AcDbEntity
  8
_0
  6
Continuous
 62
     7
370
    30
100
AcDbLine
 10
32.687479
 20
-6.207365
 30
0.0
 11
32.637719
 21
-6.257125
 31
0.0
  0
LINE
  5
412
330
5C0
100
AcDbEntity
  8
_0
  6
Continuous
 62
     7
370
    30
100
AcDbLine
 10
32.740875
 20
-6.153969
 30
0.0
 11
32.710969
 21
-6.183865
 31
0.0
  0
LINE
  5
413
330
5C0
100
AcDbEntity
  8
_0
  6
Continuous
 62
     7
370
    30
100
AcDbLine
 10
32.740875
 20
-6.1575
 30
0.0
 11
32.710969
 21
-6.187396
 31
0.0
  0
LINE
  5
414
330
5C0
100
AcDbEntity
  8
_0
  6
Continuous
 62
     7
370
    30
100
AcDbLine
 10
32.69101
 20
-6.207365
 30
0.0
 11
32.64125
 21
-6.257125
 31
0.0
  0
LINE
  5
415
330
5C0
100
AcDbEntity
  8
_0
  6
Continuous
 62
     7
370
    30
100
AcDbLine
 10
32.740875
 20
-6.161042
 30
0.0
 11
32.710969
 21
-6.190937
 31
0.0
  0
LINE
  5
416
330
5C0
100
AcDbEntity
  8
_0
  6
Continuous
 62
     7
370
    30
100
AcDbLine
 10
32.694552
 20
-6.207365
 30
0.0
 11
32.644792
 21
-6.257125
 31
0.0
  0
LINE
  5
417
330
5C0
100
AcDbEntity
  8
_0
  6
Continuous
 62
     7
370
    30
100
AcDbLine
 10
32.740875
 20
-6.164573
 30
0.0
 11
32.710969
 21
-6.194469
 31
0.0
  0
LINE
  5
418
330
5C0
100
AcDbEntity
  8
_0
  6
Continuous
 62
     7
370
    30
100
AcDbLine
 10
32.698083
 20
-6.207365
 30
0.0
 11
32.648323
 21
-6.257125
 31
0.0
  0
LINE
  5
419
330
5C0
100
AcDbEntity
  8
_0
  6
Continuous
 62
     7
370
    30
100
AcDbLine
 10
32.740875
 20
-6.168115
 30
0.0
 11
32.710969
 21
-6.19801
 31
0.0
  0
LINE
  5
41A
330
5C0
100
AcDbEntity
  8
_0
  6
Continuous
 62
     7
370
    30
100
AcDbLine
 10
32.701625
 20
-6.207365
 30
0.0
 11
32.651865
 21
-6.257125
 31
0.0
  0
LINE
  5
41B
330
5C0
100
AcDbEntity
  8
_0
  6
Continuous
 62
     7
370
    30
100
AcDbLine
 10
32.740875
 20
-6.171646
 30
0.0
 11
32.710969
 21
-6.201542
 31
0.0
  0
LINE
  5
41C
330
5C0
100
AcDbEntity
  8
_0
  6
Continuous
 62
     7
370
    30
100
AcDbLine
 10
32.705156
 20
-6.207365
 30
0.0
 11
32.655396
 21
-6.257125
 31
0.0
  0
LINE
  5
41D
330
5C0
100
AcDbEntity
  8
_0
  6
Continuous
 62
     7
370
    30
100
AcDbLine
 10
32.740875
 20
-6.175177
 30
0.0
 11
32.710969
 21
-6.205073
 31
0.0
  0
LINE
  5
41E
330
5C0
100
AcDbEntity
  8
_0
  6
Continuous
 62
     7
370
    30
100
AcDbLine
 10
32.708687
 20
-6.207365
 30
0.0
 11
32.658927
 21
-6.257125
 31
0.0
  0
LINE
  5
41F
330
5C0
100
AcDbEntity
  8
_0
  6
Continuous
 62
     7
370
    30
100
AcDbLine
 10
32.740875
 20
-6.178719
 30
0.0
 11
32.662469
 21
-6.257125
 31
0.0
  0
LINE
  5
420
330
5C0
100
AcDbEntity
  8
_0
  6
Continuous
 62
     7
370
    30
100
AcDbLine
 10
32.740875
 20
-6.18225
 30
0.0
 11
32.666
 21
-6.257125
 31
0.0
  0
LINE
  5
421
330
5C0
100
AcDbEntity
  8
_0
  6
Continuous
 62
     7
370
    30
100
AcDbLine
 10
32.740875
 20
-6.185792
 30
0.0
 11
32.669542
 21
-6.257125
 31
0.0
  0
LINE
  5
422
330
5C0
100
AcDbEntity
  8
_0
  6
Continuous
 62
     7
370
    30
100
AcDbLine
 10
32.740875
 20
-6.189323
 30
0.0
 11
32.673073
 21
-6.257125
 31
0.0
  0
LINE
  5
423
330
5C0
100
AcDbEntity
  8
_0
  6
Continuous
 62
     7
370
    30
100
AcDbLine
 10
32.740875
 20
-6.192854
 30
0.0
 11
32.676604
 21
-6.257125
 31
0.0
  0
LINE
  5
424
330
5C0
100
AcDbEntity
  8
_0
  6
Continuous
 62
     7
370
    30
100
AcDbLine
 10
32.740875
 20
-6.196396
 30
0.0
 11
32.680146
 21
-6.257125
 31
0.0
  0
LINE
  5
425
330
5C0
100
AcDbEntity
  8
_0
  6
Continuous
 62
     7
370
    30
100
AcDbLine
 10
32.740875
 20
-6.199927
 30
0.0
 11
32.683677
 21
-6.257125
 31
0.0
  0
LINE
  5
426
330
5C0
100
AcDbEntity
  8
_0
  6
Continuous
 62
     7
370
    30
100
AcDbLine
 10
32.740875
 20
-6.203469
 30
0.0
 11
32.687219
 21
-6.257125
 31
0.0
  0
LINE
  5
427
330
5C0
100
AcDbEntity
  8
_0
  6
Continuous
 62
     7
370
    30
100
AcDbLine
 10
32.740875
 20
-6.207
 30
0.0
 11
32.69075
 21
-6.257125
 31
0.0
  0
LINE
  5
428
330
5C0
100
AcDbEntity
  8
_0
  6
Continuous
 62
     7
370
    30
100
AcDbLine
 10
32.744042
 20
-6.207365
 30
0.0
 11
32.694281
 21
-6.257125
 31
0.0
  0
LINE
  5
429
330
5C0
100
AcDbEntity
  8
_0
  6
Continuous
 62
     7
370
    30
100
AcDbLine
 10
32.747583
 20
-6.207365
 30
0.0
 11
32.697823
 21
-6.257125
 31
0.0
  0
LINE
  5
42A
330
5C0
100
AcDbEntity
  8
_0
  6
Continuous
 62
     7
370
    30
100
AcDbLine
 10
32.751115
 20
-6.207365
 30
0.0
 11
32.701354
 21
-6.257125
 31
0.0
  0
LINE
  5
42B
330
5C0
100
AcDbEntity
  8
_0
  6
Continuous
 62
     7
370
    30
100
AcDbLine
 10
32.754656
 20
-6.207365
 30
0.0
 11
32.704896
 21
-6.257125
 31
0.0
  0
LINE
  5
42C
330
5C0
100
AcDbEntity
  8
_0
  6
Continuous
 62
     7
370
    30
100
AcDbLine
 10
32.758187
 20
-6.207365
 30
0.0
 11
32.708427
 21
-6.257125
 31
0.0
  0
LINE
  5
42D
330
5C0
100
AcDbEntity
  8
_0
  6
Continuous
 62
     7
370
    30
100
AcDbLine
 10
32.761729
 20
-6.207365
 30
0.0
 11
32.711969
 21
-6.257125
 31
0.0
  0
LINE
  5
42E
330
5C0
100
AcDbEntity
  8
_0
  6
Continuous
 62
     7
370
    30
100
AcDbLine
 10
32.76526
 20
-6.207365
 30
0.0
 11
32.7155
 21
-6.257125
 31
0.0
  0
LINE
  5
42F
330
5C0
100
AcDbEntity
  8
_0
  6
Continuous
 62
     7
370
    30
100
AcDbLine
 10
32.768792
 20
-6.207365
 30
0.0
 11
32.719031
 21
-6.257125
 31
0.0
  0
LINE
  5
430
330
5C0
100
AcDbEntity
  8
_0
  6
Continuous
 62
     7
370
    30
100
AcDbLine
 10
32.772333
 20
-6.207365
 30
0.0
 11
32.722573
 21
-6.257125
 31
0.0
  0
LINE
  5
431
330
5C0
100
AcDbEntity
  8
_0
  6
Continuous
 62
     7
370
    30
100
AcDbLine
 10
32.775865
 20
-6.207365
 30
0.0
 11
32.726104
 21
-6.257125
 31
0.0
  0
LINE
  5
432
330
5C0
100
AcDbEntity
  8
_0
  6
Continuous
 62
     7
370
    30
100
AcDbLine
 10
32.779406
 20
-6.207365
 30
0.0
 11
32.729646
 21
-6.257125
 31
0.0
  0
LINE
  5
433
330
5C0
100
AcDbEntity
  8
_0
  6
Continuous
 62
     7
370
    30
100
AcDbLine
 10
32.782937
 20
-6.207365
 30
0.0
 11
32.733177
 21
-6.257125
 31
0.0
  0
LINE
  5
434
330
5C0
100
AcDbEntity
  8
_0
  6
Continuous
 62
     7
370
    30
100
AcDbLine
 10
32.786469
 20
-6.207365
 30
0.0
 11
32.736708
 21
-6.257125
 31
0.0
  0
LINE
  5
435
330
5C0
100
AcDbEntity
  8
_0
  6
Continuous
 62
     7
370
    30
100
AcDbLine
 10
32.789292
 20
-6.208083
 30
0.0
 11
32.74025
 21
-6.257125
 31
0.0
  0
LINE
  5
436
330
5C0
100
AcDbEntity
  8
_0
  6
Continuous
 62
     7
370
    30
100
AcDbLine
 10
32.791885
 20
-6.20901
 30
0.0
 11
32.743781
 21
-6.257125
 31
0.0
  0
LINE
  5
437
330
5C0
100
AcDbEntity
  8
_0
  6
Continuous
 62
     7
370
    30
100
AcDbLine
 10
32.79449
 20
-6.209948
 30
0.0
 11
32.747323
 21
-6.257125
 31
0.0
  0
LINE
  5
438
330
5C0
100
AcDbEntity
  8
_0
  6
Continuous
 62
     7
370
    30
100
AcDbLine
 10
32.797094
 20
-6.210885
 30
0.0
 11
32.750854
 21
-6.257125
 31
0.0
  0
LINE
  5
439
330
5C0
100
AcDbEntity
  8
_0
  6
Continuous
 62
     7
370
    30
100
AcDbLine
 10
32.799687
 20
-6.211823
 30
0.0
 11
32.754385
 21
-6.257125
 31
0.0
  0
LINE
  5
43A
330
5C0
100
AcDbEntity
  8
_0
  6
Continuous
 62
     7
370
    30
100
AcDbLine
 10
32.802292
 20
-6.21275
 30
0.0
 11
32.757927
 21
-6.257125
 31
0.0
  0
LINE
  5
43B
330
5C0
100
AcDbEntity
  8
_0
  6
Continuous
 62
     7
370
    30
100
AcDbLine
 10
32.804896
 20
-6.213687
 30
0.0
 11
32.761458
 21
-6.257125
 31
0.0
  0
LINE
  5
43C
330
5C0
100
AcDbEntity
  8
_0
  6
Continuous
 62
     7
370
    30
100
AcDbLine
 10
32.80749
 20
-6.214625
 30
0.0
 11
32.765
 21
-6.257125
 31
0.0
  0
LINE
  5
43D
330
5C0
100
AcDbEntity
  8
_0
  6
Continuous
 62
     7
370
    30
100
AcDbLine
 10
32.810094
 20
-6.215562
 30
0.0
 11
32.768531
 21
-6.257125
 31
0.0
  0
LINE
  5
43E
330
5C0
100
AcDbEntity
  8
_0
  6
Continuous
 62
     7
370
    30
100
AcDbLine
 10
32.812698
 20
-6.21649
 30
0.0
 11
32.772073
 21
-6.257125
 31
0.0
  0
LINE
  5
43F
330
5C0
100
AcDbEntity
  8
_0
  6
Continuous
 62
     7
370
    30
100
AcDbLine
 10
32.815292
 20
-6.217427
 30
0.0
 11
32.775604
 21
-6.257125
 31
0.0
  0
LINE
  5
440
330
5C0
100
AcDbEntity
  8
_0
  6
Continuous
 62
     7
370
    30
100
AcDbLine
 10
32.817896
 20
-6.218365
 30
0.0
 11
32.779135
 21
-6.257125
 31
0.0
  0
LINE
  5
441
330
5C0
100
AcDbEntity
  8
_0
  6
Continuous
 62
     7
370
    30
100
AcDbLine
 10
32.8205
 20
-6.219302
 30
0.0
 11
32.782677
 21
-6.257125
 31
0.0
  0
LINE
  5
442
330
5C0
100
AcDbEntity
  8
_0
  6
Continuous
 62
     7
370
    30
100
AcDbLine
 10
32.823094
 20
-6.220229
 30
0.0
 11
32.786208
 21
-6.257125
 31
0.0
  0
LINE
  5
443
330
5C0
100
AcDbEntity
  8
_0
  6
Continuous
 62
     7
370
    30
100
AcDbLine
 10
32.825698
 20
-6.221167
 30
0.0
 11
32.78975
 21
-6.257125
 31
0.0
  0
LINE
  5
444
330
5C0
100
AcDbEntity
  8
_0
  6
Continuous
 62
     7
370
    30
100
AcDbLine
 10
32.828302
 20
-6.222104
 30
0.0
 11
32.793281
 21
-6.257125
 31
0.0
  0
LINE
  5
445
330
5C0
100
AcDbEntity
  8
_0
  6
Continuous
 62
     7
370
    30
100
AcDbLine
 10
32.830896
 20
-6.223042
 30
0.0
 11
32.796813
 21
-6.257125
 31
0.0
  0
LINE
  5
446
330
5C0
100
AcDbEntity
  8
_0
  6
Continuous
 62
     7
370
    30
100
AcDbLine
 10
32.8335
 20
-6.223969
 30
0.0
 11
32.800354
 21
-6.257125
 31
0.0
  0
LINE
  5
447
330
5C0
100
AcDbEntity
  8
_0
  6
Continuous
 62
     7
370
    30
100
AcDbLine
 10
32.836104
 20
-6.224906
 30
0.0
 11
32.803885
 21
-6.257125
 31
0.0
  0
LINE
  5
448
330
5C0
100
AcDbEntity
  8
_0
  6
Continuous
 62
     7
370
    30
100
AcDbLine
 10
32.838698
 20
-6.225844
 30
0.0
 11
32.807427
 21
-6.257125
 31
0.0
  0
LINE
  5
449
330
5C0
100
AcDbEntity
  8
_0
  6
Continuous
 62
     7
370
    30
100
AcDbLine
 10
32.841302
 20
-6.226781
 30
0.0
 11
32.810958
 21
-6.257125
 31
0.0
  0
LINE
  5
44A
330
5C0
100
AcDbEntity
  8
_0
  6
Continuous
 62
     7
370
    30
100
AcDbLine
 10
32.843906
 20
-6.227719
 30
0.0
 11
32.81449
 21
-6.257125
 31
0.0
  0
LINE
  5
44B
330
5C0
100
AcDbEntity
  8
_0
  6
Continuous
 62
     7
370
    30
100
AcDbLine
 10
32.8465
 20
-6.228646
 30
0.0
 11
32.818031
 21
-6.257125
 31
0.0
  0
LINE
  5
44C
330
5C0
100
AcDbEntity
  8
_0
  6
Continuous
 62
     7
370
    30
100
AcDbLine
 10
32.849104
 20
-6.229583
 30
0.0
 11
32.821562
 21
-6.257125
 31
0.0
  0
LINE
  5
44D
330
5C0
100
AcDbEntity
  8
_0
  6
Continuous
 62
     7
370
    30
100
AcDbLine
 10
32.851698
 20
-6.230521
 30
0.0
 11
32.825104
 21
-6.257125
 31
0.0
  0
LINE
  5
44E
330
5C0
100
AcDbEntity
  8
_0
  6
Continuous
 62
     7
370
    30
100
AcDbLine
 10
32.854302
 20
-6.231458
 30
0.0
 11
32.828635
 21
-6.257125
 31
0.0
  0
LINE
  5
44F
330
5C0
100
AcDbEntity
  8
_0
  6
Continuous
 62
     7
370
    30
100
AcDbLine
 10
32.856906
 20
-6.232385
 30
0.0
 11
32.832177
 21
-6.257125
 31
0.0
  0
LINE
  5
450
330
5C0
100
AcDbEntity
  8
_0
  6
Continuous
 62
     7
370
    30
100
AcDbLine
 10
32.8595
 20
-6.233323
 30
0.0
 11
32.835708
 21
-6.257125
 31
0.0
  0
LINE
  5
451
330
5C0
100
AcDbEntity
  8
_0
  6
Continuous
 62
     7
370
    30
100
AcDbLine
 10
32.862104
 20
-6.23426
 30
0.0
 11
32.83924
 21
-6.257125
 31
0.0
  0
LINE
  5
452
330
5C0
100
AcDbEntity
  8
_0
  6
Continuous
 62
     7
370
    30
100
AcDbLine
 10
32.864708
 20
-6.235198
 30
0.0
 11
32.842781
 21
-6.257125
 31
0.0
  0
LINE
  5
453
330
5C0
100
AcDbEntity
  8
_0
  6
Continuous
 62
     7
370
    30
100
AcDbLine
 10
32.867302
 20
-6.236125
 30
0.0
 11
32.846312
 21
-6.257125
 31
0.0
  0
LINE
  5
454
330
5C0
100
AcDbEntity
  8
_0
  6
Continuous
 62
     7
370
    30
100
AcDbLine
 10
32.869906
 20
-6.237062
 30
0.0
 11
32.849854
 21
-6.257125
 31
0.0
  0
LINE
  5
455
330
5C0
100
AcDbEntity
  8
_0
  6
Continuous
 62
     7
370
    30
100
AcDbLine
 10
32.87251
 20
-6.238
 30
0.0
 11
32.853385
 21
-6.257125
 31
0.0
  0
LINE
  5
456
330
5C0
100
AcDbEntity
  8
_0
  6
Continuous
 62
     7
370
    30
100
AcDbLine
 10
32.875104
 20
-6.238937
 30
0.0
 11
32.856917
 21
-6.257125
 31
0.0
  0
LINE
  5
457
330
5C0
100
AcDbEntity
  8
_0
  6
Continuous
 62
     7
370
    30
100
AcDbLine
 10
32.877708
 20
-6.239865
 30
0.0
 11
32.860458
 21
-6.257125
 31
0.0
  0
LINE
  5
458
330
5C0
100
AcDbEntity
  8
_0
  6
Continuous
 62
     7
370
    30
100
AcDbLine
 10
32.880313
 20
-6.240802
 30
0.0
 11
32.86399
 21
-6.257125
 31
0.0
  0
LINE
  5
459
330
5C0
100
AcDbEntity
  8
_0
  6
Continuous
 62
     7
370
    30
100
AcDbLine
 10
32.882906
 20
-6.24174
 30
0.0
 11
32.867531
 21
-6.257125
 31
0.0
  0
LINE
  5
45A
330
5C0
100
AcDbEntity
  8
_0
  6
Continuous
 62
     7
370
    30
100
AcDbLine
 10
32.88551
 20
-6.242677
 30
0.0
 11
32.871063
 21
-6.257125
 31
0.0
  0
LINE
  5
45B
330
5C0
100
AcDbEntity
  8
_0
  6
Continuous
 62
     7
370
    30
100
AcDbLine
 10
32.888115
 20
-6.243604
 30
0.0
 11
32.874594
 21
-6.257125
 31
0.0
  0
LINE
  5
45C
330
5C0
100
AcDbEntity
  8
_0
  6
Continuous
 62
     7
370
    30
100
AcDbLine
 10
32.890708
 20
-6.244542
 30
0.0
 11
32.878135
 21
-6.257125
 31
0.0
  0
LINE
  5
45D
330
5C0
100
AcDbEntity
  8
_0
  6
Continuous
 62
     7
370
    30
100
AcDbLine
 10
32.893313
 20
-6.245479
 30
0.0
 11
32.881667
 21
-6.257125
 31
0.0
  0
LINE
  5
45E
330
5C0
100
AcDbEntity
  8
_0
  6
Continuous
 62
     7
370
    30
100
AcDbLine
 10
32.895917
 20
-6.246417
 30
0.0
 11
32.885208
 21
-6.257125
 31
0.0
  0
LINE
  5
45F
330
5C0
100
AcDbEntity
  8
_0
  6
Continuous
 62
     7
370
    30
100
AcDbLine
 10
32.89851
 20
-6.247344
 30
0.0
 11
32.88874
 21
-6.257125
 31
0.0
  0
LINE
  5
460
330
5C0
100
AcDbEntity
  8
_0
  6
Continuous
 62
     7
370
    30
100
AcDbLine
 10
32.901115
 20
-6.248281
 30
0.0
 11
32.892281
 21
-6.257125
 31
0.0
  0
LINE
  5
461
330
5C0
100
AcDbEntity
  8
_0
  6
Continuous
 62
     7
370
    30
100
AcDbLine
 10
32.903719
 20
-6.249219
 30
0.0
 11
32.895812
 21
-6.257125
 31
0.0
  0
LINE
  5
462
330
5C0
100
AcDbEntity
  8
_0
  6
Continuous
 62
     7
370
    30
100
AcDbLine
 10
32.906312
 20
-6.250156
 30
0.0
 11
32.899344
 21
-6.257125
 31
0.0
  0
LINE
  5
463
330
5C0
100
AcDbEntity
  8
_0
  6
Continuous
 62
     7
370
    30
100
AcDbLine
 10
32.908917
 20
-6.251083
 30
0.0
 11
32.902885
 21
-6.257125
 31
0.0
  0
LINE
  5
464
330
5C0
100
AcDbEntity
  8
_0
  6
Continuous
 62
     7
370
    30
100
AcDbLine
 10
32.911521
 20
-6.252021
 30
0.0
 11
32.906417
 21
-6.257125
 31
0.0
  0
LINE
  5
465
330
5C0
100
AcDbEntity
  8
_0
  6
Continuous
 62
     7
370
    30
100
AcDbLine
 10
32.914115
 20
-6.252958
 30
0.0
 11
32.909958
 21
-6.257125
 31
0.0
  0
LINE
  5
466
330
5C0
100
AcDbEntity
  8
_0
  6
Continuous
 62
     7
370
    30
100
AcDbLine
 10
32.916719
 20
-6.253896
 30
0.0
 11
32.91349
 21
-6.257125
 31
0.0
  0
LINE
  5
467
330
5C0
100
AcDbEntity
  8
_0
  6
Continuous
 62
     7
370
    30
100
AcDbLine
 10
32.919323
 20
-6.254823
 30
0.0
 11
32.917021
 21
-6.257125
 31
0.0
  0
LINE
  5
468
330
5C0
100
AcDbEntity
  8
_0
  6
Continuous
 62
     7
370
    30
100
AcDbLine
 10
32.921917
 20
-6.25576
 30
0.0
 11
32.920562
 21
-6.257125
 31
0.0
  0
LINE
  5
469
330
5C0
100
AcDbEntity
  8
_0
  6
Continuous
 62
     7
370
    30
100
AcDbLine
 10
32.924521
 20
-6.256698
 30
0.0
 11
32.924094
 21
-6.257125
 31
0.0
  0
LINE
  5
46A
330
5C0
100
AcDbEntity
  8
_0
  6
Continuous
 62
     7
370
    30
100
AcDbLine
 10
32.777062
 20
-6.100104
 30
0.0
 11
32.757885
 21
-6.119271
 31
0.0
  0
LINE
  5
46B
330
5C0
100
AcDbEntity
  8
_0
  6
Continuous
 62
     7
370
    30
100
AcDbLine
 10
32.669802
 20
-6.207365
 30
0.0
 11
32.620042
 21
-6.257125
 31
0.0
  0
LINE
  5
46C
330
5C0
100
AcDbEntity
  8
_0
  6
Continuous
 62
     7
370
    30
100
AcDbLine
 10
32.740875
 20
-6.136292
 30
0.0
 11
32.710969
 21
-6.166187
 31
0.0
  0
LINE
  5
46D
330
5C0
100
AcDbEntity
  8
_0
  6
Continuous
 62
     7
370
    30
100
AcDbLine
 10
32.777062
 20
-6.096563
 30
0.0
 11
32.754354
 21
-6.119271
 31
0.0
  0
LINE
  5
46E
330
5C0
100
AcDbEntity
  8
_0
  6
Continuous
 62
     7
370
    30
100
AcDbLine
 10
32.66626
 20
-6.207365
 30
0.0
 11
32.6165
 21
-6.257125
 31
0.0
  0
LINE
  5
46F
330
5C0
100
AcDbEntity
  8
_0
  6
Continuous
 62
     7
370
    30
100
AcDbLine
 10
32.740875
 20
-6.13275
 30
0.0
 11
32.710969
 21
-6.162646
 31
0.0
  0
LINE
  5
470
330
5C0
100
AcDbEntity
  8
_0
  6
Continuous
 62
     7
370
    30
100
AcDbLine
 10
32.777062
 20
-6.093031
 30
0.0
 11
32.750813
 21
-6.119271
 31
0.0
  0
LINE
  5
471
330
5C0
100
AcDbEntity
  8
_0
  6
Continuous
 62
     7
370
    30
100
AcDbLine
 10
32.661708
 20
-6.208385
 30
0.0
 11
32.612969
 21
-6.257125
 31
0.0
  0
LINE
  5
472
330
5C0
100
AcDbEntity
  8
_0
  6
Continuous
 62
     7
370
    30
100
AcDbLine
 10
32.740875
 20
-6.129219
 30
0.0
 11
32.710969
 21
-6.159115
 31
0.0
  0
LINE
  5
473
330
5C0
100
AcDbEntity
  8
_0
  6
Continuous
 62
     7
370
    30
100
AcDbLine
 10
32.777062
 20
-6.08949
 30
0.0
 11
32.747281
 21
-6.119271
 31
0.0
  0
LINE
  5
474
330
5C0
100
AcDbEntity
  8
_0
  6
Continuous
 62
     7
370
    30
100
AcDbLine
 10
32.656188
 20
-6.210375
 30
0.0
 11
32.609437
 21
-6.257125
 31
0.0
  0
LINE
  5
475
330
5C0
100
AcDbEntity
  8
_0
  6
Continuous
 62
     7
370
    30
100
AcDbLine
 10
32.740875
 20
-6.125687
 30
0.0
 11
32.710969
 21
-6.155583
 31
0.0
  0
LINE
  5
476
330
5C0
100
AcDbEntity
  8
_0
  6
Continuous
 62
     7
370
    30
100
AcDbLine
 10
32.777062
 20
-6.085958
 30
0.0
 11
32.74375
 21
-6.119271
 31
0.0
  0
LINE
  5
477
330
5C0
100
AcDbEntity
  8
_0
  6
Continuous
 62
     7
370
    30
100
AcDbLine
 10
32.650667
 20
-6.212354
 30
0.0
 11
32.605896
 21
-6.257125
 31
0.0
  0
LINE
  5
478
330
5C0
100
AcDbEntity
  8
_0
  6
Continuous
 62
     7
370
    30
100
AcDbLine
 10
32.740875
 20
-6.122146
 30
0.0
 11
32.710969
 21
-6.152042
 31
0.0
  0
LINE
  5
479
330
5C0
100
AcDbEntity
  8
_0
  6
Continuous
 62
     7
370
    30
100
AcDbLine
 10
32.777062
 20
-6.082427
 30
0.0
 11
32.710969
 21
-6.14851
 31
0.0
  0
LINE
  5
47A
330
5C0
100
AcDbEntity
  8
_0
  6
Continuous
 62
     7
370
    30
100
AcDbLine
 10
32.645146
 20
-6.214344
 30
0.0
 11
32.602365
 21
-6.257125
 31
0.0
  0
LINE
  5
47B
330
5C0
100
AcDbEntity
  8
_0
  6
Continuous
 62
     7
370
    30
100
AcDbLine
 10
32.777062
 20
-6.078885
 30
0.0
 11
32.710969
 21
-6.144969
 31
0.0
  0
LINE
  5
47C
330
5C0
100
AcDbEntity
  8
_0
  6
Continuous
 62
     7
370
    30
100
AcDbLine
 10
32.639625
 20
-6.216323
 30
0.0
 11
32.598823
 21
-6.257125
 31
0.0
  0
LINE
  5
47D
330
5C0
100
AcDbEntity
  8
_0
  6
Continuous
 62
     7
370
    30
100
AcDbLine
 10
32.777062
 20
-6.075354
 30
0.0
 11
32.710969
 21
-6.141437
 31
0.0
  0
LINE
  5
47E
330
5C0
100
AcDbEntity
  8
_0
  6
Continuous
 62
     7
370
    30
100
AcDbLine
 10
32.634104
 20
-6.218312
 30
0.0
 11
32.595292
 21
-6.257125
 31
0.0
  0
LINE
  5
47F
330
5C0
100
AcDbEntity
  8
_0
  6
Continuous
 62
     7
370
    30
100
AcDbLine
 10
32.777062
 20
-6.071813
 30
0.0
 11
32.710969
 21
-6.137906
 31
0.0
  0
LINE
  5
480
330
5C0
100
AcDbEntity
  8
_0
  6
Continuous
 62
     7
370
    30
100
AcDbLine
 10
32.628583
 20
-6.220292
 30
0.0
 11
32.59176
 21
-6.257125
 31
0.0
  0
LINE
  5
481
330
5C0
100
AcDbEntity
  8
_0
  6
Continuous
 62
     7
370
    30
100
AcDbLine
 10
32.777062
 20
-6.068281
 30
0.0
 11
32.710969
 21
-6.134365
 31
0.0
  0
LINE
  5
482
330
5C0
100
AcDbEntity
  8
_0
  6
Continuous
 62
     7
370
    30
100
AcDbLine
 10
32.623062
 20
-6.222281
 30
0.0
 11
32.588219
 21
-6.257125
 31
0.0
  0
LINE
  5
483
330
5C0
100
AcDbEntity
  8
_0
  6
Continuous
 62
     7
370
    30
100
AcDbLine
 10
32.777062
 20
-6.06475
 30
0.0
 11
32.710969
 21
-6.130833
 31
0.0
  0
LINE
  5
484
330
5C0
100
AcDbEntity
  8
_0
  6
Continuous
 62
     7
370
    30
100
AcDbLine
 10
32.617542
 20
-6.22426
 30
0.0
 11
32.584688
 21
-6.257125
 31
0.0
  0
LINE
  5
485
330
5C0
100
AcDbEntity
  8
_0
  6
Continuous
 62
     7
370
    30
100
AcDbLine
 10
32.777062
 20
-6.061208
 30
0.0
 11
32.710969
 21
-6.127292
 31
0.0
  0
LINE
  5
486
330
5C0
100
AcDbEntity
  8
_0
  6
Continuous
 62
     7
370
    30
100
AcDbLine
 10
32.612021
 20
-6.22625
 30
0.0
 11
32.581146
 21
-6.257125
 31
0.0
  0
LINE
  5
487
330
5C0
100
AcDbEntity
  8
_0
  6
Continuous
 62
     7
370
    30
100
AcDbLine
 10
32.777062
 20
-6.057677
 30
0.0
 11
32.710969
 21
-6.12376
 31
0.0
  0
LINE
  5
488
330
5C0
100
AcDbEntity
  8
_0
  6
Continuous
 62
     7
370
    30
100
AcDbLine
 10
32.6065
 20
-6.228229
 30
0.0
 11
32.577615
 21
-6.257125
 31
0.0
  0
LINE
  5
489
330
5C0
100
AcDbEntity
  8
_0
  6
Continuous
 62
     7
370
    30
100
AcDbLine
 10
32.774844
 20
-6.056354
 30
0.0
 11
32.710969
 21
-6.120229
 31
0.0
  0
LINE
  5
48A
330
5C0
100
AcDbEntity
  8
_0
  6
Continuous
 62
     7
370
    30
100
AcDbLine
 10
32.600979
 20
-6.230219
 30
0.0
 11
32.574073
 21
-6.257125
 31
0.0
  0
LINE
  5
48B
330
5C0
100
AcDbEntity
  8
_0
  6
Continuous
 62
     7
370
    30
100
AcDbLine
 10
32.771313
 20
-6.056354
 30
0.0
 11
32.708385
 21
-6.119271
 31
0.0
  0
LINE
  5
48C
330
5C0
100
AcDbEntity
  8
_0
  6
Continuous
 62
     7
370
    30
100
AcDbLine
 10
32.595458
 20
-6.232198
 30
0.0
 11
32.570542
 21
-6.257125
 31
0.0
  0
LINE
  5
48D
330
5C0
100
AcDbEntity
  8
_0
  6
Continuous
 62
     7
370
    30
100
AcDbLine
 10
32.767771
 20
-6.056354
 30
0.0
 11
32.704854
 21
-6.119271
 31
0.0
  0
LINE
  5
48E
330
5C0
100
AcDbEntity
  8
_0
  6
Continuous
 62
     7
370
    30
100
AcDbLine
 10
32.589937
 20
-6.234187
 30
0.0
 11
32.56701
 21
-6.257125
 31
0.0
  0
LINE
  5
48F
330
5C0
100
AcDbEntity
  8
_0
  6
Continuous
 62
     7
370
    30
100
AcDbLine
 10
32.76424
 20
-6.056354
 30
0.0
 11
32.701323
 21
-6.119271
 31
0.0
  0
LINE
  5
490
330
5C0
100
AcDbEntity
  8
_0
  6
Continuous
 62
     7
370
    30
100
AcDbLine
 10
32.584427
 20
-6.236167
 30
0.0
 11
32.563469
 21
-6.257125
 31
0.0
  0
LINE
  5
491
330
5C0
100
AcDbEntity
  8
_0
  6
Continuous
 62
     7
370
    30
100
AcDbLine
 10
32.760698
 20
-6.056354
 30
0.0
 11
32.697781
 21
-6.119271
 31
0.0
  0
LINE
  5
492
330
5C0
100
AcDbEntity
  8
_0
  6
Continuous
 62
     7
370
    30
100
AcDbLine
 10
32.578906
 20
-6.238156
 30
0.0
 11
32.559937
 21
-6.257125
 31
0.0
  0
LINE
  5
493
330
5C0
100
AcDbEntity
  8
_0
  6
Continuous
 62
     7
370
    30
100
AcDbLine
 10
32.757167
 20
-6.056354
 30
0.0
 11
32.69425
 21
-6.119271
 31
0.0
  0
LINE
  5
494
330
5C0
100
AcDbEntity
  8
_0
  6
Continuous
 62
     7
370
    30
100
AcDbLine
 10
32.573385
 20
-6.240135
 30
0.0
 11
32.556396
 21
-6.257125
 31
0.0
  0
LINE
  5
495
330
5C0
100
AcDbEntity
  8
_0
  6
Continuous
 62
     7
370
    30
100
AcDbLine
 10
32.753635
 20
-6.056354
 30
0.0
 11
32.690708
 21
-6.119271
 31
0.0
  0
LINE
  5
496
330
5C0
100
AcDbEntity
  8
_0
  6
Continuous
 62
     7
370
    30
100
AcDbLine
 10
32.567865
 20
-6.242125
 30
0.0
 11
32.552865
 21
-6.257125
 31
0.0
  0
LINE
  5
497
330
5C0
100
AcDbEntity
  8
_0
  6
Continuous
 62
     7
370
    30
100
AcDbLine
 10
32.750094
 20
-6.056354
 30
0.0
 11
32.687177
 21
-6.119271
 31
0.0
  0
LINE
  5
498
330
5C0
100
AcDbEntity
  8
_0
  6
Continuous
 62
     7
370
    30
100
AcDbLine
 10
32.562344
 20
-6.244104
 30
0.0
 11
32.549333
 21
-6.257125
 31
0.0
  0
LINE
  5
499
330
5C0
100
AcDbEntity
  8
_0
  6
Continuous
 62
     7
370
    30
100
AcDbLine
 10
32.746562
 20
-6.056354
 30
0.0
 11
32.683646
 21
-6.119271
 31
0.0
  0
LINE
  5
49A
330
5C0
100
AcDbEntity
  8
_0
  6
Continuous
 62
     7
370
    30
100
AcDbLine
 10
32.556823
 20
-6.246094
 30
0.0
 11
32.545792
 21
-6.257125
 31
0.0
  0
LINE
  5
49B
330
5C0
100
AcDbEntity
  8
_0
  6
Continuous
 62
     7
370
    30
100
AcDbLine
 10
32.743021
 20
-6.056354
 30
0.0
 11
32.680104
 21
-6.119271
 31
0.0
  0
LINE
  5
49C
330
5C0
100
AcDbEntity
  8
_0
  6
Continuous
 62
     7
370
    30
100
AcDbLine
 10
32.551302
 20
-6.248073
 30
0.0
 11
32.54226
 21
-6.257125
 31
0.0
  0
LINE
  5
49D
330
5C0
100
AcDbEntity
  8
_0
  6
Continuous
 62
     7
370
    30
100
AcDbLine
 10
32.73949
 20
-6.056354
 30
0.0
 11
32.676573
 21
-6.119271
 31
0.0
  0
LINE
  5
49E
330
5C0
100
AcDbEntity
  8
_0
  6
Continuous
 62
     7
370
    30
100
AcDbLine
 10
32.545781
 20
-6.250062
 30
0.0
 11
32.538719
 21
-6.257125
 31
0.0
  0
LINE
  5
49F
330
5C0
100
AcDbEntity
  8
_0
  6
Continuous
 62
     7
370
    30
100
AcDbLine
 10
32.735958
 20
-6.056354
 30
0.0
 11
32.674781
 21
-6.117521
 31
0.0
  0
LINE
  5
4A0
330
5C0
100
AcDbEntity
  8
_0
  6
Continuous
 62
     7
370
    30
100
AcDbLine
 10
32.54026
 20
-6.252042
 30
0.0
 11
32.535187
 21
-6.257125
 31
0.0
  0
LINE
  5
4A1
330
5C0
100
AcDbEntity
  8
_0
  6
Continuous
 62
     7
370
    30
100
AcDbLine
 10
32.732417
 20
-6.056354
 30
0.0
 11
32.674781
 21
-6.11399
 31
0.0
  0
LINE
  5
4A2
330
5C0
100
AcDbEntity
  8
_0
  6
Continuous
 62
     7
370
    30
100
AcDbLine
 10
32.53474
 20
-6.254031
 30
0.0
 11
32.531656
 21
-6.257125
 31
0.0
  0
LINE
  5
4A3
330
5C0
100
AcDbEntity
  8
_0
  6
Continuous
 62
     7
370
    30
100
AcDbLine
 10
32.728885
 20
-6.056354
 30
0.0
 11
32.674781
 21
-6.110448
 31
0.0
  0
LINE
  5
4A4
330
5C0
100
AcDbEntity
  8
_0
  6
Continuous
 62
     7
370
    30
100
AcDbLine
 10
32.529219
 20
-6.25601
 30
0.0
 11
32.528115
 21
-6.257125
 31
0.0
  0
LINE
  5
4A5
330
5C0
100
AcDbEntity
  8
_0
  6
Continuous
 62
     7
370
    30
100
AcDbLine
 10
32.725344
 20
-6.056354
 30
0.0
 11
32.674781
 21
-6.106917
 31
0.0
  0
LINE
  5
4A6
330
5C0
100
AcDbEntity
  8
_0
  6
Continuous
 62
     7
370
    30
100
AcDbLine
 10
32.721812
 20
-6.056354
 30
0.0
 11
32.674781
 21
-6.103385
 31
0.0
  0
LINE
  5
4A7
330
5C0
100
AcDbEntity
  8
_0
  6
Continuous
 62
     7
370
    30
100
AcDbLine
 10
32.718271
 20
-6.056354
 30
0.0
 11
32.674781
 21
-6.099844
 31
0.0
  0
LINE
  5
4A8
330
5C0
100
AcDbEntity
  8
_0
  6
Continuous
 62
     7
370
    30
100
AcDbLine
 10
32.71474
 20
-6.056354
 30
0.0
 11
32.674781
 21
-6.096312
 31
0.0
  0
LINE
  5
4A9
330
5C0
100
AcDbEntity
  8
_0
  6
Continuous
 62
     7
370
    30
100
AcDbLine
 10
32.711208
 20
-6.056354
 30
0.0
 11
32.674781
 21
-6.092771
 31
0.0
  0
LINE
  5
4AA
330
5C0
100
AcDbEntity
  8
_0
  6
Continuous
 62
     7
370
    30
100
AcDbLine
 10
32.707667
 20
-6.056354
 30
0.0
 11
32.674781
 21
-6.08924
 31
0.0
  0
LINE
  5
4AB
330
5C0
100
AcDbEntity
  8
_0
  6
Continuous
 62
     7
370
    30
100
AcDbLine
 10
32.704135
 20
-6.056354
 30
0.0
 11
32.674781
 21
-6.085708
 31
0.0
  0
LINE
  5
4AC
330
5C0
100
AcDbEntity
  8
_0
  6
Continuous
 62
     7
370
    30
100
AcDbLine
 10
32.700594
 20
-6.056354
 30
0.0
 11
32.674781
 21
-6.082167
 31
0.0
  0
LINE
  5
4AD
330
5C0
100
AcDbEntity
  8
_0
  6
Continuous
 62
     7
370
    30
100
AcDbLine
 10
32.697063
 20
-6.056354
 30
0.0
 11
32.674781
 21
-6.078635
 31
0.0
  0
LINE
  5
4AE
330
5C0
100
AcDbEntity
  8
_0
  6
Continuous
 62
     7
370
    30
100
AcDbLine
 10
32.693531
 20
-6.056354
 30
0.0
 11
32.674781
 21
-6.075094
 31
0.0
  0
LINE
  5
4AF
330
5C0
100
AcDbEntity
  8
_0
  6
Continuous
 62
     7
370
    30
100
AcDbLine
 10
32.68999
 20
-6.056354
 30
0.0
 11
32.674781
 21
-6.071562
 31
0.0
  0
LINE
  5
4B0
330
5C0
100
AcDbEntity
  8
_0
  6
Continuous
 62
     7
370
    30
100
AcDbLine
 10
32.686458
 20
-6.056354
 30
0.0
 11
32.674781
 21
-6.068031
 31
0.0
  0
LINE
  5
4B1
330
5C0
100
AcDbEntity
  8
_0
  6
Continuous
 62
     7
370
    30
100
AcDbLine
 10
32.682917
 20
-6.056354
 30
0.0
 11
32.674781
 21
-6.06449
 31
0.0
  0
LINE
  5
4B2
330
5C0
100
AcDbEntity
  8
_0
  6
Continuous
 62
     7
370
    30
100
AcDbLine
 10
32.679385
 20
-6.056354
 30
0.0
 11
32.674781
 21
-6.060958
 31
0.0
  0
LINE
  5
4B3
330
5C0
100
AcDbEntity
  8
_0
  6
Continuous
 62
     7
370
    30
100
AcDbLine
 10
32.675854
 20
-6.056354
 30
0.0
 11
32.674781
 21
-6.057417
 31
0.0
  0
LINE
  5
4B6
330
5C0
100
AcDbEntity
  8
DIM
  6
Continuous
 62
     7
370
    13
100
AcDbLine
 10
29.016198
 20
-6.16026
 30
0.0
 11
28.616198
 21
-6.16026
 31
0.0
  0
LINE
  5
4B7
330
5C0
100
AcDbEntity
  8
DIM
  6
Continuous
 62
     7
370
    13
100
AcDbLine
 10
29.468865
 20
-6.16026
 30
0.0
 11
29.868865
 21
-6.16026
 31
0.0
  0
LINE
  5
4B8
330
5C0
100
AcDbEntity
  8
TEXT
  6
Continuous
 62
     7
370
    13
100
AcDbLine
 10
29.42425
 20
-6.933156
 30
0.0
 11
29.786906
 21
-6.917615
 31
0.0
  0
LINE
  5
4B9
330
5C0
100
AcDbEntity
  8
DIM
  6
Continuous
 62
     7
370
    13
100
AcDbLine
 10
30.413521
 20
-5.135312
 30
0.0
 11
30.013521
 21
-5.135312
 31
0.0
  0
LINE
  5
4BA
330
5C0
100
AcDbEntity
  8
DIM
  6
Continuous
 62
     7
370
    13
100
AcDbLine
 10
30.581823
 20
-5.135312
 30
0.0
 11
30.981823
 21
-5.135312
 31
0.0
  0
LINE
  5
4BC
330
5C0
100
AcDbEntity
  8
DIM
  6
Continuous
 62
     7
370
    13
100
AcDbLine
 10
30.894885
 20
-6.457125
 30
0.0
 11
30.894885
 21
-6.959073
 31
0.0
  0
LINE
  5
4BD
330
5C0
100
AcDbEntity
  8
_0
  6
Continuous
 62
     7
370
    30
100
AcDbLine
 10
31.114802
 20
-6.706219
 30
0.0
 11
33.244094
 21
-6.706219
 31
0.0
  0
LINE
  5
4BE
330
5C0
100
AcDbEntity
  8
TEXT
  6
Continuous
 62
     7
370
    13
100
AcDbLine
 10
32.820458
 20
-6.989854
 30
0.0
 11
32.820458
 21
-7.395854
 31
0.0
  0
LINE
  5
4BF
330
5C0
100
AcDbEntity
  8
TEXT
  6
Continuous
 62
     7
370
    13
100
AcDbLine
 10
32.820458
 20
-7.395854
 30
0.0
 11
32.911437
 21
-7.395854
 31
0.0
  0
LINE
  5
4C0
330
5C0
100
AcDbEntity
  8
TEXT
  6
Continuous
 62
     7
370
    13
100
AcDbLine
 10
34.355896
 20
-6.930115
 30
0.0
 11
33.989844
 21
-6.920187
 31
0.0
  0
LINE
  5
4C1
330
5C0
100
AcDbEntity
  8
TEXT
  6
Continuous
 62
     7
370
    13
100
AcDbLine
 10
33.136844
 20
-6.257125
 30
0.0
 11
33.815125
 21
-5.917969
 31
0.0
  0
LINE
  5
4C2
330
5C0
100
AcDbEntity
  8
TEXT
  6
Continuous
 62
     7
370
    13
100
AcDbLine
 10
33.815125
 20
-5.917969
 30
0.0
 11
33.922937
 21
-5.917969
 31
0.0
  0
LINE
  5
4C3
330
5C0
100
AcDbEntity
  8
DIM
  6
Continuous
 62
     7
370
    13
100
AcDbLine
 10
33.245219
 20
-5.135312
 30
0.0
 11
32.845219
 21
-5.135312
 31
0.0
  0
LINE
  5
4C4
330
5C0
100
AcDbEntity
  8
DIM
  6
Continuous
 62
     7
370
    13
100
AcDbLine
 10
33.413521
 20
-5.135312
 30
0.0
 11
33.813521
 21
-5.135312
 31
0.0
  0
LINE
  5
4C5
330
5C0
100
AcDbEntity
  8
DIM
  6
Continuous
 62
     7
370
    13
100
AcDbLine
 10
31.151021
 20
-5.84199
 30
0.0
 11
31.913521
 21
-5.84199
 31
0.0
  0
LINE
  5
4C6
330
5C0
100
AcDbEntity
  8
DEFPOINTS
  6
Continuous
 62
     7
370
    30
100
AcDbLine
 10
31.913521
 20
-5.84199
 30
0.0
 11
31.913521
 21
-5.84199
 31
0.0
  0
LINE
  5
4C7
330
5C0
100
AcDbEntity
  8
DIM
  6
Continuous
 62
     7
370
    13
100
AcDbLine
 10
31.913521
 20
-5.84199
 30
0.0
 11
32.676021
 21
-5.84199
 31
0.0
  0
LINE
  5
4C8
330
5C0
100
AcDbEntity
  8
DEFPOINTS
  6
Continuous
 62
     7
370
    30
100
AcDbLine
 10
31.913521
 20
-5.516375
 30
0.0
 11
31.913521
 21
-5.516375
 31
0.0
  0
LINE
  5
4C9
330
5C0
100
AcDbEntity
  8
_0
  6
Continuous
 62
     7
370
    13
100
AcDbLine
 10
37.458156
 20
-11.934792
 30
0.0
 11
37.251615
 21
-11.934792
 31
0.0
  0
LINE
  5
4CA
330
5C0
100
AcDbEntity
  8
_0
  6
Continuous
 62
     7
370
    13
100
AcDbLine
 10
37.458156
 20
-3.934792
 30
0.0
 11
37.251615
 21
-3.934792
 31
0.0
  0
LINE
  5
4CB
330
5C0
100
AcDbEntity
  8
_0
  6
Continuous
 62
     7
370
    13
100
AcDbLine
 10
37.251615
 20
-12.141333
 30
0.0
 11
37.251615
 21
-11.934792
 31
0.0
  0
LINE
  5
4CC
330
5C0
100
AcDbEntity
  8
_0
  6
Continuous
 62
     7
370
    13
100
AcDbLine
 10
26.501615
 20
-12.141333
 30
0.0
 11
26.501615
 21
-11.934792
 31
0.0
  0
LINE
  5
4CD
330
5C0
100
AcDbEntity
  8
_0
  6
Continuous
 62
     7
370
    13
100
AcDbLine
 10
37.251615
 20
-3.934792
 30
0.0
 11
37.251615
 21
-3.72825
 31
0.0
  0
LINE
  5
4CE
330
5C0
100
AcDbEntity
  8
_0
  6
Continuous
 62
     7
370
    13
100
AcDbLine
 10
26.501615
 20
-11.934792
 30
0.0
 11
26.295073
 21
-11.934792
 31
0.0
  0
LINE
  5
4CF
330
5C0
100
AcDbEntity
  8
_0
  6
Continuous
 62
     7
370
    13
100
AcDbLine
 10
26.501615
 20
-3.934792
 30
0.0
 11
26.295073
 21
-3.934792
 31
0.0
  0
LINE
  5
4D0
330
5C0
100
AcDbEntity
  8
_0
  6
Continuous
 62
     7
370
    13
100
AcDbLine
 10
26.501615
 20
-3.934792
 30
0.0
 11
26.501615
 21
-3.72825
 31
0.0
  0
LINE
  5
4D2
330
5C0
100
AcDbEntity
  8
DIM
  6
Continuous
 62
     7
370
    30
100
AcDbLine
 10
31.265986
 20
-7.963156
 30
0.0
 11
32.545778
 21
-7.963156
 31
0.0
  0
INSERT
  5
4D3
330
5C0
100
AcDbEntity
  8
DIM
  6
Continuous
 62
     7
370
    13
100
AcDbBlockReference
  2
LARROW
 10
29.016198
 20
-6.16026
 30
0.0
 41
12.0
 42
12.0
 43
12.0
  0
INSERT
  5
4D5
330
5C0
100
AcDbEntity
  8
DIM
  6
Continuous
 62
     7
370
    13
100
AcDbBlockReference
  2
LARROW
 10
29.468865
 20
-6.16026
 30
0.0
 41
12.0
 42
12.0
 43
12.0
 50
180.0
  0
INSERT
  5
4D7
330
5C0
100
AcDbEntity
  8
DIM
  6
Continuous
 62
     7
370
    13
100
AcDbBlockReference
  2
LARROW
 10
30.413521
 20
-5.135312
 30
0.0
 41
12.0
 42
12.0
 43
12.0
  0
INSERT
  5
4D9
330
5C0
100
AcDbEntity
  8
DIM
  6
Continuous
 62
     7
370
    13
100
AcDbBlockReference
  2
LARROW
 10
30.581823
 20
-5.135312
 30
0.0
 41
12.0
 42
12.0
 43
12.0
 50
180.0
  0
INSERT
  5
4DB
330
5C0
100
AcDbEntity
  8
DIM
  6
Continuous
 62
     7
370
    13
100
AcDbBlockReference
  2
LARROW
 10
33.245219
 20
-5.135312
 30
0.0
 41
12.0
 42
12.0
 43
12.0
  0
INSERT
  5
4DD
330
5C0
100
AcDbEntity
  8
DIM
  6
Continuous
 62
     7
370
    13
100
AcDbBlockReference
  2
LARROW
 10
33.413521
 20
-5.135312
 30
0.0
 41
12.0
 42
12.0
 43
12.0
 50
180.0
  0
INSERT
  5
4DF
330
5C0
100
AcDbEntity
  8
DIM
  6
Continuous
 62
     7
370
    13
100
AcDbBlockReference
  2
LARROW
 10
33.159365
 20
-6.245865
 30
0.0
 41
11.999999
 42
11.999999
 43
11.999999
 50
206.566155
  0
INSERT
  5
4E1
330
5C0
100
AcDbEntity
  8
DIM
  6
Continuous
 62
     7
370
    13
100
AcDbBlockReference
  2
LARROW
 10
32.820458
 20
-6.989854
 30
0.0
 41
12.0
 42
12.0
 43
12.0
 50
90.0
  0
INSERT
  5
4E3
330
5C0
100
AcDbEntity
  8
DIM
  6
Continuous
 62
     7
370
    13
100
AcDbBlockReference
  2
LARROW
 10
34.355896
 20
-6.930115
 30
0.0
 41
11.999999
 42
11.999999
 43
11.999999
 50
358.446895
  0
INSERT
  5
4E5
330
5C0
100
AcDbEntity
  8
DIM
  6
Continuous
 62
     7
370
    13
100
AcDbBlockReference
  2
LARROW
 10
29.42425
 20
-6.933156
 30
0.0
 41
12.000002
 42
12.000002
 43
12.000002
 50
182.453507
  0
LINE
  5
4EB
330
5C0
100
AcDbEntity
  8
DIM
  6
Continuous
 62
     7
370
    13
100
AcDbLine
 10
32.96301
 20
-6.457125
 30
0.0
 11
32.96301
 21
-5.94149
 31
0.0
  0
LINE
  5
4EC
330
5C0
100
AcDbEntity
  8
DIM
  6
Continuous
 62
     7
370
    13
100
AcDbLine
 10
32.96301
 20
-7.127073
 30
0.0
 11
32.96301
 21
-6.706219
 31
0.0
  0
INSERT
  5
4ED
330
5C0
100
AcDbEntity
  8
TEXT
  6
Continuous
 62
     7
370
    13
100
AcDbBlockReference
  2
LARROW_1
 10
32.96301
 20
-6.457125
 30
0.0
 41
12.0
 42
12.0
 43
12.0
 50
270.0
  0
INSERT
  5
4F8
330
5C0
100
AcDbEntity
  8
TEXT
  6
Continuous
 62
     7
370
    13
100
AcDbBlockReference
  2
LARROW_1
 10
32.96301
 20
-6.706219
 30
0.0
 41
12.0
 42
12.0
 43
12.0
 50
90.0
  0
INSERT
  5
50F
330
5C0
100
AcDbEntity
  8
TEXT
  6
Continuous
 62
     7
370
    13
100
AcDbBlockReference
  2
LARROW_1
 10
31.151021
 20
-5.84199
 30
0.0
 41
12.0
 42
12.0
 43
12.0
 50
180.0
  0
INSERT
  5
51A
330
5C0
100
AcDbEntity
  8
TEXT
  6
Continuous
 62
     7
370
    13
100
AcDbBlockReference
  2
LARROW_1
 10
31.913521
 20
-5.84199
 30
0.0
 41
12.0
 42
12.0
 43
12.0
 50
180.0
  0
INSERT
  5
525
330
5C0
100
AcDbEntity
  8
TEXT
  6
Continuous
 62
     7
370
    13
100
AcDbBlockReference
  2
LARROW_1
 10
31.913521
 20
-5.84199
 30
0.0
 41
12.0
 42
12.0
 43
12.0
  0
INSERT
  5
530
330
5C0
100
AcDbEntity
  8
TEXT
  6
Continuous
 62
     7
370
    13
100
AcDbBlockReference
  2
LARROW_1
 10
32.676021
 20
-5.84199
 30
0.0
 41
12.0
 42
12.0
 43
12.0
  0
INSERT
  5
53B
330
5C0
100
AcDbEntity
  8
TEXT
  6
Continuous
 62
     7
370
    13
100
AcDbBlockReference
  2
LARROW_1
 10
32.676021
 20
-5.84199
 30
0.0
 41
12.0
 42
12.0
 43
12.0
  0
INSERT
  5
546
330
5C0
100
AcDbEntity
  8
TEXT
  6
Continuous
 62
     7
370
    13
100
AcDbBlockReference
  2
LARROW_1
 10
30.894885
 20
-6.959073
 30
0.0
 41
12.0
 42
12.0
 43
12.0
 50
270.0
  0
INSERT
  5
551
330
5C0
100
AcDbEntity
  8
TEXT
  6
Continuous
 62
     7
370
    13
100
AcDbBlockReference
  2
LARROW_1
 10
30.894885
 20
-6.457125
 30
0.0
 41
12.0
 42
12.0
 43
12.0
 50
90.0
  0
TEXT
  5
319
330
5C0
100
AcDbEntity
  8
TEXT
  6
Continuous
 62
     7
370
    30
100
AcDbText
 10
32.957021
 20
-7.457052
 30
0.0
 40
0.12
  1
GEOTEXTILE
 41
0.833333
  7
Style-Arial
100
AcDbText
  0
TEXT
  5
31C
330
5C0
100
AcDbEntity
  8
REF
  6
Continuous
 62
     7
370
    30
100
AcDbText
 10
27.789901
 20
-10.506177
 30
0.0
 40
0.12
  1
REFERENCE: TM 5-850-2/AFM 88-7, CHAPTER 2, RAILROAD DESIGN AND
 41
0.833333
  7
Style-Arial
100
AcDbText
  0
TEXT
  5
31D
330
5C0
100
AcDbEntity
  8
DIM
  6
Continuous
 62
     7
370
    30
100
AcDbText
 10
30.830406
 20
-6.815943
 30
0.0
 40
0.12
  1
12"
 50
90.0
 41
0.833333
  7
Style-Arial
100
AcDbText
  0
TEXT
  5
320
330
5C0
100
AcDbEntity
  8
DIM
  6
Continuous
 62
     7
370
    30
100
AcDbText
 10
29.14309
 20
-6.167208
 30
0.0
 40
0.12
  1
18"
 41
0.833333
  7
Style-Arial
100
AcDbText
  0
TEXT
  5
321
330
5C0
100
AcDbEntity
  8
REF
  6
Continuous
 62
     7
370
    30
100
AcDbText
 10
28.725192
 20
-10.697531
 30
0.0
 40
0.12
  1
CONSTRUCTION OF ARMY AND AIRFORCE INSTALLATIONS.
 41
0.833333
  7
Style-Arial
100
AcDbText
  0
TEXT
  5
322
330
5C0
100
AcDbEntity
  8
BORDER
  6
Continuous
 62
     7
370
    30
100
AcDbText
 10
34.503085
 20
-11.440282
 30
0.0
 40
0.12
  1
AUG 1992
 41
0.833333
  7
Style-Arial
100
AcDbText
  0
TEXT
  5
328
330
5C0
100
AcDbEntity
  8
BORDER
  6
Continuous
 62
     7
370
    30
100
AcDbText
 10
34.634588
 20
-11.226458
 30
0.0
 40
0.12
  1
DATE
 41
0.833333
  7
Style-Arial
100
AcDbText
  0
TEXT
  5
32A
330
5C0
100
AcDbEntity
  8
BORDER
  6
Continuous
 62
     7
370
    30
100
AcDbText
 10
35.671751
 20
-11.226458
 30
0.0
 40
0.12
  1
FIGURE
 41
0.833333
  7
Style-Arial
100
AcDbText
  0
TEXT
  5
32B
330
5C0
100
AcDbEntity
  8
BORDER
  6
Continuous
 62
     7
370
    30
100
AcDbText
 10
35.765656
 20
-11.420477
 30
0.0
 40
0.12
  1
2-36g
 41
0.833333
  7
Style-Arial
100
AcDbText
  0
TEXT
  5
333
330
5C0
100
AcDbEntity
  8
_0
  6
Continuous
 62
     7
370
    30
100
AcDbText
 10
35.705979
 20
-6.963312
 30
0.0
 40
0.12
  1
1
 41
0.833333
  7
Style-Arial
100
AcDbText
  0
TEXT
  5
334
330
5C0
100
AcDbEntity
  8
_0
  6
Continuous
 62
     7
370
    30
100
AcDbText
 10
35.430764
 20
-6.820812
 30
0.0
 40
0.12
  1
3
 41
0.833333
  7
Style-Arial
100
AcDbText
  0
TEXT
  5
335
330
5C0
100
AcDbEntity
  8
TEXT
  6
Continuous
 62
     7
370
    30
100
AcDbText
 10
33.524135
 20
-6.258052
 30
0.0
 40
0.12
  1
SLOPE 2:1
 50
333.43495
 41
0.833333
  7
Style-Arial
100
AcDbText
  0
TEXT
  5
338
330
5C0
100
AcDbEntity
  8
DIM
  6
Continuous
 62
     7
370
    30
100
AcDbText
 10
31.294236
 20
-5.738482
 30
0.0
 40
0.12
  1
2'-4-1/4"
 41
0.833333
  7
Style-Arial
100
AcDbText
  0
TEXT
  5
33A
330
5C0
100
AcDbEntity
  8
DIM
  6
Continuous
 62
     7
370
    30
100
AcDbText
 10
32.040159
 20
-5.738482
 30
0.0
 40
0.12
  1
2'-4-1/4"
 41
0.833333
  7
Style-Arial
100
AcDbText
  0
TEXT
  5
33B
330
5C0
100
AcDbEntity
  8
_0
  6
Continuous
 62
     7
370
    30
100
AcDbText
 10
31.855681
 20
-5.380386
 30
0.0
 40
0.12
  1
C
 41
0.833333
  7
Style-Arial
100
AcDbText
  0
TEXT
  5
33C
330
5C0
100
AcDbEntity
  8
_0
  6
Continuous
 62
     7
370
    30
100
AcDbText
 10
31.880918
 20
-5.438924
 30
0.0
 40
0.12
  1
L
 41
0.833333
  7
Style-Arial
100
AcDbText
  0
TEXT
  5
33F
330
5C0
100
AcDbEntity
  8
DIM
  6
Continuous
 62
     7
370
    30
100
AcDbText
 10
29.53294
 20
-5.203448
 30
0.0
 40
0.12
  1
6" MIN
 41
0.833333
  7
Style-Arial
100
AcDbText
  0
TEXT
  5
340
330
5C0
100
AcDbEntity
  8
DIM
  6
Continuous
 62
     7
370
    30
100
AcDbText
 10
33.884948
 20
-5.186573
 30
0.0
 40
0.12
  1
6" MIN
 41
0.833333
  7
Style-Arial
100
AcDbText
  0
TEXT
  5
343
330
5C0
100
AcDbEntity
  8
TEXT
  6
Continuous
 62
     7
370
    30
100
AcDbText
 10
29.627117
 20
-6.580926
 30
0.0
 40
0.12
  1
SLOPE 2:1
 50
26.56505
 41
0.833333
  7
Style-Arial
100
AcDbText
  0
TEXT
  5
346
330
5C0
100
AcDbEntity
  8
_0
  6
Continuous
 62
     7
370
    30
100
AcDbText
 10
28.431308
 20
-6.834302
 30
0.0
 40
0.12
  1
3
 41
0.833333
  7
Style-Arial
100
AcDbText
  0
TEXT
  5
347
330
5C0
100
AcDbEntity
  8
_0
  6
Continuous
 62
     7
370
    30
100
AcDbText
 10
28.178115
 20
-6.992375
 30
0.0
 40
0.12
  1
1
 41
0.833333
  7
Style-Arial
100
AcDbText
  0
TEXT
  5
348
330
5C0
100
AcDbEntity
  8
TEXT
  6
Continuous
 62
     7
370
    30
100
AcDbText
 10
31.326437
 20
-6.888438
 30
0.0
 40
0.12
  1
SUB BALLAST
 41
0.833333
  7
Style-Arial
100
AcDbText
  0
TEXT
  5
349
330
5C0
100
AcDbEntity
  8
TEXT
  6
Continuous
 62
     7
370
    30
100
AcDbText
 10
31.507196
 20
-7.284917
 30
0.0
 40
0.12
  1
COMPACTED
 41
0.833333
  7
Style-Arial
100
AcDbText
  0
TEXT
  5
350
330
5C0
100
AcDbEntity
  8
TEXT
  6
Continuous
 62
     7
370
    30
100
AcDbText
 10
31.365375
 20
-6.644865
 30
0.0
 40
0.12
  1
TOP BALLAST
 41
0.833333
  7
Style-Arial
100
AcDbText
  0
TEXT
  5
351
330
5C0
100
AcDbEntity
  8
TEXT
  6
Continuous
 62
     7
370
    30
100
AcDbText
 10
33.922365
 20
-5.975229
 30
0.0
 40
0.12
  1
TOP OF TIE
 41
0.833333
  7
Style-Arial
100
AcDbText
  0
TEXT
  5
4B4
330
5C0
100
AcDbEntity
  8
TEXT
  6
Continuous
 62
     7
370
    30
100
AcDbText
 10
31.563193
 20
-7.458827
 30
0.0
 40
0.12
  1
SUBGRADE
 41
0.833333
  7
Style-Arial
100
AcDbText
  0
TEXT
  5
4B5
330
5C0
100
AcDbEntity
  8
DIM
  6
Continuous
 62
     7
370
    30
100
AcDbText
 10
29.111302
 20
-6.333
 30
0.0
 40
0.12
  1
MIN
 41
0.833333
  7
Style-Arial
100
AcDbText
  0
TEXT
  5
4BB
330
5C0
100
AcDbEntity
  8
DIM
  6
Continuous
 62
     7
370
    30
100
AcDbText
 10
31.085792
 20
-6.829619
 30
0.0
 40
0.12
  1
MIN
 50
90.0
 41
0.833333
  7
Style-Arial
100
AcDbText
  0
TEXT
  5
4D1
330
5C0
100
AcDbEntity
  8
TITLE
  6
Continuous
 62
     7
370
    30
100
AcDbText
 10
31.275449
 20
-7.900784
 30
0.0
 40
0.12
  1
TYPICAL SECTION
 41
0.833333
  7
Style-Arial
100
AcDbText
  0
TEXT
  5
4E7
330
5C0
100
AcDbEntity
  8
TEXT
  6
Continuous
 62
     7
370
    30
100
AcDbText
 10
33.111208
 20
-6.915125
 30
0.0
 40
0.12
  1
SLOPE 2%
 50
358.806511
 41
0.833333
  7
Style-Arial
100
AcDbText
  0
TEXT
  5
4E8
330
5C0
100
AcDbEntity
  8
TEXT
  6
Continuous
 62
     7
370
    30
100
AcDbText
 10
33.160344
 20
-7.128656
 30
0.0
 40
0.12
  1
(TYPICAL)
 50
358.806511
 41
0.833333
  7
Style-Arial
100
AcDbText
  0
TEXT
  5
4E9
330
5C0
100
AcDbEntity
  8
TEXT
  6
Continuous
 62
     7
370
    30
100
AcDbText
 10
29.813312
 20
-6.937906
 30
0.0
 40
0.12
  1
SLOPE 2%
 50
1.169172
 41
0.833333
  7
Style-Arial
100
AcDbText
  0
TEXT
  5
4EA
330
5C0
100
AcDbEntity
  8
TEXT
  6
Continuous
 62
     7
370
    30
100
AcDbText
 10
29.836115
 20
-7.139906
 30
0.0
 40
0.12
  1
(TYPICAL)
 50
1.169172
 41
0.833333
  7
Style-Arial
100
AcDbText
  0
TEXT
  5
503
330
5C0
100
AcDbEntity
  8
DIM
  6
Continuous
 62
     7
370
    30
100
AcDbText
 10
33.002911
 20
-5.876875
 30
0.0
 40
0.12
  1
4" MIN
 50
90.0
 41
0.833333
  7
Style-Arial
100
AcDbText
  0
TEXT
  5
504
330
5C0
100
AcDbEntity
  8
TEXT
  6
Continuous
 62
     7
370
    30
100
AcDbText
 10
31.371688
 20
-8.142147
 30
0.0
 40
0.12
  1
NOT TO SCALE
 41
0.833333
  7
Style-Arial
100
AcDbText
  0
TEXT
  5
505
330
5C0
100
AcDbEntity
  8
TITLE
  6
Continuous
 62
     7
370
    30
100
AcDbText
 10
28.87964
 20
-11.375608
 30
0.0
 40
0.12
  1
TYPICAL BALLAST/SUBBALLAST SECTION WITH GEOTEXTILE
 41
0.833333
  7
Style-Arial
100
AcDbText
  0
TEXT
  5
506
330
5C0
100
AcDbEntity
  8
REF
  6
Continuous
 62
     7
370
    30
100
AcDbText
 10
28.725894
 20
-10.883667
 30
0.0
 40
0.12
  1
CEGS-02274 GEOTEXTILES IN RAILROADS
 41
0.833333
  7
Style-Arial
100
AcDbText
  0
TEXT
  5
507
330
5C0
100
AcDbEntity
  8
NOTES
  6
Continuous
 62
     7
370
    30
100
AcDbText
 10
28.541867
 20
-8.691375
 30
0.0
 40
0.12
  1
DENSITY, AND WHEEL LOADS.
 41
0.833333
  7
Style-Arial
100
AcDbText
  0
TEXT
  5
508
330
5C0
100
AcDbEntity
  8
NOTES
  6
Continuous
 62
     7
370
    30
100
AcDbText
 10
28.546855
 20
-9.325458
 30
0.0
 40
0.12
  1
STRUCTURAL AND ECONOMIC DESIGN WHILE MEETING MINIMUM THICKNESS
 41
0.833333
  7
Style-Arial
100
AcDbText
  0
TEXT
  5
509
330
5C0
100
AcDbEntity
  8
NOTES
  6
Continuous
 62
     7
370
    30
100
AcDbText
 10
28.54172
 20
-9.497865
 30
0.0
 40
0.12
  1
REQUIREMENTS.
 41
0.833333
  7
Style-Arial
100
AcDbText
  0
TEXT
  5
50A
330
5C0
100
AcDbEntity
  8
NOTES
  6
Continuous
 62
     7
370
    30
100
AcDbText
 10
27.789321
 20
-8.511646
 30
0.0
 40
0.12
  1
NOTES: 1.  DEPTH OF BALLAST SECTION WILL DEPEND ON SUBGRADE STRENGTH, TRAFFIC
 41
0.833333
  7
Style-Arial
100
AcDbText
  0
TEXT
  5
50B
330
5C0
100
AcDbEntity
  8
NOTES
  6
Continuous
 62
     7
370
    30
100
AcDbText
 10
28.348115
 20
-8.905677
 30
0.0
 40
0.12
  1
2.  MINIMUM DEPTH OF BALLAST/SUBBALLAST IS 10 INCHES BELOW BOTTOM OF TIE.
 41
0.833333
  7
Style-Arial
100
AcDbText
  0
TEXT
  5
50C
330
5C0
100
AcDbEntity
  8
NOTES
  6
Continuous
 62
     7
370
    30
100
AcDbText
 10
28.355566
 20
-9.155823
 30
0.0
 40
0.12
  1
3.  THICKNESS OF BALLAST AND SUBBALLAST MAY BE VARIED TO OBTAIN BEST
 41
0.833333
  7
Style-Arial
100
AcDbText
  0
TEXT
  5
50D
330
5C0
100
AcDbEntity
  8
NOTES
  6
Continuous
 62
     7
370
    30
100
AcDbText
 10
28.351942
 20
-9.72324
 30
0.0
 40
0.12
  1
4.  GEOTEXTILES TO MEET THE REQUIREMENTS OF CEGS-02274.
 41
0.833333
  7
Style-Arial
100
AcDbText
  0
TEXT
  5
50E
330
5C0
100
AcDbEntity
  8
NOTES
  6
Continuous
 62
     7
370
    30
100
AcDbText
 10
28.351942
 20
-9.955417
 30
0.0
 40
0.12
  1
5.  GEOTEXTILE INSTALLATION ON CURVES WILL BE SIMILAR.
 41
0.833333
  7
Style-Arial
100
AcDbText
  0
ENDSEC
  0
SECTION
  2
OBJECTS
  0
DICTIONARY
  5
5B4
330
0
100
AcDbDictionary
281
     1
  3
ACAD_COLOR
350
5D3
  3
ACAD_GROUP
350
5D0
  3
ACAD_LAYOUT
350
5C4
  3
ACAD_MATERIAL
350
5D2
  3
ACAD_MLINESTYLE
350
5BE
  3
ACAD_PLOTSETTINGS
350
5D1
  3
ACAD_PLOTSTYLENAME
350
5B3
  3
ACAD_TABLESTYLE
350
5ED
  3
AcadDim
350
5E0
  3
MicroStation
350
5D8
  0
DICTIONARY
  5
5B0
330
5AF
100
AcDbDictionary
280
     1
281
     1
  3
ACAD_LAYERFILTERS
360
5D7
  3
ACAD_LAYERSTATES
360
5B1
  0
DICTIONARY
  5
5E9
330
5C0
100
AcDbDictionary
280
     1
281
     1
  3
ACAD_SORTENTS
360
5EA
  0
DICTIONARY
  5
5D3
102
{ACAD_REACTORS
330
5B4
102
}
330
5B4
100
AcDbDictionary
281
     1
  0
DICTIONARY
  5
5D0
102
{ACAD_REACTORS
330
5B4
102
}
330
5B4
100
AcDbDictionary
281
     1
  0
DICTIONARY
  5
5C4
102
{ACAD_REACTORS
330
5B4
102
}
330
5B4
100
AcDbDictionary
281
     1
  3
Layout1
350
5C8
  3
Model
350
5C3
  0
DICTIONARY
  5
5D2
102
{ACAD_REACTORS
330
5B4
102
}
330
5B4
100
AcDbDictionary
281
     1
  0
DICTIONARY
  5
5BE
102
{ACAD_REACTORS
330
5B4
102
}
330
5B4
100
AcDbDictionary
281
     1
  3
Standard
350
5BD
  0
DICTIONARY
  5
5D1
102
{ACAD_REACTORS
330
5B4
102
}
330
5B4
100
AcDbDictionary
281
     1
  0
ACDBDICTIONARYWDFLT
  5
5B3
102
{ACAD_REACTORS
330
5B4
102
}
330
5B4
100
AcDbDictionary
281
     1
  3
Normal
350
5B2
100
AcDbDictionaryWithDefault
340
5B2
  0
DICTIONARY
  5
5ED
102
{ACAD_REACTORS
330
5B4
102
}
330
5B4
100
AcDbDictionary
281
     1
  0
XRECORD
  5
5E0
102
{ACAD_REACTORS
330
5B4
102
}
330
5B4
100
AcDbXrecord
280
     1
 90
   990106
  3
 
 60
     0
 61
     0
 62
     1
 63
     1
 64
     0
 65
     0
 66
     0
 67
     3
 68
     1
 69
     1
 70
     0
 71
     0
 72
     0
 40
0.0
170
     0
  0
DICTIONARY
  5
5D8
102
{ACAD_REACTORS
330
5B4
102
}
330
5B4
100
AcDbDictionary
281
     1
  3
ApplicationElement 1446
350
5A6
  3
ApplicationElement 1452
350
5AC
  3
ModelApplicationElement 0 1445
350
5A5
  0
DICTIONARY
  5
5D7
102
{ACAD_REACTORS
330
5B0
102
}
330
5B0
100
AcDbDictionary
281
     1
  0
DICTIONARY
  5
5B1
102
{ACAD_REACTORS
330
5B0
102
}
330
5B0
100
AcDbDictionary
281
     1
  0
SORTENTSTABLE
  5
5EA
102
{ACAD_REACTORS
330
5E9
102
}
330
5E9
100
AcDbSortentsTable
330
5C0
331
319
  5
4CB
331
31A
  5
319
331
31B
  5
31A
331
31C
  5
4CC
331
31D
  5
4CD
331
31E
  5
31B
331
31F
  5
31C
331
320
  5
4CE
331
321
  5
4CF
331
322
  5
4D0
331
323
  5
31D
331
324
  5
31E
331
325
  5
31F
331
326
  5
320
331
327
  5
321
331
328
  5
4D1
331
329
  5
322
331
32A
  5
4D2
331
32B
  5
4D3
331
32C
  5
323
331
32D
  5
324
331
32E
  5
325
331
32F
  5
326
331
330
  5
327
331
331
  5
328
331
332
  5
329
331
333
  5
4D5
331
334
  5
4D7
331
335
  5
4D9
331
336
  5
32A
331
337
  5
32B
331
338
  5
4DB
331
339
  5
32C
331
33A
  5
4DD
331
33B
  5
4DF
331
33C
  5
4E1
331
33D
  5
32D
331
33E
  5
32E
331
33F
  5
4E3
331
340
  5
4E5
331
341
  5
32F
331
342
  5
330
331
343
  5
4E7
331
344
  5
331
331
345
  5
332
331
346
  5
4E8
331
347
  5
4E9
331
348
  5
4EA
331
349
  5
4EB
331
34A
  5
333
331
34B
  5
334
331
34C
  5
335
331
34D
  5
336
331
34E
  5
337
331
34F
  5
338
331
350
  5
4EC
331
351
  5
4ED
331
352
  5
339
331
353
  5
33A
331
354
  5
33B
331
355
  5
33C
331
356
  5
33D
331
357
  5
33E
331
358
  5
33F
331
359
  5
340
331
35A
  5
341
331
35B
  5
342
331
35C
  5
343
331
35D
  5
344
331
35E
  5
345
331
35F
  5
346
331
360
  5
347
331
361
  5
348
331
362
  5
349
331
363
  5
34A
331
364
  5
34B
331
365
  5
34C
331
366
  5
34D
331
367
  5
34E
331
368
  5
34F
331
369
  5
350
331
36A
  5
351
331
36B
  5
352
331
36C
  5
353
331
36D
  5
354
331
36E
  5
355
331
36F
  5
356
331
370
  5
357
331
371
  5
358
331
372
  5
359
331
373
  5
35A
331
374
  5
35B
331
375
  5
35C
331
376
  5
35D
331
377
  5
35E
331
378
  5
35F
331
379
  5
360
331
37A
  5
361
331
37B
  5
362
331
37C
  5
363
331
37D
  5
364
331
37E
  5
365
331
37F
  5
366
331
380
  5
367
331
381
  5
368
331
382
  5
369
331
383
  5
36A
331
384
  5
36B
331
385
  5
36C
331
386
  5
36D
331
387
  5
36E
331
388
  5
36F
331
389
  5
370
331
38A
  5
371
331
38B
  5
372
331
38C
  5
373
331
38D
  5
374
331
38E
  5
375
331
38F
  5
376
331
390
  5
377
331
391
  5
378
331
392
  5
379
331
393
  5
37A
331
394
  5
37B
331
395
  5
37C
331
396
  5
37D
331
397
  5
37E
331
398
  5
37F
331
399
  5
380
331
39A
  5
381
331
39B
  5
382
331
39C
  5
383
331
39D
  5
384
331
39E
  5
385
331
39F
  5
386
331
3A0
  5
387
331
3A1
  5
388
331
3A2
  5
389
331
3A3
  5
38A
331
3A4
  5
38B
331
3A5
  5
38C
331
3A6
  5
38D
331
3A7
  5
38E
331
3A8
  5
38F
331
3A9
  5
390
331
3AA
  5
391
331
3AB
  5
392
331
3AC
  5
393
331
3AD
  5
394
331
3AE
  5
395
331
3AF
  5
396
331
3B0
  5
397
331
3B1
  5
398
331
3B2
  5
399
331
3B3
  5
39A
331
3B4
  5
39B
331
3B5
  5
39C
331
3B6
  5
39D
331
3B7
  5
39E
331
3B8
  5
39F
331
3B9
  5
3A0
331
3BA
  5
3A1
331
3BB
  5
3A2
331
3BC
  5
3A3
331
3BD
  5
3A4
331
3BE
  5
3A5
331
3BF
  5
3A6
331
3C0
  5
3A7
331
3C1
  5
3A8
331
3C2
  5
3A9
331
3C3
  5
3AA
331
3C4
  5
3AB
331
3C5
  5
3AC
331
3C6
  5
3AD
331
3C7
  5
3AE
331
3C8
  5
3AF
331
3C9
  5
3B0
331
3CA
  5
3B1
331
3CB
  5
3B2
331
3CC
  5
3B3
331
3CD
  5
3B4
331
3CE
  5
3B5
331
3CF
  5
3B6
331
3D0
  5
3B7
331
3D1
  5
3B8
331
3D2
  5
3B9
331
3D3
  5
3BA
331
3D4
  5
3BB
331
3D5
  5
3BC
331
3D6
  5
3BD
331
3D7
  5
3BE
331
3D8
  5
3BF
331
3D9
  5
3C0
331
3DA
  5
3C1
331
3DB
  5
3C2
331
3DC
  5
3C3
331
3DD
  5
3C4
331
3DE
  5
3C5
331
3DF
  5
3C6
331
3E0
  5
3C7
331
3E1
  5
3C8
331
3E2
  5
3C9
331
3E3
  5
3CA
331
3E4
  5
3CB
331
3E5
  5
3CC
331
3E6
  5
3CD
331
3E7
  5
3CE
331
3E8
  5
3CF
331
3E9
  5
3D0
331
3EA
  5
3D1
331
3EB
  5
3D2
331
3EC
  5
3D3
331
3ED
  5
3D4
331
3EE
  5
3D5
331
3EF
  5
3D6
331
3F0
  5
3D7
331
3F1
  5
3D8
331
3F2
  5
3D9
331
3F3
  5
3DA
331
3F4
  5
3DB
331
3F5
  5
3DC
331
3F6
  5
3DD
331
3F7
  5
3DE
331
3F8
  5
3DF
331
3F9
  5
3E0
331
3FA
  5
3E1
331
3FB
  5
3E2
331
3FC
  5
3E3
331
3FD
  5
3E4
331
3FE
  5
3E5
331
3FF
  5
3E6
331
400
  5
3E7
331
401
  5
3E8
331
402
  5
3E9
331
403
  5
3EA
331
404
  5
3EB
331
405
  5
3EC
331
406
  5
3ED
331
407
  5
3EE
331
408
  5
3EF
331
409
  5
3F0
331
40A
  5
3F1
331
40B
  5
3F2
331
40C
  5
3F3
331
40D
  5
3F4
331
40E
  5
3F5
331
40F
  5
3F6
331
410
  5
3F7
331
411
  5
3F8
331
412
  5
3F9
331
413
  5
3FA
331
414
  5
3FB
331
415
  5
3FC
331
416
  5
3FD
331
417
  5
3FE
331
418
  5
3FF
331
419
  5
400
331
41A
  5
401
331
41B
  5
402
331
41C
  5
403
331
41D
  5
404
331
41E
  5
405
331
41F
  5
406
331
420
  5
407
331
421
  5
408
331
422
  5
409
331
423
  5
40A
331
424
  5
40B
331
425
  5
40C
331
426
  5
40D
331
427
  5
40E
331
428
  5
40F
331
429
  5
410
331
42A
  5
411
331
42B
  5
412
331
42C
  5
413
331
42D
  5
414
331
42E
  5
415
331
42F
  5
416
331
430
  5
417
331
431
  5
418
331
432
  5
419
331
433
  5
41A
331
434
  5
41B
331
435
  5
41C
331
436
  5
41D
331
437
  5
41E
331
438
  5
41F
331
439
  5
420
331
43A
  5
421
331
43B
  5
422
331
43C
  5
423
331
43D
  5
424
331
43E
  5
425
331
43F
  5
426
331
440
  5
427
331
441
  5
428
331
442
  5
429
331
443
  5
42A
331
444
  5
42B
331
445
  5
42C
331
446
  5
42D
331
447
  5
42E
331
448
  5
42F
331
449
  5
430
331
44A
  5
431
331
44B
  5
432
331
44C
  5
433
331
44D
  5
434
331
44E
  5
435
331
44F
  5
436
331
450
  5
437
331
451
  5
438
331
452
  5
439
331
453
  5
43A
331
454
  5
43B
331
455
  5
43C
331
456
  5
43D
331
457
  5
43E
331
458
  5
43F
331
459
  5
440
331
45A
  5
441
331
45B
  5
442
331
45C
  5
443
331
45D
  5
444
331
45E
  5
445
331
45F
  5
446
331
460
  5
447
331
461
  5
448
331
462
  5
449
331
463
  5
44A
331
464
  5
44B
331
465
  5
44C
331
466
  5
44D
331
467
  5
44E
331
468
  5
44F
331
469
  5
450
331
46A
  5
451
331
46B
  5
452
331
46C
  5
453
331
46D
  5
454
331
46E
  5
455
331
46F
  5
456
331
470
  5
457
331
471
  5
458
331
472
  5
459
331
473
  5
45A
331
474
  5
45B
331
475
  5
45C
331
476
  5
45D
331
477
  5
45E
331
478
  5
45F
331
479
  5
460
331
47A
  5
461
331
47B
  5
462
331
47C
  5
463
331
47D
  5
464
331
47E
  5
465
331
47F
  5
466
331
480
  5
467
331
481
  5
468
331
482
  5
469
331
483
  5
46A
331
484
  5
46B
331
485
  5
46C
331
486
  5
46D
331
487
  5
46E
331
488
  5
46F
331
489
  5
470
331
48A
  5
471
331
48B
  5
472
331
48C
  5
473
331
48D
  5
474
331
48E
  5
475
331
48F
  5
476
331
490
  5
477
331
491
  5
478
331
492
  5
479
331
493
  5
47A
331
494
  5
47B
331
495
  5
47C
331
496
  5
47D
331
497
  5
47E
331
498
  5
47F
331
499
  5
480
331
49A
  5
481
331
49B
  5
482
331
49C
  5
483
331
49D
  5
484
331
49E
  5
485
331
49F
  5
486
331
4A0
  5
487
331
4A1
  5
488
331
4A2
  5
489
331
4A3
  5
48A
331
4A4
  5
48B
331
4A5
  5
48C
331
4A6
  5
48D
331
4A7
  5
48E
331
4A8
  5
48F
331
4A9
  5
490
331
4AA
  5
491
331
4AB
  5
492
331
4AC
  5
493
331
4AD
  5
494
331
4AE
  5
495
331
4AF
  5
496
331
4B0
  5
497
331
4B1
  5
498
331
4B2
  5
499
331
4B3
  5
49A
331
4B4
  5
4F8
331
4B5
  5
503
331
4B6
  5
49B
331
4B7
  5
49C
331
4B8
  5
49D
331
4B9
  5
49E
331
4BA
  5
49F
331
4BB
  5
504
331
4BC
  5
4A0
331
4BD
  5
4A1
331
4BE
  5
4A2
331
4BF
  5
4A3
331
4C0
  5
4A4
331
4C1
  5
4A5
331
4C2
  5
4A6
331
4C3
  5
4A7
331
4C4
  5
4A8
331
4C5
  5
4A9
331
4C6
  5
4AA
331
4C7
  5
4AB
331
4C8
  5
4AC
331
4C9
  5
4AD
331
4CA
  5
4AE
331
4CB
  5
4AF
331
4CC
  5
4B0
331
4CD
  5
4B1
331
4CE
  5
4B2
331
4CF
  5
4B3
331
4D0
  5
4B4
331
4D1
  5
505
331
4D2
  5
4B5
331
4D3
  5
4B6
331
4D5
  5
4B7
331
4D7
  5
4B8
331
4D9
  5
4B9
331
4DB
  5
4BA
331
4DD
  5
4BB
331
4DF
  5
4BC
331
4E1
  5
4BD
331
4E3
  5
4BE
331
4E5
  5
4BF
331
4E7
  5
506
331
4E8
  5
507
331
4E9
  5
508
331
4EA
  5
509
331
4EB
  5
4C0
331
4EC
  5
4C1
331
4ED
  5
4C2
331
4F8
  5
4C3
331
503
  5
50A
331
504
  5
50B
331
505
  5
50C
331
506
  5
50D
331
507
  5
50E
331
508
  5
50F
331
509
  5
51A
331
50A
  5
525
331
50B
  5
530
331
50C
  5
53B
331
50D
  5
546
331
50E
  5
551
331
50F
  5
4C4
331
51A
  5
4C5
331
525
  5
4C6
331
530
  5
4C7
331
53B
  5
4C8
331
546
  5
4C9
331
551
  5
4CA
  0
LAYOUT
  5
5C8
102
{ACAD_REACTORS
330
5C4
330
5C4
102
}
102
{ACAD_XDICTIONARY
360
5C9
102
}
330
5C4
100
AcDbPlotSettings
  1

  2
none_device
  4
Letter_(8.50_x_11.00_Inches)
  6

 40
6.35
 41
6.35
 42
6.350006
 43
6.350006
 44
215.899994
 45
279.399994
 46
0.0
 47
0.0
 48
0.0
 49
0.0
140
0.0
141
0.0
142
1.0
143
1.0
 70
   688
 72
     0
 73
     1
 74
     5
  7

 75
    16
 76
     0
 77
     2
 78
   300
147
1.0
148
0.0
149
0.0
100
AcDbLayout
  1
Layout1
 70
     1
 71
     1
 10
-0.25
 20
-0.25
 11
10.75
 21
8.25
 12
0.0
 22
0.0
 32
0.0
 14
1.049744
 24
0.799667
 34
-0.001526
 15
9.450623
 25
7.200577
 35
0.0
146
0.0
 13
0.0
 23
0.0
 33
0.0
 16
1.0
 26
0.0
 36
0.0
 17
0.0
 27
1.0
 37
0.0
 76
     0
330
5C5
1001
ACAD_PSEXT
1000
None
1000
None
1000
Not applicable
1000
The layout will not be plotted unless a new plotter configuration name is selected.
1070
     0
  0
LAYOUT
  5
5C3
102
{ACAD_REACTORS
330
5C4
330
5C4
102
}
330
5C4
100
AcDbPlotSettings
  1

  2
none_device
  4
ANSI_A_(8.50_x_11.00_Inches)
  6

 40
6.35
 41
19.049999
 42
6.350006
 43
19.049988
 44
215.899994
 45
279.399994
 46
0.0
 47
0.0
 48
0.0
 49
0.0
140
0.0
141
0.0
142
1.0
143
2.584895
 70
 11952
 72
     0
 73
     1
 74
     0
  7

 75
     0
 76
     0
 77
     2
 78
   300
147
0.386863
148
0.0
149
0.0
100
AcDbLayout
  1
Model
 70
     1
 71
     0
 10
0.0
 20
0.0
 11
12.0
 21
9.0
 12
0.0
 22
0.0
 32
0.0
 14
0.0
 24
0.0
 34
0.0
 15
0.0
 25
0.0
 35
0.0
146
0.0
 13
0.0
 23
0.0
 33
0.0
 16
1.0
 26
0.0
 36
0.0
 17
0.0
 27
1.0
 37
0.0
 76
     0
330
5C0
331
49
  0
MLINESTYLE
  5
5BD
102
{ACAD_REACTORS
330
5BE
102
}
330
5BE
100
AcDbMlineStyle
  2
STANDARD
 70
     0
  3

 62
   256
 51
90.0
 52
90.0
 71
     2
 49
0.5
 62
   256
  6
BYLAYER
 49
-0.5
 62
   256
  6
BYLAYER
  0
ACDBPLACEHOLDER
  5
5B2
102
{ACAD_REACTORS
330
5B3
102
}
330
5B3
  0
XRECORD
  5
5A6
102
{ACAD_REACTORS
330
5D8
102
}
330
5D8
100
AcDbXrecord
280
     1
310
3E4F020000004D6F64656C6572000000000000000000000000000000000000000000000000000000000000000000000000000000000000000000000000000000000000000000000000000000000000000000000000000000000000000000000000000000000000000000000000000000000000000000000000000000000000
310
00000000000000000000000000000000000000000000000000000000000000000000000000000000000000000000000000000000000000000000000000000000000000000000000000000000000000000000000000000000000000000000000000000000000000000000000000000000000000000000000000000000000000
310
00
310
00000000000000000000000000000000000000000000000000000000000000000000000000000000000000000000000000000000000000000000000000000000000000000000000000000000000000000000000000000000000000000000000000000000000000000000000000000000000000000000000000000000000000
310
00000000000000000000000000000000000000000000000000000000000000000000000000000000000000000000000000000000000000000000000000000000000000000000000000000000000000000000000000000000000000000000000000000000000000000000000000000000000000000000000000000000000000
310
00
310
00000000000000000000000000000000000000000000000000000000000000000000000000000000000000000000000000000000000000000000000000000000000000000000000000000000000000000000000000000000000000000000000000000000000000000000000000000000000000000000000000000000000000
310
00000000000000000000000000000000000000000000000000000000000000000000000000000000000000000000000000000000000000000000000000000000000000000000000000000000000000000000000000000000000000000000000000000000000000000000000000000000000000000000000000000000000000
310
00
310
00000000000000000000000000000000000000000000000000000000000000000000000000000000000000000000000000000000000000000000000000000000000000000000000000000000000000000000000000000000000000000000000000000000000000000000000000000000000000000000000000000000000000
310
00000000000000000000000000000000000000000000000000000000000000000000000000000000000000000000000000000000000000000000000000000000000000000000000000000000000000000000000000000000000000000000000000000000000000000000000000000000000000000000000000000000000000
310
00
310
00000000000000000000000000000000000000000000000000000000000000000000000000000000000000000000000000000000000000000000000000000000000000000000000000000000000000000000000000000000000000000000000000000000000000000000000000000000000000000000000000000000000000
310
00000000000000000000000000000000000000000000000000000000000000000000000000000000000000000000000000000000000000000000000000000000000000000000000000000000000000000000000000000000000000000000000000000000000000000000000000000000000000000000000000000000000000
310
00
310
00000000000000000000000000000000000000000000000000000000000000000000000000000000000000000000000000000000000000000000000000000000000000000000000000000000000000000000000000000000000000000000000000000000000000000000000000000000000000000000000000000000000000
310
00000000000000000000000000000000000000000000000000000000000000000000000000000000000000000000000000000000000000000000000000000000000000000000000000000000000000000000000000000000000000000000000000000000000000000000000000000000000000000000000000000000000000
310
00
310
00000000000000000000000000000000000000000000000000000000000000000000000000000000000000000000000000000000000000000000000000000000000000000000000000000000000000000000000000000000000000000000000000000000000000000000000000000000000000000000000000000000000000
310
00000000000000000000000000000000000000000000000000000000000000000000000000000000000000000000000000000000000000000000000000000000000000000000000000000000000000000000000000000000000000000000000000000000000000000000000000000000000000000000000000000000000000
310
00
310
00000000000000000000000000000000000000000000000000000000000000000000000000000000000000000000000000000000000000000000000000000000000000000000000000000000000000000000000000000000000000000000000000000000000000000000000000000000000000000000000000000000000000
310
00000000000000000000000000000000000000000000000000000000000000000000000000000000000000000000000000000000000000000000000000000000000000000000000000000000000000000000000000000000000000000000000000000000000000000000000000000000000000000000000000000000000000
310
00
310
00000000000000000000000000000000000000000000000000000000000000000000000000000000000000000000000000000000000000000000000000000000000000000000000000000000000000000000000000000000000000000000000000000000000000000000000000000000000000000000000000000000000000
310
00000000000000000000000000000000000000000000000000000000000000000000000000000000000000000000000000000000000000000000000000000000000000000000000000000000000000000000000000000000000000000000000000000000000000000000000000000000000000000000000000000000000000
310
00
310
00000000000000000000000000000000000000000000000000000000000000000000000000000000000000000000000000000000000000000000000000000000000000000000000000000000000000000000000000000000000000000000000000000000000000000000000000000000000000000000000000000000000000
310
00000000000000000000000000000000000000000000000000000000000000000000000000000000000000000000000000000000000000000000000000000000000000000000000000000000000000000000000000000000000000000000000000000000000000000000000000000000000000000000000000000000000000
310
00
310
00000000000000000000000000000000000000000000000000000000000000000000000000000000000000000000000000000000000000000000000000000000000000000000000000000000000000000000000000000000000000000000000000000000000000000000000000000000000000000000000000000000000000
310
00000000000000000000000000000000000000000000000000000000000000000000000000000000000000000000000000000000000000000000000000000000000000000000000000000000000000000000000000000000000000000000000000000000000000000000000000000000000000000000000000000000000000
310
00
310
00000000000000000000000000000000000000000000000000000000000000000000000000000000000000000000000000000000000000000000000000000000000000000000000000000000000000000000000000000000000000000000000000000000000000000000000000000000000000000000000000000000000000
310
00000000000000000000000000000000000000000000000000000000000000000000000000000000000000000000000000000000000000000000000000000000000000000000000000000000000000000000000000000000000000000000000000000000000000000000000000000000000000000000000000000000000000
310
00
310
00000000000000000000000000000000000000000000000000000000000000000000000000000000000000000000000000000000000000000000000000000000000000000000000000000000000000000000000000000000000000000000000000000000000000000000000000000000000000000000000000000000000000
310
00000000000000000000000000000000000000000000000000000000000000000000000000000000000000000000000000000000000000000000000000000000000000000000000000000000000000000000000000000000000000000000000000000000000000000000000000000000000000000000000000000000000000
310
00
310
00000000000000000000000000000000000000000000000000000000000000000000000000000000000000000000000000000000000000000000000000000000000000000000000000000000000000000000000000000000000000000000000000000000000000000000000000000000000000
  0
XRECORD
  5
5AC
102
{ACAD_REACTORS
330
5D8
102
}
330
5D8
100
AcDbXrecord
280
     1
310
3E4F020000004D6F64656C6572000000000000000000000000000000000000000000000000000000000000000000000000000000000000000000000000000000000000000000000000000000000000000000000000000000000000000000000000000000000000000000000000000000000000000000000000000000000000
310
00000000000000000000000000000000000000000000000000000000000000000000000000000000000000000000000000000000000000000000000000000000000000000000000000000000000000000000000000000000000000000000000000000000000000000000000000000000000000000000000000000000000000
310
00
310
00000000000000000000000000000000000000000000000000000000000000000000000000000000000000000000000000000000000000000000000000000000000000000000000000000000000000000000000000000000000000000000000000000000000000000000000000000000000000000000000000000000000000
310
00000000000000000000000000000000000000000000000000000000000000000000000000000000000000000000000000000000000000000000000000000000000000000000000000000000000000000000000000000000000000000000000000000000000000000000000000000000000000000000000000000000000000
310
00
310
00000000000000000000000000000000000000000000000000000000000000000000000000000000000000000000000000000000000000000000000000000000000000000000000000000000000000000000000000000000000000000000000000000000000000000000000000000000000000000000000000000000000000
310
00000000000000000000000000000000000000000000000000000000000000000000000000000000000000000000000000000000000000000000000000000000000000000000000000000000000000000000000000000000000000000000000000000000000000000000000000000000000000000000000000000000000000
310
00
310
00000000000000000000000000000000000000000000000000000000000000000000000000000000000000000000000000000000000000000000000000000000000000000000000000000000000000000000000000000000000000000000000000000000000000000000000000000000000000000000000000000000000000
310
00000000000000000000000000000000000000000000000000000000000000000000000000000000000000000000000000000000000000000000000000000000000000000000000000000000000000000000000000000000000000000000000000000000000000000000000000000000000000000000000000000000000000
310
00
310
00000000000000000000000000000000000000000000000000000000000000000000000000000000000000000000000000000000000000000000000000000000000000000000000000000000000000000000000000000000000000000000000000000000000000000000000000000000000000000000000000000000000000
310
00000000000000000000000000000000000000000000000000000000000000000000000000000000000000000000000000000000000000000000000000000000000000000000000000000000000000000000000000000000000000000000000000000000000000000000000000000000000000000000000000000000000000
310
00
310
00000000000000000000000000000000000000000000000000000000000000000000000000000000000000000000000000000000000000000000000000000000000000000000000000000000000000000000000000000000000000000000000000000000000000000000000000000000000000000000000000000000000000
310
00000000000000000000000000000000000000000000000000000000000000000000000000000000000000000000000000000000000000000000000000000000000000000000000000000000000000000000000000000000000000000000000000000000000000000000000000000000000000000000000000000000000000
310
00
310
00000000000000000000000000000000000000000000000000000000000000000000000000000000000000000000000000000000000000000000000000000000000000000000000000000000000000000000000000000000000000000000000000000000000000000000000000000000000000000000000000000000000000
310
00000000000000000000000000000000000000000000000000000000000000000000000000000000000000000000000000000000000000000000000000000000000000000000000000000000000000000000000000000000000000000000000000000000000000000000000000000000000000000000000000000000000000
310
00
310
00000000000000000000000000000000000000000000000000000000000000000000000000000000000000000000000000000000000000000000000000000000000000000000000000000000000000000000000000000000000000000000000000000000000000000000000000000000000000000000000000000000000000
310
00000000000000000000000000000000000000000000000000000000000000000000000000000000000000000000000000000000000000000000000000000000000000000000000000000000000000000000000000000000000000000000000000000000000000000000000000000000000000000000000000000000000000
310
00
310
00000000000000000000000000000000000000000000000000000000000000000000000000000000000000000000000000000000000000000000000000000000000000000000000000000000000000000000000000000000000000000000000000000000000000000000000000000000000000000000000000000000000000
310
00000000000000000000000000000000000000000000000000000000000000000000000000000000000000000000000000000000000000000000000000000000000000000000000000000000000000000000000000000000000000000000000000000000000000000000000000000000000000000000000000000000000000
310
00
310
00000000000000000000000000000000000000000000000000000000000000000000000000000000000000000000000000000000000000000000000000000000000000000000000000000000000000000000000000000000000000000000000000000000000000000000000000000000000000000000000000000000000000
310
00000000000000000000000000000000000000000000000000000000000000000000000000000000000000000000000000000000000000000000000000000000000000000000000000000000000000000000000000000000000000000000000000000000000000000000000000000000000000000000000000000000000000
310
00
310
00000000000000000000000000000000000000000000000000000000000000000000000000000000000000000000000000000000000000000000000000000000000000000000000000000000000000000000000000000000000000000000000000000000000000000000000000000000000000000000000000000000000000
310
00000000000000000000000000000000000000000000000000000000000000000000000000000000000000000000000000000000000000000000000000000000000000000000000000000000000000000000000000000000000000000000000000000000000000000000000000000000000000000000000000000000000000
310
00
310
00000000000000000000000000000000000000000000000000000000000000000000000000000000000000000000000000000000000000000000000000000000000000000000000000000000000000000000000000000000000000000000000000000000000000000000000000000000000000000000000000000000000000
310
00000000000000000000000000000000000000000000000000000000000000000000000000000000000000000000000000000000000000000000000000000000000000000000000000000000000000000000000000000000000000000000000000000000000000000000000000000000000000000000000000000000000000
310
00
310
00000000000000000000000000000000000000000000000000000000000000000000000000000000000000000000000000000000000000000000000000000000000000000000000000000000000000000000000000000000000000000000000000000000000000000000000000000000000000000000000000000000000000
310
00000000000000000000000000000000000000000000000000000000000000000000000000000000000000000000000000000000000000000000000000000000000000000000000000000000000000000000000000000000000000000000000000000000000000000000000000000000000000000000000000000000000000
310
00
310
00000000000000000000000000000000000000000000000000000000000000000000000000000000000000000000000000000000000000000000000000000000000000000000000000000000000000000000000000000000000000000000000000000000000000000000000000000000000000
  0
XRECORD
  5
5A5
102
{ACAD_REACTORS
330
5D8
102
}
330
5D8
100
AcDbXrecord
280
     1
310
DF56060034040701D0009A9999999999B93F000000000000000000000000000000000400000009000000000000000200000064000000640000000100000001000000190000007B14AE47E17A843F00000000004060409A9999999999B93F00000000004C2D41000000000070F7400000000000942141000000000000000000
310
0000000000000000000000000000000AD482040000000000000000000000000000F03F000000000000000000000000000030402D431CEBE2362A3F00000000000008400000000000000000009807C000000000000000007C1A61B9A711364020000000050000000A000000200000002000000020000000000000000000F03F
310
00
310
0000000000F03F000000000000F03F333333333333D33F333333333333D33F333333333333D33F000000000000F43F000000000000F43F000000000000F03F0200000064000000000000000000000000000840000000000000F83F00000000000000000000000000000000008056409A9999999999B93F0000000000000000
310
00000000000000000000000000000000000000000000000000000000000000000000000000000000000000000000000000000000000000000000000000000000000000000000000000000000000000000000000000000000000000000000000000000000000000000000000000000000000000000000000000000000000000
310
00
310
0000000000000000000000000000000000000000000000000000000000000000000000000000000000000000000000000000000000000000000000000000000000000000000000000000000000000000000000000000000000000000000000000000000000000000000000000000000000000000000000009A9999999999A9
310
3F9100000000000000000000000000000035A781D547960F40000000000000F03F000000000000F03F666666666666164000000000104068F200000000000000000000000000000000000000000000000000000000000000000000000000000000000000000000000000000000000000000000000000000000000000000000
310
00
310
00000000000000000000000000000000000000000000000000000000000000000000000000000000000000000000000000000000000000000000000000000000000000000000000000000000000000000000000000000000000000000000000000000000000000000000000000000000000000000000000000000000000000
310
000000000000000000000000000000000000000000000000000000000000000000000000000000000000000000000000000000000000000000000000FF000000000000000000000000000000000000000000000000000000000000000000000000000000000000000000000000000000000000000000000000000000000000
310
00
310
0000000000000000000000000000000000000000000000000000000000000000000000000000000000000000000000000000000000000000000000000000000000000000
  0
DICTIONARY
  5
5C9
330
5C8
100
AcDbDictionary
280
     1
281
     1
  3
ADSK_XREC_LAYOUTTHUMBNAIL
360
5CA
  0
XRECORD
  5
5CA
102
{ACAD_REACTORS
330
5C9
102
}
330
5C9
100
AcDbXrecord
280
     1
310
28000000B40000008B0000000100080000000000BC61000000000000000000000001000000000000FFFFFF0000000000FFFFFF000000000000000000000000000000000000000000000000000000000000000000330000006600000099000000CC000000FF00000000330000333300006633000099330000CC330000FF3300
310
0000660000336600006666000099660000CC660000FF66000000990000339900006699000099990000CC990000FF99000000CC000033CC000066CC000099CC0000CCCC0000FFCC000000FF000033FF000066FF000099FF0000CCFF0000FFFF000000003300330033006600330099003300CC003300FF003300003333003333
310
33006633330099333300CC333300FF33330000663300336633006666330099663300CC663300FF66330000993300339933006699330099993300CC993300FF99330000CC330033CC330066CC330099CC3300CCCC3300FFCC330000FF330033FF330066FF330099FF3300CCFF3300FFFF330000006600330066006600660099
310
006600CC006600FF00660000336600333366006633660099336600CC336600FF33660000666600336666006666660099666600CC666600FF66660000996600339966006699660099996600CC996600FF99660000CC660033CC660066CC660099CC6600CCCC6600FFCC660000FF660033FF660066FF660099FF6600CCFF6600
310
FFFF660000009900330099006600990099009900CC009900FF00990000339900333399006633990099339900CC339900FF33990000669900336699006666990099669900CC669900FF66990000999900339999006699990099999900CC999900FF99990000CC990033CC990066CC990099CC9900CCCC9900FFCC990000FF99
310
0033FF990066FF990099FF9900CCFF9900FFFF99000000CC003300CC006600CC009900CC00CC00CC00FF00CC000033CC003333CC006633CC009933CC00CC33CC00FF33CC000066CC003366CC006666CC009966CC00CC66CC00FF66CC000099CC003399CC006699CC009999CC00CC99CC00FF99CC0000CCCC0033CCCC0066CC
310
CC0099CCCC00CCCCCC00FFCCCC0000FFCC0033FFCC0066FFCC0099FFCC00CCFFCC00FFFFCC000000FF003300FF006600FF009900FF00CC00FF00FF00FF000033FF003333FF006633FF009933FF00CC33FF00FF33FF000066FF003366FF006666FF009966FF00CC66FF00FF66FF000099FF003399FF006699FF009999FF00CC
310
99FF00FF99FF0000CCFF0033CCFF0066CCFF0099CCFF00CCCCFF00FFCCFF0000FFFF0033FFFF0066FFFF0099FFFF00CCFFFF00FFFFFF00000000000D0D0D001A1A1A00282828003535350043434300505050005D5D5D006B6B6B00787878008686860093939300A1A1A100AEAEAE00BBBBBB00C9C9C900D6D6D600E4E4E400
310
F1F1F100FFFFFF0000000000000000000000000000000000000000000000000000000000000000000000000000000000E2E2E2E2E2E2E2E2E2E2E2E2E2E2E2E2E2E2E2E2E2E2E2E2E2E2E2E2E2E2E2E2E2E2E2E2E2E2E2E2E2E2E2E2E2E2E2E2E2E2E2E2E2E2E2E2E2E2E2E2E2E2E2E2E2E2E2E2E2E2E2E2E2E2E2E2E2E2E2
310
E2E2E2E2E2E2E2E2E2E2E2E2E2E2E2E2E2E2E2E2E2E2E2E2E2E2E2E2E2E2E2E2E2E2E2E2E2E2E2E2E2E2E2E2E2E2E2E2E2E2E2E2E2E2E2E2E2E2E2E2E2E2E2E2E2E2E2E2E2E2E2E2E2E2E2E2E2E2E2E2E2E2E2E2E2E2E2E2E2E2E2E2E2E2E2E2E2E2E2E2EFF5F5F5F5F5F5F5F5F5F5F5F5F5F5F5F5F5F5F5F5F5F5F5F5F5F5
310
F5F5F5F5F5F5F5F5F5F5F5F5F5F5F5F5F5F5F5F5F5F5F5F5F5F5F5F5F5F5F5F5F5F5F5F5F5F5F5F5F5F5F5F5F5F5F5F5F5F5F5F5F5F5F5F5F5F5F5F5F5F5F5F5F5F5F5F5F5F5F5F5F5F5F5F5F5F5F5F5F5F5F5F5F5F5F5F5F5F5F5F5F5F5F5F5F5F5F5F5F5F5F5F5F5F5F5F5F5F5F5F5F5F5F5F5F5F5F5F5F5F5F5F5F5F5F5
310
F5F5F5F5F5F5F5F5F5F5F5F5F5F5F5F5F5F5F5F5F5F5F5F5E2E2EFF5F5F5F5F5F5F5F5F5F5F5F5F5F5F5F5F5F5F5F5F5F5F5F5F5F5F5F5F5F5F5F5F5F5F5F5F5F5F5F5F5F5F5F5F5F5F5F5F5F5F5F5F5F5F5F5F5F5F5F5F5F5F5F5F5F5F5F5F5F5F5F5F5F5F5F5F5F5F5F5F5F5F5F5F5F5F5F5F5F5F5F5F5F5F5F5F5F5F5F5
310
F5F5F5F5F5F5F5F5F5F5F5F5F5F5F5F5F5F5F5F5F5F5F5F5F5F5F5F5F5F5F5F5F5F5F5F5F5F5F5F5F5F5F5F5F5F5F5F5F5F5F5F5F5F5F5F5F5F5F5F5F5F5F5F5F5F5F5F5F5F5F5F5F5F5F5F5F5E2E2EFF5F5F5F5F5F5F5F5F5F5F5F5F5F5F5F5F5F5F5F5F5F5F5F5F5F5F5F5F5F5F5F5F5F5F5F5F5F5F5F5F5F5F5F5F5F5F5
310
F5F5F5F5F5F5F5F5F5F5F5F5F5F5F5F5F5F5F5F5F5F5F5F5F5F5F5F5F5F5F5F5F5F5F5F5F5F5F5F5F5F5F5F5F5F5F5F5F5F5F5F5F5F5F5F5F5F5F5F5F5F5F5F5F5F5F5F5F5F5F5F5F5F5F5F5F5F5F5F5F5F5F5F5F5F5F5F5F5F5F5F5F5F5F5F5F5F5F5F5F5F5F5F5F5F5F5F5F5F5F5F5F5F5F5F5F5F5F5F5F5F5F5F5F5F5F5
310
F5F5F5E2E2EFF5F5F5E2E2E2E2E2E2E2E2F5F5F5F5F5F5F5F5F5E2E2E2E2E2E2E2E2E2E2E2E2E2E2E2E2F5F5F5F5F5F5F5F5E2E2E2E2E2E2E2E2E2E2E2E2E2E2E2E2F5F5F5F5F5F5F5F5F5E2E2E2E2E2E2E2E2E2E2E2E2E2E2E2F5F5F5F5F5F5F5F5F5E2E2E2E2E2E2E2E2E2E2E2E2E2E2E2F5F5F5F5F5F5F5F5F5E2E2E2E2
310
E2E2E2E2E2E2E2E2E2E2E2E2F5F5F5F5F5F5F5F5E2E2E2E2E2E2E2E2E2E2E2E2E2E2E2E2F5F5F5F5F5F5F5F5F5E2E2E2E2E2E2E2E2F5F5F5E2E2EFF5F5F5E2F5F5F5F5F5F5F5F5F5F5F5F5F5F5F5F5F5F5F5F5F5F5F5F5F5F5F5F5F5F5F5F5F5F5F5F5F5F5F5F5F5F5F5F5F5F5F5F5F5F5F5F5F5F5F5F5F5F5F5F5F5F5F5F5
310
F5F5F5F5F5F5F5F5F5F5F5F5F5F5F5F5F5F5F5F5F5F5F5F5F5F5F5F5F5F5F5F5F5F5F5F5F5F5F5F5F5F5F5F5F5F5F5F5F5F5F5F5F5F5F5F5F5F5F5F5F5F5F5F5F5F5F5F5F5F5F5F5F5F5F5F5F5F5F5F5F5F5F5F5F5F5F5F5F5F5F5F5F5F5F5F5F5F5F5F5F5F5F5F5F5E2F5F5F5E2E2EFF5F5F5E2F5F5F5F5F5F5F5F5F5F5F5
310
F5F5F5F5F5F5F5F5F5F5F5F5F5F5F5F5F5F5F5F5F5F5F5F5F5F5F5F5F5F5F5F5F5F5F5F5F5F5F5F5F5F5F5F5F5F5F5F5F5F5F5F5F5F5F5F5F5F5F5F5F5F5F5F5F5F5F5F5F5F5F5F5F5F5F5F5F5F5F5F5F5F5F5F5F5F5F5F5F5F5F5F5F5F5F5F5F5F5F5F5F5F5F5F5F5F5F5F5F5F5F5F5F5F5F5F5F5F5F5F5F5F5F5F5F5F5F5
310
F5F5F5F5F5F5F5F5F5F5F5F5F5F5F5F5F5F5F5F5F5F5F5F5F5F5F5F5F5F5F5E2F5F5F5E2E2EFF5F5F5E2F5F5F5F5F5F5F5F5F5F5F5F5F5F5F5F5F5F5F5F5F5F5F5F5F5F5F5F5F5F5F5F5F5F5F5F5F5F5F5F5F5F5F5F5F5F5F5F5F5F5F5F5F5F5F5F5F5F5F5F5F5F5F5F5F5F5F5F5F5F5F5F5F5F5F5F5F5F5F5F5F5F5F5F5F5
310
F5F5F5F5F5F5F5F5F5F5F5F5F5F5F5F5F5F5F5F5F5F5F5F5F5F5F5F5F5F5F5F5F5F5F5F5F5F5F5F5F5F5F5F5F5F5F5F5F5F5F5F5F5F5F5F5F5F5F5F5F5F5F5F5F5F5F5F5F5F5F5F5F5F5F5F5F5F5F5F5F5F5F5F5E2F5F5F5E2E2EFF5F5F5E2F5F5F5F5F5F5F5F5F5F5F5F5F5F5F5F5F5F5F5F5F5F5F5F5F5F5F5F5F5F5F5F5
310
F5F5F5F5F5F5F5F5F5F5F5F5F5F5F5F5F5F5F5F5F5F5F5F5F5F5F5F5F5F5F5F5F5F5F5F5F5F5F5F5F5F5F5F5F5F5F5F5F5F5F5F5F5F5F5F5F5F5F5F5F5F5F5F5F5F5F5F5F5F5F5F5F5F5F5F5F5F5F5F5F5F5F5F5F5F5F5F5F5F5F5F5F5F5F5F5F5F5F5F5F5F5F5F5F5F5F5F5F5F5F5F5F5F5F5F5F5F5F5F5F5F5F5F5F5F5F5
310
F5F5F5F5F5F5F5F5F5F5E2F5F5F5E2E2EFF5F5F5E2F5F5F5F5F5F5F5F5F5F5F5F5F5F5F5F5F5F5F5F5F5F5F5F5F5F5F5F5F5F5F5F5F5F5F5F5F5F5F5F5F5F5F5F5F5F5F5F5F5F5F5F5F5F5F5F5F5F5F5F5F5F5F5F5F5F5F5F5F5F5F5F5F5F5F5F5F5F5F5F5F5F5F5F5F5F5F5F5F5F5F5F5F5F5F5F5F5F5F5F5F5F5F5F5F5F5
310
F5F5F5F5F5F5F5F5F5F5F5F5F5F5F5F5F5F5F5F5F5F5F5F5F5F5F5F5F5F5F5F5F5F5F5F5F5F5F5F5F5F5F5F5F5F5F5F5F5F5F5F5F5F5F5F5F5F5F5F5F5F5F5E2F5F5F5E2E2EFF5F5F5E2F5F5F5F5F5F5F5F5F5F5F5F5F5F5F5F5F5F5F5F5F5F5F5F5F5F5F5F5F5F5F5F5F5F5F5F5F5F5F5F5F5F5F5F5F5F5F5F5F5F5F5F5F5
310
F5F5F5F5F5F5F5F5F5F5F5F5F5F5F5F5F5F5F5F5F5F5F5F5F5F5F5F5F5F5F5F5F5F5F5F5F5F5F5F5F5F5F5F5F5F5F5F5F5F5F5F5F5F5F5F5F5F5F5F5F5F5F5F5F5F5F5F5F5F5F5F5F5F5F5F5F5F5F5F5F5F5F5F5F5F5F5F5F5F5F5F5F5F5F5F5F5F5F5F5F5F5F5F5F5F5F5F5F5F5F5F5F5F5F5F5E2F5F5F5E2E2EFF5F5F5E2
310
F5F5F5F5F5F5F5F5F5F5F5F5F5F5F5F5F5F5F5F5F5F5F5F5F5F5F5F5F5F5F5F5F5F5F5F5F5F5F5F5F5F5F5F5F5F5F5F5F5F5F5F5F5F5F5F5F5F5F5F5F5F5F5F5F5F5F5F5F5F5F5F5F5F5F5F5F5F5F5F5F5F5F5F5F5F5F5F5F5F5F5F5F5F5F5F5F5F5F5F5F5F5F5F5F5F5F5F5F5F5F5F5F5F5F5F5F5F5F5F5F5F5F5F5F5F5F5
310
F5F5F5F5F5F5F5F5F5F5F5F5F5F5F5F5F5F5F5F5F5F5F5F5F5F5F5F5F5F5F5F5F5F5F5F5F5F5F5F5F5F5E2F5F5F5E2E2EFF5F5F5E2F5F5F5F5F5F5F5F5F5F5F5F5F5F5F5F5F5F5F5F5F5F5F5F5F5F5F5F5F5F5F5F5F5F5F5F5F5F5F5F5F5F5F5F5F5F5F5F5F5F5F5F5F5F5F5F5F5F5F5F5F5F5F5F5F5F5F5F5F5F5F5F5F5F5
310
F5F5F5F5F5F5F5F5F5F5F5F5F5F5F5F5F5F5F5F5F5F5F5F5F5F5F5F5F5F5F5F5F5F5F5F5F5F5F5F5F5F5F5F5F5F5F5F5F5F5F5F5F5F5F5F5F5F5F5F5F5F5F5F5F5F5F5F5F5F5F5F5F5F5F5F5F5F5F5F5F5F5F5F5F5F5F5F5F5F5F5F5F5F5F5E2F5F5F5E2E2EFF5F5F5F5F5F5F5F5F5F5F5F5F5F5F5F5F5F5F5F5F5F5F5F5F5
310
F5F5F5F5F5F5F5F5F5F5F5F5F5F5F5F5F5F5F5F5F5F5F5F5F5F5F5F5F5F5F5F5F5F5F5F5F5F5F5F5F5F5F5F5F5F5F5F5F5F5F5F5F5F5F5F5F5F5F5F5F5F5F5F5F5F5F5F5F5F5F5F5F5F5F5F5F5F5F5F5F5F5F5F5F5F5F5F5F5F5F5F5F5F5F5F5F5F5F5F5F5F5F5F5F5F5F5F5F5F5F5F5F5F5F5F5F5F5F5F5F5F5F5F5F5F5F5
310
F5F5F5F5F5F5F5F5F5F5F5F5F5F5F5F5F5F5F5F5F5F5F5F5F5E2E2EFF5F5F5F5F5F5F5F5F5F5F5F5F5F5F5F5F5F5F5F5F5F5F5F5F5F5F5F5F5F5F5F5F5F5F5F5F5F5F5F5F5F5F5F5F5F5F5F5F5F5F5F5F5F5F5F5F5F5F5F5F5F5F5F5F5F5F5F5F5F5F5F5F5F5F5F5F5F5F5F5F5F5F5F5F5F5F5F5F5F5F5F5F5F5F5F5F5F5F5
310
F5F5F5F5F5F5F5F5F5F5F5F5F5F5F5F5F5F5F5F5F5F5F5F5F5F5F5F5F5F5F5F5F5F5F5F5F5F5F5F5F5F5F5F5F5F5F5F5F5F5F5F5F5F5F5F5F5F5F5F5F5F5F5F5F5F5F5F5F5F5F5F5F5F5F5F5F5F5E2E2EFF5F5F5F5F5F5F5F5F5F5F5F5F5F5F5F5F5F5F5F5F5F5F5F5F5F5F5F5F5F5F5F5F5F5F5F5F5F5F5F5F5F5F5F5F5F5
310
F5F5F5F5F5F5F5F5F5F5F5F5F5F5F5F5F5F5F5F5F5F5F5F5F5F5F5F5F5F5F5F5F5F5F5F5F5F5F5F5F5F5F5F5F5F5F5F5F5F5F5F5F5F5F5F5F5F5F5F5F5F5F5F5F5F5F5F5F5F5F5F5F5F5F5F5F5F5F5F5F5F5F5F5F5F5F5F5F5F5F5F5F5F5F5F5F5F5F5F5F5F5F5F5F5F5F5F5F5F5F5F5F5F5F5F5F5F5F5F5F5F5F5F5F5F5F5
310
F5F5F5F5E2E2EFF5F5F5F5F5F5F5F5F5F5F5F5F5F5F5F5F5F5F5F5F5F5F5F5F5F5F5F5F5F5F5F5F5F5F5F5F5F5F5F5F5F5F5F5F5F5F5F5F5F5F5F5F5F5F5F5F5F5F5F5F5F5F5F5F5F5F5F5F5F5F5F5F5F5F5F5F5F5F5F5F5F5F5F5F5F5F5F5F5F5F5F5F5F5F5F5F5F5F5F5F5F5F5F5F5F5F5F5F5F5F5F5F5F5F5F5F5F5F5F5
310
F5F5F5F5F5F5F5F5F5F5F5F5F5F5F5F5F5F5F5F5F5F5F5F5F5F5F5F5F5F5F5F5F5F5F5F5F5F5F5F5F5F5F5F5F5F5F5F5F5F5F5F5F5F5F5F5F5E2E2EFF5F5F5F5F5F5F5F5F5F5F5F5F5F5F5F5F5F5F5F5E2E2E2E2E2E2E2E2E2E2E2E2E2E2E2E2E2E2E2E2E2E2E2E2E2E2E2E2E2E2E2E2E2E2E2E2E2E2E2E2E2E2E2E2E2E2E2
310
E2E2E2E2E2E2E2E2E2E2E2E2E2E2E2E2E2E2E2E2E2E2E2E2E2E2E2E2E2E2E2E2E2E2E2E2E2E2E2E2E2E2E2E2E2E2E2E2E2E2E2E2E2E2E2E2E2E2E2E2E2E2E2E2E2E2E2E2E2E2E2E2E2E2E2E2E2E2E2E2E2E2E2E2E2E2E2E2E2E2F5F5F5F5F5F5F5F5F5F5F5F5F5F5F5F5F5F5F5F5E2E2EFF5F5F5F5F5F5F5F5F5F5F5F5F5F5
310
F5F5F5F5F5F5E2F5F5F5F5F5F5F5F5F5F5F5F5F5F5F5F5F5F5F5F5F5F5F5F5F5F5F5F5F5F5F5F5F5F5F5F5F5F5F5F5F5F5F5F5F5F5F5F5F5F5F5F5F5F5F5F5F5F5F5F5F5F5F5F5F5F5F5F5F5F5F5F5F5F5F5F5F5F5F5F5F5F5F5F5F5F5F5F5F5F5F5F5F5F5F5F5F5F5F5F5F5F5F5F5F5F5F5F5F5F5F5F5F5F5F5F5F5F5F5F5
310
F5F5F5F5F5F5F5F5F5F5F5F5F5F5F5E2F5F5F5F5F5F5F5F5F5F5F5F5F5F5F5F5F5F5F5F5E2E2EFF5F5F5F5F5F5F5F5F5F5F5F5F5F5F5F5F5F5F5F5E2F5F5F5F5F5F5F5F5F5F5F5F5F5F5F5F5F5F5F5F5F5F5F5F5F5F5F5F5F5F5F5F5F5F5F5F5F5F5F5F5F5F5F5F5F5F5F5F5F5F5F5F5F5F5F5F5F5F5F5F5F5F5F5F5F5F5F5
310
F5F5F5F5F5F5F5F5F5F5F5F5F5F5F5F5F5F5F5F5F5F5F5F5F5F5F5F5F5F5F5F5F5F5F5F5F5F5F5F5F5F5F5F5F5F5F5F5F5F5F5F5F5F5F5F5F5F5F5F5F5F5F5F5F5F5F5F5E2F5F5F5F5F5F5F5F5F5F5F5F5F5F5F5F5F5F5F5F5E2E2EFF5F5F5F5F5F5F5F5F5F5F5F5F5F5F5F5F5F5F5F5E2F5F5F5F5F5F5F5F5F5F5F5F5F5F5
310
F5F5F5F5F5F5F5F5F5F5F5F5F5F5F5F5F5F5F5F5F5F5F5F5F5F5F5F5F5F5F5F5F5F5F5F5F5F5F5F5F5F5F5F5F5F5F5F5F5F5F5F5F5F5F5F5F5F5F5F5F5F5F5F5F5F5F5F5F5F5F5F5F5F5F5F5F5F5F5F5F5F5F5F5F5F5F5F5F5F5F5F5F5F5F5F5F5F5F5F5F5F5F5F5F5F5F5F5F5F5F5F5F5F5F5F5F5F5F5F5F5E2F5F5F5F5F5
310
F5F5F5F5F5F5F5F5F5F5F5F5F5F5F5E2E2EFF5F5F5F5F5F5F5F5F5F5F5F5F5F5F5F5F5F5F5F5E2F5F5F5F5F5F5F5F5F5F5F5F5F5F5F5F5F5F5F5F5F5F5F5F5F5F5F5F5F5F5F5F5F5F5F5F5F5F5F5F5F5F5F5F5F5F5F5F5F5F5F5F5F5F5F5F5F5F5F5F5F5F5F5F5F5F5F5F5F5F5F5F5F5F5F5F5F5F5F5F5F5F5F5F5F5F5F5F5
310
F5F5F5F5F5F5F5F5F5F5F5F5F5F5F5F5F5F5F5F5F5F5F5F5F5F5F5F5F5F5F5F5F5F5F5F5F5F5F5F5F5F5F5F5F5F5F5E2F5F5F5F5F5F5F5F5F5F5F5F5F5F5F5F5F5F5F5F5E2E2EFF5F5F5E2F5F5F5F5F5F5F5F5F5F5F5F5F5F5F5F5E2F5F5F5F5F5F5F5F5F5F5F5F5F5F5F5F5F5F5F5F5F5F5F5F5F5F5F5F5F5F5F5F5F5F5F5
310
F5F5F5F5F5F5F5F5F5F5F5F5F5F5F5F5F5F5F5F5F5F5F5F5F5F5F5F5F5F5F5F5F5F5F5F5F5F5F5F5F5F5F5F5F5F5F5F5F5F5F5F5F5F5F5F5F5F5F5F5F5F5F5F5F5F5F5F5F5F5F5F5F5F5F5F5F5F5F5F5F5F5F5F5F5F5F5F5F5F5F5F5F5F5F5F5F5F5F5F5E2F5F5F5F5F5F5F5F5F5F5F5F5F5F5F5F5E2F5F5F5E2E2EFF5F5F5
310
E2F5F5F5F5F5F5F5F5F5F5F5F5F5F5F5F5E2F5F5F5F5F5F5F5F5F5F5F5F5F5F5F5F5F5F5F5F5F5F5F5F5F5F5F5F5F5F5F5F5F5F5F5F5F5F5F5F5F5F5F5F5F5F5F5F5F5F5F5F5F5F5F5F5F5F5F5F5F5F5F5F5F5F5F5F5F5F5F5F5F5F5F5F5F5F5F5F5F5F5F5F5F5F5F5F5F5F5F5F5F5F5F5F5F5F5F5F5F5F5F5F5F5F5F5F5F5
310
F5F5F5F5F5F5F5F5F5F5F5F5F5F5F5F5F5F5F5F5F5F5F5F5F5F5E2F5F5F5F5F5F5F5F5F5F5F5F5F5F5F5F5E2F5F5F5E2E2EFF5F5F5E2F5F5F5F5F5F5F5F5F5F5F5F5F5F5F5F5E2F5F5F5F5F5F5F5F5F5F5F5F5F5F5F5F5F5F5F5F5F5F5F5F5F5F5F5F5F5F5F5F5F5F5F5F5F5F5F5F5F5F5F5F5F5F5F5F5F5F5F5F5F5F5F5F5
310
F5F5F5F5F5F5F5F5F5F5F5F5F5F5F5F5F5F5F5F5F5F5F5F5F5F5F5F5F5F5F5F5F5F5F5F5F5F5F5F5F5F5F5F5F5F5F5F5F5F5F5F5F5F5F5F5F5F5F5F5F5F5F5F5F5F5F5F5F5F5F5F5F5F5F5F5F5F5F5E2F5F5F5F5F5F5F5F5F5F5F5F5F5F5F5F5E2F5F5F5E2E2EFF5F5F5E2F5F5F5F5F5F5F5F5F5F5F5F5F5F5F5F5E2F5F5F5
310
F5F5F5F5F5F5F5F5F5F5F5F5F5F5F5F5F5F5F5F5F5F5F5F5F5F5F5F5F5F5F5F5F5F5F5F5F5F5F5F5F5F5F5F5F5F5F5F5F5F5F5F5F5F5F5F5F5F5F5F5F5F5F5F5F5F5F5F5F5F5F5F5F5F5F5F5F5F5F5F5F5F5F5F5F5F5F5F5F5F5F5F5F5F5F5F5F5F5F5F5F5F5F5F5F5F5F5F5F5F5F5F5F5F5F5F5F5F5F5F5F5F5F5F5F5F5F5
310
F5F5F5F5F5E2F5F5F5F5F5F5F5F5F5F5F5F5F5F5F5F5E2F5F5F5E2E2EFF5F5F5E2F5F5F5F5F5F5F5F5F5F5F5F5F5F5F5F5E2F5F5F5F5F5F5F5F5F5F5F5F5F5F5F5F5F5F5F5F5F5F5F5F5F5F5F5F5F5F5F5F5F5F5F5F5F5F5F5F5F5F5F5F5F5F5F5F5F5F5F5F5F5F5F5F5F5F5F5F5F5F5F5F5F5F5F5F5F5F5F5F5F5F5F5F5F5
310
F5F5F5F5F5F5F5F5F5F5F5F5F5F5F5F5F5F5F5F5F5F5F5F5F5F5F5F5F5F5F5F5F5F5F5F5F5F5F5F5F5F5F5F5F5F5F5F5F5F5F5F5F5F5F5F5F5F5E2F5F5F5F5F5F5F5F5F5F5F5F5F5F5F5F5E2F5F5F5E2E2EFF5F5F5E2F5F5F5F5F5F5F5F5F5F5F5F5F5F5F5F5E2F5F5F5F5F5F5F5F5F5F5F5F5F5F5F5F5F5F5F5F5F5F5F5F5
310
F5F5F5F5F5F5F5F5F5F5F5F5F5F5F5F5F5F5F5F5F5F5F5F5F5F5F5F5F5F5F5F5F5F5F5F5F5F5F5F5F5F5F5F5F5F5F5F5F5F5F5F5F5F5F5F5F5F5F5F5F5F5F5F5F5F5F5F5F5F5F5F5F5F5F5F5F5F5F5F5F5F5F5F5F5F5F5F5F5F5F5F5F5F5F5F5F5F5F5F5F5F5F5F5F5F5F5F5F5F5F5E2F5F5F5F5F5F5F5F5F5F5F5F5F5F5F5
310
F5E2F5F5F5E2E2EFF5F5F5E2F5F5F5F5F5F5F5F5F5F5F5F5F5F5F5F5E2F5F5F5F5F5F5F5F5F5F5F5F5F5F5F5F5F5F5F5F5F5F5F5F5F5F5F5F5F5F5F5F5F5F5F5F5F5F5F5F5F5F5F5F5F5F5F5F5F5F5F5F5F5F5F5F5F5F5F5F5F5F5F5F5F5F5F5F5F5F5F5F5F5F5F5F5F5F5F5F5F5F5F5F5F5F5F5F5F5F5F5F5F5F5F5F5F5F5
310
F5F5F5F5F5F5F5F5F5F5F5F5F5F5F5F5F5F5F5F5F5F5F5F5F5F5F5F5F5F5F5F5F5F5F5F5F5E2F5F5F5F5F5F5F5F5F5F5F5F5F5F5F5F5E2F5F5F5E2E2EFF5F5F5E2F5F5F5F5F5F5F5F5F5F5F5F5F5F5F5F5E2F5F5F5F5F5F5F5F5F5F5F5F5F5F5F5F5F5F5F5F5F5F5F5F5F5F5F5F5F5F5F5F5F5F5F5F5F5F5F5F5F5F5F5F5F5
310
F5F5F5F5F5F5F5F5F5F5F5F5F5F5F5F5F5F5F5F5F5F5F5F5F5F5F5F5F5F5F5F5F5F5F5F5F5F5F5F5F5F5F5F5F5F5F5F5F5F5F5F5F5F5F5F5F5F5F5F5F5F5F5F5F5F5F5F5F5F5F5F5F5F5F5F5F5F5F5F5F5F5F5F5F5F5F5F5F5F5E2F5F5F5F5F5F5F5F5F5F5F5F5F5F5F5F5E2F5F5F5E2E2EFF5F5F5E2F5F5F5F5F5F5F5F5F5
310
F5F5F5F5F5F5F5E2F5F5F5F5F5F5F5F5F5F5F5F5F5F5F5F5F5F5F5F5F5F5F5F5F5F5F5F5F5F5F5F5F5F5F5F5F5F5F5F5F5F5F5F5F5F5F5F5F5F5F5F5F5F5F5F5F5F5F5F5F5F5F5F5F5F5F5F5F5F5F5F5F5F5F5F5F5F5F5F5F5F5F5F5F5F5F5F5F5F5F5F5F5F5F5F5F5F5F5F5F5F5F5F5F5F5F5F5F5F5F5F5F5F5F5F5F5F5F5
310
F5F5F5F5F5F5F5F5F5F5F5F5F5F5F5F5E2F5F5F5F5F5F5F5F5F5F5F5F5F5F5F5F5E2F5F5F5E2E2EFF5F5F5E2F5F5F5F5F5F5F5F5F5F5F5F5F5F5F5F5E2F5F5F5F5F5F5F5F5F5F5F5F5F5F5F5F5F5F5F5F5F5F5F5F5F5F5F5F5F5F5F5F5F5F5F5F5F5F5F5F5F5F5F5F5F5F5F5F5F5F5F5F5F5F5F5F5F5F5F5F5F5F5F5F5F5F5
310
F5F5F5F5F5F5F5F5F5F5F5F5F5F5F5F5F5F5F5F5F5F5F5F5F5F5F5F5F5F5F5F5F5F5F5F5F5F5F5F5F5F5F5F5F5F5F5F5F5F5F5F5F5F5F5F5F5F5F5F5F5F5F5F5F5F5F5F5F5E2F5F5F5F5F5F5F5F5F5F5F5F5F5F5F5F5E2F5F5F5E2E2EFF5F5F5E2F5F5F5F5F5F5F5F5F5F5F5F5F5F5F5F5E2F5F5F5F5F5F5F5F5F5F5F5F5F5
310
F5F5F5F5F5F5F5F5F5F5F5F5F5F5F5F5F5F5F5F5F5F5F5F5F5F5F5F5F5F5F5F5F5F5F5F5F5F5F5F5F5F5F5F5F5F5F5F5F5F5F5F5F5F5F5F5F5F5F5F5F5F5F5F5F5F5F5F5F5F5F5F5F5F5F5F5F5F5F5F5F5F5F5F5F5F5F5F5F5F5F5F5F5F5F5F5F5F5F5F5F5F5F5F5F5F5F5F5F5F5F5F5F5F5F5F5F5F5F5F5F5F5E2F5F5F5F5
310
F5F5F5F5F5F5F5F5F5F5F5F5E2F5F5F5E2E2EFF5F5F5E2F5F5F5F5F5F5F5F5F5F5F5F5F5F5F5F5E2F5F5F5F5F5F5F5F5F5F5F5F5F5F5F5F5F5F5F5F5F5F5F5F5F5F5F5F5F5F5F5F5F5F5F5F5F5F5F5F5F5F5F5F5F5F5F5F5F5F5F5F5F5F5F5F5F5F5F5F5F5F5F5F5F5F5F5F5F5F5F5F5F5F5F5F5F5F5F5F5F5F5F5F5F5F5F5
310
F5F5F5F5F5F5F5F5F5F5F5F5F5F5F5F5F5F5F5F5F5F5F5F5F5F5F5F5F5F5F5F5F5F5F5F5F5F5F5F5F5F5F5F5F5F5F5F5E2F5F5F5F5F5F5F5F5F5F5F5F5F5F5F5F5E2F5F5F5E2E2EFF5F5F5E2F5F5F5F5F5F5F5F5F5F5F5F5F5F5F5F5E2F5F5F5F5F5F5F5F5F5F5F5F5F5F5F5F5F5F5F5F5F5F5F5F5F5F5F5F5F5F5F5F5F5F5
310
F5F5F5F5F5F5F5F5F5F5F5F5F5F5F5F5F5F5F5F5F5F5F5F5F5F5F5F5F5F5F5F5F5F5F5F5F5F5F5F5F5F5F5F5F5F5F5F5F5F5F5F5F5F5F5F5F5F5F5F5F5F5F5F5F5F5F5F5F5F5F5F5F5F5F5F5F5F5F5F5F5F5F5F5F5F5F5F5F5F5F5F5F5F5F5F5F5F5F5F5F5E2F5F5F5F5F5F5F5F5F5F5F5F5F5F5F5F5E2F5F5F5E2E2EFF5F5
310
F5E2F5F5F5F5F5F5F5F5F5F5F5F5F5F5F5F5E2F5F5F5F5F5F5F5F5F5F5F5F5F5F5F5F5F5F5F5F5F5F5F5F5F5F5F5F5F5F5F5F5F5F5F5F5F5F5F5F5F5F5F5F5F5F5F5F5F5F5F5F5F5F5F5F5F5F5F5F5F5F5F5F5F5F5F5F5F5F5F5F5F5F5F5F5F5F5F5F5F5F5F5F5F5F5F5F5F5F5F5F5F5F5F5F5F5F5F5F5F5F5F5F5F5F5F5F5
310
F5F5F5F5F5F5F5F5F5F5F5F5F5F5F5F5F5F5F5F5F5F5F5F5F5F5F5E2F5F5F5F5F5F5F5F5F5F5F5F5F5F5F5F5E2F5F5F5E2E2EFF5F5F5E2F5F5F5F5F5F5F5F5F5F5F5F5F5F5F5F5E2F5F5F5F5F5F5F5F5F5F5F5F5F5F5F5F5F5F5F5F5F5F5F5F5F5F5F5F5F5F5F5F5F5F5F5F5F5F5F5F5F5F5F5F5F5F5F5F5F5F5F5F5F5F5F5
310
F5F5F5F5F5F5F5F5F5F5F5F5F5F5F5F5F5F5F5F5F5F5F5F5F5F5F5F5F5F5F5F5F5F5F5F5F5F5F5F5F5F5F5F5F5F5F5F5F5F5F5F5F5F5F5F5F5F5F5F5F5F5F5F5F5F5F5F5F5F5F5F5F5F5F5F5F5F5F5F5E2F5F5F5F5F5F5F5F5F5F5F5F5F5F5F5F5E2F5F5F5E2E2EFF5F5F5E2F5F5F5F5F5F5F5F5F5F5F5F5F5F5F5F5E2F5F5
310
F5F5F5F5F5F5F5F5F5F5F5F5F5F5F5F5F5F5F5F5F5F5F5F5F5F5F5F5F5F5F5F5F5F5F5F5F5F5F5F5F5F5F5F5F5F5F5F5F5F5F5F5F5F5F5F5F5F5F5F5F5F5F5F5F5F5F5F5F5F5F5F5F5F5F5F5F5F5F5F5F5F5F5F5F5F5F5F5F5F5F5F5F5F5F5F5F5F5F5F5F5F5F5F5F5F5F5F5F5F5F5F5F5F5F5F5F5F5F5F5F5F5F5F5F5F5F5
310
F5F5F5F5F5F5E2F5F5F5F5F5F5F5F5F5F5F5F5F5F5F5F5E2F5F5F5E2E2EFF5F5F5E2F5F5F5F5F5F5F5F5F5F5F5F5F5F5F5F5E2F5F5F5F5F5F5F5F5F5F5F5F5F5F5F5F5F5F5F5F5F5F5F5F5F5F5F5F5F5F5F5F5F5F5F5F5F5F5F5F5F5F5F5F5F5F5F5F5F5F5F5F5F5F5F5F5F5F5F5F5F5F5F5F5F5F5F5F5F5F5F5F5F5F5F5F5
310
F5F5F5F5F5F5F5F5F5F5F5F5F5F5F5F5F5F5F5F5F5F5F5F5F5F5F5F5F5F5F5F5F5F5F5F5F5F5F5F5F5F5F5F5F5F5F5F5F5F5F5F5F5F5F5F5F5F5F5E2F5F5F5F5F5F5F5F5F5F5F5F5F5F5F5F5E2F5F5F5E2E2EFF5F5F5F5F5F5F5F5F5F5F5F5F5F5F5F5F5F5F5F5E2F5F5F5F5F5F5F5F5F5F5F5F5F5F5F5F5F5F5F5F5F5F5F5
310
F5F5F5F5F5F5F5F5F5F5F5F5F5F5F5F5F5F5F5F5F5F5F5F5F5F5F5F5F5F5F5F5F5F5F5F5F5F5F5F5F5F5F5F5F5F5F5F5F5F5F5F5F5F5F5F5F5F5F5F5F5F5F5F5F5F5F5F5F5F5F5F5F5F5F5F5F5F5F5F5F5F5F5F5F5F5F5F5F5F5F5F5F5F5F5F5F5F5F5F5F5F5F5F5F5F5F5F5F5F5F5F5E2F5F5F5F5F5F5F5F5F5F5F5F5F5F5
310
F5F5F5F5F5F5E2E2EFF5F5F5F5F5F5F5F5F5F5F5F5F5F5F5F5F5F5F5F5E2F5F5F5F5F5F5F5F5F5F5F5F5F5F5F5F5F5F5F5F5F5F5F5F5F5F5F5F5F5F5F5F5F5F5F5F5F5F5F5F5F5F5F5F5F5F5F5F5F5F5F5F5F5F5F5F5F5F5F5F5F5F5F5F5F5F5F5F5F5F5F5F5F5F5F5F5F5F5F5F5F5F5F5F5F5F5F5F5F5F5F5F5F5F5F5F5F5
310
F5F5F5F5F5F5F5F5F5F5F5F5F5F5F5F5F5F5F5F5F5F5F5F5F5F5F5F5F5F5F5F5F5F5F5F5F5F5E2F5F5F5F5F5F5F5F5F5F5F5F5F5F5F5F5F5F5F5F5E2E2EFF5F5F5F5F5F5F5F5F5F5F5F5F5F5F5F5F5F5F5F5E2F5F5F5F5F5F5F5F5F5F5F5F5F5F5F5F5F5F5F5F5F5F5F5F5F5F5F5F5F5F5F5F5F5F5F5F5F5F5F5F5F5F5F5F5
310
F5F5F5F5F5F5F5F5F5F5F5F5F5F5F5F5F5F5F5F5F5F5F5F5F5F5F5F5F5F5F5F5F5F5F5F5F5F5F5F5F5F5F5F5F5F5F5F5F5F5F5F5F5F5F5F5F5F5F5F5F5F5F5F5F5F5F5F5F5F5F5F5F5F5F5F5F5F5F5F5F5F5F5F5F5F5F5F5F5F5F5E2F5F5F5F5F5F5F5F5F5F5F5F5F5F5F5F5F5F5F5F5E2E2EFF5F5F5F5F5F5F5F5F5F5F5F5
310
F5F5F5F5F5F5F5F5E2F5F5F5F5F5F5F5F5F5F5F5F5F5F5F5F5F5F5F5F5F5F5F5F5F5F5F5F5F5F5F5F5F5F5F5F5F5F5F5F5F5F5F5F5F5F5F5F5F5F5F5F5F5F5F5F5F5F5F5F5F5F5F5F5F5F5F5F5F5F5F5F5F5F5F5F5F5F5F5F5F5F5F5F5F5F5F5F5F5F5F5F5F5F5F5F5F5F5F5F5F5F5F5F5F5F5F5F5F5F5F5F5F5F5F5F5F5F5
310
F5F5F5F5F5F5F5F5F5F5F5F5F5F5F5F5F5E2F5F5F5F5F5F5F5F5F5F5F5F5F5F5F5F5F5F5F5F5E2E2EFF5F5F5F5F5F5F5F5F5F5F5F5F5F5F5F5F5F5F5F5E2F5F5F5F5F5F5F5F5F5F5F5F5F5F5F5F5F5F5F5F5F5F5F5F5F5F5F5F5F5F5F5F5F5F5F5F5F5F5F5F5F5F5F5F5F5F5F5F5F5F5F5F5F5F5F5F5F5F5F5F5F5F5F5F5F5
310
F5F5F5F5F5F5F5F5F5F5F5F5F5F5F5F5F5F5F5F5F5F5F5F5F5F5F5F5F5F5F5F5F5F5F5F5F5F5F5F5F5F5F5F5F5F5F5F5F5F5F5F5F5F5F5F5F5F5F5F5F5F5F5F5F5F5F5F5F5F5E2F5F5F5F5F5F5F5F5F5F5F5F5F5F5F5F5F5F5F5F5E2E2EFF5F5F5F5F5F5F5F5F5F5F5F5F5F5F5F5F5F5F5F5E2F5F5F5F5F5F5F5F5F5F5F5F5
310
F5F5F5F5F5F5F5F5F5F5F5F5F5F5F5F5F5F5F5F5F5F5F5F5F5F5F5F5F5F5F5F5F5F5F5F5F5F5F5F5F5F5F5F5F5F5F5F5F5F5F5F5F5F5F5F5F5F5F5F5F5F5F5F5F5F5F5F5F5F5F5F5F5F5F5F5F5F5F5F5F5F5F5F5F5F5F5F5F5F5F5F5F5F5F5F5F5F5F5F5F5F5F5F5F5F5F5F5F5F5F5F5F5F5F5F5F5F5F5F5F5F5F5E2F5F5F5
310
F5F5F5F5F5F5F5F5F5F5F5F5F5F5F5F5F5E2E2EFF5F5F5F5F5F5F5F5F5F5F5F5F5F5F5F5F5F5F5F5E2F5F5F5F5F5F5F5F5F5F5F5F5F5F5F5F5F5F5F5F5F5F5F5F5F5F5F5F5F5F5F5F5F5F5F5F5F5F5F5F5F5F5F5F5F5F5F5F5F5F5F5F5F5F5F5F5F5F5F5F5F5F5F5F5F5F5F5F5F5F5F5F5F5F5F5F5F5F5F5F5F5F5F5F5F5F5
310
F5F5F5F5F5F5F5F5F5F5F5F5F5F5F5F5F5F5F5F5F5F5F5F5F5F5F5F5F5F5F5F5F5F5F5F5F5F5F5F5F5F5F5F5F5F5F5F5F5E2F5F5F5F5F5F5F5F5F5F5F5F5F5F5F5F5F5F5F5F5E2E2EFF5F5F5F5F5F5F5F5F5F5F5F5F5F5F5F5F5F5F5F5E2F5F5F5F5F5F5F5F5F5F5F5F5F5F5F5F5F5F5F5F5F5F5F5F5F5F5F5F5F5F5F5F5F5
310
F5F5F5F5F5F5F5F5F5F5F5F5F5F5F5F5F5F5F5F5F5F5F5F5F5F5F5F5F5F5F5F5F5F5F5F5F5F5F5F5F5F5F5F5F5F5F5F5F5F5F5F5F5F5F5F5F5F5F5F5F5F5F5F5F5F5F5F5F5F5F5F5F5F5F5F5F5F5F5F5F5F5F5F5F5F5F5F5F5F5F5F5F5F5F5F5F5F5F5F5F5F5E2F5F5F5F5F5F5F5F5F5F5F5F5F5F5F5F5F5F5F5F5E2E2EFF5
310
F5F5F5F5F5F5F5F5F5F5F5F5F5F5F5F5F5F5F5E2F5F5F5F5F5F5F5F5F5F5F5F5F5F5F5F5F5F5F5F5F5F5F5F5F5F5F5F5F5F5F5F5F5F5F5F5F5F5F5F5F5F5F5F5F5F5F5F5F5F5F5F5F5F5F5F5F5F5F5F5F5F5F5F5F5F5F5F5F5F5F5F5F5F5F5F5F5F5F5F5F5F5F5F5F5F5F5F5F5F5F5F5F5F5F5F5F5F5F5F5F5F5F5F5F5F5F5
310
F5F5F5F5F5F5F5F5F5F5F5F5F5F5F5F5F5F5F5F5F5F5F5F5F5F5F5F5E2F5F5F5F5F5F5F5F5F5F5F5F5F5F5F5F5F5F5F5F5E2E2EFF5F5F5E2F5F5F5F5F5F5F5F5F5F5F5F5F5F5F5F5E2F5F5F5F5F5F5F5F5F5F5F5F5F5F5F5F5F5F5F5F5F5F5F5F5F5F5F5F5F5F5F5F5F5F5F5F5F5F5F5F5F5F5F5F5F5F5F5F5F5F5F5F5F5F5
310
F5F5F5F5F5F5F5F5F5F5F5F5F5F5F5F5F5F5F5F5F5F5F5F5F5F5F5F5F5F5F5F5F5F5F5F5F5F5F5F5F5F5F5F5F5F5F5F5F5F5F5F5F5F5F5F5F5F5F5F5F5F5F5F5F5F5F5F5F5F5F5F5F5F5F5F5F5F5F5F5F5E2F5F5F5F5F5F5F5F5F5F5F5F5F5F5F5F5E2F5F5F5E2E2EFF5F5F5E2F5F5F5F5F5F5F5F5F5F5F5F5F5F5F5F5E2F5
310
F5F5F5F5F5F5F5F5F5F5F5F5F5F5F5F5F5F5F5F5F5F5F5F5F5F5F5F5F5F5F5F5F5F5F5F5F5F5F5F5F5F5F5F5F5F5F5F5F5F5F5F5F5F5F5F5F5F5F5F5F5F5F5F5F5F5F5F5F5F5F5F5F5F5F5F5F5F5F5F5F5F5F5F5F5F5F5F5F5F5F5F5F5F5F5F5F5F5F5F5F5F5F5F5F5F5F5F5F5F5F5F5F5F5F5F5F5F5F5F5F5F5F5F5F5F5F5
310
F5F5F5F5F5F5F5E2F5F5F5F5F5F5F5F5F5F5F5F5F5F5F5F5E2F5F5F5E2E2EFF5F5F5E2F5F5F5F5F5F5F5F5F5F5F5F5F5F5F5F5E2F5F5F5F5F5F5F5F5F5F5F5F5F5F5F5F5F5F5F5F5F5F5F5F5F5F5F5F5F5F5F5F5F5F5F5F5F5F5F5F5F5F5F5F5F5F5F5F5F5F5F5F5F5F5F5F5F5F5F5F5F5F5F5F5F5F5F5F5F5F5F5F5F5F5F5
310
F5F5F5F5F5F5F5F5F5F5F5F5F5F5F5F5F5F5F5F5F5F5F5F5F5F5F5F5F5F5F5F5F5F5F5F5F5F5F5F5F5F5F5F5F5F5F5F5F5F5F5F5F5F5F5F5F5F5F5F5E2F5F5F5F5F5F5F5F5F5F5F5F5F5F5F5F5E2F5F5F5E2E2EFF5F5F5E2F5F5F5F5F5F5F5F5F5F5F5F5F5F5F5F5E2F5F5F5F5F5F5F5F5F5F5F5F5F5F5F5F5F5F5F5F5F5F5
310
F5F5F5F5F5F5F5F5F5F5F5F5F5F5F5F5F5F5F5F5F5F5F5F5F5F5F5F5F5F5F5F5F5F5F5F5F5F5F5F5F5F5F5F5F5F5F5F5F5F5F5F5F5F5F5F5F5F5F5F5F5F5F5F5F5F5F5F5F5F5F5F5F5F5F5F5F5F5F5F5F5F5F5F5F5F5F5F5F5F5F5F5F5F5F5F5F5F5F5F5F5F5F5F5F5F5F5F5F5F5F5F5F5E2F5F5F5F5F5F5F5F5F5F5F5F5F5
310
F5F5F5E2F5F5F5E2E2EFF5F5F5E2F5F5F5F5F5F5F5F5F5F5F5F5F5F5F5F5E2F5F5F5F5F5F5F5F5F5F5F5F5F5F5F5F5F5F5F5F5F5F5F5F5F5F5F5F5F5F5F5F5F5F5F5F5F5F5F5F5F5F5F5F5F5F5F5F5F5F5F5F5F5F5F5F5F5F5F5F5F5F5F5F5F5F5F5F5F5F5F5F5F5F5F5F5F5F5F5F5F5F5F5F5F5F5F5F5F5F5F5F5F5F5F5F5
310
F5F5F5F5F5F5F5F5F5F5F5F5F5F5F5F5F5F5F5F5F5F5F5F5F5F5F5F5F5F5F5F5F5F5F5F5F5F5F5E2F5F5F5F5F5F5F5F5F5F5F5F5F5F5F5F5E2F5F5F5E2E2EFF5F5F5E2F5F5F5F5F5F5F5F5F5F5F5F5F5F5F5F5E2F5F5F5F5F5F5F5F5F5F5F5F5F5F5F5F5F5F5F5F5F5F5F5F5F5F5F5F5F5F5F5F5F5F5F5F5F5F5F5F5F5F5F5
310
F5F5F5F5F5F5F5F5F5F5F5F5F5F5F5F5F5F5F5F5F5F5F5F5F5F5F5F5F5F5F5F5F5F5F5F5F5F5F5F5F5F5F5F5F5F5F5F5F5F5F5F5F5F5F5F5F5F5F5F5F5F5F5F5F5F5F5F5F5F5F5F5F5F5F5F5F5F5F5F5F5F5F5F5F5F5F5F5F5F5F5F5E2F5F5F5F5F5F5F5F5F5F5F5F5F5F5F5F5E2F5F5F5E2E2EFF5F5F5E2F5F5F5F5F5F5F5
310
F5F5F5F5F5F5F5F5F5E2F5F5F5F5F5F5F5F5F5F5F5F5F5F5F5F5F5F5F5F5F5F5F5F5F5F5F5F5F5F5F5F5F5F5F5F5F5F5F5F5F5F5F5F5F5F5F5F5F5F5F5F5F5F5F5F5F5F5F5F5F5F5F5F5F5F5F5F5F5F5F5F5F5F5F5F5F5F5F5F5F5F5F5F5F5F5F5F5F5F5F5F5F5F5F5F5F5F5F5F5F5F5F5F5F5F5F5F5F5F5F5F5F5F5F5F5F5
310
F5F5F5F5F5F5F5F5F5F5F5F5F5F5F5F5F5F5E2F5F5F5F5F5F5F5F5F5F5F5F5F5F5F5F5E2F5F5F5E2E2EFF5F5F5E2F5F5F5F5F5F5F5F5F5F5F5F5F5F5F5F5E2F5F5F5F5F5F5F5F5F5F5F5F5F5F5F5F5F5F5F5F5F5F5F5F5F5F5F5F5F5F5F5F5F5F5F5F5F5F5F5F5F5F5F5F5F5F5F5F5F5F5F5F5F5F5F5F5F5F5F5F5F5F5F5F5
310
F5F5F5F5F5F5F5F5F5F5F5F5F5F5F5F5F5F5F5F5F5F5F5F5F5F5F5F5F5F5F5F5F5F5F5F5F5F5F5F5F5F5F5F5F5F5F5F5F5F5F5F5F5F5F5F5F5F5F5F5F5F5F5F5F5F5F5F5F5F5F5E2F5F5F5F5F5F5F5F5F5F5F5F5F5F5F5F5E2F5F5F5E2E2EFF5F5F5E2F5F5F5F5F5F5F5F5F5F5F5F5F5F5F5F5E2F5F5F5F5F5F5F5F5F5F5F5
310
F5F5F5F5F5F5F5F5F5F5F5F5F5F5F5F5F5F5F5F5F5F5F5F5F5F5F5F5F5F5F5F5F5F5F5F5F5F5F5F5F5F5F5F5F5F5F5F5F5F5F5F5F5F5F5F5F5F5F5F5F5F5F5F5F5F5F5F5F5F5F5F5F5F5F5F5F5F5F5F5F5F5F5F5F5F5F5F5F5F5F5F5F5F5F5F5F5F5F5F5F5F5F5F5F5F5F5F5F5F5F5F5F5F5F5F5F5F5F5F5F5F5F5F5E2F5F5
310
F5F5F5F5F5F5F5F5F5F5F5F5F5F5E2F5F5F5E2E2EFF5F5F5E2F5F5F5F5F5F5F5F5F5F5F5F5F5F5F5F5E2F5F5F5F5F5F5F5F5F5F5F5F5F5F5F5F5F5F5F5F5F5F5F5F5F5F5F5F5F5F5F5F5F5F5F5F5F5F5F5F5F5F5F5F5F5F5F5F5F5F5F5F5F5F5F5F5F5F5F5F5F5F5F5F5F5F5F5F5F5F5F5F5F5F5F5F5F5F5F5F5F5F5F5F5F5
310
F5F5F5F5F5F5F5F5F5F5F5F5F5F5F5F5F5F5F5F5F5F5F5F5F5F5F5F5F5F5F5F5F5F5F5F5F5F5F5F5F5F5F5F5F5F5F5F5F5F5E2F5F5F5F5F5F5F5F5F5F5F5F5F5F5F5F5E2F5F5F5E2E2EFF5F5F5E2F5F5F5F5F5F5F5F5F5F5F5F5F5F5F5F5E2F5F5F5F5F5F5F5F5F5F5F5F5F5F5F5F5F5F5F5F5F5F5F5F5F5F5F5F5F5F5F5F5
310
F5F5F5F5F5F5F5F5F5F5F5F5F5F5F5F5F5F5F5F5F5F5F5F5F5F5F5F5F5F5F5F5F5F5F5F5F5F5F5F5F5F5F5F5F5F5F5F5F5F5F5F5F5F5F5F5F5F5F5F5F5F5F5F5F5F5F5F5F5F5F5F5F5F5F5F5F5F5F5F5F5F5F5F5F5F5F5F5F5F5F5F5F5F5F5F5F5F5F5F5F5F5F5E2F5F5F5F5F5F5F5F5F5F5F5F5F5F5F5F5E2F5F5F5E2E2EF
310
F5F5F5E2F5F5F5F5F5F5F5F5F5F5F5F5F5F5F5F5E2F5F5F5F5F5F5F5F5F5F5F5F5F5F5F5F5F5F5F5F5F5F5F5F5F5F5F5F5F5F5F5F5F5F5F5F5F5F5F5F5F5F5F5F5F5F5F5F5F5F5F5F5F5F5F5F5F5F5F5F5F5F5F5F5F5F5F5F5F5F5F5F5F5F5F5F5F5F5F5F5F5F5F5F5F5F5F5F5F5F5F5F5F5F5F5F5F5F5F5F5F5F5F5F5F5F5
310
F5F5F5F5F5F5F5F5F5F5F5F5F5F5F5F5F5F5F5F5F5F5F5F5F5F5F5F5F5E2F5F5F5F5F5F5F5F5F5F5F5F5F5F5F5F5E2F5F5F5E2E2EFF5F5F5E2F5F5F5F5F5F5F5F5F5F5F5F5F5F5F5F5E2F5F5F5F5F5F5F5F5F5F5F5F5F5F5F5F5F5F5F5F5F5F5F5F5F5F5F5F5F5F5F5F5F5F5F5F5F5F5F5F5F5F5F5F5F5F5F5F5F5F5F5F5F5
310
F5F5F5F5F5F5F5F5F5F5F5F5F5F5F5F5F5F5F5F5F5F5F5F5F5F5F5F5F5F5F5F5F5F5F5F5F5F5F5F5F5F5F5F5F5F5F5F5F5F5F5F5F5F5F5F5F5F5F5F5F5F5F5F5F5F5F5F5F5F5F5F5F5F5F5F5F5F5F5F5F5F5E2F5F5F5F5F5F5F5F5F5F5F5F5F5F5F5F5E2F5F5F5E2E2EFF5F5F5E2F5F5F5F5F5F5F5F5F5F5F5F5F5F5F5F5E2
310
F5F5F5F5F5F5F5F5F5F5F5F5F5F5F5F5F5F5F5F5F5F5F5F5F5F5F5F5F5F5F5F5F5F5F5F5F5F5F5F5F5F5F5F5F5F5F5F5F5F5F5F5F5F5F5F5F5F5F5F5F5F5F5F5F5F5F5F5F5F5F5F5F5F5F5F5F5F5F5F5F5F5F5F5F5F5F5F5F5F5F5F5F5F5F5F5F5F5F5F5F5F5F5F5F5F5F5F5F5F5F5F5F5F5F5F5F5F5F5F5F5F5F5F5F5F5F5
310
F5F5F5F5F5F5F5F5E2F5F5F5F5F5F5F5F5F5F5F5F5F5F5F5F5E2F5F5F5E2E2EFF5F5F5E2F5F5F5F5F5F5F5F5F5F5F5F5F5F5F5F5E2F5F5F5F5F5F5F5F5F5F5F5F5F5F5F5F5F5F5F5F5F5F5F5F5F5F5F5F5F5F5F5F5F5F5F5F5F5F5F5F5F5F5F5F5F5F5F5F5F5F5F5F5F5F5F5F5F5F5F5F5F5F5F5F5F5F5F5F5F5F5F5F5F5F5
310
F5F5F5F5F5F5F5F5F5F5F5F5F5F5F5F5F5F5F5F5F5F5F5F5F5F5F5F5F5F5F5F5F5F5F5F5F5F5F5F5F5F5F5F5F5F5F5F5F5F5F5F5F5F5F5F5F5F5F5F5F5E2F5F5F5F5F5F5F5F5F5F5F5F5F5F5F5F5E2F5F5F5E2E2EFF5F5F5E2F5F5F5F5F5F5F5F5F5F5F5F5F5F5F5F5E2F5F5F5F5F5F5F5F5F5F5F5F5F5F5F5F5F5F5F5F5F5
310
F5F5F5F5F5F5F5F5F5F5F5F5F5F5F5F5F5F5F5F5F5F5F5F5F5F5F5F5F5F5F5F5F5F5F5F5F5F5F5F5F5F5F5F5F5F5F5F5F5F5F5F5F5F5F5F5F5F5F5F5F5F5F5F5F5F5F5F5F5F5F5F5F5F5F5F5F5F5F5F5F5F5F5F5F5F5F5F5F5F5F5F5F5F5F5F5F5F5F5F5F5F5F5F5F5F5F5F5F5F5F5F5F5F5E2F5F5F5F5F5F5F5F5F5F5F5F5
310
F5F5F5F5E2F5F5F5E2E2EFF5F5F5E2F5F5F5F5F5F5F5F5F5F5F5F5F5F5F5F5E2F5F5F5F5F5F5F5F5F5F5F5F5F5F5F5F5F5F5F5F5F5F5F5F5F5F5F5F5F5F5F5F5F5F5F5F5F5F5F5F5F5F5F5F5F5F5F5F5F5F5F5F5F5F5F5F5F5F5F5F5F5F5F5F5F5F5F5F5F5F5F5F5F5F5F5F5F5F5F5F5F5F5F5F5F5F5F5F5F5F5F5F5F5F5F5
310
F5F5F5F5F5F5F5F5F5F5F5F5F5F5F5F5F5F5F5F5F5F5F5F5F5F5F5F5F5F5F5F5F5F5F5F5F5F5F5F5E2F5F5F5F5F5F5F5F5F5F5F5F5F5F5F5F5E2F5F5F5E2E2EFF5F5F5F5F5F5F5F5F5F5F5F5F5F5F5F5F5F5F5F5E2F5F5F5F5F5F5F5F5F5F5F5F5F5F5F5F5F5F5F5F5F5F5F5F5F5F5F5F5F5F5F5F5F5F5F5F5F5F5F5F5F5F5
310
F5F5F5F5F5F5F5F5F5F5F5F5F5F5F5F5F5F5F5F5F5F5F5F5F5F5F5F5F5F5F5F5F5F5F5F5F5F5F5F5F5F5F5F5F5F5F5F5F5F5F5F5F5F5F5F5F5F5F5F5F5F5F5F5F5F5F5F5F5F5F5F5F5F5F5F5F5F5F5F5F5F5F5F5F5F5F5F5F5F5F5F5F5E2F5F5F5F5F5F5F5F5F5F5F5F5F5F5F5F5F5F5F5F5E2E2EFF5F5F5F5F5F5F5F5F5F5
310
F5F5F5F5F5F5F5F5F5F5E2F5F5F5F5F5F5F5F5F5F5F5F5F5F5F5F5F5F5F5F5F5F5F5F5F5F5F5F5F5F5F5F5F5F5F5F5F5F5F5F5F5F5F5F5F5F5F5F5F5F5F5F5F5F5F5F5F5F5F5F5F5F5F5F5F5F5F5F5F5F5F5F5F5F5F5F5F5F5F5F5F5F5F5F5F5F5F5F5F5F5F5F5F5F5F5F5F5F5F5F5F5F5F5F5F5F5F5F5F5F5F5F5F5F5F5F5
310
F5F5F5F5F5F5F5F5F5F5F5F5F5F5F5F5F5F5F5E2F5F5F5F5F5F5F5F5F5F5F5F5F5F5F5F5F5F5F5F5E2E2EFF5F5F5F5F5F5F5F5F5F5F5F5F5F5F5F5F5F5F5F5E2F5F5F5F5F5F5F5F5F5F5F5F5F5F5F5F5F5F5F5F5F5F5F5F5F5F5F5F5F5F5F5F5F5F5F5F5F5F5F5F5F5F5F5F5F5F5F5F5F5F5F5F5F5F5F5F5F5F5F5F5F5F5F5
310
F5F5F5F5F5F5F5F5F5F5F5F5F5F5F5F5F5F5F5F5F5F5F5F5F5F5F5F5F5F5F5F5F5F5F5F5F5F5F5F5F5F5F5F5F5F5F5F5F5F5F5F5F5F5F5F5F5F5F5F5F5F5F5F5F5F5F5F5F5F5F5F5E2F5F5F5F5F5F5F5F5F5F5F5F5F5F5F5F5F5F5F5F5E2E2EFF5F5F5F5F5F5F5F5F5F5F5F5F5F5F5F5F5F5F5F5E2F5F5F5F5F5F5F5F5F5F5
310
F5F5F5F5F5F5F5F5F5F5F5F5F5F5F5F5F5F5F5F5F5F5F5F5F5F5F5F5F5F5F5F5F5F5F5F5F5F5F5F5F5F5F5F5F5F5F5F5F5F5F5F5F5F5F5F5F5F5F5F5F5F5F5F5F5F5F5F5F5F5F5F5F5F5F5F5F5F5F5F5F5F5F5F5F5F5F5F5F5F5F5F5F5F5F5F5F5F5F5F5F5F5F5F5F5F5F5F5F5F5F5F5F5F5F5F5F5F5F5F5F5F5F5F5F5E2F5
310
F5F5F5F5F5F5F5F5F5F5F5F5F5F5F5F5F5F5F5E2E2EFF5F5F5F5F5F5F5F5F5F5F5F5F5F5F5F5F5F5F5F5E2F5F5F5F5F5F5F5F5F5F5F5F5F5F5F5F5F5F5F5F5F5F5F5F5F5F5F5F5F5F5F5F5F5F5F5F5F5F5F5F5F5F5F5F5F5F5F5F5F5F5F5F5F5F5F5F5F5F5F5F5F5F5F5F5F5F5F5F5F5F5F5F5F5F5F5F5F5F5F5F5F5F5F5F5
310
F5F5F5F5F5F5F5F5F5F5F5F5F5F5F5F5F5F5F5F5F5F5F5F5F5F5F5F5F5F5F5F5F5F5F5F5F5F5F5F5F5F5F5F5F5F5F5F5F5F5F5E2F5F5F5F5F5F5F5F5F5F5F5F5F5F5F5F5F5F5F5F5E2E2EFF5F5F5F5F5F5F5F5F5F5F5F5F5F5F5F5F5F5F5F5E2F5F5F5F5F5F5F5F5F5F5F5F5F5F5F5F5F5F5F5F5F5F5F5F5F5F5F5F5F5F5F5
310
F5F5F5F5F5F5F5F5F5F5F5F5F5F5F5F5F5F5F5F5F5F5F5F5F5F5F5F5F5F5F5F5F5F5F5F5F5F5F5F5F5F5F5F5F5F5F5F5F5F5F5F5F5F5F5F5F5F5F5F5F5F5F5F5F5F5F5F5F5F5F5F5F5F5F5F5F5F5F5F5F5F5F5F5F5F5F5F5F5F5F5F5F5F5F5F5F5F5F5F5F5F5F5F5E2F5F5F5F5F5F5F5F5F5F5F5F5F5F5F5F5F5F5F5F5E2E2
310
EFF5F5F5F5F5F5F5F5F5F5F5F5F5F5F5F5F5F5F5F5E2F5F5F5F5F5F5F5F5F5F5F5F5F5F5F5F5F5F5F5F5F5F5F5F5F5F5F5F5F5F5F5F5F5F5F5F5F5F5F5F5F5F5F5F5F5F5F5F5F5F5F5F5F5F5F5F5F5F5F5F5F5F5F5F5F5F5F5F5F5F5F5F5F5F5F5F5F5F5F5F5F5F5F5F5F5F5F5F5F5F5F5F5F5F5F5F5F5F5F5F5F5F5F5F5F5
310
F5F5F5F5F5F5F5F5F5F5F5F5F5F5F5F5F5F5F5F5F5F5F5F5F5F5F5F5F5F5E2F5F5F5F5F5F5F5F5F5F5F5F5F5F5F5F5F5F5F5F5E2E2EFF5F5F5F5F5F5F5F5F5F5F5F5F5F5F5F5F5F5F5F5E2F5F5F5F5F5F5F5F5F5F5F5F5F5F5F5F5F5F5F5F5F5F5F5F5F5F5F5F5F5F5F5F5F5F5F5F5F5F5F5F5F5F5F5F5F5F5F5F5F5F5F5F5
310
F5F5F5F5F5F5F5F5F5F5F5F5F5F5F5F5F5F5F5F5F5F5F5F5F5F5F5F5F5F5F5F5F5F5F5F5F5F5F5F5F5F5F5F5F5F5F5F5F5F5F5F5F5F5F5F5F5F5F5F5F5F5F5F5F5F5F5F5F5F5F5F5F5F5F5F5F5F5F5F5F5F5F5E2F5F5F5F5F5F5F5F5F5F5F5F5F5F5F5F5F5F5F5F5E2E2EFF5F5F5F5F5F5F5F5F5F5F5F5F5F5F5F5F5F5F5F5
310
E2F5F5F5F5F5F5F5F5F5F5F5F5F5F5F5F5F5F5F5F5F5F5F5F5F5F5F5F5F5F5F5F5F5F5F5F5F5F5F5F5F5F5F5F5F5F5F5F5F5F5F5F5F5F5F5F5F5F5F5F5F5F5F5F5F5F5F5F5F5F5F5F5F5F5F5F5F5F5F5F5F5F5F5F5F5F5F5F5F5F5F5F5F5F5F5F5F5F5F5F5F5F5F5F5F5F5F5F5F5F5F5F5F5F5F5F5F5F5F5F5F5F5F5F5F5F5
310
F5F5F5F5F5F5F5F5F5E2F5F5F5F5F5F5F5F5F5F5F5F5F5F5F5F5F5F5F5F5E2E2EFF5F5F5E2F5F5F5F5F5F5F5F5F5F5F5F5F5F5F5F5E2F5F5F5F5F5F5F5F5F5F5F5F5F5F5F5F5F5F5F5F5F5F5F5F5F5F5F5F5F5F5F5F5F5F5F5F5F5F5F5F5F5F5F5F5F5F5F5F5F5F5F5F5F5F5F5F5F5F5F5F5F5F5F5F5F5F5F5F5F5F5F5F5F5
310
F5F5F5F5F5F5F5F5F5F5F5F5F5F5F5F5F5F5F5F5F5F5F5F5F5F5F5F5F5F5F5F5F5F5F5F5F5F5F5F5F5F5F5F5F5F5F5F5F5F5F5F5F5F5F5F5F5F5F5F5F5F5E2F5F5F5F5F5F5F5F5F5F5F5F5F5F5F5F5E2F5F5F5E2E2EFF5F5F5E2F5F5F5F5F5F5F5F5F5F5F5F5F5F5F5F5E2F5F5F5F5F5F5F5F5F5F5F5F5F5F5F5F5F5F5F5F5
310
F5F5F5F5F5F5F5F5F5F5F5F5F5F5F5F5F5F5F5F5F5F5F5F5F5F5F5F5F5F5F5F5F5F5F5F5F5F5F5F5F5F5F5F5F5F5F5F5F5F5F5F5F5F5F5F5F5F5F5F5F5F5F5F5F5F5F5F5F5F5F5F5F5F5F5F5F5F5F5F5F5F5F5F5F5F5F5F5F5F5F5F5F5F5F5F5F5F5F5F5F5F5F5F5F5F5F5F5F5F5F5F5F5F5F5E2F5F5F5F5F5F5F5F5F5F5F5
310
F5F5F5F5F5E2F5F5F5E2E2EFF5F5F5E2F5F5F5F5F5F5F5F5F5F5F5F5F5F5F5F5E2F5F5F5F5F5F5F5F5F5F5F5F5F5F5F5F5F5F5F5F5F5F5F5F5F5F5F5F5F5F5F5F5F5F5F5F5F5F5F5F5F5F5F5F5F5F5F5F5F5F5F5F5F5F5F5F5F5F5F5F5F5F5F5F5F5F5F5F5F5F5F5F5F5F5F5F5F5F5F5F5F5F5F5F5F5F5F5F5F5F5F5F5F5F5
310
F5F5F5F5F5F5F5F5F5F5F5F5F5F5F5F5F5F5F5F5F5F5F5F5F5F5F5F5F5F5F5F5F5F5F5F5F5F5F5F5F5E2F5F5F5F5F5F5F5F5F5F5F5F5F5F5F5F5E2F5F5F5E2E2EFF5F5F5E2F5F5F5F5F5F5F5F5F5F5F5F5F5F5F5F5E2F5F5F5F5F5F5F5F5F5F5F5F5F5F5F5F5F5F5F5F5F5F5F5F5F5F5F5F5F5F5F5F5F5F5F5F5F5F5F5F5F5
310
F5F5F5F5F5F5F5F5F5F5F5F5F5F5F5F5F5F5F5F5F5F5F5F5F5F5F5F5F5F5F5F5F5F5F5F5F5F5F5F5F5F5F5F5F5F5F5F5F5F5F5F5F5F5F5F5F5F5F5F5F5F5F5F5F5F5F5F5F5F5F5F5F5F5F5F5F5F5F5F5F5F5F5F5F5F5F5F5F5F5F5F5F5F5E2F5F5F5F5F5F5F5F5F5F5F5F5F5F5F5F5E2F5F5F5E2E2EFF5F5F5E2F5F5F5F5F5
310
F5F5F5F5F5F5F5F5F5F5F5E2F5F5F5F5F5F5F5F5F5F5F5F5F5F5F5F5F5F5F5F5F5F5F5F5F5F5F5F5F5F5F5F5F5F5F5F5F5F5F5F5F5F5F5F5F5F5F5F5F5F5F5F5F5F5F5F5F5F5F5F5F5F5F5F5F5F5F5F5F5F5F5F5F5F5F5F5F5F5F5F5F5F5F5F5F5F5F5F5F5F5F5F5F5F5F5F5F5F5F5F5F5F5F5F5F5F5F5F5F5F5F5F5F5F5F5
310
F5F5F5F5F5F5F5F5F5F5F5F5F5F5F5F5F5F5F5F5E2F5F5F5F5F5F5F5F5F5F5F5F5F5F5F5F5E2F5F5F5E2E2EFF5F5F5E2F5F5F5F5F5F5F5F5F5F5F5F5F5F5F5F5E2F5F5F5F5F5F5F5F5F5F5F5F5F5F5F5F5F5F5F5F5F5F5F5F5F5F5F5F5F5F5F5F5F5F5F5F5F5F5F5F5F5F5F5F5F5F5F5F5F5F5F5F5F5F5F5F5F5F5F5F5F5F5
310
F5F5F5F5F5F5F5F5F5F5F5F5F5F5F5F5F5F5F5F5F5F5F5F5F5F5F5F5F5F5F5F5F5F5F5F5F5F5F5F5F5F5F5F5F5F5F5F5F5F5F5F5F5F5F5F5F5F5F5F5F5F5F5F5F5F5F5F5F5F5F5F5F5E2F5F5F5F5F5F5F5F5F5F5F5F5F5F5F5F5E2F5F5F5E2E2EFF5F5F5E2F5F5F5F5F5F5F5F5F5F5F5F5F5F5F5F5E2F5F5F5F5F5F5F5F5F5
310
F5F5F5F5F5F5F5F5F5F5F5F5F5F5F5F5F5F5F5F5F5F5F5F5F5F5F5F5F5F5F5F5F5F5F5F5F5F5F5F5F5F5F5F5F5F5F5F5F5F5F5F5F5F5F5F5F5F5F5F5F5F5F5F5F5F5F5F5F5F5F5F5F5F5F5F5F5F5F5F5F5F5F5F5F5F5F5F5F5F5F5F5F5F5F5F5F5F5F5F5F5F5F5F5F5F5F5F5F5F5F5F5F5F5F5F5F5F5F5F5F5F5F5F5F5F5E2
310
F5F5F5F5F5F5F5F5F5F5F5F5F5F5F5F5E2F5F5F5E2E2EFF5F5F5E2F5F5F5F5F5F5F5F5F5F5F5F5F5F5F5F5E2F5F5F5F5F5F5F5F5F5F5F5F5F5F5F5F5F5F5F5F5F5F5F5F5F5F5F5F5F5F5F5F5F5F5F5F5F5F5F5F5F5F5F5F5F5F5F5F5F5F5F5F5F5F5F5F5F5F5F5F5F5F5F5F5F5F5F5F5F5F5F5F5F5F5F5F5F5F5F5F5F5F5F5
310
F5F5F5F5F5F5F5F5F5F5F5F5F5F5F5F5F5F5F5F5F5F5F5F5F5F5F5F5F5F5F5F5F5F5F5F5F5F5F5F5F5F5F5F5F5F5F5F5F5F5F5F5E2F5F5F5F5F5F5F5F5F5F5F5F5F5F5F5F5E2F5F5F5E2E2EFF5F5F5E2F5F5F5F5F5F5F5F5F5F5F5F5F5F5F5F5E2F5F5F5F5F5F5F5F5F5F5F5F5F5F5F5F5F5F5F5F5F5F5F5F5F5F5F5F5F5F5
310
F5F5F5F5F5F5F5F5F5F5F5F5F5F5F5F5F5F5F5F5F5F5F5F5F5F5F5F5F5F5F5F5F5F5F5F5F5F5F5F5F5F5F5F5F5F5F5F5F5F5F5F5F5F5F5F5F5F5F5F5F5F5F5F5F5F5F5F5F5F5F5F5F5F5F5F5F5F5F5F5F5F5F5F5F5F5F5F5F5F5F5F5F5F5F5F5F5F5F5F5F5F5F5F5F5E2F5F5F5F5F5F5F5F5F5F5F5F5F5F5F5F5E2F5F5F5E2
310
E2EFF5F5F5E2F5F5F5F5F5F5F5F5F5F5F5F5F5F5F5F5E2F5F5F5F5F5F5F5F5F5F5F5F5F5F5F5F5F5F5F5F5F5F5F5F5F5F5F5F5F5F5F5F5F5F5F5F5F5F5F5F5F5F5F5F5F5F5F5F5F5F5F5F5F5F5F5F5F5F5F5F5F5F5F5F5F5F5F5F5F5F5F5F5F5F5F5F5F5F5F5F5F5F5F5F5F5F5F5F5F5F5F5F5F5F5F5F5F5F5F5F5F5F5F5F5
310
F5F5F5F5F5F5F5F5F5F5F5F5F5F5F5F5F5F5F5F5F5F5F5F5F5F5F5F5F5F5F5E2F5F5F5F5F5F5F5F5F5F5F5F5F5F5F5F5E2F5F5F5E2E2EFF5F5F5E2F5F5F5F5F5F5F5F5F5F5F5F5F5F5F5F5E2F5F5F5F5F5F5F5F5F5F5F5F5F5F5F5F5F5F5F5F5F5F5F5F5F5F5F5F5F5F5F5F5F5F5F5F5F5F5F5F5F5F5F5F5F5F5F5F5F5F5F5
310
F5F5F5F5F5F5F5F5F5F5F5F5F5F5F5F5F5F5F5F5F5F5F5F5F5F5F5F5F5F5F5F5F5F5F5F5F5F5F5F5F5F5F5F5F5F5F5F5F5F5F5F5F5F5F5F5F5F5F5F5F5F5F5F5F5F5F5F5F5F5F5F5F5F5F5F5F5F5F5F5F5F5F5F5E2F5F5F5F5F5F5F5F5F5F5F5F5F5F5F5F5E2F5F5F5E2E2EFF5F5F5E2F5F5F5F5F5F5F5F5F5F5F5F5F5F5F5
310
F5E2F5F5F5F5F5F5F5F5F5F5F5F5F5F5F5F5F5F5F5F5F5F5F5F5F5F5F5F5F5F5F5F5F5F5F5F5F5F5F5F5F5F5F5F5F5F5F5F5F5F5F5F5F5F5F5F5F5F5F5F5F5F5F5F5F5F5F5F5F5F5F5F5F5F5F5F5F5F5F5F5F5F5F5F5F5F5F5F5F5F5F5F5F5F5F5F5F5F5F5F5F5F5F5F5F5F5F5F5F5F5F5F5F5F5F5F5F5F5F5F5F5F5F5F5F5
310
F5F5F5F5F5F5F5F5F5F5E2F5F5F5F5F5F5F5F5F5F5F5F5F5F5F5F5E2F5F5F5E2E2EFF5F5F5E2F5F5F5F5F5F5F5F5F5F5F5F5F5F5F5F5E2F5F5F5F5F5F5F5F5F5F5F5F5F5F5F5F5F5F5F5F5F5F5F5F5F5F5F5F5F5F5F5F5F5F5F5F5F5F5F5F5F5F5F5F5F5F5F5F5F5F5F5F5F5F5F5F5F5F5F5F5F5F5F5F5F5F5F5F5F5F5F5F5
310
F5F5F5F5F5F5F5F5F5F5F5F5F5F5F5F5F5F5F5F5F5F5F5F5F5F5F5F5F5F5F5F5F5F5F5F5F5F5F5F5F5F5F5F5F5F5F5F5F5F5F5F5F5F5F5F5F5F5F5F5F5F5F5E2F5F5F5F5F5F5F5F5F5F5F5F5F5F5F5F5E2F5F5F5E2E2EFF5F5F5E2F5F5F5F5F5F5F5F5F5F5F5F5F5F5F5F5E2F5F5F5F5F5F5F5F5F5F5F5F5F5F5F5F5F5F5F5
310
F5F5F5F5F5F5F5F5F5F5F5F5F5F5F5F5F5F5F5F5F5F5F5F5F5F5F5F5F5F5F5F5F5F5F5F5F5F5F5F5F5F5F5F5F5F5F5F5F5F5F5F5F5F5F5F5F5F5F5F5F5F5F5F5F5F5F5F5F5F5F5F5F5F5F5F5F5F5F5F5F5F5F5F5F5F5F5F5F5F5F5F5F5F5F5F5F5F5F5F5F5F5F5F5F5F5F5F5F5F5F5F5F5F5F5F5E2F5F5F5F5F5F5F5F5F5F5
310
F5F5F5F5F5F5E2F5F5F5E2E2EFF5F5F5E2F5F5F5F5F5F5F5F5F5F5F5F5F5F5F5F5E2F5F5F5F5F5F5F5F5F5F5F5F5F5F5F5F5F5F5F5F5F5F5F5F5F5F5F5F5F5F5F5F5F5F5F5F5F5F5F5F5F5F5F5F5F5F5F5F5F5F5F5F5F5F5F5F5F5F5F5F5F5F5F5F5F5F5F5F5F5F5F5F5F5F5F5F5F5F5F5F5F5F5F5F5F5F5F5F5F5F5F5F5F5
310
F5F5F5F5F5F5F5F5F5F5F5F5F5F5F5F5F5F5F5F5F5F5F5F5F5F5F5F5F5F5F5F5F5F5F5F5F5F5F5F5F5F5E2F5F5F5F5F5F5F5F5F5F5F5F5F5F5F5F5E2F5F5F5E2E2EFF5F5F5E2F5F5F5F5F5F5F5F5F5F5F5F5F5F5F5F5E2F5F5F5F5F5F5F5F5F5F5F5F5F5F5F5F5F5F5F5F5F5F5F5F5F5F5F5F5F5F5F5F5F5F5F5F5F5F5F5F5
310
F5F5F5F5F5F5F5F5F5F5F5F5F5F5F5F5F5F5F5F5F5F5F5F5F5F5F5F5F5F5F5F5F5F5F5F5F5F5F5F5F5F5F5F5F5F5F5F5F5F5F5F5F5F5F5F5F5F5F5F5F5F5F5F5F5F5F5F5F5F5F5F5F5F5F5F5F5F5F5F5F5F5F5F5F5F5F5F5F5F5F5F5F5F5F5E2F5F5F5F5F5F5F5F5F5F5F5F5F5F5F5F5E2F5F5F5E2E2EFF5F5F5E2F5F5F5F5
310
F5F5F5F5F5F5F5F5F5F5F5F5E2F5F5F5F5F5F5F5F5F5F5F5F5F5F5F5F5F5F5F5F5F5F5F5F5F5F5F5F5F5F5F5F5F5F5F5F5F5F5F5F5F5F5F5F5F5F5F5F5F5F5F5F5F5F5F5F5F5F5F5F5F5F5F5F5F5F5F5F5F5F5F5F5F5F5F5F5F5F5F5F5F5F5F5F5F5F5F5F5F5F5F5F5F5F5F5F5F5F5F5F5F5F5F5F5F5F5F5F5F5F5F5F5F5F5
310
F5F5F5F5F5F5F5F5F5F5F5F5F5F5F5F5F5F5F5F5F5E2F5F5F5F5F5F5F5F5F5F5F5F5F5F5F5F5E2F5F5F5E2E2EFF5F5F5F5F5F5F5F5F5F5F5F5F5F5F5F5F5F5F5F5E2F5F5F5F5F5F5F5F5F5F5F5F5F5F5F5F5F5F5F5F5F5F5F5F5F5F5F5F5F5F5F5F5F5F5F5F5F5F5F5F5F5F5F5F5F5F5F5F5F5F5F5F5F5F5F5F5F5F5F5F5F5
310
F5F5F5F5F5F5F5F5F5F5F5F5F5F5F5F5F5F5F5F5F5F5F5F5F5F5F5F5F5F5F5F5F5F5F5F5F5F5F5F5F5F5F5F5F5F5F5F5F5F5F5F5F5F5F5F5F5F5F5F5F5F5F5F5F5F5F5F5F5F5F5F5F5F5E2F5F5F5F5F5F5F5F5F5F5F5F5F5F5F5F5F5F5F5F5E2E2EFF5F5F5F5F5F5F5F5F5F5F5F5F5F5F5F5F5F5F5F5E2F5F5F5F5F5F5F5F5
310
F5F5F5F5F5F5F5F5F5F5F5F5F5F5F5F5F5F5F5F5F5F5F5F5F5F5F5F5F5F5F5F5F5F5F5F5F5F5F5F5F5F5F5F5F5F5F5F5F5F5F5F5F5F5F5F5F5F5F5F5F5F5F5F5F5F5F5F5F5F5F5F5F5F5F5F5F5F5F5F5F5F5F5F5F5F5F5F5F5F5F5F5F5F5F5F5F5F5F5F5F5F5F5F5F5F5F5F5F5F5F5F5F5F5F5F5F5F5F5F5F5F5F5F5F5F5F5
310
E2F5F5F5F5F5F5F5F5F5F5F5F5F5F5F5F5F5F5F5F5E2E2EFF5F5F5F5F5F5F5F5F5F5F5F5F5F5F5F5F5F5F5F5E2F5F5F5F5F5F5F5F5F5F5F5F5F5F5F5F5F5F5F5F5F5F5F5F5F5F5F5F5F5F5F5F5F5F5F5F5F5F5F5F5F5F5F5F5F5F5F5F5F5F5F5F5F5F5F5F5F5F5F5F5F5F5F5F5F5F5F5F5F5F5F5F5F5F5F5F5F5F5F5F5F5F5
310
F5F5F5F5F5F5F5F5F5F5F5F5F5F5F5F5F5F5F5F5F5F5F5F5F5F5F5F5F5F5F5F5F5F5F5F5F5F5F5F5F5F5F5F5F5F5F5F5F5F5F5F5F5E2F5F5F5F5F5F5F5F5F5F5F5F5F5F5F5F5F5F5F5F5E2E2EFF5F5F5F5F5F5F5F5F5F5F5F5F5F5F5F5F5F5F5F5E2F5F5F5F5F5F5F5F5F5F5F5F5F5F5F5F5F5F5F5F5F5F5F5F5F5F5F5F5F5
310
F5F5F5F5F5F5F5F5F5F5F5F5F5F5F5F5F5F5F5F5F5F5F5F5F5F5F5F5F5F5F5F5F5F5F5F5F5F5F5F5F5F5F5F5F5F5F5F5F5F5F5F5F5F5F5F5F5F5F5F5F5F5F5F5F5F5F5F5F5F5F5F5F5F5F5F5F5F5F5F5F5F5F5F5F5F5F5F5F5F5F5F5F5F5F5F5F5F5F5F5F5F5F5F5F5F5E2F5F5F5F5F5F5F5F5F5F5F5F5F5F5F5F5F5F5F5F5
310
E2E2EFF5F5F5F5F5F5F5F5F5F5F5F5F5F5F5F5F5F5F5F5E2F5F5F5F5F5F5F5F5F5F5F5F5F5F5F5F5F5F5F5F5F5F5F5F5F5F5F5F5F5F5F5F5F5F5F5F5F5F5F5F5F5F5F5F5F5F5F5F5F5F5F5F5F5F5F5F5F5F5F5F5F5F5F5F5F5F5F5F5F5F5F5F5F5F5F5F5F5F5F5F5F5F5F5F5F5F5F5F5F5F5F5F5F5F5F5F5F5F5F5F5F5F5F5
310
F5F5F5F5F5F5F5F5F5F5F5F5F5F5F5F5F5F5F5F5F5F5F5F5F5F5F5F5F5F5F5F5E2F5F5F5F5F5F5F5F5F5F5F5F5F5F5F5F5F5F5F5F5E2E2EFF5F5F5F5F5F5F5F5F5F5F5F5F5F5F5F5F5F5F5F5E2F5F5F5F5F5F5F5F5F5F5F5F5F5F5F5F5F5F5F5F5F5F5F5F5F5F5F5F5F5F5F5F5F5F5F5F5F5F5F5F5F5F5F5F5F5F5F5F5F5F5
310
F5F5F5F5F5F5F5F5F5F5F5F5F5F5F5F5F5F5F5F5F5F5F5F5F5F5F5F5F5F5F5F5F5F5F5F5F5F5F5F5F5F5F5F5F5F5F5F5F5F5F5F5F5F5F5F5F5F5F5F5F5F5F5F5F5F5F5F5F5F5F5F5F5F5F5F5F5F5F5F5F5F5F5F5F5E2F5F5F5F5F5F5F5F5F5F5F5F5F5F5F5F5F5F5F5F5E2E2EFF5F5F5F5F5F5F5F5F5F5F5F5F5F5F5F5F5F5
310
F5F5E2F5F5F5F5F5F5F5F5F5F5F5F5F5F5F5F5F5F5F5F5F5F5F5F5F5F5F5F5F5F5F5F5F5F5F5F5F5F5F5F5F5F5F5F5F5F5F5F5F5F5F5F5F5F5F5F5F5F5F5F5F5F5F5F5F5F5F5F5F5F5F5F5F5F5F5F5F5F5F5F5F5F5F5F5F5F5F5F5F5F5F5F5F5F5F5F5F5F5F5F5F5F5F5F5F5F5F5F5F5F5F5F5F5F5F5F5F5F5F5F5F5F5F5F5
310
F5F5F5F5F5F5F5F5F5F5F5E2F5F5F5F5F5F5F5F5F5F5F5F5F5F5F5F5F5F5F5F5E2E2EFF5F5F5F5F5F5F5F5F5F5F5F5F5F5F5F5F5F5F5F5E2F5F5F5F5F5F5F5F5F5F5F5F5F5F5F5F5F5F5F5F5F5F5F5F5F5F5F5F5F5F5F5F5F5F5F5F5F5F5F5F5F5F5F5F5F5F5F5F5F5F5F5F5F5F5F5F5F5F5F5F5F5F5F5F5F5F5F5F5F5F5F5
310
F5F5F5F5F5F5F5F5F5F5F5F5F5F5F5F5F5F5F5F5F5F5F5F5F5F5F5F5F5F5F5F5F5F5F5F5F5F5F5F5F5F5F5F5F5F5F5F5F5F5F5F5F5F5F5F5F5F5F5F5F5F5F5F5E2F5F5F5F5F5F5F5F5F5F5F5F5F5F5F5F5F5F5F5F5E2E2EFF5F5F5F5F5F5F5F5F5F5F5F5F5F5F5F5F5F5F5F5E2F5F5F5F5F5F5F5F5F5F5F5F5F5F5F5F5F5F5
310
F5F5F5F5F5F5F5F5F5F5F5F5F5F5F5F5F5F5F5F5F5F5F5F5F5F5F5F5F5F5F5F5F5F5F5F5F5F5F5F5F5F5F5F5F5F5F5F5F5F5F5F5F5F5F5F5F5F5F5F5F5F5F5F5F5F5F5F5F5F5F5F5F5F5F5F5F5F5F5F5F5F5F5F5F5F5F5F5F5F5F5F5F5F5F5F5F5F5F5F5F5F5F5F5F5F5F5F5F5F5F5F5F5F5F5F5F5E2F5F5F5F5F5F5F5F5F5
310
F5F5F5F5F5F5F5F5F5F5F5E2E2EFF5F5F5E2F5F5F5F5F5F5F5F5F5F5F5F5F5F5F5F5E2F5F5F5F5F5F5F5F5F5F5F5F5F5F5F5F5F5F5F5F5F5F5F5F5F5F5F5F5F5F5F5F5F5F5F5F5F5F5F5F5F5F5F5F5F5F5F5F5F5F5F5F5F5F5F5F5F5F5F5F5F5F5F5F5F5F5F5F5F5F5F5F5F5F5F5F5F5F5F5F5F5F5F5F5F5F5F5F5F5F5F5F5
310
F5F5F5F5F5F5F5F5F5F5F5F5F5F5F5F5F5F5F5F5F5F5F5F5F5F5F5F5F5F5F5F5F5F5F5F5F5F5F5F5F5F5F5E2F5F5F5F5F5F5F5F5F5F5F5F5F5F5F5F5E2F5F5F5E2E2EFF5F5F5E2F5F5F5F5F5F5F5F5F5F5F5F5F5F5F5F5E2F5F5F5F5F5F5F5F5F5F5F5F5F5F5F5F5F5F5F5F5F5F5F5F5F5F5F5F5F5F5F5F5F5F5F5F5F5F5F5
310
F5F5F5F5F5F5F5F5F5F5F5F5F5F5F5F5F5F5F5F5F5F5F5F5F5F5F5F5F5F5F5F5F5F5F5F5F5F5F5F5F5F5F5F5F5F5F5F5F5F5F5F5F5F5F5F5F5F5F5F5F5F5F5F5F5F5F5F5F5F5F5F5F5F5F5F5F5F5F5F5F5F5F5F5F5F5F5F5F5F5F5F5F5F5F5F5E2F5F5F5F5F5F5F5F5F5F5F5F5F5F5F5F5E2F5F5F5E2E2EFF5F5F5E2F5F5F5
310
F5F5F5F5F5F5F5F5F5F5F5F5F5E2F5F5F5F5F5F5F5F5F5F5F5F5F5F5F5F5F5F5F5F5F5F5F5F5F5F5F5F5F5F5F5F5F5F5F5F5F5F5F5F5F5F5F5F5F5F5F5F5F5F5F5F5F5F5F5F5F5F5F5F5F5F5F5F5F5F5F5F5F5F5F5F5F5F5F5F5F5F5F5F5F5F5F5F5F5F5F5F5F5F5F5F5F5F5F5F5F5F5F5F5F5F5F5F5F5F5F5F5F5F5F5F5F5
310
F5F5F5F5F5F5F5F5F5F5F5F5F5F5F5F5F5F5F5F5F5F5E2F5F5F5F5F5F5F5F5F5F5F5F5F5F5F5F5E2F5F5F5E2E2EFF5F5F5E2F5F5F5F5F5F5F5F5F5F5F5F5F5F5F5F5E2F5F5F5F5F5F5F5F5F5F5F5F5F5F5F5F5F5F5F5F5F5F5F5F5F5F5F5F5F5F5F5F5F5F5F5F5F5F5F5F5F5F5F5F5F5F5F5F5F5F5F5F5F5F5F5F5F5F5F5F5
310
F5F5F5F5F5F5F5F5F5F5F5F5F5F5F5F5F5F5F5F5F5F5F5F5F5F5F5F5F5F5F5F5F5F5F5F5F5F5F5F5F5F5F5F5F5F5F5F5F5F5F5F5F5F5F5F5F5F5F5F5F5F5F5F5F5F5F5F5F5F5F5F5F5F5F5E2F5F5F5F5F5F5F5F5F5F5F5F5F5F5F5F5E2F5F5F5E2E2EFF5F5F5E2F5F5F5F5F5F5F5F5F5F5F5F5F5F5F5F5E2F5F5F5F5F5F5F5
310
F5F5F5F5F5F5F5F5F5F5F5F5F5F5F5F5F5F5F5F5F5F5F5F5F5F5F5F5F5F5F5F5F5F5F5F5F5F5F5F5F5F5F5F5F5F5F5F5F5F5F5F5F5F5F5F5F5F5F5F5F5F5F5F5F5F5F5F5F5F5F5F5F5F5F5F5F5F5F5F5F5F5F5F5F5F5F5F5F5F5F5F5F5F5F5F5F5F5F5F5F5F5F5F5F5F5F5F5F5F5F5F5F5F5F5F5F5F5F5F5F5F5F5F5F5F5F5
310
F5E2F5F5F5F5F5F5F5F5F5F5F5F5F5F5F5F5E2F5F5F5E2E2EFF5F5F5E2F5F5F5F5F5F5F5F5F5F5F5F5F5F5F5F5E2F5F5F5F5F5F5F5F5F5F5F5F5F5F5F5F5F5F5F5F5F5F5F5F5F5F5F5F5F5F5F5F5F5F5F5F5F5F5F5F5F5F5F5F5F5F5F5F5F5F5F5F5F5F5F5F5F5F5F5F5F5F5F5F5F5F5F5F5F5F5F5F5F5F5F5F5F5F5F5F5F5
310
F5F5F5F5F5F5F5F5F5F5F5F5F5F5F5F5F5F5F5F5F5F5F5F5F5F5F5F5F5F5F5F5F5F5F5F5F5F5F5F5F5F5F5F5F5F5F5F5F5F5F5F5F5F5E2F5F5F5F5F5F5F5F5F5F5F5F5F5F5F5F5E2F5F5F5E2E2EFF5F5F5E2F5F5F5F5F5F5F5F5F5F5F5F5F5F5F5F5E2F5F5F5F5F5F5F5F5F5F5F5F5F5F5F5F5F5F5F5F5F5F5F5F5F5F5F5F5
310
F5F5F5F5F5F5F5F5F5F5F5F5F5F5F5F5F5F5F5F5F5F5F5F5F5F5F5F5F5F5F5F5F5F5F5F5F5F5F5F5F5F5F5F5F5F5F5F5F5F5F5F5F5F5F5F5F5F5F5F5F5F5F5F5F5F5F5F5F5F5F5F5F5F5F5F5F5F5F5F5F5F5F5F5F5F5F5F5F5F5F5F5F5F5F5F5F5F5F5F5F5F5F5F5F5F5F5E2F5F5F5F5F5F5F5F5F5F5F5F5F5F5F5F5E2F5F5
310
F5E2E2EFF5F5F5E2F5F5F5F5F5F5F5F5F5F5F5F5F5F5F5F5E2F5F5F5F5F5F5F5F5F5F5F5F5F5F5F5F5F5F5F5F5F5F5F5F5F5F5F5F5F5F5F5F5F5F5F5F5F5F5F5F5F5F5F5F5F5F5F5F5F5F5F5F5F5F5F5F5F5F5F5F5F5F5F5F5F5F5F5F5F5F5F5F5F5F5F5F5F5F5F5F5F5F5F5F5F5F5F5F5F5F5F5F5F5F5F5F5F5F5F5F5F5F5
310
F5F5F5F5F5F5F5F5F5F5F5F5F5F5F5F5F5F5F5F5F5F5F5F5F5F5F5F5F5F5F5F5F5E2F5F5F5F5F5F5F5F5F5F5F5F5F5F5F5F5E2F5F5F5E2E2EFF5F5F5E2F5F5F5F5F5F5F5F5F5F5F5F5F5F5F5F5E2F5F5F5F5F5F5F5F5F5F5F5F5F5F5F5F5F5F5F5F5F5F5F5F5F5F5F5F5F5F5F5F5F5F5F5F5F5F5F5F5F5F5F5F5F5F5F5F5F5
310
F5F5F5F5F5F5F5F5F5F5F5F5F5F5F5F5F5F5F5F5F5F5F5F5F5F5F5F5F5F5F5F5F5F5F5F5F5F5F5F5F5F5F5F5F5F5F5F5F5F5F5F5F5F5F5F5F5F5F5F5F5F5F5F5F5F5F5F5F5F5F5F5F5F5F5F5F5F5F5F5F5F5F5F5F5F5E2F5F5F5F5F5F5F5F5F5F5F5F5F5F5F5F5E2F5F5F5E2E2EFF5F5F5E2F5F5F5F5F5F5F5F5F5F5F5F5F5
310
F5F5F5E2F5F5F5F5F5F5F5F5F5F5F5F5F5F5F5F5F5F5F5F5F5F5F5F5F5F5F5F5F5F5F5F5F5F5F5F5F5F5F5F5F5F5F5F5F5F5F5F5F5F5F5F5F5F5F5F5F5F5F5F5F5F5F5F5F5F5F5F5F5F5F5F5F5F5F5F5F5F5F5F5F5F5F5F5F5F5F5F5F5F5F5F5F5F5F5F5F5F5F5F5F5F5F5F5F5F5F5F5F5F5F5F5F5F5F5F5F5F5F5F5F5F5F5
310
F5F5F5F5F5F5F5F5F5F5F5F5E2F5F5F5F5F5F5F5F5F5F5F5F5F5F5F5F5E2F5F5F5E2E2EFF5F5F5E2F5F5F5F5F5F5F5F5F5F5F5F5F5F5F5F5E2F5F5F5F5F5F5F5F5F5F5F5F5F5F5F5F5F5F5F5F5F5F5F5F5F5F5F5F5F5F5F5F5F5F5F5F5F5F5F5F5F5F5F5F5F5F5F5F5F5F5F5F5F5F5F5F5F5F5F5F5F5F5F5F5F5F5F5F5F5F5
310
F5F5F5F5F5F5F5F5F5F5F5F5F5F5F5F5F5F5F5F5F5F5F5F5F5F5F5F5F5F5F5F5F5F5F5F5F5F5F5F5F5F5F5F5F5F5F5F5F5F5F5F5F5F5F5F5F5F5F5F5F5F5F5F5F5E2F5F5F5F5F5F5F5F5F5F5F5F5F5F5F5F5E2F5F5F5E2E2EFF5F5F5E2F5F5F5F5F5F5F5F5F5F5F5F5F5F5F5F5E2F5F5F5F5F5F5F5F5F5F5F5F5F5F5F5F5F5
310
F5F5F5F5F5F5F5F5F5F5F5F5F5F5F5F5F5F5F5F5F5F5F5F5F5F5F5F5F5F5F5F5F5F5F5F5F5F5F5F5F5F5F5F5F5F5F5F5F5F5F5F5F5F5F5F5F5F5F5F5F5F5F5F5F5F5F5F5F5F5F5F5F5F5F5F5F5F5F5F5F5F5F5F5F5F5F5F5F5F5F5F5F5F5F5F5F5F5F5F5F5F5F5F5F5F5F5F5F5F5F5F5F5F5F5F5F5F5E2F5F5F5F5F5F5F5F5
310
F5F5F5F5F5F5F5F5E2F5F5F5E2E2EFF5F5F5E2F5F5F5F5F5F5F5F5F5F5F5F5F5F5F5F5E2F5F5F5F5F5F5F5F5F5F5F5F5F5F5F5F5F5F5F5F5F5F5F5F5F5F5F5F5F5F5F5F5F5F5F5F5F5F5F5F5F5F5F5F5F5F5F5F5F5F5F5F5F5F5F5F5F5F5F5F5F5F5F5F5F5F5F5F5F5F5F5F5F5F5F5F5F5F5F5F5F5F5F5F5F5F5F5F5F5F5F5
310
F5F5F5F5F5F5F5F5F5F5F5F5F5F5F5F5F5F5F5F5F5F5F5F5F5F5F5F5F5F5F5F5F5F5F5F5F5F5F5F5F5F5F5F5E2F5F5F5F5F5F5F5F5F5F5F5F5F5F5F5F5E2F5F5F5E2E2EFF5F5F5E2F5F5F5F5F5F5F5F5F5F5F5F5F5F5F5F5E2F5F5F5F5F5F5F5F5F5F5F5F5F5F5F5F5F5F5F5F5F5F5F5F5F5F5F5F5F5F5F5F5F5F5F5F5F5F5
310
F5F5F5F5F5F5F5F5F5F5F5F5F5F5F5F5F5F5F5F5F5F5F5F5F5F5F5F5F5F5F5F5F5F5F5F5F5F5F5F5F5F5F5F5F5F5F5F5F5F5F5F5F5F5F5F5F5F5F5F5F5F5F5F5F5F5F5F5F5F5F5F5F5F5F5F5F5F5F5F5F5F5F5F5F5F5F5F5F5F5F5F5F5F5F5F5F5E2F5F5F5F5F5F5F5F5F5F5F5F5F5F5F5F5E2F5F5F5E2E2EFF5F5F5E2F5F5
310
F5F5F5F5F5F5F5F5F5F5F5F5F5F5E2F5F5F5F5F5F5F5F5F5F5F5F5F5F5F5F5F5F5F5F5F5F5F5F5F5F5F5F5F5F5F5F5F5F5F5F5F5F5F5F5F5F5F5F5F5F5F5F5F5F5F5F5F5F5F5F5F5F5F5F5F5F5F5F5F5F5F5F5F5F5F5F5F5F5F5F5F5F5F5F5F5F5F5F5F5F5F5F5F5F5F5F5F5F5F5F5F5F5F5F5F5F5F5F5F5F5F5F5F5F5F5F5
310
F5F5F5F5F5F5F5F5F5F5F5F5F5F5F5F5F5F5F5F5F5F5F5E2F5F5F5F5F5F5F5F5F5F5F5F5F5F5F5F5E2F5F5F5E2E2EFF5F5F5E2F5F5F5F5F5F5F5F5F5F5F5F5F5F5F5F5E2F5F5F5F5F5F5F5F5F5F5F5F5F5F5F5F5F5F5F5F5F5F5F5F5F5F5F5F5F5F5F5F5F5F5F5F5F5F5F5F5F5F5F5F5F5F5F5F5F5F5F5F5F5F5F5F5F5F5F5
310
F5F5F5F5F5F5F5F5F5F5F5F5F5F5F5F5F5F5F5F5F5F5F5F5F5F5F5F5F5F5F5F5F5F5F5F5F5F5F5F5F5F5F5F5F5F5F5F5F5F5F5F5F5F5F5F5F5F5F5F5F5F5F5F5F5F5F5F5F5F5F5F5F5F5F5F5E2F5F5F5F5F5F5F5F5F5F5F5F5F5F5F5F5E2F5F5F5E2E2EFF5F5F5E2F5F5F5F5F5F5F5F5F5F5F5F5F5F5F5F5E2F5F5F5F5F5F5
310
F5F5F5F5F5F5F5F5F5F5F5F5F5F5F5F5F5F5F5F5F5F5F5F5F5F5F5F5F5F5F5F5F5F5F5F5F5F5F5F5F5F5F5F5F5F5F5F5F5F5F5F5F5F5F5F5F5F5F5F5F5F5F5F5F5F5F5F5F5F5F5F5F5F5F5F5F5F5F5F5F5F5F5F5F5F5F5F5F5F5F5F5F5F5F5F5F5F5F5F5F5F5F5F5F5F5F5F5F5F5F5F5F5F5F5F5F5F5F5F5F5F5F5F5F5F5F5
310
F5F5E2F5F5F5F5F5F5F5F5F5F5F5F5F5F5F5F5E2F5F5F5E2E2EFF5F5F5F5F5F5F5F5F5F5F5F5F5F5F5F5F5F5F5F5E2F5F5F5F5F5F5F5F5F5F5F5F5F5F5F5F5F5F5F5F5F5F5F5F5F5F5F5F5F5F5F5F5F5F5F5F5F5F5F5F5F5F5F5F5F5F5F5F5F5F5F5F5F5F5F5F5F5F5F5F5F5F5F5F5F5F5F5F5F5F5F5F5F5F5F5F5F5F5F5F5
310
F5F5F5F5F5F5F5F5F5F5F5F5F5F5F5F5F5F5F5F5F5F5F5F5F5F5F5F5F5F5F5F5F5F5F5F5F5F5F5F5F5F5F5F5F5F5F5F5F5F5F5F5F5F5F5E2F5F5F5F5F5F5F5F5F5F5F5F5F5F5F5F5F5F5F5F5E2E2EFF5F5F5F5F5F5F5F5F5F5F5F5F5F5F5F5F5F5F5F5E2F5F5F5F5F5F5F5F5F5F5F5F5F5F5F5F5F5F5F5F5F5F5F5F5F5F5F5
310
F5F5F5F5F5F5F5F5F5F5F5F5F5F5F5F5F5F5F5F5F5F5F5F5F5F5F5F5F5F5F5F5F5F5F5F5F5F5F5F5F5F5F5F5F5F5F5F5F5F5F5F5F5F5F5F5F5F5F5F5F5F5F5F5F5F5F5F5F5F5F5F5F5F5F5F5F5F5F5F5F5F5F5F5F5F5F5F5F5F5F5F5F5F5F5F5F5F5F5F5F5F5F5F5F5F5F5F5E2F5F5F5F5F5F5F5F5F5F5F5F5F5F5F5F5F5F5
310
F5F5E2E2EFF5F5F5F5F5F5F5F5F5F5F5F5F5F5F5F5F5F5F5F5E2F5F5F5F5F5F5F5F5F5F5F5F5F5F5F5F5F5F5F5F5F5F5F5F5F5F5F5F5F5F5F5F5F5F5F5F5F5F5F5F5F5F5F5F5F5F5F5F5F5F5F5F5F5F5F5F5F5F5F5F5F5F5F5F5F5F5F5F5F5F5F5F5F5F5F5F5F5F5F5F5F5F5F5F5F5F5F5F5F5F5F5F5F5F5F5F5F5F5F5F5F5
310
F5F5F5F5F5F5F5F5F5F5F5F5F5F5F5F5F5F5F5F5F5F5F5F5F5F5F5F5F5F5F5F5F5F5E2F5F5F5F5F5F5F5F5F5F5F5F5F5F5F5F5F5F5F5F5E2E2EFF5F5F5F5F5F5F5F5F5F5F5F5F5F5F5F5F5F5F5F5E2F5F5F5F5F5F5F5F5F5F5F5F5F5F5F5F5F5F5F5F5F5F5F5F5F5F5F5F5F5F5F5F5F5F5F5F5F5F5F5F5F5F5F5F5F5F5F5F5
310
F5F5F5F5F5F5F5F5F5F5F5F5F5F5F5F5F5F5F5F5F5F5F5F5F5F5F5F5F5F5F5F5F5F5F5F5F5F5F5F5F5F5F5F5F5F5F5F5F5F5F5F5F5F5F5F5F5F5F5F5F5F5F5F5F5F5F5F5F5F5F5F5F5F5F5F5F5F5F5F5F5F5F5F5F5F5F5E2F5F5F5F5F5F5F5F5F5F5F5F5F5F5F5F5F5F5F5F5E2E2EFF5F5F5F5F5F5F5F5F5F5F5F5F5F5F5F5
310
F5F5F5F5E2E2E2E2E2E2E2E2E2E2E2E2E2E2E2E2E2E2E2E2E2E2E2E2E2E2E2E2E2E2E2E2E2E2E2E2E2E2E2E2E2E2E2E2E2E2E2E2E2E2E2E2E2E2E2E2E2E2E2E2E2E2E2E2E2E2E2E2E2E2E2E2E2E2E2E2E2E2E2E2E2E2E2E2E2E2E2E2E2E2E2E2E2E2E2E2E2E2E2E2E2E2E2E2E2E2E2E2E2E2E2E2E2E2E2E2E2E2E2E2E2E2E2
310
E2E2E2E2E2E2E2E2E2E2E2E2E2E2F5F5F5F5F5F5F5F5F5F5F5F5F5F5F5F5F5F5F5F5E2E2EFF5F5F5F5F5F5F5F5F5F5F5F5F5F5F5F5F5F5F5F5F5F5F5F5F5F5F5F5F5F5F5F5F5F5F5F5F5F5F5F5F5F5F5F5F5F5F5F5F5F5F5F5F5F5F5F5F5F5F5F5F5F5F5F5F5F5F5F5F5F5F5F5F5F5F5F5F5F5F5F5F5F5F5F5F5F5F5F5F5F5
310
F5F5F5F5F5F5F5F5F5F5F5F5F5F5F5F5F5F5F5F5F5F5F5F5F5F5F5F5F5F5F5F5F5F5F5F5F5F5F5F5F5F5F5F5F5F5F5F5F5F5F5F5F5F5F5F5F5F5F5F5F5F5F5F5F5F5F5F5F5F5F5F5F5F5F5F5F5F5F5F5F5F5F5F5F5F5F5E2E2EFF5F5F5F5F5F5F5F5F5F5F5F5F5F5F5F5F5F5F5F5F5F5F5F5F5F5F5F5F5F5F5F5F5F5F5F5F5
310
F5F5F5F5F5F5F5F5F5F5F5F5F5F5F5F5F5F5F5F5F5F5F5F5F5F5F5F5F5F5F5F5F5F5F5F5F5F5F5F5F5F5F5F5F5F5F5F5F5F5F5F5F5F5F5F5F5F5F5F5F5F5F5F5F5F5F5F5F5F5F5F5F5F5F5F5F5F5F5F5F5F5F5F5F5F5F5F5F5F5F5F5F5F5F5F5F5F5F5F5F5F5F5F5F5F5F5F5F5F5F5F5F5F5F5F5F5F5F5F5F5F5F5F5F5F5F5
310
F5F5F5F5F5F5F5F5F5F5F5F5F5E2E2EFF5F5F5F5F5F5F5F5F5F5F5F5F5F5F5F5F5F5F5F5F5F5F5F5F5F5F5F5F5F5F5F5F5F5F5F5F5F5F5F5F5F5F5F5F5F5F5F5F5F5F5F5F5F5F5F5F5F5F5F5F5F5F5F5F5F5F5F5F5F5F5F5F5F5F5F5F5F5F5F5F5F5F5F5F5F5F5F5F5F5F5F5F5F5F5F5F5F5F5F5F5F5F5F5F5F5F5F5F5F5F5
310
F5F5F5F5F5F5F5F5F5F5F5F5F5F5F5F5F5F5F5F5F5F5F5F5F5F5F5F5F5F5F5F5F5F5F5F5F5F5F5F5F5F5F5F5F5F5F5F5F5F5F5F5F5F5F5F5F5F5F5F5F5F5F5F5F5F5E2E2EFF5F5F5F5F5F5F5F5F5F5F5F5F5F5F5F5F5F5F5F5F5F5F5F5F5F5F5F5F5F5F5F5F5F5F5F5F5F5F5F5F5F5F5F5F5F5F5F5F5F5F5F5F5F5F5F5F5F5
310
F5F5F5F5F5F5F5F5F5F5F5F5F5F5F5F5F5F5F5F5F5F5F5F5F5F5F5F5F5F5F5F5F5F5F5F5F5F5F5F5F5F5F5F5F5F5F5F5F5F5F5F5F5F5F5F5F5F5F5F5F5F5F5F5F5F5F5F5F5F5F5F5F5F5F5F5F5F5F5F5F5F5F5F5F5F5F5F5F5F5F5F5F5F5F5F5F5F5F5F5F5F5F5F5F5F5F5F5F5F5F5F5F5F5F5F5F5F5F5E2E2EFF5F5F5E2F5
310
F5F5F5F5F5F5F5F5F5F5F5F5F5F5F5F5F5F5F5F5F5F5F5F5F5F5F5F5F5F5F5F5F5F5F5F5F5F5F5F5F5F5F5F5F5F5F5F5F5F5F5F5F5F5F5F5F5F5F5F5F5F5F5F5F5F5F5F5F5F5F5F5F5F5F5F5F5F5F5F5F5F5F5F5F5F5F5F5F5F5F5F5F5F5F5F5F5F5F5F5F5F5F5F5F5F5F5F5F5F5F5F5F5F5F5F5F5F5F5F5F5F5F5F5F5F5F5
310
F5F5F5F5F5F5F5F5F5F5F5F5F5F5F5F5F5F5F5F5F5F5F5F5F5F5F5F5F5F5F5F5F5F5F5F5F5F5F5F5F5E2F5F5F5E2E2EFF5F5F5E2F5F5F5F5F5F5F5F5F5F5F5F5F5F5F5F5F5F5F5F5F5F5F5F5F5F5F5F5F5F5F5F5F5F5F5F5F5F5F5F5F5F5F5F5F5F5F5F5F5F5F5F5F5F5F5F5F5F5F5F5F5F5F5F5F5F5F5F5F5F5F5F5F5F5F5
310
F5F5F5F5F5F5F5F5F5F5F5F5F5F5F5F5F5F5F5F5F5F5F5F5F5F5F5F5F5F5F5F5F5F5F5F5F5F5F5F5F5F5F5F5F5F5F5F5F5F5F5F5F5F5F5F5F5F5F5F5F5F5F5F5F5F5F5F5F5F5F5F5F5F5F5F5F5F5F5F5F5F5F5F5F5F5F5F5F5F5F5F5F5F5E2F5F5F5E2E2EFF5F5F5E2F5F5F5F5F5F5F5F5F5F5F5F5F5F5F5F5F5F5F5F5F5F5
310
F5F5F5F5F5F5F5F5F5F5F5F5F5F5F5F5F5F5F5F5F5F5F5F5F5F5F5F5F5F5F5F5F5F5F5F5F5F5F5F5F5F5F5F5F5F5F5F5F5F5F5F5F5F5F5F5F5F5F5F5F5F5F5F5F5F5F5F5F5F5F5F5F5F5F5F5F5F5F5F5F5F5F5F5F5F5F5F5F5F5F5F5F5F5F5F5F5F5F5F5F5F5F5F5F5F5F5F5F5F5F5F5F5F5F5F5F5F5F5F5F5F5F5F5F5F5F5
310
F5F5F5F5F5F5F5F5F5F5F5F5F5F5F5F5F5F5F5F5E2F5F5F5E2E2EFF5F5F5E2F5F5F5F5F5F5F5F5F5F5F5F5F5F5F5F5F5F5F5F5F5F5F5F5F5F5F5F5F5F5F5F5F5F5F5F5F5F5F5F5F5F5F5F5F5F5F5F5F5F5F5F5F5F5F5F5F5F5F5F5F5F5F5F5F5F5F5F5F5F5F5F5F5F5F5F5F5F5F5F5F5F5F5F5F5F5F5F5F5F5F5F5F5F5F5F5
310
F5F5F5F5F5F5F5F5F5F5F5F5F5F5F5F5F5F5F5F5F5F5F5F5F5F5F5F5F5F5F5F5F5F5F5F5F5F5F5F5F5F5F5F5F5F5F5F5F5F5F5F5F5F5F5F5F5F5F5F5F5F5F5F5F5F5F5F5F5F5F5F5F5E2F5F5F5E2E2EFF5F5F5E2F5F5F5F5F5F5F5F5F5F5F5F5F5F5F5F5F5F5F5F5F5F5F5F5F5F5F5F5F5F5F5F5F5F5F5F5F5F5F5F5F5F5F5
310
F5F5F5F5F5F5F5F5F5F5F5F5F5F5F5F5F5F5F5F5F5F5F5F5F5F5F5F5F5F5F5F5F5F5F5F5F5F5F5F5F5F5F5F5F5F5F5F5F5F5F5F5F5F5F5F5F5F5F5F5F5F5F5F5F5F5F5F5F5F5F5F5F5F5F5F5F5F5F5F5F5F5F5F5F5F5F5F5F5F5F5F5F5F5F5F5F5F5F5F5F5F5F5F5F5F5F5F5F5F5F5F5F5F5F5F5F5F5F5F5F5F5F5F5F5F5E2
310
F5F5F5E2E2EFF5F5F5E2F5F5F5F5F5F5F5F5F5F5F5F5F5F5F5F5F5F5F5F5F5F5F5F5F5F5F5F5F5F5F5F5F5F5F5F5F5F5F5F5F5F5F5F5F5F5F5F5F5F5F5F5F5F5F5F5F5F5F5F5F5F5F5F5F5F5F5F5F5F5F5F5F5F5F5F5F5F5F5F5F5F5F5F5F5F5F5F5F5F5F5F5F5F5F5F5F5F5F5F5F5F5F5F5F5F5F5F5F5F5F5F5F5F5F5F5F5
310
F5F5F5F5F5F5F5F5F5F5F5F5F5F5F5F5F5F5F5F5F5F5F5F5F5F5F5F5F5F5F5F5F5F5F5F5F5F5F5F5F5F5F5F5F5F5F5F5F5F5F5F5E2F5F5F5E2E2EFF5F5F5E2F5F5F5F5F5F5F5F5F5F5F5F5F5F5F5F5F5F5F5F5F5F5F5F5F5F5F5F5F5F5F5F5F5F5F5F5F5F5F5F5F5F5F5F5F5F5F5F5F5F5F5F5F5F5F5F5F5F5F5F5F5F5F5F5
310
F5F5F5F5F5F5F5F5F5F5F5F5F5F5F5F5F5F5F5F5F5F5F5F5F5F5F5F5F5F5F5F5F5F5F5F5F5F5F5F5F5F5F5F5F5F5F5F5F5F5F5F5F5F5F5F5F5F5F5F5F5F5F5F5F5F5F5F5F5F5F5F5F5F5F5F5F5F5F5F5F5F5F5F5F5F5F5F5F5F5F5F5F5F5F5F5F5F5F5F5F5F5F5F5F5E2F5F5F5E2E2EFF5F5F5E2F5F5F5F5F5F5F5F5F5F5F5
310
F5F5F5F5F5F5F5F5F5F5F5F5F5F5F5F5F5F5F5F5F5F5F5F5F5F5F5F5F5F5F5F5F5F5F5F5F5F5F5F5F5F5F5F5F5F5F5F5F5F5F5F5F5F5F5F5F5F5F5F5F5F5F5F5F5F5F5F5F5F5F5F5F5F5F5F5F5F5F5F5F5F5F5F5F5F5F5F5F5F5F5F5F5F5F5F5F5F5F5F5F5F5F5F5F5F5F5F5F5F5F5F5F5F5F5F5F5F5F5F5F5F5F5F5F5F5F5
310
F5F5F5F5F5F5F5F5F5F5F5F5F5F5F5F5F5F5F5F5F5F5F5F5F5F5F5F5F5F5F5E2F5F5F5E2E2EFF5F5F5E2E2E2E2E2E2E2E2F5F5F5F5F5F5F5F5F5E2E2E2E2E2E2E2E2E2E2E2E2E2E2E2E2F5F5F5F5F5F5F5F5E2E2E2E2E2E2E2E2E2E2E2E2E2E2E2E2F5F5F5F5F5F5F5F5F5E2E2E2E2E2E2E2E2E2E2E2E2E2E2E2F5F5F5F5F5
310
F5F5F5F5E2E2E2E2E2E2E2E2E2E2E2E2E2E2E2F5F5F5F5F5F5F5F5F5E2E2E2E2E2E2E2E2E2E2E2E2E2E2E2E2F5F5F5F5F5F5F5F5E2E2E2E2E2E2E2E2E2E2E2E2E2E2E2E2F5F5F5F5F5F5F5F5F5E2E2E2E2E2E2E2E2F5F5F5E2E2EFF5F5F5F5F5F5F5F5F5F5F5F5F5F5F5F5F5F5F5F5F5F5F5F5F5F5F5F5F5F5F5F5F5F5F5F5
310
F5F5F5F5F5F5F5F5F5F5F5F5F5F5F5F5F5F5F5F5F5F5F5F5F5F5F5F5F5F5F5F5F5F5F5F5F5F5F5F5F5F5F5F5F5F5F5F5F5F5F5F5F5F5F5F5F5F5F5F5F5F5F5F5F5F5F5F5F5F5F5F5F5F5F5F5F5F5F5F5F5F5F5F5F5F5F5F5F5F5F5F5F5F5F5F5F5F5F5F5F5F5F5F5F5F5F5F5F5F5F5F5F5F5F5F5F5F5F5F5F5F5F5F5F5F5F5
310
F5F5F5F5F5F5F5F5F5F5F5F5F5F5E2E2EFF5F5F5F5F5F5F5F5F5F5F5F5F5F5F5F5F5F5F5F5F5F5F5F5F5F5F5F5F5F5F5F5F5F5F5F5F5F5F5F5F5F5F5F5F5F5F5F5F5F5F5F5F5F5F5F5F5F5F5F5F5F5F5F5F5F5F5F5F5F5F5F5F5F5F5F5F5F5F5F5F5F5F5F5F5F5F5F5F5F5F5F5F5F5F5F5F5F5F5F5F5F5F5F5F5F5F5F5F5F5
310
F5F5F5F5F5F5F5F5F5F5F5F5F5F5F5F5F5F5F5F5F5F5F5F5F5F5F5F5F5F5F5F5F5F5F5F5F5F5F5F5F5F5F5F5F5F5F5F5F5F5F5F5F5F5F5F5F5F5F5F5F5F5F5F5F5F5F5E2EFEFF5F5F5F5F5F5F5F5F5F5F5F5F5F5F5F5F5F5F5F5F5F5F5F5F5F5F5F5F5F5F5F5F5F5F5F5F5F5F5F5F5F5F5F5F5F5F5F5F5F5F5F5F5F5F5F5F5
310
F5F5F5F5F5F5F5F5F5F5F5F5F5F5F5F5F5F5F5F5F5F5F5F5F5F5F5F5F5F5F5F5F5F5F5F5F5F5F5F5F5F5F5F5F5F5F5F5F5F5F5F5F5F5F5F5F5F5F5F5F5F5F5F5F5F5F5F5F5F5F5F5F5F5F5F5F5F5F5F5F5F5F5F5F5F5F5F5F5F5F5F5F5F5F5F5F5F5F5F5F5F5F5F5F5F5F5F5F5F5F5F5F5F5F5F5F5F5F5F5E2EFEFE2E2E2E2
310
E2E2E2E2E2E2E2E2E2E2E2E2E2E2E2E2E2E2E2E2E2E2E2E2E2E2E2E2E2E2E2E2E2E2E2E2E2E2E2E2E2E2E2E2E2E2E2E2E2E2E2E2E2E2E2E2E2E2E2E2E2E2E2E2E2E2E2E2E2E2E2E2E2E2E2E2E2E2E2E2E2E2E2E2E2E2E2E2E2E2E2E2E2E2E2E2E2E2E2E2E2E2E2E2E2E2E2E2E2E2E2E2E2E2E2E2E2E2E2E2E2E2E2E2E2E2E2
310
E2E2E2E2E2E2E2E2E2E2E2E2E2E2E2E2E2E2E2E2E2E2E2E2E2E2E2E2E2E2E2E2E2E2E2E2E2E2E2E2E2E2E2E2E2E2E2EFEF
  0
ENDSEC
  0
EOF
