  0
SECTION
  2
HEADER
  9
$ACADVER
  1
AC1018
  9
$ACADMAINTVER
 70
     0
  9
$DWGCODEPAGE
  3
ANSI_1252
  9
$AUTHOR
  1
g6edxjah
  9
$LASTSAVEDBY
  1
g6edxjah
  9
$INSBASE
 10
0.0
 20
0.0
 30
0.0
  9
$EXTMIN
 10
0.295073
 20
-12.141333
 30
0.0
  9
$EXTMAX
 10
11.458156
 20
-3.72825
 30
0.0
  9
$LIMMIN
 10
-22.080095
 20
-35.891501
  9
$LIMMAX
 10
33.833324
 20
20.021918
  9
$ORTHOMODE
 70
     0
  9
$REGENMODE
 70
     1
  9
$FILLMODE
 70
     1
  9
$QTEXTMODE
 70
     0
  9
$MIRRTEXT
 70
     0
  9
$LTSCALE
 40
1.0
  9
$ATTMODE
 70
     1
  9
$TEXTSIZE
 40
0.12
  9
$TRACEWID
 40
0.05
  9
$TEXTSTYLE
  7
Standard
  9
$CLAYER
  8
TEXT
  9
$CELTYPE
  6
Continuous
  9
$CECOLOR
 62
     7
  9
$CELTSCALE
 40
1.0
  9
$DISPSILH
 70
     0
  9
$DIMSCALE
 40
1.0
  9
$DIMASZ
 40
0.12
  9
$DIMEXO
 40
0.06
  9
$DIMDLI
 40
0.0
  9
$DIMRND
 40
0.0
  9
$DIMDLE
 40
0.0
  9
$DIMEXE
 40
0.06
  9
$DIMTP
 40
0.0
  9
$DIMTM
 40
0.0
  9
$DIMTXT
 40
0.12
  9
$DIMCEN
 40
0.09
  9
$DIMTSZ
 40
0.0
  9
$DIMTOL
 70
     0
  9
$DIMLIM
 70
     0
  9
$DIMTIH
 70
     0
  9
$DIMTOH
 70
     0
  9
$DIMSE1
 70
     0
  9
$DIMSE2
 70
     0
  9
$DIMTAD
 70
     1
  9
$DIMZIN
 70
    11
  9
$DIMBLK
  1
TerminatorOpen_0.5
  9
$DIMASO
 70
     1
  9
$DIMSHO
 70
     1
  9
$DIMPOST
  1

  9
$DIMAPOST
  1

  9
$DIMALT
 70
     0
  9
$DIMALTD
 70
     4
  9
$DIMALTF
 40
25.4
  9
$DIMLFAC
 40
1.0
  9
$DIMTOFL
 70
     0
  9
$DIMTVP
 40
0.0
  9
$DIMTIX
 70
     0
  9
$DIMSOXD
 70
     0
  9
$DIMSAH
 70
     0
  9
$DIMBLK1
  1

  9
$DIMBLK2
  1

  9
$DIMSTYLE
  2
Standard
  9
$DIMCLRD
 70
     0
  9
$DIMCLRE
 70
     0
  9
$DIMCLRT
 70
     0
  9
$DIMTFAC
 40
1.0
  9
$DIMGAP
 40
0.06
  9
$DIMJUST
 70
     0
  9
$DIMSD1
 70
     0
  9
$DIMSD2
 70
     0
  9
$DIMTOLJ
 70
     0
  9
$DIMTZIN
 70
    11
  9
$DIMALTZ
 70
    15
  9
$DIMALTTZ
 70
    15
  9
$DIMUPT
 70
     0
  9
$DIMDEC
 70
     4
  9
$DIMTDEC
 70
     4
  9
$DIMALTU
 70
     2
  9
$DIMALTTD
 70
     4
  9
$DIMTXSTY
  7
Style-Arial
  9
$DIMAUNIT
 70
     0
  9
$DIMADEC
 70
     4
  9
$DIMALTRND
 40
0.0
  9
$DIMAZIN
 70
     3
  9
$DIMDSEP
 70
    46
  9
$DIMATFIT
 70
     1
  9
$DIMFRAC
 70
     0
  9
$DIMLDRBLK
  1
TerminatorOpen_0.5
  9
$DIMLUNIT
 70
     2
  9
$DIMLWD
 70
    -2
  9
$DIMLWE
 70
    -2
  9
$DIMTMOVE
 70
     0
  9
$LUNITS
 70
     2
  9
$LUPREC
 70
     4
  9
$SKETCHINC
 40
0.1
  9
$FILLETRAD
 40
0.0
  9
$AUNITS
 70
     0
  9
$AUPREC
 70
     4
  9
$MENU
  1
.
  9
$ELEVATION
 40
0.0
  9
$PELEVATION
 40
0.0
  9
$THICKNESS
 40
0.0
  9
$LIMCHECK
 70
     0
  9
$CHAMFERA
 40
0.0
  9
$CHAMFERB
 40
0.0
  9
$CHAMFERC
 40
0.0
  9
$CHAMFERD
 40
0.0
  9
$SKPOLY
 70
     0
  9
$TDCREATE
 40
2455393.42220941
  9
$TDUCREATE
 40
2455393.630542743
  9
$TDUPDATE
 40
2455393.42220941
  9
$TDUUPDATE
 40
2455393.630542743
  9
$TDINDWG
 40
0.0
  9
$TDUSRTIMER
 40
0.0006630093
  9
$USRTIMER
 70
     1
  9
$ANGBASE
 50
0.0
  9
$ANGDIR
 70
     0
  9
$PDMODE
 70
     0
  9
$PDSIZE
 40
0.0
  9
$PLINEWID
 40
0.0
  9
$SPLFRAME
 70
     0
  9
$SPLINETYPE
 70
     6
  9
$SPLINESEGS
 70
     8
  9
$HANDSEED
  5
643
  9
$SURFTAB1
 70
     6
  9
$SURFTAB2
 70
     6
  9
$SURFTYPE
 70
     6
  9
$SURFU
 70
     6
  9
$SURFV
 70
     6
  9
$UCSBASE
  2

  9
$UCSNAME
  2

  9
$UCSORG
 10
0.0
 20
0.0
 30
0.0
  9
$UCSXDIR
 10
1.0
 20
0.0
 30
0.0
  9
$UCSYDIR
 10
0.0
 20
1.0
 30
0.0
  9
$UCSORTHOREF
  2

  9
$UCSORTHOVIEW
 70
     0
  9
$UCSORGTOP
 10
0.0
 20
0.0
 30
0.0
  9
$UCSORGBOTTOM
 10
0.0
 20
0.0
 30
0.0
  9
$UCSORGLEFT
 10
0.0
 20
0.0
 30
0.0
  9
$UCSORGRIGHT
 10
0.0
 20
0.0
 30
0.0
  9
$UCSORGFRONT
 10
0.0
 20
0.0
 30
0.0
  9
$UCSORGBACK
 10
0.0
 20
0.0
 30
0.0
  9
$PUCSBASE
  2

  9
$PUCSNAME
  2

  9
$PUCSORG
 10
0.0
 20
0.0
 30
0.0
  9
$PUCSXDIR
 10
1.0
 20
0.0
 30
0.0
  9
$PUCSYDIR
 10
0.0
 20
1.0
 30
0.0
  9
$PUCSORTHOREF
  2

  9
$PUCSORTHOVIEW
 70
     0
  9
$PUCSORGTOP
 10
0.0
 20
0.0
 30
0.0
  9
$PUCSORGBOTTOM
 10
0.0
 20
0.0
 30
0.0
  9
$PUCSORGLEFT
 10
0.0
 20
0.0
 30
0.0
  9
$PUCSORGRIGHT
 10
0.0
 20
0.0
 30
0.0
  9
$PUCSORGFRONT
 10
0.0
 20
0.0
 30
0.0
  9
$PUCSORGBACK
 10
0.0
 20
0.0
 30
0.0
  9
$USERI1
 70
     0
  9
$USERI2
 70
     0
  9
$USERI3
 70
     0
  9
$USERI4
 70
     0
  9
$USERI5
 70
     0
  9
$USERR1
 40
0.0
  9
$USERR2
 40
0.0
  9
$USERR3
 40
0.0
  9
$USERR4
 40
0.0
  9
$USERR5
 40
0.0
  9
$WORLDVIEW
 70
     1
  9
$SHADEDGE
 70
     3
  9
$SHADEDIF
 70
    70
  9
$TILEMODE
 70
     1
  9
$MAXACTVP
 70
    64
  9
$PINSBASE
 10
0.0
 20
0.0
 30
0.0
  9
$PLIMCHECK
 70
     0
  9
$PEXTMIN
 10
1.049744
 20
0.799667
 30
-0.001526
  9
$PEXTMAX
 10
9.450623
 20
7.200577
 30
0.0
  9
$PLIMMIN
 10
-0.25
 20
-0.25
  9
$PLIMMAX
 10
10.75
 20
8.25
  9
$UNITMODE
 70
     0
  9
$VISRETAIN
 70
     1
  9
$PLINEGEN
 70
     0
  9
$PSLTSCALE
 70
     0
  9
$TREEDEPTH
 70
  3020
  9
$CMLSTYLE
  2
Standard
  9
$CMLJUST
 70
     0
  9
$CMLSCALE
 40
1.0
  9
$PROXYGRAPHICS
 70
     1
  9
$MEASUREMENT
 70
     0
  9
$CELWEIGHT
370
    13
  9
$ENDCAPS
280
     0
  9
$JOINSTYLE
280
     0
  9
$LWDISPLAY
290
     1
  9
$INSUNITS
 70
     2
  9
$HYPERLINKBASE
  1

  9
$STYLESHEET
  1

  9
$XEDIT
290
     1
  9
$CEPSNTYPE
380
     0
  9
$PSTYLEMODE
290
     1
  9
$FINGERPRINTGUID
  2
{02C0BBB5-38A7-4FBF-829E-00875EC88963}
  9
$VERSIONGUID
  2
{82C521FC-BF81-46B3-825E-420B6BD93A99}
  9
$EXTNAMES
290
     1
  9
$PSVPSCALE
 40
0.0
  9
$OLESTARTUP
290
     0
  9
$SORTENTS
280
   127
  9
$INDEXCTL
280
     0
  9
$HIDETEXT
280
     1
  9
$XCLIPFRAME
290
     0
  9
$HALOGAP
280
     0
  9
$OBSCOLOR
 70
   257
  9
$OBSLTYPE
280
     0
  9
$INTERSECTIONDISPLAY
280
     0
  9
$INTERSECTIONCOLOR
 70
   257
  9
$DIMASSOC
280
     1
  9
$PROJECTNAME
  1

  0
ENDSEC
  0
SECTION
  2
CLASSES
  0
CLASS
  1
ACDBDICTIONARYWDFLT
  2
AcDbDictionaryWithDefault
  3
ObjectDBX Classes
 90
        0
 91
        3
280
     0
281
     0
  0
CLASS
  1
SORTENTSTABLE
  2
AcDbSortentsTable
  3
ObjectDBX Classes
 90
        0
 91
        3
280
     0
281
     0
  0
ENDSEC
  0
SECTION
  2
TABLES
  0
TABLE
  2
VPORT
  5
627
330
0
100
AcDbSymbolTable
 70
     4
  0
VPORT
  5
49
330
627
100
AcDbSymbolTableRecord
100
AcDbViewportTableRecord
  2
*ACTIVE
 70
     0
 10
0.0
 20
0.0
 11
1.0
 21
1.0
 12
5.876615
 22
-7.934792
 13
0.0
 23
0.0
 14
0.083333
 24
0.083333
 15
0.083333
 25
0.083333
 16
0.0
 26
0.0
 36
1.0
 17
0.0
 27
0.0
 37
0.0
 40
8.749607
 41
1.884937
 42
50.0
 43
0.0
 44
0.0
 50
0.0
 51
0.0
 71
     0
 72
   100
 73
     1
 74
     2
 75
     0
 76
     0
 77
     0
 78
     1
281
     0
 65
     1
110
0.0
120
0.0
130
0.0
111
1.0
121
0.0
131
0.0
112
0.0
122
1.0
132
0.0
 79
     0
146
0.0
  0
ENDTAB
  0
TABLE
  2
LTYPE
  5
60E
330
0
100
AcDbSymbolTable
 70
     1
  0
LTYPE
  5
60F
330
60E
100
AcDbSymbolTableRecord
100
AcDbLinetypeTableRecord
  2
ByBlock
 70
     0
  3

 72
    65
 73
     0
 40
0.0
  0
LTYPE
  5
610
330
60E
100
AcDbSymbolTableRecord
100
AcDbLinetypeTableRecord
  2
ByLayer
 70
     0
  3

 72
    65
 73
     0
 40
0.0
  0
LTYPE
  5
60D
330
60E
100
AcDbSymbolTableRecord
100
AcDbLinetypeTableRecord
  2
Continuous
 70
     0
  3
Solid line
 72
    65
 73
     0
 40
0.0
  0
ENDTAB
  0
TABLE
  2
LAYER
  5
607
102
{ACAD_XDICTIONARY
360
608
102
}
330
0
100
AcDbSymbolTable
 70
    64
  0
LAYER
  5
606
330
607
100
AcDbSymbolTableRecord
100
AcDbLayerTableRecord
  2
0
 70
     0
 62
     7
  6
Continuous
370
    -3
390
60A
  0
LAYER
  5
7
330
607
100
AcDbSymbolTableRecord
100
AcDbLayerTableRecord
  2
Level 1
 70
     0
 62
     7
  6
Continuous
370
     0
390
60A
  0
LAYER
  5
8
330
607
100
AcDbSymbolTableRecord
100
AcDbLayerTableRecord
  2
2-36G
 70
     0
 62
     7
  6
Continuous
370
     0
390
60A
1001
AcAecLayerStandard
1000

1000
2-36G
  0
LAYER
  5
9
330
607
100
AcDbSymbolTableRecord
100
AcDbLayerTableRecord
  2
BORDER
 70
     0
 62
     7
  6
Continuous
370
     0
390
60A
1001
AcAecLayerStandard
1000

1000
BORDER
  0
LAYER
  5
A
330
607
100
AcDbSymbolTableRecord
100
AcDbLayerTableRecord
  2
DEFPOINTS
 70
     0
 62
     7
  6
Continuous
290
     0
370
     0
390
60A
1001
AcAecLayerStandard
1000

1000
DEFPOINTS
  0
LAYER
  5
B
330
607
100
AcDbSymbolTableRecord
100
AcDbLayerTableRecord
  2
DIM
 70
     0
 62
     7
  6
Continuous
370
     0
390
60A
1001
AcAecLayerStandard
1000

1000
DIM
  0
LAYER
  5
C
330
607
100
AcDbSymbolTableRecord
100
AcDbLayerTableRecord
  2
HATCH
 70
     0
 62
     7
  6
Continuous
370
     0
390
60A
1001
AcAecLayerStandard
1000

1000
HATCH
  0
LAYER
  5
D
330
607
100
AcDbSymbolTableRecord
100
AcDbLayerTableRecord
  2
NOTES
 70
     0
 62
     7
  6
Continuous
370
     0
390
60A
1001
AcAecLayerStandard
1000

1000
NOTES
  0
LAYER
  5
E
330
607
100
AcDbSymbolTableRecord
100
AcDbLayerTableRecord
  2
REF
 70
     0
 62
     7
  6
Continuous
370
     0
390
60A
1001
AcAecLayerStandard
1000

1000
REF
  0
LAYER
  5
F
330
607
100
AcDbSymbolTableRecord
100
AcDbLayerTableRecord
  2
TEXT
 70
     0
 62
     7
  6
Continuous
370
     0
390
60A
1001
AcAecLayerStandard
1000

1000
TEXT
  0
LAYER
  5
10
330
607
100
AcDbSymbolTableRecord
100
AcDbLayerTableRecord
  2
TITLE
 70
     0
 62
     7
  6
Continuous
370
     0
390
60A
1001
AcAecLayerStandard
1000

1000
TITLE
  0
LAYER
  5
11
330
607
100
AcDbSymbolTableRecord
100
AcDbLayerTableRecord
  2
Level 11
 70
     0
 62
     7
  6
Continuous
370
     0
390
60A
  0
LAYER
  5
12
330
607
100
AcDbSymbolTableRecord
100
AcDbLayerTableRecord
  2
Level 12
 70
     0
 62
     7
  6
Continuous
370
     0
390
60A
  0
LAYER
  5
13
330
607
100
AcDbSymbolTableRecord
100
AcDbLayerTableRecord
  2
Level 13
 70
     0
 62
     7
  6
Continuous
370
     0
390
60A
  0
LAYER
  5
14
330
607
100
AcDbSymbolTableRecord
100
AcDbLayerTableRecord
  2
Level 14
 70
     0
 62
     7
  6
Continuous
370
     0
390
60A
  0
LAYER
  5
15
330
607
100
AcDbSymbolTableRecord
100
AcDbLayerTableRecord
  2
Level 15
 70
     0
 62
     7
  6
Continuous
370
     0
390
60A
  0
LAYER
  5
16
330
607
100
AcDbSymbolTableRecord
100
AcDbLayerTableRecord
  2
Level 16
 70
     0
 62
     7
  6
Continuous
370
     0
390
60A
  0
LAYER
  5
17
330
607
100
AcDbSymbolTableRecord
100
AcDbLayerTableRecord
  2
Level 17
 70
     0
 62
     7
  6
Continuous
370
     0
390
60A
  0
LAYER
  5
18
330
607
100
AcDbSymbolTableRecord
100
AcDbLayerTableRecord
  2
Level 18
 70
     0
 62
     7
  6
Continuous
370
     0
390
60A
  0
LAYER
  5
19
330
607
100
AcDbSymbolTableRecord
100
AcDbLayerTableRecord
  2
Level 19
 70
     0
 62
     7
  6
Continuous
370
     0
390
60A
  0
LAYER
  5
1A
330
607
100
AcDbSymbolTableRecord
100
AcDbLayerTableRecord
  2
Level 20
 70
     0
 62
     7
  6
Continuous
370
     0
390
60A
  0
LAYER
  5
1B
330
607
100
AcDbSymbolTableRecord
100
AcDbLayerTableRecord
  2
Level 21
 70
     0
 62
     7
  6
Continuous
370
     0
390
60A
  0
LAYER
  5
1C
330
607
100
AcDbSymbolTableRecord
100
AcDbLayerTableRecord
  2
Level 22
 70
     0
 62
     7
  6
Continuous
370
     0
390
60A
  0
LAYER
  5
1D
330
607
100
AcDbSymbolTableRecord
100
AcDbLayerTableRecord
  2
Level 23
 70
     0
 62
     7
  6
Continuous
370
     0
390
60A
  0
LAYER
  5
1E
330
607
100
AcDbSymbolTableRecord
100
AcDbLayerTableRecord
  2
Level 24
 70
     0
 62
     7
  6
Continuous
370
     0
390
60A
  0
LAYER
  5
1F
330
607
100
AcDbSymbolTableRecord
100
AcDbLayerTableRecord
  2
Level 25
 70
     0
 62
     7
  6
Continuous
370
     0
390
60A
  0
LAYER
  5
20
330
607
100
AcDbSymbolTableRecord
100
AcDbLayerTableRecord
  2
Level 26
 70
     0
 62
     7
  6
Continuous
370
     0
390
60A
  0
LAYER
  5
21
330
607
100
AcDbSymbolTableRecord
100
AcDbLayerTableRecord
  2
Level 27
 70
     0
 62
     7
  6
Continuous
370
     0
390
60A
  0
LAYER
  5
22
330
607
100
AcDbSymbolTableRecord
100
AcDbLayerTableRecord
  2
Level 28
 70
     0
 62
     7
  6
Continuous
370
     0
390
60A
  0
LAYER
  5
23
330
607
100
AcDbSymbolTableRecord
100
AcDbLayerTableRecord
  2
Level 29
 70
     0
 62
     7
  6
Continuous
370
     0
390
60A
  0
LAYER
  5
24
330
607
100
AcDbSymbolTableRecord
100
AcDbLayerTableRecord
  2
Level 30
 70
     0
 62
     7
  6
Continuous
370
     0
390
60A
  0
LAYER
  5
25
330
607
100
AcDbSymbolTableRecord
100
AcDbLayerTableRecord
  2
Level 31
 70
     0
 62
     7
  6
Continuous
370
     0
390
60A
  0
LAYER
  5
26
330
607
100
AcDbSymbolTableRecord
100
AcDbLayerTableRecord
  2
Level 32
 70
     0
 62
     7
  6
Continuous
370
     0
390
60A
  0
LAYER
  5
27
330
607
100
AcDbSymbolTableRecord
100
AcDbLayerTableRecord
  2
Level 33
 70
     0
 62
     7
  6
Continuous
370
     0
390
60A
  0
LAYER
  5
28
330
607
100
AcDbSymbolTableRecord
100
AcDbLayerTableRecord
  2
Level 34
 70
     0
 62
     7
  6
Continuous
370
     0
390
60A
  0
LAYER
  5
29
330
607
100
AcDbSymbolTableRecord
100
AcDbLayerTableRecord
  2
Level 35
 70
     0
 62
     7
  6
Continuous
370
     0
390
60A
  0
LAYER
  5
2A
330
607
100
AcDbSymbolTableRecord
100
AcDbLayerTableRecord
  2
Level 36
 70
     0
 62
     7
  6
Continuous
370
     0
390
60A
  0
LAYER
  5
2B
330
607
100
AcDbSymbolTableRecord
100
AcDbLayerTableRecord
  2
Level 37
 70
     0
 62
     7
  6
Continuous
370
     0
390
60A
  0
LAYER
  5
2C
330
607
100
AcDbSymbolTableRecord
100
AcDbLayerTableRecord
  2
Level 38
 70
     0
 62
     7
  6
Continuous
370
     0
390
60A
  0
LAYER
  5
2D
330
607
100
AcDbSymbolTableRecord
100
AcDbLayerTableRecord
  2
Level 39
 70
     0
 62
     7
  6
Continuous
370
     0
390
60A
  0
LAYER
  5
2E
330
607
100
AcDbSymbolTableRecord
100
AcDbLayerTableRecord
  2
Level 40
 70
     0
 62
     7
  6
Continuous
370
     0
390
60A
  0
LAYER
  5
2F
330
607
100
AcDbSymbolTableRecord
100
AcDbLayerTableRecord
  2
Level 41
 70
     0
 62
     7
  6
Continuous
370
     0
390
60A
  0
LAYER
  5
30
330
607
100
AcDbSymbolTableRecord
100
AcDbLayerTableRecord
  2
Level 42
 70
     0
 62
     7
  6
Continuous
370
     0
390
60A
  0
LAYER
  5
31
330
607
100
AcDbSymbolTableRecord
100
AcDbLayerTableRecord
  2
Level 43
 70
     0
 62
     7
  6
Continuous
370
     0
390
60A
  0
LAYER
  5
32
330
607
100
AcDbSymbolTableRecord
100
AcDbLayerTableRecord
  2
Level 44
 70
     0
 62
     7
  6
Continuous
370
     0
390
60A
  0
LAYER
  5
33
330
607
100
AcDbSymbolTableRecord
100
AcDbLayerTableRecord
  2
Level 45
 70
     0
 62
     7
  6
Continuous
370
     0
390
60A
  0
LAYER
  5
34
330
607
100
AcDbSymbolTableRecord
100
AcDbLayerTableRecord
  2
Level 46
 70
     0
 62
     7
  6
Continuous
370
     0
390
60A
  0
LAYER
  5
35
330
607
100
AcDbSymbolTableRecord
100
AcDbLayerTableRecord
  2
Level 47
 70
     0
 62
     7
  6
Continuous
370
     0
390
60A
  0
LAYER
  5
36
330
607
100
AcDbSymbolTableRecord
100
AcDbLayerTableRecord
  2
Level 48
 70
     0
 62
     7
  6
Continuous
370
     0
390
60A
  0
LAYER
  5
37
330
607
100
AcDbSymbolTableRecord
100
AcDbLayerTableRecord
  2
Level 49
 70
     0
 62
     7
  6
Continuous
370
     0
390
60A
  0
LAYER
  5
38
330
607
100
AcDbSymbolTableRecord
100
AcDbLayerTableRecord
  2
Level 50
 70
     0
 62
     7
  6
Continuous
370
     0
390
60A
  0
LAYER
  5
39
330
607
100
AcDbSymbolTableRecord
100
AcDbLayerTableRecord
  2
Level 51
 70
     0
 62
     7
  6
Continuous
370
     0
390
60A
  0
LAYER
  5
3A
330
607
100
AcDbSymbolTableRecord
100
AcDbLayerTableRecord
  2
Level 52
 70
     0
 62
     7
  6
Continuous
370
     0
390
60A
  0
LAYER
  5
3B
330
607
100
AcDbSymbolTableRecord
100
AcDbLayerTableRecord
  2
Level 53
 70
     0
 62
     7
  6
Continuous
370
     0
390
60A
  0
LAYER
  5
3C
330
607
100
AcDbSymbolTableRecord
100
AcDbLayerTableRecord
  2
Level 54
 70
     0
 62
     7
  6
Continuous
370
     0
390
60A
  0
LAYER
  5
3D
330
607
100
AcDbSymbolTableRecord
100
AcDbLayerTableRecord
  2
Level 55
 70
     0
 62
     7
  6
Continuous
370
     0
390
60A
  0
LAYER
  5
3E
330
607
100
AcDbSymbolTableRecord
100
AcDbLayerTableRecord
  2
Level 56
 70
     0
 62
     7
  6
Continuous
370
     0
390
60A
  0
LAYER
  5
3F
330
607
100
AcDbSymbolTableRecord
100
AcDbLayerTableRecord
  2
Level 57
 70
     0
 62
     7
  6
Continuous
370
     0
390
60A
  0
LAYER
  5
40
330
607
100
AcDbSymbolTableRecord
100
AcDbLayerTableRecord
  2
Level 58
 70
     0
 62
     7
  6
Continuous
370
     0
390
60A
  0
LAYER
  5
41
330
607
100
AcDbSymbolTableRecord
100
AcDbLayerTableRecord
  2
Level 59
 70
     0
 62
     7
  6
Continuous
370
     0
390
60A
  0
LAYER
  5
42
330
607
100
AcDbSymbolTableRecord
100
AcDbLayerTableRecord
  2
Level 60
 70
     0
 62
     7
  6
Continuous
370
     0
390
60A
  0
LAYER
  5
43
330
607
100
AcDbSymbolTableRecord
100
AcDbLayerTableRecord
  2
Level 61
 70
     0
 62
     7
  6
Continuous
370
     0
390
60A
  0
LAYER
  5
44
330
607
100
AcDbSymbolTableRecord
100
AcDbLayerTableRecord
  2
Level 62
 70
     0
 62
     7
  6
Continuous
370
     0
390
60A
  0
LAYER
  5
45
330
607
100
AcDbSymbolTableRecord
100
AcDbLayerTableRecord
  2
_0
 70
     0
 62
     7
  6
Continuous
370
     0
390
60A
1001
AcAecLayerStandard
1000

1000
0
  0
ENDTAB
  0
TABLE
  2
STYLE
  5
612
330
0
100
AcDbSymbolTable
 70
     2
  0
STYLE
  5
611
330
612
100
AcDbSymbolTableRecord
100
AcDbTextStyleTableRecord
  2
Standard
 70
     0
 40
0.0
 41
1.0
 50
0.0
 71
     0
 42
0.12
  3
txt
  4

  0
STYLE
  5
631
330
612
100
AcDbSymbolTableRecord
100
AcDbTextStyleTableRecord
  2
Style-Arial
 70
     0
 40
0.0
 41
1.0
 50
0.0
 71
     0
 42
0.2
  3

  4

1001
ACAD
1000
Arial
1071
       39
  0
ENDTAB
  0
TABLE
  2
VIEW
  5
625
330
0
100
AcDbSymbolTable
 70
     0
  0
ENDTAB
  0
TABLE
  2
UCS
  5
626
330
0
100
AcDbSymbolTable
 70
     0
  0
ENDTAB
  0
TABLE
  2
APPID
  5
624
330
0
100
AcDbSymbolTable
 70
     3
  0
APPID
  5
62C
330
624
100
AcDbSymbolTableRecord
100
AcDbRegAppTableRecord
  2
ACAD
 70
     0
  0
APPID
  5
623
330
624
100
AcDbSymbolTableRecord
100
AcDbRegAppTableRecord
  2
ACAD_PSEXT
 70
     0
  0
APPID
  5
62E
330
624
100
AcDbSymbolTableRecord
100
AcDbRegAppTableRecord
  2
AcAecLayerStandard
 70
     0
  0
ENDTAB
  0
TABLE
  2
DIMSTYLE
  5
614
330
0
100
AcDbSymbolTable
 70
     1
100
AcDbDimStyleTable
  0
DIMSTYLE
105
613
330
614
100
AcDbSymbolTableRecord
100
AcDbDimStyleTableRecord
  2
Standard
 70
     0
340
611
  0
ENDTAB
  0
TABLE
  2
BLOCK_RECORD
  5
617
330
0
100
AcDbSymbolTable
 70
     2
  0
BLOCK_RECORD
  5
618
102
{ACAD_XDICTIONARY
360
63E
102
}
330
617
100
AcDbSymbolTableRecord
100
AcDbBlockTableRecord
  2
*Model_Space
340
61B
  0
BLOCK_RECORD
  5
61D
330
617
100
AcDbSymbolTableRecord
100
AcDbBlockTableRecord
  2
*Paper_Space
340
620
  0
BLOCK_RECORD
  5
632
330
617
100
AcDbSymbolTableRecord
100
AcDbBlockTableRecord
  2
TerminatorOpen_0.5
340
0
  0
BLOCK_RECORD
  5
63B
330
617
100
AcDbSymbolTableRecord
100
AcDbBlockTableRecord
  2
LARROW
340
0
102
{BLKREFS
331
47F
331
48A
331
4A4
331
4AF
331
4CB
331
4D6
331
4E1
331
4EC
331
4F7
331
502
331
50D
331
518
331
523
331
52E
331
539
331
544
331
54F
331
55A
331
565
331
570
331
57B
331
587
331
592
331
59D
331
5A8
102
}
  0
ENDTAB
  0
ENDSEC
  0
SECTION
  2
BLOCKS
  0
BLOCK
  5
619
330
618
100
AcDbEntity
  8
0
100
AcDbBlockBegin
  2
*Model_Space
 70
     0
 71
     0
 10
0.0
 20
0.0
 30
0.0
  3
*Model_Space
  1

  0
ENDBLK
  5
61A
330
618
100
AcDbEntity
  8
0
100
AcDbBlockEnd
  0
BLOCK
  5
61E
330
61D
100
AcDbEntity
 67
     1
  8
0
100
AcDbBlockBegin
  2
*Paper_Space
 70
     0
 71
     0
 10
0.0
 20
0.0
 30
0.0
  3
*Paper_Space
  1

  0
ENDBLK
  5
61F
330
61D
100
AcDbEntity
 67
     1
  8
0
100
AcDbBlockEnd
  0
BLOCK
  5
636
330
632
100
AcDbEntity
  8
0
100
AcDbBlockBegin
  2
TerminatorOpen_0.5
 70
     0
 71
     0
 10
0.0
 20
0.0
 30
0.0
  3
TerminatorOpen_0.5
  1

  0
LINE
  5
633
330
632
100
AcDbEntity
  8
0
  6
ByBlock
 62
     0
370
    -2
100
AcDbLine
 10
0.0
 20
0.0
 30
0.0
 11
-1.0
 21
0.0
 31
0.0
  0
LINE
  5
634
330
632
100
AcDbEntity
  8
0
  6
ByBlock
 62
     0
370
    -2
100
AcDbLine
 10
0.0
 20
0.0
 30
0.0
 11
-1.0
 21
0.25
 31
0.0
  0
LINE
  5
635
330
632
100
AcDbEntity
  8
0
  6
ByBlock
 62
     0
370
    -2
100
AcDbLine
 10
0.0
 20
0.0
 30
0.0
 11
-1.0
 21
-0.25
 31
0.0
  0
ENDBLK
  5
637
330
632
100
AcDbEntity
  8
0
100
AcDbBlockEnd
  0
BLOCK
  5
63C
330
63B
100
AcDbEntity
  8
0
100
AcDbBlockBegin
  2
LARROW
 70
     0
 71
     0
 10
0.0
 20
0.0
 30
0.0
  3
LARROW
  1

  0
LINE
  5
480
330
63B
100
AcDbEntity
  8
TEXT
  6
Continuous
 62
     7
370
    13
100
AcDbLine
 10
0.0
 20
0.0
 30
0.0
 11
-0.013031
 21
0.001885
 31
0.0
  0
LINE
  5
481
330
63B
100
AcDbEntity
  8
TEXT
  6
Continuous
 62
     7
370
    13
100
AcDbLine
 10
0.0
 20
0.0
 30
0.0
 11
-0.013021
 21
-0.001885
 31
0.0
  0
LWPOLYLINE
  5
482
330
63B
100
AcDbEntity
  8
TEXT
  6
Continuous
 62
     7
370
    13
100
AcDbPolyline
 90
        9
 70
   128
 43
0.0
 10
-0.013031
 20
0.001885
 10
-0.01225
 20
0.001292
 10
-0.011896
 20
0.000812
 10
-0.011719
 20
0.000365
 10
-0.011687
 20
-0.000052
 10
-0.01175
 20
-0.000458
 10
-0.011958
 20
-0.000896
 10
-0.012323
 20
-0.001354
 10
-0.013021
 20
-0.001885
  0
LINE
  5
483
330
63B
100
AcDbEntity
  8
TEXT
  6
Continuous
 62
     7
370
    13
100
AcDbLine
 10
0.0
 20
0.0
 30
0.0
 11
-0.01225
 21
0.001292
 31
0.0
  0
LINE
  5
484
330
63B
100
AcDbEntity
  8
TEXT
  6
Continuous
 62
     7
370
    13
100
AcDbLine
 10
0.0
 20
0.0
 30
0.0
 11
-0.011896
 21
0.000812
 31
0.0
  0
LINE
  5
485
330
63B
100
AcDbEntity
  8
TEXT
  6
Continuous
 62
     7
370
    13
100
AcDbLine
 10
0.0
 20
0.0
 30
0.0
 11
-0.011719
 21
0.000365
 31
0.0
  0
LINE
  5
486
330
63B
100
AcDbEntity
  8
TEXT
  6
Continuous
 62
     7
370
    13
100
AcDbLine
 10
0.0
 20
0.0
 30
0.0
 11
-0.01175
 21
-0.000458
 31
0.0
  0
LINE
  5
487
330
63B
100
AcDbEntity
  8
TEXT
  6
Continuous
 62
     7
370
    13
100
AcDbLine
 10
0.0
 20
0.0
 30
0.0
 11
-0.011958
 21
-0.000896
 31
0.0
  0
LINE
  5
488
330
63B
100
AcDbEntity
  8
TEXT
  6
Continuous
 62
     7
370
    13
100
AcDbLine
 10
0.0
 20
0.0
 30
0.0
 11
-0.012323
 21
-0.001354
 31
0.0
  0
LINE
  5
489
330
63B
100
AcDbEntity
  8
TEXT
  6
Continuous
 62
     7
370
    13
100
AcDbLine
 10
0.0
 20
0.0
 30
0.0
 11
-0.011677
 21
0.0
 31
0.0
  0
ENDBLK
  5
63D
330
63B
100
AcDbEntity
  8
0
100
AcDbBlockEnd
  0
ENDSEC
  0
SECTION
  2
ENTITIES
  0
POINT
  5
5B
330
618
100
AcDbEntity
  8
_0
  6
Continuous
 62
     7
370
    30
100
AcDbPoint
 10
1.363521
 20
-4.309792
 30
0.0
  0
LINE
  5
5C
330
618
100
AcDbEntity
  8
BORDER
  6
Continuous
 62
     7
370
    30
100
AcDbLine
 10
1.363521
 20
-11.559792
 30
0.0
 11
1.363521
 21
-4.309792
 31
0.0
  0
LINE
  5
5D
330
618
100
AcDbEntity
  8
_0
  6
Continuous
 62
     7
370
    30
100
AcDbLine
 10
5.360833
 20
-6.107448
 30
0.0
 11
5.349
 21
-6.119271
 31
0.0
  0
LINE
  5
5E
330
618
100
AcDbEntity
  8
_0
  6
Continuous
 62
     7
370
    30
100
AcDbLine
 10
5.261927
 20
-6.206354
 30
0.0
 11
5.211156
 21
-6.257125
 31
0.0
  0
LINE
  5
5F
330
618
100
AcDbEntity
  8
_0
  6
Continuous
 62
     7
370
    30
100
AcDbLine
 10
5.326688
 20
-6.141594
 30
0.0
 11
5.297417
 21
-6.170854
 31
0.0
  0
LINE
  5
60
330
618
100
AcDbEntity
  8
_0
  6
Continuous
 62
     7
370
    30
100
AcDbLine
 10
5.360833
 20
-6.110979
 30
0.0
 11
5.352542
 21
-6.119271
 31
0.0
  0
LINE
  5
61
330
618
100
AcDbEntity
  8
_0
  6
Continuous
 62
     7
370
    30
100
AcDbLine
 10
5.265458
 20
-6.206354
 30
0.0
 11
5.214698
 21
-6.257125
 31
0.0
  0
LINE
  5
62
330
618
100
AcDbEntity
  8
_0
  6
Continuous
 62
     7
370
    30
100
AcDbLine
 10
5.326688
 20
-6.145125
 30
0.0
 11
5.297417
 21
-6.174396
 31
0.0
  0
LINE
  5
63
330
618
100
AcDbEntity
  8
_0
  6
Continuous
 62
     7
370
    30
100
AcDbLine
 10
5.360833
 20
-6.114521
 30
0.0
 11
5.356073
 21
-6.119271
 31
0.0
  0
LINE
  5
64
330
618
100
AcDbEntity
  8
_0
  6
Continuous
 62
     7
370
    30
100
AcDbLine
 10
5.269
 20
-6.206354
 30
0.0
 11
5.218229
 21
-6.257125
 31
0.0
  0
LINE
  5
65
330
618
100
AcDbEntity
  8
_0
  6
Continuous
 62
     7
370
    30
100
AcDbLine
 10
5.326688
 20
-6.148667
 30
0.0
 11
5.297417
 21
-6.177927
 31
0.0
  0
LINE
  5
66
330
618
100
AcDbEntity
  8
_0
  6
Continuous
 62
     7
370
    30
100
AcDbLine
 10
5.360833
 20
-6.118052
 30
0.0
 11
5.359615
 21
-6.119271
 31
0.0
  0
LINE
  5
67
330
618
100
AcDbEntity
  8
_0
  6
Continuous
 62
     7
370
    30
100
AcDbLine
 10
5.272531
 20
-6.206354
 30
0.0
 11
5.221771
 21
-6.257125
 31
0.0
  0
LINE
  5
68
330
618
100
AcDbEntity
  8
_0
  6
Continuous
 62
     7
370
    30
100
AcDbLine
 10
5.326688
 20
-6.152198
 30
0.0
 11
5.297417
 21
-6.181469
 31
0.0
  0
LINE
  5
69
330
618
100
AcDbEntity
  8
_0
  6
Continuous
 62
     7
370
    30
100
AcDbLine
 10
5.326688
 20
-6.155729
 30
0.0
 11
5.297417
 21
-6.185
 31
0.0
  0
LINE
  5
6A
330
618
100
AcDbEntity
  8
_0
  6
Continuous
 62
     7
370
    30
100
AcDbLine
 10
5.276073
 20
-6.206354
 30
0.0
 11
5.225302
 21
-6.257125
 31
0.0
  0
LINE
  5
6B
330
618
100
AcDbEntity
  8
_0
  6
Continuous
 62
     7
370
    30
100
AcDbLine
 10
5.326688
 20
-6.159271
 30
0.0
 11
5.297417
 21
-6.188542
 31
0.0
  0
LINE
  5
6C
330
618
100
AcDbEntity
  8
_0
  6
Continuous
 62
     7
370
    30
100
AcDbLine
 10
5.279604
 20
-6.206354
 30
0.0
 11
5.228833
 21
-6.257125
 31
0.0
  0
LINE
  5
6D
330
618
100
AcDbEntity
  8
_0
  6
Continuous
 62
     7
370
    30
100
AcDbLine
 10
5.326688
 20
-6.162802
 30
0.0
 11
5.297417
 21
-6.192073
 31
0.0
  0
LINE
  5
6E
330
618
100
AcDbEntity
  8
_0
  6
Continuous
 62
     7
370
    30
100
AcDbLine
 10
5.283135
 20
-6.206354
 30
0.0
 11
5.232375
 21
-6.257125
 31
0.0
  0
LINE
  5
6F
330
618
100
AcDbEntity
  8
_0
  6
Continuous
 62
     7
370
    30
100
AcDbLine
 10
5.326688
 20
-6.166344
 30
0.0
 11
5.297417
 21
-6.195604
 31
0.0
  0
LINE
  5
70
330
618
100
AcDbEntity
  8
_0
  6
Continuous
 62
     7
370
    30
100
AcDbLine
 10
5.286677
 20
-6.206354
 30
0.0
 11
5.235906
 21
-6.257125
 31
0.0
  0
LINE
  5
71
330
618
100
AcDbEntity
  8
_0
  6
Continuous
 62
     7
370
    30
100
AcDbLine
 10
5.326688
 20
-6.169875
 30
0.0
 11
5.297417
 21
-6.199146
 31
0.0
  0
LINE
  5
72
330
618
100
AcDbEntity
  8
_0
  6
Continuous
 62
     7
370
    30
100
AcDbLine
 10
5.290208
 20
-6.206354
 30
0.0
 11
5.239448
 21
-6.257125
 31
0.0
  0
LINE
  5
73
330
618
100
AcDbEntity
  8
_0
  6
Continuous
 62
     7
370
    30
100
AcDbLine
 10
5.326688
 20
-6.173417
 30
0.0
 11
5.297417
 21
-6.202677
 31
0.0
  0
LINE
  5
74
330
618
100
AcDbEntity
  8
_0
  6
Continuous
 62
     7
370
    30
100
AcDbLine
 10
5.29375
 20
-6.206354
 30
0.0
 11
5.242979
 21
-6.257125
 31
0.0
  0
LINE
  5
75
330
618
100
AcDbEntity
  8
_0
  6
Continuous
 62
     7
370
    30
100
AcDbLine
 10
5.326688
 20
-6.176948
 30
0.0
 11
5.297417
 21
-6.206219
 31
0.0
  0
LINE
  5
76
330
618
100
AcDbEntity
  8
_0
  6
Continuous
 62
     7
370
    30
100
AcDbLine
 10
5.297281
 20
-6.206354
 30
0.0
 11
5.24651
 21
-6.257125
 31
0.0
  0
LINE
  5
77
330
618
100
AcDbEntity
  8
_0
  6
Continuous
 62
     7
370
    30
100
AcDbLine
 10
5.326688
 20
-6.180479
 30
0.0
 11
5.250052
 21
-6.257125
 31
0.0
  0
LINE
  5
78
330
618
100
AcDbEntity
  8
_0
  6
Continuous
 62
     7
370
    30
100
AcDbLine
 10
5.326688
 20
-6.184021
 30
0.0
 11
5.253583
 21
-6.257125
 31
0.0
  0
LINE
  5
79
330
618
100
AcDbEntity
  8
_0
  6
Continuous
 62
     7
370
    30
100
AcDbLine
 10
5.326688
 20
-6.187552
 30
0.0
 11
5.257125
 21
-6.257125
 31
0.0
  0
LINE
  5
7A
330
618
100
AcDbEntity
  8
_0
  6
Continuous
 62
     7
370
    30
100
AcDbLine
 10
5.326688
 20
-6.191094
 30
0.0
 11
5.260656
 21
-6.257125
 31
0.0
  0
LINE
  5
7B
330
618
100
AcDbEntity
  8
_0
  6
Continuous
 62
     7
370
    30
100
AcDbLine
 10
5.326688
 20
-6.194625
 30
0.0
 11
5.264198
 21
-6.257125
 31
0.0
  0
LINE
  5
7C
330
618
100
AcDbEntity
  8
_0
  6
Continuous
 62
     7
370
    30
100
AcDbLine
 10
5.326688
 20
-6.198156
 30
0.0
 11
5.267729
 21
-6.257125
 31
0.0
  0
LINE
  5
7D
330
618
100
AcDbEntity
  8
_0
  6
Continuous
 62
     7
370
    30
100
AcDbLine
 10
5.326688
 20
-6.201698
 30
0.0
 11
5.27126
 21
-6.257125
 31
0.0
  0
LINE
  5
7E
330
618
100
AcDbEntity
  8
_0
  6
Continuous
 62
     7
370
    30
100
AcDbLine
 10
5.326688
 20
-6.205229
 30
0.0
 11
5.274802
 21
-6.257125
 31
0.0
  0
LINE
  5
7F
330
618
100
AcDbEntity
  8
_0
  6
Continuous
 62
     7
370
    30
100
AcDbLine
 10
5.329104
 20
-6.206354
 30
0.0
 11
5.278333
 21
-6.257125
 31
0.0
  0
LINE
  5
80
330
618
100
AcDbEntity
  8
_0
  6
Continuous
 62
     7
370
    30
100
AcDbLine
 10
5.332635
 20
-6.206354
 30
0.0
 11
5.281875
 21
-6.257125
 31
0.0
  0
LINE
  5
81
330
618
100
AcDbEntity
  8
_0
  6
Continuous
 62
     7
370
    30
100
AcDbLine
 10
5.336177
 20
-6.206354
 30
0.0
 11
5.285406
 21
-6.257125
 31
0.0
  0
LINE
  5
82
330
618
100
AcDbEntity
  8
_0
  6
Continuous
 62
     7
370
    30
100
AcDbLine
 10
5.339708
 20
-6.206354
 30
0.0
 11
5.288937
 21
-6.257125
 31
0.0
  0
LINE
  5
83
330
618
100
AcDbEntity
  8
_0
  6
Continuous
 62
     7
370
    30
100
AcDbLine
 10
5.34324
 20
-6.206354
 30
0.0
 11
5.292479
 21
-6.257125
 31
0.0
  0
LINE
  5
84
330
618
100
AcDbEntity
  8
_0
  6
Continuous
 62
     7
370
    30
100
AcDbLine
 10
5.346781
 20
-6.206354
 30
0.0
 11
5.29601
 21
-6.257125
 31
0.0
  0
LINE
  5
85
330
618
100
AcDbEntity
  8
_0
  6
Continuous
 62
     7
370
    30
100
AcDbLine
 10
5.350313
 20
-6.206354
 30
0.0
 11
5.299552
 21
-6.257125
 31
0.0
  0
LINE
  5
86
330
618
100
AcDbEntity
  8
_0
  6
Continuous
 62
     7
370
    30
100
AcDbLine
 10
5.353854
 20
-6.206354
 30
0.0
 11
5.303083
 21
-6.257125
 31
0.0
  0
LINE
  5
87
330
618
100
AcDbEntity
  8
_0
  6
Continuous
 62
     7
370
    30
100
AcDbLine
 10
5.357385
 20
-6.206354
 30
0.0
 11
5.306615
 21
-6.257125
 31
0.0
  0
LINE
  5
88
330
618
100
AcDbEntity
  8
_0
  6
Continuous
 62
     7
370
    30
100
AcDbLine
 10
5.360917
 20
-6.206354
 30
0.0
 11
5.310156
 21
-6.257125
 31
0.0
  0
LINE
  5
89
330
618
100
AcDbEntity
  8
_0
  6
Continuous
 62
     7
370
    30
100
AcDbLine
 10
5.364458
 20
-6.206354
 30
0.0
 11
5.313687
 21
-6.257125
 31
0.0
  0
LINE
  5
8A
330
618
100
AcDbEntity
  8
_0
  6
Continuous
 62
     7
370
    30
100
AcDbLine
 10
5.36799
 20
-6.206354
 30
0.0
 11
5.317229
 21
-6.257125
 31
0.0
  0
LINE
  5
8B
330
618
100
AcDbEntity
  8
_0
  6
Continuous
 62
     7
370
    30
100
AcDbLine
 10
5.371094
 20
-6.206792
 30
0.0
 11
5.32076
 21
-6.257125
 31
0.0
  0
LINE
  5
8C
330
618
100
AcDbEntity
  8
_0
  6
Continuous
 62
     7
370
    30
100
AcDbLine
 10
5.373687
 20
-6.207729
 30
0.0
 11
5.324302
 21
-6.257125
 31
0.0
  0
LINE
  5
8D
330
618
100
AcDbEntity
  8
_0
  6
Continuous
 62
     7
370
    30
100
AcDbLine
 10
5.376292
 20
-6.208667
 30
0.0
 11
5.327833
 21
-6.257125
 31
0.0
  0
LINE
  5
8E
330
618
100
AcDbEntity
  8
_0
  6
Continuous
 62
     7
370
    30
100
AcDbLine
 10
5.378885
 20
-6.209604
 30
0.0
 11
5.331365
 21
-6.257125
 31
0.0
  0
LINE
  5
8F
330
618
100
AcDbEntity
  8
_0
  6
Continuous
 62
     7
370
    30
100
AcDbLine
 10
5.381479
 20
-6.210542
 30
0.0
 11
5.334906
 21
-6.257125
 31
0.0
  0
LINE
  5
90
330
618
100
AcDbEntity
  8
_0
  6
Continuous
 62
     7
370
    30
100
AcDbLine
 10
5.384083
 20
-6.211479
 30
0.0
 11
5.338437
 21
-6.257125
 31
0.0
  0
LINE
  5
91
330
618
100
AcDbEntity
  8
_0
  6
Continuous
 62
     7
370
    30
100
AcDbLine
 10
5.386677
 20
-6.212417
 30
0.0
 11
5.341979
 21
-6.257125
 31
0.0
  0
LINE
  5
92
330
618
100
AcDbEntity
  8
_0
  6
Continuous
 62
     7
370
    30
100
AcDbLine
 10
5.389271
 20
-6.213354
 30
0.0
 11
5.34551
 21
-6.257125
 31
0.0
  0
LINE
  5
93
330
618
100
AcDbEntity
  8
_0
  6
Continuous
 62
     7
370
    30
100
AcDbLine
 10
5.391875
 20
-6.214292
 30
0.0
 11
5.349042
 21
-6.257125
 31
0.0
  0
LINE
  5
94
330
618
100
AcDbEntity
  8
_0
  6
Continuous
 62
     7
370
    30
100
AcDbLine
 10
5.394469
 20
-6.215229
 30
0.0
 11
5.352583
 21
-6.257125
 31
0.0
  0
LINE
  5
95
330
618
100
AcDbEntity
  8
_0
  6
Continuous
 62
     7
370
    30
100
AcDbLine
 10
5.397062
 20
-6.216167
 30
0.0
 11
5.356115
 21
-6.257125
 31
0.0
  0
LINE
  5
96
330
618
100
AcDbEntity
  8
_0
  6
Continuous
 62
     7
370
    30
100
AcDbLine
 10
5.399667
 20
-6.217115
 30
0.0
 11
5.359656
 21
-6.257125
 31
0.0
  0
LINE
  5
97
330
618
100
AcDbEntity
  8
_0
  6
Continuous
 62
     7
370
    30
100
AcDbLine
 10
5.40226
 20
-6.218052
 30
0.0
 11
5.363187
 21
-6.257125
 31
0.0
  0
LINE
  5
98
330
618
100
AcDbEntity
  8
_0
  6
Continuous
 62
     7
370
    30
100
AcDbLine
 10
5.404854
 20
-6.21899
 30
0.0
 11
5.366719
 21
-6.257125
 31
0.0
  0
LINE
  5
99
330
618
100
AcDbEntity
  8
_0
  6
Continuous
 62
     7
370
    30
100
AcDbLine
 10
5.407458
 20
-6.219927
 30
0.0
 11
5.37026
 21
-6.257125
 31
0.0
  0
LINE
  5
9A
330
618
100
AcDbEntity
  8
_0
  6
Continuous
 62
     7
370
    30
100
AcDbLine
 10
5.410052
 20
-6.220865
 30
0.0
 11
5.373792
 21
-6.257125
 31
0.0
  0
LINE
  5
9B
330
618
100
AcDbEntity
  8
_0
  6
Continuous
 62
     7
370
    30
100
AcDbLine
 10
5.412646
 20
-6.221802
 30
0.0
 11
5.377333
 21
-6.257125
 31
0.0
  0
LINE
  5
9C
330
618
100
AcDbEntity
  8
_0
  6
Continuous
 62
     7
370
    30
100
AcDbLine
 10
5.41525
 20
-6.22274
 30
0.0
 11
5.380865
 21
-6.257125
 31
0.0
  0
LINE
  5
9D
330
618
100
AcDbEntity
  8
_0
  6
Continuous
 62
     7
370
    30
100
AcDbLine
 10
5.417844
 20
-6.223677
 30
0.0
 11
5.384406
 21
-6.257125
 31
0.0
  0
LINE
  5
9E
330
618
100
AcDbEntity
  8
_0
  6
Continuous
 62
     7
370
    30
100
AcDbLine
 10
5.420438
 20
-6.224615
 30
0.0
 11
5.387937
 21
-6.257125
 31
0.0
  0
LINE
  5
9F
330
618
100
AcDbEntity
  8
_0
  6
Continuous
 62
     7
370
    30
100
AcDbLine
 10
5.423042
 20
-6.225552
 30
0.0
 11
5.391469
 21
-6.257125
 31
0.0
  0
LINE
  5
A0
330
618
100
AcDbEntity
  8
_0
  6
Continuous
 62
     7
370
    30
100
AcDbLine
 10
5.425635
 20
-6.22649
 30
0.0
 11
5.39501
 21
-6.257125
 31
0.0
  0
LINE
  5
A1
330
618
100
AcDbEntity
  8
_0
  6
Continuous
 62
     7
370
    30
100
AcDbLine
 10
5.428229
 20
-6.227427
 30
0.0
 11
5.398542
 21
-6.257125
 31
0.0
  0
LINE
  5
A2
330
618
100
AcDbEntity
  8
_0
  6
Continuous
 62
     7
370
    30
100
AcDbLine
 10
5.430833
 20
-6.228375
 30
0.0
 11
5.402083
 21
-6.257125
 31
0.0
  0
LINE
  5
A3
330
618
100
AcDbEntity
  8
_0
  6
Continuous
 62
     7
370
    30
100
AcDbLine
 10
5.433427
 20
-6.229312
 30
0.0
 11
5.405615
 21
-6.257125
 31
0.0
  0
LINE
  5
A4
330
618
100
AcDbEntity
  8
_0
  6
Continuous
 62
     7
370
    30
100
AcDbLine
 10
5.436021
 20
-6.23025
 30
0.0
 11
5.409146
 21
-6.257125
 31
0.0
  0
LINE
  5
A5
330
618
100
AcDbEntity
  8
_0
  6
Continuous
 62
     7
370
    30
100
AcDbLine
 10
5.438625
 20
-6.231187
 30
0.0
 11
5.412687
 21
-6.257125
 31
0.0
  0
LINE
  5
A6
330
618
100
AcDbEntity
  8
_0
  6
Continuous
 62
     7
370
    30
100
AcDbLine
 10
5.441219
 20
-6.232125
 30
0.0
 11
5.416219
 21
-6.257125
 31
0.0
  0
LINE
  5
A7
330
618
100
AcDbEntity
  8
_0
  6
Continuous
 62
     7
370
    30
100
AcDbLine
 10
5.443812
 20
-6.233062
 30
0.0
 11
5.41976
 21
-6.257125
 31
0.0
  0
LINE
  5
A8
330
618
100
AcDbEntity
  8
_0
  6
Continuous
 62
     7
370
    30
100
AcDbLine
 10
5.446417
 20
-6.234
 30
0.0
 11
5.423292
 21
-6.257125
 31
0.0
  0
LINE
  5
A9
330
618
100
AcDbEntity
  8
_0
  6
Continuous
 62
     7
370
    30
100
AcDbLine
 10
5.44901
 20
-6.234938
 30
0.0
 11
5.426823
 21
-6.257125
 31
0.0
  0
LINE
  5
AA
330
618
100
AcDbEntity
  8
_0
  6
Continuous
 62
     7
370
    30
100
AcDbLine
 10
5.451604
 20
-6.235875
 30
0.0
 11
5.430365
 21
-6.257125
 31
0.0
  0
LINE
  5
AB
330
618
100
AcDbEntity
  8
_0
  6
Continuous
 62
     7
370
    30
100
AcDbLine
 10
5.454208
 20
-6.236813
 30
0.0
 11
5.433896
 21
-6.257125
 31
0.0
  0
LINE
  5
AC
330
618
100
AcDbEntity
  8
_0
  6
Continuous
 62
     7
370
    30
100
AcDbLine
 10
5.456802
 20
-6.23775
 30
0.0
 11
5.437437
 21
-6.257125
 31
0.0
  0
LINE
  5
AD
330
618
100
AcDbEntity
  8
_0
  6
Continuous
 62
     7
370
    30
100
AcDbLine
 10
5.459396
 20
-6.238688
 30
0.0
 11
5.440969
 21
-6.257125
 31
0.0
  0
LINE
  5
AE
330
618
100
AcDbEntity
  8
_0
  6
Continuous
 62
     7
370
    30
100
AcDbLine
 10
5.462
 20
-6.239625
 30
0.0
 11
5.4445
 21
-6.257125
 31
0.0
  0
LINE
  5
AF
330
618
100
AcDbEntity
  8
_0
  6
Continuous
 62
     7
370
    30
100
AcDbLine
 10
5.464594
 20
-6.240573
 30
0.0
 11
5.448042
 21
-6.257125
 31
0.0
  0
LINE
  5
B0
330
618
100
AcDbEntity
  8
_0
  6
Continuous
 62
     7
370
    30
100
AcDbLine
 10
5.467187
 20
-6.24151
 30
0.0
 11
5.451573
 21
-6.257125
 31
0.0
  0
LINE
  5
B1
330
618
100
AcDbEntity
  8
_0
  6
Continuous
 62
     7
370
    30
100
AcDbLine
 10
5.469792
 20
-6.242448
 30
0.0
 11
5.455115
 21
-6.257125
 31
0.0
  0
LINE
  5
B2
330
618
100
AcDbEntity
  8
_0
  6
Continuous
 62
     7
370
    30
100
AcDbLine
 10
5.472385
 20
-6.243385
 30
0.0
 11
5.458646
 21
-6.257125
 31
0.0
  0
LINE
  5
B3
330
618
100
AcDbEntity
  8
_0
  6
Continuous
 62
     7
370
    30
100
AcDbLine
 10
5.474979
 20
-6.244323
 30
0.0
 11
5.462187
 21
-6.257125
 31
0.0
  0
LINE
  5
B4
330
618
100
AcDbEntity
  8
_0
  6
Continuous
 62
     7
370
    30
100
AcDbLine
 10
5.477583
 20
-6.24526
 30
0.0
 11
5.465719
 21
-6.257125
 31
0.0
  0
LINE
  5
B5
330
618
100
AcDbEntity
  8
_0
  6
Continuous
 62
     7
370
    30
100
AcDbLine
 10
5.480177
 20
-6.246198
 30
0.0
 11
5.46925
 21
-6.257125
 31
0.0
  0
LINE
  5
B6
330
618
100
AcDbEntity
  8
_0
  6
Continuous
 62
     7
370
    30
100
AcDbLine
 10
5.482771
 20
-6.247135
 30
0.0
 11
5.472792
 21
-6.257125
 31
0.0
  0
LINE
  5
B7
330
618
100
AcDbEntity
  8
_0
  6
Continuous
 62
     7
370
    30
100
AcDbLine
 10
5.485375
 20
-6.248073
 30
0.0
 11
5.476323
 21
-6.257125
 31
0.0
  0
LINE
  5
B8
330
618
100
AcDbEntity
  8
_0
  6
Continuous
 62
     7
370
    30
100
AcDbLine
 10
5.487969
 20
-6.24901
 30
0.0
 11
5.479865
 21
-6.257125
 31
0.0
  0
LINE
  5
B9
330
618
100
AcDbEntity
  8
_0
  6
Continuous
 62
     7
370
    30
100
AcDbLine
 10
5.490563
 20
-6.249948
 30
0.0
 11
5.483396
 21
-6.257125
 31
0.0
  0
LINE
  5
BA
330
618
100
AcDbEntity
  8
_0
  6
Continuous
 62
     7
370
    30
100
AcDbLine
 10
5.493167
 20
-6.250885
 30
0.0
 11
5.486927
 21
-6.257125
 31
0.0
  0
LINE
  5
BB
330
618
100
AcDbEntity
  8
_0
  6
Continuous
 62
     7
370
    30
100
AcDbLine
 10
5.49576
 20
-6.251833
 30
0.0
 11
5.490469
 21
-6.257125
 31
0.0
  0
LINE
  5
BC
330
618
100
AcDbEntity
  8
_0
  6
Continuous
 62
     7
370
    30
100
AcDbLine
 10
5.498354
 20
-6.252771
 30
0.0
 11
5.494
 21
-6.257125
 31
0.0
  0
LINE
  5
BD
330
618
100
AcDbEntity
  8
_0
  6
Continuous
 62
     7
370
    30
100
AcDbLine
 10
5.500948
 20
-6.253708
 30
0.0
 11
5.497542
 21
-6.257125
 31
0.0
  0
LINE
  5
BE
330
618
100
AcDbEntity
  8
_0
  6
Continuous
 62
     7
370
    30
100
AcDbLine
 10
5.503552
 20
-6.254646
 30
0.0
 11
5.501073
 21
-6.257125
 31
0.0
  0
LINE
  5
BF
330
618
100
AcDbEntity
  8
_0
  6
Continuous
 62
     7
370
    30
100
AcDbLine
 10
5.506146
 20
-6.255583
 30
0.0
 11
5.504604
 21
-6.257125
 31
0.0
  0
LINE
  5
C0
330
618
100
AcDbEntity
  8
_0
  6
Continuous
 62
     7
370
    30
100
AcDbLine
 10
5.50874
 20
-6.256521
 30
0.0
 11
5.508146
 21
-6.257125
 31
0.0
  0
LINE
  5
C1
330
618
100
AcDbEntity
  8
_0
  6
Continuous
 62
     7
370
    30
100
AcDbLine
 10
5.360833
 20
-6.103906
 30
0.0
 11
5.345469
 21
-6.119271
 31
0.0
  0
LINE
  5
C2
330
618
100
AcDbEntity
  8
_0
  6
Continuous
 62
     7
370
    30
100
AcDbLine
 10
5.258396
 20
-6.206354
 30
0.0
 11
5.207625
 21
-6.257125
 31
0.0
  0
LINE
  5
C3
330
618
100
AcDbEntity
  8
_0
  6
Continuous
 62
     7
370
    30
100
AcDbLine
 10
5.326688
 20
-6.138052
 30
0.0
 11
5.297417
 21
-6.167323
 31
0.0
  0
LINE
  5
C4
330
618
100
AcDbEntity
  8
_0
  6
Continuous
 62
     7
370
    30
100
AcDbLine
 10
5.360833
 20
-6.100375
 30
0.0
 11
5.341938
 21
-6.119271
 31
0.0
  0
LINE
  5
C5
330
618
100
AcDbEntity
  8
_0
  6
Continuous
 62
     7
370
    30
100
AcDbLine
 10
5.254854
 20
-6.206354
 30
0.0
 11
5.204094
 21
-6.257125
 31
0.0
  0
LINE
  5
C6
330
618
100
AcDbEntity
  8
_0
  6
Continuous
 62
     7
370
    30
100
AcDbLine
 10
5.326688
 20
-6.134521
 30
0.0
 11
5.297417
 21
-6.163792
 31
0.0
  0
LINE
  5
C7
330
618
100
AcDbEntity
  8
_0
  6
Continuous
 62
     7
370
    30
100
AcDbLine
 10
5.360833
 20
-6.096844
 30
0.0
 11
5.338396
 21
-6.119271
 31
0.0
  0
LINE
  5
C8
330
618
100
AcDbEntity
  8
_0
  6
Continuous
 62
     7
370
    30
100
AcDbLine
 10
5.249677
 20
-6.20799
 30
0.0
 11
5.200552
 21
-6.257125
 31
0.0
  0
LINE
  5
C9
330
618
100
AcDbEntity
  8
_0
  6
Continuous
 62
     7
370
    30
100
AcDbLine
 10
5.326688
 20
-6.13099
 30
0.0
 11
5.297417
 21
-6.16025
 31
0.0
  0
LINE
  5
CA
330
618
100
AcDbEntity
  8
_0
  6
Continuous
 62
     7
370
    30
100
AcDbLine
 10
5.360833
 20
-6.093302
 30
0.0
 11
5.334865
 21
-6.119271
 31
0.0
  0
LINE
  5
CB
330
618
100
AcDbEntity
  8
_0
  6
Continuous
 62
     7
370
    30
100
AcDbLine
 10
5.244146
 20
-6.20999
 30
0.0
 11
5.197021
 21
-6.257125
 31
0.0
  0
LINE
  5
CC
330
618
100
AcDbEntity
  8
_0
  6
Continuous
 62
     7
370
    30
100
AcDbLine
 10
5.326688
 20
-6.127448
 30
0.0
 11
5.297417
 21
-6.156719
 31
0.0
  0
LINE
  5
CD
330
618
100
AcDbEntity
  8
_0
  6
Continuous
 62
     7
370
    30
100
AcDbLine
 10
5.360833
 20
-6.089771
 30
0.0
 11
5.331323
 21
-6.119271
 31
0.0
  0
LINE
  5
CE
330
618
100
AcDbEntity
  8
_0
  6
Continuous
 62
     7
370
    30
100
AcDbLine
 10
5.238615
 20
-6.21199
 30
0.0
 11
5.193479
 21
-6.257125
 31
0.0
  0
LINE
  5
CF
330
618
100
AcDbEntity
  8
_0
  6
Continuous
 62
     7
370
    30
100
AcDbLine
 10
5.326688
 20
-6.123917
 30
0.0
 11
5.297417
 21
-6.153177
 31
0.0
  0
LINE
  5
D0
330
618
100
AcDbEntity
  8
_0
  6
Continuous
 62
     7
370
    30
100
AcDbLine
 10
5.360833
 20
-6.086229
 30
0.0
 11
5.327792
 21
-6.119271
 31
0.0
  0
LINE
  5
D1
330
618
100
AcDbEntity
  8
_0
  6
Continuous
 62
     7
370
    30
100
AcDbLine
 10
5.233073
 20
-6.21399
 30
0.0
 11
5.189948
 21
-6.257125
 31
0.0
  0
LINE
  5
D2
330
618
100
AcDbEntity
  8
_0
  6
Continuous
 62
     7
370
    30
100
AcDbLine
 10
5.326688
 20
-6.120375
 30
0.0
 11
5.297417
 21
-6.149646
 31
0.0
  0
LINE
  5
D3
330
618
100
AcDbEntity
  8
_0
  6
Continuous
 62
     7
370
    30
100
AcDbLine
 10
5.360833
 20
-6.082698
 30
0.0
 11
5.297417
 21
-6.146115
 31
0.0
  0
LINE
  5
D4
330
618
100
AcDbEntity
  8
_0
  6
Continuous
 62
     7
370
    30
100
AcDbLine
 10
5.227542
 20
-6.21599
 30
0.0
 11
5.186406
 21
-6.257125
 31
0.0
  0
LINE
  5
D5
330
618
100
AcDbEntity
  8
_0
  6
Continuous
 62
     7
370
    30
100
AcDbLine
 10
5.360833
 20
-6.079167
 30
0.0
 11
5.297417
 21
-6.142573
 31
0.0
  0
LINE
  5
D6
330
618
100
AcDbEntity
  8
_0
  6
Continuous
 62
     7
370
    30
100
AcDbLine
 10
5.222
 20
-6.21799
 30
0.0
 11
5.182875
 21
-6.257125
 31
0.0
  0
LINE
  5
D7
330
618
100
AcDbEntity
  8
_0
  6
Continuous
 62
     7
370
    30
100
AcDbLine
 10
5.360833
 20
-6.075625
 30
0.0
 11
5.297417
 21
-6.139042
 31
0.0
  0
LINE
  5
D8
330
618
100
AcDbEntity
  8
_0
  6
Continuous
 62
     7
370
    30
100
AcDbLine
 10
5.216469
 20
-6.21999
 30
0.0
 11
5.179344
 21
-6.257125
 31
0.0
  0
LINE
  5
D9
330
618
100
AcDbEntity
  8
_0
  6
Continuous
 62
     7
370
    30
100
AcDbLine
 10
5.360833
 20
-6.072094
 30
0.0
 11
5.297417
 21
-6.1355
 31
0.0
  0
LINE
  5
DA
330
618
100
AcDbEntity
  8
_0
  6
Continuous
 62
     7
370
    30
100
AcDbLine
 10
5.210938
 20
-6.22199
 30
0.0
 11
5.175802
 21
-6.257125
 31
0.0
  0
LINE
  5
DB
330
618
100
AcDbEntity
  8
_0
  6
Continuous
 62
     7
370
    30
100
AcDbLine
 10
5.360833
 20
-6.068552
 30
0.0
 11
5.297417
 21
-6.131969
 31
0.0
  0
LINE
  5
DC
330
618
100
AcDbEntity
  8
_0
  6
Continuous
 62
     7
370
    30
100
AcDbLine
 10
5.205396
 20
-6.22399
 30
0.0
 11
5.172271
 21
-6.257125
 31
0.0
  0
LINE
  5
DD
330
618
100
AcDbEntity
  8
_0
  6
Continuous
 62
     7
370
    30
100
AcDbLine
 10
5.360833
 20
-6.065021
 30
0.0
 11
5.297417
 21
-6.128437
 31
0.0
  0
LINE
  5
DE
330
618
100
AcDbEntity
  8
_0
  6
Continuous
 62
     7
370
    30
100
AcDbLine
 10
5.199865
 20
-6.22599
 30
0.0
 11
5.168729
 21
-6.257125
 31
0.0
  0
LINE
  5
DF
330
618
100
AcDbEntity
  8
_0
  6
Continuous
 62
     7
370
    30
100
AcDbLine
 10
5.360833
 20
-6.06149
 30
0.0
 11
5.297417
 21
-6.124896
 31
0.0
  0
LINE
  5
E0
330
618
100
AcDbEntity
  8
_0
  6
Continuous
 62
     7
370
    30
100
AcDbLine
 10
5.194323
 20
-6.22799
 30
0.0
 11
5.165198
 21
-6.257125
 31
0.0
  0
LINE
  5
E1
330
618
100
AcDbEntity
  8
_0
  6
Continuous
 62
     7
370
    30
100
AcDbLine
 10
5.360833
 20
-6.057948
 30
0.0
 11
5.297417
 21
-6.121365
 31
0.0
  0
LINE
  5
E2
330
618
100
AcDbEntity
  8
_0
  6
Continuous
 62
     7
370
    30
100
AcDbLine
 10
5.188792
 20
-6.22999
 30
0.0
 11
5.161667
 21
-6.257125
 31
0.0
  0
LINE
  5
E3
330
618
100
AcDbEntity
  8
_0
  6
Continuous
 62
     7
370
    30
100
AcDbLine
 10
5.360062
 20
-6.055187
 30
0.0
 11
5.295969
 21
-6.119271
 31
0.0
  0
LINE
  5
E4
330
618
100
AcDbEntity
  8
_0
  6
Continuous
 62
     7
370
    30
100
AcDbLine
 10
5.18326
 20
-6.23199
 30
0.0
 11
5.158125
 21
-6.257125
 31
0.0
  0
LINE
  5
E5
330
618
100
AcDbEntity
  8
_0
  6
Continuous
 62
     7
370
    30
100
AcDbLine
 10
5.356521
 20
-6.055187
 30
0.0
 11
5.292438
 21
-6.119271
 31
0.0
  0
LINE
  5
E6
330
618
100
AcDbEntity
  8
_0
  6
Continuous
 62
     7
370
    30
100
AcDbLine
 10
5.177719
 20
-6.23399
 30
0.0
 11
5.154594
 21
-6.257125
 31
0.0
  0
LINE
  5
E7
330
618
100
AcDbEntity
  8
_0
  6
Continuous
 62
     7
370
    30
100
AcDbLine
 10
5.35299
 20
-6.055187
 30
0.0
 11
5.288896
 21
-6.119271
 31
0.0
  0
LINE
  5
E8
330
618
100
AcDbEntity
  8
_0
  6
Continuous
 62
     7
370
    30
100
AcDbLine
 10
5.172187
 20
-6.23599
 30
0.0
 11
5.151052
 21
-6.257125
 31
0.0
  0
LINE
  5
E9
330
618
100
AcDbEntity
  8
_0
  6
Continuous
 62
     7
370
    30
100
AcDbLine
 10
5.349458
 20
-6.055187
 30
0.0
 11
5.285365
 21
-6.119271
 31
0.0
  0
LINE
  5
EA
330
618
100
AcDbEntity
  8
_0
  6
Continuous
 62
     7
370
    30
100
AcDbLine
 10
5.166646
 20
-6.23799
 30
0.0
 11
5.147521
 21
-6.257125
 31
0.0
  0
LINE
  5
EB
330
618
100
AcDbEntity
  8
_0
  6
Continuous
 62
     7
370
    30
100
AcDbLine
 10
5.345917
 20
-6.055187
 30
0.0
 11
5.281833
 21
-6.119271
 31
0.0
  0
LINE
  5
EC
330
618
100
AcDbEntity
  8
_0
  6
Continuous
 62
     7
370
    30
100
AcDbLine
 10
5.161115
 20
-6.23999
 30
0.0
 11
5.14399
 21
-6.257125
 31
0.0
  0
LINE
  5
ED
330
618
100
AcDbEntity
  8
_0
  6
Continuous
 62
     7
370
    30
100
AcDbLine
 10
5.342385
 20
-6.055187
 30
0.0
 11
5.278292
 21
-6.119271
 31
0.0
  0
LINE
  5
EE
330
618
100
AcDbEntity
  8
_0
  6
Continuous
 62
     7
370
    30
100
AcDbLine
 10
5.155573
 20
-6.24199
 30
0.0
 11
5.140448
 21
-6.257125
 31
0.0
  0
LINE
  5
EF
330
618
100
AcDbEntity
  8
_0
  6
Continuous
 62
     7
370
    30
100
AcDbLine
 10
5.338844
 20
-6.055187
 30
0.0
 11
5.27476
 21
-6.119271
 31
0.0
  0
LINE
  5
F0
330
618
100
AcDbEntity
  8
_0
  6
Continuous
 62
     7
370
    30
100
AcDbLine
 10
5.150042
 20
-6.24399
 30
0.0
 11
5.136917
 21
-6.257125
 31
0.0
  0
LINE
  5
F1
330
618
100
AcDbEntity
  8
_0
  6
Continuous
 62
     7
370
    30
100
AcDbLine
 10
5.335312
 20
-6.055187
 30
0.0
 11
5.271219
 21
-6.119271
 31
0.0
  0
LINE
  5
F2
330
618
100
AcDbEntity
  8
_0
  6
Continuous
 62
     7
370
    30
100
AcDbLine
 10
5.14451
 20
-6.24599
 30
0.0
 11
5.133375
 21
-6.257125
 31
0.0
  0
LINE
  5
F3
330
618
100
AcDbEntity
  8
_0
  6
Continuous
 62
     7
370
    30
100
AcDbLine
 10
5.331781
 20
-6.055187
 30
0.0
 11
5.267688
 21
-6.119271
 31
0.0
  0
LINE
  5
F4
330
618
100
AcDbEntity
  8
_0
  6
Continuous
 62
     7
370
    30
100
AcDbLine
 10
5.138969
 20
-6.24799
 30
0.0
 11
5.129844
 21
-6.257125
 31
0.0
  0
LINE
  5
F5
330
618
100
AcDbEntity
  8
_0
  6
Continuous
 62
     7
370
    30
100
AcDbLine
 10
5.32824
 20
-6.055187
 30
0.0
 11
5.264156
 21
-6.119271
 31
0.0
  0
LINE
  5
F6
330
618
100
AcDbEntity
  8
_0
  6
Continuous
 62
     7
370
    30
100
AcDbLine
 10
5.133437
 20
-6.24999
 30
0.0
 11
5.126302
 21
-6.257125
 31
0.0
  0
LINE
  5
F7
330
618
100
AcDbEntity
  8
_0
  6
Continuous
 62
     7
370
    30
100
AcDbLine
 10
5.324708
 20
-6.055187
 30
0.0
 11
5.263271
 21
-6.116615
 31
0.0
  0
LINE
  5
F8
330
618
100
AcDbEntity
  8
_0
  6
Continuous
 62
     7
370
    30
100
AcDbLine
 10
5.127896
 20
-6.25199
 30
0.0
 11
5.122771
 21
-6.257125
 31
0.0
  0
LINE
  5
F9
330
618
100
AcDbEntity
  8
_0
  6
Continuous
 62
     7
370
    30
100
AcDbLine
 10
5.321167
 20
-6.055187
 30
0.0
 11
5.263271
 21
-6.113083
 31
0.0
  0
LINE
  5
FA
330
618
100
AcDbEntity
  8
_0
  6
Continuous
 62
     7
370
    30
100
AcDbLine
 10
5.122365
 20
-6.25399
 30
0.0
 11
5.11924
 21
-6.257125
 31
0.0
  0
LINE
  5
FB
330
618
100
AcDbEntity
  8
_0
  6
Continuous
 62
     7
370
    30
100
AcDbLine
 10
5.317635
 20
-6.055187
 30
0.0
 11
5.263271
 21
-6.109542
 31
0.0
  0
LINE
  5
FC
330
618
100
AcDbEntity
  8
_0
  6
Continuous
 62
     7
370
    30
100
AcDbLine
 10
5.116833
 20
-6.25599
 30
0.0
 11
5.115698
 21
-6.257125
 31
0.0
  0
LINE
  5
FD
330
618
100
AcDbEntity
  8
_0
  6
Continuous
 62
     7
370
    30
100
AcDbLine
 10
5.314094
 20
-6.055187
 30
0.0
 11
5.263271
 21
-6.10601
 31
0.0
  0
LINE
  5
FE
330
618
100
AcDbEntity
  8
_0
  6
Continuous
 62
     7
370
    30
100
AcDbLine
 10
5.310562
 20
-6.055187
 30
0.0
 11
5.263271
 21
-6.102469
 31
0.0
  0
LINE
  5
FF
330
618
100
AcDbEntity
  8
_0
  6
Continuous
 62
     7
370
    30
100
AcDbLine
 10
5.307031
 20
-6.055187
 30
0.0
 11
5.263271
 21
-6.098937
 31
0.0
  0
LINE
  5
100
330
618
100
AcDbEntity
  8
_0
  6
Continuous
 62
     7
370
    30
100
AcDbLine
 10
5.30349
 20
-6.055187
 30
0.0
 11
5.263271
 21
-6.095406
 31
0.0
  0
LINE
  5
101
330
618
100
AcDbEntity
  8
_0
  6
Continuous
 62
     7
370
    30
100
AcDbLine
 10
5.299958
 20
-6.055187
 30
0.0
 11
5.263271
 21
-6.091865
 31
0.0
  0
LINE
  5
102
330
618
100
AcDbEntity
  8
_0
  6
Continuous
 62
     7
370
    30
100
AcDbLine
 10
5.296417
 20
-6.055187
 30
0.0
 11
5.263271
 21
-6.088333
 31
0.0
  0
LINE
  5
103
330
618
100
AcDbEntity
  8
_0
  6
Continuous
 62
     7
370
    30
100
AcDbLine
 10
5.292885
 20
-6.055187
 30
0.0
 11
5.263271
 21
-6.084792
 31
0.0
  0
LINE
  5
104
330
618
100
AcDbEntity
  8
_0
  6
Continuous
 62
     7
370
    30
100
AcDbLine
 10
5.289354
 20
-6.055187
 30
0.0
 11
5.263271
 21
-6.08126
 31
0.0
  0
LINE
  5
105
330
618
100
AcDbEntity
  8
_0
  6
Continuous
 62
     7
370
    30
100
AcDbLine
 10
5.285812
 20
-6.055187
 30
0.0
 11
5.263271
 21
-6.077729
 31
0.0
  0
LINE
  5
106
330
618
100
AcDbEntity
  8
_0
  6
Continuous
 62
     7
370
    30
100
AcDbLine
 10
5.282281
 20
-6.055187
 30
0.0
 11
5.263271
 21
-6.074187
 31
0.0
  0
LINE
  5
107
330
618
100
AcDbEntity
  8
_0
  6
Continuous
 62
     7
370
    30
100
AcDbLine
 10
5.27874
 20
-6.055187
 30
0.0
 11
5.263271
 21
-6.070656
 31
0.0
  0
LINE
  5
108
330
618
100
AcDbEntity
  8
_0
  6
Continuous
 62
     7
370
    30
100
AcDbLine
 10
5.275208
 20
-6.055187
 30
0.0
 11
5.263271
 21
-6.067115
 31
0.0
  0
LINE
  5
109
330
618
100
AcDbEntity
  8
_0
  6
Continuous
 62
     7
370
    30
100
AcDbLine
 10
5.271677
 20
-6.055187
 30
0.0
 11
5.263271
 21
-6.063583
 31
0.0
  0
LINE
  5
10A
330
618
100
AcDbEntity
  8
_0
  6
Continuous
 62
     7
370
    30
100
AcDbLine
 10
5.268135
 20
-6.055187
 30
0.0
 11
5.263271
 21
-6.060052
 31
0.0
  0
LINE
  5
10B
330
618
100
AcDbEntity
  8
_0
  6
Continuous
 62
     7
370
    30
100
AcDbLine
 10
5.264604
 20
-6.055187
 30
0.0
 11
5.263271
 21
-6.05651
 31
0.0
  0
LINE
  5
10C
330
618
100
AcDbEntity
  8
_0
  6
Continuous
 62
     7
370
    30
100
AcDbLine
 10
6.987604
 20
-6.107448
 30
0.0
 11
6.975771
 21
-6.119271
 31
0.0
  0
LINE
  5
10D
330
618
100
AcDbEntity
  8
_0
  6
Continuous
 62
     7
370
    30
100
AcDbLine
 10
6.888698
 20
-6.206354
 30
0.0
 11
6.837927
 21
-6.257125
 31
0.0
  0
LINE
  5
10E
330
618
100
AcDbEntity
  8
_0
  6
Continuous
 62
     7
370
    30
100
AcDbLine
 10
6.953458
 20
-6.141594
 30
0.0
 11
6.924187
 21
-6.170854
 31
0.0
  0
LINE
  5
10F
330
618
100
AcDbEntity
  8
_0
  6
Continuous
 62
     7
370
    30
100
AcDbLine
 10
6.987604
 20
-6.110979
 30
0.0
 11
6.979312
 21
-6.119271
 31
0.0
  0
LINE
  5
110
330
618
100
AcDbEntity
  8
_0
  6
Continuous
 62
     7
370
    30
100
AcDbLine
 10
6.892229
 20
-6.206354
 30
0.0
 11
6.841469
 21
-6.257125
 31
0.0
  0
LINE
  5
111
330
618
100
AcDbEntity
  8
_0
  6
Continuous
 62
     7
370
    30
100
AcDbLine
 10
6.953458
 20
-6.145125
 30
0.0
 11
6.924187
 21
-6.174396
 31
0.0
  0
LINE
  5
112
330
618
100
AcDbEntity
  8
_0
  6
Continuous
 62
     7
370
    30
100
AcDbLine
 10
6.987604
 20
-6.114521
 30
0.0
 11
6.982844
 21
-6.119271
 31
0.0
  0
LINE
  5
113
330
618
100
AcDbEntity
  8
_0
  6
Continuous
 62
     7
370
    30
100
AcDbLine
 10
6.895771
 20
-6.206354
 30
0.0
 11
6.845
 21
-6.257125
 31
0.0
  0
LINE
  5
114
330
618
100
AcDbEntity
  8
_0
  6
Continuous
 62
     7
370
    30
100
AcDbLine
 10
6.953458
 20
-6.148667
 30
0.0
 11
6.924187
 21
-6.177927
 31
0.0
  0
LINE
  5
115
330
618
100
AcDbEntity
  8
_0
  6
Continuous
 62
     7
370
    30
100
AcDbLine
 10
6.987604
 20
-6.118052
 30
0.0
 11
6.986385
 21
-6.119271
 31
0.0
  0
LINE
  5
116
330
618
100
AcDbEntity
  8
_0
  6
Continuous
 62
     7
370
    30
100
AcDbLine
 10
6.899302
 20
-6.206354
 30
0.0
 11
6.848542
 21
-6.257125
 31
0.0
  0
LINE
  5
117
330
618
100
AcDbEntity
  8
_0
  6
Continuous
 62
     7
370
    30
100
AcDbLine
 10
6.953458
 20
-6.152198
 30
0.0
 11
6.924187
 21
-6.181469
 31
0.0
  0
LINE
  5
118
330
618
100
AcDbEntity
  8
_0
  6
Continuous
 62
     7
370
    30
100
AcDbLine
 10
6.953458
 20
-6.155729
 30
0.0
 11
6.924187
 21
-6.185
 31
0.0
  0
LINE
  5
119
330
618
100
AcDbEntity
  8
_0
  6
Continuous
 62
     7
370
    30
100
AcDbLine
 10
6.902844
 20
-6.206354
 30
0.0
 11
6.852073
 21
-6.257125
 31
0.0
  0
LINE
  5
11A
330
618
100
AcDbEntity
  8
_0
  6
Continuous
 62
     7
370
    30
100
AcDbLine
 10
6.953458
 20
-6.159271
 30
0.0
 11
6.924187
 21
-6.188542
 31
0.0
  0
LINE
  5
11B
330
618
100
AcDbEntity
  8
_0
  6
Continuous
 62
     7
370
    30
100
AcDbLine
 10
6.906375
 20
-6.206354
 30
0.0
 11
6.855604
 21
-6.257125
 31
0.0
  0
LINE
  5
11C
330
618
100
AcDbEntity
  8
_0
  6
Continuous
 62
     7
370
    30
100
AcDbLine
 10
6.953458
 20
-6.162802
 30
0.0
 11
6.924187
 21
-6.192073
 31
0.0
  0
LINE
  5
11D
330
618
100
AcDbEntity
  8
_0
  6
Continuous
 62
     7
370
    30
100
AcDbLine
 10
6.909906
 20
-6.206354
 30
0.0
 11
6.859146
 21
-6.257125
 31
0.0
  0
LINE
  5
11E
330
618
100
AcDbEntity
  8
_0
  6
Continuous
 62
     7
370
    30
100
AcDbLine
 10
6.953458
 20
-6.166344
 30
0.0
 11
6.924187
 21
-6.195604
 31
0.0
  0
LINE
  5
11F
330
618
100
AcDbEntity
  8
_0
  6
Continuous
 62
     7
370
    30
100
AcDbLine
 10
6.913448
 20
-6.206354
 30
0.0
 11
6.862677
 21
-6.257125
 31
0.0
  0
LINE
  5
120
330
618
100
AcDbEntity
  8
_0
  6
Continuous
 62
     7
370
    30
100
AcDbLine
 10
6.953458
 20
-6.169875
 30
0.0
 11
6.924187
 21
-6.199146
 31
0.0
  0
LINE
  5
121
330
618
100
AcDbEntity
  8
_0
  6
Continuous
 62
     7
370
    30
100
AcDbLine
 10
6.916979
 20
-6.206354
 30
0.0
 11
6.866219
 21
-6.257125
 31
0.0
  0
LINE
  5
122
330
618
100
AcDbEntity
  8
_0
  6
Continuous
 62
     7
370
    30
100
AcDbLine
 10
6.953458
 20
-6.173417
 30
0.0
 11
6.924187
 21
-6.202677
 31
0.0
  0
LINE
  5
123
330
618
100
AcDbEntity
  8
_0
  6
Continuous
 62
     7
370
    30
100
AcDbLine
 10
6.920521
 20
-6.206354
 30
0.0
 11
6.86975
 21
-6.257125
 31
0.0
  0
LINE
  5
124
330
618
100
AcDbEntity
  8
_0
  6
Continuous
 62
     7
370
    30
100
AcDbLine
 10
6.953458
 20
-6.176948
 30
0.0
 11
6.924187
 21
-6.206219
 31
0.0
  0
LINE
  5
125
330
618
100
AcDbEntity
  8
_0
  6
Continuous
 62
     7
370
    30
100
AcDbLine
 10
6.924052
 20
-6.206354
 30
0.0
 11
6.873281
 21
-6.257125
 31
0.0
  0
LINE
  5
126
330
618
100
AcDbEntity
  8
_0
  6
Continuous
 62
     7
370
    30
100
AcDbLine
 10
6.953458
 20
-6.180479
 30
0.0
 11
6.876823
 21
-6.257125
 31
0.0
  0
LINE
  5
127
330
618
100
AcDbEntity
  8
_0
  6
Continuous
 62
     7
370
    30
100
AcDbLine
 10
6.953458
 20
-6.184021
 30
0.0
 11
6.880354
 21
-6.257125
 31
0.0
  0
LINE
  5
128
330
618
100
AcDbEntity
  8
_0
  6
Continuous
 62
     7
370
    30
100
AcDbLine
 10
6.953458
 20
-6.187552
 30
0.0
 11
6.883896
 21
-6.257125
 31
0.0
  0
LINE
  5
129
330
618
100
AcDbEntity
  8
_0
  6
Continuous
 62
     7
370
    30
100
AcDbLine
 10
6.953458
 20
-6.191094
 30
0.0
 11
6.887427
 21
-6.257125
 31
0.0
  0
LINE
  5
12A
330
618
100
AcDbEntity
  8
_0
  6
Continuous
 62
     7
370
    30
100
AcDbLine
 10
6.953458
 20
-6.194625
 30
0.0
 11
6.890969
 21
-6.257125
 31
0.0
  0
LINE
  5
12B
330
618
100
AcDbEntity
  8
_0
  6
Continuous
 62
     7
370
    30
100
AcDbLine
 10
6.953458
 20
-6.198156
 30
0.0
 11
6.8945
 21
-6.257125
 31
0.0
  0
LINE
  5
12C
330
618
100
AcDbEntity
  8
_0
  6
Continuous
 62
     7
370
    30
100
AcDbLine
 10
6.953458
 20
-6.201698
 30
0.0
 11
6.898031
 21
-6.257125
 31
0.0
  0
LINE
  5
12D
330
618
100
AcDbEntity
  8
_0
  6
Continuous
 62
     7
370
    30
100
AcDbLine
 10
6.953458
 20
-6.205229
 30
0.0
 11
6.901573
 21
-6.257125
 31
0.0
  0
LINE
  5
12E
330
618
100
AcDbEntity
  8
_0
  6
Continuous
 62
     7
370
    30
100
AcDbLine
 10
6.955875
 20
-6.206354
 30
0.0
 11
6.905104
 21
-6.257125
 31
0.0
  0
LINE
  5
12F
330
618
100
AcDbEntity
  8
_0
  6
Continuous
 62
     7
370
    30
100
AcDbLine
 10
6.959406
 20
-6.206354
 30
0.0
 11
6.908646
 21
-6.257125
 31
0.0
  0
LINE
  5
130
330
618
100
AcDbEntity
  8
_0
  6
Continuous
 62
     7
370
    30
100
AcDbLine
 10
6.962948
 20
-6.206354
 30
0.0
 11
6.912177
 21
-6.257125
 31
0.0
  0
LINE
  5
131
330
618
100
AcDbEntity
  8
_0
  6
Continuous
 62
     7
370
    30
100
AcDbLine
 10
6.966479
 20
-6.206354
 30
0.0
 11
6.915708
 21
-6.257125
 31
0.0
  0
LINE
  5
132
330
618
100
AcDbEntity
  8
_0
  6
Continuous
 62
     7
370
    30
100
AcDbLine
 10
6.97001
 20
-6.206354
 30
0.0
 11
6.91925
 21
-6.257125
 31
0.0
  0
LINE
  5
133
330
618
100
AcDbEntity
  8
_0
  6
Continuous
 62
     7
370
    30
100
AcDbLine
 10
6.973552
 20
-6.206354
 30
0.0
 11
6.922781
 21
-6.257125
 31
0.0
  0
LINE
  5
134
330
618
100
AcDbEntity
  8
_0
  6
Continuous
 62
     7
370
    30
100
AcDbLine
 10
6.977083
 20
-6.206354
 30
0.0
 11
6.926323
 21
-6.257125
 31
0.0
  0
LINE
  5
135
330
618
100
AcDbEntity
  8
_0
  6
Continuous
 62
     7
370
    30
100
AcDbLine
 10
6.980625
 20
-6.206354
 30
0.0
 11
6.929854
 21
-6.257125
 31
0.0
  0
LINE
  5
136
330
618
100
AcDbEntity
  8
_0
  6
Continuous
 62
     7
370
    30
100
AcDbLine
 10
6.984156
 20
-6.206354
 30
0.0
 11
6.933385
 21
-6.257125
 31
0.0
  0
LINE
  5
137
330
618
100
AcDbEntity
  8
_0
  6
Continuous
 62
     7
370
    30
100
AcDbLine
 10
6.987687
 20
-6.206354
 30
0.0
 11
6.936927
 21
-6.257125
 31
0.0
  0
LINE
  5
138
330
618
100
AcDbEntity
  8
_0
  6
Continuous
 62
     7
370
    30
100
AcDbLine
 10
6.991229
 20
-6.206354
 30
0.0
 11
6.940458
 21
-6.257125
 31
0.0
  0
LINE
  5
139
330
618
100
AcDbEntity
  8
_0
  6
Continuous
 62
     7
370
    30
100
AcDbLine
 10
6.99476
 20
-6.206354
 30
0.0
 11
6.944
 21
-6.257125
 31
0.0
  0
LINE
  5
13A
330
618
100
AcDbEntity
  8
_0
  6
Continuous
 62
     7
370
    30
100
AcDbLine
 10
6.997865
 20
-6.206792
 30
0.0
 11
6.947531
 21
-6.257125
 31
0.0
  0
LINE
  5
13B
330
618
100
AcDbEntity
  8
_0
  6
Continuous
 62
     7
370
    30
100
AcDbLine
 10
7.000458
 20
-6.207729
 30
0.0
 11
6.951073
 21
-6.257125
 31
0.0
  0
LINE
  5
13C
330
618
100
AcDbEntity
  8
_0
  6
Continuous
 62
     7
370
    30
100
AcDbLine
 10
7.003062
 20
-6.208667
 30
0.0
 11
6.954604
 21
-6.257125
 31
0.0
  0
LINE
  5
13D
330
618
100
AcDbEntity
  8
_0
  6
Continuous
 62
     7
370
    30
100
AcDbLine
 10
7.005656
 20
-6.209604
 30
0.0
 11
6.958135
 21
-6.257125
 31
0.0
  0
LINE
  5
13E
330
618
100
AcDbEntity
  8
_0
  6
Continuous
 62
     7
370
    30
100
AcDbLine
 10
7.00825
 20
-6.210542
 30
0.0
 11
6.961677
 21
-6.257125
 31
0.0
  0
LINE
  5
13F
330
618
100
AcDbEntity
  8
_0
  6
Continuous
 62
     7
370
    30
100
AcDbLine
 10
7.010854
 20
-6.211479
 30
0.0
 11
6.965208
 21
-6.257125
 31
0.0
  0
LINE
  5
140
330
618
100
AcDbEntity
  8
_0
  6
Continuous
 62
     7
370
    30
100
AcDbLine
 10
7.013448
 20
-6.212417
 30
0.0
 11
6.96875
 21
-6.257125
 31
0.0
  0
LINE
  5
141
330
618
100
AcDbEntity
  8
_0
  6
Continuous
 62
     7
370
    30
100
AcDbLine
 10
7.016042
 20
-6.213354
 30
0.0
 11
6.972281
 21
-6.257125
 31
0.0
  0
LINE
  5
142
330
618
100
AcDbEntity
  8
_0
  6
Continuous
 62
     7
370
    30
100
AcDbLine
 10
7.018646
 20
-6.214292
 30
0.0
 11
6.975812
 21
-6.257125
 31
0.0
  0
LINE
  5
143
330
618
100
AcDbEntity
  8
_0
  6
Continuous
 62
     7
370
    30
100
AcDbLine
 10
7.02124
 20
-6.215229
 30
0.0
 11
6.979354
 21
-6.257125
 31
0.0
  0
LINE
  5
144
330
618
100
AcDbEntity
  8
_0
  6
Continuous
 62
     7
370
    30
100
AcDbLine
 10
7.023833
 20
-6.216167
 30
0.0
 11
6.982885
 21
-6.257125
 31
0.0
  0
LINE
  5
145
330
618
100
AcDbEntity
  8
_0
  6
Continuous
 62
     7
370
    30
100
AcDbLine
 10
7.026438
 20
-6.217115
 30
0.0
 11
6.986427
 21
-6.257125
 31
0.0
  0
LINE
  5
146
330
618
100
AcDbEntity
  8
_0
  6
Continuous
 62
     7
370
    30
100
AcDbLine
 10
7.029031
 20
-6.218052
 30
0.0
 11
6.989958
 21
-6.257125
 31
0.0
  0
LINE
  5
147
330
618
100
AcDbEntity
  8
_0
  6
Continuous
 62
     7
370
    30
100
AcDbLine
 10
7.031625
 20
-6.21899
 30
0.0
 11
6.99349
 21
-6.257125
 31
0.0
  0
LINE
  5
148
330
618
100
AcDbEntity
  8
_0
  6
Continuous
 62
     7
370
    30
100
AcDbLine
 10
7.034229
 20
-6.219927
 30
0.0
 11
6.997031
 21
-6.257125
 31
0.0
  0
LINE
  5
149
330
618
100
AcDbEntity
  8
_0
  6
Continuous
 62
     7
370
    30
100
AcDbLine
 10
7.036823
 20
-6.220865
 30
0.0
 11
7.000563
 21
-6.257125
 31
0.0
  0
LINE
  5
14A
330
618
100
AcDbEntity
  8
_0
  6
Continuous
 62
     7
370
    30
100
AcDbLine
 10
7.039417
 20
-6.221802
 30
0.0
 11
7.004104
 21
-6.257125
 31
0.0
  0
LINE
  5
14B
330
618
100
AcDbEntity
  8
_0
  6
Continuous
 62
     7
370
    30
100
AcDbLine
 10
7.042021
 20
-6.22274
 30
0.0
 11
7.007635
 21
-6.257125
 31
0.0
  0
LINE
  5
14C
330
618
100
AcDbEntity
  8
_0
  6
Continuous
 62
     7
370
    30
100
AcDbLine
 10
7.044615
 20
-6.223677
 30
0.0
 11
7.011177
 21
-6.257125
 31
0.0
  0
LINE
  5
14D
330
618
100
AcDbEntity
  8
_0
  6
Continuous
 62
     7
370
    30
100
AcDbLine
 10
7.047208
 20
-6.224615
 30
0.0
 11
7.014708
 21
-6.257125
 31
0.0
  0
LINE
  5
14E
330
618
100
AcDbEntity
  8
_0
  6
Continuous
 62
     7
370
    30
100
AcDbLine
 10
7.049812
 20
-6.225552
 30
0.0
 11
7.01824
 21
-6.257125
 31
0.0
  0
LINE
  5
14F
330
618
100
AcDbEntity
  8
_0
  6
Continuous
 62
     7
370
    30
100
AcDbLine
 10
7.052406
 20
-6.22649
 30
0.0
 11
7.021781
 21
-6.257125
 31
0.0
  0
LINE
  5
150
330
618
100
AcDbEntity
  8
_0
  6
Continuous
 62
     7
370
    30
100
AcDbLine
 10
7.055
 20
-6.227427
 30
0.0
 11
7.025313
 21
-6.257125
 31
0.0
  0
LINE
  5
151
330
618
100
AcDbEntity
  8
_0
  6
Continuous
 62
     7
370
    30
100
AcDbLine
 10
7.057604
 20
-6.228375
 30
0.0
 11
7.028854
 21
-6.257125
 31
0.0
  0
LINE
  5
152
330
618
100
AcDbEntity
  8
_0
  6
Continuous
 62
     7
370
    30
100
AcDbLine
 10
7.060198
 20
-6.229312
 30
0.0
 11
7.032385
 21
-6.257125
 31
0.0
  0
LINE
  5
153
330
618
100
AcDbEntity
  8
_0
  6
Continuous
 62
     7
370
    30
100
AcDbLine
 10
7.062792
 20
-6.23025
 30
0.0
 11
7.035917
 21
-6.257125
 31
0.0
  0
LINE
  5
154
330
618
100
AcDbEntity
  8
_0
  6
Continuous
 62
     7
370
    30
100
AcDbLine
 10
7.065396
 20
-6.231187
 30
0.0
 11
7.039458
 21
-6.257125
 31
0.0
  0
LINE
  5
155
330
618
100
AcDbEntity
  8
_0
  6
Continuous
 62
     7
370
    30
100
AcDbLine
 10
7.06799
 20
-6.232125
 30
0.0
 11
7.04299
 21
-6.257125
 31
0.0
  0
LINE
  5
156
330
618
100
AcDbEntity
  8
_0
  6
Continuous
 62
     7
370
    30
100
AcDbLine
 10
7.070583
 20
-6.233062
 30
0.0
 11
7.046531
 21
-6.257125
 31
0.0
  0
LINE
  5
157
330
618
100
AcDbEntity
  8
_0
  6
Continuous
 62
     7
370
    30
100
AcDbLine
 10
7.073187
 20
-6.234
 30
0.0
 11
7.050063
 21
-6.257125
 31
0.0
  0
LINE
  5
158
330
618
100
AcDbEntity
  8
_0
  6
Continuous
 62
     7
370
    30
100
AcDbLine
 10
7.075781
 20
-6.234938
 30
0.0
 11
7.053594
 21
-6.257125
 31
0.0
  0
LINE
  5
159
330
618
100
AcDbEntity
  8
_0
  6
Continuous
 62
     7
370
    30
100
AcDbLine
 10
7.078375
 20
-6.235875
 30
0.0
 11
7.057135
 21
-6.257125
 31
0.0
  0
LINE
  5
15A
330
618
100
AcDbEntity
  8
_0
  6
Continuous
 62
     7
370
    30
100
AcDbLine
 10
7.080979
 20
-6.236813
 30
0.0
 11
7.060667
 21
-6.257125
 31
0.0
  0
LINE
  5
15B
330
618
100
AcDbEntity
  8
_0
  6
Continuous
 62
     7
370
    30
100
AcDbLine
 10
7.083573
 20
-6.23775
 30
0.0
 11
7.064208
 21
-6.257125
 31
0.0
  0
LINE
  5
15C
330
618
100
AcDbEntity
  8
_0
  6
Continuous
 62
     7
370
    30
100
AcDbLine
 10
7.086167
 20
-6.238688
 30
0.0
 11
7.06774
 21
-6.257125
 31
0.0
  0
LINE
  5
15D
330
618
100
AcDbEntity
  8
_0
  6
Continuous
 62
     7
370
    30
100
AcDbLine
 10
7.088771
 20
-6.239625
 30
0.0
 11
7.071271
 21
-6.257125
 31
0.0
  0
LINE
  5
15E
330
618
100
AcDbEntity
  8
_0
  6
Continuous
 62
     7
370
    30
100
AcDbLine
 10
7.091365
 20
-6.240573
 30
0.0
 11
7.074813
 21
-6.257125
 31
0.0
  0
LINE
  5
15F
330
618
100
AcDbEntity
  8
_0
  6
Continuous
 62
     7
370
    30
100
AcDbLine
 10
7.093958
 20
-6.24151
 30
0.0
 11
7.078344
 21
-6.257125
 31
0.0
  0
LINE
  5
160
330
618
100
AcDbEntity
  8
_0
  6
Continuous
 62
     7
370
    30
100
AcDbLine
 10
7.096563
 20
-6.242448
 30
0.0
 11
7.081885
 21
-6.257125
 31
0.0
  0
LINE
  5
161
330
618
100
AcDbEntity
  8
_0
  6
Continuous
 62
     7
370
    30
100
AcDbLine
 10
7.099156
 20
-6.243385
 30
0.0
 11
7.085417
 21
-6.257125
 31
0.0
  0
LINE
  5
162
330
618
100
AcDbEntity
  8
_0
  6
Continuous
 62
     7
370
    30
100
AcDbLine
 10
7.10175
 20
-6.244323
 30
0.0
 11
7.088958
 21
-6.257125
 31
0.0
  0
LINE
  5
163
330
618
100
AcDbEntity
  8
_0
  6
Continuous
 62
     7
370
    30
100
AcDbLine
 10
7.104354
 20
-6.24526
 30
0.0
 11
7.09249
 21
-6.257125
 31
0.0
  0
LINE
  5
164
330
618
100
AcDbEntity
  8
_0
  6
Continuous
 62
     7
370
    30
100
AcDbLine
 10
7.106948
 20
-6.246198
 30
0.0
 11
7.096021
 21
-6.257125
 31
0.0
  0
LINE
  5
165
330
618
100
AcDbEntity
  8
_0
  6
Continuous
 62
     7
370
    30
100
AcDbLine
 10
7.109542
 20
-6.247135
 30
0.0
 11
7.099562
 21
-6.257125
 31
0.0
  0
LINE
  5
166
330
618
100
AcDbEntity
  8
_0
  6
Continuous
 62
     7
370
    30
100
AcDbLine
 10
7.112146
 20
-6.248073
 30
0.0
 11
7.103094
 21
-6.257125
 31
0.0
  0
LINE
  5
167
330
618
100
AcDbEntity
  8
_0
  6
Continuous
 62
     7
370
    30
100
AcDbLine
 10
7.11474
 20
-6.24901
 30
0.0
 11
7.106635
 21
-6.257125
 31
0.0
  0
LINE
  5
168
330
618
100
AcDbEntity
  8
_0
  6
Continuous
 62
     7
370
    30
100
AcDbLine
 10
7.117333
 20
-6.249948
 30
0.0
 11
7.110167
 21
-6.257125
 31
0.0
  0
LINE
  5
169
330
618
100
AcDbEntity
  8
_0
  6
Continuous
 62
     7
370
    30
100
AcDbLine
 10
7.119937
 20
-6.250885
 30
0.0
 11
7.113698
 21
-6.257125
 31
0.0
  0
LINE
  5
16A
330
618
100
AcDbEntity
  8
_0
  6
Continuous
 62
     7
370
    30
100
AcDbLine
 10
7.122531
 20
-6.251833
 30
0.0
 11
7.11724
 21
-6.257125
 31
0.0
  0
LINE
  5
16B
330
618
100
AcDbEntity
  8
_0
  6
Continuous
 62
     7
370
    30
100
AcDbLine
 10
7.125125
 20
-6.252771
 30
0.0
 11
7.120771
 21
-6.257125
 31
0.0
  0
LINE
  5
16C
330
618
100
AcDbEntity
  8
_0
  6
Continuous
 62
     7
370
    30
100
AcDbLine
 10
7.127719
 20
-6.253708
 30
0.0
 11
7.124312
 21
-6.257125
 31
0.0
  0
LINE
  5
16D
330
618
100
AcDbEntity
  8
_0
  6
Continuous
 62
     7
370
    30
100
AcDbLine
 10
7.130323
 20
-6.254646
 30
0.0
 11
7.127844
 21
-6.257125
 31
0.0
  0
LINE
  5
16E
330
618
100
AcDbEntity
  8
_0
  6
Continuous
 62
     7
370
    30
100
AcDbLine
 10
7.132917
 20
-6.255583
 30
0.0
 11
7.131375
 21
-6.257125
 31
0.0
  0
LINE
  5
16F
330
618
100
AcDbEntity
  8
_0
  6
Continuous
 62
     7
370
    30
100
AcDbLine
 10
7.13551
 20
-6.256521
 30
0.0
 11
7.134917
 21
-6.257125
 31
0.0
  0
LINE
  5
170
330
618
100
AcDbEntity
  8
_0
  6
Continuous
 62
     7
370
    30
100
AcDbLine
 10
6.987604
 20
-6.103906
 30
0.0
 11
6.97224
 21
-6.119271
 31
0.0
  0
LINE
  5
171
330
618
100
AcDbEntity
  8
_0
  6
Continuous
 62
     7
370
    30
100
AcDbLine
 10
6.885167
 20
-6.206354
 30
0.0
 11
6.834396
 21
-6.257125
 31
0.0
  0
LINE
  5
172
330
618
100
AcDbEntity
  8
_0
  6
Continuous
 62
     7
370
    30
100
AcDbLine
 10
6.953458
 20
-6.138052
 30
0.0
 11
6.924187
 21
-6.167323
 31
0.0
  0
LINE
  5
173
330
618
100
AcDbEntity
  8
_0
  6
Continuous
 62
     7
370
    30
100
AcDbLine
 10
6.987604
 20
-6.100375
 30
0.0
 11
6.968708
 21
-6.119271
 31
0.0
  0
LINE
  5
174
330
618
100
AcDbEntity
  8
_0
  6
Continuous
 62
     7
370
    30
100
AcDbLine
 10
6.881625
 20
-6.206354
 30
0.0
 11
6.830865
 21
-6.257125
 31
0.0
  0
LINE
  5
175
330
618
100
AcDbEntity
  8
_0
  6
Continuous
 62
     7
370
    30
100
AcDbLine
 10
6.953458
 20
-6.134521
 30
0.0
 11
6.924187
 21
-6.163792
 31
0.0
  0
LINE
  5
176
330
618
100
AcDbEntity
  8
_0
  6
Continuous
 62
     7
370
    30
100
AcDbLine
 10
6.987604
 20
-6.096844
 30
0.0
 11
6.965167
 21
-6.119271
 31
0.0
  0
LINE
  5
177
330
618
100
AcDbEntity
  8
_0
  6
Continuous
 62
     7
370
    30
100
AcDbLine
 10
6.876448
 20
-6.20799
 30
0.0
 11
6.827323
 21
-6.257125
 31
0.0
  0
LINE
  5
178
330
618
100
AcDbEntity
  8
_0
  6
Continuous
 62
     7
370
    30
100
AcDbLine
 10
6.953458
 20
-6.13099
 30
0.0
 11
6.924187
 21
-6.16025
 31
0.0
  0
LINE
  5
179
330
618
100
AcDbEntity
  8
_0
  6
Continuous
 62
     7
370
    30
100
AcDbLine
 10
6.987604
 20
-6.093302
 30
0.0
 11
6.961635
 21
-6.119271
 31
0.0
  0
LINE
  5
17A
330
618
100
AcDbEntity
  8
_0
  6
Continuous
 62
     7
370
    30
100
AcDbLine
 10
6.870917
 20
-6.20999
 30
0.0
 11
6.823792
 21
-6.257125
 31
0.0
  0
LINE
  5
17B
330
618
100
AcDbEntity
  8
_0
  6
Continuous
 62
     7
370
    30
100
AcDbLine
 10
6.953458
 20
-6.127448
 30
0.0
 11
6.924187
 21
-6.156719
 31
0.0
  0
LINE
  5
17C
330
618
100
AcDbEntity
  8
_0
  6
Continuous
 62
     7
370
    30
100
AcDbLine
 10
6.987604
 20
-6.089771
 30
0.0
 11
6.958094
 21
-6.119271
 31
0.0
  0
LINE
  5
17D
330
618
100
AcDbEntity
  8
_0
  6
Continuous
 62
     7
370
    30
100
AcDbLine
 10
6.865385
 20
-6.21199
 30
0.0
 11
6.82025
 21
-6.257125
 31
0.0
  0
LINE
  5
17E
330
618
100
AcDbEntity
  8
_0
  6
Continuous
 62
     7
370
    30
100
AcDbLine
 10
6.953458
 20
-6.123917
 30
0.0
 11
6.924187
 21
-6.153177
 31
0.0
  0
LINE
  5
17F
330
618
100
AcDbEntity
  8
_0
  6
Continuous
 62
     7
370
    30
100
AcDbLine
 10
6.987604
 20
-6.086229
 30
0.0
 11
6.954562
 21
-6.119271
 31
0.0
  0
LINE
  5
180
330
618
100
AcDbEntity
  8
_0
  6
Continuous
 62
     7
370
    30
100
AcDbLine
 10
6.859844
 20
-6.21399
 30
0.0
 11
6.816719
 21
-6.257125
 31
0.0
  0
LINE
  5
181
330
618
100
AcDbEntity
  8
_0
  6
Continuous
 62
     7
370
    30
100
AcDbLine
 10
6.953458
 20
-6.120375
 30
0.0
 11
6.924187
 21
-6.149646
 31
0.0
  0
LINE
  5
182
330
618
100
AcDbEntity
  8
_0
  6
Continuous
 62
     7
370
    30
100
AcDbLine
 10
6.987604
 20
-6.082698
 30
0.0
 11
6.924187
 21
-6.146115
 31
0.0
  0
LINE
  5
183
330
618
100
AcDbEntity
  8
_0
  6
Continuous
 62
     7
370
    30
100
AcDbLine
 10
6.854312
 20
-6.21599
 30
0.0
 11
6.813177
 21
-6.257125
 31
0.0
  0
LINE
  5
184
330
618
100
AcDbEntity
  8
_0
  6
Continuous
 62
     7
370
    30
100
AcDbLine
 10
6.987604
 20
-6.079167
 30
0.0
 11
6.924187
 21
-6.142573
 31
0.0
  0
LINE
  5
185
330
618
100
AcDbEntity
  8
_0
  6
Continuous
 62
     7
370
    30
100
AcDbLine
 10
6.848771
 20
-6.21799
 30
0.0
 11
6.809646
 21
-6.257125
 31
0.0
  0
LINE
  5
186
330
618
100
AcDbEntity
  8
_0
  6
Continuous
 62
     7
370
    30
100
AcDbLine
 10
6.987604
 20
-6.075625
 30
0.0
 11
6.924187
 21
-6.139042
 31
0.0
  0
LINE
  5
187
330
618
100
AcDbEntity
  8
_0
  6
Continuous
 62
     7
370
    30
100
AcDbLine
 10
6.84324
 20
-6.21999
 30
0.0
 11
6.806115
 21
-6.257125
 31
0.0
  0
LINE
  5
188
330
618
100
AcDbEntity
  8
_0
  6
Continuous
 62
     7
370
    30
100
AcDbLine
 10
6.987604
 20
-6.072094
 30
0.0
 11
6.924187
 21
-6.1355
 31
0.0
  0
LINE
  5
189
330
618
100
AcDbEntity
  8
_0
  6
Continuous
 62
     7
370
    30
100
AcDbLine
 10
6.837708
 20
-6.22199
 30
0.0
 11
6.802573
 21
-6.257125
 31
0.0
  0
LINE
  5
18A
330
618
100
AcDbEntity
  8
_0
  6
Continuous
 62
     7
370
    30
100
AcDbLine
 10
6.987604
 20
-6.068552
 30
0.0
 11
6.924187
 21
-6.131969
 31
0.0
  0
LINE
  5
18B
330
618
100
AcDbEntity
  8
_0
  6
Continuous
 62
     7
370
    30
100
AcDbLine
 10
6.832167
 20
-6.22399
 30
0.0
 11
6.799042
 21
-6.257125
 31
0.0
  0
LINE
  5
18C
330
618
100
AcDbEntity
  8
_0
  6
Continuous
 62
     7
370
    30
100
AcDbLine
 10
6.987604
 20
-6.065021
 30
0.0
 11
6.924187
 21
-6.128437
 31
0.0
  0
LINE
  5
18D
330
618
100
AcDbEntity
  8
_0
  6
Continuous
 62
     7
370
    30
100
AcDbLine
 10
6.826635
 20
-6.22599
 30
0.0
 11
6.7955
 21
-6.257125
 31
0.0
  0
LINE
  5
18E
330
618
100
AcDbEntity
  8
_0
  6
Continuous
 62
     7
370
    30
100
AcDbLine
 10
6.987604
 20
-6.06149
 30
0.0
 11
6.924187
 21
-6.124896
 31
0.0
  0
LINE
  5
18F
330
618
100
AcDbEntity
  8
_0
  6
Continuous
 62
     7
370
    30
100
AcDbLine
 10
6.821094
 20
-6.22799
 30
0.0
 11
6.791969
 21
-6.257125
 31
0.0
  0
LINE
  5
190
330
618
100
AcDbEntity
  8
_0
  6
Continuous
 62
     7
370
    30
100
AcDbLine
 10
6.987604
 20
-6.057948
 30
0.0
 11
6.924187
 21
-6.121365
 31
0.0
  0
LINE
  5
191
330
618
100
AcDbEntity
  8
_0
  6
Continuous
 62
     7
370
    30
100
AcDbLine
 10
6.815562
 20
-6.22999
 30
0.0
 11
6.788437
 21
-6.257125
 31
0.0
  0
LINE
  5
192
330
618
100
AcDbEntity
  8
_0
  6
Continuous
 62
     7
370
    30
100
AcDbLine
 10
6.986833
 20
-6.055187
 30
0.0
 11
6.92274
 21
-6.119271
 31
0.0
  0
LINE
  5
193
330
618
100
AcDbEntity
  8
_0
  6
Continuous
 62
     7
370
    30
100
AcDbLine
 10
6.810031
 20
-6.23199
 30
0.0
 11
6.784896
 21
-6.257125
 31
0.0
  0
LINE
  5
194
330
618
100
AcDbEntity
  8
_0
  6
Continuous
 62
     7
370
    30
100
AcDbLine
 10
6.983292
 20
-6.055187
 30
0.0
 11
6.919208
 21
-6.119271
 31
0.0
  0
LINE
  5
195
330
618
100
AcDbEntity
  8
_0
  6
Continuous
 62
     7
370
    30
100
AcDbLine
 10
6.80449
 20
-6.23399
 30
0.0
 11
6.781365
 21
-6.257125
 31
0.0
  0
LINE
  5
196
330
618
100
AcDbEntity
  8
_0
  6
Continuous
 62
     7
370
    30
100
AcDbLine
 10
6.97976
 20
-6.055187
 30
0.0
 11
6.915667
 21
-6.119271
 31
0.0
  0
LINE
  5
197
330
618
100
AcDbEntity
  8
_0
  6
Continuous
 62
     7
370
    30
100
AcDbLine
 10
6.798958
 20
-6.23599
 30
0.0
 11
6.777823
 21
-6.257125
 31
0.0
  0
LINE
  5
198
330
618
100
AcDbEntity
  8
_0
  6
Continuous
 62
     7
370
    30
100
AcDbLine
 10
6.976229
 20
-6.055187
 30
0.0
 11
6.912135
 21
-6.119271
 31
0.0
  0
LINE
  5
199
330
618
100
AcDbEntity
  8
_0
  6
Continuous
 62
     7
370
    30
100
AcDbLine
 10
6.793417
 20
-6.23799
 30
0.0
 11
6.774292
 21
-6.257125
 31
0.0
  0
LINE
  5
19A
330
618
100
AcDbEntity
  8
_0
  6
Continuous
 62
     7
370
    30
100
AcDbLine
 10
6.972688
 20
-6.055187
 30
0.0
 11
6.908604
 21
-6.119271
 31
0.0
  0
LINE
  5
19B
330
618
100
AcDbEntity
  8
_0
  6
Continuous
 62
     7
370
    30
100
AcDbLine
 10
6.787885
 20
-6.23999
 30
0.0
 11
6.77076
 21
-6.257125
 31
0.0
  0
LINE
  5
19C
330
618
100
AcDbEntity
  8
_0
  6
Continuous
 62
     7
370
    30
100
AcDbLine
 10
6.969156
 20
-6.055187
 30
0.0
 11
6.905062
 21
-6.119271
 31
0.0
  0
LINE
  5
19D
330
618
100
AcDbEntity
  8
_0
  6
Continuous
 62
     7
370
    30
100
AcDbLine
 10
6.782344
 20
-6.24199
 30
0.0
 11
6.767219
 21
-6.257125
 31
0.0
  0
LINE
  5
19E
330
618
100
AcDbEntity
  8
_0
  6
Continuous
 62
     7
370
    30
100
AcDbLine
 10
6.965615
 20
-6.055187
 30
0.0
 11
6.901531
 21
-6.119271
 31
0.0
  0
LINE
  5
19F
330
618
100
AcDbEntity
  8
_0
  6
Continuous
 62
     7
370
    30
100
AcDbLine
 10
6.776813
 20
-6.24399
 30
0.0
 11
6.763687
 21
-6.257125
 31
0.0
  0
LINE
  5
1A0
330
618
100
AcDbEntity
  8
_0
  6
Continuous
 62
     7
370
    30
100
AcDbLine
 10
6.962083
 20
-6.055187
 30
0.0
 11
6.89799
 21
-6.119271
 31
0.0
  0
LINE
  5
1A1
330
618
100
AcDbEntity
  8
_0
  6
Continuous
 62
     7
370
    30
100
AcDbLine
 10
6.771281
 20
-6.24599
 30
0.0
 11
6.760146
 21
-6.257125
 31
0.0
  0
LINE
  5
1A2
330
618
100
AcDbEntity
  8
_0
  6
Continuous
 62
     7
370
    30
100
AcDbLine
 10
6.958552
 20
-6.055187
 30
0.0
 11
6.894458
 21
-6.119271
 31
0.0
  0
LINE
  5
1A3
330
618
100
AcDbEntity
  8
_0
  6
Continuous
 62
     7
370
    30
100
AcDbLine
 10
6.76574
 20
-6.24799
 30
0.0
 11
6.756615
 21
-6.257125
 31
0.0
  0
LINE
  5
1A4
330
618
100
AcDbEntity
  8
_0
  6
Continuous
 62
     7
370
    30
100
AcDbLine
 10
6.95501
 20
-6.055187
 30
0.0
 11
6.890927
 21
-6.119271
 31
0.0
  0
LINE
  5
1A5
330
618
100
AcDbEntity
  8
_0
  6
Continuous
 62
     7
370
    30
100
AcDbLine
 10
6.760208
 20
-6.24999
 30
0.0
 11
6.753073
 21
-6.257125
 31
0.0
  0
LINE
  5
1A6
330
618
100
AcDbEntity
  8
_0
  6
Continuous
 62
     7
370
    30
100
AcDbLine
 10
6.951479
 20
-6.055187
 30
0.0
 11
6.890042
 21
-6.116615
 31
0.0
  0
LINE
  5
1A7
330
618
100
AcDbEntity
  8
_0
  6
Continuous
 62
     7
370
    30
100
AcDbLine
 10
6.754667
 20
-6.25199
 30
0.0
 11
6.749542
 21
-6.257125
 31
0.0
  0
LINE
  5
1A8
330
618
100
AcDbEntity
  8
_0
  6
Continuous
 62
     7
370
    30
100
AcDbLine
 10
6.947938
 20
-6.055187
 30
0.0
 11
6.890042
 21
-6.113083
 31
0.0
  0
LINE
  5
1A9
330
618
100
AcDbEntity
  8
_0
  6
Continuous
 62
     7
370
    30
100
AcDbLine
 10
6.749135
 20
-6.25399
 30
0.0
 11
6.74601
 21
-6.257125
 31
0.0
  0
LINE
  5
1AA
330
618
100
AcDbEntity
  8
_0
  6
Continuous
 62
     7
370
    30
100
AcDbLine
 10
6.944406
 20
-6.055187
 30
0.0
 11
6.890042
 21
-6.109542
 31
0.0
  0
LINE
  5
1AB
330
618
100
AcDbEntity
  8
_0
  6
Continuous
 62
     7
370
    30
100
AcDbLine
 10
6.743604
 20
-6.25599
 30
0.0
 11
6.742469
 21
-6.257125
 31
0.0
  0
LINE
  5
1AC
330
618
100
AcDbEntity
  8
_0
  6
Continuous
 62
     7
370
    30
100
AcDbLine
 10
6.940865
 20
-6.055187
 30
0.0
 11
6.890042
 21
-6.10601
 31
0.0
  0
LINE
  5
1AD
330
618
100
AcDbEntity
  8
_0
  6
Continuous
 62
     7
370
    30
100
AcDbLine
 10
6.937333
 20
-6.055187
 30
0.0
 11
6.890042
 21
-6.102469
 31
0.0
  0
LINE
  5
1AE
330
618
100
AcDbEntity
  8
_0
  6
Continuous
 62
     7
370
    30
100
AcDbLine
 10
6.933802
 20
-6.055187
 30
0.0
 11
6.890042
 21
-6.098937
 31
0.0
  0
LINE
  5
1AF
330
618
100
AcDbEntity
  8
_0
  6
Continuous
 62
     7
370
    30
100
AcDbLine
 10
6.93026
 20
-6.055187
 30
0.0
 11
6.890042
 21
-6.095406
 31
0.0
  0
LINE
  5
1B0
330
618
100
AcDbEntity
  8
_0
  6
Continuous
 62
     7
370
    30
100
AcDbLine
 10
6.926729
 20
-6.055187
 30
0.0
 11
6.890042
 21
-6.091865
 31
0.0
  0
LINE
  5
1B1
330
618
100
AcDbEntity
  8
_0
  6
Continuous
 62
     7
370
    30
100
AcDbLine
 10
6.923188
 20
-6.055187
 30
0.0
 11
6.890042
 21
-6.088333
 31
0.0
  0
LINE
  5
1B2
330
618
100
AcDbEntity
  8
_0
  6
Continuous
 62
     7
370
    30
100
AcDbLine
 10
6.919656
 20
-6.055187
 30
0.0
 11
6.890042
 21
-6.084792
 31
0.0
  0
LINE
  5
1B3
330
618
100
AcDbEntity
  8
_0
  6
Continuous
 62
     7
370
    30
100
AcDbLine
 10
6.916125
 20
-6.055187
 30
0.0
 11
6.890042
 21
-6.08126
 31
0.0
  0
LINE
  5
1B4
330
618
100
AcDbEntity
  8
_0
  6
Continuous
 62
     7
370
    30
100
AcDbLine
 10
6.912583
 20
-6.055187
 30
0.0
 11
6.890042
 21
-6.077729
 31
0.0
  0
LINE
  5
1B5
330
618
100
AcDbEntity
  8
_0
  6
Continuous
 62
     7
370
    30
100
AcDbLine
 10
6.909052
 20
-6.055187
 30
0.0
 11
6.890042
 21
-6.074187
 31
0.0
  0
LINE
  5
1B6
330
618
100
AcDbEntity
  8
_0
  6
Continuous
 62
     7
370
    30
100
AcDbLine
 10
6.90551
 20
-6.055187
 30
0.0
 11
6.890042
 21
-6.070656
 31
0.0
  0
LINE
  5
1B7
330
618
100
AcDbEntity
  8
_0
  6
Continuous
 62
     7
370
    30
100
AcDbLine
 10
6.901979
 20
-6.055187
 30
0.0
 11
6.890042
 21
-6.067115
 31
0.0
  0
LINE
  5
1B8
330
618
100
AcDbEntity
  8
_0
  6
Continuous
 62
     7
370
    30
100
AcDbLine
 10
6.898448
 20
-6.055187
 30
0.0
 11
6.890042
 21
-6.063583
 31
0.0
  0
LINE
  5
1B9
330
618
100
AcDbEntity
  8
_0
  6
Continuous
 62
     7
370
    30
100
AcDbLine
 10
6.894906
 20
-6.055187
 30
0.0
 11
6.890042
 21
-6.060052
 31
0.0
  0
LINE
  5
1BA
330
618
100
AcDbEntity
  8
_0
  6
Continuous
 62
     7
370
    30
100
AcDbLine
 10
6.891375
 20
-6.055187
 30
0.0
 11
6.890042
 21
-6.05651
 31
0.0
  0
LINE
  5
1BB
330
618
100
AcDbEntity
  8
HATCH
  6
Continuous
 62
     7
370
    30
100
AcDbLine
 10
8.017083
 20
-6.452583
 30
0.0
 11
7.977531
 21
-6.475417
 31
0.0
  0
LINE
  5
1BC
330
618
100
AcDbEntity
  8
HATCH
  6
Continuous
 62
     7
370
    30
100
AcDbLine
 10
7.928812
 20
-6.503542
 30
0.0
 11
7.880104
 21
-6.531667
 31
0.0
  0
LINE
  5
1BD
330
618
100
AcDbEntity
  8
HATCH
  6
Continuous
 62
     7
370
    30
100
AcDbLine
 10
7.831385
 20
-6.559792
 30
0.0
 11
7.782677
 21
-6.587917
 31
0.0
  0
LINE
  5
1BE
330
618
100
AcDbEntity
  8
HATCH
  6
Continuous
 62
     7
370
    30
100
AcDbLine
 10
7.733958
 20
-6.616042
 30
0.0
 11
7.712875
 21
-6.628219
 31
0.0
  0
LINE
  5
1BF
330
618
100
AcDbEntity
  8
HATCH
  6
Continuous
 62
     7
370
    30
100
AcDbLine
 10
7.912656
 20
-6.400375
 30
0.0
 11
7.880104
 21
-6.419167
 31
0.0
  0
LINE
  5
1C0
330
618
100
AcDbEntity
  8
HATCH
  6
Continuous
 62
     7
370
    30
100
AcDbLine
 10
7.831385
 20
-6.447292
 30
0.0
 11
7.782677
 21
-6.475417
 31
0.0
  0
LINE
  5
1C1
330
618
100
AcDbEntity
  8
HATCH
  6
Continuous
 62
     7
370
    30
100
AcDbLine
 10
7.733958
 20
-6.503542
 30
0.0
 11
7.68525
 21
-6.531667
 31
0.0
  0
LINE
  5
1C2
330
618
100
AcDbEntity
  8
HATCH
  6
Continuous
 62
     7
370
    30
100
AcDbLine
 10
7.80824
 20
-6.348156
 30
0.0
 11
7.782677
 21
-6.362917
 31
0.0
  0
LINE
  5
1C3
330
618
100
AcDbEntity
  8
HATCH
  6
Continuous
 62
     7
370
    30
100
AcDbLine
 10
7.733958
 20
-6.391042
 30
0.0
 11
7.68525
 21
-6.419167
 31
0.0
  0
LINE
  5
1C4
330
618
100
AcDbEntity
  8
HATCH
  6
Continuous
 62
     7
370
    30
100
AcDbLine
 10
7.636531
 20
-6.447292
 30
0.0
 11
7.611521
 21
-6.461729
 31
0.0
  0
LINE
  5
1C5
330
618
100
AcDbEntity
  8
HATCH
  6
Continuous
 62
     7
370
    30
100
AcDbLine
 10
7.703812
 20
-6.295948
 30
0.0
 11
7.68525
 21
-6.306667
 31
0.0
  0
LINE
  5
1C6
330
618
100
AcDbEntity
  8
HATCH
  6
Continuous
 62
     7
370
    30
100
AcDbLine
 10
7.636531
 20
-6.334792
 30
0.0
 11
7.587823
 21
-6.362917
 31
0.0
  0
LINE
  5
1C7
330
618
100
AcDbEntity
  8
HATCH
  6
Continuous
 62
     7
370
    30
100
AcDbLine
 10
7.539104
 20
-6.278542
 30
0.0
 11
7.490396
 21
-6.306667
 31
0.0
  0
LINE
  5
1C8
330
618
100
AcDbEntity
  8
HATCH
  6
Continuous
 62
     7
370
    30
100
AcDbLine
 10
8.1215
 20
-6.504792
 30
0.0
 11
8.074958
 21
-6.531667
 31
0.0
  0
LINE
  5
1C9
330
618
100
AcDbEntity
  8
HATCH
  6
Continuous
 62
     7
370
    30
100
AcDbLine
 10
8.02624
 20
-6.559792
 30
0.0
 11
7.977531
 21
-6.587917
 31
0.0
  0
LINE
  5
1CA
330
618
100
AcDbEntity
  8
HATCH
  6
Continuous
 62
     7
370
    30
100
AcDbLine
 10
7.928812
 20
-6.616042
 30
0.0
 11
7.880104
 21
-6.644167
 31
0.0
  0
LINE
  5
1CB
330
618
100
AcDbEntity
  8
HATCH
  6
Continuous
 62
     7
370
    30
100
AcDbLine
 10
7.831385
 20
-6.672292
 30
0.0
 11
7.810062
 21
-6.684604
 31
0.0
  0
LINE
  5
1CC
330
618
100
AcDbEntity
  8
HATCH
  6
Continuous
 62
     7
370
    30
100
AcDbLine
 10
8.221104
 20
-6.559792
 30
0.0
 11
8.172385
 21
-6.587917
 31
0.0
  0
LINE
  5
1CD
330
618
100
AcDbEntity
  8
HATCH
  6
Continuous
 62
     7
370
    30
100
AcDbLine
 10
8.123677
 20
-6.616042
 30
0.0
 11
8.074958
 21
-6.644167
 31
0.0
  0
LINE
  5
1CE
330
618
100
AcDbEntity
  8
HATCH
  6
Continuous
 62
     7
370
    30
100
AcDbLine
 10
8.02624
 20
-6.672292
 30
0.0
 11
7.977531
 21
-6.700417
 31
0.0
  0
LINE
  5
1CF
330
618
100
AcDbEntity
  8
HATCH
  6
Continuous
 62
     7
370
    30
100
AcDbLine
 10
8.318531
 20
-6.616042
 30
0.0
 11
8.269813
 21
-6.644167
 31
0.0
  0
LINE
  5
1D0
330
618
100
AcDbEntity
  8
HATCH
  6
Continuous
 62
     7
370
    30
100
AcDbLine
 10
8.221104
 20
-6.672292
 30
0.0
 11
8.172385
 21
-6.700417
 31
0.0
  0
LINE
  5
1D1
330
618
100
AcDbEntity
  8
HATCH
  6
Continuous
 62
     7
370
    30
100
AcDbLine
 10
8.415958
 20
-6.672292
 30
0.0
 11
8.36724
 21
-6.700417
 31
0.0
  0
LINE
  5
1D2
330
618
100
AcDbEntity
  8
HATCH
  6
Continuous
 62
     7
370
    30
100
AcDbLine
 10
8.512135
 20
-6.727823
 30
0.0
 11
8.464667
 21
-6.700417
 31
0.0
  0
LINE
  5
1D3
330
618
100
AcDbEntity
  8
HATCH
  6
Continuous
 62
     7
370
    30
100
AcDbLine
 10
8.415958
 20
-6.672292
 30
0.0
 11
8.36724
 21
-6.644167
 31
0.0
  0
LINE
  5
1D4
330
618
100
AcDbEntity
  8
HATCH
  6
Continuous
 62
     7
370
    30
100
AcDbLine
 10
8.318531
 20
-6.616042
 30
0.0
 11
8.269813
 21
-6.587917
 31
0.0
  0
LINE
  5
1D5
330
618
100
AcDbEntity
  8
HATCH
  6
Continuous
 62
     7
370
    30
100
AcDbLine
 10
8.221104
 20
-6.559792
 30
0.0
 11
8.172385
 21
-6.531667
 31
0.0
  0
LINE
  5
1D6
330
618
100
AcDbEntity
  8
HATCH
  6
Continuous
 62
     7
370
    30
100
AcDbLine
 10
8.307479
 20
-6.722167
 30
0.0
 11
8.269813
 21
-6.700417
 31
0.0
  0
LINE
  5
1D7
330
618
100
AcDbEntity
  8
HATCH
  6
Continuous
 62
     7
370
    30
100
AcDbLine
 10
8.221104
 20
-6.672292
 30
0.0
 11
8.172385
 21
-6.644167
 31
0.0
  0
LINE
  5
1D8
330
618
100
AcDbEntity
  8
HATCH
  6
Continuous
 62
     7
370
    30
100
AcDbLine
 10
8.123677
 20
-6.616042
 30
0.0
 11
8.074958
 21
-6.587917
 31
0.0
  0
LINE
  5
1D9
330
618
100
AcDbEntity
  8
HATCH
  6
Continuous
 62
     7
370
    30
100
AcDbLine
 10
8.02624
 20
-6.559792
 30
0.0
 11
7.977531
 21
-6.531667
 31
0.0
  0
LINE
  5
1DA
330
618
100
AcDbEntity
  8
HATCH
  6
Continuous
 62
     7
370
    30
100
AcDbLine
 10
7.928812
 20
-6.503542
 30
0.0
 11
7.880104
 21
-6.475417
 31
0.0
  0
LINE
  5
1DB
330
618
100
AcDbEntity
  8
HATCH
  6
Continuous
 62
     7
370
    30
100
AcDbLine
 10
7.831385
 20
-6.447292
 30
0.0
 11
7.782677
 21
-6.419167
 31
0.0
  0
LINE
  5
1DC
330
618
100
AcDbEntity
  8
HATCH
  6
Continuous
 62
     7
370
    30
100
AcDbLine
 10
7.733958
 20
-6.391042
 30
0.0
 11
7.68525
 21
-6.362917
 31
0.0
  0
LINE
  5
1DD
330
618
100
AcDbEntity
  8
HATCH
  6
Continuous
 62
     7
370
    30
100
AcDbLine
 10
7.636531
 20
-6.334792
 30
0.0
 11
7.587823
 21
-6.306667
 31
0.0
  0
LINE
  5
1DE
330
618
100
AcDbEntity
  8
HATCH
  6
Continuous
 62
     7
370
    30
100
AcDbLine
 10
7.539104
 20
-6.278542
 30
0.0
 11
7.502
 21
-6.257125
 31
0.0
  0
LINE
  5
1DF
330
618
100
AcDbEntity
  8
HATCH
  6
Continuous
 62
     7
370
    30
100
AcDbLine
 10
8.102823
 20
-6.71651
 30
0.0
 11
8.074958
 21
-6.700417
 31
0.0
  0
LINE
  5
1E0
330
618
100
AcDbEntity
  8
HATCH
  6
Continuous
 62
     7
370
    30
100
AcDbLine
 10
8.02624
 20
-6.672292
 30
0.0
 11
7.977531
 21
-6.644167
 31
0.0
  0
LINE
  5
1E1
330
618
100
AcDbEntity
  8
HATCH
  6
Continuous
 62
     7
370
    30
100
AcDbLine
 10
7.928812
 20
-6.616042
 30
0.0
 11
7.880104
 21
-6.587917
 31
0.0
  0
LINE
  5
1E2
330
618
100
AcDbEntity
  8
HATCH
  6
Continuous
 62
     7
370
    30
100
AcDbLine
 10
7.831385
 20
-6.559792
 30
0.0
 11
7.782677
 21
-6.531667
 31
0.0
  0
LINE
  5
1E3
330
618
100
AcDbEntity
  8
HATCH
  6
Continuous
 62
     7
370
    30
100
AcDbLine
 10
7.733958
 20
-6.503542
 30
0.0
 11
7.68525
 21
-6.475417
 31
0.0
  0
LINE
  5
1E4
330
618
100
AcDbEntity
  8
HATCH
  6
Continuous
 62
     7
370
    30
100
AcDbLine
 10
7.636531
 20
-6.447292
 30
0.0
 11
7.587823
 21
-6.419167
 31
0.0
  0
LINE
  5
1E5
330
618
100
AcDbEntity
  8
HATCH
  6
Continuous
 62
     7
370
    30
100
AcDbLine
 10
7.898167
 20
-6.710844
 30
0.0
 11
7.880104
 21
-6.700417
 31
0.0
  0
LINE
  5
1E6
330
618
100
AcDbEntity
  8
HATCH
  6
Continuous
 62
     7
370
    30
100
AcDbLine
 10
7.831385
 20
-6.672292
 30
0.0
 11
7.782677
 21
-6.644167
 31
0.0
  0
LINE
  5
1E7
330
618
100
AcDbEntity
  8
HATCH
  6
Continuous
 62
     7
370
    30
100
AcDbLine
 10
7.733958
 20
-6.616042
 30
0.0
 11
7.68525
 21
-6.587917
 31
0.0
  0
LINE
  5
1E8
330
618
100
AcDbEntity
  8
HATCH
  6
Continuous
 62
     7
370
    30
100
AcDbLine
 10
8.074958
 20
-6.481521
 30
0.0
 11
8.074958
 21
-6.531667
 31
0.0
  0
LINE
  5
1E9
330
618
100
AcDbEntity
  8
HATCH
  6
Continuous
 62
     7
370
    30
100
AcDbLine
 10
8.074958
 20
-6.587917
 30
0.0
 11
8.074958
 21
-6.644167
 31
0.0
  0
LINE
  5
1EA
330
618
100
AcDbEntity
  8
HATCH
  6
Continuous
 62
     7
370
    30
100
AcDbLine
 10
8.074958
 20
-6.700417
 30
0.0
 11
8.074958
 21
-6.71574
 31
0.0
  0
LINE
  5
1EB
330
618
100
AcDbEntity
  8
HATCH
  6
Continuous
 62
     7
370
    30
100
AcDbLine
 10
7.977531
 20
-6.432802
 30
0.0
 11
7.977531
 21
-6.475417
 31
0.0
  0
LINE
  5
1EC
330
618
100
AcDbEntity
  8
HATCH
  6
Continuous
 62
     7
370
    30
100
AcDbLine
 10
7.977531
 20
-6.531667
 30
0.0
 11
7.977531
 21
-6.587917
 31
0.0
  0
LINE
  5
1ED
330
618
100
AcDbEntity
  8
HATCH
  6
Continuous
 62
     7
370
    30
100
AcDbLine
 10
7.977531
 20
-6.644167
 30
0.0
 11
7.977531
 21
-6.700417
 31
0.0
  0
LINE
  5
1EE
330
618
100
AcDbEntity
  8
HATCH
  6
Continuous
 62
     7
370
    30
100
AcDbLine
 10
7.880104
 20
-6.384094
 30
0.0
 11
7.880104
 21
-6.419167
 31
0.0
  0
LINE
  5
1EF
330
618
100
AcDbEntity
  8
HATCH
  6
Continuous
 62
     7
370
    30
100
AcDbLine
 10
7.880104
 20
-6.475417
 30
0.0
 11
7.880104
 21
-6.531667
 31
0.0
  0
LINE
  5
1F0
330
618
100
AcDbEntity
  8
HATCH
  6
Continuous
 62
     7
370
    30
100
AcDbLine
 10
7.880104
 20
-6.587917
 30
0.0
 11
7.880104
 21
-6.644167
 31
0.0
  0
LINE
  5
1F1
330
618
100
AcDbEntity
  8
HATCH
  6
Continuous
 62
     7
370
    30
100
AcDbLine
 10
7.880104
 20
-6.700417
 30
0.0
 11
7.880104
 21
-6.710344
 31
0.0
  0
LINE
  5
1F2
330
618
100
AcDbEntity
  8
HATCH
  6
Continuous
 62
     7
370
    30
100
AcDbLine
 10
7.782677
 20
-6.335375
 30
0.0
 11
7.782677
 21
-6.362917
 31
0.0
  0
LINE
  5
1F3
330
618
100
AcDbEntity
  8
HATCH
  6
Continuous
 62
     7
370
    30
100
AcDbLine
 10
7.782677
 20
-6.419167
 30
0.0
 11
7.782677
 21
-6.475417
 31
0.0
  0
LINE
  5
1F4
330
618
100
AcDbEntity
  8
HATCH
  6
Continuous
 62
     7
370
    30
100
AcDbLine
 10
7.782677
 20
-6.531667
 30
0.0
 11
7.782677
 21
-6.587917
 31
0.0
  0
LINE
  5
1F5
330
618
100
AcDbEntity
  8
HATCH
  6
Continuous
 62
     7
370
    30
100
AcDbLine
 10
7.782677
 20
-6.644167
 30
0.0
 11
7.782677
 21
-6.668719
 31
0.0
  0
LINE
  5
1F6
330
618
100
AcDbEntity
  8
HATCH
  6
Continuous
 62
     7
370
    30
100
AcDbLine
 10
7.68525
 20
-6.286667
 30
0.0
 11
7.68525
 21
-6.306667
 31
0.0
  0
LINE
  5
1F7
330
618
100
AcDbEntity
  8
HATCH
  6
Continuous
 62
     7
370
    30
100
AcDbLine
 10
7.68525
 20
-6.362917
 30
0.0
 11
7.68525
 21
-6.419167
 31
0.0
  0
LINE
  5
1F8
330
618
100
AcDbEntity
  8
HATCH
  6
Continuous
 62
     7
370
    30
100
AcDbLine
 10
7.68525
 20
-6.475417
 30
0.0
 11
7.68525
 21
-6.531667
 31
0.0
  0
LINE
  5
1F9
330
618
100
AcDbEntity
  8
HATCH
  6
Continuous
 62
     7
370
    30
100
AcDbLine
 10
7.68525
 20
-6.587917
 30
0.0
 11
7.68525
 21
-6.612188
 31
0.0
  0
LINE
  5
1FA
330
618
100
AcDbEntity
  8
HATCH
  6
Continuous
 62
     7
370
    30
100
AcDbLine
 10
7.587823
 20
-6.306667
 30
0.0
 11
7.587823
 21
-6.362917
 31
0.0
  0
LINE
  5
1FB
330
618
100
AcDbEntity
  8
HATCH
  6
Continuous
 62
     7
370
    30
100
AcDbLine
 10
7.587823
 20
-6.419167
 30
0.0
 11
7.587823
 21
-6.428552
 31
0.0
  0
LINE
  5
1FC
330
618
100
AcDbEntity
  8
HATCH
  6
Continuous
 62
     7
370
    30
100
AcDbLine
 10
7.490396
 20
-6.257125
 30
0.0
 11
7.490396
 21
-6.306667
 31
0.0
  0
LINE
  5
1FD
330
618
100
AcDbEntity
  8
HATCH
  6
Continuous
 62
     7
370
    30
100
AcDbLine
 10
8.172385
 20
-6.531667
 30
0.0
 11
8.172385
 21
-6.587917
 31
0.0
  0
LINE
  5
1FE
330
618
100
AcDbEntity
  8
HATCH
  6
Continuous
 62
     7
370
    30
100
AcDbLine
 10
8.172385
 20
-6.644167
 30
0.0
 11
8.172385
 21
-6.700417
 31
0.0
  0
LINE
  5
1FF
330
618
100
AcDbEntity
  8
HATCH
  6
Continuous
 62
     7
370
    30
100
AcDbLine
 10
8.269813
 20
-6.587917
 30
0.0
 11
8.269813
 21
-6.644167
 31
0.0
  0
LINE
  5
200
330
618
100
AcDbEntity
  8
HATCH
  6
Continuous
 62
     7
370
    30
100
AcDbLine
 10
8.269813
 20
-6.700417
 30
0.0
 11
8.269813
 21
-6.721125
 31
0.0
  0
LINE
  5
201
330
618
100
AcDbEntity
  8
HATCH
  6
Continuous
 62
     7
370
    30
100
AcDbLine
 10
8.36724
 20
-6.644167
 30
0.0
 11
8.36724
 21
-6.700417
 31
0.0
  0
LINE
  5
202
330
618
100
AcDbEntity
  8
HATCH
  6
Continuous
 62
     7
370
    30
100
AcDbLine
 10
8.464667
 20
-6.700417
 30
0.0
 11
8.464667
 21
-6.72651
 31
0.0
  0
LINE
  5
203
330
618
100
AcDbEntity
  8
HATCH
  6
Continuous
 62
     7
370
    30
100
AcDbLine
 10
9.418594
 20
-7.001521
 30
0.0
 11
9.392687
 21
-7.027427
 31
0.0
  0
LINE
  5
204
330
618
100
AcDbEntity
  8
HATCH
  6
Continuous
 62
     7
370
    30
100
AcDbLine
 10
9.245427
 20
-6.997906
 30
0.0
 11
9.215917
 21
-7.027427
 31
0.0
  0
LINE
  5
205
330
618
100
AcDbEntity
  8
HATCH
  6
Continuous
 62
     7
370
    30
100
AcDbLine
 10
9.127531
 20
-7.115812
 30
0.0
 11
9.119719
 21
-7.123625
 31
0.0
  0
LINE
  5
206
330
618
100
AcDbEntity
  8
HATCH
  6
Continuous
 62
     7
370
    30
100
AcDbLine
 10
9.07226
 20
-6.994302
 30
0.0
 11
9.039135
 21
-7.027427
 31
0.0
  0
LINE
  5
207
330
618
100
AcDbEntity
  8
HATCH
  6
Continuous
 62
     7
370
    30
100
AcDbLine
 10
8.899094
 20
-6.990698
 30
0.0
 11
8.862365
 21
-7.027427
 31
0.0
  0
LINE
  5
208
330
618
100
AcDbEntity
  8
HATCH
  6
Continuous
 62
     7
370
    30
100
AcDbLine
 10
9.094385
 20
-7.082667
 30
0.0
 11
9.055625
 21
-7.121427
 31
0.0
  0
LINE
  5
209
330
618
100
AcDbEntity
  8
HATCH
  6
Continuous
 62
     7
370
    30
100
AcDbLine
 10
9.007323
 20
-6.992948
 30
0.0
 11
9.00599
 21
-6.994281
 31
0.0
  0
LINE
  5
20A
330
618
100
AcDbEntity
  8
HATCH
  6
Continuous
 62
     7
370
    30
100
AcDbLine
 10
8.834156
 20
-6.989344
 30
0.0
 11
8.829219
 21
-6.994281
 31
0.0
  0
LINE
  5
20B
330
618
100
AcDbEntity
  8
HATCH
  6
Continuous
 62
     7
370
    30
100
AcDbLine
 10
9.414792
 20
-7.049521
 30
0.0
 11
9.326406
 21
-7.137906
 31
0.0
  0
LINE
  5
20C
330
618
100
AcDbEntity
  8
HATCH
  6
Continuous
 62
     7
370
    30
100
AcDbLine
 10
9.23801
 20
-7.049521
 30
0.0
 11
9.152646
 21
-7.134885
 31
0.0
  0
LINE
  5
20D
330
618
100
AcDbEntity
  8
HATCH
  6
Continuous
 62
     7
370
    30
100
AcDbLine
 10
8.884458
 20
-7.049521
 30
0.0
 11
8.823281
 21
-7.110698
 31
0.0
  0
LINE
  5
20E
330
618
100
AcDbEntity
  8
HATCH
  6
Continuous
 62
     7
370
    30
100
AcDbLine
 10
9.5775
 20
-7.063583
 30
0.0
 11
9.503177
 21
-7.137906
 31
0.0
  0
LINE
  5
20F
330
618
100
AcDbEntity
  8
HATCH
  6
Continuous
 62
     7
370
    30
100
AcDbLine
 10
9.392687
 20
-7.049521
 30
0.0
 11
9.343115
 21
-6.999948
 31
0.0
  0
LINE
  5
210
330
618
100
AcDbEntity
  8
HATCH
  6
Continuous
 62
     7
370
    30
100
AcDbLine
 10
9.215917
 20
-7.049521
 30
0.0
 11
9.162583
 21
-6.996187
 31
0.0
  0
LINE
  5
211
330
618
100
AcDbEntity
  8
HATCH
  6
Continuous
 62
     7
370
    30
100
AcDbLine
 10
9.039135
 20
-7.049521
 30
0.0
 11
8.982042
 21
-6.992427
 31
0.0
  0
LINE
  5
212
330
618
100
AcDbEntity
  8
HATCH
  6
Continuous
 62
     7
370
    30
100
AcDbLine
 10
8.862365
 20
-7.049521
 30
0.0
 11
8.8015
 21
-6.988667
 31
0.0
  0
LINE
  5
213
330
618
100
AcDbEntity
  8
HATCH
  6
Continuous
 62
     7
370
    30
100
AcDbLine
 10
9.536323
 20
-7.082667
 30
0.0
 11
9.455958
 21
-7.002302
 31
0.0
  0
LINE
  5
214
330
618
100
AcDbEntity
  8
HATCH
  6
Continuous
 62
     7
370
    30
100
AcDbLine
 10
9.359542
 20
-7.082667
 30
0.0
 11
9.275417
 21
-6.998531
 31
0.0
  0
LINE
  5
215
330
618
100
AcDbEntity
  8
HATCH
  6
Continuous
 62
     7
370
    30
100
AcDbLine
 10
9.182771
 20
-7.082667
 30
0.0
 11
9.094875
 21
-6.994771
 31
0.0
  0
LINE
  5
216
330
618
100
AcDbEntity
  8
HATCH
  6
Continuous
 62
     7
370
    30
100
AcDbLine
 10
9.00599
 20
-7.082667
 30
0.0
 11
8.917604
 21
-6.994281
 31
0.0
  0
LINE
  5
217
330
618
100
AcDbEntity
  8
HATCH
  6
Continuous
 62
     7
370
    30
100
AcDbLine
 10
8.829219
 20
-7.082667
 30
0.0
 11
8.772344
 21
-7.025792
 31
0.0
  0
LINE
  5
218
330
618
100
AcDbEntity
  8
HATCH
  6
Continuous
 62
     7
370
    30
100
AcDbLine
 10
9.503177
 20
-7.115812
 30
0.0
 11
9.414792
 21
-7.027427
 31
0.0
  0
LINE
  5
219
330
618
100
AcDbEntity
  8
HATCH
  6
Continuous
 62
     7
370
    30
100
AcDbLine
 10
9.326406
 20
-7.115812
 30
0.0
 11
9.23801
 21
-7.027427
 31
0.0
  0
LINE
  5
21A
330
618
100
AcDbEntity
  8
HATCH
  6
Continuous
 62
     7
370
    30
100
AcDbLine
 10
9.149625
 20
-7.115812
 30
0.0
 11
9.06124
 21
-7.027427
 31
0.0
  0
LINE
  5
21B
330
618
100
AcDbEntity
  8
HATCH
  6
Continuous
 62
     7
370
    30
100
AcDbLine
 10
8.972844
 20
-7.115812
 30
0.0
 11
8.884458
 21
-7.027427
 31
0.0
  0
LINE
  5
21C
330
618
100
AcDbEntity
  8
HATCH
  6
Continuous
 62
     7
370
    30
100
AcDbLine
 10
8.921625
 20
-6.738323
 30
0.0
 11
8.921625
 21
-6.743635
 31
0.0
  0
LINE
  5
21D
330
618
100
AcDbEntity
  8
HATCH
  6
Continuous
 62
     7
370
    30
100
AcDbLine
 10
8.921625
 20
-6.818635
 30
0.0
 11
8.921625
 21
-6.856135
 31
0.0
  0
LINE
  5
21E
330
618
100
AcDbEntity
  8
HATCH
  6
Continuous
 62
     7
370
    30
100
AcDbLine
 10
8.921625
 20
-6.931135
 30
0.0
 11
8.921625
 21
-6.968635
 31
0.0
  0
LINE
  5
21F
330
618
100
AcDbEntity
  8
HATCH
  6
Continuous
 62
     7
370
    30
100
AcDbLine
 10
8.889146
 20
-6.762385
 30
0.0
 11
8.889146
 21
-6.799885
 31
0.0
  0
LINE
  5
220
330
618
100
AcDbEntity
  8
HATCH
  6
Continuous
 62
     7
370
    13
100
AcDbLine
 10
8.889146
 20
-6.874885
 30
0.0
 11
8.889146
 21
-6.912385
 31
0.0
  0
LINE
  5
221
330
618
100
AcDbEntity
  8
HATCH
  6
Continuous
 62
     7
370
    30
100
AcDbLine
 10
8.889146
 20
-6.987385
 30
0.0
 11
8.889146
 21
-6.99049
 31
0.0
  0
LINE
  5
222
330
618
100
AcDbEntity
  8
HATCH
  6
Continuous
 62
     7
370
    30
100
AcDbLine
 10
8.856677
 20
-6.736969
 30
0.0
 11
8.856677
 21
-6.743635
 31
0.0
  0
LINE
  5
223
330
618
100
AcDbEntity
  8
HATCH
  6
Continuous
 62
     7
370
    30
100
AcDbLine
 10
8.856677
 20
-6.818635
 30
0.0
 11
8.856677
 21
-6.856135
 31
0.0
  0
LINE
  5
224
330
618
100
AcDbEntity
  8
HATCH
  6
Continuous
 62
     7
370
    30
100
AcDbLine
 10
8.856677
 20
-6.931135
 30
0.0
 11
8.856677
 21
-6.968635
 31
0.0
  0
LINE
  5
225
330
618
100
AcDbEntity
  8
HATCH
  6
Continuous
 62
     7
370
    30
100
AcDbLine
 10
8.824198
 20
-6.762385
 30
0.0
 11
8.824198
 21
-6.799885
 31
0.0
  0
LINE
  5
226
330
618
100
AcDbEntity
  8
HATCH
  6
Continuous
 62
     7
370
    30
100
AcDbLine
 10
8.824198
 20
-6.874885
 30
0.0
 11
8.824198
 21
-6.912385
 31
0.0
  0
LINE
  5
227
330
618
100
AcDbEntity
  8
HATCH
  6
Continuous
 62
     7
370
    30
100
AcDbLine
 10
8.791719
 20
-6.735615
 30
0.0
 11
8.791719
 21
-6.743635
 31
0.0
  0
LINE
  5
228
330
618
100
AcDbEntity
  8
HATCH
  6
Continuous
 62
     7
370
    30
100
AcDbLine
 10
8.791719
 20
-6.818635
 30
0.0
 11
8.791719
 21
-6.856135
 31
0.0
  0
LINE
  5
229
330
618
100
AcDbEntity
  8
HATCH
  6
Continuous
 62
     7
370
    30
100
AcDbLine
 10
8.791719
 20
-6.931135
 30
0.0
 11
8.791719
 21
-6.954302
 31
0.0
  0
LINE
  5
22A
330
618
100
AcDbEntity
  8
HATCH
  6
Continuous
 62
     7
370
    30
100
AcDbLine
 10
8.75925
 20
-6.762385
 30
0.0
 11
8.75925
 21
-6.799885
 31
0.0
  0
LINE
  5
22B
330
618
100
AcDbEntity
  8
HATCH
  6
Continuous
 62
     7
370
    30
100
AcDbLine
 10
8.75925
 20
-6.874885
 30
0.0
 11
8.75925
 21
-6.912385
 31
0.0
  0
LINE
  5
22C
330
618
100
AcDbEntity
  8
HATCH
  6
Continuous
 62
     7
370
    30
100
AcDbLine
 10
8.726771
 20
-6.73426
 30
0.0
 11
8.726771
 21
-6.743635
 31
0.0
  0
LINE
  5
22D
330
618
100
AcDbEntity
  8
HATCH
  6
Continuous
 62
     7
370
    30
100
AcDbLine
 10
8.726771
 20
-6.818635
 30
0.0
 11
8.726771
 21
-6.856135
 31
0.0
  0
LINE
  5
22E
330
618
100
AcDbEntity
  8
HATCH
  6
Continuous
 62
     7
370
    30
100
AcDbLine
 10
8.694292
 20
-6.762385
 30
0.0
 11
8.694292
 21
-6.799885
 31
0.0
  0
LINE
  5
22F
330
618
100
AcDbEntity
  8
HATCH
  6
Continuous
 62
     7
370
    30
100
AcDbLine
 10
8.694292
 20
-6.874885
 30
0.0
 11
8.694292
 21
-6.895
 31
0.0
  0
LINE
  5
230
330
618
100
AcDbEntity
  8
HATCH
  6
Continuous
 62
     7
370
    30
100
AcDbLine
 10
8.661823
 20
-6.732906
 30
0.0
 11
8.661823
 21
-6.743635
 31
0.0
  0
LINE
  5
231
330
618
100
AcDbEntity
  8
HATCH
  6
Continuous
 62
     7
370
    30
100
AcDbLine
 10
8.661823
 20
-6.818635
 30
0.0
 11
8.661823
 21
-6.856135
 31
0.0
  0
LINE
  5
232
330
618
100
AcDbEntity
  8
HATCH
  6
Continuous
 62
     7
370
    30
100
AcDbLine
 10
8.629344
 20
-6.762385
 30
0.0
 11
8.629344
 21
-6.799885
 31
0.0
  0
LINE
  5
233
330
618
100
AcDbEntity
  8
HATCH
  6
Continuous
 62
     7
370
    30
100
AcDbLine
 10
8.596865
 20
-6.731552
 30
0.0
 11
8.596865
 21
-6.743635
 31
0.0
  0
LINE
  5
234
330
618
100
AcDbEntity
  8
HATCH
  6
Continuous
 62
     7
370
    30
100
AcDbLine
 10
8.596865
 20
-6.818635
 30
0.0
 11
8.596865
 21
-6.856135
 31
0.0
  0
LINE
  5
235
330
618
100
AcDbEntity
  8
HATCH
  6
Continuous
 62
     7
370
    30
100
AcDbLine
 10
8.564385
 20
-6.762385
 30
0.0
 11
8.564385
 21
-6.799885
 31
0.0
  0
LINE
  5
236
330
618
100
AcDbEntity
  8
HATCH
  6
Continuous
 62
     7
370
    30
100
AcDbLine
 10
8.531917
 20
-6.730198
 30
0.0
 11
8.531917
 21
-6.743635
 31
0.0
  0
LINE
  5
237
330
618
100
AcDbEntity
  8
HATCH
  6
Continuous
 62
     7
370
    30
100
AcDbLine
 10
8.531917
 20
-6.818635
 30
0.0
 11
8.531917
 21
-6.856135
 31
0.0
  0
LINE
  5
238
330
618
100
AcDbEntity
  8
HATCH
  6
Continuous
 62
     7
370
    30
100
AcDbLine
 10
8.499437
 20
-6.762385
 30
0.0
 11
8.499437
 21
-6.799885
 31
0.0
  0
LINE
  5
239
330
618
100
AcDbEntity
  8
HATCH
  6
Continuous
 62
     7
370
    30
100
AcDbLine
 10
8.466958
 20
-6.728844
 30
0.0
 11
8.466958
 21
-6.743635
 31
0.0
  0
LINE
  5
23A
330
618
100
AcDbEntity
  8
HATCH
  6
Continuous
 62
     7
370
    30
100
AcDbLine
 10
8.466958
 20
-6.818635
 30
0.0
 11
8.466958
 21
-6.856135
 31
0.0
  0
LINE
  5
23B
330
618
100
AcDbEntity
  8
HATCH
  6
Continuous
 62
     7
370
    30
100
AcDbLine
 10
8.43449
 20
-6.762385
 30
0.0
 11
8.43449
 21
-6.799885
 31
0.0
  0
LINE
  5
23C
330
618
100
AcDbEntity
  8
HATCH
  6
Continuous
 62
     7
370
    30
100
AcDbLine
 10
8.40201
 20
-6.72749
 30
0.0
 11
8.40201
 21
-6.743635
 31
0.0
  0
LINE
  5
23D
330
618
100
AcDbEntity
  8
HATCH
  6
Continuous
 62
     7
370
    30
100
AcDbLine
 10
8.40201
 20
-6.818635
 30
0.0
 11
8.40201
 21
-6.856135
 31
0.0
  0
LINE
  5
23E
330
618
100
AcDbEntity
  8
HATCH
  6
Continuous
 62
     7
370
    30
100
AcDbLine
 10
8.369531
 20
-6.762385
 30
0.0
 11
8.369531
 21
-6.799885
 31
0.0
  0
LINE
  5
23F
330
618
100
AcDbEntity
  8
HATCH
  6
Continuous
 62
     7
370
    30
100
AcDbLine
 10
8.337063
 20
-6.726135
 30
0.0
 11
8.337063
 21
-6.743635
 31
0.0
  0
LINE
  5
240
330
618
100
AcDbEntity
  8
HATCH
  6
Continuous
 62
     7
370
    30
100
AcDbLine
 10
8.337063
 20
-6.818635
 30
0.0
 11
8.337063
 21
-6.851146
 31
0.0
  0
LINE
  5
241
330
618
100
AcDbEntity
  8
HATCH
  6
Continuous
 62
     7
370
    30
100
AcDbLine
 10
8.304583
 20
-6.762385
 30
0.0
 11
8.304583
 21
-6.799885
 31
0.0
  0
LINE
  5
242
330
618
100
AcDbEntity
  8
HATCH
  6
Continuous
 62
     7
370
    30
100
AcDbLine
 10
8.272104
 20
-6.724792
 30
0.0
 11
8.272104
 21
-6.743635
 31
0.0
  0
LINE
  5
243
330
618
100
AcDbEntity
  8
HATCH
  6
Continuous
 62
     7
370
    30
100
AcDbLine
 10
8.272104
 20
-6.818635
 30
0.0
 11
8.272104
 21
-6.844521
 31
0.0
  0
LINE
  5
244
330
618
100
AcDbEntity
  8
HATCH
  6
Continuous
 62
     7
370
    30
100
AcDbLine
 10
8.954104
 20
-6.762385
 30
0.0
 11
8.954104
 21
-6.799885
 31
0.0
  0
LINE
  5
245
330
618
100
AcDbEntity
  8
HATCH
  6
Continuous
 62
     7
370
    30
100
AcDbLine
 10
8.954104
 20
-6.874885
 30
0.0
 11
8.954104
 21
-6.912385
 31
0.0
  0
LINE
  5
246
330
618
100
AcDbEntity
  8
HATCH
  6
Continuous
 62
     7
370
    30
100
AcDbLine
 10
8.954104
 20
-6.987385
 30
0.0
 11
8.954104
 21
-6.991844
 31
0.0
  0
LINE
  5
247
330
618
100
AcDbEntity
  8
HATCH
  6
Continuous
 62
     7
370
    30
100
AcDbLine
 10
8.986573
 20
-6.818635
 30
0.0
 11
8.986573
 21
-6.856135
 31
0.0
  0
LINE
  5
248
330
618
100
AcDbEntity
  8
HATCH
  6
Continuous
 62
     7
370
    30
100
AcDbLine
 10
8.986573
 20
-6.931135
 30
0.0
 11
8.986573
 21
-6.968635
 31
0.0
  0
LINE
  5
249
330
618
100
AcDbEntity
  8
HATCH
  6
Continuous
 62
     7
370
    30
100
AcDbLine
 10
9.019052
 20
-6.78474
 30
0.0
 11
9.019052
 21
-6.799885
 31
0.0
  0
LINE
  5
24A
330
618
100
AcDbEntity
  8
HATCH
  6
Continuous
 62
     7
370
    30
100
AcDbLine
 10
9.019052
 20
-6.874885
 30
0.0
 11
9.019052
 21
-6.912385
 31
0.0
  0
LINE
  5
24B
330
618
100
AcDbEntity
  8
HATCH
  6
Continuous
 62
     7
370
    30
100
AcDbLine
 10
9.019052
 20
-6.987385
 30
0.0
 11
9.019052
 21
-6.993198
 31
0.0
  0
LINE
  5
24C
330
618
100
AcDbEntity
  8
HATCH
  6
Continuous
 62
     7
370
    30
100
AcDbLine
 10
9.051531
 20
-6.818635
 30
0.0
 11
9.051531
 21
-6.856135
 31
0.0
  0
LINE
  5
24D
330
618
100
AcDbEntity
  8
HATCH
  6
Continuous
 62
     7
370
    30
100
AcDbLine
 10
9.051531
 20
-6.931135
 30
0.0
 11
9.051531
 21
-6.968635
 31
0.0
  0
LINE
  5
24E
330
618
100
AcDbEntity
  8
HATCH
  6
Continuous
 62
     7
370
    30
100
AcDbLine
 10
9.084
 20
-6.874885
 30
0.0
 11
9.084
 21
-6.912385
 31
0.0
  0
LINE
  5
24F
330
618
100
AcDbEntity
  8
HATCH
  6
Continuous
 62
     7
370
    30
100
AcDbLine
 10
9.084
 20
-6.987385
 30
0.0
 11
9.084
 21
-6.994552
 31
0.0
  0
LINE
  5
250
330
618
100
AcDbEntity
  8
HATCH
  6
Continuous
 62
     7
370
    30
100
AcDbLine
 10
9.116479
 20
-6.833385
 30
0.0
 11
9.116479
 21
-6.856135
 31
0.0
  0
LINE
  5
251
330
618
100
AcDbEntity
  8
HATCH
  6
Continuous
 62
     7
370
    30
100
AcDbLine
 10
9.116479
 20
-6.931135
 30
0.0
 11
9.116479
 21
-6.968635
 31
0.0
  0
LINE
  5
252
330
618
100
AcDbEntity
  8
HATCH
  6
Continuous
 62
     7
370
    30
100
AcDbLine
 10
9.148958
 20
-6.874885
 30
0.0
 11
9.148958
 21
-6.912385
 31
0.0
  0
LINE
  5
253
330
618
100
AcDbEntity
  8
HATCH
  6
Continuous
 62
     7
370
    30
100
AcDbLine
 10
9.148958
 20
-6.987385
 30
0.0
 11
9.148958
 21
-6.995906
 31
0.0
  0
LINE
  5
254
330
618
100
AcDbEntity
  8
HATCH
  6
Continuous
 62
     7
370
    30
100
AcDbLine
 10
9.181437
 20
-6.931135
 30
0.0
 11
9.181437
 21
-6.968635
 31
0.0
  0
LINE
  5
255
330
618
100
AcDbEntity
  8
HATCH
  6
Continuous
 62
     7
370
    30
100
AcDbLine
 10
9.213906
 20
-6.882031
 30
0.0
 11
9.213906
 21
-6.912385
 31
0.0
  0
LINE
  5
256
330
618
100
AcDbEntity
  8
HATCH
  6
Continuous
 62
     7
370
    30
100
AcDbLine
 10
9.213906
 20
-6.987385
 30
0.0
 11
9.213906
 21
-6.99725
 31
0.0
  0
LINE
  5
257
330
618
100
AcDbEntity
  8
HATCH
  6
Continuous
 62
     7
370
    30
100
AcDbLine
 10
9.246385
 20
-6.931135
 30
0.0
 11
9.246385
 21
-6.968635
 31
0.0
  0
LINE
  5
258
330
618
100
AcDbEntity
  8
HATCH
  6
Continuous
 62
     7
370
    30
100
AcDbLine
 10
9.278865
 20
-6.987385
 30
0.0
 11
9.278865
 21
-6.998604
 31
0.0
  0
LINE
  5
259
330
618
100
AcDbEntity
  8
HATCH
  6
Continuous
 62
     7
370
    30
100
AcDbLine
 10
9.311333
 20
-6.930687
 30
0.0
 11
9.311333
 21
-6.968635
 31
0.0
  0
LINE
  5
25A
330
618
100
AcDbEntity
  8
HATCH
  6
Continuous
 62
     7
370
    30
100
AcDbLine
 10
9.343813
 20
-6.987385
 30
0.0
 11
9.343813
 21
-6.999958
 31
0.0
  0
LINE
  5
25B
330
618
100
AcDbEntity
  8
HATCH
  6
Continuous
 62
     7
370
    30
100
AcDbLine
 10
9.376292
 20
-6.963115
 30
0.0
 11
9.376292
 21
-6.968635
 31
0.0
  0
LINE
  5
25C
330
618
100
AcDbEntity
  8
HATCH
  6
Continuous
 62
     7
370
    30
100
AcDbLine
 10
9.40876
 20
-6.987385
 30
0.0
 11
9.40876
 21
-7.001313
 31
0.0
  0
LINE
  5
25D
330
618
100
AcDbEntity
  8
HATCH
  6
Continuous
 62
     7
370
    30
100
AcDbLine
 10
9.148958
 20
-6.987385
 30
0.0
 11
9.116479
 21
-6.968635
 31
0.0
  0
LINE
  5
25E
330
618
100
AcDbEntity
  8
HATCH
  6
Continuous
 62
     7
370
    30
100
AcDbLine
 10
9.051531
 20
-6.931135
 30
0.0
 11
9.019052
 21
-6.912385
 31
0.0
  0
LINE
  5
25F
330
618
100
AcDbEntity
  8
HATCH
  6
Continuous
 62
     7
370
    30
100
AcDbLine
 10
8.954104
 20
-6.874885
 30
0.0
 11
8.921625
 21
-6.856135
 31
0.0
  0
LINE
  5
260
330
618
100
AcDbEntity
  8
HATCH
  6
Continuous
 62
     7
370
    30
100
AcDbLine
 10
8.856677
 20
-6.818635
 30
0.0
 11
8.824198
 21
-6.799885
 31
0.0
  0
LINE
  5
261
330
618
100
AcDbEntity
  8
HATCH
  6
Continuous
 62
     7
370
    30
100
AcDbLine
 10
8.75925
 20
-6.762385
 30
0.0
 11
8.726771
 21
-6.743635
 31
0.0
  0
LINE
  5
262
330
618
100
AcDbEntity
  8
HATCH
  6
Continuous
 62
     7
370
    30
100
AcDbLine
 10
9.213906
 20
-6.987385
 30
0.0
 11
9.181437
 21
-6.968635
 31
0.0
  0
LINE
  5
263
330
618
100
AcDbEntity
  8
HATCH
  6
Continuous
 62
     7
370
    30
100
AcDbLine
 10
9.116479
 20
-6.931135
 30
0.0
 11
9.084
 21
-6.912385
 31
0.0
  0
LINE
  5
264
330
618
100
AcDbEntity
  8
HATCH
  6
Continuous
 62
     7
370
    30
100
AcDbLine
 10
9.019052
 20
-6.874885
 30
0.0
 11
8.986573
 21
-6.856135
 31
0.0
  0
LINE
  5
265
330
618
100
AcDbEntity
  8
HATCH
  6
Continuous
 62
     7
370
    30
100
AcDbLine
 10
8.921625
 20
-6.818635
 30
0.0
 11
8.889146
 21
-6.799885
 31
0.0
  0
LINE
  5
266
330
618
100
AcDbEntity
  8
HATCH
  6
Continuous
 62
     7
370
    30
100
AcDbLine
 10
8.824198
 20
-6.762385
 30
0.0
 11
8.791719
 21
-6.743635
 31
0.0
  0
LINE
  5
267
330
618
100
AcDbEntity
  8
HATCH
  6
Continuous
 62
     7
370
    30
100
AcDbLine
 10
9.278865
 20
-6.987385
 30
0.0
 11
9.246385
 21
-6.968635
 31
0.0
  0
LINE
  5
268
330
618
100
AcDbEntity
  8
HATCH
  6
Continuous
 62
     7
370
    30
100
AcDbLine
 10
9.181437
 20
-6.931135
 30
0.0
 11
9.148958
 21
-6.912385
 31
0.0
  0
LINE
  5
269
330
618
100
AcDbEntity
  8
HATCH
  6
Continuous
 62
     7
370
    30
100
AcDbLine
 10
9.084
 20
-6.874885
 30
0.0
 11
9.051531
 21
-6.856135
 31
0.0
  0
LINE
  5
26A
330
618
100
AcDbEntity
  8
HATCH
  6
Continuous
 62
     7
370
    30
100
AcDbLine
 10
8.986573
 20
-6.818635
 30
0.0
 11
8.954104
 21
-6.799885
 31
0.0
  0
LINE
  5
26B
330
618
100
AcDbEntity
  8
HATCH
  6
Continuous
 62
     7
370
    30
100
AcDbLine
 10
8.889146
 20
-6.762385
 30
0.0
 11
8.856677
 21
-6.743635
 31
0.0
  0
LINE
  5
26C
330
618
100
AcDbEntity
  8
HATCH
  6
Continuous
 62
     7
370
    30
100
AcDbLine
 10
9.343813
 20
-6.987385
 30
0.0
 11
9.311333
 21
-6.968635
 31
0.0
  0
LINE
  5
26D
330
618
100
AcDbEntity
  8
HATCH
  6
Continuous
 62
     7
370
    30
100
AcDbLine
 10
9.246385
 20
-6.931135
 30
0.0
 11
9.213906
 21
-6.912385
 31
0.0
  0
LINE
  5
26E
330
618
100
AcDbEntity
  8
HATCH
  6
Continuous
 62
     7
370
    30
100
AcDbLine
 10
9.148958
 20
-6.874885
 30
0.0
 11
9.116479
 21
-6.856135
 31
0.0
  0
LINE
  5
26F
330
618
100
AcDbEntity
  8
HATCH
  6
Continuous
 62
     7
370
    30
100
AcDbLine
 10
9.051531
 20
-6.818635
 30
0.0
 11
9.019052
 21
-6.799885
 31
0.0
  0
LINE
  5
270
330
618
100
AcDbEntity
  8
HATCH
  6
Continuous
 62
     7
370
    30
100
AcDbLine
 10
8.954104
 20
-6.762385
 30
0.0
 11
8.921625
 21
-6.743635
 31
0.0
  0
LINE
  5
271
330
618
100
AcDbEntity
  8
HATCH
  6
Continuous
 62
     7
370
    30
100
AcDbLine
 10
9.40876
 20
-6.987385
 30
0.0
 11
9.376292
 21
-6.968635
 31
0.0
  0
LINE
  5
272
330
618
100
AcDbEntity
  8
HATCH
  6
Continuous
 62
     7
370
    30
100
AcDbLine
 10
9.084
 20
-6.987385
 30
0.0
 11
9.051531
 21
-6.968635
 31
0.0
  0
LINE
  5
273
330
618
100
AcDbEntity
  8
HATCH
  6
Continuous
 62
     7
370
    30
100
AcDbLine
 10
8.986573
 20
-6.931135
 30
0.0
 11
8.954104
 21
-6.912385
 31
0.0
  0
LINE
  5
274
330
618
100
AcDbEntity
  8
HATCH
  6
Continuous
 62
     7
370
    30
100
AcDbLine
 10
8.889146
 20
-6.874885
 30
0.0
 11
8.856677
 21
-6.856135
 31
0.0
  0
LINE
  5
275
330
618
100
AcDbEntity
  8
HATCH
  6
Continuous
 62
     7
370
    30
100
AcDbLine
 10
8.791719
 20
-6.818635
 30
0.0
 11
8.75925
 21
-6.799885
 31
0.0
  0
LINE
  5
276
330
618
100
AcDbEntity
  8
HATCH
  6
Continuous
 62
     7
370
    30
100
AcDbLine
 10
8.694292
 20
-6.762385
 30
0.0
 11
8.661823
 21
-6.743635
 31
0.0
  0
LINE
  5
277
330
618
100
AcDbEntity
  8
HATCH
  6
Continuous
 62
     7
370
    30
100
AcDbLine
 10
9.019052
 20
-6.987385
 30
0.0
 11
8.986573
 21
-6.968635
 31
0.0
  0
LINE
  5
278
330
618
100
AcDbEntity
  8
HATCH
  6
Continuous
 62
     7
370
    30
100
AcDbLine
 10
8.921625
 20
-6.931135
 30
0.0
 11
8.889146
 21
-6.912385
 31
0.0
  0
LINE
  5
279
330
618
100
AcDbEntity
  8
HATCH
  6
Continuous
 62
     7
370
    30
100
AcDbLine
 10
8.824198
 20
-6.874885
 30
0.0
 11
8.791719
 21
-6.856135
 31
0.0
  0
LINE
  5
27A
330
618
100
AcDbEntity
  8
HATCH
  6
Continuous
 62
     7
370
    30
100
AcDbLine
 10
8.726771
 20
-6.818635
 30
0.0
 11
8.694292
 21
-6.799885
 31
0.0
  0
LINE
  5
27B
330
618
100
AcDbEntity
  8
HATCH
  6
Continuous
 62
     7
370
    30
100
AcDbLine
 10
8.629344
 20
-6.762385
 30
0.0
 11
8.596865
 21
-6.743635
 31
0.0
  0
LINE
  5
27C
330
618
100
AcDbEntity
  8
HATCH
  6
Continuous
 62
     7
370
    30
100
AcDbLine
 10
8.954104
 20
-6.987385
 30
0.0
 11
8.921625
 21
-6.968635
 31
0.0
  0
LINE
  5
27D
330
618
100
AcDbEntity
  8
HATCH
  6
Continuous
 62
     7
370
    30
100
AcDbLine
 10
8.856677
 20
-6.931135
 30
0.0
 11
8.824198
 21
-6.912385
 31
0.0
  0
LINE
  5
27E
330
618
100
AcDbEntity
  8
HATCH
  6
Continuous
 62
     7
370
    30
100
AcDbLine
 10
8.75925
 20
-6.874885
 30
0.0
 11
8.726771
 21
-6.856135
 31
0.0
  0
LINE
  5
27F
330
618
100
AcDbEntity
  8
HATCH
  6
Continuous
 62
     7
370
    30
100
AcDbLine
 10
8.661823
 20
-6.818635
 30
0.0
 11
8.629344
 21
-6.799885
 31
0.0
  0
LINE
  5
280
330
618
100
AcDbEntity
  8
HATCH
  6
Continuous
 62
     7
370
    30
100
AcDbLine
 10
8.564385
 20
-6.762385
 30
0.0
 11
8.531917
 21
-6.743635
 31
0.0
  0
LINE
  5
281
330
618
100
AcDbEntity
  8
HATCH
  6
Continuous
 62
     7
370
    30
100
AcDbLine
 10
8.889146
 20
-6.987385
 30
0.0
 11
8.856677
 21
-6.968635
 31
0.0
  0
LINE
  5
282
330
618
100
AcDbEntity
  8
HATCH
  6
Continuous
 62
     7
370
    30
100
AcDbLine
 10
8.791719
 20
-6.931135
 30
0.0
 11
8.75925
 21
-6.912385
 31
0.0
  0
LINE
  5
283
330
618
100
AcDbEntity
  8
HATCH
  6
Continuous
 62
     7
370
    30
100
AcDbLine
 10
8.694292
 20
-6.874885
 30
0.0
 11
8.661823
 21
-6.856135
 31
0.0
  0
LINE
  5
284
330
618
100
AcDbEntity
  8
HATCH
  6
Continuous
 62
     7
370
    30
100
AcDbLine
 10
8.596865
 20
-6.818635
 30
0.0
 11
8.564385
 21
-6.799885
 31
0.0
  0
LINE
  5
285
330
618
100
AcDbEntity
  8
HATCH
  6
Continuous
 62
     7
370
    30
100
AcDbLine
 10
8.499437
 20
-6.762385
 30
0.0
 11
8.466958
 21
-6.743635
 31
0.0
  0
LINE
  5
286
330
618
100
AcDbEntity
  8
HATCH
  6
Continuous
 62
     7
370
    30
100
AcDbLine
 10
8.620385
 20
-6.869719
 30
0.0
 11
8.596865
 21
-6.856135
 31
0.0
  0
LINE
  5
287
330
618
100
AcDbEntity
  8
HATCH
  6
Continuous
 62
     7
370
    30
100
AcDbLine
 10
8.531917
 20
-6.818635
 30
0.0
 11
8.499437
 21
-6.799885
 31
0.0
  0
LINE
  5
288
330
618
100
AcDbEntity
  8
HATCH
  6
Continuous
 62
     7
370
    30
100
AcDbLine
 10
8.43449
 20
-6.762385
 30
0.0
 11
8.40201
 21
-6.743635
 31
0.0
  0
LINE
  5
289
330
618
100
AcDbEntity
  8
HATCH
  6
Continuous
 62
     7
370
    30
100
AcDbLine
 10
8.533802
 20
-6.857229
 30
0.0
 11
8.531917
 21
-6.856135
 31
0.0
  0
LINE
  5
28A
330
618
100
AcDbEntity
  8
HATCH
  6
Continuous
 62
     7
370
    30
100
AcDbLine
 10
8.466958
 20
-6.818635
 30
0.0
 11
8.43449
 21
-6.799885
 31
0.0
  0
LINE
  5
28B
330
618
100
AcDbEntity
  8
HATCH
  6
Continuous
 62
     7
370
    30
100
AcDbLine
 10
8.369531
 20
-6.762385
 30
0.0
 11
8.337063
 21
-6.743635
 31
0.0
  0
LINE
  5
28C
330
618
100
AcDbEntity
  8
HATCH
  6
Continuous
 62
     7
370
    30
100
AcDbLine
 10
8.474271
 20
-6.860354
 30
0.0
 11
8.466958
 21
-6.856135
 31
0.0
  0
LINE
  5
28D
330
618
100
AcDbEntity
  8
HATCH
  6
Continuous
 62
     7
370
    30
100
AcDbLine
 10
8.40201
 20
-6.818635
 30
0.0
 11
8.369531
 21
-6.799885
 31
0.0
  0
LINE
  5
28E
330
618
100
AcDbEntity
  8
HATCH
  6
Continuous
 62
     7
370
    30
100
AcDbLine
 10
8.304583
 20
-6.762385
 30
0.0
 11
8.272104
 21
-6.743635
 31
0.0
  0
LINE
  5
28F
330
618
100
AcDbEntity
  8
HATCH
  6
Continuous
 62
     7
370
    30
100
AcDbLine
 10
8.405458
 20
-6.858125
 30
0.0
 11
8.40201
 21
-6.856135
 31
0.0
  0
LINE
  5
290
330
618
100
AcDbEntity
  8
HATCH
  6
Continuous
 62
     7
370
    30
100
AcDbLine
 10
8.337063
 20
-6.818635
 30
0.0
 11
8.304583
 21
-6.799885
 31
0.0
  0
LINE
  5
291
330
618
100
AcDbEntity
  8
HATCH
  6
Continuous
 62
     7
370
    30
100
AcDbLine
 10
8.272104
 20
-6.818635
 30
0.0
 11
8.25199
 21
-6.807021
 31
0.0
  0
LINE
  5
292
330
618
100
AcDbEntity
  8
HATCH
  6
Continuous
 62
     7
370
    30
100
AcDbLine
 10
8.954104
 20
-6.799885
 30
0.0
 11
8.921625
 21
-6.818635
 31
0.0
  0
LINE
  5
293
330
618
100
AcDbEntity
  8
HATCH
  6
Continuous
 62
     7
370
    30
100
AcDbLine
 10
8.856677
 20
-6.856135
 30
0.0
 11
8.824198
 21
-6.874885
 31
0.0
  0
LINE
  5
294
330
618
100
AcDbEntity
  8
HATCH
  6
Continuous
 62
     7
370
    30
100
AcDbLine
 10
8.75925
 20
-6.912385
 30
0.0
 11
8.742854
 21
-6.921844
 31
0.0
  0
LINE
  5
295
330
618
100
AcDbEntity
  8
HATCH
  6
Continuous
 62
     7
370
    30
100
AcDbLine
 10
8.963458
 20
-6.756979
 30
0.0
 11
8.954104
 21
-6.762385
 31
0.0
  0
LINE
  5
296
330
618
100
AcDbEntity
  8
HATCH
  6
Continuous
 62
     7
370
    30
100
AcDbLine
 10
8.889146
 20
-6.799885
 30
0.0
 11
8.856677
 21
-6.818635
 31
0.0
  0
LINE
  5
297
330
618
100
AcDbEntity
  8
HATCH
  6
Continuous
 62
     7
370
    30
100
AcDbLine
 10
8.791719
 20
-6.856135
 30
0.0
 11
8.75925
 21
-6.874885
 31
0.0
  0
LINE
  5
298
330
618
100
AcDbEntity
  8
HATCH
  6
Continuous
 62
     7
370
    30
100
AcDbLine
 10
8.921625
 20
-6.743635
 30
0.0
 11
8.889146
 21
-6.762385
 31
0.0
  0
LINE
  5
299
330
618
100
AcDbEntity
  8
HATCH
  6
Continuous
 62
     7
370
    30
100
AcDbLine
 10
8.824198
 20
-6.799885
 30
0.0
 11
8.791719
 21
-6.818635
 31
0.0
  0
LINE
  5
29A
330
618
100
AcDbEntity
  8
HATCH
  6
Continuous
 62
     7
370
    30
100
AcDbLine
 10
8.726771
 20
-6.856135
 30
0.0
 11
8.694292
 21
-6.874885
 31
0.0
  0
LINE
  5
29B
330
618
100
AcDbEntity
  8
HATCH
  6
Continuous
 62
     7
370
    30
100
AcDbLine
 10
8.856677
 20
-6.743635
 30
0.0
 11
8.824198
 21
-6.762385
 31
0.0
  0
LINE
  5
29C
330
618
100
AcDbEntity
  8
HATCH
  6
Continuous
 62
     7
370
    30
100
AcDbLine
 10
8.75925
 20
-6.799885
 30
0.0
 11
8.726771
 21
-6.818635
 31
0.0
  0
LINE
  5
29D
330
618
100
AcDbEntity
  8
HATCH
  6
Continuous
 62
     7
370
    30
100
AcDbLine
 10
8.661823
 20
-6.856135
 30
0.0
 11
8.631635
 21
-6.873562
 31
0.0
  0
LINE
  5
29E
330
618
100
AcDbEntity
  8
HATCH
  6
Continuous
 62
     7
370
    30
100
AcDbLine
 10
8.791719
 20
-6.743635
 30
0.0
 11
8.75925
 21
-6.762385
 31
0.0
  0
LINE
  5
29F
330
618
100
AcDbEntity
  8
HATCH
  6
Continuous
 62
     7
370
    30
100
AcDbLine
 10
8.694292
 20
-6.799885
 30
0.0
 11
8.661823
 21
-6.818635
 31
0.0
  0
LINE
  5
2A0
330
618
100
AcDbEntity
  8
HATCH
  6
Continuous
 62
     7
370
    30
100
AcDbLine
 10
8.596865
 20
-6.856135
 30
0.0
 11
8.590844
 21
-6.859615
 31
0.0
  0
LINE
  5
2A1
330
618
100
AcDbEntity
  8
HATCH
  6
Continuous
 62
     7
370
    30
100
AcDbLine
 10
8.726771
 20
-6.743635
 30
0.0
 11
8.694292
 21
-6.762385
 31
0.0
  0
LINE
  5
2A2
330
618
100
AcDbEntity
  8
HATCH
  6
Continuous
 62
     7
370
    30
100
AcDbLine
 10
8.629344
 20
-6.799885
 30
0.0
 11
8.596865
 21
-6.818635
 31
0.0
  0
LINE
  5
2A3
330
618
100
AcDbEntity
  8
HATCH
  6
Continuous
 62
     7
370
    30
100
AcDbLine
 10
8.531917
 20
-6.856135
 30
0.0
 11
8.529646
 21
-6.857448
 31
0.0
  0
LINE
  5
2A4
330
618
100
AcDbEntity
  8
HATCH
  6
Continuous
 62
     7
370
    30
100
AcDbLine
 10
8.661823
 20
-6.743635
 30
0.0
 11
8.629344
 21
-6.762385
 31
0.0
  0
LINE
  5
2A5
330
618
100
AcDbEntity
  8
HATCH
  6
Continuous
 62
     7
370
    30
100
AcDbLine
 10
8.564385
 20
-6.799885
 30
0.0
 11
8.531917
 21
-6.818635
 31
0.0
  0
LINE
  5
2A6
330
618
100
AcDbEntity
  8
HATCH
  6
Continuous
 62
     7
370
    30
100
AcDbLine
 10
8.466958
 20
-6.856135
 30
0.0
 11
8.458177
 21
-6.861208
 31
0.0
  0
LINE
  5
2A7
330
618
100
AcDbEntity
  8
HATCH
  6
Continuous
 62
     7
370
    30
100
AcDbLine
 10
8.596865
 20
-6.743635
 30
0.0
 11
8.564385
 21
-6.762385
 31
0.0
  0
LINE
  5
2A8
330
618
100
AcDbEntity
  8
HATCH
  6
Continuous
 62
     7
370
    30
100
AcDbLine
 10
8.499437
 20
-6.799885
 30
0.0
 11
8.466958
 21
-6.818635
 31
0.0
  0
LINE
  5
2A9
330
618
100
AcDbEntity
  8
HATCH
  6
Continuous
 62
     7
370
    30
100
AcDbLine
 10
8.40201
 20
-6.856135
 30
0.0
 11
8.399594
 21
-6.857531
 31
0.0
  0
LINE
  5
2AA
330
618
100
AcDbEntity
  8
HATCH
  6
Continuous
 62
     7
370
    30
100
AcDbLine
 10
8.531917
 20
-6.743635
 30
0.0
 11
8.499437
 21
-6.762385
 31
0.0
  0
LINE
  5
2AB
330
618
100
AcDbEntity
  8
HATCH
  6
Continuous
 62
     7
370
    30
100
AcDbLine
 10
8.43449
 20
-6.799885
 30
0.0
 11
8.40201
 21
-6.818635
 31
0.0
  0
LINE
  5
2AC
330
618
100
AcDbEntity
  8
HATCH
  6
Continuous
 62
     7
370
    30
100
AcDbLine
 10
8.466958
 20
-6.743635
 30
0.0
 11
8.43449
 21
-6.762385
 31
0.0
  0
LINE
  5
2AD
330
618
100
AcDbEntity
  8
HATCH
  6
Continuous
 62
     7
370
    30
100
AcDbLine
 10
8.369531
 20
-6.799885
 30
0.0
 11
8.337063
 21
-6.818635
 31
0.0
  0
LINE
  5
2AE
330
618
100
AcDbEntity
  8
HATCH
  6
Continuous
 62
     7
370
    30
100
AcDbLine
 10
8.40201
 20
-6.743635
 30
0.0
 11
8.369531
 21
-6.762385
 31
0.0
  0
LINE
  5
2AF
330
618
100
AcDbEntity
  8
HATCH
  6
Continuous
 62
     7
370
    30
100
AcDbLine
 10
8.304583
 20
-6.799885
 30
0.0
 11
8.272104
 21
-6.818635
 31
0.0
  0
LINE
  5
2B0
330
618
100
AcDbEntity
  8
HATCH
  6
Continuous
 62
     7
370
    30
100
AcDbLine
 10
8.337063
 20
-6.743635
 30
0.0
 11
8.304583
 21
-6.762385
 31
0.0
  0
LINE
  5
2B1
330
618
100
AcDbEntity
  8
HATCH
  6
Continuous
 62
     7
370
    30
100
AcDbLine
 10
8.272104
 20
-6.743635
 30
0.0
 11
8.244042
 21
-6.759833
 31
0.0
  0
LINE
  5
2B2
330
618
100
AcDbEntity
  8
HATCH
  6
Continuous
 62
     7
370
    30
100
AcDbLine
 10
9.019052
 20
-6.799885
 30
0.0
 11
8.986573
 21
-6.818635
 31
0.0
  0
LINE
  5
2B3
330
618
100
AcDbEntity
  8
HATCH
  6
Continuous
 62
     7
370
    30
100
AcDbLine
 10
8.921625
 20
-6.856135
 30
0.0
 11
8.889146
 21
-6.874885
 31
0.0
  0
LINE
  5
2B4
330
618
100
AcDbEntity
  8
HATCH
  6
Continuous
 62
     7
370
    30
100
AcDbLine
 10
8.824198
 20
-6.912385
 30
0.0
 11
8.791719
 21
-6.931135
 31
0.0
  0
LINE
  5
2B5
330
618
100
AcDbEntity
  8
HATCH
  6
Continuous
 62
     7
370
    30
100
AcDbLine
 10
9.067948
 20
-6.809156
 30
0.0
 11
9.051531
 21
-6.818635
 31
0.0
  0
LINE
  5
2B6
330
618
100
AcDbEntity
  8
HATCH
  6
Continuous
 62
     7
370
    30
100
AcDbLine
 10
8.986573
 20
-6.856135
 30
0.0
 11
8.954104
 21
-6.874885
 31
0.0
  0
LINE
  5
2B7
330
618
100
AcDbEntity
  8
HATCH
  6
Continuous
 62
     7
370
    30
100
AcDbLine
 10
8.889146
 20
-6.912385
 30
0.0
 11
8.856677
 21
-6.931135
 31
0.0
  0
LINE
  5
2B8
330
618
100
AcDbEntity
  8
HATCH
  6
Continuous
 62
     7
370
    30
100
AcDbLine
 10
9.051531
 20
-6.856135
 30
0.0
 11
9.019052
 21
-6.874885
 31
0.0
  0
LINE
  5
2B9
330
618
100
AcDbEntity
  8
HATCH
  6
Continuous
 62
     7
370
    30
100
AcDbLine
 10
8.954104
 20
-6.912385
 30
0.0
 11
8.921625
 21
-6.931135
 31
0.0
  0
LINE
  5
2BA
330
618
100
AcDbEntity
  8
HATCH
  6
Continuous
 62
     7
370
    30
100
AcDbLine
 10
8.856677
 20
-6.968635
 30
0.0
 11
8.833469
 21
-6.982031
 31
0.0
  0
LINE
  5
2BB
330
618
100
AcDbEntity
  8
HATCH
  6
Continuous
 62
     7
370
    30
100
AcDbLine
 10
9.116479
 20
-6.856135
 30
0.0
 11
9.084
 21
-6.874885
 31
0.0
  0
LINE
  5
2BC
330
618
100
AcDbEntity
  8
HATCH
  6
Continuous
 62
     7
370
    30
100
AcDbLine
 10
9.019052
 20
-6.912385
 30
0.0
 11
8.986573
 21
-6.931135
 31
0.0
  0
LINE
  5
2BD
330
618
100
AcDbEntity
  8
HATCH
  6
Continuous
 62
     7
370
    30
100
AcDbLine
 10
8.921625
 20
-6.968635
 30
0.0
 11
8.889146
 21
-6.987385
 31
0.0
  0
LINE
  5
2BE
330
618
100
AcDbEntity
  8
HATCH
  6
Continuous
 62
     7
370
    30
100
AcDbLine
 10
9.172437
 20
-6.861333
 30
0.0
 11
9.148958
 21
-6.874885
 31
0.0
  0
LINE
  5
2BF
330
618
100
AcDbEntity
  8
HATCH
  6
Continuous
 62
     7
370
    30
100
AcDbLine
 10
9.084
 20
-6.912385
 30
0.0
 11
9.051531
 21
-6.931135
 31
0.0
  0
LINE
  5
2C0
330
618
100
AcDbEntity
  8
HATCH
  6
Continuous
 62
     7
370
    30
100
AcDbLine
 10
8.986573
 20
-6.968635
 30
0.0
 11
8.954104
 21
-6.987385
 31
0.0
  0
LINE
  5
2C1
330
618
100
AcDbEntity
  8
HATCH
  6
Continuous
 62
     7
370
    30
100
AcDbLine
 10
9.148958
 20
-6.912385
 30
0.0
 11
9.116479
 21
-6.931135
 31
0.0
  0
LINE
  5
2C2
330
618
100
AcDbEntity
  8
HATCH
  6
Continuous
 62
     7
370
    30
100
AcDbLine
 10
9.051531
 20
-6.968635
 30
0.0
 11
9.019052
 21
-6.987385
 31
0.0
  0
LINE
  5
2C3
330
618
100
AcDbEntity
  8
HATCH
  6
Continuous
 62
     7
370
    30
100
AcDbLine
 10
9.213906
 20
-6.912385
 30
0.0
 11
9.181437
 21
-6.931135
 31
0.0
  0
LINE
  5
2C4
330
618
100
AcDbEntity
  8
HATCH
  6
Continuous
 62
     7
370
    30
100
AcDbLine
 10
9.116479
 20
-6.968635
 30
0.0
 11
9.084
 21
-6.987385
 31
0.0
  0
LINE
  5
2C5
330
618
100
AcDbEntity
  8
HATCH
  6
Continuous
 62
     7
370
    30
100
AcDbLine
 10
9.276927
 20
-6.9135
 30
0.0
 11
9.246385
 21
-6.931135
 31
0.0
  0
LINE
  5
2C6
330
618
100
AcDbEntity
  8
HATCH
  6
Continuous
 62
     7
370
    30
100
AcDbLine
 10
9.181437
 20
-6.968635
 30
0.0
 11
9.148958
 21
-6.987385
 31
0.0
  0
LINE
  5
2C7
330
618
100
AcDbEntity
  8
HATCH
  6
Continuous
 62
     7
370
    30
100
AcDbLine
 10
9.246385
 20
-6.968635
 30
0.0
 11
9.213906
 21
-6.987385
 31
0.0
  0
LINE
  5
2C8
330
618
100
AcDbEntity
  8
HATCH
  6
Continuous
 62
     7
370
    30
100
AcDbLine
 10
9.311333
 20
-6.968635
 30
0.0
 11
9.278865
 21
-6.987385
 31
0.0
  0
LINE
  5
2C9
330
618
100
AcDbEntity
  8
HATCH
  6
Continuous
 62
     7
370
    30
100
AcDbLine
 10
9.376292
 20
-6.968635
 30
0.0
 11
9.343813
 21
-6.987385
 31
0.0
  0
LINE
  5
2CA
330
618
100
AcDbEntity
  8
HATCH
  6
Continuous
 62
     7
370
    30
100
AcDbLine
 10
9.41624
 20
-6.983062
 30
0.0
 11
9.40876
 21
-6.987385
 31
0.0
  0
LINE
  5
2CB
330
618
100
AcDbEntity
  8
HATCH
  6
Continuous
 62
     7
370
    30
100
AcDbLine
 10
4.235229
 20
-6.452583
 30
0.0
 11
4.274781
 21
-6.475417
 31
0.0
  0
LINE
  5
2CC
330
618
100
AcDbEntity
  8
HATCH
  6
Continuous
 62
     7
370
    30
100
AcDbLine
 10
4.3235
 20
-6.503542
 30
0.0
 11
4.372208
 21
-6.531667
 31
0.0
  0
LINE
  5
2CD
330
618
100
AcDbEntity
  8
HATCH
  6
Continuous
 62
     7
370
    30
100
AcDbLine
 10
4.420927
 20
-6.559792
 30
0.0
 11
4.469635
 21
-6.587917
 31
0.0
  0
LINE
  5
2CE
330
618
100
AcDbEntity
  8
HATCH
  6
Continuous
 62
     7
370
    30
100
AcDbLine
 10
4.518354
 20
-6.616042
 30
0.0
 11
4.539438
 21
-6.628219
 31
0.0
  0
LINE
  5
2CF
330
618
100
AcDbEntity
  8
HATCH
  6
Continuous
 62
     7
370
    30
100
AcDbLine
 10
4.339656
 20
-6.400375
 30
0.0
 11
4.372208
 21
-6.419167
 31
0.0
  0
LINE
  5
2D0
330
618
100
AcDbEntity
  8
HATCH
  6
Continuous
 62
     7
370
    30
100
AcDbLine
 10
4.420927
 20
-6.447292
 30
0.0
 11
4.469635
 21
-6.475417
 31
0.0
  0
LINE
  5
2D1
330
618
100
AcDbEntity
  8
HATCH
  6
Continuous
 62
     7
370
    30
100
AcDbLine
 10
4.518354
 20
-6.503542
 30
0.0
 11
4.567062
 21
-6.531667
 31
0.0
  0
LINE
  5
2D2
330
618
100
AcDbEntity
  8
HATCH
  6
Continuous
 62
     7
370
    30
100
AcDbLine
 10
4.444073
 20
-6.348156
 30
0.0
 11
4.469635
 21
-6.362917
 31
0.0
  0
LINE
  5
2D3
330
618
100
AcDbEntity
  8
HATCH
  6
Continuous
 62
     7
370
    30
100
AcDbLine
 10
4.518354
 20
-6.391042
 30
0.0
 11
4.567062
 21
-6.419167
 31
0.0
  0
LINE
  5
2D4
330
618
100
AcDbEntity
  8
HATCH
  6
Continuous
 62
     7
370
    30
100
AcDbLine
 10
4.615781
 20
-6.447292
 30
0.0
 11
4.640792
 21
-6.461729
 31
0.0
  0
LINE
  5
2D5
330
618
100
AcDbEntity
  8
HATCH
  6
Continuous
 62
     7
370
    30
100
AcDbLine
 10
4.5485
 20
-6.295948
 30
0.0
 11
4.567062
 21
-6.306667
 31
0.0
  0
LINE
  5
2D6
330
618
100
AcDbEntity
  8
HATCH
  6
Continuous
 62
     7
370
    30
100
AcDbLine
 10
4.615781
 20
-6.334792
 30
0.0
 11
4.66449
 21
-6.362917
 31
0.0
  0
LINE
  5
2D7
330
618
100
AcDbEntity
  8
HATCH
  6
Continuous
 62
     7
370
    30
100
AcDbLine
 10
4.713208
 20
-6.278542
 30
0.0
 11
4.761917
 21
-6.306667
 31
0.0
  0
LINE
  5
2D8
330
618
100
AcDbEntity
  8
HATCH
  6
Continuous
 62
     7
370
    30
100
AcDbLine
 10
4.130813
 20
-6.504792
 30
0.0
 11
4.177354
 21
-6.531667
 31
0.0
  0
LINE
  5
2D9
330
618
100
AcDbEntity
  8
HATCH
  6
Continuous
 62
     7
370
    30
100
AcDbLine
 10
4.226073
 20
-6.559792
 30
0.0
 11
4.274781
 21
-6.587917
 31
0.0
  0
LINE
  5
2DA
330
618
100
AcDbEntity
  8
HATCH
  6
Continuous
 62
     7
370
    30
100
AcDbLine
 10
4.3235
 20
-6.616042
 30
0.0
 11
4.372208
 21
-6.644167
 31
0.0
  0
LINE
  5
2DB
330
618
100
AcDbEntity
  8
HATCH
  6
Continuous
 62
     7
370
    30
100
AcDbLine
 10
4.420927
 20
-6.672292
 30
0.0
 11
4.44225
 21
-6.684604
 31
0.0
  0
LINE
  5
2DC
330
618
100
AcDbEntity
  8
HATCH
  6
Continuous
 62
     7
370
    30
100
AcDbLine
 10
4.031208
 20
-6.559792
 30
0.0
 11
4.079927
 21
-6.587917
 31
0.0
  0
LINE
  5
2DD
330
618
100
AcDbEntity
  8
HATCH
  6
Continuous
 62
     7
370
    30
100
AcDbLine
 10
4.128635
 20
-6.616042
 30
0.0
 11
4.177354
 21
-6.644167
 31
0.0
  0
LINE
  5
2DE
330
618
100
AcDbEntity
  8
HATCH
  6
Continuous
 62
     7
370
    30
100
AcDbLine
 10
4.226073
 20
-6.672292
 30
0.0
 11
4.274781
 21
-6.700417
 31
0.0
  0
LINE
  5
2DF
330
618
100
AcDbEntity
  8
HATCH
  6
Continuous
 62
     7
370
    30
100
AcDbLine
 10
3.933781
 20
-6.616042
 30
0.0
 11
3.9825
 21
-6.644167
 31
0.0
  0
LINE
  5
2E0
330
618
100
AcDbEntity
  8
HATCH
  6
Continuous
 62
     7
370
    30
100
AcDbLine
 10
4.031208
 20
-6.672292
 30
0.0
 11
4.079927
 21
-6.700417
 31
0.0
  0
LINE
  5
2E1
330
618
100
AcDbEntity
  8
HATCH
  6
Continuous
 62
     7
370
    30
100
AcDbLine
 10
3.836354
 20
-6.672292
 30
0.0
 11
3.885073
 21
-6.700417
 31
0.0
  0
LINE
  5
2E2
330
618
100
AcDbEntity
  8
HATCH
  6
Continuous
 62
     7
370
    30
100
AcDbLine
 10
3.740177
 20
-6.727823
 30
0.0
 11
3.787646
 21
-6.700417
 31
0.0
  0
LINE
  5
2E3
330
618
100
AcDbEntity
  8
HATCH
  6
Continuous
 62
     7
370
    30
100
AcDbLine
 10
3.836354
 20
-6.672292
 30
0.0
 11
3.885073
 21
-6.644167
 31
0.0
  0
LINE
  5
2E4
330
618
100
AcDbEntity
  8
HATCH
  6
Continuous
 62
     7
370
    30
100
AcDbLine
 10
3.933781
 20
-6.616042
 30
0.0
 11
3.9825
 21
-6.587917
 31
0.0
  0
LINE
  5
2E5
330
618
100
AcDbEntity
  8
HATCH
  6
Continuous
 62
     7
370
    30
100
AcDbLine
 10
4.031208
 20
-6.559792
 30
0.0
 11
4.079927
 21
-6.531667
 31
0.0
  0
LINE
  5
2E6
330
618
100
AcDbEntity
  8
HATCH
  6
Continuous
 62
     7
370
    30
100
AcDbLine
 10
3.944833
 20
-6.722167
 30
0.0
 11
3.9825
 21
-6.700417
 31
0.0
  0
LINE
  5
2E7
330
618
100
AcDbEntity
  8
HATCH
  6
Continuous
 62
     7
370
    30
100
AcDbLine
 10
4.031208
 20
-6.672292
 30
0.0
 11
4.079927
 21
-6.644167
 31
0.0
  0
LINE
  5
2E8
330
618
100
AcDbEntity
  8
HATCH
  6
Continuous
 62
     7
370
    30
100
AcDbLine
 10
4.128635
 20
-6.616042
 30
0.0
 11
4.177354
 21
-6.587917
 31
0.0
  0
LINE
  5
2E9
330
618
100
AcDbEntity
  8
HATCH
  6
Continuous
 62
     7
370
    30
100
AcDbLine
 10
4.226073
 20
-6.559792
 30
0.0
 11
4.274781
 21
-6.531667
 31
0.0
  0
LINE
  5
2EA
330
618
100
AcDbEntity
  8
HATCH
  6
Continuous
 62
     7
370
    30
100
AcDbLine
 10
4.3235
 20
-6.503542
 30
0.0
 11
4.372208
 21
-6.475417
 31
0.0
  0
LINE
  5
2EB
330
618
100
AcDbEntity
  8
HATCH
  6
Continuous
 62
     7
370
    30
100
AcDbLine
 10
4.420927
 20
-6.447292
 30
0.0
 11
4.469635
 21
-6.419167
 31
0.0
  0
LINE
  5
2EC
330
618
100
AcDbEntity
  8
HATCH
  6
Continuous
 62
     7
370
    30
100
AcDbLine
 10
4.518354
 20
-6.391042
 30
0.0
 11
4.567062
 21
-6.362917
 31
0.0
  0
LINE
  5
2ED
330
618
100
AcDbEntity
  8
HATCH
  6
Continuous
 62
     7
370
    30
100
AcDbLine
 10
4.615781
 20
-6.334792
 30
0.0
 11
4.66449
 21
-6.306667
 31
0.0
  0
LINE
  5
2EE
330
618
100
AcDbEntity
  8
HATCH
  6
Continuous
 62
     7
370
    30
100
AcDbLine
 10
4.713208
 20
-6.278542
 30
0.0
 11
4.750312
 21
-6.257125
 31
0.0
  0
LINE
  5
2EF
330
618
100
AcDbEntity
  8
HATCH
  6
Continuous
 62
     7
370
    30
100
AcDbLine
 10
4.14949
 20
-6.71651
 30
0.0
 11
4.177354
 21
-6.700417
 31
0.0
  0
LINE
  5
2F0
330
618
100
AcDbEntity
  8
HATCH
  6
Continuous
 62
     7
370
    30
100
AcDbLine
 10
4.226073
 20
-6.672292
 30
0.0
 11
4.274781
 21
-6.644167
 31
0.0
  0
LINE
  5
2F1
330
618
100
AcDbEntity
  8
HATCH
  6
Continuous
 62
     7
370
    30
100
AcDbLine
 10
4.3235
 20
-6.616042
 30
0.0
 11
4.372208
 21
-6.587917
 31
0.0
  0
LINE
  5
2F2
330
618
100
AcDbEntity
  8
HATCH
  6
Continuous
 62
     7
370
    30
100
AcDbLine
 10
4.420927
 20
-6.559792
 30
0.0
 11
4.469635
 21
-6.531667
 31
0.0
  0
LINE
  5
2F3
330
618
100
AcDbEntity
  8
HATCH
  6
Continuous
 62
     7
370
    30
100
AcDbLine
 10
4.518354
 20
-6.503542
 30
0.0
 11
4.567062
 21
-6.475417
 31
0.0
  0
LINE
  5
2F4
330
618
100
AcDbEntity
  8
HATCH
  6
Continuous
 62
     7
370
    30
100
AcDbLine
 10
4.615781
 20
-6.447292
 30
0.0
 11
4.66449
 21
-6.419167
 31
0.0
  0
LINE
  5
2F5
330
618
100
AcDbEntity
  8
HATCH
  6
Continuous
 62
     7
370
    30
100
AcDbLine
 10
4.354146
 20
-6.710844
 30
0.0
 11
4.372208
 21
-6.700417
 31
0.0
  0
LINE
  5
2F6
330
618
100
AcDbEntity
  8
HATCH
  6
Continuous
 62
     7
370
    30
100
AcDbLine
 10
4.420927
 20
-6.672292
 30
0.0
 11
4.469635
 21
-6.644167
 31
0.0
  0
LINE
  5
2F7
330
618
100
AcDbEntity
  8
HATCH
  6
Continuous
 62
     7
370
    30
100
AcDbLine
 10
4.518354
 20
-6.616042
 30
0.0
 11
4.567062
 21
-6.587917
 31
0.0
  0
LINE
  5
2F8
330
618
100
AcDbEntity
  8
HATCH
  6
Continuous
 62
     7
370
    30
100
AcDbLine
 10
4.177354
 20
-6.481521
 30
0.0
 11
4.177354
 21
-6.531667
 31
0.0
  0
LINE
  5
2F9
330
618
100
AcDbEntity
  8
HATCH
  6
Continuous
 62
     7
370
    30
100
AcDbLine
 10
4.177354
 20
-6.587917
 30
0.0
 11
4.177354
 21
-6.644167
 31
0.0
  0
LINE
  5
2FA
330
618
100
AcDbEntity
  8
HATCH
  6
Continuous
 62
     7
370
    30
100
AcDbLine
 10
4.177354
 20
-6.700417
 30
0.0
 11
4.177354
 21
-6.71574
 31
0.0
  0
LINE
  5
2FB
330
618
100
AcDbEntity
  8
HATCH
  6
Continuous
 62
     7
370
    30
100
AcDbLine
 10
4.274781
 20
-6.432802
 30
0.0
 11
4.274781
 21
-6.475417
 31
0.0
  0
LINE
  5
2FC
330
618
100
AcDbEntity
  8
HATCH
  6
Continuous
 62
     7
370
    30
100
AcDbLine
 10
4.274781
 20
-6.531667
 30
0.0
 11
4.274781
 21
-6.587917
 31
0.0
  0
LINE
  5
2FD
330
618
100
AcDbEntity
  8
HATCH
  6
Continuous
 62
     7
370
    30
100
AcDbLine
 10
4.274781
 20
-6.644167
 30
0.0
 11
4.274781
 21
-6.700417
 31
0.0
  0
LINE
  5
2FE
330
618
100
AcDbEntity
  8
HATCH
  6
Continuous
 62
     7
370
    30
100
AcDbLine
 10
4.372208
 20
-6.384094
 30
0.0
 11
4.372208
 21
-6.419167
 31
0.0
  0
LINE
  5
2FF
330
618
100
AcDbEntity
  8
HATCH
  6
Continuous
 62
     7
370
    30
100
AcDbLine
 10
4.372208
 20
-6.475417
 30
0.0
 11
4.372208
 21
-6.531667
 31
0.0
  0
LINE
  5
300
330
618
100
AcDbEntity
  8
HATCH
  6
Continuous
 62
     7
370
    30
100
AcDbLine
 10
4.372208
 20
-6.587917
 30
0.0
 11
4.372208
 21
-6.644167
 31
0.0
  0
LINE
  5
301
330
618
100
AcDbEntity
  8
HATCH
  6
Continuous
 62
     7
370
    30
100
AcDbLine
 10
4.372208
 20
-6.700417
 30
0.0
 11
4.372208
 21
-6.710344
 31
0.0
  0
LINE
  5
302
330
618
100
AcDbEntity
  8
HATCH
  6
Continuous
 62
     7
370
    30
100
AcDbLine
 10
4.469635
 20
-6.335375
 30
0.0
 11
4.469635
 21
-6.362917
 31
0.0
  0
LINE
  5
303
330
618
100
AcDbEntity
  8
HATCH
  6
Continuous
 62
     7
370
    30
100
AcDbLine
 10
4.469635
 20
-6.419167
 30
0.0
 11
4.469635
 21
-6.475417
 31
0.0
  0
LINE
  5
304
330
618
100
AcDbEntity
  8
HATCH
  6
Continuous
 62
     7
370
    30
100
AcDbLine
 10
4.469635
 20
-6.531667
 30
0.0
 11
4.469635
 21
-6.587917
 31
0.0
  0
LINE
  5
305
330
618
100
AcDbEntity
  8
HATCH
  6
Continuous
 62
     7
370
    30
100
AcDbLine
 10
4.469635
 20
-6.644167
 30
0.0
 11
4.469635
 21
-6.668719
 31
0.0
  0
LINE
  5
306
330
618
100
AcDbEntity
  8
HATCH
  6
Continuous
 62
     7
370
    30
100
AcDbLine
 10
4.567062
 20
-6.286667
 30
0.0
 11
4.567062
 21
-6.306667
 31
0.0
  0
LINE
  5
307
330
618
100
AcDbEntity
  8
HATCH
  6
Continuous
 62
     7
370
    30
100
AcDbLine
 10
4.567062
 20
-6.362917
 30
0.0
 11
4.567062
 21
-6.419167
 31
0.0
  0
LINE
  5
308
330
618
100
AcDbEntity
  8
HATCH
  6
Continuous
 62
     7
370
    30
100
AcDbLine
 10
4.567062
 20
-6.475417
 30
0.0
 11
4.567062
 21
-6.531667
 31
0.0
  0
LINE
  5
309
330
618
100
AcDbEntity
  8
HATCH
  6
Continuous
 62
     7
370
    30
100
AcDbLine
 10
4.567062
 20
-6.587917
 30
0.0
 11
4.567062
 21
-6.612188
 31
0.0
  0
LINE
  5
30A
330
618
100
AcDbEntity
  8
HATCH
  6
Continuous
 62
     7
370
    30
100
AcDbLine
 10
4.66449
 20
-6.306667
 30
0.0
 11
4.66449
 21
-6.362917
 31
0.0
  0
LINE
  5
30B
330
618
100
AcDbEntity
  8
HATCH
  6
Continuous
 62
     7
370
    30
100
AcDbLine
 10
4.66449
 20
-6.419167
 30
0.0
 11
4.66449
 21
-6.428552
 31
0.0
  0
LINE
  5
30C
330
618
100
AcDbEntity
  8
HATCH
  6
Continuous
 62
     7
370
    30
100
AcDbLine
 10
4.761917
 20
-6.257125
 30
0.0
 11
4.761917
 21
-6.306667
 31
0.0
  0
LINE
  5
30D
330
618
100
AcDbEntity
  8
HATCH
  6
Continuous
 62
     7
370
    30
100
AcDbLine
 10
4.079927
 20
-6.531667
 30
0.0
 11
4.079927
 21
-6.587917
 31
0.0
  0
LINE
  5
30E
330
618
100
AcDbEntity
  8
HATCH
  6
Continuous
 62
     7
370
    30
100
AcDbLine
 10
4.079927
 20
-6.644167
 30
0.0
 11
4.079927
 21
-6.700417
 31
0.0
  0
LINE
  5
30F
330
618
100
AcDbEntity
  8
HATCH
  6
Continuous
 62
     7
370
    30
100
AcDbLine
 10
3.9825
 20
-6.587917
 30
0.0
 11
3.9825
 21
-6.644167
 31
0.0
  0
LINE
  5
310
330
618
100
AcDbEntity
  8
HATCH
  6
Continuous
 62
     7
370
    30
100
AcDbLine
 10
3.9825
 20
-6.700417
 30
0.0
 11
3.9825
 21
-6.721125
 31
0.0
  0
LINE
  5
311
330
618
100
AcDbEntity
  8
HATCH
  6
Continuous
 62
     7
370
    30
100
AcDbLine
 10
3.885073
 20
-6.644167
 30
0.0
 11
3.885073
 21
-6.700417
 31
0.0
  0
LINE
  5
312
330
618
100
AcDbEntity
  8
HATCH
  6
Continuous
 62
     7
370
    30
100
AcDbLine
 10
3.787646
 20
-6.700417
 30
0.0
 11
3.787646
 21
-6.72651
 31
0.0
  0
LINE
  5
313
330
618
100
AcDbEntity
  8
HATCH
  6
Continuous
 62
     7
370
    30
100
AcDbLine
 10
1.81876
 20
-7.023927
 30
0.0
 11
1.844667
 21
-7.049833
 31
0.0
  0
LINE
  5
314
330
618
100
AcDbEntity
  8
HATCH
  6
Continuous
 62
     7
370
    30
100
AcDbLine
 10
1.933052
 20
-7.138219
 30
0.0
 11
1.988229
 21
-7.193396
 31
0.0
  0
LINE
  5
315
330
618
100
AcDbEntity
  8
HATCH
  6
Continuous
 62
     7
370
    30
100
AcDbLine
 10
1.991927
 20
-7.020313
 30
0.0
 11
2.021437
 21
-7.049833
 31
0.0
  0
LINE
  5
316
330
618
100
AcDbEntity
  8
HATCH
  6
Continuous
 62
     7
370
    30
100
AcDbLine
 10
2.109823
 20
-7.138219
 30
0.0
 11
2.117635
 21
-7.146031
 31
0.0
  0
LINE
  5
317
330
618
100
AcDbEntity
  8
HATCH
  6
Continuous
 62
     7
370
    30
100
AcDbLine
 10
2.165094
 20
-7.016708
 30
0.0
 11
2.198219
 21
-7.049833
 31
0.0
  0
LINE
  5
318
330
618
100
AcDbEntity
  8
HATCH
  6
Continuous
 62
     7
370
    30
100
AcDbLine
 10
2.286604
 20
-7.138219
 30
0.0
 11
2.29376
 21
-7.145375
 31
0.0
  0
LINE
  5
319
330
618
100
AcDbEntity
  8
HATCH
  6
Continuous
 62
     7
370
    30
100
AcDbLine
 10
2.33826
 20
-7.013104
 30
0.0
 11
2.37499
 21
-7.049833
 31
0.0
  0
LINE
  5
31A
330
618
100
AcDbEntity
  8
HATCH
  6
Continuous
 62
     7
370
    30
100
AcDbLine
 10
1.661271
 20
-7.043219
 30
0.0
 11
1.667885
 21
-7.049833
 31
0.0
  0
LINE
  5
31B
330
618
100
AcDbEntity
  8
HATCH
  6
Continuous
 62
     7
370
    30
100
AcDbLine
 10
1.756271
 20
-7.138219
 30
0.0
 11
1.844667
 21
-7.226604
 31
0.0
  0
LINE
  5
31C
330
618
100
AcDbEntity
  8
HATCH
  6
Continuous
 62
     7
370
    30
100
AcDbLine
 10
1.789417
 20
-7.105073
 30
0.0
 11
1.877812
 21
-7.193458
 31
0.0
  0
LINE
  5
31D
330
618
100
AcDbEntity
  8
HATCH
  6
Continuous
 62
     7
370
    30
100
AcDbLine
 10
1.966198
 20
-7.105073
 30
0.0
 11
2.035312
 21
-7.174187
 31
0.0
  0
LINE
  5
31E
330
618
100
AcDbEntity
  8
HATCH
  6
Continuous
 62
     7
370
    30
100
AcDbLine
 10
2.142969
 20
-7.105073
 30
0.0
 11
2.181729
 21
-7.143833
 31
0.0
  0
LINE
  5
31F
330
618
100
AcDbEntity
  8
HATCH
  6
Continuous
 62
     7
370
    30
100
AcDbLine
 10
2.230031
 20
-7.015354
 30
0.0
 11
2.231365
 21
-7.016687
 31
0.0
  0
LINE
  5
320
330
618
100
AcDbEntity
  8
HATCH
  6
Continuous
 62
     7
370
    30
100
AcDbLine
 10
2.31975
 20
-7.105073
 30
0.0
 11
2.353917
 21
-7.13924
 31
0.0
  0
LINE
  5
321
330
618
100
AcDbEntity
  8
HATCH
  6
Continuous
 62
     7
370
    30
100
AcDbLine
 10
2.403198
 20
-7.01175
 30
0.0
 11
2.408135
 21
-7.016687
 31
0.0
  0
LINE
  5
322
330
618
100
AcDbEntity
  8
HATCH
  6
Continuous
 62
     7
370
    30
100
AcDbLine
 10
1.612646
 20
-7.105073
 30
0.0
 11
1.701031
 21
-7.193458
 31
0.0
  0
LINE
  5
323
330
618
100
AcDbEntity
  8
HATCH
  6
Continuous
 62
     7
370
    30
100
AcDbLine
 10
1.822562
 20
-7.071927
 30
0.0
 11
1.910948
 21
-7.160312
 31
0.0
  0
LINE
  5
324
330
618
100
AcDbEntity
  8
HATCH
  6
Continuous
 62
     7
370
    30
100
AcDbLine
 10
1.999344
 20
-7.071927
 30
0.0
 11
2.084708
 21
-7.157292
 31
0.0
  0
LINE
  5
325
330
618
100
AcDbEntity
  8
HATCH
  6
Continuous
 62
     7
370
    30
100
AcDbLine
 10
2.176115
 20
-7.071927
 30
0.0
 11
2.251708
 21
-7.147521
 31
0.0
  0
LINE
  5
326
330
618
100
AcDbEntity
  8
HATCH
  6
Continuous
 62
     7
370
    30
100
AcDbLine
 10
2.352896
 20
-7.071927
 30
0.0
 11
2.414073
 21
-7.133104
 31
0.0
  0
LINE
  5
327
330
618
100
AcDbEntity
  8
HATCH
  6
Continuous
 62
     7
370
    30
100
AcDbLine
 10
1.645792
 20
-7.071927
 30
0.0
 11
1.734177
 21
-7.160312
 31
0.0
  0
LINE
  5
328
330
618
100
AcDbEntity
  8
HATCH
  6
Continuous
 62
     7
370
    30
100
AcDbLine
 10
1.844667
 20
-7.071927
 30
0.0
 11
1.89424
 21
-7.022354
 31
0.0
  0
LINE
  5
329
330
618
100
AcDbEntity
  8
HATCH
  6
Continuous
 62
     7
370
    30
100
AcDbLine
 10
1.667885
 20
-7.071927
 30
0.0
 11
1.713698
 21
-7.026115
 31
0.0
  0
LINE
  5
32A
330
618
100
AcDbEntity
  8
HATCH
  6
Continuous
 62
     7
370
    30
100
AcDbLine
 10
1.844667
 20
-7.248708
 30
0.0
 11
1.933052
 21
-7.160312
 31
0.0
  0
LINE
  5
32B
330
618
100
AcDbEntity
  8
HATCH
  6
Continuous
 62
     7
370
    30
100
AcDbLine
 10
2.021437
 20
-7.071927
 30
0.0
 11
2.074771
 21
-7.018594
 31
0.0
  0
LINE
  5
32C
330
618
100
AcDbEntity
  8
HATCH
  6
Continuous
 62
     7
370
    30
100
AcDbLine
 10
2.198219
 20
-7.071927
 30
0.0
 11
2.255313
 21
-7.014833
 31
0.0
  0
LINE
  5
32D
330
618
100
AcDbEntity
  8
HATCH
  6
Continuous
 62
     7
370
    30
100
AcDbLine
 10
2.37499
 20
-7.071927
 30
0.0
 11
2.435854
 21
-7.011073
 31
0.0
  0
LINE
  5
32E
330
618
100
AcDbEntity
  8
HATCH
  6
Continuous
 62
     7
370
    30
100
AcDbLine
 10
1.701031
 20
-7.105073
 30
0.0
 11
1.781396
 21
-7.024708
 31
0.0
  0
LINE
  5
32F
330
618
100
AcDbEntity
  8
HATCH
  6
Continuous
 62
     7
370
    30
100
AcDbLine
 10
1.877812
 20
-7.105073
 30
0.0
 11
1.961937
 21
-7.020937
 31
0.0
  0
LINE
  5
330
330
618
100
AcDbEntity
  8
HATCH
  6
Continuous
 62
     7
370
    30
100
AcDbLine
 10
1.922802
 20
-7.236854
 30
0.0
 11
1.966198
 21
-7.193458
 31
0.0
  0
LINE
  5
331
330
618
100
AcDbEntity
  8
HATCH
  6
Continuous
 62
     7
370
    30
100
AcDbLine
 10
2.054583
 20
-7.105073
 30
0.0
 11
2.142479
 21
-7.017177
 31
0.0
  0
LINE
  5
332
330
618
100
AcDbEntity
  8
HATCH
  6
Continuous
 62
     7
370
    30
100
AcDbLine
 10
2.231365
 20
-7.105073
 30
0.0
 11
2.31975
 21
-7.016687
 31
0.0
  0
LINE
  5
333
330
618
100
AcDbEntity
  8
HATCH
  6
Continuous
 62
     7
370
    30
100
AcDbLine
 10
2.408135
 20
-7.105073
 30
0.0
 11
2.46501
 21
-7.048198
 31
0.0
  0
LINE
  5
334
330
618
100
AcDbEntity
  8
HATCH
  6
Continuous
 62
     7
370
    30
100
AcDbLine
 10
1.734177
 20
-7.138219
 30
0.0
 11
1.822562
 21
-7.049833
 31
0.0
  0
LINE
  5
335
330
618
100
AcDbEntity
  8
HATCH
  6
Continuous
 62
     7
370
    30
100
AcDbLine
 10
1.557396
 20
-7.138219
 30
0.0
 11
1.643552
 21
-7.052073
 31
0.0
  0
LINE
  5
336
330
618
100
AcDbEntity
  8
HATCH
  6
Continuous
 62
     7
370
    30
100
AcDbLine
 10
1.910948
 20
-7.138219
 30
0.0
 11
1.999344
 21
-7.049833
 31
0.0
  0
LINE
  5
337
330
618
100
AcDbEntity
  8
HATCH
  6
Continuous
 62
     7
370
    30
100
AcDbLine
 10
2.087729
 20
-7.138219
 30
0.0
 11
2.176115
 21
-7.049833
 31
0.0
  0
LINE
  5
338
330
618
100
AcDbEntity
  8
HATCH
  6
Continuous
 62
     7
370
    30
100
AcDbLine
 10
2.26451
 20
-7.138219
 30
0.0
 11
2.352896
 21
-7.049833
 31
0.0
  0
LINE
  5
339
330
618
100
AcDbEntity
  8
HATCH
  6
Continuous
 62
     7
370
    30
100
AcDbLine
 10
2.315729
 20
-6.760729
 30
0.0
 11
2.315729
 21
-6.766042
 31
0.0
  0
LINE
  5
33A
330
618
100
AcDbEntity
  8
HATCH
  6
Continuous
 62
     7
370
    30
100
AcDbLine
 10
2.315729
 20
-6.841042
 30
0.0
 11
2.315729
 21
-6.878542
 31
0.0
  0
LINE
  5
33B
330
618
100
AcDbEntity
  8
HATCH
  6
Continuous
 62
     7
370
    30
100
AcDbLine
 10
2.315729
 20
-6.953542
 30
0.0
 11
2.315729
 21
-6.991042
 31
0.0
  0
LINE
  5
33C
330
618
100
AcDbEntity
  8
HATCH
  6
Continuous
 62
     7
370
    30
100
AcDbLine
 10
2.348208
 20
-6.784792
 30
0.0
 11
2.348208
 21
-6.822292
 31
0.0
  0
LINE
  5
33D
330
618
100
AcDbEntity
  8
HATCH
  6
Continuous
 62
     7
370
    30
100
AcDbLine
 10
2.348208
 20
-6.897292
 30
0.0
 11
2.348208
 21
-6.934792
 31
0.0
  0
LINE
  5
33E
330
618
100
AcDbEntity
  8
HATCH
  6
Continuous
 62
     7
370
    30
100
AcDbLine
 10
2.348208
 20
-7.009792
 30
0.0
 11
2.348208
 21
-7.012896
 31
0.0
  0
LINE
  5
33F
330
618
100
AcDbEntity
  8
HATCH
  6
Continuous
 62
     7
370
    30
100
AcDbLine
 10
2.380677
 20
-6.759375
 30
0.0
 11
2.380677
 21
-6.766042
 31
0.0
  0
LINE
  5
340
330
618
100
AcDbEntity
  8
HATCH
  6
Continuous
 62
     7
370
    30
100
AcDbLine
 10
2.380677
 20
-6.841042
 30
0.0
 11
2.380677
 21
-6.878542
 31
0.0
  0
LINE
  5
341
330
618
100
AcDbEntity
  8
HATCH
  6
Continuous
 62
     7
370
    30
100
AcDbLine
 10
2.380677
 20
-6.953542
 30
0.0
 11
2.380677
 21
-6.991042
 31
0.0
  0
LINE
  5
342
330
618
100
AcDbEntity
  8
HATCH
  6
Continuous
 62
     7
370
    30
100
AcDbLine
 10
2.413156
 20
-6.784792
 30
0.0
 11
2.413156
 21
-6.822292
 31
0.0
  0
LINE
  5
343
330
618
100
AcDbEntity
  8
HATCH
  6
Continuous
 62
     7
370
    30
100
AcDbLine
 10
2.413156
 20
-6.897292
 30
0.0
 11
2.413156
 21
-6.934792
 31
0.0
  0
LINE
  5
344
330
618
100
AcDbEntity
  8
HATCH
  6
Continuous
 62
     7
370
    30
100
AcDbLine
 10
2.445635
 20
-6.758021
 30
0.0
 11
2.445635
 21
-6.766042
 31
0.0
  0
LINE
  5
345
330
618
100
AcDbEntity
  8
HATCH
  6
Continuous
 62
     7
370
    30
100
AcDbLine
 10
2.445635
 20
-6.841042
 30
0.0
 11
2.445635
 21
-6.878542
 31
0.0
  0
LINE
  5
346
330
618
100
AcDbEntity
  8
HATCH
  6
Continuous
 62
     7
370
    30
100
AcDbLine
 10
2.445635
 20
-6.953542
 30
0.0
 11
2.445635
 21
-6.976708
 31
0.0
  0
LINE
  5
347
330
618
100
AcDbEntity
  8
HATCH
  6
Continuous
 62
     7
370
    30
100
AcDbLine
 10
2.478104
 20
-6.784792
 30
0.0
 11
2.478104
 21
-6.822292
 31
0.0
  0
LINE
  5
348
330
618
100
AcDbEntity
  8
HATCH
  6
Continuous
 62
     7
370
    30
100
AcDbLine
 10
2.478104
 20
-6.897292
 30
0.0
 11
2.478104
 21
-6.934792
 31
0.0
  0
LINE
  5
349
330
618
100
AcDbEntity
  8
HATCH
  6
Continuous
 62
     7
370
    30
100
AcDbLine
 10
2.510583
 20
-6.756667
 30
0.0
 11
2.510583
 21
-6.766042
 31
0.0
  0
LINE
  5
34A
330
618
100
AcDbEntity
  8
HATCH
  6
Continuous
 62
     7
370
    30
100
AcDbLine
 10
2.510583
 20
-6.841042
 30
0.0
 11
2.510583
 21
-6.878542
 31
0.0
  0
LINE
  5
34B
330
618
100
AcDbEntity
  8
HATCH
  6
Continuous
 62
     7
370
    30
100
AcDbLine
 10
2.543063
 20
-6.784792
 30
0.0
 11
2.543063
 21
-6.822292
 31
0.0
  0
LINE
  5
34C
330
618
100
AcDbEntity
  8
HATCH
  6
Continuous
 62
     7
370
    30
100
AcDbLine
 10
2.543063
 20
-6.897292
 30
0.0
 11
2.543063
 21
-6.917406
 31
0.0
  0
LINE
  5
34D
330
618
100
AcDbEntity
  8
HATCH
  6
Continuous
 62
     7
370
    30
100
AcDbLine
 10
2.575531
 20
-6.755312
 30
0.0
 11
2.575531
 21
-6.766042
 31
0.0
  0
LINE
  5
34E
330
618
100
AcDbEntity
  8
HATCH
  6
Continuous
 62
     7
370
    30
100
AcDbLine
 10
2.575531
 20
-6.841042
 30
0.0
 11
2.575531
 21
-6.878542
 31
0.0
  0
LINE
  5
34F
330
618
100
AcDbEntity
  8
HATCH
  6
Continuous
 62
     7
370
    30
100
AcDbLine
 10
2.60801
 20
-6.784792
 30
0.0
 11
2.60801
 21
-6.822292
 31
0.0
  0
LINE
  5
350
330
618
100
AcDbEntity
  8
HATCH
  6
Continuous
 62
     7
370
    30
100
AcDbLine
 10
2.64049
 20
-6.753958
 30
0.0
 11
2.64049
 21
-6.766042
 31
0.0
  0
LINE
  5
351
330
618
100
AcDbEntity
  8
HATCH
  6
Continuous
 62
     7
370
    30
100
AcDbLine
 10
2.64049
 20
-6.841042
 30
0.0
 11
2.64049
 21
-6.878542
 31
0.0
  0
LINE
  5
352
330
618
100
AcDbEntity
  8
HATCH
  6
Continuous
 62
     7
370
    30
100
AcDbLine
 10
2.672969
 20
-6.784792
 30
0.0
 11
2.672969
 21
-6.822292
 31
0.0
  0
LINE
  5
353
330
618
100
AcDbEntity
  8
HATCH
  6
Continuous
 62
     7
370
    30
100
AcDbLine
 10
2.705437
 20
-6.752604
 30
0.0
 11
2.705437
 21
-6.766042
 31
0.0
  0
LINE
  5
354
330
618
100
AcDbEntity
  8
HATCH
  6
Continuous
 62
     7
370
    30
100
AcDbLine
 10
2.705437
 20
-6.841042
 30
0.0
 11
2.705437
 21
-6.878542
 31
0.0
  0
LINE
  5
355
330
618
100
AcDbEntity
  8
HATCH
  6
Continuous
 62
     7
370
    30
100
AcDbLine
 10
2.737917
 20
-6.784792
 30
0.0
 11
2.737917
 21
-6.822292
 31
0.0
  0
LINE
  5
356
330
618
100
AcDbEntity
  8
HATCH
  6
Continuous
 62
     7
370
    30
100
AcDbLine
 10
2.770396
 20
-6.75125
 30
0.0
 11
2.770396
 21
-6.766042
 31
0.0
  0
LINE
  5
357
330
618
100
AcDbEntity
  8
HATCH
  6
Continuous
 62
     7
370
    30
100
AcDbLine
 10
2.770396
 20
-6.841042
 30
0.0
 11
2.770396
 21
-6.878542
 31
0.0
  0
LINE
  5
358
330
618
100
AcDbEntity
  8
HATCH
  6
Continuous
 62
     7
370
    30
100
AcDbLine
 10
2.802865
 20
-6.784792
 30
0.0
 11
2.802865
 21
-6.822292
 31
0.0
  0
LINE
  5
359
330
618
100
AcDbEntity
  8
HATCH
  6
Continuous
 62
     7
370
    30
100
AcDbLine
 10
2.835344
 20
-6.749896
 30
0.0
 11
2.835344
 21
-6.766042
 31
0.0
  0
LINE
  5
35A
330
618
100
AcDbEntity
  8
HATCH
  6
Continuous
 62
     7
370
    30
100
AcDbLine
 10
2.835344
 20
-6.841042
 30
0.0
 11
2.835344
 21
-6.878542
 31
0.0
  0
LINE
  5
35B
330
618
100
AcDbEntity
  8
HATCH
  6
Continuous
 62
     7
370
    30
100
AcDbLine
 10
2.867823
 20
-6.784792
 30
0.0
 11
2.867823
 21
-6.822292
 31
0.0
  0
LINE
  5
35C
330
618
100
AcDbEntity
  8
HATCH
  6
Continuous
 62
     7
370
    30
100
AcDbLine
 10
2.900292
 20
-6.748542
 30
0.0
 11
2.900292
 21
-6.766042
 31
0.0
  0
LINE
  5
35D
330
618
100
AcDbEntity
  8
HATCH
  6
Continuous
 62
     7
370
    30
100
AcDbLine
 10
2.900292
 20
-6.841042
 30
0.0
 11
2.900292
 21
-6.873552
 31
0.0
  0
LINE
  5
35E
330
618
100
AcDbEntity
  8
HATCH
  6
Continuous
 62
     7
370
    30
100
AcDbLine
 10
2.932771
 20
-6.784792
 30
0.0
 11
2.932771
 21
-6.822292
 31
0.0
  0
LINE
  5
35F
330
618
100
AcDbEntity
  8
HATCH
  6
Continuous
 62
     7
370
    30
100
AcDbLine
 10
2.96525
 20
-6.747198
 30
0.0
 11
2.96525
 21
-6.766042
 31
0.0
  0
LINE
  5
360
330
618
100
AcDbEntity
  8
HATCH
  6
Continuous
 62
     7
370
    30
100
AcDbLine
 10
2.96525
 20
-6.841042
 30
0.0
 11
2.96525
 21
-6.866927
 31
0.0
  0
LINE
  5
361
330
618
100
AcDbEntity
  8
HATCH
  6
Continuous
 62
     7
370
    30
100
AcDbLine
 10
2.28325
 20
-6.784792
 30
0.0
 11
2.28325
 21
-6.822292
 31
0.0
  0
LINE
  5
362
330
618
100
AcDbEntity
  8
HATCH
  6
Continuous
 62
     7
370
    30
100
AcDbLine
 10
2.28325
 20
-6.897292
 30
0.0
 11
2.28325
 21
-6.934792
 31
0.0
  0
LINE
  5
363
330
618
100
AcDbEntity
  8
HATCH
  6
Continuous
 62
     7
370
    30
100
AcDbLine
 10
2.28325
 20
-7.009792
 30
0.0
 11
2.28325
 21
-7.01425
 31
0.0
  0
LINE
  5
364
330
618
100
AcDbEntity
  8
HATCH
  6
Continuous
 62
     7
370
    30
100
AcDbLine
 10
2.250781
 20
-6.762083
 30
0.0
 11
2.250781
 21
-6.766042
 31
0.0
  0
LINE
  5
365
330
618
100
AcDbEntity
  8
HATCH
  6
Continuous
 62
     7
370
    30
100
AcDbLine
 10
2.250781
 20
-6.841042
 30
0.0
 11
2.250781
 21
-6.878542
 31
0.0
  0
LINE
  5
366
330
618
100
AcDbEntity
  8
HATCH
  6
Continuous
 62
     7
370
    30
100
AcDbLine
 10
2.250781
 20
-6.953542
 30
0.0
 11
2.250781
 21
-6.991042
 31
0.0
  0
LINE
  5
367
330
618
100
AcDbEntity
  8
HATCH
  6
Continuous
 62
     7
370
    30
100
AcDbLine
 10
2.218302
 20
-6.784792
 30
0.0
 11
2.218302
 21
-6.822292
 31
0.0
  0
LINE
  5
368
330
618
100
AcDbEntity
  8
HATCH
  6
Continuous
 62
     7
370
    30
100
AcDbLine
 10
2.218302
 20
-6.897292
 30
0.0
 11
2.218302
 21
-6.934792
 31
0.0
  0
LINE
  5
369
330
618
100
AcDbEntity
  8
HATCH
  6
Continuous
 62
     7
370
    30
100
AcDbLine
 10
2.218302
 20
-7.009792
 30
0.0
 11
2.218302
 21
-7.015604
 31
0.0
  0
LINE
  5
36A
330
618
100
AcDbEntity
  8
HATCH
  6
Continuous
 62
     7
370
    30
100
AcDbLine
 10
2.185823
 20
-6.841042
 30
0.0
 11
2.185823
 21
-6.878542
 31
0.0
  0
LINE
  5
36B
330
618
100
AcDbEntity
  8
HATCH
  6
Continuous
 62
     7
370
    30
100
AcDbLine
 10
2.185823
 20
-6.953542
 30
0.0
 11
2.185823
 21
-6.991042
 31
0.0
  0
LINE
  5
36C
330
618
100
AcDbEntity
  8
HATCH
  6
Continuous
 62
     7
370
    30
100
AcDbLine
 10
2.153354
 20
-6.79751
 30
0.0
 11
2.153354
 21
-6.822292
 31
0.0
  0
LINE
  5
36D
330
618
100
AcDbEntity
  8
HATCH
  6
Continuous
 62
     7
370
    30
100
AcDbLine
 10
2.153354
 20
-6.897292
 30
0.0
 11
2.153354
 21
-6.934792
 31
0.0
  0
LINE
  5
36E
330
618
100
AcDbEntity
  8
HATCH
  6
Continuous
 62
     7
370
    30
100
AcDbLine
 10
2.153354
 20
-7.009792
 30
0.0
 11
2.153354
 21
-7.016958
 31
0.0
  0
LINE
  5
36F
330
618
100
AcDbEntity
  8
HATCH
  6
Continuous
 62
     7
370
    30
100
AcDbLine
 10
2.120875
 20
-6.841042
 30
0.0
 11
2.120875
 21
-6.878542
 31
0.0
  0
LINE
  5
370
330
618
100
AcDbEntity
  8
HATCH
  6
Continuous
 62
     7
370
    30
100
AcDbLine
 10
2.120875
 20
-6.953542
 30
0.0
 11
2.120875
 21
-6.991042
 31
0.0
  0
LINE
  5
371
330
618
100
AcDbEntity
  8
HATCH
  6
Continuous
 62
     7
370
    30
100
AcDbLine
 10
2.088396
 20
-6.897292
 30
0.0
 11
2.088396
 21
-6.934792
 31
0.0
  0
LINE
  5
372
330
618
100
AcDbEntity
  8
HATCH
  6
Continuous
 62
     7
370
    30
100
AcDbLine
 10
2.088396
 20
-7.009792
 30
0.0
 11
2.088396
 21
-7.018312
 31
0.0
  0
LINE
  5
373
330
618
100
AcDbEntity
  8
HATCH
  6
Continuous
 62
     7
370
    30
100
AcDbLine
 10
2.055917
 20
-6.846156
 30
0.0
 11
2.055917
 21
-6.878542
 31
0.0
  0
LINE
  5
374
330
618
100
AcDbEntity
  8
HATCH
  6
Continuous
 62
     7
370
    30
100
AcDbLine
 10
2.055917
 20
-6.953542
 30
0.0
 11
2.055917
 21
-6.991042
 31
0.0
  0
LINE
  5
375
330
618
100
AcDbEntity
  8
HATCH
  6
Continuous
 62
     7
370
    30
100
AcDbLine
 10
2.023448
 20
-6.897292
 30
0.0
 11
2.023448
 21
-6.934792
 31
0.0
  0
LINE
  5
376
330
618
100
AcDbEntity
  8
HATCH
  6
Continuous
 62
     7
370
    30
100
AcDbLine
 10
2.023448
 20
-7.009792
 30
0.0
 11
2.023448
 21
-7.019656
 31
0.0
  0
LINE
  5
377
330
618
100
AcDbEntity
  8
HATCH
  6
Continuous
 62
     7
370
    30
100
AcDbLine
 10
1.990969
 20
-6.953542
 30
0.0
 11
1.990969
 21
-6.991042
 31
0.0
  0
LINE
  5
378
330
618
100
AcDbEntity
  8
HATCH
  6
Continuous
 62
     7
370
    30
100
AcDbLine
 10
1.95849
 20
-6.897292
 30
0.0
 11
1.95849
 21
-6.934792
 31
0.0
  0
LINE
  5
379
330
618
100
AcDbEntity
  8
HATCH
  6
Continuous
 62
     7
370
    30
100
AcDbLine
 10
1.95849
 20
-7.009792
 30
0.0
 11
1.95849
 21
-7.02101
 31
0.0
  0
LINE
  5
37A
330
618
100
AcDbEntity
  8
HATCH
  6
Continuous
 62
     7
370
    30
100
AcDbLine
 10
1.926021
 20
-6.953542
 30
0.0
 11
1.926021
 21
-6.991042
 31
0.0
  0
LINE
  5
37B
330
618
100
AcDbEntity
  8
HATCH
  6
Continuous
 62
     7
370
    30
100
AcDbLine
 10
1.893542
 20
-6.92724
 30
0.0
 11
1.893542
 21
-6.934792
 31
0.0
  0
LINE
  5
37C
330
618
100
AcDbEntity
  8
HATCH
  6
Continuous
 62
     7
370
    30
100
AcDbLine
 10
1.893542
 20
-7.009792
 30
0.0
 11
1.893542
 21
-7.022365
 31
0.0
  0
LINE
  5
37D
330
618
100
AcDbEntity
  8
HATCH
  6
Continuous
 62
     7
370
    30
100
AcDbLine
 10
1.861062
 20
-6.953542
 30
0.0
 11
1.861062
 21
-6.991042
 31
0.0
  0
LINE
  5
37E
330
618
100
AcDbEntity
  8
HATCH
  6
Continuous
 62
     7
370
    30
100
AcDbLine
 10
1.828594
 20
-7.009792
 30
0.0
 11
1.828594
 21
-7.023719
 31
0.0
  0
LINE
  5
37F
330
618
100
AcDbEntity
  8
HATCH
  6
Continuous
 62
     7
370
    30
100
AcDbLine
 10
1.796115
 20
-6.975885
 30
0.0
 11
1.796115
 21
-6.991042
 31
0.0
  0
LINE
  5
380
330
618
100
AcDbEntity
  8
HATCH
  6
Continuous
 62
     7
370
    30
100
AcDbLine
 10
1.763635
 20
-7.009792
 30
0.0
 11
1.763635
 21
-7.025073
 31
0.0
  0
LINE
  5
381
330
618
100
AcDbEntity
  8
HATCH
  6
Continuous
 62
     7
370
    30
100
AcDbLine
 10
1.698687
 20
-7.024542
 30
0.0
 11
1.698687
 21
-7.026427
 31
0.0
  0
LINE
  5
382
330
618
100
AcDbEntity
  8
HATCH
  6
Continuous
 62
     7
370
    30
100
AcDbLine
 10
2.088396
 20
-7.009792
 30
0.0
 11
2.120875
 21
-6.991042
 31
0.0
  0
LINE
  5
383
330
618
100
AcDbEntity
  8
HATCH
  6
Continuous
 62
     7
370
    30
100
AcDbLine
 10
2.185823
 20
-6.953542
 30
0.0
 11
2.218302
 21
-6.934792
 31
0.0
  0
LINE
  5
384
330
618
100
AcDbEntity
  8
HATCH
  6
Continuous
 62
     7
370
    30
100
AcDbLine
 10
2.28325
 20
-6.897292
 30
0.0
 11
2.315729
 21
-6.878542
 31
0.0
  0
LINE
  5
385
330
618
100
AcDbEntity
  8
HATCH
  6
Continuous
 62
     7
370
    30
100
AcDbLine
 10
2.380677
 20
-6.841042
 30
0.0
 11
2.413156
 21
-6.822292
 31
0.0
  0
LINE
  5
386
330
618
100
AcDbEntity
  8
HATCH
  6
Continuous
 62
     7
370
    30
100
AcDbLine
 10
2.478104
 20
-6.784792
 30
0.0
 11
2.510583
 21
-6.766042
 31
0.0
  0
LINE
  5
387
330
618
100
AcDbEntity
  8
HATCH
  6
Continuous
 62
     7
370
    30
100
AcDbLine
 10
2.023448
 20
-7.009792
 30
0.0
 11
2.055917
 21
-6.991042
 31
0.0
  0
LINE
  5
388
330
618
100
AcDbEntity
  8
HATCH
  6
Continuous
 62
     7
370
    30
100
AcDbLine
 10
2.120875
 20
-6.953542
 30
0.0
 11
2.153354
 21
-6.934792
 31
0.0
  0
LINE
  5
389
330
618
100
AcDbEntity
  8
HATCH
  6
Continuous
 62
     7
370
    30
100
AcDbLine
 10
2.218302
 20
-6.897292
 30
0.0
 11
2.250781
 21
-6.878542
 31
0.0
  0
LINE
  5
38A
330
618
100
AcDbEntity
  8
HATCH
  6
Continuous
 62
     7
370
    30
100
AcDbLine
 10
2.315729
 20
-6.841042
 30
0.0
 11
2.348208
 21
-6.822292
 31
0.0
  0
LINE
  5
38B
330
618
100
AcDbEntity
  8
HATCH
  6
Continuous
 62
     7
370
    30
100
AcDbLine
 10
2.413156
 20
-6.784792
 30
0.0
 11
2.445635
 21
-6.766042
 31
0.0
  0
LINE
  5
38C
330
618
100
AcDbEntity
  8
HATCH
  6
Continuous
 62
     7
370
    30
100
AcDbLine
 10
1.95849
 20
-7.009792
 30
0.0
 11
1.990969
 21
-6.991042
 31
0.0
  0
LINE
  5
38D
330
618
100
AcDbEntity
  8
HATCH
  6
Continuous
 62
     7
370
    30
100
AcDbLine
 10
2.055917
 20
-6.953542
 30
0.0
 11
2.088396
 21
-6.934792
 31
0.0
  0
LINE
  5
38E
330
618
100
AcDbEntity
  8
HATCH
  6
Continuous
 62
     7
370
    30
100
AcDbLine
 10
2.153354
 20
-6.897292
 30
0.0
 11
2.185823
 21
-6.878542
 31
0.0
  0
LINE
  5
38F
330
618
100
AcDbEntity
  8
HATCH
  6
Continuous
 62
     7
370
    30
100
AcDbLine
 10
2.250781
 20
-6.841042
 30
0.0
 11
2.28325
 21
-6.822292
 31
0.0
  0
LINE
  5
390
330
618
100
AcDbEntity
  8
HATCH
  6
Continuous
 62
     7
370
    30
100
AcDbLine
 10
2.348208
 20
-6.784792
 30
0.0
 11
2.380677
 21
-6.766042
 31
0.0
  0
LINE
  5
391
330
618
100
AcDbEntity
  8
HATCH
  6
Continuous
 62
     7
370
    30
100
AcDbLine
 10
1.893542
 20
-7.009792
 30
0.0
 11
1.926021
 21
-6.991042
 31
0.0
  0
LINE
  5
392
330
618
100
AcDbEntity
  8
HATCH
  6
Continuous
 62
     7
370
    30
100
AcDbLine
 10
1.990969
 20
-6.953542
 30
0.0
 11
2.023448
 21
-6.934792
 31
0.0
  0
LINE
  5
393
330
618
100
AcDbEntity
  8
HATCH
  6
Continuous
 62
     7
370
    30
100
AcDbLine
 10
2.088396
 20
-6.897292
 30
0.0
 11
2.120875
 21
-6.878542
 31
0.0
  0
LINE
  5
394
330
618
100
AcDbEntity
  8
HATCH
  6
Continuous
 62
     7
370
    30
100
AcDbLine
 10
2.185823
 20
-6.841042
 30
0.0
 11
2.218302
 21
-6.822292
 31
0.0
  0
LINE
  5
395
330
618
100
AcDbEntity
  8
HATCH
  6
Continuous
 62
     7
370
    30
100
AcDbLine
 10
2.28325
 20
-6.784792
 30
0.0
 11
2.315729
 21
-6.766042
 31
0.0
  0
LINE
  5
396
330
618
100
AcDbEntity
  8
HATCH
  6
Continuous
 62
     7
370
    30
100
AcDbLine
 10
1.828594
 20
-7.009792
 30
0.0
 11
1.861062
 21
-6.991042
 31
0.0
  0
LINE
  5
397
330
618
100
AcDbEntity
  8
HATCH
  6
Continuous
 62
     7
370
    30
100
AcDbLine
 10
1.926021
 20
-6.953542
 30
0.0
 11
1.95849
 21
-6.934792
 31
0.0
  0
LINE
  5
398
330
618
100
AcDbEntity
  8
HATCH
  6
Continuous
 62
     7
370
    30
100
AcDbLine
 10
2.023448
 20
-6.897292
 30
0.0
 11
2.055917
 21
-6.878542
 31
0.0
  0
LINE
  5
399
330
618
100
AcDbEntity
  8
HATCH
  6
Continuous
 62
     7
370
    30
100
AcDbLine
 10
2.120875
 20
-6.841042
 30
0.0
 11
2.153354
 21
-6.822292
 31
0.0
  0
LINE
  5
39A
330
618
100
AcDbEntity
  8
HATCH
  6
Continuous
 62
     7
370
    30
100
AcDbLine
 10
2.218302
 20
-6.784792
 30
0.0
 11
2.250781
 21
-6.766042
 31
0.0
  0
LINE
  5
39B
330
618
100
AcDbEntity
  8
HATCH
  6
Continuous
 62
     7
370
    30
100
AcDbLine
 10
1.763635
 20
-7.009792
 30
0.0
 11
1.796115
 21
-6.991042
 31
0.0
  0
LINE
  5
39C
330
618
100
AcDbEntity
  8
HATCH
  6
Continuous
 62
     7
370
    30
100
AcDbLine
 10
1.861062
 20
-6.953542
 30
0.0
 11
1.893542
 21
-6.934792
 31
0.0
  0
LINE
  5
39D
330
618
100
AcDbEntity
  8
HATCH
  6
Continuous
 62
     7
370
    30
100
AcDbLine
 10
1.95849
 20
-6.897292
 30
0.0
 11
1.990333
 21
-6.878906
 31
0.0
  0
LINE
  5
39E
330
618
100
AcDbEntity
  8
HATCH
  6
Continuous
 62
     7
370
    30
100
AcDbLine
 10
2.153354
 20
-7.009792
 30
0.0
 11
2.185823
 21
-6.991042
 31
0.0
  0
LINE
  5
39F
330
618
100
AcDbEntity
  8
HATCH
  6
Continuous
 62
     7
370
    30
100
AcDbLine
 10
2.250781
 20
-6.953542
 30
0.0
 11
2.28325
 21
-6.934792
 31
0.0
  0
LINE
  5
3A0
330
618
100
AcDbEntity
  8
HATCH
  6
Continuous
 62
     7
370
    30
100
AcDbLine
 10
2.348208
 20
-6.897292
 30
0.0
 11
2.380677
 21
-6.878542
 31
0.0
  0
LINE
  5
3A1
330
618
100
AcDbEntity
  8
HATCH
  6
Continuous
 62
     7
370
    30
100
AcDbLine
 10
2.445635
 20
-6.841042
 30
0.0
 11
2.478104
 21
-6.822292
 31
0.0
  0
LINE
  5
3A2
330
618
100
AcDbEntity
  8
HATCH
  6
Continuous
 62
     7
370
    30
100
AcDbLine
 10
2.543063
 20
-6.784792
 30
0.0
 11
2.575531
 21
-6.766042
 31
0.0
  0
LINE
  5
3A3
330
618
100
AcDbEntity
  8
HATCH
  6
Continuous
 62
     7
370
    30
100
AcDbLine
 10
2.218302
 20
-7.009792
 30
0.0
 11
2.250781
 21
-6.991042
 31
0.0
  0
LINE
  5
3A4
330
618
100
AcDbEntity
  8
HATCH
  6
Continuous
 62
     7
370
    30
100
AcDbLine
 10
2.315729
 20
-6.953542
 30
0.0
 11
2.348208
 21
-6.934792
 31
0.0
  0
LINE
  5
3A5
330
618
100
AcDbEntity
  8
HATCH
  6
Continuous
 62
     7
370
    30
100
AcDbLine
 10
2.413156
 20
-6.897292
 30
0.0
 11
2.445635
 21
-6.878542
 31
0.0
  0
LINE
  5
3A6
330
618
100
AcDbEntity
  8
HATCH
  6
Continuous
 62
     7
370
    30
100
AcDbLine
 10
2.510583
 20
-6.841042
 30
0.0
 11
2.543063
 21
-6.822292
 31
0.0
  0
LINE
  5
3A7
330
618
100
AcDbEntity
  8
HATCH
  6
Continuous
 62
     7
370
    30
100
AcDbLine
 10
2.60801
 20
-6.784792
 30
0.0
 11
2.64049
 21
-6.766042
 31
0.0
  0
LINE
  5
3A8
330
618
100
AcDbEntity
  8
HATCH
  6
Continuous
 62
     7
370
    30
100
AcDbLine
 10
2.28325
 20
-7.009792
 30
0.0
 11
2.315729
 21
-6.991042
 31
0.0
  0
LINE
  5
3A9
330
618
100
AcDbEntity
  8
HATCH
  6
Continuous
 62
     7
370
    30
100
AcDbLine
 10
2.380677
 20
-6.953542
 30
0.0
 11
2.413156
 21
-6.934792
 31
0.0
  0
LINE
  5
3AA
330
618
100
AcDbEntity
  8
HATCH
  6
Continuous
 62
     7
370
    30
100
AcDbLine
 10
2.478104
 20
-6.897292
 30
0.0
 11
2.510583
 21
-6.878542
 31
0.0
  0
LINE
  5
3AB
330
618
100
AcDbEntity
  8
HATCH
  6
Continuous
 62
     7
370
    30
100
AcDbLine
 10
2.575531
 20
-6.841042
 30
0.0
 11
2.60801
 21
-6.822292
 31
0.0
  0
LINE
  5
3AC
330
618
100
AcDbEntity
  8
HATCH
  6
Continuous
 62
     7
370
    30
100
AcDbLine
 10
2.672969
 20
-6.784792
 30
0.0
 11
2.705437
 21
-6.766042
 31
0.0
  0
LINE
  5
3AD
330
618
100
AcDbEntity
  8
HATCH
  6
Continuous
 62
     7
370
    30
100
AcDbLine
 10
2.348208
 20
-7.009792
 30
0.0
 11
2.380677
 21
-6.991042
 31
0.0
  0
LINE
  5
3AE
330
618
100
AcDbEntity
  8
HATCH
  6
Continuous
 62
     7
370
    30
100
AcDbLine
 10
2.445635
 20
-6.953542
 30
0.0
 11
2.478104
 21
-6.934792
 31
0.0
  0
LINE
  5
3AF
330
618
100
AcDbEntity
  8
HATCH
  6
Continuous
 62
     7
370
    30
100
AcDbLine
 10
2.543063
 20
-6.897292
 30
0.0
 11
2.575531
 21
-6.878542
 31
0.0
  0
LINE
  5
3B0
330
618
100
AcDbEntity
  8
HATCH
  6
Continuous
 62
     7
370
    30
100
AcDbLine
 10
2.64049
 20
-6.841042
 30
0.0
 11
2.672969
 21
-6.822292
 31
0.0
  0
LINE
  5
3B1
330
618
100
AcDbEntity
  8
HATCH
  6
Continuous
 62
     7
370
    30
100
AcDbLine
 10
2.737917
 20
-6.784792
 30
0.0
 11
2.770396
 21
-6.766042
 31
0.0
  0
LINE
  5
3B2
330
618
100
AcDbEntity
  8
HATCH
  6
Continuous
 62
     7
370
    30
100
AcDbLine
 10
2.616969
 20
-6.892125
 30
0.0
 11
2.64049
 21
-6.878542
 31
0.0
  0
LINE
  5
3B3
330
618
100
AcDbEntity
  8
HATCH
  6
Continuous
 62
     7
370
    30
100
AcDbLine
 10
2.705437
 20
-6.841042
 30
0.0
 11
2.737917
 21
-6.822292
 31
0.0
  0
LINE
  5
3B4
330
618
100
AcDbEntity
  8
HATCH
  6
Continuous
 62
     7
370
    30
100
AcDbLine
 10
2.802865
 20
-6.784792
 30
0.0
 11
2.835344
 21
-6.766042
 31
0.0
  0
LINE
  5
3B5
330
618
100
AcDbEntity
  8
HATCH
  6
Continuous
 62
     7
370
    30
100
AcDbLine
 10
2.703552
 20
-6.879635
 30
0.0
 11
2.705437
 21
-6.878542
 31
0.0
  0
LINE
  5
3B6
330
618
100
AcDbEntity
  8
HATCH
  6
Continuous
 62
     7
370
    30
100
AcDbLine
 10
2.770396
 20
-6.841042
 30
0.0
 11
2.802865
 21
-6.822292
 31
0.0
  0
LINE
  5
3B7
330
618
100
AcDbEntity
  8
HATCH
  6
Continuous
 62
     7
370
    30
100
AcDbLine
 10
2.867823
 20
-6.784792
 30
0.0
 11
2.900292
 21
-6.766042
 31
0.0
  0
LINE
  5
3B8
330
618
100
AcDbEntity
  8
HATCH
  6
Continuous
 62
     7
370
    30
100
AcDbLine
 10
2.763083
 20
-6.88276
 30
0.0
 11
2.770396
 21
-6.878542
 31
0.0
  0
LINE
  5
3B9
330
618
100
AcDbEntity
  8
HATCH
  6
Continuous
 62
     7
370
    30
100
AcDbLine
 10
2.835344
 20
-6.841042
 30
0.0
 11
2.867823
 21
-6.822292
 31
0.0
  0
LINE
  5
3BA
330
618
100
AcDbEntity
  8
HATCH
  6
Continuous
 62
     7
370
    30
100
AcDbLine
 10
2.932771
 20
-6.784792
 30
0.0
 11
2.96525
 21
-6.766042
 31
0.0
  0
LINE
  5
3BB
330
618
100
AcDbEntity
  8
HATCH
  6
Continuous
 62
     7
370
    30
100
AcDbLine
 10
2.831896
 20
-6.880531
 30
0.0
 11
2.835344
 21
-6.878542
 31
0.0
  0
LINE
  5
3BC
330
618
100
AcDbEntity
  8
HATCH
  6
Continuous
 62
     7
370
    30
100
AcDbLine
 10
2.900292
 20
-6.841042
 30
0.0
 11
2.932771
 21
-6.822292
 31
0.0
  0
LINE
  5
3BD
330
618
100
AcDbEntity
  8
HATCH
  6
Continuous
 62
     7
370
    30
100
AcDbLine
 10
2.96525
 20
-6.841042
 30
0.0
 11
2.985365
 21
-6.829427
 31
0.0
  0
LINE
  5
3BE
330
618
100
AcDbEntity
  8
HATCH
  6
Continuous
 62
     7
370
    30
100
AcDbLine
 10
2.19999
 20
-6.774219
 30
0.0
 11
2.218302
 21
-6.784792
 31
0.0
  0
LINE
  5
3BF
330
618
100
AcDbEntity
  8
HATCH
  6
Continuous
 62
     7
370
    30
100
AcDbLine
 10
2.28325
 20
-6.822292
 30
0.0
 11
2.315729
 21
-6.841042
 31
0.0
  0
LINE
  5
3C0
330
618
100
AcDbEntity
  8
HATCH
  6
Continuous
 62
     7
370
    30
100
AcDbLine
 10
2.380677
 20
-6.878542
 30
0.0
 11
2.413156
 21
-6.897292
 31
0.0
  0
LINE
  5
3C1
330
618
100
AcDbEntity
  8
HATCH
  6
Continuous
 62
     7
370
    30
100
AcDbLine
 10
2.478104
 20
-6.934792
 30
0.0
 11
2.4945
 21
-6.94425
 31
0.0
  0
LINE
  5
3C2
330
618
100
AcDbEntity
  8
HATCH
  6
Continuous
 62
     7
370
    30
100
AcDbLine
 10
2.250781
 20
-6.766042
 30
0.0
 11
2.28325
 21
-6.784792
 31
0.0
  0
LINE
  5
3C3
330
618
100
AcDbEntity
  8
HATCH
  6
Continuous
 62
     7
370
    30
100
AcDbLine
 10
2.348208
 20
-6.822292
 30
0.0
 11
2.380677
 21
-6.841042
 31
0.0
  0
LINE
  5
3C4
330
618
100
AcDbEntity
  8
HATCH
  6
Continuous
 62
     7
370
    30
100
AcDbLine
 10
2.445635
 20
-6.878542
 30
0.0
 11
2.478104
 21
-6.897292
 31
0.0
  0
LINE
  5
3C5
330
618
100
AcDbEntity
  8
HATCH
  6
Continuous
 62
     7
370
    30
100
AcDbLine
 10
2.315729
 20
-6.766042
 30
0.0
 11
2.348208
 21
-6.784792
 31
0.0
  0
LINE
  5
3C6
330
618
100
AcDbEntity
  8
HATCH
  6
Continuous
 62
     7
370
    30
100
AcDbLine
 10
2.413156
 20
-6.822292
 30
0.0
 11
2.445635
 21
-6.841042
 31
0.0
  0
LINE
  5
3C7
330
618
100
AcDbEntity
  8
HATCH
  6
Continuous
 62
     7
370
    30
100
AcDbLine
 10
2.510583
 20
-6.878542
 30
0.0
 11
2.543063
 21
-6.897292
 31
0.0
  0
LINE
  5
3C8
330
618
100
AcDbEntity
  8
HATCH
  6
Continuous
 62
     7
370
    30
100
AcDbLine
 10
2.380677
 20
-6.766042
 30
0.0
 11
2.413156
 21
-6.784792
 31
0.0
  0
LINE
  5
3C9
330
618
100
AcDbEntity
  8
HATCH
  6
Continuous
 62
     7
370
    30
100
AcDbLine
 10
2.478104
 20
-6.822292
 30
0.0
 11
2.510583
 21
-6.841042
 31
0.0
  0
LINE
  5
3CA
330
618
100
AcDbEntity
  8
HATCH
  6
Continuous
 62
     7
370
    30
100
AcDbLine
 10
2.575531
 20
-6.878542
 30
0.0
 11
2.605719
 21
-6.895969
 31
0.0
  0
LINE
  5
3CB
330
618
100
AcDbEntity
  8
HATCH
  6
Continuous
 62
     7
370
    30
100
AcDbLine
 10
2.445635
 20
-6.766042
 30
0.0
 11
2.478104
 21
-6.784792
 31
0.0
  0
LINE
  5
3CC
330
618
100
AcDbEntity
  8
HATCH
  6
Continuous
 62
     7
370
    30
100
AcDbLine
 10
2.543063
 20
-6.822292
 30
0.0
 11
2.575531
 21
-6.841042
 31
0.0
  0
LINE
  5
3CD
330
618
100
AcDbEntity
  8
HATCH
  6
Continuous
 62
     7
370
    30
100
AcDbLine
 10
2.64049
 20
-6.878542
 30
0.0
 11
2.64651
 21
-6.882021
 31
0.0
  0
LINE
  5
3CE
330
618
100
AcDbEntity
  8
HATCH
  6
Continuous
 62
     7
370
    30
100
AcDbLine
 10
2.510583
 20
-6.766042
 30
0.0
 11
2.543063
 21
-6.784792
 31
0.0
  0
LINE
  5
3CF
330
618
100
AcDbEntity
  8
HATCH
  6
Continuous
 62
     7
370
    30
100
AcDbLine
 10
2.60801
 20
-6.822292
 30
0.0
 11
2.64049
 21
-6.841042
 31
0.0
  0
LINE
  5
3D0
330
618
100
AcDbEntity
  8
HATCH
  6
Continuous
 62
     7
370
    30
100
AcDbLine
 10
2.705437
 20
-6.878542
 30
0.0
 11
2.707708
 21
-6.879854
 31
0.0
  0
LINE
  5
3D1
330
618
100
AcDbEntity
  8
HATCH
  6
Continuous
 62
     7
370
    30
100
AcDbLine
 10
2.575531
 20
-6.766042
 30
0.0
 11
2.60801
 21
-6.784792
 31
0.0
  0
LINE
  5
3D2
330
618
100
AcDbEntity
  8
HATCH
  6
Continuous
 62
     7
370
    30
100
AcDbLine
 10
2.672969
 20
-6.822292
 30
0.0
 11
2.705437
 21
-6.841042
 31
0.0
  0
LINE
  5
3D3
330
618
100
AcDbEntity
  8
HATCH
  6
Continuous
 62
     7
370
    30
100
AcDbLine
 10
2.770396
 20
-6.878542
 30
0.0
 11
2.779177
 21
-6.883615
 31
0.0
  0
LINE
  5
3D4
330
618
100
AcDbEntity
  8
HATCH
  6
Continuous
 62
     7
370
    30
100
AcDbLine
 10
2.64049
 20
-6.766042
 30
0.0
 11
2.672969
 21
-6.784792
 31
0.0
  0
LINE
  5
3D5
330
618
100
AcDbEntity
  8
HATCH
  6
Continuous
 62
     7
370
    30
100
AcDbLine
 10
2.737917
 20
-6.822292
 30
0.0
 11
2.770396
 21
-6.841042
 31
0.0
  0
LINE
  5
3D6
330
618
100
AcDbEntity
  8
HATCH
  6
Continuous
 62
     7
370
    30
100
AcDbLine
 10
2.835344
 20
-6.878542
 30
0.0
 11
2.83776
 21
-6.879937
 31
0.0
  0
LINE
  5
3D7
330
618
100
AcDbEntity
  8
HATCH
  6
Continuous
 62
     7
370
    30
100
AcDbLine
 10
2.705437
 20
-6.766042
 30
0.0
 11
2.737917
 21
-6.784792
 31
0.0
  0
LINE
  5
3D8
330
618
100
AcDbEntity
  8
HATCH
  6
Continuous
 62
     7
370
    30
100
AcDbLine
 10
2.802865
 20
-6.822292
 30
0.0
 11
2.835344
 21
-6.841042
 31
0.0
  0
LINE
  5
3D9
330
618
100
AcDbEntity
  8
HATCH
  6
Continuous
 62
     7
370
    30
100
AcDbLine
 10
2.770396
 20
-6.766042
 30
0.0
 11
2.802865
 21
-6.784792
 31
0.0
  0
LINE
  5
3DA
330
618
100
AcDbEntity
  8
HATCH
  6
Continuous
 62
     7
370
    30
100
AcDbLine
 10
2.867823
 20
-6.822292
 30
0.0
 11
2.900292
 21
-6.841042
 31
0.0
  0
LINE
  5
3DB
330
618
100
AcDbEntity
  8
HATCH
  6
Continuous
 62
     7
370
    30
100
AcDbLine
 10
2.835344
 20
-6.766042
 30
0.0
 11
2.867823
 21
-6.784792
 31
0.0
  0
LINE
  5
3DC
330
618
100
AcDbEntity
  8
HATCH
  6
Continuous
 62
     7
370
    30
100
AcDbLine
 10
2.932771
 20
-6.822292
 30
0.0
 11
2.96525
 21
-6.841042
 31
0.0
  0
LINE
  5
3DD
330
618
100
AcDbEntity
  8
HATCH
  6
Continuous
 62
     7
370
    30
100
AcDbLine
 10
2.900292
 20
-6.766042
 30
0.0
 11
2.932771
 21
-6.784792
 31
0.0
  0
LINE
  5
3DE
330
618
100
AcDbEntity
  8
HATCH
  6
Continuous
 62
     7
370
    30
100
AcDbLine
 10
2.96525
 20
-6.766042
 30
0.0
 11
2.993313
 21
-6.78224
 31
0.0
  0
LINE
  5
3DF
330
618
100
AcDbEntity
  8
HATCH
  6
Continuous
 62
     7
370
    30
100
AcDbLine
 10
2.218302
 20
-6.822292
 30
0.0
 11
2.250781
 21
-6.841042
 31
0.0
  0
LINE
  5
3E0
330
618
100
AcDbEntity
  8
HATCH
  6
Continuous
 62
     7
370
    30
100
AcDbLine
 10
2.315729
 20
-6.878542
 30
0.0
 11
2.348208
 21
-6.897292
 31
0.0
  0
LINE
  5
3E1
330
618
100
AcDbEntity
  8
HATCH
  6
Continuous
 62
     7
370
    30
100
AcDbLine
 10
2.413156
 20
-6.934792
 30
0.0
 11
2.445635
 21
-6.953542
 31
0.0
  0
LINE
  5
3E2
330
618
100
AcDbEntity
  8
HATCH
  6
Continuous
 62
     7
370
    30
100
AcDbLine
 10
2.153354
 20
-6.822292
 30
0.0
 11
2.185823
 21
-6.841042
 31
0.0
  0
LINE
  5
3E3
330
618
100
AcDbEntity
  8
HATCH
  6
Continuous
 62
     7
370
    30
100
AcDbLine
 10
2.250781
 20
-6.878542
 30
0.0
 11
2.28325
 21
-6.897292
 31
0.0
  0
LINE
  5
3E4
330
618
100
AcDbEntity
  8
HATCH
  6
Continuous
 62
     7
370
    30
100
AcDbLine
 10
2.348208
 20
-6.934792
 30
0.0
 11
2.380677
 21
-6.953542
 31
0.0
  0
LINE
  5
3E5
330
618
100
AcDbEntity
  8
HATCH
  6
Continuous
 62
     7
370
    30
100
AcDbLine
 10
2.0955
 20
-6.826396
 30
0.0
 11
2.120875
 21
-6.841042
 31
0.0
  0
LINE
  5
3E6
330
618
100
AcDbEntity
  8
HATCH
  6
Continuous
 62
     7
370
    30
100
AcDbLine
 10
2.185823
 20
-6.878542
 30
0.0
 11
2.218302
 21
-6.897292
 31
0.0
  0
LINE
  5
3E7
330
618
100
AcDbEntity
  8
HATCH
  6
Continuous
 62
     7
370
    30
100
AcDbLine
 10
2.28325
 20
-6.934792
 30
0.0
 11
2.315729
 21
-6.953542
 31
0.0
  0
LINE
  5
3E8
330
618
100
AcDbEntity
  8
HATCH
  6
Continuous
 62
     7
370
    30
100
AcDbLine
 10
2.380677
 20
-6.991042
 30
0.0
 11
2.403885
 21
-7.004437
 31
0.0
  0
LINE
  5
3E9
330
618
100
AcDbEntity
  8
HATCH
  6
Continuous
 62
     7
370
    30
100
AcDbLine
 10
2.120875
 20
-6.878542
 30
0.0
 11
2.153354
 21
-6.897292
 31
0.0
  0
LINE
  5
3EA
330
618
100
AcDbEntity
  8
HATCH
  6
Continuous
 62
     7
370
    30
100
AcDbLine
 10
2.218302
 20
-6.934792
 30
0.0
 11
2.250781
 21
-6.953542
 31
0.0
  0
LINE
  5
3EB
330
618
100
AcDbEntity
  8
HATCH
  6
Continuous
 62
     7
370
    30
100
AcDbLine
 10
2.315729
 20
-6.991042
 30
0.0
 11
2.348208
 21
-7.009792
 31
0.0
  0
LINE
  5
3EC
330
618
100
AcDbEntity
  8
HATCH
  6
Continuous
 62
     7
370
    30
100
AcDbLine
 10
2.055917
 20
-6.878542
 30
0.0
 11
2.088396
 21
-6.897292
 31
0.0
  0
LINE
  5
3ED
330
618
100
AcDbEntity
  8
HATCH
  6
Continuous
 62
     7
370
    30
100
AcDbLine
 10
2.153354
 20
-6.934792
 30
0.0
 11
2.185823
 21
-6.953542
 31
0.0
  0
LINE
  5
3EE
330
618
100
AcDbEntity
  8
HATCH
  6
Continuous
 62
     7
370
    30
100
AcDbLine
 10
2.250781
 20
-6.991042
 30
0.0
 11
2.28325
 21
-7.009792
 31
0.0
  0
LINE
  5
3EF
330
618
100
AcDbEntity
  8
HATCH
  6
Continuous
 62
     7
370
    30
100
AcDbLine
 10
1.99101
 20
-6.878573
 30
0.0
 11
2.023448
 21
-6.897292
 31
0.0
  0
LINE
  5
3F0
330
618
100
AcDbEntity
  8
HATCH
  6
Continuous
 62
     7
370
    30
100
AcDbLine
 10
2.088396
 20
-6.934792
 30
0.0
 11
2.120875
 21
-6.953542
 31
0.0
  0
LINE
  5
3F1
330
618
100
AcDbEntity
  8
HATCH
  6
Continuous
 62
     7
370
    30
100
AcDbLine
 10
2.185823
 20
-6.991042
 30
0.0
 11
2.218302
 21
-7.009792
 31
0.0
  0
LINE
  5
3F2
330
618
100
AcDbEntity
  8
HATCH
  6
Continuous
 62
     7
370
    30
100
AcDbLine
 10
1.956187
 20
-6.895958
 30
0.0
 11
1.95849
 21
-6.897292
 31
0.0
  0
LINE
  5
3F3
330
618
100
AcDbEntity
  8
HATCH
  6
Continuous
 62
     7
370
    30
100
AcDbLine
 10
2.023448
 20
-6.934792
 30
0.0
 11
2.055917
 21
-6.953542
 31
0.0
  0
LINE
  5
3F4
330
618
100
AcDbEntity
  8
HATCH
  6
Continuous
 62
     7
370
    30
100
AcDbLine
 10
2.120875
 20
-6.991042
 30
0.0
 11
2.153354
 21
-7.009792
 31
0.0
  0
LINE
  5
3F5
330
618
100
AcDbEntity
  8
HATCH
  6
Continuous
 62
     7
370
    30
100
AcDbLine
 10
1.95849
 20
-6.934792
 30
0.0
 11
1.990969
 21
-6.953542
 31
0.0
  0
LINE
  5
3F6
330
618
100
AcDbEntity
  8
HATCH
  6
Continuous
 62
     7
370
    30
100
AcDbLine
 10
2.055917
 20
-6.991042
 30
0.0
 11
2.088396
 21
-7.009792
 31
0.0
  0
LINE
  5
3F7
330
618
100
AcDbEntity
  8
HATCH
  6
Continuous
 62
     7
370
    30
100
AcDbLine
 10
1.893542
 20
-6.934792
 30
0.0
 11
1.926021
 21
-6.953542
 31
0.0
  0
LINE
  5
3F8
330
618
100
AcDbEntity
  8
HATCH
  6
Continuous
 62
     7
370
    30
100
AcDbLine
 10
1.990969
 20
-6.991042
 30
0.0
 11
2.023448
 21
-7.009792
 31
0.0
  0
LINE
  5
3F9
330
618
100
AcDbEntity
  8
HATCH
  6
Continuous
 62
     7
370
    30
100
AcDbLine
 10
1.851698
 20
-6.948135
 30
0.0
 11
1.861062
 21
-6.953542
 31
0.0
  0
LINE
  5
3FA
330
618
100
AcDbEntity
  8
HATCH
  6
Continuous
 62
     7
370
    30
100
AcDbLine
 10
1.926021
 20
-6.991042
 30
0.0
 11
1.95849
 21
-7.009792
 31
0.0
  0
LINE
  5
3FB
330
618
100
AcDbEntity
  8
HATCH
  6
Continuous
 62
     7
370
    30
100
AcDbLine
 10
1.861062
 20
-6.991042
 30
0.0
 11
1.893542
 21
-7.009792
 31
0.0
  0
LINE
  5
3FC
330
618
100
AcDbEntity
  8
HATCH
  6
Continuous
 62
     7
370
    30
100
AcDbLine
 10
1.796115
 20
-6.991042
 30
0.0
 11
1.828594
 21
-7.009792
 31
0.0
  0
LINE
  5
3FD
330
618
100
AcDbEntity
  8
HATCH
  6
Continuous
 62
     7
370
    30
100
AcDbLine
 10
1.747208
 20
-7.000312
 30
0.0
 11
1.763635
 21
-7.009792
 31
0.0
  0
LINE
  5
3FF
330
618
100
AcDbEntity
  8
_0
  6
Continuous
 62
     7
370
    13
100
AcDbLine
 10
2.577365
 20
-6.157521
 30
0.0
 11
2.555458
 21
-6.139115
 31
0.0
  0
LINE
  5
400
330
618
100
AcDbEntity
  8
_0
  6
Continuous
 62
     7
370
    13
100
AcDbLine
 10
2.555458
 20
-6.139115
 30
0.0
 11
2.575177
 21
-6.195625
 31
0.0
  0
LINE
  5
401
330
618
100
AcDbEntity
  8
_0
  6
Continuous
 62
     7
370
    13
100
AcDbLine
 10
2.575177
 20
-6.195625
 30
0.0
 11
2.529823
 21
-6.118125
 31
0.0
  0
LINE
  5
402
330
618
100
AcDbEntity
  8
_0
  6
Continuous
 62
     7
370
    13
100
AcDbLine
 10
2.529823
 20
-6.118125
 30
0.0
 11
2.537708
 21
-6.171406
 31
0.0
  0
LINE
  5
403
330
618
100
AcDbEntity
  8
_0
  6
Continuous
 62
     7
370
    13
100
AcDbLine
 10
2.537708
 20
-6.171406
 30
0.0
 11
2.519958
 21
-6.155687
 31
0.0
  0
LINE
  5
406
330
618
100
AcDbEntity
  8
DIM
  6
Continuous
 62
     7
370
    13
100
AcDbLine
 10
2.217146
 20
-6.712781
 30
0.0
 11
2.217146
 21
-6.105688
 31
0.0
  0
LINE
  5
40A
330
618
100
AcDbEntity
  8
_0
  6
Continuous
 62
     7
370
    30
100
AcDbLine
 10
4.784052
 20
-6.706219
 30
0.0
 11
4.996479
 21
-6.706219
 31
0.0
  0
LINE
  5
40B
330
618
100
AcDbEntity
  8
_0
  6
Continuous
 62
     7
370
    30
100
AcDbLine
 10
8.922969
 20
-6.73676
 30
0.0
 11
7.456729
 21
-6.706219
 31
0.0
  0
LINE
  5
40D
330
618
100
AcDbEntity
  8
_0
  6
Continuous
 62
     7
370
    30
100
AcDbLine
 10
4.783583
 20
-6.959073
 30
0.0
 11
7.45626
 21
-6.959073
 31
0.0
  0
LINE
  5
410
330
618
100
AcDbEntity
  8
_0
  6
Continuous
 62
     7
370
    30
100
AcDbLine
 10
1.542417
 20
-7.018958
 30
0.0
 11
1.542417
 21
-6.922937
 31
0.0
  0
LINE
  5
411
330
618
100
AcDbEntity
  8
_0
  6
Continuous
 62
     7
370
    30
100
AcDbLine
 10
1.796615
 20
-6.922937
 30
0.0
 11
1.542417
 21
-6.922937
 31
0.0
  0
LINE
  5
413
330
618
100
AcDbEntity
  8
DIM
  6
Continuous
 62
     7
370
    13
100
AcDbLine
 10
7.457854
 20
-6.207125
 30
0.0
 11
7.457854
 21
-5.067458
 31
0.0
  0
LINE
  5
414
330
618
100
AcDbEntity
  8
DIM
  6
Continuous
 62
     7
370
    13
100
AcDbLine
 10
7.626156
 20
-6.207125
 30
0.0
 11
7.626156
 21
-5.067458
 31
0.0
  0
LINE
  5
417
330
618
100
AcDbEntity
  8
DIM
  6
Continuous
 62
     7
370
    13
100
AcDbLine
 10
4.794458
 20
-6.207125
 30
0.0
 11
4.794458
 21
-5.067458
 31
0.0
  0
LINE
  5
418
330
618
100
AcDbEntity
  8
DIM
  6
Continuous
 62
     7
370
    13
100
AcDbLine
 10
4.626156
 20
-6.207125
 30
0.0
 11
4.626156
 21
-5.067458
 31
0.0
  0
LINE
  5
41C
330
618
100
AcDbEntity
  8
DIM
  6
Continuous
 62
     7
370
    13
100
AcDbLine
 10
6.888656
 20
-6.007125
 30
0.0
 11
6.888656
 21
-5.757677
 31
0.0
  0
LINE
  5
41E
330
618
100
AcDbEntity
  8
DIM
  6
Continuous
 62
     7
370
    13
100
AcDbLine
 10
5.363656
 20
-6.007125
 30
0.0
 11
5.363656
 21
-5.757677
 31
0.0
  0
LINE
  5
41F
330
618
100
AcDbEntity
  8
_0
  6
Continuous
 62
     7
370
    30
100
AcDbLine
 10
4.794458
 20
-6.257125
 30
0.0
 11
4.794458
 21
-6.457125
 31
0.0
  0
LINE
  5
421
330
618
100
AcDbEntity
  8
_0
  6
Continuous
 62
     7
370
    30
100
AcDbLine
 10
4.626156
 20
-6.257125
 30
0.0
 11
3.6815
 21
-6.729448
 31
0.0
  0
LINE
  5
422
330
618
100
AcDbEntity
  8
_0
  6
Continuous
 62
     7
370
    30
100
AcDbLine
 10
7.457854
 20
-6.257125
 30
0.0
 11
7.457854
 21
-6.457125
 31
0.0
  0
LINE
  5
423
330
618
100
AcDbEntity
  8
_0
  6
Continuous
 62
     7
370
    30
100
AcDbLine
 10
7.626156
 20
-6.257125
 30
0.0
 11
8.57076
 21
-6.729427
 31
0.0
  0
LINE
  5
424
330
618
100
AcDbEntity
  8
_0
  6
Continuous
 62
     7
370
    30
100
AcDbLine
 10
9.451427
 20
-7.000635
 30
0.0
 11
7.45626
 21
-6.959073
 31
0.0
  0
LINE
  5
425
330
618
100
AcDbEntity
  8
_0
  6
Continuous
 62
     7
370
    30
100
AcDbLine
 10
4.794458
 20
-6.457125
 30
0.0
 11
7.457854
 21
-6.457125
 31
0.0
  0
LINE
  5
426
330
618
100
AcDbEntity
  8
_0
  6
Continuous
 62
     7
370
    13
100
AcDbLine
 10
6.126156
 20
-5.516375
 30
0.0
 11
6.126156
 21
-6.534646
 31
0.0
  0
LINE
  5
427
330
618
100
AcDbEntity
  8
_0
  6
Continuous
 62
     7
370
    30
100
AcDbLine
 10
4.626156
 20
-6.257125
 30
0.0
 11
7.626156
 21
-6.257125
 31
0.0
  0
LINE
  5
42A
330
618
100
AcDbEntity
  8
BORDER
  6
Continuous
 62
     7
370
    30
100
AcDbLine
 10
9.363521
 20
-11.559792
 30
0.0
 11
9.363521
 21
-11.059792
 31
0.0
  0
LINE
  5
42C
330
618
100
AcDbEntity
  8
BORDER
  6
Continuous
 62
     7
370
    30
100
AcDbLine
 10
8.263521
 20
-11.559792
 30
0.0
 11
8.263521
 21
-11.059792
 31
0.0
  0
LINE
  5
42D
330
618
100
AcDbEntity
  8
BORDER
  6
Continuous
 62
     7
370
    30
100
AcDbLine
 10
1.363521
 20
-11.559792
 30
0.0
 11
10.463521
 21
-11.559792
 31
0.0
  0
LINE
  5
42E
330
618
100
AcDbEntity
  8
BORDER
  6
Continuous
 62
     7
370
    30
100
AcDbLine
 10
1.363521
 20
-11.059792
 30
0.0
 11
10.463521
 21
-11.059792
 31
0.0
  0
LINE
  5
42F
330
618
100
AcDbEntity
  8
BORDER
  6
Continuous
 62
     7
370
    30
100
AcDbLine
 10
10.463521
 20
-11.559792
 30
0.0
 11
10.463521
 21
-4.309792
 31
0.0
  0
LINE
  5
430
330
618
100
AcDbEntity
  8
BORDER
  6
Continuous
 62
     7
370
    30
100
AcDbLine
 10
1.363521
 20
-4.309792
 30
0.0
 11
10.463521
 21
-4.309792
 31
0.0
  0
LINE
  5
434
330
618
100
AcDbEntity
  8
DIM
  6
Continuous
 62
     7
370
    13
100
AcDbLine
 10
3.6815
 20
-6.679448
 30
0.0
 11
3.6815
 21
-6.105688
 31
0.0
  0
LINE
  5
436
330
618
100
AcDbEntity
  8
DIM
  6
Continuous
 62
     7
370
    13
100
AcDbLine
 10
2.217146
 20
-6.155687
 30
0.0
 11
2.519958
 21
-6.155687
 31
0.0
  0
LINE
  5
437
330
618
100
AcDbEntity
  8
DIM
  6
Continuous
 62
     7
370
    30
100
AcDbLine
 10
2.578167
 20
-6.157521
 30
0.0
 11
2.577365
 21
-6.157521
 31
0.0
  0
LINE
  5
438
330
618
100
AcDbEntity
  8
DIM
  6
Continuous
 62
     7
370
    13
100
AcDbLine
 10
3.18401
 20
-6.739813
 30
0.0
 11
3.18401
 21
-6.34501
 31
0.0
  0
LINE
  5
439
330
618
100
AcDbEntity
  8
DIM
  6
Continuous
 62
     7
370
    13
100
AcDbLine
 10
3.18401
 20
-6.995479
 30
0.0
 11
3.18401
 21
-7.395437
 31
0.0
  0
LINE
  5
43A
330
618
100
AcDbEntity
  8
DIM
  6
Continuous
 62
     7
370
    13
100
AcDbLine
 10
3.18401
 20
-7.395437
 30
0.0
 11
2.98401
 21
-7.395437
 31
0.0
  0
LINE
  5
43B
330
618
100
AcDbEntity
  8
DEFPOINTS
  6
Continuous
 62
     7
370
    30
100
AcDbLine
 10
3.173292
 20
-6.74501
 30
0.0
 11
3.173292
 21
-6.74501
 31
0.0
  0
LINE
  5
43C
330
618
100
AcDbEntity
  8
DEFPOINTS
  6
Continuous
 62
     7
370
    30
100
AcDbLine
 10
3.167937
 20
-6.995437
 30
0.0
 11
3.167937
 21
-6.995437
 31
0.0
  0
LINE
  5
43D
330
618
100
AcDbEntity
  8
DEFPOINTS
  6
Continuous
 62
     7
370
    30
100
AcDbLine
 10
3.18401
 20
-6.995437
 30
0.0
 11
3.18401
 21
-6.995437
 31
0.0
  0
LINE
  5
440
330
618
100
AcDbEntity
  8
DIM
  6
Continuous
 62
     7
370
    13
100
AcDbLine
 10
4.870656
 20
-6.706219
 30
0.0
 11
4.870656
 21
-6.30751
 31
0.0
  0
LINE
  5
441
330
618
100
AcDbEntity
  8
DIM
  6
Continuous
 62
     7
370
    13
100
AcDbLine
 10
4.870656
 20
-6.959073
 30
0.0
 11
4.870656
 21
-7.357937
 31
0.0
  0
LINE
  5
442
330
618
100
AcDbEntity
  8
DIM
  6
Continuous
 62
     7
370
    13
100
AcDbLine
 10
4.870656
 20
-7.357937
 30
0.0
 11
4.670656
 21
-7.357937
 31
0.0
  0
LINE
  5
443
330
618
100
AcDbEntity
  8
DEFPOINTS
  6
Continuous
 62
     7
370
    30
100
AcDbLine
 10
4.870656
 20
-6.957937
 30
0.0
 11
4.870656
 21
-6.957937
 31
0.0
  0
LINE
  5
444
330
618
100
AcDbEntity
  8
TEXT
  6
Continuous
 62
     7
370
    13
100
AcDbLine
 10
3.244479
 20
-6.872542
 30
0.0
 11
3.708646
 21
-6.866333
 31
0.0
  0
LINE
  5
445
330
618
100
AcDbEntity
  8
DIM
  6
Continuous
 62
     7
370
    13
100
AcDbLine
 10
4.626156
 20
-5.171333
 30
0.0
 11
4.226156
 21
-5.171333
 31
0.0
  0
LINE
  5
446
330
618
100
AcDbEntity
  8
DIM
  6
Continuous
 62
     7
370
    13
100
AcDbLine
 10
4.794458
 20
-5.171333
 30
0.0
 11
5.194458
 21
-5.171333
 31
0.0
  0
LINE
  5
447
330
618
100
AcDbEntity
  8
DEFPOINTS
  6
Continuous
 62
     7
370
    30
100
AcDbLine
 10
4.794458
 20
-5.171333
 30
0.0
 11
4.794458
 21
-5.171333
 31
0.0
  0
LINE
  5
448
330
618
100
AcDbEntity
  8
DIM
  6
Continuous
 62
     7
370
    13
100
AcDbLine
 10
7.457854
 20
-5.171333
 30
0.0
 11
7.057854
 21
-5.171333
 31
0.0
  0
LINE
  5
449
330
618
100
AcDbEntity
  8
DIM
  6
Continuous
 62
     7
370
    13
100
AcDbLine
 10
7.626156
 20
-5.171333
 30
0.0
 11
8.026156
 21
-5.171333
 31
0.0
  0
LINE
  5
44A
330
618
100
AcDbEntity
  8
DIM
  6
Continuous
 62
     7
370
    13
100
AcDbLine
 10
5.363656
 20
-5.847187
 30
0.0
 11
6.126156
 21
-5.847187
 31
0.0
  0
LINE
  5
44B
330
618
100
AcDbEntity
  8
DEFPOINTS
  6
Continuous
 62
     7
370
    30
100
AcDbLine
 10
5.363656
 20
-5.757677
 30
0.0
 11
5.363656
 21
-5.757677
 31
0.0
  0
LINE
  5
44C
330
618
100
AcDbEntity
  8
DEFPOINTS
  6
Continuous
 62
     7
370
    30
100
AcDbLine
 10
6.126156
 20
-5.516375
 30
0.0
 11
6.126156
 21
-5.516375
 31
0.0
  0
LINE
  5
44D
330
618
100
AcDbEntity
  8
DEFPOINTS
  6
Continuous
 62
     7
370
    30
100
AcDbLine
 10
6.126156
 20
-5.847187
 30
0.0
 11
6.126156
 21
-5.847187
 31
0.0
  0
LINE
  5
44E
330
618
100
AcDbEntity
  8
DIM
  6
Continuous
 62
     7
370
    13
100
AcDbLine
 10
6.126156
 20
-5.847187
 30
0.0
 11
6.888656
 21
-5.847187
 31
0.0
  0
LINE
  5
44F
330
618
100
AcDbEntity
  8
DEFPOINTS
  6
Continuous
 62
     7
370
    30
100
AcDbLine
 10
6.126156
 20
-5.516375
 30
0.0
 11
6.126156
 21
-5.516375
 31
0.0
  0
LINE
  5
450
330
618
100
AcDbEntity
  8
TEXT
  6
Continuous
 62
     7
370
    13
100
AcDbLine
 10
8.649844
 20
-6.937458
 30
0.0
 11
8.134333
 21
-6.923885
 31
0.0
  0
LINE
  5
451
330
618
100
AcDbEntity
  8
TEXT
  6
Continuous
 62
     7
370
    13
100
AcDbLine
 10
7.284687
 20
-6.257125
 30
0.0
 11
8.003406
 21
-5.916583
 31
0.0
  0
LINE
  5
452
330
618
100
AcDbEntity
  8
TEXT
  6
Continuous
 62
     7
370
    13
100
AcDbLine
 10
8.003406
 20
-5.916583
 30
0.0
 11
8.106958
 21
-5.916583
 31
0.0
  0
LINE
  5
454
330
618
100
AcDbEntity
  8
DIM
  6
Continuous
 62
     7
370
    13
100
AcDbLine
 10
5.217833
 20
-6.457125
 30
0.0
 11
5.217833
 21
-6.959073
 31
0.0
  0
LINE
  5
455
330
618
100
AcDbEntity
  8
_0
  6
Continuous
 62
     7
370
    30
100
AcDbLine
 10
5.179875
 20
-6.253396
 30
0.0
 11
5.179875
 21
-6.053396
 31
0.0
  0
LINE
  5
456
330
618
100
AcDbEntity
  8
_0
  6
Continuous
 62
     7
370
    30
100
AcDbLine
 10
5.179875
 20
-6.053396
 30
0.0
 11
5.379875
 21
-6.053396
 31
0.0
  0
LINE
  5
457
330
618
100
AcDbEntity
  8
_0
  6
Continuous
 62
     7
370
    30
100
AcDbLine
 10
5.425219
 20
-6.706219
 30
0.0
 11
7.456729
 21
-6.706219
 31
0.0
  0
LINE
  5
458
330
618
100
AcDbEntity
  8
_0
  6
Continuous
 62
     7
370
    13
100
AcDbLine
 10
11.458156
 20
-11.934792
 30
0.0
 11
11.251615
 21
-11.934792
 31
0.0
  0
LINE
  5
459
330
618
100
AcDbEntity
  8
_0
  6
Continuous
 62
     7
370
    13
100
AcDbLine
 10
11.458156
 20
-3.934792
 30
0.0
 11
11.251615
 21
-3.934792
 31
0.0
  0
LINE
  5
45A
330
618
100
AcDbEntity
  8
_0
  6
Continuous
 62
     7
370
    13
100
AcDbLine
 10
11.251615
 20
-12.141333
 30
0.0
 11
11.251615
 21
-11.934792
 31
0.0
  0
LINE
  5
45B
330
618
100
AcDbEntity
  8
_0
  6
Continuous
 62
     7
370
    13
100
AcDbLine
 10
0.501615
 20
-12.141333
 30
0.0
 11
0.501615
 21
-11.934792
 31
0.0
  0
LINE
  5
45C
330
618
100
AcDbEntity
  8
_0
  6
Continuous
 62
     7
370
    13
100
AcDbLine
 10
11.251615
 20
-3.934792
 30
0.0
 11
11.251615
 21
-3.72825
 31
0.0
  0
LINE
  5
45D
330
618
100
AcDbEntity
  8
_0
  6
Continuous
 62
     7
370
    13
100
AcDbLine
 10
0.501615
 20
-11.934792
 30
0.0
 11
0.295073
 21
-11.934792
 31
0.0
  0
LINE
  5
45E
330
618
100
AcDbEntity
  8
_0
  6
Continuous
 62
     7
370
    13
100
AcDbLine
 10
0.501615
 20
-3.934792
 30
0.0
 11
0.295073
 21
-3.934792
 31
0.0
  0
LINE
  5
45F
330
618
100
AcDbEntity
  8
_0
  6
Continuous
 62
     7
370
    13
100
AcDbLine
 10
0.501615
 20
-3.934792
 30
0.0
 11
0.501615
 21
-3.72825
 31
0.0
  0
LINE
  5
461
330
618
100
AcDbEntity
  8
DIM
  6
Continuous
 62
     7
370
    30
100
AcDbLine
 10
5.492304
 20
-7.99851
 30
0.0
 11
6.790037
 21
-7.99851
 31
0.0
  0
LINE
  5
462
330
618
100
AcDbEntity
  8
HATCH
  6
Continuous
 62
     7
370
    30
100
AcDbLine
 10
1.5795
 20
-7.138219
 30
0.0
 11
1.625344
 21
-7.184062
 31
0.0
  0
LINE
  5
463
330
618
100
AcDbEntity
  8
HATCH
  6
Continuous
 62
     7
370
    30
100
AcDbLine
 10
1.822562
 20
-7.248708
 30
0.0
 11
1.835615
 21
-7.26176
 31
0.0
  0
LINE
  5
464
330
618
100
AcDbEntity
  8
HATCH
  6
Continuous
 62
     7
370
    30
100
AcDbLine
 10
1.513896
 20
-7.116812
 30
0.0
 11
1.555229
 21
-7.158146
 31
0.0
  0
LINE
  5
465
330
618
100
AcDbEntity
  8
HATCH
  6
Continuous
 62
     7
370
    30
100
AcDbLine
 10
1.703604
 20
-7.212979
 30
0.0
 11
1.756271
 21
-7.160312
 31
0.0
  0
LINE
  5
466
330
618
100
AcDbEntity
  8
HATCH
  6
Continuous
 62
     7
370
    30
100
AcDbLine
 10
1.574531
 20
-7.165281
 30
0.0
 11
1.5795
 21
-7.160312
 31
0.0
  0
LINE
  5
467
330
618
100
AcDbEntity
  8
HATCH
  6
Continuous
 62
     7
370
    30
100
AcDbLine
 10
1.75201
 20
-7.230865
 30
0.0
 11
1.789417
 21
-7.193458
 31
0.0
  0
LINE
  5
468
330
618
100
AcDbEntity
  8
HATCH
  6
Continuous
 62
     7
370
    30
100
AcDbLine
 10
1.800417
 20
-7.24876
 30
0.0
 11
1.822562
 21
-7.226604
 31
0.0
  0
LINE
  5
469
330
618
100
AcDbEntity
  8
_0
  6
Continuous
 62
     7
370
    30
100
AcDbLine
 10
1.483906
 20
-7.131792
 30
0.0
 11
2.223156
 21
-6.762656
 31
0.0
  0
LINE
  5
46A
330
618
100
AcDbEntity
  8
_0
  6
Continuous
 62
     7
370
    30
100
AcDbLine
 10
3.23049
 20
-6.738844
 30
0.0
 11
4.784052
 21
-6.706479
 31
0.0
  0
LINE
  5
46B
330
618
100
AcDbEntity
  8
_0
  6
Continuous
 62
     7
370
    30
100
AcDbLine
 10
2.223156
 20
-6.762656
 30
0.0
 11
3.23049
 21
-6.741667
 31
0.0
  0
LINE
  5
46C
330
618
100
AcDbEntity
  8
_0
  6
Continuous
 62
     7
370
    30
100
AcDbLine
 10
3.23049
 20
-6.991687
 30
0.0
 11
4.783583
 21
-6.959333
 31
0.0
  0
LINE
  5
46D
330
618
100
AcDbEntity
  8
_0
  6
Continuous
 62
     7
370
    30
100
AcDbLine
 10
1.689469
 20
-7.026615
 30
0.0
 11
3.23049
 21
-6.99451
 31
0.0
  0
LINE
  5
46E
330
618
100
AcDbEntity
  8
DIM
  6
Continuous
 62
     7
370
    13
100
AcDbLine
 10
3.6815
 20
-6.157521
 30
0.0
 11
2.578167
 21
-6.157521
 31
0.0
  0
LINE
  5
46F
330
618
100
AcDbEntity
  8
_0
  6
Continuous
 62
     7
370
    30
100
AcDbLine
 10
9.755646
 20
-7.152542
 30
0.0
 11
8.922969
 21
-6.73676
 31
0.0
  0
LINE
  5
470
330
618
100
AcDbEntity
  8
_0
  6
Continuous
 62
     7
370
    30
100
AcDbLine
 10
9.755646
 20
-7.152542
 30
0.0
 11
9.997458
 21
-7.152542
 31
0.0
  0
LINE
  5
471
330
618
100
AcDbEntity
  8
_0
  6
Continuous
 62
     7
370
    30
100
AcDbLine
 10
9.997458
 20
-7.152542
 30
0.0
 11
10.425469
 21
-6.938813
 31
0.0
  0
LINE
  5
472
330
618
100
AcDbEntity
  8
_0
  6
Continuous
 62
     7
370
    30
100
AcDbLine
 10
10.161844
 20
-7.027385
 30
0.0
 11
10.161844
 21
-6.926208
 31
0.0
  0
LINE
  5
473
330
618
100
AcDbEntity
  8
_0
  6
Continuous
 62
     7
370
    30
100
AcDbLine
 10
10.380688
 20
-6.926208
 30
0.0
 11
10.161844
 21
-6.926208
 31
0.0
  0
LINE
  5
476
330
618
100
AcDbEntity
  8
_0
  6
Continuous
 62
     7
370
    30
100
AcDbLine
 10
9.59126
 20
-7.027385
 30
0.0
 11
9.59126
 21
-6.926208
 31
0.0
  0
LINE
  5
477
330
618
100
AcDbEntity
  8
_0
  6
Continuous
 62
     7
370
    30
100
AcDbLine
 10
9.372417
 20
-6.926208
 30
0.0
 11
9.59126
 21
-6.926208
 31
0.0
  0
LINE
  5
47A
330
618
100
AcDbEntity
  8
TEXT
  6
Continuous
 62
     7
370
    13
100
AcDbLine
 10
9.755646
 20
-7.188
 30
0.0
 11
9.755646
 21
-7.425427
 31
0.0
  0
LINE
  5
47B
330
618
100
AcDbEntity
  8
TEXT
  6
Continuous
 62
     7
370
    13
100
AcDbLine
 10
9.997458
 20
-7.188
 30
0.0
 11
9.997458
 21
-7.425427
 31
0.0
  0
LINE
  5
47C
330
618
100
AcDbEntity
  8
TEXT
  6
Continuous
 62
     7
370
    13
100
AcDbLine
 10
9.755646
 20
-7.383198
 30
0.0
 11
9.997458
 21
-7.383198
 31
0.0
  0
LINE
  5
47D
330
618
100
AcDbEntity
  8
TEXT
  6
Continuous
 62
     7
370
    13
100
AcDbLine
 10
9.997458
 20
-7.383198
 30
0.0
 11
10.310042
 21
-7.383198
 31
0.0
  0
LINE
  5
47E
330
618
100
AcDbEntity
  8
TEXT
  6
Continuous
 62
     7
370
    13
100
AcDbLine
 10
9.455927
 20
-7.383198
 30
0.0
 11
9.755646
 21
-7.383198
 31
0.0
  0
INSERT
  5
47F
330
618
100
AcDbEntity
  8
TEXT
  6
Continuous
 62
     7
370
    13
100
AcDbBlockReference
  2
LARROW
 10
9.997458
 20
-7.383198
 30
0.0
 41
12.0
 42
12.0
 43
12.0
 50
180.0
  0
INSERT
  5
48A
330
618
100
AcDbEntity
  8
TEXT
  6
Continuous
 62
     7
370
    13
100
AcDbBlockReference
  2
LARROW
 10
9.755646
 20
-7.383198
 30
0.0
 41
12.0
 42
12.0
 43
12.0
  0
LINE
  5
496
330
618
100
AcDbEntity
  8
HATCH
  6
Continuous
 62
     7
370
    30
100
AcDbLine
 10
8.95075
 20
-7.115812
 30
0.0
 11
8.949552
 21
-7.11701
 31
0.0
  0
LINE
  5
497
330
618
100
AcDbEntity
  8
HATCH
  6
Continuous
 62
     7
370
    30
100
AcDbLine
 10
9.301573
 20
-7.114844
 30
0.0
 11
9.266594
 21
-7.149823
 31
0.0
  0
LINE
  5
498
330
618
100
AcDbEntity
  8
HATCH
  6
Continuous
 62
     7
370
    30
100
AcDbLine
 10
9.657854
 20
-7.115812
 30
0.0
 11
9.623031
 21
-7.150635
 31
0.0
  0
LINE
  5
499
330
618
100
AcDbEntity
  8
HATCH
  6
Continuous
 62
     7
370
    30
100
AcDbLine
 10
9.447938
 20
-7.082667
 30
0.0
 11
9.380271
 21
-7.150323
 31
0.0
  0
LINE
  5
49A
330
618
100
AcDbEntity
  8
HATCH
  6
Continuous
 62
     7
370
    30
100
AcDbLine
 10
9.271156
 20
-7.082667
 30
0.0
 11
9.206437
 21
-7.147385
 31
0.0
  0
LINE
  5
49B
330
618
100
AcDbEntity
  8
HATCH
  6
Continuous
 62
     7
370
    30
100
AcDbLine
 10
8.917604
 20
-7.082667
 30
0.0
 11
8.887521
 21
-7.11275
 31
0.0
  0
LINE
  5
49C
330
618
100
AcDbEntity
  8
HATCH
  6
Continuous
 62
     7
370
    30
100
AcDbLine
 10
9.621708
 20
-7.085667
 30
0.0
 11
9.560115
 21
-7.14726
 31
0.0
  0
LINE
  5
49D
330
618
100
AcDbEntity
  8
HATCH
  6
Continuous
 62
     7
370
    30
100
AcDbLine
 10
9.06124
 20
-7.049521
 30
0.0
 11
8.990906
 21
-7.119854
 31
0.0
  0
LINE
  5
49E
330
618
100
AcDbEntity
  8
HATCH
  6
Continuous
 62
     7
370
    30
100
AcDbLine
 10
9.315625
 20
-7.149229
 30
0.0
 11
9.304302
 21
-7.137906
 31
0.0
  0
LINE
  5
49F
330
618
100
AcDbEntity
  8
HATCH
  6
Continuous
 62
     7
370
    30
100
AcDbLine
 10
9.493969
 20
-7.150792
 30
0.0
 11
9.481083
 21
-7.137906
 31
0.0
  0
LINE
  5
4A0
330
618
100
AcDbEntity
  8
TEXT
  6
Continuous
 62
     7
370
    13
100
AcDbLine
 10
9.047073
 20
-7.152542
 30
0.0
 11
9.643427
 21
-7.152542
 31
0.0
  0
LINE
  5
4A1
330
618
100
AcDbEntity
  8
TEXT
  6
Continuous
 62
     7
370
    13
100
AcDbLine
 10
9.160531
 20
-7.152542
 30
0.0
 11
9.160531
 21
-7.460729
 31
0.0
  0
LINE
  5
4A2
330
618
100
AcDbEntity
  8
TEXT
  6
Continuous
 62
     7
370
    13
100
AcDbLine
 10
9.160531
 20
-6.994063
 30
0.0
 11
9.160531
 21
-7.152542
 31
0.0
  0
LINE
  5
4A3
330
618
100
AcDbEntity
  8
TEXT
  6
Continuous
 62
     7
370
    13
100
AcDbLine
 10
9.160531
 20
-6.68775
 30
0.0
 11
9.160531
 21
-6.994063
 31
0.0
  0
INSERT
  5
4A4
330
618
100
AcDbEntity
  8
TEXT
  6
Continuous
 62
     7
370
    13
100
AcDbBlockReference
  2
LARROW
 10
9.160531
 20
-7.152542
 30
0.0
 41
12.0
 42
12.0
 43
12.0
 50
90.0
  0
INSERT
  5
4AF
330
618
100
AcDbEntity
  8
TEXT
  6
Continuous
 62
     7
370
    13
100
AcDbBlockReference
  2
LARROW
 10
9.160531
 20
-6.994063
 30
0.0
 41
12.0
 42
12.0
 43
12.0
 50
270.0
  0
LINE
  5
4BA
330
618
100
AcDbEntity
  8
TEXT
  6
Continuous
 62
     7
370
    13
100
AcDbLine
 10
9.087802
 20
-7.460729
 30
0.0
 11
9.160531
 21
-7.460729
 31
0.0
  0
INSERT
  5
4CB
330
618
100
AcDbEntity
  8
TEXT
  6
Continuous
 62
     7
370
    13
100
AcDbBlockReference
  2
LARROW
 10
3.18401
 20
-6.739813
 30
0.0
 41
12.0
 42
12.0
 43
12.0
 50
270.0
  0
INSERT
  5
4D6
330
618
100
AcDbEntity
  8
TEXT
  6
Continuous
 62
     7
370
    13
100
AcDbBlockReference
  2
LARROW
 10
3.244479
 20
-6.872542
 30
0.0
 41
12.000002
 42
12.000002
 43
12.000002
 50
180.766308
  0
INSERT
  5
4E1
330
618
100
AcDbEntity
  8
TEXT
  6
Continuous
 62
     7
370
    13
100
AcDbBlockReference
  2
LARROW
 10
3.18401
 20
-6.995479
 30
0.0
 41
12.0
 42
12.0
 43
12.0
 50
90.0
  0
INSERT
  5
4EC
330
618
100
AcDbEntity
  8
TEXT
  6
Continuous
 62
     7
370
    13
100
AcDbBlockReference
  2
LARROW
 10
2.217146
 20
-6.155687
 30
0.0
 41
12.0
 42
12.0
 43
12.0
 50
180.0
  0
INSERT
  5
4F7
330
618
100
AcDbEntity
  8
TEXT
  6
Continuous
 62
     7
370
    13
100
AcDbBlockReference
  2
LARROW
 10
3.6815
 20
-6.157521
 30
0.0
 41
12.0
 42
12.0
 43
12.0
  0
INSERT
  5
502
330
618
100
AcDbEntity
  8
TEXT
  6
Continuous
 62
     7
370
    13
100
AcDbBlockReference
  2
LARROW
 10
4.626156
 20
-5.171333
 30
0.0
 41
12.0
 42
12.0
 43
12.0
  0
INSERT
  5
50D
330
618
100
AcDbEntity
  8
TEXT
  6
Continuous
 62
     7
370
    13
100
AcDbBlockReference
  2
LARROW
 10
4.794458
 20
-5.171333
 30
0.0
 41
12.0
 42
12.0
 43
12.0
 50
180.0
  0
INSERT
  5
518
330
618
100
AcDbEntity
  8
TEXT
  6
Continuous
 62
     7
370
    13
100
AcDbBlockReference
  2
LARROW
 10
4.794458
 20
-5.171333
 30
0.0
 41
12.0
 42
12.0
 43
12.0
 50
180.0
  0
INSERT
  5
523
330
618
100
AcDbEntity
  8
TEXT
  6
Continuous
 62
     7
370
    13
100
AcDbBlockReference
  2
LARROW
 10
5.363656
 20
-5.847187
 30
0.0
 41
12.0
 42
12.0
 43
12.0
 50
180.0
  0
INSERT
  5
52E
330
618
100
AcDbEntity
  8
TEXT
  6
Continuous
 62
     7
370
    13
100
AcDbBlockReference
  2
LARROW
 10
6.126156
 20
-5.847187
 30
0.0
 41
12.0
 42
12.0
 43
12.0
 50
180.0
  0
INSERT
  5
539
330
618
100
AcDbEntity
  8
TEXT
  6
Continuous
 62
     7
370
    13
100
AcDbBlockReference
  2
LARROW
 10
6.126156
 20
-5.847187
 30
0.0
 41
12.0
 42
12.0
 43
12.0
  0
INSERT
  5
544
330
618
100
AcDbEntity
  8
TEXT
  6
Continuous
 62
     7
370
    13
100
AcDbBlockReference
  2
LARROW
 10
6.888656
 20
-5.847187
 30
0.0
 41
12.0
 42
12.0
 43
12.0
  0
INSERT
  5
54F
330
618
100
AcDbEntity
  8
TEXT
  6
Continuous
 62
     7
370
    13
100
AcDbBlockReference
  2
LARROW
 10
6.888656
 20
-5.847187
 30
0.0
 41
12.0
 42
12.0
 43
12.0
  0
INSERT
  5
55A
330
618
100
AcDbEntity
  8
TEXT
  6
Continuous
 62
     7
370
    13
100
AcDbBlockReference
  2
LARROW
 10
7.457854
 20
-5.171333
 30
0.0
 41
12.0
 42
12.0
 43
12.0
  0
INSERT
  5
565
330
618
100
AcDbEntity
  8
TEXT
  6
Continuous
 62
     7
370
    13
100
AcDbBlockReference
  2
LARROW
 10
7.626156
 20
-5.171333
 30
0.0
 41
12.0
 42
12.0
 43
12.0
 50
180.0
  0
INSERT
  5
570
330
618
100
AcDbEntity
  8
TEXT
  6
Continuous
 62
     7
370
    13
100
AcDbBlockReference
  2
LARROW
 10
7.284687
 20
-6.257125
 30
0.0
 41
11.999998
 42
11.999998
 43
11.999998
 50
205.352424
  0
INSERT
  5
57B
330
618
100
AcDbEntity
  8
TEXT
  6
Continuous
 62
     7
370
    13
100
AcDbBlockReference
  2
LARROW
 10
8.649844
 20
-6.937458
 30
0.0
 41
11.999999
 42
11.999999
 43
11.999999
 50
358.491801
  0
LINE
  5
586
330
618
100
AcDbEntity
  8
HATCH
  6
Continuous
 62
     7
370
    30
100
AcDbLine
 10
9.478813
 20
-7.116792
 30
0.0
 11
9.443833
 21
-7.151771
 31
0.0
  0
INSERT
  5
587
330
618
100
AcDbEntity
  8
TEXT
  6
Continuous
 62
     7
370
    13
100
AcDbBlockReference
  2
LARROW
 10
4.870656
 20
-6.706219
 30
0.0
 41
12.0
 42
12.0
 43
12.0
 50
270.0
  0
INSERT
  5
592
330
618
100
AcDbEntity
  8
TEXT
  6
Continuous
 62
     7
370
    13
100
AcDbBlockReference
  2
LARROW
 10
5.217833
 20
-6.959073
 30
0.0
 41
12.0
 42
12.0
 43
12.0
 50
270.0
  0
INSERT
  5
59D
330
618
100
AcDbEntity
  8
TEXT
  6
Continuous
 62
     7
370
    13
100
AcDbBlockReference
  2
LARROW
 10
4.870656
 20
-6.959073
 30
0.0
 41
12.0
 42
12.0
 43
12.0
 50
90.0
  0
INSERT
  5
5A8
330
618
100
AcDbEntity
  8
TEXT
  6
Continuous
 62
     7
370
    13
100
AcDbBlockReference
  2
LARROW
 10
5.217833
 20
-6.457125
 30
0.0
 41
12.0
 42
12.0
 43
12.0
 50
90.0
  0
TEXT
  5
3FE
330
618
100
AcDbEntity
  8
REF
  6
Continuous
 62
     7
370
    30
100
AcDbText
 10
1.6977
 20
-10.719844
 30
0.0
 40
0.12
  1
REFERENCE: TM 5-850-2/AFM 88-7, CHAPTER 2, RAILROAD DESIGN AND
 41
0.833333
  7
Style-Arial
100
AcDbText
  0
TEXT
  5
404
330
618
100
AcDbEntity
  8
DIM
  6
Continuous
 62
     7
370
    30
100
AcDbText
 10
2.455785
 20
-7.45275
 30
0.0
 40
0.12
  1
6" MIN
 41
0.833333
  7
Style-Arial
100
AcDbText
  0
TEXT
  5
405
330
618
100
AcDbEntity
  8
TEXT
  6
Continuous
 62
     7
370
    30
100
AcDbText
 10
2.466532
 20
-6.71025
 30
0.0
 40
0.12
  1
ROAD
 50
1.169172
 41
0.833333
  7
Style-Arial
100
AcDbText
  0
TEXT
  5
407
330
618
100
AcDbEntity
  8
TEXT
  6
Continuous
 62
     7
370
    30
100
AcDbText
 10
8.135
 20
-5.975229
 30
0.0
 40
0.12
  1
TOP OF TIE
 41
0.833333
  7
Style-Arial
100
AcDbText
  0
TEXT
  5
408
330
618
100
AcDbEntity
  8
TITLE
  6
Continuous
 62
     7
370
    30
100
AcDbText
 10
3.145
 20
-11.362145
 30
0.0
 40
0.12
  1
STANDARD DESIGN FOR RAILROAD SERVICE ROAD
 41
0.833333
  7
Style-Arial
100
AcDbText
  0
TEXT
  5
409
330
618
100
AcDbEntity
  8
TEXT
  6
Continuous
 62
     7
370
    30
100
AcDbText
 10
5.686936
 20
-6.681563
 30
0.0
 40
0.12
  1
TOP BALLAST
 41
0.833333
  7
Style-Arial
100
AcDbText
  0
TEXT
  5
40C
330
618
100
AcDbEntity
  8
TEXT
  6
Continuous
 62
     7
370
    30
100
AcDbText
 10
5.708749
 20
-6.90401
 30
0.0
 40
0.12
  1
SUB BALLAST
 41
0.833333
  7
Style-Arial
100
AcDbText
  0
TEXT
  5
40E
330
618
100
AcDbEntity
  8
_0
  6
Continuous
 62
     7
370
    30
100
AcDbText
 10
1.413396
 20
-7.04075
 30
0.0
 40
0.12
  1
1
 41
0.833333
  7
Style-Arial
100
AcDbText
  0
TEXT
  5
40F
330
618
100
AcDbEntity
  8
_0
  6
Continuous
 62
     7
370
    30
100
AcDbText
 10
1.651156
 20
-6.874656
 30
0.0
 40
0.12
  1
3
 41
0.833333
  7
Style-Arial
100
AcDbText
  0
TEXT
  5
412
330
618
100
AcDbEntity
  8
TEXT
  6
Continuous
 62
     7
370
    30
100
AcDbText
 10
3.747427
 20
-6.657729
 30
0.0
 40
0.12
  1
SLOPE 2:1
 50
26.56505
 41
0.833333
  7
Style-Arial
100
AcDbText
  0
TEXT
  5
415
330
618
100
AcDbEntity
  8
DIM
  6
Continuous
 62
     7
370
    30
100
AcDbText
 10
8.079667
 20
-5.23175
 30
0.0
 40
0.12
  1
6" MIN
 41
0.833333
  7
Style-Arial
100
AcDbText
  0
TEXT
  5
416
330
618
100
AcDbEntity
  8
DIM
  6
Continuous
 62
     7
370
    30
100
AcDbText
 10
3.76343
 20
-5.213698
 30
0.0
 40
0.12
  1
6" MIN
 41
0.833333
  7
Style-Arial
100
AcDbText
  0
TEXT
  5
419
330
618
100
AcDbEntity
  8
_0
  6
Continuous
 62
     7
370
    30
100
AcDbText
 10
6.077523
 20
-5.398594
 30
0.0
 40
0.12
  1
L
 41
0.833333
  7
Style-Arial
100
AcDbText
  0
TEXT
  5
41A
330
618
100
AcDbEntity
  8
_0
  6
Continuous
 62
     7
370
    30
100
AcDbText
 10
6.050668
 20
-5.349542
 30
0.0
 40
0.12
  1
C
 41
0.833333
  7
Style-Arial
100
AcDbText
  0
TEXT
  5
41B
330
618
100
AcDbEntity
  8
DIM
  6
Continuous
 62
     7
370
    30
100
AcDbText
 10
6.254982
 20
-5.780123
 30
0.0
 40
0.12
  1
2'-4-1/4"
 41
0.833333
  7
Style-Arial
100
AcDbText
  0
TEXT
  5
41D
330
618
100
AcDbEntity
  8
DIM
  6
Continuous
 62
     7
370
    30
100
AcDbText
 10
5.50016
 20
-5.784359
 30
0.0
 40
0.12
  1
2'-4-1/4"
 41
0.833333
  7
Style-Arial
100
AcDbText
  0
TEXT
  5
420
330
618
100
AcDbEntity
  8
TEXT
  6
Continuous
 62
     7
370
    30
100
AcDbText
 10
7.788312
 20
-6.270365
 30
0.0
 40
0.12
  1
SLOPE 2:1
 50
333.43495
 41
0.833333
  7
Style-Arial
100
AcDbText
  0
TEXT
  5
428
330
618
100
AcDbEntity
  8
BORDER
  6
Continuous
 62
     7
370
    30
100
AcDbText
 10
9.775543
 20
-11.442701
 30
0.0
 40
0.12
  1
2-36e
 41
0.833333
  7
Style-Arial
100
AcDbText
  0
TEXT
  5
429
330
618
100
AcDbEntity
  8
BORDER
  6
Continuous
 62
     7
370
    30
100
AcDbText
 10
9.678586
 20
-11.226458
 30
0.0
 40
0.12
  1
FIGURE
 41
0.833333
  7
Style-Arial
100
AcDbText
  0
TEXT
  5
42B
330
618
100
AcDbEntity
  8
BORDER
  6
Continuous
 62
     7
370
    30
100
AcDbText
 10
8.638006
 20
-11.226458
 30
0.0
 40
0.12
  1
DATE
 41
0.833333
  7
Style-Arial
100
AcDbText
  0
TEXT
  5
431
330
618
100
AcDbEntity
  8
BORDER
  6
Continuous
 62
     7
370
    30
100
AcDbText
 10
8.506502
 20
-11.448829
 30
0.0
 40
0.12
  1
AUG 1992
 41
0.833333
  7
Style-Arial
100
AcDbText
  0
TEXT
  5
432
330
618
100
AcDbEntity
  8
REF
  6
Continuous
 62
     7
370
    30
100
AcDbText
 10
2.633858
 20
-10.934271
 30
0.0
 40
0.12
  1
CONSTRUCTION OF ARMY AND AIRFORCE INSTALLATIONS.
 41
0.833333
  7
Style-Arial
100
AcDbText
  0
TEXT
  5
433
330
618
100
AcDbEntity
  8
DIM
  6
Continuous
 62
     7
370
    30
100
AcDbText
 10
2.872052
 20
-6.124437
 30
0.0
 40
0.12
  1
11' 
 41
0.833333
  7
Style-Arial
100
AcDbText
  0
TEXT
  5
435
330
618
100
AcDbEntity
  8
DIM
  6
Continuous
 62
     7
370
    30
100
AcDbText
 10
5.157656
 20
-6.837292
 30
0.0
 40
0.12
  1
10"
 50
90.0
 41
0.833333
  7
Style-Arial
100
AcDbText
  0
TEXT
  5
43E
330
618
100
AcDbEntity
  8
TEXT
  6
Continuous
 62
     7
370
    30
100
AcDbText
 10
2.35376
 20
-6.550333
 30
0.0
 40
0.12
  1
SERVICE
 50
1.169172
 41
0.833333
  7
Style-Arial
100
AcDbText
  0
TEXT
  5
43F
330
618
100
AcDbEntity
  8
DIM
  6
Continuous
 62
     7
370
    30
100
AcDbText
 10
4.131955
 20
-7.41525
 30
0.0
 40
0.12
  1
6" MIN
 41
0.833333
  7
Style-Arial
100
AcDbText
  0
TEXT
  5
453
330
618
100
AcDbEntity
  8
DIM
  6
Continuous
 62
     7
370
    30
100
AcDbText
 10
5.397542
 20
-6.854938
 30
0.0
 40
0.12
  1
MIN
 50
90.0
 41
0.833333
  7
Style-Arial
100
AcDbText
  0
TEXT
  5
460
330
618
100
AcDbEntity
  8
TITLE
  6
Continuous
 62
     7
370
    30
100
AcDbText
 10
5.528508
 20
-7.961343
 30
0.0
 40
0.12
  1
TYPICAL SECTION
 41
0.833333
  7
Style-Arial
100
AcDbText
  0
TEXT
  5
474
330
618
100
AcDbEntity
  8
_0
  6
Continuous
 62
     7
370
    30
100
AcDbText
 10
10.237656
 20
-6.88175
 30
0.0
 40
0.12
  1
3
 41
0.833333
  7
Style-Arial
100
AcDbText
  0
TEXT
  5
475
330
618
100
AcDbEntity
  8
_0
  6
Continuous
 62
     7
370
    30
100
AcDbText
 10
10.05824
 20
-7.050562
 30
0.0
 40
0.12
  1
1
 41
0.833333
  7
Style-Arial
100
AcDbText
  0
TEXT
  5
478
330
618
100
AcDbEntity
  8
_0
  6
Continuous
 62
     7
370
    30
100
AcDbText
 10
9.447427
 20
-6.88175
 30
0.0
 40
0.12
  1
3
 41
0.833333
  7
Style-Arial
100
AcDbText
  0
TEXT
  5
479
330
618
100
AcDbEntity
  8
_0
  6
Continuous
 62
     7
370
    30
100
AcDbText
 10
9.627
 20
-7.050552
 30
0.0
 40
0.12
  1
1
 41
0.833333
  7
Style-Arial
100
AcDbText
  0
TEXT
  5
495
330
618
100
AcDbEntity
  8
_0
  6
Continuous
 62
     7
370
    30
100
AcDbText
 10
9.829535
 20
-7.340604
 30
0.0
 40
0.12
  1
1'
 41
0.833333
  7
Style-Arial
100
AcDbText
  0
TEXT
  5
4BB
330
618
100
AcDbEntity
  8
_0
  6
Continuous
 62
     7
370
    30
100
AcDbText
 10
8.578397
 20
-7.507625
 30
0.0
 40
0.12
  1
1' TYP.
 41
0.833333
  7
Style-Arial
100
AcDbText
  0
TEXT
  5
4BC
330
618
100
AcDbEntity
  8
_0
  6
Continuous
 62
     7
370
    30
100
AcDbText
 10
9.072156
 20
-7.729417
 30
0.0
 40
0.12
  1
CUT
 41
0.833333
  7
Style-Arial
100
AcDbText
  0
TEXT
  5
4BD
330
618
100
AcDbEntity
  8
TEXT
  6
Continuous
 62
     7
370
    30
100
AcDbText
 10
7.324415
 20
-6.929668
 30
0.0
 40
0.12
  1
SLOPE 2%
 50
358.806511
 41
0.833333
  7
Style-Arial
100
AcDbText
  0
TEXT
  5
4BE
330
618
100
AcDbEntity
  8
TEXT
  6
Continuous
 62
     7
370
    30
100
AcDbText
 10
7.34621
 20
-7.127908
 30
0.0
 40
0.12
  1
(TYPICAL)
 50
358.806511
 41
0.833333
  7
Style-Arial
100
AcDbText
  0
TEXT
  5
4BF
330
618
100
AcDbEntity
  8
TEXT
  6
Continuous
 62
     7
370
    30
100
AcDbText
 10
5.273458
 20
-7.460104
 30
0.0
 40
0.12
  1
COMPACTED SUBGRADE
 41
0.833333
  7
Style-Arial
100
AcDbText
  0
TEXT
  5
4C0
330
618
100
AcDbEntity
  8
_0
  6
Continuous
 62
     7
370
    30
100
AcDbText
 10
6.256208
 20
-6.414969
 30
0.0
 40
0.12
  1
TIE
 41
0.833333
  7
Style-Arial
100
AcDbText
  0
TEXT
  5
4C1
330
618
100
AcDbEntity
  8
TEXT
  6
Continuous
 62
     7
370
    30
100
AcDbText
 10
3.785052
 20
-6.93174
 30
0.0
 40
0.12
  1
SLOPE 2%
 50
1.169172
 41
0.833333
  7
Style-Arial
100
AcDbText
  0
TEXT
  5
4C2
330
618
100
AcDbEntity
  8
TEXT
  6
Continuous
 62
     7
370
    30
100
AcDbText
 10
3.794854
 20
-7.145562
 30
0.0
 40
0.12
  1
(TYPICAL)
 50
1.169172
 41
0.833333
  7
Style-Arial
100
AcDbText
  0
TEXT
  5
4C3
330
618
100
AcDbEntity
  8
_0
  6
Continuous
 62
     7
370
    30
100
AcDbText
 10
1.696698
 20
-7.454729
 30
0.0
 40
0.12
  1
FILL
 41
0.833333
  7
Style-Arial
100
AcDbText
  0
TEXT
  5
4C4
330
618
100
AcDbEntity
  8
TEXT
  6
Continuous
 62
     7
370
    30
100
AcDbText
 10
5.608667
 20
-8.151896
 30
0.0
 40
0.12
  1
NOT TO SCALE
 41
0.833333
  7
Style-Arial
100
AcDbText
  0
TEXT
  5
4C5
330
618
100
AcDbEntity
  8
NOTES
  6
Continuous
 62
     7
370
    30
100
AcDbText
 10
2.453948
 20
-8.916281
 30
0.0
 40
0.12
  1
AROUND REQUIRED EVERY 2,000 FEET.
 41
0.833333
  7
Style-Arial
100
AcDbText
  0
TEXT
  5
4C6
330
618
100
AcDbEntity
  8
NOTES
  6
Continuous
 62
     7
370
    30
100
AcDbText
 10
2.446561
 20
-9.779177
 30
0.0
 40
0.12
  1
90% OF THE CE 55 MAXIMUM DRY DENSITY.
 41
0.833333
  7
Style-Arial
100
AcDbText
  0
TEXT
  5
4C7
330
618
100
AcDbEntity
  8
NOTES
  6
Continuous
 62
     7
370
    30
100
AcDbText
 10
1.697895
 20
-8.675427
 30
0.0
 40
0.12
  1
NOTES: 1.  TO BE USED ONLY WHERE A SERVICE ROAD IS REQUIRED.  SERVICE ROAD TURN
 41
0.833333
  7
Style-Arial
100
AcDbText
  0
TEXT
  5
4C8
330
618
100
AcDbEntity
  8
NOTES
  6
Continuous
 62
     7
370
    30
100
AcDbText
 10
2.249346
 20
-9.167115
 30
0.0
 40
0.12
  1
2.  FOR USE WITH SERVICE ROAD, SUBBALLAST MATERIAL WILL BE AGGREGATE-SOIL
 41
0.833333
  7
Style-Arial
100
AcDbText
  0
TEXT
  5
4C9
330
618
100
AcDbEntity
  8
NOTES
  6
Continuous
 62
     7
370
    30
100
AcDbText
 10
2.253954
 20
-9.596542
 30
0.0
 40
0.12
  1
3.  SUBBALLAST WILL BE A MINIMUM OF 6 INCHES DEEP AND COMPACTED AT LEAST
 41
0.833333
  7
Style-Arial
100
AcDbText
  0
TEXT
  5
4CA
330
618
100
AcDbEntity
  8
NOTES
  6
Continuous
 62
     7
370
    30
100
AcDbText
 10
2.25332
 20
-10.024938
 30
0.0
 40
0.12
  1
4.  CUT AND FILL ACCORDING TO LOCAL CONDITIONS.
 41
0.833333
  7
Style-Arial
100
AcDbText
  0
TEXT
  5
5B3
330
618
100
AcDbEntity
  8
NOTES
  6
Continuous
 62
     7
370
    30
100
AcDbText
 10
2.443687
 20
-9.350469
 30
0.0
 40
0.12
  1
MIXTURE REQUIRMENTS OF ASTM D-1241, TYPE 1, GRADUATION A,B,C, OR D.
 41
0.833333
  7
Style-Arial
100
AcDbText
  0
ENDSEC
  0
SECTION
  2
OBJECTS
  0
DICTIONARY
  5
60C
330
0
100
AcDbDictionary
281
     1
  3
ACAD_COLOR
350
62B
  3
ACAD_GROUP
350
628
  3
ACAD_LAYOUT
350
61C
  3
ACAD_MATERIAL
350
62A
  3
ACAD_MLINESTYLE
350
616
  3
ACAD_PLOTSETTINGS
350
629
  3
ACAD_PLOTSTYLENAME
350
60B
  3
ACAD_TABLESTYLE
350
642
  3
AcadDim
350
638
  3
MicroStation
350
630
  0
DICTIONARY
  5
608
330
607
100
AcDbDictionary
280
     1
281
     1
  3
ACAD_LAYERFILTERS
360
62F
  3
ACAD_LAYERSTATES
360
609
  0
DICTIONARY
  5
63E
330
618
100
AcDbDictionary
280
     1
281
     1
  3
ACAD_SORTENTS
360
63F
  0
DICTIONARY
  5
62B
102
{ACAD_REACTORS
330
60C
102
}
330
60C
100
AcDbDictionary
281
     1
  0
DICTIONARY
  5
628
102
{ACAD_REACTORS
330
60C
102
}
330
60C
100
AcDbDictionary
281
     1
  0
DICTIONARY
  5
61C
102
{ACAD_REACTORS
330
60C
102
}
330
60C
100
AcDbDictionary
281
     1
  3
Layout1
350
620
  3
Model
350
61B
  0
DICTIONARY
  5
62A
102
{ACAD_REACTORS
330
60C
102
}
330
60C
100
AcDbDictionary
281
     1
  0
DICTIONARY
  5
616
102
{ACAD_REACTORS
330
60C
102
}
330
60C
100
AcDbDictionary
281
     1
  3
Standard
350
615
  0
DICTIONARY
  5
629
102
{ACAD_REACTORS
330
60C
102
}
330
60C
100
AcDbDictionary
281
     1
  0
ACDBDICTIONARYWDFLT
  5
60B
102
{ACAD_REACTORS
330
60C
102
}
330
60C
100
AcDbDictionary
281
     1
  3
Normal
350
60A
100
AcDbDictionaryWithDefault
340
60A
  0
DICTIONARY
  5
642
102
{ACAD_REACTORS
330
60C
102
}
330
60C
100
AcDbDictionary
281
     1
  0
XRECORD
  5
638
102
{ACAD_REACTORS
330
60C
102
}
330
60C
100
AcDbXrecord
280
     1
 90
   990106
  3
 
 60
     0
 61
     0
 62
     1
 63
     1
 64
     0
 65
     0
 66
     0
 67
     3
 68
     1
 69
     1
 70
     0
 71
     0
 72
     0
 40
0.0
170
     0
  0
DICTIONARY
  5
630
102
{ACAD_REACTORS
330
60C
102
}
330
60C
100
AcDbDictionary
281
     1
  3
ApplicationElement 1534
350
5FE
  3
ApplicationElement 1540
350
604
  3
ModelApplicationElement 0 1533
350
5FD
  0
DICTIONARY
  5
62F
102
{ACAD_REACTORS
330
608
102
}
330
608
100
AcDbDictionary
281
     1
  0
DICTIONARY
  5
609
102
{ACAD_REACTORS
330
608
102
}
330
608
100
AcDbDictionary
281
     1
  0
SORTENTSTABLE
  5
63F
102
{ACAD_REACTORS
330
63E
102
}
330
63E
100
AcDbSortentsTable
330
618
331
3FE
  5
49C
331
3FF
  5
3FE
331
400
  5
3FF
331
401
  5
400
331
402
  5
401
331
403
  5
402
331
404
  5
49D
331
405
  5
49E
331
406
  5
403
331
407
  5
49F
331
408
  5
4A0
331
409
  5
4A1
331
40A
  5
404
331
40B
  5
405
331
40C
  5
4A2
331
40D
  5
406
331
40E
  5
4A3
331
40F
  5
4A4
331
410
  5
407
331
411
  5
408
331
412
  5
4AF
331
413
  5
409
331
414
  5
40A
331
415
  5
4BA
331
416
  5
4BB
331
417
  5
40B
331
418
  5
40C
331
419
  5
4BC
331
41A
  5
4BD
331
41B
  5
4BE
331
41C
  5
40D
331
41D
  5
4BF
331
41E
  5
40E
331
41F
  5
40F
331
420
  5
4C0
331
421
  5
410
331
422
  5
411
331
423
  5
412
331
424
  5
413
331
425
  5
414
331
426
  5
415
331
427
  5
416
331
428
  5
4C1
331
429
  5
4C2
331
42A
  5
417
331
42B
  5
4C3
331
42C
  5
418
331
42D
  5
419
331
42E
  5
41A
331
42F
  5
41B
331
430
  5
41C
331
431
  5
4C4
331
432
  5
4C5
331
433
  5
4C6
331
434
  5
41D
331
435
  5
4C7
331
436
  5
41E
331
437
  5
41F
331
438
  5
420
331
439
  5
421
331
43A
  5
422
331
43B
  5
423
331
43C
  5
424
331
43D
  5
425
331
43E
  5
4C8
331
43F
  5
4C9
331
440
  5
426
331
441
  5
427
331
442
  5
428
331
443
  5
429
331
444
  5
42A
331
445
  5
42B
331
446
  5
42C
331
447
  5
42D
331
448
  5
42E
331
449
  5
42F
331
44A
  5
430
331
44B
  5
431
331
44C
  5
432
331
44D
  5
433
331
44E
  5
434
331
44F
  5
435
331
450
  5
436
331
451
  5
437
331
452
  5
438
331
453
  5
4CA
331
454
  5
439
331
455
  5
43A
331
456
  5
43B
331
457
  5
43C
331
458
  5
43D
331
459
  5
43E
331
45A
  5
43F
331
45B
  5
440
331
45C
  5
441
331
45D
  5
442
331
45E
  5
443
331
45F
  5
444
331
460
  5
4CB
331
461
  5
445
331
462
  5
446
331
463
  5
447
331
464
  5
448
331
465
  5
449
331
466
  5
44A
331
467
  5
44B
331
468
  5
44C
331
469
  5
44D
331
46A
  5
44E
331
46B
  5
44F
331
46C
  5
450
331
46D
  5
451
331
46E
  5
452
331
46F
  5
453
331
470
  5
454
331
471
  5
455
331
472
  5
456
331
473
  5
457
331
474
  5
4D6
331
475
  5
4E1
331
476
  5
458
331
477
  5
459
331
478
  5
4EC
331
479
  5
4F7
331
47A
  5
45A
331
47B
  5
45B
331
47C
  5
45C
331
47D
  5
45D
331
47E
  5
45E
331
47F
  5
45F
331
48A
  5
460
331
495
  5
502
331
496
  5
461
331
497
  5
462
331
498
  5
463
331
499
  5
464
331
49A
  5
465
331
49B
  5
466
331
49C
  5
467
331
49D
  5
468
331
49E
  5
469
331
49F
  5
46A
331
4A0
  5
46B
331
4A1
  5
46C
331
4A2
  5
46D
331
4A3
  5
46E
331
4A4
  5
46F
331
4AF
  5
470
331
4BA
  5
471
331
4BB
  5
50D
331
4BC
  5
518
331
4BD
  5
523
331
4BE
  5
52E
331
4BF
  5
539
331
4C0
  5
544
331
4C1
  5
54F
331
4C2
  5
55A
331
4C3
  5
565
331
4C4
  5
570
331
4C5
  5
57B
331
4C6
  5
586
331
4C7
  5
587
331
4C8
  5
592
331
4C9
  5
59D
331
4CA
  5
5A8
331
4CB
  5
472
331
4D6
  5
473
331
4E1
  5
474
331
4EC
  5
475
331
4F7
  5
476
331
502
  5
477
331
50D
  5
478
331
518
  5
479
331
523
  5
47A
331
52E
  5
47B
331
539
  5
47C
331
544
  5
47D
331
54F
  5
47E
331
55A
  5
47F
331
565
  5
48A
331
570
  5
495
331
57B
  5
496
331
586
  5
497
331
587
  5
498
331
592
  5
499
331
59D
  5
49A
331
5A8
  5
49B
  0
LAYOUT
  5
620
102
{ACAD_REACTORS
330
61C
330
61C
102
}
102
{ACAD_XDICTIONARY
360
621
102
}
330
61C
100
AcDbPlotSettings
  1

  2
none_device
  4
Letter_(8.50_x_11.00_Inches)
  6

 40
6.35
 41
6.35
 42
6.350006
 43
6.350006
 44
215.899994
 45
279.399994
 46
0.0
 47
0.0
 48
0.0
 49
0.0
140
0.0
141
0.0
142
1.0
143
1.0
 70
   688
 72
     0
 73
     1
 74
     5
  7

 75
    16
 76
     0
 77
     2
 78
   300
147
1.0
148
0.0
149
0.0
100
AcDbLayout
  1
Layout1
 70
     1
 71
     1
 10
-0.25
 20
-0.25
 11
10.75
 21
8.25
 12
0.0
 22
0.0
 32
0.0
 14
1.049744
 24
0.799667
 34
-0.001526
 15
9.450623
 25
7.200577
 35
0.0
146
0.0
 13
0.0
 23
0.0
 33
0.0
 16
1.0
 26
0.0
 36
0.0
 17
0.0
 27
1.0
 37
0.0
 76
     0
330
61D
1001
ACAD_PSEXT
1000
None
1000
None
1000
Not applicable
1000
The layout will not be plotted unless a new plotter configuration name is selected.
1070
     0
  0
LAYOUT
  5
61B
102
{ACAD_REACTORS
330
61C
330
61C
102
}
330
61C
100
AcDbPlotSettings
  1

  2
none_device
  4
ANSI_A_(8.50_x_11.00_Inches)
  6

 40
6.35
 41
19.049999
 42
6.350006
 43
19.049988
 44
215.899994
 45
279.399994
 46
0.0
 47
0.0
 48
0.0
 49
0.0
140
0.0
141
0.0
142
1.0
143
2.584895
 70
 11952
 72
     0
 73
     1
 74
     0
  7

 75
     0
 76
     0
 77
     2
 78
   300
147
0.386863
148
0.0
149
0.0
100
AcDbLayout
  1
Model
 70
     1
 71
     0
 10
0.0
 20
0.0
 11
12.0
 21
9.0
 12
0.0
 22
0.0
 32
0.0
 14
0.0
 24
0.0
 34
0.0
 15
0.0
 25
0.0
 35
0.0
146
0.0
 13
0.0
 23
0.0
 33
0.0
 16
1.0
 26
0.0
 36
0.0
 17
0.0
 27
1.0
 37
0.0
 76
     0
330
618
331
49
  0
MLINESTYLE
  5
615
102
{ACAD_REACTORS
330
616
102
}
330
616
100
AcDbMlineStyle
  2
STANDARD
 70
     0
  3

 62
   256
 51
90.0
 52
90.0
 71
     2
 49
0.5
 62
   256
  6
BYLAYER
 49
-0.5
 62
   256
  6
BYLAYER
  0
ACDBPLACEHOLDER
  5
60A
102
{ACAD_REACTORS
330
60B
102
}
330
60B
  0
XRECORD
  5
5FE
102
{ACAD_REACTORS
330
630
102
}
330
630
100
AcDbXrecord
280
     1
310
3E4F020000004D6F64656C6572000000000000000000000000000000000000000000000000000000000000000000000000000000000000000000000000000000000000000000000000000000000000000000000000000000000000000000000000000000000000000000000000000000000000000000000000000000000000
310
00000000000000000000000000000000000000000000000000000000000000000000000000000000000000000000000000000000000000000000000000000000000000000000000000000000000000000000000000000000000000000000000000000000000000000000000000000000000000000000000000000000000000
310
00
310
00000000000000000000000000000000000000000000000000000000000000000000000000000000000000000000000000000000000000000000000000000000000000000000000000000000000000000000000000000000000000000000000000000000000000000000000000000000000000000000000000000000000000
310
00000000000000000000000000000000000000000000000000000000000000000000000000000000000000000000000000000000000000000000000000000000000000000000000000000000000000000000000000000000000000000000000000000000000000000000000000000000000000000000000000000000000000
310
00
310
00000000000000000000000000000000000000000000000000000000000000000000000000000000000000000000000000000000000000000000000000000000000000000000000000000000000000000000000000000000000000000000000000000000000000000000000000000000000000000000000000000000000000
310
00000000000000000000000000000000000000000000000000000000000000000000000000000000000000000000000000000000000000000000000000000000000000000000000000000000000000000000000000000000000000000000000000000000000000000000000000000000000000000000000000000000000000
310
00
310
00000000000000000000000000000000000000000000000000000000000000000000000000000000000000000000000000000000000000000000000000000000000000000000000000000000000000000000000000000000000000000000000000000000000000000000000000000000000000000000000000000000000000
310
00000000000000000000000000000000000000000000000000000000000000000000000000000000000000000000000000000000000000000000000000000000000000000000000000000000000000000000000000000000000000000000000000000000000000000000000000000000000000000000000000000000000000
310
00
310
00000000000000000000000000000000000000000000000000000000000000000000000000000000000000000000000000000000000000000000000000000000000000000000000000000000000000000000000000000000000000000000000000000000000000000000000000000000000000000000000000000000000000
310
00000000000000000000000000000000000000000000000000000000000000000000000000000000000000000000000000000000000000000000000000000000000000000000000000000000000000000000000000000000000000000000000000000000000000000000000000000000000000000000000000000000000000
310
00
310
00000000000000000000000000000000000000000000000000000000000000000000000000000000000000000000000000000000000000000000000000000000000000000000000000000000000000000000000000000000000000000000000000000000000000000000000000000000000000000000000000000000000000
310
00000000000000000000000000000000000000000000000000000000000000000000000000000000000000000000000000000000000000000000000000000000000000000000000000000000000000000000000000000000000000000000000000000000000000000000000000000000000000000000000000000000000000
310
00
310
00000000000000000000000000000000000000000000000000000000000000000000000000000000000000000000000000000000000000000000000000000000000000000000000000000000000000000000000000000000000000000000000000000000000000000000000000000000000000000000000000000000000000
310
00000000000000000000000000000000000000000000000000000000000000000000000000000000000000000000000000000000000000000000000000000000000000000000000000000000000000000000000000000000000000000000000000000000000000000000000000000000000000000000000000000000000000
310
00
310
00000000000000000000000000000000000000000000000000000000000000000000000000000000000000000000000000000000000000000000000000000000000000000000000000000000000000000000000000000000000000000000000000000000000000000000000000000000000000000000000000000000000000
310
00000000000000000000000000000000000000000000000000000000000000000000000000000000000000000000000000000000000000000000000000000000000000000000000000000000000000000000000000000000000000000000000000000000000000000000000000000000000000000000000000000000000000
310
00
310
00000000000000000000000000000000000000000000000000000000000000000000000000000000000000000000000000000000000000000000000000000000000000000000000000000000000000000000000000000000000000000000000000000000000000000000000000000000000000000000000000000000000000
310
00000000000000000000000000000000000000000000000000000000000000000000000000000000000000000000000000000000000000000000000000000000000000000000000000000000000000000000000000000000000000000000000000000000000000000000000000000000000000000000000000000000000000
310
00
310
00000000000000000000000000000000000000000000000000000000000000000000000000000000000000000000000000000000000000000000000000000000000000000000000000000000000000000000000000000000000000000000000000000000000000000000000000000000000000000000000000000000000000
310
00000000000000000000000000000000000000000000000000000000000000000000000000000000000000000000000000000000000000000000000000000000000000000000000000000000000000000000000000000000000000000000000000000000000000000000000000000000000000000000000000000000000000
310
00
310
00000000000000000000000000000000000000000000000000000000000000000000000000000000000000000000000000000000000000000000000000000000000000000000000000000000000000000000000000000000000000000000000000000000000000000000000000000000000000000000000000000000000000
310
00000000000000000000000000000000000000000000000000000000000000000000000000000000000000000000000000000000000000000000000000000000000000000000000000000000000000000000000000000000000000000000000000000000000000000000000000000000000000000000000000000000000000
310
00
310
00000000000000000000000000000000000000000000000000000000000000000000000000000000000000000000000000000000000000000000000000000000000000000000000000000000000000000000000000000000000000000000000000000000000000000000000000000000000000000000000000000000000000
310
00000000000000000000000000000000000000000000000000000000000000000000000000000000000000000000000000000000000000000000000000000000000000000000000000000000000000000000000000000000000000000000000000000000000000000000000000000000000000000000000000000000000000
310
00
310
00000000000000000000000000000000000000000000000000000000000000000000000000000000000000000000000000000000000000000000000000000000000000000000000000000000000000000000000000000000000000000000000000000000000000000000000000000000000000000000000000000000000000
310
00000000000000000000000000000000000000000000000000000000000000000000000000000000000000000000000000000000000000000000000000000000000000000000000000000000000000000000000000000000000000000000000000000000000000000000000000000000000000000000000000000000000000
310
00
310
00000000000000000000000000000000000000000000000000000000000000000000000000000000000000000000000000000000000000000000000000000000000000000000000000000000000000000000000000000000000000000000000000000000000000000000000000000000000000
  0
XRECORD
  5
604
102
{ACAD_REACTORS
330
630
102
}
330
630
100
AcDbXrecord
280
     1
310
3E4F020000004D6F64656C6572000000000000000000000000000000000000000000000000000000000000000000000000000000000000000000000000000000000000000000000000000000000000000000000000000000000000000000000000000000000000000000000000000000000000000000000000000000000000
310
00000000000000000000000000000000000000000000000000000000000000000000000000000000000000000000000000000000000000000000000000000000000000000000000000000000000000000000000000000000000000000000000000000000000000000000000000000000000000000000000000000000000000
310
00
310
00000000000000000000000000000000000000000000000000000000000000000000000000000000000000000000000000000000000000000000000000000000000000000000000000000000000000000000000000000000000000000000000000000000000000000000000000000000000000000000000000000000000000
310
00000000000000000000000000000000000000000000000000000000000000000000000000000000000000000000000000000000000000000000000000000000000000000000000000000000000000000000000000000000000000000000000000000000000000000000000000000000000000000000000000000000000000
310
00
310
00000000000000000000000000000000000000000000000000000000000000000000000000000000000000000000000000000000000000000000000000000000000000000000000000000000000000000000000000000000000000000000000000000000000000000000000000000000000000000000000000000000000000
310
00000000000000000000000000000000000000000000000000000000000000000000000000000000000000000000000000000000000000000000000000000000000000000000000000000000000000000000000000000000000000000000000000000000000000000000000000000000000000000000000000000000000000
310
00
310
00000000000000000000000000000000000000000000000000000000000000000000000000000000000000000000000000000000000000000000000000000000000000000000000000000000000000000000000000000000000000000000000000000000000000000000000000000000000000000000000000000000000000
310
00000000000000000000000000000000000000000000000000000000000000000000000000000000000000000000000000000000000000000000000000000000000000000000000000000000000000000000000000000000000000000000000000000000000000000000000000000000000000000000000000000000000000
310
00
310
00000000000000000000000000000000000000000000000000000000000000000000000000000000000000000000000000000000000000000000000000000000000000000000000000000000000000000000000000000000000000000000000000000000000000000000000000000000000000000000000000000000000000
310
00000000000000000000000000000000000000000000000000000000000000000000000000000000000000000000000000000000000000000000000000000000000000000000000000000000000000000000000000000000000000000000000000000000000000000000000000000000000000000000000000000000000000
310
00
310
00000000000000000000000000000000000000000000000000000000000000000000000000000000000000000000000000000000000000000000000000000000000000000000000000000000000000000000000000000000000000000000000000000000000000000000000000000000000000000000000000000000000000
310
00000000000000000000000000000000000000000000000000000000000000000000000000000000000000000000000000000000000000000000000000000000000000000000000000000000000000000000000000000000000000000000000000000000000000000000000000000000000000000000000000000000000000
310
00
310
00000000000000000000000000000000000000000000000000000000000000000000000000000000000000000000000000000000000000000000000000000000000000000000000000000000000000000000000000000000000000000000000000000000000000000000000000000000000000000000000000000000000000
310
00000000000000000000000000000000000000000000000000000000000000000000000000000000000000000000000000000000000000000000000000000000000000000000000000000000000000000000000000000000000000000000000000000000000000000000000000000000000000000000000000000000000000
310
00
310
00000000000000000000000000000000000000000000000000000000000000000000000000000000000000000000000000000000000000000000000000000000000000000000000000000000000000000000000000000000000000000000000000000000000000000000000000000000000000000000000000000000000000
310
00000000000000000000000000000000000000000000000000000000000000000000000000000000000000000000000000000000000000000000000000000000000000000000000000000000000000000000000000000000000000000000000000000000000000000000000000000000000000000000000000000000000000
310
00
310
00000000000000000000000000000000000000000000000000000000000000000000000000000000000000000000000000000000000000000000000000000000000000000000000000000000000000000000000000000000000000000000000000000000000000000000000000000000000000000000000000000000000000
310
00000000000000000000000000000000000000000000000000000000000000000000000000000000000000000000000000000000000000000000000000000000000000000000000000000000000000000000000000000000000000000000000000000000000000000000000000000000000000000000000000000000000000
310
00
310
00000000000000000000000000000000000000000000000000000000000000000000000000000000000000000000000000000000000000000000000000000000000000000000000000000000000000000000000000000000000000000000000000000000000000000000000000000000000000000000000000000000000000
310
00000000000000000000000000000000000000000000000000000000000000000000000000000000000000000000000000000000000000000000000000000000000000000000000000000000000000000000000000000000000000000000000000000000000000000000000000000000000000000000000000000000000000
310
00
310
00000000000000000000000000000000000000000000000000000000000000000000000000000000000000000000000000000000000000000000000000000000000000000000000000000000000000000000000000000000000000000000000000000000000000000000000000000000000000000000000000000000000000
310
00000000000000000000000000000000000000000000000000000000000000000000000000000000000000000000000000000000000000000000000000000000000000000000000000000000000000000000000000000000000000000000000000000000000000000000000000000000000000000000000000000000000000
310
00
310
00000000000000000000000000000000000000000000000000000000000000000000000000000000000000000000000000000000000000000000000000000000000000000000000000000000000000000000000000000000000000000000000000000000000000000000000000000000000000000000000000000000000000
310
00000000000000000000000000000000000000000000000000000000000000000000000000000000000000000000000000000000000000000000000000000000000000000000000000000000000000000000000000000000000000000000000000000000000000000000000000000000000000000000000000000000000000
310
00
310
00000000000000000000000000000000000000000000000000000000000000000000000000000000000000000000000000000000000000000000000000000000000000000000000000000000000000000000000000000000000000000000000000000000000000000000000000000000000000000000000000000000000000
310
00000000000000000000000000000000000000000000000000000000000000000000000000000000000000000000000000000000000000000000000000000000000000000000000000000000000000000000000000000000000000000000000000000000000000000000000000000000000000000000000000000000000000
310
00
310
00000000000000000000000000000000000000000000000000000000000000000000000000000000000000000000000000000000000000000000000000000000000000000000000000000000000000000000000000000000000000000000000000000000000000000000000000000000000000
  0
XRECORD
  5
5FD
102
{ACAD_REACTORS
330
630
102
}
330
630
100
AcDbXrecord
280
     1
310
DF56060034040701D0009A9999999999B93F000000000000000000000000000000000400000009000000000000000200000064000000640000000100000001000000190000007B14AE47E17A843F00000000004060409A9999999999B93F00000000004C2D41000000000070F7400000000000942141000000000000000000
310
0000000000000000000000000000000AD482040000000000000000000000000000F03F000000000000000000000000000030402D431CEBE2362A3F00000000000008400000000000000000009807C000000000000000007C1A61B9A711364020000000050000000A000000200000002000000020000000000000000000F03F
310
00
310
0000000000F03F000000000000F03F333333333333D33F333333333333D33F333333333333D33F000000000000F43F000000000000F43F000000000000F03F0200000064000000000000000000000000000840000000000000F83F00000000000000000000000000000000008056409A9999999999B93F0000000000000000
310
00000000000000000000000000000000000000000000000000000000000000000000000000000000000000000000000000000000000000000000000000000000000000000000000000000000000000000000000000000000000000000000000000000000000000000000000000000000000000000000000000000000000000
310
00
310
0000000000000000000000000000000000000000000000000000000000000000000000000000000000000000000000000000000000000000000000000000000000000000000000000000000000000000000000000000000000000000000000000000000000000000000000000000000000000000000000009A9999999999A9
310
3F9100000000000000000000000000000035A781D547960F40000000000000F03F000000000000F03F666666666666164000000000104068F200000000000000000000000000000000000000000000000000000000000000000000000000000000000000000000000000000000000000000000000000000000000000000000
310
00
310
00000000000000000000000000000000000000000000000000000000000000000000000000000000000000000000000000000000000000000000000000000000000000000000000000000000000000000000000000000000000000000000000000000000000000000000000000000000000000000000000000000000000000
310
000000000000000000000000000000000000000000000000000000000000000000000000000000000000000000000000000000000000000000000000FF000000000000000000000000000000000000000000000000000000000000000000000000000000000000000000000000000000000000000000000000000000000000
310
00
310
0000000000000000000000000000000000000000000000000000000000000000000000000000000000000000000000000000000000000000000000000000000000000000
  0
DICTIONARY
  5
621
330
620
100
AcDbDictionary
280
     1
281
     1
  3
ADSK_XREC_LAYOUTTHUMBNAIL
360
622
  0
XRECORD
  5
622
102
{ACAD_REACTORS
330
621
102
}
330
621
100
AcDbXrecord
280
     1
310
28000000B40000008B0000000100080000000000BC61000000000000000000000001000000000000FFFFFF0000000000FFFFFF000000000000000000000000000000000000000000000000000000000000000000330000006600000099000000CC000000FF00000000330000333300006633000099330000CC330000FF3300
310
0000660000336600006666000099660000CC660000FF66000000990000339900006699000099990000CC990000FF99000000CC000033CC000066CC000099CC0000CCCC0000FFCC000000FF000033FF000066FF000099FF0000CCFF0000FFFF000000003300330033006600330099003300CC003300FF003300003333003333
310
33006633330099333300CC333300FF33330000663300336633006666330099663300CC663300FF66330000993300339933006699330099993300CC993300FF99330000CC330033CC330066CC330099CC3300CCCC3300FFCC330000FF330033FF330066FF330099FF3300CCFF3300FFFF330000006600330066006600660099
310
006600CC006600FF00660000336600333366006633660099336600CC336600FF33660000666600336666006666660099666600CC666600FF66660000996600339966006699660099996600CC996600FF99660000CC660033CC660066CC660099CC6600CCCC6600FFCC660000FF660033FF660066FF660099FF6600CCFF6600
310
FFFF660000009900330099006600990099009900CC009900FF00990000339900333399006633990099339900CC339900FF33990000669900336699006666990099669900CC669900FF66990000999900339999006699990099999900CC999900FF99990000CC990033CC990066CC990099CC9900CCCC9900FFCC990000FF99
310
0033FF990066FF990099FF9900CCFF9900FFFF99000000CC003300CC006600CC009900CC00CC00CC00FF00CC000033CC003333CC006633CC009933CC00CC33CC00FF33CC000066CC003366CC006666CC009966CC00CC66CC00FF66CC000099CC003399CC006699CC009999CC00CC99CC00FF99CC0000CCCC0033CCCC0066CC
310
CC0099CCCC00CCCCCC00FFCCCC0000FFCC0033FFCC0066FFCC0099FFCC00CCFFCC00FFFFCC000000FF003300FF006600FF009900FF00CC00FF00FF00FF000033FF003333FF006633FF009933FF00CC33FF00FF33FF000066FF003366FF006666FF009966FF00CC66FF00FF66FF000099FF003399FF006699FF009999FF00CC
310
99FF00FF99FF0000CCFF0033CCFF0066CCFF0099CCFF00CCCCFF00FFCCFF0000FFFF0033FFFF0066FFFF0099FFFF00CCFFFF00FFFFFF00000000000D0D0D001A1A1A00282828003535350043434300505050005D5D5D006B6B6B00787878008686860093939300A1A1A100AEAEAE00BBBBBB00C9C9C900D6D6D600E4E4E400
310
F1F1F100FFFFFF0000000000000000000000000000000000000000000000000000000000000000000000000000000000E2E2E2E2E2E2E2E2E2E2E2E2E2E2E2E2E2E2E2E2E2E2E2E2E2E2E2E2E2E2E2E2E2E2E2E2E2E2E2E2E2E2E2E2E2E2E2E2E2E2E2E2E2E2E2E2E2E2E2E2E2E2E2E2E2E2E2E2E2E2E2E2E2E2E2E2E2E2E2
310
E2E2E2E2E2E2E2E2E2E2E2E2E2E2E2E2E2E2E2E2E2E2E2E2E2E2E2E2E2E2E2E2E2E2E2E2E2E2E2E2E2E2E2E2E2E2E2E2E2E2E2E2E2E2E2E2E2E2E2E2E2E2E2E2E2E2E2E2E2E2E2E2E2E2E2E2E2E2E2E2E2E2E2E2E2E2E2E2E2E2E2E2E2E2E2E2E2E2E2E2EFF5F5F5F5F5F5F5F5F5F5F5F5F5F5F5F5F5F5F5F5F5F5F5F5F5F5
310
F5F5F5F5F5F5F5F5F5F5F5F5F5F5F5F5F5F5F5F5F5F5F5F5F5F5F5F5F5F5F5F5F5F5F5F5F5F5F5F5F5F5F5F5F5F5F5F5F5F5F5F5F5F5F5F5F5F5F5F5F5F5F5F5F5F5F5F5F5F5F5F5F5F5F5F5F5F5F5F5F5F5F5F5F5F5F5F5F5F5F5F5F5F5F5F5F5F5F5F5F5F5F5F5F5F5F5F5F5F5F5F5F5F5F5F5F5F5F5F5F5F5F5F5F5F5F5
310
F5F5F5F5F5F5F5F5F5F5F5F5F5F5F5F5F5F5F5F5F5F5F5F5E2E2EFF5F5F5F5F5F5F5F5F5F5F5F5F5F5F5F5F5F5F5F5F5F5F5F5F5F5F5F5F5F5F5F5F5F5F5F5F5F5F5F5F5F5F5F5F5F5F5F5F5F5F5F5F5F5F5F5F5F5F5F5F5F5F5F5F5F5F5F5F5F5F5F5F5F5F5F5F5F5F5F5F5F5F5F5F5F5F5F5F5F5F5F5F5F5F5F5F5F5F5F5
310
F5F5F5F5F5F5F5F5F5F5F5F5F5F5F5F5F5F5F5F5F5F5F5F5F5F5F5F5F5F5F5F5F5F5F5F5F5F5F5F5F5F5F5F5F5F5F5F5F5F5F5F5F5F5F5F5F5F5F5F5F5F5F5F5F5F5F5F5F5F5F5F5F5F5F5F5F5E2E2EFF5F5F5F5F5F5F5F5F5F5F5F5F5F5F5F5F5F5F5F5F5F5F5F5F5F5F5F5F5F5F5F5F5F5F5F5F5F5F5F5F5F5F5F5F5F5F5
310
F5F5F5F5F5F5F5F5F5F5F5F5F5F5F5F5F5F5F5F5F5F5F5F5F5F5F5F5F5F5F5F5F5F5F5F5F5F5F5F5F5F5F5F5F5F5F5F5F5F5F5F5F5F5F5F5F5F5F5F5F5F5F5F5F5F5F5F5F5F5F5F5F5F5F5F5F5F5F5F5F5F5F5F5F5F5F5F5F5F5F5F5F5F5F5F5F5F5F5F5F5F5F5F5F5F5F5F5F5F5F5F5F5F5F5F5F5F5F5F5F5F5F5F5F5F5F5
310
F5F5F5E2E2EFF5F5F5E2E2E2E2E2E2E2E2F5F5F5F5F5F5F5F5F5E2E2E2E2E2E2E2E2E2E2E2E2E2E2E2E2F5F5F5F5F5F5F5F5E2E2E2E2E2E2E2E2E2E2E2E2E2E2E2E2F5F5F5F5F5F5F5F5F5E2E2E2E2E2E2E2E2E2E2E2E2E2E2E2F5F5F5F5F5F5F5F5F5E2E2E2E2E2E2E2E2E2E2E2E2E2E2E2F5F5F5F5F5F5F5F5F5E2E2E2E2
310
E2E2E2E2E2E2E2E2E2E2E2E2F5F5F5F5F5F5F5F5E2E2E2E2E2E2E2E2E2E2E2E2E2E2E2E2F5F5F5F5F5F5F5F5F5E2E2E2E2E2E2E2E2F5F5F5E2E2EFF5F5F5E2F5F5F5F5F5F5F5F5F5F5F5F5F5F5F5F5F5F5F5F5F5F5F5F5F5F5F5F5F5F5F5F5F5F5F5F5F5F5F5F5F5F5F5F5F5F5F5F5F5F5F5F5F5F5F5F5F5F5F5F5F5F5F5F5
310
F5F5F5F5F5F5F5F5F5F5F5F5F5F5F5F5F5F5F5F5F5F5F5F5F5F5F5F5F5F5F5F5F5F5F5F5F5F5F5F5F5F5F5F5F5F5F5F5F5F5F5F5F5F5F5F5F5F5F5F5F5F5F5F5F5F5F5F5F5F5F5F5F5F5F5F5F5F5F5F5F5F5F5F5F5F5F5F5F5F5F5F5F5F5F5F5F5F5F5F5F5F5F5F5F5E2F5F5F5E2E2EFF5F5F5E2F5F5F5F5F5F5F5F5F5F5F5
310
F5F5F5F5F5F5F5F5F5F5F5F5F5F5F5F5F5F5F5F5F5F5F5F5F5F5F5F5F5F5F5F5F5F5F5F5F5F5F5F5F5F5F5F5F5F5F5F5F5F5F5F5F5F5F5F5F5F5F5F5F5F5F5F5F5F5F5F5F5F5F5F5F5F5F5F5F5F5F5F5F5F5F5F5F5F5F5F5F5F5F5F5F5F5F5F5F5F5F5F5F5F5F5F5F5F5F5F5F5F5F5F5F5F5F5F5F5F5F5F5F5F5F5F5F5F5F5
310
F5F5F5F5F5F5F5F5F5F5F5F5F5F5F5F5F5F5F5F5F5F5F5F5F5F5F5F5F5F5F5E2F5F5F5E2E2EFF5F5F5E2F5F5F5F5F5F5F5F5F5F5F5F5F5F5F5F5F5F5F5F5F5F5F5F5F5F5F5F5F5F5F5F5F5F5F5F5F5F5F5F5F5F5F5F5F5F5F5F5F5F5F5F5F5F5F5F5F5F5F5F5F5F5F5F5F5F5F5F5F5F5F5F5F5F5F5F5F5F5F5F5F5F5F5F5F5
310
F5F5F5F5F5F5F5F5F5F5F5F5F5F5F5F5F5F5F5F5F5F5F5F5F5F5F5F5F5F5F5F5F5F5F5F5F5F5F5F5F5F5F5F5F5F5F5F5F5F5F5F5F5F5F5F5F5F5F5F5F5F5F5F5F5F5F5F5F5F5F5F5F5F5F5F5F5F5F5F5F5F5F5F5E2F5F5F5E2E2EFF5F5F5E2F5F5F5F5F5F5F5F5F5F5F5F5F5F5F5F5F5F5F5F5F5F5F5F5F5F5F5F5F5F5F5F5
310
F5F5F5F5F5F5F5F5F5F5F5F5F5F5F5F5F5F5F5F5F5F5F5F5F5F5F5F5F5F5F5F5F5F5F5F5F5F5F5F5F5F5F5F5F5F5F5F5F5F5F5F5F5F5F5F5F5F5F5F5F5F5F5F5F5F5F5F5F5F5F5F5F5F5F5F5F5F5F5F5F5F5F5F5F5F5F5F5F5F5F5F5F5F5F5F5F5F5F5F5F5F5F5F5F5F5F5F5F5F5F5F5F5F5F5F5F5F5F5F5F5F5F5F5F5F5F5
310
F5F5F5F5F5F5F5F5F5F5E2F5F5F5E2E2EFF5F5F5E2F5F5F5F5F5F5F5F5F5F5F5F5F5F5F5F5F5F5F5F5F5F5F5F5F5F5F5F5F5F5F5F5F5F5F5F5F5F5F5F5F5F5F5F5F5F5F5F5F5F5F5F5F5F5F5F5F5F5F5F5F5F5F5F5F5F5F5F5F5F5F5F5F5F5F5F5F5F5F5F5F5F5F5F5F5F5F5F5F5F5F5F5F5F5F5F5F5F5F5F5F5F5F5F5F5F5
310
F5F5F5F5F5F5F5F5F5F5F5F5F5F5F5F5F5F5F5F5F5F5F5F5F5F5F5F5F5F5F5F5F5F5F5F5F5F5F5F5F5F5F5F5F5F5F5F5F5F5F5F5F5F5F5F5F5F5F5F5F5F5F5E2F5F5F5E2E2EFF5F5F5E2F5F5F5F5F5F5F5F5F5F5F5F5F5F5F5F5F5F5F5F5F5F5F5F5F5F5F5F5F5F5F5F5F5F5F5F5F5F5F5F5F5F5F5F5F5F5F5F5F5F5F5F5F5
310
F5F5F5F5F5F5F5F5F5F5F5F5F5F5F5F5F5F5F5F5F5F5F5F5F5F5F5F5F5F5F5F5F5F5F5F5F5F5F5F5F5F5F5F5F5F5F5F5F5F5F5F5F5F5F5F5F5F5F5F5F5F5F5F5F5F5F5F5F5F5F5F5F5F5F5F5F5F5F5F5F5F5F5F5F5F5F5F5F5F5F5F5F5F5F5F5F5F5F5F5F5F5F5F5F5F5F5F5F5F5F5F5F5F5F5F5E2F5F5F5E2E2EFF5F5F5E2
310
F5F5F5F5F5F5F5F5F5F5F5F5F5F5F5F5F5F5F5F5F5F5F5F5F5F5F5F5F5F5F5F5F5F5F5F5F5F5F5F5F5F5F5F5F5F5F5F5F5F5F5F5F5F5F5F5F5F5F5F5F5F5F5F5F5F5F5F5F5F5F5F5F5F5F5F5F5F5F5F5F5F5F5F5F5F5F5F5F5F5F5F5F5F5F5F5F5F5F5F5F5F5F5F5F5F5F5F5F5F5F5F5F5F5F5F5F5F5F5F5F5F5F5F5F5F5F5
310
F5F5F5F5F5F5F5F5F5F5F5F5F5F5F5F5F5F5F5F5F5F5F5F5F5F5F5F5F5F5F5F5F5F5F5F5F5F5F5F5F5F5E2F5F5F5E2E2EFF5F5F5E2F5F5F5F5F5F5F5F5F5F5F5F5F5F5F5F5F5F5F5F5F5F5F5F5F5F5F5F5F5F5F5F5F5F5F5F5F5F5F5F5F5F5F5F5F5F5F5F5F5F5F5F5F5F5F5F5F5F5F5F5F5F5F5F5F5F5F5F5F5F5F5F5F5F5
310
F5F5F5F5F5F5F5F5F5F5F5F5F5F5F5F5F5F5F5F5F5F5F5F5F5F5F5F5F5F5F5F5F5F5F5F5F5F5F5F5F5F5F5F5F5F5F5F5F5F5F5F5F5F5F5F5F5F5F5F5F5F5F5F5F5F5F5F5F5F5F5F5F5F5F5F5F5F5F5F5F5F5F5F5F5F5F5F5F5F5F5F5F5F5F5E2F5F5F5E2E2EFF5F5F5F5F5F5F5F5F5F5F5F5F5F5F5F5F5F5F5F5F5F5F5F5F5
310
F5F5F5F5F5F5F5F5F5F5F5F5F5F5F5F5F5F5F5F5F5F5F5F5F5F5F5F5F5F5F5F5F5F5F5F5F5F5F5F5F5F5F5F5F5F5F5F5F5F5F5F5F5F5F5F5F5F5F5F5F5F5F5F5F5F5F5F5F5F5F5F5F5F5F5F5F5F5F5F5F5F5F5F5F5F5F5F5F5F5F5F5F5F5F5F5F5F5F5F5F5F5F5F5F5F5F5F5F5F5F5F5F5F5F5F5F5F5F5F5F5F5F5F5F5F5F5
310
F5F5F5F5F5F5F5F5F5F5F5F5F5F5F5F5F5F5F5F5F5F5F5F5F5E2E2EFF5F5F5F5F5F5F5F5F5F5F5F5F5F5F5F5F5F5F5F5F5F5F5F5F5F5F5F5F5F5F5F5F5F5F5F5F5F5F5F5F5F5F5F5F5F5F5F5F5F5F5F5F5F5F5F5F5F5F5F5F5F5F5F5F5F5F5F5F5F5F5F5F5F5F5F5F5F5F5F5F5F5F5F5F5F5F5F5F5F5F5F5F5F5F5F5F5F5F5
310
F5F5F5F5F5F5F5F5F5F5F5F5F5F5F5F5F5F5F5F5F5F5F5F5F5F5F5F5F5F5F5F5F5F5F5F5F5F5F5F5F5F5F5F5F5F5F5F5F5F5F5F5F5F5F5F5F5F5F5F5F5F5F5F5F5F5F5F5F5F5F5F5F5F5F5F5F5F5E2E2EFF5F5F5F5F5F5F5F5F5F5F5F5F5F5F5F5F5F5F5F5F5F5F5F5F5F5F5F5F5F5F5F5F5F5F5F5F5F5F5F5F5F5F5F5F5F5
310
F5F5F5F5F5F5F5F5F5F5F5F5F5F5F5F5F5F5F5F5F5F5F5F5F5F5F5F5F5F5F5F5F5F5F5F5F5F5F5F5F5F5F5F5F5F5F5F5F5F5F5F5F5F5F5F5F5F5F5F5F5F5F5F5F5F5F5F5F5F5F5F5F5F5F5F5F5F5F5F5F5F5F5F5F5F5F5F5F5F5F5F5F5F5F5F5F5F5F5F5F5F5F5F5F5F5F5F5F5F5F5F5F5F5F5F5F5F5F5F5F5F5F5F5F5F5F5
310
F5F5F5F5E2E2EFF5F5F5F5F5F5F5F5F5F5F5F5F5F5F5F5F5F5F5F5F5F5F5F5F5F5F5F5F5F5F5F5F5F5F5F5F5F5F5F5F5F5F5F5F5F5F5F5F5F5F5F5F5F5F5F5F5F5F5F5F5F5F5F5F5F5F5F5F5F5F5F5F5F5F5F5F5F5F5F5F5F5F5F5F5F5F5F5F5F5F5F5F5F5F5F5F5F5F5F5F5F5F5F5F5F5F5F5F5F5F5F5F5F5F5F5F5F5F5F5
310
F5F5F5F5F5F5F5F5F5F5F5F5F5F5F5F5F5F5F5F5F5F5F5F5F5F5F5F5F5F5F5F5F5F5F5F5F5F5F5F5F5F5F5F5F5F5F5F5F5F5F5F5F5F5F5F5F5E2E2EFF5F5F5F5F5F5F5F5F5F5F5F5F5F5F5F5F5F5F5F5E2E2E2E2E2E2E2E2E2E2E2E2E2E2E2E2E2E2E2E2E2E2E2E2E2E2E2E2E2E2E2E2E2E2E2E2E2E2E2E2E2E2E2E2E2E2E2
310
E2E2E2E2E2E2E2E2E2E2E2E2E2E2E2E2E2E2E2E2E2E2E2E2E2E2E2E2E2E2E2E2E2E2E2E2E2E2E2E2E2E2E2E2E2E2E2E2E2E2E2E2E2E2E2E2E2E2E2E2E2E2E2E2E2E2E2E2E2E2E2E2E2E2E2E2E2E2E2E2E2E2E2E2E2E2E2E2E2E2F5F5F5F5F5F5F5F5F5F5F5F5F5F5F5F5F5F5F5F5E2E2EFF5F5F5F5F5F5F5F5F5F5F5F5F5F5
310
F5F5F5F5F5F5E2F5F5F5F5F5F5F5F5F5F5F5F5F5F5F5F5F5F5F5F5F5F5F5F5F5F5F5F5F5F5F5F5F5F5F5F5F5F5F5F5F5F5F5F5F5F5F5F5F5F5F5F5F5F5F5F5F5F5F5F5F5F5F5F5F5F5F5F5F5F5F5F5F5F5F5F5F5F5F5F5F5F5F5F5F5F5F5F5F5F5F5F5F5F5F5F5F5F5F5F5F5F5F5F5F5F5F5F5F5F5F5F5F5F5F5F5F5F5F5F5
310
F5F5F5F5F5F5F5F5F5F5F5F5F5F5F5E2F5F5F5F5F5F5F5F5F5F5F5F5F5F5F5F5F5F5F5F5E2E2EFF5F5F5F5F5F5F5F5F5F5F5F5F5F5F5F5F5F5F5F5E2F5F5F5F5F5F5F5F5F5F5F5F5F5F5F5F5F5F5F5F5F5F5F5F5F5F5F5F5F5F5F5F5F5F5F5F5F5F5F5F5F5F5F5F5F5F5F5F5F5F5F5F5F5F5F5F5F5F5F5F5F5F5F5F5F5F5F5
310
F5F5F5F5F5F5F5F5F5F5F5F5F5F5F5F5F5F5F5F5F5F5F5F5F5F5F5F5F5F5F5F5F5F5F5F5F5F5F5F5F5F5F5F5F5F5F5F5F5F5F5F5F5F5F5F5F5F5F5F5F5F5F5F5F5F5F5F5E2F5F5F5F5F5F5F5F5F5F5F5F5F5F5F5F5F5F5F5F5E2E2EFF5F5F5F5F5F5F5F5F5F5F5F5F5F5F5F5F5F5F5F5E2F5F5F5F5F5F5F5F5F5F5F5F5F5F5
310
F5F5F5F5F5F5F5F5F5F5F5F5F5F5F5F5F5F5F5F5F5F5F5F5F5F5F5F5F5F5F5F5F5F5F5F5F5F5F5F5F5F5F5F5F5F5F5F5F5F5F5F5F5F5F5F5F5F5F5F5F5F5F5F5F5F5F5F5F5F5F5F5F5F5F5F5F5F5F5F5F5F5F5F5F5F5F5F5F5F5F5F5F5F5F5F5F5F5F5F5F5F5F5F5F5F5F5F5F5F5F5F5F5F5F5F5F5F5F5F5F5E2F5F5F5F5F5
310
F5F5F5F5F5F5F5F5F5F5F5F5F5F5F5E2E2EFF5F5F5F5F5F5F5F5F5F5F5F5F5F5F5F5F5F5F5F5E2F5F5F5F5F5F5F5F5F5F5F5F5F5F5F5F5F5F5F5F5F5F5F5F5F5F5F5F5F5F5F5F5F5F5F5F5F5F5F5F5F5F5F5F5F5F5F5F5F5F5F5F5F5F5F5F5F5F5F5F5F5F5F5F5F5F5F5F5F5F5F5F5F5F5F5F5F5F5F5F5F5F5F5F5F5F5F5F5
310
F5F5F5F5F5F5F5F5F5F5F5F5F5F5F5F5F5F5F5F5F5F5F5F5F5F5F5F5F5F5F5F5F5F5F5F5F5F5F5F5F5F5F5F5F5F5F5E2F5F5F5F5F5F5F5F5F5F5F5F5F5F5F5F5F5F5F5F5E2E2EFF5F5F5E2F5F5F5F5F5F5F5F5F5F5F5F5F5F5F5F5E2F5F5F5F5F5F5F5F5F5F5F5F5F5F5F5F5F5F5F5F5F5F5F5F5F5F5F5F5F5F5F5F5F5F5F5
310
F5F5F5F5F5F5F5F5F5F5F5F5F5F5F5F5F5F5F5F5F5F5F5F5F5F5F5F5F5F5F5F5F5F5F5F5F5F5F5F5F5F5F5F5F5F5F5F5F5F5F5F5F5F5F5F5F5F5F5F5F5F5F5F5F5F5F5F5F5F5F5F5F5F5F5F5F5F5F5F5F5F5F5F5F5F5F5F5F5F5F5F5F5F5F5F5F5F5F5F5E2F5F5F5F5F5F5F5F5F5F5F5F5F5F5F5F5E2F5F5F5E2E2EFF5F5F5
310
E2F5F5F5F5F5F5F5F5F5F5F5F5F5F5F5F5E2F5F5F5F5F5F5F5F5F5F5F5F5F5F5F5F5F5F5F5F5F5F5F5F5F5F5F5F5F5F5F5F5F5F5F5F5F5F5F5F5F5F5F5F5F5F5F5F5F5F5F5F5F5F5F5F5F5F5F5F5F5F5F5F5F5F5F5F5F5F5F5F5F5F5F5F5F5F5F5F5F5F5F5F5F5F5F5F5F5F5F5F5F5F5F5F5F5F5F5F5F5F5F5F5F5F5F5F5F5
310
F5F5F5F5F5F5F5F5F5F5F5F5F5F5F5F5F5F5F5F5F5F5F5F5F5F5E2F5F5F5F5F5F5F5F5F5F5F5F5F5F5F5F5E2F5F5F5E2E2EFF5F5F5E2F5F5F5F5F5F5F5F5F5F5F5F5F5F5F5F5E2F5F5F5F5F5F5F5F5F5F5F5F5F5F5F5F5F5F5F5F5F5F5F5F5F5F5F5F5F5F5F5F5F5F5F5F5F5F5F5F5F5F5F5F5F5F5F5F5F5F5F5F5F5F5F5F5
310
F5F5F5F5F5F5F5F5F5F5F5F5F5F5F5F5F5F5F5F5F5F5F5F5F5F5F5F5F5F5F5F5F5F5F5F5F5F5F5F5F5F5F5F5F5F5F5F5F5F5F5F5F5F5F5F5F5F5F5F5F5F5F5F5F5F5F5F5F5F5F5F5F5F5F5F5F5F5F5E2F5F5F5F5F5F5F5F5F5F5F5F5F5F5F5F5E2F5F5F5E2E2EFF5F5F5E2F5F5F5F5F5F5F5F5F5F5F5F5F5F5F5F5E2F5F5F5
310
F5F5F5F5F5F5F5F5F5F5F5F5F5F5F5F5F5F5F5F5F5F5F5F5F5F5F5F5F5F5F5F5F5F5F5F5F5F5F5F5F5F5F5F5F5F5F5F5F5F5F5F5F5F5F5F5F5F5F5F5F5F5F5F5F5F5F5F5F5F5F5F5F5F5F5F5F5F5F5F5F5F5F5F5F5F5F5F5F5F5F5F5F5F5F5F5F5F5F5F5F5F5F5F5F5F5F5F5F5F5F5F5F5F5F5F5F5F5F5F5F5F5F5F5F5F5F5
310
F5F5F5F5F5E2F5F5F5F5F5F5F5F5F5F5F5F5F5F5F5F5E2F5F5F5E2E2EFF5F5F5E2F5F5F5F5F5F5F5F5F5F5F5F5F5F5F5F5E2F5F5F5F5F5F5F5F5F5F5F5F5F5F5F5F5F5F5F5F5F5F5F5F5F5F5F5F5F5F5F5F5F5F5F5F5F5F5F5F5F5F5F5F5F5F5F5F5F5F5F5F5F5F5F5F5F5F5F5F5F5F5F5F5F5F5F5F5F5F5F5F5F5F5F5F5F5
310
F5F5F5F5F5F5F5F5F5F5F5F5F5F5F5F5F5F5F5F5F5F5F5F5F5F5F5F5F5F5F5F5F5F5F5F5F5F5F5F5F5F5F5F5F5F5F5F5F5F5F5F5F5F5F5F5F5F5E2F5F5F5F5F5F5F5F5F5F5F5F5F5F5F5F5E2F5F5F5E2E2EFF5F5F5E2F5F5F5F5F5F5F5F5F5F5F5F5F5F5F5F5E2F5F5F5F5F5F5F5F5F5F5F5F5F5F5F5F5F5F5F5F5F5F5F5F5
310
F5F5F5F5F5F5F5F5F5F5F5F5F5F5F5F5F5F5F5F5F5F5F5F5F5F5F5F5F5F5F5F5F5F5F5F5F5F5F5F5F5F5F5F5F5F5F5F5F5F5F5F5F5F5F5F5F5F5F5F5F5F5F5F5F5F5F5F5F5F5F5F5F5F5F5F5F5F5F5F5F5F5F5F5F5F5F5F5F5F5F5F5F5F5F5F5F5F5F5F5F5F5F5F5F5F5F5F5F5F5F5E2F5F5F5F5F5F5F5F5F5F5F5F5F5F5F5
310
F5E2F5F5F5E2E2EFF5F5F5E2F5F5F5F5F5F5F5F5F5F5F5F5F5F5F5F5E2F5F5F5F5F5F5F5F5F5F5F5F5F5F5F5F5F5F5F5F5F5F5F5F5F5F5F5F5F5F5F5F5F5F5F5F5F5F5F5F5F5F5F5F5F5F5F5F5F5F5F5F5F5F5F5F5F5F5F5F5F5F5F5F5F5F5F5F5F5F5F5F5F5F5F5F5F5F5F5F5F5F5F5F5F5F5F5F5F5F5F5F5F5F5F5F5F5F5
310
F5F5F5F5F5F5F5F5F5F5F5F5F5F5F5F5F5F5F5F5F5F5F5F5F5F5F5F5F5F5F5F5F5F5F5F5F5E2F5F5F5F5F5F5F5F5F5F5F5F5F5F5F5F5E2F5F5F5E2E2EFF5F5F5E2F5F5F5F5F5F5F5F5F5F5F5F5F5F5F5F5E2F5F5F5F5F5F5F5F5F5F5F5F5F5F5F5F5F5F5F5F5F5F5F5F5F5F5F5F5F5F5F5F5F5F5F5F5F5F5F5F5F5F5F5F5F5
310
F5F5F5F5F5F5F5F5F5F5F5F5F5F5F5F5F5F5F5F5F5F5F5F5F5F5F5F5F5F5F5F5F5F5F5F5F5F5F5F5F5F5F5F5F5F5F5F5F5F5F5F5F5F5F5F5F5F5F5F5F5F5F5F5F5F5F5F5F5F5F5F5F5F5F5F5F5F5F5F5F5F5F5F5F5F5F5F5F5F5E2F5F5F5F5F5F5F5F5F5F5F5F5F5F5F5F5E2F5F5F5E2E2EFF5F5F5E2F5F5F5F5F5F5F5F5F5
310
F5F5F5F5F5F5F5E2F5F5F5F5F5F5F5F5F5F5F5F5F5F5F5F5F5F5F5F5F5F5F5F5F5F5F5F5F5F5F5F5F5F5F5F5F5F5F5F5F5F5F5F5F5F5F5F5F5F5F5F5F5F5F5F5F5F5F5F5F5F5F5F5F5F5F5F5F5F5F5F5F5F5F5F5F5F5F5F5F5F5F5F5F5F5F5F5F5F5F5F5F5F5F5F5F5F5F5F5F5F5F5F5F5F5F5F5F5F5F5F5F5F5F5F5F5F5F5
310
F5F5F5F5F5F5F5F5F5F5F5F5F5F5F5F5E2F5F5F5F5F5F5F5F5F5F5F5F5F5F5F5F5E2F5F5F5E2E2EFF5F5F5E2F5F5F5F5F5F5F5F5F5F5F5F5F5F5F5F5E2F5F5F5F5F5F5F5F5F5F5F5F5F5F5F5F5F5F5F5F5F5F5F5F5F5F5F5F5F5F5F5F5F5F5F5F5F5F5F5F5F5F5F5F5F5F5F5F5F5F5F5F5F5F5F5F5F5F5F5F5F5F5F5F5F5F5
310
F5F5F5F5F5F5F5F5F5F5F5F5F5F5F5F5F5F5F5F5F5F5F5F5F5F5F5F5F5F5F5F5F5F5F5F5F5F5F5F5F5F5F5F5F5F5F5F5F5F5F5F5F5F5F5F5F5F5F5F5F5F5F5F5F5F5F5F5F5E2F5F5F5F5F5F5F5F5F5F5F5F5F5F5F5F5E2F5F5F5E2E2EFF5F5F5E2F5F5F5F5F5F5F5F5F5F5F5F5F5F5F5F5E2F5F5F5F5F5F5F5F5F5F5F5F5F5
310
F5F5F5F5F5F5F5F5F5F5F5F5F5F5F5F5F5F5F5F5F5F5F5F5F5F5F5F5F5F5F5F5F5F5F5F5F5F5F5F5F5F5F5F5F5F5F5F5F5F5F5F5F5F5F5F5F5F5F5F5F5F5F5F5F5F5F5F5F5F5F5F5F5F5F5F5F5F5F5F5F5F5F5F5F5F5F5F5F5F5F5F5F5F5F5F5F5F5F5F5F5F5F5F5F5F5F5F5F5F5F5F5F5F5F5F5F5F5F5F5F5F5E2F5F5F5F5
310
F5F5F5F5F5F5F5F5F5F5F5F5E2F5F5F5E2E2EFF5F5F5E2F5F5F5F5F5F5F5F5F5F5F5F5F5F5F5F5E2F5F5F5F5F5F5F5F5F5F5F5F5F5F5F5F5F5F5F5F5F5F5F5F5F5F5F5F5F5F5F5F5F5F5F5F5F5F5F5F5F5F5F5F5F5F5F5F5F5F5F5F5F5F5F5F5F5F5F5F5F5F5F5F5F5F5F5F5F5F5F5F5F5F5F5F5F5F5F5F5F5F5F5F5F5F5F5
310
F5F5F5F5F5F5F5F5F5F5F5F5F5F5F5F5F5F5F5F5F5F5F5F5F5F5F5F5F5F5F5F5F5F5F5F5F5F5F5F5F5F5F5F5F5F5F5F5E2F5F5F5F5F5F5F5F5F5F5F5F5F5F5F5F5E2F5F5F5E2E2EFF5F5F5E2F5F5F5F5F5F5F5F5F5F5F5F5F5F5F5F5E2F5F5F5F5F5F5F5F5F5F5F5F5F5F5F5F5F5F5F5F5F5F5F5F5F5F5F5F5F5F5F5F5F5F5
310
F5F5F5F5F5F5F5F5F5F5F5F5F5F5F5F5F5F5F5F5F5F5F5F5F5F5F5F5F5F5F5F5F5F5F5F5F5F5F5F5F5F5F5F5F5F5F5F5F5F5F5F5F5F5F5F5F5F5F5F5F5F5F5F5F5F5F5F5F5F5F5F5F5F5F5F5F5F5F5F5F5F5F5F5F5F5F5F5F5F5F5F5F5F5F5F5F5F5F5F5F5E2F5F5F5F5F5F5F5F5F5F5F5F5F5F5F5F5E2F5F5F5E2E2EFF5F5
310
F5E2F5F5F5F5F5F5F5F5F5F5F5F5F5F5F5F5E2F5F5F5F5F5F5F5F5F5F5F5F5F5F5F5F5F5F5F5F5F5F5F5F5F5F5F5F5F5F5F5F5F5F5F5F5F5F5F5F5F5F5F5F5F5F5F5F5F5F5F5F5F5F5F5F5F5F5F5F5F5F5F5F5F5F5F5F5F5F5F5F5F5F5F5F5F5F5F5F5F5F5F5F5F5F5F5F5F5F5F5F5F5F5F5F5F5F5F5F5F5F5F5F5F5F5F5F5
310
F5F5F5F5F5F5F5F5F5F5F5F5F5F5F5F5F5F5F5F5F5F5F5F5F5F5F5E2F5F5F5F5F5F5F5F5F5F5F5F5F5F5F5F5E2F5F5F5E2E2EFF5F5F5E2F5F5F5F5F5F5F5F5F5F5F5F5F5F5F5F5E2F5F5F5F5F5F5F5F5F5F5F5F5F5F5F5F5F5F5F5F5F5F5F5F5F5F5F5F5F5F5F5F5F5F5F5F5F5F5F5F5F5F5F5F5F5F5F5F5F5F5F5F5F5F5F5
310
F5F5F5F5F5F5F5F5F5F5F5F5F5F5F5F5F5F5F5F5F5F5F5F5F5F5F5F5F5F5F5F5F5F5F5F5F5F5F5F5F5F5F5F5F5F5F5F5F5F5F5F5F5F5F5F5F5F5F5F5F5F5F5F5F5F5F5F5F5F5F5F5F5F5F5F5F5F5F5F5E2F5F5F5F5F5F5F5F5F5F5F5F5F5F5F5F5E2F5F5F5E2E2EFF5F5F5E2F5F5F5F5F5F5F5F5F5F5F5F5F5F5F5F5E2F5F5
310
F5F5F5F5F5F5F5F5F5F5F5F5F5F5F5F5F5F5F5F5F5F5F5F5F5F5F5F5F5F5F5F5F5F5F5F5F5F5F5F5F5F5F5F5F5F5F5F5F5F5F5F5F5F5F5F5F5F5F5F5F5F5F5F5F5F5F5F5F5F5F5F5F5F5F5F5F5F5F5F5F5F5F5F5F5F5F5F5F5F5F5F5F5F5F5F5F5F5F5F5F5F5F5F5F5F5F5F5F5F5F5F5F5F5F5F5F5F5F5F5F5F5F5F5F5F5F5
310
F5F5F5F5F5F5E2F5F5F5F5F5F5F5F5F5F5F5F5F5F5F5F5E2F5F5F5E2E2EFF5F5F5E2F5F5F5F5F5F5F5F5F5F5F5F5F5F5F5F5E2F5F5F5F5F5F5F5F5F5F5F5F5F5F5F5F5F5F5F5F5F5F5F5F5F5F5F5F5F5F5F5F5F5F5F5F5F5F5F5F5F5F5F5F5F5F5F5F5F5F5F5F5F5F5F5F5F5F5F5F5F5F5F5F5F5F5F5F5F5F5F5F5F5F5F5F5
310
F5F5F5F5F5F5F5F5F5F5F5F5F5F5F5F5F5F5F5F5F5F5F5F5F5F5F5F5F5F5F5F5F5F5F5F5F5F5F5F5F5F5F5F5F5F5F5F5F5F5F5F5F5F5F5F5F5F5F5E2F5F5F5F5F5F5F5F5F5F5F5F5F5F5F5F5E2F5F5F5E2E2EFF5F5F5F5F5F5F5F5F5F5F5F5F5F5F5F5F5F5F5F5E2F5F5F5F5F5F5F5F5F5F5F5F5F5F5F5F5F5F5F5F5F5F5F5
310
F5F5F5F5F5F5F5F5F5F5F5F5F5F5F5F5F5F5F5F5F5F5F5F5F5F5F5F5F5F5F5F5F5F5F5F5F5F5F5F5F5F5F5F5F5F5F5F5F5F5F5F5F5F5F5F5F5F5F5F5F5F5F5F5F5F5F5F5F5F5F5F5F5F5F5F5F5F5F5F5F5F5F5F5F5F5F5F5F5F5F5F5F5F5F5F5F5F5F5F5F5F5F5F5F5F5F5F5F5F5F5F5E2F5F5F5F5F5F5F5F5F5F5F5F5F5F5
310
F5F5F5F5F5F5E2E2EFF5F5F5F5F5F5F5F5F5F5F5F5F5F5F5F5F5F5F5F5E2F5F5F5F5F5F5F5F5F5F5F5F5F5F5F5F5F5F5F5F5F5F5F5F5F5F5F5F5F5F5F5F5F5F5F5F5F5F5F5F5F5F5F5F5F5F5F5F5F5F5F5F5F5F5F5F5F5F5F5F5F5F5F5F5F5F5F5F5F5F5F5F5F5F5F5F5F5F5F5F5F5F5F5F5F5F5F5F5F5F5F5F5F5F5F5F5F5
310
F5F5F5F5F5F5F5F5F5F5F5F5F5F5F5F5F5F5F5F5F5F5F5F5F5F5F5F5F5F5F5F5F5F5F5F5F5F5E2F5F5F5F5F5F5F5F5F5F5F5F5F5F5F5F5F5F5F5F5E2E2EFF5F5F5F5F5F5F5F5F5F5F5F5F5F5F5F5F5F5F5F5E2F5F5F5F5F5F5F5F5F5F5F5F5F5F5F5F5F5F5F5F5F5F5F5F5F5F5F5F5F5F5F5F5F5F5F5F5F5F5F5F5F5F5F5F5
310
F5F5F5F5F5F5F5F5F5F5F5F5F5F5F5F5F5F5F5F5F5F5F5F5F5F5F5F5F5F5F5F5F5F5F5F5F5F5F5F5F5F5F5F5F5F5F5F5F5F5F5F5F5F5F5F5F5F5F5F5F5F5F5F5F5F5F5F5F5F5F5F5F5F5F5F5F5F5F5F5F5F5F5F5F5F5F5F5F5F5F5E2F5F5F5F5F5F5F5F5F5F5F5F5F5F5F5F5F5F5F5F5E2E2EFF5F5F5F5F5F5F5F5F5F5F5F5
310
F5F5F5F5F5F5F5F5E2F5F5F5F5F5F5F5F5F5F5F5F5F5F5F5F5F5F5F5F5F5F5F5F5F5F5F5F5F5F5F5F5F5F5F5F5F5F5F5F5F5F5F5F5F5F5F5F5F5F5F5F5F5F5F5F5F5F5F5F5F5F5F5F5F5F5F5F5F5F5F5F5F5F5F5F5F5F5F5F5F5F5F5F5F5F5F5F5F5F5F5F5F5F5F5F5F5F5F5F5F5F5F5F5F5F5F5F5F5F5F5F5F5F5F5F5F5F5
310
F5F5F5F5F5F5F5F5F5F5F5F5F5F5F5F5F5E2F5F5F5F5F5F5F5F5F5F5F5F5F5F5F5F5F5F5F5F5E2E2EFF5F5F5F5F5F5F5F5F5F5F5F5F5F5F5F5F5F5F5F5E2F5F5F5F5F5F5F5F5F5F5F5F5F5F5F5F5F5F5F5F5F5F5F5F5F5F5F5F5F5F5F5F5F5F5F5F5F5F5F5F5F5F5F5F5F5F5F5F5F5F5F5F5F5F5F5F5F5F5F5F5F5F5F5F5F5
310
F5F5F5F5F5F5F5F5F5F5F5F5F5F5F5F5F5F5F5F5F5F5F5F5F5F5F5F5F5F5F5F5F5F5F5F5F5F5F5F5F5F5F5F5F5F5F5F5F5F5F5F5F5F5F5F5F5F5F5F5F5F5F5F5F5F5F5F5F5F5E2F5F5F5F5F5F5F5F5F5F5F5F5F5F5F5F5F5F5F5F5E2E2EFF5F5F5F5F5F5F5F5F5F5F5F5F5F5F5F5F5F5F5F5E2F5F5F5F5F5F5F5F5F5F5F5F5
310
F5F5F5F5F5F5F5F5F5F5F5F5F5F5F5F5F5F5F5F5F5F5F5F5F5F5F5F5F5F5F5F5F5F5F5F5F5F5F5F5F5F5F5F5F5F5F5F5F5F5F5F5F5F5F5F5F5F5F5F5F5F5F5F5F5F5F5F5F5F5F5F5F5F5F5F5F5F5F5F5F5F5F5F5F5F5F5F5F5F5F5F5F5F5F5F5F5F5F5F5F5F5F5F5F5F5F5F5F5F5F5F5F5F5F5F5F5F5F5F5F5F5F5E2F5F5F5
310
F5F5F5F5F5F5F5F5F5F5F5F5F5F5F5F5F5E2E2EFF5F5F5F5F5F5F5F5F5F5F5F5F5F5F5F5F5F5F5F5E2F5F5F5F5F5F5F5F5F5F5F5F5F5F5F5F5F5F5F5F5F5F5F5F5F5F5F5F5F5F5F5F5F5F5F5F5F5F5F5F5F5F5F5F5F5F5F5F5F5F5F5F5F5F5F5F5F5F5F5F5F5F5F5F5F5F5F5F5F5F5F5F5F5F5F5F5F5F5F5F5F5F5F5F5F5F5
310
F5F5F5F5F5F5F5F5F5F5F5F5F5F5F5F5F5F5F5F5F5F5F5F5F5F5F5F5F5F5F5F5F5F5F5F5F5F5F5F5F5F5F5F5F5F5F5F5F5E2F5F5F5F5F5F5F5F5F5F5F5F5F5F5F5F5F5F5F5F5E2E2EFF5F5F5F5F5F5F5F5F5F5F5F5F5F5F5F5F5F5F5F5E2F5F5F5F5F5F5F5F5F5F5F5F5F5F5F5F5F5F5F5F5F5F5F5F5F5F5F5F5F5F5F5F5F5
310
F5F5F5F5F5F5F5F5F5F5F5F5F5F5F5F5F5F5F5F5F5F5F5F5F5F5F5F5F5F5F5F5F5F5F5F5F5F5F5F5F5F5F5F5F5F5F5F5F5F5F5F5F5F5F5F5F5F5F5F5F5F5F5F5F5F5F5F5F5F5F5F5F5F5F5F5F5F5F5F5F5F5F5F5F5F5F5F5F5F5F5F5F5F5F5F5F5F5F5F5F5F5E2F5F5F5F5F5F5F5F5F5F5F5F5F5F5F5F5F5F5F5F5E2E2EFF5
310
F5F5F5F5F5F5F5F5F5F5F5F5F5F5F5F5F5F5F5E2F5F5F5F5F5F5F5F5F5F5F5F5F5F5F5F5F5F5F5F5F5F5F5F5F5F5F5F5F5F5F5F5F5F5F5F5F5F5F5F5F5F5F5F5F5F5F5F5F5F5F5F5F5F5F5F5F5F5F5F5F5F5F5F5F5F5F5F5F5F5F5F5F5F5F5F5F5F5F5F5F5F5F5F5F5F5F5F5F5F5F5F5F5F5F5F5F5F5F5F5F5F5F5F5F5F5F5
310
F5F5F5F5F5F5F5F5F5F5F5F5F5F5F5F5F5F5F5F5F5F5F5F5F5F5F5F5E2F5F5F5F5F5F5F5F5F5F5F5F5F5F5F5F5F5F5F5F5E2E2EFF5F5F5E2F5F5F5F5F5F5F5F5F5F5F5F5F5F5F5F5E2F5F5F5F5F5F5F5F5F5F5F5F5F5F5F5F5F5F5F5F5F5F5F5F5F5F5F5F5F5F5F5F5F5F5F5F5F5F5F5F5F5F5F5F5F5F5F5F5F5F5F5F5F5F5
310
F5F5F5F5F5F5F5F5F5F5F5F5F5F5F5F5F5F5F5F5F5F5F5F5F5F5F5F5F5F5F5F5F5F5F5F5F5F5F5F5F5F5F5F5F5F5F5F5F5F5F5F5F5F5F5F5F5F5F5F5F5F5F5F5F5F5F5F5F5F5F5F5F5F5F5F5F5F5F5F5F5E2F5F5F5F5F5F5F5F5F5F5F5F5F5F5F5F5E2F5F5F5E2E2EFF5F5F5E2F5F5F5F5F5F5F5F5F5F5F5F5F5F5F5F5E2F5
310
F5F5F5F5F5F5F5F5F5F5F5F5F5F5F5F5F5F5F5F5F5F5F5F5F5F5F5F5F5F5F5F5F5F5F5F5F5F5F5F5F5F5F5F5F5F5F5F5F5F5F5F5F5F5F5F5F5F5F5F5F5F5F5F5F5F5F5F5F5F5F5F5F5F5F5F5F5F5F5F5F5F5F5F5F5F5F5F5F5F5F5F5F5F5F5F5F5F5F5F5F5F5F5F5F5F5F5F5F5F5F5F5F5F5F5F5F5F5F5F5F5F5F5F5F5F5F5
310
F5F5F5F5F5F5F5E2F5F5F5F5F5F5F5F5F5F5F5F5F5F5F5F5E2F5F5F5E2E2EFF5F5F5E2F5F5F5F5F5F5F5F5F5F5F5F5F5F5F5F5E2F5F5F5F5F5F5F5F5F5F5F5F5F5F5F5F5F5F5F5F5F5F5F5F5F5F5F5F5F5F5F5F5F5F5F5F5F5F5F5F5F5F5F5F5F5F5F5F5F5F5F5F5F5F5F5F5F5F5F5F5F5F5F5F5F5F5F5F5F5F5F5F5F5F5F5
310
F5F5F5F5F5F5F5F5F5F5F5F5F5F5F5F5F5F5F5F5F5F5F5F5F5F5F5F5F5F5F5F5F5F5F5F5F5F5F5F5F5F5F5F5F5F5F5F5F5F5F5F5F5F5F5F5F5F5F5F5E2F5F5F5F5F5F5F5F5F5F5F5F5F5F5F5F5E2F5F5F5E2E2EFF5F5F5E2F5F5F5F5F5F5F5F5F5F5F5F5F5F5F5F5E2F5F5F5F5F5F5F5F5F5F5F5F5F5F5F5F5F5F5F5F5F5F5
310
F5F5F5F5F5F5F5F5F5F5F5F5F5F5F5F5F5F5F5F5F5F5F5F5F5F5F5F5F5F5F5F5F5F5F5F5F5F5F5F5F5F5F5F5F5F5F5F5F5F5F5F5F5F5F5F5F5F5F5F5F5F5F5F5F5F5F5F5F5F5F5F5F5F5F5F5F5F5F5F5F5F5F5F5F5F5F5F5F5F5F5F5F5F5F5F5F5F5F5F5F5F5F5F5F5F5F5F5F5F5F5F5F5E2F5F5F5F5F5F5F5F5F5F5F5F5F5
310
F5F5F5E2F5F5F5E2E2EFF5F5F5E2F5F5F5F5F5F5F5F5F5F5F5F5F5F5F5F5E2F5F5F5F5F5F5F5F5F5F5F5F5F5F5F5F5F5F5F5F5F5F5F5F5F5F5F5F5F5F5F5F5F5F5F5F5F5F5F5F5F5F5F5F5F5F5F5F5F5F5F5F5F5F5F5F5F5F5F5F5F5F5F5F5F5F5F5F5F5F5F5F5F5F5F5F5F5F5F5F5F5F5F5F5F5F5F5F5F5F5F5F5F5F5F5F5
310
F5F5F5F5F5F5F5F5F5F5F5F5F5F5F5F5F5F5F5F5F5F5F5F5F5F5F5F5F5F5F5F5F5F5F5F5F5F5F5E2F5F5F5F5F5F5F5F5F5F5F5F5F5F5F5F5E2F5F5F5E2E2EFF5F5F5E2F5F5F5F5F5F5F5F5F5F5F5F5F5F5F5F5E2F5F5F5F5F5F5F5F5F5F5F5F5F5F5F5F5F5F5F5F5F5F5F5F5F5F5F5F5F5F5F5F5F5F5F5F5F5F5F5F5F5F5F5
310
F5F5F5F5F5F5F5F5F5F5F5F5F5F5F5F5F5F5F5F5F5F5F5F5F5F5F5F5F5F5F5F5F5F5F5F5F5F5F5F5F5F5F5F5F5F5F5F5F5F5F5F5F5F5F5F5F5F5F5F5F5F5F5F5F5F5F5F5F5F5F5F5F5F5F5F5F5F5F5F5F5F5F5F5F5F5F5F5F5F5F5F5E2F5F5F5F5F5F5F5F5F5F5F5F5F5F5F5F5E2F5F5F5E2E2EFF5F5F5E2F5F5F5F5F5F5F5
310
F5F5F5F5F5F5F5F5F5E2F5F5F5F5F5F5F5F5F5F5F5F5F5F5F5F5F5F5F5F5F5F5F5F5F5F5F5F5F5F5F5F5F5F5F5F5F5F5F5F5F5F5F5F5F5F5F5F5F5F5F5F5F5F5F5F5F5F5F5F5F5F5F5F5F5F5F5F5F5F5F5F5F5F5F5F5F5F5F5F5F5F5F5F5F5F5F5F5F5F5F5F5F5F5F5F5F5F5F5F5F5F5F5F5F5F5F5F5F5F5F5F5F5F5F5F5F5
310
F5F5F5F5F5F5F5F5F5F5F5F5F5F5F5F5F5F5E2F5F5F5F5F5F5F5F5F5F5F5F5F5F5F5F5E2F5F5F5E2E2EFF5F5F5E2F5F5F5F5F5F5F5F5F5F5F5F5F5F5F5F5E2F5F5F5F5F5F5F5F5F5F5F5F5F5F5F5F5F5F5F5F5F5F5F5F5F5F5F5F5F5F5F5F5F5F5F5F5F5F5F5F5F5F5F5F5F5F5F5F5F5F5F5F5F5F5F5F5F5F5F5F5F5F5F5F5
310
F5F5F5F5F5F5F5F5F5F5F5F5F5F5F5F5F5F5F5F5F5F5F5F5F5F5F5F5F5F5F5F5F5F5F5F5F5F5F5F5F5F5F5F5F5F5F5F5F5F5F5F5F5F5F5F5F5F5F5F5F5F5F5F5F5F5F5F5F5F5F5E2F5F5F5F5F5F5F5F5F5F5F5F5F5F5F5F5E2F5F5F5E2E2EFF5F5F5E2F5F5F5F5F5F5F5F5F5F5F5F5F5F5F5F5E2F5F5F5F5F5F5F5F5F5F5F5
310
F5F5F5F5F5F5F5F5F5F5F5F5F5F5F5F5F5F5F5F5F5F5F5F5F5F5F5F5F5F5F5F5F5F5F5F5F5F5F5F5F5F5F5F5F5F5F5F5F5F5F5F5F5F5F5F5F5F5F5F5F5F5F5F5F5F5F5F5F5F5F5F5F5F5F5F5F5F5F5F5F5F5F5F5F5F5F5F5F5F5F5F5F5F5F5F5F5F5F5F5F5F5F5F5F5F5F5F5F5F5F5F5F5F5F5F5F5F5F5F5F5F5F5F5E2F5F5
310
F5F5F5F5F5F5F5F5F5F5F5F5F5F5E2F5F5F5E2E2EFF5F5F5E2F5F5F5F5F5F5F5F5F5F5F5F5F5F5F5F5E2F5F5F5F5F5F5F5F5F5F5F5F5F5F5F5F5F5F5F5F5F5F5F5F5F5F5F5F5F5F5F5F5F5F5F5F5F5F5F5F5F5F5F5F5F5F5F5F5F5F5F5F5F5F5F5F5F5F5F5F5F5F5F5F5F5F5F5F5F5F5F5F5F5F5F5F5F5F5F5F5F5F5F5F5F5
310
F5F5F5F5F5F5F5F5F5F5F5F5F5F5F5F5F5F5F5F5F5F5F5F5F5F5F5F5F5F5F5F5F5F5F5F5F5F5F5F5F5F5F5F5F5F5F5F5F5F5E2F5F5F5F5F5F5F5F5F5F5F5F5F5F5F5F5E2F5F5F5E2E2EFF5F5F5E2F5F5F5F5F5F5F5F5F5F5F5F5F5F5F5F5E2F5F5F5F5F5F5F5F5F5F5F5F5F5F5F5F5F5F5F5F5F5F5F5F5F5F5F5F5F5F5F5F5
310
F5F5F5F5F5F5F5F5F5F5F5F5F5F5F5F5F5F5F5F5F5F5F5F5F5F5F5F5F5F5F5F5F5F5F5F5F5F5F5F5F5F5F5F5F5F5F5F5F5F5F5F5F5F5F5F5F5F5F5F5F5F5F5F5F5F5F5F5F5F5F5F5F5F5F5F5F5F5F5F5F5F5F5F5F5F5F5F5F5F5F5F5F5F5F5F5F5F5F5F5F5F5F5E2F5F5F5F5F5F5F5F5F5F5F5F5F5F5F5F5E2F5F5F5E2E2EF
310
F5F5F5E2F5F5F5F5F5F5F5F5F5F5F5F5F5F5F5F5E2F5F5F5F5F5F5F5F5F5F5F5F5F5F5F5F5F5F5F5F5F5F5F5F5F5F5F5F5F5F5F5F5F5F5F5F5F5F5F5F5F5F5F5F5F5F5F5F5F5F5F5F5F5F5F5F5F5F5F5F5F5F5F5F5F5F5F5F5F5F5F5F5F5F5F5F5F5F5F5F5F5F5F5F5F5F5F5F5F5F5F5F5F5F5F5F5F5F5F5F5F5F5F5F5F5F5
310
F5F5F5F5F5F5F5F5F5F5F5F5F5F5F5F5F5F5F5F5F5F5F5F5F5F5F5F5F5E2F5F5F5F5F5F5F5F5F5F5F5F5F5F5F5F5E2F5F5F5E2E2EFF5F5F5E2F5F5F5F5F5F5F5F5F5F5F5F5F5F5F5F5E2F5F5F5F5F5F5F5F5F5F5F5F5F5F5F5F5F5F5F5F5F5F5F5F5F5F5F5F5F5F5F5F5F5F5F5F5F5F5F5F5F5F5F5F5F5F5F5F5F5F5F5F5F5
310
F5F5F5F5F5F5F5F5F5F5F5F5F5F5F5F5F5F5F5F5F5F5F5F5F5F5F5F5F5F5F5F5F5F5F5F5F5F5F5F5F5F5F5F5F5F5F5F5F5F5F5F5F5F5F5F5F5F5F5F5F5F5F5F5F5F5F5F5F5F5F5F5F5F5F5F5F5F5F5F5F5F5E2F5F5F5F5F5F5F5F5F5F5F5F5F5F5F5F5E2F5F5F5E2E2EFF5F5F5E2F5F5F5F5F5F5F5F5F5F5F5F5F5F5F5F5E2
310
F5F5F5F5F5F5F5F5F5F5F5F5F5F5F5F5F5F5F5F5F5F5F5F5F5F5F5F5F5F5F5F5F5F5F5F5F5F5F5F5F5F5F5F5F5F5F5F5F5F5F5F5F5F5F5F5F5F5F5F5F5F5F5F5F5F5F5F5F5F5F5F5F5F5F5F5F5F5F5F5F5F5F5F5F5F5F5F5F5F5F5F5F5F5F5F5F5F5F5F5F5F5F5F5F5F5F5F5F5F5F5F5F5F5F5F5F5F5F5F5F5F5F5F5F5F5F5
310
F5F5F5F5F5F5F5F5E2F5F5F5F5F5F5F5F5F5F5F5F5F5F5F5F5E2F5F5F5E2E2EFF5F5F5E2F5F5F5F5F5F5F5F5F5F5F5F5F5F5F5F5E2F5F5F5F5F5F5F5F5F5F5F5F5F5F5F5F5F5F5F5F5F5F5F5F5F5F5F5F5F5F5F5F5F5F5F5F5F5F5F5F5F5F5F5F5F5F5F5F5F5F5F5F5F5F5F5F5F5F5F5F5F5F5F5F5F5F5F5F5F5F5F5F5F5F5
310
F5F5F5F5F5F5F5F5F5F5F5F5F5F5F5F5F5F5F5F5F5F5F5F5F5F5F5F5F5F5F5F5F5F5F5F5F5F5F5F5F5F5F5F5F5F5F5F5F5F5F5F5F5F5F5F5F5F5F5F5F5E2F5F5F5F5F5F5F5F5F5F5F5F5F5F5F5F5E2F5F5F5E2E2EFF5F5F5E2F5F5F5F5F5F5F5F5F5F5F5F5F5F5F5F5E2F5F5F5F5F5F5F5F5F5F5F5F5F5F5F5F5F5F5F5F5F5
310
F5F5F5F5F5F5F5F5F5F5F5F5F5F5F5F5F5F5F5F5F5F5F5F5F5F5F5F5F5F5F5F5F5F5F5F5F5F5F5F5F5F5F5F5F5F5F5F5F5F5F5F5F5F5F5F5F5F5F5F5F5F5F5F5F5F5F5F5F5F5F5F5F5F5F5F5F5F5F5F5F5F5F5F5F5F5F5F5F5F5F5F5F5F5F5F5F5F5F5F5F5F5F5F5F5F5F5F5F5F5F5F5F5F5E2F5F5F5F5F5F5F5F5F5F5F5F5
310
F5F5F5F5E2F5F5F5E2E2EFF5F5F5E2F5F5F5F5F5F5F5F5F5F5F5F5F5F5F5F5E2F5F5F5F5F5F5F5F5F5F5F5F5F5F5F5F5F5F5F5F5F5F5F5F5F5F5F5F5F5F5F5F5F5F5F5F5F5F5F5F5F5F5F5F5F5F5F5F5F5F5F5F5F5F5F5F5F5F5F5F5F5F5F5F5F5F5F5F5F5F5F5F5F5F5F5F5F5F5F5F5F5F5F5F5F5F5F5F5F5F5F5F5F5F5F5
310
F5F5F5F5F5F5F5F5F5F5F5F5F5F5F5F5F5F5F5F5F5F5F5F5F5F5F5F5F5F5F5F5F5F5F5F5F5F5F5F5E2F5F5F5F5F5F5F5F5F5F5F5F5F5F5F5F5E2F5F5F5E2E2EFF5F5F5F5F5F5F5F5F5F5F5F5F5F5F5F5F5F5F5F5E2F5F5F5F5F5F5F5F5F5F5F5F5F5F5F5F5F5F5F5F5F5F5F5F5F5F5F5F5F5F5F5F5F5F5F5F5F5F5F5F5F5F5
310
F5F5F5F5F5F5F5F5F5F5F5F5F5F5F5F5F5F5F5F5F5F5F5F5F5F5F5F5F5F5F5F5F5F5F5F5F5F5F5F5F5F5F5F5F5F5F5F5F5F5F5F5F5F5F5F5F5F5F5F5F5F5F5F5F5F5F5F5F5F5F5F5F5F5F5F5F5F5F5F5F5F5F5F5F5F5F5F5F5F5F5F5F5E2F5F5F5F5F5F5F5F5F5F5F5F5F5F5F5F5F5F5F5F5E2E2EFF5F5F5F5F5F5F5F5F5F5
310
F5F5F5F5F5F5F5F5F5F5E2F5F5F5F5F5F5F5F5F5F5F5F5F5F5F5F5F5F5F5F5F5F5F5F5F5F5F5F5F5F5F5F5F5F5F5F5F5F5F5F5F5F5F5F5F5F5F5F5F5F5F5F5F5F5F5F5F5F5F5F5F5F5F5F5F5F5F5F5F5F5F5F5F5F5F5F5F5F5F5F5F5F5F5F5F5F5F5F5F5F5F5F5F5F5F5F5F5F5F5F5F5F5F5F5F5F5F5F5F5F5F5F5F5F5F5F5
310
F5F5F5F5F5F5F5F5F5F5F5F5F5F5F5F5F5F5F5E2F5F5F5F5F5F5F5F5F5F5F5F5F5F5F5F5F5F5F5F5E2E2EFF5F5F5F5F5F5F5F5F5F5F5F5F5F5F5F5F5F5F5F5E2F5F5F5F5F5F5F5F5F5F5F5F5F5F5F5F5F5F5F5F5F5F5F5F5F5F5F5F5F5F5F5F5F5F5F5F5F5F5F5F5F5F5F5F5F5F5F5F5F5F5F5F5F5F5F5F5F5F5F5F5F5F5F5
310
F5F5F5F5F5F5F5F5F5F5F5F5F5F5F5F5F5F5F5F5F5F5F5F5F5F5F5F5F5F5F5F5F5F5F5F5F5F5F5F5F5F5F5F5F5F5F5F5F5F5F5F5F5F5F5F5F5F5F5F5F5F5F5F5F5F5F5F5F5F5F5F5E2F5F5F5F5F5F5F5F5F5F5F5F5F5F5F5F5F5F5F5F5E2E2EFF5F5F5F5F5F5F5F5F5F5F5F5F5F5F5F5F5F5F5F5E2F5F5F5F5F5F5F5F5F5F5
310
F5F5F5F5F5F5F5F5F5F5F5F5F5F5F5F5F5F5F5F5F5F5F5F5F5F5F5F5F5F5F5F5F5F5F5F5F5F5F5F5F5F5F5F5F5F5F5F5F5F5F5F5F5F5F5F5F5F5F5F5F5F5F5F5F5F5F5F5F5F5F5F5F5F5F5F5F5F5F5F5F5F5F5F5F5F5F5F5F5F5F5F5F5F5F5F5F5F5F5F5F5F5F5F5F5F5F5F5F5F5F5F5F5F5F5F5F5F5F5F5F5F5F5F5F5E2F5
310
F5F5F5F5F5F5F5F5F5F5F5F5F5F5F5F5F5F5F5E2E2EFF5F5F5F5F5F5F5F5F5F5F5F5F5F5F5F5F5F5F5F5E2F5F5F5F5F5F5F5F5F5F5F5F5F5F5F5F5F5F5F5F5F5F5F5F5F5F5F5F5F5F5F5F5F5F5F5F5F5F5F5F5F5F5F5F5F5F5F5F5F5F5F5F5F5F5F5F5F5F5F5F5F5F5F5F5F5F5F5F5F5F5F5F5F5F5F5F5F5F5F5F5F5F5F5F5
310
F5F5F5F5F5F5F5F5F5F5F5F5F5F5F5F5F5F5F5F5F5F5F5F5F5F5F5F5F5F5F5F5F5F5F5F5F5F5F5F5F5F5F5F5F5F5F5F5F5F5F5E2F5F5F5F5F5F5F5F5F5F5F5F5F5F5F5F5F5F5F5F5E2E2EFF5F5F5F5F5F5F5F5F5F5F5F5F5F5F5F5F5F5F5F5E2F5F5F5F5F5F5F5F5F5F5F5F5F5F5F5F5F5F5F5F5F5F5F5F5F5F5F5F5F5F5F5
310
F5F5F5F5F5F5F5F5F5F5F5F5F5F5F5F5F5F5F5F5F5F5F5F5F5F5F5F5F5F5F5F5F5F5F5F5F5F5F5F5F5F5F5F5F5F5F5F5F5F5F5F5F5F5F5F5F5F5F5F5F5F5F5F5F5F5F5F5F5F5F5F5F5F5F5F5F5F5F5F5F5F5F5F5F5F5F5F5F5F5F5F5F5F5F5F5F5F5F5F5F5F5F5F5E2F5F5F5F5F5F5F5F5F5F5F5F5F5F5F5F5F5F5F5F5E2E2
310
EFF5F5F5F5F5F5F5F5F5F5F5F5F5F5F5F5F5F5F5F5E2F5F5F5F5F5F5F5F5F5F5F5F5F5F5F5F5F5F5F5F5F5F5F5F5F5F5F5F5F5F5F5F5F5F5F5F5F5F5F5F5F5F5F5F5F5F5F5F5F5F5F5F5F5F5F5F5F5F5F5F5F5F5F5F5F5F5F5F5F5F5F5F5F5F5F5F5F5F5F5F5F5F5F5F5F5F5F5F5F5F5F5F5F5F5F5F5F5F5F5F5F5F5F5F5F5
310
F5F5F5F5F5F5F5F5F5F5F5F5F5F5F5F5F5F5F5F5F5F5F5F5F5F5F5F5F5F5E2F5F5F5F5F5F5F5F5F5F5F5F5F5F5F5F5F5F5F5F5E2E2EFF5F5F5F5F5F5F5F5F5F5F5F5F5F5F5F5F5F5F5F5E2F5F5F5F5F5F5F5F5F5F5F5F5F5F5F5F5F5F5F5F5F5F5F5F5F5F5F5F5F5F5F5F5F5F5F5F5F5F5F5F5F5F5F5F5F5F5F5F5F5F5F5F5
310
F5F5F5F5F5F5F5F5F5F5F5F5F5F5F5F5F5F5F5F5F5F5F5F5F5F5F5F5F5F5F5F5F5F5F5F5F5F5F5F5F5F5F5F5F5F5F5F5F5F5F5F5F5F5F5F5F5F5F5F5F5F5F5F5F5F5F5F5F5F5F5F5F5F5F5F5F5F5F5F5F5F5F5E2F5F5F5F5F5F5F5F5F5F5F5F5F5F5F5F5F5F5F5F5E2E2EFF5F5F5F5F5F5F5F5F5F5F5F5F5F5F5F5F5F5F5F5
310
E2F5F5F5F5F5F5F5F5F5F5F5F5F5F5F5F5F5F5F5F5F5F5F5F5F5F5F5F5F5F5F5F5F5F5F5F5F5F5F5F5F5F5F5F5F5F5F5F5F5F5F5F5F5F5F5F5F5F5F5F5F5F5F5F5F5F5F5F5F5F5F5F5F5F5F5F5F5F5F5F5F5F5F5F5F5F5F5F5F5F5F5F5F5F5F5F5F5F5F5F5F5F5F5F5F5F5F5F5F5F5F5F5F5F5F5F5F5F5F5F5F5F5F5F5F5F5
310
F5F5F5F5F5F5F5F5F5E2F5F5F5F5F5F5F5F5F5F5F5F5F5F5F5F5F5F5F5F5E2E2EFF5F5F5E2F5F5F5F5F5F5F5F5F5F5F5F5F5F5F5F5E2F5F5F5F5F5F5F5F5F5F5F5F5F5F5F5F5F5F5F5F5F5F5F5F5F5F5F5F5F5F5F5F5F5F5F5F5F5F5F5F5F5F5F5F5F5F5F5F5F5F5F5F5F5F5F5F5F5F5F5F5F5F5F5F5F5F5F5F5F5F5F5F5F5
310
F5F5F5F5F5F5F5F5F5F5F5F5F5F5F5F5F5F5F5F5F5F5F5F5F5F5F5F5F5F5F5F5F5F5F5F5F5F5F5F5F5F5F5F5F5F5F5F5F5F5F5F5F5F5F5F5F5F5F5F5F5F5E2F5F5F5F5F5F5F5F5F5F5F5F5F5F5F5F5E2F5F5F5E2E2EFF5F5F5E2F5F5F5F5F5F5F5F5F5F5F5F5F5F5F5F5E2F5F5F5F5F5F5F5F5F5F5F5F5F5F5F5F5F5F5F5F5
310
F5F5F5F5F5F5F5F5F5F5F5F5F5F5F5F5F5F5F5F5F5F5F5F5F5F5F5F5F5F5F5F5F5F5F5F5F5F5F5F5F5F5F5F5F5F5F5F5F5F5F5F5F5F5F5F5F5F5F5F5F5F5F5F5F5F5F5F5F5F5F5F5F5F5F5F5F5F5F5F5F5F5F5F5F5F5F5F5F5F5F5F5F5F5F5F5F5F5F5F5F5F5F5F5F5F5F5F5F5F5F5F5F5F5F5E2F5F5F5F5F5F5F5F5F5F5F5
310
F5F5F5F5F5E2F5F5F5E2E2EFF5F5F5E2F5F5F5F5F5F5F5F5F5F5F5F5F5F5F5F5E2F5F5F5F5F5F5F5F5F5F5F5F5F5F5F5F5F5F5F5F5F5F5F5F5F5F5F5F5F5F5F5F5F5F5F5F5F5F5F5F5F5F5F5F5F5F5F5F5F5F5F5F5F5F5F5F5F5F5F5F5F5F5F5F5F5F5F5F5F5F5F5F5F5F5F5F5F5F5F5F5F5F5F5F5F5F5F5F5F5F5F5F5F5F5
310
F5F5F5F5F5F5F5F5F5F5F5F5F5F5F5F5F5F5F5F5F5F5F5F5F5F5F5F5F5F5F5F5F5F5F5F5F5F5F5F5F5E2F5F5F5F5F5F5F5F5F5F5F5F5F5F5F5F5E2F5F5F5E2E2EFF5F5F5E2F5F5F5F5F5F5F5F5F5F5F5F5F5F5F5F5E2F5F5F5F5F5F5F5F5F5F5F5F5F5F5F5F5F5F5F5F5F5F5F5F5F5F5F5F5F5F5F5F5F5F5F5F5F5F5F5F5F5
310
F5F5F5F5F5F5F5F5F5F5F5F5F5F5F5F5F5F5F5F5F5F5F5F5F5F5F5F5F5F5F5F5F5F5F5F5F5F5F5F5F5F5F5F5F5F5F5F5F5F5F5F5F5F5F5F5F5F5F5F5F5F5F5F5F5F5F5F5F5F5F5F5F5F5F5F5F5F5F5F5F5F5F5F5F5F5F5F5F5F5F5F5F5F5E2F5F5F5F5F5F5F5F5F5F5F5F5F5F5F5F5E2F5F5F5E2E2EFF5F5F5E2F5F5F5F5F5
310
F5F5F5F5F5F5F5F5F5F5F5E2F5F5F5F5F5F5F5F5F5F5F5F5F5F5F5F5F5F5F5F5F5F5F5F5F5F5F5F5F5F5F5F5F5F5F5F5F5F5F5F5F5F5F5F5F5F5F5F5F5F5F5F5F5F5F5F5F5F5F5F5F5F5F5F5F5F5F5F5F5F5F5F5F5F5F5F5F5F5F5F5F5F5F5F5F5F5F5F5F5F5F5F5F5F5F5F5F5F5F5F5F5F5F5F5F5F5F5F5F5F5F5F5F5F5F5
310
F5F5F5F5F5F5F5F5F5F5F5F5F5F5F5F5F5F5F5F5E2F5F5F5F5F5F5F5F5F5F5F5F5F5F5F5F5E2F5F5F5E2E2EFF5F5F5E2F5F5F5F5F5F5F5F5F5F5F5F5F5F5F5F5E2F5F5F5F5F5F5F5F5F5F5F5F5F5F5F5F5F5F5F5F5F5F5F5F5F5F5F5F5F5F5F5F5F5F5F5F5F5F5F5F5F5F5F5F5F5F5F5F5F5F5F5F5F5F5F5F5F5F5F5F5F5F5
310
F5F5F5F5F5F5F5F5F5F5F5F5F5F5F5F5F5F5F5F5F5F5F5F5F5F5F5F5F5F5F5F5F5F5F5F5F5F5F5F5F5F5F5F5F5F5F5F5F5F5F5F5F5F5F5F5F5F5F5F5F5F5F5F5F5F5F5F5F5F5F5F5F5E2F5F5F5F5F5F5F5F5F5F5F5F5F5F5F5F5E2F5F5F5E2E2EFF5F5F5E2F5F5F5F5F5F5F5F5F5F5F5F5F5F5F5F5E2F5F5F5F5F5F5F5F5F5
310
F5F5F5F5F5F5F5F5F5F5F5F5F5F5F5F5F5F5F5F5F5F5F5F5F5F5F5F5F5F5F5F5F5F5F5F5F5F5F5F5F5F5F5F5F5F5F5F5F5F5F5F5F5F5F5F5F5F5F5F5F5F5F5F5F5F5F5F5F5F5F5F5F5F5F5F5F5F5F5F5F5F5F5F5F5F5F5F5F5F5F5F5F5F5F5F5F5F5F5F5F5F5F5F5F5F5F5F5F5F5F5F5F5F5F5F5F5F5F5F5F5F5F5F5F5F5E2
310
F5F5F5F5F5F5F5F5F5F5F5F5F5F5F5F5E2F5F5F5E2E2EFF5F5F5E2F5F5F5F5F5F5F5F5F5F5F5F5F5F5F5F5E2F5F5F5F5F5F5F5F5F5F5F5F5F5F5F5F5F5F5F5F5F5F5F5F5F5F5F5F5F5F5F5F5F5F5F5F5F5F5F5F5F5F5F5F5F5F5F5F5F5F5F5F5F5F5F5F5F5F5F5F5F5F5F5F5F5F5F5F5F5F5F5F5F5F5F5F5F5F5F5F5F5F5F5
310
F5F5F5F5F5F5F5F5F5F5F5F5F5F5F5F5F5F5F5F5F5F5F5F5F5F5F5F5F5F5F5F5F5F5F5F5F5F5F5F5F5F5F5F5F5F5F5F5F5F5F5F5E2F5F5F5F5F5F5F5F5F5F5F5F5F5F5F5F5E2F5F5F5E2E2EFF5F5F5E2F5F5F5F5F5F5F5F5F5F5F5F5F5F5F5F5E2F5F5F5F5F5F5F5F5F5F5F5F5F5F5F5F5F5F5F5F5F5F5F5F5F5F5F5F5F5F5
310
F5F5F5F5F5F5F5F5F5F5F5F5F5F5F5F5F5F5F5F5F5F5F5F5F5F5F5F5F5F5F5F5F5F5F5F5F5F5F5F5F5F5F5F5F5F5F5F5F5F5F5F5F5F5F5F5F5F5F5F5F5F5F5F5F5F5F5F5F5F5F5F5F5F5F5F5F5F5F5F5F5F5F5F5F5F5F5F5F5F5F5F5F5F5F5F5F5F5F5F5F5F5F5F5F5E2F5F5F5F5F5F5F5F5F5F5F5F5F5F5F5F5E2F5F5F5E2
310
E2EFF5F5F5E2F5F5F5F5F5F5F5F5F5F5F5F5F5F5F5F5E2F5F5F5F5F5F5F5F5F5F5F5F5F5F5F5F5F5F5F5F5F5F5F5F5F5F5F5F5F5F5F5F5F5F5F5F5F5F5F5F5F5F5F5F5F5F5F5F5F5F5F5F5F5F5F5F5F5F5F5F5F5F5F5F5F5F5F5F5F5F5F5F5F5F5F5F5F5F5F5F5F5F5F5F5F5F5F5F5F5F5F5F5F5F5F5F5F5F5F5F5F5F5F5F5
310
F5F5F5F5F5F5F5F5F5F5F5F5F5F5F5F5F5F5F5F5F5F5F5F5F5F5F5F5F5F5F5E2F5F5F5F5F5F5F5F5F5F5F5F5F5F5F5F5E2F5F5F5E2E2EFF5F5F5E2F5F5F5F5F5F5F5F5F5F5F5F5F5F5F5F5E2F5F5F5F5F5F5F5F5F5F5F5F5F5F5F5F5F5F5F5F5F5F5F5F5F5F5F5F5F5F5F5F5F5F5F5F5F5F5F5F5F5F5F5F5F5F5F5F5F5F5F5
310
F5F5F5F5F5F5F5F5F5F5F5F5F5F5F5F5F5F5F5F5F5F5F5F5F5F5F5F5F5F5F5F5F5F5F5F5F5F5F5F5F5F5F5F5F5F5F5F5F5F5F5F5F5F5F5F5F5F5F5F5F5F5F5F5F5F5F5F5F5F5F5F5F5F5F5F5F5F5F5F5F5F5F5F5E2F5F5F5F5F5F5F5F5F5F5F5F5F5F5F5F5E2F5F5F5E2E2EFF5F5F5E2F5F5F5F5F5F5F5F5F5F5F5F5F5F5F5
310
F5E2F5F5F5F5F5F5F5F5F5F5F5F5F5F5F5F5F5F5F5F5F5F5F5F5F5F5F5F5F5F5F5F5F5F5F5F5F5F5F5F5F5F5F5F5F5F5F5F5F5F5F5F5F5F5F5F5F5F5F5F5F5F5F5F5F5F5F5F5F5F5F5F5F5F5F5F5F5F5F5F5F5F5F5F5F5F5F5F5F5F5F5F5F5F5F5F5F5F5F5F5F5F5F5F5F5F5F5F5F5F5F5F5F5F5F5F5F5F5F5F5F5F5F5F5F5
310
F5F5F5F5F5F5F5F5F5F5E2F5F5F5F5F5F5F5F5F5F5F5F5F5F5F5F5E2F5F5F5E2E2EFF5F5F5E2F5F5F5F5F5F5F5F5F5F5F5F5F5F5F5F5E2F5F5F5F5F5F5F5F5F5F5F5F5F5F5F5F5F5F5F5F5F5F5F5F5F5F5F5F5F5F5F5F5F5F5F5F5F5F5F5F5F5F5F5F5F5F5F5F5F5F5F5F5F5F5F5F5F5F5F5F5F5F5F5F5F5F5F5F5F5F5F5F5
310
F5F5F5F5F5F5F5F5F5F5F5F5F5F5F5F5F5F5F5F5F5F5F5F5F5F5F5F5F5F5F5F5F5F5F5F5F5F5F5F5F5F5F5F5F5F5F5F5F5F5F5F5F5F5F5F5F5F5F5F5F5F5F5E2F5F5F5F5F5F5F5F5F5F5F5F5F5F5F5F5E2F5F5F5E2E2EFF5F5F5E2F5F5F5F5F5F5F5F5F5F5F5F5F5F5F5F5E2F5F5F5F5F5F5F5F5F5F5F5F5F5F5F5F5F5F5F5
310
F5F5F5F5F5F5F5F5F5F5F5F5F5F5F5F5F5F5F5F5F5F5F5F5F5F5F5F5F5F5F5F5F5F5F5F5F5F5F5F5F5F5F5F5F5F5F5F5F5F5F5F5F5F5F5F5F5F5F5F5F5F5F5F5F5F5F5F5F5F5F5F5F5F5F5F5F5F5F5F5F5F5F5F5F5F5F5F5F5F5F5F5F5F5F5F5F5F5F5F5F5F5F5F5F5F5F5F5F5F5F5F5F5F5F5F5E2F5F5F5F5F5F5F5F5F5F5
310
F5F5F5F5F5F5E2F5F5F5E2E2EFF5F5F5E2F5F5F5F5F5F5F5F5F5F5F5F5F5F5F5F5E2F5F5F5F5F5F5F5F5F5F5F5F5F5F5F5F5F5F5F5F5F5F5F5F5F5F5F5F5F5F5F5F5F5F5F5F5F5F5F5F5F5F5F5F5F5F5F5F5F5F5F5F5F5F5F5F5F5F5F5F5F5F5F5F5F5F5F5F5F5F5F5F5F5F5F5F5F5F5F5F5F5F5F5F5F5F5F5F5F5F5F5F5F5
310
F5F5F5F5F5F5F5F5F5F5F5F5F5F5F5F5F5F5F5F5F5F5F5F5F5F5F5F5F5F5F5F5F5F5F5F5F5F5F5F5F5F5E2F5F5F5F5F5F5F5F5F5F5F5F5F5F5F5F5E2F5F5F5E2E2EFF5F5F5E2F5F5F5F5F5F5F5F5F5F5F5F5F5F5F5F5E2F5F5F5F5F5F5F5F5F5F5F5F5F5F5F5F5F5F5F5F5F5F5F5F5F5F5F5F5F5F5F5F5F5F5F5F5F5F5F5F5
310
F5F5F5F5F5F5F5F5F5F5F5F5F5F5F5F5F5F5F5F5F5F5F5F5F5F5F5F5F5F5F5F5F5F5F5F5F5F5F5F5F5F5F5F5F5F5F5F5F5F5F5F5F5F5F5F5F5F5F5F5F5F5F5F5F5F5F5F5F5F5F5F5F5F5F5F5F5F5F5F5F5F5F5F5F5F5F5F5F5F5F5F5F5F5F5E2F5F5F5F5F5F5F5F5F5F5F5F5F5F5F5F5E2F5F5F5E2E2EFF5F5F5E2F5F5F5F5
310
F5F5F5F5F5F5F5F5F5F5F5F5E2F5F5F5F5F5F5F5F5F5F5F5F5F5F5F5F5F5F5F5F5F5F5F5F5F5F5F5F5F5F5F5F5F5F5F5F5F5F5F5F5F5F5F5F5F5F5F5F5F5F5F5F5F5F5F5F5F5F5F5F5F5F5F5F5F5F5F5F5F5F5F5F5F5F5F5F5F5F5F5F5F5F5F5F5F5F5F5F5F5F5F5F5F5F5F5F5F5F5F5F5F5F5F5F5F5F5F5F5F5F5F5F5F5F5
310
F5F5F5F5F5F5F5F5F5F5F5F5F5F5F5F5F5F5F5F5F5E2F5F5F5F5F5F5F5F5F5F5F5F5F5F5F5F5E2F5F5F5E2E2EFF5F5F5F5F5F5F5F5F5F5F5F5F5F5F5F5F5F5F5F5E2F5F5F5F5F5F5F5F5F5F5F5F5F5F5F5F5F5F5F5F5F5F5F5F5F5F5F5F5F5F5F5F5F5F5F5F5F5F5F5F5F5F5F5F5F5F5F5F5F5F5F5F5F5F5F5F5F5F5F5F5F5
310
F5F5F5F5F5F5F5F5F5F5F5F5F5F5F5F5F5F5F5F5F5F5F5F5F5F5F5F5F5F5F5F5F5F5F5F5F5F5F5F5F5F5F5F5F5F5F5F5F5F5F5F5F5F5F5F5F5F5F5F5F5F5F5F5F5F5F5F5F5F5F5F5F5F5E2F5F5F5F5F5F5F5F5F5F5F5F5F5F5F5F5F5F5F5F5E2E2EFF5F5F5F5F5F5F5F5F5F5F5F5F5F5F5F5F5F5F5F5E2F5F5F5F5F5F5F5F5
310
F5F5F5F5F5F5F5F5F5F5F5F5F5F5F5F5F5F5F5F5F5F5F5F5F5F5F5F5F5F5F5F5F5F5F5F5F5F5F5F5F5F5F5F5F5F5F5F5F5F5F5F5F5F5F5F5F5F5F5F5F5F5F5F5F5F5F5F5F5F5F5F5F5F5F5F5F5F5F5F5F5F5F5F5F5F5F5F5F5F5F5F5F5F5F5F5F5F5F5F5F5F5F5F5F5F5F5F5F5F5F5F5F5F5F5F5F5F5F5F5F5F5F5F5F5F5F5
310
E2F5F5F5F5F5F5F5F5F5F5F5F5F5F5F5F5F5F5F5F5E2E2EFF5F5F5F5F5F5F5F5F5F5F5F5F5F5F5F5F5F5F5F5E2F5F5F5F5F5F5F5F5F5F5F5F5F5F5F5F5F5F5F5F5F5F5F5F5F5F5F5F5F5F5F5F5F5F5F5F5F5F5F5F5F5F5F5F5F5F5F5F5F5F5F5F5F5F5F5F5F5F5F5F5F5F5F5F5F5F5F5F5F5F5F5F5F5F5F5F5F5F5F5F5F5F5
310
F5F5F5F5F5F5F5F5F5F5F5F5F5F5F5F5F5F5F5F5F5F5F5F5F5F5F5F5F5F5F5F5F5F5F5F5F5F5F5F5F5F5F5F5F5F5F5F5F5F5F5F5F5E2F5F5F5F5F5F5F5F5F5F5F5F5F5F5F5F5F5F5F5F5E2E2EFF5F5F5F5F5F5F5F5F5F5F5F5F5F5F5F5F5F5F5F5E2F5F5F5F5F5F5F5F5F5F5F5F5F5F5F5F5F5F5F5F5F5F5F5F5F5F5F5F5F5
310
F5F5F5F5F5F5F5F5F5F5F5F5F5F5F5F5F5F5F5F5F5F5F5F5F5F5F5F5F5F5F5F5F5F5F5F5F5F5F5F5F5F5F5F5F5F5F5F5F5F5F5F5F5F5F5F5F5F5F5F5F5F5F5F5F5F5F5F5F5F5F5F5F5F5F5F5F5F5F5F5F5F5F5F5F5F5F5F5F5F5F5F5F5F5F5F5F5F5F5F5F5F5F5F5F5F5E2F5F5F5F5F5F5F5F5F5F5F5F5F5F5F5F5F5F5F5F5
310
E2E2EFF5F5F5F5F5F5F5F5F5F5F5F5F5F5F5F5F5F5F5F5E2F5F5F5F5F5F5F5F5F5F5F5F5F5F5F5F5F5F5F5F5F5F5F5F5F5F5F5F5F5F5F5F5F5F5F5F5F5F5F5F5F5F5F5F5F5F5F5F5F5F5F5F5F5F5F5F5F5F5F5F5F5F5F5F5F5F5F5F5F5F5F5F5F5F5F5F5F5F5F5F5F5F5F5F5F5F5F5F5F5F5F5F5F5F5F5F5F5F5F5F5F5F5F5
310
F5F5F5F5F5F5F5F5F5F5F5F5F5F5F5F5F5F5F5F5F5F5F5F5F5F5F5F5F5F5F5F5E2F5F5F5F5F5F5F5F5F5F5F5F5F5F5F5F5F5F5F5F5E2E2EFF5F5F5F5F5F5F5F5F5F5F5F5F5F5F5F5F5F5F5F5E2F5F5F5F5F5F5F5F5F5F5F5F5F5F5F5F5F5F5F5F5F5F5F5F5F5F5F5F5F5F5F5F5F5F5F5F5F5F5F5F5F5F5F5F5F5F5F5F5F5F5
310
F5F5F5F5F5F5F5F5F5F5F5F5F5F5F5F5F5F5F5F5F5F5F5F5F5F5F5F5F5F5F5F5F5F5F5F5F5F5F5F5F5F5F5F5F5F5F5F5F5F5F5F5F5F5F5F5F5F5F5F5F5F5F5F5F5F5F5F5F5F5F5F5F5F5F5F5F5F5F5F5F5F5F5F5F5E2F5F5F5F5F5F5F5F5F5F5F5F5F5F5F5F5F5F5F5F5E2E2EFF5F5F5F5F5F5F5F5F5F5F5F5F5F5F5F5F5F5
310
F5F5E2F5F5F5F5F5F5F5F5F5F5F5F5F5F5F5F5F5F5F5F5F5F5F5F5F5F5F5F5F5F5F5F5F5F5F5F5F5F5F5F5F5F5F5F5F5F5F5F5F5F5F5F5F5F5F5F5F5F5F5F5F5F5F5F5F5F5F5F5F5F5F5F5F5F5F5F5F5F5F5F5F5F5F5F5F5F5F5F5F5F5F5F5F5F5F5F5F5F5F5F5F5F5F5F5F5F5F5F5F5F5F5F5F5F5F5F5F5F5F5F5F5F5F5F5
310
F5F5F5F5F5F5F5F5F5F5F5E2F5F5F5F5F5F5F5F5F5F5F5F5F5F5F5F5F5F5F5F5E2E2EFF5F5F5F5F5F5F5F5F5F5F5F5F5F5F5F5F5F5F5F5E2F5F5F5F5F5F5F5F5F5F5F5F5F5F5F5F5F5F5F5F5F5F5F5F5F5F5F5F5F5F5F5F5F5F5F5F5F5F5F5F5F5F5F5F5F5F5F5F5F5F5F5F5F5F5F5F5F5F5F5F5F5F5F5F5F5F5F5F5F5F5F5
310
F5F5F5F5F5F5F5F5F5F5F5F5F5F5F5F5F5F5F5F5F5F5F5F5F5F5F5F5F5F5F5F5F5F5F5F5F5F5F5F5F5F5F5F5F5F5F5F5F5F5F5F5F5F5F5F5F5F5F5F5F5F5F5F5E2F5F5F5F5F5F5F5F5F5F5F5F5F5F5F5F5F5F5F5F5E2E2EFF5F5F5F5F5F5F5F5F5F5F5F5F5F5F5F5F5F5F5F5E2F5F5F5F5F5F5F5F5F5F5F5F5F5F5F5F5F5F5
310
F5F5F5F5F5F5F5F5F5F5F5F5F5F5F5F5F5F5F5F5F5F5F5F5F5F5F5F5F5F5F5F5F5F5F5F5F5F5F5F5F5F5F5F5F5F5F5F5F5F5F5F5F5F5F5F5F5F5F5F5F5F5F5F5F5F5F5F5F5F5F5F5F5F5F5F5F5F5F5F5F5F5F5F5F5F5F5F5F5F5F5F5F5F5F5F5F5F5F5F5F5F5F5F5F5F5F5F5F5F5F5F5F5F5F5F5F5E2F5F5F5F5F5F5F5F5F5
310
F5F5F5F5F5F5F5F5F5F5F5E2E2EFF5F5F5E2F5F5F5F5F5F5F5F5F5F5F5F5F5F5F5F5E2F5F5F5F5F5F5F5F5F5F5F5F5F5F5F5F5F5F5F5F5F5F5F5F5F5F5F5F5F5F5F5F5F5F5F5F5F5F5F5F5F5F5F5F5F5F5F5F5F5F5F5F5F5F5F5F5F5F5F5F5F5F5F5F5F5F5F5F5F5F5F5F5F5F5F5F5F5F5F5F5F5F5F5F5F5F5F5F5F5F5F5F5
310
F5F5F5F5F5F5F5F5F5F5F5F5F5F5F5F5F5F5F5F5F5F5F5F5F5F5F5F5F5F5F5F5F5F5F5F5F5F5F5F5F5F5F5E2F5F5F5F5F5F5F5F5F5F5F5F5F5F5F5F5E2F5F5F5E2E2EFF5F5F5E2F5F5F5F5F5F5F5F5F5F5F5F5F5F5F5F5E2F5F5F5F5F5F5F5F5F5F5F5F5F5F5F5F5F5F5F5F5F5F5F5F5F5F5F5F5F5F5F5F5F5F5F5F5F5F5F5
310
F5F5F5F5F5F5F5F5F5F5F5F5F5F5F5F5F5F5F5F5F5F5F5F5F5F5F5F5F5F5F5F5F5F5F5F5F5F5F5F5F5F5F5F5F5F5F5F5F5F5F5F5F5F5F5F5F5F5F5F5F5F5F5F5F5F5F5F5F5F5F5F5F5F5F5F5F5F5F5F5F5F5F5F5F5F5F5F5F5F5F5F5F5F5F5F5E2F5F5F5F5F5F5F5F5F5F5F5F5F5F5F5F5E2F5F5F5E2E2EFF5F5F5E2F5F5F5
310
F5F5F5F5F5F5F5F5F5F5F5F5F5E2F5F5F5F5F5F5F5F5F5F5F5F5F5F5F5F5F5F5F5F5F5F5F5F5F5F5F5F5F5F5F5F5F5F5F5F5F5F5F5F5F5F5F5F5F5F5F5F5F5F5F5F5F5F5F5F5F5F5F5F5F5F5F5F5F5F5F5F5F5F5F5F5F5F5F5F5F5F5F5F5F5F5F5F5F5F5F5F5F5F5F5F5F5F5F5F5F5F5F5F5F5F5F5F5F5F5F5F5F5F5F5F5F5
310
F5F5F5F5F5F5F5F5F5F5F5F5F5F5F5F5F5F5F5F5F5F5E2F5F5F5F5F5F5F5F5F5F5F5F5F5F5F5F5E2F5F5F5E2E2EFF5F5F5E2F5F5F5F5F5F5F5F5F5F5F5F5F5F5F5F5E2F5F5F5F5F5F5F5F5F5F5F5F5F5F5F5F5F5F5F5F5F5F5F5F5F5F5F5F5F5F5F5F5F5F5F5F5F5F5F5F5F5F5F5F5F5F5F5F5F5F5F5F5F5F5F5F5F5F5F5F5
310
F5F5F5F5F5F5F5F5F5F5F5F5F5F5F5F5F5F5F5F5F5F5F5F5F5F5F5F5F5F5F5F5F5F5F5F5F5F5F5F5F5F5F5F5F5F5F5F5F5F5F5F5F5F5F5F5F5F5F5F5F5F5F5F5F5F5F5F5F5F5F5F5F5F5F5E2F5F5F5F5F5F5F5F5F5F5F5F5F5F5F5F5E2F5F5F5E2E2EFF5F5F5E2F5F5F5F5F5F5F5F5F5F5F5F5F5F5F5F5E2F5F5F5F5F5F5F5
310
F5F5F5F5F5F5F5F5F5F5F5F5F5F5F5F5F5F5F5F5F5F5F5F5F5F5F5F5F5F5F5F5F5F5F5F5F5F5F5F5F5F5F5F5F5F5F5F5F5F5F5F5F5F5F5F5F5F5F5F5F5F5F5F5F5F5F5F5F5F5F5F5F5F5F5F5F5F5F5F5F5F5F5F5F5F5F5F5F5F5F5F5F5F5F5F5F5F5F5F5F5F5F5F5F5F5F5F5F5F5F5F5F5F5F5F5F5F5F5F5F5F5F5F5F5F5F5
310
F5E2F5F5F5F5F5F5F5F5F5F5F5F5F5F5F5F5E2F5F5F5E2E2EFF5F5F5E2F5F5F5F5F5F5F5F5F5F5F5F5F5F5F5F5E2F5F5F5F5F5F5F5F5F5F5F5F5F5F5F5F5F5F5F5F5F5F5F5F5F5F5F5F5F5F5F5F5F5F5F5F5F5F5F5F5F5F5F5F5F5F5F5F5F5F5F5F5F5F5F5F5F5F5F5F5F5F5F5F5F5F5F5F5F5F5F5F5F5F5F5F5F5F5F5F5F5
310
F5F5F5F5F5F5F5F5F5F5F5F5F5F5F5F5F5F5F5F5F5F5F5F5F5F5F5F5F5F5F5F5F5F5F5F5F5F5F5F5F5F5F5F5F5F5F5F5F5F5F5F5F5F5E2F5F5F5F5F5F5F5F5F5F5F5F5F5F5F5F5E2F5F5F5E2E2EFF5F5F5E2F5F5F5F5F5F5F5F5F5F5F5F5F5F5F5F5E2F5F5F5F5F5F5F5F5F5F5F5F5F5F5F5F5F5F5F5F5F5F5F5F5F5F5F5F5
310
F5F5F5F5F5F5F5F5F5F5F5F5F5F5F5F5F5F5F5F5F5F5F5F5F5F5F5F5F5F5F5F5F5F5F5F5F5F5F5F5F5F5F5F5F5F5F5F5F5F5F5F5F5F5F5F5F5F5F5F5F5F5F5F5F5F5F5F5F5F5F5F5F5F5F5F5F5F5F5F5F5F5F5F5F5F5F5F5F5F5F5F5F5F5F5F5F5F5F5F5F5F5F5F5F5F5F5E2F5F5F5F5F5F5F5F5F5F5F5F5F5F5F5F5E2F5F5
310
F5E2E2EFF5F5F5E2F5F5F5F5F5F5F5F5F5F5F5F5F5F5F5F5E2F5F5F5F5F5F5F5F5F5F5F5F5F5F5F5F5F5F5F5F5F5F5F5F5F5F5F5F5F5F5F5F5F5F5F5F5F5F5F5F5F5F5F5F5F5F5F5F5F5F5F5F5F5F5F5F5F5F5F5F5F5F5F5F5F5F5F5F5F5F5F5F5F5F5F5F5F5F5F5F5F5F5F5F5F5F5F5F5F5F5F5F5F5F5F5F5F5F5F5F5F5F5
310
F5F5F5F5F5F5F5F5F5F5F5F5F5F5F5F5F5F5F5F5F5F5F5F5F5F5F5F5F5F5F5F5F5E2F5F5F5F5F5F5F5F5F5F5F5F5F5F5F5F5E2F5F5F5E2E2EFF5F5F5E2F5F5F5F5F5F5F5F5F5F5F5F5F5F5F5F5E2F5F5F5F5F5F5F5F5F5F5F5F5F5F5F5F5F5F5F5F5F5F5F5F5F5F5F5F5F5F5F5F5F5F5F5F5F5F5F5F5F5F5F5F5F5F5F5F5F5
310
F5F5F5F5F5F5F5F5F5F5F5F5F5F5F5F5F5F5F5F5F5F5F5F5F5F5F5F5F5F5F5F5F5F5F5F5F5F5F5F5F5F5F5F5F5F5F5F5F5F5F5F5F5F5F5F5F5F5F5F5F5F5F5F5F5F5F5F5F5F5F5F5F5F5F5F5F5F5F5F5F5F5F5F5F5F5E2F5F5F5F5F5F5F5F5F5F5F5F5F5F5F5F5E2F5F5F5E2E2EFF5F5F5E2F5F5F5F5F5F5F5F5F5F5F5F5F5
310
F5F5F5E2F5F5F5F5F5F5F5F5F5F5F5F5F5F5F5F5F5F5F5F5F5F5F5F5F5F5F5F5F5F5F5F5F5F5F5F5F5F5F5F5F5F5F5F5F5F5F5F5F5F5F5F5F5F5F5F5F5F5F5F5F5F5F5F5F5F5F5F5F5F5F5F5F5F5F5F5F5F5F5F5F5F5F5F5F5F5F5F5F5F5F5F5F5F5F5F5F5F5F5F5F5F5F5F5F5F5F5F5F5F5F5F5F5F5F5F5F5F5F5F5F5F5F5
310
F5F5F5F5F5F5F5F5F5F5F5F5E2F5F5F5F5F5F5F5F5F5F5F5F5F5F5F5F5E2F5F5F5E2E2EFF5F5F5E2F5F5F5F5F5F5F5F5F5F5F5F5F5F5F5F5E2F5F5F5F5F5F5F5F5F5F5F5F5F5F5F5F5F5F5F5F5F5F5F5F5F5F5F5F5F5F5F5F5F5F5F5F5F5F5F5F5F5F5F5F5F5F5F5F5F5F5F5F5F5F5F5F5F5F5F5F5F5F5F5F5F5F5F5F5F5F5
310
F5F5F5F5F5F5F5F5F5F5F5F5F5F5F5F5F5F5F5F5F5F5F5F5F5F5F5F5F5F5F5F5F5F5F5F5F5F5F5F5F5F5F5F5F5F5F5F5F5F5F5F5F5F5F5F5F5F5F5F5F5F5F5F5F5E2F5F5F5F5F5F5F5F5F5F5F5F5F5F5F5F5E2F5F5F5E2E2EFF5F5F5E2F5F5F5F5F5F5F5F5F5F5F5F5F5F5F5F5E2F5F5F5F5F5F5F5F5F5F5F5F5F5F5F5F5F5
310
F5F5F5F5F5F5F5F5F5F5F5F5F5F5F5F5F5F5F5F5F5F5F5F5F5F5F5F5F5F5F5F5F5F5F5F5F5F5F5F5F5F5F5F5F5F5F5F5F5F5F5F5F5F5F5F5F5F5F5F5F5F5F5F5F5F5F5F5F5F5F5F5F5F5F5F5F5F5F5F5F5F5F5F5F5F5F5F5F5F5F5F5F5F5F5F5F5F5F5F5F5F5F5F5F5F5F5F5F5F5F5F5F5F5F5F5F5F5E2F5F5F5F5F5F5F5F5
310
F5F5F5F5F5F5F5F5E2F5F5F5E2E2EFF5F5F5E2F5F5F5F5F5F5F5F5F5F5F5F5F5F5F5F5E2F5F5F5F5F5F5F5F5F5F5F5F5F5F5F5F5F5F5F5F5F5F5F5F5F5F5F5F5F5F5F5F5F5F5F5F5F5F5F5F5F5F5F5F5F5F5F5F5F5F5F5F5F5F5F5F5F5F5F5F5F5F5F5F5F5F5F5F5F5F5F5F5F5F5F5F5F5F5F5F5F5F5F5F5F5F5F5F5F5F5F5
310
F5F5F5F5F5F5F5F5F5F5F5F5F5F5F5F5F5F5F5F5F5F5F5F5F5F5F5F5F5F5F5F5F5F5F5F5F5F5F5F5F5F5F5F5E2F5F5F5F5F5F5F5F5F5F5F5F5F5F5F5F5E2F5F5F5E2E2EFF5F5F5E2F5F5F5F5F5F5F5F5F5F5F5F5F5F5F5F5E2F5F5F5F5F5F5F5F5F5F5F5F5F5F5F5F5F5F5F5F5F5F5F5F5F5F5F5F5F5F5F5F5F5F5F5F5F5F5
310
F5F5F5F5F5F5F5F5F5F5F5F5F5F5F5F5F5F5F5F5F5F5F5F5F5F5F5F5F5F5F5F5F5F5F5F5F5F5F5F5F5F5F5F5F5F5F5F5F5F5F5F5F5F5F5F5F5F5F5F5F5F5F5F5F5F5F5F5F5F5F5F5F5F5F5F5F5F5F5F5F5F5F5F5F5F5F5F5F5F5F5F5F5F5F5F5F5E2F5F5F5F5F5F5F5F5F5F5F5F5F5F5F5F5E2F5F5F5E2E2EFF5F5F5E2F5F5
310
F5F5F5F5F5F5F5F5F5F5F5F5F5F5E2F5F5F5F5F5F5F5F5F5F5F5F5F5F5F5F5F5F5F5F5F5F5F5F5F5F5F5F5F5F5F5F5F5F5F5F5F5F5F5F5F5F5F5F5F5F5F5F5F5F5F5F5F5F5F5F5F5F5F5F5F5F5F5F5F5F5F5F5F5F5F5F5F5F5F5F5F5F5F5F5F5F5F5F5F5F5F5F5F5F5F5F5F5F5F5F5F5F5F5F5F5F5F5F5F5F5F5F5F5F5F5F5
310
F5F5F5F5F5F5F5F5F5F5F5F5F5F5F5F5F5F5F5F5F5F5F5E2F5F5F5F5F5F5F5F5F5F5F5F5F5F5F5F5E2F5F5F5E2E2EFF5F5F5E2F5F5F5F5F5F5F5F5F5F5F5F5F5F5F5F5E2F5F5F5F5F5F5F5F5F5F5F5F5F5F5F5F5F5F5F5F5F5F5F5F5F5F5F5F5F5F5F5F5F5F5F5F5F5F5F5F5F5F5F5F5F5F5F5F5F5F5F5F5F5F5F5F5F5F5F5
310
F5F5F5F5F5F5F5F5F5F5F5F5F5F5F5F5F5F5F5F5F5F5F5F5F5F5F5F5F5F5F5F5F5F5F5F5F5F5F5F5F5F5F5F5F5F5F5F5F5F5F5F5F5F5F5F5F5F5F5F5F5F5F5F5F5F5F5F5F5F5F5F5F5F5F5F5E2F5F5F5F5F5F5F5F5F5F5F5F5F5F5F5F5E2F5F5F5E2E2EFF5F5F5E2F5F5F5F5F5F5F5F5F5F5F5F5F5F5F5F5E2F5F5F5F5F5F5
310
F5F5F5F5F5F5F5F5F5F5F5F5F5F5F5F5F5F5F5F5F5F5F5F5F5F5F5F5F5F5F5F5F5F5F5F5F5F5F5F5F5F5F5F5F5F5F5F5F5F5F5F5F5F5F5F5F5F5F5F5F5F5F5F5F5F5F5F5F5F5F5F5F5F5F5F5F5F5F5F5F5F5F5F5F5F5F5F5F5F5F5F5F5F5F5F5F5F5F5F5F5F5F5F5F5F5F5F5F5F5F5F5F5F5F5F5F5F5F5F5F5F5F5F5F5F5F5
310
F5F5E2F5F5F5F5F5F5F5F5F5F5F5F5F5F5F5F5E2F5F5F5E2E2EFF5F5F5F5F5F5F5F5F5F5F5F5F5F5F5F5F5F5F5F5E2F5F5F5F5F5F5F5F5F5F5F5F5F5F5F5F5F5F5F5F5F5F5F5F5F5F5F5F5F5F5F5F5F5F5F5F5F5F5F5F5F5F5F5F5F5F5F5F5F5F5F5F5F5F5F5F5F5F5F5F5F5F5F5F5F5F5F5F5F5F5F5F5F5F5F5F5F5F5F5F5
310
F5F5F5F5F5F5F5F5F5F5F5F5F5F5F5F5F5F5F5F5F5F5F5F5F5F5F5F5F5F5F5F5F5F5F5F5F5F5F5F5F5F5F5F5F5F5F5F5F5F5F5F5F5F5F5E2F5F5F5F5F5F5F5F5F5F5F5F5F5F5F5F5F5F5F5F5E2E2EFF5F5F5F5F5F5F5F5F5F5F5F5F5F5F5F5F5F5F5F5E2F5F5F5F5F5F5F5F5F5F5F5F5F5F5F5F5F5F5F5F5F5F5F5F5F5F5F5
310
F5F5F5F5F5F5F5F5F5F5F5F5F5F5F5F5F5F5F5F5F5F5F5F5F5F5F5F5F5F5F5F5F5F5F5F5F5F5F5F5F5F5F5F5F5F5F5F5F5F5F5F5F5F5F5F5F5F5F5F5F5F5F5F5F5F5F5F5F5F5F5F5F5F5F5F5F5F5F5F5F5F5F5F5F5F5F5F5F5F5F5F5F5F5F5F5F5F5F5F5F5F5F5F5F5F5F5F5E2F5F5F5F5F5F5F5F5F5F5F5F5F5F5F5F5F5F5
310
F5F5E2E2EFF5F5F5F5F5F5F5F5F5F5F5F5F5F5F5F5F5F5F5F5E2F5F5F5F5F5F5F5F5F5F5F5F5F5F5F5F5F5F5F5F5F5F5F5F5F5F5F5F5F5F5F5F5F5F5F5F5F5F5F5F5F5F5F5F5F5F5F5F5F5F5F5F5F5F5F5F5F5F5F5F5F5F5F5F5F5F5F5F5F5F5F5F5F5F5F5F5F5F5F5F5F5F5F5F5F5F5F5F5F5F5F5F5F5F5F5F5F5F5F5F5F5
310
F5F5F5F5F5F5F5F5F5F5F5F5F5F5F5F5F5F5F5F5F5F5F5F5F5F5F5F5F5F5F5F5F5F5E2F5F5F5F5F5F5F5F5F5F5F5F5F5F5F5F5F5F5F5F5E2E2EFF5F5F5F5F5F5F5F5F5F5F5F5F5F5F5F5F5F5F5F5E2F5F5F5F5F5F5F5F5F5F5F5F5F5F5F5F5F5F5F5F5F5F5F5F5F5F5F5F5F5F5F5F5F5F5F5F5F5F5F5F5F5F5F5F5F5F5F5F5
310
F5F5F5F5F5F5F5F5F5F5F5F5F5F5F5F5F5F5F5F5F5F5F5F5F5F5F5F5F5F5F5F5F5F5F5F5F5F5F5F5F5F5F5F5F5F5F5F5F5F5F5F5F5F5F5F5F5F5F5F5F5F5F5F5F5F5F5F5F5F5F5F5F5F5F5F5F5F5F5F5F5F5F5F5F5F5F5E2F5F5F5F5F5F5F5F5F5F5F5F5F5F5F5F5F5F5F5F5E2E2EFF5F5F5F5F5F5F5F5F5F5F5F5F5F5F5F5
310
F5F5F5F5E2E2E2E2E2E2E2E2E2E2E2E2E2E2E2E2E2E2E2E2E2E2E2E2E2E2E2E2E2E2E2E2E2E2E2E2E2E2E2E2E2E2E2E2E2E2E2E2E2E2E2E2E2E2E2E2E2E2E2E2E2E2E2E2E2E2E2E2E2E2E2E2E2E2E2E2E2E2E2E2E2E2E2E2E2E2E2E2E2E2E2E2E2E2E2E2E2E2E2E2E2E2E2E2E2E2E2E2E2E2E2E2E2E2E2E2E2E2E2E2E2E2E2
310
E2E2E2E2E2E2E2E2E2E2E2E2E2E2F5F5F5F5F5F5F5F5F5F5F5F5F5F5F5F5F5F5F5F5E2E2EFF5F5F5F5F5F5F5F5F5F5F5F5F5F5F5F5F5F5F5F5F5F5F5F5F5F5F5F5F5F5F5F5F5F5F5F5F5F5F5F5F5F5F5F5F5F5F5F5F5F5F5F5F5F5F5F5F5F5F5F5F5F5F5F5F5F5F5F5F5F5F5F5F5F5F5F5F5F5F5F5F5F5F5F5F5F5F5F5F5F5
310
F5F5F5F5F5F5F5F5F5F5F5F5F5F5F5F5F5F5F5F5F5F5F5F5F5F5F5F5F5F5F5F5F5F5F5F5F5F5F5F5F5F5F5F5F5F5F5F5F5F5F5F5F5F5F5F5F5F5F5F5F5F5F5F5F5F5F5F5F5F5F5F5F5F5F5F5F5F5F5F5F5F5F5F5F5F5F5E2E2EFF5F5F5F5F5F5F5F5F5F5F5F5F5F5F5F5F5F5F5F5F5F5F5F5F5F5F5F5F5F5F5F5F5F5F5F5F5
310
F5F5F5F5F5F5F5F5F5F5F5F5F5F5F5F5F5F5F5F5F5F5F5F5F5F5F5F5F5F5F5F5F5F5F5F5F5F5F5F5F5F5F5F5F5F5F5F5F5F5F5F5F5F5F5F5F5F5F5F5F5F5F5F5F5F5F5F5F5F5F5F5F5F5F5F5F5F5F5F5F5F5F5F5F5F5F5F5F5F5F5F5F5F5F5F5F5F5F5F5F5F5F5F5F5F5F5F5F5F5F5F5F5F5F5F5F5F5F5F5F5F5F5F5F5F5F5
310
F5F5F5F5F5F5F5F5F5F5F5F5F5E2E2EFF5F5F5F5F5F5F5F5F5F5F5F5F5F5F5F5F5F5F5F5F5F5F5F5F5F5F5F5F5F5F5F5F5F5F5F5F5F5F5F5F5F5F5F5F5F5F5F5F5F5F5F5F5F5F5F5F5F5F5F5F5F5F5F5F5F5F5F5F5F5F5F5F5F5F5F5F5F5F5F5F5F5F5F5F5F5F5F5F5F5F5F5F5F5F5F5F5F5F5F5F5F5F5F5F5F5F5F5F5F5F5
310
F5F5F5F5F5F5F5F5F5F5F5F5F5F5F5F5F5F5F5F5F5F5F5F5F5F5F5F5F5F5F5F5F5F5F5F5F5F5F5F5F5F5F5F5F5F5F5F5F5F5F5F5F5F5F5F5F5F5F5F5F5F5F5F5F5F5E2E2EFF5F5F5F5F5F5F5F5F5F5F5F5F5F5F5F5F5F5F5F5F5F5F5F5F5F5F5F5F5F5F5F5F5F5F5F5F5F5F5F5F5F5F5F5F5F5F5F5F5F5F5F5F5F5F5F5F5F5
310
F5F5F5F5F5F5F5F5F5F5F5F5F5F5F5F5F5F5F5F5F5F5F5F5F5F5F5F5F5F5F5F5F5F5F5F5F5F5F5F5F5F5F5F5F5F5F5F5F5F5F5F5F5F5F5F5F5F5F5F5F5F5F5F5F5F5F5F5F5F5F5F5F5F5F5F5F5F5F5F5F5F5F5F5F5F5F5F5F5F5F5F5F5F5F5F5F5F5F5F5F5F5F5F5F5F5F5F5F5F5F5F5F5F5F5F5F5F5F5E2E2EFF5F5F5E2F5
310
F5F5F5F5F5F5F5F5F5F5F5F5F5F5F5F5F5F5F5F5F5F5F5F5F5F5F5F5F5F5F5F5F5F5F5F5F5F5F5F5F5F5F5F5F5F5F5F5F5F5F5F5F5F5F5F5F5F5F5F5F5F5F5F5F5F5F5F5F5F5F5F5F5F5F5F5F5F5F5F5F5F5F5F5F5F5F5F5F5F5F5F5F5F5F5F5F5F5F5F5F5F5F5F5F5F5F5F5F5F5F5F5F5F5F5F5F5F5F5F5F5F5F5F5F5F5F5
310
F5F5F5F5F5F5F5F5F5F5F5F5F5F5F5F5F5F5F5F5F5F5F5F5F5F5F5F5F5F5F5F5F5F5F5F5F5F5F5F5F5E2F5F5F5E2E2EFF5F5F5E2F5F5F5F5F5F5F5F5F5F5F5F5F5F5F5F5F5F5F5F5F5F5F5F5F5F5F5F5F5F5F5F5F5F5F5F5F5F5F5F5F5F5F5F5F5F5F5F5F5F5F5F5F5F5F5F5F5F5F5F5F5F5F5F5F5F5F5F5F5F5F5F5F5F5F5
310
F5F5F5F5F5F5F5F5F5F5F5F5F5F5F5F5F5F5F5F5F5F5F5F5F5F5F5F5F5F5F5F5F5F5F5F5F5F5F5F5F5F5F5F5F5F5F5F5F5F5F5F5F5F5F5F5F5F5F5F5F5F5F5F5F5F5F5F5F5F5F5F5F5F5F5F5F5F5F5F5F5F5F5F5F5F5F5F5F5F5F5F5F5F5E2F5F5F5E2E2EFF5F5F5E2F5F5F5F5F5F5F5F5F5F5F5F5F5F5F5F5F5F5F5F5F5F5
310
F5F5F5F5F5F5F5F5F5F5F5F5F5F5F5F5F5F5F5F5F5F5F5F5F5F5F5F5F5F5F5F5F5F5F5F5F5F5F5F5F5F5F5F5F5F5F5F5F5F5F5F5F5F5F5F5F5F5F5F5F5F5F5F5F5F5F5F5F5F5F5F5F5F5F5F5F5F5F5F5F5F5F5F5F5F5F5F5F5F5F5F5F5F5F5F5F5F5F5F5F5F5F5F5F5F5F5F5F5F5F5F5F5F5F5F5F5F5F5F5F5F5F5F5F5F5F5
310
F5F5F5F5F5F5F5F5F5F5F5F5F5F5F5F5F5F5F5F5E2F5F5F5E2E2EFF5F5F5E2F5F5F5F5F5F5F5F5F5F5F5F5F5F5F5F5F5F5F5F5F5F5F5F5F5F5F5F5F5F5F5F5F5F5F5F5F5F5F5F5F5F5F5F5F5F5F5F5F5F5F5F5F5F5F5F5F5F5F5F5F5F5F5F5F5F5F5F5F5F5F5F5F5F5F5F5F5F5F5F5F5F5F5F5F5F5F5F5F5F5F5F5F5F5F5F5
310
F5F5F5F5F5F5F5F5F5F5F5F5F5F5F5F5F5F5F5F5F5F5F5F5F5F5F5F5F5F5F5F5F5F5F5F5F5F5F5F5F5F5F5F5F5F5F5F5F5F5F5F5F5F5F5F5F5F5F5F5F5F5F5F5F5F5F5F5F5F5F5F5F5E2F5F5F5E2E2EFF5F5F5E2F5F5F5F5F5F5F5F5F5F5F5F5F5F5F5F5F5F5F5F5F5F5F5F5F5F5F5F5F5F5F5F5F5F5F5F5F5F5F5F5F5F5F5
310
F5F5F5F5F5F5F5F5F5F5F5F5F5F5F5F5F5F5F5F5F5F5F5F5F5F5F5F5F5F5F5F5F5F5F5F5F5F5F5F5F5F5F5F5F5F5F5F5F5F5F5F5F5F5F5F5F5F5F5F5F5F5F5F5F5F5F5F5F5F5F5F5F5F5F5F5F5F5F5F5F5F5F5F5F5F5F5F5F5F5F5F5F5F5F5F5F5F5F5F5F5F5F5F5F5F5F5F5F5F5F5F5F5F5F5F5F5F5F5F5F5F5F5F5F5F5E2
310
F5F5F5E2E2EFF5F5F5E2F5F5F5F5F5F5F5F5F5F5F5F5F5F5F5F5F5F5F5F5F5F5F5F5F5F5F5F5F5F5F5F5F5F5F5F5F5F5F5F5F5F5F5F5F5F5F5F5F5F5F5F5F5F5F5F5F5F5F5F5F5F5F5F5F5F5F5F5F5F5F5F5F5F5F5F5F5F5F5F5F5F5F5F5F5F5F5F5F5F5F5F5F5F5F5F5F5F5F5F5F5F5F5F5F5F5F5F5F5F5F5F5F5F5F5F5F5
310
F5F5F5F5F5F5F5F5F5F5F5F5F5F5F5F5F5F5F5F5F5F5F5F5F5F5F5F5F5F5F5F5F5F5F5F5F5F5F5F5F5F5F5F5F5F5F5F5F5F5F5F5E2F5F5F5E2E2EFF5F5F5E2F5F5F5F5F5F5F5F5F5F5F5F5F5F5F5F5F5F5F5F5F5F5F5F5F5F5F5F5F5F5F5F5F5F5F5F5F5F5F5F5F5F5F5F5F5F5F5F5F5F5F5F5F5F5F5F5F5F5F5F5F5F5F5F5
310
F5F5F5F5F5F5F5F5F5F5F5F5F5F5F5F5F5F5F5F5F5F5F5F5F5F5F5F5F5F5F5F5F5F5F5F5F5F5F5F5F5F5F5F5F5F5F5F5F5F5F5F5F5F5F5F5F5F5F5F5F5F5F5F5F5F5F5F5F5F5F5F5F5F5F5F5F5F5F5F5F5F5F5F5F5F5F5F5F5F5F5F5F5F5F5F5F5F5F5F5F5F5F5F5F5E2F5F5F5E2E2EFF5F5F5E2F5F5F5F5F5F5F5F5F5F5F5
310
F5F5F5F5F5F5F5F5F5F5F5F5F5F5F5F5F5F5F5F5F5F5F5F5F5F5F5F5F5F5F5F5F5F5F5F5F5F5F5F5F5F5F5F5F5F5F5F5F5F5F5F5F5F5F5F5F5F5F5F5F5F5F5F5F5F5F5F5F5F5F5F5F5F5F5F5F5F5F5F5F5F5F5F5F5F5F5F5F5F5F5F5F5F5F5F5F5F5F5F5F5F5F5F5F5F5F5F5F5F5F5F5F5F5F5F5F5F5F5F5F5F5F5F5F5F5F5
310
F5F5F5F5F5F5F5F5F5F5F5F5F5F5F5F5F5F5F5F5F5F5F5F5F5F5F5F5F5F5F5E2F5F5F5E2E2EFF5F5F5E2E2E2E2E2E2E2E2F5F5F5F5F5F5F5F5F5E2E2E2E2E2E2E2E2E2E2E2E2E2E2E2E2F5F5F5F5F5F5F5F5E2E2E2E2E2E2E2E2E2E2E2E2E2E2E2E2F5F5F5F5F5F5F5F5F5E2E2E2E2E2E2E2E2E2E2E2E2E2E2E2F5F5F5F5F5
310
F5F5F5F5E2E2E2E2E2E2E2E2E2E2E2E2E2E2E2F5F5F5F5F5F5F5F5F5E2E2E2E2E2E2E2E2E2E2E2E2E2E2E2E2F5F5F5F5F5F5F5F5E2E2E2E2E2E2E2E2E2E2E2E2E2E2E2E2F5F5F5F5F5F5F5F5F5E2E2E2E2E2E2E2E2F5F5F5E2E2EFF5F5F5F5F5F5F5F5F5F5F5F5F5F5F5F5F5F5F5F5F5F5F5F5F5F5F5F5F5F5F5F5F5F5F5F5
310
F5F5F5F5F5F5F5F5F5F5F5F5F5F5F5F5F5F5F5F5F5F5F5F5F5F5F5F5F5F5F5F5F5F5F5F5F5F5F5F5F5F5F5F5F5F5F5F5F5F5F5F5F5F5F5F5F5F5F5F5F5F5F5F5F5F5F5F5F5F5F5F5F5F5F5F5F5F5F5F5F5F5F5F5F5F5F5F5F5F5F5F5F5F5F5F5F5F5F5F5F5F5F5F5F5F5F5F5F5F5F5F5F5F5F5F5F5F5F5F5F5F5F5F5F5F5F5
310
F5F5F5F5F5F5F5F5F5F5F5F5F5F5E2E2EFF5F5F5F5F5F5F5F5F5F5F5F5F5F5F5F5F5F5F5F5F5F5F5F5F5F5F5F5F5F5F5F5F5F5F5F5F5F5F5F5F5F5F5F5F5F5F5F5F5F5F5F5F5F5F5F5F5F5F5F5F5F5F5F5F5F5F5F5F5F5F5F5F5F5F5F5F5F5F5F5F5F5F5F5F5F5F5F5F5F5F5F5F5F5F5F5F5F5F5F5F5F5F5F5F5F5F5F5F5F5
310
F5F5F5F5F5F5F5F5F5F5F5F5F5F5F5F5F5F5F5F5F5F5F5F5F5F5F5F5F5F5F5F5F5F5F5F5F5F5F5F5F5F5F5F5F5F5F5F5F5F5F5F5F5F5F5F5F5F5F5F5F5F5F5F5F5F5F5E2EFEFF5F5F5F5F5F5F5F5F5F5F5F5F5F5F5F5F5F5F5F5F5F5F5F5F5F5F5F5F5F5F5F5F5F5F5F5F5F5F5F5F5F5F5F5F5F5F5F5F5F5F5F5F5F5F5F5F5
310
F5F5F5F5F5F5F5F5F5F5F5F5F5F5F5F5F5F5F5F5F5F5F5F5F5F5F5F5F5F5F5F5F5F5F5F5F5F5F5F5F5F5F5F5F5F5F5F5F5F5F5F5F5F5F5F5F5F5F5F5F5F5F5F5F5F5F5F5F5F5F5F5F5F5F5F5F5F5F5F5F5F5F5F5F5F5F5F5F5F5F5F5F5F5F5F5F5F5F5F5F5F5F5F5F5F5F5F5F5F5F5F5F5F5F5F5F5F5F5F5E2EFEFE2E2E2E2
310
E2E2E2E2E2E2E2E2E2E2E2E2E2E2E2E2E2E2E2E2E2E2E2E2E2E2E2E2E2E2E2E2E2E2E2E2E2E2E2E2E2E2E2E2E2E2E2E2E2E2E2E2E2E2E2E2E2E2E2E2E2E2E2E2E2E2E2E2E2E2E2E2E2E2E2E2E2E2E2E2E2E2E2E2E2E2E2E2E2E2E2E2E2E2E2E2E2E2E2E2E2E2E2E2E2E2E2E2E2E2E2E2E2E2E2E2E2E2E2E2E2E2E2E2E2E2E2
310
E2E2E2E2E2E2E2E2E2E2E2E2E2E2E2E2E2E2E2E2E2E2E2E2E2E2E2E2E2E2E2E2E2E2E2E2E2E2E2E2E2E2E2E2E2E2E2EFEF
  0
ENDSEC
  0
EOF
